  0
SECTION
  2
HEADER
  9
$ACADVER
  1
AC1009
  9
$INSBASE
 10
0.0
 20
0.0
 30
0.0
  9
$EXTMIN
 10
-356.61600112052338
 20
333.7346344492052
 30
-0.0015258207003583
  9
$EXTMAX
 10
996.21709781975824
 20
870.95529666295158
 30
0.0000000349246037
  9
$LIMMIN
 10
0.0
 20
0.0
  9
$LIMMAX
 10
420.0
 20
297.0
  9
$ORTHOMODE
 70
     0
  9
$REGENMODE
 70
     1
  9
$FILLMODE
 70
     1
  9
$QTEXTMODE
 70
     0
  9
$MIRRTEXT
 70
     1
  9
$DRAGMODE
 70
     2
  9
$LTSCALE
 40
1.0
  9
$OSMODE
 70
    47
  9
$ATTMODE
 70
     1
  9
$TEXTSIZE
 40
0.0
  9
$TRACEWID
 40
1.0
  9
$TEXTSTYLE
  7
STANDARD
  9
$CLAYER
  8
0
  9
$CELTYPE
  6
BYLAYER
  9
$CECOLOR
 62
   256
  9
$DIMSCALE
 40
1.0
  9
$DIMASZ
 40
2.5
  9
$DIMEXO
 40
0.625
  9
$DIMDLI
 40
3.75
  9
$DIMRND
 40
0.0
  9
$DIMDLE
 40
0.0
  9
$DIMEXE
 40
1.25
  9
$DIMTP
 40
0.0
  9
$DIMTM
 40
0.0
  9
$DIMTXT
 40
2.5
  9
$DIMCEN
 40
2.5
  9
$DIMTSZ
 40
0.0
  9
$DIMTOL
 70
     0
  9
$DIMLIM
 70
     0
  9
$DIMTIH
 70
     0
  9
$DIMTOH
 70
     0
  9
$DIMSE1
 70
     0
  9
$DIMSE2
 70
     0
  9
$DIMTAD
 70
     1
  9
$DIMZIN
 70
     8
  9
$DIMBLK
  1

  9
$DIMASO
 70
     1
  9
$DIMSHO
 70
     1
  9
$DIMPOST
  1

  9
$DIMAPOST
  1

  9
$DIMALT
 70
     0
  9
$DIMALTD
 70
     3
  9
$DIMALTF
 40
0.03937
  9
$DIMLFAC
 40
1.0
  9
$DIMTOFL
 70
     1
  9
$DIMTVP
 40
0.0
  9
$DIMTIX
 70
     0
  9
$DIMSOXD
 70
     0
  9
$DIMSAH
 70
     0
  9
$DIMBLK1
  1

  9
$DIMBLK2
  1

  9
$DIMSTYLE
  2
STANDARD
  9
$DIMCLRD
 70
     0
  9
$DIMCLRE
 70
     0
  9
$DIMCLRT
 70
     0
  9
$DIMTFAC
 40
1.0
  9
$DIMGAP
 40
0.625
  9
$LUNITS
 70
     2
  9
$LUPREC
 70
     4
  9
$SKETCHINC
 40
1.0
  9
$FILLETRAD
 40
2.5
  9
$AUNITS
 70
     0
  9
$AUPREC
 70
     0
  9
$MENU
  1
.
  9
$ELEVATION
 40
0.0
  9
$PELEVATION
 40
0.0
  9
$THICKNESS
 40
0.0
  9
$LIMCHECK
 70
     0
  9
$BLIPMODE
 70
     0
  9
$CHAMFERA
 40
2.5
  9
$CHAMFERB
 40
2.5
  9
$SKPOLY
 70
     0
  9
$TDCREATE
 40
2311942.6599061568
  9
$TDUPDATE
 40
2454455.396456134
  9
$TDINDWG
 40
0.0006507986
  9
$TDUSRTIMER
 40
0.0006507986
  9
$USRTIMER
 70
     1
  9
$ANGBASE
 50
0.0
  9
$ANGDIR
 70
     0
  9
$PDMODE
 70
     0
  9
$PDSIZE
 40
0.0
  9
$PLINEWID
 40
0.0
  9
$COORDS
 70
     1
  9
$SPLFRAME
 70
     0
  9
$SPLINETYPE
 70
     6
  9
$SPLINESEGS
 70
     8
  9
$ATTDIA
 70
     0
  9
$ATTREQ
 70
     1
  9
$HANDLING
 70
 22529
  9
$HANDSEED
  5
F5B
  9
$SURFTAB1
 70
     6
  9
$SURFTAB2
 70
     6
  9
$SURFTYPE
 70
     6
  9
$SURFU
 70
     6
  9
$SURFV
 70
     6
  9
$UCSNAME
  2

  9
$UCSORG
 10
0.0
 20
0.0
 30
0.0
  9
$UCSXDIR
 10
1.0
 20
0.0
 30
0.0
  9
$UCSYDIR
 10
0.0
 20
1.0
 30
0.0
  9
$PUCSNAME
  2

  9
$PUCSORG
 10
0.0
 20
0.0
 30
0.0
  9
$PUCSXDIR
 10
1.0
 20
0.0
 30
0.0
  9
$PUCSYDIR
 10
0.0
 20
1.0
 30
0.0
  9
$USERI1
 70
     0
  9
$USERI2
 70
     0
  9
$USERI3
 70
     0
  9
$USERI4
 70
     0
  9
$USERI5
 70
     0
  9
$USERR1
 40
0.0
  9
$USERR2
 40
0.0
  9
$USERR3
 40
0.0
  9
$USERR4
 40
0.0
  9
$USERR5
 40
0.0
  9
$WORLDVIEW
 70
     1
  9
$SHADEDGE
 70
     3
  9
$SHADEDIF
 70
    70
  9
$TILEMODE
 70
     1
  9
$MAXACTVP
 70
    48
  9
$PLIMCHECK
 70
     0
  9
$PEXTMIN
 10
0.0
 20
0.0
 30
0.0
  9
$PEXTMAX
 10
284.98425299999991
 20
213.62458799999999
 30
2.0
  9
$PLIMMIN
 10
0.0
 20
0.0
  9
$PLIMMAX
 10
420.0
 20
297.0
  9
$UNITMODE
 70
     0
  9
$VISRETAIN
 70
     0
  9
$PLINEGEN
 70
     0
  9
$PSLTSCALE
 70
     1
  0
ENDSEC
  0
SECTION
  2
TABLES
  0
TABLE
  2
VPORT
 70
     5
  0
VPORT
  2
*ACTIVE
 70
     0
 10
0.0
 20
0.0
 11
1.0
 21
1.0
 12
319.80054834961737
 22
602.34496555607836
 13
0.0
 23
0.0
 14
1.0
 24
1.0
 15
0.0
 25
0.0
 16
0.0
 26
0.0
 36
1.0
 17
0.0
 27
0.0
 37
0.0
 40
876.82902380651069
 41
1.550724637681159
 42
50.0
 43
0.0
 44
0.0
 50
0.0
 51
0.0
 71
     0
 72
   100
 73
     1
 74
     1
 75
     0
 76
     0
 77
     0
 78
     0
  0
ENDTAB
  0
TABLE
  2
LTYPE
 70
     8
  0
LTYPE
  2
CONTINUOUS
 70
     0
  3
Solid line
 72
    65
 73
     0
 40
0.0
  0
LTYPE
  2
DASHED
 70
     0
  3
__ __ __ __ __ __ __ __ __ __ __ __ __ __ __ __
 72
    65
 73
     2
 40
15.0
 49
12.0
 49
-3.0
  0
LTYPE
  2
DASHDOT
 70
     0
  3
 __ . __ . __ . __ . __ . __ . __ . 
 72
    65
 73
     4
 40
18.5
 49
12.0
 49
-3.0
 49
0.5
 49
-3.0
  0
LTYPE
  2
DOT
 70
     0
  3
 . . . . . . . . . . . . . . . .
 72
    65
 73
     2
 40
3.5
 49
0.5
 49
-3.0
  0
LTYPE
  2
DASHSPACE
 70
     0
  3
__    __    __    __    __   
 72
    65
 73
     2
 40
30.0
 49
12.0
 49
-18.0
  0
LTYPE
  2
DASHDOT2
 70
     0
  3
__ . . __ . . __ . . __ 
 72
    65
 73
     6
 40
22.0
 49
12.0
 49
-3.0
 49
0.5
 49
-3.0
 49
0.5
 49
-3.0
  0
LTYPE
  2
PHANTOM
 70
     0
  3
____________    ____    ____   _
 72
    65
 73
     6
 40
20.0
 49
10.0
 49
-2.0
 49
2.0
 49
-2.0
 49
2.0
 49
-2.0
  0
LTYPE
  2
AXES
 70
     0
  3
________  __  ________  __  _____
 72
    65
 73
     4
 40
24.0
 49
15.0
 49
-3.0
 49
3.0
 49
-3.0
  0
ENDTAB
  0
TABLE
  2
LAYER
 70
     1
  0
LAYER
  2
0
 70
     0
 62
     7
  6
CONTINUOUS
  0
ENDTAB
  0
TABLE
  2
STYLE
 70
     2
  0
STYLE
  2
STANDARD
 70
     0
 40
0.0
 41
1.0
 50
0.0
 71
     0
 42
0.0
  3
isocp.shx
  4

  0
STYLE
  2
GDT
 70
     0
 40
0.0
 41
1.0
 50
0.0
 71
     0
 42
0.0
  3
amgdt.shx
  4

  0
ENDTAB
  0
TABLE
  2
VIEW
 70
     0
  0
ENDTAB
  0
TABLE
  2
UCS
 70
     0
  0
ENDTAB
  0
TABLE
  2
APPID
 70
     1
  0
APPID
  2
ACAD
 70
     0
  0
ENDTAB
  0
TABLE
  2
DIMSTYLE
 70
     1
  0
DIMSTYLE
  2
STANDARD
 70
     0
  3

  4

  5

  6

  7

 40
1.0
 41
2.5
 42
0.625
 43
3.75
 44
1.25
 45
0.0
 46
0.0
 47
0.0
 48
0.0
140
2.5
141
2.5
142
0.0
143
0.03937
144
1.0
145
0.0
146
1.0
147
0.625
 71
     0
 72
     0
 73
     0
 74
     0
 75
     0
 76
     0
 77
     1
 78
     8
170
     0
171
     3
172
     1
173
     0
174
     0
175
     0
176
     0
177
     0
178
     0
  0
ENDTAB
  0
ENDSEC
  0
SECTION
  2
BLOCKS
  0
BLOCK
  8
0
  2
$MODEL_SPACE
 70
     0
 10
0.0
 20
0.0
 30
0.0
  3
$MODEL_SPACE
  1

  0
ENDBLK
  5
E
  8
0
  0
BLOCK
 67
     1
  8
0
  2
$PAPER_SPACE
 70
     0
 10
0.0
 20
0.0
 30
0.0
  3
$PAPER_SPACE
  1

  0
ENDBLK
  5
10
 67
     1
  8
0
  0
BLOCK
  8
0
  2
BLOCK0
 70
     0
 10
0.0
 20
0.0
 30
0.0
  3
BLOCK0
  1

  0
TEXT
  5
8B5
  8
0
 62
     1
 10
-575.0
 20
-106.0
 30
0.0
 40
3.0
  1
Ts3
 50
180.0
 41
1.225762527177944
 72
     5
 11
-582.69995099999994
 21
-106.0
 31
0.0
  0
ENDBLK
  5
8B6
  8
0
  0
BLOCK
  8
0
  2
BLOCK1
 70
     0
 10
0.0
 20
0.0
 30
0.0
  3
BLOCK1
  1

  0
TEXT
  5
8B8
  8
0
 62
     1
 10
-496.15213
 20
-106.0
 30
0.0
 40
2.0
  1
N0204 2007-09-17
 50
180.0
 41
1.1017678659486889
 72
     5
 11
-519.84783900000002
 21
-106.0
 31
0.0
  0
ENDBLK
  5
8B9
  8
0
  0
BLOCK
  8
0
  2
BLOCK2
 70
     0
 10
0.0
 20
0.0
 30
0.0
  3
BLOCK2
  1

  0
TEXT
  5
8BB
  8
0
 62
     1
 10
-550.0
 20
-95.0
 30
0.0
 40
4.0
  1
1SDH000637R0.122
 50
180.0
 41
1.3833447765089479
 72
     5
 11
-609.26281700000004
 21
-95.0
 31
0.0
  0
ENDBLK
  5
8BC
  8
0
  0
BLOCK
  8
0
  2
BLOCK3
 70
     0
 10
0.0
 20
0.0
 30
0.0
  3
BLOCK3
  1

  0
TEXT
  5
8BE
  8
0
 62
     1
 10
-555.0
 20
-121.0
 30
0.0
 40
2.0
  1
INTERR.AUTOMATICO SERIE ISOMAX
 50
179.9999897438901
 41
1.076916072289172
 72
     5
 11
-599.69201699999996
 21
-120.99999200000001
 31
0.0
  0
ENDBLK
  5
8BF
  8
0
  0
BLOCK
  8
0
  2
BLOCK4
 70
     0
 10
0.0
 20
0.0
 30
0.0
  3
BLOCK4
  1

  0
TEXT
  5
8C1
  8
0
 62
     1
 10
-542.0
 20
-118.0
 30
0.0
 40
2.0
  1
TRIPOL.ESECUZIONE ESTRAIBILE TERMINALI PER CAVI
 50
179.99999346939779
 41
1.126604157303378
 72
     5
 11
-612.18743899999993
 21
-117.99999199999991
 31
0.0
  0
ENDBLK
  5
8C2
  8
0
  0
BLOCK
  8
0
  2
BLOCK5
 70
     0
 10
0.0
 20
0.0
 30
0.0
  3
BLOCK5
  1

  0
TEXT
  5
8C4
  8
0
 62
     1
 10
-552.0
 20
-129.0
 30
0.0
 40
2.0
  1
3POLE LOW VOLTAGE M.C.C.B SERIES ISOMAX
 50
180.0
 41
1.0999919659735351
 72
     5
 11
-610.18957499999988
 21
-129.0
 31
0.0
  0
ENDBLK
  5
8C5
  8
0
  0
BLOCK
  8
0
  2
BLOCK6
 70
     0
 10
0.0
 20
0.0
 30
0.0
  3
BLOCK6
  1

  0
TEXT
  5
8C7
  8
0
 62
     1
 10
-554.0
 20
-126.0
 30
0.0
 40
2.0
  1
WITHDRAWABLE VERSION CABLE TERMINALS
 50
179.99999146278469
 41
1.0172635467017681
 72
     5
 11
-607.69036900000003
 21
-125.99999200000001
 31
0.0
  0
ENDBLK
  5
8C8
  8
0
  0
BLOCK
  8
0
  2
BLOCK7
 70
     0
 10
0.0
 20
0.0
 30
0.0
  3
BLOCK7
  1

  0
TEXT
  5
8CA
  8
0
 62
     7
 10
175.19262699999999
 20
7.3303830000000003
 30
0.0
 40
3.0
  1
X
 50
180.0
 41
0.9777764444444551
 72
     5
 11
172.99262999999991
 21
7.3303830000000003
 31
0.0
  0
ENDBLK
  5
8CB
  8
0
  0
BLOCK
  8
0
  2
BLOCK8
 70
     0
 10
0.0
 20
0.0
 30
0.0
  3
BLOCK8
  1

  0
TEXT
  5
8CD
  8
0
 62
     7
 10
2.0064700000000002
 20
-116.5450899999999
 30
0.0
 40
3.0
  1
Y
 50
180.0
 41
0.9777777777777778
 72
     5
 11
-0.19353
 21
-116.5450899999999
 31
0.0
  0
ENDBLK
  5
8CE
  8
0
  0
BLOCK
  8
0
  2
BLOCK9
 70
     0
 10
0.0
 20
0.0
 30
0.0
  3
BLOCK9
  1

  0
TEXT
  5
8D0
  8
0
 62
     7
 10
3.54895
 20
210.03887900000001
 30
0.0
 40
3.0
  1
Y
 50
180.0
 41
0.9777777777777778
 72
     5
 11
1.3489500000000001
 21
210.03887900000001
 31
0.0
  0
ENDBLK
  5
8D1
  8
0
  0
BLOCK
  8
0
  2
BLOCK10
 70
     0
 10
0.0
 20
0.0
 30
0.0
  3
BLOCK10
  1

  0
TEXT
  5
8D3
  8
0
 62
     7
 10
155.99047899999999
 20
91.979613999999998
 30
0.0
 40
3.0
  1
 5
 50
202.64963740432279
 41
1.664276198983822
 72
     5
 11
151.4222409999999
 21
90.073394999999977
 31
0.0
  0
ENDBLK
  5
8D4
  8
0
  0
BLOCK
  8
0
  2
BLOCK11
 70
     0
 10
0.0
 20
0.0
 30
0.0
  3
BLOCK11
  1

  0
TEXT
  5
8D6
  8
0
 62
     7
 10
157.46704099999991
 20
92.595764000000003
 30
0.0
 40
3.0
  1
%%c
 50
202.64971075636271
 41
0.9777805771022492
 72
     5
 11
155.43670700000001
 21
91.748549999999994
 31
0.0
  0
ENDBLK
  5
8D7
  8
0
  0
BLOCK
  8
0
  2
BLOCK12
 70
     0
 10
0.0
 20
0.0
 30
0.0
  3
BLOCK12
  1

  0
TEXT
  5
8D9
  8
0
 62
     7
 10
135.68713399999999
 20
83.507477000000009
 30
0.0
 40
3.0
  1
 (M4)
 50
202.64966485087601
 41
1.6002244716596341
 72
     5
 11
123.505196
 21
78.424231999999975
 31
0.0
  0
ENDBLK
  5
8DA
  8
0
  0
BLOCK
  8
0
  2
BLOCK13
 70
     0
 10
0.0
 20
0.0
 30
0.0
  3
BLOCK13
  1

  0
TEXT
  5
8DC
  8
0
 62
     7
 10
-113.55444299999991
 20
16.5
 30
0.0
 40
3.0
  1
100
 50
269.99994047176273
 41
1.4660032381388619
 72
     5
 11
-113.554451
 21
8.8000199999999982
 31
0.0
  0
ENDBLK
  5
8DD
  8
0
  0
BLOCK
  8
0
  2
BLOCK14
 70
     0
 10
0.0
 20
0.0
 30
0.0
  3
BLOCK14
  1

  0
TEXT
  5
8DF
  8
0
 62
     7
 10
-37.0
 20
134.743469
 30
0.0
 40
3.0
  1
25
 50
180.0
 41
1.2776591662854091
 72
     5
 11
-41.949989000000002
 21
134.743469
 31
0.0
  0
ENDBLK
  5
8E0
  8
0
  0
BLOCK
  8
0
  2
BLOCK15
 70
     0
 10
0.0
 20
0.0
 30
0.0
  3
BLOCK15
  1

  0
TEXT
  5
8E2
  8
0
 62
     7
 10
-12.0
 20
171.426208
 30
0.0
 40
3.0
  1
45
 50
180.0
 41
1.185835136090813
 72
     5
 11
-16.949988999999999
 21
171.426208
 31
0.0
  0
ENDBLK
  5
8E3
  8
0
  0
BLOCK
  8
0
  2
BLOCK16
 70
     0
 10
0.0
 20
0.0
 30
0.0
  3
BLOCK16
  1

  0
TEXT
  5
8E5
  8
0
 62
     7
 10
139.973389
 20
0.181183
 30
0.0
 40
3.0
  1
52,25
 50
270.00006510903279
 41
1.446687743866663
 72
     5
 11
139.97340399999999
 21
-13.01877799999999
 31
0.0
  0
ENDBLK
  5
8E6
  8
0
  0
BLOCK
  8
0
  2
BLOCK17
 70
     0
 10
0.0
 20
0.0
 30
0.0
  3
BLOCK17
  1

  0
LINE
  5
8E8
  8
0
 62
     2
 10
75.736808999999994
 20
-175.33813499999999
 30
0.0
 11
75.736808999999994
 21
-210.83813499999999
 31
0.0
  0
LINE
  5
8E9
  8
0
 62
     2
 10
90.736808999999994
 20
-175.33813499999999
 30
0.0
 11
90.736808999999994
 21
-210.83813499999999
 31
0.0
  0
LINE
  5
8EA
  8
0
 62
     2
 10
74.736808999999994
 20
-210.83813499999999
 30
0.0
 11
91.736808999999994
 21
-210.83813499999999
 31
0.0
  0
LINE
  5
8EB
  8
0
 62
     2
 10
75.736808999999994
 20
-175.33813499999999
 30
0.0
 11
90.736808999999994
 21
-175.33813499999999
 31
0.0
  0
LINE
  5
8EC
  8
0
 62
     2
 10
91.736808999999994
 20
-210.83813499999999
 30
0.0
 11
189.73049900000001
 21
-210.83813499999999
 31
0.0
  0
LINE
  5
8ED
  8
0
 62
     2
 10
31.236809000000001
 20
-210.83813499999999
 30
0.0
 11
74.736801
 21
-210.83813499999999
 31
0.0
  0
LINE
  5
8EE
  8
0
 62
     2
 10
29.986809000000001
 20
-37.588135000000001
 30
0.0
 11
29.986809000000001
 21
-209.58813499999999
 31
0.0
  0
LINE
  5
8EF
  8
0
 62
     2
 10
31.236809000000001
 20
-36.338135000000001
 30
0.0
 11
189.73049900000001
 21
-36.338135000000001
 31
0.0
  0
LINE
  5
8F0
  8
0
 62
     2
 10
169.98680100000001
 20
-175.33813499999999
 30
0.0
 11
170.98680100000001
 21
-175.33813499999999
 31
0.0
  0
LINE
  5
8F1
  8
0
 62
     2
 10
169.986816
 20
-45.338134999999987
 30
0.0
 11
170.986816
 21
-45.338134999999987
 31
0.0
  0
LINE
  5
8F2
  8
0
 62
     2
 10
49.986809000000001
 20
-175.33813499999999
 30
0.0
 11
50.986809000000001
 21
-175.33813499999999
 31
0.0
  0
LINE
  5
8F3
  8
0
 62
     2
 10
49.986809000000001
 20
-46.338135000000001
 30
0.0
 11
49.986809000000001
 21
-174.33813499999999
 31
0.0
  0
LINE
  5
8F4
  8
0
 62
     2
 10
49.986809000000001
 20
-45.338134999999987
 30
0.0
 11
50.986809000000001
 21
-45.338134999999987
 31
0.0
  0
LINE
  5
8F5
  8
0
 62
     2
 10
29.986809000000001
 20
-174.33813499999999
 30
0.0
 11
49.986809000000001
 21
-174.33813499999999
 31
0.0
  0
LINE
  5
8F6
  8
0
 62
     2
 10
170.98680100000001
 20
-175.33813499999999
 30
0.0
 11
190.98680100000001
 21
-175.33813499999999
 31
0.0
  0
LINE
  5
8F7
  8
0
 62
     2
 10
50.986809000000001
 20
-175.33813499999999
 30
0.0
 11
74.736808999999994
 21
-175.33813499999999
 31
0.0
  0
LINE
  5
8F8
  8
0
 62
     2
 10
91.736808999999994
 20
-175.33813499999999
 30
0.0
 11
169.98680100000001
 21
-175.33813499999999
 31
0.0
  0
LINE
  5
8F9
  8
0
 62
     2
 10
29.986809000000001
 20
-175.33813499999999
 30
0.0
 11
49.986809000000001
 21
-175.33813499999999
 31
0.0
  0
LINE
  5
8FA
  8
0
 62
     2
 10
170.986816
 20
-45.338134999999987
 30
0.0
 11
190.986816
 21
-45.338134999999987
 31
0.0
  0
LINE
  5
8FB
  8
0
 62
     2
 10
50.986809000000001
 20
-45.338134999999987
 30
0.0
 11
169.986816
 21
-45.338134999999987
 31
0.0
  0
LINE
  5
8FC
  8
0
 62
     2
 10
29.986809000000001
 20
-45.338134999999987
 30
0.0
 11
49.986809000000001
 21
-45.338134999999987
 31
0.0
  0
LINE
  5
8FD
  8
0
 62
     2
 10
29.986809000000001
 20
-46.338135000000001
 30
0.0
 11
49.986809000000001
 21
-46.338135000000001
 31
0.0
  0
LINE
  5
8FE
  8
0
 62
     2
 10
74.736808999999994
 20
-175.33813499999999
 30
0.0
 11
74.736808999999994
 21
-210.83813499999999
 31
0.0
  0
LINE
  5
8FF
  8
0
 62
     2
 10
91.736808999999994
 20
-175.33813499999999
 30
0.0
 11
91.736808999999994
 21
-210.83813499999999
 31
0.0
  0
LINE
  5
900
  8
0
 62
     2
 10
90.736808999999994
 20
-175.38813799999991
 30
0.0
 11
91.736808999999994
 21
-175.38813799999991
 31
0.0
  0
LINE
  5
901
  8
0
 62
     2
 10
74.736808999999994
 20
-175.38813799999991
 30
0.0
 11
75.736808999999994
 21
-175.38813799999991
 31
0.0
  0
LINE
  5
902
  8
0
 62
     2
 10
169.986816
 20
-46.338135000000001
 30
0.0
 11
169.98680100000001
 21
-174.33813499999999
 31
0.0
  0
LINE
  5
903
  8
0
 62
     2
 10
50.986809000000001
 20
-46.338135000000001
 30
0.0
 11
50.986809000000001
 21
-174.33813499999999
 31
0.0
  0
LINE
  5
904
  8
0
 62
     2
 10
50.986809000000001
 20
-174.33813499999999
 30
0.0
 11
169.98680100000001
 21
-174.33813499999999
 31
0.0
  0
LINE
  5
905
  8
0
 62
     2
 10
50.986809000000001
 20
-46.338135000000001
 30
0.0
 11
169.986816
 21
-46.338135000000001
 31
0.0
  0
LINE
  5
906
  8
0
 62
     2
 10
162.98680100000001
 20
-167.33813499999999
 30
0.0
 11
169.98680100000001
 21
-174.33813499999999
 31
0.0
  0
LINE
  5
907
  8
0
 62
     2
 10
169.986816
 20
-46.338135000000001
 30
0.0
 11
162.4573969999999
 21
-62.338138999999998
 31
0.0
  0
LINE
  5
908
  8
0
 62
     2
 10
57.986823999999999
 20
-167.33813499999999
 30
0.0
 11
50.986804999999997
 21
-174.33815000000001
 31
0.0
  0
LINE
  5
909
  8
0
 62
     2
 10
50.986809000000001
 20
-46.338138999999991
 30
0.0
 11
58.51621999999999
 21
-62.338138999999998
 31
0.0
  0
LINE
  5
90A
  8
0
 62
     2
 10
170.98049900000001
 20
-174.33807400000001
 30
0.0
 11
190.9804989999999
 21
-174.33807400000001
 31
0.0
  0
LINE
  5
90B
  8
0
 62
     2
 10
170.98049900000001
 20
-45.338134999999987
 30
0.0
 11
170.98049900000001
 21
-175.33813499999999
 31
0.0
  0
LINE
  5
90C
  8
0
 62
     2
 10
190.9804989999999
 20
-37.588135000000001
 30
0.0
 11
190.9804989999999
 21
-45.338134999999987
 31
0.0
  0
LINE
  5
90D
  8
0
 62
     2
 10
190.9804989999999
 20
-115.34339900000001
 30
0.0
 11
190.9804989999999
 21
-175.33813499999999
 31
0.0
  0
ARC
  5
90E
  8
0
 62
     2
 10
195.12768600000001
 20
-110.338104
 30
0.0
 40
6.5001670000000003
 50
129.64374699999991
 51
230.3562529999999
  0
LINE
  5
90F
  8
0
 62
     2
 10
190.9804989999999
 20
-105.3328019999999
 30
0.0
 11
190.9804989999999
 21
-115.34339900000001
 31
0.0
  0
LINE
  5
910
  8
0
 62
     2
 10
170.986816
 20
-46.338135000000001
 30
0.0
 11
190.986816
 21
-46.338135000000001
 31
0.0
  0
LINE
  5
911
  8
0
 62
     2
 10
190.9804989999999
 20
-45.338134999999987
 30
0.0
 11
190.9804989999999
 21
-105.3328019999999
 31
0.0
  0
LINE
  5
912
  8
0
 62
     2
 10
190.9804989999999
 20
-175.33813499999999
 30
0.0
 11
190.9804989999999
 21
-209.58813499999999
 31
0.0
  0
POINT
  5
913
  8
0
 62
     2
 10
110.48680899999999
 20
-114.83813499999999
 30
0.0
  0
ARC
  5
914
  8
0
 62
     2
 10
189.73049900000001
 20
-37.588135000000001
 30
0.0
 40
1.25
 50
0.000003
 51
90.000005000000002
  0
ARC
  5
915
  8
0
 62
     2
 10
31.236809000000001
 20
-37.588135000000001
 30
0.0
 40
1.25
 50
90.000005000000002
 51
180.00000099999991
  0
ARC
  5
916
  8
0
 62
     2
 10
31.236809000000001
 20
-209.58813499999999
 30
0.0
 40
1.25
 50
180.00000099999991
 51
270.0
  0
ARC
  5
917
  8
0
 62
     2
 10
189.73049900000001
 20
-209.58813499999999
 30
0.0
 40
1.25
 50
270.0
 51
0.000003
  0
ENDBLK
  5
918
  8
0
  0
BLOCK
  8
0
  2
BLOCK18
 70
     0
 10
0.0
 20
0.0
 30
0.0
  3
BLOCK18
  1

  0
TEXT
  5
91A
  8
0
 62
     7
 10
255.64332599999989
 20
-106.58813499999999
 30
0.0
 40
3.0
  1
105
 50
270.0
 41
1.432750773232002
 72
     5
 11
255.64332599999989
 21
-114.2881159999999
 31
0.0
  0
ENDBLK
  5
91B
  8
0
  0
BLOCK
  8
0
  2
BLOCK19
 70
     0
 10
0.0
 20
0.0
 30
0.0
  3
BLOCK19
  1

  0
TEXT
  5
91D
  8
0
 62
     7
 10
-44.520882
 20
-126.838165
 30
0.0
 40
3.0
  1
35
 50
269.99996527526412
 41
1.2776612311939379
 72
     5
 11
-44.520885
 21
-131.788162
 31
0.0
  0
ENDBLK
  5
91E
  8
0
  0
BLOCK
  8
0
  2
BLOCK20
 70
     0
 10
0.0
 20
0.0
 30
0.0
  3
BLOCK20
  1

  0
TEXT
  5
920
  8
0
 62
     7
 10
-44.520870000000002
 20
-91.838134999999994
 30
0.0
 40
3.0
  1
35
 50
269.99995370027727
 41
1.2776591662858261
 72
     5
 11
-44.520873999999992
 21
-96.788123999999996
 31
0.0
  0
ENDBLK
  5
921
  8
0
  0
BLOCK
  8
0
  2
BLOCK21
 70
     0
 10
0.0
 20
0.0
 30
0.0
  3
BLOCK21
  1

  0
TEXT
  5
923
  8
0
 62
     7
 10
109.322205
 20
35.241455000000002
 30
0.0
 40
3.0
  1
X
 50
270.0
 41
0.9777782222222253
 72
     5
 11
109.322205
 21
33.041453999999987
 31
0.0
  0
ENDBLK
  5
924
  8
0
  0
BLOCK
  8
0
  2
BLOCK22
 70
     0
 10
0.0
 20
0.0
 30
0.0
  3
BLOCK22
  1

  0
TEXT
  5
926
  8
0
 62
     7
 10
277.4707029999999
 20
-114.08236699999991
 30
0.0
 40
3.0
  1
Y
 50
270.0
 41
0.9777764444444427
 72
     5
 11
277.4707029999999
 21
-116.2823639999999
 31
0.0
  0
ENDBLK
  5
927
  8
0
  0
BLOCK
  8
0
  2
BLOCK23
 70
     0
 10
0.0
 20
0.0
 30
0.0
  3
BLOCK23
  1

  0
TEXT
  5
929
  8
0
 62
     7
 10
88.456641999999988
 20
-13.77215599999999
 30
0.0
 40
3.0
  1
175
 50
359.99997767691679
 41
1.4327509593040999
 72
     5
 11
96.156623999999994
 21
-13.772159
 31
0.0
  0
ENDBLK
  5
92A
  8
0
  0
BLOCK
  8
0
  2
BLOCK24
 70
     0
 10
0.0
 20
0.0
 30
0.0
  3
BLOCK24
  1

  0
TEXT
  5
92C
  8
0
 62
     7
 10
108.82321899999999
 20
-234.439087
 30
0.0
 40
3.0
  1
X
 50
270.0
 41
0.9777764444444425
 72
     5
 11
108.82321899999999
 21
-236.639084
 31
0.0
  0
ENDBLK
  5
92D
  8
0
  0
BLOCK
  8
0
  2
BLOCK25
 70
     0
 10
0.0
 20
0.0
 30
0.0
  3
BLOCK25
  1

  0
TEXT
  5
92F
  8
0
 62
     7
 10
-63.414749
 20
-151.3381959999999
 30
0.0
 40
3.0
  1
84
 50
270.0
 41
1.2222214814814869
 72
     5
 11
-63.414749
 21
-156.28819300000001
 31
0.0
  0
ENDBLK
  5
930
  8
0
  0
BLOCK
  8
0
  2
BLOCK26
 70
     0
 10
0.0
 20
0.0
 30
0.0
  3
BLOCK26
  1

  0
TEXT
  5
932
  8
0
 62
     7
 10
141.61180100000001
 20
-27.49408
 30
0.0
 40
3.0
  1
89,75
 50
359.99998697819927
 41
1.4450281888504639
 72
     5
 11
154.811768
 21
-27.494083
 31
0.0
  0
ENDBLK
  5
933
  8
0
  0
BLOCK
  8
0
  2
BLOCK27
 70
     0
 10
0.0
 20
0.0
 30
0.0
  3
BLOCK27
  1

  0
TEXT
  5
935
  8
0
 62
     7
 10
157.61180100000001
 20
2.195250999999999
 30
0.0
 40
3.0
  1
127,25
 50
359.99998203888532
 41
1.5012758433756179
 72
     5
 11
173.56175200000001
 21
2.195246
 31
0.0
  0
ENDBLK
  5
936
  8
0
  0
BLOCK
  8
0
  2
BLOCK28
 70
     0
 10
0.0
 20
0.0
 30
0.0
  3
BLOCK28
  1

  0
TEXT
  5
938
  8
0
 62
     7
 10
104.486801
 20
17.41412399999999
 30
0.0
 40
3.0
  1
250
 50
359.9999851179445
 41
1.3157049633367419
 72
     5
 11
112.18678300000001
 21
17.414121999999999
 31
0.0
  0
ENDBLK
  5
939
  8
0
  0
BLOCK
  8
0
  2
BLOCK29
 70
     0
 10
0.0
 20
0.0
 30
0.0
  3
BLOCK29
  1

  0
TEXT
  5
93B
  8
0
 62
     7
 10
271.91326900000001
 20
-157.33813499999999
 30
0.0
 40
3.0
  1
96
 50
270.0
 41
1.2662099629029859
 72
     5
 11
271.91326900000001
 21
-162.28813199999999
 31
0.0
  0
ENDBLK
  5
93C
  8
0
  0
BLOCK
  8
0
  2
BLOCK30
 70
     0
 10
0.0
 20
0.0
 30
0.0
  3
BLOCK30
  1

  0
TEXT
  5
93E
  8
0
 62
     7
 10
271.91326900000001
 20
-64.588134999999994
 30
0.0
 40
3.0
  1
78,5
 50
270.0
 41
1.487695493474843
 72
     5
 11
271.91326900000001
 21
-75.038100999999983
 31
0.0
  0
ENDBLK
  5
93F
  8
0
  0
BLOCK
  8
0
  2
BLOCK31
 70
     0
 10
0.0
 20
0.0
 30
0.0
  3
BLOCK31
  1

  0
TEXT
  5
941
  8
0
 62
     7
 10
102.23365799999991
 20
-228.83270300000001
 30
0.0
 40
3.0
  1
161
 41
1.6559101075268829
 72
     5
 11
109.93364
 21
-228.83270300000001
 31
0.0
  0
ENDBLK
  5
942
  8
0
  0
BLOCK
  8
0
  2
BLOCK32
 70
     0
 10
0.0
 20
0.0
 30
0.0
  3
BLOCK32
  1

  0
TEXT
  5
944
  8
0
 62
     7
 10
106.245361
 20
77.933898999999997
 30
0.0
 40
3.0
  1
X
 50
270.0
 41
0.9777764444444425
 72
     5
 11
106.245361
 21
75.733902
 31
0.0
  0
ENDBLK
  5
945
  8
0
  0
BLOCK
  8
0
  2
BLOCK33
 70
     0
 10
0.0
 20
0.0
 30
0.0
  3
BLOCK33
  1

  0
TEXT
  5
947
  8
0
 62
     7
 10
-34.733601
 20
-60.749938999999998
 30
0.0
 40
3.0
  1
167
 50
270.00002976411082
 41
1.466663238095435
 72
     5
 11
-34.733596999999989
 21
-68.449921000000003
 31
0.0
  0
ENDBLK
  5
948
  8
0
  0
BLOCK
  8
0
  2
BLOCK34
 70
     0
 10
0.0
 20
0.0
 30
0.0
  3
BLOCK34
  1

  0
TEXT
  5
94A
  8
0
 62
     7
 10
-50.582912
 20
-49.25
 30
0.0
 40
3.0
  1
190
 50
270.0000223230831
 41
1.4630835057716891
 72
     5
 11
-50.582909000000001
 21
-56.949981999999991
 31
0.0
  0
ENDBLK
  5
94B
  8
0
  0
BLOCK
  8
0
  2
BLOCK35
 70
     0
 10
0.0
 20
0.0
 30
0.0
  3
BLOCK35
  1

  0
TEXT
  5
94D
  8
0
 62
     7
 10
-50.582920000000001
 20
51.0
 30
0.0
 40
3.0
  1
2
 50
270.0
 41
1.202069964398266
 72
     5
 11
-50.582920000000001
 21
48.799999
 31
0.0
  0
ENDBLK
  5
94E
  8
0
  0
BLOCK
  8
0
  2
BLOCK36
 70
     0
 10
0.0
 20
0.0
 30
0.0
  3
BLOCK36
  1

  0
TEXT
  5
950
  8
0
 62
     7
 10
-66.202522000000002
 20
-41.0
 30
0.0
 40
3.0
  1
195,5
 50
270.00003038421983
 41
1.546613966050054
 72
     5
 11
-66.202515000000005
 21
-54.199958999999993
 31
0.0
  0
ENDBLK
  5
951
  8
0
  0
BLOCK
  8
0
  2
BLOCK37
 70
     0
 10
0.0
 20
0.0
 30
0.0
  3
BLOCK37
  1

  0
TEXT
  5
953
  8
0
 62
     7
 10
80.236976999999996
 20
-45.604126000000001
 30
0.0
 40
3.0
  1
1,75
 50
359.99997806854662
 41
1.6266414157685769
 72
     5
 11
90.686951000000008
 21
-45.604129999999991
 31
0.0
  0
ENDBLK
  5
954
  8
0
  0
BLOCK
  8
0
  2
BLOCK38
 70
     0
 10
0.0
 20
0.0
 30
0.0
  3
BLOCK38
  1

  0
TEXT
  5
956
  8
0
 62
     7
 10
101.7370609999999
 20
61.288695999999987
 30
0.0
 40
3.0
  1
105
 50
359.99997023588531
 41
1.432750773232198
 72
     5
 11
109.43704199999991
 21
61.288691999999998
 31
0.0
  0
ENDBLK
  5
957
  8
0
  0
BLOCK
  8
0
  2
BLOCK39
 70
     0
 10
0.0
 20
0.0
 30
0.0
  3
BLOCK39
  1

  0
TEXT
  5
959
  8
0
 62
     7
 10
280.684235
 20
-101.75
 30
0.0
 40
3.0
  1
79,5
 50
270.0
 41
1.4854785695323469
 72
     5
 11
280.684235
 21
-112.1999659999999
 31
0.0
  0
ENDBLK
  5
95A
  8
0
  0
BLOCK
  8
0
  2
BLOCK40
 70
     0
 10
0.0
 20
0.0
 30
0.0
  3
BLOCK40
  1

  0
TEXT
  5
95C
  8
0
 62
     7
 10
147.11204499999991
 20
-174.8218379999999
 30
0.0
 40
3.0
  1
107,25
 41
1.501275843375544
 72
     5
 11
163.06199599999991
 21
-174.8218379999999
 31
0.0
  0
ENDBLK
  5
95D
  8
0
  0
BLOCK
  8
0
  2
BLOCK41
 70
     0
 10
0.0
 20
0.0
 30
0.0
  3
BLOCK41
  1

  0
TEXT
  5
95F
  8
0
 62
     7
 10
103.98706799999999
 20
-194.78179900000001
 30
0.0
 40
3.0
  1
210
 41
1.466003618919119
 72
     5
 11
111.68705
 21
-194.78179900000001
 31
0.0
  0
ENDBLK
  5
960
  8
0
  0
BLOCK
  8
0
  2
BLOCK42
 70
     0
 10
0.0
 20
0.0
 30
0.0
  3
BLOCK42
  1

  0
TEXT
  5
962
  8
0
 62
     7
 10
266.14349399999992
 20
-168.660706
 30
0.0
 40
3.0
  1
3
 50
270.0
 41
1.2399490238209789
 72
     5
 11
266.14349399999992
 21
-170.860703
 31
0.0
  0
ENDBLK
  5
963
  8
0
  0
BLOCK
  8
0
  2
BLOCK43
 70
     0
 10
0.0
 20
0.0
 30
0.0
  3
BLOCK43
  1

  0
TEXT
  5
965
  8
0
 62
     7
 10
266.14349399999992
 20
-163.160706
 30
0.0
 40
3.0
  1
\U+2265
 50
270.0
 41
1.2422315693532049
 72
     5
 11
266.14349399999992
 21
-165.360703
 31
0.0
  0
ENDBLK
  5
966
  8
0
  0
BLOCK
  8
0
  2
BLOCK44
 70
     0
 10
0.0
 20
0.0
 30
0.0
  3
BLOCK44
  1

  0
TEXT
  5
968
  8
0
 62
     7
 10
266.14349399999992
 20
-128.9999389999999
 30
0.0
 40
3.0
  1
36
 50
270.0
 41
1.2696144986367821
 72
     5
 11
266.14349399999992
 21
-133.94993600000001
 31
0.0
  0
ENDBLK
  5
969
  8
0
  0
BLOCK
  8
0
  2
BLOCK45
 70
     0
 10
0.0
 20
0.0
 30
0.0
  3
BLOCK45
  1

  0
TEXT
  5
96B
  8
0
 62
     7
 10
266.14349399999992
 20
-72.594848999999996
 30
0.0
 40
3.0
  1
18x18
 50
270.0
 41
1.4915206779661001
 72
     5
 11
266.14349399999992
 21
-85.794806999999992
 31
0.0
  0
ENDBLK
  5
96C
  8
0
  0
BLOCK
  8
0
  2
BLOCK46
 70
     0
 10
0.0
 20
0.0
 30
0.0
  3
BLOCK46
  1

  0
TEXT
  5
96E
  8
0
 62
     7
 10
96.910994999999986
 20
-0.247623
 30
0.0
 40
3.0
  1
 5,5
 50
226.30183604111471
 41
1.706322718930581
 72
     5
 11
89.691535999999999
 21
-7.8028399999999989
 31
0.0
  0
ENDBLK
  5
96F
  8
0
  0
BLOCK
  8
0
  2
BLOCK47
 70
     0
 10
0.0
 20
0.0
 30
0.0
  3
BLOCK47
  1

  0
TEXT
  5
971
  8
0
 62
     7
 10
97.463684000000015
 20
0.330749
 30
0.0
 40
3.0
  1
%%c
 50
226.30183467601549
 41
0.977777537765224
 72
     5
 11
95.943793999999997
 21
-1.259827
 31
0.0
  0
ENDBLK
  5
972
  8
0
  0
BLOCK
  8
0
  2
BLOCK48
 70
     0
 10
0.0
 20
0.0
 30
0.0
  3
BLOCK48
  1

  0
LINE
  5
974
  8
0
 62
     2
 10
184.48692299999999
 20
38.251700999999997
 30
0.0
 11
185.23863199999991
 21
37.499996000000003
 31
0.0
  0
LINE
  5
975
  8
0
 62
     2
 10
185.35995500000001
 20
39.499996000000003
 30
0.0
 11
187.35995500000001
 21
37.499996000000003
 31
0.0
  0
LINE
  5
976
  8
0
 62
     2
 10
187.48127700000001
 20
39.499996000000003
 30
0.0
 11
189.48127700000001
 21
37.499996000000003
 31
0.0
  0
LINE
  5
977
  8
0
 62
     2
 10
189.602585
 20
39.499996000000003
 30
0.0
 11
191.602585
 21
37.499996000000003
 31
0.0
  0
LINE
  5
978
  8
0
 62
     2
 10
191.72390699999991
 20
39.499996000000003
 30
0.0
 11
193.723907
 21
37.499996000000003
 31
0.0
  0
LINE
  5
979
  8
0
 62
     2
 10
193.84522999999999
 20
39.499996000000003
 30
0.0
 11
195.84522999999999
 21
37.499996000000003
 31
0.0
  0
LINE
  5
97A
  8
0
 62
     2
 10
195.966553
 20
39.499996000000003
 30
0.0
 11
197.966553
 21
37.499996000000003
 31
0.0
  0
LINE
  5
97B
  8
0
 62
     2
 10
198.087875
 20
39.499996000000003
 30
0.0
 11
200.087875
 21
37.499996000000003
 31
0.0
  0
LINE
  5
97C
  8
0
 62
     2
 10
200.2091979999999
 20
39.499996000000003
 30
0.0
 11
202.2091979999999
 21
37.499996000000003
 31
0.0
  0
LINE
  5
97D
  8
0
 62
     2
 10
202.33050499999999
 20
39.499996000000003
 30
0.0
 11
204.33050499999999
 21
37.499996000000003
 31
0.0
  0
LINE
  5
97E
  8
0
 62
     2
 10
204.45182800000001
 20
39.499996000000003
 30
0.0
 11
206.45182800000001
 21
37.499996000000003
 31
0.0
  0
LINE
  5
97F
  8
0
 62
     2
 10
206.57315099999991
 20
39.499996000000003
 30
0.0
 11
208.573151
 21
37.499996000000003
 31
0.0
  0
LINE
  5
980
  8
0
 62
     2
 10
208.6944729999999
 20
39.499996000000003
 30
0.0
 11
210.6944729999999
 21
37.499996000000003
 31
0.0
  0
LINE
  5
981
  8
0
 62
     2
 10
210.81579600000001
 20
39.499996000000003
 30
0.0
 11
212.81579600000001
 21
37.499996000000003
 31
0.0
  0
LINE
  5
982
  8
0
 62
     2
 10
212.937119
 20
39.499996000000003
 30
0.0
 11
214.937119
 21
37.499996000000003
 31
0.0
  0
LINE
  5
983
  8
0
 62
     2
 10
215.05842599999991
 20
39.499996000000003
 30
0.0
 11
217.05842599999991
 21
37.499996000000003
 31
0.0
  0
LINE
  5
984
  8
0
 62
     2
 10
217.17974899999999
 20
39.499996000000003
 30
0.0
 11
219.17974899999999
 21
37.499996000000003
 31
0.0
  0
LINE
  5
985
  8
0
 62
     2
 10
219.30107100000001
 20
39.499996000000003
 30
0.0
 11
221.30107100000001
 21
37.499996000000003
 31
0.0
  0
LINE
  5
986
  8
0
 62
     2
 10
221.422394
 20
39.499996000000003
 30
0.0
 11
223.422394
 21
37.499996000000003
 31
0.0
  0
LINE
  5
987
  8
0
 62
     2
 10
223.54371599999999
 20
39.499996000000003
 30
0.0
 11
225.54371599999999
 21
37.499996000000003
 31
0.0
  0
LINE
  5
988
  8
0
 62
     2
 10
225.66503900000001
 20
39.499996000000003
 30
0.0
 11
227.66503899999989
 21
37.499996000000003
 31
0.0
  0
LINE
  5
989
  8
0
 62
     2
 10
227.786362
 20
39.499996000000003
 30
0.0
 11
229.786362
 21
37.499996000000003
 31
0.0
  0
LINE
  5
98A
  8
0
 62
     2
 10
229.907669
 20
39.499996000000003
 30
0.0
 11
231.907669
 21
37.499996000000003
 31
0.0
  0
LINE
  5
98B
  8
0
 62
     2
 10
232.02899199999999
 20
39.499996000000003
 30
0.0
 11
234.02899199999999
 21
37.499996000000003
 31
0.0
  0
LINE
  5
98C
  8
0
 62
     2
 10
234.1503139999999
 20
39.499996000000003
 30
0.0
 11
236.1503139999999
 21
37.499996000000003
 31
0.0
  0
LINE
  5
98D
  8
0
 62
     2
 10
236.271637
 20
39.499996000000003
 30
0.0
 11
238.271637
 21
37.499996000000003
 31
0.0
  0
LINE
  5
98E
  8
0
 62
     2
 10
238.39295999999999
 20
39.499996000000003
 30
0.0
 11
240.39295999999999
 21
37.499996000000003
 31
0.0
  0
LINE
  5
98F
  8
0
 62
     2
 10
240.51428200000001
 20
39.499996000000003
 30
0.0
 11
242.51428200000001
 21
37.499996000000003
 31
0.0
  0
LINE
  5
990
  8
0
 62
     2
 10
242.63558999999989
 20
39.499996000000003
 30
0.0
 11
244.63558999999989
 21
37.499996000000003
 31
0.0
  0
LINE
  5
991
  8
0
 62
     2
 10
244.756912
 20
39.499996000000003
 30
0.0
 11
245.140533
 21
39.116382999999992
 31
0.0
  0
ENDBLK
  5
992
  8
0
  0
BLOCK
  8
0
  2
BLOCK49
 70
     0
 10
0.0
 20
0.0
 30
0.0
  3
BLOCK49
  1

  0
LINE
  5
994
  8
0
 62
     2
 10
172.98692299999999
 20
39.145102999999999
 30
0.0
 11
174.632034
 21
37.499996000000003
 31
0.0
  0
LINE
  5
995
  8
0
 62
     2
 10
174.75335699999991
 20
39.499996000000003
 30
0.0
 11
176.753342
 21
37.499996000000003
 31
0.0
  0
LINE
  5
996
  8
0
 62
     2
 10
176.87466399999991
 20
39.499996000000003
 30
0.0
 11
177.48692299999999
 21
38.887740999999998
 31
0.0
  0
ENDBLK
  5
997
  8
0
  0
BLOCK
  8
0
  2
BLOCK50
 70
     0
 10
0.0
 20
0.0
 30
0.0
  3
BLOCK50
  1

  0
LINE
  5
999
  8
0
 62
     2
 10
113.486931
 20
39.248131000000001
 30
0.0
 11
115.235062
 21
37.499996000000003
 31
0.0
  0
LINE
  5
99A
  8
0
 62
     2
 10
115.35638400000001
 20
39.499996000000003
 30
0.0
 11
117.35638400000001
 21
37.499996000000003
 31
0.0
  0
LINE
  5
99B
  8
0
 62
     2
 10
117.477707
 20
39.499996000000003
 30
0.0
 11
119.477707
 21
37.499996000000003
 31
0.0
  0
LINE
  5
99C
  8
0
 62
     2
 10
119.59902199999991
 20
39.499996000000003
 30
0.0
 11
121.59902199999991
 21
37.499996000000003
 31
0.0
  0
LINE
  5
99D
  8
0
 62
     2
 10
121.7203449999999
 20
39.499996000000003
 30
0.0
 11
123.7203449999999
 21
37.499996000000003
 31
0.0
  0
LINE
  5
99E
  8
0
 62
     2
 10
123.8416669999999
 20
39.499996000000003
 30
0.0
 11
125.8416669999999
 21
37.499996000000003
 31
0.0
  0
LINE
  5
99F
  8
0
 62
     2
 10
125.962982
 20
39.499996000000003
 30
0.0
 11
127.962982
 21
37.499996000000003
 31
0.0
  0
LINE
  5
9A0
  8
0
 62
     2
 10
128.084305
 20
39.499996000000003
 30
0.0
 11
130.084305
 21
37.499996000000003
 31
0.0
  0
LINE
  5
9A1
  8
0
 62
     2
 10
130.20562699999999
 20
39.499996000000003
 30
0.0
 11
132.20562699999999
 21
37.499996000000003
 31
0.0
  0
LINE
  5
9A2
  8
0
 62
     2
 10
132.32695000000001
 20
39.499996000000003
 30
0.0
 11
134.32695000000001
 21
37.499996000000003
 31
0.0
  0
LINE
  5
9A3
  8
0
 62
     2
 10
134.44827299999989
 20
39.499996000000003
 30
0.0
 11
136.44827299999989
 21
37.499996000000003
 31
0.0
  0
LINE
  5
9A4
  8
0
 62
     2
 10
136.56958
 20
39.499996000000003
 30
0.0
 11
138.56958
 21
37.499996000000003
 31
0.0
  0
LINE
  5
9A5
  8
0
 62
     2
 10
138.69090299999991
 20
39.499996000000003
 30
0.0
 11
140.69090299999999
 21
37.499996000000003
 31
0.0
  0
LINE
  5
9A6
  8
0
 62
     2
 10
140.81222500000001
 20
39.499996000000003
 30
0.0
 11
142.81222500000001
 21
37.499996000000003
 31
0.0
  0
LINE
  5
9A7
  8
0
 62
     2
 10
142.93354799999989
 20
39.499996000000003
 30
0.0
 11
144.933548
 21
37.499996000000003
 31
0.0
  0
LINE
  5
9A8
  8
0
 62
     2
 10
145.05487099999991
 20
39.499996000000003
 30
0.0
 11
147.05487099999991
 21
37.499996000000003
 31
0.0
  0
LINE
  5
9A9
  8
0
 62
     2
 10
147.1761929999999
 20
39.499996000000003
 30
0.0
 11
149.1761929999999
 21
37.499996000000003
 31
0.0
  0
LINE
  5
9AA
  8
0
 62
     2
 10
149.29750100000001
 20
39.499996000000003
 30
0.0
 11
151.29750100000001
 21
37.499996000000003
 31
0.0
  0
LINE
  5
9AB
  8
0
 62
     2
 10
151.418823
 20
39.499996000000003
 30
0.0
 11
153.41882299999989
 21
37.499996000000003
 31
0.0
  0
LINE
  5
9AC
  8
0
 62
     2
 10
153.54014599999991
 20
39.499996000000003
 30
0.0
 11
155.54014599999991
 21
37.499996000000003
 31
0.0
  0
LINE
  5
9AD
  8
0
 62
     2
 10
155.6614689999999
 20
39.499996000000003
 30
0.0
 11
157.6614689999999
 21
37.499996000000003
 31
0.0
  0
LINE
  5
9AE
  8
0
 62
     2
 10
157.782791
 20
39.499996000000003
 30
0.0
 11
159.782791
 21
37.499996000000003
 31
0.0
  0
LINE
  5
9AF
  8
0
 62
     2
 10
159.90411399999991
 20
39.499996000000003
 30
0.0
 11
161.90411399999999
 21
37.499996000000003
 31
0.0
  0
LINE
  5
9B0
  8
0
 62
     2
 10
162.02542099999991
 20
39.499996000000003
 30
0.0
 11
164.02542099999991
 21
37.499996000000003
 31
0.0
  0
LINE
  5
9B1
  8
0
 62
     2
 10
164.1467439999999
 20
39.499996000000003
 30
0.0
 11
166.1467439999999
 21
37.499996000000003
 31
0.0
  0
LINE
  5
9B2
  8
0
 62
     2
 10
166.268066
 20
39.499996000000003
 30
0.0
 11
168.268066
 21
37.499996000000003
 31
0.0
  0
LINE
  5
9B3
  8
0
 62
     2
 10
168.38938899999999
 20
39.499996000000003
 30
0.0
 11
170.38938899999991
 21
37.499996000000003
 31
0.0
  0
LINE
  5
9B4
  8
0
 62
     2
 10
170.51071200000001
 20
39.499996000000003
 30
0.0
 11
171.98692299999999
 21
38.023781
 31
0.0
  0
ENDBLK
  5
9B5
  8
0
  0
BLOCK
  8
0
  2
BLOCK51
 70
     0
 10
0.0
 20
0.0
 30
0.0
  3
BLOCK51
  1

  0
LINE
  5
9B7
  8
0
 62
     2
 10
89.736931000000013
 20
37.54228599999999
 30
0.0
 11
89.779220999999978
 21
37.499996000000003
 31
0.0
  0
LINE
  5
9B8
  8
0
 62
     2
 10
89.900542999999999
 20
39.499996000000003
 30
0.0
 11
91.900542999999985
 21
37.499996000000003
 31
0.0
  0
LINE
  5
9B9
  8
0
 62
     2
 10
92.021857999999995
 20
39.499996000000003
 30
0.0
 11
94.021857999999995
 21
37.499996000000003
 31
0.0
  0
LINE
  5
9BA
  8
0
 62
     2
 10
94.143180999999998
 20
39.499996000000003
 30
0.0
 11
96.143181000000013
 21
37.499996000000003
 31
0.0
  0
LINE
  5
9BB
  8
0
 62
     2
 10
96.264503000000005
 20
39.499996000000003
 30
0.0
 11
98.264503000000005
 21
37.499996000000003
 31
0.0
  0
LINE
  5
9BC
  8
0
 62
     2
 10
98.385818
 20
39.499996000000003
 30
0.0
 11
100.3858179999999
 21
37.499996000000003
 31
0.0
  0
LINE
  5
9BD
  8
0
 62
     2
 10
100.5071409999999
 20
39.499996000000003
 30
0.0
 11
102.507141
 21
37.499996000000003
 31
0.0
  0
LINE
  5
9BE
  8
0
 62
     2
 10
102.62846399999999
 20
39.499996000000003
 30
0.0
 11
104.62846399999999
 21
37.499996000000003
 31
0.0
  0
LINE
  5
9BF
  8
0
 62
     2
 10
104.749786
 20
39.499996000000003
 30
0.0
 11
106.486931
 21
37.762847999999991
 31
0.0
  0
ENDBLK
  5
9C0
  8
0
  0
BLOCK
  8
0
  2
BLOCK52
 70
     0
 10
0.0
 20
0.0
 30
0.0
  3
BLOCK52
  1

  0
LINE
  5
9C2
  8
0
 62
     2
 10
47.986927000000001
 20
38.987206
 30
0.0
 11
49.474136000000001
 21
37.499996000000003
 31
0.0
  0
LINE
  5
9C3
  8
0
 62
     2
 10
49.595459000000012
 20
39.499996000000003
 30
0.0
 11
51.595459000000012
 21
37.499996000000003
 31
0.0
  0
LINE
  5
9C4
  8
0
 62
     2
 10
51.716778000000012
 20
39.499996000000003
 30
0.0
 11
53.716777999999998
 21
37.499996000000003
 31
0.0
  0
LINE
  5
9C5
  8
0
 62
     2
 10
53.838096999999998
 20
39.499996000000003
 30
0.0
 11
55.838096999999991
 21
37.499996000000003
 31
0.0
  0
LINE
  5
9C6
  8
0
 62
     2
 10
55.95941899999999
 20
39.499996000000003
 30
0.0
 11
57.95941899999999
 21
37.499996000000003
 31
0.0
  0
LINE
  5
9C7
  8
0
 62
     2
 10
58.080737999999997
 20
39.499996000000003
 30
0.0
 11
60.080737999999997
 21
37.499996000000003
 31
0.0
  0
LINE
  5
9C8
  8
0
 62
     2
 10
60.202056999999989
 20
39.499996000000003
 30
0.0
 11
62.202057000000003
 21
37.499996000000003
 31
0.0
  0
LINE
  5
9C9
  8
0
 62
     2
 10
62.323380000000007
 20
39.499996000000003
 30
0.0
 11
64.32338
 21
37.499996000000003
 31
0.0
  0
LINE
  5
9CA
  8
0
 62
     2
 10
64.444702000000007
 20
39.499996000000003
 30
0.0
 11
66.444702000000007
 21
37.499996000000003
 31
0.0
  0
LINE
  5
9CB
  8
0
 62
     2
 10
66.566017000000002
 20
39.499996000000003
 30
0.0
 11
68.566017000000002
 21
37.499996000000003
 31
0.0
  0
LINE
  5
9CC
  8
0
 62
     2
 10
68.687340000000006
 20
39.499996000000003
 30
0.0
 11
70.687340000000006
 21
37.499996000000003
 31
0.0
  0
LINE
  5
9CD
  8
0
 62
     2
 10
70.808661999999984
 20
39.499996000000003
 30
0.0
 11
72.808661999999998
 21
37.499996000000003
 31
0.0
  0
LINE
  5
9CE
  8
0
 62
     2
 10
72.929976999999994
 20
39.499996000000003
 30
0.0
 11
74.929976999999994
 21
37.499996000000003
 31
0.0
  0
LINE
  5
9CF
  8
0
 62
     2
 10
75.051299999999998
 20
39.499996000000003
 30
0.0
 11
75.73712900000001
 21
38.814166999999991
 31
0.0
  0
ENDBLK
  5
9D0
  8
0
  0
BLOCK
  8
0
  2
BLOCK53
 70
     0
 10
0.0
 20
0.0
 30
0.0
  3
BLOCK53
  1

  0
LINE
  5
9D2
  8
0
 62
     2
 10
42.486927000000001
 20
38.123244999999997
 30
0.0
 11
43.110176000000003
 21
37.499996000000003
 31
0.0
  0
LINE
  5
9D3
  8
0
 62
     2
 10
43.231498999999992
 20
39.499996000000003
 30
0.0
 11
45.231495000000002
 21
37.499996000000003
 31
0.0
  0
LINE
  5
9D4
  8
0
 62
     2
 10
45.352817999999992
 20
39.499996000000003
 30
0.0
 11
46.986927000000001
 21
37.865887000000001
 31
0.0
  0
ENDBLK
  5
9D5
  8
0
  0
BLOCK
  8
0
  2
BLOCK54
 70
     0
 10
0.0
 20
0.0
 30
0.0
  3
BLOCK54
  1

  0
LINE
  5
9D7
  8
0
 62
     2
 10
-37.352443999999998
 20
39.473770000000002
 30
0.0
 11
-35.37867
 21
37.499996000000003
 31
0.0
  0
LINE
  5
9D8
  8
0
 62
     2
 10
-35.257351
 20
39.499996000000003
 30
0.0
 11
-33.257351
 21
37.499996000000003
 31
0.0
  0
LINE
  5
9D9
  8
0
 62
     2
 10
-33.136032
 20
39.499996000000003
 30
0.0
 11
-31.136029999999991
 21
37.499996000000003
 31
0.0
  0
LINE
  5
9DA
  8
0
 62
     2
 10
-31.014709
 20
39.499996000000003
 30
0.0
 11
-29.014709
 21
37.499996000000003
 31
0.0
  0
LINE
  5
9DB
  8
0
 62
     2
 10
-28.89339099999999
 20
39.499996000000003
 30
0.0
 11
-26.89339099999999
 21
37.499996000000003
 31
0.0
  0
LINE
  5
9DC
  8
0
 62
     2
 10
-26.772069999999999
 20
39.499996000000003
 30
0.0
 11
-24.772069999999999
 21
37.499996000000003
 31
0.0
  0
LINE
  5
9DD
  8
0
 62
     2
 10
-24.65074899999999
 20
39.499996000000003
 30
0.0
 11
-22.65074899999999
 21
37.499996000000003
 31
0.0
  0
LINE
  5
9DE
  8
0
 62
     2
 10
-22.529427999999999
 20
39.499996000000003
 30
0.0
 11
-20.529429999999991
 21
37.499996000000003
 31
0.0
  0
LINE
  5
9DF
  8
0
 62
     2
 10
-20.408110000000001
 20
39.499996000000003
 30
0.0
 11
-18.408110000000001
 21
37.499996000000003
 31
0.0
  0
LINE
  5
9E0
  8
0
 62
     2
 10
-18.286788999999999
 20
39.499996000000003
 30
0.0
 11
-16.286788999999999
 21
37.499996000000003
 31
0.0
  0
LINE
  5
9E1
  8
0
 62
     2
 10
-16.165468000000001
 20
39.499996000000003
 30
0.0
 11
-14.165469
 21
37.499996000000003
 31
0.0
  0
LINE
  5
9E2
  8
0
 62
     2
 10
-14.044148
 20
39.499996000000003
 30
0.0
 11
-12.044148
 21
37.499996000000003
 31
0.0
  0
LINE
  5
9E3
  8
0
 62
     2
 10
-11.922829
 20
39.499996000000003
 30
0.0
 11
-9.9228290000000001
 21
37.499996000000003
 31
0.0
  0
LINE
  5
9E4
  8
0
 62
     2
 10
-9.8015080000000001
 20
39.499996000000003
 30
0.0
 11
-7.8015080000000001
 21
37.499996000000003
 31
0.0
  0
LINE
  5
9E5
  8
0
 62
     2
 10
-7.6801880000000002
 20
39.499996000000003
 30
0.0
 11
-5.6801879999999993
 21
37.499996000000003
 31
0.0
  0
LINE
  5
9E6
  8
0
 62
     2
 10
-5.5588670000000002
 20
39.499996000000003
 30
0.0
 11
-3.558867999999999
 21
37.499996000000003
 31
0.0
  0
LINE
  5
9E7
  8
0
 62
     2
 10
-3.437546999999999
 20
39.499996000000003
 30
0.0
 11
-1.437548
 21
37.499996000000003
 31
0.0
  0
LINE
  5
9E8
  8
0
 62
     2
 10
-1.316227
 20
39.499996000000003
 30
0.0
 11
0.6837720000000001
 21
37.499996000000003
 31
0.0
  0
LINE
  5
9E9
  8
0
 62
     2
 10
0.8050930000000001
 20
39.499996000000003
 30
0.0
 11
2.8050929999999989
 21
37.499996000000003
 31
0.0
  0
LINE
  5
9EA
  8
0
 62
     2
 10
2.9264130000000002
 20
39.499996000000003
 30
0.0
 11
4.9264130000000002
 21
37.499996000000003
 31
0.0
  0
LINE
  5
9EB
  8
0
 62
     2
 10
5.047733
 20
39.499996000000003
 30
0.0
 11
7.047733
 21
37.499996000000003
 31
0.0
  0
LINE
  5
9EC
  8
0
 62
     2
 10
7.1690539999999991
 20
39.499996000000003
 30
0.0
 11
9.1690529999999981
 21
37.499996000000003
 31
0.0
  0
LINE
  5
9ED
  8
0
 62
     2
 10
9.2903739999999981
 20
39.499996000000003
 30
0.0
 11
11.290374
 21
37.499996000000003
 31
0.0
  0
LINE
  5
9EE
  8
0
 62
     2
 10
11.411694000000001
 20
39.499996000000003
 30
0.0
 11
13.411694000000001
 21
37.499996000000003
 31
0.0
  0
LINE
  5
9EF
  8
0
 62
     2
 10
13.533014
 20
39.499996000000003
 30
0.0
 11
15.533014
 21
37.499996000000003
 31
0.0
  0
LINE
  5
9F0
  8
0
 62
     2
 10
15.654334
 20
39.499996000000003
 30
0.0
 11
17.654335
 21
37.499996000000003
 31
0.0
  0
LINE
  5
9F1
  8
0
 62
     2
 10
17.775653999999999
 20
39.499996000000003
 30
0.0
 11
19.775653999999989
 21
37.499996000000003
 31
0.0
  0
LINE
  5
9F2
  8
0
 62
     2
 10
19.896975000000001
 20
39.499996000000003
 30
0.0
 11
21.896975000000001
 21
37.499996000000003
 31
0.0
  0
LINE
  5
9F3
  8
0
 62
     2
 10
22.018294999999998
 20
39.499996000000003
 30
0.0
 11
24.018294999999998
 21
37.499996000000003
 31
0.0
  0
LINE
  5
9F4
  8
0
 62
     2
 10
24.139616
 20
39.499996000000003
 30
0.0
 11
26.139614000000002
 21
37.499996000000003
 31
0.0
  0
LINE
  5
9F5
  8
0
 62
     2
 10
26.260934999999989
 20
39.499996000000003
 30
0.0
 11
28.260934999999989
 21
37.499996000000003
 31
0.0
  0
LINE
  5
9F6
  8
0
 62
     2
 10
28.382255999999991
 20
39.499996000000003
 30
0.0
 11
30.382256000000002
 21
37.499996000000003
 31
0.0
  0
LINE
  5
9F7
  8
0
 62
     2
 10
30.503575999999999
 20
39.499996000000003
 30
0.0
 11
32.503574
 21
37.499996000000003
 31
0.0
  0
LINE
  5
9F8
  8
0
 62
     2
 10
32.62489699999999
 20
39.499996000000003
 30
0.0
 11
34.62489699999999
 21
37.499996000000003
 31
0.0
  0
LINE
  5
9F9
  8
0
 62
     2
 10
34.74621599999999
 20
39.499996000000003
 30
0.0
 11
35.486927000000001
 21
38.759284999999998
 31
0.0
  0
ENDBLK
  5
9FA
  8
0
  0
BLOCK
  8
0
  2
BLOCK55
 70
     0
 10
0.0
 20
0.0
 30
0.0
  3
BLOCK55
  1

  0
LINE
  5
9FC
  8
0
 62
     2
 10
163.98706100000001
 20
29.053082
 30
0.0
 11
165.04014599999991
 21
27.999998000000001
 31
0.0
  0
LINE
  5
9FD
  8
0
 62
     2
 10
164.66145299999991
 20
30.500004000000001
 30
0.0
 11
167.16146900000001
 21
27.999998000000001
 31
0.0
  0
LINE
  5
9FE
  8
0
 62
     2
 10
166.78277600000001
 20
30.500004000000001
 30
0.0
 11
169.282791
 21
27.999998000000001
 31
0.0
  0
LINE
  5
9FF
  8
0
 62
     2
 10
168.904099
 20
30.500004000000001
 30
0.0
 11
171.40409899999989
 21
27.999998000000001
 31
0.0
  0
LINE
  5
A00
  8
0
 62
     2
 10
171.02542099999991
 20
30.500004000000001
 30
0.0
 11
172.98706100000001
 21
28.538363
 31
0.0
  0
ENDBLK
  5
A01
  8
0
  0
BLOCK
  8
0
  2
BLOCK56
 70
     0
 10
0.0
 20
0.0
 30
0.0
  3
BLOCK56
  1

  0
LINE
  5
A03
  8
0
 62
     3
 10
209.80375699999991
 20
-120.7083209999999
 30
0.0
 11
210.5953669999999
 21
-121.4999389999999
 31
0.0
  0
LINE
  5
A04
  8
0
 62
     3
 10
209.80375699999991
 20
-119.647659
 30
0.0
 11
211.656036
 21
-121.4999389999999
 31
0.0
  0
LINE
  5
A05
  8
0
 62
     3
 10
209.80375699999991
 20
-118.58699799999989
 30
0.0
 11
212.71669
 21
-121.4999389999999
 31
0.0
  0
LINE
  5
A06
  8
0
 62
     3
 10
209.80375699999991
 20
-117.526337
 30
0.0
 11
213.13705400000001
 21
-120.85964199999989
 31
0.0
  0
LINE
  5
A07
  8
0
 62
     3
 10
209.8380129999999
 20
-116.4999389999999
 30
0.0
 11
213.13705400000001
 21
-119.798981
 31
0.0
  0
LINE
  5
A08
  8
0
 62
     3
 10
210.89866599999999
 20
-116.4999389999999
 30
0.0
 11
213.13705400000001
 21
-118.738319
 31
0.0
  0
LINE
  5
A09
  8
0
 62
     3
 10
211.95933500000001
 20
-116.4999389999999
 30
0.0
 11
213.13705400000001
 21
-117.67765799999999
 31
0.0
  0
LINE
  5
A0A
  8
0
 62
     3
 10
213.01998900000001
 20
-116.4999389999999
 30
0.0
 11
213.13705400000001
 21
-116.616997
 31
0.0
  0
ENDBLK
  5
A0B
  8
0
  0
BLOCK
  8
0
  2
BLOCK57
 70
     0
 10
0.0
 20
0.0
 30
0.0
  3
BLOCK57
  1

  0
LINE
  5
A0D
  8
0
 62
     3
 10
221.33705099999989
 20
-120.57435599999999
 30
0.0
 11
222.26263399999999
 21
-121.4999389999999
 31
0.0
  0
LINE
  5
A0E
  8
0
 62
     3
 10
221.33705099999989
 20
-119.5136949999999
 30
0.0
 11
223.32328799999999
 21
-121.4999389999999
 31
0.0
  0
LINE
  5
A0F
  8
0
 62
     3
 10
221.33705099999989
 20
-118.453033
 30
0.0
 11
224.38395700000001
 21
-121.4999389999999
 31
0.0
  0
LINE
  5
A10
  8
0
 62
     3
 10
221.33705099999989
 20
-117.39238
 30
0.0
 11
225.4446109999999
 21
-121.4999389999999
 31
0.0
  0
LINE
  5
A11
  8
0
 62
     3
 10
221.50527999999991
 20
-116.4999389999999
 30
0.0
 11
226.50527999999991
 21
-121.4999389999999
 31
0.0
  0
LINE
  5
A12
  8
0
 62
     3
 10
222.565933
 20
-116.4999389999999
 30
0.0
 11
227.23704499999999
 21
-121.171059
 31
0.0
  0
LINE
  5
A13
  8
0
 62
     3
 10
223.62658699999989
 20
-116.4999389999999
 30
0.0
 11
227.23704499999999
 21
-120.11039699999991
 31
0.0
  0
LINE
  5
A14
  8
0
 62
     3
 10
224.68725599999999
 20
-116.4999389999999
 30
0.0
 11
227.23704499999999
 21
-119.049736
 31
0.0
  0
LINE
  5
A15
  8
0
 62
     3
 10
225.74790999999999
 20
-116.4999389999999
 30
0.0
 11
227.23704499999999
 21
-117.9890749999999
 31
0.0
  0
LINE
  5
A16
  8
0
 62
     3
 10
226.8085779999999
 20
-116.4999389999999
 30
0.0
 11
227.23704499999999
 21
-116.92841299999991
 31
0.0
  0
ENDBLK
  5
A17
  8
0
  0
BLOCK
  8
0
  2
BLOCK58
 70
     0
 10
0.0
 20
0.0
 30
0.0
  3
BLOCK58
  1

  0
LINE
  5
A19
  8
0
 62
     3
 10
209.42608599999991
 20
-121.4999389999999
 30
0.0
 11
207.23704499999999
 21
-123.6889649999999
 31
0.0
  0
LINE
  5
A1A
  8
0
 62
     3
 10
217.607956
 20
-117.56070699999999
 30
0.0
 11
211.16871599999999
 21
-123.9999389999999
 31
0.0
  0
LINE
  5
A1B
  8
0
 62
     3
 10
220.36758399999991
 20
-119.043724
 30
0.0
 11
218.534561
 21
-120.8767469999999
 31
0.0
  0
LINE
  5
A1C
  8
0
 62
     3
 10
222.15400699999989
 20
-121.4999389999999
 30
0.0
 11
220.01861600000001
 21
-123.6353229999999
 31
0.0
  0
LINE
  5
A1D
  8
0
 62
     3
 10
226.3966519999999
 20
-121.4999389999999
 30
0.0
 11
223.8966519999999
 21
-123.9999309999999
 31
0.0
  0
ENDBLK
  5
A1E
  8
0
  0
BLOCK
  8
0
  2
BLOCK59
 70
     0
 10
0.0
 20
0.0
 30
0.0
  3
BLOCK59
  1

  0
LINE
  5
A20
  8
0
 62
     3
 10
221.73704499999999
 20
-96.461067
 30
0.0
 11
220.23704499999999
 21
-97.961067000000014
 31
0.0
  0
LINE
  5
A21
  8
0
 62
     3
 10
224.94082599999999
 20
-97.499938999999983
 30
0.0
 11
222.35612499999991
 21
-100.0846249999999
 31
0.0
  0
ENDBLK
  5
A22
  8
0
  0
BLOCK
  8
0
  2
BLOCK60
 70
     0
 10
0.0
 20
0.0
 30
0.0
  3
BLOCK60
  1

  0
LINE
  5
A24
  8
0
 62
     3
 10
209.11288500000001
 20
-100.599937
 30
0.0
 11
208.73704499999991
 21
-100.97577699999989
 31
0.0
  0
LINE
  5
A25
  8
0
 62
     3
 10
214.23704499999999
 20
-99.718422000000004
 30
0.0
 11
210.59847999999991
 21
-103.356987
 31
0.0
  0
ENDBLK
  5
A26
  8
0
  0
BLOCK
  8
0
  2
BLOCK61
 70
     0
 10
0.0
 20
0.0
 30
0.0
  3
BLOCK61
  1

  0
LINE
  5
A28
  8
0
 62
     3
 10
213.37232999999989
 20
-103.06368999999999
 30
0.0
 11
213.408569
 21
-103.0999369999999
 31
0.0
  0
LINE
  5
A29
  8
0
 62
     3
 10
211.29119900000001
 20
-96.739922000000007
 30
0.0
 11
213.65121499999989
 21
-99.099937000000011
 31
0.0
  0
LINE
  5
A2A
  8
0
 62
     3
 10
214.23704499999999
 20
-99.685776000000004
 30
0.0
 11
215.23704499999999
 21
-100.685776
 31
0.0
  0
LINE
  5
A2B
  8
0
 62
     3
 10
215.5338439999999
 20
-96.739922000000007
 30
0.0
 11
216.921402
 21
-98.127480000000006
 31
0.0
  0
LINE
  5
A2C
  8
0
 62
     3
 10
219.23704499999999
 20
-100.44313
 30
0.0
 11
220.23704499999999
 21
-101.44313
 31
0.0
  0
LINE
  5
A2D
  8
0
 62
     3
 10
219.776489
 20
-96.739922000000007
 30
0.0
 11
222.13650499999989
 21
-99.099937000000011
 31
0.0
  0
ENDBLK
  5
A2E
  8
0
  0
BLOCK
  8
0
  2
BLOCK62
 70
     0
 10
0.0
 20
0.0
 30
0.0
  3
BLOCK62
  1

  0
LINE
  5
A30
  8
0
 62
     3
 10
204.719604
 20
-73.197761999999983
 30
0.0
 11
207.021851
 21
-75.500015000000005
 31
0.0
  0
LINE
  5
A31
  8
0
 62
     3
 10
208.76449599999989
 20
-73.000015000000005
 30
0.0
 11
211.26449599999989
 21
-75.500015000000005
 31
0.0
  0
LINE
  5
A32
  8
0
 62
     3
 10
213.00714099999999
 20
-73.000015000000005
 30
0.0
 11
215.50714099999999
 21
-75.500015000000005
 31
0.0
  0
LINE
  5
A33
  8
0
 62
     3
 10
217.249786
 20
-73.000015000000005
 30
0.0
 11
219.74978599999989
 21
-75.500015000000005
 31
0.0
  0
LINE
  5
A34
  8
0
 62
     3
 10
221.49241599999999
 20
-73.000015000000005
 30
0.0
 11
223.99241599999999
 21
-75.500015000000005
 31
0.0
  0
LINE
  5
A35
  8
0
 62
     3
 10
225.73506199999991
 20
-73.000015000000005
 30
0.0
 11
228.23506199999991
 21
-75.500015000000005
 31
0.0
  0
LINE
  5
A36
  8
0
 62
     3
 10
229.9777069999999
 20
-73.000015000000005
 30
0.0
 11
232.4777069999999
 21
-75.500015000000005
 31
0.0
  0
LINE
  5
A37
  8
0
 62
     3
 10
235.23709099999999
 20
-78.259399000000002
 30
0.0
 11
235.47766100000001
 21
-78.499977000000001
 31
0.0
  0
LINE
  5
A38
  8
0
 62
     3
 10
234.220337
 20
-73.000015000000005
 30
0.0
 11
237.23709099999999
 21
-76.016761999999986
 31
0.0
  0
ENDBLK
  5
A39
  8
0
  0
BLOCK
  8
0
  2
BLOCK63
 70
     0
 10
0.0
 20
0.0
 30
0.0
  3
BLOCK63
  1

  0
LINE
  5
A3B
  8
0
 62
     3
 10
226.19818099999989
 20
-91.999938999999998
 30
0.0
 11
223.23704499999999
 21
-94.961067
 31
0.0
  0
LINE
  5
A3C
  8
0
 62
     3
 10
227.23704499999999
 20
-95.203711999999996
 30
0.0
 11
226.4408259999999
 21
-95.999938999999983
 31
0.0
  0
ENDBLK
  5
A3D
  8
0
  0
BLOCK
  8
0
  2
BLOCK64
 70
     0
 10
0.0
 20
0.0
 30
0.0
  3
BLOCK64
  1

  0
LINE
  5
A3F
  8
0
 62
     3
 10
209.22761499999999
 20
-91.999938999999998
 30
0.0
 11
207.23704499999999
 21
-93.990500999999995
 31
0.0
  0
LINE
  5
A40
  8
0
 62
     3
 10
211.23704499999999
 20
-94.233139000000008
 30
0.0
 11
209.47024500000001
 21
-95.999938999999983
 31
0.0
  0
ENDBLK
  5
A41
  8
0
  0
BLOCK
  8
0
  2
BLOCK65
 70
     0
 10
0.0
 20
0.0
 30
0.0
  3
BLOCK65
  1

  0
LINE
  5
A43
  8
0
 62
     3
 10
247.37451200000001
 20
-116.91333
 30
0.0
 11
248.71312
 21
-118.25194500000001
 31
0.0
  0
LINE
  5
A44
  8
0
 62
     3
 10
246.9604029999999
 20
-115.4385679999999
 30
0.0
 11
249.555206
 21
-118.03336299999999
 31
0.0
  0
LINE
  5
A45
  8
0
 62
     3
 10
246.879593
 20
-114.2970959999999
 30
0.0
 11
250.0474549999999
 21
-117.464958
 31
0.0
  0
LINE
  5
A46
  8
0
 62
     3
 10
246.93640099999999
 20
-113.29323599999999
 30
0.0
 11
250.39265399999999
 21
-116.74949599999989
 31
0.0
  0
LINE
  5
A47
  8
0
 62
     3
 10
247.09970100000001
 20
-112.395882
 30
0.0
 11
250.6463169999999
 21
-115.94248999999991
 31
0.0
  0
LINE
  5
A48
  8
0
 62
     3
 10
247.3971249999999
 20
-111.632645
 30
0.0
 11
250.80961600000001
 21
-115.045135
 31
0.0
  0
LINE
  5
A49
  8
0
 62
     3
 10
247.79441800000001
 20
-110.96927599999999
 30
0.0
 11
250.8188319999999
 21
-113.9936899999999
 31
0.0
  0
LINE
  5
A4A
  8
0
 62
     3
 10
248.35871900000001
 20
-110.4729159999999
 30
0.0
 11
250.66925000000001
 21
-112.7834549999999
 31
0.0
  0
LINE
  5
A4B
  8
0
 62
     3
 10
249.46276899999989
 20
-110.516312
 30
0.0
 11
249.828171
 21
-110.88170599999999
 31
0.0
  0
ENDBLK
  5
A4C
  8
0
  0
BLOCK
  8
0
  2
BLOCK66
 70
     0
 10
0.0
 20
0.0
 30
0.0
  3
BLOCK66
  1

  0
LINE
  5
A4E
  8
0
 62
     3
 10
11.337085999999999
 20
-120.58509099999991
 30
0.0
 11
12.251932
 21
-121.4999389999999
 31
0.0
  0
LINE
  5
A4F
  8
0
 62
     3
 10
11.337085999999999
 20
-119.5244289999999
 30
0.0
 11
13.312593
 21
-121.4999389999999
 31
0.0
  0
LINE
  5
A50
  8
0
 62
     3
 10
11.337085999999999
 20
-118.4637679999999
 30
0.0
 11
14.373253
 21
-121.4999389999999
 31
0.0
  0
LINE
  5
A51
  8
0
 62
     3
 10
11.337085999999999
 20
-117.4031139999999
 30
0.0
 11
14.670384
 21
-120.736412
 31
0.0
  0
LINE
  5
A52
  8
0
 62
     3
 10
11.494573999999989
 20
-116.4999389999999
 30
0.0
 11
14.670384
 21
-119.67575100000001
 31
0.0
  0
LINE
  5
A53
  8
0
 62
     3
 10
12.555234
 20
-116.4999389999999
 30
0.0
 11
14.670384
 21
-118.6150889999999
 31
0.0
  0
LINE
  5
A54
  8
0
 62
     3
 10
13.615893
 20
-116.4999389999999
 30
0.0
 11
14.670384
 21
-117.5544279999999
 31
0.0
  0
ENDBLK
  5
A55
  8
0
  0
BLOCK
  8
0
  2
BLOCK67
 70
     0
 10
0.0
 20
0.0
 30
0.0
  3
BLOCK67
  1

  0
LINE
  5
A57
  8
0
 62
     3
 10
-2.762915
 20
-121.334335
 30
0.0
 11
-2.5973090000000001
 21
-121.4999389999999
 31
0.0
  0
LINE
  5
A58
  8
0
 62
     3
 10
-2.762915
 20
-120.2736739999999
 30
0.0
 11
-1.536648999999999
 21
-121.4999389999999
 31
0.0
  0
LINE
  5
A59
  8
0
 62
     3
 10
-2.762915
 20
-119.213013
 30
0.0
 11
-0.4759890000000001
 21
-121.4999389999999
 31
0.0
  0
LINE
  5
A5A
  8
0
 62
     3
 10
-2.762915
 20
-118.1523509999999
 30
0.0
 11
0.5846710000000001
 21
-121.4999389999999
 31
0.0
  0
LINE
  5
A5B
  8
0
 62
     3
 10
-2.762915
 20
-117.0916899999999
 30
0.0
 11
1.6453310000000001
 21
-121.4999389999999
 31
0.0
  0
LINE
  5
A5C
  8
0
 62
     3
 10
-2.2940079999999998
 20
-116.4999389999999
 30
0.0
 11
2.7059919999999988
 21
-121.4999389999999
 31
0.0
  0
LINE
  5
A5D
  8
0
 62
     3
 10
-1.233347999999999
 20
-116.4999389999999
 30
0.0
 11
3.137084999999999
 21
-120.8703689999999
 31
0.0
  0
LINE
  5
A5E
  8
0
 62
     3
 10
-0.172688
 20
-116.4999389999999
 30
0.0
 11
3.137084999999999
 21
-119.8097149999999
 31
0.0
  0
LINE
  5
A5F
  8
0
 62
     3
 10
0.8879719999999998
 20
-116.4999389999999
 30
0.0
 11
3.137084999999999
 21
-118.7490539999999
 31
0.0
  0
LINE
  5
A60
  8
0
 62
     3
 10
1.948631999999999
 20
-116.4999389999999
 30
0.0
 11
3.137084999999999
 21
-117.688393
 31
0.0
  0
LINE
  5
A61
  8
0
 62
     3
 10
3.0092929999999991
 20
-116.4999389999999
 30
0.0
 11
3.137084999999999
 21
-116.627731
 31
0.0
  0
ENDBLK
  5
A62
  8
0
  0
BLOCK
  8
0
  2
BLOCK68
 70
     0
 10
0.0
 20
0.0
 30
0.0
  3
BLOCK68
  1

  0
LINE
  5
A64
  8
0
 62
     3
 10
-2.706065999999999
 20
-121.4999389999999
 30
0.0
 11
-2.762915
 21
-121.556786
 31
0.0
  0
LINE
  5
A65
  8
0
 62
     3
 10
1.5365770000000001
 20
-121.4999389999999
 30
0.0
 11
-0.9634229999999998
 21
-123.9999389999999
 31
0.0
  0
LINE
  5
A66
  8
0
 62
     3
 10
9.2404789999999988
 20
-118.038681
 30
0.0
 11
7.205805999999999
 21
-120.073357
 31
0.0
  0
LINE
  5
A67
  8
0
 62
     3
 10
5.7266469999999989
 20
-121.55251299999991
 30
0.0
 11
3.2881199999999988
 21
-123.991035
 31
0.0
  0
LINE
  5
A68
  8
0
 62
     3
 10
11.054928
 20
-120.46687299999989
 30
0.0
 11
8.9825679999999988
 21
-122.5392299999999
 31
0.0
  0
LINE
  5
A69
  8
0
 62
     3
 10
14.26450599999999
 20
-121.4999389999999
 30
0.0
 11
11.764502999999991
 21
-123.9999389999999
 31
0.0
  0
LINE
  5
A6A
  8
0
 62
     3
 10
17.237085
 20
-122.7700039999999
 30
0.0
 11
16.007147
 21
-123.9999389999999
 31
0.0
  0
ENDBLK
  5
A6B
  8
0
  0
BLOCK
  8
0
  2
BLOCK69
 70
     0
 10
0.0
 20
0.0
 30
0.0
  3
BLOCK69
  1

  0
LINE
  5
A6D
  8
0
 62
     3
 10
0.080745
 20
-97.499938999999983
 30
0.0
 11
-1.262915
 21
-98.843597000000003
 31
0.0
  0
LINE
  5
A6E
  8
0
 62
     3
 10
4.2370849999999987
 20
-97.58624300000001
 30
0.0
 11
1.3826249999999991
 21
-100.440697
 31
0.0
  0
ENDBLK
  5
A6F
  8
0
  0
BLOCK
  8
0
  2
BLOCK70
 70
     0
 10
0.0
 20
0.0
 30
0.0
  3
BLOCK70
  1

  0
LINE
  5
A71
  8
0
 62
     3
 10
11.208672999999999
 20
-99.099937000000011
 30
0.0
 11
10.237085
 21
-100.07152599999991
 31
0.0
  0
LINE
  5
A72
  8
0
 62
     3
 10
13.510552000000001
 20
-101.04070299999999
 30
0.0
 11
11.451311
 21
-103.0999369999999
 31
0.0
  0
LINE
  5
A73
  8
0
 62
     3
 10
15.737085
 20
-103.0568079999999
 30
0.0
 11
15.693954
 21
-103.0999369999999
 31
0.0
  0
ENDBLK
  5
A74
  8
0
  0
BLOCK
  8
0
  2
BLOCK71
 70
     0
 10
0.0
 20
0.0
 30
0.0
  3
BLOCK71
  1

  0
LINE
  5
A76
  8
0
 62
     3
 10
4.2370849999999987
 20
-101.817825
 30
0.0
 11
5.1910400000000001
 21
-102.771782
 31
0.0
  0
LINE
  5
A77
  8
0
 62
     3
 10
3.4018229999999998
 20
-96.739922000000007
 30
0.0
 11
5.5697650000000003
 21
-98.90786700000001
 31
0.0
  0
LINE
  5
A78
  8
0
 62
     3
 10
9.2370850000000004
 20
-102.575188
 30
0.0
 11
9.7618360000000006
 21
-103.0999369999999
 31
0.0
  0
LINE
  5
A79
  8
0
 62
     3
 10
7.644463
 20
-96.739922000000007
 30
0.0
 11
10.237085
 21
-99.332549999999998
 31
0.0
  0
LINE
  5
A7A
  8
0
 62
     3
 10
11.887103
 20
-96.739922000000007
 30
0.0
 11
13.237085
 21
-98.089905000000002
 31
0.0
  0
ENDBLK
  5
A7B
  8
0
  0
BLOCK
  8
0
  2
BLOCK72
 70
     0
 10
0.0
 20
0.0
 30
0.0
  3
BLOCK72
  1

  0
LINE
  5
A7D
  8
0
 62
     3
 10
-12.762945999999999
 20
-76.332511999999994
 30
0.0
 11
-10.762949000000001
 21
-78.332511999999994
 31
0.0
  0
LINE
  5
A7E
  8
0
 62
     3
 10
-11.780984
 20
-73.071831000000003
 30
0.0
 11
-9.3528029999999998
 21
-75.500015000000005
 31
0.0
  0
LINE
  5
A7F
  8
0
 62
     3
 10
-7.610161999999999
 20
-73.000015000000005
 30
0.0
 11
-5.110161999999999
 21
-75.500015000000005
 31
0.0
  0
LINE
  5
A80
  8
0
 62
     3
 10
-3.3675220000000001
 20
-73.000015000000005
 30
0.0
 11
-0.8675219999999999
 21
-75.500015000000005
 31
0.0
  0
LINE
  5
A81
  8
0
 62
     3
 10
0.8751190000000001
 20
-73.000015000000005
 30
0.0
 11
3.3751180000000001
 21
-75.500015000000005
 31
0.0
  0
LINE
  5
A82
  8
0
 62
     3
 10
5.1177589999999986
 20
-73.000015000000005
 30
0.0
 11
7.6177589999999986
 21
-75.500015000000005
 31
0.0
  0
LINE
  5
A83
  8
0
 62
     3
 10
9.360399000000001
 20
-73.000015000000005
 30
0.0
 11
11.860398999999999
 21
-75.500015000000005
 31
0.0
  0
LINE
  5
A84
  8
0
 62
     3
 10
13.60304
 20
-73.000015000000005
 30
0.0
 11
16.103038999999999
 21
-75.500015000000005
 31
0.0
  0
LINE
  5
A85
  8
0
 62
     3
 10
17.845679999999991
 20
-73.000015000000005
 30
0.0
 11
19.754534
 21
-74.908867000000001
 31
0.0
  0
ENDBLK
  5
A86
  8
0
  0
BLOCK
  8
0
  2
BLOCK73
 70
     0
 10
0.0
 20
0.0
 30
0.0
  3
BLOCK73
  1

  0
LINE
  5
A88
  8
0
 62
     3
 10
1.2370849999999991
 20
-92.100960000000001
 30
0.0
 11
-2.661896
 21
-95.999938999999983
 31
0.0
  0
ENDBLK
  5
A89
  8
0
  0
BLOCK
  8
0
  2
BLOCK74
 70
     0
 10
0.0
 20
0.0
 30
0.0
  3
BLOCK74
  1

  0
LINE
  5
A8B
  8
0
 62
     3
 10
14.066036999999991
 20
-91.999938999999998
 30
0.0
 11
13.237085
 21
-92.828888000000006
 31
0.0
  0
LINE
  5
A8C
  8
0
 62
     3
 10
17.237085
 20
-93.071533000000017
 30
0.0
 11
14.308676
 21
-95.999938999999983
 31
0.0
  0
ENDBLK
  5
A8D
  8
0
  0
BLOCK
  8
0
  2
BLOCK75
 70
     0
 10
0.0
 20
0.0
 30
0.0
  3
BLOCK75
  1

  0
LINE
  5
A8F
  8
0
 62
     3
 10
-26.169104000000001
 20
-115.9593659999999
 30
0.0
 11
-23.971022000000001
 21
-118.157448
 31
0.0
  0
LINE
  5
A90
  8
0
 62
     3
 10
-26.344688000000001
 20
-114.723122
 30
0.0
 11
-23.374545999999999
 21
-117.69326
 31
0.0
  0
LINE
  5
A91
  8
0
 62
     3
 10
-26.344688000000001
 20
-113.66246
 30
0.0
 11
-22.957543999999992
 21
-117.049606
 31
0.0
  0
LINE
  5
A92
  8
0
 62
     3
 10
-26.190177999999989
 20
-112.75631
 30
0.0
 11
-22.644065999999999
 21
-116.30242200000001
 31
0.0
  0
LINE
  5
A93
  8
0
 62
     3
 10
-25.95307399999999
 20
-111.9327549999999
 30
0.0
 11
-22.480260999999999
 21
-115.4055709999999
 31
0.0
  0
LINE
  5
A94
  8
0
 62
     3
 10
-25.627583999999992
 20
-111.197586
 30
0.0
 11
-22.405457999999999
 21
-114.419708
 31
0.0
  0
LINE
  5
A95
  8
0
 62
     3
 10
-25.135331999999998
 20
-110.62917299999989
 30
0.0
 11
-22.460253000000002
 21
-113.3042529999999
 31
0.0
  0
LINE
  5
A96
  8
0
 62
     3
 10
-24.396391000000001
 20
-110.3074569999999
 30
0.0
 11
-22.815854999999988
 21
-111.88799299999999
 31
0.0
  0
ENDBLK
  5
A97
  8
0
  0
BLOCK
  8
0
  2
BLOCK76
 70
     0
 10
0.0
 20
0.0
 30
0.0
  3
BLOCK76
  1

  0
TEXT
  5
A99
  8
0
 62
     7
 10
7.2389830000000002
 20
-178.726135
 30
0.0
 40
3.0
  1
X
 50
90.0
 41
0.9777764444444551
 72
     5
 11
7.2389830000000002
 21
-176.52613799999989
 31
0.0
  0
ENDBLK
  5
A9A
  8
0
  0
BLOCK
  8
0
  2
BLOCK77
 70
     0
 10
0.0
 20
0.0
 30
0.0
  3
BLOCK77
  1

  0
TEXT
  5
A9C
  8
0
 62
     7
 10
5.0672909999999991
 20
210.007431
 30
0.0
 40
3.0
  1
X
 50
90.0
 41
0.9777764444444425
 72
     5
 11
5.0672909999999991
 21
212.20742799999999
 31
0.0
  0
ENDBLK
  5
A9D
  8
0
  0
BLOCK
  8
0
  2
BLOCK78
 70
     0
 10
0.0
 20
0.0
 30
0.0
  3
BLOCK78
  1

  0
TEXT
  5
A9F
  8
0
 62
     7
 10
-202.30987499999989
 20
-5.193541999999999
 30
0.0
 40
3.0
  1
Y
 50
90.0
 41
0.9777777777777778
 72
     5
 11
-202.30987499999989
 21
-2.9935419999999988
 31
0.0
  0
ENDBLK
  5
AA0
  8
0
  0
BLOCK
  8
0
  2
BLOCK79
 70
     0
 10
0.0
 20
0.0
 30
0.0
  3
BLOCK79
  1

  0
TEXT
  5
AA2
  8
0
 62
     7
 10
154.73333700000001
 20
-0.104156
 30
0.0
 40
3.0
  1
Y
 50
90.0
 41
0.9777777777777778
 72
     5
 11
154.73333700000001
 21
2.095844
 31
0.0
  0
ENDBLK
  5
AA3
  8
0
  0
BLOCK
  8
0
  2
BLOCK80
 70
     0
 10
0.0
 20
0.0
 30
0.0
  3
BLOCK80
  1

  0
TEXT
  5
AA5
  8
0
 62
     7
 10
-142.934662
 20
20.5
 30
0.0
 40
3.0
  1
63
 50
90.0
 41
1.2776591662854091
 72
     5
 11
-142.934662
 21
25.449988999999999
 31
0.0
  0
ENDBLK
  5
AA6
  8
0
  0
BLOCK
  8
0
  2
BLOCK81
 70
     0
 10
0.0
 20
0.0
 30
0.0
  3
BLOCK81
  1

  0
TEXT
  5
AA8
  8
0
 62
     7
 10
-175.88305700000001
 20
-21.0
 30
0.0
 40
3.0
  1
135
 50
90.0
 41
1.432750587160017
 72
     5
 11
-175.88305700000001
 21
-13.30002
 31
0.0
  0
ENDBLK
  5
AA9
  8
0
  0
BLOCK
  8
0
  2
BLOCK82
 70
     0
 10
0.0
 20
0.0
 30
0.0
  3
BLOCK82
  1

  0
TEXT
  5
AAB
  8
0
 62
     7
 10
98.069702000000021
 20
29.5
 30
0.0
 40
3.0
  1
81
 50
90.0
 41
1.571425079365079
 72
     5
 11
98.069702000000021
 21
34.449989000000002
 31
0.0
  0
ENDBLK
  5
AAC
  8
0
  0
BLOCK
  8
0
  2
BLOCK83
 70
     0
 10
0.0
 20
0.0
 30
0.0
  3
BLOCK83
  1

  0
TEXT
  5
AAE
  8
0
 62
     7
 10
126.482727
 20
2.0
 30
0.0
 40
3.0
  1
125
 50
90.0
 41
1.432750587160017
 72
     5
 11
126.482727
 21
9.69998
 31
0.0
  0
ENDBLK
  5
AAF
  8
0
  0
BLOCK
  8
0
  2
BLOCK84
 70
     0
 10
0.0
 20
0.0
 30
0.0
  3
BLOCK84
  1

  0
TEXT
  5
AB1
  8
0
 62
     7
 10
-15.944335999999989
 20
36.0
 30
0.0
 40
3.0
  1
94
 50
89.99997685013868
 41
1.2190640892680471
 72
     5
 11
-15.944333999999991
 21
40.949989000000002
 31
0.0
  0
ENDBLK
  5
AB2
  8
0
  0
BLOCK
  8
0
  2
BLOCK85
 70
     0
 10
0.0
 20
0.0
 30
0.0
  3
BLOCK85
  1

  0
TEXT
  5
AB4
  8
0
 62
     7
 10
40.158935999999997
 20
28.069884999999999
 30
0.0
 40
3.0
  1
16
 50
179.9999537002866
 41
1.5005340255405279
 72
     5
 11
35.208945999999997
 21
28.069889
 31
0.0
  0
ENDBLK
  5
AB5
  8
0
  0
BLOCK
  8
0
  2
BLOCK86
 70
     0
 10
0.0
 20
0.0
 30
0.0
  3
BLOCK86
  1

  0
TEXT
  5
AB7
  8
0
 62
     7
 10
18.75
 20
201.62458799999999
 30
0.0
 40
3.0
  1
142
 50
180.0
 41
1.3437594995413831
 72
     5
 11
11.05002
 21
201.62458799999999
 31
0.0
  0
ENDBLK
  5
AB8
  8
0
  0
BLOCK
  8
0
  2
BLOCK87
 70
     0
 10
0.0
 20
0.0
 30
0.0
  3
BLOCK87
  1

  0
TEXT
  5
ABA
  8
0
 62
     7
 10
18.75
 20
-120.5733639999999
 30
0.0
 40
3.0
  1
126
 50
179.99994791279249
 41
1.4262341719542091
 72
     5
 11
11.05002
 21
-120.573357
 31
0.0
  0
ENDBLK
  5
ABB
  8
0
  0
BLOCK
  8
0
  2
BLOCK88
 70
     0
 10
0.0
 20
0.0
 30
0.0
  3
BLOCK88
  1

  0
TEXT
  5
ABD
  8
0
 62
     7
 10
-33.25
 20
174.836533
 30
0.0
 40
3.0
  1
=
 50
180.0
 41
1.333333939393939
 72
     5
 11
-35.450001
 21
174.836533
 31
0.0
  0
ENDBLK
  5
ABE
  8
0
  0
BLOCK
  8
0
  2
BLOCK89
 70
     0
 10
0.0
 20
0.0
 30
0.0
  3
BLOCK89
  1

  0
TEXT
  5
AC0
  8
0
 62
     7
 10
37.75
 20
174.836533
 30
0.0
 40
3.0
  1
=
 50
180.0
 41
1.333333939393939
 72
     5
 11
35.549999
 21
174.836533
 31
0.0
  0
ENDBLK
  5
AC1
  8
0
  0
BLOCK
  8
0
  2
BLOCK90
 70
     0
 10
0.0
 20
0.0
 30
0.0
  3
BLOCK90
  1

  0
TEXT
  5
AC3
  8
0
 62
     7
 10
-9.75
 20
143.9754639999999
 30
0.0
 40
3.0
  1
27,25
 50
179.99993489096721
 41
1.446687743866663
 72
     5
 11
-22.949960999999998
 21
143.97547900000001
 31
0.0
  0
ENDBLK
  5
AC4
  8
0
  0
BLOCK
  8
0
  2
BLOCK91
 70
     0
 10
0.0
 20
0.0
 30
0.0
  3
BLOCK91
  1

  0
TEXT
  5
AC6
  8
0
 62
     7
 10
-113.18023700000001
 20
35.85989399999999
 30
0.0
 40
3.0
  1
45
 50
90.0
 41
1.185835136090813
 72
     5
 11
-113.18023700000001
 21
40.809882999999999
 31
0.0
  0
ENDBLK
  5
AC7
  8
0
  0
BLOCK
  8
0
  2
BLOCK92
 70
     0
 10
0.0
 20
0.0
 30
0.0
  3
BLOCK92
  1

  0
TEXT
  5
AC9
  8
0
 62
     7
 10
-12.0
 20
-150.1596679999999
 30
0.0
 40
3.0
  1
72,5
 50
179.99991775701821
 41
1.4876960629310481
 72
     5
 11
-22.44997
 21
-150.15965299999999
 31
0.0
  0
ENDBLK
  5
ACA
  8
0
  0
BLOCK
  8
0
  2
BLOCK93
 70
     0
 10
0.0
 20
0.0
 30
0.0
  3
BLOCK93
  1

  0
TEXT
  5
ACC
  8
0
 62
     7
 10
-173.3788449999999
 20
-167.55316199999999
 30
0.0
 40
3.0
  1
PART. Z
 50
90.0
 41
1.340497204301075
 72
     5
 11
-173.3788449999999
 21
-148.85322600000001
 31
0.0
  0
ENDBLK
  5
ACD
  8
0
  0
BLOCK
  8
0
  2
BLOCK94
 70
     0
 10
0.0
 20
0.0
 30
0.0
  3
BLOCK94
  1

  0
TEXT
  5
ACF
  8
0
 62
     7
 10
-161.41625999999999
 20
168.32591199999999
 30
0.0
 40
3.0
  1
8
 50
136.2494211711759
 41
1.3333221349127371
 72
     5
 11
-163.00543200000001
 21
169.8472439999999
 31
0.0
  0
TEXT
  5
AD0
  8
0
 62
     7
 10
-159.1047209999999
 20
166.11305200000001
 30
0.0
 40
3.0
  1
%%c
 50
136.2494211711759
 41
0.9777695656026917
 72
     5
 11
-160.693893
 21
167.63438400000001
 31
0.0
  0
TEXT
  5
AD1
  8
0
 62
     7
 10
-146.680161
 20
154.218918
 30
0.0
 40
3.0
  1
3 fori
 50
136.2495453454593
 41
1.7142859646969479
 72
     5
 11
-158.38237000000001
 21
165.42152400000001
 31
0.0
  0
POLYLINE
  5
AD2
  8
0
 62
     7
 66
     1
 10
0.0
 20
0.0
 30
0.0
  0
VERTEX
  5
F43
  8
0
 62
     7
 10
-67.614013999999997
 20
79.195914999999999
 30
0.0
  0
VERTEX
  5
F44
  8
0
 62
     7
 10
-65.860573000000002
 20
78.233924999999999
 30
0.0
  0
VERTEX
  5
F45
  8
0
 62
     7
 10
-66.898102000000009
 20
79.943756000000008
 30
0.0
  0
SEQEND
  5
F46
  8
0
 62
     7
  0
POLYLINE
  5
AD7
  8
0
 62
     7
 66
     1
 10
0.0
 20
0.0
 30
0.0
  0
VERTEX
  5
F47
  8
0
 62
     7
 10
-69.885986000000003
 20
82.804085000000001
 30
0.0
  0
VERTEX
  5
F48
  8
0
 62
     7
 10
-71.639426999999984
 20
83.766075000000001
 30
0.0
  0
VERTEX
  5
F49
  8
0
 62
     7
 10
-70.601897999999991
 20
82.056243999999992
 30
0.0
  0
SEQEND
  5
F4A
  8
0
 62
     7
  0
LINE
  5
ADC
  8
0
 62
     7
 10
-162.313919
 20
170.56961100000001
 30
0.0
 11
-65.860573000000002
 21
78.233924999999999
 31
0.0
  0
ENDBLK
  5
ADD
  8
0
  0
BLOCK
  8
0
  2
BLOCK95
 70
     0
 10
0.0
 20
0.0
 30
0.0
  3
BLOCK95
  1

  0
TEXT
  5
ADF
  8
0
 62
     7
 10
-92.471733
 20
-93.980170999999999
 30
0.0
 40
3.0
  1
7
 50
65.645424395329385
 41
1.333334697745858
 72
     5
 11
-91.564491000000004
 21
-91.975944999999996
 31
0.0
  0
TEXT
  5
AE0
  8
0
 62
     7
 10
-94.121245999999999
 20
-97.624222000000003
 30
0.0
 40
3.0
  1
%%c
 50
65.645591740608992
 41
1.3333312496126659
 72
     5
 11
-92.884108999999995
 21
-94.891189999999995
 31
0.0
  0
POLYLINE
  5
AE1
  8
0
 62
     7
 66
     1
 10
0.0
 20
0.0
 30
0.0
  0
VERTEX
  5
F4B
  8
0
 62
     7
 10
-66.981589999999997
 20
-38.83805499999999
 30
0.0
  0
VERTEX
  5
F4C
  8
0
 62
     7
 10
-67.306670999999994
 20
-40.811458999999999
 30
0.0
  0
VERTEX
  5
F4D
  8
0
 62
     7
 10
-66.038444999999996
 20
-39.264980000000001
 30
0.0
  0
SEQEND
  5
F4E
  8
0
 62
     7
  0
POLYLINE
  5
AE6
  8
0
 62
     7
 66
     1
 10
0.0
 20
0.0
 30
0.0
  0
VERTEX
  5
F4F
  8
0
 62
     7
 10
-70.518410000000003
 20
-49.161945000000003
 30
0.0
  0
VERTEX
  5
F50
  8
0
 62
     7
 10
-70.193329000000006
 20
-47.188541000000001
 30
0.0
  0
VERTEX
  5
F51
  8
0
 62
     7
 10
-71.461555000000004
 20
-48.735019999999999
 30
0.0
  0
SEQEND
  5
F52
  8
0
 62
     7
  0
LINE
  5
AEB
  8
0
 62
     7
 10
-93.210227999999987
 20
-98.036597999999998
 30
0.0
 11
-65.244773999999992
 21
-36.256397
 31
0.0
  0
ENDBLK
  5
AEC
  8
0
  0
BLOCK
  8
0
  2
BLOCK96
 70
     0
 10
0.0
 20
0.0
 30
0.0
  3
BLOCK96
  1

  0
TEXT
  5
AEE
  8
0
 62
     7
 10
116.0806199999999
 20
110.445801
 30
0.0
 40
3.0
  1
7
 50
33.405690330300033
 41
1.3333355012197159
 72
     5
 11
117.9171679999999
 21
111.6570429999999
 31
0.0
  0
TEXT
  5
AEF
  8
0
 62
     7
 10
112.741455
 20
108.24352999999989
 30
0.0
 40
3.0
  1
%%c
 50
33.405888369186549
 41
1.3333360722823711
 72
     5
 11
115.245834
 21
109.895233
 31
0.0
  0
POLYLINE
  5
AF0
  8
0
 62
     7
 66
     1
 10
0.0
 20
0.0
 30
0.0
  0
VERTEX
  5
F53
  8
0
 62
     7
 10
69.000534000000002
 20
77.577286000000001
 30
0.0
  0
VERTEX
  5
F54
  8
0
 62
     7
 10
70.328232
 20
79.073020999999983
 30
0.0
  0
VERTEX
  5
F55
  8
0
 62
     7
 10
68.430542000000003
 20
78.441528000000005
 30
0.0
  0
SEQEND
  5
F56
  8
0
 62
     7
  0
POLYLINE
  5
AF5
  8
0
 62
     7
 66
     1
 10
0.0
 20
0.0
 30
0.0
  0
VERTEX
  5
F57
  8
0
 62
     7
 10
77.499465999999998
 20
84.422713999999999
 30
0.0
  0
VERTEX
  5
F58
  8
0
 62
     7
 10
76.171768
 20
82.926979000000003
 30
0.0
  0
VERTEX
  5
F59
  8
0
 62
     7
 10
78.069457999999997
 20
83.558471999999995
 30
0.0
  0
SEQEND
  5
F5A
  8
0
 62
     7
  0
LINE
  5
AFA
  8
0
 62
     7
 10
66.154274000000001
 20
76.320183
 30
0.0
 11
118.46772799999999
 21
110.8222499999999
 31
0.0
  0
ENDBLK
  5
AFB
  8
0
  0
BLOCK
  8
0
  2
BLOCK97
 70
     0
 10
0.0
 20
0.0
 30
0.0
  3
BLOCK97
  1

  0
TEXT
  5
AFD
  8
0
 62
     7
 10
-5.9100650000000003
 20
-21.445663
 30
0.0
 40
3.0
  1
%%c4
 50
179.99996527521489
 41
1.0645139784948181
 72
     5
 11
-10.860054999999999
 21
-21.44566
 31
0.0
  0
ENDBLK
  5
AFE
  8
0
  0
BLOCK
  8
0
  2
BLOCK98
 70
     0
 10
0.0
 20
0.0
 30
0.0
  3
BLOCK98
  1

  0
TEXT
  5
B00
  8
0
 62
     7
 10
4.125
 20
18.878112999999999
 30
0.0
 40
3.0
  1
80%%d
 50
179.999955353822
 41
1.3873837837842049
 72
     5
 11
-3.57498
 21
18.878119000000002
 31
0.0
  0
ENDBLK
  5
B01
  8
0
  0
BLOCK
  8
0
  2
BLOCK99
 70
     0
 10
0.0
 20
0.0
 30
0.0
  3
BLOCK99
  1

  0
TEXT
  5
B03
  8
0
 62
     7
 10
-19.114124
 20
-8.8212890000000002
 30
0.0
 40
3.0
  1
PART. Z
 50
90.0
 41
1.3404976344086019
 72
     5
 11
-19.114124
 21
9.8786529999999981
 31
0.0
  0
ENDBLK
  5
B04
  8
0
  0
BLOCK
  8
0
  2
BLOCK100
 70
     0
 10
0.0
 20
0.0
 30
0.0
  3
BLOCK100
  1

  0
LINE
  5
B06
  8
0
 62
     2
 10
-3.2426400000000002
 20
-1.0
 30
0.0
 11
-5.2426399999999989
 21
1.0
 31
0.0
  0
LINE
  5
B07
  8
0
 62
     2
 10
-5.3639609999999989
 20
-1.0
 30
0.0
 11
-7.3639599999999996
 21
1.0
 31
0.0
  0
LINE
  5
B08
  8
0
 62
     2
 10
-7.4852809999999987
 20
-1.0
 30
0.0
 11
-9.4852810000000005
 21
1.0
 31
0.0
  0
LINE
  5
B09
  8
0
 62
     2
 10
-9.6066009999999995
 20
-1.0
 30
0.0
 11
-11.606601
 21
1.0
 31
0.0
  0
LINE
  5
B0A
  8
0
 62
     2
 10
-11.727921
 20
-1.0
 30
0.0
 11
-11.976111
 21
-0.7518100000000001
 31
0.0
  0
ENDBLK
  5
B0B
  8
0
  0
BLOCK
  8
0
  2
BLOCK101
 70
     0
 10
0.0
 20
0.0
 30
0.0
  3
BLOCK101
  1

  0
LINE
  5
B0D
  8
0
 62
     2
 10
9.4852810000000005
 20
-1.0
 30
0.0
 11
7.4852809999999987
 21
1.0
 31
0.0
  0
LINE
  5
B0E
  8
0
 62
     2
 10
7.3639599999999996
 20
-1.0
 30
0.0
 11
5.3639609999999989
 21
1.0
 31
0.0
  0
LINE
  5
B0F
  8
0
 62
     2
 10
5.2426399999999989
 20
-1.0
 30
0.0
 11
3.479473
 21
0.7631670000000002
 31
0.0
  0
LINE
  5
B10
  8
0
 62
     2
 10
3.121319999999999
 20
-1.0
 30
0.0
 11
2.5116089999999991
 21
-0.390289
 31
0.0
  0
ENDBLK
  5
B11
  8
0
  0
ENDSEC
  0
SECTION
  2
ENTITIES
  0
LINE
  5
25
  8
0
  6
DASHDOT
 62
     7
 10
455.210058
 20
737.08675700000003
 30
0.0
 11
455.210058
 21
494.20412800000003
 31
0.0
  0
POLYLINE
  5
26
  8
0
 62
     3
 66
     1
 10
0.0
 20
0.0
 30
0.0
  0
VERTEX
  5
B8E
  8
0
 62
     3
 10
387.710058
 20
731.44652199999985
 30
0.0
  0
VERTEX
  5
B8F
  8
0
 62
     3
 10
387.710058
 20
715.44652199999985
 30
0.0
  0
VERTEX
  5
B90
  8
0
 62
     3
 10
389.710058
 20
714.44652199999985
 30
0.0
  0
VERTEX
  5
B91
  8
0
 62
     3
 10
385.710058
 20
713.44652199999996
 30
0.0
  0
VERTEX
  5
B92
  8
0
 62
     3
 10
387.710058
 20
712.44652199999985
 30
0.0
  0
VERTEX
  5
B93
  8
0
 62
     3
 10
387.710058
 20
696.44652199999996
 30
0.0
  0
VERTEX
  5
B94
  8
0
 62
     3
 10
389.710058
 20
695.44652199999985
 30
0.0
  0
VERTEX
  5
B95
  8
0
 62
     3
 10
385.710058
 20
694.44652199999985
 30
0.0
  0
VERTEX
  5
B96
  8
0
 62
     3
 10
387.710058
 20
693.44652199999985
 30
0.0
  0
VERTEX
  5
B97
  8
0
 62
     3
 10
387.710058
 20
677.44652199999985
 30
0.0
  0
VERTEX
  5
B98
  8
0
 62
     3
 10
389.710058
 20
676.44652199999985
 30
0.0
  0
VERTEX
  5
B99
  8
0
 62
     3
 10
385.710058
 20
675.44652199999996
 30
0.0
  0
VERTEX
  5
B9A
  8
0
 62
     3
 10
387.710058
 20
674.44652199999985
 30
0.0
  0
VERTEX
  5
B9B
  8
0
 62
     3
 10
387.710058
 20
658.44652199999985
 30
0.0
  0
VERTEX
  5
B9C
  8
0
 62
     3
 10
389.710058
 20
657.44652199999985
 30
0.0
  0
VERTEX
  5
B9D
  8
0
 62
     3
 10
385.710058
 20
656.44652199999985
 30
0.0
  0
VERTEX
  5
B9E
  8
0
 62
     3
 10
387.710058
 20
655.44652199999985
 30
0.0
  0
VERTEX
  5
B9F
  8
0
 62
     3
 10
387.710058
 20
639.44652199999985
 30
0.0
  0
VERTEX
  5
BA0
  8
0
 62
     3
 10
389.710058
 20
638.44652199999996
 30
0.0
  0
VERTEX
  5
BA1
  8
0
 62
     3
 10
385.710058
 20
637.44652199999985
 30
0.0
  0
VERTEX
  5
BA2
  8
0
 62
     3
 10
387.710058
 20
636.44652199999985
 30
0.0
  0
VERTEX
  5
BA3
  8
0
 62
     3
 10
387.710058
 20
620.44652199999985
 30
0.0
  0
VERTEX
  5
BA4
  8
0
 62
     3
 10
389.710058
 20
619.44652199999985
 30
0.0
  0
VERTEX
  5
BA5
  8
0
 62
     3
 10
385.710058
 20
618.44652199999985
 30
0.0
  0
VERTEX
  5
BA6
  8
0
 62
     3
 10
387.710058
 20
617.44652199999996
 30
0.0
  0
VERTEX
  5
BA7
  8
0
 62
     3
 10
387.710058
 20
601.44652199999985
 30
0.0
  0
VERTEX
  5
BA8
  8
0
 62
     3
 10
389.710058
 20
600.44652199999996
 30
0.0
  0
VERTEX
  5
BA9
  8
0
 62
     3
 10
385.710058
 20
599.44652199999985
 30
0.0
  0
VERTEX
  5
BAA
  8
0
 62
     3
 10
387.710058
 20
598.44652199999985
 30
0.0
  0
VERTEX
  5
BAB
  8
0
 62
     3
 10
387.710058
 20
582.44652199999985
 30
0.0
  0
VERTEX
  5
BAC
  8
0
 62
     3
 10
389.710058
 20
581.44652199999985
 30
0.0
  0
VERTEX
  5
BAD
  8
0
 62
     3
 10
385.710058
 20
580.44652199999985
 30
0.0
  0
VERTEX
  5
BAE
  8
0
 62
     3
 10
387.710058
 20
579.44652199999985
 30
0.0
  0
VERTEX
  5
BAF
  8
0
 62
     3
 10
387.710058
 20
563.44652199999996
 30
0.0
  0
VERTEX
  5
BB0
  8
0
 62
     3
 10
389.710058
 20
562.44652199999985
 30
0.0
  0
VERTEX
  5
BB1
  8
0
 62
     3
 10
385.710058
 20
561.44652199999985
 30
0.0
  0
VERTEX
  5
BB2
  8
0
 62
     3
 10
387.710058
 20
560.44652199999985
 30
0.0
  0
VERTEX
  5
BB3
  8
0
 62
     3
 10
387.710058
 20
544.44652199999985
 30
0.0
  0
VERTEX
  5
BB4
  8
0
 62
     3
 10
389.710058
 20
543.44652199999985
 30
0.0
  0
VERTEX
  5
BB5
  8
0
 62
     3
 10
385.710058
 20
542.44652199999996
 30
0.0
  0
VERTEX
  5
BB6
  8
0
 62
     3
 10
387.710058
 20
541.44652199999985
 30
0.0
  0
VERTEX
  5
BB7
  8
0
 62
     3
 10
387.710058
 20
525.44652199999985
 30
0.0
  0
VERTEX
  5
BB8
  8
0
 62
     3
 10
389.710058
 20
524.44652199999985
 30
0.0
  0
VERTEX
  5
BB9
  8
0
 62
     3
 10
385.710058
 20
523.44652199999985
 30
0.0
  0
VERTEX
  5
BBA
  8
0
 62
     3
 10
387.710058
 20
522.44652199999985
 30
0.0
  0
VERTEX
  5
BBB
  8
0
 62
     3
 10
387.710058
 20
507.95219800000001
 30
0.0
  0
SEQEND
  5
BBC
  8
0
 62
     3
  0
POLYLINE
  5
56
  8
0
 62
     3
 66
     1
 10
0.0
 20
0.0
 30
0.0
  0
VERTEX
  5
BBD
  8
0
 62
     3
 10
502.71005799999989
 20
731.44652199999985
 30
0.0
  0
VERTEX
  5
BBE
  8
0
 62
     3
 10
502.71005799999989
 20
715.44652199999985
 30
0.0
  0
VERTEX
  5
BBF
  8
0
 62
     3
 10
504.710058
 20
714.44652199999985
 30
0.0
  0
VERTEX
  5
BC0
  8
0
 62
     3
 10
500.710058
 20
713.44652199999996
 30
0.0
  0
VERTEX
  5
BC1
  8
0
 62
     3
 10
502.71005799999989
 20
712.44652199999985
 30
0.0
  0
VERTEX
  5
BC2
  8
0
 62
     3
 10
502.71005799999989
 20
696.44652199999996
 30
0.0
  0
VERTEX
  5
BC3
  8
0
 62
     3
 10
504.710058
 20
695.44652199999985
 30
0.0
  0
VERTEX
  5
BC4
  8
0
 62
     3
 10
500.710058
 20
694.44652199999985
 30
0.0
  0
VERTEX
  5
BC5
  8
0
 62
     3
 10
502.71005799999989
 20
693.44652199999985
 30
0.0
  0
VERTEX
  5
BC6
  8
0
 62
     3
 10
502.71005799999989
 20
677.44652199999985
 30
0.0
  0
VERTEX
  5
BC7
  8
0
 62
     3
 10
504.710058
 20
676.44652199999985
 30
0.0
  0
VERTEX
  5
BC8
  8
0
 62
     3
 10
500.710058
 20
675.44652199999996
 30
0.0
  0
VERTEX
  5
BC9
  8
0
 62
     3
 10
502.71005799999989
 20
674.44652199999985
 30
0.0
  0
VERTEX
  5
BCA
  8
0
 62
     3
 10
502.71005799999989
 20
658.44652199999985
 30
0.0
  0
VERTEX
  5
BCB
  8
0
 62
     3
 10
504.710058
 20
657.44652199999985
 30
0.0
  0
VERTEX
  5
BCC
  8
0
 62
     3
 10
500.710058
 20
656.44652199999985
 30
0.0
  0
VERTEX
  5
BCD
  8
0
 62
     3
 10
502.71005799999989
 20
655.44652199999985
 30
0.0
  0
VERTEX
  5
BCE
  8
0
 62
     3
 10
502.71005799999989
 20
639.44652199999985
 30
0.0
  0
VERTEX
  5
BCF
  8
0
 62
     3
 10
504.710058
 20
638.44652199999996
 30
0.0
  0
VERTEX
  5
BD0
  8
0
 62
     3
 10
500.710058
 20
637.44652199999985
 30
0.0
  0
VERTEX
  5
BD1
  8
0
 62
     3
 10
502.71005799999989
 20
636.44652199999985
 30
0.0
  0
VERTEX
  5
BD2
  8
0
 62
     3
 10
502.71005799999989
 20
620.44652199999985
 30
0.0
  0
VERTEX
  5
BD3
  8
0
 62
     3
 10
504.710058
 20
619.44652199999985
 30
0.0
  0
VERTEX
  5
BD4
  8
0
 62
     3
 10
500.710058
 20
618.44652199999985
 30
0.0
  0
VERTEX
  5
BD5
  8
0
 62
     3
 10
502.71005799999989
 20
617.44652199999996
 30
0.0
  0
VERTEX
  5
BD6
  8
0
 62
     3
 10
502.71005799999989
 20
601.44652199999985
 30
0.0
  0
VERTEX
  5
BD7
  8
0
 62
     3
 10
504.710058
 20
600.44652199999996
 30
0.0
  0
VERTEX
  5
BD8
  8
0
 62
     3
 10
500.710058
 20
599.44652199999985
 30
0.0
  0
VERTEX
  5
BD9
  8
0
 62
     3
 10
502.71005799999989
 20
598.44652199999985
 30
0.0
  0
VERTEX
  5
BDA
  8
0
 62
     3
 10
502.71005799999989
 20
582.44652199999985
 30
0.0
  0
VERTEX
  5
BDB
  8
0
 62
     3
 10
504.710058
 20
581.44652199999985
 30
0.0
  0
VERTEX
  5
BDC
  8
0
 62
     3
 10
500.710058
 20
580.44652199999985
 30
0.0
  0
VERTEX
  5
BDD
  8
0
 62
     3
 10
502.71005799999989
 20
579.44652199999985
 30
0.0
  0
VERTEX
  5
BDE
  8
0
 62
     3
 10
502.71005799999989
 20
563.44652199999996
 30
0.0
  0
VERTEX
  5
BDF
  8
0
 62
     3
 10
504.710058
 20
562.44652199999985
 30
0.0
  0
VERTEX
  5
BE0
  8
0
 62
     3
 10
500.710058
 20
561.44652199999985
 30
0.0
  0
VERTEX
  5
BE1
  8
0
 62
     3
 10
502.71005799999989
 20
560.44652199999985
 30
0.0
  0
VERTEX
  5
BE2
  8
0
 62
     3
 10
502.71005799999989
 20
544.44652199999985
 30
0.0
  0
VERTEX
  5
BE3
  8
0
 62
     3
 10
504.710058
 20
543.44652199999985
 30
0.0
  0
VERTEX
  5
BE4
  8
0
 62
     3
 10
500.710058
 20
542.44652199999996
 30
0.0
  0
VERTEX
  5
BE5
  8
0
 62
     3
 10
502.71005799999989
 20
541.44652199999985
 30
0.0
  0
VERTEX
  5
BE6
  8
0
 62
     3
 10
502.71005799999989
 20
525.44652199999985
 30
0.0
  0
VERTEX
  5
BE7
  8
0
 62
     3
 10
504.710058
 20
524.44652199999985
 30
0.0
  0
VERTEX
  5
BE8
  8
0
 62
     3
 10
500.710058
 20
523.44652199999985
 30
0.0
  0
VERTEX
  5
BE9
  8
0
 62
     3
 10
502.71005799999989
 20
522.44652199999985
 30
0.0
  0
VERTEX
  5
BEA
  8
0
 62
     3
 10
502.71005799999989
 20
509.00974599999989
 30
0.0
  0
SEQEND
  5
BEB
  8
0
 62
     3
  0
POLYLINE
  5
86
  8
0
 62
     3
 66
     1
 10
0.0
 20
0.0
 30
0.0
  0
VERTEX
  5
BEC
  8
0
 62
     3
 10
520.06214
 20
720.01578099999995
 30
0.0
  0
VERTEX
  5
BED
  8
0
 62
     3
 10
504.06214
 20
720.01578099999995
 30
0.0
  0
VERTEX
  5
BEE
  8
0
 62
     3
 10
503.06214
 20
718.01578099999995
 30
0.0
  0
VERTEX
  5
BEF
  8
0
 62
     3
 10
502.06214
 20
722.01578099999995
 30
0.0
  0
VERTEX
  5
BF0
  8
0
 62
     3
 10
501.06214
 20
720.01578099999995
 30
0.0
  0
VERTEX
  5
BF1
  8
0
 62
     3
 10
485.06214
 20
720.01578099999995
 30
0.0
  0
VERTEX
  5
BF2
  8
0
 62
     3
 10
484.06214
 20
718.01578099999995
 30
0.0
  0
VERTEX
  5
BF3
  8
0
 62
     3
 10
483.06214
 20
722.01578099999995
 30
0.0
  0
VERTEX
  5
BF4
  8
0
 62
     3
 10
482.06214
 20
720.01578099999995
 30
0.0
  0
VERTEX
  5
BF5
  8
0
 62
     3
 10
466.06214000000011
 20
720.01578099999995
 30
0.0
  0
VERTEX
  5
BF6
  8
0
 62
     3
 10
465.06214
 20
718.01578099999995
 30
0.0
  0
VERTEX
  5
BF7
  8
0
 62
     3
 10
464.06214
 20
722.01578099999995
 30
0.0
  0
VERTEX
  5
BF8
  8
0
 62
     3
 10
463.06214
 20
720.01578099999995
 30
0.0
  0
VERTEX
  5
BF9
  8
0
 62
     3
 10
447.06214
 20
720.01578099999995
 30
0.0
  0
VERTEX
  5
BFA
  8
0
 62
     3
 10
446.06214
 20
718.01578099999995
 30
0.0
  0
VERTEX
  5
BFB
  8
0
 62
     3
 10
445.06214000000011
 20
722.01578099999995
 30
0.0
  0
VERTEX
  5
BFC
  8
0
 62
     3
 10
444.06214
 20
720.01578099999995
 30
0.0
  0
VERTEX
  5
BFD
  8
0
 62
     3
 10
428.06214
 20
720.01578099999995
 30
0.0
  0
VERTEX
  5
BFE
  8
0
 62
     3
 10
427.06214
 20
718.01578099999995
 30
0.0
  0
VERTEX
  5
BFF
  8
0
 62
     3
 10
426.06214
 20
722.01578099999995
 30
0.0
  0
VERTEX
  5
C00
  8
0
 62
     3
 10
425.06214
 20
720.01578099999995
 30
0.0
  0
VERTEX
  5
C01
  8
0
 62
     3
 10
409.06213999999989
 20
720.01578099999995
 30
0.0
  0
VERTEX
  5
C02
  8
0
 62
     3
 10
408.06214
 20
718.01578099999995
 30
0.0
  0
VERTEX
  5
C03
  8
0
 62
     3
 10
407.06214
 20
722.01578099999995
 30
0.0
  0
VERTEX
  5
C04
  8
0
 62
     3
 10
406.06214
 20
720.01578099999995
 30
0.0
  0
VERTEX
  5
C05
  8
0
 62
     3
 10
390.06213999999989
 20
720.01578099999995
 30
0.0
  0
VERTEX
  5
C06
  8
0
 62
     3
 10
389.06214
 20
718.01578099999995
 30
0.0
  0
VERTEX
  5
C07
  8
0
 62
     3
 10
388.06213999999989
 20
722.01578099999995
 30
0.0
  0
VERTEX
  5
C08
  8
0
 62
     3
 10
387.06214
 20
720.01578099999995
 30
0.0
  0
VERTEX
  5
C09
  8
0
 62
     3
 10
377.79315800000001
 20
720.01578099999995
 30
0.0
  0
SEQEND
  5
C0A
  8
0
 62
     3
  0
POLYLINE
  5
A6
  8
0
 62
     3
 66
     1
 10
0.0
 20
0.0
 30
0.0
  0
VERTEX
  5
C0B
  8
0
 62
     3
 10
516.98660899999993
 20
521.01578099999995
 30
0.0
  0
VERTEX
  5
C0C
  8
0
 62
     3
 10
500.98660899999999
 20
521.01578099999995
 30
0.0
  0
VERTEX
  5
C0D
  8
0
 62
     3
 10
499.98660899999999
 20
519.01578099999995
 30
0.0
  0
VERTEX
  5
C0E
  8
0
 62
     3
 10
498.98660899999987
 20
523.01578099999995
 30
0.0
  0
VERTEX
  5
C0F
  8
0
 62
     3
 10
497.98660899999987
 20
521.01578099999995
 30
0.0
  0
VERTEX
  5
C10
  8
0
 62
     3
 10
481.98660899999987
 20
521.01578099999995
 30
0.0
  0
VERTEX
  5
C11
  8
0
 62
     3
 10
480.98660899999987
 20
519.01578099999995
 30
0.0
  0
VERTEX
  5
C12
  8
0
 62
     3
 10
479.98660899999999
 20
523.01578099999995
 30
0.0
  0
VERTEX
  5
C13
  8
0
 62
     3
 10
478.98660899999999
 20
521.01578099999995
 30
0.0
  0
VERTEX
  5
C14
  8
0
 62
     3
 10
462.98660899999999
 20
521.01578099999995
 30
0.0
  0
VERTEX
  5
C15
  8
0
 62
     3
 10
461.98660899999999
 20
519.01578099999995
 30
0.0
  0
VERTEX
  5
C16
  8
0
 62
     3
 10
460.98660899999987
 20
523.01578099999995
 30
0.0
  0
VERTEX
  5
C17
  8
0
 62
     3
 10
459.98660899999987
 20
521.01578099999995
 30
0.0
  0
VERTEX
  5
C18
  8
0
 62
     3
 10
443.98660899999987
 20
521.01578099999995
 30
0.0
  0
VERTEX
  5
C19
  8
0
 62
     3
 10
442.98660899999987
 20
519.01578099999995
 30
0.0
  0
VERTEX
  5
C1A
  8
0
 62
     3
 10
441.98660899999999
 20
523.01578099999995
 30
0.0
  0
VERTEX
  5
C1B
  8
0
 62
     3
 10
440.98660899999999
 20
521.01578099999995
 30
0.0
  0
VERTEX
  5
C1C
  8
0
 62
     3
 10
424.98660899999999
 20
521.01578099999995
 30
0.0
  0
VERTEX
  5
C1D
  8
0
 62
     3
 10
423.98660899999987
 20
519.01578099999995
 30
0.0
  0
VERTEX
  5
C1E
  8
0
 62
     3
 10
422.98660899999987
 20
523.01578099999995
 30
0.0
  0
VERTEX
  5
C1F
  8
0
 62
     3
 10
421.98660899999999
 20
521.01578099999995
 30
0.0
  0
VERTEX
  5
C20
  8
0
 62
     3
 10
405.98660899999987
 20
521.01578099999995
 30
0.0
  0
VERTEX
  5
C21
  8
0
 62
     3
 10
404.98660899999999
 20
519.01578099999995
 30
0.0
  0
VERTEX
  5
C22
  8
0
 62
     3
 10
403.98660899999999
 20
523.01578099999995
 30
0.0
  0
VERTEX
  5
C23
  8
0
 62
     3
 10
402.98660899999987
 20
521.01578099999995
 30
0.0
  0
VERTEX
  5
C24
  8
0
 62
     3
 10
386.98660899999999
 20
521.01578099999995
 30
0.0
  0
VERTEX
  5
C25
  8
0
 62
     3
 10
385.98660899999999
 20
519.01578099999995
 30
0.0
  0
VERTEX
  5
C26
  8
0
 62
     3
 10
384.98660899999987
 20
523.01578099999995
 30
0.0
  0
VERTEX
  5
C27
  8
0
 62
     3
 10
383.98660899999999
 20
521.01578099999995
 30
0.0
  0
VERTEX
  5
C28
  8
0
 62
     3
 10
376.78815299999991
 20
521.01578099999995
 30
0.0
  0
SEQEND
  5
C29
  8
0
 62
     3
  0
LINE
  5
C6
  8
0
  6
DASHDOT
 62
     7
 10
480.210058
 20
692.32124699999997
 30
0.0
 11
480.210058
 21
547.097759
 31
0.0
  0
LINE
  5
C7
  8
0
  6
DASHDOT
 62
     7
 10
410.210058
 20
696.34127399999988
 30
0.0
 11
410.210058
 21
547.60026200000004
 31
0.0
  0
LINE
  5
C8
  8
0
  6
DASHDOT
 62
     7
 10
494.3739569999999
 20
670.51578099999995
 30
0.0
 11
394.87827900000002
 21
670.51578099999995
 31
0.0
  0
LINE
  5
C9
  8
0
  6
DASHDOT
 62
     7
 10
492.866446
 20
570.51578099999995
 30
0.0
 11
396.385786
 21
570.51578099999995
 31
0.0
  0
CIRCLE
  5
CA
  8
0
 62
     7
 10
410.210058
 20
670.51578099999995
 30
0.0
 40
2.5
  0
CIRCLE
  5
CB
  8
0
 62
     7
 10
480.210058
 20
670.51578099999995
 30
0.0
 40
2.5
  0
CIRCLE
  5
CC
  8
0
 62
     7
 10
480.210058
 20
570.51578099999995
 30
0.0
 40
2.5
  0
CIRCLE
  5
CD
  8
0
 62
     7
 10
410.210058
 20
570.51578099999995
 30
0.0
 40
2.5
  0
CIRCLE
  5
CE
  8
0
 62
     7
 10
490.38736499999999
 20
697.94349299999999
 30
0.0
 40
0.25
  0
LINE
  5
CF
  8
0
  6
DASHDOT
 62
     7
 10
525.61999300000002
 20
618.26578099999995
 30
0.0
 11
346.88306199999988
 21
618.26578099999995
 31
0.0
  0
LINE
  5
D0
  8
0
 62
     7
 10
407.90292899999997
 20
569.55304299999989
 30
0.0
 11
396.19418899999988
 21
566.92517499999985
 31
0.0
  0
LINE
  5
D1
  8
0
 62
     7
 10
407.90292899999997
 20
569.55304299999989
 30
0.0
 11
397.79904699999997
 21
563.07904400000007
 31
0.0
  0
LINE
  5
D2
  8
0
 62
     7
 10
412.51718699999998
 20
571.47855000000004
 30
0.0
 11
424.2259269999999
 21
574.10641799999985
 31
0.0
  0
LINE
  5
D3
  8
0
 62
     7
 10
412.51718699999998
 20
571.47855000000004
 30
0.0
 11
422.62106899999998
 21
577.95254899999998
 31
0.0
  0
LINE
  5
D4
  8
0
 62
     7
 10
412.74802199999999
 20
571.57480199999986
 30
0.0
 11
298.22214300000002
 21
523.78564800000004
 31
0.0
  0
LINE
  5
D5
  8
0
 62
     7
 10
572.76450199999988
 20
670.51578099999995
 30
0.0
 11
570.68076100000008
 21
658.69809299999997
 31
0.0
  0
LINE
  5
D6
  8
0
 62
     7
 10
572.76450199999988
 20
670.51578099999995
 30
0.0
 11
574.84824200000003
 21
658.69809299999997
 31
0.0
  0
LINE
  5
D7
  8
0
 62
     7
 10
572.76450199999988
 20
570.51578099999995
 30
0.0
 11
574.84824200000003
 21
582.33349999999984
 31
0.0
  0
LINE
  5
D8
  8
0
 62
     7
 10
572.76450199999988
 20
570.51578099999995
 30
0.0
 11
570.68063899999993
 21
582.33349999999984
 31
0.0
  0
LINE
  5
D9
  8
0
 62
     7
 10
572.76450199999988
 20
670.51578099999995
 30
0.0
 11
572.76450199999988
 21
570.51578099999995
 31
0.0
  0
LINE
  5
DA
  8
0
 62
     7
 10
580.76450199999988
 20
670.51578099999995
 30
0.0
 11
494.37399900000003
 21
670.51579700000002
 31
0.0
  0
LINE
  5
DB
  8
0
 62
     7
 10
580.76450199999988
 20
570.51578099999995
 30
0.0
 11
492.86642999999998
 21
570.51581199999998
 31
0.0
  0
LINE
  5
DC
  8
0
 62
     7
 10
480.210058
 20
481.772312
 30
0.0
 11
492.02780700000011
 21
479.68854099999987
 31
0.0
  0
LINE
  5
DD
  8
0
 62
     7
 10
480.210058
 20
481.772312
 30
0.0
 11
492.02780700000011
 21
483.85611299999999
 31
0.0
  0
LINE
  5
DE
  8
0
 62
     7
 10
455.210058
 20
481.772312
 30
0.0
 11
443.39243099999987
 21
483.85611299999999
 31
0.0
  0
LINE
  5
DF
  8
0
 62
     7
 10
455.210058
 20
481.772312
 30
0.0
 11
443.39243099999987
 21
479.68854099999987
 31
0.0
  0
LINE
  5
E0
  8
0
 62
     7
 10
514.210058
 20
481.772312
 30
0.0
 11
455.210058
 21
481.772312
 31
0.0
  0
LINE
  5
E1
  8
0
 62
     7
 10
480.210058
 20
473.772312
 30
0.0
 11
480.210058
 21
547.0977509999999
 31
0.0
  0
LINE
  5
E2
  8
0
 62
     7
 10
455.210058
 20
473.772312
 30
0.0
 11
455.210058
 21
494.20413600000001
 31
0.0
  0
LINE
  5
E3
  8
0
 62
     7
 10
455.210058
 20
445.08957299999997
 30
0.0
 11
443.39230900000001
 21
447.17334299999987
 31
0.0
  0
LINE
  5
E4
  8
0
 62
     7
 10
455.210058
 20
445.08957299999997
 30
0.0
 11
443.39230900000001
 21
443.0058019999999
 31
0.0
  0
LINE
  5
E5
  8
0
 62
     7
 10
410.210058
 20
445.08957299999997
 30
0.0
 11
422.027807
 21
443.0058019999999
 31
0.0
  0
LINE
  5
E6
  8
0
 62
     7
 10
410.210058
 20
445.08957299999997
 30
0.0
 11
422.027807
 21
447.17334299999987
 31
0.0
  0
LINE
  5
E7
  8
0
 62
     7
 10
489.210058
 20
445.08957299999997
 30
0.0
 11
410.210058
 21
445.08957299999997
 31
0.0
  0
LINE
  5
E8
  8
0
 62
     7
 10
455.210058
 20
437.08957299999992
 30
0.0
 11
455.210058
 21
494.20413600000001
 31
0.0
  0
LINE
  5
E9
  8
0
 62
     7
 10
410.210058
 20
437.08957299999992
 30
0.0
 11
410.210058
 21
547.60025399999995
 31
0.0
  0
LINE
  5
EA
  8
0
 62
     7
 10
319.23667
 20
670.51578099999995
 30
0.0
 11
317.15292899999997
 21
658.69809299999997
 31
0.0
  0
LINE
  5
EB
  8
0
 62
     7
 10
319.23667
 20
670.51578099999995
 30
0.0
 11
321.3205319999999
 21
658.69809299999997
 31
0.0
  0
LINE
  5
EC
  8
0
 62
     7
 10
319.23667
 20
618.26578099999995
 30
0.0
 11
321.3205319999999
 21
630.08346900000004
 31
0.0
  0
LINE
  5
ED
  8
0
 62
     7
 10
319.23667
 20
618.26578099999995
 30
0.0
 11
317.15292899999997
 21
630.08346900000004
 31
0.0
  0
LINE
  5
EE
  8
0
 62
     7
 10
319.23667
 20
675.33459800000003
 30
0.0
 11
319.23667
 21
618.26578099999995
 31
0.0
  0
LINE
  5
EF
  8
0
 62
     7
 10
311.23666999999989
 20
670.51578099999995
 30
0.0
 11
394.87827099999998
 21
670.51578099999995
 31
0.0
  0
LINE
  5
F0
  8
0
 62
     7
 10
311.23666999999989
 20
618.26578099999995
 30
0.0
 11
346.8830319999999
 21
618.26578099999995
 31
0.0
  0
LINE
  5
F1
  8
0
  6
DASHDOT
 62
     7
 10
102.1163609999999
 20
533.01577299999997
 30
0.0
 11
102.1163609999999
 21
556.51577499999996
 31
0.0
  0
LINE
  5
F2
  8
0
  6
DASHDOT
 62
     7
 10
172.116422
 20
533.01577299999997
 30
0.0
 11
172.116422
 21
556.51578600000005
 31
0.0
  0
LINE
  5
F3
  8
0
  6
DASHDOT
 62
     7
 10
172.11636100000001
 20
533.01577299999997
 30
0.0
 11
172.11636100000001
 21
543.91576899999995
 31
0.0
  0
LINE
  5
F4
  8
0
  6
DASHDOT
 62
     7
 10
102.1163609999999
 20
533.01577299999997
 30
0.0
 11
102.1163609999999
 21
543.91577199999995
 31
0.0
  0
LINE
  5
F5
  8
0
 62
     3
 10
189.11636100000001
 20
670.76577499999996
 30
0.0
 11
85.116376000000002
 21
670.76577499999996
 31
0.0
  0
LINE
  5
F6
  8
0
  6
DASHDOT
 62
     7
 10
137.11637599999989
 20
547.64460099999997
 30
0.0
 11
137.11637599999989
 21
650.93986199999995
 31
0.0
  0
ARC
  5
F7
  8
0
 62
     3
 10
85.116376000000002
 20
670.26577499999996
 30
0.0
 40
0.5
 50
90.0
 51
180.00000299999991
  0
ARC
  5
F8
  8
0
 62
     3
 10
189.11636100000001
 20
670.26577499999996
 30
0.0
 40
0.5
 50
0.000001
 51
90.0
  0
LINE
  5
F9
  8
0
  6
DASHDOT
 62
     7
 10
137.11637599999989
 20
656.71909800000003
 30
0.0
 11
137.11637599999989
 21
685.62934599999994
 31
0.0
  0
LINE
  5
FA
  8
0
 62
     7
 10
147.866376
 20
588.01576699999998
 30
0.0
 11
147.866376
 21
628.01575199999991
 31
0.0
  0
LINE
  5
FB
  8
0
 62
     7
 10
126.366376
 20
588.01576699999998
 30
0.0
 11
126.366376
 21
628.01575199999991
 31
0.0
  0
LINE
  5
FC
  8
0
 62
     7
 10
147.866376
 20
588.01576699999998
 30
0.0
 11
126.366376
 21
588.01576699999998
 31
0.0
  0
LINE
  5
FD
  8
0
 62
     7
 10
147.866376
 20
588.28026299999988
 30
0.0
 11
126.366376
 21
588.28026299999988
 31
0.0
  0
LINE
  5
FE
  8
0
  6
DASHDOT
 62
     7
 10
137.11637599999989
 20
458.38147400000003
 30
0.0
 11
137.11637599999989
 21
648.96818299999995
 31
0.0
  0
LINE
  5
FF
  8
0
  6
DASHDOT
 62
     7
 10
137.11637599999989
 20
648.19544699999994
 30
0.0
 11
137.11637599999989
 21
764.04258400000003
 31
0.0
  0
LINE
  5
100
  8
0
 62
     7
 10
189.61636100000001
 20
631.76576699999998
 30
0.0
 11
189.61636100000001
 21
670.26577499999996
 31
0.0
  0
LINE
  5
101
  8
0
 62
     7
 10
84.616376000000017
 20
631.76576699999998
 30
0.0
 11
84.616376000000017
 21
670.26577499999996
 31
0.0
  0
ARC
  5
102
  8
0
 62
     7
 10
189.11637599999989
 20
670.26577499999996
 30
0.0
 40
0.5
 50
0.000001
 51
90.0
  0
ARC
  5
103
  8
0
 62
     7
 10
85.116376000000002
 20
670.26577499999996
 30
0.0
 40
0.5
 50
90.0
 51
180.00000299999991
  0
LINE
  5
104
  8
0
 62
     7
 10
147.866376
 20
602.14108799999985
 30
0.0
 11
126.366376
 21
602.14108799999985
 31
0.0
  0
LINE
  5
105
  8
0
 62
     7
 10
147.866376
 20
596.0246249999999
 30
0.0
 11
126.366376
 21
596.0246249999999
 31
0.0
  0
LINE
  5
106
  8
0
 62
     7
 10
147.866376
 20
590.07680199999993
 30
0.0
 11
126.366376
 21
590.07680199999993
 31
0.0
  0
LINE
  5
107
  8
0
 62
     7
 10
147.866376
 20
589.27405299999998
 30
0.0
 11
126.366376
 21
589.27405299999998
 31
0.0
  0
LINE
  5
108
  8
0
  6
DASHDOT
 62
     7
 10
137.11637599999989
 20
719.41569200000004
 30
0.0
 11
137.11637599999989
 21
731.61581099999989
 31
0.0
  0
LINE
  5
109
  8
0
 62
     3
 10
188.366376
 20
708.01577499999985
 30
0.0
 11
85.866394999999997
 21
708.01577499999985
 31
0.0
  0
LINE
  5
10A
  8
0
 62
     3
 10
189.616376
 20
698.75947299999996
 30
0.0
 11
189.616376
 21
706.765759
 31
0.0
  0
LINE
  5
10B
  8
0
 62
     3
 10
84.616386999999989
 20
698.75947299999996
 30
0.0
 11
84.616386999999989
 21
706.76579000000004
 31
0.0
  0
LINE
  5
10C
  8
0
 62
     3
 10
88.266393000000008
 20
698.75947299999996
 30
0.0
 11
88.266393000000008
 21
708.01577499999985
 31
0.0
  0
LINE
  5
10D
  8
0
 62
     3
 10
91.866390999999993
 20
698.75947299999996
 30
0.0
 11
91.866390999999993
 21
708.01577499999985
 31
0.0
  0
LINE
  5
10E
  8
0
 62
     3
 10
95.466390000000004
 20
698.75947299999996
 30
0.0
 11
95.466390000000004
 21
708.01577499999985
 31
0.0
  0
LINE
  5
10F
  8
0
 62
     3
 10
99.066388000000003
 20
698.75947299999996
 30
0.0
 11
99.066388000000003
 21
708.01577499999985
 31
0.0
  0
LINE
  5
110
  8
0
 62
     3
 10
102.66637900000001
 20
698.75947299999996
 30
0.0
 11
102.66637900000001
 21
708.01577499999985
 31
0.0
  0
LINE
  5
111
  8
0
 62
     3
 10
106.266385
 20
698.75947299999996
 30
0.0
 11
106.266385
 21
708.01577499999985
 31
0.0
  0
LINE
  5
112
  8
0
 62
     3
 10
109.8663759999999
 20
698.75947299999996
 30
0.0
 11
109.8663759999999
 21
708.01577499999985
 31
0.0
  0
LINE
  5
113
  8
0
 62
     3
 10
113.466382
 20
698.75947299999996
 30
0.0
 11
113.466382
 21
708.01577499999985
 31
0.0
  0
LINE
  5
114
  8
0
 62
     3
 10
117.066373
 20
698.75947299999996
 30
0.0
 11
117.066373
 21
708.01577499999985
 31
0.0
  0
LINE
  5
115
  8
0
 62
     3
 10
120.66637900000001
 20
698.75947299999996
 30
0.0
 11
120.66637900000001
 21
708.01577499999985
 31
0.0
  0
LINE
  5
116
  8
0
 62
     3
 10
124.266385
 20
698.75947299999996
 30
0.0
 11
124.266385
 21
708.01577499999985
 31
0.0
  0
LINE
  5
117
  8
0
 62
     3
 10
127.866376
 20
698.75947299999996
 30
0.0
 11
127.866376
 21
708.01577499999985
 31
0.0
  0
LINE
  5
118
  8
0
 62
     3
 10
131.46638200000001
 20
698.75947299999996
 30
0.0
 11
131.46638200000001
 21
708.01577499999985
 31
0.0
  0
LINE
  5
119
  8
0
 62
     3
 10
135.06637299999991
 20
698.75947299999996
 30
0.0
 11
135.06637299999991
 21
708.01577499999985
 31
0.0
  0
LINE
  5
11A
  8
0
 62
     3
 10
138.66637900000001
 20
698.75947299999996
 30
0.0
 11
138.66637900000001
 21
708.01577499999985
 31
0.0
  0
LINE
  5
11B
  8
0
 62
     3
 10
142.26638500000001
 20
698.75947299999996
 30
0.0
 11
142.26638500000001
 21
708.01577499999985
 31
0.0
  0
LINE
  5
11C
  8
0
 62
     3
 10
145.866376
 20
698.75947299999996
 30
0.0
 11
145.866376
 21
708.01577499999985
 31
0.0
  0
LINE
  5
11D
  8
0
 62
     3
 10
149.46638200000001
 20
698.75947299999996
 30
0.0
 11
149.46638200000001
 21
708.01577499999985
 31
0.0
  0
LINE
  5
11E
  8
0
 62
     3
 10
153.066373
 20
698.75947299999996
 30
0.0
 11
153.066373
 21
708.01577499999985
 31
0.0
  0
LINE
  5
11F
  8
0
 62
     3
 10
156.66637899999989
 20
698.75947299999996
 30
0.0
 11
156.66637899999989
 21
708.01577499999985
 31
0.0
  0
LINE
  5
120
  8
0
 62
     3
 10
160.26638500000001
 20
698.75947299999996
 30
0.0
 11
160.26638500000001
 21
708.01577499999985
 31
0.0
  0
LINE
  5
121
  8
0
 62
     3
 10
163.866376
 20
698.75947299999996
 30
0.0
 11
163.866376
 21
708.01577499999985
 31
0.0
  0
LINE
  5
122
  8
0
 62
     3
 10
167.46638200000001
 20
698.75947299999996
 30
0.0
 11
167.46638200000001
 21
708.01577499999985
 31
0.0
  0
LINE
  5
123
  8
0
 62
     3
 10
171.066373
 20
698.75947299999996
 30
0.0
 11
171.066373
 21
708.01577499999985
 31
0.0
  0
LINE
  5
124
  8
0
 62
     3
 10
174.66637900000001
 20
698.75947299999996
 30
0.0
 11
174.66637900000001
 21
708.01577499999985
 31
0.0
  0
LINE
  5
125
  8
0
 62
     3
 10
178.26638500000001
 20
698.75947299999996
 30
0.0
 11
178.26638500000001
 21
708.01577499999985
 31
0.0
  0
LINE
  5
126
  8
0
 62
     3
 10
181.86637599999989
 20
698.75947299999996
 30
0.0
 11
181.86637599999989
 21
708.01577499999985
 31
0.0
  0
LINE
  5
127
  8
0
 62
     3
 10
185.46638200000001
 20
698.75947299999996
 30
0.0
 11
185.46638200000001
 21
708.01577499999985
 31
0.0
  0
ARC
  5
128
  8
0
 62
     3
 10
188.36636100000001
 20
706.765759
 30
0.0
 40
1.2499990000000001
 50
0.000028
 51
90.000461999999985
  0
ARC
  5
129
  8
0
 62
     3
 10
85.866360999999984
 20
706.76579000000004
 30
0.0
 40
1.2499670000000001
 50
89.998233999999997
 51
180.00118399999991
  0
LINE
  5
12A
  8
0
 62
     3
 10
188.366376
 20
533.01577299999997
 30
0.0
 11
85.866394999999997
 21
533.01577299999997
 31
0.0
  0
LINE
  5
12B
  8
0
 62
     3
 10
189.616376
 20
534.26578399999994
 30
0.0
 11
189.616376
 21
537.76577999999995
 31
0.0
  0
LINE
  5
12C
  8
0
 62
     3
 10
84.616386999999989
 20
534.26575199999991
 30
0.0
 11
84.616386999999989
 21
537.76577999999995
 31
0.0
  0
LINE
  5
12D
  8
0
 62
     3
 10
88.266393000000008
 20
533.01577299999997
 30
0.0
 11
88.266393000000008
 21
537.76577999999995
 31
0.0
  0
LINE
  5
12E
  8
0
 62
     3
 10
91.866390999999993
 20
533.01577299999997
 30
0.0
 11
91.866390999999993
 21
537.76577999999995
 31
0.0
  0
LINE
  5
12F
  8
0
 62
     3
 10
95.466390000000004
 20
533.01577299999997
 30
0.0
 11
95.466390000000004
 21
537.76577999999995
 31
0.0
  0
LINE
  5
130
  8
0
 62
     3
 10
99.066388000000003
 20
533.01577299999997
 30
0.0
 11
99.066388000000003
 21
537.76577999999995
 31
0.0
  0
LINE
  5
131
  8
0
 62
     3
 10
102.66637900000001
 20
533.01577299999997
 30
0.0
 11
102.66637900000001
 21
537.76577999999995
 31
0.0
  0
LINE
  5
132
  8
0
 62
     3
 10
106.266385
 20
533.01577299999997
 30
0.0
 11
106.266385
 21
537.76577999999995
 31
0.0
  0
LINE
  5
133
  8
0
 62
     3
 10
109.8663759999999
 20
533.01577299999997
 30
0.0
 11
109.8663759999999
 21
537.76577999999995
 31
0.0
  0
LINE
  5
134
  8
0
 62
     3
 10
113.466382
 20
533.01577299999997
 30
0.0
 11
113.466382
 21
537.76577999999995
 31
0.0
  0
LINE
  5
135
  8
0
 62
     3
 10
117.066373
 20
533.01577299999997
 30
0.0
 11
117.066373
 21
537.76577999999995
 31
0.0
  0
LINE
  5
136
  8
0
 62
     3
 10
120.66637900000001
 20
533.01577299999997
 30
0.0
 11
120.66637900000001
 21
537.76577999999995
 31
0.0
  0
LINE
  5
137
  8
0
 62
     3
 10
124.266385
 20
533.01577299999997
 30
0.0
 11
124.266385
 21
537.76577999999995
 31
0.0
  0
LINE
  5
138
  8
0
 62
     3
 10
127.866376
 20
533.01577299999997
 30
0.0
 11
127.866376
 21
537.76577999999995
 31
0.0
  0
LINE
  5
139
  8
0
 62
     3
 10
131.46638200000001
 20
533.01577299999997
 30
0.0
 11
131.46638200000001
 21
537.76577999999995
 31
0.0
  0
LINE
  5
13A
  8
0
 62
     3
 10
135.06637299999991
 20
533.01577299999997
 30
0.0
 11
135.06637299999991
 21
537.76577999999995
 31
0.0
  0
LINE
  5
13B
  8
0
 62
     3
 10
138.66637900000001
 20
533.01577299999997
 30
0.0
 11
138.66637900000001
 21
537.76577999999995
 31
0.0
  0
LINE
  5
13C
  8
0
 62
     3
 10
142.26638500000001
 20
533.01577299999997
 30
0.0
 11
142.26638500000001
 21
537.76577999999995
 31
0.0
  0
LINE
  5
13D
  8
0
 62
     3
 10
145.866376
 20
533.01577299999997
 30
0.0
 11
145.866376
 21
537.76577999999995
 31
0.0
  0
LINE
  5
13E
  8
0
 62
     3
 10
149.46638200000001
 20
533.01577299999997
 30
0.0
 11
149.46638200000001
 21
537.76577999999995
 31
0.0
  0
LINE
  5
13F
  8
0
 62
     3
 10
153.066373
 20
533.01577299999997
 30
0.0
 11
153.066373
 21
537.76577999999995
 31
0.0
  0
LINE
  5
140
  8
0
 62
     3
 10
156.66637899999989
 20
533.01577299999997
 30
0.0
 11
156.66637899999989
 21
537.76577999999995
 31
0.0
  0
LINE
  5
141
  8
0
 62
     3
 10
160.26638500000001
 20
533.01577299999997
 30
0.0
 11
160.26638500000001
 21
537.76577999999995
 31
0.0
  0
LINE
  5
142
  8
0
 62
     3
 10
163.866376
 20
533.01577299999997
 30
0.0
 11
163.866376
 21
537.76577999999995
 31
0.0
  0
LINE
  5
143
  8
0
 62
     3
 10
167.46638200000001
 20
533.01577299999997
 30
0.0
 11
167.46638200000001
 21
537.76577999999995
 31
0.0
  0
LINE
  5
144
  8
0
 62
     3
 10
171.066373
 20
533.01577299999997
 30
0.0
 11
171.066373
 21
537.76577999999995
 31
0.0
  0
LINE
  5
145
  8
0
 62
     3
 10
174.66637900000001
 20
533.01577299999997
 30
0.0
 11
174.66637900000001
 21
537.76577999999995
 31
0.0
  0
LINE
  5
146
  8
0
 62
     3
 10
178.26638500000001
 20
533.01577299999997
 30
0.0
 11
178.26638500000001
 21
537.76577999999995
 31
0.0
  0
LINE
  5
147
  8
0
 62
     3
 10
181.86637599999989
 20
533.01577299999997
 30
0.0
 11
181.86637599999989
 21
537.76577999999995
 31
0.0
  0
LINE
  5
148
  8
0
 62
     3
 10
185.46638200000001
 20
533.01577299999997
 30
0.0
 11
185.46638200000001
 21
537.76577999999995
 31
0.0
  0
ARC
  5
149
  8
0
 62
     3
 10
188.36636100000001
 20
534.26578399999994
 30
0.0
 40
1.2499990000000001
 50
269.99954100000002
 51
359.99997300000001
  0
ARC
  5
14A
  8
0
 62
     3
 10
85.866360999999984
 20
534.26575199999991
 30
0.0
 40
1.2499670000000001
 50
179.9988139999999
 51
270.00178099999988
  0
LINE
  5
14B
  8
0
 62
     4
 10
189.61652900000001
 20
568.01601900000003
 30
0.0
 11
189.61652900000001
 21
577.01598100000001
 31
0.0
  0
LINE
  5
14C
  8
0
 62
     3
 10
197.61652900000001
 20
557.01600699999995
 30
0.0
 11
197.61652900000001
 21
561.51601100000005
 31
0.0
  0
LINE
  5
14D
  8
0
  6
DASHSPACE
 62
     4
 10
220.11652900000001
 20
693.01601900000003
 30
0.0
 11
189.616376
 21
693.01601900000003
 31
0.0
  0
LINE
  5
14E
  8
0
 62
     4
 10
197.61643699999999
 20
585.26597300000003
 30
0.0
 11
197.61643699999999
 21
595.76597300000003
 31
0.0
  0
LINE
  5
14F
  8
0
 62
     4
 10
197.61643699999999
 20
637.01598799999999
 30
0.0
 11
197.61643699999999
 21
661.01603399999999
 31
0.0
  0
LINE
  5
150
  8
0
  6
DASHSPACE
 62
     4
 10
220.116544
 20
548.26600399999995
 30
0.0
 11
189.616376
 21
548.26600399999995
 31
0.0
  0
LINE
  5
151
  8
0
 62
     3
 10
197.616544
 20
672.51603399999999
 30
0.0
 11
197.616544
 21
679.76603399999999
 31
0.0
  0
LINE
  5
152
  8
0
  6
DASHSPACE
 62
     4
 10
220.116544
 20
548.26600399999995
 30
0.0
 11
220.11652900000001
 21
693.01601900000003
 31
0.0
  0
LINE
  5
153
  8
0
  6
DASHSPACE
 62
     4
 10
221.11652900000001
 20
606.01597300000003
 30
0.0
 11
221.11652900000001
 21
626.01597300000003
 31
0.0
  0
LINE
  5
154
  8
0
 62
     4
 10
196.616544
 20
595.76597300000003
 30
0.0
 11
196.616544
 21
631.01598799999999
 31
0.0
  0
LINE
  5
155
  8
0
 62
     3
 10
196.616544
 20
572.01601900000003
 30
0.0
 11
196.616544
 21
577.01598100000001
 31
0.0
  0
LINE
  5
156
  8
0
  6
DASHSPACE
 62
     4
 10
221.11652900000001
 20
626.01597300000003
 30
0.0
 11
220.116544
 21
626.01597300000003
 31
0.0
  0
LINE
  5
157
  8
0
  6
DASHSPACE
 62
     4
 10
221.11652900000001
 20
606.01597300000003
 30
0.0
 11
220.11652900000001
 21
606.01597300000003
 31
0.0
  0
LINE
  5
158
  8
0
 62
     4
 10
189.61651299999991
 20
665.01601900000003
 30
0.0
 11
189.61651299999991
 21
668.01601900000003
 31
0.0
  0
LINE
  5
159
  8
0
 62
   150
 10
84.616460000000004
 20
566.26603799999998
 30
0.0
 11
84.616460000000004
 21
566.76606800000002
 31
0.0
  0
LINE
  5
15A
  8
0
 62
   150
 10
84.616474999999994
 20
658.76600399999995
 30
0.0
 11
84.616474999999994
 21
670.26607999999999
 31
0.0
  0
LINE
  5
15B
  8
0
 62
   150
 10
84.762921000000006
 20
565.91248399999995
 30
0.0
 11
84.616460000000004
 21
566.26603799999998
 31
0.0
  0
LINE
  5
15C
  8
0
 62
   150
 10
85.116460000000004
 20
565.76609900000005
 30
0.0
 11
84.762924999999996
 21
565.91248399999995
 31
0.0
  0
LINE
  5
15D
  8
0
 62
   150
 10
189.11652900000001
 20
565.76615199999992
 30
0.0
 11
158.61652900000001
 21
565.76615199999992
 31
0.0
  0
LINE
  5
15E
  8
0
 62
   150
 10
85.616474999999994
 20
565.76609900000005
 30
0.0
 11
85.116455999999985
 21
565.76609900000005
 31
0.0
  0
LINE
  5
15F
  8
0
 62
   150
 10
189.11652900000001
 20
565.76602999999989
 30
0.0
 11
189.47009
 21
565.91247999999985
 31
0.0
  0
LINE
  5
160
  8
0
 62
   150
 10
189.47009
 20
565.91247999999985
 30
0.0
 11
189.616544
 21
566.26603399999999
 31
0.0
  0
LINE
  5
161
  8
0
 62
   150
 10
189.616544
 20
566.26603399999999
 30
0.0
 11
189.61652900000001
 21
670.26607999999999
 31
0.0
  0
LINE
  5
162
  8
0
 62
     3
 10
162.31646399999991
 20
575.69657599999994
 30
0.0
 11
162.31646399999991
 21
583.8353699999999
 31
0.0
  0
LINE
  5
163
  8
0
 62
     3
 10
163.71432200000001
 20
574.08984099999986
 30
0.0
 11
162.31644900000001
 21
575.69657599999994
 31
0.0
  0
LINE
  5
164
  8
0
 62
     3
 10
165.50758099999999
 20
572.94074699999987
 30
0.0
 11
163.71435299999999
 21
574.08984099999986
 31
0.0
  0
LINE
  5
165
  8
0
 62
     3
 10
167.551511
 20
572.34205300000008
 30
0.0
 11
165.507565
 21
572.94074699999987
 31
0.0
  0
LINE
  5
166
  8
0
 62
     3
 10
169.68131699999989
 20
572.34205300000008
 30
0.0
 11
167.551511
 21
572.34205300000008
 31
0.0
  0
LINE
  5
167
  8
0
 62
     3
 10
169.68131699999989
 20
572.34205300000008
 30
0.0
 11
171.7252629999999
 21
572.94074000000001
 31
0.0
  0
LINE
  5
168
  8
0
 62
     3
 10
171.725278
 20
572.94074699999987
 30
0.0
 11
173.51852099999999
 21
574.08984099999986
 31
0.0
  0
LINE
  5
169
  8
0
 62
     3
 10
173.5184909999999
 20
574.08982600000002
 30
0.0
 11
174.91640899999999
 21
575.69665999999995
 31
0.0
  0
LINE
  5
16A
  8
0
 62
     3
 10
174.91642499999989
 20
575.69666799999993
 30
0.0
 11
174.916471
 21
583.83541600000001
 31
0.0
  0
LINE
  5
16B
  8
0
 62
     3
 10
174.916471
 20
583.83541600000001
 30
0.0
 11
173.51855199999989
 21
585.44221200000004
 31
0.0
  0
LINE
  5
16C
  8
0
 62
     3
 10
173.5185669999999
 20
585.44221200000004
 30
0.0
 11
171.72532399999989
 21
586.59130599999992
 31
0.0
  0
LINE
  5
16D
  8
0
 62
     3
 10
171.72530800000001
 20
586.59130599999992
 30
0.0
 11
169.681378
 21
587.18999199999985
 31
0.0
  0
LINE
  5
16E
  8
0
 62
     3
 10
169.681378
 20
587.18999199999985
 30
0.0
 11
167.55155699999989
 21
587.18999199999985
 31
0.0
  0
LINE
  5
16F
  8
0
 62
     3
 10
165.50762700000001
 20
586.59130599999992
 30
0.0
 11
167.55155699999989
 21
587.18999199999985
 31
0.0
  0
LINE
  5
170
  8
0
 62
     3
 10
163.7143979999999
 20
585.44222699999989
 30
0.0
 11
165.507642
 21
586.59132099999999
 31
0.0
  0
LINE
  5
171
  8
0
 62
     3
 10
162.31644900000001
 20
583.83536200000003
 30
0.0
 11
163.71436800000001
 21
585.44220399999995
 31
0.0
  0
LINE
  5
172
  8
0
 62
     3
 10
158.61652900000001
 20
658.26601900000003
 30
0.0
 11
189.61652900000001
 21
658.26607999999999
 31
0.0
  0
LINE
  5
173
  8
0
 62
     3
 10
189.61652900000001
 20
668.26607999999987
 30
0.0
 11
84.616467000000014
 21
668.26607999999987
 31
0.0
  0
LINE
  5
174
  8
0
 62
     3
 10
178.12093799999991
 20
651.01595799999996
 30
0.0
 11
178.00675699999991
 21
651.58999299999994
 31
0.0
  0
LINE
  5
175
  8
0
 62
     3
 10
178.00675699999991
 20
651.58999299999994
 30
0.0
 11
177.68160700000001
 21
652.07662699999992
 31
0.0
  0
LINE
  5
176
  8
0
 62
     3
 10
177.68160700000001
 20
652.07662699999992
 30
0.0
 11
177.19495900000001
 21
652.40177599999993
 31
0.0
  0
LINE
  5
177
  8
0
 62
     3
 10
177.19494299999999
 20
652.40177599999993
 30
0.0
 11
176.620923
 21
652.51595799999996
 31
0.0
  0
LINE
  5
178
  8
0
 62
     3
 10
176.04690299999999
 20
652.40176100000008
 30
0.0
 11
176.620923
 21
652.51594299999999
 31
0.0
  0
LINE
  5
179
  8
0
 62
     3
 10
175.56028499999999
 20
652.07662699999992
 30
0.0
 11
176.04691800000001
 21
652.40177599999993
 31
0.0
  0
LINE
  5
17A
  8
0
 62
     3
 10
175.23511999999991
 20
651.58999299999994
 30
0.0
 11
175.56028499999999
 21
652.07662699999992
 31
0.0
  0
LINE
  5
17B
  8
0
 62
     3
 10
175.12093799999991
 20
651.01594299999988
 30
0.0
 11
175.23511999999991
 21
651.58997799999986
 31
0.0
  0
LINE
  5
17C
  8
0
 62
     3
 10
175.12093799999991
 20
648.01595799999996
 30
0.0
 11
175.12093799999991
 21
651.01595799999996
 31
0.0
  0
LINE
  5
17D
  8
0
 62
     3
 10
175.23511999999991
 20
647.44192199999986
 30
0.0
 11
175.12093799999991
 21
648.01594299999999
 31
0.0
  0
LINE
  5
17E
  8
0
 62
     3
 10
175.56028499999999
 20
646.95530399999996
 30
0.0
 11
175.23511999999991
 21
647.44193700000005
 31
0.0
  0
LINE
  5
17F
  8
0
 62
     3
 10
176.04691800000001
 20
646.63013899999987
 30
0.0
 11
175.56028499999999
 21
646.95530399999996
 31
0.0
  0
LINE
  5
180
  8
0
 62
     3
 10
176.620923
 20
646.51595799999996
 30
0.0
 11
176.04690299999999
 21
646.63013899999987
 31
0.0
  0
LINE
  5
181
  8
0
 62
     3
 10
176.620923
 20
646.51594299999988
 30
0.0
 11
177.19494299999999
 21
646.63012399999991
 31
0.0
  0
LINE
  5
182
  8
0
 62
     3
 10
177.19495900000001
 20
646.63013899999987
 30
0.0
 11
177.68160700000001
 21
646.95530399999996
 31
0.0
  0
LINE
  5
183
  8
0
 62
     3
 10
177.68160700000001
 20
646.95530399999996
 30
0.0
 11
178.00675699999991
 21
647.44193700000005
 31
0.0
  0
LINE
  5
184
  8
0
 62
     3
 10
178.00674199999989
 20
647.44192199999986
 30
0.0
 11
178.12092299999989
 21
648.01594299999999
 31
0.0
  0
LINE
  5
185
  8
0
 62
     3
 10
178.12093799999991
 20
648.01595799999996
 30
0.0
 11
178.12093799999991
 21
651.01595799999996
 31
0.0
  0
LINE
  5
186
  8
0
 62
     3
 10
178.11652900000001
 20
626.51598100000001
 30
0.0
 11
175.11652900000001
 21
626.51598100000001
 31
0.0
  0
LINE
  5
187
  8
0
 62
     3
 10
175.11652900000001
 20
599.51598100000001
 30
0.0
 11
175.11652900000001
 21
626.51598100000001
 31
0.0
  0
LINE
  5
188
  8
0
 62
     3
 10
178.11652900000001
 20
599.51598100000001
 30
0.0
 11
175.11652900000001
 21
599.51598100000001
 31
0.0
  0
LINE
  5
189
  8
0
 62
     3
 10
178.11652900000001
 20
599.51598100000001
 30
0.0
 11
178.11652900000001
 21
626.51598100000001
 31
0.0
  0
LINE
  5
18A
  8
0
 62
   150
 10
156.61652900000001
 20
569.26600699999995
 30
0.0
 11
156.61652900000001
 21
655.76600399999995
 31
0.0
  0
LINE
  5
18B
  8
0
 62
     3
 10
158.61652900000001
 20
658.26600399999995
 30
0.0
 11
88.116444999999985
 21
658.26600399999995
 31
0.0
  0
LINE
  5
18C
  8
0
 62
   150
 10
155.61652900000001
 20
656.76600399999995
 30
0.0
 11
88.116444999999985
 21
656.76600399999995
 31
0.0
  0
LINE
  5
18D
  8
0
 62
   150
 10
156.61652900000001
 20
655.76600399999995
 30
0.0
 11
155.61652900000001
 21
656.76600399999995
 31
0.0
  0
LINE
  5
18E
  8
0
 62
   150
 10
87.116444999999999
 20
655.76600399999995
 30
0.0
 11
87.409336999999994
 21
656.47311100000002
 31
0.0
  0
LINE
  5
18F
  8
0
 62
   150
 10
87.409336999999994
 20
656.47311100000002
 30
0.0
 11
88.116444999999985
 21
656.76600399999995
 31
0.0
  0
LINE
  5
190
  8
0
 62
     3
 10
88.116444999999985
 20
658.26600399999995
 30
0.0
 11
84.616470999999976
 21
658.26601900000003
 31
0.0
  0
LINE
  5
191
  8
0
 62
   150
 10
84.616467000000014
 20
566.76606800000002
 30
0.0
 11
84.616470999999976
 21
658.76601900000003
 31
0.0
  0
LINE
  5
192
  8
0
 62
   150
 10
157.61652900000001
 20
565.76578600000005
 30
0.0
 11
85.616467
 21
565.76607599999988
 31
0.0
  0
LINE
  5
193
  8
0
 62
   150
 10
158.61652900000001
 20
565.76577099999986
 30
0.0
 11
157.61652900000001
 21
565.76578600000005
 31
0.0
  0
LINE
  5
194
  8
0
 62
   150
 10
156.32363599999999
 20
568.55889999999999
 30
0.0
 11
156.61652900000001
 21
569.26600699999995
 31
0.0
  0
LINE
  5
195
  8
0
 62
   150
 10
155.61652900000001
 20
568.26600699999995
 30
0.0
 11
156.32363599999999
 21
568.55889999999999
 31
0.0
  0
LINE
  5
196
  8
0
 62
   150
 10
155.61652900000001
 20
568.26600699999995
 30
0.0
 11
88.116444999999985
 21
568.26600699999995
 31
0.0
  0
LINE
  5
197
  8
0
 62
   150
 10
88.116444999999985
 20
568.26600699999995
 30
0.0
 11
87.409336999999994
 21
568.55889999999999
 31
0.0
  0
LINE
  5
198
  8
0
 62
   150
 10
87.409336999999994
 20
568.55889999999999
 30
0.0
 11
87.116444999999999
 21
569.26600699999995
 31
0.0
  0
LINE
  5
199
  8
0
 62
   150
 10
87.116444999999999
 20
569.26600699999995
 30
0.0
 11
87.116444999999999
 21
655.76600399999995
 31
0.0
  0
LINE
  5
19A
  8
0
 62
   150
 10
126.366506
 20
586.94416499999988
 30
0.0
 11
126.366506
 21
628.72128799999984
 31
0.0
  0
LINE
  5
19B
  8
0
 62
   150
 10
147.86650599999999
 20
586.94416499999988
 30
0.0
 11
147.86650599999999
 21
628.72128799999984
 31
0.0
  0
LINE
  5
19C
  8
0
 62
     3
 10
184.616544
 20
592.18639900000005
 30
0.0
 11
182.616544
 21
592.18639900000005
 31
0.0
  0
LINE
  5
19D
  8
0
 62
     3
 10
182.263013
 20
592.03995999999995
 30
0.0
 11
182.61657400000001
 21
592.18640599999981
 31
0.0
  0
LINE
  5
19E
  8
0
 62
     3
 10
182.116544
 20
591.68639900000005
 30
0.0
 11
182.26298199999991
 21
592.03995199999997
 31
0.0
  0
LINE
  5
19F
  8
0
 62
     3
 10
182.116544
 20
580.68639900000005
 30
0.0
 11
182.116544
 21
591.68639900000005
 31
0.0
  0
LINE
  5
1A0
  8
0
 62
     3
 10
182.26298199999991
 20
580.33284500000002
 30
0.0
 11
182.116544
 21
580.68639900000005
 31
0.0
  0
LINE
  5
1A1
  8
0
 62
     3
 10
182.616559
 20
580.18639900000005
 30
0.0
 11
182.26299800000001
 21
580.33284500000002
 31
0.0
  0
LINE
  5
1A2
  8
0
 62
     3
 10
184.616544
 20
580.18639900000005
 30
0.0
 11
182.616544
 21
580.18639900000005
 31
0.0
  0
LINE
  5
1A3
  8
0
 62
     3
 10
186.116544
 20
580.18639900000005
 30
0.0
 11
184.616544
 21
580.18639900000005
 31
0.0
  0
LINE
  5
1A4
  8
0
 62
     3
 10
186.11652900000001
 20
580.18639099999996
 30
0.0
 11
186.47007500000001
 21
580.33283700000004
 31
0.0
  0
LINE
  5
1A5
  8
0
 62
     3
 10
186.47009
 20
580.33285199999989
 30
0.0
 11
186.61654399999989
 21
580.68640599999992
 31
0.0
  0
LINE
  5
1A6
  8
0
 62
     3
 10
186.61654399999989
 20
580.68639900000005
 30
0.0
 11
186.61654399999989
 21
591.68639900000005
 31
0.0
  0
LINE
  5
1A7
  8
0
 62
     3
 10
186.61654399999989
 20
591.68639900000005
 30
0.0
 11
186.47009
 21
592.03995199999997
 31
0.0
  0
LINE
  5
1A8
  8
0
 62
     3
 10
186.47007500000001
 20
592.03995199999997
 30
0.0
 11
186.11652900000001
 21
592.18639900000005
 31
0.0
  0
LINE
  5
1A9
  8
0
 62
     3
 10
186.116544
 20
592.18639900000005
 30
0.0
 11
184.616544
 21
592.18639900000005
 31
0.0
  0
LINE
  5
1AA
  8
0
 62
   150
 10
156.61648299999999
 20
631.76602600000001
 30
0.0
 11
156.61648299999999
 21
632.76602600000001
 31
0.0
  0
LINE
  5
1AB
  8
0
 62
   150
 10
156.61648299999999
 20
582.76602600000001
 30
0.0
 11
156.61648299999999
 21
583.7660259999999
 31
0.0
  0
LINE
  5
1AC
  8
0
 62
   150
 10
156.61648299999999
 20
618.76602600000001
 30
0.0
 11
156.61648299999999
 21
619.76602600000001
 31
0.0
  0
LINE
  5
1AD
  8
0
 62
   150
 10
156.61648299999999
 20
595.7660259999999
 30
0.0
 11
156.61648299999999
 21
596.76602600000001
 31
0.0
  0
LINE
  5
1AE
  8
0
 62
   150
 10
157.61652900000001
 20
565.76578600000005
 30
0.0
 11
85.112924000000007
 21
565.76754900000003
 31
0.0
  0
LINE
  5
1AF
  8
0
 62
     3
 10
188.36655899999991
 20
566.26615199999992
 30
0.0
 11
188.36655899999991
 21
658.26607999999999
 31
0.0
  0
LINE
  5
1B0
  8
0
 62
     3
 10
85.866464000000008
 20
565.76752599999986
 30
0.0
 11
85.866464000000008
 21
658.26600399999995
 31
0.0
  0
LINE
  5
1B1
  8
0
 62
   150
 10
84.981103000000004
 20
565.82213699999988
 30
0.0
 11
84.982579000000001
 21
565.82361300000002
 31
0.0
  0
LINE
  5
1B2
  8
0
 62
   150
 10
147.86650599999999
 20
628.28046900000004
 30
0.0
 11
126.366506
 21
628.28046900000004
 31
0.0
  0
LINE
  5
1B3
  8
0
 62
   150
 10
147.86650599999999
 20
628.72128799999984
 30
0.0
 11
126.366506
 21
628.72128799999984
 31
0.0
  0
LINE
  5
1B4
  8
0
 62
   150
 10
147.86650599999999
 20
586.94416499999988
 30
0.0
 11
126.366506
 21
586.94416499999988
 31
0.0
  0
LINE
  5
1B5
  8
0
 62
   150
 10
147.86650599999999
 20
587.61404100000004
 30
0.0
 11
126.366506
 21
587.61404100000004
 31
0.0
  0
LINE
  5
1B6
  8
0
 62
     4
 10
196.616544
 20
577.01598100000001
 30
0.0
 11
196.616544
 21
585.26597300000003
 31
0.0
  0
CIRCLE
  5
1B7
  8
0
 62
     4
 10
206.6165739999999
 20
590.51598799999999
 30
0.0
 40
5.249981
  0
LINE
  5
1B8
  8
0
  6
DASHDOT
 62
     7
 10
206.6165739999999
 20
582.26600399999995
 30
0.0
 11
206.6165739999999
 21
598.76596500000005
 31
0.0
  0
LINE
  5
1B9
  8
0
  6
DASHDOT
 62
     7
 10
214.86655899999991
 20
590.51598799999999
 30
0.0
 11
198.36659
 21
590.51598799999999
 31
0.0
  0
LINE
  5
1BA
  8
0
  6
DASHDOT
 62
     7
 10
241.3848999999999
 20
618.26578200000006
 30
0.0
 11
25.451122000000002
 21
618.26578200000006
 31
0.0
  0
LINE
  5
1BB
  8
0
 62
     3
 10
189.616376
 20
706.765759
 30
0.0
 11
189.616376
 21
744.26577499999985
 31
0.0
  0
LINE
  5
1BC
  8
0
 62
     3
 10
84.616386999999989
 20
706.76579000000004
 30
0.0
 11
84.616386999999989
 21
744.26577499999985
 31
0.0
  0
LINE
  5
1BD
  8
0
 62
     7
 10
188.366376
 20
745.51577499999985
 30
0.0
 11
85.866386999999989
 21
745.51577499999985
 31
0.0
  0
LINE
  5
1BE
  8
0
 62
     7
 10
189.616376
 20
708.51577499999985
 30
0.0
 11
84.616386999999989
 21
708.51577499999985
 31
0.0
  0
ARC
  5
1BF
  8
0
 62
     7
 10
85.866386999999989
 20
744.26577499999985
 30
0.0
 40
1.25
 50
90.0
 51
180.00000299999991
  0
ARC
  5
1C0
  8
0
 62
     7
 10
188.366376
 20
744.26577499999985
 30
0.0
 40
1.25
 50
0.000001
 51
90.0
  0
LINE
  5
1C1
  8
0
 62
     3
 10
88.266393000000008
 20
708.51577499999985
 30
0.0
 11
88.266393000000008
 21
745.51577499999985
 31
0.0
  0
LINE
  5
1C2
  8
0
 62
     3
 10
91.866390999999993
 20
708.51577499999985
 30
0.0
 11
91.866390999999993
 21
745.51577499999985
 31
0.0
  0
LINE
  5
1C3
  8
0
 62
     3
 10
95.466390000000004
 20
708.51577499999985
 30
0.0
 11
95.466390000000004
 21
745.51577499999985
 31
0.0
  0
LINE
  5
1C4
  8
0
 62
     3
 10
99.066388000000003
 20
708.51577499999985
 30
0.0
 11
99.066388000000003
 21
745.51577499999985
 31
0.0
  0
LINE
  5
1C5
  8
0
 62
     3
 10
102.66637900000001
 20
708.51577499999985
 30
0.0
 11
102.66637900000001
 21
745.51577499999985
 31
0.0
  0
LINE
  5
1C6
  8
0
 62
     3
 10
106.266385
 20
708.51577499999985
 30
0.0
 11
106.266385
 21
745.51577499999985
 31
0.0
  0
LINE
  5
1C7
  8
0
 62
     3
 10
109.8663759999999
 20
708.51577499999985
 30
0.0
 11
109.8663759999999
 21
745.51577499999985
 31
0.0
  0
LINE
  5
1C8
  8
0
 62
     3
 10
113.466382
 20
708.51577499999985
 30
0.0
 11
113.466382
 21
745.51577499999985
 31
0.0
  0
LINE
  5
1C9
  8
0
 62
     3
 10
117.066373
 20
708.51577499999985
 30
0.0
 11
117.066373
 21
745.51577499999985
 31
0.0
  0
LINE
  5
1CA
  8
0
 62
     3
 10
120.66637900000001
 20
708.51577499999985
 30
0.0
 11
120.66637900000001
 21
745.51577499999985
 31
0.0
  0
LINE
  5
1CB
  8
0
 62
     3
 10
124.266385
 20
708.51577499999985
 30
0.0
 11
124.266385
 21
745.51577499999985
 31
0.0
  0
LINE
  5
1CC
  8
0
 62
     3
 10
127.866376
 20
708.51577499999985
 30
0.0
 11
127.866376
 21
745.51577499999985
 31
0.0
  0
LINE
  5
1CD
  8
0
 62
     3
 10
131.46638200000001
 20
708.51577499999985
 30
0.0
 11
131.46638200000001
 21
745.51577499999985
 31
0.0
  0
LINE
  5
1CE
  8
0
 62
     3
 10
135.06637299999991
 20
708.51577499999985
 30
0.0
 11
135.06637299999991
 21
745.51577499999985
 31
0.0
  0
LINE
  5
1CF
  8
0
 62
     3
 10
138.66637900000001
 20
708.51577499999985
 30
0.0
 11
138.66637900000001
 21
745.51577499999985
 31
0.0
  0
LINE
  5
1D0
  8
0
 62
     3
 10
142.26638500000001
 20
708.51577499999985
 30
0.0
 11
142.26638500000001
 21
745.51577499999985
 31
0.0
  0
LINE
  5
1D1
  8
0
 62
     3
 10
145.866376
 20
708.51577499999985
 30
0.0
 11
145.866376
 21
745.51577499999985
 31
0.0
  0
LINE
  5
1D2
  8
0
 62
     3
 10
149.46638200000001
 20
708.51577499999985
 30
0.0
 11
149.46638200000001
 21
745.51577499999985
 31
0.0
  0
LINE
  5
1D3
  8
0
 62
     3
 10
153.066373
 20
708.51577499999985
 30
0.0
 11
153.066373
 21
745.51577499999985
 31
0.0
  0
LINE
  5
1D4
  8
0
 62
     3
 10
156.66637899999989
 20
708.51577499999985
 30
0.0
 11
156.66637899999989
 21
745.51577499999985
 31
0.0
  0
LINE
  5
1D5
  8
0
 62
     3
 10
160.26638500000001
 20
708.51577499999985
 30
0.0
 11
160.26638500000001
 21
745.51577499999985
 31
0.0
  0
LINE
  5
1D6
  8
0
 62
     3
 10
163.866376
 20
708.51577499999985
 30
0.0
 11
163.866376
 21
745.51577499999985
 31
0.0
  0
LINE
  5
1D7
  8
0
 62
     3
 10
167.46638200000001
 20
708.51577499999985
 30
0.0
 11
167.46638200000001
 21
745.51577499999985
 31
0.0
  0
LINE
  5
1D8
  8
0
 62
     3
 10
171.066373
 20
708.51577499999985
 30
0.0
 11
171.066373
 21
745.51577499999985
 31
0.0
  0
LINE
  5
1D9
  8
0
 62
     3
 10
174.66637900000001
 20
708.51577499999985
 30
0.0
 11
174.66637900000001
 21
745.51577499999985
 31
0.0
  0
LINE
  5
1DA
  8
0
 62
     3
 10
178.26638500000001
 20
708.51577499999985
 30
0.0
 11
178.26638500000001
 21
745.51577499999985
 31
0.0
  0
LINE
  5
1DB
  8
0
 62
     3
 10
181.86637599999989
 20
708.51577499999985
 30
0.0
 11
181.86637599999989
 21
745.51577499999985
 31
0.0
  0
LINE
  5
1DC
  8
0
 62
     3
 10
185.46638200000001
 20
708.51577499999985
 30
0.0
 11
185.46638200000001
 21
745.51577499999985
 31
0.0
  0
LINE
  5
1DD
  8
0
 62
     3
 10
189.616376
 20
496.76577399999991
 30
0.0
 11
189.616376
 21
534.26578399999994
 31
0.0
  0
LINE
  5
1DE
  8
0
 62
     3
 10
84.616386999999989
 20
496.76577399999991
 30
0.0
 11
84.616386999999989
 21
534.26575199999991
 31
0.0
  0
LINE
  5
1DF
  8
0
 62
     7
 10
188.366376
 20
495.51577400000002
 30
0.0
 11
85.866386999999989
 21
495.51577400000002
 31
0.0
  0
LINE
  5
1E0
  8
0
 62
     7
 10
189.616376
 20
532.51577299999997
 30
0.0
 11
84.616386999999989
 21
532.51577299999997
 31
0.0
  0
ARC
  5
1E1
  8
0
 62
     7
 10
85.866386999999989
 20
496.76577399999991
 30
0.0
 40
1.25
 50
180.00000299999991
 51
270.00000499999987
  0
ARC
  5
1E2
  8
0
 62
     7
 10
188.366376
 20
496.76577399999991
 30
0.0
 40
1.25
 50
270.00000499999987
 51
0.000001
  0
LINE
  5
1E3
  8
0
 62
     3
 10
88.266393000000008
 20
495.51577400000002
 30
0.0
 11
88.266393000000008
 21
532.51577299999997
 31
0.0
  0
LINE
  5
1E4
  8
0
 62
     3
 10
91.866390999999993
 20
495.51577400000002
 30
0.0
 11
91.866390999999993
 21
532.51577299999997
 31
0.0
  0
LINE
  5
1E5
  8
0
 62
     3
 10
95.466390000000004
 20
495.51577400000002
 30
0.0
 11
95.466390000000004
 21
532.51577299999997
 31
0.0
  0
LINE
  5
1E6
  8
0
 62
     3
 10
99.066388000000003
 20
495.51577400000002
 30
0.0
 11
99.066388000000003
 21
532.51577299999997
 31
0.0
  0
LINE
  5
1E7
  8
0
 62
     3
 10
102.66637900000001
 20
495.51577400000002
 30
0.0
 11
102.66637900000001
 21
532.51577299999997
 31
0.0
  0
LINE
  5
1E8
  8
0
 62
     3
 10
106.266385
 20
495.51577400000002
 30
0.0
 11
106.266385
 21
532.51577299999997
 31
0.0
  0
LINE
  5
1E9
  8
0
 62
     3
 10
109.8663759999999
 20
495.51577400000002
 30
0.0
 11
109.8663759999999
 21
532.51577299999997
 31
0.0
  0
LINE
  5
1EA
  8
0
 62
     3
 10
113.466382
 20
495.51577400000002
 30
0.0
 11
113.466382
 21
532.51577299999997
 31
0.0
  0
LINE
  5
1EB
  8
0
 62
     3
 10
117.066373
 20
495.51577400000002
 30
0.0
 11
117.066373
 21
532.51577299999997
 31
0.0
  0
LINE
  5
1EC
  8
0
 62
     3
 10
120.66637900000001
 20
495.51577400000002
 30
0.0
 11
120.66637900000001
 21
532.51577299999997
 31
0.0
  0
LINE
  5
1ED
  8
0
 62
     3
 10
124.266385
 20
495.51577400000002
 30
0.0
 11
124.266385
 21
532.51577299999997
 31
0.0
  0
LINE
  5
1EE
  8
0
 62
     3
 10
127.866376
 20
495.51577400000002
 30
0.0
 11
127.866376
 21
532.51577299999997
 31
0.0
  0
LINE
  5
1EF
  8
0
 62
     3
 10
131.46638200000001
 20
495.51577400000002
 30
0.0
 11
131.46638200000001
 21
532.51577299999997
 31
0.0
  0
LINE
  5
1F0
  8
0
 62
     3
 10
135.06637299999991
 20
495.51577400000002
 30
0.0
 11
135.06637299999991
 21
532.51577299999997
 31
0.0
  0
LINE
  5
1F1
  8
0
 62
     3
 10
138.66637900000001
 20
495.51577400000002
 30
0.0
 11
138.66637900000001
 21
532.51577299999997
 31
0.0
  0
LINE
  5
1F2
  8
0
 62
     3
 10
142.26638500000001
 20
495.51577400000002
 30
0.0
 11
142.26638500000001
 21
532.51577299999997
 31
0.0
  0
LINE
  5
1F3
  8
0
 62
     3
 10
145.866376
 20
495.51577400000002
 30
0.0
 11
145.866376
 21
532.51577299999997
 31
0.0
  0
LINE
  5
1F4
  8
0
 62
     3
 10
149.46638200000001
 20
495.51577400000002
 30
0.0
 11
149.46638200000001
 21
532.51577299999997
 31
0.0
  0
LINE
  5
1F5
  8
0
 62
     3
 10
153.066373
 20
495.51577400000002
 30
0.0
 11
153.066373
 21
532.51577299999997
 31
0.0
  0
LINE
  5
1F6
  8
0
 62
     3
 10
156.66637899999989
 20
495.51577400000002
 30
0.0
 11
156.66637899999989
 21
532.51577299999997
 31
0.0
  0
LINE
  5
1F7
  8
0
 62
     3
 10
160.26638500000001
 20
495.51577400000002
 30
0.0
 11
160.26638500000001
 21
532.51577299999997
 31
0.0
  0
LINE
  5
1F8
  8
0
 62
     3
 10
163.866376
 20
495.51577400000002
 30
0.0
 11
163.866376
 21
532.51577299999997
 31
0.0
  0
LINE
  5
1F9
  8
0
 62
     3
 10
167.46638200000001
 20
495.51577400000002
 30
0.0
 11
167.46638200000001
 21
532.51577299999997
 31
0.0
  0
LINE
  5
1FA
  8
0
 62
     3
 10
171.066373
 20
495.51577400000002
 30
0.0
 11
171.066373
 21
532.51577299999997
 31
0.0
  0
LINE
  5
1FB
  8
0
 62
     3
 10
174.66637900000001
 20
495.51577400000002
 30
0.0
 11
174.66637900000001
 21
532.51577299999997
 31
0.0
  0
LINE
  5
1FC
  8
0
 62
     3
 10
178.26638500000001
 20
495.51577400000002
 30
0.0
 11
178.26638500000001
 21
532.51577299999997
 31
0.0
  0
LINE
  5
1FD
  8
0
 62
     3
 10
181.86637599999989
 20
495.51577400000002
 30
0.0
 11
181.86637599999989
 21
532.51577299999997
 31
0.0
  0
LINE
  5
1FE
  8
0
 62
     3
 10
185.46638200000001
 20
495.51577400000002
 30
0.0
 11
185.46638200000001
 21
532.51577299999997
 31
0.0
  0
LINE
  5
1FF
  8
0
  6
DASHSPACE
 62
     4
 10
189.616376
 20
537.76577999999995
 30
0.0
 11
189.616376
 21
565.76579800000002
 31
0.0
  0
LINE
  5
200
  8
0
  6
DASHSPACE
 62
     4
 10
189.616376
 20
670.76577499999996
 30
0.0
 11
189.616376
 21
698.75947299999996
 31
0.0
  0
LINE
  5
201
  8
0
 62
     7
 10
189.616376
 20
761.42228399999999
 30
0.0
 11
183.70750100000001
 21
762.46416999999985
 31
0.0
  0
LINE
  5
202
  8
0
 62
     7
 10
189.616376
 20
761.42228399999999
 30
0.0
 11
183.70750100000001
 21
760.38038300000005
 31
0.0
  0
LINE
  5
203
  8
0
 62
     7
 10
84.616376000000017
 20
761.42231500000003
 30
0.0
 11
90.525250000000014
 21
760.38041399999997
 31
0.0
  0
LINE
  5
204
  8
0
 62
     7
 10
84.616376000000017
 20
761.42231500000003
 30
0.0
 11
90.525250000000014
 21
762.46420000000001
 31
0.0
  0
LINE
  5
205
  8
0
 62
     7
 10
189.616376
 20
761.42228399999999
 30
0.0
 11
84.616376000000017
 21
761.42231500000003
 31
0.0
  0
LINE
  5
206
  8
0
 62
     7
 10
189.616376
 20
765.42228399999999
 30
0.0
 11
189.61634499999991
 21
738.10390899999993
 31
0.0
  0
LINE
  5
207
  8
0
 62
     7
 10
84.616405999999998
 20
765.42231499999991
 30
0.0
 11
84.616376000000017
 21
670.26582099999996
 31
0.0
  0
LINE
  5
208
  8
0
 62
     7
 10
172.11643699999999
 20
461.25808399999988
 30
0.0
 11
166.207562
 21
462.29997300000002
 31
0.0
  0
LINE
  5
209
  8
0
 62
     7
 10
172.11643699999999
 20
461.25808399999988
 30
0.0
 11
166.207562
 21
460.21619500000003
 31
0.0
  0
LINE
  5
20A
  8
0
 62
     7
 10
137.11637599999989
 20
461.25810000000001
 30
0.0
 11
143.0252199999999
 21
460.216207
 31
0.0
  0
LINE
  5
20B
  8
0
 62
     7
 10
137.11637599999989
 20
461.25810000000001
 30
0.0
 11
143.0252199999999
 21
462.29998499999988
 31
0.0
  0
LINE
  5
20C
  8
0
 62
     7
 10
137.11637599999989
 20
461.25810000000001
 30
0.0
 11
131.20753199999999
 21
462.29998499999988
 31
0.0
  0
LINE
  5
20D
  8
0
 62
     7
 10
137.11637599999989
 20
461.25810000000001
 30
0.0
 11
131.20753199999999
 21
460.216207
 31
0.0
  0
LINE
  5
20E
  8
0
 62
     7
 10
102.116376
 20
461.258107
 30
0.0
 11
108.0252199999999
 21
460.21621799999991
 31
0.0
  0
LINE
  5
20F
  8
0
 62
     7
 10
102.116376
 20
461.258107
 30
0.0
 11
108.0252199999999
 21
462.29999600000002
 31
0.0
  0
LINE
  5
210
  8
0
 62
     7
 10
172.11643699999999
 20
461.25808399999988
 30
0.0
 11
102.116376
 21
461.258107
 31
0.0
  0
LINE
  5
211
  8
0
 62
     7
 10
172.11640600000001
 20
457.25808399999988
 30
0.0
 11
172.11643699999999
 21
533.01577499999985
 31
0.0
  0
LINE
  5
212
  8
0
 62
     7
 10
102.1163449999999
 20
457.258107
 30
0.0
 11
102.116376
 21
533.01579800000002
 31
0.0
  0
LINE
  5
213
  8
0
 62
     7
 10
38.050396999999997
 20
533.01577299999997
 30
0.0
 11
39.092266999999993
 21
538.92461900000001
 31
0.0
  0
LINE
  5
214
  8
0
 62
     7
 10
38.050396999999997
 20
533.01577299999997
 30
0.0
 11
37.008465999999999
 21
538.92461900000001
 31
0.0
  0
LINE
  5
215
  8
0
 62
     7
 10
38.050396999999997
 20
708.01577499999985
 30
0.0
 11
37.008465999999999
 21
702.10691499999996
 31
0.0
  0
LINE
  5
216
  8
0
 62
     7
 10
38.050396999999997
 20
708.01577499999985
 30
0.0
 11
39.092266999999993
 21
702.10691499999996
 31
0.0
  0
LINE
  5
217
  8
0
 62
     7
 10
38.050396999999997
 20
533.01577299999997
 30
0.0
 11
38.050396999999997
 21
708.01575899999989
 31
0.0
  0
LINE
  5
218
  8
0
 62
     7
 10
34.05039699999999
 20
533.01577299999997
 30
0.0
 11
85.866405999999998
 21
533.01577499999985
 31
0.0
  0
LINE
  5
219
  8
0
 62
     7
 10
34.05039699999999
 20
708.01577499999985
 30
0.0
 11
85.866405999999998
 21
708.01577499999985
 31
0.0
  0
LINE
  5
21A
  8
0
 62
     7
 10
221.11652900000001
 20
442.36422399999998
 30
0.0
 11
215.20768499999991
 21
443.40611699999988
 31
0.0
  0
LINE
  5
21B
  8
0
 62
     7
 10
221.11652900000001
 20
442.36422399999998
 30
0.0
 11
215.20768499999991
 21
441.32233899999989
 31
0.0
  0
LINE
  5
21C
  8
0
 62
     7
 10
137.11637599999989
 20
442.36422399999998
 30
0.0
 11
143.0252199999999
 21
441.32233899999989
 31
0.0
  0
LINE
  5
21D
  8
0
 62
     7
 10
137.11637599999989
 20
442.36422399999998
 30
0.0
 11
143.0252199999999
 21
443.40611699999988
 31
0.0
  0
LINE
  5
21E
  8
0
 62
     7
 10
221.11652900000001
 20
442.36422399999998
 30
0.0
 11
137.11637599999989
 21
442.36422399999998
 31
0.0
  0
LINE
  5
21F
  8
0
 62
     7
 10
221.11652900000001
 20
438.36422399999998
 30
0.0
 11
221.11652900000001
 21
606.01597300000003
 31
0.0
  0
LINE
  5
220
  8
0
 62
     7
 10
137.11637599999989
 20
438.36422399999998
 30
0.0
 11
137.11637599999989
 21
458.38147400000003
 31
0.0
  0
LINE
  5
221
  8
0
 62
     7
 10
51.772321000000012
 20
618.26578200000006
 30
0.0
 11
52.81425200000001
 21
624.17463399999986
 31
0.0
  0
LINE
  5
222
  8
0
 62
     7
 10
51.772321000000012
 20
618.26578200000006
 30
0.0
 11
50.730451000000002
 21
624.17463399999986
 31
0.0
  0
LINE
  5
223
  8
0
 62
     7
 10
51.772321000000012
 20
708.01577499999985
 30
0.0
 11
50.730451000000002
 21
702.10691499999996
 31
0.0
  0
LINE
  5
224
  8
0
 62
     7
 10
51.772321000000012
 20
708.01577499999985
 30
0.0
 11
52.81425200000001
 21
702.10691499999996
 31
0.0
  0
LINE
  5
225
  8
0
 62
     7
 10
51.772321000000012
 20
618.26578200000006
 30
0.0
 11
51.772321000000012
 21
708.01577499999985
 31
0.0
  0
LINE
  5
226
  8
0
 62
     7
 10
47.772320999999998
 20
708.01577499999985
 30
0.0
 11
85.866405999999998
 21
708.01577499999985
 31
0.0
  0
LINE
  5
227
  8
0
 62
     7
 10
22.082989999999992
 20
618.26578200000006
 30
0.0
 11
23.124921000000001
 21
624.17463399999986
 31
0.0
  0
LINE
  5
228
  8
0
 62
     7
 10
22.082989999999992
 20
618.26578200000006
 30
0.0
 11
21.041119999999999
 21
624.17463399999986
 31
0.0
  0
LINE
  5
229
  8
0
 62
     7
 10
22.082989999999992
 20
745.51577499999985
 30
0.0
 11
21.041119999999999
 21
739.60691499999996
 31
0.0
  0
LINE
  5
22A
  8
0
 62
     7
 10
22.082989999999992
 20
745.51577499999985
 30
0.0
 11
23.124921000000001
 21
739.60691499999996
 31
0.0
  0
LINE
  5
22B
  8
0
 62
     7
 10
22.082989999999992
 20
618.26578200000006
 30
0.0
 11
22.082989999999992
 21
745.51577499999985
 31
0.0
  0
LINE
  5
22C
  8
0
 62
     7
 10
18.082989999999992
 20
618.26578200000006
 30
0.0
 11
25.451093
 21
618.26578200000006
 31
0.0
  0
LINE
  5
22D
  8
0
 62
     7
 10
18.082989999999992
 20
745.51577499999985
 30
0.0
 11
85.866376000000017
 21
745.51577499999985
 31
0.0
  0
LINE
  5
22E
  8
0
 62
     7
 10
6.8641179999999986
 20
495.51577300000002
 30
0.0
 11
7.9059879999999998
 21
501.424621
 31
0.0
  0
LINE
  5
22F
  8
0
 62
     7
 10
6.8641179999999986
 20
495.51577300000002
 30
0.0
 11
5.8221860000000003
 21
501.42462
 31
0.0
  0
LINE
  5
230
  8
0
 62
     7
 10
6.8641179999999986
 20
745.51577499999985
 30
0.0
 11
5.8221860000000003
 21
739.60691499999996
 31
0.0
  0
LINE
  5
231
  8
0
 62
     7
 10
6.8641179999999986
 20
745.51577499999985
 30
0.0
 11
7.9059879999999998
 21
739.60691499999996
 31
0.0
  0
LINE
  5
232
  8
0
 62
     7
 10
6.8641179999999986
 20
495.51577300000002
 30
0.0
 11
6.8641179999999986
 21
745.51577499999985
 31
0.0
  0
LINE
  5
233
  8
0
 62
     7
 10
2.8641179999999991
 20
495.51577300000002
 30
0.0
 11
85.866376000000017
 21
495.5157769999999
 31
0.0
  0
LINE
  5
234
  8
0
 62
     7
 10
2.8641179999999991
 20
745.51577499999985
 30
0.0
 11
85.866376000000017
 21
745.51577499999985
 31
0.0
  0
LINE
  5
235
  8
0
 62
     7
 10
233.11637599999989
 20
777.69224299999985
 30
0.0
 11
227.2075319999999
 21
778.73411299999987
 31
0.0
  0
LINE
  5
236
  8
0
 62
     7
 10
233.11637599999989
 20
777.69224299999985
 30
0.0
 11
227.2075319999999
 21
776.65034200000002
 31
0.0
  0
LINE
  5
237
  8
0
 62
     7
 10
137.11637599999989
 20
777.69224299999985
 30
0.0
 11
143.0252199999999
 21
776.65034200000002
 31
0.0
  0
LINE
  5
238
  8
0
 62
     7
 10
137.11637599999989
 20
777.69224299999985
 30
0.0
 11
143.0252199999999
 21
778.73411299999987
 31
0.0
  0
LINE
  5
239
  8
0
 62
     7
 10
137.11637599999989
 20
777.69224299999985
 30
0.0
 11
131.20753199999999
 21
778.73411299999987
 31
0.0
  0
LINE
  5
23A
  8
0
 62
     7
 10
137.11637599999989
 20
777.69224299999985
 30
0.0
 11
131.20753199999999
 21
776.65034200000002
 31
0.0
  0
LINE
  5
23B
  8
0
 62
     7
 10
58.616376000000002
 20
777.69224299999985
 30
0.0
 11
64.52521999999999
 21
776.65034200000002
 31
0.0
  0
LINE
  5
23C
  8
0
 62
     7
 10
58.616376000000002
 20
777.69224299999985
 30
0.0
 11
64.52521999999999
 21
778.73411299999987
 31
0.0
  0
LINE
  5
23D
  8
0
 62
     7
 10
233.11637599999989
 20
777.69224299999985
 30
0.0
 11
58.616376000000002
 21
777.69224299999985
 31
0.0
  0
LINE
  5
23E
  8
0
 62
     7
 10
233.11637599999989
 20
781.69224299999985
 30
0.0
 11
233.11637599999989
 21
697.50947300000007
 31
0.0
  0
LINE
  5
23F
  8
0
 62
     7
 10
137.11637599999989
 20
781.69224299999985
 30
0.0
 11
137.11637599999989
 21
764.04258400000003
 31
0.0
  0
LINE
  5
240
  8
0
 62
     7
 10
58.616376000000002
 20
781.69224299999985
 30
0.0
 11
58.616376000000002
 21
697.50947300000007
 31
0.0
  0
LINE
  5
241
  8
0
 62
     7
 10
253.1109439999999
 20
537.76577999999995
 30
0.0
 11
254.15281400000001
 21
543.67462599999988
 31
0.0
  0
LINE
  5
242
  8
0
 62
     7
 10
253.1109439999999
 20
537.76577999999995
 30
0.0
 11
252.06904299999999
 21
543.67462599999988
 31
0.0
  0
LINE
  5
243
  8
0
 62
     7
 10
253.1109439999999
 20
698.75947299999996
 30
0.0
 11
252.06904299999999
 21
692.85061399999995
 31
0.0
  0
LINE
  5
244
  8
0
 62
     7
 10
253.1109439999999
 20
698.75947299999996
 30
0.0
 11
254.15281400000001
 21
692.85061399999995
 31
0.0
  0
LINE
  5
245
  8
0
 62
     7
 10
253.1109439999999
 20
537.76577999999995
 30
0.0
 11
253.1109439999999
 21
698.75947299999996
 31
0.0
  0
LINE
  5
246
  8
0
 62
     7
 10
257.11094400000002
 20
537.76577999999995
 30
0.0
 11
231.86637599999989
 21
537.76577999999995
 31
0.0
  0
LINE
  5
247
  8
0
 62
     7
 10
257.11094400000002
 20
698.75947299999996
 30
0.0
 11
231.86637599999989
 21
698.75947299999996
 31
0.0
  0
LINE
  5
248
  8
0
 62
     3
 10
-178.08088299999989
 20
538.31579599999998
 30
0.0
 11
-250.08088299999989
 21
538.31579599999998
 31
0.0
  0
LINE
  5
249
  8
0
 62
     7
 10
-178.08088299999989
 20
533.01579700000002
 30
0.0
 11
-178.08088299999989
 21
548.76575100000002
 31
0.0
  0
LINE
  5
24A
  8
0
 62
     7
 10
-176.080883
 20
546.01576599999999
 30
0.0
 11
-178.08088299999989
 21
546.01576599999999
 31
0.0
  0
LINE
  5
24B
  8
0
 62
     7
 10
-176.080883
 20
695.01575100000002
 30
0.0
 11
-178.08088299999989
 21
695.01575100000002
 31
0.0
  0
LINE
  5
24C
  8
0
 62
     7
 10
-181.86455900000001
 20
600.66799500000002
 30
0.0
 11
-181.830883
 21
600.69050199999992
 31
0.0
  0
LINE
  5
24D
  8
0
 62
     3
 10
-178.08088299999989
 20
702.71579299999985
 30
0.0
 11
-272.28087999999991
 21
702.71579299999985
 31
0.0
  0
LINE
  5
24E
  8
0
 62
     3
 10
-250.08088299999989
 20
538.31579599999998
 30
0.0
 11
-272.28087999999991
 21
538.31579599999998
 31
0.0
  0
LINE
  5
24F
  8
0
 62
     3
 10
-272.28087999999991
 20
538.31579999999985
 30
0.0
 11
-272.28087999999991
 21
549.51575100000002
 31
0.0
  0
LINE
  5
250
  8
0
 62
     3
 10
-272.28087999999991
 20
693.51576599999987
 30
0.0
 11
-272.28087999999991
 21
702.71579299999985
 31
0.0
  0
LINE
  5
251
  8
0
 62
     6
 10
-128.580837
 20
590.51575800000001
 30
0.0
 11
-130.5808219999999
 21
590.51576599999987
 31
0.0
  0
LINE
  5
252
  8
0
 62
     6
 10
-128.580837
 20
583.51575799999989
 30
0.0
 11
-130.5808219999999
 21
583.51576599999999
 31
0.0
  0
LINE
  5
253
  8
0
 62
     7
 10
-128.080837
 20
536.51578099999995
 30
0.0
 11
-128.080837
 21
561.51578099999995
 31
0.0
  0
LINE
  5
254
  8
0
 62
     3
 10
-128.080837
 20
679.51578099999995
 30
0.0
 11
-128.080837
 21
704.51578099999995
 31
0.0
  0
LINE
  5
255
  8
0
 62
     7
 10
-139.080837
 20
538.31578399999989
 30
0.0
 11
-176.080883
 21
538.31578399999989
 31
0.0
  0
LINE
  5
256
  8
0
 62
     6
 10
-139.080837
 20
535.51578099999995
 30
0.0
 11
-176.080883
 21
535.51578099999995
 31
0.0
  0
LINE
  5
257
  8
0
 62
     6
 10
-139.080837
 20
705.51578099999995
 30
0.0
 11
-176.080883
 21
705.51578099999995
 31
0.0
  0
LINE
  5
258
  8
0
 62
     3
 10
-139.080837
 20
702.71579299999985
 30
0.0
 11
-176.080883
 21
702.71579299999985
 31
0.0
  0
LINE
  5
259
  8
0
 62
     6
 10
-176.080883
 20
535.51578099999995
 30
0.0
 11
-176.080883
 21
548.76575100000002
 31
0.0
  0
LINE
  5
25A
  8
0
 62
     6
 10
-139.080837
 20
535.51578099999995
 30
0.0
 11
-139.080837
 21
536.51578099999995
 31
0.0
  0
LINE
  5
25B
  8
0
 62
     6
 10
-126.580822
 20
564.01577699999996
 30
0.0
 11
-126.580837
 21
577.01577400000008
 31
0.0
  0
LINE
  5
25C
  8
0
 62
     6
 10
-126.580837
 20
664.01576599999987
 30
0.0
 11
-126.580822
 21
677.01576599999987
 31
0.0
  0
LINE
  5
25D
  8
0
 62
     2
 10
-127.080837
 20
677.51578099999995
 30
0.0
 11
-128.580837
 21
677.51578099999995
 31
0.0
  0
LINE
  5
25E
  8
0
 62
     2
 10
-127.080837
 20
563.51578099999995
 30
0.0
 11
-128.580837
 21
563.51578099999995
 31
0.0
  0
LINE
  5
25F
  8
0
 62
     2
 10
-128.580837
 20
677.01578099999995
 30
0.0
 11
-128.580837
 21
677.51578099999995
 31
0.0
  0
LINE
  5
260
  8
0
 62
     2
 10
-128.580837
 20
577.01588800000002
 30
0.0
 11
-128.580837
 21
664.01578099999995
 31
0.0
  0
LINE
  5
261
  8
0
 62
     2
 10
-128.580837
 20
563.51578099999995
 30
0.0
 11
-128.580837
 21
564.01585799999987
 31
0.0
  0
LINE
  5
262
  8
0
 62
     2
 10
-127.080837
 20
563.51578099999995
 30
0.0
 11
-127.080837
 21
564.01576599999987
 31
0.0
  0
LINE
  5
263
  8
0
 62
     2
 10
-127.080837
 20
577.01576599999987
 30
0.0
 11
-127.080837
 21
664.01570500000003
 31
0.0
  0
LINE
  5
264
  8
0
 62
     2
 10
-127.080837
 20
677.01570500000003
 30
0.0
 11
-127.080837
 21
677.51578099999995
 31
0.0
  0
LINE
  5
265
  8
0
 62
     3
 10
-127.080837
 20
679.01578099999995
 30
0.0
 11
-127.080837
 21
705.01578099999995
 31
0.0
  0
LINE
  5
266
  8
0
 62
     3
 10
-135.08085299999991
 20
704.51578099999995
 30
0.0
 11
-135.08085299999991
 21
706.01578099999995
 31
0.0
  0
LINE
  5
267
  8
0
 62
     7
 10
-128.080837
 20
561.51578099999995
 30
0.0
 11
-130.5808219999999
 21
561.51578099999995
 31
0.0
  0
LINE
  5
268
  8
0
 62
     7
 10
-128.080837
 20
536.51578099999995
 30
0.0
 11
-139.080837
 21
536.51578099999995
 31
0.0
  0
LINE
  5
269
  8
0
 62
     3
 10
-128.080837
 20
679.51578099999995
 30
0.0
 11
-130.580837
 21
679.51578099999995
 31
0.0
  0
LINE
  5
26A
  8
0
 62
     3
 10
-128.080837
 20
704.51578099999995
 30
0.0
 11
-135.08085299999991
 21
704.51578099999995
 31
0.0
  0
LINE
  5
26B
  8
0
 62
     6
 10
-126.580822
 20
564.01578099999995
 30
0.0
 11
-130.5808219999999
 21
564.01578099999995
 31
0.0
  0
LINE
  5
26C
  8
0
 62
     6
 10
-126.580837
 20
577.01578099999995
 30
0.0
 11
-130.5808219999999
 21
577.01578099999995
 31
0.0
  0
LINE
  5
26D
  8
0
 62
     6
 10
-126.580822
 20
677.01578099999995
 30
0.0
 11
-130.580837
 21
677.01578099999995
 31
0.0
  0
LINE
  5
26E
  8
0
 62
     6
 10
-126.580837
 20
664.01578099999995
 30
0.0
 11
-130.580837
 21
664.01578099999995
 31
0.0
  0
LINE
  5
26F
  8
0
 62
     6
 10
-128.580837
 20
660.51578099999995
 30
0.0
 11
-130.580837
 21
660.51578099999995
 31
0.0
  0
LINE
  5
270
  8
0
 62
     6
 10
-128.580837
 20
652.51578099999995
 30
0.0
 11
-130.580837
 21
652.51578099999995
 31
0.0
  0
LINE
  5
271
  8
0
 62
     3
 10
-127.0808219999999
 20
705.01581199999987
 30
0.0
 11
-128.0808219999999
 21
706.01581199999987
 31
0.0
  0
LINE
  5
272
  8
0
 62
     3
 10
-128.08077599999999
 20
678.01584200000002
 30
0.0
 11
-127.080776
 21
679.01584200000002
 31
0.0
  0
LINE
  5
273
  8
0
 62
     3
 10
-128.080837
 20
706.01578099999995
 30
0.0
 11
-135.08085299999991
 21
706.01578099999995
 31
0.0
  0
LINE
  5
274
  8
0
 62
     3
 10
-128.080837
 20
678.01578099999995
 30
0.0
 11
-130.580837
 21
678.01578099999995
 31
0.0
  0
LINE
  5
275
  8
0
 62
     3
 10
-128.080837
 20
535.01578099999995
 30
0.0
 11
-135.08085299999991
 21
535.01578099999995
 31
0.0
  0
LINE
  5
276
  8
0
 62
     3
 10
-128.0808219999999
 20
535.01574500000004
 30
0.0
 11
-127.0808219999999
 21
536.01574500000004
 31
0.0
  0
LINE
  5
277
  8
0
 62
     3
 10
-127.080837
 20
536.01578099999995
 30
0.0
 11
-127.080837
 21
562.01578099999995
 31
0.0
  0
LINE
  5
278
  8
0
 62
     3
 10
-127.080776
 20
562.01571999999999
 30
0.0
 11
-128.08077599999999
 21
563.01571999999999
 31
0.0
  0
LINE
  5
279
  8
0
 62
     3
 10
-128.080837
 20
563.01578099999995
 30
0.0
 11
-130.5808219999999
 21
563.01578099999995
 31
0.0
  0
LINE
  5
27A
  8
0
 62
     3
 10
-135.08085299999991
 20
535.01578099999995
 30
0.0
 11
-135.08085299999991
 21
536.51578099999995
 31
0.0
  0
LINE
  5
27B
  8
0
  6
DASHDOT
 62
     7
 10
-126.580822
 20
677.01578099999995
 30
0.0
 11
-126.580822
 21
761.17715799999996
 31
0.0
  0
LINE
  5
27C
  8
0
  6
DASHDOT
 62
     7
 10
-126.580837
 20
577.01577400000008
 30
0.0
 11
-126.580837
 21
664.01578099999995
 31
0.0
  0
LINE
  5
27D
  8
0
  6
DASHDOT
 62
     7
 10
-126.580822
 20
484.3446919999999
 30
0.0
 11
-126.580822
 21
564.01577699999996
 31
0.0
  0
LINE
  5
27E
  8
0
  6
DASHDOT
 62
     7
 10
-123.580837
 20
484.16611999999998
 30
0.0
 11
-123.580837
 21
760.89809000000002
 31
0.0
  0
LINE
  5
27F
  8
0
 62
     7
 10
-135.08085299999991
 20
536.51578099999995
 30
0.0
 11
-139.080837
 21
536.51578099999995
 31
0.0
  0
LINE
  5
280
  8
0
 62
     7
 10
-139.080837
 20
536.51578099999995
 30
0.0
 11
-139.080837
 21
553.51552199999992
 31
0.0
  0
LINE
  5
281
  8
0
 62
     6
 10
-139.080837
 20
704.51578099999995
 30
0.0
 11
-139.080837
 21
705.51578099999995
 31
0.0
  0
LINE
  5
282
  8
0
 62
     3
 10
-139.080837
 20
679.51578099999995
 30
0.0
 11
-139.080837
 21
704.51578099999995
 31
0.0
  0
LINE
  5
283
  8
0
 62
     6
 10
-135.08085299999991
 20
704.51578099999995
 30
0.0
 11
-139.080837
 21
704.51578099999995
 31
0.0
  0
LINE
  5
284
  8
0
  6
DASHDOT
 62
     7
 10
-113.218304
 20
670.51578099999995
 30
0.0
 11
-136.5219689999999
 21
670.51578099999995
 31
0.0
  0
LINE
  5
285
  8
0
  6
DASHDOT
 62
     7
 10
-117.68696199999999
 20
570.51578099999995
 30
0.0
 11
-135.349987
 21
570.51578099999995
 31
0.0
  0
LINE
  5
286
  8
0
 62
     4
 10
-305.5807549999999
 20
564.51573899999994
 30
0.0
 11
-305.58080699999988
 21
568.51576599999987
 31
0.0
  0
LINE
  5
287
  8
0
 62
     3
 10
-291.88210699999991
 20
557.51573499999995
 30
0.0
 11
-291.58080799999999
 21
557.51573899999994
 31
0.0
  0
LINE
  5
288
  8
0
 62
     4
 10
-305.58080699999988
 20
553.51574299999993
 30
0.0
 11
-305.58075700000001
 21
557.51572799999997
 31
0.0
  0
LINE
  5
289
  8
0
 62
     4
 10
-174.0808679999999
 20
553.515625
 30
0.0
 11
-176.0808679999999
 21
553.51575100000002
 31
0.0
  0
LINE
  5
28A
  8
0
 62
     4
 10
-300.58080699999999
 20
553.51574299999993
 30
0.0
 11
-181.080883
 21
553.51575100000002
 31
0.0
  0
LINE
  5
28B
  8
0
 62
     4
 10
-130.580837
 20
693.51576599999987
 30
0.0
 11
-174.08088299999989
 21
693.51576599999987
 31
0.0
  0
LINE
  5
28C
  8
0
 62
     4
 10
-130.580837
 20
553.51549899999986
 30
0.0
 11
-174.0808679999999
 21
553.515625
 31
0.0
  0
LINE
  5
28D
  8
0
 62
     4
 10
-130.580837
 20
553.51549899999986
 30
0.0
 11
-130.5808219999999
 21
564.515716
 31
0.0
  0
LINE
  5
28E
  8
0
 62
     3
 10
-215.08082200000001
 20
661.51578099999995
 30
0.0
 11
-305.58080699999988
 21
661.51578099999995
 31
0.0
  0
LINE
  5
28F
  8
0
 62
     3
 10
-215.08082200000001
 20
631.51573499999995
 30
0.0
 11
-249.58084099999999
 21
631.51573499999995
 31
0.0
  0
LINE
  5
290
  8
0
 62
     4
 10
-305.58075700000001
 20
557.51572799999997
 30
0.0
 11
-305.5807549999999
 21
564.51573899999994
 31
0.0
  0
LINE
  5
291
  8
0
 62
     4
 10
-174.08088299999989
 20
693.51576599999987
 30
0.0
 11
-305.58080699999988
 21
693.51576599999987
 31
0.0
  0
LINE
  5
292
  8
0
 62
     4
 10
-305.58080699999988
 20
661.51578099999995
 30
0.0
 11
-305.58080699999988
 21
693.51576599999987
 31
0.0
  0
LINE
  5
293
  8
0
 62
     3
 10
-203.330883
 20
557.51578899999981
 30
0.0
 11
-178.0808679999999
 21
557.51583499999992
 31
0.0
  0
LINE
  5
294
  8
0
 62
     3
 10
-244.20582200000001
 20
557.51576599999999
 30
0.0
 11
-207.330883
 21
557.51578899999981
 31
0.0
  0
LINE
  5
295
  8
0
 62
     3
 10
-301.58069799999993
 20
557.51572799999997
 30
0.0
 11
-248.20581999999999
 21
557.51576199999988
 31
0.0
  0
LINE
  5
296
  8
0
 62
     3
 10
-301.5806879999999
 20
562.01573899999994
 30
0.0
 11
-248.20581799999999
 21
562.01577399999996
 31
0.0
  0
LINE
  5
297
  8
0
 62
     3
 10
-244.20581799999999
 20
562.01577699999984
 30
0.0
 11
-207.33087499999991
 21
562.0157999999999
 31
0.0
  0
LINE
  5
298
  8
0
 62
     3
 10
-203.33087499999991
 20
562.01580399999989
 30
0.0
 11
-178.0808679999999
 21
562.01581899999996
 31
0.0
  0
LINE
  5
299
  8
0
 62
     3
 10
-301.58069799999993
 20
557.51572799999997
 30
0.0
 11
-301.58069
 21
562.01573899999994
 31
0.0
  0
LINE
  5
29A
  8
0
 62
     3
 10
-178.0808679999999
 20
557.51583499999992
 30
0.0
 11
-178.0808679999999
 21
562.01581899999996
 31
0.0
  0
LINE
  5
29B
  8
0
 62
     3
 10
-203.330883
 20
557.51578899999981
 30
0.0
 11
-203.33087499999991
 21
562.01582299999995
 31
0.0
  0
LINE
  5
29C
  8
0
 62
     3
 10
-207.330883
 20
557.51578899999981
 30
0.0
 11
-207.33087499999991
 21
562.01581899999996
 31
0.0
  0
LINE
  5
29D
  8
0
 62
     3
 10
-244.20582200000001
 20
557.51576599999999
 30
0.0
 11
-244.20581799999999
 21
562.01579700000002
 31
0.0
  0
LINE
  5
29E
  8
0
 62
     3
 10
-248.20581999999999
 20
557.51576199999988
 30
0.0
 11
-248.205816
 21
562.01579700000002
 31
0.0
  0
LINE
  5
29F
  8
0
 62
     4
 10
-273.58080799999988
 20
549.51575100000002
 30
0.0
 11
-273.58080799999988
 21
553.51575100000002
 31
0.0
  0
LINE
  5
2A0
  8
0
 62
     4
 10
-269.58080799999988
 20
549.51575100000002
 30
0.0
 11
-269.58080799999988
 21
553.51575100000002
 31
0.0
  0
LINE
  5
2A1
  8
0
 62
     4
 10
-269.58080799999988
 20
549.51575100000002
 30
0.0
 11
-273.58080799999988
 21
549.51575100000002
 31
0.0
  0
LINE
  5
2A2
  8
0
 62
     4
 10
-189.83080699999991
 20
549.51580399999989
 30
0.0
 11
-189.83080699999991
 21
553.51573499999995
 31
0.0
  0
LINE
  5
2A3
  8
0
 62
     4
 10
-185.83080699999991
 20
549.51580399999989
 30
0.0
 11
-185.83080699999991
 21
553.51573499999995
 31
0.0
  0
LINE
  5
2A4
  8
0
 62
     4
 10
-185.83080699999991
 20
549.51580399999989
 30
0.0
 11
-189.83080699999991
 21
549.51580399999989
 31
0.0
  0
LINE
  5
2A5
  8
0
 62
     4
 10
-300.58080699999999
 20
548.76575100000002
 30
0.0
 11
-300.58080699999999
 21
551.26575100000002
 31
0.0
  0
LINE
  5
2A6
  8
0
 62
     4
 10
-305.58080699999988
 20
548.76575100000002
 30
0.0
 11
-305.58080699999988
 21
553.51574299999993
 31
0.0
  0
LINE
  5
2A7
  8
0
 62
     4
 10
-300.58080699999999
 20
548.76575100000002
 30
0.0
 11
-305.58080699999988
 21
548.76575100000002
 31
0.0
  0
LINE
  5
2A8
  8
0
 62
     4
 10
-300.58080699999999
 20
551.26575100000002
 30
0.0
 11
-300.58080699999999
 21
553.51575100000002
 31
0.0
  0
LINE
  5
2A9
  8
0
 62
     4
 10
-181.08089799999999
 20
548.76575100000002
 30
0.0
 11
-181.08089799999999
 21
551.26575100000002
 31
0.0
  0
LINE
  5
2AA
  8
0
 62
     4
 10
-176.08089799999999
 20
548.76575100000002
 30
0.0
 11
-181.08089799999999
 21
548.76575100000002
 31
0.0
  0
LINE
  5
2AB
  8
0
 62
     4
 10
-176.08089799999999
 20
548.76575100000002
 30
0.0
 11
-176.0808679999999
 21
553.51575100000002
 31
0.0
  0
LINE
  5
2AC
  8
0
 62
     4
 10
-181.08089799999999
 20
551.26575100000002
 30
0.0
 11
-181.080883
 21
553.51573499999995
 31
0.0
  0
LINE
  5
2AD
  8
0
 62
     3
 10
-298.58081399999998
 20
673.01579700000002
 30
0.0
 11
-301.58081399999998
 21
676.01579700000002
 31
0.0
  0
LINE
  5
2AE
  8
0
 62
     4
 10
-305.58080699999988
 20
568.51576599999987
 30
0.0
 11
-305.58080699999988
 21
631.51575800000001
 31
0.0
  0
LINE
  5
2AF
  8
0
 62
     3
 10
-249.58084500000001
 20
631.51575100000002
 30
0.0
 11
-305.58080699999988
 21
631.51575800000001
 31
0.0
  0
LINE
  5
2B0
  8
0
 62
     3
 10
-215.08082200000001
 20
631.51573499999995
 30
0.0
 11
-215.08082200000001
 21
661.51578099999995
 31
0.0
  0
LINE
  5
2B1
  8
0
 62
     3
 10
-290.08080799999999
 20
661.01578099999995
 30
0.0
 11
-290.08080799999999
 21
661.51578099999995
 31
0.0
  0
LINE
  5
2B2
  8
0
 62
     3
 10
-203.330883
 20
680.26576599999999
 30
0.0
 11
-178.0808679999999
 21
680.26578099999995
 31
0.0
  0
LINE
  5
2B3
  8
0
 62
     3
 10
-203.330883
 20
673.01576599999987
 30
0.0
 11
-203.330883
 21
680.26576599999999
 31
0.0
  0
LINE
  5
2B4
  8
0
 62
     3
 10
-203.330883
 20
673.01576599999987
 30
0.0
 11
-178.0808679999999
 21
673.01578099999995
 31
0.0
  0
LINE
  5
2B5
  8
0
 62
     3
 10
-178.0808679999999
 20
673.01578099999995
 30
0.0
 11
-178.0808679999999
 21
680.26578099999995
 31
0.0
  0
LINE
  5
2B6
  8
0
 62
     3
 10
-248.20581999999999
 20
673.01578099999995
 30
0.0
 11
-248.20581999999999
 21
680.26578099999995
 31
0.0
  0
LINE
  5
2B7
  8
0
 62
     3
 10
-207.330883
 20
673.01578099999995
 30
0.0
 11
-248.20582200000001
 21
673.01578099999995
 31
0.0
  0
LINE
  5
2B8
  8
0
 62
     3
 10
-207.330883
 20
673.01578099999995
 30
0.0
 11
-207.330883
 21
680.26578099999995
 31
0.0
  0
LINE
  5
2B9
  8
0
 62
     3
 10
-207.330883
 20
680.26578099999995
 30
0.0
 11
-248.20582200000001
 21
680.26578099999995
 31
0.0
  0
LINE
  5
2BA
  8
0
 62
     3
 10
-252.20581999999999
 20
673.01578099999995
 30
0.0
 11
-301.58080499999988
 21
673.01578099999995
 31
0.0
  0
LINE
  5
2BB
  8
0
 62
     3
 10
-252.20581999999999
 20
673.01578099999995
 30
0.0
 11
-252.20581999999999
 21
680.26578099999995
 31
0.0
  0
LINE
  5
2BC
  8
0
 62
     3
 10
-252.20581999999999
 20
680.26578099999995
 30
0.0
 11
-301.58080499999988
 21
680.26578099999995
 31
0.0
  0
LINE
  5
2BD
  8
0
 62
     3
 10
-301.58080699999988
 20
673.01578099999995
 30
0.0
 11
-301.58080699999988
 21
680.26578099999995
 31
0.0
  0
LINE
  5
2BE
  8
0
 62
     3
 10
-291.58080799999999
 20
557.51573899999994
 30
0.0
 11
-291.58080799999999
 21
562.01576199999988
 31
0.0
  0
LINE
  5
2BF
  8
0
 62
     3
 10
-287.58080499999988
 20
557.51573899999994
 30
0.0
 11
-287.58080499999988
 21
562.01576599999999
 31
0.0
  0
LINE
  5
2C0
  8
0
 62
     3
 10
-301.58041600000001
 20
557.51570099999981
 30
0.0
 11
-301.58041400000002
 21
562.01573899999994
 31
0.0
  0
LINE
  5
2C1
  8
0
 62
     4
 10
-305.58080699999988
 20
553.51568999999995
 30
0.0
 11
-305.580803
 21
554.515762
 31
0.0
  0
LINE
  5
2C2
  8
0
 62
     4
 10
-174.08087499999999
 20
553.515625
 30
0.0
 11
-176.0808679999999
 21
553.51565500000004
 31
0.0
  0
LINE
  5
2C3
  8
0
 62
     4
 10
-130.5808219999999
 20
564.515716
 30
0.0
 11
-130.580837
 21
693.51576599999987
 31
0.0
  0
LINE
  5
2C4
  8
0
 62
     3
 10
-203.27882
 20
557.51576999999997
 30
0.0
 11
-203.27882
 21
562.01580399999989
 31
0.0
  0
LINE
  5
2C5
  8
0
 62
     3
 10
-207.33209600000001
 20
557.51572399999998
 30
0.0
 11
-207.33209600000001
 21
562.0157999999999
 31
0.0
  0
LINE
  5
2C6
  8
0
 62
     3
 10
-229.58080699999999
 20
661.01578099999995
 30
0.0
 11
-305.58080699999988
 21
661.01578099999995
 31
0.0
  0
LINE
  5
2C7
  8
0
 62
     3
 10
-229.58080699999999
 20
631.51573499999995
 30
0.0
 11
-229.58080699999999
 21
661.01578099999995
 31
0.0
  0
LINE
  5
2C8
  8
0
 62
     7
 10
-305.58080699999988
 20
631.51575800000001
 30
0.0
 11
-305.58080699999988
 21
661.01578099999995
 31
0.0
  0
LINE
  5
2C9
  8
0
 62
     3
 10
-298.58068800000001
 20
557.51575500000001
 30
0.0
 11
-298.58069
 21
562.01575799999989
 31
0.0
  0
LINE
  5
2CA
  8
0
 62
     3
 10
-178.0808679999999
 20
674.51578099999995
 30
0.0
 11
-203.3308679999999
 21
674.51578099999995
 31
0.0
  0
LINE
  5
2CB
  8
0
 62
     3
 10
-207.33087499999991
 20
674.51578099999995
 30
0.0
 11
-248.20581100000001
 21
674.51578099999995
 31
0.0
  0
LINE
  5
2CC
  8
0
 62
     3
 10
-252.2058109999999
 20
674.51578099999995
 30
0.0
 11
-298.58080699999999
 21
674.51578099999995
 31
0.0
  0
LINE
  5
2CD
  8
0
 62
     3
 10
-299.330803
 20
673.76579700000002
 30
0.0
 11
-298.580803
 21
674.51579700000002
 31
0.0
  0
LINE
  5
2CE
  8
0
 62
     3
 10
-298.58080699999999
 20
674.51578099999995
 30
0.0
 11
-298.58080699999999
 21
680.26578099999995
 31
0.0
  0
LINE
  5
2CF
  8
0
 62
     6
 10
-176.080883
 20
693.51576599999987
 30
0.0
 11
-176.080883
 21
705.51578099999995
 31
0.0
  0
LINE
  5
2D0
  8
0
 62
     7
 10
-178.08088299999989
 20
693.51576599999987
 30
0.0
 11
-178.08088299999989
 21
708.01578099999995
 31
0.0
  0
LINE
  5
2D1
  8
0
 62
     3
 10
-250.08088299999989
 20
693.51576599999987
 30
0.0
 11
-250.08088299999989
 21
705.51578099999995
 31
0.0
  0
LINE
  5
2D2
  8
0
 62
   150
 10
-322.08081399999998
 20
566.26097100000004
 30
0.0
 11
-322.08081399999998
 21
658.76582699999994
 31
0.0
  0
LINE
  5
2D3
  8
0
 62
   150
 10
-322.08081399999998
 20
668.76582699999994
 30
0.0
 11
-322.08081399999998
 21
670.27002300000004
 31
0.0
  0
LINE
  5
2D4
  8
0
 62
   150
 10
-322.08110799999997
 20
566.26522399999988
 30
0.0
 11
-322.08082200000001
 21
566.26727300000005
 31
0.0
  0
CIRCLE
  5
2D5
  8
0
 62
     4
 10
-151.0808679999999
 20
670.51578099999995
 30
0.0
 40
5.9999960000000003
  0
CIRCLE
  5
2D6
  8
0
 62
     4
 10
-151.08089099999989
 20
670.51575100000002
 30
0.0
 40
3.2500040000000001
  0
CIRCLE
  5
2D7
  8
0
 62
     4
 10
-151.0808679999999
 20
570.51575500000001
 30
0.0
 40
6.0000099999999987
  0
CIRCLE
  5
2D8
  8
0
 62
     4
 10
-151.08086
 20
570.51576599999999
 30
0.0
 40
3.2500009999999988
  0
CIRCLE
  5
2D9
  8
0
 62
     4
 10
-293.580895
 20
616.51569699999993
 30
0.0
 40
10.00001799999999
  0
CIRCLE
  5
2DA
  8
0
 62
     4
 10
-293.58088599999991
 20
616.51571999999999
 30
0.0
 40
2.749997
  0
LINE
  5
2DB
  8
0
  6
DASHDOT
 62
     7
 10
-293.580895
 20
603.51568199999997
 30
0.0
 11
-293.580895
 21
629.51571999999999
 31
0.0
  0
LINE
  5
2DC
  8
0
  6
DASHDOT
 62
     7
 10
-280.58087799999993
 20
616.51569699999993
 30
0.0
 11
-306.58091400000001
 21
616.51569699999993
 31
0.0
  0
LINE
  5
2DD
  8
0
  6
DASHDOT
 62
     7
 10
-151.0808679999999
 20
661.51578099999995
 30
0.0
 11
-151.0808679999999
 21
679.51578099999995
 31
0.0
  0
LINE
  5
2DE
  8
0
  6
DASHDOT
 62
     7
 10
-142.0808679999999
 20
670.51578099999995
 30
0.0
 11
-160.0808679999999
 21
670.51578099999995
 31
0.0
  0
LINE
  5
2DF
  8
0
  6
DASHDOT
 62
     7
 10
-151.0808679999999
 20
561.51574299999993
 30
0.0
 11
-151.0808679999999
 21
579.51576599999999
 31
0.0
  0
LINE
  5
2E0
  8
0
  6
DASHDOT
 62
     7
 10
-142.08085299999991
 20
570.51575500000001
 30
0.0
 11
-160.08087499999991
 21
570.51575500000001
 31
0.0
  0
LINE
  5
2E1
  8
0
 62
     3
 10
-308.58081800000002
 20
584.51585
 30
0.0
 11
-308.58081800000002
 21
597.51565199999993
 31
0.0
  0
LINE
  5
2E2
  8
0
 62
     1
 10
-318.58081800000002
 20
537.76564800000006
 30
0.0
 11
-318.58081800000002
 21
698.76564400000007
 31
0.0
  0
LINE
  5
2E3
  8
0
 62
     1
 10
-318.58081800000002
 20
537.76564800000006
 30
0.0
 11
-322.08081800000002
 21
537.76564800000006
 31
0.0
  0
LINE
  5
2E4
  8
0
 62
     1
 10
-322.08081800000002
 20
537.76564800000006
 30
0.0
 11
-322.08081800000002
 21
582.51565199999993
 31
0.0
  0
LINE
  5
2E5
  8
0
 62
     1
 10
-322.08081800000002
 20
599.51565199999993
 30
0.0
 11
-322.08081800000002
 21
698.76564400000007
 31
0.0
  0
LINE
  5
2E6
  8
0
 62
     1
 10
-318.58081800000002
 20
698.76564400000007
 30
0.0
 11
-322.08081800000002
 21
698.76564400000007
 31
0.0
  0
LINE
  5
2E7
  8
0
 62
     1
 10
-316.58081800000002
 20
621.26565199999993
 30
0.0
 11
-316.58081800000002
 21
680.26564399999995
 31
0.0
  0
LINE
  5
2E8
  8
0
 62
     1
 10
-316.58081800000002
 20
597.51565900000003
 30
0.0
 11
-316.58081800000002
 21
615.26565900000003
 31
0.0
  0
LINE
  5
2E9
  8
0
 62
     1
 10
-316.58081800000002
 20
556.26564800000006
 30
0.0
 11
-316.58081800000002
 21
584.51565900000003
 31
0.0
  0
LINE
  5
2EA
  8
0
 62
     3
 10
-312.08081800000002
 20
544.84299800000008
 30
0.0
 11
-312.08081800000002
 21
549.68829699999992
 31
0.0
  0
LINE
  5
2EB
  8
0
 62
     3
 10
-312.08081800000002
 20
686.84299099999987
 30
0.0
 11
-312.08081800000002
 21
691.68829699999992
 31
0.0
  0
LINE
  5
2EC
  8
0
 62
     3
 10
-312.08081800000002
 20
615.84299800000008
 30
0.0
 11
-312.08081800000002
 21
620.68829699999992
 31
0.0
  0
LINE
  5
2ED
  8
0
 62
     3
 10
-321.08081800000002
 20
582.51565199999993
 30
0.0
 11
-322.08081800000002
 21
582.51565199999993
 31
0.0
  0
LINE
  5
2EE
  8
0
 62
     3
 10
-321.08081800000002
 20
582.51565199999993
 30
0.0
 11
-321.08081800000002
 21
599.51565199999993
 31
0.0
  0
LINE
  5
2EF
  8
0
 62
     3
 10
-321.08081800000002
 20
599.51565199999993
 30
0.0
 11
-322.08081800000002
 21
599.51565199999993
 31
0.0
  0
LINE
  5
2F0
  8
0
 62
     3
 10
-321.08081800000002
 20
579.51565199999993
 30
0.0
 11
-321.08081800000002
 21
582.51565199999993
 31
0.0
  0
LINE
  5
2F1
  8
0
 62
     3
 10
-321.08081800000002
 20
599.51565199999993
 30
0.0
 11
-321.08081800000002
 21
602.51565199999993
 31
0.0
  0
LINE
  5
2F2
  8
0
 62
     3
 10
-320.08081800000002
 20
579.51565199999993
 30
0.0
 11
-321.08081800000002
 21
579.51565199999993
 31
0.0
  0
LINE
  5
2F3
  8
0
 62
     3
 10
-320.08081800000002
 20
579.51565199999993
 30
0.0
 11
-320.08081800000002
 21
602.51565199999993
 31
0.0
  0
LINE
  5
2F4
  8
0
 62
     3
 10
-320.08081800000002
 20
602.51565199999993
 30
0.0
 11
-321.08081800000002
 21
602.51565199999993
 31
0.0
  0
LINE
  5
2F5
  8
0
 62
     3
 10
-308.58081800000002
 20
584.51585
 30
0.0
 11
-318.58081800000002
 21
584.51585
 31
0.0
  0
LINE
  5
2F6
  8
0
 62
     3
 10
-308.58081800000002
 20
597.51565199999993
 30
0.0
 11
-318.58081800000002
 21
597.51565199999993
 31
0.0
  0
LINE
  5
2F7
  8
0
 62
     1
 10
-322.08081800000002
 20
582.51565199999993
 30
0.0
 11
-322.08081800000002
 21
599.51565199999993
 31
0.0
  0
LINE
  5
2F8
  8
0
 62
     3
 10
-313.08081800000002
 20
544.26564800000006
 30
0.0
 11
-318.58081800000002
 21
544.26564800000006
 31
0.0
  0
LINE
  5
2F9
  8
0
 62
     3
 10
-313.08081800000002
 20
550.26564800000006
 30
0.0
 11
-318.58081800000002
 21
550.26564800000006
 31
0.0
  0
LINE
  5
2FA
  8
0
 62
     1
 10
-313.08081800000002
 20
550.03728499999988
 30
0.0
 11
-313.08081800000002
 21
550.26564800000006
 31
0.0
  0
LINE
  5
2FB
  8
0
 62
     3
 10
-313.08081800000002
 20
549.38696700000003
 30
0.0
 11
-313.08081800000002
 21
550.03728499999988
 31
0.0
  0
LINE
  5
2FC
  8
0
 62
     3
 10
-313.08081800000002
 20
548.41369999999995
 30
0.0
 11
-313.08081800000002
 21
549.38696700000003
 31
0.0
  0
LINE
  5
2FD
  8
0
 62
     3
 10
-313.08081800000002
 20
547.26564800000006
 30
0.0
 11
-313.08081800000002
 21
548.41369999999995
 31
0.0
  0
LINE
  5
2FE
  8
0
 62
     3
 10
-313.08081800000002
 20
546.11759900000004
 30
0.0
 11
-313.08081800000002
 21
547.26564800000006
 31
0.0
  0
LINE
  5
2FF
  8
0
 62
     3
 10
-313.08081800000002
 20
545.14432899999986
 30
0.0
 11
-313.08081800000002
 21
546.11759900000004
 31
0.0
  0
LINE
  5
300
  8
0
 62
     3
 10
-313.08081800000002
 20
544.494011
 30
0.0
 11
-313.08081800000002
 21
545.14432899999986
 31
0.0
  0
LINE
  5
301
  8
0
 62
     3
 10
-313.08081800000002
 20
544.26564800000006
 30
0.0
 11
-313.08081800000002
 21
544.494011
 31
0.0
  0
LINE
  5
302
  8
0
 62
     3
 10
-313.08081800000002
 20
544.26564800000006
 30
0.0
 11
-312.08081800000002
 21
544.84299800000008
 31
0.0
  0
LINE
  5
303
  8
0
 62
     3
 10
-312.08081399999998
 20
549.68829699999992
 30
0.0
 11
-313.08081399999998
 21
550.26564800000006
 31
0.0
  0
LINE
  5
304
  8
0
 62
     3
 10
-313.08081800000002
 20
686.26564400000007
 30
0.0
 11
-318.58081800000002
 21
686.26564400000007
 31
0.0
  0
LINE
  5
305
  8
0
 62
     3
 10
-313.08081800000002
 20
692.26564399999995
 30
0.0
 11
-318.58081800000002
 21
692.26564399999995
 31
0.0
  0
LINE
  5
306
  8
0
 62
     3
 10
-313.08081800000002
 20
692.03728099999989
 30
0.0
 11
-313.08081800000002
 21
692.26564399999995
 31
0.0
  0
LINE
  5
307
  8
0
 62
     3
 10
-313.08081800000002
 20
691.38696700000003
 30
0.0
 11
-313.08081800000002
 21
692.03728099999989
 31
0.0
  0
LINE
  5
308
  8
0
 62
     3
 10
-313.08081800000002
 20
690.41369999999995
 30
0.0
 11
-313.08081800000002
 21
691.38696700000003
 31
0.0
  0
LINE
  5
309
  8
0
 62
     3
 10
-313.08081800000002
 20
689.26564399999995
 30
0.0
 11
-313.08081800000002
 21
690.41369999999995
 31
0.0
  0
LINE
  5
30A
  8
0
 62
     3
 10
-313.08081800000002
 20
688.11760300000003
 30
0.0
 11
-313.08081800000002
 21
689.26564399999995
 31
0.0
  0
LINE
  5
30B
  8
0
 62
     3
 10
-313.08081800000002
 20
687.14432099999988
 30
0.0
 11
-313.08081800000002
 21
688.11760300000003
 31
0.0
  0
LINE
  5
30C
  8
0
 62
     3
 10
-313.08081800000002
 20
686.49400700000001
 30
0.0
 11
-313.08081800000002
 21
687.14432099999988
 31
0.0
  0
LINE
  5
30D
  8
0
 62
     3
 10
-313.08081800000002
 20
686.26564400000007
 30
0.0
 11
-313.08081800000002
 21
686.49400700000001
 31
0.0
  0
LINE
  5
30E
  8
0
 62
     3
 10
-313.08081800000002
 20
686.26564400000007
 30
0.0
 11
-312.08081800000002
 21
686.84299099999987
 31
0.0
  0
LINE
  5
30F
  8
0
 62
     3
 10
-312.08081800000002
 20
691.68829699999992
 30
0.0
 11
-313.08081800000002
 21
692.26564399999995
 31
0.0
  0
LINE
  5
310
  8
0
 62
     3
 10
-313.08081800000002
 20
615.26565199999993
 30
0.0
 11
-318.58081800000002
 21
615.26565199999993
 31
0.0
  0
LINE
  5
311
  8
0
 62
     3
 10
-313.08081800000002
 20
621.26565199999993
 30
0.0
 11
-318.58081800000002
 21
621.26565199999993
 31
0.0
  0
LINE
  5
312
  8
0
 62
     3
 10
-313.08081800000002
 20
621.03728899999999
 30
0.0
 11
-313.08081800000002
 21
621.26565199999993
 31
0.0
  0
LINE
  5
313
  8
0
 62
     3
 10
-313.08081800000002
 20
620.38696700000003
 30
0.0
 11
-313.08081800000002
 21
621.03728899999999
 31
0.0
  0
LINE
  5
314
  8
0
 62
     3
 10
-313.08081800000002
 20
619.41369999999995
 30
0.0
 11
-313.08081800000002
 21
620.38696700000003
 31
0.0
  0
LINE
  5
315
  8
0
 62
     3
 10
-313.08081800000002
 20
618.26565199999993
 30
0.0
 11
-313.08081800000002
 21
619.41369999999995
 31
0.0
  0
LINE
  5
316
  8
0
 62
     3
 10
-313.08081800000002
 20
617.11759600000005
 30
0.0
 11
-313.08081800000002
 21
618.26565199999993
 31
0.0
  0
LINE
  5
317
  8
0
 62
     3
 10
-313.08081800000002
 20
616.14432899999997
 30
0.0
 11
-313.08081800000002
 21
617.11759600000005
 31
0.0
  0
LINE
  5
318
  8
0
 62
     3
 10
-313.08081800000002
 20
615.49400700000001
 30
0.0
 11
-313.08081800000002
 21
616.14432899999997
 31
0.0
  0
LINE
  5
319
  8
0
 62
     3
 10
-313.08081800000002
 20
615.26565199999993
 30
0.0
 11
-313.08081800000002
 21
615.49400700000001
 31
0.0
  0
LINE
  5
31A
  8
0
 62
     3
 10
-313.08081800000002
 20
615.26565199999993
 30
0.0
 11
-312.08081800000002
 21
615.84299800000008
 31
0.0
  0
LINE
  5
31B
  8
0
 62
     3
 10
-312.08081800000002
 20
620.68829699999992
 30
0.0
 11
-313.08081800000002
 21
621.26565199999993
 31
0.0
  0
LINE
  5
31C
  8
0
 62
     7
 10
-318.58081800000002
 20
698.76564400000007
 30
0.0
 11
-318.58081800000002
 21
753.35194799999988
 31
0.0
  0
LINE
  5
31D
  8
0
 62
     7
 10
-316.58081800000002
 20
680.26564399999995
 30
0.0
 11
-316.58081800000002
 21
686.26564400000007
 31
0.0
  0
LINE
  5
31E
  8
0
 62
     7
 10
-318.58081800000002
 20
470.91858999999999
 30
0.0
 11
-318.58081800000002
 21
537.76564800000006
 31
0.0
  0
LINE
  5
31F
  8
0
 62
     7
 10
-316.58081800000002
 20
471.50479499999989
 30
0.0
 11
-316.58081800000002
 21
544.26564800000006
 31
0.0
  0
POLYLINE
  5
320
  8
0
 62
     3
 66
     1
 10
0.0
 20
0.0
 30
0.0
  0
VERTEX
  5
C2A
  8
0
 62
     3
 10
-325.424938
 20
468.91255599999988
 30
0.0
  0
VERTEX
  5
C2B
  8
0
 62
     3
 10
-313.03132999999991
 20
472.54516599999999
 30
0.0
  0
VERTEX
  5
C2C
  8
0
 62
     3
 10
-312.63424300000003
 20
474.7456929999999
 30
0.0
  0
VERTEX
  5
C2D
  8
0
 62
     3
 10
-310.54953399999999
 20
471.18844999999999
 30
0.0
  0
VERTEX
  5
C2E
  8
0
 62
     3
 10
-310.15244499999989
 20
473.3889769999999
 30
0.0
  0
SEQEND
  5
C2F
  8
0
 62
     3
  0
POLYLINE
  5
327
  8
0
 62
     3
 66
     1
 10
0.0
 20
0.0
 30
0.0
  0
VERTEX
  5
C30
  8
0
 62
     3
 10
-324.89829999999989
 20
752.24362499999995
 30
0.0
  0
VERTEX
  5
C31
  8
0
 62
     3
 10
-312.843998
 20
754.35841700000003
 30
0.0
  0
VERTEX
  5
C32
  8
0
 62
     3
 10
-312.20463899999987
 20
756.50113299999987
 30
0.0
  0
VERTEX
  5
C33
  8
0
 62
     3
 10
-310.52848399999988
 20
752.734104
 30
0.0
  0
VERTEX
  5
C34
  8
0
 62
     3
 10
-309.88912599999992
 20
754.87681899999995
 30
0.0
  0
SEQEND
  5
C35
  8
0
 62
     3
  0
LINE
  5
32E
  8
0
 62
     7
 10
-316.58081800000002
 20
692.76564399999995
 30
0.0
 11
-318.58081800000002
 21
692.76564399999995
 31
0.0
  0
LINE
  5
32F
  8
0
 62
     7
 10
-316.58081800000002
 20
685.76564399999995
 30
0.0
 11
-318.58081800000002
 21
685.76564399999995
 31
0.0
  0
LINE
  5
330
  8
0
 62
     7
 10
-316.58081800000002
 20
598.01565199999993
 30
0.0
 11
-318.58081800000002
 21
598.01565199999993
 31
0.0
  0
LINE
  5
331
  8
0
 62
     7
 10
-316.58081800000002
 20
614.76565199999993
 30
0.0
 11
-318.58081800000002
 21
614.76565199999993
 31
0.0
  0
LINE
  5
332
  8
0
 62
     7
 10
-316.58081800000002
 20
621.76565199999993
 30
0.0
 11
-318.58081800000002
 21
621.76565199999993
 31
0.0
  0
LINE
  5
333
  8
0
 62
     7
 10
-316.58081800000002
 20
584.01585
 30
0.0
 11
-318.58081800000002
 21
584.01585
 31
0.0
  0
LINE
  5
334
  8
0
 62
     7
 10
-316.58081800000002
 20
692.26564399999995
 30
0.0
 11
-316.58081800000002
 21
753.70282299999997
 31
0.0
  0
LINE
  5
335
  8
0
 62
     7
 10
-316.58081800000002
 20
550.26564800000006
 30
0.0
 11
-316.58081800000002
 21
556.26564800000006
 31
0.0
  0
LINE
  5
336
  8
0
 62
     7
 10
-316.58081800000002
 20
550.76564800000006
 30
0.0
 11
-318.58081800000002
 21
550.76564800000006
 31
0.0
  0
LINE
  5
337
  8
0
 62
     7
 10
-316.58081800000002
 20
543.76564800000006
 30
0.0
 11
-318.58081800000002
 21
543.76564800000006
 31
0.0
  0
CIRCLE
  5
338
  8
0
 62
     7
 10
-145.77447100000001
 20
698.02987999999993
 30
0.0
 40
0.25
  0
CIRCLE
  5
339
  8
0
 62
     7
 10
-264.78516200000001
 20
698.60342800000001
 30
0.0
 40
0.25
  0
LINE
  5
33A
  8
0
 62
     7
 10
-178.08088299999989
 20
708.01578099999995
 30
0.0
 11
-276.58088299999997
 21
708.01578099999995
 31
0.0
  0
LINE
  5
33B
  8
0
 62
     7
 10
-277.58088299999997
 20
693.51576599999987
 30
0.0
 11
-277.58088299999997
 21
707.01578099999995
 31
0.0
  0
LINE
  5
33C
  8
0
 62
     7
 10
-277.58088299999997
 20
534.01579699999991
 30
0.0
 11
-277.58088299999997
 21
553.51574299999993
 31
0.0
  0
LINE
  5
33D
  8
0
 62
     7
 10
-178.08088299999989
 20
533.01579700000002
 30
0.0
 11
-276.58088299999997
 21
533.01579700000002
 31
0.0
  0
ARC
  5
33E
  8
0
 62
     7
 10
-276.58088299999997
 20
534.01579699999991
 30
0.0
 40
1.0
 50
180.00000299999991
 51
270.00000499999987
  0
ARC
  5
33F
  8
0
 62
     7
 10
-276.58088299999997
 20
707.01578099999995
 30
0.0
 40
1.0
 50
90.0
 51
180.00000299999991
  0
LINE
  5
340
  8
0
 62
     7
 10
-305.58080699999988
 20
670.76578099999995
 30
0.0
 11
-316.58081800000002
 21
670.76578099999995
 31
0.0
  0
LINE
  5
341
  8
0
 62
     7
 10
-305.58080699999988
 20
565.76578099999995
 30
0.0
 11
-316.58081800000002
 21
565.76578099999995
 31
0.0
  0
LINE
  5
342
  8
0
  6
DASHDOT
 62
     7
 10
-105.00837299999991
 20
618.26578099999995
 30
0.0
 11
-329.04688599999992
 21
618.26578099999995
 31
0.0
  0
LINE
  5
343
  8
0
 62
     7
 10
-307.08082000000002
 20
672.26578099999995
 30
0.0
 11
-309.580826
 21
672.26578099999995
 31
0.0
  0
LINE
  5
344
  8
0
 62
     7
 10
-307.08082000000002
 20
672.26578099999995
 30
0.0
 11
-307.08082000000002
 21
682.76578099999995
 31
0.0
  0
LINE
  5
345
  8
0
 62
     7
 10
-310.58082599999989
 20
686.26578099999995
 30
0.0
 11
-313.080826
 21
686.26578099999995
 31
0.0
  0
LINE
  5
346
  8
0
 62
     7
 10
-314.080826
 20
692.26564399999995
 30
0.0
 11
-314.080826
 21
695.26578099999995
 31
0.0
  0
LINE
  5
347
  8
0
 62
     7
 10
-314.080826
 20
695.26578099999995
 30
0.0
 11
-316.58081800000002
 21
695.26578099999995
 31
0.0
  0
LINE
  5
348
  8
0
 62
     7
 10
-310.58082599999989
 20
683.76578099999995
 30
0.0
 11
-313.080826
 21
683.76578099999995
 31
0.0
  0
LINE
  5
349
  8
0
 62
     7
 10
-309.580826
 20
672.26578099999995
 30
0.0
 11
-309.580826
 21
682.76578099999995
 31
0.0
  0
ARC
  5
34A
  8
0
 62
     7
 10
-310.58084100000002
 20
682.76576599999987
 30
0.0
 40
3.500017999999999
 50
0.000329
 51
89.999818999999988
  0
ARC
  5
34B
  8
0
 62
     7
 10
-310.58078199999989
 20
682.76582699999994
 30
0.0
 40
0.9999499999999999
 50
359.99882599999989
 51
90.002235999999996
  0
ARC
  5
34C
  8
0
 62
     7
 10
-313.0808449999999
 20
687.26575100000002
 30
0.0
 40
3.4999709999999991
 50
196.60348899999991
 51
270.00034699999998
  0
LINE
  5
34D
  8
0
 62
     7
 10
-307.08082000000002
 20
681.26578099999995
 30
0.0
 11
-309.580826
 21
681.26578099999995
 31
0.0
  0
LINE
  5
34E
  8
0
 62
     7
 10
-313.08081800000002
 20
670.76578099999995
 30
0.0
 11
-313.08081800000002
 21
677.76578099999995
 31
0.0
  0
LINE
  5
34F
  8
0
 62
     7
 10
-311.08081800000002
 20
670.76578099999995
 30
0.0
 11
-311.08081800000002
 21
677.76578099999995
 31
0.0
  0
LINE
  5
350
  8
0
 62
     7
 10
-311.08081800000002
 20
677.76578099999995
 30
0.0
 11
-313.08081800000002
 21
677.76578099999995
 31
0.0
  0
CIRCLE
  5
351
  8
0
 62
     7
 10
-177.6831399999999
 20
726.29931999999985
 30
0.0
 40
0.5
  0
POLYLINE
  5
352
  8
0
 62
     7
 66
     1
 10
0.0
 20
0.0
 30
0.0
  0
VERTEX
  5
C36
  8
0
 62
     7
 10
-114.4477959999999
 20
760.04851100000008
 30
0.0
  0
VERTEX
  5
C37
  8
0
 62
     7
 10
-130.37900899999991
 20
761.53049099999987
 30
0.0
  0
VERTEX
  5
C38
  8
0
 62
     7
 10
-131.5599629999999
 20
759.63170199999979
 30
0.0
  0
VERTEX
  5
C39
  8
0
 62
     7
 10
-132.18517700000001
 20
763.70714199999986
 30
0.0
  0
VERTEX
  5
C3A
  8
0
 62
     7
 10
-133.36611600000001
 20
761.8083529999999
 30
0.0
  0
VERTEX
  5
C3B
  8
0
 62
     7
 10
-134.20200700000001
 20
761.88611200000003
 30
0.0
  0
SEQEND
  5
C3C
  8
0
 62
     7
  0
POLYLINE
  5
35A
  8
0
 62
     7
 66
     1
 10
0.0
 20
0.0
 30
0.0
  0
VERTEX
  5
C3D
  8
0
 62
     7
 10
-113.88549399999989
 20
483.5890179999999
 30
0.0
  0
VERTEX
  5
C3E
  8
0
 62
     7
 10
-129.8572199999999
 20
484.539717
 30
0.0
  0
VERTEX
  5
C3F
  8
0
 62
     7
 10
-130.9743
 20
482.60266899999999
 30
0.0
  0
VERTEX
  5
C40
  8
0
 62
     7
 10
-131.73485899999989
 20
486.65501999999998
 30
0.0
  0
VERTEX
  5
C41
  8
0
 62
     7
 10
-132.85192499999999
 20
484.71797199999992
 30
0.0
  0
VERTEX
  5
C42
  8
0
 62
     7
 10
-134.74360300000001
 20
484.8305719999999
 30
0.0
  0
SEQEND
  5
C43
  8
0
 62
     7
  0
LINE
  5
362
  8
0
 62
     4
 10
-139.08080699999999
 20
705.51576599999987
 30
0.0
 11
-176.08080699999991
 21
705.51576599999987
 31
0.0
  0
ARC
  5
363
  8
0
 62
   150
 10
-157.58088299999989
 20
725.51576599999999
 30
0.0
 40
4.0
 50
90.000010000000003
 51
270.00000499999987
  0
LINE
  5
364
  8
0
 62
   150
 10
-155.080883
 20
715.51576599999999
 30
0.0
 11
-155.080883
 21
735.51576599999987
 31
0.0
  0
LINE
  5
365
  8
0
 62
   150
 10
-155.080883
 20
735.51576599999987
 30
0.0
 11
-157.58088299999989
 21
735.51576599999987
 31
0.0
  0
LINE
  5
366
  8
0
 62
   150
 10
-174.98088499999989
 20
735.51576599999987
 30
0.0
 11
-190.080883
 21
735.51576599999987
 31
0.0
  0
LINE
  5
367
  8
0
 62
   150
 10
-155.080883
 20
715.51576599999999
 30
0.0
 11
-157.58088299999989
 21
715.51576599999999
 31
0.0
  0
LINE
  5
368
  8
0
 62
   150
 10
-174.98088499999989
 20
715.51576599999999
 30
0.0
 11
-190.080883
 21
715.51576599999999
 31
0.0
  0
ARC
  5
369
  8
0
 62
   150
 10
-157.58088299999989
 20
725.51576599999999
 30
0.0
 40
1.5
 50
90.0
 51
270.00000499999987
  0
ARC
  5
36A
  8
0
 62
   150
 10
-157.58088299999989
 20
729.51576599999999
 30
0.0
 40
2.5
 50
270.00000499999987
 51
0.000001
  0
ARC
  5
36B
  8
0
 62
   150
 10
-157.58088299999989
 20
721.51576599999999
 30
0.0
 40
2.5
 50
0.000001
 51
90.0
  0
LINE
  5
36C
  8
0
 62
   150
 10
-192.080883
 20
717.51576599999987
 30
0.0
 11
-192.080883
 21
719.51576599999987
 31
0.0
  0
ARC
  5
36D
  8
0
 62
   150
 10
-190.080883
 20
733.51576599999999
 30
0.0
 40
2.0
 50
90.0
 51
180.00000299999991
  0
ARC
  5
36E
  8
0
 62
   150
 10
-190.080883
 20
717.51576599999987
 30
0.0
 40
2.0
 50
180.00000299999991
 51
270.00000499999987
  0
LINE
  5
36F
  8
0
 62
   150
 10
-183.080883
 20
715.51576599999999
 30
0.0
 11
-183.080883
 21
719.51576599999987
 31
0.0
  0
LINE
  5
370
  8
0
 62
   150
 10
-187.080883
 20
715.51576599999999
 30
0.0
 11
-187.080883
 21
719.51576599999987
 31
0.0
  0
LINE
  5
371
  8
0
 62
     1
 10
-174.98088499999989
 20
734.01576599999999
 30
0.0
 11
-178.480885
 21
734.01576599999999
 31
0.0
  0
LINE
  5
372
  8
0
 62
     1
 10
-174.98088499999989
 20
717.01576599999999
 30
0.0
 11
-178.480885
 21
717.01576599999999
 31
0.0
  0
LINE
  5
373
  8
0
 62
     1
 10
-175.98088499999989
 20
717.01576599999999
 30
0.0
 11
-175.98088499999989
 21
718.51576599999987
 31
0.0
  0
LINE
  5
374
  8
0
 62
     1
 10
-178.480885
 20
717.01576599999999
 30
0.0
 11
-178.480885
 21
718.51576599999987
 31
0.0
  0
ARC
  5
375
  8
0
 62
     1
 10
-176.730885
 20
731.51576599999987
 30
0.0
 40
1.25
 50
306.86989799999992
 51
53.130102000000001
  0
LINE
  5
376
  8
0
 62
     1
 10
-175.98088499999989
 20
732.51576599999999
 30
0.0
 11
-175.98088499999989
 21
734.01576599999999
 31
0.0
  0
ARC
  5
377
  8
0
 62
     1
 10
-176.730885
 20
719.51576599999987
 30
0.0
 40
1.25
 50
306.86989799999992
 51
53.130102000000001
  0
LINE
  5
378
  8
0
 62
     1
 10
-175.98088499999989
 20
720.51576599999999
 30
0.0
 11
-175.98088499999989
 21
730.51576599999987
 31
0.0
  0
ARC
  5
379
  8
0
 62
     1
 10
-179.23088499999989
 20
731.51576599999987
 30
0.0
 40
1.25
 50
306.86989799999992
 51
53.130102000000001
  0
ARC
  5
37A
  8
0
 62
     1
 10
-179.23088499999989
 20
719.51576599999987
 30
0.0
 40
1.25
 50
306.86989799999992
 51
53.130102000000001
  0
LINE
  5
37B
  8
0
 62
     1
 10
-178.480885
 20
732.51576599999999
 30
0.0
 11
-178.480885
 21
734.01576599999999
 31
0.0
  0
LINE
  5
37C
  8
0
 62
     1
 10
-178.480885
 20
720.51576599999999
 30
0.0
 11
-178.480885
 21
721.01576599999999
 31
0.0
  0
LINE
  5
37D
  8
0
 62
     1
 10
-176.98088499999989
 20
728.51576599999999
 30
0.0
 11
-179.98088499999989
 21
728.51576599999999
 31
0.0
  0
LINE
  5
37E
  8
0
 62
     1
 10
-176.98088499999989
 20
722.51576599999987
 30
0.0
 11
-179.98088499999989
 21
722.51576599999987
 31
0.0
  0
LINE
  5
37F
  8
0
 62
     1
 10
-178.480885
 20
730.01576599999987
 30
0.0
 11
-179.98088499999989
 21
730.01576599999987
 31
0.0
  0
LINE
  5
380
  8
0
 62
     1
 10
-178.480885
 20
721.01576599999999
 30
0.0
 11
-179.98088499999989
 21
721.01576599999999
 31
0.0
  0
LINE
  5
381
  8
0
 62
     1
 10
-178.480885
 20
730.01576599999987
 30
0.0
 11
-178.480885
 21
730.51576599999987
 31
0.0
  0
ARC
  5
382
  8
0
 62
     1
 10
-176.98088499999989
 20
729.51576599999999
 30
0.0
 40
1.0
 50
270.00000499999987
 51
0.000001
  0
ARC
  5
383
  8
0
 62
     1
 10
-176.98088499999989
 20
721.51576599999999
 30
0.0
 40
1.0
 50
0.000001
 51
90.0
  0
LINE
  5
384
  8
0
 62
     2
 10
-176.480885
 20
727.51576599999987
 30
0.0
 11
-179.98088499999989
 21
727.51576599999987
 31
0.0
  0
LINE
  5
385
  8
0
 62
     2
 10
-176.480885
 20
723.51576599999987
 30
0.0
 11
-179.98088499999989
 21
723.51576599999987
 31
0.0
  0
LINE
  5
386
  8
0
 62
     2
 10
-179.98088499999989
 20
723.51576599999987
 30
0.0
 11
-181.13558599999999
 21
725.51576599999999
 31
0.0
  0
LINE
  5
387
  8
0
 62
     2
 10
-181.13558599999999
 20
725.51576599999999
 30
0.0
 11
-179.98088499999989
 21
727.51576599999987
 31
0.0
  0
LINE
  5
388
  8
0
 62
     2
 10
-179.98088499999989
 20
723.51576599999987
 30
0.0
 11
-179.98088499999989
 21
727.51576599999987
 31
0.0
  0
LINE
  5
389
  8
0
 62
     2
 10
-179.98088499999989
 20
730.01576599999987
 30
0.0
 11
-179.98088499999989
 21
730.51576599999987
 31
0.0
  0
LINE
  5
38A
  8
0
 62
     1
 10
-179.98088499999989
 20
721.01576599999999
 30
0.0
 11
-179.98088499999989
 21
722.51576599999987
 31
0.0
  0
LINE
  5
38B
  8
0
 62
     1
 10
-179.98088499999989
 20
728.51576599999999
 30
0.0
 11
-179.98088499999989
 21
730.01576599999987
 31
0.0
  0
LINE
  5
38C
  8
0
 62
     2
 10
-198.980885
 20
720.51576599999999
 30
0.0
 11
-198.980885
 21
730.51576599999987
 31
0.0
  0
LINE
  5
38D
  8
0
 62
     2
 10
-180.98088499999989
 20
731.51576599999987
 30
0.0
 11
-197.98088499999989
 21
731.51576599999987
 31
0.0
  0
LINE
  5
38E
  8
0
 62
     2
 10
-180.98088499999989
 20
719.51576599999987
 30
0.0
 11
-197.98088499999989
 21
719.51576599999987
 31
0.0
  0
LINE
  5
38F
  8
0
 62
   150
 10
-183.080883
 20
731.51576599999987
 30
0.0
 11
-183.080883
 21
735.51576599999987
 31
0.0
  0
LINE
  5
390
  8
0
 62
   150
 10
-187.080883
 20
731.51576599999987
 30
0.0
 11
-187.080883
 21
735.51576599999987
 31
0.0
  0
LINE
  5
391
  8
0
 62
   150
 10
-192.080883
 20
731.51576599999987
 30
0.0
 11
-192.080883
 21
733.51576599999999
 31
0.0
  0
LINE
  5
392
  8
0
 62
     2
 10
-198.980885
 20
730.51576599999987
 30
0.0
 11
-197.98088499999989
 21
731.51576599999987
 31
0.0
  0
LINE
  5
393
  8
0
 62
     2
 10
-197.98088499999989
 20
719.51576599999987
 30
0.0
 11
-198.980885
 21
720.51576599999999
 31
0.0
  0
LINE
  5
394
  8
0
 62
     2
 10
-180.98088499999989
 20
719.51576599999987
 30
0.0
 11
-179.98088499999989
 21
720.51576599999999
 31
0.0
  0
LINE
  5
395
  8
0
 62
     2
 10
-179.98088499999989
 20
730.51576599999987
 30
0.0
 11
-180.98088499999989
 21
731.51576599999987
 31
0.0
  0
LINE
  5
396
  8
0
 62
     2
 10
-197.98088499999989
 20
719.51576599999987
 30
0.0
 11
-197.98088499999989
 21
731.51576599999987
 31
0.0
  0
LINE
  5
397
  8
0
 62
     7
 10
-180.230885
 20
730.76576599999999
 30
0.0
 11
-198.73088499999989
 21
730.76576599999999
 31
0.0
  0
LINE
  5
398
  8
0
 62
     7
 10
-180.230885
 20
720.26576599999987
 30
0.0
 11
-198.73088499999989
 21
720.26576599999987
 31
0.0
  0
LINE
  5
399
  8
0
 62
     2
 10
-179.98088499999989
 20
720.51576599999999
 30
0.0
 11
-179.98088499999989
 21
721.01576599999999
 31
0.0
  0
ARC
  5
39A
  8
0
 62
     2
 10
-176.480885
 20
728.01576599999999
 30
0.0
 40
0.5
 50
270.00000499999987
 51
0.000001
  0
ARC
  5
39B
  8
0
 62
     2
 10
-176.480885
 20
723.01576599999987
 30
0.0
 40
0.5
 50
0.000001
 51
90.0
  0
POLYLINE
  5
39C
  8
0
 62
     7
 66
     1
 10
0.0
 20
0.0
 30
0.0
  0
VERTEX
  5
C44
  8
0
 62
     7
 10
-182.3409
 20
719.01820699999996
 30
0.0
  0
VERTEX
  5
C45
  8
0
 62
     7
 10
-182.3409
 20
729.26332500000001
 30
0.0
  0
VERTEX
  5
C46
  8
0
 62
     7
 10
-184.3409
 20
730.26332500000001
 30
0.0
  0
VERTEX
  5
C47
  8
0
 62
     7
 10
-180.3409
 20
731.26332500000001
 30
0.0
  0
VERTEX
  5
C48
  8
0
 62
     7
 10
-182.3409
 20
732.2633249999999
 30
0.0
  0
SEQEND
  5
C49
  8
0
 62
     7
  0
LINE
  5
3A3
  8
0
 62
     7
 10
-183.080883
 20
731.51576599999987
 30
0.0
 11
-184.080883
 21
731.51576599999987
 31
0.0
  0
LINE
  5
3A4
  8
0
 62
     7
 10
-183.080883
 20
719.51576599999987
 30
0.0
 11
-184.080883
 21
719.51576599999987
 31
0.0
  0
LINE
  5
3A5
  8
0
 62
     3
 10
-162.58088299999989
 20
712.99832500000002
 30
0.0
 11
-162.58088299999989
 21
715.51576599999999
 31
0.0
  0
LINE
  5
3A6
  8
0
  6
DASHDOT
 62
     7
 10
-155.39929599999991
 20
725.51576599999999
 30
0.0
 11
-214.92435099999989
 21
725.51576599999999
 31
0.0
  0
LINE
  5
3A7
  8
0
 62
     3
 10
-157.58088299999989
 20
715.51576599999999
 30
0.0
 11
-162.58088299999989
 21
715.51576599999999
 31
0.0
  0
LINE
  5
3A8
  8
0
 62
     3
 10
-157.58088299999989
 20
735.51576599999987
 30
0.0
 11
-162.58088299999989
 21
735.51576599999987
 31
0.0
  0
LINE
  5
3A9
  8
0
 62
     3
 10
-157.58088299999989
 20
729.61577199999999
 30
0.0
 11
-162.58088299999989
 21
729.61577199999999
 31
0.0
  0
LINE
  5
3AA
  8
0
 62
     3
 10
-157.58088299999989
 20
721.41577500000005
 30
0.0
 11
-162.58088299999989
 21
721.41577500000005
 31
0.0
  0
LINE
  5
3AB
  8
0
 62
     3
 10
-157.58088299999989
 20
729.51576599999999
 30
0.0
 11
-157.58088299999989
 21
735.51576599999987
 31
0.0
  0
POLYLINE
  5
3AC
  8
0
 62
     7
 66
     1
 10
0.0
 20
0.0
 30
0.0
  0
VERTEX
  5
C4A
  8
0
 62
     7
 10
-155.894024
 20
718.08247699999993
 30
0.0
  0
VERTEX
  5
C4B
  8
0
 62
     7
 10
-161.10648
 20
718.08247699999993
 30
0.0
  0
VERTEX
  5
C4C
  8
0
 62
     7
 10
-162.10648
 20
716.08247699999993
 30
0.0
  0
VERTEX
  5
C4D
  8
0
 62
     7
 10
-163.10648
 20
720.08247699999993
 30
0.0
  0
VERTEX
  5
C4E
  8
0
 62
     7
 10
-164.10648
 20
718.08247699999993
 30
0.0
  0
SEQEND
  5
C4F
  8
0
 62
     7
  0
LINE
  5
3B3
  8
0
 62
     3
 10
-157.58088299999989
 20
712.99832500000002
 30
0.0
 11
-157.58088299999989
 21
721.51576599999999
 31
0.0
  0
LINE
  5
3B4
  8
0
 62
     4
 10
-206.08080699999991
 20
709.76581199999998
 30
0.0
 11
-206.08080699999991
 21
744.26581199999987
 31
0.0
  0
LINE
  5
3B5
  8
0
 62
     4
 10
-203.58080699999991
 20
712.99832500000002
 30
0.0
 11
-203.58080699999991
 21
743.51581199999987
 31
0.0
  0
LINE
  5
3B6
  8
0
 62
     4
 10
-139.08080699999999
 20
708.51587300000006
 30
0.0
 11
-176.08080699999991
 21
708.51587300000006
 31
0.0
  0
LINE
  5
3B7
  8
0
 62
     4
 10
-176.08080699999991
 20
705.51573499999995
 30
0.0
 11
-176.08080699999991
 21
708.51578099999995
 31
0.0
  0
LINE
  5
3B8
  8
0
 62
     4
 10
-176.78088
 20
745.51587300000006
 30
0.0
 11
-204.83080699999999
 21
745.51587300000006
 31
0.0
  0
ARC
  5
3B9
  8
0
 62
     4
 10
-204.83080699999999
 20
744.26581199999987
 30
0.0
 40
1.25
 50
89.999955
 51
180.00000299999991
  0
LINE
  5
3BA
  8
0
 62
     4
 10
-176.78088
 20
743.51587300000006
 30
0.0
 11
-203.58080699999991
 21
743.51587300000006
 31
0.0
  0
LINE
  5
3BB
  8
0
 62
     4
 10
-176.78088
 20
741.51587300000006
 30
0.0
 11
-202.5808449999999
 21
741.51587300000006
 31
0.0
  0
LINE
  5
3BC
  8
0
 62
     4
 10
-200.5808449999999
 20
743.51579700000002
 30
0.0
 11
-200.5808449999999
 21
745.51579700000002
 31
0.0
  0
LINE
  5
3BD
  8
0
 62
     4
 10
-176.78088
 20
739.51587300000006
 30
0.0
 11
-203.58080699999991
 21
739.51587300000006
 31
0.0
  0
LINE
  5
3BE
  8
0
 62
     4
 10
-202.5808449999999
 20
741.51579700000002
 30
0.0
 11
-202.5808449999999
 21
743.51579700000002
 31
0.0
  0
LINE
  5
3BF
  8
0
 62
     4
 10
-128.0808219999999
 20
708.51575100000002
 30
0.0
 11
-128.0808219999999
 21
745.51575100000002
 31
0.0
  0
ARC
  5
3C0
  8
0
 62
     4
 10
-204.83080699999999
 20
709.76581199999998
 30
0.0
 40
1.25
 50
180.00000299999991
 51
269.99995000000001
  0
LINE
  5
3C1
  8
0
 62
     1
 10
-174.98088499999989
 20
717.01576599999999
 30
0.0
 11
-174.98088499999989
 21
734.01576599999999
 31
0.0
  0
LINE
  5
3C2
  8
0
 62
     1
 10
-174.98088499999989
 20
732.51576599999999
 30
0.0
 11
-175.98088499999989
 21
732.51576599999999
 31
0.0
  0
LINE
  5
3C3
  8
0
 62
     1
 10
-174.98088499999989
 20
730.51576599999987
 30
0.0
 11
-175.98088499999989
 21
730.51576599999987
 31
0.0
  0
LINE
  5
3C4
  8
0
 62
     1
 10
-174.98088499999989
 20
718.51576599999987
 30
0.0
 11
-175.98088499999989
 21
718.51576599999987
 31
0.0
  0
LINE
  5
3C5
  8
0
 62
     1
 10
-174.98088499999989
 20
720.51576599999999
 30
0.0
 11
-175.98088499999989
 21
720.51576599999999
 31
0.0
  0
POLYLINE
  5
3C6
  8
0
 62
     7
 66
     1
 10
0.0
 20
0.0
 30
0.0
  0
VERTEX
  5
C50
  8
0
 62
     7
 10
-150.95260200000001
 20
712.99832500000002
 30
0.0
  0
VERTEX
  5
C51
  8
0
 62
     7
 10
-150.95260200000001
 20
728.99832500000002
 30
0.0
  0
VERTEX
  5
C52
  8
0
 62
     7
 10
-152.95260200000001
 20
729.99832500000002
 30
0.0
  0
VERTEX
  5
C53
  8
0
 62
     7
 10
-148.95260200000001
 20
730.99832500000002
 30
0.0
  0
VERTEX
  5
C54
  8
0
 62
     7
 10
-150.95260200000001
 20
731.99832499999991
 30
0.0
  0
VERTEX
  5
C55
  8
0
 62
     7
 10
-150.95260200000001
 20
746.6833069999999
 30
0.0
  0
SEQEND
  5
C56
  8
0
 62
     7
  0
POLYLINE
  5
3CE
  8
0
 62
     7
 66
     1
 10
0.0
 20
0.0
 30
0.0
  0
VERTEX
  5
C57
  8
0
 62
     7
 10
-150.95260200000001
 20
712.99832500000002
 30
0.0
  0
VERTEX
  5
C58
  8
0
 62
     7
 10
-166.95260200000001
 20
712.99832500000002
 30
0.0
  0
VERTEX
  5
C59
  8
0
 62
     7
 10
-167.95260200000001
 20
710.99832499999991
 30
0.0
  0
VERTEX
  5
C5A
  8
0
 62
     7
 10
-168.95260200000001
 20
714.99832500000002
 30
0.0
  0
VERTEX
  5
C5B
  8
0
 62
     7
 10
-169.95260200000001
 20
712.99832500000002
 30
0.0
  0
VERTEX
  5
C5C
  8
0
 62
     7
 10
-185.95260200000001
 20
712.99832500000002
 30
0.0
  0
VERTEX
  5
C5D
  8
0
 62
     7
 10
-186.95260200000001
 20
710.99832499999991
 30
0.0
  0
VERTEX
  5
C5E
  8
0
 62
     7
 10
-187.95260200000001
 20
714.99832500000002
 30
0.0
  0
VERTEX
  5
C5F
  8
0
 62
     7
 10
-188.95260200000001
 20
712.99832500000002
 30
0.0
  0
VERTEX
  5
C60
  8
0
 62
     7
 10
-204.95260200000001
 20
712.99832500000002
 30
0.0
  0
VERTEX
  5
C61
  8
0
 62
     7
 10
-205.95260200000001
 20
710.99832499999991
 30
0.0
  0
VERTEX
  5
C62
  8
0
 62
     7
 10
-206.95260200000001
 20
714.99832500000002
 30
0.0
  0
VERTEX
  5
C63
  8
0
 62
     7
 10
-207.95260200000001
 20
712.99832500000002
 30
0.0
  0
VERTEX
  5
C64
  8
0
 62
     7
 10
-209.06615099999991
 20
712.99832500000002
 30
0.0
  0
SEQEND
  5
C65
  8
0
 62
     7
  0
LINE
  5
3DE
  8
0
 62
     4
 10
-139.08080699999999
 20
705.51576599999987
 30
0.0
 11
-128.0808219999999
 21
708.51575100000002
 31
0.0
  0
LINE
  5
3DF
  8
0
 62
     4
 10
-139.08080699999999
 20
707.51575100000002
 30
0.0
 11
-139.08080699999999
 21
708.51575100000002
 31
0.0
  0
LINE
  5
3E0
  8
0
 62
     4
 10
-139.08080699999999
 20
707.51587300000006
 30
0.0
 11
-176.08080699999991
 21
707.51587300000006
 31
0.0
  0
LINE
  5
3E1
  8
0
 62
     4
 10
-176.08080699999991
 20
708.51587300000006
 30
0.0
 11
-204.83080699999999
 21
708.51587300000006
 31
0.0
  0
LINE
  5
3E2
  8
0
 62
     4
 10
-128.0808219999999
 20
745.51587300000006
 30
0.0
 11
-160.78087999999991
 21
745.51587300000006
 31
0.0
  0
LINE
  5
3E3
  8
0
 62
     4
 10
-150.95260200000001
 20
743.51587300000006
 30
0.0
 11
-160.78087999999991
 21
743.51587300000006
 31
0.0
  0
LINE
  5
3E4
  8
0
 62
     4
 10
-150.95260200000001
 20
741.51587300000006
 30
0.0
 11
-160.78087999999991
 21
741.51587300000006
 31
0.0
  0
LINE
  5
3E5
  8
0
 62
     4
 10
-150.95260200000001
 20
739.51587300000006
 30
0.0
 11
-160.78087999999991
 21
739.51587300000006
 31
0.0
  0
LINE
  5
3E6
  8
0
 62
    31
 10
-174.98088499999989
 20
715.51576599999999
 30
0.0
 11
-174.98088499999989
 21
738.51576599999987
 31
0.0
  0
LINE
  5
3E7
  8
0
 62
    31
 10
-162.58088299999989
 20
715.51576599999999
 30
0.0
 11
-162.58088299999989
 21
738.51576599999987
 31
0.0
  0
LINE
  5
3E8
  8
0
 62
    31
 10
-162.58088299999989
 20
715.51576599999999
 30
0.0
 11
-174.98088499999989
 21
715.51576599999999
 31
0.0
  0
LINE
  5
3E9
  8
0
 62
    31
 10
-160.78087999999991
 20
738.51576599999987
 30
0.0
 11
-176.78088
 21
738.51576599999987
 31
0.0
  0
LINE
  5
3EA
  8
0
  6
DASHDOT
 62
    31
 10
-168.78087999999991
 20
710.45450199999993
 30
0.0
 11
-168.78087999999991
 21
759.12793299999987
 31
0.0
  0
LINE
  5
3EB
  8
0
 62
    31
 10
-160.78087999999991
 20
738.51576599999987
 30
0.0
 11
-160.78087999999991
 21
757.12793299999998
 31
0.0
  0
LINE
  5
3EC
  8
0
 62
    31
 10
-176.78088
 20
738.51576599999987
 30
0.0
 11
-176.78088
 21
757.12793299999998
 31
0.0
  0
LINE
  5
3ED
  8
0
 62
    31
 10
-168.78087999999991
 20
715.51576599999999
 30
0.0
 11
-172.83640700000001
 21
738.51576599999987
 31
0.0
  0
LINE
  5
3EE
  8
0
 62
    31
 10
-170.20248000000001
 20
715.51576599999999
 30
0.0
 11
-174.25799900000001
 21
738.51576599999987
 31
0.0
  0
LINE
  5
3EF
  8
0
 62
    31
 10
-171.62408099999999
 20
715.51576599999999
 30
0.0
 11
-174.98088499999989
 21
734.55316500000004
 31
0.0
  0
LINE
  5
3F0
  8
0
 62
    31
 10
-173.04567299999999
 20
715.51576599999999
 30
0.0
 11
-174.98088499999989
 21
726.49087899999995
 31
0.0
  0
LINE
  5
3F1
  8
0
 62
    31
 10
-174.467274
 20
715.51576599999999
 30
0.0
 11
-174.98088499999989
 21
718.42860800000005
 31
0.0
  0
LINE
  5
3F2
  8
0
 62
    31
 10
-167.35928699999999
 20
715.51576599999999
 30
0.0
 11
-171.414806
 21
738.51576599999987
 31
0.0
  0
LINE
  5
3F3
  8
0
 62
    31
 10
-165.93768700000001
 20
715.51576599999999
 30
0.0
 11
-169.99320599999999
 21
738.51576599999987
 31
0.0
  0
LINE
  5
3F4
  8
0
 62
    31
 10
-164.5160939999999
 20
715.51576599999999
 30
0.0
 11
-168.5716129999999
 21
738.51576599999987
 31
0.0
  0
LINE
  5
3F5
  8
0
 62
    31
 10
-163.094494
 20
715.51576599999999
 30
0.0
 11
-167.150013
 21
738.51576599999987
 31
0.0
  0
LINE
  5
3F6
  8
0
 62
    31
 10
-162.58088299999989
 20
720.665211
 30
0.0
 11
-165.72842
 21
738.51576599999987
 31
0.0
  0
LINE
  5
3F7
  8
0
 62
    31
 10
-162.58088299999989
 20
728.72749699999986
 30
0.0
 11
-164.3068199999999
 21
738.51576599999987
 31
0.0
  0
LINE
  5
3F8
  8
0
 62
    31
 10
-162.58088299999989
 20
736.78976799999987
 30
0.0
 11
-162.88522
 21
738.51576599999987
 31
0.0
  0
POLYLINE
  5
3F9
  8
0
 62
    31
 66
     1
 10
0.0
 20
0.0
 30
0.0
 70
     1
  0
VERTEX
  5
C66
  8
0
 62
    31
 10
-160.78087999999991
 20
757.12793299999998
 30
0.0
  0
VERTEX
  5
C67
  8
0
 62
    31
 10
-160.784885
 20
757.21739600000001
 30
0.0
  0
VERTEX
  5
C68
  8
0
 62
    31
 10
-160.796909
 20
757.30679699999985
 30
0.0
  0
VERTEX
  5
C69
  8
0
 62
    31
 10
-160.8170429999999
 20
757.39624400000002
 30
0.0
  0
VERTEX
  5
C6A
  8
0
 62
    31
 10
-160.84543199999999
 20
757.48578199999997
 30
0.0
  0
VERTEX
  5
C6B
  8
0
 62
    31
 10
-160.8823129999999
 20
757.57545800000003
 30
0.0
  0
VERTEX
  5
C6C
  8
0
 62
    31
 10
-160.927952
 20
757.665256
 30
0.0
  0
VERTEX
  5
C6D
  8
0
 62
    31
 10
-160.98267699999991
 20
757.75514599999985
 30
0.0
  0
VERTEX
  5
C6E
  8
0
 62
    31
 10
-161.04684800000001
 20
757.84503499999994
 30
0.0
  0
VERTEX
  5
C6F
  8
0
 62
    31
 10
-161.120823
 20
757.93477199999995
 30
0.0
  0
VERTEX
  5
C70
  8
0
 62
    31
 10
-161.2049899999999
 20
758.0241739999999
 30
0.0
  0
VERTEX
  5
C71
  8
0
 62
    31
 10
-161.2996939999999
 20
758.11297999999999
 30
0.0
  0
VERTEX
  5
C72
  8
0
 62
    31
 10
-161.40526199999999
 20
758.20091600000001
 30
0.0
  0
VERTEX
  5
C73
  8
0
 62
    31
 10
-161.5219689999999
 20
758.28761699999995
 30
0.0
  0
VERTEX
  5
C74
  8
0
 62
    31
 10
-161.650036
 20
758.37270000000001
 30
0.0
  0
VERTEX
  5
C75
  8
0
 62
    31
 10
-161.78960000000001
 20
758.45573799999988
 30
0.0
  0
VERTEX
  5
C76
  8
0
 62
    31
 10
-161.9407159999999
 20
758.5362429999999
 30
0.0
  0
VERTEX
  5
C77
  8
0
 62
    31
 10
-162.10332099999999
 20
758.61375799999985
 30
0.0
  0
VERTEX
  5
C78
  8
0
 62
    31
 10
-162.27726399999989
 20
758.68773299999998
 30
0.0
  0
VERTEX
  5
C79
  8
0
 62
    31
 10
-162.46226100000001
 20
758.75764800000002
 30
0.0
  0
VERTEX
  5
C7A
  8
0
 62
    31
 10
-162.65788699999999
 20
758.82298600000001
 30
0.0
  0
VERTEX
  5
C7B
  8
0
 62
    31
 10
-162.8636129999999
 20
758.88321299999996
 30
0.0
  0
VERTEX
  5
C7C
  8
0
 62
    31
 10
-163.07876999999991
 20
758.93782399999998
 30
0.0
  0
VERTEX
  5
C7D
  8
0
 62
    31
 10
-163.30253999999999
 20
758.98633199999995
 30
0.0
  0
VERTEX
  5
C7E
  8
0
 62
    31
 10
-163.53402299999991
 20
759.02827799999989
 30
0.0
  0
VERTEX
  5
C7F
  8
0
 62
    31
 10
-163.77216000000001
 20
759.06329699999992
 30
0.0
  0
VERTEX
  5
C80
  8
0
 62
    31
 10
-164.01581999999991
 20
759.09100699999988
 30
0.0
  0
VERTEX
  5
C81
  8
0
 62
    31
 10
-164.26377500000001
 20
759.11114900000007
 30
0.0
  0
VERTEX
  5
C82
  8
0
 62
    31
 10
-164.51472100000001
 20
759.12349299999994
 30
0.0
  0
VERTEX
  5
C83
  8
0
 62
    31
 10
-164.76731499999991
 20
759.12791800000002
 30
0.0
  0
VERTEX
  5
C84
  8
0
 62
    31
 10
-165.0201679999999
 20
759.12434800000005
 30
0.0
  0
VERTEX
  5
C85
  8
0
 62
    31
 10
-165.1462139999999
 20
759.11957199999995
 30
0.0
  0
VERTEX
  5
C86
  8
0
 62
    31
 10
-165.27189299999989
 20
759.11281199999985
 30
0.0
  0
VERTEX
  5
C87
  8
0
 62
    31
 10
-165.39681599999989
 20
759.10408399999994
 30
0.0
  0
VERTEX
  5
C88
  8
0
 62
    31
 10
-165.52112199999991
 20
759.09338700000001
 30
0.0
  0
VERTEX
  5
C89
  8
0
 62
    31
 10
-165.6442449999999
 20
759.08078399999999
 30
0.0
  0
VERTEX
  5
C8A
  8
0
 62
    31
 10
-165.7665209999999
 20
759.06625699999995
 30
0.0
  0
VERTEX
  5
C8B
  8
0
 62
    31
 10
-165.8871959999999
 20
759.04991500000006
 30
0.0
  0
VERTEX
  5
C8C
  8
0
 62
    31
 10
-166.0067939999999
 20
759.03168099999994
 30
0.0
  0
VERTEX
  5
C8D
  8
0
 62
    31
 10
-166.124416
 20
759.01173800000004
 30
0.0
  0
VERTEX
  5
C8E
  8
0
 62
    31
 10
-166.2407419999999
 20
758.98997899999995
 30
0.0
  0
VERTEX
  5
C8F
  8
0
 62
    31
 10
-166.354748
 20
758.96660199999997
 30
0.0
  0
VERTEX
  5
C90
  8
0
 62
    31
 10
-166.46725799999999
 20
758.94150100000002
 30
0.0
  0
VERTEX
  5
C91
  8
0
 62
    31
 10
-166.57713699999999
 20
758.91493600000001
 30
0.0
  0
VERTEX
  5
C92
  8
0
 62
    31
 10
-166.6853449999999
 20
758.88669200000004
 30
0.0
  0
VERTEX
  5
C93
  8
0
 62
    31
 10
-166.79063799999989
 20
758.85715099999993
 30
0.0
  0
VERTEX
  5
C94
  8
0
 62
    31
 10
-166.89410000000001
 20
758.82603800000004
 30
0.0
  0
VERTEX
  5
C95
  8
0
 62
    31
 10
-166.99443400000001
 20
758.79378099999985
 30
0.0
  0
VERTEX
  5
C96
  8
0
 62
    31
 10
-167.09279299999989
 20
758.76004399999999
 30
0.0
  0
VERTEX
  5
C97
  8
0
 62
    31
 10
-167.18782400000001
 20
758.72531500000002
 30
0.0
  0
VERTEX
  5
C98
  8
0
 62
    31
 10
-167.28078099999999
 20
758.68922799999996
 30
0.0
  0
VERTEX
  5
C99
  8
0
 62
    31
 10
-167.37027399999991
 20
758.65231700000004
 30
0.0
  0
VERTEX
  5
C9A
  8
0
 62
    31
 10
-167.45759200000001
 20
758.61413900000002
 30
0.0
  0
VERTEX
  5
C9B
  8
0
 62
    31
 10
-167.54135500000001
 20
758.57532100000003
 30
0.0
  0
VERTEX
  5
C9C
  8
0
 62
    31
 10
-167.62285999999989
 20
758.53532800000005
 30
0.0
  0
VERTEX
  5
C9D
  8
0
 62
    31
 10
-167.70077099999989
 20
758.49487699999986
 30
0.0
  0
VERTEX
  5
C9E
  8
0
 62
    31
 10
-167.77637899999999
 20
758.45335799999987
 30
0.0
  0
VERTEX
  5
C9F
  8
0
 62
    31
 10
-167.84837699999991
 20
758.41153299999985
 30
0.0
  0
VERTEX
  5
CA0
  8
0
 62
    31
 10
-167.91803400000001
 20
758.36871699999995
 30
0.0
  0
VERTEX
  5
CA1
  8
0
 62
    31
 10
-167.98411899999991
 20
758.32577900000001
 30
0.0
  0
VERTEX
  5
CA2
  8
0
 62
    31
 10
-168.0478479999999
 20
758.28193999999996
 30
0.0
  0
VERTEX
  5
CA3
  8
0
 62
    31
 10
-168.108059
 20
758.23810199999991
 30
0.0
  0
VERTEX
  5
CA4
  8
0
 62
    31
 10
-168.16592
 20
758.19347000000005
 30
0.0
  0
VERTEX
  5
CA5
  8
0
 62
    31
 10
-168.22035600000001
 20
758.14895999999999
 30
0.0
  0
VERTEX
  5
CA6
  8
0
 62
    31
 10
-168.27245699999989
 20
758.10374799999988
 30
0.0
  0
VERTEX
  5
CA7
  8
0
 62
    31
 10
-168.32125500000001
 20
758.05876499999999
 30
0.0
  0
VERTEX
  5
CA8
  8
0
 62
    31
 10
-168.36773299999999
 20
758.01315699999986
 30
0.0
  0
VERTEX
  5
CA9
  8
0
 62
    31
 10
-168.411045
 20
757.96785299999988
 30
0.0
  0
VERTEX
  5
CAA
  8
0
 62
    31
 10
-168.45207600000001
 20
757.92203099999995
 30
0.0
  0
VERTEX
  5
CAB
  8
0
 62
    31
 10
-168.49009299999989
 20
757.87655999999993
 30
0.0
  0
VERTEX
  5
CAC
  8
0
 62
    31
 10
-168.52585199999999
 20
757.830646
 30
0.0
  0
VERTEX
  5
CAD
  8
0
 62
    31
 10
-168.55876499999991
 20
757.78512899999987
 30
0.0
  0
VERTEX
  5
CAE
  8
0
 62
    31
 10
-168.5894659999999
 20
757.73921600000006
 30
0.0
  0
VERTEX
  5
CAF
  8
0
 62
    31
 10
-168.61747399999999
 20
757.69374400000004
 30
0.0
  0
VERTEX
  5
CB0
  8
0
 62
    31
 10
-168.643314
 20
757.64793799999995
 30
0.0
  0
VERTEX
  5
CB1
  8
0
 62
    31
 10
-168.66661499999989
 20
757.60255800000004
 30
0.0
  0
VERTEX
  5
CB2
  8
0
 62
    31
 10
-168.68777800000001
 20
757.55691899999999
 30
0.0
  0
VERTEX
  5
CB3
  8
0
 62
    31
 10
-168.70656199999999
 20
757.51167699999996
 30
0.0
  0
VERTEX
  5
CB4
  8
0
 62
    31
 10
-168.72324800000001
 20
757.46623599999987
 30
0.0
  0
VERTEX
  5
CB5
  8
0
 62
    31
 10
-168.7376669999999
 20
757.42113099999995
 30
0.0
  0
VERTEX
  5
CB6
  8
0
 62
    31
 10
-168.7500269999999
 20
757.37588899999992
 30
0.0
  0
VERTEX
  5
CB7
  8
0
 62
    31
 10
-168.76022699999999
 20
757.33092099999988
 30
0.0
  0
VERTEX
  5
CB8
  8
0
 62
    31
 10
-168.76839099999989
 20
757.28586199999995
 30
0.0
  0
VERTEX
  5
CB9
  8
0
 62
    31
 10
-168.77448699999999
 20
757.24101599999995
 30
0.0
  0
VERTEX
  5
CBA
  8
0
 62
    31
 10
-168.77856099999991
 20
757.19610999999998
 30
0.0
  0
VERTEX
  5
CBB
  8
0
 62
    31
 10
-168.78060500000001
 20
757.15134
 30
0.0
  0
VERTEX
  5
CBC
  8
0
 62
    31
 10
-168.78065100000001
 20
757.10655599999996
 30
0.0
  0
VERTEX
  5
CBD
  8
0
 62
    31
 10
-168.7747379999999
 20
757.01712399999985
 30
0.0
  0
VERTEX
  5
CBE
  8
0
 62
    31
 10
-168.760784
 20
756.92770800000005
 30
0.0
  0
VERTEX
  5
CBF
  8
0
 62
    31
 10
-168.738697
 20
756.83824500000003
 30
0.0
  0
VERTEX
  5
CC0
  8
0
 62
    31
 10
-168.708302
 20
756.74867599999993
 30
0.0
  0
VERTEX
  5
CC1
  8
0
 62
    31
 10
-168.66936100000001
 20
756.65896999999995
 30
0.0
  0
VERTEX
  5
CC2
  8
0
 62
    31
 10
-168.62158600000001
 20
756.56914099999995
 30
0.0
  0
VERTEX
  5
CC3
  8
0
 62
    31
 10
-168.56463199999999
 20
756.47923600000001
 30
0.0
  0
VERTEX
  5
CC4
  8
0
 62
    31
 10
-168.49815799999999
 20
756.38937699999985
 30
0.0
  0
VERTEX
  5
CC5
  8
0
 62
    31
 10
-168.42178000000001
 20
756.29970199999991
 30
0.0
  0
VERTEX
  5
CC6
  8
0
 62
    31
 10
-168.33512500000001
 20
756.21042199999999
 30
0.0
  0
VERTEX
  5
CC7
  8
0
 62
    31
 10
-168.23785799999999
 20
756.12178399999993
 30
0.0
  0
VERTEX
  5
CC8
  8
0
 62
    31
 10
-168.12965
 20
756.03410699999995
 30
0.0
  0
VERTEX
  5
CC9
  8
0
 62
    31
 10
-168.01025000000001
 20
755.94775800000002
 30
0.0
  0
VERTEX
  5
CCA
  8
0
 62
    31
 10
-167.87944400000001
 20
755.86313199999995
 30
0.0
  0
VERTEX
  5
CCB
  8
0
 62
    31
 10
-167.73712499999999
 20
755.78065900000001
 30
0.0
  0
VERTEX
  5
CCC
  8
0
 62
    31
 10
-167.58325600000001
 20
755.70080899999994
 30
0.0
  0
VERTEX
  5
CCD
  8
0
 62
    31
 10
-167.4179189999999
 20
755.62410299999988
 30
0.0
  0
VERTEX
  5
CCE
  8
0
 62
    31
 10
-167.24130600000001
 20
755.55104400000005
 30
0.0
  0
VERTEX
  5
CCF
  8
0
 62
    31
 10
-167.05373
 20
755.48216599999989
 30
0.0
  0
VERTEX
  5
CD0
  8
0
 62
    31
 10
-166.85563999999991
 20
755.418003
 30
0.0
  0
VERTEX
  5
CD1
  8
0
 62
    31
 10
-166.64759399999991
 20
755.35907299999997
 30
0.0
  0
VERTEX
  5
CD2
  8
0
 62
    31
 10
-166.43030200000001
 20
755.305881
 30
0.0
  0
VERTEX
  5
CD3
  8
0
 62
    31
 10
-166.204601
 20
755.25890000000004
 30
0.0
  0
VERTEX
  5
CD4
  8
0
 62
    31
 10
-165.97143199999991
 20
755.21857099999988
 30
0.0
  0
VERTEX
  5
CD5
  8
0
 62
    31
 10
-165.7318689999999
 20
755.18527599999993
 30
0.0
  0
VERTEX
  5
CD6
  8
0
 62
    31
 10
-165.4870719999999
 20
755.15935100000002
 30
0.0
  0
VERTEX
  5
CD7
  8
0
 62
    31
 10
-165.23827700000001
 20
755.14105599999994
 30
0.0
  0
VERTEX
  5
CD8
  8
0
 62
    31
 10
-164.9868129999999
 20
755.13058799999999
 30
0.0
  0
VERTEX
  5
CD9
  8
0
 62
    31
 10
-164.73403500000001
 20
755.12807099999998
 30
0.0
  0
VERTEX
  5
CDA
  8
0
 62
    31
 10
-164.60759400000001
 20
755.12980999999991
 30
0.0
  0
VERTEX
  5
CDB
  8
0
 62
    31
 10
-164.48132699999999
 20
755.13354900000002
 30
0.0
  0
VERTEX
  5
CDC
  8
0
 62
    31
 10
-164.35547999999989
 20
755.13927100000001
 30
0.0
  0
VERTEX
  5
CDD
  8
0
 62
    31
 10
-164.2300679999999
 20
755.14699199999995
 30
0.0
  0
VERTEX
  5
CDE
  8
0
 62
    31
 10
-164.1055179999999
 20
755.1566499999999
 30
0.0
  0
VERTEX
  5
CDF
  8
0
 62
    31
 10
-163.98163199999999
 20
755.16826200000003
 30
0.0
  0
VERTEX
  5
CE0
  8
0
 62
    31
 10
-163.85903500000001
 20
755.18176600000004
 30
0.0
  0
VERTEX
  5
CE1
  8
0
 62
    31
 10
-163.73734699999989
 20
755.19719299999986
 30
0.0
  0
VERTEX
  5
CE2
  8
0
 62
    31
 10
-163.617344
 20
755.21442000000002
 30
0.0
  0
VERTEX
  5
CE3
  8
0
 62
    31
 10
-163.49847800000001
 20
755.23350900000003
 30
0.0
  0
VERTEX
  5
CE4
  8
0
 62
    31
 10
-163.38167200000001
 20
755.25429099999985
 30
0.0
  0
VERTEX
  5
CE5
  8
0
 62
    31
 10
-163.266209
 20
755.27685899999994
 30
0.0
  0
VERTEX
  5
CE6
  8
0
 62
    31
 10
-163.15314100000001
 20
755.30101400000001
 30
0.0
  0
VERTEX
  5
CE7
  8
0
 62
    31
 10
-163.04161499999989
 20
755.32689299999993
 30
0.0
  0
VERTEX
  5
CE8
  8
0
 62
    31
 10
-162.93279599999991
 20
755.3541909999999
 30
0.0
  0
VERTEX
  5
CE9
  8
0
 62
    31
 10
-162.82568699999999
 20
755.38313700000003
 30
0.0
  0
VERTEX
  5
CEA
  8
0
 62
    31
 10
-162.7215459999999
 20
755.41334900000004
 30
0.0
  0
VERTEX
  5
CEB
  8
0
 62
    31
 10
-162.61926699999989
 20
755.44511799999998
 30
0.0
  0
VERTEX
  5
CEC
  8
0
 62
    31
 10
-162.52017599999991
 20
755.47798499999999
 30
0.0
  0
VERTEX
  5
CED
  8
0
 62
    31
 10
-162.42308399999999
 20
755.51231699999994
 30
0.0
  0
VERTEX
  5
CEE
  8
0
 62
    31
 10
-162.32935000000001
 20
755.54758099999992
 30
0.0
  0
VERTEX
  5
CEF
  8
0
 62
    31
 10
-162.237728
 20
755.584202
 30
0.0
  0
VERTEX
  5
CF0
  8
0
 62
    31
 10
-162.149586
 20
755.62158599999998
 30
0.0
  0
VERTEX
  5
CF1
  8
0
 62
    31
 10
-162.0636409999999
 20
755.66022099999998
 30
0.0
  0
VERTEX
  5
CF2
  8
0
 62
    31
 10
-161.9812739999999
 20
755.69945099999995
 30
0.0
  0
VERTEX
  5
CF3
  8
0
 62
    31
 10
-161.90116499999999
 20
755.73984100000007
 30
0.0
  0
VERTEX
  5
CF4
  8
0
 62
    31
 10
-161.8246649999999
 20
755.78064299999994
 30
0.0
  0
VERTEX
  5
CF5
  8
0
 62
    31
 10
-161.75047699999999
 20
755.822498
 30
0.0
  0
VERTEX
  5
CF6
  8
0
 62
    31
 10
-161.67989
 20
755.86461199999985
 30
0.0
  0
VERTEX
  5
CF7
  8
0
 62
    31
 10
-161.61165199999999
 20
755.90768800000001
 30
0.0
  0
VERTEX
  5
CF8
  8
0
 62
    31
 10
-161.54697799999991
 20
755.95087000000001
 30
0.0
  0
VERTEX
  5
CF9
  8
0
 62
    31
 10
-161.48466099999999
 20
755.99490700000001
 30
0.0
  0
VERTEX
  5
CFA
  8
0
 62
    31
 10
-161.425838
 20
756.03892900000005
 30
0.0
  0
VERTEX
  5
CFB
  8
0
 62
    31
 10
-161.3693659999999
 20
756.08371299999999
 30
0.0
  0
VERTEX
  5
CFC
  8
0
 62
    31
 10
-161.31628000000001
 20
756.12836100000004
 30
0.0
  0
VERTEX
  5
CFD
  8
0
 62
    31
 10
-161.265545
 20
756.17367899999999
 30
0.0
  0
VERTEX
  5
CFE
  8
0
 62
    31
 10
-161.21806699999991
 20
756.21875399999999
 30
0.0
  0
VERTEX
  5
CFF
  8
0
 62
    31
 10
-161.172909
 20
756.26443800000004
 30
0.0
  0
VERTEX
  5
D00
  8
0
 62
    31
 10
-161.13087799999991
 20
756.30978800000003
 30
0.0
  0
VERTEX
  5
D01
  8
0
 62
    31
 10
-161.09112200000001
 20
756.35563999999999
 30
0.0
  0
VERTEX
  5
D02
  8
0
 62
    31
 10
-161.054348
 20
756.40114199999994
 30
0.0
  0
VERTEX
  5
D03
  8
0
 62
    31
 10
-161.01981000000001
 20
756.44705599999998
 30
0.0
  0
VERTEX
  5
D04
  8
0
 62
    31
 10
-160.98808700000001
 20
756.49257299999988
 30
0.0
  0
VERTEX
  5
D05
  8
0
 62
    31
 10
-160.9585689999999
 20
756.538456
 30
0.0
  0
VERTEX
  5
D06
  8
0
 62
    31
 10
-160.93169800000001
 20
756.58391200000005
 30
0.0
  0
VERTEX
  5
D07
  8
0
 62
    31
 10
-160.90699399999991
 20
756.62968799999999
 30
0.0
  0
VERTEX
  5
D08
  8
0
 62
    31
 10
-160.884792
 20
756.67503699999997
 30
0.0
  0
VERTEX
  5
D09
  8
0
 62
    31
 10
-160.864712
 20
756.72063000000003
 30
0.0
  0
VERTEX
  5
D0A
  8
0
 62
    31
 10
-160.846981
 20
756.76584200000002
 30
0.0
  0
VERTEX
  5
D0B
  8
0
 62
    31
 10
-160.83134799999991
 20
756.81123700000001
 30
0.0
  0
VERTEX
  5
D0C
  8
0
 62
    31
 10
-160.8179439999999
 20
756.856312
 30
0.0
  0
VERTEX
  5
D0D
  8
0
 62
    31
 10
-160.80659900000001
 20
756.90150800000004
 30
0.0
  0
VERTEX
  5
D0E
  8
0
 62
    31
 10
-160.79738999999989
 20
756.94644500000004
 30
0.0
  0
VERTEX
  5
D0F
  8
0
 62
    31
 10
-160.79020299999991
 20
756.99145899999985
 30
0.0
  0
VERTEX
  5
D10
  8
0
 62
    31
 10
-160.78508400000001
 20
757.03628900000001
 30
0.0
  0
VERTEX
  5
D11
  8
0
 62
    31
 10
-160.78197900000001
 20
757.08114999999987
 30
0.0
  0
SEQEND
  5
D12
  8
0
 62
    31
  0
POLYLINE
  5
4A7
  8
0
 62
    31
 66
     1
 10
0.0
 20
0.0
 30
0.0
  0
VERTEX
  5
D13
  8
0
 62
    31
 10
-168.78087999999991
 20
757.12793299999998
 30
0.0
  0
VERTEX
  5
D14
  8
0
 62
    31
 10
-168.78488499999989
 20
757.21739600000001
 30
0.0
  0
VERTEX
  5
D15
  8
0
 62
    31
 10
-168.79690899999991
 20
757.30679699999985
 30
0.0
  0
VERTEX
  5
D16
  8
0
 62
    31
 10
-168.8170429999999
 20
757.39624400000002
 30
0.0
  0
VERTEX
  5
D17
  8
0
 62
    31
 10
-168.84543199999999
 20
757.48578199999997
 30
0.0
  0
VERTEX
  5
D18
  8
0
 62
    31
 10
-168.8823129999999
 20
757.57545800000003
 30
0.0
  0
VERTEX
  5
D19
  8
0
 62
    31
 10
-168.927952
 20
757.665256
 30
0.0
  0
VERTEX
  5
D1A
  8
0
 62
    31
 10
-168.98267699999991
 20
757.75514599999985
 30
0.0
  0
VERTEX
  5
D1B
  8
0
 62
    31
 10
-169.04684800000001
 20
757.84503499999994
 30
0.0
  0
VERTEX
  5
D1C
  8
0
 62
    31
 10
-169.12082299999989
 20
757.93477199999995
 30
0.0
  0
VERTEX
  5
D1D
  8
0
 62
    31
 10
-169.2049899999999
 20
758.0241739999999
 30
0.0
  0
VERTEX
  5
D1E
  8
0
 62
    31
 10
-169.29969399999999
 20
758.11297999999999
 30
0.0
  0
VERTEX
  5
D1F
  8
0
 62
    31
 10
-169.40526199999999
 20
758.20091600000001
 30
0.0
  0
VERTEX
  5
D20
  8
0
 62
    31
 10
-169.5219689999999
 20
758.28761699999995
 30
0.0
  0
VERTEX
  5
D21
  8
0
 62
    31
 10
-169.65003599999989
 20
758.37270000000001
 30
0.0
  0
VERTEX
  5
D22
  8
0
 62
    31
 10
-169.78960000000001
 20
758.45573799999988
 30
0.0
  0
VERTEX
  5
D23
  8
0
 62
    31
 10
-169.9407159999999
 20
758.5362429999999
 30
0.0
  0
VERTEX
  5
D24
  8
0
 62
    31
 10
-170.10332099999999
 20
758.61375799999985
 30
0.0
  0
VERTEX
  5
D25
  8
0
 62
    31
 10
-170.277264
 20
758.68773299999998
 30
0.0
  0
VERTEX
  5
D26
  8
0
 62
    31
 10
-170.46226100000001
 20
758.75764800000002
 30
0.0
  0
VERTEX
  5
D27
  8
0
 62
    31
 10
-170.65788699999999
 20
758.82298600000001
 30
0.0
  0
VERTEX
  5
D28
  8
0
 62
    31
 10
-170.8636129999999
 20
758.88321299999996
 30
0.0
  0
VERTEX
  5
D29
  8
0
 62
    31
 10
-171.07876999999999
 20
758.93782399999998
 30
0.0
  0
VERTEX
  5
D2A
  8
0
 62
    31
 10
-171.30253999999999
 20
758.98633199999995
 30
0.0
  0
VERTEX
  5
D2B
  8
0
 62
    31
 10
-171.53402299999991
 20
759.02827799999989
 30
0.0
  0
VERTEX
  5
D2C
  8
0
 62
    31
 10
-171.77216000000001
 20
759.06329699999992
 30
0.0
  0
VERTEX
  5
D2D
  8
0
 62
    31
 10
-172.01581999999999
 20
759.09100699999988
 30
0.0
  0
VERTEX
  5
D2E
  8
0
 62
    31
 10
-172.26377500000001
 20
759.11114900000007
 30
0.0
  0
VERTEX
  5
D2F
  8
0
 62
    31
 10
-172.51472100000001
 20
759.12349299999994
 30
0.0
  0
VERTEX
  5
D30
  8
0
 62
    31
 10
-172.767315
 20
759.12791800000002
 30
0.0
  0
VERTEX
  5
D31
  8
0
 62
    31
 10
-173.0201679999999
 20
759.12434800000005
 30
0.0
  0
VERTEX
  5
D32
  8
0
 62
    31
 10
-173.1462139999999
 20
759.11957199999995
 30
0.0
  0
VERTEX
  5
D33
  8
0
 62
    31
 10
-173.27189300000001
 20
759.11281199999985
 30
0.0
  0
VERTEX
  5
D34
  8
0
 62
    31
 10
-173.396816
 20
759.10408399999994
 30
0.0
  0
VERTEX
  5
D35
  8
0
 62
    31
 10
-173.52112199999999
 20
759.09338700000001
 30
0.0
  0
VERTEX
  5
D36
  8
0
 62
    31
 10
-173.64424500000001
 20
759.08078399999999
 30
0.0
  0
VERTEX
  5
D37
  8
0
 62
    31
 10
-173.7665209999999
 20
759.06625699999995
 30
0.0
  0
VERTEX
  5
D38
  8
0
 62
    31
 10
-173.8871959999999
 20
759.04991500000006
 30
0.0
  0
VERTEX
  5
D39
  8
0
 62
    31
 10
-174.0067939999999
 20
759.03168099999994
 30
0.0
  0
VERTEX
  5
D3A
  8
0
 62
    31
 10
-174.12441599999991
 20
759.01173800000004
 30
0.0
  0
VERTEX
  5
D3B
  8
0
 62
    31
 10
-174.2407419999999
 20
758.98997899999995
 30
0.0
  0
VERTEX
  5
D3C
  8
0
 62
    31
 10
-174.354748
 20
758.96660199999997
 30
0.0
  0
VERTEX
  5
D3D
  8
0
 62
    31
 10
-174.46725799999999
 20
758.94150100000002
 30
0.0
  0
VERTEX
  5
D3E
  8
0
 62
    31
 10
-174.57713699999999
 20
758.91493600000001
 30
0.0
  0
VERTEX
  5
D3F
  8
0
 62
    31
 10
-174.6853449999999
 20
758.88669200000004
 30
0.0
  0
VERTEX
  5
D40
  8
0
 62
    31
 10
-174.790638
 20
758.85715099999993
 30
0.0
  0
VERTEX
  5
D41
  8
0
 62
    31
 10
-174.89410000000001
 20
758.82603800000004
 30
0.0
  0
VERTEX
  5
D42
  8
0
 62
    31
 10
-174.99443400000001
 20
758.79378099999985
 30
0.0
  0
VERTEX
  5
D43
  8
0
 62
    31
 10
-175.092793
 20
758.76004399999999
 30
0.0
  0
VERTEX
  5
D44
  8
0
 62
    31
 10
-175.18782400000001
 20
758.72531500000002
 30
0.0
  0
VERTEX
  5
D45
  8
0
 62
    31
 10
-175.28078099999999
 20
758.68922799999996
 30
0.0
  0
VERTEX
  5
D46
  8
0
 62
    31
 10
-175.37027399999999
 20
758.65231700000004
 30
0.0
  0
VERTEX
  5
D47
  8
0
 62
    31
 10
-175.45759200000001
 20
758.61413900000002
 30
0.0
  0
VERTEX
  5
D48
  8
0
 62
    31
 10
-175.54135500000001
 20
758.57532100000003
 30
0.0
  0
VERTEX
  5
D49
  8
0
 62
    31
 10
-175.62286
 20
758.53532800000005
 30
0.0
  0
VERTEX
  5
D4A
  8
0
 62
    31
 10
-175.700771
 20
758.49487699999986
 30
0.0
  0
VERTEX
  5
D4B
  8
0
 62
    31
 10
-175.77637899999999
 20
758.45335799999987
 30
0.0
  0
VERTEX
  5
D4C
  8
0
 62
    31
 10
-175.84837699999991
 20
758.41153299999985
 30
0.0
  0
VERTEX
  5
D4D
  8
0
 62
    31
 10
-175.91803400000001
 20
758.36871699999995
 30
0.0
  0
VERTEX
  5
D4E
  8
0
 62
    31
 10
-175.98411899999991
 20
758.32577900000001
 30
0.0
  0
VERTEX
  5
D4F
  8
0
 62
    31
 10
-176.0478479999999
 20
758.28193999999996
 30
0.0
  0
VERTEX
  5
D50
  8
0
 62
    31
 10
-176.10805899999991
 20
758.23810199999991
 30
0.0
  0
VERTEX
  5
D51
  8
0
 62
    31
 10
-176.16591999999989
 20
758.19347000000005
 30
0.0
  0
VERTEX
  5
D52
  8
0
 62
    31
 10
-176.22035600000001
 20
758.14895999999999
 30
0.0
  0
VERTEX
  5
D53
  8
0
 62
    31
 10
-176.272457
 20
758.10374799999988
 30
0.0
  0
VERTEX
  5
D54
  8
0
 62
    31
 10
-176.32125500000001
 20
758.05876499999999
 30
0.0
  0
VERTEX
  5
D55
  8
0
 62
    31
 10
-176.36773299999999
 20
758.01315699999986
 30
0.0
  0
VERTEX
  5
D56
  8
0
 62
    31
 10
-176.41104499999989
 20
757.96785299999988
 30
0.0
  0
VERTEX
  5
D57
  8
0
 62
    31
 10
-176.45207600000001
 20
757.92203099999995
 30
0.0
  0
VERTEX
  5
D58
  8
0
 62
    31
 10
-176.490093
 20
757.87655999999993
 30
0.0
  0
VERTEX
  5
D59
  8
0
 62
    31
 10
-176.52585199999999
 20
757.830646
 30
0.0
  0
VERTEX
  5
D5A
  8
0
 62
    31
 10
-176.55876499999999
 20
757.78512899999987
 30
0.0
  0
VERTEX
  5
D5B
  8
0
 62
    31
 10
-176.5894659999999
 20
757.73921600000006
 30
0.0
  0
VERTEX
  5
D5C
  8
0
 62
    31
 10
-176.6174739999999
 20
757.69374400000004
 30
0.0
  0
VERTEX
  5
D5D
  8
0
 62
    31
 10
-176.643314
 20
757.64793799999995
 30
0.0
  0
VERTEX
  5
D5E
  8
0
 62
    31
 10
-176.66661499999989
 20
757.60255800000004
 30
0.0
  0
VERTEX
  5
D5F
  8
0
 62
    31
 10
-176.68777800000001
 20
757.55691899999999
 30
0.0
  0
VERTEX
  5
D60
  8
0
 62
    31
 10
-176.70656199999999
 20
757.51167699999996
 30
0.0
  0
VERTEX
  5
D61
  8
0
 62
    31
 10
-176.72324800000001
 20
757.46623599999987
 30
0.0
  0
VERTEX
  5
D62
  8
0
 62
    31
 10
-176.7376669999999
 20
757.42113099999995
 30
0.0
  0
VERTEX
  5
D63
  8
0
 62
    31
 10
-176.75002699999999
 20
757.37588899999992
 30
0.0
  0
VERTEX
  5
D64
  8
0
 62
    31
 10
-176.76022699999999
 20
757.33092099999988
 30
0.0
  0
VERTEX
  5
D65
  8
0
 62
    31
 10
-176.76839099999989
 20
757.28586199999995
 30
0.0
  0
VERTEX
  5
D66
  8
0
 62
    31
 10
-176.77448699999999
 20
757.24101599999995
 30
0.0
  0
VERTEX
  5
D67
  8
0
 62
    31
 10
-176.77856099999991
 20
757.19610999999998
 30
0.0
  0
VERTEX
  5
D68
  8
0
 62
    31
 10
-176.78088
 20
757.12793299999998
 30
0.0
  0
SEQEND
  5
D69
  8
0
 62
    31
  0
LINE
  5
4FF
  8
0
 62
     4
 10
-139.08080699999999
 20
535.51581399999986
 30
0.0
 11
-176.08080699999991
 21
535.51581399999986
 31
0.0
  0
ARC
  5
500
  8
0
 62
   150
 10
-157.58088299999989
 20
515.51580599999988
 30
0.0
 40
4.0
 50
90.000010000000003
 51
270.00000499999987
  0
LINE
  5
501
  8
0
 62
   150
 10
-155.080883
 20
505.51580599999988
 30
0.0
 11
-155.080883
 21
525.515806
 31
0.0
  0
LINE
  5
502
  8
0
 62
   150
 10
-155.080883
 20
505.51580599999988
 30
0.0
 11
-157.58088299999989
 21
505.51580599999988
 31
0.0
  0
LINE
  5
503
  8
0
 62
   150
 10
-174.98088499999989
 20
505.51580599999988
 30
0.0
 11
-190.080883
 21
505.51580599999988
 31
0.0
  0
LINE
  5
504
  8
0
 62
   150
 10
-155.080883
 20
525.515806
 30
0.0
 11
-157.58088299999989
 21
525.515806
 31
0.0
  0
LINE
  5
505
  8
0
 62
   150
 10
-174.98088499999989
 20
525.515806
 30
0.0
 11
-190.080883
 21
525.515806
 31
0.0
  0
ARC
  5
506
  8
0
 62
   150
 10
-157.58088299999989
 20
515.51580599999988
 30
0.0
 40
1.5
 50
90.0
 51
270.00000499999987
  0
ARC
  5
507
  8
0
 62
   150
 10
-157.58088299999989
 20
511.51580599999988
 30
0.0
 40
2.5
 50
0.000001
 51
90.0
  0
ARC
  5
508
  8
0
 62
   150
 10
-157.58088299999989
 20
519.51580599999988
 30
0.0
 40
2.5
 50
270.00000499999987
 51
0.000001
  0
LINE
  5
509
  8
0
 62
   150
 10
-192.080883
 20
521.515806
 30
0.0
 11
-192.080883
 21
523.51580599999988
 31
0.0
  0
ARC
  5
50A
  8
0
 62
   150
 10
-190.080883
 20
507.51580599999988
 30
0.0
 40
2.0
 50
180.00000299999991
 51
270.00000499999987
  0
ARC
  5
50B
  8
0
 62
   150
 10
-190.080883
 20
523.51580599999988
 30
0.0
 40
2.0
 50
90.0
 51
180.00000299999991
  0
LINE
  5
50C
  8
0
 62
   150
 10
-183.080883
 20
521.515806
 30
0.0
 11
-183.080883
 21
525.515806
 31
0.0
  0
LINE
  5
50D
  8
0
 62
   150
 10
-187.080883
 20
521.515806
 30
0.0
 11
-187.080883
 21
525.515806
 31
0.0
  0
LINE
  5
50E
  8
0
 62
     1
 10
-174.98088499999989
 20
507.01580599999988
 30
0.0
 11
-178.480885
 21
507.01580599999988
 31
0.0
  0
LINE
  5
50F
  8
0
 62
     1
 10
-174.98088499999989
 20
524.01580599999988
 30
0.0
 11
-178.480885
 21
524.01580599999988
 31
0.0
  0
LINE
  5
510
  8
0
 62
     1
 10
-175.98088499999989
 20
522.515806
 30
0.0
 11
-175.98088499999989
 21
524.01580599999988
 31
0.0
  0
LINE
  5
511
  8
0
 62
     1
 10
-178.480885
 20
522.515806
 30
0.0
 11
-178.480885
 21
524.01580599999988
 31
0.0
  0
ARC
  5
512
  8
0
 62
     1
 10
-176.730885
 20
509.51580599999988
 30
0.0
 40
1.25
 50
306.86989799999992
 51
53.130102000000001
  0
LINE
  5
513
  8
0
 62
     1
 10
-175.98088499999989
 20
507.01580599999988
 30
0.0
 11
-175.98088499999989
 21
508.51580599999988
 31
0.0
  0
ARC
  5
514
  8
0
 62
     1
 10
-176.730885
 20
521.515806
 30
0.0
 40
1.25
 50
306.86989799999992
 51
53.130102000000001
  0
LINE
  5
515
  8
0
 62
     1
 10
-175.98088499999989
 20
510.51580599999988
 30
0.0
 11
-175.98088499999989
 21
520.515806
 31
0.0
  0
ARC
  5
516
  8
0
 62
     1
 10
-179.23088499999989
 20
509.51580599999988
 30
0.0
 40
1.25
 50
306.86989799999992
 51
53.130102000000001
  0
ARC
  5
517
  8
0
 62
     1
 10
-179.23088499999989
 20
521.515806
 30
0.0
 40
1.25
 50
306.86989799999992
 51
53.130102000000001
  0
LINE
  5
518
  8
0
 62
     1
 10
-178.480885
 20
507.01580599999988
 30
0.0
 11
-178.480885
 21
508.51580599999988
 31
0.0
  0
LINE
  5
519
  8
0
 62
     1
 10
-178.480885
 20
520.01580599999988
 30
0.0
 11
-178.480885
 21
520.515806
 31
0.0
  0
LINE
  5
51A
  8
0
 62
     1
 10
-176.98088499999989
 20
512.515806
 30
0.0
 11
-179.98088499999989
 21
512.515806
 31
0.0
  0
LINE
  5
51B
  8
0
 62
     1
 10
-176.98088499999989
 20
518.515806
 30
0.0
 11
-179.98088499999989
 21
518.515806
 31
0.0
  0
LINE
  5
51C
  8
0
 62
     1
 10
-178.480885
 20
511.01580599999988
 30
0.0
 11
-179.98088499999989
 21
511.01580599999988
 31
0.0
  0
LINE
  5
51D
  8
0
 62
     1
 10
-178.480885
 20
520.01580599999988
 30
0.0
 11
-179.98088499999989
 21
520.01580599999988
 31
0.0
  0
LINE
  5
51E
  8
0
 62
     1
 10
-178.480885
 20
510.51580599999988
 30
0.0
 11
-178.480885
 21
511.01580599999988
 31
0.0
  0
ARC
  5
51F
  8
0
 62
     1
 10
-176.98088499999989
 20
511.51580599999988
 30
0.0
 40
1.0
 50
0.000001
 51
90.0
  0
ARC
  5
520
  8
0
 62
     1
 10
-176.98088499999989
 20
519.51580599999988
 30
0.0
 40
1.0
 50
270.00000499999987
 51
0.000001
  0
LINE
  5
521
  8
0
 62
     2
 10
-176.480885
 20
513.515806
 30
0.0
 11
-179.98088499999989
 21
513.515806
 31
0.0
  0
LINE
  5
522
  8
0
 62
     2
 10
-176.480885
 20
517.515806
 30
0.0
 11
-179.98088499999989
 21
517.515806
 31
0.0
  0
LINE
  5
523
  8
0
 62
     2
 10
-181.13558599999999
 20
515.51580599999988
 30
0.0
 11
-179.98088499999989
 21
517.515806
 31
0.0
  0
LINE
  5
524
  8
0
 62
     2
 10
-179.98088499999989
 20
513.515806
 30
0.0
 11
-181.13558599999999
 21
515.51580599999988
 31
0.0
  0
LINE
  5
525
  8
0
 62
     2
 10
-179.98088499999989
 20
513.515806
 30
0.0
 11
-179.98088499999989
 21
517.515806
 31
0.0
  0
LINE
  5
526
  8
0
 62
     2
 10
-179.98088499999989
 20
510.51580599999988
 30
0.0
 11
-179.98088499999989
 21
511.01580599999988
 31
0.0
  0
LINE
  5
527
  8
0
 62
     1
 10
-179.98088499999989
 20
518.515806
 30
0.0
 11
-179.98088499999989
 21
520.01580599999988
 31
0.0
  0
LINE
  5
528
  8
0
 62
     1
 10
-179.98088499999989
 20
511.01580599999988
 30
0.0
 11
-179.98088499999989
 21
512.515806
 31
0.0
  0
LINE
  5
529
  8
0
 62
     2
 10
-198.980885
 20
510.51580599999988
 30
0.0
 11
-198.980885
 21
520.515806
 31
0.0
  0
LINE
  5
52A
  8
0
 62
     2
 10
-180.98088499999989
 20
509.51580599999988
 30
0.0
 11
-197.98088499999989
 21
509.51580599999988
 31
0.0
  0
LINE
  5
52B
  8
0
 62
     2
 10
-180.98088499999989
 20
521.515806
 30
0.0
 11
-197.98088499999989
 21
521.515806
 31
0.0
  0
LINE
  5
52C
  8
0
 62
   150
 10
-183.080883
 20
505.51580599999988
 30
0.0
 11
-183.080883
 21
509.51580599999988
 31
0.0
  0
LINE
  5
52D
  8
0
 62
   150
 10
-187.080883
 20
505.51580599999988
 30
0.0
 11
-187.080883
 21
509.51580599999988
 31
0.0
  0
LINE
  5
52E
  8
0
 62
   150
 10
-192.080883
 20
507.51580599999988
 30
0.0
 11
-192.080883
 21
509.51580599999988
 31
0.0
  0
LINE
  5
52F
  8
0
 62
     2
 10
-197.98088499999989
 20
509.51580599999988
 30
0.0
 11
-198.980885
 21
510.51580599999988
 31
0.0
  0
LINE
  5
530
  8
0
 62
     2
 10
-198.980885
 20
520.515806
 30
0.0
 11
-197.98088499999989
 21
521.515806
 31
0.0
  0
LINE
  5
531
  8
0
 62
     2
 10
-179.98088499999989
 20
520.515806
 30
0.0
 11
-180.98088499999989
 21
521.515806
 31
0.0
  0
LINE
  5
532
  8
0
 62
     2
 10
-180.98088499999989
 20
509.51580599999988
 30
0.0
 11
-179.98088499999989
 21
510.51580599999988
 31
0.0
  0
LINE
  5
533
  8
0
 62
     2
 10
-197.98088499999989
 20
509.51580599999988
 30
0.0
 11
-197.98088499999989
 21
521.515806
 31
0.0
  0
LINE
  5
534
  8
0
 62
     7
 10
-180.230885
 20
510.26580599999988
 30
0.0
 11
-198.73088499999989
 21
510.26580599999988
 31
0.0
  0
LINE
  5
535
  8
0
 62
     7
 10
-180.230885
 20
520.76580599999988
 30
0.0
 11
-198.73088499999989
 21
520.76580599999988
 31
0.0
  0
LINE
  5
536
  8
0
 62
     2
 10
-179.98088499999989
 20
520.01580599999988
 30
0.0
 11
-179.98088499999989
 21
520.515806
 31
0.0
  0
ARC
  5
537
  8
0
 62
     2
 10
-176.480885
 20
513.015806
 30
0.0
 40
0.5
 50
0.000001
 51
90.0
  0
ARC
  5
538
  8
0
 62
     2
 10
-176.480885
 20
518.015806
 30
0.0
 40
0.5
 50
270.00000499999987
 51
0.000001
  0
POLYLINE
  5
539
  8
0
 62
     7
 66
     1
 10
0.0
 20
0.0
 30
0.0
  0
VERTEX
  5
D6A
  8
0
 62
     7
 10
-182.3409
 20
508.76825099999991
 30
0.0
  0
VERTEX
  5
D6B
  8
0
 62
     7
 10
-182.3409
 20
519.01336499999991
 30
0.0
  0
VERTEX
  5
D6C
  8
0
 62
     7
 10
-184.3409
 20
520.01336500000002
 30
0.0
  0
VERTEX
  5
D6D
  8
0
 62
     7
 10
-180.3409
 20
521.01336399999991
 30
0.0
  0
VERTEX
  5
D6E
  8
0
 62
     7
 10
-182.3409
 20
522.01336399999991
 30
0.0
  0
SEQEND
  5
D6F
  8
0
 62
     7
  0
LINE
  5
540
  8
0
 62
     7
 10
-183.080883
 20
509.51580599999988
 30
0.0
 11
-184.080883
 21
509.51580599999988
 31
0.0
  0
LINE
  5
541
  8
0
 62
     7
 10
-183.080883
 20
521.515806
 30
0.0
 11
-184.080883
 21
521.515806
 31
0.0
  0
LINE
  5
542
  8
0
 62
     3
 10
-162.58088299999989
 20
525.515806
 30
0.0
 11
-162.58088299999989
 21
528.03325400000006
 31
0.0
  0
LINE
  5
543
  8
0
  6
DASHDOT
 62
     7
 10
-155.39929599999991
 20
515.51580599999988
 30
0.0
 11
-214.92435099999989
 21
515.51580599999988
 31
0.0
  0
LINE
  5
544
  8
0
 62
     3
 10
-157.58088299999989
 20
525.515806
 30
0.0
 11
-162.58088299999989
 21
525.515806
 31
0.0
  0
LINE
  5
545
  8
0
 62
     3
 10
-157.58088299999989
 20
505.51580599999988
 30
0.0
 11
-162.58088299999989
 21
505.51580599999988
 31
0.0
  0
LINE
  5
546
  8
0
 62
     3
 10
-157.58088299999989
 20
511.41580599999998
 30
0.0
 11
-162.58088299999989
 21
511.41580599999998
 31
0.0
  0
LINE
  5
547
  8
0
 62
     3
 10
-157.58088299999989
 20
519.61580599999991
 30
0.0
 11
-162.58088299999989
 21
519.61580599999991
 31
0.0
  0
LINE
  5
548
  8
0
 62
     3
 10
-157.58088299999989
 20
505.51580599999988
 30
0.0
 11
-157.58088299999989
 21
511.51580599999988
 31
0.0
  0
POLYLINE
  5
549
  8
0
 62
     7
 66
     1
 10
0.0
 20
0.0
 30
0.0
  0
VERTEX
  5
D70
  8
0
 62
     7
 10
-155.894024
 20
522.94910500000003
 30
0.0
  0
VERTEX
  5
D71
  8
0
 62
     7
 10
-161.10648
 20
522.94910500000003
 30
0.0
  0
VERTEX
  5
D72
  8
0
 62
     7
 10
-162.10648
 20
520.94910500000003
 30
0.0
  0
VERTEX
  5
D73
  8
0
 62
     7
 10
-163.10648
 20
524.94910400000003
 30
0.0
  0
VERTEX
  5
D74
  8
0
 62
     7
 10
-164.10648
 20
522.94910500000003
 30
0.0
  0
SEQEND
  5
D75
  8
0
 62
     7
  0
LINE
  5
550
  8
0
 62
     3
 10
-157.58088299999989
 20
519.51580599999988
 30
0.0
 11
-157.58088299999989
 21
528.03325400000006
 31
0.0
  0
LINE
  5
551
  8
0
 62
     4
 10
-206.08080699999991
 20
496.76576799999998
 30
0.0
 11
-206.08080699999991
 21
531.26576799999998
 31
0.0
  0
LINE
  5
552
  8
0
 62
     4
 10
-203.58080699999991
 20
497.51576899999998
 30
0.0
 11
-203.58080699999991
 21
528.03325400000006
 31
0.0
  0
LINE
  5
553
  8
0
 62
     4
 10
-139.08080699999999
 20
532.51570700000002
 30
0.0
 11
-176.08080699999991
 21
532.51570700000002
 31
0.0
  0
LINE
  5
554
  8
0
 62
     4
 10
-176.08080699999991
 20
532.51579299999992
 30
0.0
 11
-176.08080699999991
 21
535.51583800000003
 31
0.0
  0
LINE
  5
555
  8
0
 62
     4
 10
-176.78088
 20
495.51570700000002
 30
0.0
 11
-204.83080699999999
 21
495.51570700000002
 31
0.0
  0
ARC
  5
556
  8
0
 62
     4
 10
-204.83080699999999
 20
496.76576799999998
 30
0.0
 40
1.25
 50
180.00000299999991
 51
270.000046
  0
LINE
  5
557
  8
0
 62
     4
 10
-176.78088
 20
497.51570700000002
 30
0.0
 11
-203.58080699999991
 21
497.51570700000002
 31
0.0
  0
LINE
  5
558
  8
0
 62
     4
 10
-176.78088
 20
499.51570700000002
 30
0.0
 11
-202.5808449999999
 21
499.51570700000002
 31
0.0
  0
LINE
  5
559
  8
0
 62
     4
 10
-200.5808449999999
 20
495.51578099999989
 30
0.0
 11
-200.5808449999999
 21
497.51578099999989
 31
0.0
  0
LINE
  5
55A
  8
0
 62
     4
 10
-176.78088
 20
501.51570699999991
 30
0.0
 11
-203.58080699999991
 21
501.51570699999991
 31
0.0
  0
LINE
  5
55B
  8
0
 62
     4
 10
-202.5808449999999
 20
497.5157789999999
 30
0.0
 11
-202.5808449999999
 21
499.51577900000001
 31
0.0
  0
LINE
  5
55C
  8
0
 62
     4
 10
-128.0808219999999
 20
495.51583199999999
 30
0.0
 11
-128.0808219999999
 21
532.51583099999993
 31
0.0
  0
ARC
  5
55D
  8
0
 62
     4
 10
-204.83080699999999
 20
531.26576799999998
 30
0.0
 40
1.25
 50
90.000046999999995
 51
180.00000299999991
  0
LINE
  5
55E
  8
0
 62
     1
 10
-174.98088499999989
 20
507.01580599999988
 30
0.0
 11
-174.98088499999989
 21
524.01580599999988
 31
0.0
  0
LINE
  5
55F
  8
0
 62
     1
 10
-174.98088499999989
 20
508.51580599999988
 30
0.0
 11
-175.98088499999989
 21
508.51580599999988
 31
0.0
  0
LINE
  5
560
  8
0
 62
     1
 10
-174.98088499999989
 20
510.51580599999988
 30
0.0
 11
-175.98088499999989
 21
510.51580599999988
 31
0.0
  0
LINE
  5
561
  8
0
 62
     1
 10
-174.98088499999989
 20
522.515806
 30
0.0
 11
-175.98088499999989
 21
522.515806
 31
0.0
  0
LINE
  5
562
  8
0
 62
     1
 10
-174.98088499999989
 20
520.515806
 30
0.0
 11
-175.98088499999989
 21
520.515806
 31
0.0
  0
POLYLINE
  5
563
  8
0
 62
     7
 66
     1
 10
0.0
 20
0.0
 30
0.0
  0
VERTEX
  5
D76
  8
0
 62
     7
 10
-150.95260200000001
 20
494.34827300000001
 30
0.0
  0
VERTEX
  5
D77
  8
0
 62
     7
 10
-150.95260200000001
 20
510.34827300000001
 30
0.0
  0
VERTEX
  5
D78
  8
0
 62
     7
 10
-152.95260200000001
 20
511.34827300000001
 30
0.0
  0
VERTEX
  5
D79
  8
0
 62
     7
 10
-148.95260200000001
 20
512.34827299999995
 30
0.0
  0
VERTEX
  5
D7A
  8
0
 62
     7
 10
-150.95260200000001
 20
513.34827299999995
 30
0.0
  0
VERTEX
  5
D7B
  8
0
 62
     7
 10
-150.95260200000001
 20
528.03325400000006
 30
0.0
  0
SEQEND
  5
D7C
  8
0
 62
     7
  0
POLYLINE
  5
56B
  8
0
 62
     7
 66
     1
 10
0.0
 20
0.0
 30
0.0
  0
VERTEX
  5
D7D
  8
0
 62
     7
 10
-150.95260200000001
 20
528.03325400000006
 30
0.0
  0
VERTEX
  5
D7E
  8
0
 62
     7
 10
-166.95260200000001
 20
528.03325400000006
 30
0.0
  0
VERTEX
  5
D7F
  8
0
 62
     7
 10
-167.95260200000001
 20
526.03325400000006
 30
0.0
  0
VERTEX
  5
D80
  8
0
 62
     7
 10
-168.95260200000001
 20
530.03325400000006
 30
0.0
  0
VERTEX
  5
D81
  8
0
 62
     7
 10
-169.95260200000001
 20
528.03325400000006
 30
0.0
  0
VERTEX
  5
D82
  8
0
 62
     7
 10
-185.95260200000001
 20
528.03325400000006
 30
0.0
  0
VERTEX
  5
D83
  8
0
 62
     7
 10
-186.95260200000001
 20
526.03325400000006
 30
0.0
  0
VERTEX
  5
D84
  8
0
 62
     7
 10
-187.95260200000001
 20
530.03325400000006
 30
0.0
  0
VERTEX
  5
D85
  8
0
 62
     7
 10
-188.95260200000001
 20
528.03325400000006
 30
0.0
  0
VERTEX
  5
D86
  8
0
 62
     7
 10
-204.95260200000001
 20
528.03325400000006
 30
0.0
  0
VERTEX
  5
D87
  8
0
 62
     7
 10
-205.95260200000001
 20
526.03325400000006
 30
0.0
  0
VERTEX
  5
D88
  8
0
 62
     7
 10
-206.95260200000001
 20
530.03325400000006
 30
0.0
  0
VERTEX
  5
D89
  8
0
 62
     7
 10
-207.95260200000001
 20
528.03325400000006
 30
0.0
  0
VERTEX
  5
D8A
  8
0
 62
     7
 10
-209.06615099999991
 20
528.03325400000006
 30
0.0
  0
SEQEND
  5
D8B
  8
0
 62
     7
  0
LINE
  5
57B
  8
0
 62
     4
 10
-128.0808219999999
 20
532.51583099999993
 30
0.0
 11
-139.08080699999999
 21
535.51581399999986
 31
0.0
  0
LINE
  5
57C
  8
0
 62
     4
 10
-139.08080699999999
 20
532.51582299999995
 30
0.0
 11
-139.08080699999999
 21
533.51582300000007
 31
0.0
  0
LINE
  5
57D
  8
0
 62
     4
 10
-139.08080699999999
 20
533.51570700000002
 30
0.0
 11
-176.08080699999991
 21
533.51570700000002
 31
0.0
  0
LINE
  5
57E
  8
0
 62
     4
 10
-176.08080699999991
 20
532.51570700000002
 30
0.0
 11
-204.83080699999999
 21
532.51570700000002
 31
0.0
  0
LINE
  5
57F
  8
0
 62
     4
 10
-128.0808219999999
 20
495.51570700000002
 30
0.0
 11
-160.78087999999991
 21
495.51570700000002
 31
0.0
  0
LINE
  5
580
  8
0
 62
     4
 10
-150.95260200000001
 20
497.51570700000002
 30
0.0
 11
-160.78087999999991
 21
497.51570700000002
 31
0.0
  0
LINE
  5
581
  8
0
 62
     4
 10
-150.95260200000001
 20
499.51570700000002
 30
0.0
 11
-160.78087999999991
 21
499.51570700000002
 31
0.0
  0
LINE
  5
582
  8
0
 62
     4
 10
-150.95260200000001
 20
501.51570699999991
 30
0.0
 11
-160.78087999999991
 21
501.51570699999991
 31
0.0
  0
LINE
  5
583
  8
0
 62
    31
 10
-174.98088499999989
 20
502.51580599999988
 30
0.0
 11
-174.98088499999989
 21
525.515806
 31
0.0
  0
LINE
  5
584
  8
0
 62
    31
 10
-162.58088299999989
 20
502.51580599999988
 30
0.0
 11
-162.58088299999989
 21
525.515806
 31
0.0
  0
LINE
  5
585
  8
0
 62
    31
 10
-162.58088299999989
 20
525.515806
 30
0.0
 11
-174.98088499999989
 21
525.515806
 31
0.0
  0
LINE
  5
586
  8
0
 62
    31
 10
-160.78087999999991
 20
502.51580599999988
 30
0.0
 11
-176.78088
 21
502.51580599999988
 31
0.0
  0
LINE
  5
587
  8
0
  6
DASHDOT
 62
    31
 10
-168.78087999999991
 20
481.90364599999992
 30
0.0
 11
-168.78087999999991
 21
530.57707199999993
 31
0.0
  0
LINE
  5
588
  8
0
 62
    31
 10
-160.78087999999991
 20
483.90364599999992
 30
0.0
 11
-160.78087999999991
 21
502.51580599999988
 31
0.0
  0
LINE
  5
589
  8
0
 62
    31
 10
-176.78088
 20
483.90364599999992
 30
0.0
 11
-176.78088
 21
502.51580599999988
 31
0.0
  0
LINE
  5
58A
  8
0
 62
    31
 10
-172.83640700000001
 20
502.51580599999988
 30
0.0
 11
-168.78087999999991
 21
525.515806
 31
0.0
  0
LINE
  5
58B
  8
0
 62
    31
 10
-174.25799900000001
 20
502.51580599999988
 30
0.0
 11
-170.20248000000001
 21
525.515806
 31
0.0
  0
LINE
  5
58C
  8
0
 62
    31
 10
-174.98088499999989
 20
506.47841599999998
 30
0.0
 11
-171.62408099999999
 21
525.515806
 31
0.0
  0
LINE
  5
58D
  8
0
 62
    31
 10
-174.98088499999989
 20
514.54069500000003
 30
0.0
 11
-173.04567299999999
 21
525.515806
 31
0.0
  0
LINE
  5
58E
  8
0
 62
    31
 10
-174.98088499999989
 20
522.60297400000002
 30
0.0
 11
-174.467274
 21
525.515806
 31
0.0
  0
LINE
  5
58F
  8
0
 62
    31
 10
-171.414806
 20
502.51580599999988
 30
0.0
 11
-167.35928699999999
 21
525.515806
 31
0.0
  0
LINE
  5
590
  8
0
 62
    31
 10
-169.99320599999999
 20
502.51580599999988
 30
0.0
 11
-165.93768700000001
 21
525.515806
 31
0.0
  0
LINE
  5
591
  8
0
 62
    31
 10
-168.5716129999999
 20
502.51580599999988
 30
0.0
 11
-164.5160939999999
 21
525.515806
 31
0.0
  0
LINE
  5
592
  8
0
 62
    31
 10
-167.150013
 20
502.51580599999988
 30
0.0
 11
-163.094494
 21
525.515806
 31
0.0
  0
LINE
  5
593
  8
0
 62
    31
 10
-165.72842
 20
502.51580599999988
 30
0.0
 11
-162.58088299999989
 21
520.36635999999987
 31
0.0
  0
LINE
  5
594
  8
0
 62
    31
 10
-164.3068199999999
 20
502.51580599999988
 30
0.0
 11
-162.58088299999989
 21
512.304081
 31
0.0
  0
LINE
  5
595
  8
0
 62
    31
 10
-162.88522
 20
502.51580599999988
 30
0.0
 11
-162.58088299999989
 21
504.241803
 31
0.0
  0
POLYLINE
  5
596
  8
0
 62
    31
 66
     1
 10
0.0
 20
0.0
 30
0.0
 70
     1
  0
VERTEX
  5
D8C
  8
0
 62
    31
 10
-160.78087999999991
 20
483.90364599999992
 30
0.0
  0
VERTEX
  5
D8D
  8
0
 62
    31
 10
-160.784885
 20
483.9931049999999
 30
0.0
  0
VERTEX
  5
D8E
  8
0
 62
    31
 10
-160.796909
 20
484.082516
 30
0.0
  0
VERTEX
  5
D8F
  8
0
 62
    31
 10
-160.8170429999999
 20
484.17196300000001
 30
0.0
  0
VERTEX
  5
D90
  8
0
 62
    31
 10
-160.84543199999999
 20
484.261505
 30
0.0
  0
VERTEX
  5
D91
  8
0
 62
    31
 10
-160.8823129999999
 20
484.35117699999989
 30
0.0
  0
VERTEX
  5
D92
  8
0
 62
    31
 10
-160.927952
 20
484.44098100000002
 30
0.0
  0
VERTEX
  5
D93
  8
0
 62
    31
 10
-160.98267699999991
 20
484.530868
 30
0.0
  0
VERTEX
  5
D94
  8
0
 62
    31
 10
-161.04684800000001
 20
484.62075199999998
 30
0.0
  0
VERTEX
  5
D95
  8
0
 62
    31
 10
-161.120823
 20
484.71048899999988
 30
0.0
  0
VERTEX
  5
D96
  8
0
 62
    31
 10
-161.2049899999999
 20
484.79988800000001
 30
0.0
  0
VERTEX
  5
D97
  8
0
 62
    31
 10
-161.2996939999999
 20
484.88869999999991
 30
0.0
  0
VERTEX
  5
D98
  8
0
 62
    31
 10
-161.40526199999999
 20
484.97663099999988
 30
0.0
  0
VERTEX
  5
D99
  8
0
 62
    31
 10
-161.5219689999999
 20
485.06333299999989
 30
0.0
  0
VERTEX
  5
D9A
  8
0
 62
    31
 10
-161.650036
 20
485.148416
 30
0.0
  0
VERTEX
  5
D9B
  8
0
 62
    31
 10
-161.78960000000001
 20
485.231449
 30
0.0
  0
VERTEX
  5
D9C
  8
0
 62
    31
 10
-161.9407159999999
 20
485.31196599999998
 30
0.0
  0
VERTEX
  5
D9D
  8
0
 62
    31
 10
-162.10332099999999
 20
485.38946900000002
 30
0.0
  0
VERTEX
  5
D9E
  8
0
 62
    31
 10
-162.27726399999989
 20
485.46344699999992
 30
0.0
  0
VERTEX
  5
D9F
  8
0
 62
    31
 10
-162.46226100000001
 20
485.53336900000011
 30
0.0
  0
VERTEX
  5
DA0
  8
0
 62
    31
 10
-162.65788699999999
 20
485.598705
 30
0.0
  0
VERTEX
  5
DA1
  8
0
 62
    31
 10
-162.8636129999999
 20
485.65893
 30
0.0
  0
VERTEX
  5
DA2
  8
0
 62
    31
 10
-163.07876999999991
 20
485.71353699999997
 30
0.0
  0
VERTEX
  5
DA3
  8
0
 62
    31
 10
-163.30253999999999
 20
485.7620409999999
 30
0.0
  0
VERTEX
  5
DA4
  8
0
 62
    31
 10
-163.53402299999991
 20
485.80399699999998
 30
0.0
  0
VERTEX
  5
DA5
  8
0
 62
    31
 10
-163.77216000000001
 20
485.83900599999993
 30
0.0
  0
VERTEX
  5
DA6
  8
0
 62
    31
 10
-164.01581999999991
 20
485.86672399999998
 30
0.0
  0
VERTEX
  5
DA7
  8
0
 62
    31
 10
-164.26377500000001
 20
485.88686399999989
 30
0.0
  0
VERTEX
  5
DA8
  8
0
 62
    31
 10
-164.51472100000001
 20
485.89921399999992
 30
0.0
  0
VERTEX
  5
DA9
  8
0
 62
    31
 10
-164.76730699999999
 20
485.90363499999989
 30
0.0
  0
VERTEX
  5
DAA
  8
0
 62
    31
 10
-165.0201679999999
 20
485.90006399999987
 30
0.0
  0
VERTEX
  5
DAB
  8
0
 62
    31
 10
-165.1462139999999
 20
485.89528799999999
 30
0.0
  0
VERTEX
  5
DAC
  8
0
 62
    31
 10
-165.27189299999989
 20
485.88852099999991
 30
0.0
  0
VERTEX
  5
DAD
  8
0
 62
    31
 10
-165.39681599999989
 20
485.87979299999989
 30
0.0
  0
VERTEX
  5
DAE
  8
0
 62
    31
 10
-165.52112199999991
 20
485.8691
 30
0.0
  0
VERTEX
  5
DAF
  8
0
 62
    31
 10
-165.6442449999999
 20
485.85650399999997
 30
0.0
  0
VERTEX
  5
DB0
  8
0
 62
    31
 10
-165.7665209999999
 20
485.84197999999998
 30
0.0
  0
VERTEX
  5
DB1
  8
0
 62
    31
 10
-165.8871959999999
 20
485.82562999999988
 30
0.0
  0
VERTEX
  5
DB2
  8
0
 62
    31
 10
-166.0067939999999
 20
485.80740300000002
 30
0.0
  0
VERTEX
  5
DB3
  8
0
 62
    31
 10
-166.124416
 20
485.78745400000003
 30
0.0
  0
VERTEX
  5
DB4
  8
0
 62
    31
 10
-166.2407419999999
 20
485.76569000000012
 30
0.0
  0
VERTEX
  5
DB5
  8
0
 62
    31
 10
-166.354748
 20
485.74232499999999
 30
0.0
  0
VERTEX
  5
DB6
  8
0
 62
    31
 10
-166.46725799999999
 20
485.71721600000001
 30
0.0
  0
VERTEX
  5
DB7
  8
0
 62
    31
 10
-166.57713699999999
 20
485.6906469999999
 30
0.0
  0
VERTEX
  5
DB8
  8
0
 62
    31
 10
-166.6853449999999
 20
485.66241200000002
 30
0.0
  0
VERTEX
  5
DB9
  8
0
 62
    31
 10
-166.79063799999989
 20
485.63287300000002
 30
0.0
  0
VERTEX
  5
DBA
  8
0
 62
    31
 10
-166.89410000000001
 20
485.60175700000002
 30
0.0
  0
VERTEX
  5
DBB
  8
0
 62
    31
 10
-166.994427
 20
485.56949600000002
 30
0.0
  0
VERTEX
  5
DBC
  8
0
 62
    31
 10
-167.09279299999989
 20
485.535753
 30
0.0
  0
VERTEX
  5
DBD
  8
0
 62
    31
 10
-167.18782400000001
 20
485.501037
 30
0.0
  0
VERTEX
  5
DBE
  8
0
 62
    31
 10
-167.28078099999999
 20
485.46493700000002
 30
0.0
  0
VERTEX
  5
DBF
  8
0
 62
    31
 10
-167.37027399999991
 20
485.42803700000002
 30
0.0
  0
VERTEX
  5
DC0
  8
0
 62
    31
 10
-167.45759200000001
 20
485.38985400000001
 30
0.0
  0
VERTEX
  5
DC1
  8
0
 62
    31
 10
-167.54135500000001
 20
485.35104200000001
 30
0.0
  0
VERTEX
  5
DC2
  8
0
 62
    31
 10
-167.62285999999989
 20
485.31105000000002
 30
0.0
  0
VERTEX
  5
DC3
  8
0
 62
    31
 10
-167.70077099999989
 20
485.270599
 30
0.0
  0
VERTEX
  5
DC4
  8
0
 62
    31
 10
-167.77637899999999
 20
485.22907099999998
 30
0.0
  0
VERTEX
  5
DC5
  8
0
 62
    31
 10
-167.84837699999991
 20
485.18724400000002
 30
0.0
  0
VERTEX
  5
DC6
  8
0
 62
    31
 10
-167.91803400000001
 20
485.14443999999997
 30
0.0
  0
VERTEX
  5
DC7
  8
0
 62
    31
 10
-167.98411899999991
 20
485.10148800000002
 30
0.0
  0
VERTEX
  5
DC8
  8
0
 62
    31
 10
-168.0478479999999
 20
485.05765700000001
 30
0.0
  0
VERTEX
  5
DC9
  8
0
 62
    31
 10
-168.108059
 20
485.01381700000002
 30
0.0
  0
VERTEX
  5
DCA
  8
0
 62
    31
 10
-168.16592
 20
484.96919000000003
 30
0.0
  0
VERTEX
  5
DCB
  8
0
 62
    31
 10
-168.22035600000001
 20
484.92467699999992
 30
0.0
  0
VERTEX
  5
DCC
  8
0
 62
    31
 10
-168.27245699999989
 20
484.87946899999997
 30
0.0
  0
VERTEX
  5
DCD
  8
0
 62
    31
 10
-168.32125500000001
 20
484.83447599999988
 30
0.0
  0
VERTEX
  5
DCE
  8
0
 62
    31
 10
-168.36773299999999
 20
484.78887500000002
 30
0.0
  0
VERTEX
  5
DCF
  8
0
 62
    31
 10
-168.411045
 20
484.74357400000002
 30
0.0
  0
VERTEX
  5
DD0
  8
0
 62
    31
 10
-168.45207600000001
 20
484.697744
 30
0.0
  0
VERTEX
  5
DD1
  8
0
 62
    31
 10
-168.49009299999989
 20
484.65227699999991
 30
0.0
  0
VERTEX
  5
DD2
  8
0
 62
    31
 10
-168.52585199999999
 20
484.60635599999989
 30
0.0
  0
VERTEX
  5
DD3
  8
0
 62
    31
 10
-168.55876499999991
 20
484.56083899999987
 30
0.0
  0
VERTEX
  5
DD4
  8
0
 62
    31
 10
-168.5894659999999
 20
484.51493599999998
 30
0.0
  0
VERTEX
  5
DD5
  8
0
 62
    31
 10
-168.61747399999999
 20
484.46945699999998
 30
0.0
  0
VERTEX
  5
DD6
  8
0
 62
    31
 10
-168.643314
 20
484.42365999999998
 30
0.0
  0
VERTEX
  5
DD7
  8
0
 62
    31
 10
-168.66661499999989
 20
484.3782799999999
 30
0.0
  0
VERTEX
  5
DD8
  8
0
 62
    31
 10
-168.68777800000001
 20
484.33264100000002
 30
0.0
  0
VERTEX
  5
DD9
  8
0
 62
    31
 10
-168.70656199999999
 20
484.287395
 30
0.0
  0
VERTEX
  5
DDA
  8
0
 62
    31
 10
-168.72324800000001
 20
484.24194699999998
 30
0.0
  0
VERTEX
  5
DDB
  8
0
 62
    31
 10
-168.7376669999999
 20
484.19684999999998
 30
0.0
  0
VERTEX
  5
DDC
  8
0
 62
    31
 10
-168.7500269999999
 20
484.15159799999998
 30
0.0
  0
VERTEX
  5
DDD
  8
0
 62
    31
 10
-168.76022699999999
 20
484.10663799999998
 30
0.0
  0
VERTEX
  5
DDE
  8
0
 62
    31
 10
-168.76839099999989
 20
484.061575
 30
0.0
  0
VERTEX
  5
DDF
  8
0
 62
    31
 10
-168.77448699999999
 20
484.01672699999989
 30
0.0
  0
VERTEX
  5
DE0
  8
0
 62
    31
 10
-168.77856099999991
 20
483.97182400000003
 30
0.0
  0
VERTEX
  5
DE1
  8
0
 62
    31
 10
-168.78060500000001
 20
483.927053
 30
0.0
  0
VERTEX
  5
DE2
  8
0
 62
    31
 10
-168.78065100000001
 20
483.882273
 30
0.0
  0
VERTEX
  5
DE3
  8
0
 62
    31
 10
-168.7747379999999
 20
483.79283299999997
 30
0.0
  0
VERTEX
  5
DE4
  8
0
 62
    31
 10
-168.760784
 20
483.70341999999988
 30
0.0
  0
VERTEX
  5
DE5
  8
0
 62
    31
 10
-168.738697
 20
483.61395599999992
 30
0.0
  0
VERTEX
  5
DE6
  8
0
 62
    31
 10
-168.708302
 20
483.52438499999988
 30
0.0
  0
VERTEX
  5
DE7
  8
0
 62
    31
 10
-168.66936100000001
 20
483.43467900000002
 30
0.0
  0
VERTEX
  5
DE8
  8
0
 62
    31
 10
-168.62158600000001
 20
483.34485000000001
 30
0.0
  0
VERTEX
  5
DE9
  8
0
 62
    31
 10
-168.56463199999999
 20
483.254953
 30
0.0
  0
VERTEX
  5
DEA
  8
0
 62
    31
 10
-168.49815799999999
 20
483.16508799999991
 30
0.0
  0
VERTEX
  5
DEB
  8
0
 62
    31
 10
-168.42178000000001
 20
483.07541299999991
 30
0.0
  0
VERTEX
  5
DEC
  8
0
 62
    31
 10
-168.33512500000001
 20
482.986132
 30
0.0
  0
VERTEX
  5
DED
  8
0
 62
    31
 10
-168.23785799999999
 20
482.89750099999992
 30
0.0
  0
VERTEX
  5
DEE
  8
0
 62
    31
 10
-168.12965
 20
482.80982999999992
 30
0.0
  0
VERTEX
  5
DEF
  8
0
 62
    31
 10
-168.01025000000001
 20
482.723478
 30
0.0
  0
VERTEX
  5
DF0
  8
0
 62
    31
 10
-167.87944400000001
 20
482.63884299999989
 30
0.0
  0
VERTEX
  5
DF1
  8
0
 62
    31
 10
-167.73712499999999
 20
482.55636800000002
 30
0.0
  0
VERTEX
  5
DF2
  8
0
 62
    31
 10
-167.58325600000001
 20
482.47652399999998
 30
0.0
  0
VERTEX
  5
DF3
  8
0
 62
    31
 10
-167.4179189999999
 20
482.39981599999999
 30
0.0
  0
VERTEX
  5
DF4
  8
0
 62
    31
 10
-167.24130600000001
 20
482.32675899999992
 30
0.0
  0
VERTEX
  5
DF5
  8
0
 62
    31
 10
-167.05373
 20
482.25788299999999
 30
0.0
  0
VERTEX
  5
DF6
  8
0
 62
    31
 10
-166.85563999999991
 20
482.19371999999998
 30
0.0
  0
VERTEX
  5
DF7
  8
0
 62
    31
 10
-166.64759399999991
 20
482.134792
 30
0.0
  0
VERTEX
  5
DF8
  8
0
 62
    31
 10
-166.43030200000001
 20
482.08159999999992
 30
0.0
  0
VERTEX
  5
DF9
  8
0
 62
    31
 10
-166.204601
 20
482.0346219999999
 30
0.0
  0
VERTEX
  5
DFA
  8
0
 62
    31
 10
-165.97143199999991
 20
481.99428899999998
 30
0.0
  0
VERTEX
  5
DFB
  8
0
 62
    31
 10
-165.7318689999999
 20
481.96099299999992
 30
0.0
  0
VERTEX
  5
DFC
  8
0
 62
    31
 10
-165.4870719999999
 20
481.93506200000002
 30
0.0
  0
VERTEX
  5
DFD
  8
0
 62
    31
 10
-165.23827700000001
 20
481.916765
 30
0.0
  0
VERTEX
  5
DFE
  8
0
 62
    31
 10
-164.9868129999999
 20
481.90629899999999
 30
0.0
  0
VERTEX
  5
DFF
  8
0
 62
    31
 10
-164.73403500000001
 20
481.90378399999997
 30
0.0
  0
VERTEX
  5
E00
  8
0
 62
    31
 10
-164.60759400000001
 20
481.9055249999999
 30
0.0
  0
VERTEX
  5
E01
  8
0
 62
    31
 10
-164.48132699999999
 20
481.90926300000001
 30
0.0
  0
VERTEX
  5
E02
  8
0
 62
    31
 10
-164.35547999999989
 20
481.91498899999999
 30
0.0
  0
VERTEX
  5
E03
  8
0
 62
    31
 10
-164.2300679999999
 20
481.9227009999999
 30
0.0
  0
VERTEX
  5
E04
  8
0
 62
    31
 10
-164.1055179999999
 20
481.93236100000001
 30
0.0
  0
VERTEX
  5
E05
  8
0
 62
    31
 10
-163.98163199999999
 20
481.94397900000001
 30
0.0
  0
VERTEX
  5
E06
  8
0
 62
    31
 10
-163.85903500000001
 20
481.95748300000002
 30
0.0
  0
VERTEX
  5
E07
  8
0
 62
    31
 10
-163.73734699999989
 20
481.97290599999991
 30
0.0
  0
VERTEX
  5
E08
  8
0
 62
    31
 10
-163.617344
 20
481.99012900000002
 30
0.0
  0
VERTEX
  5
E09
  8
0
 62
    31
 10
-163.49847800000001
 20
482.00921799999992
 30
0.0
  0
VERTEX
  5
E0A
  8
0
 62
    31
 10
-163.38167200000001
 20
482.03000099999991
 30
0.0
  0
VERTEX
  5
E0B
  8
0
 62
    31
 10
-163.266209
 20
482.05258400000002
 30
0.0
  0
VERTEX
  5
E0C
  8
0
 62
    31
 10
-163.15314100000001
 20
482.07673199999999
 30
0.0
  0
VERTEX
  5
E0D
  8
0
 62
    31
 10
-163.04161499999989
 20
482.10260899999997
 30
0.0
  0
VERTEX
  5
E0E
  8
0
 62
    31
 10
-162.93279599999991
 20
482.129909
 30
0.0
  0
VERTEX
  5
E0F
  8
0
 62
    31
 10
-162.82568699999999
 20
482.15885300000002
 30
0.0
  0
VERTEX
  5
E10
  8
0
 62
    31
 10
-162.7215459999999
 20
482.18906800000002
 30
0.0
  0
VERTEX
  5
E11
  8
0
 62
    31
 10
-162.61926699999989
 20
482.22083499999991
 30
0.0
  0
VERTEX
  5
E12
  8
0
 62
    31
 10
-162.52017599999991
 20
482.25370600000002
 30
0.0
  0
VERTEX
  5
E13
  8
0
 62
    31
 10
-162.42308399999999
 20
482.28803599999998
 30
0.0
  0
VERTEX
  5
E14
  8
0
 62
    31
 10
-162.32935000000001
 20
482.32329900000002
 30
0.0
  0
VERTEX
  5
E15
  8
0
 62
    31
 10
-162.237728
 20
482.35992199999998
 30
0.0
  0
VERTEX
  5
E16
  8
0
 62
    31
 10
-162.149586
 20
482.39730400000002
 30
0.0
  0
VERTEX
  5
E17
  8
0
 62
    31
 10
-162.0636409999999
 20
482.4359429999999
 30
0.0
  0
VERTEX
  5
E18
  8
0
 62
    31
 10
-161.9812739999999
 20
482.47517199999999
 30
0.0
  0
VERTEX
  5
E19
  8
0
 62
    31
 10
-161.90116499999999
 20
482.5155539999999
 30
0.0
  0
VERTEX
  5
E1A
  8
0
 62
    31
 10
-161.8246649999999
 20
482.55635599999988
 30
0.0
  0
VERTEX
  5
E1B
  8
0
 62
    31
 10
-161.75047699999999
 20
482.59821299999987
 30
0.0
  0
VERTEX
  5
E1C
  8
0
 62
    31
 10
-161.67989
 20
482.64033099999989
 30
0.0
  0
VERTEX
  5
E1D
  8
0
 62
    31
 10
-161.61165199999999
 20
482.68340299999988
 30
0.0
  0
VERTEX
  5
E1E
  8
0
 62
    31
 10
-161.54697799999991
 20
482.72658899999988
 30
0.0
  0
VERTEX
  5
E1F
  8
0
 62
    31
 10
-161.48466099999999
 20
482.77062999999998
 30
0.0
  0
VERTEX
  5
E20
  8
0
 62
    31
 10
-161.425838
 20
482.81464899999997
 30
0.0
  0
VERTEX
  5
E21
  8
0
 62
    31
 10
-161.3693659999999
 20
482.85943399999991
 30
0.0
  0
VERTEX
  5
E22
  8
0
 62
    31
 10
-161.31628000000001
 20
482.90407699999992
 30
0.0
  0
VERTEX
  5
E23
  8
0
 62
    31
 10
-161.265545
 20
482.94939599999992
 30
0.0
  0
VERTEX
  5
E24
  8
0
 62
    31
 10
-161.21806699999991
 20
482.99447600000002
 30
0.0
  0
VERTEX
  5
E25
  8
0
 62
    31
 10
-161.172909
 20
483.04014799999999
 30
0.0
  0
VERTEX
  5
E26
  8
0
 62
    31
 10
-161.13087799999991
 20
483.08549900000003
 30
0.0
  0
VERTEX
  5
E27
  8
0
 62
    31
 10
-161.09112899999991
 20
483.13136299999991
 30
0.0
  0
VERTEX
  5
E28
  8
0
 62
    31
 10
-161.054348
 20
483.17685099999989
 30
0.0
  0
VERTEX
  5
E29
  8
0
 62
    31
 10
-161.01981000000001
 20
483.2227759999999
 30
0.0
  0
VERTEX
  5
E2A
  8
0
 62
    31
 10
-160.98808700000001
 20
483.26829099999998
 30
0.0
  0
VERTEX
  5
E2B
  8
0
 62
    31
 10
-160.9585689999999
 20
483.31417399999998
 30
0.0
  0
VERTEX
  5
E2C
  8
0
 62
    31
 10
-160.93169800000001
 20
483.35963399999991
 30
0.0
  0
VERTEX
  5
E2D
  8
0
 62
    31
 10
-160.90699399999991
 20
483.40539899999999
 30
0.0
  0
VERTEX
  5
E2E
  8
0
 62
    31
 10
-160.884792
 20
483.45074799999998
 30
0.0
  0
VERTEX
  5
E2F
  8
0
 62
    31
 10
-160.864712
 20
483.49634500000002
 30
0.0
  0
VERTEX
  5
E30
  8
0
 62
    31
 10
-160.846981
 20
483.5415549999999
 30
0.0
  0
VERTEX
  5
E31
  8
0
 62
    31
 10
-160.83134799999991
 20
483.58695799999992
 30
0.0
  0
VERTEX
  5
E32
  8
0
 62
    31
 10
-160.8179439999999
 20
483.63202100000001
 30
0.0
  0
VERTEX
  5
E33
  8
0
 62
    31
 10
-160.80659900000001
 20
483.67722500000002
 30
0.0
  0
VERTEX
  5
E34
  8
0
 62
    31
 10
-160.79738999999989
 20
483.72215399999988
 30
0.0
  0
VERTEX
  5
E35
  8
0
 62
    31
 10
-160.79020299999991
 20
483.76717699999989
 30
0.0
  0
VERTEX
  5
E36
  8
0
 62
    31
 10
-160.78508400000001
 20
483.81200199999989
 30
0.0
  0
VERTEX
  5
E37
  8
0
 62
    31
 10
-160.78197900000001
 20
483.8568719999999
 30
0.0
  0
SEQEND
  5
E38
  8
0
 62
    31
  0
POLYLINE
  5
644
  8
0
 62
    31
 66
     1
 10
0.0
 20
0.0
 30
0.0
  0
VERTEX
  5
E39
  8
0
 62
    31
 10
-176.78088
 20
483.90364599999992
 30
0.0
  0
VERTEX
  5
E3A
  8
0
 62
    31
 10
-176.776882
 20
483.81419
 30
0.0
  0
VERTEX
  5
E3B
  8
0
 62
    31
 10
-176.76485099999991
 20
483.7247769999999
 30
0.0
  0
VERTEX
  5
E3C
  8
0
 62
    31
 10
-176.74472399999991
 20
483.63533199999989
 30
0.0
  0
VERTEX
  5
E3D
  8
0
 62
    31
 10
-176.716328
 20
483.54579000000001
 30
0.0
  0
VERTEX
  5
E3E
  8
0
 62
    31
 10
-176.67945499999999
 20
483.45611699999989
 30
0.0
  0
VERTEX
  5
E3F
  8
0
 62
    31
 10
-176.633816
 20
483.36631399999987
 30
0.0
  0
VERTEX
  5
E40
  8
0
 62
    31
 10
-176.57908999999989
 20
483.2764259999999
 30
0.0
  0
VERTEX
  5
E41
  8
0
 62
    31
 10
-176.51491899999991
 20
483.18654199999992
 30
0.0
  0
VERTEX
  5
E42
  8
0
 62
    31
 10
-176.44093699999999
 20
483.09680400000002
 30
0.0
  0
VERTEX
  5
E43
  8
0
 62
    31
 10
-176.35677699999991
 20
483.00740599999989
 30
0.0
  0
VERTEX
  5
E44
  8
0
 62
    31
 10
-176.26207400000001
 20
482.91859399999998
 30
0.0
  0
VERTEX
  5
E45
  8
0
 62
    31
 10
-176.15650600000001
 20
482.83066400000001
 30
0.0
  0
VERTEX
  5
E46
  8
0
 62
    31
 10
-176.0397989999999
 20
482.7439609999999
 30
0.0
  0
VERTEX
  5
E47
  8
0
 62
    31
 10
-175.911732
 20
482.65887800000002
 30
0.0
  0
VERTEX
  5
E48
  8
0
 62
    31
 10
-175.772167
 20
482.57584600000001
 30
0.0
  0
VERTEX
  5
E49
  8
0
 62
    31
 10
-175.62105199999991
 20
482.49532900000003
 30
0.0
  0
VERTEX
  5
E4A
  8
0
 62
    31
 10
-175.45843899999991
 20
482.417824
 30
0.0
  0
VERTEX
  5
E4B
  8
0
 62
    31
 10
-175.28449599999999
 20
482.34384699999998
 30
0.0
  0
VERTEX
  5
E4C
  8
0
 62
    31
 10
-175.09950599999999
 20
482.27392400000002
 30
0.0
  0
VERTEX
  5
E4D
  8
0
 62
    31
 10
-174.90388100000001
 20
482.2085889999999
 30
0.0
  0
VERTEX
  5
E4E
  8
0
 62
    31
 10
-174.69815399999999
 20
482.1483629999999
 30
0.0
  0
VERTEX
  5
E4F
  8
0
 62
    31
 10
-174.48299800000001
 20
482.09375699999998
 30
0.0
  0
VERTEX
  5
E50
  8
0
 62
    31
 10
-174.25921999999991
 20
482.04525399999989
 30
0.0
  0
VERTEX
  5
E51
  8
0
 62
    31
 10
-174.0277439999999
 20
482.00329599999992
 30
0.0
  0
VERTEX
  5
E52
  8
0
 62
    31
 10
-173.78960799999999
 20
481.96828599999998
 30
0.0
  0
VERTEX
  5
E53
  8
0
 62
    31
 10
-173.54594800000001
 20
481.94057099999992
 30
0.0
  0
VERTEX
  5
E54
  8
0
 62
    31
 10
-173.29799299999991
 20
481.92042900000001
 30
0.0
  0
VERTEX
  5
E55
  8
0
 62
    31
 10
-173.04704699999999
 20
481.90807899999999
 30
0.0
  0
VERTEX
  5
E56
  8
0
 62
    31
 10
-172.794453
 20
481.90365800000001
 30
0.0
  0
VERTEX
  5
E57
  8
0
 62
    31
 10
-172.54159899999991
 20
481.90722799999998
 30
0.0
  0
VERTEX
  5
E58
  8
0
 62
    31
 10
-172.41555399999999
 20
481.91200599999991
 30
0.0
  0
VERTEX
  5
E59
  8
0
 62
    31
 10
-172.28986699999999
 20
481.91877199999999
 30
0.0
  0
VERTEX
  5
E5A
  8
0
 62
    31
 10
-172.16495099999989
 20
481.92750000000001
 30
0.0
  0
VERTEX
  5
E5B
  8
0
 62
    31
 10
-172.040638
 20
481.93819200000002
 30
0.0
  0
VERTEX
  5
E5C
  8
0
 62
    31
 10
-171.9175149999999
 20
481.95078999999998
 30
0.0
  0
VERTEX
  5
E5D
  8
0
 62
    31
 10
-171.79524599999999
 20
481.96531499999998
 30
0.0
  0
VERTEX
  5
E5E
  8
0
 62
    31
 10
-171.6745719999999
 20
481.98166399999991
 30
0.0
  0
VERTEX
  5
E5F
  8
0
 62
    31
 10
-171.5549739999999
 20
481.99989099999988
 30
0.0
  0
VERTEX
  5
E60
  8
0
 62
    31
 10
-171.43735100000001
 20
482.01983999999999
 30
0.0
  0
VERTEX
  5
E61
  8
0
 62
    31
 10
-171.3210179999999
 20
482.041605
 30
0.0
  0
VERTEX
  5
E62
  8
0
 62
    31
 10
-171.20702
 20
482.06497000000002
 30
0.0
  0
VERTEX
  5
E63
  8
0
 62
    31
 10
-171.09450100000001
 20
482.09007800000001
 30
0.0
  0
VERTEX
  5
E64
  8
0
 62
    31
 10
-170.98463100000001
 20
482.116648
 30
0.0
  0
VERTEX
  5
E65
  8
0
 62
    31
 10
-170.8764229999999
 20
482.14487999999989
 30
0.0
  0
VERTEX
  5
E66
  8
0
 62
    31
 10
-170.77112999999991
 20
482.174421
 30
0.0
  0
VERTEX
  5
E67
  8
0
 62
    31
 10
-170.66766000000001
 20
482.20553799999999
 30
0.0
  0
VERTEX
  5
E68
  8
0
 62
    31
 10
-170.56733299999999
 20
482.23779899999988
 30
0.0
  0
VERTEX
  5
E69
  8
0
 62
    31
 10
-170.468975
 20
482.2715399999999
 30
0.0
  0
VERTEX
  5
E6A
  8
0
 62
    31
 10
-170.37393599999999
 20
482.30625700000002
 30
0.0
  0
VERTEX
  5
E6B
  8
0
 62
    31
 10
-170.28098700000001
 20
482.34235599999988
 30
0.0
  0
VERTEX
  5
E6C
  8
0
 62
    31
 10
-170.19149399999989
 20
482.37925700000011
 30
0.0
  0
VERTEX
  5
E6D
  8
0
 62
    31
 10
-170.104176
 20
482.41744
 30
0.0
  0
VERTEX
  5
E6E
  8
0
 62
    31
 10
-170.02041199999999
 20
482.4562509999999
 30
0.0
  0
VERTEX
  5
E6F
  8
0
 62
    31
 10
-169.93889999999999
 20
482.496242
 30
0.0
  0
VERTEX
  5
E70
  8
0
 62
    31
 10
-169.86099599999989
 20
482.5366929999999
 30
0.0
  0
VERTEX
  5
E71
  8
0
 62
    31
 10
-169.7853889999999
 20
482.57822199999993
 30
0.0
  0
VERTEX
  5
E72
  8
0
 62
    31
 10
-169.71339
 20
482.62004999999988
 30
0.0
  0
VERTEX
  5
E73
  8
0
 62
    31
 10
-169.64372599999999
 20
482.66285499999992
 30
0.0
  0
VERTEX
  5
E74
  8
0
 62
    31
 10
-169.57764800000001
 20
482.70580699999999
 30
0.0
  0
VERTEX
  5
E75
  8
0
 62
    31
 10
-169.5139199999999
 20
482.74963700000001
 30
0.0
  0
VERTEX
  5
E76
  8
0
 62
    31
 10
-169.453709
 20
482.79347799999999
 30
0.0
  0
VERTEX
  5
E77
  8
0
 62
    31
 10
-169.395847
 20
482.83810399999999
 30
0.0
  0
VERTEX
  5
E78
  8
0
 62
    31
 10
-169.34140400000001
 20
482.88261799999998
 30
0.0
  0
VERTEX
  5
E79
  8
0
 62
    31
 10
-169.28931
 20
482.92782599999992
 30
0.0
  0
VERTEX
  5
E7A
  8
0
 62
    31
 10
-169.24051299999999
 20
482.97281800000002
 30
0.0
  0
VERTEX
  5
E7B
  8
0
 62
    31
 10
-169.19403500000001
 20
483.01841899999999
 30
0.0
  0
VERTEX
  5
E7C
  8
0
 62
    31
 10
-169.150723
 20
483.06372099999987
 30
0.0
  0
VERTEX
  5
E7D
  8
0
 62
    31
 10
-169.10969199999991
 20
483.1095499999999
 30
0.0
  0
VERTEX
  5
E7E
  8
0
 62
    31
 10
-169.071674
 20
483.15501799999993
 30
0.0
  0
VERTEX
  5
E7F
  8
0
 62
    31
 10
-169.0359149999999
 20
483.20093899999989
 30
0.0
  0
VERTEX
  5
E80
  8
0
 62
    31
 10
-169.00300200000001
 20
483.24645600000002
 30
0.0
  0
VERTEX
  5
E81
  8
0
 62
    31
 10
-168.9723009999999
 20
483.29235599999998
 30
0.0
  0
VERTEX
  5
E82
  8
0
 62
    31
 10
-168.9442939999999
 20
483.33783499999998
 30
0.0
  0
VERTEX
  5
E83
  8
0
 62
    31
 10
-168.918453
 20
483.38363399999992
 30
0.0
  0
VERTEX
  5
E84
  8
0
 62
    31
 10
-168.89515299999991
 20
483.42901399999988
 30
0.0
  0
VERTEX
  5
E85
  8
0
 62
    31
 10
-168.87398099999999
 20
483.47465299999999
 30
0.0
  0
VERTEX
  5
E86
  8
0
 62
    31
 10
-168.85520600000001
 20
483.5198969999999
 30
0.0
  0
VERTEX
  5
E87
  8
0
 62
    31
 10
-168.8385199999999
 20
483.56534799999997
 30
0.0
  0
VERTEX
  5
E88
  8
0
 62
    31
 10
-168.8240999999999
 20
483.61044500000003
 30
0.0
  0
VERTEX
  5
E89
  8
0
 62
    31
 10
-168.8117409999999
 20
483.65569699999998
 30
0.0
  0
VERTEX
  5
E8A
  8
0
 62
    31
 10
-168.8015399999999
 20
483.70065699999998
 30
0.0
  0
VERTEX
  5
E8B
  8
0
 62
    31
 10
-168.7933689999999
 20
483.74572000000001
 30
0.0
  0
VERTEX
  5
E8C
  8
0
 62
    31
 10
-168.78728100000001
 20
483.79056700000001
 30
0.0
  0
VERTEX
  5
E8D
  8
0
 62
    31
 10
-168.78320699999989
 20
483.83546999999999
 30
0.0
  0
VERTEX
  5
E8E
  8
0
 62
    31
 10
-168.78087999999991
 20
483.90364599999992
 30
0.0
  0
SEQEND
  5
E8F
  8
0
 62
    31
  0
LINE
  5
69C
  8
0
 62
     7
 10
-120.38084000000001
 20
666.61578699999995
 30
0.0
 11
-120.38084000000001
 21
674.41577500000005
 31
0.0
  0
LINE
  5
69D
  8
0
 62
     7
 10
-117.180843
 20
668.51578099999995
 30
0.0
 11
-117.180843
 21
672.51578099999995
 31
0.0
  0
LINE
  5
69E
  8
0
 62
     7
 10
-120.38084000000001
 20
674.41577500000005
 30
0.0
 11
-123.580837
 21
674.41577500000005
 31
0.0
  0
LINE
  5
69F
  8
0
 62
     7
 10
-120.38084000000001
 20
666.61578699999995
 30
0.0
 11
-123.580837
 21
666.61578699999995
 31
0.0
  0
LINE
  5
6A0
  8
0
 62
     7
 10
-117.180843
 20
672.51578099999995
 30
0.0
 11
-123.580837
 21
672.51578099999995
 31
0.0
  0
LINE
  5
6A1
  8
0
 62
     7
 10
-117.180843
 20
668.51578099999995
 30
0.0
 11
-123.580837
 21
668.51578099999995
 31
0.0
  0
LINE
  5
6A2
  8
0
 62
     7
 10
-120.38084000000001
 20
574.41578300000003
 30
0.0
 11
-123.580837
 21
574.41578300000003
 31
0.0
  0
LINE
  5
6A3
  8
0
 62
     7
 10
-117.180843
 20
572.51578099999995
 30
0.0
 11
-123.580837
 21
572.51578099999995
 31
0.0
  0
LINE
  5
6A4
  8
0
 62
     7
 10
-117.180843
 20
568.51578099999995
 30
0.0
 11
-123.580837
 21
568.51578099999995
 31
0.0
  0
LINE
  5
6A5
  8
0
 62
     7
 10
-120.38084000000001
 20
566.61577999999986
 30
0.0
 11
-123.580837
 21
566.61577999999986
 31
0.0
  0
LINE
  5
6A6
  8
0
 62
     7
 10
-120.38084000000001
 20
566.61577999999986
 30
0.0
 11
-120.38084000000001
 21
574.41578300000003
 31
0.0
  0
LINE
  5
6A7
  8
0
 62
     7
 10
-117.180843
 20
568.51578099999995
 30
0.0
 11
-117.180843
 21
572.51578099999995
 31
0.0
  0
CIRCLE
  5
6A8
  8
0
 62
     7
 10
-120.952511
 20
570.44726900000001
 30
0.0
 40
0.4
  0
LINE
  5
6A9
  8
0
 62
     7
 10
-126.580822
 20
471.54512399999999
 30
0.0
 11
-132.48969700000001
 21
472.58701300000001
 31
0.0
  0
LINE
  5
6AA
  8
0
 62
     7
 10
-126.580822
 20
471.54512399999999
 30
0.0
 11
-132.48969700000001
 21
470.5032349999999
 31
0.0
  0
LINE
  5
6AB
  8
0
 62
     7
 10
-293.58088299999997
 20
471.5451119999999
 30
0.0
 11
-287.67207000000002
 21
470.50323099999991
 31
0.0
  0
LINE
  5
6AC
  8
0
 62
     7
 10
-293.58088299999997
 20
471.5451119999999
 30
0.0
 11
-287.67207000000002
 21
472.58700899999991
 31
0.0
  0
LINE
  5
6AD
  8
0
 62
     7
 10
-126.580822
 20
471.54512399999999
 30
0.0
 11
-293.58088299999997
 21
471.54511599999989
 31
0.0
  0
LINE
  5
6AE
  8
0
 62
     7
 10
-126.580822
 20
467.54512399999999
 30
0.0
 11
-126.580822
 21
484.3446899999999
 31
0.0
  0
LINE
  5
6AF
  8
0
 62
     7
 10
-293.58088299999997
 20
467.5451119999999
 30
0.0
 11
-293.58088299999997
 21
603.51566700000001
 31
0.0
  0
LINE
  5
6B0
  8
0
 62
     7
 10
-126.580822
 20
455.69581199999999
 30
0.0
 11
-132.48969700000001
 21
456.7377009999999
 31
0.0
  0
LINE
  5
6B1
  8
0
 62
     7
 10
-126.580822
 20
455.69581199999999
 30
0.0
 11
-132.48969700000001
 21
454.65392300000002
 31
0.0
  0
LINE
  5
6B2
  8
0
 62
     7
 10
-316.58082200000001
 20
455.6958009999999
 30
0.0
 11
-310.67194699999999
 21
454.65391499999998
 31
0.0
  0
LINE
  5
6B3
  8
0
 62
     7
 10
-316.58082200000001
 20
455.6958009999999
 30
0.0
 11
-310.67194699999999
 21
456.73769399999998
 31
0.0
  0
LINE
  5
6B4
  8
0
 62
     7
 10
-318.58082200000001
 20
455.6958009999999
 30
0.0
 11
-324.48963500000002
 21
456.73768999999999
 31
0.0
  0
LINE
  5
6B5
  8
0
 62
     7
 10
-318.58082200000001
 20
455.6958009999999
 30
0.0
 11
-324.48963500000002
 21
454.65391099999999
 31
0.0
  0
LINE
  5
6B6
  8
0
 62
     7
 10
-126.580822
 20
455.69581199999999
 30
0.0
 11
-330.08082200000001
 21
455.6958009999999
 31
0.0
  0
LINE
  5
6B7
  8
0
 62
     7
 10
-126.580822
 20
451.69581199999988
 30
0.0
 11
-126.580822
 21
484.3446899999999
 31
0.0
  0
LINE
  5
6B8
  8
0
 62
     7
 10
-316.58082200000001
 20
451.6958009999999
 30
0.0
 11
-316.58082200000001
 21
471.50478700000002
 31
0.0
  0
LINE
  5
6B9
  8
0
 62
     7
 10
-318.58082200000001
 20
451.6958009999999
 30
0.0
 11
-318.58082200000001
 21
470.91857900000002
 31
0.0
  0
LINE
  5
6BA
  8
0
 62
     7
 10
-126.580822
 20
440.07619799999998
 30
0.0
 11
-132.48969700000001
 21
441.11809099999988
 31
0.0
  0
LINE
  5
6BB
  8
0
 62
     7
 10
-126.580822
 20
440.07619799999998
 30
0.0
 11
-132.48969700000001
 21
439.03431299999988
 31
0.0
  0
LINE
  5
6BC
  8
0
 62
     7
 10
-322.08082200000001
 20
440.07619099999988
 30
0.0
 11
-316.17194699999999
 21
439.0343049999999
 31
0.0
  0
LINE
  5
6BD
  8
0
 62
     7
 10
-322.08082200000001
 20
440.07619099999988
 30
0.0
 11
-316.17194699999999
 21
441.11808400000001
 31
0.0
  0
LINE
  5
6BE
  8
0
 62
     7
 10
-126.580822
 20
440.07619799999998
 30
0.0
 11
-322.08082200000001
 21
440.07619099999988
 31
0.0
  0
LINE
  5
6BF
  8
0
 62
     7
 10
-126.580822
 20
436.07619799999998
 30
0.0
 11
-126.580822
 21
484.3446899999999
 31
0.0
  0
LINE
  5
6C0
  8
0
 62
     7
 10
-322.08082200000001
 20
436.07619099999988
 30
0.0
 11
-322.08082200000001
 21
537.76563600000009
 31
0.0
  0
LINE
  5
6C1
  8
0
 62
     7
 10
-231.476696
 20
616.51569699999993
 30
0.0
 11
-232.51856599999999
 21
610.60685299999989
 31
0.0
  0
LINE
  5
6C2
  8
0
 62
     7
 10
-231.476696
 20
616.51569699999993
 30
0.0
 11
-230.43476499999991
 21
610.60685299999989
 31
0.0
  0
LINE
  5
6C3
  8
0
 62
     7
 10
-231.476696
 20
618.26578099999995
 30
0.0
 11
-230.43476499999991
 21
624.17463299999986
 31
0.0
  0
LINE
  5
6C4
  8
0
 62
     7
 10
-231.476696
 20
618.26578099999995
 30
0.0
 11
-232.51856599999999
 21
624.17463299999986
 31
0.0
  0
LINE
  5
6C5
  8
0
 62
     7
 10
-231.476696
 20
588.51569699999993
 30
0.0
 11
-231.476696
 21
618.26578099999995
 31
0.0
  0
LINE
  5
6C6
  8
0
 62
     7
 10
-227.476696
 20
616.51569699999993
 30
0.0
 11
-280.58088299999997
 21
616.51569699999993
 31
0.0
  0
LINE
  5
6C7
  8
0
 62
     7
 10
-227.476696
 20
618.26578099999995
 30
0.0
 11
-245.143383
 21
618.26578099999995
 31
0.0
  0
LINE
  5
6C8
  8
0
 62
     7
 10
-338.36951800000003
 20
565.76577699999984
 30
0.0
 11
-337.32758699999999
 21
571.67462499999988
 31
0.0
  0
LINE
  5
6C9
  8
0
 62
     7
 10
-338.36951800000003
 20
565.76577699999984
 30
0.0
 11
-339.41138799999987
 21
571.67462499999988
 31
0.0
  0
LINE
  5
6CA
  8
0
 62
     7
 10
-338.36951800000003
 20
670.76578099999995
 30
0.0
 11
-339.41138799999987
 21
664.85692199999994
 31
0.0
  0
LINE
  5
6CB
  8
0
 62
     7
 10
-338.36951800000003
 20
670.76578099999995
 30
0.0
 11
-337.32758699999999
 21
664.85692199999994
 31
0.0
  0
LINE
  5
6CC
  8
0
 62
     7
 10
-338.36951800000003
 20
565.76577699999984
 30
0.0
 11
-338.36951800000003
 21
670.76578099999995
 31
0.0
  0
LINE
  5
6CD
  8
0
 62
     7
 10
-342.36951800000003
 20
565.76577699999984
 30
0.0
 11
-316.58082200000001
 21
565.76578099999995
 31
0.0
  0
LINE
  5
6CE
  8
0
 62
     7
 10
-342.36951800000003
 20
670.76578099999995
 30
0.0
 11
-316.58082200000001
 21
670.76578099999995
 31
0.0
  0
LINE
  5
6CF
  8
0
 62
     7
 10
-126.580822
 20
786.96295499999985
 30
0.0
 11
-132.48969700000001
 21
788.00482499999987
 31
0.0
  0
LINE
  5
6D0
  8
0
 62
     7
 10
-126.580822
 20
786.96295499999985
 30
0.0
 11
-132.48969700000001
 21
785.92105500000002
 31
0.0
  0
LINE
  5
6D1
  8
0
 62
     7
 10
-206.0808219999999
 20
786.96295499999985
 30
0.0
 11
-200.1719469999999
 21
785.92105500000002
 31
0.0
  0
LINE
  5
6D2
  8
0
 62
     7
 10
-206.0808219999999
 20
786.96295499999985
 30
0.0
 11
-200.1719469999999
 21
788.00482499999987
 31
0.0
  0
LINE
  5
6D3
  8
0
 62
     7
 10
-126.580822
 20
786.96295499999985
 30
0.0
 11
-206.0808219999999
 21
786.96295499999985
 31
0.0
  0
LINE
  5
6D4
  8
0
 62
     7
 10
-126.580822
 20
790.96295499999997
 30
0.0
 11
-126.580822
 21
761.17715799999996
 31
0.0
  0
LINE
  5
6D5
  8
0
 62
     7
 10
-206.0808219999999
 20
790.96295499999997
 30
0.0
 11
-206.0808219999999
 21
744.26579699999991
 31
0.0
  0
LINE
  5
6D6
  8
0
 62
     7
 10
-102.2589839999999
 20
618.26578099999995
 30
0.0
 11
-101.217113
 21
624.17463299999986
 31
0.0
  0
LINE
  5
6D7
  8
0
 62
     7
 10
-102.2589839999999
 20
618.26578099999995
 30
0.0
 11
-103.3008539999999
 21
624.17463299999986
 31
0.0
  0
LINE
  5
6D8
  8
0
 62
     7
 10
-102.2589839999999
 20
725.51578099999995
 30
0.0
 11
-103.3008539999999
 21
719.60692199999994
 31
0.0
  0
LINE
  5
6D9
  8
0
 62
     7
 10
-102.2589839999999
 20
725.51578099999995
 30
0.0
 11
-101.217113
 21
719.60692199999994
 31
0.0
  0
LINE
  5
6DA
  8
0
 62
     7
 10
-102.2589839999999
 20
618.26578099999995
 30
0.0
 11
-102.2589839999999
 21
725.51578099999995
 31
0.0
  0
LINE
  5
6DB
  8
0
 62
     7
 10
-98.258983999999984
 20
618.26578099999995
 30
0.0
 11
-105.00837299999991
 21
618.26578099999995
 31
0.0
  0
LINE
  5
6DC
  8
0
 62
     7
 10
-98.258983999999984
 20
725.51578099999995
 30
0.0
 11
-155.39930299999989
 21
725.51576599999999
 31
0.0
  0
LINE
  5
6DD
  8
0
 62
     7
 10
-82.299022999999991
 20
515.51580599999988
 30
0.0
 11
-81.257092000000014
 21
521.42465300000003
 31
0.0
  0
LINE
  5
6DE
  8
0
 62
     7
 10
-82.299022999999991
 20
515.51580599999988
 30
0.0
 11
-83.340892999999994
 21
521.42465300000003
 31
0.0
  0
LINE
  5
6DF
  8
0
 62
     7
 10
-82.299022999999991
 20
725.51578099999995
 30
0.0
 11
-83.340892999999994
 21
719.60692199999994
 31
0.0
  0
LINE
  5
6E0
  8
0
 62
     7
 10
-82.299022999999991
 20
725.51578099999995
 30
0.0
 11
-81.257092000000014
 21
719.60692199999994
 31
0.0
  0
LINE
  5
6E1
  8
0
 62
     7
 10
-82.299022999999991
 20
515.51580599999988
 30
0.0
 11
-82.299022999999991
 21
725.51576599999999
 31
0.0
  0
LINE
  5
6E2
  8
0
 62
     7
 10
-78.299022999999991
 20
515.51580599999988
 30
0.0
 11
-155.39930299999989
 21
515.51580299999989
 31
0.0
  0
LINE
  5
6E3
  8
0
 62
     7
 10
-78.299022999999991
 20
725.51578099999995
 30
0.0
 11
-155.39930299999989
 21
725.51576599999999
 31
0.0
  0
LINE
  5
6E4
  8
0
 62
     7
 10
-123.580822
 20
772.42221399999994
 30
0.0
 11
-117.672009
 21
771.380314
 31
0.0
  0
LINE
  5
6E5
  8
0
 62
     7
 10
-123.580822
 20
772.42221399999994
 30
0.0
 11
-117.672009
 21
773.46411499999988
 31
0.0
  0
LINE
  5
6E6
  8
0
 62
     7
 10
-126.580822
 20
772.42221399999994
 30
0.0
 11
-132.48969700000001
 21
773.46411499999988
 31
0.0
  0
LINE
  5
6E7
  8
0
 62
     7
 10
-126.580822
 20
772.42221399999994
 30
0.0
 11
-132.48969700000001
 21
771.380314
 31
0.0
  0
LINE
  5
6E8
  8
0
 62
     7
 10
-162.58088299999989
 20
772.42221399999994
 30
0.0
 11
-156.672009
 21
771.380314
 31
0.0
  0
LINE
  5
6E9
  8
0
 62
     7
 10
-162.58088299999989
 20
772.42221399999994
 30
0.0
 11
-156.672009
 21
773.46411499999988
 31
0.0
  0
LINE
  5
6EA
  8
0
 62
     7
 10
-174.98090699999989
 20
772.42221399999994
 30
0.0
 11
-180.88972099999989
 21
773.46411499999988
 31
0.0
  0
LINE
  5
6EB
  8
0
 62
     7
 10
-174.98090699999989
 20
772.42221399999994
 30
0.0
 11
-180.88972099999989
 21
771.380314
 31
0.0
  0
LINE
  5
6EC
  8
0
 62
     7
 10
-104.92011599999989
 20
772.42221399999994
 30
0.0
 11
-206.485973
 21
772.42221399999994
 31
0.0
  0
LINE
  5
6ED
  8
0
 62
     7
 10
-123.580822
 20
776.42221399999994
 30
0.0
 11
-123.580822
 21
760.89810499999987
 31
0.0
  0
LINE
  5
6EE
  8
0
 62
     7
 10
-126.580822
 20
776.42221399999994
 30
0.0
 11
-126.580822
 21
761.17715799999996
 31
0.0
  0
LINE
  5
6EF
  8
0
 62
     7
 10
-162.58088299999989
 20
776.42221399999994
 30
0.0
 11
-162.58088299999989
 21
738.51578099999995
 31
0.0
  0
LINE
  5
6F0
  8
0
 62
     7
 10
-174.98090699999989
 20
776.42221399999994
 30
0.0
 11
-174.98090699999989
 21
738.51578099999995
 31
0.0
  0
LINE
  5
6F1
  8
0
 62
     7
 10
-291.59266300000002
 20
614.61586399999999
 30
0.0
 11
-288.04041699999988
 21
609.78041399999995
 31
0.0
  0
LINE
  5
6F2
  8
0
 62
     7
 10
-291.59266300000002
 20
614.61586399999999
 30
0.0
 11
-286.600842
 21
611.28695999999979
 31
0.0
  0
LINE
  5
6F3
  8
0
 62
     7
 10
-295.56910299999998
 20
618.41557699999998
 30
0.0
 11
-299.12134900000001
 21
623.251034
 31
0.0
  0
LINE
  5
6F4
  8
0
 62
     7
 10
-295.56910299999998
 20
618.41557699999998
 30
0.0
 11
-300.560925
 21
621.74447999999995
 31
0.0
  0
LINE
  5
6F5
  8
0
 62
     7
 10
-295.56910299999998
 20
618.41558399999985
 30
0.0
 11
-262.32093399999991
 21
586.64498499999991
 31
0.0
  0
POINT
  5
6F6
  8
0
 62
     7
 10
876.55122400000005
 20
590.51578099999995
 30
0.0
  0
LINE
  5
6F7
  8
0
 62
     7
 10
710.55122400000005
 20
555.26578099999995
 30
0.0
 11
845.55122400000005
 21
555.26578099999995
 31
0.0
  0
LINE
  5
6F8
  8
0
 62
     7
 10
710.55122400000005
 20
681.26578099999995
 30
0.0
 11
845.55122400000005
 21
681.26578099999995
 31
0.0
  0
LINE
  5
6F9
  8
0
 62
     7
 10
845.55122400000005
 20
681.26578099999995
 30
0.0
 11
845.55122400000005
 21
599.01578099999995
 31
0.0
  0
LINE
  5
6FA
  8
0
 62
     7
 10
710.55122400000005
 20
681.26578099999995
 30
0.0
 11
710.55122400000005
 21
555.26578099999995
 31
0.0
  0
LINE
  5
6FB
  8
0
  6
DASHDOT
 62
     7
 10
827.65127899999993
 20
591.01578099999995
 30
0.0
 11
883.57244900000001
 21
591.01578099999995
 31
0.0
  0
LINE
  5
6FC
  8
0
 62
     7
 10
845.55122400000005
 20
599.01578099999995
 30
0.0
 11
868.55122400000005
 21
599.01578099999995
 31
0.0
  0
LINE
  5
6FD
  8
0
 62
     7
 10
845.55122400000005
 20
583.01578099999995
 30
0.0
 11
868.55122400000005
 21
583.01578099999995
 31
0.0
  0
ARC
  5
6FE
  8
0
 62
     7
 10
868.55122400000005
 20
591.01578099999995
 30
0.0
 40
8.0
 50
270.0
 51
90.000005000000002
  0
LINE
  5
6FF
  8
0
 62
     7
 10
845.55122400000005
 20
583.01578099999995
 30
0.0
 11
845.55122400000005
 21
555.26578099999995
 31
0.0
  0
LINE
  5
700
  8
0
  6
DASHDOT
 62
     7
 10
782.55122400000005
 20
720.77574500000003
 30
0.0
 11
782.55122400000005
 21
525.68505500000003
 31
0.0
  0
CIRCLE
  5
701
  8
0
 62
     7
 10
738.55122400000005
 20
689.26578099999995
 30
0.0
 40
3.5
  0
CIRCLE
  5
702
  8
0
 62
     7
 10
863.55122400000005
 20
689.26578099999995
 30
0.0
 40
4.0
  0
CIRCLE
  5
703
  8
0
 62
     7
 10
863.55122400000005
 20
618.26578099999995
 30
0.0
 40
4.0
  0
CIRCLE
  5
704
  8
0
 62
     7
 10
863.55122400000005
 20
547.26578099999995
 30
0.0
 40
3.5
  0
CIRCLE
  5
705
  8
0
 62
     7
 10
738.55122400000005
 20
547.26578099999995
 30
0.0
 40
4.0
  0
LINE
  5
706
  8
0
  6
DASHDOT
 62
     7
 10
738.55122400000005
 20
695.76578099999995
 30
0.0
 11
738.55122400000005
 21
682.76578099999995
 31
0.0
  0
LINE
  5
707
  8
0
  6
DASHDOT
 62
     7
 10
732.05122400000005
 20
689.26578099999995
 30
0.0
 11
745.05122400000005
 21
689.26578099999995
 31
0.0
  0
LINE
  5
708
  8
0
  6
DASHDOT
 62
     7
 10
863.55122400000005
 20
695.76578099999995
 30
0.0
 11
863.55122400000005
 21
682.76578099999995
 31
0.0
  0
LINE
  5
709
  8
0
  6
DASHDOT
 62
     7
 10
857.05122400000005
 20
689.26578099999995
 30
0.0
 11
870.05122400000005
 21
689.26578099999995
 31
0.0
  0
LINE
  5
70A
  8
0
  6
DASHDOT
 62
     7
 10
863.55122400000005
 20
624.76578099999995
 30
0.0
 11
863.55122400000005
 21
611.76578099999995
 31
0.0
  0
LINE
  5
70B
  8
0
  6
DASHDOT
 62
     7
 10
857.05122400000005
 20
618.26578099999995
 30
0.0
 11
870.05122400000005
 21
618.26578099999995
 31
0.0
  0
LINE
  5
70C
  8
0
  6
DASHDOT
 62
     7
 10
863.55122400000005
 20
553.76578099999995
 30
0.0
 11
863.55122400000005
 21
540.76578099999995
 31
0.0
  0
LINE
  5
70D
  8
0
  6
DASHDOT
 62
     7
 10
857.05122400000005
 20
547.26578099999995
 30
0.0
 11
870.05122400000005
 21
547.26578099999995
 31
0.0
  0
LINE
  5
70E
  8
0
  6
DASHDOT
 62
     7
 10
738.55122400000005
 20
553.76578099999995
 30
0.0
 11
738.55122400000005
 21
540.76578099999995
 31
0.0
  0
LINE
  5
70F
  8
0
  6
DASHDOT
 62
     7
 10
732.05122400000005
 20
547.26578099999995
 30
0.0
 11
745.05122400000005
 21
547.26578099999995
 31
0.0
  0
POLYLINE
  5
710
  8
0
 62
     7
 66
     1
 10
0.0
 20
0.0
 30
0.0
  0
VERTEX
  5
E90
  8
0
 62
     7
 10
686.85298899999987
 20
701.26578099999995
 30
0.0
  0
VERTEX
  5
E91
  8
0
 62
     7
 10
702.85298899999987
 20
701.26578099999995
 30
0.0
  0
VERTEX
  5
E92
  8
0
 62
     7
 10
703.85298899999987
 20
703.26578099999995
 30
0.0
  0
VERTEX
  5
E93
  8
0
 62
     7
 10
704.85298899999998
 20
699.26578099999995
 30
0.0
  0
VERTEX
  5
E94
  8
0
 62
     7
 10
705.85298899999987
 20
701.26578099999995
 30
0.0
  0
VERTEX
  5
E95
  8
0
 62
     7
 10
721.85298899999998
 20
701.26578099999995
 30
0.0
  0
VERTEX
  5
E96
  8
0
 62
     7
 10
722.85298899999987
 20
703.26578099999995
 30
0.0
  0
VERTEX
  5
E97
  8
0
 62
     7
 10
723.85298899999987
 20
699.26578099999995
 30
0.0
  0
VERTEX
  5
E98
  8
0
 62
     7
 10
724.85298899999998
 20
701.26578099999995
 30
0.0
  0
VERTEX
  5
E99
  8
0
 62
     7
 10
740.85298899999987
 20
701.26578099999995
 30
0.0
  0
VERTEX
  5
E9A
  8
0
 62
     7
 10
741.85298899999998
 20
703.26578099999995
 30
0.0
  0
VERTEX
  5
E9B
  8
0
 62
     7
 10
742.85298899999998
 20
699.26578099999995
 30
0.0
  0
VERTEX
  5
E9C
  8
0
 62
     7
 10
743.85298899999987
 20
701.26578099999995
 30
0.0
  0
VERTEX
  5
E9D
  8
0
 62
     7
 10
759.85298899999998
 20
701.26578099999995
 30
0.0
  0
VERTEX
  5
E9E
  8
0
 62
     7
 10
760.85298899999987
 20
703.26578099999995
 30
0.0
  0
VERTEX
  5
E9F
  8
0
 62
     7
 10
761.85298899999987
 20
699.26578099999995
 30
0.0
  0
VERTEX
  5
EA0
  8
0
 62
     7
 10
762.85298899999998
 20
701.26578099999995
 30
0.0
  0
VERTEX
  5
EA1
  8
0
 62
     7
 10
778.85298899999998
 20
701.26578099999995
 30
0.0
  0
VERTEX
  5
EA2
  8
0
 62
     7
 10
779.85298899999998
 20
703.26578099999995
 30
0.0
  0
VERTEX
  5
EA3
  8
0
 62
     7
 10
780.85298899999987
 20
699.26578099999995
 30
0.0
  0
VERTEX
  5
EA4
  8
0
 62
     7
 10
781.85298899999987
 20
701.26578099999995
 30
0.0
  0
VERTEX
  5
EA5
  8
0
 62
     7
 10
797.85298899999987
 20
701.26578099999995
 30
0.0
  0
VERTEX
  5
EA6
  8
0
 62
     7
 10
798.85298899999987
 20
703.26578099999995
 30
0.0
  0
VERTEX
  5
EA7
  8
0
 62
     7
 10
799.85298899999998
 20
699.26578099999995
 30
0.0
  0
VERTEX
  5
EA8
  8
0
 62
     7
 10
800.85298899999998
 20
701.26578099999995
 30
0.0
  0
VERTEX
  5
EA9
  8
0
 62
     7
 10
816.85298899999998
 20
701.26578099999995
 30
0.0
  0
VERTEX
  5
EAA
  8
0
 62
     7
 10
817.85298899999998
 20
703.26578099999995
 30
0.0
  0
VERTEX
  5
EAB
  8
0
 62
     7
 10
818.85298899999987
 20
699.26578099999995
 30
0.0
  0
VERTEX
  5
EAC
  8
0
 62
     7
 10
819.85298899999987
 20
701.26578099999995
 30
0.0
  0
VERTEX
  5
EAD
  8
0
 62
     7
 10
835.85298899999987
 20
701.26578099999995
 30
0.0
  0
VERTEX
  5
EAE
  8
0
 62
     7
 10
836.85298899999987
 20
703.26578099999995
 30
0.0
  0
VERTEX
  5
EAF
  8
0
 62
     7
 10
837.85298899999987
 20
699.26578099999995
 30
0.0
  0
VERTEX
  5
EB0
  8
0
 62
     7
 10
838.85298899999987
 20
701.26578099999995
 30
0.0
  0
VERTEX
  5
EB1
  8
0
 62
     7
 10
854.85298900000009
 20
701.26578099999995
 30
0.0
  0
VERTEX
  5
EB2
  8
0
 62
     7
 10
855.85298899999998
 20
703.26578099999995
 30
0.0
  0
VERTEX
  5
EB3
  8
0
 62
     7
 10
856.85298899999998
 20
699.26578099999995
 30
0.0
  0
VERTEX
  5
EB4
  8
0
 62
     7
 10
857.85298899999998
 20
701.26578099999995
 30
0.0
  0
VERTEX
  5
EB5
  8
0
 62
     7
 10
873.85298899999998
 20
701.26578099999995
 30
0.0
  0
VERTEX
  5
EB6
  8
0
 62
     7
 10
874.85298899999998
 20
703.26578099999995
 30
0.0
  0
VERTEX
  5
EB7
  8
0
 62
     7
 10
875.85298900000009
 20
699.26578099999995
 30
0.0
  0
VERTEX
  5
EB8
  8
0
 62
     7
 10
876.85298900000009
 20
701.26578099999995
 30
0.0
  0
VERTEX
  5
EB9
  8
0
 62
     7
 10
885.20121799999993
 20
701.26578099999995
 30
0.0
  0
SEQEND
  5
EBA
  8
0
 62
     7
  0
POLYLINE
  5
73C
  8
0
 62
     7
 66
     1
 10
0.0
 20
0.0
 30
0.0
  0
VERTEX
  5
EBB
  8
0
 62
     7
 10
684.319344
 20
535.26578099999995
 30
0.0
  0
VERTEX
  5
EBC
  8
0
 62
     7
 10
700.319344
 20
535.26578099999995
 30
0.0
  0
VERTEX
  5
EBD
  8
0
 62
     7
 10
701.319344
 20
537.26578099999995
 30
0.0
  0
VERTEX
  5
EBE
  8
0
 62
     7
 10
702.319344
 20
533.26578099999995
 30
0.0
  0
VERTEX
  5
EBF
  8
0
 62
     7
 10
703.31934399999989
 20
535.26578099999995
 30
0.0
  0
VERTEX
  5
EC0
  8
0
 62
     7
 10
719.31934399999989
 20
535.26578099999995
 30
0.0
  0
VERTEX
  5
EC1
  8
0
 62
     7
 10
720.31934399999989
 20
537.26578099999995
 30
0.0
  0
VERTEX
  5
EC2
  8
0
 62
     7
 10
721.319344
 20
533.26578099999995
 30
0.0
  0
VERTEX
  5
EC3
  8
0
 62
     7
 10
722.319344
 20
535.26578099999995
 30
0.0
  0
VERTEX
  5
EC4
  8
0
 62
     7
 10
738.319344
 20
535.26578099999995
 30
0.0
  0
VERTEX
  5
EC5
  8
0
 62
     7
 10
739.319344
 20
537.26578099999995
 30
0.0
  0
VERTEX
  5
EC6
  8
0
 62
     7
 10
740.31934399999989
 20
533.26578099999995
 30
0.0
  0
VERTEX
  5
EC7
  8
0
 62
     7
 10
741.319344
 20
535.26578099999995
 30
0.0
  0
VERTEX
  5
EC8
  8
0
 62
     7
 10
757.31934399999989
 20
535.26578099999995
 30
0.0
  0
VERTEX
  5
EC9
  8
0
 62
     7
 10
758.319344
 20
537.26578099999995
 30
0.0
  0
VERTEX
  5
ECA
  8
0
 62
     7
 10
759.319344
 20
533.26578099999995
 30
0.0
  0
VERTEX
  5
ECB
  8
0
 62
     7
 10
760.319344
 20
535.26578099999995
 30
0.0
  0
VERTEX
  5
ECC
  8
0
 62
     7
 10
776.319344
 20
535.26578099999995
 30
0.0
  0
VERTEX
  5
ECD
  8
0
 62
     7
 10
777.319344
 20
537.26578099999995
 30
0.0
  0
VERTEX
  5
ECE
  8
0
 62
     7
 10
778.31934399999989
 20
533.26578099999995
 30
0.0
  0
VERTEX
  5
ECF
  8
0
 62
     7
 10
779.319344
 20
535.26578099999995
 30
0.0
  0
VERTEX
  5
ED0
  8
0
 62
     7
 10
795.319344
 20
535.26578099999995
 30
0.0
  0
VERTEX
  5
ED1
  8
0
 62
     7
 10
796.319344
 20
537.26578099999995
 30
0.0
  0
VERTEX
  5
ED2
  8
0
 62
     7
 10
797.319344
 20
533.26578099999995
 30
0.0
  0
VERTEX
  5
ED3
  8
0
 62
     7
 10
798.31934399999989
 20
535.26578099999995
 30
0.0
  0
VERTEX
  5
ED4
  8
0
 62
     7
 10
814.31934400000011
 20
535.26578099999995
 30
0.0
  0
VERTEX
  5
ED5
  8
0
 62
     7
 10
815.319344
 20
537.26578099999995
 30
0.0
  0
VERTEX
  5
ED6
  8
0
 62
     7
 10
816.319344
 20
533.26578099999995
 30
0.0
  0
VERTEX
  5
ED7
  8
0
 62
     7
 10
817.319344
 20
535.26578099999995
 30
0.0
  0
VERTEX
  5
ED8
  8
0
 62
     7
 10
833.319344
 20
535.26578099999995
 30
0.0
  0
VERTEX
  5
ED9
  8
0
 62
     7
 10
834.319344
 20
537.26578099999995
 30
0.0
  0
VERTEX
  5
EDA
  8
0
 62
     7
 10
835.319344
 20
533.26578099999995
 30
0.0
  0
VERTEX
  5
EDB
  8
0
 62
     7
 10
836.31934399999989
 20
535.26578099999995
 30
0.0
  0
VERTEX
  5
EDC
  8
0
 62
     7
 10
852.319344
 20
535.26578099999995
 30
0.0
  0
VERTEX
  5
EDD
  8
0
 62
     7
 10
853.31934399999989
 20
537.26578099999995
 30
0.0
  0
VERTEX
  5
EDE
  8
0
 62
     7
 10
854.31934399999989
 20
533.26578099999995
 30
0.0
  0
VERTEX
  5
EDF
  8
0
 62
     7
 10
855.31934399999989
 20
535.26578099999995
 30
0.0
  0
VERTEX
  5
EE0
  8
0
 62
     7
 10
871.31934399999989
 20
535.26578099999995
 30
0.0
  0
VERTEX
  5
EE1
  8
0
 62
     7
 10
872.31934400000011
 20
537.26578099999995
 30
0.0
  0
VERTEX
  5
EE2
  8
0
 62
     7
 10
873.319344
 20
533.26578099999995
 30
0.0
  0
VERTEX
  5
EE3
  8
0
 62
     7
 10
874.319344
 20
535.26578099999995
 30
0.0
  0
VERTEX
  5
EE4
  8
0
 62
     7
 10
887.01097100000015
 20
535.26578099999995
 30
0.0
  0
SEQEND
  5
EE5
  8
0
 62
     7
  0
POLYLINE
  5
768
  8
0
 62
     7
 66
     1
 10
0.0
 20
0.0
 30
0.0
  0
VERTEX
  5
EE6
  8
0
 62
     7
 10
883.55122399999993
 20
704.58596399999988
 30
0.0
  0
VERTEX
  5
EE7
  8
0
 62
     7
 10
883.55122399999993
 20
688.58596399999988
 30
0.0
  0
VERTEX
  5
EE8
  8
0
 62
     7
 10
885.55122400000005
 20
687.58596399999988
 30
0.0
  0
VERTEX
  5
EE9
  8
0
 62
     7
 10
881.55122400000005
 20
686.58596399999999
 30
0.0
  0
VERTEX
  5
EEA
  8
0
 62
     7
 10
883.55122399999993
 20
685.58596399999999
 30
0.0
  0
VERTEX
  5
EEB
  8
0
 62
     7
 10
883.55122399999993
 20
669.58596399999999
 30
0.0
  0
VERTEX
  5
EEC
  8
0
 62
     7
 10
885.55122400000005
 20
668.58596399999999
 30
0.0
  0
VERTEX
  5
EED
  8
0
 62
     7
 10
881.55122400000005
 20
667.58596399999988
 30
0.0
  0
VERTEX
  5
EEE
  8
0
 62
     7
 10
883.55122399999993
 20
666.58596399999988
 30
0.0
  0
VERTEX
  5
EEF
  8
0
 62
     7
 10
883.55122399999993
 20
650.58596399999988
 30
0.0
  0
VERTEX
  5
EF0
  8
0
 62
     7
 10
885.55122400000005
 20
649.58596399999988
 30
0.0
  0
VERTEX
  5
EF1
  8
0
 62
     7
 10
881.55122400000005
 20
648.58596399999999
 30
0.0
  0
VERTEX
  5
EF2
  8
0
 62
     7
 10
883.55122399999993
 20
647.58596399999999
 30
0.0
  0
VERTEX
  5
EF3
  8
0
 62
     7
 10
883.55122399999993
 20
631.58596399999999
 30
0.0
  0
VERTEX
  5
EF4
  8
0
 62
     7
 10
885.55122400000005
 20
630.58596399999999
 30
0.0
  0
VERTEX
  5
EF5
  8
0
 62
     7
 10
881.55122400000005
 20
629.58596399999988
 30
0.0
  0
VERTEX
  5
EF6
  8
0
 62
     7
 10
883.55122399999993
 20
628.58596399999988
 30
0.0
  0
VERTEX
  5
EF7
  8
0
 62
     7
 10
883.55122399999993
 20
612.58596399999988
 30
0.0
  0
VERTEX
  5
EF8
  8
0
 62
     7
 10
885.55122400000005
 20
611.58596399999999
 30
0.0
  0
VERTEX
  5
EF9
  8
0
 62
     7
 10
881.55122400000005
 20
610.58596399999999
 30
0.0
  0
VERTEX
  5
EFA
  8
0
 62
     7
 10
883.55122399999993
 20
609.58596399999999
 30
0.0
  0
VERTEX
  5
EFB
  8
0
 62
     7
 10
883.55122399999993
 20
593.58596399999999
 30
0.0
  0
VERTEX
  5
EFC
  8
0
 62
     7
 10
885.55122400000005
 20
592.58596399999988
 30
0.0
  0
VERTEX
  5
EFD
  8
0
 62
     7
 10
881.55122400000005
 20
591.58596399999988
 30
0.0
  0
VERTEX
  5
EFE
  8
0
 62
     7
 10
883.55122399999993
 20
590.58596399999999
 30
0.0
  0
VERTEX
  5
EFF
  8
0
 62
     7
 10
883.55122399999993
 20
574.58596399999988
 30
0.0
  0
VERTEX
  5
F00
  8
0
 62
     7
 10
885.55122400000005
 20
573.58596399999999
 30
0.0
  0
VERTEX
  5
F01
  8
0
 62
     7
 10
881.55122400000005
 20
572.58596399999999
 30
0.0
  0
VERTEX
  5
F02
  8
0
 62
     7
 10
883.55122399999993
 20
571.58596399999988
 30
0.0
  0
VERTEX
  5
F03
  8
0
 62
     7
 10
883.55122399999993
 20
555.58596399999999
 30
0.0
  0
VERTEX
  5
F04
  8
0
 62
     7
 10
885.55122400000005
 20
554.58596399999988
 30
0.0
  0
VERTEX
  5
F05
  8
0
 62
     7
 10
881.55122400000005
 20
553.58596399999988
 30
0.0
  0
VERTEX
  5
F06
  8
0
 62
     7
 10
883.55122399999993
 20
552.58596399999999
 30
0.0
  0
VERTEX
  5
F07
  8
0
 62
     7
 10
883.55122399999993
 20
536.58596399999999
 30
0.0
  0
VERTEX
  5
F08
  8
0
 62
     7
 10
885.55122400000005
 20
535.58596399999999
 30
0.0
  0
VERTEX
  5
F09
  8
0
 62
     7
 10
881.55122400000005
 20
534.58596399999988
 30
0.0
  0
VERTEX
  5
F0A
  8
0
 62
     7
 10
883.55122399999993
 20
533.58596399999988
 30
0.0
  0
VERTEX
  5
F0B
  8
0
 62
     7
 10
883.55122399999993
 20
531.57418399999995
 30
0.0
  0
SEQEND
  5
F0C
  8
0
 62
     7
  0
POLYLINE
  5
790
  8
0
 62
     7
 66
     1
 10
0.0
 20
0.0
 30
0.0
  0
VERTEX
  5
F0D
  8
0
 62
     7
 10
690.55122400000005
 20
704.58596399999988
 30
0.0
  0
VERTEX
  5
F0E
  8
0
 62
     7
 10
690.55122400000005
 20
688.58596399999988
 30
0.0
  0
VERTEX
  5
F0F
  8
0
 62
     7
 10
692.55122400000005
 20
687.58596399999988
 30
0.0
  0
VERTEX
  5
F10
  8
0
 62
     7
 10
688.55122400000005
 20
686.58596399999999
 30
0.0
  0
VERTEX
  5
F11
  8
0
 62
     7
 10
690.55122400000005
 20
685.58596399999999
 30
0.0
  0
VERTEX
  5
F12
  8
0
 62
     7
 10
690.55122400000005
 20
669.58596399999999
 30
0.0
  0
VERTEX
  5
F13
  8
0
 62
     7
 10
692.55122400000005
 20
668.58596399999999
 30
0.0
  0
VERTEX
  5
F14
  8
0
 62
     7
 10
688.55122400000005
 20
667.58596399999988
 30
0.0
  0
VERTEX
  5
F15
  8
0
 62
     7
 10
690.55122400000005
 20
666.58596399999988
 30
0.0
  0
VERTEX
  5
F16
  8
0
 62
     7
 10
690.55122400000005
 20
650.58596399999988
 30
0.0
  0
VERTEX
  5
F17
  8
0
 62
     7
 10
692.55122400000005
 20
649.58596399999988
 30
0.0
  0
VERTEX
  5
F18
  8
0
 62
     7
 10
688.55122400000005
 20
648.58596399999999
 30
0.0
  0
VERTEX
  5
F19
  8
0
 62
     7
 10
690.55122400000005
 20
647.58596399999999
 30
0.0
  0
VERTEX
  5
F1A
  8
0
 62
     7
 10
690.55122400000005
 20
631.58596399999999
 30
0.0
  0
VERTEX
  5
F1B
  8
0
 62
     7
 10
692.55122400000005
 20
630.58596399999999
 30
0.0
  0
VERTEX
  5
F1C
  8
0
 62
     7
 10
688.55122400000005
 20
629.58596399999988
 30
0.0
  0
VERTEX
  5
F1D
  8
0
 62
     7
 10
690.55122400000005
 20
628.58596399999988
 30
0.0
  0
VERTEX
  5
F1E
  8
0
 62
     7
 10
690.55122400000005
 20
612.58596399999988
 30
0.0
  0
VERTEX
  5
F1F
  8
0
 62
     7
 10
692.55122400000005
 20
611.58596399999999
 30
0.0
  0
VERTEX
  5
F20
  8
0
 62
     7
 10
688.55122400000005
 20
610.58596399999999
 30
0.0
  0
VERTEX
  5
F21
  8
0
 62
     7
 10
690.55122400000005
 20
609.58596399999999
 30
0.0
  0
VERTEX
  5
F22
  8
0
 62
     7
 10
690.55122400000005
 20
593.58596399999999
 30
0.0
  0
VERTEX
  5
F23
  8
0
 62
     7
 10
692.55122400000005
 20
592.58596399999988
 30
0.0
  0
VERTEX
  5
F24
  8
0
 62
     7
 10
688.55122400000005
 20
591.58596399999988
 30
0.0
  0
VERTEX
  5
F25
  8
0
 62
     7
 10
690.55122400000005
 20
590.58596399999999
 30
0.0
  0
VERTEX
  5
F26
  8
0
 62
     7
 10
690.55122400000005
 20
574.58596399999988
 30
0.0
  0
VERTEX
  5
F27
  8
0
 62
     7
 10
692.55122400000005
 20
573.58596399999999
 30
0.0
  0
VERTEX
  5
F28
  8
0
 62
     7
 10
688.55122400000005
 20
572.58596399999999
 30
0.0
  0
VERTEX
  5
F29
  8
0
 62
     7
 10
690.55122400000005
 20
571.58596399999988
 30
0.0
  0
VERTEX
  5
F2A
  8
0
 62
     7
 10
690.55122400000005
 20
555.58596399999999
 30
0.0
  0
VERTEX
  5
F2B
  8
0
 62
     7
 10
692.55122400000005
 20
554.58596399999988
 30
0.0
  0
VERTEX
  5
F2C
  8
0
 62
     7
 10
688.55122400000005
 20
553.58596399999988
 30
0.0
  0
VERTEX
  5
F2D
  8
0
 62
     7
 10
690.55122400000005
 20
552.58596399999999
 30
0.0
  0
VERTEX
  5
F2E
  8
0
 62
     7
 10
690.55122400000005
 20
536.58596399999999
 30
0.0
  0
VERTEX
  5
F2F
  8
0
 62
     7
 10
692.55122400000005
 20
535.58596399999999
 30
0.0
  0
VERTEX
  5
F30
  8
0
 62
     7
 10
688.55122400000005
 20
534.58596399999988
 30
0.0
  0
VERTEX
  5
F31
  8
0
 62
     7
 10
690.55122400000005
 20
533.58596399999988
 30
0.0
  0
VERTEX
  5
F32
  8
0
 62
     7
 10
690.55122400000005
 20
529.22150799999997
 30
0.0
  0
SEQEND
  5
F33
  8
0
 62
     7
  0
LINE
  5
7B8
  8
0
  6
DASHDOT
 62
     7
 10
672.70832800000005
 20
618.26578099999995
 30
0.0
 11
894.52214100000003
 21
618.26578099999995
 31
0.0
  0
CIRCLE
  5
7B9
  8
0
 62
     7
 10
805.05122399999993
 20
690.76578099999995
 30
0.0
 40
2.0
  0
CIRCLE
  5
7BA
  8
0
 62
     7
 10
760.05122400000005
 20
690.76578099999995
 30
0.0
 40
2.0
  0
CIRCLE
  5
7BB
  8
0
 62
     7
 10
805.05122399999993
 20
690.76578099999995
 30
0.0
 40
3.6800000000000002
  0
CIRCLE
  5
7BC
  8
0
 62
     7
 10
760.05122400000005
 20
690.76578099999995
 30
0.0
 40
3.6800000000000002
  0
LINE
  5
7BD
  8
0
  6
DASHDOT
 62
     7
 10
805.05122399999993
 20
697.44578200000001
 30
0.0
 11
805.05122399999993
 21
684.085781
 31
0.0
  0
LINE
  5
7BE
  8
0
  6
DASHDOT
 62
     7
 10
798.37122299999999
 20
690.76578099999995
 30
0.0
 11
811.731224
 21
690.76578099999995
 31
0.0
  0
LINE
  5
7BF
  8
0
  6
DASHDOT
 62
     7
 10
760.05122400000005
 20
697.44578200000001
 30
0.0
 11
760.05122400000005
 21
684.085781
 31
0.0
  0
LINE
  5
7C0
  8
0
  6
DASHDOT
 62
     7
 10
753.37122299999999
 20
690.76578099999995
 30
0.0
 11
766.731224
 21
690.76578099999995
 31
0.0
  0
CIRCLE
  5
7C1
  8
0
 62
     7
 10
875.04538699999989
 20
568.61723700000005
 30
0.0
 40
0.4
  0
LINE
  5
7C2
  8
0
 62
     7
 10
692.88134000000002
 20
790.41403600000001
 30
0.0
 11
753.79314599999998
 21
695.60775399999989
 31
0.0
  0
LINE
  5
7C3
  8
0
 62
     7
 10
611.08474699999999
 20
790.41403600000001
 30
0.0
 11
692.88134000000002
 21
790.41403600000001
 31
0.0
  0
LINE
  5
7C4
  8
0
 62
     7
 10
746.60378600000001
 20
702.14493200000004
 30
0.0
 11
753.79314599999998
 21
695.60775399999989
 31
0.0
  0
LINE
  5
7C5
  8
0
 62
     7
 10
751.10564799999997
 20
704.018551
 30
0.0
 11
753.79314599999998
 21
695.60775399999989
 31
0.0
  0
LINE
  5
7C6
  8
0
 62
     7
 10
782.55122400000005
 20
759.45044299999995
 30
0.0
 11
794.36891200000002
 21
757.36667199999999
 31
0.0
  0
LINE
  5
7C7
  8
0
 62
     7
 10
782.55122400000005
 20
759.45044299999995
 30
0.0
 11
794.36891200000002
 21
761.53421400000002
 31
0.0
  0
LINE
  5
7C8
  8
0
 62
     7
 10
845.55122400000005
 20
759.45044299999995
 30
0.0
 11
833.73353599999996
 21
761.53421400000002
 31
0.0
  0
LINE
  5
7C9
  8
0
 62
     7
 10
845.55122400000005
 20
759.45044299999995
 30
0.0
 11
833.73353599999996
 21
757.36667199999999
 31
0.0
  0
LINE
  5
7CA
  8
0
 62
     7
 10
782.55122400000005
 20
759.45044299999995
 30
0.0
 11
845.55122400000005
 21
759.45044299999995
 31
0.0
  0
LINE
  5
7CB
  8
0
 62
     7
 10
782.55122400000005
 20
767.45044299999995
 30
0.0
 11
782.55122400000005
 21
720.77575999999988
 31
0.0
  0
LINE
  5
7CC
  8
0
 62
     7
 10
845.55122400000005
 20
767.45044299999995
 30
0.0
 11
845.55122400000005
 21
681.26578099999995
 31
0.0
  0
LINE
  5
7CD
  8
0
 62
     7
 10
710.55122400000005
 20
792.39883799999996
 30
0.0
 11
722.36891200000002
 21
790.31503699999985
 31
0.0
  0
LINE
  5
7CE
  8
0
 62
     7
 10
710.55122400000005
 20
792.39883799999996
 30
0.0
 11
722.36891200000002
 21
794.48263899999995
 31
0.0
  0
LINE
  5
7CF
  8
0
 62
     7
 10
845.55122400000005
 20
792.39883799999996
 30
0.0
 11
833.73353599999996
 21
794.48263899999995
 31
0.0
  0
LINE
  5
7D0
  8
0
 62
     7
 10
845.55122400000005
 20
792.39883799999996
 30
0.0
 11
833.73353599999996
 21
790.31503699999985
 31
0.0
  0
LINE
  5
7D1
  8
0
 62
     7
 10
710.55122400000005
 20
792.39883799999996
 30
0.0
 11
845.55122400000005
 21
792.39883799999996
 31
0.0
  0
LINE
  5
7D2
  8
0
 62
     7
 10
710.55122400000005
 20
800.39883799999996
 30
0.0
 11
710.55122400000005
 21
681.26578099999995
 31
0.0
  0
LINE
  5
7D3
  8
0
 62
     7
 10
845.55122400000005
 20
800.39883799999996
 30
0.0
 11
845.55122400000005
 21
681.26578099999995
 31
0.0
  0
LINE
  5
7D4
  8
0
 62
     7
 10
782.55122400000005
 20
518.44607900000005
 30
0.0
 11
794.36891200000002
 21
516.36229300000002
 31
0.0
  0
LINE
  5
7D5
  8
0
 62
     7
 10
782.55122400000005
 20
518.44607900000005
 30
0.0
 11
794.36891200000002
 21
520.52985000000001
 31
0.0
  0
LINE
  5
7D6
  8
0
 62
     7
 10
863.55122400000005
 20
518.44607900000005
 30
0.0
 11
851.73353599999996
 21
520.52985000000001
 31
0.0
  0
LINE
  5
7D7
  8
0
 62
     7
 10
863.55122400000005
 20
518.44607900000005
 30
0.0
 11
851.73353599999996
 21
516.36229300000002
 31
0.0
  0
LINE
  5
7D8
  8
0
 62
     7
 10
782.55122400000005
 20
518.44607900000005
 30
0.0
 11
863.55122400000005
 21
518.44607900000005
 31
0.0
  0
LINE
  5
7D9
  8
0
 62
     7
 10
782.55122400000005
 20
510.446079
 30
0.0
 11
782.55122400000005
 21
525.68506200000002
 31
0.0
  0
LINE
  5
7DA
  8
0
 62
     7
 10
863.55122400000005
 20
510.446079
 30
0.0
 11
863.55122400000005
 21
540.76578099999995
 31
0.0
  0
LINE
  5
7DB
  8
0
 62
     7
 10
738.55122400000005
 20
490.03305399999988
 30
0.0
 11
750.36891200000002
 21
487.94928299999998
 31
0.0
  0
LINE
  5
7DC
  8
0
 62
     7
 10
738.55122400000005
 20
490.03305399999988
 30
0.0
 11
750.36891200000002
 21
492.11683999999991
 31
0.0
  0
LINE
  5
7DD
  8
0
 62
     7
 10
863.55122400000005
 20
490.03305399999988
 30
0.0
 11
851.73353599999996
 21
492.11682500000001
 31
0.0
  0
LINE
  5
7DE
  8
0
 62
     7
 10
863.55122400000005
 20
490.03305399999988
 30
0.0
 11
851.73353599999996
 21
487.9492679999999
 31
0.0
  0
LINE
  5
7DF
  8
0
 62
     7
 10
738.55122400000005
 20
490.03305399999988
 30
0.0
 11
863.55122400000005
 21
490.03305399999988
 31
0.0
  0
LINE
  5
7E0
  8
0
 62
     7
 10
738.55122400000005
 20
482.03305399999988
 30
0.0
 11
738.55122400000005
 21
540.76578099999995
 31
0.0
  0
LINE
  5
7E1
  8
0
 62
     7
 10
863.55122400000005
 20
482.03305399999988
 30
0.0
 11
863.55122400000005
 21
540.76578099999995
 31
0.0
  0
LINE
  5
7E2
  8
0
 62
     7
 10
782.55122400000005
 20
632.46011699999997
 30
0.0
 11
794.36891200000002
 21
630.37631599999986
 31
0.0
  0
LINE
  5
7E3
  8
0
 62
     7
 10
782.55122400000005
 20
632.46011699999997
 30
0.0
 11
794.36891200000002
 21
634.54388800000004
 31
0.0
  0
LINE
  5
7E4
  8
0
 62
     7
 10
876.55122400000005
 20
632.46011699999997
 30
0.0
 11
864.73353599999984
 21
634.54388800000004
 31
0.0
  0
LINE
  5
7E5
  8
0
 62
     7
 10
876.55122400000005
 20
632.46011699999997
 30
0.0
 11
864.73353599999984
 21
630.3763459999999
 31
0.0
  0
LINE
  5
7E6
  8
0
 62
     7
 10
782.55122400000005
 20
632.46011699999997
 30
0.0
 11
876.55122400000005
 21
632.46011699999997
 31
0.0
  0
LINE
  5
7E7
  8
0
 62
     7
 10
876.55122400000005
 20
640.46011699999985
 30
0.0
 11
876.55122400000005
 21
590.51578099999995
 31
0.0
  0
LINE
  5
7E8
  8
0
 62
     7
 10
814.62110899999993
 20
599.01578099999995
 30
0.0
 11
816.70487999999989
 21
610.83346900000004
 31
0.0
  0
LINE
  5
7E9
  8
0
 62
     7
 10
814.62110899999993
 20
599.01578099999995
 30
0.0
 11
812.53730800000005
 21
610.83346900000004
 31
0.0
  0
LINE
  5
7EA
  8
0
 62
     7
 10
814.62110899999993
 20
583.01578099999995
 30
0.0
 11
812.53733799999986
 21
571.19809299999997
 31
0.0
  0
LINE
  5
7EB
  8
0
 62
     7
 10
814.62110899999993
 20
583.01578099999995
 30
0.0
 11
816.70487999999989
 21
571.19809299999997
 31
0.0
  0
LINE
  5
7EC
  8
0
 62
     7
 10
814.62110899999993
 20
602.3568459999999
 30
0.0
 11
814.62110899999993
 21
580.35684600000002
 31
0.0
  0
LINE
  5
7ED
  8
0
 62
     7
 10
806.62110899999993
 20
599.01578099999995
 30
0.0
 11
845.55122400000005
 21
599.01578099999995
 31
0.0
  0
LINE
  5
7EE
  8
0
 62
     7
 10
806.62110899999993
 20
583.01578099999995
 30
0.0
 11
845.55122400000005
 21
583.01578099999995
 31
0.0
  0
LINE
  5
7EF
  8
0
 62
     7
 10
988.17581199999984
 20
689.26578099999995
 30
0.0
 11
986.09204099999999
 21
677.44809299999997
 31
0.0
  0
LINE
  5
7F0
  8
0
 62
     7
 10
988.17581199999984
 20
689.26578099999995
 30
0.0
 11
990.25959799999998
 21
677.44809299999997
 31
0.0
  0
LINE
  5
7F1
  8
0
 62
     7
 10
988.17581199999984
 20
547.26578099999995
 30
0.0
 11
990.25958300000002
 21
559.08346900000004
 31
0.0
  0
LINE
  5
7F2
  8
0
 62
     7
 10
988.17581199999984
 20
547.26578099999995
 30
0.0
 11
986.09202600000003
 21
559.08346900000004
 31
0.0
  0
LINE
  5
7F3
  8
0
 62
     7
 10
988.17581199999984
 20
689.26578099999995
 30
0.0
 11
988.17581199999984
 21
547.26578099999995
 31
0.0
  0
LINE
  5
7F4
  8
0
 62
     7
 10
996.17581199999984
 20
689.26578099999995
 30
0.0
 11
745.05122400000005
 21
689.26578099999995
 31
0.0
  0
LINE
  5
7F5
  8
0
 62
     7
 10
996.17581199999984
 20
547.26578099999995
 30
0.0
 11
870.05122400000005
 21
547.26578099999995
 31
0.0
  0
LINE
  5
7F6
  8
0
 62
     7
 10
665.97785899999997
 20
681.26578099999995
 30
0.0
 11
663.89411900000005
 21
669.44809299999997
 31
0.0
  0
LINE
  5
7F7
  8
0
 62
     7
 10
665.97785899999997
 20
681.26578099999995
 30
0.0
 11
668.06166100000007
 21
669.44809299999997
 31
0.0
  0
LINE
  5
7F8
  8
0
 62
     7
 10
665.97785899999997
 20
555.26578099999995
 30
0.0
 11
668.06166100000007
 21
567.08346900000004
 31
0.0
  0
LINE
  5
7F9
  8
0
 62
     7
 10
665.97785899999997
 20
555.26578099999995
 30
0.0
 11
663.89405799999986
 21
567.08346900000004
 31
0.0
  0
LINE
  5
7FA
  8
0
 62
     7
 10
665.97785899999997
 20
681.26578099999995
 30
0.0
 11
665.97785899999997
 21
555.26578099999995
 31
0.0
  0
LINE
  5
7FB
  8
0
 62
     7
 10
657.97785899999997
 20
681.26578099999995
 30
0.0
 11
710.55122400000005
 21
681.26578099999995
 31
0.0
  0
LINE
  5
7FC
  8
0
 62
     7
 10
657.97785899999997
 20
555.26578099999995
 30
0.0
 11
710.55122400000005
 21
555.26578099999995
 31
0.0
  0
LINE
  5
7FD
  8
0
 62
     7
 10
961.38775599999997
 20
689.26578099999995
 30
0.0
 11
959.3039859999999
 21
677.44809299999997
 31
0.0
  0
LINE
  5
7FE
  8
0
 62
     7
 10
961.38775599999997
 20
689.26578099999995
 30
0.0
 11
963.471542
 21
677.44809299999997
 31
0.0
  0
LINE
  5
7FF
  8
0
 62
     7
 10
961.38775599999997
 20
618.26578099999995
 30
0.0
 11
963.47152699999992
 21
630.08346900000004
 31
0.0
  0
LINE
  5
800
  8
0
 62
     7
 10
961.38775599999997
 20
618.26578099999995
 30
0.0
 11
959.30397000000005
 21
630.08346900000004
 31
0.0
  0
LINE
  5
801
  8
0
 62
     7
 10
961.38775599999997
 20
618.26578099999995
 30
0.0
 11
959.3039859999999
 21
606.44809299999997
 31
0.0
  0
LINE
  5
802
  8
0
 62
     7
 10
961.38775599999997
 20
618.26578099999995
 30
0.0
 11
963.471542
 21
606.44809299999997
 31
0.0
  0
LINE
  5
803
  8
0
 62
     7
 10
961.38775599999997
 20
547.26578099999995
 30
0.0
 11
963.47152699999992
 21
559.08346900000004
 31
0.0
  0
LINE
  5
804
  8
0
 62
     7
 10
961.38775599999997
 20
547.26578099999995
 30
0.0
 11
959.30397000000005
 21
559.08346900000004
 31
0.0
  0
LINE
  5
805
  8
0
 62
     7
 10
961.38775599999997
 20
689.26578099999995
 30
0.0
 11
961.38775599999997
 21
547.26578099999995
 31
0.0
  0
LINE
  5
806
  8
0
 62
     7
 10
969.38775599999997
 20
689.26578099999995
 30
0.0
 11
870.05122400000005
 21
689.26578099999995
 31
0.0
  0
LINE
  5
807
  8
0
 62
     7
 10
969.38775599999997
 20
618.26578099999995
 30
0.0
 11
870.05122400000005
 21
618.26578099999995
 31
0.0
  0
LINE
  5
808
  8
0
 62
     7
 10
969.38775599999997
 20
547.26578099999995
 30
0.0
 11
870.05122400000005
 21
547.26578099999995
 31
0.0
  0
LINE
  5
809
  8
0
 62
     7
 10
930.52668800000015
 20
618.26578099999995
 30
0.0
 11
932.61048899999992
 21
630.08346900000004
 31
0.0
  0
LINE
  5
80A
  8
0
 62
     7
 10
930.52668800000015
 20
618.26578099999995
 30
0.0
 11
928.44291699999985
 21
630.08346900000004
 31
0.0
  0
LINE
  5
80B
  8
0
 62
     7
 10
930.52668800000015
 20
591.01578099999995
 30
0.0
 11
928.44291699999985
 21
579.19809299999997
 31
0.0
  0
LINE
  5
80C
  8
0
 62
     7
 10
930.52668800000015
 20
591.01578099999995
 30
0.0
 11
932.61048899999992
 21
579.19809299999997
 31
0.0
  0
LINE
  5
80D
  8
0
 62
     7
 10
930.52668800000015
 20
685.26578099999995
 30
0.0
 11
930.52668800000015
 21
591.01578099999995
 31
0.0
  0
LINE
  5
80E
  8
0
 62
     7
 10
938.52670299999988
 20
618.26578099999995
 30
0.0
 11
894.52214100000003
 21
618.26578099999995
 31
0.0
  0
LINE
  5
80F
  8
0
 62
     7
 10
938.52670299999988
 20
591.01578099999995
 30
0.0
 11
883.57246399999997
 21
591.01578099999995
 31
0.0
  0
LINE
  5
810
  8
0
 62
     7
 10
760.05122400000005
 20
729.69601799999998
 30
0.0
 11
748.23353599999996
 21
731.77978899999994
 31
0.0
  0
LINE
  5
811
  8
0
 62
     7
 10
760.05122400000005
 20
729.69601799999998
 30
0.0
 11
748.23353599999996
 21
727.61221699999987
 31
0.0
  0
LINE
  5
812
  8
0
 62
     7
 10
805.05122399999993
 20
729.69601799999998
 30
0.0
 11
816.86891199999991
 21
727.61224700000002
 31
0.0
  0
LINE
  5
813
  8
0
 62
     7
 10
805.05122399999993
 20
729.69601799999998
 30
0.0
 11
816.86891199999991
 21
731.77978899999994
 31
0.0
  0
LINE
  5
814
  8
0
 62
     7
 10
760.05122400000005
 20
729.69601799999998
 30
0.0
 11
840.41111799999987
 21
729.69601799999998
 31
0.0
  0
LINE
  5
815
  8
0
 62
     7
 10
760.05122400000005
 20
737.69601799999998
 30
0.0
 11
760.05122400000005
 21
697.44577400000003
 31
0.0
  0
LINE
  5
816
  8
0
 62
     7
 10
805.05122399999993
 20
737.69601799999998
 30
0.0
 11
805.05122399999993
 21
697.44577400000003
 31
0.0
  0
LINE
  5
817
  8
0
 62
     7
 10
636.39155599999992
 20
690.76578099999995
 30
0.0
 11
634.30775499999993
 21
678.94809299999986
 31
0.0
  0
LINE
  5
818
  8
0
 62
     7
 10
636.39155599999992
 20
690.76578099999995
 30
0.0
 11
638.47529599999996
 21
678.94809299999986
 31
0.0
  0
LINE
  5
819
  8
0
 62
     7
 10
636.39155599999992
 20
618.26578099999995
 30
0.0
 11
638.47529599999996
 21
630.08346900000004
 31
0.0
  0
LINE
  5
81A
  8
0
 62
     7
 10
636.39155599999992
 20
618.26578099999995
 30
0.0
 11
634.30775499999993
 21
630.08346900000004
 31
0.0
  0
LINE
  5
81B
  8
0
 62
     7
 10
636.39155599999992
 20
690.76578099999995
 30
0.0
 11
636.39155599999992
 21
618.26578099999995
 31
0.0
  0
LINE
  5
81C
  8
0
 62
     7
 10
628.39155599999992
 20
690.76578099999995
 30
0.0
 11
753.37123099999985
 21
690.76578099999995
 31
0.0
  0
LINE
  5
81D
  8
0
 62
     7
 10
628.39155599999992
 20
618.26578099999995
 30
0.0
 11
672.70832800000005
 21
618.26578099999995
 31
0.0
  0
POINT
  5
81E
  8
0
 62
     7
 10
559.83322099999987
 20
850.96459200000004
 30
0.0
  0
POINT
  5
81F
  8
0
 62
     7
 10
559.83322099999987
 20
846.96459200000015
 30
0.0
  0
LINE
  5
820
  8
0
 62
     7
 10
561.83322099999998
 20
860.92285299999992
 30
0.0
 11
561.83322099999998
 21
837.00633099999993
 31
0.0
  0
LINE
  5
821
  8
0
 62
     7
 10
559.83322099999987
 20
860.92285299999992
 30
0.0
 11
559.83322099999987
 21
837.00633099999993
 31
0.0
  0
LINE
  5
822
  8
0
  6
DASHDOT
 62
     7
 10
556.63061800000003
 20
848.96459200000004
 30
0.0
 11
565.05683799999997
 21
848.96459200000004
 31
0.0
  0
LINE
  5
823
  8
0
 62
     7
 10
561.83322099999998
 20
852.64279099999999
 30
0.0
 11
559.83322099999987
 21
850.96459200000004
 31
0.0
  0
LINE
  5
824
  8
0
 62
     7
 10
559.83322099999987
 20
846.96459200000015
 30
0.0
 11
561.83322099999998
 21
845.28639299999986
 31
0.0
  0
LINE
  5
825
  8
0
 62
     7
 10
559.83322099999987
 20
839.46459200000004
 30
0.0
 11
561.83322099999998
 21
839.46459200000004
 31
0.0
  0
CIRCLE
  5
826
  8
0
 62
     7
 10
560.83322099999987
 20
848.96459200000004
 30
0.0
 40
12.0
  0
LINE
  5
827
  8
0
 62
     7
 10
553.83322899999985
 20
844.46459200000015
 30
0.0
 11
556.33322899999985
 21
844.46459200000015
 31
0.0
  0
LINE
  5
828
  8
0
 62
     7
 10
557.33322899999985
 20
853.46459200000004
 30
0.0
 11
557.33322899999985
 21
845.46459200000004
 31
0.0
  0
LINE
  5
829
  8
0
 62
     7
 10
557.33322899999985
 20
853.46459200000004
 30
0.0
 11
559.83322099999987
 21
853.46459200000004
 31
0.0
  0
LINE
  5
82A
  8
0
 62
     7
 10
553.83322899999985
 20
841.96459200000004
 30
0.0
 11
556.33322899999985
 21
841.96459200000004
 31
0.0
  0
LINE
  5
82B
  8
0
 62
     7
 10
552.83322899999985
 20
840.96459200000004
 30
0.0
 11
552.83322899999985
 21
840.0203130000001
 31
0.0
  0
ARC
  5
82C
  8
0
 62
     7
 10
556.33323299999995
 20
845.46459099999993
 30
0.0
 40
0.9999969999999999
 50
269.99984599999988
 51
360.00025499999992
  0
ARC
  5
82D
  8
0
 62
     7
 10
553.83324400000004
 20
840.96458000000007
 30
0.0
 40
3.500017999999999
 50
90.000182999999979
 51
153.40876399999991
  0
ARC
  5
82E
  8
0
 62
     7
 10
553.83318499999984
 20
840.96463300000005
 30
0.0
 40
0.9999499999999999
 50
449.9977649999999
 51
180.0011749999999
  0
ARC
  5
82F
  8
0
 62
     7
 10
556.33324900000002
 20
845.46456000000001
 30
0.0
 40
3.4999709999999991
 50
269.9996549999999
 51
360.00041900000002
  0
LINE
  5
830
  8
0
 62
     7
 10
540.38755800000001
 20
850.96459200000004
 30
0.0
 11
540.90849300000002
 21
853.91901399999995
 31
0.0
  0
LINE
  5
831
  8
0
 62
     7
 10
540.38755800000001
 20
850.96459200000004
 30
0.0
 11
539.86662299999989
 21
853.91901399999995
 31
0.0
  0
LINE
  5
832
  8
0
 62
     7
 10
540.38755800000001
 20
846.96459200000015
 30
0.0
 11
539.86662299999989
 21
844.0101699999999
 31
0.0
  0
LINE
  5
833
  8
0
 62
     7
 10
540.38755800000001
 20
846.96459200000015
 30
0.0
 11
540.90849300000002
 21
844.0101699999999
 31
0.0
  0
LINE
  5
834
  8
0
 62
     7
 10
540.38755800000001
 20
860.37465699999996
 30
0.0
 11
540.38755800000001
 21
846.96459200000015
 31
0.0
  0
LINE
  5
835
  8
0
 62
     7
 10
538.38755800000001
 20
850.96459200000004
 30
0.0
 11
559.83322099999987
 21
850.96459200000004
 31
0.0
  0
LINE
  5
836
  8
0
 62
     7
 10
538.38755800000001
 20
846.96459200000015
 30
0.0
 11
559.83322099999987
 21
846.96459200000015
 31
0.0
  0
LINE
  5
837
  8
0
 62
     7
 10
575.26914999999997
 20
834.01231399999995
 30
0.0
 11
577.56727599999988
 21
835.94067399999994
 31
0.0
  0
LINE
  5
838
  8
0
 62
     7
 10
575.26914999999997
 20
834.01231399999995
 30
0.0
 11
576.76914999999985
 21
836.61039000000005
 31
0.0
  0
LINE
  5
839
  8
0
 62
     7
 10
575.26914999999997
 20
863.9168699999999
 30
0.0
 11
576.76914999999985
 21
861.31879399999991
 31
0.0
  0
LINE
  5
83A
  8
0
 62
     7
 10
575.26914999999997
 20
863.9168699999999
 30
0.0
 11
577.56727599999988
 21
861.98850599999992
 31
0.0
  0
POLYLINE
  5
83B
  8
0
 62
     7
 66
     1
 10
0.0
 20
0.0
 30
0.0
  0
VERTEX
  5
F34
  8
0
 62
     7
 10
575.26914999999997
 20
834.01231399999995
 30
0.0
  0
VERTEX
  5
F35
  8
0
 62
     7
 10
576.769318
 20
836.00869
 30
0.0
  0
VERTEX
  5
F36
  8
0
 62
     7
 10
578.04684399999996
 20
838.15438099999994
 30
0.0
  0
VERTEX
  5
F37
  8
0
 62
     7
 10
579.08699000000001
 20
840.42465199999992
 30
0.0
  0
VERTEX
  5
F38
  8
0
 62
     7
 10
579.87777699999992
 20
842.79334999999992
 30
0.0
  0
VERTEX
  5
F39
  8
0
 62
     7
 10
580.41009499999996
 20
845.23316999999997
 30
0.0
  0
VERTEX
  5
F3A
  8
0
 62
     7
 10
580.67779499999995
 20
847.71598800000004
 30
0.0
  0
VERTEX
  5
F3B
  8
0
 62
     7
 10
580.67779499999995
 20
850.21319599999993
 30
0.0
  0
VERTEX
  5
F3C
  8
0
 62
     7
 10
580.41009499999996
 20
852.69602200000008
 30
0.0
  0
VERTEX
  5
F3D
  8
0
 62
     7
 10
579.87777699999992
 20
855.13583400000005
 30
0.0
  0
VERTEX
  5
F3E
  8
0
 62
     7
 10
579.08699000000001
 20
857.50453200000004
 30
0.0
  0
VERTEX
  5
F3F
  8
0
 62
     7
 10
578.04684399999996
 20
859.7748069999999
 30
0.0
  0
VERTEX
  5
F40
  8
0
 62
     7
 10
576.769318
 20
861.92049800000007
 30
0.0
  0
VERTEX
  5
F41
  8
0
 62
     7
 10
575.26913500000001
 20
863.91687400000001
 30
0.0
  0
SEQEND
  5
F42
  8
0
 62
     7
  0
LINE
  5
84B
  8
0
 62
     7
 10
576.8012389999999
 20
832.72673799999995
 30
0.0
 11
562.05378700000006
 21
845.1013109999999
 31
0.0
  0
LINE
  5
84C
  8
0
 62
     7
 10
576.8012389999999
 20
865.20244600000012
 30
0.0
 11
562.05378700000006
 21
852.82787299999995
 31
0.0
  0
INSERT
  5
B12
  8
0
  2
BLOCK0
 10
-409.446259
 20
238.54692799999989
 30
0.0
 50
180.0
  0
INSERT
  5
B13
  8
0
  2
BLOCK1
 10
-409.446259
 20
238.54692799999989
 30
0.0
 50
180.0
  0
INSERT
  5
B14
  8
0
  2
BLOCK2
 10
-409.446259
 20
238.54692799999989
 30
0.0
 50
180.0
  0
INSERT
  5
B15
  8
0
  2
BLOCK3
 10
-409.446259
 20
238.54692799999989
 30
0.0
 50
180.0
  0
INSERT
  5
B16
  8
0
  2
BLOCK4
 10
-409.446259
 20
238.54692799999989
 30
0.0
 50
180.0
  0
INSERT
  5
B17
  8
0
  2
BLOCK5
 10
-409.446259
 20
238.54692799999989
 30
0.0
 50
180.0
  0
INSERT
  5
B18
  8
0
  2
BLOCK6
 10
-409.446259
 20
238.54692799999989
 30
0.0
 50
180.0
  0
INSERT
  5
B19
  8
0
  2
BLOCK7
 10
455.210058
 20
620.51578099999995
 30
0.0
 50
180.0
  0
INSERT
  5
B1A
  8
0
  2
BLOCK8
 10
455.210058
 20
620.51578099999995
 30
0.0
 50
180.0
  0
INSERT
  5
B1B
  8
0
  2
BLOCK9
 10
455.210058
 20
620.51578099999995
 30
0.0
 50
180.0
  0
INSERT
  5
B1C
  8
0
  2
BLOCK10
 10
455.210058
 20
620.51578099999995
 30
0.0
 50
180.0
  0
INSERT
  5
B1D
  8
0
  2
BLOCK11
 10
455.210058
 20
620.51578099999995
 30
0.0
 50
180.0
  0
INSERT
  5
B1E
  8
0
  2
BLOCK12
 10
455.210058
 20
620.51578099999995
 30
0.0
 50
180.0
  0
INSERT
  5
B1F
  8
0
  2
BLOCK13
 10
455.210058
 20
620.51578099999995
 30
0.0
 50
180.0
  0
INSERT
  5
B20
  8
0
  2
BLOCK14
 10
455.210058
 20
620.51578099999995
 30
0.0
 50
180.0
  0
INSERT
  5
B21
  8
0
  2
BLOCK15
 10
455.210058
 20
620.51578099999995
 30
0.0
 50
180.0
  0
INSERT
  5
B22
  8
0
  2
BLOCK16
 10
455.210058
 20
620.51578099999995
 30
0.0
 50
180.0
  0
INSERT
  5
B23
  8
0
  2
BLOCK17
 10
22.278241000000001
 20
507.77897400000001
 30
0.0
 50
90.0
  0
INSERT
  5
B24
  8
0
  2
BLOCK18
 10
22.278241000000001
 20
507.77897400000001
 30
0.0
 50
90.0
  0
INSERT
  5
B25
  8
0
  2
BLOCK19
 10
22.278241000000001
 20
507.77897400000001
 30
0.0
 50
90.0
  0
INSERT
  5
B26
  8
0
  2
BLOCK20
 10
22.278241000000001
 20
507.77897400000001
 30
0.0
 50
90.0
  0
INSERT
  5
B27
  8
0
  2
BLOCK21
 10
22.278241000000001
 20
507.77897400000001
 30
0.0
 50
90.0
  0
INSERT
  5
B28
  8
0
  2
BLOCK22
 10
22.278241000000001
 20
507.77897400000001
 30
0.0
 50
90.0
  0
INSERT
  5
B29
  8
0
  2
BLOCK23
 10
22.278241000000001
 20
507.77897400000001
 30
0.0
 50
90.0
  0
INSERT
  5
B2A
  8
0
  2
BLOCK24
 10
22.278241000000001
 20
507.77897400000001
 30
0.0
 50
90.0
  0
INSERT
  5
B2B
  8
0
  2
BLOCK25
 10
22.278241000000001
 20
507.77897400000001
 30
0.0
 50
90.0
  0
INSERT
  5
B2C
  8
0
  2
BLOCK26
 10
22.278241000000001
 20
507.77897400000001
 30
0.0
 50
90.0
  0
INSERT
  5
B2D
  8
0
  2
BLOCK27
 10
22.278241000000001
 20
507.77897400000001
 30
0.0
 50
90.0
  0
INSERT
  5
B2E
  8
0
  2
BLOCK28
 10
22.278241000000001
 20
507.77897400000001
 30
0.0
 50
90.0
  0
INSERT
  5
B2F
  8
0
  2
BLOCK29
 10
22.278241000000001
 20
507.77897400000001
 30
0.0
 50
90.0
  0
INSERT
  5
B30
  8
0
  2
BLOCK30
 10
22.278241000000001
 20
507.77897400000001
 30
0.0
 50
90.0
  0
INSERT
  5
B31
  8
0
  2
BLOCK31
 10
22.278241000000001
 20
507.77897400000001
 30
0.0
 50
90.0
  0
INSERT
  5
B32
  8
0
  2
BLOCK32
 10
-279.08082200000001
 20
508.27872100000002
 30
0.0
 50
90.0
  0
INSERT
  5
B33
  8
0
  2
BLOCK33
 10
-279.08082200000001
 20
508.27872100000002
 30
0.0
 50
90.0
  0
INSERT
  5
B34
  8
0
  2
BLOCK34
 10
-279.08082200000001
 20
508.27872100000002
 30
0.0
 50
90.0
  0
INSERT
  5
B35
  8
0
  2
BLOCK35
 10
-279.08082200000001
 20
508.27872100000002
 30
0.0
 50
90.0
  0
INSERT
  5
B36
  8
0
  2
BLOCK36
 10
-279.08082200000001
 20
508.27872100000002
 30
0.0
 50
90.0
  0
INSERT
  5
B37
  8
0
  2
BLOCK37
 10
-279.08082200000001
 20
508.27872100000002
 30
0.0
 50
90.0
  0
INSERT
  5
B38
  8
0
  2
BLOCK38
 10
-279.08082200000001
 20
508.27872100000002
 30
0.0
 50
90.0
  0
INSERT
  5
B39
  8
0
  2
BLOCK39
 10
-279.08082200000001
 20
508.27872100000002
 30
0.0
 50
90.0
  0
INSERT
  5
B3A
  8
0
  2
BLOCK40
 10
-279.08082200000001
 20
508.27872100000002
 30
0.0
 50
90.0
  0
INSERT
  5
B3B
  8
0
  2
BLOCK41
 10
-279.08082200000001
 20
508.27872100000002
 30
0.0
 50
90.0
  0
INSERT
  5
B3C
  8
0
  2
BLOCK42
 10
-279.08082200000001
 20
508.27872100000002
 30
0.0
 50
90.0
  0
INSERT
  5
B3D
  8
0
  2
BLOCK43
 10
-279.08082200000001
 20
508.27872100000002
 30
0.0
 50
90.0
  0
INSERT
  5
B3E
  8
0
  2
BLOCK44
 10
-279.08082200000001
 20
508.27872100000002
 30
0.0
 50
90.0
  0
INSERT
  5
B3F
  8
0
  2
BLOCK45
 10
-279.08082200000001
 20
508.27872100000002
 30
0.0
 50
90.0
  0
INSERT
  5
B40
  8
0
  2
BLOCK46
 10
-279.08082200000001
 20
508.27872100000002
 30
0.0
 50
90.0
  0
INSERT
  5
B41
  8
0
  2
BLOCK47
 10
-279.08082200000001
 20
508.27872100000002
 30
0.0
 50
90.0
  0
INSERT
  5
B42
  8
0
  2
BLOCK48
 10
-279.08082200000001
 20
508.27872100000002
 30
0.0
 50
90.0
  0
INSERT
  5
B43
  8
0
  2
BLOCK49
 10
-279.08082200000001
 20
508.27872100000002
 30
0.0
 50
90.0
  0
INSERT
  5
B44
  8
0
  2
BLOCK50
 10
-279.08082200000001
 20
508.27872100000002
 30
0.0
 50
90.0
  0
INSERT
  5
B45
  8
0
  2
BLOCK51
 10
-279.08082200000001
 20
508.27872100000002
 30
0.0
 50
90.0
  0
INSERT
  5
B46
  8
0
  2
BLOCK52
 10
-279.08082200000001
 20
508.27872100000002
 30
0.0
 50
90.0
  0
INSERT
  5
B47
  8
0
  2
BLOCK53
 10
-279.08082200000001
 20
508.27872100000002
 30
0.0
 50
90.0
  0
INSERT
  5
B48
  8
0
  2
BLOCK54
 10
-279.08082200000001
 20
508.27872100000002
 30
0.0
 50
90.0
  0
INSERT
  5
B49
  8
0
  2
BLOCK55
 10
-279.08082200000001
 20
508.27872100000002
 30
0.0
 50
90.0
  0
INSERT
  5
B4A
  8
0
  2
BLOCK56
 10
-279.08082200000001
 20
508.27872100000002
 30
0.0
 50
90.0
  0
INSERT
  5
B4B
  8
0
  2
BLOCK57
 10
-279.08082200000001
 20
508.27872100000002
 30
0.0
 50
90.0
  0
INSERT
  5
B4C
  8
0
  2
BLOCK58
 10
-279.08082200000001
 20
508.27872100000002
 30
0.0
 50
90.0
  0
INSERT
  5
B4D
  8
0
  2
BLOCK59
 10
-279.08082200000001
 20
508.27872100000002
 30
0.0
 50
90.0
  0
INSERT
  5
B4E
  8
0
  2
BLOCK60
 10
-279.08082200000001
 20
508.27872100000002
 30
0.0
 50
90.0
  0
INSERT
  5
B4F
  8
0
  2
BLOCK61
 10
-279.08082200000001
 20
508.27872100000002
 30
0.0
 50
90.0
  0
INSERT
  5
B50
  8
0
  2
BLOCK62
 10
-279.08082200000001
 20
508.27872100000002
 30
0.0
 50
90.0
  0
INSERT
  5
B51
  8
0
  2
BLOCK63
 10
-279.08082200000001
 20
508.27872100000002
 30
0.0
 50
90.0
  0
INSERT
  5
B52
  8
0
  2
BLOCK64
 10
-279.08082200000001
 20
508.27872100000002
 30
0.0
 50
90.0
  0
INSERT
  5
B53
  8
0
  2
BLOCK65
 10
-279.08082200000001
 20
508.27872100000002
 30
0.0
 50
90.0
  0
INSERT
  5
B54
  8
0
  2
BLOCK66
 10
-279.08082200000001
 20
508.27872100000002
 30
0.0
 50
90.0
  0
INSERT
  5
B55
  8
0
  2
BLOCK67
 10
-279.08082200000001
 20
508.27872100000002
 30
0.0
 50
90.0
  0
INSERT
  5
B56
  8
0
  2
BLOCK68
 10
-279.08082200000001
 20
508.27872100000002
 30
0.0
 50
90.0
  0
INSERT
  5
B57
  8
0
  2
BLOCK69
 10
-279.08082200000001
 20
508.27872100000002
 30
0.0
 50
90.0
  0
INSERT
  5
B58
  8
0
  2
BLOCK70
 10
-279.08082200000001
 20
508.27872100000002
 30
0.0
 50
90.0
  0
INSERT
  5
B59
  8
0
  2
BLOCK71
 10
-279.08082200000001
 20
508.27872100000002
 30
0.0
 50
90.0
  0
INSERT
  5
B5A
  8
0
  2
BLOCK72
 10
-279.08082200000001
 20
508.27872100000002
 30
0.0
 50
90.0
  0
INSERT
  5
B5B
  8
0
  2
BLOCK73
 10
-279.08082200000001
 20
508.27872100000002
 30
0.0
 50
90.0
  0
INSERT
  5
B5C
  8
0
  2
BLOCK74
 10
-279.08082200000001
 20
508.27872100000002
 30
0.0
 50
90.0
  0
INSERT
  5
B5D
  8
0
  2
BLOCK75
 10
-279.08082200000001
 20
508.27872100000002
 30
0.0
 50
90.0
  0
INSERT
  5
B5E
  8
0
  2
BLOCK76
 10
782.55122400000005
 20
620.51578099999995
 30
0.0
 50
270.0
  0
INSERT
  5
B5F
  8
0
  2
BLOCK77
 10
782.55122400000005
 20
620.51578099999995
 30
0.0
 50
270.0
  0
INSERT
  5
B60
  8
0
  2
BLOCK78
 10
779.08844021607285
 20
568.59827414497227
 30
0.0
 50
270.0
  0
INSERT
  5
B61
  8
0
  2
BLOCK79
 10
771.00860611082203
 20
666.66467757000362
 30
0.0
 50
270.0
  0
INSERT
  5
B62
  8
0
  2
BLOCK80
 10
782.55122400000005
 20
620.51578099999995
 30
0.0
 50
270.0
  0
INSERT
  5
B63
  8
0
  2
BLOCK81
 10
782.55122400000005
 20
620.51578099999995
 30
0.0
 50
270.0
  0
INSERT
  5
B64
  8
0
  2
BLOCK82
 10
782.55122400000005
 20
620.51578099999995
 30
0.0
 50
270.0
  0
INSERT
  5
B65
  8
0
  2
BLOCK83
 10
782.55122400000005
 20
620.51578099999995
 30
0.0
 50
270.0
  0
INSERT
  5
B66
  8
0
  2
BLOCK84
 10
782.55122400000005
 20
620.51578099999995
 30
0.0
 50
270.0
  0
INSERT
  5
B67
  8
0
  2
BLOCK85
 10
783.93321807962025
 20
626.92917425129542
 30
0.0
 50
270.0
  0
INSERT
  5
B68
  8
0
  2
BLOCK86
 10
782.55122400000005
 20
620.51578099999995
 30
0.0
 50
270.0
  0
INSERT
  5
B69
  8
0
  2
BLOCK87
 10
782.55122400000005
 20
620.51578099999995
 30
0.0
 50
270.0
  0
INSERT
  5
B6A
  8
0
  2
BLOCK88
 10
782.55122400000005
 20
620.51578099999995
 30
0.0
 50
270.0
  0
INSERT
  5
B6B
  8
0
  2
BLOCK89
 10
782.55122400000005
 20
620.51578099999995
 30
0.0
 50
270.0
  0
INSERT
  5
B6C
  8
0
  2
BLOCK90
 10
782.55122400000005
 20
620.51578099999995
 30
0.0
 50
270.0
  0
INSERT
  5
B6D
  8
0
  2
BLOCK91
 10
782.55122400000005
 20
620.51578099999995
 30
0.0
 50
270.0
  0
INSERT
  5
B6E
  8
0
  2
BLOCK92
 10
782.55122400000005
 20
620.51578099999995
 30
0.0
 50
270.0
  0
INSERT
  5
B6F
  8
0
  2
BLOCK93
 10
782.55122400000005
 20
620.51578099999995
 30
0.0
 50
270.0
  0
INSERT
  5
B70
  8
0
  2
BLOCK94
 10
782.55122400000005
 20
620.51578099999995
 30
0.0
 50
270.0
  0
INSERT
  5
B71
  8
0
  2
BLOCK95
 10
782.55122400000005
 20
620.51578099999995
 30
0.0
 50
270.0
  0
INSERT
  5
B72
  8
0
  2
BLOCK96
 10
782.55122400000005
 20
620.51578099999995
 30
0.0
 50
270.0
  0
INSERT
  5
B73
  8
0
  2
BLOCK97
 10
560.83322099999987
 20
848.96459200000004
 30
0.0
 50
270.0
  0
INSERT
  5
B74
  8
0
  2
BLOCK98
 10
560.83322099999987
 20
848.96459200000004
 30
0.0
 50
270.0
  0
INSERT
  5
B75
  8
0
  2
BLOCK99
 10
560.83322099999987
 20
848.96459200000004
 30
0.0
 50
270.0
  0
INSERT
  5
B76
  8
0
  2
BLOCK100
 10
560.83322099999987
 20
848.96459200000004
 30
0.0
 50
270.0
  0
INSERT
  5
B77
  8
0
  2
BLOCK101
 10
560.83322099999987
 20
848.96459200000004
 30
0.0
 50
270.0
  0
VIEWPORT
  5
84D
 67
     1
  8
0
 62
     0
 10
0.0
 20
0.0
 30
0.0
 40
1000.0
 41
1000.0
 68
     1
 69
     1
1001
ACAD
1000
MVIEW
1002
{
1070
    16
1010
0.0
1020
0.0
1030
0.0
1010
0.0
1020
0.0
1030
1.0
1040
0.0
1040
1000.0
1040
0.0
1040
0.0
1040
50.0
1040
0.0
1040
0.0
1070
     0
1070
   100
1070
     1
1070
     1
1070
     0
1070
     0
1070
     0
1070
     0
1040
0.0
1040
0.0
1040
0.0
1040
1.0
1040
1.0
1040
1.0
1040
1.0
1070
     0
1002
{
1002
}
1002
}
  0
ENDSEC
  0
EOF
