  0
SECTION
  2
HEADER
  9
$ACADVER
  1
AC1009
  9
$INSBASE
 10
0.0
 20
0.0
 30
0.0
  9
$EXTMIN
 10
0.578269
 20
0.580464
 30
0.0
  9
$EXTMAX
 10
392.578269
 20
263.080464
 30
0.0
  9
$LIMMIN
 10
0.0
 20
0.0
  9
$LIMMAX
 10
12.0
 20
9.0
  9
$ORTHOMODE
 70
     1
  9
$REGENMODE
 70
     1
  9
$FILLMODE
 70
     1
  9
$QTEXTMODE
 70
     0
  9
$MIRRTEXT
 70
     1
  9
$DRAGMODE
 70
     2
  9
$LTSCALE
 40
5.0
  9
$OSMODE
 70
     0
  9
$ATTMODE
 70
     1
  9
$TEXTSIZE
 40
2.0
  9
$TRACEWID
 40
0.05
  9
$TEXTSTYLE
  7
ROMANS
  9
$CLAYER
  8
0
  9
$CELTYPE
  6
CONTINUOUS
  9
$CECOLOR
 62
   256
  9
$DIMSCALE
 40
1.0
  9
$DIMASZ
 40
0.18
  9
$DIMEXO
 40
0.0625
  9
$DIMDLI
 40
0.38
  9
$DIMRND
 40
0.0
  9
$DIMDLE
 40
0.0
  9
$DIMEXE
 40
0.18
  9
$DIMTP
 40
0.0
  9
$DIMTM
 40
0.0
  9
$DIMTXT
 40
0.18
  9
$DIMCEN
 40
0.09
  9
$DIMTSZ
 40
0.0
  9
$DIMTOL
 70
     0
  9
$DIMLIM
 70
     0
  9
$DIMTIH
 70
     1
  9
$DIMTOH
 70
     1
  9
$DIMSE1
 70
     0
  9
$DIMSE2
 70
     0
  9
$DIMTAD
 70
     0
  9
$DIMZIN
 70
     0
  9
$DIMBLK
  1

  9
$DIMASO
 70
     1
  9
$DIMSHO
 70
     1
  9
$DIMPOST
  1

  9
$DIMAPOST
  1

  9
$DIMALT
 70
     0
  9
$DIMALTD
 70
     2
  9
$DIMALTF
 40
25.4
  9
$DIMLFAC
 40
1.0
  9
$DIMTOFL
 70
     0
  9
$DIMTVP
 40
0.0
  9
$DIMTIX
 70
     0
  9
$DIMSOXD
 70
     0
  9
$DIMSAH
 70
     0
  9
$DIMBLK1
  1

  9
$DIMBLK2
  1

  9
$DIMSTYLE
  2
*UNNAMED
  9
$DIMCLRD
 70
     0
  9
$DIMCLRE
 70
     0
  9
$DIMCLRT
 70
     0
  9
$DIMTFAC
 40
1.0
  9
$DIMGAP
 40
0.09
  9
$LUNITS
 70
     2
  9
$LUPREC
 70
     4
  9
$SKETCHINC
 40
0.1
  9
$FILLETRAD
 40
0.0
  9
$AUNITS
 70
     0
  9
$AUPREC
 70
     0
  9
$MENU
  1
acad
  9
$ELEVATION
 40
0.0
  9
$PELEVATION
 40
0.0
  9
$THICKNESS
 40
0.0
  9
$LIMCHECK
 70
     0
  9
$BLIPMODE
 70
     1
  9
$CHAMFERA
 40
0.0
  9
$CHAMFERB
 40
0.0
  9
$SKPOLY
 70
     0
  9
$TDCREATE
 40
2449545.559336574
  9
$TDUPDATE
 40
2449545.562147800
  9
$TDINDWG
 40
0.0024577546
  9
$TDUSRTIMER
 40
0.0024577546
  9
$USRTIMER
 70
     1
  9
$ANGBASE
 50
0.0
  9
$ANGDIR
 70
     0
  9
$PDMODE
 70
     0
  9
$PDSIZE
 40
0.0
  9
$PLINEWID
 40
0.0
  9
$COORDS
 70
     2
  9
$SPLFRAME
 70
     0
  9
$SPLINETYPE
 70
     6
  9
$SPLINESEGS
 70
     8
  9
$ATTDIA
 70
     0
  9
$ATTREQ
 70
     1
  9
$HANDLING
 70
     0
  9
$HANDSEED
  5
0
  9
$SURFTAB1
 70
   250
  9
$SURFTAB2
 70
   250
  9
$SURFTYPE
 70
     6
  9
$SURFU
 70
     6
  9
$SURFV
 70
     6
  9
$UCSNAME
  2

  9
$UCSORG
 10
0.0
 20
0.0
 30
0.0
  9
$UCSXDIR
 10
1.0
 20
0.0
 30
0.0
  9
$UCSYDIR
 10
0.0
 20
1.0
 30
0.0
  9
$PUCSNAME
  2

  9
$PUCSORG
 10
0.0
 20
0.0
 30
0.0
  9
$PUCSXDIR
 10
1.0
 20
0.0
 30
0.0
  9
$PUCSYDIR
 10
0.0
 20
1.0
 30
0.0
  9
$USERI1
 70
     0
  9
$USERI2
 70
     0
  9
$USERI3
 70
     0
  9
$USERI4
 70
     0
  9
$USERI5
 70
     0
  9
$USERR1
 40
0.0
  9
$USERR2
 40
0.0
  9
$USERR3
 40
0.0
  9
$USERR4
 40
0.0
  9
$USERR5
 40
0.0
  9
$WORLDVIEW
 70
     1
  9
$SHADEDGE
 70
     3
  9
$SHADEDIF
 70
    70
  9
$TILEMODE
 70
     1
  9
$MAXACTVP
 70
    16
  9
$PINSBASE
 10
0.0
 20
0.0
 30
0.0
  9
$PLIMCHECK
 70
     0
  9
$PEXTMIN
 10
1.000000E+20
 20
1.000000E+20
 30
1.000000E+20
  9
$PEXTMAX
 10
-1.000000E+20
 20
-1.000000E+20
 30
-1.000000E+20
  9
$PLIMMIN
 10
0.0
 20
0.0
  9
$PLIMMAX
 10
12.0
 20
9.0
  9
$UNITMODE
 70
     0
  9
$VISRETAIN
 70
     0
  9
$PLINEGEN
 70
     0
  9
$PSLTSCALE
 70
     0
  9
$TREEDEPTH
 70
  3020
  9
$DWGCODEPAGE
  3
undefined
  0
ENDSEC
  0
SECTION
  2
TABLES
  0
TABLE
  2
VPORT
 70
     2
  0
VPORT
  2
*ACTIVE
 70
     0
 10
0.0
 20
0.0
 11
1.0
 21
1.0
 12
222.716394
 22
142.164033
 13
0.0
 23
0.0
 14
2.5
 24
2.5
 15
0.0
 25
0.0
 16
0.0
 26
0.0
 36
1.0
 17
0.0
 27
0.0
 37
0.0
 40
284.328065
 41
1.566616
 42
50.0
 43
0.0
 44
0.0
 50
0.0
 51
0.0
 71
     0
 72
   100
 73
     1
 74
     1
 75
     1
 76
     0
 77
     0
 78
     0
  0
ENDTAB
  0
TABLE
  2
LTYPE
 70
     7
  0
LTYPE
  2
CONTINUOUS
 70
    64
  3
Solid line
 72
    65
 73
     0
 40
0.0
  0
LTYPE
  2
DASHED
 70
    64
  3
__ __ __ __ __ __ __ __ __ __ __ __ __ __ __ __
 72
    65
 73
     2
 40
0.75
 49
0.5
 49
-0.25
  0
LTYPE
  2
CENTER
 70
    64
  3
____ _ ____ _ ____ _ ____ _ ____ _ ____ _ ____ 
 72
    65
 73
     4
 40
2.0
 49
1.25
 49
-0.25
 49
0.25
 49
-0.25
  0
LTYPE
  2
HIDDEN
 70
    64
  3
__ __ __ __ __ __ __ __ __ __ __ __ __ __ __ __
 72
    65
 73
     2
 40
0.375
 49
0.25
 49
-0.125
  0
LTYPE
  2
DOT
 70
     0
  3
. . . . . . . . . . . . . . . . . . . . . . . .
 72
    65
 73
     2
 40
0.25
 49
0.0
 49
-0.25
  0
LTYPE
  2
DASHDOT
 70
     0
  3
__ . __ . __ . __ . __ . __ . __ . __ . __ . __
 72
    65
 73
     4
 40
1.0
 49
0.5
 49
-0.25
 49
0.0
 49
-0.25
  0
LTYPE
  2
PHANTOM
 70
     0
  3
______  __  __  ______  __  __  ______  __  __ 
 72
    65
 73
     6
 40
2.5
 49
1.25
 49
-0.25
 49
0.25
 49
-0.25
 49
0.25
 49
-0.25
  0
ENDTAB
  0
TABLE
  2
LAYER
 70
    13
  0
LAYER
  2
0
 70
    64
 62
     7
  6
CONTINUOUS
  0
LAYER
  2
RAAMI
 70
    64
 62
    -4
  6
CONTINUOUS
  0
LAYER
  2
PAKSU
 70
    64
 62
    -3
  6
CONTINUOUS
  0
LAYER
  2
OHUT
 70
    64
 62
    -6
  6
CONTINUOUS
  0
LAYER
  2
SWEDEN
 70
    64
 62
    -7
  6
CONTINUOUS
  0
LAYER
  2
SWEDEN2
 70
    64
 62
    -5
  6
CONTINUOUS
  0
LAYER
  2
BASE
 70
    64
 62
    -7
  6
CONTINUOUS
  0
LAYER
  2
21
 70
    64
 62
    -2
  6
CONTINUOUS
  0
LAYER
  2
HEL035
 70
    64
 62
    -7
  6
CONTINUOUS
  0
LAYER
  2
MUO
 70
    64
 62
    -7
  6
CONTINUOUS
  0
LAYER
  2
1
 70
    64
 62
    -2
  6
CONTINUOUS
  0
LAYER
  2
BASE1
 70
    64
 62
    -1
  6
CONTINUOUS
  0
LAYER
  2
TEKS
 70
    64
 62
    -5
  6
CONTINUOUS
  0
ENDTAB
  0
TABLE
  2
STYLE
 70
     6
  0
STYLE
  2
STANDARD
 70
    64
 40
0.0
 41
1.0
 50
0.0
 71
     0
 42
2.5
  3
txt
  4

  0
STYLE
  2
ROMANS
 70
    64
 40
0.0
 41
1.0
 50
0.0
 71
     0
 42
2.0
  3
romans
  4

  0
STYLE
  2
GREEKC
 70
    64
 40
0.0
 41
1.0
 50
0.0
 71
     0
 42
1.5
  3
GREEKC
  4

  0
STYLE
  2
GREEKS
 70
    64
 40
0.0
 41
1.0
 50
0.0
 71
     0
 42
2.0
  3
TXT
  4

  0
STYLE
  2
MONOTXT
 70
     0
 40
0.0
 41
1.0
 50
0.0
 71
     0
 42
2.0
  3
monotxt
  4

  0
STYLE
  2
ROMANT
 70
     0
 40
0.0
 41
1.0
 50
0.0
 71
     0
 42
2.5
  3
romant
  4

  0
ENDTAB
  0
TABLE
  2
VIEW
 70
     0
  0
ENDTAB
  0
TABLE
  2
UCS
 70
     0
  0
ENDTAB
  0
TABLE
  2
APPID
 70
     1
  0
APPID
  2
ACAD
 70
    64
  0
ENDTAB
  0
TABLE
  2
DIMSTYLE
 70
     0
  0
ENDTAB
  0
ENDSEC
  0
SECTION
  2
BLOCKS
  0
BLOCK
  8
0
  2
1
 70
    64
 10
0.0
 20
0.0
 30
0.0
  3
1
  0
ENDBLK
  8
0
  0
BLOCK
  8
0
  2
BLC16
 70
     0
 10
0.0
 20
0.0
 30
0.0
  3
BLC16
  0
LINE
  8
0
  6
CONTINUOUS
 10
0.007689
 20
38.054928
 30
0.0
 11
19.983683
 21
38.054928
 31
0.0
  0
LINE
  8
0
  6
CONTINUOUS
 10
19.983683
 20
38.054928
 30
0.0
 11
19.983683
 21
-0.003751
 31
0.0
  0
LINE
  8
0
  6
CONTINUOUS
 10
19.983683
 20
-0.003751
 30
0.0
 11
0.007689
 21
-0.003751
 31
0.0
  0
LINE
  8
0
  6
CONTINUOUS
 10
0.007689
 20
-0.003751
 30
0.0
 11
0.007689
 21
38.054928
 31
0.0
  0
LINE
  8
0
  6
CONTINUOUS
 10
14.152643
 20
36.919738
 30
0.0
 11
14.152643
 21
33.528469
 31
0.0
  0
LINE
  8
0
  6
CONTINUOUS
 10
14.152643
 20
33.528469
 30
0.0
 11
11.560435
 21
33.528469
 31
0.0
  0
LINE
  8
0
  6
CONTINUOUS
 10
11.560435
 20
33.528469
 30
0.0
 11
11.560435
 21
30.778433
 31
0.0
  0
LINE
  8
0
  6
CONTINUOUS
 10
11.560435
 20
30.778433
 30
0.0
 11
14.152643
 21
30.778433
 31
0.0
  0
LINE
  8
0
  6
CONTINUOUS
 10
14.152643
 20
30.778433
 30
0.0
 11
14.152643
 21
27.387164
 31
0.0
  0
TEXT
  8
0
  6
CONTINUOUS
 10
6.558569
 20
30.805266
 30
0.0
 40
2.5
  1
2
 11
6.558569
 21
29.971932
 31
0.0
 73
     1
  0
TEXT
  8
0
  6
CONTINUOUS
 10
6.553289
 20
23.854078
 30
0.0
 40
2.5
  1
2 I
 11
6.553289
 21
23.020744
 31
0.0
 73
     1
  0
LINE
  8
0
  6
CONTINUOUS
 10
12.942534
 20
26.359129
 30
0.0
 11
15.288299
 21
25.023775
 31
0.0
  0
LINE
  8
0
  6
CONTINUOUS
 10
15.288299
 20
25.023775
 30
0.0
 11
12.942534
 21
23.833856
 31
0.0
  0
LINE
  8
0
  6
CONTINUOUS
 10
14.169823
 20
26.359129
 30
0.0
 11
16.515589
 21
25.023775
 31
0.0
  0
LINE
  8
0
  6
CONTINUOUS
 10
16.515589
 20
25.023775
 30
0.0
 11
14.169823
 21
23.833856
 31
0.0
  0
TEXT
  8
0
  6
CONTINUOUS
 10
11.566446
 20
19.235679
 30
0.0
 40
2.5
  1
I
 11
11.566446
 21
18.402346
 31
0.0
 73
     1
  0
TEXT
  8
0
  6
CONTINUOUS
 10
13.018181
 20
18.902346
 30
0.0
 40
1.5
  1
2
 11
13.018181
 21
18.402346
 31
0.0
 73
     1
  0
LINE
  8
0
  6
CONTINUOUS
 10
10.65733
 20
12.773825
 30
0.0
 11
13.003095
 21
13.963744
 31
0.0
  0
LINE
  8
0
  6
CONTINUOUS
 10
13.003095
 20
11.438471
 30
0.0
 11
10.65733
 21
12.773825
 31
0.0
  0
LINE
  8
0
  6
CONTINUOUS
 10
6.557002
 20
16.714658
 30
0.0
 11
15.281743
 21
16.714658
 31
0.0
  0
LINE
  8
0
  6
CONTINUOUS
 10
6.557002
 20
17.523984
 30
0.0
 11
6.557002
 21
15.908791
 31
0.0
  0
LINE
  8
0
  6
CONTINUOUS
 10
15.286518
 20
17.523984
 30
0.0
 11
15.286518
 21
15.908791
 31
0.0
  0
ARC
  8
0
  6
CONTINUOUS
 10
12.684846
 20
18.508045
 30
0.0
 40
2.922744
 50
193.105513
 51
283.105513
  0
TEXT
  8
0
  6
CONTINUOUS
 10
6.557002
 20
11.567974
 30
0.0
 40
2.5
  1
2I
 11
6.557002
 21
10.734641
 31
0.0
 73
     1
  0
LINE
  8
0
  6
CONTINUOUS
 10
6.557002
 20
9.441103
 30
0.0
 11
15.281743
 21
9.441103
 31
0.0
  0
LINE
  8
0
  6
CONTINUOUS
 10
15.286518
 20
10.250429
 30
0.0
 11
15.286518
 21
8.635236
 31
0.0
  0
LINE
  8
0
  6
CONTINUOUS
 10
6.557002
 20
10.250429
 30
0.0
 11
6.557002
 21
8.635236
 31
0.0
  0
TEXT
  8
0
  6
CONTINUOUS
 10
6.557002
 20
4.778631
 30
0.0
 40
2.5
  1
I
 11
6.557002
 21
3.945298
 31
0.0
 73
     1
  0
LINE
  8
0
  6
CONTINUOUS
 10
9.509029
 20
6.822462
 30
0.0
 11
9.509029
 21
5.477736
 31
0.0
  0
LINE
  8
0
  6
CONTINUOUS
 10
8.615065
 20
5.477736
 30
0.0
 11
9.52622
 21
5.477736
 31
0.0
  0
LINE
  8
0
  6
CONTINUOUS
 10
9.509029
 20
5.477736
 30
0.0
 11
10.402992
 21
5.477736
 31
0.0
  0
LINE
  8
0
  6
CONTINUOUS
 10
8.901592
 20
5.082328
 30
0.0
 11
9.509029
 21
5.082328
 31
0.0
  0
LINE
  8
0
  6
CONTINUOUS
 10
9.509029
 20
5.082328
 30
0.0
 11
10.150849
 21
5.082328
 31
0.0
  0
LINE
  8
0
  6
CONTINUOUS
 10
9.981861
 20
4.719969
 30
0.0
 11
9.072041
 21
4.719969
 31
0.0
  0
LINE
  8
0
  6
CONTINUOUS
 10
15.286518
 20
2.797924
 30
0.0
 11
15.286518
 21
1.182731
 31
0.0
  0
LINE
  8
0
  6
CONTINUOUS
 10
6.557002
 20
1.988598
 30
0.0
 11
15.281743
 21
1.988598
 31
0.0
  0
LINE
  8
0
  6
CONTINUOUS
 10
6.557002
 20
2.797924
 30
0.0
 11
6.557002
 21
1.182731
 31
0.0
  0
ENDBLK
  8
0
  0
BLOCK
  8
0
  2
BLC27
 70
    64
 10
0.0
 20
0.0
 30
0.0
  3
BLC27
  0
INSERT
  8
SWEDEN2
  6
CENTER
  2
BLC26
 10
0.08063
 20
0.037985
 30
0.0
 41
1.006225
 42
1.006225
 43
1.006225
  0
ENDBLK
  8
0
  0
BLOCK
  8
0
  2
BLC26
 70
    64
 10
0.0
 20
0.0
 30
0.0
  3
BLC26
  0
ARC
  8
0
  6
CONTINUOUS
 10
-0.180576
 20
1.17922
 30
0.0
 40
1.196859
 50
90.0
 51
265.706237
  0
LINE
  8
0
  6
CONTINUOUS
 10
-0.186638
 20
-0.01092
 30
0.0
 11
0.458942
 21
-0.01092
 31
0.0
  0
LINE
  8
0
  6
CONTINUOUS
 10
-0.186638
 20
2.375671
 30
0.0
 11
0.45288
 21
2.375671
 31
0.0
  0
LINE
  8
0
  6
CONTINUOUS
 10
-0.185509
 20
-2.404629
 30
0.0
 11
0.460071
 21
-2.404629
 31
0.0
  0
ARC
  8
0
  6
CONTINUOUS
 10
-0.180576
 20
-1.207779
 30
0.0
 40
1.196859
 50
90.0
 51
270.0
  0
LINE
  8
0
  6
CONTINUOUS
 10
0.451525
 20
-2.404586
 30
0.0
 11
1.401805
 21
-2.404586
 31
0.0
  0
LINE
  8
0
  6
CONTINUOUS
 10
0.446785
 20
2.375674
 30
0.0
 11
1.418544
 21
2.375674
 31
0.0
  0
LINE
  8
0
  6
CONTINUOUS
 10
0.456627
 20
-0.010911
 30
0.0
 11
1.422749
 21
-0.010911
 31
0.0
  0
ENDBLK
  8
0
  0
BLOCK
  8
0
  2
BLC22
 70
     0
 10
0.0
 20
0.0
 30
0.0
  3
BLC22
  0
LINE
  8
HEL035
 10
0.0
 20
-0.00155
 30
0.0
 11
0.0
 21
9.99845
 31
0.0
  0
LINE
  8
21
 10
2.5
 20
10.0
 30
0.0
 11
5.0
 21
10.0
 31
0.0
  0
LINE
  8
HEL035
 10
0.0
 20
9.99845
 30
0.0
 11
2.5
 21
9.99845
 31
0.0
  0
LINE
  8
HEL035
 10
-2.5
 20
5.0
 30
0.0
 11
2.5
 21
5.0
 31
0.0
  0
LINE
  8
21
 10
2.5
 20
5.0
 30
0.0
 11
5.0
 21
5.0
 31
0.0
  0
LINE
  8
21
 10
5.0
 20
5.0
 30
0.0
 11
5.0
 21
7.9
 31
0.0
  0
LINE
  8
HEL035
 10
3.88095
 20
6.944425
 30
0.0
 11
4.560313
 21
6.008681
 31
0.0
  0
LINE
  8
21
 10
10.0
 20
10.0
 30
0.0
 11
4.2
 21
6.5
 31
0.0
  0
LINE
  8
HEL035
 10
2.5
 20
-0.00155
 30
0.0
 11
0.0
 21
-0.00155
 31
0.0
  0
LINE
  8
21
 10
2.5
 20
0.0
 30
0.0
 11
5.0
 21
0.0
 31
0.0
  0
ENDBLK
  8
0
  0
BLOCK
  8
0
  2
BLC18
 70
     0
 10
0.0
 20
0.0
 30
0.0
  3
BLC18
  0
LINE
  8
MUO
 10
-0.056268
 20
0.849555
 30
0.0
 11
8.307242
 21
9.215502
 31
0.0
  0
LINE
  8
MUO
 10
0.928025
 20
-0.107047
 30
0.0
 11
9.268386
 21
8.2307
 31
0.0
  0
LINE
  8
MUO
 10
-0.056268
 20
-0.107047
 30
0.0
 11
-0.056268
 21
9.215502
 31
0.0
  0
LINE
  8
MUO
 10
9.268386
 20
-0.107047
 30
0.0
 11
-0.056268
 21
-0.107047
 31
0.0
  0
LINE
  8
MUO
 10
9.268386
 20
9.215502
 30
0.0
 11
9.268386
 21
-0.107047
 31
0.0
  0
LINE
  8
MUO
 10
-0.056268
 20
9.215502
 30
0.0
 11
9.268386
 21
9.215502
 31
0.0
  0
ENDBLK
  8
0
  0
BLOCK
  8
0
  2
BLC29
 70
    64
 10
0.0
 20
0.0
 30
0.0
  3
BLC29
  0
LINE
  8
0
  6
CONTINUOUS
 10
0.004865
 20
1.206889
 30
0.0
 11
2.350631
 21
-0.128465
 31
0.0
  0
LINE
  8
0
  6
CONTINUOUS
 10
2.350631
 20
-0.128465
 30
0.0
 11
0.004865
 21
-1.318384
 31
0.0
  0
ENDBLK
  8
0
  0
BLOCK
  8
0
  2
WKU130
 70
     0
 10
190.0
 20
250.0
 30
0.0
  3
WKU130
  0
ARC
  8
21
 10
191.083333
 20
249.916667
 30
0.0
 40
1.086534
 50
32.471192
 51
175.601295
  0
ARC
  8
21
 10
192.916667
 20
251.083333
 30
0.0
 40
1.086534
 50
212.471192
 51
355.601295
  0
ENDBLK
  8
0
  0
BLOCK
  8
0
  2
BLC15
 70
    64
 10
0.0
 20
0.0
 30
0.0
  3
BLC15
  0
LINE
  8
0
  6
CONTINUOUS
 10
0.142084
 20
3.490022
 30
0.0
 11
0.142084
 21
0.844365
 31
0.0
  0
LINE
  8
0
  6
CONTINUOUS
 10
-0.461611
 20
-0.937188
 30
0.0
 11
0.745779
 21
-0.937188
 31
0.0
  0
LINE
  8
0
  6
CONTINUOUS
 10
-0.894108
 20
-0.049675
 30
0.0
 11
1.169267
 21
-0.049675
 31
0.0
  0
LINE
  8
0
  6
CONTINUOUS
 10
-1.389679
 20
0.844365
 30
0.0
 11
1.673848
 21
0.844365
 31
0.0
  0
ENDBLK
  8
0
  0
BLOCK
  8
0
  2
BLC5
 70
     0
 10
0.0
 20
0.0
 30
0.0
  3
BLC5
  0
TEXT
  8
0
 10
-3.043704
 20
-6.645912
 30
0.0
 40
3.2
  1
PE
  0
LINE
  8
0
 10
-2.946392
 20
1.181176
 30
0.0
 11
2.135458
 21
1.181176
 31
0.0
  0
LINE
  8
0
 10
-0.48656
 20
2.238362
 30
0.0
 11
-0.48656
 21
6.930438
 31
0.0
  0
LINE
  8
0
 10
-1.973271
 20
0.065258
 30
0.0
 11
1.225411
 21
0.065258
 31
0.0
  0
LINE
  8
0
 10
2.685091
 20
2.238362
 30
0.0
 11
1.68494
 21
2.238362
 31
0.0
  0
LINE
  8
0
 10
-3.505035
 20
2.238362
 30
0.0
 11
2.649049
 21
2.238362
 31
0.0
  0
CIRCLE
  8
0
 10
-0.47755
 20
1.422632
 30
0.0
 40
3.804563
  0
ENDBLK
  8
0
  0
BLOCK
  8
0
  2
BLC43
 70
    64
 10
0.0
 20
0.0
 30
0.0
  3
BLC43
  0
TEXT
  8
SWEDEN2
  6
CONTINUOUS
 10
-0.646672
 20
-0.986365
 30
0.0
 40
2.0
  1
+
  0
ENDBLK
  8
0
  0
BLOCK
  8
0
  2
BLC42
 70
    64
 10
0.0
 20
0.0
 30
0.0
  3
BLC42
  0
TEXT
  8
SWEDEN2
  6
CONTINUOUS
 10
-0.655237
 20
-0.99442
 30
0.0
 40
2.0
  1
-
  0
ENDBLK
  8
0
  0
BLOCK
  8
0
  2
BLC25
 70
     0
 10
0.0
 20
0.0
 30
0.0
  3
BLC25
  0
TEXT
  8
0
  6
CONTINUOUS
 10
2.0
 20
30.666667
 30
0.0
 40
2.0
  1
1)
 11
2.0
 21
30.0
 31
0.0
 73
     1
  0
TEXT
  8
0
 10
6.0
 20
2.0
 30
0.0
 40
2.0
  1
7B    27     26
 11
6.0
 21
1.333333
 31
0.0
 73
     1
  0
TEXT
  8
0
 10
6.0
 20
5.333333
 30
0.0
 40
2.0
  1
5B     9      8
 11
6.0
 21
4.666667
 31
0.0
 73
     1
  0
TEXT
  8
0
 10
6.0
 20
8.666667
 30
0.0
 40
2.0
  1
3B     3      2
 11
6.0
 21
8.0
 31
0.0
 73
     1
  0
TEXT
  8
0
 10
32.0
 20
12.666667
 30
0.0
 40
2.0
  1
In=5A
 11
32.0
 21
12.0
 31
0.0
 73
     1
  0
TEXT
  8
0
 10
16.0
 20
12.666667
 30
0.0
 40
2.0
  1
In=1A 
 11
16.0
 21
12.0
 31
0.0
 73
     1
  0
TEXT
  8
0
 10
26.0
 20
18.666667
 30
0.0
 40
2.0
  1
108:
 11
26.0
 21
18.0
 31
0.0
 73
     1
  0
TEXT
  8
0
 10
6.0
 20
18.666667
 30
0.0
 40
2.0
  1
101:       
 11
6.0
 21
18.0
 31
0.0
 73
     1
  0
TEXT
  8
0
 10
6.0
 20
24.666667
 30
0.0
 40
2.0
  1
TERMINALS / UTTAG
 11
6.0
 21
24.0
 31
0.0
 73
     1
  0
LINE
  8
0
 10
0.0
 20
12.0
 30
0.0
 11
44.0
 21
12.0
 31
0.0
  0
LINE
  8
0
 10
28.0
 20
18.0
 30
0.0
 11
28.0
 21
0.0
 31
0.0
  0
LINE
  8
0
 10
14.0
 20
18.0
 30
0.0
 11
44.0
 21
18.0
 31
0.0
  0
LINE
  8
0
 10
14.0
 20
24.0
 30
0.0
 11
14.0
 21
0.0
 31
0.0
  0
LINE
  8
0
 10
0.0
 20
24.0
 30
0.0
 11
44.0
 21
24.0
 31
0.0
  0
LINE
  8
0
 10
44.0
 20
0.0
 30
0.0
 11
44.0
 21
30.0
 31
0.0
  0
LINE
  8
0
 10
0.0
 20
0.0
 30
0.0
 11
44.0
 21
0.0
 31
0.0
  0
LINE
  8
0
 10
0.0
 20
30.0
 30
0.0
 11
0.0
 21
0.0
 31
0.0
  0
LINE
  8
0
 10
44.0
 20
30.0
 30
0.0
 11
0.0
 21
30.0
 31
0.0
  0
ENDBLK
  8
0
  0
BLOCK
  8
0
  2
ABBA3V
 70
    64
 10
0.0
 20
0.0
 30
0.0
  3
ABBA3V
  0
TEXT
  8
RAAMI
  6
DASHED
 10
292.217194
 20
11.813359
 30
0.0
 40
3.0
  1
A3
  7
GREEKS
  0
TEXT
  8
RAAMI
  6
DASHED
 10
351.818577
 20
15.69253
 30
0.0
 40
1.4
  1
LEHTI SHEET
  7
GREEKS
  0
LINE
  8
PAKSU
 10
0.237099
 20
262.737999
 30
0.0
 11
392.237099
 21
262.737999
 31
0.0
  0
LINE
  8
RAAMI
 10
18.237099
 20
0.237999
 30
0.0
 11
0.237099
 21
0.237999
 31
0.0
  0
LINE
  8
PAKSU
 10
209.237099
 20
0.237999
 30
0.0
 11
392.237099
 21
0.237999
 31
0.0
  0
LINE
  8
PAKSU
 10
209.237099
 20
0.237999
 30
0.0
 11
209.237099
 21
35.237999
 31
0.0
  0
LINE
  8
PAKSU
 10
392.237099
 20
0.237999
 30
0.0
 11
392.237099
 21
35.237999
 31
0.0
  0
LINE
  8
OHUT
 10
209.237099
 20
18.237999
 30
0.0
 11
392.237099
 21
18.237999
 31
0.0
  0
LINE
  8
OHUT
 10
209.237099
 20
9.737999
 30
0.0
 11
392.237099
 21
9.737999
 31
0.0
  0
LINE
  8
OHUT
 10
209.237099
 20
26.737999
 30
0.0
 11
307.237099
 21
26.737999
 31
0.0
  0
LINE
  8
PAKSU
 10
209.237099
 20
35.237999
 30
0.0
 11
392.237099
 21
35.237999
 31
0.0
  0
TEXT
  8
RAAMI
 10
210.237099
 20
23.971333
 30
0.0
 40
1.4
  1
TARKASTI  CHECKED
  7
ROMANS
  0
TEXT
  8
RAAMI
 10
209.979934
 20
15.704666
 30
0.0
 40
1.4
  1
HYVÄKSYI  APPROVED
  7
ROMANS
  0
LINE
  8
OHUT
 10
307.237099
 20
0.237999
 30
0.0
 11
307.237099
 21
35.237999
 31
0.0
  0
TEXT
  8
RAAMI
 10
259.237099
 20
32.737999
 30
0.0
 40
1.4
  1
LIITTYY  CONCERNING
  7
ROMANS
  0
TEXT
  8
RAAMI
 10
259.237099
 20
23.737999
 30
0.0
 40
1.4
  1
TOLERANSSIT  TOLERANCES
  7
ROMANS
  0
TEXT
  8
RAAMI
 10
259.237099
 20
15.737999
 30
0.0
 40
1.4
  1
SUHDE  SCALE
  7
ROMANS
  0
TEXT
  8
RAAMI
 10
309.237099
 20
32.737999
 30
0.0
 40
1.4
  1
NIMITYS  NAME
  7
ROMANS
  0
TEXT
  8
RAAMI
 10
309.237099
 20
15.737999
 30
0.0
 40
1.4
  1
KOODI  CODE
  7
ROMANS
  0
TEXT
  8
RAAMI
 10
309.237099
 20
7.237999
 30
0.0
 40
1.4
  1
PIIRUSTUS NO  DRAWING NR
  7
ROMANS
  0
LINE
  8
OHUT
 10
349.737099
 20
9.737999
 30
0.0
 11
349.737099
 21
18.237999
 31
0.0
  0
TEXT
  8
RAAMI
 10
371.237099
 20
7.237999
 30
0.0
 40
1.4
  1
PAINOS  REVISION
  7
ROMANS
  0
LINE
  8
OHUT
 10
369.737099
 20
9.737999
 30
0.0
 11
369.737099
 21
0.237999
 31
0.0
  0
LINE
  8
RAAMI
 10
210.187099
 20
1.737999
 30
0.0
 11
211.937099
 21
1.737999
 31
0.0
  0
LINE
  8
RAAMI
 10
215.437099
 20
1.737999
 30
0.0
 11
217.187099
 21
1.737999
 31
0.0
  0
LINE
  8
RAAMI
 10
212.637099
 20
8.737999
 30
0.0
 11
211.459571
 21
5.373634
 31
0.0
  0
LINE
  8
RAAMI
 10
212.425886
 20
3.137999
 30
0.0
 11
213.547099
 21
3.137999
 31
0.0
  0
LINE
  8
RAAMI
 10
212.425889
 20
3.134542
 30
0.0
 11
211.937099
 21
1.737999
 31
0.0
  0
LINE
  8
RAAMI
 10
214.737099
 20
8.737999
 30
0.0
 11
215.913452
 21
5.376991
 31
0.0
  0
LINE
  8
RAAMI
 10
214.948197
 20
3.134863
 30
0.0
 11
215.437099
 21
1.737999
 31
0.0
  0
LINE
  8
RAAMI
 10
214.737099
 20
8.737999
 30
0.0
 11
213.827099
 21
8.737999
 31
0.0
  0
LINE
  8
RAAMI
 10
213.547099
 20
8.737999
 30
0.0
 11
213.547099
 21
5.377999
 31
0.0
  0
LINE
  8
RAAMI
 10
213.827099
 20
8.737999
 30
0.0
 11
213.827099
 21
5.377999
 31
0.0
  0
LINE
  8
RAAMI
 10
213.827099
 20
3.137999
 30
0.0
 11
214.946992
 21
3.137999
 31
0.0
  0
LINE
  8
RAAMI
 10
213.547099
 20
8.737999
 30
0.0
 11
212.637099
 21
8.737999
 31
0.0
  0
LINE
  8
RAAMI
 10
211.45904
 20
5.377999
 30
0.0
 11
213.547099
 21
5.377999
 31
0.0
  0
LINE
  8
RAAMI
 10
211.360082
 20
5.097999
 30
0.0
 11
213.547099
 21
5.097999
 31
0.0
  0
LINE
  8
RAAMI
 10
216.011591
 20
5.096594
 30
0.0
 11
217.187099
 21
1.737999
 31
0.0
  0
LINE
  8
RAAMI
 10
213.827099
 20
5.377999
 30
0.0
 11
215.912213
 21
5.377999
 31
0.0
  0
LINE
  8
RAAMI
 10
213.827099
 20
5.097999
 30
0.0
 11
216.010356
 21
5.097999
 31
0.0
  0
LINE
  8
RAAMI
 10
213.827099
 20
5.097999
 30
0.0
 11
213.827099
 21
3.137999
 31
0.0
  0
LINE
  8
RAAMI
 10
213.547099
 20
5.097999
 30
0.0
 11
213.547099
 21
3.137999
 31
0.0
  0
LINE
  8
RAAMI
 10
211.356988
 20
5.080538
 30
0.0
 11
210.187099
 21
1.737999
 31
0.0
  0
INSERT
  8
RAAMI
  2
*X14
 10
210.187099
 20
1.737999
 30
0.0
 41
0.7
 42
0.7
 43
0.7
  0
INSERT
  8
RAAMI
  2
*X15
 10
210.187099
 20
1.737999
 30
0.0
 41
0.7
 42
0.7
 43
0.7
  0
INSERT
  8
RAAMI
  2
*X16
 10
210.187099
 20
1.737999
 30
0.0
 41
0.7
 42
0.7
 43
0.7
  0
INSERT
  8
RAAMI
  2
*X17
 10
210.187099
 20
1.737999
 30
0.0
 41
0.7
 42
0.7
 43
0.7
  0
LINE
  8
RAAMI
 10
217.677099
 20
1.737999
 30
0.0
 11
217.677099
 21
5.097999
 31
0.0
  0
LINE
  8
RAAMI
 10
217.677099
 20
8.737999
 30
0.0
 11
219.637099
 21
8.737999
 31
0.0
  0
LINE
  8
RAAMI
 10
219.637099
 20
8.737999
 30
0.0
 11
219.637099
 21
5.377999
 31
0.0
  0
LINE
  8
RAAMI
 10
219.637099
 20
5.377999
 30
0.0
 11
217.677099
 21
5.377999
 31
0.0
  0
LINE
  8
RAAMI
 10
217.677099
 20
5.097999
 30
0.0
 11
219.637099
 21
5.097999
 31
0.0
  0
LINE
  8
RAAMI
 10
219.637099
 20
5.097999
 30
0.0
 11
219.637099
 21
1.737999
 31
0.0
  0
LINE
  8
RAAMI
 10
219.637099
 20
1.737999
 30
0.0
 11
217.677099
 21
1.737999
 31
0.0
  0
LINE
  8
RAAMI
 10
217.677099
 20
5.377999
 30
0.0
 11
217.677099
 21
8.737999
 31
0.0
  0
ARC
  8
RAAMI
 10
220.477099
 20
7.162999
 30
0.0
 40
1.575
 50
298.455859
 51
90.052437
  0
LINE
  8
RAAMI
 10
219.917099
 20
8.737999
 30
0.0
 11
220.475658
 21
8.737999
 31
0.0
  0
LINE
  8
RAAMI
 10
219.917099
 20
8.737999
 30
0.0
 11
219.917099
 21
5.377999
 31
0.0
  0
LINE
  8
RAAMI
 10
219.917099
 20
5.377999
 30
0.0
 11
221.901542
 21
5.377999
 31
0.0
  0
LINE
  8
RAAMI
 10
222.157099
 20
5.097999
 30
0.0
 11
219.917099
 21
5.097999
 31
0.0
  0
LINE
  8
RAAMI
 10
219.917099
 20
5.097999
 30
0.0
 11
219.917099
 21
1.737999
 31
0.0
  0
ARC
  8
RAAMI
 10
220.477099
 20
3.837999
 30
0.0
 40
2.1
 50
269.937724
 51
37.056553
  0
LINE
  8
RAAMI
 10
219.917099
 20
1.737999
 30
0.0
 11
220.474817
 21
1.738
 31
0.0
  0
ARC
  8
RAAMI
 10
220.477099
 20
3.837999
 30
0.0
 40
2.1
 50
47.28622
 51
68.787999
  0
INSERT
  8
RAAMI
  2
*X18
 10
210.187099
 20
1.737999
 30
0.0
 41
0.7
 42
0.7
 43
0.7
  0
INSERT
  8
RAAMI
  2
*X19
 10
210.187099
 20
1.737999
 30
0.0
 41
0.7
 42
0.7
 43
0.7
  0
INSERT
  8
RAAMI
  2
*X20
 10
210.187099
 20
1.737999
 30
0.0
 41
0.7
 42
0.7
 43
0.7
  0
INSERT
  8
RAAMI
  2
*X21
 10
210.187099
 20
1.737999
 30
0.0
 41
0.7
 42
0.7
 43
0.7
  0
INSERT
  8
RAAMI
  2
*X21
 10
215.647099
 20
1.737999
 30
0.0
 41
0.7
 42
0.7
 43
0.7
  0
INSERT
  8
RAAMI
  2
*X20
 10
215.647099
 20
1.737999
 30
0.0
 41
0.7
 42
0.7
 43
0.7
  0
INSERT
  8
RAAMI
  2
*X19
 10
215.647099
 20
1.737999
 30
0.0
 41
0.7
 42
0.7
 43
0.7
  0
INSERT
  8
RAAMI
  2
*X18
 10
215.647099
 20
1.737999
 30
0.0
 41
0.7
 42
0.7
 43
0.7
  0
ARC
  8
RAAMI
 10
225.937099
 20
3.837999
 30
0.0
 40
2.1
 50
47.28622
 51
68.787999
  0
LINE
  8
RAAMI
 10
225.377099
 20
1.737999
 30
0.0
 11
225.934817
 21
1.738
 31
0.0
  0
ARC
  8
RAAMI
 10
225.937099
 20
3.837999
 30
0.0
 40
2.1
 50
269.937724
 51
37.056553
  0
LINE
  8
RAAMI
 10
225.377099
 20
5.097999
 30
0.0
 11
225.377099
 21
1.737999
 31
0.0
  0
LINE
  8
RAAMI
 10
227.617099
 20
5.097999
 30
0.0
 11
225.377099
 21
5.097999
 31
0.0
  0
LINE
  8
RAAMI
 10
225.377099
 20
5.377999
 30
0.0
 11
227.361542
 21
5.377999
 31
0.0
  0
LINE
  8
RAAMI
 10
225.377099
 20
8.737999
 30
0.0
 11
225.377099
 21
5.377999
 31
0.0
  0
LINE
  8
RAAMI
 10
225.377099
 20
8.737999
 30
0.0
 11
225.935658
 21
8.737999
 31
0.0
  0
ARC
  8
RAAMI
 10
225.937099
 20
7.162999
 30
0.0
 40
1.575
 50
298.455859
 51
90.052437
  0
LINE
  8
RAAMI
 10
223.137099
 20
5.377999
 30
0.0
 11
223.137099
 21
8.737999
 31
0.0
  0
LINE
  8
RAAMI
 10
225.097099
 20
1.737999
 30
0.0
 11
223.137099
 21
1.737999
 31
0.0
  0
LINE
  8
RAAMI
 10
225.097099
 20
5.097999
 30
0.0
 11
225.097099
 21
1.737999
 31
0.0
  0
LINE
  8
RAAMI
 10
223.137099
 20
5.097999
 30
0.0
 11
225.097099
 21
5.097999
 31
0.0
  0
LINE
  8
RAAMI
 10
225.097099
 20
5.377999
 30
0.0
 11
223.137099
 21
5.377999
 31
0.0
  0
LINE
  8
RAAMI
 10
225.097099
 20
8.737999
 30
0.0
 11
225.097099
 21
5.377999
 31
0.0
  0
LINE
  8
RAAMI
 10
223.137099
 20
8.737999
 30
0.0
 11
225.097099
 21
8.737999
 31
0.0
  0
LINE
  8
RAAMI
 10
223.137099
 20
1.737999
 30
0.0
 11
223.137099
 21
5.097999
 31
0.0
  0
TEXT
  8
RAAMI
 10
229.737099
 20
1.737999
 30
0.0
 40
3.0
  1
ABB 
 41
0.8
  7
ROMANS
  0
TEXT
  8
RAAMI
 10
237.737099
 20
1.737999
 30
0.0
 40
3.0
  1
Strömberg
 41
0.8
  7
ROMANS
  0
LINE
  8
OHUT
 10
282.237099
 20
9.737999
 30
0.0
 11
282.237099
 21
18.237999
 31
0.0
  0
TEXT
  8
RAAMI
 10
27.737099
 20
4.737999
 30
0.0
 40
1.4
  1
MUUTOS
  7
ROMANS
  0
TEXT
  8
RAAMI
 10
27.737099
 20
2.471333
 30
0.0
 40
1.4
  1
REVISION
  7
ROMANS
  0
LINE
  8
OHUT
 10
46.737099
 20
9.237999
 30
0.0
 11
209.237099
 21
9.237999
 31
0.0
  0
LINE
  8
OHUT
 10
46.737099
 20
0.237999
 30
0.0
 11
46.737099
 21
9.237999
 31
0.0
  0
LINE
  8
OHUT
 10
40.737099
 20
4.737999
 30
0.0
 11
209.237099
 21
4.737999
 31
0.0
  0
LINE
  8
OHUT
 10
257.237099
 20
9.737999
 30
0.0
 11
257.237099
 21
35.237999
 31
0.0
  0
LINE
  8
OHUT
 10
271.237099
 20
9.737999
 30
0.0
 11
271.237099
 21
0.237999
 31
0.0
  0
TEXT
  8
RAAMI
 10
210.237099
 20
32.237999
 30
0.0
 40
1.4
  1
TEKI  PREPARED
  7
ROMANS
  0
TEXT
  8
RAAMI
 10
273.237099
 20
7.237999
 30
0.0
 40
1.4
  1
VAST.OSASTO RESP.DEPT.
  7
ROMANS
  0
TEXT
  8
RAAMI
 10
257.407006
 20
1.741783
 30
0.0
 40
3.0
  1
Power
 41
0.8
  7
ROMANS
  0
TEXT
  8
RAAMI
 10
42.237099
 20
1.195292
 30
0.0
 40
2.5
  1
B
  7
ROMANS
  0
TEXT
  8
RAAMI
 10
42.237099
 20
5.587508
 30
0.0
 40
2.5
  1
C
  7
ROMANS
  0
LINE
  8
PAKSU
 10
0.237099
 20
0.237999
 30
0.0
 11
392.237099
 21
0.237999
 31
0.0
  0
LINE
  8
PAKSU
 10
392.237099
 20
262.737999
 30
0.0
 11
392.237099
 21
0.237999
 31
0.0
  0
LINE
  8
PAKSU
 10
0.237099
 20
0.237999
 30
0.0
 11
0.237099
 21
262.737999
 31
0.0
  0
ENDBLK
  8
0
  0
BLOCK
  8
0
  2
*X14
 70
    65
 10
0.0
 20
0.0
 30
0.0
  3
*X
  0
LINE
  8
0
 62
     0
 10
2.284499
 20
6.52714
 30
0.0
 11
4.8
 21
9.042641
 31
0.0
  0
LINE
  8
0
 62
     0
 10
2.379686
 20
6.799104
 30
0.0
 11
4.8
 21
9.219417
 31
0.0
  0
LINE
  8
0
 62
     0
 10
2.474874
 20
7.071068
 30
0.0
 11
4.8
 21
9.396194
 31
0.0
  0
LINE
  8
0
 62
     0
 10
2.570061
 20
7.343032
 30
0.0
 11
4.8
 21
9.572971
 31
0.0
  0
LINE
  8
0
 62
     0
 10
2.665249
 20
7.614996
 30
0.0
 11
4.8
 21
9.749747
 31
0.0
  0
LINE
  8
0
 62
     0
 10
2.760436
 20
7.88696
 30
0.0
 11
4.8
 21
9.926524
 31
0.0
  0
LINE
  8
0
 62
     0
 10
2.855624
 20
8.158924
 30
0.0
 11
4.696699
 21
10.0
 31
0.0
  0
LINE
  8
0
 62
     0
 10
2.950811
 20
8.430889
 30
0.0
 11
4.519922
 21
10.0
 31
0.0
  0
LINE
  8
0
 62
     0
 10
3.045998
 20
8.702853
 30
0.0
 11
4.343146
 21
10.0
 31
0.0
  0
LINE
  8
0
 62
     0
 10
3.141186
 20
8.974817
 30
0.0
 11
4.166369
 21
10.0
 31
0.0
  0
LINE
  8
0
 62
     0
 10
3.236373
 20
9.246781
 30
0.0
 11
3.989592
 21
10.0
 31
0.0
  0
LINE
  8
0
 62
     0
 10
3.331561
 20
9.518745
 30
0.0
 11
3.812816
 21
10.0
 31
0.0
  0
LINE
  8
0
 62
     0
 10
3.426748
 20
9.790709
 30
0.0
 11
3.636039
 21
10.0
 31
0.0
  0
LINE
  8
0
 62
     0
 10
2.189311
 20
6.255175
 30
0.0
 11
4.8
 21
8.865864
 31
0.0
  0
LINE
  8
0
 62
     0
 10
2.094124
 20
5.983211
 30
0.0
 11
4.8
 21
8.689087
 31
0.0
  0
LINE
  8
0
 62
     0
 10
1.998936
 20
5.711247
 30
0.0
 11
4.8
 21
8.512311
 31
0.0
  0
LINE
  8
0
 62
     0
 10
1.903749
 20
5.439283
 30
0.0
 11
4.8
 21
8.335534
 31
0.0
  0
LINE
  8
0
 62
     0
 10
1.841243
 20
5.2
 30
0.0
 11
4.8
 21
8.158757
 31
0.0
  0
LINE
  8
0
 62
     0
 10
2.018019
 20
5.2
 30
0.0
 11
4.8
 21
7.981981
 31
0.0
  0
LINE
  8
0
 62
     0
 10
2.194796
 20
5.2
 30
0.0
 11
4.8
 21
7.805204
 31
0.0
  0
LINE
  8
0
 62
     0
 10
2.371573
 20
5.2
 30
0.0
 11
4.8
 21
7.628427
 31
0.0
  0
LINE
  8
0
 62
     0
 10
2.54835
 20
5.2
 30
0.0
 11
4.8
 21
7.45165
 31
0.0
  0
LINE
  8
0
 62
     0
 10
2.725126
 20
5.2
 30
0.0
 11
4.8
 21
7.274874
 31
0.0
  0
LINE
  8
0
 62
     0
 10
2.901903
 20
5.2
 30
0.0
 11
4.8
 21
7.098097
 31
0.0
  0
LINE
  8
0
 62
     0
 10
3.07868
 20
5.2
 30
0.0
 11
4.8
 21
6.92132
 31
0.0
  0
LINE
  8
0
 62
     0
 10
3.255456
 20
5.2
 30
0.0
 11
4.8
 21
6.744544
 31
0.0
  0
LINE
  8
0
 62
     0
 10
3.432233
 20
5.2
 30
0.0
 11
4.8
 21
6.567767
 31
0.0
  0
LINE
  8
0
 62
     0
 10
3.60901
 20
5.2
 30
0.0
 11
4.8
 21
6.39099
 31
0.0
  0
LINE
  8
0
 62
     0
 10
3.785786
 20
5.2
 30
0.0
 11
4.8
 21
6.214214
 31
0.0
  0
LINE
  8
0
 62
     0
 10
3.962563
 20
5.2
 30
0.0
 11
4.8
 21
6.037437
 31
0.0
  0
LINE
  8
0
 62
     0
 10
4.13934
 20
5.2
 30
0.0
 11
4.8
 21
5.86066
 31
0.0
  0
LINE
  8
0
 62
     0
 10
4.316117
 20
5.2
 30
0.0
 11
4.8
 21
5.683883
 31
0.0
  0
LINE
  8
0
 62
     0
 10
4.492893
 20
5.2
 30
0.0
 11
4.8
 21
5.507107
 31
0.0
  0
LINE
  8
0
 62
     0
 10
4.66967
 20
5.2
 30
0.0
 11
4.8
 21
5.33033
 31
0.0
  0
ENDBLK
  8
0
  0
BLOCK
  8
0
  2
*X15
 70
    65
 10
0.0
 20
0.0
 30
0.0
  3
*X
  0
LINE
  8
0
 62
     0
 10
5.2
 20
6.083883
 30
0.0
 11
7.178252
 21
8.062136
 31
0.0
  0
LINE
  8
0
 62
     0
 10
5.2
 20
6.26066
 30
0.0
 11
7.132421
 21
8.193082
 31
0.0
  0
LINE
  8
0
 62
     0
 10
5.2
 20
6.437437
 30
0.0
 11
7.08659
 21
8.324027
 31
0.0
  0
LINE
  8
0
 62
     0
 10
5.2
 20
6.614214
 30
0.0
 11
7.040759
 21
8.454973
 31
0.0
  0
LINE
  8
0
 62
     0
 10
5.2
 20
6.79099
 30
0.0
 11
6.994928
 21
8.585919
 31
0.0
  0
LINE
  8
0
 62
     0
 10
5.2
 20
6.967767
 30
0.0
 11
6.949097
 21
8.716864
 31
0.0
  0
LINE
  8
0
 62
     0
 10
5.2
 20
7.144544
 30
0.0
 11
6.903266
 21
8.84781
 31
0.0
  0
LINE
  8
0
 62
     0
 10
5.2
 20
7.32132
 30
0.0
 11
6.857435
 21
8.978756
 31
0.0
  0
LINE
  8
0
 62
     0
 10
5.2
 20
7.498097
 30
0.0
 11
6.811604
 21
9.109702
 31
0.0
  0
LINE
  8
0
 62
     0
 10
5.2
 20
7.674874
 30
0.0
 11
6.765773
 21
9.240647
 31
0.0
  0
LINE
  8
0
 62
     0
 10
5.2
 20
7.85165
 30
0.0
 11
6.719942
 21
9.371593
 31
0.0
  0
LINE
  8
0
 62
     0
 10
5.2
 20
8.028427
 30
0.0
 11
6.674111
 21
9.502539
 31
0.0
  0
LINE
  8
0
 62
     0
 10
5.2
 20
8.205204
 30
0.0
 11
6.62828
 21
9.633484
 31
0.0
  0
LINE
  8
0
 62
     0
 10
5.2
 20
8.381981
 30
0.0
 11
6.582449
 21
9.76443
 31
0.0
  0
LINE
  8
0
 62
     0
 10
5.2
 20
8.558757
 30
0.0
 11
6.536619
 21
9.895376
 31
0.0
  0
LINE
  8
0
 62
     0
 10
5.2
 20
8.735534
 30
0.0
 11
6.464466
 21
10.0
 31
0.0
  0
LINE
  8
0
 62
     0
 10
5.2
 20
8.912311
 30
0.0
 11
6.287689
 21
10.0
 31
0.0
  0
LINE
  8
0
 62
     0
 10
5.2
 20
9.089087
 30
0.0
 11
6.110913
 21
10.0
 31
0.0
  0
LINE
  8
0
 62
     0
 10
5.2
 20
9.265864
 30
0.0
 11
5.934136
 21
10.0
 31
0.0
  0
LINE
  8
0
 62
     0
 10
5.2
 20
9.442641
 30
0.0
 11
5.757359
 21
10.0
 31
0.0
  0
LINE
  8
0
 62
     0
 10
5.2
 20
9.619417
 30
0.0
 11
5.580583
 21
10.0
 31
0.0
  0
LINE
  8
0
 62
     0
 10
5.2
 20
9.796194
 30
0.0
 11
5.403806
 21
10.0
 31
0.0
  0
LINE
  8
0
 62
     0
 10
5.2
 20
9.972971
 30
0.0
 11
5.227029
 21
10.0
 31
0.0
  0
LINE
  8
0
 62
     0
 10
5.2
 20
5.907107
 30
0.0
 11
7.224083
 21
7.93119
 31
0.0
  0
LINE
  8
0
 62
     0
 10
5.2
 20
5.73033
 30
0.0
 11
7.269914
 21
7.800245
 31
0.0
  0
LINE
  8
0
 62
     0
 10
5.2
 20
5.553553
 30
0.0
 11
7.315745
 21
7.669299
 31
0.0
  0
LINE
  8
0
 62
     0
 10
5.2
 20
5.376777
 30
0.0
 11
7.361576
 21
7.538353
 31
0.0
  0
LINE
  8
0
 62
     0
 10
5.2
 20
5.2
 30
0.0
 11
7.407407
 21
7.407407
 31
0.0
  0
LINE
  8
0
 62
     0
 10
5.376777
 20
5.2
 30
0.0
 11
7.453238
 21
7.276462
 31
0.0
  0
LINE
  8
0
 62
     0
 10
5.553553
 20
5.2
 30
0.0
 11
7.499069
 21
7.145516
 31
0.0
  0
LINE
  8
0
 62
     0
 10
5.73033
 20
5.2
 30
0.0
 11
7.5449
 21
7.01457
 31
0.0
  0
LINE
  8
0
 62
     0
 10
5.907107
 20
5.2
 30
0.0
 11
7.590731
 21
6.883625
 31
0.0
  0
LINE
  8
0
 62
     0
 10
6.083883
 20
5.2
 30
0.0
 11
7.636562
 21
6.752679
 31
0.0
  0
LINE
  8
0
 62
     0
 10
6.26066
 20
5.2
 30
0.0
 11
7.682393
 21
6.621733
 31
0.0
  0
LINE
  8
0
 62
     0
 10
6.437437
 20
5.2
 30
0.0
 11
7.728224
 21
6.490788
 31
0.0
  0
LINE
  8
0
 62
     0
 10
6.614214
 20
5.2
 30
0.0
 11
7.774055
 21
6.359842
 31
0.0
  0
LINE
  8
0
 62
     0
 10
6.79099
 20
5.2
 30
0.0
 11
7.819886
 21
6.228896
 31
0.0
  0
LINE
  8
0
 62
     0
 10
6.967767
 20
5.2
 30
0.0
 11
7.865717
 21
6.09795
 31
0.0
  0
LINE
  8
0
 62
     0
 10
7.144544
 20
5.2
 30
0.0
 11
7.911548
 21
5.967005
 31
0.0
  0
LINE
  8
0
 62
     0
 10
7.32132
 20
5.2
 30
0.0
 11
7.957379
 21
5.836059
 31
0.0
  0
LINE
  8
0
 62
     0
 10
7.498097
 20
5.2
 30
0.0
 11
8.00321
 21
5.705113
 31
0.0
  0
LINE
  8
0
 62
     0
 10
7.674874
 20
5.2
 30
0.0
 11
8.049041
 21
5.574168
 31
0.0
  0
LINE
  8
0
 62
     0
 10
7.85165
 20
5.2
 30
0.0
 11
8.094872
 21
5.443222
 31
0.0
  0
LINE
  8
0
 62
     0
 10
8.028427
 20
5.2
 30
0.0
 11
8.140703
 21
5.312276
 31
0.0
  0
ENDBLK
  8
0
  0
BLOCK
  8
0
  2
*X16
 70
    65
 10
0.0
 20
0.0
 30
0.0
  3
*X
  0
LINE
  8
0
 62
     0
 10
0.0
 20
0.0
 30
0.0
 11
4.8
 21
4.8
 31
0.0
  0
LINE
  8
0
 62
     0
 10
0.095187
 20
0.271964
 30
0.0
 11
4.623223
 21
4.8
 31
0.0
  0
LINE
  8
0
 62
     0
 10
0.190375
 20
0.543928
 30
0.0
 11
4.446447
 21
4.8
 31
0.0
  0
LINE
  8
0
 62
     0
 10
0.285562
 20
0.815892
 30
0.0
 11
4.26967
 21
4.8
 31
0.0
  0
LINE
  8
0
 62
     0
 10
0.38075
 20
1.087857
 30
0.0
 11
4.092893
 21
4.8
 31
0.0
  0
LINE
  8
0
 62
     0
 10
0.475937
 20
1.359821
 30
0.0
 11
3.916117
 21
4.8
 31
0.0
  0
LINE
  8
0
 62
     0
 10
0.571125
 20
1.631785
 30
0.0
 11
3.73934
 21
4.8
 31
0.0
  0
LINE
  8
0
 62
     0
 10
0.666312
 20
1.903749
 30
0.0
 11
3.562563
 21
4.8
 31
0.0
  0
LINE
  8
0
 62
     0
 10
0.7615
 20
2.175713
 30
0.0
 11
3.385786
 21
4.8
 31
0.0
  0
LINE
  8
0
 62
     0
 10
0.856687
 20
2.447677
 30
0.0
 11
3.20901
 21
4.8
 31
0.0
  0
LINE
  8
0
 62
     0
 10
0.951875
 20
2.719641
 30
0.0
 11
3.032233
 21
4.8
 31
0.0
  0
LINE
  8
0
 62
     0
 10
1.047062
 20
2.991606
 30
0.0
 11
2.855456
 21
4.8
 31
0.0
  0
LINE
  8
0
 62
     0
 10
1.142249
 20
3.26357
 30
0.0
 11
2.67868
 21
4.8
 31
0.0
  0
LINE
  8
0
 62
     0
 10
1.237437
 20
3.535534
 30
0.0
 11
2.501903
 21
4.8
 31
0.0
  0
LINE
  8
0
 62
     0
 10
1.332624
 20
3.807498
 30
0.0
 11
2.325126
 21
4.8
 31
0.0
  0
LINE
  8
0
 62
     0
 10
1.427812
 20
4.079462
 30
0.0
 11
2.14835
 21
4.8
 31
0.0
  0
LINE
  8
0
 62
     0
 10
1.522999
 20
4.351426
 30
0.0
 11
1.971573
 21
4.8
 31
0.0
  0
LINE
  8
0
 62
     0
 10
1.618187
 20
4.62339
 30
0.0
 11
1.794796
 21
4.8
 31
0.0
  0
LINE
  8
0
 62
     0
 10
0.176777
 20
0.0
 30
0.0
 11
4.8
 21
4.623223
 31
0.0
  0
LINE
  8
0
 62
     0
 10
0.353553
 20
0.0
 30
0.0
 11
4.8
 21
4.446447
 31
0.0
  0
LINE
  8
0
 62
     0
 10
0.53033
 20
0.0
 30
0.0
 11
4.8
 21
4.26967
 31
0.0
  0
LINE
  8
0
 62
     0
 10
0.707107
 20
0.0
 30
0.0
 11
4.8
 21
4.092893
 31
0.0
  0
LINE
  8
0
 62
     0
 10
0.883883
 20
0.0
 30
0.0
 11
4.8
 21
3.916117
 31
0.0
  0
LINE
  8
0
 62
     0
 10
1.06066
 20
0.0
 30
0.0
 11
4.8
 21
3.73934
 31
0.0
  0
LINE
  8
0
 62
     0
 10
1.237437
 20
0.0
 30
0.0
 11
3.179842
 21
1.942405
 31
0.0
  0
LINE
  8
0
 62
     0
 10
3.237437
 20
2.0
 30
0.0
 11
4.8
 21
3.562563
 31
0.0
  0
LINE
  8
0
 62
     0
 10
1.414214
 20
0.0
 30
0.0
 11
3.084654
 21
1.670441
 31
0.0
  0
LINE
  8
0
 62
     0
 10
3.414214
 20
2.0
 30
0.0
 11
4.8
 21
3.385786
 31
0.0
  0
LINE
  8
0
 62
     0
 10
1.59099
 20
0.0
 30
0.0
 11
2.989467
 21
1.398477
 31
0.0
  0
LINE
  8
0
 62
     0
 10
3.59099
 20
2.0
 30
0.0
 11
4.8
 21
3.20901
 31
0.0
  0
LINE
  8
0
 62
     0
 10
1.767767
 20
0.0
 30
0.0
 11
2.894279
 21
1.126512
 31
0.0
  0
LINE
  8
0
 62
     0
 10
3.767767
 20
2.0
 30
0.0
 11
4.8
 21
3.032233
 31
0.0
  0
LINE
  8
0
 62
     0
 10
1.944544
 20
0.0
 30
0.0
 11
2.799092
 21
0.854548
 31
0.0
  0
LINE
  8
0
 62
     0
 10
3.944544
 20
2.0
 30
0.0
 11
4.8
 21
2.855456
 31
0.0
  0
LINE
  8
0
 62
     0
 10
2.12132
 20
0.0
 30
0.0
 11
2.703904
 21
0.582584
 31
0.0
  0
LINE
  8
0
 62
     0
 10
4.12132
 20
2.0
 30
0.0
 11
4.8
 21
2.67868
 31
0.0
  0
LINE
  8
0
 62
     0
 10
2.298097
 20
0.0
 30
0.0
 11
2.608717
 21
0.31062
 31
0.0
  0
LINE
  8
0
 62
     0
 10
4.298097
 20
2.0
 30
0.0
 11
4.8
 21
2.501903
 31
0.0
  0
LINE
  8
0
 62
     0
 10
2.474874
 20
0.0
 30
0.0
 11
2.51353
 21
0.038656
 31
0.0
  0
LINE
  8
0
 62
     0
 10
4.474874
 20
2.0
 30
0.0
 11
4.8
 21
2.325126
 31
0.0
  0
LINE
  8
0
 62
     0
 10
4.65165
 20
2.0
 30
0.0
 11
4.8
 21
2.14835
 31
0.0
  0
ENDBLK
  8
0
  0
BLOCK
  8
0
  2
*X17
 70
    65
 10
0.0
 20
0.0
 30
0.0
  3
*X
  0
LINE
  8
0
 62
     0
 10
6.884654
 20
1.75813
 30
0.0
 11
8.736506
 21
3.609982
 31
0.0
  0
LINE
  8
0
 62
     0
 10
6.838823
 20
1.889076
 30
0.0
 11
8.690675
 21
3.740928
 31
0.0
  0
LINE
  8
0
 62
     0
 10
6.772971
 20
2.0
 30
0.0
 11
8.644844
 21
3.871874
 31
0.0
  0
LINE
  8
0
 62
     0
 10
6.596194
 20
2.0
 30
0.0
 11
8.599013
 21
4.002819
 31
0.0
  0
LINE
  8
0
 62
     0
 10
6.419417
 20
2.0
 30
0.0
 11
8.553182
 21
4.133765
 31
0.0
  0
LINE
  8
0
 62
     0
 10
6.242641
 20
2.0
 30
0.0
 11
8.507351
 21
4.264711
 31
0.0
  0
LINE
  8
0
 62
     0
 10
6.065864
 20
2.0
 30
0.0
 11
8.46152
 21
4.395656
 31
0.0
  0
LINE
  8
0
 62
     0
 10
5.889087
 20
2.0
 30
0.0
 11
8.415689
 21
4.526602
 31
0.0
  0
LINE
  8
0
 62
     0
 10
5.712311
 20
2.0
 30
0.0
 11
8.369858
 21
4.657548
 31
0.0
  0
LINE
  8
0
 62
     0
 10
5.535534
 20
2.0
 30
0.0
 11
8.324027
 21
4.788493
 31
0.0
  0
LINE
  8
0
 62
     0
 10
5.358757
 20
2.0
 30
0.0
 11
8.158757
 21
4.8
 31
0.0
  0
LINE
  8
0
 62
     0
 10
5.2
 20
2.018019
 30
0.0
 11
7.981981
 21
4.8
 31
0.0
  0
LINE
  8
0
 62
     0
 10
5.2
 20
2.194796
 30
0.0
 11
7.805204
 21
4.8
 31
0.0
  0
LINE
  8
0
 62
     0
 10
5.2
 20
2.371573
 30
0.0
 11
7.628427
 21
4.8
 31
0.0
  0
LINE
  8
0
 62
     0
 10
5.2
 20
2.54835
 30
0.0
 11
7.45165
 21
4.8
 31
0.0
  0
LINE
  8
0
 62
     0
 10
5.2
 20
2.725126
 30
0.0
 11
7.274874
 21
4.8
 31
0.0
  0
LINE
  8
0
 62
     0
 10
5.2
 20
2.901903
 30
0.0
 11
7.098097
 21
4.8
 31
0.0
  0
LINE
  8
0
 62
     0
 10
5.2
 20
3.07868
 30
0.0
 11
6.92132
 21
4.8
 31
0.0
  0
LINE
  8
0
 62
     0
 10
5.2
 20
3.255456
 30
0.0
 11
6.744544
 21
4.8
 31
0.0
  0
LINE
  8
0
 62
     0
 10
5.2
 20
3.432233
 30
0.0
 11
6.567767
 21
4.8
 31
0.0
  0
LINE
  8
0
 62
     0
 10
5.2
 20
3.60901
 30
0.0
 11
6.39099
 21
4.8
 31
0.0
  0
LINE
  8
0
 62
     0
 10
5.2
 20
3.785786
 30
0.0
 11
6.214214
 21
4.8
 31
0.0
  0
LINE
  8
0
 62
     0
 10
5.2
 20
3.962563
 30
0.0
 11
6.037437
 21
4.8
 31
0.0
  0
LINE
  8
0
 62
     0
 10
5.2
 20
4.13934
 30
0.0
 11
5.86066
 21
4.8
 31
0.0
  0
LINE
  8
0
 62
     0
 10
5.2
 20
4.316117
 30
0.0
 11
5.683883
 21
4.8
 31
0.0
  0
LINE
  8
0
 62
     0
 10
5.2
 20
4.492893
 30
0.0
 11
5.507107
 21
4.8
 31
0.0
  0
LINE
  8
0
 62
     0
 10
5.2
 20
4.66967
 30
0.0
 11
5.33033
 21
4.8
 31
0.0
  0
LINE
  8
0
 62
     0
 10
6.930485
 20
1.627185
 30
0.0
 11
8.782337
 21
3.479036
 31
0.0
  0
LINE
  8
0
 62
     0
 10
6.976316
 20
1.496239
 30
0.0
 11
8.828168
 21
3.348091
 31
0.0
  0
LINE
  8
0
 62
     0
 10
7.022147
 20
1.365293
 30
0.0
 11
8.873999
 21
3.217145
 31
0.0
  0
LINE
  8
0
 62
     0
 10
7.067978
 20
1.234347
 30
0.0
 11
8.91983
 21
3.086199
 31
0.0
  0
LINE
  8
0
 62
     0
 10
7.113809
 20
1.103402
 30
0.0
 11
8.965661
 21
2.955254
 31
0.0
  0
LINE
  8
0
 62
     0
 10
7.15964
 20
0.972456
 30
0.0
 11
9.011492
 21
2.824308
 31
0.0
  0
LINE
  8
0
 62
     0
 10
7.205471
 20
0.84151
 30
0.0
 11
9.057323
 21
2.693362
 31
0.0
  0
LINE
  8
0
 62
     0
 10
7.251302
 20
0.710565
 30
0.0
 11
9.103154
 21
2.562416
 31
0.0
  0
LINE
  8
0
 62
     0
 10
7.297133
 20
0.579619
 30
0.0
 11
9.148985
 21
2.431471
 31
0.0
  0
LINE
  8
0
 62
     0
 10
7.342964
 20
0.448673
 30
0.0
 11
9.194816
 21
2.300525
 31
0.0
  0
LINE
  8
0
 62
     0
 10
7.388795
 20
0.317728
 30
0.0
 11
9.240647
 21
2.169579
 31
0.0
  0
LINE
  8
0
 62
     0
 10
7.434626
 20
0.186782
 30
0.0
 11
9.286478
 21
2.038634
 31
0.0
  0
LINE
  8
0
 62
     0
 10
7.480457
 20
0.055836
 30
0.0
 11
9.332309
 21
1.907688
 31
0.0
  0
LINE
  8
0
 62
     0
 10
7.601398
 20
0.0
 30
0.0
 11
9.37814
 21
1.776742
 31
0.0
  0
LINE
  8
0
 62
     0
 10
7.778175
 20
0.0
 30
0.0
 11
9.423971
 21
1.645797
 31
0.0
  0
LINE
  8
0
 62
     0
 10
7.954951
 20
0.0
 30
0.0
 11
9.469802
 21
1.514851
 31
0.0
  0
LINE
  8
0
 62
     0
 10
8.131728
 20
0.0
 30
0.0
 11
9.515633
 21
1.383905
 31
0.0
  0
LINE
  8
0
 62
     0
 10
8.308505
 20
0.0
 30
0.0
 11
9.561464
 21
1.252959
 31
0.0
  0
LINE
  8
0
 62
     0
 10
8.485281
 20
0.0
 30
0.0
 11
9.607295
 21
1.122014
 31
0.0
  0
LINE
  8
0
 62
     0
 10
8.662058
 20
0.0
 30
0.0
 11
9.653126
 21
0.991068
 31
0.0
  0
LINE
  8
0
 62
     0
 10
8.838835
 20
0.0
 30
0.0
 11
9.698957
 21
0.860122
 31
0.0
  0
LINE
  8
0
 62
     0
 10
9.015611
 20
0.0
 30
0.0
 11
9.744788
 21
0.729177
 31
0.0
  0
LINE
  8
0
 62
     0
 10
9.192388
 20
0.0
 30
0.0
 11
9.790619
 21
0.598231
 31
0.0
  0
LINE
  8
0
 62
     0
 10
9.369165
 20
0.0
 30
0.0
 11
9.83645
 21
0.467285
 31
0.0
  0
LINE
  8
0
 62
     0
 10
9.545942
 20
0.0
 30
0.0
 11
9.882281
 21
0.33634
 31
0.0
  0
LINE
  8
0
 62
     0
 10
9.722718
 20
0.0
 30
0.0
 11
9.928112
 21
0.205394
 31
0.0
  0
LINE
  8
0
 62
     0
 10
9.899495
 20
0.0
 30
0.0
 11
9.973943
 21
0.074448
 31
0.0
  0
ENDBLK
  8
0
  0
BLOCK
  8
0
  2
*X18
 70
    65
 10
0.0
 20
0.0
 30
0.0
  3
*X
  0
LINE
  8
0
 62
     0
 10
10.7
 20
6.280583
 30
0.0
 11
13.5
 21
9.080583
 31
0.0
  0
LINE
  8
0
 62
     0
 10
10.7
 20
6.457359
 30
0.0
 11
13.5
 21
9.257359
 31
0.0
  0
LINE
  8
0
 62
     0
 10
10.7
 20
6.634136
 30
0.0
 11
13.5
 21
9.434136
 31
0.0
  0
LINE
  8
0
 62
     0
 10
10.7
 20
6.810913
 30
0.0
 11
13.5
 21
9.610913
 31
0.0
  0
LINE
  8
0
 62
     0
 10
10.7
 20
6.987689
 30
0.0
 11
13.5
 21
9.787689
 31
0.0
  0
LINE
  8
0
 62
     0
 10
10.7
 20
7.164466
 30
0.0
 11
13.5
 21
9.964466
 31
0.0
  0
LINE
  8
0
 62
     0
 10
10.7
 20
7.341243
 30
0.0
 11
13.358757
 21
10.0
 31
0.0
  0
LINE
  8
0
 62
     0
 10
10.7
 20
7.518019
 30
0.0
 11
13.181981
 21
10.0
 31
0.0
  0
LINE
  8
0
 62
     0
 10
10.7
 20
7.694796
 30
0.0
 11
13.005204
 21
10.0
 31
0.0
  0
LINE
  8
0
 62
     0
 10
10.7
 20
7.871573
 30
0.0
 11
12.828427
 21
10.0
 31
0.0
  0
LINE
  8
0
 62
     0
 10
10.7
 20
8.04835
 30
0.0
 11
12.65165
 21
10.0
 31
0.0
  0
LINE
  8
0
 62
     0
 10
10.7
 20
8.225126
 30
0.0
 11
12.474874
 21
10.0
 31
0.0
  0
LINE
  8
0
 62
     0
 10
10.7
 20
8.401903
 30
0.0
 11
12.298097
 21
10.0
 31
0.0
  0
LINE
  8
0
 62
     0
 10
10.7
 20
8.57868
 30
0.0
 11
12.12132
 21
10.0
 31
0.0
  0
LINE
  8
0
 62
     0
 10
10.7
 20
8.755456
 30
0.0
 11
11.944544
 21
10.0
 31
0.0
  0
LINE
  8
0
 62
     0
 10
10.7
 20
8.932233
 30
0.0
 11
11.767767
 21
10.0
 31
0.0
  0
LINE
  8
0
 62
     0
 10
10.7
 20
9.10901
 30
0.0
 11
11.59099
 21
10.0
 31
0.0
  0
LINE
  8
0
 62
     0
 10
10.7
 20
9.285786
 30
0.0
 11
11.414214
 21
10.0
 31
0.0
  0
LINE
  8
0
 62
     0
 10
10.7
 20
9.462563
 30
0.0
 11
11.237437
 21
10.0
 31
0.0
  0
LINE
  8
0
 62
     0
 10
10.7
 20
9.63934
 30
0.0
 11
11.06066
 21
10.0
 31
0.0
  0
LINE
  8
0
 62
     0
 10
10.7
 20
9.816117
 30
0.0
 11
10.883883
 21
10.0
 31
0.0
  0
LINE
  8
0
 62
     0
 10
10.7
 20
9.992893
 30
0.0
 11
10.707107
 21
10.0
 31
0.0
  0
LINE
  8
0
 62
     0
 10
10.7
 20
6.103806
 30
0.0
 11
13.5
 21
8.903806
 31
0.0
  0
LINE
  8
0
 62
     0
 10
10.7
 20
5.927029
 30
0.0
 11
13.5
 21
8.727029
 31
0.0
  0
LINE
  8
0
 62
     0
 10
10.7
 20
5.750253
 30
0.0
 11
13.5
 21
8.550253
 31
0.0
  0
LINE
  8
0
 62
     0
 10
10.7
 20
5.573476
 30
0.0
 11
13.5
 21
8.373476
 31
0.0
  0
LINE
  8
0
 62
     0
 10
10.7
 20
5.396699
 30
0.0
 11
13.5
 21
8.196699
 31
0.0
  0
LINE
  8
0
 62
     0
 10
10.7
 20
5.219922
 30
0.0
 11
13.5
 21
8.019922
 31
0.0
  0
LINE
  8
0
 62
     0
 10
10.856854
 20
5.2
 30
0.0
 11
13.5
 21
7.843146
 31
0.0
  0
LINE
  8
0
 62
     0
 10
11.033631
 20
5.2
 30
0.0
 11
13.5
 21
7.666369
 31
0.0
  0
LINE
  8
0
 62
     0
 10
11.210408
 20
5.2
 30
0.0
 11
13.5
 21
7.489592
 31
0.0
  0
LINE
  8
0
 62
     0
 10
11.387184
 20
5.2
 30
0.0
 11
13.5
 21
7.312816
 31
0.0
  0
LINE
  8
0
 62
     0
 10
11.563961
 20
5.2
 30
0.0
 11
13.5
 21
7.136039
 31
0.0
  0
LINE
  8
0
 62
     0
 10
11.740738
 20
5.2
 30
0.0
 11
13.5
 21
6.959262
 31
0.0
  0
LINE
  8
0
 62
     0
 10
11.917514
 20
5.2
 30
0.0
 11
13.5
 21
6.782486
 31
0.0
  0
LINE
  8
0
 62
     0
 10
12.094291
 20
5.2
 30
0.0
 11
13.5
 21
6.605709
 31
0.0
  0
LINE
  8
0
 62
     0
 10
12.271068
 20
5.2
 30
0.0
 11
13.5
 21
6.428932
 31
0.0
  0
LINE
  8
0
 62
     0
 10
12.447845
 20
5.2
 30
0.0
 11
13.5
 21
6.252155
 31
0.0
  0
LINE
  8
0
 62
     0
 10
12.624621
 20
5.2
 30
0.0
 11
13.5
 21
6.075379
 31
0.0
  0
LINE
  8
0
 62
     0
 10
12.801398
 20
5.2
 30
0.0
 11
13.5
 21
5.898602
 31
0.0
  0
LINE
  8
0
 62
     0
 10
12.978175
 20
5.2
 30
0.0
 11
13.5
 21
5.721825
 31
0.0
  0
LINE
  8
0
 62
     0
 10
13.154951
 20
5.2
 30
0.0
 11
13.5
 21
5.545049
 31
0.0
  0
LINE
  8
0
 62
     0
 10
13.331728
 20
5.2
 30
0.0
 11
13.5
 21
5.368272
 31
0.0
  0
ENDBLK
  8
0
  0
BLOCK
  8
0
  2
*X19
 70
    65
 10
0.0
 20
0.0
 30
0.0
  3
*X
  0
LINE
  8
0
 62
     0
 10
10.7
 20
1.154058
 30
0.0
 11
13.5
 21
3.954058
 31
0.0
  0
LINE
  8
0
 62
     0
 10
10.7
 20
1.330835
 30
0.0
 11
13.5
 21
4.130835
 31
0.0
  0
LINE
  8
0
 62
     0
 10
10.7
 20
1.507612
 30
0.0
 11
13.5
 21
4.307612
 31
0.0
  0
LINE
  8
0
 62
     0
 10
10.7
 20
1.684389
 30
0.0
 11
13.5
 21
4.484389
 31
0.0
  0
LINE
  8
0
 62
     0
 10
10.7
 20
1.861165
 30
0.0
 11
13.5
 21
4.661165
 31
0.0
  0
LINE
  8
0
 62
     0
 10
10.7
 20
2.037942
 30
0.0
 11
13.462058
 21
4.8
 31
0.0
  0
LINE
  8
0
 62
     0
 10
10.7
 20
2.214719
 30
0.0
 11
13.285281
 21
4.8
 31
0.0
  0
LINE
  8
0
 62
     0
 10
10.7
 20
2.391495
 30
0.0
 11
13.108505
 21
4.8
 31
0.0
  0
LINE
  8
0
 62
     0
 10
10.7
 20
2.568272
 30
0.0
 11
12.931728
 21
4.8
 31
0.0
  0
LINE
  8
0
 62
     0
 10
10.7
 20
2.745049
 30
0.0
 11
12.754951
 21
4.8
 31
0.0
  0
LINE
  8
0
 62
     0
 10
10.7
 20
2.921825
 30
0.0
 11
12.578175
 21
4.8
 31
0.0
  0
LINE
  8
0
 62
     0
 10
10.7
 20
3.098602
 30
0.0
 11
12.401398
 21
4.8
 31
0.0
  0
LINE
  8
0
 62
     0
 10
10.7
 20
3.275379
 30
0.0
 11
12.224621
 21
4.8
 31
0.0
  0
LINE
  8
0
 62
     0
 10
10.7
 20
3.452155
 30
0.0
 11
12.047845
 21
4.8
 31
0.0
  0
LINE
  8
0
 62
     0
 10
10.7
 20
3.628932
 30
0.0
 11
11.871068
 21
4.8
 31
0.0
  0
LINE
  8
0
 62
     0
 10
10.7
 20
3.805709
 30
0.0
 11
11.694291
 21
4.8
 31
0.0
  0
LINE
  8
0
 62
     0
 10
10.7
 20
3.982486
 30
0.0
 11
11.517514
 21
4.8
 31
0.0
  0
LINE
  8
0
 62
     0
 10
10.7
 20
4.159262
 30
0.0
 11
11.340738
 21
4.8
 31
0.0
  0
LINE
  8
0
 62
     0
 10
10.7
 20
4.336039
 30
0.0
 11
11.163961
 21
4.8
 31
0.0
  0
LINE
  8
0
 62
     0
 10
10.7
 20
4.512816
 30
0.0
 11
10.987184
 21
4.8
 31
0.0
  0
LINE
  8
0
 62
     0
 10
10.7
 20
4.689592
 30
0.0
 11
10.810408
 21
4.8
 31
0.0
  0
LINE
  8
0
 62
     0
 10
10.7
 20
0.977282
 30
0.0
 11
13.5
 21
3.777282
 31
0.0
  0
LINE
  8
0
 62
     0
 10
10.7
 20
0.800505
 30
0.0
 11
13.5
 21
3.600505
 31
0.0
  0
LINE
  8
0
 62
     0
 10
10.7
 20
0.623728
 30
0.0
 11
13.5
 21
3.423728
 31
0.0
  0
LINE
  8
0
 62
     0
 10
10.7
 20
0.446952
 30
0.0
 11
13.5
 21
3.246952
 31
0.0
  0
LINE
  8
0
 62
     0
 10
10.7
 20
0.270175
 30
0.0
 11
13.5
 21
3.070175
 31
0.0
  0
LINE
  8
0
 62
     0
 10
10.7
 20
0.093398
 30
0.0
 11
13.5
 21
2.893398
 31
0.0
  0
LINE
  8
0
 62
     0
 10
10.783378
 20
0.0
 30
0.0
 11
13.5
 21
2.716622
 31
0.0
  0
LINE
  8
0
 62
     0
 10
10.960155
 20
0.0
 30
0.0
 11
13.5
 21
2.539845
 31
0.0
  0
LINE
  8
0
 62
     0
 10
11.136932
 20
0.0
 30
0.0
 11
13.5
 21
2.363068
 31
0.0
  0
LINE
  8
0
 62
     0
 10
11.313708
 20
0.0
 30
0.0
 11
13.5
 21
2.186292
 31
0.0
  0
LINE
  8
0
 62
     0
 10
11.490485
 20
0.0
 30
0.0
 11
13.5
 21
2.009515
 31
0.0
  0
LINE
  8
0
 62
     0
 10
11.667262
 20
0.0
 30
0.0
 11
13.5
 21
1.832738
 31
0.0
  0
LINE
  8
0
 62
     0
 10
11.844039
 20
0.0
 30
0.0
 11
13.5
 21
1.655961
 31
0.0
  0
LINE
  8
0
 62
     0
 10
12.020815
 20
0.0
 30
0.0
 11
13.5
 21
1.479185
 31
0.0
  0
LINE
  8
0
 62
     0
 10
12.197592
 20
0.0
 30
0.0
 11
13.5
 21
1.302408
 31
0.0
  0
LINE
  8
0
 62
     0
 10
12.374369
 20
0.0
 30
0.0
 11
13.5
 21
1.125631
 31
0.0
  0
LINE
  8
0
 62
     0
 10
12.551145
 20
0.0
 30
0.0
 11
13.5
 21
0.948855
 31
0.0
  0
LINE
  8
0
 62
     0
 10
12.727922
 20
0.0
 30
0.0
 11
13.5
 21
0.772078
 31
0.0
  0
LINE
  8
0
 62
     0
 10
12.904699
 20
0.0
 30
0.0
 11
13.5
 21
0.595301
 31
0.0
  0
LINE
  8
0
 62
     0
 10
13.081475
 20
0.0
 30
0.0
 11
13.5
 21
0.418525
 31
0.0
  0
LINE
  8
0
 62
     0
 10
13.258252
 20
0.0
 30
0.0
 11
13.5
 21
0.241748
 31
0.0
  0
LINE
  8
0
 62
     0
 10
13.435029
 20
0.0
 30
0.0
 11
13.5
 21
0.064971
 31
0.0
  0
ENDBLK
  8
0
  0
BLOCK
  8
0
  2
*X20
 70
    65
 10
0.0
 20
0.0
 30
0.0
  3
*X
  0
LINE
  8
0
 62
     0
 10
13.9
 20
6.298602
 30
0.0
 11
16.582995
 21
8.981597
 31
0.0
  0
LINE
  8
0
 62
     0
 10
13.9
 20
6.475379
 30
0.0
 11
16.510503
 21
9.085882
 31
0.0
  0
LINE
  8
0
 62
     0
 10
13.9
 20
6.652155
 30
0.0
 11
16.432927
 21
9.185083
 31
0.0
  0
LINE
  8
0
 62
     0
 10
13.9
 20
6.828932
 30
0.0
 11
16.350372
 21
9.279304
 31
0.0
  0
LINE
  8
0
 62
     0
 10
13.9
 20
7.005709
 30
0.0
 11
16.262892
 21
9.368601
 31
0.0
  0
LINE
  8
0
 62
     0
 10
13.9
 20
7.182486
 30
0.0
 11
16.170495
 21
9.452981
 31
0.0
  0
LINE
  8
0
 62
     0
 10
13.9
 20
7.359262
 30
0.0
 11
16.073145
 21
9.532407
 31
0.0
  0
LINE
  8
0
 62
     0
 10
13.9
 20
7.536039
 30
0.0
 11
15.970755
 21
9.606794
 31
0.0
  0
LINE
  8
0
 62
     0
 10
13.9
 20
7.712816
 30
0.0
 11
15.863189
 21
9.676004
 31
0.0
  0
LINE
  8
0
 62
     0
 10
13.9
 20
7.889592
 30
0.0
 11
15.75025
 21
9.739843
 31
0.0
  0
LINE
  8
0
 62
     0
 10
13.9
 20
8.066369
 30
0.0
 11
15.631675
 21
9.798044
 31
0.0
  0
LINE
  8
0
 62
     0
 10
13.9
 20
8.243146
 30
0.0
 11
15.50711
 21
9.850256
 31
0.0
  0
LINE
  8
0
 62
     0
 10
13.9
 20
8.419922
 30
0.0
 11
15.376096
 21
9.896018
 31
0.0
  0
LINE
  8
0
 62
     0
 10
13.9
 20
8.596699
 30
0.0
 11
15.238027
 21
9.934726
 31
0.0
  0
LINE
  8
0
 62
     0
 10
13.9
 20
8.773476
 30
0.0
 11
15.092096
 21
9.965572
 31
0.0
  0
LINE
  8
0
 62
     0
 10
13.9
 20
8.950253
 30
0.0
 11
14.937209
 21
9.987461
 31
0.0
  0
LINE
  8
0
 62
     0
 10
13.9
 20
9.127029
 30
0.0
 11
14.771824
 21
9.998853
 31
0.0
  0
LINE
  8
0
 62
     0
 10
13.9
 20
9.303806
 30
0.0
 11
14.596193
 21
9.999999
 31
0.0
  0
LINE
  8
0
 62
     0
 10
13.9
 20
9.480583
 30
0.0
 11
14.419417
 21
9.999999
 31
0.0
  0
LINE
  8
0
 62
     0
 10
13.9
 20
9.657359
 30
0.0
 11
14.24264
 21
10.0
 31
0.0
  0
LINE
  8
0
 62
     0
 10
13.9
 20
9.834136
 30
0.0
 11
14.065864
 21
10.0
 31
0.0
  0
LINE
  8
0
 62
     0
 10
13.9
 20
6.121825
 30
0.0
 11
16.650245
 21
8.872071
 31
0.0
  0
LINE
  8
0
 62
     0
 10
13.9
 20
5.945049
 30
0.0
 11
16.712035
 21
8.757083
 31
0.0
  0
LINE
  8
0
 62
     0
 10
13.9
 20
5.768272
 30
0.0
 11
16.768067
 21
8.636339
 31
0.0
  0
LINE
  8
0
 62
     0
 10
13.9
 20
5.591495
 30
0.0
 11
16.817955
 21
8.509451
 31
0.0
  0
LINE
  8
0
 62
     0
 10
13.9
 20
5.414719
 30
0.0
 11
16.861189
 21
8.375908
 31
0.0
  0
LINE
  8
0
 62
     0
 10
13.9
 20
5.237942
 30
0.0
 11
16.897097
 21
8.235039
 31
0.0
  0
LINE
  8
0
 62
     0
 10
14.038835
 20
5.2
 30
0.0
 11
16.924779
 21
8.085944
 31
0.0
  0
LINE
  8
0
 62
     0
 10
14.215611
 20
5.2
 30
0.0
 11
16.942997
 21
7.927385
 31
0.0
  0
LINE
  8
0
 62
     0
 10
14.392388
 20
5.2
 30
0.0
 11
16.949987
 21
7.757599
 31
0.0
  0
LINE
  8
0
 62
     0
 10
14.569165
 20
5.2
 30
0.0
 11
16.943101
 21
7.573936
 31
0.0
  0
LINE
  8
0
 62
     0
 10
14.745942
 20
5.2
 30
0.0
 11
16.918037
 21
7.372095
 31
0.0
  0
LINE
  8
0
 62
     0
 10
14.922718
 20
5.2
 30
0.0
 11
16.866909
 21
7.144191
 31
0.0
  0
LINE
  8
0
 62
     0
 10
15.099495
 20
5.2
 30
0.0
 11
16.771715
 21
6.87222
 31
0.0
  0
LINE
  8
0
 62
     0
 10
15.276272
 20
5.2
 30
0.0
 11
15.847951
 21
5.77168
 31
0.0
  0
LINE
  8
0
 62
     0
 10
15.96673
 20
5.890458
 30
0.0
 11
16.559542
 21
6.48327
 31
0.0
  0
LINE
  8
0
 62
     0
 10
15.453048
 20
5.2
 30
0.0
 11
15.970661
 21
5.717613
 31
0.0
  0
LINE
  8
0
 62
     0
 10
15.629825
 20
5.2
 30
0.0
 11
16.088934
 21
5.659109
 31
0.0
  0
LINE
  8
0
 62
     0
 10
15.806602
 20
5.2
 30
0.0
 11
16.202964
 21
5.596363
 31
0.0
  0
LINE
  8
0
 62
     0
 10
15.983378
 20
5.2
 30
0.0
 11
16.312909
 21
5.529531
 31
0.0
  0
LINE
  8
0
 62
     0
 10
16.160155
 20
5.2
 30
0.0
 11
16.418895
 21
5.45874
 31
0.0
  0
LINE
  8
0
 62
     0
 10
16.336932
 20
5.2
 30
0.0
 11
16.521021
 21
5.384089
 31
0.0
  0
LINE
  8
0
 62
     0
 10
16.513708
 20
5.2
 30
0.0
 11
16.619363
 21
5.305655
 31
0.0
  0
LINE
  8
0
 62
     0
 10
16.690485
 20
5.2
 30
0.0
 11
16.713975
 21
5.22349
 31
0.0
  0
ENDBLK
  8
0
  0
BLOCK
  8
0
  2
*X21
 70
    65
 10
0.0
 20
0.0
 30
0.0
  3
*X
  0
LINE
  8
0
 62
     0
 10
13.9
 20
0.818525
 30
0.0
 11
17.39645
 21
4.314974
 31
0.0
  0
LINE
  8
0
 62
     0
 10
13.9
 20
0.995301
 30
0.0
 11
17.336354
 21
4.431655
 31
0.0
  0
LINE
  8
0
 62
     0
 10
13.9
 20
1.172078
 30
0.0
 11
17.272078
 21
4.544156
 31
0.0
  0
LINE
  8
0
 62
     0
 10
13.9
 20
1.348855
 30
0.0
 11
17.203766
 21
4.652621
 31
0.0
  0
LINE
  8
0
 62
     0
 10
13.9
 20
1.525631
 30
0.0
 11
17.131535
 21
4.757167
 31
0.0
  0
LINE
  8
0
 62
     0
 10
13.9
 20
1.702408
 30
0.0
 11
16.997592
 21
4.8
 31
0.0
  0
LINE
  8
0
 62
     0
 10
13.9
 20
1.879185
 30
0.0
 11
16.820815
 21
4.8
 31
0.0
  0
LINE
  8
0
 62
     0
 10
13.9
 20
2.055961
 30
0.0
 11
16.644039
 21
4.8
 31
0.0
  0
LINE
  8
0
 62
     0
 10
13.9
 20
2.232738
 30
0.0
 11
16.467262
 21
4.8
 31
0.0
  0
LINE
  8
0
 62
     0
 10
13.9
 20
2.409515
 30
0.0
 11
16.290485
 21
4.8
 31
0.0
  0
LINE
  8
0
 62
     0
 10
13.9
 20
2.586292
 30
0.0
 11
16.113708
 21
4.8
 31
0.0
  0
LINE
  8
0
 62
     0
 10
13.9
 20
2.763068
 30
0.0
 11
15.936932
 21
4.8
 31
0.0
  0
LINE
  8
0
 62
     0
 10
13.9
 20
2.939845
 30
0.0
 11
15.760155
 21
4.8
 31
0.0
  0
LINE
  8
0
 62
     0
 10
13.9
 20
3.116622
 30
0.0
 11
15.583378
 21
4.8
 31
0.0
  0
LINE
  8
0
 62
     0
 10
13.9
 20
3.293398
 30
0.0
 11
15.406602
 21
4.8
 31
0.0
  0
LINE
  8
0
 62
     0
 10
13.9
 20
3.470175
 30
0.0
 11
15.229825
 21
4.8
 31
0.0
  0
LINE
  8
0
 62
     0
 10
13.9
 20
3.646952
 30
0.0
 11
15.053048
 21
4.8
 31
0.0
  0
LINE
  8
0
 62
     0
 10
13.9
 20
3.823728
 30
0.0
 11
14.876272
 21
4.8
 31
0.0
  0
LINE
  8
0
 62
     0
 10
13.9
 20
4.000505
 30
0.0
 11
14.699495
 21
4.8
 31
0.0
  0
LINE
  8
0
 62
     0
 10
13.9
 20
4.177282
 30
0.0
 11
14.522718
 21
4.8
 31
0.0
  0
LINE
  8
0
 62
     0
 10
13.9
 20
4.354058
 30
0.0
 11
14.345942
 21
4.8
 31
0.0
  0
LINE
  8
0
 62
     0
 10
13.9
 20
4.530835
 30
0.0
 11
14.169165
 21
4.8
 31
0.0
  0
LINE
  8
0
 62
     0
 10
13.9
 20
4.707612
 30
0.0
 11
13.992388
 21
4.8
 31
0.0
  0
LINE
  8
0
 62
     0
 10
13.9
 20
0.641748
 30
0.0
 11
17.452185
 21
4.193933
 31
0.0
  0
LINE
  8
0
 62
     0
 10
13.9
 20
0.464971
 30
0.0
 11
17.503339
 21
4.068311
 31
0.0
  0
LINE
  8
0
 62
     0
 10
13.9
 20
0.288194
 30
0.0
 11
17.549642
 21
3.937837
 31
0.0
  0
LINE
  8
0
 62
     0
 10
13.9
 20
0.111418
 30
0.0
 11
17.590762
 21
3.80218
 31
0.0
  0
LINE
  8
0
 62
     0
 10
13.965359
 20
0.0
 30
0.0
 11
17.62629
 21
3.660931
 31
0.0
  0
LINE
  8
0
 62
     0
 10
14.142136
 20
0.000001
 30
0.0
 11
17.655713
 21
3.513577
 31
0.0
  0
LINE
  8
0
 62
     0
 10
14.318913
 20
0.000001
 30
0.0
 11
17.678385
 21
3.359473
 31
0.0
  0
LINE
  8
0
 62
     0
 10
14.49569
 20
0.000001
 30
0.0
 11
17.693473
 21
3.197784
 31
0.0
  0
LINE
  8
0
 62
     0
 10
14.672467
 20
0.000002
 30
0.0
 11
17.699875
 21
3.027409
 31
0.0
  0
LINE
  8
0
 62
     0
 10
14.853154
 20
0.003912
 30
0.0
 11
17.696088
 21
2.846846
 31
0.0
  0
LINE
  8
0
 62
     0
 10
15.046044
 20
0.020025
 30
0.0
 11
17.679975
 21
2.653956
 31
0.0
  0
LINE
  8
0
 62
     0
 10
15.254483
 20
0.051687
 30
0.0
 11
17.648313
 21
2.445517
 31
0.0
  0
LINE
  8
0
 62
     0
 10
15.483762
 20
0.10419
 30
0.0
 11
17.59581
 21
2.216238
 31
0.0
  0
LINE
  8
0
 62
     0
 10
15.743786
 20
0.187437
 30
0.0
 11
17.512563
 21
1.956214
 31
0.0
  0
LINE
  8
0
 62
     0
 10
16.058176
 20
0.32505
 30
0.0
 11
17.37495
 21
1.641824
 31
0.0
  0
LINE
  8
0
 62
     0
 10
16.54193
 20
0.632028
 30
0.0
 11
17.067972
 21
1.15807
 31
0.0
  0
ENDBLK
  8
0
  0
BLOCK
  8
0
  2
B155
 70
     0
 10
0.0
 20
0.0
 30
0.0
  3
B155
  0
LINE
  8
0
  6
CONTINUOUS
 10
0.0
 20
0.0
 30
0.0
 11
0.0
 21
-1.35427
 31
0.0
  0
LINE
  8
0
  6
CONTINUOUS
 10
-1.210228
 20
-1.35427
 30
0.0
 11
-0.015887
 21
-1.35427
 31
0.0
  0
LINE
  8
0
  6
CONTINUOUS
 10
-0.015887
 20
-1.35427
 30
0.0
 11
1.178454
 21
-1.35427
 31
0.0
  0
LINE
  8
0
  6
CONTINUOUS
 10
-0.831823
 20
-1.833881
 30
0.0
 11
0.752749
 21
-1.833881
 31
0.0
  0
LINE
  8
0
  6
CONTINUOUS
 10
-0.500718
 20
-2.322055
 30
0.0
 11
0.386169
 21
-2.322055
 31
0.0
  0
ENDBLK
  8
0
  0
BLOCK
  8
0
  2
MAA
 70
    64
 10
0.0
 20
0.0
 30
0.0
  3
MAA
  0
LINE
  8
0
  6
CONTINUOUS
 10
-0.500718
 20
-2.587966
 30
0.0
 11
0.386169
 21
-2.587966
 31
0.0
  0
LINE
  8
0
  6
CONTINUOUS
 10
-0.831823
 20
-1.976333
 30
0.0
 11
0.752749
 21
-1.976333
 31
0.0
  0
LINE
  8
0
  6
CONTINUOUS
 10
-0.015887
 20
-1.35427
 30
0.0
 11
1.178454
 21
-1.35427
 31
0.0
  0
LINE
  8
0
  6
CONTINUOUS
 10
-1.210228
 20
-1.35427
 30
0.0
 11
-0.015887
 21
-1.35427
 31
0.0
  0
LINE
  8
0
  6
CONTINUOUS
 10
0.0
 20
0.0
 30
0.0
 11
0.0
 21
-1.35427
 31
0.0
  0
ENDBLK
  8
0
  0
BLOCK
  8
0
  2
B505
 70
     0
 10
0.0
 20
0.0
 30
0.0
  3
B505
  0
TEXT
  8
0
  6
HIDDEN
 10
-37.517333
 20
-93.931674
 30
0.0
 40
2.0
  1
Uo
  7
GREEKS
  0
LINE
  8
0
  6
CONTINUOUS
 10
-35.028779
 20
-75.421831
 30
0.0
 11
-34.141892
 21
-75.421831
 31
0.0
  0
LINE
  8
0
  6
CONTINUOUS
 10
-35.359884
 20
-74.881591
 30
0.0
 11
-33.775313
 21
-74.881591
 31
0.0
  0
LINE
  8
0
  6
CONTINUOUS
 10
-34.543948
 20
-74.263141
 30
0.0
 11
-33.349607
 21
-74.263141
 31
0.0
  0
LINE
  8
0
  6
CONTINUOUS
 10
-35.738289
 20
-74.263141
 30
0.0
 11
-34.543948
 21
-74.263141
 31
0.0
  0
LINE
  8
0
  6
CONTINUOUS
 10
-34.528061
 20
-72.90887
 30
0.0
 11
-34.528061
 21
-74.263141
 31
0.0
  0
TEXT
  8
0
  6
CONTINUOUS
 10
-37.496485
 20
-74.451103
 30
0.0
 40
2.5
  1
I
 11
-37.496485
 21
-75.284437
 31
0.0
 73
     1
  0
TEXT
  8
0
  6
HIDDEN
 10
-37.517333
 20
-83.931674
 30
0.0
 40
2.0
  1
Uo
  7
GREEKS
  0
TEXT
  8
0
  6
CONTINUOUS
 10
-37.496485
 20
-64.451103
 30
0.0
 40
2.5
  1
I
 11
-37.496485
 21
-65.284437
 31
0.0
 73
     1
  0
LINE
  8
0
  6
CONTINUOUS
 10
-34.528061
 20
-62.90887
 30
0.0
 11
-34.528061
 21
-64.263141
 31
0.0
  0
LINE
  8
0
  6
CONTINUOUS
 10
-35.738289
 20
-64.263141
 30
0.0
 11
-34.543948
 21
-64.263141
 31
0.0
  0
LINE
  8
0
  6
CONTINUOUS
 10
-34.543948
 20
-64.263141
 30
0.0
 11
-33.349607
 21
-64.263141
 31
0.0
  0
LINE
  8
0
  6
CONTINUOUS
 10
-35.359884
 20
-64.881591
 30
0.0
 11
-33.775313
 21
-64.881591
 31
0.0
  0
LINE
  8
0
  6
CONTINUOUS
 10
-35.028779
 20
-65.421831
 30
0.0
 11
-34.141892
 21
-65.421831
 31
0.0
  0
TEXT
  8
0
  6
CONTINUOUS
 10
-37.5
 20
-124.216301
 30
0.0
 40
2.0
  1
U12
  7
GREEKS
  0
TEXT
  8
0
  6
CONTINUOUS
 10
-37.5
 20
-143.68944
 30
0.0
 40
2.0
  1
U23
  7
GREEKS
  0
TEXT
  8
0
  6
CONTINUOUS
 10
-37.5
 20
-54.006863
 30
0.0
 40
2.0
  1
L3
  7
GREEKS
  0
TEXT
  8
0
  6
CONTINUOUS
 10
-37.5
 20
-33.964226
 30
0.0
 40
2.0
  1
L2
  7
GREEKS
  0
TEXT
  8
0
  6
CONTINUOUS
 10
-37.5
 20
-13.945824
 30
0.0
 40
2.0
  1
L1
  7
GREEKS
  0
TEXT
  8
0
  6
CONTINUOUS
 10
-37.5
 20
-153.938065
 30
0.0
 40
2.0
  1
U31
  7
GREEKS
  0
TEXT
  8
0
  6
CONTINUOUS
 10
-37.5
 20
-133.68944
 30
0.0
 40
2.0
  1
U23
  7
GREEKS
  0
TEXT
  8
0
  6
CONTINUOUS
 10
-37.5
 20
-114.216301
 30
0.0
 40
2.0
  1
U12
  7
GREEKS
  0
TEXT
  8
0
  6
CONTINUOUS
 10
-37.5
 20
-44.006863
 30
0.0
 40
2.0
  1
L3
  7
GREEKS
  0
TEXT
  8
0
  6
CONTINUOUS
 10
-37.5
 20
-23.964226
 30
0.0
 40
2.0
  1
L2
  7
GREEKS
  0
TEXT
  8
0
  6
CONTINUOUS
 10
-37.5
 20
-3.945824
 30
0.0
 40
2.0
  1
L1
  7
GREEKS
  0
LINE
  8
0
  6
CONTINUOUS
 10
-25.0
 20
-70.0
 30
0.0
 11
-26.0
 21
-71.0
 31
0.0
  0
LINE
  8
0
  6
CONTINUOUS
 10
-25.0
 20
-70.0
 30
0.0
 11
-25.0
 21
-20.0
 31
0.0
  0
LINE
  8
0
  6
CONTINUOUS
 10
-25.0
 20
-20.0
 30
0.0
 11
-25.0
 21
0.0
 31
0.0
  0
LINE
  8
0
  6
CONTINUOUS
 10
-25.0
 20
0.0
 30
0.0
 11
-26.0
 21
1.0
 31
0.0
  0
CIRCLE
  8
0
  6
CONTINUOUS
 10
-7.5
 20
-12.5
 30
0.0
 40
2.5
  0
LINE
  8
0
  6
DASHED
 10
-7.5
 20
-15.0
 30
0.0
 11
-7.5
 21
-85.0
 31
0.0
  0
LINE
  8
0
  6
CONTINUOUS
 10
-25.0
 20
-90.0
 30
0.0
 11
-26.0
 21
-91.0
 31
0.0
  0
LINE
  8
0
  6
CONTINUOUS
 10
-25.0
 20
-80.0
 30
0.0
 11
-26.0
 21
-79.0
 31
0.0
  0
LINE
  8
0
  6
CONTINUOUS
 10
-25.0
 20
-80.0
 30
0.0
 11
-25.0
 21
-90.0
 31
0.0
  0
CIRCLE
  8
0
  6
CONTINUOUS
 10
-7.5
 20
-9.458377
 30
0.0
 40
2.5
  0
LINE
  8
0
  6
DASHED
 10
-20.0
 20
0.0
 30
0.0
 11
12.5
 21
0.0
 31
0.0
  0
LINE
  8
0
  6
DASHED
 10
-7.5
 20
0.0
 30
0.0
 11
-7.5
 21
-6.958377
 31
0.0
  0
LINE
  8
0
  6
DASHED
 10
-15.0
 20
0.0
 30
0.0
 11
-15.0
 21
-60.0
 31
0.0
  0
LINE
  8
0
  6
DASHED
 10
-7.5
 20
-85.0
 30
0.0
 11
-25.0
 21
-85.0
 31
0.0
  0
CIRCLE
  8
0
  6
CONTINUOUS
 10
-15.0
 20
-35.0
 30
0.0
 40
2.5
  0
LINE
  8
0
  6
DASHED
 10
-25.0
 20
-35.0
 30
0.0
 11
-17.5
 21
-35.0
 31
0.0
  0
LINE
  8
0
  6
CONTINUOUS
 10
-25.0
 20
-110.0
 30
0.0
 11
-26.0
 21
-109.0
 31
0.0
  0
LINE
  8
0
  6
CONTINUOUS
 10
-25.0
 20
-130.0
 30
0.0
 11
-25.0
 21
-110.0
 31
0.0
  0
LINE
  8
0
  6
CONTINUOUS
 10
-25.0
 20
-160.0
 30
0.0
 11
-25.0
 21
-130.0
 31
0.0
  0
LINE
  8
0
  6
CONTINUOUS
 10
-25.0
 20
-160.0
 30
0.0
 11
-26.0
 21
-161.0
 31
0.0
  0
LINE
  8
0
  6
DASHED
 10
0.0
 20
-135.0
 30
0.0
 11
-25.0
 21
-135.0
 31
0.0
  0
CIRCLE
  8
0
  6
CONTINUOUS
 10
0.0
 20
-12.5
 30
0.0
 40
2.5
  0
CIRCLE
  8
0
  6
CONTINUOUS
 10
0.0
 20
-9.458377
 30
0.0
 40
2.5
  0
LINE
  8
0
  6
DASHED
 10
0.0
 20
0.0
 30
0.0
 11
0.0
 21
-6.958377
 31
0.0
  0
LINE
  8
0
  6
DASHED
 10
0.0
 20
-15.0
 30
0.0
 11
0.0
 21
-135.0
 31
0.0
  0
POLYLINE
  8
0
  6
CONTINUOUS
 66
     1
 10
0.0
 20
0.0
 30
0.0
 70
     1
 40
0.5
 41
0.5
 71
     2
 72
   601
  0
VERTEX
  8
0
  6
CONTINUOUS
 10
-15.5
 20
0.0
 30
0.0
 42
1.0
  0
VERTEX
  8
0
  6
CONTINUOUS
 10
-14.5
 20
0.0
 30
0.0
 42
1.0
  0
SEQEND
  8
0
  6
CONTINUOUS
  0
POLYLINE
  8
0
  6
CONTINUOUS
 66
     1
 10
0.0
 20
0.0
 30
0.0
 70
     1
 40
0.5
 41
0.5
 71
     2
 72
   601
  0
VERTEX
  8
0
  6
CONTINUOUS
 10
-8.0
 20
0.0
 30
0.0
 42
1.0
  0
VERTEX
  8
0
  6
CONTINUOUS
 10
-7.0
 20
0.0
 30
0.0
 42
1.0
  0
SEQEND
  8
0
  6
CONTINUOUS
  0
POLYLINE
  8
0
  6
CONTINUOUS
 66
     1
 10
0.0
 20
0.0
 30
0.0
 70
     1
 40
0.5
 41
0.5
 71
     2
 72
   601
  0
VERTEX
  8
0
  6
CONTINUOUS
 10
-0.5
 20
0.0
 30
0.0
 42
1.0
  0
VERTEX
  8
0
  6
CONTINUOUS
 10
0.5
 20
0.0
 30
0.0
 42
1.0
  0
SEQEND
  8
0
  6
CONTINUOUS
  0
TEXT
  8
0
  6
CONTINUOUS
 10
-35.0
 20
-100.932957
 30
0.0
 40
2.0
  1
6)
  7
GREEKS
  0
TEXT
  8
0
  6
CONTINUOUS
 10
-37.5
 20
-163.938065
 30
0.0
 40
2.0
  1
U31
  7
GREEKS
  0
LINE
  8
0
  6
DASHED
 10
-52.5
 20
-160.0
 30
0.0
 11
-30.0
 21
-160.0
 31
0.0
  0
LINE
  8
0
  6
DASHED
 10
-47.5
 20
-150.0
 30
0.0
 11
-30.0
 21
-150.0
 31
0.0
  0
LINE
  8
0
  6
DASHED
 10
-52.5
 20
-140.0
 30
0.0
 11
-30.0
 21
-140.0
 31
0.0
  0
LINE
  8
0
  6
DASHED
 10
-47.5
 20
-130.0
 30
0.0
 11
-30.0
 21
-130.0
 31
0.0
  0
LINE
  8
0
  6
DASHED
 10
-52.5
 20
-120.0
 30
0.0
 11
-30.0
 21
-120.0
 31
0.0
  0
LINE
  8
0
  6
DASHED
 10
-47.5
 20
-110.0
 30
0.0
 11
-30.0
 21
-110.0
 31
0.0
  0
INSERT
  8
0
  6
CONTINUOUS
  2
B96
 10
-52.5
 20
-99.913461
 30
0.0
  0
LINE
  8
0
  6
DASHED
 10
-52.5
 20
-90.0
 30
0.0
 11
-30.0
 21
-90.0
 31
0.0
  0
LINE
  8
0
  6
CONTINUOUS
 10
-47.5
 20
-65.33813
 30
0.0
 11
-48.5
 21
-66.33813
 31
0.0
  0
LINE
  8
0
  6
DASHED
 10
-52.5
 20
-70.0
 30
0.0
 11
-30.0
 21
-70.0
 31
0.0
  0
LINE
  8
0
  6
DASHED
 10
-47.5
 20
-80.0
 30
0.0
 11
-30.0
 21
-80.0
 31
0.0
  0
LINE
  8
0
  6
DASHED
 10
-47.5
 20
-60.0
 30
0.0
 11
-30.0
 21
-60.0
 31
0.0
  0
LINE
  8
0
  6
DASHED
 10
-52.5
 20
-50.0
 30
0.0
 11
-30.0
 21
-50.0
 31
0.0
  0
LINE
  8
0
  6
DASHED
 10
-30.0
 20
-40.0
 30
0.0
 11
-47.5
 21
-40.0
 31
0.0
  0
LINE
  8
0
  6
DASHED
 10
-52.5
 20
-30.0
 30
0.0
 11
-30.0
 21
-30.0
 31
0.0
  0
LINE
  8
0
  6
DASHED
 10
-30.0
 20
-20.0
 30
0.0
 11
-47.5
 21
-20.0
 31
0.0
  0
LINE
  8
0
  6
DASHED
 10
-52.5
 20
-10.0
 30
0.0
 11
-30.0
 21
-10.0
 31
0.0
  0
LINE
  8
0
  6
DASHED
 10
-30.0
 20
0.0
 30
0.0
 11
-47.5
 21
0.0
 31
0.0
  0
ENDBLK
  8
0
  0
BLOCK
  8
0
  2
B96
 70
    64
 10
0.0
 20
0.0
 30
0.0
  3
B96
  0
LINE
  8
0
  6
CONTINUOUS
 10
1.819436
 20
0.403461
 30
0.0
 11
1.819436
 21
-0.576539
 31
0.0
  0
LINE
  8
0
  6
CONTINUOUS
 10
1.819436
 20
-0.576539
 30
0.0
 11
5.249436
 21
-0.576539
 31
0.0
  0
LINE
  8
0
  6
CONTINUOUS
 10
5.249436
 20
-0.576539
 30
0.0
 11
5.249436
 21
0.403461
 31
0.0
  0
LINE
  8
0
  6
CONTINUOUS
 10
5.249436
 20
0.403461
 30
0.0
 11
1.819436
 21
0.403461
 31
0.0
  0
POLYLINE
  8
0
  6
CONTINUOUS
 66
     1
 10
0.0
 20
0.0
 30
0.0
 70
    16
 71
     2
 72
   251
  0
VERTEX
  8
0
  6
CONTINUOUS
 10
1.819436
 20
-0.576539
 30
0.0
 70
    64
  0
VERTEX
  8
0
  6
CONTINUOUS
 10
1.833156
 20
-0.576539
 30
0.0
 70
    64
  0
VERTEX
  8
0
  6
CONTINUOUS
 10
1.846876
 20
-0.576539
 30
0.0
 70
    64
  0
VERTEX
  8
0
  6
CONTINUOUS
 10
1.860596
 20
-0.576539
 30
0.0
 70
    64
  0
VERTEX
  8
0
  6
CONTINUOUS
 10
1.874316
 20
-0.576539
 30
0.0
 70
    64
  0
VERTEX
  8
0
  6
CONTINUOUS
 10
1.888036
 20
-0.576539
 30
0.0
 70
    64
  0
VERTEX
  8
0
  6
CONTINUOUS
 10
1.901756
 20
-0.576539
 30
0.0
 70
    64
  0
VERTEX
  8
0
  6
CONTINUOUS
 10
1.915476
 20
-0.576539
 30
0.0
 70
    64
  0
VERTEX
  8
0
  6
CONTINUOUS
 10
1.929196
 20
-0.576539
 30
0.0
 70
    64
  0
VERTEX
  8
0
  6
CONTINUOUS
 10
1.942916
 20
-0.576539
 30
0.0
 70
    64
  0
VERTEX
  8
0
  6
CONTINUOUS
 10
1.956636
 20
-0.576539
 30
0.0
 70
    64
  0
VERTEX
  8
0
  6
CONTINUOUS
 10
1.970356
 20
-0.576539
 30
0.0
 70
    64
  0
VERTEX
  8
0
  6
CONTINUOUS
 10
1.984076
 20
-0.576539
 30
0.0
 70
    64
  0
VERTEX
  8
0
  6
CONTINUOUS
 10
1.997796
 20
-0.576539
 30
0.0
 70
    64
  0
VERTEX
  8
0
  6
CONTINUOUS
 10
2.011516
 20
-0.576539
 30
0.0
 70
    64
  0
VERTEX
  8
0
  6
CONTINUOUS
 10
2.025236
 20
-0.576539
 30
0.0
 70
    64
  0
VERTEX
  8
0
  6
CONTINUOUS
 10
2.038956
 20
-0.576539
 30
0.0
 70
    64
  0
VERTEX
  8
0
  6
CONTINUOUS
 10
2.052676
 20
-0.576539
 30
0.0
 70
    64
  0
VERTEX
  8
0
  6
CONTINUOUS
 10
2.066396
 20
-0.576539
 30
0.0
 70
    64
  0
VERTEX
  8
0
  6
CONTINUOUS
 10
2.080116
 20
-0.576539
 30
0.0
 70
    64
  0
VERTEX
  8
0
  6
CONTINUOUS
 10
2.093836
 20
-0.576539
 30
0.0
 70
    64
  0
VERTEX
  8
0
  6
CONTINUOUS
 10
2.107556
 20
-0.576539
 30
0.0
 70
    64
  0
VERTEX
  8
0
  6
CONTINUOUS
 10
2.121276
 20
-0.576539
 30
0.0
 70
    64
  0
VERTEX
  8
0
  6
CONTINUOUS
 10
2.134996
 20
-0.576539
 30
0.0
 70
    64
  0
VERTEX
  8
0
  6
CONTINUOUS
 10
2.148716
 20
-0.576539
 30
0.0
 70
    64
  0
VERTEX
  8
0
  6
CONTINUOUS
 10
2.162436
 20
-0.576539
 30
0.0
 70
    64
  0
VERTEX
  8
0
  6
CONTINUOUS
 10
2.176156
 20
-0.576539
 30
0.0
 70
    64
  0
VERTEX
  8
0
  6
CONTINUOUS
 10
2.189876
 20
-0.576539
 30
0.0
 70
    64
  0
VERTEX
  8
0
  6
CONTINUOUS
 10
2.203596
 20
-0.576539
 30
0.0
 70
    64
  0
VERTEX
  8
0
  6
CONTINUOUS
 10
2.217316
 20
-0.576539
 30
0.0
 70
    64
  0
VERTEX
  8
0
  6
CONTINUOUS
 10
2.231036
 20
-0.576539
 30
0.0
 70
    64
  0
VERTEX
  8
0
  6
CONTINUOUS
 10
2.244756
 20
-0.576539
 30
0.0
 70
    64
  0
VERTEX
  8
0
  6
CONTINUOUS
 10
2.258476
 20
-0.576539
 30
0.0
 70
    64
  0
VERTEX
  8
0
  6
CONTINUOUS
 10
2.272196
 20
-0.576539
 30
0.0
 70
    64
  0
VERTEX
  8
0
  6
CONTINUOUS
 10
2.285916
 20
-0.576539
 30
0.0
 70
    64
  0
VERTEX
  8
0
  6
CONTINUOUS
 10
2.299636
 20
-0.576539
 30
0.0
 70
    64
  0
VERTEX
  8
0
  6
CONTINUOUS
 10
2.313356
 20
-0.576539
 30
0.0
 70
    64
  0
VERTEX
  8
0
  6
CONTINUOUS
 10
2.327076
 20
-0.576539
 30
0.0
 70
    64
  0
VERTEX
  8
0
  6
CONTINUOUS
 10
2.340796
 20
-0.576539
 30
0.0
 70
    64
  0
VERTEX
  8
0
  6
CONTINUOUS
 10
2.354516
 20
-0.576539
 30
0.0
 70
    64
  0
VERTEX
  8
0
  6
CONTINUOUS
 10
2.368236
 20
-0.576539
 30
0.0
 70
    64
  0
VERTEX
  8
0
  6
CONTINUOUS
 10
2.381956
 20
-0.576539
 30
0.0
 70
    64
  0
VERTEX
  8
0
  6
CONTINUOUS
 10
2.395676
 20
-0.576539
 30
0.0
 70
    64
  0
VERTEX
  8
0
  6
CONTINUOUS
 10
2.409396
 20
-0.576539
 30
0.0
 70
    64
  0
VERTEX
  8
0
  6
CONTINUOUS
 10
2.423116
 20
-0.576539
 30
0.0
 70
    64
  0
VERTEX
  8
0
  6
CONTINUOUS
 10
2.436836
 20
-0.576539
 30
0.0
 70
    64
  0
VERTEX
  8
0
  6
CONTINUOUS
 10
2.450556
 20
-0.576539
 30
0.0
 70
    64
  0
VERTEX
  8
0
  6
CONTINUOUS
 10
2.464276
 20
-0.576539
 30
0.0
 70
    64
  0
VERTEX
  8
0
  6
CONTINUOUS
 10
2.477996
 20
-0.576539
 30
0.0
 70
    64
  0
VERTEX
  8
0
  6
CONTINUOUS
 10
2.491716
 20
-0.576539
 30
0.0
 70
    64
  0
VERTEX
  8
0
  6
CONTINUOUS
 10
2.505436
 20
-0.576539
 30
0.0
 70
    64
  0
VERTEX
  8
0
  6
CONTINUOUS
 10
2.519156
 20
-0.576539
 30
0.0
 70
    64
  0
VERTEX
  8
0
  6
CONTINUOUS
 10
2.532876
 20
-0.576539
 30
0.0
 70
    64
  0
VERTEX
  8
0
  6
CONTINUOUS
 10
2.546596
 20
-0.576539
 30
0.0
 70
    64
  0
VERTEX
  8
0
  6
CONTINUOUS
 10
2.560316
 20
-0.576539
 30
0.0
 70
    64
  0
VERTEX
  8
0
  6
CONTINUOUS
 10
2.574036
 20
-0.576539
 30
0.0
 70
    64
  0
VERTEX
  8
0
  6
CONTINUOUS
 10
2.587756
 20
-0.576539
 30
0.0
 70
    64
  0
VERTEX
  8
0
  6
CONTINUOUS
 10
2.601476
 20
-0.576539
 30
0.0
 70
    64
  0
VERTEX
  8
0
  6
CONTINUOUS
 10
2.615196
 20
-0.576539
 30
0.0
 70
    64
  0
VERTEX
  8
0
  6
CONTINUOUS
 10
2.628916
 20
-0.576539
 30
0.0
 70
    64
  0
VERTEX
  8
0
  6
CONTINUOUS
 10
2.642636
 20
-0.576539
 30
0.0
 70
    64
  0
VERTEX
  8
0
  6
CONTINUOUS
 10
2.656356
 20
-0.576539
 30
0.0
 70
    64
  0
VERTEX
  8
0
  6
CONTINUOUS
 10
2.670076
 20
-0.576539
 30
0.0
 70
    64
  0
VERTEX
  8
0
  6
CONTINUOUS
 10
2.683796
 20
-0.576539
 30
0.0
 70
    64
  0
VERTEX
  8
0
  6
CONTINUOUS
 10
2.697516
 20
-0.576539
 30
0.0
 70
    64
  0
VERTEX
  8
0
  6
CONTINUOUS
 10
2.711236
 20
-0.576539
 30
0.0
 70
    64
  0
VERTEX
  8
0
  6
CONTINUOUS
 10
2.724956
 20
-0.576539
 30
0.0
 70
    64
  0
VERTEX
  8
0
  6
CONTINUOUS
 10
2.738676
 20
-0.576539
 30
0.0
 70
    64
  0
VERTEX
  8
0
  6
CONTINUOUS
 10
2.752396
 20
-0.576539
 30
0.0
 70
    64
  0
VERTEX
  8
0
  6
CONTINUOUS
 10
2.766116
 20
-0.576539
 30
0.0
 70
    64
  0
VERTEX
  8
0
  6
CONTINUOUS
 10
2.779836
 20
-0.576539
 30
0.0
 70
    64
  0
VERTEX
  8
0
  6
CONTINUOUS
 10
2.793556
 20
-0.576539
 30
0.0
 70
    64
  0
VERTEX
  8
0
  6
CONTINUOUS
 10
2.807276
 20
-0.576539
 30
0.0
 70
    64
  0
VERTEX
  8
0
  6
CONTINUOUS
 10
2.820996
 20
-0.576539
 30
0.0
 70
    64
  0
VERTEX
  8
0
  6
CONTINUOUS
 10
2.834716
 20
-0.576539
 30
0.0
 70
    64
  0
VERTEX
  8
0
  6
CONTINUOUS
 10
2.848436
 20
-0.576539
 30
0.0
 70
    64
  0
VERTEX
  8
0
  6
CONTINUOUS
 10
2.862156
 20
-0.576539
 30
0.0
 70
    64
  0
VERTEX
  8
0
  6
CONTINUOUS
 10
2.875876
 20
-0.576539
 30
0.0
 70
    64
  0
VERTEX
  8
0
  6
CONTINUOUS
 10
2.889596
 20
-0.576539
 30
0.0
 70
    64
  0
VERTEX
  8
0
  6
CONTINUOUS
 10
2.903316
 20
-0.576539
 30
0.0
 70
    64
  0
VERTEX
  8
0
  6
CONTINUOUS
 10
2.917036
 20
-0.576539
 30
0.0
 70
    64
  0
VERTEX
  8
0
  6
CONTINUOUS
 10
2.930756
 20
-0.576539
 30
0.0
 70
    64
  0
VERTEX
  8
0
  6
CONTINUOUS
 10
2.944476
 20
-0.576539
 30
0.0
 70
    64
  0
VERTEX
  8
0
  6
CONTINUOUS
 10
2.958196
 20
-0.576539
 30
0.0
 70
    64
  0
VERTEX
  8
0
  6
CONTINUOUS
 10
2.971916
 20
-0.576539
 30
0.0
 70
    64
  0
VERTEX
  8
0
  6
CONTINUOUS
 10
2.985636
 20
-0.576539
 30
0.0
 70
    64
  0
VERTEX
  8
0
  6
CONTINUOUS
 10
2.999356
 20
-0.576539
 30
0.0
 70
    64
  0
VERTEX
  8
0
  6
CONTINUOUS
 10
3.013076
 20
-0.576539
 30
0.0
 70
    64
  0
VERTEX
  8
0
  6
CONTINUOUS
 10
3.026796
 20
-0.576539
 30
0.0
 70
    64
  0
VERTEX
  8
0
  6
CONTINUOUS
 10
3.040516
 20
-0.576539
 30
0.0
 70
    64
  0
VERTEX
  8
0
  6
CONTINUOUS
 10
3.054236
 20
-0.576539
 30
0.0
 70
    64
  0
VERTEX
  8
0
  6
CONTINUOUS
 10
3.067956
 20
-0.576539
 30
0.0
 70
    64
  0
VERTEX
  8
0
  6
CONTINUOUS
 10
3.081676
 20
-0.576539
 30
0.0
 70
    64
  0
VERTEX
  8
0
  6
CONTINUOUS
 10
3.095396
 20
-0.576539
 30
0.0
 70
    64
  0
VERTEX
  8
0
  6
CONTINUOUS
 10
3.109116
 20
-0.576539
 30
0.0
 70
    64
  0
VERTEX
  8
0
  6
CONTINUOUS
 10
3.122836
 20
-0.576539
 30
0.0
 70
    64
  0
VERTEX
  8
0
  6
CONTINUOUS
 10
3.136556
 20
-0.576539
 30
0.0
 70
    64
  0
VERTEX
  8
0
  6
CONTINUOUS
 10
3.150276
 20
-0.576539
 30
0.0
 70
    64
  0
VERTEX
  8
0
  6
CONTINUOUS
 10
3.163996
 20
-0.576539
 30
0.0
 70
    64
  0
VERTEX
  8
0
  6
CONTINUOUS
 10
3.177716
 20
-0.576539
 30
0.0
 70
    64
  0
VERTEX
  8
0
  6
CONTINUOUS
 10
3.191436
 20
-0.576539
 30
0.0
 70
    64
  0
VERTEX
  8
0
  6
CONTINUOUS
 10
3.205156
 20
-0.576539
 30
0.0
 70
    64
  0
VERTEX
  8
0
  6
CONTINUOUS
 10
3.218876
 20
-0.576539
 30
0.0
 70
    64
  0
VERTEX
  8
0
  6
CONTINUOUS
 10
3.232596
 20
-0.576539
 30
0.0
 70
    64
  0
VERTEX
  8
0
  6
CONTINUOUS
 10
3.246316
 20
-0.576539
 30
0.0
 70
    64
  0
VERTEX
  8
0
  6
CONTINUOUS
 10
3.260036
 20
-0.576539
 30
0.0
 70
    64
  0
VERTEX
  8
0
  6
CONTINUOUS
 10
3.273756
 20
-0.576539
 30
0.0
 70
    64
  0
VERTEX
  8
0
  6
CONTINUOUS
 10
3.287476
 20
-0.576539
 30
0.0
 70
    64
  0
VERTEX
  8
0
  6
CONTINUOUS
 10
3.301196
 20
-0.576539
 30
0.0
 70
    64
  0
VERTEX
  8
0
  6
CONTINUOUS
 10
3.314916
 20
-0.576539
 30
0.0
 70
    64
  0
VERTEX
  8
0
  6
CONTINUOUS
 10
3.328636
 20
-0.576539
 30
0.0
 70
    64
  0
VERTEX
  8
0
  6
CONTINUOUS
 10
3.342356
 20
-0.576539
 30
0.0
 70
    64
  0
VERTEX
  8
0
  6
CONTINUOUS
 10
3.356076
 20
-0.576539
 30
0.0
 70
    64
  0
VERTEX
  8
0
  6
CONTINUOUS
 10
3.369796
 20
-0.576539
 30
0.0
 70
    64
  0
VERTEX
  8
0
  6
CONTINUOUS
 10
3.383516
 20
-0.576539
 30
0.0
 70
    64
  0
VERTEX
  8
0
  6
CONTINUOUS
 10
3.397236
 20
-0.576539
 30
0.0
 70
    64
  0
VERTEX
  8
0
  6
CONTINUOUS
 10
3.410956
 20
-0.576539
 30
0.0
 70
    64
  0
VERTEX
  8
0
  6
CONTINUOUS
 10
3.424676
 20
-0.576539
 30
0.0
 70
    64
  0
VERTEX
  8
0
  6
CONTINUOUS
 10
3.438396
 20
-0.576539
 30
0.0
 70
    64
  0
VERTEX
  8
0
  6
CONTINUOUS
 10
3.452116
 20
-0.576539
 30
0.0
 70
    64
  0
VERTEX
  8
0
  6
CONTINUOUS
 10
3.465836
 20
-0.576539
 30
0.0
 70
    64
  0
VERTEX
  8
0
  6
CONTINUOUS
 10
3.479556
 20
-0.576539
 30
0.0
 70
    64
  0
VERTEX
  8
0
  6
CONTINUOUS
 10
3.493276
 20
-0.576539
 30
0.0
 70
    64
  0
VERTEX
  8
0
  6
CONTINUOUS
 10
3.506996
 20
-0.576539
 30
0.0
 70
    64
  0
VERTEX
  8
0
  6
CONTINUOUS
 10
3.520716
 20
-0.576539
 30
0.0
 70
    64
  0
VERTEX
  8
0
  6
CONTINUOUS
 10
3.534436
 20
-0.576539
 30
0.0
 70
    64
  0
VERTEX
  8
0
  6
CONTINUOUS
 10
3.548156
 20
-0.576539
 30
0.0
 70
    64
  0
VERTEX
  8
0
  6
CONTINUOUS
 10
3.561876
 20
-0.576539
 30
0.0
 70
    64
  0
VERTEX
  8
0
  6
CONTINUOUS
 10
3.575596
 20
-0.576539
 30
0.0
 70
    64
  0
VERTEX
  8
0
  6
CONTINUOUS
 10
3.589316
 20
-0.576539
 30
0.0
 70
    64
  0
VERTEX
  8
0
  6
CONTINUOUS
 10
3.603036
 20
-0.576539
 30
0.0
 70
    64
  0
VERTEX
  8
0
  6
CONTINUOUS
 10
3.616756
 20
-0.576539
 30
0.0
 70
    64
  0
VERTEX
  8
0
  6
CONTINUOUS
 10
3.630476
 20
-0.576539
 30
0.0
 70
    64
  0
VERTEX
  8
0
  6
CONTINUOUS
 10
3.644196
 20
-0.576539
 30
0.0
 70
    64
  0
VERTEX
  8
0
  6
CONTINUOUS
 10
3.657916
 20
-0.576539
 30
0.0
 70
    64
  0
VERTEX
  8
0
  6
CONTINUOUS
 10
3.671636
 20
-0.576539
 30
0.0
 70
    64
  0
VERTEX
  8
0
  6
CONTINUOUS
 10
3.685356
 20
-0.576539
 30
0.0
 70
    64
  0
VERTEX
  8
0
  6
CONTINUOUS
 10
3.699076
 20
-0.576539
 30
0.0
 70
    64
  0
VERTEX
  8
0
  6
CONTINUOUS
 10
3.712796
 20
-0.576539
 30
0.0
 70
    64
  0
VERTEX
  8
0
  6
CONTINUOUS
 10
3.726516
 20
-0.576539
 30
0.0
 70
    64
  0
VERTEX
  8
0
  6
CONTINUOUS
 10
3.740236
 20
-0.576539
 30
0.0
 70
    64
  0
VERTEX
  8
0
  6
CONTINUOUS
 10
3.753956
 20
-0.576539
 30
0.0
 70
    64
  0
VERTEX
  8
0
  6
CONTINUOUS
 10
3.767676
 20
-0.576539
 30
0.0
 70
    64
  0
VERTEX
  8
0
  6
CONTINUOUS
 10
3.781396
 20
-0.576539
 30
0.0
 70
    64
  0
VERTEX
  8
0
  6
CONTINUOUS
 10
3.795116
 20
-0.576539
 30
0.0
 70
    64
  0
VERTEX
  8
0
  6
CONTINUOUS
 10
3.808836
 20
-0.576539
 30
0.0
 70
    64
  0
VERTEX
  8
0
  6
CONTINUOUS
 10
3.822556
 20
-0.576539
 30
0.0
 70
    64
  0
VERTEX
  8
0
  6
CONTINUOUS
 10
3.836276
 20
-0.576539
 30
0.0
 70
    64
  0
VERTEX
  8
0
  6
CONTINUOUS
 10
3.849996
 20
-0.576539
 30
0.0
 70
    64
  0
VERTEX
  8
0
  6
CONTINUOUS
 10
3.863716
 20
-0.576539
 30
0.0
 70
    64
  0
VERTEX
  8
0
  6
CONTINUOUS
 10
3.877436
 20
-0.576539
 30
0.0
 70
    64
  0
VERTEX
  8
0
  6
CONTINUOUS
 10
3.891156
 20
-0.576539
 30
0.0
 70
    64
  0
VERTEX
  8
0
  6
CONTINUOUS
 10
3.904876
 20
-0.576539
 30
0.0
 70
    64
  0
VERTEX
  8
0
  6
CONTINUOUS
 10
3.918596
 20
-0.576539
 30
0.0
 70
    64
  0
VERTEX
  8
0
  6
CONTINUOUS
 10
3.932316
 20
-0.576539
 30
0.0
 70
    64
  0
VERTEX
  8
0
  6
CONTINUOUS
 10
3.946036
 20
-0.576539
 30
0.0
 70
    64
  0
VERTEX
  8
0
  6
CONTINUOUS
 10
3.959756
 20
-0.576539
 30
0.0
 70
    64
  0
VERTEX
  8
0
  6
CONTINUOUS
 10
3.973476
 20
-0.576539
 30
0.0
 70
    64
  0
VERTEX
  8
0
  6
CONTINUOUS
 10
3.987196
 20
-0.576539
 30
0.0
 70
    64
  0
VERTEX
  8
0
  6
CONTINUOUS
 10
4.000916
 20
-0.576539
 30
0.0
 70
    64
  0
VERTEX
  8
0
  6
CONTINUOUS
 10
4.014636
 20
-0.576539
 30
0.0
 70
    64
  0
VERTEX
  8
0
  6
CONTINUOUS
 10
4.028356
 20
-0.576539
 30
0.0
 70
    64
  0
VERTEX
  8
0
  6
CONTINUOUS
 10
4.042076
 20
-0.576539
 30
0.0
 70
    64
  0
VERTEX
  8
0
  6
CONTINUOUS
 10
4.055796
 20
-0.576539
 30
0.0
 70
    64
  0
VERTEX
  8
0
  6
CONTINUOUS
 10
4.069516
 20
-0.576539
 30
0.0
 70
    64
  0
VERTEX
  8
0
  6
CONTINUOUS
 10
4.083236
 20
-0.576539
 30
0.0
 70
    64
  0
VERTEX
  8
0
  6
CONTINUOUS
 10
4.096956
 20
-0.576539
 30
0.0
 70
    64
  0
VERTEX
  8
0
  6
CONTINUOUS
 10
4.110676
 20
-0.576539
 30
0.0
 70
    64
  0
VERTEX
  8
0
  6
CONTINUOUS
 10
4.124396
 20
-0.576539
 30
0.0
 70
    64
  0
VERTEX
  8
0
  6
CONTINUOUS
 10
4.138116
 20
-0.576539
 30
0.0
 70
    64
  0
VERTEX
  8
0
  6
CONTINUOUS
 10
4.151836
 20
-0.576539
 30
0.0
 70
    64
  0
VERTEX
  8
0
  6
CONTINUOUS
 10
4.165556
 20
-0.576539
 30
0.0
 70
    64
  0
VERTEX
  8
0
  6
CONTINUOUS
 10
4.179276
 20
-0.576539
 30
0.0
 70
    64
  0
VERTEX
  8
0
  6
CONTINUOUS
 10
4.192996
 20
-0.576539
 30
0.0
 70
    64
  0
VERTEX
  8
0
  6
CONTINUOUS
 10
4.206716
 20
-0.576539
 30
0.0
 70
    64
  0
VERTEX
  8
0
  6
CONTINUOUS
 10
4.220436
 20
-0.576539
 30
0.0
 70
    64
  0
VERTEX
  8
0
  6
CONTINUOUS
 10
4.234156
 20
-0.576539
 30
0.0
 70
    64
  0
VERTEX
  8
0
  6
CONTINUOUS
 10
4.247876
 20
-0.576539
 30
0.0
 70
    64
  0
VERTEX
  8
0
  6
CONTINUOUS
 10
4.261596
 20
-0.576539
 30
0.0
 70
    64
  0
VERTEX
  8
0
  6
CONTINUOUS
 10
4.275316
 20
-0.576539
 30
0.0
 70
    64
  0
VERTEX
  8
0
  6
CONTINUOUS
 10
4.289036
 20
-0.576539
 30
0.0
 70
    64
  0
VERTEX
  8
0
  6
CONTINUOUS
 10
4.302756
 20
-0.576539
 30
0.0
 70
    64
  0
VERTEX
  8
0
  6
CONTINUOUS
 10
4.316476
 20
-0.576539
 30
0.0
 70
    64
  0
VERTEX
  8
0
  6
CONTINUOUS
 10
4.330196
 20
-0.576539
 30
0.0
 70
    64
  0
VERTEX
  8
0
  6
CONTINUOUS
 10
4.343916
 20
-0.576539
 30
0.0
 70
    64
  0
VERTEX
  8
0
  6
CONTINUOUS
 10
4.357636
 20
-0.576539
 30
0.0
 70
    64
  0
VERTEX
  8
0
  6
CONTINUOUS
 10
4.371356
 20
-0.576539
 30
0.0
 70
    64
  0
VERTEX
  8
0
  6
CONTINUOUS
 10
4.385076
 20
-0.576539
 30
0.0
 70
    64
  0
VERTEX
  8
0
  6
CONTINUOUS
 10
4.398796
 20
-0.576539
 30
0.0
 70
    64
  0
VERTEX
  8
0
  6
CONTINUOUS
 10
4.412516
 20
-0.576539
 30
0.0
 70
    64
  0
VERTEX
  8
0
  6
CONTINUOUS
 10
4.426236
 20
-0.576539
 30
0.0
 70
    64
  0
VERTEX
  8
0
  6
CONTINUOUS
 10
4.439956
 20
-0.576539
 30
0.0
 70
    64
  0
VERTEX
  8
0
  6
CONTINUOUS
 10
4.453676
 20
-0.576539
 30
0.0
 70
    64
  0
VERTEX
  8
0
  6
CONTINUOUS
 10
4.467396
 20
-0.576539
 30
0.0
 70
    64
  0
VERTEX
  8
0
  6
CONTINUOUS
 10
4.481116
 20
-0.576539
 30
0.0
 70
    64
  0
VERTEX
  8
0
  6
CONTINUOUS
 10
4.494836
 20
-0.576539
 30
0.0
 70
    64
  0
VERTEX
  8
0
  6
CONTINUOUS
 10
4.508556
 20
-0.576539
 30
0.0
 70
    64
  0
VERTEX
  8
0
  6
CONTINUOUS
 10
4.522276
 20
-0.576539
 30
0.0
 70
    64
  0
VERTEX
  8
0
  6
CONTINUOUS
 10
4.535996
 20
-0.576539
 30
0.0
 70
    64
  0
VERTEX
  8
0
  6
CONTINUOUS
 10
4.549716
 20
-0.576539
 30
0.0
 70
    64
  0
VERTEX
  8
0
  6
CONTINUOUS
 10
4.563436
 20
-0.576539
 30
0.0
 70
    64
  0
VERTEX
  8
0
  6
CONTINUOUS
 10
4.577156
 20
-0.576539
 30
0.0
 70
    64
  0
VERTEX
  8
0
  6
CONTINUOUS
 10
4.590876
 20
-0.576539
 30
0.0
 70
    64
  0
VERTEX
  8
0
  6
CONTINUOUS
 10
4.604596
 20
-0.576539
 30
0.0
 70
    64
  0
VERTEX
  8
0
  6
CONTINUOUS
 10
4.618316
 20
-0.576539
 30
0.0
 70
    64
  0
VERTEX
  8
0
  6
CONTINUOUS
 10
4.632036
 20
-0.576539
 30
0.0
 70
    64
  0
VERTEX
  8
0
  6
CONTINUOUS
 10
4.645756
 20
-0.576539
 30
0.0
 70
    64
  0
VERTEX
  8
0
  6
CONTINUOUS
 10
4.659476
 20
-0.576539
 30
0.0
 70
    64
  0
VERTEX
  8
0
  6
CONTINUOUS
 10
4.673196
 20
-0.576539
 30
0.0
 70
    64
  0
VERTEX
  8
0
  6
CONTINUOUS
 10
4.686916
 20
-0.576539
 30
0.0
 70
    64
  0
VERTEX
  8
0
  6
CONTINUOUS
 10
4.700636
 20
-0.576539
 30
0.0
 70
    64
  0
VERTEX
  8
0
  6
CONTINUOUS
 10
4.714356
 20
-0.576539
 30
0.0
 70
    64
  0
VERTEX
  8
0
  6
CONTINUOUS
 10
4.728076
 20
-0.576539
 30
0.0
 70
    64
  0
VERTEX
  8
0
  6
CONTINUOUS
 10
4.741796
 20
-0.576539
 30
0.0
 70
    64
  0
VERTEX
  8
0
  6
CONTINUOUS
 10
4.755516
 20
-0.576539
 30
0.0
 70
    64
  0
VERTEX
  8
0
  6
CONTINUOUS
 10
4.769236
 20
-0.576539
 30
0.0
 70
    64
  0
VERTEX
  8
0
  6
CONTINUOUS
 10
4.782956
 20
-0.576539
 30
0.0
 70
    64
  0
VERTEX
  8
0
  6
CONTINUOUS
 10
4.796676
 20
-0.576539
 30
0.0
 70
    64
  0
VERTEX
  8
0
  6
CONTINUOUS
 10
4.810396
 20
-0.576539
 30
0.0
 70
    64
  0
VERTEX
  8
0
  6
CONTINUOUS
 10
4.824116
 20
-0.576539
 30
0.0
 70
    64
  0
VERTEX
  8
0
  6
CONTINUOUS
 10
4.837836
 20
-0.576539
 30
0.0
 70
    64
  0
VERTEX
  8
0
  6
CONTINUOUS
 10
4.851556
 20
-0.576539
 30
0.0
 70
    64
  0
VERTEX
  8
0
  6
CONTINUOUS
 10
4.865276
 20
-0.576539
 30
0.0
 70
    64
  0
VERTEX
  8
0
  6
CONTINUOUS
 10
4.878996
 20
-0.576539
 30
0.0
 70
    64
  0
VERTEX
  8
0
  6
CONTINUOUS
 10
4.892716
 20
-0.576539
 30
0.0
 70
    64
  0
VERTEX
  8
0
  6
CONTINUOUS
 10
4.906436
 20
-0.576539
 30
0.0
 70
    64
  0
VERTEX
  8
0
  6
CONTINUOUS
 10
4.920156
 20
-0.576539
 30
0.0
 70
    64
  0
VERTEX
  8
0
  6
CONTINUOUS
 10
4.933876
 20
-0.576539
 30
0.0
 70
    64
  0
VERTEX
  8
0
  6
CONTINUOUS
 10
4.947596
 20
-0.576539
 30
0.0
 70
    64
  0
VERTEX
  8
0
  6
CONTINUOUS
 10
4.961316
 20
-0.576539
 30
0.0
 70
    64
  0
VERTEX
  8
0
  6
CONTINUOUS
 10
4.975036
 20
-0.576539
 30
0.0
 70
    64
  0
VERTEX
  8
0
  6
CONTINUOUS
 10
4.988756
 20
-0.576539
 30
0.0
 70
    64
  0
VERTEX
  8
0
  6
CONTINUOUS
 10
5.002476
 20
-0.576539
 30
0.0
 70
    64
  0
VERTEX
  8
0
  6
CONTINUOUS
 10
5.016196
 20
-0.576539
 30
0.0
 70
    64
  0
VERTEX
  8
0
  6
CONTINUOUS
 10
5.029916
 20
-0.576539
 30
0.0
 70
    64
  0
VERTEX
  8
0
  6
CONTINUOUS
 10
5.043636
 20
-0.576539
 30
0.0
 70
    64
  0
VERTEX
  8
0
  6
CONTINUOUS
 10
5.057356
 20
-0.576539
 30
0.0
 70
    64
  0
VERTEX
  8
0
  6
CONTINUOUS
 10
5.071076
 20
-0.576539
 30
0.0
 70
    64
  0
VERTEX
  8
0
  6
CONTINUOUS
 10
5.084796
 20
-0.576539
 30
0.0
 70
    64
  0
VERTEX
  8
0
  6
CONTINUOUS
 10
5.098516
 20
-0.576539
 30
0.0
 70
    64
  0
VERTEX
  8
0
  6
CONTINUOUS
 10
5.112236
 20
-0.576539
 30
0.0
 70
    64
  0
VERTEX
  8
0
  6
CONTINUOUS
 10
5.125956
 20
-0.576539
 30
0.0
 70
    64
  0
VERTEX
  8
0
  6
CONTINUOUS
 10
5.139676
 20
-0.576539
 30
0.0
 70
    64
  0
VERTEX
  8
0
  6
CONTINUOUS
 10
5.153396
 20
-0.576539
 30
0.0
 70
    64
  0
VERTEX
  8
0
  6
CONTINUOUS
 10
5.167116
 20
-0.576539
 30
0.0
 70
    64
  0
VERTEX
  8
0
  6
CONTINUOUS
 10
5.180836
 20
-0.576539
 30
0.0
 70
    64
  0
VERTEX
  8
0
  6
CONTINUOUS
 10
5.194556
 20
-0.576539
 30
0.0
 70
    64
  0
VERTEX
  8
0
  6
CONTINUOUS
 10
5.208276
 20
-0.576539
 30
0.0
 70
    64
  0
VERTEX
  8
0
  6
CONTINUOUS
 10
5.221996
 20
-0.576539
 30
0.0
 70
    64
  0
VERTEX
  8
0
  6
CONTINUOUS
 10
5.235716
 20
-0.576539
 30
0.0
 70
    64
  0
VERTEX
  8
0
  6
CONTINUOUS
 10
5.249436
 20
-0.576539
 30
0.0
 70
    64
  0
VERTEX
  8
0
  6
CONTINUOUS
 10
1.819436
 20
0.403461
 30
0.0
 70
    64
  0
VERTEX
  8
0
  6
CONTINUOUS
 10
1.833156
 20
0.403461
 30
0.0
 70
    64
  0
VERTEX
  8
0
  6
CONTINUOUS
 10
1.846876
 20
0.403461
 30
0.0
 70
    64
  0
VERTEX
  8
0
  6
CONTINUOUS
 10
1.860596
 20
0.403461
 30
0.0
 70
    64
  0
VERTEX
  8
0
  6
CONTINUOUS
 10
1.874316
 20
0.403461
 30
0.0
 70
    64
  0
VERTEX
  8
0
  6
CONTINUOUS
 10
1.888036
 20
0.403461
 30
0.0
 70
    64
  0
VERTEX
  8
0
  6
CONTINUOUS
 10
1.901756
 20
0.403461
 30
0.0
 70
    64
  0
VERTEX
  8
0
  6
CONTINUOUS
 10
1.915476
 20
0.403461
 30
0.0
 70
    64
  0
VERTEX
  8
0
  6
CONTINUOUS
 10
1.929196
 20
0.403461
 30
0.0
 70
    64
  0
VERTEX
  8
0
  6
CONTINUOUS
 10
1.942916
 20
0.403461
 30
0.0
 70
    64
  0
VERTEX
  8
0
  6
CONTINUOUS
 10
1.956636
 20
0.403461
 30
0.0
 70
    64
  0
VERTEX
  8
0
  6
CONTINUOUS
 10
1.970356
 20
0.403461
 30
0.0
 70
    64
  0
VERTEX
  8
0
  6
CONTINUOUS
 10
1.984076
 20
0.403461
 30
0.0
 70
    64
  0
VERTEX
  8
0
  6
CONTINUOUS
 10
1.997796
 20
0.403461
 30
0.0
 70
    64
  0
VERTEX
  8
0
  6
CONTINUOUS
 10
2.011516
 20
0.403461
 30
0.0
 70
    64
  0
VERTEX
  8
0
  6
CONTINUOUS
 10
2.025236
 20
0.403461
 30
0.0
 70
    64
  0
VERTEX
  8
0
  6
CONTINUOUS
 10
2.038956
 20
0.403461
 30
0.0
 70
    64
  0
VERTEX
  8
0
  6
CONTINUOUS
 10
2.052676
 20
0.403461
 30
0.0
 70
    64
  0
VERTEX
  8
0
  6
CONTINUOUS
 10
2.066396
 20
0.403461
 30
0.0
 70
    64
  0
VERTEX
  8
0
  6
CONTINUOUS
 10
2.080116
 20
0.403461
 30
0.0
 70
    64
  0
VERTEX
  8
0
  6
CONTINUOUS
 10
2.093836
 20
0.403461
 30
0.0
 70
    64
  0
VERTEX
  8
0
  6
CONTINUOUS
 10
2.107556
 20
0.403461
 30
0.0
 70
    64
  0
VERTEX
  8
0
  6
CONTINUOUS
 10
2.121276
 20
0.403461
 30
0.0
 70
    64
  0
VERTEX
  8
0
  6
CONTINUOUS
 10
2.134996
 20
0.403461
 30
0.0
 70
    64
  0
VERTEX
  8
0
  6
CONTINUOUS
 10
2.148716
 20
0.403461
 30
0.0
 70
    64
  0
VERTEX
  8
0
  6
CONTINUOUS
 10
2.162436
 20
0.403461
 30
0.0
 70
    64
  0
VERTEX
  8
0
  6
CONTINUOUS
 10
2.176156
 20
0.403461
 30
0.0
 70
    64
  0
VERTEX
  8
0
  6
CONTINUOUS
 10
2.189876
 20
0.403461
 30
0.0
 70
    64
  0
VERTEX
  8
0
  6
CONTINUOUS
 10
2.203596
 20
0.403461
 30
0.0
 70
    64
  0
VERTEX
  8
0
  6
CONTINUOUS
 10
2.217316
 20
0.403461
 30
0.0
 70
    64
  0
VERTEX
  8
0
  6
CONTINUOUS
 10
2.231036
 20
0.403461
 30
0.0
 70
    64
  0
VERTEX
  8
0
  6
CONTINUOUS
 10
2.244756
 20
0.403461
 30
0.0
 70
    64
  0
VERTEX
  8
0
  6
CONTINUOUS
 10
2.258476
 20
0.403461
 30
0.0
 70
    64
  0
VERTEX
  8
0
  6
CONTINUOUS
 10
2.272196
 20
0.403461
 30
0.0
 70
    64
  0
VERTEX
  8
0
  6
CONTINUOUS
 10
2.285916
 20
0.403461
 30
0.0
 70
    64
  0
VERTEX
  8
0
  6
CONTINUOUS
 10
2.299636
 20
0.403461
 30
0.0
 70
    64
  0
VERTEX
  8
0
  6
CONTINUOUS
 10
2.313356
 20
0.403461
 30
0.0
 70
    64
  0
VERTEX
  8
0
  6
CONTINUOUS
 10
2.327076
 20
0.403461
 30
0.0
 70
    64
  0
VERTEX
  8
0
  6
CONTINUOUS
 10
2.340796
 20
0.403461
 30
0.0
 70
    64
  0
VERTEX
  8
0
  6
CONTINUOUS
 10
2.354516
 20
0.403461
 30
0.0
 70
    64
  0
VERTEX
  8
0
  6
CONTINUOUS
 10
2.368236
 20
0.403461
 30
0.0
 70
    64
  0
VERTEX
  8
0
  6
CONTINUOUS
 10
2.381956
 20
0.403461
 30
0.0
 70
    64
  0
VERTEX
  8
0
  6
CONTINUOUS
 10
2.395676
 20
0.403461
 30
0.0
 70
    64
  0
VERTEX
  8
0
  6
CONTINUOUS
 10
2.409396
 20
0.403461
 30
0.0
 70
    64
  0
VERTEX
  8
0
  6
CONTINUOUS
 10
2.423116
 20
0.403461
 30
0.0
 70
    64
  0
VERTEX
  8
0
  6
CONTINUOUS
 10
2.436836
 20
0.403461
 30
0.0
 70
    64
  0
VERTEX
  8
0
  6
CONTINUOUS
 10
2.450556
 20
0.403461
 30
0.0
 70
    64
  0
VERTEX
  8
0
  6
CONTINUOUS
 10
2.464276
 20
0.403461
 30
0.0
 70
    64
  0
VERTEX
  8
0
  6
CONTINUOUS
 10
2.477996
 20
0.403461
 30
0.0
 70
    64
  0
VERTEX
  8
0
  6
CONTINUOUS
 10
2.491716
 20
0.403461
 30
0.0
 70
    64
  0
VERTEX
  8
0
  6
CONTINUOUS
 10
2.505436
 20
0.403461
 30
0.0
 70
    64
  0
VERTEX
  8
0
  6
CONTINUOUS
 10
2.519156
 20
0.403461
 30
0.0
 70
    64
  0
VERTEX
  8
0
  6
CONTINUOUS
 10
2.532876
 20
0.403461
 30
0.0
 70
    64
  0
VERTEX
  8
0
  6
CONTINUOUS
 10
2.546596
 20
0.403461
 30
0.0
 70
    64
  0
VERTEX
  8
0
  6
CONTINUOUS
 10
2.560316
 20
0.403461
 30
0.0
 70
    64
  0
VERTEX
  8
0
  6
CONTINUOUS
 10
2.574036
 20
0.403461
 30
0.0
 70
    64
  0
VERTEX
  8
0
  6
CONTINUOUS
 10
2.587756
 20
0.403461
 30
0.0
 70
    64
  0
VERTEX
  8
0
  6
CONTINUOUS
 10
2.601476
 20
0.403461
 30
0.0
 70
    64
  0
VERTEX
  8
0
  6
CONTINUOUS
 10
2.615196
 20
0.403461
 30
0.0
 70
    64
  0
VERTEX
  8
0
  6
CONTINUOUS
 10
2.628916
 20
0.403461
 30
0.0
 70
    64
  0
VERTEX
  8
0
  6
CONTINUOUS
 10
2.642636
 20
0.403461
 30
0.0
 70
    64
  0
VERTEX
  8
0
  6
CONTINUOUS
 10
2.656356
 20
0.403461
 30
0.0
 70
    64
  0
VERTEX
  8
0
  6
CONTINUOUS
 10
2.670076
 20
0.403461
 30
0.0
 70
    64
  0
VERTEX
  8
0
  6
CONTINUOUS
 10
2.683796
 20
0.403461
 30
0.0
 70
    64
  0
VERTEX
  8
0
  6
CONTINUOUS
 10
2.697516
 20
0.403461
 30
0.0
 70
    64
  0
VERTEX
  8
0
  6
CONTINUOUS
 10
2.711236
 20
0.403461
 30
0.0
 70
    64
  0
VERTEX
  8
0
  6
CONTINUOUS
 10
2.724956
 20
0.403461
 30
0.0
 70
    64
  0
VERTEX
  8
0
  6
CONTINUOUS
 10
2.738676
 20
0.403461
 30
0.0
 70
    64
  0
VERTEX
  8
0
  6
CONTINUOUS
 10
2.752396
 20
0.403461
 30
0.0
 70
    64
  0
VERTEX
  8
0
  6
CONTINUOUS
 10
2.766116
 20
0.403461
 30
0.0
 70
    64
  0
VERTEX
  8
0
  6
CONTINUOUS
 10
2.779836
 20
0.403461
 30
0.0
 70
    64
  0
VERTEX
  8
0
  6
CONTINUOUS
 10
2.793556
 20
0.403461
 30
0.0
 70
    64
  0
VERTEX
  8
0
  6
CONTINUOUS
 10
2.807276
 20
0.403461
 30
0.0
 70
    64
  0
VERTEX
  8
0
  6
CONTINUOUS
 10
2.820996
 20
0.403461
 30
0.0
 70
    64
  0
VERTEX
  8
0
  6
CONTINUOUS
 10
2.834716
 20
0.403461
 30
0.0
 70
    64
  0
VERTEX
  8
0
  6
CONTINUOUS
 10
2.848436
 20
0.403461
 30
0.0
 70
    64
  0
VERTEX
  8
0
  6
CONTINUOUS
 10
2.862156
 20
0.403461
 30
0.0
 70
    64
  0
VERTEX
  8
0
  6
CONTINUOUS
 10
2.875876
 20
0.403461
 30
0.0
 70
    64
  0
VERTEX
  8
0
  6
CONTINUOUS
 10
2.889596
 20
0.403461
 30
0.0
 70
    64
  0
VERTEX
  8
0
  6
CONTINUOUS
 10
2.903316
 20
0.403461
 30
0.0
 70
    64
  0
VERTEX
  8
0
  6
CONTINUOUS
 10
2.917036
 20
0.403461
 30
0.0
 70
    64
  0
VERTEX
  8
0
  6
CONTINUOUS
 10
2.930756
 20
0.403461
 30
0.0
 70
    64
  0
VERTEX
  8
0
  6
CONTINUOUS
 10
2.944476
 20
0.403461
 30
0.0
 70
    64
  0
VERTEX
  8
0
  6
CONTINUOUS
 10
2.958196
 20
0.403461
 30
0.0
 70
    64
  0
VERTEX
  8
0
  6
CONTINUOUS
 10
2.971916
 20
0.403461
 30
0.0
 70
    64
  0
VERTEX
  8
0
  6
CONTINUOUS
 10
2.985636
 20
0.403461
 30
0.0
 70
    64
  0
VERTEX
  8
0
  6
CONTINUOUS
 10
2.999356
 20
0.403461
 30
0.0
 70
    64
  0
VERTEX
  8
0
  6
CONTINUOUS
 10
3.013076
 20
0.403461
 30
0.0
 70
    64
  0
VERTEX
  8
0
  6
CONTINUOUS
 10
3.026796
 20
0.403461
 30
0.0
 70
    64
  0
VERTEX
  8
0
  6
CONTINUOUS
 10
3.040516
 20
0.403461
 30
0.0
 70
    64
  0
VERTEX
  8
0
  6
CONTINUOUS
 10
3.054236
 20
0.403461
 30
0.0
 70
    64
  0
VERTEX
  8
0
  6
CONTINUOUS
 10
3.067956
 20
0.403461
 30
0.0
 70
    64
  0
VERTEX
  8
0
  6
CONTINUOUS
 10
3.081676
 20
0.403461
 30
0.0
 70
    64
  0
VERTEX
  8
0
  6
CONTINUOUS
 10
3.095396
 20
0.403461
 30
0.0
 70
    64
  0
VERTEX
  8
0
  6
CONTINUOUS
 10
3.109116
 20
0.403461
 30
0.0
 70
    64
  0
VERTEX
  8
0
  6
CONTINUOUS
 10
3.122836
 20
0.403461
 30
0.0
 70
    64
  0
VERTEX
  8
0
  6
CONTINUOUS
 10
3.136556
 20
0.403461
 30
0.0
 70
    64
  0
VERTEX
  8
0
  6
CONTINUOUS
 10
3.150276
 20
0.403461
 30
0.0
 70
    64
  0
VERTEX
  8
0
  6
CONTINUOUS
 10
3.163996
 20
0.403461
 30
0.0
 70
    64
  0
VERTEX
  8
0
  6
CONTINUOUS
 10
3.177716
 20
0.403461
 30
0.0
 70
    64
  0
VERTEX
  8
0
  6
CONTINUOUS
 10
3.191436
 20
0.403461
 30
0.0
 70
    64
  0
VERTEX
  8
0
  6
CONTINUOUS
 10
3.205156
 20
0.403461
 30
0.0
 70
    64
  0
VERTEX
  8
0
  6
CONTINUOUS
 10
3.218876
 20
0.403461
 30
0.0
 70
    64
  0
VERTEX
  8
0
  6
CONTINUOUS
 10
3.232596
 20
0.403461
 30
0.0
 70
    64
  0
VERTEX
  8
0
  6
CONTINUOUS
 10
3.246316
 20
0.403461
 30
0.0
 70
    64
  0
VERTEX
  8
0
  6
CONTINUOUS
 10
3.260036
 20
0.403461
 30
0.0
 70
    64
  0
VERTEX
  8
0
  6
CONTINUOUS
 10
3.273756
 20
0.403461
 30
0.0
 70
    64
  0
VERTEX
  8
0
  6
CONTINUOUS
 10
3.287476
 20
0.403461
 30
0.0
 70
    64
  0
VERTEX
  8
0
  6
CONTINUOUS
 10
3.301196
 20
0.403461
 30
0.0
 70
    64
  0
VERTEX
  8
0
  6
CONTINUOUS
 10
3.314916
 20
0.403461
 30
0.0
 70
    64
  0
VERTEX
  8
0
  6
CONTINUOUS
 10
3.328636
 20
0.403461
 30
0.0
 70
    64
  0
VERTEX
  8
0
  6
CONTINUOUS
 10
3.342356
 20
0.403461
 30
0.0
 70
    64
  0
VERTEX
  8
0
  6
CONTINUOUS
 10
3.356076
 20
0.403461
 30
0.0
 70
    64
  0
VERTEX
  8
0
  6
CONTINUOUS
 10
3.369796
 20
0.403461
 30
0.0
 70
    64
  0
VERTEX
  8
0
  6
CONTINUOUS
 10
3.383516
 20
0.403461
 30
0.0
 70
    64
  0
VERTEX
  8
0
  6
CONTINUOUS
 10
3.397236
 20
0.403461
 30
0.0
 70
    64
  0
VERTEX
  8
0
  6
CONTINUOUS
 10
3.410956
 20
0.403461
 30
0.0
 70
    64
  0
VERTEX
  8
0
  6
CONTINUOUS
 10
3.424676
 20
0.403461
 30
0.0
 70
    64
  0
VERTEX
  8
0
  6
CONTINUOUS
 10
3.438396
 20
0.403461
 30
0.0
 70
    64
  0
VERTEX
  8
0
  6
CONTINUOUS
 10
3.452116
 20
0.403461
 30
0.0
 70
    64
  0
VERTEX
  8
0
  6
CONTINUOUS
 10
3.465836
 20
0.403461
 30
0.0
 70
    64
  0
VERTEX
  8
0
  6
CONTINUOUS
 10
3.479556
 20
0.403461
 30
0.0
 70
    64
  0
VERTEX
  8
0
  6
CONTINUOUS
 10
3.493276
 20
0.403461
 30
0.0
 70
    64
  0
VERTEX
  8
0
  6
CONTINUOUS
 10
3.506996
 20
0.403461
 30
0.0
 70
    64
  0
VERTEX
  8
0
  6
CONTINUOUS
 10
3.520716
 20
0.403461
 30
0.0
 70
    64
  0
VERTEX
  8
0
  6
CONTINUOUS
 10
3.534436
 20
0.403461
 30
0.0
 70
    64
  0
VERTEX
  8
0
  6
CONTINUOUS
 10
3.548156
 20
0.403461
 30
0.0
 70
    64
  0
VERTEX
  8
0
  6
CONTINUOUS
 10
3.561876
 20
0.403461
 30
0.0
 70
    64
  0
VERTEX
  8
0
  6
CONTINUOUS
 10
3.575596
 20
0.403461
 30
0.0
 70
    64
  0
VERTEX
  8
0
  6
CONTINUOUS
 10
3.589316
 20
0.403461
 30
0.0
 70
    64
  0
VERTEX
  8
0
  6
CONTINUOUS
 10
3.603036
 20
0.403461
 30
0.0
 70
    64
  0
VERTEX
  8
0
  6
CONTINUOUS
 10
3.616756
 20
0.403461
 30
0.0
 70
    64
  0
VERTEX
  8
0
  6
CONTINUOUS
 10
3.630476
 20
0.403461
 30
0.0
 70
    64
  0
VERTEX
  8
0
  6
CONTINUOUS
 10
3.644196
 20
0.403461
 30
0.0
 70
    64
  0
VERTEX
  8
0
  6
CONTINUOUS
 10
3.657916
 20
0.403461
 30
0.0
 70
    64
  0
VERTEX
  8
0
  6
CONTINUOUS
 10
3.671636
 20
0.403461
 30
0.0
 70
    64
  0
VERTEX
  8
0
  6
CONTINUOUS
 10
3.685356
 20
0.403461
 30
0.0
 70
    64
  0
VERTEX
  8
0
  6
CONTINUOUS
 10
3.699076
 20
0.403461
 30
0.0
 70
    64
  0
VERTEX
  8
0
  6
CONTINUOUS
 10
3.712796
 20
0.403461
 30
0.0
 70
    64
  0
VERTEX
  8
0
  6
CONTINUOUS
 10
3.726516
 20
0.403461
 30
0.0
 70
    64
  0
VERTEX
  8
0
  6
CONTINUOUS
 10
3.740236
 20
0.403461
 30
0.0
 70
    64
  0
VERTEX
  8
0
  6
CONTINUOUS
 10
3.753956
 20
0.403461
 30
0.0
 70
    64
  0
VERTEX
  8
0
  6
CONTINUOUS
 10
3.767676
 20
0.403461
 30
0.0
 70
    64
  0
VERTEX
  8
0
  6
CONTINUOUS
 10
3.781396
 20
0.403461
 30
0.0
 70
    64
  0
VERTEX
  8
0
  6
CONTINUOUS
 10
3.795116
 20
0.403461
 30
0.0
 70
    64
  0
VERTEX
  8
0
  6
CONTINUOUS
 10
3.808836
 20
0.403461
 30
0.0
 70
    64
  0
VERTEX
  8
0
  6
CONTINUOUS
 10
3.822556
 20
0.403461
 30
0.0
 70
    64
  0
VERTEX
  8
0
  6
CONTINUOUS
 10
3.836276
 20
0.403461
 30
0.0
 70
    64
  0
VERTEX
  8
0
  6
CONTINUOUS
 10
3.849996
 20
0.403461
 30
0.0
 70
    64
  0
VERTEX
  8
0
  6
CONTINUOUS
 10
3.863716
 20
0.403461
 30
0.0
 70
    64
  0
VERTEX
  8
0
  6
CONTINUOUS
 10
3.877436
 20
0.403461
 30
0.0
 70
    64
  0
VERTEX
  8
0
  6
CONTINUOUS
 10
3.891156
 20
0.403461
 30
0.0
 70
    64
  0
VERTEX
  8
0
  6
CONTINUOUS
 10
3.904876
 20
0.403461
 30
0.0
 70
    64
  0
VERTEX
  8
0
  6
CONTINUOUS
 10
3.918596
 20
0.403461
 30
0.0
 70
    64
  0
VERTEX
  8
0
  6
CONTINUOUS
 10
3.932316
 20
0.403461
 30
0.0
 70
    64
  0
VERTEX
  8
0
  6
CONTINUOUS
 10
3.946036
 20
0.403461
 30
0.0
 70
    64
  0
VERTEX
  8
0
  6
CONTINUOUS
 10
3.959756
 20
0.403461
 30
0.0
 70
    64
  0
VERTEX
  8
0
  6
CONTINUOUS
 10
3.973476
 20
0.403461
 30
0.0
 70
    64
  0
VERTEX
  8
0
  6
CONTINUOUS
 10
3.987196
 20
0.403461
 30
0.0
 70
    64
  0
VERTEX
  8
0
  6
CONTINUOUS
 10
4.000916
 20
0.403461
 30
0.0
 70
    64
  0
VERTEX
  8
0
  6
CONTINUOUS
 10
4.014636
 20
0.403461
 30
0.0
 70
    64
  0
VERTEX
  8
0
  6
CONTINUOUS
 10
4.028356
 20
0.403461
 30
0.0
 70
    64
  0
VERTEX
  8
0
  6
CONTINUOUS
 10
4.042076
 20
0.403461
 30
0.0
 70
    64
  0
VERTEX
  8
0
  6
CONTINUOUS
 10
4.055796
 20
0.403461
 30
0.0
 70
    64
  0
VERTEX
  8
0
  6
CONTINUOUS
 10
4.069516
 20
0.403461
 30
0.0
 70
    64
  0
VERTEX
  8
0
  6
CONTINUOUS
 10
4.083236
 20
0.403461
 30
0.0
 70
    64
  0
VERTEX
  8
0
  6
CONTINUOUS
 10
4.096956
 20
0.403461
 30
0.0
 70
    64
  0
VERTEX
  8
0
  6
CONTINUOUS
 10
4.110676
 20
0.403461
 30
0.0
 70
    64
  0
VERTEX
  8
0
  6
CONTINUOUS
 10
4.124396
 20
0.403461
 30
0.0
 70
    64
  0
VERTEX
  8
0
  6
CONTINUOUS
 10
4.138116
 20
0.403461
 30
0.0
 70
    64
  0
VERTEX
  8
0
  6
CONTINUOUS
 10
4.151836
 20
0.403461
 30
0.0
 70
    64
  0
VERTEX
  8
0
  6
CONTINUOUS
 10
4.165556
 20
0.403461
 30
0.0
 70
    64
  0
VERTEX
  8
0
  6
CONTINUOUS
 10
4.179276
 20
0.403461
 30
0.0
 70
    64
  0
VERTEX
  8
0
  6
CONTINUOUS
 10
4.192996
 20
0.403461
 30
0.0
 70
    64
  0
VERTEX
  8
0
  6
CONTINUOUS
 10
4.206716
 20
0.403461
 30
0.0
 70
    64
  0
VERTEX
  8
0
  6
CONTINUOUS
 10
4.220436
 20
0.403461
 30
0.0
 70
    64
  0
VERTEX
  8
0
  6
CONTINUOUS
 10
4.234156
 20
0.403461
 30
0.0
 70
    64
  0
VERTEX
  8
0
  6
CONTINUOUS
 10
4.247876
 20
0.403461
 30
0.0
 70
    64
  0
VERTEX
  8
0
  6
CONTINUOUS
 10
4.261596
 20
0.403461
 30
0.0
 70
    64
  0
VERTEX
  8
0
  6
CONTINUOUS
 10
4.275316
 20
0.403461
 30
0.0
 70
    64
  0
VERTEX
  8
0
  6
CONTINUOUS
 10
4.289036
 20
0.403461
 30
0.0
 70
    64
  0
VERTEX
  8
0
  6
CONTINUOUS
 10
4.302756
 20
0.403461
 30
0.0
 70
    64
  0
VERTEX
  8
0
  6
CONTINUOUS
 10
4.316476
 20
0.403461
 30
0.0
 70
    64
  0
VERTEX
  8
0
  6
CONTINUOUS
 10
4.330196
 20
0.403461
 30
0.0
 70
    64
  0
VERTEX
  8
0
  6
CONTINUOUS
 10
4.343916
 20
0.403461
 30
0.0
 70
    64
  0
VERTEX
  8
0
  6
CONTINUOUS
 10
4.357636
 20
0.403461
 30
0.0
 70
    64
  0
VERTEX
  8
0
  6
CONTINUOUS
 10
4.371356
 20
0.403461
 30
0.0
 70
    64
  0
VERTEX
  8
0
  6
CONTINUOUS
 10
4.385076
 20
0.403461
 30
0.0
 70
    64
  0
VERTEX
  8
0
  6
CONTINUOUS
 10
4.398796
 20
0.403461
 30
0.0
 70
    64
  0
VERTEX
  8
0
  6
CONTINUOUS
 10
4.412516
 20
0.403461
 30
0.0
 70
    64
  0
VERTEX
  8
0
  6
CONTINUOUS
 10
4.426236
 20
0.403461
 30
0.0
 70
    64
  0
VERTEX
  8
0
  6
CONTINUOUS
 10
4.439956
 20
0.403461
 30
0.0
 70
    64
  0
VERTEX
  8
0
  6
CONTINUOUS
 10
4.453676
 20
0.403461
 30
0.0
 70
    64
  0
VERTEX
  8
0
  6
CONTINUOUS
 10
4.467396
 20
0.403461
 30
0.0
 70
    64
  0
VERTEX
  8
0
  6
CONTINUOUS
 10
4.481116
 20
0.403461
 30
0.0
 70
    64
  0
VERTEX
  8
0
  6
CONTINUOUS
 10
4.494836
 20
0.403461
 30
0.0
 70
    64
  0
VERTEX
  8
0
  6
CONTINUOUS
 10
4.508556
 20
0.403461
 30
0.0
 70
    64
  0
VERTEX
  8
0
  6
CONTINUOUS
 10
4.522276
 20
0.403461
 30
0.0
 70
    64
  0
VERTEX
  8
0
  6
CONTINUOUS
 10
4.535996
 20
0.403461
 30
0.0
 70
    64
  0
VERTEX
  8
0
  6
CONTINUOUS
 10
4.549716
 20
0.403461
 30
0.0
 70
    64
  0
VERTEX
  8
0
  6
CONTINUOUS
 10
4.563436
 20
0.403461
 30
0.0
 70
    64
  0
VERTEX
  8
0
  6
CONTINUOUS
 10
4.577156
 20
0.403461
 30
0.0
 70
    64
  0
VERTEX
  8
0
  6
CONTINUOUS
 10
4.590876
 20
0.403461
 30
0.0
 70
    64
  0
VERTEX
  8
0
  6
CONTINUOUS
 10
4.604596
 20
0.403461
 30
0.0
 70
    64
  0
VERTEX
  8
0
  6
CONTINUOUS
 10
4.618316
 20
0.403461
 30
0.0
 70
    64
  0
VERTEX
  8
0
  6
CONTINUOUS
 10
4.632036
 20
0.403461
 30
0.0
 70
    64
  0
VERTEX
  8
0
  6
CONTINUOUS
 10
4.645756
 20
0.403461
 30
0.0
 70
    64
  0
VERTEX
  8
0
  6
CONTINUOUS
 10
4.659476
 20
0.403461
 30
0.0
 70
    64
  0
VERTEX
  8
0
  6
CONTINUOUS
 10
4.673196
 20
0.403461
 30
0.0
 70
    64
  0
VERTEX
  8
0
  6
CONTINUOUS
 10
4.686916
 20
0.403461
 30
0.0
 70
    64
  0
VERTEX
  8
0
  6
CONTINUOUS
 10
4.700636
 20
0.403461
 30
0.0
 70
    64
  0
VERTEX
  8
0
  6
CONTINUOUS
 10
4.714356
 20
0.403461
 30
0.0
 70
    64
  0
VERTEX
  8
0
  6
CONTINUOUS
 10
4.728076
 20
0.403461
 30
0.0
 70
    64
  0
VERTEX
  8
0
  6
CONTINUOUS
 10
4.741796
 20
0.403461
 30
0.0
 70
    64
  0
VERTEX
  8
0
  6
CONTINUOUS
 10
4.755516
 20
0.403461
 30
0.0
 70
    64
  0
VERTEX
  8
0
  6
CONTINUOUS
 10
4.769236
 20
0.403461
 30
0.0
 70
    64
  0
VERTEX
  8
0
  6
CONTINUOUS
 10
4.782956
 20
0.403461
 30
0.0
 70
    64
  0
VERTEX
  8
0
  6
CONTINUOUS
 10
4.796676
 20
0.403461
 30
0.0
 70
    64
  0
VERTEX
  8
0
  6
CONTINUOUS
 10
4.810396
 20
0.403461
 30
0.0
 70
    64
  0
VERTEX
  8
0
  6
CONTINUOUS
 10
4.824116
 20
0.403461
 30
0.0
 70
    64
  0
VERTEX
  8
0
  6
CONTINUOUS
 10
4.837836
 20
0.403461
 30
0.0
 70
    64
  0
VERTEX
  8
0
  6
CONTINUOUS
 10
4.851556
 20
0.403461
 30
0.0
 70
    64
  0
VERTEX
  8
0
  6
CONTINUOUS
 10
4.865276
 20
0.403461
 30
0.0
 70
    64
  0
VERTEX
  8
0
  6
CONTINUOUS
 10
4.878996
 20
0.403461
 30
0.0
 70
    64
  0
VERTEX
  8
0
  6
CONTINUOUS
 10
4.892716
 20
0.403461
 30
0.0
 70
    64
  0
VERTEX
  8
0
  6
CONTINUOUS
 10
4.906436
 20
0.403461
 30
0.0
 70
    64
  0
VERTEX
  8
0
  6
CONTINUOUS
 10
4.920156
 20
0.403461
 30
0.0
 70
    64
  0
VERTEX
  8
0
  6
CONTINUOUS
 10
4.933876
 20
0.403461
 30
0.0
 70
    64
  0
VERTEX
  8
0
  6
CONTINUOUS
 10
4.947596
 20
0.403461
 30
0.0
 70
    64
  0
VERTEX
  8
0
  6
CONTINUOUS
 10
4.961316
 20
0.403461
 30
0.0
 70
    64
  0
VERTEX
  8
0
  6
CONTINUOUS
 10
4.975036
 20
0.403461
 30
0.0
 70
    64
  0
VERTEX
  8
0
  6
CONTINUOUS
 10
4.988756
 20
0.403461
 30
0.0
 70
    64
  0
VERTEX
  8
0
  6
CONTINUOUS
 10
5.002476
 20
0.403461
 30
0.0
 70
    64
  0
VERTEX
  8
0
  6
CONTINUOUS
 10
5.016196
 20
0.403461
 30
0.0
 70
    64
  0
VERTEX
  8
0
  6
CONTINUOUS
 10
5.029916
 20
0.403461
 30
0.0
 70
    64
  0
VERTEX
  8
0
  6
CONTINUOUS
 10
5.043636
 20
0.403461
 30
0.0
 70
    64
  0
VERTEX
  8
0
  6
CONTINUOUS
 10
5.057356
 20
0.403461
 30
0.0
 70
    64
  0
VERTEX
  8
0
  6
CONTINUOUS
 10
5.071076
 20
0.403461
 30
0.0
 70
    64
  0
VERTEX
  8
0
  6
CONTINUOUS
 10
5.084796
 20
0.403461
 30
0.0
 70
    64
  0
VERTEX
  8
0
  6
CONTINUOUS
 10
5.098516
 20
0.403461
 30
0.0
 70
    64
  0
VERTEX
  8
0
  6
CONTINUOUS
 10
5.112236
 20
0.403461
 30
0.0
 70
    64
  0
VERTEX
  8
0
  6
CONTINUOUS
 10
5.125956
 20
0.403461
 30
0.0
 70
    64
  0
VERTEX
  8
0
  6
CONTINUOUS
 10
5.139676
 20
0.403461
 30
0.0
 70
    64
  0
VERTEX
  8
0
  6
CONTINUOUS
 10
5.153396
 20
0.403461
 30
0.0
 70
    64
  0
VERTEX
  8
0
  6
CONTINUOUS
 10
5.167116
 20
0.403461
 30
0.0
 70
    64
  0
VERTEX
  8
0
  6
CONTINUOUS
 10
5.180836
 20
0.403461
 30
0.0
 70
    64
  0
VERTEX
  8
0
  6
CONTINUOUS
 10
5.194556
 20
0.403461
 30
0.0
 70
    64
  0
VERTEX
  8
0
  6
CONTINUOUS
 10
5.208276
 20
0.403461
 30
0.0
 70
    64
  0
VERTEX
  8
0
  6
CONTINUOUS
 10
5.221996
 20
0.403461
 30
0.0
 70
    64
  0
VERTEX
  8
0
  6
CONTINUOUS
 10
5.235716
 20
0.403461
 30
0.0
 70
    64
  0
VERTEX
  8
0
  6
CONTINUOUS
 10
5.249436
 20
0.403461
 30
0.0
 70
    64
  0
SEQEND
  8
0
  6
CONTINUOUS
  0
LINE
  8
0
  6
DASHED
 10
5.0
 20
-0.086539
 30
0.0
 11
15.0
 21
-0.086539
 31
0.0
  0
ARC
  8
0
  6
CONTINUOUS
 10
2.5
 20
-0.086539
 30
0.0
 40
2.5
 50
90.0
 51
270.0
  0
ENDBLK
  8
0
  0
BLOCK
  8
0
  2
B507
 70
    64
 10
0.0
 20
0.0
 30
0.0
  3
B507
  0
LINE
  8
0
  6
CONTINUOUS
 10
0.079622
 20
0.147754
 30
0.0
 11
0.079622
 21
-9.002074
 31
0.0
  0
INSERT
  8
0
  6
CONTINUOUS
  2
BLC29
 10
0.212369
 20
-6.641509
 30
0.0
 50
270.0
  0
ENDBLK
  8
0
  0
BLOCK
  8
0
  2
B506
 70
     0
 10
0.0
 20
0.0
 30
0.0
  3
B506
  0
INSERT
  8
BASE
  6
CONTINUOUS
  2
BLC29
 10
1.994594
 20
-0.128476
 30
0.0
 50
180.0
  0
ENDBLK
  8
0
  0
BLOCK
  8
0
  2
B1336
 70
     0
 10
0.0
 20
0.0
 30
0.0
  3
B1336
  0
LINE
  8
BASE
  6
CONTINUOUS
 10
-26.5
 20
-110.5
 30
0.0
 11
-27.5
 21
-111.5
 31
0.0
  0
LINE
  8
BASE
  6
CONTINUOUS
 10
-26.5
 20
-103.5
 30
0.0
 11
-26.5
 21
-110.5
 31
0.0
  0
LINE
  8
BASE
  6
CONTINUOUS
 10
-26.5
 20
-103.5
 30
0.0
 11
-27.5
 21
-102.5
 31
0.0
  0
LINE
  8
BASE
  6
DASHED
 10
-32.5
 20
-110.0
 30
0.0
 11
-28.233529
 21
-110.0
 31
0.0
  0
LINE
  8
BASE
  6
DASHED
 10
-32.5
 20
-105.0
 30
0.0
 11
-28.233529
 21
-105.0
 31
0.0
  0
LINE
  8
BASE
  6
DASHED
 10
-26.5
 20
-105.0
 30
0.0
 11
-15.0
 21
-105.0
 31
0.0
  0
LINE
  8
BASE
  6
DASHED
 10
-32.5
 20
-115.0
 30
0.0
 11
0.0
 21
-115.0
 31
0.0
  0
TEXT
  8
BASE
  6
HIDDEN
 10
-25.18515
 20
-103.88097
 30
0.0
 40
2.0
  1
1)
  7
ROMANS
  0
TEXT
  8
BASE
  6
HIDDEN
 10
-25.18515
 20
-163.88097
 30
0.0
 40
2.0
  1
1)
  7
ROMANS
  0
TEXT
  8
BASE
  6
HIDDEN
 10
-25.18515
 20
-143.88097
 30
0.0
 40
2.0
  1
1)
  7
ROMANS
  0
TEXT
  8
BASE
  6
HIDDEN
 10
-25.18515
 20
-123.88097
 30
0.0
 40
2.0
  1
1)
  7
ROMANS
  0
LINE
  8
BASE
  6
DASHED
 10
-26.5
 20
-165.0
 30
0.0
 11
-15.0
 21
-165.0
 31
0.0
  0
LINE
  8
BASE
  6
CONTINUOUS
 10
-26.5
 20
-123.5
 30
0.0
 11
-26.5
 21
-130.5
 31
0.0
  0
LINE
  8
BASE
  6
CONTINUOUS
 10
-26.5
 20
-130.5
 30
0.0
 11
-27.5
 21
-131.5
 31
0.0
  0
LINE
  8
BASE
  6
CONTINUOUS
 10
-26.5
 20
-123.5
 30
0.0
 11
-27.5
 21
-122.5
 31
0.0
  0
LINE
  8
BASE
  6
CONTINUOUS
 10
-26.5
 20
-143.5
 30
0.0
 11
-27.5
 21
-142.5
 31
0.0
  0
LINE
  8
BASE
  6
CONTINUOUS
 10
-26.5
 20
-143.5
 30
0.0
 11
-26.5
 21
-150.5
 31
0.0
  0
LINE
  8
BASE
  6
CONTINUOUS
 10
-26.5
 20
-150.5
 30
0.0
 11
-27.5
 21
-151.5
 31
0.0
  0
LINE
  8
BASE
  6
CONTINUOUS
 10
-26.5
 20
-170.5
 30
0.0
 11
-27.5
 21
-171.5
 31
0.0
  0
LINE
  8
BASE
  6
CONTINUOUS
 10
-26.5
 20
-163.5
 30
0.0
 11
-26.5
 21
-170.5
 31
0.0
  0
LINE
  8
BASE
  6
CONTINUOUS
 10
-26.5
 20
-163.5
 30
0.0
 11
-27.5
 21
-162.5
 31
0.0
  0
LINE
  8
BASE
  6
DASHED
 10
-32.5
 20
-175.0
 30
0.0
 11
0.0
 21
-175.0
 31
0.0
  0
LINE
  8
BASE
  6
DASHED
 10
-32.5
 20
-170.0
 30
0.0
 11
-28.233529
 21
-170.0
 31
0.0
  0
LINE
  8
BASE
  6
DASHED
 10
-32.5
 20
-165.0
 30
0.0
 11
-28.233529
 21
-165.0
 31
0.0
  0
LINE
  8
BASE
  6
DASHED
 10
-32.5
 20
-155.0
 30
0.0
 11
0.0
 21
-155.0
 31
0.0
  0
LINE
  8
BASE
  6
DASHED
 10
-32.5
 20
-150.0
 30
0.0
 11
-28.233529
 21
-150.0
 31
0.0
  0
LINE
  8
BASE
  6
DASHED
 10
-32.5
 20
-145.0
 30
0.0
 11
-28.233529
 21
-145.0
 31
0.0
  0
LINE
  8
BASE
  6
DASHED
 10
-32.5
 20
-135.0
 30
0.0
 11
0.0
 21
-135.0
 31
0.0
  0
LINE
  8
BASE
  6
DASHED
 10
-32.5
 20
-130.0
 30
0.0
 11
-28.233529
 21
-130.0
 31
0.0
  0
LINE
  8
BASE
  6
DASHED
 10
-32.5
 20
-125.0
 30
0.0
 11
-28.233529
 21
-125.0
 31
0.0
  0
TEXT
  8
BASE
  6
HIDDEN
 10
-20.708566
 20
-123.380499
 30
0.0
 40
2.0
  1
U1
  7
ROMANS
  0
TEXT
  8
BASE
  6
CONTINUOUS
 10
-25.723646
 20
-83.880245
 30
0.0
 40
2.0
  1
1)
  7
ROMANS
  0
TEXT
  8
BASE
  6
CONTINUOUS
 10
-25.723646
 20
-63.880245
 30
0.0
 40
2.0
  1
1)
  7
ROMANS
  0
TEXT
  8
BASE
  6
CONTINUOUS
 10
-25.723646
 20
-43.880245
 30
0.0
 40
2.0
  1
1)
  7
ROMANS
  0
TEXT
  8
BASE
  6
CONTINUOUS
 10
-25.723646
 20
-23.880245
 30
0.0
 40
2.0
  1
1)
  7
ROMANS
  0
TEXT
  8
BASE
  6
CONTINUOUS
 10
-24.365116
 20
-57.687464
 30
0.0
 40
2.0
  1
SI
  7
ROMANS
  0
TEXT
  8
BASE
  6
CONTINUOUS
 10
-24.365116
 20
-47.531619
 30
0.0
 40
2.0
  1
SI
  7
ROMANS
  0
TEXT
  8
BASE
  6
CONTINUOUS
 10
-24.326283
 20
-97.731978
 30
0.0
 40
2.0
  1
NI
  7
ROMANS
  0
TEXT
  8
BASE
  6
CONTINUOUS
 10
-17.764709
 20
-97.870666
 30
0.0
 40
2.0
  1
20B
  7
ROMANS
  0
TEXT
  8
BASE
  6
CONTINUOUS
 10
-17.764709
 20
-88.940088
 30
0.0
 40
2.0
  1
19B
  7
ROMANS
  0
CIRCLE
  8
BASE
  6
CONTINUOUS
 10
-9.050449
 20
-90.028782
 30
0.0
 40
1.0
  0
LINE
  8
BASE
 10
-10.050448
 20
-90.030442
 30
0.0
 11
-15.8
 21
-93.5
 31
0.0
  0
LINE
  8
BASE
 10
-15.0
 20
-95.0
 30
0.0
 11
-15.0
 21
-92.1
 31
0.0
  0
LINE
  8
BASE
 10
-17.5
 20
-95.0
 30
0.0
 11
-15.0
 21
-95.0
 31
0.0
  0
LINE
  8
BASE
 10
-16.11905
 20
-93.055575
 30
0.0
 11
-15.439687
 21
-93.991319
 31
0.0
  0
CIRCLE
  8
BASE
  6
CONTINUOUS
 10
-9.050449
 20
-80.028782
 30
0.0
 40
1.0
  0
LINE
  8
BASE
 10
-15.0
 20
-85.0
 30
0.0
 11
-15.0
 21
-82.1
 31
0.0
  0
LINE
  8
BASE
 10
-10.050448
 20
-80.030442
 30
0.0
 11
-15.8
 21
-83.5
 31
0.0
  0
LINE
  8
BASE
 10
-17.5
 20
-85.0
 30
0.0
 11
-15.0
 21
-85.0
 31
0.0
  0
LINE
  8
BASE
 10
-16.11905
 20
-83.055575
 30
0.0
 11
-15.439687
 21
-83.991319
 31
0.0
  0
LINE
  8
BASE
 10
-17.5
 20
-80.0
 30
0.0
 11
-15.0
 21
-80.0
 31
0.0
  0
LINE
  8
BASE
 10
-20.0
 20
-80.00155
 30
0.0
 11
-17.5
 21
-80.00155
 31
0.0
  0
LINE
  8
BASE
 10
-17.5
 20
-90.00155
 30
0.0
 11
-20.0
 21
-90.00155
 31
0.0
  0
LINE
  8
BASE
 10
-17.5
 20
-90.001549
 30
0.0
 11
-15.0
 21
-90.001549
 31
0.0
  0
LINE
  8
BASE
 10
-20.0
 20
-90.00155
 30
0.0
 11
-20.0
 21
-80.00155
 31
0.0
  0
LINE
  8
BASE
 10
-22.5
 20
-85.0
 30
0.0
 11
-17.5
 21
-85.0
 31
0.0
  0
LINE
  8
BASE
  6
CONTINUOUS
 10
-22.5
 20
-85.0
 30
0.0
 11
-26.5
 21
-85.0
 31
0.0
  0
TEXT
  8
BASE
  6
CONTINUOUS
 10
-24.326283
 20
-87.731978
 30
0.0
 40
2.0
  1
NI
  7
ROMANS
  0
LINE
  8
BASE
  6
CONTINUOUS
 10
-26.5
 20
-90.5
 30
0.0
 11
-27.5
 21
-91.5
 31
0.0
  0
LINE
  8
BASE
  6
CONTINUOUS
 10
-26.5
 20
-83.5
 30
0.0
 11
-26.5
 21
-90.5
 31
0.0
  0
LINE
  8
BASE
  6
CONTINUOUS
 10
-26.5
 20
-83.5
 30
0.0
 11
-27.5
 21
-82.5
 31
0.0
  0
TEXT
  8
BASE
  6
CONTINUOUS
 10
-19.612617
 20
-15.913291
 30
0.0
 40
2.0
  1
101
  7
ROMANS
  0
TEXT
  8
BASE
  6
CONTINUOUS
 10
-24.326283
 20
-37.635823
 30
0.0
 40
2.0
  1
RI
  7
ROMANS
  0
TEXT
  8
BASE
  6
CONTINUOUS
 10
-24.326283
 20
-67.744992
 30
0.0
 40
2.0
  1
TI
  7
ROMANS
  0
TEXT
  8
BASE
  6
CONTINUOUS
 10
-24.326283
 20
-77.926075
 30
0.0
 40
2.0
  1
TI
  7
ROMANS
  0
TEXT
  8
BASE
  6
CONTINUOUS
 10
-24.326283
 20
-27.784001
 30
0.0
 40
2.0
  1
RI
  7
ROMANS
  0
LINE
  8
BASE
  6
CONTINUOUS
 10
-26.5
 20
-63.5
 30
0.0
 11
-27.5
 21
-62.5
 31
0.0
  0
LINE
  8
BASE
  6
CONTINUOUS
 10
-26.5
 20
-63.5
 30
0.0
 11
-26.5
 21
-70.5
 31
0.0
  0
LINE
  8
BASE
  6
CONTINUOUS
 10
-26.5
 20
-70.5
 30
0.0
 11
-27.5
 21
-71.5
 31
0.0
  0
TEXT
  8
BASE
  6
DASHED
 10
-17.782183
 20
-78.113746
 30
0.0
 40
2.0
  1
18B
  7
ROMANS
 11
-17.782183
 21
-78.780413
 31
0.0
 73
     1
  0
TEXT
  8
BASE
  6
DASHED
 10
-17.961637
 20
-68.091225
 30
0.0
 40
2.0
  1
17B
  7
ROMANS
 11
-17.961637
 21
-68.757892
 31
0.0
 73
     1
  0
TEXT
  8
BASE
  6
DASHED
 10
-17.961637
 20
-58.068703
 30
0.0
 40
2.0
  1
16B
  7
ROMANS
 11
-17.961637
 21
-58.73537
 31
0.0
 73
     1
  0
TEXT
  8
BASE
  6
DASHED
 10
-17.961637
 20
-48.228142
 30
0.0
 40
2.0
  1
15B
  7
ROMANS
 11
-17.961637
 21
-48.894808
 31
0.0
 73
     1
  0
TEXT
  8
BASE
  6
DASHED
 10
-17.961637
 20
-38.214285
 30
0.0
 40
2.0
  1
14B
  7
ROMANS
 11
-17.961637
 21
-38.880951
 31
0.0
 73
     1
  0
TEXT
  8
BASE
  6
DASHED
 10
-17.961637
 20
-28.365058
 30
0.0
 40
2.0
  1
13B
  7
ROMANS
 11
-17.961637
 21
-29.031725
 31
0.0
 73
     1
  0
LINE
  8
BASE
  6
CONTINUOUS
 10
-22.5
 20
-45.0
 30
0.0
 11
-26.5
 21
-45.0
 31
0.0
  0
LINE
  8
BASE
  6
CONTINUOUS
 10
-22.5
 20
-65.0
 30
0.0
 11
-26.5
 21
-65.0
 31
0.0
  0
LINE
  8
BASE
  6
CONTINUOUS
 10
-26.5
 20
-50.5
 30
0.0
 11
-27.5
 21
-51.5
 31
0.0
  0
LINE
  8
BASE
  6
CONTINUOUS
 10
-26.5
 20
-43.5
 30
0.0
 11
-26.5
 21
-50.5
 31
0.0
  0
LINE
  8
BASE
  6
CONTINUOUS
 10
-26.5
 20
-43.5
 30
0.0
 11
-27.5
 21
-42.5
 31
0.0
  0
LINE
  8
BASE
  6
CONTINUOUS
 10
-26.5
 20
-23.5
 30
0.0
 11
-27.5
 21
-22.5
 31
0.0
  0
LINE
  8
BASE
  6
CONTINUOUS
 10
-26.5
 20
-30.5
 30
0.0
 11
-27.5
 21
-31.5
 31
0.0
  0
LINE
  8
BASE
  6
CONTINUOUS
 10
-26.5
 20
-23.5
 30
0.0
 11
-26.5
 21
-30.5
 31
0.0
  0
LINE
  8
BASE
 10
-16.11905
 20
-73.055575
 30
0.0
 11
-15.439687
 21
-73.991319
 31
0.0
  0
LINE
  8
BASE
 10
-17.5
 20
-75.0
 30
0.0
 11
-15.0
 21
-75.0
 31
0.0
  0
CIRCLE
  8
BASE
  6
CONTINUOUS
 10
-9.050449
 20
-70.028782
 30
0.0
 40
1.0
  0
LINE
  8
BASE
 10
-15.0
 20
-75.0
 30
0.0
 11
-15.0
 21
-72.1
 31
0.0
  0
LINE
  8
BASE
 10
-10.050448
 20
-70.030442
 30
0.0
 11
-15.8
 21
-73.5
 31
0.0
  0
CIRCLE
  8
BASE
  6
CONTINUOUS
 10
-9.050449
 20
-60.028782
 30
0.0
 40
1.0
  0
LINE
  8
BASE
 10
-17.5
 20
-70.001549
 30
0.0
 11
-15.0
 21
-70.001549
 31
0.0
  0
LINE
  8
BASE
 10
-17.5
 20
-70.00155
 30
0.0
 11
-20.0
 21
-70.00155
 31
0.0
  0
LINE
  8
BASE
 10
-20.0
 20
-70.00155
 30
0.0
 11
-20.0
 21
-60.00155
 31
0.0
  0
LINE
  8
BASE
 10
-10.050448
 20
-60.030442
 30
0.0
 11
-15.8
 21
-63.5
 31
0.0
  0
LINE
  8
BASE
 10
-16.11905
 20
-63.055575
 30
0.0
 11
-15.439687
 21
-63.991319
 31
0.0
  0
LINE
  8
BASE
 10
-15.0
 20
-65.0
 30
0.0
 11
-15.0
 21
-62.1
 31
0.0
  0
LINE
  8
BASE
 10
-17.5
 20
-65.0
 30
0.0
 11
-15.0
 21
-65.0
 31
0.0
  0
LINE
  8
BASE
 10
-22.5
 20
-65.0
 30
0.0
 11
-17.5
 21
-65.0
 31
0.0
  0
LINE
  8
BASE
 10
-20.0
 20
-60.00155
 30
0.0
 11
-17.5
 21
-60.00155
 31
0.0
  0
LINE
  8
BASE
 10
-17.5
 20
-60.0
 30
0.0
 11
-15.0
 21
-60.0
 31
0.0
  0
CIRCLE
  8
BASE
  6
CONTINUOUS
 10
-9.050449
 20
-50.028782
 30
0.0
 40
1.0
  0
LINE
  8
BASE
 10
-17.5
 20
-55.0
 30
0.0
 11
-15.0
 21
-55.0
 31
0.0
  0
LINE
  8
BASE
 10
-15.0
 20
-55.0
 30
0.0
 11
-15.0
 21
-52.1
 31
0.0
  0
LINE
  8
BASE
 10
-10.050448
 20
-50.030442
 30
0.0
 11
-15.8
 21
-53.5
 31
0.0
  0
LINE
  8
BASE
 10
-16.11905
 20
-53.055575
 30
0.0
 11
-15.439687
 21
-53.991319
 31
0.0
  0
LINE
  8
BASE
 10
-17.5
 20
-50.0
 30
0.0
 11
-15.0
 21
-50.0
 31
0.0
  0
LINE
  8
BASE
 10
-17.5
 20
-50.00155
 30
0.0
 11
-20.0
 21
-50.00155
 31
0.0
  0
LINE
  8
BASE
 10
-20.0
 20
-50.00155
 30
0.0
 11
-20.0
 21
-40.00155
 31
0.0
  0
CIRCLE
  8
BASE
  6
CONTINUOUS
 10
-9.050449
 20
-40.028782
 30
0.0
 40
1.0
  0
LINE
  8
BASE
 10
-17.5
 20
-40.0
 30
0.0
 11
-15.0
 21
-40.0
 31
0.0
  0
LINE
  8
BASE
 10
-20.0
 20
-40.00155
 30
0.0
 11
-17.5
 21
-40.00155
 31
0.0
  0
LINE
  8
BASE
 10
-22.5
 20
-45.0
 30
0.0
 11
-17.5
 21
-45.0
 31
0.0
  0
LINE
  8
BASE
 10
-17.5
 20
-45.0
 30
0.0
 11
-15.0
 21
-45.0
 31
0.0
  0
LINE
  8
BASE
 10
-15.0
 20
-45.0
 30
0.0
 11
-15.0
 21
-42.1
 31
0.0
  0
LINE
  8
BASE
 10
-16.11905
 20
-43.055575
 30
0.0
 11
-15.439687
 21
-43.991319
 31
0.0
  0
LINE
  8
BASE
 10
-10.050448
 20
-40.030442
 30
0.0
 11
-15.8
 21
-43.5
 31
0.0
  0
CIRCLE
  8
BASE
  6
CONTINUOUS
 10
-9.050449
 20
-30.028782
 30
0.0
 40
1.0
  0
LINE
  8
BASE
 10
-15.0
 20
-35.0
 30
0.0
 11
-15.0
 21
-32.1
 31
0.0
  0
LINE
  8
BASE
 10
-17.5
 20
-35.0
 30
0.0
 11
-15.0
 21
-35.0
 31
0.0
  0
LINE
  8
BASE
 10
-16.11905
 20
-33.055575
 30
0.0
 11
-15.439687
 21
-33.991319
 31
0.0
  0
LINE
  8
BASE
 10
-10.050448
 20
-30.030442
 30
0.0
 11
-15.8
 21
-33.5
 31
0.0
  0
LINE
  8
BASE
  6
CONTINUOUS
 10
-22.5
 20
-25.0
 30
0.0
 11
-26.5
 21
-25.0
 31
0.0
  0
LINE
  8
BASE
 10
-17.5
 20
-30.0
 30
0.0
 11
-15.0
 21
-30.0
 31
0.0
  0
LINE
  8
BASE
 10
-17.5
 20
-30.00155
 30
0.0
 11
-20.0
 21
-30.00155
 31
0.0
  0
LINE
  8
BASE
 10
-10.050448
 20
-20.030442
 30
0.0
 11
-15.8
 21
-23.5
 31
0.0
  0
LINE
  8
BASE
 10
-16.11905
 20
-23.055575
 30
0.0
 11
-15.439687
 21
-23.991319
 31
0.0
  0
LINE
  8
BASE
 10
-15.0
 20
-25.0
 30
0.0
 11
-15.0
 21
-22.1
 31
0.0
  0
LINE
  8
BASE
 10
-17.5
 20
-25.0
 30
0.0
 11
-15.0
 21
-25.0
 31
0.0
  0
LINE
  8
BASE
 10
-22.5
 20
-25.0
 30
0.0
 11
-17.5
 21
-25.0
 31
0.0
  0
LINE
  8
BASE
 10
-20.0
 20
-20.00155
 30
0.0
 11
-17.5
 21
-20.00155
 31
0.0
  0
LINE
  8
BASE
 10
-17.5
 20
-20.0
 30
0.0
 11
-15.0
 21
-20.0
 31
0.0
  0
LINE
  8
BASE
 10
-20.0
 20
-30.00155
 30
0.0
 11
-20.0
 21
-20.00155
 31
0.0
  0
CIRCLE
  8
BASE
  6
CONTINUOUS
 10
-9.050449
 20
-20.028782
 30
0.0
 40
1.0
  0
LINE
  8
BASE
  6
CONTINUOUS
 10
-17.5
 20
-95.0
 30
0.0
 11
-32.5
 21
-95.0
 31
0.0
  0
LINE
  8
BASE
  6
CONTINUOUS
 10
-32.5
 20
-90.0
 30
0.0
 11
-28.233529
 21
-90.0
 31
0.0
  0
LINE
  8
BASE
  6
CONTINUOUS
 10
-32.5
 20
-85.0
 30
0.0
 11
-28.233529
 21
-85.0
 31
0.0
  0
LINE
  8
BASE
  6
CONTINUOUS
 10
-17.5
 20
-75.0
 30
0.0
 11
-32.5
 21
-75.0
 31
0.0
  0
LINE
  8
BASE
  6
CONTINUOUS
 10
-32.5
 20
-70.0
 30
0.0
 11
-28.233529
 21
-70.0
 31
0.0
  0
LINE
  8
BASE
  6
CONTINUOUS
 10
-32.5
 20
-65.0
 30
0.0
 11
-28.233529
 21
-65.0
 31
0.0
  0
LINE
  8
BASE
  6
CONTINUOUS
 10
-17.5
 20
-55.0
 30
0.0
 11
-32.5
 21
-55.0
 31
0.0
  0
LINE
  8
BASE
  6
CONTINUOUS
 10
-32.5
 20
-50.0
 30
0.0
 11
-28.233529
 21
-50.0
 31
0.0
  0
LINE
  8
BASE
  6
CONTINUOUS
 10
-32.5
 20
-45.0
 30
0.0
 11
-28.233529
 21
-45.0
 31
0.0
  0
LINE
  8
BASE
  6
CONTINUOUS
 10
-32.5
 20
-35.0
 30
0.0
 11
-17.5
 21
-35.0
 31
0.0
  0
LINE
  8
BASE
  6
CONTINUOUS
 10
-32.5
 20
-30.0
 30
0.0
 11
-28.233529
 21
-30.0
 31
0.0
  0
LINE
  8
BASE
  6
CONTINUOUS
 10
-32.5
 20
-25.0
 30
0.0
 11
-28.233529
 21
-25.0
 31
0.0
  0
TEXT
  8
BASE
  6
DASHED
 10
-6.81957
 20
-22.734467
 30
0.0
 40
2.0
  1
13A
  7
ROMANS
 11
-6.81957
 21
-23.401134
 31
0.0
 73
     1
  0
LINE
  8
BASE
  6
CONTINUOUS
 10
-8.050863
 20
-20.0
 30
0.0
 11
0.0
 21
-20.0
 31
0.0
  0
LINE
  8
BASE
  6
CONTINUOUS
 10
-8.050863
 20
-30.0
 30
0.0
 11
0.0
 21
-30.0
 31
0.0
  0
TEXT
  8
BASE
  6
DASHED
 10
-6.81957
 20
-32.666667
 30
0.0
 40
2.0
  1
14A
  7
ROMANS
 11
-6.81957
 21
-33.333333
 31
0.0
 73
     1
  0
LINE
  8
BASE
  6
CONTINUOUS
 10
-8.050863
 20
-40.0
 30
0.0
 11
0.0
 21
-40.0
 31
0.0
  0
TEXT
  8
BASE
  6
DASHED
 10
-6.81957
 20
-42.962785
 30
0.0
 40
2.0
  1
15A
  7
ROMANS
 11
-6.81957
 21
-43.629452
 31
0.0
 73
     1
  0
TEXT
  8
BASE
  6
DASHED
 10
-6.81957
 20
-52.713025
 30
0.0
 40
2.0
  1
16A
  7
ROMANS
 11
-6.81957
 21
-53.379691
 31
0.0
 73
     1
  0
LINE
  8
BASE
  6
CONTINUOUS
 10
-8.050863
 20
-50.0
 30
0.0
 11
0.0
 21
-50.0
 31
0.0
  0
LINE
  8
BASE
  6
CONTINUOUS
 10
-8.050863
 20
-60.0
 30
0.0
 11
0.0
 21
-60.0
 31
0.0
  0
TEXT
  8
BASE
  6
DASHED
 10
-6.81957
 20
-62.666667
 30
0.0
 40
2.0
  1
17A
  7
ROMANS
 11
-6.81957
 21
-63.333333
 31
0.0
 73
     1
  0
LINE
  8
BASE
  6
CONTINUOUS
 10
-8.050863
 20
-70.0
 30
0.0
 11
0.0
 21
-70.0
 31
0.0
  0
TEXT
  8
BASE
  6
DASHED
 10
-6.81957
 20
-72.954121
 30
0.0
 40
2.0
  1
18A
  7
ROMANS
 11
-6.81957
 21
-73.620787
 31
0.0
 73
     1
  0
LINE
  8
BASE
  6
CONTINUOUS
 10
-8.050863
 20
-80.0
 30
0.0
 11
0.0
 21
-80.0
 31
0.0
  0
TEXT
  8
BASE
  6
CONTINUOUS
 10
-6.81957
 20
-82.948605
 30
0.0
 40
2.0
  1
19A
  7
ROMANS
  0
LINE
  8
BASE
  6
CONTINUOUS
 10
-8.050863
 20
-90.0
 30
0.0
 11
0.0
 21
-90.0
 31
0.0
  0
TEXT
  8
BASE
  6
CONTINUOUS
 10
-7.645559
 20
-92.74244
 30
0.0
 40
2.0
  1
20A
  7
ROMANS
  0
LINE
  8
BASE
  6
CENTER
 10
0.0
 20
-35.0
 30
0.0
 11
0.0
 21
-57.5
 31
0.0
  0
LINE
  8
BASE
  6
CENTER
 10
0.0
 20
-35.0
 30
0.0
 11
0.0
 21
0.0
 31
0.0
  0
TEXT
  8
BASE
  6
DASHED
 10
-7.115313
 20
-108.481615
 30
0.0
 40
2.0
  1
24A
  7
ROMANS
  0
TEXT
  8
BASE
  6
DASHED
 10
-18.302077
 20
-108.602839
 30
0.0
 40
2.0
  1
24B
  7
ROMANS
  0
LINE
  8
BASE
  6
CONTINUOUS
 10
-8.981965
 20
-105.006589
 30
0.0
 11
-15.662841
 21
-102.565196
 31
0.0
  0
LINE
  8
BASE
  6
CONTINUOUS
 10
-15.0
 20
-105.0
 30
0.0
 11
-15.0
 21
-102.234339
 31
0.0
  0
LINE
  8
BASE
  6
CONTINUOUS
 10
-15.662841
 20
-102.565196
 30
0.0
 11
-16.107734
 21
-103.450894
 31
0.0
  0
LINE
  8
BASE
  6
CONTINUOUS
 10
-7.500117
 20
-105.0
 30
0.0
 11
0.0
 21
-105.0
 31
0.0
  0
LINE
  8
BASE
  6
CONTINUOUS
 10
-15.0
 20
-125.0
 30
0.0
 11
-15.0
 21
-122.234339
 31
0.0
  0
LINE
  8
BASE
  6
CONTINUOUS
 10
-15.662841
 20
-122.565196
 30
0.0
 11
-16.107734
 21
-123.450894
 31
0.0
  0
LINE
  8
BASE
  6
CONTINUOUS
 10
-8.981965
 20
-125.006589
 30
0.0
 11
-15.662841
 21
-122.565196
 31
0.0
  0
LINE
  8
BASE
  6
CONTINUOUS
 10
-7.500117
 20
-125.0
 30
0.0
 11
0.0
 21
-125.0
 31
0.0
  0
TEXT
  8
BASE
  6
DASHED
 10
-7.474438
 20
-128.481615
 30
0.0
 40
2.0
  1
21A
  7
ROMANS
  0
TEXT
  8
BASE
  6
DASHED
 10
-20.660336
 20
-128.602839
 30
0.0
 40
2.0
  1
21B
  7
ROMANS
  0
LINE
  8
BASE
  6
DASHED
 10
-26.5
 20
-125.0
 30
0.0
 11
-15.0
 21
-125.0
 31
0.0
  0
LINE
  8
BASE
  6
CONTINUOUS
 10
-7.500117
 20
-145.0
 30
0.0
 11
0.0
 21
-145.0
 31
0.0
  0
TEXT
  8
BASE
  6
DASHED
 10
-7.474438
 20
-148.481615
 30
0.0
 40
2.0
  1
22A
  7
ROMANS
  0
LINE
  8
BASE
  6
CONTINUOUS
 10
-8.981965
 20
-145.006589
 30
0.0
 11
-15.662841
 21
-142.565196
 31
0.0
  0
LINE
  8
BASE
  6
CONTINUOUS
 10
-15.0
 20
-145.0
 30
0.0
 11
-15.0
 21
-142.234339
 31
0.0
  0
LINE
  8
BASE
  6
CONTINUOUS
 10
-15.662841
 20
-142.565196
 30
0.0
 11
-16.107734
 21
-143.450894
 31
0.0
  0
LINE
  8
BASE
  6
DASHED
 10
-26.5
 20
-145.0
 30
0.0
 11
-15.0
 21
-145.0
 31
0.0
  0
TEXT
  8
BASE
  6
DASHED
 10
-20.660336
 20
-148.602839
 30
0.0
 40
2.0
  1
22B
  7
ROMANS
  0
LINE
  8
BASE
  6
CONTINUOUS
 10
-15.0
 20
-165.0
 30
0.0
 11
-15.0
 21
-162.234339
 31
0.0
  0
LINE
  8
BASE
  6
CONTINUOUS
 10
-15.662841
 20
-162.565196
 30
0.0
 11
-16.107734
 21
-163.450894
 31
0.0
  0
LINE
  8
BASE
  6
CONTINUOUS
 10
-8.981965
 20
-165.006589
 30
0.0
 11
-15.662841
 21
-162.565196
 31
0.0
  0
LINE
  8
BASE
  6
CONTINUOUS
 10
-7.500117
 20
-165.0
 30
0.0
 11
0.0
 21
-165.0
 31
0.0
  0
TEXT
  8
BASE
  6
DASHED
 10
-20.660336
 20
-168.907961
 30
0.0
 40
2.0
  1
23B
  7
ROMANS
  0
TEXT
  8
BASE
  6
DASHED
 10
-7.474438
 20
-168.786737
 30
0.0
 40
2.0
  1
23A
  7
ROMANS
  0
TEXT
  8
BASE
  6
CONTINUOUS
 10
-24.326283
 20
-108.04577
 30
0.0
 40
2.0
  1
NU
  7
ROMANS
  0
TEXT
  8
BASE
  6
CONTINUOUS
 10
-24.326283
 20
-118.04577
 30
0.0
 40
2.0
  1
NU
  7
ROMANS
  0
TEXT
  8
BASE
  6
HIDDEN
 10
-20.708566
 20
-143.139412
 30
0.0
 40
2.0
  1
U2
  7
ROMANS
  0
TEXT
  8
BASE
  6
HIDDEN
 10
-20.708566
 20
-163.453204
 30
0.0
 40
2.0
  1
U3
  7
ROMANS
  0
CIRCLE
  8
BASE
  6
CONTINUOUS
 10
-8.241055
 20
-105.0
 30
0.0
 40
0.740939
  0
CIRCLE
  8
BASE
  6
CONTINUOUS
 10
-8.241055
 20
-125.0
 30
0.0
 40
0.740939
  0
CIRCLE
  8
BASE
  6
CONTINUOUS
 10
-8.241055
 20
-145.0
 30
0.0
 40
0.740939
  0
CIRCLE
  8
BASE
  6
CONTINUOUS
 10
-8.241055
 20
-165.0
 30
0.0
 40
0.740939
  0
LINE
  8
BASE1
  6
CENTER
 10
-32.5
 20
-32.5
 30
0.0
 11
-32.5
 21
-7.5
 31
0.0
  0
LINE
  8
BASE1
  6
CENTER
 10
-32.5
 20
-32.5
 30
0.0
 11
-32.5
 21
-55.0
 31
0.0
  0
LINE
  8
BASE1
  6
CENTER
 10
-32.5
 20
-55.0
 30
0.0
 11
-32.5
 21
-162.5
 31
0.0
  0
ENDBLK
  8
0
  0
BLOCK
  8
0
  2
B1335
 70
     0
 10
0.0
 20
0.0
 30
0.0
  3
B1335
  0
TEXT
  8
0
  6
CONTINUOUS
 10
-41.745973
 20
-130.892304
 30
0.0
 40
2.0
  1
5a)
  7
ROMANS
  0
TEXT
  8
0
  6
CONTINUOUS
 10
-41.745973
 20
-148.111305
 30
0.0
 40
2.0
  1
5b)
  7
ROMANS
  0
TEXT
  8
0
  6
CONTINUOUS
 10
-41.745973
 20
-171.380491
 30
0.0
 40
2.0
  1
5c)
  7
ROMANS
  0
LINE
  8
0
  6
CONTINUOUS
 10
-34.665049
 20
-142.5
 30
0.0
 11
-34.665049
 21
-152.500345
 31
0.0
  0
LINE
  8
0
  6
CONTINUOUS
 10
-34.665049
 20
-142.5
 30
0.0
 11
-33.665049
 21
-141.5
 31
0.0
  0
LINE
  8
0
  6
CONTINUOUS
 10
-34.665049
 20
-152.500345
 30
0.0
 11
-33.665049
 21
-153.500345
 31
0.0
  0
TEXT
  8
0
  6
CONTINUOUS
 10
-39.327648
 20
-123.410156
 30
0.0
 40
2.0
  1
4)
  7
ROMANS
  0
LINE
  8
BASE
  6
DASHED
 10
0.0
 20
-37.5
 30
0.0
 11
-22.5
 21
-37.5
 31
0.0
  0
LINE
  8
BASE
  6
DASHED
 10
0.0
 20
-42.5
 30
0.0
 11
-22.5
 21
-42.5
 31
0.0
  0
INSERT
  8
0
  6
DASHED
  2
BLC43
 10
-30.135786
 20
-30.0
 30
0.0
  0
INSERT
  8
0
  6
DASHED
  2
BLC43
 10
-30.135786
 20
-37.5
 30
0.0
  0
INSERT
  8
0
  6
DASHED
  2
BLC42
 10
-30.135786
 20
-42.5
 30
0.0
  0
LINE
  8
0
  6
CONTINUOUS
 10
-35.284634
 20
-42.500345
 30
0.0
 11
-34.284634
 21
-43.500345
 31
0.0
  0
LINE
  8
0
  6
CONTINUOUS
 10
-35.284634
 20
-30.0
 30
0.0
 11
-34.284634
 21
-29.0
 31
0.0
  0
LINE
  8
0
  6
CONTINUOUS
 10
-35.284634
 20
-30.0
 30
0.0
 11
-35.284634
 21
-42.500345
 31
0.0
  0
LINE
  8
0
  6
CONTINUOUS
 10
-34.665049
 20
-157.5
 30
0.0
 11
-33.665049
 21
-156.5
 31
0.0
  0
LINE
  8
0
  6
CONTINUOUS
 10
-34.665049
 20
-182.500345
 30
0.0
 11
-33.665049
 21
-183.500345
 31
0.0
  0
LINE
  8
0
  6
CONTINUOUS
 10
-34.665049
 20
-157.5
 30
0.0
 11
-34.665049
 21
-182.500345
 31
0.0
  0
TEXT
  8
0
  6
HIDDEN
 10
-39.610338
 20
-18.604114
 30
0.0
 40
2.0
  1
2)
  7
ROMANS
  0
LINE
  8
0
  6
CONTINUOUS
 10
-34.665049
 20
-127.5
 30
0.0
 11
-33.665049
 21
-126.5
 31
0.0
  0
LINE
  8
0
  6
CONTINUOUS
 10
-34.665049
 20
-132.500345
 30
0.0
 11
-33.665049
 21
-133.500345
 31
0.0
  0
LINE
  8
0
  6
CONTINUOUS
 10
-34.665049
 20
-127.5
 30
0.0
 11
-34.665049
 21
-132.5
 31
0.0
  0
LINE
  8
0
  6
CONTINUOUS
 10
-35.284634
 20
-15.0
 30
0.0
 11
-34.284634
 21
-14.0
 31
0.0
  0
LINE
  8
0
  6
CONTINUOUS
 10
-35.284634
 20
-15.0
 30
0.0
 11
-35.284634
 21
-20.000345
 31
0.0
  0
LINE
  8
0
  6
CONTINUOUS
 10
-35.284634
 20
-20.000345
 30
0.0
 11
-34.284634
 21
-21.000345
 31
0.0
  0
LINE
  8
BASE
  6
DASHED
 10
0.0
 20
-15.0
 30
0.0
 11
-22.5
 21
-15.0
 31
0.0
  0
INSERT
  8
0
  6
DASHED
  2
BLC43
 10
-30.135786
 20
-15.0
 30
0.0
  0
INSERT
  8
0
  6
DASHED
  2
BLC42
 10
-30.135786
 20
-20.0
 30
0.0
  0
LINE
  8
BASE
  6
DASHED
 10
0.0
 20
-20.0
 30
0.0
 11
-22.5
 21
-20.0
 31
0.0
  0
TEXT
  8
0
  6
CONTINUOUS
 10
-39.625554
 20
-36.855473
 30
0.0
 40
2.0
  1
3)
  7
ROMANS
  0
LINE
  8
BASE
  6
CONTINUOUS
 10
-2.565556
 20
-33.556254
 30
0.0
 11
-3.631981
 21
-32.489829
 31
0.0
  0
LINE
  8
BASE
  6
CONTINUOUS
 10
-3.631981
 20
-32.489829
 30
0.0
 11
-2.565556
 21
-31.423405
 31
0.0
  0
LINE
  8
BASE
  6
CONTINUOUS
 10
-2.565556
 20
-31.423405
 30
0.0
 11
-1.499131
 21
-32.489829
 31
0.0
  0
LINE
  8
BASE
  6
CONTINUOUS
 10
-1.499131
 20
-32.489829
 30
0.0
 11
-2.565556
 21
-33.556254
 31
0.0
  0
LINE
  8
BASE
  6
CONTINUOUS
 10
0.0
 20
-30.0
 30
0.0
 11
-7.500117
 21
-30.0
 31
0.0
  0
TEXT
  8
BASE
  6
DASHED
 10
-8.779262
 20
-33.481615
 30
0.0
 40
2.0
  1
4B
  7
ROMANS
  0
LINE
  8
BASE
  6
CONTINUOUS
 10
-15.0
 20
-30.0
 30
0.0
 11
-22.5
 21
-30.0
 31
0.0
  0
TEXT
  8
BASE
  6
DASHED
 10
-15.0
 20
-26.597954
 30
0.0
 40
2.0
  1
101
  7
ROMANS
  0
TEXT
  8
BASE
  6
DASHED
 10
-20.660336
 20
-33.602839
 30
0.0
 40
2.0
  1
4A
  7
ROMANS
  0
INSERT
  8
BASE
  6
CONTINUOUS
  2
B37
 10
-15.0
 20
-30.0
 30
0.0
 50
90.0
  0
LINE
  8
0
  6
DASHED
 10
-22.5
 20
-42.5
 30
0.0
 11
-27.5
 21
-42.5
 31
0.0
  0
LINE
  8
0
  6
DASHED
 10
-22.5
 20
-37.5
 30
0.0
 11
-27.5
 21
-37.5
 31
0.0
  0
LINE
  8
0
  6
DASHED
 10
-22.5
 20
-30.0
 30
0.0
 11
-27.5
 21
-30.0
 31
0.0
  0
LINE
  8
0
  6
DASHED
 10
-22.5
 20
-20.0
 30
0.0
 11
-27.5
 21
-20.0
 31
0.0
  0
LINE
  8
0
  6
DASHED
 10
-22.5
 20
-15.0
 30
0.0
 11
-27.5
 21
-15.0
 31
0.0
  0
LINE
  8
BASE
  6
CONTINUOUS
 10
0.0
 20
-182.5
 30
0.0
 11
-7.500117
 21
-182.5
 31
0.0
  0
TEXT
  8
BASE
  6
DASHED
 10
-8.89897
 20
-186.831274
 30
0.0
 40
2.0
  1
5B
  7
ROMANS
  0
TEXT
  8
BASE
  6
DASHED
 10
-20.325152
 20
-186.787769
 30
0.0
 40
2.0
  1
5A
  7
ROMANS
  0
LINE
  8
BASE
  6
CONTINUOUS
 10
0.0
 20
-167.5
 30
0.0
 11
-5.0
 21
-167.5
 31
0.0
  0
LINE
  8
BASE
  6
CONTINUOUS
 10
-5.0
 20
-167.5
 30
0.0
 11
-5.0
 21
-182.5
 31
0.0
  0
TEXT
  8
BASE
  6
DASHED
 10
-8.575757
 20
-155.981615
 30
0.0
 40
2.0
  1
6B
  7
ROMANS
  0
TEXT
  8
BASE
  6
DASHED
 10
-20.660336
 20
-156.102839
 30
0.0
 40
2.0
  1
6A
  7
ROMANS
  0
LINE
  8
BASE
  6
CONTINUOUS
 10
0.0
 20
-152.5
 30
0.0
 11
-7.500117
 21
-152.5
 31
0.0
  0
LINE
  8
BASE
  6
CONTINUOUS
 10
0.0
 20
-132.5
 30
0.0
 11
-7.500117
 21
-132.5
 31
0.0
  0
LINE
  8
BASE
  6
CONTINUOUS
 10
-8.981965
 20
-152.506589
 30
0.0
 11
-15.662841
 21
-150.065196
 31
0.0
  0
LINE
  8
BASE
  6
CONTINUOUS
 10
-15.0
 20
-152.5
 30
0.0
 11
-15.0
 21
-149.734339
 31
0.0
  0
CIRCLE
  8
BASE
  6
CONTINUOUS
 10
-8.241055
 20
-152.5
 30
0.0
 40
0.740939
  0
LINE
  8
BASE
  6
CONTINUOUS
 10
-8.981965
 20
-132.506589
 30
0.0
 11
-15.662841
 21
-130.065196
 31
0.0
  0
LINE
  8
BASE
  6
CONTINUOUS
 10
-15.0
 20
-132.5
 30
0.0
 11
-15.0
 21
-129.734339
 31
0.0
  0
CIRCLE
  8
BASE
  6
CONTINUOUS
 10
-8.241055
 20
-132.5
 30
0.0
 40
0.740939
  0
LINE
  8
BASE
  6
CONTINUOUS
 10
-15.0
 20
-132.5
 30
0.0
 11
-22.5
 21
-132.5
 31
0.0
  0
LINE
  8
BASE
  6
CONTINUOUS
 10
-15.0
 20
-152.5
 30
0.0
 11
-22.5
 21
-152.5
 31
0.0
  0
LINE
  8
BASE
  6
CONTINUOUS
 10
-15.0
 20
-182.5
 30
0.0
 11
-22.5
 21
-182.5
 31
0.0
  0
TEXT
  8
BASE
  6
DASHED
 10
-20.660336
 20
-136.267569
 30
0.0
 40
2.0
  1
3A
  7
ROMANS
  0
TEXT
  8
BASE
  6
DASHED
 10
-8.423983
 20
-136.319745
 30
0.0
 40
2.0
  1
3B
  7
ROMANS
  0
LINE
  8
BASE
  6
CONTINUOUS
 10
-8.981965
 20
-122.506589
 30
0.0
 11
-15.662841
 21
-120.065196
 31
0.0
  0
LINE
  8
BASE
  6
CONTINUOUS
 10
-15.0
 20
-122.5
 30
0.0
 11
-15.0
 21
-119.734339
 31
0.0
  0
LINE
  8
BASE
  6
CONTINUOUS
 10
-15.0
 20
-122.5
 30
0.0
 11
-22.5
 21
-122.5
 31
0.0
  0
CIRCLE
  8
BASE
  6
CONTINUOUS
 10
-8.241055
 20
-122.5
 30
0.0
 40
0.740939
  0
LINE
  8
BASE
  6
CONTINUOUS
 10
0.0
 20
-122.5
 30
0.0
 11
-7.500117
 21
-122.5
 31
0.0
  0
LINE
  8
BASE
  6
CONTINUOUS
 10
-8.981965
 20
-117.506589
 30
0.0
 11
-15.662841
 21
-115.065196
 31
0.0
  0
LINE
  8
BASE
  6
CONTINUOUS
 10
-15.0
 20
-117.5
 30
0.0
 11
-15.0
 21
-114.734339
 31
0.0
  0
LINE
  8
BASE
  6
CONTINUOUS
 10
-15.0
 20
-117.5
 30
0.0
 11
-22.5
 21
-117.5
 31
0.0
  0
CIRCLE
  8
BASE
  6
CONTINUOUS
 10
-8.241055
 20
-117.5
 30
0.0
 40
0.740939
  0
LINE
  8
BASE
  6
CONTINUOUS
 10
0.0
 20
-117.5
 30
0.0
 11
-7.500117
 21
-117.5
 31
0.0
  0
LINE
  8
BASE
  6
CONTINUOUS
 10
-8.981965
 20
-105.006589
 30
0.0
 11
-15.662841
 21
-102.565196
 31
0.0
  0
LINE
  8
BASE
  6
CONTINUOUS
 10
-15.0
 20
-105.0
 30
0.0
 11
-22.5
 21
-105.0
 31
0.0
  0
LINE
  8
BASE
  6
CONTINUOUS
 10
-15.0
 20
-105.0
 30
0.0
 11
-15.0
 21
-102.234339
 31
0.0
  0
CIRCLE
  8
BASE
  6
CONTINUOUS
 10
-8.241055
 20
-105.0
 30
0.0
 40
0.740939
  0
TEXT
  8
BASE
  6
DASHED
 10
-7.921207
 20
-125.981615
 30
0.0
 40
2.0
  1
1B+
  7
ROMANS
  0
TEXT
  8
BASE
  6
DASHED
 10
-20.660336
 20
-126.102839
 30
0.0
 40
2.0
  1
1A
  7
ROMANS
  0
TEXT
  8
BASE
  6
DASHED
 10
-20.660336
 20
-120.579269
 30
0.0
 40
2.0
  1
2A
  7
ROMANS
  0
TEXT
  8
BASE
  6
DASHED
 10
-7.921207
 20
-120.458045
 30
0.0
 40
2.0
  1
2B
  7
ROMANS
  0
TEXT
  8
BASE
  6
DASHED
 10
-8.804519
 20
-108.928272
 30
0.0
 40
2.0
  1
12B-
  7
ROMANS
  0
TEXT
  8
BASE
  6
DASHED
 10
-20.660336
 20
-109.049496
 30
0.0
 40
2.0
  1
12A
  7
ROMANS
  0
LINE
  8
BASE
  6
CONTINUOUS
 10
-8.981965
 20
-182.506589
 30
0.0
 11
-15.662841
 21
-180.065196
 31
0.0
  0
LINE
  8
BASE
  6
CONTINUOUS
 10
-15.0
 20
-182.5
 30
0.0
 11
-15.0
 21
-179.734339
 31
0.0
  0
LINE
  8
BASE
  6
CONTINUOUS
 10
-15.662841
 20
-180.065196
 30
0.0
 11
-16.107734
 21
-180.950894
 31
0.0
  0
CIRCLE
  8
BASE
  6
CONTINUOUS
 10
-8.241055
 20
-182.5
 30
0.0
 40
0.740939
  0
LINE
  8
BASE
  6
CONTINUOUS
 10
-15.662841
 20
-102.565196
 30
0.0
 11
-16.107734
 21
-103.450894
 31
0.0
  0
LINE
  8
BASE
  6
CONTINUOUS
 10
-15.662841
 20
-120.065196
 30
0.0
 11
-16.107734
 21
-120.950894
 31
0.0
  0
LINE
  8
BASE
  6
CONTINUOUS
 10
-1.746804
 20
-105.0
 30
0.0
 11
-7.500117
 21
-105.0
 31
0.0
  0
CIRCLE
  8
BASE
  6
CONTINUOUS
 10
-2.097708
 20
-119.434976
 30
0.0
 40
0.615602
  0
CIRCLE
  8
BASE
  6
CONTINUOUS
 10
-2.097708
 20
-119.434976
 30
0.0
 40
1.270542
  0
POLYLINE
  8
BASE
  6
CONTINUOUS
 66
     1
 10
0.0
 20
0.0
 30
0.0
 70
     1
 40
0.5
 41
0.5
  0
VERTEX
  8
BASE
  6
CONTINUOUS
 10
-5.5
 20
-182.5
 30
0.0
 42
1.0
  0
VERTEX
  8
BASE
  6
CONTINUOUS
 10
-4.5
 20
-182.5
 30
0.0
 42
1.0
  0
SEQEND
  8
BASE
  6
CONTINUOUS
  0
LINE
  8
BASE
  6
DASHED
 10
0.0
 20
-127.5
 30
0.0
 11
-22.5
 21
-127.5
 31
0.0
  0
LINE
  8
0
  6
DASHED
 10
-22.5
 20
-117.5
 30
0.0
 11
-27.5
 21
-117.5
 31
0.0
  0
LINE
  8
BASE
  6
DASHED
 10
0.0
 20
-142.5
 30
0.0
 11
-22.5
 21
-142.5
 31
0.0
  0
LINE
  8
BASE
  6
DASHED
 10
0.0
 20
-172.5
 30
0.0
 11
-22.5
 21
-172.5
 31
0.0
  0
LINE
  8
BASE
  6
CONTINUOUS
 10
0.0
 20
-147.5
 30
0.0
 11
-2.5
 21
-147.5
 31
0.0
  0
LINE
  8
BASE
  6
CONTINUOUS
 10
0.0
 20
-162.5
 30
0.0
 11
-2.5
 21
-162.5
 31
0.0
  0
LINE
  8
BASE
  6
CONTINUOUS
 10
0.0
 20
-177.5
 30
0.0
 11
-2.5
 21
-177.5
 31
0.0
  0
LINE
  8
0
  6
DASHED
 10
-22.5
 20
-122.5
 30
0.0
 11
-27.5
 21
-122.5
 31
0.0
  0
LINE
  8
0
  6
DASHED
 10
-22.5
 20
-127.5
 30
0.0
 11
-27.5
 21
-127.5
 31
0.0
  0
LINE
  8
0
  6
DASHED
 10
-22.5
 20
-132.5
 30
0.0
 11
-27.5
 21
-132.5
 31
0.0
  0
LINE
  8
0
  6
DASHED
 10
-22.5
 20
-142.5
 30
0.0
 11
-27.5
 21
-142.5
 31
0.0
  0
LINE
  8
0
  6
DASHED
 10
-22.5
 20
-152.5
 30
0.0
 11
-27.5
 21
-152.5
 31
0.0
  0
LINE
  8
0
  6
DASHED
 10
-22.5
 20
-157.5
 30
0.0
 11
-27.5
 21
-157.5
 31
0.0
  0
LINE
  8
0
  6
DASHED
 10
-22.5
 20
-172.5
 30
0.0
 11
-27.5
 21
-172.5
 31
0.0
  0
LINE
  8
0
  6
DASHED
 10
-22.5
 20
-182.5
 30
0.0
 11
-27.5
 21
-182.5
 31
0.0
  0
LINE
  8
BASE
  6
DASHED
 10
0.0
 20
-157.5
 30
0.0
 11
-22.5
 21
-157.5
 31
0.0
  0
INSERT
  8
0
  6
DASHED
  2
BLC43
 10
-30.978289
 20
-132.57453
 30
0.0
  0
INSERT
  8
0
  6
DASHED
  2
BLC43
 10
-30.978289
 20
-152.545156
 30
0.0
  0
INSERT
  8
0
  6
DASHED
  2
BLC43
 10
-30.978289
 20
-182.518768
 30
0.0
  0
INSERT
  8
0
  6
DASHED
  2
BLC43
 10
-30.978289
 20
-122.509688
 30
0.0
  0
INSERT
  8
0
  6
DASHED
  2
BLC42
 10
-30.8606
 20
-105.001096
 30
0.0
  0
LINE
  8
0
  6
DASHED
 10
-22.5
 20
-105.0
 30
0.0
 11
-27.5
 21
-105.0
 31
0.0
  0
INSERT
  8
0
  6
CONTINUOUS
  2
B231
 10
-3.574849
 20
-136.167335
 30
0.0
  0
INSERT
  8
0
  6
CONTINUOUS
  2
B231
 10
-3.742441
 20
-156.012948
 30
0.0
  0
INSERT
  8
0
  6
CONTINUOUS
  2
B231
 10
-3.910033
 20
-186.644031
 30
0.0
  0
LINE
  8
BASE1
  6
CENTER
 10
0.0
 20
-7.5
 30
0.0
 11
0.0
 21
-192.5
 31
0.0
  0
ENDBLK
  8
0
  0
BLOCK
  8
0
  2
B37
 70
    64
 10
0.0
 20
0.0
 30
0.0
  3
B37
  0
LINE
  8
BASE
  6
CONTINUOUS
 10
-0.006589
 20
-6.018035
 30
0.0
 11
2.434804
 21
0.662841
 31
0.0
  0
LINE
  8
BASE
  6
CONTINUOUS
 10
0.0
 20
0.0
 30
0.0
 11
2.765661
 21
0.0
 31
0.0
  0
LINE
  8
BASE
  6
CONTINUOUS
 10
2.434804
 20
0.662841
 30
0.0
 11
1.549106
 21
1.107734
 31
0.0
  0
CIRCLE
  8
BASE
  6
CONTINUOUS
 10
0.0
 20
-6.758945
 30
0.0
 40
0.740939
  0
ENDBLK
  8
0
  0
BLOCK
  8
0
  2
B231
 70
    64
 10
0.0
 20
0.0
 30
0.0
  3
B231
  0
LINE
  8
BASE
  6
CONTINUOUS
 10
1.735546
 20
-0.013541
 30
0.0
 11
0.068173
 21
-0.013541
 31
0.0
  0
LINE
  8
BASE
  6
CONTINUOUS
 10
1.735546
 20
1.673424
 30
0.0
 11
1.735546
 21
-0.013541
 31
0.0
  0
LINE
  8
BASE
  6
CONTINUOUS
 10
0.068173
 20
1.673424
 30
0.0
 11
1.735546
 21
1.673424
 31
0.0
  0
LINE
  8
BASE
  6
CONTINUOUS
 10
0.068173
 20
-0.013541
 30
0.0
 11
0.068173
 21
1.673424
 31
0.0
  0
ENDBLK
  8
0
  0
BLOCK
  8
0
  2
B63
 70
     0
 10
0.0
 20
0.0
 30
0.0
  3
B63
  0
LINE
  8
BASE
  6
CONTINUOUS
 10
10.740939
 20
0.0
 30
0.0
 11
15.0
 21
0.0
 31
0.0
  0
LINE
  8
BASE
  6
CONTINUOUS
 10
0.0
 20
0.0
 30
0.0
 11
5.0
 21
0.0
 31
0.0
  0
LINE
  8
BASE
  6
CONTINUOUS
 10
9.353436
 20
-0.361863
 30
0.0
 11
4.256076
 21
-3.214703
 31
0.0
  0
LINE
  8
BASE
  6
CONTINUOUS
 10
5.0
 20
-5.0
 30
0.0
 11
0.0
 21
-5.0
 31
0.0
  0
LINE
  8
BASE
  6
CONTINUOUS
 10
5.0
 20
-5.0
 30
0.0
 11
5.0
 21
-2.5
 31
0.0
  0
CIRCLE
  8
BASE
  6
CONTINUOUS
 10
10.0
 20
0.0
 30
0.0
 40
0.740939
  0
ENDBLK
  8
0
  0
BLOCK
  8
0
  2
B1337
 70
    64
 10
0.0
 20
0.0
 30
0.0
  3
B1337
  0
ENDBLK
  8
0
  0
BLOCK
  8
0
  2
5555
 70
     0
 10
0.0
 20
0.0
 30
0.0
  3
5555
  0
TEXT
  8
BASE
  6
CONTINUOUS
 10
-1.789204
 20
0.340704
 30
0.0
 40
2.0
  1
29
 50
90.0
  7
ROMANS
  0
LINE
  8
BASE
  6
CONTINUOUS
 10
-5.0
 20
7.5
 30
0.0
 11
-5.0
 21
0.0
 31
0.0
  0
LINE
  8
0
  6
DASHED
 10
-5.0
 20
0.0
 30
0.0
 11
-5.0
 21
-7.5
 31
0.0
  0
CIRCLE
  8
BASE
  6
CONTINUOUS
 10
-5.0
 20
8.241055
 30
0.0
 40
0.740939
  0
LINE
  8
BASE
  6
CONTINUOUS
 10
-5.006589
 20
8.981965
 30
0.0
 11
-2.565196
 21
15.662841
 31
0.0
  0
TEXT
  8
BASE
  6
DASHED
 10
-1.781473
 20
16.422991
 30
0.0
 40
2.0
  1
30
 50
90.0
  7
ROMANS
  0
LINE
  8
BASE
  6
CONTINUOUS
 10
-5.0
 20
20.0
 30
0.0
 11
-5.0
 21
15.0
 31
0.0
  0
ENDBLK
  8
0
  0
BLOCK
  8
0
  2
4444
 70
     0
 10
0.0
 20
0.0
 30
0.0
  3
4444
  0
TEXT
  8
0
  6
CONTINUOUS
 10
-40.800641
 20
-34.33913
 30
0.0
 40
2.0
  1
27
  7
ROMANS
  0
TEXT
  8
0
 10
-46.261851
 20
-16.561019
 30
0.0
 40
2.0
  1
In=0,2A
  7
ROMANS
 11
-46.261851
 21
-17.227686
 31
0.0
 73
     1
  0
LINE
  8
0
 10
-47.398946
 20
-5.227686
 30
0.0
 11
-47.398946
 21
-52.309067
 31
0.0
  0
TEXT
  8
0
  6
CONTINUOUS
 10
-12.129761
 20
-30.611265
 30
0.0
 40
2.0
  1
38
  7
ROMANS
  0
TEXT
  8
0
  6
CONTINUOUS
 10
-27.129761
 20
-30.611265
 30
0.0
 40
2.0
  1
39
  7
ROMANS
  0
TEXT
  8
0
  6
CONTINUOUS
 10
-55.63317
 20
-30.611265
 30
0.0
 40
2.0
  1
6B
  7
ROMANS
  0
LINE
  8
0
 10
-47.398946
 20
-42.167698
 30
0.0
 11
-1.034055
 21
-42.167698
 31
0.0
  0
TEXT
  8
0
  6
CONTINUOUS
 10
-27.03799
 20
-50.167348
 30
0.0
 40
2.0
  1
28
  7
ROMANS
  0
TEXT
  8
0
  6
CONTINUOUS
 10
-27.03799
 20
-46.834015
 30
0.0
 40
2.0
  1
29
  7
ROMANS
  0
TEXT
  8
0
  6
CONTINUOUS
 10
-57.519743
 20
-50.167348
 30
0.0
 40
2.0
  1
10B
  7
ROMANS
  0
LINE
  8
0
 10
-59.907557
 20
-52.309067
 30
0.0
 11
-1.034055
 21
-52.309067
 31
0.0
  0
TEXT
  8
0
  6
CONTINUOUS
 10
-55.63317
 20
-46.804439
 30
0.0
 40
2.0
  1
9B
  7
ROMANS
  0
TEXT
  8
0
 10
-39.723055
 20
-40.505309
 30
0.0
 40
2.0
  1
Un=100/110/120V
  7
ROMANS
 11
-39.723055
 21
-41.171976
 31
0.0
 73
     1
  0
TEXT
  8
0
  6
CONTINUOUS
 10
-64.980832
 20
-1.392467
 30
0.0
 40
2.0
  1
6)
  7
ROMANS
  0
TEXT
  8
0
 10
-15.407557
 20
-16.561019
 30
0.0
 40
2.0
  1
In=5A
  7
ROMANS
 11
-15.407557
 21
-17.227686
 31
0.0
 73
     1
  0
TEXT
  8
0
 10
-31.407557
 20
-16.561019
 30
0.0
 40
2.0
  1
In=1A 
  7
ROMANS
 11
-31.407557
 21
-17.227686
 31
0.0
 73
     1
  0
TEXT
  8
0
 10
-31.367947
 20
-9.712851
 30
0.0
 40
2.0
  1
108:
  7
ROMANS
 11
-31.367947
 21
-10.379518
 31
0.0
 73
     1
  0
TEXT
  8
0
 10
-56.940052
 20
-9.712851
 30
0.0
 40
2.0
  1
101:       
  7
ROMANS
 11
-56.940052
 21
-10.379518
 31
0.0
 73
     1
  0
TEXT
  8
0
 10
-47.139712
 20
-4.561019
 30
0.0
 40
2.0
  1
TERMINALS / UTTAG
  7
ROMANS
 11
-47.139712
 21
-5.227686
 31
0.0
 73
     1
  0
LINE
  8
0
 10
-47.407557
 20
-17.227686
 30
0.0
 11
-1.034055
 21
-17.227686
 31
0.0
  0
LINE
  8
0
 10
-19.407557
 20
-11.227686
 30
0.0
 11
-19.407557
 21
-35.682392
 31
0.0
  0
LINE
  8
0
 10
-47.398946
 20
-11.227686
 30
0.0
 11
-1.034055
 21
-11.227686
 31
0.0
  0
LINE
  8
0
 10
-33.407557
 20
-11.227686
 30
0.0
 11
-33.407557
 21
-35.682392
 31
0.0
  0
LINE
  8
0
 10
-59.907557
 20
-5.227686
 30
0.0
 11
-1.034055
 21
-5.227686
 31
0.0
  0
LINE
  8
0
 10
-1.034055
 20
-52.309067
 30
0.0
 11
-1.034055
 21
0.772314
 31
0.0
  0
LINE
  8
0
 10
-47.407557
 20
-35.682392
 30
0.0
 11
-1.034055
 21
-35.682392
 31
0.0
  0
LINE
  8
0
 10
-59.907557
 20
0.772314
 30
0.0
 11
-59.907557
 21
-52.309067
 31
0.0
  0
LINE
  8
0
 10
-1.034055
 20
0.772314
 30
0.0
 11
-59.907557
 21
0.772314
 31
0.0
  0
TEXT
  8
0
  6
CONTINUOUS
 10
-55.63317
 20
-20.384424
 30
0.0
 40
2.0
  1
3B
  7
ROMANS
  0
TEXT
  8
0
  6
CONTINUOUS
 10
-55.63317
 20
-23.717757
 30
0.0
 40
2.0
  1
4B
  7
ROMANS
  0
TEXT
  8
0
  6
CONTINUOUS
 10
-55.63317
 20
-27.05109
 30
0.0
 40
2.0
  1
5B
  7
ROMANS
  0
TEXT
  8
0
  6
CONTINUOUS
 10
-55.63317
 20
-34.33913
 30
0.0
 40
2.0
  1
7B
  7
ROMANS
  0
TEXT
  8
0
  6
CONTINUOUS
 10
-27.129761
 20
-20.384424
 30
0.0
 40
2.0
  1
3
  7
ROMANS
  0
TEXT
  8
0
  6
CONTINUOUS
 10
-27.129761
 20
-23.717757
 30
0.0
 40
2.0
  1
6
  7
ROMANS
  0
TEXT
  8
0
  6
CONTINUOUS
 10
-27.129761
 20
-27.05109
 30
0.0
 40
2.0
  1
9
  7
ROMANS
  0
TEXT
  8
0
  6
CONTINUOUS
 10
-12.129761
 20
-20.384424
 30
0.0
 40
2.0
  1
2
  0
TEXT
  8
0
  6
CONTINUOUS
 10
-12.129761
 20
-23.717757
 30
0.0
 40
2.0
  1
5
  7
ROMANS
  0
TEXT
  8
0
  6
CONTINUOUS
 10
-12.129761
 20
-27.05109
 30
0.0
 40
2.0
  1
8
  7
ROMANS
  0
TEXT
  8
0
  6
CONTINUOUS
 10
-27.316889
 20
-34.33913
 30
0.0
 40
2.0
  1
26
  7
ROMANS
  0
ENDBLK
  8
0
  0
BLOCK
  8
0
  2
4446
 70
     0
 10
0.0
 20
0.0
 30
0.0
  3
4446
  0
TEXT
  8
0
 10
-32.481459
 20
-7.029542
 30
0.0
 40
2.0
  1
TERMINALS / UTTAG
  7
ROMANS
 11
-32.481459
 21
-7.696208
 31
0.0
 73
     1
  0
LINE
  8
0
 10
-32.890166
 20
-43.623127
 30
0.0
 11
-1.133046
 21
-43.623127
 31
0.0
  0
LINE
  8
0
 10
-16.767229
 20
-15.196208
 30
0.0
 11
-16.767229
 21
-60.668405
 31
0.0
  0
LINE
  8
0
 10
-32.890166
 20
-1.696208
 30
0.0
 11
-32.890166
 21
-60.668405
 31
0.0
  0
LINE
  8
0
 10
-32.890166
 20
-15.196208
 30
0.0
 11
-1.133046
 21
-15.196208
 31
0.0
  0
LINE
  8
0
 10
-1.133046
 20
-60.668405
 30
0.0
 11
-1.133046
 21
-1.696208
 31
0.0
  0
LINE
  8
0
 10
-46.890166
 20
-1.696208
 30
0.0
 11
-46.890166
 21
-60.668405
 31
0.0
  0
LINE
  8
0
  6
CONTINUOUS
 10
-46.890166
 20
-60.668405
 30
0.0
 11
-1.133046
 21
-60.668405
 31
0.0
  0
TEXT
  8
0
  6
CONTINUOUS
 10
-30.324489
 20
-19.04789
 30
0.0
 40
2.0
  1
In=1A
  7
ROMANS
  0
TEXT
  8
0
  6
CONTINUOUS
 10
-44.661189
 20
-33.23045
 30
0.0
 40
2.0
  1
17B
  7
ROMANS
  0
TEXT
  8
0
  6
CONTINUOUS
 10
-26.713631
 20
-33.302411
 30
0.0
 40
2.0
  1
9
  7
ROMANS
  0
TEXT
  8
0
  6
CONTINUOUS
 10
-9.707173
 20
-33.302411
 30
0.0
 40
2.0
  1
8
  7
ROMANS
  0
LINE
  8
0
 10
-32.890166
 20
-19.696208
 30
0.0
 11
-1.133046
 21
-19.696208
 31
0.0
  0
TEXT
  8
0
  6
DASHED
 10
-13.72865
 20
-18.727448
 30
0.0
 40
2.0
  1
In=5A
  7
ROMANS
  0
TEXT
  8
0
  6
DASHED
 10
-44.661189
 20
-24.99889
 30
0.0
 40
2.0
  1
13B
  7
ROMANS
  0
TEXT
  8
0
  6
DASHED
 10
-26.560925
 20
-24.99889
 30
0.0
 40
2.0
  1
3
  7
ROMANS
  0
TEXT
  8
0
  6
DASHED
 10
-9.539251
 20
-24.99889
 30
0.0
 40
2.0
  1
2
  7
ROMANS
  0
TEXT
  8
0
  6
CONTINUOUS
 10
-31.383722
 20
-42.593277
 30
0.0
 40
2.0
  1
Un=100V
  7
ROMANS
  0
TEXT
  8
0
  6
CONTINUOUS
 10
-15.485343
 20
-42.593277
 30
0.0
 40
2.0
  1
Un=110V
  7
ROMANS
  0
TEXT
  8
0
  6
CONTINUOUS
 10
-27.917847
 20
-47.682922
 30
0.0
 40
2.0
  1
29
  7
ROMANS
  0
TEXT
  8
0
  6
CONTINUOUS
 10
-11.030082
 20
-47.682922
 30
0.0
 40
2.0
  1
30
  7
ROMANS
  0
TEXT
  8
0
  6
CONTINUOUS
 10
-44.661189
 20
-29.054387
 30
0.0
 40
2.0
  1
15B
  7
ROMANS
  0
TEXT
  8
0
  6
CONTINUOUS
 10
-26.698415
 20
-29.043367
 30
0.0
 40
2.0
  1
6
  7
ROMANS
  0
TEXT
  8
0
  6
CONTINUOUS
 10
-9.737605
 20
-29.043367
 30
0.0
 40
2.0
  1
5
  7
ROMANS
  0
LINE
  8
0
 10
-1.133046
 20
-1.696208
 30
0.0
 11
-46.890166
 21
-1.696208
 31
0.0
  0
TEXT
  8
0
  6
HIDDEN
 10
-44.593621
 20
-47.654361
 30
0.0
 40
2.0
  1
24B
  7
ROMANS
  0
TEXT
  8
0
  6
HIDDEN
 10
-44.624359
 20
-51.743123
 30
0.0
 40
2.0
  1
21B
  7
ROMANS
  0
TEXT
  8
0
  6
HIDDEN
 10
-44.624359
 20
-55.815677
 30
0.0
 40
2.0
  1
22B
  7
ROMANS
  0
TEXT
  8
0
  6
HIDDEN
 10
-44.624359
 20
-59.725236
 30
0.0
 40
2.0
  1
23B
  7
ROMANS
  0
LINE
  8
0
  6
CONTINUOUS
 10
-32.890166
 20
-39.127006
 30
0.0
 11
-1.133046
 21
-39.127006
 31
0.0
  0
TEXT
  8
0
  6
CONTINUOUS
 10
-28.128727
 20
-51.744982
 30
0.0
 40
2.0
  1
14
  7
ROMANS
  0
TEXT
  8
0
  6
CONTINUOUS
 10
-28.128727
 20
-55.8277
 30
0.0
 40
2.0
  1
17
  7
ROMANS
  0
TEXT
  8
0
  6
CONTINUOUS
 10
-28.116493
 20
-59.701032
 30
0.0
 40
2.0
  1
20
  7
ROMANS
  0
TEXT
  8
0
  6
CONTINUOUS
 10
-11.187975
 20
-51.767023
 30
0.0
 40
2.0
  1
15
  7
ROMANS
  0
TEXT
  8
0
  6
CONTINUOUS
 10
-11.187975
 20
-55.838721
 30
0.0
 40
2.0
  1
18
  7
ROMANS
  0
TEXT
  8
0
  6
CONTINUOUS
 10
-11.187975
 20
-59.690012
 30
0.0
 40
2.0
  1
21
  7
ROMANS
  0
TEXT
  8
0
  6
CONTINUOUS
 10
-28.102328
 20
-37.550743
 30
0.0
 40
2.0
  1
27
  7
ROMANS
  0
TEXT
  8
0
  6
CONTINUOUS
 10
-10.791548
 20
-37.550743
 30
0.0
 40
2.0
  1
26
  7
ROMANS
  0
TEXT
  8
0
  6
CONTINUOUS
 10
-44.661189
 20
-37.319034
 30
0.0
 40
2.0
  1
19B
  7
ROMANS
  0
TEXT
  8
0
  6
DASHED
 10
-44.661189
 20
-18.655503
 30
0.0
 40
2.0
  1
101:
  7
ROMANS
  0
LINE
  8
0
  6
CONTINUOUS
 10
-32.890166
 20
-10.665683
 30
0.0
 11
-1.133046
 21
-10.665683
 31
0.0
  0
TEXT
  8
0
  6
DASHED
 10
-20.339614
 20
-13.858043
 30
0.0
 40
2.0
  1
108:
  7
ROMANS
  0
LINE
  8
0
  6
CONTINUOUS
 10
-32.890166
 20
-15.196208
 30
0.0
 11
-46.890166
 21
-15.196208
 31
0.0
  0
TEXT
  8
0
  6
CONTINUOUS
 10
-52.466665
 20
-4.053863
 30
0.0
 40
2.0
  1
1)
  7
ROMANS
  0
ENDBLK
  8
0
  0
BLOCK
  8
0
  2
6666
 70
     0
 10
0.0
 20
0.0
 30
0.0
  3
6666
  0
POLYLINE
  8
0
  6
CONTINUOUS
 66
     1
 10
0.0
 20
0.0
 30
0.0
 70
     1
 40
0.5
 41
0.5
  0
VERTEX
  8
0
  6
CONTINUOUS
 10
79.5
 20
-82.5
 30
0.0
 42
1.0
  0
VERTEX
  8
0
  6
CONTINUOUS
 10
80.5
 20
-82.5
 30
0.0
 42
1.0
  0
SEQEND
  8
0
  6
CONTINUOUS
  0
LINE
  8
0
  6
DASHED
 10
67.5
 20
17.5
 30
0.0
 11
67.5
 21
25.0
 31
0.0
  0
LINE
  8
0
  6
DASHED
 10
60.0
 20
17.5
 30
0.0
 11
60.0
 21
30.0
 31
0.0
  0
INSERT
  8
0
  6
CENTER
  2
BLC26
 10
66.046562
 20
15.109534
 30
0.0
 41
1.006225
 42
1.006225
 43
1.006225
  0
INSERT
  8
0
  6
CENTER
  2
BLC26
 10
58.546562
 20
15.109534
 30
0.0
 41
1.006225
 42
1.006225
 43
1.006225
  0
LINE
  8
0
  6
DASHED
 10
35.0
 20
12.5
 30
0.0
 11
35.0
 21
25.0
 31
0.0
  0
INSERT
  8
0
  6
CONTINUOUS
  2
BLC27
 10
78.465932
 20
-99.928451
 30
0.0
  0
INSERT
  8
0
  6
CONTINUOUS
  2
BLC27
 10
85.965932
 20
-99.928451
 30
0.0
  0
LINE
  8
0
  6
DASHED
 10
80.0
 20
-97.5
 30
0.0
 11
80.0
 21
-82.5
 31
0.0
  0
LINE
  8
0
  6
DASHED
 10
87.5
 20
-97.5
 30
0.0
 11
87.5
 21
-87.5
 31
0.0
  0
LINE
  8
0
  6
CONTINUOUS
 10
80.0
 20
-112.31002
 30
0.0
 11
80.0
 21
-115.0
 31
0.0
  0
LINE
  8
0
  6
CONTINUOUS
 10
87.5
 20
-112.31002
 30
0.0
 11
87.5
 21
-115.0
 31
0.0
  0
ARC
  8
0
  6
CONTINUOUS
 10
85.864862
 20
-108.703905
 30
0.0
 40
1.204309
 50
90.0
 51
265.706237
  0
LINE
  8
0
  6
CONTINUOUS
 10
85.858762
 20
-109.901453
 30
0.0
 11
86.50836
 21
-109.901453
 31
0.0
  0
LINE
  8
0
  6
CONTINUOUS
 10
85.858762
 20
-107.500007
 30
0.0
 11
86.502261
 21
-107.500007
 31
0.0
  0
LINE
  8
0
  6
CONTINUOUS
 10
85.859898
 20
-112.310063
 30
0.0
 11
86.509496
 21
-112.310063
 31
0.0
  0
ARC
  8
0
  6
CONTINUOUS
 10
85.864862
 20
-111.105762
 30
0.0
 40
1.204309
 50
90.0
 51
270.0
  0
LINE
  8
0
  6
CONTINUOUS
 10
86.500897
 20
-112.31002
 30
0.0
 11
87.5
 21
-112.31002
 31
0.0
  0
LINE
  8
0
  6
CONTINUOUS
 10
86.496128
 20
-107.500004
 30
0.0
 11
87.473936
 21
-107.500004
 31
0.0
  0
LINE
  8
0
  6
CONTINUOUS
 10
86.506031
 20
-109.901444
 30
0.0
 11
87.478167
 21
-109.901444
 31
0.0
  0
ARC
  8
0
  6
CONTINUOUS
 10
78.364862
 20
-108.703905
 30
0.0
 40
1.204309
 50
90.0
 51
265.706237
  0
LINE
  8
0
  6
CONTINUOUS
 10
78.358762
 20
-109.901453
 30
0.0
 11
79.00836
 21
-109.901453
 31
0.0
  0
LINE
  8
0
  6
CONTINUOUS
 10
78.358762
 20
-107.500007
 30
0.0
 11
79.002261
 21
-107.500007
 31
0.0
  0
LINE
  8
0
  6
CONTINUOUS
 10
78.359898
 20
-112.310063
 30
0.0
 11
79.009496
 21
-112.310063
 31
0.0
  0
ARC
  8
0
  6
CONTINUOUS
 10
78.364862
 20
-111.105762
 30
0.0
 40
1.204309
 50
90.0
 51
270.0
  0
LINE
  8
0
  6
CONTINUOUS
 10
79.000897
 20
-112.31002
 30
0.0
 11
80.0
 21
-112.31002
 31
0.0
  0
LINE
  8
0
  6
CONTINUOUS
 10
79.006031
 20
-109.901444
 30
0.0
 11
79.978167
 21
-109.901444
 31
0.0
  0
TEXT
  8
0
  6
DASHED
 10
66.430477
 20
-83.524895
 30
0.0
 40
2.0
  1
L1 (R)
  7
ROMANS
  0
TEXT
  8
0
  6
DASHED
 10
66.430477
 20
-88.577406
 30
0.0
 40
2.0
  1
L2 (S)
  7
ROMANS
  0
TEXT
  8
0
  6
DASHED
 10
66.430477
 20
-93.519713
 30
0.0
 40
2.0
  1
L3 (T)
  7
ROMANS
  0
LINE
  8
0
  6
DASHED
 10
87.5
 20
-115.0
 30
0.0
 11
87.5
 21
-120.0
 31
0.0
  0
LINE
  8
0
  6
DASHED
 10
87.5
 20
-120.0
 30
0.0
 11
42.5
 21
-120.0
 31
0.0
  0
LINE
  8
0
  6
DASHED
 10
80.0
 20
-115.0
 30
0.0
 11
37.5
 21
-115.0
 31
0.0
  0
LINE
  8
BASE
  6
CENTER
 10
0.0
 20
-137.5
 30
0.0
 11
0.0
 21
-167.5
 31
0.0
  0
LINE
  8
0
  6
DASHED
 10
30.0
 20
-77.5
 30
0.0
 11
30.0
 21
-87.5
 31
0.0
  0
LINE
  8
0
  6
DASHED
 10
0.0
 20
-85.0
 30
0.0
 11
60.0
 21
-85.0
 31
0.0
  0
INSERT
  8
0
  6
CONTINUOUS
  2
BLC15
 10
17.357916
 20
-77.5
 30
0.0
  0
LINE
  8
0
  6
CONTINUOUS
 10
30.0
 20
-57.5
 30
0.0
 11
30.0
 21
-77.5
 31
0.0
  0
INSERT
  8
0
  6
CONTINUOUS
  2
BLC15
 10
27.357916
 20
-77.5
 30
0.0
  0
LINE
  8
0
  6
DASHED
 10
0.0
 20
-165.0
 30
0.0
 11
22.5
 21
-165.0
 31
0.0
  0
LINE
  8
0
  6
DASHED
 10
47.5
 20
-125.0
 30
0.0
 11
47.5
 21
-155.0
 31
0.0
  0
LINE
  8
0
  6
DASHED
 10
42.5
 20
-120.0
 30
0.0
 11
42.5
 21
-135.0
 31
0.0
  0
LINE
  8
0
  6
DASHED
 10
15.0
 20
-145.0
 30
0.0
 11
0.0
 21
-145.0
 31
0.0
  0
LINE
  8
0
  6
DASHED
 10
15.0
 20
-125.0
 30
0.0
 11
0.0
 21
-125.0
 31
0.0
  0
LINE
  8
0
  6
DASHED
 10
47.5
 20
-155.0
 30
0.0
 11
0.0
 21
-155.0
 31
0.0
  0
LINE
  8
0
  6
DASHED
 10
0.0
 20
-115.0
 30
0.0
 11
37.5
 21
-115.0
 31
0.0
  0
LINE
  8
0
  6
DASHED
 10
15.0
 20
-125.0
 30
0.0
 11
15.0
 21
-135.0
 31
0.0
  0
LINE
  8
0
  6
DASHED
 10
0.0
 20
-135.0
 30
0.0
 11
42.5
 21
-135.0
 31
0.0
  0
LINE
  8
0
  6
DASHED
 10
22.5
 20
-115.0
 30
0.0
 11
22.5
 21
-165.0
 31
0.0
  0
LINE
  8
0
  6
DASHED
 10
15.0
 20
-145.0
 30
0.0
 11
15.0
 21
-155.0
 31
0.0
  0
POLYLINE
  8
0
  6
CONTINUOUS
 66
     1
 10
0.0
 20
0.0
 30
0.0
 70
     1
 40
0.5
 41
0.5
  0
VERTEX
  8
0
  6
CONTINUOUS
 10
22.0
 20
-115.0
 30
0.0
 42
1.0
  0
VERTEX
  8
0
  6
CONTINUOUS
 10
23.0
 20
-115.0
 30
0.0
 42
1.0
  0
SEQEND
  8
0
  6
CONTINUOUS
  0
POLYLINE
  8
0
  6
CONTINUOUS
 66
     1
 10
0.0
 20
0.0
 30
0.0
 70
     1
 40
0.5
 41
0.5
  0
VERTEX
  8
0
  6
CONTINUOUS
 10
14.5
 20
-135.0
 30
0.0
 42
1.0
  0
VERTEX
  8
0
  6
CONTINUOUS
 10
15.5
 20
-135.0
 30
0.0
 42
1.0
  0
SEQEND
  8
0
  6
CONTINUOUS
  0
POLYLINE
  8
0
  6
CONTINUOUS
 66
     1
 10
0.0
 20
0.0
 30
0.0
 70
     1
 40
0.5
 41
0.5
  0
VERTEX
  8
0
  6
CONTINUOUS
 10
14.5
 20
-155.0
 30
0.0
 42
1.0
  0
VERTEX
  8
0
  6
CONTINUOUS
 10
15.5
 20
-155.0
 30
0.0
 42
1.0
  0
SEQEND
  8
0
  6
CONTINUOUS
  0
LINE
  8
0
  6
DASHED
 10
60.0
 20
-85.0
 30
0.0
 11
60.0
 21
-12.5
 31
0.0
  0
LINE
  8
0
  6
DASHED
 10
52.5
 20
-95.0
 30
0.0
 11
52.5
 21
0.0
 31
0.0
  0
LINE
  8
BASE
  6
CENTER
 10
0.0
 20
-7.5
 30
0.0
 11
0.0
 21
-30.0
 31
0.0
  0
LINE
  8
BASE
  6
CENTER
 10
0.0
 20
-7.5
 30
0.0
 11
0.0
 21
17.5
 31
0.0
  0
LINE
  8
0
  6
CONTINUOUS
 10
57.5
 20
0.0
 30
0.0
 11
52.5
 21
7.5
 31
0.0
  0
LINE
  8
0
  6
CONTINUOUS
 10
60.0
 20
0.0
 30
0.0
 11
57.5
 21
0.0
 31
0.0
  0
LINE
  8
0
  6
CONTINUOUS
 10
51.506031
 20
5.098556
 30
0.0
 11
52.478167
 21
5.098556
 31
0.0
  0
LINE
  8
0
  6
CONTINUOUS
 10
51.496128
 20
7.499996
 30
0.0
 11
52.473936
 21
7.499996
 31
0.0
  0
LINE
  8
0
  6
CONTINUOUS
 10
51.500897
 20
2.68998
 30
0.0
 11
52.5
 21
2.68998
 31
0.0
  0
ARC
  8
0
  6
CONTINUOUS
 10
50.864862
 20
3.894238
 30
0.0
 40
1.204309
 50
90.0
 51
270.0
  0
LINE
  8
0
  6
CONTINUOUS
 10
50.859898
 20
2.689937
 30
0.0
 11
51.509496
 21
2.689937
 31
0.0
  0
LINE
  8
0
  6
CONTINUOUS
 10
50.858762
 20
7.499993
 30
0.0
 11
51.502261
 21
7.499993
 31
0.0
  0
LINE
  8
0
  6
CONTINUOUS
 10
50.858762
 20
5.098547
 30
0.0
 11
51.50836
 21
5.098547
 31
0.0
  0
ARC
  8
0
  6
CONTINUOUS
 10
50.864862
 20
6.296095
 30
0.0
 40
1.204309
 50
90.0
 51
265.706237
  0
LINE
  8
0
  6
CONTINUOUS
 10
59.006031
 20
5.098556
 30
0.0
 11
59.978167
 21
5.098556
 31
0.0
  0
LINE
  8
0
  6
CONTINUOUS
 10
58.996128
 20
7.499996
 30
0.0
 11
59.973936
 21
7.499996
 31
0.0
  0
LINE
  8
0
  6
CONTINUOUS
 10
59.000897
 20
2.68998
 30
0.0
 11
60.0
 21
2.68998
 31
0.0
  0
ARC
  8
0
  6
CONTINUOUS
 10
58.364862
 20
3.894238
 30
0.0
 40
1.204309
 50
90.0
 51
270.0
  0
LINE
  8
0
  6
CONTINUOUS
 10
58.359898
 20
2.689937
 30
0.0
 11
59.009496
 21
2.689937
 31
0.0
  0
LINE
  8
0
  6
CONTINUOUS
 10
58.358762
 20
7.499993
 30
0.0
 11
59.002261
 21
7.499993
 31
0.0
  0
LINE
  8
0
  6
CONTINUOUS
 10
58.358762
 20
5.098547
 30
0.0
 11
59.00836
 21
5.098547
 31
0.0
  0
ARC
  8
0
  6
CONTINUOUS
 10
58.364862
 20
6.296095
 30
0.0
 40
1.204309
 50
90.0
 51
265.706237
  0
LINE
  8
0
  6
CONTINUOUS
 10
60.0
 20
2.68998
 30
0.0
 11
60.0
 21
0.0
 31
0.0
  0
LINE
  8
0
  6
CONTINUOUS
 10
52.5
 20
2.68998
 30
0.0
 11
52.5
 21
0.0
 31
0.0
  0
LINE
  8
0
  6
DASHED
 10
52.5
 20
17.5
 30
0.0
 11
52.5
 21
35.0
 31
0.0
  0
INSERT
  8
0
  6
CONTINUOUS
  2
BLC27
 10
50.965932
 20
15.071549
 30
0.0
  0
LINE
  8
0
  6
DASHED
 10
35.0
 20
-40.0
 30
0.0
 11
0.0
 21
-40.0
 31
0.0
  0
LINE
  8
0
  6
DASHED
 10
30.0
 20
-20.0
 30
0.0
 11
0.0
 21
-20.0
 31
0.0
  0
LINE
  8
0
  6
DASHED
 10
25.0
 20
0.0
 30
0.0
 11
0.0
 21
0.0
 31
0.0
  0
LINE
  8
0
  6
DASHED
 10
27.5
 20
-70.0
 30
0.0
 11
30.0
 21
-70.0
 31
0.0
  0
LINE
  8
0
  6
DASHED
 10
30.0
 20
-70.0
 30
0.0
 11
30.0
 21
-70.0
 31
0.0
  0
LINE
  8
0
  6
DASHED
 10
17.5
 20
-65.189984
 30
0.0
 11
30.0
 21
-65.189984
 31
0.0
  0
LINE
  8
0
  6
CONTINUOUS
 10
27.5
 20
-67.59856
 30
0.0
 11
30.0
 21
-67.59856
 31
0.0
  0
INSERT
  8
0
  6
CONTINUOUS
  2
BLC27
 10
31.49116
 20
-67.571554
 30
0.0
 50
180.0
  0
LINE
  8
0
  6
DASHED
 10
17.5
 20
-75.0
 30
0.0
 11
17.5
 21
-70.0
 31
0.0
  0
LINE
  8
0
  6
DASHED
 10
27.5
 20
-52.5
 30
0.0
 11
27.5
 21
-75.0
 31
0.0
  0
LINE
  8
0
  6
CONTINUOUS
 10
30.0
 20
-57.5
 30
0.0
 11
32.5
 21
-52.5
 31
0.0
  0
LINE
  8
0
  6
CONTINUOUS
 10
27.5
 20
-52.5
 30
0.0
 11
30.0
 21
-57.5
 31
0.0
  0
LINE
  8
0
  6
CONTINUOUS
 10
25.0
 20
-52.5
 30
0.0
 11
35.0
 21
-52.5
 31
0.0
  0
LINE
  8
0
  6
DASHED
 10
20.0
 20
-4.810008
 30
0.0
 11
20.0
 21
-52.5
 31
0.0
  0
LINE
  8
0
  6
DASHED
 10
17.5
 20
-60.0
 30
0.0
 11
17.5
 21
-65.189984
 31
0.0
  0
LINE
  8
0
  6
DASHED
 10
0.0
 20
-60.0
 30
0.0
 11
17.5
 21
-60.0
 31
0.0
  0
LINE
  8
0
  6
DASHED
 10
5.0
 20
-10.0
 30
0.0
 11
5.0
 21
-50.0
 31
0.0
  0
LINE
  8
0
  6
DASHED
 10
35.006921
 20
-44.810016
 30
0.0
 11
20.0
 21
-44.810016
 31
0.0
  0
LINE
  8
0
  6
DASHED
 10
30.069797
 20
-24.810016
 30
0.0
 11
20.0
 21
-24.810016
 31
0.0
  0
LINE
  8
0
  6
DASHED
 10
25.0
 20
-27.5
 30
0.0
 11
25.0
 21
-52.5
 31
0.0
  0
LINE
  8
0
  6
DASHED
 10
30.0
 20
-27.5
 30
0.0
 11
30.0
 21
-52.5
 31
0.0
  0
LINE
  8
0
  6
DASHED
 10
35.0
 20
-27.5
 30
0.0
 11
35.0
 21
-52.5
 31
0.0
  0
INSERT
  8
0
  6
CONTINUOUS
  2
BLC15
 10
19.857916
 20
-55.0
 30
0.0
  0
INSERT
  8
0
  6
CONTINUOUS
  2
BLC27
 10
26.491154
 20
-2.381567
 30
0.0
 50
180.0
  0
LINE
  8
0
  6
DASHED
 10
25.0
 20
5.0
 30
0.0
 11
25.0
 21
-27.5
 31
0.0
  0
LINE
  8
0
  6
DASHED
 10
30.0
 20
5.0
 30
0.0
 11
30.0
 21
-27.5
 31
0.0
  0
LINE
  8
0
  6
DASHED
 10
35.0
 20
5.0
 30
0.0
 11
35.0
 21
-27.5
 31
0.0
  0
LINE
  8
0
  6
DASHED
 10
30.0
 20
12.5
 30
0.0
 11
30.0
 21
30.0
 31
0.0
  0
LINE
  8
0
  6
DASHED
 10
25.0
 20
12.5
 30
0.0
 11
25.0
 21
35.0
 31
0.0
  0
INSERT
  8
0
  6
CONTINUOUS
  2
BLC27
 10
31.51227
 20
-22.38157
 30
0.0
 50
180.0
  0
LINE
  8
0
  6
CONTINUOUS
 10
25.0
 20
5.0
 30
0.0
 11
22.5
 21
12.5
 31
0.0
  0
LINE
  8
0
  6
CONTINUOUS
 10
30.0
 20
5.0
 30
0.0
 11
27.5
 21
12.5
 31
0.0
  0
LINE
  8
0
  6
CONTINUOUS
 10
35.0
 20
5.0
 30
0.0
 11
32.5
 21
12.5
 31
0.0
  0
LINE
  8
0
  6
CONTINUOUS
 10
25.0
 20
12.5
 30
0.0
 11
24.5
 21
13.0
 31
0.0
  0
LINE
  8
0
  6
CONTINUOUS
 10
25.0
 20
12.5
 30
0.0
 11
25.5
 21
12.0
 31
0.0
  0
LINE
  8
0
  6
CONTINUOUS
 10
25.0
 20
12.5
 30
0.0
 11
25.5
 21
13.0
 31
0.0
  0
LINE
  8
0
  6
CONTINUOUS
 10
25.0
 20
12.5
 30
0.0
 11
24.5
 21
12.0
 31
0.0
  0
LINE
  8
0
  6
CONTINUOUS
 10
30.0
 20
12.5
 30
0.0
 11
30.5
 21
13.0
 31
0.0
  0
LINE
  8
0
  6
CONTINUOUS
 10
30.0
 20
12.5
 30
0.0
 11
30.5
 21
12.0
 31
0.0
  0
LINE
  8
0
  6
CONTINUOUS
 10
30.0
 20
12.5
 30
0.0
 11
29.5
 21
12.0
 31
0.0
  0
LINE
  8
0
  6
CONTINUOUS
 10
30.0
 20
12.5
 30
0.0
 11
29.5
 21
13.0
 31
0.0
  0
LINE
  8
0
  6
CONTINUOUS
 10
35.0
 20
12.5
 30
0.0
 11
35.5
 21
12.0
 31
0.0
  0
LINE
  8
0
  6
CONTINUOUS
 10
35.0
 20
12.5
 30
0.0
 11
35.5
 21
13.0
 31
0.0
  0
LINE
  8
0
  6
CONTINUOUS
 10
35.0
 20
12.5
 30
0.0
 11
34.5
 21
13.0
 31
0.0
  0
LINE
  8
0
  6
CONTINUOUS
 10
35.0
 20
12.5
 30
0.0
 11
34.5
 21
12.0
 31
0.0
  0
INSERT
  8
0
  6
CONTINUOUS
  2
BLC27
 10
36.491155
 20
-42.381569
 30
0.0
 50
180.0
  0
LINE
  8
0
  6
DASHED
 10
25.0
 20
-4.810008
 30
0.0
 11
20.0
 21
-4.810008
 31
0.0
  0
LINE
  8
0
  6
CONTINUOUS
 10
0.0
 20
-40.0
 30
0.0
 11
2.5
 21
-40.0
 31
0.0
  0
LINE
  8
0
  6
DASHED
 10
0.0
 20
-30.0
 30
0.0
 11
5.0
 21
-30.0
 31
0.0
  0
LINE
  8
0
  6
DASHED
 10
0.0
 20
-10.0
 30
0.0
 11
5.0
 21
-10.0
 31
0.0
  0
LINE
  8
0
  6
DASHED
 10
77.5
 20
-12.5
 30
0.0
 11
77.5
 21
7.5
 31
0.0
  0
LINE
  8
0
  6
DASHED
 10
60.0
 20
-12.5
 30
0.0
 11
77.5
 21
-12.5
 31
0.0
  0
LINE
  8
0
  6
DASHED
 10
72.5
 20
12.68998
 30
0.0
 11
81.663362
 21
12.68998
 31
0.0
  0
LINE
  8
0
  6
DASHED
 10
72.5
 20
7.5
 30
0.0
 11
81.84682
 21
7.5
 31
0.0
  0
INSERT
  8
0
  6
CONTINUOUS
  2
BLC15
 10
85.0
 20
12.585001
 30
0.0
 50
90.0
  0
INSERT
  8
0
  6
CONTINUOUS
  2
BLC15
 10
85.0
 20
7.395021
 30
0.0
 50
90.0
  0
LINE
  8
0
  6
CONTINUOUS
 10
67.5
 20
7.5
 30
0.0
 11
72.5
 21
7.5
 31
0.0
  0
LINE
  8
0
  6
CONTINUOUS
 10
65.0
 20
0.0
 30
0.0
 11
60.0
 21
7.5
 31
0.0
  0
LINE
  8
0
  6
CONTINUOUS
 10
67.5
 20
0.0
 30
0.0
 11
65.0
 21
0.0
 31
0.0
  0
LINE
  8
0
  6
CONTINUOUS
 10
66.506031
 20
5.098556
 30
0.0
 11
67.478167
 21
5.098556
 31
0.0
  0
LINE
  8
0
  6
CONTINUOUS
 10
66.496128
 20
7.499996
 30
0.0
 11
67.473936
 21
7.499996
 31
0.0
  0
LINE
  8
0
  6
CONTINUOUS
 10
66.500897
 20
2.68998
 30
0.0
 11
67.5
 21
2.68998
 31
0.0
  0
ARC
  8
0
  6
CONTINUOUS
 10
65.864862
 20
3.894238
 30
0.0
 40
1.204309
 50
90.0
 51
270.0
  0
LINE
  8
0
  6
CONTINUOUS
 10
65.859898
 20
2.689937
 30
0.0
 11
66.509496
 21
2.689937
 31
0.0
  0
LINE
  8
0
  6
CONTINUOUS
 10
65.858762
 20
7.499993
 30
0.0
 11
66.502261
 21
7.499993
 31
0.0
  0
LINE
  8
0
  6
CONTINUOUS
 10
65.858762
 20
5.098547
 30
0.0
 11
66.50836
 21
5.098547
 31
0.0
  0
ARC
  8
0
  6
CONTINUOUS
 10
65.864862
 20
6.296095
 30
0.0
 40
1.204309
 50
90.0
 51
265.706237
  0
LINE
  8
0
  6
CONTINUOUS
 10
67.5
 20
2.68998
 30
0.0
 11
67.5
 21
0.0
 31
0.0
  0
LINE
  8
0
  6
CONTINUOUS
 10
52.5
 20
12.68998
 30
0.0
 11
72.5
 21
12.68998
 31
0.0
  0
LINE
  8
0
  6
DASHED
 10
72.5
 20
25.0
 30
0.0
 11
17.5
 21
25.0
 31
0.0
  0
LINE
  8
0
  6
DASHED
 10
72.5
 20
30.0
 30
0.0
 11
17.5
 21
30.0
 31
0.0
  0
LINE
  8
0
  6
DASHED
 10
72.5
 20
35.0
 30
0.0
 11
17.5
 21
35.0
 31
0.0
  0
TEXT
  8
0
  6
DASHED
 10
12.5
 20
29.043818
 30
0.0
 40
2.0
  1
L2
  7
ROMANS
  0
TEXT
  8
0
  6
DASHED
 10
12.5
 20
23.991307
 30
0.0
 40
2.0
  1
L3
  7
ROMANS
  0
POLYLINE
  8
0
  6
CONTINUOUS
 66
     1
 10
0.0
 20
0.0
 30
0.0
 70
     1
 40
0.5
 41
0.5
 71
     2
 72
   151
  0
VERTEX
  8
0
  6
CONTINUOUS
 10
29.5
 20
30.0
 30
0.0
 42
1.0
  0
VERTEX
  8
0
  6
CONTINUOUS
 10
30.5
 20
30.0
 30
0.0
 42
1.0
  0
SEQEND
  8
0
  6
CONTINUOUS
  0
POLYLINE
  8
0
  6
CONTINUOUS
 66
     1
 10
0.0
 20
0.0
 30
0.0
 70
     1
 40
0.5
 41
0.5
 71
     2
 72
   151
  0
VERTEX
  8
0
  6
CONTINUOUS
 10
34.5
 20
25.0
 30
0.0
 42
1.0
  0
VERTEX
  8
0
  6
CONTINUOUS
 10
35.5
 20
25.0
 30
0.0
 42
1.0
  0
SEQEND
  8
0
  6
CONTINUOUS
  0
POLYLINE
  8
0
  6
CONTINUOUS
 66
     1
 10
0.0
 20
0.0
 30
0.0
 70
     1
 40
0.5
 41
0.5
 71
     2
 72
   151
  0
VERTEX
  8
0
  6
CONTINUOUS
 10
59.5
 20
30.0
 30
0.0
 42
1.0
  0
VERTEX
  8
0
  6
CONTINUOUS
 10
60.5
 20
30.0
 30
0.0
 42
1.0
  0
SEQEND
  8
0
  6
CONTINUOUS
  0
POLYLINE
  8
0
  6
CONTINUOUS
 66
     1
 10
0.0
 20
0.0
 30
0.0
 70
     1
 40
0.5
 41
0.5
 71
     2
 72
   151
  0
VERTEX
  8
0
  6
CONTINUOUS
 10
67.0
 20
25.0
 30
0.0
 42
1.0
  0
VERTEX
  8
0
  6
CONTINUOUS
 10
68.0
 20
25.0
 30
0.0
 42
1.0
  0
SEQEND
  8
0
  6
CONTINUOUS
  0
POLYLINE
  8
0
  6
CONTINUOUS
 66
     1
 10
0.0
 20
0.0
 30
0.0
 70
     1
 40
0.5
 41
0.5
 71
     2
 72
   151
  0
VERTEX
  8
0
  6
CONTINUOUS
 10
77.0
 20
7.5
 30
0.0
 42
1.0
  0
VERTEX
  8
0
  6
CONTINUOUS
 10
78.0
 20
7.5
 30
0.0
 42
1.0
  0
SEQEND
  8
0
  6
CONTINUOUS
  0
POLYLINE
  8
0
  6
CONTINUOUS
 66
     1
 10
0.0
 20
0.0
 30
0.0
 70
     1
 40
0.5
 41
0.5
 71
     2
 72
   251
  0
VERTEX
  8
0
  6
CONTINUOUS
 10
4.5
 20
-30.0
 30
0.0
 42
1.0
  0
VERTEX
  8
0
  6
CONTINUOUS
 10
5.5
 20
-30.0
 30
0.0
 42
1.0
  0
SEQEND
  8
0
  6
CONTINUOUS
  0
POLYLINE
  8
0
  6
CONTINUOUS
 66
     1
 10
0.0
 20
0.0
 30
0.0
 70
     1
 40
0.5
 41
0.5
 71
     2
 72
   251
  0
VERTEX
  8
0
  6
CONTINUOUS
 10
4.5
 20
-50.0
 30
0.0
 42
1.0
  0
VERTEX
  8
0
  6
CONTINUOUS
 10
5.5
 20
-50.0
 30
0.0
 42
1.0
  0
SEQEND
  8
0
  6
CONTINUOUS
  0
POLYLINE
  8
0
  6
CONTINUOUS
 66
     1
 10
0.0
 20
0.0
 30
0.0
 70
     1
 40
0.5
 41
0.5
 71
     2
 72
   251
  0
VERTEX
  8
0
  6
CONTINUOUS
 10
19.5
 20
-50.0
 30
0.0
 42
1.0
  0
VERTEX
  8
0
  6
CONTINUOUS
 10
20.5
 20
-50.0
 30
0.0
 42
1.0
  0
SEQEND
  8
0
  6
CONTINUOUS
  0
POLYLINE
  8
0
  6
CONTINUOUS
 66
     1
 10
0.0
 20
0.0
 30
0.0
 70
     1
 40
0.5
 41
0.5
 71
     2
 72
   251
  0
VERTEX
  8
0
  6
CONTINUOUS
 10
27.0
 20
-52.5
 30
0.0
 42
1.0
  0
VERTEX
  8
0
  6
CONTINUOUS
 10
28.0
 20
-52.5
 30
0.0
 42
1.0
  0
SEQEND
  8
0
  6
CONTINUOUS
  0
POLYLINE
  8
0
  6
CONTINUOUS
 66
     1
 10
0.0
 20
0.0
 30
0.0
 70
     1
 40
0.5
 41
0.5
 71
     2
 72
   251
  0
VERTEX
  8
0
  6
CONTINUOUS
 10
17.0
 20
-70.0
 30
0.0
 42
1.0
  0
VERTEX
  8
0
  6
CONTINUOUS
 10
18.0
 20
-70.0
 30
0.0
 42
1.0
  0
SEQEND
  8
0
  6
CONTINUOUS
  0
POLYLINE
  8
0
  6
CONTINUOUS
 66
     1
 10
0.0
 20
0.0
 30
0.0
 70
     1
 40
0.5
 41
0.5
 71
     2
 72
   251
  0
VERTEX
  8
0
  6
CONTINUOUS
 10
19.5
 20
-24.810016
 30
0.0
 42
1.0
  0
VERTEX
  8
0
  6
CONTINUOUS
 10
20.5
 20
-24.810016
 30
0.0
 42
1.0
  0
SEQEND
  8
0
  6
CONTINUOUS
  0
POLYLINE
  8
0
  6
CONTINUOUS
 66
     1
 10
0.0
 20
0.0
 30
0.0
 70
     1
 40
0.5
 41
0.5
 71
     2
 72
   251
  0
VERTEX
  8
0
  6
CONTINUOUS
 10
19.5
 20
-44.810016
 30
0.0
 42
1.0
  0
VERTEX
  8
0
  6
CONTINUOUS
 10
20.5
 20
-44.810016
 30
0.0
 42
1.0
  0
SEQEND
  8
0
  6
CONTINUOUS
  0
TEXT
  8
0
  6
CONTINUOUS
 10
37.568754
 20
-26.137091
 30
0.0
 40
2.0
  1
P/Q
  7
ROMANS
  0
INSERT
  8
0
  6
CONTINUOUS
  2
B507
 10
40.372369
 20
-28.028792
 30
0.0
  0
LINE
  8
BASE
  6
CENTER
 10
0.0
 20
-15.0
 30
0.0
 11
0.0
 21
20.0
 31
0.0
  0
LINE
  8
0
  6
DASHED
 10
-5.0
 20
-95.0
 30
0.0
 11
52.5
 21
-95.0
 31
0.0
  0
LINE
  8
0
  6
DASHED
 10
-5.0
 20
-70.0
 30
0.0
 11
27.5
 21
-70.0
 31
0.0
  0
LINE
  8
0
  6
DASHED
 10
-5.0
 20
-50.0
 30
0.0
 11
20.0
 21
-50.0
 31
0.0
  0
POLYLINE
  8
0
  6
CONTINUOUS
 66
     1
 10
0.0
 20
0.0
 30
0.0
 70
     1
 40
0.5
 41
0.5
  0
VERTEX
  8
0
  6
CONTINUOUS
 10
87.0
 20
-87.5
 30
0.0
 42
1.0
  0
VERTEX
  8
0
  6
CONTINUOUS
 10
88.0
 20
-87.5
 30
0.0
 42
1.0
  0
SEQEND
  8
0
  6
CONTINUOUS
  0
INSERT
  8
0
  6
CONTINUOUS
  2
BLC27
 10
93.465932
 20
-99.928451
 30
0.0
  0
LINE
  8
0
  6
DASHED
 10
95.0
 20
-97.5
 30
0.0
 11
95.0
 21
-92.5
 31
0.0
  0
LINE
  8
0
  6
CONTINUOUS
 10
80.0
 20
-102.31002
 30
0.0
 11
101.617732
 21
-102.31002
 31
0.0
  0
LINE
  8
0
  6
CONTINUOUS
 10
95.0
 20
-112.31002
 30
0.0
 11
95.0
 21
-115.0
 31
0.0
  0
ARC
  8
0
  6
CONTINUOUS
 10
93.364862
 20
-108.703905
 30
0.0
 40
1.204309
 50
90.0
 51
265.706237
  0
LINE
  8
0
  6
CONTINUOUS
 10
93.358762
 20
-109.901453
 30
0.0
 11
94.00836
 21
-109.901453
 31
0.0
  0
LINE
  8
0
  6
CONTINUOUS
 10
93.358762
 20
-107.500007
 30
0.0
 11
94.002261
 21
-107.500007
 31
0.0
  0
LINE
  8
0
  6
CONTINUOUS
 10
93.359898
 20
-112.310063
 30
0.0
 11
94.009496
 21
-112.310063
 31
0.0
  0
ARC
  8
0
  6
CONTINUOUS
 10
93.364862
 20
-111.105762
 30
0.0
 40
1.204309
 50
90.0
 51
270.0
  0
LINE
  8
0
  6
CONTINUOUS
 10
94.000897
 20
-112.31002
 30
0.0
 11
95.0
 21
-112.31002
 31
0.0
  0
LINE
  8
0
  6
CONTINUOUS
 10
93.996128
 20
-107.500004
 30
0.0
 11
94.973936
 21
-107.500004
 31
0.0
  0
LINE
  8
0
  6
CONTINUOUS
 10
94.006031
 20
-109.901444
 30
0.0
 11
94.978167
 21
-109.901444
 31
0.0
  0
LINE
  8
0
  6
CONTINUOUS
 10
95.0
 20
-107.5
 30
0.0
 11
101.617732
 21
-107.5
 31
0.0
  0
INSERT
  8
0
  6
CONTINUOUS
  2
BLC15
 10
105.0
 20
-107.642084
 30
0.0
 50
90.0
  0
INSERT
  8
0
  6
CONTINUOUS
  2
BLC15
 10
105.0
 20
-102.452104
 30
0.0
 50
90.0
  0
LINE
  8
0
  6
CONTINUOUS
 10
78.996128
 20
-107.500004
 30
0.0
 11
95.0
 21
-107.500004
 31
0.0
  0
LINE
  8
0
  6
DASHED
 10
77.5
 20
-92.5
 30
0.0
 11
110.0
 21
-92.5
 31
0.0
  0
LINE
  8
0
  6
DASHED
 10
77.5
 20
-87.5
 30
0.0
 11
110.0
 21
-87.5
 31
0.0
  0
LINE
  8
0
  6
DASHED
 10
77.5
 20
-82.5
 30
0.0
 11
110.0
 21
-82.5
 31
0.0
  0
LINE
  8
0
  6
DASHED
 10
95.0
 20
-115.0
 30
0.0
 11
95.0
 21
-125.0
 31
0.0
  0
LINE
  8
0
  6
DASHED
 10
95.0
 20
-125.0
 30
0.0
 11
47.5
 21
-125.0
 31
0.0
  0
POLYLINE
  8
0
  6
CONTINUOUS
 66
     1
 10
0.0
 20
0.0
 30
0.0
 70
     1
 40
0.5
 41
0.5
 71
     2
 72
   151
  0
VERTEX
  8
0
  6
CONTINUOUS
 10
94.5
 20
-92.5
 30
0.0
 42
1.0
  0
VERTEX
  8
0
  6
CONTINUOUS
 10
95.5
 20
-92.5
 30
0.0
 42
1.0
  0
SEQEND
  8
0
  6
CONTINUOUS
  0
ENDBLK
  8
0
  0
ENDSEC
  0
SECTION
  2
ENTITIES
  0
INSERT
  8
0
  2
1
 10
65.405438
 20
98.713066
 30
0.0
  0
INSERT
  8
0
  2
1
 10
72.541652
 20
49.71056
 30
0.0
  0
INSERT
  8
0
  2
1
 10
85.390443
 20
73.497234
 30
0.0
  0
LINE
  8
0
  6
CONTINUOUS
 62
   249
 10
207.950615
 20
199.709828
 30
0.0
 11
207.950615
 21
157.5
 31
0.0
  0
LINE
  8
0
  6
CONTINUOUS
 62
   249
 10
207.950615
 20
227.5
 30
0.0
 11
207.950615
 21
199.68832
 31
0.0
  0
LINE
  8
0
  6
CONTINUOUS
 62
   249
 10
177.5
 20
212.5
 30
0.0
 11
177.5
 21
197.5
 31
0.0
  0
LINE
  8
0
  6
CONTINUOUS
 62
   249
 10
177.5
 20
212.5
 30
0.0
 11
177.5
 21
227.5
 31
0.0
  0
LINE
  8
0
  6
CONTINUOUS
 62
   249
 10
177.5
 20
197.5
 30
0.0
 11
177.5
 21
157.5
 31
0.0
  0
LINE
  8
0
  6
CONTINUOUS
 62
   249
 10
60.0
 20
130.0
 30
0.0
 11
54.256076
 21
126.785297
 31
0.0
  0
LINE
  8
0
  6
CONTINUOUS
 62
   249
 10
72.5
 20
120.0
 30
0.0
 11
66.756076
 21
116.785297
 31
0.0
  0
LINE
  8
0
  6
CONTINUOUS
 62
   249
 10
72.5
 20
120.0
 30
0.0
 11
75.0
 21
120.0
 31
0.0
  0
LINE
  8
0
  6
CONTINUOUS
 62
   249
 10
67.5
 20
120.0
 30
0.0
 11
17.5
 21
120.0
 31
0.0
  0
LINE
  8
0
  6
DASHED
 62
   249
 10
57.5
 20
135.0
 30
0.0
 11
57.5
 21
128.600824
 31
0.0
  0
LINE
  8
0
  6
DASHED
 62
   249
 10
70.0
 20
132.5
 30
0.0
 11
70.0
 21
118.600824
 31
0.0
  0
LINE
  8
0
  6
DASHED
 62
   249
 10
82.5
 20
132.5
 30
0.0
 11
82.5
 21
103.600824
 31
0.0
  0
LINE
  8
0
  6
DASHED
 62
   249
 10
95.0
 20
132.5
 30
0.0
 11
95.0
 21
88.600824
 31
0.0
  0
LINE
  8
0
  6
DASHED
 62
   249
 10
105.0
 20
110.0
 30
0.0
 11
105.0
 21
73.600824
 31
0.0
  0
TEXT
  8
0
  6
DASHED
 62
   249
 10
53.197373
 20
130.903492
 30
0.0
 40
2.0
  1
A
  7
ROMANS
  0
TEXT
  8
0
  6
DASHED
 62
   249
 10
66.643373
 20
121.274588
 30
0.0
 40
2.0
  1
B
  7
ROMANS
  0
TEXT
  8
0
  6
DASHED
 62
   249
 10
78.555109
 20
105.634364
 30
0.0
 40
2.0
  1
C
  7
ROMANS
  0
TEXT
  8
0
  6
DASHED
 62
   249
 10
90.984014
 20
90.755752
 30
0.0
 40
2.0
  1
D
  7
ROMANS
  0
TEXT
  8
0
  6
DASHED
 62
   249
 10
100.671573
 20
75.864654
 30
0.0
 40
2.0
  1
E
  7
ROMANS
  0
LINE
  8
0
  6
CONTINUOUS
 62
   249
 10
237.5
 20
175.0
 30
0.0
 11
238.5
 21
174.0
 31
0.0
  0
LINE
  8
0
  6
CONTINUOUS
 62
   249
 10
237.5
 20
220.0
 30
0.0
 11
238.5
 21
221.0
 31
0.0
  0
LINE
  8
0
  6
CONTINUOUS
 62
   249
 10
237.5
 20
220.0
 30
0.0
 11
237.5
 21
175.0
 31
0.0
  0
LINE
  8
0
  6
CONTINUOUS
 62
   249
 10
10.80683
 20
105.0
 30
0.0
 11
10.80683
 21
94.999655
 31
0.0
  0
LINE
  8
0
  6
CONTINUOUS
 62
   249
 10
10.80683
 20
105.0
 30
0.0
 11
11.80683
 21
106.0
 31
0.0
  0
LINE
  8
0
  6
CONTINUOUS
 62
   249
 10
10.80683
 20
94.999655
 30
0.0
 11
11.80683
 21
93.999655
 31
0.0
  0
TEXT
  8
0
  6
CONTINUOUS
 62
   249
 10
5.80683
 20
126.777191
 30
0.0
 40
2.0
  1
4)
  7
ROMANS
  0
LINE
  8
0
  6
CONTINUOUS
 62
   249
 10
177.5
 20
157.5
 30
0.0
 11
207.950615
 21
157.5
 31
0.0
  0
LINE
  8
0
  6
CONTINUOUS
 62
   249
 10
105.0
 20
184.184312
 30
0.0
 11
105.0
 21
134.861159
 31
0.0
  0
LINE
  8
0
  6
CONTINUOUS
 62
   249
 10
196.745375
 20
220.499995
 30
0.0
 11
196.745375
 21
218.711864
 31
0.0
  0
LINE
  8
0
  6
CONTINUOUS
 62
   249
 10
191.345856
 20
218.487114
 30
0.0
 11
194.221966
 21
221.315673
 31
0.0
  0
ARC
  8
0
  6
HIDDEN
 62
   249
 10
195.656579
 20
223.583261
 30
0.0
 40
4.998196
 50
206.402922
 51
282.21115
  0
LINE
  8
0
  6
CONTINUOUS
 62
   249
 10
193.791263
 20
221.85288
 30
0.0
 11
194.69194
 21
220.729131
 31
0.0
  0
LINE
  8
0
  6
CONTINUOUS
 62
   249
 10
188.961711
 20
219.654717
 30
0.0
 11
196.749916
 21
219.654717
 31
0.0
  0
LINE
  8
0
  6
CONTINUOUS
 62
   249
 10
188.930679
 20
220.499995
 30
0.0
 11
188.930679
 21
218.711864
 31
0.0
  0
LINE
  8
0
  6
HIDDEN
 62
   249
 10
177.5
 20
172.5
 30
0.0
 11
197.5
 21
172.5
 31
0.0
  0
LINE
  8
0
  6
HIDDEN
 62
   249
 10
177.5
 20
167.5
 30
0.0
 11
197.5
 21
167.5
 31
0.0
  0
LINE
  8
0
  6
HIDDEN
 62
   249
 10
177.5
 20
182.5
 30
0.0
 11
197.5
 21
182.5
 31
0.0
  0
LINE
  8
0
  6
CONTINUOUS
 62
   249
 10
183.680599
 20
186.177597
 30
0.0
 11
186.026365
 21
184.842244
 31
0.0
  0
LINE
  8
0
  6
CONTINUOUS
 62
   249
 10
186.026365
 20
184.842244
 30
0.0
 11
183.680599
 21
183.652325
 31
0.0
  0
LINE
  8
0
  6
HIDDEN
 62
   249
 10
180.0
 20
212.5
 30
0.0
 11
197.5
 21
212.5
 31
0.0
  0
TEXT
  8
0
  6
CONTINUOUS
 62
   249
 10
181.270128
 20
208.598346
 30
0.0
 40
2.5
  1
I
 11
181.270128
 21
207.765013
 31
0.0
 73
     1
  0
LINE
  8
0
  6
CONTINUOUS
 62
   249
 10
188.033043
 20
209.80095
 30
0.0
 11
185.687278
 21
208.611031
 31
0.0
  0
LINE
  8
0
  6
CONTINUOUS
 62
   249
 10
185.687278
 20
211.136304
 30
0.0
 11
188.033043
 21
209.80095
 31
0.0
  0
LINE
  8
0
  6
CONTINUOUS
 62
   249
 10
186.350465
 20
209.80095
 30
0.0
 11
184.0047
 21
208.611031
 31
0.0
  0
LINE
  8
0
  6
CONTINUOUS
 62
   249
 10
184.0047
 20
211.136304
 30
0.0
 11
186.350465
 21
209.80095
 31
0.0
  0
LINE
  8
0
  6
CONTINUOUS
 62
   249
 10
196.745829
 20
210.373828
 30
0.0
 11
196.745829
 21
208.585697
 31
0.0
  0
LINE
  8
0
  6
CONTINUOUS
 62
   249
 10
191.34631
 20
208.360947
 30
0.0
 11
194.22242
 21
211.189506
 31
0.0
  0
LINE
  8
0
  6
CONTINUOUS
 62
   249
 10
193.791717
 20
211.726713
 30
0.0
 11
194.692394
 21
210.602963
 31
0.0
  0
LINE
  8
0
  6
CONTINUOUS
 62
   249
 10
188.962165
 20
209.52855
 30
0.0
 11
196.75037
 21
209.52855
 31
0.0
  0
LINE
  8
0
  6
CONTINUOUS
 62
   249
 10
188.931134
 20
210.373828
 30
0.0
 11
188.931134
 21
208.585697
 31
0.0
  0
LINE
  8
0
  6
HIDDEN
 62
   249
 10
180.0
 20
217.5
 30
0.0
 11
197.5
 21
217.5
 31
0.0
  0
LINE
  8
0
  6
CONTINUOUS
 62
   249
 10
184.0047
 20
216.783577
 30
0.0
 11
186.350465
 21
215.448224
 31
0.0
  0
LINE
  8
0
  6
CONTINUOUS
 62
   249
 10
186.350465
 20
215.448224
 30
0.0
 11
184.0047
 21
214.258305
 31
0.0
  0
LINE
  8
0
  6
CONTINUOUS
 62
   249
 10
185.687278
 20
216.783577
 30
0.0
 11
188.033043
 21
215.448224
 31
0.0
  0
LINE
  8
0
  6
CONTINUOUS
 62
   249
 10
188.033043
 20
215.448224
 30
0.0
 11
185.687278
 21
214.258305
 31
0.0
  0
TEXT
  8
0
  6
CONTINUOUS
 62
   249
 10
181.270128
 20
214.24562
 30
0.0
 40
2.5
  1
I
 11
181.270128
 21
213.412287
 31
0.0
 73
     1
  0
LINE
  8
0
  6
HIDDEN
 62
   249
 10
180.0
 20
222.5
 30
0.0
 11
197.5
 21
222.5
 31
0.0
  0
TEXT
  8
0
  6
CONTINUOUS
 62
   249
 10
181.270128
 20
218.54182
 30
0.0
 40
2.5
  1
I
 11
181.270128
 21
217.708487
 31
0.0
 73
     1
  0
LINE
  8
0
  6
CONTINUOUS
 62
   249
 10
186.406117
 20
219.744424
 30
0.0
 11
184.060351
 21
218.554505
 31
0.0
  0
LINE
  8
0
  6
CONTINUOUS
 62
   249
 10
184.060351
 20
221.079778
 30
0.0
 11
186.406117
 21
219.744424
 31
0.0
  0
LINE
  8
0
  6
CONTINUOUS
 62
   249
 10
177.5
 20
227.5
 30
0.0
 11
207.950615
 21
227.5
 31
0.0
  0
LINE
  8
0
  6
CONTINUOUS
 62
   249
 10
184.060351
 20
225.779314
 30
0.0
 11
186.406117
 21
224.44396
 31
0.0
  0
LINE
  8
0
  6
CONTINUOUS
 62
   249
 10
186.406117
 20
224.44396
 30
0.0
 11
184.060351
 21
223.254041
 31
0.0
  0
TEXT
  8
0
  6
CONTINUOUS
 62
   249
 10
181.270128
 20
223.241357
 30
0.0
 40
2.5
  1
I
 11
181.270128
 21
222.408023
 31
0.0
 73
     1
  0
TEXT
  8
0
  6
CONTINUOUS
 62
   249
 10
202.5
 20
222.5
 30
0.0
 40
2.5
  1
U1
  7
ROMANS
  0
LINE
  8
0
  6
CONTINUOUS
 62
   249
 10
204.058306
 20
219.985616
 30
0.0
 11
206.404071
 21
218.650262
 31
0.0
  0
LINE
  8
0
  6
CONTINUOUS
 62
   249
 10
206.404071
 20
218.650262
 30
0.0
 11
204.058306
 21
217.460343
 31
0.0
  0
LINE
  8
0
  6
CONTINUOUS
 62
   249
 10
50.298812
 20
212.5
 30
0.0
 11
45.0
 21
212.5
 31
0.0
  0
LINE
  8
0
  6
CONTINUOUS
 62
   249
 10
50.298812
 20
217.5
 30
0.0
 11
36.000004
 21
217.5
 31
0.0
  0
LINE
  8
0
 62
   249
 10
50.298812
 20
219.089925
 30
0.0
 11
50.298812
 21
210.9
 31
0.0
  0
LINE
  8
0
 62
   249
 10
54.504853
 20
219.09384
 30
0.0
 11
52.59105
 21
216.815018
 31
0.0
  0
LINE
  8
0
 62
   249
 10
55.996971
 20
219.09384
 30
0.0
 11
54.142636
 21
216.815018
 31
0.0
  0
LINE
  8
0
 62
   249
 10
57.721556
 20
219.089925
 30
0.0
 11
50.298812
 21
219.089925
 31
0.0
  0
LINE
  8
0
 62
   249
 10
57.721556
 20
210.9
 30
0.0
 11
57.721556
 21
219.089925
 31
0.0
  0
LINE
  8
0
  6
CONTINUOUS
 62
   249
 10
57.721556
 20
215.0
 30
0.0
 11
62.5
 21
215.0
 31
0.0
  0
LINE
  8
0
  6
CONTINUOUS
 62
   249
 10
57.721556
 20
207.5
 30
0.0
 11
165.0
 21
207.5
 31
0.0
  0
LINE
  8
0
 62
   249
 10
57.721556
 20
203.704212
 30
0.0
 11
57.721556
 21
211.589925
 31
0.0
  0
LINE
  8
0
 62
   249
 10
57.721556
 20
211.204212
 30
0.0
 11
50.298812
 21
211.204212
 31
0.0
  0
LINE
  8
0
 62
   249
 10
55.996971
 20
211.208127
 30
0.0
 11
54.142636
 21
208.929305
 31
0.0
  0
LINE
  8
0
 62
   249
 10
54.504853
 20
211.208127
 30
0.0
 11
52.59105
 21
208.929305
 31
0.0
  0
LINE
  8
0
 62
   249
 10
50.298812
 20
211.589925
 30
0.0
 11
50.298812
 21
203.704212
 31
0.0
  0
LINE
  8
0
  6
CONTINUOUS
 62
   249
 10
50.298812
 20
210.0
 30
0.0
 11
17.5
 21
210.0
 31
0.0
  0
LINE
  8
0
  6
CONTINUOUS
 62
   249
 10
50.298812
 20
205.0
 30
0.0
 11
45.0
 21
205.0
 31
0.0
  0
LINE
  8
0
 62
   249
 10
57.721556
 20
203.704212
 30
0.0
 11
50.298812
 21
203.704212
 31
0.0
  0
LINE
  8
0
  6
CONTINUOUS
 62
   249
 10
225.0
 20
72.355963
 30
0.0
 11
237.5
 21
72.355963
 31
0.0
  0
LINE
  8
0
  6
CONTINUOUS
 62
   249
 10
237.5
 20
137.5
 30
0.0
 11
230.0
 21
137.5
 31
0.0
  0
LINE
  8
0
  6
CONTINUOUS
 62
   249
 10
237.5
 20
197.5
 30
0.0
 11
230.0
 21
197.5
 31
0.0
  0
LINE
  8
0
  6
DASHED
 62
   249
 10
17.5
 20
217.5
 30
0.0
 11
15.0
 21
217.5
 31
0.0
  0
LINE
  8
0
  6
DASHED
 62
   249
 10
17.5
 20
210.0
 30
0.0
 11
15.0
 21
210.0
 31
0.0
  0
LINE
  8
0
  6
DASHED
 62
   249
 10
17.5
 20
205.0
 30
0.0
 11
15.0
 21
205.0
 31
0.0
  0
LINE
  8
0
  6
CONTINUOUS
 62
   249
 10
9.728516
 20
204.999655
 30
0.0
 11
10.728516
 21
203.999655
 31
0.0
  0
LINE
  8
0
  6
CONTINUOUS
 62
   249
 10
9.728516
 20
217.5
 30
0.0
 11
10.728516
 21
218.5
 31
0.0
  0
LINE
  8
0
  6
CONTINUOUS
 62
   249
 10
9.728516
 20
217.5
 30
0.0
 11
9.728516
 21
204.999655
 31
0.0
  0
LINE
  8
0
  6
DASHED
 62
   249
 10
17.5
 20
105.0
 30
0.0
 11
12.5
 21
105.0
 31
0.0
  0
LINE
  8
0
  6
DASHED
 62
   249
 10
17.5
 20
95.0
 30
0.0
 11
12.5
 21
95.0
 31
0.0
  0
LINE
  8
0
  6
DASHED
 62
   249
 10
17.5
 20
90.0
 30
0.0
 11
12.5
 21
90.0
 31
0.0
  0
LINE
  8
0
  6
DASHED
 62
   249
 10
17.5
 20
75.0
 30
0.0
 11
12.5
 21
75.0
 31
0.0
  0
LINE
  8
0
  6
CONTINUOUS
 62
   249
 10
10.80683
 20
90.0
 30
0.0
 11
11.80683
 21
91.0
 31
0.0
  0
LINE
  8
0
  6
CONTINUOUS
 62
   249
 10
10.80683
 20
64.999655
 30
0.0
 11
11.80683
 21
63.999655
 31
0.0
  0
LINE
  8
0
  6
CONTINUOUS
 62
   249
 10
10.80683
 20
90.0
 30
0.0
 11
10.80683
 21
64.999655
 31
0.0
  0
TEXT
  8
0
  6
CONTINUOUS
 62
   249
 10
201.037884
 20
173.952113
 30
0.0
 40
2.5
  1
U
  7
GREEKS
  0
LINE
  8
0
  6
CONTINUOUS
 62
   249
 10
45.0
 20
205.0
 30
0.0
 11
17.5
 21
205.0
 31
0.0
  0
LINE
  8
0
  6
CONTINUOUS
 62
   249
 10
45.0
 20
212.5
 30
0.0
 11
45.0
 21
205.0
 31
0.0
  0
LINE
  8
0
  6
CONTINUOUS
 62
   249
 10
187.400936
 20
177.460055
 30
0.0
 11
189.900936
 21
177.460055
 31
0.0
  0
LINE
  8
0
  6
CONTINUOUS
 62
   249
 10
187.400936
 20
177.460055
 30
0.0
 11
185.176489
 21
176.899413
 31
0.0
  0
LINE
  8
0
  6
CONTINUOUS
 62
   249
 10
182.400936
 20
177.460055
 30
0.0
 11
184.900936
 21
177.460055
 31
0.0
  0
TEXT
  8
0
  6
HIDDEN
 62
   249
 10
178.580478
 20
176.726807
 30
0.0
 40
1.5
  1
EN
  0
TEXT
  8
0
  6
HIDDEN
 62
   249
 10
178.580478
 20
179.667847
 30
0.0
 40
1.5
  1
EN
  0
LINE
  8
0
  6
CONTINUOUS
 62
   249
 10
182.400936
 20
180.401095
 30
0.0
 11
184.900936
 21
180.401095
 31
0.0
  0
LINE
  8
0
  6
CONTINUOUS
 62
   249
 10
187.400936
 20
180.401095
 30
0.0
 11
185.176489
 21
179.840453
 31
0.0
  0
LINE
  8
0
  6
CONTINUOUS
 62
   249
 10
187.400936
 20
180.401095
 30
0.0
 11
189.900936
 21
180.401095
 31
0.0
  0
LINE
  8
0
  6
CONTINUOUS
 62
   249
 10
175.51273
 20
162.471652
 30
0.0
 11
167.5
 21
162.471652
 31
0.0
  0
LINE
  8
0
  6
CONTINUOUS
 62
   249
 10
175.51273
 20
165.500813
 30
0.0
 11
165.0
 21
165.500813
 31
0.0
  0
CIRCLE
  8
0
  6
CONTINUOUS
 62
   249
 10
176.512659
 20
165.494509
 30
0.0
 40
1.0
  0
CIRCLE
  8
0
  6
CONTINUOUS
 62
   249
 10
176.512659
 20
162.465349
 30
0.0
 40
1.0
  0
LINE
  8
0
  6
CONTINUOUS
 62
   249
 10
188.931134
 20
175.090902
 30
0.0
 11
188.931134
 21
173.30277
 31
0.0
  0
LINE
  8
0
  6
CONTINUOUS
 62
   249
 10
188.962165
 20
174.245623
 30
0.0
 11
196.75037
 21
174.245623
 31
0.0
  0
LINE
  8
0
  6
CONTINUOUS
 62
   249
 10
193.791717
 20
176.443786
 30
0.0
 11
194.692394
 21
175.320037
 31
0.0
  0
LINE
  8
0
  6
CONTINUOUS
 62
   249
 10
191.34631
 20
173.078021
 30
0.0
 11
194.22242
 21
175.906579
 31
0.0
  0
LINE
  8
0
  6
CONTINUOUS
 62
   249
 10
196.745829
 20
175.090902
 30
0.0
 11
196.745829
 21
173.30277
 31
0.0
  0
LINE
  8
0
  6
CONTINUOUS
 62
   249
 10
183.329204
 20
171.061795
 30
0.0
 11
185.674969
 21
169.726442
 31
0.0
  0
LINE
  8
0
  6
CONTINUOUS
 62
   249
 10
185.674969
 20
169.726442
 30
0.0
 11
183.329204
 21
168.536523
 31
0.0
  0
LINE
  8
0
  6
CONTINUOUS
 62
   249
 10
185.071688
 20
171.061795
 30
0.0
 11
187.417454
 21
169.726442
 31
0.0
  0
LINE
  8
0
  6
CONTINUOUS
 62
   249
 10
187.417454
 20
169.726442
 30
0.0
 11
185.071688
 21
168.536523
 31
0.0
  0
LINE
  8
0
  6
CONTINUOUS
 62
   249
 10
187.400936
 20
165.401095
 30
0.0
 11
189.900936
 21
165.401095
 31
0.0
  0
LINE
  8
0
  6
CONTINUOUS
 62
   249
 10
187.400936
 20
165.401095
 30
0.0
 11
185.176489
 21
164.840453
 31
0.0
  0
LINE
  8
0
  6
CONTINUOUS
 62
   249
 10
182.400936
 20
165.401095
 30
0.0
 11
184.900936
 21
165.401095
 31
0.0
  0
TEXT
  8
0
  6
HIDDEN
 62
   249
 10
178.580478
 20
164.667847
 30
0.0
 40
1.5
  1
EN
  0
TEXT
  8
0
  6
HIDDEN
 62
   249
 10
178.580478
 20
161.726807
 30
0.0
 40
1.5
  1
EN
  0
LINE
  8
0
  6
CONTINUOUS
 62
   249
 10
182.400936
 20
162.460055
 30
0.0
 11
184.900936
 21
162.460055
 31
0.0
  0
LINE
  8
0
  6
CONTINUOUS
 62
   249
 10
187.400936
 20
162.460055
 30
0.0
 11
185.176489
 21
161.899413
 31
0.0
  0
LINE
  8
0
  6
CONTINUOUS
 62
   249
 10
187.400936
 20
162.460055
 30
0.0
 11
189.900936
 21
162.460055
 31
0.0
  0
LINE
  8
0
  6
CONTINUOUS
 62
   249
 10
196.745829
 20
159.989158
 30
0.0
 11
196.745829
 21
158.201026
 31
0.0
  0
LINE
  8
0
  6
CONTINUOUS
 62
   249
 10
191.34631
 20
157.976276
 30
0.0
 11
194.22242
 21
160.804835
 31
0.0
  0
LINE
  8
0
  6
CONTINUOUS
 62
   249
 10
193.791717
 20
161.342042
 30
0.0
 11
194.692394
 21
160.218293
 31
0.0
  0
LINE
  8
0
  6
CONTINUOUS
 62
   249
 10
188.962165
 20
159.143879
 30
0.0
 11
196.75037
 21
159.143879
 31
0.0
  0
LINE
  8
0
  6
CONTINUOUS
 62
   249
 10
188.931134
 20
159.989158
 30
0.0
 11
188.931134
 21
158.201026
 31
0.0
  0
TEXT
  8
0
  6
CONTINUOUS
 62
   249
 10
202.5
 20
183.275586
 30
0.0
 40
2.5
  1
U2
  7
ROMANS
  0
LINE
  8
0
  6
CONTINUOUS
 62
   249
 10
237.5
 20
86.102917
 30
0.0
 11
237.5
 21
58.602917
 31
0.0
  0
LINE
  8
0
  6
CONTINUOUS
 62
   249
 10
237.5
 20
58.602917
 30
0.0
 11
238.5
 21
57.602917
 31
0.0
  0
LINE
  8
0
  6
CONTINUOUS
 62
   249
 10
237.5
 20
86.102917
 30
0.0
 11
238.5
 21
87.102917
 31
0.0
  0
LINE
  8
0
  6
CONTINUOUS
 62
   249
 10
237.5
 20
132.5
 30
0.0
 11
238.5
 21
131.5
 31
0.0
  0
LINE
  8
0
  6
CONTINUOUS
 62
   249
 10
237.5
 20
162.5
 30
0.0
 11
238.5
 21
163.5
 31
0.0
  0
LINE
  8
0
  6
CONTINUOUS
 62
   249
 10
237.5
 20
162.5
 30
0.0
 11
237.5
 21
152.5
 31
0.0
  0
TEXT
  8
0
  6
CONTINUOUS
 62
   249
 10
49.136438
 20
151.7654
 30
0.0
 40
2.0
  1
SGR
 50
90.0
  7
ROMANS
  0
LINE
  8
0
  6
CONTINUOUS
 62
   249
 10
52.5
 20
155.0
 30
0.0
 11
52.5
 21
175.0
 31
0.0
  0
LINE
  8
0
  6
CONTINUOUS
 62
   249
 10
52.5
 20
150.0
 30
0.0
 11
50.785914
 21
155.086297
 31
0.0
  0
LINE
  8
0
  6
CONTINUOUS
 62
   249
 10
52.5
 20
145.0
 30
0.0
 11
52.5
 21
150.0
 31
0.0
  0
TEXT
  8
0
  6
CONTINUOUS
 62
   249
 10
57.867753
 20
141.464455
 30
0.0
 40
2.5
  1
1
 11
57.867753
 21
140.631122
 31
0.0
 73
     1
  0
LINE
  8
0
  6
CONTINUOUS
 62
   249
 10
53.433891
 20
144.124549
 30
0.0
 11
55.779656
 21
142.789195
 31
0.0
  0
LINE
  8
0
  6
CONTINUOUS
 62
   249
 10
53.425849
 20
140.799262
 30
0.0
 11
55.80931
 21
141.987454
 31
0.0
  0
LINE
  8
0
  6
CONTINUOUS
 62
   249
 10
55.779656
 20
142.789195
 30
0.0
 11
53.433891
 21
141.599276
 31
0.0
  0
LINE
  8
0
  6
CONTINUOUS
 62
   249
 10
57.5
 20
147.5
 30
0.0
 11
57.5
 21
150.0
 31
0.0
  0
LINE
  8
0
  6
CONTINUOUS
 62
   249
 10
57.5
 20
140.0
 30
0.0
 11
57.5
 21
135.0
 31
0.0
  0
LINE
  8
0
  6
CONTINUOUS
 62
   249
 10
61.078314
 20
145.0
 30
0.0
 11
51.078314
 21
145.0
 31
0.0
  0
LINE
  8
0
  6
CONTINUOUS
 62
   249
 10
61.078314
 20
145.0
 30
0.0
 11
61.078314
 21
140.0
 31
0.0
  0
LINE
  8
0
  6
CONTINUOUS
 62
   249
 10
55.0
 20
145.0
 30
0.0
 11
55.0
 21
191.992731
 31
0.0
  0
LINE
  8
0
  6
CONTINUOUS
 62
   249
 10
51.078314
 20
140.0
 30
0.0
 11
61.078314
 21
140.0
 31
0.0
  0
LINE
  8
0
  6
CONTINUOUS
 62
   249
 10
51.078314
 20
145.0
 30
0.0
 11
51.078314
 21
140.0
 31
0.0
  0
LINE
  8
0
  6
CONTINUOUS
 62
   249
 10
65.0
 20
145.0
 30
0.0
 11
75.0
 21
145.0
 31
0.0
  0
LINE
  8
0
  6
CONTINUOUS
 62
   249
 10
75.0
 20
145.0
 30
0.0
 11
75.0
 21
140.0
 31
0.0
  0
LINE
  8
0
  6
CONTINUOUS
 62
   249
 10
75.0
 20
140.0
 30
0.0
 11
65.0
 21
140.0
 31
0.0
  0
LINE
  8
0
  6
CONTINUOUS
 62
   249
 10
65.0
 20
140.0
 30
0.0
 11
65.0
 21
145.0
 31
0.0
  0
LINE
  8
0
  6
CONTINUOUS
 62
   249
 10
69.207396
 20
142.789195
 30
0.0
 11
66.86163
 21
141.599276
 31
0.0
  0
LINE
  8
0
  6
CONTINUOUS
 62
   249
 10
66.853589
 20
140.799262
 30
0.0
 11
69.237049
 21
141.987454
 31
0.0
  0
LINE
  8
0
  6
CONTINUOUS
 62
   249
 10
66.86163
 20
144.124549
 30
0.0
 11
69.207396
 21
142.789195
 31
0.0
  0
TEXT
  8
0
  6
CONTINUOUS
 62
   249
 10
71.295492
 20
141.464455
 30
0.0
 40
2.5
  1
1
 11
71.295492
 21
140.631122
 31
0.0
 73
     1
  0
TEXT
  8
0
  6
CONTINUOUS
 62
   249
 10
83.795492
 20
141.464455
 30
0.0
 40
2.5
  1
1
 11
83.795492
 21
140.631122
 31
0.0
 73
     1
  0
LINE
  8
0
  6
CONTINUOUS
 62
   249
 10
79.36163
 20
144.124549
 30
0.0
 11
81.707396
 21
142.789195
 31
0.0
  0
LINE
  8
0
  6
CONTINUOUS
 62
   249
 10
79.353589
 20
140.799262
 30
0.0
 11
81.737049
 21
141.987454
 31
0.0
  0
LINE
  8
0
  6
CONTINUOUS
 62
   249
 10
81.707396
 20
142.789195
 30
0.0
 11
79.36163
 21
141.599276
 31
0.0
  0
LINE
  8
0
  6
CONTINUOUS
 62
   249
 10
77.5
 20
140.0
 30
0.0
 11
77.5
 21
145.0
 31
0.0
  0
LINE
  8
0
  6
CONTINUOUS
 62
   249
 10
87.5
 20
140.0
 30
0.0
 11
77.5
 21
140.0
 31
0.0
  0
LINE
  8
0
  6
CONTINUOUS
 62
   249
 10
87.5
 20
145.0
 30
0.0
 11
87.5
 21
140.0
 31
0.0
  0
LINE
  8
0
  6
CONTINUOUS
 62
   249
 10
77.5
 20
145.0
 30
0.0
 11
87.5
 21
145.0
 31
0.0
  0
LINE
  8
0
  6
CONTINUOUS
 62
   249
 10
90.0
 20
145.0
 30
0.0
 11
97.5
 21
145.0
 31
0.0
  0
LINE
  8
0
  6
CONTINUOUS
 62
   249
 10
97.5
 20
145.0
 30
0.0
 11
97.5
 21
140.0
 31
0.0
  0
LINE
  8
0
  6
CONTINUOUS
 62
   249
 10
97.5
 20
140.0
 30
0.0
 11
90.0
 21
140.0
 31
0.0
  0
LINE
  8
0
  6
CONTINUOUS
 62
   249
 10
90.0
 20
140.0
 30
0.0
 11
90.0
 21
145.0
 31
0.0
  0
LINE
  8
0
  6
CONTINUOUS
 62
   249
 10
93.752108
 20
142.789195
 30
0.0
 11
91.406342
 21
141.599276
 31
0.0
  0
LINE
  8
0
  6
CONTINUOUS
 62
   249
 10
91.3983
 20
140.799262
 30
0.0
 11
93.781761
 21
141.987454
 31
0.0
  0
LINE
  8
0
  6
CONTINUOUS
 62
   249
 10
91.406342
 20
144.124549
 30
0.0
 11
93.752108
 21
142.789195
 31
0.0
  0
TEXT
  8
0
  6
CONTINUOUS
 62
   249
 10
95.840204
 20
141.464455
 30
0.0
 40
2.5
  1
1
 11
95.840204
 21
140.631122
 31
0.0
 73
     1
  0
LINE
  8
0
  6
CONTINUOUS
 62
   249
 10
92.5
 20
145.0
 30
0.0
 11
92.5
 21
150.0
 31
0.0
  0
LINE
  8
0
  6
CONTINUOUS
 62
   249
 10
92.5
 20
150.0
 30
0.0
 11
90.785914
 21
155.086297
 31
0.0
  0
LINE
  8
0
  6
CONTINUOUS
 62
   249
 10
92.5
 20
155.0
 30
0.0
 11
92.5
 21
157.5
 31
0.0
  0
LINE
  8
0
  6
CONTINUOUS
 62
   249
 10
85.0
 20
145.0
 30
0.0
 11
85.0
 21
150.0
 31
0.0
  0
LINE
  8
0
  6
CONTINUOUS
 62
   249
 10
85.0
 20
150.0
 30
0.0
 11
83.285914
 21
155.086297
 31
0.0
  0
LINE
  8
0
  6
CONTINUOUS
 62
   249
 10
85.0
 20
155.0
 30
0.0
 11
85.0
 21
167.5
 31
0.0
  0
LINE
  8
0
  6
CONTINUOUS
 62
   249
 10
72.5
 20
155.0
 30
0.0
 11
72.5
 21
167.5
 31
0.0
  0
LINE
  8
0
  6
CONTINUOUS
 62
   249
 10
72.5
 20
150.0
 30
0.0
 11
70.785914
 21
155.086297
 31
0.0
  0
LINE
  8
0
  6
CONTINUOUS
 62
   249
 10
72.5
 20
145.0
 30
0.0
 11
72.5
 21
150.0
 31
0.0
  0
LINE
  8
0
  6
CONTINUOUS
 62
   249
 10
67.5
 20
145.0
 30
0.0
 11
67.5
 21
150.0
 31
0.0
  0
LINE
  8
0
  6
CONTINUOUS
 62
   249
 10
67.5
 20
150.0
 30
0.0
 11
65.785914
 21
155.086297
 31
0.0
  0
TEXT
  8
0
  6
CONTINUOUS
 62
   249
 10
52.174687
 20
152.5
 30
0.0
 40
2.0
  1
3
  7
ROMANS
  0
TEXT
  8
0
  6
CONTINUOUS
 62
   249
 10
67.235509
 20
152.5
 30
0.0
 40
2.0
  1
2
  7
ROMANS
  0
TEXT
  8
0
  6
CONTINUOUS
 62
   249
 10
72.337321
 20
152.5
 30
0.0
 40
2.0
  1
7
  7
ROMANS
  0
TEXT
  8
0
  6
CONTINUOUS
 62
   249
 10
85.158737
 20
152.5
 30
0.0
 40
2.0
  1
8
  7
ROMANS
  0
TEXT
  8
0
  6
CONTINUOUS
 62
   249
 10
92.832204
 20
152.5
 30
0.0
 40
2.0
  1
1
  7
ROMANS
  0
LINE
  8
0
  6
CONTINUOUS
 62
   249
 10
57.5
 20
145.0
 30
0.0
 11
57.5
 21
202.165835
 31
0.0
  0
LINE
  8
0
  6
CONTINUOUS
 62
   249
 10
55.0
 20
130.0
 30
0.0
 11
37.5
 21
130.0
 31
0.0
  0
LINE
  8
0
  6
CONTINUOUS
 62
   249
 10
62.5
 20
130.0
 30
0.0
 11
62.5
 21
125.0
 31
0.0
  0
LINE
  8
0
  6
CONTINUOUS
 62
   249
 10
62.5
 20
125.0
 30
0.0
 11
37.5
 21
125.0
 31
0.0
  0
LINE
  8
0
  6
CONTINUOUS
 62
   249
 10
60.0
 20
130.0
 30
0.0
 11
62.5
 21
130.0
 31
0.0
  0
LINE
  8
0
  6
CONTINUOUS
 62
   249
 10
75.0
 20
120.0
 30
0.0
 11
75.0
 21
115.0
 31
0.0
  0
LINE
  8
0
  6
CONTINUOUS
 62
   249
 10
75.0
 20
115.0
 30
0.0
 11
37.5
 21
115.0
 31
0.0
  0
LINE
  8
0
  6
CONTINUOUS
 62
   249
 10
118.318812
 20
135.0
 30
0.0
 11
118.318812
 21
130.0
 31
0.0
  0
LINE
  8
0
  6
CONTINUOUS
 62
   249
 10
118.318812
 20
130.0
 30
0.0
 11
110.818812
 21
130.0
 31
0.0
  0
LINE
  8
0
  6
CONTINUOUS
 62
   249
 10
110.818812
 20
130.0
 30
0.0
 11
110.818812
 21
135.0
 31
0.0
  0
LINE
  8
0
  6
CONTINUOUS
 62
   249
 10
110.818812
 20
135.0
 30
0.0
 11
118.318812
 21
135.0
 31
0.0
  0
LINE
  8
0
  6
CONTINUOUS
 62
   249
 10
121.41379
 20
135.0
 30
0.0
 11
133.530389
 21
135.0
 31
0.0
  0
LINE
  8
0
  6
CONTINUOUS
 62
   249
 10
133.530389
 20
135.0
 30
0.0
 11
133.530389
 21
130.0
 31
0.0
  0
LINE
  8
0
  6
CONTINUOUS
 62
   249
 10
133.530389
 20
130.0
 30
0.0
 11
121.41379
 21
130.0
 31
0.0
  0
LINE
  8
0
  6
CONTINUOUS
 62
   249
 10
121.41379
 20
130.0
 30
0.0
 11
121.41379
 21
135.0
 31
0.0
  0
LINE
  8
0
  6
CONTINUOUS
 62
   249
 10
126.829949
 20
132.789195
 30
0.0
 11
124.484184
 21
131.599276
 31
0.0
  0
LINE
  8
0
  6
CONTINUOUS
 62
   249
 10
124.476142
 20
130.799262
 30
0.0
 11
126.859603
 21
131.987454
 31
0.0
  0
LINE
  8
0
  6
CONTINUOUS
 62
   249
 10
124.484184
 20
134.124549
 30
0.0
 11
126.829949
 21
132.789195
 31
0.0
  0
TEXT
  8
0
  6
CONTINUOUS
 62
   249
 10
128.918046
 20
131.464455
 30
0.0
 40
2.5
  1
1
 11
128.918046
 21
130.631122
 31
0.0
 73
     1
  0
TEXT
  8
0
  6
CONTINUOUS
 62
   249
 10
141.342682
 20
131.464455
 30
0.0
 40
2.5
  1
1
 11
141.342682
 21
130.631122
 31
0.0
 73
     1
  0
LINE
  8
0
  6
CONTINUOUS
 62
   249
 10
136.90882
 20
134.124549
 30
0.0
 11
139.254586
 21
132.789195
 31
0.0
  0
LINE
  8
0
  6
CONTINUOUS
 62
   249
 10
136.900779
 20
130.799262
 30
0.0
 11
139.284239
 21
131.987454
 31
0.0
  0
LINE
  8
0
  6
CONTINUOUS
 62
   249
 10
139.254586
 20
132.789195
 30
0.0
 11
136.90882
 21
131.599276
 31
0.0
  0
LINE
  8
0
  6
CONTINUOUS
 62
   249
 10
135.0
 20
130.0
 30
0.0
 11
135.0
 21
135.0
 31
0.0
  0
LINE
  8
0
  6
CONTINUOUS
 62
   249
 10
147.5
 20
130.0
 30
0.0
 11
135.0
 21
130.0
 31
0.0
  0
LINE
  8
0
  6
CONTINUOUS
 62
   249
 10
147.5
 20
135.0
 30
0.0
 11
147.5
 21
130.0
 31
0.0
  0
LINE
  8
0
  6
CONTINUOUS
 62
   249
 10
135.0
 20
135.0
 30
0.0
 11
147.5
 21
135.0
 31
0.0
  0
LINE
  8
0
  6
CONTINUOUS
 62
   249
 10
142.5
 20
87.5
 30
0.0
 11
142.5
 21
90.0
 31
0.0
  0
LINE
  8
0
  6
CONTINUOUS
 62
   249
 10
70.0
 20
132.5
 30
0.0
 11
70.0
 21
140.0
 31
0.0
  0
LINE
  8
0
  6
CONTINUOUS
 62
   249
 10
82.5
 20
132.5
 30
0.0
 11
82.5
 21
140.0
 31
0.0
  0
LINE
  8
0
  6
CONTINUOUS
 62
   249
 10
95.0
 20
132.5
 30
0.0
 11
95.0
 21
140.0
 31
0.0
  0
LINE
  8
0
  6
CONTINUOUS
 62
   249
 10
115.818812
 20
130.0
 30
0.0
 11
115.818812
 21
50.0
 31
0.0
  0
LINE
  8
0
  6
CONTINUOUS
 62
   249
 10
127.5
 20
130.0
 30
0.0
 11
127.5
 21
50.0
 31
0.0
  0
LINE
  8
0
  6
CONTINUOUS
 62
   249
 10
142.5
 20
130.0
 30
0.0
 11
142.5
 21
50.0
 31
0.0
  0
TEXT
  8
0
  6
CONTINUOUS
 62
   249
 10
113.806984
 20
131.455036
 30
0.0
 40
2.5
  1
&
  7
GREEKS
  0
CIRCLE
  8
0
  6
CONTINUOUS
 62
   249
 10
113.318318
 20
135.707385
 30
0.0
 40
0.707409
  0
LINE
  8
0
  6
CONTINUOUS
 62
   249
 10
92.5
 20
157.5
 30
0.0
 11
92.5
 21
210.0
 31
0.0
  0
LINE
  8
0
  6
CONTINUOUS
 62
   249
 10
92.5
 20
210.0
 30
0.0
 11
177.5
 21
210.0
 31
0.0
  0
LINE
  8
0
  6
CONTINUOUS
 62
   249
 10
95.0
 20
145.0
 30
0.0
 11
95.0
 21
197.5
 31
0.0
  0
LINE
  8
0
  6
CONTINUOUS
 62
   249
 10
95.0
 20
197.5
 30
0.0
 11
177.5
 21
197.5
 31
0.0
  0
LINE
  8
0
  6
CONTINUOUS
 62
   249
 10
105.0
 20
184.184312
 30
0.0
 11
177.5
 21
184.184312
 31
0.0
  0
LINE
  8
0
  6
CONTINUOUS
 62
   249
 10
62.5
 20
215.0
 30
0.0
 11
167.5
 21
215.0
 31
0.0
  0
LINE
  8
0
  6
CONTINUOUS
 62
   249
 10
167.5
 20
215.0
 30
0.0
 11
167.5
 21
162.471652
 31
0.0
  0
LINE
  8
0
  6
CONTINUOUS
 62
   249
 10
165.0
 20
207.5
 30
0.0
 11
165.0
 21
165.500813
 31
0.0
  0
LINE
  8
0
  6
CONTINUOUS
 62
   249
 10
142.5
 20
170.0
 30
0.0
 11
142.5
 21
135.0
 31
0.0
  0
LINE
  8
0
  6
CONTINUOUS
 62
   249
 10
52.5
 20
148.555194
 30
0.0
 11
113.318812
 21
148.555194
 31
0.0
  0
LINE
  8
0
  6
CONTINUOUS
 62
   249
 10
17.5
 20
105.0
 30
0.0
 11
80.0
 21
105.0
 31
0.0
  0
LINE
  8
0
  6
CONTINUOUS
 62
   249
 10
80.0
 20
100.0
 30
0.0
 11
17.5
 21
100.0
 31
0.0
  0
LINE
  8
0
  6
CONTINUOUS
 62
   249
 10
80.0
 20
100.0
 30
0.0
 11
80.0
 21
102.5
 31
0.0
  0
LINE
  8
0
  6
CONTINUOUS
 62
   249
 10
85.0
 20
105.0
 30
0.0
 11
87.5
 21
105.0
 31
0.0
  0
LINE
  8
0
  6
CONTINUOUS
 62
   249
 10
85.0
 20
105.0
 30
0.0
 11
79.256076
 21
101.785297
 31
0.0
  0
LINE
  8
0
  6
CONTINUOUS
 62
   249
 10
97.5
 20
90.0
 30
0.0
 11
91.756076
 21
86.785297
 31
0.0
  0
LINE
  8
0
  6
CONTINUOUS
 62
   249
 10
97.5
 20
90.0
 30
0.0
 11
100.0
 21
90.0
 31
0.0
  0
LINE
  8
0
  6
CONTINUOUS
 62
   249
 10
92.5
 20
85.0
 30
0.0
 11
92.5
 21
87.5
 31
0.0
  0
LINE
  8
0
  6
CONTINUOUS
 62
   249
 10
92.5
 20
85.0
 30
0.0
 11
17.5
 21
85.0
 31
0.0
  0
LINE
  8
0
  6
CONTINUOUS
 62
   249
 10
17.5
 20
90.0
 30
0.0
 11
92.5
 21
90.0
 31
0.0
  0
LINE
  8
0
  6
CONTINUOUS
 62
   249
 10
17.5
 20
75.0
 30
0.0
 11
102.5
 21
75.0
 31
0.0
  0
LINE
  8
0
  6
CONTINUOUS
 62
   249
 10
102.5
 20
70.0
 30
0.0
 11
17.5
 21
70.0
 31
0.0
  0
LINE
  8
0
  6
CONTINUOUS
 62
   249
 10
102.5
 20
70.0
 30
0.0
 11
102.5
 21
72.5
 31
0.0
  0
LINE
  8
0
  6
CONTINUOUS
 62
   249
 10
107.5
 20
75.0
 30
0.0
 11
110.0
 21
75.0
 31
0.0
  0
LINE
  8
0
  6
CONTINUOUS
 62
   249
 10
107.5
 20
75.0
 30
0.0
 11
101.756076
 21
71.785297
 31
0.0
  0
LINE
  8
0
  6
CONTINUOUS
 62
   249
 10
87.5
 20
105.0
 30
0.0
 11
87.5
 21
95.0
 31
0.0
  0
LINE
  8
0
  6
CONTINUOUS
 62
   249
 10
87.5
 20
95.0
 30
0.0
 11
37.5
 21
95.0
 31
0.0
  0
LINE
  8
0
  6
CONTINUOUS
 62
   249
 10
100.0
 20
90.0
 30
0.0
 11
100.0
 21
80.0
 31
0.0
  0
LINE
  8
0
  6
CONTINUOUS
 62
   249
 10
100.0
 20
80.0
 30
0.0
 11
37.5
 21
80.0
 31
0.0
  0
LINE
  8
0
  6
CONTINUOUS
 62
   249
 10
110.0
 20
75.0
 30
0.0
 11
110.0
 21
65.0
 31
0.0
  0
LINE
  8
0
  6
CONTINUOUS
 62
   249
 10
110.0
 20
65.0
 30
0.0
 11
37.5
 21
65.0
 31
0.0
  0
LINE
  8
0
  6
CONTINUOUS
 62
   249
 10
177.5
 20
191.992731
 30
0.0
 11
55.0
 21
191.992731
 31
0.0
  0
LINE
  8
0
  6
CONTINUOUS
 62
   249
 10
177.5
 20
202.165835
 30
0.0
 11
57.5
 21
202.165835
 31
0.0
  0
LINE
  8
0
  6
CONTINUOUS
 62
   249
 10
82.5
 20
160.0
 30
0.0
 11
82.5
 21
145.0
 31
0.0
  0
LINE
  8
0
  6
CONTINUOUS
 62
   249
 10
140.0
 20
135.0
 30
0.0
 11
140.0
 21
175.0
 31
0.0
  0
LINE
  8
0
  6
CONTINUOUS
 62
   249
 10
137.5
 20
135.0
 30
0.0
 11
137.5
 21
185.0
 31
0.0
  0
LINE
  8
0
  6
CONTINUOUS
 62
   249
 10
130.0
 20
135.0
 30
0.0
 11
130.0
 21
191.992731
 31
0.0
  0
LINE
  8
0
  6
CONTINUOUS
 62
   249
 10
127.5
 20
135.0
 30
0.0
 11
127.5
 21
197.5
 31
0.0
  0
LINE
  8
0
  6
CONTINUOUS
 62
   249
 10
125.0
 20
135.0
 30
0.0
 11
125.0
 21
202.165835
 31
0.0
  0
LINE
  8
0
  6
CONTINUOUS
 62
   249
 10
115.818812
 20
135.0
 30
0.0
 11
115.818812
 21
175.0
 31
0.0
  0
TEXT
  8
0
  6
HIDDEN
 62
   249
 10
18.733045
 20
207.449416
 30
0.0
 40
2.0
  1
108:X2:10
  7
ROMANS
  0
TEXT
  8
0
  6
HIDDEN
 62
   249
 10
18.733045
 20
202.309022
 30
0.0
 40
2.0
  1
108:X2:11
  7
ROMANS
  0
TEXT
  8
0
  6
HIDDEN
 62
   249
 10
38.6717
 20
117.11975
 30
0.0
 40
2.0
  1
108:X1:7
  7
ROMANS
  0
TEXT
  8
0
  6
HIDDEN
 62
   249
 10
38.6717
 20
102.273092
 30
0.0
 40
2.0
  1
108:X2:3
  7
ROMANS
  0
TEXT
  8
0
  6
HIDDEN
 62
   249
 10
38.6717
 20
97.342565
 30
0.0
 40
2.0
  1
108:X2:1
  7
ROMANS
  0
TEXT
  8
0
  6
HIDDEN
 62
   249
 10
38.6717
 20
87.195117
 30
0.0
 40
2.0
  1
108:X2:6
  7
ROMANS
  0
TEXT
  8
0
  6
HIDDEN
 62
   249
 10
38.6717
 20
82.418802
 30
0.0
 40
2.0
  1
108:X2:4
  7
ROMANS
  0
TEXT
  8
0
  6
HIDDEN
 62
   249
 10
38.6717
 20
77.190866
 30
0.0
 40
2.0
  1
108:X2:5
  7
ROMANS
  0
TEXT
  8
0
  6
HIDDEN
 62
   249
 10
38.6717
 20
72.260338
 30
0.0
 40
2.0
  1
108:X2:9
  7
ROMANS
  0
TEXT
  8
0
  6
HIDDEN
 62
   249
 10
38.6717
 20
67.186614
 30
0.0
 40
2.0
  1
108:X2:7
  7
ROMANS
  0
TEXT
  8
0
  6
HIDDEN
 62
   249
 10
4.684404
 20
228.739977
 30
0.0
 40
2.0
  1
2)
  7
ROMANS
  0
LINE
  8
0
  6
DASHED
 62
   249
 10
17.5
 20
130.0
 30
0.0
 11
12.5
 21
130.0
 31
0.0
  0
LINE
  8
0
  6
DASHED
 62
   249
 10
17.5
 20
125.0
 30
0.0
 11
12.5
 21
125.0
 31
0.0
  0
LINE
  8
0
  6
DASHED
 62
   249
 10
17.5
 20
115.0
 30
0.0
 11
12.5
 21
115.0
 31
0.0
  0
LINE
  8
0
  6
DASHED
 62
   249
 10
17.5
 20
120.0
 30
0.0
 11
12.5
 21
120.0
 31
0.0
  0
LINE
  8
0
  6
CONTINUOUS
 62
   249
 10
10.80683
 20
120.0
 30
0.0
 11
11.80683
 21
121.0
 31
0.0
  0
LINE
  8
0
  6
CONTINUOUS
 62
   249
 10
10.80683
 20
114.999655
 30
0.0
 11
11.80683
 21
113.999655
 31
0.0
  0
LINE
  8
0
  6
CONTINUOUS
 62
   249
 10
10.80683
 20
120.0
 30
0.0
 11
10.80683
 21
115.0
 31
0.0
  0
LINE
  8
0
  6
DASHED
 62
   249
 10
17.5
 20
65.0
 30
0.0
 11
12.5
 21
65.0
 31
0.0
  0
LINE
  8
0
  6
CONTINUOUS
 62
   249
 10
112.5
 20
44.274926
 30
0.0
 11
225.000345
 21
44.274926
 31
0.0
  0
LINE
  8
0
  6
CONTINUOUS
 62
   249
 10
225.000345
 20
44.274926
 30
0.0
 11
226.000345
 21
45.274926
 31
0.0
  0
LINE
  8
0
  6
CONTINUOUS
 62
   249
 10
112.5
 20
44.274926
 30
0.0
 11
111.5
 21
45.274926
 31
0.0
  0
LINE
  8
0
  6
CONTINUOUS
 62
   249
 10
127.5
 20
50.0
 30
0.0
 11
127.5
 21
47.5
 31
0.0
  0
LINE
  8
0
  6
CONTINUOUS
 62
   249
 10
142.5
 20
50.0
 30
0.0
 11
142.5
 21
47.5
 31
0.0
  0
LINE
  8
0
  6
CONTINUOUS
 62
   249
 10
225.0
 20
50.0
 30
0.0
 11
225.0
 21
47.5
 31
0.0
  0
TEXT
  8
0
  6
HIDDEN
 62
   249
 10
165.984926
 20
37.942742
 30
0.0
 40
2.0
  1
SHEET 2
  7
ROMANS
  0
LINE
  8
0
 62
   249
 10
57.721556
 20
226.204212
 30
0.0
 11
50.298812
 21
226.204212
 31
0.0
  0
LINE
  8
0
  6
CONTINUOUS
 62
   249
 10
57.721556
 20
230.0
 30
0.0
 11
62.5
 21
230.0
 31
0.0
  0
LINE
  8
0
 62
   249
 10
57.721556
 20
226.204212
 30
0.0
 11
57.721556
 21
234.089925
 31
0.0
  0
LINE
  8
0
 62
   249
 10
57.721556
 20
234.089925
 30
0.0
 11
50.298812
 21
234.089925
 31
0.0
  0
LINE
  8
0
 62
   249
 10
55.996971
 20
234.067786
 30
0.0
 11
54.142636
 21
231.788964
 31
0.0
  0
LINE
  8
0
 62
   249
 10
54.504853
 20
234.067786
 30
0.0
 11
52.59105
 21
231.788964
 31
0.0
  0
LINE
  8
0
 62
   249
 10
50.298812
 20
234.089925
 30
0.0
 11
50.298812
 21
226.204212
 31
0.0
  0
LINE
  8
0
  6
CONTINUOUS
 62
   249
 10
50.298812
 20
227.5
 30
0.0
 11
17.5
 21
227.5
 31
0.0
  0
LINE
  8
0
  6
CONTINUOUS
 62
   249
 10
50.298812
 20
232.5
 30
0.0
 11
17.5
 21
232.5
 31
0.0
  0
TEXT
  8
0
  6
CONTINUOUS
 62
   249
 10
18.700233
 20
229.752652
 30
0.0
 40
2.0
  1
108:X1:12
  7
ROMANS
  0
TEXT
  8
0
  6
CONTINUOUS
 62
   249
 10
18.700233
 20
224.901185
 30
0.0
 40
2.0
  1
108:X1:11
  7
ROMANS
  0
LINE
  8
0
  6
HIDDEN
 62
   249
 10
180.0
 20
207.5
 30
0.0
 11
207.950615
 21
207.5
 31
0.0
  0
LINE
  8
0
  6
HIDDEN
 62
   249
 10
180.0
 20
202.5
 30
0.0
 11
197.5
 21
202.5
 31
0.0
  0
LINE
  8
0
  6
CONTINUOUS
 62
   249
 10
185.292268
 20
201.104867
 30
0.0
 11
187.638033
 21
199.769513
 31
0.0
  0
LINE
  8
0
  6
CONTINUOUS
 62
   249
 10
187.638033
 20
199.769513
 30
0.0
 11
185.292268
 21
198.579594
 31
0.0
  0
TEXT
  8
0
  6
CONTINUOUS
 62
   249
 10
181.270128
 20
198.56691
 30
0.0
 40
2.5
  1
I
 11
181.270128
 21
197.733576
 31
0.0
 73
     1
  0
LINE
  8
0
  6
CONTINUOUS
 62
   249
 10
180.0
 20
227.5
 30
0.0
 11
180.0
 21
187.5
 31
0.0
  0
TEXT
  8
0
  6
CONTINUOUS
 62
   249
 10
179.491916
 20
190.787092
 30
0.0
 40
1.5
  1
PROGRAMMING: SEE SHEET 3
 50
90.0
  7
ROMANS
  0
TEXT
  8
0
  6
CONTINUOUS
 62
   249
 10
179.505063
 20
168.846592
 30
0.0
 40
2.5
  1
I
 11
179.505063
 21
168.013259
 31
0.0
 73
     1
  0
TEXT
  8
0
  6
CONTINUOUS
 62
   249
 10
179.505063
 20
173.265761
 30
0.0
 40
2.5
  1
I
 11
179.505063
 21
172.432428
 31
0.0
 73
     1
  0
LINE
  8
0
  6
CONTINUOUS
 62
   249
 10
186.026365
 20
174.262687
 30
0.0
 11
183.680599
 21
173.072768
 31
0.0
  0
LINE
  8
0
  6
CONTINUOUS
 62
   249
 10
183.680599
 20
175.598041
 30
0.0
 11
186.026365
 21
174.262687
 31
0.0
  0
TEXT
  8
0
  6
CONTINUOUS
 62
   249
 10
179.505063
 20
183.768175
 30
0.0
 40
2.5
  1
I
 11
179.505063
 21
182.934842
 31
0.0
 73
     1
  0
TEXT
  8
0
  6
CONTINUOUS
 62
   249
 10
179.505063
 20
158.233974
 30
0.0
 40
2.5
  1
I
 11
179.505063
 21
157.400641
 31
0.0
 73
     1
  0
LINE
  8
0
  6
CONTINUOUS
 62
   249
 10
187.417454
 20
159.113824
 30
0.0
 11
185.071688
 21
157.923905
 31
0.0
  0
LINE
  8
0
  6
CONTINUOUS
 62
   249
 10
185.071688
 20
160.449178
 30
0.0
 11
187.417454
 21
159.113824
 31
0.0
  0
LINE
  8
0
  6
CONTINUOUS
 62
   249
 10
185.674969
 20
159.113824
 30
0.0
 11
183.329204
 21
157.923905
 31
0.0
  0
LINE
  8
0
  6
CONTINUOUS
 62
   249
 10
183.329204
 20
160.449178
 30
0.0
 11
185.674969
 21
159.113824
 31
0.0
  0
TEXT
  8
0
  6
CONTINUOUS
 62
   249
 10
202.315092
 20
217.498858
 30
0.0
 40
2.5
  1
I
  7
GREEKS
  0
LINE
  8
0
  6
CONTINUOUS
 62
   249
 10
199.224689
 20
170.714764
 30
0.0
 11
206.768276
 21
170.714764
 31
0.0
  0
TEXT
  8
0
  6
CONTINUOUS
 62
   249
 10
201.796619
 20
179.029986
 30
0.0
 40
2.5
  1
I
 11
201.796619
 21
178.196653
 31
0.0
 73
     1
  0
TEXT
  8
0
  6
CONTINUOUS
 62
   249
 10
202.22661
 20
165.525469
 30
0.0
 40
1.5
  1
f
  7
GREEKC
  0
TEXT
  8
0
  6
CONTINUOUS
 62
   249
 10
197.971568
 20
165.010459
 30
0.0
 40
1.5
  1
SIN
  7
GREEKS
  0
TEXT
  8
0
  6
CONTINUOUS
 62
   249
 10
197.971568
 20
160.857643
 30
0.0
 40
1.5
  1
COS
  7
GREEKS
  0
TEXT
  8
0
  6
CONTINUOUS
 62
   249
 10
202.22661
 20
161.364059
 30
0.0
 40
1.5
  1
f
  7
GREEKC
  0
TEXT
  8
0
  6
HIDDEN
 62
   249
 10
204.867691
 20
160.862921
 30
0.0
 40
1.5
  1
EN
  0
TEXT
  8
0
  6
HIDDEN
 62
   249
 10
204.867691
 20
164.999914
 30
0.0
 40
1.5
  1
EN
  0
LINE
  8
0
  6
CONTINUOUS
 62
   249
 10
67.5
 20
155.0
 30
0.0
 11
67.5
 21
177.877204
 31
0.0
  0
LINE
  8
0
  6
CONTINUOUS
 62
   249
 10
52.5
 20
175.0
 30
0.0
 11
177.5
 21
175.0
 31
0.0
  0
LINE
  8
0
  6
CONTINUOUS
 62
   249
 10
145.0
 20
160.0
 30
0.0
 11
177.5
 21
160.0
 31
0.0
  0
LINE
  8
0
  6
CONTINUOUS
 62
   249
 10
60.0
 20
145.0
 30
0.0
 11
60.0
 21
160.0
 31
0.0
  0
LINE
  8
0
  6
CONTINUOUS
 62
   249
 10
60.0
 20
160.0
 30
0.0
 11
145.0
 21
160.0
 31
0.0
  0
LINE
  8
0
  6
CONTINUOUS
 62
   249
 10
45.0
 20
136.108096
 30
0.0
 11
45.0
 21
167.5
 31
0.0
  0
LINE
  8
0
  6
CONTINUOUS
 62
   249
 10
45.0
 20
167.5
 30
0.0
 11
85.0
 21
167.5
 31
0.0
  0
LINE
  8
0
  6
CONTINUOUS
 62
   249
 10
57.5
 20
136.108096
 30
0.0
 11
45.0
 21
136.108096
 31
0.0
  0
LINE
  8
0
  6
CONTINUOUS
 62
   249
 10
80.0
 20
145.0
 30
0.0
 11
80.0
 21
175.0
 31
0.0
  0
LINE
  8
0
  6
CONTINUOUS
 62
   249
 10
177.5
 20
170.0
 30
0.0
 11
142.5
 21
170.0
 31
0.0
  0
LINE
  8
0
  6
CONTINUOUS
 62
   249
 10
142.5
 20
157.5
 30
0.0
 11
142.5
 21
155.0
 31
0.0
  0
LINE
  8
0
  6
CONTINUOUS
 62
   249
 10
65.0
 20
177.877204
 30
0.0
 11
72.5
 21
177.877204
 31
0.0
  0
LINE
  8
0
  6
CONTINUOUS
 62
   249
 10
72.5
 20
177.877204
 30
0.0
 11
72.5
 21
182.877204
 31
0.0
  0
LINE
  8
0
  6
CONTINUOUS
 62
   249
 10
72.5
 20
182.877204
 30
0.0
 11
65.0
 21
182.877204
 31
0.0
  0
LINE
  8
0
  6
CONTINUOUS
 62
   249
 10
65.0
 20
182.877204
 30
0.0
 11
65.0
 21
177.877204
 31
0.0
  0
TEXT
  8
0
  6
CONTINUOUS
 62
   249
 10
70.495812
 20
179.432409
 30
0.0
 40
2.5
  1
1
 11
70.495812
 21
178.599076
 31
0.0
 73
     1
  0
LINE
  8
0
  6
CONTINUOUS
 62
   249
 10
66.06195
 20
182.092502
 30
0.0
 11
68.407716
 21
180.757149
 31
0.0
  0
LINE
  8
0
  6
CONTINUOUS
 62
   249
 10
66.053908
 20
178.767216
 30
0.0
 11
68.437369
 21
179.955408
 31
0.0
  0
LINE
  8
0
  6
CONTINUOUS
 62
   249
 10
68.407716
 20
180.757149
 30
0.0
 11
66.06195
 21
179.56723
 31
0.0
  0
LINE
  8
0
  6
CONTINUOUS
 62
   249
 10
122.5
 20
135.0
 30
0.0
 11
122.5
 21
210.0
 31
0.0
  0
TEXT
  8
0
  6
CONTINUOUS
 62
   249
 10
172.342601
 20
207.665666
 30
0.0
 40
1.5
  1
SS1
  7
ROMANS
  0
TEXT
  8
0
  6
CONTINUOUS
 62
   249
 10
172.342601
 20
199.800383
 30
0.0
 40
1.5
  1
TS1
  7
ROMANS
  0
TEXT
  8
0
  6
CONTINUOUS
 62
   249
 10
172.342601
 20
195.273686
 30
0.0
 40
1.5
  1
SS2
  7
ROMANS
  0
TEXT
  8
0
  6
CONTINUOUS
 62
   249
 10
172.342601
 20
189.836744
 30
0.0
 40
1.5
  1
TS2
  7
ROMANS
  0
LINE
  8
0
  6
CONTINUOUS
 62
   249
 10
215.0
 20
215.0
 30
0.0
 11
222.5
 21
215.0
 31
0.0
  0
LINE
  8
0
  6
CONTINUOUS
 62
   249
 10
218.746052
 20
179.276309
 30
0.0
 11
218.746052
 21
137.5
 31
0.0
  0
LINE
  8
0
  6
CONTINUOUS
 62
   249
 10
218.746052
 20
137.5
 30
0.0
 11
230.0
 21
137.5
 31
0.0
  0
CIRCLE
  8
0
  6
CONTINUOUS
 62
   249
 10
208.950323
 20
165.983421
 30
0.0
 40
1.0
  0
LINE
  8
0
  6
CONTINUOUS
 62
   249
 10
62.5
 20
230.0
 30
0.0
 11
212.5
 21
230.0
 31
0.0
  0
LINE
  8
0
  6
CONTINUOUS
 62
   249
 10
212.5
 20
230.0
 30
0.0
 11
212.5
 21
161.543906
 31
0.0
  0
LINE
  8
0
  6
CONTINUOUS
 62
   249
 10
207.950615
 20
161.543906
 30
0.0
 11
212.5
 21
161.543906
 31
0.0
  0
LINE
  8
0
  6
CONTINUOUS
 62
   249
 10
209.950316
 20
165.979447
 30
0.0
 11
212.5
 21
165.979447
 31
0.0
  0
LINE
  8
0
  6
CONTINUOUS
 62
   249
 10
207.950615
 20
179.276309
 30
0.0
 11
218.746052
 21
179.276309
 31
0.0
  0
LINE
  8
0
  6
CONTINUOUS
 62
   249
 10
230.0
 20
197.5
 30
0.0
 11
222.5
 21
197.5
 31
0.0
  0
LINE
  8
0
  6
CONTINUOUS
 62
   249
 10
222.5
 20
215.0
 30
0.0
 11
222.5
 21
197.5
 31
0.0
  0
LINE
  8
0
  6
CONTINUOUS
 62
   249
 10
207.950615
 20
215.0
 30
0.0
 11
215.0
 21
215.0
 31
0.0
  0
LINE
  8
0
  6
CONTINUOUS
 62
   249
 10
225.0
 20
72.355963
 30
0.0
 11
225.0
 21
50.0
 31
0.0
  0
LINE
  8
0
  6
DASHED
 62
   249
 10
17.5
 20
232.5
 30
0.0
 11
15.0
 21
232.5
 31
0.0
  0
LINE
  8
0
  6
DASHED
 62
   249
 10
17.5
 20
227.5
 30
0.0
 11
15.0
 21
227.5
 31
0.0
  0
LINE
  8
0
  6
CONTINUOUS
 62
   249
 10
9.728516
 20
232.5
 30
0.0
 11
10.728516
 21
233.5
 31
0.0
  0
LINE
  8
0
  6
CONTINUOUS
 62
   249
 10
9.728516
 20
227.499655
 30
0.0
 11
10.728516
 21
226.499655
 31
0.0
  0
LINE
  8
0
  6
CONTINUOUS
 62
   249
 10
9.728516
 20
232.5
 30
0.0
 11
9.728516
 21
227.5
 31
0.0
  0
TEXT
  8
0
  6
CONTINUOUS
 62
   249
 10
4.669188
 20
210.567384
 30
0.0
 40
2.0
  1
3)
  7
ROMANS
  0
TEXT
  8
0
  6
CONTINUOUS
 62
   249
 10
3.799844
 20
116.673819
 30
0.0
 40
2.0
  1
5a)
  7
ROMANS
  0
TEXT
  8
0
  6
CONTINUOUS
 62
   249
 10
3.799844
 20
99.091145
 30
0.0
 40
2.0
  1
5b)
  7
ROMANS
  0
TEXT
  8
0
  6
CONTINUOUS
 62
   249
 10
3.799844
 20
77.937871
 30
0.0
 40
2.0
  1
5c)
  7
ROMANS
  0
TEXT
  8
0
  6
CONTINUOUS
 62
   249
 10
50.161182
 20
28.555982
 30
0.0
 40
2.014518
  1
f
  7
GREEKC
  0
TEXT
  8
0
  6
DASHED
 62
   249
 10
17.43431
 20
37.890392
 30
0.0
 40
2.0
  1
2) OPERATING CHARACTERISTICS
  7
ROMANS
  0
TEXT
  8
0
  6
DASHED
 62
   249
 10
18.761668
 20
34.557059
 30
0.0
 40
2.0
  1
  SIN  OR COS  /
  7
ROMANS
  0
TEXT
  8
0
  6
DASHED
 62
   249
 10
18.761668
 20
31.223726
 30
0.0
 40
2.0
  1
  FUNKTIONSKARAKTERISTIKEN
  7
ROMANS
  0
TEXT
  8
0
  6
DASHED
 62
   249
 10
18.761668
 20
27.890392
 30
0.0
 40
2.0
  1
  SIN  ELLER COS
  7
ROMANS
  0
TEXT
  8
0
  6
CONTINUOUS
 62
   249
 10
28.124678
 20
28.555982
 30
0.0
 40
2.014518
  1
f
  7
GREEKC
  0
TEXT
  8
0
  6
CONTINUOUS
 62
   249
 10
28.124678
 20
35.242899
 30
0.0
 40
2.014518
  1
f
  7
GREEKC
  0
TEXT
  8
0
  6
CONTINUOUS
 62
   249
 10
44.123462
 20
35.242899
 30
0.0
 40
2.014518
  1
f
  7
GREEKC
  0
TEXT
  8
0
  6
DASHED
 62
   249
 10
17.444239
 20
22.912795
 30
0.0
 40
2.0
  1
3) BLOCKING INPUT /
  7
ROMANS
  0
TEXT
  8
0
  6
DASHED
 62
   249
 10
18.771598
 20
19.579461
 30
0.0
 40
2.0
  1
  BLOCKERING IN
  7
ROMANS
  0
TEXT
  8
0
  6
DASHED
 62
   249
 10
17.491225
 20
13.90477
 30
0.0
 40
2.0
  1
4) TRIP 1 /
  7
ROMANS
  0
TEXT
  8
0
  6
DASHED
 62
   249
 10
18.771598
 20
10.571437
 30
0.0
 40
2.0
  1
  UTLÖSNING 1
  7
ROMANS
  0
TEXT
  8
0
  6
DASHED
 62
   249
 10
98.510786
 20
35.0
 30
0.0
 40
2.0
  1
5a) TRIP 2 OR ALARM OUTPUT /
  7
ROMANS
  0
TEXT
  8
0
  6
DASHED
 62
   249
 10
99.849801
 20
31.666667
 30
0.0
 40
2.0
  1
   UTLÖSNING 2 ELLER SIGNALUTGÅNG
  7
ROMANS
  0
TEXT
  8
0
  6
DASHED
 62
   249
 10
98.510786
 20
25.833333
 30
0.0
 40
2.0
  1
5b) ALARM OUTPUT /
  7
ROMANS
  0
TEXT
  8
0
  6
DASHED
 62
   249
 10
99.849801
 20
22.5
 30
0.0
 40
2.0
  1
   SIGNALUTGÅNG
  7
ROMANS
  0
TEXT
  8
0
  6
DASHED
 62
   249
 10
98.510786
 20
16.309142
 30
0.0
 40
2.0
  1
5c) START, BLOCKING ETC.
  7
ROMANS
  0
TEXT
  8
0
  6
DASHED
 62
   249
 10
99.849801
 20
12.975808
 30
0.0
 40
2.0
  1
   START, BLOCKERING MM.
  7
ROMANS
  0
TEXT
  8
0
  6
DASHED
 62
   249
 10
200.0
 20
217.5
 30
0.0
 40
2.0
  1
3
  7
GREEKS
  0
LINE
  8
0
  6
CONTINUOUS
 62
   249
 10
177.5
 20
187.5
 30
0.0
 11
207.950615
 21
187.5
 31
0.0
  0
LINE
  8
0
  6
HIDDEN
 62
   249
 10
180.0
 20
192.5
 30
0.0
 11
197.5
 21
192.5
 31
0.0
  0
LINE
  8
0
  6
HIDDEN
 62
   249
 10
180.0
 20
197.5
 30
0.0
 11
197.5
 21
197.5
 31
0.0
  0
TEXT
  8
0
  6
CONTINUOUS
 62
   249
 10
181.270128
 20
203.874206
 30
0.0
 40
2.5
  1
I
 11
181.270128
 21
203.040872
 31
0.0
 73
     1
  0
LINE
  8
0
  6
CONTINUOUS
 62
   249
 10
187.79143
 20
205.1246
 30
0.0
 11
185.445664
 21
203.934681
 31
0.0
  0
LINE
  8
0
  6
CONTINUOUS
 62
   249
 10
185.445664
 20
206.459954
 30
0.0
 11
187.79143
 21
205.1246
 31
0.0
  0
LINE
  8
0
  6
CONTINUOUS
 62
   249
 10
197.03338
 20
190.452367
 30
0.0
 11
197.03338
 21
188.664236
 31
0.0
  0
LINE
  8
0
  6
CONTINUOUS
 62
   249
 10
191.63386
 20
188.439486
 30
0.0
 11
194.509971
 21
191.268045
 31
0.0
  0
LINE
  8
0
  6
CONTINUOUS
 62
   249
 10
194.079267
 20
191.805252
 30
0.0
 11
194.979944
 21
190.681503
 31
0.0
  0
LINE
  8
0
  6
CONTINUOUS
 62
   249
 10
189.249716
 20
189.607089
 30
0.0
 11
197.037921
 21
189.607089
 31
0.0
  0
LINE
  8
0
  6
CONTINUOUS
 62
   249
 10
189.218684
 20
190.452367
 30
0.0
 11
189.218684
 21
188.664236
 31
0.0
  0
LINE
  8
0
  6
CONTINUOUS
 62
   249
 10
184.758312
 20
191.214843
 30
0.0
 11
187.104078
 21
189.879489
 31
0.0
  0
LINE
  8
0
  6
CONTINUOUS
 62
   249
 10
187.104078
 20
189.879489
 30
0.0
 11
184.758312
 21
188.68957
 31
0.0
  0
LINE
  8
0
  6
CONTINUOUS
 62
   249
 10
186.237209
 20
191.214843
 30
0.0
 11
188.582974
 21
189.879489
 31
0.0
  0
LINE
  8
0
  6
CONTINUOUS
 62
   249
 10
188.582974
 20
189.879489
 30
0.0
 11
186.237209
 21
188.68957
 31
0.0
  0
TEXT
  8
0
  6
CONTINUOUS
 62
   249
 10
181.270128
 20
188.676886
 30
0.0
 40
2.5
  1
I
 11
181.270128
 21
187.843552
 31
0.0
 73
     1
  0
LINE
  8
0
  6
CONTINUOUS
 62
   249
 10
188.930679
 20
200.398838
 30
0.0
 11
188.930679
 21
198.610706
 31
0.0
  0
LINE
  8
0
  6
CONTINUOUS
 62
   249
 10
188.961711
 20
199.553559
 30
0.0
 11
196.749916
 21
199.553559
 31
0.0
  0
LINE
  8
0
  6
CONTINUOUS
 62
   249
 10
193.791263
 20
201.751722
 30
0.0
 11
194.69194
 21
200.627973
 31
0.0
  0
LINE
  8
0
  6
CONTINUOUS
 62
   249
 10
191.345856
 20
198.385957
 30
0.0
 11
194.221966
 21
201.214515
 31
0.0
  0
LINE
  8
0
  6
CONTINUOUS
 62
   249
 10
196.745375
 20
200.398838
 30
0.0
 11
196.745375
 21
198.610706
 31
0.0
  0
TEXT
  8
0
  6
CONTINUOUS
 62
   249
 10
181.270128
 20
193.79181
 30
0.0
 40
2.5
  1
I
 11
181.270128
 21
192.958477
 31
0.0
 73
     1
  0
LINE
  8
0
  6
CONTINUOUS
 62
   249
 10
189.206
 20
194.994414
 30
0.0
 11
186.860235
 21
193.804495
 31
0.0
  0
LINE
  8
0
  6
CONTINUOUS
 62
   249
 10
186.860235
 20
196.329768
 30
0.0
 11
189.206
 21
194.994414
 31
0.0
  0
LINE
  8
0
  6
CONTINUOUS
 62
   249
 10
187.655216
 20
194.994414
 30
0.0
 11
185.309451
 21
193.804495
 31
0.0
  0
LINE
  8
0
  6
CONTINUOUS
 62
   249
 10
185.309451
 20
196.329768
 30
0.0
 11
187.655216
 21
194.994414
 31
0.0
  0
TEXT
  8
0
  6
CONTINUOUS
 62
   249
 10
200.077202
 20
195.666974
 30
0.0
 40
2.5
  1
I
 11
200.077202
 21
194.833641
 31
0.0
 73
     1
  0
LINE
  8
0
  6
CONTINUOUS
 62
   249
 10
197.5
 20
227.5
 30
0.0
 11
197.5
 21
127.5
 31
0.0
  0
LINE
  8
0
  6
CONTINUOUS
 62
   249
 10
215.0
 20
215.0
 30
0.0
 11
215.0
 21
50.0
 31
0.0
  0
LINE
  8
0
  6
CONTINUOUS
 62
   249
 10
237.5
 20
142.5
 30
0.0
 11
238.5
 21
143.5
 31
0.0
  0
LINE
  8
0
  6
CONTINUOUS
 62
   249
 10
237.5
 20
152.5
 30
0.0
 11
238.5
 21
151.5
 31
0.0
  0
LINE
  8
0
  6
CONTINUOUS
 62
   249
 10
237.5
 20
142.5
 30
0.0
 11
237.5
 21
132.5
 31
0.0
  0
LINE
  8
0
  6
HIDDEN
 62
   249
 10
177.5
 20
127.5
 30
0.0
 11
177.5
 21
50.0
 31
0.0
  0
LINE
  8
0
  6
HIDDEN
 62
   249
 10
207.950615
 20
127.5
 30
0.0
 11
207.950615
 21
50.0
 31
0.0
  0
LINE
  8
0
  6
CONTINUOUS
 62
   249
 10
237.5
 20
157.5
 30
0.0
 11
222.851542
 21
157.5
 31
0.0
  0
LINE
  8
0
  6
CONTINUOUS
 62
   249
 10
207.950615
 20
194.533998
 30
0.0
 11
222.851542
 21
194.533998
 31
0.0
  0
LINE
  8
0
  6
CONTINUOUS
 62
   249
 10
70.0
 20
182.877204
 30
0.0
 11
70.0
 21
191.992731
 31
0.0
  0
LINE
  8
0
  6
CONTINUOUS
 62
   249
 10
167.5
 20
215.0
 30
0.0
 11
177.5
 21
215.0
 31
0.0
  0
LINE
  8
0
  6
CONTINUOUS
 62
   249
 10
175.51273
 20
180.500813
 30
0.0
 11
165.0
 21
180.500813
 31
0.0
  0
LINE
  8
0
  6
CONTINUOUS
 62
   249
 10
175.51273
 20
177.471652
 30
0.0
 11
167.5
 21
177.471652
 31
0.0
  0
CIRCLE
  8
0
  6
CONTINUOUS
 62
   249
 10
176.512659
 20
177.465349
 30
0.0
 40
1.0
  0
CIRCLE
  8
0
  6
CONTINUOUS
 62
   249
 10
176.512659
 20
180.494509
 30
0.0
 40
1.0
  0
LINE
  8
0
  6
CONTINUOUS
 62
   249
 10
67.5
 20
182.877204
 30
0.0
 11
67.5
 21
202.165835
 31
0.0
  0
TEXT
  8
0
  6
CONTINUOUS
 62
   249
 10
211.439449
 20
28.117486
 30
0.0
 40
2.0
  1
94-07-12 KM / AD-ELECT.
  7
ROMANS
  0
TEXT
  8
0
  6
CONTINUOUS
 62
   249
 10
317.5
 20
27.5
 30
0.0
 40
2.0
  1
TERMINAL DIAGRAM / UTTAGSSCHEMA
  7
ROMANS
  0
TEXT
  8
0
  6
CONTINUOUS
 62
   249
 10
317.5
 20
24.166667
 30
0.0
 40
2.0
  1
SPAC 539 C1 / E263 WITH TEST SWITCH
  7
ROMANS
  0
TEXT
  8
0
  6
CONTINUOUS
 62
   249
 10
317.5
 20
2.5
 30
0.0
 40
2.5
  1
RS 10196-AAB
  7
ROMANS
  0
TEXT
  8
0
  6
CONTINUOUS
 62
   249
 10
370.299098
 20
11.968596
 30
0.0
 40
2.0
  1
1/2
  7
ROMANS
  0
LINE
  8
0
  6
CONTINUOUS
 62
   249
 10
363.862038
 20
195.292443
 30
0.0
 11
363.862038
 21
193.504312
 31
0.0
  0
LINE
  8
0
  6
CONTINUOUS
 62
   249
 10
363.89307
 20
194.447165
 30
0.0
 11
371.681275
 21
194.447165
 31
0.0
  0
LINE
  8
0
  6
CONTINUOUS
 62
   249
 10
366.277215
 20
193.279562
 30
0.0
 11
369.153325
 21
196.108121
 31
0.0
  0
LINE
  8
0
  6
CONTINUOUS
 62
   249
 10
368.722622
 20
196.645328
 30
0.0
 11
369.623299
 21
195.521578
 31
0.0
  0
LINE
  8
0
  6
CONTINUOUS
 62
   249
 10
371.676734
 20
195.292443
 30
0.0
 11
371.676734
 21
193.504312
 31
0.0
  0
LINE
  8
0
  6
CONTINUOUS
 62
   249
 10
373.524862
 20
199.118016
 30
0.0
 11
371.179096
 21
197.928097
 31
0.0
  0
LINE
  8
0
  6
CONTINUOUS
 62
   249
 10
371.179096
 20
200.45337
 30
0.0
 11
373.524862
 21
199.118016
 31
0.0
  0
LINE
  8
0
  6
CONTINUOUS
 62
   249
 10
369.587757
 20
200.45337
 30
0.0
 11
371.933522
 21
199.118016
 31
0.0
  0
LINE
  8
0
  6
CONTINUOUS
 62
   249
 10
371.933522
 20
199.118016
 30
0.0
 11
369.587757
 21
197.928097
 31
0.0
  0
TEXT
  8
0
  6
DASHED
 62
   249
 10
364.355965
 20
198.044326
 30
0.0
 40
2.5
  1
I
  0
LINE
  8
0
  6
CONTINUOUS
 62
   249
 10
371.676734
 20
230.348909
 30
0.0
 11
371.676734
 21
228.560777
 31
0.0
  0
LINE
  8
0
  6
CONTINUOUS
 62
   249
 10
366.277215
 20
228.336027
 30
0.0
 11
369.153325
 21
231.164586
 31
0.0
  0
LINE
  8
0
  6
CONTINUOUS
 62
   249
 10
368.722622
 20
231.701793
 30
0.0
 11
369.623299
 21
230.578044
 31
0.0
  0
LINE
  8
0
  6
CONTINUOUS
 62
   249
 10
363.89307
 20
229.50363
 30
0.0
 11
371.681275
 21
229.50363
 31
0.0
  0
LINE
  8
0
  6
CONTINUOUS
 62
   249
 10
363.862038
 20
230.348909
 30
0.0
 11
363.862038
 21
228.560777
 31
0.0
  0
LINE
  8
0
  6
CONTINUOUS
 62
   249
 10
370.240779
 20
215.263505
 30
0.0
 11
372.586545
 21
213.928151
 31
0.0
  0
LINE
  8
0
  6
CONTINUOUS
 62
   249
 10
372.586545
 20
213.928151
 30
0.0
 11
370.240779
 21
212.738232
 31
0.0
  0
TEXT
  8
0
  6
DASHED
 62
   249
 10
364.325559
 20
212.840061
 30
0.0
 40
2.5
  1
I
  0
LINE
  8
0
  6
CONTINUOUS
 62
   249
 10
374.176734
 20
180.329966
 30
0.0
 11
374.176734
 21
178.541835
 31
0.0
  0
LINE
  8
0
  6
CONTINUOUS
 62
   249
 10
371.222622
 20
181.68285
 30
0.0
 11
372.123299
 21
180.559101
 31
0.0
  0
LINE
  8
0
  6
CONTINUOUS
 62
   249
 10
368.777215
 20
178.317085
 30
0.0
 11
371.653325
 21
181.145644
 31
0.0
  0
LINE
  8
0
  6
CONTINUOUS
 62
   249
 10
366.39307
 20
179.484688
 30
0.0
 11
374.181275
 21
179.484688
 31
0.0
  0
LINE
  8
0
  6
CONTINUOUS
 62
   249
 10
366.362038
 20
180.329966
 30
0.0
 11
366.362038
 21
178.541835
 31
0.0
  0
LINE
  8
0
  6
CONTINUOUS
 62
   249
 10
370.61418
 20
183.848154
 30
0.0
 11
369.365507
 21
183.214749
 31
0.0
  0
LINE
  8
0
  6
CONTINUOUS
 62
   249
 10
369.365507
 20
184.558976
 30
0.0
 11
370.61418
 21
183.848154
 31
0.0
  0
TEXT
  8
0
  6
CONTINUOUS
 62
   249
 10
370.766983
 20
182.927277
 30
0.0
 40
2.0
  1
I
  0
TEXT
  8
0
  6
CONTINUOUS
 62
   249
 10
364.243867
 20
182.931529
 30
0.0
 40
2.0
  1
O
  0
LINE
  8
0
  6
CONTINUOUS
 62
   249
 10
366.121031
 20
183.848154
 30
0.0
 11
370.61418
 21
183.848154
 31
0.0
  0
TEXT
  8
0
  6
DASHED
 62
   249
 10
364.705122
 20
253.268474
 30
0.0
 40
2.5
  1
3I
  0
LINE
  8
0
  6
CONTINUOUS
 62
   249
 10
369.112342
 20
255.816754
 30
0.0
 11
371.458108
 21
254.4814
 31
0.0
  0
LINE
  8
0
  6
CONTINUOUS
 62
   249
 10
371.458108
 20
254.4814
 30
0.0
 11
369.112342
 21
253.291481
 31
0.0
  0
LINE
  8
0
  6
CONTINUOUS
 62
   249
 10
363.862038
 20
250.206143
 30
0.0
 11
363.862038
 21
248.418012
 31
0.0
  0
LINE
  8
0
  6
CONTINUOUS
 62
   249
 10
363.89307
 20
249.360865
 30
0.0
 11
371.681275
 21
249.360865
 31
0.0
  0
LINE
  8
0
  6
CONTINUOUS
 62
   249
 10
368.722622
 20
251.559027
 30
0.0
 11
369.623299
 21
250.435278
 31
0.0
  0
ARC
  8
0
  6
HIDDEN
 62
   249
 10
370.587938
 20
253.289409
 30
0.0
 40
4.998196
 50
206.402922
 51
282.21115
  0
LINE
  8
0
  6
CONTINUOUS
 62
   249
 10
366.277215
 20
248.193262
 30
0.0
 11
369.153325
 21
251.021821
 31
0.0
  0
LINE
  8
0
  6
CONTINUOUS
 62
   249
 10
371.676734
 20
250.206143
 30
0.0
 11
371.676734
 21
248.418012
 31
0.0
  0
TEXT
  8
0
  6
DASHED
 62
   249
 10
364.705122
 20
243.282752
 30
0.0
 40
2.5
  1
3I
  0
LINE
  8
0
  6
CONTINUOUS
 62
   249
 10
371.700633
 20
244.50956
 30
0.0
 11
369.354867
 21
243.319641
 31
0.0
  0
LINE
  8
0
  6
CONTINUOUS
 62
   249
 10
369.354867
 20
245.844914
 30
0.0
 11
371.700633
 21
244.50956
 31
0.0
  0
LINE
  8
0
  6
CONTINUOUS
 62
   249
 10
371.048141
 20
245.844914
 30
0.0
 11
373.393906
 21
244.50956
 31
0.0
  0
LINE
  8
0
  6
CONTINUOUS
 62
   249
 10
373.393906
 20
244.50956
 30
0.0
 11
371.048141
 21
243.319641
 31
0.0
  0
LINE
  8
0
  6
CONTINUOUS
 62
   249
 10
371.676734
 20
240.552173
 30
0.0
 11
371.676734
 21
238.764041
 31
0.0
  0
LINE
  8
0
  6
CONTINUOUS
 62
   249
 10
368.722622
 20
241.905057
 30
0.0
 11
369.623299
 21
240.781308
 31
0.0
  0
LINE
  8
0
  6
CONTINUOUS
 62
   249
 10
366.277215
 20
238.539291
 30
0.0
 11
369.153325
 21
241.36785
 31
0.0
  0
LINE
  8
0
  6
CONTINUOUS
 62
   249
 10
363.89307
 20
239.706894
 30
0.0
 11
371.681275
 21
239.706894
 31
0.0
  0
LINE
  8
0
  6
CONTINUOUS
 62
   249
 10
363.862038
 20
240.552173
 30
0.0
 11
363.862038
 21
238.764041
 31
0.0
  0
LINE
  8
0
  6
HIDDEN
 62
   249
 10
358.261763
 20
237.5
 30
0.0
 11
378.261763
 21
237.5
 31
0.0
  0
LINE
  8
0
  6
CONTINUOUS
 62
   249
 10
358.261763
 20
257.5
 30
0.0
 11
378.261763
 21
257.5
 31
0.0
  0
LINE
  8
0
  6
CONTINUOUS
 62
   249
 10
378.261763
 20
257.5
 30
0.0
 11
378.261763
 21
175.198214
 31
0.0
  0
LINE
  8
0
  6
CONTINUOUS
 62
   249
 10
358.261763
 20
175.198214
 30
0.0
 11
358.261763
 21
257.5
 31
0.0
  0
LINE
  8
0
  6
CONTINUOUS
 62
   249
 10
358.261763
 20
217.5
 30
0.0
 11
378.261763
 21
217.5
 31
0.0
  0
LINE
  8
0
  6
CONTINUOUS
 62
   249
 10
363.862038
 20
220.823413
 30
0.0
 11
363.862038
 21
219.035282
 31
0.0
  0
LINE
  8
0
  6
CONTINUOUS
 62
   249
 10
363.89307
 20
219.978135
 30
0.0
 11
371.681275
 21
219.978135
 31
0.0
  0
LINE
  8
0
  6
CONTINUOUS
 62
   249
 10
366.277215
 20
218.810532
 30
0.0
 11
369.153325
 21
221.639091
 31
0.0
  0
LINE
  8
0
  6
CONTINUOUS
 62
   249
 10
368.722622
 20
222.176297
 30
0.0
 11
369.623299
 21
221.052548
 31
0.0
  0
LINE
  8
0
  6
CONTINUOUS
 62
   249
 10
371.676734
 20
220.823413
 30
0.0
 11
371.676734
 21
219.035282
 31
0.0
  0
LINE
  8
0
  6
CONTINUOUS
 62
   249
 10
371.676734
 20
209.58206
 30
0.0
 11
371.676734
 21
207.793929
 31
0.0
  0
LINE
  8
0
  6
CONTINUOUS
 62
   249
 10
366.277215
 20
207.569179
 30
0.0
 11
369.153325
 21
210.397738
 31
0.0
  0
LINE
  8
0
  6
CONTINUOUS
 62
   249
 10
368.722622
 20
210.934944
 30
0.0
 11
369.623299
 21
209.811195
 31
0.0
  0
LINE
  8
0
  6
CONTINUOUS
 62
   249
 10
363.89307
 20
208.736782
 30
0.0
 11
371.681275
 21
208.736782
 31
0.0
  0
LINE
  8
0
  6
CONTINUOUS
 62
   249
 10
363.862038
 20
209.58206
 30
0.0
 11
363.862038
 21
207.793929
 31
0.0
  0
LINE
  8
0
  6
CONTINUOUS
 62
   249
 10
364.371075
 20
203.75802
 30
0.0
 11
371.914662
 21
203.75802
 31
0.0
  0
TEXT
  8
0
  6
DASHED
 62
   249
 10
364.325559
 20
232.921465
 30
0.0
 40
2.5
  1
I
  0
LINE
  8
0
  6
CONTINUOUS
 62
   249
 10
372.586545
 20
234.009554
 30
0.0
 11
370.240779
 21
232.819635
 31
0.0
  0
LINE
  8
0
  6
CONTINUOUS
 62
   249
 10
370.240779
 20
235.344908
 30
0.0
 11
372.586545
 21
234.009554
 31
0.0
  0
TEXT
  8
0
  6
DASHED
 62
   249
 10
364.355965
 20
223.539677
 30
0.0
 40
2.5
  1
I
  0
LINE
  8
0
  6
CONTINUOUS
 62
   249
 10
372.38881
 20
224.613368
 30
0.0
 11
370.043045
 21
223.423448
 31
0.0
  0
LINE
  8
0
  6
CONTINUOUS
 62
   249
 10
370.043045
 20
225.948721
 30
0.0
 11
372.38881
 21
224.613368
 31
0.0
  0
LINE
  8
0
  6
CONTINUOUS
 62
   249
 10
371.736319
 20
225.948721
 30
0.0
 11
374.082084
 21
224.613368
 31
0.0
  0
LINE
  8
0
  6
CONTINUOUS
 62
   249
 10
374.082084
 20
224.613368
 30
0.0
 11
371.736319
 21
223.423448
 31
0.0
  0
LINE
  8
0
  6
CONTINUOUS
 62
   249
 10
363.809898
 20
189.718453
 30
0.0
 11
371.353484
 21
189.718453
 31
0.0
  0
TEXT
  8
0
  6
CONTINUOUS
 62
   249
 10
62.5
 20
212.118189
 30
0.0
 40
2.0
  1
BS1
  7
ROMANS
  0
TEXT
  8
0
  6
CONTINUOUS
 62
   249
 10
62.5
 20
204.618189
 30
0.0
 40
2.0
  1
BS2
  7
ROMANS
  0
TEXT
  8
0
  6
CONTINUOUS
 62
   249
 10
361.879124
 20
178.314681
 30
0.0
 40
2.0
  1
n
  7
GREEKS
  0
TEXT
  8
0
  6
CONTINUOUS
 62
   249
 10
364.119621
 20
178.288649
 30
0.0
 40
2.0
  1
x
  7
GREEKS
  0
LINE
  8
0
  6
CONTINUOUS
 62
   249
 10
113.318812
 20
136.414794
 30
0.0
 11
113.318812
 21
148.555194
 31
0.0
  0
LINE
  8
0
  6
CONTINUOUS
 62
   249
 10
215.0
 20
50.0
 30
0.0
 11
215.0
 21
47.5
 31
0.0
  0
LINE
  8
0
  6
HIDDEN
 62
   249
 10
177.5
 20
50.0
 30
0.0
 11
177.5
 21
47.5
 31
0.0
  0
LINE
  8
0
  6
HIDDEN
 62
   249
 10
207.950615
 20
50.0
 30
0.0
 11
207.950615
 21
47.5
 31
0.0
  0
TEXT
  8
0
  6
CONTINUOUS
 62
   249
 10
348.457856
 20
168.832219
 30
0.0
 40
2.0
  1
FEEDER PROTECTION
  7
ROMANS
  0
TEXT
  8
0
  6
CONTINUOUS
 62
   249
 10
348.457856
 20
165.498885
 30
0.0
 40
2.0
  1
AND CONTROL UNIT
  7
ROMANS
  0
TEXT
  8
0
  6
CONTINUOUS
 62
   249
 10
348.457856
 20
161.052642
 30
0.0
 40
2.0
  1
SKYDDS- OCH KONTROLL-
  7
ROMANS
  0
TEXT
  8
0
  6
CONTINUOUS
 62
   249
 10
348.457856
 20
157.719308
 30
0.0
 40
2.0
  1
ENHET
  7
ROMANS
  0
TEXT
  8
0
  6
CONTINUOUS
 62
   249
 10
380.0
 20
2.5
 30
0.0
 40
2.5
  1
A
  7
ROMANS
  0
LINE
  8
0
  6
CONTINUOUS
 62
   249
 10
237.5
 20
122.5
 30
0.0
 11
237.5
 21
112.5
 31
0.0
  0
LINE
  8
0
  6
CONTINUOUS
 62
   249
 10
237.5
 20
117.5
 30
0.0
 11
230.0
 21
117.5
 31
0.0
  0
LINE
  8
0
  6
CONTINUOUS
 62
   249
 10
227.16296
 20
117.5
 30
0.0
 11
230.0
 21
117.5
 31
0.0
  0
LINE
  8
0
  6
CONTINUOUS
 62
   249
 10
237.5
 20
122.5
 30
0.0
 11
238.5
 21
123.5
 31
0.0
  0
LINE
  8
0
  6
CONTINUOUS
 62
   249
 10
237.5
 20
112.5
 30
0.0
 11
238.5
 21
111.5
 31
0.0
  0
LINE
  8
0
  6
CONTINUOUS
 62
   249
 10
222.851542
 20
194.533998
 30
0.0
 11
222.851542
 21
157.5
 31
0.0
  0
LINE
  8
0
  6
CONTINUOUS
 62
   249
 10
207.950615
 20
172.395025
 30
0.0
 11
227.16296
 21
172.395025
 31
0.0
  0
LINE
  8
0
  6
CONTINUOUS
 62
   249
 10
227.16296
 20
172.395025
 30
0.0
 11
227.16296
 21
117.5
 31
0.0
  0
LINE
  8
0
  6
CONTINUOUS
 62
   249
 10
177.5
 20
127.5
 30
0.0
 11
207.950615
 21
127.5
 31
0.0
  0
TEXT
  8
0
  6
CONTINUOUS
 62
   249
 10
202.5
 20
152.852153
 30
0.0
 40
2.5
  1
U3
  7
ROMANS
  0
LINE
  8
0
  6
CONTINUOUS
 62
   249
 10
105.0
 20
129.861159
 30
0.0
 11
105.0
 21
110.0
 31
0.0
  0
LINE
  8
0
  6
CONTINUOUS
 62
   249
 10
115.818812
 20
50.0
 30
0.0
 11
115.818812
 21
47.5
 31
0.0
  0
TEXT
  8
0
  6
DASHED
 62
   249
 10
145.517464
 20
56.539786
 30
0.0
 40
2.0
  1
CH 16
 50
90.0
  7
ROMANS
  0
TEXT
  8
0
  6
DASHED
 62
   249
 10
131.27963
 20
56.539786
 30
0.0
 40
2.0
  1
CH 15
 50
90.0
  7
ROMANS
  0
TEXT
  8
0
  6
DASHED
 62
   249
 10
118.415832
 20
56.539786
 30
0.0
 40
2.0
  1
AR INH
 50
90.0
  7
ROMANS
  0
LINE
  8
0
  6
CONTINUOUS
 62
   249
 10
132.5
 20
135.0
 30
0.0
 11
132.5
 21
188.109386
 31
0.0
  0
LINE
  8
0
  6
CONTINUOUS
 62
   249
 10
177.5
 20
188.109386
 30
0.0
 11
132.5
 21
188.109386
 31
0.0
  0
TEXT
  8
0
  6
CONTINUOUS
 62
   249
 10
172.342601
 20
186.092855
 30
0.0
 40
1.5
  1
SS3
  7
ROMANS
  0
LINE
  8
0
  6
CONTINUOUS
 62
   249
 10
358.261763
 20
175.198214
 30
0.0
 11
358.261763
 21
215.0
 31
0.0
  0
LINE
  8
0
  6
CONTINUOUS
 62
   249
 10
378.261763
 20
215.0
 30
0.0
 11
378.261763
 21
175.198214
 31
0.0
  0
LINE
  8
0
  6
CONTINUOUS
 62
   249
 10
358.261763
 20
187.698214
 30
0.0
 11
378.261763
 21
187.698214
 31
0.0
  0
LINE
  8
0
  6
CONTINUOUS
 62
   249
 10
358.261763
 20
175.198214
 30
0.0
 11
378.261763
 21
175.198214
 31
0.0
  0
LINE
  8
0
  6
CONTINUOUS
 62
   249
 10
177.5
 20
157.5
 30
0.0
 11
177.5
 21
127.5
 31
0.0
  0
LINE
  8
0
  6
CONTINUOUS
 62
   249
 10
207.950615
 20
157.5
 30
0.0
 11
207.950615
 21
127.5
 31
0.0
  0
TEXT
  8
0
  6
CONTINUOUS
 62
   249
 10
62.5
 20
227.069579
 30
0.0
 40
2.0
  1
BACTRL
  7
ROMANS
  0
LINE
  8
0
  6
CONTINUOUS
 62
   249
 10
241.0
 20
67.5
 30
0.0
 11
252.5
 21
67.5
 31
0.0
  0
LINE
  8
0
  6
CONTINUOUS
 62
   249
 10
240.0
 20
57.5
 30
0.0
 11
267.5
 21
57.5
 31
0.0
  0
LINE
  8
0
  6
CONTINUOUS
 62
   249
 10
240.0
 20
77.5
 30
0.0
 11
267.5
 21
77.5
 31
0.0
  0
LINE
  8
0
  6
CONTINUOUS
 62
   249
 10
240.0
 20
112.5
 30
0.0
 11
267.5
 21
112.5
 31
0.0
  0
LINE
  8
0
 62
   249
 10
257.5
 20
157.5
 30
0.0
 11
251.7
 21
154.0
 31
0.0
  0
LINE
  8
0
 62
   249
 10
252.5
 20
152.5
 30
0.0
 11
252.5
 21
155.4
 31
0.0
  0
LINE
  8
0
 62
   249
 10
250.0
 20
152.5
 30
0.0
 11
252.5
 21
152.5
 31
0.0
  0
LINE
  8
0
 62
   249
 10
251.38095
 20
154.444425
 30
0.0
 11
252.060313
 21
153.508681
 31
0.0
  0
LINE
  8
0
 62
   249
 10
252.5
 20
162.5
 30
0.0
 11
252.5
 21
165.4
 31
0.0
  0
LINE
  8
0
 62
   249
 10
257.5
 20
167.5
 30
0.0
 11
251.7
 21
164.0
 31
0.0
  0
LINE
  8
0
 62
   249
 10
250.0
 20
162.5
 30
0.0
 11
252.5
 21
162.5
 31
0.0
  0
LINE
  8
0
 62
   249
 10
251.38095
 20
164.444425
 30
0.0
 11
252.060313
 21
163.508681
 31
0.0
  0
LINE
  8
0
 62
   249
 10
250.0
 20
167.5
 30
0.0
 11
252.5
 21
167.5
 31
0.0
  0
LINE
  8
0
 62
   249
 10
247.5
 20
167.49845
 30
0.0
 11
250.0
 21
167.49845
 31
0.0
  0
LINE
  8
0
 62
   249
 10
250.0
 20
157.49845
 30
0.0
 11
247.5
 21
157.49845
 31
0.0
  0
LINE
  8
0
 62
   249
 10
250.0
 20
157.498451
 30
0.0
 11
252.5
 21
157.498451
 31
0.0
  0
LINE
  8
0
 62
   249
 10
247.5
 20
157.49845
 30
0.0
 11
247.5
 21
167.49845
 31
0.0
  0
LINE
  8
0
 62
   249
 10
240.0
 20
162.5
 30
0.0
 11
250.0
 21
162.5
 31
0.0
  0
TEXT
  8
0
  6
CONTINUOUS
 62
   249
 10
247.887383
 20
231.586709
 30
0.0
 40
2.0
  1
101
  7
ROMANS
  0
LINE
  8
0
 62
   249
 10
251.38095
 20
174.444425
 30
0.0
 11
252.060313
 21
173.508681
 31
0.0
  0
LINE
  8
0
 62
   249
 10
250.0
 20
172.5
 30
0.0
 11
252.5
 21
172.5
 31
0.0
  0
LINE
  8
0
 62
   249
 10
252.5
 20
172.5
 30
0.0
 11
252.5
 21
175.4
 31
0.0
  0
LINE
  8
0
 62
   249
 10
257.5
 20
177.5
 30
0.0
 11
251.7
 21
174.0
 31
0.0
  0
LINE
  8
0
 62
   249
 10
250.0
 20
177.498451
 30
0.0
 11
252.5
 21
177.498451
 31
0.0
  0
LINE
  8
0
 62
   249
 10
250.0
 20
177.49845
 30
0.0
 11
247.5
 21
177.49845
 31
0.0
  0
LINE
  8
0
 62
   249
 10
247.5
 20
177.49845
 30
0.0
 11
247.5
 21
187.49845
 31
0.0
  0
LINE
  8
0
 62
   249
 10
257.5
 20
187.5
 30
0.0
 11
251.7
 21
184.0
 31
0.0
  0
LINE
  8
0
 62
   249
 10
251.38095
 20
184.444425
 30
0.0
 11
252.060313
 21
183.508681
 31
0.0
  0
LINE
  8
0
 62
   249
 10
252.5
 20
182.5
 30
0.0
 11
252.5
 21
185.4
 31
0.0
  0
LINE
  8
0
 62
   249
 10
250.0
 20
182.5
 30
0.0
 11
252.5
 21
182.5
 31
0.0
  0
LINE
  8
0
 62
   249
 10
240.0
 20
182.5
 30
0.0
 11
250.0
 21
182.5
 31
0.0
  0
LINE
  8
0
 62
   249
 10
247.5
 20
187.49845
 30
0.0
 11
250.0
 21
187.49845
 31
0.0
  0
LINE
  8
0
 62
   249
 10
250.0
 20
187.5
 30
0.0
 11
252.5
 21
187.5
 31
0.0
  0
LINE
  8
0
 62
   249
 10
250.0
 20
192.5
 30
0.0
 11
252.5
 21
192.5
 31
0.0
  0
LINE
  8
0
 62
   249
 10
252.5
 20
192.5
 30
0.0
 11
252.5
 21
195.4
 31
0.0
  0
LINE
  8
0
 62
   249
 10
257.5
 20
197.5
 30
0.0
 11
251.7
 21
194.0
 31
0.0
  0
LINE
  8
0
 62
   249
 10
251.38095
 20
194.444425
 30
0.0
 11
252.060313
 21
193.508681
 31
0.0
  0
LINE
  8
0
 62
   249
 10
250.0
 20
197.5
 30
0.0
 11
252.5
 21
197.5
 31
0.0
  0
LINE
  8
0
 62
   249
 10
250.0
 20
197.49845
 30
0.0
 11
247.5
 21
197.49845
 31
0.0
  0
LINE
  8
0
 62
   249
 10
247.5
 20
197.49845
 30
0.0
 11
247.5
 21
207.49845
 31
0.0
  0
LINE
  8
0
 62
   249
 10
250.0
 20
207.5
 30
0.0
 11
252.5
 21
207.5
 31
0.0
  0
LINE
  8
0
 62
   249
 10
247.5
 20
207.49845
 30
0.0
 11
250.0
 21
207.49845
 31
0.0
  0
LINE
  8
0
 62
   249
 10
240.0
 20
202.5
 30
0.0
 11
250.0
 21
202.5
 31
0.0
  0
LINE
  8
0
 62
   249
 10
250.0
 20
202.5
 30
0.0
 11
252.5
 21
202.5
 31
0.0
  0
LINE
  8
0
 62
   249
 10
252.5
 20
202.5
 30
0.0
 11
252.5
 21
205.4
 31
0.0
  0
LINE
  8
0
 62
   249
 10
251.38095
 20
204.444425
 30
0.0
 11
252.060313
 21
203.508681
 31
0.0
  0
LINE
  8
0
 62
   249
 10
257.5
 20
207.5
 30
0.0
 11
251.7
 21
204.0
 31
0.0
  0
LINE
  8
0
 62
   249
 10
252.5
 20
212.5
 30
0.0
 11
252.5
 21
215.4
 31
0.0
  0
LINE
  8
0
 62
   249
 10
250.0
 20
212.5
 30
0.0
 11
252.5
 21
212.5
 31
0.0
  0
LINE
  8
0
 62
   249
 10
251.38095
 20
214.444425
 30
0.0
 11
252.060313
 21
213.508681
 31
0.0
  0
LINE
  8
0
 62
   249
 10
257.5
 20
217.5
 30
0.0
 11
251.7
 21
214.0
 31
0.0
  0
LINE
  8
0
 62
   249
 10
250.0
 20
217.5
 30
0.0
 11
252.5
 21
217.5
 31
0.0
  0
LINE
  8
0
 62
   249
 10
250.0
 20
217.49845
 30
0.0
 11
247.5
 21
217.49845
 31
0.0
  0
LINE
  8
0
 62
   249
 10
257.5
 20
227.5
 30
0.0
 11
251.7
 21
224.0
 31
0.0
  0
LINE
  8
0
 62
   249
 10
251.38095
 20
224.444425
 30
0.0
 11
252.060313
 21
223.508681
 31
0.0
  0
LINE
  8
0
 62
   249
 10
252.5
 20
222.5
 30
0.0
 11
252.5
 21
225.4
 31
0.0
  0
LINE
  8
0
 62
   249
 10
250.0
 20
222.5
 30
0.0
 11
252.5
 21
222.5
 31
0.0
  0
LINE
  8
0
 62
   249
 10
240.0
 20
222.5
 30
0.0
 11
250.0
 21
222.5
 31
0.0
  0
LINE
  8
0
 62
   249
 10
247.5
 20
227.49845
 30
0.0
 11
250.0
 21
227.49845
 31
0.0
  0
LINE
  8
0
 62
   249
 10
250.0
 20
227.5
 30
0.0
 11
252.5
 21
227.5
 31
0.0
  0
LINE
  8
0
 62
   249
 10
247.5
 20
217.49845
 30
0.0
 11
247.5
 21
227.49845
 31
0.0
  0
LINE
  8
0
  6
CONTINUOUS
 62
   249
 10
250.0
 20
152.5
 30
0.0
 11
240.0
 21
152.5
 31
0.0
  0
LINE
  8
0
  6
CONTINUOUS
 62
   249
 10
250.0
 20
172.5
 30
0.0
 11
240.0
 21
172.5
 31
0.0
  0
LINE
  8
0
  6
CONTINUOUS
 62
   249
 10
250.0
 20
192.5
 30
0.0
 11
240.0
 21
192.5
 31
0.0
  0
LINE
  8
0
  6
CONTINUOUS
 62
   249
 10
240.0
 20
212.5
 30
0.0
 11
250.0
 21
212.5
 31
0.0
  0
TEXT
  8
0
  6
DASHED
 62
   249
 10
260.68043
 20
224.765533
 30
0.0
 40
2.0
  1
13A
  7
ROMANS
 11
260.68043
 21
224.098866
 31
0.0
 73
     1
  0
LINE
  8
0
  6
CONTINUOUS
 62
   249
 10
257.5
 20
227.5
 30
0.0
 11
267.5
 21
227.5
 31
0.0
  0
LINE
  8
0
  6
CONTINUOUS
 62
   249
 10
257.5
 20
217.5
 30
0.0
 11
267.5
 21
217.5
 31
0.0
  0
TEXT
  8
0
  6
DASHED
 62
   249
 10
260.68043
 20
214.833333
 30
0.0
 40
2.0
  1
14A
  7
ROMANS
 11
260.68043
 21
214.166667
 31
0.0
 73
     1
  0
LINE
  8
0
  6
CONTINUOUS
 62
   249
 10
257.5
 20
207.5
 30
0.0
 11
267.5
 21
207.5
 31
0.0
  0
TEXT
  8
0
  6
DASHED
 62
   249
 10
260.68043
 20
204.537215
 30
0.0
 40
2.0
  1
15A
  7
ROMANS
 11
260.68043
 21
203.870548
 31
0.0
 73
     1
  0
TEXT
  8
0
  6
DASHED
 62
   249
 10
260.68043
 20
194.786975
 30
0.0
 40
2.0
  1
16A
  7
ROMANS
 11
260.68043
 21
194.120309
 31
0.0
 73
     1
  0
LINE
  8
0
  6
CONTINUOUS
 62
   249
 10
257.5
 20
197.5
 30
0.0
 11
267.5
 21
197.5
 31
0.0
  0
LINE
  8
0
  6
CONTINUOUS
 62
   249
 10
257.5
 20
187.5
 30
0.0
 11
267.5
 21
187.5
 31
0.0
  0
TEXT
  8
0
  6
DASHED
 62
   249
 10
260.68043
 20
184.833333
 30
0.0
 40
2.0
  1
17A
  7
ROMANS
 11
260.68043
 21
184.166667
 31
0.0
 73
     1
  0
LINE
  8
0
  6
CONTINUOUS
 62
   249
 10
257.5
 20
177.5
 30
0.0
 11
267.5
 21
177.5
 31
0.0
  0
TEXT
  8
0
  6
DASHED
 62
   249
 10
260.68043
 20
174.545879
 30
0.0
 40
2.0
  1
18A
  7
ROMANS
 11
260.68043
 21
173.879213
 31
0.0
 73
     1
  0
LINE
  8
0
  6
CONTINUOUS
 62
   249
 10
257.5
 20
167.5
 30
0.0
 11
267.5
 21
167.5
 31
0.0
  0
TEXT
  8
0
  6
CONTINUOUS
 62
   249
 10
260.68043
 20
164.551395
 30
0.0
 40
2.0
  1
19A
  7
ROMANS
  0
LINE
  8
0
  6
CONTINUOUS
 62
   249
 10
257.5
 20
157.5
 30
0.0
 11
267.5
 21
157.5
 31
0.0
  0
TEXT
  8
0
  6
CONTINUOUS
 62
   249
 10
259.854441
 20
154.75756
 30
0.0
 40
2.0
  1
20A
  7
ROMANS
  0
LINE
  8
0
  6
CENTER
 62
   249
 10
267.5
 20
247.5
 30
0.0
 11
267.5
 21
50.0
 31
0.0
  0
LINE
  8
0
  6
CONTINUOUS
 62
   249
 10
252.5
 20
122.5
 30
0.0
 11
252.5
 21
125.265661
 31
0.0
  0
LINE
  8
0
  6
CONTINUOUS
 62
   249
 10
251.837159
 20
124.934804
 30
0.0
 11
251.392266
 21
124.049106
 31
0.0
  0
LINE
  8
0
  6
CONTINUOUS
 62
   249
 10
258.500004
 20
122.5
 30
0.0
 11
251.837159
 21
124.934804
 31
0.0
  0
LINE
  8
0
  6
CONTINUOUS
 62
   249
 10
258.500004
 20
122.5
 30
0.0
 11
267.5
 21
122.5
 31
0.0
  0
TEXT
  8
0
  6
DASHED
 62
   249
 10
260.025562
 20
119.018385
 30
0.0
 40
2.0
  1
11A
  7
ROMANS
  0
LINE
  8
0
  6
CONTINUOUS
 62
   249
 10
241.0
 20
122.5
 30
0.0
 11
252.5
 21
122.5
 31
0.0
  0
LINE
  8
0
  6
CONTINUOUS
 62
   249
 10
258.500004
 20
87.5
 30
0.0
 11
267.5
 21
87.5
 31
0.0
  0
TEXT
  8
0
  6
DASHED
 62
   249
 10
260.025562
 20
84.018385
 30
0.0
 40
2.0
  1
23A
  7
ROMANS
  0
LINE
  8
0
  6
CONTINUOUS
 62
   249
 10
258.500004
 20
87.5
 30
0.0
 11
251.837159
 21
89.934804
 31
0.0
  0
LINE
  8
0
  6
CONTINUOUS
 62
   249
 10
252.5
 20
87.5
 30
0.0
 11
252.5
 21
90.265661
 31
0.0
  0
LINE
  8
0
  6
CONTINUOUS
 62
   249
 10
251.837159
 20
89.934804
 30
0.0
 11
251.392266
 21
89.049106
 31
0.0
  0
LINE
  8
0
  6
CONTINUOUS
 62
   249
 10
241.0
 20
87.5
 30
0.0
 11
252.5
 21
87.5
 31
0.0
  0
LINE
  8
0
  6
CONTINUOUS
 62
   249
 10
252.5
 20
67.5
 30
0.0
 11
252.5
 21
70.265661
 31
0.0
  0
LINE
  8
0
  6
CONTINUOUS
 62
   249
 10
251.837159
 20
69.934804
 30
0.0
 11
251.392266
 21
69.049106
 31
0.0
  0
LINE
  8
0
  6
CONTINUOUS
 62
   249
 10
258.500004
 20
67.5
 30
0.0
 11
251.837159
 21
69.934804
 31
0.0
  0
LINE
  8
0
  6
CONTINUOUS
 62
   249
 10
258.500004
 20
67.5
 30
0.0
 11
267.5
 21
67.5
 31
0.0
  0
TEXT
  8
0
  6
DASHED
 62
   249
 10
260.025562
 20
63.713263
 30
0.0
 40
2.0
  1
24A
  7
ROMANS
  0
LINE
  8
0
  6
CENTER
 62
   249
 10
267.5
 20
247.5
 30
0.0
 11
17.5
 21
247.5
 31
0.0
  0
LINE
  8
0
  6
CENTER
 62
   249
 10
17.5
 20
50.0
 30
0.0
 11
267.5
 21
50.0
 31
0.0
  0
LINE
  8
0
  6
CONTINUOUS
 62
   249
 10
30.0
 20
217.5
 30
0.0
 11
17.5
 21
217.5
 31
0.0
  0
TEXT
  8
0
  6
DASHED
 62
   249
 10
19.175737
 20
213.897161
 30
0.0
 40
2.0
  1
101:4A
  7
ROMANS
  0
LINE
  8
0
  6
CONTINUOUS
 62
   249
 10
37.5
 20
65.0
 30
0.0
 11
33.500004
 21
65.0
 31
0.0
  0
TEXT
  8
0
  6
DASHED
 62
   249
 10
38.549432
 20
60.712231
 30
0.0
 40
2.0
  1
101:5A
  7
ROMANS
  0
LINE
  8
0
  6
CONTINUOUS
 62
   249
 10
37.5
 20
80.0
 30
0.0
 11
37.5
 21
65.0
 31
0.0
  0
TEXT
  8
0
  6
DASHED
 62
   249
 10
38.525761
 20
91.397161
 30
0.0
 40
2.0
  1
101:6A
  7
ROMANS
  0
LINE
  8
0
  6
CONTINUOUS
 62
   249
 10
37.5
 20
95.0
 30
0.0
 11
33.500004
 21
95.0
 31
0.0
  0
LINE
  8
0
  6
CONTINUOUS
 62
   249
 10
37.5
 20
115.0
 30
0.0
 11
33.500004
 21
115.0
 31
0.0
  0
LINE
  8
0
  6
CONTINUOUS
 62
   249
 10
33.500004
 20
95.0
 30
0.0
 11
26.837159
 21
97.434804
 31
0.0
  0
LINE
  8
0
  6
CONTINUOUS
 62
   249
 10
27.5
 20
95.0
 30
0.0
 11
27.5
 21
97.765661
 31
0.0
  0
LINE
  8
0
  6
CONTINUOUS
 62
   249
 10
33.500004
 20
115.0
 30
0.0
 11
26.837159
 21
117.434804
 31
0.0
  0
LINE
  8
0
  6
CONTINUOUS
 62
   249
 10
27.5
 20
115.0
 30
0.0
 11
27.5
 21
117.765661
 31
0.0
  0
LINE
  8
0
  6
CONTINUOUS
 62
   249
 10
27.5
 20
115.0
 30
0.0
 11
17.5
 21
115.0
 31
0.0
  0
LINE
  8
0
  6
CONTINUOUS
 62
   249
 10
27.5
 20
95.0
 30
0.0
 11
17.5
 21
95.0
 31
0.0
  0
LINE
  8
0
  6
CONTINUOUS
 62
   249
 10
27.5
 20
65.0
 30
0.0
 11
17.5
 21
65.0
 31
0.0
  0
TEXT
  8
0
  6
DASHED
 62
   249
 10
38.525761
 20
112.022086
 30
0.0
 40
2.0
  1
101:3A
  7
ROMANS
  0
LINE
  8
0
  6
CONTINUOUS
 62
   249
 10
33.500004
 20
125.0
 30
0.0
 11
26.837159
 21
127.434804
 31
0.0
  0
LINE
  8
0
  6
CONTINUOUS
 62
   249
 10
27.5
 20
125.0
 30
0.0
 11
27.5
 21
127.765661
 31
0.0
  0
LINE
  8
0
  6
CONTINUOUS
 62
   249
 10
27.5
 20
125.0
 30
0.0
 11
17.5
 21
125.0
 31
0.0
  0
LINE
  8
0
  6
CONTINUOUS
 62
   249
 10
37.5
 20
125.0
 30
0.0
 11
33.500004
 21
125.0
 31
0.0
  0
LINE
  8
0
  6
CONTINUOUS
 62
   249
 10
33.500004
 20
130.0
 30
0.0
 11
26.837159
 21
132.434804
 31
0.0
  0
LINE
  8
0
  6
CONTINUOUS
 62
   249
 10
27.5
 20
130.0
 30
0.0
 11
27.5
 21
132.765661
 31
0.0
  0
LINE
  8
0
  6
CONTINUOUS
 62
   249
 10
27.5
 20
130.0
 30
0.0
 11
17.5
 21
130.0
 31
0.0
  0
LINE
  8
0
  6
CONTINUOUS
 62
   249
 10
37.5
 20
130.0
 30
0.0
 11
33.500004
 21
130.0
 31
0.0
  0
LINE
  8
0
  6
CONTINUOUS
 62
   249
 10
33.500004
 20
142.5
 30
0.0
 11
26.837159
 21
144.934804
 31
0.0
  0
LINE
  8
0
  6
CONTINUOUS
 62
   249
 10
27.5
 20
142.5
 30
0.0
 11
17.5
 21
142.5
 31
0.0
  0
LINE
  8
0
  6
CONTINUOUS
 62
   249
 10
27.5
 20
142.5
 30
0.0
 11
27.5
 21
145.265661
 31
0.0
  0
TEXT
  8
0
  6
DASHED
 62
   249
 10
38.525761
 20
121.917813
 30
0.0
 40
2.0
  1
101:1A
  7
ROMANS
  0
TEXT
  8
0
  6
DASHED
 62
   249
 10
38.525761
 20
126.920731
 30
0.0
 40
2.0
  1
101:2A
  7
ROMANS
  0
TEXT
  8
0
  6
DASHED
 62
   249
 10
30.777691
 20
138.450504
 30
0.0
 40
2.0
  1
101:12A
  7
ROMANS
  0
LINE
  8
0
  6
CONTINUOUS
 62
   249
 10
33.500004
 20
65.0
 30
0.0
 11
26.837159
 21
67.434804
 31
0.0
  0
LINE
  8
0
  6
CONTINUOUS
 62
   249
 10
27.5
 20
65.0
 30
0.0
 11
27.5
 21
67.765661
 31
0.0
  0
LINE
  8
0
  6
CONTINUOUS
 62
   249
 10
26.837159
 20
67.434804
 30
0.0
 11
26.392266
 21
66.549106
 31
0.0
  0
LINE
  8
0
  6
CONTINUOUS
 62
   249
 10
26.837159
 20
144.934804
 30
0.0
 11
26.392266
 21
144.049106
 31
0.0
  0
LINE
  8
0
  6
CONTINUOUS
 62
   249
 10
26.837159
 20
127.434804
 30
0.0
 11
26.392266
 21
126.549106
 31
0.0
  0
LINE
  8
0
  6
CONTINUOUS
 62
   249
 10
40.753196
 20
142.5
 30
0.0
 11
33.500004
 21
142.5
 31
0.0
  0
LINE
  8
0
  6
CENTER
 62
   249
 10
17.5
 20
247.5
 30
0.0
 11
17.5
 21
50.0
 31
0.0
  0
LINE
  8
0
 62
   249
 10
247.5
 20
137.49845
 30
0.0
 11
247.5
 21
147.49845
 31
0.0
  0
LINE
  8
0
 62
   249
 10
250.0
 20
137.498451
 30
0.0
 11
252.5
 21
137.498451
 31
0.0
  0
LINE
  8
0
 62
   249
 10
250.0
 20
137.49845
 30
0.0
 11
247.5
 21
137.49845
 31
0.0
  0
LINE
  8
0
 62
   249
 10
247.5
 20
147.49845
 30
0.0
 11
250.0
 21
147.49845
 31
0.0
  0
LINE
  8
0
 62
   249
 10
250.0
 20
147.5
 30
0.0
 11
252.5
 21
147.5
 31
0.0
  0
LINE
  8
0
 62
   249
 10
251.38095
 20
144.444425
 30
0.0
 11
252.060313
 21
143.508681
 31
0.0
  0
LINE
  8
0
 62
   249
 10
241.0
 20
142.5
 30
0.0
 11
252.5
 21
142.5
 31
0.0
  0
LINE
  8
0
 62
   249
 10
257.5
 20
147.5
 30
0.0
 11
251.7
 21
144.0
 31
0.0
  0
LINE
  8
0
 62
   249
 10
252.5
 20
142.5
 30
0.0
 11
252.5
 21
145.4
 31
0.0
  0
LINE
  8
0
 62
   249
 10
251.38095
 20
134.444425
 30
0.0
 11
252.060313
 21
133.508681
 31
0.0
  0
LINE
  8
0
 62
   249
 10
250.0
 20
132.5
 30
0.0
 11
252.5
 21
132.5
 31
0.0
  0
LINE
  8
0
 62
   249
 10
252.5
 20
132.5
 30
0.0
 11
252.5
 21
135.4
 31
0.0
  0
LINE
  8
0
 62
   249
 10
257.5
 20
137.5
 30
0.0
 11
251.7
 21
134.0
 31
0.0
  0
LINE
  8
0
  6
CONTINUOUS
 62
   249
 10
257.5
 20
137.5
 30
0.0
 11
267.5
 21
137.5
 31
0.0
  0
LINE
  8
0
  6
CONTINUOUS
 62
   249
 10
257.5
 20
147.5
 30
0.0
 11
267.5
 21
147.5
 31
0.0
  0
LINE
  8
0
  6
CONTINUOUS
 62
   249
 10
250.0
 20
132.5
 30
0.0
 11
240.0
 21
132.5
 31
0.0
  0
TEXT
  8
0
  6
CONTINUOUS
 62
   249
 10
317.5
 20
20.365907
 30
0.0
 40
2.0
  1
SPAC 539 C1 / E263 MED PROVDON
  7
ROMANS
  0
INSERT
  8
0
  6
CONTINUOUS
  2
B1337
 10
17.5
 20
157.5
 30
0.0
  0
INSERT
  8
0
  6
CONTINUOUS
  2
B1337
 10
17.5
 20
172.5
 30
0.0
  0
INSERT
  8
0
  6
CONTINUOUS
  2
B1337
 10
17.5
 20
175.0
 30
0.0
  0
LINE
  8
0
  6
CONTINUOUS
 62
   249
 10
34.116681
 20
152.5
 30
0.0
 11
40.938092
 21
152.5
 31
0.0
  0
LINE
  8
0
  6
DASHED
 62
   249
 10
12.5
 20
152.5
 30
0.0
 11
17.5
 21
152.5
 31
0.0
  0
LINE
  8
0
  6
CONTINUOUS
 62
   249
 10
26.813709
 20
150.123361
 30
0.0
 11
34.116681
 21
152.5
 31
0.0
  0
LINE
  8
0
  6
CONTINUOUS
 62
   249
 10
17.5
 20
152.5
 30
0.0
 11
27.5
 21
152.5
 31
0.0
  0
TEXT
  8
0
  6
DASHED
 62
   249
 10
30.741747
 20
148.629251
 30
0.0
 40
2.0
  1
101:29
  7
ROMANS
  0
TEXT
  8
0
  6
CONTINUOUS
 62
   249
 10
260.68043
 20
144.419517
 30
0.0
 40
2.0
  1
21A
  7
ROMANS
  0
TEXT
  8
0
  6
CONTINUOUS
 62
   249
 10
259.854441
 20
134.625683
 30
0.0
 40
2.0
  1
22A
  7
ROMANS
  0
LINE
  8
0
  6
DASHED
 62
   249
 10
12.5
 20
142.5
 30
0.0
 11
17.5
 21
142.5
 31
0.0
  0
LINE
  8
0
  6
CONTINUOUS
 62
   249
 10
36.000004
 20
217.5
 30
0.0
 11
29.337159
 21
219.934804
 31
0.0
  0
LINE
  8
0
  6
CONTINUOUS
 62
   249
 10
30.0
 20
217.5
 30
0.0
 11
30.0
 21
220.265661
 31
0.0
  0
LINE
  8
0
  6
CONTINUOUS
 62
   249
 10
29.337159
 20
219.934804
 30
0.0
 11
28.892266
 21
219.049106
 31
0.0
  0
LINE
  8
0
  6
DASHED
 62
   249
 10
17.5
 20
85.0
 30
0.0
 11
12.5
 21
85.0
 31
0.0
  0
LINE
  8
0
  6
DASHED
 62
   249
 10
17.5
 20
70.0
 30
0.0
 11
12.5
 21
70.0
 31
0.0
  0
LINE
  8
0
  6
DASHED
 62
   249
 10
17.5
 20
100.0
 30
0.0
 11
12.5
 21
100.0
 31
0.0
  0
LINE
  8
0
  6
DASHED
 62
   249
 10
335.0
 20
245.0
 30
0.0
 11
335.0
 21
247.5
 31
0.0
  0
LINE
  8
0
  6
DASHED
 62
   249
 10
327.5
 20
245.0
 30
0.0
 11
327.5
 21
247.5
 31
0.0
  0
LINE
  8
0
  6
DASHED
 62
   249
 10
302.5
 20
240.0
 30
0.0
 11
302.5
 21
247.5
 31
0.0
  0
LINE
  8
0
  6
DASHED
 62
   249
 10
347.5
 20
112.5
 30
0.0
 11
347.5
 21
127.5
 31
0.0
  0
LINE
  8
0
  6
DASHED
 62
   249
 10
355.0
 20
112.5
 30
0.0
 11
355.0
 21
122.5
 31
0.0
  0
LINE
  8
0
  6
CONTINUOUS
 62
   249
 10
347.5
 20
97.68998
 30
0.0
 11
347.5
 21
95.0
 31
0.0
  0
LINE
  8
0
  6
CONTINUOUS
 62
   249
 10
355.0
 20
97.68998
 30
0.0
 11
355.0
 21
95.0
 31
0.0
  0
ARC
  8
0
  6
CONTINUOUS
 62
   249
 10
353.364862
 20
101.296095
 30
0.0
 40
1.204309
 50
90.0
 51
265.706237
  0
LINE
  8
0
  6
CONTINUOUS
 62
   249
 10
353.358762
 20
100.098547
 30
0.0
 11
354.00836
 21
100.098547
 31
0.0
  0
LINE
  8
0
  6
CONTINUOUS
 62
   249
 10
353.358762
 20
102.499993
 30
0.0
 11
354.002261
 21
102.499993
 31
0.0
  0
LINE
  8
0
  6
CONTINUOUS
 62
   249
 10
353.359898
 20
97.689937
 30
0.0
 11
354.009496
 21
97.689937
 31
0.0
  0
ARC
  8
0
  6
CONTINUOUS
 62
   249
 10
353.364862
 20
98.894238
 30
0.0
 40
1.204309
 50
90.0
 51
270.0
  0
LINE
  8
0
  6
CONTINUOUS
 62
   249
 10
354.000897
 20
97.68998
 30
0.0
 11
355.0
 21
97.68998
 31
0.0
  0
LINE
  8
0
  6
CONTINUOUS
 62
   249
 10
353.996128
 20
102.499996
 30
0.0
 11
354.973936
 21
102.499996
 31
0.0
  0
LINE
  8
0
  6
CONTINUOUS
 62
   249
 10
354.006031
 20
100.098556
 30
0.0
 11
354.978167
 21
100.098556
 31
0.0
  0
ARC
  8
0
  6
CONTINUOUS
 62
   249
 10
345.864862
 20
101.296095
 30
0.0
 40
1.204309
 50
90.0
 51
265.706237
  0
LINE
  8
0
  6
CONTINUOUS
 62
   249
 10
345.858762
 20
100.098547
 30
0.0
 11
346.50836
 21
100.098547
 31
0.0
  0
LINE
  8
0
  6
CONTINUOUS
 62
   249
 10
345.858762
 20
102.499993
 30
0.0
 11
346.502261
 21
102.499993
 31
0.0
  0
LINE
  8
0
  6
CONTINUOUS
 62
   249
 10
345.859898
 20
97.689937
 30
0.0
 11
346.509496
 21
97.689937
 31
0.0
  0
ARC
  8
0
  6
CONTINUOUS
 62
   249
 10
345.864862
 20
98.894238
 30
0.0
 40
1.204309
 50
90.0
 51
270.0
  0
LINE
  8
0
  6
CONTINUOUS
 62
   249
 10
346.500897
 20
97.68998
 30
0.0
 11
347.5
 21
97.68998
 31
0.0
  0
LINE
  8
0
  6
CONTINUOUS
 62
   249
 10
346.506031
 20
100.098556
 30
0.0
 11
347.478167
 21
100.098556
 31
0.0
  0
TEXT
  8
0
  6
DASHED
 62
   249
 10
333.930477
 20
126.475105
 30
0.0
 40
2.0
  1
L1 (R)
  7
ROMANS
  0
TEXT
  8
0
  6
DASHED
 62
   249
 10
333.930477
 20
121.422594
 30
0.0
 40
2.0
  1
L2 (S)
  7
ROMANS
  0
TEXT
  8
0
  6
DASHED
 62
   249
 10
333.930477
 20
116.480287
 30
0.0
 40
2.0
  1
L3 (T)
  7
ROMANS
  0
LINE
  8
0
  6
DASHED
 62
   249
 10
355.0
 20
95.0
 30
0.0
 11
355.0
 21
87.5
 31
0.0
  0
LINE
  8
0
  6
DASHED
 62
   249
 10
355.0
 20
87.5
 30
0.0
 11
310.0
 21
87.5
 31
0.0
  0
LINE
  8
0
  6
CENTER
 62
   249
 10
267.5
 20
80.0
 30
0.0
 11
267.5
 21
50.0
 31
0.0
  0
LINE
  8
0
  6
DASHED
 62
   249
 10
297.5
 20
120.0
 30
0.0
 11
297.5
 21
110.0
 31
0.0
  0
LINE
  8
0
  6
DASHED
 62
   249
 10
267.5
 20
122.5
 30
0.0
 11
327.5
 21
122.5
 31
0.0
  0
LINE
  8
0
  6
CONTINUOUS
 62
   249
 10
297.5
 20
170.0
 30
0.0
 11
297.5
 21
122.5
 31
0.0
  0
LINE
  8
0
  6
DASHED
 62
   249
 10
267.5
 20
57.5
 30
0.0
 11
290.0
 21
57.5
 31
0.0
  0
LINE
  8
0
  6
DASHED
 62
   249
 10
282.5
 20
77.5
 30
0.0
 11
267.5
 21
77.5
 31
0.0
  0
LINE
  8
0
  6
DASHED
 62
   249
 10
315.0
 20
67.5
 30
0.0
 11
267.5
 21
67.5
 31
0.0
  0
LINE
  8
0
  6
DASHED
 62
   249
 10
267.5
 20
87.5
 30
0.0
 11
310.0
 21
87.5
 31
0.0
  0
LINE
  8
0
  6
DASHED
 62
   249
 10
290.0
 20
87.5
 30
0.0
 11
290.0
 21
57.5
 31
0.0
  0
LINE
  8
0
  6
DASHED
 62
   249
 10
282.5
 20
77.5
 30
0.0
 11
282.5
 21
67.5
 31
0.0
  0
LINE
  8
0
  6
DASHED
 62
   249
 10
327.5
 20
122.5
 30
0.0
 11
327.5
 21
215.0
 31
0.0
  0
LINE
  8
0
  6
DASHED
 62
   249
 10
320.0
 20
112.5
 30
0.0
 11
320.0
 21
227.5
 31
0.0
  0
LINE
  8
0
  6
CENTER
 62
   249
 10
267.5
 20
220.0
 30
0.0
 11
267.5
 21
245.0
 31
0.0
  0
LINE
  8
0
  6
CONTINUOUS
 62
   249
 10
325.0
 20
227.5
 30
0.0
 11
320.0
 21
235.0
 31
0.0
  0
LINE
  8
0
  6
CONTINUOUS
 62
   249
 10
327.5
 20
227.5
 30
0.0
 11
325.0
 21
227.5
 31
0.0
  0
LINE
  8
0
  6
CONTINUOUS
 62
   249
 10
319.006031
 20
232.598556
 30
0.0
 11
319.978167
 21
232.598556
 31
0.0
  0
LINE
  8
0
  6
CONTINUOUS
 62
   249
 10
318.996128
 20
234.999996
 30
0.0
 11
319.973936
 21
234.999996
 31
0.0
  0
LINE
  8
0
  6
CONTINUOUS
 62
   249
 10
319.000897
 20
230.18998
 30
0.0
 11
320.0
 21
230.18998
 31
0.0
  0
ARC
  8
0
  6
CONTINUOUS
 62
   249
 10
318.364862
 20
231.394238
 30
0.0
 40
1.204309
 50
90.0
 51
270.0
  0
LINE
  8
0
  6
CONTINUOUS
 62
   249
 10
318.359898
 20
230.189937
 30
0.0
 11
319.009496
 21
230.189937
 31
0.0
  0
LINE
  8
0
  6
CONTINUOUS
 62
   249
 10
318.358762
 20
234.999993
 30
0.0
 11
319.002261
 21
234.999993
 31
0.0
  0
LINE
  8
0
  6
CONTINUOUS
 62
   249
 10
318.358762
 20
232.598547
 30
0.0
 11
319.00836
 21
232.598547
 31
0.0
  0
ARC
  8
0
  6
CONTINUOUS
 62
   249
 10
318.364862
 20
233.796095
 30
0.0
 40
1.204309
 50
90.0
 51
265.706237
  0
LINE
  8
0
  6
CONTINUOUS
 62
   249
 10
326.506031
 20
232.598556
 30
0.0
 11
327.478167
 21
232.598556
 31
0.0
  0
LINE
  8
0
  6
CONTINUOUS
 62
   249
 10
326.496128
 20
234.999996
 30
0.0
 11
327.473936
 21
234.999996
 31
0.0
  0
LINE
  8
0
  6
CONTINUOUS
 62
   249
 10
326.500897
 20
230.18998
 30
0.0
 11
327.5
 21
230.18998
 31
0.0
  0
ARC
  8
0
  6
CONTINUOUS
 62
   249
 10
325.864862
 20
231.394238
 30
0.0
 40
1.204309
 50
90.0
 51
270.0
  0
LINE
  8
0
  6
CONTINUOUS
 62
   249
 10
325.859898
 20
230.189937
 30
0.0
 11
326.509496
 21
230.189937
 31
0.0
  0
LINE
  8
0
  6
CONTINUOUS
 62
   249
 10
325.858762
 20
234.999993
 30
0.0
 11
326.502261
 21
234.999993
 31
0.0
  0
LINE
  8
0
  6
CONTINUOUS
 62
   249
 10
325.858762
 20
232.598547
 30
0.0
 11
326.50836
 21
232.598547
 31
0.0
  0
ARC
  8
0
  6
CONTINUOUS
 62
   249
 10
325.864862
 20
233.796095
 30
0.0
 40
1.204309
 50
90.0
 51
265.706237
  0
LINE
  8
0
  6
CONTINUOUS
 62
   249
 10
327.5
 20
230.18998
 30
0.0
 11
327.5
 21
227.5
 31
0.0
  0
LINE
  8
0
  6
CONTINUOUS
 62
   249
 10
320.0
 20
230.18998
 30
0.0
 11
320.0
 21
227.5
 31
0.0
  0
LINE
  8
0
  6
DASHED
 62
   249
 10
320.0
 20
245.0
 30
0.0
 11
320.0
 21
247.5
 31
0.0
  0
LINE
  8
0
  6
DASHED
 62
   249
 10
302.5
 20
187.5
 30
0.0
 11
267.5
 21
187.5
 31
0.0
  0
LINE
  8
0
  6
DASHED
 62
   249
 10
297.5
 20
207.5
 30
0.0
 11
267.5
 21
207.5
 31
0.0
  0
LINE
  8
0
  6
DASHED
 62
   249
 10
292.5
 20
227.5
 30
0.0
 11
267.5
 21
227.5
 31
0.0
  0
LINE
  8
0
  6
DASHED
 62
   249
 10
295.0
 20
137.5
 30
0.0
 11
297.5
 21
137.5
 31
0.0
  0
LINE
  8
0
  6
DASHED
 62
   249
 10
297.5
 20
137.5
 30
0.0
 11
297.5
 21
137.5
 31
0.0
  0
LINE
  8
0
  6
DASHED
 62
   249
 10
285.0
 20
142.310016
 30
0.0
 11
297.5
 21
142.310016
 31
0.0
  0
LINE
  8
0
  6
CONTINUOUS
 62
   249
 10
295.0
 20
139.90144
 30
0.0
 11
297.5
 21
139.90144
 31
0.0
  0
LINE
  8
0
  6
DASHED
 62
   249
 10
285.0
 20
132.5
 30
0.0
 11
285.0
 21
137.5
 31
0.0
  0
LINE
  8
0
  6
DASHED
 62
   249
 10
295.0
 20
175.0
 30
0.0
 11
295.0
 21
132.5
 31
0.0
  0
LINE
  8
0
  6
CONTINUOUS
 62
   249
 10
297.5
 20
170.0
 30
0.0
 11
300.0
 21
175.0
 31
0.0
  0
LINE
  8
0
  6
CONTINUOUS
 62
   249
 10
295.0
 20
175.0
 30
0.0
 11
297.5
 21
170.0
 31
0.0
  0
LINE
  8
0
  6
CONTINUOUS
 62
   249
 10
292.5
 20
175.0
 30
0.0
 11
302.5
 21
175.0
 31
0.0
  0
LINE
  8
0
  6
DASHED
 62
   249
 10
287.5
 20
222.689992
 30
0.0
 11
287.5
 21
157.5
 31
0.0
  0
LINE
  8
0
  6
DASHED
 62
   249
 10
285.0
 20
147.5
 30
0.0
 11
285.0
 21
142.310016
 31
0.0
  0
LINE
  8
0
  6
DASHED
 62
   249
 10
267.5
 20
147.5
 30
0.0
 11
285.0
 21
147.5
 31
0.0
  0
LINE
  8
0
  6
DASHED
 62
   249
 10
272.5
 20
217.5
 30
0.0
 11
272.5
 21
167.5
 31
0.0
  0
LINE
  8
0
  6
DASHED
 62
   249
 10
302.506921
 20
182.689984
 30
0.0
 11
287.5
 21
182.689984
 31
0.0
  0
LINE
  8
0
  6
DASHED
 62
   249
 10
297.569797
 20
202.689984
 30
0.0
 11
287.5
 21
202.689984
 31
0.0
  0
LINE
  8
0
  6
DASHED
 62
   249
 10
292.5
 20
200.0
 30
0.0
 11
292.5
 21
175.0
 31
0.0
  0
LINE
  8
0
  6
DASHED
 62
   249
 10
297.5
 20
200.0
 30
0.0
 11
297.5
 21
175.0
 31
0.0
  0
LINE
  8
0
  6
DASHED
 62
   249
 10
302.5
 20
200.0
 30
0.0
 11
302.5
 21
175.0
 31
0.0
  0
LINE
  8
0
  6
DASHED
 62
   249
 10
292.5
 20
232.5
 30
0.0
 11
292.5
 21
200.0
 31
0.0
  0
LINE
  8
0
  6
DASHED
 62
   249
 10
297.5
 20
232.5
 30
0.0
 11
297.5
 21
200.0
 31
0.0
  0
LINE
  8
0
  6
DASHED
 62
   249
 10
302.5
 20
232.5
 30
0.0
 11
302.5
 21
200.0
 31
0.0
  0
LINE
  8
0
  6
DASHED
 62
   249
 10
297.5
 20
240.0
 30
0.0
 11
297.5
 21
247.5
 31
0.0
  0
LINE
  8
0
  6
DASHED
 62
   249
 10
292.5
 20
240.0
 30
0.0
 11
292.5
 21
247.5
 31
0.0
  0
LINE
  8
0
  6
CONTINUOUS
 62
   249
 10
292.5
 20
232.5
 30
0.0
 11
290.0
 21
240.0
 31
0.0
  0
LINE
  8
0
  6
CONTINUOUS
 62
   249
 10
297.5
 20
232.5
 30
0.0
 11
295.0
 21
240.0
 31
0.0
  0
LINE
  8
0
  6
CONTINUOUS
 62
   249
 10
302.5
 20
232.5
 30
0.0
 11
300.0
 21
240.0
 31
0.0
  0
LINE
  8
0
  6
CONTINUOUS
 62
   249
 10
292.5
 20
240.0
 30
0.0
 11
292.0
 21
240.5
 31
0.0
  0
LINE
  8
0
  6
CONTINUOUS
 62
   249
 10
292.5
 20
240.0
 30
0.0
 11
293.0
 21
239.5
 31
0.0
  0
LINE
  8
0
  6
CONTINUOUS
 62
   249
 10
292.5
 20
240.0
 30
0.0
 11
293.0
 21
240.5
 31
0.0
  0
LINE
  8
0
  6
CONTINUOUS
 62
   249
 10
292.5
 20
240.0
 30
0.0
 11
292.0
 21
239.5
 31
0.0
  0
LINE
  8
0
  6
CONTINUOUS
 62
   249
 10
297.5
 20
240.0
 30
0.0
 11
298.0
 21
240.5
 31
0.0
  0
LINE
  8
0
  6
CONTINUOUS
 62
   249
 10
297.5
 20
240.0
 30
0.0
 11
298.0
 21
239.5
 31
0.0
  0
LINE
  8
0
  6
CONTINUOUS
 62
   249
 10
297.5
 20
240.0
 30
0.0
 11
297.0
 21
239.5
 31
0.0
  0
LINE
  8
0
  6
CONTINUOUS
 62
   249
 10
297.5
 20
240.0
 30
0.0
 11
297.0
 21
240.5
 31
0.0
  0
LINE
  8
0
  6
CONTINUOUS
 62
   249
 10
302.5
 20
240.0
 30
0.0
 11
303.0
 21
239.5
 31
0.0
  0
LINE
  8
0
  6
CONTINUOUS
 62
   249
 10
302.5
 20
240.0
 30
0.0
 11
303.0
 21
240.5
 31
0.0
  0
LINE
  8
0
  6
CONTINUOUS
 62
   249
 10
302.5
 20
240.0
 30
0.0
 11
302.0
 21
240.5
 31
0.0
  0
LINE
  8
0
  6
CONTINUOUS
 62
   249
 10
302.5
 20
240.0
 30
0.0
 11
302.0
 21
239.5
 31
0.0
  0
LINE
  8
0
  6
DASHED
 62
   249
 10
292.5
 20
222.689992
 30
0.0
 11
287.5
 21
222.689992
 31
0.0
  0
LINE
  8
0
  6
CONTINUOUS
 62
   249
 10
267.5
 20
187.5
 30
0.0
 11
270.0
 21
187.5
 31
0.0
  0
LINE
  8
0
  6
DASHED
 62
   249
 10
267.5
 20
197.5
 30
0.0
 11
272.5
 21
197.5
 31
0.0
  0
LINE
  8
0
  6
DASHED
 62
   249
 10
267.5
 20
217.5
 30
0.0
 11
272.5
 21
217.5
 31
0.0
  0
LINE
  8
0
  6
DASHED
 62
   249
 10
345.0
 20
215.0
 30
0.0
 11
345.0
 21
235.0
 31
0.0
  0
LINE
  8
0
  6
DASHED
 62
   249
 10
327.5
 20
215.0
 30
0.0
 11
345.0
 21
215.0
 31
0.0
  0
LINE
  8
0
  6
DASHED
 62
   249
 10
340.0
 20
240.18998
 30
0.0
 11
349.163362
 21
240.18998
 31
0.0
  0
LINE
  8
0
  6
DASHED
 62
   249
 10
340.0
 20
235.0
 30
0.0
 11
349.34682
 21
235.0
 31
0.0
  0
LINE
  8
0
  6
CONTINUOUS
 62
   249
 10
335.0
 20
235.0
 30
0.0
 11
340.0
 21
235.0
 31
0.0
  0
LINE
  8
0
  6
CONTINUOUS
 62
   249
 10
332.5
 20
227.5
 30
0.0
 11
327.5
 21
235.0
 31
0.0
  0
LINE
  8
0
  6
CONTINUOUS
 62
   249
 10
335.0
 20
227.5
 30
0.0
 11
332.5
 21
227.5
 31
0.0
  0
LINE
  8
0
  6
CONTINUOUS
 62
   249
 10
334.006031
 20
232.598556
 30
0.0
 11
334.978167
 21
232.598556
 31
0.0
  0
LINE
  8
0
  6
CONTINUOUS
 62
   249
 10
333.996128
 20
234.999996
 30
0.0
 11
334.973936
 21
234.999996
 31
0.0
  0
LINE
  8
0
  6
CONTINUOUS
 62
   249
 10
334.000897
 20
230.18998
 30
0.0
 11
335.0
 21
230.18998
 31
0.0
  0
ARC
  8
0
  6
CONTINUOUS
 62
   249
 10
333.364862
 20
231.394238
 30
0.0
 40
1.204309
 50
90.0
 51
270.0
  0
LINE
  8
0
  6
CONTINUOUS
 62
   249
 10
333.359898
 20
230.189937
 30
0.0
 11
334.009496
 21
230.189937
 31
0.0
  0
LINE
  8
0
  6
CONTINUOUS
 62
   249
 10
333.358762
 20
234.999993
 30
0.0
 11
334.002261
 21
234.999993
 31
0.0
  0
LINE
  8
0
  6
CONTINUOUS
 62
   249
 10
333.358762
 20
232.598547
 30
0.0
 11
334.00836
 21
232.598547
 31
0.0
  0
ARC
  8
0
  6
CONTINUOUS
 62
   249
 10
333.364862
 20
233.796095
 30
0.0
 40
1.204309
 50
90.0
 51
265.706237
  0
LINE
  8
0
  6
CONTINUOUS
 62
   249
 10
335.0
 20
230.18998
 30
0.0
 11
335.0
 21
227.5
 31
0.0
  0
LINE
  8
0
  6
CONTINUOUS
 62
   249
 10
320.0
 20
240.18998
 30
0.0
 11
340.0
 21
240.18998
 31
0.0
  0
LINE
  8
0
  6
DASHED
 62
   249
 10
340.0
 20
250.0
 30
0.0
 11
285.0
 21
250.0
 31
0.0
  0
LINE
  8
0
  6
DASHED
 62
   249
 10
340.0
 20
255.0
 30
0.0
 11
285.0
 21
255.0
 31
0.0
  0
LINE
  8
0
  6
DASHED
 62
   249
 10
340.0
 20
260.0
 30
0.0
 11
285.0
 21
260.0
 31
0.0
  0
TEXT
  8
0
  6
DASHED
 62
   249
 10
280.0
 20
254.043818
 30
0.0
 40
2.0
  1
L2
  7
ROMANS
  0
TEXT
  8
0
  6
DASHED
 62
   249
 10
280.0
 20
248.991307
 30
0.0
 40
2.0
  1
L3
  7
ROMANS
  0
TEXT
  8
0
  6
CONTINUOUS
 62
   249
 10
305.068754
 20
201.362909
 30
0.0
 40
2.0
  1
P/Q
  7
ROMANS
  0
LINE
  8
0
  6
CENTER
 62
   249
 10
267.5
 20
212.5
 30
0.0
 11
267.5
 21
247.5
 31
0.0
  0
LINE
  8
0
  6
DASHED
 62
   249
 10
262.5
 20
112.5
 30
0.0
 11
320.0
 21
112.5
 31
0.0
  0
LINE
  8
0
  6
DASHED
 62
   249
 10
262.5
 20
137.5
 30
0.0
 11
295.0
 21
137.5
 31
0.0
  0
LINE
  8
0
  6
DASHED
 62
   249
 10
262.5
 20
177.5
 30
0.0
 11
287.5
 21
177.5
 31
0.0
  0
LINE
  8
0
  6
DASHED
 62
   249
 10
362.5
 20
112.5
 30
0.0
 11
362.5
 21
117.5
 31
0.0
  0
LINE
  8
0
  6
CONTINUOUS
 62
   249
 10
347.5
 20
107.68998
 30
0.0
 11
369.117732
 21
107.68998
 31
0.0
  0
LINE
  8
0
  6
CONTINUOUS
 62
   249
 10
362.5
 20
97.68998
 30
0.0
 11
362.5
 21
95.0
 31
0.0
  0
ARC
  8
0
  6
CONTINUOUS
 62
   249
 10
360.864862
 20
101.296095
 30
0.0
 40
1.204309
 50
90.0
 51
265.706237
  0
LINE
  8
0
  6
CONTINUOUS
 62
   249
 10
360.858762
 20
100.098547
 30
0.0
 11
361.50836
 21
100.098547
 31
0.0
  0
LINE
  8
0
  6
CONTINUOUS
 62
   249
 10
360.858762
 20
102.499993
 30
0.0
 11
361.502261
 21
102.499993
 31
0.0
  0
LINE
  8
0
  6
CONTINUOUS
 62
   249
 10
360.859898
 20
97.689937
 30
0.0
 11
361.509496
 21
97.689937
 31
0.0
  0
ARC
  8
0
  6
CONTINUOUS
 62
   249
 10
360.864862
 20
98.894238
 30
0.0
 40
1.204309
 50
90.0
 51
270.0
  0
LINE
  8
0
  6
CONTINUOUS
 62
   249
 10
361.500897
 20
97.68998
 30
0.0
 11
362.5
 21
97.68998
 31
0.0
  0
LINE
  8
0
  6
CONTINUOUS
 62
   249
 10
361.496128
 20
102.499996
 30
0.0
 11
362.473936
 21
102.499996
 31
0.0
  0
LINE
  8
0
  6
CONTINUOUS
 62
   249
 10
361.506031
 20
100.098556
 30
0.0
 11
362.478167
 21
100.098556
 31
0.0
  0
LINE
  8
0
  6
CONTINUOUS
 62
   249
 10
362.5
 20
102.5
 30
0.0
 11
369.117732
 21
102.5
 31
0.0
  0
LINE
  8
0
  6
CONTINUOUS
 62
   249
 10
346.496128
 20
102.499996
 30
0.0
 11
362.5
 21
102.499996
 31
0.0
  0
LINE
  8
0
  6
DASHED
 62
   249
 10
345.0
 20
117.5
 30
0.0
 11
377.5
 21
117.5
 31
0.0
  0
LINE
  8
0
  6
DASHED
 62
   249
 10
345.0
 20
122.5
 30
0.0
 11
377.5
 21
122.5
 31
0.0
  0
LINE
  8
0
  6
DASHED
 62
   249
 10
345.0
 20
127.5
 30
0.0
 11
377.5
 21
127.5
 31
0.0
  0
LINE
  8
0
  6
DASHED
 62
   249
 10
362.5
 20
95.0
 30
0.0
 11
362.5
 21
67.5
 31
0.0
  0
LINE
  8
0
  6
DASHED
 62
   249
 10
362.5
 20
67.5
 30
0.0
 11
315.0
 21
67.5
 31
0.0
  0
LINE
  8
0
  6
DASHED
 62
   249
 10
292.5
 20
247.5
 30
0.0
 11
292.5
 21
260.0
 31
0.0
  0
LINE
  8
0
  6
DASHED
 62
   249
 10
297.5
 20
247.5
 30
0.0
 11
297.5
 21
255.0
 31
0.0
  0
LINE
  8
0
  6
DASHED
 62
   249
 10
302.5
 20
247.5
 30
0.0
 11
302.5
 21
250.0
 31
0.0
  0
LINE
  8
0
  6
DASHED
 62
   249
 10
320.0
 20
247.5
 30
0.0
 11
320.0
 21
260.0
 31
0.0
  0
LINE
  8
0
  6
DASHED
 62
   249
 10
327.5
 20
247.5
 30
0.0
 11
327.5
 21
255.0
 31
0.0
  0
LINE
  8
0
  6
DASHED
 62
   249
 10
335.0
 20
247.5
 30
0.0
 11
335.0
 21
250.0
 31
0.0
  0
LINE
  8
0
  6
CONTINUOUS
 62
   249
 10
349.224409
 20
240.180362
 30
0.0
 11
350.533481
 21
240.180362
 31
0.0
  0
LINE
  8
0
  6
CONTINUOUS
 62
   249
 10
352.315034
 20
239.576667
 30
0.0
 11
352.315034
 21
240.784057
 31
0.0
  0
LINE
  8
0
  6
CONTINUOUS
 62
   249
 10
351.427521
 20
239.144169
 30
0.0
 11
351.427521
 21
241.207544
 31
0.0
  0
LINE
  8
0
  6
CONTINUOUS
 62
   249
 10
350.533481
 20
238.648599
 30
0.0
 11
350.533481
 21
241.712125
 31
0.0
  0
LINE
  8
0
  6
CONTINUOUS
 62
   249
 10
349.224409
 20
234.990382
 30
0.0
 11
350.533481
 21
234.990382
 31
0.0
  0
LINE
  8
0
  6
CONTINUOUS
 62
   249
 10
352.315034
 20
234.386687
 30
0.0
 11
352.315034
 21
235.594077
 31
0.0
  0
LINE
  8
0
  6
CONTINUOUS
 62
   249
 10
351.427521
 20
233.954189
 30
0.0
 11
351.427521
 21
236.017564
 31
0.0
  0
LINE
  8
0
  6
CONTINUOUS
 62
   249
 10
350.533481
 20
233.458618
 30
0.0
 11
350.533481
 21
236.522145
 31
0.0
  0
LINE
  8
0
  6
DASHED
 62
   249
 10
267.5
 20
157.5
 30
0.0
 11
287.5
 21
157.5
 31
0.0
  0
LINE
  8
0
  6
DASHED
 62
   249
 10
267.5
 20
167.5
 30
0.0
 11
272.5
 21
167.5
 31
0.0
  0
TEXT
  8
0
  6
DASHED
 62
   249
 10
280.0
 20
259.349596
 30
0.0
 40
2.0
  1
L1
  7
ROMANS
  0
LINE
  8
0
  6
CONTINUOUS
 62
   249
 10
105.0
 20
134.861159
 30
0.0
 11
105.0
 21
129.861159
 31
0.0
  0
LINE
  8
0
  6
CONTINUOUS
 62
   249
 10
145.0
 20
160.0
 30
0.0
 11
145.0
 21
135.0
 31
0.0
  0
TEXT
  8
0
  6
CONTINUOUS
 62
   249
 10
17.235056
 20
46.845665
 30
0.0
 40
2.0
  1
DIM. 198 x 250
  7
ROMANS
  0
TEXT
  8
0
  6
CONTINUOUS
 62
   249
 10
17.235056
 20
43.60757
 30
0.0
 40
2.0
  1
RS 10196-AAB/E263
  7
ROMANS
  0
TEXT
  8
0
  6
DASHED
 62
   249
 10
292.558364
 20
12.155824
 30
0.0
 40
3.0
  1
A3
  7
GREEKS
  0
TEXT
  8
0
  6
DASHED
 62
   249
 10
352.159746
 20
16.034995
 30
0.0
 40
1.4
  1
LEHTI SHEET
  7
GREEKS
  0
LINE
  8
0
 62
   249
 10
0.578269
 20
263.080464
 30
0.0
 11
392.578269
 21
263.080464
 31
0.0
  0
LINE
  8
0
 62
   249
 10
18.578269
 20
0.580464
 30
0.0
 11
0.578269
 21
0.580464
 31
0.0
  0
LINE
  8
0
 62
   249
 10
209.578269
 20
0.580464
 30
0.0
 11
392.578269
 21
0.580464
 31
0.0
  0
LINE
  8
0
 62
   249
 10
209.578269
 20
0.580464
 30
0.0
 11
209.578269
 21
35.580464
 31
0.0
  0
LINE
  8
0
 62
   249
 10
392.578269
 20
0.580464
 30
0.0
 11
392.578269
 21
35.580464
 31
0.0
  0
LINE
  8
0
 62
   249
 10
209.578269
 20
18.580464
 30
0.0
 11
392.578269
 21
18.580464
 31
0.0
  0
LINE
  8
0
 62
   249
 10
209.578269
 20
10.080464
 30
0.0
 11
392.578269
 21
10.080464
 31
0.0
  0
LINE
  8
0
 62
   249
 10
209.578269
 20
27.080464
 30
0.0
 11
307.578269
 21
27.080464
 31
0.0
  0
LINE
  8
0
 62
   249
 10
209.578269
 20
35.580464
 30
0.0
 11
392.578269
 21
35.580464
 31
0.0
  0
TEXT
  8
0
 62
   249
 10
210.578269
 20
24.313797
 30
0.0
 40
1.4
  1
TARKASTI  CHECKED
  7
ROMANS
  0
TEXT
  8
0
 62
   249
 10
210.321103
 20
16.047131
 30
0.0
 40
1.4
  1
HYVÄKSYI  APPROVED
  7
ROMANS
  0
LINE
  8
0
 62
   249
 10
307.578269
 20
0.580464
 30
0.0
 11
307.578269
 21
35.580464
 31
0.0
  0
TEXT
  8
0
 62
   249
 10
259.578269
 20
33.080464
 30
0.0
 40
1.4
  1
LIITTYY  CONCERNING
  7
ROMANS
  0
TEXT
  8
0
 62
   249
 10
259.578269
 20
24.080464
 30
0.0
 40
1.4
  1
TOLERANSSIT  TOLERANCES
  7
ROMANS
  0
TEXT
  8
0
 62
   249
 10
259.578269
 20
16.080464
 30
0.0
 40
1.4
  1
SUHDE  SCALE
  7
ROMANS
  0
TEXT
  8
0
 62
   249
 10
309.578269
 20
33.080464
 30
0.0
 40
1.4
  1
NIMITYS  NAME
  7
ROMANS
  0
TEXT
  8
0
 62
   249
 10
309.578269
 20
16.080464
 30
0.0
 40
1.4
  1
KOODI  CODE
  7
ROMANS
  0
TEXT
  8
0
 62
   249
 10
309.578269
 20
7.580464
 30
0.0
 40
1.4
  1
PIIRUSTUS NO  DRAWING NR
  7
ROMANS
  0
LINE
  8
0
 62
   249
 10
350.078269
 20
10.080464
 30
0.0
 11
350.078269
 21
18.580464
 31
0.0
  0
TEXT
  8
0
 62
   249
 10
371.578269
 20
7.580464
 30
0.0
 40
1.4
  1
PAINOS  REVISION
  7
ROMANS
  0
LINE
  8
0
 62
   249
 10
370.078269
 20
10.080464
 30
0.0
 11
370.078269
 21
0.580464
 31
0.0
  0
LINE
  8
0
 62
   249
 10
210.528269
 20
2.080464
 30
0.0
 11
212.278269
 21
2.080464
 31
0.0
  0
LINE
  8
0
 62
   249
 10
215.778269
 20
2.080464
 30
0.0
 11
217.528269
 21
2.080464
 31
0.0
  0
LINE
  8
0
 62
   249
 10
212.978269
 20
9.080464
 30
0.0
 11
211.800741
 21
5.716099
 31
0.0
  0
LINE
  8
0
 62
   249
 10
212.767055
 20
3.480464
 30
0.0
 11
213.888269
 21
3.480464
 31
0.0
  0
LINE
  8
0
 62
   249
 10
212.767058
 20
3.477007
 30
0.0
 11
212.278269
 21
2.080464
 31
0.0
  0
LINE
  8
0
 62
   249
 10
215.078269
 20
9.080464
 30
0.0
 11
216.254621
 21
5.719456
 31
0.0
  0
LINE
  8
0
 62
   249
 10
215.289366
 20
3.477328
 30
0.0
 11
215.778269
 21
2.080464
 31
0.0
  0
LINE
  8
0
 62
   249
 10
215.078269
 20
9.080464
 30
0.0
 11
214.168269
 21
9.080464
 31
0.0
  0
LINE
  8
0
 62
   249
 10
213.888269
 20
9.080464
 30
0.0
 11
213.888269
 21
5.720464
 31
0.0
  0
LINE
  8
0
 62
   249
 10
214.168269
 20
9.080464
 30
0.0
 11
214.168269
 21
5.720464
 31
0.0
  0
LINE
  8
0
 62
   249
 10
214.168269
 20
3.480464
 30
0.0
 11
215.288162
 21
3.480464
 31
0.0
  0
LINE
  8
0
 62
   249
 10
213.888269
 20
9.080464
 30
0.0
 11
212.978269
 21
9.080464
 31
0.0
  0
LINE
  8
0
 62
   249
 10
211.800209
 20
5.720464
 30
0.0
 11
213.888269
 21
5.720464
 31
0.0
  0
LINE
  8
0
 62
   249
 10
211.701251
 20
5.440464
 30
0.0
 11
213.888269
 21
5.440464
 31
0.0
  0
LINE
  8
0
 62
   249
 10
216.35276
 20
5.439058
 30
0.0
 11
217.528269
 21
2.080464
 31
0.0
  0
LINE
  8
0
 62
   249
 10
214.168269
 20
5.720464
 30
0.0
 11
216.253382
 21
5.720464
 31
0.0
  0
LINE
  8
0
 62
   249
 10
214.168269
 20
5.440464
 30
0.0
 11
216.351525
 21
5.440464
 31
0.0
  0
LINE
  8
0
 62
   249
 10
214.168269
 20
5.440464
 30
0.0
 11
214.168269
 21
3.480464
 31
0.0
  0
LINE
  8
0
 62
   249
 10
213.888269
 20
5.440464
 30
0.0
 11
213.888269
 21
3.480464
 31
0.0
  0
LINE
  8
0
 62
   249
 10
211.698157
 20
5.423003
 30
0.0
 11
210.528269
 21
2.080464
 31
0.0
  0
INSERT
  8
0
 62
   249
  2
*X14
 10
210.528269
 20
2.080464
 30
0.0
 41
0.7
 42
0.7
 43
0.7
  0
INSERT
  8
0
 62
   249
  2
*X15
 10
210.528269
 20
2.080464
 30
0.0
 41
0.7
 42
0.7
 43
0.7
  0
INSERT
  8
0
 62
   249
  2
*X16
 10
210.528269
 20
2.080464
 30
0.0
 41
0.7
 42
0.7
 43
0.7
  0
INSERT
  8
0
 62
   249
  2
*X17
 10
210.528269
 20
2.080464
 30
0.0
 41
0.7
 42
0.7
 43
0.7
  0
LINE
  8
0
 62
   249
 10
218.018269
 20
2.080464
 30
0.0
 11
218.018269
 21
5.440464
 31
0.0
  0
LINE
  8
0
 62
   249
 10
218.018269
 20
9.080464
 30
0.0
 11
219.978269
 21
9.080464
 31
0.0
  0
LINE
  8
0
 62
   249
 10
219.978269
 20
9.080464
 30
0.0
 11
219.978269
 21
5.720464
 31
0.0
  0
LINE
  8
0
 62
   249
 10
219.978269
 20
5.720464
 30
0.0
 11
218.018269
 21
5.720464
 31
0.0
  0
LINE
  8
0
 62
   249
 10
218.018269
 20
5.440464
 30
0.0
 11
219.978269
 21
5.440464
 31
0.0
  0
LINE
  8
0
 62
   249
 10
219.978269
 20
5.440464
 30
0.0
 11
219.978269
 21
2.080464
 31
0.0
  0
LINE
  8
0
 62
   249
 10
219.978269
 20
2.080464
 30
0.0
 11
218.018269
 21
2.080464
 31
0.0
  0
LINE
  8
0
 62
   249
 10
218.018269
 20
5.720464
 30
0.0
 11
218.018269
 21
9.080464
 31
0.0
  0
ARC
  8
0
 62
   249
 10
220.818269
 20
7.505464
 30
0.0
 40
1.575
 50
298.455859
 51
90.052437
  0
LINE
  8
0
 62
   249
 10
220.258269
 20
9.080464
 30
0.0
 11
220.816827
 21
9.080463
 31
0.0
  0
LINE
  8
0
 62
   249
 10
220.258269
 20
9.080464
 30
0.0
 11
220.258269
 21
5.720464
 31
0.0
  0
LINE
  8
0
 62
   249
 10
220.258269
 20
5.720464
 30
0.0
 11
222.242711
 21
5.720464
 31
0.0
  0
LINE
  8
0
 62
   249
 10
222.498269
 20
5.440464
 30
0.0
 11
220.258269
 21
5.440464
 31
0.0
  0
LINE
  8
0
 62
   249
 10
220.258269
 20
5.440464
 30
0.0
 11
220.258269
 21
2.080464
 31
0.0
  0
ARC
  8
0
 62
   249
 10
220.818269
 20
4.180464
 30
0.0
 40
2.1
 50
269.937724
 51
37.056553
  0
LINE
  8
0
 62
   249
 10
220.258269
 20
2.080464
 30
0.0
 11
220.815986
 21
2.080465
 31
0.0
  0
ARC
  8
0
 62
   249
 10
220.818269
 20
4.180464
 30
0.0
 40
2.1
 50
47.28622
 51
68.787999
  0
INSERT
  8
0
 62
   249
  2
*X18
 10
210.528269
 20
2.080464
 30
0.0
 41
0.7
 42
0.7
 43
0.7
  0
INSERT
  8
0
 62
   249
  2
*X19
 10
210.528269
 20
2.080464
 30
0.0
 41
0.7
 42
0.7
 43
0.7
  0
INSERT
  8
0
 62
   249
  2
*X20
 10
210.528269
 20
2.080464
 30
0.0
 41
0.7
 42
0.7
 43
0.7
  0
INSERT
  8
0
 62
   249
  2
*X21
 10
210.528269
 20
2.080464
 30
0.0
 41
0.7
 42
0.7
 43
0.7
  0
INSERT
  8
0
 62
   249
  2
*X21
 10
215.988269
 20
2.080464
 30
0.0
 41
0.7
 42
0.7
 43
0.7
  0
INSERT
  8
0
 62
   249
  2
*X20
 10
215.988269
 20
2.080464
 30
0.0
 41
0.7
 42
0.7
 43
0.7
  0
INSERT
  8
0
 62
   249
  2
*X19
 10
215.988269
 20
2.080464
 30
0.0
 41
0.7
 42
0.7
 43
0.7
  0
INSERT
  8
0
 62
   249
  2
*X18
 10
215.988269
 20
2.080464
 30
0.0
 41
0.7
 42
0.7
 43
0.7
  0
ARC
  8
0
 62
   249
 10
226.278269
 20
4.180464
 30
0.0
 40
2.1
 50
47.28622
 51
68.787999
  0
LINE
  8
0
 62
   249
 10
225.718269
 20
2.080464
 30
0.0
 11
226.275986
 21
2.080465
 31
0.0
  0
ARC
  8
0
 62
   249
 10
226.278269
 20
4.180464
 30
0.0
 40
2.1
 50
269.937724
 51
37.056553
  0
LINE
  8
0
 62
   249
 10
225.718269
 20
5.440464
 30
0.0
 11
225.718269
 21
2.080464
 31
0.0
  0
LINE
  8
0
 62
   249
 10
227.958269
 20
5.440464
 30
0.0
 11
225.718269
 21
5.440464
 31
0.0
  0
LINE
  8
0
 62
   249
 10
225.718269
 20
5.720464
 30
0.0
 11
227.702711
 21
5.720464
 31
0.0
  0
LINE
  8
0
 62
   249
 10
225.718269
 20
9.080464
 30
0.0
 11
225.718269
 21
5.720464
 31
0.0
  0
LINE
  8
0
 62
   249
 10
225.718269
 20
9.080464
 30
0.0
 11
226.276827
 21
9.080463
 31
0.0
  0
ARC
  8
0
 62
   249
 10
226.278269
 20
7.505464
 30
0.0
 40
1.575
 50
298.455859
 51
90.052437
  0
LINE
  8
0
 62
   249
 10
223.478269
 20
5.720464
 30
0.0
 11
223.478269
 21
9.080464
 31
0.0
  0
LINE
  8
0
 62
   249
 10
225.438269
 20
2.080464
 30
0.0
 11
223.478269
 21
2.080464
 31
0.0
  0
LINE
  8
0
 62
   249
 10
225.438269
 20
5.440464
 30
0.0
 11
225.438269
 21
2.080464
 31
0.0
  0
LINE
  8
0
 62
   249
 10
223.478269
 20
5.440464
 30
0.0
 11
225.438269
 21
5.440464
 31
0.0
  0
LINE
  8
0
 62
   249
 10
225.438269
 20
5.720464
 30
0.0
 11
223.478269
 21
5.720464
 31
0.0
  0
LINE
  8
0
 62
   249
 10
225.438269
 20
9.080464
 30
0.0
 11
225.438269
 21
5.720464
 31
0.0
  0
LINE
  8
0
 62
   249
 10
223.478269
 20
9.080464
 30
0.0
 11
225.438269
 21
9.080464
 31
0.0
  0
LINE
  8
0
 62
   249
 10
223.478269
 20
2.080464
 30
0.0
 11
223.478269
 21
5.440464
 31
0.0
  0
TEXT
  8
0
 62
   249
 10
230.078269
 20
2.080464
 30
0.0
 40
3.0
  1
ABB 
 41
0.8
  7
ROMANS
  0
TEXT
  8
0
 62
   249
 10
238.078269
 20
2.080464
 30
0.0
 40
3.0
  1
Strömberg
 41
0.8
  7
ROMANS
  0
LINE
  8
0
 62
   249
 10
282.578269
 20
10.080464
 30
0.0
 11
282.578269
 21
18.580464
 31
0.0
  0
TEXT
  8
0
 62
   249
 10
28.078269
 20
5.080464
 30
0.0
 40
1.4
  1
MUUTOS
  7
ROMANS
  0
TEXT
  8
0
 62
   249
 10
28.078269
 20
2.813797
 30
0.0
 40
1.4
  1
REVISION
  7
ROMANS
  0
LINE
  8
0
 62
   249
 10
47.078269
 20
9.580464
 30
0.0
 11
209.578269
 21
9.580464
 31
0.0
  0
LINE
  8
0
 62
   249
 10
47.078269
 20
0.580464
 30
0.0
 11
47.078269
 21
9.580464
 31
0.0
  0
LINE
  8
0
 62
   249
 10
41.078269
 20
5.080464
 30
0.0
 11
209.578269
 21
5.080464
 31
0.0
  0
LINE
  8
0
 62
   249
 10
257.578269
 20
10.080464
 30
0.0
 11
257.578269
 21
35.580464
 31
0.0
  0
LINE
  8
0
 62
   249
 10
271.578269
 20
10.080464
 30
0.0
 11
271.578269
 21
0.580464
 31
0.0
  0
TEXT
  8
0
 62
   249
 10
210.578269
 20
32.580464
 30
0.0
 40
1.4
  1
TEKI  PREPARED
  7
ROMANS
  0
TEXT
  8
0
 62
   249
 10
273.578269
 20
7.580464
 30
0.0
 40
1.4
  1
VAST.OSASTO RESP.DEPT.
  7
ROMANS
  0
TEXT
  8
0
 62
   249
 10
257.748175
 20
2.084248
 30
0.0
 40
3.0
  1
Power
 41
0.8
  7
ROMANS
  0
TEXT
  8
0
 62
   249
 10
42.578269
 20
1.537757
 30
0.0
 40
2.5
  1
B
  7
ROMANS
  0
TEXT
  8
0
 62
   249
 10
42.578269
 20
5.929973
 30
0.0
 40
2.5
  1
C
  7
ROMANS
  0
LINE
  8
0
 62
   249
 10
0.578269
 20
0.580464
 30
0.0
 11
392.578269
 21
0.580464
 31
0.0
  0
LINE
  8
0
 62
   249
 10
392.578269
 20
263.080464
 30
0.0
 11
392.578269
 21
0.580464
 31
0.0
  0
LINE
  8
0
 62
   249
 10
0.578269
 20
0.580464
 30
0.0
 11
0.578269
 21
263.080464
 31
0.0
  0
ARC
  8
0
  6
CONTINUOUS
 62
   249
 10
37.5
 20
65.0
 30
0.0
 40
0.5
 50
180.0
 51
0.0
  0
ARC
  8
0
  6
CONTINUOUS
 62
   249
 10
37.5
 20
65.0
 30
0.0
 40
0.5
 50
0.0
 51
180.0
  0
TEXT
  8
0
  6
CONTINUOUS
 62
   249
 10
11.844763
 20
204.00558
 30
0.0
 40
2.0
  1
-
  0
TEXT
  8
0
  6
CONTINUOUS
 62
   249
 10
11.853328
 20
209.013635
 30
0.0
 40
2.0
  1
+
  0
TEXT
  8
0
  6
CONTINUOUS
 62
   249
 10
8.831292
 20
141.504484
 30
0.0
 40
2.0
  1
-
  0
ARC
  8
0
  6
CONTINUOUS
 62
   249
 10
57.5
 20
136.108096
 30
0.0
 40
0.5
 50
180.0
 51
0.0
  0
ARC
  8
0
  6
CONTINUOUS
 62
   249
 10
57.5
 20
136.108096
 30
0.0
 40
0.5
 50
0.0
 51
180.0
  0
ARC
  8
0
  6
CONTINUOUS
 62
   249
 10
52.5
 20
148.555194
 30
0.0
 40
0.5
 50
180.0
 51
0.0
  0
ARC
  8
0
  6
CONTINUOUS
 62
   249
 10
52.5
 20
148.555194
 30
0.0
 40
0.5
 50
0.0
 51
180.0
  0
ARC
  8
0
  6
CONTINUOUS
 62
   249
 10
72.5
 20
167.5
 30
0.0
 40
0.5
 50
180.0
 51
0.0
  0
ARC
  8
0
  6
CONTINUOUS
 62
   249
 10
72.5
 20
167.5
 30
0.0
 40
0.5
 50
0.0
 51
180.0
  0
ARC
  8
0
  6
CONTINUOUS
 62
   249
 10
70.0
 20
191.992731
 30
0.0
 40
0.5
 50
180.0
 51
0.0
  0
ARC
  8
0
  6
CONTINUOUS
 62
   249
 10
70.0
 20
191.992731
 30
0.0
 40
0.5
 50
0.0
 51
180.0
  0
ARC
  8
0
  6
CONTINUOUS
 62
   249
 10
45.0
 20
205.0
 30
0.0
 40
0.5
 50
180.0
 51
0.0
  0
ARC
  8
0
  6
CONTINUOUS
 62
   249
 10
45.0
 20
205.0
 30
0.0
 40
0.5
 50
0.0
 51
180.0
  0
ARC
  8
0
  6
CONTINUOUS
 62
   249
 10
67.5
 20
202.165835
 30
0.0
 40
0.5
 50
180.0
 51
0.0
  0
ARC
  8
0
  6
CONTINUOUS
 62
   249
 10
67.5
 20
202.165835
 30
0.0
 40
0.5
 50
0.0
 51
180.0
  0
TEXT
  8
0
  6
CONTINUOUS
 62
   249
 10
11.844763
 20
226.50558
 30
0.0
 40
2.0
  1
-
  0
TEXT
  8
0
  6
CONTINUOUS
 62
   249
 10
11.853328
 20
231.513635
 30
0.0
 40
2.0
  1
+
  0
TEXT
  8
0
  6
CONTINUOUS
 62
   249
 10
11.853328
 20
216.513635
 30
0.0
 40
2.0
  1
+
  0
ARC
  8
0
  6
CONTINUOUS
 62
   249
 10
82.5
 20
160.0
 30
0.0
 40
0.5
 50
180.0
 51
0.0
  0
ARC
  8
0
  6
CONTINUOUS
 62
   249
 10
82.5
 20
160.0
 30
0.0
 40
0.5
 50
0.0
 51
180.0
  0
ARC
  8
0
  6
CONTINUOUS
 62
   249
 10
80.0
 20
175.0
 30
0.0
 40
0.5
 50
180.0
 51
0.0
  0
ARC
  8
0
  6
CONTINUOUS
 62
   249
 10
80.0
 20
175.0
 30
0.0
 40
0.5
 50
0.0
 51
180.0
  0
ARC
  8
0
  6
CONTINUOUS
 62
   249
 10
115.818812
 20
175.0
 30
0.0
 40
0.5
 50
180.0
 51
0.0
  0
ARC
  8
0
  6
CONTINUOUS
 62
   249
 10
115.818812
 20
175.0
 30
0.0
 40
0.5
 50
0.0
 51
180.0
  0
ARC
  8
0
  6
CONTINUOUS
 62
   249
 10
130.0
 20
191.992731
 30
0.0
 40
0.5
 50
180.0
 51
0.0
  0
ARC
  8
0
  6
CONTINUOUS
 62
   249
 10
130.0
 20
191.992731
 30
0.0
 40
0.5
 50
0.0
 51
180.0
  0
ARC
  8
0
  6
CONTINUOUS
 62
   249
 10
127.5
 20
197.5
 30
0.0
 40
0.5
 50
180.0
 51
0.0
  0
ARC
  8
0
  6
CONTINUOUS
 62
   249
 10
127.5
 20
197.5
 30
0.0
 40
0.5
 50
0.0
 51
180.0
  0
ARC
  8
0
  6
CONTINUOUS
 62
   249
 10
125.0
 20
202.165835
 30
0.0
 40
0.5
 50
180.0
 51
0.0
  0
ARC
  8
0
  6
CONTINUOUS
 62
   249
 10
125.0
 20
202.165835
 30
0.0
 40
0.5
 50
0.0
 51
180.0
  0
ARC
  8
0
  6
CONTINUOUS
 62
   249
 10
122.5
 20
210.0
 30
0.0
 40
0.5
 50
180.0
 51
0.0
  0
ARC
  8
0
  6
CONTINUOUS
 62
   249
 10
122.5
 20
210.0
 30
0.0
 40
0.5
 50
0.0
 51
180.0
  0
ARC
  8
0
  6
CONTINUOUS
 62
   249
 10
145.0
 20
160.0
 30
0.0
 40
0.5
 50
180.0
 51
0.0
  0
ARC
  8
0
  6
CONTINUOUS
 62
   249
 10
145.0
 20
160.0
 30
0.0
 40
0.5
 50
0.0
 51
180.0
  0
LINE
  8
0
  6
CONTINUOUS
 62
   249
 10
171.42602
 20
158.664646
 30
0.0
 11
169.080254
 21
160.0
 31
0.0
  0
LINE
  8
0
  6
CONTINUOUS
 62
   249
 10
169.080254
 20
160.0
 30
0.0
 11
171.42602
 21
161.189919
 31
0.0
  0
LINE
  8
0
  6
CONTINUOUS
 62
   249
 10
171.424362
 20
168.664635
 30
0.0
 11
169.078597
 21
169.999989
 31
0.0
  0
LINE
  8
0
  6
CONTINUOUS
 62
   249
 10
169.078597
 20
169.999989
 30
0.0
 11
171.424362
 21
171.189908
 31
0.0
  0
LINE
  8
0
  6
CONTINUOUS
 62
   249
 10
181.684557
 20
158.001939
 30
0.0
 11
182.571444
 21
158.001939
 31
0.0
  0
LINE
  8
0
  6
CONTINUOUS
 62
   249
 10
181.353452
 20
158.613572
 30
0.0
 11
182.938024
 21
158.613572
 31
0.0
  0
LINE
  8
0
  6
CONTINUOUS
 62
   249
 10
182.169388
 20
159.235634
 30
0.0
 11
183.363729
 21
159.235634
 31
0.0
  0
LINE
  8
0
  6
CONTINUOUS
 62
   249
 10
180.975047
 20
159.235634
 30
0.0
 11
182.169388
 21
159.235634
 31
0.0
  0
LINE
  8
0
  6
CONTINUOUS
 62
   249
 10
182.185275
 20
160.589905
 30
0.0
 11
182.185275
 21
159.235634
 31
0.0
  0
LINE
  8
0
  6
CONTINUOUS
 62
   249
 10
181.684557
 20
168.102588
 30
0.0
 11
182.571444
 21
168.102588
 31
0.0
  0
LINE
  8
0
  6
CONTINUOUS
 62
   249
 10
181.353452
 20
168.714221
 30
0.0
 11
182.938024
 21
168.714221
 31
0.0
  0
LINE
  8
0
  6
CONTINUOUS
 62
   249
 10
182.169388
 20
169.336284
 30
0.0
 11
183.363729
 21
169.336284
 31
0.0
  0
LINE
  8
0
  6
CONTINUOUS
 62
   249
 10
180.975047
 20
169.336284
 30
0.0
 11
182.169388
 21
169.336284
 31
0.0
  0
LINE
  8
0
  6
CONTINUOUS
 62
   249
 10
182.185275
 20
170.690554
 30
0.0
 11
182.185275
 21
169.336284
 31
0.0
  0
ARC
  8
0
  6
CONTINUOUS
 62
   249
 10
165.0
 20
180.500813
 30
0.0
 40
0.5
 50
180.0
 51
0.0
  0
ARC
  8
0
  6
CONTINUOUS
 62
   249
 10
165.0
 20
180.500813
 30
0.0
 40
0.5
 50
0.0
 51
180.0
  0
ARC
  8
0
  6
CONTINUOUS
 62
   249
 10
140.0
 20
175.0
 30
0.0
 40
0.5
 50
180.0
 51
0.0
  0
ARC
  8
0
  6
CONTINUOUS
 62
   249
 10
140.0
 20
175.0
 30
0.0
 40
0.5
 50
0.0
 51
180.0
  0
ARC
  8
0
  6
CONTINUOUS
 62
   249
 10
137.5
 20
184.184312
 30
0.0
 40
0.5
 50
180.0
 51
0.0
  0
ARC
  8
0
  6
CONTINUOUS
 62
   249
 10
137.5
 20
184.184312
 30
0.0
 40
0.5
 50
0.0
 51
180.0
  0
LINE
  8
0
  6
CONTINUOUS
 62
   249
 10
183.13429
 20
193.154628
 30
0.0
 11
184.021177
 21
193.154628
 31
0.0
  0
LINE
  8
0
  6
CONTINUOUS
 62
   249
 10
182.803186
 20
193.766261
 30
0.0
 11
184.387757
 21
193.766261
 31
0.0
  0
LINE
  8
0
  6
CONTINUOUS
 62
   249
 10
183.619122
 20
194.388323
 30
0.0
 11
184.813463
 21
194.388323
 31
0.0
  0
LINE
  8
0
  6
CONTINUOUS
 62
   249
 10
182.424781
 20
194.388323
 30
0.0
 11
183.619122
 21
194.388323
 31
0.0
  0
LINE
  8
0
  6
CONTINUOUS
 62
   249
 10
183.635009
 20
195.742593
 30
0.0
 11
183.635009
 21
194.388323
 31
0.0
  0
LINE
  8
0
  6
CONTINUOUS
 62
   249
 10
181.612669
 20
183.149432
 30
0.0
 11
182.499556
 21
183.149432
 31
0.0
  0
LINE
  8
0
  6
CONTINUOUS
 62
   249
 10
181.281565
 20
183.761065
 30
0.0
 11
182.866136
 21
183.761065
 31
0.0
  0
LINE
  8
0
  6
CONTINUOUS
 62
   249
 10
182.097501
 20
184.383127
 30
0.0
 11
183.291842
 21
184.383127
 31
0.0
  0
LINE
  8
0
  6
CONTINUOUS
 62
   249
 10
180.90316
 20
184.383127
 30
0.0
 11
182.097501
 21
184.383127
 31
0.0
  0
LINE
  8
0
  6
CONTINUOUS
 62
   249
 10
182.113387
 20
185.737397
 30
0.0
 11
182.113387
 21
184.383127
 31
0.0
  0
LINE
  8
0
  6
CONTINUOUS
 62
   249
 10
171.424362
 20
182.848947
 30
0.0
 11
169.078597
 21
184.1843
 31
0.0
  0
LINE
  8
0
  6
CONTINUOUS
 62
   249
 10
169.078597
 20
184.1843
 30
0.0
 11
171.424362
 21
185.37422
 31
0.0
  0
ARC
  8
0
  6
CONTINUOUS
 62
   249
 10
167.5
 20
177.471652
 30
0.0
 40
0.5
 50
180.0
 51
0.0
  0
ARC
  8
0
  6
CONTINUOUS
 62
   249
 10
167.5
 20
177.471652
 30
0.0
 40
0.5
 50
0.0
 51
180.0
  0
LINE
  8
0
  6
CONTINUOUS
 62
   249
 10
171.42602
 20
186.771178
 30
0.0
 11
169.080254
 21
188.106531
 31
0.0
  0
LINE
  8
0
  6
CONTINUOUS
 62
   249
 10
169.080254
 20
188.106531
 30
0.0
 11
171.42602
 21
189.29645
 31
0.0
  0
LINE
  8
0
  6
CONTINUOUS
 62
   249
 10
171.424362
 20
190.657382
 30
0.0
 11
169.078597
 21
191.992735
 31
0.0
  0
LINE
  8
0
  6
CONTINUOUS
 62
   249
 10
169.078597
 20
191.992735
 30
0.0
 11
171.424362
 21
193.182654
 31
0.0
  0
LINE
  8
0
  6
CONTINUOUS
 62
   249
 10
181.684557
 20
173.265721
 30
0.0
 11
182.571444
 21
173.265721
 31
0.0
  0
LINE
  8
0
  6
CONTINUOUS
 62
   249
 10
181.353452
 20
173.877354
 30
0.0
 11
182.938024
 21
173.877354
 31
0.0
  0
LINE
  8
0
  6
CONTINUOUS
 62
   249
 10
182.169388
 20
174.499416
 30
0.0
 11
183.363729
 21
174.499416
 31
0.0
  0
LINE
  8
0
  6
CONTINUOUS
 62
   249
 10
180.975047
 20
174.499416
 30
0.0
 11
182.169388
 21
174.499416
 31
0.0
  0
LINE
  8
0
  6
CONTINUOUS
 62
   249
 10
182.185275
 20
175.853686
 30
0.0
 11
182.185275
 21
174.499416
 31
0.0
  0
LINE
  8
0
  6
CONTINUOUS
 62
   249
 10
183.13429
 20
187.956785
 30
0.0
 11
184.021177
 21
187.956785
 31
0.0
  0
LINE
  8
0
  6
CONTINUOUS
 62
   249
 10
182.803186
 20
188.568418
 30
0.0
 11
184.387757
 21
188.568418
 31
0.0
  0
LINE
  8
0
  6
CONTINUOUS
 62
   249
 10
183.619122
 20
189.19048
 30
0.0
 11
184.813463
 21
189.19048
 31
0.0
  0
LINE
  8
0
  6
CONTINUOUS
 62
   249
 10
182.424781
 20
189.19048
 30
0.0
 11
183.619122
 21
189.19048
 31
0.0
  0
LINE
  8
0
  6
CONTINUOUS
 62
   249
 10
183.635009
 20
190.544751
 30
0.0
 11
183.635009
 21
189.19048
 31
0.0
  0
LINE
  8
0
  6
CONTINUOUS
 62
   249
 10
171.424362
 20
196.164635
 30
0.0
 11
169.078597
 21
197.499989
 31
0.0
  0
LINE
  8
0
  6
CONTINUOUS
 62
   249
 10
169.078597
 20
197.499989
 30
0.0
 11
171.424362
 21
198.689908
 31
0.0
  0
LINE
  8
0
  6
CONTINUOUS
 62
   249
 10
171.424362
 20
200.831255
 30
0.0
 11
169.078597
 21
202.166609
 31
0.0
  0
LINE
  8
0
  6
CONTINUOUS
 62
   249
 10
169.078597
 20
202.166609
 30
0.0
 11
171.424362
 21
203.356528
 31
0.0
  0
LINE
  8
0
  6
CONTINUOUS
 62
   249
 10
171.424362
 20
208.664635
 30
0.0
 11
169.078597
 21
209.999989
 31
0.0
  0
LINE
  8
0
  6
CONTINUOUS
 62
   249
 10
169.078597
 20
209.999989
 30
0.0
 11
171.424362
 21
211.189908
 31
0.0
  0
LINE
  8
0
  6
CONTINUOUS
 62
   249
 10
183.13429
 20
203.272632
 30
0.0
 11
184.021177
 21
203.272632
 31
0.0
  0
LINE
  8
0
  6
CONTINUOUS
 62
   249
 10
182.803186
 20
203.884265
 30
0.0
 11
184.387757
 21
203.884265
 31
0.0
  0
LINE
  8
0
  6
CONTINUOUS
 62
   249
 10
183.619122
 20
204.506327
 30
0.0
 11
184.813463
 21
204.506327
 31
0.0
  0
LINE
  8
0
  6
CONTINUOUS
 62
   249
 10
182.424781
 20
204.506327
 30
0.0
 11
183.619122
 21
204.506327
 31
0.0
  0
LINE
  8
0
  6
CONTINUOUS
 62
   249
 10
183.635009
 20
205.860598
 30
0.0
 11
183.635009
 21
204.506327
 31
0.0
  0
LINE
  8
0
  6
CONTINUOUS
 62
   249
 10
183.13429
 20
198.170242
 30
0.0
 11
184.021177
 21
198.170242
 31
0.0
  0
LINE
  8
0
  6
CONTINUOUS
 62
   249
 10
182.803186
 20
198.781875
 30
0.0
 11
184.387757
 21
198.781875
 31
0.0
  0
LINE
  8
0
  6
CONTINUOUS
 62
   249
 10
183.619122
 20
199.403937
 30
0.0
 11
184.813463
 21
199.403937
 31
0.0
  0
LINE
  8
0
  6
CONTINUOUS
 62
   249
 10
182.424781
 20
199.403937
 30
0.0
 11
183.619122
 21
199.403937
 31
0.0
  0
LINE
  8
0
  6
CONTINUOUS
 62
   249
 10
183.635009
 20
200.758208
 30
0.0
 11
183.635009
 21
199.403937
 31
0.0
  0
ARC
  8
0
  6
CONTINUOUS
 62
   249
 10
167.5
 20
215.0
 30
0.0
 40
0.5
 50
180.0
 51
0.0
  0
ARC
  8
0
  6
CONTINUOUS
 62
   249
 10
167.5
 20
215.0
 30
0.0
 40
0.5
 50
0.0
 51
180.0
  0
LINE
  8
0
  6
CONTINUOUS
 62
   249
 10
295.0
 20
133.490022
 30
0.0
 11
295.0
 21
130.844365
 31
0.0
  0
LINE
  8
0
  6
CONTINUOUS
 62
   249
 10
294.396305
 20
129.062812
 30
0.0
 11
295.603695
 21
129.062812
 31
0.0
  0
LINE
  8
0
  6
CONTINUOUS
 62
   249
 10
293.963807
 20
129.950325
 30
0.0
 11
296.027182
 21
129.950325
 31
0.0
  0
LINE
  8
0
  6
CONTINUOUS
 62
   249
 10
293.468237
 20
130.844365
 30
0.0
 11
296.531763
 21
130.844365
 31
0.0
  0
LINE
  8
0
  6
CONTINUOUS
 62
   249
 10
285.0
 20
133.490022
 30
0.0
 11
285.0
 21
130.844365
 31
0.0
  0
LINE
  8
0
  6
CONTINUOUS
 62
   249
 10
284.396305
 20
129.062812
 30
0.0
 11
285.603695
 21
129.062812
 31
0.0
  0
LINE
  8
0
  6
CONTINUOUS
 62
   249
 10
283.963807
 20
129.950325
 30
0.0
 11
286.027182
 21
129.950325
 31
0.0
  0
LINE
  8
0
  6
CONTINUOUS
 62
   249
 10
283.468237
 20
130.844365
 30
0.0
 11
286.531763
 21
130.844365
 31
0.0
  0
LINE
  8
0
  6
CONTINUOUS
 62
   249
 10
229.88991
 20
71.022066
 30
0.0
 11
227.544144
 21
72.35742
 31
0.0
  0
LINE
  8
0
  6
CONTINUOUS
 62
   249
 10
227.544144
 20
72.35742
 30
0.0
 11
229.88991
 21
73.547339
 31
0.0
  0
LINE
  8
0
  6
CONTINUOUS
 62
   249
 10
232.413158
 20
116.164635
 30
0.0
 11
230.067393
 21
117.499989
 31
0.0
  0
LINE
  8
0
  6
CONTINUOUS
 62
   249
 10
230.067393
 20
117.499989
 30
0.0
 11
232.413158
 21
118.689908
 31
0.0
  0
ARC
  8
0
  6
CONTINUOUS
 62
   249
 10
282.5
 20
67.5
 30
0.0
 40
0.5
 50
180.0
 51
0.0
  0
ARC
  8
0
  6
CONTINUOUS
 62
   249
 10
282.5
 20
67.5
 30
0.0
 40
0.5
 50
0.0
 51
180.0
  0
ARC
  8
0
  6
CONTINUOUS
 62
   249
 10
290.0
 20
87.5
 30
0.0
 40
0.5
 50
180.0
 51
0.0
  0
ARC
  8
0
  6
CONTINUOUS
 62
   249
 10
290.0
 20
87.5
 30
0.0
 40
0.5
 50
0.0
 51
180.0
  0
INSERT
  8
0
  6
CENTER
 62
   249
  2
BLC26
 10
346.046562
 20
110.109534
 30
0.0
 41
1.006225
 42
1.006225
 43
1.006225
  0
ARC
  8
0
  6
CONTINUOUS
 62
   249
 10
347.5
 20
127.5
 30
0.0
 40
0.5
 50
180.0
 51
0.0
  0
ARC
  8
0
  6
CONTINUOUS
 62
   249
 10
347.5
 20
127.5
 30
0.0
 40
0.5
 50
0.0
 51
180.0
  0
INSERT
  8
0
  6
CENTER
 62
   249
  2
BLC26
 10
361.046562
 20
110.109534
 30
0.0
 41
1.006225
 42
1.006225
 43
1.006225
  0
INSERT
  8
0
  6
CENTER
 62
   249
  2
BLC26
 10
353.546562
 20
110.109534
 30
0.0
 41
1.006225
 42
1.006225
 43
1.006225
  0
LINE
  8
0
  6
CONTINUOUS
 62
   249
 10
369.009978
 20
107.68998
 30
0.0
 11
371.655635
 21
107.68998
 31
0.0
  0
LINE
  8
0
  6
CONTINUOUS
 62
   249
 10
373.437188
 20
107.086285
 30
0.0
 11
373.437188
 21
108.293675
 31
0.0
  0
LINE
  8
0
  6
CONTINUOUS
 62
   249
 10
372.549675
 20
106.653787
 30
0.0
 11
372.549675
 21
108.717163
 31
0.0
  0
LINE
  8
0
  6
CONTINUOUS
 62
   249
 10
371.655635
 20
106.158217
 30
0.0
 11
371.655635
 21
109.221743
 31
0.0
  0
LINE
  8
0
  6
CONTINUOUS
 62
   249
 10
369.009978
 20
102.5
 30
0.0
 11
371.655635
 21
102.5
 31
0.0
  0
LINE
  8
0
  6
CONTINUOUS
 62
   249
 10
373.437188
 20
101.896305
 30
0.0
 11
373.437188
 21
103.103695
 31
0.0
  0
LINE
  8
0
  6
CONTINUOUS
 62
   249
 10
372.549675
 20
101.463807
 30
0.0
 11
372.549675
 21
103.527182
 31
0.0
  0
LINE
  8
0
  6
CONTINUOUS
 62
   249
 10
371.655635
 20
100.968237
 30
0.0
 11
371.655635
 21
104.031763
 31
0.0
  0
ARC
  8
0
  6
CONTINUOUS
 62
   249
 10
362.5
 20
117.5
 30
0.0
 40
0.5
 50
180.0
 51
0.0
  0
ARC
  8
0
  6
CONTINUOUS
 62
   249
 10
362.5
 20
117.5
 30
0.0
 40
0.5
 50
0.0
 51
180.0
  0
ARC
  8
0
  6
CONTINUOUS
 62
   249
 10
355.0
 20
122.5
 30
0.0
 40
0.5
 50
180.0
 51
0.0
  0
ARC
  8
0
  6
CONTINUOUS
 62
   249
 10
355.0
 20
122.5
 30
0.0
 40
0.5
 50
0.0
 51
180.0
  0
INSERT
  8
0
  6
CENTER
 62
   249
  2
BLC26
 10
318.546562
 20
242.609534
 30
0.0
 41
1.006225
 42
1.006225
 43
1.006225
  0
LINE
  8
0
  6
CONTINUOUS
 62
   249
 10
201.22323
 20
169.990627
 30
0.0
 11
199.974557
 21
170.701449
 31
0.0
  0
LINE
  8
0
  6
CONTINUOUS
 62
   249
 10
199.974557
 20
170.701449
 30
0.0
 11
201.22323
 21
171.334854
 31
0.0
  0
LINE
  8
0
  6
CONTINUOUS
 62
   249
 10
204.847595
 20
171.425586
 30
0.0
 11
206.096268
 21
170.714764
 31
0.0
  0
LINE
  8
0
  6
CONTINUOUS
 62
   249
 10
206.096268
 20
170.714764
 30
0.0
 11
204.847595
 21
170.081359
 31
0.0
  0
ARC
  8
0
  6
CONTINUOUS
 62
   249
 10
212.5
 20
165.979447
 30
0.0
 40
0.5
 50
180.0
 51
0.0
  0
ARC
  8
0
  6
CONTINUOUS
 62
   249
 10
212.5
 20
165.979447
 30
0.0
 40
0.5
 50
0.0
 51
180.0
  0
LINE
  8
0
  6
CONTINUOUS
 62
   249
 10
232.413158
 20
136.164635
 30
0.0
 11
230.067393
 21
137.499989
 31
0.0
  0
LINE
  8
0
  6
CONTINUOUS
 62
   249
 10
230.067393
 20
137.499989
 30
0.0
 11
232.413158
 21
138.689908
 31
0.0
  0
LINE
  8
0
  6
CONTINUOUS
 62
   249
 10
232.413158
 20
156.164635
 30
0.0
 11
230.067393
 21
157.499989
 31
0.0
  0
LINE
  8
0
  6
CONTINUOUS
 62
   249
 10
230.067393
 20
157.499989
 30
0.0
 11
232.413158
 21
158.689908
 31
0.0
  0
LINE
  8
0
  6
CONTINUOUS
 62
   249
 10
204.425006
 20
178.220592
 30
0.0
 11
205.311893
 21
178.220592
 31
0.0
  0
LINE
  8
0
  6
CONTINUOUS
 62
   249
 10
204.093901
 20
178.832226
 30
0.0
 11
205.678473
 21
178.832226
 31
0.0
  0
LINE
  8
0
  6
CONTINUOUS
 62
   249
 10
204.909837
 20
179.454288
 30
0.0
 11
206.104178
 21
179.454288
 31
0.0
  0
LINE
  8
0
  6
CONTINUOUS
 62
   249
 10
203.715496
 20
179.454288
 30
0.0
 11
204.909837
 21
179.454288
 31
0.0
  0
LINE
  8
0
  6
CONTINUOUS
 62
   249
 10
204.925724
 20
180.808558
 30
0.0
 11
204.925724
 21
179.454288
 31
0.0
  0
LINE
  8
0
  6
CONTINUOUS
 62
   249
 10
204.353118
 20
173.248366
 30
0.0
 11
205.240005
 21
173.248366
 31
0.0
  0
LINE
  8
0
  6
CONTINUOUS
 62
   249
 10
204.022014
 20
173.859999
 30
0.0
 11
205.606585
 21
173.859999
 31
0.0
  0
LINE
  8
0
  6
CONTINUOUS
 62
   249
 10
204.83795
 20
174.482061
 30
0.0
 11
206.032291
 21
174.482061
 31
0.0
  0
LINE
  8
0
  6
CONTINUOUS
 62
   249
 10
203.643609
 20
174.482061
 30
0.0
 11
204.83795
 21
174.482061
 31
0.0
  0
LINE
  8
0
  6
CONTINUOUS
 62
   249
 10
204.853836
 20
175.836331
 30
0.0
 11
204.853836
 21
174.482061
 31
0.0
  0
LINE
  8
0
  6
CONTINUOUS
 62
   249
 10
202.38819
 20
194.812037
 30
0.0
 11
203.275077
 21
194.812037
 31
0.0
  0
LINE
  8
0
  6
CONTINUOUS
 62
   249
 10
202.057086
 20
195.42367
 30
0.0
 11
203.641657
 21
195.42367
 31
0.0
  0
LINE
  8
0
  6
CONTINUOUS
 62
   249
 10
202.873022
 20
196.045732
 30
0.0
 11
204.067363
 21
196.045732
 31
0.0
  0
LINE
  8
0
  6
CONTINUOUS
 62
   249
 10
201.678681
 20
196.045732
 30
0.0
 11
202.873022
 21
196.045732
 31
0.0
  0
LINE
  8
0
  6
CONTINUOUS
 62
   249
 10
202.888908
 20
197.400002
 30
0.0
 11
202.888908
 21
196.045732
 31
0.0
  0
LINE
  8
0
  6
CONTINUOUS
 62
   249
 10
229.489729
 20
196.164635
 30
0.0
 11
227.143963
 21
197.499989
 31
0.0
  0
LINE
  8
0
  6
CONTINUOUS
 62
   249
 10
227.143963
 20
197.499989
 30
0.0
 11
229.489729
 21
198.689908
 31
0.0
  0
LINE
  8
0
  6
CONTINUOUS
 62
   249
 10
287.5
 20
157.343834
 30
0.0
 11
287.5
 21
154.698177
 31
0.0
  0
LINE
  8
0
  6
CONTINUOUS
 62
   249
 10
286.896305
 20
152.916623
 30
0.0
 11
288.103695
 21
152.916623
 31
0.0
  0
LINE
  8
0
  6
CONTINUOUS
 62
   249
 10
286.463807
 20
153.804137
 30
0.0
 11
288.527182
 21
153.804137
 31
0.0
  0
LINE
  8
0
  6
CONTINUOUS
 62
   249
 10
285.968237
 20
154.698177
 30
0.0
 11
289.031763
 21
154.698177
 31
0.0
  0
ARC
  8
0
  6
CONTINUOUS
 62
   249
 10
285.0
 20
137.5
 30
0.0
 40
0.5
 50
180.0
 51
0.0
  0
ARC
  8
0
  6
CONTINUOUS
 62
   249
 10
285.0
 20
137.5
 30
0.0
 40
0.5
 50
0.0
 51
180.0
  0
ARC
  8
0
  6
CONTINUOUS
 62
   249
 10
287.5
 20
157.5
 30
0.0
 40
0.5
 50
180.0
 51
0.0
  0
ARC
  8
0
  6
CONTINUOUS
 62
   249
 10
287.5
 20
157.5
 30
0.0
 40
0.5
 50
0.0
 51
180.0
  0
INSERT
  8
0
  6
CENTER
 62
   249
  2
BLC26
 10
298.91053
 20
139.890461
 30
0.0
 41
1.006225
 42
1.006225
 50
180.0
 43
1.006225
  0
ARC
  8
0
  6
CONTINUOUS
 62
   249
 10
272.5
 20
177.5
 30
0.0
 40
0.5
 50
180.0
 51
0.0
  0
ARC
  8
0
  6
CONTINUOUS
 62
   249
 10
272.5
 20
177.5
 30
0.0
 40
0.5
 50
0.0
 51
180.0
  0
ARC
  8
0
  6
CONTINUOUS
 62
   249
 10
287.5
 20
182.689984
 30
0.0
 40
0.5
 50
180.0
 51
0.0
  0
ARC
  8
0
  6
CONTINUOUS
 62
   249
 10
287.5
 20
182.689984
 30
0.0
 40
0.5
 50
0.0
 51
180.0
  0
ARC
  8
0
  6
CONTINUOUS
 62
   249
 10
287.5
 20
177.5
 30
0.0
 40
0.5
 50
180.0
 51
0.0
  0
ARC
  8
0
  6
CONTINUOUS
 62
   249
 10
287.5
 20
177.5
 30
0.0
 40
0.5
 50
0.0
 51
180.0
  0
ARC
  8
0
  6
CONTINUOUS
 62
   249
 10
272.5
 20
197.5
 30
0.0
 40
0.5
 50
180.0
 51
0.0
  0
ARC
  8
0
  6
CONTINUOUS
 62
   249
 10
272.5
 20
197.5
 30
0.0
 40
0.5
 50
0.0
 51
180.0
  0
ARC
  8
0
  6
CONTINUOUS
 62
   249
 10
287.5
 20
202.689984
 30
0.0
 40
0.5
 50
180.0
 51
0.0
  0
ARC
  8
0
  6
CONTINUOUS
 62
   249
 10
287.5
 20
202.689984
 30
0.0
 40
0.5
 50
0.0
 51
180.0
  0
LINE
  8
0
  6
CONTINUOUS
 62
   249
 10
307.951992
 20
199.618962
 30
0.0
 11
307.951992
 21
190.469134
 31
0.0
  0
INSERT
  8
0
  6
CONTINUOUS
 62
   249
  2
BLC29
 10
308.084738
 20
192.829699
 30
0.0
 50
270.0
  0
INSERT
  8
0
  6
CENTER
 62
   249
  2
BLC26
 10
303.910526
 20
185.080446
 30
0.0
 41
1.006225
 42
1.006225
 50
180.0
 43
1.006225
  0
ARC
  8
0
  6
CONTINUOUS
 62
   249
 10
295.0
 20
175.0
 30
0.0
 40
0.5
 50
180.0
 51
0.0
  0
ARC
  8
0
  6
CONTINUOUS
 62
   249
 10
295.0
 20
175.0
 30
0.0
 40
0.5
 50
0.0
 51
180.0
  0
INSERT
  8
0
  6
CENTER
 62
   249
  2
BLC26
 10
298.93164
 20
205.080445
 30
0.0
 41
1.006225
 42
1.006225
 50
180.0
 43
1.006225
  0
ARC
  8
0
  6
CONTINUOUS
 62
   249
 10
215.0
 20
215.0
 30
0.0
 40
0.5
 50
180.0
 51
0.0
  0
ARC
  8
0
  6
CONTINUOUS
 62
   249
 10
215.0
 20
215.0
 30
0.0
 40
0.5
 50
0.0
 51
180.0
  0
ARC
  8
0
  6
CONTINUOUS
 62
   249
 10
297.5
 20
255.0
 30
0.0
 40
0.5
 50
180.0
 51
0.0
  0
ARC
  8
0
  6
CONTINUOUS
 62
   249
 10
297.5
 20
255.0
 30
0.0
 40
0.5
 50
0.0
 51
180.0
  0
INSERT
  8
0
  6
CENTER
 62
   249
  2
BLC26
 10
293.910524
 20
225.080448
 30
0.0
 41
1.006225
 42
1.006225
 50
180.0
 43
1.006225
  0
ARC
  8
0
  6
CONTINUOUS
 62
   249
 10
302.5
 20
250.0
 30
0.0
 40
0.5
 50
180.0
 51
0.0
  0
ARC
  8
0
  6
CONTINUOUS
 62
   249
 10
302.5
 20
250.0
 30
0.0
 40
0.5
 50
0.0
 51
180.0
  0
ARC
  8
0
  6
CONTINUOUS
 62
   249
 10
292.5
 20
260.0
 30
0.0
 40
0.5
 50
180.0
 51
0.0
  0
ARC
  8
0
  6
CONTINUOUS
 62
   249
 10
292.5
 20
260.0
 30
0.0
 40
0.5
 50
0.0
 51
180.0
  0
LINE
  8
0
  6
CONTINUOUS
 62
   249
 10
366.930692
 20
211.994969
 30
0.0
 11
367.817579
 21
211.994969
 31
0.0
  0
LINE
  8
0
  6
CONTINUOUS
 62
   249
 10
366.599587
 20
212.606602
 30
0.0
 11
368.184159
 21
212.606602
 31
0.0
  0
LINE
  8
0
  6
CONTINUOUS
 62
   249
 10
367.415523
 20
213.228665
 30
0.0
 11
368.609864
 21
213.228665
 31
0.0
  0
LINE
  8
0
  6
CONTINUOUS
 62
   249
 10
366.221182
 20
213.228665
 30
0.0
 11
367.415523
 21
213.228665
 31
0.0
  0
LINE
  8
0
  6
CONTINUOUS
 62
   249
 10
367.43141
 20
214.582935
 30
0.0
 11
367.43141
 21
213.228665
 31
0.0
  0
LINE
  8
0
  6
CONTINUOUS
 62
   249
 10
365.78618
 20
189.007632
 30
0.0
 11
364.537507
 21
189.718453
 31
0.0
  0
LINE
  8
0
  6
CONTINUOUS
 62
   249
 10
364.537507
 20
189.718453
 30
0.0
 11
365.78618
 21
190.351859
 31
0.0
  0
LINE
  8
0
  6
CONTINUOUS
 62
   249
 10
369.432804
 20
190.429275
 30
0.0
 11
370.681477
 21
189.718453
 31
0.0
  0
LINE
  8
0
  6
CONTINUOUS
 62
   249
 10
370.681477
 20
189.718453
 30
0.0
 11
369.432804
 21
189.085048
 31
0.0
  0
LINE
  8
0
  6
CONTINUOUS
 62
   249
 10
368.035638
 20
204.468842
 30
0.0
 11
369.284311
 21
203.75802
 31
0.0
  0
LINE
  8
0
  6
CONTINUOUS
 62
   249
 10
369.284311
 20
203.75802
 30
0.0
 11
368.035638
 21
203.124615
 31
0.0
  0
LINE
  8
0
  6
CONTINUOUS
 62
   249
 10
366.857882
 20
197.240204
 30
0.0
 11
367.744769
 21
197.240204
 31
0.0
  0
LINE
  8
0
  6
CONTINUOUS
 62
   249
 10
366.526777
 20
197.851837
 30
0.0
 11
368.111349
 21
197.851837
 31
0.0
  0
LINE
  8
0
  6
CONTINUOUS
 62
   249
 10
367.342713
 20
198.473899
 30
0.0
 11
368.537054
 21
198.473899
 31
0.0
  0
LINE
  8
0
  6
CONTINUOUS
 62
   249
 10
366.148372
 20
198.473899
 30
0.0
 11
367.342713
 21
198.473899
 31
0.0
  0
LINE
  8
0
  6
CONTINUOUS
 62
   249
 10
367.3586
 20
199.828169
 30
0.0
 11
367.3586
 21
198.473899
 31
0.0
  0
ARC
  8
0
  6
CONTINUOUS
 62
   249
 10
327.5
 20
255.0
 30
0.0
 40
0.5
 50
180.0
 51
0.0
  0
ARC
  8
0
  6
CONTINUOUS
 62
   249
 10
327.5
 20
255.0
 30
0.0
 40
0.5
 50
0.0
 51
180.0
  0
ARC
  8
0
  6
CONTINUOUS
 62
   249
 10
345.0
 20
235.0
 30
0.0
 40
0.5
 50
180.0
 51
0.0
  0
ARC
  8
0
  6
CONTINUOUS
 62
   249
 10
345.0
 20
235.0
 30
0.0
 40
0.5
 50
0.0
 51
180.0
  0
ARC
  8
0
  6
CONTINUOUS
 62
   249
 10
335.0
 20
250.0
 30
0.0
 40
0.5
 50
180.0
 51
0.0
  0
ARC
  8
0
  6
CONTINUOUS
 62
   249
 10
335.0
 20
250.0
 30
0.0
 40
0.5
 50
0.0
 51
180.0
  0
ARC
  8
0
  6
CONTINUOUS
 62
   249
 10
333.364862
 20
243.796095
 30
0.0
 40
1.204309
 50
90.0
 51
265.706237
  0
LINE
  8
0
  6
CONTINUOUS
 62
   249
 10
333.358762
 20
242.598547
 30
0.0
 11
334.00836
 21
242.598547
 31
0.0
  0
LINE
  8
0
  6
CONTINUOUS
 62
   249
 10
333.358762
 20
244.999993
 30
0.0
 11
334.002261
 21
244.999993
 31
0.0
  0
LINE
  8
0
  6
CONTINUOUS
 62
   249
 10
333.359898
 20
240.189937
 30
0.0
 11
334.009496
 21
240.189937
 31
0.0
  0
ARC
  8
0
  6
CONTINUOUS
 62
   249
 10
333.364862
 20
241.394238
 30
0.0
 40
1.204309
 50
90.0
 51
270.0
  0
LINE
  8
0
  6
CONTINUOUS
 62
   249
 10
334.000897
 20
240.18998
 30
0.0
 11
334.957092
 21
240.18998
 31
0.0
  0
LINE
  8
0
  6
CONTINUOUS
 62
   249
 10
333.996128
 20
244.999996
 30
0.0
 11
334.973936
 21
244.999996
 31
0.0
  0
LINE
  8
0
  6
CONTINUOUS
 62
   249
 10
334.006031
 20
242.598556
 30
0.0
 11
334.978167
 21
242.598556
 31
0.0
  0
ARC
  8
0
  6
CONTINUOUS
 62
   249
 10
325.864862
 20
243.796095
 30
0.0
 40
1.204309
 50
90.0
 51
265.706237
  0
LINE
  8
0
  6
CONTINUOUS
 62
   249
 10
325.858762
 20
242.598547
 30
0.0
 11
326.50836
 21
242.598547
 31
0.0
  0
LINE
  8
0
  6
CONTINUOUS
 62
   249
 10
325.858762
 20
244.999993
 30
0.0
 11
326.502261
 21
244.999993
 31
0.0
  0
LINE
  8
0
  6
CONTINUOUS
 62
   249
 10
325.859898
 20
240.189937
 30
0.0
 11
326.509496
 21
240.189937
 31
0.0
  0
ARC
  8
0
  6
CONTINUOUS
 62
   249
 10
325.864862
 20
241.394238
 30
0.0
 40
1.204309
 50
90.0
 51
270.0
  0
LINE
  8
0
  6
CONTINUOUS
 62
   249
 10
326.500897
 20
240.18998
 30
0.0
 11
327.457092
 21
240.18998
 31
0.0
  0
LINE
  8
0
  6
CONTINUOUS
 62
   249
 10
326.496128
 20
244.999996
 30
0.0
 11
327.473936
 21
244.999996
 31
0.0
  0
LINE
  8
0
  6
CONTINUOUS
 62
   249
 10
326.506031
 20
242.598556
 30
0.0
 11
327.478167
 21
242.598556
 31
0.0
  0
LINE
  8
0
  6
CONTINUOUS
 62
   249
 10
367.149122
 20
232.225278
 30
0.0
 11
368.036009
 21
232.225278
 31
0.0
  0
LINE
  8
0
  6
CONTINUOUS
 62
   249
 10
366.818018
 20
232.836911
 30
0.0
 11
368.402589
 21
232.836911
 31
0.0
  0
LINE
  8
0
  6
CONTINUOUS
 62
   249
 10
367.633953
 20
233.458973
 30
0.0
 11
368.828294
 21
233.458973
 31
0.0
  0
LINE
  8
0
  6
CONTINUOUS
 62
   249
 10
366.439612
 20
233.458973
 30
0.0
 11
367.633953
 21
233.458973
 31
0.0
  0
LINE
  8
0
  6
CONTINUOUS
 62
   249
 10
367.64984
 20
234.813243
 30
0.0
 11
367.64984
 21
233.458973
 31
0.0
  0
LINE
  8
0
  6
CONTINUOUS
 62
   249
 10
367.294742
 20
222.754384
 30
0.0
 11
368.181629
 21
222.754384
 31
0.0
  0
LINE
  8
0
  6
CONTINUOUS
 62
   249
 10
366.963638
 20
223.366018
 30
0.0
 11
368.548209
 21
223.366018
 31
0.0
  0
LINE
  8
0
  6
CONTINUOUS
 62
   249
 10
367.779573
 20
223.98808
 30
0.0
 11
368.973914
 21
223.98808
 31
0.0
  0
LINE
  8
0
  6
CONTINUOUS
 62
   249
 10
366.585232
 20
223.98808
 30
0.0
 11
367.779573
 21
223.98808
 31
0.0
  0
LINE
  8
0
  6
CONTINUOUS
 62
   249
 10
367.79546
 20
225.34235
 30
0.0
 11
367.79546
 21
223.98808
 31
0.0
  0
ARC
  8
0
  6
CONTINUOUS
 62
   249
 10
320.0
 20
260.0
 30
0.0
 40
0.5
 50
180.0
 51
0.0
  0
ARC
  8
0
  6
CONTINUOUS
 62
   249
 10
320.0
 20
260.0
 30
0.0
 40
0.5
 50
0.0
 51
180.0
  0
ENDSEC
  0
EOF
