  0
SECTION
  2
HEADER
  9
$ACADVER
  1
AC1009
  9
$DWGCODEPAGE
  3
iso8859-1
  9
$INSBASE
 10
0.0
 20
0.0
 30
0.0
  9
$EXTMIN
 10
1.0E20
 20
1.0E20
  9
$EXTMAX
 10
-1.0E20
 20
-1.0E20
  9
$LIMMIN
 10
0.0
 20
0.0
  9
$LIMMAX
 10
12.0
 20
9.0
  9
$ORTHOMODE
 70
     0
  9
$REGENMODE
 70
     1
  9
$FILLMODE
 70
     1
  9
$QTEXTMODE
 70
     0
  9
$MIRRTEXT
 70
     1
  9
$DRAGMODE
 70
     2
  9
$LTSCALE
 40
15.0
  9
$OSMODE
 70
     0
  9
$ATTMODE
 70
     1
  9
$TEXTSIZE
 40
0.2
  9
$TRACEWID
 40
0.05
  9
$TEXTSTYLE
  7
STANDARD
  9
$CLAYER
  8
0
  9
$CELTYPE
  6
DASHED
  9
$CECOLOR
 62
   256
  9
$DIMSCALE
 40
1.0
  9
$DIMASZ
 40
0.18
  9
$DIMEXO
 40
0.0625
  9
$DIMDLI
 40
0.38
  9
$DIMRND
 40
0.0
  9
$DIMDLE
 40
0.0
  9
$DIMEXE
 40
0.18
  9
$DIMTP
 40
0.0
  9
$DIMTM
 40
0.0
  9
$DIMTXT
 40
0.18
  9
$DIMCEN
 40
0.09
  9
$DIMTSZ
 40
0.0
  9
$DIMTOL
 70
     0
  9
$DIMLIM
 70
     0
  9
$DIMTIH
 70
     1
  9
$DIMTOH
 70
     1
  9
$DIMSE1
 70
     0
  9
$DIMSE2
 70
     0
  9
$DIMTAD
 70
     0
  9
$DIMZIN
 70
     0
  9
$DIMBLK
  1

  9
$DIMASO
 70
     1
  9
$DIMSHO
 70
     1
  9
$DIMPOST
  1

  9
$DIMAPOST
  1

  9
$DIMALT
 70
     0
  9
$DIMALTD
 70
     2
  9
$DIMALTF
 40
25.4
  9
$DIMLFAC
 40
1.0
  9
$DIMTOFL
 70
     0
  9
$DIMTVP
 40
0.0
  9
$DIMTIX
 70
     0
  9
$DIMSOXD
 70
     0
  9
$DIMSAH
 70
     0
  9
$DIMBLK1
  1

  9
$DIMBLK2
  1

  9
$DIMSTYLE
  2
STANDARD
  9
$DIMCLRD
 70
     0
  9
$DIMCLRE
 70
     0
  9
$DIMCLRT
 70
     0
  9
$DIMTFAC
 40
1.0
  9
$DIMGAP
 40
0.09
  9
$LUNITS
 70
     2
  9
$LUPREC
 70
     4
  9
$AXISMODE
 70
     0
  9
$AXISUNIT
 10
0.0
 20
0.0
  9
$SKETCHINC
 40
0.1
  9
$FILLETRAD
 40
0.0
  9
$AUNITS
 70
     0
  9
$AUPREC
 70
     0
  9
$MENU
  1
acad
  9
$ELEVATION
 40
0.0
  9
$PELEVATION
 40
0.0
  9
$THICKNESS
 40
0.0
  9
$LIMCHECK
 70
     0
  9
$BLIPMODE
 70
     1
  9
$CHAMFERA
 40
0.0
  9
$CHAMFERB
 40
0.0
  9
$SKPOLY
 70
     0
  9
$TDCREATE
 40
0.000000000
  9
$TDUPDATE
 40
0.000000000
  9
$TDINDWG
 40
0.0
  9
$TDUSRTIMER
 40
0.0
  9
$USRTIMER
 70
     1
  9
$ANGBASE
 50
0.0
  9
$ANGDIR
 70
     0
  9
$PDMODE
 70
     0
  9
$PDSIZE
 40
0.0
  9
$PLINEWID
 40
0.0
  9
$COORDS
 70
     1
  9
$SPLFRAME
 70
     0
  9
$SPLINETYPE
 70
     6
  9
$SPLINESEGS
 70
     8
  9
$ATTDIA
 70
     0
  9
$ATTREQ
 70
     1
  9
$HANDLING
 70
     1
  9
$HANDSEED
  5
   76C
  9
$SURFTAB1
 70
     6
  9
$SURFTAB2
 70
     6
  9
$SURFTYPE
 70
     6
  9
$SURFU
 70
     6
  9
$SURFV
 70
     6
  9
$UCSNAME
  2

  9
$UCSORG
 10
0.0
 20
0.0
 30
0.0
  9
$UCSXDIR
 10
1.0
 20
0.0
 30
0.0
  9
$UCSYDIR
 10
0.0
 20
1.0
 30
0.0
  9
$PUCSNAME
  2

  9
$PUCSORG
 10
0.0
 20
0.0
 30
0.0
  9
$PUCSXDIR
 10
1.0
 20
0.0
 30
0.0
  9
$PUCSYDIR
 10
0.0
 20
1.0
 30
0.0
  9
$USERI1
 70
     0
  9
$USERI2
 70
     0
  9
$USERI3
 70
     0
  9
$USERI4
 70
     0
  9
$USERI5
 70
     0
  9
$USERR1
 40
0.0
  9
$USERR2
 40
0.0
  9
$USERR3
 40
0.0
  9
$USERR4
 40
0.0
  9
$USERR5
 40
0.0
  9
$WORLDVIEW
 70
     1
  9
$SHADEDGE
 70
     3
  9
$SHADEDIF
 70
    70
  9
$TILEMODE
 70
     1
  9
$MAXACTVP
 70
    16
  9
$PINSBASE
 10
0.0
 20
0.0
 30
0.0
  9
$PLIMCHECK
 70
     0
  9
$PEXTMIN
 10
1.0E20
 20
1.0E20
 30
1.0E20
  9
$PEXTMAX
 10
-1.0E20
 20
-1.0E20
 30
-1.0E20
  9
$PLIMMIN
 10
0.0
 20
0.0
  9
$PLIMMAX
 10
12.0
 20
9.0
  9
$UNITMODE
 70
     0
  9
$VISRETAIN
 70
     0
  0
ENDSEC
  0
SECTION
  2
TABLES
  0
TABLE
  2
VPORT
 70
     1
  0
VPORT
  2
*ACTIVE
 70
     0
 10
0.0
 20
0.0
 11
1.0
 21
1.0
 12
6.801242
 22
4.5
 13
0.0
 23
0.0
 14
1.0
 24
1.0
 15
0.0
 25
0.0
 16
0.0
 26
0.0
 36
1.0
 17
0.0
 27
0.0
 37
0.0
 40
9.0
 41
1.511387
 42
50.0
 43
0.0
 44
0.0
 50
0.0
 51
0.0
 71
     0
 72
   100
 73
     1
 74
     1
 75
     0
 76
     0
 77
     0
 78
     0
  0
ENDTAB
  0
TABLE
  2
LTYPE
 70
    41
  0
LTYPE
  2
BYBLOCK
 70
     0
  3

 72
    65
 73
     0
 40
0.0
  0
LTYPE
  2
BYLAYER
 70
     0
  3

 72
    65
 73
     0
 40
0.0
  0
LTYPE
  2
CONTINUOUS
 70
     0
  3
Solid line
 72
    65
 73
     0
 40
0.0
  0
LTYPE
  2
BORDER
 70
    64
  3
__ __ . __ __ . __ __ . __ __ . __ __ . __ __ .
 72
    65
 73
     6
 40
1.75
 49
0.5
 49
-0.25
 49
0.5
 49
-0.25
 49
0.0
 49
-0.25
  0
LTYPE
  2
BORDER2
 70
    64
  3
__.__.__.__.__.__.__.__.__.__.__.__.__.__.__.__
 72
    65
 73
     6
 40
0.875
 49
0.25
 49
-0.125
 49
0.25
 49
-0.125
 49
0.0
 49
-0.125
  0
LTYPE
  2
BORDERX2
 70
    64
  3
____  ____  .  ____  ____  .  ____  ____  .  __
 72
    65
 73
     6
 40
3.5
 49
1.0
 49
-0.5
 49
1.0
 49
-0.5
 49
0.0
 49
-0.5
  0
LTYPE
  2
CENTER
 70
    64
  3
____ _ ____ _ ____ _ ____ _ ____ _ ____ _ ____
 72
    65
 73
     4
 40
2.0
 49
1.25
 49
-0.25
 49
0.25
 49
-0.25
  0
LTYPE
  2
CENTER2
 70
    64
  3
___ _ ___ _ ___ _ ___ _ ___ _ ___ _ ___ _ ___ _
 72
    65
 73
     4
 40
1.125
 49
0.75
 49
-0.125
 49
0.125
 49
-0.125
  0
LTYPE
  2
CENTERX2
 70
    64
  3
________  __  ________  __  ________  __  _____
 72
    65
 73
     4
 40
4.0
 49
2.5
 49
-0.5
 49
0.5
 49
-0.5
  0
LTYPE
  2
DASHDOT
 70
    64
  3
__ . __ . __ . __ . __ . __ . __ . __ . __ . __
 72
    65
 73
     4
 40
1.0
 49
0.5
 49
-0.25
 49
0.0
 49
-0.25
  0
LTYPE
  2
DASHDOT2
 70
    64
  3
_._._._._._._._._._._._._._._._._._._._._._._._
 72
    65
 73
     4
 40
0.5
 49
0.25
 49
-0.125
 49
0.0
 49
-0.125
  0
LTYPE
  2
DASHDOTX2
 70
    64
  3
____  .  ____  .  ____  .  ____  .  ____  .  __
 72
    65
 73
     4
 40
2.0
 49
1.0
 49
-0.5
 49
0.0
 49
-0.5
  0
LTYPE
  2
DASHED
 70
    64
  3
__ __ __ __ __ __ __ __ __ __ __ __ __ __ __ __
 72
    65
 73
     2
 40
0.75
 49
0.5
 49
-0.25
  0
LTYPE
  2
DASHED2
 70
    64
  3
_ _ _ _ _ _ _ _ _ _ _ _ _ _ _ _ _ _ _ _ _ _ _ _
 72
    65
 73
     2
 40
0.375
 49
0.25
 49
-0.125
  0
LTYPE
  2
DASHEDX2
 70
    64
  3
____  ____  ____  ____  ____  ____  ____  ____
 72
    65
 73
     2
 40
1.5
 49
1.0
 49
-0.5
  0
LTYPE
  2
DIVIDE
 70
    64
  3
____ . . ____ . . ____ . . ____ . . ____ . . __
 72
    65
 73
     6
 40
1.25
 49
0.5
 49
-0.25
 49
0.0
 49
-0.25
 49
0.0
 49
-0.25
  0
LTYPE
  2
DIVIDE2
 70
    64
  3
__..__..__..__..__..__..__..__..__..__..__..__.
 72
    65
 73
     6
 40
0.625
 49
0.25
 49
-0.125
 49
0.0
 49
-0.125
 49
0.0
 49
-0.125
  0
LTYPE
  2
DIVIDEX2
 70
    64
  3
________  .  .  ________  .  .  ________  .  .
 72
    65
 73
     6
 40
2.5
 49
1.0
 49
-0.5
 49
0.0
 49
-0.5
 49
0.0
 49
-0.5
  0
LTYPE
  2
DOT
 70
    64
  3
. . . . . . . . . . . . . . . . . . . . . . . .
 72
    65
 73
     2
 40
0.25
 49
0.0
 49
-0.25
  0
LTYPE
  2
DOT2
 70
    64
  3
...............................................
 72
    65
 73
     2
 40
0.125
 49
0.0
 49
-0.125
  0
LTYPE
  2
DOTX2
 70
    64
  3
.  .  .  .  .  .  .  .  .  .  .  .  .  .  .  .
 72
    65
 73
     2
 40
0.5
 49
0.0
 49
-0.5
  0
LTYPE
  2
HIDDEN
 70
    64
  3
__ __ __ __ __ __ __ __ __ __ __ __ __ __ __ __
 72
    65
 73
     2
 40
0.375
 49
0.25
 49
-0.125
  0
LTYPE
  2
HIDDEN2
 70
    64
  3
_ _ _ _ _ _ _ _ _ _ _ _ _ _ _ _ _ _ _ _ _ _ _ _
 72
    65
 73
     2
 40
0.1875
 49
0.125
 49
-0.0625
  0
LTYPE
  2
HIDDENX2
 70
    64
  3
____ ____ ____ ____ ____ ____ ____ ____ ____ __
 72
    65
 73
     2
 40
0.75
 49
0.5
 49
-0.25
  0
LTYPE
  2
PHANTOM
 70
    64
  3
______  __  __  ______  __  __  ______  __  __
 72
    65
 73
     6
 40
2.5
 49
1.25
 49
-0.25
 49
0.25
 49
-0.25
 49
0.25
 49
-0.25
  0
LTYPE
  2
PHANTOM2
 70
    64
  3
___ _ _ ___ _ _ ___ _ _ ___ _ _ ___ _ _ ___ _ _
 72
    65
 73
     6
 40
1.25
 49
0.625
 49
-0.125
 49
0.125
 49
-0.125
 49
0.125
 49
-0.125
  0
LTYPE
  2
PHANTOMX2
 70
    64
  3
____________    ____    ____    ____________
 72
    65
 73
     6
 40
5.0
 49
2.5
 49
-0.5
 49
0.5
 49
-0.5
 49
0.5
 49
-0.5
  0
LTYPE
  2
ACAD_ISO02W100
 70
    64
  3
__ __ __ __ __ __ __ __ __ __ __ __ __ __ __ __
 72
    65
 73
     2
 40
15.0
 49
12.0
 49
-3.0
  0
LTYPE
  2
ACAD_ISO03W100
 70
    64
  3
__    __    __    __    __    __    __    __
 72
    65
 73
     2
 40
30.0
 49
12.0
 49
-18.0
  0
LTYPE
  2
ACAD_ISO04W100
 70
    64
  3
____ . ____ . ____ . ____ . ____ . ____ . ____
 72
    65
 73
     4
 40
30.5
 49
24.0
 49
-3.0
 49
0.5
 49
-3.0
  0
LTYPE
  2
ACAD_ISO05W100
 70
    64
  3
____ .. ____ .. ____ .. ____ .. ____ .. ____ ..
 72
    65
 73
     6
 40
34.0
 49
24.0
 49
-3.0
 49
0.5
 49
-3.0
 49
0.5
 49
-3.0
  0
LTYPE
  2
ACAD_ISO06W100
 70
    64
  3
____ ... ____ ... ____ ... ____ ... ____ ... __
 72
    65
 73
     8
 40
37.5
 49
24.0
 49
-3.0
 49
0.5
 49
-3.0
 49
0.5
 49
-3.0
 49
0.5
 49
-3.0
  0
LTYPE
  2
ACAD_ISO07W100
 70
    64
  3
. . . . . . . . . . . . . . . . . . . . . . . .
 72
    65
 73
     2
 40
3.5
 49
0.5
 49
-3.0
  0
LTYPE
  2
ACAD_ISO08W100
 70
    64
  3
____ __ ____ __ ____ __ ____ ____ __ __ ____ __
 72
    65
 73
     4
 40
36.0
 49
24.0
 49
-3.0
 49
6.0
 49
-3.0
  0
LTYPE
  2
ACAD_ISO09W100
 70
    64
  3
____ __ __ ____ __ __ ____ __ __ ____ __ __ ___
 72
    65
 73
     6
 40
45.0
 49
24.0
 49
-3.0
 49
6.0
 49
-3.0
 49
6.0
 49
-3.0
  0
LTYPE
  2
ACAD_ISO10W100
 70
    64
  3
__ . __ . __ . __ . __ . __ . __ . __ . __ . __
 72
    65
 73
     4
 40
18.5
 49
12.0
 49
-3.0
 49
0.5
 49
-3.0
  0
LTYPE
  2
ACAD_ISO11W100
 70
    64
  3
__ __ . __ __ . __ __ . __ __ . __ __ . __ __ .
 72
    65
 73
     6
 40
33.5
 49
12.0
 49
-3.0
 49
12.0
 49
-3.0
 49
0.5
 49
-3.0
  0
LTYPE
  2
ACAD_ISO12W100
 70
    64
  3
__ . . __ . . __ . . __ . . __ . . __ . . __ .
 72
    65
 73
     6
 40
22.0
 49
12.0
 49
-3.0
 49
0.5
 49
-3.0
 49
0.5
 49
-3.0
  0
LTYPE
  2
ACAD_ISO13W100
 70
    64
  3
__ __ . . __ __ . . __ __ . . __ __ . . __ __ .
 72
    65
 73
     8
 40
37.0
 49
12.0
 49
-3.0
 49
12.0
 49
-3.0
 49
0.5
 49
-3.0
 49
0.5
 49
-3.0
  0
LTYPE
  2
ACAD_ISO14W100
 70
    64
  3
__ . . . __ . . . __ . . . __ . . . __ . . . __
 72
    65
 73
     8
 40
25.5
 49
12.0
 49
-3.0
 49
0.5
 49
-3.0
 49
0.5
 49
-3.0
 49
0.5
 49
-3.0
  0
LTYPE
  2
ACAD_ISO15W100
 70
    64
  3
__ __ . . . __ __ . . . __ __ . . . __ __ . . .
 72
    65
 73
    10
 40
40.5
 49
12.0
 49
-3.0
 49
12.0
 49
-3.0
 49
0.5
 49
-3.0
 49
0.5
 49
-3.0
 49
0.5
 49
-3.0
  0
ENDTAB
  0
TABLE
  2
STYLE
 70
     4
  0
STYLE
  2
STANDARD
 70
    64
 40
0.0
 41
1.0
 50
0.0
 71
     0
 42
0.2
  3
txt
  4

  0
STYLE
  2
TOLERANCE
 70
    64
 40
0.0
 41
1.0
 50
0.0
 71
     0
 42
0.2
  3
../igesfont/iges1003.shx
  4

  0
STYLE
  2
ROMANS
 70
    64
 40
0.0
 41
1.0
 50
0.0
 71
     0
 42
0.2
  3
romans.shx
  4

  0
STYLE
  2
ROMANC
 70
    64
 40
0.0
 41
1.0
 50
0.0
 71
     0
 42
0.2
  3
romanc.shx
  4

  0
ENDTAB
  0
TABLE
  2
DIMSTYLE
 70
     2
  0
DIMSTYLE
  2
UNNAMED
 70
     0
  3

  4

  5

  6

  7

 40
1.0
 41
0.18
 42
0.0625
 43
0.38
 44
0.18
 45
0.0
 46
0.0
 47
0.0
 48
0.0
140
0.18
141
0.09
142
0.0
143
25.4
144
1.0
145
0.0
146
1.0
147
0.09
 71
     0
 72
     0
 73
     1
 74
     1
 75
     0
 76
     0
 77
     0
 78
     0
170
     0
171
     2
172
     0
173
     0
174
     0
175
     0
176
     0
177
     0
178
     0
  0
DIMSTYLE
  2
STANDARD
 70
     0
  3

  4

  5

  6

  7

 40
1.0
 41
0.18
 42
0.0625
 43
0.38
 44
0.18
 45
0.0
 46
0.0
 47
0.0
 48
0.0
140
0.18
141
0.09
142
0.0
143
25.4
144
1.0
145
0.0
146
1.0
147
0.09
 71
     0
 72
     0
 73
     1
 74
     1
 75
     0
 76
     0
 77
     0
 78
     0
170
     0
171
     2
172
     0
173
     0
174
     0
175
     0
176
     0
177
     0
178
     0
  0
ENDTAB
  0
TABLE
  2
LAYER
 70
     1
  0
LAYER
  2
0
 70
     0
 62
     7
  6
CONTINUOUS
  0
ENDTAB
  0
ENDSEC
  0
SECTION
  2
BLOCKS
  0
BLOCK
  5
     B
  8
0
  6
CONTINUOUS
 62
     7
  2
*UDIM1133
 70
    65
 10
0.0
 20
0.0
 30
0.0
  3
*UDIM1133
  0
TEXT
  5
     C
  8
0
  6
CONTINUOUS
 62
     7
 10
-585.765599345131
 20
151.712146902244
 30
0.0
 40
3.5
  1
146
 50
359.999999948034
 41
0.933333333333333
 72
     1
 11
-581.215599343552
 21
153.46214689814
 31
0.0
 73
     2
  0
LINE
  5
     D
  8
0
  6
CONTINUOUS
 62
     7
 10
-545.426778540387
 20
124.707500071887
 30
0.0
 11
-545.426778540387
 21
152.71214689814
 31
0.0
  0
LINE
  5
     E
  8
0
  6
CONTINUOUS
 62
     7
 10
-618.426778540387
 20
124.707500071887
 30
0.0
 11
-618.426778540387
 21
152.71214689814
 31
0.0
  0
LINE
  5
     F
  8
0
  6
CONTINUOUS
 62
     7
 10
-545.426778540387
 20
150.71214689814
 30
0.0
 11
-618.426778540387
 21
150.71214689814
 31
0.0
  0
LINE
  5
    10
  8
0
  6
CONTINUOUS
 62
     3
 10
-548.324556013598
 20
149.935689741722
 30
0.0
 11
-545.426778540387
 21
150.71214689814
 31
0.0
  0
LINE
  5
    11
  8
0
  6
CONTINUOUS
 62
     3
 10
-545.426778540387
 20
150.71214689814
 30
0.0
 11
-548.324556013598
 21
151.488604054559
 31
0.0
  0
LINE
  5
    12
  8
0
  6
CONTINUOUS
 62
     3
 10
-615.529001067176
 20
151.488604054559
 30
0.0
 11
-618.426778540387
 21
150.71214689814
 31
0.0
  0
LINE
  5
    13
  8
0
  6
CONTINUOUS
 62
     3
 10
-618.426778540387
 20
150.71214689814
 30
0.0
 11
-615.529001067176
 21
149.935689741722
 31
0.0
  0
ENDBLK
  5
    14
  8
0
  6
CONTINUOUS
 62
     7
  0
BLOCK
  5
    15
  8
0
  6
CONTINUOUS
 62
     7
  2
*UDIM1134
 70
    65
 10
0.0
 20
0.0
 30
0.0
  3
*UDIM1134
  0
TEXT
  5
    16
  8
0
  6
CONTINUOUS
 62
     7
 10
-527.092649276008
 20
67.6217392406717
 30
0.0
 40
3.5
  1
175.75
 50
89.9999999480344
 41
0.933333333333333
 72
     1
 11
-528.842649267449
 21
77.0717392422567
 31
0.0
 73
     2
  0
LINE
  5
    17
  8
0
  6
CONTINUOUS
 62
     7
 10
-530.010889496004
 20
36.3325004577617
 30
0.0
 11
-524.092649267449
 21
36.3325004577618
 31
0.0
  0
LINE
  5
    18
  8
0
  6
CONTINUOUS
 62
     7
 10
-544.926778540387
 20
124.207500071887
 30
0.0
 11
-524.092649267449
 21
124.207500071887
 31
0.0
  0
LINE
  5
    19
  8
0
  6
CONTINUOUS
 62
     7
 10
-526.092649267449
 20
36.3325004577617
 30
0.0
 11
-526.092649267449
 21
124.207500071887
 31
0.0
  0
LINE
  5
    1A
  8
0
  6
CONTINUOUS
 62
     3
 10
-526.869106423868
 20
39.2302779309723
 30
0.0
 11
-526.092649267449
 21
36.3325004577617
 31
0.0
  0
LINE
  5
    1B
  8
0
  6
CONTINUOUS
 62
     3
 10
-526.092649267449
 20
36.3325004577617
 30
0.0
 11
-525.316192111031
 21
39.2302779309723
 31
0.0
  0
LINE
  5
    1C
  8
0
  6
CONTINUOUS
 62
     3
 10
-525.316192111031
 20
121.309722598677
 30
0.0
 11
-526.092649267449
 21
124.207500071887
 31
0.0
  0
LINE
  5
    1D
  8
0
  6
CONTINUOUS
 62
     3
 10
-526.092649267449
 20
124.207500071887
 30
0.0
 11
-526.869106423868
 21
121.309722598677
 31
0.0
  0
ENDBLK
  5
    1E
  8
0
  6
CONTINUOUS
 62
     7
  0
BLOCK
  5
    1F
  8
0
  6
CONTINUOUS
 62
     7
  2
*UDIM1135
 70
    65
 10
0.0
 20
0.0
 30
0.0
  3
*UDIM1135
  0
TEXT
  5
    20
  8
0
  6
CONTINUOUS
 62
     7
 10
-513.999969390903
 20
19.0051833808108
 30
0.0
 40
3.5
  1
400
 50
89.9999999480344
 41
0.933333333333333
 72
     1
 11
-515.749969386782
 21
23.5551833823958
 31
0.0
 73
     2
  0
LINE
  5
    21
  8
0
  6
CONTINUOUS
 62
     7
 10
-544.926778540387
 20
-75.7924999281129
 30
0.0
 11
-510.999969386782
 21
-75.7924999281129
 31
0.0
  0
LINE
  5
    22
  8
0
  6
CONTINUOUS
 62
     7
 10
-544.926778540387
 20
124.207500071887
 30
0.0
 11
-510.999969386782
 21
124.207500071887
 31
0.0
  0
LINE
  5
    23
  8
0
  6
CONTINUOUS
 62
     7
 10
-512.999969386782
 20
-75.7924999281129
 30
0.0
 11
-512.999969386782
 21
124.207500071887
 31
0.0
  0
LINE
  5
    24
  8
0
  6
CONTINUOUS
 62
     3
 10
-513.776426543201
 20
-72.8947224549024
 30
0.0
 11
-512.999969386782
 21
-75.7924999281129
 31
0.0
  0
LINE
  5
    25
  8
0
  6
CONTINUOUS
 62
     3
 10
-512.999969386782
 20
-75.7924999281129
 30
0.0
 11
-512.223512230364
 21
-72.8947224549024
 31
0.0
  0
LINE
  5
    26
  8
0
  6
CONTINUOUS
 62
     3
 10
-512.223512230364
 20
121.309722598677
 30
0.0
 11
-512.999969386782
 21
124.207500071887
 31
0.0
  0
LINE
  5
    27
  8
0
  6
CONTINUOUS
 62
     3
 10
-512.999969386782
 20
124.207500071887
 30
0.0
 11
-513.776426543201
 21
121.309722598677
 31
0.0
  0
ENDBLK
  5
    28
  8
0
  6
CONTINUOUS
 62
     7
  0
BLOCK
  5
    29
  8
0
  6
CONTINUOUS
 62
     7
  2
*UDIM1136
 70
    65
 10
0.0
 20
0.0
 30
0.0
  3
*UDIM1136
  0
TEXT
  5
    2A
  8
0
  6
CONTINUOUS
 62
     7
 10
-637.676778262153
 20
119.174166736969
 30
0.0
 40
3.5
  1
=
 50
89.9999999480344
 41
0.933333333333334
 72
     1
 11
-639.42677826099
 21
120.457500071887
 31
0.0
 73
     2
  0
LINE
  5
    2B
  8
0
  6
CONTINUOUS
 62
     7
 10
-612.676778540387
 20
116.707500071887
 30
0.0
 11
-638.67677826099
 21
116.707500071887
 31
0.0
  0
LINE
  5
    2C
  8
0
  6
CONTINUOUS
 62
     7
 10
-618.926778540387
 20
124.207500071887
 30
0.0
 11
-638.67677826099
 21
124.207500071887
 31
0.0
  0
LINE
  5
    2D
  8
0
  6
CONTINUOUS
 62
     7
 10
-636.67677826099
 20
116.707500071887
 30
0.0
 11
-636.67677826099
 21
129.207500071887
 31
0.0
  0
LINE
  5
    2E
  8
0
  6
CONTINUOUS
 62
     3
 10
-635.900321104572
 20
113.809722598677
 30
0.0
 11
-636.67677826099
 21
116.707500071887
 31
0.0
  0
LINE
  5
    2F
  8
0
  6
CONTINUOUS
 62
     3
 10
-636.67677826099
 20
116.707500071887
 30
0.0
 11
-637.453235417409
 21
113.809722598677
 31
0.0
  0
LINE
  5
    30
  8
0
  6
CONTINUOUS
 62
     3
 10
-637.453235417409
 20
127.105277545098
 30
0.0
 11
-636.67677826099
 21
124.207500071887
 31
0.0
  0
LINE
  5
    31
  8
0
  6
CONTINUOUS
 62
     3
 10
-636.67677826099
 20
124.207500071887
 30
0.0
 11
-635.900321104572
 21
127.105277545098
 31
0.0
  0
ENDBLK
  5
    32
  8
0
  6
CONTINUOUS
 62
     7
  0
BLOCK
  5
    33
  8
0
  6
CONTINUOUS
 62
     7
  2
*UDIM1137
 70
    65
 10
0.0
 20
0.0
 30
0.0
  3
*UDIM1137
  0
TEXT
  5
    34
  8
0
  6
CONTINUOUS
 62
     7
 10
-637.676778265111
 20
19.6575000703021
 30
0.0
 40
3.5
  1
370
 50
89.9999999480344
 41
0.933333333333333
 72
     1
 11
-639.42677826099
 21
24.2075000718871
 31
0.0
 73
     2
  0
LINE
  5
    35
  8
0
  6
CONTINUOUS
 62
     7
 10
-612.676778540387
 20
-68.2924999281129
 30
0.0
 11
-638.67677826099
 21
-68.2924999281129
 31
0.0
  0
LINE
  5
    36
  8
0
  6
CONTINUOUS
 62
     7
 10
-636.67677826099
 20
-68.2924999281129
 30
0.0
 11
-636.67677826099
 21
116.707500071887
 31
0.0
  0
LINE
  5
    37
  8
0
  6
CONTINUOUS
 62
     3
 10
-637.453235417409
 20
-65.3947224549024
 30
0.0
 11
-636.67677826099
 21
-68.2924999281129
 31
0.0
  0
LINE
  5
    38
  8
0
  6
CONTINUOUS
 62
     3
 10
-636.67677826099
 20
-68.2924999281129
 30
0.0
 11
-635.900321104572
 21
-65.3947224549024
 31
0.0
  0
LINE
  5
    39
  8
0
  6
CONTINUOUS
 62
     3
 10
-635.900321104572
 20
113.809722598677
 30
0.0
 11
-636.67677826099
 21
116.707500071887
 31
0.0
  0
LINE
  5
    3A
  8
0
  6
CONTINUOUS
 62
     3
 10
-636.67677826099
 20
116.707500071887
 30
0.0
 11
-637.453235417409
 21
113.809722598677
 31
0.0
  0
ENDBLK
  5
    3B
  8
0
  6
CONTINUOUS
 62
     7
  0
BLOCK
  5
    3C
  8
0
  6
CONTINUOUS
 62
     7
  2
*UDIM1138
 70
    65
 10
0.0
 20
0.0
 30
0.0
  3
*UDIM1138
  0
TEXT
  5
    3D
  8
0
  6
CONTINUOUS
 62
     7
 10
-637.676778262153
 20
-73.3258332630312
 30
0.0
 40
3.5
  1
=
 50
89.9999999480344
 41
0.933333333333334
 72
     1
 11
-639.42677826099
 21
-72.0424999281129
 31
0.0
 73
     2
  0
LINE
  5
    3E
  8
0
  6
CONTINUOUS
 62
     7
 10
-618.926778540387
 20
-75.7924999281129
 30
0.0
 11
-638.67677826099
 21
-75.7924999281129
 31
0.0
  0
LINE
  5
    3F
  8
0
  6
CONTINUOUS
 62
     7
 10
-636.67677826099
 20
-80.7924999281129
 30
0.0
 11
-636.67677826099
 21
-68.2924999281129
 31
0.0
  0
LINE
  5
    40
  8
0
  6
CONTINUOUS
 62
     3
 10
-635.900321104572
 20
-78.6902774013234
 30
0.0
 11
-636.67677826099
 21
-75.7924999281129
 31
0.0
  0
LINE
  5
    41
  8
0
  6
CONTINUOUS
 62
     3
 10
-636.67677826099
 20
-75.7924999281129
 30
0.0
 11
-637.453235417409
 21
-78.6902774013234
 31
0.0
  0
LINE
  5
    42
  8
0
  6
CONTINUOUS
 62
     3
 10
-637.453235417409
 20
-65.3947224549024
 30
0.0
 11
-636.67677826099
 21
-68.2924999281129
 31
0.0
  0
LINE
  5
    43
  8
0
  6
CONTINUOUS
 62
     3
 10
-636.67677826099
 20
-68.2924999281129
 30
0.0
 11
-635.900321104572
 21
-65.3947224549024
 31
0.0
  0
ENDBLK
  5
    44
  8
0
  6
CONTINUOUS
 62
     7
  0
BLOCK
  5
    45
  8
0
  6
CONTINUOUS
 62
     7
  2
*UDIM1139
 70
    65
 10
0.0
 20
0.0
 30
0.0
  3
*UDIM1139
  0
TEXT
  5
    46
  8
0
  6
CONTINUOUS
 62
     7
 10
-626.360541537726
 20
142.130283543797
 30
0.0
 40
3.5
  1
=
 50
359.999999948034
 41
0.933333333333334
 72
     1
 11
-625.077208202815
 21
143.88028354264
 31
0.0
 73
     2
  0
LINE
  5
    47
  8
0
  6
CONTINUOUS
 62
     7
 10
-616.926781274971
 20
103.457504283681
 30
0.0
 11
-616.926781274971
 21
143.13028354264
 31
0.0
  0
LINE
  5
    48
  8
0
  6
CONTINUOUS
 62
     7
 10
-618.426778540387
 20
124.707500071887
 30
0.0
 11
-618.426778540387
 21
143.13028354264
 31
0.0
  0
LINE
  5
    49
  8
0
  6
CONTINUOUS
 62
     7
 10
-616.926781274971
 20
141.13028354264
 30
0.0
 11
-626.360541536148
 21
141.13028354264
 31
0.0
  0
LINE
  5
    4A
  8
0
  6
CONTINUOUS
 62
     3
 10
-614.029003801761
 20
141.906740699058
 30
0.0
 11
-616.926781274971
 21
141.13028354264
 31
0.0
  0
LINE
  5
    4B
  8
0
  6
CONTINUOUS
 62
     3
 10
-616.926781274971
 20
141.13028354264
 30
0.0
 11
-614.029003801761
 21
140.353826386221
 31
0.0
  0
LINE
  5
    4C
  8
0
  6
CONTINUOUS
 62
     3
 10
-621.324556013597
 20
140.353826386221
 30
0.0
 11
-618.426778540387
 21
141.13028354264
 31
0.0
  0
LINE
  5
    4D
  8
0
  6
CONTINUOUS
 62
     3
 10
-618.426778540387
 20
141.13028354264
 30
0.0
 11
-621.324556013597
 21
141.906740699058
 31
0.0
  0
ENDBLK
  5
    4E
  8
0
  6
CONTINUOUS
 62
     7
  0
BLOCK
  5
    4F
  8
0
  6
CONTINUOUS
 62
     7
  2
*UDIM1140
 70
    65
 10
0.0
 20
0.0
 30
0.0
  3
*UDIM1140
  0
TEXT
  5
    50
  8
0
  6
CONTINUOUS
 62
     7
 10
-586.476771130716
 20
142.130283546744
 30
0.0
 40
3.5
  1
140
 50
359.999999948034
 41
0.933333333333333
 72
     1
 11
-581.926771129138
 21
143.88028354264
 31
0.0
 73
     2
  0
LINE
  5
    51
  8
0
  6
CONTINUOUS
 62
     7
 10
-546.926760983304
 20
79.5574951171875
 30
0.0
 11
-546.926760983304
 21
143.13028354264
 31
0.0
  0
LINE
  5
    52
  8
0
  6
CONTINUOUS
 62
     7
 10
-546.926760983304
 20
141.13028354264
 30
0.0
 11
-616.926781274971
 21
141.13028354264
 31
0.0
  0
LINE
  5
    53
  8
0
  6
CONTINUOUS
 62
     3
 10
-549.824538456515
 20
140.353826386221
 30
0.0
 11
-546.926760983304
 21
141.13028354264
 31
0.0
  0
LINE
  5
    54
  8
0
  6
CONTINUOUS
 62
     3
 10
-546.926760983304
 20
141.13028354264
 30
0.0
 11
-549.824538456515
 21
141.906740699058
 31
0.0
  0
LINE
  5
    55
  8
0
  6
CONTINUOUS
 62
     3
 10
-614.029003801761
 20
141.906740699058
 30
0.0
 11
-616.926781274971
 21
141.13028354264
 31
0.0
  0
LINE
  5
    56
  8
0
  6
CONTINUOUS
 62
     3
 10
-616.926781274971
 20
141.13028354264
 30
0.0
 11
-614.029003801761
 21
140.353826386221
 31
0.0
  0
ENDBLK
  5
    57
  8
0
  6
CONTINUOUS
 62
     7
  0
BLOCK
  5
    58
  8
0
  6
CONTINUOUS
 62
     7
  2
*UDIM1141
 70
    65
 10
0.0
 20
0.0
 30
0.0
  3
*UDIM1141
  0
TEXT
  5
    59
  8
0
  6
CONTINUOUS
 62
     7
 10
-540.247297825609
 20
142.130283543797
 30
0.0
 40
3.5
  1
=
 50
359.999999948034
 41
0.933333333333334
 72
     1
 11
-538.963964490697
 21
143.88028354264
 31
0.0
 73
     2
  0
LINE
  5
    5A
  8
0
  6
CONTINUOUS
 62
     7
 10
-545.426778540387
 20
124.707500071887
 30
0.0
 11
-545.426778540387
 21
143.13028354264
 31
0.0
  0
LINE
  5
    5B
  8
0
  6
CONTINUOUS
 62
     7
 10
-537.680631157364
 20
141.13028354264
 30
0.0
 11
-546.926760983304
 21
141.13028354264
 31
0.0
  0
LINE
  5
    5C
  8
0
  6
CONTINUOUS
 62
     3
 10
-542.529001067177
 20
141.906740699058
 30
0.0
 11
-545.426778540387
 21
141.13028354264
 31
0.0
  0
LINE
  5
    5D
  8
0
  6
CONTINUOUS
 62
     3
 10
-545.426778540387
 20
141.13028354264
 30
0.0
 11
-542.529001067177
 21
140.353826386221
 31
0.0
  0
LINE
  5
    5E
  8
0
  6
CONTINUOUS
 62
     3
 10
-549.824538456515
 20
140.353826386221
 30
0.0
 11
-546.926760983304
 21
141.13028354264
 31
0.0
  0
LINE
  5
    5F
  8
0
  6
CONTINUOUS
 62
     3
 10
-546.926760983304
 20
141.13028354264
 30
0.0
 11
-549.824538456515
 21
141.906740699058
 31
0.0
  0
ENDBLK
  5
    60
  8
0
  6
CONTINUOUS
 62
     7
  0
BLOCK
  5
    61
  8
0
  6
CONTINUOUS
 62
     7
  2
*UDIM1142
 70
    65
 10
0.0
 20
0.0
 30
0.0
  3
*UDIM1142
  0
TEXT
  5
    62
  8
0
  6
CONTINUOUS
 62
     7
 10
-613.835113145238
 20
132.548420188297
 30
0.0
 40
3.5
  1
=
 50
359.999999948034
 41
0.933333333333334
 72
     1
 11
-612.551779810327
 21
134.298420187139
 31
0.0
 73
     2
  0
LINE
  5
    63
  8
0
  6
CONTINUOUS
 62
     7
 10
-608.176778345682
 20
93.5824966430664
 30
0.0
 11
-608.176778345682
 21
133.548420187139
 31
0.0
  0
LINE
  5
    64
  8
0
  6
CONTINUOUS
 62
     7
 10
-616.926781274971
 20
103.457504283681
 30
0.0
 11
-616.926781274971
 21
133.548420187139
 31
0.0
  0
LINE
  5
    65
  8
0
  6
CONTINUOUS
 62
     7
 10
-608.176778345682
 20
131.548420187139
 30
0.0
 11
-621.926781274971
 21
131.548420187139
 31
0.0
  0
LINE
  5
    66
  8
0
  6
CONTINUOUS
 62
     3
 10
-605.279000872472
 20
132.324877343558
 30
0.0
 11
-608.176778345682
 21
131.548420187139
 31
0.0
  0
LINE
  5
    67
  8
0
  6
CONTINUOUS
 62
     3
 10
-608.176778345682
 20
131.548420187139
 30
0.0
 11
-605.279000872472
 21
130.771963030721
 31
0.0
  0
LINE
  5
    68
  8
0
  6
CONTINUOUS
 62
     3
 10
-619.824558748182
 20
130.771963030721
 30
0.0
 11
-616.926781274971
 21
131.548420187139
 31
0.0
  0
LINE
  5
    69
  8
0
  6
CONTINUOUS
 62
     3
 10
-616.926781274971
 20
131.548420187139
 30
0.0
 11
-619.824558748182
 21
132.324877343558
 31
0.0
  0
ENDBLK
  5
    6A
  8
0
  6
CONTINUOUS
 62
     7
  0
BLOCK
  5
    6B
  8
0
  6
CONTINUOUS
 62
     7
  2
*UDIM1143
 70
    65
 10
0.0
 20
0.0
 30
0.0
  3
*UDIM1143
  0
TEXT
  5
    6C
  8
0
  6
CONTINUOUS
 62
     7
 10
-602.343445013927
 20
132.54842018977
 30
0.0
 40
3.5
  1
35
 50
359.999999948034
 41
0.933333333333333
 72
     1
 11
-599.426778345682
 21
134.298420187139
 31
0.0
 73
     2
  0
LINE
  5
    6D
  8
0
  6
CONTINUOUS
 62
     7
 10
-590.676778345682
 20
93.5824966430664
 30
0.0
 11
-590.676778345682
 21
133.548420187139
 31
0.0
  0
LINE
  5
    6E
  8
0
  6
CONTINUOUS
 62
     7
 10
-590.676778345682
 20
131.548420187139
 30
0.0
 11
-608.176778345682
 21
131.548420187139
 31
0.0
  0
LINE
  5
    6F
  8
0
  6
CONTINUOUS
 62
     3
 10
-593.574555818893
 20
130.771963030721
 30
0.0
 11
-590.676778345682
 21
131.548420187139
 31
0.0
  0
LINE
  5
    70
  8
0
  6
CONTINUOUS
 62
     3
 10
-590.676778345682
 20
131.548420187139
 30
0.0
 11
-593.574555818893
 21
132.324877343558
 31
0.0
  0
LINE
  5
    71
  8
0
  6
CONTINUOUS
 62
     3
 10
-605.279000872472
 20
132.324877343558
 30
0.0
 11
-608.176778345682
 21
131.548420187139
 31
0.0
  0
LINE
  5
    72
  8
0
  6
CONTINUOUS
 62
     3
 10
-608.176778345682
 20
131.548420187139
 30
0.0
 11
-605.279000872472
 21
130.771963030721
 31
0.0
  0
ENDBLK
  5
    73
  8
0
  6
CONTINUOUS
 62
     7
  0
BLOCK
  5
    74
  8
0
  6
CONTINUOUS
 62
     7
  2
*UDIM1144
 70
    65
 10
0.0
 20
0.0
 30
0.0
  3
*UDIM1144
  0
TEXT
  5
    75
  8
0
  6
CONTINUOUS
 62
     7
 10
-584.843445013927
 20
132.54842018977
 30
0.0
 40
3.5
  1
35
 50
359.999999948034
 41
0.933333333333333
 72
     1
 11
-581.926778345682
 21
134.298420187139
 31
0.0
 73
     2
  0
LINE
  5
    76
  8
0
  6
CONTINUOUS
 62
     7
 10
-573.176778345682
 20
93.5824966430664
 30
0.0
 11
-573.176778345682
 21
133.548420187139
 31
0.0
  0
LINE
  5
    77
  8
0
  6
CONTINUOUS
 62
     7
 10
-573.176778345682
 20
131.548420187139
 30
0.0
 11
-590.676778345682
 21
131.548420187139
 31
0.0
  0
LINE
  5
    78
  8
0
  6
CONTINUOUS
 62
     3
 10
-576.074555818893
 20
130.771963030721
 30
0.0
 11
-573.176778345682
 21
131.548420187139
 31
0.0
  0
LINE
  5
    79
  8
0
  6
CONTINUOUS
 62
     3
 10
-573.176778345682
 20
131.548420187139
 30
0.0
 11
-576.074555818893
 21
132.324877343558
 31
0.0
  0
LINE
  5
    7A
  8
0
  6
CONTINUOUS
 62
     3
 10
-587.779000872472
 20
132.324877343558
 30
0.0
 11
-590.676778345682
 21
131.548420187139
 31
0.0
  0
LINE
  5
    7B
  8
0
  6
CONTINUOUS
 62
     3
 10
-590.676778345682
 20
131.548420187139
 30
0.0
 11
-587.779000872472
 21
130.771963030721
 31
0.0
  0
ENDBLK
  5
    7C
  8
0
  6
CONTINUOUS
 62
     7
  0
BLOCK
  5
    7D
  8
0
  6
CONTINUOUS
 62
     7
  2
*UDIM1145
 70
    65
 10
0.0
 20
0.0
 30
0.0
  3
*UDIM1145
  0
TEXT
  5
    7E
  8
0
  6
CONTINUOUS
 62
     7
 10
-567.343445013927
 20
132.54842018977
 30
0.0
 40
3.5
  1
35
 50
359.999999948034
 41
0.933333333333333
 72
     1
 11
-564.426778345682
 21
134.298420187139
 31
0.0
 73
     2
  0
LINE
  5
    7F
  8
0
  6
CONTINUOUS
 62
     7
 10
-555.676778345682
 20
93.5824966430664
 30
0.0
 11
-555.676778345682
 21
133.548420187139
 31
0.0
  0
LINE
  5
    80
  8
0
  6
CONTINUOUS
 62
     7
 10
-555.676778345682
 20
131.548420187139
 30
0.0
 11
-573.176778345682
 21
131.548420187139
 31
0.0
  0
LINE
  5
    81
  8
0
  6
CONTINUOUS
 62
     3
 10
-558.574555818893
 20
130.771963030721
 30
0.0
 11
-555.676778345682
 21
131.548420187139
 31
0.0
  0
LINE
  5
    82
  8
0
  6
CONTINUOUS
 62
     3
 10
-555.676778345682
 20
131.548420187139
 30
0.0
 11
-558.574555818893
 21
132.324877343558
 31
0.0
  0
LINE
  5
    83
  8
0
  6
CONTINUOUS
 62
     3
 10
-570.279000872472
 20
132.324877343558
 30
0.0
 11
-573.176778345682
 21
131.548420187139
 31
0.0
  0
LINE
  5
    84
  8
0
  6
CONTINUOUS
 62
     3
 10
-573.176778345682
 20
131.548420187139
 30
0.0
 11
-570.279000872472
 21
130.771963030721
 31
0.0
  0
ENDBLK
  5
    85
  8
0
  6
CONTINUOUS
 62
     7
  0
BLOCK
  5
    86
  8
0
  6
CONTINUOUS
 62
     7
  2
*UDIM1146
 70
    65
 10
0.0
 20
0.0
 30
0.0
  3
*UDIM1146
  0
TEXT
  5
    87
  8
0
  6
CONTINUOUS
 62
     7
 10
-552.585102999405
 20
132.548420188297
 30
0.0
 40
3.5
  1
=
 50
359.999999948034
 41
0.933333333333334
 72
     1
 11
-551.301769664493
 21
134.298420187139
 31
0.0
 73
     2
  0
LINE
  5
    88
  8
0
  6
CONTINUOUS
 62
     7
 10
-546.926760983304
 20
79.5574951171875
 30
0.0
 11
-546.926760983304
 21
133.548420187139
 31
0.0
  0
LINE
  5
    89
  8
0
  6
CONTINUOUS
 62
     7
 10
-541.926760983304
 20
131.548420187139
 30
0.0
 11
-555.676778345682
 21
131.548420187139
 31
0.0
  0
LINE
  5
    8A
  8
0
  6
CONTINUOUS
 62
     3
 10
-544.028983510094
 20
132.324877343558
 30
0.0
 11
-546.926760983304
 21
131.548420187139
 31
0.0
  0
LINE
  5
    8B
  8
0
  6
CONTINUOUS
 62
     3
 10
-546.926760983304
 20
131.548420187139
 30
0.0
 11
-544.028983510094
 21
130.771963030721
 31
0.0
  0
LINE
  5
    8C
  8
0
  6
CONTINUOUS
 62
     3
 10
-558.574555818893
 20
130.771963030721
 30
0.0
 11
-555.676778345682
 21
131.548420187139
 31
0.0
  0
LINE
  5
    8D
  8
0
  6
CONTINUOUS
 62
     3
 10
-555.676778345682
 20
131.548420187139
 30
0.0
 11
-558.574555818893
 21
132.324877343558
 31
0.0
  0
ENDBLK
  5
    8E
  8
0
  6
CONTINUOUS
 62
     7
  0
BLOCK
  5
    8F
  8
0
  6
CONTINUOUS
 62
     7
  2
*UDIM1147
 70
    65
 10
0.0
 20
0.0
 30
0.0
  3
*UDIM1147
  0
TEXT
  5
    90
  8
0
  6
CONTINUOUS
 62
     7
 10
-551.210111875299
 20
-87.7255521773564
 30
0.0
 40
3.5
  1
=
 50
359.999999948034
 41
0.933333333333334
 72
     1
 11
-549.926778540387
 21
-85.9755521785139
 31
0.0
 73
     2
  0
LINE
  5
    91
  8
0
  6
CONTINUOUS
 62
     7
 10
-545.426778540387
 20
-76.2924999281129
 30
0.0
 11
-545.426778540387
 21
-90.7255521785139
 31
0.0
  0
LINE
  5
    92
  8
0
  6
CONTINUOUS
 62
     7
 10
-554.426778540387
 20
-71.5424999281129
 30
0.0
 11
-554.426778540387
 21
-90.7255521785139
 31
0.0
  0
LINE
  5
    93
  8
0
  6
CONTINUOUS
 62
     7
 10
-540.426778540387
 20
-88.7255521785139
 30
0.0
 11
-554.426778540387
 21
-88.7255521785139
 31
0.0
  0
LINE
  5
    94
  8
0
  6
CONTINUOUS
 62
     3
 10
-542.529001067177
 20
-87.9490950220954
 30
0.0
 11
-545.426778540387
 21
-88.7255521785139
 31
0.0
  0
LINE
  5
    95
  8
0
  6
CONTINUOUS
 62
     3
 10
-545.426778540387
 20
-88.7255521785139
 30
0.0
 11
-542.529001067177
 21
-89.5020093349325
 31
0.0
  0
LINE
  5
    96
  8
0
  6
CONTINUOUS
 62
     3
 10
-557.324556013597
 20
-89.5020093349325
 30
0.0
 11
-554.426778540387
 21
-88.7255521785139
 31
0.0
  0
LINE
  5
    97
  8
0
  6
CONTINUOUS
 62
     3
 10
-554.426778540387
 20
-88.7255521785139
 30
0.0
 11
-557.324556013597
 21
-87.9490950220954
 31
0.0
  0
ENDBLK
  5
    98
  8
0
  6
CONTINUOUS
 62
     7
  0
BLOCK
  5
    99
  8
0
  6
CONTINUOUS
 62
     7
  2
*UDIM1148
 70
    65
 10
0.0
 20
0.0
 30
0.0
  3
*UDIM1148
  0
TEXT
  5
    9A
  8
0
  6
CONTINUOUS
 62
     7
 10
-586.476778541965
 20
-87.7255521744101
 30
0.0
 40
3.5
  1
110
 50
359.999999948034
 41
0.933333333333333
 72
     1
 11
-581.926778540387
 21
-85.9755521785139
 31
0.0
 73
     2
  0
LINE
  5
    9B
  8
0
  6
CONTINUOUS
 62
     7
 10
-609.426778540387
 20
-71.5424999281129
 30
0.0
 11
-609.426778540387
 21
-90.7255521785139
 31
0.0
  0
LINE
  5
    9C
  8
0
  6
CONTINUOUS
 62
     7
 10
-554.426778540387
 20
-88.7255521785139
 30
0.0
 11
-609.426778540387
 21
-88.7255521785139
 31
0.0
  0
LINE
  5
    9D
  8
0
  6
CONTINUOUS
 62
     3
 10
-557.324556013597
 20
-89.5020093349325
 30
0.0
 11
-554.426778540387
 21
-88.7255521785139
 31
0.0
  0
LINE
  5
    9E
  8
0
  6
CONTINUOUS
 62
     3
 10
-554.426778540387
 20
-88.7255521785139
 30
0.0
 11
-557.324556013597
 21
-87.9490950220954
 31
0.0
  0
LINE
  5
    9F
  8
0
  6
CONTINUOUS
 62
     3
 10
-606.529001067176
 20
-87.9490950220954
 30
0.0
 11
-609.426778540387
 21
-88.7255521785139
 31
0.0
  0
LINE
  5
    A0
  8
0
  6
CONTINUOUS
 62
     3
 10
-609.426778540387
 20
-88.7255521785139
 30
0.0
 11
-606.529001067176
 21
-89.5020093349325
 31
0.0
  0
ENDBLK
  5
    A1
  8
0
  6
CONTINUOUS
 62
     7
  0
BLOCK
  5
    A2
  8
0
  6
CONTINUOUS
 62
     7
  2
*UDIM1149
 70
    65
 10
0.0
 20
0.0
 30
0.0
  3
*UDIM1149
  0
TEXT
  5
    A3
  8
0
  6
CONTINUOUS
 62
     7
 10
-615.210111875299
 20
-87.7255521773564
 30
0.0
 40
3.5
  1
=
 50
359.999999948034
 41
0.933333333333334
 72
     1
 11
-613.926778540387
 21
-85.9755521785139
 31
0.0
 73
     2
  0
LINE
  5
    A4
  8
0
  6
CONTINUOUS
 62
     7
 10
-618.426778540387
 20
-76.2924999281129
 30
0.0
 11
-618.426778540387
 21
-90.7255521785139
 31
0.0
  0
LINE
  5
    A5
  8
0
  6
CONTINUOUS
 62
     7
 10
-609.426778540387
 20
-88.7255521785139
 30
0.0
 11
-623.426778540387
 21
-88.7255521785139
 31
0.0
  0
LINE
  5
    A6
  8
0
  6
CONTINUOUS
 62
     3
 10
-606.529001067176
 20
-87.9490950220954
 30
0.0
 11
-609.426778540387
 21
-88.7255521785139
 31
0.0
  0
LINE
  5
    A7
  8
0
  6
CONTINUOUS
 62
     3
 10
-609.426778540387
 20
-88.7255521785139
 30
0.0
 11
-606.529001067176
 21
-89.5020093349325
 31
0.0
  0
LINE
  5
    A8
  8
0
  6
CONTINUOUS
 62
     3
 10
-621.324556013597
 20
-89.5020093349325
 30
0.0
 11
-618.426778540387
 21
-88.7255521785139
 31
0.0
  0
LINE
  5
    A9
  8
0
  6
CONTINUOUS
 62
     3
 10
-618.426778540387
 20
-88.7255521785139
 30
0.0
 11
-621.324556013597
 21
-87.9490950220954
 31
0.0
  0
ENDBLK
  5
    AA
  8
0
  6
CONTINUOUS
 62
     7
  0
BLOCK
  5
    AB
  8
0
  6
CONTINUOUS
 62
   218
  2
*HATCH304
 70
    65
 10
0.0
 20
0.0
 30
0.0
  3
*HATCH304
  0
LINE
  5
    AC
  8
0
  6
CONTINUOUS
 62
     7
 10
-31.6185894012451
 20
53.2342224121094
 30
0.0
 11
-33.6544036865234
 21
51.1984100341797
 31
0.0
  0
ENDBLK
  5
    AD
  8
0
  6
CONTINUOUS
 62
   218
  0
BLOCK
  5
    AE
  8
0
  6
CONTINUOUS
 62
     7
  2
*HATCH305
 70
    65
 10
0.0
 20
0.0
 30
0.0
  3
*HATCH305
  0
LINE
  5
    AF
  8
0
  6
CONTINUOUS
 62
   210
 10
50.8859062194824
 20
86.9999389648438
 30
0.0
 11
53.7202796936035
 21
84.1655654907227
 31
0.0
  0
ENDBLK
  5
    B0
  8
0
  6
CONTINUOUS
 62
     7
  0
BLOCK
  5
    B1
  8
0
  6
CONTINUOUS
 62
     7
  2
*HATCH306
 70
    65
 10
0.0
 20
0.0
 30
0.0
  3
*HATCH306
  0
LINE
  5
    B2
  8
0
  6
CONTINUOUS
 62
   210
 10
49.0588150024414
 20
82.9999389648438
 30
0.0
 11
46.0588188171387
 21
79.9999389648438
 31
0.0
  0
LINE
  5
    B3
  8
0
  6
CONTINUOUS
 62
   210
 10
53.3014526367188
 20
82.9999389648438
 30
0.0
 11
50.301456451416
 21
79.9999389648438
 31
0.0
  0
LINE
  5
    B4
  8
0
  6
CONTINUOUS
 62
   210
 10
54.7202796936035
 20
80.1761169433594
 30
0.0
 11
54.5440979003906
 21
79.9999389648438
 31
0.0
  0
ENDBLK
  5
    B5
  8
0
  6
CONTINUOUS
 62
     7
  0
BLOCK
  5
    B6
  8
0
  6
CONTINUOUS
 62
     7
  2
*HATCH307
 70
    65
 10
0.0
 20
0.0
 30
0.0
  3
*HATCH307
  0
LINE
  5
    B7
  8
0
  6
CONTINUOUS
 62
   210
 10
34.2095718383789
 20
82.9999389648438
 30
0.0
 11
31.7370853424072
 21
80.5274429321289
 31
0.0
  0
LINE
  5
    B8
  8
0
  6
CONTINUOUS
 62
   210
 10
36.6370735168457
 20
81.1847915649414
 30
0.0
 11
33.4522132873535
 21
77.9999389648438
 31
0.0
  0
ENDBLK
  5
    B9
  8
0
  6
CONTINUOUS
 62
     7
  0
BLOCK
  5
    BA
  8
0
  6
CONTINUOUS
 62
     7
  2
*HATCH308
 70
    65
 10
0.0
 20
0.0
 30
0.0
  3
*HATCH308
  0
LINE
  5
    BB
  8
0
  6
CONTINUOUS
 62
   210
 10
48.1801376342773
 20
79.9999389648438
 30
0.0
 11
46.1801376342773
 21
77.9999389648438
 31
0.0
  0
LINE
  5
    BC
  8
0
  6
CONTINUOUS
 62
   210
 10
52.4227752685547
 20
79.9999389648438
 30
0.0
 11
50.4227752685547
 21
77.9999389648438
 31
0.0
  0
ENDBLK
  5
    BD
  8
0
  6
CONTINUOUS
 62
     7
  0
BLOCK
  5
    BE
  8
0
  6
CONTINUOUS
 62
    98
  2
*HATCH309
 70
    65
 10
0.0
 20
0.0
 30
0.0
  3
*HATCH309
  0
LINE
  5
    BF
  8
0
  6
CONTINUOUS
 62
   210
 10
-15.9264526367188
 20
26.4999542236328
 30
0.0
 11
-18.4264526367188
 21
23.9999542236328
 31
0.0
  0
LINE
  5
    C0
  8
0
  6
CONTINUOUS
 62
   210
 10
-11.6838111877441
 20
26.4999542236328
 30
0.0
 11
-14.1838111877441
 21
23.9999542236328
 31
0.0
  0
LINE
  5
    C1
  8
0
  6
CONTINUOUS
 62
   210
 10
-7.44116973876953
 20
26.4999542236328
 30
0.0
 11
-9.94116973876953
 21
23.9999542236328
 31
0.0
  0
LINE
  5
    C2
  8
0
  6
CONTINUOUS
 62
   210
 10
-3.1985285282135
 20
26.4999542236328
 30
0.0
 11
-5.69852828979492
 21
23.9999542236328
 31
0.0
  0
LINE
  5
    C3
  8
0
  6
CONTINUOUS
 62
   210
 10
1.04411244392395
 20
26.4999542236328
 30
0.0
 11
-1.45588731765747
 21
23.9999542236328
 31
0.0
  0
LINE
  5
    C4
  8
0
  6
CONTINUOUS
 62
   210
 10
3.53710412979126
 20
24.7503070831299
 30
0.0
 11
1.53710401058197
 21
22.7503070831299
 31
0.0
  0
LINE
  5
    C5
  8
0
  6
CONTINUOUS
 62
   210
 10
3.53710412979126
 20
22.6289863586426
 30
0.0
 11
1.53710401058197
 21
20.6289863586426
 31
0.0
  0
LINE
  5
    C6
  8
0
  6
CONTINUOUS
 62
   210
 10
3.53710412979126
 20
20.5076656341553
 30
0.0
 11
1.53710401058197
 21
18.5076656341553
 31
0.0
  0
LINE
  5
    C7
  8
0
  6
CONTINUOUS
 62
   210
 10
3.53710412979126
 20
18.386344909668
 30
0.0
 11
1.53710401058197
 21
16.386344909668
 31
0.0
  0
LINE
  5
    C8
  8
0
  6
CONTINUOUS
 62
   210
 10
25.7720336914063
 20
38.4999542236328
 30
0.0
 11
24.5371036529541
 21
37.265022277832
 31
0.0
  0
LINE
  5
    C9
  8
0
  6
CONTINUOUS
 62
   210
 10
-8.72798347473145
 20
3.99993896484375
 30
0.0
 11
-11.2279682159424
 21
1.49995422363281
 31
0.0
  0
LINE
  5
    CA
  8
0
  6
CONTINUOUS
 62
   210
 10
3.53710412979126
 20
14.143705368042
 30
0.0
 11
1.53710401058197
 21
12.143705368042
 31
0.0
  0
LINE
  5
    CB
  8
0
  6
CONTINUOUS
 62
   210
 10
26.5371036529541
 20
35.0223846435547
 30
0.0
 11
24.5371036529541
 21
33.0223846435547
 31
0.0
  0
LINE
  5
    CC
  8
0
  6
CONTINUOUS
 62
   210
 10
-4.48534202575684
 20
3.99993896484375
 30
0.0
 11
-6.98532724380493
 21
1.49995422363281
 31
0.0
  0
LINE
  5
    CD
  8
0
  6
CONTINUOUS
 62
   210
 10
3.53710412979126
 20
9.90106391906738
 30
0.0
 11
1.53710401058197
 21
7.90106439590454
 31
0.0
  0
LINE
  5
    CE
  8
0
  6
CONTINUOUS
 62
   210
 10
26.5371036529541
 20
30.7797451019287
 30
0.0
 11
24.5371036529541
 21
28.7797431945801
 31
0.0
  0
LINE
  5
    CF
  8
0
  6
CONTINUOUS
 62
   210
 10
-0.242701053619385
 20
3.99993896484375
 30
0.0
 11
-2.74268674850464
 21
1.49995422363281
 31
0.0
  0
LINE
  5
    D0
  8
0
  6
CONTINUOUS
 62
   210
 10
24.3786354064941
 20
26.4999542236328
 30
0.0
 11
22.5371036529541
 21
24.6584224700928
 31
0.0
  0
LINE
  5
    D1
  8
0
  6
CONTINUOUS
 62
   210
 10
26.5371036529541
 20
26.5371017456055
 30
0.0
 11
22.5371036529541
 21
22.5371017456055
 31
0.0
  0
LINE
  5
    D2
  8
0
  6
CONTINUOUS
 62
   210
 10
26.5371036529541
 20
24.4157810211182
 30
0.0
 11
26.1212768554688
 21
23.9999542236328
 31
0.0
  0
LINE
  5
    D3
  8
0
  6
CONTINUOUS
 62
   210
 10
6.12125968933105
 20
3.99993896484375
 30
0.0
 11
3.62127470970154
 21
1.49995422363281
 31
0.0
  0
LINE
  5
    D4
  8
0
  6
CONTINUOUS
 62
   210
 10
8.24258041381836
 20
3.99993896484375
 30
0.0
 11
5.74259519577026
 21
1.49995422363281
 31
0.0
  0
LINE
  5
    D5
  8
0
  6
CONTINUOUS
 62
   210
 10
10.3639011383057
 20
3.99993896484375
 30
0.0
 11
7.86391544342041
 21
1.49995422363281
 31
0.0
  0
LINE
  5
    D6
  8
0
  6
CONTINUOUS
 62
   210
 10
12.485221862793
 20
3.99993896484375
 30
0.0
 11
9.9852352142334
 21
1.49995422363281
 31
0.0
  0
LINE
  5
    D7
  8
0
  6
CONTINUOUS
 62
   210
 10
14.6065425872803
 20
3.99993896484375
 30
0.0
 11
12.1065559387207
 21
1.49995422363281
 31
0.0
  0
LINE
  5
    D8
  8
0
  6
CONTINUOUS
 62
   210
 10
16.7278633117676
 20
3.99993896484375
 30
0.0
 11
14.227876663208
 21
1.49995422363281
 31
0.0
  0
LINE
  5
    D9
  8
0
  6
CONTINUOUS
 62
   210
 10
18.8491840362549
 20
3.99993896484375
 30
0.0
 11
16.3491973876953
 21
1.49995422363281
 31
0.0
  0
LINE
  5
    DA
  8
0
  6
CONTINUOUS
 62
   210
 10
20.9705047607422
 20
3.99993896484375
 30
0.0
 11
18.4705181121826
 21
1.49995422363281
 31
0.0
  0
LINE
  5
    DB
  8
0
  6
CONTINUOUS
 62
   210
 10
25.2131443023682
 20
3.99993896484375
 30
0.0
 11
22.7131576538086
 21
1.49995422363281
 31
0.0
  0
LINE
  5
    DC
  8
0
  6
CONTINUOUS
 62
   210
 10
29.4557857513428
 20
3.99993896484375
 30
0.0
 11
26.9557991027832
 21
1.49995422363281
 31
0.0
  0
LINE
  5
    DD
  8
0
  6
CONTINUOUS
 62
   210
 10
33.6984252929688
 20
3.99993896484375
 30
0.0
 11
31.1984405517578
 21
1.49995422363281
 31
0.0
  0
LINE
  5
    DE
  8
0
  6
CONTINUOUS
 62
   210
 10
37.9410629272461
 20
3.99993896484375
 30
0.0
 11
35.4410781860352
 21
1.49995422363281
 31
0.0
  0
LINE
  5
    DF
  8
0
  6
CONTINUOUS
 62
   210
 10
42.1837005615234
 20
3.99993896484375
 30
0.0
 11
39.6837158203125
 21
1.49995422363281
 31
0.0
  0
LINE
  5
    E0
  8
0
  6
CONTINUOUS
 62
   210
 10
46.4263381958008
 20
3.99993896484375
 30
0.0
 11
43.9263534545898
 21
1.49995422363281
 31
0.0
  0
LINE
  5
    E1
  8
0
  6
CONTINUOUS
 62
   210
 10
50.6689758300781
 20
3.99993896484375
 30
0.0
 11
48.1689910888672
 21
1.49995422363281
 31
0.0
  0
ENDBLK
  5
    E2
  8
0
  6
CONTINUOUS
 62
    98
  0
BLOCK
  5
    E3
  8
0
  6
CONTINUOUS
 62
     7
  2
*HATCH310
 70
    65
 10
0.0
 20
0.0
 30
0.0
  3
*HATCH310
  0
LINE
  5
    E4
  8
0
  6
CONTINUOUS
 62
   210
 10
170.753845214844
 20
85.9258575439453
 30
0.0
 11
173.679779052734
 21
82.9999389648438
 31
0.0
  0
ENDBLK
  5
    E5
  8
0
  6
CONTINUOUS
 62
     7
  0
BLOCK
  5
    E6
  8
0
  6
CONTINUOUS
 62
     7
  2
*HATCH311
 70
    65
 10
0.0
 20
0.0
 30
0.0
  3
*HATCH311
  0
LINE
  5
    E7
  8
0
  6
CONTINUOUS
 62
   210
 10
172.095397949219
 20
82.9999389648438
 30
0.0
 11
169.753845214844
 21
80.6583862304688
 31
0.0
  0
LINE
  5
    E8
  8
0
  6
CONTINUOUS
 62
   210
 10
176.338043212891
 20
82.9999389648438
 30
0.0
 11
173.338043212891
 21
79.9999389648438
 31
0.0
  0
LINE
  5
    E9
  8
0
  6
CONTINUOUS
 62
   210
 10
179.637054443359
 20
82.0563125610352
 30
0.0
 11
177.580688476563
 21
79.9999389648438
 31
0.0
  0
ENDBLK
  5
    EA
  8
0
  6
CONTINUOUS
 62
     7
  0
BLOCK
  5
    EB
  8
0
  6
CONTINUOUS
 62
     7
  2
*HATCH312
 70
    65
 10
0.0
 20
0.0
 30
0.0
  3
*HATCH312
  0
LINE
  5
    EC
  8
0
  6
CONTINUOUS
 62
   210
 10
191.187286376953
 20
82.9999389648438
 30
0.0
 11
187.837051391602
 21
79.6497039794922
 31
0.0
  0
LINE
  5
    ED
  8
0
  6
CONTINUOUS
 62
   210
 10
192.737045288086
 20
80.3070526123047
 30
0.0
 11
190.429931640625
 21
77.9999389648438
 31
0.0
  0
ENDBLK
  5
    EE
  8
0
  6
CONTINUOUS
 62
     7
  0
BLOCK
  5
    EF
  8
0
  6
CONTINUOUS
 62
     7
  2
*HATCH313
 70
    65
 10
0.0
 20
0.0
 30
0.0
  3
*HATCH313
  0
LINE
  5
    F0
  8
0
  6
CONTINUOUS
 62
   210
 10
173.338043212891
 20
79.9999389648438
 30
0.0
 11
171.338043212891
 21
77.9999389648438
 31
0.0
  0
LINE
  5
    F1
  8
0
  6
CONTINUOUS
 62
   210
 10
177.580688476563
 20
79.9999389648438
 30
0.0
 11
175.580688476563
 21
77.9999389648438
 31
0.0
  0
ENDBLK
  5
    F2
  8
0
  6
CONTINUOUS
 62
     7
  0
BLOCK
  5
    F3
  8
0
  6
CONTINUOUS
 62
   210
  2
*HATCH314
 70
    65
 10
0.0
 20
0.0
 30
0.0
  3
*HATCH314
  0
LINE
  5
    F4
  8
0
  6
CONTINUOUS
 62
   210
 10
199.937026977539
 20
36.5953483581543
 30
0.0
 11
197.937026977539
 21
34.5953483581543
 31
0.0
  0
LINE
  5
    F5
  8
0
  6
CONTINUOUS
 62
   210
 10
199.937026977539
 20
32.352710723877
 30
0.0
 11
197.937026977539
 21
30.3527088165283
 31
0.0
  0
LINE
  5
    F6
  8
0
  6
CONTINUOUS
 62
   210
 10
173.70556640625
 20
3.99993896484375
 30
0.0
 11
173.237030029297
 21
3.53139066696167
 31
0.0
  0
LINE
  5
    F7
  8
0
  6
CONTINUOUS
 62
   210
 10
175.826889038086
 20
3.99993896484375
 30
0.0
 11
174.237030029297
 21
2.41007018089294
 31
0.0
  0
LINE
  5
    F8
  8
0
  6
CONTINUOUS
 62
   210
 10
177.948211669922
 20
3.99993896484375
 30
0.0
 11
175.448226928711
 21
1.49995422363281
 31
0.0
  0
LINE
  5
    F9
  8
0
  6
CONTINUOUS
 62
   210
 10
180.069534301758
 20
3.99993896484375
 30
0.0
 11
177.569549560547
 21
1.49995422363281
 31
0.0
  0
LINE
  5
    FA
  8
0
  6
CONTINUOUS
 62
   210
 10
182.190856933594
 20
3.99993896484375
 30
0.0
 11
179.690872192383
 21
1.49995422363281
 31
0.0
  0
LINE
  5
    FB
  8
0
  6
CONTINUOUS
 62
   210
 10
184.31217956543
 20
3.99993896484375
 30
0.0
 11
181.812194824219
 21
1.49995422363281
 31
0.0
  0
LINE
  5
    FC
  8
0
  6
CONTINUOUS
 62
   210
 10
186.433502197266
 20
3.99993896484375
 30
0.0
 11
183.933517456055
 21
1.49995422363281
 31
0.0
  0
LINE
  5
    FD
  8
0
  6
CONTINUOUS
 62
   210
 10
188.554824829102
 20
3.99993896484375
 30
0.0
 11
186.054840087891
 21
1.49995422363281
 31
0.0
  0
LINE
  5
    FE
  8
0
  6
CONTINUOUS
 62
   210
 10
190.676147460938
 20
3.99993896484375
 30
0.0
 11
188.176162719727
 21
1.49995422363281
 31
0.0
  0
LINE
  5
    FF
  8
0
  6
CONTINUOUS
 62
   210
 10
192.797470092773
 20
3.99993896484375
 30
0.0
 11
190.297485351563
 21
1.49995422363281
 31
0.0
  0
LINE
  5
   100
  8
0
  6
CONTINUOUS
 62
   210
 10
194.918792724609
 20
3.99993896484375
 30
0.0
 11
192.418807983398
 21
1.49995422363281
 31
0.0
  0
LINE
  5
   101
  8
0
  6
CONTINUOUS
 62
   210
 10
197.040115356445
 20
3.99993896484375
 30
0.0
 11
194.540130615234
 21
1.49995422363281
 31
0.0
  0
LINE
  5
   102
  8
0
  6
CONTINUOUS
 62
   210
 10
201.937026977539
 20
6.77554512023926
 30
0.0
 11
199.937026977539
 21
4.77554559707642
 31
0.0
  0
LINE
  5
   103
  8
0
  6
CONTINUOUS
 62
   210
 10
223.782760620117
 20
26.4999542236328
 30
0.0
 11
220.937026977539
 21
23.654224395752
 31
0.0
  0
LINE
  5
   104
  8
0
  6
CONTINUOUS
 62
   210
 10
225.904083251953
 20
26.4999542236328
 30
0.0
 11
223.404083251953
 21
23.9999542236328
 31
0.0
  0
LINE
  5
   105
  8
0
  6
CONTINUOUS
 62
   210
 10
203.404052734375
 20
3.99993896484375
 30
0.0
 11
200.904067993164
 21
1.49995422363281
 31
0.0
  0
LINE
  5
   106
  8
0
  6
CONTINUOUS
 62
   210
 10
222.937026977539
 20
21.4115829467773
 30
0.0
 11
220.937026977539
 21
19.4115829467773
 31
0.0
  0
LINE
  5
   107
  8
0
  6
CONTINUOUS
 62
   210
 10
230.146728515625
 20
26.4999542236328
 30
0.0
 11
227.646728515625
 21
23.9999542236328
 31
0.0
  0
LINE
  5
   108
  8
0
  6
CONTINUOUS
 62
   210
 10
207.646697998047
 20
3.99993896484375
 30
0.0
 11
205.146713256836
 21
1.49995422363281
 31
0.0
  0
LINE
  5
   109
  8
0
  6
CONTINUOUS
 62
   210
 10
222.937026977539
 20
17.1689414978027
 30
0.0
 11
220.937026977539
 21
15.1689414978027
 31
0.0
  0
LINE
  5
   10A
  8
0
  6
CONTINUOUS
 62
   210
 10
234.389373779297
 20
26.4999542236328
 30
0.0
 11
231.889373779297
 21
23.9999542236328
 31
0.0
  0
LINE
  5
   10B
  8
0
  6
CONTINUOUS
 62
   210
 10
211.889343261719
 20
3.99993896484375
 30
0.0
 11
209.389358520508
 21
1.49995422363281
 31
0.0
  0
LINE
  5
   10C
  8
0
  6
CONTINUOUS
 62
   210
 10
222.937026977539
 20
12.9263000488281
 30
0.0
 11
220.937026977539
 21
10.9263000488281
 31
0.0
  0
LINE
  5
   10D
  8
0
  6
CONTINUOUS
 62
   210
 10
238.632019042969
 20
26.4999542236328
 30
0.0
 11
236.132019042969
 21
23.9999542236328
 31
0.0
  0
LINE
  5
   10E
  8
0
  6
CONTINUOUS
 62
   210
 10
216.131988525391
 20
3.99993896484375
 30
0.0
 11
213.63200378418
 21
1.49995422363281
 31
0.0
  0
LINE
  5
   10F
  8
0
  6
CONTINUOUS
 62
   210
 10
222.937026977539
 20
8.68365859985352
 30
0.0
 11
220.937026977539
 21
6.68365907669067
 31
0.0
  0
LINE
  5
   110
  8
0
  6
CONTINUOUS
 62
   210
 10
242.874664306641
 20
26.4999542236328
 30
0.0
 11
240.374664306641
 21
23.9999542236328
 31
0.0
  0
LINE
  5
   111
  8
0
  6
CONTINUOUS
 62
   210
 10
220.374633789063
 20
3.99993896484375
 30
0.0
 11
217.874649047852
 21
1.49995422363281
 31
0.0
  0
LINE
  5
   112
  8
0
  6
CONTINUOUS
 62
   210
 10
222.937026977539
 20
4.44102096557617
 30
0.0
 11
219.995956420898
 21
1.49995422363281
 31
0.0
  0
LINE
  5
   113
  8
0
  6
CONTINUOUS
 62
   210
 10
226.738586425781
 20
3.99993896484375
 30
0.0
 11
224.23860168457
 21
1.49995422363281
 31
0.0
  0
LINE
  5
   114
  8
0
  6
CONTINUOUS
 62
   210
 10
230.981231689453
 20
3.99993896484375
 30
0.0
 11
228.481246948242
 21
1.49995422363281
 31
0.0
  0
LINE
  5
   115
  8
0
  6
CONTINUOUS
 62
   210
 10
235.223876953125
 20
3.99993896484375
 30
0.0
 11
232.723892211914
 21
1.49995422363281
 31
0.0
  0
LINE
  5
   116
  8
0
  6
CONTINUOUS
 62
   210
 10
239.466522216797
 20
3.99993896484375
 30
0.0
 11
236.966537475586
 21
1.49995422363281
 31
0.0
  0
LINE
  5
   117
  8
0
  6
CONTINUOUS
 62
   210
 10
243.237030029297
 20
3.52781653404236
 30
0.0
 11
241.209167480469
 21
1.49995422363281
 31
0.0
  0
ENDBLK
  5
   118
  8
0
  6
CONTINUOUS
 62
   210
  0
BLOCK
  5
   119
  8
0
  6
CONTINUOUS
 62
     7
  2
*HATCH315
 70
    65
 10
0.0
 20
0.0
 30
0.0
  3
*HATCH315
  0
LINE
  5
   11A
  8
0
  6
CONTINUOUS
 62
   210
 10
278.462921142578
 20
112.999938964844
 30
0.0
 11
274.237060546875
 21
108.774055480957
 31
0.0
  0
LINE
  5
   11B
  8
0
  6
CONTINUOUS
 62
   210
 10
282.705535888672
 20
112.999938964844
 30
0.0
 11
274.237060546875
 21
104.531410217285
 31
0.0
  0
LINE
  5
   11C
  8
0
  6
CONTINUOUS
 62
   210
 10
285.737060546875
 20
111.788780212402
 30
0.0
 11
276.948211669922
 21
102.999938964844
 31
0.0
  0
LINE
  5
   11D
  8
0
  6
CONTINUOUS
 62
   210
 10
285.737060546875
 20
107.54613494873
 30
0.0
 11
281.190826416016
 21
102.999938964844
 31
0.0
  0
LINE
  5
   11E
  8
0
  6
CONTINUOUS
 62
   210
 10
285.737060546875
 20
103.303489685059
 30
0.0
 11
285.433441162109
 21
102.999938964844
 31
0.0
  0
ENDBLK
  5
   11F
  8
0
  6
CONTINUOUS
 62
     7
  0
BLOCK
  5
   120
  8
0
  6
CONTINUOUS
 62
     7
  2
*HATCH316
 70
    65
 10
0.0
 20
0.0
 30
0.0
  3
*HATCH316
  0
LINE
  5
   121
  8
0
  6
CONTINUOUS
 62
   210
 10
246.643142700195
 20
112.999938964844
 30
0.0
 11
243.237060546875
 21
109.593864440918
 31
0.0
  0
LINE
  5
   122
  8
0
  6
CONTINUOUS
 62
   210
 10
250.885787963867
 20
112.999938964844
 30
0.0
 11
243.237060546875
 21
105.351219177246
 31
0.0
  0
LINE
  5
   123
  8
0
  6
CONTINUOUS
 62
   210
 10
255.12841796875
 20
112.999938964844
 30
0.0
 11
245.12841796875
 21
102.999938964844
 31
0.0
  0
LINE
  5
   124
  8
0
  6
CONTINUOUS
 62
   210
 10
259.371032714844
 20
112.999938964844
 30
0.0
 11
249.371063232422
 21
102.999938964844
 31
0.0
  0
LINE
  5
   125
  8
0
  6
CONTINUOUS
 62
   210
 10
263.613647460938
 20
112.999938964844
 30
0.0
 11
253.613708496094
 21
102.999938964844
 31
0.0
  0
LINE
  5
   126
  8
0
  6
CONTINUOUS
 62
   210
 10
267.237060546875
 20
112.380661010742
 30
0.0
 11
257.856323242188
 21
102.999938964844
 31
0.0
  0
LINE
  5
   127
  8
0
  6
CONTINUOUS
 62
   210
 10
267.237060546875
 20
108.13801574707
 30
0.0
 11
262.098937988281
 21
102.999938964844
 31
0.0
  0
LINE
  5
   128
  8
0
  6
CONTINUOUS
 62
   210
 10
267.237060546875
 20
103.895370483398
 30
0.0
 11
266.341552734375
 21
102.999938964844
 31
0.0
  0
ENDBLK
  5
   129
  8
0
  6
CONTINUOUS
 62
     7
  0
BLOCK
  5
   12A
  8
0
  6
CONTINUOUS
 62
     7
  2
*HATCH317
 70
    65
 10
0.0
 20
0.0
 30
0.0
  3
*HATCH317
  0
LINE
  5
   12B
  8
0
  6
CONTINUOUS
 62
   210
 10
187.246170043945
 20
112.999938964844
 30
0.0
 11
184.737060546875
 21
110.490829467773
 31
0.0
  0
LINE
  5
   12C
  8
0
  6
CONTINUOUS
 62
   210
 10
191.237060546875
 20
112.748199462891
 30
0.0
 11
184.737060546875
 21
106.248191833496
 31
0.0
  0
LINE
  5
   12D
  8
0
  6
CONTINUOUS
 62
   210
 10
191.237060546875
 20
108.505554199219
 30
0.0
 11
185.7314453125
 21
102.999938964844
 31
0.0
  0
LINE
  5
   12E
  8
0
  6
CONTINUOUS
 62
   210
 10
191.237060546875
 20
104.262908935547
 30
0.0
 11
189.974090576172
 21
102.999938964844
 31
0.0
  0
ENDBLK
  5
   12F
  8
0
  6
CONTINUOUS
 62
     7
  0
BLOCK
  5
   130
  8
0
  6
CONTINUOUS
 62
     7
  2
*HATCH318
 70
    65
 10
0.0
 20
0.0
 30
0.0
  3
*HATCH318
  0
LINE
  5
   131
  8
0
  6
CONTINUOUS
 62
   210
 10
159.669006347656
 20
112.999938964844
 30
0.0
 11
157.152038574219
 21
110.482978820801
 31
0.0
  0
LINE
  5
   132
  8
0
  6
CONTINUOUS
 62
   210
 10
163.911651611328
 20
112.999938964844
 30
0.0
 11
157.056335449219
 21
106.144630432129
 31
0.0
  0
LINE
  5
   133
  8
0
  6
CONTINUOUS
 62
   210
 10
168.154281616211
 20
112.999938964844
 30
0.0
 11
158.154281616211
 21
102.999938964844
 31
0.0
  0
LINE
  5
   134
  8
0
  6
CONTINUOUS
 62
   210
 10
172.396926879883
 20
112.999938964844
 30
0.0
 11
162.396926879883
 21
102.999938964844
 31
0.0
  0
LINE
  5
   135
  8
0
  6
CONTINUOUS
 62
   210
 10
176.639572143555
 20
112.999938964844
 30
0.0
 11
166.639572143555
 21
102.999938964844
 31
0.0
  0
LINE
  5
   136
  8
0
  6
CONTINUOUS
 62
   210
 10
180.882217407227
 20
112.999938964844
 30
0.0
 11
170.882217407227
 21
102.999938964844
 31
0.0
  0
LINE
  5
   137
  8
0
  6
CONTINUOUS
 62
   210
 10
182.737060546875
 20
110.612152099609
 30
0.0
 11
175.124847412109
 21
102.999938964844
 31
0.0
  0
LINE
  5
   138
  8
0
  6
CONTINUOUS
 62
   210
 10
182.737060546875
 20
106.369506835938
 30
0.0
 11
179.367492675781
 21
102.999938964844
 31
0.0
  0
ENDBLK
  5
   139
  8
0
  6
CONTINUOUS
 62
     7
  0
BLOCK
  5
   13A
  8
0
  6
CONTINUOUS
 62
     7
  2
*HATCH319
 70
    65
 10
0.0
 20
0.0
 30
0.0
  3
*HATCH319
  0
LINE
  5
   13B
  8
0
  6
CONTINUOUS
 62
    12
 10
245.987030029297
 20
101.699996948242
 30
0.0
 11
243.987030029297
 21
101.699996948242
 31
0.0
  0
ENDBLK
  5
   13C
  8
0
  6
CONTINUOUS
 62
     7
  0
BLOCK
  5
   13D
  8
0
  6
CONTINUOUS
 62
     7
  2
*HATCH320
 70
    65
 10
0.0
 20
0.0
 30
0.0
  3
*HATCH320
  0
LINE
  5
   13E
  8
0
  6
CONTINUOUS
 62
    12
 10
243.987030029297
 20
101.699996948242
 30
0.0
 11
233.987030029297
 21
101.699996948242
 31
0.0
  0
LINE
  5
   13F
  8
0
  6
CONTINUOUS
 62
    12
 10
240.737030029297
 20
99.8999938964844
 30
0.0
 11
239.237030029297
 21
99.8999938964844
 31
0.0
  0
LINE
  5
   140
  8
0
  6
CONTINUOUS
 62
    12
 10
240.737030029297
 20
98.0999908447266
 30
0.0
 11
239.237030029297
 21
98.0999908447266
 31
0.0
  0
LINE
  5
   141
  8
0
  6
CONTINUOUS
 62
    12
 10
240.930435180664
 20
96.2999954223633
 30
0.0
 11
239.092636108398
 21
96.2999954223633
 31
0.0
  0
LINE
  5
   142
  8
0
  6
CONTINUOUS
 62
    12
 10
240.737030029297
 20
94.5
 30
0.0
 11
239.237030029297
 21
94.5
 31
0.0
  0
LINE
  5
   143
  8
0
  6
CONTINUOUS
 62
    12
 10
240.737030029297
 20
92.6999969482422
 30
0.0
 11
239.237030029297
 21
92.6999969482422
 31
0.0
  0
LINE
  5
   144
  8
0
  6
CONTINUOUS
 62
    12
 10
240.737030029297
 20
90.8999938964844
 30
0.0
 11
239.237030029297
 21
90.8999938964844
 31
0.0
  0
LINE
  5
   145
  8
0
  6
CONTINUOUS
 62
    12
 10
240.737030029297
 20
89.0999908447266
 30
0.0
 11
239.237030029297
 21
89.0999908447266
 31
0.0
  0
LINE
  5
   146
  8
0
  6
CONTINUOUS
 62
    12
 10
240.737030029297
 20
87.2999877929688
 30
0.0
 11
239.237030029297
 21
87.2999877929688
 31
0.0
  0
LINE
  5
   147
  8
0
  6
CONTINUOUS
 62
    12
 10
240.737030029297
 20
85.4999847412109
 30
0.0
 11
239.237030029297
 21
85.4999847412109
 31
0.0
  0
LINE
  5
   148
  8
0
  6
CONTINUOUS
 62
    12
 10
240.737030029297
 20
83.6999816894531
 30
0.0
 11
239.237030029297
 21
83.6999816894531
 31
0.0
  0
LINE
  5
   149
  8
0
  6
CONTINUOUS
 62
    12
 10
240.737030029297
 20
81.8999786376953
 30
0.0
 11
239.237030029297
 21
81.8999786376953
 31
0.0
  0
LINE
  5
   14A
  8
0
  6
CONTINUOUS
 62
    12
 10
240.737030029297
 20
80.0999755859375
 30
0.0
 11
239.237030029297
 21
80.0999755859375
 31
0.0
  0
LINE
  5
   14B
  8
0
  6
CONTINUOUS
 62
    12
 10
240.737030029297
 20
78.2999725341797
 30
0.0
 11
239.237030029297
 21
78.2999725341797
 31
0.0
  0
LINE
  5
   14C
  8
0
  6
CONTINUOUS
 62
    12
 10
240.737030029297
 20
76.4999694824219
 30
0.0
 11
239.237030029297
 21
76.4999694824219
 31
0.0
  0
LINE
  5
   14D
  8
0
  6
CONTINUOUS
 62
    12
 10
240.737030029297
 20
74.6999664306641
 30
0.0
 11
239.237030029297
 21
74.6999664306641
 31
0.0
  0
LINE
  5
   14E
  8
0
  6
CONTINUOUS
 62
    12
 10
240.737030029297
 20
72.8999633789063
 30
0.0
 11
239.237030029297
 21
72.8999633789063
 31
0.0
  0
LINE
  5
   14F
  8
0
  6
CONTINUOUS
 62
    12
 10
240.737030029297
 20
71.0999603271484
 30
0.0
 11
239.237030029297
 21
71.0999603271484
 31
0.0
  0
LINE
  5
   150
  8
0
  6
CONTINUOUS
 62
    12
 10
240.737030029297
 20
69.2999572753906
 30
0.0
 11
239.237030029297
 21
69.2999572753906
 31
0.0
  0
LINE
  5
   151
  8
0
  6
CONTINUOUS
 62
    12
 10
240.737030029297
 20
67.4999542236328
 30
0.0
 11
239.237030029297
 21
67.4999542236328
 31
0.0
  0
LINE
  5
   152
  8
0
  6
CONTINUOUS
 62
    12
 10
240.737030029297
 20
65.699951171875
 30
0.0
 11
239.237030029297
 21
65.699951171875
 31
0.0
  0
LINE
  5
   153
  8
0
  6
CONTINUOUS
 62
    12
 10
240.737030029297
 20
63.8999481201172
 30
0.0
 11
239.237030029297
 21
63.8999481201172
 31
0.0
  0
LINE
  5
   154
  8
0
  6
CONTINUOUS
 62
    12
 10
240.737030029297
 20
62.0999450683594
 30
0.0
 11
239.237030029297
 21
62.0999450683594
 31
0.0
  0
LINE
  5
   155
  8
0
  6
CONTINUOUS
 62
    12
 10
240.737030029297
 20
60.2999420166016
 30
0.0
 11
239.237030029297
 21
60.2999420166016
 31
0.0
  0
LINE
  5
   156
  8
0
  6
CONTINUOUS
 62
    12
 10
240.737030029297
 20
58.4999389648438
 30
0.0
 11
239.237030029297
 21
58.4999389648438
 31
0.0
  0
LINE
  5
   157
  8
0
  6
CONTINUOUS
 62
    12
 10
240.737030029297
 20
56.6999359130859
 30
0.0
 11
239.237030029297
 21
56.6999359130859
 31
0.0
  0
LINE
  5
   158
  8
0
  6
CONTINUOUS
 62
    12
 10
240.737030029297
 20
54.8999328613281
 30
0.0
 11
239.237030029297
 21
54.8999328613281
 31
0.0
  0
LINE
  5
   159
  8
0
  6
CONTINUOUS
 62
    12
 10
240.737030029297
 20
53.0999298095703
 30
0.0
 11
239.237030029297
 21
53.0999298095703
 31
0.0
  0
LINE
  5
   15A
  8
0
  6
CONTINUOUS
 62
    12
 10
240.737030029297
 20
51.2999267578125
 30
0.0
 11
239.237030029297
 21
51.2999267578125
 31
0.0
  0
LINE
  5
   15B
  8
0
  6
CONTINUOUS
 62
    12
 10
240.737030029297
 20
49.4999237060547
 30
0.0
 11
239.237030029297
 21
49.4999237060547
 31
0.0
  0
LINE
  5
   15C
  8
0
  6
CONTINUOUS
 62
    12
 10
240.737030029297
 20
47.6999206542969
 30
0.0
 11
239.237030029297
 21
47.6999206542969
 31
0.0
  0
LINE
  5
   15D
  8
0
  6
CONTINUOUS
 62
    12
 10
240.737030029297
 20
45.8999176025391
 30
0.0
 11
239.237030029297
 21
45.8999176025391
 31
0.0
  0
LINE
  5
   15E
  8
0
  6
CONTINUOUS
 62
    12
 10
240.737030029297
 20
44.0999145507813
 30
0.0
 11
239.237030029297
 21
44.0999145507813
 31
0.0
  0
LINE
  5
   15F
  8
0
  6
CONTINUOUS
 62
    12
 10
240.737030029297
 20
42.2999114990234
 30
0.0
 11
239.237030029297
 21
42.2999114990234
 31
0.0
  0
LINE
  5
   160
  8
0
  6
CONTINUOUS
 62
    12
 10
240.737030029297
 20
40.4999084472656
 30
0.0
 11
239.237030029297
 21
40.4999084472656
 31
0.0
  0
LINE
  5
   161
  8
0
  6
CONTINUOUS
 62
    12
 10
240.737030029297
 20
38.6999053955078
 30
0.0
 11
239.237030029297
 21
38.6999053955078
 31
0.0
  0
LINE
  5
   162
  8
0
  6
CONTINUOUS
 62
    12
 10
240.737030029297
 20
36.89990234375
 30
0.0
 11
239.237030029297
 21
36.89990234375
 31
0.0
  0
LINE
  5
   163
  8
0
  6
CONTINUOUS
 62
    12
 10
240.737030029297
 20
35.0998992919922
 30
0.0
 11
239.237030029297
 21
35.0998992919922
 31
0.0
  0
LINE
  5
   164
  8
0
  6
CONTINUOUS
 62
    12
 10
240.737030029297
 20
33.2998962402344
 30
0.0
 11
239.237030029297
 21
33.2998962402344
 31
0.0
  0
LINE
  5
   165
  8
0
  6
CONTINUOUS
 62
    12
 10
240.737030029297
 20
31.4998950958252
 30
0.0
 11
239.237030029297
 21
31.4998950958252
 31
0.0
  0
LINE
  5
   166
  8
0
  6
CONTINUOUS
 62
    12
 10
240.737030029297
 20
29.6998958587647
 30
0.0
 11
239.237030029297
 21
29.6998958587647
 31
0.0
  0
LINE
  5
   167
  8
0
  6
CONTINUOUS
 62
    12
 10
240.737030029297
 20
27.8998966217041
 30
0.0
 11
239.237030029297
 21
27.8998966217041
 31
0.0
  0
ENDBLK
  5
   168
  8
0
  6
CONTINUOUS
 62
     7
  0
BLOCK
  5
   169
  8
0
  6
CONTINUOUS
 62
     7
  2
*HATCH321
 70
    65
 10
0.0
 20
0.0
 30
0.0
  3
*HATCH321
  0
LINE
  5
   16A
  8
0
  6
CONTINUOUS
 62
    92
 10
45.0366630554199
 20
77.9999389648438
 30
0.0
 11
50.7370719909668
 21
72.2995223999023
 31
0.0
  0
ENDBLK
  5
   16B
  8
0
  6
CONTINUOUS
 62
     7
  0
BLOCK
  5
   16C
  8
0
  6
CONTINUOUS
 62
     7
  2
*HATCH322
 70
    65
 10
0.0
 20
0.0
 30
0.0
  3
*HATCH322
  0
LINE
  5
   16D
  8
0
  6
CONTINUOUS
 62
    92
 10
12.2370738983154
 20
76.8584213256836
 30
0.0
 11
17.0955505371094
 21
71.9999389648438
 31
0.0
  0
LINE
  5
   16E
  8
0
  6
CONTINUOUS
 62
    92
 10
19.5808410644531
 20
77.9999313354492
 30
0.0
 11
25.5808258056641
 21
71.9999389648438
 31
0.0
  0
LINE
  5
   16F
  8
0
  6
CONTINUOUS
 62
    92
 10
28.0661163330078
 20
77.9999313354492
 30
0.0
 11
34.0661010742188
 21
71.9999389648438
 31
0.0
  0
LINE
  5
   170
  8
0
  6
CONTINUOUS
 62
    92
 10
36.5513877868652
 20
77.9999389648438
 30
0.0
 11
36.7370719909668
 21
77.8142547607422
 31
0.0
  0
ENDBLK
  5
   171
  8
0
  6
CONTINUOUS
 62
     7
  0
BLOCK
  5
   172
  8
0
  6
CONTINUOUS
 62
     7
  2
*HATCH323
 70
    65
 10
0.0
 20
0.0
 30
0.0
  3
*HATCH323
  0
LINE
  5
   173
  8
0
  6
CONTINUOUS
 62
    92
 10
-5.2629280090332
 20
77.3878707885742
 30
0.0
 11
0.124998569488525
 21
71.9999389648438
 31
0.0
  0
ENDBLK
  5
   174
  8
0
  6
CONTINUOUS
 62
     7
  0
BLOCK
  5
   175
  8
0
  6
CONTINUOUS
 62
     7
  2
*HATCH324
 70
    65
 10
0.0
 20
0.0
 30
0.0
  3
*HATCH324
  0
LINE
  5
   176
  8
0
  6
CONTINUOUS
 62
     3
 10
17.9834251403809
 20
44.499927520752
 30
0.0
 11
16.7370738983154
 21
43.2535743713379
 31
0.0
  0
LINE
  5
   177
  8
0
  6
CONTINUOUS
 62
     3
 10
18.2370738983154
 20
42.6322555541992
 30
0.0
 11
16.7370738983154
 21
41.1322555541992
 31
0.0
  0
LINE
  5
   178
  8
0
  6
CONTINUOUS
 62
     3
 10
18.2370738983154
 20
40.5109329223633
 30
0.0
 11
16.7370738983154
 21
39.0109329223633
 31
0.0
  0
LINE
  5
   179
  8
0
  6
CONTINUOUS
 62
     3
 10
18.2370738983154
 20
38.3896141052246
 30
0.0
 11
17.3473873138428
 21
37.499927520752
 31
0.0
  0
ENDBLK
  5
   17A
  8
0
  6
CONTINUOUS
 62
     7
  0
BLOCK
  5
   17B
  8
0
  6
CONTINUOUS
 62
     7
  2
*HATCH325
 70
    65
 10
0.0
 20
0.0
 30
0.0
  3
*HATCH325
  0
LINE
  5
   17C
  8
0
  6
CONTINUOUS
 62
     3
 10
-2.26292657852173
 20
44.406120300293
 30
0.0
 11
-3.76292657852173
 21
42.906120300293
 31
0.0
  0
LINE
  5
   17D
  8
0
  6
CONTINUOUS
 62
     3
 10
-2.26292657852173
 20
42.284797668457
 30
0.0
 11
-3.76292657852173
 21
40.784797668457
 31
0.0
  0
LINE
  5
   17E
  8
0
  6
CONTINUOUS
 62
     3
 10
-2.26292657852173
 20
40.1634750366211
 30
0.0
 11
-3.76292657852173
 21
38.6634750366211
 31
0.0
  0
LINE
  5
   17F
  8
0
  6
CONTINUOUS
 62
     3
 10
-2.26292657852173
 20
38.0421600341797
 30
0.0
 11
-2.80515670776367
 21
37.499927520752
 31
0.0
  0
ENDBLK
  5
   180
  8
0
  6
CONTINUOUS
 62
     7
  0
BLOCK
  5
   181
  8
0
  6
CONTINUOUS
 62
     7
  2
*HATCH326
 70
    65
 10
0.0
 20
0.0
 30
0.0
  3
*HATCH326
  0
LINE
  5
   182
  8
0
  6
CONTINUOUS
 62
     3
 10
13.6636323928833
 20
71.9999389648438
 30
0.0
 11
12.2370738983154
 21
70.5733795166016
 31
0.0
  0
LINE
  5
   183
  8
0
  6
CONTINUOUS
 62
     3
 10
15.7849531173706
 20
71.9999389648438
 30
0.0
 11
12.2370738983154
 21
68.4520568847656
 31
0.0
  0
LINE
  5
   184
  8
0
  6
CONTINUOUS
 62
     3
 10
17.9062728881836
 20
71.9999389648438
 30
0.0
 11
12.2370738983154
 21
66.3307342529297
 31
0.0
  0
LINE
  5
   185
  8
0
  6
CONTINUOUS
 62
     3
 10
18.2370738983154
 20
70.2094192504883
 30
0.0
 11
13.8275833129883
 21
65.7999267578125
 31
0.0
  0
LINE
  5
   186
  8
0
  6
CONTINUOUS
 62
     3
 10
18.2370738983154
 20
68.0880966186523
 30
0.0
 11
15.9489040374756
 21
65.7999267578125
 31
0.0
  0
LINE
  5
   187
  8
0
  6
CONTINUOUS
 62
     3
 10
18.2370738983154
 20
65.9667739868164
 30
0.0
 11
18.0702228546143
 21
65.7999267578125
 31
0.0
  0
ENDBLK
  5
   188
  8
0
  6
CONTINUOUS
 62
     7
  0
BLOCK
  5
   189
  8
0
  6
CONTINUOUS
 62
     7
  2
*HATCH327
 70
    65
 10
0.0
 20
0.0
 30
0.0
  3
*HATCH327
  0
LINE
  5
   18A
  8
0
  6
CONTINUOUS
 62
     3
 10
-2.24627113342285
 20
71.9999389648438
 30
0.0
 11
-3.76292657852173
 21
70.483283996582
 31
0.0
  0
LINE
  5
   18B
  8
0
  6
CONTINUOUS
 62
     3
 10
-0.124950647354126
 20
71.9999389648438
 30
0.0
 11
-3.76292657852173
 21
68.3619613647461
 31
0.0
  0
LINE
  5
   18C
  8
0
  6
CONTINUOUS
 62
     3
 10
1.9963698387146
 20
71.9999389648438
 30
0.0
 11
-3.76292657852173
 21
66.2406387329102
 31
0.0
  0
LINE
  5
   18D
  8
0
  6
CONTINUOUS
 62
     3
 10
2.23707342147827
 20
70.1193237304688
 30
0.0
 11
-2.08231973648071
 21
65.7999267578125
 31
0.0
  0
LINE
  5
   18E
  8
0
  6
CONTINUOUS
 62
     3
 10
2.23707342147827
 20
67.9980010986328
 30
0.0
 11
3.90007495880127E-2
 21
65.7999267578125
 31
0.0
  0
LINE
  5
   18F
  8
0
  6
CONTINUOUS
 62
     3
 10
2.23707342147827
 20
65.8766784667969
 30
0.0
 11
2.16032123565674
 21
65.7999267578125
 31
0.0
  0
ENDBLK
  5
   190
  8
0
  6
CONTINUOUS
 62
     7
  0
BLOCK
  5
   191
  8
0
  6
CONTINUOUS
 62
     7
  2
*UDIM1150
 70
    65
 10
0.0
 20
0.0
 30
0.0
  3
*UDIM1150
  0
TEXT
  5
   192
  8
0
  6
CONTINUOUS
 62
     7
 10
-383.129869392897
 20
60.1359073587296
 30
0.0
 40
3.5
  1
133.25
 50
89.9999999480344
 41
0.933333333333333
 72
     1
 11
-384.879869384338
 21
69.5859073603146
 31
0.0
 73
     2
  0
LINE
  5
   193
  8
0
  6
CONTINUOUS
 62
     7
 10
-392.082348349561
 20
36.3325004689834
 30
0.0
 11
-380.129869384338
 21
36.3325004689834
 31
0.0
  0
LINE
  5
   194
  8
0
  6
CONTINUOUS
 62
     7
 10
-422.438392638564
 20
102.957482553526
 30
0.0
 11
-380.129869384338
 21
102.957482553526
 31
0.0
  0
LINE
  5
   195
  8
0
  6
CONTINUOUS
 62
     7
 10
-382.129869384338
 20
36.3325004689834
 30
0.0
 11
-382.129869384338
 21
102.957482553526
 31
0.0
  0
LINE
  5
   196
  8
0
  6
CONTINUOUS
 62
     3
 10
-382.906326540756
 20
39.2302779421939
 30
0.0
 11
-382.129869384338
 21
36.3325004689834
 31
0.0
  0
LINE
  5
   197
  8
0
  6
CONTINUOUS
 62
     3
 10
-382.129869384338
 20
36.3325004689834
 30
0.0
 11
-381.353412227919
 21
39.2302779421939
 31
0.0
  0
LINE
  5
   198
  8
0
  6
CONTINUOUS
 62
     3
 10
-381.353412227919
 20
100.059705080316
 30
0.0
 11
-382.129869384338
 21
102.957482553526
 31
0.0
  0
LINE
  5
   199
  8
0
  6
CONTINUOUS
 62
     3
 10
-382.129869384338
 20
102.957482553526
 30
0.0
 11
-382.906326540756
 21
100.059705080316
 31
0.0
  0
ENDBLK
  5
   19A
  8
0
  6
CONTINUOUS
 62
     7
  0
BLOCK
  5
   19B
  8
0
  6
CONTINUOUS
 62
     7
  2
*UDIM1151
 70
    65
 10
0.0
 20
0.0
 30
0.0
  3
*UDIM1151
  0
TEXT
  5
   19C
  8
0
  6
CONTINUOUS
 62
     7
 10
-365.027764788913
 20
33.8676219798114
 30
0.0
 40
3.5
  1
262
 50
89.9999999480344
 41
0.933333333333333
 72
     1
 11
-366.777764784792
 21
38.4176219813964
 31
0.0
 73
     2
  0
LINE
  5
   19D
  8
0
  6
CONTINUOUS
 62
     7
 10
-422.438392638564
 20
-28.0424778008623
 30
0.0
 11
-362.027764784792
 21
-28.0424778008623
 31
0.0
  0
LINE
  5
   19E
  8
0
  6
CONTINUOUS
 62
     7
 10
-422.438392638564
 20
102.957482553526
 30
0.0
 11
-362.027764784792
 21
102.957482553526
 31
0.0
  0
LINE
  5
   19F
  8
0
  6
CONTINUOUS
 62
     7
 10
-364.027764784792
 20
-28.0424778008623
 30
0.0
 11
-364.027764784792
 21
102.957482553526
 31
0.0
  0
LINE
  5
   1A0
  8
0
  6
CONTINUOUS
 62
     3
 10
-364.80422194121
 20
-25.1447003276517
 30
0.0
 11
-364.027764784792
 21
-28.0424778008623
 31
0.0
  0
LINE
  5
   1A1
  8
0
  6
CONTINUOUS
 62
     3
 10
-364.027764784792
 20
-28.0424778008623
 30
0.0
 11
-363.251307628373
 21
-25.1447003276517
 31
0.0
  0
LINE
  5
   1A2
  8
0
  6
CONTINUOUS
 62
     3
 10
-363.251307628373
 20
100.059705080316
 30
0.0
 11
-364.027764784792
 21
102.957482553526
 31
0.0
  0
LINE
  5
   1A3
  8
0
  6
CONTINUOUS
 62
     3
 10
-364.027764784792
 20
102.957482553526
 30
0.0
 11
-364.80422194121
 21
100.059705080316
 31
0.0
  0
ENDBLK
  5
   1A4
  8
0
  6
CONTINUOUS
 62
     7
  0
BLOCK
  5
   1A5
  8
0
  6
CONTINUOUS
 62
     7
  2
*UDIM1152
 70
    65
 10
0.0
 20
0.0
 30
0.0
  3
*UDIM1152
  0
TEXT
  5
   1A6
  8
0
  6
CONTINUOUS
 62
     7
 10
-467.118484180757
 20
129.92814499579
 30
0.0
 40
3.5
  1
10
 50
359.999999948034
 41
0.933333333333333
 72
     1
 11
-464.201817512512
 21
131.678144993159
 31
0.0
 73
     2
  0
LINE
  5
   1A7
  8
0
  6
CONTINUOUS
 62
     7
 10
-473.563385009766
 20
125.207500468983
 30
0.0
 11
-473.563385009766
 21
130.928144993159
 31
0.0
  0
LINE
  5
   1A8
  8
0
  6
CONTINUOUS
 62
     7
 10
-478.563385009766
 20
125.207500468983
 30
0.0
 11
-478.563385009766
 21
130.928144993159
 31
0.0
  0
LINE
  5
   1A9
  8
0
  6
CONTINUOUS
 62
     7
 10
-461.285150845846
 20
128.928144993159
 30
0.0
 11
-483.563385009766
 21
128.928144993159
 31
0.0
  0
LINE
  5
   1AA
  8
0
  6
CONTINUOUS
 62
     3
 10
-470.665607536555
 20
129.704602149578
 30
0.0
 11
-473.563385009766
 21
128.928144993159
 31
0.0
  0
LINE
  5
   1AB
  8
0
  6
CONTINUOUS
 62
     3
 10
-473.563385009766
 20
128.928144993159
 30
0.0
 11
-470.665607536555
 21
128.15168783674
 31
0.0
  0
LINE
  5
   1AC
  8
0
  6
CONTINUOUS
 62
     3
 10
-481.461162482976
 20
128.15168783674
 30
0.0
 11
-478.563385009766
 21
128.928144993159
 31
0.0
  0
LINE
  5
   1AD
  8
0
  6
CONTINUOUS
 62
     3
 10
-478.563385009766
 20
128.928144993159
 30
0.0
 11
-481.461162482976
 21
129.704602149578
 31
0.0
  0
ENDBLK
  5
   1AE
  8
0
  6
CONTINUOUS
 62
     7
  0
BLOCK
  5
   1AF
  8
0
  6
CONTINUOUS
 62
     7
  2
*UDIM1153
 70
    65
 10
0.0
 20
0.0
 30
0.0
  3
*UDIM1153
  0
TEXT
  5
   1B0
  8
0
  6
CONTINUOUS
 62
     7
 10
-459.496808190444
 20
144.08317415957
 30
0.0
 40
3.5
  1
124.5
 50
359.999999948034
 41
0.933333333333333
 72
     1
 11
-451.680141522199
 21
145.83317415252
 31
0.0
 73
     2
  0
LINE
  5
   1B1
  8
0
  6
CONTINUOUS
 62
     7
 10
-478.563414397087
 20
125.207500468552
 30
0.0
 11
-478.563998466688
 21
145.082384107641
 31
0.0
  0
LINE
  5
   1B2
  8
0
  6
CONTINUOUS
 62
     7
 10
-416.314157692591
 20
63.5825004685516
 30
0.0
 11
-416.316552809653
 21
145.084213393356
 31
0.0
  0
LINE
  5
   1B3
  8
0
  6
CONTINUOUS
 62
     7
 10
-478.563939692045
 20
143.082384108505
 30
0.0
 11
-416.31649403501
 21
143.08421339422
 31
0.0
  0
LINE
  5
   1B4
  8
0
  6
CONTINUOUS
 62
     3
 10
-475.666185038082
 20
143.858926422507
 30
0.0
 11
-478.563939692045
 21
143.082384108505
 31
0.0
  0
LINE
  5
   1B5
  8
0
  6
CONTINUOUS
 62
     3
 10
-478.563939692045
 20
143.082384108505
 30
0.0
 11
-475.666139402089
 21
142.306012110341
 31
0.0
  0
LINE
  5
   1B6
  8
0
  6
CONTINUOUS
 62
     3
 10
-419.214248688973
 20
142.307671080218
 30
0.0
 11
-416.31649403501
 21
143.08421339422
 31
0.0
  0
LINE
  5
   1B7
  8
0
  6
CONTINUOUS
 62
     3
 10
-416.31649403501
 20
143.08421339422
 30
0.0
 11
-419.214294324965
 21
143.860585392384
 31
0.0
  0
ENDBLK
  5
   1B8
  8
0
  6
CONTINUOUS
 62
     7
  0
BLOCK
  5
   1B9
  8
0
  6
CONTINUOUS
 62
     7
  2
*UDIM1154
 70
    65
 10
0.0
 20
0.0
 30
0.0
  3
*UDIM1154
  0
TEXT
  5
   1BA
  8
0
  6
CONTINUOUS
 62
     7
 10
-445.6137888481
 20
-78.0348040080516
 30
0.0
 40
3.5
  1
145
 50
359.999999948034
 41
0.933333333333333
 72
     1
 11
-441.063788846521
 21
-76.2848040121555
 31
0.0
 73
     2
  0
LINE
  5
   1BB
  8
0
  6
CONTINUOUS
 62
     7
 10
-406.040851265964
 20
30.2075004689833
 30
0.0
 11
-406.040851265964
 21
-81.0348040121555
 31
0.0
  0
LINE
  5
   1BC
  8
0
  6
CONTINUOUS
 62
     7
 10
-478.563385009766
 20
-76.7924995310166
 30
0.0
 11
-478.563385009766
 21
-81.0348040121555
 31
0.0
  0
LINE
  5
   1BD
  8
0
  6
CONTINUOUS
 62
     7
 10
-406.040851265964
 20
-79.0348040121555
 30
0.0
 11
-478.563385009766
 21
-79.0348040121555
 31
0.0
  0
LINE
  5
   1BE
  8
0
  6
CONTINUOUS
 62
     3
 10
-408.938628739175
 20
-79.811261168574
 30
0.0
 11
-406.040851265964
 21
-79.0348040121555
 31
0.0
  0
LINE
  5
   1BF
  8
0
  6
CONTINUOUS
 62
     3
 10
-406.040851265964
 20
-79.0348040121555
 30
0.0
 11
-408.938628739175
 21
-78.2583468557369
 31
0.0
  0
LINE
  5
   1C0
  8
0
  6
CONTINUOUS
 62
     3
 10
-475.665607536555
 20
-78.2583468557369
 30
0.0
 11
-478.563385009766
 21
-79.0348040121555
 31
0.0
  0
LINE
  5
   1C1
  8
0
  6
CONTINUOUS
 62
     3
 10
-478.563385009766
 20
-79.0348040121555
 30
0.0
 11
-475.665607536555
 21
-79.811261168574
 31
0.0
  0
ENDBLK
  5
   1C2
  8
0
  6
CONTINUOUS
 62
     7
  0
BLOCK
  5
   1C3
  8
0
  6
CONTINUOUS
 62
     7
  2
*UDIM1155
 70
    65
 10
0.0
 20
0.0
 30
0.0
  3
*UDIM1155
  0
TEXT
  5
   1C4
  8
0
  6
CONTINUOUS
 62
     7
 10
-498.313384731531
 20
127.957500467398
 30
0.0
 40
3.5
  1
7
 50
89.9999999480344
 41
0.933333333333334
 72
     1
 11
-500.063384730369
 21
129.240833802317
 31
0.0
 73
     2
  0
TEXT
  5
   1C5
  8
0
  6
CONTINUOUS
 62
     7
 10
-498.313384731954
 20
123.457500467398
 30
0.0
 40
3.5
  1
Ø
 50
89.9999999480344
 41
1.2
 72
     1
 11
-500.063384730369
 21
125.207500468983
 31
0.0
 73
     2
  0
LINE
  5
   1C6
  8
0
  6
CONTINUOUS
 62
     7
 10
-479.563385009766
 20
114.957500468983
 30
0.0
 11
-499.313384730369
 21
114.957500468983
 31
0.0
  0
LINE
  5
   1C7
  8
0
  6
CONTINUOUS
 62
     7
 10
-479.563385009766
 20
118.457500468983
 30
0.0
 11
-499.313384730369
 21
118.457500468983
 31
0.0
  0
LINE
  5
   1C8
  8
0
  6
CONTINUOUS
 62
     7
 10
-497.313384730369
 20
109.957500468983
 30
0.0
 11
-497.313384730369
 21
130.52416713565
 31
0.0
  0
LINE
  5
   1C9
  8
0
  6
CONTINUOUS
 62
     3
 10
-496.53692757395
 20
112.059722995773
 30
0.0
 11
-497.313384730369
 21
114.957500468983
 31
0.0
  0
LINE
  5
   1CA
  8
0
  6
CONTINUOUS
 62
     3
 10
-497.313384730369
 20
114.957500468983
 30
0.0
 11
-498.089841886787
 21
112.059722995773
 31
0.0
  0
LINE
  5
   1CB
  8
0
  6
CONTINUOUS
 62
     3
 10
-498.089841886787
 20
121.355277942194
 30
0.0
 11
-497.313384730369
 21
118.457500468983
 31
0.0
  0
LINE
  5
   1CC
  8
0
  6
CONTINUOUS
 62
     3
 10
-497.313384730369
 20
118.457500468983
 30
0.0
 11
-496.53692757395
 21
121.355277942194
 31
0.0
  0
ENDBLK
  5
   1CD
  8
0
  6
CONTINUOUS
 62
     7
  0
BLOCK
  5
   1CE
  8
0
  6
CONTINUOUS
 62
     7
  2
*UDIM1156
 70
    65
 10
0.0
 20
0.0
 30
0.0
  3
*UDIM1156
  0
TEXT
  5
   1CF
  8
0
  6
CONTINUOUS
 62
     7
 10
-470.446710722734
 20
-48.3179670886444
 30
0.0
 40
3.5
  1
37.2
 50
359.999999948034
 41
0.933333333333333
 72
     1
 11
-464.263377387822
 21
-46.5679670942214
 31
0.0
 73
     2
  0
LINE
  5
   1D0
  8
0
  6
CONTINUOUS
 62
     7
 10
-454.963369765879
 20
-22.0424920412681
 30
0.0
 11
-454.963369765879
 21
-51.3179670942214
 31
0.0
  0
LINE
  5
   1D1
  8
0
  6
CONTINUOUS
 62
     7
 10
-449.963369765879
 20
-49.3179670942214
 30
0.0
 11
-478.563385009766
 21
-49.3179670942214
 31
0.0
  0
LINE
  5
   1D2
  8
0
  6
CONTINUOUS
 62
     3
 10
-452.065592292668
 20
-48.5415099378029
 30
0.0
 11
-454.963369765879
 21
-49.3179670942214
 31
0.0
  0
LINE
  5
   1D3
  8
0
  6
CONTINUOUS
 62
     3
 10
-454.963369765879
 20
-49.3179670942214
 30
0.0
 11
-452.065592292668
 21
-50.09442425064
 31
0.0
  0
LINE
  5
   1D4
  8
0
  6
CONTINUOUS
 62
     3
 10
-476.461162482976
 20
-50.09442425064
 30
0.0
 11
-473.563385009766
 21
-49.3179670942214
 31
0.0
  0
LINE
  5
   1D5
  8
0
  6
CONTINUOUS
 62
     3
 10
-473.563385009766
 20
-49.3179670942214
 30
0.0
 11
-476.461162482976
 21
-48.5415099378029
 31
0.0
  0
ENDBLK
  5
   1D6
  8
0
  6
CONTINUOUS
 62
     7
  0
BLOCK
  5
   1D7
  8
0
  6
CONTINUOUS
 62
     7
  2
*UDIM1157
 70
    65
 10
0.0
 20
0.0
 30
0.0
  3
*UDIM1157
  0
TEXT
  5
   1D8
  8
0
  6
CONTINUOUS
 62
     7
 10
-396.454117177538
 20
31.7825004679884
 30
0.0
 40
3.5
  1
105
 50
89.9999999480344
 41
0.933333333333333
 72
     1
 11
-398.204117173417
 21
36.3325004695734
 31
0.0
 73
     2
  0
TEXT
  5
   1D9
  8
0
  6
CONTINUOUS
 62
     7
 10
-389.954117184935
 20
23.6158338013217
 30
0.0
 40
3.5
  1
=      =
 50
89.9999999480344
 41
0.933333333333333
 72
     1
 11
-391.704117173417
 21
36.3325004695734
 31
0.0
 73
     2
  0
LINE
  5
   1DA
  8
0
  6
CONTINUOUS
 62
     7
 10
-415.313371355211
 20
10.0825004701634
 30
0.0
 11
-393.454117173417
 21
10.0825004701634
 31
0.0
  0
LINE
  5
   1DB
  8
0
  6
CONTINUOUS
 62
     7
 10
-415.314128305269
 20
62.5825004689834
 30
0.0
 11
-393.454117173417
 21
62.5825004689834
 31
0.0
  0
LINE
  5
   1DC
  8
0
  6
CONTINUOUS
 62
     7
 10
-395.454117173417
 20
10.0825004701634
 30
0.0
 11
-395.454117173417
 21
62.5825004689834
 31
0.0
  0
LINE
  5
   1DD
  8
0
  6
CONTINUOUS
 62
     3
 10
-396.230574329835
 20
12.9802779433739
 30
0.0
 11
-395.454117173417
 21
10.0825004701634
 31
0.0
  0
LINE
  5
   1DE
  8
0
  6
CONTINUOUS
 62
     3
 10
-395.454117173417
 20
10.0825004701634
 30
0.0
 11
-394.677660016998
 21
12.9802779433739
 31
0.0
  0
LINE
  5
   1DF
  8
0
  6
CONTINUOUS
 62
     3
 10
-394.677660016998
 20
59.6847229957728
 30
0.0
 11
-395.454117173417
 21
62.5825004689834
 31
0.0
  0
LINE
  5
   1E0
  8
0
  6
CONTINUOUS
 62
     3
 10
-395.454117173417
 20
62.5825004689834
 30
0.0
 11
-396.230574329835
 21
59.6847229957728
 31
0.0
  0
ENDBLK
  5
   1E1
  8
0
  6
CONTINUOUS
 62
     7
  0
ENDSEC
  0
SECTION
  2
ENTITIES
  0
LINE
  5
   1E2
  8
0
  6
CONTINUOUS
 62
     7
 10
-553.176739413456
 20
7.83250045776174
 30
0.0
 11
-553.176739413456
 21
10.0825004577617
 31
0.0
  0
LINE
  5
   1E3
  8
0
  6
CONTINUOUS
 62
     7
 10
-558.176739413456
 20
7.83250045776174
 30
0.0
 11
-558.176739413456
 21
10.0825004577617
 31
0.0
  0
LINE
  5
   1E4
  8
0
  6
CONTINUOUS
 62
     7
 10
-553.176739413456
 20
7.83250045776174
 30
0.0
 11
-558.176739413456
 21
7.83250045776174
 31
0.0
  0
TEXT
  5
   1E5
  8
0
  6
CONTINUOUS
 62
     7
 10
-556.155142944004
 20
8.17490332902832
 30
0.0
 40
1.50000001490116
  1
N
 50
359.999999948034
 41
0.933333333333334
 72
     1
 11
-555.605142937863
 21
8.92490333598283
 31
0.0
 73
     2
  0
LINE
  5
   1E6
  8
0
  6
CONTINUOUS
 62
     7
 10
-546.926775652902
 20
78.5574951171875
 30
0.0
 11
-548.176775652902
 21
78.5574951171875
 31
0.0
  0
LINE
  5
   1E7
  8
0
  6
CONTINUOUS
 62
     7
 10
-548.176775652902
 20
78.5574951171875
 30
0.0
 11
-548.176775652902
 21
79.4574966430664
 31
0.0
  0
LINE
  5
   1E8
  8
0
  6
CONTINUOUS
 62
     7
 10
-582.801778540387
 20
79.9574966430664
 30
0.0
 11
-594.724968078057
 21
79.9574966430664
 31
0.0
  0
LINE
  5
   1E9
  8
0
  6
CONTINUOUS
 62
     7
 10
-565.301743426222
 20
79.9574966430664
 30
0.0
 11
-581.051778540387
 21
79.9574966430664
 31
0.0
  0
LINE
  5
   1EA
  8
0
  6
CONTINUOUS
 62
     7
 10
-548.676775652902
 20
79.9574966430664
 30
0.0
 11
-563.551743426222
 21
79.9574966430664
 31
0.0
  0
LINE
  5
   1EB
  8
0
  6
CONTINUOUS
 62
     7
 10
-616.926781274971
 20
-3.6425033807754
 30
0.0
 11
-616.926781274971
 21
102.457504283681
 31
0.0
  0
LINE
  5
   1EC
  8
0
  6
CONTINUOUS
 62
     7
 10
-615.676775652902
 20
-3.64250338077545
 30
0.0
 11
-616.926775652902
 21
-3.64250338077545
 31
0.0
  0
LINE
  5
   1ED
  8
0
  6
CONTINUOUS
 62
     7
 10
-615.676775652902
 20
-4.54250335693359
 30
0.0
 11
-615.676775652902
 21
-3.64250338077545
 31
0.0
  0
LINE
  5
   1EE
  8
0
  6
CONTINUOUS
 62
     7
 10
-580.676778540387
 20
76.7074966430664
 30
0.0
 11
-583.176778540387
 21
76.7074966430664
 31
0.0
  0
LINE
  5
   1EF
  8
0
  6
CONTINUOUS
 62
     7
 10
-548.176775652902
 20
76.5825004577617
 30
0.0
 11
-548.176775652902
 21
78.5574951171875
 31
0.0
  0
LINE
  5
   1F0
  8
0
  6
CONTINUOUS
 62
     7
 10
-612.301775652902
 20
4.95749664306641
 30
0.0
 11
-612.301775652902
 21
6.95749664306641
 31
0.0
  0
LINE
  5
   1F1
  8
0
  6
CONTINUOUS
 62
     7
 10
-614.176774937647
 20
3.0824966430664
 30
0.0
 11
-615.67677612974
 21
3.0824966430664
 31
0.0
  0
LINE
  5
   1F2
  8
0
  6
CONTINUOUS
 62
     7
 10
-615.676775553635
 20
-3.64250338077544
 30
0.0
 11
-615.676775553635
 21
3.08249652385712
 31
0.0
  0
CIRCLE
  5
   1F3
  8
0
  6
CONTINUOUS
 62
     7
 10
-590.676775958492
 20
73.7074920922822
 30
0.0
 40
2.75000069115123
  0
CIRCLE
  5
   1F4
  8
0
  6
CONTINUOUS
 62
     7
 10
-590.676778345682
 20
77.9575013014346
 30
0.0
 40
0.700002264523652
  0
CIRCLE
  5
   1F5
  8
0
  6
CONTINUOUS
 62
     7
 10
-581.926778540387
 20
72.2074985582521
 30
0.0
 40
2.24999656892357
  0
CIRCLE
  5
   1F6
  8
0
  6
CONTINUOUS
 62
     7
 10
-573.176760983304
 20
73.7074909858258
 30
0.0
 40
2.75001556139296
  0
CIRCLE
  5
   1F7
  8
0
  6
CONTINUOUS
 62
     7
 10
-573.176776337357
 20
77.9574975308776
 30
0.0
 40
0.700001066288022
  0
CIRCLE
  5
   1F8
  8
0
  6
CONTINUOUS
 62
     7
 10
-564.426773973916
 20
72.2075000718871
 30
0.0
 40
2.24999987091582
  0
CIRCLE
  5
   1F9
  8
0
  6
CONTINUOUS
 62
     7
 10
-555.676772452341
 20
73.7075127504803
 30
0.0
 40
2.74998599955911
  0
CIRCLE
  5
   1FA
  8
0
  6
CONTINUOUS
 62
     7
 10
-555.676769713608
 20
77.9575022475024
 30
0.0
 40
0.699995380710385
  0
ARC
  5
   1FB
  8
0
  6
CONTINUOUS
 62
     7
 10
-548.676772941081
 20
79.4574999056856
 30
0.0
 40
0.499997602395233
 50
359.999798760808
 51
450.00023088902
  0
CIRCLE
  5
   1FC
  8
0
  6
CONTINUOUS
 62
     7
 10
-614.176775569515
 20
4.95749764886969
 30
0.0
 40
0.874999581588754
  0
ARC
  5
   1FD
  8
0
  6
CONTINUOUS
 62
     7
 10
-615.176775532268
 20
-4.54250330509161
 30
0.0
 40
0.500000053060852
 50
180.000006024791
 51
269.999989483217
  0
LINE
  5
   1FE
  8
0
  6
DASHDOT
 62
     7
 10
-590.676778345682
 20
75.7574990369109
 30
0.0
 11
-590.676778345682
 21
80.1575035659582
 31
0.0
  0
LINE
  5
   1FF
  8
0
  6
DASHDOT
 62
     7
 10
-590.676775958492
 20
69.457491401131
 30
0.0
 11
-590.676775958492
 21
77.9574927834335
 31
0.0
  0
LINE
  5
   200
  8
0
  6
DASHDOT
 62
     7
 10
-586.426775267341
 20
73.7074920922822
 30
0.0
 11
-594.926776649644
 21
73.7074920922822
 31
0.0
  0
LINE
  5
   201
  8
0
  6
DASHDOT
 62
     7
 10
-568.926745421911
 20
73.7074909858258
 30
0.0
 11
-577.426776544697
 21
73.7074909858258
 31
0.0
  0
LINE
  5
   202
  8
0
  6
DASHDOT
 62
     7
 10
-555.676769713608
 20
75.757506866792
 30
0.0
 11
-555.676769713608
 21
80.1574976282128
 31
0.0
  0
LINE
  5
   203
  8
0
  6
DASHDOT
 62
     7
 10
-555.676772452341
 20
69.4575267509211
 30
0.0
 11
-555.676772452341
 21
77.9574987500394
 31
0.0
  0
LINE
  5
   204
  8
0
  6
DASHDOT
 62
     7
 10
-551.426786452782
 20
73.7075127504802
 30
0.0
 11
-559.9267584519
 21
73.7075127504802
 31
0.0
  0
LINE
  5
   205
  8
0
  6
DASHDOT
 62
     7
 10
-555.676739413456
 20
-3.04262987079207
 30
0.0
 11
-555.676739413456
 21
5.45750222501574
 31
0.0
  0
LINE
  5
   206
  8
0
  6
DASHDOT
 62
     7
 10
-555.676765858962
 20
-5.24249767883722
 30
0.0
 11
-555.676765858962
 21
-0.842505156600158
 31
0.0
  0
CIRCLE
  5
   207
  8
0
  6
CONTINUOUS
 62
     7
 10
-614.176776570207
 20
4.95749535999388
 30
0.0
 40
1.87500067183884
  0
LINE
  5
   208
  8
0
  6
DASHDOT
 62
     7
 10
-614.176776570207
 20
1.58249468815505
 30
0.0
 11
-614.176776570207
 21
8.33249603183273
 31
0.0
  0
LINE
  5
   209
  8
0
  6
DASHDOT
 62
     7
 10
-610.801775898368
 20
4.95749535999389
 30
0.0
 11
-617.551777242046
 21
4.95749535999389
 31
0.0
  0
LINE
  5
   20A
  8
0
  6
CONTINUOUS
 62
     7
 10
-546.926760983304
 20
7.33250808715627
 30
0.0
 11
-616.426760983304
 21
7.33250808715627
 31
0.0
  0
LINE
  5
   20B
  8
0
  6
CONTINUOUS
 62
     3
 10
-547.176768612699
 20
62.5825004577617
 30
0.0
 11
-599.176760983304
 21
62.5825004577617
 31
0.0
  0
LINE
  5
   20C
  8
0
  6
CONTINUOUS
 62
     3
 10
-547.176768612699
 20
10.0825080871565
 30
0.0
 11
-553.926768582897
 21
10.0825080871565
 31
0.0
  0
LINE
  5
   20D
  8
0
  6
CONTINUOUS
 62
     3
 10
-559.676768612699
 20
10.0825080871561
 30
0.0
 11
-571.952121561064
 21
10.0825080871561
 31
0.0
  0
LINE
  5
   20E
  8
0
  6
CONTINUOUS
 62
     3
 10
-592.426760983304
 20
10.0825080871428
 30
0.0
 11
-599.176760983304
 21
10.0825080871428
 31
0.0
  0
LINE
  5
   20F
  8
0
  6
CONTINUOUS
 62
     7
 10
-616.426760983304
 20
7.33250808715628
 30
0.0
 11
-616.426760983304
 21
7.83250808715628
 31
0.0
  0
LINE
  5
   210
  8
0
  6
CONTINUOUS
 62
     7
 10
-558.176739413456
 20
7.83250812383609
 30
0.0
 11
-616.926781274971
 21
7.83250812383609
 31
0.0
  0
LINE
  5
   211
  8
0
  6
CONTINUOUS
 62
     3
 10
-586.676760983304
 20
10.0825080871548
 30
0.0
 11
-592.426760983304
 21
10.0825080871548
 31
0.0
  0
LINE
  5
   212
  8
0
  6
CONTINUOUS
 62
     3
 10
-553.926768612699
 20
10.0825080871566
 30
0.0
 11
-559.676768612699
 21
10.0825080871566
 31
0.0
  0
ARC
  5
   213
  8
0
  6
CONTINUOUS
 62
     3
 10
-599.176760983304
 20
10.3325080871428
 30
0.0
 40
0.25
 50
179.999999948034
 51
269.999999948034
  0
ARC
  5
   214
  8
0
  6
CONTINUOUS
 62
     3
 10
-599.176760983304
 20
62.3325004577617
 30
0.0
 40
0.25
 50
449.999999948034
 51
539.999999948034
  0
ARC
  5
   215
  8
0
  6
CONTINUOUS
 62
     3
 10
-547.176768612699
 20
62.3325004577617
 30
0.0
 40
0.25
 50
359.999999948034
 51
449.999999948034
  0
ARC
  5
   216
  8
0
  6
CONTINUOUS
 62
     3
 10
-547.176768612699
 20
10.3325080871565
 30
0.0
 40
0.25
 50
269.999999948034
 51
359.999999948034
  0
LINE
  5
   217
  8
0
  6
DASHDOT
 62
     7
 10
-573.176760983304
 20
62.5825004577617
 30
0.0
 11
-573.176760983304
 21
70.0142865281767
 31
0.0
  0
LINE
  5
   218
  8
0
  6
CONTINUOUS
 62
     3
 10
-574.401486109212
 20
10.0825080871561
 30
0.0
 11
-586.676760983304
 21
10.0825080871561
 31
0.0
  0
LINE
  5
   219
  8
0
  6
CONTINUOUS
 62
     7
 10
-586.926768612699
 20
10.0825004577617
 30
0.0
 11
-591.926760983304
 21
10.0825004577617
 31
0.0
  0
LINE
  5
   21A
  8
0
  6
CONTINUOUS
 62
     7
 10
-554.426776242093
 20
10.0825004577617
 30
0.0
 11
-559.426776242093
 21
10.0825004577617
 31
0.0
  0
LINE
  5
   21B
  8
0
  6
CONTINUOUS
 62
     7
 10
-546.926760983304
 20
-3.64250338077545
 30
0.0
 11
-546.926760983304
 21
19.3324928283672
 31
0.0
  0
LINE
  5
   21C
  8
0
  6
CONTINUOUS
 62
     7
 10
-599.426760983304
 20
10.3325004577617
 30
0.0
 11
-599.426760983304
 21
19.3324928283672
 31
0.0
  0
LINE
  5
   21D
  8
0
  6
CONTINUOUS
 62
     7
 10
-547.176760983304
 20
62.5825004577617
 30
0.0
 11
-599.17676098329
 21
62.5825004577617
 31
0.0
  0
LINE
  5
   21E
  8
0
  6
CONTINUOUS
 62
     7
 10
-591.926760983304
 20
10.0825004577617
 30
0.0
 11
-599.176760983304
 21
10.0825004577617
 31
0.0
  0
LINE
  5
   21F
  8
0
  6
CONTINUOUS
 62
     7
 10
-559.426776242093
 20
10.0825004577617
 30
0.0
 11
-586.926768612699
 21
10.0825004577617
 31
0.0
  0
LINE
  5
   220
  8
0
  6
CONTINUOUS
 62
     7
 10
-547.176760983304
 20
10.0825004577617
 30
0.0
 11
-554.426776242093
 21
10.0825004577617
 31
0.0
  0
LINE
  5
   221
  8
0
  6
CONTINUOUS
 62
     7
 10
-567.801760983304
 20
21.2074928283672
 30
0.0
 11
-567.801760983304
 21
41.2074851989727
 31
0.0
  0
LINE
  5
   222
  8
0
  6
CONTINUOUS
 62
     7
 10
-578.551760983304
 20
21.2074928283672
 30
0.0
 11
-578.551760983304
 21
41.2074851989727
 31
0.0
  0
LINE
  5
   223
  8
0
  6
CONTINUOUS
 62
     7
 10
-546.926760983304
 20
56.5824851989727
 30
0.0
 11
-599.426760983304
 21
56.5824851989727
 31
0.0
  0
LINE
  5
   224
  8
0
  6
CONTINUOUS
 62
     7
 10
-546.926760983304
 20
61.5824851989727
 30
0.0
 11
-599.426760983304
 21
61.5824851989727
 31
0.0
  0
LINE
  5
   225
  8
0
  6
CONTINUOUS
 62
     7
 10
-567.801760983304
 20
41.0752525329571
 30
0.0
 11
-578.551760983304
 21
41.0752525329571
 31
0.0
  0
LINE
  5
   226
  8
0
  6
CONTINUOUS
 62
     7
 10
-567.801760983304
 20
41.2074851989727
 30
0.0
 11
-578.551760983304
 21
41.2074851989727
 31
0.0
  0
LINE
  5
   227
  8
0
  6
CONTINUOUS
 62
     7
 10
-567.801760983304
 20
21.2074928283672
 30
0.0
 11
-578.551760983304
 21
21.2074928283672
 31
0.0
  0
LINE
  5
   228
  8
0
  6
CONTINUOUS
 62
     7
 10
-567.801760983304
 20
21.3397407531719
 30
0.0
 11
-578.551760983304
 21
21.3397407531719
 31
0.0
  0
LINE
  5
   229
  8
0
  6
DASHDOT
 62
     7
 10
-573.176760983304
 20
-30.1275630011068
 30
0.0
 11
-573.176760983304
 21
81.5400947714107
 31
0.0
  0
LINE
  5
   22A
  8
0
  6
DASHDOT
 62
     7
 10
-573.176760983304
 20
80.939460695716
 30
0.0
 11
-573.176760983304
 21
90.4340625101702
 31
0.0
  0
LINE
  5
   22B
  8
0
  6
CONTINUOUS
 62
     7
 10
-546.926768612699
 20
19.8324928283672
 30
0.0
 11
-546.926768612699
 21
25.832488851748
 31
0.0
  0
LINE
  5
   22C
  8
0
  6
CONTINUOUS
 62
     7
 10
-546.926768612699
 20
43.0824928283672
 30
0.0
 11
-546.926768612699
 21
62.3325004577617
 31
0.0
  0
LINE
  5
   22D
  8
0
  6
CONTINUOUS
 62
     7
 10
-546.926768612699
 20
26.332488851748
 30
0.0
 11
-546.926768612699
 21
36.0824928283672
 31
0.0
  0
LINE
  5
   22E
  8
0
  6
CONTINUOUS
 62
     7
 10
-546.926768612699
 20
36.5824928283672
 30
0.0
 11
-546.926768612699
 21
42.5824928283672
 31
0.0
  0
LINE
  5
   22F
  8
0
  6
CONTINUOUS
 62
     7
 10
-599.426760983307
 20
19.8324928283672
 30
0.0
 11
-599.426760983307
 21
25.8324928283683
 31
0.0
  0
LINE
  5
   230
  8
0
  6
CONTINUOUS
 62
     7
 10
-599.426760983316
 20
26.3324928283683
 30
0.0
 11
-599.426760983316
 21
36.0824928283672
 31
0.0
  0
LINE
  5
   231
  8
0
  6
CONTINUOUS
 62
     7
 10
-599.426760983302
 20
36.5824928283672
 30
0.0
 11
-599.426760983302
 21
42.5824928283672
 31
0.0
  0
LINE
  5
   232
  8
0
  6
CONTINUOUS
 62
     7
 10
-599.42676098329
 20
43.0824928283672
 30
0.0
 11
-599.42676098329
 21
62.3325004577617
 31
0.0
  0
LINE
  5
   233
  8
0
  6
CONTINUOUS
 62
     7
 10
-578.551764970166
 20
25.8325024460793
 30
0.0
 11
-598.926761013107
 21
25.8325024460793
 31
0.0
  0
LINE
  5
   234
  8
0
  6
CONTINUOUS
 62
     7
 10
-546.926768612699
 20
25.8324984694562
 30
0.0
 11
-547.426768612699
 21
25.8324984694562
 31
0.0
  0
LINE
  5
   235
  8
0
  6
CONTINUOUS
 62
     7
 10
-578.55177474971
 20
26.3325024460823
 30
0.0
 11
-598.926761013107
 21
26.3325024460823
 31
0.0
  0
LINE
  5
   236
  8
0
  6
CONTINUOUS
 62
     7
 10
-546.926768612699
 20
26.3324984694562
 30
0.0
 11
-547.426768612699
 21
26.3324984694562
 31
0.0
  0
LINE
  5
   237
  8
0
  6
CONTINUOUS
 62
     7
 10
-598.926761013107
 20
25.8324928283672
 30
0.0
 11
-598.926761013107
 21
26.3324928283672
 31
0.0
  0
LINE
  5
   238
  8
0
  6
CONTINUOUS
 62
     7
 10
-547.426768612699
 20
25.8324928283672
 30
0.0
 11
-547.426768612699
 21
26.3324928283672
 31
0.0
  0
LINE
  5
   239
  8
0
  6
CONTINUOUS
 62
     7
 10
-546.926760983304
 20
19.3324928283672
 30
0.0
 11
-547.426768612699
 21
19.3324928283672
 31
0.0
  0
LINE
  5
   23A
  8
0
  6
CONTINUOUS
 62
     7
 10
-546.926768612699
 20
19.8324928283672
 30
0.0
 11
-547.426768612699
 21
19.8324928283672
 31
0.0
  0
LINE
  5
   23B
  8
0
  6
CONTINUOUS
 62
     7
 10
-598.926761013107
 20
19.3324928283672
 30
0.0
 11
-598.926761013107
 21
19.8324928283672
 31
0.0
  0
LINE
  5
   23C
  8
0
  6
CONTINUOUS
 62
     7
 10
-547.426768612699
 20
19.3324928283672
 30
0.0
 11
-547.426768612699
 21
19.8324928283672
 31
0.0
  0
LINE
  5
   23D
  8
0
  6
CONTINUOUS
 62
     7
 10
-546.926768612699
 20
42.5824928283672
 30
0.0
 11
-547.426768612699
 21
42.5824928283672
 31
0.0
  0
LINE
  5
   23E
  8
0
  6
CONTINUOUS
 62
     7
 10
-546.926768612699
 20
43.0824928283672
 30
0.0
 11
-547.426768612699
 21
43.0824928283672
 31
0.0
  0
LINE
  5
   23F
  8
0
  6
CONTINUOUS
 62
     7
 10
-598.926761013107
 20
42.5824928283672
 30
0.0
 11
-598.926761013107
 21
43.0824928283672
 31
0.0
  0
LINE
  5
   240
  8
0
  6
CONTINUOUS
 62
     7
 10
-547.426768612699
 20
42.5824928283672
 30
0.0
 11
-547.426768612699
 21
43.0824928283672
 31
0.0
  0
LINE
  5
   241
  8
0
  6
CONTINUOUS
 62
     7
 10
-578.551764947013
 20
36.0824928283672
 30
0.0
 11
-598.926761013107
 21
36.0824928283672
 31
0.0
  0
LINE
  5
   242
  8
0
  6
CONTINUOUS
 62
     7
 10
-546.926768612699
 20
36.0824928283672
 30
0.0
 11
-547.426768612699
 21
36.0824928283672
 31
0.0
  0
LINE
  5
   243
  8
0
  6
CONTINUOUS
 62
     7
 10
-578.551760983304
 20
36.5824928283672
 30
0.0
 11
-598.926761013107
 21
36.5824928283672
 31
0.0
  0
LINE
  5
   244
  8
0
  6
CONTINUOUS
 62
     7
 10
-546.926768612699
 20
36.5824928283672
 30
0.0
 11
-547.426768612699
 21
36.5824928283672
 31
0.0
  0
LINE
  5
   245
  8
0
  6
CONTINUOUS
 62
     7
 10
-598.926761013107
 20
36.0824928283672
 30
0.0
 11
-598.926761013107
 21
36.5824928283672
 31
0.0
  0
LINE
  5
   246
  8
0
  6
CONTINUOUS
 62
     7
 10
-547.426768612699
 20
36.0824928283672
 30
0.0
 11
-547.426768612699
 21
36.5824928283672
 31
0.0
  0
ARC
  5
   247
  8
0
  6
CONTINUOUS
 62
     7
 10
-599.176760983304
 20
10.3325004577617
 30
0.0
 40
0.25
 50
179.999999948034
 51
269.999999948034
  0
ARC
  5
   248
  8
0
  6
CONTINUOUS
 62
     7
 10
-547.176760983304
 20
10.3325004577617
 30
0.0
 40
0.25
 50
269.999999948034
 51
359.999999948034
  0
ARC
  5
   249
  8
0
  6
CONTINUOUS
 62
     7
 10
-547.176760983304
 20
62.3325004577617
 30
0.0
 40
0.25
 50
359.999999948034
 51
449.999999948034
  0
ARC
  5
   24A
  8
0
  6
CONTINUOUS
 62
     7
 10
-599.17676098329
 20
62.3325004577617
 30
0.0
 40
0.25
 50
449.999999948034
 51
539.999999948034
  0
LINE
  5
   24B
  8
0
  6
CONTINUOUS
 62
     7
 10
-584.426760983304
 20
41.8324928283672
 30
0.0
 11
-585.176760983304
 21
41.8324928283672
 31
0.0
  0
LINE
  5
   24C
  8
0
  6
CONTINUOUS
 62
     7
 10
-584.426760983304
 20
37.3324928283672
 30
0.0
 11
-585.176760983304
 21
37.3324928283672
 31
0.0
  0
CIRCLE
  5
   24D
  8
0
  6
CONTINUOUS
 62
     7
 10
-584.801760983304
 20
22.8324928283672
 30
0.0
 40
2.25
  0
CIRCLE
  5
   24E
  8
0
  6
CONTINUOUS
 62
     7
 10
-584.801760983304
 20
22.8324928283672
 30
0.0
 40
1.5
  0
LINE
  5
   24F
  8
0
  6
CONTINUOUS
 62
     7
 10
-585.176760983304
 20
37.3324928283672
 30
0.0
 11
-585.176760983304
 21
41.8324928283672
 31
0.0
  0
LINE
  5
   250
  8
0
  6
CONTINUOUS
 62
     7
 10
-584.426760983304
 20
37.3324928283672
 30
0.0
 11
-584.426760983304
 21
41.8324928283672
 31
0.0
  0
LINE
  5
   251
  8
0
  6
CONTINUOUS
 62
     7
 10
-579.926760983304
 20
19.8324928283672
 30
0.0
 11
-579.926760983304
 21
25.83249997295
 31
0.0
  0
LINE
  5
   252
  8
0
  6
CONTINUOUS
 62
     7
 10
-566.426760983304
 20
19.8324928283672
 30
0.0
 11
-566.426760983304
 21
25.8324959963268
 31
0.0
  0
LINE
  5
   253
  8
0
  6
CONTINUOUS
 62
     7
 10
-566.426760983304
 20
36.5824928283672
 30
0.0
 11
-566.426760983304
 21
42.5824928283672
 31
0.0
  0
LINE
  5
   254
  8
0
  6
CONTINUOUS
 62
     7
 10
-579.926760983304
 20
36.5824928283672
 30
0.0
 11
-579.926760983304
 21
42.5824928283672
 31
0.0
  0
LINE
  5
   255
  8
0
  6
CONTINUOUS
 62
     7
 10
-560.401765866117
 20
24.7574928283672
 30
0.0
 11
-560.626765866117
 21
24.7574928283672
 31
0.0
  0
LINE
  5
   256
  8
0
  6
CONTINUOUS
 62
     7
 10
-560.876765866117
 20
20.9074928283672
 30
0.0
 11
-561.276765866117
 21
20.9074928283672
 31
0.0
  0
LINE
  5
   257
  8
0
  6
CONTINUOUS
 62
     7
 10
-564.476765866117
 20
22.2074928283672
 30
0.0
 11
-564.476765866117
 21
22.4574928283672
 31
0.0
  0
LINE
  5
   258
  8
0
  6
CONTINUOUS
 62
     7
 10
-561.876765866117
 20
22.2074928283672
 30
0.0
 11
-561.876765866117
 21
22.4574928283672
 31
0.0
  0
ARC
  5
   259
  8
0
  6
CONTINUOUS
 62
     7
 10
-563.176765866117
 20
22.4574928283672
 30
0.0
 40
1.3
 50
359.999999948034
 51
539.999999948034
  0
ARC
  5
   25A
  8
0
  6
CONTINUOUS
 62
     7
 10
-563.176765866117
 20
22.2074928283672
 30
0.0
 40
1.3
 50
179.999999948034
 51
359.999999948034
  0
ARC
  5
   25B
  8
0
  6
CONTINUOUS
 62
     7
 10
-563.176765866117
 20
22.4574928283672
 30
0.0
 40
0.900000000000001
 50
359.999999948034
 51
539.999999948034
  0
ARC
  5
   25C
  8
0
  6
CONTINUOUS
 62
     7
 10
-563.176765866117
 20
22.2074928283672
 30
0.0
 40
0.899999999999999
 50
179.999999948034
 51
359.999999948034
  0
LINE
  5
   25D
  8
0
  6
CONTINUOUS
 62
     7
 10
-564.076765866117
 20
22.2074928283672
 30
0.0
 11
-564.076765866117
 21
22.4574928283672
 31
0.0
  0
LINE
  5
   25E
  8
0
  6
CONTINUOUS
 62
     7
 10
-562.276765866117
 20
22.2074928283672
 30
0.0
 11
-562.276765866117
 21
22.4574928283672
 31
0.0
  0
LINE
  5
   25F
  8
0
  6
CONTINUOUS
 62
     7
 10
-561.751765866117
 20
23.1574928283672
 30
0.0
 11
-561.751765866117
 21
23.5574928283672
 31
0.0
  0
LINE
  5
   260
  8
0
  6
CONTINUOUS
 62
     7
 10
-561.276765866117
 20
23.1574928283672
 30
0.0
 11
-561.751765866117
 21
23.1574928283672
 31
0.0
  0
LINE
  5
   261
  8
0
  6
CONTINUOUS
 62
     7
 10
-560.401765866117
 20
23.1574928283672
 30
0.0
 11
-560.401765866117
 21
23.5574928283672
 31
0.0
  0
LINE
  5
   262
  8
0
  6
CONTINUOUS
 62
     7
 10
-561.276765866117
 20
23.5574928283672
 30
0.0
 11
-561.751765866117
 21
23.5574928283672
 31
0.0
  0
LINE
  5
   263
  8
0
  6
CONTINUOUS
 62
     7
 10
-561.276765866117
 20
20.9074928283672
 30
0.0
 11
-561.276765866117
 21
23.1574928283672
 31
0.0
  0
LINE
  5
   264
  8
0
  6
CONTINUOUS
 62
     7
 10
-560.876765866117
 20
20.9074928283672
 30
0.0
 11
-560.876765866117
 21
23.1574928283672
 31
0.0
  0
LINE
  5
   265
  8
0
  6
CONTINUOUS
 62
     7
 10
-560.401765866117
 20
23.1574928283672
 30
0.0
 11
-560.876765866117
 21
23.1574928283672
 31
0.0
  0
LINE
  5
   266
  8
0
  6
CONTINUOUS
 62
     7
 10
-560.401765866117
 20
23.5574928283672
 30
0.0
 11
-560.876765866117
 21
23.5574928283672
 31
0.0
  0
LINE
  5
   267
  8
0
  6
CONTINUOUS
 62
     7
 10
-561.276765866117
 20
23.5574928283672
 30
0.0
 11
-561.276765866117
 21
24.1074928283672
 31
0.0
  0
LINE
  5
   268
  8
0
  6
CONTINUOUS
 62
     7
 10
-560.876765866117
 20
23.5574928283672
 30
0.0
 11
-560.876765866117
 21
24.1074928283672
 31
0.0
  0
ARC
  5
   269
  8
0
  6
CONTINUOUS
 62
     7
 10
-560.626765866117
 20
24.1074928283672
 30
0.0
 40
0.65
 50
449.999999948034
 51
539.999999948034
  0
ARC
  5
   26A
  8
0
  6
CONTINUOUS
 62
     7
 10
-560.626765866117
 20
24.1074928283672
 30
0.0
 40
0.25
 50
449.999999948034
 51
539.999999948034
  0
LINE
  5
   26B
  8
0
  6
CONTINUOUS
 62
     7
 10
-560.401765866117
 20
24.3574928283672
 30
0.0
 11
-560.401765866117
 21
24.7574928283672
 31
0.0
  0
LINE
  5
   26C
  8
0
  6
CONTINUOUS
 62
     7
 10
-560.401765866117
 20
24.3574928283672
 30
0.0
 11
-560.626765866117
 21
24.3574928283672
 31
0.0
  0
LINE
  5
   26D
  8
0
  6
CONTINUOUS
 62
     7
 10
-558.801765866117
 20
24.7574928283672
 30
0.0
 11
-559.026765866117
 21
24.7574928283672
 31
0.0
  0
LINE
  5
   26E
  8
0
  6
CONTINUOUS
 62
     7
 10
-559.276765866117
 20
20.9074928283672
 30
0.0
 11
-559.676765866117
 21
20.9074928283672
 31
0.0
  0
LINE
  5
   26F
  8
0
  6
CONTINUOUS
 62
     7
 10
-560.151765866117
 20
23.1574928283672
 30
0.0
 11
-560.151765866117
 21
23.5574928283672
 31
0.0
  0
LINE
  5
   270
  8
0
  6
CONTINUOUS
 62
     7
 10
-559.676765866117
 20
23.1574928283672
 30
0.0
 11
-560.151765866117
 21
23.1574928283672
 31
0.0
  0
LINE
  5
   271
  8
0
  6
CONTINUOUS
 62
     7
 10
-558.801765866117
 20
23.1574928283672
 30
0.0
 11
-558.801765866117
 21
23.5574928283672
 31
0.0
  0
LINE
  5
   272
  8
0
  6
CONTINUOUS
 62
     7
 10
-559.676765866117
 20
23.5574928283672
 30
0.0
 11
-560.151765866117
 21
23.5574928283672
 31
0.0
  0
LINE
  5
   273
  8
0
  6
CONTINUOUS
 62
     7
 10
-559.676765866117
 20
20.9074928283672
 30
0.0
 11
-559.676765866117
 21
23.1574928283672
 31
0.0
  0
LINE
  5
   274
  8
0
  6
CONTINUOUS
 62
     7
 10
-559.276765866117
 20
20.9074928283672
 30
0.0
 11
-559.276765866117
 21
23.1574928283672
 31
0.0
  0
LINE
  5
   275
  8
0
  6
CONTINUOUS
 62
     7
 10
-558.801765866117
 20
23.1574928283672
 30
0.0
 11
-559.276765866117
 21
23.1574928283672
 31
0.0
  0
LINE
  5
   276
  8
0
  6
CONTINUOUS
 62
     7
 10
-558.801765866117
 20
23.5574928283672
 30
0.0
 11
-559.276765866117
 21
23.5574928283672
 31
0.0
  0
LINE
  5
   277
  8
0
  6
CONTINUOUS
 62
     7
 10
-559.676765866117
 20
23.5574928283672
 30
0.0
 11
-559.676765866117
 21
24.1074928283672
 31
0.0
  0
LINE
  5
   278
  8
0
  6
CONTINUOUS
 62
     7
 10
-559.276765866117
 20
23.5574928283672
 30
0.0
 11
-559.276765866117
 21
24.1074928283672
 31
0.0
  0
ARC
  5
   279
  8
0
  6
CONTINUOUS
 62
     7
 10
-559.026765866117
 20
24.1074928283672
 30
0.0
 40
0.65
 50
449.999999948034
 51
539.999999948034
  0
ARC
  5
   27A
  8
0
  6
CONTINUOUS
 62
     7
 10
-559.026765866117
 20
24.1074928283672
 30
0.0
 40
0.25
 50
449.999999948034
 51
539.999999948034
  0
LINE
  5
   27B
  8
0
  6
CONTINUOUS
 62
     7
 10
-558.801765866117
 20
24.3574928283672
 30
0.0
 11
-558.801765866117
 21
24.7574928283672
 31
0.0
  0
LINE
  5
   27C
  8
0
  6
CONTINUOUS
 62
     7
 10
-558.801765866117
 20
24.3574928283672
 30
0.0
 11
-559.026765866117
 21
24.3574928283672
 31
0.0
  0
LINE
  5
   27D
  8
0
  6
CONTINUOUS
 62
     7
 10
-561.076765866117
 20
38.1574928283672
 30
0.0
 11
-561.476765866117
 21
38.1574928283672
 31
0.0
  0
ARC
  5
   27E
  8
0
  6
CONTINUOUS
 62
     7
 10
-563.176765866117
 20
39.7074928283672
 30
0.0
 40
1.3
 50
359.999999948034
 51
539.999999948034
  0
ARC
  5
   27F
  8
0
  6
CONTINUOUS
 62
     7
 10
-563.176765866117
 20
39.7074928283672
 30
0.0
 40
0.900000000000001
 50
359.999999948034
 51
539.999999948034
  0
ARC
  5
   280
  8
0
  6
CONTINUOUS
 62
     7
 10
-563.176765866117
 20
39.4574928283672
 30
0.0
 40
1.3
 50
179.999999948034
 51
359.999999948034
  0
ARC
  5
   281
  8
0
  6
CONTINUOUS
 62
     7
 10
-563.176765866117
 20
39.4574928283672
 30
0.0
 40
0.899999999999999
 50
179.999999948034
 51
359.999999948034
  0
LINE
  5
   282
  8
0
  6
CONTINUOUS
 62
     7
 10
-562.276765866117
 20
39.4574928283672
 30
0.0
 11
-562.276765866117
 21
39.7074928283672
 31
0.0
  0
LINE
  5
   283
  8
0
  6
CONTINUOUS
 62
     7
 10
-561.876765866117
 20
39.4574928283672
 30
0.0
 11
-561.876765866117
 21
39.7074928283672
 31
0.0
  0
LINE
  5
   284
  8
0
  6
CONTINUOUS
 62
     7
 10
-564.076765866117
 20
39.4574928283672
 30
0.0
 11
-564.076765866117
 21
39.7074928283672
 31
0.0
  0
LINE
  5
   285
  8
0
  6
CONTINUOUS
 62
     7
 10
-564.476765866117
 20
39.4574928283672
 30
0.0
 11
-564.476765866117
 21
39.7074928283672
 31
0.0
  0
LINE
  5
   286
  8
0
  6
CONTINUOUS
 62
     7
 10
-561.476765866117
 20
38.1574928283672
 30
0.0
 11
-561.476765866117
 21
41.0074928283672
 31
0.0
  0
LINE
  5
   287
  8
0
  6
CONTINUOUS
 62
     7
 10
-561.076765866117
 20
38.1574928283672
 30
0.0
 11
-561.076765866117
 21
39.9074928283672
 31
0.0
  0
LINE
  5
   288
  8
0
  6
CONTINUOUS
 62
     7
 10
-559.676765866117
 20
38.1574928283672
 30
0.0
 11
-559.676765866117
 21
39.9074928283672
 31
0.0
  0
LINE
  5
   289
  8
0
  6
CONTINUOUS
 62
     7
 10
-559.276765866117
 20
38.1574928283672
 30
0.0
 11
-559.276765866117
 21
40.0074928283672
 31
0.0
  0
LINE
  5
   28A
  8
0
  6
CONTINUOUS
 62
     7
 10
-561.076765866117
 20
41.0074928283672
 30
0.0
 11
-561.476765866117
 21
41.0074928283672
 31
0.0
  0
ARC
  5
   28B
  8
0
  6
CONTINUOUS
 62
     7
 10
-560.376765866117
 20
39.9074928283672
 30
0.0
 40
0.699999999999999
 50
359.999999948034
 51
539.999999948034
  0
LINE
  5
   28C
  8
0
  6
CONTINUOUS
 62
     7
 10
-561.076765866117
 20
40.6074928283672
 30
0.0
 11
-561.076765866117
 21
41.0074928283672
 31
0.0
  0
ARC
  5
   28D
  8
0
  6
CONTINUOUS
 62
     7
 10
-560.276765866117
 20
40.0074928283672
 30
0.0
 40
1.0
 50
359.999999948034
 51
503.13010230219
  0
LINE
  5
   28E
  8
0
  6
CONTINUOUS
 62
     7
 10
-559.276765866117
 20
38.1574928283672
 30
0.0
 11
-559.676765866117
 21
38.1574928283672
 31
0.0
  0
LINE
  5
   28F
  8
0
  6
CONTINUOUS
 62
     7
 10
-582.801778540387
 20
78.4574966430664
 30
0.0
 11
-582.801778540387
 21
79.9574966430664
 31
0.0
  0
LINE
  5
   290
  8
0
  6
CONTINUOUS
 62
     7
 10
-581.051778540387
 20
78.4574966430664
 30
0.0
 11
-581.051778540387
 21
79.9574966430664
 31
0.0
  0
LINE
  5
   291
  8
0
  6
CONTINUOUS
 62
     7
 10
-583.176778540387
 20
76.7074966430664
 30
0.0
 11
-583.176778540387
 21
78.4574966430664
 31
0.0
  0
LINE
  5
   292
  8
0
  6
CONTINUOUS
 62
     7
 10
-580.676778540387
 20
76.7074966430664
 30
0.0
 11
-580.676778540387
 21
78.4574966430664
 31
0.0
  0
LINE
  5
   293
  8
0
  6
CONTINUOUS
 62
     7
 10
-580.676778540387
 20
78.4574966430664
 30
0.0
 11
-581.051778540387
 21
78.4574966430664
 31
0.0
  0
LINE
  5
   294
  8
0
  6
CONTINUOUS
 62
     7
 10
-582.801778540387
 20
78.4574966430664
 30
0.0
 11
-583.176778540387
 21
78.4574966430664
 31
0.0
  0
LINE
  5
   295
  8
0
  6
CONTINUOUS
 62
     7
 10
-565.301743426222
 20
78.4574966430664
 30
0.0
 11
-565.301743426222
 21
79.9574966430664
 31
0.0
  0
LINE
  5
   296
  8
0
  6
CONTINUOUS
 62
     7
 10
-563.551743426222
 20
78.4574966430664
 30
0.0
 11
-563.551743426222
 21
79.9574966430664
 31
0.0
  0
LINE
  5
   297
  8
0
  6
CONTINUOUS
 62
     7
 10
-563.176743426222
 20
76.7074966430664
 30
0.0
 11
-563.176743426222
 21
78.4574966430664
 31
0.0
  0
LINE
  5
   298
  8
0
  6
CONTINUOUS
 62
     7
 10
-563.176743426222
 20
76.7074966430664
 30
0.0
 11
-565.676743426222
 21
76.7074966430664
 31
0.0
  0
LINE
  5
   299
  8
0
  6
CONTINUOUS
 62
     7
 10
-565.676743426222
 20
76.7074966430664
 30
0.0
 11
-565.676743426222
 21
78.4574966430664
 31
0.0
  0
LINE
  5
   29A
  8
0
  6
CONTINUOUS
 62
     7
 10
-563.176743426222
 20
78.4574966430664
 30
0.0
 11
-563.551743426222
 21
78.4574966430664
 31
0.0
  0
LINE
  5
   29B
  8
0
  6
CONTINUOUS
 62
     7
 10
-565.301743426222
 20
78.4574966430664
 30
0.0
 11
-565.676743426222
 21
78.4574966430664
 31
0.0
  0
LINE
  5
   29C
  8
0
  6
CONTINUOUS
 62
     7
 10
-598.926761013107
 20
43.0824928283672
 30
0.0
 11
-599.42676098329
 21
43.0824928283672
 31
0.0
  0
LINE
  5
   29D
  8
0
  6
CONTINUOUS
 62
     7
 10
-598.926761013107
 20
42.5824928283672
 30
0.0
 11
-599.426760983302
 21
42.5824928283672
 31
0.0
  0
LINE
  5
   29E
  8
0
  6
CONTINUOUS
 62
     7
 10
-598.926761013107
 20
36.5824928283672
 30
0.0
 11
-599.426760983302
 21
36.5824928283672
 31
0.0
  0
LINE
  5
   29F
  8
0
  6
CONTINUOUS
 62
     7
 10
-598.926761013107
 20
36.0824928283672
 30
0.0
 11
-599.426760983316
 21
36.0824928283672
 31
0.0
  0
LINE
  5
   2A0
  8
0
  6
CONTINUOUS
 62
     7
 10
-598.926761013107
 20
26.3325024460823
 30
0.0
 11
-599.426760983316
 21
26.3325024460823
 31
0.0
  0
LINE
  5
   2A1
  8
0
  6
CONTINUOUS
 62
     7
 10
-598.926761013107
 20
25.8325024460793
 30
0.0
 11
-599.426760983307
 21
25.8325024460793
 31
0.0
  0
LINE
  5
   2A2
  8
0
  6
CONTINUOUS
 62
     7
 10
-598.926761013107
 20
19.8324928283672
 30
0.0
 11
-599.426760983307
 21
19.8324928283672
 31
0.0
  0
LINE
  5
   2A3
  8
0
  6
CONTINUOUS
 62
     7
 10
-598.926761013107
 20
19.3324928283672
 30
0.0
 11
-599.426760983304
 21
19.3324928283672
 31
0.0
  0
LINE
  5
   2A4
  8
0
  6
CONTINUOUS
 62
     7
 10
-547.426768612699
 20
43.0824928283672
 30
0.0
 11
-598.926761013107
 21
43.0824928283672
 31
0.0
  0
LINE
  5
   2A5
  8
0
  6
CONTINUOUS
 62
     7
 10
-547.426768612699
 20
42.5824928283672
 30
0.0
 11
-598.926761013107
 21
42.5824928283672
 31
0.0
  0
LINE
  5
   2A6
  8
0
  6
CONTINUOUS
 62
     7
 10
-547.426768612699
 20
36.5824928283672
 30
0.0
 11
-567.801760983304
 21
36.5824928283672
 31
0.0
  0
LINE
  5
   2A7
  8
0
  6
CONTINUOUS
 62
     7
 10
-547.426768612699
 20
36.0824928283672
 30
0.0
 11
-567.801760983304
 21
36.0824928283672
 31
0.0
  0
LINE
  5
   2A8
  8
0
  6
CONTINUOUS
 62
     7
 10
-547.426768612699
 20
26.3324984694562
 30
0.0
 11
-567.801762475684
 21
26.3324984694562
 31
0.0
  0
LINE
  5
   2A9
  8
0
  6
CONTINUOUS
 62
     7
 10
-547.426768612699
 20
25.8324984694562
 30
0.0
 11
-567.801762658878
 21
25.8324984694562
 31
0.0
  0
LINE
  5
   2AA
  8
0
  6
CONTINUOUS
 62
     7
 10
-547.426768612699
 20
19.8324928283672
 30
0.0
 11
-598.926761013107
 21
19.8324928283672
 31
0.0
  0
LINE
  5
   2AB
  8
0
  6
CONTINUOUS
 62
     7
 10
-547.426768612699
 20
19.3324928283672
 30
0.0
 11
-598.926761013107
 21
19.3324928283672
 31
0.0
  0
LINE
  5
   2AC
  8
0
  6
CONTINUOUS
 62
     7
 10
-567.801760983304
 20
28.2701531830769
 30
0.0
 11
-578.551760983304
 21
28.2701531830769
 31
0.0
  0
LINE
  5
   2AD
  8
0
  6
CONTINUOUS
 62
     7
 10
-567.801760983304
 20
25.2119204302684
 30
0.0
 11
-578.551760983304
 21
25.2119204302684
 31
0.0
  0
LINE
  5
   2AE
  8
0
  6
CONTINUOUS
 62
     7
 10
-567.801760983304
 20
22.2380111171626
 30
0.0
 11
-578.551760983304
 21
22.2380111171626
 31
0.0
  0
LINE
  5
   2AF
  8
0
  6
CONTINUOUS
 62
     7
 10
-567.801760983304
 20
21.8366375533035
 30
0.0
 11
-578.551760983304
 21
21.8366375533035
 31
0.0
  0
CIRCLE
  5
   2B0
  8
0
  6
CONTINUOUS
 62
     7
 10
-608.176775958492
 20
73.7074920922822
 30
0.0
 40
2.75000069115123
  0
CIRCLE
  5
   2B1
  8
0
  6
CONTINUOUS
 62
     7
 10
-608.176778345682
 20
77.9575013014346
 30
0.0
 40
0.700002264523652
  0
LINE
  5
   2B2
  8
0
  6
CONTINUOUS
 62
     7
 10
-600.301778540387
 20
-5.04250335693376
 30
0.0
 11
-615.176775652902
 21
-5.04250335693376
 31
0.0
  0
CIRCLE
  5
   2B3
  8
0
  6
CONTINUOUS
 62
     7
 10
-608.176767617122
 20
1.20749834674998
 30
0.0
 40
2.74999844531425
  0
CIRCLE
  5
   2B4
  8
0
  6
CONTINUOUS
 62
     7
 10
-608.176769314
 20
-3.04250310377974
 30
0.0
 40
0.700000100813335
  0
LINE
  5
   2B5
  8
0
  6
DASHDOT
 62
     7
 10
-608.176767617122
 20
-24.5734208944227
 30
0.0
 11
-608.176767617122
 21
5.45749679206423
 31
0.0
  0
LINE
  5
   2B6
  8
0
  6
DASHDOT
 62
     7
 10
-608.176769314
 20
-5.24250320459307
 30
0.0
 11
-608.176769314
 21
-0.842503002966399
 31
0.0
  0
LINE
  5
   2B7
  8
0
  6
CONTINUOUS
 62
     7
 10
-598.551778540387
 20
-5.0425033569336
 30
0.0
 11
-598.551778540387
 21
-3.54250335693376
 31
0.0
  0
LINE
  5
   2B8
  8
0
  6
CONTINUOUS
 62
     7
 10
-600.301778540387
 20
-5.0425033569336
 30
0.0
 11
-600.301778540387
 21
-3.54250335693376
 31
0.0
  0
LINE
  5
   2B9
  8
0
  6
DASHDOT
 62
     7
 10
-608.176778345682
 20
72.2574990369109
 30
0.0
 11
-608.176778345682
 21
83.6575035659582
 31
0.0
  0
LINE
  5
   2BA
  8
0
  6
DASHDOT
 62
     7
 10
-600.426775267341
 20
73.7074920922822
 30
0.0
 11
-615.926776649644
 21
73.7074920922822
 31
0.0
  0
LINE
  5
   2BB
  8
0
  6
DASHDOT
 62
     7
 10
-600.426769171808
 20
1.20749834674998
 30
0.0
 11
-615.926766062436
 21
1.20749834674998
 31
0.0
  0
LINE
  5
   2BC
  8
0
  6
DASHDOT
 62
     7
 10
-602.476769213187
 20
-3.04250310377973
 30
0.0
 11
-613.876769414813
 21
-3.04250310377973
 31
0.0
  0
LINE
  5
   2BD
  8
0
  6
CONTINUOUS
 62
     7
 10
-604.82676098329
 20
7.83250812383609
 30
0.0
 11
-604.82676098329
 21
102.957486368224
 31
0.0
  0
LINE
  5
   2BE
  8
0
  6
CONTINUOUS
 62
     7
 10
-608.42676098329
 20
7.83250812383609
 30
0.0
 11
-608.42676098329
 21
102.957486368224
 31
0.0
  0
LINE
  5
   2BF
  8
0
  6
CONTINUOUS
 62
     7
 10
-612.02676098329
 20
7.83250812383609
 30
0.0
 11
-612.02676098329
 21
102.957486368224
 31
0.0
  0
LINE
  5
   2C0
  8
0
  6
CONTINUOUS
 62
     7
 10
-615.62676098329
 20
7.83250812383609
 30
0.0
 11
-615.62676098329
 21
102.957486368224
 31
0.0
  0
LINE
  5
   2C1
  8
0
  6
CONTINUOUS
 62
     7
 10
-599.42676098329
 20
62.5825004577617
 30
0.0
 11
-616.926781274971
 21
62.5825004577617
 31
0.0
  0
LINE
  5
   2C2
  8
0
  6
CONTINUOUS
 62
     7
 10
-599.426760983304
 20
10.0825004577617
 30
0.0
 11
-616.926781274971
 21
10.0825004577617
 31
0.0
  0
LINE
  5
   2C3
  8
0
  6
DASHDOT
 62
     5
 10
-531.010889496004
 20
36.3325004577617
 30
0.0
 11
-621.786269081752
 21
36.3325004577617
 31
0.0
  0
LINE
  5
   2C4
  8
0
  6
CONTINUOUS
 62
     7
 10
-546.926760983304
 20
67.8324966430664
 30
0.0
 11
-616.926781274971
 21
67.8324966430664
 31
0.0
  0
LINE
  5
   2C5
  8
0
  6
CONTINUOUS
 62
     1
 10
-565.45344606977
 20
-28.0425033569335
 30
0.0
 11
-591.477243173829
 21
-28.0425033569335
 31
0.0
  0
LINE
  5
   2C6
  8
0
  6
CONTINUOUS
 62
     1
 10
-564.926760983304
 20
-17.6587284560577
 30
0.0
 11
-564.926760983304
 21
-12.193294490576
 31
0.0
  0
LINE
  5
   2C7
  8
0
  6
CONTINUOUS
 62
     1
 10
-566.726760983304
 20
-28.0425033569335
 30
0.0
 11
-566.726760983304
 21
-21.8530856467992
 31
0.0
  0
LINE
  5
   2C8
  8
0
  6
CONTINUOUS
 62
     1
 10
-568.526760983304
 20
-28.0425033569335
 30
0.0
 11
-568.526760983304
 21
5.08334196732265
 31
0.0
  0
LINE
  5
   2C9
  8
0
  6
CONTINUOUS
 62
     1
 10
-570.326760983304
 20
-28.0425033569335
 30
0.0
 11
-570.326760983304
 21
7.33250808715627
 31
0.0
  0
LINE
  5
   2CA
  8
0
  6
CONTINUOUS
 62
     1
 10
-572.126760983304
 20
-28.0425033569335
 30
0.0
 11
-572.126760983304
 21
7.33250808715627
 31
0.0
  0
LINE
  5
   2CB
  8
0
  6
CONTINUOUS
 62
     1
 10
-573.926760983304
 20
-28.0425033569335
 30
0.0
 11
-573.926760983304
 21
7.33250808715627
 31
0.0
  0
LINE
  5
   2CC
  8
0
  6
CONTINUOUS
 62
     1
 10
-575.726760983304
 20
-28.0425033569335
 30
0.0
 11
-575.726760983304
 21
7.33250808715627
 31
0.0
  0
LINE
  5
   2CD
  8
0
  6
CONTINUOUS
 62
     1
 10
-577.526760983304
 20
-28.0425033569335
 30
0.0
 11
-577.526760983304
 21
7.33250808715627
 31
0.0
  0
LINE
  5
   2CE
  8
0
  6
CONTINUOUS
 62
     1
 10
-579.326760983304
 20
-28.0425033569335
 30
0.0
 11
-579.326760983304
 21
7.33250808715627
 31
0.0
  0
LINE
  5
   2CF
  8
0
  6
CONTINUOUS
 62
     1
 10
-581.126760983304
 20
-28.0425033569335
 30
0.0
 11
-581.126760983304
 21
7.33250808715627
 31
0.0
  0
LINE
  5
   2D0
  8
0
  6
CONTINUOUS
 62
     1
 10
-582.926760983304
 20
-28.0425033569335
 30
0.0
 11
-582.926760983304
 21
7.33250808715627
 31
0.0
  0
LINE
  5
   2D1
  8
0
  6
CONTINUOUS
 62
     1
 10
-584.726760983304
 20
-28.0425033569335
 30
0.0
 11
-584.726760983304
 21
7.33250808715627
 31
0.0
  0
LINE
  5
   2D2
  8
0
  6
CONTINUOUS
 62
     1
 10
-586.526760983304
 20
-28.0425033569335
 30
0.0
 11
-586.526760983304
 21
7.33250808715627
 31
0.0
  0
LINE
  5
   2D3
  8
0
  6
CONTINUOUS
 62
     1
 10
-588.326760983304
 20
-28.0425033569335
 30
0.0
 11
-588.326760983304
 21
7.33250808715627
 31
0.0
  0
LINE
  5
   2D4
  8
0
  6
CONTINUOUS
 62
     1
 10
-590.126760983304
 20
-28.0425033569335
 30
0.0
 11
-590.126760983304
 21
7.33250808715627
 31
0.0
  0
POLYLINE
  5
   2D5
  8
0
  6
CONTINUOUS
 62
     1
 66
     1
 10
0.0
 20
0.0
 30
0.0
  0
VERTEX
  5
   2D6
  8
0
  6
CONTINUOUS
 10
-591.477243173829
 20
-28.0424055955498
 30
0.0
 40
0.0
 41
0.0
  0
VERTEX
  5
   2D7
  8
0
  6
CONTINUOUS
 10
-591.591045832552
 20
-27.8847536074677
 30
0.0
 40
0.0
 41
0.0
  0
VERTEX
  5
   2D8
  8
0
  6
CONTINUOUS
 10
-591.703886251715
 20
-27.7260937867686
 30
0.0
 40
0.0
 41
0.0
  0
VERTEX
  5
   2D9
  8
0
  6
CONTINUOUS
 10
-591.815740983775
 20
-27.5664226346868
 30
0.0
 40
0.0
 41
0.0
  0
VERTEX
  5
   2DA
  8
0
  6
CONTINUOUS
 10
-591.926574403587
 20
-27.4057348353545
 30
0.0
 40
0.0
 41
0.0
  0
VERTEX
  5
   2DB
  8
0
  6
CONTINUOUS
 10
-592.036336142302
 20
-27.2440228728962
 30
0.0
 40
0.0
 41
0.0
  0
VERTEX
  5
   2DC
  8
0
  6
CONTINUOUS
 10
-592.144958521266
 20
-27.0812766485243
 30
0.0
 40
0.0
 41
0.0
  0
VERTEX
  5
   2DD
  8
0
  6
CONTINUOUS
 10
-592.252353985922
 20
-26.9174830976334
 30
0.0
 40
0.0
 41
0.0
  0
VERTEX
  5
   2DE
  8
0
  6
CONTINUOUS
 10
-592.358412539705
 20
-26.7526258068952
 30
0.0
 40
0.0
 41
0.0
  0
VERTEX
  5
   2DF
  8
0
  6
CONTINUOUS
 10
-592.462999177948
 20
-26.5866846313536
 30
0.0
 40
0.0
 41
0.0
  0
VERTEX
  5
   2E0
  8
0
  6
CONTINUOUS
 10
-592.565951321775
 20
-26.4196353115196
 30
0.0
 40
0.0
 41
0.0
  0
VERTEX
  5
   2E1
  8
0
  6
CONTINUOUS
 10
-592.696919806046
 20
-26.2009454193269
 30
0.0
 40
0.0
 41
0.0
  0
VERTEX
  5
   2E2
  8
0
  6
CONTINUOUS
 10
-592.761094716937
 20
-26.0908583583592
 30
0.0
 40
0.0
 41
0.0
  0
VERTEX
  5
   2E3
  8
0
  6
CONTINUOUS
 10
-592.824306830318
 20
-25.9802633362057
 30
0.0
 40
0.0
 41
0.0
  0
VERTEX
  5
   2E4
  8
0
  6
CONTINUOUS
 10
-592.886484954581
 20
-25.8691500676265
 30
0.0
 40
0.0
 41
0.0
  0
VERTEX
  5
   2E5
  8
0
  6
CONTINUOUS
 10
-592.947556096007
 20
-25.7575082146301
 30
0.0
 40
0.0
 41
0.0
  0
VERTEX
  5
   2E6
  8
0
  6
CONTINUOUS
 10
-593.007446463077
 20
-25.6453275903713
 30
0.0
 40
0.0
 41
0.0
  0
VERTEX
  5
   2E7
  8
0
  6
CONTINUOUS
 10
-593.066082470774
 20
-25.5325983630488
 30
0.0
 40
0.0
 41
0.0
  0
VERTEX
  5
   2E8
  8
0
  6
CONTINUOUS
 10
-593.123391744895
 20
-25.4193112598028
 30
0.0
 40
0.0
 41
0.0
  0
VERTEX
  5
   2E9
  8
0
  6
CONTINUOUS
 10
-593.179304126352
 20
-25.3054577706129
 30
0.0
 40
0.0
 41
0.0
  0
VERTEX
  5
   2EA
  8
0
  6
CONTINUOUS
 10
-593.233752675483
 20
-25.1910303521959
 30
0.0
 40
0.0
 41
0.0
  0
VERTEX
  5
   2EB
  8
0
  6
CONTINUOUS
 10
-593.286674676361
 20
-25.0760226319034
 30
0.0
 40
0.0
 41
0.0
  0
VERTEX
  5
   2EC
  8
0
  6
CONTINUOUS
 10
-593.338012641094
 20
-24.9604296116195
 30
0.0
 40
0.0
 41
0.0
  0
VERTEX
  5
   2ED
  8
0
  6
CONTINUOUS
 10
-593.387715314138
 20
-24.8442478716587
 30
0.0
 40
0.0
 41
0.0
  0
VERTEX
  5
   2EE
  8
0
  6
CONTINUOUS
 10
-593.435738676603
 20
-24.7274757746636
 30
0.0
 40
0.0
 41
0.0
  0
VERTEX
  5
   2EF
  8
0
  6
CONTINUOUS
 10
-593.482046950555
 20
-24.6101136695024
 30
0.0
 40
0.0
 41
0.0
  0
VERTEX
  5
   2F0
  8
0
  6
CONTINUOUS
 10
-593.526613603331
 20
-24.492164095167
 30
0.0
 40
0.0
 41
0.0
  0
VERTEX
  5
   2F1
  8
0
  6
CONTINUOUS
 10
-593.56942235184
 20
-24.3736319846706
 30
0.0
 40
0.0
 41
0.0
  0
VERTEX
  5
   2F2
  8
0
  6
CONTINUOUS
 10
-593.610468166871
 20
-24.2545248689451
 30
0.0
 40
0.0
 41
0.0
  0
VERTEX
  5
   2F3
  8
0
  6
CONTINUOUS
 10
-593.649758277401
 20
-24.1348530807395
 30
0.0
 40
0.0
 41
0.0
  0
VERTEX
  5
   2F4
  8
0
  6
CONTINUOUS
 10
-593.699462907565
 20
-23.9743972998064
 30
0.0
 40
0.0
 41
0.0
  0
VERTEX
  5
   2F5
  8
0
  6
CONTINUOUS
 10
-593.746169250968
 20
-23.8130013998204
 30
0.0
 40
0.0
 41
0.0
  0
VERTEX
  5
   2F6
  8
0
  6
CONTINUOUS
 10
-593.790004278289
 20
-23.65071457062
 30
0.0
 40
0.0
 41
0.0
  0
VERTEX
  5
   2F7
  8
0
  6
CONTINUOUS
 10
-593.831131034403
 20
-23.4875939696619
 30
0.0
 40
0.0
 41
0.0
  0
VERTEX
  5
   2F8
  8
0
  6
CONTINUOUS
 10
-593.869744108824
 20
-23.3237036289929
 30
0.0
 40
0.0
 41
0.0
  0
VERTEX
  5
   2F9
  8
0
  6
CONTINUOUS
 10
-593.906065106138
 20
-23.1591133622209
 30
0.0
 40
0.0
 41
0.0
  0
VERTEX
  5
   2FA
  8
0
  6
CONTINUOUS
 10
-593.940338116441
 20
-22.993897671487
 30
0.0
 40
0.0
 41
0.0
  0
VERTEX
  5
   2FB
  8
0
  6
CONTINUOUS
 10
-593.972825185773
 20
-22.828134654436
 30
0.0
 40
0.0
 41
0.0
  0
VERTEX
  5
   2FC
  8
0
  6
CONTINUOUS
 10
-594.00380178656
 20
-22.6619049111883
 30
0.0
 40
0.0
 41
0.0
  0
VERTEX
  5
   2FD
  8
0
  6
CONTINUOUS
 10
-594.033552288046
 20
-22.4952904513116
 30
0.0
 40
0.0
 41
0.0
  0
VERTEX
  5
   2FE
  8
0
  6
CONTINUOUS
 10
-594.090529776801
 20
-22.1612359090038
 30
0.0
 40
0.0
 41
0.0
  0
VERTEX
  5
   2FF
  8
0
  6
CONTINUOUS
 10
-594.202211438504
 20
-21.4920193257261
 30
0.0
 40
0.0
 41
0.0
  0
VERTEX
  5
   300
  8
0
  6
CONTINUOUS
 10
-594.260889570417
 20
-21.1579655605872
 30
0.0
 40
0.0
 41
0.0
  0
VERTEX
  5
   301
  8
0
  6
CONTINUOUS
 10
-594.29162763543
 20
-20.991270591174
 30
0.0
 40
0.0
 41
0.0
  0
VERTEX
  5
   302
  8
0
  6
CONTINUOUS
 10
-594.323476114682
 20
-20.8248480540967
 30
0.0
 40
0.0
 41
0.0
  0
VERTEX
  5
   303
  8
0
  6
CONTINUOUS
 10
-594.354628725961
 20
-20.6680519574803
 30
0.0
 40
0.0
 41
0.0
  0
VERTEX
  5
   304
  8
0
  6
CONTINUOUS
 10
-594.386879550327
 20
-20.511533411838
 30
0.0
 40
0.0
 41
0.0
  0
VERTEX
  5
   305
  8
0
  6
CONTINUOUS
 10
-594.420230002682
 20
-20.3552960701647
 30
0.0
 40
0.0
 41
0.0
  0
VERTEX
  5
   306
  8
0
  6
CONTINUOUS
 10
-594.454651282528
 20
-20.1993358102984
 30
0.0
 40
0.0
 41
0.0
  0
VERTEX
  5
   307
  8
0
  6
CONTINUOUS
 10
-594.526457603693
 20
-19.8881957121911
 30
0.0
 40
0.0
 41
0.0
  0
VERTEX
  5
   308
  8
0
  6
CONTINUOUS
 10
-594.60157500254
 20
-19.577953394441
 30
0.0
 40
0.0
 41
0.0
  0
VERTEX
  5
   309
  8
0
  6
CONTINUOUS
 10
-594.678983806882
 20
-19.2683731649017
 30
0.0
 40
0.0
 41
0.0
  0
VERTEX
  5
   30A
  8
0
  6
CONTINUOUS
 10
-594.835677995477
 20
-18.6500216568177
 30
0.0
 40
0.0
 41
0.0
  0
VERTEX
  5
   30B
  8
0
  6
CONTINUOUS
 10
-594.912286015874
 20
-18.3406170990787
 30
0.0
 40
0.0
 41
0.0
  0
VERTEX
  5
   30C
  8
0
  6
CONTINUOUS
 10
-594.986017999617
 20
-18.0306565045966
 30
0.0
 40
0.0
 41
0.0
  0
VERTEX
  5
   30D
  8
0
  6
CONTINUOUS
 10
-595.021453747947
 20
-17.8753864295075
 30
0.0
 40
0.0
 41
0.0
  0
VERTEX
  5
   30E
  8
0
  6
CONTINUOUS
 10
-595.055778111727
 20
-17.7198875866265
 30
0.0
 40
0.0
 41
0.0
  0
VERTEX
  5
   30F
  8
0
  6
CONTINUOUS
 10
-595.089844065214
 20
-17.5595895482528
 30
0.0
 40
0.0
 41
0.0
  0
VERTEX
  5
   310
  8
0
  6
CONTINUOUS
 10
-595.122552934397
 20
-17.3990112690451
 30
0.0
 40
0.0
 41
0.0
  0
VERTEX
  5
   311
  8
0
  6
CONTINUOUS
 10
-595.153848594163
 20
-17.2381425905439
 30
0.0
 40
0.0
 41
0.0
  0
VERTEX
  5
   312
  8
0
  6
CONTINUOUS
 10
-595.183696767795
 20
-17.0769789284894
 30
0.0
 40
0.0
 41
0.0
  0
VERTEX
  5
   313
  8
0
  6
CONTINUOUS
 10
-595.212083352261
 20
-16.9155207800004
 30
0.0
 40
0.0
 41
0.0
  0
VERTEX
  5
   314
  8
0
  6
CONTINUOUS
 10
-595.239012743506
 20
-16.753773230754
 30
0.0
 40
0.0
 41
0.0
  0
VERTEX
  5
   315
  8
0
  6
CONTINUOUS
 10
-595.264506161741
 20
-16.591745462164
 30
0.0
 40
0.0
 41
0.0
  0
VERTEX
  5
   316
  8
0
  6
CONTINUOUS
 10
-595.288599976734
 20
-16.4294502585608
 30
0.0
 40
0.0
 41
0.0
  0
VERTEX
  5
   317
  8
0
  6
CONTINUOUS
 10
-595.311344033097
 20
-16.2669035143699
 30
0.0
 40
0.0
 41
0.0
  0
VERTEX
  5
   318
  8
0
  6
CONTINUOUS
 10
-595.33279997558
 20
-16.1041237412917
 30
0.0
 40
0.0
 41
0.0
  0
VERTEX
  5
   319
  8
0
  6
CONTINUOUS
 10
-595.353039574358
 20
-15.94113157548
 30
0.0
 40
0.0
 41
0.0
  0
VERTEX
  5
   31A
  8
0
  6
CONTINUOUS
 10
-595.372143050324
 20
-15.7779492847218
 30
0.0
 40
0.0
 41
0.0
  0
VERTEX
  5
   31B
  8
0
  6
CONTINUOUS
 10
-595.40729472271
 20
-15.4511086007525
 30
0.0
 40
0.0
 41
0.0
  0
VERTEX
  5
   31C
  8
0
  6
CONTINUOUS
 10
-595.439002135221
 20
-15.1237937371442
 30
0.0
 40
0.0
 41
0.0
  0
VERTEX
  5
   31D
  8
0
  6
CONTINUOUS
 10
-595.468040460365
 20
-14.7961913072498
 30
0.0
 40
0.0
 41
0.0
  0
VERTEX
  5
   31E
  8
0
  6
CONTINUOUS
 10
-595.495159309954
 20
-14.4684667197472
 30
0.0
 40
0.0
 41
0.0
  0
VERTEX
  5
   31F
  8
0
  6
CONTINUOUS
 10
-595.540505814052
 20
-13.8877835499623
 30
0.0
 40
0.0
 41
0.0
  0
VERTEX
  5
   320
  8
0
  6
CONTINUOUS
 10
-595.629916909705
 20
-12.7275563872815
 30
0.0
 40
0.0
 41
0.0
  0
VERTEX
  5
   321
  8
0
  6
CONTINUOUS
 10
-595.677620582396
 20
-12.1479430741859
 30
0.0
 40
0.0
 41
0.0
  0
VERTEX
  5
   322
  8
0
  6
CONTINUOUS
 10
-595.702921347639
 20
-11.8582176632007
 30
0.0
 40
0.0
 41
0.0
  0
VERTEX
  5
   323
  8
0
  6
CONTINUOUS
 10
-595.729495949008
 20
-11.5685508114495
 30
0.0
 40
0.0
 41
0.0
  0
VERTEX
  5
   324
  8
0
  6
CONTINUOUS
 10
-595.758750185869
 20
-11.2677628357852
 30
0.0
 40
0.0
 41
0.0
  0
VERTEX
  5
   325
  8
0
  6
CONTINUOUS
 10
-595.790056294978
 20
-10.9671220767635
 30
0.0
 40
0.0
 41
0.0
  0
VERTEX
  5
   326
  8
0
  6
CONTINUOUS
 10
-595.82383868532
 20
-10.666709856606
 30
0.0
 40
0.0
 41
0.0
  0
VERTEX
  5
   327
  8
0
  6
CONTINUOUS
 10
-595.860557404577
 20
-10.3666295351665
 30
0.0
 40
0.0
 41
0.0
  0
VERTEX
  5
   328
  8
0
  6
CONTINUOUS
 10
-595.900692628704
 20
-10.0670028444175
 30
0.0
 40
0.0
 41
0.0
  0
VERTEX
  5
   329
  8
0
  6
CONTINUOUS
 10
-595.922193171888
 20
-9.91740177335902
 30
0.0
 40
0.0
 41
0.0
  0
VERTEX
  5
   32A
  8
0
  6
CONTINUOUS
 10
-595.944729151514
 20
-9.76796622293473
 30
0.0
 40
0.0
 41
0.0
  0
VERTEX
  5
   32B
  8
0
  6
CONTINUOUS
 10
-595.968359343668
 20
-9.61871494449995
 30
0.0
 40
0.0
 41
0.0
  0
VERTEX
  5
   32C
  8
0
  6
CONTINUOUS
 10
-595.993140874254
 20
-9.46966715038348
 30
0.0
 40
0.0
 41
0.0
  0
VERTEX
  5
   32D
  8
0
  6
CONTINUOUS
 10
-596.019128734284
 20
-9.3208423993402
 30
0.0
 40
0.0
 41
0.0
  0
VERTEX
  5
   32E
  8
0
  6
CONTINUOUS
 10
-596.046375295187
 20
-9.17226048200377
 30
0.0
 40
0.0
 41
0.0
  0
VERTEX
  5
   32F
  8
0
  6
CONTINUOUS
 10
-596.074929824099
 20
-9.02394130633929
 30
0.0
 40
0.0
 41
0.0
  0
VERTEX
  5
   330
  8
0
  6
CONTINUOUS
 10
-596.10483799917
 20
-8.87590478309598
 30
0.0
 40
0.0
 41
0.0
  0
VERTEX
  5
   331
  8
0
  6
CONTINUOUS
 10
-596.136141424859
 20
-8.72817071125987
 30
0.0
 40
0.0
 41
0.0
  0
VERTEX
  5
   332
  8
0
  6
CONTINUOUS
 10
-596.168877147235
 20
-8.58075866350642
 30
0.0
 40
0.0
 41
0.0
  0
VERTEX
  5
   333
  8
0
  6
CONTINUOUS
 10
-596.20321188876
 20
-8.43312157378246
 30
0.0
 40
0.0
 41
0.0
  0
VERTEX
  5
   334
  8
0
  6
CONTINUOUS
 10
-596.239049108401
 20
-8.28584734447985
 30
0.0
 40
0.0
 41
0.0
  0
VERTEX
  5
   335
  8
0
  6
CONTINUOUS
 10
-596.276409965393
 20
-8.13895426592213
 30
0.0
 40
0.0
 41
0.0
  0
VERTEX
  5
   336
  8
0
  6
CONTINUOUS
 10
-596.315309810872
 20
-7.99245973444703
 30
0.0
 40
0.0
 41
0.0
  0
VERTEX
  5
   337
  8
0
  6
CONTINUOUS
 10
-596.355758090584
 20
-7.84638003664788
 30
0.0
 40
0.0
 41
0.0
  0
VERTEX
  5
   338
  8
0
  6
CONTINUOUS
 10
-596.397758247609
 20
-7.70073013361497
 30
0.0
 40
0.0
 41
0.0
  0
VERTEX
  5
   339
  8
0
  6
CONTINUOUS
 10
-596.441307625067
 20
-7.55552344517695
 30
0.0
 40
0.0
 41
0.0
  0
VERTEX
  5
   33A
  8
0
  6
CONTINUOUS
 10
-596.486397368833
 20
-7.41077163414218
 30
0.0
 40
0.0
 41
0.0
  0
VERTEX
  5
   33B
  8
0
  6
CONTINUOUS
 10
-596.533012330256
 20
-7.26648439054014
 30
0.0
 40
0.0
 41
0.0
  0
VERTEX
  5
   33C
  8
0
  6
CONTINUOUS
 10
-596.581130968868
 20
-7.12266921586277
 30
0.0
 40
0.0
 41
0.0
  0
VERTEX
  5
   33D
  8
0
  6
CONTINUOUS
 10
-596.6307252551
 20
-6.97933120730589
 30
0.0
 40
0.0
 41
0.0
  0
VERTEX
  5
   33E
  8
0
  6
CONTINUOUS
 10
-596.681760572997
 20
-6.83647284201056
 30
0.0
 40
0.0
 41
0.0
  0
VERTEX
  5
   33F
  8
0
  6
CONTINUOUS
 10
-596.73419562293
 20
-6.69409376130444
 30
0.0
 40
0.0
 41
0.0
  0
VERTEX
  5
   340
  8
0
  6
CONTINUOUS
 10
-596.787982324312
 20
-6.5521905549432
 30
0.0
 40
0.0
 41
0.0
  0
VERTEX
  5
   341
  8
0
  6
CONTINUOUS
 10
-596.843065718313
 20
-6.41075654535188
 30
0.0
 40
0.0
 41
0.0
  0
VERTEX
  5
   342
  8
0
  6
CONTINUOUS
 10
-596.899383870569
 20
-6.26978157186628
 30
0.0
 40
0.0
 41
0.0
  0
VERTEX
  5
   343
  8
0
  6
CONTINUOUS
 10
-596.956867773903
 20
-6.12925177497433
 30
0.0
 40
0.0
 41
0.0
  0
VERTEX
  5
   344
  8
0
  6
CONTINUOUS
 10
-597.015441251033
 20
-5.98914938055746
 30
0.0
 40
0.0
 41
0.0
  0
VERTEX
  5
   345
  8
0
  6
CONTINUOUS
 10
-597.135515783335
 20
-5.71013483509055
 30
0.0
 40
0.0
 41
0.0
  0
VERTEX
  5
   346
  8
0
  6
CONTINUOUS
 10
-597.2516499972
 20
-5.44852033871435
 30
0.0
 40
0.0
 41
0.0
  0
VERTEX
  5
   347
  8
0
  6
CONTINUOUS
 10
-597.36995909521
 20
-5.18789213548141
 30
0.0
 40
0.0
 41
0.0
  0
VERTEX
  5
   348
  8
0
  6
CONTINUOUS
 10
-597.849343380372
 20
-4.14919919354642
 30
0.0
 40
0.0
 41
0.0
  0
VERTEX
  5
   349
  8
0
  6
CONTINUOUS
 10
-597.967067640274
 20
-3.88894986664862
 30
0.0
 40
0.0
 41
0.0
  0
VERTEX
  5
   34A
  8
0
  6
CONTINUOUS
 10
-598.082791345927
 20
-3.62795093309113
 30
0.0
 40
0.0
 41
0.0
  0
VERTEX
  5
   34B
  8
0
  6
CONTINUOUS
 10
-598.196201976176
 20
-3.36604012020901
 30
0.0
 40
0.0
 41
0.0
  0
VERTEX
  5
   34C
  8
0
  6
CONTINUOUS
 10
-598.307198978606
 20
-3.10313972561078
 30
0.0
 40
0.0
 41
0.0
  0
VERTEX
  5
   34D
  8
0
  6
CONTINUOUS
 10
-598.404757376125
 20
-2.86666286560118
 30
0.0
 40
0.0
 41
0.0
  0
VERTEX
  5
   34E
  8
0
  6
CONTINUOUS
 10
-598.500779995371
 20
-2.62950217120153
 30
0.0
 40
0.0
 41
0.0
  0
VERTEX
  5
   34F
  8
0
  6
CONTINUOUS
 10
-598.879245474759
 20
-1.67761704612476
 30
0.0
 40
0.0
 41
0.0
  0
VERTEX
  5
   350
  8
0
  6
CONTINUOUS
 10
-598.975254918668
 20
-1.43992212924692
 30
0.0
 40
0.0
 41
0.0
  0
VERTEX
  5
   351
  8
0
  6
CONTINUOUS
 10
-599.072834745765
 20
-1.20274886931334
 30
0.0
 40
0.0
 41
0.0
  0
VERTEX
  5
   352
  8
0
  6
CONTINUOUS
 10
-599.172311731575
 20
-0.966241562170215
 30
0.0
 40
0.0
 41
0.0
  0
VERTEX
  5
   353
  8
0
  6
CONTINUOUS
 10
-599.273837614706
 20
-0.730481255185399
 30
0.0
 40
0.0
 41
0.0
  0
VERTEX
  5
   354
  8
0
  6
CONTINUOUS
 10
-599.388505111224
 20
-0.470411278059728
 30
0.0
 40
0.0
 41
0.0
  0
VERTEX
  5
   355
  8
0
  6
CONTINUOUS
 10
-599.50515521642
 20
-0.211126807832855
 30
0.0
 40
0.0
 41
0.0
  0
VERTEX
  5
   356
  8
0
  6
CONTINUOUS
 10
-599.74112567943
 20
0.306164849103261
 30
0.0
 40
0.0
 41
0.0
  0
VERTEX
  5
   357
  8
0
  6
CONTINUOUS
 10
-599.85827454173
 20
0.564911239742564
 30
0.0
 40
0.0
 41
0.0
  0
VERTEX
  5
   358
  8
0
  6
CONTINUOUS
 10
-599.973217342971
 20
0.824293818996257
 30
0.0
 40
0.0
 41
0.0
  0
VERTEX
  5
   359
  8
0
  6
CONTINUOUS
 10
-600.029462587262
 20
0.95436221128465
 30
0.0
 40
0.0
 41
0.0
  0
VERTEX
  5
   35A
  8
0
  6
CONTINUOUS
 10
-600.084682849497
 20
1.08475417138949
 30
0.0
 40
0.0
 41
0.0
  0
VERTEX
  5
   35B
  8
0
  6
CONTINUOUS
 10
-600.13872993685
 20
1.21552119958005
 30
0.0
 40
0.0
 41
0.0
  0
VERTEX
  5
   35C
  8
0
  6
CONTINUOUS
 10
-600.19146452246
 20
1.34671163335922
 30
0.0
 40
0.0
 41
0.0
  0
VERTEX
  5
   35D
  8
0
  6
CONTINUOUS
 10
-600.242758556704
 20
1.47836976133315
 30
0.0
 40
0.0
 41
0.0
  0
VERTEX
  5
   35E
  8
0
  6
CONTINUOUS
 10
-600.292497678464
 20
1.61053493708077
 30
0.0
 40
0.0
 41
0.0
  0
VERTEX
  5
   35F
  8
0
  6
CONTINUOUS
 10
-600.340583626399
 20
1.7432406930234
 30
0.0
 40
0.0
 41
0.0
  0
VERTEX
  5
   360
  8
0
  6
CONTINUOUS
 10
-600.386936650214
 20
1.87651385429434
 30
0.0
 40
0.0
 41
0.0
  0
VERTEX
  5
   361
  8
0
  6
CONTINUOUS
 10
-600.427167404179
 20
1.99709488719029
 30
0.0
 40
0.0
 41
0.0
  0
VERTEX
  5
   362
  8
0
  6
CONTINUOUS
 10
-600.465915813033
 20
2.11816068752814
 30
0.0
 40
0.0
 41
0.0
  0
VERTEX
  5
   363
  8
0
  6
CONTINUOUS
 10
-600.503168720371
 20
2.23971447235983
 30
0.0
 40
0.0
 41
0.0
  0
VERTEX
  5
   364
  8
0
  6
CONTINUOUS
 10
-600.538926289059
 20
2.36175462531037
 30
0.0
 40
0.0
 41
0.0
  0
VERTEX
  5
   365
  8
0
  6
CONTINUOUS
 10
-600.573200972236
 20
2.48427507395353
 30
0.0
 40
0.0
 41
0.0
  0
VERTEX
  5
   366
  8
0
  6
CONTINUOUS
 10
-600.606016484321
 20
2.60726566718744
 30
0.0
 40
0.0
 41
0.0
  0
VERTEX
  5
   367
  8
0
  6
CONTINUOUS
 10
-600.637406772014
 20
2.73071255261036
 30
0.0
 40
0.0
 41
0.0
  0
VERTEX
  5
   368
  8
0
  6
CONTINUOUS
 10
-600.667414985302
 20
2.85459855389622
 30
0.0
 40
0.0
 41
0.0
  0
VERTEX
  5
   369
  8
0
  6
CONTINUOUS
 10
-600.696092448462
 20
2.97890354817041
 30
0.0
 40
0.0
 41
0.0
  0
VERTEX
  5
   36A
  8
0
  6
CONTINUOUS
 10
-600.723497631065
 20
3.10360484338534
 30
0.0
 40
0.0
 41
0.0
  0
VERTEX
  5
   36B
  8
0
  6
CONTINUOUS
 10
-600.749695118983
 20
3.2286775556962
 30
0.0
 40
0.0
 41
0.0
  0
VERTEX
  5
   36C
  8
0
  6
CONTINUOUS
 10
-600.774754585387
 20
3.35409498683654
 30
0.0
 40
0.0
 41
0.0
  0
VERTEX
  5
   36D
  8
0
  6
CONTINUOUS
 10
-600.798749761758
 20
3.47982900149399
 30
0.0
 40
0.0
 41
0.0
  0
VERTEX
  5
   36E
  8
0
  6
CONTINUOUS
 10
-600.821757408886
 20
3.60585040468592
 30
0.0
 40
0.0
 41
0.0
  0
VERTEX
  5
   36F
  8
0
  6
CONTINUOUS
 10
-600.865126131149
 20
3.85863556264523
 30
0.0
 40
0.0
 41
0.0
  0
VERTEX
  5
   370
  8
0
  6
CONTINUOUS
 10
-600.905496322869
 20
4.11221004772321
 30
0.0
 40
0.0
 41
0.0
  0
VERTEX
  5
   371
  8
0
  6
CONTINUOUS
 10
-600.943486167968
 20
4.36634064424688
 30
0.0
 40
0.0
 41
0.0
  0
VERTEX
  5
   372
  8
0
  6
CONTINUOUS
 10
-600.995418349775
 20
4.73488499147383
 30
0.0
 40
0.0
 41
0.0
  0
VERTEX
  5
   373
  8
0
  6
CONTINUOUS
 10
-601.044984320076
 20
5.103606682813
 30
0.0
 40
0.0
 41
0.0
  0
VERTEX
  5
   374
  8
0
  6
CONTINUOUS
 10
-601.069243222778
 20
5.28789723274172
 30
0.0
 40
0.0
 41
0.0
  0
SEQEND
  5
   375
  8
0
  6
CONTINUOUS
 62
     1
  0
LINE
  5
   376
  8
0
  6
CONTINUOUS
 62
     1
 10
-591.926760983304
 20
-27.4054621720169
 30
0.0
 11
-591.926760983304
 21
7.33250808715627
 31
0.0
  0
LINE
  5
   377
  8
0
  6
CONTINUOUS
 62
     1
 10
-593.726760983304
 20
-23.8814187569829
 30
0.0
 11
-593.726760983304
 21
7.33250808715627
 31
0.0
  0
LINE
  5
   378
  8
0
  6
CONTINUOUS
 62
     1
 10
-595.526760983304
 20
-14.0667222353264
 30
0.0
 11
-595.526760983304
 21
7.33250808715627
 31
0.0
  0
LINE
  5
   379
  8
0
  6
CONTINUOUS
 62
     1
 10
-597.326760983304
 20
-5.28251077062145
 30
0.0
 11
-597.326760983304
 21
7.33250808715627
 31
0.0
  0
LINE
  5
   37A
  8
0
  6
CONTINUOUS
 62
     7
 10
-597.436763378716
 20
-5.04250335693376
 30
0.0
 11
-598.551778540387
 21
-5.04250335693376
 31
0.0
  0
LINE
  5
   37B
  8
0
  6
CONTINUOUS
 62
     7
 10
-546.926760983304
 20
62.5825004577617
 30
0.0
 11
-546.926760983304
 21
78.5574951171875
 31
0.0
  0
LINE
  5
   37C
  8
0
  6
CONTINUOUS
 62
     7
 10
-545.426778540387
 20
-75.2924999281129
 30
0.0
 11
-545.426778540387
 21
123.707500071887
 31
0.0
  0
LINE
  5
   37D
  8
0
  6
CONTINUOUS
 62
     7
 10
-618.426778540387
 20
-75.2924999281129
 30
0.0
 11
-618.426778540387
 21
123.707500071887
 31
0.0
  0
LINE
  5
   37E
  8
0
  6
CONTINUOUS
 62
     7
 10
-545.926778540387
 20
124.207500071887
 30
0.0
 11
-617.926778540387
 21
124.207500071887
 31
0.0
  0
LINE
  5
   37F
  8
0
  6
CONTINUOUS
 62
     7
 10
-545.926778540387
 20
-75.7924999281129
 30
0.0
 11
-617.926778540387
 21
-75.7924999281129
 31
0.0
  0
ARC
  5
   380
  8
0
  6
CONTINUOUS
 62
     7
 10
-617.926778540387
 20
123.707500071887
 30
0.0
 40
0.5
 50
89.9999999480344
 51
179.999999948034
  0
ARC
  5
   381
  8
0
  6
CONTINUOUS
 62
     7
 10
-545.926778540387
 20
123.707500071887
 30
0.0
 40
0.5
 50
359.999999948034
 51
449.999999948034
  0
ARC
  5
   382
  8
0
  6
CONTINUOUS
 62
     7
 10
-617.926778540387
 20
-75.2924999281129
 30
0.0
 40
0.5
 50
179.999999948034
 51
269.999999948034
  0
ARC
  5
   383
  8
0
  6
CONTINUOUS
 62
     7
 10
-545.926778540387
 20
-75.2924999281129
 30
0.0
 40
0.5
 50
269.999999948034
 51
359.999999948034
  0
CIRCLE
  5
   384
  8
0
  6
CONTINUOUS
 62
     7
 10
-609.426778540387
 20
116.707500071887
 30
0.0
 40
1.75
  0
CIRCLE
  5
   385
  8
0
  6
CONTINUOUS
 62
     7
 10
-554.426778540387
 20
-68.2924999281129
 30
0.0
 40
1.75
  0
CIRCLE
  5
   386
  8
0
  6
CONTINUOUS
 62
     7
 10
-554.426778540387
 20
116.707500071887
 30
0.0
 40
1.75
  0
CIRCLE
  5
   387
  8
0
  6
CONTINUOUS
 62
     7
 10
-609.426778540387
 20
-68.2924999281129
 30
0.0
 40
1.75
  0
LINE
  5
   388
  8
0
  6
DASHDOT
 62
     7
 10
-554.426778540387
 20
114.457500071887
 30
0.0
 11
-554.426778540387
 21
118.957500071887
 31
0.0
  0
LINE
  5
   389
  8
0
  6
DASHDOT
 62
     7
 10
-552.176778540387
 20
116.707500071887
 30
0.0
 11
-556.676778540387
 21
116.707500071887
 31
0.0
  0
LINE
  5
   38A
  8
0
  6
DASHDOT
 62
     7
 10
-609.426778540387
 20
114.457500071887
 30
0.0
 11
-609.426778540387
 21
118.957500071887
 31
0.0
  0
LINE
  5
   38B
  8
0
  6
DASHDOT
 62
     7
 10
-607.176778540387
 20
116.707500071887
 30
0.0
 11
-611.676778540387
 21
116.707500071887
 31
0.0
  0
LINE
  5
   38C
  8
0
  6
DASHDOT
 62
     7
 10
-609.426778540387
 20
-70.5424999281129
 30
0.0
 11
-609.426778540387
 21
-66.0424999281129
 31
0.0
  0
LINE
  5
   38D
  8
0
  6
DASHDOT
 62
     7
 10
-607.176778540387
 20
-68.2924999281129
 30
0.0
 11
-611.676778540387
 21
-68.2924999281129
 31
0.0
  0
LINE
  5
   38E
  8
0
  6
DASHDOT
 62
     7
 10
-554.426778540387
 20
-70.5424999281129
 30
0.0
 11
-554.426778540387
 21
-66.0424999281129
 31
0.0
  0
LINE
  5
   38F
  8
0
  6
DASHDOT
 62
     7
 10
-552.176778540387
 20
-68.2924999281129
 30
0.0
 11
-556.676778540387
 21
-68.2924999281129
 31
0.0
  0
LINE
  5
   390
  8
0
  6
DASHDOT
 62
     7
 10
-608.176778345682
 20
87.3324966430664
 30
0.0
 11
-608.176778345682
 21
92.5824966430664
 31
0.0
  0
LINE
  5
   391
  8
0
  6
DASHDOT
 62
     7
 10
-590.676778345682
 20
87.3324966430664
 30
0.0
 11
-590.676778345682
 21
92.5824966430664
 31
0.0
  0
LINE
  5
   392
  8
0
  6
DASHDOT
 62
     7
 10
-573.176778345682
 20
87.3324966430664
 30
0.0
 11
-573.176778345682
 21
92.5824966430664
 31
0.0
  0
LINE
  5
   393
  8
0
  6
DASHDOT
 62
     7
 10
-555.676778345682
 20
87.3324966430664
 30
0.0
 11
-555.676778345682
 21
92.5824966430664
 31
0.0
  0
LINE
  5
   394
  8
0
  6
CONTINUOUS
 62
     7
 10
-602.176775958492
 20
102.957504283681
 30
0.0
 11
-616.426781274971
 21
102.957504283681
 31
0.0
  0
LINE
  5
   395
  8
0
  6
CONTINUOUS
 62
     7
 10
-597.176775958492
 20
87.1714698297309
 30
0.0
 11
-597.176775958492
 21
102.457504283681
 31
0.0
  0
ARC
  5
   396
  8
0
  6
CONTINUOUS
 62
     7
 10
-596.676775958492
 20
102.457504283681
 30
0.0
 40
0.5
 50
89.9999999480344
 51
179.999999948034
  0
LINE
  5
   397
  8
0
  6
CONTINUOUS
 62
     7
 10
-584.676775958492
 20
102.957504283681
 30
0.0
 11
-596.676775958492
 21
102.957504283681
 31
0.0
  0
ARC
  5
   398
  8
0
  6
CONTINUOUS
 62
     7
 10
-584.676775958492
 20
102.457504283681
 30
0.0
 40
0.5
 50
359.999999948034
 51
449.999999948034
  0
LINE
  5
   399
  8
0
  6
CONTINUOUS
 62
     7
 10
-584.176775958492
 20
79.9574966430664
 30
0.0
 11
-584.176775958492
 21
102.457504283681
 31
0.0
  0
LINE
  5
   39A
  8
0
  6
CONTINUOUS
 62
     7
 10
-579.676775958492
 20
79.9574966430664
 30
0.0
 11
-579.676775958492
 21
102.457504283681
 31
0.0
  0
ARC
  5
   39B
  8
0
  6
CONTINUOUS
 62
     7
 10
-579.176775958492
 20
102.457504283681
 30
0.0
 40
0.5
 50
89.9999999480344
 51
179.999999948034
  0
LINE
  5
   39C
  8
0
  6
CONTINUOUS
 62
     7
 10
-567.176775958492
 20
102.957504283681
 30
0.0
 11
-579.176775958492
 21
102.957504283681
 31
0.0
  0
ARC
  5
   39D
  8
0
  6
CONTINUOUS
 62
     7
 10
-567.176775958492
 20
102.457504283681
 30
0.0
 40
0.5
 50
359.999999948034
 51
449.999999948034
  0
LINE
  5
   39E
  8
0
  6
CONTINUOUS
 62
     7
 10
-566.676775958492
 20
79.9574966430664
 30
0.0
 11
-566.676775958492
 21
102.457504283681
 31
0.0
  0
LINE
  5
   39F
  8
0
  6
CONTINUOUS
 62
     7
 10
-562.176775958492
 20
79.9574966430664
 30
0.0
 11
-562.176775958492
 21
102.457504283681
 31
0.0
  0
ARC
  5
   3A0
  8
0
  6
CONTINUOUS
 62
     7
 10
-561.676775958492
 20
102.457504283681
 30
0.0
 40
0.5
 50
89.9999999480344
 51
179.999999948034
  0
LINE
  5
   3A1
  8
0
  6
CONTINUOUS
 62
     7
 10
-549.676775958492
 20
102.957504283681
 30
0.0
 11
-561.676775958492
 21
102.957504283681
 31
0.0
  0
ARC
  5
   3A2
  8
0
  6
CONTINUOUS
 62
     7
 10
-549.676775958492
 20
102.457504283681
 30
0.0
 40
0.5
 50
359.999999948034
 51
449.999999948034
  0
LINE
  5
   3A3
  8
0
  6
CONTINUOUS
 62
     7
 10
-549.176775958492
 20
79.9574966430664
 30
0.0
 11
-549.176775958492
 21
102.457504283681
 31
0.0
  0
LINE
  5
   3A4
  8
0
  6
CONTINUOUS
 62
     7
 10
-603.176767617122
 20
-21.2925033569338
 30
0.0
 11
-613.176767617122
 21
-21.2925033569338
 31
0.0
  0
LINE
  5
   3A5
  8
0
  6
CONTINUOUS
 62
     7
 10
-603.176767617122
 20
-21.2925033569338
 30
0.0
 11
-603.176767617122
 21
-20.5424892776434
 31
0.0
  0
LINE
  5
   3A6
  8
0
  6
CONTINUOUS
 62
     7
 10
-613.176767617122
 20
-21.2925033569338
 30
0.0
 11
-613.176767617122
 21
-20.5424892776434
 31
0.0
  0
LINE
  5
   3A7
  8
0
  6
DASHDOT
 62
     7
 10
-600.249775475907
 20
-15.0424892776434
 30
0.0
 11
-616.053617544772
 21
-15.0424892776434
 31
0.0
  0
ARC
  5
   3A8
  8
0
  6
CONTINUOUS
 62
     7
 10
-608.176767617122
 20
-15.0424892776434
 30
0.0
 40
4.35
 50
89.9999999480344
 51
359.999999948034
  0
CIRCLE
  5
   3A9
  8
0
  6
CONTINUOUS
 62
     7
 10
-608.176767617122
 20
-15.0424892776434
 30
0.0
 40
4.75
  0
LINE
  5
   3AA
  8
0
  6
CONTINUOUS
 62
     7
 10
-602.676767617122
 20
-9.54248927764338
 30
0.0
 11
-613.676767617122
 21
-9.54248927764338
 31
0.0
  0
LINE
  5
   3AB
  8
0
  6
CONTINUOUS
 62
     7
 10
-602.676767617122
 20
-20.5424892776434
 30
0.0
 11
-613.676767617122
 21
-20.5424892776434
 31
0.0
  0
LINE
  5
   3AC
  8
0
  6
CONTINUOUS
 62
     7
 10
-602.676767617122
 20
-20.5424892776434
 30
0.0
 11
-602.676767617122
 21
-9.54248927764338
 31
0.0
  0
LINE
  5
   3AD
  8
0
  6
CONTINUOUS
 62
     7
 10
-613.676767617122
 20
-20.5424892776434
 30
0.0
 11
-613.676767617122
 21
-9.54248927764338
 31
0.0
  0
LINE
  5
   3AE
  8
0
  6
CONTINUOUS
 62
     7
 10
-603.176767617122
 20
-9.54248927764338
 30
0.0
 11
-603.176767617122
 21
-5.04250335693376
 31
0.0
  0
LINE
  5
   3AF
  8
0
  6
CONTINUOUS
 62
     7
 10
-613.176767617122
 20
-9.54248927764338
 30
0.0
 11
-613.176767617122
 21
-5.04250335693376
 31
0.0
  0
LINE
  5
   3B0
  8
0
  6
CONTINUOUS
 62
     7
 10
-606.676767617122
 20
-15.904405746914
 30
0.0
 11
-606.676767617122
 21
-14.1805728083727
 31
0.0
  0
LINE
  5
   3B1
  8
0
  6
CONTINUOUS
 62
     7
 10
-609.676767617122
 20
-15.904405746914
 30
0.0
 11
-609.676767617122
 21
-14.1805728083727
 31
0.0
  0
LINE
  5
   3B2
  8
0
  6
CONTINUOUS
 62
     7
 10
-609.676767617122
 20
-14.1805728083727
 30
0.0
 11
-608.176767617122
 21
-13.3124892776434
 31
0.0
  0
LINE
  5
   3B3
  8
0
  6
CONTINUOUS
 62
     7
 10
-606.676767617122
 20
-14.1805728083727
 30
0.0
 11
-608.176767617122
 21
-13.3124892776434
 31
0.0
  0
LINE
  5
   3B4
  8
0
  6
CONTINUOUS
 62
     7
 10
-608.176767617122
 20
-16.7724892776434
 30
0.0
 11
-609.676767617122
 21
-15.904405746914
 31
0.0
  0
LINE
  5
   3B5
  8
0
  6
CONTINUOUS
 62
     7
 10
-608.176767617122
 20
-16.7724892776434
 30
0.0
 11
-606.676767617122
 21
-15.904405746914
 31
0.0
  0
LINE
  5
   3B6
  8
0
  6
CONTINUOUS
 62
     7
 10
-600.301778540387
 20
-3.54250335693376
 30
0.0
 11
-600.676778540387
 21
-3.54250335693376
 31
0.0
  0
LINE
  5
   3B7
  8
0
  6
CONTINUOUS
 62
     7
 10
-598.176778540387
 20
-1.79250335693376
 30
0.0
 11
-600.676778540387
 21
-1.79250335693376
 31
0.0
  0
LINE
  5
   3B8
  8
0
  6
CONTINUOUS
 62
     7
 10
-598.176778540387
 20
-3.54250335693376
 30
0.0
 11
-598.551778540387
 21
-3.54250335693376
 31
0.0
  0
LINE
  5
   3B9
  8
0
  6
CONTINUOUS
 62
     7
 10
-600.676778540387
 20
-3.54250335693376
 30
0.0
 11
-600.676778540387
 21
-1.79250335693376
 31
0.0
  0
LINE
  5
   3BA
  8
0
  6
CONTINUOUS
 62
     7
 10
-598.176778540387
 20
-3.54250335693376
 30
0.0
 11
-598.176778540387
 21
-1.79250335693376
 31
0.0
  0
LINE
  5
   3BB
  8
0
  6
CONTINUOUS
 62
     7
 10
-546.92678689704
 20
-3.64250338077545
 30
0.0
 11
-548.17678689704
 21
-3.64250338077545
 31
0.0
  0
LINE
  5
   3BC
  8
0
  6
CONTINUOUS
 62
     7
 10
-548.17678689704
 20
-4.54250335693359
 30
0.0
 11
-548.17678689704
 21
-3.64250338077545
 31
0.0
  0
ARC
  5
   3BD
  8
0
  6
CONTINUOUS
 62
     7
 10
-548.676787017674
 20
-4.54250330509161
 30
0.0
 40
0.500000053060852
 50
270.000010412851
 51
359.999993871278
  0
LINE
  5
   3BE
  8
0
  6
CONTINUOUS
 62
     7
 10
-548.67678689704
 20
-5.04250335693376
 30
0.0
 11
-563.551784009555
 21
-5.04250335693376
 31
0.0
  0
LINE
  5
   3BF
  8
0
  6
CONTINUOUS
 62
     7
 10
-550.676794932821
 20
-11.1674892776434
 30
0.0
 11
-550.676794932821
 21
-5.04250335693376
 31
0.0
  0
LINE
  5
   3C0
  8
0
  6
CONTINUOUS
 62
     7
 10
-550.676794932821
 20
-21.2925033569338
 30
0.0
 11
-550.676794932821
 21
-18.9174892776434
 31
0.0
  0
LINE
  5
   3C1
  8
0
  6
CONTINUOUS
 62
     7
 10
-550.676794932821
 20
-21.2925033569338
 30
0.0
 11
-560.67679493282
 21
-21.2925033569338
 31
0.0
  0
LINE
  5
   3C2
  8
0
  6
CONTINUOUS
 62
     7
 10
-560.67679493282
 20
-21.2925033569338
 30
0.0
 11
-560.67679493282
 21
-18.9174892776434
 31
0.0
  0
LINE
  5
   3C3
  8
0
  6
CONTINUOUS
 62
     7
 10
-560.67679493282
 20
-11.1674892776434
 30
0.0
 11
-560.67679493282
 21
-5.04250335693376
 31
0.0
  0
LINE
  5
   3C4
  8
0
  6
DASHDOT
 62
     7
 10
-547.79994500517
 20
-15.0424892776434
 30
0.0
 11
-563.603787074036
 21
-15.0424892776434
 31
0.0
  0
LINE
  5
   3C5
  8
0
  6
DASHDOT
 62
     7
 10
-555.676794932821
 20
-24.5734208944227
 30
0.0
 11
-555.676794932821
 21
5.45749679206423
 31
0.0
  0
LINE
  5
   3C6
  8
0
  6
CONTINUOUS
 62
     7
 10
-563.551784009555
 20
-5.0425033569336
 30
0.0
 11
-563.551784009555
 21
-3.54250335693376
 31
0.0
  0
LINE
  5
   3C7
  8
0
  6
CONTINUOUS
 62
     7
 10
-563.176784009555
 20
-3.54250335693376
 30
0.0
 11
-563.176784009555
 21
-1.79250335693376
 31
0.0
  0
LINE
  5
   3C8
  8
0
  6
CONTINUOUS
 62
     7
 10
-563.176784009555
 20
-1.79250335693376
 30
0.0
 11
-565.676784009555
 21
-1.79250335693376
 31
0.0
  0
LINE
  5
   3C9
  8
0
  6
CONTINUOUS
 62
     7
 10
-565.676784009555
 20
-3.54250335693376
 30
0.0
 11
-565.676784009555
 21
-1.79250335693376
 31
0.0
  0
LINE
  5
   3CA
  8
0
  6
CONTINUOUS
 62
     7
 10
-565.301784009555
 20
-5.0425033569336
 30
0.0
 11
-565.301784009555
 21
-3.54250335693376
 31
0.0
  0
LINE
  5
   3CB
  8
0
  6
CONTINUOUS
 62
     7
 10
-565.301784009555
 20
-5.04250335693376
 30
0.0
 11
-566.416799171226
 21
-5.04250335693376
 31
0.0
  0
LINE
  5
   3CC
  8
0
  6
CONTINUOUS
 62
     7
 10
-563.176784009555
 20
-3.54250335693376
 30
0.0
 11
-563.551784009555
 21
-3.54250335693376
 31
0.0
  0
LINE
  5
   3CD
  8
0
  6
CONTINUOUS
 62
     7
 10
-565.301784009555
 20
-3.54250335693376
 30
0.0
 11
-565.676784009555
 21
-3.54250335693376
 31
0.0
  0
CIRCLE
  5
   3CE
  8
0
  6
CONTINUOUS
 62
     7
 10
-555.676793235942
 20
-3.04250310377974
 30
0.0
 40
0.700000100813335
  0
CIRCLE
  5
   3CF
  8
0
  6
CONTINUOUS
 62
     7
 10
-555.676794932821
 20
1.20749834674998
 30
0.0
 40
2.74999844531425
  0
LINE
  5
   3D0
  8
0
  6
DASHDOT
 62
     7
 10
-547.926796487506
 20
1.20749834674998
 30
0.0
 11
-563.426793378135
 21
1.20749834674998
 31
0.0
  0
LINE
  5
   3D1
  8
0
  6
DASHDOT
 62
     7
 10
-549.976793135129
 20
-3.04250310377973
 30
0.0
 11
-561.376793336756
 21
-3.04250310377973
 31
0.0
  0
LINE
  5
   3D2
  8
0
  6
CONTINUOUS
 62
     7
 10
-563.867725939244
 20
-17.2756732273551
 30
0.0
 11
-568.833416965853
 21
6.55500416958182
 31
0.0
  0
LINE
  5
   3D3
  8
0
  6
CONTINUOUS
 62
     7
 10
-567.405218564995
 20
-18.5551918366691
 30
0.0
 11
-563.867725939244
 21
-17.2756732273551
 31
0.0
  0
LINE
  5
   3D4
  8
0
  6
CONTINUOUS
 62
     7
 10
-565.241326799243
 20
-29.0735874632363
 30
0.0
 11
-567.405218564995
 21
-18.5551918366691
 31
0.0
  0
LINE
  5
   3D5
  8
0
  6
CONTINUOUS
 62
     1
 10
-566.726760983304
 20
-18.3097922858449
 30
0.0
 11
-566.726760983304
 21
-3.91749763488963
 31
0.0
  0
LINE
  5
   3D6
  8
0
  6
CONTINUOUS
 62
     7
 10
-555.676794932821
 20
-16.4836424797112
 30
0.0
 11
-556.926794932821
 21
-15.7602395374368
 31
0.0
  0
LINE
  5
   3D7
  8
0
  6
CONTINUOUS
 62
     7
 10
-555.676794932821
 20
-16.4836424797112
 30
0.0
 11
-554.42679493282
 21
-15.7602395374368
 31
0.0
  0
LINE
  5
   3D8
  8
0
  6
CONTINUOUS
 62
     7
 10
-554.42679493282
 20
-15.7602395374368
 30
0.0
 11
-554.42679493282
 21
-14.32473901785
 31
0.0
  0
LINE
  5
   3D9
  8
0
  6
CONTINUOUS
 62
     7
 10
-554.42679493282
 20
-14.32473901785
 30
0.0
 11
-555.676794932821
 21
-13.6013360755755
 31
0.0
  0
LINE
  5
   3DA
  8
0
  6
CONTINUOUS
 62
     7
 10
-556.926794932821
 20
-14.32473901785
 30
0.0
 11
-555.676794932821
 21
-13.6013360755755
 31
0.0
  0
LINE
  5
   3DB
  8
0
  6
CONTINUOUS
 62
     7
 10
-556.926794932821
 20
-15.7602395374368
 30
0.0
 11
-556.926794932821
 21
-14.32473901785
 31
0.0
  0
CIRCLE
  5
   3DC
  8
0
  6
CONTINUOUS
 62
     7
 10
-555.676794932821
 20
-15.0424892776434
 30
0.0
 40
2.7775
  0
ARC
  5
   3DD
  8
0
  6
CONTINUOUS
 62
     7
 10
-555.676794932821
 20
-15.0424892776434
 30
0.0
 40
2.375
 50
89.9999999480344
 51
359.999999948034
  0
LINE
  5
   3DE
  8
0
  6
CONTINUOUS
 62
     7
 10
-550.426794932821
 20
-11.1674892776434
 30
0.0
 11
-560.926794932821
 21
-11.1674892776434
 31
0.0
  0
LINE
  5
   3DF
  8
0
  6
CONTINUOUS
 62
     7
 10
-550.426794932821
 20
-18.9174892776434
 30
0.0
 11
-560.926794932821
 21
-18.9174892776434
 31
0.0
  0
LINE
  5
   3E0
  8
0
  6
CONTINUOUS
 62
     7
 10
-550.426794932821
 20
-18.9174892776434
 30
0.0
 11
-550.426794932821
 21
-11.1674892776434
 31
0.0
  0
LINE
  5
   3E1
  8
0
  6
CONTINUOUS
 62
     7
 10
-560.926794932821
 20
-18.9174892776434
 30
0.0
 11
-560.926794932821
 21
-11.1674892776434
 31
0.0
  0
LINE
  5
   3E2
  8
0
  6
CONTINUOUS
 62
     7
 10
-613.82676098329
 20
7.83250812383609
 30
0.0
 11
-613.82676098329
 21
102.957486368224
 31
0.0
  0
LINE
  5
   3E3
  8
0
  6
CONTINUOUS
 62
     7
 10
-610.22676098329
 20
7.83250812383609
 30
0.0
 11
-610.22676098329
 21
102.957486368224
 31
0.0
  0
LINE
  5
   3E4
  8
0
  6
CONTINUOUS
 62
     7
 10
-606.62676098329
 20
7.83250812383609
 30
0.0
 11
-606.62676098329
 21
102.957486368224
 31
0.0
  0
LINE
  5
   3E5
  8
0
  6
CONTINUOUS
 62
     7
 10
-603.02676098329
 20
7.83250812383609
 30
0.0
 11
-603.02676098329
 21
102.957486368224
 31
0.0
  0
LINE
  5
   3E6
  8
0
  6
CONTINUOUS
 62
     7
 10
-565.926918663243
 20
70.5305786872635
 30
0.0
 11
-562.749852589292
 21
73.7076447612141
 31
0.0
  0
LINE
  5
   3E7
  8
0
  6
CONTINUOUS
 62
     7
 10
-566.10369535854
 20
70.7073553825601
 30
0.0
 11
-562.926629284589
 21
73.8844214565107
 31
0.0
  0
INSERT
  5
   3E8
  8
0
  6
CONTINUOUS
 62
     7
  2
*UDIM1133
 10
0.0
 20
0.0
 30
0.0
  0
INSERT
  5
   3E9
  8
0
  6
CONTINUOUS
 62
     7
  2
*UDIM1134
 10
0.0
 20
0.0
 30
0.0
  0
INSERT
  5
   3EA
  8
0
  6
CONTINUOUS
 62
     7
  2
*UDIM1135
 10
0.0
 20
0.0
 30
0.0
  0
INSERT
  5
   3EB
  8
0
  6
CONTINUOUS
 62
     7
  2
*UDIM1136
 10
0.0
 20
0.0
 30
0.0
  0
INSERT
  5
   3EC
  8
0
  6
CONTINUOUS
 62
     7
  2
*UDIM1137
 10
0.0
 20
0.0
 30
0.0
  0
INSERT
  5
   3ED
  8
0
  6
CONTINUOUS
 62
     7
  2
*UDIM1138
 10
0.0
 20
0.0
 30
0.0
  0
TEXT
  5
   3EE
  8
0
  6
CONTINUOUS
 62
     7
 10
-627.141716974295
 20
34.7621363482237
 30
0.0
 40
3.5
  1
x
 50
359.999999948034
 41
0.933333333333334
 72
     1
 11
-625.858383639383
 21
36.5121363470662
 31
0.0
 73
     2
  0
TEXT
  5
   3EF
  8
0
  6
CONTINUOUS
 62
     7
 10
-522.067846667156
 20
34.626030298603
 30
0.0
 40
3.5
  1
x
 50
359.999999948034
 41
0.933333333333334
 72
     1
 11
-520.784513332244
 21
36.3760302974456
 31
0.0
 73
     2
  0
LINE
  5
   3F0
  8
0
  6
CONTINUOUS
 62
     7
 10
-601.22676098329
 20
7.83250812383609
 30
0.0
 11
-601.22676098329
 21
99.0877719219257
 31
0.0
  0
LINE
  5
   3F1
  8
0
  6
CONTINUOUS
 62
     7
 10
-597.62676098329
 20
62.5825004577617
 30
0.0
 11
-597.62676098329
 21
88.4954642296178
 31
0.0
  0
LINE
  5
   3F2
  8
0
  6
CONTINUOUS
 62
     7
 10
-595.82676098329
 20
62.5825004577617
 30
0.0
 11
-595.82676098329
 21
83.1993103834639
 31
0.0
  0
LINE
  5
   3F3
  8
0
  6
CONTINUOUS
 62
     7
 10
-594.02676098329
 20
62.5825004577617
 30
0.0
 11
-594.02676098329
 21
77.90315653731
 31
0.0
  0
LINE
  5
   3F4
  8
0
  6
CONTINUOUS
 62
     7
 10
-592.22676098329
 20
62.5825004577617
 30
0.0
 11
-592.22676098329
 21
72.6070026911561
 31
0.0
  0
LINE
  5
   3F5
  8
0
  6
CONTINUOUS
 62
     7
 10
-590.42676098329
 20
62.5825004577617
 30
0.0
 11
-590.42676098329
 21
67.8324966430664
 31
0.0
  0
LINE
  5
   3F6
  8
0
  6
CONTINUOUS
 62
     7
 10
-588.62676098329
 20
62.5825004577617
 30
0.0
 11
-588.62676098329
 21
67.8324966430664
 31
0.0
  0
LINE
  5
   3F7
  8
0
  6
CONTINUOUS
 62
     7
 10
-586.82676098329
 20
62.5825004577617
 30
0.0
 11
-586.82676098329
 21
67.8324966430664
 31
0.0
  0
LINE
  5
   3F8
  8
0
  6
CONTINUOUS
 62
     7
 10
-585.02676098329
 20
62.5825004577617
 30
0.0
 11
-585.02676098329
 21
67.8324966430664
 31
0.0
  0
LINE
  5
   3F9
  8
0
  6
CONTINUOUS
 62
     7
 10
-583.22676098329
 20
62.5825004577617
 30
0.0
 11
-583.22676098329
 21
67.8324966430664
 31
0.0
  0
LINE
  5
   3FA
  8
0
  6
CONTINUOUS
 62
     7
 10
-581.42676098329
 20
62.5825004577617
 30
0.0
 11
-581.42676098329
 21
67.8324966430664
 31
0.0
  0
LINE
  5
   3FB
  8
0
  6
CONTINUOUS
 62
     7
 10
-579.62676098329
 20
62.5825004577617
 30
0.0
 11
-579.62676098329
 21
67.8324966430664
 31
0.0
  0
LINE
  5
   3FC
  8
0
  6
CONTINUOUS
 62
     7
 10
-577.82676098329
 20
62.5825004577617
 30
0.0
 11
-577.82676098329
 21
67.8324966430664
 31
0.0
  0
LINE
  5
   3FD
  8
0
  6
CONTINUOUS
 62
     7
 10
-576.02676098329
 20
62.5825004577617
 30
0.0
 11
-576.02676098329
 21
67.8324966430664
 31
0.0
  0
LINE
  5
   3FE
  8
0
  6
CONTINUOUS
 62
     7
 10
-574.22676098329
 20
62.5825004577617
 30
0.0
 11
-574.22676098329
 21
67.8324966430664
 31
0.0
  0
LINE
  5
   3FF
  8
0
  6
CONTINUOUS
 62
     7
 10
-572.42676098329
 20
62.5825004577617
 30
0.0
 11
-572.42676098329
 21
67.8324966430664
 31
0.0
  0
LINE
  5
   400
  8
0
  6
CONTINUOUS
 62
     7
 10
-570.62676098329
 20
62.5825004577617
 30
0.0
 11
-570.62676098329
 21
67.8324966430664
 31
0.0
  0
LINE
  5
   401
  8
0
  6
CONTINUOUS
 62
     7
 10
-568.82676098329
 20
62.5825004577617
 30
0.0
 11
-568.82676098329
 21
67.8324966430664
 31
0.0
  0
LINE
  5
   402
  8
0
  6
CONTINUOUS
 62
     7
 10
-567.02676098329
 20
62.5825004577617
 30
0.0
 11
-567.02676098329
 21
67.8324966430664
 31
0.0
  0
LINE
  5
   403
  8
0
  6
CONTINUOUS
 62
     7
 10
-565.22676098329
 20
62.5825004577617
 30
0.0
 11
-565.22676098329
 21
67.8324966430664
 31
0.0
  0
LINE
  5
   404
  8
0
  6
CONTINUOUS
 62
     7
 10
-563.42676098329
 20
62.5825004577617
 30
0.0
 11
-563.42676098329
 21
67.8324966430664
 31
0.0
  0
LINE
  5
   405
  8
0
  6
CONTINUOUS
 62
     7
 10
-561.62676098329
 20
62.5825004577617
 30
0.0
 11
-561.62676098329
 21
67.8324966430664
 31
0.0
  0
LINE
  5
   406
  8
0
  6
CONTINUOUS
 62
     7
 10
-559.82676098329
 20
62.5825004577617
 30
0.0
 11
-559.82676098329
 21
67.8324966430664
 31
0.0
  0
LINE
  5
   407
  8
0
  6
CONTINUOUS
 62
     7
 10
-558.02676098329
 20
62.5825004577617
 30
0.0
 11
-558.02676098329
 21
67.8324966430664
 31
0.0
  0
LINE
  5
   408
  8
0
  6
CONTINUOUS
 62
     7
 10
-556.22676098329
 20
62.5825004577617
 30
0.0
 11
-556.22676098329
 21
67.8324966430664
 31
0.0
  0
LINE
  5
   409
  8
0
  6
CONTINUOUS
 62
     7
 10
-554.42676098329
 20
62.5825004577617
 30
0.0
 11
-554.42676098329
 21
67.8324966430664
 31
0.0
  0
LINE
  5
   40A
  8
0
  6
CONTINUOUS
 62
     7
 10
-552.62676098329
 20
62.5825004577617
 30
0.0
 11
-552.62676098329
 21
67.8324966430664
 31
0.0
  0
LINE
  5
   40B
  8
0
  6
CONTINUOUS
 62
     7
 10
-550.82676098329
 20
62.5825004577617
 30
0.0
 11
-550.82676098329
 21
67.8324966430664
 31
0.0
  0
LINE
  5
   40C
  8
0
  6
CONTINUOUS
 62
     7
 10
-549.02676098329
 20
62.5825004577617
 30
0.0
 11
-549.02676098329
 21
67.8324966430664
 31
0.0
  0
INSERT
  5
   40D
  8
0
  6
CONTINUOUS
 62
     7
  2
*UDIM1139
 10
0.0
 20
0.0
 30
0.0
  0
INSERT
  5
   40E
  8
0
  6
CONTINUOUS
 62
     7
  2
*UDIM1140
 10
0.0
 20
0.0
 30
0.0
  0
INSERT
  5
   40F
  8
0
  6
CONTINUOUS
 62
     7
  2
*UDIM1141
 10
0.0
 20
0.0
 30
0.0
  0
INSERT
  5
   410
  8
0
  6
CONTINUOUS
 62
     7
  2
*UDIM1142
 10
0.0
 20
0.0
 30
0.0
  0
INSERT
  5
   411
  8
0
  6
CONTINUOUS
 62
     7
  2
*UDIM1143
 10
0.0
 20
0.0
 30
0.0
  0
INSERT
  5
   412
  8
0
  6
CONTINUOUS
 62
     7
  2
*UDIM1144
 10
0.0
 20
0.0
 30
0.0
  0
INSERT
  5
   413
  8
0
  6
CONTINUOUS
 62
     7
  2
*UDIM1145
 10
0.0
 20
0.0
 30
0.0
  0
INSERT
  5
   414
  8
0
  6
CONTINUOUS
 62
     7
  2
*UDIM1146
 10
0.0
 20
0.0
 30
0.0
  0
INSERT
  5
   415
  8
0
  6
CONTINUOUS
 62
     7
  2
*UDIM1147
 10
0.0
 20
0.0
 30
0.0
  0
INSERT
  5
   416
  8
0
  6
CONTINUOUS
 62
     7
  2
*UDIM1148
 10
0.0
 20
0.0
 30
0.0
  0
INSERT
  5
   417
  8
0
  6
CONTINUOUS
 62
     7
  2
*UDIM1149
 10
0.0
 20
0.0
 30
0.0
  0
LINE
  5
   418
  8
0
  6
CONTINUOUS
 62
     7
 10
-589.775993118585
 20
65.3960895507727
 30
0.0
 11
-603.931018319193
 21
107.044529083332
 31
0.0
  0
LINE
  5
   419
  8
0
  6
CONTINUOUS
 62
     7
 10
-599.42676098329
 20
62.5825004577617
 30
0.0
 11
-599.42676098329
 21
93.7916180757717
 31
0.0
  0
ARC
  5
   41A
  8
0
  6
CONTINUOUS
 62
     7
 10
-616.426781274971
 20
102.457504283681
 30
0.0
 40
0.5
 50
89.9999999480344
 51
179.999999948034
  0
LINE
  5
   41B
  8
0
  6
CONTINUOUS
 62
   218
 10
-454.963369765879
 20
-21.0424920412681
 30
0.0
 11
-454.963369765879
 21
-9.54249204126805
 31
0.0
  0
LINE
  5
   41C
  8
0
  6
CONTINUOUS
 62
   218
 10
-448.763369765879
 20
-21.0424920412681
 30
0.0
 11
-448.763369765879
 21
-9.54249204126805
 31
0.0
  0
LINE
  5
   41D
  8
0
  6
CONTINUOUS
 62
   218
 10
-447.863369765879
 20
-21.0424920412681
 30
0.0
 11
-455.863369765879
 21
-21.0424920412681
 31
0.0
  0
LINE
  5
   41E
  8
0
  6
CONTINUOUS
 62
   218
 10
-447.863369765879
 20
-35.3485716124802
 30
0.0
 11
-447.863369765879
 21
-21.0424920412681
 31
0.0
  0
LINE
  5
   41F
  8
0
  6
CONTINUOUS
 62
   218
 10
-455.863369765879
 20
-35.3485716124802
 30
0.0
 11
-455.863369765879
 21
-21.0424920412681
 31
0.0
  0
LINE
  5
   420
  8
0
  6
CONTINUOUS
 62
   218
 10
-454.601928672346
 20
-21.042492041269
 30
0.0
 11
-452.574168394199
 21
-9.54249204126906
 31
0.0
  0
LINE
  5
   421
  8
0
  6
CONTINUOUS
 62
   218
 10
-454.963369765879
 20
-15.0300476674825
 30
0.0
 11
-453.995765650839
 21
-9.54249204126907
 31
0.0
  0
LINE
  5
   422
  8
0
  6
CONTINUOUS
 62
   218
 10
-453.180331415706
 20
-21.0424920412685
 30
0.0
 11
-451.152571137559
 21
-9.54249204126855
 31
0.0
  0
LINE
  5
   423
  8
0
  6
CONTINUOUS
 62
   218
 10
-451.758734159066
 20
-21.0424920412693
 30
0.0
 11
-449.730973880918
 21
-9.54249204126934
 31
0.0
  0
LINE
  5
   424
  8
0
  6
CONTINUOUS
 62
   218
 10
-450.337136902426
 20
-21.0424920412691
 30
0.0
 11
-448.763369765879
 21
-12.1172150914571
 31
0.0
  0
LINE
  5
   425
  8
0
  6
CONTINUOUS
 62
   218
 10
-448.915539645786
 20
-21.0424920412681
 30
0.0
 11
-448.763369765879
 21
-20.1794937678574
 31
0.0
  0
INSERT
  5
   426
  8
0
  6
CONTINUOUS
 62
   218
  2
*HATCH304
 10
-422.063415527344
 20
-18.6610298156738
 30
0.0
 41
0.5
 42
0.5
 50
89.9999999480344
 43
0.5
  0
POLYLINE
  5
   427
  8
0
  6
CONTINUOUS
 62
     7
 66
     1
 10
0.0
 20
0.0
 30
0.0
  0
VERTEX
  5
   428
  8
0
  6
CONTINUOUS
 10
-455.863369765879
 20
-35.3485716124903
 30
0.0
 40
0.0
 41
0.0
  0
VERTEX
  5
   429
  8
0
  6
CONTINUOUS
 10
-455.862767403271
 20
-35.3731128410132
 30
0.0
 40
0.0
 41
0.0
  0
VERTEX
  5
   42A
  8
0
  6
CONTINUOUS
 10
-455.860960678288
 20
-35.3976392868177
 30
0.0
 40
0.0
 41
0.0
  0
VERTEX
  5
   42B
  8
0
  6
CONTINUOUS
 10
-455.857950679235
 20
-35.42213617609
 30
0.0
 40
0.0
 41
0.0
  0
VERTEX
  5
   42C
  8
0
  6
CONTINUOUS
 10
-455.853739219222
 20
-35.4465887528199
 30
0.0
 40
0.0
 41
0.0
  0
VERTEX
  5
   42D
  8
0
  6
CONTINUOUS
 10
-455.848328835075
 20
-35.4709822876895
 30
0.0
 40
0.0
 41
0.0
  0
VERTEX
  5
   42E
  8
0
  6
CONTINUOUS
 10
-455.841722785807
 20
-35.4953020869457
 30
0.0
 40
0.0
 41
0.0
  0
VERTEX
  5
   42F
  8
0
  6
CONTINUOUS
 10
-455.833925050655
 20
-35.5195335012506
 30
0.0
 40
0.0
 41
0.0
  0
VERTEX
  5
   430
  8
0
  6
CONTINUOUS
 10
-455.824940326683
 20
-35.5436619345064
 30
0.0
 40
0.0
 41
0.0
  0
VERTEX
  5
   431
  8
0
  6
CONTINUOUS
 10
-455.814774025954
 20
-35.5676728526471
 30
0.0
 40
0.0
 41
0.0
  0
VERTEX
  5
   432
  8
0
  6
CONTINUOUS
 10
-455.803432272265
 20
-35.5915517923934
 30
0.0
 40
0.0
 41
0.0
  0
VERTEX
  5
   433
  8
0
  6
CONTINUOUS
 10
-455.790921897467
 20
-35.615284369965
 30
0.0
 40
0.0
 41
0.0
  0
VERTEX
  5
   434
  8
0
  6
CONTINUOUS
 10
-455.77725043734
 20
-35.6388562897446
 30
0.0
 40
0.0
 41
0.0
  0
VERTEX
  5
   435
  8
0
  6
CONTINUOUS
 10
-455.762426127062
 20
-35.6622533528889
 30
0.0
 40
0.0
 41
0.0
  0
VERTEX
  5
   436
  8
0
  6
CONTINUOUS
 10
-455.746457896241
 20
-35.6854614658822
 30
0.0
 40
0.0
 41
0.0
  0
VERTEX
  5
   437
  8
0
  6
CONTINUOUS
 10
-455.729355363545
 20
-35.7084666490249
 30
0.0
 40
0.0
 41
0.0
  0
VERTEX
  5
   438
  8
0
  6
CONTINUOUS
 10
-455.711128830897
 20
-35.7312550448549
 30
0.0
 40
0.0
 41
0.0
  0
VERTEX
  5
   439
  8
0
  6
CONTINUOUS
 10
-455.671348352121
 20
-35.7761267059199
 30
0.0
 40
0.0
 41
0.0
  0
VERTEX
  5
   43A
  8
0
  6
CONTINUOUS
 10
-455.627212294571
 20
-35.8199683493155
 30
0.0
 40
0.0
 41
0.0
  0
VERTEX
  5
   43B
  8
0
  6
CONTINUOUS
 10
-455.578826985874
 20
-35.8626743566825
 30
0.0
 40
0.0
 41
0.0
  0
VERTEX
  5
   43C
  8
0
  6
CONTINUOUS
 10
-455.526308990478
 20
-35.9041418455086
 30
0.0
 40
0.0
 41
0.0
  0
VERTEX
  5
   43D
  8
0
  6
CONTINUOUS
 10
-455.469784828834
 20
-35.9442709169812
 30
0.0
 40
0.0
 41
0.0
  0
VERTEX
  5
   43E
  8
0
  6
CONTINUOUS
 10
-455.409390672598
 20
-35.9829648966521
 30
0.0
 40
0.0
 41
0.0
  0
VERTEX
  5
   43F
  8
0
  6
CONTINUOUS
 10
-455.345272016582
 20
-36.0201305673351
 30
0.0
 40
0.0
 41
0.0
  0
VERTEX
  5
   440
  8
0
  6
CONTINUOUS
 10
-455.277583328245
 20
-36.0556783936743
 30
0.0
 40
0.0
 41
0.0
  0
VERTEX
  5
   441
  8
0
  6
CONTINUOUS
 10
-455.206487675565
 20
-36.0895227378424
 30
0.0
 40
0.0
 41
0.0
  0
VERTEX
  5
   442
  8
0
  6
CONTINUOUS
 10
-455.132156334198
 20
-36.1215820658498
 30
0.0
 40
0.0
 41
0.0
  0
VERTEX
  5
   443
  8
0
  6
CONTINUOUS
 10
-455.054768374855
 20
-36.1517791439673
 30
0.0
 40
0.0
 41
0.0
  0
VERTEX
  5
   444
  8
0
  6
CONTINUOUS
 10
-454.974510231909
 20
-36.1800412247888
 30
0.0
 40
0.0
 41
0.0
  0
VERTEX
  5
   445
  8
0
  6
CONTINUOUS
 10
-454.891575254256
 20
-36.2063002224861
 30
0.0
 40
0.0
 41
0.0
  0
VERTEX
  5
   446
  8
0
  6
CONTINUOUS
 10
-454.806163239521
 20
-36.2304928768337
 30
0.0
 40
0.0
 41
0.0
  0
VERTEX
  5
   447
  8
0
  6
CONTINUOUS
 10
-454.71847995273
 20
-36.2525609056084
 30
0.0
 40
0.0
 41
0.0
  0
VERTEX
  5
   448
  8
0
  6
CONTINUOUS
 10
-454.628736630599
 20
-36.2724511449957
 30
0.0
 40
0.0
 41
0.0
  0
VERTEX
  5
   449
  8
0
  6
CONTINUOUS
 10
-454.537149472653
 20
-36.290115677667
 30
0.0
 40
0.0
 41
0.0
  0
VERTEX
  5
   44A
  8
0
  6
CONTINUOUS
 10
-454.443939120377
 20
-36.3055119482157
 30
0.0
 40
0.0
 41
0.0
  0
VERTEX
  5
   44B
  8
0
  6
CONTINUOUS
 10
-454.349330125674
 20
-36.3186028656775
 30
0.0
 40
0.0
 41
0.0
  0
VERTEX
  5
   44C
  8
0
  6
CONTINUOUS
 10
-454.2535504099
 20
-36.3293568928857
 30
0.0
 40
0.0
 41
0.0
  0
VERTEX
  5
   44D
  8
0
  6
CONTINUOUS
 10
-454.156830714778
 20
-36.3377481224467
 30
0.0
 40
0.0
 41
0.0
  0
VERTEX
  5
   44E
  8
0
  6
CONTINUOUS
 10
-454.059404046527
 20
-36.3437563391535
 30
0.0
 40
0.0
 41
0.0
  0
VERTEX
  5
   44F
  8
0
  6
CONTINUOUS
 10
-453.961505114522
 20
-36.347367068686
 30
0.0
 40
0.0
 41
0.0
  0
VERTEX
  5
   450
  8
0
  6
CONTINUOUS
 10
-453.863369765867
 20
-36.3485716124802
 30
0.0
 40
0.0
 41
0.0
  0
VERTEX
  5
   451
  8
0
  6
CONTINUOUS
 10
-453.765234417212
 20
-36.3473670686849
 30
0.0
 40
0.0
 41
0.0
  0
VERTEX
  5
   452
  8
0
  6
CONTINUOUS
 10
-453.667335485208
 20
-36.3437563391513
 30
0.0
 40
0.0
 41
0.0
  0
VERTEX
  5
   453
  8
0
  6
CONTINUOUS
 10
-453.569908816956
 20
-36.3377481224433
 30
0.0
 40
0.0
 41
0.0
  0
VERTEX
  5
   454
  8
0
  6
CONTINUOUS
 10
-453.473189121835
 20
-36.3293568928812
 30
0.0
 40
0.0
 41
0.0
  0
VERTEX
  5
   455
  8
0
  6
CONTINUOUS
 10
-453.377409406061
 20
-36.318602865672
 30
0.0
 40
0.0
 41
0.0
  0
VERTEX
  5
   456
  8
0
  6
CONTINUOUS
 10
-453.282800411358
 20
-36.3055119482091
 30
0.0
 40
0.0
 41
0.0
  0
VERTEX
  5
   457
  8
0
  6
CONTINUOUS
 10
-453.189590059083
 20
-36.2901156776594
 30
0.0
 40
0.0
 41
0.0
  0
VERTEX
  5
   458
  8
0
  6
CONTINUOUS
 10
-453.098002901137
 20
-36.2724511449871
 30
0.0
 40
0.0
 41
0.0
  0
VERTEX
  5
   459
  8
0
  6
CONTINUOUS
 10
-453.008259579007
 20
-36.2525609055987
 30
0.0
 40
0.0
 41
0.0
  0
VERTEX
  5
   45A
  8
0
  6
CONTINUOUS
 10
-452.920576292216
 20
-36.2304928768231
 30
0.0
 40
0.0
 41
0.0
  0
VERTEX
  5
   45B
  8
0
  6
CONTINUOUS
 10
-452.835164277482
 20
-36.2063002224745
 30
0.0
 40
0.0
 41
0.0
  0
VERTEX
  5
   45C
  8
0
  6
CONTINUOUS
 10
-452.752229299829
 20
-36.1800412247762
 30
0.0
 40
0.0
 41
0.0
  0
VERTEX
  5
   45D
  8
0
  6
CONTINUOUS
 10
-452.671971156884
 20
-36.1517791439538
 30
0.0
 40
0.0
 41
0.0
  0
VERTEX
  5
   45E
  8
0
  6
CONTINUOUS
 10
-452.594583197542
 20
-36.1215820658355
 30
0.0
 40
0.0
 41
0.0
  0
VERTEX
  5
   45F
  8
0
  6
CONTINUOUS
 10
-452.520251856175
 20
-36.0895227378272
 30
0.0
 40
0.0
 41
0.0
  0
VERTEX
  5
   460
  8
0
  6
CONTINUOUS
 10
-452.449156203497
 20
-36.0556783936584
 30
0.0
 40
0.0
 41
0.0
  0
VERTEX
  5
   461
  8
0
  6
CONTINUOUS
 10
-452.38146751516
 20
-36.0201305673184
 30
0.0
 40
0.0
 41
0.0
  0
VERTEX
  5
   462
  8
0
  6
CONTINUOUS
 10
-452.317348859145
 20
-35.9829648966346
 30
0.0
 40
0.0
 41
0.0
  0
VERTEX
  5
   463
  8
0
  6
CONTINUOUS
 10
-452.25695470291
 20
-35.944270916963
 30
0.0
 40
0.0
 41
0.0
  0
VERTEX
  5
   464
  8
0
  6
CONTINUOUS
 10
-452.200430541266
 20
-35.9041418454898
 30
0.0
 40
0.0
 41
0.0
  0
VERTEX
  5
   465
  8
0
  6
CONTINUOUS
 10
-452.147912545871
 20
-35.8626743566631
 30
0.0
 40
0.0
 41
0.0
  0
VERTEX
  5
   466
  8
0
  6
CONTINUOUS
 10
-452.099527237176
 20
-35.8199683492955
 30
0.0
 40
0.0
 41
0.0
  0
VERTEX
  5
   467
  8
0
  6
CONTINUOUS
 10
-452.055391179626
 20
-35.7761267058995
 30
0.0
 40
0.0
 41
0.0
  0
VERTEX
  5
   468
  8
0
  6
CONTINUOUS
 10
-452.015610700851
 20
-35.731255044834
 30
0.0
 40
0.0
 41
0.0
  0
VERTEX
  5
   469
  8
0
  6
CONTINUOUS
 10
-451.997384168204
 20
-35.7084666490038
 30
0.0
 40
0.0
 41
0.0
  0
VERTEX
  5
   46A
  8
0
  6
CONTINUOUS
 10
-451.980281635508
 20
-35.6854614658609
 30
0.0
 40
0.0
 41
0.0
  0
VERTEX
  5
   46B
  8
0
  6
CONTINUOUS
 10
-451.964313404688
 20
-35.6622533528674
 30
0.0
 40
0.0
 41
0.0
  0
VERTEX
  5
   46C
  8
0
  6
CONTINUOUS
 10
-451.94948909441
 20
-35.6388562897229
 30
0.0
 40
0.0
 41
0.0
  0
VERTEX
  5
   46D
  8
0
  6
CONTINUOUS
 10
-451.935817634284
 20
-35.6152843699432
 30
0.0
 40
0.0
 41
0.0
  0
VERTEX
  5
   46E
  8
0
  6
CONTINUOUS
 10
-451.923307259486
 20
-35.5915517923715
 30
0.0
 40
0.0
 41
0.0
  0
VERTEX
  5
   46F
  8
0
  6
CONTINUOUS
 10
-451.911965505799
 20
-35.567672852625
 30
0.0
 40
0.0
 41
0.0
  0
VERTEX
  5
   470
  8
0
  6
CONTINUOUS
 10
-451.901799205069
 20
-35.5436619344842
 30
0.0
 40
0.0
 41
0.0
  0
VERTEX
  5
   471
  8
0
  6
CONTINUOUS
 10
-451.892814481098
 20
-35.5195335012283
 30
0.0
 40
0.0
 41
0.0
  0
VERTEX
  5
   472
  8
0
  6
CONTINUOUS
 10
-451.885016745947
 20
-35.4953020869233
 30
0.0
 40
0.0
 41
0.0
  0
VERTEX
  5
   473
  8
0
  6
CONTINUOUS
 10
-451.878410696679
 20
-35.4709822876671
 30
0.0
 40
0.0
 41
0.0
  0
VERTEX
  5
   474
  8
0
  6
CONTINUOUS
 10
-451.873000312533
 20
-35.4465887527974
 30
0.0
 40
0.0
 41
0.0
  0
VERTEX
  5
   475
  8
0
  6
CONTINUOUS
 10
-451.86878885252
 20
-35.4221361760674
 30
0.0
 40
0.0
 41
0.0
  0
VERTEX
  5
   476
  8
0
  6
CONTINUOUS
 10
-451.865778853468
 20
-35.3976392867952
 30
0.0
 40
0.0
 41
0.0
  0
VERTEX
  5
   477
  8
0
  6
CONTINUOUS
 10
-451.863972128486
 20
-35.3731128409906
 30
0.0
 40
0.0
 41
0.0
  0
VERTEX
  5
   478
  8
0
  6
CONTINUOUS
 10
-451.863369765879
 20
-35.3485716124677
 30
0.0
 40
0.0
 41
0.0
  0
SEQEND
  5
   479
  8
0
  6
CONTINUOUS
 62
     7
  0
POLYLINE
  5
   47A
  8
0
  6
CONTINUOUS
 62
     7
 66
     1
 10
0.0
 20
0.0
 30
0.0
 70
     1
  0
VERTEX
  5
   47B
  8
0
  6
CONTINUOUS
 10
-447.863369765879
 20
-35.3485716124727
 30
0.0
 40
0.0
 41
0.0
  0
VERTEX
  5
   47C
  8
0
  6
CONTINUOUS
 10
-447.863972128486
 20
-35.3240303839498
 30
0.0
 40
0.0
 41
0.0
  0
VERTEX
  5
   47D
  8
0
  6
CONTINUOUS
 10
-447.865778853468
 20
-35.2995039381453
 30
0.0
 40
0.0
 41
0.0
  0
VERTEX
  5
   47E
  8
0
  6
CONTINUOUS
 10
-447.868788852521
 20
-35.2750070488731
 30
0.0
 40
0.0
 41
0.0
  0
VERTEX
  5
   47F
  8
0
  6
CONTINUOUS
 10
-447.873000312534
 20
-35.2505544721432
 30
0.0
 40
0.0
 41
0.0
  0
VERTEX
  5
   480
  8
0
  6
CONTINUOUS
 10
-447.878410696682
 20
-35.2261609372735
 30
0.0
 40
0.0
 41
0.0
  0
VERTEX
  5
   481
  8
0
  6
CONTINUOUS
 10
-447.88501674595
 20
-35.2018411380174
 30
0.0
 40
0.0
 41
0.0
  0
VERTEX
  5
   482
  8
0
  6
CONTINUOUS
 10
-447.892814481101
 20
-35.1776097237125
 30
0.0
 40
0.0
 41
0.0
  0
VERTEX
  5
   483
  8
0
  6
CONTINUOUS
 10
-447.901799205073
 20
-35.1534812904567
 30
0.0
 40
0.0
 41
0.0
  0
VERTEX
  5
   484
  8
0
  6
CONTINUOUS
 10
-447.911965505802
 20
-35.129470372316
 30
0.0
 40
0.0
 41
0.0
  0
VERTEX
  5
   485
  8
0
  6
CONTINUOUS
 10
-447.92330725949
 20
-35.1055914325697
 30
0.0
 40
0.0
 41
0.0
  0
VERTEX
  5
   486
  8
0
  6
CONTINUOUS
 10
-447.935817634289
 20
-35.0818588549981
 30
0.0
 40
0.0
 41
0.0
  0
VERTEX
  5
   487
  8
0
  6
CONTINUOUS
 10
-447.949489094415
 20
-35.0582869352186
 30
0.0
 40
0.0
 41
0.0
  0
VERTEX
  5
   488
  8
0
  6
CONTINUOUS
 10
-447.964313404694
 20
-35.0348898720742
 30
0.0
 40
0.0
 41
0.0
  0
VERTEX
  5
   489
  8
0
  6
CONTINUOUS
 10
-447.980281635514
 20
-35.0116817590809
 30
0.0
 40
0.0
 41
0.0
  0
VERTEX
  5
   48A
  8
0
  6
CONTINUOUS
 10
-447.99738416821
 20
-34.9886765759382
 30
0.0
 40
0.0
 41
0.0
  0
VERTEX
  5
   48B
  8
0
  6
CONTINUOUS
 10
-448.015610700857
 20
-34.9658881801082
 30
0.0
 40
0.0
 41
0.0
  0
VERTEX
  5
   48C
  8
0
  6
CONTINUOUS
 10
-448.055391179633
 20
-34.9210165190432
 30
0.0
 40
0.0
 41
0.0
  0
VERTEX
  5
   48D
  8
0
  6
CONTINUOUS
 10
-448.099527237184
 20
-34.8771748756476
 30
0.0
 40
0.0
 41
0.0
  0
VERTEX
  5
   48E
  8
0
  6
CONTINUOUS
 10
-448.14791254588
 20
-34.8344688682806
 30
0.0
 40
0.0
 41
0.0
  0
VERTEX
  5
   48F
  8
0
  6
CONTINUOUS
 10
-448.200430541276
 20
-34.7930013794544
 30
0.0
 40
0.0
 41
0.0
  0
VERTEX
  5
   490
  8
0
  6
CONTINUOUS
 10
-448.25695470292
 20
-34.7528723079818
 30
0.0
 40
0.0
 41
0.0
  0
VERTEX
  5
   491
  8
0
  6
CONTINUOUS
 10
-448.317348859155
 20
-34.7141783283108
 30
0.0
 40
0.0
 41
0.0
  0
VERTEX
  5
   492
  8
0
  6
CONTINUOUS
 10
-448.381467515171
 20
-34.6770126576276
 30
0.0
 40
0.0
 41
0.0
  0
VERTEX
  5
   493
  8
0
  6
CONTINUOUS
 10
-448.449156203508
 20
-34.6414648312884
 30
0.0
 40
0.0
 41
0.0
  0
VERTEX
  5
   494
  8
0
  6
CONTINUOUS
 10
-448.520251856187
 20
-34.6076204871202
 30
0.0
 40
0.0
 41
0.0
  0
VERTEX
  5
   495
  8
0
  6
CONTINUOUS
 10
-448.594583197554
 20
-34.5755611591127
 30
0.0
 40
0.0
 41
0.0
  0
VERTEX
  5
   496
  8
0
  6
CONTINUOUS
 10
-448.671971156897
 20
-34.5453640809951
 30
0.0
 40
0.0
 41
0.0
  0
VERTEX
  5
   497
  8
0
  6
CONTINUOUS
 10
-448.752229299842
 20
-34.5171020001735
 30
0.0
 40
0.0
 41
0.0
  0
VERTEX
  5
   498
  8
0
  6
CONTINUOUS
 10
-448.835164277495
 20
-34.4908430024761
 30
0.0
 40
0.0
 41
0.0
  0
VERTEX
  5
   499
  8
0
  6
CONTINUOUS
 10
-448.92057629223
 20
-34.4666503481283
 30
0.0
 40
0.0
 41
0.0
  0
VERTEX
  5
   49A
  8
0
  6
CONTINUOUS
 10
-449.008259579021
 20
-34.4445823193536
 30
0.0
 40
0.0
 41
0.0
  0
VERTEX
  5
   49B
  8
0
  6
CONTINUOUS
 10
-449.098002901152
 20
-34.4246920799661
 30
0.0
 40
0.0
 41
0.0
  0
VERTEX
  5
   49C
  8
0
  6
CONTINUOUS
 10
-449.189590059098
 20
-34.4070275472947
 30
0.0
 40
0.0
 41
0.0
  0
VERTEX
  5
   49D
  8
0
  6
CONTINUOUS
 10
-449.282800411373
 20
-34.3916312767458
 30
0.0
 40
0.0
 41
0.0
  0
VERTEX
  5
   49E
  8
0
  6
CONTINUOUS
 10
-449.377409406076
 20
-34.3785403592839
 30
0.0
 40
0.0
 41
0.0
  0
VERTEX
  5
   49F
  8
0
  6
CONTINUOUS
 10
-449.47318912185
 20
-34.3677863320755
 30
0.0
 40
0.0
 41
0.0
  0
VERTEX
  5
   4A0
  8
0
  6
CONTINUOUS
 10
-449.569908816972
 20
-34.3593951025144
 30
0.0
 40
0.0
 41
0.0
  0
VERTEX
  5
   4A1
  8
0
  6
CONTINUOUS
 10
-449.667335485223
 20
-34.3533868858073
 30
0.0
 40
0.0
 41
0.0
  0
VERTEX
  5
   4A2
  8
0
  6
CONTINUOUS
 10
-449.765234417228
 20
-34.3497761562747
 30
0.0
 40
0.0
 41
0.0
  0
VERTEX
  5
   4A3
  8
0
  6
CONTINUOUS
 10
-449.863369765882
 20
-34.3485716124802
 30
0.0
 40
0.0
 41
0.0
  0
VERTEX
  5
   4A4
  8
0
  6
CONTINUOUS
 10
-449.961505114537
 20
-34.3497761562754
 30
0.0
 40
0.0
 41
0.0
  0
VERTEX
  5
   4A5
  8
0
  6
CONTINUOUS
 10
-450.059404046541
 20
-34.3533868858088
 30
0.0
 40
0.0
 41
0.0
  0
VERTEX
  5
   4A6
  8
0
  6
CONTINUOUS
 10
-450.156830714793
 20
-34.3593951025166
 30
0.0
 40
0.0
 41
0.0
  0
VERTEX
  5
   4A7
  8
0
  6
CONTINUOUS
 10
-450.253550409915
 20
-34.3677863320785
 30
0.0
 40
0.0
 41
0.0
  0
VERTEX
  5
   4A8
  8
0
  6
CONTINUOUS
 10
-450.349330125689
 20
-34.3785403592875
 30
0.0
 40
0.0
 41
0.0
  0
VERTEX
  5
   4A9
  8
0
  6
CONTINUOUS
 10
-450.443939120391
 20
-34.3916312767502
 30
0.0
 40
0.0
 41
0.0
  0
VERTEX
  5
   4AA
  8
0
  6
CONTINUOUS
 10
-450.537149472667
 20
-34.4070275472998
 30
0.0
 40
0.0
 41
0.0
  0
VERTEX
  5
   4AB
  8
0
  6
CONTINUOUS
 10
-450.628736630612
 20
-34.4246920799718
 30
0.0
 40
0.0
 41
0.0
  0
VERTEX
  5
   4AC
  8
0
  6
CONTINUOUS
 10
-450.718479952743
 20
-34.44458231936
 30
0.0
 40
0.0
 41
0.0
  0
VERTEX
  5
   4AD
  8
0
  6
CONTINUOUS
 10
-450.806163239534
 20
-34.4666503481354
 30
0.0
 40
0.0
 41
0.0
  0
VERTEX
  5
   4AE
  8
0
  6
CONTINUOUS
 10
-450.891575254268
 20
-34.4908430024838
 30
0.0
 40
0.0
 41
0.0
  0
VERTEX
  5
   4AF
  8
0
  6
CONTINUOUS
 10
-450.974510231921
 20
-34.5171020001819
 30
0.0
 40
0.0
 41
0.0
  0
VERTEX
  5
   4B0
  8
0
  6
CONTINUOUS
 10
-451.054768374866
 20
-34.5453640810041
 30
0.0
 40
0.0
 41
0.0
  0
VERTEX
  5
   4B1
  8
0
  6
CONTINUOUS
 10
-451.132156334209
 20
-34.5755611591223
 30
0.0
 40
0.0
 41
0.0
  0
VERTEX
  5
   4B2
  8
0
  6
CONTINUOUS
 10
-451.206487675575
 20
-34.6076204871303
 30
0.0
 40
0.0
 41
0.0
  0
VERTEX
  5
   4B3
  8
0
  6
CONTINUOUS
 10
-451.277583328254
 20
-34.641464831299
 30
0.0
 40
0.0
 41
0.0
  0
VERTEX
  5
   4B4
  8
0
  6
CONTINUOUS
 10
-451.345272016591
 20
-34.6770126576388
 30
0.0
 40
0.0
 41
0.0
  0
VERTEX
  5
   4B5
  8
0
  6
CONTINUOUS
 10
-451.409390672606
 20
-34.7141783283224
 30
0.0
 40
0.0
 41
0.0
  0
VERTEX
  5
   4B6
  8
0
  6
CONTINUOUS
 10
-451.469784828842
 20
-34.7528723079939
 30
0.0
 40
0.0
 41
0.0
  0
VERTEX
  5
   4B7
  8
0
  6
CONTINUOUS
 10
-451.526308990486
 20
-34.7930013794669
 30
0.0
 40
0.0
 41
0.0
  0
VERTEX
  5
   4B8
  8
0
  6
CONTINUOUS
 10
-451.578826985881
 20
-34.8344688682935
 30
0.0
 40
0.0
 41
0.0
  0
VERTEX
  5
   4B9
  8
0
  6
CONTINUOUS
 10
-451.627212294577
 20
-34.8771748756609
 30
0.0
 40
0.0
 41
0.0
  0
VERTEX
  5
   4BA
  8
0
  6
CONTINUOUS
 10
-451.671348352127
 20
-34.9210165190568
 30
0.0
 40
0.0
 41
0.0
  0
VERTEX
  5
   4BB
  8
0
  6
CONTINUOUS
 10
-451.711128830903
 20
-34.9658881801221
 30
0.0
 40
0.0
 41
0.0
  0
VERTEX
  5
   4BC
  8
0
  6
CONTINUOUS
 10
-451.729355363549
 20
-34.9886765759523
 30
0.0
 40
0.0
 41
0.0
  0
VERTEX
  5
   4BD
  8
0
  6
CONTINUOUS
 10
-451.746457896246
 20
-35.0116817590951
 30
0.0
 40
0.0
 41
0.0
  0
VERTEX
  5
   4BE
  8
0
  6
CONTINUOUS
 10
-451.762426127066
 20
-35.0348898720885
 30
0.0
 40
0.0
 41
0.0
  0
VERTEX
  5
   4BF
  8
0
  6
CONTINUOUS
 10
-451.777250437344
 20
-35.058286935233
 30
0.0
 40
0.0
 41
0.0
  0
VERTEX
  5
   4C0
  8
0
  6
CONTINUOUS
 10
-451.79092189747
 20
-35.0818588550126
 30
0.0
 40
0.0
 41
0.0
  0
VERTEX
  5
   4C1
  8
0
  6
CONTINUOUS
 10
-451.803432272269
 20
-35.1055914325843
 30
0.0
 40
0.0
 41
0.0
  0
VERTEX
  5
   4C2
  8
0
  6
CONTINUOUS
 10
-451.814774025956
 20
-35.1294703723307
 30
0.0
 40
0.0
 41
0.0
  0
VERTEX
  5
   4C3
  8
0
  6
CONTINUOUS
 10
-451.824940326686
 20
-35.1534812904715
 30
0.0
 40
0.0
 41
0.0
  0
VERTEX
  5
   4C4
  8
0
  6
CONTINUOUS
 10
-451.833925050657
 20
-35.1776097237274
 30
0.0
 40
0.0
 41
0.0
  0
VERTEX
  5
   4C5
  8
0
  6
CONTINUOUS
 10
-451.841722785809
 20
-35.2018411380323
 30
0.0
 40
0.0
 41
0.0
  0
VERTEX
  5
   4C6
  8
0
  6
CONTINUOUS
 10
-451.848328835076
 20
-35.2261609372885
 30
0.0
 40
0.0
 41
0.0
  0
VERTEX
  5
   4C7
  8
0
  6
CONTINUOUS
 10
-451.853739219223
 20
-35.2505544721582
 30
0.0
 40
0.0
 41
0.0
  0
VERTEX
  5
   4C8
  8
0
  6
CONTINUOUS
 10
-451.857950679236
 20
-35.2750070488881
 30
0.0
 40
0.0
 41
0.0
  0
VERTEX
  5
   4C9
  8
0
  6
CONTINUOUS
 10
-451.860960678289
 20
-35.2995039381604
 30
0.0
 40
0.0
 41
0.0
  0
VERTEX
  5
   4CA
  8
0
  6
CONTINUOUS
 10
-451.862767403271
 20
-35.3240303839649
 30
0.0
 40
0.0
 41
0.0
  0
VERTEX
  5
   4CB
  8
0
  6
CONTINUOUS
 10
-451.863369765879
 20
-35.3485716124878
 30
0.0
 40
0.0
 41
0.0
  0
VERTEX
  5
   4CC
  8
0
  6
CONTINUOUS
 10
-451.862767403271
 20
-35.3731128410107
 30
0.0
 40
0.0
 41
0.0
  0
VERTEX
  5
   4CD
  8
0
  6
CONTINUOUS
 10
-451.860960678289
 20
-35.3976392868152
 30
0.0
 40
0.0
 41
0.0
  0
VERTEX
  5
   4CE
  8
0
  6
CONTINUOUS
 10
-451.857950679236
 20
-35.4221361760874
 30
0.0
 40
0.0
 41
0.0
  0
VERTEX
  5
   4CF
  8
0
  6
CONTINUOUS
 10
-451.853739219223
 20
-35.4465887528173
 30
0.0
 40
0.0
 41
0.0
  0
VERTEX
  5
   4D0
  8
0
  6
CONTINUOUS
 10
-451.848328835075
 20
-35.4709822876869
 30
0.0
 40
0.0
 41
0.0
  0
VERTEX
  5
   4D1
  8
0
  6
CONTINUOUS
 10
-451.841722785807
 20
-35.4953020869431
 30
0.0
 40
0.0
 41
0.0
  0
VERTEX
  5
   4D2
  8
0
  6
CONTINUOUS
 10
-451.833925050656
 20
-35.519533501248
 30
0.0
 40
0.0
 41
0.0
  0
VERTEX
  5
   4D3
  8
0
  6
CONTINUOUS
 10
-451.824940326684
 20
-35.5436619345038
 30
0.0
 40
0.0
 41
0.0
  0
VERTEX
  5
   4D4
  8
0
  6
CONTINUOUS
 10
-451.814774025955
 20
-35.5676728526445
 30
0.0
 40
0.0
 41
0.0
  0
VERTEX
  5
   4D5
  8
0
  6
CONTINUOUS
 10
-451.803432272267
 20
-35.5915517923908
 30
0.0
 40
0.0
 41
0.0
  0
VERTEX
  5
   4D6
  8
0
  6
CONTINUOUS
 10
-451.790921897468
 20
-35.6152843699624
 30
0.0
 40
0.0
 41
0.0
  0
VERTEX
  5
   4D7
  8
0
  6
CONTINUOUS
 10
-451.777250437342
 20
-35.6388562897419
 30
0.0
 40
0.0
 41
0.0
  0
VERTEX
  5
   4D8
  8
0
  6
CONTINUOUS
 10
-451.762426127063
 20
-35.6622533528863
 30
0.0
 40
0.0
 41
0.0
  0
VERTEX
  5
   4D9
  8
0
  6
CONTINUOUS
 10
-451.746457896243
 20
-35.6854614658796
 30
0.0
 40
0.0
 41
0.0
  0
VERTEX
  5
   4DA
  8
0
  6
CONTINUOUS
 10
-451.729355363547
 20
-35.7084666490223
 30
0.0
 40
0.0
 41
0.0
  0
VERTEX
  5
   4DB
  8
0
  6
CONTINUOUS
 10
-451.7111288309
 20
-35.7312550448523
 30
0.0
 40
0.0
 41
0.0
  0
VERTEX
  5
   4DC
  8
0
  6
CONTINUOUS
 10
-451.671348352124
 20
-35.7761267059173
 30
0.0
 40
0.0
 41
0.0
  0
VERTEX
  5
   4DD
  8
0
  6
CONTINUOUS
 10
-451.627212294573
 20
-35.8199683493129
 30
0.0
 40
0.0
 41
0.0
  0
VERTEX
  5
   4DE
  8
0
  6
CONTINUOUS
 10
-451.578826985877
 20
-35.8626743566799
 30
0.0
 40
0.0
 41
0.0
  0
VERTEX
  5
   4DF
  8
0
  6
CONTINUOUS
 10
-451.526308990482
 20
-35.9041418455061
 30
0.0
 40
0.0
 41
0.0
  0
VERTEX
  5
   4E0
  8
0
  6
CONTINUOUS
 10
-451.469784828838
 20
-35.9442709169787
 30
0.0
 40
0.0
 41
0.0
  0
VERTEX
  5
   4E1
  8
0
  6
CONTINUOUS
 10
-451.409390672602
 20
-35.9829648966497
 30
0.0
 40
0.0
 41
0.0
  0
VERTEX
  5
   4E2
  8
0
  6
CONTINUOUS
 10
-451.345272016586
 20
-36.0201305673328
 30
0.0
 40
0.0
 41
0.0
  0
VERTEX
  5
   4E3
  8
0
  6
CONTINUOUS
 10
-451.277583328249
 20
-36.0556783936721
 30
0.0
 40
0.0
 41
0.0
  0
VERTEX
  5
   4E4
  8
0
  6
CONTINUOUS
 10
-451.20648767557
 20
-36.0895227378403
 30
0.0
 40
0.0
 41
0.0
  0
VERTEX
  5
   4E5
  8
0
  6
CONTINUOUS
 10
-451.132156334203
 20
-36.1215820658478
 30
0.0
 40
0.0
 41
0.0
  0
VERTEX
  5
   4E6
  8
0
  6
CONTINUOUS
 10
-451.05476837486
 20
-36.1517791439654
 30
0.0
 40
0.0
 41
0.0
  0
VERTEX
  5
   4E7
  8
0
  6
CONTINUOUS
 10
-450.974510231915
 20
-36.180041224787
 30
0.0
 40
0.0
 41
0.0
  0
VERTEX
  5
   4E8
  8
0
  6
CONTINUOUS
 10
-450.891575254262
 20
-36.2063002224844
 30
0.0
 40
0.0
 41
0.0
  0
VERTEX
  5
   4E9
  8
0
  6
CONTINUOUS
 10
-450.806163239527
 20
-36.2304928768322
 30
0.0
 40
0.0
 41
0.0
  0
VERTEX
  5
   4EA
  8
0
  6
CONTINUOUS
 10
-450.718479952736
 20
-36.2525609056069
 30
0.0
 40
0.0
 41
0.0
  0
VERTEX
  5
   4EB
  8
0
  6
CONTINUOUS
 10
-450.628736630605
 20
-36.2724511449944
 30
0.0
 40
0.0
 41
0.0
  0
VERTEX
  5
   4EC
  8
0
  6
CONTINUOUS
 10
-450.53714947266
 20
-36.2901156776658
 30
0.0
 40
0.0
 41
0.0
  0
VERTEX
  5
   4ED
  8
0
  6
CONTINUOUS
 10
-450.443939120384
 20
-36.3055119482146
 30
0.0
 40
0.0
 41
0.0
  0
VERTEX
  5
   4EE
  8
0
  6
CONTINUOUS
 10
-450.349330125681
 20
-36.3186028656766
 30
0.0
 40
0.0
 41
0.0
  0
VERTEX
  5
   4EF
  8
0
  6
CONTINUOUS
 10
-450.253550409907
 20
-36.3293568928849
 30
0.0
 40
0.0
 41
0.0
  0
VERTEX
  5
   4F0
  8
0
  6
CONTINUOUS
 10
-450.156830714786
 20
-36.3377481224461
 30
0.0
 40
0.0
 41
0.0
  0
VERTEX
  5
   4F1
  8
0
  6
CONTINUOUS
 10
-450.059404046534
 20
-36.3437563391532
 30
0.0
 40
0.0
 41
0.0
  0
VERTEX
  5
   4F2
  8
0
  6
CONTINUOUS
 10
-449.96150511453
 20
-36.3473670686858
 30
0.0
 40
0.0
 41
0.0
  0
VERTEX
  5
   4F3
  8
0
  6
CONTINUOUS
 10
-449.863369765875
 20
-36.3485716124802
 30
0.0
 40
0.0
 41
0.0
  0
VERTEX
  5
   4F4
  8
0
  6
CONTINUOUS
 10
-449.76523441722
 20
-36.347367068685
 30
0.0
 40
0.0
 41
0.0
  0
VERTEX
  5
   4F5
  8
0
  6
CONTINUOUS
 10
-449.667335485216
 20
-36.3437563391517
 30
0.0
 40
0.0
 41
0.0
  0
VERTEX
  5
   4F6
  8
0
  6
CONTINUOUS
 10
-449.569908816964
 20
-36.3377481224439
 30
0.0
 40
0.0
 41
0.0
  0
VERTEX
  5
   4F7
  8
0
  6
CONTINUOUS
 10
-449.473189121843
 20
-36.329356892882
 30
0.0
 40
0.0
 41
0.0
  0
VERTEX
  5
   4F8
  8
0
  6
CONTINUOUS
 10
-449.377409406068
 20
-36.318602865673
 30
0.0
 40
0.0
 41
0.0
  0
VERTEX
  5
   4F9
  8
0
  6
CONTINUOUS
 10
-449.282800411366
 20
-36.3055119482103
 30
0.0
 40
0.0
 41
0.0
  0
VERTEX
  5
   4FA
  8
0
  6
CONTINUOUS
 10
-449.189590059091
 20
-36.2901156776607
 30
0.0
 40
0.0
 41
0.0
  0
VERTEX
  5
   4FB
  8
0
  6
CONTINUOUS
 10
-449.098002901145
 20
-36.2724511449886
 30
0.0
 40
0.0
 41
0.0
  0
VERTEX
  5
   4FC
  8
0
  6
CONTINUOUS
 10
-449.008259579015
 20
-36.2525609056005
 30
0.0
 40
0.0
 41
0.0
  0
VERTEX
  5
   4FD
  8
0
  6
CONTINUOUS
 10
-448.920576292223
 20
-36.230492876825
 30
0.0
 40
0.0
 41
0.0
  0
VERTEX
  5
   4FE
  8
0
  6
CONTINUOUS
 10
-448.835164277489
 20
-36.2063002224766
 30
0.0
 40
0.0
 41
0.0
  0
VERTEX
  5
   4FF
  8
0
  6
CONTINUOUS
 10
-448.752229299836
 20
-36.1800412247786
 30
0.0
 40
0.0
 41
0.0
  0
VERTEX
  5
   500
  8
0
  6
CONTINUOUS
 10
-448.671971156891
 20
-36.1517791439564
 30
0.0
 40
0.0
 41
0.0
  0
VERTEX
  5
   501
  8
0
  6
CONTINUOUS
 10
-448.594583197548
 20
-36.1215820658382
 30
0.0
 40
0.0
 41
0.0
  0
VERTEX
  5
   502
  8
0
  6
CONTINUOUS
 10
-448.520251856182
 20
-36.0895227378301
 30
0.0
 40
0.0
 41
0.0
  0
VERTEX
  5
   503
  8
0
  6
CONTINUOUS
 10
-448.449156203503
 20
-36.0556783936615
 30
0.0
 40
0.0
 41
0.0
  0
VERTEX
  5
   504
  8
0
  6
CONTINUOUS
 10
-448.381467515166
 20
-36.0201305673217
 30
0.0
 40
0.0
 41
0.0
  0
VERTEX
  5
   505
  8
0
  6
CONTINUOUS
 10
-448.317348859151
 20
-35.9829648966381
 30
0.0
 40
0.0
 41
0.0
  0
VERTEX
  5
   506
  8
0
  6
CONTINUOUS
 10
-448.256954702915
 20
-35.9442709169666
 30
0.0
 40
0.0
 41
0.0
  0
VERTEX
  5
   507
  8
0
  6
CONTINUOUS
 10
-448.200430541271
 20
-35.9041418454936
 30
0.0
 40
0.0
 41
0.0
  0
VERTEX
  5
   508
  8
0
  6
CONTINUOUS
 10
-448.147912545876
 20
-35.862674356667
 30
0.0
 40
0.0
 41
0.0
  0
VERTEX
  5
   509
  8
0
  6
CONTINUOUS
 10
-448.09952723718
 20
-35.8199683492996
 30
0.0
 40
0.0
 41
0.0
  0
VERTEX
  5
   50A
  8
0
  6
CONTINUOUS
 10
-448.05539117963
 20
-35.7761267059037
 30
0.0
 40
0.0
 41
0.0
  0
VERTEX
  5
   50B
  8
0
  6
CONTINUOUS
 10
-448.015610700855
 20
-35.7312550448384
 30
0.0
 40
0.0
 41
0.0
  0
VERTEX
  5
   50C
  8
0
  6
CONTINUOUS
 10
-447.997384168208
 20
-35.7084666490082
 30
0.0
 40
0.0
 41
0.0
  0
VERTEX
  5
   50D
  8
0
  6
CONTINUOUS
 10
-447.980281635511
 20
-35.6854614658654
 30
0.0
 40
0.0
 41
0.0
  0
VERTEX
  5
   50E
  8
0
  6
CONTINUOUS
 10
-447.964313404691
 20
-35.662253352872
 30
0.0
 40
0.0
 41
0.0
  0
VERTEX
  5
   50F
  8
0
  6
CONTINUOUS
 10
-447.949489094413
 20
-35.6388562897275
 30
0.0
 40
0.0
 41
0.0
  0
VERTEX
  5
   510
  8
0
  6
CONTINUOUS
 10
-447.935817634287
 20
-35.6152843699479
 30
0.0
 40
0.0
 41
0.0
  0
VERTEX
  5
   511
  8
0
  6
CONTINUOUS
 10
-447.923307259489
 20
-35.5915517923762
 30
0.0
 40
0.0
 41
0.0
  0
VERTEX
  5
   512
  8
0
  6
CONTINUOUS
 10
-447.911965505801
 20
-35.5676728526298
 30
0.0
 40
0.0
 41
0.0
  0
VERTEX
  5
   513
  8
0
  6
CONTINUOUS
 10
-447.901799205071
 20
-35.543661934489
 30
0.0
 40
0.0
 41
0.0
  0
VERTEX
  5
   514
  8
0
  6
CONTINUOUS
 10
-447.8928144811
 20
-35.5195335012331
 30
0.0
 40
0.0
 41
0.0
  0
VERTEX
  5
   515
  8
0
  6
CONTINUOUS
 10
-447.885016745948
 20
-35.4953020869281
 30
0.0
 40
0.0
 41
0.0
  0
VERTEX
  5
   516
  8
0
  6
CONTINUOUS
 10
-447.878410696681
 20
-35.470982287672
 30
0.0
 40
0.0
 41
0.0
  0
VERTEX
  5
   517
  8
0
  6
CONTINUOUS
 10
-447.873000312534
 20
-35.4465887528023
 30
0.0
 40
0.0
 41
0.0
  0
VERTEX
  5
   518
  8
0
  6
CONTINUOUS
 10
-447.868788852521
 20
-35.4221361760724
 30
0.0
 40
0.0
 41
0.0
  0
VERTEX
  5
   519
  8
0
  6
CONTINUOUS
 10
-447.865778853468
 20
-35.3976392868001
 30
0.0
 40
0.0
 41
0.0
  0
VERTEX
  5
   51A
  8
0
  6
CONTINUOUS
 10
-447.863972128486
 20
-35.3731128409956
 30
0.0
 40
0.0
 41
0.0
  0
VERTEX
  5
   51B
  8
0
  6
CONTINUOUS
 10
-447.863369765879
 20
-35.3485716124727
 30
0.0
 40
0.0
 41
0.0
  0
SEQEND
  5
   51C
  8
0
  6
CONTINUOUS
 62
     7
  0
LINE
  5
   51D
  8
0
  6
CONTINUOUS
 62
     7
 10
-436.313384253532
 20
100.957484370194
 30
0.0
 11
-472.713384253532
 21
100.957484370194
 31
0.0
  0
LINE
  5
   51E
  8
0
  6
CONTINUOUS
 62
     7
 10
-436.313384253532
 20
101.707484370194
 30
0.0
 11
-472.713384253532
 21
101.707484370194
 31
0.0
  0
LINE
  5
   51F
  8
0
  6
CONTINUOUS
 62
     7
 10
-435.563384253532
 20
100.957484370194
 30
0.0
 11
-435.563384253532
 21
101.707484370194
 31
0.0
  0
LINE
  5
   520
  8
0
  6
CONTINUOUS
 62
     7
 10
-472.813384253532
 20
103.332484370194
 30
0.0
 11
-473.563384253532
 21
103.332484370194
 31
0.0
  0
LINE
  5
   521
  8
0
  6
CONTINUOUS
 62
     7
 10
-473.563384253532
 20
100.082484370194
 30
0.0
 11
-473.563384253532
 21
102.582484370194
 31
0.0
  0
LINE
  5
   522
  8
0
  6
CONTINUOUS
 62
     7
 10
-472.813384253532
 20
99.3324843701942
 30
0.0
 11
-473.563384253532
 21
99.3324843701942
 31
0.0
  0
LINE
  5
   523
  8
0
  6
CONTINUOUS
 62
     7
 10
-435.563384253532
 20
100.957484370202
 30
0.0
 11
-436.313384253532
 21
100.957484370202
 31
0.0
  0
LINE
  5
   524
  8
0
  6
CONTINUOUS
 62
     7
 10
-435.563384253532
 20
101.707484370194
 30
0.0
 11
-436.313384253532
 21
101.707484370194
 31
0.0
  0
LINE
  5
   525
  8
0
  6
CONTINUOUS
 62
     7
 10
-472.813384253532
 20
101.807484370194
 30
0.0
 11
-472.813384253532
 21
102.582484370194
 31
0.0
  0
LINE
  5
   526
  8
0
  6
CONTINUOUS
 62
     7
 10
-472.813384253532
 20
100.082484370194
 30
0.0
 11
-472.813384253532
 21
100.857484370194
 31
0.0
  0
LINE
  5
   527
  8
0
  6
CONTINUOUS
 62
     7
 10
-472.813384253532
 20
102.582484370194
 30
0.0
 11
-472.813384253532
 21
103.332484370194
 31
0.0
  0
LINE
  5
   528
  8
0
  6
CONTINUOUS
 62
     7
 10
-473.563384253532
 20
102.582484370194
 30
0.0
 11
-473.563384253532
 21
103.332484370194
 31
0.0
  0
LINE
  5
   529
  8
0
  6
CONTINUOUS
 62
     7
 10
-473.563384253532
 20
99.3324843701942
 30
0.0
 11
-473.563384253532
 21
100.082484370194
 31
0.0
  0
LINE
  5
   52A
  8
0
  6
CONTINUOUS
 62
     7
 10
-472.813384253532
 20
99.3324843701942
 30
0.0
 11
-472.813384253532
 21
100.082484370194
 31
0.0
  0
ARC
  5
   52B
  8
0
  6
CONTINUOUS
 62
     7
 10
-472.713384253532
 20
101.807484370194
 30
0.0
 40
0.1
 50
179.999999948034
 51
269.999999948034
  0
ARC
  5
   52C
  8
0
  6
CONTINUOUS
 62
     7
 10
-472.713384253532
 20
100.857484370194
 30
0.0
 40
0.1
 50
449.999999948034
 51
539.999999948034
  0
ARC
  5
   52D
  8
0
  6
CONTINUOUS
 62
     7
 10
-472.713384253532
 20
101.807484370194
 30
0.0
 40
0.1
 50
179.999999948034
 51
269.999999948034
  0
ARC
  5
   52E
  8
0
  6
CONTINUOUS
 62
     7
 10
-472.713384253532
 20
100.857484370194
 30
0.0
 40
0.1
 50
449.999999948034
 51
539.999999948034
  0
LINE
  5
   52F
  8
0
  6
CONTINUOUS
 62
     7
 10
-435.563384253532
 20
100.957484370194
 30
0.0
 11
-435.563384253532
 21
101.707484370194
 31
0.0
  0
LINE
  5
   530
  8
0
  6
CONTINUOUS
 62
     7
 10
-472.813384253532
 20
104.332484370194
 30
0.0
 11
-473.563384253532
 21
104.332484370194
 31
0.0
  0
LINE
  5
   531
  8
0
  6
CONTINUOUS
 62
     7
 10
-473.563384253532
 20
99.0824843701942
 30
0.0
 11
-473.563384253532
 21
103.582484370194
 31
0.0
  0
LINE
  5
   532
  8
0
  6
CONTINUOUS
 62
     7
 10
-472.813384253532
 20
98.3324843701942
 30
0.0
 11
-473.563384253532
 21
98.3324843701942
 31
0.0
  0
LINE
  5
   533
  8
0
  6
CONTINUOUS
 62
     7
 10
-435.563384253532
 20
100.957484370173
 30
0.0
 11
-436.313384253532
 21
100.957484370173
 31
0.0
  0
LINE
  5
   534
  8
0
  6
CONTINUOUS
 62
     7
 10
-435.563384253532
 20
101.707484370194
 30
0.0
 11
-436.313384253532
 21
101.707484370194
 31
0.0
  0
LINE
  5
   535
  8
0
  6
CONTINUOUS
 62
     7
 10
-472.813384253532
 20
101.707484370194
 30
0.0
 11
-472.813384253532
 21
103.582484370194
 31
0.0
  0
LINE
  5
   536
  8
0
  6
CONTINUOUS
 62
     7
 10
-472.813384253532
 20
99.0824843701942
 30
0.0
 11
-472.813384253532
 21
100.957484370194
 31
0.0
  0
LINE
  5
   537
  8
0
  6
CONTINUOUS
 62
     7
 10
-472.813384253531
 20
103.582484370194
 30
0.0
 11
-472.813384253531
 21
104.332484370194
 31
0.0
  0
LINE
  5
   538
  8
0
  6
CONTINUOUS
 62
     7
 10
-473.563384253532
 20
103.582484370194
 30
0.0
 11
-473.563384253532
 21
104.332484370194
 31
0.0
  0
LINE
  5
   539
  8
0
  6
CONTINUOUS
 62
     7
 10
-473.563384253532
 20
98.3324843701942
 30
0.0
 11
-473.563384253532
 21
99.0824843701942
 31
0.0
  0
LINE
  5
   53A
  8
0
  6
CONTINUOUS
 62
     7
 10
-472.813384253532
 20
98.3324843701942
 30
0.0
 11
-472.813384253532
 21
99.0824843701942
 31
0.0
  0
POLYLINE
  5
   53B
  8
0
  6
CONTINUOUS
 62
     7
 66
     1
 10
0.0
 20
0.0
 30
0.0
  0
VERTEX
  5
   53C
  8
0
  6
CONTINUOUS
 10
-469.536037642511
 20
101.707484370196
 30
0.0
 40
0.0
 41
0.0
  0
VERTEX
  5
   53D
  8
0
  6
CONTINUOUS
 10
-469.55579202736
 20
101.727616234405
 30
0.0
 40
0.0
 41
0.0
  0
VERTEX
  5
   53E
  8
0
  6
CONTINUOUS
 10
-469.576552139819
 20
101.746708996662
 30
0.0
 40
0.0
 41
0.0
  0
VERTEX
  5
   53F
  8
0
  6
CONTINUOUS
 10
-469.598263406853
 20
101.76471246697
 30
0.0
 40
0.0
 41
0.0
  0
VERTEX
  5
   540
  8
0
  6
CONTINUOUS
 10
-469.620868755083
 20
101.7815793188
 30
0.0
 40
0.0
 41
0.0
  0
VERTEX
  5
   541
  8
0
  6
CONTINUOUS
 10
-469.644308760821
 20
101.797265213507
 30
0.0
 40
0.0
 41
0.0
  0
VERTEX
  5
   542
  8
0
  6
CONTINUOUS
 10
-469.668521806275
 20
101.811728916876
 30
0.0
 40
0.0
 41
0.0
  0
VERTEX
  5
   543
  8
0
  6
CONTINUOUS
 10
-469.69344424153
 20
101.824932407524
 30
0.0
 40
0.0
 41
0.0
  0
VERTEX
  5
   544
  8
0
  6
CONTINUOUS
 10
-469.719010551867
 20
101.836840976846
 30
0.0
 40
0.0
 41
0.0
  0
VERTEX
  5
   545
  8
0
  6
CONTINUOUS
 10
-469.745153529982
 20
101.847423320253
 30
0.0
 40
0.0
 41
0.0
  0
VERTEX
  5
   546
  8
0
  6
CONTINUOUS
 10
-469.771804452661
 20
101.856651619465
 30
0.0
 40
0.0
 41
0.0
  0
VERTEX
  5
   547
  8
0
  6
CONTINUOUS
 10
-469.798893261431
 20
101.86450161564
 30
0.0
 40
0.0
 41
0.0
  0
VERTEX
  5
   548
  8
0
  6
CONTINUOUS
 10
-469.826348746729
 20
101.870952673142
 30
0.0
 40
0.0
 41
0.0
  0
VERTEX
  5
   549
  8
0
  6
CONTINUOUS
 10
-469.854098735095
 20
101.875987833788
 30
0.0
 40
0.0
 41
0.0
  0
VERTEX
  5
   54A
  8
0
  6
CONTINUOUS
 10
-469.882070278894
 20
101.879593861425
 30
0.0
 40
0.0
 41
0.0
  0
VERTEX
  5
   54B
  8
0
  6
CONTINUOUS
 10
-469.910189848076
 20
101.881761276728
 30
0.0
 40
0.0
 41
0.0
  0
VERTEX
  5
   54C
  8
0
  6
CONTINUOUS
 10
-469.938383523475
 20
101.882484382116
 30
0.0
 40
0.0
 41
0.0
  0
VERTEX
  5
   54D
  8
0
  6
CONTINUOUS
 10
-469.966577191115
 20
101.881761276728
 30
0.0
 40
0.0
 41
0.0
  0
VERTEX
  5
   54E
  8
0
  6
CONTINUOUS
 10
-469.994696737042
 20
101.879593861424
 30
0.0
 40
0.0
 41
0.0
  0
VERTEX
  5
   54F
  8
0
  6
CONTINUOUS
 10
-470.022668242147
 20
101.875987833787
 30
0.0
 40
0.0
 41
0.0
  0
VERTEX
  5
   550
  8
0
  6
CONTINUOUS
 10
-470.050418176486
 20
101.870952673141
 30
0.0
 40
0.0
 41
0.0
  0
VERTEX
  5
   551
  8
0
  6
CONTINUOUS
 10
-470.077873592566
 20
101.864501615639
 30
0.0
 40
0.0
 41
0.0
  0
VERTEX
  5
   552
  8
0
  6
CONTINUOUS
 10
-470.104962317105
 20
101.856651619463
 30
0.0
 40
0.0
 41
0.0
  0
VERTEX
  5
   553
  8
0
  6
CONTINUOUS
 10
-470.131613140765
 20
101.847423320251
 30
0.0
 40
0.0
 41
0.0
  0
VERTEX
  5
   554
  8
0
  6
CONTINUOUS
 10
-470.157756005332
 20
101.836840976844
 30
0.0
 40
0.0
 41
0.0
  0
VERTEX
  5
   555
  8
0
  6
CONTINUOUS
 10
-470.18332218789
 20
101.824932407522
 30
0.0
 40
0.0
 41
0.0
  0
VERTEX
  5
   556
  8
0
  6
CONTINUOUS
 10
-470.208244481472
 20
101.811728916873
 30
0.0
 40
0.0
 41
0.0
  0
VERTEX
  5
   557
  8
0
  6
CONTINUOUS
 10
-470.232457371731
 20
101.797265213504
 30
0.0
 40
0.0
 41
0.0
  0
VERTEX
  5
   558
  8
0
  6
CONTINUOUS
 10
-470.25589720916
 20
101.781579318797
 30
0.0
 40
0.0
 41
0.0
  0
VERTEX
  5
   559
  8
0
  6
CONTINUOUS
 10
-470.27850237641
 20
101.764712466966
 30
0.0
 40
0.0
 41
0.0
  0
VERTEX
  5
   55A
  8
0
  6
CONTINUOUS
 10
-470.300213450268
 20
101.746708996659
 30
0.0
 40
0.0
 41
0.0
  0
VERTEX
  5
   55B
  8
0
  6
CONTINUOUS
 10
-470.320973357863
 20
101.727616234401
 30
0.0
 40
0.0
 41
0.0
  0
VERTEX
  5
   55C
  8
0
  6
CONTINUOUS
 10
-470.340727526697
 20
101.707484370192
 30
0.0
 40
0.0
 41
0.0
  0
SEQEND
  5
   55D
  8
0
  6
CONTINUOUS
 62
     7
  0
POLYLINE
  5
   55E
  8
0
  6
CONTINUOUS
 62
     7
 66
     1
 10
0.0
 20
0.0
 30
0.0
  0
VERTEX
  5
   55F
  8
0
  6
CONTINUOUS
 10
-470.340723235161
 20
100.957484370194
 30
0.0
 40
0.0
 41
0.0
  0
VERTEX
  5
   560
  8
0
  6
CONTINUOUS
 10
-470.251863954124
 20
100.904599222044
 30
0.0
 40
0.0
 41
0.0
  0
VERTEX
  5
   561
  8
0
  6
CONTINUOUS
 10
-470.175626570359
 20
100.861862849774
 30
0.0
 40
0.0
 41
0.0
  0
VERTEX
  5
   562
  8
0
  6
CONTINUOUS
 10
-470.131813813002
 20
100.839010143749
 30
0.0
 40
0.0
 41
0.0
  0
VERTEX
  5
   563
  8
0
  6
CONTINUOUS
 10
-470.093610787765
 20
100.820668004783
 30
0.0
 40
0.0
 41
0.0
  0
VERTEX
  5
   564
  8
0
  6
CONTINUOUS
 10
-470.061017494649
 20
100.806836432874
 30
0.0
 40
0.0
 41
0.0
  0
VERTEX
  5
   565
  8
0
  6
CONTINUOUS
 10
-470.034033933655
 20
100.797515428023
 30
0.0
 40
0.0
 41
0.0
  0
VERTEX
  5
   566
  8
0
  6
CONTINUOUS
 10
-470.012660104782
 20
100.79270499023
 30
0.0
 40
0.0
 41
0.0
  0
VERTEX
  5
   567
  8
0
  6
CONTINUOUS
 10
-469.993016649038
 20
100.790936574262
 30
0.0
 40
0.0
 41
0.0
  0
VERTEX
  5
   568
  8
0
  6
CONTINUOUS
 10
-469.971224207432
 20
100.790741634885
 30
0.0
 40
0.0
 41
0.0
  0
VERTEX
  5
   569
  8
0
  6
CONTINUOUS
 10
-469.947282779962
 20
100.792120172099
 30
0.0
 40
0.0
 41
0.0
  0
VERTEX
  5
   56A
  8
0
  6
CONTINUOUS
 10
-469.92119236663
 20
100.795072185904
 30
0.0
 40
0.0
 41
0.0
  0
VERTEX
  5
   56B
  8
0
  6
CONTINUOUS
 10
-469.892952967436
 20
100.7995976763
 30
0.0
 40
0.0
 41
0.0
  0
VERTEX
  5
   56C
  8
0
  6
CONTINUOUS
 10
-469.862564582378
 20
100.805696643287
 30
0.0
 40
0.0
 41
0.0
  0
VERTEX
  5
   56D
  8
0
  6
CONTINUOUS
 10
-469.830027211458
 20
100.813369086866
 30
0.0
 40
0.0
 41
0.0
  0
VERTEX
  5
   56E
  8
0
  6
CONTINUOUS
 10
-469.795340854675
 20
100.822615007035
 30
0.0
 40
0.0
 41
0.0
  0
VERTEX
  5
   56F
  8
0
  6
CONTINUOUS
 10
-469.759998625145
 20
100.833500916992
 30
0.0
 40
0.0
 41
0.0
  0
VERTEX
  5
   570
  8
0
  6
CONTINUOUS
 10
-469.725493635983
 20
100.84609332993
 30
0.0
 40
0.0
 41
0.0
  0
VERTEX
  5
   571
  8
0
  6
CONTINUOUS
 10
-469.691825887189
 20
100.860392245852
 30
0.0
 40
0.0
 41
0.0
  0
VERTEX
  5
   572
  8
0
  6
CONTINUOUS
 10
-469.658995378763
 20
100.876397664755
 30
0.0
 40
0.0
 41
0.0
  0
VERTEX
  5
   573
  8
0
  6
CONTINUOUS
 10
-469.627002110705
 20
100.894109586641
 30
0.0
 40
0.0
 41
0.0
  0
VERTEX
  5
   574
  8
0
  6
CONTINUOUS
 10
-469.595846083016
 20
100.91352801151
 30
0.0
 40
0.0
 41
0.0
  0
VERTEX
  5
   575
  8
0
  6
CONTINUOUS
 10
-469.565527295694
 20
100.934652939361
 30
0.0
 40
0.0
 41
0.0
  0
VERTEX
  5
   576
  8
0
  6
CONTINUOUS
 10
-469.536045748741
 20
100.957484370194
 30
0.0
 40
0.0
 41
0.0
  0
SEQEND
  5
   577
  8
0
  6
CONTINUOUS
 62
     7
  0
LINE
  5
   578
  8
0
  6
CONTINUOUS
 62
     7
 10
-470.340727526695
 20
101.707484370194
 30
0.0
 11
-472.813384253532
 21
101.707484370194
 31
0.0
  0
LINE
  5
   579
  8
0
  6
CONTINUOUS
 62
     7
 10
-436.313384253532
 20
101.707484370194
 30
0.0
 11
-469.536037642509
 21
101.707484370194
 31
0.0
  0
LINE
  5
   57A
  8
0
  6
CONTINUOUS
 62
     7
 10
-470.340723235161
 20
100.957484370194
 30
0.0
 11
-472.813384253532
 21
100.957484370194
 31
0.0
  0
LINE
  5
   57B
  8
0
  6
CONTINUOUS
 62
     7
 10
-436.313384253532
 20
100.957484370194
 30
0.0
 11
-469.536045748741
 21
100.957484370194
 31
0.0
  0
LINE
  5
   57C
  8
0
  6
CONTINUOUS
 62
     7
 10
-469.536179978401
 20
101.707571094952
 30
0.0
 11
-469.652320344002
 21
101.802236979924
 31
0.0
  0
LINE
  5
   57D
  8
0
  6
CONTINUOUS
 62
     7
 10
-470.22444530204
 20
100.862729949973
 30
0.0
 11
-470.340596873314
 21
100.957407374665
 31
0.0
  0
LINE
  5
   57E
  8
0
  6
CONTINUOUS
 62
   212
 10
-427.050565706422
 20
23.7293312673209
 30
0.0
 11
-427.033868776427
 21
23.7319748524827
 31
0.0
  0
LINE
  5
   57F
  8
0
  6
CONTINUOUS
 62
     7
 10
-425.463386535048
 20
21.8324923514836
 30
0.0
 11
-435.563418403268
 21
21.8324923514836
 31
0.0
  0
LINE
  5
   580
  8
0
  6
CONTINUOUS
 62
     7
 10
-425.463386535048
 20
16.0824923514836
 30
0.0
 11
-435.563418403268
 21
16.0824923514836
 31
0.0
  0
LINE
  5
   581
  8
0
  6
CONTINUOUS
 62
     7
 10
-428.063420310626
 20
18.6574892998215
 30
0.0
 11
-428.063419356951
 21
19.2574915886399
 31
0.0
  0
LINE
  5
   582
  8
0
  6
CONTINUOUS
 62
     7
 10
-428.063420310617
 20
18.6574892997258
 30
0.0
 11
-435.563418403268
 21
18.6574892997258
 31
0.0
  0
LINE
  5
   583
  8
0
  6
CONTINUOUS
 62
     7
 10
-428.063419356943
 20
19.2574915885441
 30
0.0
 11
-435.563418403268
 21
19.2574915885441
 31
0.0
  0
LINE
  5
   584
  8
0
  6
CONTINUOUS
 62
     2
 10
-435.563418447421
 20
16.0824923514836
 30
0.0
 11
-435.563419356944
 21
18.6574931144277
 31
0.0
  0
LINE
  5
   585
  8
0
  6
CONTINUOUS
 62
     2
 10
-435.563419356944
 20
19.2574915885492
 30
0.0
 11
-435.563418447422
 21
21.8324923514836
 31
0.0
  0
LINE
  5
   586
  8
0
  6
CONTINUOUS
 62
     2
 10
-443.063419356943
 20
18.657493114423
 30
0.0
 11
-443.063419356943
 21
19.2574915885441
 31
0.0
  0
LINE
  5
   587
  8
0
  6
CONTINUOUS
 62
     2
 10
-435.563419356943
 20
18.657493114423
 30
0.0
 11
-443.063419356943
 21
18.657493114423
 31
0.0
  0
LINE
  5
   588
  8
0
  6
CONTINUOUS
 62
     2
 10
-435.563419356943
 20
19.2574915885441
 30
0.0
 11
-443.063419356943
 21
19.2574915885441
 31
0.0
  0
LINE
  5
   589
  8
0
  6
CONTINUOUS
 62
     3
 10
-475.93665187757
 20
15.7404657601273
 30
0.0
 11
-475.93665187757
 21
22.1302581727204
 31
0.0
  0
LINE
  5
   58A
  8
0
  6
CONTINUOUS
 62
     3
 10
-466.063419356943
 20
21.0824942588322
 30
0.0
 11
-475.93665187757
 21
21.0824942588322
 31
0.0
  0
LINE
  5
   58B
  8
0
  6
CONTINUOUS
 62
     3
 10
-466.063419356943
 20
19.8324942588322
 30
0.0
 11
-475.93665187757
 21
19.8324942588322
 31
0.0
  0
LINE
  5
   58C
  8
0
  6
CONTINUOUS
 62
     3
 10
-466.063419356943
 20
18.0824942588322
 30
0.0
 11
-475.93665187757
 21
18.0824942588322
 31
0.0
  0
LINE
  5
   58D
  8
0
  6
CONTINUOUS
 62
     3
 10
-466.063419356943
 20
16.8324942588322
 30
0.0
 11
-475.93665187757
 21
16.8324942588322
 31
0.0
  0
LINE
  5
   58E
  8
0
  6
CONTINUOUS
 62
     2
 10
-466.063419356943
 20
16.207484722089
 30
0.0
 11
-466.063419356943
 21
21.707484722089
 31
0.0
  0
LINE
  5
   58F
  8
0
  6
CONTINUOUS
 62
   210
 10
-416.313371355211
 20
10.0825004701634
 30
0.0
 11
-416.313400760269
 21
19.3325343135374
 31
0.0
  0
LINE
  5
   590
  8
0
  6
CONTINUOUS
 62
   210
 10
-416.313402190714
 20
19.8325343148631
 30
0.0
 11
-416.313439384012
 21
25.8325343148631
 31
0.0
  0
LINE
  5
   591
  8
0
  6
CONTINUOUS
 62
   210
 10
-416.313441291444
 20
26.3325343133426
 30
0.0
 11
-416.313423171632
 21
36.0825343133426
 31
0.0
  0
LINE
  5
   592
  8
0
  6
CONTINUOUS
 62
   210
 10
-416.313424124257
 20
36.5825343405212
 30
0.0
 11
-416.313550962937
 21
42.5825343405212
 31
0.0
  0
LINE
  5
   593
  8
0
  6
CONTINUOUS
 62
   210
 10
-416.313555253491
 20
43.0825343781321
 30
0.0
 11
-416.314128305269
 21
62.5825004689834
 31
0.0
  0
LINE
  5
   594
  8
0
  6
CONTINUOUS
 62
   210
 10
-416.813372150064
 20
25.8325343131535
 30
0.0
 11
-416.813372150064
 21
26.3325343131535
 31
0.0
  0
LINE
  5
   595
  8
0
  6
CONTINUOUS
 62
   210
 10
-416.313439384103
 20
25.8325343131535
 30
0.0
 11
-416.813372150064
 21
25.8325343131535
 31
0.0
  0
LINE
  5
   596
  8
0
  6
CONTINUOUS
 62
   210
 10
-416.313441291452
 20
26.3325343131535
 30
0.0
 11
-416.813372150064
 21
26.3325343131535
 31
0.0
  0
LINE
  5
   597
  8
0
  6
CONTINUOUS
 62
   210
 10
-416.813372150064
 20
19.3325343131535
 30
0.0
 11
-416.813372150064
 21
19.8325343131535
 31
0.0
  0
LINE
  5
   598
  8
0
  6
CONTINUOUS
 62
   210
 10
-416.313400760293
 20
19.3325343131535
 30
0.0
 11
-416.813372150064
 21
19.3325343131535
 31
0.0
  0
LINE
  5
   599
  8
0
  6
CONTINUOUS
 62
   210
 10
-416.313402190805
 20
19.8325343131535
 30
0.0
 11
-416.813372150064
 21
19.8325343131535
 31
0.0
  0
LINE
  5
   59A
  8
0
  6
CONTINUOUS
 62
   210
 10
-416.813372150064
 20
42.5825343131535
 30
0.0
 11
-416.813372150064
 21
43.0825343131535
 31
0.0
  0
LINE
  5
   59B
  8
0
  6
CONTINUOUS
 62
   210
 10
-416.313550963998
 20
42.5825343131535
 30
0.0
 11
-416.813372150064
 21
42.5825343131535
 31
0.0
  0
LINE
  5
   59C
  8
0
  6
CONTINUOUS
 62
   210
 10
-416.313555255533
 20
43.0825343131535
 30
0.0
 11
-416.813372150064
 21
43.0825343131535
 31
0.0
  0
LINE
  5
   59D
  8
0
  6
CONTINUOUS
 62
   210
 10
-416.813372150064
 20
36.0825343131535
 30
0.0
 11
-416.813372150064
 21
36.5825343131535
 31
0.0
  0
LINE
  5
   59E
  8
0
  6
CONTINUOUS
 62
   210
 10
-416.31342317164
 20
36.0825343131535
 30
0.0
 11
-416.813372150064
 21
36.0825343131535
 31
0.0
  0
LINE
  5
   59F
  8
0
  6
CONTINUOUS
 62
   210
 10
-416.313424125314
 20
36.5825343131535
 30
0.0
 11
-416.813372150064
 21
36.5825343131535
 31
0.0
  0
LINE
  5
   5A0
  8
0
  6
DASHDOT
 62
   210
 10
-427.600611784363
 20
20.4574942588322
 30
0.0
 11
-477.588473536064
 21
20.4574942588322
 31
0.0
  0
LINE
  5
   5A1
  8
0
  6
CONTINUOUS
 62
     2
 10
-435.563418491576
 20
21.707484722089
 30
0.0
 11
-466.063419356943
 21
21.707484722089
 31
0.0
  0
LINE
  5
   5A2
  8
0
  6
CONTINUOUS
 62
     2
 10
-435.56341849157
 20
16.207484722089
 30
0.0
 11
-466.063419356943
 21
16.207484722089
 31
0.0
  0
LINE
  5
   5A3
  8
0
  6
DASHDOT
 62
   210
 10
-427.834196639047
 20
17.4574942588322
 30
0.0
 11
-478.09807809028
 21
17.4574942588322
 31
0.0
  0
LINE
  5
   5A4
  8
0
  6
CONTINUOUS
 62
     2
 10
-458.063379825664
 20
-17.5424930923406
 30
0.0
 11
-460.563379825664
 21
-17.5424930923406
 31
0.0
  0
LINE
  5
   5A5
  8
0
  6
CONTINUOUS
 62
     2
 10
-458.063379825664
 20
-12.5424930923406
 30
0.0
 11
-460.563379825664
 21
-12.5424930923406
 31
0.0
  0
LINE
  5
   5A6
  8
0
  6
DASHDOT
 62
     2
 10
-436.562513725712
 20
-15.0424930923406
 30
0.0
 11
-475.53599023872
 21
-15.0424930923406
 31
0.0
  0
LINE
  5
   5A7
  8
0
  6
CONTINUOUS
 62
     2
 10
-440.813379825664
 20
-20.5424930923407
 30
0.0
 11
-440.813379825664
 21
-19.3924930923406
 31
0.0
  0
LINE
  5
   5A8
  8
0
  6
CONTINUOUS
 62
     2
 10
-444.313379825664
 20
-20.5424930923407
 30
0.0
 11
-444.313379825664
 21
-19.3924930923406
 31
0.0
  0
LINE
  5
   5A9
  8
0
  6
CONTINUOUS
 62
     2
 10
-440.813379825664
 20
-20.5424930923407
 30
0.0
 11
-448.763369765879
 21
-20.5424930923407
 31
0.0
  0
LINE
  5
   5AA
  8
0
  6
CONTINUOUS
 62
     2
 10
-440.813379825664
 20
-9.54249309234065
 30
0.0
 11
-458.063379825664
 21
-9.54249309234065
 31
0.0
  0
LINE
  5
   5AB
  8
0
  6
CONTINUOUS
 62
     2
 10
-454.963379825664
 20
-17.5424930923406
 30
0.0
 11
-461.463379825664
 21
-17.5424930923406
 31
0.0
  0
LINE
  5
   5AC
  8
0
  6
CONTINUOUS
 62
     2
 10
-454.963379825664
 20
-12.5424930923406
 30
0.0
 11
-461.463379825664
 21
-12.5424930923406
 31
0.0
  0
LINE
  5
   5AD
  8
0
  6
CONTINUOUS
 62
     2
 10
-461.063379825664
 20
-19.5424930923406
 30
0.0
 11
-461.063379825664
 21
-17.5424930923406
 31
0.0
  0
LINE
  5
   5AE
  8
0
  6
CONTINUOUS
 62
     2
 10
-461.463379825664
 20
-19.5424930923406
 30
0.0
 11
-461.463379825664
 21
-10.5424930923407
 31
0.0
  0
LINE
  5
   5AF
  8
0
  6
CONTINUOUS
 62
     2
 10
-461.063379825664
 20
-19.5424930923406
 30
0.0
 11
-461.463379825664
 21
-19.5424930923406
 31
0.0
  0
LINE
  5
   5B0
  8
0
  6
CONTINUOUS
 62
     2
 10
-461.063379825664
 20
-10.5424930923407
 30
0.0
 11
-461.463379825664
 21
-10.5424930923407
 31
0.0
  0
LINE
  5
   5B1
  8
0
  6
CONTINUOUS
 62
     2
 10
-455.363379825664
 20
-17.5424930923407
 30
0.0
 11
-455.363379825664
 21
-12.5424930923406
 31
0.0
  0
LINE
  5
   5B2
  8
0
  6
CONTINUOUS
 62
     2
 10
-454.963379825664
 20
-20.5424930923407
 30
0.0
 11
-454.963379825664
 21
-9.54249309234065
 31
0.0
  0
LINE
  5
   5B3
  8
0
  6
CONTINUOUS
 62
     2
 10
-455.363379825664
 20
-17.5424930923406
 30
0.0
 11
-454.963379825664
 21
-17.1424930923407
 31
0.0
  0
LINE
  5
   5B4
  8
0
  6
CONTINUOUS
 62
     2
 10
-454.963379825664
 20
-12.9424930923407
 30
0.0
 11
-455.363379825664
 21
-12.5424930923406
 31
0.0
  0
LINE
  5
   5B5
  8
0
  6
CONTINUOUS
 62
     2
 10
-464.463379825664
 20
-18.7924930923406
 30
0.0
 11
-464.463379825664
 21
-11.2924930923406
 31
0.0
  0
LINE
  5
   5B6
  8
0
  6
CONTINUOUS
 62
     2
 10
-461.463379825664
 20
-19.0424930923407
 30
0.0
 11
-464.213379825664
 21
-19.0424930923407
 31
0.0
  0
LINE
  5
   5B7
  8
0
  6
CONTINUOUS
 62
     2
 10
-461.463379825664
 20
-11.0424930923407
 30
0.0
 11
-464.213379825664
 21
-11.0424930923407
 31
0.0
  0
ARC
  5
   5B8
  8
0
  6
CONTINUOUS
 62
     2
 10
-464.213379825664
 20
-18.7924930923406
 30
0.0
 40
0.25
 50
179.999999948034
 51
269.999999948034
  0
ARC
  5
   5B9
  8
0
  6
CONTINUOUS
 62
     2
 10
-464.213379825664
 20
-11.2924930923406
 30
0.0
 40
0.25
 50
89.9999999480344
 51
179.999999948034
  0
LINE
  5
   5BA
  8
0
  6
CONTINUOUS
 62
     2
 10
-455.363379825664
 20
-17.1924930923406
 30
0.0
 11
-459.575359212284
 21
-17.1924930923406
 31
0.0
  0
LINE
  5
   5BB
  8
0
  6
CONTINUOUS
 62
     2
 10
-455.363379825664
 20
-12.8924930923407
 30
0.0
 11
-459.575359212284
 21
-12.8924930923407
 31
0.0
  0
LINE
  5
   5BC
  8
0
  6
CONTINUOUS
 62
     2
 10
-459.575359212284
 20
-17.5424930923406
 30
0.0
 11
-459.575359212284
 21
-12.5424930923406
 31
0.0
  0
LINE
  5
   5BD
  8
0
  6
CONTINUOUS
 62
     2
 10
-460.181576994933
 20
-17.5424930923406
 30
0.0
 11
-459.575359212284
 21
-17.1924930923406
 31
0.0
  0
LINE
  5
   5BE
  8
0
  6
CONTINUOUS
 62
     2
 10
-459.575359212284
 20
-12.8924930923407
 30
0.0
 11
-460.181576994933
 21
-12.5424930923407
 31
0.0
  0
LINE
  5
   5BF
  8
0
  6
CONTINUOUS
 62
     2
 10
-439.175517328302
 20
-19.3924930923407
 30
0.0
 11
-439.175517328302
 21
-10.6924930923406
 31
0.0
  0
ARC
  5
   5C0
  8
0
  6
CONTINUOUS
 62
     2
 10
-447.525517328302
 20
-15.0424930923406
 30
0.0
 40
1.15
 50
149.999999948034
 51
209.999999948035
  0
LINE
  5
   5C1
  8
0
  6
CONTINUOUS
 62
     2
 10
-446.111009168788
 20
-19.7924930923407
 30
0.0
 11
-448.521446542654
 21
-15.6174930923407
 31
0.0
  0
LINE
  5
   5C2
  8
0
  6
CONTINUOUS
 62
     2
 10
-448.521446542654
 20
-14.4674930923406
 30
0.0
 11
-446.111009168788
 21
-10.2924930923406
 31
0.0
  0
LINE
  5
   5C3
  8
0
  6
CONTINUOUS
 62
     2
 10
-439.575517328302
 20
-19.7924930923407
 30
0.0
 11
-446.111009168787
 21
-19.7924930923407
 31
0.0
  0
LINE
  5
   5C4
  8
0
  6
CONTINUOUS
 62
     2
 10
-439.575517328302
 20
-10.2924930923406
 30
0.0
 11
-446.111009168788
 21
-10.2924930923406
 31
0.0
  0
LINE
  5
   5C5
  8
0
  6
CONTINUOUS
 62
     2
 10
-446.111009168788
 20
-19.7924930923406
 30
0.0
 11
-446.111009168788
 21
-10.2924930923406
 31
0.0
  0
LINE
  5
   5C6
  8
0
  6
CONTINUOUS
 62
     2
 10
-439.175517328302
 20
-19.3924930923406
 30
0.0
 11
-446.111009168788
 21
-19.3924930923406
 31
0.0
  0
LINE
  5
   5C7
  8
0
  6
CONTINUOUS
 62
     2
 10
-439.175517328302
 20
-10.6924930923406
 30
0.0
 11
-446.111009168788
 21
-10.6924930923406
 31
0.0
  0
LINE
  5
   5C8
  8
0
  6
CONTINUOUS
 62
     2
 10
-439.575517328302
 20
-19.7924930923407
 30
0.0
 11
-439.575517328302
 21
-10.2924930923406
 31
0.0
  0
LINE
  5
   5C9
  8
0
  6
CONTINUOUS
 62
     2
 10
-439.575517328302
 20
-19.7924930923407
 30
0.0
 11
-439.175517328302
 21
-19.3924930923406
 31
0.0
  0
LINE
  5
   5CA
  8
0
  6
CONTINUOUS
 62
     2
 10
-444.313379825664
 20
-10.6924930923406
 30
0.0
 11
-444.313379825664
 21
-9.54249309234065
 31
0.0
  0
LINE
  5
   5CB
  8
0
  6
CONTINUOUS
 62
     2
 10
-461.063379825664
 20
-12.5424930923406
 30
0.0
 11
-461.063379825664
 21
-10.5424930923407
 31
0.0
  0
LINE
  5
   5CC
  8
0
  6
CONTINUOUS
 62
     7
 10
-463.563384056091
 20
6.70751238883622
 30
0.0
 11
-472.563384056091
 21
6.70751238883622
 31
0.0
  0
LINE
  5
   5CD
  8
0
  6
CONTINUOUS
 62
     7
 10
-465.563384056091
 20
6.70751238883622
 30
0.0
 11
-465.563384056091
 21
8.19910956953213
 31
0.0
  0
LINE
  5
   5CE
  8
0
  6
CONTINUOUS
 62
     3
 10
-449.139783614768
 20
8.19910956953213
 30
0.0
 11
-473.257295312176
 21
8.19910956953213
 31
0.0
  0
LINE
  5
   5CF
  8
0
  6
CONTINUOUS
 62
     7
 10
-462.063384532929
 20
-2.79248761116378
 30
0.0
 11
-463.563384056091
 21
-2.79248761116378
 31
0.0
  0
LINE
  5
   5D0
  8
0
  6
CONTINUOUS
 62
     7
 10
-462.063384532929
 20
-2.79248761116389
 30
0.0
 11
-462.063384532929
 21
-0.292493820190437
 31
0.0
  0
LINE
  5
   5D1
  8
0
  6
CONTINUOUS
 62
     7
 10
-463.563384056094
 20
-2.79248761116378
 30
0.0
 11
-463.563384056094
 21
8.19910956953213
 31
0.0
  0
LINE
  5
   5D2
  8
0
  6
CONTINUOUS
 62
     7
 10
-461.063384532928
 20
-2.79248761116388
 30
0.0
 11
-462.063384532929
 21
-2.79248761116388
 31
0.0
  0
LINE
  5
   5D3
  8
0
  6
CONTINUOUS
 62
     7
 10
-461.063384532928
 20
7.70751238883612
 30
0.0
 11
-462.063384532929
 21
7.70751238883612
 31
0.0
  0
INSERT
  5
   5D4
  8
0
  6
CONTINUOUS
 62
     7
  2
*HATCH305
 10
-422.063415527344
 20
-18.6610298156738
 30
0.0
 41
0.5
 42
0.5
 50
89.9999999480344
 43
0.5
  0
LINE
  5
   5D5
  8
0
  6
CONTINUOUS
 62
     7
 10
-461.063384532928
 20
3.75750617980957
 30
0.0
 11
-463.563384056094
 21
3.75750617980957
 31
0.0
  0
LINE
  5
   5D6
  8
0
  6
CONTINUOUS
 62
     7
 10
-461.063384532928
 20
-0.34249382019043
 30
0.0
 11
-463.563384056094
 21
-0.34249382019043
 31
0.0
  0
INSERT
  5
   5D7
  8
0
  6
CONTINUOUS
 62
     7
  2
*HATCH306
 10
-422.063415527344
 20
-18.6610298156738
 30
0.0
 41
0.5
 42
0.5
 50
89.9999999480344
 43
0.5
  0
INSERT
  5
   5D8
  8
0
  6
CONTINUOUS
 62
     7
  2
*HATCH307
 10
-422.063415527344
 20
-18.6610298156738
 30
0.0
 41
0.5
 42
0.5
 50
89.9999999480344
 43
0.5
  0
INSERT
  5
   5D9
  8
0
  6
CONTINUOUS
 62
     7
  2
*HATCH308
 10
-422.063415527344
 20
-18.6610298156738
 30
0.0
 41
0.5
 42
0.5
 50
89.9999999480344
 43
0.5
  0
LINE
  5
   5DA
  8
0
  6
CONTINUOUS
 62
     3
 10
-447.495639981252
 20
-5.39247780086226
 30
0.0
 11
-449.139783614768
 21
8.19910956953213
 31
0.0
  0
LINE
  5
   5DB
  8
0
  6
CONTINUOUS
 62
     7
 10
-471.813384056094
 20
-5.04248761116378
 30
0.0
 11
-472.563384056091
 21
-5.04248761116378
 31
0.0
  0
LINE
  5
   5DC
  8
0
  6
CONTINUOUS
 62
     7
 10
-461.063384532928
 20
-2.79248761116388
 30
0.0
 11
-461.063384532928
 21
-0.292493820190437
 31
0.0
  0
LINE
  5
   5DD
  8
0
  6
CONTINUOUS
 62
     2
 10
-462.563384056094
 20
-5.79249314307555
 30
0.0
 11
-462.563384056094
 21
-5.04249314307555
 31
0.0
  0
LINE
  5
   5DE
  8
0
  6
CONTINUOUS
 62
     2
 10
-463.063384056094
 20
-6.29249310493469
 30
0.0
 11
-464.063384056094
 21
-6.29249310493469
 31
0.0
  0
LINE
  5
   5DF
  8
0
  6
CONTINUOUS
 62
     2
 10
-471.063384056094
 20
6.70750713348388
 30
0.0
 11
-471.813384056094
 21
6.70750713348388
 31
0.0
  0
LINE
  5
   5E0
  8
0
  6
CONTINUOUS
 62
     2
 10
-464.063384056094
 20
-6.29249310493469
 30
0.0
 11
-471.813384056094
 21
-6.29249310493469
 31
0.0
  0
LINE
  5
   5E1
  8
0
  6
CONTINUOUS
 62
     2
 10
-471.813384056094
 20
-6.29249310493469
 30
0.0
 11
-471.813384056094
 21
6.7075068950653
 31
0.0
  0
LINE
  5
   5E2
  8
0
  6
CONTINUOUS
 62
     2
 10
-464.063384056094
 20
-6.29249314305906
 30
0.0
 11
-464.063384056094
 21
-5.04249314305906
 31
0.0
  0
LINE
  5
   5E3
  8
0
  6
CONTINUOUS
 62
     2
 10
-464.063384056094
 20
-3.44249320030212
 30
0.0
 11
-464.356277465823
 21
-3.44249320030212
 31
0.0
  0
LINE
  5
   5E4
  8
0
  6
CONTINUOUS
 62
     2
 10
-464.063384056094
 20
-5.04249310493469
 30
0.0
 11
-464.063384056094
 21
-2.54249358177185
 31
0.0
  0
LINE
  5
   5E5
  8
0
  6
CONTINUOUS
 62
     2
 10
-464.556277275088
 20
-3.64249312877655
 30
0.0
 11
-464.897426605227
 21
-3.64249312877655
 31
0.0
  0
LINE
  5
   5E6
  8
0
  6
CONTINUOUS
 62
     2
 10
-464.556276926562
 20
-3.64249295696224
 30
0.0
 11
-464.356277118854
 21
-3.44249303124295
 31
0.0
  0
LINE
  5
   5E7
  8
0
  6
CONTINUOUS
 62
     2
 10
-464.063384098013
 20
-5.0424927388118
 30
0.0
 11
-471.063384035568
 21
6.7075069816798
 31
0.0
  0
LINE
  5
   5E8
  8
0
  6
CONTINUOUS
 62
     2
 10
-463.813384056094
 20
-2.54249382019043
 30
0.0
 11
-463.813384056094
 21
5.95750617980957
 31
0.0
  0
LINE
  5
   5E9
  8
0
  6
CONTINUOUS
 62
     2
 10
-463.063383696251
 20
-6.29249302670787
 30
0.0
 11
-462.563383713365
 21
-5.79249308596899
 31
0.0
  0
LINE
  5
   5EA
  8
0
  6
CONTINUOUS
 62
   210
 10
-463.563384056094
 20
-1.54249382019043
 30
0.0
 11
-463.563384056094
 21
4.95750617980957
 31
0.0
  0
LINE
  5
   5EB
  8
0
  6
CONTINUOUS
 62
     2
 10
-464.063384056094
 20
-5.79249316453934
 30
0.0
 11
-471.813384056094
 21
-5.79249316453934
 31
0.0
  0
LINE
  5
   5EC
  8
0
  6
CONTINUOUS
 62
     2
 10
-470.765511751177
 20
6.20750713348388
 30
0.0
 11
-471.813384056094
 21
6.20750713348388
 31
0.0
  0
LINE
  5
   5ED
  8
0
  6
CONTINUOUS
 62
     2
 10
-463.813383817675
 20
5.95750617980957
 30
0.0
 11
-470.616575002673
 21
5.95750617980957
 31
0.0
  0
LINE
  5
   5EE
  8
0
  6
CONTINUOUS
 62
     2
 10
-463.813384056094
 20
-2.54249358177185
 30
0.0
 11
-465.552745819094
 21
-2.54249358177185
 31
0.0
  0
LINE
  5
   5EF
  8
0
  6
CONTINUOUS
 62
   210
 10
-463.563384056094
 20
-1.54249358177185
 30
0.0
 11
-463.813384056094
 21
-1.54249358177185
 31
0.0
  0
LINE
  5
   5F0
  8
0
  6
CONTINUOUS
 62
   210
 10
-463.563384056094
 20
4.95750617980957
 30
0.0
 11
-463.813384056094
 21
4.95750617980957
 31
0.0
  0
LINE
  5
   5F1
  8
0
  6
CONTINUOUS
 62
     7
 10
-457.563384056091
 20
-2.79249382019044
 30
0.0
 11
-458.063384056091
 21
-2.79249382019044
 31
0.0
  0
LINE
  5
   5F2
  8
0
  6
CONTINUOUS
 62
     7
 10
-457.563384056091
 20
-2.79249382019044
 30
0.0
 11
-457.563384056091
 21
6.20750617980956
 31
0.0
  0
LINE
  5
   5F3
  8
0
  6
CONTINUOUS
 62
     7
 10
-457.563384056091
 20
6.20750617980956
 30
0.0
 11
-458.063384056091
 21
6.20750617980956
 31
0.0
  0
LINE
  5
   5F4
  8
0
  6
CONTINUOUS
 62
     7
 10
-458.063384056091
 20
-2.79249382019044
 30
0.0
 11
-458.063384056091
 21
6.20750617980956
 31
0.0
  0
LINE
  5
   5F5
  8
0
  6
CONTINUOUS
 62
     7
 10
-461.063384532928
 20
3.70750617980956
 30
0.0
 11
-461.063384532928
 21
7.70751238883612
 31
0.0
  0
LINE
  5
   5F6
  8
0
  6
CONTINUOUS
 62
     7
 10
-462.063384532929
 20
3.70750617980956
 30
0.0
 11
-462.063384532929
 21
8.19910956953213
 31
0.0
  0
LINE
  5
   5F7
  8
0
  6
CONTINUOUS
 62
     7
 10
-459.313384056091
 20
9.08999298095701E-2
 30
0.0
 11
-463.563384056094
 21
9.08999298095701E-2
 31
0.0
  0
LINE
  5
   5F8
  8
0
  6
CONTINUOUS
 62
     1
 10
-458.063384056091
 20
3.70750617980957
 30
0.0
 11
-463.563384056094
 21
3.70750617980957
 31
0.0
  0
LINE
  5
   5F9
  8
0
  6
CONTINUOUS
 62
     1
 10
-458.063384056091
 20
-0.29249382019043
 30
0.0
 11
-463.563384056094
 21
-0.29249382019043
 31
0.0
  0
LINE
  5
   5FA
  8
0
  6
CONTINUOUS
 62
     1
 10
-459.313384056091
 20
-0.292493820190433
 30
0.0
 11
-459.313384056091
 21
3.70750617980957
 31
0.0
  0
LINE
  5
   5FB
  8
0
  6
DASHDOT
 62
     7
 10
-453.313384056091
 20
1.70750617980957
 30
0.0
 11
-465.063384056091
 21
1.70750617980957
 31
0.0
  0
LINE
  5
   5FC
  8
0
  6
DASHDOT
 62
   218
 10
-469.360636483334
 20
72.2075004689834
 30
0.0
 11
-482.997815697819
 21
72.2075004689834
 31
0.0
  0
LINE
  5
   5FD
  8
0
  6
DASHDOT
 62
   218
 10
-469.360636483334
 20
2.70750046898335
 30
0.0
 11
-482.997815697819
 21
2.70750046898335
 31
0.0
  0
LINE
  5
   5FE
  8
0
  6
CONTINUOUS
 62
   210
 10
-423.438392638564
 20
-28.0424778008623
 30
0.0
 11
-447.863369765879
 21
-28.0424778008623
 31
0.0
  0
LINE
  5
   5FF
  8
0
  6
CONTINUOUS
 62
   210
 10
-472.563385009169
 20
-28.0424778008623
 30
0.0
 11
-472.563385009169
 21
-5.04248807570517
 31
0.0
  0
ARC
  5
   600
  8
0
  6
CONTINUOUS
 62
   210
 10
-423.438392638564
 20
-27.4174778008623
 30
0.0
 40
0.625
 50
269.999999948034
 51
359.999999948034
  0
LINE
  5
   601
  8
0
  6
CONTINUOUS
 62
   210
 10
-422.813392638564
 20
-27.4174778008623
 30
0.0
 11
-422.813392638564
 21
-7.54247780086227
 31
0.0
  0
LINE
  5
   602
  8
0
  6
CONTINUOUS
 62
   210
 10
-422.813392638564
 20
-7.54247780086227
 30
0.0
 11
-422.813392638564
 21
6.45752219913773
 31
0.0
  0
LINE
  5
   603
  8
0
  6
CONTINUOUS
 62
   210
 10
-422.813392638564
 20
6.45752219913773
 30
0.0
 11
-423.313392638564
 21
6.45752219913773
 31
0.0
  0
LINE
  5
   604
  8
0
  6
CONTINUOUS
 62
   210
 10
-423.313392638564
 20
6.45752219913773
 30
0.0
 11
-423.313392638564
 21
6.95752219913773
 31
0.0
  0
LINE
  5
   605
  8
0
  6
CONTINUOUS
 62
   210
 10
-424.063385009169
 20
-6.39247780086227
 30
0.0
 11
-424.063385009169
 21
6.95752219913773
 31
0.0
  0
LINE
  5
   606
  8
0
  6
CONTINUOUS
 62
   210
 10
-424.063385009169
 20
-4.82711793865078
 30
0.0
 11
-424.063385009169
 21
-2.04247780086227
 31
0.0
  0
LINE
  5
   607
  8
0
  6
CONTINUOUS
 62
   210
 10
-424.063385009169
 20
-16.8924778008623
 30
0.0
 11
-435.313392638564
 21
-16.8924778008623
 31
0.0
  0
LINE
  5
   608
  8
0
  6
CONTINUOUS
 62
   210
 10
-424.063385009169
 20
-7.39247780086227
 30
0.0
 11
-435.313392638564
 21
-7.39247780086227
 31
0.0
  0
LINE
  5
   609
  8
0
  6
CONTINUOUS
 62
   210
 10
-424.063385009169
 20
-17.8924778008623
 30
0.0
 11
-434.063392638564
 21
-17.8924778008623
 31
0.0
  0
LINE
  5
   60A
  8
0
  6
CONTINUOUS
 62
   210
 10
-424.063385009169
 20
-6.39247780086227
 30
0.0
 11
-434.063392638564
 21
-6.39247780086227
 31
0.0
  0
LINE
  5
   60B
  8
0
  6
CONTINUOUS
 62
   210
 10
-434.063392638564
 20
-6.39247780086227
 30
0.0
 11
-434.063392638564
 21
-5.39247780086227
 31
0.0
  0
LINE
  5
   60C
  8
0
  6
CONTINUOUS
 62
   210
 10
-434.063392638564
 20
-28.0424778008623
 30
0.0
 11
-434.063392638564
 21
-17.8924778008623
 31
0.0
  0
LINE
  5
   60D
  8
0
  6
CONTINUOUS
 62
   210
 10
-424.063385009169
 20
-28.0424778008623
 30
0.0
 11
-424.063385009169
 21
-17.8924778008623
 31
0.0
  0
LINE
  5
   60E
  8
0
  6
CONTINUOUS
 62
   210
 10
-424.063385009169
 20
-16.8924778008623
 30
0.0
 11
-424.063385009169
 21
-7.39247780086227
 31
0.0
  0
LINE
  5
   60F
  8
0
  6
CONTINUOUS
 62
   210
 10
-435.313392638564
 20
-27.0424778008623
 30
0.0
 11
-447.863369765879
 21
-27.0424778008623
 31
0.0
  0
LINE
  5
   610
  8
0
  6
CONTINUOUS
 62
   210
 10
-435.313392638564
 20
-26.0424778008623
 30
0.0
 11
-447.863369765879
 21
-26.0424778008623
 31
0.0
  0
LINE
  5
   611
  8
0
  6
CONTINUOUS
 62
   210
 10
-435.313392638564
 20
-25.0424778008623
 30
0.0
 11
-447.863369765879
 21
-25.0424778008623
 31
0.0
  0
LINE
  5
   612
  8
0
  6
CONTINUOUS
 62
   210
 10
-434.063392638564
 20
-5.39247780086227
 30
0.0
 11
-458.063384532929
 21
-5.39247780086227
 31
0.0
  0
LINE
  5
   613
  8
0
  6
CONTINUOUS
 62
   210
 10
-435.313392638564
 20
-6.39247780086227
 30
0.0
 11
-458.063384532929
 21
-6.39247780086227
 31
0.0
  0
LINE
  5
   614
  8
0
  6
CONTINUOUS
 62
   210
 10
-435.313392638564
 20
-28.0424778008623
 30
0.0
 11
-435.313392638564
 21
-6.39247780086227
 31
0.0
  0
LINE
  5
   615
  8
0
  6
CONTINUOUS
 62
   210
 10
-441.313392638564
 20
-6.39247780086227
 30
0.0
 11
-441.313392638564
 21
-5.39247780086227
 31
0.0
  0
INSERT
  5
   616
  8
0
  6
CONTINUOUS
 62
    98
  2
*HATCH309
 10
-422.063415527344
 20
-18.6610298156738
 30
0.0
 41
0.5
 42
0.5
 50
89.9999999480344
 43
0.5
  0
LINE
  5
   617
  8
0
  6
CONTINUOUS
 62
   210
 10
-423.313392638564
 20
6.95752219913773
 30
0.0
 11
-424.063385009169
 21
6.95752219913773
 31
0.0
  0
LINE
  5
   618
  8
0
  6
CONTINUOUS
 62
     7
 10
-436.563385009766
 20
-3.64249228309183
 30
0.0
 11
-447.707331777757
 21
-3.64249228309183
 31
0.0
  0
LINE
  5
   619
  8
0
  6
CONTINUOUS
 62
     7
 10
-472.563385009766
 20
-4.14249953101664
 30
0.0
 11
-472.563385009766
 21
15.104616663362
 31
0.0
  0
LINE
  5
   61A
  8
0
  6
CONTINUOUS
 62
     7
 10
-472.563385009766
 20
15.1046028249404
 30
0.0
 11
-472.563385009766
 21
16.8324942588322
 31
0.0
  0
LINE
  5
   61B
  8
0
  6
CONTINUOUS
 62
     7
 10
-473.563385009766
 20
-75.7924995310166
 30
0.0
 11
-473.563385009766
 21
16.8324942588322
 31
0.0
  0
LINE
  5
   61C
  8
0
  6
CONTINUOUS
 62
     7
 10
-473.563385009766
 20
74.6223030202529
 30
0.0
 11
-473.563385009766
 21
74.7074852101943
 31
0.0
  0
LINE
  5
   61D
  8
0
  6
CONTINUOUS
 62
     7
 10
-438.313386770243
 20
44.4574874434398
 30
0.0
 11
-438.313396453732
 21
48.5824992968622
 31
0.0
  0
LINE
  5
   61E
  8
0
  6
CONTINUOUS
 62
     7
 10
-437.063414620934
 20
71.7074969849457
 30
0.0
 11
-436.709853228509
 21
71.8539431903589
 31
0.0
  0
LINE
  5
   61F
  8
0
  6
CONTINUOUS
 62
     7
 10
-436.709846856952
 20
71.8539326273196
 30
0.0
 11
-436.563400640074
 21
72.2074863765446
 31
0.0
  0
LINE
  5
   620
  8
0
  6
CONTINUOUS
 62
     7
 10
-438.313393184061
 20
68.2074999264388
 30
0.0
 11
-438.313385554667
 21
71.7074999267188
 31
0.0
  0
LINE
  5
   621
  8
0
  6
CONTINUOUS
 62
     7
 10
-437.063400268555
 20
71.7075004689834
 30
0.0
 11
-438.313385009766
 21
71.7075004689834
 31
0.0
  0
LINE
  5
   622
  8
0
  6
CONTINUOUS
 62
     7
 10
-438.31339263916
 20
48.5825004689834
 30
0.0
 11
-438.31339263916
 21
68.2075004689834
 31
0.0
  0
LINE
  5
   623
  8
0
  6
CONTINUOUS
 62
     7
 10
-440.563385009766
 20
23.2075004689834
 30
0.0
 11
-440.563385009766
 21
43.4575004689834
 31
0.0
  0
LINE
  5
   624
  8
0
  6
CONTINUOUS
 62
     7
 10
-440.563370028661
 20
43.4575280075558
 30
0.0
 11
-440.429397871397
 21
43.957527993862
 31
0.0
  0
LINE
  5
   625
  8
0
  6
CONTINUOUS
 62
     7
 10
-440.42938083765
 20
43.9575470213993
 30
0.0
 11
-440.063360653643
 21
44.3235748262207
 31
0.0
  0
LINE
  5
   626
  8
0
  6
CONTINUOUS
 62
     7
 10
-440.063412402266
 20
44.3235152862344
 30
0.0
 11
-439.563404799687
 21
44.4574874434398
 31
0.0
  0
LINE
  5
   627
  8
0
  6
CONTINUOUS
 62
     7
 10
-436.563385009766
 20
23.2075004689834
 30
0.0
 11
-440.563385009766
 21
23.2075004689834
 31
0.0
  0
LINE
  5
   628
  8
0
  6
CONTINUOUS
 62
     7
 10
-436.563406353339
 20
15.7074940930024
 30
0.0
 11
-437.063444479849
 21
16.2074940751591
 31
0.0
  0
LINE
  5
   629
  8
0
  6
CONTINUOUS
 62
     7
 10
-437.063439023544
 20
21.7074856963971
 30
0.0
 11
-468.447342526962
 21
21.7074856963971
 31
0.0
  0
LINE
  5
   62A
  8
0
  6
CONTINUOUS
 62
     7
 10
-437.063431739807
 20
16.2075004689834
 30
0.0
 11
-468.447365760803
 21
16.2075004689834
 31
0.0
  0
LINE
  5
   62B
  8
0
  6
CONTINUOUS
 62
     7
 10
-468.447344761523
 20
21.7074785180583
 30
0.0
 11
-470.313387269827
 21
22.2074861466397
 31
0.0
  0
LINE
  5
   62C
  8
0
  6
CONTINUOUS
 62
     7
 10
-470.313371098086
 20
22.2074807553302
 30
0.0
 11
-472.063387291901
 21
22.6763985474583
 31
0.0
  0
LINE
  5
   62D
  8
0
  6
CONTINUOUS
 62
     7
 10
-472.563384454087
 20
15.1046184056494
 30
0.0
 11
-468.447364752094
 21
16.2075007739195
 31
0.0
  0
LINE
  5
   62E
  8
0
  6
CONTINUOUS
 62
     7
 10
-472.563378509264
 20
23.8546522660604
 30
0.0
 11
-472.063379966435
 21
23.9886244233291
 31
0.0
  0
LINE
  5
   62F
  8
0
  6
CONTINUOUS
 62
     7
 10
-470.563385486603
 20
11.9574928395888
 30
0.0
 11
-472.563385009766
 21
11.9574928395888
 31
0.0
  0
LINE
  5
   630
  8
0
  6
CONTINUOUS
 62
     7
 10
-470.563385486603
 20
8.19910385870593
 30
0.0
 11
-470.563385486603
 21
11.9574928395888
 31
0.0
  0
LINE
  5
   631
  8
0
  6
CONTINUOUS
 62
     7
 10
-472.063385009766
 20
15.2385826223037
 30
0.0
 11
-472.063385009766
 21
16.8324942588322
 31
0.0
  0
LINE
  5
   632
  8
0
  6
CONTINUOUS
 62
     7
 10
-470.313385009766
 20
22.2075004689834
 30
0.0
 11
-470.313385009766
 21
34.7075004689834
 31
0.0
  0
LINE
  5
   633
  8
0
  6
CONTINUOUS
 62
     7
 10
-471.06338596344
 20
37.4574928395888
 30
0.0
 11
-472.563385486603
 21
37.4574928395888
 31
0.0
  0
LINE
  5
   634
  8
0
  6
CONTINUOUS
 62
     7
 10
-470.688379878799
 20
37.3570087650828
 30
0.0
 11
-471.063380812295
 21
37.4574878830259
 31
0.0
  0
LINE
  5
   635
  8
0
  6
CONTINUOUS
 62
     7
 10
-470.688379878799
 20
37.3570087650828
 30
0.0
 11
-471.063380812295
 21
37.4574878830259
 31
0.0
  0
LINE
  5
   636
  8
0
  6
CONTINUOUS
 62
     7
 10
-470.413864431008
 20
37.0824853803568
 30
0.0
 11
-470.688383392851
 21
37.3570062397045
 31
0.0
  0
LINE
  5
   637
  8
0
  6
CONTINUOUS
 62
     7
 10
-470.313392505851
 20
36.7074787829239
 30
0.0
 11
-470.41387305849
 21
37.0824787817325
 31
0.0
  0
LINE
  5
   638
  8
0
  6
CONTINUOUS
 62
     7
 10
-470.31337594986
 20
34.7074936144543
 30
0.0
 11
-470.31337594986
 21
36.7074859850598
 31
0.0
  0
LINE
  5
   639
  8
0
  6
CONTINUOUS
 62
     7
 10
-470.41386211359
 20
34.3324896658843
 30
0.0
 11
-470.36625088406
 21
34.5101782618268
 31
0.0
  0
LINE
  5
   63A
  8
0
  6
CONTINUOUS
 62
     7
 10
-470.366251801219
 20
34.510173418885
 30
0.0
 11
-470.313382482557
 21
34.7074924463877
 31
0.0
  0
LINE
  5
   63B
  8
0
  6
CONTINUOUS
 62
     7
 10
-470.688385164257
 20
34.0579539595811
 30
0.0
 11
-470.413865739203
 21
34.332474819334
 31
0.0
  0
LINE
  5
   63C
  8
0
  6
CONTINUOUS
 62
     7
 10
-471.063391435897
 20
33.9574824509686
 30
0.0
 11
-470.688391441074
 21
34.0579615612027
 31
0.0
  0
LINE
  5
   63D
  8
0
  6
CONTINUOUS
 62
     7
 10
-471.063385486603
 20
33.9574928395888
 30
0.0
 11
-472.063385009766
 21
33.9574928395888
 31
0.0
  0
LINE
  5
   63E
  8
0
  6
CONTINUOUS
 62
     7
 10
-472.563385009766
 20
0.207493316425989
 30
0.0
 11
-473.563385009766
 21
0.207493316425989
 31
0.0
  0
LINE
  5
   63F
  8
0
  6
CONTINUOUS
 62
     7
 10
-472.563385009766
 20
74.7074852101943
 30
0.0
 11
-473.563385009766
 21
74.7074852101943
 31
0.0
  0
LINE
  5
   640
  8
0
  6
CONTINUOUS
 62
     7
 10
-472.563385009766
 20
69.7733116262099
 30
0.0
 11
-473.563385009766
 21
69.7733116262099
 31
0.0
  0
LINE
  5
   641
  8
0
  6
CONTINUOUS
 62
     7
 10
-468.913878336612
 20
16.082494801377
 30
0.0
 11
-470.313396774397
 21
16.457494772358
 31
0.0
  0
LINE
  5
   642
  8
0
  6
CONTINUOUS
 62
     7
 10
-470.313401699066
 20
16.4574995391558
 30
0.0
 11
-470.313401699066
 21
16.8324942588322
 31
0.0
  0
LINE
  5
   643
  8
0
  6
CONTINUOUS
 62
     7
 10
-470.3134015528
 20
21.4574928520296
 30
0.0
 11
-468.913871197261
 21
21.8324928486809
 31
0.0
  0
LINE
  5
   644
  8
0
  6
CONTINUOUS
 62
     7
 10
-472.563385009766
 20
5.09980393578024
 30
0.0
 11
-473.563385009766
 21
5.09980393578024
 31
0.0
  0
LINE
  5
   645
  8
0
  6
CONTINUOUS
 62
     7
 10
-472.563385009766
 20
5.20749283958883
 30
0.0
 11
-473.563385009766
 21
5.20749283958883
 31
0.0
  0
LINE
  5
   646
  8
0
  6
CONTINUOUS
 62
     7
 10
-470.413860419878
 20
34.0678435370688
 30
0.0
 11
-470.313380350349
 21
34.5101805584552
 31
0.0
  0
LINE
  5
   647
  8
0
  6
CONTINUOUS
 62
     7
 10
-470.31338596344
 20
34.5101814382216
 30
0.0
 11
-470.366254806519
 21
34.5101814382216
 31
0.0
  0
LINE
  5
   648
  8
0
  6
CONTINUOUS
 62
     7
 10
-470.380373397879
 20
27.4574876870485
 30
0.0
 11
-470.313387318774
 21
27.5072160786284
 31
0.0
  0
LINE
  5
   649
  8
0
  6
CONTINUOUS
 62
     7
 10
-470.380368943746
 20
27.4574701302487
 30
0.0
 11
-470.413863413815
 21
27.4823343251457
 31
0.0
  0
LINE
  5
   64A
  8
0
  6
CONTINUOUS
 62
     7
 10
-470.313385486603
 20
32.4575004689834
 30
0.0
 11
-470.413866043091
 21
32.4575004689834
 31
0.0
  0
LINE
  5
   64B
  8
0
  6
CONTINUOUS
 62
     7
 10
-470.413868776535
 20
29.4326071536723
 30
0.0
 11
-470.380374306466
 21
29.4574713485693
 31
0.0
  0
LINE
  5
   64C
  8
0
  6
CONTINUOUS
 62
     7
 10
-470.313383386817
 20
29.4077558133851
 30
0.0
 11
-470.380369465921
 21
29.457484204965
 31
0.0
  0
LINE
  5
   64D
  8
0
  6
CONTINUOUS
 62
     7
 10
-470.359282001785
 20
33.3185365349027
 30
0.0
 11
-470.413868871316
 21
33.6234223956738
 31
0.0
  0
LINE
  5
   64E
  8
0
  6
CONTINUOUS
 62
     7
 10
-470.313385886742
 20
32.4575018936433
 30
0.0
 11
-470.359279554835
 21
33.3185400688134
 31
0.0
  0
LINE
  5
   64F
  8
0
  6
CONTINUOUS
 62
     7
 10
-470.413868218177
 20
27.4823490825117
 30
0.0
 11
-470.67154815167
 21
27.5336033493662
 31
0.0
  0
LINE
  5
   650
  8
0
  6
CONTINUOUS
 62
     7
 10
-470.671546768586
 20
27.5336063674324
 30
0.0
 11
-470.688386272722
 21
27.544859723623
 31
0.0
  0
LINE
  5
   651
  8
0
  6
CONTINUOUS
 62
     7
 10
-470.688393684281
 20
29.3701133425297
 30
0.0
 11
-470.67155322705
 21
29.3813666989525
 31
0.0
  0
LINE
  5
   652
  8
0
  6
CONTINUOUS
 62
     7
 10
-470.671549929924
 20
29.3813643030296
 30
0.0
 11
-470.413870949532
 21
29.4326185619077
 31
0.0
  0
LINE
  5
   653
  8
0
  6
CONTINUOUS
 62
     7
 10
-470.413866043091
 20
32.4575004689834
 30
0.0
 11
-470.688385486603
 21
32.4575004689834
 31
0.0
  0
LINE
  5
   654
  8
0
  6
CONTINUOUS
 62
     7
 10
-470.688387729672
 20
27.5448528270167
 30
0.0
 11
-471.063387720968
 21
27.6119914834225
 31
0.0
  0
LINE
  5
   655
  8
0
  6
CONTINUOUS
 62
     7
 10
-471.063388301257
 20
29.3029763071996
 30
0.0
 11
-470.68838830996
 21
29.3701149636053
 31
0.0
  0
LINE
  5
   656
  8
0
  6
CONTINUOUS
 62
     7
 10
-470.688385486603
 20
32.4575004689834
 30
0.0
 11
-471.063385486603
 21
32.4575004689834
 31
0.0
  0
LINE
  5
   657
  8
0
  6
CONTINUOUS
 62
     7
 10
-471.063385486603
 20
29.302982341542
 30
0.0
 11
-472.063385009766
 21
29.302982341542
 31
0.0
  0
LINE
  5
   658
  8
0
  6
CONTINUOUS
 62
     7
 10
-471.063385486603
 20
32.4575004689834
 30
0.0
 11
-472.063385009766
 21
32.4575004689834
 31
0.0
  0
LINE
  5
   659
  8
0
  6
CONTINUOUS
 62
     7
 10
-471.063385486603
 20
27.6120033376357
 30
0.0
 11
-472.063385009766
 21
27.6120033376357
 31
0.0
  0
LINE
  5
   65A
  8
0
  6
CONTINUOUS
 62
     3
 10
-424.063385009169
 20
79.9575004689834
 30
0.0
 11
-454.863385009766
 21
79.9575004689834
 31
0.0
  0
LINE
  5
   65B
  8
0
  6
CONTINUOUS
 62
     3
 10
-425.463386535048
 20
78.557506572499
 30
0.0
 11
-447.707330624118
 21
78.557506572499
 31
0.0
  0
LINE
  5
   65C
  8
0
  6
CONTINUOUS
 62
     3
 10
-425.463386535048
 20
-3.64249228309184
 30
0.0
 11
-436.563385009169
 21
-3.64249228309184
 31
0.0
  0
LINE
  5
   65D
  8
0
  6
CONTINUOUS
 62
     3
 10
-424.063385009169
 20
-5.04249190162211
 30
0.0
 11
-453.563385486603
 21
-5.04249190162211
 31
0.0
  0
LINE
  5
   65E
  8
0
  6
CONTINUOUS
 62
     3
 10
-436.563385009169
 20
-5.04249190162211
 30
0.0
 11
-436.563385009169
 21
16.0825004689834
 31
0.0
  0
LINE
  5
   65F
  8
0
  6
CONTINUOUS
 62
     3
 10
-436.563385009168
 20
21.8324928395888
 30
0.0
 11
-436.563385009168
 21
23.2075309865615
 31
0.0
  0
LINE
  5
   660
  8
0
  6
CONTINUOUS
 62
     3
 10
-436.563385009766
 20
72.2075241115856
 30
0.0
 11
-436.563385009766
 21
79.9575004689834
 31
0.0
  0
LINE
  5
   661
  8
0
  6
CONTINUOUS
 62
     3
 10
-421.813385009169
 20
43.9319343679091
 30
0.0
 11
-421.813385009169
 21
48.7073402516982
 31
0.0
  0
LINE
  5
   662
  8
0
  6
CONTINUOUS
 62
     3
 10
-421.81338918543
 20
15.2073522484534
 30
0.0
 11
-421.813412073612
 21
18.4827118791064
 31
0.0
  0
LINE
  5
   663
  8
0
  6
CONTINUOUS
 62
     3
 10
-424.063385009169
 20
67.8325004689834
 30
0.0
 11
-424.063385009169
 21
79.9575004689834
 31
0.0
  0
LINE
  5
   664
  8
0
  6
CONTINUOUS
 62
     3
 10
-424.063385009169
 20
71.8325080983779
 30
0.0
 11
-425.463386535048
 21
71.8325080983779
 31
0.0
  0
LINE
  5
   665
  8
0
  6
CONTINUOUS
 62
     3
 10
-424.063385009169
 20
6.95752219913773
 30
0.0
 11
-424.063385009169
 21
7.3325089839325
 31
0.0
  0
LINE
  5
   666
  8
0
  6
CONTINUOUS
 62
     3
 10
-424.063385009169
 20
3.08250809837789
 30
0.0
 11
-425.463386535048
 21
3.08250809837789
 31
0.0
  0
LINE
  5
   667
  8
0
  6
CONTINUOUS
 62
     3
 10
-425.463386535048
 20
-3.6424903757432
 30
0.0
 11
-425.463386535048
 21
7.3325093654027
 31
0.0
  0
LINE
  5
   668
  8
0
  6
CONTINUOUS
 62
     3
 10
-425.463388064455
 20
21.8325004689834
 30
0.0
 11
-436.563386538576
 21
21.8325004689834
 31
0.0
  0
LINE
  5
   669
  8
0
  6
CONTINUOUS
 62
     3
 10
-425.46338771925
 20
16.0825004689834
 30
0.0
 11
-436.563386193372
 21
16.0825004689834
 31
0.0
  0
LINE
  5
   66A
  8
0
  6
CONTINUOUS
 62
     1
 10
-422.813385486007
 20
67.8325004689834
 30
0.0
 11
-425.463386535048
 21
67.8325004689834
 31
0.0
  0
LINE
  5
   66B
  8
0
  6
CONTINUOUS
 62
     1
 10
-420.834849072465
 20
62.5093104450822
 30
0.0
 11
-420.850008679068
 21
62.5459162794073
 31
0.0
  0
LINE
  5
   66C
  8
0
  6
CONTINUOUS
 62
     1
 10
-420.849992108006
 20
62.5458819074947
 30
0.0
 11
-420.938380072518
 21
62.5824877423094
 31
0.0
  0
LINE
  5
   66D
  8
0
  6
CONTINUOUS
 62
     1
 10
-424.06338500917
 20
7.33250857521505
 30
0.0
 11
-424.31338500917
 21
7.33250857521505
 31
0.0
  0
LINE
  5
   66E
  8
0
  6
CONTINUOUS
 62
     1
 10
-422.813385486007
 20
7.33252219913773
 30
0.0
 11
-425.463386535048
 21
7.33252219913773
 31
0.0
  0
LINE
  5
   66F
  8
0
  6
CONTINUOUS
 62
     2
 10
-421.81272981912
 20
10.0825004708108
 30
0.0
 11
-421.81272981912
 21
62.5825004708108
 31
0.0
  0
LINE
  5
   670
  8
0
  6
CONTINUOUS
 62
     2
 10
-416.314128305269
 20
62.5825004689834
 30
0.0
 11
-422.813385486007
 21
62.5825004689834
 31
0.0
  0
LINE
  5
   671
  8
0
  6
CONTINUOUS
 62
     2
 10
-416.313371355211
 20
10.0825004701634
 30
0.0
 11
-422.813385486007
 21
10.0825004701634
 31
0.0
  0
LINE
  5
   672
  8
0
  6
CONTINUOUS
 62
     7
 10
-438.313388824338
 20
44.4574874434398
 30
0.0
 11
-439.563404799687
 21
44.4574874434398
 31
0.0
  0
LINE
  5
   673
  8
0
  6
CONTINUOUS
 62
     7
 10
-422.813385486007
 20
62.5825004689834
 30
0.0
 11
-422.813385486007
 21
67.8325004689834
 31
0.0
  0
LINE
  5
   674
  8
0
  6
CONTINUOUS
 62
     7
 10
-422.813385486007
 20
7.33250864333461
 30
0.0
 11
-422.813385486007
 21
10.0825004701634
 31
0.0
  0
LINE
  5
   675
  8
0
  6
CONTINUOUS
 62
     3
 10
-425.463386535048
 20
67.8325004689834
 30
0.0
 11
-425.463386535048
 21
78.557506572499
 31
0.0
  0
LINE
  5
   676
  8
0
  6
CONTINUOUS
 62
     3
 10
-425.463386535048
 20
7.3325093654027
 30
0.0
 11
-425.463386535048
 21
67.8325004689834
 31
0.0
  0
ARC
  5
   677
  8
0
  6
CONTINUOUS
 62
     7
 10
-406.975365105092
 20
25.3105596436973
 30
0.0
 40
0.499999897877905
 50
348.623601716676
 51
436.688817054576
  0
ARC
  5
   678
  8
0
  6
CONTINUOUS
 62
     7
 10
-407.57373583364
 20
22.3366503636484
 30
0.0
 40
0.50000037262337
 50
260.594020543651
 51
348.623601716676
  0
LINE
  5
   679
  8
0
  6
CONTINUOUS
 62
     7
 10
-406.860245373479
 20
25.7971261703526
 30
0.0
 11
-416.313438129899
 21
28.0337144956752
 31
0.0
  0
LINE
  5
   67A
  8
0
  6
CONTINUOUS
 62
     7
 10
-407.083559339963
 20
22.2380235548842
 30
0.0
 11
-406.485188775709
 21
25.21193286799
 31
0.0
  0
LINE
  5
   67B
  8
0
  6
CONTINUOUS
 62
     7
 10
-407.65545032818
 20
21.8433726003479
 30
0.0
 11
-416.313423546391
 21
23.2776190997782
 31
0.0
  0
ARC
  5
   67C
  8
0
  6
DASHDOT
 62
     7
 10
-444.062986065718
 20
31.2075004689834
 30
0.0
 40
38.0221347997541
 50
337.492314704898
 51
359.999999948034
  0
LINE
  5
   67D
  8
0
  6
DASHDOT
 62
     7
 10
-406.040851265964
 20
31.2075004689833
 30
0.0
 11
-406.040851265964
 21
34.0826002863521
 31
0.0
  0
LINE
  5
   67E
  8
0
  6
CONTINUOUS
 62
     1
 10
-420.063389778137
 20
10.0825004701634
 30
0.0
 11
-420.063389778137
 21
62.5825004689834
 31
0.0
  0
LINE
  5
   67F
  8
0
  6
DASHDOT
 62
     7
 10
-406.040851265964
 20
31.2075004689833
 30
0.0
 11
-406.040851265964
 21
41.7397273742783
 31
0.0
  0
LINE
  5
   680
  8
0
  6
DASHDOT
 62
     5
 10
-393.082348349561
 20
36.3325004689834
 30
0.0
 11
-487.645754302839
 21
36.3325004689834
 31
0.0
  0
LINE
  5
   681
  8
0
  6
CONTINUOUS
 62
     3
 10
-424.063385009169
 20
-5.04249571631938
 30
0.0
 11
-458.063384532929
 21
-5.04249571631938
 31
0.0
  0
LINE
  5
   682
  8
0
  6
CONTINUOUS
 62
     7
 10
-472.563385009766
 20
-5.04248807570517
 30
0.0
 11
-472.563385009766
 21
5.14169312645406
 31
0.0
  0
LINE
  5
   683
  8
0
  6
CONTINUOUS
 62
     7
 10
-478.563385009766
 20
-75.7924995310166
 30
0.0
 11
-478.563385009766
 21
124.207500468983
 31
0.0
  0
LINE
  5
   684
  8
0
  6
CONTINUOUS
 62
     7
 10
-473.563385009766
 20
124.207500468983
 30
0.0
 11
-478.563385009766
 21
124.207500468983
 31
0.0
  0
LINE
  5
   685
  8
0
  6
CONTINUOUS
 62
     7
 10
-473.563385009766
 20
-75.7924995310166
 30
0.0
 11
-478.563385009766
 21
-75.7924995310166
 31
0.0
  0
LINE
  5
   686
  8
0
  6
CONTINUOUS
 62
   210
 10
-461.063385009766
 20
-5.39247780086227
 30
0.0
 11
-462.563384056094
 21
-5.39247780086227
 31
0.0
  0
LINE
  5
   687
  8
0
  6
CONTINUOUS
 62
   210
 10
-461.063384532928
 20
-6.39247780086227
 30
0.0
 11
-472.563385009169
 21
-6.39247780086227
 31
0.0
  0
LINE
  5
   688
  8
0
  6
DASHDOT
 62
     7
 10
-453.313384056091
 20
-15.0424938201904
 30
0.0
 11
-465.063384056091
 21
-15.0424938201904
 31
0.0
  0
LINE
  5
   689
  8
0
  6
CONTINUOUS
 62
     7
 10
-458.063384532929
 20
-21.2924938201904
 30
0.0
 11
-461.063384532928
 21
-21.2924938201904
 31
0.0
  0
LINE
  5
   68A
  8
0
  6
CONTINUOUS
 62
     7
 10
-458.063384056091
 20
6.70750617980957
 30
0.0
 11
-461.063384532928
 21
6.70750617980957
 31
0.0
  0
LINE
  5
   68B
  8
0
  6
CONTINUOUS
 62
     7
 10
-461.063384532928
 20
-21.2924938201904
 30
0.0
 11
-461.063384532928
 21
-0.29249382019043
 31
0.0
  0
LINE
  5
   68C
  8
0
  6
CONTINUOUS
 62
     7
 10
-458.063384532929
 20
-21.2924938201904
 30
0.0
 11
-458.063384532929
 21
-17.5424930923406
 31
0.0
  0
LINE
  5
   68D
  8
0
  6
CONTINUOUS
 62
     2
 10
-439.175517328302
 20
-10.6924930923406
 30
0.0
 11
-439.575517328302
 21
-10.2924930923406
 31
0.0
  0
LINE
  5
   68E
  8
0
  6
CONTINUOUS
 62
     2
 10
-440.813379825664
 20
-10.6924930923406
 30
0.0
 11
-440.813379825664
 21
-9.54249309234065
 31
0.0
  0
LINE
  5
   68F
  8
0
  6
CONTINUOUS
 62
   210
 10
-471.813384056094
 20
-5.39247780086227
 30
0.0
 11
-472.563385009169
 21
-5.39247780086227
 31
0.0
  0
LINE
  5
   690
  8
0
  6
CONTINUOUS
 62
     3
 10
-461.063384532928
 20
-5.04249571631938
 30
0.0
 11
-464.063384056094
 21
-5.04249571631938
 31
0.0
  0
LINE
  5
   691
  8
0
  6
CONTINUOUS
 62
     7
 10
-463.563384056091
 20
68.2074923638278
 30
0.0
 11
-472.563384056091
 21
68.2074923638278
 31
0.0
  0
LINE
  5
   692
  8
0
  6
CONTINUOUS
 62
     7
 10
-465.563384056091
 20
66.7158951831318
 30
0.0
 11
-465.563384056091
 21
68.2074923638278
 31
0.0
  0
LINE
  5
   693
  8
0
  6
CONTINUOUS
 62
     3
 10
-449.139783614768
 20
66.7158951831318
 30
0.0
 11
-473.257295312176
 21
66.7158951831318
 31
0.0
  0
LINE
  5
   694
  8
0
  6
CONTINUOUS
 62
     7
 10
-462.063384532929
 20
77.7074923638278
 30
0.0
 11
-463.563384056091
 21
77.7074923638278
 31
0.0
  0
LINE
  5
   695
  8
0
  6
CONTINUOUS
 62
     7
 10
-462.063384532929
 20
75.2074985728544
 30
0.0
 11
-462.063384532929
 21
77.7074923638279
 31
0.0
  0
LINE
  5
   696
  8
0
  6
CONTINUOUS
 62
     7
 10
-463.563384056094
 20
66.7158951831318
 30
0.0
 11
-463.563384056094
 21
77.7074923638278
 31
0.0
  0
LINE
  5
   697
  8
0
  6
CONTINUOUS
 62
     7
 10
-461.063384532928
 20
77.7074923638279
 30
0.0
 11
-462.063384532929
 21
77.7074923638279
 31
0.0
  0
LINE
  5
   698
  8
0
  6
CONTINUOUS
 62
     7
 10
-461.063384532928
 20
67.2074923638279
 30
0.0
 11
-462.063384532929
 21
67.2074923638279
 31
0.0
  0
INSERT
  5
   699
  8
0
  6
CONTINUOUS
 62
     7
  2
*HATCH310
 10
-422.063415527344
 20
-18.6610298156738
 30
0.0
 41
0.5
 42
0.5
 50
89.9999999480344
 43
0.5
  0
LINE
  5
   69A
  8
0
  6
CONTINUOUS
 62
     7
 10
-461.063384532928
 20
71.1574985728544
 30
0.0
 11
-463.563384056094
 21
71.1574985728544
 31
0.0
  0
LINE
  5
   69B
  8
0
  6
CONTINUOUS
 62
     7
 10
-461.063384532928
 20
75.2574985728544
 30
0.0
 11
-463.563384056094
 21
75.2574985728544
 31
0.0
  0
INSERT
  5
   69C
  8
0
  6
CONTINUOUS
 62
     7
  2
*HATCH311
 10
-422.063415527344
 20
-18.6610298156738
 30
0.0
 41
0.5
 42
0.5
 50
89.9999999480344
 43
0.5
  0
INSERT
  5
   69D
  8
0
  6
CONTINUOUS
 62
     7
  2
*HATCH312
 10
-422.063415527344
 20
-18.6610298156738
 30
0.0
 41
0.5
 42
0.5
 50
89.9999999480344
 43
0.5
  0
INSERT
  5
   69E
  8
0
  6
CONTINUOUS
 62
     7
  2
*HATCH313
 10
-422.063415527344
 20
-18.6610298156738
 30
0.0
 41
0.5
 42
0.5
 50
89.9999999480344
 43
0.5
  0
LINE
  5
   69F
  8
0
  6
CONTINUOUS
 62
     3
 10
-449.139783614768
 20
66.7158951831319
 30
0.0
 11
-447.495639981252
 21
80.3074825535263
 31
0.0
  0
LINE
  5
   6A0
  8
0
  6
CONTINUOUS
 62
     7
 10
-471.813384056094
 20
79.9574923638278
 30
0.0
 11
-472.563384056091
 21
79.9574923638278
 31
0.0
  0
LINE
  5
   6A1
  8
0
  6
CONTINUOUS
 62
     7
 10
-461.063384532928
 20
75.2074985728544
 30
0.0
 11
-461.063384532928
 21
77.7074923638279
 31
0.0
  0
LINE
  5
   6A2
  8
0
  6
CONTINUOUS
 62
     2
 10
-462.563384056094
 20
79.9574978957395
 30
0.0
 11
-462.563384056094
 21
80.7074978957395
 31
0.0
  0
LINE
  5
   6A3
  8
0
  6
CONTINUOUS
 62
     2
 10
-463.063384056094
 20
81.2074978575987
 30
0.0
 11
-464.063384056094
 21
81.2074978575987
 31
0.0
  0
LINE
  5
   6A4
  8
0
  6
CONTINUOUS
 62
     2
 10
-471.063384056094
 20
68.2074976191801
 30
0.0
 11
-471.813384056094
 21
68.2074976191801
 31
0.0
  0
LINE
  5
   6A5
  8
0
  6
CONTINUOUS
 62
     2
 10
-464.063384056094
 20
81.2074978575987
 30
0.0
 11
-471.813384056094
 21
81.2074978575987
 31
0.0
  0
LINE
  5
   6A6
  8
0
  6
CONTINUOUS
 62
     2
 10
-471.813384056094
 20
68.2074978575987
 30
0.0
 11
-471.813384056094
 21
81.2074978575987
 31
0.0
  0
LINE
  5
   6A7
  8
0
  6
CONTINUOUS
 62
     2
 10
-464.063384056094
 20
79.957497895723
 30
0.0
 11
-464.063384056094
 21
81.207497895723
 31
0.0
  0
LINE
  5
   6A8
  8
0
  6
CONTINUOUS
 62
     2
 10
-464.063384056094
 20
78.3574979529661
 30
0.0
 11
-464.356277465823
 21
78.3574979529661
 31
0.0
  0
LINE
  5
   6A9
  8
0
  6
CONTINUOUS
 62
     2
 10
-464.063384056094
 20
77.4574983344358
 30
0.0
 11
-464.063384056094
 21
79.9574978575987
 31
0.0
  0
LINE
  5
   6AA
  8
0
  6
CONTINUOUS
 62
     2
 10
-464.556277275088
 20
78.5574978814405
 30
0.0
 11
-464.897426605227
 21
78.5574978814405
 31
0.0
  0
LINE
  5
   6AB
  8
0
  6
CONTINUOUS
 62
     2
 10
-464.356277118854
 20
78.3574977839069
 30
0.0
 11
-464.556276926562
 21
78.5574977096262
 31
0.0
  0
LINE
  5
   6AC
  8
0
  6
CONTINUOUS
 62
     2
 10
-471.063384035568
 20
68.2074977709842
 30
0.0
 11
-464.063384098013
 21
79.9574974914758
 31
0.0
  0
LINE
  5
   6AD
  8
0
  6
CONTINUOUS
 62
     2
 10
-463.813384056094
 20
68.9574985728544
 30
0.0
 11
-463.813384056094
 21
77.4574985728544
 31
0.0
  0
LINE
  5
   6AE
  8
0
  6
CONTINUOUS
 62
     2
 10
-462.563383713365
 20
80.707497838633
 30
0.0
 11
-463.063383696251
 21
81.2074977793719
 31
0.0
  0
LINE
  5
   6AF
  8
0
  6
CONTINUOUS
 62
   210
 10
-463.563384056094
 20
69.9574985728544
 30
0.0
 11
-463.563384056094
 21
76.4574985728544
 31
0.0
  0
LINE
  5
   6B0
  8
0
  6
CONTINUOUS
 62
     2
 10
-464.063384056094
 20
80.7074979172033
 30
0.0
 11
-471.813384056094
 21
80.7074979172033
 31
0.0
  0
LINE
  5
   6B1
  8
0
  6
CONTINUOUS
 62
     2
 10
-470.765511751177
 20
68.7074976191801
 30
0.0
 11
-471.813384056094
 21
68.7074976191801
 31
0.0
  0
LINE
  5
   6B2
  8
0
  6
CONTINUOUS
 62
     2
 10
-463.813383817675
 20
68.9574985728544
 30
0.0
 11
-470.616575002673
 21
68.9574985728544
 31
0.0
  0
LINE
  5
   6B3
  8
0
  6
CONTINUOUS
 62
     2
 10
-463.813384056094
 20
77.4574983344358
 30
0.0
 11
-465.552745819094
 21
77.4574983344358
 31
0.0
  0
LINE
  5
   6B4
  8
0
  6
CONTINUOUS
 62
   210
 10
-463.563384056094
 20
76.4574983344358
 30
0.0
 11
-463.813384056094
 21
76.4574983344358
 31
0.0
  0
LINE
  5
   6B5
  8
0
  6
CONTINUOUS
 62
   210
 10
-463.563384056094
 20
69.9574985728544
 30
0.0
 11
-463.813384056094
 21
69.9574985728544
 31
0.0
  0
LINE
  5
   6B6
  8
0
  6
CONTINUOUS
 62
     7
 10
-457.563384056091
 20
77.7074985728544
 30
0.0
 11
-458.063384056091
 21
77.7074985728544
 31
0.0
  0
LINE
  5
   6B7
  8
0
  6
CONTINUOUS
 62
     7
 10
-457.563384056091
 20
68.7074985728544
 30
0.0
 11
-457.563384056091
 21
77.7074985728544
 31
0.0
  0
LINE
  5
   6B8
  8
0
  6
CONTINUOUS
 62
     7
 10
-457.563384056091
 20
68.7074985728544
 30
0.0
 11
-458.063384056091
 21
68.7074985728544
 31
0.0
  0
LINE
  5
   6B9
  8
0
  6
CONTINUOUS
 62
     7
 10
-458.063384056091
 20
68.7074985728544
 30
0.0
 11
-458.063384056091
 21
77.7074985728544
 31
0.0
  0
LINE
  5
   6BA
  8
0
  6
CONTINUOUS
 62
     7
 10
-461.063384532928
 20
67.2074923638279
 30
0.0
 11
-461.063384532928
 21
71.2074985728544
 31
0.0
  0
LINE
  5
   6BB
  8
0
  6
CONTINUOUS
 62
     7
 10
-462.063384532929
 20
66.7158951831318
 30
0.0
 11
-462.063384532929
 21
71.2074985728544
 31
0.0
  0
LINE
  5
   6BC
  8
0
  6
CONTINUOUS
 62
     7
 10
-459.313384056091
 20
74.8241048228544
 30
0.0
 11
-463.563384056094
 21
74.8241048228544
 31
0.0
  0
LINE
  5
   6BD
  8
0
  6
CONTINUOUS
 62
     1
 10
-458.063384056091
 20
71.2074985728544
 30
0.0
 11
-463.563384056094
 21
71.2074985728544
 31
0.0
  0
LINE
  5
   6BE
  8
0
  6
CONTINUOUS
 62
     1
 10
-458.063384056091
 20
75.2074985728544
 30
0.0
 11
-463.563384056094
 21
75.2074985728544
 31
0.0
  0
LINE
  5
   6BF
  8
0
  6
CONTINUOUS
 62
     1
 10
-459.313384056091
 20
71.2074985728544
 30
0.0
 11
-459.313384056091
 21
75.2074985728544
 31
0.0
  0
LINE
  5
   6C0
  8
0
  6
DASHDOT
 62
     7
 10
-453.313384056091
 20
73.2074985728544
 30
0.0
 11
-465.063384056091
 21
73.2074985728544
 31
0.0
  0
LINE
  5
   6C1
  8
0
  6
CONTINUOUS
 62
   210
 10
-423.438392638564
 20
102.957482553526
 30
0.0
 11
-472.563385009169
 21
102.957482553526
 31
0.0
  0
LINE
  5
   6C2
  8
0
  6
CONTINUOUS
 62
   210
 10
-472.563385009169
 20
79.9574928283691
 30
0.0
 11
-472.563385009169
 21
102.957482553526
 31
0.0
  0
ARC
  5
   6C3
  8
0
  6
CONTINUOUS
 62
   210
 10
-423.438392638564
 20
102.332482553526
 30
0.0
 40
0.625
 50
359.999999948034
 51
449.999999948034
  0
LINE
  5
   6C4
  8
0
  6
CONTINUOUS
 62
   210
 10
-422.813392638564
 20
82.4574825535263
 30
0.0
 11
-422.813392638564
 21
102.332482553526
 31
0.0
  0
LINE
  5
   6C5
  8
0
  6
CONTINUOUS
 62
   210
 10
-422.813392638564
 20
68.4574825535262
 30
0.0
 11
-422.813392638564
 21
82.4574825535263
 31
0.0
  0
LINE
  5
   6C6
  8
0
  6
CONTINUOUS
 62
   210
 10
-422.813392638564
 20
68.4574825535262
 30
0.0
 11
-423.313392638564
 21
68.4574825535262
 31
0.0
  0
LINE
  5
   6C7
  8
0
  6
CONTINUOUS
 62
   210
 10
-423.313392638564
 20
67.9574825535262
 30
0.0
 11
-423.313392638564
 21
68.4574825535262
 31
0.0
  0
LINE
  5
   6C8
  8
0
  6
CONTINUOUS
 62
   210
 10
-424.063385009169
 20
67.9574825535262
 30
0.0
 11
-424.063385009169
 21
81.3074825535262
 31
0.0
  0
LINE
  5
   6C9
  8
0
  6
CONTINUOUS
 62
   210
 10
-424.063385009169
 20
76.9574825535263
 30
0.0
 11
-424.063385009169
 21
79.7421226913148
 31
0.0
  0
LINE
  5
   6CA
  8
0
  6
CONTINUOUS
 62
   210
 10
-424.063385009169
 20
91.8074825535262
 30
0.0
 11
-435.313392638564
 21
91.8074825535262
 31
0.0
  0
LINE
  5
   6CB
  8
0
  6
CONTINUOUS
 62
   210
 10
-424.063385009169
 20
82.3074825535262
 30
0.0
 11
-435.313392638564
 21
82.3074825535262
 31
0.0
  0
LINE
  5
   6CC
  8
0
  6
CONTINUOUS
 62
   210
 10
-424.063385009169
 20
92.8074825535263
 30
0.0
 11
-434.063392638564
 21
92.8074825535263
 31
0.0
  0
LINE
  5
   6CD
  8
0
  6
CONTINUOUS
 62
   210
 10
-424.063385009169
 20
81.3074825535262
 30
0.0
 11
-434.063392638564
 21
81.3074825535262
 31
0.0
  0
LINE
  5
   6CE
  8
0
  6
CONTINUOUS
 62
   210
 10
-434.063392638564
 20
80.3074825535263
 30
0.0
 11
-434.063392638564
 21
81.3074825535262
 31
0.0
  0
LINE
  5
   6CF
  8
0
  6
CONTINUOUS
 62
   210
 10
-434.063392638564
 20
92.8074825535263
 30
0.0
 11
-434.063392638564
 21
102.957482553526
 31
0.0
  0
LINE
  5
   6D0
  8
0
  6
CONTINUOUS
 62
   210
 10
-424.063385009169
 20
92.8074825535263
 30
0.0
 11
-424.063385009169
 21
102.957482553526
 31
0.0
  0
LINE
  5
   6D1
  8
0
  6
CONTINUOUS
 62
   210
 10
-424.063385009169
 20
82.3074825535262
 30
0.0
 11
-424.063385009169
 21
91.8074825535262
 31
0.0
  0
LINE
  5
   6D2
  8
0
  6
CONTINUOUS
 62
   210
 10
-435.313392638564
 20
101.957482553526
 30
0.0
 11
-472.563385009169
 21
101.957482553526
 31
0.0
  0
LINE
  5
   6D3
  8
0
  6
CONTINUOUS
 62
   210
 10
-435.313392638564
 20
100.957482553526
 30
0.0
 11
-472.563385009169
 21
100.957482553526
 31
0.0
  0
LINE
  5
   6D4
  8
0
  6
CONTINUOUS
 62
   210
 10
-435.313392638564
 20
99.9574825535263
 30
0.0
 11
-472.563385009169
 21
99.9574825535263
 31
0.0
  0
LINE
  5
   6D5
  8
0
  6
CONTINUOUS
 62
   210
 10
-434.063392638564
 20
80.3074825535263
 30
0.0
 11
-462.563384056094
 21
80.3074825535263
 31
0.0
  0
LINE
  5
   6D6
  8
0
  6
CONTINUOUS
 62
   210
 10
-435.313392638564
 20
81.3074825535262
 30
0.0
 11
-435.313392638564
 21
102.957482553526
 31
0.0
  0
LINE
  5
   6D7
  8
0
  6
CONTINUOUS
 62
   210
 10
-441.313392638564
 20
80.3074825535263
 30
0.0
 11
-441.313392638564
 21
81.3074825535262
 31
0.0
  0
INSERT
  5
   6D8
  8
0
  6
CONTINUOUS
 62
   210
  2
*HATCH314
 10
-422.063415527344
 20
-18.6610298156738
 30
0.0
 41
0.5
 42
0.5
 50
89.9999999480344
 43
0.5
  0
LINE
  5
   6D9
  8
0
  6
CONTINUOUS
 62
   210
 10
-423.313392638564
 20
67.9574825535262
 30
0.0
 11
-424.063385009169
 21
67.9574825535262
 31
0.0
  0
LINE
  5
   6DA
  8
0
  6
CONTINUOUS
 62
     7
 10
-472.563385009766
 20
59.810388089302
 30
0.0
 11
-472.563385009766
 21
79.0575042836806
 31
0.0
  0
LINE
  5
   6DB
  8
0
  6
CONTINUOUS
 62
     7
 10
-472.563385009766
 20
69.7075119130751
 30
0.0
 11
-473.563385009766
 21
69.7075119130751
 31
0.0
  0
LINE
  5
   6DC
  8
0
  6
CONTINUOUS
 62
     3
 10
-424.063385009169
 20
79.9574966542861
 30
0.0
 11
-453.563385486603
 21
79.9574966542861
 31
0.0
  0
LINE
  5
   6DD
  8
0
  6
CONTINUOUS
 62
     3
 10
-424.063385009169
 20
79.9575004689834
 30
0.0
 11
-464.063384056094
 21
79.9575004689834
 31
0.0
  0
LINE
  5
   6DE
  8
0
  6
CONTINUOUS
 62
     7
 10
-472.563385009766
 20
69.7733116262099
 30
0.0
 11
-472.563385009766
 21
79.9574928283691
 31
0.0
  0
LINE
  5
   6DF
  8
0
  6
CONTINUOUS
 62
   210
 10
-435.313392638564
 20
81.3074825535262
 30
0.0
 11
-472.563385009169
 21
81.3074825535262
 31
0.0
  0
LINE
  5
   6E0
  8
0
  6
DOT
 62
     7
 10
-458.063384056091
 20
66.9574985728544
 30
0.0
 11
-461.063384532928
 21
66.9574985728544
 31
0.0
  0
LINE
  5
   6E1
  8
0
  6
CONTINUOUS
 62
   210
 10
-471.813384056094
 20
80.3074825535263
 30
0.0
 11
-472.563385009169
 21
80.3074825535263
 31
0.0
  0
LINE
  5
   6E2
  8
0
  6
DOT
 62
     7
 10
-461.063384532928
 20
75.2074985728544
 30
0.0
 11
-461.063384532928
 21
87.9167444772017
 31
0.0
  0
LINE
  5
   6E3
  8
0
  6
DOT
 62
     7
 10
-458.063384532929
 20
75.2074985728543
 30
0.0
 11
-458.063384532929
 21
87.9167444772017
 31
0.0
  0
LINE
  5
   6E4
  8
0
  6
DOT
 62
     7
 10
-461.063384532928
 20
66.9574985728544
 30
0.0
 11
-461.063384532928
 21
71.2074985728544
 31
0.0
  0
LINE
  5
   6E5
  8
0
  6
DOT
 62
     7
 10
-458.063384532929
 20
66.9574985728544
 30
0.0
 11
-458.063384532929
 21
71.2074985728544
 31
0.0
  0
LINE
  5
   6E6
  8
0
  6
DOT
 62
     7
 10
-462.563384532929
 20
89.4167444772017
 30
0.0
 11
-482.172442521867
 21
89.4167444772017
 31
0.0
  0
LINE
  5
   6E7
  8
0
  6
DOT
 62
     7
 10
-462.563384532929
 20
92.4167444772017
 30
0.0
 11
-482.07443417282
 21
92.4167444772017
 31
0.0
  0
ARC
  5
   6E8
  8
0
  6
DOT
 62
     7
 10
-462.563384532929
 20
87.9167444772017
 30
0.0
 40
1.5
 50
359.999999948034
 51
449.999999948034
  0
ARC
  5
   6E9
  8
0
  6
DOT
 62
     7
 10
-462.563384532929
 20
87.9167444772017
 30
0.0
 40
4.5
 50
359.999999948034
 51
449.999999948034
  0
LINE
  5
   6EA
  8
0
  6
CONTINUOUS
 62
     7
 10
-482.236725300723
 20
87.4490719427752
 30
0.0
 11
-482.018916195703
 21
94.1161296109005
 31
0.0
  0
LINE
  5
   6EB
  8
0
  6
CONTINUOUS
 62
     7
 10
-459.313384056091
 20
71.5908935728544
 30
0.0
 11
-463.563384056094
 21
71.5908935728544
 31
0.0
  0
LINE
  5
   6EC
  8
0
  6
DASHDOT
 62
     7
 10
-469.480835720827
 20
116.707500468983
 30
0.0
 11
-483.220660120102
 21
116.707500468983
 31
0.0
  0
LINE
  5
   6ED
  8
0
  6
DASHDOT
 62
     7
 10
-469.480835720827
 20
-68.2924995310166
 30
0.0
 11
-483.220660120102
 21
-68.2924995310166
 31
0.0
  0
LINE
  5
   6EE
  8
0
  6
CONTINUOUS
 62
     7
 10
-473.563385009766
 20
102.957500468983
 30
0.0
 11
-478.563385009766
 21
102.957500468983
 31
0.0
  0
LINE
  5
   6EF
  8
0
  6
CONTINUOUS
 62
     7
 10
-473.563385009766
 20
76.9575004689834
 30
0.0
 11
-478.563385009766
 21
76.9575004689834
 31
0.0
  0
LINE
  5
   6F0
  8
0
  6
CONTINUOUS
 62
     7
 10
-473.563385009766
 20
118.457500468983
 30
0.0
 11
-478.563385009766
 21
118.457500468983
 31
0.0
  0
LINE
  5
   6F1
  8
0
  6
CONTINUOUS
 62
     7
 10
-473.563385009766
 20
114.957500468983
 30
0.0
 11
-478.563385009766
 21
114.957500468983
 31
0.0
  0
LINE
  5
   6F2
  8
0
  6
CONTINUOUS
 62
     7
 10
-472.563385009766
 20
59.810388089302
 30
0.0
 11
-480.833947658886
 21
59.9928435814683
 31
0.0
  0
INSERT
  5
   6F3
  8
0
  6
CONTINUOUS
 62
     7
  2
*HATCH315
 10
-422.063415527344
 20
-18.6610298156738
 30
0.0
 41
0.5
 42
0.5
 50
89.9999999480344
 43
0.5
  0
INSERT
  5
   6F4
  8
0
  6
CONTINUOUS
 62
     7
  2
*HATCH316
 10
-422.063415527344
 20
-18.6610298156738
 30
0.0
 41
0.5
 42
0.5
 50
89.9999999480344
 43
0.5
  0
INSERT
  5
   6F5
  8
0
  6
CONTINUOUS
 62
     7
  2
*HATCH317
 10
-422.063415527344
 20
-18.6610298156738
 30
0.0
 41
0.5
 42
0.5
 50
89.9999999480344
 43
0.5
  0
INSERT
  5
   6F6
  8
0
  6
CONTINUOUS
 62
     7
  2
*HATCH318
 10
-422.063415527344
 20
-18.6610298156738
 30
0.0
 41
0.5
 42
0.5
 50
89.9999999480344
 43
0.5
  0
LINE
  5
   6F7
  8
0
  6
CONTINUOUS
 62
     1
 10
-453.563384056091
 20
69.9574985728544
 30
0.0
 11
-453.563384056091
 21
76.4574985728544
 31
0.0
  0
LINE
  5
   6F8
  8
0
  6
CONTINUOUS
 62
     1
 10
-457.563384056091
 20
69.9574985728544
 30
0.0
 11
-457.563384056091
 21
76.4574985728544
 31
0.0
  0
LINE
  5
   6F9
  8
0
  6
CONTINUOUS
 62
     1
 10
-453.563384056091
 20
69.9574985728544
 30
0.0
 11
-457.563384056091
 21
69.9574985728544
 31
0.0
  0
LINE
  5
   6FA
  8
0
  6
CONTINUOUS
 62
     1
 10
-453.563384056091
 20
76.4574985728544
 30
0.0
 11
-457.563384056091
 21
76.4574985728544
 31
0.0
  0
LINE
  5
   6FB
  8
0
  6
DASHDOT
 62
     7
 10
-451.473640274887
 20
73.2074985728544
 30
0.0
 11
-467.422269963937
 21
73.2074985728544
 31
0.0
  0
LINE
  5
   6FC
  8
0
  6
CONTINUOUS
 62
     1
 10
-453.563384056091
 20
-1.54249382019044
 30
0.0
 11
-453.563384056091
 21
4.95750617980956
 31
0.0
  0
LINE
  5
   6FD
  8
0
  6
CONTINUOUS
 62
     1
 10
-457.563384056091
 20
-1.54249382019044
 30
0.0
 11
-457.563384056091
 21
4.95750617980956
 31
0.0
  0
LINE
  5
   6FE
  8
0
  6
CONTINUOUS
 62
     1
 10
-453.563384056091
 20
-1.54249382019043
 30
0.0
 11
-457.563384056091
 21
-1.54249382019043
 31
0.0
  0
LINE
  5
   6FF
  8
0
  6
CONTINUOUS
 62
     1
 10
-453.563384056091
 20
4.95750617980957
 30
0.0
 11
-457.563384056091
 21
4.95750617980957
 31
0.0
  0
LINE
  5
   700
  8
0
  6
DASHDOT
 62
     7
 10
-451.473640274887
 20
1.70750617980957
 30
0.0
 11
-467.422269963937
 21
1.70750617980957
 31
0.0
  0
LINE
  5
   701
  8
0
  6
CONTINUOUS
 62
     7
 10
-459.313384056091
 20
3.32250617980957
 30
0.0
 11
-463.563384056094
 21
3.32250617980957
 31
0.0
  0
LINE
  5
   702
  8
0
  6
CONTINUOUS
 62
     7
 10
-461.063384532928
 20
3.70750617980957
 30
0.0
 11
-461.063384532928
 21
7.70751238883612
 31
0.0
  0
LINE
  5
   703
  8
0
  6
CONTINUOUS
 62
     7
 10
-473.313385009766
 20
-70.7924995310166
 30
0.0
 11
-473.313385009766
 21
-65.7924995310166
 31
0.0
  0
LINE
  5
   704
  8
0
  6
CONTINUOUS
 62
     1
 10
-471.663385009766
 20
-67.9924995310166
 30
0.0
 11
-471.663385009766
 21
-66.1674995310166
 31
0.0
  0
LINE
  5
   705
  8
0
  6
CONTINUOUS
 62
     1
 10
-473.313385009766
 20
-70.4174995310166
 30
0.0
 11
-473.313385009766
 21
-66.1674995310166
 31
0.0
  0
LINE
  5
   706
  8
0
  6
CONTINUOUS
 62
     1
 10
-482.313385009766
 20
-69.5424995310167
 30
0.0
 11
-482.313385009766
 21
-67.0424995310167
 31
0.0
  0
LINE
  5
   707
  8
0
  6
CONTINUOUS
 62
     1
 10
-478.563385009766
 20
-69.5424995310166
 30
0.0
 11
-482.313385009766
 21
-69.5424995310166
 31
0.0
  0
LINE
  5
   708
  8
0
  6
CONTINUOUS
 62
     1
 10
-478.563385009766
 20
-67.0424995310166
 30
0.0
 11
-482.313385009766
 21
-67.0424995310166
 31
0.0
  0
LINE
  5
   709
  8
0
  6
CONTINUOUS
 62
     1
 10
-471.663385009766
 20
-70.4174995310166
 30
0.0
 11
-473.313385009766
 21
-70.4174995310166
 31
0.0
  0
LINE
  5
   70A
  8
0
  6
CONTINUOUS
 62
     1
 10
-471.663385009766
 20
-66.1674995310166
 30
0.0
 11
-473.313385009766
 21
-66.1674995310166
 31
0.0
  0
LINE
  5
   70B
  8
0
  6
CONTINUOUS
 62
     1
 10
-471.663385009766
 20
-68.5924995310166
 30
0.0
 11
-472.413385009766
 21
-68.5924995310166
 31
0.0
  0
LINE
  5
   70C
  8
0
  6
CONTINUOUS
 62
     1
 10
-471.663385009766
 20
-67.9924995310166
 30
0.0
 11
-472.413385009766
 21
-67.9924995310166
 31
0.0
  0
LINE
  5
   70D
  8
0
  6
CONTINUOUS
 62
     1
 10
-472.413385009766
 20
-68.5924995310166
 30
0.0
 11
-472.413385009766
 21
-67.9924995310166
 31
0.0
  0
LINE
  5
   70E
  8
0
  6
CONTINUOUS
 62
     1
 10
-471.663385009766
 20
-70.4174995310166
 30
0.0
 11
-471.663385009766
 21
-68.5924995310166
 31
0.0
  0
LINE
  5
   70F
  8
0
  6
CONTINUOUS
 62
     7
 10
-478.563385009766
 20
-69.2971275310166
 30
0.0
 11
-482.313385009766
 21
-69.2971275310166
 31
0.0
  0
LINE
  5
   710
  8
0
  6
CONTINUOUS
 62
     7
 10
-478.563385009766
 20
-67.2878715310166
 30
0.0
 11
-482.313385009766
 21
-67.2878715310166
 31
0.0
  0
LINE
  5
   711
  8
0
  6
DASHDOT
 62
     7
 10
-469.663385009766
 20
-68.2924995310166
 30
0.0
 11
-478.313384532929
 21
-68.2924995310166
 31
0.0
  0
LINE
  5
   712
  8
0
  6
CONTINUOUS
 62
     7
 10
-473.313385009766
 20
-65.7924995310166
 30
0.0
 11
-473.563385009766
 21
-65.7924995310166
 31
0.0
  0
LINE
  5
   713
  8
0
  6
CONTINUOUS
 62
     7
 10
-473.313385009766
 20
-70.7924995310166
 30
0.0
 11
-473.563385009766
 21
-70.7924995310166
 31
0.0
  0
INSERT
  5
   714
  8
0
  6
CONTINUOUS
 62
     7
  2
*HATCH319
 10
-422.063415527344
 20
-18.6610298156738
 30
0.0
 41
0.5
 42
0.5
 50
89.9999999480344
 43
0.5
  0
INSERT
  5
   715
  8
0
  6
CONTINUOUS
 62
     7
  2
*HATCH320
 10
-422.063415527344
 20
-18.6610298156738
 30
0.0
 41
0.5
 42
0.5
 50
89.9999999480344
 43
0.5
  0
LINE
  5
   716
  8
0
  6
CONTINUOUS
 62
     7
 10
-493.56050730772
 20
28.4971567463672
 30
0.0
 11
-493.56050730772
 21
28.4988151783954
 31
0.0
  0
LINE
  5
   717
  8
0
  6
CONTINUOUS
 62
     7
 10
-473.563385009766
 20
21.0824942588322
 30
0.0
 11
-473.563385009766
 21
124.207500468983
 31
0.0
  0
LINE
  5
   718
  8
0
  6
CONTINUOUS
 62
     7
 10
-473.563385009766
 20
18.0824942588322
 30
0.0
 11
-473.563385009766
 21
19.8324942588322
 31
0.0
  0
LINE
  5
   719
  8
0
  6
CONTINUOUS
 62
     7
 10
-472.563385009766
 20
18.0824942588322
 30
0.0
 11
-472.563385009766
 21
19.8324942588322
 31
0.0
  0
LINE
  5
   71A
  8
0
  6
CONTINUOUS
 62
     7
 10
-472.563385009766
 20
21.0824942588322
 30
0.0
 11
-472.563385009766
 21
79.9574928283691
 31
0.0
  0
LINE
  5
   71B
  8
0
  6
CONTINUOUS
 62
     7
 10
-470.313401699066
 20
21.0824942588322
 30
0.0
 11
-470.313401699066
 21
21.4574995391558
 31
0.0
  0
LINE
  5
   71C
  8
0
  6
CONTINUOUS
 62
     7
 10
-470.313401699066
 20
18.0824942588322
 30
0.0
 11
-470.313401699066
 21
19.8324942588322
 31
0.0
  0
LINE
  5
   71D
  8
0
  6
CONTINUOUS
 62
     7
 10
-472.063385009766
 20
21.0824942588322
 30
0.0
 11
-472.063385009766
 21
37.4574928395888
 31
0.0
  0
LINE
  5
   71E
  8
0
  6
CONTINUOUS
 62
     7
 10
-472.063385009766
 20
18.0824942588322
 30
0.0
 11
-472.063385009766
 21
19.8324942588322
 31
0.0
  0
LINE
  5
   71F
  8
0
  6
CONTINUOUS
 62
     7
 10
-458.063384532929
 20
-12.5424930923406
 30
0.0
 11
-458.063384532929
 21
6.70750617980957
 31
0.0
  0
INSERT
  5
   720
  8
0
  6
CONTINUOUS
 62
     7
  2
*HATCH321
 10
-422.063415527344
 20
-18.6610298156738
 30
0.0
 41
0.5
 42
0.5
 50
89.9999999480344
 43
0.5
  0
INSERT
  5
   721
  8
0
  6
CONTINUOUS
 62
     7
  2
*HATCH322
 10
-422.063415527344
 20
-18.6610298156738
 30
0.0
 41
0.5
 42
0.5
 50
89.9999999480344
 43
0.5
  0
INSERT
  5
   722
  8
0
  6
CONTINUOUS
 62
     7
  2
*HATCH323
 10
-422.063415527344
 20
-18.6610298156738
 30
0.0
 41
0.5
 42
0.5
 50
89.9999999480344
 43
0.5
  0
INSERT
  5
   723
  8
0
  6
CONTINUOUS
 62
     7
  2
*HATCH324
 10
-422.063415527344
 20
-18.6610298156738
 30
0.0
 41
0.5
 42
0.5
 50
89.9999999480344
 43
0.5
  0
INSERT
  5
   724
  8
0
  6
CONTINUOUS
 62
     7
  2
*HATCH325
 10
-422.063415527344
 20
-18.6610298156738
 30
0.0
 41
0.5
 42
0.5
 50
89.9999999480344
 43
0.5
  0
INSERT
  5
   725
  8
0
  6
CONTINUOUS
 62
     7
  2
*HATCH326
 10
-422.063415527344
 20
-18.6610298156738
 30
0.0
 41
0.5
 42
0.5
 50
89.9999999480344
 43
0.5
  0
INSERT
  5
   726
  8
0
  6
CONTINUOUS
 62
     7
  2
*HATCH327
 10
-422.063415527344
 20
-18.6610298156738
 30
0.0
 41
0.5
 42
0.5
 50
89.9999999480344
 43
0.5
  0
LINE
  5
   727
  8
0
  6
CONTINUOUS
 62
     7
 10
-424.063395686448
 20
77.657301138858
 30
0.0
 11
-424.063395686448
 21
78.6573011388582
 31
0.0
  0
LINE
  5
   728
  8
0
  6
CONTINUOUS
 62
     7
 10
-422.813395686448
 20
69.5327545670537
 30
0.0
 11
-422.813395686448
 21
73.3325000350397
 31
0.0
  0
LINE
  5
   729
  8
0
  6
CONTINUOUS
 62
     7
 10
-424.063395686448
 20
69.5327545670537
 30
0.0
 11
-424.063395686448
 21
75.7075000350397
 31
0.0
  0
CIRCLE
  5
   72A
  8
0
  6
CONTINUOUS
 62
     7
 10
-420.836490964038
 20
79.8322583042177
 30
0.0
 40
0.15
  0
LINE
  5
   72B
  8
0
  6
CONTINUOUS
 62
     7
 10
-420.713397212327
 20
79.2332721297662
 30
0.0
 11
-422.413394160569
 21
79.2332721297662
 31
0.0
  0
LINE
  5
   72C
  8
0
  6
CONTINUOUS
 62
     7
 10
-420.313395686448
 20
72.3325000350397
 30
0.0
 11
-420.313395686448
 21
81.0825000350397
 31
0.0
  0
LINE
  5
   72D
  8
0
  6
CONTINUOUS
 62
     7
 10
-421.063395686448
 20
72.3325000350397
 30
0.0
 11
-421.063395686448
 21
73.3325000350397
 31
0.0
  0
LINE
  5
   72E
  8
0
  6
CONTINUOUS
 62
     7
 10
-421.063395686448
 20
80.0825000350397
 30
0.0
 11
-421.063395686448
 21
81.0825000350397
 31
0.0
  0
LINE
  5
   72F
  8
0
  6
CONTINUOUS
 62
     7
 10
-420.713397212327
 20
79.2468143050592
 30
0.0
 11
-422.063395686448
 21
79.2468143050592
 31
0.0
  0
LINE
  5
   730
  8
0
  6
CONTINUOUS
 62
     7
 10
-422.063395686448
 20
79.2332721297662
 30
0.0
 11
-422.063395686448
 21
80.0825000350397
 31
0.0
  0
LINE
  5
   731
  8
0
  6
CONTINUOUS
 62
     7
 10
-420.713397212327
 20
81.0825000350397
 30
0.0
 11
-420.713397212327
 21
87.9575000350397
 31
0.0
  0
LINE
  5
   732
  8
0
  6
CONTINUOUS
 62
     7
 10
-422.413394160569
 20
79.2332721297662
 30
0.0
 11
-422.413394160569
 21
87.9575000350397
 31
0.0
  0
LINE
  5
   733
  8
0
  6
CONTINUOUS
 62
     7
 10
-422.813395686448
 20
79.3325000350397
 30
0.0
 11
-422.813395686448
 21
87.9575000350397
 31
0.0
  0
LINE
  5
   734
  8
0
  6
CONTINUOUS
 62
     7
 10
-420.313395686448
 20
81.0825000350397
 30
0.0
 11
-420.313395686448
 21
87.9575000350397
 31
0.0
  0
LINE
  5
   735
  8
0
  6
CONTINUOUS
 62
     7
 10
-422.813395686448
 20
73.3325000350397
 30
0.0
 11
-422.813395686448
 21
75.7075000350397
 31
0.0
  0
LINE
  5
   736
  8
0
  6
CONTINUOUS
 62
     7
 10
-422.813395686448
 20
77.7075000350395
 30
0.0
 11
-422.813395686448
 21
79.3325000350397
 31
0.0
  0
LINE
  5
   737
  8
0
  6
CONTINUOUS
 62
     7
 10
-422.413398822898
 20
79.7690880573014
 30
0.0
 11
-422.063400353656
 21
79.868811868947
 31
0.0
  0
LINE
  5
   738
  8
0
  6
CONTINUOUS
 62
     7
 10
-421.063395686448
 20
73.3325000350397
 30
0.0
 11
-422.813395686448
 21
73.3325000350397
 31
0.0
  0
LINE
  5
   739
  8
0
  6
CONTINUOUS
 62
     7
 10
-420.313395686448
 20
72.3325000350397
 30
0.0
 11
-421.063395686448
 21
72.3325000350397
 31
0.0
  0
LINE
  5
   73A
  8
0
  6
CONTINUOUS
 62
     7
 10
-420.713397212327
 20
81.0825000350397
 30
0.0
 11
-421.063395686448
 21
81.0825000350397
 31
0.0
  0
LINE
  5
   73B
  8
0
  6
CONTINUOUS
 62
     7
 10
-421.063395686448
 20
80.0825000350397
 30
0.0
 11
-422.063395686448
 21
80.0825000350397
 31
0.0
  0
ARC
  5
   73C
  8
0
  6
CONTINUOUS
 62
     7
 10
-421.563348929538
 20
87.9574196564158
 30
0.0
 40
0.850048408064852
 50
359.999999948034
 51
539.999999948034
  0
ARC
  5
   73D
  8
0
  6
CONTINUOUS
 62
     7
 10
-421.563349156013
 20
87.9572931552112
 30
0.0
 40
1.25016168956823
 50
359.999999948034
 51
539.999999948034
  0
LINE
  5
   73E
  8
0
  6
DASHDOT
 62
     2
 10
-418.515882412347
 20
76.7075000350397
 30
0.0
 11
-429.47820203503
 21
76.7075000350397
 31
0.0
  0
LINE
  5
   73F
  8
0
  6
CONTINUOUS
 62
   210
 10
-424.063395686448
 20
-3.74229836671254
 30
0.0
 11
-424.063395686448
 21
-2.74229836671237
 31
0.0
  0
LINE
  5
   740
  8
0
  6
CONTINUOUS
 62
     7
 10
-422.813395686448
 20
1.58250273710601
 30
0.0
 11
-422.813395686448
 21
5.38224820509194
 31
0.0
  0
LINE
  5
   741
  8
0
  6
CONTINUOUS
 62
     7
 10
-424.063395686448
 20
-0.79249726289402
 30
0.0
 11
-424.063395686448
 21
5.38224820509194
 31
0.0
  0
CIRCLE
  5
   742
  8
0
  6
CONTINUOUS
 62
     7
 10
-420.836490964038
 20
-4.91725553207198
 30
0.0
 40
0.15
  0
LINE
  5
   743
  8
0
  6
CONTINUOUS
 62
     7
 10
-420.713397212327
 20
-4.31826935762055
 30
0.0
 11
-422.413394160569
 21
-4.31826935762055
 31
0.0
  0
LINE
  5
   744
  8
0
  6
CONTINUOUS
 62
     7
 10
-420.313395686448
 20
-6.16749726289399
 30
0.0
 11
-420.313395686448
 21
2.58250273710601
 31
0.0
  0
LINE
  5
   745
  8
0
  6
CONTINUOUS
 62
     7
 10
-421.063395686448
 20
1.58250273710601
 30
0.0
 11
-421.063395686448
 21
2.58250273710601
 31
0.0
  0
LINE
  5
   746
  8
0
  6
CONTINUOUS
 62
     7
 10
-421.063395686448
 20
-6.16749726289399
 30
0.0
 11
-421.063395686448
 21
-5.16749726289399
 31
0.0
  0
LINE
  5
   747
  8
0
  6
CONTINUOUS
 62
     7
 10
-420.713397212327
 20
-4.33181153291352
 30
0.0
 11
-422.063395686448
 21
-4.33181153291352
 31
0.0
  0
LINE
  5
   748
  8
0
  6
CONTINUOUS
 62
     7
 10
-422.063395686448
 20
-5.16749726289399
 30
0.0
 11
-422.063395686448
 21
-4.31826935762055
 31
0.0
  0
LINE
  5
   749
  8
0
  6
CONTINUOUS
 62
     7
 10
-420.713397212327
 20
-13.042497262894
 30
0.0
 11
-420.713397212327
 21
-6.16749726289399
 31
0.0
  0
LINE
  5
   74A
  8
0
  6
CONTINUOUS
 62
     7
 10
-422.413394160569
 20
-13.042497262894
 30
0.0
 11
-422.413394160569
 21
-4.31826935762055
 31
0.0
  0
LINE
  5
   74B
  8
0
  6
CONTINUOUS
 62
     7
 10
-422.813395686448
 20
-13.042497262894
 30
0.0
 11
-422.813395686448
 21
-4.41749726289399
 31
0.0
  0
LINE
  5
   74C
  8
0
  6
CONTINUOUS
 62
     7
 10
-420.313395686448
 20
-13.042497262894
 30
0.0
 11
-420.313395686448
 21
-6.16749726289399
 31
0.0
  0
LINE
  5
   74D
  8
0
  6
CONTINUOUS
 62
     7
 10
-422.813395686448
 20
-4.41749726289399
 30
0.0
 11
-422.813395686448
 21
-2.79249726289385
 31
0.0
  0
LINE
  5
   74E
  8
0
  6
CONTINUOUS
 62
     7
 10
-422.063400353656
 20
-4.95380909680135
 30
0.0
 11
-422.413398822898
 21
-4.85408528515572
 31
0.0
  0
LINE
  5
   74F
  8
0
  6
CONTINUOUS
 62
     7
 10
-421.063395686448
 20
1.58250273710601
 30
0.0
 11
-422.813395686448
 21
1.58250273710601
 31
0.0
  0
LINE
  5
   750
  8
0
  6
CONTINUOUS
 62
     7
 10
-420.313395686448
 20
2.58250273710601
 30
0.0
 11
-421.063395686448
 21
2.58250273710601
 31
0.0
  0
LINE
  5
   751
  8
0
  6
CONTINUOUS
 62
     7
 10
-420.713397212327
 20
-6.16749726289399
 30
0.0
 11
-421.063395686448
 21
-6.16749726289399
 31
0.0
  0
LINE
  5
   752
  8
0
  6
CONTINUOUS
 62
     7
 10
-421.063395686448
 20
-5.16749726289399
 30
0.0
 11
-422.063395686448
 21
-5.16749726289399
 31
0.0
  0
ARC
  5
   753
  8
0
  6
CONTINUOUS
 62
     7
 10
-421.563348929538
 20
-13.0424168842702
 30
0.0
 40
0.850048408064852
 50
179.999999948034
 51
359.999999948034
  0
ARC
  5
   754
  8
0
  6
CONTINUOUS
 62
     7
 10
-421.563349156013
 20
-13.0422903830656
 30
0.0
 40
1.25016168956823
 50
179.999999948034
 51
359.999999948034
  0
TEXT
  5
   755
  8
0
  6
CONTINUOUS
 62
     2
 10
-459.891510010893
 20
-89.0670166218568
 30
0.0
 40
2.50000005960464
  1
97-11-27
 50
359.999999948034
 41
1.09999991695086
 11
-459.891510009766
 21
-87.8170165920544
 31
0.0
 73
     2
  0
TEXT
  5
   756
  8
0
  6
CONTINUOUS
 62
     2
 10
-459.891510010893
 20
-93.0670166206361
 30
0.0
 40
2.50000005960464
  1
MAZZOLENI
 50
359.999999948034
 41
1.09799996061325
 11
-459.891510009766
 21
-91.8170165908338
 31
0.0
 73
     2
  0
TEXT
  5
   757
  8
0
  6
CONTINUOUS
 62
     2
 10
-448.424774171049
 20
-105.752417584081
 30
0.0
 40
2.50000005960464
  1
M4375 97-09-15
 50
359.999999948034
 41
0.64999958527089
 11
-448.424774169922
 21
-104.502417554279
 31
0.0
 73
     2
  0
TEXT
  5
   758
  8
0
  6
CONTINUOUS
 62
     2
 10
-358.419779971781
 20
-117.335854478953
 30
0.0
 40
4.49999994039536
  1
605032/431
 50
359.999999948034
 41
1.09999994414824
 72
     1
 11
-334.494781494141
 21
-115.085854530334
 31
0.0
 73
     2
  0
TEXT
  5
   759
  8
0
  6
CONTINUOUS
 62
     2
 10
-343.536447894211
 20
-107.869104410631
 30
0.0
 40
2.50000005960464
  1
S3/U
 50
359.999999948034
 41
1.09999991695086
 72
     1
 11
-338.494781494141
 21
-106.619104385376
 31
0.0
 73
     2
  0
TEXT
  5
   75A
  8
0
  6
CONTINUOUS
 62
     2
 10
-361.571862705125
 20
-92.4986061087932
 30
0.0
 40
3.00000002980232
  1
S3/U IN ESECUZIONE
 50
359.999999948034
 41
0.933333333333333
 72
     1
 11
-336.671862456413
 21
-90.9986061163504
 31
0.0
 73
     2
  0
TEXT
  5
   75B
  8
0
  6
CONTINUOUS
 62
     2
 10
-361.571862705125
 20
-96.4986061087932
 30
0.0
 40
3.00000002980232
  1
UNIFICATA PER ENEL
 50
359.999999948034
 41
0.933333333333333
 72
     1
 11
-336.671862456413
 21
-94.9986061163504
 31
0.0
 73
     2
  0
TEXT
  5
   75C
  8
0
  6
CONTINUOUS
 62
     2
 10
-360.171862691217
 20
-100.498606110056
 30
0.0
 40
3.00000002980232
  1
SPECIFICA DY 3101
 50
359.999999948034
 41
0.933333333333333
 72
     1
 11
-336.671862456413
 21
-98.9986061163504
 31
0.0
 73
     2
  0
TEXT
  5
   75D
  8
0
  6
CONTINUOUS
 62
     2
 10
-459.891510010893
 20
-101.533716621874
 30
0.0
 40
2.50000005960464
  1
GIUPPONI
 50
359.999999948034
 41
1.09799996061325
 11
-459.891510009766
 21
-100.283716592072
 31
0.0
 73
     2
  0
TEXT
  5
   75E
  8
0
  6
CONTINUOUS
 62
     2
 10
-459.891510010893
 20
-97.5337166218568
 30
0.0
 40
2.50000005960464
  1
97-11-27
 50
359.999999948034
 41
1.09999991695086
 11
-459.891510009766
 21
-96.2837165920544
 31
0.0
 73
     2
  0
INSERT
  5
   75F
  8
0
  6
CONTINUOUS
 62
     7
  2
*UDIM1150
 10
0.0
 20
0.0
 30
0.0
  0
INSERT
  5
   760
  8
0
  6
CONTINUOUS
 62
     7
  2
*UDIM1151
 10
0.0
 20
0.0
 30
0.0
  0
INSERT
  5
   761
  8
0
  6
CONTINUOUS
 62
     7
  2
*UDIM1152
 10
0.0
 20
0.0
 30
0.0
  0
INSERT
  5
   762
  8
0
  6
CONTINUOUS
 62
     7
  2
*UDIM1153
 10
0.0
 20
0.0
 30
0.0
  0
INSERT
  5
   763
  8
0
  6
CONTINUOUS
 62
     7
  2
*UDIM1154
 10
0.0
 20
0.0
 30
0.0
  0
INSERT
  5
   764
  8
0
  6
CONTINUOUS
 62
     7
  2
*UDIM1155
 10
0.0
 20
0.0
 30
0.0
  0
LINE
  5
   765
  8
0
  6
CONTINUOUS
 62
   210
 10
-455.863369765879
 20
-25.0424778008623
 30
0.0
 11
-472.563385009169
 21
-25.0424778008623
 31
0.0
  0
LINE
  5
   766
  8
0
  6
CONTINUOUS
 62
   210
 10
-455.863369765879
 20
-26.0424778008623
 30
0.0
 11
-472.563385009169
 21
-26.0424778008623
 31
0.0
  0
LINE
  5
   767
  8
0
  6
CONTINUOUS
 62
   210
 10
-455.863369765879
 20
-27.0424778008623
 30
0.0
 11
-472.563385009169
 21
-27.0424778008623
 31
0.0
  0
LINE
  5
   768
  8
0
  6
CONTINUOUS
 62
     7
 10
-455.863369765879
 20
-28.0424778008623
 30
0.0
 11
-472.563385009169
 21
-28.0424778008623
 31
0.0
  0
LINE
  5
   769
  8
0
  6
CONTINUOUS
 62
     2
 10
-454.963369765879
 20
-20.5424930923407
 30
0.0
 11
-458.063379825664
 21
-20.5424930923407
 31
0.0
  0
INSERT
  5
   76A
  8
0
  6
CONTINUOUS
 62
     7
  2
*UDIM1156
 10
0.0
 20
0.0
 30
0.0
  0
INSERT
  5
   76B
  8
0
  6
CONTINUOUS
 62
     7
  2
*UDIM1157
 10
0.0
 20
0.0
 30
0.0
  0
ENDSEC
  0
EOF
