  0
SECTION
  2
HEADER
  9
$ACADVER
  1
AC1015
  9
$ACADMAINTVER
 70
    13
  9
$DWGCODEPAGE
  3
ANSI_1252
  9
$INSBASE
 10
0.0
 20
0.0
 30
0.0
  9
$EXTMIN
 10
0.5794608709704185
 20
0.5791515336964195
 30
0.0
  9
$EXTMAX
 10
392.5794608709704
 20
263.0791515336964
 30
0.0
  9
$LIMMIN
 10
0.0
 20
0.0
  9
$LIMMAX
 10
12.0
 20
9.0
  9
$ORTHOMODE
 70
     1
  9
$REGENMODE
 70
     1
  9
$FILLMODE
 70
     1
  9
$QTEXTMODE
 70
     0
  9
$MIRRTEXT
 70
     1
  9
$LTSCALE
 40
5.0
  9
$ATTMODE
 70
     1
  9
$TEXTSIZE
 40
2.0
  9
$TRACEWID
 40
0.05
  9
$TEXTSTYLE
  7
STANDARD
  9
$CLAYER
  8
0
  9
$CELTYPE
  6
DASHED
  9
$CECOLOR
 62
   256
  9
$CELTSCALE
 40
1.0
  9
$DISPSILH
 70
     0
  9
$DIMSCALE
 40
1.0
  9
$DIMASZ
 40
0.18
  9
$DIMEXO
 40
0.0625
  9
$DIMDLI
 40
0.38
  9
$DIMRND
 40
0.0
  9
$DIMDLE
 40
0.0
  9
$DIMEXE
 40
0.18
  9
$DIMTP
 40
0.0
  9
$DIMTM
 40
0.0
  9
$DIMTXT
 40
0.18
  9
$DIMCEN
 40
0.09
  9
$DIMTSZ
 40
0.0
  9
$DIMTOL
 70
     0
  9
$DIMLIM
 70
     0
  9
$DIMTIH
 70
     1
  9
$DIMTOH
 70
     1
  9
$DIMSE1
 70
     0
  9
$DIMSE2
 70
     0
  9
$DIMTAD
 70
     0
  9
$DIMZIN
 70
     0
  9
$DIMBLK
  1

  9
$DIMASO
 70
     1
  9
$DIMSHO
 70
     1
  9
$DIMPOST
  1

  9
$DIMAPOST
  1

  9
$DIMALT
 70
     0
  9
$DIMALTD
 70
     2
  9
$DIMALTF
 40
25.4
  9
$DIMLFAC
 40
1.0
  9
$DIMTOFL
 70
     0
  9
$DIMTVP
 40
0.0
  9
$DIMTIX
 70
     0
  9
$DIMSOXD
 70
     0
  9
$DIMSAH
 70
     0
  9
$DIMBLK1
  1

  9
$DIMBLK2
  1

  9
$DIMSTYLE
  2
Standard
  9
$DIMCLRD
 70
     0
  9
$DIMCLRE
 70
     0
  9
$DIMCLRT
 70
     0
  9
$DIMTFAC
 40
1.0
  9
$DIMGAP
 40
0.09
  9
$DIMJUST
 70
     0
  9
$DIMSD1
 70
     0
  9
$DIMSD2
 70
     0
  9
$DIMTOLJ
 70
     1
  9
$DIMTZIN
 70
     0
  9
$DIMALTZ
 70
     0
  9
$DIMALTTZ
 70
     0
  9
$DIMUPT
 70
     0
  9
$DIMDEC
 70
     4
  9
$DIMTDEC
 70
     4
  9
$DIMALTU
 70
     2
  9
$DIMALTTD
 70
     2
  9
$DIMTXSTY
  7
STANDARD
  9
$DIMAUNIT
 70
     0
  9
$DIMADEC
 70
     0
  9
$DIMALTRND
 40
0.0
  9
$DIMAZIN
 70
     0
  9
$DIMDSEP
 70
    46
  9
$DIMATFIT
 70
     3
  9
$DIMFRAC
 70
     0
  9
$DIMLDRBLK
  1

  9
$DIMLUNIT
 70
     2
  9
$DIMLWD
 70
    -2
  9
$DIMLWE
 70
    -2
  9
$DIMTMOVE
 70
     2
  9
$LUNITS
 70
     2
  9
$LUPREC
 70
     4
  9
$SKETCHINC
 40
0.1
  9
$FILLETRAD
 40
0.0
  9
$AUNITS
 70
     0
  9
$AUPREC
 70
     0
  9
$MENU
  1
acad
  9
$ELEVATION
 40
0.0
  9
$PELEVATION
 40
0.0
  9
$THICKNESS
 40
0.0
  9
$LIMCHECK
 70
     0
  9
$CHAMFERA
 40
0.0
  9
$CHAMFERB
 40
0.0
  9
$CHAMFERC
 40
0.0
  9
$CHAMFERD
 40
0.0
  9
$SKPOLY
 70
     0
  9
$TDCREATE
 40
2448758.486719907
  9
$TDUCREATE
 40
2448758.361719907
  9
$TDUPDATE
 40
2453202.396175648
  9
$TDUUPDATE
 40
2453202.271175648
  9
$TDINDWG
 40
0.0235701852
  9
$TDUSRTIMER
 40
0.0235701852
  9
$USRTIMER
 70
     1
  9
$ANGBASE
 50
0.0
  9
$ANGDIR
 70
     0
  9
$PDMODE
 70
     0
  9
$PDSIZE
 40
0.0
  9
$PLINEWID
 40
0.0
  9
$SPLFRAME
 70
     0
  9
$SPLINETYPE
 70
     6
  9
$SPLINESEGS
 70
     8
  9
$HANDSEED
  5
64C
  9
$SURFTAB1
 70
   250
  9
$SURFTAB2
 70
   250
  9
$SURFTYPE
 70
     6
  9
$SURFU
 70
     6
  9
$SURFV
 70
     6
  9
$UCSBASE
  2

  9
$UCSNAME
  2

  9
$UCSORG
 10
0.0
 20
0.0
 30
0.0
  9
$UCSXDIR
 10
1.0
 20
0.0
 30
0.0
  9
$UCSYDIR
 10
0.0
 20
1.0
 30
0.0
  9
$UCSORTHOREF
  2

  9
$UCSORTHOVIEW
 70
     0
  9
$UCSORGTOP
 10
0.0
 20
0.0
 30
0.0
  9
$UCSORGBOTTOM
 10
0.0
 20
0.0
 30
0.0
  9
$UCSORGLEFT
 10
0.0
 20
0.0
 30
0.0
  9
$UCSORGRIGHT
 10
0.0
 20
0.0
 30
0.0
  9
$UCSORGFRONT
 10
0.0
 20
0.0
 30
0.0
  9
$UCSORGBACK
 10
0.0
 20
0.0
 30
0.0
  9
$PUCSBASE
  2

  9
$PUCSNAME
  2

  9
$PUCSORG
 10
0.0
 20
0.0
 30
0.0
  9
$PUCSXDIR
 10
1.0
 20
0.0
 30
0.0
  9
$PUCSYDIR
 10
0.0
 20
1.0
 30
0.0
  9
$PUCSORTHOREF
  2

  9
$PUCSORTHOVIEW
 70
     0
  9
$PUCSORGTOP
 10
0.0
 20
0.0
 30
0.0
  9
$PUCSORGBOTTOM
 10
0.0
 20
0.0
 30
0.0
  9
$PUCSORGLEFT
 10
0.0
 20
0.0
 30
0.0
  9
$PUCSORGRIGHT
 10
0.0
 20
0.0
 30
0.0
  9
$PUCSORGFRONT
 10
0.0
 20
0.0
 30
0.0
  9
$PUCSORGBACK
 10
0.0
 20
0.0
 30
0.0
  9
$USERI1
 70
     0
  9
$USERI2
 70
     0
  9
$USERI3
 70
     0
  9
$USERI4
 70
     0
  9
$USERI5
 70
     0
  9
$USERR1
 40
0.0
  9
$USERR2
 40
0.0
  9
$USERR3
 40
0.0
  9
$USERR4
 40
0.0
  9
$USERR5
 40
0.0
  9
$WORLDVIEW
 70
     1
  9
$SHADEDGE
 70
     3
  9
$SHADEDIF
 70
    70
  9
$TILEMODE
 70
     1
  9
$MAXACTVP
 70
    16
  9
$PINSBASE
 10
0.0
 20
0.0
 30
0.0
  9
$PLIMCHECK
 70
     0
  9
$PEXTMIN
 10
1.000000000000000E+20
 20
1.000000000000000E+20
 30
1.000000000000000E+20
  9
$PEXTMAX
 10
-1.000000000000000E+20
 20
-1.000000000000000E+20
 30
-1.000000000000000E+20
  9
$PLIMMIN
 10
0.0
 20
0.0
  9
$PLIMMAX
 10
12.0
 20
9.0
  9
$UNITMODE
 70
     0
  9
$VISRETAIN
 70
     0
  9
$PLINEGEN
 70
     0
  9
$PSLTSCALE
 70
     0
  9
$TREEDEPTH
 70
  3020
  9
$CMLSTYLE
  2
Standard
  9
$CMLJUST
 70
     0
  9
$CMLSCALE
 40
1.0
  9
$PROXYGRAPHICS
 70
     1
  9
$MEASUREMENT
 70
     0
  9
$CELWEIGHT
370
    -1
  9
$ENDCAPS
280
     0
  9
$JOINSTYLE
280
     0
  9
$LWDISPLAY
290
     0
  9
$INSUNITS
 70
     0
  9
$HYPERLINKBASE
  1

  9
$STYLESHEET
  1

  9
$XEDIT
290
     1
  9
$CEPSNTYPE
380
     0
  9
$PSTYLEMODE
290
     1
  9
$FINGERPRINTGUID
  2
{43E0449E-7BB4-4461-A5FF-DE8230DB2B83}
  9
$VERSIONGUID
  2
{F318A406-5A13-4C7C-B71D-F012C907E653}
  9
$EXTNAMES
290
     1
  9
$PSVPSCALE
 40
0.0
  9
$OLESTARTUP
290
     0
  0
ENDSEC
  0
SECTION
  2
CLASSES
  0
CLASS
  1
ACDBDICTIONARYWDFLT
  2
AcDbDictionaryWithDefault
  3
AutoCAD 2000
 90
        0
280
     0
281
     0
  0
CLASS
  1
ACDBPLACEHOLDER
  2
AcDbPlaceHolder
  3
AutoCAD 2000
 90
        0
280
     0
281
     0
  0
CLASS
  1
LAYOUT
  2
AcDbLayout
  3
AutoCAD 2000
 90
        0
280
     0
281
     0
  0
CLASS
  1
DICTIONARYVAR
  2
AcDbDictionaryVar
  3
AutoCAD 2000
 90
        0
280
     0
281
     0
  0
ENDSEC
  0
SECTION
  2
TABLES
  0
TABLE
  2
VPORT
  5
8
330
0
100
AcDbSymbolTable
 70
     3
  0
VPORT
  5
64B
330
8
100
AcDbSymbolTableRecord
100
AcDbViewportTableRecord
  2
*Active
 70
     0
 10
0.0
 20
0.0
 11
1.0
 21
1.0
 12
238.2276728588727
 22
142.1644644515294
 13
0.0
 23
0.0
 14
2.5
 24
2.5
 15
0.0
 25
0.0
 16
0.0
 26
0.0
 36
1.0
 17
0.0
 27
0.0
 37
0.0
 40
284.3289289030588
 41
1.675718849840255
 42
50.0
 43
0.0
 44
0.0
 50
0.0
 51
0.0
 71
     0
 72
   100
 73
     1
 74
     1
 75
     1
 76
     0
 77
     0
 78
     0
281
     0
 65
     1
110
0.0
120
0.0
130
0.0
111
1.0
121
0.0
131
0.0
112
0.0
122
1.0
132
0.0
 79
     0
146
0.0
  0
ENDTAB
  0
TABLE
  2
LTYPE
  5
5
330
0
100
AcDbSymbolTable
 70
     4
  0
LTYPE
  5
13
330
5
100
AcDbSymbolTableRecord
100
AcDbLinetypeTableRecord
  2
ByBlock
 70
     0
  3

 72
    65
 73
     0
 40
0.0
  0
LTYPE
  5
14
330
5
100
AcDbSymbolTableRecord
100
AcDbLinetypeTableRecord
  2
ByLayer
 70
     0
  3

 72
    65
 73
     0
 40
0.0
  0
LTYPE
  5
15
330
5
100
AcDbSymbolTableRecord
100
AcDbLinetypeTableRecord
  2
CONTINUOUS
 70
     0
  3
Solid line
 72
    65
 73
     0
 40
0.0
  0
LTYPE
  5
3E
330
5
100
AcDbSymbolTableRecord
100
AcDbLinetypeTableRecord
  2
DASHED
 70
     0
  3
__ __ __ __ __ __ __ __ __ __ __ __ __ __ __ __
 72
    65
 73
     2
 40
0.75
 49
0.5
 74
     0
 49
-0.25
 74
     0
  0
LTYPE
  5
3F
330
5
100
AcDbSymbolTableRecord
100
AcDbLinetypeTableRecord
  2
CENTER
 70
     0
  3
____ _ ____ _ ____ _ ____ _ ____ _ ____ _ ____ 
 72
    65
 73
     4
 40
2.0
 49
1.25
 74
     0
 49
-0.25
 74
     0
 49
0.25
 74
     0
 49
-0.25
 74
     0
  0
LTYPE
  5
40
330
5
100
AcDbSymbolTableRecord
100
AcDbLinetypeTableRecord
  2
HIDDEN
 70
     0
  3
__ __ __ __ __ __ __ __ __ __ __ __ __ __ __ __
 72
    65
 73
     2
 40
0.375
 49
0.25
 74
     0
 49
-0.125
 74
     0
  0
ENDTAB
  0
TABLE
  2
LAYER
  5
2
330
0
100
AcDbSymbolTable
 70
    13
  0
LAYER
  5
10
330
2
100
AcDbSymbolTableRecord
100
AcDbLayerTableRecord
  2
0
 70
     0
 62
     7
  6
CONTINUOUS
370
    -3
390
F
  0
LAYER
  5
44
330
2
100
AcDbSymbolTableRecord
100
AcDbLayerTableRecord
  2
RAAMI
 70
     0
 62
     4
  6
CONTINUOUS
370
    -3
390
F
  0
LAYER
  5
45
330
2
100
AcDbSymbolTableRecord
100
AcDbLayerTableRecord
  2
PAKSU
 70
     0
 62
     3
  6
CONTINUOUS
370
    -3
390
F
  0
LAYER
  5
46
330
2
100
AcDbSymbolTableRecord
100
AcDbLayerTableRecord
  2
OHUT
 70
     0
 62
     6
  6
CONTINUOUS
370
    -3
390
F
  0
LAYER
  5
47
330
2
100
AcDbSymbolTableRecord
100
AcDbLayerTableRecord
  2
SWEDEN
 70
     0
 62
     7
  6
CONTINUOUS
370
    -3
390
F
  0
LAYER
  5
48
330
2
100
AcDbSymbolTableRecord
100
AcDbLayerTableRecord
  2
SWEDEN2
 70
     0
 62
     5
  6
CONTINUOUS
370
    -3
390
F
  0
LAYER
  5
49
330
2
100
AcDbSymbolTableRecord
100
AcDbLayerTableRecord
  2
BASE
 70
     0
 62
     7
  6
CONTINUOUS
370
    -3
390
F
  0
LAYER
  5
4A
330
2
100
AcDbSymbolTableRecord
100
AcDbLayerTableRecord
  2
21
 70
     0
 62
     2
  6
CONTINUOUS
370
    -3
390
F
  0
LAYER
  5
4B
330
2
100
AcDbSymbolTableRecord
100
AcDbLayerTableRecord
  2
HEL035
 70
     0
 62
     7
  6
CONTINUOUS
370
    -3
390
F
  0
LAYER
  5
4C
330
2
100
AcDbSymbolTableRecord
100
AcDbLayerTableRecord
  2
MUO
 70
     0
 62
     7
  6
CONTINUOUS
370
    -3
390
F
  0
LAYER
  5
4D
330
2
100
AcDbSymbolTableRecord
100
AcDbLayerTableRecord
  2
1
 70
     0
 62
     2
  6
CONTINUOUS
370
    -3
390
F
  0
LAYER
  5
4E
330
2
100
AcDbSymbolTableRecord
100
AcDbLayerTableRecord
  2
BASE1
 70
     0
 62
     1
  6
CONTINUOUS
370
    -3
390
F
  0
LAYER
  5
4F
330
2
100
AcDbSymbolTableRecord
100
AcDbLayerTableRecord
  2
TEKS
 70
     0
 62
     5
  6
CONTINUOUS
370
    -3
390
F
  0
ENDTAB
  0
TABLE
  2
STYLE
  5
3
330
0
100
AcDbSymbolTable
 70
     3
  0
STYLE
  5
11
330
3
100
AcDbSymbolTableRecord
100
AcDbTextStyleTableRecord
  2
STANDARD
 70
     0
 40
0.0
 41
1.0
 50
0.0
 71
     0
 42
2.0
  3
txt
  4

  0
STYLE
  5
3C
330
3
100
AcDbSymbolTableRecord
100
AcDbTextStyleTableRecord
  2
ROMANS
 70
     0
 40
2.5
 41
1.0
 50
0.0
 71
     0
 42
2.5
  3
romans
  4

  0
STYLE
  5
3D
330
3
100
AcDbSymbolTableRecord
100
AcDbTextStyleTableRecord
  2
GREEKS
 70
     0
 40
0.0
 41
1.0
 50
0.0
 71
     0
 42
3.0
  3
TXT
  4

  0
ENDTAB
  0
TABLE
  2
VIEW
  5
6
330
0
100
AcDbSymbolTable
 70
     0
  0
ENDTAB
  0
TABLE
  2
UCS
  5
7
330
0
100
AcDbSymbolTable
 70
     0
  0
ENDTAB
  0
TABLE
  2
APPID
  5
9
330
0
100
AcDbSymbolTable
 70
     1
  0
APPID
  5
12
330
9
100
AcDbSymbolTableRecord
100
AcDbRegAppTableRecord
  2
ACAD
 70
     0
  0
ENDTAB
  0
TABLE
  2
DIMSTYLE
  5
A
330
0
100
AcDbSymbolTable
 70
     1
100
AcDbDimStyleTable
 71
     0
  0
DIMSTYLE
105
646
330
A
100
AcDbSymbolTableRecord
100
AcDbDimStyleTableRecord
  2
Standard
 70
     0
340
11
  0
ENDTAB
  0
TABLE
  2
BLOCK_RECORD
  5
1
330
0
100
AcDbSymbolTable
 70
    26
  0
BLOCK_RECORD
  5
1E
330
1
100
AcDbSymbolTableRecord
100
AcDbBlockTableRecord
  2
*Model_Space
340
21
  0
BLOCK_RECORD
  5
1A
330
1
100
AcDbSymbolTableRecord
100
AcDbBlockTableRecord
  2
*Paper_Space
340
1D
  0
BLOCK_RECORD
  5
22
330
1
100
AcDbSymbolTableRecord
100
AcDbBlockTableRecord
  2
1
340
0
102
{BLKREFS
331
386
331
387
331
388
102
}
  0
BLOCK_RECORD
  5
23
330
1
100
AcDbSymbolTableRecord
100
AcDbBlockTableRecord
  2
BLC27
340
0
102
{BLKREFS
331
51F
331
523
331
524
331
52B
331
52E
331
59E
331
59F
102
}
  0
BLOCK_RECORD
  5
24
330
1
100
AcDbSymbolTableRecord
100
AcDbBlockTableRecord
  2
BLC26
340
0
102
{BLKREFS
331
57
102
}
  0
BLOCK_RECORD
  5
25
330
1
100
AcDbSymbolTableRecord
100
AcDbBlockTableRecord
  2
BLC22
340
0
102
{BLKREFS
331
3FF
331
405
331
40B
102
}
  0
BLOCK_RECORD
  5
26
330
1
100
AcDbSymbolTableRecord
100
AcDbBlockTableRecord
  2
BLC29
340
0
102
{BLKREFS
331
3F5
331
424
331
425
331
4B6
331
4B7
331
4B8
331
4B9
331
4BA
331
4BB
331
58E
331
59C
102
}
  0
BLOCK_RECORD
  5
27
330
1
100
AcDbSymbolTableRecord
100
AcDbBlockTableRecord
  2
WKU130
340
0
102
{BLKREFS
331
7C
331
A3
102
}
  0
BLOCK_RECORD
  5
28
330
1
100
AcDbSymbolTableRecord
100
AcDbBlockTableRecord
  2
BLC38
340
0
102
{BLKREFS
331
38A
102
}
  0
BLOCK_RECORD
  5
29
330
1
100
AcDbSymbolTableRecord
100
AcDbBlockTableRecord
  2
BLC15
340
0
102
{BLKREFS
331
51E
331
53B
331
590
331
5A0
102
}
  0
BLOCK_RECORD
  5
2A
330
1
100
AcDbSymbolTableRecord
100
AcDbBlockTableRecord
  2
BLC55
340
0
102
{BLKREFS
331
396
102
}
  0
BLOCK_RECORD
  5
2B
330
1
100
AcDbSymbolTableRecord
100
AcDbBlockTableRecord
  2
BLC5
340
0
102
{BLKREFS
331
90
102
}
  0
BLOCK_RECORD
  5
2C
330
1
100
AcDbSymbolTableRecord
100
AcDbBlockTableRecord
  2
BLC43
340
0
102
{BLKREFS
331
39D
331
39E
331
3A1
331
3C1
102
}
  0
BLOCK_RECORD
  5
2D
330
1
100
AcDbSymbolTableRecord
100
AcDbBlockTableRecord
  2
BLC42
340
0
102
{BLKREFS
331
39F
331
3A0
102
}
  0
BLOCK_RECORD
  5
2E
330
1
100
AcDbSymbolTableRecord
100
AcDbBlockTableRecord
  2
BLC44
340
0
102
{BLKREFS
331
3A5
102
}
  0
BLOCK_RECORD
  5
2F
330
1
100
AcDbSymbolTableRecord
100
AcDbBlockTableRecord
  2
*X13
340
0
102
{BLKREFS
331
460
331
461
331
553
102
}
  0
BLOCK_RECORD
  5
30
330
1
100
AcDbSymbolTableRecord
100
AcDbBlockTableRecord
  2
ABBA3V
340
0
102
{BLKREFS
331
580
102
}
  0
BLOCK_RECORD
  5
31
330
1
100
AcDbSymbolTableRecord
100
AcDbBlockTableRecord
  2
*X15
340
0
102
{BLKREFS
331
1CE
102
}
  0
BLOCK_RECORD
  5
32
330
1
100
AcDbSymbolTableRecord
100
AcDbBlockTableRecord
  2
*X16
340
0
102
{BLKREFS
331
1CF
102
}
  0
BLOCK_RECORD
  5
33
330
1
100
AcDbSymbolTableRecord
100
AcDbBlockTableRecord
  2
*X17
340
0
102
{BLKREFS
331
1D0
102
}
  0
BLOCK_RECORD
  5
34
330
1
100
AcDbSymbolTableRecord
100
AcDbBlockTableRecord
  2
*X18
340
0
102
{BLKREFS
331
1D1
102
}
  0
BLOCK_RECORD
  5
35
330
1
100
AcDbSymbolTableRecord
100
AcDbBlockTableRecord
  2
*X19
340
0
102
{BLKREFS
331
1E3
331
1EA
102
}
  0
BLOCK_RECORD
  5
36
330
1
100
AcDbSymbolTableRecord
100
AcDbBlockTableRecord
  2
*X20
340
0
102
{BLKREFS
331
1E4
331
1E9
102
}
  0
BLOCK_RECORD
  5
37
330
1
100
AcDbSymbolTableRecord
100
AcDbBlockTableRecord
  2
*X21
340
0
102
{BLKREFS
331
1E5
331
1E8
102
}
  0
BLOCK_RECORD
  5
38
330
1
100
AcDbSymbolTableRecord
100
AcDbBlockTableRecord
  2
*X22
340
0
102
{BLKREFS
331
1E6
331
1E7
102
}
  0
BLOCK_RECORD
  5
39
330
1
100
AcDbSymbolTableRecord
100
AcDbBlockTableRecord
  2
P1
340
0
102
{BLKREFS
331
5D6
102
}
  0
BLOCK_RECORD
  5
3A
330
1
100
AcDbSymbolTableRecord
100
AcDbBlockTableRecord
  2
B155
340
0
102
{BLKREFS
331
5D7
331
5D8
331
5D9
331
63F
331
640
102
}
  0
BLOCK_RECORD
  5
3B
330
1
100
AcDbSymbolTableRecord
100
AcDbBlockTableRecord
  2
BK
340
0
102
{BLKREFS
331
645
102
}
  0
ENDTAB
  0
ENDSEC
  0
SECTION
  2
BLOCKS
  0
BLOCK
  5
52
330
1E
100
AcDbEntity
  8
0
100
AcDbBlockBegin
  2
*Model_Space
 70
     0
 10
0.0
 20
0.0
 30
0.0
  3
*Model_Space
  1

  0
ENDBLK
  5
53
330
1E
100
AcDbEntity
  8
0
100
AcDbBlockEnd
  0
BLOCK
  5
50
330
1A
100
AcDbEntity
 67
     1
  8
0
100
AcDbBlockBegin
  2
*Paper_Space
 70
     0
 10
0.0
 20
0.0
 30
0.0
  3
*Paper_Space
  1

  0
ENDBLK
  5
51
330
1A
100
AcDbEntity
 67
     1
  8
0
100
AcDbBlockEnd
  0
BLOCK
  5
54
330
22
100
AcDbEntity
  8
0
100
AcDbBlockBegin
  2
1
 70
     0
 10
0.0
 20
0.0
 30
0.0
  3
1
  1

  0
ENDBLK
  5
55
330
22
100
AcDbEntity
  8
0
100
AcDbBlockEnd
  0
BLOCK
  5
56
330
23
100
AcDbEntity
  8
0
  6
DASHED
100
AcDbBlockBegin
  2
BLC27
 70
     0
 10
0.0
 20
0.0
 30
0.0
  3
BLC27
  1

  0
INSERT
  5
57
330
23
100
AcDbEntity
  8
SWEDEN2
  6
CENTER
100
AcDbBlockReference
  2
BLC26
 10
0.0806298676206154
 20
0.0379850207146433
 30
0.0
 41
1.006224687463202
 42
1.006224687463202
 43
1.006224687463202
  0
ENDBLK
  5
58
330
23
100
AcDbEntity
  8
0
  6
DASHED
100
AcDbBlockEnd
  0
BLOCK
  5
59
330
24
100
AcDbEntity
  8
SWEDEN
  6
Continuous
100
AcDbBlockBegin
  2
BLC26
 70
     0
 10
0.0
 20
0.0
 30
0.0
  3
BLC26
  1

  0
ARC
  5
5A
330
24
100
AcDbEntity
  8
0
  6
Continuous
100
AcDbCircle
 10
-0.1805760986685527
 20
1.179220254965343
 30
0.0
 40
1.196858692389954
100
AcDbArc
 50
90.0
 51
265.7062371869478
  0
LINE
  5
5B
330
24
100
AcDbEntity
  8
0
  6
Continuous
100
AcDbLine
 10
-0.1866378806934961
 20
-0.0109199663277195
 30
0.0
 11
0.4589419049629271
 21
-0.0109199663277195
 31
0.0
  0
LINE
  5
5C
330
24
100
AcDbEntity
  8
0
  6
Continuous
100
AcDbLine
 10
-0.1866378806934961
 20
2.375670901630712
 30
0.0
 11
0.4528801229380406
 21
2.375670901630712
 31
0.0
  0
LINE
  5
5D
330
24
100
AcDbEntity
  8
0
  6
Continuous
100
AcDbLine
 10
-0.1855088671185854
 20
-2.40462935692193
 30
0.0
 11
0.4600709185378947
 21
-2.40462935692193
 31
0.0
  0
ARC
  5
5E
330
24
100
AcDbEntity
  8
0
  6
Continuous
100
AcDbCircle
 10
-0.1805760986685527
 20
-1.207778658717671
 30
0.0
 40
1.196858692389954
100
AcDbArc
 50
90.0
 51
270.0
  0
LINE
  5
5F
330
24
100
AcDbEntity
  8
0
  6
Continuous
100
AcDbLine
 10
0.4515250165858618
 20
-2.404586463428898
 30
0.0
 11
1.401804627155996
 21
-2.404586463428898
 31
0.0
  0
LINE
  5
60
330
24
100
AcDbEntity
  8
0
  6
Continuous
100
AcDbLine
 10
0.4467851751237788
 20
2.375673621606836
 30
0.0
 11
1.418543909567034
 21
2.375673621606836
 31
0.0
  0
LINE
  5
61
330
24
100
AcDbEntity
  8
0
  6
Continuous
100
AcDbLine
 10
0.4566268661492927
 20
-0.0109105363144124
 30
0.0
 11
1.422748890188501
 21
-0.0109105363144124
 31
0.0
  0
ENDBLK
  5
62
330
24
100
AcDbEntity
  8
SWEDEN
  6
Continuous
100
AcDbBlockEnd
  0
BLOCK
  5
63
330
25
100
AcDbEntity
  8
BASE
  6
CENTER
100
AcDbBlockBegin
  2
BLC22
 70
     0
 10
0.0
 20
0.0
 30
0.0
  3
BLC22
  1

  0
LINE
  5
64
330
25
100
AcDbEntity
  8
HEL035
100
AcDbLine
 10
0.0
 20
-0.0015500000000088
 30
0.0
 11
0.0
 21
9.998450000000048
 31
0.0
  0
LINE
  5
65
330
25
100
AcDbEntity
  8
21
100
AcDbLine
 10
2.5
 20
10.0
 30
0.0
 11
5.0
 21
10.0
 31
0.0
  0
LINE
  5
66
330
25
100
AcDbEntity
  8
HEL035
100
AcDbLine
 10
0.0
 20
9.998450000000048
 30
0.0
 11
2.5
 21
9.998450000000048
 31
0.0
  0
LINE
  5
67
330
25
100
AcDbEntity
  8
HEL035
100
AcDbLine
 10
-2.5
 20
5.0
 30
0.0
 11
2.5
 21
5.0
 31
0.0
  0
LINE
  5
68
330
25
100
AcDbEntity
  8
21
100
AcDbLine
 10
2.5
 20
5.0
 30
0.0
 11
5.0
 21
5.0
 31
0.0
  0
LINE
  5
69
330
25
100
AcDbEntity
  8
21
100
AcDbLine
 10
5.0
 20
5.0
 30
0.0
 11
5.0
 21
7.900000000000005
 31
0.0
  0
LINE
  5
6A
330
25
100
AcDbEntity
  8
HEL035
100
AcDbLine
 10
3.880950475618021
 20
6.944424757063899
 30
0.0
 11
4.560313229692326
 21
6.008681430563825
 31
0.0
  0
LINE
  5
6B
330
25
100
AcDbEntity
  8
21
100
AcDbLine
 10
10.0
 20
10.0
 30
0.0
 11
4.199999999999988
 21
6.5
 31
0.0
  0
LINE
  5
6C
330
25
100
AcDbEntity
  8
HEL035
100
AcDbLine
 10
2.5
 20
-0.0015500000000088
 30
0.0
 11
0.0
 21
-0.0015500000000088
 31
0.0
  0
LINE
  5
6D
330
25
100
AcDbEntity
  8
21
100
AcDbLine
 10
2.5
 20
0.0
 30
0.0
 11
5.0
 21
0.0
 31
0.0
  0
ENDBLK
  5
6E
330
25
100
AcDbEntity
  8
BASE
  6
CENTER
100
AcDbBlockEnd
  0
BLOCK
  5
6F
330
26
100
AcDbEntity
  8
BASE
  6
Continuous
100
AcDbBlockBegin
  2
BLC29
 70
     0
 10
0.0
 20
0.0
 30
0.0
  3
BLC29
  1

  0
LINE
  5
70
330
26
100
AcDbEntity
  8
0
  6
Continuous
100
AcDbLine
 10
0.0048653824876794
 20
1.206889041390212
 30
0.0
 11
2.350630894713304
 21
-0.1284646699785696
 31
0.0
  0
LINE
  5
71
330
26
100
AcDbEntity
  8
0
  6
Continuous
100
AcDbLine
 10
2.350630894713304
 20
-0.1284646699785696
 30
0.0
 11
0.0048653824876794
 21
-1.318383818722992
 31
0.0
  0
ENDBLK
  5
72
330
26
100
AcDbEntity
  8
BASE
  6
Continuous
100
AcDbBlockEnd
  0
BLOCK
  5
73
330
27
100
AcDbEntity
  8
1
100
AcDbBlockBegin
  2
WKU130
 70
     0
 10
190.0
 20
250.0
 30
0.0
  3
WKU130
  1

  0
ARC
  5
74
330
27
100
AcDbEntity
  8
21
100
AcDbCircle
 10
191.083333
 20
249.916667
 30
0.0
 40
1.086534
100
AcDbArc
 50
32.47119199999999
 51
175.6012949999999
  0
ARC
  5
75
330
27
100
AcDbEntity
  8
21
100
AcDbCircle
 10
192.9166669999999
 20
251.083333
 30
0.0
 40
1.086534
100
AcDbArc
 50
212.471192
 51
355.6012949999999
  0
ENDBLK
  5
76
330
27
100
AcDbEntity
  8
1
100
AcDbBlockEnd
  0
BLOCK
  5
77
330
28
100
AcDbEntity
  8
BASE
  6
Continuous
100
AcDbBlockBegin
  2
BLC38
 70
     0
 10
0.0
 20
0.0
 30
0.0
  3
BLC38
  1

  0
LINE
  5
78
330
28
100
AcDbEntity
  8
BASE
  6
Continuous
100
AcDbLine
 10
5.0
 20
0.429605127298494
 30
0.0
 11
5.0
 21
-2.5
 31
0.0
  0
LINE
  5
79
330
28
100
AcDbEntity
  8
BASE
  6
Continuous
100
AcDbLine
 10
0.0
 20
0.429605127298494
 30
0.0
 11
0.0
 21
-2.5
 31
0.0
  0
LINE
  5
7A
330
28
100
AcDbEntity
  8
BASE
  6
Continuous
100
AcDbLine
 10
5.0
 20
15.0
 30
0.0
 11
5.0
 21
9.752154143277181
 31
0.0
  0
LINE
  5
7B
330
28
100
AcDbEntity
  8
BASE
  6
Continuous
100
AcDbLine
 10
0.0
 20
15.0
 30
0.0
 11
0.0
 21
9.752154143277181
 31
0.0
  0
INSERT
  5
7C
330
28
100
AcDbEntity
  8
HEL035
100
AcDbBlockReference
  2
WKU130
 10
2.806260951165711
 20
1.002887839896715
 30
0.0
 41
0.8
 42
0.8
 43
0.8
  0
LINE
  5
7D
330
28
100
AcDbEntity
  8
HEL035
100
AcDbLine
 10
2.466311364416185
 20
2.728440222840305
 30
0.0
 11
6.466311364416185
 21
2.728440222840305
 31
0.0
  0
LINE
  5
7E
330
28
100
AcDbEntity
  8
HEL035
100
AcDbLine
 10
-1.290098743778457
 20
7.674463582400505
 30
0.0
 11
2.709901256221542
 21
7.674463582400505
 31
0.0
  0
LINE
  5
7F
330
28
100
AcDbEntity
  8
MUO
100
AcDbLine
 10
-2.20489741235184
 20
1.386207012985551
 30
0.0
 11
6.158612635673307
 21
9.752154143277181
 31
0.0
  0
LINE
  5
80
330
28
100
AcDbEntity
  8
MUO
100
AcDbLine
 10
-1.220604547485891
 20
0.4296051272984869
 30
0.0
 11
7.119756225216121
 21
8.767352227556443
 31
0.0
  0
LINE
  5
81
330
28
100
AcDbEntity
  8
MUO
100
AcDbLine
 10
-2.20489741235184
 20
0.4296051272984869
 30
0.0
 11
-2.20489741235184
 21
9.752154143277181
 31
0.0
  0
LINE
  5
82
330
28
100
AcDbEntity
  8
MUO
100
AcDbLine
 10
7.119756225216121
 20
0.4296051272984869
 30
0.0
 11
-2.20489741235184
 21
0.4296051272984869
 31
0.0
  0
LINE
  5
83
330
28
100
AcDbEntity
  8
MUO
100
AcDbLine
 10
7.119756225216121
 20
9.752154143277181
 30
0.0
 11
7.119756225216121
 21
0.4296051272984869
 31
0.0
  0
LINE
  5
84
330
28
100
AcDbEntity
  8
MUO
100
AcDbLine
 10
-2.20489741235184
 20
9.752154143277181
 30
0.0
 11
7.119756225216121
 21
9.752154143277181
 31
0.0
  0
TEXT
  5
85
330
28
100
AcDbEntity
  8
SWEDEN2
  6
Continuous
100
AcDbText
 10
-0.6332655346802483
 20
15.55314994185361
 30
0.0
 40
2.0
  1
+
100
AcDbText
  0
TEXT
  5
87
330
28
100
AcDbEntity
  8
SWEDEN2
  6
Continuous
100
AcDbText
 10
4.297086416316005
 20
15.57771885292426
 30
0.0
 40
2.0
  1
-
100
AcDbText
  0
ENDBLK
  5
88
330
28
100
AcDbEntity
  8
BASE
  6
Continuous
100
AcDbBlockEnd
  0
BLOCK
  5
89
330
29
100
AcDbEntity
  8
0
  6
DASHED
100
AcDbBlockBegin
  2
BLC15
 70
     0
 10
0.0
 20
0.0
 30
0.0
  3
BLC15
  1

  0
LINE
  5
8A
330
29
100
AcDbEntity
  8
0
  6
Continuous
100
AcDbLine
 10
0.1420843676212655
 20
3.490022375113255
 30
0.0
 11
0.1420843676212655
 21
0.8443648832166417
 31
0.0
  0
LINE
  5
8B
330
29
100
AcDbEntity
  8
0
  6
Continuous
100
AcDbLine
 10
-0.4616105474578376
 20
-0.9371884861638335
 30
0.0
 11
0.7457792827003687
 21
-0.9371884861638335
 31
0.0
  0
LINE
  5
8C
330
29
100
AcDbEntity
  8
0
  6
Continuous
100
AcDbLine
 10
-0.8941083970667307
 20
-0.0496747197325362
 30
0.0
 11
1.169266760442411
 21
-0.0496747197325362
 31
0.0
  0
LINE
  5
8D
330
29
100
AcDbEntity
  8
0
  6
Continuous
100
AcDbLine
 10
-1.389678849743603
 20
0.8443648832166417
 30
0.0
 11
1.673847584986134
 21
0.8443648832166417
 31
0.0
  0
ENDBLK
  5
8E
330
29
100
AcDbEntity
  8
0
  6
DASHED
100
AcDbBlockEnd
  0
BLOCK
  5
8F
330
2A
100
AcDbEntity
  8
0
  6
DASHED
100
AcDbBlockBegin
  2
BLC55
 70
     0
 10
0.0
 20
0.0
 30
0.0
  3
BLC55
  1

  0
INSERT
  5
90
330
2A
100
AcDbEntity
  8
SWEDEN
  6
CENTER
100
AcDbBlockReference
  2
BLC5
 10
0.0870658609543682
 20
-0.7568307888210839
 30
0.0
 41
0.6
 42
0.6
 43
0.6
  0
ENDBLK
  5
91
330
2A
100
AcDbEntity
  8
0
  6
DASHED
100
AcDbBlockEnd
  0
BLOCK
  5
92
330
2B
100
AcDbEntity
  8
SWEDEN
  6
CENTER
100
AcDbBlockBegin
  2
BLC5
 70
     0
 10
0.0
 20
0.0
 30
0.0
  3
BLC5
  1

  0
TEXT
  5
93
330
2B
100
AcDbEntity
  8
0
100
AcDbText
 10
-3.043703616622593
 20
-6.645911909806137
 30
0.0
 40
3.2
  1
PE
100
AcDbText
  0
LINE
  5
94
330
2B
100
AcDbEntity
  8
0
100
AcDbLine
 10
-2.946391600460657
 20
1.181176409735783
 30
0.0
 11
2.135458132443943
 21
1.181176409735783
 31
0.0
  0
LINE
  5
95
330
2B
100
AcDbEntity
  8
0
100
AcDbLine
 10
-0.4865600808100226
 20
2.238361925631892
 30
0.0
 11
-0.4865600808100226
 21
6.930438381985624
 31
0.0
  0
LINE
  5
96
330
2B
100
AcDbEntity
  8
0
100
AcDbLine
 10
-1.973271438840612
 20
0.0652583651787779
 30
0.0
 11
1.225410573891878
 21
0.0652583651787779
 31
0.0
  0
LINE
  5
97
330
2B
100
AcDbEntity
  8
0
100
AcDbLine
 10
2.685090816321945
 20
2.238361925631892
 30
0.0
 11
1.68493953910135
 21
2.238361925631892
 31
0.0
  0
LINE
  5
98
330
2B
100
AcDbEntity
  8
0
100
AcDbLine
 10
-3.505034656205481
 20
2.238361925631892
 30
0.0
 11
2.649049328854516
 21
2.238361925631892
 31
0.0
  0
CIRCLE
  5
99
330
2B
100
AcDbEntity
  8
0
100
AcDbCircle
 10
-0.4775497089431724
 20
1.422632360897239
 30
0.0
 40
3.80456268992242
  0
ENDBLK
  5
9A
330
2B
100
AcDbEntity
  8
SWEDEN
  6
CENTER
100
AcDbBlockEnd
  0
BLOCK
  5
9B
330
2C
100
AcDbEntity
  8
0
  6
DASHED
100
AcDbBlockBegin
  2
BLC43
 70
     0
 10
0.0
 20
0.0
 30
0.0
  3
BLC43
  1

  0
TEXT
  5
9C
330
2C
100
AcDbEntity
  8
SWEDEN2
  6
Continuous
100
AcDbText
 10
-0.6466721562502756
 20
-0.9863647580152061
 30
0.0
 40
2.0
  1
+
100
AcDbText
  0
ENDBLK
  5
9D
330
2C
100
AcDbEntity
  8
0
  6
DASHED
100
AcDbBlockEnd
  0
BLOCK
  5
9E
330
2D
100
AcDbEntity
  8
0
  6
DASHED
100
AcDbBlockBegin
  2
BLC42
 70
     0
 10
0.0
 20
0.0
 30
0.0
  3
BLC42
  1

  0
TEXT
  5
9F
330
2D
100
AcDbEntity
  8
SWEDEN2
  6
Continuous
100
AcDbText
 10
-0.6552371134230981
 20
-0.9944195846351995
 30
0.0
 40
2.0
  1
-
100
AcDbText
  0
ENDBLK
  5
A0
330
2D
100
AcDbEntity
  8
0
  6
DASHED
100
AcDbBlockEnd
  0
BLOCK
  5
A1
330
2E
100
AcDbEntity
  8
0
  6
Continuous
100
AcDbBlockBegin
  2
BLC44
 70
     0
 10
0.0
 20
0.0
 30
0.0
  3
BLC44
  1

  0
LINE
  5
A2
330
2E
100
AcDbEntity
  8
HEL035
100
AcDbLine
 10
-2.520992801268107
 20
1.697877018123069
 30
0.0
 11
1.479007198731892
 21
1.697877018123069
 31
0.0
  0
INSERT
  5
A3
330
2E
100
AcDbEntity
  8
HEL035
100
AcDbBlockReference
  2
WKU130
 10
-2.181043214518581
 20
-0.0276753648205208
 30
0.0
 41
0.8
 42
0.8
 43
0.8
  0
ENDBLK
  5
A4
330
2E
100
AcDbEntity
  8
0
  6
Continuous
100
AcDbBlockEnd
  0
BLOCK
  5
A5
330
2F
100
AcDbEntity
  8
BASE
  6
Continuous
100
AcDbBlockBegin
  2
*X13
 70
     1
 10
0.0
 20
0.0
 30
0.0
  3
*X13
  1

  0
LINE
  5
A6
330
2F
100
AcDbEntity
  8
0
  6
Continuous
 62
     0
100
AcDbLine
 10
196.0302552893537
 20
208.4481494796459
 30
0.0
 11
196.4907804998098
 21
208.9969820536872
 31
0.0
  0
LINE
  5
A7
330
2F
100
AcDbEntity
  8
0
  6
Continuous
 62
     0
100
AcDbLine
 10
196.0204450574616
 20
208.4520153388129
 30
0.0
 11
196.4714528203445
 21
208.9895054605165
 31
0.0
  0
LINE
  5
A8
330
2F
100
AcDbEntity
  8
0
  6
Continuous
 62
     0
100
AcDbLine
 10
196.0106348255695
 20
208.4558811979799
 30
0.0
 11
196.4521251408792
 21
208.9820288673458
 31
0.0
  0
LINE
  5
A9
330
2F
100
AcDbEntity
  8
0
  6
Continuous
 62
     0
100
AcDbLine
 10
196.0008245936774
 20
208.4597470571469
 30
0.0
 11
196.4327974614139
 21
208.9745522741751
 31
0.0
  0
LINE
  5
AA
330
2F
100
AcDbEntity
  8
0
  6
Continuous
 62
     0
100
AcDbLine
 10
195.9910143617853
 20
208.4636129163139
 30
0.0
 11
196.4134697819486
 21
208.9670756810044
 31
0.0
  0
LINE
  5
AB
330
2F
100
AcDbEntity
  8
0
  6
Continuous
 62
     0
100
AcDbLine
 10
195.9812041298932
 20
208.4674787754809
 30
0.0
 11
196.3941421024833
 21
208.9595990878337
 31
0.0
  0
LINE
  5
AC
330
2F
100
AcDbEntity
  8
0
  6
Continuous
 62
     0
100
AcDbLine
 10
195.9713938980011
 20
208.4713446346479
 30
0.0
 11
196.374814423018
 21
208.952122494663
 31
0.0
  0
LINE
  5
AD
330
2F
100
AcDbEntity
  8
0
  6
Continuous
 62
     0
100
AcDbLine
 10
195.961583666109
 20
208.4752104938149
 30
0.0
 11
196.3554867435526
 21
208.9446459014923
 31
0.0
  0
LINE
  5
AE
330
2F
100
AcDbEntity
  8
0
  6
Continuous
 62
     0
100
AcDbLine
 10
195.9517734342169
 20
208.4790763529819
 30
0.0
 11
196.3361590640873
 21
208.9371693083216
 31
0.0
  0
LINE
  5
AF
330
2F
100
AcDbEntity
  8
0
  6
Continuous
 62
     0
100
AcDbLine
 10
195.9419632023248
 20
208.4829422121489
 30
0.0
 11
196.316831384622
 21
208.9296927151509
 31
0.0
  0
LINE
  5
B0
330
2F
100
AcDbEntity
  8
0
  6
Continuous
 62
     0
100
AcDbLine
 10
195.9321529704326
 20
208.4868080713159
 30
0.0
 11
196.2975037051567
 21
208.9222161219802
 31
0.0
  0
LINE
  5
B1
330
2F
100
AcDbEntity
  8
0
  6
Continuous
 62
     0
100
AcDbLine
 10
195.9223427385406
 20
208.4906739304829
 30
0.0
 11
196.2781760256914
 21
208.9147395288095
 31
0.0
  0
LINE
  5
B2
330
2F
100
AcDbEntity
  8
0
  6
Continuous
 62
     0
100
AcDbLine
 10
195.9125325066484
 20
208.49453978965
 30
0.0
 11
196.258848346226
 21
208.9072629356388
 31
0.0
  0
LINE
  5
B3
330
2F
100
AcDbEntity
  8
0
  6
Continuous
 62
     0
100
AcDbLine
 10
195.9027222747564
 20
208.498405648817
 30
0.0
 11
196.2395206667607
 21
208.8997863424681
 31
0.0
  0
LINE
  5
B4
330
2F
100
AcDbEntity
  8
0
  6
Continuous
 62
     0
100
AcDbLine
 10
195.8929120428642
 20
208.502271507984
 30
0.0
 11
196.2201929872954
 21
208.8923097492974
 31
0.0
  0
LINE
  5
B5
330
2F
100
AcDbEntity
  8
0
  6
Continuous
 62
     0
100
AcDbLine
 10
195.8831018109721
 20
208.506137367151
 30
0.0
 11
196.2008653078301
 21
208.8848331561267
 31
0.0
  0
LINE
  5
B6
330
2F
100
AcDbEntity
  8
0
  6
Continuous
 62
     0
100
AcDbLine
 10
195.87329157908
 20
208.510003226318
 30
0.0
 11
196.1815376283648
 21
208.8773565629561
 31
0.0
  0
LINE
  5
B7
330
2F
100
AcDbEntity
  8
0
  6
Continuous
 62
     0
100
AcDbLine
 10
195.8634813471879
 20
208.513869085485
 30
0.0
 11
196.1622099488995
 21
208.8698799697854
 31
0.0
  0
LINE
  5
B8
330
2F
100
AcDbEntity
  8
0
  6
Continuous
 62
     0
100
AcDbLine
 10
195.8536711152958
 20
208.517734944652
 30
0.0
 11
196.1428822694341
 21
208.8624033766147
 31
0.0
  0
LINE
  5
B9
330
2F
100
AcDbEntity
  8
0
  6
Continuous
 62
     0
100
AcDbLine
 10
195.8438608834037
 20
208.521600803819
 30
0.0
 11
196.1235545899688
 21
208.8549267834439
 31
0.0
  0
LINE
  5
BA
330
2F
100
AcDbEntity
  8
0
  6
Continuous
 62
     0
100
AcDbLine
 10
195.8340506515116
 20
208.525466662986
 30
0.0
 11
196.1042269105035
 21
208.8474501902732
 31
0.0
  0
LINE
  5
BB
330
2F
100
AcDbEntity
  8
0
  6
Continuous
 62
     0
100
AcDbLine
 10
195.8242404196195
 20
208.529332522153
 30
0.0
 11
196.0848992310382
 21
208.8399735971026
 31
0.0
  0
LINE
  5
BC
330
2F
100
AcDbEntity
  8
0
  6
Continuous
 62
     0
100
AcDbLine
 10
195.8144301877274
 20
208.53319838132
 30
0.0
 11
196.0655715515729
 21
208.8324970039319
 31
0.0
  0
LINE
  5
BD
330
2F
100
AcDbEntity
  8
0
  6
Continuous
 62
     0
100
AcDbLine
 10
195.8046199558353
 20
208.537064240487
 30
0.0
 11
196.0462438721076
 21
208.8250204107612
 31
0.0
  0
LINE
  5
BE
330
2F
100
AcDbEntity
  8
0
  6
Continuous
 62
     0
100
AcDbLine
 10
195.7948097239432
 20
208.540930099654
 30
0.0
 11
196.0269161926422
 21
208.8175438175905
 31
0.0
  0
LINE
  5
BF
330
2F
100
AcDbEntity
  8
0
  6
Continuous
 62
     0
100
AcDbLine
 10
195.784999492051
 20
208.544795958821
 30
0.0
 11
196.0075885131769
 21
208.8100672244198
 31
0.0
  0
LINE
  5
C0
330
2F
100
AcDbEntity
  8
0
  6
Continuous
 62
     0
100
AcDbLine
 10
195.7751892601589
 20
208.548661817988
 30
0.0
 11
195.9882608337116
 21
208.8025906312491
 31
0.0
  0
LINE
  5
C1
330
2F
100
AcDbEntity
  8
0
  6
Continuous
 62
     0
100
AcDbLine
 10
195.7653790282668
 20
208.552527677155
 30
0.0
 11
195.9689331542463
 21
208.7951140380784
 31
0.0
  0
LINE
  5
C2
330
2F
100
AcDbEntity
  8
0
  6
Continuous
 62
     0
100
AcDbLine
 10
195.7555687963747
 20
208.556393536322
 30
0.0
 11
195.949605474781
 21
208.7876374449077
 31
0.0
  0
LINE
  5
C3
330
2F
100
AcDbEntity
  8
0
  6
Continuous
 62
     0
100
AcDbLine
 10
195.7457585644826
 20
208.560259395489
 30
0.0
 11
195.9302777953157
 21
208.780160851737
 31
0.0
  0
LINE
  5
C4
330
2F
100
AcDbEntity
  8
0
  6
Continuous
 62
     0
100
AcDbLine
 10
195.7359483325905
 20
208.564125254656
 30
0.0
 11
195.9109501158503
 21
208.7726842585663
 31
0.0
  0
LINE
  5
C5
330
2F
100
AcDbEntity
  8
0
  6
Continuous
 62
     0
100
AcDbLine
 10
195.7261381006984
 20
208.567991113823
 30
0.0
 11
195.891622436385
 21
208.7652076653956
 31
0.0
  0
LINE
  5
C6
330
2F
100
AcDbEntity
  8
0
  6
Continuous
 62
     0
100
AcDbLine
 10
195.7163278688063
 20
208.57185697299
 30
0.0
 11
195.8722947569197
 21
208.7577310722249
 31
0.0
  0
LINE
  5
C7
330
2F
100
AcDbEntity
  8
0
  6
Continuous
 62
     0
100
AcDbLine
 10
195.7065176369142
 20
208.575722832157
 30
0.0
 11
195.8529670774544
 21
208.7502544790542
 31
0.0
  0
LINE
  5
C8
330
2F
100
AcDbEntity
  8
0
  6
Continuous
 62
     0
100
AcDbLine
 10
195.6967074050221
 20
208.579588691324
 30
0.0
 11
195.8336393979891
 21
208.7427778858835
 31
0.0
  0
LINE
  5
C9
330
2F
100
AcDbEntity
  8
0
  6
Continuous
 62
     0
100
AcDbLine
 10
195.68689717313
 20
208.583454550491
 30
0.0
 11
195.8143117185238
 21
208.7353012927128
 31
0.0
  0
LINE
  5
CA
330
2F
100
AcDbEntity
  8
0
  6
Continuous
 62
     0
100
AcDbLine
 10
195.6770869412379
 20
208.587320409658
 30
0.0
 11
195.7949840390584
 21
208.7278246995421
 31
0.0
  0
LINE
  5
CB
330
2F
100
AcDbEntity
  8
0
  6
Continuous
 62
     0
100
AcDbLine
 10
195.6672767093458
 20
208.591186268825
 30
0.0
 11
195.7756563595931
 21
208.7203481063714
 31
0.0
  0
LINE
  5
CC
330
2F
100
AcDbEntity
  8
0
  6
Continuous
 62
     0
100
AcDbLine
 10
195.6574664774537
 20
208.595052127992
 30
0.0
 11
195.7563286801278
 21
208.7128715132007
 31
0.0
  0
LINE
  5
CD
330
2F
100
AcDbEntity
  8
0
  6
Continuous
 62
     0
100
AcDbLine
 10
195.6476562455615
 20
208.5989179871591
 30
0.0
 11
195.7370010006625
 21
208.70539492003
 31
0.0
  0
LINE
  5
CE
330
2F
100
AcDbEntity
  8
0
  6
Continuous
 62
     0
100
AcDbLine
 10
195.6378460136695
 20
208.602783846326
 30
0.0
 11
195.7176733211972
 21
208.6979183268593
 31
0.0
  0
LINE
  5
CF
330
2F
100
AcDbEntity
  8
0
  6
Continuous
 62
     0
100
AcDbLine
 10
195.6280357817773
 20
208.606649705493
 30
0.0
 11
195.6983456417319
 21
208.6904417336886
 31
0.0
  0
LINE
  5
D0
330
2F
100
AcDbEntity
  8
0
  6
Continuous
 62
     0
100
AcDbLine
 10
195.6182255498852
 20
208.61051556466
 30
0.0
 11
195.6790179622665
 21
208.682965140518
 31
0.0
  0
LINE
  5
D1
330
2F
100
AcDbEntity
  8
0
  6
Continuous
 62
     0
100
AcDbLine
 10
195.6084153179931
 20
208.614381423827
 30
0.0
 11
195.6596902828012
 21
208.6754885473473
 31
0.0
  0
LINE
  5
D2
330
2F
100
AcDbEntity
  8
0
  6
Continuous
 62
     0
100
AcDbLine
 10
195.598605086101
 20
208.618247282994
 30
0.0
 11
195.6403626033359
 21
208.6680119541766
 31
0.0
  0
LINE
  5
D3
330
2F
100
AcDbEntity
  8
0
  6
Continuous
 62
     0
100
AcDbLine
 10
195.5887948542089
 20
208.6221131421611
 30
0.0
 11
195.6210349238706
 21
208.6605353610059
 31
0.0
  0
LINE
  5
D4
330
2F
100
AcDbEntity
  8
0
  6
Continuous
 62
     0
100
AcDbLine
 10
195.5789846223168
 20
208.6259790013281
 30
0.0
 11
195.6017072444053
 21
208.6530587678351
 31
0.0
  0
LINE
  5
D5
330
2F
100
AcDbEntity
  8
0
  6
Continuous
 62
     0
100
AcDbLine
 10
195.5691743904247
 20
208.6298448604951
 30
0.0
 11
195.58237956494
 21
208.6455821746645
 31
0.0
  0
LINE
  5
D6
330
2F
100
AcDbEntity
  8
0
  6
Continuous
 62
     0
100
AcDbLine
 10
195.5593641585326
 20
208.6337107196621
 30
0.0
 11
195.5630518854746
 21
208.6381055814938
 31
0.0
  0
LINE
  5
D7
330
2F
100
AcDbEntity
  8
0
  6
Continuous
 62
     0
100
AcDbLine
 10
196.0400655212458
 20
208.4442836204789
 30
0.0
 11
196.5101081792751
 21
209.0044586468579
 31
0.0
  0
LINE
  5
D8
330
2F
100
AcDbEntity
  8
0
  6
Continuous
 62
     0
100
AcDbLine
 10
196.0498757531379
 20
208.4404177613119
 30
0.0
 11
196.5294358587405
 21
209.0119352400285
 31
0.0
  0
LINE
  5
D9
330
2F
100
AcDbEntity
  8
0
  6
Continuous
 62
     0
100
AcDbLine
 10
196.0596859850301
 20
208.4365519021449
 30
0.0
 11
196.5487635382058
 21
209.0194118331992
 31
0.0
  0
LINE
  5
DA
330
2F
100
AcDbEntity
  8
0
  6
Continuous
 62
     0
100
AcDbLine
 10
196.0694962169221
 20
208.4326860429779
 30
0.0
 11
196.5680912176711
 21
209.02688842637
 31
0.0
  0
LINE
  5
DB
330
2F
100
AcDbEntity
  8
0
  6
Continuous
 62
     0
100
AcDbLine
 10
196.0793064488143
 20
208.4288201838109
 30
0.0
 11
196.5874188971364
 21
209.0343650195407
 31
0.0
  0
LINE
  5
DC
330
2F
100
AcDbEntity
  8
0
  6
Continuous
 62
     0
100
AcDbLine
 10
196.0891166807064
 20
208.4249543246439
 30
0.0
 11
196.6067465766017
 21
209.0418416127114
 31
0.0
  0
LINE
  5
DD
330
2F
100
AcDbEntity
  8
0
  6
Continuous
 62
     0
100
AcDbLine
 10
196.0989269125985
 20
208.4210884654769
 30
0.0
 11
196.626074256067
 21
209.049318205882
 31
0.0
  0
LINE
  5
DE
330
2F
100
AcDbEntity
  8
0
  6
Continuous
 62
     0
100
AcDbLine
 10
196.1087371444906
 20
208.4172226063099
 30
0.0
 11
196.6454019355324
 21
209.0567947990527
 31
0.0
  0
LINE
  5
DF
330
2F
100
AcDbEntity
  8
0
  6
Continuous
 62
     0
100
AcDbLine
 10
196.1185473763827
 20
208.4133567471429
 30
0.0
 11
196.6647296149977
 21
209.0642713922234
 31
0.0
  0
LINE
  5
E0
330
2F
100
AcDbEntity
  8
0
  6
Continuous
 62
     0
100
AcDbLine
 10
196.1283576082748
 20
208.4094908879759
 30
0.0
 11
196.684057294463
 21
209.0717479853942
 31
0.0
  0
LINE
  5
E1
330
2F
100
AcDbEntity
  8
0
  6
Continuous
 62
     0
100
AcDbLine
 10
196.1381678401669
 20
208.4056250288089
 30
0.0
 11
196.7033849739283
 21
209.0792245785649
 31
0.0
  0
LINE
  5
E2
330
2F
100
AcDbEntity
  8
0
  6
Continuous
 62
     0
100
AcDbLine
 10
196.147978072059
 20
208.4017591696419
 30
0.0
 11
196.7227126533936
 21
209.0867011717355
 31
0.0
  0
LINE
  5
E3
330
2F
100
AcDbEntity
  8
0
  6
Continuous
 62
     0
100
AcDbLine
 10
196.1577883039511
 20
208.3978933104749
 30
0.0
 11
196.7420403328589
 21
209.0941777649062
 31
0.0
  0
LINE
  5
E4
330
2F
100
AcDbEntity
  8
0
  6
Continuous
 62
     0
100
AcDbLine
 10
196.1675985358432
 20
208.3940274513079
 30
0.0
 11
196.7613680123243
 21
209.1016543580769
 31
0.0
  0
LINE
  5
E5
330
2F
100
AcDbEntity
  8
0
  6
Continuous
 62
     0
100
AcDbLine
 10
196.1774087677353
 20
208.3901615921408
 30
0.0
 11
196.7806956917896
 21
209.1091309512476
 31
0.0
  0
LINE
  5
E6
330
2F
100
AcDbEntity
  8
0
  6
Continuous
 62
     0
100
AcDbLine
 10
196.1872189996275
 20
208.3862957329738
 30
0.0
 11
196.8000233712549
 21
209.1166075444183
 31
0.0
  0
LINE
  5
E7
330
2F
100
AcDbEntity
  8
0
  6
Continuous
 62
     0
100
AcDbLine
 10
196.1970292315196
 20
208.3824298738068
 30
0.0
 11
196.8193510507202
 21
209.124084137589
 31
0.0
  0
LINE
  5
E8
330
2F
100
AcDbEntity
  8
0
  6
Continuous
 62
     0
100
AcDbLine
 10
196.2068394634117
 20
208.3785640146398
 30
0.0
 11
196.8316910778347
 21
209.1232331709668
 31
0.0
  0
LINE
  5
E9
330
2F
100
AcDbEntity
  8
0
  6
Continuous
 62
     0
100
AcDbLine
 10
196.2166496953038
 20
208.3746981554729
 30
0.0
 11
196.8316910778347
 21
209.1076759326982
 31
0.0
  0
LINE
  5
EA
330
2F
100
AcDbEntity
  8
0
  6
Continuous
 62
     0
100
AcDbLine
 10
196.2264599271959
 20
208.3708322963059
 30
0.0
 11
196.8316910778347
 21
209.0921186944296
 31
0.0
  0
LINE
  5
EB
330
2F
100
AcDbEntity
  8
0
  6
Continuous
 62
     0
100
AcDbLine
 10
196.236270159088
 20
208.3669664371389
 30
0.0
 11
196.8316910778347
 21
209.076561456161
 31
0.0
  0
LINE
  5
EC
330
2F
100
AcDbEntity
  8
0
  6
Continuous
 62
     0
100
AcDbLine
 10
196.2460803909801
 20
208.3631005779718
 30
0.0
 11
196.8316910778347
 21
209.0610042178924
 31
0.0
  0
LINE
  5
ED
330
2F
100
AcDbEntity
  8
0
  6
Continuous
 62
     0
100
AcDbLine
 10
196.2558906228722
 20
208.3592347188048
 30
0.0
 11
196.8316910778347
 21
209.0454469796238
 31
0.0
  0
LINE
  5
EE
330
2F
100
AcDbEntity
  8
0
  6
Continuous
 62
     0
100
AcDbLine
 10
196.2657008547643
 20
208.3553688596378
 30
0.0
 11
196.8316910778347
 21
209.0298897413552
 31
0.0
  0
LINE
  5
EF
330
2F
100
AcDbEntity
  8
0
  6
Continuous
 62
     0
100
AcDbLine
 10
196.2755110866564
 20
208.3515030004708
 30
0.0
 11
196.8316910778347
 21
209.0143325030866
 31
0.0
  0
LINE
  5
F0
330
2F
100
AcDbEntity
  8
0
  6
Continuous
 62
     0
100
AcDbLine
 10
196.2853213185485
 20
208.3476371413039
 30
0.0
 11
196.8316910778347
 21
208.998775264818
 31
0.0
  0
LINE
  5
F1
330
2F
100
AcDbEntity
  8
0
  6
Continuous
 62
     0
100
AcDbLine
 10
196.2951315504406
 20
208.3437712821369
 30
0.0
 11
196.8316910778347
 21
208.9832180265494
 31
0.0
  0
LINE
  5
F2
330
2F
100
AcDbEntity
  8
0
  6
Continuous
 62
     0
100
AcDbLine
 10
196.3049417823327
 20
208.3399054229698
 30
0.0
 11
196.8316910778347
 21
208.9676607882808
 31
0.0
  0
LINE
  5
F3
330
2F
100
AcDbEntity
  8
0
  6
Continuous
 62
     0
100
AcDbLine
 10
196.3147520142248
 20
208.3360395638028
 30
0.0
 11
196.8316910778347
 21
208.9521035500122
 31
0.0
  0
LINE
  5
F4
330
2F
100
AcDbEntity
  8
0
  6
Continuous
 62
     0
100
AcDbLine
 10
196.3245622461169
 20
208.3321737046358
 30
0.0
 11
196.8316910778347
 21
208.9365463117436
 31
0.0
  0
LINE
  5
F5
330
2F
100
AcDbEntity
  8
0
  6
Continuous
 62
     0
100
AcDbLine
 10
196.3343724780091
 20
208.3283078454688
 30
0.0
 11
196.8316910778347
 21
208.920989073475
 31
0.0
  0
LINE
  5
F6
330
2F
100
AcDbEntity
  8
0
  6
Continuous
 62
     0
100
AcDbLine
 10
196.3441827099012
 20
208.3244419863018
 30
0.0
 11
196.8316910778347
 21
208.9054318352064
 31
0.0
  0
LINE
  5
F7
330
2F
100
AcDbEntity
  8
0
  6
Continuous
 62
     0
100
AcDbLine
 10
196.3539929417933
 20
208.3205761271348
 30
0.0
 11
196.8316910778347
 21
208.8898745969378
 31
0.0
  0
LINE
  5
F8
330
2F
100
AcDbEntity
  8
0
  6
Continuous
 62
     0
100
AcDbLine
 10
196.3638031736854
 20
208.3167102679678
 30
0.0
 11
196.8316910778347
 21
208.8743173586692
 31
0.0
  0
LINE
  5
F9
330
2F
100
AcDbEntity
  8
0
  6
Continuous
 62
     0
100
AcDbLine
 10
196.3736134055775
 20
208.3128444088008
 30
0.0
 11
196.8316910778347
 21
208.8587601204006
 31
0.0
  0
LINE
  5
FA
330
2F
100
AcDbEntity
  8
0
  6
Continuous
 62
     0
100
AcDbLine
 10
196.3834236374696
 20
208.3089785496338
 30
0.0
 11
196.8316910778347
 21
208.843202882132
 31
0.0
  0
LINE
  5
FB
330
2F
100
AcDbEntity
  8
0
  6
Continuous
 62
     0
100
AcDbLine
 10
196.3932338693617
 20
208.3051126904668
 30
0.0
 11
196.8316910778347
 21
208.8276456438634
 31
0.0
  0
LINE
  5
FC
330
2F
100
AcDbEntity
  8
0
  6
Continuous
 62
     0
100
AcDbLine
 10
196.4030441012538
 20
208.3012468312998
 30
0.0
 11
196.8316910778347
 21
208.8120884055947
 31
0.0
  0
LINE
  5
FD
330
2F
100
AcDbEntity
  8
0
  6
Continuous
 62
     0
100
AcDbLine
 10
196.4128543331459
 20
208.2973809721328
 30
0.0
 11
196.8316910778347
 21
208.7965311673261
 31
0.0
  0
LINE
  5
FE
330
2F
100
AcDbEntity
  8
0
  6
Continuous
 62
     0
100
AcDbLine
 10
196.422664565038
 20
208.2935151129658
 30
0.0
 11
196.8316910778347
 21
208.7809739290575
 31
0.0
  0
LINE
  5
FF
330
2F
100
AcDbEntity
  8
0
  6
Continuous
 62
     0
100
AcDbLine
 10
196.4324747969301
 20
208.2896492537988
 30
0.0
 11
196.8316910778347
 21
208.7654166907889
 31
0.0
  0
LINE
  5
100
330
2F
100
AcDbEntity
  8
0
  6
Continuous
 62
     0
100
AcDbLine
 10
196.4422850288222
 20
208.2857833946318
 30
0.0
 11
196.8316910778347
 21
208.7498594525203
 31
0.0
  0
LINE
  5
101
330
2F
100
AcDbEntity
  8
0
  6
Continuous
 62
     0
100
AcDbLine
 10
196.4520952607143
 20
208.2819175354648
 30
0.0
 11
196.8316910778347
 21
208.7343022142517
 31
0.0
  0
LINE
  5
102
330
2F
100
AcDbEntity
  8
0
  6
Continuous
 62
     0
100
AcDbLine
 10
196.4619054926064
 20
208.2780516762978
 30
0.0
 11
196.8316910778347
 21
208.7187449759831
 31
0.0
  0
LINE
  5
103
330
2F
100
AcDbEntity
  8
0
  6
Continuous
 62
     0
100
AcDbLine
 10
196.4717157244986
 20
208.2741858171308
 30
0.0
 11
196.8316910778347
 21
208.7031877377145
 31
0.0
  0
LINE
  5
104
330
2F
100
AcDbEntity
  8
0
  6
Continuous
 62
     0
100
AcDbLine
 10
196.4815259563907
 20
208.2703199579638
 30
0.0
 11
196.8316910778347
 21
208.6876304994459
 31
0.0
  0
LINE
  5
105
330
2F
100
AcDbEntity
  8
0
  6
Continuous
 62
     0
100
AcDbLine
 10
196.4913361882828
 20
208.2664540987968
 30
0.0
 11
196.8316910778347
 21
208.6720732611773
 31
0.0
  0
LINE
  5
106
330
2F
100
AcDbEntity
  8
0
  6
Continuous
 62
     0
100
AcDbLine
 10
196.5011464201749
 20
208.2625882396298
 30
0.0
 11
196.8316910778347
 21
208.6565160229087
 31
0.0
  0
LINE
  5
107
330
2F
100
AcDbEntity
  8
0
  6
Continuous
 62
     0
100
AcDbLine
 10
196.510956652067
 20
208.2587223804628
 30
0.0
 11
196.8316910778347
 21
208.6409587846401
 31
0.0
  0
LINE
  5
108
330
2F
100
AcDbEntity
  8
0
  6
Continuous
 62
     0
100
AcDbLine
 10
196.5207668839591
 20
208.2548565212958
 30
0.0
 11
196.8316910778347
 21
208.6254015463715
 31
0.0
  0
LINE
  5
109
330
2F
100
AcDbEntity
  8
0
  6
Continuous
 62
     0
100
AcDbLine
 10
196.5305771158512
 20
208.2509906621288
 30
0.0
 11
196.8316910778347
 21
208.6098443081029
 31
0.0
  0
LINE
  5
10A
330
2F
100
AcDbEntity
  8
0
  6
Continuous
 62
     0
100
AcDbLine
 10
196.5403873477433
 20
208.2471248029618
 30
0.0
 11
196.8316910778347
 21
208.5942870698343
 31
0.0
  0
LINE
  5
10B
330
2F
100
AcDbEntity
  8
0
  6
Continuous
 62
     0
100
AcDbLine
 10
196.5501975796354
 20
208.2432589437948
 30
0.0
 11
196.8316910778347
 21
208.5787298315657
 31
0.0
  0
LINE
  5
10C
330
2F
100
AcDbEntity
  8
0
  6
Continuous
 62
     0
100
AcDbLine
 10
196.5600078115275
 20
208.2393930846277
 30
0.0
 11
196.8316910778347
 21
208.5631725932971
 31
0.0
  0
LINE
  5
10D
330
2F
100
AcDbEntity
  8
0
  6
Continuous
 62
     0
100
AcDbLine
 10
196.5698180434196
 20
208.2355272254607
 30
0.0
 11
196.8316910778347
 21
208.5476153550285
 31
0.0
  0
LINE
  5
10E
330
2F
100
AcDbEntity
  8
0
  6
Continuous
 62
     0
100
AcDbLine
 10
196.5796282753117
 20
208.2316613662937
 30
0.0
 11
196.8316910778347
 21
208.5320581167599
 31
0.0
  0
LINE
  5
10F
330
2F
100
AcDbEntity
  8
0
  6
Continuous
 62
     0
100
AcDbLine
 10
196.5894385072038
 20
208.2277955071267
 30
0.0
 11
196.8316910778347
 21
208.5165008784913
 31
0.0
  0
LINE
  5
110
330
2F
100
AcDbEntity
  8
0
  6
Continuous
 62
     0
100
AcDbLine
 10
196.5992487390959
 20
208.2239296479597
 30
0.0
 11
196.8316910778347
 21
208.5009436402227
 31
0.0
  0
LINE
  5
111
330
2F
100
AcDbEntity
  8
0
  6
Continuous
 62
     0
100
AcDbLine
 10
196.609058970988
 20
208.2200637887927
 30
0.0
 11
196.8316910778347
 21
208.4853864019541
 31
0.0
  0
LINE
  5
112
330
2F
100
AcDbEntity
  8
0
  6
Continuous
 62
     0
100
AcDbLine
 10
196.6188692028802
 20
208.2161979296257
 30
0.0
 11
196.8316910778347
 21
208.4698291636855
 31
0.0
  0
LINE
  5
113
330
2F
100
AcDbEntity
  8
0
  6
Continuous
 62
     0
100
AcDbLine
 10
196.6286794347723
 20
208.2123320704587
 30
0.0
 11
196.8316910778347
 21
208.4542719254169
 31
0.0
  0
LINE
  5
114
330
2F
100
AcDbEntity
  8
0
  6
Continuous
 62
     0
100
AcDbLine
 10
196.6384896666644
 20
208.2084662112917
 30
0.0
 11
196.8316910778347
 21
208.4387146871482
 31
0.0
  0
LINE
  5
115
330
2F
100
AcDbEntity
  8
0
  6
Continuous
 62
     0
100
AcDbLine
 10
196.6482998985565
 20
208.2046003521247
 30
0.0
 11
196.8316910778347
 21
208.4231574488796
 31
0.0
  0
LINE
  5
116
330
2F
100
AcDbEntity
  8
0
  6
Continuous
 62
     0
100
AcDbLine
 10
196.6581101304486
 20
208.2007344929577
 30
0.0
 11
196.8316910778347
 21
208.407600210611
 31
0.0
  0
LINE
  5
117
330
2F
100
AcDbEntity
  8
0
  6
Continuous
 62
     0
100
AcDbLine
 10
196.6679203623407
 20
208.1968686337907
 30
0.0
 11
196.8316910778347
 21
208.3920429723424
 31
0.0
  0
LINE
  5
118
330
2F
100
AcDbEntity
  8
0
  6
Continuous
 62
     0
100
AcDbLine
 10
196.6777305942328
 20
208.1930027746237
 30
0.0
 11
196.8316910778347
 21
208.3764857340738
 31
0.0
  0
LINE
  5
119
330
2F
100
AcDbEntity
  8
0
  6
Continuous
 62
     0
100
AcDbLine
 10
196.6875408261249
 20
208.1891369154567
 30
0.0
 11
196.8316910778347
 21
208.3609284958052
 31
0.0
  0
LINE
  5
11A
330
2F
100
AcDbEntity
  8
0
  6
Continuous
 62
     0
100
AcDbLine
 10
196.697351058017
 20
208.1852710562897
 30
0.0
 11
196.8316910778347
 21
208.3453712575366
 31
0.0
  0
LINE
  5
11B
330
2F
100
AcDbEntity
  8
0
  6
Continuous
 62
     0
100
AcDbLine
 10
196.7071612899091
 20
208.1814051971227
 30
0.0
 11
196.8316910778347
 21
208.329814019268
 31
0.0
  0
LINE
  5
11C
330
2F
100
AcDbEntity
  8
0
  6
Continuous
 62
     0
100
AcDbLine
 10
196.7169715218012
 20
208.1775393379557
 30
0.0
 11
196.8316910778347
 21
208.3142567809994
 31
0.0
  0
LINE
  5
11D
330
2F
100
AcDbEntity
  8
0
  6
Continuous
 62
     0
100
AcDbLine
 10
196.7267817536933
 20
208.1736734787887
 30
0.0
 11
196.8316910778347
 21
208.2986995427308
 31
0.0
  0
LINE
  5
11E
330
2F
100
AcDbEntity
  8
0
  6
Continuous
 62
     0
100
AcDbLine
 10
196.7365919855854
 20
208.1698076196217
 30
0.0
 11
196.8316910778347
 21
208.2831423044622
 31
0.0
  0
LINE
  5
11F
330
2F
100
AcDbEntity
  8
0
  6
Continuous
 62
     0
100
AcDbLine
 10
196.7464022174775
 20
208.1659417604547
 30
0.0
 11
196.8316910778347
 21
208.2675850661936
 31
0.0
  0
LINE
  5
120
330
2F
100
AcDbEntity
  8
0
  6
Continuous
 62
     0
100
AcDbLine
 10
196.7562124493697
 20
208.1620759012877
 30
0.0
 11
196.8316910778347
 21
208.252027827925
 31
0.0
  0
LINE
  5
121
330
2F
100
AcDbEntity
  8
0
  6
Continuous
 62
     0
100
AcDbLine
 10
196.7660226812617
 20
208.1582100421207
 30
0.0
 11
196.8316910778347
 21
208.2364705896564
 31
0.0
  0
LINE
  5
122
330
2F
100
AcDbEntity
  8
0
  6
Continuous
 62
     0
100
AcDbLine
 10
196.7758329131539
 20
208.1543441829537
 30
0.0
 11
196.8316910778347
 21
208.2209133513878
 31
0.0
  0
LINE
  5
123
330
2F
100
AcDbEntity
  8
0
  6
Continuous
 62
     0
100
AcDbLine
 10
196.785643145046
 20
208.1504783237867
 30
0.0
 11
196.8316910778347
 21
208.2053561131192
 31
0.0
  0
LINE
  5
124
330
2F
100
AcDbEntity
  8
0
  6
Continuous
 62
     0
100
AcDbLine
 10
196.7954533769381
 20
208.1466124646197
 30
0.0
 11
196.8316910778347
 21
208.1897988748506
 31
0.0
  0
LINE
  5
125
330
2F
100
AcDbEntity
  8
0
  6
Continuous
 62
     0
100
AcDbLine
 10
196.8052636088302
 20
208.1427466054527
 30
0.0
 11
196.8316910778347
 21
208.174241636582
 31
0.0
  0
LINE
  5
126
330
2F
100
AcDbEntity
  8
0
  6
Continuous
 62
     0
100
AcDbLine
 10
196.8150738407223
 20
208.1388807462857
 30
0.0
 11
196.8316910778347
 21
208.1586843983134
 31
0.0
  0
LINE
  5
127
330
2F
100
AcDbEntity
  8
0
  6
Continuous
 62
     0
100
AcDbLine
 10
196.8248840726144
 20
208.1350148871186
 30
0.0
 11
196.8316910778347
 21
208.1431271600448
 31
0.0
  0
LINE
  5
128
330
2F
100
AcDbEntity
  8
0
  6
Continuous
 62
     0
100
AcDbLine
 10
195.9873131693402
 20
208.802224042959
 30
0.0
 11
196.744898837156
 21
208.1665341885095
 31
0.0
  0
LINE
  5
129
330
2F
100
AcDbEntity
  8
0
  6
Continuous
 62
     0
100
AcDbLine
 10
195.9766648941936
 20
208.7981049338138
 30
0.0
 11
196.7155661909152
 21
208.1780931282583
 31
0.0
  0
LINE
  5
12A
330
2F
100
AcDbEntity
  8
0
  6
Continuous
 62
     0
100
AcDbLine
 10
195.9660166190471
 20
208.7939858246686
 30
0.0
 11
196.6862335446744
 21
208.1896520680071
 31
0.0
  0
LINE
  5
12B
330
2F
100
AcDbEntity
  8
0
  6
Continuous
 62
     0
100
AcDbLine
 10
195.9553683439005
 20
208.7898667155234
 30
0.0
 11
196.6569008984335
 21
208.2012110077559
 31
0.0
  0
LINE
  5
12C
330
2F
100
AcDbEntity
  8
0
  6
Continuous
 62
     0
100
AcDbLine
 10
195.9447200687539
 20
208.7857476063783
 30
0.0
 11
196.6275682521927
 21
208.2127699475047
 31
0.0
  0
LINE
  5
12D
330
2F
100
AcDbEntity
  8
0
  6
Continuous
 62
     0
100
AcDbLine
 10
195.9340717936074
 20
208.7816284972331
 30
0.0
 11
196.598235605952
 21
208.2243288872534
 31
0.0
  0
LINE
  5
12E
330
2F
100
AcDbEntity
  8
0
  6
Continuous
 62
     0
100
AcDbLine
 10
195.9234235184608
 20
208.7775093880879
 30
0.0
 11
196.5689029597112
 21
208.2358878270022
 31
0.0
  0
LINE
  5
12F
330
2F
100
AcDbEntity
  8
0
  6
Continuous
 62
     0
100
AcDbLine
 10
195.9127752433143
 20
208.7733902789428
 30
0.0
 11
196.5395703134704
 21
208.247446766751
 31
0.0
  0
LINE
  5
130
330
2F
100
AcDbEntity
  8
0
  6
Continuous
 62
     0
100
AcDbLine
 10
195.9021269681677
 20
208.7692711697976
 30
0.0
 11
196.5102376672297
 21
208.2590057064998
 31
0.0
  0
LINE
  5
131
330
2F
100
AcDbEntity
  8
0
  6
Continuous
 62
     0
100
AcDbLine
 10
195.8914786930212
 20
208.7651520606524
 30
0.0
 11
196.4809050209889
 21
208.2705646462485
 31
0.0
  0
LINE
  5
132
330
2F
100
AcDbEntity
  8
0
  6
Continuous
 62
     0
100
AcDbLine
 10
195.8808304178746
 20
208.7610329515073
 30
0.0
 11
196.451572374748
 21
208.2821235859973
 31
0.0
  0
LINE
  5
133
330
2F
100
AcDbEntity
  8
0
  6
Continuous
 62
     0
100
AcDbLine
 10
195.870182142728
 20
208.7569138423621
 30
0.0
 11
196.4222397285072
 21
208.2936825257461
 31
0.0
  0
LINE
  5
134
330
2F
100
AcDbEntity
  8
0
  6
Continuous
 62
     0
100
AcDbLine
 10
195.8595338675815
 20
208.7527947332169
 30
0.0
 11
196.3929070822664
 21
208.3052414654949
 31
0.0
  0
LINE
  5
135
330
2F
100
AcDbEntity
  8
0
  6
Continuous
 62
     0
100
AcDbLine
 10
195.8488855924349
 20
208.7486756240718
 30
0.0
 11
196.3635744360257
 21
208.3168004052437
 31
0.0
  0
LINE
  5
136
330
2F
100
AcDbEntity
  8
0
  6
Continuous
 62
     0
100
AcDbLine
 10
195.8382373172883
 20
208.7445565149266
 30
0.0
 11
196.3342417897849
 21
208.3283593449924
 31
0.0
  0
LINE
  5
137
330
2F
100
AcDbEntity
  8
0
  6
Continuous
 62
     0
100
AcDbLine
 10
195.8275890421418
 20
208.7404374057814
 30
0.0
 11
196.3049091435441
 21
208.3399182847412
 31
0.0
  0
LINE
  5
138
330
2F
100
AcDbEntity
  8
0
  6
Continuous
 62
     0
100
AcDbLine
 10
195.8169407669952
 20
208.7363182966362
 30
0.0
 11
196.2755764973032
 21
208.3514772244901
 31
0.0
  0
LINE
  5
139
330
2F
100
AcDbEntity
  8
0
  6
Continuous
 62
     0
100
AcDbLine
 10
195.8062924918486
 20
208.7321991874911
 30
0.0
 11
196.2462438510624
 21
208.3630361642388
 31
0.0
  0
LINE
  5
13A
330
2F
100
AcDbEntity
  8
0
  6
Continuous
 62
     0
100
AcDbLine
 10
195.7956442167021
 20
208.7280800783459
 30
0.0
 11
196.2169112048217
 21
208.3745951039876
 31
0.0
  0
LINE
  5
13B
330
2F
100
AcDbEntity
  8
0
  6
Continuous
 62
     0
100
AcDbLine
 10
195.7849959415555
 20
208.7239609692007
 30
0.0
 11
196.1875785585809
 21
208.3861540437363
 31
0.0
  0
LINE
  5
13C
330
2F
100
AcDbEntity
  8
0
  6
Continuous
 62
     0
100
AcDbLine
 10
195.774347666409
 20
208.7198418600556
 30
0.0
 11
196.1582459123401
 21
208.3977129834851
 31
0.0
  0
LINE
  5
13D
330
2F
100
AcDbEntity
  8
0
  6
Continuous
 62
     0
100
AcDbLine
 10
195.7636993912624
 20
208.7157227509104
 30
0.0
 11
196.1289132660994
 21
208.4092719232339
 31
0.0
  0
LINE
  5
13E
330
2F
100
AcDbEntity
  8
0
  6
Continuous
 62
     0
100
AcDbLine
 10
195.7530511161158
 20
208.7116036417652
 30
0.0
 11
196.0995806198584
 21
208.4208308629827
 31
0.0
  0
LINE
  5
13F
330
2F
100
AcDbEntity
  8
0
  6
Continuous
 62
     0
100
AcDbLine
 10
195.7424028409693
 20
208.70748453262
 30
0.0
 11
196.0702479736177
 21
208.4323898027315
 31
0.0
  0
LINE
  5
140
330
2F
100
AcDbEntity
  8
0
  6
Continuous
 62
     0
100
AcDbLine
 10
195.7317545658227
 20
208.7033654234749
 30
0.0
 11
196.0409153273769
 21
208.4439487424803
 31
0.0
  0
LINE
  5
141
330
2F
100
AcDbEntity
  8
0
  6
Continuous
 62
     0
100
AcDbLine
 10
195.7211062906761
 20
208.6992463143297
 30
0.0
 11
196.0115826811361
 21
208.4555076822291
 31
0.0
  0
LINE
  5
142
330
2F
100
AcDbEntity
  8
0
  6
Continuous
 62
     0
100
AcDbLine
 10
195.7104580155296
 20
208.6951272051845
 30
0.0
 11
195.9822500348954
 21
208.4670666219778
 31
0.0
  0
LINE
  5
143
330
2F
100
AcDbEntity
  8
0
  6
Continuous
 62
     0
100
AcDbLine
 10
195.6998097403831
 20
208.6910080960394
 30
0.0
 11
195.9529173886546
 21
208.4786255617266
 31
0.0
  0
LINE
  5
144
330
2F
100
AcDbEntity
  8
0
  6
Continuous
 62
     0
100
AcDbLine
 10
195.6891614652364
 20
208.6868889868942
 30
0.0
 11
195.9235847424137
 21
208.4901845014754
 31
0.0
  0
LINE
  5
145
330
2F
100
AcDbEntity
  8
0
  6
Continuous
 62
     0
100
AcDbLine
 10
195.6785131900899
 20
208.682769877749
 30
0.0
 11
195.8942520961729
 21
208.5017434412242
 31
0.0
  0
LINE
  5
146
330
2F
100
AcDbEntity
  8
0
  6
Continuous
 62
     0
100
AcDbLine
 10
195.6678649149433
 20
208.6786507686039
 30
0.0
 11
195.8649194499321
 21
208.513302380973
 31
0.0
  0
LINE
  5
147
330
2F
100
AcDbEntity
  8
0
  6
Continuous
 62
     0
100
AcDbLine
 10
195.6572166397968
 20
208.6745316594587
 30
0.0
 11
195.8355868036914
 21
208.5248613207217
 31
0.0
  0
LINE
  5
148
330
2F
100
AcDbEntity
  8
0
  6
Continuous
 62
     0
100
AcDbLine
 10
195.6465683646502
 20
208.6704125503135
 30
0.0
 11
195.8062541574506
 21
208.5364202604705
 31
0.0
  0
LINE
  5
149
330
2F
100
AcDbEntity
  8
0
  6
Continuous
 62
     0
100
AcDbLine
 10
195.6359200895037
 20
208.6662934411684
 30
0.0
 11
195.7769215112098
 21
208.5479792002193
 31
0.0
  0
LINE
  5
14A
330
2F
100
AcDbEntity
  8
0
  6
Continuous
 62
     0
100
AcDbLine
 10
195.6252718143571
 20
208.6621743320232
 30
0.0
 11
195.7475888649691
 21
208.559538139968
 31
0.0
  0
LINE
  5
14B
330
2F
100
AcDbEntity
  8
0
  6
Continuous
 62
     0
100
AcDbLine
 10
195.6146235392105
 20
208.658055222878
 30
0.0
 11
195.7182562187281
 21
208.5710970797169
 31
0.0
  0
LINE
  5
14C
330
2F
100
AcDbEntity
  8
0
  6
Continuous
 62
     0
100
AcDbLine
 10
195.603975264064
 20
208.6539361137329
 30
0.0
 11
195.6889235724874
 21
208.5826560194656
 31
0.0
  0
LINE
  5
14D
330
2F
100
AcDbEntity
  8
0
  6
Continuous
 62
     0
100
AcDbLine
 10
195.5933269889174
 20
208.6498170045877
 30
0.0
 11
195.6595909262466
 21
208.5942149592144
 31
0.0
  0
LINE
  5
14E
330
2F
100
AcDbEntity
  8
0
  6
Continuous
 62
     0
100
AcDbLine
 10
195.5826787137709
 20
208.6456978954425
 30
0.0
 11
195.6302582800058
 21
208.6057738989632
 31
0.0
  0
LINE
  5
14F
330
2F
100
AcDbEntity
  8
0
  6
Continuous
 62
     0
100
AcDbLine
 10
195.5720304386243
 20
208.6415787862974
 30
0.0
 11
195.6009256337651
 21
208.617332838712
 31
0.0
  0
LINE
  5
150
330
2F
100
AcDbEntity
  8
0
  6
Continuous
 62
     0
100
AcDbLine
 10
195.5613821634778
 20
208.6374596771522
 30
0.0
 11
195.5715929875243
 21
208.6288917784607
 31
0.0
  0
LINE
  5
151
330
2F
100
AcDbEntity
  8
0
  6
Continuous
 62
     0
100
AcDbLine
 10
195.9979614444868
 20
208.8063431521041
 30
0.0
 11
196.7742314833967
 21
208.1549752487608
 31
0.0
  0
LINE
  5
152
330
2F
100
AcDbEntity
  8
0
  6
Continuous
 62
     0
100
AcDbLine
 10
196.0086097196333
 20
208.8104622612493
 30
0.0
 11
196.8035641296375
 21
208.143416309012
 31
0.0
  0
LINE
  5
153
330
2F
100
AcDbEntity
  8
0
  6
Continuous
 62
     0
100
AcDbLine
 10
196.0192579947799
 20
208.8145813703945
 30
0.0
 11
196.8316910778347
 21
208.1328690700469
 31
0.0
  0
LINE
  5
154
330
2F
100
AcDbEntity
  8
0
  6
Continuous
 62
     0
100
AcDbLine
 10
196.0299062699265
 20
208.8187004795396
 30
0.0
 11
196.8316910778347
 21
208.1459231429403
 31
0.0
  0
LINE
  5
155
330
2F
100
AcDbEntity
  8
0
  6
Continuous
 62
     0
100
AcDbLine
 10
196.040554545073
 20
208.8228195886848
 30
0.0
 11
196.8316910778347
 21
208.1589772158336
 31
0.0
  0
LINE
  5
156
330
2F
100
AcDbEntity
  8
0
  6
Continuous
 62
     0
100
AcDbLine
 10
196.0512028202196
 20
208.82693869783
 30
0.0
 11
196.8316910778347
 21
208.1720312887269
 31
0.0
  0
LINE
  5
157
330
2F
100
AcDbEntity
  8
0
  6
Continuous
 62
     0
100
AcDbLine
 10
196.0618510953661
 20
208.8310578069751
 30
0.0
 11
196.8316910778347
 21
208.1850853616202
 31
0.0
  0
LINE
  5
158
330
2F
100
AcDbEntity
  8
0
  6
Continuous
 62
     0
100
AcDbLine
 10
196.0724993705127
 20
208.8351769161203
 30
0.0
 11
196.8316910778347
 21
208.1981394345135
 31
0.0
  0
LINE
  5
159
330
2F
100
AcDbEntity
  8
0
  6
Continuous
 62
     0
100
AcDbLine
 10
196.0831476456592
 20
208.8392960252654
 30
0.0
 11
196.8316910778347
 21
208.2111935074069
 31
0.0
  0
LINE
  5
15A
330
2F
100
AcDbEntity
  8
0
  6
Continuous
 62
     0
100
AcDbLine
 10
196.0937959208058
 20
208.8434151344106
 30
0.0
 11
196.8316910778347
 21
208.2242475803003
 31
0.0
  0
LINE
  5
15B
330
2F
100
AcDbEntity
  8
0
  6
Continuous
 62
     0
100
AcDbLine
 10
196.1044441959524
 20
208.8475342435558
 30
0.0
 11
196.8316910778347
 21
208.2373016531936
 31
0.0
  0
LINE
  5
15C
330
2F
100
AcDbEntity
  8
0
  6
Continuous
 62
     0
100
AcDbLine
 10
196.115092471099
 20
208.851653352701
 30
0.0
 11
196.8316910778347
 21
208.2503557260869
 31
0.0
  0
LINE
  5
15D
330
2F
100
AcDbEntity
  8
0
  6
Continuous
 62
     0
100
AcDbLine
 10
196.1257407462455
 20
208.8557724618461
 30
0.0
 11
196.8316910778347
 21
208.2634097989802
 31
0.0
  0
LINE
  5
15E
330
2F
100
AcDbEntity
  8
0
  6
Continuous
 62
     0
100
AcDbLine
 10
196.136389021392
 20
208.8598915709913
 30
0.0
 11
196.8316910778347
 21
208.2764638718735
 31
0.0
  0
LINE
  5
15F
330
2F
100
AcDbEntity
  8
0
  6
Continuous
 62
     0
100
AcDbLine
 10
196.1470372965386
 20
208.8640106801365
 30
0.0
 11
196.8316910778347
 21
208.2895179447668
 31
0.0
  0
LINE
  5
160
330
2F
100
AcDbEntity
  8
0
  6
Continuous
 62
     0
100
AcDbLine
 10
196.1576855716852
 20
208.8681297892817
 30
0.0
 11
196.8316910778347
 21
208.3025720176602
 31
0.0
  0
LINE
  5
161
330
2F
100
AcDbEntity
  8
0
  6
Continuous
 62
     0
100
AcDbLine
 10
196.1683338468318
 20
208.8722488984268
 30
0.0
 11
196.8316910778347
 21
208.3156260905535
 31
0.0
  0
LINE
  5
162
330
2F
100
AcDbEntity
  8
0
  6
Continuous
 62
     0
100
AcDbLine
 10
196.1789821219783
 20
208.876368007572
 30
0.0
 11
196.8316910778347
 21
208.3286801634468
 31
0.0
  0
LINE
  5
163
330
2F
100
AcDbEntity
  8
0
  6
Continuous
 62
     0
100
AcDbLine
 10
196.1896303971249
 20
208.8804871167172
 30
0.0
 11
196.8316910778347
 21
208.3417342363401
 31
0.0
  0
LINE
  5
164
330
2F
100
AcDbEntity
  8
0
  6
Continuous
 62
     0
100
AcDbLine
 10
196.2002786722714
 20
208.8846062258623
 30
0.0
 11
196.8316910778347
 21
208.3547883092334
 31
0.0
  0
LINE
  5
165
330
2F
100
AcDbEntity
  8
0
  6
Continuous
 62
     0
100
AcDbLine
 10
196.210926947418
 20
208.8887253350075
 30
0.0
 11
196.8316910778347
 21
208.3678423821267
 31
0.0
  0
LINE
  5
166
330
2F
100
AcDbEntity
  8
0
  6
Continuous
 62
     0
100
AcDbLine
 10
196.2215752225645
 20
208.8928444441527
 30
0.0
 11
196.8316910778347
 21
208.38089645502
 31
0.0
  0
LINE
  5
167
330
2F
100
AcDbEntity
  8
0
  6
Continuous
 62
     0
100
AcDbLine
 10
196.2322234977111
 20
208.8969635532978
 30
0.0
 11
196.8316910778347
 21
208.3939505279134
 31
0.0
  0
LINE
  5
168
330
2F
100
AcDbEntity
  8
0
  6
Continuous
 62
     0
100
AcDbLine
 10
196.2428717728577
 20
208.901082662443
 30
0.0
 11
196.8316910778347
 21
208.4070046008068
 31
0.0
  0
LINE
  5
169
330
2F
100
AcDbEntity
  8
0
  6
Continuous
 62
     0
100
AcDbLine
 10
196.2535200480042
 20
208.9052017715881
 30
0.0
 11
196.8316910778347
 21
208.4200586737001
 31
0.0
  0
LINE
  5
16A
330
2F
100
AcDbEntity
  8
0
  6
Continuous
 62
     0
100
AcDbLine
 10
196.2641683231508
 20
208.9093208807333
 30
0.0
 11
196.8316910778347
 21
208.4331127465934
 31
0.0
  0
LINE
  5
16B
330
2F
100
AcDbEntity
  8
0
  6
Continuous
 62
     0
100
AcDbLine
 10
196.2748165982973
 20
208.9134399898785
 30
0.0
 11
196.8316910778347
 21
208.4461668194867
 31
0.0
  0
LINE
  5
16C
330
2F
100
AcDbEntity
  8
0
  6
Continuous
 62
     0
100
AcDbLine
 10
196.2854648734439
 20
208.9175590990236
 30
0.0
 11
196.8316910778347
 21
208.45922089238
 31
0.0
  0
LINE
  5
16D
330
2F
100
AcDbEntity
  8
0
  6
Continuous
 62
     0
100
AcDbLine
 10
196.2961131485905
 20
208.9216782081688
 30
0.0
 11
196.8316910778347
 21
208.4722749652734
 31
0.0
  0
LINE
  5
16E
330
2F
100
AcDbEntity
  8
0
  6
Continuous
 62
     0
100
AcDbLine
 10
196.3067614237371
 20
208.925797317314
 30
0.0
 11
196.8316910778347
 21
208.4853290381667
 31
0.0
  0
LINE
  5
16F
330
2F
100
AcDbEntity
  8
0
  6
Continuous
 62
     0
100
AcDbLine
 10
196.3174096988836
 20
208.9299164264592
 30
0.0
 11
196.8316910778347
 21
208.49838311106
 31
0.0
  0
LINE
  5
170
330
2F
100
AcDbEntity
  8
0
  6
Continuous
 62
     0
100
AcDbLine
 10
196.3280579740302
 20
208.9340355356043
 30
0.0
 11
196.8316910778347
 21
208.5114371839533
 31
0.0
  0
LINE
  5
171
330
2F
100
AcDbEntity
  8
0
  6
Continuous
 62
     0
100
AcDbLine
 10
196.3387062491767
 20
208.9381546447495
 30
0.0
 11
196.8316910778347
 21
208.5244912568466
 31
0.0
  0
LINE
  5
172
330
2F
100
AcDbEntity
  8
0
  6
Continuous
 62
     0
100
AcDbLine
 10
196.3493545243233
 20
208.9422737538947
 30
0.0
 11
196.8316910778347
 21
208.5375453297399
 31
0.0
  0
LINE
  5
173
330
2F
100
AcDbEntity
  8
0
  6
Continuous
 62
     0
100
AcDbLine
 10
196.3600027994699
 20
208.9463928630399
 30
0.0
 11
196.8316910778347
 21
208.5505994026333
 31
0.0
  0
LINE
  5
174
330
2F
100
AcDbEntity
  8
0
  6
Continuous
 62
     0
100
AcDbLine
 10
196.3706510746164
 20
208.950511972185
 30
0.0
 11
196.8316910778347
 21
208.5636534755266
 31
0.0
  0
LINE
  5
175
330
2F
100
AcDbEntity
  8
0
  6
Continuous
 62
     0
100
AcDbLine
 10
196.381299349763
 20
208.9546310813302
 30
0.0
 11
196.8316910778347
 21
208.5767075484199
 31
0.0
  0
LINE
  5
176
330
2F
100
AcDbEntity
  8
0
  6
Continuous
 62
     0
100
AcDbLine
 10
196.3919476249095
 20
208.9587501904754
 30
0.0
 11
196.8316910778347
 21
208.5897616213133
 31
0.0
  0
LINE
  5
177
330
2F
100
AcDbEntity
  8
0
  6
Continuous
 62
     0
100
AcDbLine
 10
196.4025959000561
 20
208.9628692996205
 30
0.0
 11
196.8316910778347
 21
208.6028156942066
 31
0.0
  0
LINE
  5
178
330
2F
100
AcDbEntity
  8
0
  6
Continuous
 62
     0
100
AcDbLine
 10
196.4132441752026
 20
208.9669884087657
 30
0.0
 11
196.8316910778347
 21
208.6158697670999
 31
0.0
  0
LINE
  5
179
330
2F
100
AcDbEntity
  8
0
  6
Continuous
 62
     0
100
AcDbLine
 10
196.4238924503493
 20
208.9711075179109
 30
0.0
 11
196.8316910778347
 21
208.6289238399932
 31
0.0
  0
LINE
  5
17A
330
2F
100
AcDbEntity
  8
0
  6
Continuous
 62
     0
100
AcDbLine
 10
196.4345407254958
 20
208.975226627056
 30
0.0
 11
196.8316910778347
 21
208.6419779128866
 31
0.0
  0
LINE
  5
17B
330
2F
100
AcDbEntity
  8
0
  6
Continuous
 62
     0
100
AcDbLine
 10
196.4451890006424
 20
208.9793457362012
 30
0.0
 11
196.8316910778347
 21
208.6550319857799
 31
0.0
  0
LINE
  5
17C
330
2F
100
AcDbEntity
  8
0
  6
Continuous
 62
     0
100
AcDbLine
 10
196.4558372757889
 20
208.9834648453464
 30
0.0
 11
196.8316910778347
 21
208.6680860586732
 31
0.0
  0
LINE
  5
17D
330
2F
100
AcDbEntity
  8
0
  6
Continuous
 62
     0
100
AcDbLine
 10
196.4664855509355
 20
208.9875839544915
 30
0.0
 11
196.8316910778347
 21
208.6811401315665
 31
0.0
  0
LINE
  5
17E
330
2F
100
AcDbEntity
  8
0
  6
Continuous
 62
     0
100
AcDbLine
 10
196.477133826082
 20
208.9917030636367
 30
0.0
 11
196.8316910778347
 21
208.6941942044598
 31
0.0
  0
LINE
  5
17F
330
2F
100
AcDbEntity
  8
0
  6
Continuous
 62
     0
100
AcDbLine
 10
196.4877821012286
 20
208.9958221727818
 30
0.0
 11
196.8316910778347
 21
208.7072482773531
 31
0.0
  0
LINE
  5
180
330
2F
100
AcDbEntity
  8
0
  6
Continuous
 62
     0
100
AcDbLine
 10
196.4984303763752
 20
208.999941281927
 30
0.0
 11
196.8316910778347
 21
208.7203023502465
 31
0.0
  0
LINE
  5
181
330
2F
100
AcDbEntity
  8
0
  6
Continuous
 62
     0
100
AcDbLine
 10
196.5090786515217
 20
209.0040603910722
 30
0.0
 11
196.8316910778347
 21
208.7333564231398
 31
0.0
  0
LINE
  5
182
330
2F
100
AcDbEntity
  8
0
  6
Continuous
 62
     0
100
AcDbLine
 10
196.5197269266683
 20
209.0081795002174
 30
0.0
 11
196.8316910778347
 21
208.7464104960331
 31
0.0
  0
LINE
  5
183
330
2F
100
AcDbEntity
  8
0
  6
Continuous
 62
     0
100
AcDbLine
 10
196.5303752018148
 20
209.0122986093625
 30
0.0
 11
196.8316910778347
 21
208.7594645689264
 31
0.0
  0
LINE
  5
184
330
2F
100
AcDbEntity
  8
0
  6
Continuous
 62
     0
100
AcDbLine
 10
196.5410234769614
 20
209.0164177185077
 30
0.0
 11
196.8316910778347
 21
208.7725186418198
 31
0.0
  0
LINE
  5
185
330
2F
100
AcDbEntity
  8
0
  6
Continuous
 62
     0
100
AcDbLine
 10
196.5516717521079
 20
209.0205368276529
 30
0.0
 11
196.8316910778347
 21
208.7855727147131
 31
0.0
  0
LINE
  5
186
330
2F
100
AcDbEntity
  8
0
  6
Continuous
 62
     0
100
AcDbLine
 10
196.5623200272546
 20
209.024655936798
 30
0.0
 11
196.8316910778347
 21
208.7986267876064
 31
0.0
  0
LINE
  5
187
330
2F
100
AcDbEntity
  8
0
  6
Continuous
 62
     0
100
AcDbLine
 10
196.5729683024011
 20
209.0287750459432
 30
0.0
 11
196.8316910778347
 21
208.8116808604997
 31
0.0
  0
LINE
  5
188
330
2F
100
AcDbEntity
  8
0
  6
Continuous
 62
     0
100
AcDbLine
 10
196.5836165775477
 20
209.0328941550884
 30
0.0
 11
196.8316910778347
 21
208.8247349333931
 31
0.0
  0
LINE
  5
189
330
2F
100
AcDbEntity
  8
0
  6
Continuous
 62
     0
100
AcDbLine
 10
196.5942648526942
 20
209.0370132642335
 30
0.0
 11
196.8316910778347
 21
208.8377890062864
 31
0.0
  0
LINE
  5
18A
330
2F
100
AcDbEntity
  8
0
  6
Continuous
 62
     0
100
AcDbLine
 10
196.6049131278408
 20
209.0411323733787
 30
0.0
 11
196.8316910778347
 21
208.8508430791797
 31
0.0
  0
LINE
  5
18B
330
2F
100
AcDbEntity
  8
0
  6
Continuous
 62
     0
100
AcDbLine
 10
196.6155614029873
 20
209.0452514825239
 30
0.0
 11
196.8316910778347
 21
208.863897152073
 31
0.0
  0
LINE
  5
18C
330
2F
100
AcDbEntity
  8
0
  6
Continuous
 62
     0
100
AcDbLine
 10
196.6262096781339
 20
209.0493705916691
 30
0.0
 11
196.8316910778347
 21
208.8769512249664
 31
0.0
  0
LINE
  5
18D
330
2F
100
AcDbEntity
  8
0
  6
Continuous
 62
     0
100
AcDbLine
 10
196.6368579532805
 20
209.0534897008142
 30
0.0
 11
196.8316910778347
 21
208.8900052978597
 31
0.0
  0
LINE
  5
18E
330
2F
100
AcDbEntity
  8
0
  6
Continuous
 62
     0
100
AcDbLine
 10
196.647506228427
 20
209.0576088099594
 30
0.0
 11
196.8316910778347
 21
208.903059370753
 31
0.0
  0
LINE
  5
18F
330
2F
100
AcDbEntity
  8
0
  6
Continuous
 62
     0
100
AcDbLine
 10
196.6581545035736
 20
209.0617279191046
 30
0.0
 11
196.8316910778347
 21
208.9161134436463
 31
0.0
  0
LINE
  5
190
330
2F
100
AcDbEntity
  8
0
  6
Continuous
 62
     0
100
AcDbLine
 10
196.6688027787201
 20
209.0658470282497
 30
0.0
 11
196.8316910778347
 21
208.9291675165396
 31
0.0
  0
LINE
  5
191
330
2F
100
AcDbEntity
  8
0
  6
Continuous
 62
     0
100
AcDbLine
 10
196.6794510538667
 20
209.0699661373949
 30
0.0
 11
196.8316910778347
 21
208.9422215894329
 31
0.0
  0
LINE
  5
192
330
2F
100
AcDbEntity
  8
0
  6
Continuous
 62
     0
100
AcDbLine
 10
196.6900993290133
 20
209.0740852465401
 30
0.0
 11
196.8316910778347
 21
208.9552756623263
 31
0.0
  0
LINE
  5
193
330
2F
100
AcDbEntity
  8
0
  6
Continuous
 62
     0
100
AcDbLine
 10
196.7007476041598
 20
209.0782043556853
 30
0.0
 11
196.8316910778347
 21
208.9683297352196
 31
0.0
  0
LINE
  5
194
330
2F
100
AcDbEntity
  8
0
  6
Continuous
 62
     0
100
AcDbLine
 10
196.7113958793064
 20
209.0823234648304
 30
0.0
 11
196.8316910778347
 21
208.9813838081129
 31
0.0
  0
LINE
  5
195
330
2F
100
AcDbEntity
  8
0
  6
Continuous
 62
     0
100
AcDbLine
 10
196.722044154453
 20
209.0864425739756
 30
0.0
 11
196.8316910778347
 21
208.9944378810062
 31
0.0
  0
LINE
  5
196
330
2F
100
AcDbEntity
  8
0
  6
Continuous
 62
     0
100
AcDbLine
 10
196.7326924295995
 20
209.0905616831208
 30
0.0
 11
196.8316910778347
 21
209.0074919538996
 31
0.0
  0
LINE
  5
197
330
2F
100
AcDbEntity
  8
0
  6
Continuous
 62
     0
100
AcDbLine
 10
196.743340704746
 20
209.0946807922659
 30
0.0
 11
196.8316910778347
 21
209.0205460267929
 31
0.0
  0
LINE
  5
198
330
2F
100
AcDbEntity
  8
0
  6
Continuous
 62
     0
100
AcDbLine
 10
196.7539889798926
 20
209.0987999014111
 30
0.0
 11
196.8316910778347
 21
209.0336000996862
 31
0.0
  0
LINE
  5
199
330
2F
100
AcDbEntity
  8
0
  6
Continuous
 62
     0
100
AcDbLine
 10
196.7646372550392
 20
209.1029190105563
 30
0.0
 11
196.8316910778347
 21
209.0466541725796
 31
0.0
  0
LINE
  5
19A
330
2F
100
AcDbEntity
  8
0
  6
Continuous
 62
     0
100
AcDbLine
 10
196.7752855301858
 20
209.1070381197015
 30
0.0
 11
196.8316910778347
 21
209.0597082454729
 31
0.0
  0
LINE
  5
19B
330
2F
100
AcDbEntity
  8
0
  6
Continuous
 62
     0
100
AcDbLine
 10
196.7859338053323
 20
209.1111572288466
 30
0.0
 11
196.8316910778347
 21
209.0727623183662
 31
0.0
  0
LINE
  5
19C
330
2F
100
AcDbEntity
  8
0
  6
Continuous
 62
     0
100
AcDbLine
 10
196.7965820804789
 20
209.1152763379918
 30
0.0
 11
196.8316910778347
 21
209.0858163912595
 31
0.0
  0
LINE
  5
19D
330
2F
100
AcDbEntity
  8
0
  6
Continuous
 62
     0
100
AcDbLine
 10
196.8072303556254
 20
209.119395447137
 30
0.0
 11
196.8316910778347
 21
209.0988704641528
 31
0.0
  0
LINE
  5
19E
330
2F
100
AcDbEntity
  8
0
  6
Continuous
 62
     0
100
AcDbLine
 10
196.817878630772
 20
209.1235145562821
 30
0.0
 11
196.8316910778347
 21
209.1119245370461
 31
0.0
  0
LINE
  5
19F
330
2F
100
AcDbEntity
  8
0
  6
Continuous
 62
     0
100
AcDbLine
 10
196.8285269059186
 20
209.1276336654273
 30
0.0
 11
196.8316910778347
 21
209.1249786099395
 31
0.0
  0
ENDBLK
  5
1A0
330
2F
100
AcDbEntity
  8
BASE
  6
Continuous
100
AcDbBlockEnd
  0
BLOCK
  5
1A1
330
30
100
AcDbEntity
  8
0
  6
DASHED
100
AcDbBlockBegin
  2
ABBA3V
 70
     0
 10
0.0
 20
0.0
 30
0.0
  3
ABBA3V
  1

  0
TEXT
  5
1A2
330
30
100
AcDbEntity
  8
RAAMI
  6
DASHED
100
AcDbText
 10
292.217194262135
 20
11.81335905974098
 30
0.0
 40
3.0
  1
A3
  7
GREEKS
100
AcDbText
  0
TEXT
  5
1A3
330
30
100
AcDbEntity
  8
RAAMI
  6
DASHED
100
AcDbText
 10
351.8185767466981
 20
15.69252984362215
 30
0.0
 40
1.399999999999999
  1
LEHTI SHEET
  7
GREEKS
100
AcDbText
  0
LINE
  5
1A4
330
30
100
AcDbEntity
  8
PAKSU
100
AcDbLine
 10
0.2370990874900258
 20
262.7379992524221
 30
0.0
 11
392.23709908749
 21
262.7379992524221
 31
0.0
  0
LINE
  5
1A5
330
30
100
AcDbEntity
  8
RAAMI
100
AcDbLine
 10
18.23709908749002
 20
0.2379992524221779
 30
0.0
 11
0.2370990874900258
 21
0.2379992524221779
 31
0.0
  0
LINE
  5
1A6
330
30
100
AcDbEntity
  8
PAKSU
100
AcDbLine
 10
209.23709908749
 20
0.2379992524221779
 30
0.0
 11
392.23709908749
 21
0.2379992524221779
 31
0.0
  0
LINE
  5
1A7
330
30
100
AcDbEntity
  8
PAKSU
100
AcDbLine
 10
209.23709908749
 20
0.2379992524221779
 30
0.0
 11
209.23709908749
 21
35.23799925242217
 31
0.0
  0
LINE
  5
1A8
330
30
100
AcDbEntity
  8
PAKSU
100
AcDbLine
 10
392.23709908749
 20
0.2379992524221779
 30
0.0
 11
392.23709908749
 21
35.23799925242217
 31
0.0
  0
LINE
  5
1A9
330
30
100
AcDbEntity
  8
OHUT
100
AcDbLine
 10
209.23709908749
 20
18.23799925242217
 30
0.0
 11
392.23709908749
 21
18.23799925242217
 31
0.0
  0
LINE
  5
1AA
330
30
100
AcDbEntity
  8
OHUT
100
AcDbLine
 10
209.23709908749
 20
9.737999252422177
 30
0.0
 11
392.23709908749
 21
9.737999252422177
 31
0.0
  0
LINE
  5
1AB
330
30
100
AcDbEntity
  8
OHUT
100
AcDbLine
 10
209.23709908749
 20
26.73799925242217
 30
0.0
 11
307.23709908749
 21
26.73799925242217
 31
0.0
  0
LINE
  5
1AC
330
30
100
AcDbEntity
  8
PAKSU
100
AcDbLine
 10
209.23709908749
 20
35.23799925242217
 30
0.0
 11
392.23709908749
 21
35.23799925242217
 31
0.0
  0
TEXT
  5
1AD
330
30
100
AcDbEntity
  8
RAAMI
100
AcDbText
 10
210.23709908749
 20
23.97133258575551
 30
0.0
 40
1.399999999999999
  1
TARKASTI  CHECKED
  7
ROMANS
100
AcDbText
  0
TEXT
  5
1AF
330
30
100
AcDbEntity
  8
RAAMI
100
AcDbText
 10
209.9799338133564
 20
15.70466591908884
 30
0.0
 40
1.399999999999999
  1
HYVKSYI  APPROVED
  7
ROMANS
100
AcDbText
  0
LINE
  5
1B0
330
30
100
AcDbEntity
  8
OHUT
100
AcDbLine
 10
307.23709908749
 20
0.2379992524221779
 30
0.0
 11
307.23709908749
 21
35.23799925242217
 31
0.0
  0
TEXT
  5
1B1
330
30
100
AcDbEntity
  8
RAAMI
100
AcDbText
 10
259.23709908749
 20
32.73799925242217
 30
0.0
 40
1.399999999999999
  1
LIITTYY  CONCERNING
  7
ROMANS
100
AcDbText
  0
TEXT
  5
1B2
330
30
100
AcDbEntity
  8
RAAMI
100
AcDbText
 10
259.23709908749
 20
23.73799925242217
 30
0.0
 40
1.399999999999999
  1
TOLERANSSIT  TOLERANCES
  7
ROMANS
100
AcDbText
  0
TEXT
  5
1B3
330
30
100
AcDbEntity
  8
RAAMI
100
AcDbText
 10
259.23709908749
 20
15.73799925242217
 30
0.0
 40
1.399999999999999
  1
SUHDE  SCALE
  7
ROMANS
100
AcDbText
  0
TEXT
  5
1B4
330
30
100
AcDbEntity
  8
RAAMI
100
AcDbText
 10
309.23709908749
 20
32.73799925242217
 30
0.0
 40
1.399999999999999
  1
NIMITYS  NAME
  7
ROMANS
100
AcDbText
  0
TEXT
  5
1B5
330
30
100
AcDbEntity
  8
RAAMI
100
AcDbText
 10
309.23709908749
 20
15.73799925242217
 30
0.0
 40
1.399999999999999
  1
KOODI  CODE
  7
ROMANS
100
AcDbText
  0
TEXT
  5
1B6
330
30
100
AcDbEntity
  8
RAAMI
100
AcDbText
 10
309.23709908749
 20
7.237999252422177
 30
0.0
 40
1.399999999999999
  1
PIIRUSTUS NO  DRAWING NR
  7
ROMANS
100
AcDbText
  0
LINE
  5
1B7
330
30
100
AcDbEntity
  8
OHUT
100
AcDbLine
 10
349.73709908749
 20
9.737999252422177
 30
0.0
 11
349.73709908749
 21
18.23799925242217
 31
0.0
  0
TEXT
  5
1B8
330
30
100
AcDbEntity
  8
RAAMI
100
AcDbText
 10
371.23709908749
 20
7.237999252422177
 30
0.0
 40
1.399999999999999
  1
PAINOS  REVISION
  7
ROMANS
100
AcDbText
  0
LINE
  5
1B9
330
30
100
AcDbEntity
  8
OHUT
100
AcDbLine
 10
369.73709908749
 20
9.737999252422177
 30
0.0
 11
369.73709908749
 21
0.2379992524221779
 31
0.0
  0
LINE
  5
1BA
330
30
100
AcDbEntity
  8
RAAMI
100
AcDbLine
 10
210.18709908749
 20
1.737999252422177
 30
0.0
 11
211.93709908749
 21
1.737999252422177
 31
0.0
  0
LINE
  5
1BB
330
30
100
AcDbEntity
  8
RAAMI
100
AcDbLine
 10
215.43709908749
 20
1.737999252422177
 30
0.0
 11
217.18709908749
 21
1.737999252422177
 31
0.0
  0
LINE
  5
1BC
330
30
100
AcDbEntity
  8
RAAMI
100
AcDbLine
 10
212.63709908749
 20
8.737999252422177
 30
0.0
 11
211.4595712478463
 21
5.373633996297456
 31
0.0
  0
LINE
  5
1BD
330
30
100
AcDbEntity
  8
RAAMI
100
AcDbLine
 10
212.4258857855872
 20
3.137999252422176
 30
0.0
 11
213.54709908749
 21
3.137999252422176
 31
0.0
  0
LINE
  5
1BE
330
30
100
AcDbEntity
  8
RAAMI
100
AcDbLine
 10
212.4258889824527
 20
3.134541809458486
 30
0.0
 11
211.93709908749
 21
1.737999252422177
 31
0.0
  0
LINE
  5
1BF
330
30
100
AcDbEntity
  8
RAAMI
100
AcDbLine
 10
214.73709908749
 20
8.737999252422177
 30
0.0
 11
215.9134520127146
 21
5.376990894637707
 31
0.0
  0
LINE
  5
1C0
330
30
100
AcDbEntity
  8
RAAMI
100
AcDbLine
 10
214.9481967907755
 20
3.134862957320585
 30
0.0
 11
215.43709908749
 21
1.737999252422177
 31
0.0
  0
LINE
  5
1C1
330
30
100
AcDbEntity
  8
RAAMI
100
AcDbLine
 10
214.73709908749
 20
8.737999252422177
 30
0.0
 11
213.82709908749
 21
8.737999252422177
 31
0.0
  0
LINE
  5
1C2
330
30
100
AcDbEntity
  8
RAAMI
100
AcDbLine
 10
213.54709908749
 20
8.737999252422177
 30
0.0
 11
213.54709908749
 21
5.377999252422178
 31
0.0
  0
LINE
  5
1C3
330
30
100
AcDbEntity
  8
RAAMI
100
AcDbLine
 10
213.82709908749
 20
8.737999252422177
 30
0.0
 11
213.82709908749
 21
5.377999252422178
 31
0.0
  0
LINE
  5
1C4
330
30
100
AcDbEntity
  8
RAAMI
100
AcDbLine
 10
213.82709908749
 20
3.137999252422176
 30
0.0
 11
214.9469924809167
 21
3.137999252422176
 31
0.0
  0
LINE
  5
1C5
330
30
100
AcDbEntity
  8
RAAMI
100
AcDbLine
 10
213.54709908749
 20
8.737999252422177
 30
0.0
 11
212.63709908749
 21
8.737999252422177
 31
0.0
  0
LINE
  5
1C6
330
30
100
AcDbEntity
  8
RAAMI
100
AcDbLine
 10
211.4590398011296
 20
5.377999252422178
 30
0.0
 11
213.54709908749
 21
5.377999252422178
 31
0.0
  0
LINE
  5
1C7
330
30
100
AcDbEntity
  8
RAAMI
100
AcDbLine
 10
211.3600815769602
 20
5.097999252422177
 30
0.0
 11
213.54709908749
 21
5.097999252422177
 31
0.0
  0
LINE
  5
1C8
330
30
100
AcDbEntity
  8
RAAMI
100
AcDbLine
 10
216.0115910012183
 20
5.096593784627025
 30
0.0
 11
217.18709908749
 21
1.737999252422177
 31
0.0
  0
LINE
  5
1C9
330
30
100
AcDbEntity
  8
RAAMI
100
AcDbLine
 10
213.82709908749
 20
5.377999252422178
 30
0.0
 11
215.9122127349171
 21
5.377999252422178
 31
0.0
  0
LINE
  5
1CA
330
30
100
AcDbEntity
  8
RAAMI
100
AcDbLine
 10
213.82709908749
 20
5.097999252422177
 30
0.0
 11
216.0103556182099
 21
5.097999252422177
 31
0.0
  0
LINE
  5
1CB
330
30
100
AcDbEntity
  8
RAAMI
100
AcDbLine
 10
213.82709908749
 20
5.097999252422177
 30
0.0
 11
213.82709908749
 21
3.137999252422176
 31
0.0
  0
LINE
  5
1CC
330
30
100
AcDbEntity
  8
RAAMI
100
AcDbLine
 10
213.54709908749
 20
5.097999252422177
 30
0.0
 11
213.54709908749
 21
3.137999252422176
 31
0.0
  0
LINE
  5
1CD
330
30
100
AcDbEntity
  8
RAAMI
100
AcDbLine
 10
211.3569877289154
 20
5.080538227923291
 30
0.0
 11
210.18709908749
 21
1.737999252422177
 31
0.0
  0
INSERT
  5
1CE
330
30
100
AcDbEntity
  8
RAAMI
100
AcDbBlockReference
  2
*X15
 10
210.18709908749
 20
1.737999252422177
 30
0.0
 41
0.7
 42
0.7
 43
0.7
  0
INSERT
  5
1CF
330
30
100
AcDbEntity
  8
RAAMI
100
AcDbBlockReference
  2
*X16
 10
210.18709908749
 20
1.737999252422177
 30
0.0
 41
0.7
 42
0.7
 43
0.7
  0
INSERT
  5
1D0
330
30
100
AcDbEntity
  8
RAAMI
100
AcDbBlockReference
  2
*X17
 10
210.18709908749
 20
1.737999252422177
 30
0.0
 41
0.7
 42
0.7
 43
0.7
  0
INSERT
  5
1D1
330
30
100
AcDbEntity
  8
RAAMI
100
AcDbBlockReference
  2
*X18
 10
210.18709908749
 20
1.737999252422177
 30
0.0
 41
0.7
 42
0.7
 43
0.7
  0
LINE
  5
1D2
330
30
100
AcDbEntity
  8
RAAMI
100
AcDbLine
 10
217.67709908749
 20
1.737999252422177
 30
0.0
 11
217.67709908749
 21
5.097999252422177
 31
0.0
  0
LINE
  5
1D3
330
30
100
AcDbEntity
  8
RAAMI
100
AcDbLine
 10
217.67709908749
 20
8.737999252422177
 30
0.0
 11
219.63709908749
 21
8.737999252422177
 31
0.0
  0
LINE
  5
1D4
330
30
100
AcDbEntity
  8
RAAMI
100
AcDbLine
 10
219.63709908749
 20
8.737999252422177
 30
0.0
 11
219.63709908749
 21
5.377999252422178
 31
0.0
  0
LINE
  5
1D5
330
30
100
AcDbEntity
  8
RAAMI
100
AcDbLine
 10
219.63709908749
 20
5.377999252422178
 30
0.0
 11
217.67709908749
 21
5.377999252422178
 31
0.0
  0
LINE
  5
1D6
330
30
100
AcDbEntity
  8
RAAMI
100
AcDbLine
 10
217.67709908749
 20
5.097999252422177
 30
0.0
 11
219.63709908749
 21
5.097999252422177
 31
0.0
  0
LINE
  5
1D7
330
30
100
AcDbEntity
  8
RAAMI
100
AcDbLine
 10
219.63709908749
 20
5.097999252422177
 30
0.0
 11
219.63709908749
 21
1.737999252422177
 31
0.0
  0
LINE
  5
1D8
330
30
100
AcDbEntity
  8
RAAMI
100
AcDbLine
 10
219.63709908749
 20
1.737999252422177
 30
0.0
 11
217.67709908749
 21
1.737999252422177
 31
0.0
  0
LINE
  5
1D9
330
30
100
AcDbEntity
  8
RAAMI
100
AcDbLine
 10
217.67709908749
 20
5.377999252422178
 30
0.0
 11
217.67709908749
 21
8.737999252422177
 31
0.0
  0
ARC
  5
1DA
330
30
100
AcDbEntity
  8
RAAMI
100
AcDbCircle
 10
220.47709908749
 20
7.162999252422174
 30
0.0
 40
1.574999999999998
100
AcDbArc
 50
298.4558593394117
 51
90.0524369955635
  0
LINE
  5
1DB
330
30
100
AcDbEntity
  8
RAAMI
100
AcDbLine
 10
219.91709908749
 20
8.737999252422177
 30
0.0
 11
220.4756576504909
 21
8.737998592821838
 31
0.0
  0
LINE
  5
1DC
330
30
100
AcDbEntity
  8
RAAMI
100
AcDbLine
 10
219.91709908749
 20
8.737999252422177
 30
0.0
 11
219.91709908749
 21
5.377999252422178
 31
0.0
  0
LINE
  5
1DD
330
30
100
AcDbEntity
  8
RAAMI
100
AcDbLine
 10
219.91709908749
 20
5.377999252422178
 30
0.0
 11
221.9015418540271
 21
5.377999252422178
 31
0.0
  0
LINE
  5
1DE
330
30
100
AcDbEntity
  8
RAAMI
100
AcDbLine
 10
222.15709908749
 20
5.097999252422177
 30
0.0
 11
219.91709908749
 21
5.097999252422177
 31
0.0
  0
LINE
  5
1DF
330
30
100
AcDbEntity
  8
RAAMI
100
AcDbLine
 10
219.91709908749
 20
5.097999252422177
 30
0.0
 11
219.91709908749
 21
1.737999252422177
 31
0.0
  0
ARC
  5
1E0
330
30
100
AcDbEntity
  8
RAAMI
100
AcDbCircle
 10
220.47709908749
 20
3.837999252422179
 30
0.0
 40
2.099999999999998
100
AcDbArc
 50
269.9377244294032
 51
37.05655321680703
  0
LINE
  5
1E1
330
30
100
AcDbEntity
  8
RAAMI
100
AcDbLine
 10
219.91709908749
 20
1.737999252422177
 30
0.0
 11
220.4748165690634
 21
1.738000492872633
 31
0.0
  0
ARC
  5
1E2
330
30
100
AcDbEntity
  8
RAAMI
100
AcDbCircle
 10
220.47709908749
 20
3.837999252422179
 30
0.0
 40
2.099999999999998
100
AcDbArc
 50
47.28621969132301
 51
68.78799932186918
  0
INSERT
  5
1E3
330
30
100
AcDbEntity
  8
RAAMI
100
AcDbBlockReference
  2
*X19
 10
210.18709908749
 20
1.737999252422177
 30
0.0
 41
0.7
 42
0.7
 43
0.7
  0
INSERT
  5
1E4
330
30
100
AcDbEntity
  8
RAAMI
100
AcDbBlockReference
  2
*X20
 10
210.18709908749
 20
1.737999252422177
 30
0.0
 41
0.7
 42
0.7
 43
0.7
  0
INSERT
  5
1E5
330
30
100
AcDbEntity
  8
RAAMI
100
AcDbBlockReference
  2
*X21
 10
210.18709908749
 20
1.737999252422177
 30
0.0
 41
0.7
 42
0.7
 43
0.7
  0
INSERT
  5
1E6
330
30
100
AcDbEntity
  8
RAAMI
100
AcDbBlockReference
  2
*X22
 10
210.18709908749
 20
1.737999252422177
 30
0.0
 41
0.7
 42
0.7
 43
0.7
  0
INSERT
  5
1E7
330
30
100
AcDbEntity
  8
RAAMI
100
AcDbBlockReference
  2
*X22
 10
215.64709908749
 20
1.737999252422177
 30
0.0
 41
0.7
 42
0.7
 43
0.7
  0
INSERT
  5
1E8
330
30
100
AcDbEntity
  8
RAAMI
100
AcDbBlockReference
  2
*X21
 10
215.64709908749
 20
1.737999252422177
 30
0.0
 41
0.7
 42
0.7
 43
0.7
  0
INSERT
  5
1E9
330
30
100
AcDbEntity
  8
RAAMI
100
AcDbBlockReference
  2
*X20
 10
215.64709908749
 20
1.737999252422177
 30
0.0
 41
0.7
 42
0.7
 43
0.7
  0
INSERT
  5
1EA
330
30
100
AcDbEntity
  8
RAAMI
100
AcDbBlockReference
  2
*X19
 10
215.64709908749
 20
1.737999252422177
 30
0.0
 41
0.7
 42
0.7
 43
0.7
  0
ARC
  5
1EB
330
30
100
AcDbEntity
  8
RAAMI
100
AcDbCircle
 10
225.93709908749
 20
3.837999252422179
 30
0.0
 40
2.099999999999998
100
AcDbArc
 50
47.28621969132301
 51
68.78799932186918
  0
LINE
  5
1EC
330
30
100
AcDbEntity
  8
RAAMI
100
AcDbLine
 10
225.37709908749
 20
1.737999252422177
 30
0.0
 11
225.9348165690634
 21
1.738000492872633
 31
0.0
  0
ARC
  5
1ED
330
30
100
AcDbEntity
  8
RAAMI
100
AcDbCircle
 10
225.93709908749
 20
3.837999252422179
 30
0.0
 40
2.099999999999998
100
AcDbArc
 50
269.9377244294032
 51
37.05655321680703
  0
LINE
  5
1EE
330
30
100
AcDbEntity
  8
RAAMI
100
AcDbLine
 10
225.37709908749
 20
5.097999252422177
 30
0.0
 11
225.37709908749
 21
1.737999252422177
 31
0.0
  0
LINE
  5
1EF
330
30
100
AcDbEntity
  8
RAAMI
100
AcDbLine
 10
227.61709908749
 20
5.097999252422177
 30
0.0
 11
225.37709908749
 21
5.097999252422177
 31
0.0
  0
LINE
  5
1F0
330
30
100
AcDbEntity
  8
RAAMI
100
AcDbLine
 10
225.37709908749
 20
5.377999252422178
 30
0.0
 11
227.3615418540271
 21
5.377999252422178
 31
0.0
  0
LINE
  5
1F1
330
30
100
AcDbEntity
  8
RAAMI
100
AcDbLine
 10
225.37709908749
 20
8.737999252422177
 30
0.0
 11
225.37709908749
 21
5.377999252422178
 31
0.0
  0
LINE
  5
1F2
330
30
100
AcDbEntity
  8
RAAMI
100
AcDbLine
 10
225.37709908749
 20
8.737999252422177
 30
0.0
 11
225.9356576504909
 21
8.737998592821838
 31
0.0
  0
ARC
  5
1F3
330
30
100
AcDbEntity
  8
RAAMI
100
AcDbCircle
 10
225.93709908749
 20
7.162999252422174
 30
0.0
 40
1.574999999999998
100
AcDbArc
 50
298.4558593394117
 51
90.0524369955635
  0
LINE
  5
1F4
330
30
100
AcDbEntity
  8
RAAMI
100
AcDbLine
 10
223.13709908749
 20
5.377999252422178
 30
0.0
 11
223.13709908749
 21
8.737999252422177
 31
0.0
  0
LINE
  5
1F5
330
30
100
AcDbEntity
  8
RAAMI
100
AcDbLine
 10
225.09709908749
 20
1.737999252422177
 30
0.0
 11
223.13709908749
 21
1.737999252422177
 31
0.0
  0
LINE
  5
1F6
330
30
100
AcDbEntity
  8
RAAMI
100
AcDbLine
 10
225.09709908749
 20
5.097999252422177
 30
0.0
 11
225.09709908749
 21
1.737999252422177
 31
0.0
  0
LINE
  5
1F7
330
30
100
AcDbEntity
  8
RAAMI
100
AcDbLine
 10
223.13709908749
 20
5.097999252422177
 30
0.0
 11
225.09709908749
 21
5.097999252422177
 31
0.0
  0
LINE
  5
1F8
330
30
100
AcDbEntity
  8
RAAMI
100
AcDbLine
 10
225.09709908749
 20
5.377999252422178
 30
0.0
 11
223.13709908749
 21
5.377999252422178
 31
0.0
  0
LINE
  5
1F9
330
30
100
AcDbEntity
  8
RAAMI
100
AcDbLine
 10
225.09709908749
 20
8.737999252422177
 30
0.0
 11
225.09709908749
 21
5.377999252422178
 31
0.0
  0
LINE
  5
1FA
330
30
100
AcDbEntity
  8
RAAMI
100
AcDbLine
 10
223.13709908749
 20
8.737999252422177
 30
0.0
 11
225.09709908749
 21
8.737999252422177
 31
0.0
  0
LINE
  5
1FB
330
30
100
AcDbEntity
  8
RAAMI
100
AcDbLine
 10
223.13709908749
 20
1.737999252422177
 30
0.0
 11
223.13709908749
 21
5.097999252422177
 31
0.0
  0
TEXT
  5
1FC
330
30
100
AcDbEntity
  8
RAAMI
100
AcDbText
 10
229.73709908749
 20
1.737999252422177
 30
0.0
 40
3.0
  1
ABB 
 41
0.8
  7
ROMANS
100
AcDbText
  0
TEXT
  5
1FD
330
30
100
AcDbEntity
  8
RAAMI
100
AcDbText
 10
237.73709908749
 20
1.737999252422177
 30
0.0
 40
3.0
  1
Strmberg
 41
0.8
  7
ROMANS
100
AcDbText
  0
LINE
  5
1FE
330
30
100
AcDbEntity
  8
OHUT
100
AcDbLine
 10
282.23709908749
 20
9.737999252422177
 30
0.0
 11
282.23709908749
 21
18.23799925242217
 31
0.0
  0
TEXT
  5
1FF
330
30
100
AcDbEntity
  8
RAAMI
100
AcDbText
 10
27.73709908749002
 20
4.737999252422177
 30
0.0
 40
1.399999999999999
  1
MUUTOS
  7
ROMANS
100
AcDbText
  0
TEXT
  5
200
330
30
100
AcDbEntity
  8
RAAMI
100
AcDbText
 10
27.73709908749002
 20
2.471332585755512
 30
0.0
 40
1.399999999999999
  1
REVISION
  7
ROMANS
100
AcDbText
  0
LINE
  5
201
330
30
100
AcDbEntity
  8
OHUT
100
AcDbLine
 10
46.73709908749002
 20
9.237999252422177
 30
0.0
 11
209.23709908749
 21
9.237999252422177
 31
0.0
  0
LINE
  5
202
330
30
100
AcDbEntity
  8
OHUT
100
AcDbLine
 10
46.73709908749002
 20
0.2379992524221779
 30
0.0
 11
46.73709908749002
 21
9.237999252422177
 31
0.0
  0
LINE
  5
203
330
30
100
AcDbEntity
  8
OHUT
100
AcDbLine
 10
40.73709908749002
 20
4.737999252422177
 30
0.0
 11
209.23709908749
 21
4.737999252422177
 31
0.0
  0
LINE
  5
204
330
30
100
AcDbEntity
  8
OHUT
100
AcDbLine
 10
257.23709908749
 20
9.737999252422177
 30
0.0
 11
257.23709908749
 21
35.23799925242217
 31
0.0
  0
LINE
  5
205
330
30
100
AcDbEntity
  8
OHUT
100
AcDbLine
 10
271.23709908749
 20
9.737999252422177
 30
0.0
 11
271.23709908749
 21
0.2379992524221779
 31
0.0
  0
TEXT
  5
206
330
30
100
AcDbEntity
  8
RAAMI
100
AcDbText
 10
210.23709908749
 20
32.23799925242218
 30
0.0
 40
1.399999999999999
  1
TEKI  PREPARED
  7
ROMANS
100
AcDbText
  0
TEXT
  5
207
330
30
100
AcDbEntity
  8
RAAMI
100
AcDbText
 10
273.23709908749
 20
7.237999252422177
 30
0.0
 40
1.399999999999999
  1
VAST.OSASTO RESP.DEPT.
  7
ROMANS
100
AcDbText
  0
TEXT
  5
208
330
30
100
AcDbEntity
  8
RAAMI
100
AcDbText
 10
257.4070059842234
 20
1.741782898647898
 30
0.0
 40
3.0
  1
Power
 41
0.8
  7
ROMANS
100
AcDbText
  0
TEXT
  5
209
330
30
100
AcDbEntity
  8
RAAMI
100
AcDbText
 10
42.23709908749002
 20
1.195292064563767
 30
0.0
 40
2.5
  1
B
  7
ROMANS
100
AcDbText
  0
TEXT
  5
20A
330
30
100
AcDbEntity
  8
RAAMI
100
AcDbText
 10
42.23709908749002
 20
5.587508451304787
 30
0.0
 40
2.5
  1
C
  7
ROMANS
100
AcDbText
  0
LINE
  5
20B
330
30
100
AcDbEntity
  8
PAKSU
100
AcDbLine
 10
0.2370990874900258
 20
0.2379992524221779
 30
0.0
 11
392.23709908749
 21
0.2379992524221779
 31
0.0
  0
LINE
  5
20C
330
30
100
AcDbEntity
  8
PAKSU
100
AcDbLine
 10
392.23709908749
 20
262.7379992524221
 30
0.0
 11
392.23709908749
 21
0.2379992524221779
 31
0.0
  0
LINE
  5
20D
330
30
100
AcDbEntity
  8
PAKSU
100
AcDbLine
 10
0.2370990874900258
 20
0.2379992524221779
 30
0.0
 11
0.2370990874900258
 21
262.7379992524221
 31
0.0
  0
ENDBLK
  5
20E
330
30
100
AcDbEntity
  8
0
  6
DASHED
100
AcDbBlockEnd
  0
BLOCK
  5
20F
330
31
100
AcDbEntity
  8
0
100
AcDbBlockBegin
  2
*X15
 70
     1
 10
0.0
 20
0.0
 30
0.0
  3
*X15
  1

  0
LINE
  5
210
330
31
100
AcDbEntity
  8
0
 62
     0
100
AcDbLine
 10
2.284498831525768
 20
6.527139518645053
 30
0.0
 11
4.8
 21
9.042640687119284
 31
0.0
  0
LINE
  5
211
330
31
100
AcDbEntity
  8
0
 62
     0
100
AcDbLine
 10
2.379686282839342
 20
6.799103665255263
 30
0.0
 11
4.8
 21
9.219417382415922
 31
0.0
  0
LINE
  5
212
330
31
100
AcDbEntity
  8
0
 62
     0
100
AcDbLine
 10
2.474873734152915
 20
7.071067811865474
 30
0.0
 11
4.8
 21
9.396194077712559
 31
0.0
  0
LINE
  5
213
330
31
100
AcDbEntity
  8
0
 62
     0
100
AcDbLine
 10
2.570061185466489
 20
7.343031958475685
 30
0.0
 11
4.8
 21
9.572970773009195
 31
0.0
  0
LINE
  5
214
330
31
100
AcDbEntity
  8
0
 62
     0
100
AcDbLine
 10
2.665248636780063
 20
7.614996105085896
 30
0.0
 11
4.8
 21
9.749747468305832
 31
0.0
  0
LINE
  5
215
330
31
100
AcDbEntity
  8
0
 62
     0
100
AcDbLine
 10
2.760436088093637
 20
7.886960251696106
 30
0.0
 11
4.8
 21
9.926524163602469
 31
0.0
  0
LINE
  5
216
330
31
100
AcDbEntity
  8
0
 62
     0
100
AcDbLine
 10
2.85562353940721
 20
8.158924398306316
 30
0.0
 11
4.696699141100895
 21
10.0
 31
0.0
  0
LINE
  5
217
330
31
100
AcDbEntity
  8
0
 62
     0
100
AcDbLine
 10
2.950810990720784
 20
8.430888544916527
 30
0.0
 11
4.519922445804257
 21
10.0
 31
0.0
  0
LINE
  5
218
330
31
100
AcDbEntity
  8
0
 62
     0
100
AcDbLine
 10
3.045998442034358
 20
8.702852691526738
 30
0.0
 11
4.343145750507621
 21
10.0
 31
0.0
  0
LINE
  5
219
330
31
100
AcDbEntity
  8
0
 62
     0
100
AcDbLine
 10
3.141185893347932
 20
8.974816838136948
 30
0.0
 11
4.166369055210983
 21
10.0
 31
0.0
  0
LINE
  5
21A
330
31
100
AcDbEntity
  8
0
 62
     0
100
AcDbLine
 10
3.236373344661505
 20
9.246780984747159
 30
0.0
 11
3.989592359914347
 21
10.0
 31
0.0
  0
LINE
  5
21B
330
31
100
AcDbEntity
  8
0
 62
     0
100
AcDbLine
 10
3.331560795975079
 20
9.51874513135737
 30
0.0
 11
3.81281566461771
 21
10.0
 31
0.0
  0
LINE
  5
21C
330
31
100
AcDbEntity
  8
0
 62
     0
100
AcDbLine
 10
3.426748247288653
 20
9.790709277967581
 30
0.0
 11
3.636038969321073
 21
10.0
 31
0.0
  0
LINE
  5
21D
330
31
100
AcDbEntity
  8
0
 62
     0
100
AcDbLine
 10
2.189311380212195
 20
6.255175372034843
 30
0.0
 11
4.8
 21
8.865863991822648
 31
0.0
  0
LINE
  5
21E
330
31
100
AcDbEntity
  8
0
 62
     0
100
AcDbLine
 10
2.094123928898621
 20
5.983211225424632
 30
0.0
 11
4.8
 21
8.689087296526011
 31
0.0
  0
LINE
  5
21F
330
31
100
AcDbEntity
  8
0
 62
     0
100
AcDbLine
 10
1.998936477585047
 20
5.711247078814421
 30
0.0
 11
4.8
 21
8.512310601229374
 31
0.0
  0
LINE
  5
220
330
31
100
AcDbEntity
  8
0
 62
     0
100
AcDbLine
 10
1.903749026271473
 20
5.439282932204211
 30
0.0
 11
4.8
 21
8.335533905932738
 31
0.0
  0
LINE
  5
221
330
31
100
AcDbEntity
  8
0
 62
     0
100
AcDbLine
 10
1.841242789363899
 20
5.2
 30
0.0
 11
4.8
 21
8.1587572106361
 31
0.0
  0
LINE
  5
222
330
31
100
AcDbEntity
  8
0
 62
     0
100
AcDbLine
 10
2.018019484660536
 20
5.2
 30
0.0
 11
4.8
 21
7.981980515339463
 31
0.0
  0
LINE
  5
223
330
31
100
AcDbEntity
  8
0
 62
     0
100
AcDbLine
 10
2.194796179957173
 20
5.2
 30
0.0
 11
4.8
 21
7.805203820042827
 31
0.0
  0
LINE
  5
224
330
31
100
AcDbEntity
  8
0
 62
     0
100
AcDbLine
 10
2.37157287525381
 20
5.2
 30
0.0
 11
4.8
 21
7.62842712474619
 31
0.0
  0
LINE
  5
225
330
31
100
AcDbEntity
  8
0
 62
     0
100
AcDbLine
 10
2.548349570550447
 20
5.2
 30
0.0
 11
4.8
 21
7.451650429449553
 31
0.0
  0
LINE
  5
226
330
31
100
AcDbEntity
  8
0
 62
     0
100
AcDbLine
 10
2.725126265847084
 20
5.2
 30
0.0
 11
4.8
 21
7.274873734152916
 31
0.0
  0
LINE
  5
227
330
31
100
AcDbEntity
  8
0
 62
     0
100
AcDbLine
 10
2.901902961143721
 20
5.2
 30
0.0
 11
4.8
 21
7.098097038856279
 31
0.0
  0
LINE
  5
228
330
31
100
AcDbEntity
  8
0
 62
     0
100
AcDbLine
 10
3.078679656440358
 20
5.2
 30
0.0
 11
4.8
 21
6.921320343559642
 31
0.0
  0
LINE
  5
229
330
31
100
AcDbEntity
  8
0
 62
     0
100
AcDbLine
 10
3.255456351736994
 20
5.2
 30
0.0
 11
4.8
 21
6.744543648263006
 31
0.0
  0
LINE
  5
22A
330
31
100
AcDbEntity
  8
0
 62
     0
100
AcDbLine
 10
3.432233047033631
 20
5.2
 30
0.0
 11
4.8
 21
6.567766952966368
 31
0.0
  0
LINE
  5
22B
330
31
100
AcDbEntity
  8
0
 62
     0
100
AcDbLine
 10
3.609009742330268
 20
5.2
 30
0.0
 11
4.8
 21
6.390990257669732
 31
0.0
  0
LINE
  5
22C
330
31
100
AcDbEntity
  8
0
 62
     0
100
AcDbLine
 10
3.785786437626905
 20
5.2
 30
0.0
 11
4.8
 21
6.214213562373095
 31
0.0
  0
LINE
  5
22D
330
31
100
AcDbEntity
  8
0
 62
     0
100
AcDbLine
 10
3.962563132923542
 20
5.2
 30
0.0
 11
4.8
 21
6.037436867076458
 31
0.0
  0
LINE
  5
22E
330
31
100
AcDbEntity
  8
0
 62
     0
100
AcDbLine
 10
4.139339828220179
 20
5.2
 30
0.0
 11
4.8
 21
5.860660171779821
 31
0.0
  0
LINE
  5
22F
330
31
100
AcDbEntity
  8
0
 62
     0
100
AcDbLine
 10
4.316116523516816
 20
5.2
 30
0.0
 11
4.8
 21
5.683883476483184
 31
0.0
  0
LINE
  5
230
330
31
100
AcDbEntity
  8
0
 62
     0
100
AcDbLine
 10
4.492893218813453
 20
5.2
 30
0.0
 11
4.8
 21
5.507106781186547
 31
0.0
  0
LINE
  5
231
330
31
100
AcDbEntity
  8
0
 62
     0
100
AcDbLine
 10
4.669669914110089
 20
5.2
 30
0.0
 11
4.8
 21
5.330330085889911
 31
0.0
  0
ENDBLK
  5
232
330
31
100
AcDbEntity
  8
0
100
AcDbBlockEnd
  0
BLOCK
  5
233
330
32
100
AcDbEntity
  8
0
100
AcDbBlockBegin
  2
*X16
 70
     1
 10
0.0
 20
0.0
 30
0.0
  3
*X16
  1

  0
LINE
  5
234
330
32
100
AcDbEntity
  8
0
 62
     0
100
AcDbLine
 10
5.2
 20
6.083883476483183
 30
0.0
 11
7.178252432022877
 21
8.062135908506061
 31
0.0
  0
LINE
  5
235
330
32
100
AcDbEntity
  8
0
 62
     0
100
AcDbLine
 10
5.2
 20
6.260660171779821
 30
0.0
 11
7.132421436945971
 21
8.19308160872579
 31
0.0
  0
LINE
  5
236
330
32
100
AcDbEntity
  8
0
 62
     0
100
AcDbLine
 10
5.2
 20
6.437436867076457
 30
0.0
 11
7.086590441869065
 21
8.324027308945522
 31
0.0
  0
LINE
  5
237
330
32
100
AcDbEntity
  8
0
 62
     0
100
AcDbLine
 10
5.2
 20
6.614213562373095
 30
0.0
 11
7.04075944679216
 21
8.454973009165254
 31
0.0
  0
LINE
  5
238
330
32
100
AcDbEntity
  8
0
 62
     0
100
AcDbLine
 10
5.2
 20
6.790990257669731
 30
0.0
 11
6.994928451715254
 21
8.585918709384984
 31
0.0
  0
LINE
  5
239
330
32
100
AcDbEntity
  8
0
 62
     0
100
AcDbLine
 10
5.2
 20
6.967766952966368
 30
0.0
 11
6.949097456638348
 21
8.716864409604715
 31
0.0
  0
LINE
  5
23A
330
32
100
AcDbEntity
  8
0
 62
     0
100
AcDbLine
 10
5.2
 20
7.144543648263005
 30
0.0
 11
6.903266461561442
 21
8.847810109824447
 31
0.0
  0
LINE
  5
23B
330
32
100
AcDbEntity
  8
0
 62
     0
100
AcDbLine
 10
5.2
 20
7.321320343559642
 30
0.0
 11
6.857435466484536
 21
8.978755810044177
 31
0.0
  0
LINE
  5
23C
330
32
100
AcDbEntity
  8
0
 62
     0
100
AcDbLine
 10
5.2
 20
7.498097038856279
 30
0.0
 11
6.81160447140763
 21
9.109701510263908
 31
0.0
  0
LINE
  5
23D
330
32
100
AcDbEntity
  8
0
 62
     0
100
AcDbLine
 10
5.2
 20
7.674873734152916
 30
0.0
 11
6.765773476330724
 21
9.24064721048364
 31
0.0
  0
LINE
  5
23E
330
32
100
AcDbEntity
  8
0
 62
     0
100
AcDbLine
 10
5.2
 20
7.851650429449552
 30
0.0
 11
6.719942481253818
 21
9.37159291070337
 31
0.0
  0
LINE
  5
23F
330
32
100
AcDbEntity
  8
0
 62
     0
100
AcDbLine
 10
5.2
 20
8.028427124746189
 30
0.0
 11
6.674111486176912
 21
9.502538610923101
 31
0.0
  0
LINE
  5
240
330
32
100
AcDbEntity
  8
0
 62
     0
100
AcDbLine
 10
5.2
 20
8.205203820042827
 30
0.0
 11
6.628280491100007
 21
9.633484311142833
 31
0.0
  0
LINE
  5
241
330
32
100
AcDbEntity
  8
0
 62
     0
100
AcDbLine
 10
5.2
 20
8.381980515339463
 30
0.0
 11
6.582449496023101
 21
9.764430011362563
 31
0.0
  0
LINE
  5
242
330
32
100
AcDbEntity
  8
0
 62
     0
100
AcDbLine
 10
5.2
 20
8.5587572106361
 30
0.0
 11
6.536618500946195
 21
9.895375711582294
 31
0.0
  0
LINE
  5
243
330
32
100
AcDbEntity
  8
0
 62
     0
100
AcDbLine
 10
5.2
 20
8.735533905932737
 30
0.0
 11
6.464466094067264
 21
10.0
 31
0.0
  0
LINE
  5
244
330
32
100
AcDbEntity
  8
0
 62
     0
100
AcDbLine
 10
5.2
 20
8.912310601229373
 30
0.0
 11
6.287689398770627
 21
10.0
 31
0.0
  0
LINE
  5
245
330
32
100
AcDbEntity
  8
0
 62
     0
100
AcDbLine
 10
5.2
 20
9.089087296526011
 30
0.0
 11
6.11091270347399
 21
10.0
 31
0.0
  0
LINE
  5
246
330
32
100
AcDbEntity
  8
0
 62
     0
100
AcDbLine
 10
5.2
 20
9.265863991822648
 30
0.0
 11
5.934136008177353
 21
10.0
 31
0.0
  0
LINE
  5
247
330
32
100
AcDbEntity
  8
0
 62
     0
100
AcDbLine
 10
5.2
 20
9.442640687119284
 30
0.0
 11
5.757359312880716
 21
10.0
 31
0.0
  0
LINE
  5
248
330
32
100
AcDbEntity
  8
0
 62
     0
100
AcDbLine
 10
5.2
 20
9.619417382415921
 30
0.0
 11
5.580582617584079
 21
10.0
 31
0.0
  0
LINE
  5
249
330
32
100
AcDbEntity
  8
0
 62
     0
100
AcDbLine
 10
5.2
 20
9.796194077712558
 30
0.0
 11
5.403805922287442
 21
10.0
 31
0.0
  0
LINE
  5
24A
330
32
100
AcDbEntity
  8
0
 62
     0
100
AcDbLine
 10
5.2
 20
9.972970773009194
 30
0.0
 11
5.227029226990805
 21
10.0
 31
0.0
  0
LINE
  5
24B
330
32
100
AcDbEntity
  8
0
 62
     0
100
AcDbLine
 10
5.2
 20
5.907106781186547
 30
0.0
 11
7.224083427099783
 21
7.931190208286329
 31
0.0
  0
LINE
  5
24C
330
32
100
AcDbEntity
  8
0
 62
     0
100
AcDbLine
 10
5.2
 20
5.73033008588991
 30
0.0
 11
7.269914422176689
 21
7.800244508066598
 31
0.0
  0
LINE
  5
24D
330
32
100
AcDbEntity
  8
0
 62
     0
100
AcDbLine
 10
5.2
 20
5.553553390593273
 30
0.0
 11
7.315745417253594
 21
7.669298807846868
 31
0.0
  0
LINE
  5
24E
330
32
100
AcDbEntity
  8
0
 62
     0
100
AcDbLine
 10
5.2
 20
5.376776695296636
 30
0.0
 11
7.3615764123305
 21
7.538353107627136
 31
0.0
  0
LINE
  5
24F
330
32
100
AcDbEntity
  8
0
 62
     0
100
AcDbLine
 10
5.2
 20
5.2
 30
0.0
 11
7.407407407407406
 21
7.407407407407405
 31
0.0
  0
LINE
  5
250
330
32
100
AcDbEntity
  8
0
 62
     0
100
AcDbLine
 10
5.376776695296637
 20
5.2
 30
0.0
 11
7.453238402484312
 21
7.276461707187674
 31
0.0
  0
LINE
  5
251
330
32
100
AcDbEntity
  8
0
 62
     0
100
AcDbLine
 10
5.553553390593274
 20
5.2
 30
0.0
 11
7.499069397561219
 21
7.145516006967943
 31
0.0
  0
LINE
  5
252
330
32
100
AcDbEntity
  8
0
 62
     0
100
AcDbLine
 10
5.730330085889911
 20
5.2
 30
0.0
 11
7.544900392638124
 21
7.014570306748212
 31
0.0
  0
LINE
  5
253
330
32
100
AcDbEntity
  8
0
 62
     0
100
AcDbLine
 10
5.907106781186548
 20
5.2
 30
0.0
 11
7.59073138771503
 21
6.883624606528481
 31
0.0
  0
LINE
  5
254
330
32
100
AcDbEntity
  8
0
 62
     0
100
AcDbLine
 10
6.083883476483184
 20
5.2
 30
0.0
 11
7.636562382791936
 21
6.752678906308751
 31
0.0
  0
LINE
  5
255
330
32
100
AcDbEntity
  8
0
 62
     0
100
AcDbLine
 10
6.260660171779822
 20
5.2
 30
0.0
 11
7.682393377868842
 21
6.621733206089019
 31
0.0
  0
LINE
  5
256
330
32
100
AcDbEntity
  8
0
 62
     0
100
AcDbLine
 10
6.437436867076458
 20
5.2
 30
0.0
 11
7.728224372945748
 21
6.490787505869288
 31
0.0
  0
LINE
  5
257
330
32
100
AcDbEntity
  8
0
 62
     0
100
AcDbLine
 10
6.614213562373095
 20
5.2
 30
0.0
 11
7.774055368022653
 21
6.359841805649558
 31
0.0
  0
LINE
  5
258
330
32
100
AcDbEntity
  8
0
 62
     0
100
AcDbLine
 10
6.790990257669732
 20
5.2
 30
0.0
 11
7.819886363099559
 21
6.228896105429826
 31
0.0
  0
LINE
  5
259
330
32
100
AcDbEntity
  8
0
 62
     0
100
AcDbLine
 10
6.967766952966369
 20
5.2
 30
0.0
 11
7.865717358176465
 21
6.097950405210095
 31
0.0
  0
LINE
  5
25A
330
32
100
AcDbEntity
  8
0
 62
     0
100
AcDbLine
 10
7.144543648263006
 20
5.2
 30
0.0
 11
7.911548353253371
 21
5.967004704990364
 31
0.0
  0
LINE
  5
25B
330
32
100
AcDbEntity
  8
0
 62
     0
100
AcDbLine
 10
7.321320343559643
 20
5.2
 30
0.0
 11
7.957379348330277
 21
5.836059004770634
 31
0.0
  0
LINE
  5
25C
330
32
100
AcDbEntity
  8
0
 62
     0
100
AcDbLine
 10
7.49809703885628
 20
5.2
 30
0.0
 11
8.003210343407182
 21
5.705113304550902
 31
0.0
  0
LINE
  5
25D
330
32
100
AcDbEntity
  8
0
 62
     0
100
AcDbLine
 10
7.674873734152916
 20
5.2
 30
0.0
 11
8.049041338484089
 21
5.574167604331171
 31
0.0
  0
LINE
  5
25E
330
32
100
AcDbEntity
  8
0
 62
     0
100
AcDbLine
 10
7.851650429449553
 20
5.2
 30
0.0
 11
8.094872333560994
 21
5.443221904111441
 31
0.0
  0
LINE
  5
25F
330
32
100
AcDbEntity
  8
0
 62
     0
100
AcDbLine
 10
8.02842712474619
 20
5.2
 30
0.0
 11
8.140703328637901
 21
5.312276203891709
 31
0.0
  0
ENDBLK
  5
260
330
32
100
AcDbEntity
  8
0
100
AcDbBlockEnd
  0
BLOCK
  5
261
330
33
100
AcDbEntity
  8
0
100
AcDbBlockBegin
  2
*X17
 70
     1
 10
0.0
 20
0.0
 30
0.0
  3
*X17
  1

  0
LINE
  5
262
330
33
100
AcDbEntity
  8
0
 62
     0
100
AcDbLine
 10
0.0
 20
0.0
 30
0.0
 11
4.8
 21
4.799999999999999
 31
0.0
  0
LINE
  5
263
330
33
100
AcDbEntity
  8
0
 62
     0
100
AcDbLine
 10
0.0951874513135737
 20
0.2719641466102105
 30
0.0
 11
4.623223304703364
 21
4.8
 31
0.0
  0
LINE
  5
264
330
33
100
AcDbEntity
  8
0
 62
     0
100
AcDbLine
 10
0.1903749026271474
 20
0.5439282932204211
 30
0.0
 11
4.446446609406727
 21
4.8
 31
0.0
  0
LINE
  5
265
330
33
100
AcDbEntity
  8
0
 62
     0
100
AcDbLine
 10
0.2855623539407211
 20
0.8158924398306318
 30
0.0
 11
4.269669914110091
 21
4.8
 31
0.0
  0
LINE
  5
266
330
33
100
AcDbEntity
  8
0
 62
     0
100
AcDbLine
 10
0.3807498052542948
 20
1.087856586440842
 30
0.0
 11
4.092893218813453
 21
4.8
 31
0.0
  0
LINE
  5
267
330
33
100
AcDbEntity
  8
0
 62
     0
100
AcDbLine
 10
0.4759372565678686
 20
1.359820733051052
 30
0.0
 11
3.916116523516816
 21
4.8
 31
0.0
  0
LINE
  5
268
330
33
100
AcDbEntity
  8
0
 62
     0
100
AcDbLine
 10
0.5711247078814422
 20
1.631784879661263
 30
0.0
 11
3.73933982822018
 21
4.8
 31
0.0
  0
LINE
  5
269
330
33
100
AcDbEntity
  8
0
 62
     0
100
AcDbLine
 10
0.6663121591950159
 20
1.903749026271474
 30
0.0
 11
3.562563132923543
 21
4.8
 31
0.0
  0
LINE
  5
26A
330
33
100
AcDbEntity
  8
0
 62
     0
100
AcDbLine
 10
0.7614996105085896
 20
2.175713172881684
 30
0.0
 11
3.385786437626906
 21
4.8
 31
0.0
  0
LINE
  5
26B
330
33
100
AcDbEntity
  8
0
 62
     0
100
AcDbLine
 10
0.8566870618221631
 20
2.447677319491895
 30
0.0
 11
3.209009742330269
 21
4.8
 31
0.0
  0
LINE
  5
26C
330
33
100
AcDbEntity
  8
0
 62
     0
100
AcDbLine
 10
0.951874513135737
 20
2.719641466102105
 30
0.0
 11
3.032233047033632
 21
4.8
 31
0.0
  0
LINE
  5
26D
330
33
100
AcDbEntity
  8
0
 62
     0
100
AcDbLine
 10
1.04706196444931
 20
2.991605612712316
 30
0.0
 11
2.855456351736995
 21
4.8
 31
0.0
  0
LINE
  5
26E
330
33
100
AcDbEntity
  8
0
 62
     0
100
AcDbLine
 10
1.142249415762884
 20
3.263569759322527
 30
0.0
 11
2.678679656440358
 21
4.8
 31
0.0
  0
LINE
  5
26F
330
33
100
AcDbEntity
  8
0
 62
     0
100
AcDbLine
 10
1.237436867076458
 20
3.535533905932737
 30
0.0
 11
2.501902961143721
 21
4.8
 31
0.0
  0
LINE
  5
270
330
33
100
AcDbEntity
  8
0
 62
     0
100
AcDbLine
 10
1.332624318390031
 20
3.807498052542948
 30
0.0
 11
2.325126265847084
 21
4.8
 31
0.0
  0
LINE
  5
271
330
33
100
AcDbEntity
  8
0
 62
     0
100
AcDbLine
 10
1.427811769703605
 20
4.079462199153158
 30
0.0
 11
2.148349570550447
 21
4.8
 31
0.0
  0
LINE
  5
272
330
33
100
AcDbEntity
  8
0
 62
     0
100
AcDbLine
 10
1.522999221017179
 20
4.351426345763369
 30
0.0
 11
1.971572875253811
 21
4.8
 31
0.0
  0
LINE
  5
273
330
33
100
AcDbEntity
  8
0
 62
     0
100
AcDbLine
 10
1.618186672330752
 20
4.623390492373579
 30
0.0
 11
1.794796179957174
 21
4.8
 31
0.0
  0
LINE
  5
274
330
33
100
AcDbEntity
  8
0
 62
     0
100
AcDbLine
 10
0.1767766952966369
 20
0.0
 30
0.0
 11
4.8
 21
4.623223304703363
 31
0.0
  0
LINE
  5
275
330
33
100
AcDbEntity
  8
0
 62
     0
100
AcDbLine
 10
0.3535533905932738
 20
0.0
 30
0.0
 11
4.8
 21
4.446446609406725
 31
0.0
  0
LINE
  5
276
330
33
100
AcDbEntity
  8
0
 62
     0
100
AcDbLine
 10
0.5303300858899107
 20
0.0
 30
0.0
 11
4.8
 21
4.269669914110089
 31
0.0
  0
LINE
  5
277
330
33
100
AcDbEntity
  8
0
 62
     0
100
AcDbLine
 10
0.7071067811865476
 20
0.0
 30
0.0
 11
4.8
 21
4.092893218813452
 31
0.0
  0
LINE
  5
278
330
33
100
AcDbEntity
  8
0
 62
     0
100
AcDbLine
 10
0.8838834764831844
 20
0.0
 30
0.0
 11
4.8
 21
3.916116523516815
 31
0.0
  0
LINE
  5
279
330
33
100
AcDbEntity
  8
0
 62
     0
100
AcDbLine
 10
1.060660171779821
 20
0.0
 30
0.0
 11
4.8
 21
3.739339828220178
 31
0.0
  0
LINE
  5
27A
330
33
100
AcDbEntity
  8
0
 62
     0
100
AcDbLine
 10
1.237436867076458
 20
0.0
 30
0.0
 11
3.17984168695883
 21
1.942404819882371
 31
0.0
  0
LINE
  5
27B
330
33
100
AcDbEntity
  8
0
 62
     0
100
AcDbLine
 10
3.237436867076458
 20
2.0
 30
0.0
 11
4.8
 21
3.562563132923541
 31
0.0
  0
LINE
  5
27C
330
33
100
AcDbEntity
  8
0
 62
     0
100
AcDbLine
 10
1.414213562373095
 20
0.0
 30
0.0
 11
3.084654235645256
 21
1.670440673272161
 31
0.0
  0
LINE
  5
27D
330
33
100
AcDbEntity
  8
0
 62
     0
100
AcDbLine
 10
3.414213562373095
 20
2.0
 30
0.0
 11
4.8
 21
3.385786437626904
 31
0.0
  0
LINE
  5
27E
330
33
100
AcDbEntity
  8
0
 62
     0
100
AcDbLine
 10
1.590990257669732
 20
0.0
 30
0.0
 11
2.989466784331682
 21
1.39847652666195
 31
0.0
  0
LINE
  5
27F
330
33
100
AcDbEntity
  8
0
 62
     0
100
AcDbLine
 10
3.590990257669732
 20
2.0
 30
0.0
 11
4.8
 21
3.209009742330267
 31
0.0
  0
LINE
  5
280
330
33
100
AcDbEntity
  8
0
 62
     0
100
AcDbLine
 10
1.767766952966368
 20
0.0
 30
0.0
 11
2.894279333018109
 21
1.12651238005174
 31
0.0
  0
LINE
  5
281
330
33
100
AcDbEntity
  8
0
 62
     0
100
AcDbLine
 10
3.767766952966369
 20
2.0
 30
0.0
 11
4.8
 21
3.032233047033631
 31
0.0
  0
LINE
  5
282
330
33
100
AcDbEntity
  8
0
 62
     0
100
AcDbLine
 10
1.944543648263005
 20
0.0
 30
0.0
 11
2.799091881704535
 21
0.8545482334415293
 31
0.0
  0
LINE
  5
283
330
33
100
AcDbEntity
  8
0
 62
     0
100
AcDbLine
 10
3.944543648263006
 20
2.0
 30
0.0
 11
4.8
 21
2.855456351736994
 31
0.0
  0
LINE
  5
284
330
33
100
AcDbEntity
  8
0
 62
     0
100
AcDbLine
 10
2.121320343559642
 20
0.0
 30
0.0
 11
2.703904430390961
 21
0.5825840868313189
 31
0.0
  0
LINE
  5
285
330
33
100
AcDbEntity
  8
0
 62
     0
100
AcDbLine
 10
4.121320343559642
 20
2.0
 30
0.0
 11
4.8
 21
2.678679656440357
 31
0.0
  0
LINE
  5
286
330
33
100
AcDbEntity
  8
0
 62
     0
100
AcDbLine
 10
2.298097038856279
 20
0.0
 30
0.0
 11
2.608716979077388
 21
0.3106199402211083
 31
0.0
  0
LINE
  5
287
330
33
100
AcDbEntity
  8
0
 62
     0
100
AcDbLine
 10
4.29809703885628
 20
2.0
 30
0.0
 11
4.8
 21
2.50190296114372
 31
0.0
  0
LINE
  5
288
330
33
100
AcDbEntity
  8
0
 62
     0
100
AcDbLine
 10
2.474873734152916
 20
0.0
 30
0.0
 11
2.513529527763814
 21
0.0386557936108977
 31
0.0
  0
LINE
  5
289
330
33
100
AcDbEntity
  8
0
 62
     0
100
AcDbLine
 10
4.474873734152916
 20
2.0
 30
0.0
 11
4.8
 21
2.325126265847083
 31
0.0
  0
LINE
  5
28A
330
33
100
AcDbEntity
  8
0
 62
     0
100
AcDbLine
 10
4.651650429449554
 20
2.0
 30
0.0
 11
4.8
 21
2.148349570550446
 31
0.0
  0
ENDBLK
  5
28B
330
33
100
AcDbEntity
  8
0
100
AcDbBlockEnd
  0
BLOCK
  5
28C
330
34
100
AcDbEntity
  8
0
100
AcDbBlockBegin
  2
*X18
 70
     1
 10
0.0
 20
0.0
 30
0.0
  3
*X18
  1

  0
LINE
  5
28D
330
34
100
AcDbEntity
  8
0
 62
     0
100
AcDbLine
 10
6.884654412785825
 20
1.758130249183355
 30
0.0
 11
8.736506264637677
 21
3.609982101035206
 31
0.0
  0
LINE
  5
28E
330
34
100
AcDbEntity
  8
0
 62
     0
100
AcDbLine
 10
6.838823417708919
 20
1.889075949403086
 30
0.0
 11
8.690675269560772
 21
3.740927801254938
 31
0.0
  0
LINE
  5
28F
330
34
100
AcDbEntity
  8
0
 62
     0
100
AcDbLine
 10
6.772970773009196
 20
2.0
 30
0.0
 11
8.644844274483865
 21
3.871873501474668
 31
0.0
  0
LINE
  5
290
330
34
100
AcDbEntity
  8
0
 62
     0
100
AcDbLine
 10
6.596194077712559
 20
2.0
 30
0.0
 11
8.59901327940696
 21
4.0028192016944
 31
0.0
  0
LINE
  5
291
330
34
100
AcDbEntity
  8
0
 62
     0
100
AcDbLine
 10
6.419417382415922
 20
2.0
 30
0.0
 11
8.553182284330054
 21
4.133764901914131
 31
0.0
  0
LINE
  5
292
330
34
100
AcDbEntity
  8
0
 62
     0
100
AcDbLine
 10
6.242640687119285
 20
2.0
 30
0.0
 11
8.507351289253149
 21
4.264710602133861
 31
0.0
  0
LINE
  5
293
330
34
100
AcDbEntity
  8
0
 62
     0
100
AcDbLine
 10
6.065863991822649
 20
2.0
 30
0.0
 11
8.461520294176242
 21
4.395656302353593
 31
0.0
  0
LINE
  5
294
330
34
100
AcDbEntity
  8
0
 62
     0
100
AcDbLine
 10
5.889087296526011
 20
2.0
 30
0.0
 11
8.415689299099337
 21
4.526602002573324
 31
0.0
  0
LINE
  5
295
330
34
100
AcDbEntity
  8
0
 62
     0
100
AcDbLine
 10
5.712310601229375
 20
2.0
 30
0.0
 11
8.369858304022431
 21
4.657547702793054
 31
0.0
  0
LINE
  5
296
330
34
100
AcDbEntity
  8
0
 62
     0
100
AcDbLine
 10
5.535533905932737
 20
2.0
 30
0.0
 11
8.324027308945524
 21
4.788493403012786
 31
0.0
  0
LINE
  5
297
330
34
100
AcDbEntity
  8
0
 62
     0
100
AcDbLine
 10
5.358757210636101
 20
2.0
 30
0.0
 11
8.158757210636101
 21
4.8
 31
0.0
  0
LINE
  5
298
330
34
100
AcDbEntity
  8
0
 62
     0
100
AcDbLine
 10
5.2
 20
2.018019484660535
 30
0.0
 11
7.981980515339465
 21
4.8
 31
0.0
  0
LINE
  5
299
330
34
100
AcDbEntity
  8
0
 62
     0
100
AcDbLine
 10
5.2
 20
2.194796179957172
 30
0.0
 11
7.805203820042828
 21
4.8
 31
0.0
  0
LINE
  5
29A
330
34
100
AcDbEntity
  8
0
 62
     0
100
AcDbLine
 10
5.2
 20
2.371572875253809
 30
0.0
 11
7.628427124746191
 21
4.8
 31
0.0
  0
LINE
  5
29B
330
34
100
AcDbEntity
  8
0
 62
     0
100
AcDbLine
 10
5.2
 20
2.548349570550446
 30
0.0
 11
7.451650429449554
 21
4.8
 31
0.0
  0
LINE
  5
29C
330
34
100
AcDbEntity
  8
0
 62
     0
100
AcDbLine
 10
5.2
 20
2.725126265847083
 30
0.0
 11
7.274873734152918
 21
4.8
 31
0.0
  0
LINE
  5
29D
330
34
100
AcDbEntity
  8
0
 62
     0
100
AcDbLine
 10
5.2
 20
2.90190296114372
 30
0.0
 11
7.09809703885628
 21
4.8
 31
0.0
  0
LINE
  5
29E
330
34
100
AcDbEntity
  8
0
 62
     0
100
AcDbLine
 10
5.2
 20
3.078679656440356
 30
0.0
 11
6.921320343559644
 21
4.8
 31
0.0
  0
LINE
  5
29F
330
34
100
AcDbEntity
  8
0
 62
     0
100
AcDbLine
 10
5.2
 20
3.255456351736993
 30
0.0
 11
6.744543648263007
 21
4.8
 31
0.0
  0
LINE
  5
2A0
330
34
100
AcDbEntity
  8
0
 62
     0
100
AcDbLine
 10
5.2
 20
3.43223304703363
 30
0.0
 11
6.56776695296637
 21
4.8
 31
0.0
  0
LINE
  5
2A1
330
34
100
AcDbEntity
  8
0
 62
     0
100
AcDbLine
 10
5.2
 20
3.609009742330267
 30
0.0
 11
6.390990257669733
 21
4.8
 31
0.0
  0
LINE
  5
2A2
330
34
100
AcDbEntity
  8
0
 62
     0
100
AcDbLine
 10
5.2
 20
3.785786437626904
 30
0.0
 11
6.214213562373096
 21
4.8
 31
0.0
  0
LINE
  5
2A3
330
34
100
AcDbEntity
  8
0
 62
     0
100
AcDbLine
 10
5.2
 20
3.962563132923541
 30
0.0
 11
6.037436867076459
 21
4.8
 31
0.0
  0
LINE
  5
2A4
330
34
100
AcDbEntity
  8
0
 62
     0
100
AcDbLine
 10
5.2
 20
4.139339828220178
 30
0.0
 11
5.860660171779822
 21
4.8
 31
0.0
  0
LINE
  5
2A5
330
34
100
AcDbEntity
  8
0
 62
     0
100
AcDbLine
 10
5.2
 20
4.316116523516814
 30
0.0
 11
5.683883476483186
 21
4.8
 31
0.0
  0
LINE
  5
2A6
330
34
100
AcDbEntity
  8
0
 62
     0
100
AcDbLine
 10
5.2
 20
4.492893218813452
 30
0.0
 11
5.507106781186549
 21
4.8
 31
0.0
  0
LINE
  5
2A7
330
34
100
AcDbEntity
  8
0
 62
     0
100
AcDbLine
 10
5.2
 20
4.669669914110088
 30
0.0
 11
5.330330085889912
 21
4.8
 31
0.0
  0
LINE
  5
2A8
330
34
100
AcDbEntity
  8
0
 62
     0
100
AcDbLine
 10
6.930485407862731
 20
1.627184548963624
 30
0.0
 11
8.782337259714584
 21
3.479036400815475
 31
0.0
  0
LINE
  5
2A9
330
34
100
AcDbEntity
  8
0
 62
     0
100
AcDbLine
 10
6.976316402939636
 20
1.496238848743893
 30
0.0
 11
8.828168254791489
 21
3.348090700595744
 31
0.0
  0
LINE
  5
2AA
330
34
100
AcDbEntity
  8
0
 62
     0
100
AcDbLine
 10
7.022147398016543
 20
1.365293148524162
 30
0.0
 11
8.873999249868395
 21
3.217145000376013
 31
0.0
  0
LINE
  5
2AB
330
34
100
AcDbEntity
  8
0
 62
     0
100
AcDbLine
 10
7.067978393093449
 20
1.234347448304431
 30
0.0
 11
8.9198302449453
 21
3.086199300156282
 31
0.0
  0
LINE
  5
2AC
330
34
100
AcDbEntity
  8
0
 62
     0
100
AcDbLine
 10
7.113809388170355
 20
1.1034017480847
 30
0.0
 11
8.965661240022207
 21
2.955253599936551
 31
0.0
  0
LINE
  5
2AD
330
34
100
AcDbEntity
  8
0
 62
     0
100
AcDbLine
 10
7.159640383247261
 20
0.9724560478649696
 30
0.0
 11
9.011492235099112
 21
2.82430789971682
 31
0.0
  0
LINE
  5
2AE
330
34
100
AcDbEntity
  8
0
 62
     0
100
AcDbLine
 10
7.205471378324166
 20
0.8415103476452385
 30
0.0
 11
9.057323230176018
 21
2.693362199497089
 31
0.0
  0
LINE
  5
2AF
330
34
100
AcDbEntity
  8
0
 62
     0
100
AcDbLine
 10
7.251302373401072
 20
0.7105646474255075
 30
0.0
 11
9.103154225252923
 21
2.562416499277358
 31
0.0
  0
LINE
  5
2B0
330
34
100
AcDbEntity
  8
0
 62
     0
100
AcDbLine
 10
7.297133368477978
 20
0.5796189472057765
 30
0.0
 11
9.14898522032983
 21
2.431470799057627
 31
0.0
  0
LINE
  5
2B1
330
34
100
AcDbEntity
  8
0
 62
     0
100
AcDbLine
 10
7.342964363554884
 20
0.4486732469860454
 30
0.0
 11
9.194816215406737
 21
2.300525098837896
 31
0.0
  0
LINE
  5
2B2
330
34
100
AcDbEntity
  8
0
 62
     0
100
AcDbLine
 10
7.38879535863179
 20
0.3177275467663144
 30
0.0
 11
9.240647210483642
 21
2.169579398618165
 31
0.0
  0
LINE
  5
2B3
330
34
100
AcDbEntity
  8
0
 62
     0
100
AcDbLine
 10
7.434626353708695
 20
0.1867818465465834
 30
0.0
 11
9.286478205560548
 21
2.038633698398434
 31
0.0
  0
LINE
  5
2B4
330
34
100
AcDbEntity
  8
0
 62
     0
100
AcDbLine
 10
7.480457348785601
 20
0.0558361463268524
 30
0.0
 11
9.332309200637453
 21
1.907687998178703
 31
0.0
  0
LINE
  5
2B5
330
34
100
AcDbEntity
  8
0
 62
     0
100
AcDbLine
 10
7.601397897755386
 20
0.0
 30
0.0
 11
9.37814019571436
 21
1.776742297958972
 31
0.0
  0
LINE
  5
2B6
330
34
100
AcDbEntity
  8
0
 62
     0
100
AcDbLine
 10
7.778174593052023
 20
0.0
 30
0.0
 11
9.423971190791265
 21
1.645796597739241
 31
0.0
  0
LINE
  5
2B7
330
34
100
AcDbEntity
  8
0
 62
     0
100
AcDbLine
 10
7.954951288348659
 20
0.0
 30
0.0
 11
9.469802185868172
 21
1.51485089751951
 31
0.0
  0
LINE
  5
2B8
330
34
100
AcDbEntity
  8
0
 62
     0
100
AcDbLine
 10
8.131727983645296
 20
0.0
 30
0.0
 11
9.515633180945076
 21
1.383905197299779
 31
0.0
  0
LINE
  5
2B9
330
34
100
AcDbEntity
  8
0
 62
     0
100
AcDbLine
 10
8.308504678941934
 20
0.0
 30
0.0
 11
9.561464176021983
 21
1.252959497080048
 31
0.0
  0
LINE
  5
2BA
330
34
100
AcDbEntity
  8
0
 62
     0
100
AcDbLine
 10
8.485281374238571
 20
0.0
 30
0.0
 11
9.607295171098888
 21
1.122013796860317
 31
0.0
  0
LINE
  5
2BB
330
34
100
AcDbEntity
  8
0
 62
     0
100
AcDbLine
 10
8.662058069535207
 20
0.0
 30
0.0
 11
9.653126166175795
 21
0.9910680966405861
 31
0.0
  0
LINE
  5
2BC
330
34
100
AcDbEntity
  8
0
 62
     0
100
AcDbLine
 10
8.838834764831844
 20
0.0
 30
0.0
 11
9.6989571612527
 21
0.860122396420855
 31
0.0
  0
LINE
  5
2BD
330
34
100
AcDbEntity
  8
0
 62
     0
100
AcDbLine
 10
9.01561146012848
 20
0.0
 30
0.0
 11
9.744788156329606
 21
0.7291766962011242
 31
0.0
  0
LINE
  5
2BE
330
34
100
AcDbEntity
  8
0
 62
     0
100
AcDbLine
 10
9.192388155425119
 20
0.0
 30
0.0
 11
9.790619151406511
 21
0.5982309959813931
 31
0.0
  0
LINE
  5
2BF
330
34
100
AcDbEntity
  8
0
 62
     0
100
AcDbLine
 10
9.369164850721755
 20
0.0
 30
0.0
 11
9.836450146483418
 21
0.467285295761662
 31
0.0
  0
LINE
  5
2C0
330
34
100
AcDbEntity
  8
0
 62
     0
100
AcDbLine
 10
9.545941546018392
 20
0.0
 30
0.0
 11
9.882281141560325
 21
0.336339595541931
 31
0.0
  0
LINE
  5
2C1
330
34
100
AcDbEntity
  8
0
 62
     0
100
AcDbLine
 10
9.722718241315028
 20
0.0
 30
0.0
 11
9.92811213663723
 21
0.2053938953222
 31
0.0
  0
LINE
  5
2C2
330
34
100
AcDbEntity
  8
0
 62
     0
100
AcDbLine
 10
9.899494936611665
 20
0.0
 30
0.0
 11
9.973943131714136
 21
0.0744481951024689
 31
0.0
  0
ENDBLK
  5
2C3
330
34
100
AcDbEntity
  8
0
100
AcDbBlockEnd
  0
BLOCK
  5
2C4
330
35
100
AcDbEntity
  8
0
100
AcDbBlockBegin
  2
*X19
 70
     1
 10
0.0
 20
0.0
 30
0.0
  3
*X19
  1

  0
LINE
  5
2C5
330
35
100
AcDbEntity
  8
0
 62
     0
100
AcDbLine
 10
10.7
 20
6.280582617584078
 30
0.0
 11
13.5
 21
9.080582617584076
 31
0.0
  0
LINE
  5
2C6
330
35
100
AcDbEntity
  8
0
 62
     0
100
AcDbLine
 10
10.7
 20
6.457359312880715
 30
0.0
 11
13.5
 21
9.257359312880712
 31
0.0
  0
LINE
  5
2C7
330
35
100
AcDbEntity
  8
0
 62
     0
100
AcDbLine
 10
10.7
 20
6.634136008177351
 30
0.0
 11
13.5
 21
9.43413600817735
 31
0.0
  0
LINE
  5
2C8
330
35
100
AcDbEntity
  8
0
 62
     0
100
AcDbLine
 10
10.7
 20
6.810912703473989
 30
0.0
 11
13.5
 21
9.610912703473987
 31
0.0
  0
LINE
  5
2C9
330
35
100
AcDbEntity
  8
0
 62
     0
100
AcDbLine
 10
10.7
 20
6.987689398770625
 30
0.0
 11
13.5
 21
9.787689398770623
 31
0.0
  0
LINE
  5
2CA
330
35
100
AcDbEntity
  8
0
 62
     0
100
AcDbLine
 10
10.7
 20
7.164466094067263
 30
0.0
 11
13.5
 21
9.96446609406726
 31
0.0
  0
LINE
  5
2CB
330
35
100
AcDbEntity
  8
0
 62
     0
100
AcDbLine
 10
10.7
 20
7.341242789363899
 30
0.0
 11
13.3587572106361
 21
10.0
 31
0.0
  0
LINE
  5
2CC
330
35
100
AcDbEntity
  8
0
 62
     0
100
AcDbLine
 10
10.7
 20
7.518019484660536
 30
0.0
 11
13.18198051533946
 21
10.0
 31
0.0
  0
LINE
  5
2CD
330
35
100
AcDbEntity
  8
0
 62
     0
100
AcDbLine
 10
10.7
 20
7.694796179957173
 30
0.0
 11
13.00520382004282
 21
10.0
 31
0.0
  0
LINE
  5
2CE
330
35
100
AcDbEntity
  8
0
 62
     0
100
AcDbLine
 10
10.7
 20
7.87157287525381
 30
0.0
 11
12.82842712474619
 21
10.0
 31
0.0
  0
LINE
  5
2CF
330
35
100
AcDbEntity
  8
0
 62
     0
100
AcDbLine
 10
10.7
 20
8.048349570550447
 30
0.0
 11
12.65165042944955
 21
10.0
 31
0.0
  0
LINE
  5
2D0
330
35
100
AcDbEntity
  8
0
 62
     0
100
AcDbLine
 10
10.7
 20
8.225126265847084
 30
0.0
 11
12.47487373415292
 21
10.0
 31
0.0
  0
LINE
  5
2D1
330
35
100
AcDbEntity
  8
0
 62
     0
100
AcDbLine
 10
10.7
 20
8.40190296114372
 30
0.0
 11
12.29809703885628
 21
10.0
 31
0.0
  0
LINE
  5
2D2
330
35
100
AcDbEntity
  8
0
 62
     0
100
AcDbLine
 10
10.7
 20
8.578679656440357
 30
0.0
 11
12.12132034355964
 21
10.0
 31
0.0
  0
LINE
  5
2D3
330
35
100
AcDbEntity
  8
0
 62
     0
100
AcDbLine
 10
10.7
 20
8.755456351736995
 30
0.0
 11
11.944543648263
 21
10.0
 31
0.0
  0
LINE
  5
2D4
330
35
100
AcDbEntity
  8
0
 62
     0
100
AcDbLine
 10
10.7
 20
8.932233047033632
 30
0.0
 11
11.76776695296637
 21
10.0
 31
0.0
  0
LINE
  5
2D5
330
35
100
AcDbEntity
  8
0
 62
     0
100
AcDbLine
 10
10.7
 20
9.109009742330268
 30
0.0
 11
11.59099025766973
 21
10.0
 31
0.0
  0
LINE
  5
2D6
330
35
100
AcDbEntity
  8
0
 62
     0
100
AcDbLine
 10
10.7
 20
9.285786437626905
 30
0.0
 11
11.41421356237309
 21
10.0
 31
0.0
  0
LINE
  5
2D7
330
35
100
AcDbEntity
  8
0
 62
     0
100
AcDbLine
 10
10.7
 20
9.462563132923541
 30
0.0
 11
11.23743686707646
 21
10.0
 31
0.0
  0
LINE
  5
2D8
330
35
100
AcDbEntity
  8
0
 62
     0
100
AcDbLine
 10
10.7
 20
9.63933982822018
 30
0.0
 11
11.06066017177982
 21
10.0
 31
0.0
  0
LINE
  5
2D9
330
35
100
AcDbEntity
  8
0
 62
     0
100
AcDbLine
 10
10.7
 20
9.816116523516816
 30
0.0
 11
10.88388347648318
 21
10.0
 31
0.0
  0
LINE
  5
2DA
330
35
100
AcDbEntity
  8
0
 62
     0
100
AcDbLine
 10
10.7
 20
9.992893218813453
 30
0.0
 11
10.70710678118655
 21
10.0
 31
0.0
  0
LINE
  5
2DB
330
35
100
AcDbEntity
  8
0
 62
     0
100
AcDbLine
 10
10.7
 20
6.103805922287441
 30
0.0
 11
13.5
 21
8.903805922287439
 31
0.0
  0
LINE
  5
2DC
330
35
100
AcDbEntity
  8
0
 62
     0
100
AcDbLine
 10
10.7
 20
5.927029226990804
 30
0.0
 11
13.5
 21
8.727029226990802
 31
0.0
  0
LINE
  5
2DD
330
35
100
AcDbEntity
  8
0
 62
     0
100
AcDbLine
 10
10.7
 20
5.750252531694168
 30
0.0
 11
13.5
 21
8.550252531694166
 31
0.0
  0
LINE
  5
2DE
330
35
100
AcDbEntity
  8
0
 62
     0
100
AcDbLine
 10
10.7
 20
5.57347583639753
 30
0.0
 11
13.5
 21
8.373475836397528
 31
0.0
  0
LINE
  5
2DF
330
35
100
AcDbEntity
  8
0
 62
     0
100
AcDbLine
 10
10.7
 20
5.396699141100894
 30
0.0
 11
13.5
 21
8.196699141100891
 31
0.0
  0
LINE
  5
2E0
330
35
100
AcDbEntity
  8
0
 62
     0
100
AcDbLine
 10
10.7
 20
5.219922445804257
 30
0.0
 11
13.5
 21
8.019922445804255
 31
0.0
  0
LINE
  5
2E1
330
35
100
AcDbEntity
  8
0
 62
     0
100
AcDbLine
 10
10.85685424949238
 20
5.2
 30
0.0
 11
13.5
 21
7.843145750507618
 31
0.0
  0
LINE
  5
2E2
330
35
100
AcDbEntity
  8
0
 62
     0
100
AcDbLine
 10
11.03363094478901
 20
5.2
 30
0.0
 11
13.5
 21
7.666369055210981
 31
0.0
  0
LINE
  5
2E3
330
35
100
AcDbEntity
  8
0
 62
     0
100
AcDbLine
 10
11.21040764008565
 20
5.2
 30
0.0
 11
13.5
 21
7.489592359914344
 31
0.0
  0
LINE
  5
2E4
330
35
100
AcDbEntity
  8
0
 62
     0
100
AcDbLine
 10
11.38718433538229
 20
5.2
 30
0.0
 11
13.5
 21
7.312815664617708
 31
0.0
  0
LINE
  5
2E5
330
35
100
AcDbEntity
  8
0
 62
     0
100
AcDbLine
 10
11.56396103067893
 20
5.2
 30
0.0
 11
13.5
 21
7.13603896932107
 31
0.0
  0
LINE
  5
2E6
330
35
100
AcDbEntity
  8
0
 62
     0
100
AcDbLine
 10
11.74073772597556
 20
5.2
 30
0.0
 11
13.5
 21
6.959262274024434
 31
0.0
  0
LINE
  5
2E7
330
35
100
AcDbEntity
  8
0
 62
     0
100
AcDbLine
 10
11.9175144212722
 20
5.2
 30
0.0
 11
13.5
 21
6.782485578727796
 31
0.0
  0
LINE
  5
2E8
330
35
100
AcDbEntity
  8
0
 62
     0
100
AcDbLine
 10
12.09429111656884
 20
5.2
 30
0.0
 11
13.5
 21
6.60570888343116
 31
0.0
  0
LINE
  5
2E9
330
35
100
AcDbEntity
  8
0
 62
     0
100
AcDbLine
 10
12.27106781186547
 20
5.2
 30
0.0
 11
13.5
 21
6.428932188134523
 31
0.0
  0
LINE
  5
2EA
330
35
100
AcDbEntity
  8
0
 62
     0
100
AcDbLine
 10
12.44784450716211
 20
5.2
 30
0.0
 11
13.5
 21
6.252155492837886
 31
0.0
  0
LINE
  5
2EB
330
35
100
AcDbEntity
  8
0
 62
     0
100
AcDbLine
 10
12.62462120245875
 20
5.2
 30
0.0
 11
13.5
 21
6.075378797541249
 31
0.0
  0
LINE
  5
2EC
330
35
100
AcDbEntity
  8
0
 62
     0
100
AcDbLine
 10
12.80139789775538
 20
5.2
 30
0.0
 11
13.5
 21
5.898602102244612
 31
0.0
  0
LINE
  5
2ED
330
35
100
AcDbEntity
  8
0
 62
     0
100
AcDbLine
 10
12.97817459305202
 20
5.2
 30
0.0
 11
13.5
 21
5.721825406947975
 31
0.0
  0
LINE
  5
2EE
330
35
100
AcDbEntity
  8
0
 62
     0
100
AcDbLine
 10
13.15495128834866
 20
5.2
 30
0.0
 11
13.5
 21
5.545048711651339
 31
0.0
  0
LINE
  5
2EF
330
35
100
AcDbEntity
  8
0
 62
     0
100
AcDbLine
 10
13.3317279836453
 20
5.2
 30
0.0
 11
13.5
 21
5.368272016354701
 31
0.0
  0
ENDBLK
  5
2F0
330
35
100
AcDbEntity
  8
0
100
AcDbBlockEnd
  0
BLOCK
  5
2F1
330
36
100
AcDbEntity
  8
0
100
AcDbBlockBegin
  2
*X20
 70
     1
 10
0.0
 20
0.0
 30
0.0
  3
*X20
  1

  0
LINE
  5
2F2
330
36
100
AcDbEntity
  8
0
 62
     0
100
AcDbLine
 10
10.7
 20
1.154058453981608
 30
0.0
 11
13.5
 21
3.954058453981607
 31
0.0
  0
LINE
  5
2F3
330
36
100
AcDbEntity
  8
0
 62
     0
100
AcDbLine
 10
10.7
 20
1.330835149278245
 30
0.0
 11
13.5
 21
4.130835149278244
 31
0.0
  0
LINE
  5
2F4
330
36
100
AcDbEntity
  8
0
 62
     0
100
AcDbLine
 10
10.7
 20
1.507611844574882
 30
0.0
 11
13.5
 21
4.30761184457488
 31
0.0
  0
LINE
  5
2F5
330
36
100
AcDbEntity
  8
0
 62
     0
100
AcDbLine
 10
10.7
 20
1.684388539871519
 30
0.0
 11
13.5
 21
4.484388539871518
 31
0.0
  0
LINE
  5
2F6
330
36
100
AcDbEntity
  8
0
 62
     0
100
AcDbLine
 10
10.7
 20
1.861165235168155
 30
0.0
 11
13.5
 21
4.661165235168154
 31
0.0
  0
LINE
  5
2F7
330
36
100
AcDbEntity
  8
0
 62
     0
100
AcDbLine
 10
10.7
 20
2.037941930464792
 30
0.0
 11
13.46205806953521
 21
4.800000000000001
 31
0.0
  0
LINE
  5
2F8
330
36
100
AcDbEntity
  8
0
 62
     0
100
AcDbLine
 10
10.7
 20
2.214718625761429
 30
0.0
 11
13.28528137423857
 21
4.800000000000001
 31
0.0
  0
LINE
  5
2F9
330
36
100
AcDbEntity
  8
0
 62
     0
100
AcDbLine
 10
10.7
 20
2.391495321058066
 30
0.0
 11
13.10850467894193
 21
4.800000000000001
 31
0.0
  0
LINE
  5
2FA
330
36
100
AcDbEntity
  8
0
 62
     0
100
AcDbLine
 10
10.7
 20
2.568272016354703
 30
0.0
 11
12.9317279836453
 21
4.800000000000001
 31
0.0
  0
LINE
  5
2FB
330
36
100
AcDbEntity
  8
0
 62
     0
100
AcDbLine
 10
10.7
 20
2.74504871165134
 30
0.0
 11
12.75495128834866
 21
4.800000000000001
 31
0.0
  0
LINE
  5
2FC
330
36
100
AcDbEntity
  8
0
 62
     0
100
AcDbLine
 10
10.7
 20
2.921825406947977
 30
0.0
 11
12.57817459305202
 21
4.800000000000001
 31
0.0
  0
LINE
  5
2FD
330
36
100
AcDbEntity
  8
0
 62
     0
100
AcDbLine
 10
10.7
 20
3.098602102244614
 30
0.0
 11
12.40139789775539
 21
4.800000000000001
 31
0.0
  0
LINE
  5
2FE
330
36
100
AcDbEntity
  8
0
 62
     0
100
AcDbLine
 10
10.7
 20
3.275378797541251
 30
0.0
 11
12.22462120245875
 21
4.800000000000001
 31
0.0
  0
LINE
  5
2FF
330
36
100
AcDbEntity
  8
0
 62
     0
100
AcDbLine
 10
10.7
 20
3.452155492837887
 30
0.0
 11
12.04784450716211
 21
4.800000000000001
 31
0.0
  0
LINE
  5
300
330
36
100
AcDbEntity
  8
0
 62
     0
100
AcDbLine
 10
10.7
 20
3.628932188134524
 30
0.0
 11
11.87106781186547
 21
4.800000000000001
 31
0.0
  0
LINE
  5
301
330
36
100
AcDbEntity
  8
0
 62
     0
100
AcDbLine
 10
10.7
 20
3.805708883431161
 30
0.0
 11
11.69429111656884
 21
4.800000000000001
 31
0.0
  0
LINE
  5
302
330
36
100
AcDbEntity
  8
0
 62
     0
100
AcDbLine
 10
10.7
 20
3.982485578727798
 30
0.0
 11
11.5175144212722
 21
4.800000000000001
 31
0.0
  0
LINE
  5
303
330
36
100
AcDbEntity
  8
0
 62
     0
100
AcDbLine
 10
10.7
 20
4.159262274024435
 30
0.0
 11
11.34073772597556
 21
4.800000000000001
 31
0.0
  0
LINE
  5
304
330
36
100
AcDbEntity
  8
0
 62
     0
100
AcDbLine
 10
10.7
 20
4.336038969321072
 30
0.0
 11
11.16396103067893
 21
4.800000000000001
 31
0.0
  0
LINE
  5
305
330
36
100
AcDbEntity
  8
0
 62
     0
100
AcDbLine
 10
10.7
 20
4.512815664617709
 30
0.0
 11
10.98718433538229
 21
4.800000000000001
 31
0.0
  0
LINE
  5
306
330
36
100
AcDbEntity
  8
0
 62
     0
100
AcDbLine
 10
10.7
 20
4.689592359914345
 30
0.0
 11
10.81040764008565
 21
4.800000000000001
 31
0.0
  0
LINE
  5
307
330
36
100
AcDbEntity
  8
0
 62
     0
100
AcDbLine
 10
10.7
 20
0.9772817586849718
 30
0.0
 11
13.5
 21
3.77728175868497
 31
0.0
  0
LINE
  5
308
330
36
100
AcDbEntity
  8
0
 62
     0
100
AcDbLine
 10
10.7
 20
0.800505063388335
 30
0.0
 11
13.5
 21
3.600505063388333
 31
0.0
  0
LINE
  5
309
330
36
100
AcDbEntity
  8
0
 62
     0
100
AcDbLine
 10
10.7
 20
0.6237283680916982
 30
0.0
 11
13.5
 21
3.423728368091696
 31
0.0
  0
LINE
  5
30A
330
36
100
AcDbEntity
  8
0
 62
     0
100
AcDbLine
 10
10.7
 20
0.4469516727950612
 30
0.0
 11
13.5
 21
3.246951672795059
 31
0.0
  0
LINE
  5
30B
330
36
100
AcDbEntity
  8
0
 62
     0
100
AcDbLine
 10
10.7
 20
0.2701749774984243
 30
0.0
 11
13.5
 21
3.070174977498422
 31
0.0
  0
LINE
  5
30C
330
36
100
AcDbEntity
  8
0
 62
     0
100
AcDbLine
 10
10.7
 20
0.0933982822017875
 30
0.0
 11
13.5
 21
2.893398282201785
 31
0.0
  0
LINE
  5
30D
330
36
100
AcDbEntity
  8
0
 62
     0
100
AcDbLine
 10
10.78337841309485
 20
0.0
 30
0.0
 11
13.5
 21
2.716621586905149
 31
0.0
  0
LINE
  5
30E
330
36
100
AcDbEntity
  8
0
 62
     0
100
AcDbLine
 10
10.96015510839148
 20
0.0
 30
0.0
 11
13.5
 21
2.539844891608512
 31
0.0
  0
LINE
  5
30F
330
36
100
AcDbEntity
  8
0
 62
     0
100
AcDbLine
 10
11.13693180368812
 20
0.0
 30
0.0
 11
13.5
 21
2.363068196311875
 31
0.0
  0
LINE
  5
310
330
36
100
AcDbEntity
  8
0
 62
     0
100
AcDbLine
 10
11.31370849898476
 20
0.0
 30
0.0
 11
13.5
 21
2.186291501015238
 31
0.0
  0
LINE
  5
311
330
36
100
AcDbEntity
  8
0
 62
     0
100
AcDbLine
 10
11.49048519428139
 20
0.0
 30
0.0
 11
13.5
 21
2.009514805718601
 31
0.0
  0
LINE
  5
312
330
36
100
AcDbEntity
  8
0
 62
     0
100
AcDbLine
 10
11.66726188957803
 20
0.0
 30
0.0
 11
13.5
 21
1.832738110421964
 31
0.0
  0
LINE
  5
313
330
36
100
AcDbEntity
  8
0
 62
     0
100
AcDbLine
 10
11.84403858487467
 20
0.0
 30
0.0
 11
13.5
 21
1.655961415125327
 31
0.0
  0
LINE
  5
314
330
36
100
AcDbEntity
  8
0
 62
     0
100
AcDbLine
 10
12.02081528017131
 20
0.0
 30
0.0
 11
13.5
 21
1.479184719828691
 31
0.0
  0
LINE
  5
315
330
36
100
AcDbEntity
  8
0
 62
     0
100
AcDbLine
 10
12.19759197546794
 20
0.0
 30
0.0
 11
13.5
 21
1.302408024532054
 31
0.0
  0
LINE
  5
316
330
36
100
AcDbEntity
  8
0
 62
     0
100
AcDbLine
 10
12.37436867076458
 20
0.0
 30
0.0
 11
13.5
 21
1.125631329235417
 31
0.0
  0
LINE
  5
317
330
36
100
AcDbEntity
  8
0
 62
     0
100
AcDbLine
 10
12.55114536606122
 20
0.0
 30
0.0
 11
13.5
 21
0.9488546339387806
 31
0.0
  0
LINE
  5
318
330
36
100
AcDbEntity
  8
0
 62
     0
100
AcDbLine
 10
12.72792206135785
 20
0.0
 30
0.0
 11
13.5
 21
0.7720779386421438
 31
0.0
  0
LINE
  5
319
330
36
100
AcDbEntity
  8
0
 62
     0
100
AcDbLine
 10
12.90469875665449
 20
0.0
 30
0.0
 11
13.5
 21
0.5953012433455069
 31
0.0
  0
LINE
  5
31A
330
36
100
AcDbEntity
  8
0
 62
     0
100
AcDbLine
 10
13.08147545195113
 20
0.0
 30
0.0
 11
13.5
 21
0.4185245480488699
 31
0.0
  0
LINE
  5
31B
330
36
100
AcDbEntity
  8
0
 62
     0
100
AcDbLine
 10
13.25825214724776
 20
0.0
 30
0.0
 11
13.5
 21
0.2417478527522331
 31
0.0
  0
LINE
  5
31C
330
36
100
AcDbEntity
  8
0
 62
     0
100
AcDbLine
 10
13.4350288425444
 20
0.0
 30
0.0
 11
13.5
 21
0.0649711574555962
 31
0.0
  0
ENDBLK
  5
31D
330
36
100
AcDbEntity
  8
0
100
AcDbBlockEnd
  0
BLOCK
  5
31E
330
37
100
AcDbEntity
  8
0
100
AcDbBlockBegin
  2
*X21
 70
     1
 10
0.0
 20
0.0
 30
0.0
  3
*X21
  1

  0
LINE
  5
31F
330
37
100
AcDbEntity
  8
0
 62
     0
100
AcDbLine
 10
13.9
 20
6.298602102244612
 30
0.0
 11
16.58299474438346
 21
8.981596846628077
 31
0.0
  0
LINE
  5
320
330
37
100
AcDbEntity
  8
0
 62
     0
100
AcDbLine
 10
13.9
 20
6.47537879754125
 30
0.0
 11
16.51050279500106
 21
9.085881592542312
 31
0.0
  0
LINE
  5
321
330
37
100
AcDbEntity
  8
0
 62
     0
100
AcDbLine
 10
13.9
 20
6.652155492837886
 30
0.0
 11
16.43292735533684
 21
9.185082848174726
 31
0.0
  0
LINE
  5
322
330
37
100
AcDbEntity
  8
0
 62
     0
100
AcDbLine
 10
13.9
 20
6.828932188134523
 30
0.0
 11
16.35037215123712
 21
9.279304339371643
 31
0.0
  0
LINE
  5
323
330
37
100
AcDbEntity
  8
0
 62
     0
100
AcDbLine
 10
13.9
 20
7.00570888343116
 30
0.0
 11
16.26289196487371
 21
9.368600848304868
 31
0.0
  0
LINE
  5
324
330
37
100
AcDbEntity
  8
0
 62
     0
100
AcDbLine
 10
13.9
 20
7.182485578727797
 30
0.0
 11
16.17049525263323
 21
9.452980831361033
 31
0.0
  0
LINE
  5
325
330
37
100
AcDbEntity
  8
0
 62
     0
100
AcDbLine
 10
13.9
 20
7.359262274024434
 30
0.0
 11
16.07314454342055
 21
9.532406817444991
 31
0.0
  0
LINE
  5
326
330
37
100
AcDbEntity
  8
0
 62
     0
100
AcDbLine
 10
13.9
 20
7.53603896932107
 30
0.0
 11
15.97075466195056
 21
9.606793631271633
 31
0.0
  0
LINE
  5
327
330
37
100
AcDbEntity
  8
0
 62
     0
100
AcDbLine
 10
13.9
 20
7.712815664617708
 30
0.0
 11
15.86318857628903
 21
9.67600424090674
 31
0.0
  0
LINE
  5
328
330
37
100
AcDbEntity
  8
0
 62
     0
100
AcDbLine
 10
13.9
 20
7.889592359914344
 30
0.0
 11
15.75025038159864
 21
9.739842741512989
 31
0.0
  0
LINE
  5
329
330
37
100
AcDbEntity
  8
0
 62
     0
100
AcDbLine
 10
13.9
 20
8.066369055210982
 30
0.0
 11
15.63167453725327
 21
9.798043592464253
 31
0.0
  0
LINE
  5
32A
330
37
100
AcDbEntity
  8
0
 62
     0
100
AcDbLine
 10
13.9
 20
8.243145750507618
 30
0.0
 11
15.50710986763958
 21
9.850255618147199
 31
0.0
  0
LINE
  5
32B
330
37
100
AcDbEntity
  8
0
 62
     0
100
AcDbLine
 10
13.9
 20
8.419922445804255
 30
0.0
 11
15.37609582797506
 21
9.896018273779313
 31
0.0
  0
LINE
  5
32C
330
37
100
AcDbEntity
  8
0
 62
     0
100
AcDbLine
 10
13.9
 20
8.596699141100891
 30
0.0
 11
15.23802674945604
 21
9.934725890556936
 31
0.0
  0
LINE
  5
32D
330
37
100
AcDbEntity
  8
0
 62
     0
100
AcDbLine
 10
13.9
 20
8.773475836397528
 30
0.0
 11
15.09209641503479
 21
9.965572251432316
 31
0.0
  0
LINE
  5
32E
330
37
100
AcDbEntity
  8
0
 62
     0
100
AcDbLine
 10
13.9
 20
8.950252531694166
 30
0.0
 11
14.93720855236614
 21
9.987461084060305
 31
0.0
  0
LINE
  5
32F
330
37
100
AcDbEntity
  8
0
 62
     0
100
AcDbLine
 10
13.9
 20
9.127029226990803
 30
0.0
 11
14.77182410265905
 21
9.998853329649859
 31
0.0
  0
LINE
  5
330
330
37
100
AcDbEntity
  8
0
 62
     0
100
AcDbLine
 10
13.9
 20
9.303805922287439
 30
0.0
 11
14.59619325557977
 21
9.999999177867216
 31
0.0
  0
LINE
  5
331
330
37
100
AcDbEntity
  8
0
 62
     0
100
AcDbLine
 10
13.9
 20
9.480582617584076
 30
0.0
 11
14.41941676903803
 21
9.999999386622105
 31
0.0
  0
LINE
  5
332
330
37
100
AcDbEntity
  8
0
 62
     0
100
AcDbLine
 10
13.9
 20
9.657359312880712
 30
0.0
 11
14.24264028249628
 21
9.999999595376992
 31
0.0
  0
LINE
  5
333
330
37
100
AcDbEntity
  8
0
 62
     0
100
AcDbLine
 10
13.9
 20
9.834136008177351
 30
0.0
 11
14.06586379595453
 21
9.99999980413188
 31
0.0
  0
LINE
  5
334
330
37
100
AcDbEntity
  8
0
 62
     0
100
AcDbLine
 10
13.9
 20
6.121825406947976
 30
0.0
 11
16.65024539739187
 21
8.872070804339848
 31
0.0
  0
LINE
  5
335
330
37
100
AcDbEntity
  8
0
 62
     0
100
AcDbLine
 10
13.9
 20
5.945048711651339
 30
0.0
 11
16.71203459532913
 21
8.75708330698047
 31
0.0
  0
LINE
  5
336
330
37
100
AcDbEntity
  8
0
 62
     0
100
AcDbLine
 10
13.9
 20
5.768272016354702
 30
0.0
 11
16.76806734382514
 21
8.636339360179849
 31
0.0
  0
LINE
  5
337
330
37
100
AcDbEntity
  8
0
 62
     0
100
AcDbLine
 10
13.9
 20
5.591495321058065
 30
0.0
 11
16.81795531761595
 21
8.509450638674019
 31
0.0
  0
LINE
  5
338
330
37
100
AcDbEntity
  8
0
 62
     0
100
AcDbLine
 10
13.9
 20
5.414718625761429
 30
0.0
 11
16.86118931399924
 21
8.375907939760674
 31
0.0
  0
LINE
  5
339
330
37
100
AcDbEntity
  8
0
 62
     0
100
AcDbLine
 10
13.9
 20
5.237941930464791
 30
0.0
 11
16.89709737442627
 21
8.235039304891063
 31
0.0
  0
LINE
  5
33A
330
37
100
AcDbEntity
  8
0
 62
     0
100
AcDbLine
 10
14.03883476483184
 20
5.2
 30
0.0
 11
16.92477897501023
 21
8.085944210178388
 31
0.0
  0
LINE
  5
33B
330
37
100
AcDbEntity
  8
0
 62
     0
100
AcDbLine
 10
14.21561146012848
 20
5.2
 30
0.0
 11
16.94299675793814
 21
7.927385297809664
 31
0.0
  0
LINE
  5
33C
330
37
100
AcDbEntity
  8
0
 62
     0
100
AcDbLine
 10
14.39238815542512
 20
5.2
 30
0.0
 11
16.9499871677438
 21
7.757599012318679
 31
0.0
  0
LINE
  5
33D
330
37
100
AcDbEntity
  8
0
 62
     0
100
AcDbLine
 10
14.56916485072175
 20
5.2
 30
0.0
 11
16.94310086073496
 21
7.573936010013212
 31
0.0
  0
LINE
  5
33E
330
37
100
AcDbEntity
  8
0
 62
     0
100
AcDbLine
 10
14.74594154601839
 20
5.2
 30
0.0
 11
16.91803700563266
 21
7.372095459614269
 31
0.0
  0
LINE
  5
33F
330
37
100
AcDbEntity
  8
0
 62
     0
100
AcDbLine
 10
14.92271824131503
 20
5.2
 30
0.0
 11
16.86690917579153
 21
7.144190934476499
 31
0.0
  0
LINE
  5
340
330
37
100
AcDbEntity
  8
0
 62
     0
100
AcDbLine
 10
15.09949493661166
 20
5.2
 30
0.0
 11
16.77171472429693
 21
6.872219787685267
 31
0.0
  0
LINE
  5
341
330
37
100
AcDbEntity
  8
0
 62
     0
100
AcDbLine
 10
15.2762716319083
 20
5.2
 30
0.0
 11
15.84795125284192
 21
5.771679620933618
 31
0.0
  0
LINE
  5
342
330
37
100
AcDbEntity
  8
0
 62
     0
100
AcDbLine
 10
15.96672997781769
 20
5.89045834590939
 30
0.0
 11
16.55954165409061
 21
6.483270022182311
 31
0.0
  0
LINE
  5
343
330
37
100
AcDbEntity
  8
0
 62
     0
100
AcDbLine
 10
15.45304832720494
 20
5.2
 30
0.0
 11
15.97066124869689
 21
5.717612921491952
 31
0.0
  0
LINE
  5
344
330
37
100
AcDbEntity
  8
0
 62
     0
100
AcDbLine
 10
15.62982502250157
 20
5.2
 30
0.0
 11
16.08893422102424
 21
5.659109198522661
 31
0.0
  0
LINE
  5
345
330
37
100
AcDbEntity
  8
0
 62
     0
100
AcDbLine
 10
15.80660171779821
 20
5.2
 30
0.0
 11
16.20296425787942
 21
5.59636254008121
 31
0.0
  0
LINE
  5
346
330
37
100
AcDbEntity
  8
0
 62
     0
100
AcDbLine
 10
15.98337841309485
 20
5.2
 30
0.0
 11
16.31290894781219
 21
5.529530534717341
 31
0.0
  0
LINE
  5
347
330
37
100
AcDbEntity
  8
0
 62
     0
100
AcDbLine
 10
16.16015510839148
 20
5.2
 30
0.0
 11
16.41889477551746
 21
5.458739667125973
 31
0.0
  0
LINE
  5
348
330
37
100
AcDbEntity
  8
0
 62
     0
100
AcDbLine
 10
16.33693180368812
 20
5.2
 30
0.0
 11
16.52102114525041
 21
5.384089341562286
 31
0.0
  0
LINE
  5
349
330
37
100
AcDbEntity
  8
0
 62
     0
100
AcDbLine
 10
16.51370849898476
 20
5.2
 30
0.0
 11
16.61936335457592
 21
5.305654855591162
 31
0.0
  0
LINE
  5
34A
330
37
100
AcDbEntity
  8
0
 62
     0
100
AcDbLine
 10
16.69048519428139
 20
5.2
 30
0.0
 11
16.71397473843326
 21
5.223489544151862
 31
0.0
  0
ENDBLK
  5
34B
330
37
100
AcDbEntity
  8
0
100
AcDbBlockEnd
  0
BLOCK
  5
34C
330
38
100
AcDbEntity
  8
0
100
AcDbBlockBegin
  2
*X22
 70
     1
 10
0.0
 20
0.0
 30
0.0
  3
*X22
  1

  0
LINE
  5
34D
330
38
100
AcDbEntity
  8
0
 62
     0
100
AcDbLine
 10
13.9
 20
0.8185245480488701
 30
0.0
 11
17.39644991717202
 21
4.314974465220889
 31
0.0
  0
LINE
  5
34E
330
38
100
AcDbEntity
  8
0
 62
     0
100
AcDbLine
 10
13.9
 20
0.995301243345507
 30
0.0
 11
17.33635410458252
 21
4.431655347928027
 31
0.0
  0
LINE
  5
34F
330
38
100
AcDbEntity
  8
0
 62
     0
100
AcDbLine
 10
13.9
 20
1.172077938642143
 30
0.0
 11
17.27207765977055
 21
4.544155598412691
 31
0.0
  0
LINE
  5
350
330
38
100
AcDbEntity
  8
0
 62
     0
100
AcDbLine
 10
13.9
 20
1.34885463393878
 30
0.0
 11
17.20376610315736
 21
4.652620737096146
 31
0.0
  0
LINE
  5
351
330
38
100
AcDbEntity
  8
0
 62
     0
100
AcDbLine
 10
13.9
 20
1.525631329235417
 30
0.0
 11
17.13153548167385
 21
4.757166810909273
 31
0.0
  0
LINE
  5
352
330
38
100
AcDbEntity
  8
0
 62
     0
100
AcDbLine
 10
13.9
 20
1.702408024532054
 30
0.0
 11
16.99759197546794
 21
4.8
 31
0.0
  0
LINE
  5
353
330
38
100
AcDbEntity
  8
0
 62
     0
100
AcDbLine
 10
13.9
 20
1.879184719828691
 30
0.0
 11
16.82081528017131
 21
4.8
 31
0.0
  0
LINE
  5
354
330
38
100
AcDbEntity
  8
0
 62
     0
100
AcDbLine
 10
13.9
 20
2.055961415125328
 30
0.0
 11
16.64403858487467
 21
4.8
 31
0.0
  0
LINE
  5
355
330
38
100
AcDbEntity
  8
0
 62
     0
100
AcDbLine
 10
13.9
 20
2.232738110421965
 30
0.0
 11
16.46726188957803
 21
4.8
 31
0.0
  0
LINE
  5
356
330
38
100
AcDbEntity
  8
0
 62
     0
100
AcDbLine
 10
13.9
 20
2.409514805718601
 30
0.0
 11
16.2904851942814
 21
4.8
 31
0.0
  0
LINE
  5
357
330
38
100
AcDbEntity
  8
0
 62
     0
100
AcDbLine
 10
13.9
 20
2.586291501015238
 30
0.0
 11
16.11370849898476
 21
4.8
 31
0.0
  0
LINE
  5
358
330
38
100
AcDbEntity
  8
0
 62
     0
100
AcDbLine
 10
13.9
 20
2.763068196311875
 30
0.0
 11
15.93693180368812
 21
4.8
 31
0.0
  0
LINE
  5
359
330
38
100
AcDbEntity
  8
0
 62
     0
100
AcDbLine
 10
13.9
 20
2.939844891608512
 30
0.0
 11
15.76015510839149
 21
4.8
 31
0.0
  0
LINE
  5
35A
330
38
100
AcDbEntity
  8
0
 62
     0
100
AcDbLine
 10
13.9
 20
3.116621586905149
 30
0.0
 11
15.58337841309485
 21
4.8
 31
0.0
  0
LINE
  5
35B
330
38
100
AcDbEntity
  8
0
 62
     0
100
AcDbLine
 10
13.9
 20
3.293398282201786
 30
0.0
 11
15.40660171779821
 21
4.8
 31
0.0
  0
LINE
  5
35C
330
38
100
AcDbEntity
  8
0
 62
     0
100
AcDbLine
 10
13.9
 20
3.470174977498423
 30
0.0
 11
15.22982502250157
 21
4.8
 31
0.0
  0
LINE
  5
35D
330
38
100
AcDbEntity
  8
0
 62
     0
100
AcDbLine
 10
13.9
 20
3.64695167279506
 30
0.0
 11
15.05304832720494
 21
4.8
 31
0.0
  0
LINE
  5
35E
330
38
100
AcDbEntity
  8
0
 62
     0
100
AcDbLine
 10
13.9
 20
3.823728368091696
 30
0.0
 11
14.8762716319083
 21
4.8
 31
0.0
  0
LINE
  5
35F
330
38
100
AcDbEntity
  8
0
 62
     0
100
AcDbLine
 10
13.9
 20
4.000505063388334
 30
0.0
 11
14.69949493661166
 21
4.8
 31
0.0
  0
LINE
  5
360
330
38
100
AcDbEntity
  8
0
 62
     0
100
AcDbLine
 10
13.9
 20
4.17728175868497
 30
0.0
 11
14.52271824131503
 21
4.8
 31
0.0
  0
LINE
  5
361
330
38
100
AcDbEntity
  8
0
 62
     0
100
AcDbLine
 10
13.9
 20
4.354058453981607
 30
0.0
 11
14.34594154601839
 21
4.8
 31
0.0
  0
LINE
  5
362
330
38
100
AcDbEntity
  8
0
 62
     0
100
AcDbLine
 10
13.9
 20
4.530835149278244
 30
0.0
 11
14.16916485072175
 21
4.8
 31
0.0
  0
LINE
  5
363
330
38
100
AcDbEntity
  8
0
 62
     0
100
AcDbLine
 10
13.9
 20
4.707611844574881
 30
0.0
 11
13.99238815542512
 21
4.8
 31
0.0
  0
LINE
  5
364
330
38
100
AcDbEntity
  8
0
 62
     0
100
AcDbLine
 10
13.9
 20
0.6417478527522334
 30
0.0
 11
17.45218526214292
 21
4.193933114895161
 31
0.0
  0
LINE
  5
365
330
38
100
AcDbEntity
  8
0
 62
     0
100
AcDbLine
 10
13.9
 20
0.4649711574555965
 30
0.0
 11
17.50333949830906
 21
4.068310655764662
 31
0.0
  0
LINE
  5
366
330
38
100
AcDbEntity
  8
0
 62
     0
100
AcDbLine
 10
13.9
 20
0.2881944621589596
 30
0.0
 11
17.54964242799989
 21
3.937836890158853
 31
0.0
  0
LINE
  5
367
330
38
100
AcDbEntity
  8
0
 62
     0
100
AcDbLine
 10
13.9
 20
0.1114177668623227
 30
0.0
 11
17.59076236298873
 21
3.802180129851055
 31
0.0
  0
LINE
  5
368
330
38
100
AcDbEntity
  8
0
 62
     0
100
AcDbLine
 10
13.96535907380306
 20
0.0000001453687495
 30
0.0
 11
17.62628957551245
 21
3.660930647078139
 31
0.0
  0
LINE
  5
369
330
38
100
AcDbEntity
  8
0
 62
     0
100
AcDbLine
 10
14.14213616227945
 20
0.0000005385484993
 30
0.0
 11
17.65571284726207
 21
3.513577223531124
 31
0.0
  0
LINE
  5
36A
330
38
100
AcDbEntity
  8
0
 62
     0
100
AcDbLine
 10
14.31891325075583
 20
0.0000009317282491
 30
0.0
 11
17.67838532706747
 21
3.359473008039884
 31
0.0
  0
LINE
  5
36B
330
38
100
AcDbEntity
  8
0
 62
     0
100
AcDbLine
 10
14.49569033923222
 20
0.0000013249079989
 30
0.0
 11
17.6934731399576
 21
3.197784125633374
 31
0.0
  0
LINE
  5
36C
330
38
100
AcDbEntity
  8
0
 62
     0
100
AcDbLine
 10
14.67246742770861
 20
0.0000017180877487
 30
0.0
 11
17.6998747877926
 21
3.027409078171735
 31
0.0
  0
LINE
  5
36D
330
38
100
AcDbEntity
  8
0
 62
     0
100
AcDbLine
 10
14.85315433025688
 20
0.0039119253393838
 30
0.0
 11
17.69608807466061
 21
2.846845669743118
 31
0.0
  0
LINE
  5
36E
330
38
100
AcDbEntity
  8
0
 62
     0
100
AcDbLine
 10
15.04604362941941
 20
0.0200245292052809
 30
0.0
 11
17.67997547079472
 21
2.653956370580586
 31
0.0
  0
LINE
  5
36F
330
38
100
AcDbEntity
  8
0
 62
     0
100
AcDbLine
 10
15.25448294516349
 20
0.051687149652724
 30
0.0
 11
17.64831285034728
 21
2.445517054836507
 31
0.0
  0
LINE
  5
370
330
38
100
AcDbEntity
  8
0
 62
     0
100
AcDbLine
 10
15.48376230096711
 20
0.104189810159703
 30
0.0
 11
17.5958101898403
 21
2.216237699032893
 31
0.0
  0
LINE
  5
371
330
38
100
AcDbEntity
  8
0
 62
     0
100
AcDbLine
 10
15.74378625147994
 20
0.1874370653758922
 30
0.0
 11
17.51256293462411
 21
1.956213748520063
 31
0.0
  0
LINE
  5
372
330
38
100
AcDbEntity
  8
0
 62
     0
100
AcDbLine
 10
16.05817558800134
 20
0.3250497066006601
 30
0.0
 11
17.37495029339934
 21
1.641824411998659
 31
0.0
  0
LINE
  5
373
330
38
100
AcDbEntity
  8
0
 62
     0
100
AcDbLine
 10
16.54193023656893
 20
0.6320276598716133
 30
0.0
 11
17.06797234012839
 21
1.158069763431071
 31
0.0
  0
ENDBLK
  5
374
330
38
100
AcDbEntity
  8
0
100
AcDbBlockEnd
  0
BLOCK
  5
375
330
39
100
AcDbEntity
  8
0
  6
DASHED
100
AcDbBlockBegin
  2
P1
 70
     0
 10
0.0
 20
0.0
 30
0.0
  3
P1
  1

  0
LINE
  5
376
330
39
100
AcDbEntity
  8
BASE
  6
Continuous
100
AcDbLine
 10
4.212287661042125
 20
0.8452785524876276
 30
0.0
 11
4.212287661042125
 21
-0.9428528601028745
 31
0.0
  0
LINE
  5
377
330
39
100
AcDbEntity
  8
BASE
  6
Continuous
100
AcDbLine
 10
1.258175498546364
 20
2.198162772681769
 30
0.0
 11
2.158852270356902
 21
1.074413724303326
 31
0.0
  0
LINE
  5
378
330
39
100
AcDbEntity
  8
BASE
  6
Continuous
100
AcDbLine
 10
-1.187231742400228
 20
-1.167602669778545
 30
0.0
 11
1.688878957498957
 21
1.660955910530105
 31
0.0
  0
LINE
  5
379
330
39
100
AcDbEntity
  8
BASE
  6
Continuous
100
AcDbLine
 10
-3.571376138369316
 20
0.0
 30
0.0
 11
4.216828888462998
 21
0.0
 31
0.0
  0
LINE
  5
37A
330
39
100
AcDbEntity
  8
BASE
  6
Continuous
100
AcDbLine
 10
-3.602407859078766
 20
0.8452785524876276
 30
0.0
 11
-3.602407859078766
 21
-0.9428528601028745
 31
0.0
  0
ENDBLK
  5
37B
330
39
100
AcDbEntity
  8
0
  6
DASHED
100
AcDbBlockEnd
  0
BLOCK
  5
37C
330
3A
100
AcDbEntity
  8
0
  6
DASHED
100
AcDbBlockBegin
  2
B155
 70
     0
 10
0.0
 20
0.0
 30
0.0
  3
B155
  1

  0
LINE
  5
37D
330
3A
100
AcDbEntity
  8
0
  6
Continuous
100
AcDbLine
 10
0.0
 20
0.0
 30
0.0
 11
0.0
 21
-1.35427039676108
 31
0.0
  0
LINE
  5
37E
330
3A
100
AcDbEntity
  8
0
  6
Continuous
100
AcDbLine
 10
-1.210227677948239
 20
-1.35427039676108
 30
0.0
 11
-0.0158866873312604
 21
-1.35427039676108
 31
0.0
  0
LINE
  5
37F
330
3A
100
AcDbEntity
  8
0
  6
Continuous
100
AcDbLine
 10
-0.0158866873312604
 20
-1.35427039676108
 30
0.0
 11
1.178454303285661
 21
-1.35427039676108
 31
0.0
  0
LINE
  5
380
330
3A
100
AcDbEntity
  8
0
  6
Continuous
100
AcDbLine
 10
-0.8318226116142
 20
-1.833880657537918
 30
0.0
 11
0.7527486036598248
 21
-1.833880657537918
 31
0.0
  0
LINE
  5
381
330
3A
100
AcDbEntity
  8
0
  6
Continuous
100
AcDbLine
 10
-0.5007181785718445
 20
-2.322055387257194
 30
0.0
 11
0.3861686956486778
 21
-2.322055387257194
 31
0.0
  0
ENDBLK
  5
382
330
3A
100
AcDbEntity
  8
0
  6
DASHED
100
AcDbBlockEnd
  0
BLOCK
  5
383
330
3B
100
AcDbEntity
  8
0
  6
DASHED
100
AcDbBlockBegin
  2
BK
 70
     0
 10
0.0
 20
0.0
 30
0.0
  3
BK
  1

  0
TEXT
  5
384
330
3B
100
AcDbEntity
  8
0
  6
DASHED
100
AcDbText
 10
0.1829753448059605
 20
0.1877386645733061
 30
0.0
 40
2.0
  1
REDRAWN WITH AUTOCAD               / RITU Power
100
AcDbText
  0
ENDBLK
  5
385
330
3B
100
AcDbEntity
  8
0
  6
DASHED
100
AcDbBlockEnd
  0
ENDSEC
  0
SECTION
  2
ENTITIES
  0
INSERT
  5
386
330
1E
100
AcDbEntity
  8
0
100
AcDbBlockReference
  2
1
 10
65.40543794728922
 20
98.7130660876682
 30
0.0
  0
INSERT
  5
387
330
1E
100
AcDbEntity
  8
0
100
AcDbBlockReference
  2
1
 10
72.5416524658361
 20
49.71055967492806
 30
0.0
  0
INSERT
  5
388
330
1E
100
AcDbEntity
  8
0
100
AcDbBlockReference
  2
1
 10
85.39044274796726
 20
73.49723378259056
 30
0.0
  0
LINE
  5
389
330
1E
100
AcDbEntity
  8
BASE
  6
CENTER
100
AcDbLine
 10
267.5
 20
237.5
 30
0.0
 11
267.5
 21
60.0
 31
0.0
  0
INSERT
  5
38A
330
1E
100
AcDbEntity
  8
BASE
  6
Continuous
100
AcDbBlockReference
  2
BLC38
 10
230.0
 20
80.0
 30
0.0
  0
LINE
  5
38B
330
1E
100
AcDbEntity
  8
BASE
  6
Continuous
100
AcDbLine
 10
200.0
 20
65.32230404312577
 30
0.0
 11
200.0
 21
60.0
 31
0.0
  0
LINE
  5
38C
330
1E
100
AcDbEntity
  8
BASE
  6
Continuous
100
AcDbLine
 10
215.0
 20
65.32230404312577
 30
0.0
 11
215.0
 21
60.0
 31
0.0
  0
LINE
  5
38D
330
1E
100
AcDbEntity
  8
BASE
  6
Continuous
100
AcDbLine
 10
214.9999999999999
 20
71.34033938790617
 30
0.0
 11
215.0
 21
75.0
 31
0.0
  0
LINE
  5
38E
330
1E
100
AcDbEntity
  8
BASE
  6
Continuous
100
AcDbLine
 10
215.0
 20
76.19853573358051
 30
0.0
 11
215.0
 21
78.69853573358051
 31
0.0
  0
LINE
  5
38F
330
1E
100
AcDbEntity
  8
BASE
  6
Continuous
100
AcDbLine
 10
242.5
 20
75.0
 30
0.0
 11
252.4999999999999
 21
75.0
 31
0.0
  0
LINE
  5
390
330
1E
100
AcDbEntity
  8
BASE
  6
Continuous
100
AcDbLine
 10
242.5
 20
75.0
 30
0.0
 11
245.0
 21
77.5
 31
0.0
  0
LINE
  5
391
330
1E
100
AcDbEntity
  8
BASE
  6
Continuous
100
AcDbLine
 10
247.5
 20
75.0
 30
0.0
 11
250.0
 21
77.5
 31
0.0
  0
LINE
  5
392
330
1E
100
AcDbEntity
  8
BASE
  6
Continuous
100
AcDbLine
 10
252.4999999999999
 20
75.0
 30
0.0
 11
255.0
 21
77.5
 31
0.0
  0
LINE
  5
393
330
1E
100
AcDbEntity
  8
BASE
  6
Continuous
100
AcDbLine
 10
247.5
 20
75.0
 30
0.0
 11
247.5
 21
60.0
 31
0.0
  0
LINE
  5
394
330
1E
100
AcDbEntity
  8
BASE
  6
Continuous
100
AcDbLine
 10
235.0
 20
77.5
 30
0.0
 11
235.0
 21
60.0
 31
0.0
  0
LINE
  5
395
330
1E
100
AcDbEntity
  8
BASE
  6
Continuous
100
AcDbLine
 10
230.0
 20
77.5
 30
0.0
 11
230.0
 21
60.0
 31
0.0
  0
INSERT
  5
396
330
1E
100
AcDbEntity
  8
0
  6
DASHED
100
AcDbBlockReference
  2
BLC55
 10
247.7048605164344
 20
49.09883621586612
 30
0.0
  0
LINE
  5
397
330
1E
100
AcDbEntity
  8
0
  6
DASHED
100
AcDbLine
 10
235.0
 20
60.0
 30
0.0
 11
235.0
 21
52.5
 31
0.0
  0
LINE
  5
398
330
1E
100
AcDbEntity
  8
0
  6
DASHED
100
AcDbLine
 10
247.5
 20
60.0
 30
0.0
 11
247.5
 21
52.5
 31
0.0
  0
LINE
  5
399
330
1E
100
AcDbEntity
  8
0
  6
DASHED
100
AcDbLine
 10
230.0
 20
60.0
 30
0.0
 11
230.0
 21
52.5
 31
0.0
  0
LINE
  5
39A
330
1E
100
AcDbEntity
  8
0
  6
DASHED
100
AcDbLine
 10
215.0
 20
60.0
 30
0.0
 11
215.0
 21
52.5
 31
0.0
  0
LINE
  5
39B
330
1E
100
AcDbEntity
  8
0
  6
DASHED
100
AcDbLine
 10
200.0
 20
60.0
 30
0.0
 11
200.0
 21
52.5
 31
0.0
  0
LINE
  5
39C
330
1E
100
AcDbEntity
  8
0
  6
DASHED
100
AcDbLine
 10
185.0
 20
60.0
 30
0.0
 11
185.0
 21
52.5
 31
0.0
  0
INSERT
  5
39D
330
1E
100
AcDbEntity
  8
0
  6
DASHED
100
AcDbBlockReference
  2
BLC43
 10
185.0
 20
47.5
 30
0.0
  0
INSERT
  5
39E
330
1E
100
AcDbEntity
  8
0
  6
DASHED
100
AcDbBlockReference
  2
BLC43
 10
200.0
 20
47.5
 30
0.0
  0
INSERT
  5
39F
330
1E
100
AcDbEntity
  8
0
  6
DASHED
100
AcDbBlockReference
  2
BLC42
 10
215.0
 20
47.5
 30
0.0
  0
INSERT
  5
3A0
330
1E
100
AcDbEntity
  8
0
  6
DASHED
100
AcDbBlockReference
  2
BLC42
 10
235.0
 20
47.5
 30
0.0
  0
INSERT
  5
3A1
330
1E
100
AcDbEntity
  8
0
  6
DASHED
100
AcDbBlockReference
  2
BLC43
 10
230.0
 20
47.5
 30
0.0
  0
LINE
  5
3A2
330
1E
100
AcDbEntity
  8
BASE
  6
Continuous
100
AcDbLine
 10
190.0
 20
160.2328905238334
 30
0.0
 11
222.5
 21
160.2328905238334
 31
0.0
  0
TEXT
  5
3A3
330
1E
100
AcDbEntity
  8
BASE
  6
Continuous
100
AcDbText
 10
201.9087664039472
 20
161.2958146562257
 30
0.0
 40
2.5
  1
IRF
 11
201.9087664039472
 21
160.4624813228923
 31
0.0
100
AcDbText
 73
     1
  0
LINE
  5
3A4
330
1E
100
AcDbEntity
  8
BASE
  6
Continuous
100
AcDbLine
 10
200.0
 20
127.5
 30
0.0
 11
200.0
 21
71.34033938790617
 31
0.0
  0
INSERT
  5
3A5
330
1E
100
AcDbEntity
  8
0
  6
Continuous
100
AcDbBlockReference
  2
BLC44
 10
233.0461929799833
 20
44.08564962995557
 30
0.0
  0
LINE
  5
3A6
330
1E
100
AcDbEntity
  8
BASE
  6
Continuous
100
AcDbLine
 10
190.0
 20
165.0
 30
0.0
 11
222.5
 21
165.0
 31
0.0
  0
CIRCLE
  5
3A7
330
1E
100
AcDbEntity
  8
BASE
  6
Continuous
100
AcDbCircle
 10
189.0126585353903
 20
162.4983241333401
 30
0.0
 40
1.0
  0
LINE
  5
3A8
330
1E
100
AcDbEntity
  8
BASE
  6
Continuous
100
AcDbLine
 10
220.855814461627
 20
192.1909476738519
 30
0.0
 11
218.5100489494014
 21
191.0010285251075
 31
0.0
  0
LINE
  5
3A9
330
1E
100
AcDbEntity
  8
BASE
  6
Continuous
100
AcDbLine
 10
218.5100489494014
 20
193.5263013852207
 30
0.0
 11
220.855814461627
 21
192.1909476738519
 31
0.0
  0
LINE
  5
3AA
330
1E
100
AcDbEntity
  8
BASE
  6
Continuous
100
AcDbLine
 10
196.4687679986652
 20
189.4021452626977
 30
0.0
 11
194.1230024864396
 21
188.2122261139532
 31
0.0
  0
LINE
  5
3AB
330
1E
100
AcDbEntity
  8
BASE
  6
Continuous
100
AcDbLine
 10
194.1230024864396
 20
190.7374989740664
 30
0.0
 11
196.4687679986652
 21
189.4021452626977
 31
0.0
  0
LINE
  5
3AC
330
1E
100
AcDbEntity
  8
BASE
  6
Continuous
100
AcDbLine
 10
196.1567443965568
 20
190.7374989740664
 30
0.0
 11
198.5025099087824
 21
189.4021452626977
 31
0.0
  0
LINE
  5
3AD
330
1E
100
AcDbEntity
  8
BASE
  6
Continuous
100
AcDbLine
 10
198.5025099087824
 20
189.4021452626977
 30
0.0
 11
196.1567443965568
 21
188.2122261139532
 31
0.0
  0
TEXT
  5
3AE
330
1E
100
AcDbEntity
  8
BASE
  6
Continuous
100
AcDbText
 10
191.8207154519098
 20
188.2316489585429
 30
0.0
 40
2.5
  1
I
 11
191.8207154519098
 21
187.3983156252095
 31
0.0
100
AcDbText
 73
     1
  0
TEXT
  5
3AF
330
1E
100
AcDbEntity
  8
BASE
  6
Continuous
100
AcDbText
 10
191.8359315311757
 20
198.1083255916778
 30
0.0
 40
2.5
  1
I
 11
191.8359315311757
 21
197.2749922583445
 31
0.0
100
AcDbText
 73
     1
  0
LINE
  5
3B0
330
1E
100
AcDbEntity
  8
BASE
  6
Continuous
100
AcDbLine
 10
196.6969078818116
 20
199.2788218958326
 30
0.0
 11
194.351142369586
 21
198.0889027470882
 31
0.0
  0
LINE
  5
3B1
330
1E
100
AcDbEntity
  8
BASE
  6
Continuous
100
AcDbLine
 10
194.351142369586
 20
200.6141756072014
 30
0.0
 11
196.6969078818116
 21
199.2788218958326
 31
0.0
  0
LINE
  5
3B2
330
1E
100
AcDbEntity
  8
BASE
  6
Continuous
100
AcDbLine
 10
190.0
 20
220.0
 30
0.0
 11
190.0
 21
205.0
 31
0.0
  0
LINE
  5
3B3
330
1E
100
AcDbEntity
  8
BASE
  6
Continuous
100
AcDbLine
 10
190.0
 20
220.0
 30
0.0
 11
190.0
 21
225.0
 31
0.0
  0
LINE
  5
3B4
330
1E
100
AcDbEntity
  8
BASE
  6
Continuous
100
AcDbLine
 10
190.0
 20
205.0
 30
0.0
 11
190.0
 21
160.2328905238334
 31
0.0
  0
TEXT
  5
3B5
330
1E
100
AcDbEntity
  8
BASE
  6
Continuous
100
AcDbText
 10
214.0271173482706
 20
191.0525893015406
 30
0.0
 40
2.5
  1
3I
100
AcDbText
  0
LINE
  5
3B6
330
1E
100
AcDbEntity
  8
BASE
  6
CENTER
100
AcDbLine
 10
67.5
 20
237.5
 30
0.0
 11
67.5
 21
60.0
 31
0.0
  0
TEXT
  5
3B7
330
1E
100
AcDbEntity
  8
BASE
  6
DASHED
100
AcDbText
 10
88.19737272514714
 20
140.9034924824313
 30
0.0
 40
2.0
  1
A
100
AcDbText
  0
TEXT
  5
3B8
330
1E
100
AcDbEntity
  8
BASE
  6
DASHED
100
AcDbText
 10
106.6433730119736
 20
128.7745883813304
 30
0.0
 40
2.0
  1
B
100
AcDbText
  0
TEXT
  5
3B9
330
1E
100
AcDbEntity
  8
BASE
  6
DASHED
100
AcDbText
 10
116.0551094874191
 20
118.1343644375018
 30
0.0
 40
2.0
  1
C
100
AcDbText
  0
TEXT
  5
3BA
330
1E
100
AcDbEntity
  8
BASE
  6
DASHED
100
AcDbText
 10
125.9840135397346
 20
105.7557517332582
 30
0.0
 40
2.0
  1
D
100
AcDbText
  0
TEXT
  5
3BB
330
1E
100
AcDbEntity
  8
BASE
  6
DASHED
100
AcDbText
 10
135.671572722844
 20
95.86465359885755
 30
0.0
 40
2.0
  1
E
100
AcDbText
  0
LINE
  5
3BC
330
1E
100
AcDbEntity
  8
BASE
  6
CENTER
100
AcDbLine
 10
67.5
 20
60.0
 30
0.0
 11
267.5
 21
60.0
 31
0.0
  0
LINE
  5
3BD
330
1E
100
AcDbEntity
  8
BASE
  6
Continuous
100
AcDbLine
 10
185.0
 20
72.5
 30
0.0
 11
185.0
 21
60.0
 31
0.0
  0
LINE
  5
3BE
330
1E
100
AcDbEntity
  8
BASE
  6
Continuous
100
AcDbLine
 10
210.0
 20
65.32230404312577
 30
0.0
 11
210.0
 21
60.0
 31
0.0
  0
LINE
  5
3BF
330
1E
100
AcDbEntity
  8
BASE
  6
Continuous
100
AcDbLine
 10
210.0
 20
140.0
 30
0.0
 11
210.0
 21
71.34033938790617
 31
0.0
  0
LINE
  5
3C0
330
1E
100
AcDbEntity
  8
BASE
  6
CENTER
100
AcDbLine
 10
267.5
 20
237.5
 30
0.0
 11
67.5
 21
237.5
 31
0.0
  0
INSERT
  5
3C1
330
1E
100
AcDbEntity
  8
0
  6
DASHED
100
AcDbBlockReference
  2
BLC43
 10
210.0
 20
47.5
 30
0.0
  0
LINE
  5
3C2
330
1E
100
AcDbEntity
  8
0
  6
DASHED
100
AcDbLine
 10
210.0
 20
60.0
 30
0.0
 11
210.0
 21
52.5
 31
0.0
  0
TEXT
  5
3C3
330
1E
100
AcDbEntity
  8
0
  6
DASHED
100
AcDbText
 10
363.9433590181657
 20
220.7684741926578
 30
0.0
 40
2.5
  1
3I
100
AcDbText
  0
LINE
  5
3C4
330
1E
100
AcDbEntity
  8
0
  6
Continuous
100
AcDbLine
 10
368.3505791940256
 20
223.3167540133338
 30
0.0
 11
370.6963447062512
 21
221.981400301965
 31
0.0
  0
LINE
  5
3C5
330
1E
100
AcDbEntity
  8
0
  6
Continuous
100
AcDbLine
 10
370.6963447062512
 20
221.981400301965
 30
0.0
 11
368.3505791940256
 21
220.7914811532206
 31
0.0
  0
LINE
  5
3C6
330
1E
100
AcDbEntity
  8
0
  6
Continuous
100
AcDbLine
 10
363.1002754361849
 20
217.7061432261182
 30
0.0
 11
363.1002754361849
 21
215.9180118135277
 31
0.0
  0
LINE
  5
3C7
330
1E
100
AcDbEntity
  8
0
  6
Continuous
100
AcDbLine
 10
363.1313071568943
 20
216.8608646736306
 30
0.0
 11
370.9195121837266
 21
216.8608646736306
 31
0.0
  0
LINE
  5
3C8
330
1E
100
AcDbEntity
  8
0
  6
Continuous
100
AcDbLine
 10
367.96085879381
 20
219.0590274463124
 30
0.0
 11
368.8615355656205
 21
217.9352783979339
 31
0.0
  0
ARC
  5
3C9
330
1E
100
AcDbEntity
  8
0
  6
HIDDEN
100
AcDbCircle
 10
369.8261750121777
 20
220.789408872707
 30
0.0
 40
4.998195985283786
100
AcDbArc
 50
206.402921519098
 51
282.2111496748031
  0
LINE
  5
3CA
330
1E
100
AcDbEntity
  8
0
  6
Continuous
100
AcDbLine
 10
365.5154515528634
 20
215.693262003852
 30
0.0
 11
368.3915622527626
 21
218.5218205841607
 31
0.0
  0
LINE
  5
3CB
330
1E
100
AcDbEntity
  8
0
  6
Continuous
100
AcDbLine
 10
370.9149709563058
 20
217.7061432261182
 30
0.0
 11
370.9149709563058
 21
215.9180118135277
 31
0.0
  0
TEXT
  5
3CC
330
1E
100
AcDbEntity
  8
0
  6
DASHED
100
AcDbText
 10
363.9433590181657
 20
210.7827521026731
 30
0.0
 40
2.5
  1
3I
100
AcDbText
  0
LINE
  5
3CD
330
1E
100
AcDbEntity
  8
0
  6
Continuous
100
AcDbLine
 10
370.9388694685269
 20
212.0095599658757
 30
0.0
 11
368.5931039563013
 21
210.8196408171313
 31
0.0
  0
LINE
  5
3CE
330
1E
100
AcDbEntity
  8
0
  6
Continuous
100
AcDbLine
 10
368.5931039563013
 20
213.3449136772445
 30
0.0
 11
370.9388694685269
 21
212.0095599658757
 31
0.0
  0
LINE
  5
3CF
330
1E
100
AcDbEntity
  8
0
  6
Continuous
100
AcDbLine
 10
370.535549390823
 20
213.3449136772445
 30
0.0
 11
372.8813149030486
 21
212.0095599658757
 31
0.0
  0
LINE
  5
3D0
330
1E
100
AcDbEntity
  8
0
  6
Continuous
100
AcDbLine
 10
372.8813149030486
 20
212.0095599658757
 30
0.0
 11
370.535549390823
 21
210.8196408171313
 31
0.0
  0
LINE
  5
3D1
330
1E
100
AcDbEntity
  8
0
  6
Continuous
100
AcDbLine
 10
370.9149709563058
 20
208.0521727005848
 30
0.0
 11
370.9149709563058
 21
206.2640412879944
 31
0.0
  0
LINE
  5
3D2
330
1E
100
AcDbEntity
  8
0
  6
Continuous
100
AcDbLine
 10
367.96085879381
 20
209.405056920779
 30
0.0
 11
368.8615355656205
 21
208.2813078724005
 31
0.0
  0
LINE
  5
3D3
330
1E
100
AcDbEntity
  8
0
  6
Continuous
100
AcDbLine
 10
365.5154515528634
 20
206.0392914783187
 30
0.0
 11
368.3915622527626
 21
208.8678500586273
 31
0.0
  0
LINE
  5
3D4
330
1E
100
AcDbEntity
  8
0
  6
Continuous
100
AcDbLine
 10
363.1313071568943
 20
207.2068941480972
 30
0.0
 11
370.9195121837266
 21
207.2068941480972
 31
0.0
  0
LINE
  5
3D5
330
1E
100
AcDbEntity
  8
0
  6
Continuous
100
AcDbLine
 10
363.1002754361849
 20
208.0521727005848
 30
0.0
 11
363.1002754361849
 21
206.2640412879944
 31
0.0
  0
TEXT
  5
3D6
330
1E
100
AcDbEntity
  8
BASE
  6
Continuous
100
AcDbText
 10
216.8413005792159
 20
225.8237514300415
 30
0.0
 40
2.5
  1
U1
100
AcDbText
  0
LINE
  5
3D7
330
1E
100
AcDbEntity
  8
BASE
  6
Continuous
100
AcDbLine
 10
190.0
 20
185.0
 30
0.0
 11
222.5
 21
185.0
 31
0.0
  0
LINE
  5
3D8
330
1E
100
AcDbEntity
  8
BASE
  6
Continuous
100
AcDbLine
 10
190.0
 20
205.0
 30
0.0
 11
210.0
 21
205.0
 31
0.0
  0
LINE
  5
3D9
330
1E
100
AcDbEntity
  8
BASE
  6
Continuous
100
AcDbLine
 10
210.0
 20
205.0
 30
0.0
 11
222.5
 21
205.0
 31
0.0
  0
LINE
  5
3DA
330
1E
100
AcDbEntity
  8
BASE
  6
Continuous
100
AcDbLine
 10
212.5
 20
205.0
 30
0.0
 11
212.5
 21
165.0
 31
0.0
  0
TEXT
  5
3DB
330
1E
100
AcDbEntity
  8
BASE
  6
Continuous
100
AcDbText
 10
216.8413005792159
 20
199.8928171843813
 30
0.0
 40
2.5
  1
U2
100
AcDbText
  0
LINE
  5
3DC
330
1E
100
AcDbEntity
  8
BASE
  6
Continuous
100
AcDbLine
 10
190.0
 20
212.5
 30
0.0
 11
212.5
 21
212.5
 31
0.0
  0
LINE
  5
3DD
330
1E
100
AcDbEntity
  8
BASE
  6
Continuous
100
AcDbLine
 10
211.554660692501
 20
190.2750830807109
 30
0.0
 11
211.554660692501
 21
188.4869516681204
 31
0.0
  0
LINE
  5
3DE
330
1E
100
AcDbEntity
  8
BASE
  6
Continuous
100
AcDbLine
 10
208.5771292468684
 20
191.627967300905
 30
0.0
 11
209.477806018679
 21
190.5042182525266
 31
0.0
  0
LINE
  5
3DF
330
1E
100
AcDbEntity
  8
BASE
  6
Continuous
100
AcDbLine
 10
206.1551412890586
 20
188.2622018584447
 30
0.0
 11
209.0312519889578
 21
191.0907604387534
 31
0.0
  0
LINE
  5
3E0
330
1E
100
AcDbEntity
  8
BASE
  6
Continuous
100
AcDbLine
 10
203.7709968930895
 20
189.4298045282233
 30
0.0
 11
211.5592019199218
 21
189.4298045282233
 31
0.0
  0
LINE
  5
3E1
330
1E
100
AcDbEntity
  8
BASE
  6
Continuous
100
AcDbLine
 10
203.73996517238
 20
190.2750830807109
 30
0.0
 11
203.73996517238
 21
188.4869516681204
 31
0.0
  0
LINE
  5
3E2
330
1E
100
AcDbEntity
  8
BASE
  6
Continuous
100
AcDbLine
 10
203.73996517238
 20
209.1424098771836
 30
0.0
 11
203.73996517238
 21
207.3542784645931
 31
0.0
  0
LINE
  5
3E3
330
1E
100
AcDbEntity
  8
BASE
  6
Continuous
100
AcDbLine
 10
203.7709968930895
 20
208.297131324696
 30
0.0
 11
211.5592019199218
 21
208.297131324696
 31
0.0
  0
LINE
  5
3E4
330
1E
100
AcDbEntity
  8
BASE
  6
Continuous
100
AcDbLine
 10
206.1551412890586
 20
207.1295286549174
 30
0.0
 11
209.0312519889578
 21
209.9580872352261
 31
0.0
  0
LINE
  5
3E5
330
1E
100
AcDbEntity
  8
BASE
  6
Continuous
100
AcDbLine
 10
208.5771292468684
 20
210.4952940973777
 30
0.0
 11
209.477806018679
 21
209.3715450489993
 31
0.0
  0
LINE
  5
3E6
330
1E
100
AcDbEntity
  8
BASE
  6
Continuous
100
AcDbLine
 10
211.554660692501
 20
209.1424098771836
 30
0.0
 11
211.554660692501
 21
207.3542784645931
 31
0.0
  0
LINE
  5
3E7
330
1E
100
AcDbEntity
  8
BASE
  6
Continuous
100
AcDbLine
 10
190.0
 20
225.0
 30
0.0
 11
190.0
 21
230.0
 31
0.0
  0
LINE
  5
3E8
330
1E
100
AcDbEntity
  8
BASE
  6
Continuous
100
AcDbLine
 10
190.0
 20
230.0
 30
0.0
 11
222.5
 21
229.9999999999999
 31
0.0
  0
LINE
  5
3E9
330
1E
100
AcDbEntity
  8
BASE
  6
Continuous
100
AcDbLine
 10
212.5
 20
205.0
 30
0.0
 11
212.5
 21
230.0
 31
0.0
  0
LINE
  5
3EA
330
1E
100
AcDbEntity
  8
BASE
  6
Continuous
100
AcDbLine
 10
132.4999999999999
 20
155.0
 30
0.0
 11
132.4999999999999
 21
150.0
 31
0.0
  0
LINE
  5
3EB
330
1E
100
AcDbEntity
  8
BASE
  6
Continuous
100
AcDbLine
 10
112.5
 20
155.0
 30
0.0
 11
112.5
 21
150.0
 31
0.0
  0
LINE
  5
3EC
330
1E
100
AcDbEntity
  8
BASE
  6
Continuous
100
AcDbLine
 10
100.0
 20
140.0
 30
0.0
 11
210.0
 21
140.0
 31
0.0
  0
LINE
  5
3ED
330
1E
100
AcDbEntity
  8
BASE
  6
Continuous
100
AcDbLine
 10
188.0126599396553
 20
162.5
 30
0.0
 11
167.5
 21
162.5
 31
0.0
  0
LINE
  5
3EE
330
1E
100
AcDbEntity
  8
BASE
  6
DASHED
100
AcDbLine
 10
142.5
 20
150.0
 30
0.0
 11
142.5
 21
93.60082442063939
 31
0.0
  0
LINE
  5
3EF
330
1E
100
AcDbEntity
  8
BASE
  6
DASHED
100
AcDbLine
 10
132.4999999999999
 20
150.0
 30
0.0
 11
132.4999999999999
 21
103.6008244206394
 31
0.0
  0
LINE
  5
3F0
330
1E
100
AcDbEntity
  8
BASE
  6
DASHED
100
AcDbLine
 10
122.5
 20
150.0
 30
0.0
 11
122.5
 21
116.1008244206393
 31
0.0
  0
LINE
  5
3F1
330
1E
100
AcDbEntity
  8
BASE
  6
DASHED
100
AcDbLine
 10
112.5
 20
150.0
 30
0.0
 11
112.5
 21
126.1008244206393
 31
0.0
  0
LINE
  5
3F2
330
1E
100
AcDbEntity
  8
BASE
  6
DASHED
100
AcDbLine
 10
92.5
 20
150.0
 30
0.0
 11
92.5
 21
138.6008244206393
 31
0.0
  0
TEXT
  5
3F3
330
1E
100
AcDbEntity
  8
BASE
  6
Continuous
100
AcDbText
 10
71.40934329700542
 20
164.2409072292994
 30
0.0
 40
2.0
  1
SGR
100
AcDbText
  0
LINE
  5
3F4
330
1E
100
AcDbEntity
  8
BASE
  6
Continuous
100
AcDbLine
 10
190.0
 20
187.5
 30
0.0
 11
190.0
 21
182.5
 31
0.0
  0
INSERT
  5
3F5
330
1E
100
AcDbEntity
  8
BASE
  6
Continuous
100
AcDbBlockReference
  2
BLC29
 10
181.402972366401
 20
162.3715354726668
 30
0.0
 50
180.0
  0
TEXT
  5
3F6
330
1E
100
AcDbEntity
  8
BASE
  6
CENTER
100
AcDbText
 10
260.4147086037459
 20
133.4536746598816
 30
0.0
 40
2.0
  1
10A
100
AcDbText
  0
TEXT
  5
3F7
330
1E
100
AcDbEntity
  8
BASE
  6
CENTER
100
AcDbText
 10
261.449043757486
 20
143.6040528590081
 30
0.0
 40
2.0
  1
9A
100
AcDbText
  0
LINE
  5
3F8
330
1E
100
AcDbEntity
  8
BASE
  6
Continuous
100
AcDbLine
 10
245.0
 20
175.0
 30
0.0
 11
245.0
 21
155.0
 31
0.0
  0
LINE
  5
3F9
330
1E
100
AcDbEntity
  8
BASE
  6
Continuous
100
AcDbLine
 10
262.5
 20
160.0
 30
0.0
 11
267.5
 21
160.0
 31
0.0
  0
LINE
  5
3FA
330
1E
100
AcDbEntity
  8
BASE
  6
Continuous
100
AcDbLine
 10
262.5
 20
170.0
 30
0.0
 11
267.5
 21
170.0
 31
0.0
  0
LINE
  5
3FB
330
1E
100
AcDbEntity
  8
BASE
  6
Continuous
100
AcDbLine
 10
262.5
 20
180.0
 30
0.0
 11
267.5
 21
180.0
 31
0.0
  0
LINE
  5
3FC
330
1E
100
AcDbEntity
  8
BASE
  6
Continuous
100
AcDbLine
 10
262.5
 20
190.0
 30
0.0
 11
267.5
 21
190.0
 31
0.0
  0
LINE
  5
3FD
330
1E
100
AcDbEntity
  8
BASE
  6
Continuous
100
AcDbLine
 10
262.5
 20
200.0
 30
0.0
 11
267.5
 21
200.0
 31
0.0
  0
LINE
  5
3FE
330
1E
100
AcDbEntity
  8
BASE
  6
Continuous
100
AcDbLine
 10
262.5
 20
210.0
 30
0.0
 11
267.5
 21
210.0
 31
0.0
  0
INSERT
  5
3FF
330
1E
100
AcDbEntity
  8
BASE
  6
CENTER
100
AcDbBlockReference
  2
BLC22
 10
252.4999999999999
 20
200.0
 30
0.0
  0
LINE
  5
400
330
1E
100
AcDbEntity
  8
BASE
100
AcDbLine
 10
250.0
 20
195.0
 30
0.0
 11
255.0
 21
195.0
 31
0.0
  0
LINE
  5
401
330
1E
100
AcDbEntity
  8
BASE
100
AcDbLine
 10
255.0
 20
195.0
 30
0.0
 11
257.5
 21
195.0
 31
0.0
  0
LINE
  5
402
330
1E
100
AcDbEntity
  8
BASE
100
AcDbLine
 10
257.5
 20
195.0
 30
0.0
 11
257.5
 21
197.9
 31
0.0
  0
LINE
  5
403
330
1E
100
AcDbEntity
  8
BASE
100
AcDbLine
 10
256.380950475618
 20
196.9444247570639
 30
0.0
 11
257.0603132296923
 21
196.0086814305638
 31
0.0
  0
LINE
  5
404
330
1E
100
AcDbEntity
  8
BASE
100
AcDbLine
 10
262.5
 20
200.0
 30
0.0
 11
256.6999999999999
 21
196.5
 31
0.0
  0
INSERT
  5
405
330
1E
100
AcDbEntity
  8
BASE
  6
CENTER
100
AcDbBlockReference
  2
BLC22
 10
252.4999999999999
 20
180.0
 30
0.0
  0
LINE
  5
406
330
1E
100
AcDbEntity
  8
BASE
100
AcDbLine
 10
262.5
 20
180.0
 30
0.0
 11
256.6999999999999
 21
176.5
 31
0.0
  0
LINE
  5
407
330
1E
100
AcDbEntity
  8
BASE
100
AcDbLine
 10
256.380950475618
 20
176.9444247570639
 30
0.0
 11
257.0603132296923
 21
176.0086814305638
 31
0.0
  0
LINE
  5
408
330
1E
100
AcDbEntity
  8
BASE
100
AcDbLine
 10
257.5
 20
175.0
 30
0.0
 11
257.5
 21
177.9
 31
0.0
  0
LINE
  5
409
330
1E
100
AcDbEntity
  8
BASE
100
AcDbLine
 10
255.0
 20
175.0
 30
0.0
 11
257.5
 21
175.0
 31
0.0
  0
LINE
  5
40A
330
1E
100
AcDbEntity
  8
BASE
100
AcDbLine
 10
250.0
 20
175.0
 30
0.0
 11
255.0
 21
175.0
 31
0.0
  0
INSERT
  5
40B
330
1E
100
AcDbEntity
  8
BASE
  6
CENTER
100
AcDbBlockReference
  2
BLC22
 10
252.4999999999999
 20
160.0
 30
0.0
  0
LINE
  5
40C
330
1E
100
AcDbEntity
  8
BASE
100
AcDbLine
 10
250.0
 20
155.0
 30
0.0
 11
255.0
 21
155.0
 31
0.0
  0
LINE
  5
40D
330
1E
100
AcDbEntity
  8
BASE
100
AcDbLine
 10
255.0
 20
155.0
 30
0.0
 11
257.5
 21
155.0
 31
0.0
  0
LINE
  5
40E
330
1E
100
AcDbEntity
  8
BASE
100
AcDbLine
 10
257.5
 20
155.0
 30
0.0
 11
257.5
 21
157.9
 31
0.0
  0
LINE
  5
40F
330
1E
100
AcDbEntity
  8
BASE
100
AcDbLine
 10
256.380950475618
 20
156.9444247570638
 30
0.0
 11
257.0603132296923
 21
156.0086814305638
 31
0.0
  0
LINE
  5
410
330
1E
100
AcDbEntity
  8
BASE
100
AcDbLine
 10
262.5
 20
160.0
 30
0.0
 11
256.6999999999999
 21
156.4999999999999
 31
0.0
  0
LINE
  5
411
330
1E
100
AcDbEntity
  8
BASE
  6
Continuous
100
AcDbLine
 10
245.0
 20
205.0
 30
0.0
 11
245.0
 21
175.0
 31
0.0
  0
LINE
  5
412
330
1E
100
AcDbEntity
  8
BASE
  6
Continuous
100
AcDbLine
 10
245.0
 20
205.0
 30
0.0
 11
246.0
 21
206.0
 31
0.0
  0
LINE
  5
413
330
1E
100
AcDbEntity
  8
BASE
  6
Continuous
100
AcDbLine
 10
245.0
 20
155.0
 30
0.0
 11
246.0
 21
154.0
 31
0.0
  0
LINE
  5
414
330
1E
100
AcDbEntity
  8
BASE
  6
Continuous
100
AcDbLine
 10
245.0
 20
147.5
 30
0.0
 11
245.0
 21
137.5
 31
0.0
  0
LINE
  5
415
330
1E
100
AcDbEntity
  8
BASE
  6
Continuous
100
AcDbLine
 10
245.0
 20
137.5
 30
0.0
 11
246.0
 21
136.4999999999999
 31
0.0
  0
LINE
  5
416
330
1E
100
AcDbEntity
  8
BASE
  6
Continuous
100
AcDbLine
 10
245.0
 20
147.5
 30
0.0
 11
246.0
 21
148.5
 31
0.0
  0
LINE
  5
417
330
1E
100
AcDbEntity
  8
BASE
  6
Continuous
100
AcDbLine
 10
247.5
 20
205.0
 30
0.0
 11
250.0
 21
205.0
 31
0.0
  0
LINE
  5
418
330
1E
100
AcDbEntity
  8
BASE
  6
Continuous
100
AcDbLine
 10
247.5
 20
195.0
 30
0.0
 11
250.0
 21
195.0
 31
0.0
  0
LINE
  5
419
330
1E
100
AcDbEntity
  8
BASE
  6
Continuous
100
AcDbLine
 10
247.5
 20
185.0
 30
0.0
 11
250.0
 21
185.0
 31
0.0
  0
LINE
  5
41A
330
1E
100
AcDbEntity
  8
BASE
  6
Continuous
100
AcDbLine
 10
247.5
 20
175.0
 30
0.0
 11
250.0
 21
175.0
 31
0.0
  0
LINE
  5
41B
330
1E
100
AcDbEntity
  8
BASE
  6
Continuous
100
AcDbLine
 10
247.5
 20
165.0
 30
0.0
 11
250.0
 21
165.0
 31
0.0
  0
LINE
  5
41C
330
1E
100
AcDbEntity
  8
BASE
  6
Continuous
100
AcDbLine
 10
247.5
 20
155.0
 30
0.0
 11
250.0
 21
155.0
 31
0.0
  0
TEXT
  5
41D
330
1E
100
AcDbEntity
  8
BASE
  6
Continuous
100
AcDbText
 10
261.3682643550349
 20
205.0186363052183
 30
0.0
 40
2.0
  1
3A
100
AcDbText
  0
TEXT
  5
41E
330
1E
100
AcDbEntity
  8
BASE
  6
Continuous
100
AcDbText
 10
261.3682643550349
 20
195.5093730039221
 30
0.0
 40
2.0
  1
4A
100
AcDbText
  0
TEXT
  5
41F
330
1E
100
AcDbEntity
  8
BASE
  6
Continuous
100
AcDbText
 10
261.3682643550349
 20
185.2469475114109
 30
0.0
 40
2.0
  1
5A
100
AcDbText
  0
TEXT
  5
420
330
1E
100
AcDbEntity
  8
BASE
  6
Continuous
100
AcDbText
 10
261.3682643550349
 20
175.1351544571427
 30
0.0
 40
2.0
  1
6A
100
AcDbText
  0
TEXT
  5
421
330
1E
100
AcDbEntity
  8
BASE
  6
Continuous
100
AcDbText
 10
261.3682643550349
 20
165.0233614028745
 30
0.0
 40
2.0
  1
7A
100
AcDbText
  0
TEXT
  5
422
330
1E
100
AcDbEntity
  8
BASE
  6
Continuous
100
AcDbText
 10
261.3682643550349
 20
155.2128332250923
 30
0.0
 40
2.0
  1
8A
100
AcDbText
  0
LINE
  5
423
330
1E
100
AcDbEntity
  8
BASE
  6
Continuous
100
AcDbLine
 10
267.5
 20
172.5
 30
0.0
 11
267.5
 21
172.5
 31
0.0
  0
INSERT
  5
424
330
1E
100
AcDbEntity
  8
BASE
  6
Continuous
100
AcDbBlockReference
  2
BLC29
 10
240.9705537031207
 20
142.3715334602345
 30
0.0
 50
180.0
  0
INSERT
  5
425
330
1E
100
AcDbEntity
  8
BASE
  6
Continuous
100
AcDbBlockReference
  2
BLC29
 10
227.5119407093685
 20
212.3715239862387
 30
0.0
 50
180.0
  0
LINE
  5
426
330
1E
100
AcDbEntity
  8
0
  6
Continuous
100
AcDbLine
 10
357.5
 20
225.0
 30
0.0
 11
377.4999999999999
 21
225.0
 31
0.0
  0
LINE
  5
427
330
1E
100
AcDbEntity
  8
0
  6
Continuous
100
AcDbLine
 10
357.5
 20
255.0
 30
0.0
 11
377.4999999999999
 21
255.0
 31
0.0
  0
LINE
  5
428
330
1E
100
AcDbEntity
  8
0
  6
Continuous
100
AcDbLine
 10
377.4999999999999
 20
255.0
 30
0.0
 11
377.4999999999999
 21
185.0
 31
0.0
  0
LINE
  5
429
330
1E
100
AcDbEntity
  8
0
  6
Continuous
100
AcDbLine
 10
357.5
 20
185.0
 30
0.0
 11
357.5
 21
255.0
 31
0.0
  0
LINE
  5
42A
330
1E
100
AcDbEntity
  8
0
  6
Continuous
100
AcDbLine
 10
357.5
 20
205.0
 30
0.0
 11
377.4999999999999
 21
205.0
 31
0.0
  0
LINE
  5
42B
330
1E
100
AcDbEntity
  8
BASE
  6
Continuous
100
AcDbLine
 10
78.9819646552196
 20
127.5
 30
0.0
 11
67.5
 21
127.5
 31
0.0
  0
TEXT
  5
42C
330
1E
100
AcDbEntity
  8
BASE
  6
Continuous
100
AcDbText
 10
71.12598986567722
 20
128.8678003986903
 30
0.0
 40
2.0
  1
101
100
AcDbText
  0
TEXT
  5
42D
330
1E
100
AcDbEntity
  8
BASE
  6
Continuous
100
AcDbText
 10
188.7433033635763
 20
61.31521766118424
 30
0.0
 40
2.0
  1
108:72
 50
90.0
100
AcDbText
  0
TEXT
  5
42E
330
1E
100
AcDbEntity
  8
BASE
  6
Continuous
100
AcDbText
 10
198.467300481537
 20
61.17195283109771
 30
0.0
 40
2.0
  1
101
 50
90.0
100
AcDbText
  0
TEXT
  5
42F
330
1E
100
AcDbEntity
  8
BASE
  6
Continuous
100
AcDbText
 10
213.3984433434356
 20
61.17195283109771
 30
0.0
 40
2.0
  1
2A
 50
90.0
100
AcDbText
  0
TEXT
  5
430
330
1E
100
AcDbEntity
  8
BASE
  6
Continuous
100
AcDbText
 10
203.54410442019
 20
61.31521766118424
 30
0.0
 40
2.0
  1
1A
 50
90.0
100
AcDbText
  0
TEXT
  5
431
330
1E
100
AcDbEntity
  8
BASE
  6
Continuous
100
AcDbText
 10
219.0420829394914
 20
61.31521766118424
 30
0.0
 40
2.0
  1
18A
 50
90.0
100
AcDbText
  0
TEXT
  5
432
330
1E
100
AcDbEntity
  8
BASE
  6
Continuous
100
AcDbText
 10
233.5686088186917
 20
61.78909363762426
 30
0.0
 40
2.0
  1
108:61
 50
90.0
100
AcDbText
  0
TEXT
  5
433
330
1E
100
AcDbEntity
  8
BASE
  6
Continuous
100
AcDbText
 10
238.8640276389846
 20
61.31521766118424
 30
0.0
 40
2.0
  1
108:62
 50
90.0
100
AcDbText
  0
TEXT
  5
434
330
1E
100
AcDbEntity
  8
BASE
  6
Continuous
100
AcDbText
 10
251.1136475975259
 20
61.31521766118424
 30
0.0
 40
2.0
  1
108:63
 50
90.0
100
AcDbText
  0
TEXT
  5
435
330
1E
100
AcDbEntity
  8
BASE
  6
Continuous
100
AcDbText
 10
257.2359359307051
 20
212.119435198989
 30
0.0
 40
2.0
  1
101
100
AcDbText
  0
LINE
  5
436
330
1E
100
AcDbEntity
  8
BASE
  6
Continuous
100
AcDbLine
 10
204.0133390910435
 20
200.1174969959072
 30
0.0
 11
204.0133390910435
 21
198.3293655833167
 31
0.0
  0
LINE
  5
437
330
1E
100
AcDbEntity
  8
BASE
  6
Continuous
100
AcDbLine
 10
204.0443708117529
 20
199.2722184434196
 30
0.0
 11
211.8325758385852
 21
199.2722184434196
 31
0.0
  0
LINE
  5
438
330
1E
100
AcDbEntity
  8
BASE
  6
Continuous
100
AcDbLine
 10
206.428515207722
 20
198.1046157736411
 30
0.0
 11
209.3046259076212
 21
200.9331743539497
 31
0.0
  0
ARC
  5
439
330
1E
100
AcDbEntity
  8
BASE
  6
HIDDEN
100
AcDbCircle
 10
210.7392386670362
 20
203.200762642496
 30
0.0
 40
4.998195985283786
100
AcDbArc
 50
206.402921519098
 51
282.2111496748031
  0
LINE
  5
43A
330
1E
100
AcDbEntity
  8
BASE
  6
Continuous
100
AcDbLine
 10
208.8739224486686
 20
201.4703812161014
 30
0.0
 11
209.7745992204791
 21
200.3466321677229
 31
0.0
  0
LINE
  5
43B
330
1E
100
AcDbEntity
  8
BASE
  6
Continuous
100
AcDbLine
 10
211.8280346111643
 20
200.1174969959072
 30
0.0
 11
211.8280346111643
 21
198.3293655833167
 31
0.0
  0
LINE
  5
43C
330
1E
100
AcDbEntity
  8
BASE
  6
Continuous
100
AcDbLine
 10
193.1377255581012
 20
221.1859160982107
 30
0.0
 11
190.7919600458756
 21
219.9959969494663
 31
0.0
  0
LINE
  5
43D
330
1E
100
AcDbEntity
  8
BASE
  6
Continuous
100
AcDbLine
 10
190.7839183018557
 20
219.195983212707
 30
0.0
 11
193.1673787349363
 21
220.3841750539075
 31
0.0
  0
LINE
  5
43E
330
1E
100
AcDbEntity
  8
BASE
  6
Continuous
100
AcDbLine
 10
190.7919600458756
 20
222.5212698095794
 30
0.0
 11
193.1377255581012
 21
221.1859160982107
 31
0.0
  0
TEXT
  5
43F
330
1E
100
AcDbEntity
  8
BASE
  6
Continuous
100
AcDbText
 10
193.9933194156946
 20
219.8611761911534
 30
0.0
 40
2.5
  1
1
 11
193.9933194156946
 21
219.0278428578201
 31
0.0
100
AcDbText
 73
     1
  0
LINE
  5
440
330
1E
100
AcDbEntity
  8
BASE
  6
Continuous
100
AcDbLine
 10
190.0
 20
223.5461332153311
 30
0.0
 11
195.7045026466228
 21
223.5461332153311
 31
0.0
  0
LINE
  5
441
330
1E
100
AcDbEntity
  8
BASE
  6
Continuous
100
AcDbLine
 10
195.7045026466228
 20
223.5461332153311
 30
0.0
 11
195.7045026466228
 21
218.5461332153311
 31
0.0
  0
LINE
  5
442
330
1E
100
AcDbEntity
  8
BASE
  6
Continuous
100
AcDbLine
 10
195.7045026466228
 20
218.5461332153311
 30
0.0
 11
190.0
 21
218.5461332153311
 31
0.0
  0
LINE
  5
443
330
1E
100
AcDbEntity
  8
BASE
  6
Continuous
100
AcDbLine
 10
222.5
 20
230.0
 30
0.0
 11
222.5
 21
160.2328905238334
 31
0.0
  0
TEXT
  5
444
330
1E
100
AcDbEntity
  8
BASE
  6
Continuous
100
AcDbText
 10
197.6796937830462
 20
224.7930595406709
 30
0.0
 40
2.5
  1
U
100
AcDbText
  0
LINE
  5
445
330
1E
100
AcDbEntity
  8
BASE
  6
Continuous
100
AcDbLine
 10
199.7417323605398
 20
227.4107645206044
 30
0.0
 11
202.0874978727654
 21
226.0754108092357
 31
0.0
  0
LINE
  5
446
330
1E
100
AcDbEntity
  8
BASE
  6
Continuous
100
AcDbLine
 10
202.0874978727654
 20
226.0754108092357
 30
0.0
 11
199.7417323605398
 21
224.8854916604912
 31
0.0
  0
LINE
  5
447
330
1E
100
AcDbEntity
  8
BASE
  6
Continuous
100
AcDbLine
 10
202.5591963300086
 20
216.5758505373449
 30
0.0
 11
200.213430817783
 21
215.3859313886004
 31
0.0
  0
LINE
  5
448
330
1E
100
AcDbEntity
  8
BASE
  6
Continuous
100
AcDbLine
 10
200.213430817783
 20
217.9112042487136
 30
0.0
 11
202.5591963300086
 21
216.5758505373449
 31
0.0
  0
LINE
  5
449
330
1E
100
AcDbEntity
  8
BASE
  6
Continuous
100
AcDbLine
 10
201.9276350633161
 20
217.9112042487136
 30
0.0
 11
204.2734005755417
 21
216.5758505373449
 31
0.0
  0
LINE
  5
44A
330
1E
100
AcDbEntity
  8
BASE
  6
Continuous
100
AcDbLine
 10
204.2734005755417
 20
216.5758505373449
 30
0.0
 11
201.9276350633161
 21
215.3859313886004
 31
0.0
  0
TEXT
  5
44B
330
1E
100
AcDbEntity
  8
BASE
  6
Continuous
100
AcDbText
 10
197.6796937830462
 20
215.29349926878
 30
0.0
 40
2.5
  1
U
100
AcDbText
  0
LINE
  5
44C
330
1E
100
AcDbEntity
  8
BASE
  6
Continuous
100
AcDbLine
 10
211.8280346111643
 20
226.8994001498961
 30
0.0
 11
211.8280346111643
 21
225.1112687373056
 31
0.0
  0
LINE
  5
44D
330
1E
100
AcDbEntity
  8
BASE
  6
Continuous
100
AcDbLine
 10
208.8739224486686
 20
228.2522843700902
 30
0.0
 11
209.7745992204791
 21
227.1285353217118
 31
0.0
  0
LINE
  5
44E
330
1E
100
AcDbEntity
  8
BASE
  6
Continuous
100
AcDbLine
 10
206.428515207722
 20
224.8865189276299
 30
0.0
 11
209.3046259076212
 21
227.7150775079386
 31
0.0
  0
LINE
  5
44F
330
1E
100
AcDbEntity
  8
BASE
  6
Continuous
100
AcDbLine
 10
204.0443708117529
 20
226.0541215974085
 30
0.0
 11
211.8325758385852
 21
226.0541215974085
 31
0.0
  0
LINE
  5
450
330
1E
100
AcDbEntity
  8
BASE
  6
Continuous
100
AcDbLine
 10
204.0133390910435
 20
226.8994001498961
 30
0.0
 11
204.0133390910435
 21
225.1112687373056
 31
0.0
  0
LINE
  5
451
330
1E
100
AcDbEntity
  8
BASE
  6
Continuous
100
AcDbLine
 10
220.5293859430464
 20
219.8599212577897
 30
0.0
 11
218.1836204308208
 21
218.6700021090453
 31
0.0
  0
LINE
  5
452
330
1E
100
AcDbEntity
  8
BASE
  6
Continuous
100
AcDbLine
 10
218.1836204308208
 20
221.1952749691584
 30
0.0
 11
220.5293859430464
 21
219.8599212577897
 31
0.0
  0
TEXT
  5
453
330
1E
100
AcDbEntity
  8
BASE
  6
Continuous
100
AcDbText
 10
215.2999135729681
 20
218.5775699892249
 30
0.0
 40
2.5
  1
U
100
AcDbText
  0
LINE
  5
454
330
1E
100
AcDbEntity
  8
BASE
  6
Continuous
100
AcDbLine
 10
195.7045026466228
 20
221.7955184803991
 30
0.0
 11
196.6450003929645
 21
221.7955184803991
 31
0.0
  0
LINE
  5
455
330
1E
100
AcDbEntity
  8
BASE
  6
Continuous
100
AcDbLine
 10
196.6450003929645
 20
221.7955184803991
 30
0.0
 11
196.6450003929645
 21
226.0493818968142
 31
0.0
  0
LINE
  5
456
330
1E
100
AcDbEntity
  8
BASE
  6
Continuous
100
AcDbLine
 10
196.6450003929645
 20
226.0493818968142
 30
0.0
 11
197.223211405069
 21
226.0493818968142
 31
0.0
  0
LINE
  5
457
330
1E
100
AcDbEntity
  8
BASE
  6
Continuous
100
AcDbLine
 10
195.7045026466228
 20
219.811851602278
 30
0.0
 11
196.6450003929645
 21
219.811851602278
 31
0.0
  0
LINE
  5
458
330
1E
100
AcDbEntity
  8
BASE
  6
Continuous
100
AcDbLine
 10
196.6450003929645
 20
219.811851602278
 30
0.0
 11
196.6450003929645
 21
216.5718623680136
 31
0.0
  0
LINE
  5
459
330
1E
100
AcDbEntity
  8
BASE
  6
Continuous
100
AcDbLine
 10
196.6450003929645
 20
216.5718623680136
 30
0.0
 11
197.223211405069
 21
216.5718623680136
 31
0.0
  0
TEXT
  5
45A
330
1E
100
AcDbEntity
  8
BASE
  6
Continuous
100
AcDbText
 10
192.2305018268743
 20
207.3997129823895
 30
0.0
 40
2.5
  1
P
100
AcDbText
  0
LINE
  5
45B
330
1E
100
AcDbEntity
  8
BASE
  6
Continuous
100
AcDbLine
 10
195.0634470457608
 20
208.5653179342256
 30
0.0
 11
198.8874036864622
 21
208.5653179342256
 31
0.0
  0
LINE
  5
45C
330
1E
100
AcDbEntity
  8
BASE
  6
Continuous
100
AcDbLine
 10
196.3210494282458
 20
208.5645042979271
 30
0.0
 11
196.3210494282458
 21
209.0627668887047
 31
0.0
  0
LINE
  5
45D
330
1E
100
AcDbEntity
  8
BASE
  6
Continuous
100
AcDbLine
 10
196.3210494282458
 20
208.5645042979271
 30
0.0
 11
196.3210494282458
 21
208.0662417071495
 31
0.0
  0
LINE
  5
45E
330
1E
100
AcDbEntity
  8
BASE
  6
Continuous
100
AcDbLine
 10
196.3210494282458
 20
209.0627668887047
 30
0.0
 11
195.0449213368145
 21
208.5691178404343
 31
0.0
  0
LINE
  5
45F
330
1E
100
AcDbEntity
  8
BASE
  6
Continuous
100
AcDbLine
 10
195.0449213368145
 20
208.5691178404343
 30
0.0
 11
196.3210494282458
 21
208.0662417071495
 31
0.0
  0
INSERT
  5
460
330
1E
100
AcDbEntity
  8
BASE
  6
Continuous
100
AcDbBlockReference
  2
*X13
 10
-0.5106416495888482
 20
-0.0660907843009966
 30
0.0
  0
INSERT
  5
461
330
1E
100
AcDbEntity
  8
BASE
  6
Continuous
100
AcDbBlockReference
  2
*X13
 10
21.58780742458398
 20
-0.0660907843009966
 30
0.0
  0
LINE
  5
462
330
1E
100
AcDbEntity
  8
BASE
  6
Continuous
100
AcDbLine
 10
217.1433704109873
 20
208.5691178404343
 30
0.0
 11
218.4194985024187
 21
208.0662417071495
 31
0.0
  0
LINE
  5
463
330
1E
100
AcDbEntity
  8
BASE
  6
Continuous
100
AcDbLine
 10
218.4194985024187
 20
209.0627668887047
 30
0.0
 11
217.1433704109873
 21
208.5691178404343
 31
0.0
  0
LINE
  5
464
330
1E
100
AcDbEntity
  8
BASE
  6
Continuous
100
AcDbLine
 10
218.4194985024187
 20
208.5645042979271
 30
0.0
 11
218.4194985024187
 21
208.0662417071495
 31
0.0
  0
LINE
  5
465
330
1E
100
AcDbEntity
  8
BASE
  6
Continuous
100
AcDbLine
 10
218.4194985024187
 20
208.5645042979271
 30
0.0
 11
218.4194985024187
 21
209.0627668887047
 31
0.0
  0
LINE
  5
466
330
1E
100
AcDbEntity
  8
BASE
  6
Continuous
100
AcDbLine
 10
217.1618961199337
 20
208.5653179342256
 30
0.0
 11
220.985852760635
 21
208.5653179342256
 31
0.0
  0
TEXT
  5
467
330
1E
100
AcDbEntity
  8
BASE
  6
Continuous
100
AcDbText
 10
214.3289509010471
 20
207.3997129823895
 30
0.0
 40
2.5
  1
P
100
AcDbText
  0
LINE
  5
468
330
1E
100
AcDbEntity
  8
BASE
  6
Continuous
100
AcDbLine
 10
190.0
 20
195.0
 30
0.0
 11
212.5
 21
195.0
 31
0.0
  0
LINE
  5
469
330
1E
100
AcDbEntity
  8
BASE
  6
Continuous
100
AcDbLine
 10
211.8280346111643
 20
180.1174969959072
 30
0.0
 11
211.8280346111643
 21
178.3293655833167
 31
0.0
  0
LINE
  5
46A
330
1E
100
AcDbEntity
  8
BASE
  6
Continuous
100
AcDbLine
 10
208.8739224486686
 20
181.4703812161014
 30
0.0
 11
209.7745992204791
 21
180.3466321677229
 31
0.0
  0
LINE
  5
46B
330
1E
100
AcDbEntity
  8
BASE
  6
Continuous
100
AcDbLine
 10
206.428515207722
 20
178.1046157736411
 30
0.0
 11
209.3046259076212
 21
180.9331743539497
 31
0.0
  0
LINE
  5
46C
330
1E
100
AcDbEntity
  8
BASE
  6
Continuous
100
AcDbLine
 10
204.0443708117529
 20
179.2722184434196
 30
0.0
 11
211.8325758385852
 21
179.2722184434196
 31
0.0
  0
LINE
  5
46D
330
1E
100
AcDbEntity
  8
BASE
  6
Continuous
100
AcDbLine
 10
204.0133390910435
 20
180.1174969959072
 30
0.0
 11
204.0133390910435
 21
178.3293655833167
 31
0.0
  0
LINE
  5
46E
330
1E
100
AcDbEntity
  8
BASE
  6
Continuous
100
AcDbLine
 10
203.73996517238
 20
170.2750830807109
 30
0.0
 11
203.73996517238
 21
168.4869516681204
 31
0.0
  0
LINE
  5
46F
330
1E
100
AcDbEntity
  8
BASE
  6
Continuous
100
AcDbLine
 10
203.7709968930895
 20
169.4298045282233
 30
0.0
 11
211.5592019199218
 21
169.4298045282233
 31
0.0
  0
LINE
  5
470
330
1E
100
AcDbEntity
  8
BASE
  6
Continuous
100
AcDbLine
 10
206.1551412890586
 20
168.2622018584447
 30
0.0
 11
209.0312519889578
 21
171.0907604387534
 31
0.0
  0
LINE
  5
471
330
1E
100
AcDbEntity
  8
BASE
  6
Continuous
100
AcDbLine
 10
208.5771292468684
 20
171.627967300905
 30
0.0
 11
209.477806018679
 21
170.5042182525266
 31
0.0
  0
LINE
  5
472
330
1E
100
AcDbEntity
  8
BASE
  6
Continuous
100
AcDbLine
 10
211.554660692501
 20
170.2750830807109
 30
0.0
 11
211.554660692501
 21
168.4869516681204
 31
0.0
  0
LINE
  5
473
330
1E
100
AcDbEntity
  8
BASE
  6
Continuous
100
AcDbLine
 10
197.2942942781424
 20
180.6141756072014
 30
0.0
 11
199.640059790368
 21
179.2788218958326
 31
0.0
  0
LINE
  5
474
330
1E
100
AcDbEntity
  8
BASE
  6
Continuous
100
AcDbLine
 10
199.640059790368
 20
179.2788218958326
 30
0.0
 11
197.2942942781424
 21
178.0889027470882
 31
0.0
  0
LINE
  5
475
330
1E
100
AcDbEntity
  8
BASE
  6
Continuous
100
AcDbLine
 10
201.4456618173388
 20
169.4021452626977
 30
0.0
 11
199.0998963051131
 21
168.2122261139532
 31
0.0
  0
LINE
  5
476
330
1E
100
AcDbEntity
  8
BASE
  6
Continuous
100
AcDbLine
 10
199.0998963051131
 20
170.7374989740664
 30
0.0
 11
201.4456618173388
 21
169.4021452626977
 31
0.0
  0
LINE
  5
477
330
1E
100
AcDbEntity
  8
BASE
  6
Continuous
100
AcDbLine
 10
197.0661543949959
 20
170.7374989740664
 30
0.0
 11
199.4119199072216
 21
169.4021452626977
 31
0.0
  0
LINE
  5
478
330
1E
100
AcDbEntity
  8
BASE
  6
Continuous
100
AcDbLine
 10
199.4119199072216
 20
169.4021452626977
 30
0.0
 11
197.0661543949959
 21
168.2122261139532
 31
0.0
  0
LINE
  5
479
330
1E
100
AcDbEntity
  8
BASE
  6
Continuous
100
AcDbLine
 10
190.0
 20
175.0
 30
0.0
 11
212.5
 21
175.0
 31
0.0
  0
TEXT
  5
47A
330
1E
100
AcDbEntity
  8
BASE
  6
Continuous
100
AcDbText
 10
216.803420898696
 20
180.7960470602731
 30
0.0
 40
2.5
  1
U3
100
AcDbText
  0
LINE
  5
47B
330
1E
100
AcDbEntity
  8
BASE
  6
Continuous
100
AcDbLine
 10
77.5
 20
152.5
 30
0.0
 11
107.4999999999999
 21
152.5
 31
0.0
  0
LINE
  5
47C
330
1E
100
AcDbEntity
  8
BASE
  6
Continuous
100
AcDbLine
 10
77.5
 20
160.0
 30
0.0
 11
77.5
 21
152.5
 31
0.0
  0
LINE
  5
47D
330
1E
100
AcDbEntity
  8
BASE
  6
Continuous
100
AcDbLine
 10
107.4999999999999
 20
160.0
 30
0.0
 11
107.4999999999999
 21
152.5
 31
0.0
  0
LINE
  5
47E
330
1E
100
AcDbEntity
  8
BASE
  6
Continuous
100
AcDbLine
 10
107.4999999999999
 20
160.0
 30
0.0
 11
77.5
 21
160.0
 31
0.0
  0
LINE
  5
47F
330
1E
100
AcDbEntity
  8
BASE
  6
Continuous
100
AcDbLine
 10
91.44872252569795
 20
156.0496006988997
 30
0.0
 11
89.10295701347234
 21
154.8596815501552
 31
0.0
  0
LINE
  5
480
330
1E
100
AcDbEntity
  8
BASE
  6
Continuous
100
AcDbLine
 10
89.09491526945242
 20
154.0596678133959
 30
0.0
 11
91.47837570253299
 21
155.2478596545964
 31
0.0
  0
LINE
  5
481
330
1E
100
AcDbEntity
  8
BASE
  6
Continuous
100
AcDbLine
 10
89.10295701347234
 20
157.3849544102684
 30
0.0
 11
91.44872252569795
 21
156.0496006988997
 31
0.0
  0
TEXT
  5
482
330
1E
100
AcDbEntity
  8
BASE
  6
Continuous
100
AcDbText
 10
93.53681880382991
 20
154.7248607918424
 30
0.0
 40
2.5
  1
1
 11
93.53681880382991
 21
153.891527458509
 31
0.0
100
AcDbText
 73
     1
  0
LINE
  5
483
330
1E
100
AcDbEntity
  8
BASE
  6
Continuous
100
AcDbLine
 10
90.0
 20
162.5
 30
0.0
 11
88.71896875472032
 21
167.6640822561973
 31
0.0
  0
LINE
  5
484
330
1E
100
AcDbEntity
  8
BASE
  6
Continuous
100
AcDbLine
 10
90.0
 20
162.5
 30
0.0
 11
90.0
 21
160.0
 31
0.0
  0
LINE
  5
485
330
1E
100
AcDbEntity
  8
BASE
  6
Continuous
100
AcDbLine
 10
85.0
 20
162.5
 30
0.0
 11
85.0
 21
160.0
 31
0.0
  0
LINE
  5
486
330
1E
100
AcDbEntity
  8
BASE
  6
Continuous
100
AcDbLine
 10
85.0
 20
162.5
 30
0.0
 11
83.71896875472032
 21
167.6640822561973
 31
0.0
  0
LINE
  5
487
330
1E
100
AcDbEntity
  8
BASE
  6
Continuous
100
AcDbLine
 10
80.0
 20
162.5
 30
0.0
 11
78.71896875472032
 21
167.6640822561973
 31
0.0
  0
LINE
  5
488
330
1E
100
AcDbEntity
  8
BASE
  6
Continuous
100
AcDbLine
 10
80.0
 20
162.5
 30
0.0
 11
80.0
 21
160.0
 31
0.0
  0
LINE
  5
489
330
1E
100
AcDbEntity
  8
BASE
  6
Continuous
100
AcDbLine
 10
95.0
 20
162.5
 30
0.0
 11
95.0
 21
160.0
 31
0.0
  0
LINE
  5
48A
330
1E
100
AcDbEntity
  8
BASE
  6
Continuous
100
AcDbLine
 10
95.0
 20
162.5
 30
0.0
 11
93.71896875472032
 21
167.6640822561973
 31
0.0
  0
LINE
  5
48B
330
1E
100
AcDbEntity
  8
BASE
  6
Continuous
100
AcDbLine
 10
100.0
 20
162.5
 30
0.0
 11
98.71896875472032
 21
167.6640822561973
 31
0.0
  0
LINE
  5
48C
330
1E
100
AcDbEntity
  8
BASE
  6
Continuous
100
AcDbLine
 10
100.0
 20
162.5
 30
0.0
 11
100.0
 21
160.0
 31
0.0
  0
LINE
  5
48D
330
1E
100
AcDbEntity
  8
BASE
  6
Continuous
100
AcDbLine
 10
105.0
 20
162.5
 30
0.0
 11
105.0
 21
160.0
 31
0.0
  0
LINE
  5
48E
330
1E
100
AcDbEntity
  8
BASE
  6
Continuous
100
AcDbLine
 10
105.0
 20
162.5
 30
0.0
 11
103.7189687547203
 21
167.6640822561973
 31
0.0
  0
LINE
  5
48F
330
1E
100
AcDbEntity
  8
BASE
  6
Continuous
100
AcDbLine
 10
92.5
 20
152.5
 30
0.0
 11
92.5
 21
150.0
 31
0.0
  0
LINE
  5
490
330
1E
100
AcDbEntity
  8
BASE
  6
Continuous
100
AcDbLine
 10
78.9819646552196
 20
105.0
 30
0.0
 11
67.5
 21
105.0
 31
0.0
  0
LINE
  5
491
330
1E
100
AcDbEntity
  8
BASE
  6
Continuous
100
AcDbLine
 10
78.9819646552196
 20
82.5
 30
0.0
 11
67.5
 21
82.5
 31
0.0
  0
LINE
  5
492
330
1E
100
AcDbEntity
  8
BASE
  6
Continuous
100
AcDbLine
 10
145.0
 20
82.5
 30
0.0
 11
150.0
 21
82.5
 31
0.0
  0
LINE
  5
493
330
1E
100
AcDbEntity
  8
BASE
  6
Continuous
100
AcDbLine
 10
155.0
 20
82.5
 30
0.0
 11
149.2560759482168
 21
79.28529669481719
 31
0.0
  0
LINE
  5
494
330
1E
100
AcDbEntity
  8
BASE
  6
Continuous
100
AcDbLine
 10
155.0
 20
82.5
 30
0.0
 11
160.0
 21
82.5
 31
0.0
  0
LINE
  5
495
330
1E
100
AcDbEntity
  8
BASE
  6
Continuous
100
AcDbLine
 10
150.0
 20
77.5
 30
0.0
 11
150.0
 21
80.0
 31
0.0
  0
LINE
  5
496
330
1E
100
AcDbEntity
  8
BASE
  6
Continuous
100
AcDbLine
 10
150.0
 20
77.5
 30
0.0
 11
145.0
 21
77.5
 31
0.0
  0
TEXT
  5
497
330
1E
100
AcDbEntity
  8
BASE
  6
DASHED
100
AcDbText
 10
148.5662843061373
 20
83.23633229147135
 30
0.0
 40
2.0
  1
F
100
AcDbText
  0
LINE
  5
498
330
1E
100
AcDbEntity
  8
BASE
  6
DASHED
100
AcDbLine
 10
152.5
 20
150.0
 30
0.0
 11
152.5
 21
81.10082442063939
 31
0.0
  0
LINE
  5
499
330
1E
100
AcDbEntity
  8
BASE
  6
Continuous
100
AcDbLine
 10
85.0
 20
135.0
 30
0.0
 11
67.5
 21
135.0
 31
0.0
  0
LINE
  5
49A
330
1E
100
AcDbEntity
  8
BASE
  6
Continuous
100
AcDbLine
 10
85.0
 20
140.0
 30
0.0
 11
67.5
 21
140.0
 31
0.0
  0
TEXT
  5
49B
330
1E
100
AcDbEntity
  8
BASE
  6
Continuous
100
AcDbText
 10
70.24502993106352
 20
136.5970260651
 30
0.0
 40
2.0
  1
108:65
100
AcDbText
  0
TEXT
  5
49C
330
1E
100
AcDbEntity
  8
BASE
  6
Continuous
100
AcDbText
 10
70.24502993106352
 20
131.6436981146344
 30
0.0
 40
2.0
  1
108:64
100
AcDbText
  0
LINE
  5
49D
330
1E
100
AcDbEntity
  8
BASE
  6
Continuous
100
AcDbLine
 10
150.0
 20
162.5
 30
0.0
 11
148.7189687547203
 21
167.6640822561973
 31
0.0
  0
LINE
  5
49E
330
1E
100
AcDbEntity
  8
BASE
  6
Continuous
100
AcDbLine
 10
155.0
 20
162.5
 30
0.0
 11
153.7189687547203
 21
167.6640822561973
 31
0.0
  0
LINE
  5
49F
330
1E
100
AcDbEntity
  8
BASE
  6
Continuous
100
AcDbLine
 10
155.0
 20
162.5
 30
0.0
 11
155.0
 21
160.0
 31
0.0
  0
LINE
  5
4A0
330
1E
100
AcDbEntity
  8
BASE
  6
Continuous
100
AcDbLine
 10
150.0
 20
162.5
 30
0.0
 11
150.0
 21
160.0
 31
0.0
  0
LINE
  5
4A1
330
1E
100
AcDbEntity
  8
BASE
  6
Continuous
100
AcDbLine
 10
147.5
 20
160.0
 30
0.0
 11
157.5
 21
160.0
 31
0.0
  0
LINE
  5
4A2
330
1E
100
AcDbEntity
  8
BASE
  6
Continuous
100
AcDbLine
 10
157.5
 20
160.0
 30
0.0
 11
157.5
 21
152.5
 31
0.0
  0
LINE
  5
4A3
330
1E
100
AcDbEntity
  8
BASE
  6
Continuous
100
AcDbLine
 10
157.5
 20
152.5
 30
0.0
 11
147.5
 21
152.5
 31
0.0
  0
LINE
  5
4A4
330
1E
100
AcDbEntity
  8
BASE
  6
Continuous
100
AcDbLine
 10
147.5
 20
152.5
 30
0.0
 11
147.5
 21
160.0
 31
0.0
  0
TEXT
  5
4A5
330
1E
100
AcDbEntity
  8
BASE
  6
Continuous
100
AcDbText
 10
154.1302458952003
 20
154.7248607918424
 30
0.0
 40
2.5
  1
1
 11
154.1302458952003
 21
153.891527458509
 31
0.0
100
AcDbText
 73
     1
  0
LINE
  5
4A6
330
1E
100
AcDbEntity
  8
BASE
  6
Continuous
100
AcDbLine
 10
149.6963841048427
 20
157.3849544102684
 30
0.0
 11
152.0421496170683
 21
156.0496006988997
 31
0.0
  0
LINE
  5
4A7
330
1E
100
AcDbEntity
  8
BASE
  6
Continuous
100
AcDbLine
 10
149.6883423608228
 20
154.0596678133959
 30
0.0
 11
152.0718027939034
 21
155.2478596545964
 31
0.0
  0
LINE
  5
4A8
330
1E
100
AcDbEntity
  8
BASE
  6
Continuous
100
AcDbLine
 10
152.0421496170683
 20
156.0496006988997
 30
0.0
 11
149.6963841048427
 21
154.8596815501552
 31
0.0
  0
LINE
  5
4A9
330
1E
100
AcDbEntity
  8
BASE
  6
Continuous
100
AcDbLine
 10
152.5
 20
150.0
 30
0.0
 11
152.5
 21
152.5
 31
0.0
  0
LINE
  5
4AA
330
1E
100
AcDbEntity
  8
BASE
  6
Continuous
100
AcDbLine
 10
80.0
 20
167.5
 30
0.0
 11
80.0
 21
220.8587868990641
 31
0.0
  0
LINE
  5
4AB
330
1E
100
AcDbEntity
  8
BASE
  6
Continuous
100
AcDbLine
 10
190.0
 20
220.8587868990641
 30
0.0
 11
80.0
 21
220.8587868990641
 31
0.0
  0
LINE
  5
4AC
330
1E
100
AcDbEntity
  8
BASE
  6
Continuous
100
AcDbLine
 10
190.0
 20
208.799022384159
 30
0.0
 11
85.0
 21
208.799022384159
 31
0.0
  0
LINE
  5
4AD
330
1E
100
AcDbEntity
  8
BASE
  6
Continuous
100
AcDbLine
 10
85.0
 20
167.5
 30
0.0
 11
85.0
 21
208.799022384159
 31
0.0
  0
LINE
  5
4AE
330
1E
100
AcDbEntity
  8
BASE
  6
Continuous
100
AcDbLine
 10
90.0
 20
167.5
 30
0.0
 11
90.0
 21
200.0
 31
0.0
  0
LINE
  5
4AF
330
1E
100
AcDbEntity
  8
BASE
  6
Continuous
100
AcDbLine
 10
90.0
 20
200.0
 30
0.0
 11
190.0
 21
200.0
 31
0.0
  0
LINE
  5
4B0
330
1E
100
AcDbEntity
  8
BASE
  6
Continuous
100
AcDbLine
 10
190.0
 20
190.0
 30
0.0
 11
95.0
 21
190.0
 31
0.0
  0
LINE
  5
4B1
330
1E
100
AcDbEntity
  8
BASE
  6
Continuous
100
AcDbLine
 10
95.0
 20
190.0
 30
0.0
 11
95.0
 21
167.5
 31
0.0
  0
LINE
  5
4B2
330
1E
100
AcDbEntity
  8
BASE
  6
Continuous
100
AcDbLine
 10
190.0
 20
180.0
 30
0.0
 11
100.0
 21
180.0
 31
0.0
  0
LINE
  5
4B3
330
1E
100
AcDbEntity
  8
BASE
  6
Continuous
100
AcDbLine
 10
100.0
 20
180.0
 30
0.0
 11
100.0
 21
167.5
 31
0.0
  0
LINE
  5
4B4
330
1E
100
AcDbEntity
  8
BASE
  6
Continuous
100
AcDbLine
 10
105.0
 20
167.5
 30
0.0
 11
105.0
 21
170.0
 31
0.0
  0
LINE
  5
4B5
330
1E
100
AcDbEntity
  8
BASE
  6
Continuous
100
AcDbLine
 10
105.0
 20
170.0
 30
0.0
 11
190.0
 21
170.0
 31
0.0
  0
INSERT
  5
4B6
330
1E
100
AcDbEntity
  8
BASE
  6
Continuous
100
AcDbBlockReference
  2
BLC29
 10
181.402972366401
 20
169.8715354726668
 30
0.0
 50
180.0
  0
INSERT
  5
4B7
330
1E
100
AcDbEntity
  8
BASE
  6
Continuous
100
AcDbBlockReference
  2
BLC29
 10
181.402972366401
 20
179.8715354726668
 30
0.0
 50
180.0
  0
INSERT
  5
4B8
330
1E
100
AcDbEntity
  8
BASE
  6
Continuous
100
AcDbBlockReference
  2
BLC29
 10
181.402972366401
 20
189.8715354726668
 30
0.0
 50
180.0
  0
INSERT
  5
4B9
330
1E
100
AcDbEntity
  8
BASE
  6
Continuous
100
AcDbBlockReference
  2
BLC29
 10
181.402972366401
 20
199.8715354726668
 30
0.0
 50
180.0
  0
INSERT
  5
4BA
330
1E
100
AcDbEntity
  8
BASE
  6
Continuous
100
AcDbBlockReference
  2
BLC29
 10
181.4029723148719
 20
208.6705577140841
 30
0.0
 50
180.0
  0
INSERT
  5
4BB
330
1E
100
AcDbEntity
  8
BASE
  6
Continuous
100
AcDbBlockReference
  2
BLC29
 10
181.3414398630973
 20
220.7303222290855
 30
0.0
 50
180.0
  0
LINE
  5
4BC
330
1E
100
AcDbEntity
  8
BASE
  6
Continuous
100
AcDbLine
 10
112.5
 20
155.0
 30
0.0
 11
112.5
 21
190.0
 31
0.0
  0
LINE
  5
4BD
330
1E
100
AcDbEntity
  8
BASE
  6
Continuous
100
AcDbLine
 10
122.5
 20
150.0
 30
0.0
 11
122.5
 21
200.0
 31
0.0
  0
LINE
  5
4BE
330
1E
100
AcDbEntity
  8
BASE
  6
Continuous
100
AcDbLine
 10
132.4999999999999
 20
155.0
 30
0.0
 11
132.4999999999999
 21
220.8587868990641
 31
0.0
  0
LINE
  5
4BF
330
1E
100
AcDbEntity
  8
BASE
  6
Continuous
100
AcDbLine
 10
142.5
 20
150.0
 30
0.0
 11
142.5
 21
208.799022384159
 31
0.0
  0
LINE
  5
4C0
330
1E
100
AcDbEntity
  8
BASE
  6
Continuous
100
AcDbLine
 10
155.0
 20
167.5
 30
0.0
 11
155.0
 21
170.0
 31
0.0
  0
LINE
  5
4C1
330
1E
100
AcDbEntity
  8
BASE
  6
Continuous
100
AcDbLine
 10
150.0
 20
167.5
 30
0.0
 11
150.0
 21
180.0
 31
0.0
  0
TEXT
  5
4C2
330
1E
100
AcDbEntity
  8
BASE
  6
Continuous
100
AcDbText
 10
159.5027703883758
 20
163.9433571975812
 30
0.0
 40
2.0
  1
SGR
100
AcDbText
  0
TEXT
  5
4C3
330
1E
100
AcDbEntity
  8
BASE
  6
Continuous
100
AcDbText
 10
81.49645805499943
 20
164.1073499048455
 30
0.0
 40
2.0
  1
1
100
AcDbText
  0
TEXT
  5
4C4
330
1E
100
AcDbEntity
  8
BASE
  6
Continuous
100
AcDbText
 10
86.49645805499943
 20
164.1073499048455
 30
0.0
 40
2.0
  1
2
100
AcDbText
  0
TEXT
  5
4C5
330
1E
100
AcDbEntity
  8
BASE
  6
Continuous
100
AcDbText
 10
91.49645805499943
 20
164.1073499048455
 30
0.0
 40
2.0
  1
3
100
AcDbText
  0
TEXT
  5
4C6
330
1E
100
AcDbEntity
  8
BASE
  6
Continuous
100
AcDbText
 10
96.49645805499943
 20
164.1073499048455
 30
0.0
 40
2.0
  1
4
100
AcDbText
  0
TEXT
  5
4C7
330
1E
100
AcDbEntity
  8
BASE
  6
Continuous
100
AcDbText
 10
101.4964580549994
 20
164.1073499048455
 30
0.0
 40
2.0
  1
5
100
AcDbText
  0
TEXT
  5
4C8
330
1E
100
AcDbEntity
  8
BASE
  6
Continuous
100
AcDbText
 10
106.4964580549994
 20
164.1073499048455
 30
0.0
 40
2.0
  1
6
100
AcDbText
  0
TEXT
  5
4C9
330
1E
100
AcDbEntity
  8
BASE
  6
Continuous
100
AcDbText
 10
151.1921364696812
 20
164.7024499682818
 30
0.0
 40
2.0
  1
7
100
AcDbText
  0
TEXT
  5
4CA
330
1E
100
AcDbEntity
  8
BASE
  6
Continuous
100
AcDbText
 10
156.1921364696812
 20
164.7024499682818
 30
0.0
 40
2.0
  1
8
100
AcDbText
  0
LINE
  5
4CB
330
1E
100
AcDbEntity
  8
BASE
  6
Continuous
100
AcDbLine
 10
105.0
 20
127.5
 30
0.0
 11
85.0
 21
127.5
 31
0.0
  0
LINE
  5
4CC
330
1E
100
AcDbEntity
  8
BASE
  6
Continuous
100
AcDbLine
 10
105.0
 20
122.5
 30
0.0
 11
67.5
 21
122.5
 31
0.0
  0
LINE
  5
4CD
330
1E
100
AcDbEntity
  8
BASE
  6
Continuous
100
AcDbLine
 10
115.0
 20
117.5
 30
0.0
 11
87.5
 21
117.5
 31
0.0
  0
LINE
  5
4CE
330
1E
100
AcDbEntity
  8
BASE
  6
Continuous
100
AcDbLine
 10
87.5
 20
117.5
 30
0.0
 11
87.5
 21
127.5
 31
0.0
  0
LINE
  5
4CF
330
1E
100
AcDbEntity
  8
BASE
  6
Continuous
100
AcDbLine
 10
115.0
 20
112.5
 30
0.0
 11
67.5
 21
112.5
 31
0.0
  0
LINE
  5
4D0
330
1E
100
AcDbEntity
  8
BASE
  6
Continuous
100
AcDbLine
 10
125.0
 20
105.0
 30
0.0
 11
85.0
 21
105.0
 31
0.0
  0
LINE
  5
4D1
330
1E
100
AcDbEntity
  8
BASE
  6
Continuous
100
AcDbLine
 10
125.0
 20
100.0
 30
0.0
 11
67.5
 21
100.0
 31
0.0
  0
LINE
  5
4D2
330
1E
100
AcDbEntity
  8
BASE
  6
Continuous
100
AcDbLine
 10
135.0
 20
95.0
 30
0.0
 11
87.5
 21
95.0
 31
0.0
  0
LINE
  5
4D3
330
1E
100
AcDbEntity
  8
BASE
  6
Continuous
100
AcDbLine
 10
87.5
 20
95.0
 30
0.0
 11
87.5
 21
105.0
 31
0.0
  0
LINE
  5
4D4
330
1E
100
AcDbEntity
  8
BASE
  6
Continuous
100
AcDbLine
 10
135.0
 20
90.0
 30
0.0
 11
67.5
 21
90.0
 31
0.0
  0
LINE
  5
4D5
330
1E
100
AcDbEntity
  8
BASE
  6
Continuous
100
AcDbLine
 10
145.0
 20
82.5
 30
0.0
 11
85.0
 21
82.5
 31
0.0
  0
LINE
  5
4D6
330
1E
100
AcDbEntity
  8
BASE
  6
Continuous
100
AcDbLine
 10
145.0
 20
77.5
 30
0.0
 11
67.5
 21
77.5
 31
0.0
  0
LINE
  5
4D7
330
1E
100
AcDbEntity
  8
BASE
  6
Continuous
100
AcDbLine
 10
160.0
 20
72.5
 30
0.0
 11
67.5
 21
72.5
 31
0.0
  0
LINE
  5
4D8
330
1E
100
AcDbEntity
  8
BASE
  6
Continuous
100
AcDbLine
 10
160.0
 20
67.5
 30
0.0
 11
67.5
 21
67.5
 31
0.0
  0
TEXT
  5
4D9
330
1E
100
AcDbEntity
  8
BASE
  6
Continuous
100
AcDbText
 10
161.7796254815249
 20
73.32993600077779
 30
0.0
 40
2.0
  1
G
100
AcDbText
  0
LINE
  5
4DA
330
1E
100
AcDbEntity
  8
BASE
  6
DASHED
100
AcDbLine
 10
167.5
 20
150.0
 30
0.0
 11
167.5
 21
71.10082442063941
 31
0.0
  0
LINE
  5
4DB
330
1E
100
AcDbEntity
  8
BASE
  6
Continuous
100
AcDbLine
 10
160.0
 20
72.5
 30
0.0
 11
165.0
 21
72.5
 31
0.0
  0
LINE
  5
4DC
330
1E
100
AcDbEntity
  8
BASE
  6
Continuous
100
AcDbLine
 10
165.0
 20
67.5
 30
0.0
 11
160.0
 21
67.5
 31
0.0
  0
LINE
  5
4DD
330
1E
100
AcDbEntity
  8
BASE
  6
Continuous
100
AcDbLine
 10
165.0
 20
67.5
 30
0.0
 11
165.0
 21
70.0
 31
0.0
  0
LINE
  5
4DE
330
1E
100
AcDbEntity
  8
BASE
  6
Continuous
100
AcDbLine
 10
170.0
 20
72.5
 30
0.0
 11
185.0
 21
72.5
 31
0.0
  0
LINE
  5
4DF
330
1E
100
AcDbEntity
  8
BASE
  6
Continuous
100
AcDbLine
 10
170.0
 20
72.5
 30
0.0
 11
164.2560759482168
 21
69.28529669481719
 31
0.0
  0
LINE
  5
4E0
330
1E
100
AcDbEntity
  8
BASE
  6
Continuous
100
AcDbLine
 10
135.0
 20
95.0
 30
0.0
 11
140.0
 21
95.0
 31
0.0
  0
LINE
  5
4E1
330
1E
100
AcDbEntity
  8
BASE
  6
Continuous
100
AcDbLine
 10
140.0
 20
90.0
 30
0.0
 11
135.0
 21
90.0
 31
0.0
  0
LINE
  5
4E2
330
1E
100
AcDbEntity
  8
BASE
  6
Continuous
100
AcDbLine
 10
140.0
 20
90.0
 30
0.0
 11
140.0
 21
92.5
 31
0.0
  0
LINE
  5
4E3
330
1E
100
AcDbEntity
  8
BASE
  6
Continuous
100
AcDbLine
 10
145.0
 20
95.0
 30
0.0
 11
150.0
 21
95.0
 31
0.0
  0
LINE
  5
4E4
330
1E
100
AcDbEntity
  8
BASE
  6
Continuous
100
AcDbLine
 10
145.0
 20
95.0
 30
0.0
 11
139.2560759482168
 21
91.78529669481719
 31
0.0
  0
LINE
  5
4E5
330
1E
100
AcDbEntity
  8
BASE
  6
Continuous
100
AcDbLine
 10
125.0
 20
105.0
 30
0.0
 11
130.0
 21
105.0
 31
0.0
  0
LINE
  5
4E6
330
1E
100
AcDbEntity
  8
BASE
  6
Continuous
100
AcDbLine
 10
130.0
 20
100.0
 30
0.0
 11
125.0
 21
100.0
 31
0.0
  0
LINE
  5
4E7
330
1E
100
AcDbEntity
  8
BASE
  6
Continuous
100
AcDbLine
 10
130.0
 20
100.0
 30
0.0
 11
130.0
 21
102.4999999999999
 31
0.0
  0
LINE
  5
4E8
330
1E
100
AcDbEntity
  8
BASE
  6
Continuous
100
AcDbLine
 10
135.0
 20
105.0
 30
0.0
 11
140.0
 21
105.0
 31
0.0
  0
LINE
  5
4E9
330
1E
100
AcDbEntity
  8
BASE
  6
Continuous
100
AcDbLine
 10
135.0
 20
105.0
 30
0.0
 11
129.2560759482168
 21
101.7852966948171
 31
0.0
  0
LINE
  5
4EA
330
1E
100
AcDbEntity
  8
BASE
  6
Continuous
100
AcDbLine
 10
115.0
 20
117.5
 30
0.0
 11
120.0
 21
117.5
 31
0.0
  0
LINE
  5
4EB
330
1E
100
AcDbEntity
  8
BASE
  6
Continuous
100
AcDbLine
 10
120.0
 20
112.5
 30
0.0
 11
115.0
 21
112.5
 31
0.0
  0
LINE
  5
4EC
330
1E
100
AcDbEntity
  8
BASE
  6
Continuous
100
AcDbLine
 10
120.0
 20
112.5
 30
0.0
 11
120.0
 21
115.0
 31
0.0
  0
LINE
  5
4ED
330
1E
100
AcDbEntity
  8
BASE
  6
Continuous
100
AcDbLine
 10
125.0
 20
117.5
 30
0.0
 11
130.0
 21
117.5
 31
0.0
  0
LINE
  5
4EE
330
1E
100
AcDbEntity
  8
BASE
  6
Continuous
100
AcDbLine
 10
125.0
 20
117.5
 30
0.0
 11
119.2560759482168
 21
114.2852966948171
 31
0.0
  0
LINE
  5
4EF
330
1E
100
AcDbEntity
  8
BASE
  6
Continuous
100
AcDbLine
 10
105.0
 20
127.5
 30
0.0
 11
110.0
 21
127.5
 31
0.0
  0
LINE
  5
4F0
330
1E
100
AcDbEntity
  8
BASE
  6
Continuous
100
AcDbLine
 10
110.0
 20
122.5
 30
0.0
 11
105.0
 21
122.5
 31
0.0
  0
LINE
  5
4F1
330
1E
100
AcDbEntity
  8
BASE
  6
Continuous
100
AcDbLine
 10
110.0
 20
122.5
 30
0.0
 11
110.0
 21
125.0
 31
0.0
  0
LINE
  5
4F2
330
1E
100
AcDbEntity
  8
BASE
  6
Continuous
100
AcDbLine
 10
115.0
 20
127.5
 30
0.0
 11
120.0
 21
127.5
 31
0.0
  0
LINE
  5
4F3
330
1E
100
AcDbEntity
  8
BASE
  6
Continuous
100
AcDbLine
 10
115.0
 20
127.5
 30
0.0
 11
109.2560759482168
 21
124.2852966948172
 31
0.0
  0
LINE
  5
4F4
330
1E
100
AcDbEntity
  8
BASE
  6
Continuous
100
AcDbLine
 10
85.0
 20
140.0
 30
0.0
 11
90.0
 21
140.0
 31
0.0
  0
LINE
  5
4F5
330
1E
100
AcDbEntity
  8
BASE
  6
Continuous
100
AcDbLine
 10
90.0
 20
135.0
 30
0.0
 11
85.0
 21
135.0
 31
0.0
  0
LINE
  5
4F6
330
1E
100
AcDbEntity
  8
BASE
  6
Continuous
100
AcDbLine
 10
90.0
 20
135.0
 30
0.0
 11
90.0
 21
137.5
 31
0.0
  0
LINE
  5
4F7
330
1E
100
AcDbEntity
  8
BASE
  6
Continuous
100
AcDbLine
 10
95.0
 20
140.0
 30
0.0
 11
100.0
 21
140.0
 31
0.0
  0
LINE
  5
4F8
330
1E
100
AcDbEntity
  8
BASE
  6
Continuous
100
AcDbLine
 10
95.0
 20
140.0
 30
0.0
 11
89.25607594821684
 21
136.7852966948172
 31
0.0
  0
LINE
  5
4F9
330
1E
100
AcDbEntity
  8
BASE
  6
Continuous
100
AcDbLine
 10
167.5
 20
150.0
 30
0.0
 11
167.5
 21
162.5
 31
0.0
  0
LINE
  5
4FA
330
1E
100
AcDbEntity
  8
BASE
  6
Continuous
100
AcDbLine
 10
120.0
 20
127.5
 30
0.0
 11
200.0
 21
127.5
 31
0.0
  0
LINE
  5
4FB
330
1E
100
AcDbEntity
  8
BASE
  6
Continuous
100
AcDbLine
 10
130.0
 20
117.5
 30
0.0
 11
200.0
 21
117.5
 31
0.0
  0
LINE
  5
4FC
330
1E
100
AcDbEntity
  8
BASE
  6
Continuous
100
AcDbLine
 10
140.0
 20
105.0
 30
0.0
 11
200.0
 21
105.0
 31
0.0
  0
LINE
  5
4FD
330
1E
100
AcDbEntity
  8
BASE
  6
Continuous
100
AcDbLine
 10
150.0
 20
95.0
 30
0.0
 11
200.0
 21
95.0
 31
0.0
  0
LINE
  5
4FE
330
1E
100
AcDbEntity
  8
BASE
  6
Continuous
100
AcDbLine
 10
160.0
 20
82.5
 30
0.0
 11
200.0
 21
82.5
 31
0.0
  0
TEXT
  5
4FF
330
1E
100
AcDbEntity
  8
BASE
  6
Continuous
100
AcDbText
 10
70.28910550605226
 20
124.0551370574596
 30
0.0
 40
2.0
  1
16A
100
AcDbText
  0
TEXT
  5
500
330
1E
100
AcDbEntity
  8
BASE
  6
Continuous
100
AcDbText
 10
70.28910550605226
 20
118.9097701537598
 30
0.0
 40
2.0
  1
108:67
100
AcDbText
  0
TEXT
  5
501
330
1E
100
AcDbEntity
  8
BASE
  6
Continuous
100
AcDbText
 10
70.28910550605226
 20
109.3491665222657
 30
0.0
 40
2.0
  1
108:73
100
AcDbText
  0
TEXT
  5
502
330
1E
100
AcDbEntity
  8
BASE
  6
Continuous
100
AcDbText
 10
70.28910550605226
 20
101.5878356613468
 30
0.0
 40
2.0
  1
15A
100
AcDbText
  0
TEXT
  5
503
330
1E
100
AcDbEntity
  8
BASE
  6
Continuous
100
AcDbText
 10
70.28910550605226
 20
96.45522955743835
 30
0.0
 40
2.0
  1
108:76
100
AcDbText
  0
TEXT
  5
504
330
1E
100
AcDbEntity
  8
BASE
  6
Continuous
100
AcDbText
 10
70.28910550605226
 20
86.51180193220488
 30
0.0
 40
2.0
  1
108:79
100
AcDbText
  0
TEXT
  5
505
330
1E
100
AcDbEntity
  8
BASE
  6
Continuous
100
AcDbText
 10
70.28910550605226
 20
78.95464386794694
 30
0.0
 40
2.0
  1
17A
100
AcDbText
  0
TEXT
  5
506
330
1E
100
AcDbEntity
  8
BASE
  6
Continuous
100
AcDbText
 10
70.28910550605226
 20
73.80927696424716
 30
0.0
 40
2.0
  1
108:82
100
AcDbText
  0
TEXT
  5
507
330
1E
100
AcDbEntity
  8
BASE
  6
Continuous
100
AcDbText
 10
70.28910550605226
 20
68.88084365699971
 30
0.0
 40
2.0
  1
108:70
100
AcDbText
  0
TEXT
  5
508
330
1E
100
AcDbEntity
  8
BASE
  6
Continuous
100
AcDbText
 10
70.28910550605226
 20
63.73547675329992
 30
0.0
 40
2.0
  1
108:71
100
AcDbText
  0
TEXT
  5
509
330
1E
100
AcDbEntity
  8
BASE
  6
Continuous
100
AcDbText
 10
70.57821101210452
 20
106.0922911100624
 30
0.0
 40
2.0
  1
101
100
AcDbText
  0
TEXT
  5
50A
330
1E
100
AcDbEntity
  8
BASE
  6
Continuous
100
AcDbText
 10
71.12598986567722
 20
83.86780039869034
 30
0.0
 40
2.0
  1
101
100
AcDbText
  0
LINE
  5
50B
330
1E
100
AcDbEntity
  8
BASE
  6
Continuous
100
AcDbLine
 10
242.5
 20
175.0
 30
0.0
 11
243.5
 21
174.0
 31
0.0
  0
LINE
  5
50C
330
1E
100
AcDbEntity
  8
BASE
  6
Continuous
100
AcDbLine
 10
242.5
 20
205.0
 30
0.0
 11
243.5
 21
206.0
 31
0.0
  0
LINE
  5
50D
330
1E
100
AcDbEntity
  8
BASE
  6
Continuous
100
AcDbLine
 10
242.5
 20
205.0
 30
0.0
 11
242.5
 21
175.0
 31
0.0
  0
LINE
  5
50E
330
1E
100
AcDbEntity
  8
BASE
  6
Continuous
100
AcDbLine
 10
242.5
 20
190.0
 30
0.0
 11
237.5
 21
190.0
 31
0.0
  0
LINE
  5
50F
330
1E
100
AcDbEntity
  8
BASE
  6
Continuous
100
AcDbLine
 10
237.5
 20
190.0
 30
0.0
 11
237.5
 21
212.5
 31
0.0
  0
LINE
  5
510
330
1E
100
AcDbEntity
  8
BASE
  6
Continuous
100
AcDbLine
 10
237.5
 20
212.5
 30
0.0
 11
222.5
 21
212.5
 31
0.0
  0
LINE
  5
511
330
1E
100
AcDbEntity
  8
BASE
  6
Continuous
100
AcDbLine
 10
245.0
 20
142.5
 30
0.0
 11
230.0
 21
142.5
 31
0.0
  0
LINE
  5
512
330
1E
100
AcDbEntity
  8
BASE
  6
Continuous
100
AcDbLine
 10
227.4999999999999
 20
125.0
 30
0.0
 11
227.4999999999999
 21
175.0
 31
0.0
  0
LINE
  5
513
330
1E
100
AcDbEntity
  8
BASE
  6
Continuous
100
AcDbLine
 10
227.4999999999999
 20
175.0
 30
0.0
 11
222.5
 21
175.0
 31
0.0
  0
LINE
  5
514
330
1E
100
AcDbEntity
  8
BASE
  6
Continuous
100
AcDbLine
 10
222.4999999999999
 20
195.0
 30
0.0
 11
235.0
 21
195.0
 31
0.0
  0
LINE
  5
515
330
1E
100
AcDbEntity
  8
BASE
  6
Continuous
100
AcDbLine
 10
235.0
 20
195.0
 30
0.0
 11
235.0
 21
167.5
 31
0.0
  0
LINE
  5
516
330
1E
100
AcDbEntity
  8
BASE
  6
Continuous
100
AcDbLine
 10
235.0
 20
167.5
 30
0.0
 11
245.0
 21
167.5
 31
0.0
  0
LINE
  5
517
330
1E
100
AcDbEntity
  8
0
  6
Continuous
100
AcDbLine
 10
305.0
 20
157.5
 30
0.0
 11
315.0
 21
157.5
 31
0.0
  0
LINE
  5
518
330
1E
100
AcDbEntity
  8
0
  6
DASHED
100
AcDbLine
 10
300.0
 20
205.1899924594466
 30
0.0
 11
300.0
 21
157.5
 31
0.0
  0
LINE
  5
519
330
1E
100
AcDbEntity
  8
0
  6
DASHED
100
AcDbLine
 10
315.0069210170263
 20
165.1899842626011
 30
0.0
 11
300.0
 21
165.1899842626011
 31
0.0
  0
LINE
  5
51A
330
1E
100
AcDbEntity
  8
0
  6
DASHED
100
AcDbLine
 10
310.0697967243418
 20
185.1899838838781
 30
0.0
 11
300.0
 21
185.1899838838781
 31
0.0
  0
LINE
  5
51B
330
1E
100
AcDbEntity
  8
0
  6
DASHED
100
AcDbLine
 10
305.0
 20
182.5
 30
0.0
 11
305.0
 21
157.5
 31
0.0
  0
LINE
  5
51C
330
1E
100
AcDbEntity
  8
0
  6
DASHED
100
AcDbLine
 10
310.0
 20
182.5
 30
0.0
 11
310.0
 21
157.5
 31
0.0
  0
LINE
  5
51D
330
1E
100
AcDbEntity
  8
0
  6
DASHED
100
AcDbLine
 10
315.0
 20
182.5
 30
0.0
 11
315.0
 21
157.5
 31
0.0
  0
INSERT
  5
51E
330
1E
100
AcDbEntity
  8
0
  6
Continuous
100
AcDbBlockReference
  2
BLC15
 10
299.8579156323779
 20
155.0
 30
0.0
  0
INSERT
  5
51F
330
1E
100
AcDbEntity
  8
0
  6
Continuous
100
AcDbBlockReference
  2
BLC27
 10
306.4911539812379
 20
207.6184330913903
 30
0.0
 50
180.0
  0
LINE
  5
520
330
1E
100
AcDbEntity
  8
0
  6
DASHED
100
AcDbLine
 10
305.0
 20
250.0
 30
0.0
 11
305.0
 21
232.2782591390323
 31
0.0
  0
LINE
  5
521
330
1E
100
AcDbEntity
  8
0
  6
DASHED
100
AcDbLine
 10
310.0
 20
250.0
 30
0.0
 11
310.0
 21
234.4160509251845
 31
0.0
  0
LINE
  5
522
330
1E
100
AcDbEntity
  8
0
  6
DASHED
100
AcDbLine
 10
315.0
 20
250.0
 30
0.0
 11
315.0
 21
232.2782591390323
 31
0.0
  0
INSERT
  5
523
330
1E
100
AcDbEntity
  8
0
  6
Continuous
100
AcDbBlockReference
  2
BLC27
 10
311.5122703094795
 20
187.6184303520074
 30
0.0
 50
180.0
  0
INSERT
  5
524
330
1E
100
AcDbEntity
  8
0
  6
Continuous
100
AcDbBlockReference
  2
BLC27
 10
316.4911554828492
 20
167.6184307307302
 30
0.0
 50
180.0
  0
LINE
  5
525
330
1E
100
AcDbEntity
  8
0
  6
DASHED
100
AcDbLine
 10
305.0
 20
205.1899924594466
 30
0.0
 11
300.0
 21
205.1899924594466
 31
0.0
  0
CIRCLE
  5
526
330
1E
100
AcDbEntity
  8
0
  6
Continuous
100
AcDbCircle
 10
310.0
 20
227.4999999999999
 30
0.0
 40
6.916050925184549
  0
LINE
  5
527
330
1E
100
AcDbEntity
  8
0
  6
DASHED
100
AcDbLine
 10
315.0
 20
222.7217408609676
 30
0.0
 11
315.0
 21
182.5
 31
0.0
  0
LINE
  5
528
330
1E
100
AcDbEntity
  8
0
  6
DASHED
100
AcDbLine
 10
310.0
 20
220.5839490748154
 30
0.0
 11
310.0
 21
182.5
 31
0.0
  0
LINE
  5
529
330
1E
100
AcDbEntity
  8
0
  6
DASHED
100
AcDbLine
 10
305.0
 20
222.7217408609676
 30
0.0
 11
305.0
 21
182.5
 31
0.0
  0
TEXT
  5
52A
330
1E
100
AcDbEntity
  8
0
  6
Continuous
100
AcDbText
 10
308.9428522968064
 20
226.0963120229555
 30
0.0
 40
3.0
  1
G
100
AcDbText
  0
INSERT
  5
52B
330
1E
100
AcDbEntity
  8
0
  6
Continuous
100
AcDbBlockReference
  2
BLC27
 10
296.4911539812379
 20
240.1184330913903
 30
0.0
 50
180.0
  0
LINE
  5
52C
330
1E
100
AcDbEntity
  8
0
  6
DASHED
100
AcDbLine
 10
295.0
 20
237.6899924594467
 30
0.0
 11
290.0
 21
237.6899924594467
 31
0.0
  0
LINE
  5
52D
330
1E
100
AcDbEntity
  8
0
  6
DASHED
100
AcDbLine
 10
302.4999999999999
 20
237.6899924594467
 30
0.0
 11
310.0
 21
237.6899924594467
 31
0.0
  0
INSERT
  5
52E
330
1E
100
AcDbEntity
  8
0
  6
Continuous
100
AcDbBlockReference
  2
BLC27
 10
301.008846018762
 20
240.1184330913903
 30
0.0
 41
-1.0
 50
180.0
  0
LINE
  5
52F
330
1E
100
AcDbEntity
  8
0
  6
DASHED
100
AcDbLine
 10
295.0
 20
242.5
 30
0.0
 11
282.5
 21
242.5
 31
0.0
  0
LINE
  5
530
330
1E
100
AcDbEntity
  8
0
  6
DASHED
100
AcDbLine
 10
305.0
 20
210.0
 30
0.0
 11
267.5
 21
210.0
 31
0.0
  0
LINE
  5
531
330
1E
100
AcDbEntity
  8
0
  6
DASHED
100
AcDbLine
 10
310.0
 20
190.0
 30
0.0
 11
267.5
 21
190.0
 31
0.0
  0
LINE
  5
532
330
1E
100
AcDbEntity
  8
0
  6
DASHED
100
AcDbLine
 10
315.0
 20
170.0
 30
0.0
 11
267.5
 21
170.0
 31
0.0
  0
LINE
  5
533
330
1E
100
AcDbEntity
  8
0
  6
DASHED
100
AcDbLine
 10
267.5
 20
160.0
 30
0.0
 11
300.0
 21
160.0
 31
0.0
  0
LINE
  5
534
330
1E
100
AcDbEntity
  8
0
  6
DASHED
100
AcDbLine
 10
267.5
 20
200.0
 30
0.0
 11
275.0
 21
200.0
 31
0.0
  0
LINE
  5
535
330
1E
100
AcDbEntity
  8
0
  6
DASHED
100
AcDbLine
 10
275.0
 20
200.0
 30
0.0
 11
275.0
 21
160.0
 31
0.0
  0
LINE
  5
536
330
1E
100
AcDbEntity
  8
0
  6
DASHED
100
AcDbLine
 10
267.5
 20
180.0
 30
0.0
 11
275.0
 21
180.0
 31
0.0
  0
LINE
  5
537
330
1E
100
AcDbEntity
  8
0
  6
DASHED
100
AcDbLine
 10
282.5
 20
242.5
 30
0.0
 11
282.5
 21
147.5
 31
0.0
  0
LINE
  5
538
330
1E
100
AcDbEntity
  8
0
  6
DASHED
100
AcDbLine
 10
282.5
 20
147.5
 30
0.0
 11
267.5
 21
147.5
 31
0.0
  0
LINE
  5
539
330
1E
100
AcDbEntity
  8
0
  6
DASHED
100
AcDbLine
 10
267.5
 20
137.5
 30
0.0
 11
290.0
 21
137.5
 31
0.0
  0
LINE
  5
53A
330
1E
100
AcDbEntity
  8
0
  6
DASHED
100
AcDbLine
 10
290.0
 20
137.5
 30
0.0
 11
290.0
 21
237.6899924594467
 31
0.0
  0
INSERT
  5
53B
330
1E
100
AcDbEntity
  8
0
  6
Continuous
100
AcDbBlockReference
  2
BLC15
 10
293.61039060451
 20
227.4999999999999
 30
0.0
  0
LINE
  5
53C
330
1E
100
AcDbEntity
  8
0
  6
DASHED
100
AcDbLine
 10
293.752474972132
 20
230.0
 30
0.0
 11
293.752474972132
 21
237.6899924594467
 31
0.0
  0
TEXT
  5
53D
330
1E
100
AcDbEntity
  8
0
  6
DASHED
100
AcDbText
 10
303.5661629535213
 20
252.4999999999999
 30
0.0
 40
2.0
  1
L1
100
AcDbText
  0
TEXT
  5
53E
330
1E
100
AcDbEntity
  8
0
  6
DASHED
100
AcDbText
 10
308.3749846806575
 20
252.4999999999999
 30
0.0
 40
2.0
  1
L2
100
AcDbText
  0
TEXT
  5
53F
330
1E
100
AcDbEntity
  8
0
  6
DASHED
100
AcDbText
 10
313.4546422943508
 20
252.4999999999999
 30
0.0
 40
2.0
  1
L3
100
AcDbText
  0
LINE
  5
540
330
1E
100
AcDbEntity
  8
0
  6
Continuous
100
AcDbLine
 10
368.5814203190816
 20
252.4107645206044
 30
0.0
 11
370.9271858313072
 21
251.0754108092357
 31
0.0
  0
LINE
  5
541
330
1E
100
AcDbEntity
  8
0
  6
Continuous
100
AcDbLine
 10
370.9271858313072
 20
251.0754108092357
 30
0.0
 11
368.5814203190816
 21
249.8854916604912
 31
0.0
  0
TEXT
  5
542
330
1E
100
AcDbEntity
  8
0
  6
Continuous
100
AcDbText
 10
365.4274973925432
 20
249.7930595406709
 30
0.0
 40
2.5
  1
U
100
AcDbText
  0
LINE
  5
543
330
1E
100
AcDbEntity
  8
0
  6
Continuous
100
AcDbLine
 10
370.8762983178892
 20
246.8650429654337
 30
0.0
 11
370.8762983178892
 21
245.0769115528432
 31
0.0
  0
LINE
  5
544
330
1E
100
AcDbEntity
  8
0
  6
Continuous
100
AcDbLine
 10
367.8987668722567
 20
248.2179271856278
 30
0.0
 11
368.7994436440673
 21
247.0941781372494
 31
0.0
  0
LINE
  5
545
330
1E
100
AcDbEntity
  8
0
  6
Continuous
100
AcDbLine
 10
365.4767789144468
 20
244.8521617431675
 30
0.0
 11
368.352889614346
 21
247.6807203234762
 31
0.0
  0
LINE
  5
546
330
1E
100
AcDbEntity
  8
0
  6
Continuous
100
AcDbLine
 10
363.0926345184777
 20
246.0197644129461
 30
0.0
 11
370.88083954531
 21
246.0197644129461
 31
0.0
  0
LINE
  5
547
330
1E
100
AcDbEntity
  8
0
  6
Continuous
100
AcDbLine
 10
363.0616027977682
 20
246.8650429654337
 30
0.0
 11
363.0616027977682
 21
245.0769115528432
 31
0.0
  0
TEXT
  5
548
330
1E
100
AcDbEntity
  8
0
  6
Continuous
100
AcDbText
 10
365.4430957403868
 20
240.2835645696506
 30
0.0
 40
2.5
  1
U
100
AcDbText
  0
LINE
  5
549
330
1E
100
AcDbEntity
  8
0
  6
Continuous
100
AcDbLine
 10
372.6356560481765
 20
241.5659158382154
 30
0.0
 11
370.2898905359509
 21
240.375996689471
 31
0.0
  0
LINE
  5
54A
330
1E
100
AcDbEntity
  8
0
  6
Continuous
100
AcDbLine
 10
370.2898905359509
 20
242.9012695495841
 30
0.0
 11
372.6356560481765
 21
241.5659158382154
 31
0.0
  0
LINE
  5
54B
330
1E
100
AcDbEntity
  8
0
  6
Continuous
100
AcDbLine
 10
368.3474451014292
 20
242.9012695495841
 30
0.0
 11
370.6932106136548
 21
241.5659158382154
 31
0.0
  0
LINE
  5
54C
330
1E
100
AcDbEntity
  8
0
  6
Continuous
100
AcDbLine
 10
370.6932106136548
 20
241.5659158382154
 30
0.0
 11
368.3474451014292
 21
240.375996689471
 31
0.0
  0
TEXT
  5
54D
330
1E
100
AcDbEntity
  8
0
  6
Continuous
100
AcDbText
 10
365.5393348959014
 20
230.897957063552
 30
0.0
 40
2.5
  1
P
100
AcDbText
  0
LINE
  5
54E
330
1E
100
AcDbEntity
  8
0
  6
Continuous
100
AcDbLine
 10
368.3722801147879
 20
232.0635620153882
 30
0.0
 11
372.1962367554893
 21
232.0635620153882
 31
0.0
  0
LINE
  5
54F
330
1E
100
AcDbEntity
  8
0
  6
Continuous
100
AcDbLine
 10
369.629882497273
 20
232.0627483790897
 30
0.0
 11
369.629882497273
 21
232.5610109698673
 31
0.0
  0
LINE
  5
550
330
1E
100
AcDbEntity
  8
0
  6
Continuous
100
AcDbLine
 10
369.629882497273
 20
232.0627483790897
 30
0.0
 11
369.629882497273
 21
231.5644857883121
 31
0.0
  0
LINE
  5
551
330
1E
100
AcDbEntity
  8
0
  6
Continuous
100
AcDbLine
 10
369.629882497273
 20
232.5610109698673
 30
0.0
 11
368.3537544058417
 21
232.0673619215969
 31
0.0
  0
LINE
  5
552
330
1E
100
AcDbEntity
  8
0
  6
Continuous
100
AcDbLine
 10
368.3537544058417
 20
232.0673619215969
 30
0.0
 11
369.629882497273
 21
231.5644857883121
 31
0.0
  0
INSERT
  5
553
330
1E
100
AcDbEntity
  8
0
  6
Continuous
100
AcDbBlockReference
  2
*X13
 10
172.7981914194382
 20
23.43215329686159
 30
0.0
  0
LINE
  5
554
330
1E
100
AcDbEntity
  8
0
  6
Continuous
100
AcDbLine
 10
363.0616027977682
 20
237.6465010566699
 30
0.0
 11
363.0616027977682
 21
235.8583696440794
 31
0.0
  0
LINE
  5
555
330
1E
100
AcDbEntity
  8
0
  6
Continuous
100
AcDbLine
 10
363.0926345184777
 20
236.8012225041823
 30
0.0
 11
370.88083954531
 21
236.8012225041823
 31
0.0
  0
LINE
  5
556
330
1E
100
AcDbEntity
  8
0
  6
Continuous
100
AcDbLine
 10
365.4767789144468
 20
235.6336198344037
 30
0.0
 11
368.352889614346
 21
238.4621784147124
 31
0.0
  0
LINE
  5
557
330
1E
100
AcDbEntity
  8
0
  6
Continuous
100
AcDbLine
 10
367.8987668722567
 20
238.999385276864
 30
0.0
 11
368.7994436440673
 21
237.8756362284856
 31
0.0
  0
LINE
  5
558
330
1E
100
AcDbEntity
  8
0
  6
Continuous
100
AcDbLine
 10
370.8762983178892
 20
237.6465010566699
 30
0.0
 11
370.8762983178892
 21
235.8583696440794
 31
0.0
  0
LINE
  5
559
330
1E
100
AcDbEntity
  8
0
  6
Continuous
100
AcDbLine
 10
370.8762983178892
 20
229.1283875772485
 30
0.0
 11
370.8762983178892
 21
227.340256164658
 31
0.0
  0
LINE
  5
55A
330
1E
100
AcDbEntity
  8
0
  6
Continuous
100
AcDbLine
 10
367.8987668722567
 20
230.4812717974426
 30
0.0
 11
368.7994436440673
 21
229.3575227490642
 31
0.0
  0
LINE
  5
55B
330
1E
100
AcDbEntity
  8
0
  6
Continuous
100
AcDbLine
 10
365.4767789144468
 20
227.1155063549823
 30
0.0
 11
368.352889614346
 21
229.944064935291
 31
0.0
  0
LINE
  5
55C
330
1E
100
AcDbEntity
  8
0
  6
Continuous
100
AcDbLine
 10
363.0926345184777
 20
228.2831090247609
 30
0.0
 11
370.88083954531
 21
228.2831090247609
 31
0.0
  0
LINE
  5
55D
330
1E
100
AcDbEntity
  8
0
  6
Continuous
100
AcDbLine
 10
363.0616027977682
 20
229.1283875772485
 30
0.0
 11
363.0616027977682
 21
227.340256164658
 31
0.0
  0
LINE
  5
55E
330
1E
100
AcDbEntity
  8
0
  6
Continuous
100
AcDbLine
 10
363.1002754361849
 20
188.0521727005849
 30
0.0
 11
363.1002754361849
 21
186.2640412879943
 31
0.0
  0
LINE
  5
55F
330
1E
100
AcDbEntity
  8
0
  6
Continuous
100
AcDbLine
 10
363.1313071568943
 20
187.2068941480972
 30
0.0
 11
370.9195121837266
 21
187.2068941480972
 31
0.0
  0
LINE
  5
560
330
1E
100
AcDbEntity
  8
0
  6
Continuous
100
AcDbLine
 10
365.5154515528634
 20
186.0392914783187
 30
0.0
 11
368.3915622527626
 21
188.8678500586273
 31
0.0
  0
LINE
  5
561
330
1E
100
AcDbEntity
  8
0
  6
Continuous
100
AcDbLine
 10
367.96085879381
 20
189.405056920779
 30
0.0
 11
368.8615355656205
 21
188.2813078724005
 31
0.0
  0
LINE
  5
562
330
1E
100
AcDbEntity
  8
0
  6
Continuous
100
AcDbLine
 10
370.9149709563058
 20
188.0521727005849
 30
0.0
 11
370.9149709563058
 21
186.2640412879943
 31
0.0
  0
LINE
  5
563
330
1E
100
AcDbEntity
  8
0
  6
Continuous
100
AcDbLine
 10
370.9149709563058
 20
197.7061432261182
 30
0.0
 11
370.9149709563058
 21
195.9180118135277
 31
0.0
  0
LINE
  5
564
330
1E
100
AcDbEntity
  8
0
  6
Continuous
100
AcDbLine
 10
365.5154515528634
 20
195.693262003852
 30
0.0
 11
368.3915622527626
 21
198.5218205841607
 31
0.0
  0
LINE
  5
565
330
1E
100
AcDbEntity
  8
0
  6
Continuous
100
AcDbLine
 10
367.96085879381
 20
199.0590274463124
 30
0.0
 11
368.8615355656205
 21
197.9352783979339
 31
0.0
  0
LINE
  5
566
330
1E
100
AcDbEntity
  8
0
  6
Continuous
100
AcDbLine
 10
363.1313071568943
 20
196.8608646736306
 30
0.0
 11
370.9195121837266
 21
196.8608646736306
 31
0.0
  0
LINE
  5
567
330
1E
100
AcDbEntity
  8
0
  6
Continuous
100
AcDbLine
 10
363.1002754361849
 20
197.7061432261182
 30
0.0
 11
363.1002754361849
 21
195.9180118135277
 31
0.0
  0
LINE
  5
568
330
1E
100
AcDbEntity
  8
0
  6
Continuous
100
AcDbLine
 10
357.5
 20
185.0
 30
0.0
 11
377.4999999999999
 21
185.0
 31
0.0
  0
TEXT
  5
569
330
1E
100
AcDbEntity
  8
0
  6
DASHED
100
AcDbText
 10
358.4266359217799
 20
178.7788792191314
 30
0.0
 40
2.0
  1
GENERATOR
100
AcDbText
  0
TEXT
  5
56A
330
1E
100
AcDbEntity
  8
0
  6
DASHED
100
AcDbText
 10
358.4266359217799
 20
175.445545885798
 30
0.0
 40
2.0
  1
PROTECTION
100
AcDbText
  0
TEXT
  5
56B
330
1E
100
AcDbEntity
  8
0
  6
DASHED
100
AcDbText
 10
358.4266359217799
 20
172.1122125524647
 30
0.0
 40
2.0
  1
GENERATORSKYDD
100
AcDbText
  0
TEXT
  5
56C
330
1E
100
AcDbEntity
  8
0
  6
DASHED
100
AcDbText
 10
305.8134086456665
 20
94.65052563696168
 30
0.0
 40
2.0
  1
1) ALARM ETC / SIGNAL MM.
100
AcDbText
  0
TEXT
  5
56D
330
1E
100
AcDbEntity
  8
0
  6
DASHED
100
AcDbText
 10
305.1894747319266
 20
88.81719230362836
 30
0.0
 40
2.0
  1
2) TRIP FROM OVERCURRENT MODULE
100
AcDbText
  0
TEXT
  5
56E
330
1E
100
AcDbEntity
  8
0
  6
DASHED
100
AcDbText
 10
306.5309326464673
 20
85.48385897029502
 30
0.0
 40
2.0
  1
  UTLSNING FRN
100
AcDbText
  0
TEXT
  5
56F
330
1E
100
AcDbEntity
  8
0
  6
DASHED
100
AcDbText
 10
306.5309326464673
 20
82.1505256369617
 30
0.0
 40
2.0
  1
  VERSTRMSRELMODUL
100
AcDbText
  0
TEXT
  5
570
330
1E
100
AcDbEntity
  8
0
  6
DASHED
100
AcDbText
 10
305.1894747319266
 20
76.31719230362837
 30
0.0
 40
2.0
  1
3) TRIP FROM OVERVOLTAGE AND
100
AcDbText
  0
TEXT
  5
571
330
1E
100
AcDbEntity
  8
0
  6
DASHED
100
AcDbText
 10
306.5309326464673
 20
72.98385897029504
 30
0.0
 40
2.0
  1
  REVERSE POWER MODULE
100
AcDbText
  0
TEXT
  5
572
330
1E
100
AcDbEntity
  8
0
  6
DASHED
100
AcDbText
 10
306.5309326464673
 20
69.65052563696172
 30
0.0
 40
2.0
  1
  UTLSNING FRN VERSPNNINGS-
100
AcDbText
  0
TEXT
  5
573
330
1E
100
AcDbEntity
  8
0
  6
DASHED
100
AcDbText
 10
306.4685392550933
 20
66.31719230362839
 30
0.0
 40
2.0
  1
  OCH BAKEFFEKTRELMODUL
100
AcDbText
  0
TEXT
  5
574
330
1E
100
AcDbEntity
  8
0
  6
DASHED
100
AcDbText
 10
305.1894747319266
 20
44.65052563696175
 30
0.0
 40
2.0
  1
5) INTERNAL RELAY FAULT
100
AcDbText
  0
TEXT
  5
575
330
1E
100
AcDbEntity
  8
0
  6
DASHED
100
AcDbText
 10
306.4685392550933
 20
41.31719230362842
 30
0.0
 40
2.0
  1
  INTERNT RELFEL
100
AcDbText
  0
LINE
  5
576
330
1E
100
AcDbEntity
  8
0
  6
DASHED
100
AcDbLine
 10
67.5
 20
140.0
 30
0.0
 11
52.5
 21
140.0
 31
0.0
  0
LINE
  5
577
330
1E
100
AcDbEntity
  8
0
  6
DASHED
100
AcDbLine
 10
67.5
 20
127.5
 30
0.0
 11
52.5
 21
127.5
 31
0.0
  0
LINE
  5
578
330
1E
100
AcDbEntity
  8
0
  6
DASHED
100
AcDbLine
 10
67.5
 20
105.0
 30
0.0
 11
52.5
 21
105.0
 31
0.0
  0
LINE
  5
579
330
1E
100
AcDbEntity
  8
0
  6
DASHED
100
AcDbLine
 10
67.5
 20
82.5
 30
0.0
 11
52.5
 21
82.5
 31
0.0
  0
LINE
  5
57A
330
1E
100
AcDbEntity
  8
0
  6
DASHED
100
AcDbLine
 10
67.5
 20
67.5
 30
0.0
 11
52.5
 21
67.5
 31
0.0
  0
TEXT
  5
57B
330
1E
100
AcDbEntity
  8
0
  6
DASHED
100
AcDbText
 10
48.15429140843406
 20
138.9751054463041
 30
0.0
 40
2.0
  1
1)
100
AcDbText
  0
TEXT
  5
57C
330
1E
100
AcDbEntity
  8
0
  6
DASHED
100
AcDbText
 10
47.5
 20
126.4948637305237
 30
0.0
 40
2.0
  1
2)
100
AcDbText
  0
TEXT
  5
57D
330
1E
100
AcDbEntity
  8
0
  6
DASHED
100
AcDbText
 10
47.5
 20
103.997104280232
 30
0.0
 40
2.0
  1
3)
100
AcDbText
  0
TEXT
  5
57E
330
1E
100
AcDbEntity
  8
0
  6
DASHED
100
AcDbText
 10
47.5
 20
81.57648743075617
 30
0.0
 40
2.0
  1
4)
100
AcDbText
  0
TEXT
  5
57F
330
1E
100
AcDbEntity
  8
0
  6
DASHED
100
AcDbText
 10
47.5
 20
66.5174787734184
 30
0.0
 40
2.0
  1
5)
100
AcDbText
  0
INSERT
  5
580
330
1E
100
AcDbEntity
  8
0
  6
DASHED
100
AcDbBlockReference
  2
ABBA3V
 10
0.3423617834803926
 20
0.3411522812742415
 30
0.0
  0
TEXT
  5
581
330
1E
100
AcDbEntity
  8
0
  6
DASHED
100
AcDbText
 10
372.5
 20
13.27142600815818
 30
0.0
 40
2.0
  1
1
100
AcDbText
  0
LINE
  5
582
330
1E
100
AcDbEntity
  8
BASE
  6
Continuous
100
AcDbLine
 10
262.5000000000001
 20
130.0
 30
0.0
 11
267.5
 21
130.0
 31
0.0
  0
LINE
  5
583
330
1E
100
AcDbEntity
  8
BASE
  6
Continuous
100
AcDbLine
 10
262.5000000000001
 20
120.0
 30
0.0
 11
267.5
 21
120.0
 31
0.0
  0
LINE
  5
584
330
1E
100
AcDbEntity
  8
BASE
  6
Continuous
100
AcDbLine
 10
247.5
 20
130.0
 30
0.0
 11
250.0
 21
130.0
 31
0.0
  0
LINE
  5
585
330
1E
100
AcDbEntity
  8
BASE
100
AcDbLine
 10
250.0
 20
130.0
 30
0.0
 11
257.5
 21
130.0
 31
0.0
  0
LINE
  5
586
330
1E
100
AcDbEntity
  8
BASE
100
AcDbLine
 10
250.0
 20
120.0
 30
0.0
 11
257.5
 21
120.0
 31
0.0
  0
LINE
  5
587
330
1E
100
AcDbEntity
  8
BASE
  6
Continuous
100
AcDbLine
 10
247.5
 20
120.0
 30
0.0
 11
250.0
 21
120.0
 31
0.0
  0
LINE
  5
588
330
1E
100
AcDbEntity
  8
BASE
  6
Continuous
100
AcDbLine
 10
245.0
 20
130.0
 30
0.0
 11
246.0
 21
131.0
 31
0.0
  0
LINE
  5
589
330
1E
100
AcDbEntity
  8
BASE
  6
Continuous
100
AcDbLine
 10
245.0
 20
120.0
 30
0.0
 11
246.0
 21
119.0
 31
0.0
  0
LINE
  5
58A
330
1E
100
AcDbEntity
  8
BASE
  6
Continuous
100
AcDbLine
 10
245.0
 20
130.0
 30
0.0
 11
245.0
 21
120.0
 31
0.0
  0
LINE
  5
58B
330
1E
100
AcDbEntity
  8
BASE
  6
Continuous
100
AcDbLine
 10
222.5
 20
220.0
 30
0.0
 11
230.0
 21
220.0
 31
0.0
  0
LINE
  5
58C
330
1E
100
AcDbEntity
  8
BASE
  6
Continuous
100
AcDbLine
 10
230.0
 20
220.0
 30
0.0
 11
230.0
 21
142.5
 31
0.0
  0
LINE
  5
58D
330
1E
100
AcDbEntity
  8
BASE
  6
Continuous
100
AcDbLine
 10
227.4999999999999
 20
125.0
 30
0.0
 11
245.0
 21
125.0
 31
0.0
  0
INSERT
  5
58E
330
1E
100
AcDbEntity
  8
BASE
  6
Continuous
100
AcDbBlockReference
  2
BLC29
 10
240.9705537031207
 20
124.8715334602345
 30
0.0
 50
180.0
  0
LINE
  5
58F
330
1E
100
AcDbEntity
  8
0
  6
DASHED
100
AcDbLine
 10
310.0
 20
157.5
 30
0.0
 11
310.0
 21
130.0
 31
0.0
  0
INSERT
  5
590
330
1E
100
AcDbEntity
  8
0
  6
Continuous
100
AcDbBlockReference
  2
BLC15
 10
309.8579156323779
 20
106.4829968897866
 30
0.0
  0
TEXT
  5
591
330
1E
100
AcDbEntity
  8
0
  6
DASHED
100
AcDbText
 10
212.8044765733592
 20
28.03534597415313
 30
0.0
 40
2.0
  1
1992-05-15 JR / RITU
100
AcDbText
  0
TEXT
  5
592
330
1E
100
AcDbEntity
  8
BASE
  6
DASHED
100
AcDbText
 10
144.4538485108987
 20
232.1105862466285
 30
0.0
 40
2.0
  1
RS 10026-AA SPAG 331
100
AcDbText
  0
TEXT
  5
593
330
1E
100
AcDbEntity
  8
BASE
  6
Continuous
100
AcDbText
 10
191.8671515034692
 20
168.258553514221
 30
0.0
 40
2.5
  1
U
100
AcDbText
  0
TEXT
  5
594
330
1E
100
AcDbEntity
  8
BASE
  6
Continuous
100
AcDbText
 10
191.8671515034692
 20
178.0336230747397
 30
0.0
 40
2.5
  1
U
100
AcDbText
  0
TEXT
  5
595
330
1E
100
AcDbEntity
  8
BASE
  6
Continuous
100
AcDbText
 10
215.2542653351704
 20
171.8622150094742
 30
0.0
 40
2.5
  1
U
100
AcDbText
  0
LINE
  5
596
330
1E
100
AcDbEntity
  8
BASE
  6
Continuous
100
AcDbLine
 10
247.5
 20
137.5
 30
0.0
 11
250.0
 21
137.5
 31
0.0
  0
LINE
  5
597
330
1E
100
AcDbEntity
  8
BASE
100
AcDbLine
 10
250.0
 20
137.5
 30
0.0
 11
257.5
 21
137.5
 31
0.0
  0
LINE
  5
598
330
1E
100
AcDbEntity
  8
BASE
100
AcDbLine
 10
250.0
 20
147.5
 30
0.0
 11
257.5
 21
147.5
 31
0.0
  0
LINE
  5
599
330
1E
100
AcDbEntity
  8
BASE
  6
Continuous
100
AcDbLine
 10
247.5
 20
147.5
 30
0.0
 11
250.0
 21
147.5
 31
0.0
  0
LINE
  5
59A
330
1E
100
AcDbEntity
  8
BASE
  6
Continuous
100
AcDbLine
 10
262.5
 20
147.5
 30
0.0
 11
267.5
 21
147.5
 31
0.0
  0
LINE
  5
59B
330
1E
100
AcDbEntity
  8
BASE
  6
Continuous
100
AcDbLine
 10
262.5
 20
137.5
 30
0.0
 11
267.5
 21
137.5
 31
0.0
  0
INSERT
  5
59C
330
1E
100
AcDbEntity
  8
BASE
  6
Continuous
100
AcDbBlockReference
  2
BLC29
 10
227.5119407093685
 20
194.8715334602345
 30
0.0
 50
180.0
  0
LINE
  5
59D
330
1E
100
AcDbEntity
  8
0
  6
DASHED
100
AcDbLine
 10
296.252474972132
 20
117.5
 30
0.0
 11
296.252474972132
 21
125.1899924594467
 31
0.0
  0
INSERT
  5
59E
330
1E
100
AcDbEntity
  8
0
  6
Continuous
100
AcDbBlockReference
  2
BLC27
 10
303.508846018762
 20
127.6184330913903
 30
0.0
 41
-1.0
 50
180.0
  0
INSERT
  5
59F
330
1E
100
AcDbEntity
  8
0
  6
Continuous
100
AcDbBlockReference
  2
BLC27
 10
298.9911539812379
 20
127.6184330913903
 30
0.0
 50
180.0
  0
INSERT
  5
5A0
330
1E
100
AcDbEntity
  8
0
  6
Continuous
100
AcDbBlockReference
  2
BLC15
 10
296.11039060451
 20
115.0
 30
0.0
  0
LINE
  5
5A1
330
1E
100
AcDbEntity
  8
0
  6
DASHED
100
AcDbLine
 10
297.5
 20
125.1899924594467
 30
0.0
 11
292.5
 21
125.1899924594467
 31
0.0
  0
LINE
  5
5A2
330
1E
100
AcDbEntity
  8
0
  6
Continuous
100
AcDbLine
 10
308.9150953717294
 20
130.0
 30
0.0
 11
311.0849046282705
 21
130.0
 31
0.0
  0
LINE
  5
5A3
330
1E
100
AcDbEntity
  8
0
  6
Continuous
100
AcDbLine
 10
311.0849046282705
 20
130.0
 30
0.0
 11
311.0849046282705
 21
125.0
 31
0.0
  0
LINE
  5
5A4
330
1E
100
AcDbEntity
  8
0
  6
Continuous
100
AcDbLine
 10
311.0849046282705
 20
125.0
 30
0.0
 11
308.9150953717294
 21
125.0
 31
0.0
  0
LINE
  5
5A5
330
1E
100
AcDbEntity
  8
0
  6
Continuous
100
AcDbLine
 10
308.9150953717294
 20
125.0
 30
0.0
 11
308.9150953717294
 21
130.0
 31
0.0
  0
LINE
  5
5A6
330
1E
100
AcDbEntity
  8
0
  6
DASHED
100
AcDbLine
 10
310.0
 20
125.0
 30
0.0
 11
310.0
 21
110.0
 31
0.0
  0
LINE
  5
5A7
330
1E
100
AcDbEntity
  8
0
  6
DASHED
100
AcDbLine
 10
267.5
 20
130.0
 30
0.0
 11
297.5
 21
130.0
 31
0.0
  0
LINE
  5
5A8
330
1E
100
AcDbEntity
  8
0
  6
DASHED
100
AcDbLine
 10
305.0
 20
130.0
 30
0.0
 11
305.0
 21
135.0
 31
0.0
  0
LINE
  5
5A9
330
1E
100
AcDbEntity
  8
0
  6
DASHED
100
AcDbLine
 10
305.0
 20
135.0
 30
0.0
 11
310.0
 21
135.0
 31
0.0
  0
LINE
  5
5AA
330
1E
100
AcDbEntity
  8
0
  6
DASHED
100
AcDbLine
 10
267.5
 20
120.0
 30
0.0
 11
292.5
 21
120.0
 31
0.0
  0
LINE
  5
5AB
330
1E
100
AcDbEntity
  8
0
  6
DASHED
100
AcDbLine
 10
292.5
 20
120.0
 30
0.0
 11
292.5
 21
125.1899924594467
 31
0.0
  0
LINE
  5
5AC
330
1E
100
AcDbEntity
  8
0
  6
DASHED
100
AcDbLine
 10
305.0
 20
125.1899924594467
 30
0.0
 11
305.0
 21
120.0
 31
0.0
  0
LINE
  5
5AD
330
1E
100
AcDbEntity
  8
0
  6
DASHED
100
AcDbLine
 10
305.0
 20
120.0
 30
0.0
 11
310.0
 21
120.0
 31
0.0
  0
TEXT
  5
5AE
330
1E
100
AcDbEntity
  8
0
  6
Continuous
100
AcDbText
 10
363.7327668119045
 20
200.1184476511541
 30
0.0
 40
2.5
  1
U
100
AcDbText
  0
TEXT
  5
5AF
330
1E
100
AcDbEntity
  8
0
  6
Continuous
100
AcDbText
 10
363.7327668119045
 20
190.6519484938986
 30
0.0
 40
2.5
  1
U
100
AcDbText
  0
LINE
  5
5B0
330
1E
100
AcDbEntity
  8
0
  6
Continuous
100
AcDbLine
 10
371.2775352156568
 20
191.7955402423753
 30
0.0
 11
368.9317697034312
 21
190.6056210936309
 31
0.0
  0
LINE
  5
5B1
330
1E
100
AcDbEntity
  8
0
  6
Continuous
100
AcDbLine
 10
368.9317697034312
 20
193.130893953744
 30
0.0
 11
371.2775352156568
 21
191.7955402423753
 31
0.0
  0
LINE
  5
5B2
330
1E
100
AcDbEntity
  8
0
  6
Continuous
100
AcDbLine
 10
370.8742151379528
 20
193.130893953744
 30
0.0
 11
373.2199806501785
 21
191.7955402423753
 31
0.0
  0
LINE
  5
5B3
330
1E
100
AcDbEntity
  8
0
  6
Continuous
100
AcDbLine
 10
373.2199806501785
 20
191.7955402423753
 30
0.0
 11
370.8742151379528
 21
190.6056210936309
 31
0.0
  0
LINE
  5
5B4
330
1E
100
AcDbEntity
  8
0
  6
Continuous
100
AcDbLine
 10
371.5056750988032
 20
201.363646472247
 30
0.0
 11
369.1599095865776
 21
200.1737273235026
 31
0.0
  0
LINE
  5
5B5
330
1E
100
AcDbEntity
  8
0
  6
Continuous
100
AcDbLine
 10
369.1599095865776
 20
202.6990001836157
 30
0.0
 11
371.5056750988032
 21
201.363646472247
 31
0.0
  0
TEXT
  5
5B6
330
1E
100
AcDbEntity
  8
0
  6
DASHED
100
AcDbText
 10
305.188897749841
 20
60.48352741654659
 30
0.0
 40
2.0
  1
4) TRIP FROM EARTH-FAULT
100
AcDbText
  0
TEXT
  5
5B7
330
1E
100
AcDbEntity
  8
0
  6
DASHED
100
AcDbText
 10
306.4959596720346
 20
57.15019408321325
 30
0.0
 40
2.0
  1
  VOLTAGE MODUL
100
AcDbText
  0
TEXT
  5
5B8
330
1E
100
AcDbEntity
  8
0
  6
DASHED
100
AcDbText
 10
306.4959596720346
 20
53.81686074987992
 30
0.0
 40
2.0
  1
  UTLSNING FRN NOLLPUNTS-
100
AcDbText
  0
TEXT
  5
5B9
330
1E
100
AcDbEntity
  8
0
  6
DASHED
100
AcDbText
 10
306.4959596720346
 20
50.48352741654658
 30
0.0
 40
2.0
  1
  SPNNINGSRELMODUL
100
AcDbText
  0
TEXT
  5
5BA
330
1E
100
AcDbEntity
  8
0
  6
DASHED
100
AcDbText
 10
322.5
 20
27.5
 30
0.0
 40
2.0
  1
TERMINAL DIAGRAM / UTTAGSSCHEMA
100
AcDbText
  0
TEXT
  5
5BB
330
1E
100
AcDbEntity
  8
0
  6
DASHED
100
AcDbText
 10
322.5
 20
24.16666666666666
 30
0.0
 40
2.0
  1
SPAG 331 WITH TEST SWITCH
100
AcDbText
  0
TEXT
  5
5BC
330
1E
100
AcDbEntity
  8
0
  6
DASHED
100
AcDbText
 10
322.5
 20
20.83333333333333
 30
0.0
 40
2.0
  1
SPAG 331 MED PROVDON
100
AcDbText
  0
TEXT
  5
5BD
330
1E
100
AcDbEntity
  8
0
  6
DASHED
100
AcDbText
 10
325.0
 20
2.5
 30
0.0
 40
2.5
  1
RS 10026-AAA
100
AcDbText
  0
LWPOLYLINE
  5
5BE
330
1E
100
AcDbEntity
  8
BASE
  6
DASHED
100
AcDbPolyline
 90
        2
 70
     1
 43
0.5
 10
132.0
 20
220.8587868990641
 42
1.0
 10
133.0
 20
220.8587868990641
 42
1.0
  0
LWPOLYLINE
  5
5C2
330
1E
100
AcDbEntity
  8
BASE
  6
DASHED
100
AcDbPolyline
 90
        2
 70
     1
 43
0.5
 10
142.0
 20
208.799022384159
 42
1.0
 10
143.0
 20
208.799022384159
 42
1.0
  0
LWPOLYLINE
  5
5C6
330
1E
100
AcDbEntity
  8
BASE
  6
DASHED
100
AcDbPolyline
 90
        2
 70
     1
 43
0.5
 10
122.0
 20
200.0
 42
1.0
 10
123.0
 20
200.0
 42
1.0
  0
LWPOLYLINE
  5
5CA
330
1E
100
AcDbEntity
  8
BASE
  6
DASHED
100
AcDbPolyline
 90
        2
 70
     1
 43
0.5
 10
112.0
 20
190.0
 42
1.0
 10
113.0
 20
190.0
 42
1.0
  0
LWPOLYLINE
  5
5CE
330
1E
100
AcDbEntity
  8
BASE
  6
DASHED
100
AcDbPolyline
 90
        2
 70
     1
 43
0.5
 10
149.5
 20
180.0
 42
1.0
 10
150.5
 20
180.0
 42
1.0
  0
LWPOLYLINE
  5
5D2
330
1E
100
AcDbEntity
  8
BASE
  6
DASHED
100
AcDbPolyline
 90
        2
 70
     1
 43
0.5
 10
154.4999999999999
 20
170.0
 42
1.0
 10
155.4999999999999
 20
170.0
 42
1.0
  0
INSERT
  5
5D6
330
1E
100
AcDbEntity
  8
0
  6
DASHED
100
AcDbBlockReference
  2
P1
 10
207.9048990497367
 20
216.7151271981002
 30
0.0
 41
0.8
 42
0.8
 43
0.8
  0
INSERT
  5
5D7
330
1E
100
AcDbEntity
  8
BASE
  6
DASHED
100
AcDbBlockReference
  2
B155
 10
219.6517122430179
 20
174.0552689469525
 30
0.0
  0
INSERT
  5
5D8
330
1E
100
AcDbEntity
  8
BASE
  6
DASHED
100
AcDbBlockReference
  2
B155
 10
195.5037944480213
 20
180.325860356124
 30
0.0
  0
INSERT
  5
5D9
330
1E
100
AcDbEntity
  8
BASE
  6
DASHED
100
AcDbBlockReference
  2
B155
 10
195.6559552406804
 20
170.6720148826016
 30
0.0
  0
LINE
  5
5DA
330
1E
100
AcDbEntity
  8
BASE
  6
Continuous
100
AcDbLine
 10
215.0
 20
65.32230404312577
 30
0.0
 11
217.4413930202534
 21
72.00318015003259
 31
0.0
  0
LINE
  5
5DB
330
1E
100
AcDbEntity
  8
BASE
  6
Continuous
100
AcDbLine
 10
214.9999999999999
 20
71.34033938790617
 30
0.0
 11
217.7722507591969
 21
71.34033938790617
 31
0.0
  0
LINE
  5
5DC
330
1E
100
AcDbEntity
  8
BASE
  6
Continuous
100
AcDbLine
 10
217.4413930202534
 20
72.00318015003259
 30
0.0
 11
216.5556951100314
 21
72.44807344530681
 31
0.0
  0
LINE
  5
5DD
330
1E
100
AcDbEntity
  8
BASE
  6
Continuous
100
AcDbLine
 10
85.0
 20
127.5
 30
0.0
 11
78.31912389309318
 21
129.9413930202534
 31
0.0
  0
LINE
  5
5DE
330
1E
100
AcDbEntity
  8
BASE
  6
Continuous
100
AcDbLine
 10
78.9819646552196
 20
127.5
 30
0.0
 11
78.9819646552196
 21
130.2722507591969
 31
0.0
  0
LINE
  5
5DF
330
1E
100
AcDbEntity
  8
BASE
  6
Continuous
100
AcDbLine
 10
78.9819646552196
 20
105.0
 30
0.0
 11
78.9819646552196
 21
107.7722507591969
 31
0.0
  0
LINE
  5
5E0
330
1E
100
AcDbEntity
  8
BASE
  6
Continuous
100
AcDbLine
 10
85.0
 20
105.0
 30
0.0
 11
78.31912389309318
 21
107.4413930202533
 31
0.0
  0
LINE
  5
5E1
330
1E
100
AcDbEntity
  8
BASE
  6
Continuous
100
AcDbLine
 10
78.9819646552196
 20
82.5
 30
0.0
 11
78.9819646552196
 21
85.272250759197
 31
0.0
  0
LINE
  5
5E2
330
1E
100
AcDbEntity
  8
BASE
  6
Continuous
100
AcDbLine
 10
85.0
 20
82.5
 30
0.0
 11
78.31912389309318
 21
84.9413930202534
 31
0.0
  0
LWPOLYLINE
  5
5E3
330
1E
100
AcDbEntity
  8
BASE
  6
DASHED
100
AcDbPolyline
 90
        2
 70
     1
 43
0.5
 10
87.0
 20
127.5
 42
1.0
 10
88.0
 20
127.5
 42
1.0
  0
LWPOLYLINE
  5
5E7
330
1E
100
AcDbEntity
  8
BASE
  6
DASHED
100
AcDbPolyline
 90
        2
 70
     1
 43
0.5
 10
87.0
 20
105.0
 42
1.0
 10
88.0
 20
105.0
 42
1.0
  0
LWPOLYLINE
  5
5EB
330
1E
100
AcDbEntity
  8
BASE
  6
DASHED
100
AcDbPolyline
 90
        2
 70
     1
 43
0.5
 10
199.5
 20
117.5
 42
1.0
 10
200.4999999999999
 20
117.5
 42
1.0
  0
LWPOLYLINE
  5
5EF
330
1E
100
AcDbEntity
  8
BASE
  6
DASHED
100
AcDbPolyline
 90
        2
 70
     1
 43
0.5
 10
199.5
 20
105.0
 42
1.0
 10
200.4999999999999
 20
105.0
 42
1.0
  0
LWPOLYLINE
  5
5F3
330
1E
100
AcDbEntity
  8
BASE
  6
DASHED
100
AcDbPolyline
 90
        2
 70
     1
 43
0.5
 10
199.5
 20
95.0
 42
1.0
 10
200.4999999999999
 20
95.0
 42
1.0
  0
LWPOLYLINE
  5
5F7
330
1E
100
AcDbEntity
  8
BASE
  6
DASHED
100
AcDbPolyline
 90
        2
 70
     1
 43
0.5
 10
199.5
 20
82.5
 42
1.0
 10
200.4999999999999
 20
82.5
 42
1.0
  0
LINE
  5
5FB
330
1E
100
AcDbEntity
  8
BASE
  6
Continuous
100
AcDbLine
 10
210.0
 20
71.34033938790617
 30
0.0
 11
212.772250759197
 21
71.34033938790617
 31
0.0
  0
LINE
  5
5FC
330
1E
100
AcDbEntity
  8
BASE
  6
Continuous
100
AcDbLine
 10
210.0
 20
65.32230404312577
 30
0.0
 11
212.4413930202534
 21
72.00318015003259
 31
0.0
  0
LINE
  5
5FD
330
1E
100
AcDbEntity
  8
BASE
  6
Continuous
100
AcDbLine
 10
202.4413930202534
 20
72.00318015003259
 30
0.0
 11
201.5556951100314
 21
72.44807344530681
 31
0.0
  0
LINE
  5
5FE
330
1E
100
AcDbEntity
  8
BASE
  6
Continuous
100
AcDbLine
 10
200.0
 20
71.34033938790617
 30
0.0
 11
202.772250759197
 21
71.34033938790617
 31
0.0
  0
LINE
  5
5FF
330
1E
100
AcDbEntity
  8
BASE
  6
Continuous
100
AcDbLine
 10
200.0
 20
65.32230404312577
 30
0.0
 11
202.4413930202534
 21
72.00318015003259
 31
0.0
  0
LINE
  5
600
330
1E
100
AcDbEntity
  8
BASE
  6
Continuous
100
AcDbLine
 10
257.5
 20
137.5
 30
0.0
 11
257.5
 21
140.265661429548
 31
0.0
  0
LINE
  5
601
330
1E
100
AcDbEntity
  8
BASE
  6
Continuous
100
AcDbLine
 10
256.6028273376561
 20
139.9348036906044
 30
0.0
 11
256.1579340423818
 21
139.0491057803824
 31
0.0
  0
LINE
  5
602
330
1E
100
AcDbEntity
  8
BASE
  6
Continuous
100
AcDbLine
 10
256.6028273376561
 20
139.9348036906044
 30
0.0
 11
262.5
 21
137.5
 31
0.0
  0
LINE
  5
603
330
1E
100
AcDbEntity
  8
BASE
  6
Continuous
100
AcDbLine
 10
256.6028273376561
 20
149.9348036906044
 30
0.0
 11
262.5
 21
147.5
 31
0.0
  0
LINE
  5
604
330
1E
100
AcDbEntity
  8
BASE
  6
Continuous
100
AcDbLine
 10
256.6028273376561
 20
149.9348036906044
 30
0.0
 11
256.1579340423818
 21
149.0491057803824
 31
0.0
  0
LINE
  5
605
330
1E
100
AcDbEntity
  8
BASE
  6
Continuous
100
AcDbLine
 10
257.5
 20
147.5
 30
0.0
 11
257.5
 21
150.265661429548
 31
0.0
  0
TEXT
  5
606
330
1E
100
AcDbEntity
  8
BASE
  6
Continuous
100
AcDbText
 10
260.1296662171636
 20
125.1363506744152
 30
0.0
 40
2.0
  1
12A
100
AcDbText
  0
LINE
  5
607
330
1E
100
AcDbEntity
  8
BASE
  6
Continuous
100
AcDbLine
 10
257.5
 20
120.0
 30
0.0
 11
257.5
 21
122.765661429548
 31
0.0
  0
LINE
  5
608
330
1E
100
AcDbEntity
  8
BASE
  6
Continuous
100
AcDbLine
 10
256.6028273376561
 20
122.4348036906044
 30
0.0
 11
256.1579340423818
 21
121.5491057803824
 31
0.0
  0
LINE
  5
609
330
1E
100
AcDbEntity
  8
BASE
  6
Continuous
100
AcDbLine
 10
256.6028273376561
 20
122.4348036906044
 30
0.0
 11
262.5000000000001
 21
120.0
 31
0.0
  0
LINE
  5
60A
330
1E
100
AcDbEntity
  8
BASE
  6
Continuous
100
AcDbLine
 10
256.6028273376561
 20
132.4348036906044
 30
0.0
 11
262.5000000000001
 21
130.0
 31
0.0
  0
LINE
  5
60B
330
1E
100
AcDbEntity
  8
BASE
  6
Continuous
100
AcDbLine
 10
256.6028273376561
 20
132.4348036906044
 30
0.0
 11
256.1579340423818
 21
131.5491057803825
 31
0.0
  0
LINE
  5
60C
330
1E
100
AcDbEntity
  8
BASE
  6
Continuous
100
AcDbLine
 10
257.5
 20
130.0
 30
0.0
 11
257.5
 21
132.765661429548
 31
0.0
  0
TEXT
  5
60D
330
1E
100
AcDbEntity
  8
0
  6
DASHED
100
AcDbText
 10
259.4569756026343
 20
115.4709738131109
 30
0.0
 40
2.0
  1
13A
100
AcDbText
  0
LWPOLYLINE
  5
60E
330
1E
100
AcDbEntity
  8
0
  6
DASHED
100
AcDbPolyline
 90
        2
 70
     1
 43
0.5
 10
293.252474972132
 20
237.6899924594467
 42
1.0
 10
294.252474972132
 20
237.6899924594467
 42
1.0
  0
LWPOLYLINE
  5
612
330
1E
100
AcDbEntity
  8
0
  6
DASHED
100
AcDbPolyline
 90
        2
 70
     1
 43
0.5
 10
309.5
 20
237.6899924594467
 42
1.0
 10
310.4999999999999
 20
237.6899924594467
 42
1.0
  0
LWPOLYLINE
  5
616
330
1E
100
AcDbEntity
  8
0
  6
DASHED
100
AcDbPolyline
 90
        2
 70
     1
 43
0.5
 10
274.5
 20
180.0
 42
1.0
 10
275.4999999999999
 20
180.0
 42
1.0
  0
LWPOLYLINE
  5
61A
330
1E
100
AcDbEntity
  8
0
  6
DASHED
100
AcDbPolyline
 90
        2
 70
     1
 43
0.5
 10
274.5
 20
160.0
 42
1.0
 10
275.4999999999999
 20
160.0
 42
1.0
  0
LWPOLYLINE
  5
61E
330
1E
100
AcDbEntity
  8
0
  6
DASHED
100
AcDbPolyline
 90
        2
 70
     1
 43
0.5
 10
299.5
 20
185.1899838838781
 42
1.0
 10
300.4999999999999
 20
185.1899838838781
 42
1.0
  0
LWPOLYLINE
  5
622
330
1E
100
AcDbEntity
  8
0
  6
DASHED
100
AcDbPolyline
 90
        2
 70
     1
 43
0.5
 10
299.5
 20
165.1899842626011
 42
1.0
 10
300.4999999999999
 20
165.1899842626011
 42
1.0
  0
LWPOLYLINE
  5
626
330
1E
100
AcDbEntity
  8
0
  6
DASHED
100
AcDbPolyline
 90
        2
 70
     1
 43
0.5
 10
309.5
 20
157.5
 42
1.0
 10
310.4999999999999
 20
157.5
 42
1.0
  0
LWPOLYLINE
  5
62A
330
1E
100
AcDbEntity
  8
0
  6
DASHED
100
AcDbPolyline
 90
        2
 70
     1
 43
0.5
 10
299.5
 20
160.0
 42
1.0
 10
300.4999999999999
 20
160.0
 42
1.0
  0
LWPOLYLINE
  5
62E
330
1E
100
AcDbEntity
  8
0
  6
DASHED
100
AcDbPolyline
 90
        2
 70
     1
 43
0.5
 10
309.5
 20
135.0
 42
1.0
 10
310.4999999999999
 20
135.0
 42
1.0
  0
LWPOLYLINE
  5
632
330
1E
100
AcDbEntity
  8
0
  6
DASHED
100
AcDbPolyline
 90
        2
 70
     1
 43
0.5
 10
309.5
 20
120.0
 42
1.0
 10
310.4999999999999
 20
120.0
 42
1.0
  0
LWPOLYLINE
  5
636
330
1E
100
AcDbEntity
  8
0
  6
DASHED
100
AcDbPolyline
 90
        2
 70
     1
 43
0.5
 10
295.752474972132
 20
125.1899924594467
 42
1.0
 10
296.752474972132
 20
125.1899924594467
 42
1.0
  0
LINE
  5
63A
330
1E
100
AcDbEntity
  8
0
  6
DASHED
100
AcDbLine
 10
302.5608643170635
 20
242.5058948246627
 30
0.0
 11
305.0
 21
242.5058948246627
 31
0.0
  0
LWPOLYLINE
  5
63B
330
1E
100
AcDbEntity
  8
0
  6
DASHED
100
AcDbPolyline
 90
        2
 70
     1
 43
0.5
 10
304.4482616837183
 20
242.439772595392
 42
1.0
 10
305.4482616837184
 20
242.439772595392
 42
1.0
  0
INSERT
  5
63F
330
1E
100
AcDbEntity
  8
0
  6
DASHED
100
AcDbBlockReference
  2
B155
 10
367.4759223113179
 20
202.3666034463579
 30
0.0
  0
INSERT
  5
640
330
1E
100
AcDbEntity
  8
0
  6
DASHED
100
AcDbBlockReference
  2
B155
 10
367.6585152625089
 20
192.9001042891025
 30
0.0
  0
TEXT
  5
641
330
1E
100
AcDbEntity
  8
0
  6
DASHED
100
AcDbText
 10
380.0
 20
2.5
 30
0.0
 40
2.5
  1
B
100
AcDbText
  0
TEXT
  5
642
330
1E
100
AcDbEntity
  8
0
  6
DASHED
100
AcDbText
 10
89.91722750398038
 20
2.148493214673449
 30
0.0
 40
2.0
  1
1992-05-15 JR
100
AcDbText
  0
TEXT
  5
643
330
1E
100
AcDbEntity
  8
0
  6
DASHED
100
AcDbText
 10
67.5
 20
55.0
 30
0.0
 40
2.0
  1
DIM. 167 X 200
100
AcDbText
  0
TEXT
  5
644
330
1E
100
AcDbEntity
  8
0
  6
DASHED
100
AcDbText
 10
67.5
 20
51.66666666666666
 30
0.0
 40
2.0
  1
RS 10026-AAA
100
AcDbText
  0
INSERT
  5
645
330
1E
100
AcDbEntity
  8
0
  6
DASHED
100
AcDbBlockReference
  2
BK
 10
47.67168605605132
 20
1.978151861510177
 30
0.0
  0
ENDSEC
  0
SECTION
  2
OBJECTS
  0
DICTIONARY
  5
C
330
0
100
AcDbDictionary
281
     1
  3
ACAD_GROUP
350
D
  3
ACAD_LAYOUT
350
19
  3
ACAD_MLINESTYLE
350
16
  3
ACAD_PLOTSETTINGS
350
18
  3
ACAD_PLOTSTYLENAME
350
E
  3
AcDbVariableDictionary
350
648
  0
DICTIONARY
  5
D
102
{ACAD_REACTORS
330
C
102
}
330
C
100
AcDbDictionary
281
     1
  0
DICTIONARY
  5
19
102
{ACAD_REACTORS
330
C
102
}
330
C
100
AcDbDictionary
281
     1
  3
Layout1
350
1D
  3
Model
350
21
  0
DICTIONARY
  5
16
102
{ACAD_REACTORS
330
C
102
}
330
C
100
AcDbDictionary
281
     1
  3
Standard
350
17
  0
DICTIONARY
  5
18
102
{ACAD_REACTORS
330
C
102
}
330
C
100
AcDbDictionary
281
     1
  0
ACDBDICTIONARYWDFLT
  5
E
102
{ACAD_REACTORS
330
C
102
}
330
C
100
AcDbDictionary
281
     1
  3
Normal
350
F
100
AcDbDictionaryWithDefault
340
F
  0
DICTIONARY
  5
648
102
{ACAD_REACTORS
330
C
102
}
330
C
100
AcDbDictionary
281
     1
  3
DIMASSOC
350
64A
  3
HIDETEXT
350
649
  0
LAYOUT
  5
1D
102
{ACAD_REACTORS
330
19
102
}
330
19
100
AcDbPlotSettings
  1

  2
\\FIVAA-S-IGS2002\FIVAA-P-234
  4

  6

 40
0.0
 41
0.0
 42
0.0
 43
0.0
 44
0.0
 45
0.0
 46
0.0
 47
0.0
 48
0.0
 49
0.0
140
0.0
141
0.0
142
1.0
143
1.0
 70
   688
 72
     0
 73
     0
 74
     5
  7

 75
    16
147
1.0
148
0.0
149
0.0
100
AcDbLayout
  1
Layout1
 70
     0
 71
     1
 10
0.0
 20
0.0
 11
12.0
 21
9.0
 12
0.0
 22
0.0
 32
0.0
 14
1.000000000000000E+20
 24
1.000000000000000E+20
 34
1.000000000000000E+20
 15
-1.000000000000000E+20
 25
-1.000000000000000E+20
 35
-1.000000000000000E+20
146
0.0
 13
0.0
 23
0.0
 33
0.0
 16
1.0
 26
0.0
 36
0.0
 17
0.0
 27
1.0
 37
0.0
 76
     0
330
1A
  0
LAYOUT
  5
21
102
{ACAD_REACTORS
330
19
102
}
330
19
100
AcDbPlotSettings
  1

  2
\\FIVAA-S-IGS2002\FIVAA-P-234
  4

  6

 40
0.0
 41
0.0
 42
0.0
 43
0.0
 44
0.0
 45
0.0
 46
0.0
 47
0.0
 48
0.0
 49
0.0
140
0.0
141
0.0
142
1.0
143
1.0
 70
  1712
 72
     0
 73
     0
 74
     0
  7

 75
     0
147
1.0
148
0.0
149
0.0
100
AcDbLayout
  1
Model
 70
     1
 71
     0
 10
0.0
 20
0.0
 11
12.0
 21
9.0
 12
0.0
 22
0.0
 32
0.0
 14
0.0
 24
0.0
 34
0.0
 15
0.0
 25
0.0
 35
0.0
146
0.0
 13
0.0
 23
0.0
 33
0.0
 16
1.0
 26
0.0
 36
0.0
 17
0.0
 27
1.0
 37
0.0
 76
     0
330
1E
  0
MLINESTYLE
  5
17
102
{ACAD_REACTORS
330
16
102
}
330
16
100
AcDbMlineStyle
  2
STANDARD
 70
     0
  3

 62
   256
 51
90.0
 52
90.0
 71
     2
 49
0.5
 62
   256
  6
BYLAYER
 49
-0.5
 62
   256
  6
BYLAYER
  0
ACDBPLACEHOLDER
  5
F
102
{ACAD_REACTORS
330
E
102
}
330
E
  0
DICTIONARYVAR
  5
64A
102
{ACAD_REACTORS
330
648
102
}
330
648
100
DictionaryVariables
280
     0
  1
2
  0
DICTIONARYVAR
  5
649
102
{ACAD_REACTORS
330
648
102
}
330
648
100
DictionaryVariables
280
     0
  1
1
  0
ENDSEC
  0
EOF
