  0
SECTION
  2
HEADER
  9
$ACADVER
  1
AC1009
  9
$INSBASE
 10
0.0
 20
0.0
 30
0.0
  9
$EXTMIN
 10
-15.25
 20
-6.25
 30
0.0
  9
$EXTMAX
 10
812.25
 20
580.25
 30
0.0
  9
$LIMMIN
 10
0.0
 20
0.0
  9
$LIMMAX
 10
841.0
 20
594.0
  9
$ORTHOMODE
 70
     1
  9
$REGENMODE
 70
     0
  9
$FILLMODE
 70
     1
  9
$QTEXTMODE
 70
     0
  9
$MIRRTEXT
 70
     1
  9
$DRAGMODE
 70
     2
  9
$LTSCALE
 40
10.0
  9
$OSMODE
 70
    37
  9
$ATTMODE
 70
     1
  9
$TEXTSIZE
 40
5.0
  9
$TRACEWID
 40
0.05
  9
$TEXTSTYLE
  7
ROMANS
  9
$CLAYER
  8
01
  9
$CELTYPE
  6
BYLAYER
  9
$CECOLOR
 62
   256
  9
$DIMSCALE
 40
1.0
  9
$DIMASZ
 40
1.4599999999999991
  9
$DIMEXO
 40
0.0
  9
$DIMDLI
 40
10.0
  9
$DIMRND
 40
0.0
  9
$DIMDLE
 40
0.0
  9
$DIMEXE
 40
2.0
  9
$DIMTP
 40
0.0
  9
$DIMTM
 40
0.0
  9
$DIMTXT
 40
4.5
  9
$DIMCEN
 40
0.0
  9
$DIMTSZ
 40
0.0
  9
$DIMTOL
 70
     0
  9
$DIMLIM
 70
     0
  9
$DIMTIH
 70
     0
  9
$DIMTOH
 70
     0
  9
$DIMSE1
 70
     0
  9
$DIMSE2
 70
     0
  9
$DIMTAD
 70
     1
  9
$DIMZIN
 70
     0
  9
$DIMBLK
  1

  9
$DIMASO
 70
     0
  9
$DIMSHO
 70
     0
  9
$DIMPOST
  1

  9
$DIMAPOST
  1

  9
$DIMALT
 70
     0
  9
$DIMALTD
 70
     2
  9
$DIMALTF
 40
25.399999999999999
  9
$DIMLFAC
 40
1.0
  9
$DIMTOFL
 70
     1
  9
$DIMTVP
 40
0.0
  9
$DIMTIX
 70
     1
  9
$DIMSOXD
 70
     0
  9
$DIMSAH
 70
     0
  9
$DIMBLK1
  1

  9
$DIMBLK2
  1

  9
$DIMSTYLE
  2
STANDARD
  9
$DIMCLRD
 70
     0
  9
$DIMCLRE
 70
     0
  9
$DIMCLRT
 70
     0
  9
$DIMTFAC
 40
1.0
  9
$DIMGAP
 40
0.09
  9
$LUNITS
 70
     2
  9
$LUPREC
 70
     2
  9
$SKETCHINC
 40
0.1
  9
$FILLETRAD
 40
1.5
  9
$AUNITS
 70
     0
  9
$AUPREC
 70
     1
  9
$MENU
  1
c:\mek\mek
  9
$ELEVATION
 40
0.0
  9
$PELEVATION
 40
0.0
  9
$THICKNESS
 40
0.0
  9
$LIMCHECK
 70
     0
  9
$BLIPMODE
 70
     0
  9
$CHAMFERA
 40
0.0
  9
$CHAMFERB
 40
0.0
  9
$SKPOLY
 70
     0
  9
$TDCREATE
 40
2449239.6051002322
  9
$TDUPDATE
 40
2452717.6887836568
  9
$TDINDWG
 40
0.1913377083
  9
$TDUSRTIMER
 40
0.1913377083
  9
$USRTIMER
 70
     1
  9
$ANGBASE
 50
0.0
  9
$ANGDIR
 70
     0
  9
$PDMODE
 70
     0
  9
$PDSIZE
 40
0.0
  9
$PLINEWID
 40
0.0
  9
$COORDS
 70
     1
  9
$SPLFRAME
 70
     0
  9
$SPLINETYPE
 70
     6
  9
$SPLINESEGS
 70
     8
  9
$ATTDIA
 70
     0
  9
$ATTREQ
 70
     1
  9
$HANDLING
 70
  4097
  9
$HANDSEED
  5
324
  9
$SURFTAB1
 70
     6
  9
$SURFTAB2
 70
     6
  9
$SURFTYPE
 70
     6
  9
$SURFU
 70
     6
  9
$SURFV
 70
     6
  9
$UCSNAME
  2

  9
$UCSORG
 10
0.0
 20
0.0
 30
0.0
  9
$UCSXDIR
 10
1.0
 20
0.0
 30
0.0
  9
$UCSYDIR
 10
0.0
 20
1.0
 30
0.0
  9
$PUCSNAME
  2

  9
$PUCSORG
 10
0.0
 20
0.0
 30
0.0
  9
$PUCSXDIR
 10
1.0
 20
0.0
 30
0.0
  9
$PUCSYDIR
 10
0.0
 20
1.0
 30
0.0
  9
$USERI1
 70
   111
  9
$USERI2
 70
     0
  9
$USERI3
 70
     0
  9
$USERI4
 70
     0
  9
$USERI5
 70
     0
  9
$USERR1
 40
1.0
  9
$USERR2
 40
0.0
  9
$USERR3
 40
0.0
  9
$USERR4
 40
0.0
  9
$USERR5
 40
0.0
  9
$WORLDVIEW
 70
     1
  9
$SHADEDGE
 70
     3
  9
$SHADEDIF
 70
    70
  9
$TILEMODE
 70
     1
  9
$MAXACTVP
 70
    16
  9
$PLIMCHECK
 70
     0
  9
$PEXTMIN
 10
1.0000000000000000E+020
 20
1.0000000000000000E+020
 30
1.0000000000000000E+020
  9
$PEXTMAX
 10
-1.0000000000000000E+020
 20
-1.0000000000000000E+020
 30
-1.0000000000000000E+020
  9
$PLIMMIN
 10
0.0
 20
0.0
  9
$PLIMMAX
 10
12.0
 20
9.0
  9
$UNITMODE
 70
     0
  9
$VISRETAIN
 70
     0
  9
$PLINEGEN
 70
     0
  9
$PSLTSCALE
 70
     0
  0
ENDSEC
  0
SECTION
  2
TABLES
  0
TABLE
  2
VPORT
 70
     3
  0
VPORT
  2
*ACTIVE
 70
     0
 10
0.0
 20
0.0
 11
1.0
 21
1.0
 12
521.69483101391654
 22
287.0
 13
0.0
 23
0.0
 14
5.0
 24
5.0
 15
10.0
 25
10.0
 16
0.0
 26
0.0
 36
1.0
 17
0.0
 27
0.0
 37
0.0
 40
586.5
 41
1.831013916500994
 42
50.0
 43
0.0
 44
0.0
 50
0.0
 51
0.0
 71
     0
 72
   200
 73
     1
 74
     0
 75
     0
 76
     0
 77
     0
 78
     0
  0
ENDTAB
  0
TABLE
  2
LTYPE
 70
     4
  0
LTYPE
  2
CONTINUOUS
 70
     0
  3
Solid line
 72
    65
 73
     0
 40
0.0
  0
LTYPE
  2
HIDDEN
 70
     0
  3
_ _ _ _ _ _ _ _ _ _ _ _ _ _ _ _ _ _ _ _ _ _ _
 72
    65
 73
     2
 40
0.375
 49
0.25
 49
-0.125
  0
LTYPE
  2
DASHDOT
 70
     0
  3
__ . __ . __ . __ . __ . __ . __ . __ . __ . __
 72
    65
 73
     4
 40
1.0
 49
0.5
 49
-0.25
 49
0.0
 49
-0.25
  0
LTYPE
  2
PHANTOM
 70
     0
  3
_____ _ _ _____ _ _ _____ _ _ _____ _ _ ____
 72
    65
 73
     6
 40
2.5
 49
1.25
 49
-0.25
 49
0.25
 49
-0.25
 49
0.25
 49
-0.25
  0
ENDTAB
  0
TABLE
  2
LAYER
 70
    19
  0
LAYER
  2
0
 70
     0
 62
     7
  6
CONTINUOUS
  0
LAYER
  2
01
 70
     0
 62
     3
  6
CONTINUOUS
  0
LAYER
  2
02
 70
     0
 62
     1
  6
CONTINUOUS
  0
LAYER
  2
03
 70
     0
 62
     3
  6
HIDDEN
  0
LAYER
  2
04
 70
     0
 62
     4
  6
HIDDEN
  0
LAYER
  2
05
 70
     0
 62
     6
  6
DASHDOT
  0
LAYER
  2
06
 70
     0
 62
     3
  6
DASHDOT
  0
LAYER
  2
07
 70
     0
 62
     6
  6
PHANTOM
  0
LAYER
  2
08
 70
     0
 62
     2
  6
CONTINUOUS
  0
LAYER
  2
09
 70
     0
 62
     2
  6
CONTINUOUS
  0
LAYER
  2
10
 70
     0
 62
     1
  6
CONTINUOUS
  0
LAYER
  2
11
 70
     0
 62
     7
  6
CONTINUOUS
  0
LAYER
  2
12
 70
     0
 62
     7
  6
CONTINUOUS
  0
LAYER
  2
13
 70
     0
 62
     7
  6
CONTINUOUS
  0
LAYER
  2
14
 70
     0
 62
     7
  6
CONTINUOUS
  0
LAYER
  2
15
 70
     0
 62
     5
  6
CONTINUOUS
  0
LAYER
  2
16
 70
     0
 62
     7
  6
CONTINUOUS
  0
LAYER
  2
NODES
 70
     0
 62
     7
  6
CONTINUOUS
  0
LAYER
  2
MASTERLINE_CFG
 70
     5
 62
     7
  6
CONTINUOUS
  0
ENDTAB
  0
TABLE
  2
STYLE
 70
     5
  0
STYLE
  2
STANDARD
 70
     0
 40
3.149999999999999
 41
1.0
 50
0.0
 71
     0
 42
7.000000000000048
  3
SIMPLEX
  4

  0
STYLE
  2
SIMPLEX
 70
     0
 40
3.149999999999999
 41
1.0
 50
0.0
 71
     0
 42
5.0
  3
SIMPLEX
  4

  0
STYLE
  2
VERTIKAL
 70
     4
 40
3.149999999999999
 41
1.0
 50
0.0
 71
     0
 42
7.000000000000048
  3
SIMPLEX
  4

  0
STYLE
  2
ISO
 70
     0
 40
3.149999999999999
 41
1.0
 50
0.0
 71
     0
 42
7.000000000000048
  3
ISO.SHX
  4

  0
STYLE
  2
ROMANS
 70
     0
 40
3.149999999999999
 41
0.7
 50
0.0
 71
     0
 42
5.0
  3
romans
  4

  0
ENDTAB
  0
TABLE
  2
VIEW
 70
     0
  0
ENDTAB
  0
TABLE
  2
UCS
 70
     0
  0
ENDTAB
  0
TABLE
  2
APPID
 70
     3
  0
APPID
  2
ACAD
 70
     0
  0
APPID
  2
MASTERLINE_CFG
 70
     0
  0
APPID
  2
MASTERLINE_CFG_LAYER
 70
     0
  0
ENDTAB
  0
TABLE
  2
DIMSTYLE
 70
     1
  0
DIMSTYLE
  2
STANDARD
 70
     0
  3

  4

  5

  6

  7

 40
1.0
 41
0.18
 42
0.0625
 43
0.38
 44
0.18
 45
0.0
 46
0.0
 47
0.0
 48
0.0
140
0.18
141
0.09
142
0.0
143
25.399999999999999
144
1.0
145
0.0
146
1.0
147
0.09
 71
     0
 72
     0
 73
     1
 74
     1
 75
     0
 76
     0
 77
     0
 78
     0
170
     0
171
     2
172
     0
173
     0
174
     0
175
     0
176
     0
177
     0
178
     0
  0
ENDTAB
  0
ENDSEC
  0
SECTION
  2
BLOCKS
  0
BLOCK
  8
0
  2
$MODEL_SPACE
 70
     0
 10
0.0
 20
0.0
 30
0.0
  3
$MODEL_SPACE
  1

  0
ENDBLK
  5
4A
  8
0
  0
BLOCK
 67
     1
  8
0
  2
$PAPER_SPACE
 70
     0
 10
0.0
 20
0.0
 30
0.0
  3
$PAPER_SPACE
  1

  0
ENDBLK
  5
48
 67
     1
  8
0
  0
BLOCK
  8
0
  2
PURGE_ME_3
 70
     2
 10
0.0
 20
0.0
 30
0.0
  3
PURGE_ME_3
  1

  0
ATTDEF
  5
4C
  8
11
 10
4.8967877461232368
 20
37.721700250033649
 30
0.0
 40
3.149999999999999
  1
3.15
  7
ISO
 72
     1
 11
9.3967877461232376
 21
37.721700250033649
 31
0.0
  3
Måttextens höjd
  2
G:HTXT
 70
     1
  0
ATTDEF
  5
4E
  8
11
 10
5.826772134685922
 20
34.071792740622008
 30
0.0
 40
3.149999999999999
  1
2.0
  7
ISO
 72
     1
 11
9.1267721346859219
 21
34.071792740622008
 31
0.0
  3
Måttgränslinjeutbredning
  2
G:MEXE
 70
     1
  0
ATTDEF
  5
4F
  8
11
 10
5.9917643289672347
 20
30.286875982151539
 30
0.0
 40
3.149999999999999
  1
1.5
  7
ISO
 72
     1
 11
8.9917643289672355
 21
30.286875982151539
 31
0.0
  3
Måttextens förskjutning
  2
G:MTI1
 70
     1
  0
ATTDEF
  5
50
  8
11
 10
6.3967877461232368
 20
26.501959223681069
 30
0.0
 40
3.149999999999999
  1
1.5
  7
ISO
 72
     1
 11
9.3967877461232376
 21
26.501959223681069
 31
0.0
  3
Radavstånd för måttext
  2
G:MTI2
 70
     1
  0
ATTDEF
  5
51
  8
11
 10
8.0767721346858927
 20
22.987060963328268
 30
0.0
 40
3.149999999999999
  1
8
  7
ISO
 72
     1
 11
9.1267721346858934
 21
22.987060963328268
 31
0.0
  3
Små mått, sida 1
  2
G:MOT1
 70
     1
  0
ATTDEF
  5
52
  8
11
 10
8.2867799404045517
 20
19.33715345391661
 30
0.0
 40
3.149999999999999
  1
6
  7
ISO
 72
     1
 11
9.2617799404045513
 21
19.33715345391661
 31
0.0
  3
Små mått, sida 2
  2
G:MOT2
 70
     1
  0
ATTDEF
  5
53
  8
11
 10
-3.0382981167820811
 20
15.68724594450495
 30
0.0
 40
3.149999999999999
  1
PILHUVUD
  7
ISO
 72
     1
 11
7.9117018832179147
 21
15.68724594450495
 31
0.0
  3
Måttgränsmarkering
  2
G:PIL
 70
     1
  0
ATTDEF
  5
54
  8
11
 10
8.3352830008829351
 20
11.990876373347019
 30
0.0
 40
3.149999999999999
  1
N
  7
ISO
 72
     1
 11
9.3852830008829358
 21
11.990876373347019
 31
0.0
  3
Parallell bas-text J/N
  2
G:FBPA
 70
     1
  0
ATTDEF
  5
55
  8
11
 10
8.3950448179475927
 20
8.3986583070106349
 30
0.0
 40
3.149999999999999
  1
J
  7
ISO
 72
     1
 11
9.1450448179475927
 21
8.3986583070106349
 31
0.0
  3
Decimalkomma J/N
  2
G:MDEC
 70
     1
  0
ATTDEF
  5
56
  8
11
 10
8.9079317993855796
 20
4.6634591054952628
 30
0.0
 40
3.149999999999999
  1
1
  7
ISO
 72
     1
 11
9.2829317993855796
 21
4.6634591054952628
 31
0.0
  3
Alternativ skalfaktor
  2
G:MSCA
 70
     1
  0
ATTDEF
  5
57
  8
11
 10
0.7010354372155235
 20
1.087866306593156
 30
0.0
 40
3.149999999999999
  1
N
  7
ISO
  3
Toleranssymbol J/N
  2
G:MTOL
 70
     1
  0
ENDBLK
  5
58
  8
0
  0
BLOCK
  8
0
  2
PURGE_ME_2
 70
     2
 10
0.0
 20
0.0
 30
0.0
  3
PURGE_ME_2
  1

  0
ATTDEF
  5
5A
  8
11
 10
-1.0499999999999989
 20
-1.3375796178343931
 30
0.0
 40
3.149999999999999
  1
N
  7
ISO
 72
     1
 11
0.0
 21
-1.3375796178343931
 31
0.0
  3
Lagergrupper eller ej J/N
  2
G:LGR
 70
     1
  0
ATTDEF
  5
5B
  8
11
 10
-2.3249999999999988
 20
-8.4713375796178525
 30
0.0
 40
3.149999999999999
  1
-1
  7
ISO
 72
     1
 11
0.0
 21
-8.4713375796178525
 31
0.0
  3
Aktiv lagergrupp
  2
G:LG_A
 70
     1
  0
ENDBLK
  5
5C
  8
0
  0
BLOCK
  8
0
  2
PURGE_ME_1
 70
     2
 10
0.0
 20
0.0
 30
0.0
  3
PURGE_ME_1
  1

  0
ATTDEF
  5
5E
  8
11
 10
-0.75
 20
-1.575
 30
0.0
 40
3.149999999999999
  1
J
  7
ISO
 72
     4
 11
0.0
 21
0.0
 31
0.0
  3
Utskärningshörn J/N
  2
G:UTSH
 70
     1
  0
ATTDEF
  5
5F
  8
11
 10
-0.75
 20
-6.5750000000000002
 30
0.0
 40
3.149999999999999
  1
J
  7
ISO
 72
     4
 11
0.0
 21
-5.0
 31
0.0
  3
Orienteringsmärken J/N
  2
G:CENM
 70
     1
  0
ATTDEF
  5
60
  8
11
 10
-1.7145735388511301
 20
-11.65704987165385
 30
0.0
 40
3.149999999999999
  1
5
  7
ISO
 72
     4
 11
-0.6645735388511298
 21
-10.082049871653849
 31
0.0
  3
Delning SNITT
  2
G:DHA
 70
     1
  0
ATTDEF
  5
61
  8
11
 10
-3.2145735388511292
 20
-16.65704987165385
 30
0.0
 40
3.149999999999999
  1
45
  7
ISO
 72
     4
 11
-0.6645735388511298
 21
-15.082049871653849
 31
0.0
  3
Vinkel SNITT
  2
G:DVI
 70
     1
  0
ATTDEF
  5
62
  8
11
 10
-4.9395735388511302
 20
-21.65704987165385
 30
0.0
 40
3.149999999999999
  1
POS
  7
ISO
 72
     4
 11
-0.6645735388511298
 21
-20.082049871653851
 31
0.0
  3
Positionsblock
  2
G:POBA
 70
     1
  0
ATTDEF
  5
63
  8
11
 10
-1.714573538851129
 20
-26.65704987165385
 30
0.0
 40
3.149999999999999
  1
7
  7
ISO
 72
     4
 11
-0.6645735388511298
 21
-25.082049871653851
 31
0.0
  3
Positionradie
  2
G:PORA
 70
     1
  0
ATTDEF
  5
64
  8
11
 10
-1.7895735388511289
 20
-31.65704987165385
 30
0.0
 40
3.149999999999999
  1
C
  7
ISO
 72
     4
 11
-0.6645735388511298
 21
-30.082049871653851
 31
0.0
  3
Positionsform (C/K)
  2
G:POFO
 70
     1
  0
ATTDEF
  5
65
  8
11
 10
-2.2395735388511291
 20
-36.657049871653847
 30
0.0
 40
3.149999999999999
  1
PI
  7
ISO
 72
     4
 11
-0.6645735388511298
 21
-35.082049871653851
 31
0.0
  3
POS-anslut. (PI/PU/ST)
  2
G:POAN
 70
     1
  0
ATTDEF
  5
66
  8
11
 10
-1.05
 20
-41.355885588558863
 30
0.0
 40
3.149999999999999
  1
5
  7
ISO
 72
     1
 11
0.0
 21
-41.355885588558863
 31
0.0
  3
Stycklistans radavstånd
  2
G:RAAV
 70
     1
  0
ATTDEF
  5
67
  8
11
 10
-1.0499999999999989
 20
-46.575000000000003
 30
0.0
 40
3.149999999999999
  1
7
  7
ISO
 72
     4
 11
0.0
 21
-45.0
 31
0.0
  3
Stycklisthuvudets höjd
  2
G:HUAV
 70
     1
  0
ATTDEF
  5
68
  8
11
 10
-1.0499999999999989
 20
-51.114155153025791
 30
0.0
 40
3.149999999999999
  1
N
  7
ISO
 72
     1
 11
0.0
 21
-51.114155153025791
 31
0.0
  3
Summera stycklista J/N
  2
G:S_SU
 70
     1
  0
ATTDEF
  5
69
  8
11
 10
-2.399999999999999
 20
-56.274999999999999
 30
0.0
 40
3.149999999999999
  1
,2,
  7
ISO
 72
     4
 11
0.0
 21
-55.0
 31
0.0
  3
Kolumner att summera
  2
G:SU_L
 70
     1
  0
ATTDEF
  5
6A
  8
11
 10
-9.4500000000000011
 20
-61.114155153025791
 30
0.0
 40
3.149999999999999
  1
REVRING
  7
ISO
 72
     1
 11
0.0
 21
-61.114155153025791
 31
0.0
  3
Revisionsblock
  2
G:REBA
 70
     1
  0
ATTDEF
  5
6B
  8
11
 10
-3.2999999999999989
 20
-66.575000000000003
 30
0.0
 40
3.149999999999999
  1
3.5
  7
ISO
 72
     4
 11
0.0
 21
-65.0
 31
0.0
  3
Radie på revisionsringen
  2
G:RERA
 70
     1
  0
ATTDEF
  5
6C
  8
11
 10
-1.875
 20
-71.575000000000003
 30
0.0
 40
3.149999999999999
  1
01
  7
ISO
 72
     4
 11
0.0
 21
-70.0
 31
0.0
  3
Grov heldragen linje
  2
LA1
 70
     1
  0
ATTDEF
  5
6D
  8
11
 10
-2.5499999999999989
 20
-76.575000000000003
 30
0.0
 40
3.149999999999999
  1
02
  7
ISO
 72
     4
 11
0.0
 21
-75.0
 31
0.0
  3
Fin heldragen linje
  2
LA2
 70
     1
  0
ATTDEF
  5
6E
  8
11
 10
-2.5499999999999989
 20
-81.575000000000003
 30
0.0
 40
3.149999999999999
  1
03
  7
ISO
 72
     4
 11
0.0
 21
-80.0
 31
0.0
  3
Grov streckad linje
  2
LA3
 70
     1
  0
ATTDEF
  5
6F
  8
11
 10
-2.625
 20
-86.575000000000003
 30
0.0
 40
3.149999999999999
  1
04
  7
ISO
 72
     4
 11
0.0
 21
-85.0
 31
0.0
  3
Fin streckad linje
  2
LA4
 70
     1
  0
ATTDEF
  5
70
  8
11
 10
-2.5499999999999998
 20
-91.575000000000003
 30
0.0
 40
3.149999999999999
  1
05
  7
ISO
 72
     4
 11
0.0
 21
-90.0
 31
0.0
  3
Fin centrumlinje
  2
LA5
 70
     1
  0
ATTDEF
  5
71
  8
11
 10
-2.4750000000000001
 20
-96.575000000000003
 30
0.0
 40
3.149999999999999
  1
06
  7
ISO
 72
     4
 11
0.0
 21
-95.0
 31
0.0
  3
Grov centrumlinje
  2
LA6
 70
     1
  0
ATTDEF
  5
72
  8
11
 10
-2.5499999999999989
 20
-101.575
 30
0.0
 40
3.149999999999999
  1
07
  7
ISO
 72
     4
 11
0.0
 21
-100.0
 31
0.0
  3
Dubbelpunktstreckad
  2
LA7
 70
     1
  0
ATTDEF
  5
73
  8
11
 10
-2.5499999999999989
 20
-106.5749999999999
 30
0.0
 40
3.149999999999999
  1
08
  7
ISO
 72
     4
 11
0.0
 21
-105.0
 31
0.0
  3
Dim o toleranslinjer
  2
LA8
 70
     1
  0
ATTDEF
  5
74
  8
11
 10
-2.4750000000000001
 20
-111.575
 30
0.0
 40
3.149999999999999
  1
09
  7
ISO
 72
     4
 11
0.0
 21
-110.0
 31
0.0
  3
Positionslinjer
  2
LA9
 70
     1
  0
ATTDEF
  5
75
  8
11
 10
-2.25
 20
-116.575
 30
0.0
 40
3.149999999999999
  1
10
  7
ISO
 72
     4
 11
0.0
 21
-115.0
 31
0.0
  3
Snittmarkeringar
  2
LA10
 70
     1
  0
ATTDEF
  5
76
  8
11
 10
-1.5749999999999991
 20
-121.575
 30
0.0
 40
3.149999999999999
  1
11
  7
ISO
 72
     4
 11
0.0
 21
-120.0
 31
0.0
  3
Text
  2
LA11
 70
     1
  0
ATTDEF
  5
77
  8
11
 10
-2.2499999999999991
 20
-126.575
 30
0.0
 40
3.149999999999999
  1
12
  7
ISO
 72
     4
 11
0.0
 21
-125.0
 31
0.0
  3
Dimtext
  2
LA12
 70
     1
  0
ATTDEF
  5
78
  8
11
 10
-2.2499999999999991
 20
-131.5749999999999
 30
0.0
 40
3.149999999999999
  1
13
  7
ISO
 72
     4
 11
0.0
 21
-130.0
 31
0.0
  3
Vakant
  2
LA13
 70
     1
  0
ATTDEF
  5
79
  8
11
 10
-2.3249999999999988
 20
-136.57499999999999
 30
0.0
 40
3.149999999999999
  1
14
  7
ISO
 72
     4
 11
0.0
 21
-135.0
 31
0.0
  3
Konstruktionslinjer
  2
LA14
 70
     1
  0
ATTDEF
  5
7A
  8
11
 10
-2.25
 20
-141.5749999999999
 30
0.0
 40
3.149999999999999
  1
15
  7
ISO
 72
     4
 11
0.0
 21
-140.0
 31
0.0
  3
Ritram
  2
LA15
 70
     1
  0
ATTDEF
  5
7B
  8
11
 10
-2.1749999999999989
 20
-146.5749999999999
 30
0.0
 40
3.149999999999999
  1
16
  7
ISO
 72
     4
 11
0.0
 21
-145.0
 31
0.0
  3
Information
  2
LA16
 70
     1
  0
ENDBLK
  5
7C
  8
0
  0
BLOCK
  8
0
  2
A1L
 70
     2
 10
0.0
 20
0.0
 30
0.0
  3
A1L
  1

  0
LINE
  5
7E
  8
15
 10
0.0
 20
12.75
 30
0.0
 11
-13.0
 21
12.75
 31
0.0
  0
LINE
  5
7F
  8
15
 10
-13.0
 20
50.999999999999943
 30
0.0
 11
-13.0
 21
0.0
 31
0.0
  0
LINE
  5
80
  8
15
 10
-117.5
 20
51.0
 30
0.0
 11
-117.5
 21
0.0
 31
0.0
  0
LINE
  5
81
  8
15
 10
0.0
 20
51.0
 30
0.0
 11
-255.5
 21
51.0
 31
0.0
  0
LINE
  5
82
  8
02
 10
-197.98907103825141
 20
51.0
 30
0.0
 11
-197.98907103825141
 21
48.202185792349717
 31
0.0
  0
LINE
  5
83
  8
02
 10
-211.97814207650271
 20
51.0
 30
0.0
 11
-211.97814207650271
 21
48.202185792349717
 31
0.0
  0
LINE
  5
84
  8
15
 10
-184.0
 20
51.0
 30
0.0
 11
-184.0
 21
12.75
 31
0.0
  0
LINE
  5
85
  8
15
 10
0.0
 20
38.25
 30
0.0
 11
-255.5
 21
38.25
 31
0.0
  0
LINE
  5
86
  8
15
 10
0.0
 20
25.5
 30
0.0
 11
-255.5
 21
25.5
 31
0.0
  0
LINE
  5
87
  8
15
 10
-255.5
 20
51.0
 30
0.0
 11
-255.5
 21
0.0
 31
0.0
  0
TEXT
  5
88
  8
15
 62
     2
 10
-275.49999999999989
 20
2.0
 30
0.0
 40
1.6200000000000001
  1
Year    Week
  7
ISO
  0
TEXT
  5
89
  8
15
 62
     2
 10
-286.5
 20
2.0
 30
0.0
 40
1.6200000000000001
  1
Appd
  7
ISO
  0
TEXT
  5
8A
  8
15
 62
     2
 10
-336.5
 20
2.0
 30
0.0
 40
1.6200000000000001
  1
Revision
  7
ISO
  0
TEXT
  5
8B
  8
15
 62
     2
 10
-348.0
 20
2.0
 30
0.0
 40
1.6200000000000001
  1
Rev ind
 41
0.8643141475260469
  7
ISO
 72
     5
 11
-340.46565010256569
 21
2.0
 31
0.0
  0
LINE
  5
8C
  8
15
 10
-277.0
 20
-0.0000000000000178
 30
0.0
 11
-277.0
 21
6.9999999999999822
 31
0.0
  0
LINE
  5
8D
  8
15
 10
-287.5
 20
-0.000000000000016
 30
0.0
 11
-287.5
 21
6.9999999999999849
 31
0.0
  0
LINE
  5
8E
  8
15
 10
-339.0
 20
-0.0000000000000018
 30
0.0
 11
-339.0
 21
6.9999999999999956
 31
0.0
  0
LINE
  5
8F
  8
15
 10
-349.5
 20
7.0
 30
0.0
 11
-255.5
 21
7.0
 31
0.0
  0
LINE
  5
90
  8
15
 10
-349.5
 20
0.0
 30
0.0
 11
-349.5
 21
7.0
 31
0.0
  0
TEXT
  5
91
  8
11
 62
     2
 10
-130.22850894057351
 20
21.11905352138578
 30
0.0
 40
3.149999999999999
  1
Scale
 41
0.8
  7
ISO
  0
LINE
  5
92
  8
15
 10
-117.5
 20
12.75
 30
0.0
 11
-255.5
 21
12.75
 31
0.0
  0
INSERT
  5
93
  8
0
 66
     1
  2
PURGE_ME_3
 10
-831.0
 20
-10.0
 30
0.0
  0
ATTRIB
  5
94
  8
11
 10
-826.10321225387679
 20
27.721700250033649
 30
0.0
 40
3.149999999999999
  1
3.15
  7
ISO
 72
     1
 11
-821.60321225387679
 21
27.721700250033649
 31
0.0
  2
G:HTXT
 70
     1
  0
ATTRIB
  5
95
  8
11
 10
-825.17322786531395
 20
24.071792740622008
 30
0.0
 40
3.149999999999999
  1
2.0
  7
ISO
 72
     1
 11
-821.87322786531399
 21
24.071792740622008
 31
0.0
  2
G:MEXE
 70
     1
  0
ATTRIB
  5
96
  8
11
 10
-825.00823567103271
 20
20.286875982151539
 30
0.0
 40
3.149999999999999
  1
1.5
  7
ISO
 72
     1
 11
-822.00823567103259
 21
20.286875982151539
 31
0.0
  2
G:MTI1
 70
     1
  0
ATTRIB
  5
97
  8
11
 10
-824.60321225387679
 20
16.501959223681069
 30
0.0
 40
3.149999999999999
  1
1.5
  7
ISO
 72
     1
 11
-821.60321225387679
 21
16.501959223681069
 31
0.0
  2
G:MTI2
 70
     1
  0
ATTRIB
  5
98
  8
11
 10
-822.92322786531406
 20
12.98706096332827
 30
0.0
 40
3.149999999999999
  1
8
  7
ISO
 72
     1
 11
-821.87322786531399
 21
12.98706096332827
 31
0.0
  2
G:MOT1
 70
     1
  0
ATTRIB
  5
99
  8
11
 10
-822.71322005959553
 20
9.3371534539166134
 30
0.0
 40
3.149999999999999
  1
6
  7
ISO
 72
     1
 11
-821.73822005959539
 21
9.3371534539166134
 31
0.0
  2
G:MOT2
 70
     1
  0
ATTRIB
  5
9A
  8
11
 10
-834.03829811678202
 20
5.6872459445049506
 30
0.0
 40
3.149999999999999
  1
PILHUVUD
  7
ISO
 72
     1
 11
-823.08829811678197
 21
5.6872459445049506
 31
0.0
  2
G:PIL
 70
     1
  0
ATTRIB
  5
9B
  8
11
 10
-822.66471699911688
 20
1.9908763733470201
 30
0.0
 40
3.149999999999999
  1
N
  7
ISO
 72
     1
 11
-821.61471699911704
 21
1.9908763733470201
 31
0.0
  2
G:FBPA
 70
     1
  0
ATTRIB
  5
9C
  8
11
 10
-822.60495518205244
 20
-1.6013416929893649
 30
0.0
 40
3.149999999999999
  1
J
  7
ISO
 72
     1
 11
-821.85495518205244
 21
-1.6013416929893649
 31
0.0
  2
G:MDEC
 70
     1
  0
ATTRIB
  5
9D
  8
11
 10
-822.09206820061445
 20
-5.3365408945047363
 30
0.0
 40
3.149999999999999
  1
1
  7
ISO
 72
     1
 11
-821.71706820061445
 21
-5.3365408945047363
 31
0.0
  2
G:MSCA
 70
     1
  0
ATTRIB
  5
9E
  8
11
 10
-830.29896456278436
 20
-8.9121336934068438
 30
0.0
 40
3.149999999999999
  1
N
  7
ISO
  2
G:MTOL
 70
     1
  0
SEQEND
  5
9F
  8
0
  0
INSERT
  5
A0
  8
0
 66
     1
  2
PURGE_ME_2
 10
-831.0
 20
-10.0
 30
0.0
  0
ATTRIB
  5
A1
  8
11
 10
-832.04999999999995
 20
-11.33757961783439
 30
0.0
 40
3.149999999999999
  1
N
  7
ISO
 72
     1
 11
-831.0
 21
-11.33757961783439
 31
0.0
  2
G:LGR
 70
     1
  0
ATTRIB
  5
A2
  8
11
 10
-833.32500000000005
 20
-18.471337579617849
 30
0.0
 40
3.149999999999999
  1
-1
  7
ISO
 72
     1
 11
-831.0
 21
-18.471337579617849
 31
0.0
  2
G:LG_A
 70
     1
  0
SEQEND
  5
A3
  8
0
  0
INSERT
  5
A4
  8
0
 66
     1
  2
PURGE_ME_1
 10
-831.0
 20
-10.0
 30
0.0
  0
ATTRIB
  5
A5
  8
11
 10
-831.75
 20
-11.57499999999999
 30
0.0
 40
3.149999999999999
  1
J
  7
ISO
 72
     4
 11
-831.0
 21
-10.0
 31
0.0
  2
G:UTSH
 70
     1
  0
ATTRIB
  5
A6
  8
11
 10
-831.75
 20
-16.574999999999989
 30
0.0
 40
3.149999999999999
  1
J
  7
ISO
 72
     4
 11
-831.0
 21
-15.0
 31
0.0
  2
G:CENM
 70
     1
  0
ATTRIB
  5
A7
  8
11
 10
-832.71457353885103
 20
-21.65704987165385
 30
0.0
 40
3.149999999999999
  1
5
  7
ISO
 72
     4
 11
-831.66457353885096
 21
-20.082049871653851
 31
0.0
  2
G:DHA
 70
     1
  0
ATTRIB
  5
A8
  8
11
 10
-834.21457353885091
 20
-26.65704987165385
 30
0.0
 40
3.149999999999999
  1
45
  7
ISO
 72
     4
 11
-831.66457353885096
 21
-25.082049871653851
 31
0.0
  2
G:DVI
 70
     1
  0
ATTRIB
  5
A9
  8
11
 10
-835.93957353885105
 20
-31.65704987165385
 30
0.0
 40
3.149999999999999
  1
POS
  7
ISO
 72
     4
 11
-831.66457353885096
 21
-30.082049871653851
 31
0.0
  2
G:POBA
 70
     1
  0
ATTRIB
  5
AA
  8
11
 10
-832.71457353885103
 20
-36.657049871653847
 30
0.0
 40
3.149999999999999
  1
7
  7
ISO
 72
     4
 11
-831.66457353885096
 21
-35.082049871653851
 31
0.0
  2
G:PORA
 70
     1
  0
ATTRIB
  5
AB
  8
11
 10
-832.78957353885096
 20
-41.657049871653847
 30
0.0
 40
3.149999999999999
  1
C
  7
ISO
 72
     4
 11
-831.66457353885096
 21
-40.082049871653851
 31
0.0
  2
G:POFO
 70
     1
  0
ATTRIB
  5
AC
  8
11
 10
-833.239573538851
 20
-46.657049871653847
 30
0.0
 40
3.149999999999999
  1
PI
  7
ISO
 72
     4
 11
-831.66457353885096
 21
-45.082049871653851
 31
0.0
  2
G:POAN
 70
     1
  0
ATTRIB
  5
AD
  8
11
 10
-832.04999999999995
 20
-51.355885588558863
 30
0.0
 40
3.149999999999999
  1
5
  7
ISO
 72
     1
 11
-831.0
 21
-51.355885588558863
 31
0.0
  2
G:RAAV
 70
     1
  0
ATTRIB
  5
AE
  8
11
 10
-832.04999999999995
 20
-56.575000000000003
 30
0.0
 40
3.149999999999999
  1
7
  7
ISO
 72
     4
 11
-831.0
 21
-55.0
 31
0.0
  2
G:HUAV
 70
     1
  0
ATTRIB
  5
AF
  8
11
 10
-832.04999999999995
 20
-61.114155153025791
 30
0.0
 40
3.149999999999999
  1
N
  7
ISO
 72
     1
 11
-831.0
 21
-61.114155153025791
 31
0.0
  2
G:S_SU
 70
     1
  0
ATTRIB
  5
B0
  8
11
 10
-833.39999999999986
 20
-66.275000000000006
 30
0.0
 40
3.149999999999999
  1
,2,
  7
ISO
 72
     4
 11
-831.0
 21
-65.0
 31
0.0
  2
G:SU_L
 70
     1
  0
ATTRIB
  5
B1
  8
11
 10
-840.45000000000005
 20
-71.114155153025791
 30
0.0
 40
3.149999999999999
  1
REVRING
  7
ISO
 72
     1
 11
-831.0
 21
-71.114155153025791
 31
0.0
  2
G:REBA
 70
     1
  0
ATTRIB
  5
B2
  8
11
 10
-834.29999999999995
 20
-76.575000000000003
 30
0.0
 40
3.149999999999999
  1
3.5
  7
ISO
 72
     4
 11
-831.0
 21
-75.0
 31
0.0
  2
G:RERA
 70
     1
  0
ATTRIB
  5
B3
  8
11
 10
-832.87499999999989
 20
-81.575000000000003
 30
0.0
 40
3.149999999999999
  1
01
  7
ISO
 72
     4
 11
-831.0
 21
-80.0
 31
0.0
  2
LA1
 70
     1
  0
ATTRIB
  5
B4
  8
11
 10
-833.54999999999995
 20
-86.575000000000003
 30
0.0
 40
3.149999999999999
  1
02
  7
ISO
 72
     4
 11
-831.0
 21
-85.0
 31
0.0
  2
LA2
 70
     1
  0
ATTRIB
  5
B5
  8
11
 10
-833.54999999999995
 20
-91.575000000000003
 30
0.0
 40
3.149999999999999
  1
03
  7
ISO
 72
     4
 11
-831.0
 21
-90.0
 31
0.0
  2
LA3
 70
     1
  0
ATTRIB
  5
B6
  8
11
 10
-833.62499999999989
 20
-96.575000000000003
 30
0.0
 40
3.149999999999999
  1
04
  7
ISO
 72
     4
 11
-831.0
 21
-95.0
 31
0.0
  2
LA4
 70
     1
  0
ATTRIB
  5
B7
  8
11
 10
-833.54999999999995
 20
-101.575
 30
0.0
 40
3.149999999999999
  1
05
  7
ISO
 72
     4
 11
-831.0
 21
-100.0
 31
0.0
  2
LA5
 70
     1
  0
ATTRIB
  5
B8
  8
11
 10
-833.47499999999991
 20
-106.5749999999999
 30
0.0
 40
3.149999999999999
  1
06
  7
ISO
 72
     4
 11
-831.0
 21
-105.0
 31
0.0
  2
LA6
 70
     1
  0
ATTRIB
  5
B9
  8
11
 10
-833.54999999999995
 20
-111.575
 30
0.0
 40
3.149999999999999
  1
07
  7
ISO
 72
     4
 11
-831.0
 21
-110.0
 31
0.0
  2
LA7
 70
     1
  0
ATTRIB
  5
BA
  8
11
 10
-833.54999999999995
 20
-116.575
 30
0.0
 40
3.149999999999999
  1
08
  7
ISO
 72
     4
 11
-831.0
 21
-115.0
 31
0.0
  2
LA8
 70
     1
  0
ATTRIB
  5
BB
  8
11
 10
-833.47499999999991
 20
-121.575
 30
0.0
 40
3.149999999999999
  1
09
  7
ISO
 72
     4
 11
-831.0
 21
-120.0
 31
0.0
  2
LA9
 70
     1
  0
ATTRIB
  5
BC
  8
11
 10
-833.24999999999989
 20
-126.575
 30
0.0
 40
3.149999999999999
  1
10
  7
ISO
 72
     4
 11
-831.0
 21
-125.0
 31
0.0
  2
LA10
 70
     1
  0
ATTRIB
  5
BD
  8
11
 10
-832.57500000000005
 20
-131.5749999999999
 30
0.0
 40
3.149999999999999
  1
11
  7
ISO
 72
     4
 11
-831.0
 21
-130.0
 31
0.0
  2
LA11
 70
     1
  0
ATTRIB
  5
BE
  8
11
 10
-833.24999999999989
 20
-136.57499999999999
 30
0.0
 40
3.149999999999999
  1
12
  7
ISO
 72
     4
 11
-831.0
 21
-135.0
 31
0.0
  2
LA12
 70
     1
  0
ATTRIB
  5
BF
  8
11
 10
-833.24999999999989
 20
-141.5749999999999
 30
0.0
 40
3.149999999999999
  1
13
  7
ISO
 72
     4
 11
-831.0
 21
-140.0
 31
0.0
  2
LA13
 70
     1
  0
ATTRIB
  5
C0
  8
11
 10
-833.32500000000005
 20
-146.5749999999999
 30
0.0
 40
3.149999999999999
  1
14
  7
ISO
 72
     4
 11
-831.0
 21
-145.0
 31
0.0
  2
LA14
 70
     1
  0
ATTRIB
  5
C1
  8
11
 10
-833.24999999999989
 20
-151.5749999999999
 30
0.0
 40
3.149999999999999
  1
15
  7
ISO
 72
     4
 11
-831.0
 21
-150.0
 31
0.0
  2
LA15
 70
     1
  0
ATTRIB
  5
C2
  8
11
 10
-833.17499999999995
 20
-156.5749999999999
 30
0.0
 40
3.149999999999999
  1
16
  7
ISO
 72
     4
 11
-831.0
 21
-155.0
 31
0.0
  2
LA16
 70
     1
  0
SEQEND
  5
C3
  8
0
  0
ATTDEF
  5
C4
  8
11
 62
     3
 10
-65.200000000000045
 20
12.800000000000001
 30
0.0
 40
6.5
  1

 41
0.9
  7
ISO
 72
     4
 11
-65.200000000000045
 21
12.800000000000001
 31
0.0
  3
Dokument No.
  2
DOCNO
 70
     0
  0
ATTDEF
  5
C5
  8
11
 10
-115.5
 20
40.299999999999997
 30
0.0
 40
4.7000000000000002
  1

 41
0.9
  7
ISO
  3
Title (engelska)
  2
TITLE1
 70
     0
  0
ATTDEF
  5
C6
  8
11
 10
-115.5
 20
27.5
 30
0.0
 40
4.7000000000000002
  1

 41
0.9
  7
ISO
  3
Title (svenska)
  2
TITLE2
 70
     0
  0
ATTDEF
  5
C7
  8
11
 10
-182.0
 20
14.800000000000001
 30
0.0
 40
4.7000000000000002
  1

 41
0.9
  7
ISO
  3
Filnamn (XXXX.DWG)
  2
FILENAME
 70
     0
  0
ATTDEF
  5
C8
  8
11
 10
-120.0
 20
14.800000000000001
 30
0.0
 40
4.7000000000000002
  1

 41
0.9
  7
ISO
 72
     2
 11
-120.0
 21
14.800000000000001
 31
0.0
  3
Skala
  2
SCALE
 70
     0
  0
ATTDEF
  5
C9
  8
11
 10
-253.5
 20
40.299999999999997
 30
0.0
 40
4.7000000000000002
  1

 41
0.9
  7
ISO
  3
Prepared
  2
PREPARED
 70
     0
  0
ATTDEF
  5
CA
  8
11
 10
-209.89999999999989
 20
45.799999999999997
 30
0.0
 40
3.2000000000000002
  1
P
 41
0.9
  7
ISO
  3
P granskning
  2
P
 70
     0
  0
ATTDEF
  5
CB
  8
11
 10
-195.89999999999989
 20
45.799999999999997
 30
0.0
 40
3.2000000000000002
  1
Q
 41
0.9
  7
ISO
  3
Q granskning
  2
Q
 70
     0
  0
ATTDEF
  5
CC
  8
11
 10
-253.5
 20
27.5
 30
0.0
 40
4.7000000000000002
  1

 41
0.9
  7
ISO
  3
Approved
  2
APPROVED
 70
     0
  0
ATTDEF
  5
CD
  8
11
 10
-189.6257142857142
 20
27.5
 30
0.0
 40
4.7000000000000002
  1
-
 41
0.9
  7
ISO
 72
     2
 11
-186.0
 21
27.5
 31
0.0
  3
Iss Date (ÅÅMMDD)
  2
ISSDATE
 70
     0
  0
ATTDEF
  5
CE
  8
11
 10
-253.5
 20
14.800000000000001
 30
0.0
 40
4.7000000000000002
  1

 41
0.9
  7
ISO
  3
Revision
  2
REVISION
 70
     0
  0
ATTDEF
  5
CF
  8
11
 10
-182.0
 20
40.299999999999997
 30
0.0
 40
4.7000000000000002
  1
-
 41
0.9
  7
ISO
  3
Responsible dept.
  2
RESPDEPT
 70
     0
  0
ATTDEF
  5
D0
  8
11
 10
-182.0
 20
27.5
 30
0.0
 40
4.7000000000000002
  1

 41
0.9
  7
ISO
  3
Take over dept.
  2
TAKEOVDEPT
 70
     0
  0
ATTDEF
  5
D1
  8
11
 10
-9.6242857142857581
 20
28.149999999999991
 30
0.0
 40
4.7000000000000002
  1
82
 41
0.9
  7
ISO
 72
     4
 11
-6.2000000000000446
 21
30.5
 31
0.0
  3
Language (82=E,S)
  2
LANG
 70
     0
  0
ATTDEF
  5
D2
  8
11
 10
-6.7035714285714727
 20
2.649999999999999
 30
0.0
 40
4.7000000000000002
  1
1
 41
0.9
  7
ISO
 72
     4
 11
-6.2000000000000446
 21
5.0
 31
0.0
  3
Sheet
  2
SHEET
 70
     0
  0
ATTDEF
  5
D3
  8
11
 10
-8.0128571428571878
 20
15.785714285714279
 30
0.0
 40
4.7000000000000002
  1
-
 41
0.9
  7
ISO
 72
     4
 11
-6.2000000000000446
 21
17.800000000000001
 31
0.0
  3
Cont
  2
CONT
 70
     0
  0
ATTDEF
  5
D4
  8
11
 10
-114.89999999999991
 20
2.0
 30
0.0
 40
3.2000000000000002
  1

 41
0.9
  7
ISO
  3
Status
  2
STATUS
 70
     0
  0
ATTDEF
  5
D5
  8
11
 10
-801.0
 20
564.10000000000002
 30
0.0
 40
4.7000000000000002
  1

 41
0.9
  7
ISO
  3
Typ
  2
TYPE
 70
     0
  0
ENDBLK
  5
D6
  8
0
  0
BLOCK
  8
0
  2
PILHUVUD
 70
     0
 10
0.0
 20
0.0
 30
0.0
  3
PILHUVUD
  1

  0
SOLID
  5
D8
  8
0
 10
0.0
 20
0.0
 30
0.0
 11
-3.8249942751801589
 21
0.5035700495849654
 31
0.0
 12
-3.8249942751801589
 22
-0.5034299504150397
 32
0.0
 13
-3.8249942751801589
 23
-0.5034299504150397
 33
0.0
  0
ENDBLK
  5
D9
  8
0
  0
BLOCK
  8
0
  2
WA1
 70
     0
 10
0.0
 20
0.0
 30
0.0
  3
WA1
  1

  0
SOLID
  5
DB
  8
01
 10
0.0
 20
287.0
 30
0.0
 11
-6.8463427656607179
 21
288.51071014875481
 31
0.0
 12
-6.8463427656607179
 22
285.48971014875491
 32
0.0
 13
-6.8463427656607179
 23
285.48971014875491
 33
0.0
  0
LINE
  5
DC
  8
04
 10
65.0
 20
574.0
 30
0.0
 11
66.87826086956521
 21
580.0
 31
0.0
  0
LINE
  5
DD
  8
04
 10
-11.702020202020201
 20
328.97965768799099
 30
0.0
 11
0.0
 21
366.36111111111097
 31
0.0
  0
LINE
  5
DE
  8
15
 10
499.0
 20
-3.4999999999999849
 30
0.0
 11
498.0
 21
-0.5
 31
0.0
  0
LINE
  5
DF
  8
15
 10
499.0
 20
-3.4999999999999849
 30
0.0
 11
500.0
 21
-0.5
 31
0.0
  0
LINE
  5
E0
  8
15
 10
184.0
 20
-3.4999999999999849
 30
0.0
 11
185.0
 21
-0.5
 31
0.0
  0
LINE
  5
E1
  8
15
 10
184.0
 20
-3.4999999999999849
 30
0.0
 11
183.0
 21
-0.5
 31
0.0
  0
LINE
  5
E2
  8
15
 10
374.0
 20
-0.5
 30
0.0
 11
373.0
 21
-3.4999999999999849
 31
0.0
  0
LINE
  5
E3
  8
15
 10
374.0
 20
-0.5
 30
0.0
 11
375.0
 21
-3.4999999999999849
 31
0.0
  0
LINE
  5
E4
  8
15
 10
624.0
 20
-0.5
 30
0.0
 11
625.0
 21
-3.4999999999999849
 31
0.0
  0
LINE
  5
E5
  8
15
 10
624.0
 20
-0.5
 30
0.0
 11
623.0
 21
-3.4999999999999849
 31
0.0
  0
LINE
  5
E6
  8
15
 10
374.0
 20
574.49999999999989
 30
0.0
 11
373.0
 21
577.49999999999977
 31
0.0
  0
LINE
  5
E7
  8
15
 10
374.0
 20
574.49999999999989
 30
0.0
 11
375.0
 21
577.49999999999977
 31
0.0
  0
POLYLINE
  5
E8
  8
01
 66
     1
 10
0.0
 20
0.0
 30
0.0
 40
1.0
 41
1.0
  0
VERTEX
  5
2D6
  8
01
 10
-2.948113251171296
 20
287.0
 30
0.0
  0
VERTEX
  5
2D7
  8
01
 10
-11.702020202020201
 20
287.0
 30
0.0
  0
SEQEND
  5
2D8
  8
01
  0
LINE
  5
EC
  8
15
 10
624.0
 20
574.49999999999989
 30
0.0
 11
625.0
 21
577.49999999999977
 31
0.0
  0
LINE
  5
ED
  8
15
 10
624.0
 20
574.49999999999989
 30
0.0
 11
623.0
 21
577.49999999999977
 31
0.0
  0
LINE
  5
EE
  8
15
 10
184.0
 20
577.50000000000011
 30
0.0
 11
185.0
 21
574.5
 31
0.0
  0
LINE
  5
EF
  8
15
 10
184.0
 20
577.50000000000011
 30
0.0
 11
183.0
 21
574.5
 31
0.0
  0
POLYLINE
  5
F0
  8
01
 66
     1
 10
0.0
 20
0.0
 30
0.0
 40
1.0
 41
1.0
  0
VERTEX
  5
2D9
  8
01
 10
812.0
 20
287.0
 30
0.0
  0
VERTEX
  5
2DA
  8
01
 10
806.0
 20
287.0
 30
0.0
  0
SEQEND
  5
2DB
  8
01
  0
POLYLINE
  5
F4
  8
01
 66
     1
 10
0.0
 20
0.0
 30
0.0
 40
1.0
 41
1.0
  0
VERTEX
  5
2DC
  8
01
 10
395.5
 20
-6.0
 30
0.0
  0
VERTEX
  5
2DD
  8
01
 10
395.5
 20
0.0
 30
0.0
  0
SEQEND
  5
2DE
  8
01
  0
POLYLINE
  5
F8
  8
01
 66
     1
 10
0.0
 20
0.0
 30
0.0
 40
1.0
 41
1.0
  0
VERTEX
  5
2DF
  8
01
 10
395.5
 20
574.0
 30
0.0
  0
VERTEX
  5
2E0
  8
01
 10
395.5
 20
580.0
 30
0.0
  0
SEQEND
  5
2E1
  8
01
  0
TEXT
  5
FC
  8
15
 62
     2
 10
0.3972593524059995
 20
-3.4089748423189259
 30
0.0
 40
1.8
  1
(A1)
 41
0.9
  7
ISO
  0
TEXT
  5
FD
  8
15
 10
581.57226664983489
 20
2.0
 30
0.0
 40
4.0
  1
ABB Control
 41
0.7
  7
ROMANS
  0
TEXT
  5
FF
  8
15
 62
     2
 10
692.49999999999989
 20
22.5
 30
0.0
 40
1.8
  1
Document No.
 41
0.9
  7
ISO
  0
TEXT
  5
100
  8
15
 62
     2
 10
794.630881612199
 20
9.75
 30
0.0
 40
1.8
  1
Sheet
 41
0.9
  7
ISO
  0
TEXT
  5
101
  8
15
 62
     2
 10
794.630881612199
 20
22.499999999999989
 30
0.0
 40
1.8
  1
Cont.
 41
0.9
  7
ISO
  0
TEXT
  5
102
  8
15
 62
     2
 10
794.630881612199
 20
35.25
 30
0.0
 40
1.8
  1
Lang.
 41
0.9
  7
ISO
  0
TEXT
  5
103
  8
15
 62
     2
 10
692.49999999999989
 20
48.0
 30
0.0
 40
1.8
  1
Title
 41
0.9
  7
ISO
  0
TEXT
  5
104
  8
15
 62
     2
 10
626.0
 20
35.25
 30
0.0
 40
1.8
  1
Take over department
 41
0.9
  7
ISO
  0
TEXT
  5
105
  8
15
 62
     2
 10
626.0
 20
48.0
 30
0.0
 40
1.8
  1
Responsible department
 41
0.9
  7
ISO
  0
TEXT
  5
106
  8
15
 62
     2
 10
554.500655827542
 20
22.5
 30
0.0
 40
1.8
  1
Revision
 41
0.9
  7
ISO
  0
TEXT
  5
107
  8
15
 62
     2
 10
554.500655827542
 20
35.25
 30
0.0
 40
1.8
  1
Approved
 41
0.9
  7
ISO
  0
TEXT
  5
108
  8
15
 62
     2
 10
554.500655827542
 20
48.0
 30
0.0
 40
1.8
  1
Prepared
 41
0.9
  7
ISO
  0
LINE
  5
109
  8
05
 10
798.97657636913652
 20
44.625
 30
0.0
 11
804.63413064601809
 21
44.625
 31
0.0
  0
LINE
  5
10A
  8
05
 10
801.80535350757725
 20
47.453777138438291
 30
0.0
 11
801.80535350757725
 21
41.79622286156085
 31
0.0
  0
CIRCLE
  5
10B
  8
02
 10
801.80535350757737
 20
44.625
 30
0.0
 40
1.1999999999999991
  0
CIRCLE
  5
10C
  8
02
 10
801.80535350757737
 20
44.625
 30
0.0
 40
2.2999999999999989
  0
LINE
  5
10D
  8
02
 10
794.20648158666745
 20
45.825000000000003
 30
0.0
 11
794.20648158666745
 21
43.424999999999997
 31
0.0
  0
LINE
  5
10E
  8
02
 10
798.20648158666756
 20
46.92499999999999
 30
0.0
 11
798.20648158666745
 21
42.325000000000003
 31
0.0
  0
LINE
  5
10F
  8
02
 10
794.20648158666745
 20
45.825000000000003
 30
0.0
 11
798.20648158666756
 21
46.92499999999999
 31
0.0
  0
LINE
  5
110
  8
02
 10
794.20648158666745
 20
43.424999999999997
 30
0.0
 11
798.20648158666745
 21
42.325000000000003
 31
0.0
  0
LINE
  5
111
  8
05
 10
798.46230510807209
 20
44.625
 30
0.0
 11
793.70728562106058
 21
44.625
 31
0.0
  0
LINE
  5
112
  8
15
 10
0.0000000000000227
 20
361.0
 30
0.0
 11
-5.999999999999976
 21
361.0
 31
0.0
  0
LINE
  5
113
  8
15
 10
0.0000000000000453
 20
435.0
 30
0.0
 11
-5.9999999999999529
 21
435.0
 31
0.0
  0
LINE
  5
114
  8
15
 10
0.000000000000068
 20
509.0
 30
0.0
 11
-5.9999999999999298
 21
509.0
 31
0.0
  0
LINE
  5
115
  8
15
 10
-0.0000000000000136
 20
213.0
 30
0.0
 11
-6.0000000000000142
 21
213.0
 31
0.0
  0
LINE
  5
116
  8
15
 10
-0.0000000000000408
 20
65.0
 30
0.0
 11
-6.0000000000000417
 21
65.0
 31
0.0
  0
LINE
  5
117
  8
15
 10
811.99999999999989
 20
65.0
 30
0.0
 11
805.99999999999977
 21
65.0
 31
0.0
  0
LINE
  5
118
  8
15
 10
811.99999999999989
 20
213.0
 30
0.0
 11
805.99999999999977
 21
213.0
 31
0.0
  0
LINE
  5
119
  8
15
 10
811.99999999999989
 20
361.0
 30
0.0
 11
805.99999999999977
 21
361.0
 31
0.0
  0
LINE
  5
11A
  8
15
 10
811.99999999999989
 20
435.0
 30
0.0
 11
805.99999999999977
 21
435.0
 31
0.0
  0
LINE
  5
11B
  8
15
 10
812.0
 20
509.0
 30
0.0
 11
806.0
 21
509.0
 31
0.0
  0
LINE
  5
11C
  8
15
 10
811.99999999999989
 20
139.0
 30
0.0
 11
805.99999999999977
 21
139.0
 31
0.0
  0
POLYLINE
  5
11D
  8
15
 66
     1
 10
0.0
 20
0.0
 30
0.0
  0
VERTEX
  5
2E2
  8
15
 10
465.5
 20
574.0
 30
0.0
  0
VERTEX
  5
2E3
  8
15
 10
465.5
 20
580.0
 30
0.0
  0
SEQEND
  5
2E4
  8
15
  0
POLYLINE
  5
121
  8
15
 66
     1
 10
0.0
 20
0.0
 30
0.0
  0
VERTEX
  5
2E5
  8
15
 10
535.5
 20
574.0
 30
0.0
  0
VERTEX
  5
2E6
  8
15
 10
535.5
 20
580.0
 30
0.0
  0
SEQEND
  5
2E7
  8
15
  0
POLYLINE
  5
125
  8
15
 66
     1
 10
0.0
 20
0.0
 30
0.0
  0
VERTEX
  5
2E8
  8
15
 10
605.49999999999989
 20
574.0
 30
0.0
  0
VERTEX
  5
2E9
  8
15
 10
605.49999999999989
 20
580.0
 30
0.0
  0
SEQEND
  5
2EA
  8
15
  0
POLYLINE
  5
129
  8
15
 66
     1
 10
0.0
 20
0.0
 30
0.0
  0
VERTEX
  5
2EB
  8
15
 10
675.49999999999989
 20
574.0
 30
0.0
  0
VERTEX
  5
2EC
  8
15
 10
675.49999999999989
 20
580.0
 30
0.0
  0
SEQEND
  5
2ED
  8
15
  0
POLYLINE
  5
12D
  8
15
 66
     1
 10
0.0
 20
0.0
 30
0.0
  0
VERTEX
  5
2EE
  8
15
 10
745.5
 20
574.0
 30
0.0
  0
VERTEX
  5
2EF
  8
15
 10
745.5
 20
580.0
 30
0.0
  0
SEQEND
  5
2F0
  8
15
  0
POLYLINE
  5
131
  8
15
 66
     1
 10
0.0
 20
0.0
 30
0.0
  0
VERTEX
  5
2F1
  8
15
 10
325.49999999999989
 20
574.0
 30
0.0
  0
VERTEX
  5
2F2
  8
15
 10
325.49999999999989
 20
580.0
 30
0.0
  0
SEQEND
  5
2F3
  8
15
  0
POLYLINE
  5
135
  8
15
 66
     1
 10
0.0
 20
0.0
 30
0.0
  0
VERTEX
  5
2F4
  8
15
 10
255.5
 20
574.0
 30
0.0
  0
VERTEX
  5
2F5
  8
15
 10
255.5
 20
580.0
 30
0.0
  0
SEQEND
  5
2F6
  8
15
  0
POLYLINE
  5
139
  8
15
 66
     1
 10
0.0
 20
0.0
 30
0.0
  0
VERTEX
  5
2F7
  8
15
 10
185.5
 20
574.0
 30
0.0
  0
VERTEX
  5
2F8
  8
15
 10
185.5
 20
580.0
 30
0.0
  0
SEQEND
  5
2F9
  8
15
  0
POLYLINE
  5
13D
  8
15
 66
     1
 10
0.0
 20
0.0
 30
0.0
  0
VERTEX
  5
2FA
  8
15
 10
115.5
 20
574.0
 30
0.0
  0
VERTEX
  5
2FB
  8
15
 10
115.5
 20
580.0
 30
0.0
  0
SEQEND
  5
2FC
  8
15
  0
POLYLINE
  5
141
  8
15
 66
     1
 10
0.0
 20
0.0
 30
0.0
  0
VERTEX
  5
2FD
  8
15
 10
45.499999999999993
 20
574.0
 30
0.0
  0
VERTEX
  5
2FE
  8
15
 10
45.499999999999993
 20
580.0
 30
0.0
  0
SEQEND
  5
2FF
  8
15
  0
POLYLINE
  5
145
  8
15
 66
     1
 10
0.0
 20
0.0
 30
0.0
  0
VERTEX
  5
300
  8
15
 10
45.499999999999993
 20
-6.0
 30
0.0
  0
VERTEX
  5
301
  8
15
 10
45.499999999999993
 20
0.0
 30
0.0
  0
SEQEND
  5
302
  8
15
  0
POLYLINE
  5
149
  8
15
 66
     1
 10
0.0
 20
0.0
 30
0.0
  0
VERTEX
  5
303
  8
15
 10
115.5
 20
-6.0
 30
0.0
  0
VERTEX
  5
304
  8
15
 10
115.5
 20
0.0
 30
0.0
  0
SEQEND
  5
305
  8
15
  0
POLYLINE
  5
14D
  8
15
 66
     1
 10
0.0
 20
0.0
 30
0.0
  0
VERTEX
  5
306
  8
15
 10
185.5
 20
-6.0
 30
0.0
  0
VERTEX
  5
307
  8
15
 10
185.5
 20
0.0
 30
0.0
  0
SEQEND
  5
308
  8
15
  0
POLYLINE
  5
151
  8
15
 66
     1
 10
0.0
 20
0.0
 30
0.0
  0
VERTEX
  5
309
  8
15
 10
255.5
 20
-6.0
 30
0.0
  0
VERTEX
  5
30A
  8
15
 10
255.5
 20
0.0
 30
0.0
  0
SEQEND
  5
30B
  8
15
  0
POLYLINE
  5
155
  8
15
 66
     1
 10
0.0
 20
0.0
 30
0.0
  0
VERTEX
  5
30C
  8
15
 10
325.49999999999989
 20
-6.0
 30
0.0
  0
VERTEX
  5
30D
  8
15
 10
325.49999999999989
 20
0.0
 30
0.0
  0
SEQEND
  5
30E
  8
15
  0
POLYLINE
  5
159
  8
15
 66
     1
 10
0.0
 20
0.0
 30
0.0
  0
VERTEX
  5
30F
  8
15
 10
745.5
 20
-6.0
 30
0.0
  0
VERTEX
  5
310
  8
15
 10
745.5
 20
0.0
 30
0.0
  0
SEQEND
  5
311
  8
15
  0
POLYLINE
  5
15D
  8
15
 66
     1
 10
0.0
 20
0.0
 30
0.0
  0
VERTEX
  5
312
  8
15
 10
675.49999999999989
 20
-6.0
 30
0.0
  0
VERTEX
  5
313
  8
15
 10
675.49999999999989
 20
0.0
 30
0.0
  0
SEQEND
  5
314
  8
15
  0
POLYLINE
  5
161
  8
15
 66
     1
 10
0.0
 20
0.0
 30
0.0
  0
VERTEX
  5
315
  8
15
 10
605.49999999999989
 20
-6.0
 30
0.0
  0
VERTEX
  5
316
  8
15
 10
605.49999999999989
 20
0.0
 30
0.0
  0
SEQEND
  5
317
  8
15
  0
POLYLINE
  5
165
  8
15
 66
     1
 10
0.0
 20
0.0
 30
0.0
  0
VERTEX
  5
318
  8
15
 10
535.5
 20
-6.0
 30
0.0
  0
VERTEX
  5
319
  8
15
 10
535.5
 20
0.0
 30
0.0
  0
SEQEND
  5
31A
  8
15
  0
POLYLINE
  5
169
  8
15
 66
     1
 10
0.0
 20
0.0
 30
0.0
  0
VERTEX
  5
31B
  8
15
 10
465.5
 20
-6.0
 30
0.0
  0
VERTEX
  5
31C
  8
15
 10
465.5
 20
0.0
 30
0.0
  0
SEQEND
  5
31D
  8
15
  0
TEXT
  5
16D
  8
11
 10
807.97365617352796
 20
547.17858177714515
 30
0.0
 40
3.5
  1
A
 41
0.7
  7
ROMANS
  0
TEXT
  5
16E
  8
11
 10
807.97365617352796
 20
473.17858177714533
 30
0.0
 40
3.5
  1
B
 41
0.7
  7
ROMANS
  0
TEXT
  5
16F
  8
11
 10
807.97365617352796
 20
399.17858177714533
 30
0.0
 40
3.5
  1
C
 41
0.7
  7
ROMANS
  0
TEXT
  5
170
  8
11
 10
807.97365617352796
 20
325.17858177714533
 30
0.0
 40
3.5
  1
D
 41
0.7
  7
ROMANS
  0
TEXT
  5
171
  8
11
 10
807.97365617352796
 20
251.1785817771453
 30
0.0
 40
3.5
  1
E
 41
0.7
  7
ROMANS
  0
TEXT
  5
172
  8
11
 10
807.97365617352796
 20
177.1785817771453
 30
0.0
 40
3.5
  1
F
 41
0.7
  7
ROMANS
  0
TEXT
  5
173
  8
11
 10
807.97365617352796
 20
103.1785817771453
 30
0.0
 40
3.5
  1
G
 41
0.7
  7
ROMANS
  0
TEXT
  5
174
  8
11
 10
807.97365617352796
 20
24.725527036173212
 30
0.0
 40
3.5
  1
H
 41
0.7
  7
ROMANS
  0
TEXT
  5
175
  8
11
 10
-4.6021014022294358
 20
547.17858177714515
 30
0.0
 40
3.5
  1
A
 41
0.7
  7
ROMANS
  0
TEXT
  5
176
  8
11
 10
-4.6021014022294358
 20
473.17858177714533
 30
0.0
 40
3.5
  1
B
 41
0.7
  7
ROMANS
  0
TEXT
  5
177
  8
11
 10
-4.6021014022294358
 20
177.1785817771453
 30
0.0
 40
3.5
  1
F
 41
0.7
  7
ROMANS
  0
TEXT
  5
178
  8
11
 10
-4.6021014022294358
 20
251.1785817771453
 30
0.0
 40
3.5
  1
E
 41
0.7
  7
ROMANS
  0
TEXT
  5
179
  8
11
 10
-4.6021014022294358
 20
325.17858177714533
 30
0.0
 40
3.5
  1
D
 41
0.7
  7
ROMANS
  0
TEXT
  5
17A
  8
11
 10
-4.6021014022294358
 20
399.17858177714533
 30
0.0
 40
3.5
  1
C
 41
0.7
  7
ROMANS
  0
TEXT
  5
17B
  8
11
 10
-4.6021014022294358
 20
24.725527036173212
 30
0.0
 40
3.5
  1
H
 41
0.7
  7
ROMANS
  0
TEXT
  5
17C
  8
11
 10
10.326483106102209
 20
576.0
 30
0.0
 40
3.5
  1
1
 41
0.7
  7
ROMANS
  0
TEXT
  5
17D
  8
11
 10
80.326483106102216
 20
576.0
 30
0.0
 40
3.5
  1
2
 41
0.7
  7
ROMANS
  0
TEXT
  5
17E
  8
11
 10
150.32648310610219
 20
576.0
 30
0.0
 40
3.5
  1
3
 41
0.7
  7
ROMANS
  0
TEXT
  5
17F
  8
11
 10
220.32648310610219
 20
576.0
 30
0.0
 40
3.5
  1
4
 41
0.7
  7
ROMANS
  0
TEXT
  5
180
  8
11
 10
290.32648310610222
 20
576.0
 30
0.0
 40
3.5
  1
5
 41
0.7
  7
ROMANS
  0
TEXT
  5
181
  8
11
 10
360.32648310610222
 20
576.0
 30
0.0
 40
3.5
  1
6
 41
0.7
  7
ROMANS
  0
TEXT
  5
182
  8
11
 10
430.32648310610222
 20
576.0
 30
0.0
 40
3.5
  1
7
 41
0.7
  7
ROMANS
  0
TEXT
  5
183
  8
11
 10
500.32648310610222
 20
576.0
 30
0.0
 40
3.5
  1
8
 41
0.7
  7
ROMANS
  0
TEXT
  5
184
  8
11
 10
570.32648310610205
 20
576.0
 30
0.0
 40
3.5
  1
9
 41
0.7
  7
ROMANS
  0
TEXT
  5
185
  8
11
 10
640.32648310610205
 20
576.0
 30
0.0
 40
3.5
  1
10
 41
0.7
  7
ROMANS
  0
TEXT
  5
186
  8
11
 10
710.32648310610216
 20
576.0
 30
0.0
 40
3.5
  1
11
 41
0.7
  7
ROMANS
  0
TEXT
  5
187
  8
11
 10
769.98169665895352
 20
576.0
 30
0.0
 40
3.5
  1
12
 41
0.7
  7
ROMANS
  0
TEXT
  5
188
  8
11
 10
769.98169665895352
 20
-5.5
 30
0.0
 40
3.5
  1
12
 41
0.7
  7
ROMANS
  0
TEXT
  5
189
  8
11
 10
710.32648310610216
 20
-5.5
 30
0.0
 40
3.5
  1
11
 41
0.7
  7
ROMANS
  0
TEXT
  5
18A
  8
11
 10
640.32648310610205
 20
-5.5
 30
0.0
 40
3.5
  1
10
 41
0.7
  7
ROMANS
  0
TEXT
  5
18B
  8
11
 10
570.32648310610205
 20
-5.5
 30
0.0
 40
3.5
  1
9
 41
0.7
  7
ROMANS
  0
TEXT
  5
18C
  8
11
 10
500.32648310610222
 20
-5.5
 30
0.0
 40
3.5
  1
8
 41
0.7
  7
ROMANS
  0
TEXT
  5
18D
  8
11
 10
430.32648310610222
 20
-5.5
 30
0.0
 40
3.5
  1
7
 41
0.7
  7
ROMANS
  0
TEXT
  5
18E
  8
11
 10
360.32648310610222
 20
-5.5
 30
0.0
 40
3.5
  1
6
 41
0.7
  7
ROMANS
  0
TEXT
  5
18F
  8
11
 10
290.32648310610222
 20
-5.5
 30
0.0
 40
3.5
  1
5
 41
0.7
  7
ROMANS
  0
TEXT
  5
190
  8
11
 10
220.32648310610219
 20
-5.5
 30
0.0
 40
3.5
  1
4
 41
0.7
  7
ROMANS
  0
TEXT
  5
191
  8
11
 10
150.32648310610219
 20
-5.5
 30
0.0
 40
3.5
  1
3
 41
0.7
  7
ROMANS
  0
TEXT
  5
192
  8
11
 10
80.326483106102216
 20
-5.5
 30
0.0
 40
3.5
  1
2
 41
0.7
  7
ROMANS
  0
TEXT
  5
193
  8
11
 10
10.326483106102209
 20
-5.5
 30
0.0
 40
3.5
  1
1
 41
0.7
  7
ROMANS
  0
CIRCLE
  5
194
  8
09
 10
-2.7300704794498469
 20
131.5579372636829
 30
0.0
 40
1.129850332034507
  0
TEXT
  5
195
  8
09
 10
-2.1679971545446408
 20
108.81402649383681
 30
0.0
 40
1.8
  1
is strictly forbidden.  c ABB Control
 50
90.0
 41
0.7
  7
ROMANS
  0
TEXT
  5
196
  8
09
 10
-5.0822828688303519
 20
108.81402649383681
 30
0.0
 40
1.8
  1
disclosure to third parties without express authority
 50
90.0
 41
0.7
  7
ROMANS
  0
TEXT
  5
197
  8
09
 10
-7.9965685831160629
 20
108.81402649383681
 30
0.0
 40
1.8
  1
information contained therein. Reproduction, use or
 50
90.0
 41
0.7
  7
ROMANS
  0
TEXT
  5
198
  8
09
 10
-10.910854297401769
 20
108.81402649383681
 30
0.0
 40
1.8
  1
We reserve all rights in this document and in the 
 50
90.0
 41
0.7
  7
ROMANS
  0
POLYLINE
  5
199
  8
15
 66
     1
 10
0.0
 20
0.0
 30
0.0
 70
     1
 40
0.25
 41
0.25
  0
VERTEX
  5
31E
  8
15
 10
-15.125
 20
-6.0
 30
0.0
 42
1.0
  0
VERTEX
  5
31F
  8
15
 10
-14.875
 20
-6.0
 30
0.0
 42
1.0
  0
SEQEND
  5
320
  8
15
  0
POLYLINE
  5
19D
  8
15
 66
     1
 10
0.0
 20
0.0
 30
0.0
 70
     1
 40
0.25
 41
0.25
  0
VERTEX
  5
321
  8
15
 10
811.875
 20
580.0
 30
0.0
 42
1.0
  0
VERTEX
  5
322
  8
15
 10
812.12499999999989
 20
580.0
 30
0.0
 42
1.0
  0
SEQEND
  5
323
  8
15
  0
INSERT
  5
1A1
  8
02
  2
ABBS6
 10
554.51583784521597
 20
2.0413260958862902
 30
0.0
 41
7.5
 42
7.5
 43
7.5
  0
ENDBLK
  5
1A2
  8
0
  0
BLOCK
  8
0
  2
ABBS6
 70
     0
 10
0.0
 20
0.0
 30
0.0
  3
ABBS6
  1

  0
LINE
  5
1A4
  8
0
 10
1.464514291267363
 20
0.994296481590851
 30
0.0
 11
1.415136022229148
 21
0.994296481590851
 31
0.0
  0
LINE
  5
1A5
  8
0
 10
0.3202927767734991
 20
0.1943721627066281
 30
0.0
 11
0.2504062141669578
 21
-0.0048552008318268
 31
0.0
  0
LINE
  5
1A6
  8
0
 10
0.0
 20
0.003568034422301
 30
0.0
 11
0.0
 21
-0.0061137569405787
 31
0.0
  0
LINE
  5
1A7
  8
0
 10
0.7495657522430294
 20
-0.0061137569405787
 30
0.0
 11
1.0003369618247291
 21
-0.0061137569405787
 31
0.0
  0
LINE
  5
1A8
  8
0
 10
1.0698765565045389
 20
-0.0061137569405787
 30
0.0
 11
1.3256286060050111
 21
-0.0061137569405787
 31
0.0
  0
LINE
  5
1A9
  8
0
 10
1.416102504671414
 20
0.4498522188094114
 30
0.0
 11
1.7302364202082281
 21
0.4498522188094114
 31
0.0
  0
ARC
  5
1AA
  8
0
 10
1.472715251712486
 20
0.2949012854932675
 30
0.0
 40
0.3005444126230841
 50
54.789554089554208
 51
68.052793173282026
  0
LINE
  5
1AB
  8
0
 10
1.0695193325592811
 20
0.4498522188094114
 30
0.0
 11
1.325169408972612
 21
0.4498522188094114
 31
0.0
  0
LINE
  5
1AC
  8
0
 10
1.0695193325592811
 20
0.54045802992718
 30
0.0
 11
1.3250601854495581
 21
0.54045802992718
 31
0.0
  0
LINE
  5
1AD
  8
0
 10
1.416102504671414
 20
0.4498522188094114
 30
0.0
 11
1.416102504671414
 21
-0.0059843926131578
 31
0.0
  0
LINE
  5
1AE
  8
0
 10
1.325169408972612
 20
0.4498522188094114
 30
0.0
 11
1.325169408972612
 21
-0.0059843926131578
 31
0.0
  0
LINE
  5
1AF
  8
0
 10
1.4161388888024069
 20
0.9942707061973123
 30
0.0
 11
1.4161388888024069
 21
0.943067171377237
 31
0.0
  0
LINE
  5
1B0
  8
0
 10
1.3250601854495581
 20
0.9942497998554529
 30
0.0
 11
1.3250601854495581
 21
0.54045802992718
 31
0.0
  0
LINE
  5
1B1
  8
0
 10
1.4161388888024069
 20
0.54045802992718
 30
0.0
 11
1.646003535280584
 21
0.54045802992718
 31
0.0
  0
LINE
  5
1B2
  8
0
 10
1.4161388888024069
 20
0.943067171377237
 30
0.0
 11
1.4161388888024069
 21
0.54045802992718
 31
0.0
  0
LINE
  5
1B3
  8
0
 10
0.5448696393942784
 20
0.4500904685621379
 30
0.0
 11
0.5448696393942784
 21
0.195257407028464
 31
0.0
  0
LINE
  5
1B4
  8
0
 10
0.4535526929703622
 20
0.4500904685621379
 30
0.0
 11
0.4535526929703622
 21
0.195019251052571
 31
0.0
  0
LINE
  5
1B5
  8
0
 10
0.5448696393942784
 20
0.4500904685621379
 30
0.0
 11
0.8407387596055002
 21
0.4500904685621379
 31
0.0
  0
LINE
  5
1B6
  8
0
 10
0.5448696393942784
 20
0.54045802992718
 30
0.0
 11
0.8091101131277299
 21
0.54045802992718
 31
0.0
  0
LINE
  5
1B7
  8
0
 10
0.5448696393942784
 20
0.943067171377237
 30
0.0
 11
0.5448696393942784
 21
0.54045802992718
 31
0.0
  0
LINE
  5
1B8
  8
0
 10
0.5448696393942784
 20
0.9942707061973123
 30
0.0
 11
0.5448696393942784
 21
0.943067171377237
 31
0.0
  0
LINE
  5
1B9
  8
0
 10
0.4535526929703622
 20
0.9942497998554529
 30
0.0
 11
0.4535526929703622
 21
0.54045802992718
 31
0.0
  0
LINE
  5
1BA
  8
0
 10
0.1665030902303783
 20
0.4500904685621379
 30
0.0
 11
0.4535526929703622
 21
0.4500904685621379
 31
0.0
  0
LINE
  5
1BB
  8
0
 10
0.1895861756831891
 20
0.54045802992718
 30
0.0
 11
0.4535526929703622
 21
0.54045802992718
 31
0.0
  0
ARC
  5
1BC
  8
0
 10
1.472715251712486
 20
0.2949012854932675
 30
0.0
 40
0.3005444126230841
 50
267.09691870851123
 51
31.001762798321259
  0
ARC
  5
1BD
  8
0
 10
1.4725961770640761
 20
0.7676408976691677
 30
0.0
 40
0.2244557122799182
 50
300.31696906619862
 51
92.196755116877156
  0
LINE
  5
1BE
  8
0
 10
1.0695284921476109
 20
0.994127230756959
 30
0.0
 11
1.0695284921476109
 21
0.5415185517101975
 31
0.0
  0
LINE
  5
1BF
  8
0
 10
0.6796429015687125
 20
0.1939525341391004
 30
0.0
 11
0.7497329468219789
 21
-0.0063047380130854
 31
0.0
  0
LINE
  5
1C0
  8
0
 10
0.3224541479331719
 20
0.1947566976242569
 30
0.0
 11
0.4545976592919488
 21
0.1947566976242569
 31
0.0
  0
LINE
  5
1C1
  8
0
 10
0.6502666550454422
 20
0.994296481590851
 30
0.0
 11
0.8091101131277299
 21
0.54045802992718
 31
0.0
  0
LINE
  5
1C2
  8
0
 10
0.3487696452349667
 20
0.9942463087449198
 30
0.0
 11
0.1895861756831891
 21
0.54045802992718
 31
0.0
  0
LINE
  5
1C3
  8
0
 10
0.0
 20
-0.0061137569405787
 30
0.0
 11
0.2508811246418077
 21
-0.0061137569405787
 31
0.0
  0
LINE
  5
1C4
  8
0
 10
0.1576875210619448
 20
0.4495237412228335
 30
0.0
 11
-0.0020242690231953
 21
-0.0057706340896573
 31
0.0
  0
LINE
  5
1C5
  8
0
 10
0.5464854219518145
 20
0.9942773962474689
 30
0.0
 11
0.6502666550454422
 21
0.994296481590851
 31
0.0
  0
LINE
  5
1C6
  8
0
 10
0.5464855919050251
 20
0.1947566976242569
 30
0.0
 11
0.6794910630600271
 21
0.1947566976242569
 31
0.0
  0
LINE
  5
1C7
  8
0
 10
0.1665030902303783
 20
0.4500904685621379
 30
0.0
 11
0.1589375237856245
 21
0.4500904685621379
 31
0.0
  0
LINE
  5
1C8
  8
0
 10
0.832085843327036
 20
0.4500904685621379
 30
0.0
 11
0.8405983917585331
 21
0.4500904685621379
 31
0.0
  0
LINE
  5
1C9
  8
0
 10
1.0695284921476109
 20
0.4496280420377446
 30
0.0
 11
1.0695284921476109
 21
-0.0056515561016965
 31
0.0
  0
LINE
  5
1CA
  8
0
 10
0.1665030902303783
 20
0.4500904685621379
 30
0.0
 11
0.1604848594384407
 21
0.4500904685621379
 31
0.0
  0
LINE
  5
1CB
  8
0
 10
0.1665030902303783
 20
0.4500904685621379
 30
0.0
 11
0.1581641174936408
 21
0.4500904685621379
 31
0.0
  0
LINE
  5
1CC
  8
0
 10
0.8407042507200515
 20
0.4501890653777139
 30
0.0
 11
1.0004102385314291
 21
-0.0061137569405787
 31
0.0
  0
LINE
  5
1CD
  8
0
 10
0.4553118142086135
 20
0.994296481590851
 30
0.0
 11
0.3491177095918942
 21
0.994296481590851
 31
0.0
  0
SOLID
  5
1CE
  8
0
 10
0.3491177095918942
 20
0.994296481590851
 30
0.0
 11
0.4535526929703622
 21
0.9942497998554529
 31
0.0
 12
0.1895861756831891
 22
0.54045802992718
 32
0.0
 13
0.4535526929703622
 23
0.54045802992718
 33
0.0
  0
SOLID
  5
1CF
  8
0
 10
0.5464854219518145
 20
0.9942773962474689
 30
0.0
 11
0.6502666550454422
 21
0.994296481590851
 31
0.0
 12
0.5448696393942784
 22
0.54045802992718
 32
0.0
 13
0.8091101131277299
 23
0.54045802992718
 33
0.0
  0
SOLID
  5
1D0
  8
0
 10
0.1576875210619448
 20
0.4495237412228335
 30
0.0
 11
0.4535526929703622
 21
0.4500904685621379
 31
0.0
 12
0.3202927767734991
 22
0.1943721627066281
 32
0.0
 13
0.4535526929703622
 23
0.195019251052571
 33
0.0
  0
SOLID
  5
1D1
  8
0
 10
0.1576875210619448
 20
0.4495237412228335
 30
0.0
 11
0.3202927767734991
 21
0.1943721627066281
 31
0.0
 12
-0.0024614873844939
 22
-0.0044681942322313
 32
0.0
 13
0.2511825338570475
 23
-0.0044681942322313
 33
0.0
  0
SOLID
  5
1D2
  8
0
 10
0.5448696393942784
 20
0.4500904685621379
 30
0.0
 11
0.8405983917585331
 21
0.4500904685621379
 31
0.0
 12
0.5464855919050251
 22
0.1947566976242569
 32
0.0
 13
0.6796429015687125
 23
0.1939525341391004
 33
0.0
  0
SOLID
  5
1D3
  8
0
 10
0.6796429015687125
 20
0.1939525341391004
 30
0.0
 11
0.8407387596055002
 21
0.4500904685621379
 31
0.0
 12
0.7534714919233352
 22
-0.0078010106452382
 32
0.0
 13
0.9987837058035609
 23
-0.0044681942322313
 33
0.0
  0
LINE
  5
1D4
  8
0
 10
1.4163262804236181
 20
-0.0061137569405787
 30
0.0
 11
1.45867529642004
 21
-0.0061137569405787
 31
0.0
  0
LINE
  5
1D5
  8
0
 10
1.3270569158383689
 20
0.994296481590851
 30
0.0
 11
1.0688048846687359
 21
0.994296481590851
 31
0.0
  0
SOLID
  5
1D6
  8
0
 10
1.0695284921476109
 20
0.994127230756959
 30
0.0
 11
1.3250601854495581
 21
0.9942497998554529
 31
0.0
 12
1.0695284921476109
 22
0.5415185517101975
 32
0.0
 13
1.3250601854495581
 23
0.54045802992718
 33
0.0
  0
SOLID
  5
1D7
  8
0
 10
1.0695284921476109
 20
0.4496280420377446
 30
0.0
 11
1.325169408972612
 21
0.4498522188094114
 31
0.0
 12
1.0698765565045389
 22
-0.0061137569405787
 32
0.0
 13
1.325169408972612
 23
-0.0059843926131578
 33
0.0
  0
SOLID
  5
1D8
  8
0
 10
1.4725961770640761
 20
0.7676408976691677
 30
0.0
 11
1.4738157512165051
 21
0.9922819715671948
 31
0.0
 12
1.5171411494952161
 22
0.9862114845292637
 32
0.0
 13
1.5171411494952161
 23
0.9862114845292637
 33
0.0
  0
SOLID
  5
1D9
  8
0
 10
1.4725961770640761
 20
0.7676408976691677
 30
0.0
 11
1.5173792011341041
 21
0.9859734262140592
 31
0.0
 12
1.56141875432948
 22
0.9739514812957565
 32
0.0
 13
1.56141875432948
 23
0.9739514812957565
 33
0.0
  0
SOLID
  5
1DA
  8
0
 10
1.4725961770640761
 20
0.7676408976691677
 30
0.0
 11
1.56141875432948
 21
0.9727611897196766
 31
0.0
 12
1.604506100969302
 22
0.9469318625190226
 32
0.0
 13
1.604506100969302
 23
0.9469318625190226
 33
0.0
  0
SOLID
  5
1DB
  8
0
 10
1.4725961770640761
 20
0.7676408976691677
 30
0.0
 11
1.604506100969302
 21
0.9469318625190226
 31
0.0
 12
1.639737743525614
 22
0.9149130191227926
 32
0.0
 13
1.639737743525614
 23
0.9149130191227926
 33
0.0
  0
SOLID
  5
1DC
  8
0
 10
1.4725961770640761
 20
0.7676408976691677
 30
0.0
 11
1.6402469082339901
 21
0.9140605358317657
 31
0.0
 12
1.6676968280322619
 22
0.8751635324418317
 32
0.0
 13
1.6676968280322619
 23
0.8751635324418317
 33
0.0
  0
SOLID
  5
1DD
  8
0
 10
1.4721471978169509
 20
0.7666682616607546
 30
0.0
 11
1.685729335055498
 21
0.8293432068469144
 31
0.0
 12
1.694349849476338
 22
0.7825226803572605
 32
0.0
 13
1.694349849476338
 23
0.7825226803572605
 33
0.0
  0
SOLID
  5
1DE
  8
0
 10
1.4721471978169509
 20
0.7666682616607546
 30
0.0
 11
1.667055803469764
 21
0.8741676269795846
 31
0.0
 12
1.6856243331236831
 22
0.8303306029457928
 32
0.0
 13
1.6856243331236831
 23
0.8303306029457928
 33
0.0
  0
SOLID
  5
1DF
  8
0
 10
1.4722584627652959
 20
0.7665367378924657
 30
0.0
 11
1.6583804728304581
 21
0.6444544890977682
 31
0.0
 12
1.628301635706435
 22
0.6075527475817637
 32
0.0
 13
1.628301635706435
 23
0.6075527475817637
 33
0.0
  0
SOLID
  5
1E0
  8
0
 10
1.4722584627652959
 20
0.7665367378924657
 30
0.0
 11
1.6804254207130209
 21
0.687720523061671
 31
0.0
 12
1.659064560607163
 22
0.6451742115272339
 32
0.0
 13
1.659064560607163
 23
0.6451742115272339
 33
0.0
  0
SOLID
  5
1E1
  8
0
 10
1.473290235507448
 20
0.7668249186997969
 30
0.0
 11
1.6934429833625579
 21
0.7339882667187681
 31
0.0
 12
1.6815993456727361
 22
0.6878774955701488
 32
0.0
 13
1.6815993456727361
 23
0.6878774955701488
 33
0.0
  0
SOLID
  5
1E2
  8
0
 10
1.473290235507448
 20
0.7668249186997969
 30
0.0
 11
1.6953250233974579
 21
0.7825102962251549
 31
0.0
 12
1.69376244567556
 22
0.7349284370715737
 32
0.0
 13
1.69376244567556
 23
0.7349284370715737
 33
0.0
  0
SOLID
  5
1E3
  8
0
 10
1.4725961770640761
 20
0.7676408976691677
 30
0.0
 11
1.6286683423170409
 21
0.6079368216548176
 31
0.0
 12
1.5852239182188721
 22
0.5737754534216606
 32
0.0
 13
1.5852239182188721
 23
0.5737754534216606
 33
0.0
  0
SOLID
  5
1E4
  8
0
 10
1.4176355644375169
 20
0.992639059040016
 30
0.0
 11
1.472149389744231
 21
0.992639059040016
 31
0.0
 12
1.4176355644375169
 22
0.5423517558134563
 32
0.0
 13
1.471673286466455
 23
0.5423517558134563
 33
0.0
  0
SOLID
  5
1E5
  8
0
 10
1.472149389744231
 20
0.7667217179022999
 30
0.0
 11
1.471673286466455
 21
0.5412804933949929
 31
0.0
 12
1.5852239182188721
 22
0.5737754534216606
 32
0.0
 13
1.5852239182188721
 23
0.5737754534216606
 33
0.0
  0
SOLID
  5
1E6
  8
0
 10
1.4754821126887521
 20
0.5423517558134563
 30
0.0
 11
1.5852239182188721
 21
0.5727041910031973
 31
0.0
 12
1.6430704664701059
 22
0.5423517558134563
 32
0.0
 13
1.6430704664701059
 23
0.5423517558134563
 33
0.0
  0
SOLID
  5
1E7
  8
0
 10
1.472715251712486
 20
0.2949012854932675
 30
0.0
 11
1.729840288846958
 21
0.44819969214646
 31
0.0
 12
1.756144994944747
 22
0.390470550707164
 32
0.0
 13
1.756144994944747
 23
0.390470550707164
 33
0.0
  0
SOLID
  5
1E8
  8
0
 10
1.472715251712486
 20
0.2949012854932675
 30
0.0
 11
1.7561384336843839
 21
0.3912599183434224
 31
0.0
 12
1.7698372259253281
 22
0.3293169249918719
 32
0.0
 13
1.7698372259253281
 23
0.3293169249918719
 33
0.0
  0
SOLID
  5
1E9
  8
0
 10
1.473258723563645
 20
0.2946587633512081
 30
0.0
 11
1.7713480360043541
 21
0.2671551633607976
 31
0.0
 12
1.7586152701373969
 22
0.2050064062727586
 32
0.0
 13
1.7586152701373969
 23
0.2050064062727586
 33
0.0
  0
SOLID
  5
1EA
  8
0
 10
1.473258723563645
 20
0.2946587633512081
 30
0.0
 11
1.770536202828253
 21
0.3298693658154548
 31
0.0
 12
1.7710323511041111
 22
0.2664316390978456
 32
0.0
 13
1.7710323511041111
 23
0.2664316390978456
 33
0.0
  0
SOLID
  5
1EB
  8
0
 10
1.473430364726368
 20
0.2941036940071626
 30
0.0
 11
1.734376950687988
 21
0.1474048000822563
 31
0.0
 12
1.697401761701854
 22
0.0958545650328517
 32
0.0
 13
1.697401761701854
 23
0.0958545650328517
 33
0.0
  0
SOLID
  5
1EC
  8
0
 10
1.473430364726368
 20
0.2941036940071626
 30
0.0
 11
1.75921613013395
 21
0.2049959923522806
 31
0.0
 12
1.7337936030614849
 22
0.1468729637709885
 32
0.0
 13
1.7337936030614849
 23
0.1468729637709885
 33
0.0
  0
SOLID
  5
1ED
  8
0
 10
1.472715251712486
 20
0.2949012854932675
 30
0.0
 11
1.695203775387909
 21
0.0963495022607219
 31
0.0
 12
1.650569093095271
 22
0.0556415303591962
 32
0.0
 13
1.650569093095271
 23
0.0556415303591962
 33
0.0
  0
SOLID
  5
1EE
  8
0
 10
1.472715251712486
 20
0.2949012854932675
 30
0.0
 11
1.6499540400292569
 21
0.0550880963061786
 31
0.0
 12
1.597945042615009
 22
0.0243560604532718
 32
0.0
 13
1.597945042615009
 23
0.0243560604532718
 33
0.0
  0
SOLID
  5
1EF
  8
0
 10
1.472715251712486
 20
0.2949012854932675
 30
0.0
 11
1.597760944634359
 21
0.024184591376013
 31
0.0
 12
1.540609186637254
 22
0.0046124070947542
 32
0.0
 13
1.540609186637254
 23
0.0046124070947542
 33
0.0
  0
SOLID
  5
1F0
  8
0
 10
1.472715251712486
 20
0.2949012854932675
 30
0.0
 11
1.4735776995776171
 21
-0.0042301359170267
 31
0.0
 12
1.539518003551251
 22
0.0045780217458855
 32
0.0
 13
1.539518003551251
 23
0.0045780217458855
 33
0.0
  0
SOLID
  5
1F1
  8
0
 10
1.417516538618087
 20
0.4487948379345142
 30
0.0
 11
1.4735776995776171
 21
0.4487948379345142
 31
0.0
 12
1.417516538618087
 22
-0.0042301359170267
 32
0.0
 13
1.4735776995776171
 23
-0.003754019286589
 33
0.0
  0
SOLID
  5
1F2
  8
0
 10
1.474053802855394
 20
0.4487948379345142
 30
0.0
 11
1.7292451597497229
 21
0.44819969214646
 31
0.0
 12
1.474053802855394
 22
0.2959613995673464
 32
0.0
 13
1.474053802855394
 23
0.2959613995673464
 33
0.0
  0
SOLID
  5
1F3
  8
0
 10
2.2416513124690312
 20
0.4487948379345142
 30
0.0
 11
2.4968426693633599
 21
0.44819969214646
 31
0.0
 12
2.2416513124690312
 22
0.2959613995673464
 32
0.0
 13
2.2416513124690312
 23
0.2959613995673464
 33
0.0
  0
SOLID
  5
1F4
  8
0
 10
2.185114048231696
 20
0.4487948379345142
 30
0.0
 11
2.2411752091912258
 21
0.4487948379345142
 31
0.0
 12
2.185114048231696
 22
-0.0042301359170267
 32
0.0
 13
2.2411752091912258
 23
-0.003754019286589
 33
0.0
  0
SOLID
  5
1F5
  8
0
 10
2.2403127613261229
 20
0.2949012854932675
 30
0.0
 11
2.2411752091912258
 21
-0.0042301359170267
 31
0.0
 12
2.3071155131648591
 22
0.0045780217458855
 32
0.0
 13
2.3071155131648591
 23
0.0045780217458855
 33
0.0
  0
SOLID
  5
1F6
  8
0
 10
2.2403127613261229
 20
0.2949012854932675
 30
0.0
 11
2.3653584542479669
 21
0.024184591376013
 31
0.0
 12
2.3082066962508629
 22
0.0046124070947542
 32
0.0
 13
2.3082066962508629
 23
0.0046124070947542
 33
0.0
  0
SOLID
  5
1F7
  8
0
 10
2.2403127613261229
 20
0.2949012854932675
 30
0.0
 11
2.4175515496428939
 21
0.0550880963061786
 31
0.0
 12
2.365542552228646
 22
0.0243560604532718
 32
0.0
 13
2.365542552228646
 23
0.0243560604532718
 33
0.0
  0
SOLID
  5
1F8
  8
0
 10
2.2403127613261229
 20
0.2949012854932675
 30
0.0
 11
2.4628012850015182
 21
0.0963495022607219
 31
0.0
 12
2.418166602708907
 22
0.0556415303591962
 32
0.0
 13
2.418166602708907
 23
0.0556415303591962
 33
0.0
  0
SOLID
  5
1F9
  8
0
 10
2.2410278743399772
 20
0.2941036940071626
 30
0.0
 11
2.5268136397475578
 21
0.2049959923522806
 31
0.0
 12
2.5013911126750941
 22
0.1468729637709885
 32
0.0
 13
2.5013911126750941
 23
0.1468729637709885
 33
0.0
  0
SOLID
  5
1FA
  8
0
 10
2.2410278743399772
 20
0.2941036940071626
 30
0.0
 11
2.5019744603015961
 21
0.1474048000822563
 31
0.0
 12
2.4649992713154631
 22
0.0958545650328517
 32
0.0
 13
2.4649992713154631
 23
0.0958545650328517
 33
0.0
  0
SOLID
  5
1FB
  8
0
 10
2.2408562331772539
 20
0.2946587633512081
 30
0.0
 11
2.5381337124418621
 21
0.3298693658154548
 31
0.0
 12
2.5386298607177471
 22
0.2664316390978456
 32
0.0
 13
2.5386298607177471
 23
0.2664316390978456
 33
0.0
  0
SOLID
  5
1FC
  8
0
 10
2.2408562331772539
 20
0.2946587633512081
 30
0.0
 11
2.5389455456179908
 21
0.2671551633607976
 31
0.0
 12
2.5262127797510341
 22
0.2050064062727586
 32
0.0
 13
2.5262127797510341
 23
0.2050064062727586
 33
0.0
  0
SOLID
  5
1FD
  8
0
 10
2.2403127613261229
 20
0.2949012854932675
 30
0.0
 11
2.523735943297992
 21
0.3912599183434224
 31
0.0
 12
2.5374347355389371
 22
0.3293169249918719
 32
0.0
 13
2.5374347355389371
 23
0.3293169249918719
 33
0.0
  0
SOLID
  5
1FE
  8
0
 10
2.2403127613261229
 20
0.2949012854932675
 30
0.0
 11
2.4974377984605951
 21
0.44819969214646
 31
0.0
 12
2.5237425045583839
 22
0.390470550707164
 32
0.0
 13
2.5237425045583839
 23
0.390470550707164
 33
0.0
  0
SOLID
  5
1FF
  8
0
 10
2.2430796223023881
 20
0.5423517558134563
 30
0.0
 11
2.352821427832509
 21
0.5727041910031973
 31
0.0
 12
2.4106679760837428
 22
0.5423517558134563
 32
0.0
 13
2.4106679760837428
 23
0.5423517558134563
 33
0.0
  0
SOLID
  5
200
  8
0
 10
2.239746899357868
 20
0.7667217179022999
 30
0.0
 11
2.2392707960800631
 21
0.5412804933949929
 31
0.0
 12
2.352821427832509
 22
0.5737754534216606
 32
0.0
 13
2.352821427832509
 23
0.5737754534216606
 33
0.0
  0
SOLID
  5
201
  8
0
 10
2.1852330740511539
 20
0.992639059040016
 30
0.0
 11
2.239746899357868
 21
0.992639059040016
 31
0.0
 12
2.1852330740511539
 22
0.5423517558134563
 32
0.0
 13
2.2392707960800631
 23
0.5423517558134563
 33
0.0
  0
SOLID
  5
202
  8
0
 10
2.240193686677685
 20
0.7676408976691677
 30
0.0
 11
2.3962658519306501
 21
0.6079368216548176
 31
0.0
 12
2.352821427832509
 22
0.5737754534216606
 32
0.0
 13
2.352821427832509
 23
0.5737754534216606
 33
0.0
  0
SOLID
  5
203
  8
0
 10
2.2408877451210851
 20
0.7668249186997969
 30
0.0
 11
2.4629225330110951
 21
0.7825102962251549
 31
0.0
 12
2.4613599552891681
 22
0.7349284370715737
 32
0.0
 13
2.4613599552891681
 23
0.7349284370715737
 33
0.0
  0
SOLID
  5
204
  8
0
 10
2.2408877451210851
 20
0.7668249186997969
 30
0.0
 11
2.4610404929761671
 21
0.7339882667187681
 31
0.0
 12
2.449196855286373
 22
0.6878774955701488
 32
0.0
 13
2.449196855286373
 23
0.6878774955701488
 33
0.0
  0
SOLID
  5
205
  8
0
 10
2.239855972378904
 20
0.7665367378924657
 30
0.0
 11
2.4480229303266579
 21
0.687720523061671
 31
0.0
 12
2.4266620702207709
 22
0.6451742115272339
 32
0.0
 13
2.4266620702207709
 23
0.6451742115272339
 33
0.0
  0
SOLID
  5
206
  8
0
 10
2.239855972378904
 20
0.7665367378924657
 30
0.0
 11
2.425977982444067
 21
0.6444544890977682
 31
0.0
 12
2.3958991453200431
 22
0.6075527475817637
 32
0.0
 13
2.3958991453200431
 23
0.6075527475817637
 33
0.0
  0
SOLID
  5
207
  8
0
 10
2.2397447074305878
 20
0.7666682616607546
 30
0.0
 11
2.434653313083373
 21
0.8741676269795846
 31
0.0
 12
2.45322184273732
 22
0.8303306029457928
 32
0.0
 13
2.45322184273732
 23
0.8303306029457928
 33
0.0
  0
SOLID
  5
208
  8
0
 10
2.2397447074305878
 20
0.7666682616607546
 30
0.0
 11
2.4533268446691059
 21
0.8293432068469144
 31
0.0
 12
2.461947359089947
 22
0.7825226803572605
 32
0.0
 13
2.461947359089947
 23
0.7825226803572605
 33
0.0
  0
SOLID
  5
209
  8
0
 10
2.240193686677685
 20
0.7676408976691677
 30
0.0
 11
2.4078444178475991
 21
0.9140605358317657
 31
0.0
 12
2.4352943376458711
 22
0.8751635324418317
 32
0.0
 13
2.4352943376458711
 23
0.8751635324418317
 33
0.0
  0
SOLID
  5
20A
  8
0
 10
2.240193686677685
 20
0.7676408976691677
 30
0.0
 11
2.372103610582911
 21
0.9469318625190226
 31
0.0
 12
2.4073352531392231
 22
0.9149130191227926
 32
0.0
 13
2.4073352531392231
 23
0.9149130191227926
 33
0.0
  0
SOLID
  5
20B
  8
0
 10
2.240193686677685
 20
0.7676408976691677
 30
0.0
 11
2.3290162639431169
 21
0.9727611897196766
 31
0.0
 12
2.372103610582911
 22
0.9469318625190226
 32
0.0
 13
2.372103610582911
 23
0.9469318625190226
 33
0.0
  0
SOLID
  5
20C
  8
0
 10
2.240193686677685
 20
0.7676408976691677
 30
0.0
 11
2.284976710747713
 21
0.9859734262140592
 31
0.0
 12
2.3290162639431169
 22
0.9739514812957565
 32
0.0
 13
2.3290162639431169
 23
0.9739514812957565
 33
0.0
  0
SOLID
  5
20D
  8
0
 10
2.240193686677685
 20
0.7676408976691677
 30
0.0
 11
2.2414132608301141
 21
0.9922819715671948
 31
0.0
 12
2.2847386591088248
 22
0.9862114845292637
 32
0.0
 13
2.2847386591088248
 23
0.9862114845292637
 33
0.0
  0
SOLID
  5
20E
  8
0
 10
1.8371260017612481
 20
0.4496280420377446
 30
0.0
 11
2.092766918586221
 21
0.4498522188094114
 31
0.0
 12
1.8374740661181761
 22
-0.0061137569405787
 32
0.0
 13
2.092766918586221
 23
-0.0059843926131578
 33
0.0
  0
SOLID
  5
20F
  8
0
 10
1.8371260017612481
 20
0.994127230756959
 30
0.0
 11
2.092657695063167
 21
0.9942497998554529
 31
0.0
 12
1.8371260017612481
 22
0.5415185517101975
 32
0.0
 13
2.092657695063167
 23
0.54045802992718
 33
0.0
  0
LINE
  5
210
  8
0
 10
2.094654425451977
 20
0.994296481590851
 30
0.0
 11
1.8364023942823451
 21
0.994296481590851
 31
0.0
  0
LINE
  5
211
  8
0
 10
2.1839237900372259
 20
-0.0061137569405787
 30
0.0
 11
2.2262728060336761
 21
-0.0061137569405787
 31
0.0
  0
LINE
  5
212
  8
0
 10
1.8371260017612481
 20
0.4496280420377446
 30
0.0
 11
1.8371260017612481
 21
-0.0056515561016965
 31
0.0
  0
LINE
  5
213
  8
0
 10
1.8371260017612481
 20
0.994127230756959
 30
0.0
 11
1.8371260017612481
 21
0.5415185517101975
 31
0.0
  0
ARC
  5
214
  8
0
 10
2.240193686677685
 20
0.7676408976691677
 30
0.0
 40
0.2244557122799182
 50
300.31696906619862
 51
92.196755116877156
  0
ARC
  5
215
  8
0
 10
2.2403127613261229
 20
0.2949012854932675
 30
0.0
 40
0.3005444126230841
 50
267.09691870851123
 51
31.001762798321259
  0
LINE
  5
216
  8
0
 10
2.1837363984160159
 20
0.943067171377237
 30
0.0
 11
2.1837363984160159
 21
0.54045802992718
 31
0.0
  0
LINE
  5
217
  8
0
 10
2.1837363984160159
 20
0.54045802992718
 30
0.0
 11
2.4136010448942211
 21
0.54045802992718
 31
0.0
  0
LINE
  5
218
  8
0
 10
2.092657695063167
 20
0.9942497998554529
 30
0.0
 11
2.092657695063167
 21
0.54045802992718
 31
0.0
  0
LINE
  5
219
  8
0
 10
2.1837363984160159
 20
0.9942707061973123
 30
0.0
 11
2.1837363984160159
 21
0.943067171377237
 31
0.0
  0
LINE
  5
21A
  8
0
 10
2.092766918586221
 20
0.4498522188094114
 30
0.0
 11
2.092766918586221
 21
-0.0059843926131578
 31
0.0
  0
LINE
  5
21B
  8
0
 10
2.1837000142850509
 20
0.4498522188094114
 30
0.0
 11
2.1837000142850509
 21
-0.0059843926131578
 31
0.0
  0
LINE
  5
21C
  8
0
 10
1.837116842172889
 20
0.54045802992718
 30
0.0
 11
2.092657695063167
 21
0.54045802992718
 31
0.0
  0
LINE
  5
21D
  8
0
 10
1.837116842172889
 20
0.4498522188094114
 30
0.0
 11
2.092766918586221
 21
0.4498522188094114
 31
0.0
  0
ARC
  5
21E
  8
0
 10
2.2403127613261229
 20
0.2949012854932675
 30
0.0
 40
0.3005444126230841
 50
54.789554089554208
 51
68.052793173282026
  0
LINE
  5
21F
  8
0
 10
2.1837000142850509
 20
0.4498522188094114
 30
0.0
 11
2.4978339298218648
 21
0.4498522188094114
 31
0.0
  0
LINE
  5
220
  8
0
 10
1.8374740661181761
 20
-0.0061137569405787
 30
0.0
 11
2.09322611561862
 21
-0.0061137569405787
 31
0.0
  0
LINE
  5
221
  8
0
 10
2.2321118008809999
 20
0.994296481590851
 30
0.0
 11
2.1827335318427572
 21
0.994296481590851
 31
0.0
  0
ENDBLK
  5
222
  8
0
  0
BLOCK
  8
0
  2
DIMRING
 70
     0
 10
0.0
 20
0.0
 30
0.0
  3
DIMRING
  1

  0
CIRCLE
  5
224
  8
0
 62
     0
 10
0.0
 20
0.0
 30
0.0
 40
0.5
  0
LINE
  5
225
  8
0
 62
     0
 10
0.0
 20
0.0
 30
0.0
 11
-1.0
 21
0.0
 31
0.0
  0
ENDBLK
  5
226
  8
0
  0
ENDSEC
  0
SECTION
  2
ENTITIES
  0
LINE
  5
227
  8
03
 10
240.25023561239931
 20
462.67798443475232
 30
0.0
 11
218.25023561239931
 21
449.97627851258068
 31
0.0
  0
LINE
  5
228
  8
03
 10
240.25023561239931
 20
472.17798443475237
 30
0.0
 11
240.25023561239931
 21
462.67798443475232
 31
0.0
  0
LINE
  5
229
  8
03
 10
240.25023561239931
 20
532.67798443475249
 30
0.0
 11
240.25023561239931
 21
472.17798443475237
 31
0.0
  0
LINE
  5
22A
  8
03
 10
290.25023561239931
 20
532.67798443475249
 30
0.0
 11
240.25023561239931
 21
532.67798443475249
 31
0.0
  0
CIRCLE
  5
22B
  8
03
 10
265.25023561239931
 20
512.67798443475249
 30
0.0
 40
5.5
  0
CIRCLE
  5
22C
  8
03
 10
265.25023561239931
 20
478.17798443475232
 30
0.0
 40
5.5
  0
LINE
  5
22D
  8
03
 10
290.25023561239931
 20
532.67798443475249
 30
0.0
 11
290.25023561239931
 21
472.17798443475237
 31
0.0
  0
LINE
  5
22E
  8
03
 10
290.25023561239931
 20
472.17798443475237
 30
0.0
 11
290.25023561239931
 21
455.67798443475237
 31
0.0
  0
LINE
  5
22F
  8
03
 10
290.25023561239931
 20
472.17798443475237
 30
0.0
 11
293.75023561239931
 21
472.17798443475237
 31
0.0
  0
LINE
  5
230
  8
03
 10
295.25023561239931
 20
394.67798443475232
 30
0.0
 11
295.25023561239931
 21
470.67798443475232
 31
0.0
  0
LINE
  5
231
  8
03
 10
295.25023561239931
 20
394.67798443475232
 30
0.0
 11
295.25023561239931
 21
326.67798443475232
 31
0.0
  0
LINE
  5
232
  8
03
 10
295.25023561239931
 20
326.67798443475232
 30
0.0
 11
295.25023561239931
 21
250.67798443475229
 31
0.0
  0
ARC
  5
233
  8
03
 10
293.75023561239931
 20
250.67798443475229
 30
0.0
 40
1.5
 50
270.0
 51
0.0
  0
LINE
  5
234
  8
03
 10
293.75023561239931
 20
249.17798443475229
 30
0.0
 11
290.25023561239931
 21
249.17798443475229
 31
0.0
  0
LINE
  5
235
  8
03
 10
240.25023561239931
 20
249.17798443475229
 30
0.0
 11
198.25023561239931
 21
249.17798443475229
 31
0.0
  0
LINE
  5
236
  8
03
 10
148.25023561239931
 20
249.17798443475229
 30
0.0
 11
106.25023561239929
 21
249.17798443475229
 31
0.0
  0
LINE
  5
237
  8
03
 10
51.250235612399479
 20
250.67798443475229
 30
0.0
 11
51.250235612399479
 21
255.67798443475229
 31
0.0
  0
ARC
  5
238
  8
03
 10
52.750235612399472
 20
250.67798443475229
 30
0.0
 40
1.5
 50
180.0
 51
270.0
  0
LINE
  5
239
  8
03
 10
51.250235612399479
 20
255.67798443475229
 30
0.0
 11
51.250235612399479
 21
326.67798443475232
 31
0.0
  0
LINE
  5
23A
  8
03
 10
51.250235612399479
 20
394.67798443475232
 30
0.0
 11
51.250235612399479
 21
326.67798443475232
 31
0.0
  0
LINE
  5
23B
  8
03
 10
51.250235612399479
 20
470.6779844347522
 30
0.0
 11
51.250235612399479
 21
394.67798443475232
 31
0.0
  0
ARC
  5
23C
  8
03
 10
52.750235612399472
 20
470.67798443475232
 30
0.0
 40
1.5
 50
90.0
 51
180.0
  0
LINE
  5
23D
  8
03
 10
52.750235612399472
 20
472.1779844347522
 30
0.0
 11
148.25023561239931
 21
472.17798443475237
 31
0.0
  0
LINE
  5
23E
  8
03
 10
198.25023561239931
 20
472.17798443475237
 30
0.0
 11
240.25023561239931
 21
472.17798443475237
 31
0.0
  0
LINE
  5
23F
  8
03
 10
52.750235612399472
 20
249.17798443475229
 30
0.0
 11
106.25023561239929
 21
249.17798443475229
 31
0.0
  0
LINE
  5
240
  8
03
 10
148.25023561239931
 20
249.17798443475229
 30
0.0
 11
198.25023561239931
 21
249.17798443475229
 31
0.0
  0
LINE
  5
241
  8
03
 10
148.25023561239931
 20
472.17798443475237
 30
0.0
 11
198.25023561239931
 21
472.17798443475237
 31
0.0
  0
LINE
  5
242
  8
03
 10
240.25023561239931
 20
249.17798443475229
 30
0.0
 11
290.25023561239931
 21
249.17798443475229
 31
0.0
  0
ARC
  5
243
  8
03
 10
293.75023561239931
 20
250.67798443475229
 30
0.0
 40
1.5
 50
270.0
 51
0.0
  0
ARC
  5
244
  8
03
 10
293.75023561239931
 20
470.67798443475232
 30
0.0
 40
1.5
 50
0.0
 51
90.0
  0
ARC
  5
245
  8
03
 10
52.750235612399472
 20
470.6779844347522
 30
0.0
 40
1.5
 50
90.000000000000071
 51
180.0
  0
CIRCLE
  5
246
  8
04
 10
283.25023561239931
 20
460.67798443475232
 30
0.0
 40
3.0
  0
CIRCLE
  5
247
  8
01
 10
283.25023561239931
 20
260.67798443475232
 30
0.0
 40
3.0
  0
CIRCLE
  5
248
  8
01
 10
63.250235612399479
 20
260.67798443475232
 30
0.0
 40
3.0
  0
CIRCLE
  5
249
  8
01
 10
63.250235612399479
 20
460.67798443475232
 30
0.0
 40
3.0
  0
CIRCLE
  5
24A
  8
01
 10
559.25023561239925
 20
460.67798443475232
 30
0.0
 40
3.0
  0
CIRCLE
  5
24B
  8
01
 10
559.25023561239925
 20
260.67798443475232
 30
0.0
 40
3.0
  0
CIRCLE
  5
24C
  8
01
 10
339.25023561239931
 20
260.67798443475232
 30
0.0
 40
3.0
  0
CIRCLE
  5
24D
  8
04
 10
339.25023561239931
 20
460.67798443475232
 30
0.0
 40
3.0
  0
ARC
  5
24E
  8
03
 10
569.75023561239925
 20
470.6779844347522
 30
0.0
 40
1.5
 50
0.000000000000007
 51
89.999999999999915
  0
ARC
  5
24F
  8
03
 10
328.75023561239931
 20
470.67798443475232
 30
0.0
 40
1.5
 50
90.0
 51
180.0
  0
ARC
  5
250
  8
03
 10
328.75023561239931
 20
250.67798443475229
 30
0.0
 40
1.5
 50
180.0
 51
270.0
  0
LINE
  5
251
  8
03
 10
382.25023561239942
 20
249.17798443475229
 30
0.0
 11
332.25023561239931
 21
249.17798443475229
 31
0.0
  0
LINE
  5
252
  8
03
 10
474.25023561239931
 20
472.17798443475237
 30
0.0
 11
424.25023561239931
 21
472.17798443475237
 31
0.0
  0
LINE
  5
253
  8
03
 10
474.25023561239931
 20
249.17798443475229
 30
0.0
 11
424.25023561239931
 21
249.17798443475229
 31
0.0
  0
LINE
  5
254
  8
03
 10
569.75023561239925
 20
249.17798443475229
 30
0.0
 11
516.25023561239925
 21
249.17798443475229
 31
0.0
  0
LINE
  5
255
  8
03
 10
424.25023561239931
 20
472.17798443475237
 30
0.0
 11
382.25023561239942
 21
472.17798443475237
 31
0.0
  0
LINE
  5
256
  8
03
 10
569.75023561239925
 20
472.1779844347522
 30
0.0
 11
474.25023561239931
 21
472.17798443475237
 31
0.0
  0
ARC
  5
257
  8
03
 10
569.75023561239925
 20
470.67798443475232
 30
0.0
 40
1.5
 50
0.000000000000007
 51
90.0
  0
LINE
  5
258
  8
03
 10
571.25023561239925
 20
470.6779844347522
 30
0.0
 11
571.25023561239925
 21
394.67798443475232
 31
0.0
  0
LINE
  5
259
  8
03
 10
571.25023561239925
 20
394.67798443475232
 30
0.0
 11
571.25023561239925
 21
326.67798443475232
 31
0.0
  0
LINE
  5
25A
  8
03
 10
571.25023561239925
 20
255.67798443475229
 30
0.0
 11
571.25023561239925
 21
326.67798443475232
 31
0.0
  0
ARC
  5
25B
  8
03
 10
569.75023561239925
 20
250.67798443475229
 30
0.0
 40
1.5
 50
270.0
 51
0.000000000000007
  0
LINE
  5
25C
  8
03
 10
571.25023561239925
 20
250.67798443475229
 30
0.0
 11
571.25023561239925
 21
255.67798443475229
 31
0.0
  0
LINE
  5
25D
  8
03
 10
474.25023561239931
 20
249.17798443475229
 30
0.0
 11
516.25023561239925
 21
249.17798443475229
 31
0.0
  0
LINE
  5
25E
  8
03
 10
382.25023561239942
 20
249.17798443475229
 30
0.0
 11
424.25023561239931
 21
249.17798443475229
 31
0.0
  0
LINE
  5
25F
  8
03
 10
328.75023561239931
 20
249.17798443475229
 30
0.0
 11
332.25023561239931
 21
249.17798443475229
 31
0.0
  0
ARC
  5
260
  8
03
 10
328.75023561239931
 20
250.67798443475229
 30
0.0
 40
1.5
 50
180.0
 51
270.0
  0
LINE
  5
261
  8
03
 10
327.25023561239931
 20
326.67798443475232
 30
0.0
 11
327.25023561239931
 21
250.67798443475229
 31
0.0
  0
LINE
  5
262
  8
03
 10
327.25023561239931
 20
394.67798443475232
 30
0.0
 11
327.25023561239931
 21
326.67798443475232
 31
0.0
  0
LINE
  5
263
  8
03
 10
327.25023561239931
 20
394.67798443475232
 30
0.0
 11
327.25023561239931
 21
470.67798443475232
 31
0.0
  0
LINE
  5
264
  8
03
 10
332.25023561239931
 20
472.17798443475237
 30
0.0
 11
328.75023561239931
 21
472.17798443475237
 31
0.0
  0
LINE
  5
265
  8
03
 10
332.25023561239931
 20
472.17798443475237
 30
0.0
 11
332.25023561239931
 21
455.67798443475237
 31
0.0
  0
LINE
  5
266
  8
03
 10
332.25023561239931
 20
532.67798443475249
 30
0.0
 11
332.25023561239931
 21
472.17798443475237
 31
0.0
  0
CIRCLE
  5
267
  8
03
 10
357.25023561239931
 20
478.17798443475232
 30
0.0
 40
5.5
  0
CIRCLE
  5
268
  8
03
 10
357.25023561239931
 20
512.67798443475249
 30
0.0
 40
5.5
  0
LINE
  5
269
  8
03
 10
332.25023561239931
 20
532.67798443475249
 30
0.0
 11
382.25023561239942
 21
532.67798443475249
 31
0.0
  0
LINE
  5
26A
  8
03
 10
382.25023561239942
 20
532.67798443475249
 30
0.0
 11
382.25023561239942
 21
472.17798443475237
 31
0.0
  0
LINE
  5
26B
  8
03
 10
382.25023561239942
 20
472.17798443475237
 30
0.0
 11
382.25023561239942
 21
462.67798443475232
 31
0.0
  0
LINE
  5
26C
  8
03
 10
382.25023561239942
 20
462.67798443475232
 30
0.0
 11
404.25023561239942
 21
449.97627851258068
 31
0.0
  0
LINE
  5
26D
  8
08
 10
265.25023561239931
 20
512.67798443475249
 30
0.0
 11
265.25023561239931
 21
558.11903934682027
 31
0.0
  0
LINE
  5
26E
  8
08
 10
357.25023561239931
 20
512.67798443475249
 30
0.0
 11
357.25023561239931
 21
558.11903934682027
 31
0.0
  0
INSERT
  5
26F
  8
08
  2
PILHUVUD
 10
265.25023561239931
 20
556.11903934682016
 30
0.0
 50
180.0
  0
INSERT
  5
270
  8
08
  2
PILHUVUD
 10
357.25023561239931
 20
556.11903934682016
 30
0.0
  0
LINE
  5
271
  8
08
 10
265.25023561239931
 20
556.11903934682016
 30
0.0
 11
357.25023561239931
 21
556.11903934682016
 31
0.0
  0
TEXT
  5
272
  8
12
 10
308.77523561239929
 20
557.3190393468202
 30
0.0
 40
4.5
  1
F1
 41
0.7
  7
ROMANS
 72
     1
 11
311.25023561239931
 21
557.3190393468202
 31
0.0
  0
LINE
  5
273
  8
08
 10
559.25023561239925
 20
260.67798443475232
 30
0.0
 11
612.39955112945404
 21
260.67798443475232
 31
0.0
  0
LINE
  5
274
  8
08
 10
559.25023561239925
 20
460.67798443475232
 30
0.0
 11
612.39955112945404
 21
460.67798443475232
 31
0.0
  0
INSERT
  5
275
  8
08
  2
PILHUVUD
 10
610.39955112945404
 20
260.67798443475232
 30
0.0
 50
270.0
  0
INSERT
  5
276
  8
08
  2
PILHUVUD
 10
610.39955112945404
 20
460.67798443475232
 30
0.0
 50
90.0
  0
LINE
  5
277
  8
08
 10
610.39955112945404
 20
260.67798443475232
 30
0.0
 11
610.39955112945404
 21
460.67798443475232
 31
0.0
  0
TEXT
  5
278
  8
12
 10
609.19955112945388
 20
356.17798443475232
 30
0.0
 40
4.5
  1
200
 50
90.0
 41
0.7
  7
ROMANS
 72
     1
 11
609.19955112945388
 21
360.67798443475232
 31
0.0
  0
LINE
  5
279
  8
08
 10
63.250235612399479
 20
260.67798443475232
 30
0.0
 11
63.250235612399479
 21
207.33063623704601
 31
0.0
  0
LINE
  5
27A
  8
08
 10
283.25023561239931
 20
260.67798443475232
 30
0.0
 11
283.25023561239931
 21
207.33063623704601
 31
0.0
  0
INSERT
  5
27B
  8
08
  2
PILHUVUD
 10
63.250235612399479
 20
209.33063623704601
 30
0.0
 50
180.0
  0
INSERT
  5
27C
  8
08
  2
PILHUVUD
 10
283.25023561239931
 20
209.33063623704601
 30
0.0
  0
LINE
  5
27D
  8
08
 10
63.250235612399479
 20
209.33063623704601
 30
0.0
 11
283.25023561239931
 21
209.33063623704601
 31
0.0
  0
TEXT
  5
27E
  8
12
 10
168.75023561239939
 20
210.530636237046
 30
0.0
 40
4.5
  1
220
 41
0.7
  7
ROMANS
 72
     1
 11
173.25023561239939
 21
210.530636237046
 31
0.0
  0
LINE
  5
27F
  8
08
 10
63.250235612399479
 20
225.22614571307651
 30
0.0
 11
63.250235612399479
 21
136.8610153624083
 31
0.0
  0
LINE
  5
280
  8
08
 10
339.25023561239931
 20
260.67798443475232
 30
0.0
 11
339.25023561239931
 21
136.8610153624083
 31
0.0
  0
INSERT
  5
281
  8
08
  2
PILHUVUD
 10
63.250235612399479
 20
139.11489487695891
 30
0.0
 50
180.0
  0
INSERT
  5
282
  8
08
  2
PILHUVUD
 10
339.25023561239931
 20
139.11489487695891
 30
0.0
  0
LINE
  5
283
  8
08
 10
63.250235612399479
 20
139.11489487695891
 30
0.0
 11
180.2204691343965
 21
139.11489487695891
 31
0.0
  0
TEXT
  5
284
  8
12
 10
196.75023561239939
 20
131.7966976194011
 30
0.0
 40
4.5
  1
276
 41
0.7
  7
ROMANS
 72
     1
 11
201.25023561239939
 21
131.7966976194011
 31
0.0
  0
LINE
  5
285
  8
08
 10
227.00702277795159
 20
139.114894876959
 30
0.0
 11
339.25023561239931
 21
139.11489487695891
 31
0.0
  0
TEXT
  5
286
  8
11
 10
369.79472263547387
 20
157.382157178976
 30
0.0
 40
4.7249999999999988
  1
Includes space for two auxiliary contact blocks
 41
0.7
  7
ROMANS
  0
TEXT
  5
287
  8
11
 10
531.90534942755539
 20
156.95384290368719
 30
0.0
 40
4.7249999999999988
  1
Ger plats f÷r tvÕ hjõlpkontaktsblock
 41
0.7
  7
ROMANS
  0
TEXT
  5
288
  8
11
 10
371.00986953786651
 20
168.0118574382962
 30
0.0
 40
5.25
  1
Min. dim.
 41
0.7
  7
ROMANS
  0
TEXT
  5
289
  8
11
 10
357.46804203236928
 20
131.10962058418141
 30
0.0
 40
5.25
  1
2)
 41
0.7
  7
ROMANS
  0
TEXT
  5
28A
  8
11
 10
369.09376456638262
 20
130.49491794110489
 30
0.0
 40
5.25
  1
Makes distance F1=92
 41
0.7
  7
ROMANS
  0
TEXT
  5
28B
  8
11
 10
518.90935118244374
 20
130.97359521236891
 30
0.0
 40
5.25
  1
2)
 41
0.7
  7
ROMANS
  0
TEXT
  5
28C
  8
11
 10
532.10294417845478
 20
167.5979156150828
 30
0.0
 40
5.25
  1
MinimiavstÕnd
 41
0.7
  7
ROMANS
  0
TEXT
  5
28D
  8
11
 10
530.6316696621542
 20
130.7256956021991
 30
0.0
 40
5.25
  1
Ger mÕtt F1=92
 41
0.7
  7
ROMANS
  0
TEXT
  5
28E
  8
01
 10
674.55589310886421
 20
97.498242765636064
 30
0.0
 40
7.0
  1
AC AND DC OPERATED
 41
0.7
  7
ROMANS
  0
TEXT
  5
28F
  8
01
 10
664.69105830197327
 20
115.55800594506501
 30
0.0
 40
7.0
  1
  FOR EH 1200 CONTACTOR
 41
0.7
  7
ROMANS
  0
INSERT
  5
290
  8
08
  2
PILHUVUD
 10
560.20840789746921
 20
257.83511513207168
 30
0.0
 50
118.3
  0
LINE
  5
291
  8
08
 10
560.20840789746921
 20
257.83511513207168
 30
0.0
 11
576.35400725377747
 21
225.3198365159995
 31
0.0
  0
LINE
  5
292
  8
08
 10
576.35400725377747
 20
225.3198365159995
 30
0.0
 11
605.23530505187705
 21
225.3198365159995
 31
0.0
  0
TEXT
  5
293
  8
12
 10
579.83236528223051
 20
227.1345791331926
 30
0.0
 40
4.5
  1
For M6
 41
0.7
  7
ROMANS
 72
     2
 11
596.63236528223035
 21
227.1345791331926
 31
0.0
  0
TEXT
  5
294
  8
01
 10
244.53416832927439
 20
141.17135354265031
 30
0.0
 40
6.0
  1
DC- OPERATION 
 41
0.7
  7
ROMANS
  0
TEXT
  5
295
  8
12
 10
196.99046159190391
 20
143.2135707204429
 30
0.0
 40
4.5
  1
260
 41
0.7
  7
ROMANS
 72
     1
 11
201.4904615919038
 21
143.2135707204429
 31
0.0
  0
TEXT
  5
296
  8
11
 10
356.73240477421911
 20
168.5772534505017
 30
0.0
 40
5.25
  1
1)
 41
0.7
  7
ROMANS
  0
TEXT
  5
297
  8
11
 10
518.17371392429345
 20
168.01291199126601
 30
0.0
 40
5.25
  1
1)
 41
0.7
  7
ROMANS
  0
TEXT
  5
298
  8
11
 10
208.77565119925649
 20
146.14553802140799
 30
0.0
 40
3.5
  1
1)
 41
0.7
  7
ROMANS
  0
TEXT
  5
299
  8
11
 10
208.66407758721331
 20
135.1070924266223
 30
0.0
 40
3.5
  1
2)
 41
0.7
  7
ROMANS
  0
LINE
  5
29A
  8
07
 10
559.25023561239925
 20
257.67798443475232
 30
0.0
 11
559.25023561239925
 21
263.67798443475232
 31
0.0
  0
LINE
  5
29B
  8
07
 10
556.25023561239925
 20
260.67798443475232
 30
0.0
 11
562.25023561239925
 21
260.67798443475232
 31
0.0
  0
LINE
  5
29C
  8
07
 10
559.25023561239925
 20
457.67798443475232
 30
0.0
 11
559.25023561239925
 21
463.67798443475237
 31
0.0
  0
LINE
  5
29D
  8
07
 10
556.25023561239925
 20
460.67798443475232
 30
0.0
 11
562.25023561239925
 21
460.67798443475232
 31
0.0
  0
LINE
  5
29E
  8
07
 10
339.25023561239931
 20
457.67798443475232
 30
0.0
 11
339.25023561239931
 21
463.67798443475237
 31
0.0
  0
LINE
  5
29F
  8
07
 10
336.25023561239931
 20
460.67798443475232
 30
0.0
 11
342.25023561239931
 21
460.67798443475232
 31
0.0
  0
LINE
  5
2A0
  8
07
 10
339.25023561239931
 20
257.67798443475232
 30
0.0
 11
339.25023561239931
 21
263.67798443475232
 31
0.0
  0
LINE
  5
2A1
  8
07
 10
336.25023561239931
 20
260.67798443475232
 30
0.0
 11
342.25023561239931
 21
260.67798443475232
 31
0.0
  0
LINE
  5
2A2
  8
07
 10
283.25023561239931
 20
257.67798443475232
 30
0.0
 11
283.25023561239931
 21
263.67798443475232
 31
0.0
  0
LINE
  5
2A3
  8
07
 10
280.25023561239931
 20
260.67798443475232
 30
0.0
 11
286.25023561239931
 21
260.67798443475232
 31
0.0
  0
LINE
  5
2A4
  8
07
 10
283.25023561239931
 20
457.67798443475232
 30
0.0
 11
283.25023561239931
 21
463.67798443475237
 31
0.0
  0
LINE
  5
2A5
  8
07
 10
280.25023561239931
 20
460.67798443475232
 30
0.0
 11
286.25023561239931
 21
460.67798443475232
 31
0.0
  0
LINE
  5
2A6
  8
07
 10
63.250235612399479
 20
457.67798443475232
 30
0.0
 11
63.250235612399479
 21
463.67798443475237
 31
0.0
  0
LINE
  5
2A7
  8
07
 10
60.250235612399472
 20
460.67798443475232
 30
0.0
 11
66.250235612399479
 21
460.67798443475232
 31
0.0
  0
LINE
  5
2A8
  8
07
 10
63.250235612399479
 20
257.67798443475232
 30
0.0
 11
63.250235612399479
 21
263.67798443475232
 31
0.0
  0
LINE
  5
2A9
  8
07
 10
60.250235612399472
 20
260.67798443475232
 30
0.0
 11
66.250235612399479
 21
260.67798443475232
 31
0.0
  0
TEXT
  5
2AA
  8
11
 10
112.63143901866
 20
368.64768141630839
 30
0.0
 40
5.0
  1
DRILLING PLAN
 41
0.7
  7
ROMANS
  0
TEXT
  5
2AB
  8
11
 10
112.7311646194423
 20
340.69370337117158
 30
0.0
 40
5.0
  1
BORRPLAN
 41
0.7
  7
ROMANS
  0
LINE
  5
2AC
  8
05
 10
66.250235612399479
 20
460.67798443475232
 30
0.0
 11
556.25023561239925
 21
460.67798443475232
 31
0.0
  0
LINE
  5
2AD
  8
05
 10
63.250235612399479
 20
457.67798443475232
 30
0.0
 11
63.250235612399479
 21
263.67798443475232
 31
0.0
  0
LINE
  5
2AE
  8
05
 10
63.250235612399479
 20
260.67798443475232
 30
0.0
 11
556.25023561239925
 21
260.67798443475232
 31
0.0
  0
LINE
  5
2AF
  8
05
 10
283.25023561239931
 20
457.67798443475232
 30
0.0
 11
283.25023561239931
 21
263.67798443475232
 31
0.0
  0
LINE
  5
2B0
  8
05
 10
339.25023561239931
 20
457.67798443475232
 30
0.0
 11
339.25023561239931
 21
263.67798443475232
 31
0.0
  0
LINE
  5
2B1
  8
05
 10
559.25023561239925
 20
457.67798443475232
 30
0.0
 11
559.25023561239925
 21
263.67798443475232
 31
0.0
  0
TEXT
  5
2B2
  8
01
 10
674.33550274641755
 20
134.15800594506501
 30
0.0
 40
7.0
  1
DRILLING PLAN  
 41
0.7
  7
ROMANS
  0
POINT
  5
2B3
  8
MASTERLINE_CFG
 62
     7
 10
0.0
 20
0.0
 30
0.0
1001
MASTERLINE_CFG
1000
MEKVERSION
1000
12
1000
ARROWHEAD
1000
pilhuvud
1000
ITEMLISTHEAD
1000
shuv6
1000
ITEMLISTROW
1000
skol6
1000
ITEMLISTTEMPLATE
1000
kol6
1000
DWGNAME
1000
6981
1000
CFGVER
1000
12
1000
DRAWINGSCALE
1000
1.00
1000
MDIM_MLDIMEXO
1000
12
1000
FORMATTYPE
1000
A1L
1000
HEADNAME
1000
a1l
1000
ITEMLISTSUMCOLUMNS
1000
,2,
1000
ITEMLISTSUM
1000
1
1000
ITEMLISTDISTHEAD
1000
10
1000
ITEMLISTDISTROW
1000
12.7
1000
REVLISTROW
1000
3.5
1000
AUTOUPDATE_FROM_DMI
1000
0
1000
AUTOUPDATE_TO_DMI
1000
1
1000
AUTOINSERT
1000
0
1000
FRAMEEXPLODE
1000
0
1000
FORMATNAME
1000

1000
FORMSET
1000

1000
LGRAUTOLOCK
1000
0
1000
REVBLOCK
1000
REVRING
1000
REVRADIUS
1000
5
1000
MDIM_PARATEXT
1000
0
1000
TOLPREC
1000
2
1000
TOLDIMZIN
1000
8
1000
POSBLOCK
1000
POS
1000
POSRADIUS
1000
8
1000
POSSHAPE
1000
1
1000
POSENDBLOCK
1000
ARROW
1001
MASTERLINE_CFG_LAYER
1000
COLOR_16
1000
7
1000
LINETYPE_16
1000
CONTINUOUS
1000
LAYERDESC_16
1000

1000
LAYER_16
1000
16
1000
COLOR_15
1000
5
1000
LINETYPE_15
1000
CONTINUOUS
1000
LAYERDESC_15
1000

1000
LAYER_15
1000
15
1000
COLOR_14
1000
7
1000
LINETYPE_14
1000
CONTINUOUS
1000
LAYERDESC_14
1000

1000
LAYER_14
1000
14
1000
COLOR_13
1000
7
1000
LINETYPE_13
1000
CONTINUOUS
1000
LAYERDESC_13
1000

1000
LAYER_13
1000
13
1000
COLOR_12
1000
7
1000
LINETYPE_12
1000
CONTINUOUS
1000
LAYERDESC_12
1000

1000
LAYER_12
1000
12
1000
COLOR_11
1000
7
1000
LINETYPE_11
1000
CONTINUOUS
1000
LAYERDESC_11
1000

1000
LAYER_11
1000
11
1000
COLOR_10
1000
1
1000
LINETYPE_10
1000
CONTINUOUS
1000
LAYERDESC_10
1000

1000
LAYER_10
1000
10
1000
COLOR_9
1000
2
1000
LINETYPE_9
1000
CONTINUOUS
1000
LAYERDESC_9
1000

1000
LAYER_9
1000
09
1000
COLOR_8
1000
2
1000
LINETYPE_8
1000
CONTINUOUS
1000
LAYERDESC_8
1000

1000
LAYER_8
1000
08
1000
COLOR_7
1000
6
1000
LINETYPE_7
1000
PHANTOM
1000
LAYERDESC_7
1000

1000
LAYER_7
1000
07
1000
COLOR_6
1000
3
1000
LINETYPE_6
1000
DASHDOT
1000
LAYERDESC_6
1000

1000
LAYER_6
1000
06
1000
COLOR_5
1000
6
1000
LINETYPE_5
1000
DASHDOT
1000
LAYERDESC_5
1000

1000
LAYER_5
1000
05
1000
COLOR_4
1000
4
1000
LINETYPE_4
1000
HIDDEN
1000
LAYERDESC_4
1000

1000
LAYER_4
1000
04
1000
COLOR_3
1000
3
1000
LINETYPE_3
1000
HIDDEN
1000
LAYERDESC_3
1000

1000
LAYER_3
1000
03
1000
COLOR_2
1000
1
1000
LINETYPE_2
1000
CONTINUOUS
1000
LAYERDESC_2
1000

1000
LAYER_2
1000
02
1000
COLOR_1
1000
3
1000
LINETYPE_1
1000
CONTINUOUS
1000
LAYERDESC_1
1000

1000
LAYER_1
1000
01
1000
GROUPDESC_0
1000

1000
GROUP_0
1000

1000
ACTIVE_GROUP
1000

1000
LAYERMODE
1000
1
  0
LINE
  5
2B4
  8
15
 10
0.0
 20
0.0
 30
0.0
 11
806.0
 21
0.0
 31
0.0
  0
LINE
  5
2B5
  8
15
 10
806.0
 20
0.0
 30
0.0
 11
806.0
 21
574.0
 31
0.0
  0
LINE
  5
2B6
  8
15
 10
806.0
 20
574.0
 30
0.0
 11
0.0
 21
574.0
 31
0.0
  0
LINE
  5
2B7
  8
15
 10
0.0
 20
574.0
 30
0.0
 11
0.0
 21
0.0
 31
0.0
  0
INSERT
  5
2B8
  8
15
  2
WA1
 10
0.0
 20
0.0
 30
0.0
  0
INSERT
  5
2B9
  8
15
 66
     1
  2
A1L
 10
806.0
 20
0.0
 30
0.0
  0
ATTRIB
  5
2BA
  8
11
 62
     3
 10
707.92857142857144
 20
9.5500000000000007
 30
0.0
 40
6.5
  1
5354 0914-34
 41
0.9000000000000001
  7
ISO
 72
     4
 11
740.79999999999995
 21
12.800000000000001
 31
0.0
  2
DOCNO
 70
     0
  0
ATTRIB
  5
2BB
  8
11
 10
690.5
 20
40.299999999999997
 30
0.0
 40
4.7000000000000002
  1
DRILLING PLAN EH 1200
 41
0.9
  7
ISO
  2
TITLE1
 70
     0
  0
ATTRIB
  5
2BC
  8
11
 10
690.5
 20
27.5
 30
0.0
 40
4.7000000000000002
  1
BORRPLAN EH 1200
 41
0.9
  7
ISO
  2
TITLE2
 70
     0
  0
ATTRIB
  5
2BD
  8
11
 10
624.0
 20
14.800000000000001
 30
0.0
 40
4.7000000000000002
  1
6981
 41
0.9
  7
ISO
  2
FILENAME
 70
     0
  0
ATTRIB
  5
2BE
  8
11
 10
678.74857142857138
 20
14.800000000000001
 30
0.0
 40
4.7000000000000002
  1
1:1
 41
0.9
  7
ISO
 72
     2
 11
686.0
 21
14.800000000000001
 31
0.0
  2
SCALE
 70
     0
  0
ATTRIB
  5
2BF
  8
11
 10
552.5
 20
40.299999999999997
 30
0.0
 40
4.7000000000000002
  1
G Engblom
 41
0.9
  7
ISO
  2
PREPARED
 70
     0
  0
ATTRIB
  5
2C0
  8
11
 10
596.10000000000002
 20
45.799999999999997
 30
0.0
 40
3.2000000000000002
  1
P
 41
0.9
  7
ISO
  2
P
 70
     0
  0
ATTRIB
  5
2C1
  8
11
 10
610.09999999999991
 20
45.799999999999997
 30
0.0
 40
3.2000000000000002
  1
Q
 41
0.9
  7
ISO
  2
Q
 70
     0
  0
ATTRIB
  5
2C2
  8
11
 10
552.5
 20
27.5
 30
0.0
 40
4.7000000000000002
  1
B L÷÷v
 41
0.9
  7
ISO
  2
APPROVED
 70
     0
  0
ATTRIB
  5
2C3
  8
11
 10
598.64857142857147
 20
27.5
 30
0.0
 40
4.7000000000000002
  1
981130
 41
0.9
  7
ISO
 72
     2
 11
620.0
 21
27.5
 31
0.0
  2
ISSDATE
 70
     0
  0
ATTRIB
  5
2C4
  8
11
 10
552.5
 20
14.800000000000001
 30
0.0
 40
4.7000000000000002
  1

 41
0.9
  7
ISO
  2
REVISION
 70
     0
  0
ATTRIB
  5
2C5
  8
11
 10
624.0
 20
40.299999999999997
 30
0.0
 40
4.7000000000000002
  1
SECRL/AM
 41
0.9
  7
ISO
  2
RESPDEPT
 70
     0
  0
ATTRIB
  5
2C6
  8
11
 10
624.0
 20
27.5
 30
0.0
 40
4.7000000000000002
  1

 41
0.9
  7
ISO
  2
TAKEOVDEPT
 70
     0
  0
ATTRIB
  5
2C7
  8
11
 10
796.37571428571425
 20
28.149999999999991
 30
0.0
 40
4.7000000000000002
  1
82
 41
0.9
  7
ISO
 72
     4
 11
799.79999999999995
 21
30.5
 31
0.0
  2
LANG
 70
     0
  0
ATTRIB
  5
2C8
  8
11
 10
799.29642857142846
 20
2.649999999999999
 30
0.0
 40
4.7000000000000002
  1
1
 41
0.9
  7
ISO
 72
     4
 11
799.79999999999995
 21
5.0
 31
0.0
  2
SHEET
 70
     0
  0
ATTRIB
  5
2C9
  8
11
 10
797.98714285714277
 20
15.785714285714279
 30
0.0
 40
4.7000000000000002
  1
-
 41
0.9
  7
ISO
 72
     4
 11
799.79999999999995
 21
17.800000000000001
 31
0.0
  2
CONT
 70
     0
  0
ATTRIB
  5
2CA
  8
11
 10
691.10000000000002
 20
2.0
 30
0.0
 40
3.2000000000000002
  1
ISSUED
 41
0.9
  7
ISO
  2
STATUS
 70
     0
  0
ATTRIB
  5
2CB
  8
11
 10
5.0
 20
564.10000000000002
 30
0.0
 40
4.7000000000000002
  1
EH 1200
 41
0.9
  7
ISO
  2
TYPE
 70
     0
  0
SEQEND
  5
2CC
  8
15
  0
TEXT
  5
2CD
  8
01
 10
244.53416832927439
 20
151.07556397267771
 30
0.0
 40
6.0
  1
AC- and
 41
0.7
  7
ROMANS
  0
TEXT
  5
2CE
  8
11
 10
531.90534942755539
 20
149.6724676053588
 30
0.0
 40
4.7249999999999988
  1
pÕ h÷ger kontaktor
 41
0.7
  7
ROMANS
  0
TEXT
  5
2CF
  8
11
 10
369.79472263547387
 20
148.81583361837801
 30
0.0
 40
4.7249999999999988
  1
on right hand contactor
 41
0.7
  7
ROMANS
  0
ENDSEC
  0
EOF
