  0
SECTION
  2
HEADER
  9
$ACADVER
  1
AC1009
  9
$DWGCODEPAGE
  3
iso8859-1
  9
$INSBASE
 10
0.0
 20
0.0
 30
0.0
  9
$EXTMIN
 10
1.0E20
 20
1.0E20
  9
$EXTMAX
 10
-1.0E20
 20
-1.0E20
  9
$LIMMIN
 10
0.0
 20
0.0
  9
$LIMMAX
 10
12.0
 20
9.0
  9
$ORTHOMODE
 70
     0
  9
$REGENMODE
 70
     1
  9
$FILLMODE
 70
     1
  9
$QTEXTMODE
 70
     0
  9
$MIRRTEXT
 70
     1
  9
$DRAGMODE
 70
     2
  9
$LTSCALE
 40
15.0
  9
$OSMODE
 70
     0
  9
$ATTMODE
 70
     1
  9
$TEXTSIZE
 40
0.2
  9
$TRACEWID
 40
0.05
  9
$TEXTSTYLE
  7
STANDARD
  9
$CLAYER
  8
0
  9
$CELTYPE
  6
DASHED
  9
$CECOLOR
 62
   256
  9
$DIMSCALE
 40
1.0
  9
$DIMASZ
 40
0.18
  9
$DIMEXO
 40
0.0625
  9
$DIMDLI
 40
0.38
  9
$DIMRND
 40
0.0
  9
$DIMDLE
 40
0.0
  9
$DIMEXE
 40
0.18
  9
$DIMTP
 40
0.0
  9
$DIMTM
 40
0.0
  9
$DIMTXT
 40
0.18
  9
$DIMCEN
 40
0.09
  9
$DIMTSZ
 40
0.0
  9
$DIMTOL
 70
     0
  9
$DIMLIM
 70
     0
  9
$DIMTIH
 70
     1
  9
$DIMTOH
 70
     1
  9
$DIMSE1
 70
     0
  9
$DIMSE2
 70
     0
  9
$DIMTAD
 70
     0
  9
$DIMZIN
 70
     0
  9
$DIMBLK
  1

  9
$DIMASO
 70
     1
  9
$DIMSHO
 70
     1
  9
$DIMPOST
  1

  9
$DIMAPOST
  1

  9
$DIMALT
 70
     0
  9
$DIMALTD
 70
     2
  9
$DIMALTF
 40
25.4
  9
$DIMLFAC
 40
1.0
  9
$DIMTOFL
 70
     0
  9
$DIMTVP
 40
0.0
  9
$DIMTIX
 70
     0
  9
$DIMSOXD
 70
     0
  9
$DIMSAH
 70
     0
  9
$DIMBLK1
  1

  9
$DIMBLK2
  1

  9
$DIMSTYLE
  2
STANDARD
  9
$DIMCLRD
 70
     0
  9
$DIMCLRE
 70
     0
  9
$DIMCLRT
 70
     0
  9
$DIMTFAC
 40
1.0
  9
$DIMGAP
 40
0.09
  9
$LUNITS
 70
     2
  9
$LUPREC
 70
     4
  9
$AXISMODE
 70
     0
  9
$AXISUNIT
 10
0.0
 20
0.0
  9
$SKETCHINC
 40
0.1
  9
$FILLETRAD
 40
0.0
  9
$AUNITS
 70
     0
  9
$AUPREC
 70
     0
  9
$MENU
  1
acad
  9
$ELEVATION
 40
0.0
  9
$PELEVATION
 40
0.0
  9
$THICKNESS
 40
0.0
  9
$LIMCHECK
 70
     0
  9
$BLIPMODE
 70
     1
  9
$CHAMFERA
 40
0.0
  9
$CHAMFERB
 40
0.0
  9
$SKPOLY
 70
     0
  9
$TDCREATE
 40
0.000000000
  9
$TDUPDATE
 40
0.000000000
  9
$TDINDWG
 40
0.0
  9
$TDUSRTIMER
 40
0.0
  9
$USRTIMER
 70
     1
  9
$ANGBASE
 50
0.0
  9
$ANGDIR
 70
     0
  9
$PDMODE
 70
     0
  9
$PDSIZE
 40
0.0
  9
$PLINEWID
 40
0.0
  9
$COORDS
 70
     1
  9
$SPLFRAME
 70
     0
  9
$SPLINETYPE
 70
     6
  9
$SPLINESEGS
 70
     8
  9
$ATTDIA
 70
     0
  9
$ATTREQ
 70
     1
  9
$HANDLING
 70
     1
  9
$HANDSEED
  5
   9BF
  9
$SURFTAB1
 70
     6
  9
$SURFTAB2
 70
     6
  9
$SURFTYPE
 70
     6
  9
$SURFU
 70
     6
  9
$SURFV
 70
     6
  9
$UCSNAME
  2

  9
$UCSORG
 10
0.0
 20
0.0
 30
0.0
  9
$UCSXDIR
 10
1.0
 20
0.0
 30
0.0
  9
$UCSYDIR
 10
0.0
 20
1.0
 30
0.0
  9
$PUCSNAME
  2

  9
$PUCSORG
 10
0.0
 20
0.0
 30
0.0
  9
$PUCSXDIR
 10
1.0
 20
0.0
 30
0.0
  9
$PUCSYDIR
 10
0.0
 20
1.0
 30
0.0
  9
$USERI1
 70
     0
  9
$USERI2
 70
     0
  9
$USERI3
 70
     0
  9
$USERI4
 70
     0
  9
$USERI5
 70
     0
  9
$USERR1
 40
0.0
  9
$USERR2
 40
0.0
  9
$USERR3
 40
0.0
  9
$USERR4
 40
0.0
  9
$USERR5
 40
0.0
  9
$WORLDVIEW
 70
     1
  9
$SHADEDGE
 70
     3
  9
$SHADEDIF
 70
    70
  9
$TILEMODE
 70
     1
  9
$MAXACTVP
 70
    16
  9
$PINSBASE
 10
0.0
 20
0.0
 30
0.0
  9
$PLIMCHECK
 70
     0
  9
$PEXTMIN
 10
1.0E20
 20
1.0E20
 30
1.0E20
  9
$PEXTMAX
 10
-1.0E20
 20
-1.0E20
 30
-1.0E20
  9
$PLIMMIN
 10
0.0
 20
0.0
  9
$PLIMMAX
 10
12.0
 20
9.0
  9
$UNITMODE
 70
     0
  9
$VISRETAIN
 70
     0
  0
ENDSEC
  0
SECTION
  2
TABLES
  0
TABLE
  2
VPORT
 70
     1
  0
VPORT
  2
*ACTIVE
 70
     0
 10
0.0
 20
0.0
 11
1.0
 21
1.0
 12
6.801242
 22
4.5
 13
0.0
 23
0.0
 14
1.0
 24
1.0
 15
0.0
 25
0.0
 16
0.0
 26
0.0
 36
1.0
 17
0.0
 27
0.0
 37
0.0
 40
9.0
 41
1.511387
 42
50.0
 43
0.0
 44
0.0
 50
0.0
 51
0.0
 71
     0
 72
   100
 73
     1
 74
     1
 75
     0
 76
     0
 77
     0
 78
     0
  0
ENDTAB
  0
TABLE
  2
LTYPE
 70
    41
  0
LTYPE
  2
BYBLOCK
 70
     0
  3

 72
    65
 73
     0
 40
0.0
  0
LTYPE
  2
BYLAYER
 70
     0
  3

 72
    65
 73
     0
 40
0.0
  0
LTYPE
  2
CONTINUOUS
 70
     0
  3
Solid line
 72
    65
 73
     0
 40
0.0
  0
LTYPE
  2
BORDER
 70
    64
  3
__ __ . __ __ . __ __ . __ __ . __ __ . __ __ .
 72
    65
 73
     6
 40
1.75
 49
0.5
 49
-0.25
 49
0.5
 49
-0.25
 49
0.0
 49
-0.25
  0
LTYPE
  2
BORDER2
 70
    64
  3
__.__.__.__.__.__.__.__.__.__.__.__.__.__.__.__
 72
    65
 73
     6
 40
0.875
 49
0.25
 49
-0.125
 49
0.25
 49
-0.125
 49
0.0
 49
-0.125
  0
LTYPE
  2
BORDERX2
 70
    64
  3
____  ____  .  ____  ____  .  ____  ____  .  __
 72
    65
 73
     6
 40
3.5
 49
1.0
 49
-0.5
 49
1.0
 49
-0.5
 49
0.0
 49
-0.5
  0
LTYPE
  2
CENTER
 70
    64
  3
____ _ ____ _ ____ _ ____ _ ____ _ ____ _ ____
 72
    65
 73
     4
 40
2.0
 49
1.25
 49
-0.25
 49
0.25
 49
-0.25
  0
LTYPE
  2
CENTER2
 70
    64
  3
___ _ ___ _ ___ _ ___ _ ___ _ ___ _ ___ _ ___ _
 72
    65
 73
     4
 40
1.125
 49
0.75
 49
-0.125
 49
0.125
 49
-0.125
  0
LTYPE
  2
CENTERX2
 70
    64
  3
________  __  ________  __  ________  __  _____
 72
    65
 73
     4
 40
4.0
 49
2.5
 49
-0.5
 49
0.5
 49
-0.5
  0
LTYPE
  2
DASHDOT
 70
    64
  3
__ . __ . __ . __ . __ . __ . __ . __ . __ . __
 72
    65
 73
     4
 40
1.0
 49
0.5
 49
-0.25
 49
0.0
 49
-0.25
  0
LTYPE
  2
DASHDOT2
 70
    64
  3
_._._._._._._._._._._._._._._._._._._._._._._._
 72
    65
 73
     4
 40
0.5
 49
0.25
 49
-0.125
 49
0.0
 49
-0.125
  0
LTYPE
  2
DASHDOTX2
 70
    64
  3
____  .  ____  .  ____  .  ____  .  ____  .  __
 72
    65
 73
     4
 40
2.0
 49
1.0
 49
-0.5
 49
0.0
 49
-0.5
  0
LTYPE
  2
DASHED
 70
    64
  3
__ __ __ __ __ __ __ __ __ __ __ __ __ __ __ __
 72
    65
 73
     2
 40
0.75
 49
0.5
 49
-0.25
  0
LTYPE
  2
DASHED2
 70
    64
  3
_ _ _ _ _ _ _ _ _ _ _ _ _ _ _ _ _ _ _ _ _ _ _ _
 72
    65
 73
     2
 40
0.375
 49
0.25
 49
-0.125
  0
LTYPE
  2
DASHEDX2
 70
    64
  3
____  ____  ____  ____  ____  ____  ____  ____
 72
    65
 73
     2
 40
1.5
 49
1.0
 49
-0.5
  0
LTYPE
  2
DIVIDE
 70
    64
  3
____ . . ____ . . ____ . . ____ . . ____ . . __
 72
    65
 73
     6
 40
1.25
 49
0.5
 49
-0.25
 49
0.0
 49
-0.25
 49
0.0
 49
-0.25
  0
LTYPE
  2
DIVIDE2
 70
    64
  3
__..__..__..__..__..__..__..__..__..__..__..__.
 72
    65
 73
     6
 40
0.625
 49
0.25
 49
-0.125
 49
0.0
 49
-0.125
 49
0.0
 49
-0.125
  0
LTYPE
  2
DIVIDEX2
 70
    64
  3
________  .  .  ________  .  .  ________  .  .
 72
    65
 73
     6
 40
2.5
 49
1.0
 49
-0.5
 49
0.0
 49
-0.5
 49
0.0
 49
-0.5
  0
LTYPE
  2
DOT
 70
    64
  3
. . . . . . . . . . . . . . . . . . . . . . . .
 72
    65
 73
     2
 40
0.25
 49
0.0
 49
-0.25
  0
LTYPE
  2
DOT2
 70
    64
  3
...............................................
 72
    65
 73
     2
 40
0.125
 49
0.0
 49
-0.125
  0
LTYPE
  2
DOTX2
 70
    64
  3
.  .  .  .  .  .  .  .  .  .  .  .  .  .  .  .
 72
    65
 73
     2
 40
0.5
 49
0.0
 49
-0.5
  0
LTYPE
  2
HIDDEN
 70
    64
  3
__ __ __ __ __ __ __ __ __ __ __ __ __ __ __ __
 72
    65
 73
     2
 40
0.375
 49
0.25
 49
-0.125
  0
LTYPE
  2
HIDDEN2
 70
    64
  3
_ _ _ _ _ _ _ _ _ _ _ _ _ _ _ _ _ _ _ _ _ _ _ _
 72
    65
 73
     2
 40
0.1875
 49
0.125
 49
-0.0625
  0
LTYPE
  2
HIDDENX2
 70
    64
  3
____ ____ ____ ____ ____ ____ ____ ____ ____ __
 72
    65
 73
     2
 40
0.75
 49
0.5
 49
-0.25
  0
LTYPE
  2
PHANTOM
 70
    64
  3
______  __  __  ______  __  __  ______  __  __
 72
    65
 73
     6
 40
2.5
 49
1.25
 49
-0.25
 49
0.25
 49
-0.25
 49
0.25
 49
-0.25
  0
LTYPE
  2
PHANTOM2
 70
    64
  3
___ _ _ ___ _ _ ___ _ _ ___ _ _ ___ _ _ ___ _ _
 72
    65
 73
     6
 40
1.25
 49
0.625
 49
-0.125
 49
0.125
 49
-0.125
 49
0.125
 49
-0.125
  0
LTYPE
  2
PHANTOMX2
 70
    64
  3
____________    ____    ____    ____________
 72
    65
 73
     6
 40
5.0
 49
2.5
 49
-0.5
 49
0.5
 49
-0.5
 49
0.5
 49
-0.5
  0
LTYPE
  2
ACAD_ISO02W100
 70
    64
  3
__ __ __ __ __ __ __ __ __ __ __ __ __ __ __ __
 72
    65
 73
     2
 40
15.0
 49
12.0
 49
-3.0
  0
LTYPE
  2
ACAD_ISO03W100
 70
    64
  3
__    __    __    __    __    __    __    __
 72
    65
 73
     2
 40
30.0
 49
12.0
 49
-18.0
  0
LTYPE
  2
ACAD_ISO04W100
 70
    64
  3
____ . ____ . ____ . ____ . ____ . ____ . ____
 72
    65
 73
     4
 40
30.5
 49
24.0
 49
-3.0
 49
0.5
 49
-3.0
  0
LTYPE
  2
ACAD_ISO05W100
 70
    64
  3
____ .. ____ .. ____ .. ____ .. ____ .. ____ ..
 72
    65
 73
     6
 40
34.0
 49
24.0
 49
-3.0
 49
0.5
 49
-3.0
 49
0.5
 49
-3.0
  0
LTYPE
  2
ACAD_ISO06W100
 70
    64
  3
____ ... ____ ... ____ ... ____ ... ____ ... __
 72
    65
 73
     8
 40
37.5
 49
24.0
 49
-3.0
 49
0.5
 49
-3.0
 49
0.5
 49
-3.0
 49
0.5
 49
-3.0
  0
LTYPE
  2
ACAD_ISO07W100
 70
    64
  3
. . . . . . . . . . . . . . . . . . . . . . . .
 72
    65
 73
     2
 40
3.5
 49
0.5
 49
-3.0
  0
LTYPE
  2
ACAD_ISO08W100
 70
    64
  3
____ __ ____ __ ____ __ ____ ____ __ __ ____ __
 72
    65
 73
     4
 40
36.0
 49
24.0
 49
-3.0
 49
6.0
 49
-3.0
  0
LTYPE
  2
ACAD_ISO09W100
 70
    64
  3
____ __ __ ____ __ __ ____ __ __ ____ __ __ ___
 72
    65
 73
     6
 40
45.0
 49
24.0
 49
-3.0
 49
6.0
 49
-3.0
 49
6.0
 49
-3.0
  0
LTYPE
  2
ACAD_ISO10W100
 70
    64
  3
__ . __ . __ . __ . __ . __ . __ . __ . __ . __
 72
    65
 73
     4
 40
18.5
 49
12.0
 49
-3.0
 49
0.5
 49
-3.0
  0
LTYPE
  2
ACAD_ISO11W100
 70
    64
  3
__ __ . __ __ . __ __ . __ __ . __ __ . __ __ .
 72
    65
 73
     6
 40
33.5
 49
12.0
 49
-3.0
 49
12.0
 49
-3.0
 49
0.5
 49
-3.0
  0
LTYPE
  2
ACAD_ISO12W100
 70
    64
  3
__ . . __ . . __ . . __ . . __ . . __ . . __ .
 72
    65
 73
     6
 40
22.0
 49
12.0
 49
-3.0
 49
0.5
 49
-3.0
 49
0.5
 49
-3.0
  0
LTYPE
  2
ACAD_ISO13W100
 70
    64
  3
__ __ . . __ __ . . __ __ . . __ __ . . __ __ .
 72
    65
 73
     8
 40
37.0
 49
12.0
 49
-3.0
 49
12.0
 49
-3.0
 49
0.5
 49
-3.0
 49
0.5
 49
-3.0
  0
LTYPE
  2
ACAD_ISO14W100
 70
    64
  3
__ . . . __ . . . __ . . . __ . . . __ . . . __
 72
    65
 73
     8
 40
25.5
 49
12.0
 49
-3.0
 49
0.5
 49
-3.0
 49
0.5
 49
-3.0
 49
0.5
 49
-3.0
  0
LTYPE
  2
ACAD_ISO15W100
 70
    64
  3
__ __ . . . __ __ . . . __ __ . . . __ __ . . .
 72
    65
 73
    10
 40
40.5
 49
12.0
 49
-3.0
 49
12.0
 49
-3.0
 49
0.5
 49
-3.0
 49
0.5
 49
-3.0
 49
0.5
 49
-3.0
  0
ENDTAB
  0
TABLE
  2
STYLE
 70
     4
  0
STYLE
  2
STANDARD
 70
    64
 40
0.0
 41
1.0
 50
0.0
 71
     0
 42
0.2
  3
txt
  4

  0
STYLE
  2
TOLERANCE
 70
    64
 40
0.0
 41
1.0
 50
0.0
 71
     0
 42
0.2
  3
../igesfont/iges1003.shx
  4

  0
STYLE
  2
ROMANS
 70
    64
 40
0.0
 41
1.0
 50
0.0
 71
     0
 42
0.2
  3
romans.shx
  4

  0
STYLE
  2
ROMANC
 70
    64
 40
0.0
 41
1.0
 50
0.0
 71
     0
 42
0.2
  3
romanc.shx
  4

  0
ENDTAB
  0
TABLE
  2
DIMSTYLE
 70
     2
  0
DIMSTYLE
  2
UNNAMED
 70
     0
  3

  4

  5

  6

  7

 40
1.0
 41
0.18
 42
0.0625
 43
0.38
 44
0.18
 45
0.0
 46
0.0
 47
0.0
 48
0.0
140
0.18
141
0.09
142
0.0
143
25.4
144
1.0
145
0.0
146
1.0
147
0.09
 71
     0
 72
     0
 73
     1
 74
     1
 75
     0
 76
     0
 77
     0
 78
     0
170
     0
171
     2
172
     0
173
     0
174
     0
175
     0
176
     0
177
     0
178
     0
  0
DIMSTYLE
  2
STANDARD
 70
     0
  3

  4

  5

  6

  7

 40
1.0
 41
0.18
 42
0.0625
 43
0.38
 44
0.18
 45
0.0
 46
0.0
 47
0.0
 48
0.0
140
0.18
141
0.09
142
0.0
143
25.4
144
1.0
145
0.0
146
1.0
147
0.09
 71
     0
 72
     0
 73
     1
 74
     1
 75
     0
 76
     0
 77
     0
 78
     0
170
     0
171
     2
172
     0
173
     0
174
     0
175
     0
176
     0
177
     0
178
     0
  0
ENDTAB
  0
TABLE
  2
LAYER
 70
     2
  0
LAYER
  2
0
 70
     0
 62
     7
  6
CONTINUOUS
  0
LAYER
  2
255
 70
     0
 62
     7
  6
CONTINUOUS
  0
ENDTAB
  0
ENDSEC
  0
SECTION
  2
BLOCKS
  0
BLOCK
  5
     B
  8
0
  6
CONTINUOUS
 62
     7
  2
*UDIM214
 70
    65
 10
0.0
 20
0.0
 30
0.0
  3
*UDIM214
  0
TEXT
  5
     C
  8
0
  6
CONTINUOUS
 62
     7
 10
-631.532222292037
 20
-119.703306408164
 30
0.0
 40
2.99999994933605
  1
105,25
 50
449.999999896069
 41
0.933333333333333
 72
     1
 11
-633.032222252063
 21
-111.603306542245
 31
0.0
 73
     2
  0
LINE
  5
     D
  8
0
  6
CONTINUOUS
 62
     7
 10
-624.854985996388
 20
-100.70946623385
 30
0.0
 11
-632.532222277395
 21
-100.70946623385
 31
0.0
  0
LINE
  5
     E
  8
0
  6
CONTINUOUS
 62
     7
 10
-629.5769974292
 20
-121.759466547519
 30
0.0
 11
-632.532222277395
 21
-121.759466547519
 31
0.0
  0
LINE
  5
     F
  8
0
  6
CONTINUOUS
 62
     7
 10
-630.532222277395
 20
-100.70946623385
 30
0.0
 11
-630.532222277395
 21
-121.759466547519
 31
0.0
  0
LINE
  5
    10
  8
0
  6
CONTINUOUS
 62
     7
 10
-630.011277847443
 20
-103.663889511056
 30
0.0
 11
-630.532222277395
 21
-100.70946623385
 31
0.0
  0
LINE
  5
    11
  8
0
  6
CONTINUOUS
 62
     7
 10
-630.532222277395
 20
-100.70946623385
 30
0.0
 11
-631.053166707347
 21
-103.663889511056
 31
0.0
  0
LINE
  5
    12
  8
0
  6
CONTINUOUS
 62
     7
 10
-631.053166707347
 20
-118.805043270312
 30
0.0
 11
-630.532222277395
 21
-121.759466547519
 31
0.0
  0
LINE
  5
    13
  8
0
  6
CONTINUOUS
 62
     7
 10
-630.532222277395
 20
-121.759466547519
 30
0.0
 11
-630.011277847443
 21
-118.805043270312
 31
0.0
  0
ENDBLK
  5
    14
  8
0
  6
CONTINUOUS
 62
     7
  0
BLOCK
  5
    15
  8
0
  6
CONTINUOUS
 62
     7
  2
*UDIM215
 70
    65
 10
0.0
 20
0.0
 30
0.0
  3
*UDIM215
  0
TEXT
  5
    16
  8
0
  6
CONTINUOUS
 62
     7
 10
-596.40318866061
 20
-111.588012541312
 30
0.0
 40
2.99999994933605
  1
43,75
 50
359.999999896069
 41
0.933333333333333
 72
     1
 11
-589.703188771046
 21
-110.088012578764
 31
0.0
 73
     2
  0
LINE
  5
    17
  8
0
  6
CONTINUOUS
 62
     7
 10
-583.003188884195
 20
-112.588012553432
 30
0.0
 11
-615.27575690113
 21
-112.588012553432
 31
0.0
  0
LINE
  5
    18
  8
0
  6
CONTINUOUS
 62
     7
 10
-609.480180047952
 20
-113.108956983383
 30
0.0
 11
-606.525756770745
 21
-112.588012553432
 31
0.0
  0
LINE
  5
    19
  8
0
  6
CONTINUOUS
 62
     7
 10
-606.525756770745
 20
-112.588012553432
 30
0.0
 11
-609.480180047952
 21
-112.06706812348
 31
0.0
  0
LINE
  5
    1A
  8
0
  6
CONTINUOUS
 62
     7
 10
-612.321333623923
 20
-112.06706812348
 30
0.0
 11
-615.27575690113
 21
-112.588012553432
 31
0.0
  0
LINE
  5
    1B
  8
0
  6
CONTINUOUS
 62
     7
 10
-615.27575690113
 20
-112.588012553432
 30
0.0
 11
-612.321333623923
 21
-113.108956983383
 31
0.0
  0
ENDBLK
  5
    1C
  8
0
  6
CONTINUOUS
 62
     7
  0
BLOCK
  5
    1D
  8
0
  6
CONTINUOUS
 62
     7
  2
*UDIM216
 70
    65
 10
0.0
 20
0.0
 30
0.0
  3
*UDIM216
  0
TEXT
  5
    1E
  8
0
  6
CONTINUOUS
 62
     7
 10
-598.797888892577
 20
-93.8536427224012
 30
0.0
 40
2.99999994933605
  1
5,5
 50
396.023130972505
 41
0.933333333333333
 72
     1
 11
-596.525816084322
 21
-90.3468372581273
 31
0.0
 73
     2
  0
TEXT
  5
    1F
  8
0
  6
CONTINUOUS
 62
     7
 10
-601.345544689589
 20
-95.7061949162087
 30
0.0
 40
2.99999994933605
  1
Ø
 50
396.023130972505
 41
0.933333333333333
 72
     1
 11
-601.338054814673
 21
-93.8461025032064
 31
0.0
 73
     2
  0
TEXT
  5
    20
  8
0
  6
CONTINUOUS
 62
     7
 10
-592.044579068218
 20
-88.9429091300064
 30
0.0
 40
2.99999994933605
  1
 - M5
 50
396.023130972505
 41
0.933333333333333
 72
     1
 11
-587.507923326625
 21
-83.789390614461
 31
0.0
 73
     2
  0
LINE
  5
    21
  8
0
  6
CONTINUOUS
 62
     7
 10
-580.618820362466
 20
-81.8709905763139
 30
0.0
 11
-606.970585574778
 21
-101.032927737151
 31
0.0
  0
LINE
  5
    22
  8
0
  6
CONTINUOUS
 62
     7
 10
-603.997824171282
 20
-98.227144249307
 30
0.0
 11
-606.080927966712
 21
-100.386004730548
 31
0.0
  0
LINE
  5
    23
  8
0
  6
CONTINUOUS
 62
     7
 10
-606.080927966712
 20
-100.386004730548
 30
0.0
 11
-603.385077022418
 21
-99.0698027376343
 31
0.0
  0
LINE
  5
    24
  8
0
  6
CONTINUOUS
 62
     7
 10
-609.053689370208
 20
-103.191788218392
 30
0.0
 11
-606.970585574778
 21
-101.032927737151
 31
0.0
  0
LINE
  5
    25
  8
0
  6
CONTINUOUS
 62
     7
 10
-606.970585574778
 20
-101.032927737151
 30
0.0
 11
-609.666436519072
 21
-102.349129730065
 31
0.0
  0
ENDBLK
  5
    26
  8
0
  6
CONTINUOUS
 62
     7
  0
BLOCK
  5
    27
  8
0
  6
CONTINUOUS
 62
     7
  2
*UDIM217
 70
    65
 10
0.0
 20
0.0
 30
0.0
  3
*UDIM217
  0
TEXT
  5
    28
  8
0
  6
CONTINUOUS
 62
     7
 10
-637.512909324248
 20
-126.284466165978
 30
0.0
 40
2.99999994933605
  1
214
 50
449.999999896069
 41
0.933333333333333
 72
     1
 11
-639.012909291866
 21
-122.38446622913
 31
0.0
 73
     2
  0
LINE
  5
    29
  8
0
  6
CONTINUOUS
 62
     7
 10
-624.854985996387
 20
-100.709465188725
 30
0.0
 11
-638.512909317197
 21
-100.709450914498
 31
0.0
  0
LINE
  5
    2A
  8
0
  6
CONTINUOUS
 62
     7
 10
-627.354361700739
 20
-143.509465490141
 30
0.0
 11
-638.512909317196
 21
-143.509450074846
 31
0.0
  0
LINE
  5
    2B
  8
0
  6
CONTINUOUS
 62
     7
 10
-636.512909317198
 20
-100.709453004746
 30
0.0
 11
-636.512909317198
 21
-143.509452837803
 31
0.0
  0
LINE
  5
    2C
  8
0
  6
CONTINUOUS
 62
     7
 10
-635.991964887246
 20
-103.663876281953
 30
0.0
 11
-636.512909317198
 21
-100.709453004746
 31
0.0
  0
LINE
  5
    2D
  8
0
  6
CONTINUOUS
 62
     7
 10
-636.512909317198
 20
-100.709453004746
 30
0.0
 11
-637.033853747149
 21
-103.663876281953
 31
0.0
  0
LINE
  5
    2E
  8
0
  6
CONTINUOUS
 62
     7
 10
-637.033853747149
 20
-140.555029560596
 30
0.0
 11
-636.512909317198
 21
-143.509452837803
 31
0.0
  0
LINE
  5
    2F
  8
0
  6
CONTINUOUS
 62
     7
 10
-636.512909317198
 20
-143.509452837803
 30
0.0
 11
-635.991964887246
 21
-140.555029560596
 31
0.0
  0
ENDBLK
  5
    30
  8
0
  6
CONTINUOUS
 62
     7
  0
BLOCK
  5
    31
  8
0
  6
CONTINUOUS
 62
     7
  2
*HATCH44
 70
    65
 10
0.0
 20
0.0
 30
0.0
  3
*HATCH44
  0
LINE
  5
    32
  8
0
  6
CONTINUOUS
 62
   210
 10
222.237121582031
 20
-22.8331680297852
 30
0.0
 11
224.403930664063
 21
-24.9999752044678
 31
0.0
  0
LINE
  5
    33
  8
0
  6
CONTINUOUS
 62
   210
 10
223.646575927734
 20
-19.9999771118164
 30
0.0
 11
227.237075805664
 21
-23.5904788970947
 31
0.0
  0
ENDBLK
  5
    34
  8
0
  6
CONTINUOUS
 62
     7
  0
BLOCK
  5
    35
  8
0
  6
CONTINUOUS
 62
     7
  2
*HATCH45
 70
    65
 10
0.0
 20
0.0
 30
0.0
  3
*HATCH45
  0
LINE
  5
    36
  8
0
  6
CONTINUOUS
 62
   210
 10
204.102630615234
 20
-24.9999752044678
 30
0.0
 11
201.237121582031
 21
-27.8654766082764
 31
0.0
  0
LINE
  5
    37
  8
0
  6
CONTINUOUS
 62
   210
 10
205.237121582031
 20
-28.108118057251
 30
0.0
 11
201.237121582031
 21
-32.1081161499023
 31
0.0
  0
LINE
  5
    38
  8
0
  6
CONTINUOUS
 62
   210
 10
205.237121582031
 20
-32.350757598877
 30
0.0
 11
201.237121582031
 21
-36.3507537841797
 31
0.0
  0
LINE
  5
    39
  8
0
  6
CONTINUOUS
 62
   210
 10
205.237121582031
 20
-36.5933952331543
 30
0.0
 11
203.887817382813
 21
-37.9427146911621
 31
0.0
  0
ENDBLK
  5
    3A
  8
0
  6
CONTINUOUS
 62
     7
  0
BLOCK
  5
    3B
  8
0
  6
CONTINUOUS
 62
     7
  2
*HATCH46
 70
    65
 10
0.0
 20
0.0
 30
0.0
  3
*HATCH46
  0
LINE
  5
    3C
  8
0
  6
CONTINUOUS
 62
   210
 10
196.745849609375
 20
-22.797721862793
 30
0.0
 11
198.948104858398
 21
-24.9999752044678
 31
0.0
  0
LINE
  5
    3D
  8
0
  6
CONTINUOUS
 62
   210
 10
198.19075012207
 20
-19.9999771118164
 30
0.0
 11
203.190734863281
 21
-24.9999752044678
 31
0.0
  0
LINE
  5
    3E
  8
0
  6
CONTINUOUS
 62
   210
 10
202.433395385742
 20
-19.9999771118164
 30
0.0
 11
207.433380126953
 21
-24.9999752044678
 31
0.0
  0
LINE
  5
    3F
  8
0
  6
CONTINUOUS
 62
   210
 10
206.676040649414
 20
-19.9999771118164
 30
0.0
 11
211.676025390625
 21
-24.9999752044678
 31
0.0
  0
LINE
  5
    40
  8
0
  6
CONTINUOUS
 62
   210
 10
210.918670654297
 20
-19.9999771118164
 30
0.0
 11
212.237121582031
 21
-21.3184394836426
 31
0.0
  0
ENDBLK
  5
    41
  8
0
  6
CONTINUOUS
 62
     7
  0
BLOCK
  5
    42
  8
0
  6
CONTINUOUS
 62
     7
  2
*HATCH47
 70
    65
 10
0.0
 20
0.0
 30
0.0
  3
*HATCH47
  0
LINE
  5
    43
  8
0
  6
CONTINUOUS
 62
   210
 10
198.4345703125
 20
-13.6974716186523
 30
0.0
 11
196.745849609375
 21
-15.3861865997314
 31
0.0
  0
LINE
  5
    44
  8
0
  6
CONTINUOUS
 62
   210
 10
199.737075805664
 20
-16.6376056671143
 30
0.0
 11
196.745849609375
 21
-19.6288280487061
 31
0.0
  0
ENDBLK
  5
    45
  8
0
  6
CONTINUOUS
 62
     7
  0
BLOCK
  5
    46
  8
0
  6
CONTINUOUS
 62
     7
  2
*HATCH48
 70
    65
 10
0.0
 20
0.0
 30
0.0
  3
*HATCH48
  0
LINE
  5
    47
  8
0
  6
CONTINUOUS
 62
   210
 10
-10.7629241943359
 20
-21.0568885803223
 30
0.0
 11
-6.81984090805054
 21
-24.9999752044678
 31
0.0
  0
LINE
  5
    48
  8
0
  6
CONTINUOUS
 62
   210
 10
-7.57719612121582
 20
-19.9999771118164
 30
0.0
 11
-5.86297512054443
 21
-21.7141990661621
 31
0.0
  0
ENDBLK
  5
    49
  8
0
  6
CONTINUOUS
 62
     7
  0
BLOCK
  5
    4A
  8
0
  6
CONTINUOUS
 62
     7
  2
*HATCH49
 70
    65
 10
0.0
 20
0.0
 30
0.0
  3
*HATCH49
  0
LINE
  5
    4B
  8
0
  6
CONTINUOUS
 62
   210
 10
4.3370246887207
 20
-21.3076019287109
 30
0.0
 11
8.02939128875732
 21
-24.9999752044678
 31
0.0
  0
LINE
  5
    4C
  8
0
  6
CONTINUOUS
 62
   210
 10
7.27203750610352
 20
-19.9999771118164
 30
0.0
 11
12.2720289230347
 21
-24.9999752044678
 31
0.0
  0
LINE
  5
    4D
  8
0
  6
CONTINUOUS
 62
   210
 10
11.5146751403809
 20
-19.9999771118164
 30
0.0
 11
16.5146675109863
 21
-24.9999752044678
 31
0.0
  0
LINE
  5
    4E
  8
0
  6
CONTINUOUS
 62
   210
 10
15.7573137283325
 20
-19.9999771118164
 30
0.0
 11
19.7282981872559
 21
-23.9709663391113
 31
0.0
  0
ENDBLK
  5
    4F
  8
0
  6
CONTINUOUS
 62
     7
  0
BLOCK
  5
    50
  8
0
  6
CONTINUOUS
 62
     7
  2
*HATCH50
 70
    65
 10
0.0
 20
0.0
 30
0.0
  3
*HATCH50
  0
LINE
  5
    51
  8
0
  6
CONTINUOUS
 62
   210
 10
14.9705638885498
 20
-1.99999904632568
 30
0.0
 11
14.237024307251
 21
-2.73353862762451
 31
0.0
  0
LINE
  5
    52
  8
0
  6
CONTINUOUS
 62
   210
 10
18.237024307251
 20
-2.97617936134338
 30
0.0
 11
14.237024307251
 21
-6.9761791229248
 31
0.0
  0
LINE
  5
    53
  8
0
  6
CONTINUOUS
 62
   210
 10
18.237024307251
 20
-7.21882009506226
 30
0.0
 11
14.237024307251
 21
-11.2188205718994
 31
0.0
  0
LINE
  5
    54
  8
0
  6
CONTINUOUS
 62
   210
 10
18.237024307251
 20
-11.4614601135254
 30
0.0
 11
14.237024307251
 21
-15.461462020874
 31
0.0
  0
LINE
  5
    55
  8
0
  6
CONTINUOUS
 62
   210
 10
18.237024307251
 20
-15.7041015625
 30
0.0
 11
14.237024307251
 21
-19.7041034698486
 31
0.0
  0
LINE
  5
    56
  8
0
  6
CONTINUOUS
 62
   210
 10
18.237024307251
 20
-19.946741104126
 30
0.0
 11
18.1837902069092
 21
-19.9999771118164
 31
0.0
  0
ENDBLK
  5
    57
  8
0
  6
CONTINUOUS
 62
     7
  0
BLOCK
  5
    58
  8
0
  6
CONTINUOUS
 62
     7
  2
*HATCH51
 70
    65
 10
0.0
 20
0.0
 30
0.0
  3
*HATCH51
  0
LINE
  5
    59
  8
0
  6
CONTINUOUS
 62
   210
 10
15.237024307251
 20
-25.0680618286133
 30
0.0
 11
11.237024307251
 21
-29.0680618286133
 31
0.0
  0
LINE
  5
    5A
  8
0
  6
CONTINUOUS
 62
   210
 10
15.237024307251
 20
-29.3107032775879
 30
0.0
 11
11.237024307251
 21
-33.3107032775879
 31
0.0
  0
LINE
  5
    5B
  8
0
  6
CONTINUOUS
 62
   210
 10
15.237024307251
 20
-33.5533447265625
 30
0.0
 11
11.237024307251
 21
-37.5533409118652
 31
0.0
  0
LINE
  5
    5C
  8
0
  6
CONTINUOUS
 62
   210
 10
15.237024307251
 20
-37.7959823608398
 30
0.0
 11
11.7791585922241
 21
-41.253849029541
 31
0.0
  0
ENDBLK
  5
    5D
  8
0
  6
CONTINUOUS
 62
     7
  0
BLOCK
  5
    5E
  8
0
  6
CONTINUOUS
 62
     7
  2
*HATCH52
 70
    65
 10
0.0
 20
0.0
 30
0.0
  3
*HATCH52
  0
LINE
  5
    5F
  8
0
  6
CONTINUOUS
 62
    52
 10
187.863540649414
 20
-106.999984741211
 30
0.0
 11
185.863540649414
 21
-108.999984741211
 31
0.0
  0
LINE
  5
    60
  8
0
  6
CONTINUOUS
 62
    52
 10
192.106185913086
 20
-106.999984741211
 30
0.0
 11
190.106185913086
 21
-108.999984741211
 31
0.0
  0
LINE
  5
    61
  8
0
  6
CONTINUOUS
 62
    52
 10
196.348831176758
 20
-106.999984741211
 30
0.0
 11
194.348831176758
 21
-108.999984741211
 31
0.0
  0
LINE
  5
    62
  8
0
  6
CONTINUOUS
 62
    52
 10
200.59147644043
 20
-106.999984741211
 30
0.0
 11
198.59147644043
 21
-108.999984741211
 31
0.0
  0
LINE
  5
    63
  8
0
  6
CONTINUOUS
 62
    52
 10
204.834121704102
 20
-106.999984741211
 30
0.0
 11
202.834121704102
 21
-108.999984741211
 31
0.0
  0
LINE
  5
    64
  8
0
  6
CONTINUOUS
 62
    52
 10
209.076766967773
 20
-106.999984741211
 30
0.0
 11
207.076766967773
 21
-108.999984741211
 31
0.0
  0
LINE
  5
    65
  8
0
  6
CONTINUOUS
 62
    52
 10
213.319412231445
 20
-106.999984741211
 30
0.0
 11
211.319412231445
 21
-108.999984741211
 31
0.0
  0
LINE
  5
    66
  8
0
  6
CONTINUOUS
 62
    52
 10
217.562057495117
 20
-106.999984741211
 30
0.0
 11
215.562057495117
 21
-108.999984741211
 31
0.0
  0
LINE
  5
    67
  8
0
  6
CONTINUOUS
 62
    52
 10
221.804702758789
 20
-106.999984741211
 30
0.0
 11
219.804702758789
 21
-108.999984741211
 31
0.0
  0
LINE
  5
    68
  8
0
  6
CONTINUOUS
 62
    52
 10
226.047348022461
 20
-106.999984741211
 30
0.0
 11
224.047348022461
 21
-108.999984741211
 31
0.0
  0
LINE
  5
    69
  8
0
  6
CONTINUOUS
 62
    52
 10
230.289993286133
 20
-106.999984741211
 30
0.0
 11
228.289993286133
 21
-108.999984741211
 31
0.0
  0
LINE
  5
    6A
  8
0
  6
CONTINUOUS
 62
    52
 10
234.532638549805
 20
-106.999984741211
 30
0.0
 11
232.532638549805
 21
-108.999984741211
 31
0.0
  0
LINE
  5
    6B
  8
0
  6
CONTINUOUS
 62
    52
 10
238.775283813477
 20
-106.999984741211
 30
0.0
 11
236.775283813477
 21
-108.999984741211
 31
0.0
  0
LINE
  5
    6C
  8
0
  6
CONTINUOUS
 62
    52
 10
243.017929077148
 20
-106.999984741211
 30
0.0
 11
241.017929077148
 21
-108.999984741211
 31
0.0
  0
LINE
  5
    6D
  8
0
  6
CONTINUOUS
 62
    52
 10
247.26057434082
 20
-106.999984741211
 30
0.0
 11
245.26057434082
 21
-108.999984741211
 31
0.0
  0
LINE
  5
    6E
  8
0
  6
CONTINUOUS
 62
    52
 10
251.503219604492
 20
-106.999984741211
 30
0.0
 11
249.503219604492
 21
-108.999984741211
 31
0.0
  0
LINE
  5
    6F
  8
0
  6
CONTINUOUS
 62
    52
 10
255.745864868164
 20
-106.999984741211
 30
0.0
 11
253.745864868164
 21
-108.999984741211
 31
0.0
  0
LINE
  5
    70
  8
0
  6
CONTINUOUS
 62
    52
 10
259.281341552734
 20
-107.707077026367
 30
0.0
 11
257.988433837891
 21
-108.999984741211
 31
0.0
  0
ENDBLK
  5
    71
  8
0
  6
CONTINUOUS
 62
     7
  0
BLOCK
  5
    72
  8
0
  6
CONTINUOUS
 62
     7
  2
*HATCH53
 70
    65
 10
0.0
 20
0.0
 30
0.0
  3
*HATCH53
  0
LINE
  5
    73
  8
0
  6
CONTINUOUS
 62
    52
 10
168.771667480469
 20
-106.999984741211
 30
0.0
 11
166.771667480469
 21
-108.999984741211
 31
0.0
  0
LINE
  5
    74
  8
0
  6
CONTINUOUS
 62
    52
 10
173.014312744141
 20
-106.999984741211
 30
0.0
 11
171.014312744141
 21
-108.999984741211
 31
0.0
  0
LINE
  5
    75
  8
0
  6
CONTINUOUS
 62
    52
 10
177.256958007812
 20
-106.999984741211
 30
0.0
 11
175.256958007813
 21
-108.999984741211
 31
0.0
  0
ENDBLK
  5
    76
  8
0
  6
CONTINUOUS
 62
     7
  0
BLOCK
  5
    77
  8
0
  6
CONTINUOUS
 62
     7
  2
*HATCH54
 70
    65
 10
0.0
 20
0.0
 30
0.0
  3
*HATCH54
  0
LINE
  5
    78
  8
0
  6
CONTINUOUS
 62
    52
 10
45.7350769042969
 20
-106.999984741211
 30
0.0
 11
43.7350769042969
 21
-108.999984741211
 31
0.0
  0
LINE
  5
    79
  8
0
  6
CONTINUOUS
 62
    52
 10
49.9777145385742
 20
-106.999984741211
 30
0.0
 11
47.9777145385742
 21
-108.999984741211
 31
0.0
  0
LINE
  5
    7A
  8
0
  6
CONTINUOUS
 62
    52
 10
53.9806251525879
 20
-107.239715576172
 30
0.0
 11
52.2203598022461
 21
-108.999984741211
 31
0.0
  0
ENDBLK
  5
    7B
  8
0
  6
CONTINUOUS
 62
     7
  0
BLOCK
  5
    7C
  8
0
  6
CONTINUOUS
 62
     7
  2
*HATCH55
 70
    65
 10
0.0
 20
0.0
 30
0.0
  3
*HATCH55
  0
LINE
  5
    7D
  8
0
  6
CONTINUOUS
 62
    52
 10
-41.2390594482422
 20
-106.999984741211
 30
0.0
 11
-43.2390594482422
 21
-108.999984741211
 31
0.0
  0
LINE
  5
    7E
  8
0
  6
CONTINUOUS
 62
    52
 10
-36.9964218139648
 20
-106.999984741211
 30
0.0
 11
-38.9964218139648
 21
-108.999984741211
 31
0.0
  0
LINE
  5
    7F
  8
0
  6
CONTINUOUS
 62
    52
 10
-32.7537841796875
 20
-106.999984741211
 30
0.0
 11
-34.7537841796875
 21
-108.999984741211
 31
0.0
  0
LINE
  5
    80
  8
0
  6
CONTINUOUS
 62
    52
 10
-28.5111427307129
 20
-106.999984741211
 30
0.0
 11
-30.5111446380615
 21
-108.999984741211
 31
0.0
  0
LINE
  5
    81
  8
0
  6
CONTINUOUS
 62
    52
 10
-24.2685012817383
 20
-106.999984741211
 30
0.0
 11
-26.2685031890869
 21
-108.999984741211
 31
0.0
  0
LINE
  5
    82
  8
0
  6
CONTINUOUS
 62
    52
 10
-20.0258598327637
 20
-106.999984741211
 30
0.0
 11
-22.0258617401123
 21
-108.999984741211
 31
0.0
  0
LINE
  5
    83
  8
0
  6
CONTINUOUS
 62
    52
 10
-15.7832183837891
 20
-106.999984741211
 30
0.0
 11
-17.7832202911377
 21
-108.999984741211
 31
0.0
  0
LINE
  5
    84
  8
0
  6
CONTINUOUS
 62
    52
 10
-11.5405769348145
 20
-106.999984741211
 30
0.0
 11
-13.5405788421631
 21
-108.999984741211
 31
0.0
  0
LINE
  5
    85
  8
0
  6
CONTINUOUS
 62
    52
 10
-7.297935962677
 20
-106.999984741211
 30
0.0
 11
-9.29793739318848
 21
-108.999984741211
 31
0.0
  0
LINE
  5
    86
  8
0
  6
CONTINUOUS
 62
    52
 10
-3.05529546737671
 20
-106.999984741211
 30
0.0
 11
-5.05529689788818
 21
-108.999984741211
 31
0.0
  0
LINE
  5
    87
  8
0
  6
CONTINUOUS
 62
    52
 10
1.18734502792358
 20
-106.999984741211
 30
0.0
 11
-0.812656402587891
 21
-108.999984741211
 31
0.0
  0
LINE
  5
    88
  8
0
  6
CONTINUOUS
 62
    52
 10
5.42998552322388
 20
-106.999984741211
 30
0.0
 11
3.4299840927124
 21
-108.999984741211
 31
0.0
  0
LINE
  5
    89
  8
0
  6
CONTINUOUS
 62
    52
 10
9.67262649536133
 20
-106.999984741211
 30
0.0
 11
7.6726245880127
 21
-108.999984741211
 31
0.0
  0
LINE
  5
    8A
  8
0
  6
CONTINUOUS
 62
    52
 10
13.9152679443359
 20
-106.999984741211
 30
0.0
 11
11.9152660369873
 21
-108.999984741211
 31
0.0
  0
LINE
  5
    8B
  8
0
  6
CONTINUOUS
 62
    52
 10
18.1579093933105
 20
-106.999984741211
 30
0.0
 11
16.1579074859619
 21
-108.999984741211
 31
0.0
  0
LINE
  5
    8C
  8
0
  6
CONTINUOUS
 62
    52
 10
22.4005508422852
 20
-106.999984741211
 30
0.0
 11
20.4005489349365
 21
-108.999984741211
 31
0.0
  0
LINE
  5
    8D
  8
0
  6
CONTINUOUS
 62
    52
 10
26.6431922912598
 20
-106.999984741211
 30
0.0
 11
24.6431903839111
 21
-108.999984741211
 31
0.0
  0
LINE
  5
    8E
  8
0
  6
CONTINUOUS
 62
    52
 10
30.8858337402344
 20
-106.999984741211
 30
0.0
 11
28.8858318328857
 21
-108.999984741211
 31
0.0
  0
LINE
  5
    8F
  8
0
  6
CONTINUOUS
 62
    52
 10
35.1284713745117
 20
-106.999984741211
 30
0.0
 11
33.1284713745117
 21
-108.999984741211
 31
0.0
  0
ENDBLK
  5
    90
  8
0
  6
CONTINUOUS
 62
     7
  0
BLOCK
  5
    91
  8
0
  6
CONTINUOUS
 62
     2
  2
*HATCH56
 70
    65
 10
0.0
 20
0.0
 30
0.0
  3
*HATCH56
  0
LINE
  5
    92
  8
0
  6
CONTINUOUS
 62
   210
 10
-6.47205352783203
 20
-19.1999740600586
 30
0.0
 11
-7.27205371856689
 21
-19.9999752044678
 31
0.0
  0
ENDBLK
  5
    93
  8
0
  6
CONTINUOUS
 62
     2
  0
BLOCK
  5
    94
  8
0
  6
CONTINUOUS
 62
     2
  2
*HATCH57
 70
    65
 10
0.0
 20
0.0
 30
0.0
  3
*HATCH57
  0
LINE
  5
    95
  8
0
  6
CONTINUOUS
 62
   210
 10
8.23702430725098
 20
-19.3401393890381
 30
0.0
 11
7.57718944549561
 21
-19.9999752044678
 31
0.0
  0
ENDBLK
  5
    96
  8
0
  6
CONTINUOUS
 62
     2
  0
BLOCK
  5
    97
  8
0
  6
CONTINUOUS
 62
     7
  2
*HATCH58
 70
    65
 10
0.0
 20
0.0
 30
0.0
  3
*HATCH58
  0
LINE
  5
    98
  8
0
  6
CONTINUOUS
 62
    52
 10
-64.3416900634766
 20
-99.0
 30
0.0
 11
-61.8417053222656
 21
-101.499984741211
 31
0.0
  0
LINE
  5
    99
  8
0
  6
CONTINUOUS
 62
    52
 10
-60.0990524291992
 20
-99.0
 30
0.0
 11
-57.5990676879883
 21
-101.499984741211
 31
0.0
  0
LINE
  5
    9A
  8
0
  6
CONTINUOUS
 62
    52
 10
-55.8564147949219
 20
-99.0
 30
0.0
 11
-53.3564300537109
 21
-101.499984741211
 31
0.0
  0
LINE
  5
    9B
  8
0
  6
CONTINUOUS
 62
    52
 10
-51.6137771606445
 20
-99.0
 30
0.0
 11
-49.1137924194336
 21
-101.499984741211
 31
0.0
  0
LINE
  5
    9C
  8
0
  6
CONTINUOUS
 62
    52
 10
-49.4924545288086
 20
-99.0
 30
0.0
 11
-46.9924736022949
 21
-101.499984741211
 31
0.0
  0
LINE
  5
    9D
  8
0
  6
CONTINUOUS
 62
    52
 10
-47.3711357116699
 20
-99.0
 30
0.0
 11
-44.8711547851563
 21
-101.499984741211
 31
0.0
  0
LINE
  5
    9E
  8
0
  6
CONTINUOUS
 62
    52
 10
-46.7128601074219
 20
-97.5369567871094
 30
0.0
 11
-42.7498359680176
 21
-101.499984741211
 31
0.0
  0
LINE
  5
    9F
  8
0
  6
CONTINUOUS
 62
    52
 10
-46.7128601074219
 20
-95.4156341552734
 30
0.0
 11
-44.7128601074219
 21
-97.4156341552735
 31
0.0
  0
LINE
  5
    A0
  8
0
  6
CONTINUOUS
 62
    52
 10
-57.0071754455566
 20
-82.9999847412109
 30
0.0
 11
-55.0071754455566
 21
-84.9999847412109
 31
0.0
  0
LINE
  5
    A1
  8
0
  6
CONTINUOUS
 62
    52
 10
-41.0071792602539
 20
-99.0
 30
0.0
 11
-38.5071983337402
 21
-101.499984741211
 31
0.0
  0
LINE
  5
    A2
  8
0
  6
CONTINUOUS
 62
    52
 10
-46.7128601074219
 20
-91.1729888916016
 30
0.0
 11
-44.7128601074219
 21
-93.1729888916016
 31
0.0
  0
LINE
  5
    A3
  8
0
  6
CONTINUOUS
 62
    52
 10
-52.7645378112793
 20
-82.9999847412109
 30
0.0
 11
-50.7645378112793
 21
-84.9999847412109
 31
0.0
  0
LINE
  5
    A4
  8
0
  6
CONTINUOUS
 62
    52
 10
-36.7645416259766
 20
-99.0
 30
0.0
 11
-34.2645606994629
 21
-101.499984741211
 31
0.0
  0
LINE
  5
    A5
  8
0
  6
CONTINUOUS
 62
    52
 10
-46.7128601074219
 20
-86.9303436279297
 30
0.0
 11
-44.7128601074219
 21
-88.9303436279297
 31
0.0
  0
LINE
  5
    A6
  8
0
  6
CONTINUOUS
 62
    52
 10
-48.5218963623047
 20
-82.9999847412109
 30
0.0
 11
-44.7128601074219
 21
-86.8090286254883
 31
0.0
  0
LINE
  5
    A7
  8
0
  6
CONTINUOUS
 62
    52
 10
-46.400577545166
 20
-82.9999847412109
 30
0.0
 11
-44.7128601074219
 21
-84.6877059936523
 31
0.0
  0
LINE
  5
    A8
  8
0
  6
CONTINUOUS
 62
    52
 10
-28.2792644500732
 20
-99.0
 30
0.0
 11
-25.7792835235596
 21
-101.499984741211
 31
0.0
  0
LINE
  5
    A9
  8
0
  6
CONTINUOUS
 62
    52
 10
-25.7128601074219
 20
-97.3237686157227
 30
0.0
 11
-21.5366439819336
 21
-101.499984741211
 31
0.0
  0
LINE
  5
    AA
  8
0
  6
CONTINUOUS
 62
    52
 10
-21.9153079986572
 20
-99.0
 30
0.0
 11
-19.4153251647949
 21
-101.499984741211
 31
0.0
  0
LINE
  5
    AB
  8
0
  6
CONTINUOUS
 62
    52
 10
-19.7939891815186
 20
-99.0
 30
0.0
 11
-17.2940063476563
 21
-101.499984741211
 31
0.0
  0
LINE
  5
    AC
  8
0
  6
CONTINUOUS
 62
    52
 10
-17.6726703643799
 20
-99.0
 30
0.0
 11
-15.1726875305176
 21
-101.499984741211
 31
0.0
  0
LINE
  5
    AD
  8
0
  6
CONTINUOUS
 62
    52
 10
-15.5513515472412
 20
-99.0
 30
0.0
 11
-13.0513687133789
 21
-101.499984741211
 31
0.0
  0
LINE
  5
    AE
  8
0
  6
CONTINUOUS
 62
    52
 10
-13.4300327301025
 20
-99.0
 30
0.0
 11
-10.9300498962402
 21
-101.499984741211
 31
0.0
  0
LINE
  5
    AF
  8
0
  6
CONTINUOUS
 62
    52
 10
-11.3087139129639
 20
-99.0
 30
0.0
 11
-8.80873107910156
 21
-101.499984741211
 31
0.0
  0
LINE
  5
    B0
  8
0
  6
CONTINUOUS
 62
    52
 10
-9.18739318847656
 20
-99.0
 30
0.0
 11
-6.68741178512573
 21
-101.499984741211
 31
0.0
  0
LINE
  5
    B1
  8
0
  6
CONTINUOUS
 62
    52
 10
-7.06607437133789
 20
-99.0
 30
0.0
 11
-4.5660924911499
 21
-101.499984741211
 31
0.0
  0
LINE
  5
    B2
  8
0
  6
CONTINUOUS
 62
    52
 10
-4.94475555419922
 20
-99.0
 30
0.0
 11
-2.44477367401123
 21
-101.499984741211
 31
0.0
  0
LINE
  5
    B3
  8
0
  6
CONTINUOUS
 62
    52
 10
-2.82343649864197
 20
-99.0
 30
0.0
 11
-0.323454618453979
 21
-101.499984741211
 31
0.0
  0
LINE
  5
    B4
  8
0
  6
CONTINUOUS
 62
    52
 10
-0.702117443084717
 20
-99.0
 30
0.0
 11
1.79786443710327
 21
-101.499984741211
 31
0.0
  0
LINE
  5
    B5
  8
0
  6
CONTINUOUS
 62
    52
 10
1.41920161247253
 20
-99.0
 30
0.0
 11
3.91918349266052
 21
-101.499984741211
 31
0.0
  0
LINE
  5
    B6
  8
0
  6
CONTINUOUS
 62
    52
 10
3.54052066802979
 20
-99.0
 30
0.0
 11
5.04050350189209
 21
-100.499984741211
 31
0.0
  0
LINE
  5
    B7
  8
0
  6
CONTINUOUS
 62
    52
 10
-22.9628601074219
 20
-68.2539443969727
 30
0.0
 11
-20.9628601074219
 21
-70.2539443969727
 31
0.0
  0
LINE
  5
    B8
  8
0
  6
CONTINUOUS
 62
    52
 10
-22.9628601074219
 20
-66.1326217651367
 30
0.0
 11
-20.9628601074219
 21
-68.1326217651367
 31
0.0
  0
LINE
  5
    B9
  8
0
  6
CONTINUOUS
 62
    52
 10
-22.9628601074219
 20
-61.8899765014648
 30
0.0
 11
-20.9628601074219
 21
-63.8899765014648
 31
0.0
  0
LINE
  5
    BA
  8
0
  6
CONTINUOUS
 62
    52
 10
-20.6102123260498
 20
-59.9999847412109
 30
0.0
 11
-18.9628601074219
 21
-61.6473388671875
 31
0.0
  0
ENDBLK
  5
    BB
  8
0
  6
CONTINUOUS
 62
     7
  0
BLOCK
  5
    BC
  8
0
  6
CONTINUOUS
 62
     2
  2
*HATCH59
 70
    65
 10
0.0
 20
0.0
 30
0.0
  3
*HATCH59
  0
LINE
  5
    BD
  8
0
  6
CONTINUOUS
 62
    52
 10
225.315841674805
 20
-24.9999752044678
 30
0.0
 11
222.237121582031
 21
-28.0786819458008
 31
0.0
  0
LINE
  5
    BE
  8
0
  6
CONTINUOUS
 62
    52
 10
228.237121582031
 20
-26.3213214874268
 30
0.0
 11
223.358474731445
 21
-31.1999740600586
 31
0.0
  0
LINE
  5
    BF
  8
0
  6
CONTINUOUS
 62
    52
 10
228.237121582031
 20
-30.5639629364014
 30
0.0
 11
227.601119995117
 21
-31.1999740600586
 31
0.0
  0
ENDBLK
  5
    C0
  8
0
  6
CONTINUOUS
 62
     2
  0
BLOCK
  5
    C1
  8
0
  6
CONTINUOUS
 62
     2
  2
*HATCH60
 70
    65
 10
0.0
 20
0.0
 30
0.0
  3
*HATCH60
  0
LINE
  5
    C2
  8
0
  6
CONTINUOUS
 62
    92
 10
212.237121582031
 20
-25.3507595062256
 30
0.0
 11
206.387908935547
 21
-31.1999740600586
 31
0.0
  0
ENDBLK
  5
    C3
  8
0
  6
CONTINUOUS
 62
     2
  0
BLOCK
  5
    C4
  8
0
  6
CONTINUOUS
 62
     2
  2
*HATCH61
 70
    65
 10
0.0
 20
0.0
 30
0.0
  3
*HATCH61
  0
LINE
  5
    C5
  8
0
  6
CONTINUOUS
 62
    52
 10
228.237121582031
 20
-53.8984870910645
 30
0.0
 11
226.737121582031
 21
-55.3984870910645
 31
0.0
  0
LINE
  5
    C6
  8
0
  6
CONTINUOUS
 62
    52
 10
228.237121582031
 20
-58.1411247253418
 30
0.0
 11
226.878280639648
 21
-59.4999732971191
 31
0.0
  0
ENDBLK
  5
    C7
  8
0
  6
CONTINUOUS
 62
     2
  0
BLOCK
  5
    C8
  8
0
  6
CONTINUOUS
 62
     2
  2
*HATCH62
 70
    65
 10
0.0
 20
0.0
 30
0.0
  3
*HATCH62
  0
LINE
  5
    C9
  8
0
  6
CONTINUOUS
 62
    52
 10
207.737121582031
 20
-53.1852798461914
 30
0.0
 11
206.237121582031
 21
-54.6852798461914
 31
0.0
  0
LINE
  5
    CA
  8
0
  6
CONTINUOUS
 62
    52
 10
207.737121582031
 20
-57.427921295166
 30
0.0
 11
206.906753540039
 21
-58.2582893371582
 31
0.0
  0
ENDBLK
  5
    CB
  8
0
  6
CONTINUOUS
 62
     2
  0
BLOCK
  5
    CC
  8
0
  6
CONTINUOUS
 62
     2
  2
*HATCH63
 70
    65
 10
0.0
 20
0.0
 30
0.0
  3
*HATCH63
  0
LINE
  5
    CD
  8
0
  6
CONTINUOUS
 62
   210
 10
224.751876831055
 20
-19.1999740600586
 30
0.0
 11
223.951873779297
 21
-19.9999752044678
 31
0.0
  0
ENDBLK
  5
    CE
  8
0
  6
CONTINUOUS
 62
     2
  0
BLOCK
  5
    CF
  8
0
  6
CONTINUOUS
 62
     2
  2
*HATCH64
 70
    65
 10
0.0
 20
0.0
 30
0.0
  3
*HATCH64
  0
LINE
  5
    D0
  8
0
  6
CONTINUOUS
 62
   210
 10
211.987121582031
 20
-19.2367973327637
 30
0.0
 11
211.22395324707
 21
-19.9999752044678
 31
0.0
  0
ENDBLK
  5
    D1
  8
0
  6
CONTINUOUS
 62
     2
  0
BLOCK
  5
    D2
  8
0
  6
CONTINUOUS
 62
   218
  2
*HATCH65
 70
    65
 10
0.0
 20
0.0
 30
0.0
  3
*HATCH65
  0
LINE
  5
    D3
  8
0
  6
CONTINUOUS
 62
     3
 10
258.517517089844
 20
-41.6493148803711
 30
0.0
 11
255.32536315918
 21
-44.8414764404297
 31
0.0
  0
LINE
  5
    D4
  8
0
  6
CONTINUOUS
 62
     3
 10
259.376983642578
 20
-42.9111747741699
 30
0.0
 11
255.119750976563
 21
-47.1684112548828
 31
0.0
  0
LINE
  5
    D5
  8
0
  6
CONTINUOUS
 62
     3
 10
259.853363037109
 20
-44.5561141967773
 30
0.0
 11
255.291732788086
 21
-49.1177368164063
 31
0.0
  0
LINE
  5
    D6
  8
0
  6
CONTINUOUS
 62
     3
 10
260.079559326172
 20
-46.451229095459
 30
0.0
 11
255.712554931641
 21
-50.8182487487793
 31
0.0
  0
LINE
  5
    D7
  8
0
  6
CONTINUOUS
 62
     3
 10
260.023498535156
 20
-48.6286239624024
 30
0.0
 11
256.427703857422
 21
-52.2243995666504
 31
0.0
  0
LINE
  5
    D8
  8
0
  6
CONTINUOUS
 62
     3
 10
259.1806640625
 20
-51.5927658081055
 30
0.0
 11
257.917083740234
 21
-52.8563690185547
 31
0.0
  0
ENDBLK
  5
    D9
  8
0
  6
CONTINUOUS
 62
   218
  0
BLOCK
  5
    DA
  8
0
  6
CONTINUOUS
 62
     7
  2
*HATCH66
 70
    65
 10
0.0
 20
0.0
 30
0.0
  3
*HATCH66
  0
LINE
  5
    DB
  8
0
  6
CONTINUOUS
 62
     3
 10
-74.8167343139648
 20
-39.8149452209473
 30
0.0
 11
-77.144775390625
 21
-42.1429862976074
 31
0.0
  0
LINE
  5
    DC
  8
0
  6
CONTINUOUS
 62
     3
 10
-74.0280303955078
 20
-41.1475639343262
 30
0.0
 11
-77.3704833984375
 21
-44.4900131225586
 31
0.0
  0
LINE
  5
    DD
  8
0
  6
CONTINUOUS
 62
     3
 10
-73.6418685913086
 20
-42.8827171325684
 30
0.0
 11
-77.2279510498047
 21
-46.4688034057617
 31
0.0
  0
LINE
  5
    DE
  8
0
  6
CONTINUOUS
 62
     3
 10
-73.5385284423828
 20
-44.9006996154785
 30
0.0
 11
-76.7624053955078
 21
-48.1245803833008
 31
0.0
  0
LINE
  5
    DF
  8
0
  6
CONTINUOUS
 62
     3
 10
-73.8914108276367
 20
-47.3748970031738
 30
0.0
 11
-75.8667755126953
 21
-49.3502616882324
 31
0.0
  0
ENDBLK
  5
    E0
  8
0
  6
CONTINUOUS
 62
     7
  0
BLOCK
  5
    E1
  8
0
  6
CONTINUOUS
 62
     7
  2
*HATCH67
 70
    65
 10
0.0
 20
0.0
 30
0.0
  3
*HATCH67
  0
LINE
  5
    E2
  8
0
  6
CONTINUOUS
 62
     3
 10
-74.6894378662109
 20
-61.9615097045898
 30
0.0
 11
-77.2235488891602
 21
-64.4956283569336
 31
0.0
  0
LINE
  5
    E3
  8
0
  6
CONTINUOUS
 62
     3
 10
-73.959831237793
 20
-63.3532257080078
 30
0.0
 11
-77.3704833984375
 21
-66.7638778686523
 31
0.0
  0
LINE
  5
    E4
  8
0
  6
CONTINUOUS
 62
     3
 10
-73.6135482788086
 20
-65.1282577514649
 30
0.0
 11
-77.1847534179688
 21
-68.6994705200195
 31
0.0
  0
LINE
  5
    E5
  8
0
  6
CONTINUOUS
 62
     3
 10
-73.5385284423828
 20
-67.174560546875
 30
0.0
 11
-76.6767272949219
 21
-70.3127593994141
 31
0.0
  0
LINE
  5
    E6
  8
0
  6
CONTINUOUS
 62
     3
 10
-73.9832992553711
 20
-69.7406539916992
 30
0.0
 11
-75.6644515991211
 21
-71.4218063354492
 31
0.0
  0
ENDBLK
  5
    E7
  8
0
  6
CONTINUOUS
 62
     7
  0
BLOCK
  5
    E8
  8
0
  6
CONTINUOUS
 62
     7
  2
*HATCH68
 70
    65
 10
0.0
 20
0.0
 30
0.0
  3
*HATCH68
  0
LINE
  5
    E9
  8
0
  6
CONTINUOUS
 62
    52
 10
-44.0918617248535
 20
-24.9999752044678
 30
0.0
 11
-46.2543754577637
 21
-27.1624908447266
 31
0.0
  0
LINE
  5
    EA
  8
0
  6
CONTINUOUS
 62
    52
 10
-39.8492240905762
 20
-24.9999752044678
 30
0.0
 11
-46.2543754577637
 21
-31.4051284790039
 31
0.0
  0
LINE
  5
    EB
  8
0
  6
CONTINUOUS
 62
    52
 10
-35.6065788269043
 20
-24.9999752044678
 30
0.0
 11
-42.362979888916
 21
-31.7563743591309
 31
0.0
  0
LINE
  5
    EC
  8
0
  6
CONTINUOUS
 62
    52
 10
-31.3639392852783
 20
-24.9999752044678
 30
0.0
 11
-38.1203422546387
 21
-31.7563743591309
 31
0.0
  0
LINE
  5
    ED
  8
0
  6
CONTINUOUS
 62
    52
 10
-27.1212978363037
 20
-24.9999752044678
 30
0.0
 11
-33.8777046203613
 21
-31.7563743591309
 31
0.0
  0
LINE
  5
    EE
  8
0
  6
CONTINUOUS
 62
    52
 10
-22.8786563873291
 20
-24.9999752044678
 30
0.0
 11
-29.6350631713867
 21
-31.7563743591309
 31
0.0
  0
LINE
  5
    EF
  8
0
  6
CONTINUOUS
 62
    52
 10
-18.6360149383545
 20
-24.9999752044678
 30
0.0
 11
-25.3924217224121
 21
-31.7563743591309
 31
0.0
  0
LINE
  5
    F0
  8
0
  6
CONTINUOUS
 62
    52
 10
-14.3933734893799
 20
-24.9999752044678
 30
0.0
 11
-21.1497802734375
 21
-31.7563743591309
 31
0.0
  0
LINE
  5
    F1
  8
0
  6
CONTINUOUS
 62
    52
 10
-10.1507320404053
 20
-24.9999752044678
 30
0.0
 11
-16.9071388244629
 21
-31.7563743591309
 31
0.0
  0
LINE
  5
    F2
  8
0
  6
CONTINUOUS
 62
    52
 10
-5.90809059143066
 20
-24.9999752044678
 30
0.0
 11
-12.6644973754883
 21
-31.7563743591309
 31
0.0
  0
LINE
  5
    F3
  8
0
  6
CONTINUOUS
 62
    52
 10
-5.76297521591187
 20
-29.0974979400635
 30
0.0
 11
-8.42185211181641
 21
-31.7563743591309
 31
0.0
  0
ENDBLK
  5
    F4
  8
0
  6
CONTINUOUS
 62
     7
  0
BLOCK
  5
    F5
  8
0
  6
CONTINUOUS
 62
     7
  2
*HATCH69
 70
    65
 10
0.0
 20
0.0
 30
0.0
  3
*HATCH69
  0
LINE
  5
    F6
  8
0
  6
CONTINUOUS
 62
    52
 10
6.8198299407959
 20
-24.9999752044678
 30
0.0
 11
4.23702478408813
 21
-27.5827808380127
 31
0.0
  0
LINE
  5
    F7
  8
0
  6
CONTINUOUS
 62
    52
 10
10.2352247238159
 20
-25.8272209167481
 30
0.0
 11
4.30607032775879
 21
-31.7563743591309
 31
0.0
  0
LINE
  5
    F8
  8
0
  6
CONTINUOUS
 62
    52
 10
10.2352247238159
 20
-30.0698623657227
 30
0.0
 11
8.5487117767334
 21
-31.7563743591309
 31
0.0
  0
ENDBLK
  5
    F9
  8
0
  6
CONTINUOUS
 62
     7
  0
BLOCK
  5
    FA
  8
0
  6
CONTINUOUS
 62
     7
  2
*HATCH70
 70
    65
 10
0.0
 20
0.0
 30
0.0
  3
*HATCH70
  0
LINE
  5
    FB
  8
0
  6
CONTINUOUS
 62
    52
 10
10.0252733230591
 20
-47.250373840332
 30
0.0
 11
7.23702478408813
 21
-50.0386199951172
 31
0.0
  0
ENDBLK
  5
    FC
  8
0
  6
CONTINUOUS
 62
     7
  0
BLOCK
  5
    FD
  8
0
  6
CONTINUOUS
 62
     7
  2
*HATCH71
 70
    65
 10
0.0
 20
0.0
 30
0.0
  3
*HATCH71
  0
LINE
  5
    FE
  8
0
  6
CONTINUOUS
 62
    52
 10
-43.007740020752
 20
-47.250373840332
 30
0.0
 11
-46.2543754577637
 21
-50.4970092773438
 31
0.0
  0
LINE
  5
    FF
  8
0
  6
CONTINUOUS
 62
    52
 10
-38.7650947570801
 20
-47.250373840332
 30
0.0
 11
-45.2674980163574
 21
-53.7527732849121
 31
0.0
  0
LINE
  5
   100
  8
0
  6
CONTINUOUS
 62
    52
 10
-34.5224571228027
 20
-47.250373840332
 30
0.0
 11
-41.0248603820801
 21
-53.7527732849121
 31
0.0
  0
LINE
  5
   101
  8
0
  6
CONTINUOUS
 62
    52
 10
-30.2798175811768
 20
-47.250373840332
 30
0.0
 11
-36.7822227478027
 21
-53.7527732849121
 31
0.0
  0
LINE
  5
   102
  8
0
  6
CONTINUOUS
 62
    52
 10
-26.0371761322022
 20
-47.250373840332
 30
0.0
 11
-32.5395851135254
 21
-53.7527732849121
 31
0.0
  0
LINE
  5
   103
  8
0
  6
CONTINUOUS
 62
    52
 10
-21.7945346832275
 20
-47.250373840332
 30
0.0
 11
-28.2969436645508
 21
-53.7527732849121
 31
0.0
  0
LINE
  5
   104
  8
0
  6
CONTINUOUS
 62
    52
 10
-23.7499771118164
 20
-51.3271369934082
 30
0.0
 11
-26.1756114959717
 21
-53.7527732849121
 31
0.0
  0
LINE
  5
   105
  8
0
  6
CONTINUOUS
 62
    52
 10
-23.7499771118164
 20
-53.4484558105469
 30
0.0
 11
-24.0542907714844
 21
-53.7527732849121
 31
0.0
  0
LINE
  5
   106
  8
0
  6
CONTINUOUS
 62
    52
 10
-13.309250831604
 20
-47.250373840332
 30
0.0
 11
-16.5604496002197
 21
-50.5015716552734
 31
0.0
  0
LINE
  5
   107
  8
0
  6
CONTINUOUS
 62
    52
 10
-9.06660938262939
 20
-47.250373840332
 30
0.0
 11
-12.3178081512451
 21
-50.5015716552734
 31
0.0
  0
ENDBLK
  5
   108
  8
0
  6
CONTINUOUS
 62
     7
  0
BLOCK
  5
   109
  8
0
  6
CONTINUOUS
 62
     7
  2
*HATCH72
 70
    65
 10
0.0
 20
0.0
 30
0.0
  3
*HATCH72
  0
LINE
  5
   10A
  8
0
  6
CONTINUOUS
 62
    52
 10
-43.7909355163574
 20
-69.2467727661133
 30
0.0
 11
-46.2543754577637
 21
-71.7102127075195
 31
0.0
  0
LINE
  5
   10B
  8
0
  6
CONTINUOUS
 62
    52
 10
-42.9629898071289
 20
-72.6614685058594
 30
0.0
 11
-44.298095703125
 21
-73.9965744018555
 31
0.0
  0
ENDBLK
  5
   10C
  8
0
  6
CONTINUOUS
 62
     7
  0
BLOCK
  5
   10D
  8
0
  6
CONTINUOUS
 62
     7
  2
*HATCH73
 70
    65
 10
0.0
 20
0.0
 30
0.0
  3
*HATCH73
  0
LINE
  5
   10E
  8
0
  6
CONTINUOUS
 62
    52
 10
-24.6990509033203
 20
-69.2467727661133
 30
0.0
 11
-26.9629898071289
 21
-71.5107192993164
 31
0.0
  0
LINE
  5
   10F
  8
0
  6
CONTINUOUS
 62
    52
 10
-23.7499771118164
 20
-72.5403442382813
 30
0.0
 11
-25.2062110900879
 21
-73.9965744018555
 31
0.0
  0
ENDBLK
  5
   110
  8
0
  6
CONTINUOUS
 62
     7
  0
BLOCK
  5
   111
  8
0
  6
CONTINUOUS
 62
     7
  2
*UDIM218
 70
    65
 10
0.0
 20
0.0
 30
0.0
  3
*UDIM218
  0
TEXT
  5
   112
  8
0
  6
CONTINUOUS
 62
     7
 10
-499.468594794434
 20
-93.7668838453174
 30
0.0
 40
3.00000002980232
  1
53,8
 50
359.999999948034
 41
0.933333333333333
 72
     1
 11
-494.16859474043
 21
-92.2668838351965
 31
0.0
 73
     2
  0
LINE
  5
   113
  8
0
  6
CONTINUOUS
 62
     7
 10
-480.455400213798
 20
-61.7135824823552
 30
0.0
 11
-480.455400213798
 21
-96.7668838500977
 31
0.0
  0
LINE
  5
   114
  8
0
  6
CONTINUOUS
 62
     7
 10
-507.331787109375
 20
-83.2619980617963
 30
0.0
 11
-507.331787109375
 21
-96.7668838500977
 31
0.0
  0
LINE
  5
   115
  8
0
  6
CONTINUOUS
 62
     7
 10
-480.455400213798
 20
-94.7668838500977
 30
0.0
 11
-507.331787109375
 21
-94.7668838500977
 31
0.0
  0
LINE
  5
   116
  8
0
  6
CONTINUOUS
 62
     7
 10
-483.409823491005
 20
-95.2878282800493
 30
0.0
 11
-480.455400213798
 21
-94.7668838500977
 31
0.0
  0
LINE
  5
   117
  8
0
  6
CONTINUOUS
 62
     7
 10
-480.455400213798
 20
-94.7668838500977
 30
0.0
 11
-483.409823491005
 21
-94.245939420146
 31
0.0
  0
LINE
  5
   118
  8
0
  6
CONTINUOUS
 62
     7
 10
-504.377363832168
 20
-94.245939420146
 30
0.0
 11
-507.331787109375
 21
-94.7668838500977
 31
0.0
  0
LINE
  5
   119
  8
0
  6
CONTINUOUS
 62
     7
 10
-507.331787109375
 20
-94.7668838500977
 30
0.0
 11
-504.377363832168
 21
-95.2878282800493
 31
0.0
  0
ENDBLK
  5
   11A
  8
0
  6
CONTINUOUS
 62
     7
  0
BLOCK
  5
   11B
  8
0
  6
CONTINUOUS
 62
     7
  2
*UDIM219
 70
    65
 10
0.0
 20
0.0
 30
0.0
  3
*UDIM219
  0
TEXT
  5
   11C
  8
0
  6
CONTINUOUS
 62
     7
 10
-476.994924240372
 20
-85.4464263868213
 30
0.0
 40
3.00000002980232
  1
15,5
 50
359.999999948034
 41
0.933333333333333
 72
     1
 11
-471.694924186369
 21
-83.9464263767004
 31
0.0
 73
     2
  0
TEXT
  5
   11D
  8
0
  6
CONTINUOUS
 62
     7
 10
-479.744924274148
 20
-85.4464263906094
 30
0.0
 40
3.00000002980232
  1
Ø
 50
359.999999948034
 41
0.933333333333334
 72
     1
 11
-478.644924261868
 21
-83.9464263767004
 31
0.0
 73
     2
  0
LINE
  5
   11E
  8
0
  6
CONTINUOUS
 62
     7
 10
-483.706599989732
 20
-61.7135824823552
 30
0.0
 11
-483.706599989732
 21
-88.4464263916016
 31
0.0
  0
LINE
  5
   11F
  8
0
  6
CONTINUOUS
 62
     7
 10
-491.453599792917
 20
-61.7135824823552
 30
0.0
 11
-491.453599792917
 21
-88.4464263916016
 31
0.0
  0
LINE
  5
   120
  8
0
  6
CONTINUOUS
 62
     7
 10
-466.394924133718
 20
-86.4464263916016
 30
0.0
 11
-491.453599792917
 21
-86.4464263916016
 31
0.0
  0
LINE
  5
   121
  8
0
  6
CONTINUOUS
 62
     7
 10
-486.661023266939
 20
-86.9673708215532
 30
0.0
 11
-483.706599989732
 21
-86.4464263916016
 31
0.0
  0
LINE
  5
   122
  8
0
  6
CONTINUOUS
 62
     7
 10
-483.706599989732
 20
-86.4464263916016
 30
0.0
 11
-486.661023266939
 21
-85.9254819616499
 31
0.0
  0
LINE
  5
   123
  8
0
  6
CONTINUOUS
 62
     7
 10
-488.499176515711
 20
-85.9254819616499
 30
0.0
 11
-491.453599792917
 21
-86.4464263916016
 31
0.0
  0
LINE
  5
   124
  8
0
  6
CONTINUOUS
 62
     7
 10
-491.453599792917
 20
-86.4464263916016
 30
0.0
 11
-488.499176515711
 21
-86.9673708215532
 31
0.0
  0
ENDBLK
  5
   125
  8
0
  6
CONTINUOUS
 62
     7
  0
BLOCK
  5
   126
  8
0
  6
CONTINUOUS
 62
     7
  2
*UDIM220
 70
    65
 10
0.0
 20
0.0
 30
0.0
  3
*UDIM220
  0
TEXT
  5
   127
  8
0
  6
CONTINUOUS
 62
     7
 10
-504.255366567236
 20
-85.4464263868213
 30
0.0
 40
3.00000002980232
  1
31,8
 50
359.999999948034
 41
0.933333333333333
 72
     1
 11
-498.955366513232
 21
-83.9464263767004
 31
0.0
 73
     2
  0
LINE
  5
   128
  8
0
  6
CONTINUOUS
 62
     7
 10
-507.331787109375
 20
-83.2619980617963
 30
0.0
 11
-507.331787109375
 21
-88.4464263916016
 31
0.0
  0
LINE
  5
   129
  8
0
  6
CONTINUOUS
 62
     7
 10
-491.453599792917
 20
-86.4464263916016
 30
0.0
 11
-507.331787109375
 21
-86.4464263916016
 31
0.0
  0
LINE
  5
   12A
  8
0
  6
CONTINUOUS
 62
     7
 10
-494.408023070124
 20
-86.9673708215532
 30
0.0
 11
-491.453599792917
 21
-86.4464263916016
 31
0.0
  0
LINE
  5
   12B
  8
0
  6
CONTINUOUS
 62
     7
 10
-491.453599792917
 20
-86.4464263916016
 30
0.0
 11
-494.408023070124
 21
-85.9254819616499
 31
0.0
  0
LINE
  5
   12C
  8
0
  6
CONTINUOUS
 62
     7
 10
-504.377363832168
 20
-85.9254819616499
 30
0.0
 11
-507.331787109375
 21
-86.4464263916016
 31
0.0
  0
LINE
  5
   12D
  8
0
  6
CONTINUOUS
 62
     7
 10
-507.331787109375
 20
-86.4464263916016
 30
0.0
 11
-504.377363832168
 21
-86.9673708215532
 31
0.0
  0
ENDBLK
  5
   12E
  8
0
  6
CONTINUOUS
 62
     7
  0
BLOCK
  5
   12F
  8
0
  6
CONTINUOUS
 62
     7
  2
*UDIM221
 70
    65
 10
0.0
 20
0.0
 30
0.0
  3
*UDIM221
  0
TEXT
  5
   130
  8
0
  6
CONTINUOUS
 62
     7
 10
-505.277829425868
 20
98.2736816454053
 30
0.0
 40
3.00000002980232
  1
31,2
 50
359.999999948034
 41
0.933333333333333
 72
     1
 11
-499.977829371865
 21
99.7736816555262
 31
0.0
 73
     2
  0
LINE
  5
   131
  8
0
  6
CONTINUOUS
 62
     7
 10
-491.731799731602
 20
77.5321682194048
 30
0.0
 11
-491.731799731602
 21
99.273681640625
 31
0.0
  0
LINE
  5
   132
  8
0
  6
CONTINUOUS
 62
     7
 10
-507.331787109375
 20
89.588247790617
 30
0.0
 11
-507.331787109375
 21
99.273681640625
 31
0.0
  0
LINE
  5
   133
  8
0
  6
CONTINUOUS
 62
     7
 10
-491.731799731602
 20
97.273681640625
 30
0.0
 11
-507.331787109375
 21
97.273681640625
 31
0.0
  0
LINE
  5
   134
  8
0
  6
CONTINUOUS
 62
     7
 10
-494.686223008809
 20
96.7527372106733
 30
0.0
 11
-491.731799731602
 21
97.273681640625
 31
0.0
  0
LINE
  5
   135
  8
0
  6
CONTINUOUS
 62
     7
 10
-491.731799731602
 20
97.273681640625
 30
0.0
 11
-494.686223008809
 21
97.7946260705767
 31
0.0
  0
LINE
  5
   136
  8
0
  6
CONTINUOUS
 62
     7
 10
-504.377363832168
 20
97.7946260705767
 30
0.0
 11
-507.331787109375
 21
97.273681640625
 31
0.0
  0
LINE
  5
   137
  8
0
  6
CONTINUOUS
 62
     7
 10
-507.331787109375
 20
97.273681640625
 30
0.0
 11
-504.377363832168
 21
96.7527372106733
 31
0.0
  0
ENDBLK
  5
   138
  8
0
  6
CONTINUOUS
 62
     7
  0
BLOCK
  5
   139
  8
0
  6
CONTINUOUS
 62
     7
  2
*UDIM222
 70
    65
 10
0.0
 20
0.0
 30
0.0
  3
*UDIM222
  0
TEXT
  5
   13A
  8
0
  6
CONTINUOUS
 62
     7
 10
-486.56497807037
 20
98.2736817703785
 30
0.0
 40
3.00000002980232
  1
21
 50
359.999999948034
 41
0.933333333333333
 72
     1
 11
-484.064978044182
 21
99.7736817830248
 31
0.0
 73
     2
  0
TEXT
  5
   13B
  8
0
  6
CONTINUOUS
 62
     7
 10
-489.714978080304
 20
98.2736817691158
 30
0.0
 40
3.00000002980232
  1
Ø
 50
359.999999948034
 41
0.933333333333334
 72
     1
 11
-488.614978068024
 21
99.7736817830248
 31
0.0
 73
     2
  0
LINE
  5
   13C
  8
0
  6
CONTINUOUS
 62
     7
 10
-481.081799731602
 20
68.4144290312601
 30
0.0
 11
-481.081799731602
 21
99.2736817681237
 31
0.0
  0
LINE
  5
   13D
  8
0
  6
CONTINUOUS
 62
     7
 10
-491.731799731602
 20
77.5321682194048
 30
0.0
 11
-491.731799731602
 21
99.2736817681237
 31
0.0
  0
LINE
  5
   13E
  8
0
  6
CONTINUOUS
 62
     7
 10
-481.081799731602
 20
97.2736817681237
 30
0.0
 11
-491.731799731602
 21
97.2736817681237
 31
0.0
  0
LINE
  5
   13F
  8
0
  6
CONTINUOUS
 62
     7
 10
-478.127376454395
 20
97.7946261980754
 30
0.0
 11
-481.081799731602
 21
97.2736817681237
 31
0.0
  0
LINE
  5
   140
  8
0
  6
CONTINUOUS
 62
     7
 10
-481.081799731602
 20
97.2736817681237
 30
0.0
 11
-478.127376454395
 21
96.752737338172
 31
0.0
  0
LINE
  5
   141
  8
0
  6
CONTINUOUS
 62
     7
 10
-494.686223008809
 20
96.752737338172
 30
0.0
 11
-491.731799731602
 21
97.2736817681237
 31
0.0
  0
LINE
  5
   142
  8
0
  6
CONTINUOUS
 62
     7
 10
-491.731799731602
 20
97.2736817681237
 30
0.0
 11
-494.686223008809
 21
97.7946261980754
 31
0.0
  0
ENDBLK
  5
   143
  8
0
  6
CONTINUOUS
 62
     7
  0
BLOCK
  5
   144
  8
0
  6
CONTINUOUS
 62
     7
  2
*UDIM223
 70
    65
 10
0.0
 20
0.0
 30
0.0
  3
*UDIM223
  0
TEXT
  5
   145
  8
0
  6
CONTINUOUS
 62
     7
 10
-534.221931464856
 20
35.844665436131
 30
0.0
 40
3.00000002980232
  1
107,25
 50
89.9999999480344
 41
0.933333333333333
 72
     1
 11
-535.721931472421
 21
43.9446655179558
 31
0.0
 73
     2
  0
LINE
  5
   146
  8
0
  6
CONTINUOUS
 62
     7
 10
-502.04647030889
 20
71.0321682194048
 30
0.0
 11
-535.22193145752
 21
71.0321682194048
 31
0.0
  0
LINE
  5
   147
  8
0
  6
CONTINUOUS
 62
     7
 10
-533.22193145752
 20
17.4071597289862
 30
0.0
 11
-533.22193145752
 21
71.0321682194048
 31
0.0
  0
LINE
  5
   148
  8
0
  6
CONTINUOUS
 62
     7
 10
-533.742875887471
 20
20.3615830061932
 30
0.0
 11
-533.22193145752
 21
17.4071597289862
 31
0.0
  0
LINE
  5
   149
  8
0
  6
CONTINUOUS
 62
     7
 10
-533.22193145752
 20
17.4071597289862
 30
0.0
 11
-532.700987027568
 21
20.3615830061932
 31
0.0
  0
LINE
  5
   14A
  8
0
  6
CONTINUOUS
 62
     7
 10
-532.700987027568
 20
68.0777449421979
 30
0.0
 11
-533.22193145752
 21
71.0321682194048
 31
0.0
  0
LINE
  5
   14B
  8
0
  6
CONTINUOUS
 62
     7
 10
-533.22193145752
 20
71.0321682194048
 30
0.0
 11
-533.742875887471
 21
68.0777449421979
 31
0.0
  0
ENDBLK
  5
   14C
  8
0
  6
CONTINUOUS
 62
     7
  0
BLOCK
  5
   14D
  8
0
  6
CONTINUOUS
 62
     7
  2
*UDIM224
 70
    65
 10
0.0
 20
0.0
 30
0.0
  3
*UDIM224
  0
TEXT
  5
   14E
  8
0
  6
CONTINUOUS
 62
     7
 10
-449.831794846417
 20
-108.434524535141
 30
0.0
 40
3.00000002980232
  1
2
 50
359.999999948034
 41
0.933333333333334
 72
     1
 11
-448.731794834137
 21
-106.934524521232
 31
0.0
 73
     2
  0
LINE
  5
   14F
  8
0
  6
CONTINUOUS
 62
     7
 10
-452.83179473877
 20
-60.6591192636521
 30
0.0
 11
-452.83179473877
 21
-111.434524536133
 31
0.0
  0
LINE
  5
   150
  8
0
  6
CONTINUOUS
 62
     7
 10
-453.83179473877
 20
-61.0950166995495
 30
0.0
 11
-453.83179473877
 21
-111.434524536133
 31
0.0
  0
LINE
  5
   151
  8
0
  6
CONTINUOUS
 62
     7
 10
-447.63179482321
 20
-109.434524536133
 30
0.0
 11
-453.83179473877
 21
-109.434524536133
 31
0.0
  0
LINE
  5
   152
  8
0
  6
CONTINUOUS
 62
     7
 10
-449.877371461563
 20
-108.913580106181
 30
0.0
 11
-452.83179473877
 21
-109.434524536133
 31
0.0
  0
LINE
  5
   153
  8
0
  6
CONTINUOUS
 62
     7
 10
-452.83179473877
 20
-109.434524536133
 30
0.0
 11
-449.877371461563
 21
-109.955468966085
 31
0.0
  0
LINE
  5
   154
  8
0
  6
CONTINUOUS
 62
     7
 10
-456.786218015977
 20
-109.955468966085
 30
0.0
 11
-453.83179473877
 21
-109.434524536133
 31
0.0
  0
LINE
  5
   155
  8
0
  6
CONTINUOUS
 62
     7
 10
-453.83179473877
 20
-109.434524536133
 30
0.0
 11
-456.786218015977
 21
-108.913580106181
 31
0.0
  0
ENDBLK
  5
   156
  8
0
  6
CONTINUOUS
 62
     7
  0
BLOCK
  5
   157
  8
0
  6
CONTINUOUS
 62
     7
  2
*UDIM225
 70
    65
 10
0.0
 20
0.0
 30
0.0
  3
*UDIM225
  0
TEXT
  5
   158
  8
0
  6
CONTINUOUS
 62
     7
 10
-484.756790970129
 20
-108.434524532615
 30
0.0
 40
3.00000002980232
  1
107
 50
359.999999948034
 41
0.933333333333333
 72
     1
 11
-480.856790930033
 21
-106.934524521232
 31
0.0
 73
     2
  0
LINE
  5
   159
  8
0
  6
CONTINUOUS
 62
     7
 10
-507.331787109375
 20
-83.2619980617963
 30
0.0
 11
-507.331787109375
 21
-111.434524536133
 31
0.0
  0
LINE
  5
   15A
  8
0
  6
CONTINUOUS
 62
     7
 10
-453.83179473877
 20
-109.434524536133
 30
0.0
 11
-507.331787109375
 21
-109.434524536133
 31
0.0
  0
LINE
  5
   15B
  8
0
  6
CONTINUOUS
 62
     7
 10
-456.786218015977
 20
-109.955468966085
 30
0.0
 11
-453.83179473877
 21
-109.434524536133
 31
0.0
  0
LINE
  5
   15C
  8
0
  6
CONTINUOUS
 62
     7
 10
-453.83179473877
 20
-109.434524536133
 30
0.0
 11
-456.786218015977
 21
-108.913580106181
 31
0.0
  0
LINE
  5
   15D
  8
0
  6
CONTINUOUS
 62
     7
 10
-504.377363832168
 20
-108.913580106181
 30
0.0
 11
-507.331787109375
 21
-109.434524536133
 31
0.0
  0
LINE
  5
   15E
  8
0
  6
CONTINUOUS
 62
     7
 10
-507.331787109375
 20
-109.434524536133
 30
0.0
 11
-504.377363832168
 21
-109.955468966085
 31
0.0
  0
ENDBLK
  5
   15F
  8
0
  6
CONTINUOUS
 62
     7
  0
BLOCK
  5
   160
  8
0
  6
CONTINUOUS
 62
     7
  2
*UDIM226
 70
    65
 10
0.0
 20
0.0
 30
0.0
  3
*UDIM226
  0
TEXT
  5
   161
  8
0
  6
CONTINUOUS
 62
     7
 10
-488.431794808259
 20
-101.500717157043
 30
0.0
 40
3.00000002980232
  1
103,5
 50
359.999999948034
 41
0.933333333333333
 72
     1
 11
-481.731794740348
 21
-100.000717148185
 31
0.0
 73
     2
  0
LINE
  5
   162
  8
0
  6
CONTINUOUS
 62
     7
 10
-455.581795052686
 20
-9.84282501222463
 30
0.0
 11
-455.581824767358
 21
-104.500717163086
 31
0.0
  0
LINE
  5
   163
  8
0
  6
CONTINUOUS
 62
     7
 10
-507.331787423292
 20
-83.2619980617963
 30
0.0
 11
-507.331794090475
 21
-104.500717163086
 31
0.0
  0
LINE
  5
   164
  8
0
  6
CONTINUOUS
 62
     7
 10
-455.581824139525
 20
-102.500717163086
 30
0.0
 11
-507.331793462643
 21
-102.500717163086
 31
0.0
  0
LINE
  5
   165
  8
0
  6
CONTINUOUS
 62
     7
 10
-458.536247416732
 20
-103.021661593038
 30
0.0
 11
-455.581824139525
 21
-102.500717163086
 31
0.0
  0
LINE
  5
   166
  8
0
  6
CONTINUOUS
 62
     7
 10
-455.581824139525
 20
-102.500717163086
 30
0.0
 11
-458.536247416732
 21
-101.979772733134
 31
0.0
  0
LINE
  5
   167
  8
0
  6
CONTINUOUS
 62
     7
 10
-504.377370185436
 20
-101.979772733134
 30
0.0
 11
-507.331793462643
 21
-102.500717163086
 31
0.0
  0
LINE
  5
   168
  8
0
  6
CONTINUOUS
 62
     7
 10
-507.331793462643
 20
-102.500717163086
 30
0.0
 11
-504.377370185436
 21
-103.021661593038
 31
0.0
  0
ENDBLK
  5
   169
  8
0
  6
CONTINUOUS
 62
     7
  0
BLOCK
  5
   16A
  8
0
  6
CONTINUOUS
 62
     7
  2
*UDIM227
 70
    65
 10
0.0
 20
0.0
 30
0.0
  3
*UDIM227
  0
TEXT
  5
   16B
  8
0
  6
CONTINUOUS
 62
     7
 10
-514.581790235301
 20
-101.500717162094
 30
0.0
 40
3.00000002980232
  1
3
 50
359.999999948034
 41
0.933333333333334
 72
     1
 11
-513.481790223021
 21
-100.000717148185
 31
0.0
 73
     2
  0
TEXT
  5
   16C
  8
0
  6
CONTINUOUS
 62
     7
 10
-517.331790269077
 20
-101.500717162094
 30
0.0
 40
3.00000002980232
  1
_
 50
359.999999948034
 41
0.933333333333334
 72
     1
 11
-516.231790256797
 21
-100.000717148185
 31
0.0
 73
     2
  0
LINE
  5
   16D
  8
0
  6
CONTINUOUS
 62
     7
 10
-508.831787423292
 20
-83.2437053788694
 30
0.0
 11
-508.831794096218
 21
-104.500717163086
 31
0.0
  0
LINE
  5
   16E
  8
0
  6
CONTINUOUS
 62
     7
 10
-507.331793462643
 20
-102.500717163086
 30
0.0
 11
-517.331790267724
 21
-102.500717163086
 31
0.0
  0
LINE
  5
   16F
  8
0
  6
CONTINUOUS
 62
     7
 10
-504.377370185436
 20
-101.979772733134
 30
0.0
 11
-507.331793462643
 21
-102.500717163086
 31
0.0
  0
LINE
  5
   170
  8
0
  6
CONTINUOUS
 62
     7
 10
-507.331793462643
 20
-102.500717163086
 30
0.0
 11
-504.377370185436
 21
-103.021661593038
 31
0.0
  0
LINE
  5
   171
  8
0
  6
CONTINUOUS
 62
     7
 10
-511.786216745592
 20
-103.021661593038
 30
0.0
 11
-508.831793468385
 21
-102.500717163086
 31
0.0
  0
LINE
  5
   172
  8
0
  6
CONTINUOUS
 62
     7
 10
-508.831793468385
 20
-102.500717163086
 30
0.0
 11
-511.786216745592
 21
-101.979772733134
 31
0.0
  0
ENDBLK
  5
   173
  8
0
  6
CONTINUOUS
 62
     7
  0
BLOCK
  5
   174
  8
0
  6
CONTINUOUS
 62
     7
  2
*UDIM228
 70
    65
 10
0.0
 20
0.0
 30
0.0
  3
*UDIM228
  0
TEXT
  5
   175
  8
0
  6
CONTINUOUS
 62
     7
 10
-488.9317909854
 20
106.674774175965
 30
0.0
 40
3.00000002980232
  1
101,5
 50
359.999999948034
 41
0.933333333333333
 72
     1
 11
-482.231790917489
 21
108.174774184823
 31
0.0
 73
     2
  0
LINE
  5
   176
  8
0
  6
CONTINUOUS
 62
     7
 10
-456.581794224993
 20
68.7821597289861
 30
0.0
 11
-456.581774242865
 21
107.674774169922
 31
0.0
  0
LINE
  5
   177
  8
0
  6
CONTINUOUS
 62
     7
 10
-507.33178365657
 20
89.5882477906111
 30
0.0
 11
-507.331721207315
 21
107.67477416991
 31
0.0
  0
LINE
  5
   178
  8
0
  6
CONTINUOUS
 62
     7
 10
-456.581775270419
 20
105.674774169922
 30
0.0
 11
-507.331728112925
 21
105.674774169922
 31
0.0
  0
LINE
  5
   179
  8
0
  6
CONTINUOUS
 62
     7
 10
-459.536198547626
 20
105.15382973997
 30
0.0
 11
-456.581775270419
 21
105.674774169922
 31
0.0
  0
LINE
  5
   17A
  8
0
  6
CONTINUOUS
 62
     7
 10
-456.581775270419
 20
105.674774169922
 30
0.0
 11
-459.536198547626
 21
106.195718599874
 31
0.0
  0
LINE
  5
   17B
  8
0
  6
CONTINUOUS
 62
     7
 10
-504.377304835718
 20
106.195718599874
 30
0.0
 11
-507.331728112925
 21
105.674774169922
 31
0.0
  0
LINE
  5
   17C
  8
0
  6
CONTINUOUS
 62
     7
 10
-507.331728112925
 20
105.674774169922
 30
0.0
 11
-504.377304835718
 21
105.15382973997
 31
0.0
  0
ENDBLK
  5
   17D
  8
0
  6
CONTINUOUS
 62
     7
  0
BLOCK
  5
   17E
  8
0
  6
CONTINUOUS
 62
     7
  2
*UDIM229
 70
    65
 10
0.0
 20
0.0
 30
0.0
  3
*UDIM229
  0
TEXT
  5
   17F
  8
0
  6
CONTINUOUS
 62
     7
 10
-426.635795595526
 20
65.7506728902954
 30
0.0
 40
3.00000002980232
  1
12
 50
89.9999999480344
 41
0.933333333333333
 72
     1
 11
-428.135795608163
 21
68.2506729164893
 31
0.0
 73
     2
  0
LINE
  5
   180
  8
0
  6
CONTINUOUS
 62
     7
 10
-487.054663316243
 20
65.0321682194048
 30
0.0
 11
-423.635795593262
 21
65.0321682194048
 31
0.0
  0
LINE
  5
   181
  8
0
  6
CONTINUOUS
 62
     7
 10
-473.975716960016
 20
71.0321682194048
 30
0.0
 11
-423.635795593262
 21
71.0321682194048
 31
0.0
  0
LINE
  5
   182
  8
0
  6
CONTINUOUS
 62
     7
 10
-425.635795593262
 20
65.0321682194048
 30
0.0
 11
-425.635795593262
 21
71.0321682194048
 31
0.0
  0
LINE
  5
   183
  8
0
  6
CONTINUOUS
 62
     7
 10
-425.11485116331
 20
62.0777449421979
 30
0.0
 11
-425.635795593262
 21
65.0321682194048
 31
0.0
  0
LINE
  5
   184
  8
0
  6
CONTINUOUS
 62
     7
 10
-425.635795593262
 20
65.0321682194048
 30
0.0
 11
-426.156740023213
 21
62.0777449421979
 31
0.0
  0
LINE
  5
   185
  8
0
  6
CONTINUOUS
 62
     7
 10
-426.156740023213
 20
73.9865914966118
 30
0.0
 11
-425.635795593262
 21
71.0321682194048
 31
0.0
  0
LINE
  5
   186
  8
0
  6
CONTINUOUS
 62
     7
 10
-425.635795593262
 20
71.0321682194048
 30
0.0
 11
-425.11485116331
 21
73.9865914966118
 31
0.0
  0
ENDBLK
  5
   187
  8
0
  6
CONTINUOUS
 62
     7
  0
BLOCK
  5
   188
  8
0
  6
CONTINUOUS
 62
     7
  2
*UDIM230
 70
    65
 10
0.0
 20
0.0
 30
0.0
  3
*UDIM230
  0
TEXT
  5
   189
  8
0
  6
CONTINUOUS
 62
     7
 10
-543.854290012077
 20
12.3571425930981
 30
0.0
 40
3.00000002980232
  1
218
 50
89.9999999480344
 41
0.933333333333333
 72
     1
 11
-545.354290023446
 21
16.2571426331997
 31
0.0
 73
     2
  0
LINE
  5
   18A
  8
0
  6
CONTINUOUS
 62
     7
 10
-502.04647030889
 20
-37.9678829410845
 30
0.0
 11
-544.854290008545
 21
-37.9678829410845
 31
0.0
  0
LINE
  5
   18B
  8
0
  6
CONTINUOUS
 62
     7
 10
-502.04647030889
 20
71.0321682194048
 30
0.0
 11
-544.854290008545
 21
71.0321682194048
 31
0.0
  0
LINE
  5
   18C
  8
0
  6
CONTINUOUS
 62
     7
 10
-542.854290008545
 20
-37.9678829410845
 30
0.0
 11
-542.854290008545
 21
71.0321682194048
 31
0.0
  0
LINE
  5
   18D
  8
0
  6
CONTINUOUS
 62
     7
 10
-543.375234438497
 20
-35.0134596638776
 30
0.0
 11
-542.854290008545
 21
-37.9678829410845
 31
0.0
  0
LINE
  5
   18E
  8
0
  6
CONTINUOUS
 62
     7
 10
-542.854290008545
 20
-37.9678829410845
 30
0.0
 11
-542.333345578593
 21
-35.0134596638776
 31
0.0
  0
LINE
  5
   18F
  8
0
  6
CONTINUOUS
 62
     7
 10
-542.333345578593
 20
68.0777449421979
 30
0.0
 11
-542.854290008545
 21
71.0321682194048
 31
0.0
  0
LINE
  5
   190
  8
0
  6
CONTINUOUS
 62
     7
 10
-542.854290008545
 20
71.0321682194048
 30
0.0
 11
-543.375234438497
 21
68.0777449421979
 31
0.0
  0
ENDBLK
  5
   191
  8
0
  6
CONTINUOUS
 62
     7
  0
BLOCK
  5
   192
  8
0
  6
CONTINUOUS
 62
     7
  2
*UDIM231
 70
    65
 10
0.0
 20
0.0
 30
0.0
  3
*UDIM231
  0
TEXT
  5
   193
  8
0
  6
CONTINUOUS
 62
     7
 10
-477.745777931431
 20
-115.301361080467
 30
0.0
 40
3.00000002980232
  1
135
 50
359.999999948034
 41
0.933333333333333
 72
     1
 11
-473.845777891335
 21
-113.801361069083
 31
0.0
 73
     2
  0
LINE
  5
   194
  8
0
  6
CONTINUOUS
 62
     7
 10
-439.809753747675
 20
11.2821749877753
 30
0.0
 11
-439.809794426081
 21
-118.301361083984
 31
0.0
  0
LINE
  5
   195
  8
0
  6
CONTINUOUS
 62
     7
 10
-507.331787423292
 20
-83.2619980617963
 30
0.0
 11
-507.331798422725
 21
-118.301361083984
 31
0.0
  0
LINE
  5
   196
  8
0
  6
CONTINUOUS
 62
     7
 10
-439.809793798248
 20
-116.301361083984
 30
0.0
 11
-507.331797794892
 21
-116.301361083984
 31
0.0
  0
LINE
  5
   197
  8
0
  6
CONTINUOUS
 62
     7
 10
-442.764217075455
 20
-116.822305513936
 30
0.0
 11
-439.809793798248
 21
-116.301361083984
 31
0.0
  0
LINE
  5
   198
  8
0
  6
CONTINUOUS
 62
     7
 10
-439.809793798248
 20
-116.301361083984
 30
0.0
 11
-442.764217075455
 21
-115.780416654033
 31
0.0
  0
LINE
  5
   199
  8
0
  6
CONTINUOUS
 62
     7
 10
-504.377374517685
 20
-115.780416654033
 30
0.0
 11
-507.331797794892
 21
-116.301361083984
 31
0.0
  0
LINE
  5
   19A
  8
0
  6
CONTINUOUS
 62
     7
 10
-507.331797794892
 20
-116.301361083984
 30
0.0
 11
-504.377374517685
 21
-116.822305513936
 31
0.0
  0
ENDBLK
  5
   19B
  8
0
  6
CONTINUOUS
 62
     7
  0
BLOCK
  5
   19C
  8
0
  6
CONTINUOUS
 62
     7
  2
*UDIM232
 70
    65
 10
0.0
 20
0.0
 30
0.0
  3
*UDIM232
  0
TEXT
  5
   19D
  8
0
  6
CONTINUOUS
 62
     7
 10
-428.200607303337
 20
13.2321654943771
 30
0.0
 40
3.00000002980232
  1
105
 50
89.9999999480344
 41
0.933333333333333
 72
     1
 11
-429.700607314706
 21
17.1321655344787
 31
0.0
 73
     2
  0
LINE
  5
   19E
  8
0
  6
CONTINUOUS
 62
     7
 10
-452.83179473877
 20
-8.84282501222468
 30
0.0
 11
-425.200607299805
 21
-8.84282501222468
 31
0.0
  0
LINE
  5
   19F
  8
0
  6
CONTINUOUS
 62
     7
 10
-452.83179473877
 20
43.6571597289862
 30
0.0
 11
-425.200607299805
 21
43.6571597289862
 31
0.0
  0
LINE
  5
   1A0
  8
0
  6
CONTINUOUS
 62
     7
 10
-427.200607299805
 20
-8.84282501222468
 30
0.0
 11
-427.200607299805
 21
43.6571597289862
 31
0.0
  0
LINE
  5
   1A1
  8
0
  6
CONTINUOUS
 62
     7
 10
-427.721551729756
 20
-5.88840173501772
 30
0.0
 11
-427.200607299805
 21
-8.84282501222468
 31
0.0
  0
LINE
  5
   1A2
  8
0
  6
CONTINUOUS
 62
     7
 10
-427.200607299805
 20
-8.84282501222468
 30
0.0
 11
-426.679662869853
 21
-5.88840173501772
 31
0.0
  0
LINE
  5
   1A3
  8
0
  6
CONTINUOUS
 62
     7
 10
-426.679662869853
 20
40.7027364517793
 30
0.0
 11
-427.200607299805
 21
43.6571597289862
 31
0.0
  0
LINE
  5
   1A4
  8
0
  6
CONTINUOUS
 62
     7
 10
-427.200607299805
 20
43.6571597289862
 30
0.0
 11
-427.721551729756
 21
40.7027364517793
 31
0.0
  0
ENDBLK
  5
   1A5
  8
0
  6
CONTINUOUS
 62
     7
  0
BLOCK
  5
   1A6
  8
0
  6
CONTINUOUS
 62
     0
  2
$1ON-OFF
 70
    64
 10
0.0
 20
0.0
 30
0.0
  3
$1ON-OFF
  0
LINE
  5
   1A7
  8
0
  6
CONTINUOUS
 62
     0
 10
5.09999999999999
 20
-29.65
 30
0.0
 11
5.54999999999999
 21
-29.65
 31
0.0
  0
LINE
  5
   1A8
  8
0
  6
CONTINUOUS
 62
     0
 10
3.79999999999999
 20
-37.35
 30
0.0
 11
4.59999999999999
 21
-37.35
 31
0.0
  0
LINE
  5
   1A9
  8
0
  6
CONTINUOUS
 62
     0
 10
-2.6
 20
-34.75
 30
0.0
 11
-2.6
 21
-34.25
 31
0.0
  0
LINE
  5
   1AA
  8
0
  6
CONTINUOUS
 62
     0
 10
2.6
 20
-34.75
 30
0.0
 11
2.6
 21
-34.25
 31
0.0
  0
ARC
  5
   1AB
  8
0
  6
CONTINUOUS
 62
     0
 10
-3.5527136788005E-15
 20
-34.25
 30
0.0
 40
2.6
 50
0.0
 51
180.0
  0
ARC
  5
   1AC
  8
0
  6
CONTINUOUS
 62
     0
 10
-3.5527136788005E-15
 20
-34.75
 30
0.0
 40
2.6
 50
180.0
 51
360.0
  0
ARC
  5
   1AD
  8
0
  6
CONTINUOUS
 62
     0
 10
-3.5527136788005E-15
 20
-34.25
 30
0.0
 40
1.8
 50
0.0
 51
180.0
  0
ARC
  5
   1AE
  8
0
  6
CONTINUOUS
 62
     0
 10
-3.5527136788005E-15
 20
-34.75
 30
0.0
 40
1.8
 50
180.0
 51
360.0
  0
LINE
  5
   1AF
  8
0
  6
CONTINUOUS
 62
     0
 10
-1.8
 20
-34.75
 30
0.0
 11
-1.8
 21
-34.25
 31
0.0
  0
LINE
  5
   1B0
  8
0
  6
CONTINUOUS
 62
     0
 10
1.8
 20
-34.75
 30
0.0
 11
1.8
 21
-34.25
 31
0.0
  0
LINE
  5
   1B1
  8
0
  6
CONTINUOUS
 62
     0
 10
2.84999999999999
 20
-32.85
 30
0.0
 11
2.84999999999999
 21
-32.05
 31
0.0
  0
LINE
  5
   1B2
  8
0
  6
CONTINUOUS
 62
     0
 10
2.84999999999999
 20
-32.85
 30
0.0
 11
3.79999999999999
 21
-32.85
 31
0.0
  0
LINE
  5
   1B3
  8
0
  6
CONTINUOUS
 62
     0
 10
5.54999999999999
 20
-32.85
 30
0.0
 11
5.54999999999999
 21
-32.05
 31
0.0
  0
LINE
  5
   1B4
  8
0
  6
CONTINUOUS
 62
     0
 10
2.84999999999999
 20
-32.05
 30
0.0
 11
3.79999999999999
 21
-32.05
 31
0.0
  0
LINE
  5
   1B5
  8
0
  6
CONTINUOUS
 62
     0
 10
3.79999999999999
 20
-37.35
 30
0.0
 11
3.79999999999999
 21
-32.85
 31
0.0
  0
LINE
  5
   1B6
  8
0
  6
CONTINUOUS
 62
     0
 10
4.59999999999999
 20
-37.35
 30
0.0
 11
4.59999999999999
 21
-32.85
 31
0.0
  0
LINE
  5
   1B7
  8
0
  6
CONTINUOUS
 62
     0
 10
4.59999999999999
 20
-32.85
 30
0.0
 11
5.54999999999999
 21
-32.85
 31
0.0
  0
LINE
  5
   1B8
  8
0
  6
CONTINUOUS
 62
     0
 10
4.59999999999999
 20
-32.05
 30
0.0
 11
5.54999999999999
 21
-32.05
 31
0.0
  0
LINE
  5
   1B9
  8
0
  6
CONTINUOUS
 62
     0
 10
3.79999999999999
 20
-32.05
 30
0.0
 11
3.79999999999999
 21
-30.95
 31
0.0
  0
LINE
  5
   1BA
  8
0
  6
CONTINUOUS
 62
     0
 10
4.59999999999999
 20
-32.05
 30
0.0
 11
4.59999999999999
 21
-30.95
 31
0.0
  0
ARC
  5
   1BB
  8
0
  6
CONTINUOUS
 62
     0
 10
5.09999999999999
 20
-30.95
 30
0.0
 40
1.3
 50
89.9999999999999
 51
180.0
  0
ARC
  5
   1BC
  8
0
  6
CONTINUOUS
 62
     0
 10
5.09999999999999
 20
-30.95
 30
0.0
 40
0.5
 50
89.9999999999999
 51
180.0
  0
LINE
  5
   1BD
  8
0
  6
CONTINUOUS
 62
     0
 10
5.54999999999999
 20
-30.45
 30
0.0
 11
5.54999999999999
 21
-29.65
 31
0.0
  0
LINE
  5
   1BE
  8
0
  6
CONTINUOUS
 62
     0
 10
5.09999999999999
 20
-30.45
 30
0.0
 11
5.54999999999999
 21
-30.45
 31
0.0
  0
LINE
  5
   1BF
  8
0
  6
CONTINUOUS
 62
     0
 10
8.29999999999998
 20
-29.65
 30
0.0
 11
8.74999999999999
 21
-29.65
 31
0.0
  0
LINE
  5
   1C0
  8
0
  6
CONTINUOUS
 62
     0
 10
6.99999999999999
 20
-37.35
 30
0.0
 11
7.79999999999999
 21
-37.35
 31
0.0
  0
LINE
  5
   1C1
  8
0
  6
CONTINUOUS
 62
     0
 10
6.04999999999999
 20
-32.85
 30
0.0
 11
6.04999999999999
 21
-32.05
 31
0.0
  0
LINE
  5
   1C2
  8
0
  6
CONTINUOUS
 62
     0
 10
6.04999999999999
 20
-32.85
 30
0.0
 11
6.99999999999999
 21
-32.85
 31
0.0
  0
LINE
  5
   1C3
  8
0
  6
CONTINUOUS
 62
     0
 10
8.74999999999999
 20
-32.85
 30
0.0
 11
8.74999999999999
 21
-32.05
 31
0.0
  0
LINE
  5
   1C4
  8
0
  6
CONTINUOUS
 62
     0
 10
6.04999999999999
 20
-32.05
 30
0.0
 11
6.99999999999999
 21
-32.05
 31
0.0
  0
LINE
  5
   1C5
  8
0
  6
CONTINUOUS
 62
     0
 10
6.99999999999999
 20
-37.35
 30
0.0
 11
6.99999999999999
 21
-32.85
 31
0.0
  0
LINE
  5
   1C6
  8
0
  6
CONTINUOUS
 62
     0
 10
7.79999999999999
 20
-37.35
 30
0.0
 11
7.79999999999999
 21
-32.85
 31
0.0
  0
LINE
  5
   1C7
  8
0
  6
CONTINUOUS
 62
     0
 10
7.79999999999999
 20
-32.85
 30
0.0
 11
8.74999999999999
 21
-32.85
 31
0.0
  0
LINE
  5
   1C8
  8
0
  6
CONTINUOUS
 62
     0
 10
7.79999999999999
 20
-32.05
 30
0.0
 11
8.74999999999999
 21
-32.05
 31
0.0
  0
LINE
  5
   1C9
  8
0
  6
CONTINUOUS
 62
     0
 10
6.99999999999999
 20
-32.05
 30
0.0
 11
6.99999999999999
 21
-30.95
 31
0.0
  0
LINE
  5
   1CA
  8
0
  6
CONTINUOUS
 62
     0
 10
7.79999999999999
 20
-32.05
 30
0.0
 11
7.79999999999999
 21
-30.95
 31
0.0
  0
ARC
  5
   1CB
  8
0
  6
CONTINUOUS
 62
     0
 10
8.29999999999998
 20
-30.95
 30
0.0
 40
1.3
 50
89.9999999999999
 51
180.0
  0
ARC
  5
   1CC
  8
0
  6
CONTINUOUS
 62
     0
 10
8.29999999999998
 20
-30.95
 30
0.0
 40
0.5
 50
89.9999999999999
 51
180.0
  0
LINE
  5
   1CD
  8
0
  6
CONTINUOUS
 62
     0
 10
8.74999999999999
 20
-30.45
 30
0.0
 11
8.74999999999999
 21
-29.65
 31
0.0
  0
LINE
  5
   1CE
  8
0
  6
CONTINUOUS
 62
     0
 10
8.29999999999998
 20
-30.45
 30
0.0
 11
8.74999999999999
 21
-30.45
 31
0.0
  0
LINE
  5
   1CF
  8
0
  6
CONTINUOUS
 62
     0
 10
3.4
 20
-2.85000000000002
 30
0.0
 11
4.19999999999999
 21
-2.85000000000002
 31
0.0
  0
ARC
  5
   1D0
  8
0
  6
CONTINUOUS
 62
     0
 10
-3.5527136788005E-15
 20
0.249999999999979
 30
0.0
 40
2.6
 50
0.0
 51
180.0
  0
ARC
  5
   1D1
  8
0
  6
CONTINUOUS
 62
     0
 10
-3.5527136788005E-15
 20
0.249999999999979
 30
0.0
 40
1.8
 50
0.0
 51
180.0
  0
ARC
  5
   1D2
  8
0
  6
CONTINUOUS
 62
     0
 10
-3.5527136788005E-15
 20
-0.250000000000018
 30
0.0
 40
2.6
 50
180.0
 51
360.0
  0
ARC
  5
   1D3
  8
0
  6
CONTINUOUS
 62
     0
 10
-3.5527136788005E-15
 20
-0.250000000000018
 30
0.0
 40
1.8
 50
180.0
 51
360.0
  0
LINE
  5
   1D4
  8
0
  6
CONTINUOUS
 62
     0
 10
1.8
 20
-0.250000000000018
 30
0.0
 11
1.8
 21
0.249999999999979
 31
0.0
  0
LINE
  5
   1D5
  8
0
  6
CONTINUOUS
 62
     0
 10
2.6
 20
-0.250000000000018
 30
0.0
 11
2.6
 21
0.249999999999979
 31
0.0
  0
LINE
  5
   1D6
  8
0
  6
CONTINUOUS
 62
     0
 10
-1.8
 20
-0.250000000000032
 30
0.0
 11
-1.8
 21
0.249999999999964
 31
0.0
  0
LINE
  5
   1D7
  8
0
  6
CONTINUOUS
 62
     0
 10
-2.6
 20
-0.250000000000018
 30
0.0
 11
-2.6
 21
0.249999999999979
 31
0.0
  0
LINE
  5
   1D8
  8
0
  6
CONTINUOUS
 62
     0
 10
3.4
 20
-2.85000000000002
 30
0.0
 11
3.4
 21
2.84999999999998
 31
0.0
  0
LINE
  5
   1D9
  8
0
  6
CONTINUOUS
 62
     0
 10
4.19999999999999
 20
-2.85000000000002
 30
0.0
 11
4.19999999999999
 21
0.649999999999981
 31
0.0
  0
LINE
  5
   1DA
  8
0
  6
CONTINUOUS
 62
     0
 10
6.99999999999999
 20
-2.85000000000002
 30
0.0
 11
6.99999999999999
 21
0.649999999999981
 31
0.0
  0
LINE
  5
   1DB
  8
0
  6
CONTINUOUS
 62
     0
 10
7.79999999999999
 20
-2.85000000000002
 30
0.0
 11
7.79999999999999
 21
0.84999999999998
 31
0.0
  0
LINE
  5
   1DC
  8
0
  6
CONTINUOUS
 62
     0
 10
3.4
 20
2.84999999999998
 30
0.0
 11
4.19999999999999
 21
2.84999999999998
 31
0.0
  0
ARC
  5
   1DD
  8
0
  6
CONTINUOUS
 62
     0
 10
5.59999999999999
 20
0.649999999999981
 30
0.0
 40
1.4
 50
0.0
 51
180.0
  0
LINE
  5
   1DE
  8
0
  6
CONTINUOUS
 62
     0
 10
4.19999999999999
 20
2.05
 30
0.0
 11
4.19999999999999
 21
2.84999999999998
 31
0.0
  0
ARC
  5
   1DF
  8
0
  6
CONTINUOUS
 62
     0
 10
5.79999999999999
 20
0.84999999999998
 30
0.0
 40
2.0
 50
0.0
 51
143.130102354155
  0
LINE
  5
   1E0
  8
0
  6
CONTINUOUS
 62
     0
 10
6.99999999999999
 20
-2.85000000000002
 30
0.0
 11
7.79999999999999
 21
-2.85000000000002
 31
0.0
  0
ENDBLK
  5
   1E1
  8
0
  6
CONTINUOUS
 62
     0
  0
BLOCK
  5
   1E2
  8
0
  6
CONTINUOUS
 62
     7
  2
MOSTRINA
 70
    64
 10
0.0
 20
0.0
 30
0.0
  3
MOSTRINA
  0
LINE
  5
   1E3
  8
0
  6
CONTINUOUS
 62
     3
 10
173.338256835938
 20
30.7306251525879
 30
0.0
 11
173.338256835938
 21
189.230621337891
 31
0.0
  0
LINE
  5
   1E4
  8
0
  6
CONTINUOUS
 62
     3
 10
57.5882568359375
 20
29.4806251525879
 30
0.0
 11
172.088256835938
 21
29.4806251525879
 31
0.0
  0
LINE
  5
   1E5
  8
0
  6
CONTINUOUS
 62
     3
 10
56.3382568359375
 20
30.7306251525879
 30
0.0
 11
56.3382568359375
 21
189.230621337891
 31
0.0
  0
LINE
  5
   1E6
  8
0
  6
CONTINUOUS
 62
     3
 10
57.5882568359375
 20
190.480621337891
 30
0.0
 11
172.088256835938
 21
190.480621337891
 31
0.0
  0
LINE
  5
   1E7
  8
0
  6
CONTINUOUS
 62
     3
 10
167.838256835938
 20
56.9806251525879
 30
0.0
 11
167.838256835938
 21
162.980625152588
 31
0.0
  0
LINE
  5
   1E8
  8
0
  6
CONTINUOUS
 62
     3
 10
61.8382568359375
 20
56.9806251525879
 30
0.0
 11
167.838256835938
 21
56.9806251525879
 31
0.0
  0
LINE
  5
   1E9
  8
0
  6
CONTINUOUS
 62
     3
 10
61.8382568359375
 20
56.9806251525879
 30
0.0
 11
61.8382568359375
 21
162.980625152588
 31
0.0
  0
LINE
  5
   1EA
  8
0
  6
CONTINUOUS
 62
     3
 10
61.8382568359375
 20
162.980621337891
 30
0.0
 11
167.838256835938
 21
162.980621337891
 31
0.0
  0
LINE
  5
   1EB
  8
0
  6
CONTINUOUS
 62
     3
 10
168.838256835938
 20
48.4806251525879
 30
0.0
 11
168.838256835938
 21
49.4806251525879
 31
0.0
  0
LINE
  5
   1EC
  8
0
  6
CONTINUOUS
 62
     3
 10
61.8382568359375
 20
50.4806251525879
 30
0.0
 11
167.838256835938
 21
50.4806251525879
 31
0.0
  0
LINE
  5
   1ED
  8
0
  6
CONTINUOUS
 62
     3
 10
60.8382568359375
 20
48.4806251525879
 30
0.0
 11
60.8382568359375
 21
49.4806251525879
 31
0.0
  0
LINE
  5
   1EE
  8
0
  6
CONTINUOUS
 62
     3
 10
61.8382568359375
 20
49.4806251525879
 30
0.0
 11
167.838256835938
 21
49.4806251525879
 31
0.0
  0
LINE
  5
   1EF
  8
0
  6
CONTINUOUS
 62
     3
 10
60.8382568359375
 20
29.4806251525879
 30
0.0
 11
60.8382568359375
 21
48.4806251525879
 31
0.0
  0
LINE
  5
   1F0
  8
0
  6
CONTINUOUS
 62
     3
 10
60.8382568359375
 20
49.4806213378906
 30
0.0
 11
60.8382568359375
 21
190.480621337891
 31
0.0
  0
LINE
  5
   1F1
  8
0
  6
CONTINUOUS
 62
     3
 10
61.8382568359375
 20
29.4806251525879
 30
0.0
 11
61.8382568359375
 21
49.4806251525879
 31
0.0
  0
LINE
  5
   1F2
  8
0
  6
CONTINUOUS
 62
     3
 10
61.8382568359375
 20
162.980621337891
 30
0.0
 11
61.8382568359375
 21
169.480621337891
 31
0.0
  0
LINE
  5
   1F3
  8
0
  6
CONTINUOUS
 62
     3
 10
61.8382568359375
 20
50.4806251525879
 30
0.0
 11
61.8382568359375
 21
56.9806251525879
 31
0.0
  0
LINE
  5
   1F4
  8
0
  6
CONTINUOUS
 62
     3
 10
168.838256835938
 20
29.4806251525879
 30
0.0
 11
168.838256835938
 21
48.4806251525879
 31
0.0
  0
LINE
  5
   1F5
  8
0
  6
CONTINUOUS
 62
     3
 10
168.838256835938
 20
49.4806251525879
 30
0.0
 11
168.838256835938
 21
190.480621337891
 31
0.0
  0
LINE
  5
   1F6
  8
0
  6
CONTINUOUS
 62
     3
 10
167.838256835938
 20
50.4806251525879
 30
0.0
 11
167.838256835938
 21
56.9806251525879
 31
0.0
  0
LINE
  5
   1F7
  8
0
  6
CONTINUOUS
 62
     3
 10
167.838256835938
 20
162.980621337891
 30
0.0
 11
167.838256835938
 21
169.480621337891
 31
0.0
  0
LINE
  5
   1F8
  8
0
  6
CONTINUOUS
 62
     3
 10
167.838256835938
 20
29.4806251525879
 30
0.0
 11
167.838256835938
 21
49.4806251525879
 31
0.0
  0
LINE
  5
   1F9
  8
0
  6
CONTINUOUS
 62
     3
 10
60.8382568359375
 20
170.480621337891
 30
0.0
 11
168.838256835938
 21
170.480621337891
 31
0.0
  0
LINE
  5
   1FA
  8
0
  6
CONTINUOUS
 62
     3
 10
61.8382568359375
 20
169.480621337891
 30
0.0
 11
167.838256835938
 21
169.480621337891
 31
0.0
  0
ARC
  5
   1FB
  8
0
  6
CONTINUOUS
 62
     3
 10
57.5882568359375
 20
30.7306251525879
 30
0.0
 40
1.25
 50
180.0
 51
270.0
  0
ARC
  5
   1FC
  8
0
  6
CONTINUOUS
 62
     3
 10
172.088256835938
 20
30.7306251525879
 30
0.0
 40
1.25
 50
270.0
 51
360.0
  0
ARC
  5
   1FD
  8
0
  6
CONTINUOUS
 62
     3
 10
172.088256835938
 20
189.230621337891
 30
0.0
 40
1.25
 50
0.0
 51
90.0
  0
ARC
  5
   1FE
  8
0
  6
CONTINUOUS
 62
     3
 10
57.5882568359375
 20
189.230621337891
 30
0.0
 40
1.25
 50
90.0
 51
180.0
  0
LINE
  5
   1FF
  8
0
  6
DOT
 62
     3
 10
60.3382577409677
 20
179.7306252571
 30
0.0
 11
60.8382568359375
 21
179.7306252571
 31
0.0
  0
LINE
  5
   200
  8
0
  6
DOT
 62
     3
 10
60.3382577409676
 20
181.2306252571
 30
0.0
 11
60.8382568359375
 21
181.2306252571
 31
0.0
  0
LINE
  5
   201
  8
0
  6
CONTINUOUS
 62
     3
 10
168.338257745313
 20
179.730625257273
 30
0.0
 11
168.838256835938
 21
179.730625257273
 31
0.0
  0
LINE
  5
   202
  8
0
  6
CONTINUOUS
 62
     3
 10
168.338257745314
 20
181.230625257273
 30
0.0
 11
168.838256835938
 21
181.230625257273
 31
0.0
  0
ARC
  5
   203
  8
0
  6
DOT
 62
     3
 10
60.3382577401871
 20
180.480625257147
 30
0.0
 40
0.749999999345164
 50
90.0
 51
270.0
  0
ARC
  5
   204
  8
0
  6
CONTINUOUS
 62
     3
 10
61.338257740822
 20
180.480625256974
 30
0.0
 40
0.750000000009701
 50
270.0
 51
450.0
  0
LINE
  5
   205
  8
0
  6
CONTINUOUS
 62
     3
 10
60.8382568359375
 20
181.2306252571
 30
0.0
 11
61.3382577409688
 21
181.2306252571
 31
0.0
  0
LINE
  5
   206
  8
0
  6
CONTINUOUS
 62
     3
 10
60.8382568359375
 20
179.7306252571
 30
0.0
 11
61.3382577409689
 21
179.7306252571
 31
0.0
  0
ARC
  5
   207
  8
0
  6
CONTINUOUS
 62
     3
 10
168.338257745503
 20
180.480625256952
 30
0.0
 40
0.750000000048506
 50
90.0000000038822
 51
269.999999996024
  0
ARC
  5
   208
  8
0
  6
DOT
 62
     3
 10
169.338257745421
 20
180.480625256965
 30
0.0
 40
0.750000000029104
 50
270.000000002449
 51
449.999999997486
  0
LINE
  5
   209
  8
0
  6
DOT
 62
     3
 10
168.838256835938
 20
181.230625257273
 30
0.0
 11
169.338257745315
 21
181.230625257273
 31
0.0
  0
LINE
  5
   20A
  8
0
  6
DOT
 62
     3
 10
168.838256835938
 20
179.730625257273
 30
0.0
 11
169.338257745315
 21
179.730625257273
 31
0.0
  0
POINT
  5
   20B
  8
0
  6
CONTINUOUS
 62
     3
 10
114.838256835938
 20
109.980621337891
 30
0.0
  0
ENDBLK
  5
   20C
  8
0
  6
CONTINUOUS
 62
     7
  0
BLOCK
  5
   20D
  8
0
  6
CONTINUOUS
 62
     7
  2
*UDIM233
 70
    65
 10
0.0
 20
0.0
 30
0.0
  3
*UDIM233
  0
TEXT
  5
   20E
  8
0
  6
CONTINUOUS
 62
     7
 10
-568.319661143974
 20
13.2321502224926
 30
0.0
 40
3.00000002980232
  1
161
 50
89.9999999480344
 41
0.933333333333333
 72
     1
 11
-569.819661155343
 21
17.1321502625942
 31
0.0
 73
     2
  0
LINE
  5
   20F
  8
0
  6
CONTINUOUS
 62
     7
 10
-581.275742263443
 20
-22.8428478240967
 30
0.0
 11
-565.319661140442
 21
-22.8428478240967
 31
0.0
  0
LINE
  5
   210
  8
0
  6
CONTINUOUS
 62
     7
 10
-581.275742263443
 20
57.6571502685547
 30
0.0
 11
-565.319661140442
 21
57.6571502685547
 31
0.0
  0
LINE
  5
   211
  8
0
  6
CONTINUOUS
 62
     7
 10
-567.319661140442
 20
-22.8428478240967
 30
0.0
 11
-567.319661140442
 21
57.6571502685547
 31
0.0
  0
LINE
  5
   212
  8
0
  6
CONTINUOUS
 62
     7
 10
-567.840605570394
 20
-19.8884245468897
 30
0.0
 11
-567.319661140442
 21
-22.8428478240967
 31
0.0
  0
LINE
  5
   213
  8
0
  6
CONTINUOUS
 62
     7
 10
-567.319661140442
 20
-22.8428478240967
 30
0.0
 11
-566.79871671049
 21
-19.8884245468897
 31
0.0
  0
LINE
  5
   214
  8
0
  6
CONTINUOUS
 62
     7
 10
-566.79871671049
 20
54.7027269913477
 30
0.0
 11
-567.319661140442
 21
57.6571502685547
 31
0.0
  0
LINE
  5
   215
  8
0
  6
CONTINUOUS
 62
     7
 10
-567.319661140442
 20
57.6571502685547
 30
0.0
 11
-567.840605570394
 21
54.7027269913477
 31
0.0
  0
ENDBLK
  5
   216
  8
0
  6
CONTINUOUS
 62
     7
  0
BLOCK
  5
   217
  8
0
  6
CONTINUOUS
 62
     7
  2
*UDIM234
 70
    65
 10
0.0
 20
0.0
 30
0.0
  3
*UDIM234
  0
TEXT
  5
   218
  8
0
  6
CONTINUOUS
 62
     7
 10
-615.075741624046
 20
99.0166626011738
 30
0.0
 40
3.00000002980232
  1
117
 50
359.999999948034
 41
0.933333333333333
 72
     1
 11
-611.17574158395
 21
100.516662612557
 31
0.0
 73
     2
  0
LINE
  5
   219
  8
0
  6
CONTINUOUS
 62
     7
 10
-581.650742263444
 20
58.0321502685547
 30
0.0
 11
-581.650742263443
 21
100.016662597656
 31
0.0
  0
LINE
  5
   21A
  8
0
  6
CONTINUOUS
 62
     7
 10
-640.150742263443
 20
58.0321502685547
 30
0.0
 11
-640.150742263443
 21
100.016662597656
 31
0.0
  0
LINE
  5
   21B
  8
0
  6
CONTINUOUS
 62
     7
 10
-581.650742263443
 20
98.0166625976563
 30
0.0
 11
-640.150742263443
 21
98.0166625976563
 31
0.0
  0
LINE
  5
   21C
  8
0
  6
CONTINUOUS
 62
     7
 10
-584.605165540651
 20
97.4957181677046
 30
0.0
 11
-581.650742263443
 21
98.0166625976563
 31
0.0
  0
LINE
  5
   21D
  8
0
  6
CONTINUOUS
 62
     7
 10
-581.650742263443
 20
98.0166625976563
 30
0.0
 11
-584.605165540651
 21
98.5376070276079
 31
0.0
  0
LINE
  5
   21E
  8
0
  6
CONTINUOUS
 62
     7
 10
-637.196318986236
 20
98.5376070276079
 30
0.0
 11
-640.150742263443
 21
98.0166625976563
 31
0.0
  0
LINE
  5
   21F
  8
0
  6
CONTINUOUS
 62
     7
 10
-640.150742263443
 20
98.0166625976563
 30
0.0
 11
-637.196318986236
 21
97.4957181677046
 31
0.0
  0
ENDBLK
  5
   220
  8
0
  6
CONTINUOUS
 62
     7
  0
BLOCK
  5
   221
  8
0
  6
CONTINUOUS
 62
     7
  2
*UDIM235
 70
    65
 10
0.0
 20
0.0
 30
0.0
  3
*UDIM235
  0
TEXT
  5
   222
  8
0
  6
CONTINUOUS
 62
     7
 10
-666.785339357733
 20
-61.2428344917152
 30
0.0
 40
3.00000002980232
  1
46
 50
89.9999999480344
 41
0.933333333333333
 72
     1
 11
-668.28533937037
 21
-58.7428344655213
 31
0.0
 73
     2
  0
LINE
  5
   223
  8
0
  6
CONTINUOUS
 62
     7
 10
-620.201224453968
 20
-69.9678326416191
 30
0.0
 11
-667.785339355469
 21
-69.9678326416191
 31
0.0
  0
LINE
  5
   224
  8
0
  6
CONTINUOUS
 62
     7
 10
-645.150742067817
 20
-46.9678326416193
 30
0.0
 11
-667.785339355469
 21
-46.9678326416193
 31
0.0
  0
LINE
  5
   225
  8
0
  6
CONTINUOUS
 62
     7
 10
-665.785339355469
 20
-69.9678326416191
 30
0.0
 11
-665.785339355469
 21
-46.9678326416193
 31
0.0
  0
LINE
  5
   226
  8
0
  6
CONTINUOUS
 62
     7
 10
-666.30628378542
 20
-67.0134093644122
 30
0.0
 11
-665.785339355469
 21
-69.9678326416191
 31
0.0
  0
LINE
  5
   227
  8
0
  6
CONTINUOUS
 62
     7
 10
-665.785339355469
 20
-69.9678326416191
 30
0.0
 11
-665.264394925517
 21
-67.0134093644122
 31
0.0
  0
LINE
  5
   228
  8
0
  6
CONTINUOUS
 62
     7
 10
-665.264394925517
 20
-49.9222559188263
 30
0.0
 11
-665.785339355469
 21
-46.9678326416193
 31
0.0
  0
LINE
  5
   229
  8
0
  6
CONTINUOUS
 62
     7
 10
-665.785339355469
 20
-46.9678326416193
 30
0.0
 11
-666.30628378542
 21
-49.9222559188263
 31
0.0
  0
ENDBLK
  5
   22A
  8
0
  6
CONTINUOUS
 62
     7
  0
BLOCK
  5
   22B
  8
0
  6
CONTINUOUS
 62
     7
  2
*UDIM236
 70
    65
 10
0.0
 20
0.0
 30
0.0
  3
*UDIM236
  0
TEXT
  5
   22C
  8
0
  6
CONTINUOUS
 62
     7
 10
-655.560920722668
 20
40.3446501807694
 30
0.0
 40
3.00000002980232
  1
125,25
 50
89.9999999480344
 41
0.933333333333333
 72
     1
 11
-657.060920730233
 21
48.4446502625942
 31
0.0
 73
     2
  0
LINE
  5
   22D
  8
0
  6
CONTINUOUS
 62
     7
 10
-645.150718688965
 20
80.0321426391602
 30
0.0
 11
-656.560920715332
 21
80.0321426391602
 31
0.0
  0
LINE
  5
   22E
  8
0
  6
CONTINUOUS
 62
     7
 10
-654.560920715332
 20
17.4071502685547
 30
0.0
 11
-654.560920715332
 21
80.0321426391602
 31
0.0
  0
LINE
  5
   22F
  8
0
  6
CONTINUOUS
 62
     7
 10
-655.081865145284
 20
20.3615735457617
 30
0.0
 11
-654.560920715332
 21
17.4071502685547
 31
0.0
  0
LINE
  5
   230
  8
0
  6
CONTINUOUS
 62
     7
 10
-654.560920715332
 20
17.4071502685547
 30
0.0
 11
-654.03997628538
 21
20.3615735457617
 31
0.0
  0
LINE
  5
   231
  8
0
  6
CONTINUOUS
 62
     7
 10
-654.03997628538
 20
77.0777193619532
 30
0.0
 11
-654.560920715332
 21
80.0321426391602
 31
0.0
  0
LINE
  5
   232
  8
0
  6
CONTINUOUS
 62
     7
 10
-654.560920715332
 20
80.0321426391602
 30
0.0
 11
-655.081865145284
 21
77.0777193619532
 31
0.0
  0
ENDBLK
  5
   233
  8
0
  6
CONTINUOUS
 62
     7
  0
BLOCK
  5
   234
  8
0
  6
CONTINUOUS
 62
     7
  2
*UDIM237
 70
    65
 10
0.0
 20
0.0
 30
0.0
  3
*UDIM237
  0
TEXT
  5
   235
  8
0
  6
CONTINUOUS
 62
     7
 10
-615.075745438737
 20
92.8913116490254
 30
0.0
 40
3.00000002980232
  1
105
 50
359.999999948034
 41
0.933333333333333
 72
     1
 11
-611.175745398641
 21
94.391311660409
 31
0.0
 73
     2
  0
LINE
  5
   236
  8
0
  6
CONTINUOUS
 62
     7
 10
-584.650749892838
 20
44.4071502685547
 30
0.0
 11
-584.650749892838
 21
93.8913116455078
 31
0.0
  0
LINE
  5
   237
  8
0
  6
CONTINUOUS
 62
     7
 10
-637.150742263429
 20
44.4071502685547
 30
0.0
 11
-637.150742263429
 21
93.8913116455078
 31
0.0
  0
LINE
  5
   238
  8
0
  6
CONTINUOUS
 62
     7
 10
-584.650749892838
 20
91.8913116455078
 30
0.0
 11
-637.150742263429
 21
91.8913116455078
 31
0.0
  0
LINE
  5
   239
  8
0
  6
CONTINUOUS
 62
     7
 10
-587.605173170045
 20
91.3703672155562
 30
0.0
 11
-584.650749892838
 21
91.8913116455078
 31
0.0
  0
LINE
  5
   23A
  8
0
  6
CONTINUOUS
 62
     7
 10
-584.650749892838
 20
91.8913116455078
 30
0.0
 11
-587.605173170045
 21
92.4122560754595
 31
0.0
  0
LINE
  5
   23B
  8
0
  6
CONTINUOUS
 62
     7
 10
-634.196318986223
 20
92.4122560754595
 30
0.0
 11
-637.150742263429
 21
91.8913116455078
 31
0.0
  0
LINE
  5
   23C
  8
0
  6
CONTINUOUS
 62
     7
 10
-637.150742263429
 20
91.8913116455078
 30
0.0
 11
-634.196318986223
 21
91.3703672155562
 31
0.0
  0
ENDBLK
  5
   23D
  8
0
  6
CONTINUOUS
 62
     7
  0
BLOCK
  5
   23E
  8
0
  6
CONTINUOUS
 62
     7
  2
*UDIM238
 70
    65
 10
0.0
 20
0.0
 30
0.0
  3
*UDIM238
  0
TEXT
  5
   23F
  8
0
  6
CONTINUOUS
 62
     7
 10
-666.08271789904
 20
12.3571578435336
 30
0.0
 40
3.00000002980232
  1
254
 50
89.9999999480344
 41
0.933333333333333
 72
     1
 11
-667.582717910409
 21
16.2571578836352
 31
0.0
 73
     2
  0
LINE
  5
   240
  8
0
  6
CONTINUOUS
 62
     7
 10
-645.150742067817
 20
-46.9678326416193
 30
0.0
 11
-667.082717895508
 21
-46.9678326416193
 31
0.0
  0
LINE
  5
   241
  8
0
  6
CONTINUOUS
 62
     7
 10
-645.150718688965
 20
80.0321426391602
 30
0.0
 11
-667.082717895508
 21
80.0321426391602
 31
0.0
  0
LINE
  5
   242
  8
0
  6
CONTINUOUS
 62
     7
 10
-665.082717895508
 20
-46.9678326416193
 30
0.0
 11
-665.082717895508
 21
80.0321426391602
 31
0.0
  0
LINE
  5
   243
  8
0
  6
CONTINUOUS
 62
     7
 10
-665.603662325459
 20
-44.0134093644123
 30
0.0
 11
-665.082717895508
 21
-46.9678326416193
 31
0.0
  0
LINE
  5
   244
  8
0
  6
CONTINUOUS
 62
     7
 10
-665.082717895508
 20
-46.9678326416193
 30
0.0
 11
-664.561773465556
 21
-44.0134093644123
 31
0.0
  0
LINE
  5
   245
  8
0
  6
CONTINUOUS
 62
     7
 10
-664.561773465556
 20
77.0777193619532
 30
0.0
 11
-665.082717895508
 21
80.0321426391602
 31
0.0
  0
LINE
  5
   246
  8
0
  6
CONTINUOUS
 62
     7
 10
-665.082717895508
 20
80.0321426391602
 30
0.0
 11
-665.603662325459
 21
77.0777193619532
 31
0.0
  0
ENDBLK
  5
   247
  8
0
  6
CONTINUOUS
 62
     7
  0
BLOCK
  5
   248
  8
0
  6
CONTINUOUS
 62
     7
  2
*UDIM239
 70
    65
 10
0.0
 20
0.0
 30
0.0
  3
*UDIM239
  0
TEXT
  5
   249
  8
0
  6
CONTINUOUS
 62
     7
 10
-606.938188242941
 20
85.234603887879
 30
0.0
 40
3.00000002980232
  1
43,75
 50
359.999999948034
 41
0.933333333333333
 72
     1
 11
-600.23818817503
 21
86.7346038967371
 31
0.0
 73
     2
  0
LINE
  5
   24A
  8
0
  6
CONTINUOUS
 62
     7
 10
-589.025742028659
 20
-38.267831691769
 30
0.0
 11
-589.025702945293
 21
86.2346038818358
 31
0.0
  0
LINE
  5
   24B
  8
0
  6
CONTINUOUS
 62
     7
 10
-610.900740784448
 20
-38.267830263632
 30
0.0
 11
-610.900701701083
 21
86.2346038818358
 31
0.0
  0
LINE
  5
   24C
  8
0
  6
CONTINUOUS
 62
     7
 10
-589.025703573126
 20
84.2346038818359
 30
0.0
 11
-610.900702328916
 21
84.2346038818359
 31
0.0
  0
LINE
  5
   24D
  8
0
  6
CONTINUOUS
 62
     7
 10
-591.980126850333
 20
83.7136594518843
 30
0.0
 11
-589.025703573126
 21
84.2346038818359
 31
0.0
  0
LINE
  5
   24E
  8
0
  6
CONTINUOUS
 62
     7
 10
-589.025703573126
 20
84.2346038818359
 30
0.0
 11
-591.980126850333
 21
84.7555483117876
 31
0.0
  0
LINE
  5
   24F
  8
0
  6
CONTINUOUS
 62
     7
 10
-607.946279051709
 20
84.7555483117876
 30
0.0
 11
-610.900702328916
 21
84.2346038818359
 31
0.0
  0
LINE
  5
   250
  8
0
  6
CONTINUOUS
 62
     7
 10
-610.900702328916
 20
84.2346038818359
 30
0.0
 11
-607.946279051709
 21
83.7136594518843
 31
0.0
  0
ENDBLK
  5
   251
  8
0
  6
CONTINUOUS
 62
     7
  0
BLOCK
  5
   252
  8
0
  6
CONTINUOUS
 62
     7
  2
*UDIM240
 70
    65
 10
0.0
 20
0.0
 30
0.0
  3
*UDIM240
  0
TEXT
  5
   253
  8
0
  6
CONTINUOUS
 62
     7
 10
-628.813188244368
 20
85.234603887879
 30
0.0
 40
3.00000002980232
  1
43,75
 50
359.999999948034
 41
0.933333333333333
 72
     1
 11
-622.113188176457
 21
86.7346038967371
 31
0.0
 73
     2
  0
LINE
  5
   254
  8
0
  6
CONTINUOUS
 62
     7
 10
-632.77574163436
 20
-29.2178325982796
 30
0.0
 11
-632.775705391938
 21
86.2346038818358
 31
0.0
  0
LINE
  5
   255
  8
0
  6
CONTINUOUS
 62
     7
 10
-610.900702328916
 20
84.2346038818359
 30
0.0
 11
-632.775706019771
 21
84.2346038818359
 31
0.0
  0
LINE
  5
   256
  8
0
  6
CONTINUOUS
 62
     7
 10
-613.855125606123
 20
83.7136594518843
 30
0.0
 11
-610.900702328916
 21
84.2346038818359
 31
0.0
  0
LINE
  5
   257
  8
0
  6
CONTINUOUS
 62
     7
 10
-610.900702328916
 20
84.2346038818359
 30
0.0
 11
-613.855125606123
 21
84.7555483117876
 31
0.0
  0
LINE
  5
   258
  8
0
  6
CONTINUOUS
 62
     7
 10
-629.821282742564
 20
84.7555483117876
 30
0.0
 11
-632.775706019771
 21
84.2346038818359
 31
0.0
  0
LINE
  5
   259
  8
0
  6
CONTINUOUS
 62
     7
 10
-632.775706019771
 20
84.2346038818359
 30
0.0
 11
-629.821282742564
 21
83.7136594518843
 31
0.0
  0
ENDBLK
  5
   25A
  8
0
  6
CONTINUOUS
 62
     7
  0
BLOCK
  5
   25B
  8
0
  6
CONTINUOUS
 62
     7
  2
*UDIM241
 70
    65
 10
0.0
 20
0.0
 30
0.0
  3
*UDIM241
  0
TEXT
  5
   25C
  8
0
  6
CONTINUOUS
 62
     7
 10
-615.075718727034
 20
104.835754398049
 30
0.0
 40
3.00000002980232
  1
140
 50
359.999999948034
 41
0.933333333333333
 72
     1
 11
-611.175718686938
 21
106.335754409432
 31
0.0
 73
     2
  0
LINE
  5
   25D
  8
0
  6
CONTINUOUS
 62
     7
 10
-575.900725872418
 20
79.6321426391601
 30
0.0
 11
-575.900714187135
 21
105.835754394531
 31
0.0
  0
LINE
  5
   25E
  8
0
  6
CONTINUOUS
 62
     7
 10
-645.900718377153
 20
79.6321426391601
 30
0.0
 11
-645.900710151408
 21
105.835754394531
 31
0.0
  0
LINE
  5
   25F
  8
0
  6
CONTINUOUS
 62
     7
 10
-575.900715079018
 20
103.835754394531
 30
0.0
 11
-645.90071077924
 21
103.835754394531
 31
0.0
  0
LINE
  5
   260
  8
0
  6
CONTINUOUS
 62
     7
 10
-578.855138356225
 20
103.31480996458
 30
0.0
 11
-575.900715079018
 21
103.835754394531
 31
0.0
  0
LINE
  5
   261
  8
0
  6
CONTINUOUS
 62
     7
 10
-575.900715079018
 20
103.835754394531
 30
0.0
 11
-578.855138356225
 21
104.356698824483
 31
0.0
  0
LINE
  5
   262
  8
0
  6
CONTINUOUS
 62
     7
 10
-642.946287502033
 20
104.356698824483
 30
0.0
 11
-645.90071077924
 21
103.835754394531
 31
0.0
  0
LINE
  5
   263
  8
0
  6
CONTINUOUS
 62
     7
 10
-645.90071077924
 20
103.835754394531
 30
0.0
 11
-642.946287502033
 21
103.31480996458
 31
0.0
  0
ENDBLK
  5
   264
  8
0
  6
CONTINUOUS
 62
     7
  0
BLOCK
  5
   265
  8
0
  6
CONTINUOUS
 62
     7
  2
*UDIM242
 70
    65
 10
0.0
 20
0.0
 30
0.0
  3
*UDIM242
  0
TEXT
  5
   266
  8
0
  6
CONTINUOUS
 62
     7
 10
-372.930987073585
 20
36.420936571355
 30
0.0
 40
3.00000002980232
  1
7
 50
398.442908631415
 41
0.933333333333334
 72
     1
 11
-373.002037973601
 21
38.2796866455584
 31
0.0
 73
     2
  0
TEXT
  5
   267
  8
0
  6
CONTINUOUS
 62
     7
 10
-375.398155471208
 20
34.4624728468106
 30
0.0
 40
3.00000002980232
  1
Ø
 50
398.442908631415
 41
0.933333333333334
 72
     1
 11
-375.469206371224
 21
36.3212229210139
 31
0.0
 73
     2
  0
LINE
  5
   268
  8
0
  6
CONTINUOUS
 62
     7
 10
-360.327767488282
 20
45.1487349541854
 30
0.0
 11
-374.776420952393
 21
33.6792447867362
 31
0.0
  0
LINE
  5
   269
  8
0
  6
CONTINUOUS
 62
     7
 10
-358.337669407522
 20
47.3936201692816
 30
0.0
 11
-360.327767488282
 21
45.1487349541854
 31
0.0
  0
LINE
  5
   26A
  8
0
  6
CONTINUOUS
 62
     7
 10
-360.327767488282
 20
45.1487349541854
 30
0.0
 11
-357.68989114381
 21
46.5775835785254
 31
0.0
  0
LINE
  5
   26B
  8
0
  6
CONTINUOUS
 62
     7
 10
-363.688514674509
 20
41.8158143399957
 30
0.0
 11
-361.69841659375
 21
44.0606995550919
 31
0.0
  0
LINE
  5
   26C
  8
0
  6
CONTINUOUS
 62
     7
 10
-361.69841659375
 20
44.0606995550919
 30
0.0
 11
-364.336292938221
 21
42.631850930752
 31
0.0
  0
ENDBLK
  5
   26D
  8
0
  6
CONTINUOUS
 62
     7
  0
BLOCK
  5
   26E
  8
0
  6
CONTINUOUS
 62
     7
  2
*UDIM243
 70
    65
 10
0.0
 20
0.0
 30
0.0
  3
*UDIM243
  0
TEXT
  5
   26F
  8
0
  6
CONTINUOUS
 62
     7
 10
-353.788092075885
 20
92.8908958502956
 30
0.0
 40
3.00000002980232
  1
80
 50
359.999999844103
 41
0.933333333333333
 72
     1
 11
-351.288092046976
 21
94.390895858407
 31
0.0
 73
     2
  0
LINE
  5
   270
  8
0
  6
CONTINUOUS
 62
     7
 10
-361.013092041016
 20
82.7297172546387
 30
0.0
 11
-361.013092041016
 21
93.8908958435059
 31
0.0
  0
LINE
  5
   271
  8
0
  6
CONTINUOUS
 62
     7
 10
-341.013092041016
 20
82.7297172546387
 30
0.0
 11
-341.013092041016
 21
93.8908958435059
 31
0.0
  0
LINE
  5
   272
  8
0
  6
CONTINUOUS
 62
     7
 10
-361.013092041016
 20
91.8908958435059
 30
0.0
 11
-341.013092041016
 21
91.8908958435059
 31
0.0
  0
LINE
  5
   273
  8
0
  6
CONTINUOUS
 62
     7
 10
-358.058668763809
 20
92.4118402734575
 30
0.0
 11
-361.013092041016
 21
91.8908958435059
 31
0.0
  0
LINE
  5
   274
  8
0
  6
CONTINUOUS
 62
     7
 10
-361.013092041016
 20
91.8908958435059
 30
0.0
 11
-358.058668763809
 21
91.3699514135542
 31
0.0
  0
LINE
  5
   275
  8
0
  6
CONTINUOUS
 62
     7
 10
-343.967515318223
 20
91.3699514135542
 30
0.0
 11
-341.013092041016
 21
91.8908958435059
 31
0.0
  0
LINE
  5
   276
  8
0
  6
CONTINUOUS
 62
     7
 10
-341.013092041016
 20
91.8908958435059
 30
0.0
 11
-343.967515318223
 21
92.4118402734575
 31
0.0
  0
ENDBLK
  5
   277
  8
0
  6
CONTINUOUS
 62
     7
  0
BLOCK
  5
   278
  8
0
  6
CONTINUOUS
 62
     7
  2
*UDIM244
 70
    65
 10
0.0
 20
0.0
 30
0.0
  3
*UDIM244
  0
TEXT
  5
   279
  8
0
  6
CONTINUOUS
 62
     7
 10
-355.188092089793
 20
99.3305549727502
 30
0.0
 40
3.00000002980232
  1
112
 50
359.999999844103
 41
0.933333333333333
 72
     1
 11
-351.288092046976
 21
100.830554977059
 31
0.0
 73
     2
  0
LINE
  5
   27A
  8
0
  6
CONTINUOUS
 62
     7
 10
-365.013092041016
 20
77.3547172546387
 30
0.0
 11
-365.013092041016
 21
100.330554962158
 31
0.0
  0
LINE
  5
   27B
  8
0
  6
CONTINUOUS
 62
     7
 10
-337.013092041016
 20
77.3547172546387
 30
0.0
 11
-337.013092041016
 21
100.330554962158
 31
0.0
  0
LINE
  5
   27C
  8
0
  6
CONTINUOUS
 62
     7
 10
-365.013092041016
 20
98.3305549621582
 30
0.0
 11
-337.013092041016
 21
98.3305549621582
 31
0.0
  0
LINE
  5
   27D
  8
0
  6
CONTINUOUS
 62
     7
 10
-362.058668763809
 20
98.8514993921099
 30
0.0
 11
-365.013092041016
 21
98.3305549621582
 31
0.0
  0
LINE
  5
   27E
  8
0
  6
CONTINUOUS
 62
     7
 10
-365.013092041016
 20
98.3305549621582
 30
0.0
 11
-362.058668763809
 21
97.8096105322065
 31
0.0
  0
LINE
  5
   27F
  8
0
  6
CONTINUOUS
 62
     7
 10
-339.967515318223
 20
97.8096105322065
 30
0.0
 11
-337.013092041016
 21
98.3305549621582
 31
0.0
  0
LINE
  5
   280
  8
0
  6
CONTINUOUS
 62
     7
 10
-337.013092041016
 20
98.3305549621582
 30
0.0
 11
-339.967515318223
 21
98.8514993921099
 31
0.0
  0
ENDBLK
  5
   281
  8
0
  6
CONTINUOUS
 62
     7
  0
BLOCK
  5
   282
  8
0
  6
CONTINUOUS
 62
     7
  2
*UDIM245
 70
    65
 10
0.0
 20
0.0
 30
0.0
  3
*UDIM245
  0
TEXT
  5
   283
  8
0
  6
CONTINUOUS
 62
     7
 10
-377.420467387296
 20
58.1797172058632
 30
0.0
 40
3.00000002980232
  1
112
 50
449.999999844103
 41
0.933333333333333
 72
     1
 11
-378.92046739161
 21
62.0797172486782
 31
0.0
 73
     2
  0
LINE
  5
   284
  8
0
  6
CONTINUOUS
 62
     7
 10
-366.013092041016
 20
76.3547172546387
 30
0.0
 11
-378.420467376709
 21
76.3547172546387
 31
0.0
  0
LINE
  5
   285
  8
0
  6
CONTINUOUS
 62
     7
 10
-366.013092041016
 20
48.3547172546387
 30
0.0
 11
-378.420467376709
 21
48.3547172546387
 31
0.0
  0
LINE
  5
   286
  8
0
  6
CONTINUOUS
 62
     7
 10
-376.420467376709
 20
76.3547172546387
 30
0.0
 11
-376.420467376709
 21
48.3547172546387
 31
0.0
  0
LINE
  5
   287
  8
0
  6
CONTINUOUS
 62
     7
 10
-375.899522946757
 20
73.4002939774317
 30
0.0
 11
-376.420467376709
 21
76.3547172546387
 31
0.0
  0
LINE
  5
   288
  8
0
  6
CONTINUOUS
 62
     7
 10
-376.420467376709
 20
76.3547172546387
 30
0.0
 11
-376.941411806661
 21
73.4002939774317
 31
0.0
  0
LINE
  5
   289
  8
0
  6
CONTINUOUS
 62
     7
 10
-376.941411806661
 20
51.3091405318456
 30
0.0
 11
-376.420467376709
 21
48.3547172546387
 31
0.0
  0
LINE
  5
   28A
  8
0
  6
CONTINUOUS
 62
     7
 10
-376.420467376709
 20
48.3547172546387
 30
0.0
 11
-375.899522946757
 21
51.3091405318456
 31
0.0
  0
ENDBLK
  5
   28B
  8
0
  6
CONTINUOUS
 62
     7
  0
BLOCK
  5
   28C
  8
0
  6
CONTINUOUS
 62
     7
  2
*UDIM246
 70
    65
 10
0.0
 20
0.0
 30
0.0
  3
*UDIM246
  0
TEXT
  5
   28D
  8
0
  6
CONTINUOUS
 62
     7
 10
-387.148723612882
 20
58.1797172058632
 30
0.0
 40
3.00000002980232
  1
142
 50
449.999999844103
 41
0.933333333333333
 72
     1
 11
-388.648723617196
 21
62.0797172486782
 31
0.0
 73
     2
  0
LINE
  5
   28E
  8
0
  6
CONTINUOUS
 62
     7
 10
-363.638092041016
 20
80.1047172546387
 30
0.0
 11
-388.148723602295
 21
80.1047172546387
 31
0.0
  0
LINE
  5
   28F
  8
0
  6
CONTINUOUS
 62
     7
 10
-363.638092041016
 20
44.6047172546387
 30
0.0
 11
-388.148723602295
 21
44.6047172546387
 31
0.0
  0
LINE
  5
   290
  8
0
  6
CONTINUOUS
 62
     7
 10
-386.148723602295
 20
80.1047172546387
 30
0.0
 11
-386.148723602295
 21
44.6047172546387
 31
0.0
  0
LINE
  5
   291
  8
0
  6
CONTINUOUS
 62
     7
 10
-385.627779172343
 20
77.1502939774317
 30
0.0
 11
-386.148723602295
 21
80.1047172546387
 31
0.0
  0
LINE
  5
   292
  8
0
  6
CONTINUOUS
 62
     7
 10
-386.148723602295
 20
80.1047172546387
 30
0.0
 11
-386.669668032247
 21
77.1502939774317
 31
0.0
  0
LINE
  5
   293
  8
0
  6
CONTINUOUS
 62
     7
 10
-386.669668032247
 20
47.5591405318456
 30
0.0
 11
-386.148723602295
 21
44.6047172546387
 31
0.0
  0
LINE
  5
   294
  8
0
  6
CONTINUOUS
 62
     7
 10
-386.148723602295
 20
44.6047172546387
 30
0.0
 11
-385.627779172343
 21
47.5591405318456
 31
0.0
  0
ENDBLK
  5
   295
  8
0
  6
CONTINUOUS
 62
     7
  0
ENDSEC
  0
SECTION
  2
ENTITIES
  0
LINE
  5
   296
  8
0
  6
DASHDOT
 62
     7
 10
-594.37079762482
 20
-100.70946623385
 30
0.0
 11
-623.854985996388
 21
-100.70946623385
 31
0.0
  0
LINE
  5
   297
  8
0
  6
DASHDOT
 62
     7
 10
-591.807335363946
 20
-143.509466871619
 30
0.0
 11
-626.35436170074
 21
-143.509466871619
 31
0.0
  0
LINE
  5
   298
  8
0
  6
DASHDOT
 62
     7
 10
-610.900756835938
 20
-95.2824712450613
 30
0.0
 11
-610.900756835938
 21
-148.474313158193
 31
0.0
  0
LINE
  5
   299
  8
0
  6
CONTINUOUS
 62
     7
 10
-623.650757025927
 20
-95.7310771407142
 30
0.0
 11
-623.650757025927
 21
-148.089793819062
 31
0.0
  0
LINE
  5
   29A
  8
0
  6
CONTINUOUS
 62
     7
 10
-598.150756645948
 20
-95.7310771407142
 30
0.0
 11
-598.150756645948
 21
-149.371524949499
 31
0.0
  0
LINE
  5
   29B
  8
0
  6
CONTINUOUS
 62
     7
 10
-594.37079762482
 20
-96.7094661742449
 30
0.0
 11
-626.35436170074
 21
-96.7094661742449
 31
0.0
  0
LINE
  5
   29C
  8
0
  6
CONTINUOUS
 62
     7
 10
-591.807335363946
 20
-147.509466931224
 30
0.0
 11
-628.597391179004
 21
-147.509466931224
 31
0.0
  0
CIRCLE
  5
   29D
  8
0
  6
CONTINUOUS
 62
     7
 10
-615.27575690113
 20
-100.70946623385
 30
0.0
 40
0.550000008195639
  0
CIRCLE
  5
   29E
  8
0
  6
CONTINUOUS
 62
     7
 10
-606.525756770745
 20
-100.70946623385
 30
0.0
 40
0.550000008195639
  0
LINE
  5
   29F
  8
0
  6
DASHDOT
 62
     7
 10
-615.27575690113
 20
-95.2824712450613
 30
0.0
 11
-615.27575690113
 21
-148.474313158193
 31
0.0
  0
LINE
  5
   2A0
  8
0
  6
DASHDOT
 62
     7
 10
-606.525756770745
 20
-95.2824712450613
 30
0.0
 11
-606.525756770745
 21
-146.383160053397
 31
0.0
  0
CIRCLE
  5
   2A1
  8
0
  6
CONTINUOUS
 62
     7
 10
-615.27575690113
 20
-143.509466871619
 30
0.0
 40
0.550000008195639
  0
CIRCLE
  5
   2A2
  8
0
  6
CONTINUOUS
 62
     7
 10
-606.525756770745
 20
-143.509466871619
 30
0.0
 40
0.550000008195639
  0
LINE
  5
   2A3
  8
0
  6
DASHDOT
 62
     7
 10
-588.66739519499
 20
-121.759466547519
 30
0.0
 11
-628.5769974292
 21
-121.759466547519
 31
0.0
  0
TEXT
  5
   2A4
  8
0
  6
CONTINUOUS
 62
     7
 10
-611.722097793273
 20
-94.9511164413112
 30
0.0
 40
2.99999994933605
  1
Y
 50
359.999999896069
 41
0.916666607525612
 72
     2
 11
-609.522097975067
 21
-94.9511164452908
 31
0.0
  0
INSERT
  5
   2A5
  8
0
  6
CONTINUOUS
 62
     7
  2
*UDIM214
 10
0.0
 20
0.0
 30
0.0
  0
INSERT
  5
   2A6
  8
0
  6
CONTINUOUS
 62
     7
  2
*UDIM215
 10
0.0
 20
0.0
 30
0.0
  0
INSERT
  5
   2A7
  8
0
  6
CONTINUOUS
 62
     7
  2
*UDIM216
 10
0.0
 20
0.0
 30
0.0
  0
INSERT
  5
   2A8
  8
0
  6
CONTINUOUS
 62
     7
  2
*UDIM217
 10
0.0
 20
0.0
 30
0.0
  0
TEXT
  5
   2A9
  8
0
  6
CONTINUOUS
 62
     7
 10
-643.873761480378
 20
-123.562571449869
 30
0.0
 40
2.99999994933605
  1
X
 50
359.999999896069
 41
0.916666607525612
 72
     2
 11
-641.673761662172
 21
-123.562571453849
 31
0.0
  0
TEXT
  5
   2AA
  8
0
  6
CONTINUOUS
 62
     7
 10
-586.556612799137
 20
-123.870101476119
 30
0.0
 40
2.99999994933605
  1
X
 50
359.999999896069
 41
0.916666607525612
 72
     2
 11
-584.356612980931
 21
-123.870101480099
 31
0.0
  0
TEXT
  5
   2AB
  8
0
  6
CONTINUOUS
 62
     7
 10
-611.722097793273
 20
-152.918487910561
 30
0.0
 40
2.99999994933605
  1
Y
 50
359.999999896069
 41
0.916666607525612
 72
     2
 11
-609.522097975067
 21
-152.918487914541
 31
0.0
  0
LINE
  5
   2AC
  8
0
  6
CONTINUOUS
 62
     7
 10
-506.331802368164
 20
31.2821502685547
 30
0.0
 11
-506.331802368164
 21
31.5321350097656
 31
0.0
  0
LINE
  5
   2AD
  8
0
  6
CONTINUOUS
 62
     7
 10
-506.331802368164
 20
39.0321350097656
 30
0.0
 11
-506.331802368164
 21
49.0321197509766
 31
0.0
  0
LINE
  5
   2AE
  8
0
  6
CONTINUOUS
 62
     7
 10
-505.081787109375
 20
31.5321350097656
 30
0.0
 11
-505.081787109375
 21
39.0321350097656
 31
0.0
  0
LINE
  5
   2AF
  8
0
  6
CONTINUOUS
 62
     7
 10
-505.081787109375
 20
31.5321350097656
 30
0.0
 11
-506.331802368164
 21
31.5321350097656
 31
0.0
  0
LINE
  5
   2B0
  8
0
  6
CONTINUOUS
 62
     7
 10
-505.081787109375
 20
39.0321350097656
 30
0.0
 11
-506.331802368164
 21
39.0321350097656
 31
0.0
  0
LINE
  5
   2B1
  8
0
  6
CONTINUOUS
 62
     7
 10
-505.081787109375
 20
49.0321197509766
 30
0.0
 11
-505.081787109375
 21
56.5321197509766
 31
0.0
  0
LINE
  5
   2B2
  8
0
  6
CONTINUOUS
 62
     7
 10
-505.081787109375
 20
49.0321197509766
 30
0.0
 11
-506.331802368164
 21
49.0321197509766
 31
0.0
  0
LINE
  5
   2B3
  8
0
  6
CONTINUOUS
 62
     7
 10
-505.081787109375
 20
56.5321197509766
 30
0.0
 11
-506.331802368164
 21
56.5321197509766
 31
0.0
  0
LINE
  5
   2B4
  8
0
  6
CONTINUOUS
 62
     7
 10
-472.081809997559
 20
31.2821350097656
 30
0.0
 11
-472.081809997559
 21
58.7821197509766
 31
0.0
  0
LINE
  5
   2B5
  8
0
  6
CONTINUOUS
 62
     2
 10
-506.33179895744
 20
58.5321197509765
 30
0.0
 11
-506.331791556173
 21
68.8394317626953
 31
0.0
  0
LINE
  5
   2B6
  8
0
  6
CONTINUOUS
 62
     7
 10
-470.331802368164
 20
67.5321197509766
 30
0.0
 11
-472.081802368164
 21
67.5321197509766
 31
0.0
  0
LINE
  5
   2B7
  8
0
  6
CONTINUOUS
 62
     7
 10
-472.08181435724
 20
58.7821153913698
 30
0.0
 11
-472.081806727846
 21
67.5321153913698
 31
0.0
  0
LINE
  5
   2B8
  8
0
  6
CONTINUOUS
 62
     7
 10
-504.331802368164
 20
59.7821197509766
 30
0.0
 11
-506.331802368164
 21
59.7821197509766
 31
0.0
  0
LINE
  5
   2B9
  8
0
  6
CONTINUOUS
 62
     7
 10
-504.331801096782
 20
59.782113393447
 30
0.0
 11
-504.331798542414
 21
60.7865316897753
 31
0.0
  0
LINE
  5
   2BA
  8
0
  6
CONTINUOUS
 62
     7
 10
-472.081809997559
 20
26.5321426391602
 30
0.0
 11
-472.081809997559
 21
31.2821502685547
 31
0.0
  0
LINE
  5
   2BB
  8
0
  6
CONTINUOUS
 62
     7
 10
-506.331797268503
 20
-3.96784464177426
 30
0.0
 11
-506.331782009714
 21
-3.82072708663281
 31
0.0
  0
LINE
  5
   2BC
  8
0
  6
CONTINUOUS
 62
     7
 10
-506.331782989564
 20
3.88503601831848
 30
0.0
 11
-506.331798248352
 21
31.28214600367
 31
0.0
  0
LINE
  5
   2BD
  8
0
  6
CONTINUOUS
 62
     7
 10
-470.831802368164
 20
2.78215026855469
 30
0.0
 11
-504.831819152833
 21
2.78215026855469
 31
0.0
  0
LINE
  5
   2BE
  8
0
  6
CONTINUOUS
 62
     7
 10
-470.831802368164
 20
-2.71784973144531
 30
0.0
 11
-504.831819152833
 21
-2.71784973144531
 31
0.0
  0
LINE
  5
   2BF
  8
0
  6
CONTINUOUS
 62
     7
 10
-502.215772870039
 20
2.78215535316605
 30
0.0
 11
-506.331785267044
 21
3.88504106623447
 31
0.0
  0
LINE
  5
   2C0
  8
0
  6
CONTINUOUS
 62
     7
 10
-506.331782960053
 20
-3.82073136148168
 30
0.0
 11
-502.215770468275
 21
-2.71784919708549
 31
0.0
  0
LINE
  5
   2C1
  8
0
  6
CONTINUOUS
 62
     7
 10
-470.331809997559
 20
4.28215026855469
 30
0.0
 11
-474.331809997559
 21
4.28215026855469
 31
0.0
  0
LINE
  5
   2C2
  8
0
  6
CONTINUOUS
 62
     7
 10
-474.331809997559
 20
4.28215026855469
 30
0.0
 11
-474.331809997559
 21
25.5321426391602
 31
0.0
  0
LINE
  5
   2C3
  8
0
  6
CONTINUOUS
 62
     7
 10
-505.831787109375
 20
0.282150268554688
 30
0.0
 11
-505.831787109375
 21
3.75106048583984
 31
0.0
  0
LINE
  5
   2C4
  8
0
  6
CONTINUOUS
 62
     7
 10
-505.831794151876
 20
-3.68675497805098
 30
0.0
 11
-505.831786522487
 21
-3.21784476076582
 31
0.0
  0
LINE
  5
   2C5
  8
0
  6
CONTINUOUS
 62
     2
 10
-506.331787109375
 20
4.28215026855469
 30
0.0
 11
-507.331787109375
 21
4.28215026855469
 31
0.0
  0
LINE
  5
   2C6
  8
0
  6
CONTINUOUS
 62
     2
 10
-506.331787109375
 20
7.03215026855469
 30
0.0
 11
-507.331787109375
 21
7.03215026855469
 31
0.0
  0
LINE
  5
   2C7
  8
0
  6
CONTINUOUS
 62
     7
 10
-470.331820802557
 20
-3.21783021834861
 30
0.0
 11
-470.831813156865
 21
-2.71783786404106
 31
0.0
  0
LINE
  5
   2C8
  8
0
  6
CONTINUOUS
 62
     7
 10
-470.831808686426
 20
2.78215096953303
 30
0.0
 11
-470.331808703541
 21
3.28215095241872
 31
0.0
  0
LINE
  5
   2C9
  8
0
  6
CONTINUOUS
 62
     7
 10
-472.081809997559
 20
25.5321426391602
 30
0.0
 11
-472.081809997559
 21
26.5321426391602
 31
0.0
  0
LINE
  5
   2CA
  8
0
  6
CONTINUOUS
 62
     2
 10
-505.331787109375
 20
-12.9678344726557
 30
0.0
 11
-507.331787109375
 21
-12.9678344726557
 31
0.0
  0
LINE
  5
   2CB
  8
0
  6
CONTINUOUS
 62
     7
 10
-506.331802368164
 20
-5.96784973144531
 30
0.0
 11
-506.331802368164
 21
-3.96784973144531
 31
0.0
  0
LINE
  5
   2CC
  8
0
  6
CONTINUOUS
 62
     7
 10
-470.331809997559
 20
-10.4678344726563
 30
0.0
 11
-475.331802368164
 21
-10.4678344726563
 31
0.0
  0
LINE
  5
   2CD
  8
0
  6
CONTINUOUS
 62
     7
 10
-475.331802368164
 20
-12.9678344726563
 30
0.0
 11
-475.331802368164
 21
-10.4678344726563
 31
0.0
  0
LINE
  5
   2CE
  8
0
  6
CONTINUOUS
 62
     7
 10
-506.331802368164
 20
-11.7178250122249
 30
0.0
 11
-506.331802368164
 21
-5.96784973144531
 31
0.0
  0
LINE
  5
   2CF
  8
0
  6
CONTINUOUS
 62
     2
 10
-506.331802368164
 20
58.5321197509766
 30
0.0
 11
-506.581787109375
 21
58.5321197509766
 31
0.0
  0
LINE
  5
   2D0
  8
0
  6
CONTINUOUS
 62
     7
 10
-506.33179473877
 20
23.2821502685547
 30
0.0
 11
-506.581787109375
 21
23.2821502685547
 31
0.0
  0
LINE
  5
   2D1
  8
0
  6
CONTINUOUS
 62
     7
 10
-506.331787109375
 20
7.28215217590332
 30
0.0
 11
-506.581787109375
 21
7.28215217590332
 31
0.0
  0
LINE
  5
   2D2
  8
0
  6
CONTINUOUS
 62
     7
 10
-505.831787109375
 20
3.53215074539185
 30
0.0
 11
-506.581787109375
 21
3.53215074539185
 31
0.0
  0
LINE
  5
   2D3
  8
0
  6
CONTINUOUS
 62
     7
 10
-506.331802368164
 20
-4.46784210205078
 30
0.0
 11
-506.581787109375
 21
-4.46784210205078
 31
0.0
  0
LINE
  5
   2D4
  8
0
  6
CONTINUOUS
 62
     2
 10
-506.581787109375
 20
-11.2678296972
 30
0.0
 11
-506.581787109375
 21
4.28214263916016
 31
0.0
  0
LINE
  5
   2D5
  8
0
  6
CONTINUOUS
 62
     2
 10
-506.581787109375
 20
7.03214263916016
 30
0.0
 11
-506.581787109375
 21
58.532112121582
 31
0.0
  0
LINE
  5
   2D6
  8
0
  6
CONTINUOUS
 62
     7
 10
-505.831787109375
 20
49.0321426391602
 30
0.0
 11
-505.831787109375
 21
56.5321197509766
 31
0.0
  0
LINE
  5
   2D7
  8
0
  6
CONTINUOUS
 62
     7
 10
-505.831787109375
 20
31.5321655273438
 30
0.0
 11
-505.831787109375
 21
39.0321578979492
 31
0.0
  0
LINE
  5
   2D8
  8
0
  6
CONTINUOUS
 62
     7
 10
-505.831787109375
 20
-3.21781158447266
 30
0.0
 11
-505.831787109375
 21
0.282188415527344
 31
0.0
  0
LINE
  5
   2D9
  8
0
  6
CONTINUOUS
 62
     2
 10
-506.381791013891
 20
-11.467825792684
 30
0.0
 11
-506.581787959828
 21
-11.267828846747
 31
0.0
  0
LINE
  5
   2DA
  8
0
  6
CONTINUOUS
 62
     2
 10
-506.331787109375
 20
66.5321197509766
 30
0.0
 11
-507.331787109375
 21
66.5321197509766
 31
0.0
  0
LINE
  5
   2DB
  8
0
  6
CONTINUOUS
 62
     2
 10
-506.331787109375
 20
72.0321197509766
 30
0.0
 11
-507.331787109375
 21
72.0321197509766
 31
0.0
  0
LINE
  5
   2DC
  8
0
  6
CONTINUOUS
 62
     2
 10
-506.331787109375
 20
70.6879425048828
 30
0.0
 11
-507.331787109375
 21
70.6879425048828
 31
0.0
  0
LINE
  5
   2DD
  8
0
  6
CONTINUOUS
 62
     2
 10
-506.331787109375
 20
68.8394317626953
 30
0.0
 11
-507.331787109375
 21
68.8394317626953
 31
0.0
  0
LINE
  5
   2DE
  8
0
  6
CONTINUOUS
 62
     7
 10
-471.831817626954
 20
32.7821176623344
 30
0.0
 11
-471.831817626954
 21
60.032140550518
 31
0.0
  0
LINE
  5
   2DF
  8
0
  6
CONTINUOUS
 62
     7
 10
-457.831840515142
 20
68.0321342977013
 30
0.0
 11
-457.831840515142
 21
80.0321342977013
 31
0.0
  0
LINE
  5
   2E0
  8
0
  6
CONTINUOUS
 62
     7
 10
-457.831802368164
 20
68.0321368408027
 30
0.0
 11
-458.081802368164
 21
68.0321368408027
 31
0.0
  0
LINE
  5
   2E1
  8
0
  6
CONTINUOUS
 62
     7
 10
-458.081802368164
 20
67.7821368408027
 30
0.0
 11
-458.081802368164
 21
68.0321368408027
 31
0.0
  0
LINE
  5
   2E2
  8
0
  6
CONTINUOUS
 62
     7
 10
-470.331802368164
 20
67.2821292114081
 30
0.0
 11
-470.331802368164
 21
67.7821368408027
 31
0.0
  0
LINE
  5
   2E3
  8
0
  6
CONTINUOUS
 62
     7
 10
-470.331809184473
 20
78.6321271449813
 30
0.0
 11
-470.331801555078
 21
80.0321439290776
 31
0.0
  0
LINE
  5
   2E4
  8
0
  6
CONTINUOUS
 62
     7
 10
-457.831798553472
 20
80.0321520995836
 30
0.0
 11
-470.331798553472
 21
80.0321520995836
 31
0.0
  0
LINE
  5
   2E5
  8
0
  6
CONTINUOUS
 62
     7
 10
-459.081802368164
 20
67.7821368408027
 30
0.0
 11
-459.231803894043
 21
67.7821368408027
 31
0.0
  0
LINE
  5
   2E6
  8
0
  6
CONTINUOUS
 62
     7
 10
-470.331802368164
 20
67.2821444701972
 30
0.0
 11
-471.831802368164
 21
67.2821444701972
 31
0.0
  0
LINE
  5
   2E7
  8
0
  6
CONTINUOUS
 62
     7
 10
-471.831802368164
 20
60.0321444701972
 30
0.0
 11
-471.831802368164
 21
67.2821444701972
 31
0.0
  0
LINE
  5
   2E8
  8
0
  6
CONTINUOUS
 62
     7
 10
-470.331825256348
 20
-9.96784790040828
 30
0.0
 11
-470.331825256348
 21
-6.32954223634578
 31
0.0
  0
LINE
  5
   2E9
  8
0
  6
CONTINUOUS
 62
     7
 10
-471.831809997559
 20
26.7821368408027
 30
0.0
 11
-471.831809997559
 21
32.7821215820136
 31
0.0
  0
LINE
  5
   2EA
  8
0
  6
CONTINUOUS
 62
     7
 10
-471.831809997559
 20
25.5321215820136
 30
0.0
 11
-472.331809997559
 21
25.5321215820136
 31
0.0
  0
LINE
  5
   2EB
  8
0
  6
CONTINUOUS
 62
     7
 10
-459.231819530851
 20
-11.4678326416086
 30
0.0
 11
-470.331825634366
 21
-11.4678326416086
 31
0.0
  0
LINE
  5
   2EC
  8
0
  6
CONTINUOUS
 62
     7
 10
-470.331825256348
 20
-11.4678479004083
 30
0.0
 11
-470.331825256348
 21
-9.96784790040828
 31
0.0
  0
LINE
  5
   2ED
  8
0
  6
CONTINUOUS
 62
     7
 10
-470.331817626953
 20
-6.32954223634578
 30
0.0
 11
-470.331817626953
 21
-2.84284329526653
 31
0.0
  0
LINE
  5
   2EE
  8
0
  6
CONTINUOUS
 62
     7
 10
-459.081825256348
 20
-12.9678555298028
 30
0.0
 11
-459.081825256348
 21
-11.4678555298028
 31
0.0
  0
LINE
  5
   2EF
  8
0
  6
CONTINUOUS
 62
     7
 10
-459.081825256348
 20
-11.4678555298028
 30
0.0
 11
-459.23181912303
 21
-11.4678555298028
 31
0.0
  0
LINE
  5
   2F0
  8
0
  6
CONTINUOUS
 62
     7
 10
-472.331809997559
 20
25.5321215820136
 30
0.0
 11
-474.331809997559
 21
25.5321215820136
 31
0.0
  0
LINE
  5
   2F1
  8
0
  6
CONTINUOUS
 62
     7
 10
-471.831809997559
 20
25.5321215820136
 30
0.0
 11
-471.831809997559
 21
26.7821368408027
 31
0.0
  0
LINE
  5
   2F2
  8
0
  6
CONTINUOUS
 62
     7
 10
-459.231821232009
 20
-2.84283264161062
 30
0.0
 11
-470.33181970613
 21
-2.84283264161062
 31
0.0
  0
LINE
  5
   2F3
  8
0
  6
CONTINUOUS
 62
     7
 10
-459.23182490924
 20
2.90716735838802
 30
0.0
 11
-470.331823383361
 21
2.90716735838802
 31
0.0
  0
LINE
  5
   2F4
  8
0
  6
CONTINUOUS
 62
     7
 10
-469.682304903292
 20
-9.59283934207869
 30
0.0
 11
-469.581825793058
 21
-9.21783934725585
 31
0.0
  0
LINE
  5
   2F5
  8
0
  6
CONTINUOUS
 62
     7
 10
-469.956820585407
 20
-9.8673638748083
 30
0.0
 11
-469.682307358907
 21
-9.59284301208917
 31
0.0
  0
LINE
  5
   2F6
  8
0
  6
CONTINUOUS
 62
     7
 10
-470.331833899046
 20
-9.9678361825683
 30
0.0
 11
-469.956826284773
 21
-9.86735706468692
 31
0.0
  0
LINE
  5
   2F7
  8
0
  6
CONTINUOUS
 62
     7
 10
-469.956822106889
 20
-4.06832593816129
 30
0.0
 11
-470.33182210414
 21
-3.96783919163403
 31
0.0
  0
LINE
  5
   2F8
  8
0
  6
CONTINUOUS
 62
     7
 10
-469.682309516548
 20
-4.34284336687028
 30
0.0
 11
-469.956822746868
 21
-4.06833013655029
 31
0.0
  0
LINE
  5
   2F9
  8
0
  6
CONTINUOUS
 62
     7
 10
-469.581830982979
 20
-4.71784267170417
 30
0.0
 11
-469.682317729507
 21
-4.34284267445382
 31
0.0
  0
LINE
  5
   2FA
  8
0
  6
CONTINUOUS
 62
     7
 10
-469.581829494883
 20
-9.21784493104301
 30
0.0
 11
-469.581821865489
 21
-4.71784493104301
 31
0.0
  0
LINE
  5
   2FB
  8
0
  6
CONTINUOUS
 62
     7
 10
-459.231819152833
 20
-11.4678555298028
 30
0.0
 11
-459.231819152833
 21
67.78213058441
 31
0.0
  0
LINE
  5
   2FC
  8
0
  6
CONTINUOUS
 62
     7
 10
-459.231796264648
 20
78.6321429443183
 30
0.0
 11
-482.117528675016
 21
78.6321429443183
 31
0.0
  0
LINE
  5
   2FD
  8
0
  6
CONTINUOUS
 62
     7
 10
-459.231849670417
 20
67.7821333953196
 30
0.0
 11
-459.231849670417
 21
78.6321394988352
 31
0.0
  0
LINE
  5
   2FE
  8
0
  6
CONTINUOUS
 62
     7
 10
-470.331802368164
 20
67.7821444701972
 30
0.0
 11
-470.331802368164
 21
78.6321429443183
 31
0.0
  0
LINE
  5
   2FF
  8
0
  6
CONTINUOUS
 62
     7
 10
-451.08179473877
 20
-8.84282501222468
 30
0.0
 11
-451.08179473877
 21
0.657150268554688
 31
0.0
  0
LINE
  5
   300
  8
0
  6
CONTINUOUS
 62
     7
 10
-451.08179473877
 20
42.5321597289862
 30
0.0
 11
-451.08179473877
 21
42.6571597289862
 31
0.0
  0
LINE
  5
   301
  8
0
  6
CONTINUOUS
 62
     7
 10
-453.83179473877
 20
43.6571597289862
 30
0.0
 11
-455.58179473877
 21
43.6571597289862
 31
0.0
  0
LINE
  5
   302
  8
0
  6
CONTINUOUS
 62
     7
 10
-453.83179473877
 20
-8.84282501222468
 30
0.0
 11
-455.58179473877
 21
-8.84282501222468
 31
0.0
  0
LINE
  5
   303
  8
0
  6
CONTINUOUS
 62
     7
 10
-459.08179473877
 20
-16.9678250122247
 30
0.0
 11
-459.08179473877
 21
-11.4678555298028
 31
0.0
  0
LINE
  5
   304
  8
0
  6
CONTINUOUS
 62
     7
 10
-456.58179473877
 20
-16.9678250122247
 30
0.0
 11
-456.58179473877
 21
-8.84282501222468
 31
0.0
  0
LINE
  5
   305
  8
0
  6
CONTINUOUS
 62
     7
 10
-456.58179473877
 20
43.6571597289862
 30
0.0
 11
-456.58179473877
 21
67.7821597289863
 31
0.0
  0
LINE
  5
   306
  8
0
  6
CONTINUOUS
 62
     7
 10
-456.58179473877
 20
67.7821597289863
 30
0.0
 11
-459.08179473877
 21
67.7821597289863
 31
0.0
  0
LINE
  5
   307
  8
0
  6
CONTINUOUS
 62
     7
 10
-456.58179473877
 20
-16.9678250122247
 30
0.0
 11
-459.08179473877
 21
-16.9678250122247
 31
0.0
  0
LINE
  5
   308
  8
0
  6
CONTINUOUS
 62
     7
 10
-455.58179473877
 20
-8.84282501222468
 30
0.0
 11
-455.58179473877
 21
43.6571597289862
 31
0.0
  0
LINE
  5
   309
  8
0
  6
CONTINUOUS
 62
     7
 10
-455.58179473877
 20
-8.84282501222468
 30
0.0
 11
-456.58179473877
 21
-8.84282501222468
 31
0.0
  0
LINE
  5
   30A
  8
0
  6
CONTINUOUS
 62
     7
 10
-455.58179473877
 20
43.6571597289862
 30
0.0
 11
-456.58179473877
 21
43.6571597289862
 31
0.0
  0
LINE
  5
   30B
  8
0
  6
CONTINUOUS
 62
     7
 10
-459.231830732947
 20
3.18213679240584
 30
0.0
 11
-459.081829214024
 21
3.19525934939323
 31
0.0
  0
LINE
  5
   30C
  8
0
  6
CONTINUOUS
 62
     7
 10
-459.081803427988
 20
-3.13097592314956
 30
0.0
 11
-459.231804951106
 21
-3.11784573674319
 31
0.0
  0
LINE
  5
   30D
  8
0
  6
CONTINUOUS
 62
     7
 10
-470.331817626953
 20
2.90715670473482
 30
0.0
 11
-470.331817626953
 21
4.28213684080266
 31
0.0
  0
LINE
  5
   30E
  8
0
  6
CONTINUOUS
 62
   218
 10
-459.231796741486
 20
-45.5678253936946
 30
0.0
 11
-482.081000480254
 21
-45.5678253936946
 31
0.0
  0
LINE
  5
   30F
  8
0
  6
CONTINUOUS
 62
     2
 10
-505.331787109375
 20
-11.7178250122249
 30
0.0
 11
-507.331787109375
 21
-11.7178250122249
 31
0.0
  0
LINE
  5
   310
  8
0
  6
CONTINUOUS
 62
     7
 10
-459.231788635254
 20
-11.7178250122249
 30
0.0
 11
-467.83179473877
 21
-11.7178250122249
 31
0.0
  0
LINE
  5
   311
  8
0
  6
CONTINUOUS
 62
   218
 10
-457.831787109375
 20
-46.9678250122249
 30
0.0
 11
-457.831787109375
 21
-34.9678326416195
 31
0.0
  0
LINE
  5
   312
  8
0
  6
CONTINUOUS
 62
     2
 10
-505.331787109375
 20
-12.9678250122249
 30
0.0
 11
-505.331787109375
 21
-11.7178250122249
 31
0.0
  0
LINE
  5
   313
  8
0
  6
CONTINUOUS
 62
   218
 10
-459.23179273627
 20
-32.9678326420672
 30
0.0
 11
-459.081794738807
 21
-32.9678308814654
 31
0.0
  0
LINE
  5
   314
  8
0
  6
CONTINUOUS
 62
   218
 10
-457.831787109375
 20
-34.9678326416195
 30
0.0
 11
-459.231788635254
 21
-34.9678326416195
 31
0.0
  0
LINE
  5
   315
  8
0
  6
CONTINUOUS
 62
   218
 10
-459.231788635254
 20
-45.567823486346
 30
0.0
 11
-459.231788635254
 21
-32.9678250122249
 31
0.0
  0
LINE
  5
   316
  8
0
  6
CONTINUOUS
 62
   218
 10
-459.231788635254
 20
-32.9678250122249
 30
0.0
 11
-459.231788635254
 21
-11.7178250122249
 31
0.0
  0
LINE
  5
   317
  8
0
  6
CONTINUOUS
 62
     7
 10
-459.08179473877
 20
-17.4678250122249
 30
0.0
 11
-459.231788635254
 21
-17.4678250122249
 31
0.0
  0
LINE
  5
   318
  8
0
  6
CONTINUOUS
 62
   218
 10
-507.331787109212
 20
-29.9678326411247
 30
0.0
 11
-506.331787586071
 21
-29.9678250117302
 31
0.0
  0
LINE
  5
   319
  8
0
  6
CONTINUOUS
 62
   218
 10
-506.331787586212
 20
-46.9678250122247
 30
0.0
 11
-506.331787586212
 21
-29.9678326416192
 31
0.0
  0
LINE
  5
   31A
  8
0
  6
CONTINUOUS
 62
   218
 10
-506.331787109375
 20
-35.3428326416195
 30
0.0
 11
-507.331787109375
 21
-35.3428326416195
 31
0.0
  0
LINE
  5
   31B
  8
0
  6
CONTINUOUS
 62
     7
 10
-470.331800459739
 20
-11.7178250099696
 30
0.0
 11
-470.331792830344
 21
-10.7178250099468
 31
0.0
  0
LINE
  5
   31C
  8
0
  6
CONTINUOUS
 62
     7
 10
-470.331787109375
 20
-10.7178250122249
 30
0.0
 11
-475.331787109375
 21
-10.7178250122249
 31
0.0
  0
LINE
  5
   31D
  8
0
  6
CONTINUOUS
 62
     7
 10
-467.83179473877
 20
-11.7178250122249
 30
0.0
 11
-470.33179473877
 21
-11.7178250122249
 31
0.0
  0
LINE
  5
   31E
  8
0
  6
CONTINUOUS
 62
   218
 10
-506.331787109375
 20
-39.7016282844722
 30
0.0
 11
-507.331787109375
 21
-39.7016282844722
 31
0.0
  0
LINE
  5
   31F
  8
0
  6
CONTINUOUS
 62
   218
 10
-506.331787109375
 20
-38.4751339721859
 30
0.0
 11
-507.331787109375
 21
-38.4751339721859
 31
0.0
  0
LINE
  5
   320
  8
0
  6
CONTINUOUS
 62
   218
 10
-506.331787109375
 20
-35.4067211914241
 30
0.0
 11
-507.331787109375
 21
-35.4067211914241
 31
0.0
  0
LINE
  5
   321
  8
0
  6
CONTINUOUS
 62
     7
 10
-456.58179473877
 20
-17.2178250122247
 30
0.0
 11
-459.08179473877
 21
-17.2178250122247
 31
0.0
  0
LINE
  5
   322
  8
0
  6
CONTINUOUS
 62
     7
 10
-456.58179473877
 20
-34.7178250122247
 30
0.0
 11
-459.08179473877
 21
-34.7178250122247
 31
0.0
  0
LINE
  5
   323
  8
0
  6
CONTINUOUS
 62
     7
 10
-456.58179473877
 20
-34.7178250122247
 30
0.0
 11
-456.58179473877
 21
-17.2178250122247
 31
0.0
  0
LINE
  5
   324
  8
0
  6
CONTINUOUS
 62
     7
 10
-457.58179473877
 20
-34.7178250122247
 30
0.0
 11
-457.58179473877
 21
-17.2178250122247
 31
0.0
  0
LINE
  5
   325
  8
0
  6
CONTINUOUS
 62
     7
 10
-459.08179473877
 20
-34.7178250122247
 30
0.0
 11
-459.08179473877
 21
-17.2178250122247
 31
0.0
  0
ARC
  5
   326
  8
0
  6
CONTINUOUS
 62
     7
 10
-440.744268353513
 20
6.38523425524384
 30
0.0
 40
0.499999897877905
 50
348.623573369035
 51
436.688788706936
  0
ARC
  5
   327
  8
0
  6
CONTINUOUS
 62
     7
 10
-441.342640553431
 20
3.41132527124499
 30
0.0
 40
0.50000037262337
 50
260.593992196011
 51
348.623573369035
  0
LINE
  5
   328
  8
0
  6
DASHDOT
 62
     7
 10
-433.343976027739
 20
3.33090361734659
 30
0.0
 11
-458.402319262193
 21
8.37282378524483
 31
0.0
  0
LINE
  5
   329
  8
0
  6
CONTINUOUS
 62
     7
 10
-440.629148381166
 20
6.87180072494253
 30
0.0
 11
-451.08179473877
 21
9.34486131291438
 31
0.0
  0
LINE
  5
   32A
  8
0
  6
CONTINUOUS
 62
     7
 10
-440.852464108551
 20
3.31269821996122
 30
0.0
 11
-440.254092072926
 21
6.28660723701707
 31
0.0
  0
LINE
  5
   32B
  8
0
  6
CONTINUOUS
 62
     7
 10
-441.424355292025
 20
2.91804754837359
 30
0.0
 11
-451.08179473877
 21
4.51786668327488
 31
0.0
  0
LINE
  5
   32C
  8
0
  6
CONTINUOUS
 62
     7
 10
-504.831819152833
 20
-2.71784973144531
 30
0.0
 11
-504.831819152833
 21
2.78215026855469
 31
0.0
  0
LINE
  5
   32D
  8
0
  6
CONTINUOUS
 62
     7
 10
-494.831798777928
 20
76.0321426391601
 30
0.0
 11
-497.331798777928
 21
76.0321426391601
 31
0.0
  0
LINE
  5
   32E
  8
0
  6
DASHDOT
 62
     7
 10
-474.975716960016
 20
71.0321682194048
 30
0.0
 11
-501.04647030889
 21
71.0321682194048
 31
0.0
  0
LINE
  5
   32F
  8
0
  6
CONTINUOUS
 62
     7
 10
-489.751868744255
 20
60.7865316897753
 30
0.0
 11
-488.236620255428
 21
64.1298541618966
 31
0.0
  0
LINE
  5
   330
  8
0
  6
CONTINUOUS
 62
     7
 10
-494.831799731602
 20
60.7865316897753
 30
0.0
 11
-494.831799731602
 21
76.0321426391601
 31
0.0
  0
LINE
  5
   331
  8
0
  6
CONTINUOUS
 62
     7
 10
-497.331798777928
 20
60.7865316897753
 30
0.0
 11
-497.331798777928
 21
68.5321682194048
 31
0.0
  0
LINE
  5
   332
  8
0
  6
CONTINUOUS
 62
     2
 10
-506.331790228831
 20
70.6879425048828
 30
0.0
 11
-506.331783519137
 21
80.0321421006205
 31
0.0
  0
LINE
  5
   333
  8
0
  6
CONTINUOUS
 62
     7
 10
-488.054663316243
 20
65.0321682194048
 30
0.0
 11
-494.831799731602
 21
65.0321682194048
 31
0.0
  0
INSERT
  5
   334
  8
0
  6
CONTINUOUS
 62
     7
  2
*HATCH44
 10
-507.331787109375
 20
-37.5863952636719
 30
0.0
 41
0.5
 42
0.5
 50
89.9999999480344
 43
0.5
  0
LINE
  5
   335
  8
0
  6
CONTINUOUS
 62
     7
 10
-488.961096064781
 20
63.0321682194048
 30
0.0
 11
-494.831799731602
 21
63.0321682194048
 31
0.0
  0
INSERT
  5
   336
  8
0
  6
CONTINUOUS
 62
     7
  2
*HATCH45
 10
-507.331787109375
 20
-37.5863952636719
 30
0.0
 41
0.5
 42
0.5
 50
89.9999999480344
 43
0.5
  0
LINE
  5
   337
  8
0
  6
CONTINUOUS
 62
     2
 10
-470.331817626953
 20
80.0321426391602
 30
0.0
 11
-480.731799731602
 21
80.0321426391602
 31
0.0
  0
LINE
  5
   338
  8
0
  6
DASHDOT
 62
     7
 10
-507.331787109375
 20
-82.2619980617963
 30
0.0
 11
-507.331787109375
 21
88.588247790617
 31
0.0
  0
LINE
  5
   339
  8
0
  6
DASHDOT
 62
     7
 10
-508.831787109375
 20
-82.2437053788695
 30
0.0
 11
-508.831787109375
 21
88.588247790617
 31
0.0
  0
LINE
  5
   33A
  8
0
  6
CONTINUOUS
 62
     7
 10
-505.766926483808
 20
88.588247790617
 30
0.0
 11
-510.835822355836
 21
88.588247790617
 31
0.0
  0
ARC
  5
   33B
  8
0
  6
CONTINUOUS
 62
     7
 10
-477.83179473877
 20
12.2821749877753
 30
0.0
 40
38.0220413050115
 50
333.082565820193
 51
379.93594827737
  0
LINE
  5
   33C
  8
0
  6
CONTINUOUS
 62
     7
 10
-439.809753433758
 20
12.2821749877753
 30
0.0
 11
-439.809753433758
 21
33.9568145032076
 31
0.0
  0
LINE
  5
   33D
  8
0
  6
CONTINUOUS
 62
     7
 10
-489.751868744255
 20
60.7865316897753
 30
0.0
 11
-508.535871990489
 21
60.7865316897753
 31
0.0
  0
INSERT
  5
   33E
  8
0
  6
CONTINUOUS
 62
     7
  2
*HATCH46
 10
-507.331787109375
 20
-37.5863952636719
 30
0.0
 41
0.5
 42
0.5
 50
89.9999999480344
 43
0.5
  0
LINE
  5
   33F
  8
0
  6
CONTINUOUS
 62
     7
 10
-497.331798777928
 20
62.2821426391601
 30
0.0
 11
-499.831798777928
 21
62.2821426391601
 31
0.0
  0
LINE
  5
   340
  8
0
  6
CONTINUOUS
 62
     7
 10
-501.327409727313
 20
60.7865316897752
 30
0.0
 11
-499.831798777928
 21
62.2821426391601
 31
0.0
  0
INSERT
  5
   341
  8
0
  6
CONTINUOUS
 62
     7
  2
*HATCH47
 10
-507.331787109375
 20
-37.5863952636719
 30
0.0
 41
0.5
 42
0.5
 50
89.9999999480344
 43
0.5
  0
LINE
  5
   342
  8
0
  6
DASHDOT
 62
     7
 10
-475.026104563746
 20
-37.9678829410845
 30
0.0
 11
-501.04647030889
 21
-37.9678829410845
 31
0.0
  0
LINE
  5
   343
  8
0
  6
CONTINUOUS
 62
     7
 10
-494.831798777928
 20
-42.9678573608398
 30
0.0
 11
-497.331798777928
 21
-42.9678573608398
 31
0.0
  0
LINE
  5
   344
  8
0
  6
CONTINUOUS
 62
     7
 10
-497.331798777928
 20
-42.9678573608398
 30
0.0
 11
-497.331798777928
 21
-27.722246411455
 31
0.0
  0
LINE
  5
   345
  8
0
  6
CONTINUOUS
 62
     7
 10
-494.831799731602
 20
-35.4678829410845
 30
0.0
 11
-494.831799731602
 21
-27.722246411455
 31
0.0
  0
LINE
  5
   346
  8
0
  6
CONTINUOUS
 62
     7
 10
-484.181506540075
 20
-27.722246411455
 30
0.0
 11
-511.886071526699
 21
-27.722246411455
 31
0.0
  0
LINE
  5
   347
  8
0
  6
CONTINUOUS
 62
   218
 10
-457.831787586212
 20
-46.9678250122247
 30
0.0
 11
-482.081000480254
 21
-46.9678250122247
 31
0.0
  0
INSERT
  5
   348
  8
0
  6
CONTINUOUS
 62
     7
  2
*HATCH48
 10
-507.331787109375
 20
-37.5863952636719
 30
0.0
 41
0.5
 42
0.5
 50
89.9999999480344
 43
0.5
  0
INSERT
  5
   349
  8
0
  6
CONTINUOUS
 62
     7
  2
*HATCH49
 10
-507.331787109375
 20
-37.5863952636719
 30
0.0
 41
0.5
 42
0.5
 50
89.9999999480344
 43
0.5
  0
LINE
  5
   34A
  8
0
  6
CONTINUOUS
 62
     7
 10
-497.331798777928
 20
-30.4678829410845
 30
0.0
 11
-506.331787586212
 21
-30.4678829410845
 31
0.0
  0
LINE
  5
   34B
  8
0
  6
CONTINUOUS
 62
     7
 10
-497.331798777928
 20
-28.4678829410845
 30
0.0
 11
-507.331787109375
 21
-28.4678829410845
 31
0.0
  0
LINE
  5
   34C
  8
0
  6
CONTINUOUS
 62
     7
 10
-486.630404279246
 20
-31.9678829410845
 30
0.0
 11
-494.831799731602
 21
-31.9678829410845
 31
0.0
  0
INSERT
  5
   34D
  8
0
  6
CONTINUOUS
 62
     7
  2
*HATCH50
 10
-507.331787109375
 20
-37.5863952636719
 30
0.0
 41
0.5
 42
0.5
 50
89.9999999480344
 43
0.5
  0
LINE
  5
   34E
  8
0
  6
CONTINUOUS
 62
     7
 10
-487.179775912999
 20
-29.9678829410845
 30
0.0
 11
-494.831799731602
 21
-29.9678829410845
 31
0.0
  0
INSERT
  5
   34F
  8
0
  6
CONTINUOUS
 62
     7
  2
*HATCH51
 10
-507.331787109375
 20
-37.5863952636719
 30
0.0
 41
0.5
 42
0.5
 50
89.9999999480344
 43
0.5
  0
LINE
  5
   350
  8
0
  6
CONTINUOUS
 62
     7
 10
-475.331802368164
 20
-12.9678344726557
 30
0.0
 11
-505.331787109375
 21
-12.9678344726557
 31
0.0
  0
LINE
  5
   351
  8
0
  6
CONTINUOUS
 62
     7
 10
-451.08179473877
 20
24.4071502685547
 30
0.0
 11
-451.08179473877
 21
43.6571597289862
 31
0.0
  0
LINE
  5
   352
  8
0
  6
CONTINUOUS
 62
     7
 10
-451.08179473877
 20
17.9071502685547
 30
0.0
 11
-451.08179473877
 21
23.9071502685547
 31
0.0
  0
LINE
  5
   353
  8
0
  6
CONTINUOUS
 62
     7
 10
-451.08179473877
 20
7.65715590964363
 30
0.0
 11
-451.08179473877
 21
17.4071502685547
 31
0.0
  0
LINE
  5
   354
  8
0
  6
CONTINUOUS
 62
     7
 10
-451.08179473877
 20
1.15715026855469
 30
0.0
 11
-451.08179473877
 21
7.15715590964368
 31
0.0
  0
LINE
  5
   355
  8
0
  6
CONTINUOUS
 62
     1
 10
-453.83179473877
 20
-10.0960826873779
 30
0.0
 11
-453.83179473877
 21
-9.09608268737793
 31
0.0
  0
LINE
  5
   356
  8
0
  6
CONTINUOUS
 62
     1
 10
-452.83179473877
 20
-10.0960826873779
 30
0.0
 11
-453.83179473877
 21
-10.0960826873779
 31
0.0
  0
LINE
  5
   357
  8
0
  6
CONTINUOUS
 62
     1
 10
-453.83179473877
 20
-9.09608268737793
 30
0.0
 11
-453.83179473877
 21
44.9039154052734
 31
0.0
  0
LINE
  5
   358
  8
0
  6
CONTINUOUS
 62
     1
 10
-452.83179473877
 20
44.9039154052734
 30
0.0
 11
-453.83179473877
 21
44.9039154052734
 31
0.0
  0
LINE
  5
   359
  8
0
  6
CONTINUOUS
 62
     1
 10
-456.081794649363
 20
51.6925888061524
 30
0.0
 11
-456.081794649363
 21
54.1152420043945
 31
0.0
  0
LINE
  5
   35A
  8
0
  6
CONTINUOUS
 62
     1
 10
-456.081794649363
 20
-19.3074073791504
 30
0.0
 11
-456.081794649363
 21
-16.8847579956055
 31
0.0
  0
LINE
  5
   35B
  8
0
  6
CONTINUOUS
 62
     1
 10
-452.83179473877
 20
-23.3460826873779
 30
0.0
 11
-452.83179473877
 21
58.1539173126221
 31
0.0
  0
LINE
  5
   35C
  8
0
  6
CONTINUOUS
 62
     1
 10
-451.08179473877
 20
-23.3460826873779
 30
0.0
 11
-452.83179473877
 21
-23.3460826873779
 31
0.0
  0
LINE
  5
   35D
  8
0
  6
CONTINUOUS
 62
     1
 10
-451.08179473877
 20
-23.3460845947266
 30
0.0
 11
-451.08179473877
 21
58.1539154052734
 31
0.0
  0
LINE
  5
   35E
  8
0
  6
CONTINUOUS
 62
     1
 10
-451.08179473877
 20
58.1539154052734
 30
0.0
 11
-451.58179473877
 21
58.1539154052734
 31
0.0
  0
LINE
  5
   35F
  8
0
  6
CONTINUOUS
 62
     1
 10
-452.08179473877
 20
58.1539154052734
 30
0.0
 11
-452.83179473877
 21
58.1539154052734
 31
0.0
  0
LINE
  5
   360
  8
0
  6
CONTINUOUS
 62
     1
 10
-452.83179473877
 20
51.4039154052734
 30
0.0
 11
-455.581794656213
 21
51.4039154052734
 31
0.0
  0
LINE
  5
   361
  8
0
  6
CONTINUOUS
 62
     1
 10
-452.83179473877
 20
54.4039154052734
 30
0.0
 11
-455.581794656213
 21
54.4039154052734
 31
0.0
  0
LINE
  5
   362
  8
0
  6
CONTINUOUS
 62
     1
 10
-455.581794656213
 20
51.4039154052734
 30
0.0
 11
-455.581794656213
 21
51.5180969238281
 31
0.0
  0
LINE
  5
   363
  8
0
  6
CONTINUOUS
 62
     1
 10
-455.581794258351
 20
51.4039142567427
 30
0.0
 11
-456.081794274815
 21
51.6925876612409
 31
0.0
  0
LINE
  5
   364
  8
0
  6
CONTINUOUS
 62
     1
 10
-455.581794656213
 20
51.4039154052734
 30
0.0
 11
-455.581794656213
 21
51.8432540893555
 31
0.0
  0
LINE
  5
   365
  8
0
  6
CONTINUOUS
 62
     1
 10
-455.581794656213
 20
51.8432540893555
 30
0.0
 11
-455.581794656213
 21
52.3298950195313
 31
0.0
  0
LINE
  5
   366
  8
0
  6
CONTINUOUS
 62
     1
 10
-455.581794656213
 20
52.3298950195313
 30
0.0
 11
-455.581794656213
 21
52.9039154052734
 31
0.0
  0
LINE
  5
   367
  8
0
  6
CONTINUOUS
 62
     1
 10
-455.581794656213
 20
52.9039154052734
 30
0.0
 11
-455.581794656213
 21
53.4779434204102
 31
0.0
  0
LINE
  5
   368
  8
0
  6
CONTINUOUS
 62
     1
 10
-455.581794656213
 20
53.4779434204102
 30
0.0
 11
-455.581794656213
 21
53.9645767211914
 31
0.0
  0
LINE
  5
   369
  8
0
  6
CONTINUOUS
 62
     1
 10
-455.581794656213
 20
53.9645767211914
 30
0.0
 11
-455.581794656213
 21
54.4039154052734
 31
0.0
  0
LINE
  5
   36A
  8
0
  6
CONTINUOUS
 62
     1
 10
-455.581794656213
 20
54.2897338867188
 30
0.0
 11
-455.581794656213
 21
54.4039154052734
 31
0.0
  0
LINE
  5
   36B
  8
0
  6
CONTINUOUS
 62
     1
 10
-456.081795083952
 20
54.1152408135255
 30
0.0
 11
-455.581795067488
 21
54.4039142180237
 31
0.0
  0
LINE
  5
   36C
  8
0
  6
CONTINUOUS
 62
     1
 10
-452.83179473877
 20
-16.5960826873779
 30
0.0
 11
-455.581793653657
 21
-16.5960826873779
 31
0.0
  0
LINE
  5
   36D
  8
0
  6
CONTINUOUS
 62
     1
 10
-452.83179473877
 20
-19.5960826873779
 30
0.0
 11
-455.581795495438
 21
-19.5960826873779
 31
0.0
  0
LINE
  5
   36E
  8
0
  6
CONTINUOUS
 62
     1
 10
-456.081794910437
 20
-16.8847586957313
 30
0.0
 11
-455.581794893973
 21
-16.5960834034748
 31
0.0
  0
LINE
  5
   36F
  8
0
  6
CONTINUOUS
 62
     1
 10
-455.581794639555
 20
-19.5960831815222
 30
0.0
 11
-455.581794639555
 21
-16.5960826873779
 31
0.0
  0
LINE
  5
   370
  8
0
  6
CONTINUOUS
 62
     1
 10
-455.581794432393
 20
-19.5960833011274
 30
0.0
 11
-456.081794448857
 21
-19.3074080088709
 31
0.0
  0
LINE
  5
   371
  8
0
  6
CONTINUOUS
 62
     1
 10
-507.331761260954
 20
-19.5960826873779
 30
0.0
 11
-507.331761260954
 21
-19.4819011688233
 31
0.0
  0
LINE
  5
   372
  8
0
  6
CONTINUOUS
 62
     1
 10
-451.58179473877
 20
58.1539154052734
 30
0.0
 11
-452.08179473877
 21
58.1539154052734
 31
0.0
  0
LINE
  5
   373
  8
0
  6
CONTINUOUS
 62
     7
 10
-453.83179473877
 20
44.9039154052734
 30
0.0
 11
-453.83179473877
 21
51.4039154052734
 31
0.0
  0
LINE
  5
   374
  8
0
  6
CONTINUOUS
 62
     7
 10
-452.83179473877
 20
58.1539154052734
 30
0.0
 11
-452.83179473877
 21
92.4694348436057
 31
0.0
  0
LINE
  5
   375
  8
0
  6
CONTINUOUS
 62
     7
 10
-453.83179473877
 20
-60.0950166995495
 30
0.0
 11
-453.83179473877
 21
-19.5960826873779
 31
0.0
  0
LINE
  5
   376
  8
0
  6
CONTINUOUS
 62
     7
 10
-452.83179473877
 20
-59.6591192636521
 30
0.0
 11
-452.83179473877
 21
-23.3460826873779
 31
0.0
  0
LINE
  5
   377
  8
0
  6
CONTINUOUS
 62
     7
 10
-456.406409298031
 20
-61.2172845843557
 30
0.0
 11
-449.779641275939
 21
-58.3286933952386
 31
0.0
  0
LINE
  5
   378
  8
0
  6
CONTINUOUS
 62
     7
 10
-455.976703045035
 20
90.4497689588483
 30
0.0
 11
-450.24691338006
 21
94.1294503950703
 31
0.0
  0
LINE
  5
   379
  8
0
  6
CONTINUOUS
 62
     7
 10
-452.83179473877
 20
45.4039154052734
 30
0.0
 11
-453.83179473877
 21
45.4039154052734
 31
0.0
  0
LINE
  5
   37A
  8
0
  6
CONTINUOUS
 62
     7
 10
-452.83179473877
 20
-10.5960826873779
 30
0.0
 11
-453.83179473877
 21
-10.5960826873779
 31
0.0
  0
LINE
  5
   37B
  8
0
  6
CONTINUOUS
 62
     7
 10
-452.83179473877
 20
-16.3460826873779
 30
0.0
 11
-453.83179473877
 21
-16.3460826873779
 31
0.0
  0
LINE
  5
   37C
  8
0
  6
CONTINUOUS
 62
     7
 10
-452.83179473877
 20
-19.8460826873779
 30
0.0
 11
-453.83179473877
 21
-19.8460826873779
 31
0.0
  0
LINE
  5
   37D
  8
0
  6
CONTINUOUS
 62
     7
 10
-452.83179473877
 20
54.6539154052734
 30
0.0
 11
-453.83179473877
 21
54.6539154052734
 31
0.0
  0
LINE
  5
   37E
  8
0
  6
CONTINUOUS
 62
     7
 10
-452.83179473877
 20
51.1539154052734
 30
0.0
 11
-453.83179473877
 21
51.1539154052734
 31
0.0
  0
LINE
  5
   37F
  8
0
  6
CONTINUOUS
 62
     7
 10
-453.83179473877
 20
54.4039154052734
 30
0.0
 11
-453.83179473877
 21
91.8272330087433
 31
0.0
  0
LINE
  5
   380
  8
0
  6
CONTINUOUS
 62
     7
 10
-453.83179473877
 20
-16.5960826873779
 30
0.0
 11
-453.83179473877
 21
-10.0960826873779
 31
0.0
  0
INSERT
  5
   381
  8
0
  6
CONTINUOUS
 62
     7
  2
*HATCH52
 10
-507.331787109375
 20
-37.5863952636719
 30
0.0
 41
0.5
 42
0.5
 50
89.9999999480344
 43
0.5
  0
INSERT
  5
   382
  8
0
  6
CONTINUOUS
 62
     7
  2
*HATCH53
 10
-507.331787109375
 20
-37.5863952636719
 30
0.0
 41
0.5
 42
0.5
 50
89.9999999480344
 43
0.5
  0
INSERT
  5
   383
  8
0
  6
CONTINUOUS
 62
     7
  2
*HATCH54
 10
-507.331787109375
 20
-37.5863952636719
 30
0.0
 41
0.5
 42
0.5
 50
89.9999999480344
 43
0.5
  0
INSERT
  5
   384
  8
0
  6
CONTINUOUS
 62
     7
  2
*HATCH55
 10
-507.331787109375
 20
-37.5863952636719
 30
0.0
 41
0.5
 42
0.5
 50
89.9999999480344
 43
0.5
  0
LINE
  5
   385
  8
0
  6
DASHDOT
 62
     3
 10
-421.945581729095
 20
17.4071597289862
 30
0.0
 11
-426.470742181905
 21
17.4071597289862
 31
0.0
  0
LINE
  5
   386
  8
0
  6
DASHDOT
 62
     3
 10
-433.550428696786
 20
17.4071597289862
 30
0.0
 11
-541.272859363809
 21
17.4071597289862
 31
0.0
  0
LINE
  5
   387
  8
0
  6
DASHDOT
 62
     3
 10
-548.461188189369
 20
17.4071597289862
 30
0.0
 11
-556.512116473997
 21
17.4071597289862
 31
0.0
  0
LINE
  5
   388
  8
0
  6
CONTINUOUS
 62
     7
 10
-494.831799731602
 20
73.5321682194048
 30
0.0
 11
-497.331798777928
 21
73.5321682194048
 31
0.0
  0
LINE
  5
   389
  8
0
  6
CONTINUOUS
 62
     7
 10
-494.831799731602
 20
68.5321682194048
 30
0.0
 11
-497.331798777928
 21
68.5321682194048
 31
0.0
  0
LINE
  5
   38A
  8
0
  6
CONTINUOUS
 62
     7
 10
-497.331798777928
 20
73.5321682194048
 30
0.0
 11
-497.331798777928
 21
76.0321426391601
 31
0.0
  0
LINE
  5
   38B
  8
0
  6
CONTINUOUS
 62
     7
 10
-468.149333922742
 20
64.1298541618966
 30
0.0
 11
-488.236620255428
 21
64.1298541618966
 31
0.0
  0
LINE
  5
   38C
  8
0
  6
CONTINUOUS
 62
     7
 10
-468.149333922742
 20
64.1298541618966
 30
0.0
 11
-462.46782175184
 21
83.42256874003
 31
0.0
  0
LINE
  5
   38D
  8
0
  6
CONTINUOUS
 62
     7
 10
-494.831799731602
 20
-40.5178829410845
 30
0.0
 11
-497.331798777928
 21
-40.5178829410845
 31
0.0
  0
LINE
  5
   38E
  8
0
  6
CONTINUOUS
 62
     7
 10
-494.831799731602
 20
-35.4178829410845
 30
0.0
 11
-497.331798777928
 21
-35.4178829410845
 31
0.0
  0
LINE
  5
   38F
  8
0
  6
CONTINUOUS
 62
    56
 10
-494.831798777928
 20
-42.9678573608398
 30
0.0
 11
-494.831798777928
 21
-40.4678829410845
 31
0.0
  0
LINE
  5
   390
  8
0
  6
CONTINUOUS
 62
    98
 10
-457.20679473877
 20
-69.9678250122247
 30
0.0
 11
-470.88974957188
 21
-69.9678250122247
 31
0.0
  0
LINE
  5
   391
  8
0
  6
CONTINUOUS
 62
    98
 10
-506.331787109375
 20
-69.9678250122247
 30
0.0
 11
-506.331787109375
 21
-46.9678250122247
 31
0.0
  0
ARC
  5
   392
  8
0
  6
CONTINUOUS
 62
    98
 10
-457.20679473877
 20
-69.3428250122247
 30
0.0
 40
0.625
 50
269.999999948034
 51
359.999999948034
  0
LINE
  5
   393
  8
0
  6
CONTINUOUS
 62
    98
 10
-456.58179473877
 20
-69.3428250122247
 30
0.0
 11
-456.58179473877
 21
-49.4678250122247
 31
0.0
  0
LINE
  5
   394
  8
0
  6
CONTINUOUS
 62
    98
 10
-456.58179473877
 20
-49.4678250122247
 30
0.0
 11
-456.58179473877
 21
-35.4678250122247
 31
0.0
  0
LINE
  5
   395
  8
0
  6
CONTINUOUS
 62
    98
 10
-456.58179473877
 20
-35.4678250122247
 30
0.0
 11
-457.08179473877
 21
-35.4678250122247
 31
0.0
  0
LINE
  5
   396
  8
0
  6
CONTINUOUS
 62
    98
 10
-457.08179473877
 20
-34.9678250122247
 30
0.0
 11
-458.081790924072
 21
-34.9678250122247
 31
0.0
  0
LINE
  5
   397
  8
0
  6
CONTINUOUS
 62
    98
 10
-457.08179473877
 20
-35.4678250122247
 30
0.0
 11
-457.08179473877
 21
-34.9678250122247
 31
0.0
  0
LINE
  5
   398
  8
0
  6
CONTINUOUS
 62
    98
 10
-457.831787109375
 20
-49.4428250122247
 30
0.0
 11
-457.831787109375
 21
-34.9678250122247
 31
0.0
  0
LINE
  5
   399
  8
0
  6
CONTINUOUS
 62
    98
 10
-457.831787109375
 20
-46.7524651500132
 30
0.0
 11
-457.831787109375
 21
-43.9678250122247
 31
0.0
  0
LINE
  5
   39A
  8
0
  6
CONTINUOUS
 62
    98
 10
-457.831787109375
 20
-69.9678250122247
 30
0.0
 11
-457.831787109375
 21
-60.9428250122247
 31
0.0
  0
LINE
  5
   39B
  8
0
  6
CONTINUOUS
 62
    98
 10
-457.831787109375
 20
-59.9428250122247
 30
0.0
 11
-457.831787109375
 21
-50.4428250122247
 31
0.0
  0
LINE
  5
   39C
  8
0
  6
CONTINUOUS
 62
    98
 10
-465.83179473877
 20
-68.9678250122247
 30
0.0
 11
-471.58190012296
 21
-68.9678250122247
 31
0.0
  0
LINE
  5
   39D
  8
0
  6
CONTINUOUS
 62
    98
 10
-465.83179473877
 20
-67.9678250122247
 30
0.0
 11
-471.58190012296
 21
-67.9678250122247
 31
0.0
  0
LINE
  5
   39E
  8
0
  6
CONTINUOUS
 62
    98
 10
-465.83179473877
 20
-66.9678250122247
 30
0.0
 11
-471.58190012296
 21
-66.9678250122247
 31
0.0
  0
LINE
  5
   39F
  8
0
  6
CONTINUOUS
 62
     7
 10
-504.695673166277
 20
-82.2941457928097
 30
0.0
 11
-510.900033914802
 21
-82.2184828568521
 31
0.0
  0
LINE
  5
   3A0
  8
0
  6
DASHDOT
 62
   218
 10
-503.131182659773
 20
70.0321597289862
 30
0.0
 11
-517.378941953924
 21
70.0321597289862
 31
0.0
  0
LINE
  5
   3A1
  8
0
  6
CONTINUOUS
 62
     7
 10
-510.831787109375
 20
68.0321597289862
 30
0.0
 11
-510.831787109375
 21
72.0321597289862
 31
0.0
  0
LINE
  5
   3A2
  8
0
  6
CONTINUOUS
 62
     7
 10
-512.831787109375
 20
68.7821597289862
 30
0.0
 11
-512.831787109375
 21
71.2821597289862
 31
0.0
  0
LINE
  5
   3A3
  8
0
  6
CONTINUOUS
 62
     7
 10
-508.831787109375
 20
72.0321597289862
 30
0.0
 11
-510.831787109375
 21
72.0321597289862
 31
0.0
  0
LINE
  5
   3A4
  8
0
  6
CONTINUOUS
 62
     7
 10
-508.831787109375
 20
68.0321597289862
 30
0.0
 11
-510.831787109375
 21
68.0321597289862
 31
0.0
  0
LINE
  5
   3A5
  8
0
  6
CONTINUOUS
 62
     7
 10
-508.831787109375
 20
71.2821597289862
 30
0.0
 11
-512.831787109375
 21
71.2821597289862
 31
0.0
  0
LINE
  5
   3A6
  8
0
  6
CONTINUOUS
 62
     7
 10
-508.831787109375
 20
68.7821597289862
 30
0.0
 11
-512.831787109375
 21
68.7821597289862
 31
0.0
  0
LINE
  5
   3A7
  8
0
  6
CONTINUOUS
 62
     7
 10
-508.831787109375
 20
-34.9678402710138
 30
0.0
 11
-510.831787109375
 21
-34.9678402710138
 31
0.0
  0
LINE
  5
   3A8
  8
0
  6
CONTINUOUS
 62
     7
 10
-508.831787109375
 20
-35.7178402710138
 30
0.0
 11
-512.831787109375
 21
-35.7178402710138
 31
0.0
  0
LINE
  5
   3A9
  8
0
  6
CONTINUOUS
 62
     7
 10
-508.831787109375
 20
-38.2178402710138
 30
0.0
 11
-512.831787109375
 21
-38.2178402710138
 31
0.0
  0
LINE
  5
   3AA
  8
0
  6
CONTINUOUS
 62
     7
 10
-508.831787109375
 20
-38.9678402710138
 30
0.0
 11
-510.831787109375
 21
-38.9678402710138
 31
0.0
  0
LINE
  5
   3AB
  8
0
  6
DASHDOT
 62
   218
 10
-503.131182659773
 20
-36.9678402710138
 30
0.0
 11
-517.378941953924
 21
-36.9678402710138
 31
0.0
  0
LINE
  5
   3AC
  8
0
  6
CONTINUOUS
 62
     7
 10
-510.831787109375
 20
-38.9678402710138
 30
0.0
 11
-510.831787109375
 21
-34.9678402710138
 31
0.0
  0
LINE
  5
   3AD
  8
0
  6
CONTINUOUS
 62
     7
 10
-512.831787109375
 20
-38.2178402710138
 30
0.0
 11
-512.831787109375
 21
-35.7178402710138
 31
0.0
  0
LINE
  5
   3AE
  8
0
  6
CONTINUOUS
 62
   130
 10
-494.831799731602
 20
-44.9678829410849
 30
0.0
 11
-494.831799731602
 21
-40.4678829410849
 31
0.0
  0
LINE
  5
   3AF
  8
0
  6
CONTINUOUS
 62
   130
 10
-499.323281512608
 20
-41.9916561344443
 30
0.0
 11
-499.323281512608
 21
-41.9678829410849
 31
0.0
  0
LINE
  5
   3B0
  8
0
  6
CONTINUOUS
 62
   130
 10
-494.831799731602
 20
-40.4678829410845
 30
0.0
 11
-497.331799731602
 21
-40.4678829410845
 31
0.0
  0
LINE
  5
   3B1
  8
0
  6
CONTINUOUS
 62
   130
 10
-494.831799731602
 20
-35.4678829410845
 30
0.0
 11
-497.331799731602
 21
-35.4678829410845
 31
0.0
  0
LINE
  5
   3B2
  8
0
  6
CONTINUOUS
 62
   130
 10
-491.331799731602
 20
-40.4678829410845
 30
0.0
 11
-497.731799731602
 21
-40.4678829410845
 31
0.0
  0
LINE
  5
   3B3
  8
0
  6
CONTINUOUS
 62
   130
 10
-491.331799731602
 20
-35.4678829410845
 30
0.0
 11
-497.731799731602
 21
-35.4678829410845
 31
0.0
  0
LINE
  5
   3B4
  8
0
  6
CONTINUOUS
 62
   130
 10
-497.331799731602
 20
-42.4678829410849
 30
0.0
 11
-497.331799731602
 21
-40.4678829410849
 31
0.0
  0
LINE
  5
   3B5
  8
0
  6
CONTINUOUS
 62
   130
 10
-497.731799731602
 20
-42.4678829410849
 30
0.0
 11
-497.731799731602
 21
-33.4678829410849
 31
0.0
  0
LINE
  5
   3B6
  8
0
  6
CONTINUOUS
 62
   130
 10
-497.331799731602
 20
-42.4678829410845
 30
0.0
 11
-497.731799731602
 21
-42.4678829410845
 31
0.0
  0
LINE
  5
   3B7
  8
0
  6
CONTINUOUS
 62
   130
 10
-497.331799731602
 20
-33.4678829410845
 30
0.0
 11
-497.731799731602
 21
-33.4678829410845
 31
0.0
  0
LINE
  5
   3B8
  8
0
  6
CONTINUOUS
 62
   130
 10
-492.131799731602
 20
-40.4678829410849
 30
0.0
 11
-492.131799731602
 21
-35.4678829410849
 31
0.0
  0
LINE
  5
   3B9
  8
0
  6
CONTINUOUS
 62
   130
 10
-492.131799731602
 20
-40.4678829410847
 30
0.0
 11
-491.731799731602
 21
-40.0678829410846
 31
0.0
  0
LINE
  5
   3BA
  8
0
  6
CONTINUOUS
 62
   130
 10
-491.731799731602
 20
-35.8678829410847
 30
0.0
 11
-492.131799731602
 21
-35.4678829410847
 31
0.0
  0
LINE
  5
   3BB
  8
0
  6
CONTINUOUS
 62
   130
 10
-500.731799731602
 20
-41.7178829410849
 30
0.0
 11
-500.731799731602
 21
-34.2178829410849
 31
0.0
  0
LINE
  5
   3BC
  8
0
  6
CONTINUOUS
 62
   130
 10
-497.731799731602
 20
-41.9678829410845
 30
0.0
 11
-500.481799731602
 21
-41.9678829410845
 31
0.0
  0
LINE
  5
   3BD
  8
0
  6
CONTINUOUS
 62
   130
 10
-497.731799731602
 20
-33.9678829410845
 30
0.0
 11
-500.481799731602
 21
-33.9678829410845
 31
0.0
  0
ARC
  5
   3BE
  8
0
  6
CONTINUOUS
 62
   130
 10
-500.481799731602
 20
-41.7178829410847
 30
0.0
 40
0.25
 50
179.999999948034
 51
269.999999948034
  0
ARC
  5
   3BF
  8
0
  6
CONTINUOUS
 62
   130
 10
-500.481799731602
 20
-34.2178829410847
 30
0.0
 40
0.25
 50
89.9999999480344
 51
179.999999948034
  0
LINE
  5
   3C0
  8
0
  6
CONTINUOUS
 62
   130
 10
-492.131799731602
 20
-40.1178829410844
 30
0.0
 11
-496.343779118222
 21
-40.1178829410844
 31
0.0
  0
LINE
  5
   3C1
  8
0
  6
CONTINUOUS
 62
   130
 10
-492.131799731602
 20
-35.8178829410845
 30
0.0
 11
-496.343779118222
 21
-35.8178829410845
 31
0.0
  0
LINE
  5
   3C2
  8
0
  6
CONTINUOUS
 62
   130
 10
-496.343779118222
 20
-40.4678829410849
 30
0.0
 11
-496.343779118222
 21
-35.4678829410849
 31
0.0
  0
LINE
  5
   3C3
  8
0
  6
CONTINUOUS
 62
   130
 10
-496.949996900871
 20
-40.4678829410845
 30
0.0
 11
-496.343779118221
 21
-40.1178829410845
 31
0.0
  0
LINE
  5
   3C4
  8
0
  6
CONTINUOUS
 62
   130
 10
-496.343779118222
 20
-35.8178829410851
 30
0.0
 11
-496.949996900871
 21
-35.4678829410852
 31
0.0
  0
LINE
  5
   3C5
  8
0
  6
CONTINUOUS
 62
   130
 10
-497.331799731602
 20
-35.4678829410849
 30
0.0
 11
-497.331799731602
 21
-33.4678829410849
 31
0.0
  0
LINE
  5
   3C6
  8
0
  6
CONTINUOUS
 62
   130
 10
-497.331799731602
 20
-40.5928829410845
 30
0.0
 11
-497.731799731602
 21
-40.5928829410845
 31
0.0
  0
LINE
  5
   3C7
  8
0
  6
CONTINUOUS
 62
   130
 10
-497.331799731602
 20
-35.3428829410845
 30
0.0
 11
-497.731799731602
 21
-35.3428829410845
 31
0.0
  0
INSERT
  5
   3C8
  8
0
  6
CONTINUOUS
 62
     2
  2
*HATCH56
 10
-507.331787109375
 20
-37.5863952636719
 30
0.0
 41
0.5
 42
0.5
 50
89.9999999480344
 43
0.5
  0
INSERT
  5
   3C9
  8
0
  6
CONTINUOUS
 62
     2
  2
*HATCH57
 10
-507.331787109375
 20
-37.5863952636719
 30
0.0
 41
0.5
 42
0.5
 50
89.9999999480344
 43
0.5
  0
LINE
  5
   3CA
  8
0
  6
CONTINUOUS
 62
   130
 10
-477.456054579813
 20
-41.9678829410845
 30
0.0
 11
-483.706599989732
 21
-41.9678829410845
 31
0.0
  0
LINE
  5
   3CB
  8
0
  6
CONTINUOUS
 62
   130
 10
-477.456054579814
 20
-33.9678829410845
 30
0.0
 11
-483.706599989732
 21
-33.9678829410845
 31
0.0
  0
LINE
  5
   3CC
  8
0
  6
CONTINUOUS
 62
   130
 10
-477.456054579813
 20
-41.5678829410845
 30
0.0
 11
-483.324559122191
 21
-41.5678829410845
 31
0.0
  0
LINE
  5
   3CD
  8
0
  6
CONTINUOUS
 62
   130
 10
-477.451655035002
 20
-34.3678829410844
 30
0.0
 11
-483.324559122191
 21
-34.3678829410844
 31
0.0
  0
LINE
  5
   3CE
  8
0
  6
CONTINUOUS
 62
   130
 10
-476.706054579813
 20
-41.2178829410849
 30
0.0
 11
-476.706054579813
 21
-34.7178829410849
 31
0.0
  0
LINE
  5
   3CF
  8
0
  6
CONTINUOUS
 62
   130
 10
-477.456054579813
 20
-41.9678829410849
 30
0.0
 11
-477.456054579813
 21
-33.9678829410849
 31
0.0
  0
LINE
  5
   3D0
  8
0
  6
CONTINUOUS
 62
   130
 10
-477.456054579813
 20
-41.9678829410847
 30
0.0
 11
-476.706054579813
 21
-41.2178829410848
 31
0.0
  0
LINE
  5
   3D1
  8
0
  6
CONTINUOUS
 62
   130
 10
-491.731799731602
 20
-40.0678829410849
 30
0.0
 11
-491.731799731602
 21
-35.8678829410848
 31
0.0
  0
LINE
  5
   3D2
  8
0
  6
CONTINUOUS
 62
   130
 10
-466.278452701208
 20
-59.067890570479
 30
0.0
 11
-472.708400032123
 21
-59.067890570479
 31
0.0
  0
LINE
  5
   3D3
  8
0
  6
CONTINUOUS
 62
   130
 10
-466.278452701208
 20
-58.667890570479
 30
0.0
 11
-472.146957243585
 21
-58.667890570479
 31
0.0
  0
LINE
  5
   3D4
  8
0
  6
CONTINUOUS
 62
   130
 10
-466.278452701208
 20
-51.467890570479
 30
0.0
 11
-472.146957243585
 21
-51.467890570479
 31
0.0
  0
LINE
  5
   3D5
  8
0
  6
CONTINUOUS
 62
   130
 10
-466.278452701208
 20
-51.067890570479
 30
0.0
 11
-472.708400032123
 21
-51.067890570479
 31
0.0
  0
LINE
  5
   3D6
  8
0
  6
CONTINUOUS
 62
   130
 10
-476.706054579813
 20
-34.7178829410849
 30
0.0
 11
-477.456054579814
 21
-33.9678829410845
 31
0.0
  0
LINE
  5
   3D7
  8
0
  6
CONTINUOUS
 62
   130
 10
-465.528452701208
 20
-58.3178905704785
 30
0.0
 11
-465.528452701208
 21
-51.8178905704794
 31
0.0
  0
LINE
  5
   3D8
  8
0
  6
CONTINUOUS
 62
   130
 10
-465.528452701208
 20
-51.8178905704794
 30
0.0
 11
-466.278452701208
 21
-51.067890570479
 31
0.0
  0
LINE
  5
   3D9
  8
0
  6
CONTINUOUS
 62
   130
 10
-466.278452701208
 20
-59.067890570479
 30
0.0
 11
-465.528452701208
 21
-58.3178905704785
 31
0.0
  0
LINE
  5
   3DA
  8
0
  6
CONTINUOUS
 62
   130
 10
-466.278452701208
 20
-59.067890570479
 30
0.0
 11
-466.278452701208
 21
-51.067890570479
 31
0.0
  0
LINE
  5
   3DB
  8
0
  6
DASHDOT
 62
   218
 10
-461.533979288843
 20
-55.067890570479
 30
0.0
 11
-475.038496583567
 21
-55.067890570479
 31
0.0
  0
LINE
  5
   3DC
  8
0
  6
CONTINUOUS
 62
    98
 10
-465.83179473877
 20
-69.9678250122247
 30
0.0
 11
-465.83179473877
 21
-59.067890570479
 31
0.0
  0
LINE
  5
   3DD
  8
0
  6
CONTINUOUS
 62
    98
 10
-457.831787109375
 20
-50.4428250122247
 30
0.0
 11
-465.83179473877
 21
-50.4428250122247
 31
0.0
  0
LINE
  5
   3DE
  8
0
  6
CONTINUOUS
 62
    98
 10
-457.831787109375
 20
-59.9428250122247
 30
0.0
 11
-465.83179473877
 21
-59.9428250122247
 31
0.0
  0
LINE
  5
   3DF
  8
0
  6
CONTINUOUS
 62
    98
 10
-457.831787109375
 20
-49.4428250122247
 30
0.0
 11
-464.83179473877
 21
-49.4428250122247
 31
0.0
  0
LINE
  5
   3E0
  8
0
  6
CONTINUOUS
 62
    98
 10
-457.831787109375
 20
-60.9428250122247
 30
0.0
 11
-464.83179473877
 21
-60.9428250122247
 31
0.0
  0
LINE
  5
   3E1
  8
0
  6
CONTINUOUS
 62
    98
 10
-470.33179473877
 20
-47.0678250122247
 30
0.0
 11
-471.33179473877
 21
-47.0678250122247
 31
0.0
  0
LINE
  5
   3E2
  8
0
  6
CONTINUOUS
 62
    98
 10
-464.83179473877
 20
-48.0678250122247
 30
0.0
 11
-470.33179473877
 21
-48.0678250122247
 31
0.0
  0
LINE
  5
   3E3
  8
0
  6
CONTINUOUS
 62
    98
 10
-477.33179473877
 20
-49.0678250122247
 30
0.0
 11
-477.33179473877
 21
-47.0678250122247
 31
0.0
  0
LINE
  5
   3E4
  8
0
  6
CONTINUOUS
 62
    98
 10
-464.83179473877
 20
-49.4428250122247
 30
0.0
 11
-464.83179473877
 21
-48.0678250122247
 31
0.0
  0
LINE
  5
   3E5
  8
0
  6
CONTINUOUS
 62
    98
 10
-465.83179473877
 20
-49.0678250122247
 30
0.0
 11
-477.33179473877
 21
-49.0678250122247
 31
0.0
  0
LINE
  5
   3E6
  8
0
  6
CONTINUOUS
 62
    98
 10
-476.33179473877
 20
-48.0678250122247
 30
0.0
 11
-476.33179473877
 21
-47.0678250122247
 31
0.0
  0
LINE
  5
   3E7
  8
0
  6
CONTINUOUS
 62
    98
 10
-471.33179473877
 20
-48.0678250122247
 30
0.0
 11
-471.33179473877
 21
-47.0678250122247
 31
0.0
  0
LINE
  5
   3E8
  8
0
  6
CONTINUOUS
 62
    98
 10
-470.33179473877
 20
-48.0678250122247
 30
0.0
 11
-470.33179473877
 21
-47.0678250122247
 31
0.0
  0
LINE
  5
   3E9
  8
0
  6
CONTINUOUS
 62
    98
 10
-476.33179473877
 20
-47.0678250122247
 30
0.0
 11
-477.33179473877
 21
-47.0678250122247
 31
0.0
  0
LINE
  5
   3EA
  8
0
  6
CONTINUOUS
 62
    98
 10
-471.33179473877
 20
-48.0678250122247
 30
0.0
 11
-476.33179473877
 21
-48.0678250122247
 31
0.0
  0
LINE
  5
   3EB
  8
0
  6
CONTINUOUS
 62
    98
 10
-465.83179473877
 20
-51.067890570479
 30
0.0
 11
-465.83179473877
 21
-49.0678250122247
 31
0.0
  0
LINE
  5
   3EC
  8
0
  6
CONTINUOUS
 62
    98
 10
-464.83179473877
 20
-69.9678250122247
 30
0.0
 11
-464.83179473877
 21
-60.9428250122247
 31
0.0
  0
LINE
  5
   3ED
  8
0
  6
CONTINUOUS
 62
    98
 10
-457.831787109375
 20
-68.7178250122247
 30
0.0
 11
-464.83179473877
 21
-68.7178250122247
 31
0.0
  0
LINE
  5
   3EE
  8
0
  6
CONTINUOUS
 62
     7
 10
-472.159141719969
 20
-35.7171013976066
 30
0.0
 11
-489.28254772476
 21
-26.2844382049481
 31
0.0
  0
LINE
  5
   3EF
  8
0
  6
CONTINUOUS
 62
     7
 10
-494.831799731602
 20
-45.5678253936946
 30
0.0
 11
-506.331787586212
 21
-45.5678253936946
 31
0.0
  0
LINE
  5
   3F0
  8
0
  6
CONTINUOUS
 62
     7
 10
-494.831799731602
 20
-46.9678250122247
 30
0.0
 11
-506.331787586212
 21
-46.9678250122247
 31
0.0
  0
LINE
  5
   3F1
  8
0
  6
CONTINUOUS
 62
   218
 10
-476.212213971166
 20
-60.7178829410845
 30
0.0
 11
-474.296605441393
 21
-49.8539271126767
 31
0.0
  0
LINE
  5
   3F2
  8
0
  6
CONTINUOUS
 62
   218
 10
-475.450644012252
 20
-60.7178829410845
 30
0.0
 11
-473.535035482479
 21
-49.8539271126767
 31
0.0
  0
LINE
  5
   3F3
  8
0
  6
CONTINUOUS
 62
   218
 10
-474.689074053338
 20
-60.7178829410845
 30
0.0
 11
-473.871460128814
 21
-56.0809639554644
 31
0.0
  0
LINE
  5
   3F4
  8
0
  6
CONTINUOUS
 62
   218
 10
-473.927504094423
 20
-60.7178829410845
 30
0.0
 11
-473.288063693741
 21
-57.0914362219648
 31
0.0
  0
LINE
  5
   3F5
  8
0
  6
CONTINUOUS
 62
   218
 10
-473.165934135509
 20
-60.7178829410845
 30
0.0
 11
-472.708400032123
 21
-58.1230780986942
 31
0.0
  0
LINE
  5
   3F6
  8
0
  6
CONTINUOUS
 62
   218
 10
-476.973783930081
 20
-60.7178829410845
 30
0.0
 11
-475.058175400307
 21
-49.8539271126767
 31
0.0
  0
LINE
  5
   3F7
  8
0
  6
CONTINUOUS
 62
   218
 10
-477.735353888995
 20
-60.7178829410845
 30
0.0
 11
-475.819745359222
 21
-49.8539271126767
 31
0.0
  0
LINE
  5
   3F8
  8
0
  6
CONTINUOUS
 62
   218
 10
-478.496923847909
 20
-60.7178829410845
 30
0.0
 11
-476.581315318136
 21
-49.8539271126767
 31
0.0
  0
LINE
  5
   3F9
  8
0
  6
CONTINUOUS
 62
   218
 10
-479.25773551992
 20
-60.7135824823552
 30
0.0
 11
-477.34288527705
 21
-49.8539271126767
 31
0.0
  0
LINE
  5
   3FA
  8
0
  6
CONTINUOUS
 62
   218
 10
-480.019305478835
 20
-60.7135824823552
 30
0.0
 11
-478.104455235965
 21
-49.8539271126767
 31
0.0
  0
LINE
  5
   3FB
  8
0
  6
CONTINUOUS
 62
   218
 10
-480.456799731602
 20
-60.7178829410845
 30
0.0
 11
-492.206799731602
 21
-60.7178829410845
 31
0.0
  0
LINE
  5
   3FC
  8
0
  6
CONTINUOUS
 62
   218
 10
-489.337213971166
 20
-60.7178829410845
 30
0.0
 11
-485.397876762447
 21
-38.3767914479316
 31
0.0
  0
LINE
  5
   3FD
  8
0
  6
CONTINUOUS
 62
   218
 10
-488.575644012252
 20
-60.7178829410845
 30
0.0
 11
-484.814480327375
 21
-39.387263714432
 31
0.0
  0
LINE
  5
   3FE
  8
0
  6
CONTINUOUS
 62
   218
 10
-487.814074053338
 20
-60.7178829410845
 30
0.0
 11
-484.231083892302
 21
-40.3977359809324
 31
0.0
  0
LINE
  5
   3FF
  8
0
  6
CONTINUOUS
 62
   218
 10
-487.052504094424
 20
-60.7178829410845
 30
0.0
 11
-483.706599989732
 21
-41.7423178219632
 31
0.0
  0
LINE
  5
   400
  8
0
  6
CONTINUOUS
 62
   218
 10
-486.290934135509
 20
-60.7178829410845
 30
0.0
 11
-483.706599989732
 21
-46.061395684321
 31
0.0
  0
LINE
  5
   401
  8
0
  6
CONTINUOUS
 62
   218
 10
-485.529364176595
 20
-60.7178829410845
 30
0.0
 11
-483.706599989732
 21
-50.3804735466787
 31
0.0
  0
LINE
  5
   402
  8
0
  6
CONTINUOUS
 62
   218
 10
-484.767794217681
 20
-60.7178829410845
 30
0.0
 11
-483.706599989732
 21
-54.6995514090364
 31
0.0
  0
LINE
  5
   403
  8
0
  6
CONTINUOUS
 62
   218
 10
-484.006224258766
 20
-60.7178829410845
 30
0.0
 11
-483.706599989732
 21
-59.0186292713942
 31
0.0
  0
LINE
  5
   404
  8
0
  6
CONTINUOUS
 62
   218
 10
-490.098783930081
 20
-60.7178829410845
 30
0.0
 11
-485.194917340055
 21
-32.9066735032418
 31
0.0
  0
LINE
  5
   405
  8
0
  6
CONTINUOUS
 62
   218
 10
-490.860353888995
 20
-60.7178829410845
 30
0.0
 11
-485.95648729897
 21
-32.9066735032418
 31
0.0
  0
LINE
  5
   406
  8
0
  6
CONTINUOUS
 62
   218
 10
-491.331799731602
 20
-59.0725073148388
 30
0.0
 11
-486.718057257884
 21
-32.9066735032418
 31
0.0
  0
LINE
  5
   407
  8
0
  6
CONTINUOUS
 62
   218
 10
-491.331799731602
 20
-54.753429452481
 30
0.0
 11
-487.479627216798
 21
-32.9066735032418
 31
0.0
  0
LINE
  5
   408
  8
0
  6
CONTINUOUS
 62
   218
 10
-491.331799731602
 20
-50.4343515901232
 30
0.0
 11
-488.241197175712
 21
-32.9066735032418
 31
0.0
  0
LINE
  5
   409
  8
0
  6
CONTINUOUS
 62
     7
 10
-472.708400032123
 20
-49.8539271126767
 30
0.0
 11
-480.455400213798
 21
-49.8539271126767
 31
0.0
  0
LINE
  5
   40A
  8
0
  6
CONTINUOUS
 62
   218
 10
-483.706599989732
 20
-32.9066735032418
 30
0.0
 11
-491.453599792917
 21
-32.9066735032418
 31
0.0
  0
LINE
  5
   40B
  8
0
  6
CONTINUOUS
 62
     7
 10
-473.196696867967
 20
-47.669089539335
 30
0.0
 11
-473.196696867967
 21
-33.55621980883
 31
0.0
  0
LINE
  5
   40C
  8
0
  6
CONTINUOUS
 62
   218
 10
-491.331799731602
 20
-46.1152737277656
 30
0.0
 11
-489.002767134627
 21
-32.9066735032418
 31
0.0
  0
LINE
  5
   40D
  8
0
  6
CONTINUOUS
 62
   218
 10
-491.331799731602
 20
-41.7961958654078
 30
0.0
 11
-489.764337093541
 21
-32.9066735032418
 31
0.0
  0
LINE
  5
   40E
  8
0
  6
CONTINUOUS
 62
   218
 10
-491.331799731602
 20
-37.4771180030501
 30
0.0
 11
-490.525907052455
 21
-32.9066735032418
 31
0.0
  0
LINE
  5
   40F
  8
0
  6
CONTINUOUS
 62
   218
 10
-491.331799731602
 20
-33.1580401406923
 30
0.0
 11
-491.28747701137
 21
-32.9066735032418
 31
0.0
  0
LINE
  5
   410
  8
0
  6
CONTINUOUS
 62
    98
 10
-481.58190012296
 20
-66.9678250122247
 30
0.0
 11
-482.580099891325
 21
-66.9678250122247
 31
0.0
  0
LINE
  5
   411
  8
0
  6
CONTINUOUS
 62
    98
 10
-481.58190012296
 20
-67.9678250122247
 30
0.0
 11
-482.580099891325
 21
-67.9678250122247
 31
0.0
  0
LINE
  5
   412
  8
0
  6
CONTINUOUS
 62
    98
 10
-481.58190012296
 20
-69.9678250122247
 30
0.0
 11
-482.580099891325
 21
-69.9678250122247
 31
0.0
  0
LINE
  5
   413
  8
0
  6
CONTINUOUS
 62
    98
 10
-492.580099891325
 20
-66.9678250122247
 30
0.0
 11
-506.331787109375
 21
-66.9678250122247
 31
0.0
  0
LINE
  5
   414
  8
0
  6
CONTINUOUS
 62
    98
 10
-492.580099891325
 20
-67.9678250122247
 30
0.0
 11
-506.331787109375
 21
-67.9678250122247
 31
0.0
  0
LINE
  5
   415
  8
0
  6
CONTINUOUS
 62
    98
 10
-492.580099891325
 20
-68.9678250122247
 30
0.0
 11
-506.331787109375
 21
-68.9678250122247
 31
0.0
  0
LINE
  5
   416
  8
0
  6
CONTINUOUS
 62
    98
 10
-492.580099891325
 20
-69.9678250122247
 30
0.0
 11
-506.331787109375
 21
-69.9678250122247
 31
0.0
  0
LINE
  5
   417
  8
0
  6
CONTINUOUS
 62
    98
 10
-481.58190012296
 20
-68.9678250122247
 30
0.0
 11
-482.580099891325
 21
-68.9678250122247
 31
0.0
  0
INSERT
  5
   418
  8
0
  6
CONTINUOUS
 62
     7
  2
*HATCH58
 10
-507.331787109375
 20
-37.5863952636719
 30
0.0
 41
0.5
 42
0.5
 50
89.9999999480344
 43
0.5
  0
LINE
  5
   419
  8
0
  6
CONTINUOUS
 62
     7
 10
-473.892596806599
 20
66.282168219405
 30
0.0
 11
-473.492596806599
 21
66.6821682194048
 31
0.0
  0
LINE
  5
   41A
  8
0
  6
CONTINUOUS
 62
     7
 10
-477.581799731602
 20
65.5321682194048
 30
0.0
 11
-477.581799731602
 21
66.6821682194048
 31
0.0
  0
LINE
  5
   41B
  8
0
  6
CONTINUOUS
 62
   130
 10
-478.565521903588
 20
65.0968731144244
 30
0.0
 11
-494.831799731602
 21
65.0968731144244
 31
0.0
  0
LINE
  5
   41C
  8
0
  6
CONTINUOUS
 62
   130
 10
-499.323281512608
 20
75.0321682194048
 30
0.0
 11
-499.323281512608
 21
75.0559414127642
 31
0.0
  0
LINE
  5
   41D
  8
0
  6
CONTINUOUS
 62
   130
 10
-494.831799731602
 20
73.5321682194048
 30
0.0
 11
-497.331799731602
 21
73.5321682194048
 31
0.0
  0
LINE
  5
   41E
  8
0
  6
CONTINUOUS
 62
   130
 10
-494.831799731602
 20
68.5321682194048
 30
0.0
 11
-497.331799731602
 21
68.5321682194048
 31
0.0
  0
LINE
  5
   41F
  8
0
  6
CONTINUOUS
 62
   130
 10
-477.581799731602
 20
75.3821682194048
 30
0.0
 11
-477.581799731602
 21
76.5321682194048
 31
0.0
  0
LINE
  5
   420
  8
0
  6
CONTINUOUS
 62
   130
 10
-481.081799731602
 20
74.6499074075497
 30
0.0
 11
-481.081799731602
 21
76.5321682194048
 31
0.0
  0
LINE
  5
   421
  8
0
  6
CONTINUOUS
 62
   130
 10
-477.581799731602
 20
76.5321682194048
 30
0.0
 11
-494.831799731602
 21
76.5321682194048
 31
0.0
  0
LINE
  5
   422
  8
0
  6
CONTINUOUS
 62
   130
 10
-477.581799731602
 20
65.5321682194048
 30
0.0
 11
-494.831799731602
 21
65.5321682194048
 31
0.0
  0
LINE
  5
   423
  8
0
  6
CONTINUOUS
 62
   130
 10
-491.731799731602
 20
73.5321682194048
 30
0.0
 11
-497.731799731602
 21
73.5321682194048
 31
0.0
  0
LINE
  5
   424
  8
0
  6
CONTINUOUS
 62
   130
 10
-491.731799731602
 20
68.5321682194048
 30
0.0
 11
-497.731799731602
 21
68.5321682194048
 31
0.0
  0
LINE
  5
   425
  8
0
  6
CONTINUOUS
 62
   130
 10
-497.331799731602
 20
73.5321682194048
 30
0.0
 11
-497.331799731602
 21
75.5321682194048
 31
0.0
  0
LINE
  5
   426
  8
0
  6
CONTINUOUS
 62
   130
 10
-497.731799731602
 20
66.5321682194048
 30
0.0
 11
-497.731799731602
 21
75.5321682194048
 31
0.0
  0
LINE
  5
   427
  8
0
  6
CONTINUOUS
 62
   130
 10
-497.331799731602
 20
75.5321682194048
 30
0.0
 11
-497.731799731602
 21
75.5321682194048
 31
0.0
  0
LINE
  5
   428
  8
0
  6
CONTINUOUS
 62
   130
 10
-497.331799731602
 20
66.5321682194048
 30
0.0
 11
-497.731799731602
 21
66.5321682194048
 31
0.0
  0
LINE
  5
   429
  8
0
  6
CONTINUOUS
 62
   130
 10
-492.131799731602
 20
68.5321682194048
 30
0.0
 11
-492.131799731602
 21
73.5321682194049
 31
0.0
  0
LINE
  5
   42A
  8
0
  6
CONTINUOUS
 62
   130
 10
-491.731799731602
 20
65.5321682194048
 30
0.0
 11
-491.731799731602
 21
76.5321682194048
 31
0.0
  0
LINE
  5
   42B
  8
0
  6
CONTINUOUS
 62
   130
 10
-491.731799731602
 20
73.1321682194048
 30
0.0
 11
-492.131799731602
 21
73.5321682194048
 31
0.0
  0
LINE
  5
   42C
  8
0
  6
CONTINUOUS
 62
   130
 10
-492.131799731602
 20
68.5321682194048
 30
0.0
 11
-491.731799731602
 21
68.9321682194048
 31
0.0
  0
LINE
  5
   42D
  8
0
  6
CONTINUOUS
 62
   130
 10
-500.731799731602
 20
67.2821682194048
 30
0.0
 11
-500.731799731602
 21
74.7821682194048
 31
0.0
  0
LINE
  5
   42E
  8
0
  6
CONTINUOUS
 62
   130
 10
-497.731799731602
 20
75.0321682194048
 30
0.0
 11
-500.481799731602
 21
75.0321682194048
 31
0.0
  0
LINE
  5
   42F
  8
0
  6
CONTINUOUS
 62
   130
 10
-497.731799731602
 20
67.0321682194048
 30
0.0
 11
-500.481799731602
 21
67.0321682194048
 31
0.0
  0
ARC
  5
   430
  8
0
  6
CONTINUOUS
 62
   130
 10
-500.481799731602
 20
74.7821682194048
 30
0.0
 40
0.25
 50
449.999999948034
 51
539.999999948034
  0
ARC
  5
   431
  8
0
  6
CONTINUOUS
 62
   130
 10
-500.481799731602
 20
67.2821682194048
 30
0.0
 40
0.25
 50
179.999999948034
 51
269.999999948034
  0
LINE
  5
   432
  8
0
  6
CONTINUOUS
 62
   130
 10
-492.131799731602
 20
73.1821682194049
 30
0.0
 11
-496.343779118222
 21
73.1821682194049
 31
0.0
  0
LINE
  5
   433
  8
0
  6
CONTINUOUS
 62
   130
 10
-492.131799731602
 20
68.8821682194048
 30
0.0
 11
-496.343779118222
 21
68.8821682194048
 31
0.0
  0
LINE
  5
   434
  8
0
  6
CONTINUOUS
 62
   130
 10
-496.343779118222
 20
68.5321682194048
 30
0.0
 11
-496.343779118222
 21
73.5321682194048
 31
0.0
  0
LINE
  5
   435
  8
0
  6
CONTINUOUS
 62
   130
 10
-496.343779118222
 20
73.1821682194049
 30
0.0
 11
-496.949996900871
 21
73.5321682194049
 31
0.0
  0
LINE
  5
   436
  8
0
  6
CONTINUOUS
 62
   130
 10
-496.949996900871
 20
68.5321682194051
 30
0.0
 11
-496.343779118222
 21
68.8821682194051
 31
0.0
  0
LINE
  5
   437
  8
0
  6
CONTINUOUS
 62
   130
 10
-473.492596806599
 20
66.6821682194048
 30
0.0
 11
-473.492596806599
 21
75.3821682194048
 31
0.0
  0
ARC
  5
   438
  8
0
  6
CONTINUOUS
 62
   130
 10
-481.842596806599
 20
71.0321682194048
 30
0.0
 40
1.15
 50
149.999999948034
 51
209.999999948035
  0
LINE
  5
   439
  8
0
  6
CONTINUOUS
 62
   130
 10
-482.838526020951
 20
71.6071682194049
 30
0.0
 11
-480.428088647085
 21
75.782168219405
 31
0.0
  0
LINE
  5
   43A
  8
0
  6
CONTINUOUS
 62
   130
 10
-480.428088647085
 20
66.2821682194048
 30
0.0
 11
-482.838526020951
 21
70.4571682194048
 31
0.0
  0
LINE
  5
   43B
  8
0
  6
CONTINUOUS
 62
   130
 10
-473.892596806599
 20
75.7821682194048
 30
0.0
 11
-480.428088647085
 21
75.7821682194048
 31
0.0
  0
LINE
  5
   43C
  8
0
  6
CONTINUOUS
 62
   130
 10
-473.892596806599
 20
66.2821682194048
 30
0.0
 11
-480.428088647085
 21
66.2821682194048
 31
0.0
  0
LINE
  5
   43D
  8
0
  6
CONTINUOUS
 62
   130
 10
-480.428088647085
 20
66.2821682194048
 30
0.0
 11
-480.428088647085
 21
75.7821682194048
 31
0.0
  0
LINE
  5
   43E
  8
0
  6
CONTINUOUS
 62
   130
 10
-473.892596806599
 20
75.3821682194048
 30
0.0
 11
-480.428088647085
 21
75.3821682194048
 31
0.0
  0
LINE
  5
   43F
  8
0
  6
CONTINUOUS
 62
   130
 10
-473.892596806599
 20
66.6821682194048
 30
0.0
 11
-480.428088647085
 21
66.6821682194048
 31
0.0
  0
LINE
  5
   440
  8
0
  6
CONTINUOUS
 62
   130
 10
-473.892596806599
 20
66.2821682194048
 30
0.0
 11
-473.892596806599
 21
75.7821682194048
 31
0.0
  0
LINE
  5
   441
  8
0
  6
CONTINUOUS
 62
   130
 10
-473.492596806599
 20
75.3821682194048
 30
0.0
 11
-473.892596806599
 21
75.7821682194048
 31
0.0
  0
LINE
  5
   442
  8
0
  6
CONTINUOUS
 62
   130
 10
-481.081799731602
 20
65.5321682194048
 30
0.0
 11
-481.081799731602
 21
67.4144290312601
 31
0.0
  0
INSERT
  5
   443
  8
0
  6
CONTINUOUS
 62
     2
  2
*HATCH59
 10
-507.331787109375
 20
-37.5863952636719
 30
0.0
 41
0.5
 42
0.5
 50
89.9999999480344
 43
0.5
  0
INSERT
  5
   444
  8
0
  6
CONTINUOUS
 62
     2
  2
*HATCH60
 10
-507.331787109375
 20
-37.5863952636719
 30
0.0
 41
0.5
 42
0.5
 50
89.9999999480344
 43
0.5
  0
INSERT
  5
   445
  8
0
  6
CONTINUOUS
 62
     2
  2
*HATCH61
 10
-507.331787109375
 20
-37.5863952636719
 30
0.0
 41
0.5
 42
0.5
 50
89.9999999480344
 43
0.5
  0
INSERT
  5
   446
  8
0
  6
CONTINUOUS
 62
     2
  2
*HATCH62
 10
-507.331787109375
 20
-37.5863952636719
 30
0.0
 41
0.5
 42
0.5
 50
89.9999999480344
 43
0.5
  0
LINE
  5
   447
  8
0
  6
CONTINUOUS
 62
   130
 10
-494.831799731602
 20
73.1821682194049
 30
0.0
 11
-494.831799731602
 21
76.5321682194048
 31
0.0
  0
LINE
  5
   448
  8
0
  6
CONTINUOUS
 62
   130
 10
-494.831799731602
 20
65.5321682194048
 30
0.0
 11
-494.831799731602
 21
68.8821682194048
 31
0.0
  0
LINE
  5
   449
  8
0
  6
CONTINUOUS
 62
   130
 10
-497.331799731602
 20
66.5321682194048
 30
0.0
 11
-497.331799731602
 21
68.5321682194048
 31
0.0
  0
LINE
  5
   44A
  8
0
  6
CONTINUOUS
 62
   130
 10
-497.331799731602
 20
73.6571682194048
 30
0.0
 11
-497.731799731602
 21
73.6571682194048
 31
0.0
  0
LINE
  5
   44B
  8
0
  6
CONTINUOUS
 62
   130
 10
-497.331799731602
 20
68.4071682194048
 30
0.0
 11
-497.731799731602
 21
68.4071682194048
 31
0.0
  0
INSERT
  5
   44C
  8
0
  6
CONTINUOUS
 62
     2
  2
*HATCH63
 10
-507.331787109375
 20
-37.5863952636719
 30
0.0
 41
0.5
 42
0.5
 50
89.9999999480344
 43
0.5
  0
INSERT
  5
   44D
  8
0
  6
CONTINUOUS
 62
     2
  2
*HATCH64
 10
-507.331787109375
 20
-37.5863952636719
 30
0.0
 41
0.5
 42
0.5
 50
89.9999999480344
 43
0.5
  0
LINE
  5
   44E
  8
0
  6
DASHDOT
 62
     7
 10
-486.731799731602
 20
63.5592457665476
 30
0.0
 11
-486.731799731602
 21
103.040704175348
 31
0.0
  0
LINE
  5
   44F
  8
0
  6
CONTINUOUS
 62
     7
 10
-481.081799731602
 20
65.7588632174904
 30
0.0
 11
-491.731799731602
 21
65.7588632174904
 31
0.0
  0
LINE
  5
   450
  8
0
  6
CONTINUOUS
 62
     2
 10
-492.731799731602
 20
80.0321426391602
 30
0.0
 11
-506.331783519136
 21
80.0321426391602
 31
0.0
  0
LINE
  5
   451
  8
0
  6
CONTINUOUS
 62
   218
 10
-486.856915050946
 20
65.7588632174904
 30
0.0
 11
-483.970216675869
 21
76.5321682194048
 31
0.0
  0
LINE
  5
   452
  8
0
  6
CONTINUOUS
 62
   218
 10
-487.633372186253
 20
65.7588632174904
 30
0.0
 11
-484.746673811176
 21
76.5321682194048
 31
0.0
  0
LINE
  5
   453
  8
0
  6
CONTINUOUS
 62
   218
 10
-488.409829321561
 20
65.7588632174904
 30
0.0
 11
-485.523130946484
 21
76.5321682194048
 31
0.0
  0
LINE
  5
   454
  8
0
  6
CONTINUOUS
 62
   218
 10
-489.186286456869
 20
65.7588632174904
 30
0.0
 11
-486.299588081791
 21
76.5321682194048
 31
0.0
  0
LINE
  5
   455
  8
0
  6
CONTINUOUS
 62
   218
 10
-489.962743592176
 20
65.7588632174904
 30
0.0
 11
-487.076045217099
 21
76.5321682194048
 31
0.0
  0
LINE
  5
   456
  8
0
  6
CONTINUOUS
 62
   218
 10
-490.739200727484
 20
65.7588632174904
 30
0.0
 11
-487.852502352407
 21
76.5321682194048
 31
0.0
  0
LINE
  5
   457
  8
0
  6
CONTINUOUS
 62
   218
 10
-491.731799731602
 20
64.9522107814447
 30
0.0
 11
-488.628959487714
 21
76.5321682194048
 31
0.0
  0
LINE
  5
   458
  8
0
  6
CONTINUOUS
 62
   218
 10
-491.731799731602
 20
67.8499882603118
 30
0.0
 11
-489.405416623022
 21
76.5321682194048
 31
0.0
  0
LINE
  5
   459
  8
0
  6
CONTINUOUS
 62
   218
 10
-491.731799731602
 20
70.7477657391791
 30
0.0
 11
-490.181873758329
 21
76.5321682194048
 31
0.0
  0
LINE
  5
   45A
  8
0
  6
CONTINUOUS
 62
   218
 10
-491.731799731602
 20
73.6455432180463
 30
0.0
 11
-490.958330893637
 21
76.5321682194048
 31
0.0
  0
LINE
  5
   45B
  8
0
  6
CONTINUOUS
 62
   218
 10
-486.080457915638
 20
65.7588632174904
 30
0.0
 11
-483.193759540561
 21
76.5321682194048
 31
0.0
  0
LINE
  5
   45C
  8
0
  6
CONTINUOUS
 62
   218
 10
-485.304000780331
 20
65.7588632174904
 30
0.0
 11
-482.417302405254
 21
76.5321682194048
 31
0.0
  0
LINE
  5
   45D
  8
0
  6
CONTINUOUS
 62
   218
 10
-484.527543645023
 20
65.7588632174904
 30
0.0
 11
-481.731799731602
 21
76.1927215473286
 31
0.0
  0
LINE
  5
   45E
  8
0
  6
CONTINUOUS
 62
   218
 10
-483.751086509716
 20
65.7588632174904
 30
0.0
 11
-482.601966933308
 21
70.0474358606148
 31
0.0
  0
LINE
  5
   45F
  8
0
  6
CONTINUOUS
 62
   218
 10
-482.974629374408
 20
65.7588632174904
 30
0.0
 11
-482.071636847418
 21
69.128877207071
 31
0.0
  0
INSERT
  5
   460
  8
0
  6
CONTINUOUS
 62
   218
  2
*HATCH65
 10
-507.331787109375
 20
-37.5863952636719
 30
0.0
 41
0.5
 42
0.5
 50
89.9999999480344
 43
0.5
  0
POLYLINE
  5
   461
  8
0
  6
CONTINUOUS
 62
   218
 66
     1
 10
0.0
 20
0.0
 30
0.0
  0
VERTEX
  5
   462
  8
0
  6
CONTINUOUS
 10
-486.731799731602
 20
91.2208601056383
 30
0.0
 40
0.0
 41
0.0
  0
VERTEX
  5
   463
  8
0
  6
CONTINUOUS
 10
-486.732684451682
 20
91.251536641292
 30
0.0
 40
0.0
 41
0.0
  0
VERTEX
  5
   464
  8
0
  6
CONTINUOUS
 10
-486.735338079
 20
91.2821946985476
 30
0.0
 40
0.0
 41
0.0
  0
VERTEX
  5
   465
  8
0
  6
CONTINUOUS
 10
-486.739759015109
 20
91.3128158101379
 30
0.0
 40
0.0
 41
0.0
  0
VERTEX
  5
   466
  8
0
  6
CONTINUOUS
 10
-486.745944597003
 20
91.3433815310503
 30
0.0
 40
0.0
 41
0.0
  0
VERTEX
  5
   467
  8
0
  6
CONTINUOUS
 10
-486.753891098719
 20
91.3738734496374
 30
0.0
 40
0.0
 41
0.0
  0
VERTEX
  5
   468
  8
0
  6
CONTINUOUS
 10
-486.763593733581
 20
91.4042731987075
 30
0.0
 40
0.0
 41
0.0
  0
VERTEX
  5
   469
  8
0
  6
CONTINUOUS
 10
-486.775046657086
 20
91.4345624665887
 30
0.0
 40
0.0
 41
0.0
  0
VERTEX
  5
   46A
  8
0
  6
CONTINUOUS
 10
-486.788242970419
 20
91.4647230081584
 30
0.0
 40
0.0
 41
0.0
  0
VERTEX
  5
   46B
  8
0
  6
CONTINUOUS
 10
-486.803174724615
 20
91.4947366558343
 30
0.0
 40
0.0
 41
0.0
  0
VERTEX
  5
   46C
  8
0
  6
CONTINUOUS
 10
-486.819832925345
 20
91.5245853305173
 30
0.0
 40
0.0
 41
0.0
  0
VERTEX
  5
   46D
  8
0
  6
CONTINUOUS
 10
-486.83820753833
 20
91.5542510524818
 30
0.0
 40
0.0
 41
0.0
  0
VERTEX
  5
   46E
  8
0
  6
CONTINUOUS
 10
-486.85828749539
 20
91.5837159522062
 30
0.0
 40
0.0
 41
0.0
  0
VERTEX
  5
   46F
  8
0
  6
CONTINUOUS
 10
-486.880060701112
 20
91.6129622811366
 30
0.0
 40
0.0
 41
0.0
  0
VERTEX
  5
   470
  8
0
  6
CONTINUOUS
 10
-486.903514040129
 20
91.6419724223782
 30
0.0
 40
0.0
 41
0.0
  0
VERTEX
  5
   471
  8
0
  6
CONTINUOUS
 10
-486.928633385027
 20
91.6707289013066
 30
0.0
 40
0.0
 41
0.0
  0
VERTEX
  5
   472
  8
0
  6
CONTINUOUS
 10
-486.955403604852
 20
91.6992143960942
 30
0.0
 40
0.0
 41
0.0
  0
VERTEX
  5
   473
  8
0
  6
CONTINUOUS
 10
-486.983808574225
 20
91.727411748144
 30
0.0
 40
0.0
 41
0.0
  0
VERTEX
  5
   474
  8
0
  6
CONTINUOUS
 10
-487.013831183055
 20
91.7553039724255
 30
0.0
 40
0.0
 41
0.0
  0
VERTEX
  5
   475
  8
0
  6
CONTINUOUS
 10
-487.045453346843
 20
91.7828742677058
 30
0.0
 40
0.0
 41
0.0
  0
VERTEX
  5
   476
  8
0
  6
CONTINUOUS
 10
-487.078656017582
 20
91.8101060266699
 30
0.0
 40
0.0
 41
0.0
  0
VERTEX
  5
   477
  8
0
  6
CONTINUOUS
 10
-487.113419195223
 20
91.8369828459245
 30
0.0
 40
0.0
 41
0.0
  0
VERTEX
  5
   478
  8
0
  6
CONTINUOUS
 10
-487.14972193973
 20
91.8634885358787
 30
0.0
 40
0.0
 41
0.0
  0
VERTEX
  5
   479
  8
0
  6
CONTINUOUS
 10
-487.187542383684
 20
91.8896071304959
 30
0.0
 40
0.0
 41
0.0
  0
VERTEX
  5
   47A
  8
0
  6
CONTINUOUS
 10
-487.226857745467
 20
91.9153228969114
 30
0.0
 40
0.0
 41
0.0
  0
VERTEX
  5
   47B
  8
0
  6
CONTINUOUS
 10
-487.267644342973
 20
91.9406203449091
 30
0.0
 40
0.0
 41
0.0
  0
VERTEX
  5
   47C
  8
0
  6
CONTINUOUS
 10
-487.309877607882
 20
91.9654842362522
 30
0.0
 40
0.0
 41
0.0
  0
VERTEX
  5
   47D
  8
0
  6
CONTINUOUS
 10
-487.353532100453
 20
91.9898995938622
 30
0.0
 40
0.0
 41
0.0
  0
VERTEX
  5
   47E
  8
0
  6
CONTINUOUS
 10
-487.398581524853
 20
92.0138517108409
 30
0.0
 40
0.0
 41
0.0
  0
VERTEX
  5
   47F
  8
0
  6
CONTINUOUS
 10
-487.444998744994
 20
92.0373261593284
 30
0.0
 40
0.0
 41
0.0
  0
VERTEX
  5
   480
  8
0
  6
CONTINUOUS
 10
-487.492755800876
 20
92.0603087991948
 30
0.0
 40
0.0
 41
0.0
  0
VERTEX
  5
   481
  8
0
  6
CONTINUOUS
 10
-487.541823925437
 20
92.0827857865571
 30
0.0
 40
0.0
 41
0.0
  0
VERTEX
  5
   482
  8
0
  6
CONTINUOUS
 10
-487.643774381442
 20
92.1261689593248
 30
0.0
 40
0.0
 41
0.0
  0
VERTEX
  5
   483
  8
0
  6
CONTINUOUS
 10
-487.750604505431
 20
92.1673711637681
 30
0.0
 40
0.0
 41
0.0
  0
VERTEX
  5
   484
  8
0
  6
CONTINUOUS
 10
-487.862056934277
 20
92.2062931401678
 30
0.0
 40
0.0
 41
0.0
  0
VERTEX
  5
   485
  8
0
  6
CONTINUOUS
 10
-487.977863169318
 20
92.2428411220736
 30
0.0
 40
0.0
 41
0.0
  0
VERTEX
  5
   486
  8
0
  6
CONTINUOUS
 10
-488.09774422319
 20
92.2769270621958
 30
0.0
 40
0.0
 41
0.0
  0
VERTEX
  5
   487
  8
0
  6
CONTINUOUS
 10
-488.221411291934
 20
92.3084688445191
 30
0.0
 40
0.0
 41
0.0
  0
VERTEX
  5
   488
  8
0
  6
CONTINUOUS
 10
-488.348566450748
 20
92.3373904821271
 30
0.0
 40
0.0
 41
0.0
  0
VERTEX
  5
   489
  8
0
  6
CONTINUOUS
 10
-488.413356644658
 20
92.3508467220367
 30
0.0
 40
0.0
 41
0.0
  0
VERTEX
  5
   48A
  8
0
  6
CONTINUOUS
 10
-488.545167149037
 20
92.375709521271
 30
0.0
 40
0.0
 41
0.0
  0
VERTEX
  5
   48B
  8
0
  6
CONTINUOUS
 10
-488.67968578727
 20
92.3977901871101
 30
0.0
 40
0.0
 41
0.0
  0
VERTEX
  5
   48C
  8
0
  6
CONTINUOUS
 10
-488.816588492175
 20
92.4170355252961
 30
0.0
 40
0.0
 41
0.0
  0
VERTEX
  5
   48D
  8
0
  6
CONTINUOUS
 10
-488.955545453144
 20
92.4333991721234
 30
0.0
 40
0.0
 41
0.0
  0
VERTEX
  5
   48E
  8
0
  6
CONTINUOUS
 10
-489.096221910688
 20
92.4468417061337
 30
0.0
 40
0.0
 41
0.0
  0
VERTEX
  5
   48F
  8
0
  6
CONTINUOUS
 10
-489.238278962898
 20
92.457330743085
 30
0.0
 40
0.0
 41
0.0
  0
VERTEX
  5
   490
  8
0
  6
CONTINUOUS
 10
-489.381374381892
 20
92.4648410139687
 30
0.0
 40
0.0
 41
0.0
  0
VERTEX
  5
   491
  8
0
  6
CONTINUOUS
 10
-489.525163438274
 20
92.4693544258843
 30
0.0
 40
0.0
 41
0.0
  0
VERTEX
  5
   492
  8
0
  6
CONTINUOUS
 10
-489.669299731611
 20
92.4708601056272
 30
0.0
 40
0.0
 41
0.0
  0
VERTEX
  5
   493
  8
0
  6
CONTINUOUS
 10
-489.813436024948
 20
92.4693544258831
 30
0.0
 40
0.0
 41
0.0
  0
VERTEX
  5
   494
  8
0
  6
CONTINUOUS
 10
-489.957225081329
 20
92.4648410139662
 30
0.0
 40
0.0
 41
0.0
  0
VERTEX
  5
   495
  8
0
  6
CONTINUOUS
 10
-490.100320500324
 20
92.4573307430813
 30
0.0
 40
0.0
 41
0.0
  0
VERTEX
  5
   496
  8
0
  6
CONTINUOUS
 10
-490.242377552533
 20
92.4468417061288
 30
0.0
 40
0.0
 41
0.0
  0
VERTEX
  5
   497
  8
0
  6
CONTINUOUS
 10
-490.383054010077
 20
92.4333991721173
 30
0.0
 40
0.0
 41
0.0
  0
VERTEX
  5
   498
  8
0
  6
CONTINUOUS
 10
-490.522010971046
 20
92.4170355252887
 30
0.0
 40
0.0
 41
0.0
  0
VERTEX
  5
   499
  8
0
  6
CONTINUOUS
 10
-490.658913675951
 20
92.3977901871016
 30
0.0
 40
0.0
 41
0.0
  0
VERTEX
  5
   49A
  8
0
  6
CONTINUOUS
 10
-490.793432314183
 20
92.3757095212613
 30
0.0
 40
0.0
 41
0.0
  0
VERTEX
  5
   49B
  8
0
  6
CONTINUOUS
 10
-490.925242818562
 20
92.3508467220259
 30
0.0
 40
0.0
 41
0.0
  0
VERTEX
  5
   49C
  8
0
  6
CONTINUOUS
 10
-491.054027646037
 20
92.3232616860565
 30
0.0
 40
0.0
 41
0.0
  0
VERTEX
  5
   49D
  8
0
  6
CONTINUOUS
 10
-491.179476542678
 20
92.2930208681208
 30
0.0
 40
0.0
 41
0.0
  0
VERTEX
  5
   49E
  8
0
  6
CONTINUOUS
 10
-491.301287291105
 20
92.260197120998
 30
0.0
 40
0.0
 41
0.0
  0
VERTEX
  5
   49F
  8
0
  6
CONTINUOUS
 10
-491.419166438557
 20
92.2248695199701
 30
0.0
 40
0.0
 41
0.0
  0
VERTEX
  5
   4A0
  8
0
  6
CONTINUOUS
 10
-491.532830003841
 20
92.1871231723222
 30
0.0
 40
0.0
 41
0.0
  0
VERTEX
  5
   4A1
  8
0
  6
CONTINUOUS
 10
-491.642004161473
 20
92.1470490123119
 30
0.0
 40
0.0
 41
0.0
  0
VERTEX
  5
   4A2
  8
0
  6
CONTINUOUS
 10
-491.746425901345
 20
92.1047435821009
 30
0.0
 40
0.0
 41
0.0
  0
VERTEX
  5
   4A3
  8
0
  6
CONTINUOUS
 10
-491.796775537779
 20
92.0827857865388
 30
0.0
 40
0.0
 41
0.0
  0
VERTEX
  5
   4A4
  8
0
  6
CONTINUOUS
 10
-491.845843662339
 20
92.060308799176
 30
0.0
 40
0.0
 41
0.0
  0
VERTEX
  5
   4A5
  8
0
  6
CONTINUOUS
 10
-491.893600718222
 20
92.0373261593092
 30
0.0
 40
0.0
 41
0.0
  0
VERTEX
  5
   4A6
  8
0
  6
CONTINUOUS
 10
-491.940017938362
 20
92.0138517108213
 30
0.0
 40
0.0
 41
0.0
  0
VERTEX
  5
   4A7
  8
0
  6
CONTINUOUS
 10
-491.985067362762
 20
91.9898995938423
 30
0.0
 40
0.0
 41
0.0
  0
VERTEX
  5
   4A8
  8
0
  6
CONTINUOUS
 10
-492.028721855333
 20
91.9654842362319
 30
0.0
 40
0.0
 41
0.0
  0
VERTEX
  5
   4A9
  8
0
  6
CONTINUOUS
 10
-492.070955120241
 20
91.9406203448884
 30
0.0
 40
0.0
 41
0.0
  0
VERTEX
  5
   4AA
  8
0
  6
CONTINUOUS
 10
-492.111741717747
 20
91.9153228968904
 30
0.0
 40
0.0
 41
0.0
  0
VERTEX
  5
   4AB
  8
0
  6
CONTINUOUS
 10
-492.151057079529
 20
91.8896071304746
 30
0.0
 40
0.0
 41
0.0
  0
VERTEX
  5
   4AC
  8
0
  6
CONTINUOUS
 10
-492.188877523484
 20
91.863488535857
 30
0.0
 40
0.0
 41
0.0
  0
VERTEX
  5
   4AD
  8
0
  6
CONTINUOUS
 10
-492.22518026799
 20
91.8369828459025
 30
0.0
 40
0.0
 41
0.0
  0
VERTEX
  5
   4AE
  8
0
  6
CONTINUOUS
 10
-492.259943445631
 20
91.8101060266476
 30
0.0
 40
0.0
 41
0.0
  0
VERTEX
  5
   4AF
  8
0
  6
CONTINUOUS
 10
-492.293146116369
 20
91.7828742676832
 30
0.0
 40
0.0
 41
0.0
  0
VERTEX
  5
   4B0
  8
0
  6
CONTINUOUS
 10
-492.324768280157
 20
91.7553039724026
 30
0.0
 40
0.0
 41
0.0
  0
VERTEX
  5
   4B1
  8
0
  6
CONTINUOUS
 10
-492.354790888986
 20
91.7274117481209
 30
0.0
 40
0.0
 41
0.0
  0
VERTEX
  5
   4B2
  8
0
  6
CONTINUOUS
 10
-492.383195858358
 20
91.6992143960708
 30
0.0
 40
0.0
 41
0.0
  0
VERTEX
  5
   4B3
  8
0
  6
CONTINUOUS
 10
-492.409966078183
 20
91.670728901283
 30
0.0
 40
0.0
 41
0.0
  0
VERTEX
  5
   4B4
  8
0
  6
CONTINUOUS
 10
-492.435085423081
 20
91.6419724223544
 30
0.0
 40
0.0
 41
0.0
  0
VERTEX
  5
   4B5
  8
0
  6
CONTINUOUS
 10
-492.458538762098
 20
91.6129622811127
 30
0.0
 40
0.0
 41
0.0
  0
VERTEX
  5
   4B6
  8
0
  6
CONTINUOUS
 10
-492.480311967819
 20
91.583715952182
 30
0.0
 40
0.0
 41
0.0
  0
VERTEX
  5
   4B7
  8
0
  6
CONTINUOUS
 10
-492.500391924879
 20
91.5542510524574
 30
0.0
 40
0.0
 41
0.0
  0
VERTEX
  5
   4B8
  8
0
  6
CONTINUOUS
 10
-492.518766537864
 20
91.5245853304928
 30
0.0
 40
0.0
 41
0.0
  0
VERTEX
  5
   4B9
  8
0
  6
CONTINUOUS
 10
-492.535424738593
 20
91.4947366558096
 30
0.0
 40
0.0
 41
0.0
  0
VERTEX
  5
   4BA
  8
0
  6
CONTINUOUS
 10
-492.550356492789
 20
91.4647230081336
 30
0.0
 40
0.0
 41
0.0
  0
VERTEX
  5
   4BB
  8
0
  6
CONTINUOUS
 10
-492.563552806122
 20
91.4345624665638
 30
0.0
 40
0.0
 41
0.0
  0
VERTEX
  5
   4BC
  8
0
  6
CONTINUOUS
 10
-492.575005729626
 20
91.4042731986825
 30
0.0
 40
0.0
 41
0.0
  0
VERTEX
  5
   4BD
  8
0
  6
CONTINUOUS
 10
-492.584708364487
 20
91.3738734496123
 30
0.0
 40
0.0
 41
0.0
  0
VERTEX
  5
   4BE
  8
0
  6
CONTINUOUS
 10
-492.592654866203
 20
91.3433815310251
 30
0.0
 40
0.0
 41
0.0
  0
VERTEX
  5
   4BF
  8
0
  6
CONTINUOUS
 10
-492.598840448097
 20
91.3128158101127
 30
0.0
 40
0.0
 41
0.0
  0
VERTEX
  5
   4C0
  8
0
  6
CONTINUOUS
 10
-492.603261384206
 20
91.2821946985223
 30
0.0
 40
0.0
 41
0.0
  0
VERTEX
  5
   4C1
  8
0
  6
CONTINUOUS
 10
-492.605915011523
 20
91.2515366412667
 30
0.0
 40
0.0
 41
0.0
  0
VERTEX
  5
   4C2
  8
0
  6
CONTINUOUS
 10
-492.606799731602
 20
91.220860105613
 30
0.0
 40
0.0
 41
0.0
  0
SEQEND
  5
   4C3
  8
0
  6
CONTINUOUS
 62
   218
  0
POLYLINE
  5
   4C4
  8
0
  6
CONTINUOUS
 62
   218
 66
     1
 10
0.0
 20
0.0
 30
0.0
 70
     1
  0
VERTEX
  5
   4C5
  8
0
  6
CONTINUOUS
 10
-480.856799731602
 20
91.2208601056383
 30
0.0
 40
0.0
 41
0.0
  0
VERTEX
  5
   4C6
  8
0
  6
CONTINUOUS
 10
-480.857684451682
 20
91.2515366412919
 30
0.0
 40
0.0
 41
0.0
  0
VERTEX
  5
   4C7
  8
0
  6
CONTINUOUS
 10
-480.860338079
 20
91.2821946985476
 30
0.0
 40
0.0
 41
0.0
  0
VERTEX
  5
   4C8
  8
0
  6
CONTINUOUS
 10
-480.864759015109
 20
91.3128158101379
 30
0.0
 40
0.0
 41
0.0
  0
VERTEX
  5
   4C9
  8
0
  6
CONTINUOUS
 10
-480.870944597003
 20
91.3433815310502
 30
0.0
 40
0.0
 41
0.0
  0
VERTEX
  5
   4CA
  8
0
  6
CONTINUOUS
 10
-480.878891098719
 20
91.3738734496373
 30
0.0
 40
0.0
 41
0.0
  0
VERTEX
  5
   4CB
  8
0
  6
CONTINUOUS
 10
-480.888593733581
 20
91.4042731987074
 30
0.0
 40
0.0
 41
0.0
  0
VERTEX
  5
   4CC
  8
0
  6
CONTINUOUS
 10
-480.900046657086
 20
91.4345624665885
 30
0.0
 40
0.0
 41
0.0
  0
VERTEX
  5
   4CD
  8
0
  6
CONTINUOUS
 10
-480.913242970419
 20
91.4647230081582
 30
0.0
 40
0.0
 41
0.0
  0
VERTEX
  5
   4CE
  8
0
  6
CONTINUOUS
 10
-480.928174724615
 20
91.4947366558341
 30
0.0
 40
0.0
 41
0.0
  0
VERTEX
  5
   4CF
  8
0
  6
CONTINUOUS
 10
-480.944832925344
 20
91.5245853305171
 30
0.0
 40
0.0
 41
0.0
  0
VERTEX
  5
   4D0
  8
0
  6
CONTINUOUS
 10
-480.963207538329
 20
91.5542510524815
 30
0.0
 40
0.0
 41
0.0
  0
VERTEX
  5
   4D1
  8
0
  6
CONTINUOUS
 10
-480.98328749539
 20
91.5837159522059
 30
0.0
 40
0.0
 41
0.0
  0
VERTEX
  5
   4D2
  8
0
  6
CONTINUOUS
 10
-481.005060701112
 20
91.6129622811364
 30
0.0
 40
0.0
 41
0.0
  0
VERTEX
  5
   4D3
  8
0
  6
CONTINUOUS
 10
-481.028514040129
 20
91.6419724223779
 30
0.0
 40
0.0
 41
0.0
  0
VERTEX
  5
   4D4
  8
0
  6
CONTINUOUS
 10
-481.053633385027
 20
91.6707289013063
 30
0.0
 40
0.0
 41
0.0
  0
VERTEX
  5
   4D5
  8
0
  6
CONTINUOUS
 10
-481.080403604852
 20
91.6992143960938
 30
0.0
 40
0.0
 41
0.0
  0
VERTEX
  5
   4D6
  8
0
  6
CONTINUOUS
 10
-481.108808574225
 20
91.7274117481436
 30
0.0
 40
0.0
 41
0.0
  0
VERTEX
  5
   4D7
  8
0
  6
CONTINUOUS
 10
-481.138831183054
 20
91.7553039724251
 30
0.0
 40
0.0
 41
0.0
  0
VERTEX
  5
   4D8
  8
0
  6
CONTINUOUS
 10
-481.170453346843
 20
91.7828742677054
 30
0.0
 40
0.0
 41
0.0
  0
VERTEX
  5
   4D9
  8
0
  6
CONTINUOUS
 10
-481.203656017581
 20
91.8101060266695
 30
0.0
 40
0.0
 41
0.0
  0
VERTEX
  5
   4DA
  8
0
  6
CONTINUOUS
 10
-481.238419195223
 20
91.8369828459241
 30
0.0
 40
0.0
 41
0.0
  0
VERTEX
  5
   4DB
  8
0
  6
CONTINUOUS
 10
-481.274721939729
 20
91.8634885358783
 30
0.0
 40
0.0
 41
0.0
  0
VERTEX
  5
   4DC
  8
0
  6
CONTINUOUS
 10
-481.312542383684
 20
91.8896071304954
 30
0.0
 40
0.0
 41
0.0
  0
VERTEX
  5
   4DD
  8
0
  6
CONTINUOUS
 10
-481.351857745466
 20
91.9153228969109
 30
0.0
 40
0.0
 41
0.0
  0
VERTEX
  5
   4DE
  8
0
  6
CONTINUOUS
 10
-481.392644342972
 20
91.9406203449086
 30
0.0
 40
0.0
 41
0.0
  0
VERTEX
  5
   4DF
  8
0
  6
CONTINUOUS
 10
-481.434877607881
 20
91.9654842362517
 30
0.0
 40
0.0
 41
0.0
  0
VERTEX
  5
   4E0
  8
0
  6
CONTINUOUS
 10
-481.478532100452
 20
91.9898995938617
 30
0.0
 40
0.0
 41
0.0
  0
VERTEX
  5
   4E1
  8
0
  6
CONTINUOUS
 10
-481.523581524852
 20
92.0138517108403
 30
0.0
 40
0.0
 41
0.0
  0
VERTEX
  5
   4E2
  8
0
  6
CONTINUOUS
 10
-481.569998744993
 20
92.0373261593278
 30
0.0
 40
0.0
 41
0.0
  0
VERTEX
  5
   4E3
  8
0
  6
CONTINUOUS
 10
-481.617755800875
 20
92.0603087991942
 30
0.0
 40
0.0
 41
0.0
  0
VERTEX
  5
   4E4
  8
0
  6
CONTINUOUS
 10
-481.666823925436
 20
92.0827857865566
 30
0.0
 40
0.0
 41
0.0
  0
VERTEX
  5
   4E5
  8
0
  6
CONTINUOUS
 10
-481.768774381441
 20
92.1261689593242
 30
0.0
 40
0.0
 41
0.0
  0
VERTEX
  5
   4E6
  8
0
  6
CONTINUOUS
 10
-481.875604505429
 20
92.1673711637676
 30
0.0
 40
0.0
 41
0.0
  0
VERTEX
  5
   4E7
  8
0
  6
CONTINUOUS
 10
-481.987056934275
 20
92.2062931401673
 30
0.0
 40
0.0
 41
0.0
  0
VERTEX
  5
   4E8
  8
0
  6
CONTINUOUS
 10
-482.102863169316
 20
92.2428411220731
 30
0.0
 40
0.0
 41
0.0
  0
VERTEX
  5
   4E9
  8
0
  6
CONTINUOUS
 10
-482.222744223188
 20
92.2769270621953
 30
0.0
 40
0.0
 41
0.0
  0
VERTEX
  5
   4EA
  8
0
  6
CONTINUOUS
 10
-482.346411291931
 20
92.3084688445186
 30
0.0
 40
0.0
 41
0.0
  0
VERTEX
  5
   4EB
  8
0
  6
CONTINUOUS
 10
-482.473566450746
 20
92.3373904821266
 30
0.0
 40
0.0
 41
0.0
  0
VERTEX
  5
   4EC
  8
0
  6
CONTINUOUS
 10
-482.538356644655
 20
92.3508467220363
 30
0.0
 40
0.0
 41
0.0
  0
VERTEX
  5
   4ED
  8
0
  6
CONTINUOUS
 10
-482.670167149034
 20
92.3757095212706
 30
0.0
 40
0.0
 41
0.0
  0
VERTEX
  5
   4EE
  8
0
  6
CONTINUOUS
 10
-482.804685787267
 20
92.3977901871097
 30
0.0
 40
0.0
 41
0.0
  0
VERTEX
  5
   4EF
  8
0
  6
CONTINUOUS
 10
-482.941588492172
 20
92.4170355252957
 30
0.0
 40
0.0
 41
0.0
  0
VERTEX
  5
   4F0
  8
0
  6
CONTINUOUS
 10
-483.080545453141
 20
92.4333991721231
 30
0.0
 40
0.0
 41
0.0
  0
VERTEX
  5
   4F1
  8
0
  6
CONTINUOUS
 10
-483.221221910684
 20
92.4468417061334
 30
0.0
 40
0.0
 41
0.0
  0
VERTEX
  5
   4F2
  8
0
  6
CONTINUOUS
 10
-483.363278962894
 20
92.4573307430848
 30
0.0
 40
0.0
 41
0.0
  0
VERTEX
  5
   4F3
  8
0
  6
CONTINUOUS
 10
-483.506374381889
 20
92.4648410139686
 30
0.0
 40
0.0
 41
0.0
  0
VERTEX
  5
   4F4
  8
0
  6
CONTINUOUS
 10
-483.65016343827
 20
92.4693544258842
 30
0.0
 40
0.0
 41
0.0
  0
VERTEX
  5
   4F5
  8
0
  6
CONTINUOUS
 10
-483.794299731607
 20
92.4708601056272
 30
0.0
 40
0.0
 41
0.0
  0
VERTEX
  5
   4F6
  8
0
  6
CONTINUOUS
 10
-483.938436024944
 20
92.4693544258832
 30
0.0
 40
0.0
 41
0.0
  0
VERTEX
  5
   4F7
  8
0
  6
CONTINUOUS
 10
-484.082225081325
 20
92.4648410139664
 30
0.0
 40
0.0
 41
0.0
  0
VERTEX
  5
   4F8
  8
0
  6
CONTINUOUS
 10
-484.22532050032
 20
92.4573307430816
 30
0.0
 40
0.0
 41
0.0
  0
VERTEX
  5
   4F9
  8
0
  6
CONTINUOUS
 10
-484.367377552529
 20
92.4468417061291
 30
0.0
 40
0.0
 41
0.0
  0
VERTEX
  5
   4FA
  8
0
  6
CONTINUOUS
 10
-484.508054010073
 20
92.4333991721177
 30
0.0
 40
0.0
 41
0.0
  0
VERTEX
  5
   4FB
  8
0
  6
CONTINUOUS
 10
-484.647010971042
 20
92.4170355252893
 30
0.0
 40
0.0
 41
0.0
  0
VERTEX
  5
   4FC
  8
0
  6
CONTINUOUS
 10
-484.783913675946
 20
92.3977901871023
 30
0.0
 40
0.0
 41
0.0
  0
VERTEX
  5
   4FD
  8
0
  6
CONTINUOUS
 10
-484.918432314179
 20
92.3757095212621
 30
0.0
 40
0.0
 41
0.0
  0
VERTEX
  5
   4FE
  8
0
  6
CONTINUOUS
 10
-485.050242818558
 20
92.3508467220268
 30
0.0
 40
0.0
 41
0.0
  0
VERTEX
  5
   4FF
  8
0
  6
CONTINUOUS
 10
-485.179027646033
 20
92.3232616860574
 30
0.0
 40
0.0
 41
0.0
  0
VERTEX
  5
   500
  8
0
  6
CONTINUOUS
 10
-485.304476542674
 20
92.2930208681219
 30
0.0
 40
0.0
 41
0.0
  0
VERTEX
  5
   501
  8
0
  6
CONTINUOUS
 10
-485.426287291101
 20
92.2601971209993
 30
0.0
 40
0.0
 41
0.0
  0
VERTEX
  5
   502
  8
0
  6
CONTINUOUS
 10
-485.544166438553
 20
92.2248695199714
 30
0.0
 40
0.0
 41
0.0
  0
VERTEX
  5
   503
  8
0
  6
CONTINUOUS
 10
-485.657830003837
 20
92.1871231723236
 30
0.0
 40
0.0
 41
0.0
  0
VERTEX
  5
   504
  8
0
  6
CONTINUOUS
 10
-485.767004161469
 20
92.1470490123135
 30
0.0
 40
0.0
 41
0.0
  0
VERTEX
  5
   505
  8
0
  6
CONTINUOUS
 10
-485.871425901341
 20
92.1047435821026
 30
0.0
 40
0.0
 41
0.0
  0
VERTEX
  5
   506
  8
0
  6
CONTINUOUS
 10
-485.921775537775
 20
92.0827857865405
 30
0.0
 40
0.0
 41
0.0
  0
VERTEX
  5
   507
  8
0
  6
CONTINUOUS
 10
-485.970843662336
 20
92.0603087991778
 30
0.0
 40
0.0
 41
0.0
  0
VERTEX
  5
   508
  8
0
  6
CONTINUOUS
 10
-486.018600718218
 20
92.0373261593111
 30
0.0
 40
0.0
 41
0.0
  0
VERTEX
  5
   509
  8
0
  6
CONTINUOUS
 10
-486.065017938358
 20
92.0138517108232
 30
0.0
 40
0.0
 41
0.0
  0
VERTEX
  5
   50A
  8
0
  6
CONTINUOUS
 10
-486.110067362758
 20
91.9898995938443
 30
0.0
 40
0.0
 41
0.0
  0
VERTEX
  5
   50B
  8
0
  6
CONTINUOUS
 10
-486.153721855329
 20
91.9654842362339
 30
0.0
 40
0.0
 41
0.0
  0
VERTEX
  5
   50C
  8
0
  6
CONTINUOUS
 10
-486.195955120238
 20
91.9406203448905
 30
0.0
 40
0.0
 41
0.0
  0
VERTEX
  5
   50D
  8
0
  6
CONTINUOUS
 10
-486.236741717744
 20
91.9153228968925
 30
0.0
 40
0.0
 41
0.0
  0
VERTEX
  5
   50E
  8
0
  6
CONTINUOUS
 10
-486.276057079526
 20
91.8896071304768
 30
0.0
 40
0.0
 41
0.0
  0
VERTEX
  5
   50F
  8
0
  6
CONTINUOUS
 10
-486.313877523481
 20
91.8634885358593
 30
0.0
 40
0.0
 41
0.0
  0
VERTEX
  5
   510
  8
0
  6
CONTINUOUS
 10
-486.350180267986
 20
91.8369828459048
 30
0.0
 40
0.0
 41
0.0
  0
VERTEX
  5
   511
  8
0
  6
CONTINUOUS
 10
-486.384943445628
 20
91.81010602665
 30
0.0
 40
0.0
 41
0.0
  0
VERTEX
  5
   512
  8
0
  6
CONTINUOUS
 10
-486.418146116366
 20
91.7828742676856
 30
0.0
 40
0.0
 41
0.0
  0
VERTEX
  5
   513
  8
0
  6
CONTINUOUS
 10
-486.449768280154
 20
91.7553039724051
 30
0.0
 40
0.0
 41
0.0
  0
VERTEX
  5
   514
  8
0
  6
CONTINUOUS
 10
-486.479790888983
 20
91.7274117481233
 30
0.0
 40
0.0
 41
0.0
  0
VERTEX
  5
   515
  8
0
  6
CONTINUOUS
 10
-486.508195858356
 20
91.6992143960734
 30
0.0
 40
0.0
 41
0.0
  0
VERTEX
  5
   516
  8
0
  6
CONTINUOUS
 10
-486.534966078181
 20
91.6707289012856
 30
0.0
 40
0.0
 41
0.0
  0
VERTEX
  5
   517
  8
0
  6
CONTINUOUS
 10
-486.560085423079
 20
91.6419724223571
 30
0.0
 40
0.0
 41
0.0
  0
VERTEX
  5
   518
  8
0
  6
CONTINUOUS
 10
-486.583538762096
 20
91.6129622811153
 30
0.0
 40
0.0
 41
0.0
  0
VERTEX
  5
   519
  8
0
  6
CONTINUOUS
 10
-486.605311967817
 20
91.5837159521847
 30
0.0
 40
0.0
 41
0.0
  0
VERTEX
  5
   51A
  8
0
  6
CONTINUOUS
 10
-486.625391924878
 20
91.5542510524602
 30
0.0
 40
0.0
 41
0.0
  0
VERTEX
  5
   51B
  8
0
  6
CONTINUOUS
 10
-486.643766537862
 20
91.5245853304956
 30
0.0
 40
0.0
 41
0.0
  0
VERTEX
  5
   51C
  8
0
  6
CONTINUOUS
 10
-486.660424738592
 20
91.4947366558125
 30
0.0
 40
0.0
 41
0.0
  0
VERTEX
  5
   51D
  8
0
  6
CONTINUOUS
 10
-486.675356492788
 20
91.4647230081365
 30
0.0
 40
0.0
 41
0.0
  0
VERTEX
  5
   51E
  8
0
  6
CONTINUOUS
 10
-486.688552806121
 20
91.4345624665667
 30
0.0
 40
0.0
 41
0.0
  0
VERTEX
  5
   51F
  8
0
  6
CONTINUOUS
 10
-486.700005729625
 20
91.4042731986855
 30
0.0
 40
0.0
 41
0.0
  0
VERTEX
  5
   520
  8
0
  6
CONTINUOUS
 10
-486.709708364487
 20
91.3738734496152
 30
0.0
 40
0.0
 41
0.0
  0
VERTEX
  5
   521
  8
0
  6
CONTINUOUS
 10
-486.717654866202
 20
91.3433815310282
 30
0.0
 40
0.0
 41
0.0
  0
VERTEX
  5
   522
  8
0
  6
CONTINUOUS
 10
-486.723840448096
 20
91.3128158101158
 30
0.0
 40
0.0
 41
0.0
  0
VERTEX
  5
   523
  8
0
  6
CONTINUOUS
 10
-486.728261384205
 20
91.2821946985254
 30
0.0
 40
0.0
 41
0.0
  0
VERTEX
  5
   524
  8
0
  6
CONTINUOUS
 10
-486.730915011522
 20
91.2515366412698
 30
0.0
 40
0.0
 41
0.0
  0
VERTEX
  5
   525
  8
0
  6
CONTINUOUS
 10
-486.731799731602
 20
91.2208601056162
 30
0.0
 40
0.0
 41
0.0
  0
VERTEX
  5
   526
  8
0
  6
CONTINUOUS
 10
-486.730915011522
 20
91.1901835699625
 30
0.0
 40
0.0
 41
0.0
  0
VERTEX
  5
   527
  8
0
  6
CONTINUOUS
 10
-486.728261384205
 20
91.1595255127069
 30
0.0
 40
0.0
 41
0.0
  0
VERTEX
  5
   528
  8
0
  6
CONTINUOUS
 10
-486.723840448096
 20
91.1289044011166
 30
0.0
 40
0.0
 41
0.0
  0
VERTEX
  5
   529
  8
0
  6
CONTINUOUS
 10
-486.717654866201
 20
91.0983386802043
 30
0.0
 40
0.0
 41
0.0
  0
VERTEX
  5
   52A
  8
0
  6
CONTINUOUS
 10
-486.709708364485
 20
91.0678467616172
 30
0.0
 40
0.0
 41
0.0
  0
VERTEX
  5
   52B
  8
0
  6
CONTINUOUS
 10
-486.700005729623
 20
91.0374470125471
 30
0.0
 40
0.0
 41
0.0
  0
VERTEX
  5
   52C
  8
0
  6
CONTINUOUS
 10
-486.688552806119
 20
91.0071577446659
 30
0.0
 40
0.0
 41
0.0
  0
VERTEX
  5
   52D
  8
0
  6
CONTINUOUS
 10
-486.675356492786
 20
90.9769972030962
 30
0.0
 40
0.0
 41
0.0
  0
VERTEX
  5
   52E
  8
0
  6
CONTINUOUS
 10
-486.660424738589
 20
90.9469835554203
 30
0.0
 40
0.0
 41
0.0
  0
VERTEX
  5
   52F
  8
0
  6
CONTINUOUS
 10
-486.64376653786
 20
90.9171348807374
 30
0.0
 40
0.0
 41
0.0
  0
VERTEX
  5
   530
  8
0
  6
CONTINUOUS
 10
-486.625391924875
 20
90.8874691587729
 30
0.0
 40
0.0
 41
0.0
  0
VERTEX
  5
   531
  8
0
  6
CONTINUOUS
 10
-486.605311967814
 20
90.8580042590486
 30
0.0
 40
0.0
 41
0.0
  0
VERTEX
  5
   532
  8
0
  6
CONTINUOUS
 10
-486.583538762093
 20
90.8287579301181
 30
0.0
 40
0.0
 41
0.0
  0
VERTEX
  5
   533
  8
0
  6
CONTINUOUS
 10
-486.560085423076
 20
90.7997477888765
 30
0.0
 40
0.0
 41
0.0
  0
VERTEX
  5
   534
  8
0
  6
CONTINUOUS
 10
-486.534966078178
 20
90.7709913099482
 30
0.0
 40
0.0
 41
0.0
  0
VERTEX
  5
   535
  8
0
  6
CONTINUOUS
 10
-486.508195858352
 20
90.7425058151606
 30
0.0
 40
0.0
 41
0.0
  0
VERTEX
  5
   536
  8
0
  6
CONTINUOUS
 10
-486.479790888979
 20
90.7143084631109
 30
0.0
 40
0.0
 41
0.0
  0
VERTEX
  5
   537
  8
0
  6
CONTINUOUS
 10
-486.44976828015
 20
90.6864162388294
 30
0.0
 40
0.0
 41
0.0
  0
VERTEX
  5
   538
  8
0
  6
CONTINUOUS
 10
-486.418146116362
 20
90.6588459435491
 30
0.0
 40
0.0
 41
0.0
  0
VERTEX
  5
   539
  8
0
  6
CONTINUOUS
 10
-486.384943445623
 20
90.631614184585
 30
0.0
 40
0.0
 41
0.0
  0
VERTEX
  5
   53A
  8
0
  6
CONTINUOUS
 10
-486.350180267982
 20
90.6047373653304
 30
0.0
 40
0.0
 41
0.0
  0
VERTEX
  5
   53B
  8
0
  6
CONTINUOUS
 10
-486.313877523476
 20
90.5782316753762
 30
0.0
 40
0.0
 41
0.0
  0
VERTEX
  5
   53C
  8
0
  6
CONTINUOUS
 10
-486.276057079521
 20
90.552113080759
 30
0.0
 40
0.0
 41
0.0
  0
VERTEX
  5
   53D
  8
0
  6
CONTINUOUS
 10
-486.236741717738
 20
90.5263973143435
 30
0.0
 40
0.0
 41
0.0
  0
VERTEX
  5
   53E
  8
0
  6
CONTINUOUS
 10
-486.195955120232
 20
90.5010998663459
 30
0.0
 40
0.0
 41
0.0
  0
VERTEX
  5
   53F
  8
0
  6
CONTINUOUS
 10
-486.153721855324
 20
90.4762359750028
 30
0.0
 40
0.0
 41
0.0
  0
VERTEX
  5
   540
  8
0
  6
CONTINUOUS
 10
-486.110067362753
 20
90.4518206173927
 30
0.0
 40
0.0
 41
0.0
  0
VERTEX
  5
   541
  8
0
  6
CONTINUOUS
 10
-486.065017938352
 20
90.4278685004141
 30
0.0
 40
0.0
 41
0.0
  0
VERTEX
  5
   542
  8
0
  6
CONTINUOUS
 10
-486.018600718212
 20
90.4043940519266
 30
0.0
 40
0.0
 41
0.0
  0
VERTEX
  5
   543
  8
0
  6
CONTINUOUS
 10
-485.970843662329
 20
90.3814114120602
 30
0.0
 40
0.0
 41
0.0
  0
VERTEX
  5
   544
  8
0
  6
CONTINUOUS
 10
-485.921775537769
 20
90.3589344246979
 30
0.0
 40
0.0
 41
0.0
  0
VERTEX
  5
   545
  8
0
  6
CONTINUOUS
 10
-485.819825081764
 20
90.3155512519303
 30
0.0
 40
0.0
 41
0.0
  0
VERTEX
  5
   546
  8
0
  6
CONTINUOUS
 10
-485.712994957775
 20
90.2743490474869
 30
0.0
 40
0.0
 41
0.0
  0
VERTEX
  5
   547
  8
0
  6
CONTINUOUS
 10
-485.601542528929
 20
90.2354270710872
 30
0.0
 40
0.0
 41
0.0
  0
VERTEX
  5
   548
  8
0
  6
CONTINUOUS
 10
-485.485736293888
 20
90.1988790891814
 30
0.0
 40
0.0
 41
0.0
  0
VERTEX
  5
   549
  8
0
  6
CONTINUOUS
 10
-485.365855240017
 20
90.1647931490592
 30
0.0
 40
0.0
 41
0.0
  0
VERTEX
  5
   54A
  8
0
  6
CONTINUOUS
 10
-485.242188171273
 20
90.1332513667359
 30
0.0
 40
0.0
 41
0.0
  0
VERTEX
  5
   54B
  8
0
  6
CONTINUOUS
 10
-485.115033012459
 20
90.1043297291279
 30
0.0
 40
0.0
 41
0.0
  0
VERTEX
  5
   54C
  8
0
  6
CONTINUOUS
 10
-485.050242818549
 20
90.0908734892182
 30
0.0
 40
0.0
 41
0.0
  0
VERTEX
  5
   54D
  8
0
  6
CONTINUOUS
 10
-484.91843231417
 20
90.0660106899839
 30
0.0
 40
0.0
 41
0.0
  0
VERTEX
  5
   54E
  8
0
  6
CONTINUOUS
 10
-484.783913675937
 20
90.0439300241447
 30
0.0
 40
0.0
 41
0.0
  0
VERTEX
  5
   54F
  8
0
  6
CONTINUOUS
 10
-484.647010971033
 20
90.0246846859588
 30
0.0
 40
0.0
 41
0.0
  0
VERTEX
  5
   550
  8
0
  6
CONTINUOUS
 10
-484.508054010064
 20
90.0083210391314
 30
0.0
 40
0.0
 41
0.0
  0
VERTEX
  5
   551
  8
0
  6
CONTINUOUS
 10
-484.36737755252
 20
89.994878505121
 30
0.0
 40
0.0
 41
0.0
  0
VERTEX
  5
   552
  8
0
  6
CONTINUOUS
 10
-484.22532050031
 20
89.9843894681696
 30
0.0
 40
0.0
 41
0.0
  0
VERTEX
  5
   553
  8
0
  6
CONTINUOUS
 10
-484.082225081316
 20
89.9768791972859
 30
0.0
 40
0.0
 41
0.0
  0
VERTEX
  5
   554
  8
0
  6
CONTINUOUS
 10
-483.938436024934
 20
89.9723657853702
 30
0.0
 40
0.0
 41
0.0
  0
VERTEX
  5
   555
  8
0
  6
CONTINUOUS
 10
-483.794299731598
 20
89.9708601056272
 30
0.0
 40
0.0
 41
0.0
  0
VERTEX
  5
   556
  8
0
  6
CONTINUOUS
 10
-483.650163438261
 20
89.9723657853713
 30
0.0
 40
0.0
 41
0.0
  0
VERTEX
  5
   557
  8
0
  6
CONTINUOUS
 10
-483.506374381879
 20
89.9768791972881
 30
0.0
 40
0.0
 41
0.0
  0
VERTEX
  5
   558
  8
0
  6
CONTINUOUS
 10
-483.363278962885
 20
89.9843894681729
 30
0.0
 40
0.0
 41
0.0
  0
VERTEX
  5
   559
  8
0
  6
CONTINUOUS
 10
-483.221221910675
 20
89.9948785051254
 30
0.0
 40
0.0
 41
0.0
  0
VERTEX
  5
   55A
  8
0
  6
CONTINUOUS
 10
-483.080545453132
 20
90.0083210391367
 30
0.0
 40
0.0
 41
0.0
  0
VERTEX
  5
   55B
  8
0
  6
CONTINUOUS
 10
-482.941588492163
 20
90.0246846859652
 30
0.0
 40
0.0
 41
0.0
  0
VERTEX
  5
   55C
  8
0
  6
CONTINUOUS
 10
-482.804685787258
 20
90.0439300241522
 30
0.0
 40
0.0
 41
0.0
  0
VERTEX
  5
   55D
  8
0
  6
CONTINUOUS
 10
-482.670167149026
 20
90.0660106899924
 30
0.0
 40
0.0
 41
0.0
  0
VERTEX
  5
   55E
  8
0
  6
CONTINUOUS
 10
-482.538356644647
 20
90.0908734892277
 30
0.0
 40
0.0
 41
0.0
  0
VERTEX
  5
   55F
  8
0
  6
CONTINUOUS
 10
-482.409571817172
 20
90.118458525197
 30
0.0
 40
0.0
 41
0.0
  0
VERTEX
  5
   560
  8
0
  6
CONTINUOUS
 10
-482.284122920531
 20
90.1486993431326
 30
0.0
 40
0.0
 41
0.0
  0
VERTEX
  5
   561
  8
0
  6
CONTINUOUS
 10
-482.162312172103
 20
90.1815230902552
 30
0.0
 40
0.0
 41
0.0
  0
VERTEX
  5
   562
  8
0
  6
CONTINUOUS
 10
-482.044433024652
 20
90.216850691283
 30
0.0
 40
0.0
 41
0.0
  0
VERTEX
  5
   563
  8
0
  6
CONTINUOUS
 10
-481.930769459368
 20
90.2545970389308
 30
0.0
 40
0.0
 41
0.0
  0
VERTEX
  5
   564
  8
0
  6
CONTINUOUS
 10
-481.821595301736
 20
90.294671198941
 30
0.0
 40
0.0
 41
0.0
  0
VERTEX
  5
   565
  8
0
  6
CONTINUOUS
 10
-481.717173561863
 20
90.3369766291519
 30
0.0
 40
0.0
 41
0.0
  0
VERTEX
  5
   566
  8
0
  6
CONTINUOUS
 10
-481.666823925429
 20
90.3589344247139
 30
0.0
 40
0.0
 41
0.0
  0
VERTEX
  5
   567
  8
0
  6
CONTINUOUS
 10
-481.617755800869
 20
90.3814114120767
 30
0.0
 40
0.0
 41
0.0
  0
VERTEX
  5
   568
  8
0
  6
CONTINUOUS
 10
-481.569998744986
 20
90.4043940519434
 30
0.0
 40
0.0
 41
0.0
  0
VERTEX
  5
   569
  8
0
  6
CONTINUOUS
 10
-481.523581524846
 20
90.4278685004312
 30
0.0
 40
0.0
 41
0.0
  0
VERTEX
  5
   56A
  8
0
  6
CONTINUOUS
 10
-481.478532100446
 20
90.4518206174102
 30
0.0
 40
0.0
 41
0.0
  0
VERTEX
  5
   56B
  8
0
  6
CONTINUOUS
 10
-481.434877607875
 20
90.4762359750206
 30
0.0
 40
0.0
 41
0.0
  0
VERTEX
  5
   56C
  8
0
  6
CONTINUOUS
 10
-481.392644342967
 20
90.501099866364
 30
0.0
 40
0.0
 41
0.0
  0
VERTEX
  5
   56D
  8
0
  6
CONTINUOUS
 10
-481.351857745461
 20
90.5263973143619
 30
0.0
 40
0.0
 41
0.0
  0
VERTEX
  5
   56E
  8
0
  6
CONTINUOUS
 10
-481.312542383679
 20
90.5521130807777
 30
0.0
 40
0.0
 41
0.0
  0
VERTEX
  5
   56F
  8
0
  6
CONTINUOUS
 10
-481.274721939724
 20
90.5782316753952
 30
0.0
 40
0.0
 41
0.0
  0
VERTEX
  5
   570
  8
0
  6
CONTINUOUS
 10
-481.238419195218
 20
90.6047373653496
 30
0.0
 40
0.0
 41
0.0
  0
VERTEX
  5
   571
  8
0
  6
CONTINUOUS
 10
-481.203656017577
 20
90.6316141846045
 30
0.0
 40
0.0
 41
0.0
  0
VERTEX
  5
   572
  8
0
  6
CONTINUOUS
 10
-481.170453346838
 20
90.6588459435689
 30
0.0
 40
0.0
 41
0.0
  0
VERTEX
  5
   573
  8
0
  6
CONTINUOUS
 10
-481.13883118305
 20
90.6864162388494
 30
0.0
 40
0.0
 41
0.0
  0
VERTEX
  5
   574
  8
0
  6
CONTINUOUS
 10
-481.108808574221
 20
90.7143084631311
 30
0.0
 40
0.0
 41
0.0
  0
VERTEX
  5
   575
  8
0
  6
CONTINUOUS
 10
-481.080403604849
 20
90.7425058151811
 30
0.0
 40
0.0
 41
0.0
  0
VERTEX
  5
   576
  8
0
  6
CONTINUOUS
 10
-481.053633385024
 20
90.7709913099688
 30
0.0
 40
0.0
 41
0.0
  0
VERTEX
  5
   577
  8
0
  6
CONTINUOUS
 10
-481.028514040126
 20
90.7997477888974
 30
0.0
 40
0.0
 41
0.0
  0
VERTEX
  5
   578
  8
0
  6
CONTINUOUS
 10
-481.005060701109
 20
90.8287579301391
 30
0.0
 40
0.0
 41
0.0
  0
VERTEX
  5
   579
  8
0
  6
CONTINUOUS
 10
-480.983287495388
 20
90.8580042590697
 30
0.0
 40
0.0
 41
0.0
  0
VERTEX
  5
   57A
  8
0
  6
CONTINUOUS
 10
-480.963207538327
 20
90.8874691587943
 30
0.0
 40
0.0
 41
0.0
  0
VERTEX
  5
   57B
  8
0
  6
CONTINUOUS
 10
-480.944832925342
 20
90.9171348807589
 30
0.0
 40
0.0
 41
0.0
  0
VERTEX
  5
   57C
  8
0
  6
CONTINUOUS
 10
-480.928174724613
 20
90.9469835554419
 30
0.0
 40
0.0
 41
0.0
  0
VERTEX
  5
   57D
  8
0
  6
CONTINUOUS
 10
-480.913242970417
 20
90.9769972031179
 30
0.0
 40
0.0
 41
0.0
  0
VERTEX
  5
   57E
  8
0
  6
CONTINUOUS
 10
-480.900046657084
 20
91.0071577446878
 30
0.0
 40
0.0
 41
0.0
  0
VERTEX
  5
   57F
  8
0
  6
CONTINUOUS
 10
-480.88859373358
 20
91.037447012569
 30
0.0
 40
0.0
 41
0.0
  0
VERTEX
  5
   580
  8
0
  6
CONTINUOUS
 10
-480.878891098718
 20
91.0678467616392
 30
0.0
 40
0.0
 41
0.0
  0
VERTEX
  5
   581
  8
0
  6
CONTINUOUS
 10
-480.870944597002
 20
91.0983386802263
 30
0.0
 40
0.0
 41
0.0
  0
VERTEX
  5
   582
  8
0
  6
CONTINUOUS
 10
-480.864759015108
 20
91.1289044011387
 30
0.0
 40
0.0
 41
0.0
  0
VERTEX
  5
   583
  8
0
  6
CONTINUOUS
 10
-480.860338078999
 20
91.159525512729
 30
0.0
 40
0.0
 41
0.0
  0
VERTEX
  5
   584
  8
0
  6
CONTINUOUS
 10
-480.857684451682
 20
91.1901835699847
 30
0.0
 40
0.0
 41
0.0
  0
VERTEX
  5
   585
  8
0
  6
CONTINUOUS
 10
-480.856799731602
 20
91.2208601056383
 30
0.0
 40
0.0
 41
0.0
  0
SEQEND
  5
   586
  8
0
  6
CONTINUOUS
 62
   218
  0
LINE
  5
   587
  8
0
  6
CONTINUOUS
 62
   218
 10
-492.606799731602
 20
76.5321682194048
 30
0.0
 11
-492.606799731602
 21
91.2208601056272
 31
0.0
  0
LINE
  5
   588
  8
0
  6
CONTINUOUS
 62
   218
 10
-480.856799731602
 20
76.5321682194048
 30
0.0
 11
-480.856799731602
 21
91.2208601056272
 31
0.0
  0
LINE
  5
   589
  8
0
  6
CONTINUOUS
 62
    56
 10
-490.335099777778
 20
-32.4687827730351
 30
0.0
 11
-493.335099777778
 21
-32.4687827730351
 31
0.0
  0
LINE
  5
   58A
  8
0
  6
CONTINUOUS
 62
     7
 10
-470.333499731602
 20
-49.4613835239583
 30
0.0
 11
-482.081000480254
 21
-49.4613835239583
 31
0.0
  0
LINE
  5
   58B
  8
0
  6
CONTINUOUS
 62
     7
 10
-482.081000480254
 20
-49.4613835239583
 30
0.0
 11
-482.081000480254
 21
-41.5678829410845
 31
0.0
  0
LINE
  5
   58C
  8
0
  6
CONTINUOUS
 62
     7
 10
-482.081000480254
 20
-32.4687827730351
 30
0.0
 11
-494.831799731602
 21
-32.4687827730351
 31
0.0
  0
LINE
  5
   58D
  8
0
  6
CONTINUOUS
 62
     7
 10
-494.831799731602
 20
-60.7135832393342
 30
0.0
 11
-494.831799731602
 21
-40.4678829410845
 31
0.0
  0
LINE
  5
   58E
  8
0
  6
CONTINUOUS
 62
     7
 10
-470.333499731602
 20
-60.7135824823552
 30
0.0
 11
-494.831799731602
 21
-60.7135824823552
 31
0.0
  0
LINE
  5
   58F
  8
0
  6
CONTINUOUS
 62
     7
 10
-480.455400213798
 20
-60.7135824823552
 30
0.0
 11
-480.455400213798
 21
-49.4613835239583
 31
0.0
  0
LINE
  5
   590
  8
0
  6
CONTINUOUS
 62
     7
 10
-472.708400032123
 20
-60.7135824823552
 30
0.0
 11
-472.708400032123
 21
-58.0954431351889
 31
0.0
  0
LINE
  5
   591
  8
0
  6
CONTINUOUS
 62
     7
 10
-491.453599792917
 20
-60.7135824823552
 30
0.0
 11
-491.453599792917
 21
-32.4687827730351
 31
0.0
  0
LINE
  5
   592
  8
0
  6
CONTINUOUS
 62
     7
 10
-483.706599989732
 20
-60.7135824823552
 30
0.0
 11
-483.706599989732
 21
-41.3061687479355
 31
0.0
  0
LINE
  5
   593
  8
0
  6
DOT
 62
     7
 10
-483.848798135276
 20
-34.1343646172593
 30
0.0
 11
-483.838586488967
 21
-34.1311190699629
 31
0.0
  0
LINE
  5
   594
  8
0
  6
DOT
 62
     7
 10
-491.453599698295
 20
-35.4723327094489
 30
0.0
 11
-494.831799731602
 21
-35.4723327094489
 31
0.0
  0
LINE
  5
   595
  8
0
  6
CONTINUOUS
 62
     7
 10
-470.333499731602
 20
-60.7135824823552
 30
0.0
 11
-470.333499731602
 21
-58.667890570479
 31
0.0
  0
LINE
  5
   596
  8
0
  6
CONTINUOUS
 62
   218
 10
-492.580099891325
 20
-75.3136485858821
 30
0.0
 11
-492.580099891325
 21
-60.7135824823552
 31
0.0
  0
LINE
  5
   597
  8
0
  6
CONTINUOUS
 62
   218
 10
-482.580099891325
 20
-75.3136485858821
 30
0.0
 11
-482.580099891325
 21
-60.7135824823552
 31
0.0
  0
LINE
  5
   598
  8
0
  6
CONTINUOUS
 62
   218
 10
-481.58190012296
 20
-75.3136485858821
 30
0.0
 11
-481.58190012296
 21
-60.7135824823552
 31
0.0
  0
LINE
  5
   599
  8
0
  6
CONTINUOUS
 62
   218
 10
-471.58190012296
 20
-75.3136485858821
 30
0.0
 11
-471.58190012296
 21
-60.7135824823552
 31
0.0
  0
LINE
  5
   59A
  8
0
  6
DASHDOT
 62
     7
 10
-487.580099891325
 20
-79.4345244781505
 30
0.0
 11
-487.580099891325
 21
-30.3015939900123
 31
0.0
  0
POLYLINE
  5
   59B
  8
0
  6
CONTINUOUS
 62
   218
 66
     1
 10
0.0
 20
0.0
 30
0.0
  0
VERTEX
  5
   59C
  8
0
  6
CONTINUOUS
 10
-492.580099891325
 20
-75.3136485858852
 30
0.0
 40
0.0
 41
0.0
  0
VERTEX
  5
   59D
  8
0
  6
CONTINUOUS
 10
-492.579346938065
 20
-75.3374005626459
 30
0.0
 40
0.0
 41
0.0
  0
VERTEX
  5
   59E
  8
0
  6
CONTINUOUS
 10
-492.577088531838
 20
-75.361138232104
 30
0.0
 40
0.0
 41
0.0
  0
VERTEX
  5
   59F
  8
0
  6
CONTINUOUS
 10
-492.573326033021
 20
-75.3848472955749
 30
0.0
 40
0.0
 41
0.0
  0
VERTEX
  5
   5A0
  8
0
  6
CONTINUOUS
 10
-492.568061708005
 20
-75.4085134716055
 30
0.0
 40
0.0
 41
0.0
  0
VERTEX
  5
   5A1
  8
0
  6
CONTINUOUS
 10
-492.561298727821
 20
-75.432122504576
 30
0.0
 40
0.0
 41
0.0
  0
VERTEX
  5
   5A2
  8
0
  6
CONTINUOUS
 10
-492.553041166236
 20
-75.455660173288
 30
0.0
 40
0.0
 41
0.0
  0
VERTEX
  5
   5A3
  8
0
  6
CONTINUOUS
 10
-492.543293997297
 20
-75.4791122995299
 30
0.0
 40
0.0
 41
0.0
  0
VERTEX
  5
   5A4
  8
0
  6
CONTINUOUS
 10
-492.532063092333
 20
-75.5024647566178
 30
0.0
 40
0.0
 41
0.0
  0
VERTEX
  5
   5A5
  8
0
  6
CONTINUOUS
 10
-492.519355216421
 20
-75.5257034779047
 30
0.0
 40
0.0
 41
0.0
  0
VERTEX
  5
   5A6
  8
0
  6
CONTINUOUS
 10
-492.505178024311
 20
-75.5488144652539
 30
0.0
 40
0.0
 41
0.0
  0
VERTEX
  5
   5A7
  8
0
  6
CONTINUOUS
 10
-492.489540055813
 20
-75.5717837974708
 30
0.0
 40
0.0
 41
0.0
  0
VERTEX
  5
   5A8
  8
0
  6
CONTINUOUS
 10
-492.472450730655
 20
-75.5945976386885
 30
0.0
 40
0.0
 41
0.0
  0
VERTEX
  5
   5A9
  8
0
  6
CONTINUOUS
 10
-492.453920342807
 20
-75.6172422467021
 30
0.0
 40
0.0
 41
0.0
  0
VERTEX
  5
   5AA
  8
0
  6
CONTINUOUS
 10
-492.433960054282
 20
-75.6397039812466
 30
0.0
 40
0.0
 41
0.0
  0
VERTEX
  5
   5AB
  8
0
  6
CONTINUOUS
 10
-492.412581888411
 20
-75.6619693122129
 30
0.0
 40
0.0
 41
0.0
  0
VERTEX
  5
   5AC
  8
0
  6
CONTINUOUS
 10
-492.389798722602
 20
-75.6840248277983
 30
0.0
 40
0.0
 41
0.0
  0
VERTEX
  5
   5AD
  8
0
  6
CONTINUOUS
 10
-492.365624280583
 20
-75.7058572425847
 30
0.0
 40
0.0
 41
0.0
  0
VERTEX
  5
   5AE
  8
0
  6
CONTINUOUS
 10
-492.340073124132
 20
-75.727453405542
 30
0.0
 40
0.0
 41
0.0
  0
VERTEX
  5
   5AF
  8
0
  6
CONTINUOUS
 10
-492.313160644313
 20
-75.7488003079491
 30
0.0
 40
0.0
 41
0.0
  0
VERTEX
  5
   5B0
  8
0
  6
CONTINUOUS
 10
-492.284903052195
 20
-75.7698850912301
 30
0.0
 40
0.0
 41
0.0
  0
VERTEX
  5
   5B1
  8
0
  6
CONTINUOUS
 10
-492.224421416324
 20
-75.8112176632153
 30
0.0
 40
0.0
 41
0.0
  0
VERTEX
  5
   5B2
  8
0
  6
CONTINUOUS
 10
-492.15877392208
 20
-75.8513515477113
 30
0.0
 40
0.0
 41
0.0
  0
VERTEX
  5
   5B3
  8
0
  6
CONTINUOUS
 10
-492.088118720025
 20
-75.890190058675
 30
0.0
 40
0.0
 41
0.0
  0
VERTEX
  5
   5B4
  8
0
  6
CONTINUOUS
 10
-492.01262602473
 20
-75.9276396307316
 30
0.0
 40
0.0
 41
0.0
  0
VERTEX
  5
   5B5
  8
0
  6
CONTINUOUS
 10
-491.93247770471
 20
-75.963610044582
 30
0.0
 40
0.0
 41
0.0
  0
VERTEX
  5
   5B6
  8
0
  6
CONTINUOUS
 10
-491.847866844289
 20
-75.9980146443485
 30
0.0
 40
0.0
 41
0.0
  0
VERTEX
  5
   5B7
  8
0
  6
CONTINUOUS
 10
-491.75899727844
 20
-76.0307705463367
 30
0.0
 40
0.0
 41
0.0
  0
VERTEX
  5
   5B8
  8
0
  6
CONTINUOUS
 10
-491.666083101732
 20
-76.0617988387097
 30
0.0
 40
0.0
 41
0.0
  0
VERTEX
  5
   5B9
  8
0
  6
CONTINUOUS
 10
-491.569348152553
 20
-76.0910247715934
 30
0.0
 40
0.0
 41
0.0
  0
VERTEX
  5
   5BA
  8
0
  6
CONTINUOUS
 10
-491.469025473871
 20
-76.1183779371557
 30
0.0
 40
0.0
 41
0.0
  0
VERTEX
  5
   5BB
  8
0
  6
CONTINUOUS
 10
-491.365356751805
 20
-76.1437924392247
 30
0.0
 40
0.0
 41
0.0
  0
VERTEX
  5
   5BC
  8
0
  6
CONTINUOUS
 10
-491.258591733387
 20
-76.167207052039
 30
0.0
 40
0.0
 41
0.0
  0
VERTEX
  5
   5BD
  8
0
  6
CONTINUOUS
 10
-491.148987624897
 20
-76.1885653677455
 30
0.0
 40
0.0
 41
0.0
  0
VERTEX
  5
   5BE
  8
0
  6
CONTINUOUS
 10
-491.036808472234
 20
-76.2078159322908
 30
0.0
 40
0.0
 41
0.0
  0
VERTEX
  5
   5BF
  8
0
  6
CONTINUOUS
 10
-490.922324524802
 20
-76.2249123693787
 30
0.0
 40
0.0
 41
0.0
  0
VERTEX
  5
   5C0
  8
0
  6
CONTINUOUS
 10
-490.805811584457
 20
-76.239813492195
 30
0.0
 40
0.0
 41
0.0
  0
VERTEX
  5
   5C1
  8
0
  6
CONTINUOUS
 10
-490.687550341079
 20
-76.2524834026295
 30
0.0
 40
0.0
 41
0.0
  0
VERTEX
  5
   5C2
  8
0
  6
CONTINUOUS
 10
-490.567825696361
 20
-76.2628915777582
 30
0.0
 40
0.0
 41
0.0
  0
VERTEX
  5
   5C3
  8
0
  6
CONTINUOUS
 10
-490.446926077459
 20
-76.2710129433756
 30
0.0
 40
0.0
 41
0.0
  0
VERTEX
  5
   5C4
  8
0
  6
CONTINUOUS
 10
-490.325142742144
 20
-76.2768279344006
 30
0.0
 40
0.0
 41
0.0
  0
VERTEX
  5
   5C5
  8
0
  6
CONTINUOUS
 10
-490.202769077139
 20
-76.2803225420104
 30
0.0
 40
0.0
 41
0.0
  0
VERTEX
  5
   5C6
  8
0
  6
CONTINUOUS
 10
-490.08009989132
 20
-76.2814883473893
 30
0.0
 40
0.0
 41
0.0
  0
VERTEX
  5
   5C7
  8
0
  6
CONTINUOUS
 10
-489.957430705502
 20
-76.28032254201
 30
0.0
 40
0.0
 41
0.0
  0
VERTEX
  5
   5C8
  8
0
  6
CONTINUOUS
 10
-489.835057040496
 20
-76.2768279343997
 30
0.0
 40
0.0
 41
0.0
  0
VERTEX
  5
   5C9
  8
0
  6
CONTINUOUS
 10
-489.713273705182
 20
-76.2710129433743
 30
0.0
 40
0.0
 41
0.0
  0
VERTEX
  5
   5CA
  8
0
  6
CONTINUOUS
 10
-489.59237408628
 20
-76.2628915777565
 30
0.0
 40
0.0
 41
0.0
  0
VERTEX
  5
   5CB
  8
0
  6
CONTINUOUS
 10
-489.472649441562
 20
-76.2524834026274
 30
0.0
 40
0.0
 41
0.0
  0
VERTEX
  5
   5CC
  8
0
  6
CONTINUOUS
 10
-489.354388198184
 20
-76.2398134921925
 30
0.0
 40
0.0
 41
0.0
  0
VERTEX
  5
   5CD
  8
0
  6
CONTINUOUS
 10
-489.23787525784
 20
-76.2249123693758
 30
0.0
 40
0.0
 41
0.0
  0
VERTEX
  5
   5CE
  8
0
  6
CONTINUOUS
 10
-489.123391310407
 20
-76.2078159322875
 30
0.0
 40
0.0
 41
0.0
  0
VERTEX
  5
   5CF
  8
0
  6
CONTINUOUS
 10
-489.011212157744
 20
-76.1885653677418
 30
0.0
 40
0.0
 41
0.0
  0
VERTEX
  5
   5D0
  8
0
  6
CONTINUOUS
 10
-488.901608049255
 20
-76.1672070520349
 30
0.0
 40
0.0
 41
0.0
  0
VERTEX
  5
   5D1
  8
0
  6
CONTINUOUS
 10
-488.794843030837
 20
-76.1437924392202
 30
0.0
 40
0.0
 41
0.0
  0
VERTEX
  5
   5D2
  8
0
  6
CONTINUOUS
 10
-488.691174308771
 20
-76.1183779371508
 30
0.0
 40
0.0
 41
0.0
  0
VERTEX
  5
   5D3
  8
0
  6
CONTINUOUS
 10
-488.590851630089
 20
-76.0910247715882
 30
0.0
 40
0.0
 41
0.0
  0
VERTEX
  5
   5D4
  8
0
  6
CONTINUOUS
 10
-488.494116680911
 20
-76.0617988387042
 30
0.0
 40
0.0
 41
0.0
  0
VERTEX
  5
   5D5
  8
0
  6
CONTINUOUS
 10
-488.401202504203
 20
-76.0307705463308
 30
0.0
 40
0.0
 41
0.0
  0
VERTEX
  5
   5D6
  8
0
  6
CONTINUOUS
 10
-488.312332938354
 20
-75.9980146443423
 30
0.0
 40
0.0
 41
0.0
  0
VERTEX
  5
   5D7
  8
0
  6
CONTINUOUS
 10
-488.227722077933
 20
-75.9636100445756
 30
0.0
 40
0.0
 41
0.0
  0
VERTEX
  5
   5D8
  8
0
  6
CONTINUOUS
 10
-488.147573757914
 20
-75.9276396307249
 30
0.0
 40
0.0
 41
0.0
  0
VERTEX
  5
   5D9
  8
0
  6
CONTINUOUS
 10
-488.072081062619
 20
-75.890190058668
 30
0.0
 40
0.0
 41
0.0
  0
VERTEX
  5
   5DA
  8
0
  6
CONTINUOUS
 10
-488.001425860565
 20
-75.851351547704
 30
0.0
 40
0.0
 41
0.0
  0
VERTEX
  5
   5DB
  8
0
  6
CONTINUOUS
 10
-487.935778366321
 20
-75.8112176632078
 30
0.0
 40
0.0
 41
0.0
  0
VERTEX
  5
   5DC
  8
0
  6
CONTINUOUS
 10
-487.875296730451
 20
-75.7698850912224
 30
0.0
 40
0.0
 41
0.0
  0
VERTEX
  5
   5DD
  8
0
  6
CONTINUOUS
 10
-487.847039138333
 20
-75.7488003079413
 30
0.0
 40
0.0
 41
0.0
  0
VERTEX
  5
   5DE
  8
0
  6
CONTINUOUS
 10
-487.820126658513
 20
-75.7274534055341
 30
0.0
 40
0.0
 41
0.0
  0
VERTEX
  5
   5DF
  8
0
  6
CONTINUOUS
 10
-487.794575502063
 20
-75.7058572425767
 30
0.0
 40
0.0
 41
0.0
  0
VERTEX
  5
   5E0
  8
0
  6
CONTINUOUS
 10
-487.770401060044
 20
-75.6840248277902
 30
0.0
 40
0.0
 41
0.0
  0
VERTEX
  5
   5E1
  8
0
  6
CONTINUOUS
 10
-487.747617894235
 20
-75.6619693122048
 30
0.0
 40
0.0
 41
0.0
  0
VERTEX
  5
   5E2
  8
0
  6
CONTINUOUS
 10
-487.726239728365
 20
-75.6397039812384
 30
0.0
 40
0.0
 41
0.0
  0
VERTEX
  5
   5E3
  8
0
  6
CONTINUOUS
 10
-487.70627943984
 20
-75.6172422466939
 30
0.0
 40
0.0
 41
0.0
  0
VERTEX
  5
   5E4
  8
0
  6
CONTINUOUS
 10
-487.687749051992
 20
-75.5945976386801
 30
0.0
 40
0.0
 41
0.0
  0
VERTEX
  5
   5E5
  8
0
  6
CONTINUOUS
 10
-487.670659726834
 20
-75.5717837974623
 30
0.0
 40
0.0
 41
0.0
  0
VERTEX
  5
   5E6
  8
0
  6
CONTINUOUS
 10
-487.655021758337
 20
-75.5488144652454
 30
0.0
 40
0.0
 41
0.0
  0
VERTEX
  5
   5E7
  8
0
  6
CONTINUOUS
 10
-487.640844566227
 20
-75.5257034778962
 30
0.0
 40
0.0
 41
0.0
  0
VERTEX
  5
   5E8
  8
0
  6
CONTINUOUS
 10
-487.628136690315
 20
-75.5024647566092
 30
0.0
 40
0.0
 41
0.0
  0
VERTEX
  5
   5E9
  8
0
  6
CONTINUOUS
 10
-487.616905785351
 20
-75.4791122995213
 30
0.0
 40
0.0
 41
0.0
  0
VERTEX
  5
   5EA
  8
0
  6
CONTINUOUS
 10
-487.607158616412
 20
-75.4556601732794
 30
0.0
 40
0.0
 41
0.0
  0
VERTEX
  5
   5EB
  8
0
  6
CONTINUOUS
 10
-487.598901054827
 20
-75.4321225045674
 30
0.0
 40
0.0
 41
0.0
  0
VERTEX
  5
   5EC
  8
0
  6
CONTINUOUS
 10
-487.592138074644
 20
-75.4085134715968
 30
0.0
 40
0.0
 41
0.0
  0
VERTEX
  5
   5ED
  8
0
  6
CONTINUOUS
 10
-487.586873749628
 20
-75.3848472955663
 30
0.0
 40
0.0
 41
0.0
  0
VERTEX
  5
   5EE
  8
0
  6
CONTINUOUS
 10
-487.583111250811
 20
-75.3611382320953
 30
0.0
 40
0.0
 41
0.0
  0
VERTEX
  5
   5EF
  8
0
  6
CONTINUOUS
 10
-487.580852844584
 20
-75.3374005626372
 30
0.0
 40
0.0
 41
0.0
  0
VERTEX
  5
   5F0
  8
0
  6
CONTINUOUS
 10
-487.580099891325
 20
-75.3136485858765
 30
0.0
 40
0.0
 41
0.0
  0
SEQEND
  5
   5F1
  8
0
  6
CONTINUOUS
 62
   218
  0
POLYLINE
  5
   5F2
  8
0
  6
CONTINUOUS
 62
   218
 66
     1
 10
0.0
 20
0.0
 30
0.0
 70
     1
  0
VERTEX
  5
   5F3
  8
0
  6
CONTINUOUS
 10
-487.580099891325
 20
-75.3136485858852
 30
0.0
 40
0.0
 41
0.0
  0
VERTEX
  5
   5F4
  8
0
  6
CONTINUOUS
 10
-487.579346938065
 20
-75.3374005626459
 30
0.0
 40
0.0
 41
0.0
  0
VERTEX
  5
   5F5
  8
0
  6
CONTINUOUS
 10
-487.577088531838
 20
-75.361138232104
 30
0.0
 40
0.0
 41
0.0
  0
VERTEX
  5
   5F6
  8
0
  6
CONTINUOUS
 10
-487.573326033021
 20
-75.3848472955749
 30
0.0
 40
0.0
 41
0.0
  0
VERTEX
  5
   5F7
  8
0
  6
CONTINUOUS
 10
-487.568061708005
 20
-75.4085134716054
 30
0.0
 40
0.0
 41
0.0
  0
VERTEX
  5
   5F8
  8
0
  6
CONTINUOUS
 10
-487.561298727821
 20
-75.4321225045759
 30
0.0
 40
0.0
 41
0.0
  0
VERTEX
  5
   5F9
  8
0
  6
CONTINUOUS
 10
-487.553041166237
 20
-75.4556601732879
 30
0.0
 40
0.0
 41
0.0
  0
VERTEX
  5
   5FA
  8
0
  6
CONTINUOUS
 10
-487.543293997297
 20
-75.4791122995298
 30
0.0
 40
0.0
 41
0.0
  0
VERTEX
  5
   5FB
  8
0
  6
CONTINUOUS
 10
-487.532063092333
 20
-75.5024647566176
 30
0.0
 40
0.0
 41
0.0
  0
VERTEX
  5
   5FC
  8
0
  6
CONTINUOUS
 10
-487.519355216421
 20
-75.5257034779045
 30
0.0
 40
0.0
 41
0.0
  0
VERTEX
  5
   5FD
  8
0
  6
CONTINUOUS
 10
-487.505178024311
 20
-75.5488144652537
 30
0.0
 40
0.0
 41
0.0
  0
VERTEX
  5
   5FE
  8
0
  6
CONTINUOUS
 10
-487.489540055813
 20
-75.5717837974705
 30
0.0
 40
0.0
 41
0.0
  0
VERTEX
  5
   5FF
  8
0
  6
CONTINUOUS
 10
-487.472450730655
 20
-75.5945976386882
 30
0.0
 40
0.0
 41
0.0
  0
VERTEX
  5
   600
  8
0
  6
CONTINUOUS
 10
-487.453920342807
 20
-75.6172422467019
 30
0.0
 40
0.0
 41
0.0
  0
VERTEX
  5
   601
  8
0
  6
CONTINUOUS
 10
-487.433960054282
 20
-75.6397039812464
 30
0.0
 40
0.0
 41
0.0
  0
VERTEX
  5
   602
  8
0
  6
CONTINUOUS
 10
-487.412581888411
 20
-75.6619693122127
 30
0.0
 40
0.0
 41
0.0
  0
VERTEX
  5
   603
  8
0
  6
CONTINUOUS
 10
-487.389798722602
 20
-75.684024827798
 30
0.0
 40
0.0
 41
0.0
  0
VERTEX
  5
   604
  8
0
  6
CONTINUOUS
 10
-487.365624280583
 20
-75.7058572425844
 30
0.0
 40
0.0
 41
0.0
  0
VERTEX
  5
   605
  8
0
  6
CONTINUOUS
 10
-487.340073124133
 20
-75.7274534055417
 30
0.0
 40
0.0
 41
0.0
  0
VERTEX
  5
   606
  8
0
  6
CONTINUOUS
 10
-487.313160644313
 20
-75.7488003079487
 30
0.0
 40
0.0
 41
0.0
  0
VERTEX
  5
   607
  8
0
  6
CONTINUOUS
 10
-487.284903052195
 20
-75.7698850912298
 30
0.0
 40
0.0
 41
0.0
  0
VERTEX
  5
   608
  8
0
  6
CONTINUOUS
 10
-487.224421416325
 20
-75.8112176632149
 30
0.0
 40
0.0
 41
0.0
  0
VERTEX
  5
   609
  8
0
  6
CONTINUOUS
 10
-487.15877392208
 20
-75.8513515477109
 30
0.0
 40
0.0
 41
0.0
  0
VERTEX
  5
   60A
  8
0
  6
CONTINUOUS
 10
-487.088118720026
 20
-75.8901900586746
 30
0.0
 40
0.0
 41
0.0
  0
VERTEX
  5
   60B
  8
0
  6
CONTINUOUS
 10
-487.012626024731
 20
-75.9276396307312
 30
0.0
 40
0.0
 41
0.0
  0
VERTEX
  5
   60C
  8
0
  6
CONTINUOUS
 10
-486.932477704711
 20
-75.9636100445816
 30
0.0
 40
0.0
 41
0.0
  0
VERTEX
  5
   60D
  8
0
  6
CONTINUOUS
 10
-486.84786684429
 20
-75.998014644348
 30
0.0
 40
0.0
 41
0.0
  0
VERTEX
  5
   60E
  8
0
  6
CONTINUOUS
 10
-486.758997278441
 20
-76.0307705463362
 30
0.0
 40
0.0
 41
0.0
  0
VERTEX
  5
   60F
  8
0
  6
CONTINUOUS
 10
-486.666083101733
 20
-76.0617988387093
 30
0.0
 40
0.0
 41
0.0
  0
VERTEX
  5
   610
  8
0
  6
CONTINUOUS
 10
-486.569348152555
 20
-76.091024771593
 30
0.0
 40
0.0
 41
0.0
  0
VERTEX
  5
   611
  8
0
  6
CONTINUOUS
 10
-486.469025473873
 20
-76.1183779371552
 30
0.0
 40
0.0
 41
0.0
  0
VERTEX
  5
   612
  8
0
  6
CONTINUOUS
 10
-486.365356751807
 20
-76.1437924392243
 30
0.0
 40
0.0
 41
0.0
  0
VERTEX
  5
   613
  8
0
  6
CONTINUOUS
 10
-486.258591733389
 20
-76.1672070520386
 30
0.0
 40
0.0
 41
0.0
  0
VERTEX
  5
   614
  8
0
  6
CONTINUOUS
 10
-486.148987624899
 20
-76.1885653677451
 30
0.0
 40
0.0
 41
0.0
  0
VERTEX
  5
   615
  8
0
  6
CONTINUOUS
 10
-486.036808472236
 20
-76.2078159322904
 30
0.0
 40
0.0
 41
0.0
  0
VERTEX
  5
   616
  8
0
  6
CONTINUOUS
 10
-485.922324524804
 20
-76.2249123693784
 30
0.0
 40
0.0
 41
0.0
  0
VERTEX
  5
   617
  8
0
  6
CONTINUOUS
 10
-485.80581158446
 20
-76.2398134921947
 30
0.0
 40
0.0
 41
0.0
  0
VERTEX
  5
   618
  8
0
  6
CONTINUOUS
 10
-485.687550341082
 20
-76.2524834026292
 30
0.0
 40
0.0
 41
0.0
  0
VERTEX
  5
   619
  8
0
  6
CONTINUOUS
 10
-485.567825696364
 20
-76.262891577758
 30
0.0
 40
0.0
 41
0.0
  0
VERTEX
  5
   61A
  8
0
  6
CONTINUOUS
 10
-485.446926077462
 20
-76.2710129433754
 30
0.0
 40
0.0
 41
0.0
  0
VERTEX
  5
   61B
  8
0
  6
CONTINUOUS
 10
-485.325142742147
 20
-76.2768279344004
 30
0.0
 40
0.0
 41
0.0
  0
VERTEX
  5
   61C
  8
0
  6
CONTINUOUS
 10
-485.202769077142
 20
-76.2803225420104
 30
0.0
 40
0.0
 41
0.0
  0
VERTEX
  5
   61D
  8
0
  6
CONTINUOUS
 10
-485.080099891324
 20
-76.2814883473893
 30
0.0
 40
0.0
 41
0.0
  0
VERTEX
  5
   61E
  8
0
  6
CONTINUOUS
 10
-484.957430705505
 20
-76.2803225420101
 30
0.0
 40
0.0
 41
0.0
  0
VERTEX
  5
   61F
  8
0
  6
CONTINUOUS
 10
-484.8350570405
 20
-76.2768279343998
 30
0.0
 40
0.0
 41
0.0
  0
VERTEX
  5
   620
  8
0
  6
CONTINUOUS
 10
-484.713273705185
 20
-76.2710129433745
 30
0.0
 40
0.0
 41
0.0
  0
VERTEX
  5
   621
  8
0
  6
CONTINUOUS
 10
-484.592374086283
 20
-76.2628915777567
 30
0.0
 40
0.0
 41
0.0
  0
VERTEX
  5
   622
  8
0
  6
CONTINUOUS
 10
-484.472649441565
 20
-76.2524834026277
 30
0.0
 40
0.0
 41
0.0
  0
VERTEX
  5
   623
  8
0
  6
CONTINUOUS
 10
-484.354388198187
 20
-76.2398134921929
 30
0.0
 40
0.0
 41
0.0
  0
VERTEX
  5
   624
  8
0
  6
CONTINUOUS
 10
-484.237875257843
 20
-76.2249123693763
 30
0.0
 40
0.0
 41
0.0
  0
VERTEX
  5
   625
  8
0
  6
CONTINUOUS
 10
-484.123391310411
 20
-76.207815932288
 30
0.0
 40
0.0
 41
0.0
  0
VERTEX
  5
   626
  8
0
  6
CONTINUOUS
 10
-484.011212157748
 20
-76.1885653677424
 30
0.0
 40
0.0
 41
0.0
  0
VERTEX
  5
   627
  8
0
  6
CONTINUOUS
 10
-483.901608049259
 20
-76.1672070520357
 30
0.0
 40
0.0
 41
0.0
  0
VERTEX
  5
   628
  8
0
  6
CONTINUOUS
 10
-483.794843030841
 20
-76.1437924392211
 30
0.0
 40
0.0
 41
0.0
  0
VERTEX
  5
   629
  8
0
  6
CONTINUOUS
 10
-483.691174308775
 20
-76.1183779371517
 30
0.0
 40
0.0
 41
0.0
  0
VERTEX
  5
   62A
  8
0
  6
CONTINUOUS
 10
-483.590851630093
 20
-76.0910247715892
 30
0.0
 40
0.0
 41
0.0
  0
VERTEX
  5
   62B
  8
0
  6
CONTINUOUS
 10
-483.494116680915
 20
-76.0617988387053
 30
0.0
 40
0.0
 41
0.0
  0
VERTEX
  5
   62C
  8
0
  6
CONTINUOUS
 10
-483.401202504206
 20
-76.030770546332
 30
0.0
 40
0.0
 41
0.0
  0
VERTEX
  5
   62D
  8
0
  6
CONTINUOUS
 10
-483.312332938358
 20
-75.9980146443436
 30
0.0
 40
0.0
 41
0.0
  0
VERTEX
  5
   62E
  8
0
  6
CONTINUOUS
 10
-483.227722077937
 20
-75.9636100445769
 30
0.0
 40
0.0
 41
0.0
  0
VERTEX
  5
   62F
  8
0
  6
CONTINUOUS
 10
-483.147573757917
 20
-75.9276396307264
 30
0.0
 40
0.0
 41
0.0
  0
VERTEX
  5
   630
  8
0
  6
CONTINUOUS
 10
-483.072081062622
 20
-75.8901900586695
 30
0.0
 40
0.0
 41
0.0
  0
VERTEX
  5
   631
  8
0
  6
CONTINUOUS
 10
-483.001425860568
 20
-75.8513515477057
 30
0.0
 40
0.0
 41
0.0
  0
VERTEX
  5
   632
  8
0
  6
CONTINUOUS
 10
-482.935778366323
 20
-75.8112176632096
 30
0.0
 40
0.0
 41
0.0
  0
VERTEX
  5
   633
  8
0
  6
CONTINUOUS
 10
-482.875296730453
 20
-75.7698850912243
 30
0.0
 40
0.0
 41
0.0
  0
VERTEX
  5
   634
  8
0
  6
CONTINUOUS
 10
-482.847039138335
 20
-75.7488003079431
 30
0.0
 40
0.0
 41
0.0
  0
VERTEX
  5
   635
  8
0
  6
CONTINUOUS
 10
-482.820126658516
 20
-75.727453405536
 30
0.0
 40
0.0
 41
0.0
  0
VERTEX
  5
   636
  8
0
  6
CONTINUOUS
 10
-482.794575502065
 20
-75.7058572425787
 30
0.0
 40
0.0
 41
0.0
  0
VERTEX
  5
   637
  8
0
  6
CONTINUOUS
 10
-482.770401060046
 20
-75.6840248277922
 30
0.0
 40
0.0
 41
0.0
  0
VERTEX
  5
   638
  8
0
  6
CONTINUOUS
 10
-482.747617894237
 20
-75.6619693122068
 30
0.0
 40
0.0
 41
0.0
  0
VERTEX
  5
   639
  8
0
  6
CONTINUOUS
 10
-482.726239728367
 20
-75.6397039812405
 30
0.0
 40
0.0
 41
0.0
  0
VERTEX
  5
   63A
  8
0
  6
CONTINUOUS
 10
-482.706279439842
 20
-75.6172422466959
 30
0.0
 40
0.0
 41
0.0
  0
VERTEX
  5
   63B
  8
0
  6
CONTINUOUS
 10
-482.687749051994
 20
-75.5945976386822
 30
0.0
 40
0.0
 41
0.0
  0
VERTEX
  5
   63C
  8
0
  6
CONTINUOUS
 10
-482.670659726836
 20
-75.5717837974645
 30
0.0
 40
0.0
 41
0.0
  0
VERTEX
  5
   63D
  8
0
  6
CONTINUOUS
 10
-482.655021758338
 20
-75.5488144652476
 30
0.0
 40
0.0
 41
0.0
  0
VERTEX
  5
   63E
  8
0
  6
CONTINUOUS
 10
-482.640844566228
 20
-75.5257034778984
 30
0.0
 40
0.0
 41
0.0
  0
VERTEX
  5
   63F
  8
0
  6
CONTINUOUS
 10
-482.628136690316
 20
-75.5024647566114
 30
0.0
 40
0.0
 41
0.0
  0
VERTEX
  5
   640
  8
0
  6
CONTINUOUS
 10
-482.616905785352
 20
-75.4791122995236
 30
0.0
 40
0.0
 41
0.0
  0
VERTEX
  5
   641
  8
0
  6
CONTINUOUS
 10
-482.607158616413
 20
-75.4556601732817
 30
0.0
 40
0.0
 41
0.0
  0
VERTEX
  5
   642
  8
0
  6
CONTINUOUS
 10
-482.598901054828
 20
-75.4321225045697
 30
0.0
 40
0.0
 41
0.0
  0
VERTEX
  5
   643
  8
0
  6
CONTINUOUS
 10
-482.592138074644
 20
-75.4085134715991
 30
0.0
 40
0.0
 41
0.0
  0
VERTEX
  5
   644
  8
0
  6
CONTINUOUS
 10
-482.586873749628
 20
-75.3848472955686
 30
0.0
 40
0.0
 41
0.0
  0
VERTEX
  5
   645
  8
0
  6
CONTINUOUS
 10
-482.583111250812
 20
-75.3611382320977
 30
0.0
 40
0.0
 41
0.0
  0
VERTEX
  5
   646
  8
0
  6
CONTINUOUS
 10
-482.580852844584
 20
-75.3374005626396
 30
0.0
 40
0.0
 41
0.0
  0
VERTEX
  5
   647
  8
0
  6
CONTINUOUS
 10
-482.580099891325
 20
-75.3136485858789
 30
0.0
 40
0.0
 41
0.0
  0
VERTEX
  5
   648
  8
0
  6
CONTINUOUS
 10
-482.580852844584
 20
-75.2898966091182
 30
0.0
 40
0.0
 41
0.0
  0
VERTEX
  5
   649
  8
0
  6
CONTINUOUS
 10
-482.583111250812
 20
-75.2661589396602
 30
0.0
 40
0.0
 41
0.0
  0
VERTEX
  5
   64A
  8
0
  6
CONTINUOUS
 10
-482.586873749628
 20
-75.2424498761893
 30
0.0
 40
0.0
 41
0.0
  0
VERTEX
  5
   64B
  8
0
  6
CONTINUOUS
 10
-482.592138074644
 20
-75.2187837001588
 30
0.0
 40
0.0
 41
0.0
  0
VERTEX
  5
   64C
  8
0
  6
CONTINUOUS
 10
-482.598901054828
 20
-75.1951746671882
 30
0.0
 40
0.0
 41
0.0
  0
VERTEX
  5
   64D
  8
0
  6
CONTINUOUS
 10
-482.607158616413
 20
-75.1716369984762
 30
0.0
 40
0.0
 41
0.0
  0
VERTEX
  5
   64E
  8
0
  6
CONTINUOUS
 10
-482.616905785353
 20
-75.1481848722344
 30
0.0
 40
0.0
 41
0.0
  0
VERTEX
  5
   64F
  8
0
  6
CONTINUOUS
 10
-482.628136690317
 20
-75.1248324151465
 30
0.0
 40
0.0
 41
0.0
  0
VERTEX
  5
   650
  8
0
  6
CONTINUOUS
 10
-482.640844566229
 20
-75.1015936938596
 30
0.0
 40
0.0
 41
0.0
  0
VERTEX
  5
   651
  8
0
  6
CONTINUOUS
 10
-482.655021758339
 20
-75.0784827065104
 30
0.0
 40
0.0
 41
0.0
  0
VERTEX
  5
   652
  8
0
  6
CONTINUOUS
 10
-482.670659726837
 20
-75.0555133742936
 30
0.0
 40
0.0
 41
0.0
  0
VERTEX
  5
   653
  8
0
  6
CONTINUOUS
 10
-482.687749051995
 20
-75.0326995330759
 30
0.0
 40
0.0
 41
0.0
  0
VERTEX
  5
   654
  8
0
  6
CONTINUOUS
 10
-482.706279439843
 20
-75.0100549250622
 30
0.0
 40
0.0
 41
0.0
  0
VERTEX
  5
   655
  8
0
  6
CONTINUOUS
 10
-482.726239728368
 20
-74.9875931905178
 30
0.0
 40
0.0
 41
0.0
  0
VERTEX
  5
   656
  8
0
  6
CONTINUOUS
 10
-482.747617894238
 20
-74.9653278595515
 30
0.0
 40
0.0
 41
0.0
  0
VERTEX
  5
   657
  8
0
  6
CONTINUOUS
 10
-482.770401060047
 20
-74.9432723439662
 30
0.0
 40
0.0
 41
0.0
  0
VERTEX
  5
   658
  8
0
  6
CONTINUOUS
 10
-482.794575502066
 20
-74.9214399291797
 30
0.0
 40
0.0
 41
0.0
  0
VERTEX
  5
   659
  8
0
  6
CONTINUOUS
 10
-482.820126658517
 20
-74.8998437662225
 30
0.0
 40
0.0
 41
0.0
  0
VERTEX
  5
   65A
  8
0
  6
CONTINUOUS
 10
-482.847039138337
 20
-74.8784968638154
 30
0.0
 40
0.0
 41
0.0
  0
VERTEX
  5
   65B
  8
0
  6
CONTINUOUS
 10
-482.875296730454
 20
-74.8574120805343
 30
0.0
 40
0.0
 41
0.0
  0
VERTEX
  5
   65C
  8
0
  6
CONTINUOUS
 10
-482.935778366325
 20
-74.8160795085492
 30
0.0
 40
0.0
 41
0.0
  0
VERTEX
  5
   65D
  8
0
  6
CONTINUOUS
 10
-483.001425860569
 20
-74.7759456240532
 30
0.0
 40
0.0
 41
0.0
  0
VERTEX
  5
   65E
  8
0
  6
CONTINUOUS
 10
-483.072081062624
 20
-74.7371071130896
 30
0.0
 40
0.0
 41
0.0
  0
VERTEX
  5
   65F
  8
0
  6
CONTINUOUS
 10
-483.147573757919
 20
-74.6996575410329
 30
0.0
 40
0.0
 41
0.0
  0
VERTEX
  5
   660
  8
0
  6
CONTINUOUS
 10
-483.227722077938
 20
-74.6636871271825
 30
0.0
 40
0.0
 41
0.0
  0
VERTEX
  5
   661
  8
0
  6
CONTINUOUS
 10
-483.312332938359
 20
-74.6292825274161
 30
0.0
 40
0.0
 41
0.0
  0
VERTEX
  5
   662
  8
0
  6
CONTINUOUS
 10
-483.401202504208
 20
-74.5965266254279
 30
0.0
 40
0.0
 41
0.0
  0
VERTEX
  5
   663
  8
0
  6
CONTINUOUS
 10
-483.494116680917
 20
-74.5654983330549
 30
0.0
 40
0.0
 41
0.0
  0
VERTEX
  5
   664
  8
0
  6
CONTINUOUS
 10
-483.590851630095
 20
-74.5362724001711
 30
0.0
 40
0.0
 41
0.0
  0
VERTEX
  5
   665
  8
0
  6
CONTINUOUS
 10
-483.691174308777
 20
-74.5089192346089
 30
0.0
 40
0.0
 41
0.0
  0
VERTEX
  5
   666
  8
0
  6
CONTINUOUS
 10
-483.794843030843
 20
-74.4835047325398
 30
0.0
 40
0.0
 41
0.0
  0
VERTEX
  5
   667
  8
0
  6
CONTINUOUS
 10
-483.901608049261
 20
-74.4600901197255
 30
0.0
 40
0.0
 41
0.0
  0
VERTEX
  5
   668
  8
0
  6
CONTINUOUS
 10
-484.01121215775
 20
-74.438731804019
 30
0.0
 40
0.0
 41
0.0
  0
VERTEX
  5
   669
  8
0
  6
CONTINUOUS
 10
-484.123391310413
 20
-74.4194812394737
 30
0.0
 40
0.0
 41
0.0
  0
VERTEX
  5
   66A
  8
0
  6
CONTINUOUS
 10
-484.237875257845
 20
-74.4023848023857
 30
0.0
 40
0.0
 41
0.0
  0
VERTEX
  5
   66B
  8
0
  6
CONTINUOUS
 10
-484.35438819819
 20
-74.3874836795694
 30
0.0
 40
0.0
 41
0.0
  0
VERTEX
  5
   66C
  8
0
  6
CONTINUOUS
 10
-484.472649441568
 20
-74.3748137691349
 30
0.0
 40
0.0
 41
0.0
  0
VERTEX
  5
   66D
  8
0
  6
CONTINUOUS
 10
-484.592374086286
 20
-74.3644055940062
 30
0.0
 40
0.0
 41
0.0
  0
VERTEX
  5
   66E
  8
0
  6
CONTINUOUS
 10
-484.713273705188
 20
-74.3562842283887
 30
0.0
 40
0.0
 41
0.0
  0
VERTEX
  5
   66F
  8
0
  6
CONTINUOUS
 10
-484.835057040502
 20
-74.3504692373637
 30
0.0
 40
0.0
 41
0.0
  0
VERTEX
  5
   670
  8
0
  6
CONTINUOUS
 10
-484.957430705507
 20
-74.3469746297538
 30
0.0
 40
0.0
 41
0.0
  0
VERTEX
  5
   671
  8
0
  6
CONTINUOUS
 10
-485.080099891326
 20
-74.3458088243748
 30
0.0
 40
0.0
 41
0.0
  0
VERTEX
  5
   672
  8
0
  6
CONTINUOUS
 10
-485.202769077145
 20
-74.3469746297541
 30
0.0
 40
0.0
 41
0.0
  0
VERTEX
  5
   673
  8
0
  6
CONTINUOUS
 10
-485.32514274215
 20
-74.3504692373643
 30
0.0
 40
0.0
 41
0.0
  0
VERTEX
  5
   674
  8
0
  6
CONTINUOUS
 10
-485.446926077464
 20
-74.3562842283896
 30
0.0
 40
0.0
 41
0.0
  0
VERTEX
  5
   675
  8
0
  6
CONTINUOUS
 10
-485.567825696366
 20
-74.3644055940074
 30
0.0
 40
0.0
 41
0.0
  0
VERTEX
  5
   676
  8
0
  6
CONTINUOUS
 10
-485.687550341084
 20
-74.3748137691364
 30
0.0
 40
0.0
 41
0.0
  0
VERTEX
  5
   677
  8
0
  6
CONTINUOUS
 10
-485.805811584462
 20
-74.3874836795712
 30
0.0
 40
0.0
 41
0.0
  0
VERTEX
  5
   678
  8
0
  6
CONTINUOUS
 10
-485.922324524806
 20
-74.4023848023878
 30
0.0
 40
0.0
 41
0.0
  0
VERTEX
  5
   679
  8
0
  6
CONTINUOUS
 10
-486.036808472239
 20
-74.4194812394761
 30
0.0
 40
0.0
 41
0.0
  0
VERTEX
  5
   67A
  8
0
  6
CONTINUOUS
 10
-486.148987624902
 20
-74.4387318040217
 30
0.0
 40
0.0
 41
0.0
  0
VERTEX
  5
   67B
  8
0
  6
CONTINUOUS
 10
-486.258591733391
 20
-74.4600901197285
 30
0.0
 40
0.0
 41
0.0
  0
VERTEX
  5
   67C
  8
0
  6
CONTINUOUS
 10
-486.365356751809
 20
-74.4835047325431
 30
0.0
 40
0.0
 41
0.0
  0
VERTEX
  5
   67D
  8
0
  6
CONTINUOUS
 10
-486.469025473875
 20
-74.5089192346124
 30
0.0
 40
0.0
 41
0.0
  0
VERTEX
  5
   67E
  8
0
  6
CONTINUOUS
 10
-486.569348152557
 20
-74.5362724001749
 30
0.0
 40
0.0
 41
0.0
  0
VERTEX
  5
   67F
  8
0
  6
CONTINUOUS
 10
-486.666083101735
 20
-74.5654983330589
 30
0.0
 40
0.0
 41
0.0
  0
VERTEX
  5
   680
  8
0
  6
CONTINUOUS
 10
-486.758997278443
 20
-74.5965266254321
 30
0.0
 40
0.0
 41
0.0
  0
VERTEX
  5
   681
  8
0
  6
CONTINUOUS
 10
-486.847866844292
 20
-74.6292825274205
 30
0.0
 40
0.0
 41
0.0
  0
VERTEX
  5
   682
  8
0
  6
CONTINUOUS
 10
-486.932477704713
 20
-74.6636871271872
 30
0.0
 40
0.0
 41
0.0
  0
VERTEX
  5
   683
  8
0
  6
CONTINUOUS
 10
-487.012626024732
 20
-74.6996575410377
 30
0.0
 40
0.0
 41
0.0
  0
VERTEX
  5
   684
  8
0
  6
CONTINUOUS
 10
-487.088118720027
 20
-74.7371071130946
 30
0.0
 40
0.0
 41
0.0
  0
VERTEX
  5
   685
  8
0
  6
CONTINUOUS
 10
-487.158773922082
 20
-74.7759456240585
 30
0.0
 40
0.0
 41
0.0
  0
VERTEX
  5
   686
  8
0
  6
CONTINUOUS
 10
-487.224421416326
 20
-74.8160795085546
 30
0.0
 40
0.0
 41
0.0
  0
VERTEX
  5
   687
  8
0
  6
CONTINUOUS
 10
-487.284903052196
 20
-74.8574120805399
 30
0.0
 40
0.0
 41
0.0
  0
VERTEX
  5
   688
  8
0
  6
CONTINUOUS
 10
-487.313160644314
 20
-74.878496863821
 30
0.0
 40
0.0
 41
0.0
  0
VERTEX
  5
   689
  8
0
  6
CONTINUOUS
 10
-487.340073124134
 20
-74.8998437662281
 30
0.0
 40
0.0
 41
0.0
  0
VERTEX
  5
   68A
  8
0
  6
CONTINUOUS
 10
-487.365624280584
 20
-74.9214399291855
 30
0.0
 40
0.0
 41
0.0
  0
VERTEX
  5
   68B
  8
0
  6
CONTINUOUS
 10
-487.389798722603
 20
-74.943272343972
 30
0.0
 40
0.0
 41
0.0
  0
VERTEX
  5
   68C
  8
0
  6
CONTINUOUS
 10
-487.412581888412
 20
-74.9653278595573
 30
0.0
 40
0.0
 41
0.0
  0
VERTEX
  5
   68D
  8
0
  6
CONTINUOUS
 10
-487.433960054283
 20
-74.9875931905237
 30
0.0
 40
0.0
 41
0.0
  0
VERTEX
  5
   68E
  8
0
  6
CONTINUOUS
 10
-487.453920342808
 20
-75.0100549250682
 30
0.0
 40
0.0
 41
0.0
  0
VERTEX
  5
   68F
  8
0
  6
CONTINUOUS
 10
-487.472450730656
 20
-75.0326995330819
 30
0.0
 40
0.0
 41
0.0
  0
VERTEX
  5
   690
  8
0
  6
CONTINUOUS
 10
-487.489540055814
 20
-75.0555133742996
 30
0.0
 40
0.0
 41
0.0
  0
VERTEX
  5
   691
  8
0
  6
CONTINUOUS
 10
-487.505178024311
 20
-75.0784827065166
 30
0.0
 40
0.0
 41
0.0
  0
VERTEX
  5
   692
  8
0
  6
CONTINUOUS
 10
-487.519355216421
 20
-75.1015936938658
 30
0.0
 40
0.0
 41
0.0
  0
VERTEX
  5
   693
  8
0
  6
CONTINUOUS
 10
-487.532063092333
 20
-75.1248324151527
 30
0.0
 40
0.0
 41
0.0
  0
VERTEX
  5
   694
  8
0
  6
CONTINUOUS
 10
-487.543293997297
 20
-75.1481848722406
 30
0.0
 40
0.0
 41
0.0
  0
VERTEX
  5
   695
  8
0
  6
CONTINUOUS
 10
-487.553041166237
 20
-75.1716369984825
 30
0.0
 40
0.0
 41
0.0
  0
VERTEX
  5
   696
  8
0
  6
CONTINUOUS
 10
-487.561298727822
 20
-75.1951746671944
 30
0.0
 40
0.0
 41
0.0
  0
VERTEX
  5
   697
  8
0
  6
CONTINUOUS
 10
-487.568061708005
 20
-75.218783700165
 30
0.0
 40
0.0
 41
0.0
  0
VERTEX
  5
   698
  8
0
  6
CONTINUOUS
 10
-487.573326033022
 20
-75.2424498761955
 30
0.0
 40
0.0
 41
0.0
  0
VERTEX
  5
   699
  8
0
  6
CONTINUOUS
 10
-487.577088531838
 20
-75.2661589396664
 30
0.0
 40
0.0
 41
0.0
  0
VERTEX
  5
   69A
  8
0
  6
CONTINUOUS
 10
-487.579346938065
 20
-75.2898966091245
 30
0.0
 40
0.0
 41
0.0
  0
VERTEX
  5
   69B
  8
0
  6
CONTINUOUS
 10
-487.580099891325
 20
-75.3136485858852
 30
0.0
 40
0.0
 41
0.0
  0
SEQEND
  5
   69C
  8
0
  6
CONTINUOUS
 62
   218
  0
POLYLINE
  5
   69D
  8
0
  6
CONTINUOUS
 62
   218
 66
     1
 10
0.0
 20
0.0
 30
0.0
  0
VERTEX
  5
   69E
  8
0
  6
CONTINUOUS
 10
-481.58190012296
 20
-75.3136485858852
 30
0.0
 40
0.0
 41
0.0
  0
VERTEX
  5
   69F
  8
0
  6
CONTINUOUS
 10
-481.581147169701
 20
-75.3374005626459
 30
0.0
 40
0.0
 41
0.0
  0
VERTEX
  5
   6A0
  8
0
  6
CONTINUOUS
 10
-481.578888763473
 20
-75.361138232104
 30
0.0
 40
0.0
 41
0.0
  0
VERTEX
  5
   6A1
  8
0
  6
CONTINUOUS
 10
-481.575126264657
 20
-75.3848472955749
 30
0.0
 40
0.0
 41
0.0
  0
VERTEX
  5
   6A2
  8
0
  6
CONTINUOUS
 10
-481.569861939641
 20
-75.4085134716055
 30
0.0
 40
0.0
 41
0.0
  0
VERTEX
  5
   6A3
  8
0
  6
CONTINUOUS
 10
-481.563098959457
 20
-75.432122504576
 30
0.0
 40
0.0
 41
0.0
  0
VERTEX
  5
   6A4
  8
0
  6
CONTINUOUS
 10
-481.554841397872
 20
-75.455660173288
 30
0.0
 40
0.0
 41
0.0
  0
VERTEX
  5
   6A5
  8
0
  6
CONTINUOUS
 10
-481.545094228932
 20
-75.4791122995299
 30
0.0
 40
0.0
 41
0.0
  0
VERTEX
  5
   6A6
  8
0
  6
CONTINUOUS
 10
-481.533863323968
 20
-75.5024647566178
 30
0.0
 40
0.0
 41
0.0
  0
VERTEX
  5
   6A7
  8
0
  6
CONTINUOUS
 10
-481.521155448056
 20
-75.5257034779047
 30
0.0
 40
0.0
 41
0.0
  0
VERTEX
  5
   6A8
  8
0
  6
CONTINUOUS
 10
-481.506978255946
 20
-75.5488144652539
 30
0.0
 40
0.0
 41
0.0
  0
VERTEX
  5
   6A9
  8
0
  6
CONTINUOUS
 10
-481.491340287448
 20
-75.5717837974708
 30
0.0
 40
0.0
 41
0.0
  0
VERTEX
  5
   6AA
  8
0
  6
CONTINUOUS
 10
-481.47425096229
 20
-75.5945976386885
 30
0.0
 40
0.0
 41
0.0
  0
VERTEX
  5
   6AB
  8
0
  6
CONTINUOUS
 10
-481.455720574442
 20
-75.6172422467021
 30
0.0
 40
0.0
 41
0.0
  0
VERTEX
  5
   6AC
  8
0
  6
CONTINUOUS
 10
-481.435760285917
 20
-75.6397039812466
 30
0.0
 40
0.0
 41
0.0
  0
VERTEX
  5
   6AD
  8
0
  6
CONTINUOUS
 10
-481.414382120046
 20
-75.6619693122129
 30
0.0
 40
0.0
 41
0.0
  0
VERTEX
  5
   6AE
  8
0
  6
CONTINUOUS
 10
-481.391598954238
 20
-75.6840248277983
 30
0.0
 40
0.0
 41
0.0
  0
VERTEX
  5
   6AF
  8
0
  6
CONTINUOUS
 10
-481.367424512218
 20
-75.7058572425847
 30
0.0
 40
0.0
 41
0.0
  0
VERTEX
  5
   6B0
  8
0
  6
CONTINUOUS
 10
-481.341873355768
 20
-75.727453405542
 30
0.0
 40
0.0
 41
0.0
  0
VERTEX
  5
   6B1
  8
0
  6
CONTINUOUS
 10
-481.314960875948
 20
-75.7488003079491
 30
0.0
 40
0.0
 41
0.0
  0
VERTEX
  5
   6B2
  8
0
  6
CONTINUOUS
 10
-481.28670328383
 20
-75.7698850912301
 30
0.0
 40
0.0
 41
0.0
  0
VERTEX
  5
   6B3
  8
0
  6
CONTINUOUS
 10
-481.22622164796
 20
-75.8112176632153
 30
0.0
 40
0.0
 41
0.0
  0
VERTEX
  5
   6B4
  8
0
  6
CONTINUOUS
 10
-481.160574153715
 20
-75.8513515477113
 30
0.0
 40
0.0
 41
0.0
  0
VERTEX
  5
   6B5
  8
0
  6
CONTINUOUS
 10
-481.08991895166
 20
-75.890190058675
 30
0.0
 40
0.0
 41
0.0
  0
VERTEX
  5
   6B6
  8
0
  6
CONTINUOUS
 10
-481.014426256366
 20
-75.9276396307316
 30
0.0
 40
0.0
 41
0.0
  0
VERTEX
  5
   6B7
  8
0
  6
CONTINUOUS
 10
-480.934277936346
 20
-75.963610044582
 30
0.0
 40
0.0
 41
0.0
  0
VERTEX
  5
   6B8
  8
0
  6
CONTINUOUS
 10
-480.849667075925
 20
-75.9980146443485
 30
0.0
 40
0.0
 41
0.0
  0
VERTEX
  5
   6B9
  8
0
  6
CONTINUOUS
 10
-480.760797510076
 20
-76.0307705463367
 30
0.0
 40
0.0
 41
0.0
  0
VERTEX
  5
   6BA
  8
0
  6
CONTINUOUS
 10
-480.667883333367
 20
-76.0617988387097
 30
0.0
 40
0.0
 41
0.0
  0
VERTEX
  5
   6BB
  8
0
  6
CONTINUOUS
 10
-480.571148384189
 20
-76.0910247715934
 30
0.0
 40
0.0
 41
0.0
  0
VERTEX
  5
   6BC
  8
0
  6
CONTINUOUS
 10
-480.470825705507
 20
-76.1183779371557
 30
0.0
 40
0.0
 41
0.0
  0
VERTEX
  5
   6BD
  8
0
  6
CONTINUOUS
 10
-480.367156983441
 20
-76.1437924392247
 30
0.0
 40
0.0
 41
0.0
  0
VERTEX
  5
   6BE
  8
0
  6
CONTINUOUS
 10
-480.260391965022
 20
-76.167207052039
 30
0.0
 40
0.0
 41
0.0
  0
VERTEX
  5
   6BF
  8
0
  6
CONTINUOUS
 10
-480.150787856533
 20
-76.1885653677455
 30
0.0
 40
0.0
 41
0.0
  0
VERTEX
  5
   6C0
  8
0
  6
CONTINUOUS
 10
-480.03860870387
 20
-76.2078159322908
 30
0.0
 40
0.0
 41
0.0
  0
VERTEX
  5
   6C1
  8
0
  6
CONTINUOUS
 10
-479.924124756437
 20
-76.2249123693787
 30
0.0
 40
0.0
 41
0.0
  0
VERTEX
  5
   6C2
  8
0
  6
CONTINUOUS
 10
-479.807611816093
 20
-76.239813492195
 30
0.0
 40
0.0
 41
0.0
  0
VERTEX
  5
   6C3
  8
0
  6
CONTINUOUS
 10
-479.689350572715
 20
-76.2524834026295
 30
0.0
 40
0.0
 41
0.0
  0
VERTEX
  5
   6C4
  8
0
  6
CONTINUOUS
 10
-479.569625927997
 20
-76.2628915777582
 30
0.0
 40
0.0
 41
0.0
  0
VERTEX
  5
   6C5
  8
0
  6
CONTINUOUS
 10
-479.448726309095
 20
-76.2710129433756
 30
0.0
 40
0.0
 41
0.0
  0
VERTEX
  5
   6C6
  8
0
  6
CONTINUOUS
 10
-479.32694297378
 20
-76.2768279344006
 30
0.0
 40
0.0
 41
0.0
  0
VERTEX
  5
   6C7
  8
0
  6
CONTINUOUS
 10
-479.204569308775
 20
-76.2803225420104
 30
0.0
 40
0.0
 41
0.0
  0
VERTEX
  5
   6C8
  8
0
  6
CONTINUOUS
 10
-479.081900122956
 20
-76.2814883473893
 30
0.0
 40
0.0
 41
0.0
  0
VERTEX
  5
   6C9
  8
0
  6
CONTINUOUS
 10
-478.959230937137
 20
-76.28032254201
 30
0.0
 40
0.0
 41
0.0
  0
VERTEX
  5
   6CA
  8
0
  6
CONTINUOUS
 10
-478.836857272132
 20
-76.2768279343997
 30
0.0
 40
0.0
 41
0.0
  0
VERTEX
  5
   6CB
  8
0
  6
CONTINUOUS
 10
-478.715073936817
 20
-76.2710129433743
 30
0.0
 40
0.0
 41
0.0
  0
VERTEX
  5
   6CC
  8
0
  6
CONTINUOUS
 10
-478.594174317915
 20
-76.2628915777565
 30
0.0
 40
0.0
 41
0.0
  0
VERTEX
  5
   6CD
  8
0
  6
CONTINUOUS
 10
-478.474449673197
 20
-76.2524834026274
 30
0.0
 40
0.0
 41
0.0
  0
VERTEX
  5
   6CE
  8
0
  6
CONTINUOUS
 10
-478.356188429819
 20
-76.2398134921925
 30
0.0
 40
0.0
 41
0.0
  0
VERTEX
  5
   6CF
  8
0
  6
CONTINUOUS
 10
-478.239675489475
 20
-76.2249123693758
 30
0.0
 40
0.0
 41
0.0
  0
VERTEX
  5
   6D0
  8
0
  6
CONTINUOUS
 10
-478.125191542043
 20
-76.2078159322875
 30
0.0
 40
0.0
 41
0.0
  0
VERTEX
  5
   6D1
  8
0
  6
CONTINUOUS
 10
-478.01301238938
 20
-76.1885653677418
 30
0.0
 40
0.0
 41
0.0
  0
VERTEX
  5
   6D2
  8
0
  6
CONTINUOUS
 10
-477.903408280891
 20
-76.1672070520349
 30
0.0
 40
0.0
 41
0.0
  0
VERTEX
  5
   6D3
  8
0
  6
CONTINUOUS
 10
-477.796643262473
 20
-76.1437924392202
 30
0.0
 40
0.0
 41
0.0
  0
VERTEX
  5
   6D4
  8
0
  6
CONTINUOUS
 10
-477.692974540407
 20
-76.1183779371508
 30
0.0
 40
0.0
 41
0.0
  0
VERTEX
  5
   6D5
  8
0
  6
CONTINUOUS
 10
-477.592651861725
 20
-76.0910247715882
 30
0.0
 40
0.0
 41
0.0
  0
VERTEX
  5
   6D6
  8
0
  6
CONTINUOUS
 10
-477.495916912547
 20
-76.0617988387042
 30
0.0
 40
0.0
 41
0.0
  0
VERTEX
  5
   6D7
  8
0
  6
CONTINUOUS
 10
-477.403002735838
 20
-76.0307705463308
 30
0.0
 40
0.0
 41
0.0
  0
VERTEX
  5
   6D8
  8
0
  6
CONTINUOUS
 10
-477.31413316999
 20
-75.9980146443423
 30
0.0
 40
0.0
 41
0.0
  0
VERTEX
  5
   6D9
  8
0
  6
CONTINUOUS
 10
-477.229522309569
 20
-75.9636100445756
 30
0.0
 40
0.0
 41
0.0
  0
VERTEX
  5
   6DA
  8
0
  6
CONTINUOUS
 10
-477.14937398955
 20
-75.9276396307249
 30
0.0
 40
0.0
 41
0.0
  0
VERTEX
  5
   6DB
  8
0
  6
CONTINUOUS
 10
-477.073881294255
 20
-75.890190058668
 30
0.0
 40
0.0
 41
0.0
  0
VERTEX
  5
   6DC
  8
0
  6
CONTINUOUS
 10
-477.0032260922
 20
-75.851351547704
 30
0.0
 40
0.0
 41
0.0
  0
VERTEX
  5
   6DD
  8
0
  6
CONTINUOUS
 10
-476.937578597956
 20
-75.8112176632078
 30
0.0
 40
0.0
 41
0.0
  0
VERTEX
  5
   6DE
  8
0
  6
CONTINUOUS
 10
-476.877096962086
 20
-75.7698850912224
 30
0.0
 40
0.0
 41
0.0
  0
VERTEX
  5
   6DF
  8
0
  6
CONTINUOUS
 10
-476.848839369969
 20
-75.7488003079413
 30
0.0
 40
0.0
 41
0.0
  0
VERTEX
  5
   6E0
  8
0
  6
CONTINUOUS
 10
-476.821926890149
 20
-75.7274534055341
 30
0.0
 40
0.0
 41
0.0
  0
VERTEX
  5
   6E1
  8
0
  6
CONTINUOUS
 10
-476.796375733699
 20
-75.7058572425767
 30
0.0
 40
0.0
 41
0.0
  0
VERTEX
  5
   6E2
  8
0
  6
CONTINUOUS
 10
-476.772201291679
 20
-75.6840248277902
 30
0.0
 40
0.0
 41
0.0
  0
VERTEX
  5
   6E3
  8
0
  6
CONTINUOUS
 10
-476.749418125871
 20
-75.6619693122048
 30
0.0
 40
0.0
 41
0.0
  0
VERTEX
  5
   6E4
  8
0
  6
CONTINUOUS
 10
-476.728039960001
 20
-75.6397039812384
 30
0.0
 40
0.0
 41
0.0
  0
VERTEX
  5
   6E5
  8
0
  6
CONTINUOUS
 10
-476.708079671476
 20
-75.6172422466939
 30
0.0
 40
0.0
 41
0.0
  0
VERTEX
  5
   6E6
  8
0
  6
CONTINUOUS
 10
-476.689549283628
 20
-75.5945976386801
 30
0.0
 40
0.0
 41
0.0
  0
VERTEX
  5
   6E7
  8
0
  6
CONTINUOUS
 10
-476.67245995847
 20
-75.5717837974623
 30
0.0
 40
0.0
 41
0.0
  0
VERTEX
  5
   6E8
  8
0
  6
CONTINUOUS
 10
-476.656821989972
 20
-75.5488144652454
 30
0.0
 40
0.0
 41
0.0
  0
VERTEX
  5
   6E9
  8
0
  6
CONTINUOUS
 10
-476.642644797862
 20
-75.5257034778962
 30
0.0
 40
0.0
 41
0.0
  0
VERTEX
  5
   6EA
  8
0
  6
CONTINUOUS
 10
-476.629936921951
 20
-75.5024647566092
 30
0.0
 40
0.0
 41
0.0
  0
VERTEX
  5
   6EB
  8
0
  6
CONTINUOUS
 10
-476.618706016987
 20
-75.4791122995213
 30
0.0
 40
0.0
 41
0.0
  0
VERTEX
  5
   6EC
  8
0
  6
CONTINUOUS
 10
-476.608958848047
 20
-75.4556601732794
 30
0.0
 40
0.0
 41
0.0
  0
VERTEX
  5
   6ED
  8
0
  6
CONTINUOUS
 10
-476.600701286463
 20
-75.4321225045674
 30
0.0
 40
0.0
 41
0.0
  0
VERTEX
  5
   6EE
  8
0
  6
CONTINUOUS
 10
-476.593938306279
 20
-75.4085134715968
 30
0.0
 40
0.0
 41
0.0
  0
VERTEX
  5
   6EF
  8
0
  6
CONTINUOUS
 10
-476.588673981263
 20
-75.3848472955663
 30
0.0
 40
0.0
 41
0.0
  0
VERTEX
  5
   6F0
  8
0
  6
CONTINUOUS
 10
-476.584911482447
 20
-75.3611382320953
 30
0.0
 40
0.0
 41
0.0
  0
VERTEX
  5
   6F1
  8
0
  6
CONTINUOUS
 10
-476.58265307622
 20
-75.3374005626372
 30
0.0
 40
0.0
 41
0.0
  0
VERTEX
  5
   6F2
  8
0
  6
CONTINUOUS
 10
-476.58190012296
 20
-75.3136485858765
 30
0.0
 40
0.0
 41
0.0
  0
SEQEND
  5
   6F3
  8
0
  6
CONTINUOUS
 62
   218
  0
POLYLINE
  5
   6F4
  8
0
  6
CONTINUOUS
 62
   218
 66
     1
 10
0.0
 20
0.0
 30
0.0
 70
     1
  0
VERTEX
  5
   6F5
  8
0
  6
CONTINUOUS
 10
-476.58190012296
 20
-75.3136485858852
 30
0.0
 40
0.0
 41
0.0
  0
VERTEX
  5
   6F6
  8
0
  6
CONTINUOUS
 10
-476.581147169701
 20
-75.3374005626459
 30
0.0
 40
0.0
 41
0.0
  0
VERTEX
  5
   6F7
  8
0
  6
CONTINUOUS
 10
-476.578888763473
 20
-75.361138232104
 30
0.0
 40
0.0
 41
0.0
  0
VERTEX
  5
   6F8
  8
0
  6
CONTINUOUS
 10
-476.575126264657
 20
-75.3848472955749
 30
0.0
 40
0.0
 41
0.0
  0
VERTEX
  5
   6F9
  8
0
  6
CONTINUOUS
 10
-476.569861939641
 20
-75.4085134716054
 30
0.0
 40
0.0
 41
0.0
  0
VERTEX
  5
   6FA
  8
0
  6
CONTINUOUS
 10
-476.563098959457
 20
-75.4321225045759
 30
0.0
 40
0.0
 41
0.0
  0
VERTEX
  5
   6FB
  8
0
  6
CONTINUOUS
 10
-476.554841397872
 20
-75.4556601732879
 30
0.0
 40
0.0
 41
0.0
  0
VERTEX
  5
   6FC
  8
0
  6
CONTINUOUS
 10
-476.545094228932
 20
-75.4791122995298
 30
0.0
 40
0.0
 41
0.0
  0
VERTEX
  5
   6FD
  8
0
  6
CONTINUOUS
 10
-476.533863323968
 20
-75.5024647566176
 30
0.0
 40
0.0
 41
0.0
  0
VERTEX
  5
   6FE
  8
0
  6
CONTINUOUS
 10
-476.521155448056
 20
-75.5257034779045
 30
0.0
 40
0.0
 41
0.0
  0
VERTEX
  5
   6FF
  8
0
  6
CONTINUOUS
 10
-476.506978255946
 20
-75.5488144652537
 30
0.0
 40
0.0
 41
0.0
  0
VERTEX
  5
   700
  8
0
  6
CONTINUOUS
 10
-476.491340287449
 20
-75.5717837974705
 30
0.0
 40
0.0
 41
0.0
  0
VERTEX
  5
   701
  8
0
  6
CONTINUOUS
 10
-476.47425096229
 20
-75.5945976386882
 30
0.0
 40
0.0
 41
0.0
  0
VERTEX
  5
   702
  8
0
  6
CONTINUOUS
 10
-476.455720574442
 20
-75.6172422467019
 30
0.0
 40
0.0
 41
0.0
  0
VERTEX
  5
   703
  8
0
  6
CONTINUOUS
 10
-476.435760285917
 20
-75.6397039812464
 30
0.0
 40
0.0
 41
0.0
  0
VERTEX
  5
   704
  8
0
  6
CONTINUOUS
 10
-476.414382120047
 20
-75.6619693122127
 30
0.0
 40
0.0
 41
0.0
  0
VERTEX
  5
   705
  8
0
  6
CONTINUOUS
 10
-476.391598954238
 20
-75.684024827798
 30
0.0
 40
0.0
 41
0.0
  0
VERTEX
  5
   706
  8
0
  6
CONTINUOUS
 10
-476.367424512219
 20
-75.7058572425844
 30
0.0
 40
0.0
 41
0.0
  0
VERTEX
  5
   707
  8
0
  6
CONTINUOUS
 10
-476.341873355768
 20
-75.7274534055417
 30
0.0
 40
0.0
 41
0.0
  0
VERTEX
  5
   708
  8
0
  6
CONTINUOUS
 10
-476.314960875949
 20
-75.7488003079487
 30
0.0
 40
0.0
 41
0.0
  0
VERTEX
  5
   709
  8
0
  6
CONTINUOUS
 10
-476.286703283831
 20
-75.7698850912298
 30
0.0
 40
0.0
 41
0.0
  0
VERTEX
  5
   70A
  8
0
  6
CONTINUOUS
 10
-476.22622164796
 20
-75.8112176632149
 30
0.0
 40
0.0
 41
0.0
  0
VERTEX
  5
   70B
  8
0
  6
CONTINUOUS
 10
-476.160574153716
 20
-75.8513515477109
 30
0.0
 40
0.0
 41
0.0
  0
VERTEX
  5
   70C
  8
0
  6
CONTINUOUS
 10
-476.089918951661
 20
-75.8901900586746
 30
0.0
 40
0.0
 41
0.0
  0
VERTEX
  5
   70D
  8
0
  6
CONTINUOUS
 10
-476.014426256366
 20
-75.9276396307312
 30
0.0
 40
0.0
 41
0.0
  0
VERTEX
  5
   70E
  8
0
  6
CONTINUOUS
 10
-475.934277936347
 20
-75.9636100445816
 30
0.0
 40
0.0
 41
0.0
  0
VERTEX
  5
   70F
  8
0
  6
CONTINUOUS
 10
-475.849667075926
 20
-75.998014644348
 30
0.0
 40
0.0
 41
0.0
  0
VERTEX
  5
   710
  8
0
  6
CONTINUOUS
 10
-475.760797510077
 20
-76.0307705463362
 30
0.0
 40
0.0
 41
0.0
  0
VERTEX
  5
   711
  8
0
  6
CONTINUOUS
 10
-475.667883333368
 20
-76.0617988387093
 30
0.0
 40
0.0
 41
0.0
  0
VERTEX
  5
   712
  8
0
  6
CONTINUOUS
 10
-475.57114838419
 20
-76.091024771593
 30
0.0
 40
0.0
 41
0.0
  0
VERTEX
  5
   713
  8
0
  6
CONTINUOUS
 10
-475.470825705508
 20
-76.1183779371552
 30
0.0
 40
0.0
 41
0.0
  0
VERTEX
  5
   714
  8
0
  6
CONTINUOUS
 10
-475.367156983442
 20
-76.1437924392243
 30
0.0
 40
0.0
 41
0.0
  0
VERTEX
  5
   715
  8
0
  6
CONTINUOUS
 10
-475.260391965024
 20
-76.1672070520386
 30
0.0
 40
0.0
 41
0.0
  0
VERTEX
  5
   716
  8
0
  6
CONTINUOUS
 10
-475.150787856535
 20
-76.1885653677451
 30
0.0
 40
0.0
 41
0.0
  0
VERTEX
  5
   717
  8
0
  6
CONTINUOUS
 10
-475.038608703872
 20
-76.2078159322904
 30
0.0
 40
0.0
 41
0.0
  0
VERTEX
  5
   718
  8
0
  6
CONTINUOUS
 10
-474.92412475644
 20
-76.2249123693784
 30
0.0
 40
0.0
 41
0.0
  0
VERTEX
  5
   719
  8
0
  6
CONTINUOUS
 10
-474.807611816095
 20
-76.2398134921947
 30
0.0
 40
0.0
 41
0.0
  0
VERTEX
  5
   71A
  8
0
  6
CONTINUOUS
 10
-474.689350572717
 20
-76.2524834026292
 30
0.0
 40
0.0
 41
0.0
  0
VERTEX
  5
   71B
  8
0
  6
CONTINUOUS
 10
-474.569625927999
 20
-76.262891577758
 30
0.0
 40
0.0
 41
0.0
  0
VERTEX
  5
   71C
  8
0
  6
CONTINUOUS
 10
-474.448726309098
 20
-76.2710129433754
 30
0.0
 40
0.0
 41
0.0
  0
VERTEX
  5
   71D
  8
0
  6
CONTINUOUS
 10
-474.326942973783
 20
-76.2768279344004
 30
0.0
 40
0.0
 41
0.0
  0
VERTEX
  5
   71E
  8
0
  6
CONTINUOUS
 10
-474.204569308778
 20
-76.2803225420104
 30
0.0
 40
0.0
 41
0.0
  0
VERTEX
  5
   71F
  8
0
  6
CONTINUOUS
 10
-474.081900122959
 20
-76.2814883473893
 30
0.0
 40
0.0
 41
0.0
  0
VERTEX
  5
   720
  8
0
  6
CONTINUOUS
 10
-473.959230937141
 20
-76.2803225420101
 30
0.0
 40
0.0
 41
0.0
  0
VERTEX
  5
   721
  8
0
  6
CONTINUOUS
 10
-473.836857272135
 20
-76.2768279343998
 30
0.0
 40
0.0
 41
0.0
  0
VERTEX
  5
   722
  8
0
  6
CONTINUOUS
 10
-473.715073936821
 20
-76.2710129433745
 30
0.0
 40
0.0
 41
0.0
  0
VERTEX
  5
   723
  8
0
  6
CONTINUOUS
 10
-473.594174317919
 20
-76.2628915777567
 30
0.0
 40
0.0
 41
0.0
  0
VERTEX
  5
   724
  8
0
  6
CONTINUOUS
 10
-473.474449673201
 20
-76.2524834026277
 30
0.0
 40
0.0
 41
0.0
  0
VERTEX
  5
   725
  8
0
  6
CONTINUOUS
 10
-473.356188429823
 20
-76.2398134921929
 30
0.0
 40
0.0
 41
0.0
  0
VERTEX
  5
   726
  8
0
  6
CONTINUOUS
 10
-473.239675489479
 20
-76.2249123693763
 30
0.0
 40
0.0
 41
0.0
  0
VERTEX
  5
   727
  8
0
  6
CONTINUOUS
 10
-473.125191542046
 20
-76.207815932288
 30
0.0
 40
0.0
 41
0.0
  0
VERTEX
  5
   728
  8
0
  6
CONTINUOUS
 10
-473.013012389384
 20
-76.1885653677424
 30
0.0
 40
0.0
 41
0.0
  0
VERTEX
  5
   729
  8
0
  6
CONTINUOUS
 10
-472.903408280894
 20
-76.1672070520357
 30
0.0
 40
0.0
 41
0.0
  0
VERTEX
  5
   72A
  8
0
  6
CONTINUOUS
 10
-472.796643262476
 20
-76.1437924392211
 30
0.0
 40
0.0
 41
0.0
  0
VERTEX
  5
   72B
  8
0
  6
CONTINUOUS
 10
-472.69297454041
 20
-76.1183779371517
 30
0.0
 40
0.0
 41
0.0
  0
VERTEX
  5
   72C
  8
0
  6
CONTINUOUS
 10
-472.592651861728
 20
-76.0910247715892
 30
0.0
 40
0.0
 41
0.0
  0
VERTEX
  5
   72D
  8
0
  6
CONTINUOUS
 10
-472.49591691255
 20
-76.0617988387053
 30
0.0
 40
0.0
 41
0.0
  0
VERTEX
  5
   72E
  8
0
  6
CONTINUOUS
 10
-472.403002735842
 20
-76.030770546332
 30
0.0
 40
0.0
 41
0.0
  0
VERTEX
  5
   72F
  8
0
  6
CONTINUOUS
 10
-472.314133169993
 20
-75.9980146443436
 30
0.0
 40
0.0
 41
0.0
  0
VERTEX
  5
   730
  8
0
  6
CONTINUOUS
 10
-472.229522309572
 20
-75.9636100445769
 30
0.0
 40
0.0
 41
0.0
  0
VERTEX
  5
   731
  8
0
  6
CONTINUOUS
 10
-472.149373989553
 20
-75.9276396307264
 30
0.0
 40
0.0
 41
0.0
  0
VERTEX
  5
   732
  8
0
  6
CONTINUOUS
 10
-472.073881294258
 20
-75.8901900586695
 30
0.0
 40
0.0
 41
0.0
  0
VERTEX
  5
   733
  8
0
  6
CONTINUOUS
 10
-472.003226092203
 20
-75.8513515477057
 30
0.0
 40
0.0
 41
0.0
  0
VERTEX
  5
   734
  8
0
  6
CONTINUOUS
 10
-471.937578597959
 20
-75.8112176632096
 30
0.0
 40
0.0
 41
0.0
  0
VERTEX
  5
   735
  8
0
  6
CONTINUOUS
 10
-471.877096962089
 20
-75.7698850912243
 30
0.0
 40
0.0
 41
0.0
  0
VERTEX
  5
   736
  8
0
  6
CONTINUOUS
 10
-471.848839369971
 20
-75.7488003079431
 30
0.0
 40
0.0
 41
0.0
  0
VERTEX
  5
   737
  8
0
  6
CONTINUOUS
 10
-471.821926890151
 20
-75.727453405536
 30
0.0
 40
0.0
 41
0.0
  0
VERTEX
  5
   738
  8
0
  6
CONTINUOUS
 10
-471.796375733701
 20
-75.7058572425787
 30
0.0
 40
0.0
 41
0.0
  0
VERTEX
  5
   739
  8
0
  6
CONTINUOUS
 10
-471.772201291682
 20
-75.6840248277922
 30
0.0
 40
0.0
 41
0.0
  0
VERTEX
  5
   73A
  8
0
  6
CONTINUOUS
 10
-471.749418125873
 20
-75.6619693122068
 30
0.0
 40
0.0
 41
0.0
  0
VERTEX
  5
   73B
  8
0
  6
CONTINUOUS
 10
-471.728039960002
 20
-75.6397039812405
 30
0.0
 40
0.0
 41
0.0
  0
VERTEX
  5
   73C
  8
0
  6
CONTINUOUS
 10
-471.708079671477
 20
-75.6172422466959
 30
0.0
 40
0.0
 41
0.0
  0
VERTEX
  5
   73D
  8
0
  6
CONTINUOUS
 10
-471.689549283629
 20
-75.5945976386822
 30
0.0
 40
0.0
 41
0.0
  0
VERTEX
  5
   73E
  8
0
  6
CONTINUOUS
 10
-471.672459958471
 20
-75.5717837974645
 30
0.0
 40
0.0
 41
0.0
  0
VERTEX
  5
   73F
  8
0
  6
CONTINUOUS
 10
-471.656821989974
 20
-75.5488144652476
 30
0.0
 40
0.0
 41
0.0
  0
VERTEX
  5
   740
  8
0
  6
CONTINUOUS
 10
-471.642644797864
 20
-75.5257034778984
 30
0.0
 40
0.0
 41
0.0
  0
VERTEX
  5
   741
  8
0
  6
CONTINUOUS
 10
-471.629936921952
 20
-75.5024647566114
 30
0.0
 40
0.0
 41
0.0
  0
VERTEX
  5
   742
  8
0
  6
CONTINUOUS
 10
-471.618706016988
 20
-75.4791122995236
 30
0.0
 40
0.0
 41
0.0
  0
VERTEX
  5
   743
  8
0
  6
CONTINUOUS
 10
-471.608958848048
 20
-75.4556601732817
 30
0.0
 40
0.0
 41
0.0
  0
VERTEX
  5
   744
  8
0
  6
CONTINUOUS
 10
-471.600701286463
 20
-75.4321225045697
 30
0.0
 40
0.0
 41
0.0
  0
VERTEX
  5
   745
  8
0
  6
CONTINUOUS
 10
-471.59393830628
 20
-75.4085134715991
 30
0.0
 40
0.0
 41
0.0
  0
VERTEX
  5
   746
  8
0
  6
CONTINUOUS
 10
-471.588673981263
 20
-75.3848472955686
 30
0.0
 40
0.0
 41
0.0
  0
VERTEX
  5
   747
  8
0
  6
CONTINUOUS
 10
-471.584911482447
 20
-75.3611382320977
 30
0.0
 40
0.0
 41
0.0
  0
VERTEX
  5
   748
  8
0
  6
CONTINUOUS
 10
-471.58265307622
 20
-75.3374005626396
 30
0.0
 40
0.0
 41
0.0
  0
VERTEX
  5
   749
  8
0
  6
CONTINUOUS
 10
-471.58190012296
 20
-75.3136485858789
 30
0.0
 40
0.0
 41
0.0
  0
VERTEX
  5
   74A
  8
0
  6
CONTINUOUS
 10
-471.58265307622
 20
-75.2898966091182
 30
0.0
 40
0.0
 41
0.0
  0
VERTEX
  5
   74B
  8
0
  6
CONTINUOUS
 10
-471.584911482447
 20
-75.2661589396602
 30
0.0
 40
0.0
 41
0.0
  0
VERTEX
  5
   74C
  8
0
  6
CONTINUOUS
 10
-471.588673981264
 20
-75.2424498761893
 30
0.0
 40
0.0
 41
0.0
  0
VERTEX
  5
   74D
  8
0
  6
CONTINUOUS
 10
-471.59393830628
 20
-75.2187837001588
 30
0.0
 40
0.0
 41
0.0
  0
VERTEX
  5
   74E
  8
0
  6
CONTINUOUS
 10
-471.600701286464
 20
-75.1951746671882
 30
0.0
 40
0.0
 41
0.0
  0
VERTEX
  5
   74F
  8
0
  6
CONTINUOUS
 10
-471.608958848048
 20
-75.1716369984762
 30
0.0
 40
0.0
 41
0.0
  0
VERTEX
  5
   750
  8
0
  6
CONTINUOUS
 10
-471.618706016988
 20
-75.1481848722344
 30
0.0
 40
0.0
 41
0.0
  0
VERTEX
  5
   751
  8
0
  6
CONTINUOUS
 10
-471.629936921952
 20
-75.1248324151465
 30
0.0
 40
0.0
 41
0.0
  0
VERTEX
  5
   752
  8
0
  6
CONTINUOUS
 10
-471.642644797864
 20
-75.1015936938596
 30
0.0
 40
0.0
 41
0.0
  0
VERTEX
  5
   753
  8
0
  6
CONTINUOUS
 10
-471.656821989974
 20
-75.0784827065104
 30
0.0
 40
0.0
 41
0.0
  0
VERTEX
  5
   754
  8
0
  6
CONTINUOUS
 10
-471.672459958472
 20
-75.0555133742936
 30
0.0
 40
0.0
 41
0.0
  0
VERTEX
  5
   755
  8
0
  6
CONTINUOUS
 10
-471.68954928363
 20
-75.0326995330759
 30
0.0
 40
0.0
 41
0.0
  0
VERTEX
  5
   756
  8
0
  6
CONTINUOUS
 10
-471.708079671478
 20
-75.0100549250622
 30
0.0
 40
0.0
 41
0.0
  0
VERTEX
  5
   757
  8
0
  6
CONTINUOUS
 10
-471.728039960003
 20
-74.9875931905178
 30
0.0
 40
0.0
 41
0.0
  0
VERTEX
  5
   758
  8
0
  6
CONTINUOUS
 10
-471.749418125874
 20
-74.9653278595515
 30
0.0
 40
0.0
 41
0.0
  0
VERTEX
  5
   759
  8
0
  6
CONTINUOUS
 10
-471.772201291683
 20
-74.9432723439662
 30
0.0
 40
0.0
 41
0.0
  0
VERTEX
  5
   75A
  8
0
  6
CONTINUOUS
 10
-471.796375733702
 20
-74.9214399291797
 30
0.0
 40
0.0
 41
0.0
  0
VERTEX
  5
   75B
  8
0
  6
CONTINUOUS
 10
-471.821926890152
 20
-74.8998437662225
 30
0.0
 40
0.0
 41
0.0
  0
VERTEX
  5
   75C
  8
0
  6
CONTINUOUS
 10
-471.848839369972
 20
-74.8784968638154
 30
0.0
 40
0.0
 41
0.0
  0
VERTEX
  5
   75D
  8
0
  6
CONTINUOUS
 10
-471.87709696209
 20
-74.8574120805343
 30
0.0
 40
0.0
 41
0.0
  0
VERTEX
  5
   75E
  8
0
  6
CONTINUOUS
 10
-471.93757859796
 20
-74.8160795085492
 30
0.0
 40
0.0
 41
0.0
  0
VERTEX
  5
   75F
  8
0
  6
CONTINUOUS
 10
-472.003226092205
 20
-74.7759456240532
 30
0.0
 40
0.0
 41
0.0
  0
VERTEX
  5
   760
  8
0
  6
CONTINUOUS
 10
-472.073881294259
 20
-74.7371071130896
 30
0.0
 40
0.0
 41
0.0
  0
VERTEX
  5
   761
  8
0
  6
CONTINUOUS
 10
-472.149373989554
 20
-74.6996575410329
 30
0.0
 40
0.0
 41
0.0
  0
VERTEX
  5
   762
  8
0
  6
CONTINUOUS
 10
-472.229522309574
 20
-74.6636871271825
 30
0.0
 40
0.0
 41
0.0
  0
VERTEX
  5
   763
  8
0
  6
CONTINUOUS
 10
-472.314133169995
 20
-74.6292825274161
 30
0.0
 40
0.0
 41
0.0
  0
VERTEX
  5
   764
  8
0
  6
CONTINUOUS
 10
-472.403002735844
 20
-74.5965266254279
 30
0.0
 40
0.0
 41
0.0
  0
VERTEX
  5
   765
  8
0
  6
CONTINUOUS
 10
-472.495916912552
 20
-74.5654983330549
 30
0.0
 40
0.0
 41
0.0
  0
VERTEX
  5
   766
  8
0
  6
CONTINUOUS
 10
-472.59265186173
 20
-74.5362724001711
 30
0.0
 40
0.0
 41
0.0
  0
VERTEX
  5
   767
  8
0
  6
CONTINUOUS
 10
-472.692974540412
 20
-74.5089192346089
 30
0.0
 40
0.0
 41
0.0
  0
VERTEX
  5
   768
  8
0
  6
CONTINUOUS
 10
-472.796643262478
 20
-74.4835047325398
 30
0.0
 40
0.0
 41
0.0
  0
VERTEX
  5
   769
  8
0
  6
CONTINUOUS
 10
-472.903408280896
 20
-74.4600901197255
 30
0.0
 40
0.0
 41
0.0
  0
VERTEX
  5
   76A
  8
0
  6
CONTINUOUS
 10
-473.013012389386
 20
-74.438731804019
 30
0.0
 40
0.0
 41
0.0
  0
VERTEX
  5
   76B
  8
0
  6
CONTINUOUS
 10
-473.125191542049
 20
-74.4194812394737
 30
0.0
 40
0.0
 41
0.0
  0
VERTEX
  5
   76C
  8
0
  6
CONTINUOUS
 10
-473.239675489481
 20
-74.4023848023857
 30
0.0
 40
0.0
 41
0.0
  0
VERTEX
  5
   76D
  8
0
  6
CONTINUOUS
 10
-473.356188429825
 20
-74.3874836795694
 30
0.0
 40
0.0
 41
0.0
  0
VERTEX
  5
   76E
  8
0
  6
CONTINUOUS
 10
-473.474449673203
 20
-74.3748137691349
 30
0.0
 40
0.0
 41
0.0
  0
VERTEX
  5
   76F
  8
0
  6
CONTINUOUS
 10
-473.594174317921
 20
-74.3644055940062
 30
0.0
 40
0.0
 41
0.0
  0
VERTEX
  5
   770
  8
0
  6
CONTINUOUS
 10
-473.715073936823
 20
-74.3562842283887
 30
0.0
 40
0.0
 41
0.0
  0
VERTEX
  5
   771
  8
0
  6
CONTINUOUS
 10
-473.836857272138
 20
-74.3504692373637
 30
0.0
 40
0.0
 41
0.0
  0
VERTEX
  5
   772
  8
0
  6
CONTINUOUS
 10
-473.959230937143
 20
-74.3469746297538
 30
0.0
 40
0.0
 41
0.0
  0
VERTEX
  5
   773
  8
0
  6
CONTINUOUS
 10
-474.081900122962
 20
-74.3458088243748
 30
0.0
 40
0.0
 41
0.0
  0
VERTEX
  5
   774
  8
0
  6
CONTINUOUS
 10
-474.20456930878
 20
-74.3469746297541
 30
0.0
 40
0.0
 41
0.0
  0
VERTEX
  5
   775
  8
0
  6
CONTINUOUS
 10
-474.326942973785
 20
-74.3504692373643
 30
0.0
 40
0.0
 41
0.0
  0
VERTEX
  5
   776
  8
0
  6
CONTINUOUS
 10
-474.4487263091
 20
-74.3562842283896
 30
0.0
 40
0.0
 41
0.0
  0
VERTEX
  5
   777
  8
0
  6
CONTINUOUS
 10
-474.569625928002
 20
-74.3644055940074
 30
0.0
 40
0.0
 41
0.0
  0
VERTEX
  5
   778
  8
0
  6
CONTINUOUS
 10
-474.68935057272
 20
-74.3748137691364
 30
0.0
 40
0.0
 41
0.0
  0
VERTEX
  5
   779
  8
0
  6
CONTINUOUS
 10
-474.807611816098
 20
-74.3874836795712
 30
0.0
 40
0.0
 41
0.0
  0
VERTEX
  5
   77A
  8
0
  6
CONTINUOUS
 10
-474.924124756442
 20
-74.4023848023878
 30
0.0
 40
0.0
 41
0.0
  0
VERTEX
  5
   77B
  8
0
  6
CONTINUOUS
 10
-475.038608703874
 20
-74.4194812394761
 30
0.0
 40
0.0
 41
0.0
  0
VERTEX
  5
   77C
  8
0
  6
CONTINUOUS
 10
-475.150787856537
 20
-74.4387318040217
 30
0.0
 40
0.0
 41
0.0
  0
VERTEX
  5
   77D
  8
0
  6
CONTINUOUS
 10
-475.260391965026
 20
-74.4600901197285
 30
0.0
 40
0.0
 41
0.0
  0
VERTEX
  5
   77E
  8
0
  6
CONTINUOUS
 10
-475.367156983444
 20
-74.4835047325431
 30
0.0
 40
0.0
 41
0.0
  0
VERTEX
  5
   77F
  8
0
  6
CONTINUOUS
 10
-475.47082570551
 20
-74.5089192346124
 30
0.0
 40
0.0
 41
0.0
  0
VERTEX
  5
   780
  8
0
  6
CONTINUOUS
 10
-475.571148384192
 20
-74.5362724001749
 30
0.0
 40
0.0
 41
0.0
  0
VERTEX
  5
   781
  8
0
  6
CONTINUOUS
 10
-475.66788333337
 20
-74.5654983330589
 30
0.0
 40
0.0
 41
0.0
  0
VERTEX
  5
   782
  8
0
  6
CONTINUOUS
 10
-475.760797510079
 20
-74.5965266254321
 30
0.0
 40
0.0
 41
0.0
  0
VERTEX
  5
   783
  8
0
  6
CONTINUOUS
 10
-475.849667075927
 20
-74.6292825274205
 30
0.0
 40
0.0
 41
0.0
  0
VERTEX
  5
   784
  8
0
  6
CONTINUOUS
 10
-475.934277936349
 20
-74.6636871271872
 30
0.0
 40
0.0
 41
0.0
  0
VERTEX
  5
   785
  8
0
  6
CONTINUOUS
 10
-476.014426256368
 20
-74.6996575410377
 30
0.0
 40
0.0
 41
0.0
  0
VERTEX
  5
   786
  8
0
  6
CONTINUOUS
 10
-476.089918951663
 20
-74.7371071130946
 30
0.0
 40
0.0
 41
0.0
  0
VERTEX
  5
   787
  8
0
  6
CONTINUOUS
 10
-476.160574153717
 20
-74.7759456240585
 30
0.0
 40
0.0
 41
0.0
  0
VERTEX
  5
   788
  8
0
  6
CONTINUOUS
 10
-476.226221647962
 20
-74.8160795085546
 30
0.0
 40
0.0
 41
0.0
  0
VERTEX
  5
   789
  8
0
  6
CONTINUOUS
 10
-476.286703283832
 20
-74.8574120805399
 30
0.0
 40
0.0
 41
0.0
  0
VERTEX
  5
   78A
  8
0
  6
CONTINUOUS
 10
-476.31496087595
 20
-74.878496863821
 30
0.0
 40
0.0
 41
0.0
  0
VERTEX
  5
   78B
  8
0
  6
CONTINUOUS
 10
-476.341873355769
 20
-74.8998437662281
 30
0.0
 40
0.0
 41
0.0
  0
VERTEX
  5
   78C
  8
0
  6
CONTINUOUS
 10
-476.36742451222
 20
-74.9214399291855
 30
0.0
 40
0.0
 41
0.0
  0
VERTEX
  5
   78D
  8
0
  6
CONTINUOUS
 10
-476.391598954239
 20
-74.943272343972
 30
0.0
 40
0.0
 41
0.0
  0
VERTEX
  5
   78E
  8
0
  6
CONTINUOUS
 10
-476.414382120048
 20
-74.9653278595573
 30
0.0
 40
0.0
 41
0.0
  0
VERTEX
  5
   78F
  8
0
  6
CONTINUOUS
 10
-476.435760285918
 20
-74.9875931905237
 30
0.0
 40
0.0
 41
0.0
  0
VERTEX
  5
   790
  8
0
  6
CONTINUOUS
 10
-476.455720574443
 20
-75.0100549250682
 30
0.0
 40
0.0
 41
0.0
  0
VERTEX
  5
   791
  8
0
  6
CONTINUOUS
 10
-476.474250962291
 20
-75.0326995330819
 30
0.0
 40
0.0
 41
0.0
  0
VERTEX
  5
   792
  8
0
  6
CONTINUOUS
 10
-476.491340287449
 20
-75.0555133742996
 30
0.0
 40
0.0
 41
0.0
  0
VERTEX
  5
   793
  8
0
  6
CONTINUOUS
 10
-476.506978255947
 20
-75.0784827065166
 30
0.0
 40
0.0
 41
0.0
  0
VERTEX
  5
   794
  8
0
  6
CONTINUOUS
 10
-476.521155448057
 20
-75.1015936938658
 30
0.0
 40
0.0
 41
0.0
  0
VERTEX
  5
   795
  8
0
  6
CONTINUOUS
 10
-476.533863323969
 20
-75.1248324151527
 30
0.0
 40
0.0
 41
0.0
  0
VERTEX
  5
   796
  8
0
  6
CONTINUOUS
 10
-476.545094228933
 20
-75.1481848722406
 30
0.0
 40
0.0
 41
0.0
  0
VERTEX
  5
   797
  8
0
  6
CONTINUOUS
 10
-476.554841397872
 20
-75.1716369984825
 30
0.0
 40
0.0
 41
0.0
  0
VERTEX
  5
   798
  8
0
  6
CONTINUOUS
 10
-476.563098959457
 20
-75.1951746671944
 30
0.0
 40
0.0
 41
0.0
  0
VERTEX
  5
   799
  8
0
  6
CONTINUOUS
 10
-476.569861939641
 20
-75.218783700165
 30
0.0
 40
0.0
 41
0.0
  0
VERTEX
  5
   79A
  8
0
  6
CONTINUOUS
 10
-476.575126264657
 20
-75.2424498761955
 30
0.0
 40
0.0
 41
0.0
  0
VERTEX
  5
   79B
  8
0
  6
CONTINUOUS
 10
-476.578888763473
 20
-75.2661589396664
 30
0.0
 40
0.0
 41
0.0
  0
VERTEX
  5
   79C
  8
0
  6
CONTINUOUS
 10
-476.581147169701
 20
-75.2898966091245
 30
0.0
 40
0.0
 41
0.0
  0
VERTEX
  5
   79D
  8
0
  6
CONTINUOUS
 10
-476.58190012296
 20
-75.3136485858852
 30
0.0
 40
0.0
 41
0.0
  0
SEQEND
  5
   79E
  8
0
  6
CONTINUOUS
 62
   218
  0
ARC
  5
   79F
  8
0
  6
CONTINUOUS
 62
     7
 10
-484.306054579813
 20
-37.9678829410845
 30
0.0
 40
1.15
 50
149.999999948034
 51
209.999999948034
  0
LINE
  5
   7A0
  8
0
  6
CONTINUOUS
 62
     7
 10
-485.301983794165
 20
-37.3928829410845
 30
0.0
 11
-483.324559122191
 21
-33.9678829410845
 31
0.0
  0
LINE
  5
   7A1
  8
0
  6
CONTINUOUS
 62
     7
 10
-483.324559122191
 20
-41.9678829410845
 30
0.0
 11
-485.301983794165
 21
-38.5428829410845
 31
0.0
  0
LINE
  5
   7A2
  8
0
  6
CONTINUOUS
 62
     7
 10
-483.324559122191
 20
-41.9678829410842
 30
0.0
 11
-483.324559122191
 21
-33.9678829410842
 31
0.0
  0
LINE
  5
   7A3
  8
0
  6
CONTINUOUS
 62
     7
 10
-483.706599989732
 20
-34.6295971342336
 30
0.0
 11
-483.706599989732
 21
-32.4687827730351
 31
0.0
  0
LINE
  5
   7A4
  8
0
  6
CONTINUOUS
 62
     7
 10
-482.081000480254
 20
-34.3678829410844
 30
0.0
 11
-482.081000480254
 21
-32.4687827730351
 31
0.0
  0
LINE
  5
   7A5
  8
0
  6
CONTINUOUS
 62
   218
 10
-484.093841822547
 20
-35.3003196634845
 30
0.0
 11
-483.706599989732
 21
-33.1041620972478
 31
0.0
  0
LINE
  5
   7A6
  8
0
  6
CONTINUOUS
 62
   218
 10
-485.190268472608
 20
-37.1993863281629
 30
0.0
 11
-484.433347381141
 21
-32.9066735032418
 31
0.0
  0
LINE
  5
   7A7
  8
0
  6
CONTINUOUS
 62
     7
 10
-472.146957243585
 20
-59.067890570479
 30
0.0
 11
-472.146957243585
 21
-51.067890570479
 31
0.0
  0
LINE
  5
   7A8
  8
0
  6
CONTINUOUS
 62
     7
 10
-474.12438191556
 20
-54.492890570479
 30
0.0
 11
-472.146957243585
 21
-51.0678905704789
 31
0.0
  0
ARC
  5
   7A9
  8
0
  6
CONTINUOUS
 62
     7
 10
-473.128452701208
 20
-55.067890570479
 30
0.0
 40
1.15
 50
149.999999948034
 51
209.999999948034
  0
LINE
  5
   7AA
  8
0
  6
CONTINUOUS
 62
     7
 10
-472.146957243585
 20
-59.0678905704789
 30
0.0
 11
-474.12438191556
 21
-55.642890570479
 31
0.0
  0
LINE
  5
   7AB
  8
0
  6
CONTINUOUS
 62
     7
 10
-472.708400032123
 20
-52.0403380057691
 30
0.0
 11
-472.708400032123
 21
-49.4613835239583
 31
0.0
  0
LINE
  5
   7AC
  8
0
  6
CONTINUOUS
 62
     7
 10
-470.333499731602
 20
-51.467890570479
 30
0.0
 11
-470.333499731602
 21
-49.4613835239583
 31
0.0
  0
INSERT
  5
   7AD
  8
0
  6
CONTINUOUS
 62
     7
  2
*HATCH66
 10
-507.331787109375
 20
-37.5863952636719
 30
0.0
 41
0.5
 42
0.5
 50
89.9999999480344
 43
0.5
  0
INSERT
  5
   7AE
  8
0
  6
CONTINUOUS
 62
     7
  2
*HATCH67
 10
-507.331787109375
 20
-37.5863952636719
 30
0.0
 41
0.5
 42
0.5
 50
89.9999999480344
 43
0.5
  0
INSERT
  5
   7AF
  8
0
  6
CONTINUOUS
 62
     7
  2
*HATCH68
 10
-507.331787109375
 20
-37.5863952636719
 30
0.0
 41
0.5
 42
0.5
 50
89.9999999480344
 43
0.5
  0
INSERT
  5
   7B0
  8
0
  6
CONTINUOUS
 62
     7
  2
*HATCH69
 10
-507.331787109375
 20
-37.5863952636719
 30
0.0
 41
0.5
 42
0.5
 50
89.9999999480344
 43
0.5
  0
INSERT
  5
   7B1
  8
0
  6
CONTINUOUS
 62
     7
  2
*HATCH70
 10
-507.331787109375
 20
-37.5863952636719
 30
0.0
 41
0.5
 42
0.5
 50
89.9999999480344
 43
0.5
  0
LINE
  5
   7B2
  8
0
  6
DASHDOT
 62
     7
 10
-476.58190012296
 20
-79.4345244781505
 30
0.0
 11
-476.58190012296
 21
-48.6155711831485
 31
0.0
  0
LINE
  5
   7B3
  8
0
  6
CONTINUOUS
 62
   218
 10
-480.455400213798
 20
-58.8677207620253
 30
0.0
 11
-478.866025194879
 21
-49.8539271126767
 31
0.0
  0
LINE
  5
   7B4
  8
0
  6
CONTINUOUS
 62
   218
 10
-480.455400213798
 20
-54.5486428996675
 30
0.0
 11
-479.627595153793
 21
-49.8539271126767
 31
0.0
  0
LINE
  5
   7B5
  8
0
  6
CONTINUOUS
 62
   218
 10
-480.455400213798
 20
-50.2295650373098
 30
0.0
 11
-480.389165112708
 21
-49.8539271126767
 31
0.0
  0
LINE
  5
   7B6
  8
0
  6
CONTINUOUS
 62
   218
 10
-473.35710929136
 20
-53.1639354021082
 30
0.0
 11
-472.708400032123
 21
-49.4849223739787
 31
0.0
  0
INSERT
  5
   7B7
  8
0
  6
CONTINUOUS
 62
     7
  2
*HATCH71
 10
-507.331787109375
 20
-37.5863952636719
 30
0.0
 41
0.5
 42
0.5
 50
89.9999999480344
 43
0.5
  0
INSERT
  5
   7B8
  8
0
  6
CONTINUOUS
 62
     7
  2
*HATCH72
 10
-507.331787109375
 20
-37.5863952636719
 30
0.0
 41
0.5
 42
0.5
 50
89.9999999480344
 43
0.5
  0
INSERT
  5
   7B9
  8
0
  6
CONTINUOUS
 62
     7
  2
*HATCH73
 10
-507.331787109375
 20
-37.5863952636719
 30
0.0
 41
0.5
 42
0.5
 50
89.9999999480344
 43
0.5
  0
LINE
  5
   7BA
  8
0
  6
CONTINUOUS
 62
   218
 10
-482.1981722391
 20
65.7588632174904
 30
0.0
 11
-481.541306761528
 21
68.2103185535274
 31
0.0
  0
LINE
  5
   7BB
  8
0
  6
CONTINUOUS
 62
   218
 10
-481.421715103793
 20
65.7588632174904
 30
0.0
 11
-481.081799731602
 21
67.0274446567799
 31
0.0
  0
LINE
  5
   7BC
  8
0
  6
CONTINUOUS
 62
   218
 10
-481.617234574518
 20
73.7225070554767
 30
0.0
 11
-481.081799731602
 21
75.7207770933815
 31
0.0
  0
INSERT
  5
   7BD
  8
0
  6
CONTINUOUS
 62
     7
  2
*UDIM218
 10
0.0
 20
0.0
 30
0.0
  0
INSERT
  5
   7BE
  8
0
  6
CONTINUOUS
 62
     7
  2
*UDIM219
 10
0.0
 20
0.0
 30
0.0
  0
INSERT
  5
   7BF
  8
0
  6
CONTINUOUS
 62
     7
  2
*UDIM220
 10
0.0
 20
0.0
 30
0.0
  0
INSERT
  5
   7C0
  8
0
  6
CONTINUOUS
 62
     7
  2
*UDIM221
 10
0.0
 20
0.0
 30
0.0
  0
INSERT
  5
   7C1
  8
0
  6
CONTINUOUS
 62
     7
  2
*UDIM222
 10
0.0
 20
0.0
 30
0.0
  0
INSERT
  5
   7C2
  8
0
  6
CONTINUOUS
 62
     7
  2
*UDIM223
 10
0.0
 20
0.0
 30
0.0
  0
TEXT
  5
   7C3
  8
0
  6
CONTINUOUS
 62
     5
 10
-423.660766616258
 20
-1.15362356788673
 30
0.0
 40
3.00000002980232
  1
=          =
 50
89.9999999480344
 41
0.916666604744064
 72
     2
 11
-423.660766586867
 21
31.2963745580439
 31
0.0
  0
INSERT
  5
   7C4
  8
0
  6
CONTINUOUS
 62
     7
  2
*UDIM224
 10
0.0
 20
0.0
 30
0.0
  0
INSERT
  5
   7C5
  8
0
  6
CONTINUOUS
 62
     7
  2
*UDIM225
 10
0.0
 20
0.0
 30
0.0
  0
INSERT
  5
   7C6
  8
0
  6
CONTINUOUS
 62
     7
  2
*UDIM226
 10
0.0
 20
0.0
 30
0.0
  0
INSERT
  5
   7C7
  8
0
  6
CONTINUOUS
 62
     7
  2
*UDIM227
 10
0.0
 20
0.0
 30
0.0
  0
INSERT
  5
   7C8
  8
0
  6
CONTINUOUS
 62
     7
  2
*UDIM228
 10
0.0
 20
0.0
 30
0.0
  0
INSERT
  5
   7C9
  8
0
  6
CONTINUOUS
 62
     7
  2
*UDIM229
 10
0.0
 20
0.0
 30
0.0
  0
INSERT
  5
   7CA
  8
0
  6
CONTINUOUS
 62
     7
  2
*UDIM230
 10
0.0
 20
0.0
 30
0.0
  0
INSERT
  5
   7CB
  8
0
  6
CONTINUOUS
 62
     7
  2
*UDIM231
 10
0.0
 20
0.0
 30
0.0
  0
INSERT
  5
   7CC
  8
0
  6
CONTINUOUS
 62
     7
  2
*UDIM232
 10
0.0
 20
0.0
 30
0.0
  0
TEXT
  5
   7CD
  8
0
  6
CONTINUOUS
 62
     7
 10
-420.145667941731
 20
16.1870045966879
 30
0.0
 40
3.00000002980232
  1
X
 50
359.999999948034
 41
0.916666604744064
 72
     1
 11
-419.045668005943
 21
17.687004610597
 31
0.0
 73
     2
  0
LINE
  5
   7CE
  8
0
  6
CONTINUOUS
 62
     7
 10
-622.713242067817
 20
80.0321426391602
 30
0.0
 11
-644.150718688965
 21
80.0321426391602
 31
0.0
  0
LINE
  5
   7CF
  8
0
  6
CONTINUOUS
 62
     7
 10
-577.650726318359
 20
80.0321426391602
 30
0.0
 11
-599.088242067817
 21
80.0321426391602
 31
0.0
  0
LINE
  5
   7D0
  8
0
  6
CONTINUOUS
 62
     7
 10
-575.900726318359
 20
68.0321502685547
 30
0.0
 11
-575.900726318359
 21
78.6321426391602
 31
0.0
  0
LINE
  5
   7D1
  8
0
  6
CONTINUOUS
 62
     7
 10
-645.900718691069
 20
68.0321502685547
 30
0.0
 11
-645.900718691069
 21
78.6321426391601
 31
0.0
  0
CIRCLE
  5
   7D2
  8
0
  6
CONTINUOUS
 62
     7
 10
-632.775714152356
 20
71.0321696971898
 30
0.0
 40
2.75000604975671
  0
CIRCLE
  5
   7D3
  8
0
  6
CONTINUOUS
 62
     7
 10
-610.900715048424
 20
71.0322052969959
 30
0.0
 40
2.74996219889917
  0
CIRCLE
  5
   7D4
  8
0
  6
CONTINUOUS
 62
     7
 10
-589.025748622765
 20
71.032099881077
 30
0.0
 40
2.75005361163582
  0
ARC
  5
   7D5
  8
0
  6
CONTINUOUS
 62
     7
 10
-644.1507319918
 20
79.5321340896633
 30
0.0
 40
0.499990919521533
 50
449.999429635018
 51
540.000998310938
  0
ARC
  5
   7D6
  8
0
  6
CONTINUOUS
 62
     7
 10
-577.650742094541
 20
79.5321269201795
 30
0.0
 40
0.500011945625467
 50
360.000541447801
 51
449.999463177363
  0
LINE
  5
   7D7
  8
0
  6
CONTINUOUS
 62
     7
 10
-644.650718688965
 20
78.6321426391602
 30
0.0
 11
-645.90071869107
 21
78.6321426391602
 31
0.0
  0
LINE
  5
   7D8
  8
0
  6
CONTINUOUS
 62
     7
 10
-575.900726318359
 20
78.6321426391602
 30
0.0
 11
-577.150726318359
 21
78.6321426391602
 31
0.0
  0
LINE
  5
   7D9
  8
0
  6
CONTINUOUS
 62
     7
 10
-600.838242067817
 20
80.0321426391602
 30
0.0
 11
-620.963242067817
 21
80.0321426391602
 31
0.0
  0
LINE
  5
   7DA
  8
0
  6
CONTINUOUS
 62
     7
 10
-624.463228426355
 20
68.0321502685547
 30
0.0
 11
-644.650718688965
 21
68.0321502685547
 31
0.0
  0
LINE
  5
   7DB
  8
0
  6
CONTINUOUS
 62
     7
 10
-602.588248842301
 20
68.0321502685547
 30
0.0
 11
-619.213228426355
 21
68.0321502685547
 31
0.0
  0
LINE
  5
   7DC
  8
0
  6
CONTINUOUS
 62
     7
 10
-577.150718688965
 20
68.0321502685547
 30
0.0
 11
-597.338248842301
 21
68.0321502685547
 31
0.0
  0
CIRCLE
  5
   7DD
  8
0
  6
CONTINUOUS
 62
     7
 10
-632.775718831358
 20
78.0321478012155
 30
0.0
 40
0.699999510271856
  0
CIRCLE
  5
   7DE
  8
0
  6
CONTINUOUS
 62
     7
 10
-610.900743556774
 20
78.0321463618609
 30
0.0
 40
0.700000602888031
  0
CIRCLE
  5
   7DF
  8
0
  6
CONTINUOUS
 62
     7
 10
-589.025716903708
 20
78.0321563242803
 30
0.0
 40
0.69999790324502
  0
LINE
  5
   7E0
  8
0
  6
CONTINUOUS
 62
     7
 10
-597.338161455786
 20
68.0321503117065
 30
0.0
 11
-597.338207232153
 21
70.0321503117689
 31
0.0
  0
LINE
  5
   7E1
  8
0
  6
CONTINUOUS
 62
     7
 10
-602.588161457161
 20
68.0321503117066
 30
0.0
 11
-602.588207233529
 21
70.0321503117689
 31
0.0
  0
LINE
  5
   7E2
  8
0
  6
CONTINUOUS
 62
     7
 10
-619.213163374641
 20
68.0321502758857
 30
0.0
 11
-619.213182448127
 21
70.0321502760353
 31
0.0
  0
LINE
  5
   7E3
  8
0
  6
CONTINUOUS
 62
     7
 10
-624.46316337488
 20
68.0321502758857
 30
0.0
 11
-624.463182448366
 21
70.0321502760354
 31
0.0
  0
ARC
  5
   7E4
  8
0
  6
CONTINUOUS
 62
     7
 10
-621.838171257355
 20
70.0321845354362
 30
0.0
 40
2.6250366863301
 50
310.367380667564
 51
589.632619228505
  0
ARC
  5
   7E5
  8
0
  6
CONTINUOUS
 62
     7
 10
-599.963232037764
 20
70.0321599148032
 30
0.0
 40
2.62500212995821
 50
310.367323104286
 51
589.632676791782
  0
LINE
  5
   7E6
  8
0
  6
CONTINUOUS
 62
     7
 10
-644.650718688965
 20
68.0321502685547
 30
0.0
 11
-644.650718688965
 21
78.6321426391602
 31
0.0
  0
LINE
  5
   7E7
  8
0
  6
CONTINUOUS
 62
     7
 10
-577.150718688965
 20
68.0321502685547
 30
0.0
 11
-577.150718688965
 21
78.6321426391602
 31
0.0
  0
LINE
  5
   7E8
  8
0
  6
CONTINUOUS
 62
     7
 10
-575.900742067817
 20
-11.7178326416194
 30
0.0
 11
-575.900742067817
 21
-10.7178326416194
 31
0.0
  0
LINE
  5
   7E9
  8
0
  6
CONTINUOUS
 62
     7
 10
-645.900742067817
 20
-11.7178326416194
 30
0.0
 11
-645.900742067817
 21
-10.7178326416194
 31
0.0
  0
LINE
  5
   7EA
  8
0
  6
CONTINUOUS
 62
     7
 10
-575.900742067817
 20
-35.4678326416191
 30
0.0
 11
-575.900742067817
 21
-11.7178326416194
 31
0.0
  0
LINE
  5
   7EB
  8
0
  6
CONTINUOUS
 62
     7
 10
-645.900742067817
 20
-45.5678326654612
 30
0.0
 11
-645.900742067817
 21
-11.7178341913402
 31
0.0
  0
LINE
  5
   7EC
  8
0
  6
CONTINUOUS
 62
     7
 10
-644.650742067817
 20
-45.5678326654613
 30
0.0
 11
-645.900742067817
 21
-45.5678326654613
 31
0.0
  0
LINE
  5
   7ED
  8
0
  6
CONTINUOUS
 62
     7
 10
-644.650742067817
 20
-46.4678326416194
 30
0.0
 11
-644.650742067817
 21
-45.5678326654612
 31
0.0
  0
LINE
  5
   7EE
  8
0
  6
CONTINUOUS
 62
     7
 10
-625.160744227021
 20
-46.9678326416193
 30
0.0
 11
-644.150742067817
 21
-46.9678326416193
 31
0.0
  0
LINE
  5
   7EF
  8
0
  6
CONTINUOUS
 62
     1
 10
-644.650742067817
 20
-45.5678326654612
 30
0.0
 11
-644.650742067817
 21
-34.9678322839915
 31
0.0
  0
LINE
  5
   7F0
  8
0
  6
CONTINUOUS
 62
     1
 10
-624.463242067817
 20
-34.9678326416194
 30
0.0
 11
-644.650742067817
 21
-34.9678326416194
 31
0.0
  0
LINE
  5
   7F1
  8
0
  6
CONTINUOUS
 62
     1
 10
-602.588242067817
 20
-34.9678326416194
 30
0.0
 11
-619.213242067817
 21
-34.9678326416194
 31
0.0
  0
LINE
  5
   7F2
  8
0
  6
CONTINUOUS
 62
     1
 10
-577.150742067817
 20
-34.9678326416194
 30
0.0
 11
-597.338242067817
 21
-34.9678326416194
 31
0.0
  0
CIRCLE
  5
   7F3
  8
0
  6
CONTINUOUS
 62
     1
 10
-632.775742450662
 20
-44.9678332384224
 30
0.0
 40
0.700000042083871
  0
CIRCLE
  5
   7F4
  8
0
  6
CONTINUOUS
 62
     1
 10
-632.775741948276
 20
-37.9678327578768
 30
0.0
 40
2.75000015959725
  0
LINE
  5
   7F5
  8
0
  6
DASHDOT
 62
     7
 10
-596.588257581412
 20
-8.71779038263653
 30
0.0
 11
-603.338127840566
 21
-8.71779038263653
 31
0.0
  0
LINE
  5
   7F6
  8
0
  6
DASHDOT
 62
     7
 10
-610.900742263444
 20
-48.8273697840528
 30
0.0
 11
-610.900742263444
 21
-9.31238809258049
 31
0.0
  0
ARC
  5
   7F7
  8
0
  6
CONTINUOUS
 62
     7
 10
-644.150742245054
 20
-46.4678327049573
 30
0.0
 40
0.499999889965255
 50
179.99999084272
 51
269.999993044176
  0
LINE
  5
   7F8
  8
0
  6
CONTINUOUS
 62
     1
 10
-575.900742263443
 20
43.9071578979492
 30
0.0
 11
-575.900742263443
 21
68.0321502685547
 31
0.0
  0
LINE
  5
   7F9
  8
0
  6
CONTINUOUS
 62
     1
 10
-575.900742263443
 20
-16.2178497612476
 30
0.0
 11
-575.900742263443
 21
-8.59284210205078
 31
0.0
  0
LINE
  5
   7FA
  8
0
  6
CONTINUOUS
 62
     1
 10
-645.900742263443
 20
-16.2178497612476
 30
0.0
 11
-645.900742263443
 21
-8.59285736083982
 31
0.0
  0
LINE
  5
   7FB
  8
0
  6
CONTINUOUS
 62
     1
 10
-645.900742263443
 20
43.9071426391602
 30
0.0
 11
-645.900742263443
 21
68.0321502685547
 31
0.0
  0
LINE
  5
   7FC
  8
0
  6
CONTINUOUS
 62
     1
 10
-575.900742263443
 20
68.0321502685547
 30
0.0
 11
-645.900742263443
 21
68.0321502685547
 31
0.0
  0
LINE
  5
   7FD
  8
0
  6
CONTINUOUS
 62
     1
 10
-640.150742263443
 20
-16.7178497314453
 30
0.0
 11
-645.400734634049
 21
-16.7178497314453
 31
0.0
  0
LINE
  5
   7FE
  8
0
  6
CONTINUOUS
 62
     1
 10
-645.900742263443
 20
-8.5928497314453
 30
0.0
 11
-645.900742263443
 21
43.9071502685547
 31
0.0
  0
LINE
  5
   7FF
  8
0
  6
CONTINUOUS
 62
     1
 10
-575.900742263443
 20
-8.59284973144532
 30
0.0
 11
-575.900742263443
 21
43.9071502685547
 31
0.0
  0
LINE
  5
   800
  8
0
  6
DASHDOT
 62
     1
 10
-610.900742263443
 20
-20.0464242954722
 30
0.0
 11
-610.900742263443
 21
70.963551055456
 31
0.0
  0
ARC
  5
   801
  8
0
  6
CONTINUOUS
 62
     1
 10
-576.150742263443
 20
-8.34284973144531
 30
0.0
 40
0.25
 50
269.999999948034
 51
359.999999948034
  0
ARC
  5
   802
  8
0
  6
CONTINUOUS
 62
     1
 10
-645.650742263443
 20
-8.34284973144531
 30
0.0
 40
0.25
 50
179.999999948034
 51
269.999999948034
  0
LINE
  5
   803
  8
0
  6
CONTINUOUS
 62
     1
 10
-575.900742263443
 20
-16.2178497612476
 30
0.0
 11
-581.650742263443
 21
-16.2178497612476
 31
0.0
  0
LINE
  5
   804
  8
0
  6
CONTINUOUS
 62
     1
 10
-640.150742263443
 20
-16.2178497612476
 30
0.0
 11
-645.900742263443
 21
-16.2178497612476
 31
0.0
  0
LINE
  5
   805
  8
0
  6
CONTINUOUS
 62
     1
 10
-576.400749892838
 20
-16.7178497314455
 30
0.0
 11
-576.400749892838
 21
-16.2178497612478
 31
0.0
  0
LINE
  5
   806
  8
0
  6
CONTINUOUS
 62
     1
 10
-645.400734634049
 20
-16.7178497314455
 30
0.0
 11
-645.400734634049
 21
-16.2178497612478
 31
0.0
  0
LINE
  5
   807
  8
0
  6
CONTINUOUS
 62
     1
 10
-640.275734634049
 20
-8.59285736083984
 30
0.0
 11
-640.275734634049
 21
43.9071426391602
 31
0.0
  0
LINE
  5
   808
  8
0
  6
CONTINUOUS
 62
     1
 10
-644.775734634049
 20
-8.59284973144531
 30
0.0
 11
-644.775734634049
 21
43.9071426391602
 31
0.0
  0
LINE
  5
   809
  8
0
  6
CONTINUOUS
 62
     1
 10
-643.625740737565
 20
-8.59285736083984
 30
0.0
 11
-643.625740737565
 21
43.9071426391602
 31
0.0
  0
LINE
  5
   80A
  8
0
  6
CONTINUOUS
 62
     1
 10
-642.075737685807
 20
-8.59285736083984
 30
0.0
 11
-642.075737685807
 21
43.9071426391602
 31
0.0
  0
LINE
  5
   80B
  8
0
  6
CONTINUOUS
 62
     1
 10
-640.275734634049
 20
43.9071426391602
 30
0.0
 11
-640.275734634049
 21
68.0321426391602
 31
0.0
  0
LINE
  5
   80C
  8
0
  6
CONTINUOUS
 62
     1
 10
-638.475739211686
 20
57.6571502685547
 30
0.0
 11
-638.475739211686
 21
68.0321426391602
 31
0.0
  0
LINE
  5
   80D
  8
0
  6
CONTINUOUS
 62
     1
 10
-644.775734634049
 20
43.9071426391602
 30
0.0
 11
-644.775734634049
 21
68.0321426391602
 31
0.0
  0
LINE
  5
   80E
  8
0
  6
CONTINUOUS
 62
     1
 10
-643.625740737565
 20
43.9071426391602
 30
0.0
 11
-643.625740737565
 21
68.0321426391602
 31
0.0
  0
LINE
  5
   80F
  8
0
  6
CONTINUOUS
 62
     1
 10
-642.075737685807
 20
43.9071426391602
 30
0.0
 11
-642.075737685807
 21
68.0321426391602
 31
0.0
  0
LINE
  5
   810
  8
0
  6
CONTINUOUS
 62
     1
 10
-637.325737685807
 20
57.6571502685547
 30
0.0
 11
-637.325737685807
 21
68.0321426391602
 31
0.0
  0
LINE
  5
   811
  8
0
  6
CONTINUOUS
 62
     1
 10
-640.275734634049
 20
-16.2178497612476
 30
0.0
 11
-640.275734634049
 21
-8.59284928441047
 31
0.0
  0
LINE
  5
   812
  8
0
  6
CONTINUOUS
 62
     1
 10
-644.775734634049
 20
-16.2178497612476
 30
0.0
 11
-644.775734634049
 21
-8.59284928441047
 31
0.0
  0
LINE
  5
   813
  8
0
  6
CONTINUOUS
 62
     1
 10
-643.625740737565
 20
-16.2178497612476
 30
0.0
 11
-643.625740737565
 21
-8.59284928441047
 31
0.0
  0
LINE
  5
   814
  8
0
  6
CONTINUOUS
 62
     1
 10
-642.075737685807
 20
-16.2178497612476
 30
0.0
 11
-642.075737685807
 21
-8.59284928441047
 31
0.0
  0
LINE
  5
   815
  8
0
  6
CONTINUOUS
 62
     1
 10
-577.025749892838
 20
-8.59284973144532
 30
0.0
 11
-577.025749892838
 21
43.9071426391601
 31
0.0
  0
LINE
  5
   816
  8
0
  6
CONTINUOUS
 62
     1
 10
-578.175743789322
 20
-8.59285736083985
 30
0.0
 11
-578.175743789322
 21
43.9071426391601
 31
0.0
  0
LINE
  5
   817
  8
0
  6
CONTINUOUS
 62
     1
 10
-579.97574684108
 20
-8.59285736083985
 30
0.0
 11
-579.97574684108
 21
43.9071426391601
 31
0.0
  0
LINE
  5
   818
  8
0
  6
CONTINUOUS
 62
     1
 10
-581.775749892838
 20
57.4071604408652
 30
0.0
 11
-581.775749892838
 21
68.0321426391601
 31
0.0
  0
LINE
  5
   819
  8
0
  6
CONTINUOUS
 62
     1
 10
-583.575745315201
 20
57.6571502685547
 30
0.0
 11
-583.575745315201
 21
68.0321426391601
 31
0.0
  0
LINE
  5
   81A
  8
0
  6
CONTINUOUS
 62
     1
 10
-577.025749892838
 20
43.9071426391601
 30
0.0
 11
-577.025749892838
 21
68.0321426391601
 31
0.0
  0
LINE
  5
   81B
  8
0
  6
CONTINUOUS
 62
     1
 10
-578.175743789322
 20
43.9071426391601
 30
0.0
 11
-578.175743789322
 21
68.0321426391601
 31
0.0
  0
LINE
  5
   81C
  8
0
  6
CONTINUOUS
 62
     1
 10
-579.97574684108
 20
43.9071426391601
 30
0.0
 11
-579.97574684108
 21
68.0321426391601
 31
0.0
  0
LINE
  5
   81D
  8
0
  6
CONTINUOUS
 62
     1
 10
-584.47574684108
 20
57.6571502685547
 30
0.0
 11
-584.47574684108
 21
68.0321426391601
 31
0.0
  0
LINE
  5
   81E
  8
0
  6
CONTINUOUS
 62
     1
 10
-577.025749892838
 20
-16.2178497612476
 30
0.0
 11
-577.025749892838
 21
-8.59284928441048
 31
0.0
  0
LINE
  5
   81F
  8
0
  6
CONTINUOUS
 62
     1
 10
-578.175743789322
 20
-16.2178497612476
 30
0.0
 11
-578.175743789322
 21
-8.59284928441048
 31
0.0
  0
LINE
  5
   820
  8
0
  6
CONTINUOUS
 62
     1
 10
-579.97574684108
 20
-16.2178497612476
 30
0.0
 11
-579.97574684108
 21
-8.59284928441048
 31
0.0
  0
LINE
  5
   821
  8
0
  6
CONTINUOUS
 62
     1
 10
-636.400742263443
 20
57.6571502685547
 30
0.0
 11
-636.400742263443
 21
65.5321502685547
 31
0.0
  0
LINE
  5
   822
  8
0
  6
CONTINUOUS
 62
     1
 10
-585.400742263443
 20
57.6571502685547
 30
0.0
 11
-585.400742263443
 21
65.5321502685547
 31
0.0
  0
LINE
  5
   823
  8
0
  6
CONTINUOUS
 62
     1
 10
-585.400742263443
 20
65.5321502685547
 30
0.0
 11
-636.400742263443
 21
65.5321502685547
 31
0.0
  0
LINE
  5
   824
  8
0
  6
CONTINUOUS
 62
     3
 10
-624.650749892838
 20
-8.84284973144531
 30
0.0
 11
-629.650742263443
 21
-8.84284973144531
 31
0.0
  0
LINE
  5
   825
  8
0
  6
CONTINUOUS
 62
     3
 10
-592.150757522232
 20
-8.84284973144531
 30
0.0
 11
-597.150757522232
 21
-8.84284973144531
 31
0.0
  0
LINE
  5
   826
  8
0
  6
CONTINUOUS
 62
     3
 10
-584.650742263443
 20
-8.59284973144531
 30
0.0
 11
-584.650742263443
 21
0.407142639160156
 31
0.0
  0
LINE
  5
   827
  8
0
  6
CONTINUOUS
 62
     3
 10
-637.150742263443
 20
-8.59284973144531
 30
0.0
 11
-637.150742263443
 21
0.407142639160156
 31
0.0
  0
LINE
  5
   828
  8
0
  6
CONTINUOUS
 62
     3
 10
-584.900742263443
 20
43.6571502685547
 30
0.0
 11
-636.90074226343
 21
43.6571502685547
 31
0.0
  0
LINE
  5
   829
  8
0
  6
CONTINUOUS
 62
     3
 10
-629.650742263443
 20
-8.84284973144531
 30
0.0
 11
-636.900742263443
 21
-8.84284973144531
 31
0.0
  0
LINE
  5
   82A
  8
0
  6
CONTINUOUS
 62
     3
 10
-597.150757522232
 20
-8.84284973144531
 30
0.0
 11
-624.650749892838
 21
-8.84284973144531
 31
0.0
  0
LINE
  5
   82B
  8
0
  6
CONTINUOUS
 62
     3
 10
-584.900742263443
 20
-8.84284973144531
 30
0.0
 11
-592.150757522232
 21
-8.84284973144531
 31
0.0
  0
LINE
  5
   82C
  8
0
  6
CONTINUOUS
 62
     3
 10
-605.525742263443
 20
2.28214263916016
 30
0.0
 11
-605.525742263443
 21
22.2821350097656
 31
0.0
  0
LINE
  5
   82D
  8
0
  6
CONTINUOUS
 62
     3
 10
-616.275742263443
 20
2.28214263916016
 30
0.0
 11
-616.275742263443
 21
22.2821350097656
 31
0.0
  0
LINE
  5
   82E
  8
0
  6
CONTINUOUS
 62
     1
 10
-584.650742263443
 20
37.9071350097656
 30
0.0
 11
-637.150742263443
 21
37.9071350097656
 31
0.0
  0
LINE
  5
   82F
  8
0
  6
CONTINUOUS
 62
     1
 10
-584.650742263443
 20
42.9071350097656
 30
0.0
 11
-637.150742263443
 21
42.9071350097656
 31
0.0
  0
LINE
  5
   830
  8
0
  6
CONTINUOUS
 62
     3
 10
-605.525742263443
 20
22.14990234375
 30
0.0
 11
-616.275742263443
 21
22.14990234375
 31
0.0
  0
LINE
  5
   831
  8
0
  6
CONTINUOUS
 62
     3
 10
-605.525742263443
 20
22.2821350097656
 30
0.0
 11
-616.275742263443
 21
22.2821350097656
 31
0.0
  0
LINE
  5
   832
  8
0
  6
CONTINUOUS
 62
     3
 10
-605.525742263443
 20
2.28214263916016
 30
0.0
 11
-616.275742263443
 21
2.28214263916016
 31
0.0
  0
LINE
  5
   833
  8
0
  6
CONTINUOUS
 62
     3
 10
-605.525742263443
 20
2.41439056396484
 30
0.0
 11
-616.275742263443
 21
2.41439056396484
 31
0.0
  0
LINE
  5
   834
  8
0
  6
DASHDOT
 62
     3
 10
-610.900742263443
 20
-10.4694906711247
 30
0.0
 11
-610.900742263443
 21
32.7583524123997
 31
0.0
  0
LINE
  5
   835
  8
0
  6
DASHDOT
 62
     3
 10
-610.900742263443
 20
32.3719860561401
 30
0.0
 11
-610.900742263443
 21
49.1250622605168
 31
0.0
  0
LINE
  5
   836
  8
0
  6
CONTINUOUS
 62
     3
 10
-584.650749892838
 20
0.907142639160156
 30
0.0
 11
-584.650749892838
 21
6.90713866254091
 31
0.0
  0
LINE
  5
   837
  8
0
  6
CONTINUOUS
 62
     3
 10
-584.650749892838
 20
24.1571426391602
 30
0.0
 11
-584.650749892838
 21
43.4071502685547
 31
0.0
  0
LINE
  5
   838
  8
0
  6
CONTINUOUS
 62
     3
 10
-584.650749892838
 20
7.40713866254094
 30
0.0
 11
-584.650749892838
 21
17.1571426391602
 31
0.0
  0
LINE
  5
   839
  8
0
  6
CONTINUOUS
 62
     3
 10
-584.650749892838
 20
17.6571426391602
 30
0.0
 11
-584.650749892838
 21
23.6571426391602
 31
0.0
  0
LINE
  5
   83A
  8
0
  6
CONTINUOUS
 62
     3
 10
-637.150742263446
 20
0.907142639160156
 30
0.0
 11
-637.150742263446
 21
6.90714263916124
 31
0.0
  0
LINE
  5
   83B
  8
0
  6
CONTINUOUS
 62
     3
 10
-637.150742263455
 20
7.40714263916128
 30
0.0
 11
-637.150742263455
 21
17.1571426391602
 31
0.0
  0
LINE
  5
   83C
  8
0
  6
CONTINUOUS
 62
     3
 10
-637.150742263441
 20
17.6571426391602
 30
0.0
 11
-637.150742263441
 21
23.6571426391602
 31
0.0
  0
LINE
  5
   83D
  8
0
  6
CONTINUOUS
 62
     3
 10
-637.150742263429
 20
24.1571426391602
 30
0.0
 11
-637.150742263429
 21
43.4071502685547
 31
0.0
  0
LINE
  5
   83E
  8
0
  6
CONTINUOUS
 62
     1
 10
-616.275746250306
 20
7.15715225687228
 30
0.0
 11
-636.650742293246
 21
7.15715225687228
 31
0.0
  0
LINE
  5
   83F
  8
0
  6
CONTINUOUS
 62
     3
 10
-584.650749892838
 20
6.90714828024915
 30
0.0
 11
-585.150749892838
 21
6.90714828024915
 31
0.0
  0
LINE
  5
   840
  8
0
  6
CONTINUOUS
 62
     1
 10
-616.27575602985
 20
7.65715225687523
 30
0.0
 11
-636.650742293246
 21
7.65715225687523
 31
0.0
  0
LINE
  5
   841
  8
0
  6
CONTINUOUS
 62
     3
 10
-584.650749892838
 20
7.4071482802491
 30
0.0
 11
-585.150749892838
 21
7.4071482802491
 31
0.0
  0
LINE
  5
   842
  8
0
  6
CONTINUOUS
 62
     3
 10
-636.650742293246
 20
6.90714263916016
 30
0.0
 11
-636.650742293246
 21
7.40714263916016
 31
0.0
  0
LINE
  5
   843
  8
0
  6
CONTINUOUS
 62
     3
 10
-585.150749892838
 20
6.90714263916016
 30
0.0
 11
-585.150749892838
 21
7.40714263916016
 31
0.0
  0
LINE
  5
   844
  8
0
  6
CONTINUOUS
 62
     3
 10
-584.650742263443
 20
0.407142639160156
 30
0.0
 11
-585.150749892838
 21
0.407142639160156
 31
0.0
  0
LINE
  5
   845
  8
0
  6
CONTINUOUS
 62
     3
 10
-584.650749892838
 20
0.907142639160156
 30
0.0
 11
-585.150749892838
 21
0.907142639160156
 31
0.0
  0
LINE
  5
   846
  8
0
  6
CONTINUOUS
 62
     3
 10
-636.650742293246
 20
0.407142639160156
 30
0.0
 11
-636.650742293246
 21
0.907142639160156
 31
0.0
  0
LINE
  5
   847
  8
0
  6
CONTINUOUS
 62
     3
 10
-585.150749892838
 20
0.407142639160156
 30
0.0
 11
-585.150749892838
 21
0.907142639160156
 31
0.0
  0
LINE
  5
   848
  8
0
  6
CONTINUOUS
 62
     3
 10
-584.650749892838
 20
23.6571426391602
 30
0.0
 11
-585.150749892838
 21
23.6571426391602
 31
0.0
  0
LINE
  5
   849
  8
0
  6
CONTINUOUS
 62
     3
 10
-584.650749892838
 20
24.1571426391602
 30
0.0
 11
-585.150749892838
 21
24.1571426391602
 31
0.0
  0
LINE
  5
   84A
  8
0
  6
CONTINUOUS
 62
     3
 10
-636.650742293246
 20
23.6571426391602
 30
0.0
 11
-636.650742293246
 21
24.1571426391602
 31
0.0
  0
LINE
  5
   84B
  8
0
  6
CONTINUOUS
 62
     3
 10
-585.150749892838
 20
23.6571426391602
 30
0.0
 11
-585.150749892838
 21
24.1571426391602
 31
0.0
  0
LINE
  5
   84C
  8
0
  6
CONTINUOUS
 62
     1
 10
-616.275746227152
 20
17.4071426391602
 30
0.0
 11
-636.650742293246
 21
17.4071426391602
 31
0.0
  0
LINE
  5
   84D
  8
0
  6
CONTINUOUS
 62
     3
 10
-584.650749892838
 20
17.1571426391602
 30
0.0
 11
-585.150749892838
 21
17.1571426391602
 31
0.0
  0
LINE
  5
   84E
  8
0
  6
CONTINUOUS
 62
     1
 10
-616.275742263443
 20
17.9071426391602
 30
0.0
 11
-636.650742293246
 21
17.9071426391602
 31
0.0
  0
LINE
  5
   84F
  8
0
  6
CONTINUOUS
 62
     3
 10
-584.650749892838
 20
17.6571426391602
 30
0.0
 11
-585.150749892838
 21
17.6571426391602
 31
0.0
  0
LINE
  5
   850
  8
0
  6
CONTINUOUS
 62
     3
 10
-636.650742293246
 20
17.1571426391602
 30
0.0
 11
-636.650742293246
 21
17.6571426391602
 31
0.0
  0
LINE
  5
   851
  8
0
  6
CONTINUOUS
 62
     3
 10
-585.150749892838
 20
17.1571426391602
 30
0.0
 11
-585.150749892838
 21
17.6571426391602
 31
0.0
  0
ARC
  5
   852
  8
0
  6
CONTINUOUS
 62
     3
 10
-636.900742263443
 20
-8.59284973144531
 30
0.0
 40
0.25
 50
179.999999948034
 51
269.999999948034
  0
ARC
  5
   853
  8
0
  6
CONTINUOUS
 62
     3
 10
-584.900742263443
 20
-8.59284973144531
 30
0.0
 40
0.25
 50
269.999999948034
 51
359.999999948034
  0
ARC
  5
   854
  8
0
  6
CONTINUOUS
 62
     3
 10
-584.900742263443
 20
43.4071502685547
 30
0.0
 40
0.25
 50
359.999999948034
 51
449.999999948034
  0
ARC
  5
   855
  8
0
  6
CONTINUOUS
 62
     3
 10
-636.90074226343
 20
43.4071502685547
 30
0.0
 40
0.25
 50
449.999999948034
 51
539.999999948034
  0
INSERT
  5
   856
  8
255
  6
CONTINUOUS
 62
     3
  2
$1ON-OFF
 10
-600.900747146256
 20
20.6571426391602
 30
0.0
 41
0.5
 42
0.5
 50
359.999999792137
 43
0.5
  0
LINE
  5
   857
  8
0
  6
CONTINUOUS
 62
     1
 10
-622.150742263443
 20
23.1571426391602
 30
0.0
 11
-622.900742263443
 21
23.1571426391602
 31
0.0
  0
LINE
  5
   858
  8
0
  6
CONTINUOUS
 62
     1
 10
-622.150742263443
 20
18.6571426391602
 30
0.0
 11
-622.900742263443
 21
18.6571426391602
 31
0.0
  0
CIRCLE
  5
   859
  8
0
  6
CONTINUOUS
 62
     1
 10
-622.525742263443
 20
4.15714263916017
 30
0.0
 40
2.25
  0
CIRCLE
  5
   85A
  8
0
  6
CONTINUOUS
 62
     1
 10
-622.525742263443
 20
4.15714263916017
 30
0.0
 40
1.5
  0
LINE
  5
   85B
  8
0
  6
CONTINUOUS
 62
     1
 10
-622.900742263443
 20
18.6571426391602
 30
0.0
 11
-622.900742263443
 21
23.1571426391602
 31
0.0
  0
LINE
  5
   85C
  8
0
  6
CONTINUOUS
 62
     1
 10
-622.150742263443
 20
18.6571426391602
 30
0.0
 11
-622.150742263443
 21
23.1571426391602
 31
0.0
  0
LINE
  5
   85D
  8
0
  6
CONTINUOUS
 62
     1
 10
-617.650742263443
 20
1.15714263916016
 30
0.0
 11
-617.650742263443
 21
7.15714978374292
 31
0.0
  0
LINE
  5
   85E
  8
0
  6
CONTINUOUS
 62
     1
 10
-604.150742263443
 20
1.15714263916016
 30
0.0
 11
-604.150742263443
 21
7.15714580711978
 31
0.0
  0
LINE
  5
   85F
  8
0
  6
CONTINUOUS
 62
     1
 10
-604.150742263443
 20
17.9071426391602
 30
0.0
 11
-604.150742263443
 21
23.9071426391602
 31
0.0
  0
LINE
  5
   860
  8
0
  6
CONTINUOUS
 62
     1
 10
-617.650742263443
 20
17.9071426391602
 30
0.0
 11
-617.650742263443
 21
23.9071426391602
 31
0.0
  0
LINE
  5
   861
  8
0
  6
CONTINUOUS
 62
     7
 10
-640.150742263443
 20
-17.2178326416192
 30
0.0
 11
-645.900742067817
 21
-17.2178326416192
 31
0.0
  0
LINE
  5
   862
  8
0
  6
CONTINUOUS
 62
     1
 10
-575.900742067817
 20
-34.7178326416192
 30
0.0
 11
-645.900742067817
 21
-34.7178326416192
 31
0.0
  0
LINE
  5
   863
  8
0
  6
DASHDOT
 62
     7
 10
-589.025748622765
 20
63.2820462694411
 30
0.0
 11
-589.025748622765
 21
78.7821534927128
 31
0.0
  0
LINE
  5
   864
  8
0
  6
DASHDOT
 62
     7
 10
-581.275695011129
 20
71.032099881077
 30
0.0
 11
-596.775802234401
 21
71.032099881077
 31
0.0
  0
LINE
  5
   865
  8
0
  6
DASHDOT
 62
     7
 10
-589.025716903708
 20
72.3321584210353
 30
0.0
 11
-589.025716903708
 21
83.7321542275253
 31
0.0
  0
LINE
  5
   866
  8
0
  6
DASHDOT
 62
     7
 10
-583.325719000463
 20
78.0321563242803
 30
0.0
 11
-594.725714806953
 21
78.0321563242803
 31
0.0
  0
LINE
  5
   867
  8
0
  6
DASHDOT
 62
     7
 10
-599.963232037764
 20
62.4071577848449
 30
0.0
 11
-599.963232037764
 21
77.6571620447614
 31
0.0
  0
LINE
  5
   868
  8
0
  6
DASHDOT
 62
     7
 10
-592.338229907806
 20
70.0321599148032
 30
0.0
 11
-607.588234167722
 21
70.0321599148032
 31
0.0
  0
LINE
  5
   869
  8
0
  6
DASHDOT
 62
     7
 10
-610.900743556774
 20
72.3321457589729
 30
0.0
 11
-610.900743556774
 21
91.5909539663191
 31
0.0
  0
LINE
  5
   86A
  8
0
  6
DASHDOT
 62
     7
 10
-605.200742953886
 20
78.0321463618609
 30
0.0
 11
-616.600744159662
 21
78.0321463618609
 31
0.0
  0
LINE
  5
   86B
  8
0
  6
DASHDOT
 62
     7
 10
-610.900715048424
 20
63.2822430980967
 30
0.0
 11
-610.900715048424
 21
78.782167495895
 31
0.0
  0
LINE
  5
   86C
  8
0
  6
DASHDOT
 62
     7
 10
-603.150752849525
 20
71.0322052969959
 30
0.0
 11
-618.650677247324
 21
71.0322052969959
 31
0.0
  0
LINE
  5
   86D
  8
0
  6
DASHDOT
 62
     7
 10
-621.838171257355
 20
62.4071478491061
 30
0.0
 11
-621.838171257355
 21
77.6572212217663
 31
0.0
  0
LINE
  5
   86E
  8
0
  6
DASHDOT
 62
     7
 10
-614.213134571025
 20
70.0321845354362
 30
0.0
 11
-629.463207943685
 21
70.0321845354362
 31
0.0
  0
LINE
  5
   86F
  8
0
  6
DASHDOT
 62
     7
 10
-632.775718831358
 20
72.3321482909436
 30
0.0
 11
-632.775718831358
 21
83.7321473114874
 31
0.0
  0
LINE
  5
   870
  8
0
  6
DASHDOT
 62
     7
 10
-627.075719321086
 20
78.0321478012155
 30
0.0
 11
-638.47571834163
 21
78.0321478012155
 31
0.0
  0
LINE
  5
   871
  8
0
  6
DASHDOT
 62
     7
 10
-632.775714152356
 20
63.2821636474331
 30
0.0
 11
-632.775714152356
 21
78.7821757469465
 31
0.0
  0
LINE
  5
   872
  8
0
  6
DASHDOT
 62
     7
 10
-625.0257081026
 20
71.0321696971898
 30
0.0
 11
-640.525720202113
 21
71.0321696971898
 31
0.0
  0
LINE
  5
   873
  8
0
  6
DASHDOT
 62
     7
 10
-632.775741948276
 20
-45.7178329174741
 30
0.0
 11
-632.775741948276
 21
-30.2178325982796
 31
0.0
  0
LINE
  5
   874
  8
0
  6
DASHDOT
 62
     7
 10
-625.025741788679
 20
-37.9678327578768
 30
0.0
 11
-640.525742107873
 21
-37.9678327578768
 31
0.0
  0
LINE
  5
   875
  8
0
  6
DASHDOT
 62
     7
 10
-632.775742450662
 20
-65.7566001478737
 30
0.0
 11
-632.775742450662
 21
-39.2678331963385
 31
0.0
  0
LINE
  5
   876
  8
0
  6
DASHDOT
 62
     7
 10
-627.075742408578
 20
-44.9678332384224
 30
0.0
 11
-638.475742492746
 21
-44.9678332384224
 31
0.0
  0
LINE
  5
   877
  8
0
  6
DASHDOT
 62
     7
 10
-610.900741098365
 20
-50.6678323050247
 30
0.0
 11
-610.900741098365
 21
-39.267830263632
 31
0.0
  0
LINE
  5
   878
  8
0
  6
DASHDOT
 62
     7
 10
-589.025740955864
 20
-45.717832661915
 30
0.0
 11
-589.025740955864
 21
-30.2178309787331
 31
0.0
  0
LINE
  5
   879
  8
0
  6
DASHDOT
 62
     7
 10
-589.025742342576
 20
-50.6678286354246
 30
0.0
 11
-589.025742342576
 21
-39.2678316917689
 31
0.0
  0
LINE
  5
   87A
  8
0
  6
CONTINUOUS
 62
     7
 10
-605.525742263443
 20
6.87179309554799
 30
0.0
 11
-616.275742263443
 21
6.87179309554799
 31
0.0
  0
LINE
  5
   87B
  8
0
  6
CONTINUOUS
 62
     7
 10
-605.525742263443
 20
9.34485368351984
 30
0.0
 11
-616.275742263443
 21
9.34485368351984
 31
0.0
  0
LINE
  5
   87C
  8
0
  6
CONTINUOUS
 62
     7
 10
-605.525742263443
 20
2.91131726922709
 30
0.0
 11
-616.275742263443
 21
2.91131726922709
 31
0.0
  0
LINE
  5
   87D
  8
0
  6
CONTINUOUS
 62
     7
 10
-644.650718688965
 20
78.6321426391602
 30
0.0
 11
-644.650718688965
 21
79.5321502685547
 31
0.0
  0
LINE
  5
   87E
  8
0
  6
CONTINUOUS
 62
     7
 10
-577.150718688965
 20
78.6321426391602
 30
0.0
 11
-577.150718688965
 21
79.5321502685547
 31
0.0
  0
LINE
  5
   87F
  8
0
  6
CONTINUOUS
 62
     1
 10
-636.650742293246
 20
24.4071426391602
 30
0.0
 11
-637.150742263429
 21
24.4071426391602
 31
0.0
  0
LINE
  5
   880
  8
0
  6
CONTINUOUS
 62
     1
 10
-636.650742293246
 20
23.9071426391602
 30
0.0
 11
-637.150742263441
 21
23.9071426391602
 31
0.0
  0
LINE
  5
   881
  8
0
  6
CONTINUOUS
 62
     3
 10
-636.650742293246
 20
17.6571426391602
 30
0.0
 11
-637.150742263441
 21
17.6571426391602
 31
0.0
  0
LINE
  5
   882
  8
0
  6
CONTINUOUS
 62
     3
 10
-636.650742293246
 20
17.1571426391602
 30
0.0
 11
-637.150742263455
 21
17.1571426391602
 31
0.0
  0
LINE
  5
   883
  8
0
  6
CONTINUOUS
 62
     3
 10
-636.650742293246
 20
7.40715225687523
 30
0.0
 11
-637.150742263455
 21
7.40715225687523
 31
0.0
  0
LINE
  5
   884
  8
0
  6
CONTINUOUS
 62
     3
 10
-636.650742293246
 20
6.90715225687228
 30
0.0
 11
-637.150742263446
 21
6.90715225687228
 31
0.0
  0
LINE
  5
   885
  8
0
  6
CONTINUOUS
 62
     3
 10
-636.650742293246
 20
0.907142639160156
 30
0.0
 11
-637.150742263446
 21
0.907142639160156
 31
0.0
  0
LINE
  5
   886
  8
0
  6
CONTINUOUS
 62
     3
 10
-636.650742293246
 20
0.407142639160156
 30
0.0
 11
-637.150742263443
 21
0.407142639160156
 31
0.0
  0
LINE
  5
   887
  8
0
  6
CONTINUOUS
 62
     1
 10
-585.150749892838
 20
0.657142639160156
 30
0.0
 11
-636.650742293246
 21
0.657142639160156
 31
0.0
  0
LINE
  5
   888
  8
0
  6
CONTINUOUS
 62
     1
 10
-585.150749892838
 20
1.15714263916016
 30
0.0
 11
-636.650742293246
 21
1.15714263916016
 31
0.0
  0
LINE
  5
   889
  8
0
  6
CONTINUOUS
 62
     1
 10
-585.150749892838
 20
7.15714828024915
 30
0.0
 11
-605.525743939017
 21
7.15714828024915
 31
0.0
  0
LINE
  5
   88A
  8
0
  6
CONTINUOUS
 62
     1
 10
-585.150749892838
 20
7.6571482802491
 30
0.0
 11
-605.525743755823
 21
7.6571482802491
 31
0.0
  0
LINE
  5
   88B
  8
0
  6
CONTINUOUS
 62
     1
 10
-585.150749892838
 20
17.4071426391602
 30
0.0
 11
-605.525742263443
 21
17.4071426391602
 31
0.0
  0
LINE
  5
   88C
  8
0
  6
CONTINUOUS
 62
     1
 10
-585.150749892838
 20
17.9071426391602
 30
0.0
 11
-605.525742263443
 21
17.9071426391602
 31
0.0
  0
LINE
  5
   88D
  8
0
  6
CONTINUOUS
 62
     1
 10
-585.150749892838
 20
23.9071426391602
 30
0.0
 11
-636.650742293246
 21
23.9071426391602
 31
0.0
  0
LINE
  5
   88E
  8
0
  6
CONTINUOUS
 62
     1
 10
-585.150749892838
 20
24.4071426391602
 30
0.0
 11
-636.650742293246
 21
24.4071426391602
 31
0.0
  0
LINE
  5
   88F
  8
0
  6
CONTINUOUS
 62
     7
 10
-598.713242067817
 20
76.7821179199397
 30
0.0
 11
-601.213242067817
 21
76.7821179199397
 31
0.0
  0
LINE
  5
   890
  8
0
  6
CONTINUOUS
 62
     7
 10
-601.213242067817
 20
76.7821179199397
 30
0.0
 11
-601.213242067817
 21
78.532118039149
 31
0.0
  0
LINE
  5
   891
  8
0
  6
CONTINUOUS
 62
     7
 10
-600.838242067817
 20
78.5321179199397
 30
0.0
 11
-601.213242067817
 21
78.5321179199397
 31
0.0
  0
LINE
  5
   892
  8
0
  6
CONTINUOUS
 62
     7
 10
-600.838242067817
 20
78.5321179199394
 30
0.0
 11
-600.838242067817
 21
80.0321179199394
 31
0.0
  0
LINE
  5
   893
  8
0
  6
CONTINUOUS
 62
     7
 10
-599.088242067817
 20
78.5321179199394
 30
0.0
 11
-599.088242067817
 21
80.0321179199394
 31
0.0
  0
LINE
  5
   894
  8
0
  6
CONTINUOUS
 62
     7
 10
-598.713242067817
 20
78.5321179199397
 30
0.0
 11
-599.088242067817
 21
78.5321179199397
 31
0.0
  0
LINE
  5
   895
  8
0
  6
CONTINUOUS
 62
     7
 10
-598.713242067817
 20
76.7821179199397
 30
0.0
 11
-598.713242067817
 21
78.5321179199397
 31
0.0
  0
LINE
  5
   896
  8
0
  6
CONTINUOUS
 62
     7
 10
-620.588242067817
 20
76.7821179199397
 30
0.0
 11
-623.088242067817
 21
76.7821179199397
 31
0.0
  0
LINE
  5
   897
  8
0
  6
CONTINUOUS
 62
     7
 10
-623.088242067817
 20
76.7821179199397
 30
0.0
 11
-623.088242067817
 21
78.532118039149
 31
0.0
  0
LINE
  5
   898
  8
0
  6
CONTINUOUS
 62
     7
 10
-622.713242067817
 20
78.5321179199397
 30
0.0
 11
-623.088242067817
 21
78.5321179199397
 31
0.0
  0
LINE
  5
   899
  8
0
  6
CONTINUOUS
 62
     7
 10
-622.713242067817
 20
78.5321179199394
 30
0.0
 11
-622.713242067817
 21
80.0321179199394
 31
0.0
  0
LINE
  5
   89A
  8
0
  6
CONTINUOUS
 62
     7
 10
-620.963242067817
 20
78.5321179199394
 30
0.0
 11
-620.963242067817
 21
80.0321179199394
 31
0.0
  0
LINE
  5
   89B
  8
0
  6
CONTINUOUS
 62
     7
 10
-620.588242067817
 20
78.5321179199397
 30
0.0
 11
-620.963242067817
 21
78.5321179199397
 31
0.0
  0
LINE
  5
   89C
  8
0
  6
CONTINUOUS
 62
     7
 10
-620.588242067817
 20
76.7821179199397
 30
0.0
 11
-620.588242067817
 21
78.5321179199397
 31
0.0
  0
LINE
  5
   89D
  8
0
  6
DASHDOT
 62
     3
 10
-566.43201025327
 20
17.4071502685547
 30
0.0
 11
-655.567287690216
 21
17.4071502685547
 31
0.0
  0
LINE
  5
   89E
  8
0
  6
CONTINUOUS
 62
     1
 10
-640.150742263443
 20
-8.84284973144531
 30
0.0
 11
-645.900742263443
 21
-8.84284973144531
 31
0.0
  0
LINE
  5
   89F
  8
0
  6
CONTINUOUS
 62
     1
 10
-575.900742263443
 20
-8.84284973144531
 30
0.0
 11
-581.650742263443
 21
-8.84284973144531
 31
0.0
  0
LINE
  5
   8A0
  8
0
  6
CONTINUOUS
 62
     1
 10
-575.900742263443
 20
43.4071502685547
 30
0.0
 11
-581.650742263444
 21
43.4071502685547
 31
0.0
  0
LINE
  5
   8A1
  8
0
  6
CONTINUOUS
 62
     1
 10
-640.150742263443
 20
43.6571502685547
 30
0.0
 11
-645.900742263443
 21
43.6571502685547
 31
0.0
  0
LINE
  5
   8A2
  8
0
  6
DASHDOT
 62
     3
 10
-655.567287690216
 20
17.4071502685547
 30
0.0
 11
-663.330682821821
 21
17.4071502685547
 31
0.0
  0
LINE
  5
   8A3
  8
0
  6
DASHDOT
 62
     3
 10
-671.094077953426
 20
17.4071502685547
 30
0.0
 11
-678.138640202475
 21
17.4071502685547
 31
0.0
  0
LINE
  5
   8A4
  8
0
  6
CONTINUOUS
 62
     7
 10
-637.325737685807
 20
-34.7178326416192
 30
0.0
 11
-637.325737685807
 21
-22.8428478240967
 31
0.0
  0
LINE
  5
   8A5
  8
0
  6
CONTINUOUS
 62
     7
 10
-638.475739211686
 20
-34.7178326416192
 30
0.0
 11
-638.475739211686
 21
-22.8428478240967
 31
0.0
  0
LINE
  5
   8A6
  8
0
  6
CONTINUOUS
 62
     7
 10
-640.275734634049
 20
-34.7178326416192
 30
0.0
 11
-640.275734634049
 21
-17.2178326416192
 31
0.0
  0
LINE
  5
   8A7
  8
0
  6
CONTINUOUS
 62
     7
 10
-642.075737685807
 20
-34.7178326416192
 30
0.0
 11
-642.075737685807
 21
-17.2178326416192
 31
0.0
  0
LINE
  5
   8A8
  8
0
  6
CONTINUOUS
 62
     7
 10
-643.625740737565
 20
-34.7178326416192
 30
0.0
 11
-643.625740737565
 21
-17.2178326416192
 31
0.0
  0
LINE
  5
   8A9
  8
0
  6
CONTINUOUS
 62
     7
 10
-644.775734634049
 20
-34.7178326416192
 30
0.0
 11
-644.775734634049
 21
-17.2178326416192
 31
0.0
  0
LINE
  5
   8AA
  8
0
  6
CONTINUOUS
 62
     7
 10
-584.47574684108
 20
-34.7178326416192
 30
0.0
 11
-584.47574684108
 21
-22.8428478240967
 31
0.0
  0
LINE
  5
   8AB
  8
0
  6
CONTINUOUS
 62
     7
 10
-583.325745315201
 20
-34.7178326416192
 30
0.0
 11
-583.325745315201
 21
-22.8428478240967
 31
0.0
  0
LINE
  5
   8AC
  8
0
  6
CONTINUOUS
 62
     7
 10
-581.525749892838
 20
-34.7178326416192
 30
0.0
 11
-581.525749892838
 21
-17.2178326416192
 31
0.0
  0
LINE
  5
   8AD
  8
0
  6
CONTINUOUS
 62
     7
 10
-579.72574684108
 20
-34.7178326416192
 30
0.0
 11
-579.72574684108
 21
-17.2178326416192
 31
0.0
  0
LINE
  5
   8AE
  8
0
  6
CONTINUOUS
 62
     7
 10
-578.175743789322
 20
-34.7178326416192
 30
0.0
 11
-578.175743789322
 21
-17.2178326416192
 31
0.0
  0
LINE
  5
   8AF
  8
0
  6
CONTINUOUS
 62
     7
 10
-577.025749892838
 20
-34.7178326416192
 30
0.0
 11
-577.025749892838
 21
-17.2178326416192
 31
0.0
  0
LINE
  5
   8B0
  8
0
  6
CONTINUOUS
 62
     1
 10
-576.400742263444
 20
-34.9678326416191
 30
0.0
 11
-629.007916405885
 21
-34.9678326416191
 31
0.0
  0
LINE
  5
   8B1
  8
0
  6
CONTINUOUS
 62
     1
 10
-576.400742263444
 20
-35.4678326416191
 30
0.0
 11
-628.885951306387
 21
-35.4678326416191
 31
0.0
  0
LINE
  5
   8B2
  8
0
  6
CONTINUOUS
 62
     1
 10
-575.900742263444
 20
-69.3428326416191
 30
0.0
 11
-575.900742263444
 21
-35.4678326416191
 31
0.0
  0
LINE
  5
   8B3
  8
0
  6
CONTINUOUS
 62
     1
 10
-576.400742263444
 20
-35.4678326416191
 30
0.0
 11
-576.400742263444
 21
-34.9678326416191
 31
0.0
  0
LINE
  5
   8B4
  8
0
  6
CONTINUOUS
 62
     1
 10
-576.525742263444
 20
-69.9678326416191
 30
0.0
 11
-619.201224453968
 21
-69.9678326416191
 31
0.0
  0
ARC
  5
   8B5
  8
0
  6
CONTINUOUS
 62
     1
 10
-576.525742263444
 20
-69.3428326416191
 30
0.0
 40
0.625
 50
269.999999948034
 51
359.999999948034
  0
LINE
  5
   8B6
  8
0
  6
CONTINUOUS
 62
     1
 10
-586.450742263444
 20
-69.9678326416191
 30
0.0
 11
-586.450742263444
 21
-35.4678326416191
 31
0.0
  0
LINE
  5
   8B7
  8
0
  6
CONTINUOUS
 62
     1
 10
-588.250742263444
 20
-69.9678326416191
 30
0.0
 11
-588.250742263444
 21
-35.4678326416191
 31
0.0
  0
LINE
  5
   8B8
  8
0
  6
CONTINUOUS
 62
     1
 10
-590.050742263444
 20
-69.9678326416191
 30
0.0
 11
-590.050742263444
 21
-35.4678326416191
 31
0.0
  0
LINE
  5
   8B9
  8
0
  6
CONTINUOUS
 62
     1
 10
-591.850742263443
 20
-69.9678326416191
 30
0.0
 11
-591.850742263443
 21
-35.4678326416191
 31
0.0
  0
LINE
  5
   8BA
  8
0
  6
CONTINUOUS
 62
     1
 10
-593.650742263443
 20
-69.9678326416191
 30
0.0
 11
-593.650742263443
 21
-35.4678326416191
 31
0.0
  0
LINE
  5
   8BB
  8
0
  6
CONTINUOUS
 62
     1
 10
-595.450742263444
 20
-69.9678326416191
 30
0.0
 11
-595.450742263444
 21
-35.4678326416191
 31
0.0
  0
LINE
  5
   8BC
  8
0
  6
CONTINUOUS
 62
     1
 10
-597.250742263444
 20
-69.9678326416191
 30
0.0
 11
-597.250742263444
 21
-35.4678326416191
 31
0.0
  0
LINE
  5
   8BD
  8
0
  6
CONTINUOUS
 62
     1
 10
-599.050742263444
 20
-69.9678326416191
 30
0.0
 11
-599.050742263444
 21
-35.4678326416191
 31
0.0
  0
LINE
  5
   8BE
  8
0
  6
CONTINUOUS
 62
     1
 10
-600.850742263443
 20
-69.9678326416191
 30
0.0
 11
-600.850742263443
 21
-35.4678326416191
 31
0.0
  0
LINE
  5
   8BF
  8
0
  6
CONTINUOUS
 62
     1
 10
-602.650742263444
 20
-69.9678326416191
 30
0.0
 11
-602.650742263444
 21
-35.4678326416191
 31
0.0
  0
LINE
  5
   8C0
  8
0
  6
CONTINUOUS
 62
     1
 10
-604.450742263444
 20
-69.9678326416191
 30
0.0
 11
-604.450742263444
 21
-35.4678326416191
 31
0.0
  0
LINE
  5
   8C1
  8
0
  6
CONTINUOUS
 62
     1
 10
-606.250742263444
 20
-69.9678326416191
 30
0.0
 11
-606.250742263444
 21
-35.4678326416191
 31
0.0
  0
LINE
  5
   8C2
  8
0
  6
CONTINUOUS
 62
     1
 10
-608.050742263443
 20
-69.9678326416191
 30
0.0
 11
-608.050742263443
 21
-35.4678326416191
 31
0.0
  0
LINE
  5
   8C3
  8
0
  6
CONTINUOUS
 62
     1
 10
-609.850742263443
 20
-69.9678326416191
 30
0.0
 11
-609.850742263443
 21
-35.4678326416191
 31
0.0
  0
LINE
  5
   8C4
  8
0
  6
CONTINUOUS
 62
     1
 10
-611.650742263444
 20
-69.9678326416191
 30
0.0
 11
-611.650742263444
 21
-35.4678326416191
 31
0.0
  0
LINE
  5
   8C5
  8
0
  6
CONTINUOUS
 62
     1
 10
-613.450742263444
 20
-69.9678326416191
 30
0.0
 11
-613.450742263444
 21
-35.4678326416191
 31
0.0
  0
LINE
  5
   8C6
  8
0
  6
CONTINUOUS
 62
     1
 10
-615.250742263444
 20
-69.9678326416191
 30
0.0
 11
-615.250742263444
 21
-35.4678326416191
 31
0.0
  0
LINE
  5
   8C7
  8
0
  6
CONTINUOUS
 62
     1
 10
-617.050742263444
 20
-69.9678326416191
 30
0.0
 11
-617.050742263444
 21
-35.4678326416191
 31
0.0
  0
LINE
  5
   8C8
  8
0
  6
CONTINUOUS
 62
     1
 10
-618.850742263443
 20
-69.9678326416191
 30
0.0
 11
-618.850742263443
 21
-35.4678326416191
 31
0.0
  0
LINE
  5
   8C9
  8
0
  6
CONTINUOUS
 62
     1
 10
-620.650742263444
 20
-67.7215885666065
 30
0.0
 11
-620.650742263444
 21
-35.4678326416191
 31
0.0
  0
LINE
  5
   8CA
  8
0
  6
CONTINUOUS
 62
     1
 10
-622.450742263444
 20
-61.0052557796188
 30
0.0
 11
-622.450742263444
 21
-35.4678326416191
 31
0.0
  0
LINE
  5
   8CB
  8
0
  6
CONTINUOUS
 62
     1
 10
-624.250742263444
 20
-49.2101951065972
 30
0.0
 11
-624.250742263444
 21
-35.4678326416191
 31
0.0
  0
LINE
  5
   8CC
  8
0
  6
CONTINUOUS
 62
     1
 10
-626.050742263444
 20
-44.9822679442475
 30
0.0
 11
-626.050742263444
 21
-35.4678326416191
 31
0.0
  0
LINE
  5
   8CD
  8
0
  6
CONTINUOUS
 62
     1
 10
-627.850742263443
 20
-40.7391458161586
 30
0.0
 11
-627.850742263443
 21
-35.4678326416191
 31
0.0
  0
LINE
  5
   8CE
  8
0
  6
CONTINUOUS
 62
     1
 10
-575.900742263444
 20
-35.4678326416191
 30
0.0
 11
-576.400742263444
 21
-35.4678326416191
 31
0.0
  0
POLYLINE
  5
   8CF
  8
0
  6
CONTINUOUS
 62
     1
 66
     1
 10
0.0
 20
0.0
 30
0.0
  0
VERTEX
  5
   8D0
  8
0
  6
CONTINUOUS
 10
-619.201224453968
 20
-69.9677348802354
 30
0.0
 40
0.0
 41
0.0
  0
VERTEX
  5
   8D1
  8
0
  6
CONTINUOUS
 10
-619.315027112691
 20
-69.8100828921533
 30
0.0
 40
0.0
 41
0.0
  0
VERTEX
  5
   8D2
  8
0
  6
CONTINUOUS
 10
-619.427867531854
 20
-69.6514230714542
 30
0.0
 40
0.0
 41
0.0
  0
VERTEX
  5
   8D3
  8
0
  6
CONTINUOUS
 10
-619.539722263914
 20
-69.4917519193724
 30
0.0
 40
0.0
 41
0.0
  0
VERTEX
  5
   8D4
  8
0
  6
CONTINUOUS
 10
-619.650555683727
 20
-69.3310641200401
 30
0.0
 40
0.0
 41
0.0
  0
VERTEX
  5
   8D5
  8
0
  6
CONTINUOUS
 10
-619.760317422441
 20
-69.1693521575818
 30
0.0
 40
0.0
 41
0.0
  0
VERTEX
  5
   8D6
  8
0
  6
CONTINUOUS
 10
-619.868939801405
 20
-69.0066059332099
 30
0.0
 40
0.0
 41
0.0
  0
VERTEX
  5
   8D7
  8
0
  6
CONTINUOUS
 10
-619.976335266061
 20
-68.842812382319
 30
0.0
 40
0.0
 41
0.0
  0
VERTEX
  5
   8D8
  8
0
  6
CONTINUOUS
 10
-620.082393819844
 20
-68.6779550915807
 30
0.0
 40
0.0
 41
0.0
  0
VERTEX
  5
   8D9
  8
0
  6
CONTINUOUS
 10
-620.186980458087
 20
-68.5120139160392
 30
0.0
 40
0.0
 41
0.0
  0
VERTEX
  5
   8DA
  8
0
  6
CONTINUOUS
 10
-620.289932601914
 20
-68.3449645962051
 30
0.0
 40
0.0
 41
0.0
  0
VERTEX
  5
   8DB
  8
0
  6
CONTINUOUS
 10
-620.420901086185
 20
-68.1262747040125
 30
0.0
 40
0.0
 41
0.0
  0
VERTEX
  5
   8DC
  8
0
  6
CONTINUOUS
 10
-620.485075997076
 20
-68.0161876430448
 30
0.0
 40
0.0
 41
0.0
  0
VERTEX
  5
   8DD
  8
0
  6
CONTINUOUS
 10
-620.548288110457
 20
-67.9055926208913
 30
0.0
 40
0.0
 41
0.0
  0
VERTEX
  5
   8DE
  8
0
  6
CONTINUOUS
 10
-620.61046623472
 20
-67.7944793523121
 30
0.0
 40
0.0
 41
0.0
  0
VERTEX
  5
   8DF
  8
0
  6
CONTINUOUS
 10
-620.671537376146
 20
-67.6828374993157
 30
0.0
 40
0.0
 41
0.0
  0
VERTEX
  5
   8E0
  8
0
  6
CONTINUOUS
 10
-620.731427743216
 20
-67.5706568750569
 30
0.0
 40
0.0
 41
0.0
  0
VERTEX
  5
   8E1
  8
0
  6
CONTINUOUS
 10
-620.790063750913
 20
-67.4579276477344
 30
0.0
 40
0.0
 41
0.0
  0
VERTEX
  5
   8E2
  8
0
  6
CONTINUOUS
 10
-620.847373025034
 20
-67.3446405444884
 30
0.0
 40
0.0
 41
0.0
  0
VERTEX
  5
   8E3
  8
0
  6
CONTINUOUS
 10
-620.903285406491
 20
-67.2307870552985
 30
0.0
 40
0.0
 41
0.0
  0
VERTEX
  5
   8E4
  8
0
  6
CONTINUOUS
 10
-620.957733955623
 20
-67.1163596368815
 30
0.0
 40
0.0
 41
0.0
  0
VERTEX
  5
   8E5
  8
0
  6
CONTINUOUS
 10
-621.0106559565
 20
-67.001351916589
 30
0.0
 40
0.0
 41
0.0
  0
VERTEX
  5
   8E6
  8
0
  6
CONTINUOUS
 10
-621.061993921233
 20
-66.8857588963051
 30
0.0
 40
0.0
 41
0.0
  0
VERTEX
  5
   8E7
  8
0
  6
CONTINUOUS
 10
-621.111696594278
 20
-66.7695771563443
 30
0.0
 40
0.0
 41
0.0
  0
VERTEX
  5
   8E8
  8
0
  6
CONTINUOUS
 10
-621.159719956742
 20
-66.6528050593492
 30
0.0
 40
0.0
 41
0.0
  0
VERTEX
  5
   8E9
  8
0
  6
CONTINUOUS
 10
-621.206028230694
 20
-66.535442954188
 30
0.0
 40
0.0
 41
0.0
  0
VERTEX
  5
   8EA
  8
0
  6
CONTINUOUS
 10
-621.25059488347
 20
-66.4174933798526
 30
0.0
 40
0.0
 41
0.0
  0
VERTEX
  5
   8EB
  8
0
  6
CONTINUOUS
 10
-621.293403631979
 20
-66.2989612693562
 30
0.0
 40
0.0
 41
0.0
  0
VERTEX
  5
   8EC
  8
0
  6
CONTINUOUS
 10
-621.33444944701
 20
-66.1798541536307
 30
0.0
 40
0.0
 41
0.0
  0
VERTEX
  5
   8ED
  8
0
  6
CONTINUOUS
 10
-621.37373955754
 20
-66.0601823654251
 30
0.0
 40
0.0
 41
0.0
  0
VERTEX
  5
   8EE
  8
0
  6
CONTINUOUS
 10
-621.423444187704
 20
-65.899726584492
 30
0.0
 40
0.0
 41
0.0
  0
VERTEX
  5
   8EF
  8
0
  6
CONTINUOUS
 10
-621.470150531107
 20
-65.738330684506
 30
0.0
 40
0.0
 41
0.0
  0
VERTEX
  5
   8F0
  8
0
  6
CONTINUOUS
 10
-621.513985558428
 20
-65.5760438553056
 30
0.0
 40
0.0
 41
0.0
  0
VERTEX
  5
   8F1
  8
0
  6
CONTINUOUS
 10
-621.555112314542
 20
-65.4129232543475
 30
0.0
 40
0.0
 41
0.0
  0
VERTEX
  5
   8F2
  8
0
  6
CONTINUOUS
 10
-621.593725388963
 20
-65.2490329136785
 30
0.0
 40
0.0
 41
0.0
  0
VERTEX
  5
   8F3
  8
0
  6
CONTINUOUS
 10
-621.630046386277
 20
-65.0844426469066
 30
0.0
 40
0.0
 41
0.0
  0
VERTEX
  5
   8F4
  8
0
  6
CONTINUOUS
 10
-621.66431939658
 20
-64.9192269561726
 30
0.0
 40
0.0
 41
0.0
  0
VERTEX
  5
   8F5
  8
0
  6
CONTINUOUS
 10
-621.696806465912
 20
-64.7534639391216
 30
0.0
 40
0.0
 41
0.0
  0
VERTEX
  5
   8F6
  8
0
  6
CONTINUOUS
 10
-621.7277830667
 20
-64.587234195874
 30
0.0
 40
0.0
 41
0.0
  0
VERTEX
  5
   8F7
  8
0
  6
CONTINUOUS
 10
-621.757533568185
 20
-64.4206197359972
 30
0.0
 40
0.0
 41
0.0
  0
VERTEX
  5
   8F8
  8
0
  6
CONTINUOUS
 10
-621.81451105694
 20
-64.0865651936894
 30
0.0
 40
0.0
 41
0.0
  0
VERTEX
  5
   8F9
  8
0
  6
CONTINUOUS
 10
-621.926192718643
 20
-63.4173486104117
 30
0.0
 40
0.0
 41
0.0
  0
VERTEX
  5
   8FA
  8
0
  6
CONTINUOUS
 10
-621.984870850556
 20
-63.0832948452728
 30
0.0
 40
0.0
 41
0.0
  0
VERTEX
  5
   8FB
  8
0
  6
CONTINUOUS
 10
-622.015608915569
 20
-62.9165998758597
 30
0.0
 40
0.0
 41
0.0
  0
VERTEX
  5
   8FC
  8
0
  6
CONTINUOUS
 10
-622.047457394821
 20
-62.7501773387824
 30
0.0
 40
0.0
 41
0.0
  0
VERTEX
  5
   8FD
  8
0
  6
CONTINUOUS
 10
-622.078610006101
 20
-62.5933812421659
 30
0.0
 40
0.0
 41
0.0
  0
VERTEX
  5
   8FE
  8
0
  6
CONTINUOUS
 10
-622.110860830466
 20
-62.4368626965236
 30
0.0
 40
0.0
 41
0.0
  0
VERTEX
  5
   8FF
  8
0
  6
CONTINUOUS
 10
-622.144211282821
 20
-62.2806253548503
 30
0.0
 40
0.0
 41
0.0
  0
VERTEX
  5
   900
  8
0
  6
CONTINUOUS
 10
-622.178632562668
 20
-62.124665094984
 30
0.0
 40
0.0
 41
0.0
  0
VERTEX
  5
   901
  8
0
  6
CONTINUOUS
 10
-622.250438883832
 20
-61.8135249968767
 30
0.0
 40
0.0
 41
0.0
  0
VERTEX
  5
   902
  8
0
  6
CONTINUOUS
 10
-622.325556282679
 20
-61.5032826791266
 30
0.0
 40
0.0
 41
0.0
  0
VERTEX
  5
   903
  8
0
  6
CONTINUOUS
 10
-622.402965087021
 20
-61.1937024495873
 30
0.0
 40
0.0
 41
0.0
  0
VERTEX
  5
   904
  8
0
  6
CONTINUOUS
 10
-622.559659275617
 20
-60.5753509415033
 30
0.0
 40
0.0
 41
0.0
  0
VERTEX
  5
   905
  8
0
  6
CONTINUOUS
 10
-622.636267296013
 20
-60.2659463837643
 30
0.0
 40
0.0
 41
0.0
  0
VERTEX
  5
   906
  8
0
  6
CONTINUOUS
 10
-622.709999279756
 20
-59.9559857892822
 30
0.0
 40
0.0
 41
0.0
  0
VERTEX
  5
   907
  8
0
  6
CONTINUOUS
 10
-622.745435028086
 20
-59.8007157141931
 30
0.0
 40
0.0
 41
0.0
  0
VERTEX
  5
   908
  8
0
  6
CONTINUOUS
 10
-622.779759391866
 20
-59.6452168713121
 30
0.0
 40
0.0
 41
0.0
  0
VERTEX
  5
   909
  8
0
  6
CONTINUOUS
 10
-622.813825345353
 20
-59.4849188329384
 30
0.0
 40
0.0
 41
0.0
  0
VERTEX
  5
   90A
  8
0
  6
CONTINUOUS
 10
-622.846534214536
 20
-59.3243405537307
 30
0.0
 40
0.0
 41
0.0
  0
VERTEX
  5
   90B
  8
0
  6
CONTINUOUS
 10
-622.877829874302
 20
-59.1634718752295
 30
0.0
 40
0.0
 41
0.0
  0
VERTEX
  5
   90C
  8
0
  6
CONTINUOUS
 10
-622.907678047934
 20
-59.002308213175
 30
0.0
 40
0.0
 41
0.0
  0
VERTEX
  5
   90D
  8
0
  6
CONTINUOUS
 10
-622.9360646324
 20
-58.840850064686
 30
0.0
 40
0.0
 41
0.0
  0
VERTEX
  5
   90E
  8
0
  6
CONTINUOUS
 10
-622.962994023645
 20
-58.6791025154396
 30
0.0
 40
0.0
 41
0.0
  0
VERTEX
  5
   90F
  8
0
  6
CONTINUOUS
 10
-622.988487441881
 20
-58.5170747468496
 30
0.0
 40
0.0
 41
0.0
  0
VERTEX
  5
   910
  8
0
  6
CONTINUOUS
 10
-623.012581256873
 20
-58.3547795432464
 30
0.0
 40
0.0
 41
0.0
  0
VERTEX
  5
   911
  8
0
  6
CONTINUOUS
 10
-623.035325313236
 20
-58.1922327990555
 30
0.0
 40
0.0
 41
0.0
  0
VERTEX
  5
   912
  8
0
  6
CONTINUOUS
 10
-623.056781255719
 20
-58.0294530259773
 30
0.0
 40
0.0
 41
0.0
  0
VERTEX
  5
   913
  8
0
  6
CONTINUOUS
 10
-623.077020854497
 20
-57.8664608601656
 30
0.0
 40
0.0
 41
0.0
  0
VERTEX
  5
   914
  8
0
  6
CONTINUOUS
 10
-623.096124330463
 20
-57.7032785694074
 30
0.0
 40
0.0
 41
0.0
  0
VERTEX
  5
   915
  8
0
  6
CONTINUOUS
 10
-623.131276002849
 20
-57.3764378854381
 30
0.0
 40
0.0
 41
0.0
  0
VERTEX
  5
   916
  8
0
  6
CONTINUOUS
 10
-623.16298341536
 20
-57.0491230218298
 30
0.0
 40
0.0
 41
0.0
  0
VERTEX
  5
   917
  8
0
  6
CONTINUOUS
 10
-623.192021740504
 20
-56.7215205919354
 30
0.0
 40
0.0
 41
0.0
  0
VERTEX
  5
   918
  8
0
  6
CONTINUOUS
 10
-623.219140590093
 20
-56.3937960044328
 30
0.0
 40
0.0
 41
0.0
  0
VERTEX
  5
   919
  8
0
  6
CONTINUOUS
 10
-623.264487094191
 20
-55.813112834648
 30
0.0
 40
0.0
 41
0.0
  0
VERTEX
  5
   91A
  8
0
  6
CONTINUOUS
 10
-623.353898189845
 20
-54.6528856719671
 30
0.0
 40
0.0
 41
0.0
  0
VERTEX
  5
   91B
  8
0
  6
CONTINUOUS
 10
-623.401601862535
 20
-54.0732723588715
 30
0.0
 40
0.0
 41
0.0
  0
VERTEX
  5
   91C
  8
0
  6
CONTINUOUS
 10
-623.426902627778
 20
-53.7835469478863
 30
0.0
 40
0.0
 41
0.0
  0
VERTEX
  5
   91D
  8
0
  6
CONTINUOUS
 10
-623.453477229148
 20
-53.4938800961351
 30
0.0
 40
0.0
 41
0.0
  0
VERTEX
  5
   91E
  8
0
  6
CONTINUOUS
 10
-623.482731466008
 20
-53.1930921204708
 30
0.0
 40
0.0
 41
0.0
  0
VERTEX
  5
   91F
  8
0
  6
CONTINUOUS
 10
-623.514037575117
 20
-52.8924513614491
 30
0.0
 40
0.0
 41
0.0
  0
VERTEX
  5
   920
  8
0
  6
CONTINUOUS
 10
-623.547819965459
 20
-52.5920391412916
 30
0.0
 40
0.0
 41
0.0
  0
VERTEX
  5
   921
  8
0
  6
CONTINUOUS
 10
-623.584538684716
 20
-52.2919588198521
 30
0.0
 40
0.0
 41
0.0
  0
VERTEX
  5
   922
  8
0
  6
CONTINUOUS
 10
-623.624673908843
 20
-51.9923321291031
 30
0.0
 40
0.0
 41
0.0
  0
VERTEX
  5
   923
  8
0
  6
CONTINUOUS
 10
-623.646174452028
 20
-51.8427310580446
 30
0.0
 40
0.0
 41
0.0
  0
VERTEX
  5
   924
  8
0
  6
CONTINUOUS
 10
-623.668710431653
 20
-51.6932955076203
 30
0.0
 40
0.0
 41
0.0
  0
VERTEX
  5
   925
  8
0
  6
CONTINUOUS
 10
-623.692340623808
 20
-51.5440442291856
 30
0.0
 40
0.0
 41
0.0
  0
VERTEX
  5
   926
  8
0
  6
CONTINUOUS
 10
-623.717122154393
 20
-51.3949964350691
 30
0.0
 40
0.0
 41
0.0
  0
VERTEX
  5
   927
  8
0
  6
CONTINUOUS
 10
-623.743110014424
 20
-51.2461716840258
 30
0.0
 40
0.0
 41
0.0
  0
VERTEX
  5
   928
  8
0
  6
CONTINUOUS
 10
-623.770356575326
 20
-51.0975897666894
 30
0.0
 40
0.0
 41
0.0
  0
VERTEX
  5
   929
  8
0
  6
CONTINUOUS
 10
-623.798911104238
 20
-50.9492705910249
 30
0.0
 40
0.0
 41
0.0
  0
VERTEX
  5
   92A
  8
0
  6
CONTINUOUS
 10
-623.828819279309
 20
-50.8012340677816
 30
0.0
 40
0.0
 41
0.0
  0
VERTEX
  5
   92B
  8
0
  6
CONTINUOUS
 10
-623.860122704998
 20
-50.6534999959455
 30
0.0
 40
0.0
 41
0.0
  0
VERTEX
  5
   92C
  8
0
  6
CONTINUOUS
 10
-623.892858427375
 20
-50.506087948192
 30
0.0
 40
0.0
 41
0.0
  0
VERTEX
  5
   92D
  8
0
  6
CONTINUOUS
 10
-623.927193168899
 20
-50.3584508584681
 30
0.0
 40
0.0
 41
0.0
  0
VERTEX
  5
   92E
  8
0
  6
CONTINUOUS
 10
-623.96303038854
 20
-50.2111766291655
 30
0.0
 40
0.0
 41
0.0
  0
VERTEX
  5
   92F
  8
0
  6
CONTINUOUS
 10
-624.000391245533
 20
-50.0642835506077
 30
0.0
 40
0.0
 41
0.0
  0
VERTEX
  5
   930
  8
0
  6
CONTINUOUS
 10
-624.039291091011
 20
-49.9177890191326
 30
0.0
 40
0.0
 41
0.0
  0
VERTEX
  5
   931
  8
0
  6
CONTINUOUS
 10
-624.079739370724
 20
-49.7717093213335
 30
0.0
 40
0.0
 41
0.0
  0
VERTEX
  5
   932
  8
0
  6
CONTINUOUS
 10
-624.121739527749
 20
-49.6260594183006
 30
0.0
 40
0.0
 41
0.0
  0
VERTEX
  5
   933
  8
0
  6
CONTINUOUS
 10
-624.165288905206
 20
-49.4808527298626
 30
0.0
 40
0.0
 41
0.0
  0
VERTEX
  5
   934
  8
0
  6
CONTINUOUS
 10
-624.210378648972
 20
-49.3361009188278
 30
0.0
 40
0.0
 41
0.0
  0
VERTEX
  5
   935
  8
0
  6
CONTINUOUS
 10
-624.256993610395
 20
-49.1918136752258
 30
0.0
 40
0.0
 41
0.0
  0
VERTEX
  5
   936
  8
0
  6
CONTINUOUS
 10
-624.305112249007
 20
-49.0479985005484
 30
0.0
 40
0.0
 41
0.0
  0
VERTEX
  5
   937
  8
0
  6
CONTINUOUS
 10
-624.354706535239
 20
-48.9046604919915
 30
0.0
 40
0.0
 41
0.0
  0
VERTEX
  5
   938
  8
0
  6
CONTINUOUS
 10
-624.405741853136
 20
-48.7618021266962
 30
0.0
 40
0.0
 41
0.0
  0
VERTEX
  5
   939
  8
0
  6
CONTINUOUS
 10
-624.458176903069
 20
-48.61942304599
 30
0.0
 40
0.0
 41
0.0
  0
VERTEX
  5
   93A
  8
0
  6
CONTINUOUS
 10
-624.511963604452
 20
-48.4775198396288
 30
0.0
 40
0.0
 41
0.0
  0
VERTEX
  5
   93B
  8
0
  6
CONTINUOUS
 10
-624.567046998452
 20
-48.3360858300375
 30
0.0
 40
0.0
 41
0.0
  0
VERTEX
  5
   93C
  8
0
  6
CONTINUOUS
 10
-624.623365150708
 20
-48.1951108565519
 30
0.0
 40
0.0
 41
0.0
  0
VERTEX
  5
   93D
  8
0
  6
CONTINUOUS
 10
-624.680849054042
 20
-48.0545810596599
 30
0.0
 40
0.0
 41
0.0
  0
VERTEX
  5
   93E
  8
0
  6
CONTINUOUS
 10
-624.739422531172
 20
-47.914478665243
 30
0.0
 40
0.0
 41
0.0
  0
VERTEX
  5
   93F
  8
0
  6
CONTINUOUS
 10
-624.859497063474
 20
-47.6354641197761
 30
0.0
 40
0.0
 41
0.0
  0
VERTEX
  5
   940
  8
0
  6
CONTINUOUS
 10
-624.975631277339
 20
-47.3738496233999
 30
0.0
 40
0.0
 41
0.0
  0
VERTEX
  5
   941
  8
0
  6
CONTINUOUS
 10
-625.093940375349
 20
-47.113221420167
 30
0.0
 40
0.0
 41
0.0
  0
VERTEX
  5
   942
  8
0
  6
CONTINUOUS
 10
-625.573324660511
 20
-46.074528478232
 30
0.0
 40
0.0
 41
0.0
  0
VERTEX
  5
   943
  8
0
  6
CONTINUOUS
 10
-625.691048920413
 20
-45.8142791513342
 30
0.0
 40
0.0
 41
0.0
  0
VERTEX
  5
   944
  8
0
  6
CONTINUOUS
 10
-625.806772626067
 20
-45.5532802177767
 30
0.0
 40
0.0
 41
0.0
  0
VERTEX
  5
   945
  8
0
  6
CONTINUOUS
 10
-625.920183256316
 20
-45.2913694048946
 30
0.0
 40
0.0
 41
0.0
  0
VERTEX
  5
   946
  8
0
  6
CONTINUOUS
 10
-626.031180258746
 20
-45.0284690102964
 30
0.0
 40
0.0
 41
0.0
  0
VERTEX
  5
   947
  8
0
  6
CONTINUOUS
 10
-626.128738656264
 20
-44.7919921502868
 30
0.0
 40
0.0
 41
0.0
  0
VERTEX
  5
   948
  8
0
  6
CONTINUOUS
 10
-626.22476127551
 20
-44.5548314558871
 30
0.0
 40
0.0
 41
0.0
  0
VERTEX
  5
   949
  8
0
  6
CONTINUOUS
 10
-626.603226754898
 20
-43.6029463308104
 30
0.0
 40
0.0
 41
0.0
  0
VERTEX
  5
   94A
  8
0
  6
CONTINUOUS
 10
-626.699236198807
 20
-43.3652514139325
 30
0.0
 40
0.0
 41
0.0
  0
VERTEX
  5
   94B
  8
0
  6
CONTINUOUS
 10
-626.796816025904
 20
-43.1280781539989
 30
0.0
 40
0.0
 41
0.0
  0
VERTEX
  5
   94C
  8
0
  6
CONTINUOUS
 10
-626.896293011714
 20
-42.8915708468558
 30
0.0
 40
0.0
 41
0.0
  0
VERTEX
  5
   94D
  8
0
  6
CONTINUOUS
 10
-626.997818894845
 20
-42.655810539871
 30
0.0
 40
0.0
 41
0.0
  0
VERTEX
  5
   94E
  8
0
  6
CONTINUOUS
 10
-627.112486391364
 20
-42.3957405627453
 30
0.0
 40
0.0
 41
0.0
  0
VERTEX
  5
   94F
  8
0
  6
CONTINUOUS
 10
-627.229136496559
 20
-42.1364560925185
 30
0.0
 40
0.0
 41
0.0
  0
VERTEX
  5
   950
  8
0
  6
CONTINUOUS
 10
-627.465106959569
 20
-41.6191644355824
 30
0.0
 40
0.0
 41
0.0
  0
VERTEX
  5
   951
  8
0
  6
CONTINUOUS
 10
-627.582255821869
 20
-41.360418044943
 30
0.0
 40
0.0
 41
0.0
  0
VERTEX
  5
   952
  8
0
  6
CONTINUOUS
 10
-627.69719862311
 20
-41.1010354656893
 30
0.0
 40
0.0
 41
0.0
  0
VERTEX
  5
   953
  8
0
  6
CONTINUOUS
 10
-627.753443867401
 20
-40.970967073401
 30
0.0
 40
0.0
 41
0.0
  0
VERTEX
  5
   954
  8
0
  6
CONTINUOUS
 10
-627.808664129636
 20
-40.8405751132961
 30
0.0
 40
0.0
 41
0.0
  0
VERTEX
  5
   955
  8
0
  6
CONTINUOUS
 10
-627.862711216989
 20
-40.7098080851055
 30
0.0
 40
0.0
 41
0.0
  0
VERTEX
  5
   956
  8
0
  6
CONTINUOUS
 10
-627.9154458026
 20
-40.5786176513264
 30
0.0
 40
0.0
 41
0.0
  0
VERTEX
  5
   957
  8
0
  6
CONTINUOUS
 10
-627.966739836844
 20
-40.4469595233525
 30
0.0
 40
0.0
 41
0.0
  0
VERTEX
  5
   958
  8
0
  6
CONTINUOUS
 10
-628.016478958604
 20
-40.3147943476048
 30
0.0
 40
0.0
 41
0.0
  0
VERTEX
  5
   959
  8
0
  6
CONTINUOUS
 10
-628.064564906538
 20
-40.1820885916622
 30
0.0
 40
0.0
 41
0.0
  0
VERTEX
  5
   95A
  8
0
  6
CONTINUOUS
 10
-628.110917930353
 20
-40.0488154303912
 30
0.0
 40
0.0
 41
0.0
  0
VERTEX
  5
   95B
  8
0
  6
CONTINUOUS
 10
-628.151148684319
 20
-39.9282343974953
 30
0.0
 40
0.0
 41
0.0
  0
VERTEX
  5
   95C
  8
0
  6
CONTINUOUS
 10
-628.189897093173
 20
-39.8071685971575
 30
0.0
 40
0.0
 41
0.0
  0
VERTEX
  5
   95D
  8
0
  6
CONTINUOUS
 10
-628.22715000051
 20
-39.6856148123258
 30
0.0
 40
0.0
 41
0.0
  0
VERTEX
  5
   95E
  8
0
  6
CONTINUOUS
 10
-628.262907569198
 20
-39.5635746593752
 30
0.0
 40
0.0
 41
0.0
  0
VERTEX
  5
   95F
  8
0
  6
CONTINUOUS
 10
-628.297182252375
 20
-39.4410542107321
 30
0.0
 40
0.0
 41
0.0
  0
VERTEX
  5
   960
  8
0
  6
CONTINUOUS
 10
-628.32999776446
 20
-39.3180636174982
 30
0.0
 40
0.0
 41
0.0
  0
VERTEX
  5
   961
  8
0
  6
CONTINUOUS
 10
-628.361388052153
 20
-39.1946167320752
 30
0.0
 40
0.0
 41
0.0
  0
VERTEX
  5
   962
  8
0
  6
CONTINUOUS
 10
-628.391396265441
 20
-39.0707307307894
 30
0.0
 40
0.0
 41
0.0
  0
VERTEX
  5
   963
  8
0
  6
CONTINUOUS
 10
-628.420073728601
 20
-38.9464257365152
 30
0.0
 40
0.0
 41
0.0
  0
VERTEX
  5
   964
  8
0
  6
CONTINUOUS
 10
-628.447478911204
 20
-38.8217244413003
 30
0.0
 40
0.0
 41
0.0
  0
VERTEX
  5
   965
  8
0
  6
CONTINUOUS
 10
-628.473676399122
 20
-38.6966517289894
 30
0.0
 40
0.0
 41
0.0
  0
VERTEX
  5
   966
  8
0
  6
CONTINUOUS
 10
-628.498735865527
 20
-38.5712342978491
 30
0.0
 40
0.0
 41
0.0
  0
VERTEX
  5
   967
  8
0
  6
CONTINUOUS
 10
-628.522731041897
 20
-38.4455002831916
 30
0.0
 40
0.0
 41
0.0
  0
VERTEX
  5
   968
  8
0
  6
CONTINUOUS
 10
-628.545738689025
 20
-38.3194788799997
 30
0.0
 40
0.0
 41
0.0
  0
VERTEX
  5
   969
  8
0
  6
CONTINUOUS
 10
-628.589107411289
 20
-38.0666937220404
 30
0.0
 40
0.0
 41
0.0
  0
VERTEX
  5
   96A
  8
0
  6
CONTINUOUS
 10
-628.629477603008
 20
-37.8131192369624
 30
0.0
 40
0.0
 41
0.0
  0
VERTEX
  5
   96B
  8
0
  6
CONTINUOUS
 10
-628.667467448107
 20
-37.5589886404387
 30
0.0
 40
0.0
 41
0.0
  0
VERTEX
  5
   96C
  8
0
  6
CONTINUOUS
 10
-628.704394481459
 20
-37.2991315221996
 30
0.0
 40
0.0
 41
0.0
  0
VERTEX
  5
   96D
  8
0
  6
CONTINUOUS
 10
-628.739956907642
 20
-37.0391154560755
 30
0.0
 40
0.0
 41
0.0
  0
VERTEX
  5
   96E
  8
0
  6
CONTINUOUS
 10
-628.944520930559
 20
-35.4831552941895
 30
0.0
 40
0.0
 41
0.0
  0
VERTEX
  5
   96F
  8
0
  6
CONTINUOUS
 10
-629.01424112529
 20
-34.9679186686806
 30
0.0
 40
0.0
 41
0.0
  0
SEQEND
  5
   970
  8
0
  6
CONTINUOUS
 62
     1
  0
LINE
  5
   971
  8
0
  6
CONTINUOUS
 62
     1
 10
-584.650742263443
 20
-69.9678326416191
 30
0.0
 11
-584.650742263443
 21
-35.4678326416191
 31
0.0
  0
LINE
  5
   972
  8
0
  6
CONTINUOUS
 62
     1
 10
-582.850742263443
 20
-69.9678326416191
 30
0.0
 11
-582.850742263443
 21
-35.4678326416191
 31
0.0
  0
LINE
  5
   973
  8
0
  6
CONTINUOUS
 62
     1
 10
-581.050742263444
 20
-69.9678326416191
 30
0.0
 11
-581.050742263444
 21
-35.4678326416191
 31
0.0
  0
LINE
  5
   974
  8
0
  6
CONTINUOUS
 62
     1
 10
-579.250742263444
 20
-69.9678326416191
 30
0.0
 11
-579.250742263444
 21
-35.4678326416191
 31
0.0
  0
LINE
  5
   975
  8
0
  6
CONTINUOUS
 62
     1
 10
-577.450742263443
 20
-69.9678326416191
 30
0.0
 11
-577.450742263443
 21
-35.4678326416191
 31
0.0
  0
LINE
  5
   976
  8
0
  6
CONTINUOUS
 62
     7
 10
-575.900742067817
 20
-17.2178326416192
 30
0.0
 11
-581.650742263443
 21
-17.2178326416192
 31
0.0
  0
LINE
  5
   977
  8
0
  6
CONTINUOUS
 62
     7
 10
-575.900742067817
 20
-16.7178497314455
 30
0.0
 11
-581.650742263443
 21
-16.7178497314455
 31
0.0
  0
LINE
  5
   978
  8
0
  6
CONTINUOUS
 62
     3
 10
-636.650742293246
 20
24.1571426391602
 30
0.0
 11
-637.150742263429
 21
24.1571426391602
 31
0.0
  0
LINE
  5
   979
  8
0
  6
CONTINUOUS
 62
     3
 10
-636.650742293246
 20
23.6571426391602
 30
0.0
 11
-637.150742263429
 21
23.6571426391602
 31
0.0
  0
INSERT
  5
   97A
  8
255
  6
CONTINUOUS
 62
     7
  2
MOSTRINA
 10
-668.319870681412
 20
-37.5831604003906
 30
0.0
 41
0.5
 42
0.5
 50
3.50835464724173E-15
 43
0.5
  0
LINE
  5
   97B
  8
0
  6
CONTINUOUS
 62
     2
 10
-626.425742450662
 20
-60.7135824823552
 30
0.0
 11
-639.125742450662
 21
-60.7135824823552
 31
0.0
  0
LINE
  5
   97C
  8
0
  6
CONTINUOUS
 62
     2
 10
-639.125742450662
 20
-60.7135824823552
 30
0.0
 11
-639.125742450662
 21
-46.9678326416193
 31
0.0
  0
LINE
  5
   97D
  8
0
  6
CONTINUOUS
 62
     2
 10
-626.425742450662
 20
-60.7135824823552
 30
0.0
 11
-626.425742450662
 21
-46.9678326416193
 31
0.0
  0
ARC
  5
   97E
  8
0
  6
CONTINUOUS
 62
   130
 10
-632.775742450662
 20
-55.067890570479
 30
0.0
 40
4.0
 50
179.246229585753
 51
449.999999948034
  0
CIRCLE
  5
   97F
  8
0
  6
CONTINUOUS
 62
     7
 10
-632.775742450662
 20
-55.067890570479
 30
0.0
 40
3.6
  0
LINE
  5
   980
  8
0
  6
DASHDOT
 62
     7
 10
-626.125200547444
 20
-55.067890570479
 30
0.0
 11
-639.007310546171
 21
-55.067890570479
 31
0.0
  0
LINE
  5
   981
  8
0
  6
DOT
 62
     7
 10
-636.650742450662
 20
-60.7135824823552
 30
0.0
 11
-636.650742450662
 21
-46.9678326416193
 31
0.0
  0
LINE
  5
   982
  8
0
  6
DOT
 62
     7
 10
-628.900742450663
 20
-60.7135824823552
 30
0.0
 11
-628.900742450663
 21
-46.9678326416193
 31
0.0
  0
LINE
  5
   983
  8
0
  6
CONTINUOUS
 62
     2
 10
-626.425742450662
 20
-49.4613835239583
 30
0.0
 11
-639.125742450662
 21
-49.4613835239583
 31
0.0
  0
TEXT
  5
   984
  8
0
  6
CONTINUOUS
 62
     7
 10
-563.590984464688
 20
-5.73751813309151
 30
0.0
 40
3.00000002980232
  1
=
 50
89.9999999480344
 41
0.916666604744064
 72
     2
 11
-563.590984462695
 21
-3.53751826422173
 31
0.0
  0
TEXT
  5
   985
  8
0
  6
CONTINUOUS
 62
     7
 10
-562.932982743783
 20
34.8392564640765
 30
0.0
 40
3.00000002980232
  1
=
 50
89.9999999480344
 41
0.916666604744064
 72
     2
 11
-562.93298274179
 21
37.0392563329462
 31
0.0
  0
INSERT
  5
   986
  8
0
  6
CONTINUOUS
 62
     7
  2
*UDIM233
 10
0.0
 20
0.0
 30
0.0
  0
INSERT
  5
   987
  8
0
  6
CONTINUOUS
 62
     7
  2
*UDIM234
 10
0.0
 20
0.0
 30
0.0
  0
INSERT
  5
   988
  8
0
  6
CONTINUOUS
 62
     7
  2
*UDIM235
 10
0.0
 20
0.0
 30
0.0
  0
INSERT
  5
   989
  8
0
  6
CONTINUOUS
 62
     7
  2
*UDIM236
 10
0.0
 20
0.0
 30
0.0
  0
INSERT
  5
   98A
  8
0
  6
CONTINUOUS
 62
     7
  2
*UDIM237
 10
0.0
 20
0.0
 30
0.0
  0
TEXT
  5
   98B
  8
0
  6
CONTINUOUS
 62
     7
 10
-613.161735828082
 20
-76.4514165325951
 30
0.0
 40
3.00000002980232
  1
Y
 50
359.999999948034
 41
0.916666604744064
 72
     2
 11
-610.961735959212
 21
-76.4514165345794
 31
0.0
  0
INSERT
  5
   98C
  8
0
  6
CONTINUOUS
 62
     7
  2
*UDIM238
 10
0.0
 20
0.0
 30
0.0
  0
INSERT
  5
   98D
  8
0
  6
CONTINUOUS
 62
     7
  2
*UDIM239
 10
0.0
 20
0.0
 30
0.0
  0
INSERT
  5
   98E
  8
0
  6
CONTINUOUS
 62
     7
  2
*UDIM240
 10
0.0
 20
0.0
 30
0.0
  0
INSERT
  5
   98F
  8
0
  6
CONTINUOUS
 62
     7
  2
*UDIM241
 10
0.0
 20
0.0
 30
0.0
  0
TEXT
  5
   990
  8
0
  6
CONTINUOUS
 62
     7
 10
-560.331148297947
 20
16.1743815011756
 30
0.0
 40
3.00000002980232
  1
X
 50
359.999999948034
 41
0.916666604744064
 72
     1
 11
-559.23114836216
 21
17.6743815150846
 31
0.0
 73
     2
  0
TEXT
  5
   991
  8
0
  6
CONTINUOUS
 62
     7
 10
-682.612998874348
 20
15.5811235971228
 30
0.0
 40
3.00000002980232
  1
X
 50
359.999999948034
 41
0.916666604744064
 72
     1
 11
-681.51299893856
 21
17.0811236110319
 31
0.0
 73
     2
  0
TEXT
  5
   992
  8
0
  6
CONTINUOUS
 62
     7
 10
-611.606696994465
 20
109.073654419877
 30
0.0
 40
3.00000002980232
  1
Y
 50
359.999999948034
 41
0.916666604744064
 72
     1
 11
-610.506697058678
 21
110.573654433786
 31
0.0
 73
     2
  0
LINE
  5
   993
  8
0
  6
CONTINUOUS
 62
     7
 10
-365.013092041016
 20
48.3547172546387
 30
0.0
 11
-337.013092041016
 21
48.3547172546387
 31
0.0
  0
LINE
  5
   994
  8
0
  6
CONTINUOUS
 62
     7
 10
-365.013092041016
 20
76.3547172546387
 30
0.0
 11
-337.013092041016
 21
76.3547172546387
 31
0.0
  0
LINE
  5
   995
  8
0
  6
CONTINUOUS
 62
     7
 10
-365.013092041016
 20
76.3547172546387
 30
0.0
 11
-365.013092041016
 21
48.3547172546387
 31
0.0
  0
LINE
  5
   996
  8
0
  6
CONTINUOUS
 62
     7
 10
-337.013092041016
 20
76.3547172546387
 30
0.0
 11
-337.013092041016
 21
48.3547172546387
 31
0.0
  0
CIRCLE
  5
   997
  8
0
  6
CONTINUOUS
 62
     7
 10
-361.013092041016
 20
80.1047172546387
 30
0.0
 40
0.875
  0
CIRCLE
  5
   998
  8
0
  6
CONTINUOUS
 62
     7
 10
-341.013092041016
 20
80.1047172546387
 30
0.0
 40
0.875
  0
CIRCLE
  5
   999
  8
0
  6
CONTINUOUS
 62
     7
 10
-361.013092041016
 20
44.6047172546387
 30
0.0
 40
0.875
  0
CIRCLE
  5
   99A
  8
0
  6
CONTINUOUS
 62
     7
 10
-341.013092041016
 20
44.6047172546387
 30
0.0
 40
0.875
  0
LINE
  5
   99B
  8
0
  6
DASHDOT
 62
     7
 10
-361.013092041016
 20
81.7297172546387
 30
0.0
 11
-361.013092041016
 21
78.4797172546387
 31
0.0
  0
LINE
  5
   99C
  8
0
  6
DASHDOT
 62
     7
 10
-362.638092041016
 20
80.1047172546387
 30
0.0
 11
-359.388092041016
 21
80.1047172546387
 31
0.0
  0
LINE
  5
   99D
  8
0
  6
DASHDOT
 62
     7
 10
-341.013092041016
 20
81.7297172546387
 30
0.0
 11
-341.013092041016
 21
78.4797172546387
 31
0.0
  0
LINE
  5
   99E
  8
0
  6
DASHDOT
 62
     7
 10
-342.638092041016
 20
80.1047172546387
 30
0.0
 11
-339.388092041016
 21
80.1047172546387
 31
0.0
  0
LINE
  5
   99F
  8
0
  6
DASHDOT
 62
     7
 10
-341.013092041016
 20
46.2297172546387
 30
0.0
 11
-341.013092041016
 21
42.9797172546387
 31
0.0
  0
LINE
  5
   9A0
  8
0
  6
DASHDOT
 62
     7
 10
-342.638092041016
 20
44.6047172546387
 30
0.0
 11
-339.388092041016
 21
44.6047172546387
 31
0.0
  0
LINE
  5
   9A1
  8
0
  6
DASHDOT
 62
     7
 10
-361.013092041016
 20
46.2297172546387
 30
0.0
 11
-361.013092041016
 21
42.9797172546387
 31
0.0
  0
LINE
  5
   9A2
  8
0
  6
DASHDOT
 62
     7
 10
-362.638092041016
 20
44.6047172546387
 30
0.0
 11
-359.388092041016
 21
44.6047172546387
 31
0.0
  0
LINE
  5
   9A3
  8
0
  6
DASHDOT
 62
     7
 10
-351.013092041016
 20
89.7248295399757
 30
0.0
 11
-351.013092041016
 21
37.3568534253978
 31
0.0
  0
LINE
  5
   9A4
  8
0
  6
CONTINUOUS
 62
     7
 10
-367.833668584681
 20
82.7559029098447
 30
0.0
 11
-333.879108361374
 21
82.7559029098447
 31
0.0
  0
LINE
  5
   9A5
  8
0
  6
CONTINUOUS
 62
     7
 10
-367.833668584681
 20
41.1908378088994
 30
0.0
 11
-333.879108361374
 21
41.1908378088994
 31
0.0
  0
LINE
  5
   9A6
  8
0
  6
CONTINUOUS
 62
     7
 10
-333.879108361374
 20
82.7559029098447
 30
0.0
 11
-333.879108361374
 21
41.1908378088994
 31
0.0
  0
LINE
  5
   9A7
  8
0
  6
CONTINUOUS
 62
     7
 10
-367.833668584681
 20
82.7559029098447
 30
0.0
 11
-367.833668584681
 21
41.1908378088994
 31
0.0
  0
LINE
  5
   9A8
  8
0
  6
DASHDOT
 62
     7
 10
-374.647397187324
 20
62.3547172546387
 30
0.0
 11
-326.773127209093
 21
62.3547172546387
 31
0.0
  0
TEXT
  5
   9A9
  8
0
  6
CONTINUOUS
 62
     1
 10
-469.124557719049
 20
-137.087039949504
 30
0.0
 40
2.50000005960464
  1
G. LOCATELLI
 50
359.999999844103
 41
0.749999997615814
 72
     1
 11
-458.062057495117
 21
-135.837039949746
 31
0.0
 73
     2
  0
TEXT
  5
   9AA
  8
0
  6
CONTINUOUS
 62
     1
 10
-455.113857846196
 20
-149.783053460984
 30
0.0
 40
2.00000008940697
  1
M 3076 95-01-16
 50
359.999999844103
 41
0.749999861419206
 72
     2
 11
-432.913860963519
 21
-149.783053521277
 31
0.0
  0
TEXT
  5
   9AB
  8
0
  6
CONTINUOUS
 62
     1
 10
-465.110687244348
 20
-133.46910471939
 30
0.0
 40
2.50000005960464
  1
95-02-22
 50
359.999999844103
 41
0.749999997615814
 72
     2
 11
-450.485686958246
 21
-133.46910475911
 31
0.0
  0
TEXT
  5
   9AC
  8
0
  6
CONTINUOUS
 62
     5
 10
-372.778431829588
 20
52.1147587944121
 30
0.0
 40
3.00000002980232
  1
=     =
 50
449.999999844103
 41
0.916666604744064
 72
     2
 11
-372.778431778824
 21
70.8147577125878
 31
0.0
  0
TEXT
  5
   9AD
  8
0
  6
CONTINUOUS
 62
     5
 10
-381.691960643788
 20
48.1777570877523
 30
0.0
 40
3.00000002980232
  1
=        =
 50
449.999999844103
 41
0.916666604744064
 72
     2
 11
-381.691960570628
 21
75.127755530581
 31
0.0
  0
INSERT
  5
   9AE
  8
0
  6
CONTINUOUS
 62
     7
  2
*UDIM242
 10
0.0
 20
0.0
 30
0.0
  0
TEXT
  5
   9AF
  8
0
  6
CONTINUOUS
 62
     7
 10
-357.9136340341
 20
95.5790631209158
 30
0.0
 40
3.00000002980232
  1
=   =
 50
359.999999844103
 41
0.916666604744064
 72
     2
 11
-344.713634799026
 21
95.5790630850661
 31
0.0
  0
TEXT
  5
   9B0
  8
0
  6
CONTINUOUS
 62
     7
 10
-357.972176285687
 20
89.0223214064382
 30
0.0
 40
3.00000002980232
  1
=   =
 50
359.999999844103
 41
0.916666604744064
 72
     2
 11
-344.772177050613
 21
89.0223213705885
 31
0.0
  0
INSERT
  5
   9B1
  8
0
  6
CONTINUOUS
 62
     7
  2
*UDIM243
 10
0.0
 20
0.0
 30
0.0
  0
INSERT
  5
   9B2
  8
0
  6
CONTINUOUS
 62
     7
  2
*UDIM244
 10
0.0
 20
0.0
 30
0.0
  0
INSERT
  5
   9B3
  8
0
  6
CONTINUOUS
 62
     7
  2
*UDIM245
 10
0.0
 20
0.0
 30
0.0
  0
INSERT
  5
   9B4
  8
0
  6
CONTINUOUS
 62
     7
  2
*UDIM246
 10
0.0
 20
0.0
 30
0.0
  0
TEXT
  5
   9B5
  8
0
  6
CONTINUOUS
 62
     7
 10
-351.563149819874
 20
34.2914218211225
 30
0.0
 40
3.00000002980232
  1
Y
 50
359.999999844103
 41
0.916666604744064
 72
     2
 11
-349.363149951004
 21
34.2914218151475
 31
0.0
  0
TEXT
  5
   9B6
  8
0
  6
CONTINUOUS
 62
     7
 10
-351.264694581531
 20
105.119079520707
 30
0.0
 40
3.00000002980232
  1
Y
 50
359.999999844103
 41
0.916666604744064
 72
     2
 11
-349.064694712662
 21
105.119079514732
 31
0.0
  0
TEXT
  5
   9B7
  8
0
  6
CONTINUOUS
 62
     7
 10
-325.785196195148
 20
61.3010974431089
 30
0.0
 40
3.00000002980232
  1
X
 50
359.999999844103
 41
0.916666604744064
 72
     2
 11
-323.585196326279
 21
61.3010974371339
 31
0.0
  0
TEXT
  5
   9B8
  8
0
  6
CONTINUOUS
 62
     7
 10
-396.805885205768
 20
61.3010974431089
 30
0.0
 40
3.00000002980232
  1
X
 50
359.999999844103
 41
0.916666604744064
 72
     2
 11
-394.605885336899
 21
61.3010974371339
 31
0.0
  0
TEXT
  5
   9B9
  8
0
  6
CONTINUOUS
 62
     1
 10
-360.440429669082
 20
-160.981754212768
 30
0.0
 40
4.00000017881393
  1
601812/711
 50
359.999999844103
 41
0.937499973922969
 72
     2
 11
-323.69042906931
 21
-160.981754312577
 31
0.0
  0
TEXT
  5
   9BA
  8
0
  6
CONTINUOUS
 62
     1
 10
-342.354736314311
 20
-152.000171654943
 30
0.0
 40
3.00000002980232
  1
S5
 50
359.999999844103
 41
0.916666604744064
 72
     2
 11
-337.404736603891
 21
-152.000171668387
 31
0.0
  0
TEXT
  5
   9BB
  8
0
  6
CONTINUOUS
 62
     1
 10
-370.889156073073
 20
-133.68989941204
 30
0.0
 40
2.00000008940697
  1
3POLE LOW VOLTAGE M.C.C.B SERIES ISOMAX
 50
359.999999844103
 41
0.749999861419206
 72
     1
 11
-341.789160150296
 21
-132.689899446369
 31
0.0
 73
     2
  0
TEXT
  5
   9BC
  8
0
  6
CONTINUOUS
 62
     1
 10
-363.389157087831
 20
-136.689899432409
 30
0.0
 40
2.00000008940697
  1
FIXED VERSION TERMINALS CABLE
 50
359.999999844103
 41
0.749999861419206
 72
     1
 11
-341.789160114521
 21
-135.689899446369
 31
0.0
 73
     2
  0
TEXT
  5
   9BD
  8
0
  6
CONTINUOUS
 62
     1
 10
-367.686764440427
 20
-141.760166154005
 30
0.0
 40
2.00000008940697
  1
INTERR.AUTOMATICO SERIE ISOMAX
 50
359.999999844103
 41
0.749999861419206
 72
     1
 11
-345.33676757217
 21
-140.760166170002
 31
0.0
 73
     2
  0
TEXT
  5
   9BE
  8
0
  6
CONTINUOUS
 62
     1
 10
-378.936762828855
 20
-144.760166123451
 30
0.0
 40
2.00000008940697
  1
TRIPOL.ESECUZ.FISSA TERMINALI PER CAVI ANTER.
 50
359.999999844103
 41
0.749999861419206
 72
     1
 11
-345.336767536396
 21
-143.760166170002
 31
0.0
 73
     2
  0
ENDSEC
  0
EOF
