  0
SECTION
  2
HEADER
  9
$ACADVER
  1
AC1009
  9
$INSBASE
 10
0.0
 20
0.0
 30
0.0
  9
$EXTMIN
 10
-377.79630259999999
 20
314.5586931968503
 30
0.0
  9
$EXTMAX
 10
1005.400024
 20
780.36459699999989
 30
0.0
  9
$LIMMIN
 10
0.0
 20
0.0
  9
$LIMMAX
 10
420.0
 20
297.0
  9
$ORTHOMODE
 70
     0
  9
$REGENMODE
 70
     1
  9
$FILLMODE
 70
     1
  9
$QTEXTMODE
 70
     0
  9
$MIRRTEXT
 70
     1
  9
$DRAGMODE
 70
     2
  9
$LTSCALE
 40
1.0
  9
$OSMODE
 70
    47
  9
$ATTMODE
 70
     1
  9
$TEXTSIZE
 40
0.0
  9
$TRACEWID
 40
1.0
  9
$TEXTSTYLE
  7
STANDARD
  9
$CLAYER
  8
0
  9
$CELTYPE
  6
BYLAYER
  9
$CECOLOR
 62
   256
  9
$DIMSCALE
 40
1.0
  9
$DIMASZ
 40
2.5
  9
$DIMEXO
 40
0.625
  9
$DIMDLI
 40
3.75
  9
$DIMRND
 40
0.0
  9
$DIMDLE
 40
0.0
  9
$DIMEXE
 40
1.25
  9
$DIMTP
 40
0.0
  9
$DIMTM
 40
0.0
  9
$DIMTXT
 40
2.5
  9
$DIMCEN
 40
2.5
  9
$DIMTSZ
 40
0.0
  9
$DIMTOL
 70
     0
  9
$DIMLIM
 70
     0
  9
$DIMTIH
 70
     0
  9
$DIMTOH
 70
     0
  9
$DIMSE1
 70
     0
  9
$DIMSE2
 70
     0
  9
$DIMTAD
 70
     1
  9
$DIMZIN
 70
     8
  9
$DIMBLK
  1

  9
$DIMASO
 70
     1
  9
$DIMSHO
 70
     1
  9
$DIMPOST
  1

  9
$DIMAPOST
  1

  9
$DIMALT
 70
     0
  9
$DIMALTD
 70
     3
  9
$DIMALTF
 40
0.03937
  9
$DIMLFAC
 40
1.0
  9
$DIMTOFL
 70
     1
  9
$DIMTVP
 40
0.0
  9
$DIMTIX
 70
     0
  9
$DIMSOXD
 70
     0
  9
$DIMSAH
 70
     0
  9
$DIMBLK1
  1

  9
$DIMBLK2
  1

  9
$DIMSTYLE
  2
STANDARD
  9
$DIMCLRD
 70
     0
  9
$DIMCLRE
 70
     0
  9
$DIMCLRT
 70
     0
  9
$DIMTFAC
 40
1.0
  9
$DIMGAP
 40
0.625
  9
$LUNITS
 70
     2
  9
$LUPREC
 70
     4
  9
$SKETCHINC
 40
1.0
  9
$FILLETRAD
 40
2.5
  9
$AUNITS
 70
     0
  9
$AUPREC
 70
     0
  9
$MENU
  1
.
  9
$ELEVATION
 40
0.0
  9
$PELEVATION
 40
0.0
  9
$THICKNESS
 40
0.0
  9
$LIMCHECK
 70
     0
  9
$BLIPMODE
 70
     0
  9
$CHAMFERA
 40
2.5
  9
$CHAMFERB
 40
2.5
  9
$SKPOLY
 70
     0
  9
$TDCREATE
 40
2311942.6599061568
  9
$TDUPDATE
 40
2454455.3892753348
  9
$TDINDWG
 40
0.0011697685
  9
$TDUSRTIMER
 40
0.0011697685
  9
$USRTIMER
 70
     1
  9
$ANGBASE
 50
0.0
  9
$ANGDIR
 70
     0
  9
$PDMODE
 70
     0
  9
$PDSIZE
 40
0.0
  9
$PLINEWID
 40
0.0
  9
$COORDS
 70
     1
  9
$SPLFRAME
 70
     0
  9
$SPLINETYPE
 70
     6
  9
$SPLINESEGS
 70
     8
  9
$ATTDIA
 70
     0
  9
$ATTREQ
 70
     1
  9
$HANDLING
 70
 22529
  9
$HANDSEED
  5
96F
  9
$SURFTAB1
 70
     6
  9
$SURFTAB2
 70
     6
  9
$SURFTYPE
 70
     6
  9
$SURFU
 70
     6
  9
$SURFV
 70
     6
  9
$UCSNAME
  2

  9
$UCSORG
 10
0.0
 20
0.0
 30
0.0
  9
$UCSXDIR
 10
1.0
 20
0.0
 30
0.0
  9
$UCSYDIR
 10
0.0
 20
1.0
 30
0.0
  9
$PUCSNAME
  2

  9
$PUCSORG
 10
0.0
 20
0.0
 30
0.0
  9
$PUCSXDIR
 10
1.0
 20
0.0
 30
0.0
  9
$PUCSYDIR
 10
0.0
 20
1.0
 30
0.0
  9
$USERI1
 70
     0
  9
$USERI2
 70
     0
  9
$USERI3
 70
     0
  9
$USERI4
 70
     0
  9
$USERI5
 70
     0
  9
$USERR1
 40
0.0
  9
$USERR2
 40
0.0
  9
$USERR3
 40
0.0
  9
$USERR4
 40
0.0
  9
$USERR5
 40
0.0
  9
$WORLDVIEW
 70
     1
  9
$SHADEDGE
 70
     3
  9
$SHADEDIF
 70
    70
  9
$TILEMODE
 70
     1
  9
$MAXACTVP
 70
    48
  9
$PLIMCHECK
 70
     0
  9
$PEXTMIN
 10
0.0
 20
0.0
 30
0.0
  9
$PEXTMAX
 10
289.87399299999998
 20
213.62458799999999
 30
2.0
  9
$PLIMMIN
 10
0.0
 20
0.0
  9
$PLIMMAX
 10
420.0
 20
297.0
  9
$UNITMODE
 70
     0
  9
$VISRETAIN
 70
     0
  9
$PLINEGEN
 70
     0
  9
$PSLTSCALE
 70
     1
  0
ENDSEC
  0
SECTION
  2
TABLES
  0
TABLE
  2
VPORT
 70
     2
  0
VPORT
  2
*ACTIVE
 70
     0
 10
0.0
 20
0.0
 11
1.0
 21
1.0
 12
313.80186070000002
 22
547.46164509842515
 13
0.0
 23
0.0
 14
1.0
 24
1.0
 15
0.0
 25
0.0
 16
0.0
 26
0.0
 36
1.0
 17
0.0
 27
0.0
 37
0.0
 40
896.50873099976377
 41
1.550724637681159
 42
50.0
 43
0.0
 44
0.0
 50
0.0
 51
0.0
 71
     0
 72
   100
 73
     1
 74
     1
 75
     0
 76
     0
 77
     0
 78
     0
  0
ENDTAB
  0
TABLE
  2
LTYPE
 70
     8
  0
LTYPE
  2
CONTINUOUS
 70
     0
  3
Solid line
 72
    65
 73
     0
 40
0.0
  0
LTYPE
  2
DASHED
 70
     0
  3
__ __ __ __ __ __ __ __ __ __ __ __ __ __ __ __
 72
    65
 73
     2
 40
15.0
 49
12.0
 49
-3.0
  0
LTYPE
  2
DASHDOT
 70
     0
  3
 __ . __ . __ . __ . __ . __ . __ . 
 72
    65
 73
     4
 40
18.5
 49
12.0
 49
-3.0
 49
0.5
 49
-3.0
  0
LTYPE
  2
DOT
 70
     0
  3
 . . . . . . . . . . . . . . . .
 72
    65
 73
     2
 40
3.5
 49
0.5
 49
-3.0
  0
LTYPE
  2
DASHSPACE
 70
     0
  3
__    __    __    __    __   
 72
    65
 73
     2
 40
30.0
 49
12.0
 49
-18.0
  0
LTYPE
  2
DASHDOT2
 70
     0
  3
__ . . __ . . __ . . __ 
 72
    65
 73
     6
 40
22.0
 49
12.0
 49
-3.0
 49
0.5
 49
-3.0
 49
0.5
 49
-3.0
  0
LTYPE
  2
PHANTOM
 70
     0
  3
____________    ____    ____   _
 72
    65
 73
     6
 40
20.0
 49
10.0
 49
-2.0
 49
2.0
 49
-2.0
 49
2.0
 49
-2.0
  0
LTYPE
  2
AXES
 70
     0
  3
________  __  ________  __  _____
 72
    65
 73
     4
 40
24.0
 49
15.0
 49
-3.0
 49
3.0
 49
-3.0
  0
ENDTAB
  0
TABLE
  2
LAYER
 70
     1
  0
LAYER
  2
0
 70
     0
 62
     7
  6
CONTINUOUS
  0
ENDTAB
  0
TABLE
  2
STYLE
 70
     2
  0
STYLE
  2
STANDARD
 70
     0
 40
0.0
 41
1.0
 50
0.0
 71
     0
 42
0.0
  3
isocp.shx
  4

  0
STYLE
  2
GDT
 70
     0
 40
0.0
 41
1.0
 50
0.0
 71
     0
 42
0.0
  3
amgdt.shx
  4

  0
ENDTAB
  0
TABLE
  2
VIEW
 70
     0
  0
ENDTAB
  0
TABLE
  2
UCS
 70
     0
  0
ENDTAB
  0
TABLE
  2
APPID
 70
     1
  0
APPID
  2
ACAD
 70
     0
  0
ENDTAB
  0
TABLE
  2
DIMSTYLE
 70
     1
  0
DIMSTYLE
  2
STANDARD
 70
     0
  3

  4

  5

  6

  7

 40
1.0
 41
2.5
 42
0.625
 43
3.75
 44
1.25
 45
0.0
 46
0.0
 47
0.0
 48
0.0
140
2.5
141
2.5
142
0.0
143
0.03937
144
1.0
145
0.0
146
1.0
147
0.625
 71
     0
 72
     0
 73
     0
 74
     0
 75
     0
 76
     0
 77
     1
 78
     8
170
     0
171
     3
172
     1
173
     0
174
     0
175
     0
176
     0
177
     0
178
     0
  0
ENDTAB
  0
ENDSEC
  0
SECTION
  2
BLOCKS
  0
BLOCK
  8
0
  2
$MODEL_SPACE
 70
     0
 10
0.0
 20
0.0
 30
0.0
  3
$MODEL_SPACE
  1

  0
ENDBLK
  5
E
  8
0
  0
BLOCK
 67
     1
  8
0
  2
$PAPER_SPACE
 70
     0
 10
0.0
 20
0.0
 30
0.0
  3
$PAPER_SPACE
  1

  0
ENDBLK
  5
10
 67
     1
  8
0
  0
BLOCK
  8
0
  2
BLOCK0
 70
     0
 10
0.0
 20
0.0
 30
0.0
  3
BLOCK0
  1

  0
TEXT
  5
574
  8
0
 62
     1
 10
-503.0
 20
-82.0
 30
0.0
 40
3.0
  1
Ts3
 50
180.0
 41
1.2257674620974599
 72
     5
 11
-510.69998199999998
 21
-82.0
 31
0.0
  0
ENDBLK
  5
575
  8
0
  0
BLOCK
  8
0
  2
BLOCK1
 70
     0
 10
0.0
 20
0.0
 30
0.0
  3
BLOCK1
  1

  0
TEXT
  5
577
  8
0
 62
     1
 10
-441.15213
 20
-80.0
 30
0.0
 40
2.0
  1
N0204 2007-09-17
 50
180.0
 41
1.1017693073406229
 72
     5
 11
-464.84787
 21
-80.0
 31
0.0
  0
ENDBLK
  5
578
  8
0
  0
BLOCK
  8
0
  2
BLOCK2
 70
     0
 10
0.0
 20
0.0
 30
0.0
  3
BLOCK2
  1

  0
TEXT
  5
57A
  8
0
 62
     1
 10
-476.0
 20
-72.0
 30
0.0
 40
4.0
  1
1SDH000637R0.111
 50
180.0
 41
1.4454345609756081
 72
     5
 11
-535.26281700000004
 21
-72.0
 31
0.0
  0
ENDBLK
  5
57B
  8
0
  0
BLOCK
  8
0
  2
BLOCK3
 70
     0
 10
0.0
 20
0.0
 30
0.0
  3
BLOCK3
  1

  0
TEXT
  5
57D
  8
0
 62
     1
 10
-477.0
 20
-95.0
 30
0.0
 40
2.0
  1
INTERR.AUTOMATICO SERIE ISOMAX
 50
179.9999897438901
 41
1.076916072289172
 72
     5
 11
-521.69201699999985
 21
-94.999992000000006
 31
0.0
  0
ENDBLK
  5
57E
  8
0
  0
BLOCK
  8
0
  2
BLOCK4
 70
     0
 10
0.0
 20
0.0
 30
0.0
  3
BLOCK4
  1

  0
TEXT
  5
580
  8
0
 62
     1
 10
-466.0
 20
-92.0
 30
0.0
 40
2.0
  1
TRIPOL.ESECUZIONE ESTRAIBILE TERMIN.ANTERIORI
 50
179.99999317785429
 41
1.1254269346733761
 72
     5
 11
-533.18798800000002
 21
-91.999992000000006
 31
0.0
  0
ENDBLK
  5
581
  8
0
  0
BLOCK
  8
0
  2
BLOCK5
 70
     0
 10
0.0
 20
0.0
 30
0.0
  3
BLOCK5
  1

  0
TEXT
  5
583
  8
0
 62
     1
 10
-474.0
 20
-103.0
 30
0.0
 40
2.0
  1
3POLE LOW VOLTAGE M.C.C.B SERIES ISOMAX
 50
179.9999921228804
 41
1.0999919659735451
 72
     5
 11
-532.18957499999999
 21
-102.99999200000001
 31
0.0
  0
ENDBLK
  5
584
  8
0
  0
BLOCK
  8
0
  2
BLOCK6
 70
     0
 10
0.0
 20
0.0
 30
0.0
  3
BLOCK6
  1

  0
TEXT
  5
586
  8
0
 62
     1
 10
-476.0
 20
-100.0
 30
0.0
 40
2.0
  1
WITHDRAWABLE VERSION FRONT TERMINALS
 50
179.99999146278469
 41
1.013423310137995
 72
     5
 11
-529.69036900000003
 21
-99.999992000000006
 31
0.0
  0
ENDBLK
  5
587
  8
0
  0
BLOCK
  8
0
  2
BLOCK7
 70
     0
 10
0.0
 20
0.0
 30
0.0
  3
BLOCK7
  1

  0
TEXT
  5
589
  8
0
 62
     7
 10
-77.0
 20
-5.0
 30
0.0
 40
3.0
  1
X
 50
180.0
 41
0.9777764444444425
 72
     5
 11
-79.199996999999996
 21
-5.0
 31
0.0
  0
ENDBLK
  5
58A
  8
0
  0
BLOCK
  8
0
  2
BLOCK8
 70
     0
 10
0.0
 20
0.0
 30
0.0
  3
BLOCK8
  1

  0
TEXT
  5
58C
  8
0
 62
     7
 10
109.0
 20
-5.0
 30
0.0
 40
3.0
  1
X
 50
180.0
 41
0.9777764444444425
 72
     5
 11
106.800003
 21
-5.0
 31
0.0
  0
ENDBLK
  5
58D
  8
0
  0
BLOCK
  8
0
  2
BLOCK9
 70
     0
 10
0.0
 20
0.0
 30
0.0
  3
BLOCK9
  1

  0
TEXT
  5
58F
  8
0
 62
     7
 10
1.0
 20
-129.0
 30
0.0
 40
3.0
  1
Y
 50
180.0
 41
0.9777777777777778
 72
     5
 11
-1.1999999999999991
 21
-129.0
 31
0.0
  0
ENDBLK
  5
590
  8
0
  0
BLOCK
  8
0
  2
BLOCK10
 70
     0
 10
0.0
 20
0.0
 30
0.0
  3
BLOCK10
  1

  0
TEXT
  5
592
  8
0
 62
     7
 10
0.0
 20
196.0
 30
0.0
 40
3.0
  1
Y
 50
180.0
 41
0.9777777777777778
 72
     5
 11
-2.2000000000000002
 21
196.0
 31
0.0
  0
ENDBLK
  5
593
  8
0
  0
BLOCK
  8
0
  2
BLOCK11
 70
     0
 10
0.0
 20
0.0
 30
0.0
  3
BLOCK11
  1

  0
TEXT
  5
595
  8
0
 62
     7
 10
155.99047899999999
 20
91.979613999999998
 30
0.0
 40
3.0
  1
 5
 50
202.64963740432279
 41
1.664276198983822
 72
     5
 11
151.4222409999999
 21
90.073394999999977
 31
0.0
  0
ENDBLK
  5
596
  8
0
  0
BLOCK
  8
0
  2
BLOCK12
 70
     0
 10
0.0
 20
0.0
 30
0.0
  3
BLOCK12
  1

  0
TEXT
  5
598
  8
0
 62
     7
 10
157.46704099999991
 20
92.595764000000003
 30
0.0
 40
3.0
  1
%%c
 50
202.64971075636271
 41
0.9777805771022492
 72
     5
 11
155.43670700000001
 21
91.748549999999994
 31
0.0
  0
ENDBLK
  5
599
  8
0
  0
BLOCK
  8
0
  2
BLOCK13
 70
     0
 10
0.0
 20
0.0
 30
0.0
  3
BLOCK13
  1

  0
TEXT
  5
59B
  8
0
 62
     7
 10
135.68713399999999
 20
83.507477000000009
 30
0.0
 40
3.0
  1
 (M4)
 50
202.64966485087601
 41
1.6002244716596341
 72
     5
 11
123.505196
 21
78.424231999999975
 31
0.0
  0
ENDBLK
  5
59C
  8
0
  0
BLOCK
  8
0
  2
BLOCK14
 70
     0
 10
0.0
 20
0.0
 30
0.0
  3
BLOCK14
  1

  0
TEXT
  5
59E
  8
0
 62
     7
 10
-113.55444299999991
 20
16.5
 30
0.0
 40
3.0
  1
100
 50
269.99994047176273
 41
1.4660032381388619
 72
     5
 11
-113.554451
 21
8.8000199999999982
 31
0.0
  0
ENDBLK
  5
59F
  8
0
  0
BLOCK
  8
0
  2
BLOCK15
 70
     0
 10
0.0
 20
0.0
 30
0.0
  3
BLOCK15
  1

  0
TEXT
  5
5A1
  8
0
 62
     7
 10
-37.0
 20
134.743469
 30
0.0
 40
3.0
  1
25
 50
180.0
 41
1.2776591662854091
 72
     5
 11
-41.949989000000002
 21
134.743469
 31
0.0
  0
ENDBLK
  5
5A2
  8
0
  0
BLOCK
  8
0
  2
BLOCK16
 70
     0
 10
0.0
 20
0.0
 30
0.0
  3
BLOCK16
  1

  0
TEXT
  5
5A4
  8
0
 62
     7
 10
-12.0
 20
171.426208
 30
0.0
 40
3.0
  1
45
 50
180.0
 41
1.185835136090813
 72
     5
 11
-16.949988999999999
 21
171.426208
 31
0.0
  0
ENDBLK
  5
5A5
  8
0
  0
BLOCK
  8
0
  2
BLOCK17
 70
     0
 10
0.0
 20
0.0
 30
0.0
  3
BLOCK17
  1

  0
TEXT
  5
5A7
  8
0
 62
     7
 10
139.973389
 20
0.181183
 30
0.0
 40
3.0
  1
52,25
 50
270.00006510903279
 41
1.446687743866663
 72
     5
 11
139.97340399999999
 21
-13.01877799999999
 31
0.0
  0
ENDBLK
  5
5A8
  8
0
  0
BLOCK
  8
0
  2
BLOCK18
 70
     0
 10
0.0
 20
0.0
 30
0.0
  3
BLOCK18
  1

  0
LINE
  5
5AA
  8
0
 62
     2
 10
75.736808999999994
 20
-175.33813499999999
 30
0.0
 11
75.736808999999994
 21
-210.83813499999999
 31
0.0
  0
LINE
  5
5AB
  8
0
 62
     2
 10
90.736808999999994
 20
-175.33813499999999
 30
0.0
 11
90.736808999999994
 21
-210.83813499999999
 31
0.0
  0
LINE
  5
5AC
  8
0
 62
     2
 10
74.736808999999994
 20
-210.83813499999999
 30
0.0
 11
91.736808999999994
 21
-210.83813499999999
 31
0.0
  0
LINE
  5
5AD
  8
0
 62
     2
 10
75.736808999999994
 20
-175.33813499999999
 30
0.0
 11
90.736808999999994
 21
-175.33813499999999
 31
0.0
  0
LINE
  5
5AE
  8
0
 62
     2
 10
91.736808999999994
 20
-210.83813499999999
 30
0.0
 11
189.73049900000001
 21
-210.83813499999999
 31
0.0
  0
LINE
  5
5AF
  8
0
 62
     2
 10
31.236809000000001
 20
-210.83813499999999
 30
0.0
 11
74.736808999999994
 21
-210.83813499999999
 31
0.0
  0
LINE
  5
5B0
  8
0
 62
     2
 10
29.986809000000001
 20
-37.588135000000001
 30
0.0
 11
29.986809000000001
 21
-209.58813499999999
 31
0.0
  0
LINE
  5
5B1
  8
0
 62
     2
 10
31.236809000000001
 20
-36.338135000000001
 30
0.0
 11
189.73049900000001
 21
-36.338135000000001
 31
0.0
  0
LINE
  5
5B2
  8
0
 62
     2
 10
169.986816
 20
-175.33813499999999
 30
0.0
 11
170.986816
 21
-175.33813499999999
 31
0.0
  0
LINE
  5
5B3
  8
0
 62
     2
 10
169.986816
 20
-45.338134999999987
 30
0.0
 11
170.986816
 21
-45.338134999999987
 31
0.0
  0
LINE
  5
5B4
  8
0
 62
     2
 10
49.986809000000001
 20
-175.33813499999999
 30
0.0
 11
50.986809000000001
 21
-175.33813499999999
 31
0.0
  0
LINE
  5
5B5
  8
0
 62
     2
 10
49.986809000000001
 20
-46.338135000000001
 30
0.0
 11
49.986809000000001
 21
-174.33813499999999
 31
0.0
  0
LINE
  5
5B6
  8
0
 62
     2
 10
49.986809000000001
 20
-45.338134999999987
 30
0.0
 11
50.986809000000001
 21
-45.338134999999987
 31
0.0
  0
LINE
  5
5B7
  8
0
 62
     2
 10
29.986809000000001
 20
-174.33813499999999
 30
0.0
 11
49.986809000000001
 21
-174.33813499999999
 31
0.0
  0
LINE
  5
5B8
  8
0
 62
     2
 10
170.986816
 20
-175.33813499999999
 30
0.0
 11
190.986816
 21
-175.33813499999999
 31
0.0
  0
LINE
  5
5B9
  8
0
 62
     2
 10
50.986809000000001
 20
-175.33813499999999
 30
0.0
 11
74.736808999999994
 21
-175.33813499999999
 31
0.0
  0
LINE
  5
5BA
  8
0
 62
     2
 10
91.736808999999994
 20
-175.33813499999999
 30
0.0
 11
169.986816
 21
-175.33813499999999
 31
0.0
  0
LINE
  5
5BB
  8
0
 62
     2
 10
29.986809000000001
 20
-175.33813499999999
 30
0.0
 11
49.986809000000001
 21
-175.33813499999999
 31
0.0
  0
LINE
  5
5BC
  8
0
 62
     2
 10
170.986816
 20
-45.338134999999987
 30
0.0
 11
190.986816
 21
-45.338134999999987
 31
0.0
  0
LINE
  5
5BD
  8
0
 62
     2
 10
50.986809000000001
 20
-45.338134999999987
 30
0.0
 11
169.986816
 21
-45.338134999999987
 31
0.0
  0
LINE
  5
5BE
  8
0
 62
     2
 10
29.986809000000001
 20
-45.338134999999987
 30
0.0
 11
49.986809000000001
 21
-45.338134999999987
 31
0.0
  0
LINE
  5
5BF
  8
0
 62
     2
 10
29.986809000000001
 20
-46.338135000000001
 30
0.0
 11
49.986809000000001
 21
-46.338135000000001
 31
0.0
  0
LINE
  5
5C0
  8
0
 62
     2
 10
74.736808999999994
 20
-175.33813499999999
 30
0.0
 11
74.736808999999994
 21
-210.83813499999999
 31
0.0
  0
LINE
  5
5C1
  8
0
 62
     2
 10
91.736808999999994
 20
-175.33813499999999
 30
0.0
 11
91.736808999999994
 21
-210.83813499999999
 31
0.0
  0
LINE
  5
5C2
  8
0
 62
     2
 10
90.736808999999994
 20
-175.38813799999991
 30
0.0
 11
91.736808999999994
 21
-175.38813799999991
 31
0.0
  0
LINE
  5
5C3
  8
0
 62
     2
 10
74.736808999999994
 20
-175.38813799999991
 30
0.0
 11
75.736808999999994
 21
-175.38813799999991
 31
0.0
  0
LINE
  5
5C4
  8
0
 62
     2
 10
169.986816
 20
-46.338135000000001
 30
0.0
 11
169.986816
 21
-174.33813499999999
 31
0.0
  0
LINE
  5
5C5
  8
0
 62
     2
 10
50.986809000000001
 20
-46.338135000000001
 30
0.0
 11
50.986809000000001
 21
-174.33813499999999
 31
0.0
  0
LINE
  5
5C6
  8
0
 62
     2
 10
50.986809000000001
 20
-174.33813499999999
 30
0.0
 11
169.986816
 21
-174.33813499999999
 31
0.0
  0
LINE
  5
5C7
  8
0
 62
     2
 10
50.986809000000001
 20
-46.338135000000001
 30
0.0
 11
169.986816
 21
-46.338135000000001
 31
0.0
  0
LINE
  5
5C8
  8
0
 62
     2
 10
162.986816
 20
-167.33813499999999
 30
0.0
 11
169.986816
 21
-174.33813499999999
 31
0.0
  0
LINE
  5
5C9
  8
0
 62
     2
 10
169.986816
 20
-46.338135000000001
 30
0.0
 11
162.4573969999999
 21
-62.338138999999998
 31
0.0
  0
LINE
  5
5CA
  8
0
 62
     2
 10
57.986828000000003
 20
-167.33813499999999
 30
0.0
 11
50.986804999999997
 21
-174.33815000000001
 31
0.0
  0
LINE
  5
5CB
  8
0
 62
     2
 10
50.986809000000001
 20
-46.338138999999991
 30
0.0
 11
58.51621999999999
 21
-62.338138999999998
 31
0.0
  0
LINE
  5
5CC
  8
0
 62
     2
 10
170.98049900000001
 20
-174.33807400000001
 30
0.0
 11
190.9804989999999
 21
-174.33807400000001
 31
0.0
  0
LINE
  5
5CD
  8
0
 62
     2
 10
170.98049900000001
 20
-45.338134999999987
 30
0.0
 11
170.98049900000001
 21
-175.33813499999999
 31
0.0
  0
LINE
  5
5CE
  8
0
 62
     2
 10
190.9804989999999
 20
-37.588135000000001
 30
0.0
 11
190.9804989999999
 21
-45.338134999999987
 31
0.0
  0
LINE
  5
5CF
  8
0
 62
     2
 10
190.9804989999999
 20
-115.34339900000001
 30
0.0
 11
190.9804989999999
 21
-175.33813499999999
 31
0.0
  0
ARC
  5
5D0
  8
0
 62
     2
 10
195.12768600000001
 20
-110.338104
 30
0.0
 40
6.5001670000000003
 50
129.64374699999991
 51
230.3562529999999
  0
LINE
  5
5D1
  8
0
 62
     2
 10
190.9804989999999
 20
-105.3328019999999
 30
0.0
 11
190.9804989999999
 21
-115.34339900000001
 31
0.0
  0
LINE
  5
5D2
  8
0
 62
     2
 10
170.986816
 20
-46.338135000000001
 30
0.0
 11
190.986816
 21
-46.338135000000001
 31
0.0
  0
LINE
  5
5D3
  8
0
 62
     2
 10
190.9804989999999
 20
-45.338134999999987
 30
0.0
 11
190.9804989999999
 21
-105.3328019999999
 31
0.0
  0
LINE
  5
5D4
  8
0
 62
     2
 10
190.9804989999999
 20
-175.33813499999999
 30
0.0
 11
190.9804989999999
 21
-209.58813499999999
 31
0.0
  0
POINT
  5
5D5
  8
0
 62
     2
 10
110.48680899999999
 20
-114.83813499999999
 30
0.0
  0
ARC
  5
5D6
  8
0
 62
     2
 10
189.73049900000001
 20
-37.588135000000001
 30
0.0
 40
1.25
 50
0.000003
 51
90.000005000000002
  0
ARC
  5
5D7
  8
0
 62
     2
 10
31.236809000000001
 20
-37.588135000000001
 30
0.0
 40
1.25
 50
90.000005000000002
 51
180.00000099999991
  0
ARC
  5
5D8
  8
0
 62
     2
 10
31.236809000000001
 20
-209.58813499999999
 30
0.0
 40
1.25
 50
180.00000099999991
 51
270.0
  0
ARC
  5
5D9
  8
0
 62
     2
 10
189.73049900000001
 20
-209.58813499999999
 30
0.0
 40
1.25
 50
270.0
 51
0.000003
  0
ENDBLK
  5
5DA
  8
0
  0
BLOCK
  8
0
  2
BLOCK19
 70
     0
 10
0.0
 20
0.0
 30
0.0
  3
BLOCK19
  1

  0
TEXT
  5
5DC
  8
0
 62
     7
 10
244.01670799999999
 20
-106.58813499999999
 30
0.0
 40
3.0
  1
105
 50
270.0
 41
1.432750773232002
 72
     5
 11
244.01670799999999
 21
-114.2881159999999
 31
0.0
  0
ENDBLK
  5
5DD
  8
0
  0
BLOCK
  8
0
  2
BLOCK20
 70
     0
 10
0.0
 20
0.0
 30
0.0
  3
BLOCK20
  1

  0
TEXT
  5
5DF
  8
0
 62
     7
 10
-44.520882
 20
-126.838165
 30
0.0
 40
3.0
  1
35
 50
269.99996527526412
 41
1.2776612311939379
 72
     5
 11
-44.520885
 21
-131.788162
 31
0.0
  0
ENDBLK
  5
5E0
  8
0
  0
BLOCK
  8
0
  2
BLOCK21
 70
     0
 10
0.0
 20
0.0
 30
0.0
  3
BLOCK21
  1

  0
TEXT
  5
5E2
  8
0
 62
     7
 10
-44.520870000000002
 20
-91.838134999999994
 30
0.0
 40
3.0
  1
35
 50
269.99995370027727
 41
1.2776591662858261
 72
     5
 11
-44.520873999999992
 21
-96.788123999999996
 31
0.0
  0
ENDBLK
  5
5E3
  8
0
  0
BLOCK
  8
0
  2
BLOCK22
 70
     0
 10
0.0
 20
0.0
 30
0.0
  3
BLOCK22
  1

  0
TEXT
  5
5E5
  8
0
 62
     7
 10
106.94277199999991
 20
61.648254000000001
 30
0.0
 40
3.0
  1
X
 50
270.0
 41
0.9777777777777758
 72
     5
 11
106.94277199999991
 21
59.448253999999999
 31
0.0
  0
ENDBLK
  5
5E6
  8
0
  0
BLOCK
  8
0
  2
BLOCK23
 70
     0
 10
0.0
 20
0.0
 30
0.0
  3
BLOCK23
  1

  0
TEXT
  5
5E8
  8
0
 62
     7
 10
277.4707029999999
 20
-114.08236699999991
 30
0.0
 40
3.0
  1
Y
 50
270.0
 41
0.9777764444444427
 72
     5
 11
277.4707029999999
 21
-116.2823639999999
 31
0.0
  0
ENDBLK
  5
5E9
  8
0
  0
BLOCK
  8
0
  2
BLOCK24
 70
     0
 10
0.0
 20
0.0
 30
0.0
  3
BLOCK24
  1

  0
TEXT
  5
5EB
  8
0
 62
     7
 10
-19.263200999999999
 20
38.866271999999988
 30
0.0
 40
3.0
  1
10
 41
1.570248175346572
 72
     5
 11
-14.31321
 21
38.866271999999988
 31
0.0
  0
ENDBLK
  5
5EC
  8
0
  0
BLOCK
  8
0
  2
BLOCK25
 70
     0
 10
0.0
 20
0.0
 30
0.0
  3
BLOCK25
  1

  0
TEXT
  5
5EE
  8
0
 62
     7
 10
104.486801
 20
38.866271999999988
 30
0.0
 40
3.0
  1
210
 50
359.99997023588912
 41
1.46600361891932
 72
     5
 11
112.18678300000001
 21
38.866267999999998
 31
0.0
  0
ENDBLK
  5
5EF
  8
0
  0
BLOCK
  8
0
  2
BLOCK26
 70
     0
 10
0.0
 20
0.0
 30
0.0
  3
BLOCK26
  1

  0
TEXT
  5
5F1
  8
0
 62
     7
 10
202.90315200000001
 20
38.866271999999988
 30
0.0
 40
3.0
  1
10
 41
1.5702500786811531
 72
     5
 11
207.853149
 21
38.866271999999988
 31
0.0
  0
ENDBLK
  5
5F2
  8
0
  0
BLOCK
  8
0
  2
BLOCK27
 70
     0
 10
0.0
 20
0.0
 30
0.0
  3
BLOCK27
  1

  0
TEXT
  5
5F4
  8
0
 62
     7
 10
-21.993563000000002
 20
-95.838195999999996
 30
0.0
 40
3.0
  1
20
 50
269.99997685013858
 41
1.3191660958977049
 72
     5
 11
-21.99356499999999
 21
-100.7881849999999
 31
0.0
  0
ENDBLK
  5
5F5
  8
0
  0
BLOCK
  8
0
  2
BLOCK28
 70
     0
 10
0.0
 20
0.0
 30
0.0
  3
BLOCK28
  1

  0
TEXT
  5
5F7
  8
0
 62
     7
 10
-4.0049089999999987
 20
-166.49954199999991
 30
0.0
 40
3.0
  1
 8,2
 50
229.19567913152551
 41
1.6908861112663021
 72
     5
 11
-10.833735000000001
 21
-174.40960699999991
 31
0.0
  0
ENDBLK
  5
5F8
  8
0
  0
BLOCK
  8
0
  2
BLOCK29
 70
     0
 10
0.0
 20
0.0
 30
0.0
  3
BLOCK29
  1

  0
TEXT
  5
5FA
  8
0
 62
     7
 10
-3.4821199999999992
 20
-165.89398199999999
 30
0.0
 40
3.0
  1
%%c
 50
229.19571649082991
 41
0.9777785725138143
 72
     5
 11
-4.919770999999999
 21
-167.5592649999999
 31
0.0
  0
ENDBLK
  5
5FB
  8
0
  0
BLOCK
  8
0
  2
BLOCK30
 70
     0
 10
0.0
 20
0.0
 30
0.0
  3
BLOCK30
  1

  0
TEXT
  5
5FD
  8
0
 62
     7
 10
-63.414749
 20
-151.3381959999999
 30
0.0
 40
3.0
  1
84
 50
270.0
 41
1.2222214814814869
 72
     5
 11
-63.414749
 21
-156.28819300000001
 31
0.0
  0
ENDBLK
  5
5FE
  8
0
  0
BLOCK
  8
0
  2
BLOCK31
 70
     0
 10
0.0
 20
0.0
 30
0.0
  3
BLOCK31
  1

  0
TEXT
  5
600
  8
0
 62
     7
 10
147.611786
 20
22.719726999999999
 30
0.0
 40
3.0
  1
107,25
 50
359.99997844666251
 41
1.5012758433756499
 72
     5
 11
163.56173699999999
 21
22.719721
 31
0.0
  0
ENDBLK
  5
601
  8
0
  0
BLOCK
  8
0
  2
BLOCK32
 70
     0
 10
0.0
 20
0.0
 30
0.0
  3
BLOCK32
  1

  0
TEXT
  5
603
  8
0
 62
     7
 10
264.19985999999989
 20
-157.33813499999999
 30
0.0
 40
3.0
  1
96
 50
270.0
 41
1.2662099629029859
 72
     5
 11
264.19985999999989
 21
-162.28813199999999
 31
0.0
  0
ENDBLK
  5
604
  8
0
  0
BLOCK
  8
0
  2
BLOCK33
 70
     0
 10
0.0
 20
0.0
 30
0.0
  3
BLOCK33
  1

  0
TEXT
  5
606
  8
0
 62
     7
 10
264.19985999999989
 20
-64.588134999999994
 30
0.0
 40
3.0
  1
78,5
 50
270.0
 41
1.487695493474843
 72
     5
 11
264.19985999999989
 21
-75.038100999999983
 31
0.0
  0
ENDBLK
  5
607
  8
0
  0
BLOCK
  8
0
  2
BLOCK34
 70
     0
 10
0.0
 20
0.0
 30
0.0
  3
BLOCK34
  1

  0
TEXT
  5
609
  8
0
 62
     7
 10
92.256630000000001
 20
10.290803
 30
0.0
 40
3.0
  1
175
 41
1.4513620656287261
 72
     5
 11
100.05663299999991
 21
10.290803
 31
0.0
  0
LINE
  5
60A
  8
0
 62
     7
 10
25.236798999999991
 20
-62.588154000000003
 30
0.0
 11
25.236798999999991
 21
11.290803
 31
0.0
  0
LINE
  5
60B
  8
0
 62
     7
 10
200.23680100000001
 20
-62.588154000000003
 30
0.0
 11
200.23680100000001
 21
11.290803
 31
0.0
  0
POLYLINE
  5
60C
  8
0
 62
     7
 66
     1
 10
0.0
 20
0.0
 30
0.0
  0
VERTEX
  5
93F
  8
0
 62
     7
 10
27.168652000000002
 20
9.8084410000000002
 30
0.0
  0
VERTEX
  5
940
  8
0
 62
     7
 10
25.236798999999991
 20
9.2908030000000004
 30
0.0
  0
VERTEX
  5
941
  8
0
 62
     7
 10
27.168652000000002
 20
8.7731649999999988
 30
0.0
  0
SEQEND
  5
942
  8
0
 62
     7
  0
POLYLINE
  5
611
  8
0
 62
     7
 66
     1
 10
0.0
 20
0.0
 30
0.0
  0
VERTEX
  5
943
  8
0
 62
     7
 10
198.304947
 20
8.7731649999999988
 30
0.0
  0
VERTEX
  5
944
  8
0
 62
     7
 10
200.23680100000001
 20
9.2908030000000004
 30
0.0
  0
VERTEX
  5
945
  8
0
 62
     7
 10
198.304947
 20
9.8084410000000002
 30
0.0
  0
SEQEND
  5
946
  8
0
 62
     7
  0
LINE
  5
616
  8
0
 62
     7
 10
25.236798999999991
 20
9.2908030000000004
 30
0.0
 11
200.23680100000001
 21
9.2908030000000004
 31
0.0
  0
ENDBLK
  5
617
  8
0
  0
BLOCK
  8
0
  2
BLOCK35
 70
     0
 10
0.0
 20
0.0
 30
0.0
  3
BLOCK35
  1

  0
TEXT
  5
619
  8
0
 62
     7
 10
148.11180100000001
 20
-3.5730199999999992
 30
0.0
 40
3.0
  1
89,75
 41
1.4669255658310809
 72
     5
 11
161.51179500000001
 21
-3.5730199999999992
 31
0.0
  0
LINE
  5
61A
  8
0
 62
     7
 10
110.48680899999999
 20
-45.519001000000003
 30
0.0
 11
110.48680899999999
 21
-2.5730200000000001
 31
0.0
  0
LINE
  5
61B
  8
0
 62
     7
 10
200.23680100000001
 20
-62.588154000000003
 30
0.0
 11
200.23680100000001
 21
-2.5730200000000001
 31
0.0
  0
POLYLINE
  5
61C
  8
0
 62
     7
 66
     1
 10
0.0
 20
0.0
 30
0.0
  0
VERTEX
  5
947
  8
0
 62
     7
 10
112.418663
 20
-4.0553819999999989
 30
0.0
  0
VERTEX
  5
948
  8
0
 62
     7
 10
110.48680899999999
 20
-4.5730199999999988
 30
0.0
  0
VERTEX
  5
949
  8
0
 62
     7
 10
112.418663
 20
-5.0906580000000003
 30
0.0
  0
SEQEND
  5
94A
  8
0
 62
     7
  0
POLYLINE
  5
621
  8
0
 62
     7
 66
     1
 10
0.0
 20
0.0
 30
0.0
  0
VERTEX
  5
94B
  8
0
 62
     7
 10
198.304947
 20
-5.0906580000000003
 30
0.0
  0
VERTEX
  5
94C
  8
0
 62
     7
 10
200.23680100000001
 20
-4.5730199999999988
 30
0.0
  0
VERTEX
  5
94D
  8
0
 62
     7
 10
198.304947
 20
-4.0553819999999989
 30
0.0
  0
SEQEND
  5
94E
  8
0
 62
     7
  0
LINE
  5
626
  8
0
 62
     7
 10
110.48680899999999
 20
-4.5730199999999988
 30
0.0
 11
200.23680100000001
 21
-4.5730199999999988
 31
0.0
  0
ENDBLK
  5
627
  8
0
  0
BLOCK
  8
0
  2
BLOCK36
 70
     0
 10
0.0
 20
0.0
 30
0.0
  3
BLOCK36
  1

  0
TEXT
  5
629
  8
0
 62
     7
 10
106.033653
 20
-21.062767000000001
 30
0.0
 40
3.0
  1
161
 41
1.677420000000001
 72
     5
 11
113.833656
 21
-21.062767000000001
 31
0.0
  0
LINE
  5
62A
  8
0
 62
     7
 10
29.986806999999999
 20
-36.588135000000001
 30
0.0
 11
29.986806999999999
 21
-20.062767000000001
 31
0.0
  0
LINE
  5
62B
  8
0
 62
     7
 10
190.9804989999999
 20
-44.338135000000001
 30
0.0
 11
190.9804989999999
 21
-20.062767000000001
 31
0.0
  0
POLYLINE
  5
62C
  8
0
 62
     7
 66
     1
 10
0.0
 20
0.0
 30
0.0
  0
VERTEX
  5
94F
  8
0
 62
     7
 10
31.918659000000002
 20
-21.545127999999998
 30
0.0
  0
VERTEX
  5
950
  8
0
 62
     7
 10
29.986806999999999
 20
-22.062767000000001
 30
0.0
  0
VERTEX
  5
951
  8
0
 62
     7
 10
31.918659000000002
 20
-22.580404000000001
 30
0.0
  0
SEQEND
  5
952
  8
0
 62
     7
  0
POLYLINE
  5
631
  8
0
 62
     7
 66
     1
 10
0.0
 20
0.0
 30
0.0
  0
VERTEX
  5
953
  8
0
 62
     7
 10
189.04866000000001
 20
-22.580404000000001
 30
0.0
  0
VERTEX
  5
954
  8
0
 62
     7
 10
190.9804989999999
 20
-22.062767000000001
 30
0.0
  0
VERTEX
  5
955
  8
0
 62
     7
 10
189.04866000000001
 20
-21.545127999999998
 30
0.0
  0
SEQEND
  5
956
  8
0
 62
     7
  0
LINE
  5
636
  8
0
 62
     7
 10
29.986806999999999
 20
-22.062767000000001
 30
0.0
 11
190.9804989999999
 21
-22.062767000000001
 31
0.0
  0
ENDBLK
  5
637
  8
0
  0
BLOCK
  8
0
  2
BLOCK37
 70
     0
 10
0.0
 20
0.0
 30
0.0
  3
BLOCK37
  1

  0
TEXT
  5
639
  8
0
 62
     7
 10
106.571495
 20
110.49273700000001
 30
0.0
 40
3.0
  1
X
 50
270.0
 41
0.9777764444444489
 72
     5
 11
106.571495
 21
108.2927399999999
 31
0.0
  0
ENDBLK
  5
63A
  8
0
  0
BLOCK
  8
0
  2
BLOCK38
 70
     0
 10
0.0
 20
0.0
 30
0.0
  3
BLOCK38
  1

  0
TEXT
  5
63C
  8
0
 62
     7
 10
-17.617256000000001
 20
-60.749938999999998
 30
0.0
 40
3.0
  1
167
 50
270.00001488205538
 41
1.4666632380952871
 72
     5
 11
-17.617253999999988
 21
-68.449921000000003
 31
0.0
  0
ENDBLK
  5
63D
  8
0
  0
BLOCK
  8
0
  2
BLOCK39
 70
     0
 10
0.0
 20
0.0
 30
0.0
  3
BLOCK39
  1

  0
TEXT
  5
63F
  8
0
 62
     7
 10
-40.525996999999997
 20
-49.25
 30
0.0
 40
3.0
  1
190
 50
270.00002976411082
 41
1.463083505771775
 72
     5
 11
-40.525992999999993
 21
-56.949981999999991
 31
0.0
  0
ENDBLK
  5
640
  8
0
  0
BLOCK
  8
0
  2
BLOCK40
 70
     0
 10
0.0
 20
0.0
 30
0.0
  3
BLOCK40
  1

  0
TEXT
  5
642
  8
0
 62
     7
 10
-40.526004999999991
 20
24.985596000000001
 30
0.0
 40
3.0
  1
2
 50
270.0
 41
1.202069964398264
 72
     5
 11
-40.526004999999991
 21
22.785595000000001
 31
0.0
  0
ENDBLK
  5
643
  8
0
  0
BLOCK
  8
0
  2
BLOCK41
 70
     0
 10
0.0
 20
0.0
 30
0.0
  3
BLOCK41
  1

  0
TEXT
  5
645
  8
0
 62
     7
 10
-59.221633999999987
 20
-41.0
 30
0.0
 40
3.0
  1
195,5
 50
270.00001736241131
 41
1.546613966049907
 72
     5
 11
-59.221630000000012
 21
-54.199958999999993
 31
0.0
  0
ENDBLK
  5
646
  8
0
  0
BLOCK
  8
0
  2
BLOCK42
 70
     0
 10
0.0
 20
0.0
 30
0.0
  3
BLOCK42
  1

  0
TEXT
  5
648
  8
0
 62
     7
 10
80.236976999999996
 20
-43.640869000000002
 30
0.0
 40
3.0
  1
1,75
 50
359.99997806854662
 41
1.6266414157685769
 72
     5
 11
90.686951000000008
 21
-43.640872999999999
 31
0.0
  0
ENDBLK
  5
649
  8
0
  0
BLOCK
  8
0
  2
BLOCK43
 70
     0
 10
0.0
 20
0.0
 30
0.0
  3
BLOCK43
  1

  0
TEXT
  5
64B
  8
0
 62
     7
 10
101.7370609999999
 20
91.130675999999994
 30
0.0
 40
3.0
  1
105
 41
1.4327507732320039
 72
     5
 11
109.43704199999991
 21
91.130675999999994
 31
0.0
  0
ENDBLK
  5
64C
  8
0
  0
BLOCK
  8
0
  2
BLOCK44
 70
     0
 10
0.0
 20
0.0
 30
0.0
  3
BLOCK44
  1

  0
TEXT
  5
64E
  8
0
 62
     7
 10
252.19229100000001
 20
-161.5
 30
0.0
 40
3.0
  1
3
 50
270.0
 41
1.2399490238209789
 72
     5
 11
252.19229100000001
 21
-163.69999699999991
 31
0.0
  0
ENDBLK
  5
64F
  8
0
  0
BLOCK
  8
0
  2
BLOCK45
 70
     0
 10
0.0
 20
0.0
 30
0.0
  3
BLOCK45
  1

  0
TEXT
  5
651
  8
0
 62
     7
 10
252.19229100000001
 20
-156.0
 30
0.0
 40
3.0
  1
\U+2265
 50
270.0
 41
1.2422315693532049
 72
     5
 11
252.19229100000001
 21
-158.199997
 31
0.0
  0
ENDBLK
  5
652
  8
0
  0
BLOCK
  8
0
  2
BLOCK46
 70
     0
 10
0.0
 20
0.0
 30
0.0
  3
BLOCK46
  1

  0
TEXT
  5
654
  8
0
 62
     7
 10
252.19229100000001
 20
-131.4999389999999
 30
0.0
 40
3.0
  1
31
 50
270.0
 41
1.571427619047626
 72
     5
 11
252.19229100000001
 21
-136.44993600000001
 31
0.0
  0
ENDBLK
  5
655
  8
0
  0
BLOCK
  8
0
  2
BLOCK47
 70
     0
 10
0.0
 20
0.0
 30
0.0
  3
BLOCK47
  1

  0
TEXT
  5
657
  8
0
 62
     7
 10
252.19227599999991
 20
-104.9999389999999
 30
0.0
 40
3.0
  1
5
 50
270.0
 41
1.2399490238209949
 72
     5
 11
252.19227599999991
 21
-107.19993599999999
 31
0.0
  0
ENDBLK
  5
658
  8
0
  0
BLOCK
  8
0
  2
BLOCK48
 70
     0
 10
0.0
 20
0.0
 30
0.0
  3
BLOCK48
  1

  0
TEXT
  5
65A
  8
0
 62
     7
 10
271.874481
 20
101.712952
 30
0.0
 40
3.0
  1
27,5
 50
270.0
 41
1.4876956358385109
 72
     5
 11
271.874481
 21
91.262985
 31
0.0
  0
ENDBLK
  5
65B
  8
0
  0
BLOCK
  8
0
  2
BLOCK49
 70
     0
 10
0.0
 20
0.0
 30
0.0
  3
BLOCK49
  1

  0
TEXT
  5
65D
  8
0
 62
     7
 10
271.874481
 20
79.712952000000001
 30
0.0
 40
3.0
  1
      CORSA DI SEZIONAMENTO
 50
270.00002410007431
 41
1.424149526570174
 72
     5
 11
271.87451199999998
 21
6.0132139999999987
 31
0.0
  0
ENDBLK
  5
65E
  8
0
  0
BLOCK
  8
0
  2
BLOCK50
 70
     0
 10
0.0
 20
0.0
 30
0.0
  3
BLOCK50
  1

  0
TEXT
  5
660
  8
0
 62
     7
 10
94.450362999999996
 20
-0.7146620000000001
 30
0.0
 40
3.0
  1
 5,5
 50
222.22908016817721
 41
1.7063227631104461
 72
     5
 11
86.712540000000004
 21
-7.7380509999999987
 31
0.0
  0
ENDBLK
  5
661
  8
0
  0
BLOCK
  8
0
  2
BLOCK51
 70
     0
 10
0.0
 20
0.0
 30
0.0
  3
BLOCK51
  1

  0
TEXT
  5
663
  8
0
 62
     7
 10
95.042732000000001
 20
-0.176999
 30
0.0
 40
3.0
  1
%%c
 50
222.2290914596833
 41
0.9777780367847121
 72
     5
 11
93.413712000000004
 21
-1.655611999999999
 31
0.0
  0
ENDBLK
  5
664
  8
0
  0
BLOCK
  8
0
  2
BLOCK52
 70
     0
 10
0.0
 20
0.0
 30
0.0
  3
BLOCK52
  1

  0
TEXT
  5
666
  8
0
 62
     7
 10
285.57400499999989
 20
46.531128000000002
 30
0.0
 40
3.0
  1
ISOLATING DISTANCE
 50
270.0
 41
1.331968027210884
 72
     5
 11
285.57400499999989
 21
-2.4186969999999999
 31
0.0
  0
ENDBLK
  5
667
  8
0
  0
BLOCK
  8
0
  2
BLOCK53
 70
     0
 10
0.0
 20
0.0
 30
0.0
  3
BLOCK53
  1

  0
LINE
  5
669
  8
0
 62
     2
 10
184.48692299999999
 20
38.251700999999997
 30
0.0
 11
185.23863199999991
 21
37.499996000000003
 31
0.0
  0
LINE
  5
66A
  8
0
 62
     2
 10
185.35995500000001
 20
39.499996000000003
 30
0.0
 11
187.35995500000001
 21
37.499996000000003
 31
0.0
  0
LINE
  5
66B
  8
0
 62
     2
 10
187.48127700000001
 20
39.499996000000003
 30
0.0
 11
189.48127700000001
 21
37.499996000000003
 31
0.0
  0
LINE
  5
66C
  8
0
 62
     2
 10
189.602585
 20
39.499996000000003
 30
0.0
 11
191.602585
 21
37.499996000000003
 31
0.0
  0
LINE
  5
66D
  8
0
 62
     2
 10
191.72390699999991
 20
39.499996000000003
 30
0.0
 11
193.723907
 21
37.499996000000003
 31
0.0
  0
LINE
  5
66E
  8
0
 62
     2
 10
193.84522999999999
 20
39.499996000000003
 30
0.0
 11
195.84522999999999
 21
37.499996000000003
 31
0.0
  0
LINE
  5
66F
  8
0
 62
     2
 10
195.966553
 20
39.499996000000003
 30
0.0
 11
197.966553
 21
37.499996000000003
 31
0.0
  0
LINE
  5
670
  8
0
 62
     2
 10
198.087875
 20
39.499996000000003
 30
0.0
 11
200.087875
 21
37.499996000000003
 31
0.0
  0
LINE
  5
671
  8
0
 62
     2
 10
200.2091979999999
 20
39.499996000000003
 30
0.0
 11
202.2091979999999
 21
37.499996000000003
 31
0.0
  0
LINE
  5
672
  8
0
 62
     2
 10
202.33050499999999
 20
39.499996000000003
 30
0.0
 11
204.33050499999999
 21
37.499996000000003
 31
0.0
  0
LINE
  5
673
  8
0
 62
     2
 10
204.45182800000001
 20
39.499996000000003
 30
0.0
 11
206.45182800000001
 21
37.499996000000003
 31
0.0
  0
LINE
  5
674
  8
0
 62
     2
 10
206.57315099999991
 20
39.499996000000003
 30
0.0
 11
208.573151
 21
37.499996000000003
 31
0.0
  0
LINE
  5
675
  8
0
 62
     2
 10
208.6944729999999
 20
39.499996000000003
 30
0.0
 11
210.6944729999999
 21
37.499996000000003
 31
0.0
  0
LINE
  5
676
  8
0
 62
     2
 10
210.81579600000001
 20
39.499996000000003
 30
0.0
 11
212.81579600000001
 21
37.499996000000003
 31
0.0
  0
LINE
  5
677
  8
0
 62
     2
 10
212.937119
 20
39.499996000000003
 30
0.0
 11
214.937119
 21
37.499996000000003
 31
0.0
  0
LINE
  5
678
  8
0
 62
     2
 10
215.05842599999991
 20
39.499996000000003
 30
0.0
 11
217.05842599999991
 21
37.499996000000003
 31
0.0
  0
LINE
  5
679
  8
0
 62
     2
 10
217.17974899999999
 20
39.499996000000003
 30
0.0
 11
219.17974899999999
 21
37.499996000000003
 31
0.0
  0
LINE
  5
67A
  8
0
 62
     2
 10
219.30107100000001
 20
39.499996000000003
 30
0.0
 11
221.30107100000001
 21
37.499996000000003
 31
0.0
  0
LINE
  5
67B
  8
0
 62
     2
 10
221.422394
 20
39.499996000000003
 30
0.0
 11
223.422394
 21
37.499996000000003
 31
0.0
  0
LINE
  5
67C
  8
0
 62
     2
 10
223.54371599999999
 20
39.499996000000003
 30
0.0
 11
225.54371599999999
 21
37.499996000000003
 31
0.0
  0
LINE
  5
67D
  8
0
 62
     2
 10
225.66503900000001
 20
39.499996000000003
 30
0.0
 11
227.66503899999989
 21
37.499996000000003
 31
0.0
  0
LINE
  5
67E
  8
0
 62
     2
 10
227.786362
 20
39.499996000000003
 30
0.0
 11
229.786362
 21
37.499996000000003
 31
0.0
  0
LINE
  5
67F
  8
0
 62
     2
 10
229.907669
 20
39.499996000000003
 30
0.0
 11
231.907669
 21
37.499996000000003
 31
0.0
  0
LINE
  5
680
  8
0
 62
     2
 10
232.02899199999999
 20
39.499996000000003
 30
0.0
 11
234.02899199999999
 21
37.499996000000003
 31
0.0
  0
LINE
  5
681
  8
0
 62
     2
 10
234.1503139999999
 20
39.499996000000003
 30
0.0
 11
236.1503139999999
 21
37.499996000000003
 31
0.0
  0
LINE
  5
682
  8
0
 62
     2
 10
236.271637
 20
39.499996000000003
 30
0.0
 11
238.271637
 21
37.499996000000003
 31
0.0
  0
LINE
  5
683
  8
0
 62
     2
 10
238.39295999999999
 20
39.499996000000003
 30
0.0
 11
240.39295999999999
 21
37.499996000000003
 31
0.0
  0
LINE
  5
684
  8
0
 62
     2
 10
240.51428200000001
 20
39.499996000000003
 30
0.0
 11
242.51428200000001
 21
37.499996000000003
 31
0.0
  0
LINE
  5
685
  8
0
 62
     2
 10
242.63558999999989
 20
39.499996000000003
 30
0.0
 11
244.63558999999989
 21
37.499996000000003
 31
0.0
  0
LINE
  5
686
  8
0
 62
     2
 10
244.756912
 20
39.499996000000003
 30
0.0
 11
245.140533
 21
39.116382999999992
 31
0.0
  0
ENDBLK
  5
687
  8
0
  0
BLOCK
  8
0
  2
BLOCK54
 70
     0
 10
0.0
 20
0.0
 30
0.0
  3
BLOCK54
  1

  0
LINE
  5
689
  8
0
 62
     2
 10
172.98692299999999
 20
39.145102999999999
 30
0.0
 11
174.632034
 21
37.499996000000003
 31
0.0
  0
LINE
  5
68A
  8
0
 62
     2
 10
174.75335699999991
 20
39.499996000000003
 30
0.0
 11
176.753342
 21
37.499996000000003
 31
0.0
  0
LINE
  5
68B
  8
0
 62
     2
 10
176.87466399999991
 20
39.499996000000003
 30
0.0
 11
177.48692299999999
 21
38.887740999999998
 31
0.0
  0
ENDBLK
  5
68C
  8
0
  0
BLOCK
  8
0
  2
BLOCK55
 70
     0
 10
0.0
 20
0.0
 30
0.0
  3
BLOCK55
  1

  0
LINE
  5
68E
  8
0
 62
     2
 10
113.486931
 20
39.248131000000001
 30
0.0
 11
115.235062
 21
37.499996000000003
 31
0.0
  0
LINE
  5
68F
  8
0
 62
     2
 10
115.35638400000001
 20
39.499996000000003
 30
0.0
 11
117.35638400000001
 21
37.499996000000003
 31
0.0
  0
LINE
  5
690
  8
0
 62
     2
 10
117.477707
 20
39.499996000000003
 30
0.0
 11
119.477707
 21
37.499996000000003
 31
0.0
  0
LINE
  5
691
  8
0
 62
     2
 10
119.59902199999991
 20
39.499996000000003
 30
0.0
 11
121.59902199999991
 21
37.499996000000003
 31
0.0
  0
LINE
  5
692
  8
0
 62
     2
 10
121.7203449999999
 20
39.499996000000003
 30
0.0
 11
123.7203449999999
 21
37.499996000000003
 31
0.0
  0
LINE
  5
693
  8
0
 62
     2
 10
123.8416669999999
 20
39.499996000000003
 30
0.0
 11
125.8416669999999
 21
37.499996000000003
 31
0.0
  0
LINE
  5
694
  8
0
 62
     2
 10
125.962982
 20
39.499996000000003
 30
0.0
 11
127.962982
 21
37.499996000000003
 31
0.0
  0
LINE
  5
695
  8
0
 62
     2
 10
128.084305
 20
39.499996000000003
 30
0.0
 11
130.084305
 21
37.499996000000003
 31
0.0
  0
LINE
  5
696
  8
0
 62
     2
 10
130.20562699999999
 20
39.499996000000003
 30
0.0
 11
132.20562699999999
 21
37.499996000000003
 31
0.0
  0
LINE
  5
697
  8
0
 62
     2
 10
132.32695000000001
 20
39.499996000000003
 30
0.0
 11
134.32695000000001
 21
37.499996000000003
 31
0.0
  0
LINE
  5
698
  8
0
 62
     2
 10
134.44827299999989
 20
39.499996000000003
 30
0.0
 11
136.44827299999989
 21
37.499996000000003
 31
0.0
  0
LINE
  5
699
  8
0
 62
     2
 10
136.56958
 20
39.499996000000003
 30
0.0
 11
138.56958
 21
37.499996000000003
 31
0.0
  0
LINE
  5
69A
  8
0
 62
     2
 10
138.69090299999991
 20
39.499996000000003
 30
0.0
 11
140.69090299999999
 21
37.499996000000003
 31
0.0
  0
LINE
  5
69B
  8
0
 62
     2
 10
140.81222500000001
 20
39.499996000000003
 30
0.0
 11
142.81222500000001
 21
37.499996000000003
 31
0.0
  0
LINE
  5
69C
  8
0
 62
     2
 10
142.93354799999989
 20
39.499996000000003
 30
0.0
 11
144.933548
 21
37.499996000000003
 31
0.0
  0
LINE
  5
69D
  8
0
 62
     2
 10
145.05487099999991
 20
39.499996000000003
 30
0.0
 11
147.05487099999991
 21
37.499996000000003
 31
0.0
  0
LINE
  5
69E
  8
0
 62
     2
 10
147.1761929999999
 20
39.499996000000003
 30
0.0
 11
149.1761929999999
 21
37.499996000000003
 31
0.0
  0
LINE
  5
69F
  8
0
 62
     2
 10
149.29750100000001
 20
39.499996000000003
 30
0.0
 11
151.29750100000001
 21
37.499996000000003
 31
0.0
  0
LINE
  5
6A0
  8
0
 62
     2
 10
151.418823
 20
39.499996000000003
 30
0.0
 11
153.41882299999989
 21
37.499996000000003
 31
0.0
  0
LINE
  5
6A1
  8
0
 62
     2
 10
153.54014599999991
 20
39.499996000000003
 30
0.0
 11
155.54014599999991
 21
37.499996000000003
 31
0.0
  0
LINE
  5
6A2
  8
0
 62
     2
 10
155.6614689999999
 20
39.499996000000003
 30
0.0
 11
157.6614689999999
 21
37.499996000000003
 31
0.0
  0
LINE
  5
6A3
  8
0
 62
     2
 10
157.782791
 20
39.499996000000003
 30
0.0
 11
159.782791
 21
37.499996000000003
 31
0.0
  0
LINE
  5
6A4
  8
0
 62
     2
 10
159.90411399999991
 20
39.499996000000003
 30
0.0
 11
161.90411399999999
 21
37.499996000000003
 31
0.0
  0
LINE
  5
6A5
  8
0
 62
     2
 10
162.02542099999991
 20
39.499996000000003
 30
0.0
 11
164.02542099999991
 21
37.499996000000003
 31
0.0
  0
LINE
  5
6A6
  8
0
 62
     2
 10
164.1467439999999
 20
39.499996000000003
 30
0.0
 11
166.1467439999999
 21
37.499996000000003
 31
0.0
  0
LINE
  5
6A7
  8
0
 62
     2
 10
166.268066
 20
39.499996000000003
 30
0.0
 11
168.268066
 21
37.499996000000003
 31
0.0
  0
LINE
  5
6A8
  8
0
 62
     2
 10
168.38938899999999
 20
39.499996000000003
 30
0.0
 11
170.38938899999991
 21
37.499996000000003
 31
0.0
  0
LINE
  5
6A9
  8
0
 62
     2
 10
170.51071200000001
 20
39.499996000000003
 30
0.0
 11
171.98692299999999
 21
38.023781
 31
0.0
  0
ENDBLK
  5
6AA
  8
0
  0
BLOCK
  8
0
  2
BLOCK56
 70
     0
 10
0.0
 20
0.0
 30
0.0
  3
BLOCK56
  1

  0
LINE
  5
6AC
  8
0
 62
     2
 10
89.736931000000013
 20
37.54228599999999
 30
0.0
 11
89.779220999999978
 21
37.499996000000003
 31
0.0
  0
LINE
  5
6AD
  8
0
 62
     2
 10
89.900542999999999
 20
39.499996000000003
 30
0.0
 11
91.900542999999985
 21
37.499996000000003
 31
0.0
  0
LINE
  5
6AE
  8
0
 62
     2
 10
92.021857999999995
 20
39.499996000000003
 30
0.0
 11
94.021857999999995
 21
37.499996000000003
 31
0.0
  0
LINE
  5
6AF
  8
0
 62
     2
 10
94.143180999999998
 20
39.499996000000003
 30
0.0
 11
96.143181000000013
 21
37.499996000000003
 31
0.0
  0
LINE
  5
6B0
  8
0
 62
     2
 10
96.264503000000005
 20
39.499996000000003
 30
0.0
 11
98.264503000000005
 21
37.499996000000003
 31
0.0
  0
LINE
  5
6B1
  8
0
 62
     2
 10
98.385818
 20
39.499996000000003
 30
0.0
 11
100.3858179999999
 21
37.499996000000003
 31
0.0
  0
LINE
  5
6B2
  8
0
 62
     2
 10
100.5071409999999
 20
39.499996000000003
 30
0.0
 11
102.507141
 21
37.499996000000003
 31
0.0
  0
LINE
  5
6B3
  8
0
 62
     2
 10
102.62846399999999
 20
39.499996000000003
 30
0.0
 11
104.62846399999999
 21
37.499996000000003
 31
0.0
  0
LINE
  5
6B4
  8
0
 62
     2
 10
104.749786
 20
39.499996000000003
 30
0.0
 11
106.486931
 21
37.762847999999991
 31
0.0
  0
ENDBLK
  5
6B5
  8
0
  0
BLOCK
  8
0
  2
BLOCK57
 70
     0
 10
0.0
 20
0.0
 30
0.0
  3
BLOCK57
  1

  0
LINE
  5
6B7
  8
0
 62
     2
 10
47.986927000000001
 20
38.987206
 30
0.0
 11
49.474136000000001
 21
37.499996000000003
 31
0.0
  0
LINE
  5
6B8
  8
0
 62
     2
 10
49.595459000000012
 20
39.499996000000003
 30
0.0
 11
51.595459000000012
 21
37.499996000000003
 31
0.0
  0
LINE
  5
6B9
  8
0
 62
     2
 10
51.716778000000012
 20
39.499996000000003
 30
0.0
 11
53.716777999999998
 21
37.499996000000003
 31
0.0
  0
LINE
  5
6BA
  8
0
 62
     2
 10
53.838096999999998
 20
39.499996000000003
 30
0.0
 11
55.838096999999991
 21
37.499996000000003
 31
0.0
  0
LINE
  5
6BB
  8
0
 62
     2
 10
55.95941899999999
 20
39.499996000000003
 30
0.0
 11
57.95941899999999
 21
37.499996000000003
 31
0.0
  0
LINE
  5
6BC
  8
0
 62
     2
 10
58.080737999999997
 20
39.499996000000003
 30
0.0
 11
60.080737999999997
 21
37.499996000000003
 31
0.0
  0
LINE
  5
6BD
  8
0
 62
     2
 10
60.202056999999989
 20
39.499996000000003
 30
0.0
 11
62.202057000000003
 21
37.499996000000003
 31
0.0
  0
LINE
  5
6BE
  8
0
 62
     2
 10
62.323380000000007
 20
39.499996000000003
 30
0.0
 11
64.32338
 21
37.499996000000003
 31
0.0
  0
LINE
  5
6BF
  8
0
 62
     2
 10
64.444702000000007
 20
39.499996000000003
 30
0.0
 11
66.444702000000007
 21
37.499996000000003
 31
0.0
  0
LINE
  5
6C0
  8
0
 62
     2
 10
66.566017000000002
 20
39.499996000000003
 30
0.0
 11
68.566017000000002
 21
37.499996000000003
 31
0.0
  0
LINE
  5
6C1
  8
0
 62
     2
 10
68.687340000000006
 20
39.499996000000003
 30
0.0
 11
70.687340000000006
 21
37.499996000000003
 31
0.0
  0
LINE
  5
6C2
  8
0
 62
     2
 10
70.808661999999984
 20
39.499996000000003
 30
0.0
 11
72.808661999999998
 21
37.499996000000003
 31
0.0
  0
LINE
  5
6C3
  8
0
 62
     2
 10
72.929976999999994
 20
39.499996000000003
 30
0.0
 11
74.929976999999994
 21
37.499996000000003
 31
0.0
  0
LINE
  5
6C4
  8
0
 62
     2
 10
75.051299999999998
 20
39.499996000000003
 30
0.0
 11
75.73712900000001
 21
38.814166999999991
 31
0.0
  0
ENDBLK
  5
6C5
  8
0
  0
BLOCK
  8
0
  2
BLOCK58
 70
     0
 10
0.0
 20
0.0
 30
0.0
  3
BLOCK58
  1

  0
LINE
  5
6C7
  8
0
 62
     2
 10
42.486927000000001
 20
38.123244999999997
 30
0.0
 11
43.110176000000003
 21
37.499996000000003
 31
0.0
  0
LINE
  5
6C8
  8
0
 62
     2
 10
43.231498999999992
 20
39.499996000000003
 30
0.0
 11
45.231495000000002
 21
37.499996000000003
 31
0.0
  0
LINE
  5
6C9
  8
0
 62
     2
 10
45.352817999999992
 20
39.499996000000003
 30
0.0
 11
46.986927000000001
 21
37.865887000000001
 31
0.0
  0
ENDBLK
  5
6CA
  8
0
  0
BLOCK
  8
0
  2
BLOCK59
 70
     0
 10
0.0
 20
0.0
 30
0.0
  3
BLOCK59
  1

  0
LINE
  5
6CC
  8
0
 62
     2
 10
-37.352443999999998
 20
39.473770000000002
 30
0.0
 11
-35.37867
 21
37.499996000000003
 31
0.0
  0
LINE
  5
6CD
  8
0
 62
     2
 10
-35.257351
 20
39.499996000000003
 30
0.0
 11
-33.257351
 21
37.499996000000003
 31
0.0
  0
LINE
  5
6CE
  8
0
 62
     2
 10
-33.136032
 20
39.499996000000003
 30
0.0
 11
-31.136029999999991
 21
37.499996000000003
 31
0.0
  0
LINE
  5
6CF
  8
0
 62
     2
 10
-31.014709
 20
39.499996000000003
 30
0.0
 11
-29.014709
 21
37.499996000000003
 31
0.0
  0
LINE
  5
6D0
  8
0
 62
     2
 10
-28.89339099999999
 20
39.499996000000003
 30
0.0
 11
-26.89339099999999
 21
37.499996000000003
 31
0.0
  0
LINE
  5
6D1
  8
0
 62
     2
 10
-26.772069999999999
 20
39.499996000000003
 30
0.0
 11
-24.772069999999999
 21
37.499996000000003
 31
0.0
  0
LINE
  5
6D2
  8
0
 62
     2
 10
-24.65074899999999
 20
39.499996000000003
 30
0.0
 11
-22.65074899999999
 21
37.499996000000003
 31
0.0
  0
LINE
  5
6D3
  8
0
 62
     2
 10
-22.529427999999999
 20
39.499996000000003
 30
0.0
 11
-20.529429999999991
 21
37.499996000000003
 31
0.0
  0
LINE
  5
6D4
  8
0
 62
     2
 10
-20.408110000000001
 20
39.499996000000003
 30
0.0
 11
-18.408110000000001
 21
37.499996000000003
 31
0.0
  0
LINE
  5
6D5
  8
0
 62
     2
 10
-18.286788999999999
 20
39.499996000000003
 30
0.0
 11
-16.286788999999999
 21
37.499996000000003
 31
0.0
  0
LINE
  5
6D6
  8
0
 62
     2
 10
-16.165468000000001
 20
39.499996000000003
 30
0.0
 11
-14.165469
 21
37.499996000000003
 31
0.0
  0
LINE
  5
6D7
  8
0
 62
     2
 10
-14.044148
 20
39.499996000000003
 30
0.0
 11
-12.044148
 21
37.499996000000003
 31
0.0
  0
LINE
  5
6D8
  8
0
 62
     2
 10
-11.922829
 20
39.499996000000003
 30
0.0
 11
-9.9228290000000001
 21
37.499996000000003
 31
0.0
  0
LINE
  5
6D9
  8
0
 62
     2
 10
-9.8015080000000001
 20
39.499996000000003
 30
0.0
 11
-7.8015080000000001
 21
37.499996000000003
 31
0.0
  0
LINE
  5
6DA
  8
0
 62
     2
 10
-7.6801880000000002
 20
39.499996000000003
 30
0.0
 11
-5.6801879999999993
 21
37.499996000000003
 31
0.0
  0
LINE
  5
6DB
  8
0
 62
     2
 10
-5.5588670000000002
 20
39.499996000000003
 30
0.0
 11
-3.558867999999999
 21
37.499996000000003
 31
0.0
  0
LINE
  5
6DC
  8
0
 62
     2
 10
-3.437546999999999
 20
39.499996000000003
 30
0.0
 11
-1.437548
 21
37.499996000000003
 31
0.0
  0
LINE
  5
6DD
  8
0
 62
     2
 10
-1.316227
 20
39.499996000000003
 30
0.0
 11
0.6837720000000001
 21
37.499996000000003
 31
0.0
  0
LINE
  5
6DE
  8
0
 62
     2
 10
0.8050930000000001
 20
39.499996000000003
 30
0.0
 11
2.8050929999999989
 21
37.499996000000003
 31
0.0
  0
LINE
  5
6DF
  8
0
 62
     2
 10
2.9264130000000002
 20
39.499996000000003
 30
0.0
 11
4.9264130000000002
 21
37.499996000000003
 31
0.0
  0
LINE
  5
6E0
  8
0
 62
     2
 10
5.047733
 20
39.499996000000003
 30
0.0
 11
7.047733
 21
37.499996000000003
 31
0.0
  0
LINE
  5
6E1
  8
0
 62
     2
 10
7.1690539999999991
 20
39.499996000000003
 30
0.0
 11
9.1690529999999981
 21
37.499996000000003
 31
0.0
  0
LINE
  5
6E2
  8
0
 62
     2
 10
9.2903739999999981
 20
39.499996000000003
 30
0.0
 11
11.290374
 21
37.499996000000003
 31
0.0
  0
LINE
  5
6E3
  8
0
 62
     2
 10
11.411694000000001
 20
39.499996000000003
 30
0.0
 11
13.411694000000001
 21
37.499996000000003
 31
0.0
  0
LINE
  5
6E4
  8
0
 62
     2
 10
13.533014
 20
39.499996000000003
 30
0.0
 11
15.533014
 21
37.499996000000003
 31
0.0
  0
LINE
  5
6E5
  8
0
 62
     2
 10
15.654334
 20
39.499996000000003
 30
0.0
 11
17.654335
 21
37.499996000000003
 31
0.0
  0
LINE
  5
6E6
  8
0
 62
     2
 10
17.775653999999999
 20
39.499996000000003
 30
0.0
 11
19.775653999999989
 21
37.499996000000003
 31
0.0
  0
LINE
  5
6E7
  8
0
 62
     2
 10
19.896975000000001
 20
39.499996000000003
 30
0.0
 11
21.896975000000001
 21
37.499996000000003
 31
0.0
  0
LINE
  5
6E8
  8
0
 62
     2
 10
22.018294999999998
 20
39.499996000000003
 30
0.0
 11
24.018294999999998
 21
37.499996000000003
 31
0.0
  0
LINE
  5
6E9
  8
0
 62
     2
 10
24.139616
 20
39.499996000000003
 30
0.0
 11
26.139614000000002
 21
37.499996000000003
 31
0.0
  0
LINE
  5
6EA
  8
0
 62
     2
 10
26.260934999999989
 20
39.499996000000003
 30
0.0
 11
28.260934999999989
 21
37.499996000000003
 31
0.0
  0
LINE
  5
6EB
  8
0
 62
     2
 10
28.382255999999991
 20
39.499996000000003
 30
0.0
 11
30.382256000000002
 21
37.499996000000003
 31
0.0
  0
LINE
  5
6EC
  8
0
 62
     2
 10
30.503575999999999
 20
39.499996000000003
 30
0.0
 11
32.503574
 21
37.499996000000003
 31
0.0
  0
LINE
  5
6ED
  8
0
 62
     2
 10
32.62489699999999
 20
39.499996000000003
 30
0.0
 11
34.62489699999999
 21
37.499996000000003
 31
0.0
  0
LINE
  5
6EE
  8
0
 62
     2
 10
34.74621599999999
 20
39.499996000000003
 30
0.0
 11
35.486927000000001
 21
38.759284999999998
 31
0.0
  0
ENDBLK
  5
6EF
  8
0
  0
BLOCK
  8
0
  2
BLOCK60
 70
     0
 10
0.0
 20
0.0
 30
0.0
  3
BLOCK60
  1

  0
LINE
  5
6F1
  8
0
 62
     2
 10
163.98706100000001
 20
29.053082
 30
0.0
 11
165.04014599999991
 21
27.999998000000001
 31
0.0
  0
LINE
  5
6F2
  8
0
 62
     2
 10
164.66145299999991
 20
30.500004000000001
 30
0.0
 11
167.16146900000001
 21
27.999998000000001
 31
0.0
  0
LINE
  5
6F3
  8
0
 62
     2
 10
166.78277600000001
 20
30.500004000000001
 30
0.0
 11
169.282791
 21
27.999998000000001
 31
0.0
  0
LINE
  5
6F4
  8
0
 62
     2
 10
168.904099
 20
30.500004000000001
 30
0.0
 11
171.40409899999989
 21
27.999998000000001
 31
0.0
  0
LINE
  5
6F5
  8
0
 62
     2
 10
171.02542099999991
 20
30.500004000000001
 30
0.0
 11
172.98706100000001
 21
28.538363
 31
0.0
  0
ENDBLK
  5
6F6
  8
0
  0
BLOCK
  8
0
  2
BLOCK61
 70
     0
 10
0.0
 20
0.0
 30
0.0
  3
BLOCK61
  1

  0
TEXT
  5
6F8
  8
0
 62
     7
 10
-2.0
 20
-159.0
 30
0.0
 40
3.0
  1
X
 50
90.0
 41
0.9777764444444425
 72
     5
 11
-2.0
 21
-156.800003
 31
0.0
  0
ENDBLK
  5
6F9
  8
0
  0
BLOCK
  8
0
  2
BLOCK62
 70
     0
 10
0.0
 20
0.0
 30
0.0
  3
BLOCK62
  1

  0
TEXT
  5
6FB
  8
0
 62
     7
 10
-2.0
 20
128.0
 30
0.0
 40
3.0
  1
X
 50
90.0
 41
0.9777764444444425
 72
     5
 11
-2.0
 21
130.199997
 31
0.0
  0
ENDBLK
  5
6FC
  8
0
  0
BLOCK
  8
0
  2
BLOCK63
 70
     0
 10
0.0
 20
0.0
 30
0.0
  3
BLOCK63
  1

  0
TEXT
  5
6FE
  8
0
 62
     7
 10
-155.0
 20
0.0
 30
0.0
 40
3.0
  1
Y
 50
90.0
 41
0.9777777777777778
 72
     5
 11
-155.0
 21
2.2000000000000002
 31
0.0
  0
ENDBLK
  5
6FF
  8
0
  0
BLOCK
  8
0
  2
BLOCK64
 70
     0
 10
0.0
 20
0.0
 30
0.0
  3
BLOCK64
  1

  0
TEXT
  5
701
  8
0
 62
     7
 10
187.26762400000001
 20
-3.4552
 30
0.0
 40
3.0
  1
Y
 50
90.0
 41
0.9777777777777778
 72
     5
 11
187.26762400000001
 21
-1.2552000000000001
 31
0.0
  0
ENDBLK
  5
702
  8
0
  0
BLOCK
  8
0
  2
BLOCK65
 70
     0
 10
0.0
 20
0.0
 30
0.0
  3
BLOCK65
  1

  0
TEXT
  5
704
  8
0
 62
     7
 10
-142.934662
 20
20.5
 30
0.0
 40
3.0
  1
63
 50
90.0
 41
1.2776591662854091
 72
     5
 11
-142.934662
 21
25.449988999999999
 31
0.0
  0
ENDBLK
  5
705
  8
0
  0
BLOCK
  8
0
  2
BLOCK66
 70
     0
 10
0.0
 20
0.0
 30
0.0
  3
BLOCK66
  1

  0
TEXT
  5
707
  8
0
 62
     7
 10
-175.88305700000001
 20
-21.0
 30
0.0
 40
3.0
  1
135
 50
90.0
 41
1.432750587160017
 72
     5
 11
-175.88305700000001
 21
-13.30002
 31
0.0
  0
ENDBLK
  5
708
  8
0
  0
BLOCK
  8
0
  2
BLOCK67
 70
     0
 10
0.0
 20
0.0
 30
0.0
  3
BLOCK67
  1

  0
TEXT
  5
70A
  8
0
 62
     7
 10
98.069710000000001
 20
29.5
 30
0.0
 40
3.0
  1
81
 50
90.0
 41
1.571425079365079
 72
     5
 11
98.069710000000001
 21
34.449989000000002
 31
0.0
  0
ENDBLK
  5
70B
  8
0
  0
BLOCK
  8
0
  2
BLOCK68
 70
     0
 10
0.0
 20
0.0
 30
0.0
  3
BLOCK68
  1

  0
TEXT
  5
70D
  8
0
 62
     7
 10
126.482727
 20
2.0
 30
0.0
 40
3.0
  1
125
 50
90.0
 41
1.432750587160017
 72
     5
 11
126.482727
 21
9.69998
 31
0.0
  0
ENDBLK
  5
70E
  8
0
  0
BLOCK
  8
0
  2
BLOCK69
 70
     0
 10
0.0
 20
0.0
 30
0.0
  3
BLOCK69
  1

  0
TEXT
  5
710
  8
0
 62
     7
 10
-15.944328000000001
 20
36.0
 30
0.0
 40
3.0
  1
94
 50
89.999976850138637
 41
1.2190640892680471
 72
     5
 11
-15.944326
 21
40.949989000000002
 31
0.0
  0
ENDBLK
  5
711
  8
0
  0
BLOCK
  8
0
  2
BLOCK70
 70
     0
 10
0.0
 20
0.0
 30
0.0
  3
BLOCK70
  1

  0
TEXT
  5
713
  8
0
 62
     7
 10
40.158946999999991
 20
28.069884999999999
 30
0.0
 40
3.0
  1
16
 50
179.9999537002773
 41
1.5005337224017301
 72
     5
 11
35.208958000000003
 21
28.069889
 31
0.0
  0
ENDBLK
  5
714
  8
0
  0
BLOCK
  8
0
  2
BLOCK71
 70
     0
 10
0.0
 20
0.0
 30
0.0
  3
BLOCK71
  1

  0
TEXT
  5
716
  8
0
 62
     7
 10
18.75
 20
201.62458799999999
 30
0.0
 40
3.0
  1
142
 50
180.0
 41
1.3437594995413831
 72
     5
 11
11.05002
 21
201.62458799999999
 31
0.0
  0
ENDBLK
  5
717
  8
0
  0
BLOCK
  8
0
  2
BLOCK72
 70
     0
 10
0.0
 20
0.0
 30
0.0
  3
BLOCK72
  1

  0
TEXT
  5
719
  8
0
 62
     7
 10
18.75
 20
-120.5733639999999
 30
0.0
 40
3.0
  1
126
 50
179.99994791279249
 41
1.4262341719542091
 72
     5
 11
11.05002
 21
-120.573357
 31
0.0
  0
ENDBLK
  5
71A
  8
0
  0
BLOCK
  8
0
  2
BLOCK73
 70
     0
 10
0.0
 20
0.0
 30
0.0
  3
BLOCK73
  1

  0
TEXT
  5
71C
  8
0
 62
     7
 10
-33.25
 20
174.836533
 30
0.0
 40
3.0
  1
=
 50
180.0
 41
1.333333939393939
 72
     5
 11
-35.450001
 21
174.836533
 31
0.0
  0
ENDBLK
  5
71D
  8
0
  0
BLOCK
  8
0
  2
BLOCK74
 70
     0
 10
0.0
 20
0.0
 30
0.0
  3
BLOCK74
  1

  0
TEXT
  5
71F
  8
0
 62
     7
 10
37.75
 20
174.836533
 30
0.0
 40
3.0
  1
=
 50
180.0
 41
1.333333939393939
 72
     5
 11
35.549999
 21
174.836533
 31
0.0
  0
ENDBLK
  5
720
  8
0
  0
BLOCK
  8
0
  2
BLOCK75
 70
     0
 10
0.0
 20
0.0
 30
0.0
  3
BLOCK75
  1

  0
TEXT
  5
722
  8
0
 62
     7
 10
-9.75
 20
154.6875
 30
0.0
 40
3.0
  1
27,25
 50
179.9999348909673
 41
1.446687743866663
 72
     5
 11
-22.949960999999998
 21
154.68751499999991
 31
0.0
  0
ENDBLK
  5
723
  8
0
  0
BLOCK
  8
0
  2
BLOCK76
 70
     0
 10
0.0
 20
0.0
 30
0.0
  3
BLOCK76
  1

  0
TEXT
  5
725
  8
0
 62
     7
 10
-113.1802219999999
 20
-56.5
 30
0.0
 40
3.0
  1
45
 50
90.0
 41
1.185835136090813
 72
     5
 11
-113.1802219999999
 21
-51.550010999999991
 31
0.0
  0
ENDBLK
  5
726
  8
0
  0
BLOCK
  8
0
  2
BLOCK77
 70
     0
 10
0.0
 20
0.0
 30
0.0
  3
BLOCK77
  1

  0
TEXT
  5
728
  8
0
 62
     7
 10
-12.0
 20
-150.1596679999999
 30
0.0
 40
3.0
  1
72,5
 50
179.99991775701821
 41
1.4876960629310481
 72
     5
 11
-22.44997
 21
-150.15965299999999
 31
0.0
  0
ENDBLK
  5
729
  8
0
  0
BLOCK
  8
0
  2
BLOCK78
 70
     0
 10
0.0
 20
0.0
 30
0.0
  3
BLOCK78
  1

  0
TEXT
  5
72B
  8
0
 62
     7
 10
158.00060999999999
 20
12.598205999999999
 30
0.0
 40
3.0
  1
R min.200
 50
90.0
 41
1.50756129791774
 72
     5
 11
158.00060999999999
 21
36.798126000000003
 31
0.0
  0
ENDBLK
  5
72C
  8
0
  0
BLOCK
  8
0
  2
BLOCK79
 70
     0
 10
0.0
 20
0.0
 30
0.0
  3
BLOCK79
  1

  0
TEXT
  5
72E
  8
0
 62
     7
 10
-161.41625999999999
 20
168.32591199999999
 30
0.0
 40
3.0
  1
8
 50
136.2494211711759
 41
1.3333221349127371
 72
     5
 11
-163.00543200000001
 21
169.8472439999999
 31
0.0
  0
TEXT
  5
72F
  8
0
 62
     7
 10
-159.1047209999999
 20
166.11305200000001
 30
0.0
 40
3.0
  1
%%c
 50
136.2494211711759
 41
0.9777695656026917
 72
     5
 11
-160.693893
 21
167.63438400000001
 31
0.0
  0
TEXT
  5
730
  8
0
 62
     7
 10
-146.680161
 20
154.218918
 30
0.0
 40
3.0
  1
3 fori
 50
136.2495453454593
 41
1.7142859646969479
 72
     5
 11
-158.38237000000001
 21
165.42152400000001
 31
0.0
  0
POLYLINE
  5
731
  8
0
 62
     7
 66
     1
 10
0.0
 20
0.0
 30
0.0
  0
VERTEX
  5
957
  8
0
 62
     7
 10
-67.614013999999997
 20
79.195914999999999
 30
0.0
  0
VERTEX
  5
958
  8
0
 62
     7
 10
-65.860573000000002
 20
78.233924999999999
 30
0.0
  0
VERTEX
  5
959
  8
0
 62
     7
 10
-66.898102000000009
 20
79.943756000000008
 30
0.0
  0
SEQEND
  5
95A
  8
0
 62
     7
  0
POLYLINE
  5
736
  8
0
 62
     7
 66
     1
 10
0.0
 20
0.0
 30
0.0
  0
VERTEX
  5
95B
  8
0
 62
     7
 10
-69.885986000000003
 20
82.804085000000001
 30
0.0
  0
VERTEX
  5
95C
  8
0
 62
     7
 10
-71.639426999999984
 20
83.766075000000001
 30
0.0
  0
VERTEX
  5
95D
  8
0
 62
     7
 10
-70.601897999999991
 20
82.056243999999992
 30
0.0
  0
SEQEND
  5
95E
  8
0
 62
     7
  0
LINE
  5
73B
  8
0
 62
     7
 10
-162.313919
 20
170.56961100000001
 30
0.0
 11
-65.860573000000002
 21
78.233924999999999
 31
0.0
  0
ENDBLK
  5
73C
  8
0
  0
BLOCK
  8
0
  2
BLOCK80
 70
     0
 10
0.0
 20
0.0
 30
0.0
  3
BLOCK80
  1

  0
TEXT
  5
73E
  8
0
 62
     7
 10
-93.810554999999994
 20
-97.540047000000015
 30
0.0
 40
3.0
  1
7
 50
65.886435800188423
 41
1.3333356814155659
 72
     5
 11
-92.911750999999995
 21
-95.532021
 31
0.0
  0
TEXT
  5
73F
  8
0
 62
     7
 10
-95.444748000000004
 20
-101.19098699999989
 30
0.0
 40
3.0
  1
%%c
 50
65.886249710516125
 41
1.333331643749595
 72
     5
 11
-94.219100999999995
 21
-98.452781999999999
 31
0.0
  0
POLYLINE
  5
740
  8
0
 62
     7
 66
     1
 10
0.0
 20
0.0
 30
0.0
  0
VERTEX
  5
95F
  8
0
 62
     7
 10
-67.636870999999999
 20
-42.780174000000002
 30
0.0
  0
VERTEX
  5
960
  8
0
 62
     7
 10
-67.320083999999994
 20
-40.805419999999998
 30
0.0
  0
VERTEX
  5
961
  8
0
 62
     7
 10
-68.581801999999996
 20
-42.35721199999999
 30
0.0
  0
SEQEND
  5
962
  8
0
 62
     7
  0
POLYLINE
  5
745
  8
0
 62
     7
 66
     1
 10
0.0
 20
0.0
 30
0.0
  0
VERTEX
  5
963
  8
0
 62
     7
 10
-69.863129000000001
 20
-45.219825999999998
 30
0.0
  0
VERTEX
  5
964
  8
0
 62
     7
 10
-70.179916000000006
 20
-47.194580000000002
 30
0.0
  0
VERTEX
  5
965
  8
0
 62
     7
 10
-68.918198000000004
 20
-45.642788000000003
 30
0.0
  0
SEQEND
  5
966
  8
0
 62
     7
  0
LINE
  5
74A
  8
0
 62
     7
 10
-94.532004999999984
 20
-101.59953299999989
 30
0.0
 11
-67.320083999999994
 21
-40.805419999999998
 31
0.0
  0
ENDBLK
  5
74B
  8
0
  0
BLOCK
  8
0
  2
BLOCK81
 70
     0
 10
0.0
 20
0.0
 30
0.0
  3
BLOCK81
  1

  0
TEXT
  5
74D
  8
0
 62
     7
 10
106.86438799999991
 20
155.15573099999989
 30
0.0
 40
3.0
  1
7
 50
64.911635300361525
 41
1.3333274219598861
 72
     5
 11
107.7972179999999
 21
157.1481629999999
 31
0.0
  0
TEXT
  5
74E
  8
0
 62
     7
 10
105.16832700000001
 20
151.533096
 30
0.0
 40
3.0
  1
%%c
 50
64.911716210920176
 41
1.33333992433934
 72
     5
 11
106.440376
 21
154.25007600000001
 31
0.0
  0
POLYLINE
  5
74F
  8
0
 62
     7
 66
     1
 10
0.0
 20
0.0
 30
0.0
  0
VERTEX
  5
967
  8
0
 62
     7
 10
75.084381000000008
 20
86.138869999999997
 30
0.0
  0
VERTEX
  5
968
  8
0
 62
     7
 10
74.734047000000004
 20
84.169792000000001
 30
0.0
  0
VERTEX
  5
969
  8
0
 62
     7
 10
76.021979999999999
 20
85.699898000000005
 30
0.0
  0
SEQEND
  5
96A
  8
0
 62
     7
  0
POLYLINE
  5
754
  8
0
 62
     7
 66
     1
 10
0.0
 20
0.0
 30
0.0
  0
VERTEX
  5
96B
  8
0
 62
     7
 10
71.415618999999992
 20
75.861130000000003
 30
0.0
  0
VERTEX
  5
96C
  8
0
 62
     7
 10
71.765952999999996
 20
77.830207999999999
 30
0.0
  0
VERTEX
  5
96D
  8
0
 62
     7
 10
70.478020000000001
 20
76.300101999999995
 30
0.0
  0
SEQEND
  5
96E
  8
0
 62
     7
  0
LINE
  5
759
  8
0
 62
     7
 10
69.645882
 20
73.301925999999995
 30
0.0
 11
108.7028729999999
 21
156.724152
 31
0.0
  0
ENDBLK
  5
75A
  8
0
  0
BLOCK
  8
0
  2
BLOCK82
 70
     0
 10
0.0
 20
0.0
 30
0.0
  3
BLOCK82
  1

  0
TEXT
  5
75C
  8
0
 62
     7
 10
-5.9100650000000003
 20
-21.445663
 30
0.0
 40
3.0
  1
%%c4
 50
179.99996527521489
 41
1.0645139784948181
 72
     5
 11
-10.860054999999999
 21
-21.44566
 31
0.0
  0
ENDBLK
  5
75D
  8
0
  0
BLOCK
  8
0
  2
BLOCK83
 70
     0
 10
0.0
 20
0.0
 30
0.0
  3
BLOCK83
  1

  0
TEXT
  5
75F
  8
0
 62
     7
 10
4.125
 20
18.878104999999991
 30
0.0
 40
3.0
  1
80%%d
 50
179.999955353822
 41
1.3873837837842049
 72
     5
 11
-3.57498
 21
18.87811099999999
 31
0.0
  0
ENDBLK
  5
760
  8
0
  0
BLOCK
  8
0
  2
BLOCK84
 70
     0
 10
0.0
 20
0.0
 30
0.0
  3
BLOCK84
  1

  0
LINE
  5
762
  8
0
 62
     2
 10
-3.2426400000000002
 20
-1.0
 30
0.0
 11
-5.2426399999999989
 21
1.0
 31
0.0
  0
LINE
  5
763
  8
0
 62
     2
 10
-5.3639609999999989
 20
-1.0
 30
0.0
 11
-7.3639599999999996
 21
1.0
 31
0.0
  0
LINE
  5
764
  8
0
 62
     2
 10
-7.4852809999999987
 20
-1.0
 30
0.0
 11
-9.4852810000000005
 21
1.0
 31
0.0
  0
LINE
  5
765
  8
0
 62
     2
 10
-9.6066009999999995
 20
-1.0
 30
0.0
 11
-11.606601
 21
1.0
 31
0.0
  0
LINE
  5
766
  8
0
 62
     2
 10
-11.727921
 20
-1.0
 30
0.0
 11
-11.976111
 21
-0.7518100000000001
 31
0.0
  0
ENDBLK
  5
767
  8
0
  0
BLOCK
  8
0
  2
BLOCK85
 70
     0
 10
0.0
 20
0.0
 30
0.0
  3
BLOCK85
  1

  0
LINE
  5
769
  8
0
 62
     2
 10
9.4852810000000005
 20
-1.0
 30
0.0
 11
7.4852809999999987
 21
1.0
 31
0.0
  0
LINE
  5
76A
  8
0
 62
     2
 10
7.3639599999999996
 20
-1.0
 30
0.0
 11
5.3639609999999989
 21
1.0
 31
0.0
  0
LINE
  5
76B
  8
0
 62
     2
 10
5.2426399999999989
 20
-1.0
 30
0.0
 11
3.479473
 21
0.7631670000000002
 31
0.0
  0
LINE
  5
76C
  8
0
 62
     2
 10
3.121319999999999
 20
-1.0
 30
0.0
 11
2.5116089999999991
 21
-0.390289
 31
0.0
  0
ENDBLK
  5
76D
  8
0
  0
ENDSEC
  0
SECTION
  2
ENTITIES
  0
LINE
  5
25
  8
0
  6
DASHDOT
 62
     7
 10
451.56565899999993
 20
717.05251699999985
 30
0.0
 11
451.56565899999993
 21
474.16988700000002
 31
0.0
  0
POLYLINE
  5
26
  8
0
 62
     3
 66
     1
 10
0.0
 20
0.0
 30
0.0
  0
VERTEX
  5
7D7
  8
0
 62
     3
 10
384.06565899999998
 20
711.41228100000001
 30
0.0
  0
VERTEX
  5
7D8
  8
0
 62
     3
 10
384.06565899999998
 20
695.41228100000001
 30
0.0
  0
VERTEX
  5
7D9
  8
0
 62
     3
 10
386.06565899999993
 20
694.41228100000001
 30
0.0
  0
VERTEX
  5
7DA
  8
0
 62
     3
 10
382.06565899999998
 20
693.41228099999989
 30
0.0
  0
VERTEX
  5
7DB
  8
0
 62
     3
 10
384.06565899999998
 20
692.41228100000001
 30
0.0
  0
VERTEX
  5
7DC
  8
0
 62
     3
 10
384.06565899999998
 20
676.41228099999989
 30
0.0
  0
VERTEX
  5
7DD
  8
0
 62
     3
 10
386.06565899999993
 20
675.41228100000001
 30
0.0
  0
VERTEX
  5
7DE
  8
0
 62
     3
 10
382.06565899999998
 20
674.41228100000001
 30
0.0
  0
VERTEX
  5
7DF
  8
0
 62
     3
 10
384.06565899999998
 20
673.41228100000001
 30
0.0
  0
VERTEX
  5
7E0
  8
0
 62
     3
 10
384.06565899999998
 20
657.41228100000001
 30
0.0
  0
VERTEX
  5
7E1
  8
0
 62
     3
 10
386.06565899999993
 20
656.41228100000001
 30
0.0
  0
VERTEX
  5
7E2
  8
0
 62
     3
 10
382.06565899999998
 20
655.41228099999989
 30
0.0
  0
VERTEX
  5
7E3
  8
0
 62
     3
 10
384.06565899999998
 20
654.41228100000001
 30
0.0
  0
VERTEX
  5
7E4
  8
0
 62
     3
 10
384.06565899999998
 20
638.41228100000001
 30
0.0
  0
VERTEX
  5
7E5
  8
0
 62
     3
 10
386.06565899999993
 20
637.41228100000001
 30
0.0
  0
VERTEX
  5
7E6
  8
0
 62
     3
 10
382.06565899999998
 20
636.41228100000001
 30
0.0
  0
VERTEX
  5
7E7
  8
0
 62
     3
 10
384.06565899999998
 20
635.41228099999989
 30
0.0
  0
VERTEX
  5
7E8
  8
0
 62
     3
 10
384.06565899999998
 20
619.41228100000001
 30
0.0
  0
VERTEX
  5
7E9
  8
0
 62
     3
 10
386.06565899999993
 20
618.41228099999989
 30
0.0
  0
VERTEX
  5
7EA
  8
0
 62
     3
 10
382.06565899999998
 20
617.41228100000001
 30
0.0
  0
VERTEX
  5
7EB
  8
0
 62
     3
 10
384.06565899999998
 20
616.41228100000001
 30
0.0
  0
VERTEX
  5
7EC
  8
0
 62
     3
 10
384.06565899999998
 20
600.41228100000001
 30
0.0
  0
VERTEX
  5
7ED
  8
0
 62
     3
 10
386.06565899999993
 20
599.41228100000001
 30
0.0
  0
VERTEX
  5
7EE
  8
0
 62
     3
 10
382.06565899999998
 20
598.41228100000001
 30
0.0
  0
VERTEX
  5
7EF
  8
0
 62
     3
 10
384.06565899999998
 20
597.41228099999989
 30
0.0
  0
VERTEX
  5
7F0
  8
0
 62
     3
 10
384.06565899999998
 20
581.41228099999989
 30
0.0
  0
VERTEX
  5
7F1
  8
0
 62
     3
 10
386.06565899999993
 20
580.41228099999989
 30
0.0
  0
VERTEX
  5
7F2
  8
0
 62
     3
 10
382.06565899999998
 20
579.41228100000001
 30
0.0
  0
VERTEX
  5
7F3
  8
0
 62
     3
 10
384.06565899999998
 20
578.41228100000001
 30
0.0
  0
VERTEX
  5
7F4
  8
0
 62
     3
 10
384.06565899999998
 20
562.41228100000001
 30
0.0
  0
VERTEX
  5
7F5
  8
0
 62
     3
 10
386.06565899999993
 20
561.41228100000001
 30
0.0
  0
VERTEX
  5
7F6
  8
0
 62
     3
 10
382.06565899999998
 20
560.41228099999989
 30
0.0
  0
VERTEX
  5
7F7
  8
0
 62
     3
 10
384.06565899999998
 20
559.41228100000001
 30
0.0
  0
VERTEX
  5
7F8
  8
0
 62
     3
 10
384.06565899999998
 20
543.41228099999989
 30
0.0
  0
VERTEX
  5
7F9
  8
0
 62
     3
 10
386.06565899999993
 20
542.41228100000001
 30
0.0
  0
VERTEX
  5
7FA
  8
0
 62
     3
 10
382.06565899999998
 20
541.41228100000001
 30
0.0
  0
VERTEX
  5
7FB
  8
0
 62
     3
 10
384.06565899999998
 20
540.41228100000001
 30
0.0
  0
VERTEX
  5
7FC
  8
0
 62
     3
 10
384.06565899999998
 20
524.41228100000001
 30
0.0
  0
VERTEX
  5
7FD
  8
0
 62
     3
 10
386.06565899999993
 20
523.41228100000001
 30
0.0
  0
VERTEX
  5
7FE
  8
0
 62
     3
 10
382.06565899999998
 20
522.41228099999989
 30
0.0
  0
VERTEX
  5
7FF
  8
0
 62
     3
 10
384.06565899999998
 20
521.41228100000001
 30
0.0
  0
VERTEX
  5
800
  8
0
 62
     3
 10
384.06565899999998
 20
505.41228099999989
 30
0.0
  0
VERTEX
  5
801
  8
0
 62
     3
 10
386.06565899999993
 20
504.41228099999989
 30
0.0
  0
VERTEX
  5
802
  8
0
 62
     3
 10
382.06565899999998
 20
503.41228099999989
 30
0.0
  0
VERTEX
  5
803
  8
0
 62
     3
 10
384.06565899999998
 20
502.41228099999989
 30
0.0
  0
VERTEX
  5
804
  8
0
 62
     3
 10
384.06565899999998
 20
487.917957
 30
0.0
  0
SEQEND
  5
805
  8
0
 62
     3
  0
POLYLINE
  5
56
  8
0
 62
     3
 66
     1
 10
0.0
 20
0.0
 30
0.0
  0
VERTEX
  5
806
  8
0
 62
     3
 10
499.06565899999993
 20
711.41228100000001
 30
0.0
  0
VERTEX
  5
807
  8
0
 62
     3
 10
499.06565899999993
 20
695.41228100000001
 30
0.0
  0
VERTEX
  5
808
  8
0
 62
     3
 10
501.06565899999993
 20
694.41228100000001
 30
0.0
  0
VERTEX
  5
809
  8
0
 62
     3
 10
497.06565899999993
 20
693.41228099999989
 30
0.0
  0
VERTEX
  5
80A
  8
0
 62
     3
 10
499.06565899999993
 20
692.41228100000001
 30
0.0
  0
VERTEX
  5
80B
  8
0
 62
     3
 10
499.06565899999993
 20
676.41228099999989
 30
0.0
  0
VERTEX
  5
80C
  8
0
 62
     3
 10
501.06565899999993
 20
675.41228100000001
 30
0.0
  0
VERTEX
  5
80D
  8
0
 62
     3
 10
497.06565899999993
 20
674.41228100000001
 30
0.0
  0
VERTEX
  5
80E
  8
0
 62
     3
 10
499.06565899999993
 20
673.41228100000001
 30
0.0
  0
VERTEX
  5
80F
  8
0
 62
     3
 10
499.06565899999993
 20
657.41228100000001
 30
0.0
  0
VERTEX
  5
810
  8
0
 62
     3
 10
501.06565899999993
 20
656.41228100000001
 30
0.0
  0
VERTEX
  5
811
  8
0
 62
     3
 10
497.06565899999993
 20
655.41228099999989
 30
0.0
  0
VERTEX
  5
812
  8
0
 62
     3
 10
499.06565899999993
 20
654.41228100000001
 30
0.0
  0
VERTEX
  5
813
  8
0
 62
     3
 10
499.06565899999993
 20
638.41228100000001
 30
0.0
  0
VERTEX
  5
814
  8
0
 62
     3
 10
501.06565899999993
 20
637.41228100000001
 30
0.0
  0
VERTEX
  5
815
  8
0
 62
     3
 10
497.06565899999993
 20
636.41228100000001
 30
0.0
  0
VERTEX
  5
816
  8
0
 62
     3
 10
499.06565899999993
 20
635.41228099999989
 30
0.0
  0
VERTEX
  5
817
  8
0
 62
     3
 10
499.06565899999993
 20
619.41228100000001
 30
0.0
  0
VERTEX
  5
818
  8
0
 62
     3
 10
501.06565899999993
 20
618.41228099999989
 30
0.0
  0
VERTEX
  5
819
  8
0
 62
     3
 10
497.06565899999993
 20
617.41228100000001
 30
0.0
  0
VERTEX
  5
81A
  8
0
 62
     3
 10
499.06565899999993
 20
616.41228100000001
 30
0.0
  0
VERTEX
  5
81B
  8
0
 62
     3
 10
499.06565899999993
 20
600.41228100000001
 30
0.0
  0
VERTEX
  5
81C
  8
0
 62
     3
 10
501.06565899999993
 20
599.41228100000001
 30
0.0
  0
VERTEX
  5
81D
  8
0
 62
     3
 10
497.06565899999993
 20
598.41228100000001
 30
0.0
  0
VERTEX
  5
81E
  8
0
 62
     3
 10
499.06565899999993
 20
597.41228099999989
 30
0.0
  0
VERTEX
  5
81F
  8
0
 62
     3
 10
499.06565899999993
 20
581.41228099999989
 30
0.0
  0
VERTEX
  5
820
  8
0
 62
     3
 10
501.06565899999993
 20
580.41228099999989
 30
0.0
  0
VERTEX
  5
821
  8
0
 62
     3
 10
497.06565899999993
 20
579.41228100000001
 30
0.0
  0
VERTEX
  5
822
  8
0
 62
     3
 10
499.06565899999993
 20
578.41228100000001
 30
0.0
  0
VERTEX
  5
823
  8
0
 62
     3
 10
499.06565899999993
 20
562.41228100000001
 30
0.0
  0
VERTEX
  5
824
  8
0
 62
     3
 10
501.06565899999993
 20
561.41228100000001
 30
0.0
  0
VERTEX
  5
825
  8
0
 62
     3
 10
497.06565899999993
 20
560.41228099999989
 30
0.0
  0
VERTEX
  5
826
  8
0
 62
     3
 10
499.06565899999993
 20
559.41228100000001
 30
0.0
  0
VERTEX
  5
827
  8
0
 62
     3
 10
499.06565899999993
 20
543.41228099999989
 30
0.0
  0
VERTEX
  5
828
  8
0
 62
     3
 10
501.06565899999993
 20
542.41228100000001
 30
0.0
  0
VERTEX
  5
829
  8
0
 62
     3
 10
497.06565899999993
 20
541.41228100000001
 30
0.0
  0
VERTEX
  5
82A
  8
0
 62
     3
 10
499.06565899999993
 20
540.41228100000001
 30
0.0
  0
VERTEX
  5
82B
  8
0
 62
     3
 10
499.06565899999993
 20
524.41228100000001
 30
0.0
  0
VERTEX
  5
82C
  8
0
 62
     3
 10
501.06565899999993
 20
523.41228100000001
 30
0.0
  0
VERTEX
  5
82D
  8
0
 62
     3
 10
497.06565899999993
 20
522.41228099999989
 30
0.0
  0
VERTEX
  5
82E
  8
0
 62
     3
 10
499.06565899999993
 20
521.41228100000001
 30
0.0
  0
VERTEX
  5
82F
  8
0
 62
     3
 10
499.06565899999993
 20
505.41228099999989
 30
0.0
  0
VERTEX
  5
830
  8
0
 62
     3
 10
501.06565899999993
 20
504.41228099999989
 30
0.0
  0
VERTEX
  5
831
  8
0
 62
     3
 10
497.06565899999993
 20
503.41228099999989
 30
0.0
  0
VERTEX
  5
832
  8
0
 62
     3
 10
499.06565899999993
 20
502.41228099999989
 30
0.0
  0
VERTEX
  5
833
  8
0
 62
     3
 10
499.06565899999993
 20
488.97550599999988
 30
0.0
  0
SEQEND
  5
834
  8
0
 62
     3
  0
POLYLINE
  5
86
  8
0
 62
     3
 66
     1
 10
0.0
 20
0.0
 30
0.0
  0
VERTEX
  5
835
  8
0
 62
     3
 10
516.41773999999987
 20
699.98154099999999
 30
0.0
  0
VERTEX
  5
836
  8
0
 62
     3
 10
500.41773999999998
 20
699.98154099999999
 30
0.0
  0
VERTEX
  5
837
  8
0
 62
     3
 10
499.41773999999998
 20
697.98154099999999
 30
0.0
  0
VERTEX
  5
838
  8
0
 62
     3
 10
498.41773999999998
 20
701.98154099999988
 30
0.0
  0
VERTEX
  5
839
  8
0
 62
     3
 10
497.41773999999998
 20
699.98154099999999
 30
0.0
  0
VERTEX
  5
83A
  8
0
 62
     3
 10
481.41773999999998
 20
699.98154099999999
 30
0.0
  0
VERTEX
  5
83B
  8
0
 62
     3
 10
480.41773999999998
 20
697.98154099999999
 30
0.0
  0
VERTEX
  5
83C
  8
0
 62
     3
 10
479.41773999999998
 20
701.98154099999988
 30
0.0
  0
VERTEX
  5
83D
  8
0
 62
     3
 10
478.41773999999998
 20
699.98154099999999
 30
0.0
  0
VERTEX
  5
83E
  8
0
 62
     3
 10
462.41773999999998
 20
699.98154099999999
 30
0.0
  0
VERTEX
  5
83F
  8
0
 62
     3
 10
461.41773999999998
 20
697.98154099999999
 30
0.0
  0
VERTEX
  5
840
  8
0
 62
     3
 10
460.41773999999998
 20
701.98154099999988
 30
0.0
  0
VERTEX
  5
841
  8
0
 62
     3
 10
459.41773999999998
 20
699.98154099999999
 30
0.0
  0
VERTEX
  5
842
  8
0
 62
     3
 10
443.41773999999998
 20
699.98154099999999
 30
0.0
  0
VERTEX
  5
843
  8
0
 62
     3
 10
442.41773999999998
 20
697.98154099999999
 30
0.0
  0
VERTEX
  5
844
  8
0
 62
     3
 10
441.41773999999998
 20
701.98154099999988
 30
0.0
  0
VERTEX
  5
845
  8
0
 62
     3
 10
440.41773999999998
 20
699.98154099999999
 30
0.0
  0
VERTEX
  5
846
  8
0
 62
     3
 10
424.41773999999998
 20
699.98154099999999
 30
0.0
  0
VERTEX
  5
847
  8
0
 62
     3
 10
423.41773999999998
 20
697.98154099999999
 30
0.0
  0
VERTEX
  5
848
  8
0
 62
     3
 10
422.41773999999998
 20
701.98154099999988
 30
0.0
  0
VERTEX
  5
849
  8
0
 62
     3
 10
421.41773999999998
 20
699.98154099999999
 30
0.0
  0
VERTEX
  5
84A
  8
0
 62
     3
 10
405.41773999999992
 20
699.98154099999999
 30
0.0
  0
VERTEX
  5
84B
  8
0
 62
     3
 10
404.41773999999992
 20
697.98154099999999
 30
0.0
  0
VERTEX
  5
84C
  8
0
 62
     3
 10
403.41773999999992
 20
701.98154099999988
 30
0.0
  0
VERTEX
  5
84D
  8
0
 62
     3
 10
402.41773999999998
 20
699.98154099999999
 30
0.0
  0
VERTEX
  5
84E
  8
0
 62
     3
 10
386.41773999999992
 20
699.98154099999999
 30
0.0
  0
VERTEX
  5
84F
  8
0
 62
     3
 10
385.41773999999992
 20
697.98154099999999
 30
0.0
  0
VERTEX
  5
850
  8
0
 62
     3
 10
384.41773999999992
 20
701.98154099999988
 30
0.0
  0
VERTEX
  5
851
  8
0
 62
     3
 10
383.41773999999992
 20
699.98154099999999
 30
0.0
  0
VERTEX
  5
852
  8
0
 62
     3
 10
374.14875799999987
 20
699.98154099999999
 30
0.0
  0
SEQEND
  5
853
  8
0
 62
     3
  0
POLYLINE
  5
A6
  8
0
 62
     3
 66
     1
 10
0.0
 20
0.0
 30
0.0
  0
VERTEX
  5
854
  8
0
 62
     3
 10
513.34220900000003
 20
500.98154099999988
 30
0.0
  0
VERTEX
  5
855
  8
0
 62
     3
 10
497.34220899999991
 20
500.98154099999988
 30
0.0
  0
VERTEX
  5
856
  8
0
 62
     3
 10
496.34220899999991
 20
498.98154099999999
 30
0.0
  0
VERTEX
  5
857
  8
0
 62
     3
 10
495.34220900000003
 20
502.98154099999999
 30
0.0
  0
VERTEX
  5
858
  8
0
 62
     3
 10
494.34220899999991
 20
500.98154099999988
 30
0.0
  0
VERTEX
  5
859
  8
0
 62
     3
 10
478.34220900000003
 20
500.98154099999988
 30
0.0
  0
VERTEX
  5
85A
  8
0
 62
     3
 10
477.34220899999991
 20
498.98154099999999
 30
0.0
  0
VERTEX
  5
85B
  8
0
 62
     3
 10
476.34220899999991
 20
502.98154099999999
 30
0.0
  0
VERTEX
  5
85C
  8
0
 62
     3
 10
475.34220899999991
 20
500.98154099999988
 30
0.0
  0
VERTEX
  5
85D
  8
0
 62
     3
 10
459.34220899999991
 20
500.98154099999988
 30
0.0
  0
VERTEX
  5
85E
  8
0
 62
     3
 10
458.34220900000003
 20
498.98154099999999
 30
0.0
  0
VERTEX
  5
85F
  8
0
 62
     3
 10
457.34220900000003
 20
502.98154099999999
 30
0.0
  0
VERTEX
  5
860
  8
0
 62
     3
 10
456.34220899999991
 20
500.98154099999988
 30
0.0
  0
VERTEX
  5
861
  8
0
 62
     3
 10
440.34220899999991
 20
500.98154099999988
 30
0.0
  0
VERTEX
  5
862
  8
0
 62
     3
 10
439.34220899999991
 20
498.98154099999999
 30
0.0
  0
VERTEX
  5
863
  8
0
 62
     3
 10
438.34220899999991
 20
502.98154099999999
 30
0.0
  0
VERTEX
  5
864
  8
0
 62
     3
 10
437.34220900000003
 20
500.98154099999988
 30
0.0
  0
VERTEX
  5
865
  8
0
 62
     3
 10
421.34220899999991
 20
500.98154099999988
 30
0.0
  0
VERTEX
  5
866
  8
0
 62
     3
 10
420.34220900000003
 20
498.98154099999999
 30
0.0
  0
VERTEX
  5
867
  8
0
 62
     3
 10
419.34220899999991
 20
502.98154099999999
 30
0.0
  0
VERTEX
  5
868
  8
0
 62
     3
 10
418.34220899999991
 20
500.98154099999988
 30
0.0
  0
VERTEX
  5
869
  8
0
 62
     3
 10
402.34220899999991
 20
500.98154099999988
 30
0.0
  0
VERTEX
  5
86A
  8
0
 62
     3
 10
401.34220899999991
 20
498.98154099999999
 30
0.0
  0
VERTEX
  5
86B
  8
0
 62
     3
 10
400.34220899999991
 20
502.98154099999999
 30
0.0
  0
VERTEX
  5
86C
  8
0
 62
     3
 10
399.34220899999991
 20
500.98154099999988
 30
0.0
  0
VERTEX
  5
86D
  8
0
 62
     3
 10
383.34220899999991
 20
500.98154099999988
 30
0.0
  0
VERTEX
  5
86E
  8
0
 62
     3
 10
382.34220899999991
 20
498.98154099999999
 30
0.0
  0
VERTEX
  5
86F
  8
0
 62
     3
 10
381.34220899999991
 20
502.98154099999999
 30
0.0
  0
VERTEX
  5
870
  8
0
 62
     3
 10
380.34220899999991
 20
500.98154099999988
 30
0.0
  0
VERTEX
  5
871
  8
0
 62
     3
 10
373.143753
 20
500.98154099999988
 30
0.0
  0
SEQEND
  5
872
  8
0
 62
     3
  0
LINE
  5
C6
  8
0
  6
DASHDOT
 62
     7
 10
476.56565899999993
 20
672.28700599999991
 30
0.0
 11
476.56565899999993
 21
527.06351799999993
 31
0.0
  0
LINE
  5
C7
  8
0
  6
DASHDOT
 62
     7
 10
406.56565899999993
 20
676.30703300000005
 30
0.0
 11
406.56565899999993
 21
527.56602099999986
 31
0.0
  0
LINE
  5
C8
  8
0
  6
DASHDOT
 62
     7
 10
490.729557
 20
650.48154099999988
 30
0.0
 11
391.233879
 21
650.48154099999988
 31
0.0
  0
LINE
  5
C9
  8
0
  6
DASHDOT
 62
     7
 10
489.22204599999992
 20
550.48154099999988
 30
0.0
 11
392.74138599999992
 21
550.48154099999988
 31
0.0
  0
CIRCLE
  5
CA
  8
0
 62
     7
 10
406.56565899999993
 20
650.48154099999988
 30
0.0
 40
2.5
  0
CIRCLE
  5
CB
  8
0
 62
     7
 10
476.56565899999993
 20
650.48154099999988
 30
0.0
 40
2.5
  0
CIRCLE
  5
CC
  8
0
 62
     7
 10
476.56565899999993
 20
550.48154099999988
 30
0.0
 40
2.5
  0
CIRCLE
  5
CD
  8
0
 62
     7
 10
406.56565899999993
 20
550.48154099999988
 30
0.0
 40
2.5
  0
CIRCLE
  5
CE
  8
0
 62
     7
 10
486.74296599999991
 20
677.90925199999981
 30
0.0
 40
0.25
  0
LINE
  5
CF
  8
0
  6
DASHDOT
 62
     7
 10
521.97559399999989
 20
598.23154099999988
 30
0.0
 11
343.23866299999992
 21
598.23154099999988
 31
0.0
  0
LINE
  5
D0
  8
0
 62
     7
 10
404.25852999999989
 20
549.51880199999994
 30
0.0
 11
392.54978899999998
 21
546.89093400000002
 31
0.0
  0
LINE
  5
D1
  8
0
 62
     7
 10
404.25852999999989
 20
549.51880199999994
 30
0.0
 11
394.1546479999999
 21
543.04480299999989
 31
0.0
  0
LINE
  5
D2
  8
0
 62
     7
 10
408.87278700000002
 20
551.44430899999986
 30
0.0
 11
420.58152799999999
 21
554.07217800000001
 31
0.0
  0
LINE
  5
D3
  8
0
 62
     7
 10
408.87278700000002
 20
551.44430899999986
 30
0.0
 11
418.9766689999999
 21
557.91830799999991
 31
0.0
  0
LINE
  5
D4
  8
0
 62
     7
 10
409.10362199999997
 20
551.54056200000002
 30
0.0
 11
294.577744
 21
503.75140699999997
 31
0.0
  0
LINE
  5
D5
  8
0
 62
     7
 10
569.12010199999997
 20
650.48154099999988
 30
0.0
 11
567.03636200000005
 21
638.6638529999999
 31
0.0
  0
LINE
  5
D6
  8
0
 62
     7
 10
569.12010199999997
 20
650.48154099999988
 30
0.0
 11
571.2038419999999
 21
638.6638529999999
 31
0.0
  0
LINE
  5
D7
  8
0
 62
     7
 10
569.12010199999997
 20
550.48154099999988
 30
0.0
 11
571.2038419999999
 21
562.29925899999989
 31
0.0
  0
LINE
  5
D8
  8
0
 62
     7
 10
569.12010199999997
 20
550.48154099999988
 30
0.0
 11
567.03624000000002
 21
562.29925899999989
 31
0.0
  0
LINE
  5
D9
  8
0
 62
     7
 10
569.12010199999997
 20
650.48154099999988
 30
0.0
 11
569.12010199999997
 21
550.48154099999988
 31
0.0
  0
LINE
  5
DA
  8
0
 62
     7
 10
577.12010199999986
 20
650.48154099999988
 30
0.0
 11
490.72959900000001
 21
650.48155599999996
 31
0.0
  0
LINE
  5
DB
  8
0
 62
     7
 10
577.12010199999986
 20
550.48154099999988
 30
0.0
 11
489.2220309999999
 21
550.48157100000003
 31
0.0
  0
LINE
  5
DC
  8
0
 62
     7
 10
476.56565899999993
 20
461.73807099999988
 30
0.0
 11
488.38340799999997
 21
459.65430099999992
 31
0.0
  0
LINE
  5
DD
  8
0
 62
     7
 10
476.56565899999993
 20
461.73807099999988
 30
0.0
 11
488.38340799999997
 21
463.82187299999998
 31
0.0
  0
LINE
  5
DE
  8
0
 62
     7
 10
451.56565899999993
 20
461.73807099999988
 30
0.0
 11
439.74803200000002
 21
463.82187299999998
 31
0.0
  0
LINE
  5
DF
  8
0
 62
     7
 10
451.56565899999993
 20
461.73807099999988
 30
0.0
 11
439.74803200000002
 21
459.65430099999992
 31
0.0
  0
LINE
  5
E0
  8
0
 62
     7
 10
510.56565899999993
 20
461.73807099999988
 30
0.0
 11
451.56565899999993
 21
461.73807099999988
 31
0.0
  0
LINE
  5
E1
  8
0
 62
     7
 10
476.56565899999993
 20
453.73807099999988
 30
0.0
 11
476.56565899999993
 21
527.06351099999995
 31
0.0
  0
LINE
  5
E2
  8
0
 62
     7
 10
451.56565899999993
 20
453.73807099999988
 30
0.0
 11
451.56565899999993
 21
474.16989499999988
 31
0.0
  0
LINE
  5
E3
  8
0
 62
     7
 10
451.56565899999993
 20
425.05533199999991
 30
0.0
 11
439.74790999999988
 21
427.13910299999998
 31
0.0
  0
LINE
  5
E4
  8
0
 62
     7
 10
451.56565899999993
 20
425.05533199999991
 30
0.0
 11
439.74790999999988
 21
422.97156100000001
 31
0.0
  0
LINE
  5
E5
  8
0
 62
     7
 10
406.56565899999993
 20
425.05533199999991
 30
0.0
 11
418.38340799999997
 21
422.97156100000001
 31
0.0
  0
LINE
  5
E6
  8
0
 62
     7
 10
406.56565899999993
 20
425.05533199999991
 30
0.0
 11
418.38340799999997
 21
427.13910299999998
 31
0.0
  0
LINE
  5
E7
  8
0
 62
     7
 10
485.56565899999993
 20
425.05533199999991
 30
0.0
 11
406.56565899999993
 21
425.05533199999991
 31
0.0
  0
LINE
  5
E8
  8
0
 62
     7
 10
451.56565899999993
 20
417.05533199999991
 30
0.0
 11
451.56565899999993
 21
474.16989499999988
 31
0.0
  0
LINE
  5
E9
  8
0
 62
     7
 10
406.56565899999993
 20
417.05533199999991
 30
0.0
 11
406.56565899999993
 21
527.566013
 31
0.0
  0
LINE
  5
EA
  8
0
 62
     7
 10
315.59226999999998
 20
650.48154099999988
 30
0.0
 11
313.50853000000001
 21
638.6638529999999
 31
0.0
  0
LINE
  5
EB
  8
0
 62
     7
 10
315.59226999999998
 20
650.48154099999988
 30
0.0
 11
317.676132
 21
638.6638529999999
 31
0.0
  0
LINE
  5
EC
  8
0
 62
     7
 10
315.59226999999998
 20
598.23154099999988
 30
0.0
 11
317.676132
 21
610.04922899999997
 31
0.0
  0
LINE
  5
ED
  8
0
 62
     7
 10
315.59226999999998
 20
598.23154099999988
 30
0.0
 11
313.50853000000001
 21
610.04922899999997
 31
0.0
  0
LINE
  5
EE
  8
0
 62
     7
 10
315.59226999999998
 20
655.30035799999985
 30
0.0
 11
315.59226999999998
 21
598.23154099999988
 31
0.0
  0
LINE
  5
EF
  8
0
 62
     7
 10
307.59226999999998
 20
650.48154099999988
 30
0.0
 11
391.23387100000002
 21
650.48154099999988
 31
0.0
  0
LINE
  5
F0
  8
0
 62
     7
 10
307.59226999999998
 20
598.23154099999988
 30
0.0
 11
343.23863199999988
 21
598.23154099999988
 31
0.0
  0
LINE
  5
F1
  8
0
  6
DASHDOT
 62
     7
 10
104.230496
 20
512.98153200000002
 30
0.0
 11
104.230496
 21
536.4815339999999
 31
0.0
  0
LINE
  5
F2
  8
0
  6
DASHDOT
 62
     7
 10
174.230557
 20
512.98153200000002
 30
0.0
 11
174.230557
 21
536.48154499999998
 31
0.0
  0
LINE
  5
F3
  8
0
  6
DASHDOT
 62
     7
 10
174.23049599999999
 20
512.98153200000002
 30
0.0
 11
174.23049599999999
 21
523.88152799999989
 31
0.0
  0
LINE
  5
F4
  8
0
  6
DASHDOT
 62
     7
 10
104.230496
 20
512.98153200000002
 30
0.0
 11
104.230496
 21
523.88153199999988
 31
0.0
  0
LINE
  5
F5
  8
0
 62
     3
 10
191.2304959999999
 20
650.7315339999999
 30
0.0
 11
87.230512000000004
 21
650.7315339999999
 31
0.0
  0
LINE
  5
F6
  8
0
  6
DASHDOT
 62
     7
 10
139.230512
 20
527.6103599999999
 30
0.0
 11
139.230512
 21
630.90562199999999
 31
0.0
  0
ARC
  5
F7
  8
0
 62
     3
 10
87.230512000000004
 20
650.2315339999999
 30
0.0
 40
0.5
 50
90.0
 51
180.00000299999991
  0
ARC
  5
F8
  8
0
 62
     3
 10
191.2304959999999
 20
650.2315339999999
 30
0.0
 40
0.5
 50
0.000001
 51
90.0
  0
LINE
  5
F9
  8
0
  6
DASHDOT
 62
     7
 10
139.230512
 20
636.68485700000008
 30
0.0
 11
139.230512
 21
665.59510499999988
 31
0.0
  0
LINE
  5
FA
  8
0
 62
     7
 10
191.230512
 20
650.7315339999999
 30
0.0
 11
86.730512000000004
 21
650.7315339999999
 31
0.0
  0
LINE
  5
FB
  8
0
 62
     7
 10
149.98051199999989
 20
567.98152600000003
 30
0.0
 11
149.98051199999989
 21
607.98151100000007
 31
0.0
  0
LINE
  5
FC
  8
0
 62
     7
 10
128.480512
 20
567.98152600000003
 30
0.0
 11
128.480512
 21
607.98151100000007
 31
0.0
  0
LINE
  5
FD
  8
0
 62
     7
 10
149.98051199999989
 20
567.98152600000003
 30
0.0
 11
128.480512
 21
567.98152600000003
 31
0.0
  0
LINE
  5
FE
  8
0
 62
     7
 10
149.98051199999989
 20
568.24602199999993
 30
0.0
 11
128.480512
 21
568.24602199999993
 31
0.0
  0
LINE
  5
FF
  8
0
  6
DASHDOT
 62
     7
 10
139.230512
 20
438.3472339999999
 30
0.0
 11
139.230512
 21
628.933942
 31
0.0
  0
LINE
  5
100
  8
0
  6
DASHDOT
 62
     7
 10
139.230512
 20
628.16120599999999
 30
0.0
 11
139.230512
 21
744.00834400000008
 31
0.0
  0
LINE
  5
101
  8
0
 62
     7
 10
191.7304959999999
 20
611.73152600000003
 30
0.0
 11
191.7304959999999
 21
650.2315339999999
 31
0.0
  0
LINE
  5
102
  8
0
 62
     7
 10
86.730512000000004
 20
611.73152600000003
 30
0.0
 11
86.730512000000004
 21
650.2315339999999
 31
0.0
  0
ARC
  5
103
  8
0
 62
     7
 10
191.230512
 20
650.2315339999999
 30
0.0
 40
0.5
 50
0.000001
 51
90.0
  0
ARC
  5
104
  8
0
 62
     7
 10
87.230512000000004
 20
650.2315339999999
 30
0.0
 40
0.5
 50
90.0
 51
180.00000299999991
  0
LINE
  5
105
  8
0
 62
     7
 10
149.98051199999989
 20
582.10684700000002
 30
0.0
 11
128.480512
 21
582.10684700000002
 31
0.0
  0
LINE
  5
106
  8
0
 62
     7
 10
149.98051199999989
 20
575.99038399999995
 30
0.0
 11
128.480512
 21
575.99038399999995
 31
0.0
  0
LINE
  5
107
  8
0
 62
     7
 10
149.98051199999989
 20
570.04256199999986
 30
0.0
 11
128.480512
 21
570.04256199999986
 31
0.0
  0
LINE
  5
108
  8
0
 62
     7
 10
149.98051199999989
 20
569.23981200000003
 30
0.0
 11
128.480512
 21
569.23981200000003
 31
0.0
  0
LINE
  5
109
  8
0
 62
     3
 10
129.23058
 20
505.48152299999998
 30
0.0
 11
129.23058
 21
512.98153200000002
 31
0.0
  0
LINE
  5
10A
  8
0
 62
     3
 10
130.48058
 20
505.48152299999998
 30
0.0
 11
129.23058
 21
505.48152299999998
 31
0.0
  0
LINE
  5
10B
  8
0
 62
     3
 10
130.48058
 20
485.48153300000001
 30
0.0
 11
130.48058
 21
505.481517
 31
0.0
  0
LINE
  5
10C
  8
0
 62
     3
 10
147.98058
 20
485.48153300000001
 30
0.0
 11
130.48058
 21
485.48153300000001
 31
0.0
  0
LINE
  5
10D
  8
0
 62
     3
 10
147.98058
 20
485.48153300000001
 30
0.0
 11
147.98058
 21
505.481517
 31
0.0
  0
LINE
  5
10E
  8
0
 62
     3
 10
149.23058
 20
505.48152299999998
 30
0.0
 11
147.98058
 21
505.48152299999998
 31
0.0
  0
LINE
  5
10F
  8
0
 62
     3
 10
149.23058
 20
505.48152299999998
 30
0.0
 11
149.23058
 21
512.98153200000002
 31
0.0
  0
CIRCLE
  5
110
  8
0
 62
     3
 10
139.230512
 20
495.4815549999999
 30
0.0
 40
4.1000569999999987
  0
LINE
  5
111
  8
0
  6
DASHDOT
 62
     7
 10
145.33057099999991
 20
495.4815549999999
 30
0.0
 11
133.13045199999991
 21
495.4815549999999
 31
0.0
  0
LINE
  5
112
  8
0
 62
     7
 10
94.230580000000003
 20
505.48152299999998
 30
0.0
 11
94.230580000000003
 21
512.98153200000002
 31
0.0
  0
LINE
  5
113
  8
0
 62
     7
 10
114.23058
 20
505.48152299999998
 30
0.0
 11
114.23058
 21
512.98153200000002
 31
0.0
  0
CIRCLE
  5
114
  8
0
 62
     7
 10
104.23051199999991
 20
495.4815549999999
 30
0.0
 40
4.1000569999999987
  0
LINE
  5
115
  8
0
 62
     7
 10
95.480580000000003
 20
485.48153300000001
 30
0.0
 11
95.480580000000003
 21
505.481517
 31
0.0
  0
LINE
  5
116
  8
0
 62
     7
 10
112.9805799999999
 20
485.48153300000001
 30
0.0
 11
112.9805799999999
 21
505.481517
 31
0.0
  0
LINE
  5
117
  8
0
 62
     7
 10
112.9805799999999
 20
485.48153300000001
 30
0.0
 11
95.480580000000003
 21
485.48153300000001
 31
0.0
  0
LINE
  5
118
  8
0
 62
     7
 10
95.480580000000003
 20
505.48152299999998
 30
0.0
 11
94.230580000000003
 21
505.48152299999998
 31
0.0
  0
LINE
  5
119
  8
0
 62
     7
 10
114.23058
 20
505.48152299999998
 30
0.0
 11
112.9805799999999
 21
505.48152299999998
 31
0.0
  0
LINE
  5
11A
  8
0
  6
DASHDOT
 62
     7
 10
110.33057099999991
 20
495.4815549999999
 30
0.0
 11
98.130452000000005
 21
495.4815549999999
 31
0.0
  0
LINE
  5
11B
  8
0
 62
     7
 10
164.2304509999999
 20
505.48152299999998
 30
0.0
 11
164.2304509999999
 21
512.98153200000002
 31
0.0
  0
LINE
  5
11C
  8
0
 62
     7
 10
184.2304509999999
 20
505.48152299999998
 30
0.0
 11
184.2304509999999
 21
512.98153200000002
 31
0.0
  0
LINE
  5
11D
  8
0
 62
     7
 10
182.9804509999999
 20
485.48153300000001
 30
0.0
 11
182.9804509999999
 21
505.481517
 31
0.0
  0
LINE
  5
11E
  8
0
 62
     7
 10
165.4804509999999
 20
485.48153300000001
 30
0.0
 11
165.4804509999999
 21
505.481517
 31
0.0
  0
LINE
  5
11F
  8
0
 62
     7
 10
182.9804509999999
 20
485.48153300000001
 30
0.0
 11
165.4804509999999
 21
485.48153300000001
 31
0.0
  0
LINE
  5
120
  8
0
  6
DASHDOT
 62
     7
 10
180.3305639999999
 20
495.4815549999999
 30
0.0
 11
168.13045999999991
 21
495.4815549999999
 31
0.0
  0
CIRCLE
  5
121
  8
0
 62
     7
 10
174.230512
 20
495.4815549999999
 30
0.0
 40
4.1000569999999987
  0
LINE
  5
122
  8
0
 62
     7
 10
165.4804509999999
 20
505.48152299999998
 30
0.0
 11
164.2304509999999
 21
505.48152299999998
 31
0.0
  0
LINE
  5
123
  8
0
 62
     7
 10
184.2304509999999
 20
505.48152299999998
 30
0.0
 11
182.9804509999999
 21
505.48152299999998
 31
0.0
  0
LINE
  5
124
  8
0
 62
     3
 10
129.23058
 20
687.98153400000001
 30
0.0
 11
129.23058
 21
695.48154899999986
 31
0.0
  0
LINE
  5
125
  8
0
 62
     3
 10
149.23058
 20
687.98153400000001
 30
0.0
 11
149.23058
 21
695.48154899999986
 31
0.0
  0
LINE
  5
126
  8
0
 62
     3
 10
147.98058
 20
695.48154899999986
 30
0.0
 11
147.98058
 21
715.4815339999999
 31
0.0
  0
LINE
  5
127
  8
0
 62
     3
 10
130.48058
 20
695.48154899999986
 30
0.0
 11
130.48058
 21
715.4815339999999
 31
0.0
  0
LINE
  5
128
  8
0
 62
     3
 10
147.98058
 20
715.4815339999999
 30
0.0
 11
130.48058
 21
715.4815339999999
 31
0.0
  0
CIRCLE
  5
129
  8
0
 62
     3
 10
139.230512
 20
705.48151900000005
 30
0.0
 40
4.1000569999999987
  0
LINE
  5
12A
  8
0
 62
     3
 10
130.48058
 20
695.48154899999986
 30
0.0
 11
129.23058
 21
695.48154899999986
 31
0.0
  0
LINE
  5
12B
  8
0
 62
     3
 10
149.23058
 20
695.48154899999986
 30
0.0
 11
147.98058
 21
695.48154899999986
 31
0.0
  0
LINE
  5
12C
  8
0
 62
     3
 10
164.2304509999999
 20
687.98153400000001
 30
0.0
 11
164.2304509999999
 21
695.48154899999986
 31
0.0
  0
LINE
  5
12D
  8
0
 62
     3
 10
184.2304509999999
 20
687.98153400000001
 30
0.0
 11
184.2304509999999
 21
695.48154899999986
 31
0.0
  0
LINE
  5
12E
  8
0
 62
     3
 10
182.9804509999999
 20
695.48154899999986
 30
0.0
 11
182.9804509999999
 21
715.4815339999999
 31
0.0
  0
LINE
  5
12F
  8
0
 62
     3
 10
165.4804509999999
 20
695.48154899999986
 30
0.0
 11
165.4804509999999
 21
715.4815339999999
 31
0.0
  0
CIRCLE
  5
130
  8
0
 62
     3
 10
174.230512
 20
705.48151900000005
 30
0.0
 40
4.1000569999999987
  0
LINE
  5
131
  8
0
 62
     3
 10
182.9804509999999
 20
715.4815339999999
 30
0.0
 11
165.4804509999999
 21
715.4815339999999
 31
0.0
  0
LINE
  5
132
  8
0
 62
     3
 10
165.4804509999999
 20
695.48154899999986
 30
0.0
 11
164.2304509999999
 21
695.48154899999986
 31
0.0
  0
LINE
  5
133
  8
0
 62
     3
 10
184.2304509999999
 20
695.48154899999986
 30
0.0
 11
182.9804509999999
 21
695.48154899999986
 31
0.0
  0
LINE
  5
134
  8
0
 62
     3
 10
114.23058
 20
687.98153400000001
 30
0.0
 11
114.23058
 21
695.48154899999986
 31
0.0
  0
LINE
  5
135
  8
0
 62
     3
 10
94.230580000000003
 20
687.98153400000001
 30
0.0
 11
94.230580000000003
 21
695.48154899999986
 31
0.0
  0
LINE
  5
136
  8
0
 62
     3
 10
112.9805799999999
 20
715.4815339999999
 30
0.0
 11
95.480580000000003
 21
715.4815339999999
 31
0.0
  0
CIRCLE
  5
137
  8
0
 62
     3
 10
104.23051199999991
 20
705.48151900000005
 30
0.0
 40
4.1000569999999987
  0
LINE
  5
138
  8
0
 62
     3
 10
95.480580000000003
 20
695.48154899999986
 30
0.0
 11
95.480580000000003
 21
715.4815339999999
 31
0.0
  0
LINE
  5
139
  8
0
 62
     3
 10
112.9805799999999
 20
695.48154899999986
 30
0.0
 11
112.9805799999999
 21
715.4815339999999
 31
0.0
  0
LINE
  5
13A
  8
0
 62
     3
 10
114.23058
 20
695.48154899999986
 30
0.0
 11
112.9805799999999
 21
695.48154899999986
 31
0.0
  0
LINE
  5
13B
  8
0
 62
     3
 10
95.480580000000003
 20
695.48154899999986
 30
0.0
 11
94.230580000000003
 21
695.48154899999986
 31
0.0
  0
LINE
  5
13C
  8
0
  6
DASHDOT
 62
     7
 10
104.23051199999991
 20
699.38145199999985
 30
0.0
 11
104.23051199999991
 21
711.58157099999994
 31
0.0
  0
LINE
  5
13D
  8
0
  6
DASHDOT
 62
     7
 10
110.33057099999991
 20
705.48151900000005
 30
0.0
 11
98.130452000000005
 21
705.48151900000005
 31
0.0
  0
LINE
  5
13E
  8
0
  6
DASHDOT
 62
     7
 10
139.230512
 20
699.38145199999985
 30
0.0
 11
139.230512
 21
711.58157099999994
 31
0.0
  0
LINE
  5
13F
  8
0
  6
DASHDOT
 62
     7
 10
145.33057099999991
 20
705.48151900000005
 30
0.0
 11
133.13045199999991
 21
705.48151900000005
 31
0.0
  0
LINE
  5
140
  8
0
  6
DASHDOT
 62
     7
 10
174.230512
 20
699.38145199999985
 30
0.0
 11
174.230512
 21
711.58157099999994
 31
0.0
  0
LINE
  5
141
  8
0
  6
DASHDOT
 62
     7
 10
180.3305639999999
 20
705.48151900000005
 30
0.0
 11
168.13045999999991
 21
705.48151900000005
 31
0.0
  0
LINE
  5
142
  8
0
  6
DASHDOT
 62
     7
 10
178.3305639999999
 20
495.4815549999999
 30
0.0
 11
178.3305639999999
 21
499.55408999999997
 31
0.0
  0
LINE
  5
143
  8
0
  6
DASHDOT
 62
     7
 10
170.13046
 20
495.4815549999999
 30
0.0
 11
170.13046
 21
499.047147
 31
0.0
  0
LINE
  5
144
  8
0
 62
     3
 10
190.48051199999989
 20
687.98153400000001
 30
0.0
 11
87.980530999999999
 21
687.98153400000001
 31
0.0
  0
LINE
  5
145
  8
0
  6
DASHSPACE
 62
     4
 10
191.73051199999989
 20
651.040708
 30
0.0
 11
191.73051199999989
 21
686.73151900000005
 31
0.0
  0
LINE
  5
146
  8
0
 62
     3
 10
86.730523000000005
 20
678.72523200000001
 30
0.0
 11
86.730523000000005
 21
686.73154899999997
 31
0.0
  0
LINE
  5
147
  8
0
 62
     3
 10
90.380527999999998
 20
678.72523200000001
 30
0.0
 11
90.380527999999998
 21
687.98153400000001
 31
0.0
  0
LINE
  5
148
  8
0
 62
     3
 10
93.980526999999995
 20
678.72523200000001
 30
0.0
 11
93.980526999999995
 21
687.98153400000001
 31
0.0
  0
LINE
  5
149
  8
0
 62
     3
 10
97.580524999999994
 20
678.72523200000001
 30
0.0
 11
97.580524999999994
 21
687.98153400000001
 31
0.0
  0
LINE
  5
14A
  8
0
 62
     3
 10
101.18052400000001
 20
678.72523200000001
 30
0.0
 11
101.18052400000001
 21
687.98153400000001
 31
0.0
  0
LINE
  5
14B
  8
0
 62
     3
 10
104.78051499999999
 20
678.72523200000001
 30
0.0
 11
104.78051499999999
 21
687.98153400000001
 31
0.0
  0
LINE
  5
14C
  8
0
 62
     3
 10
108.3805209999999
 20
678.72523200000001
 30
0.0
 11
108.3805209999999
 21
687.98153400000001
 31
0.0
  0
LINE
  5
14D
  8
0
 62
     3
 10
111.980512
 20
678.72523200000001
 30
0.0
 11
111.980512
 21
687.98153400000001
 31
0.0
  0
LINE
  5
14E
  8
0
 62
     3
 10
119.180509
 20
678.72523200000001
 30
0.0
 11
119.180509
 21
687.98153400000001
 31
0.0
  0
LINE
  5
14F
  8
0
 62
     3
 10
122.78051499999999
 20
678.72523200000001
 30
0.0
 11
122.78051499999999
 21
687.98153400000001
 31
0.0
  0
LINE
  5
150
  8
0
 62
     3
 10
126.380521
 20
678.72523200000001
 30
0.0
 11
126.380521
 21
687.98153400000001
 31
0.0
  0
LINE
  5
151
  8
0
 62
     3
 10
129.980512
 20
678.72523200000001
 30
0.0
 11
129.980512
 21
687.98153400000001
 31
0.0
  0
LINE
  5
152
  8
0
 62
     3
 10
133.5805179999999
 20
678.72523200000001
 30
0.0
 11
133.5805179999999
 21
687.98153400000001
 31
0.0
  0
LINE
  5
153
  8
0
 62
     3
 10
137.180509
 20
678.72523200000001
 30
0.0
 11
137.180509
 21
687.98153400000001
 31
0.0
  0
LINE
  5
154
  8
0
 62
     3
 10
140.78051499999989
 20
678.72523200000001
 30
0.0
 11
140.78051499999989
 21
687.98153400000001
 31
0.0
  0
LINE
  5
155
  8
0
 62
     3
 10
144.3805209999999
 20
678.72523200000001
 30
0.0
 11
144.3805209999999
 21
687.98153400000001
 31
0.0
  0
LINE
  5
156
  8
0
 62
     3
 10
147.98051199999989
 20
678.72523200000001
 30
0.0
 11
147.98051199999989
 21
687.98153400000001
 31
0.0
  0
LINE
  5
157
  8
0
 62
     3
 10
151.5805179999999
 20
678.72523200000001
 30
0.0
 11
151.5805179999999
 21
687.98153400000001
 31
0.0
  0
LINE
  5
158
  8
0
 62
     3
 10
155.180509
 20
678.72523200000001
 30
0.0
 11
155.180509
 21
687.98153400000001
 31
0.0
  0
LINE
  5
159
  8
0
 62
     3
 10
158.78051499999989
 20
678.72523200000001
 30
0.0
 11
158.78051499999989
 21
687.98153400000001
 31
0.0
  0
LINE
  5
15A
  8
0
 62
     3
 10
162.3805209999999
 20
678.72523200000001
 30
0.0
 11
162.3805209999999
 21
687.98153400000001
 31
0.0
  0
LINE
  5
15B
  8
0
 62
     3
 10
165.980512
 20
678.72523200000001
 30
0.0
 11
165.980512
 21
687.98153400000001
 31
0.0
  0
LINE
  5
15C
  8
0
 62
     3
 10
169.5805179999999
 20
678.72523200000001
 30
0.0
 11
169.5805179999999
 21
687.98153400000001
 31
0.0
  0
LINE
  5
15D
  8
0
 62
     3
 10
173.18050899999989
 20
678.72523200000001
 30
0.0
 11
173.18050899999989
 21
687.98153400000001
 31
0.0
  0
LINE
  5
15E
  8
0
 62
     3
 10
176.78051499999989
 20
678.72523200000001
 30
0.0
 11
176.78051499999989
 21
687.98153400000001
 31
0.0
  0
LINE
  5
15F
  8
0
 62
     3
 10
180.3805209999999
 20
678.72523200000001
 30
0.0
 11
180.3805209999999
 21
687.98153400000001
 31
0.0
  0
LINE
  5
160
  8
0
 62
     3
 10
183.980512
 20
678.72523200000001
 30
0.0
 11
183.980512
 21
687.98153400000001
 31
0.0
  0
LINE
  5
161
  8
0
 62
     3
 10
187.58051800000001
 20
678.72523200000001
 30
0.0
 11
187.58051800000001
 21
687.98153400000001
 31
0.0
  0
ARC
  5
162
  8
0
 62
     3
 10
190.4804959999999
 20
686.73151900000005
 30
0.0
 40
1.2499990000000001
 50
0.000028
 51
90.000461999999985
  0
ARC
  5
163
  8
0
 62
     3
 10
87.980496000000002
 20
686.73154899999997
 30
0.0
 40
1.2499670000000001
 50
89.998233999999997
 51
180.00118399999991
  0
LINE
  5
164
  8
0
 62
     3
 10
190.48051199999989
 20
512.98153200000002
 30
0.0
 11
87.980530999999999
 21
512.98153200000002
 31
0.0
  0
LINE
  5
165
  8
0
  6
DASHSPACE
 62
     4
 10
191.73051199999989
 20
514.23154399999987
 30
0.0
 11
191.73051199999989
 21
545.39234999999996
 31
0.0
  0
LINE
  5
166
  8
0
 62
     3
 10
86.730523000000005
 20
514.23151100000007
 30
0.0
 11
86.730523000000005
 21
517.73154
 31
0.0
  0
LINE
  5
167
  8
0
 62
     3
 10
90.380527999999998
 20
512.98153200000002
 30
0.0
 11
90.380527999999998
 21
517.73154
 31
0.0
  0
LINE
  5
168
  8
0
 62
     3
 10
93.980526999999995
 20
512.98153200000002
 30
0.0
 11
93.980526999999995
 21
517.73154
 31
0.0
  0
LINE
  5
169
  8
0
 62
     3
 10
97.580524999999994
 20
512.98153200000002
 30
0.0
 11
97.580524999999994
 21
517.73154
 31
0.0
  0
LINE
  5
16A
  8
0
 62
     3
 10
101.18052400000001
 20
512.98153200000002
 30
0.0
 11
101.18052400000001
 21
517.73154
 31
0.0
  0
LINE
  5
16B
  8
0
 62
     3
 10
104.78051499999999
 20
512.98153200000002
 30
0.0
 11
104.78051499999999
 21
517.73154
 31
0.0
  0
LINE
  5
16C
  8
0
 62
     3
 10
108.3805209999999
 20
512.98153200000002
 30
0.0
 11
108.3805209999999
 21
517.73154
 31
0.0
  0
LINE
  5
16D
  8
0
 62
     3
 10
111.980512
 20
512.98153200000002
 30
0.0
 11
111.980512
 21
517.73154
 31
0.0
  0
LINE
  5
16E
  8
0
 62
     3
 10
115.5805179999999
 20
512.98153200000002
 30
0.0
 11
115.5805179999999
 21
517.73154
 31
0.0
  0
LINE
  5
16F
  8
0
 62
     3
 10
119.180509
 20
512.98153200000002
 30
0.0
 11
119.180509
 21
517.73154
 31
0.0
  0
LINE
  5
170
  8
0
 62
     3
 10
122.78051499999999
 20
512.98153200000002
 30
0.0
 11
122.78051499999999
 21
517.73154
 31
0.0
  0
LINE
  5
171
  8
0
 62
     3
 10
126.380521
 20
512.98153200000002
 30
0.0
 11
126.380521
 21
517.73154
 31
0.0
  0
LINE
  5
172
  8
0
 62
     3
 10
129.980512
 20
512.98153200000002
 30
0.0
 11
129.980512
 21
517.73154
 31
0.0
  0
LINE
  5
173
  8
0
 62
     3
 10
133.5805179999999
 20
512.98153200000002
 30
0.0
 11
133.5805179999999
 21
517.73154
 31
0.0
  0
LINE
  5
174
  8
0
 62
     3
 10
137.180509
 20
512.98153200000002
 30
0.0
 11
137.180509
 21
517.73154
 31
0.0
  0
LINE
  5
175
  8
0
 62
     3
 10
140.78051499999989
 20
512.98153200000002
 30
0.0
 11
140.78051499999989
 21
517.73154
 31
0.0
  0
LINE
  5
176
  8
0
 62
     3
 10
144.3805209999999
 20
512.98153200000002
 30
0.0
 11
144.3805209999999
 21
517.73154
 31
0.0
  0
LINE
  5
177
  8
0
 62
     3
 10
147.98051199999989
 20
512.98153200000002
 30
0.0
 11
147.98051199999989
 21
517.73154
 31
0.0
  0
LINE
  5
178
  8
0
 62
     3
 10
151.5805179999999
 20
512.98153200000002
 30
0.0
 11
151.5805179999999
 21
517.73154
 31
0.0
  0
LINE
  5
179
  8
0
 62
     3
 10
155.180509
 20
512.98153200000002
 30
0.0
 11
155.180509
 21
517.73154
 31
0.0
  0
LINE
  5
17A
  8
0
 62
     3
 10
158.78051499999989
 20
512.98153200000002
 30
0.0
 11
158.78051499999989
 21
517.73154
 31
0.0
  0
LINE
  5
17B
  8
0
 62
     3
 10
162.3805209999999
 20
512.98153200000002
 30
0.0
 11
162.3805209999999
 21
517.73154
 31
0.0
  0
LINE
  5
17C
  8
0
 62
     3
 10
165.980512
 20
512.98153200000002
 30
0.0
 11
165.980512
 21
517.73154
 31
0.0
  0
LINE
  5
17D
  8
0
 62
     3
 10
169.5805179999999
 20
512.98153200000002
 30
0.0
 11
169.5805179999999
 21
517.73154
 31
0.0
  0
LINE
  5
17E
  8
0
 62
     3
 10
173.18050899999989
 20
512.98153200000002
 30
0.0
 11
173.18050899999989
 21
517.73154
 31
0.0
  0
LINE
  5
17F
  8
0
 62
     3
 10
176.78051499999989
 20
512.98153200000002
 30
0.0
 11
176.78051499999989
 21
517.73154
 31
0.0
  0
LINE
  5
180
  8
0
 62
     3
 10
180.3805209999999
 20
512.98153200000002
 30
0.0
 11
180.3805209999999
 21
517.73154
 31
0.0
  0
LINE
  5
181
  8
0
 62
     3
 10
183.980512
 20
512.98153200000002
 30
0.0
 11
183.980512
 21
517.73154
 31
0.0
  0
LINE
  5
182
  8
0
 62
     3
 10
187.58051800000001
 20
512.98153200000002
 30
0.0
 11
187.58051800000001
 21
517.73154
 31
0.0
  0
ARC
  5
183
  8
0
 62
     3
 10
190.4804959999999
 20
514.23154399999987
 30
0.0
 40
1.2499990000000001
 50
269.99954100000002
 51
359.99997300000001
  0
ARC
  5
184
  8
0
 62
     3
 10
87.980496000000002
 20
514.23151100000007
 30
0.0
 40
1.2499670000000001
 50
179.9988139999999
 51
270.00178099999988
  0
LINE
  5
185
  8
0
 62
     3
 10
191.73064899999989
 20
647.98177800000008
 30
0.0
 11
191.73064899999989
 21
651.98177800000008
 31
0.0
  0
LINE
  5
186
  8
0
 62
     3
 10
195.730512
 20
538.98173999999995
 30
0.0
 11
191.7306639999999
 21
538.98173999999995
 31
0.0
  0
LINE
  5
187
  8
0
 62
     4
 10
191.7306639999999
 20
547.98177800000008
 30
0.0
 11
191.7306639999999
 21
556.98173999999995
 31
0.0
  0
LINE
  5
188
  8
0
 62
     3
 10
199.7306639999999
 20
536.98176699999988
 30
0.0
 11
199.7306639999999
 21
541.48177099999998
 31
0.0
  0
LINE
  5
189
  8
0
 62
     4
 10
192.73068000000001
 20
672.98179299999993
 30
0.0
 11
191.73064899999989
 21
672.98179299999993
 31
0.0
  0
LINE
  5
18A
  8
0
 62
     3
 10
191.73064899999989
 20
668.98177800000008
 30
0.0
 11
191.73064899999989
 21
672.98179299999993
 31
0.0
  0
LINE
  5
18B
  8
0
 62
     4
 10
199.73057299999991
 20
565.23173199999997
 30
0.0
 11
199.73057299999991
 21
575.73173200000008
 31
0.0
  0
LINE
  5
18C
  8
0
 62
     4
 10
199.73057299999991
 20
616.98174800000004
 30
0.0
 11
199.73057299999991
 21
640.98179299999993
 31
0.0
  0
LINE
  5
18D
  8
0
  6
DASHSPACE
 62
     4
 10
222.23067999999989
 20
528.231763
 30
0.0
 11
201.71065999999999
 21
528.231763
 31
0.0
  0
LINE
  5
18E
  8
0
  6
DASHSPACE
 62
     4
 10
222.23067999999989
 20
528.231763
 30
0.0
 11
222.23067999999989
 21
532.98175500000002
 31
0.0
  0
LINE
  5
18F
  8
0
  6
DASHSPACE
 62
     4
 10
201.71065999999999
 20
528.231763
 30
0.0
 11
191.73051199999989
 21
528.231763
 31
0.0
  0
LINE
  5
190
  8
0
 62
     3
 10
199.73068000000001
 20
652.48179299999993
 30
0.0
 11
199.73068000000001
 21
659.73179299999993
 31
0.0
  0
LINE
  5
191
  8
0
  6
DASHSPACE
 62
     4
 10
222.23066399999999
 20
672.98177800000008
 30
0.0
 11
192.73068000000001
 21
672.98177800000008
 31
0.0
  0
LINE
  5
192
  8
0
  6
DASHSPACE
 62
     4
 10
222.23067999999989
 20
532.98174800000004
 30
0.0
 11
222.23066399999999
 21
672.98177800000008
 31
0.0
  0
LINE
  5
193
  8
0
  6
DASHSPACE
 62
     4
 10
223.23066399999999
 20
585.98173200000008
 30
0.0
 11
223.23066399999999
 21
605.98173199999997
 31
0.0
  0
LINE
  5
194
  8
0
 62
     3
 10
199.73068000000001
 20
610.98174800000004
 30
0.0
 11
198.73067999999989
 21
610.98174800000004
 31
0.0
  0
LINE
  5
195
  8
0
 62
     4
 10
198.73067999999989
 20
575.73173200000008
 30
0.0
 11
198.73067999999989
 21
610.98174800000004
 31
0.0
  0
LINE
  5
196
  8
0
 62
     3
 10
198.73067999999989
 20
551.98177800000008
 30
0.0
 11
198.73067999999989
 21
556.98173999999995
 31
0.0
  0
LINE
  5
197
  8
0
 62
     3
 10
191.73064899999989
 20
660.98177800000008
 30
0.0
 11
191.73064899999989
 21
668.98177800000008
 31
0.0
  0
LINE
  5
198
  8
0
 62
     7
 10
198.73067999999989
 20
610.98175500000002
 30
0.0
 11
196.73068000000001
 21
610.98175500000002
 31
0.0
  0
LINE
  5
199
  8
0
 62
     7
 10
196.73068000000001
 20
610.98175500000002
 30
0.0
 11
196.73068000000001
 21
616.98174800000004
 31
0.0
  0
LINE
  5
19A
  8
0
  6
DASHSPACE
 62
     4
 10
223.23066399999999
 20
605.98173199999997
 30
0.0
 11
222.23067999999989
 21
605.98173199999997
 31
0.0
  0
LINE
  5
19B
  8
0
  6
DASHSPACE
 62
     4
 10
223.23066399999999
 20
585.98173200000008
 30
0.0
 11
222.23066399999999
 21
585.98173200000008
 31
0.0
  0
LINE
  5
19C
  8
0
 62
     4
 10
191.73064899999989
 20
644.98177799999996
 30
0.0
 11
191.73064899999989
 21
647.98177800000008
 31
0.0
  0
LINE
  5
19D
  8
0
 62
   150
 10
86.730596000000006
 20
546.23179699999991
 30
0.0
 11
86.730596000000006
 21
546.73182799999995
 31
0.0
  0
LINE
  5
19E
  8
0
 62
   150
 10
86.730610999999996
 20
638.731763
 30
0.0
 11
86.730610999999996
 21
650.23183899999992
 31
0.0
  0
LINE
  5
19F
  8
0
 62
   150
 10
86.877056999999994
 20
545.878243
 30
0.0
 11
86.730596000000006
 21
546.23179699999991
 31
0.0
  0
LINE
  5
1A0
  8
0
 62
   150
 10
87.230595999999991
 20
545.73185799999987
 30
0.0
 11
86.877060999999983
 21
545.878243
 31
0.0
  0
LINE
  5
1A1
  8
0
 62
   150
 10
191.2306639999999
 20
545.73191199999997
 30
0.0
 11
160.73066399999999
 21
545.73191199999997
 31
0.0
  0
LINE
  5
1A2
  8
0
 62
   150
 10
87.730610999999996
 20
545.73185799999987
 30
0.0
 11
87.230591999999987
 21
545.73185799999987
 31
0.0
  0
LINE
  5
1A3
  8
0
 62
   150
 10
191.2306639999999
 20
545.73179000000005
 30
0.0
 11
191.58422599999989
 21
545.87824000000001
 31
0.0
  0
LINE
  5
1A4
  8
0
 62
   150
 10
191.58422599999989
 20
545.87824000000001
 30
0.0
 11
191.73068000000001
 21
546.23179299999993
 31
0.0
  0
LINE
  5
1A5
  8
0
 62
   150
 10
191.73068000000001
 20
546.23179299999993
 30
0.0
 11
191.7306639999999
 21
650.23183899999992
 31
0.0
  0
LINE
  5
1A6
  8
0
 62
     3
 10
164.4306
 20
555.66233499999987
 30
0.0
 11
164.4306
 21
563.80112899999995
 31
0.0
  0
LINE
  5
1A7
  8
0
 62
     3
 10
165.82845800000001
 20
554.05560000000003
 30
0.0
 11
164.43058500000001
 21
555.66233499999987
 31
0.0
  0
LINE
  5
1A8
  8
0
 62
     3
 10
167.62171599999999
 20
552.90650700000003
 30
0.0
 11
165.82848799999999
 21
554.05560000000003
 31
0.0
  0
LINE
  5
1A9
  8
0
 62
     3
 10
169.66564700000001
 20
552.30781300000001
 30
0.0
 11
167.621701
 21
552.90650700000003
 31
0.0
  0
LINE
  5
1AA
  8
0
 62
     3
 10
171.79545300000001
 20
552.30781300000001
 30
0.0
 11
169.66564700000001
 21
552.30781300000001
 31
0.0
  0
LINE
  5
1AB
  8
0
 62
     3
 10
171.79545300000001
 20
552.30781300000001
 30
0.0
 11
173.8393979999999
 21
552.90649900000005
 31
0.0
  0
LINE
  5
1AC
  8
0
 62
     3
 10
173.83941399999989
 20
552.90650700000003
 30
0.0
 11
175.63265699999991
 21
554.05560000000003
 31
0.0
  0
LINE
  5
1AD
  8
0
 62
     3
 10
175.63262700000001
 20
554.05558499999995
 30
0.0
 11
177.0305449999999
 21
555.66241899999989
 31
0.0
  0
LINE
  5
1AE
  8
0
 62
     3
 10
177.03056000000001
 20
555.66242699999987
 30
0.0
 11
177.03060600000001
 21
563.80117499999994
 31
0.0
  0
LINE
  5
1AF
  8
0
 62
     3
 10
177.03060600000001
 20
563.80117499999994
 30
0.0
 11
175.632688
 21
565.40797099999986
 31
0.0
  0
LINE
  5
1B0
  8
0
 62
     3
 10
175.63270299999999
 20
565.40797099999986
 30
0.0
 11
173.83945900000001
 21
566.55706500000008
 31
0.0
  0
LINE
  5
1B1
  8
0
 62
     3
 10
173.8394439999999
 20
566.55706500000008
 30
0.0
 11
171.79551399999991
 21
567.15575100000001
 31
0.0
  0
LINE
  5
1B2
  8
0
 62
     3
 10
171.79551399999991
 20
567.15575100000001
 30
0.0
 11
169.66569199999989
 21
567.15575100000001
 31
0.0
  0
LINE
  5
1B3
  8
0
 62
     3
 10
167.62176199999999
 20
566.55706500000008
 30
0.0
 11
169.66569199999989
 21
567.15575100000001
 31
0.0
  0
LINE
  5
1B4
  8
0
 62
     3
 10
165.82853399999999
 20
565.40798700000005
 30
0.0
 11
167.62177799999989
 21
566.55707999999993
 31
0.0
  0
LINE
  5
1B5
  8
0
 62
     3
 10
164.43058500000001
 20
563.80112199999996
 30
0.0
 11
165.82850400000001
 21
565.40796399999988
 31
0.0
  0
LINE
  5
1B6
  8
0
 62
     3
 10
160.73066399999999
 20
638.23177800000008
 30
0.0
 11
191.7306639999999
 21
638.23183899999992
 31
0.0
  0
LINE
  5
1B7
  8
0
 62
     3
 10
191.7306639999999
 20
648.23183899999992
 30
0.0
 11
86.730603000000016
 21
648.23183899999992
 31
0.0
  0
LINE
  5
1B8
  8
0
 62
     3
 10
180.23507399999991
 20
630.981717
 30
0.0
 11
180.12089299999991
 21
631.55575299999987
 31
0.0
  0
LINE
  5
1B9
  8
0
 62
     3
 10
180.12089299999991
 20
631.55575299999987
 30
0.0
 11
179.7957429999999
 21
632.04238599999996
 31
0.0
  0
LINE
  5
1BA
  8
0
 62
     3
 10
179.7957429999999
 20
632.04238599999996
 30
0.0
 11
179.3090939999999
 21
632.36753600000009
 31
0.0
  0
LINE
  5
1BB
  8
0
 62
     3
 10
179.30907899999991
 20
632.36753600000009
 30
0.0
 11
178.73505900000001
 21
632.481717
 31
0.0
  0
LINE
  5
1BC
  8
0
 62
     3
 10
178.16103799999999
 20
632.36752000000001
 30
0.0
 11
178.73505900000001
 21
632.48170199999993
 31
0.0
  0
LINE
  5
1BD
  8
0
 62
     3
 10
177.67441999999991
 20
632.04238599999996
 30
0.0
 11
178.16105400000001
 21
632.36753600000009
 31
0.0
  0
LINE
  5
1BE
  8
0
 62
     3
 10
177.349256
 20
631.55575299999987
 30
0.0
 11
177.67441999999991
 21
632.04238599999996
 31
0.0
  0
LINE
  5
1BF
  8
0
 62
     3
 10
177.235074
 20
630.98170199999993
 30
0.0
 11
177.349256
 21
631.55573700000002
 31
0.0
  0
LINE
  5
1C0
  8
0
 62
     3
 10
177.235074
 20
627.981717
 30
0.0
 11
177.235074
 21
630.981717
 31
0.0
  0
LINE
  5
1C1
  8
0
 62
     3
 10
177.349256
 20
627.40768099999991
 30
0.0
 11
177.235074
 21
627.98170199999993
 31
0.0
  0
LINE
  5
1C2
  8
0
 62
     3
 10
177.67441999999991
 20
626.92106299999989
 30
0.0
 11
177.349256
 21
627.40769699999998
 31
0.0
  0
LINE
  5
1C3
  8
0
 62
     3
 10
178.16105400000001
 20
626.59589900000003
 30
0.0
 11
177.67441999999991
 21
626.92106299999989
 31
0.0
  0
LINE
  5
1C4
  8
0
 62
     3
 10
178.73505900000001
 20
626.481717
 30
0.0
 11
178.16103799999999
 21
626.59589900000003
 31
0.0
  0
LINE
  5
1C5
  8
0
 62
     3
 10
178.73505900000001
 20
626.48170199999993
 30
0.0
 11
179.30907899999991
 21
626.59588299999984
 31
0.0
  0
LINE
  5
1C6
  8
0
 62
     3
 10
179.3090939999999
 20
626.59589900000003
 30
0.0
 11
179.7957429999999
 21
626.92106299999989
 31
0.0
  0
LINE
  5
1C7
  8
0
 62
     3
 10
179.7957429999999
 20
626.92106299999989
 30
0.0
 11
180.12089299999991
 21
627.40769699999998
 31
0.0
  0
LINE
  5
1C8
  8
0
 62
     3
 10
180.12087700000001
 20
627.40768099999991
 30
0.0
 11
180.23505899999989
 21
627.98170199999993
 31
0.0
  0
LINE
  5
1C9
  8
0
 62
     3
 10
180.23507399999991
 20
627.981717
 30
0.0
 11
180.23507399999991
 21
630.981717
 31
0.0
  0
LINE
  5
1CA
  8
0
 62
     3
 10
180.2306639999999
 20
606.48173999999995
 30
0.0
 11
177.23066399999999
 21
606.48173999999995
 31
0.0
  0
LINE
  5
1CB
  8
0
 62
     3
 10
177.23066399999999
 20
579.48173999999995
 30
0.0
 11
177.23066399999999
 21
606.48173999999995
 31
0.0
  0
LINE
  5
1CC
  8
0
 62
     3
 10
180.2306639999999
 20
579.48173999999995
 30
0.0
 11
177.23066399999999
 21
579.48173999999995
 31
0.0
  0
LINE
  5
1CD
  8
0
 62
     3
 10
180.2306639999999
 20
579.48173999999995
 30
0.0
 11
180.2306639999999
 21
606.48173999999995
 31
0.0
  0
LINE
  5
1CE
  8
0
 62
   150
 10
158.7306639999999
 20
549.23176699999999
 30
0.0
 11
158.7306639999999
 21
635.73176299999989
 31
0.0
  0
LINE
  5
1CF
  8
0
 62
     3
 10
160.73066399999999
 20
638.231763
 30
0.0
 11
90.230580000000003
 21
638.231763
 31
0.0
  0
LINE
  5
1D0
  8
0
 62
   150
 10
157.7306639999999
 20
636.731763
 30
0.0
 11
90.230580000000003
 21
636.731763
 31
0.0
  0
LINE
  5
1D1
  8
0
 62
   150
 10
158.7306639999999
 20
635.73176299999989
 30
0.0
 11
157.7306639999999
 21
636.731763
 31
0.0
  0
LINE
  5
1D2
  8
0
 62
   150
 10
89.230580000000003
 20
635.73176299999989
 30
0.0
 11
89.523472999999996
 21
636.43887000000007
 31
0.0
  0
LINE
  5
1D3
  8
0
 62
   150
 10
89.523472999999996
 20
636.43887000000007
 30
0.0
 11
90.230580000000003
 21
636.731763
 31
0.0
  0
LINE
  5
1D4
  8
0
 62
     3
 10
90.230580000000003
 20
638.231763
 30
0.0
 11
86.730606999999978
 21
638.23177800000008
 31
0.0
  0
LINE
  5
1D5
  8
0
 62
   150
 10
86.730603000000016
 20
546.73182799999995
 30
0.0
 11
86.730606999999978
 21
638.73177799999996
 31
0.0
  0
LINE
  5
1D6
  8
0
 62
   150
 10
159.73066399999999
 20
545.73154499999998
 30
0.0
 11
87.730603000000002
 21
545.73183499999993
 31
0.0
  0
LINE
  5
1D7
  8
0
 62
   150
 10
160.73066399999999
 20
545.73153000000002
 30
0.0
 11
159.73066399999999
 21
545.73154499999998
 31
0.0
  0
LINE
  5
1D8
  8
0
 62
   150
 10
158.43777199999991
 20
548.52465899999993
 30
0.0
 11
158.7306639999999
 21
549.23176699999999
 31
0.0
  0
LINE
  5
1D9
  8
0
 62
   150
 10
157.7306639999999
 20
548.23176699999988
 30
0.0
 11
158.43777199999991
 21
548.52465899999993
 31
0.0
  0
LINE
  5
1DA
  8
0
 62
   150
 10
157.7306639999999
 20
548.23176699999988
 30
0.0
 11
90.230580000000003
 21
548.23176699999988
 31
0.0
  0
LINE
  5
1DB
  8
0
 62
   150
 10
90.230580000000003
 20
548.23176699999988
 30
0.0
 11
89.523472999999996
 21
548.52465899999993
 31
0.0
  0
LINE
  5
1DC
  8
0
 62
   150
 10
89.523472999999996
 20
548.52465899999993
 30
0.0
 11
89.230580000000003
 21
549.23176699999999
 31
0.0
  0
LINE
  5
1DD
  8
0
 62
   150
 10
89.230580000000003
 20
549.23176699999999
 30
0.0
 11
89.230580000000003
 21
635.73176299999989
 31
0.0
  0
LINE
  5
1DE
  8
0
 62
   150
 10
128.48064099999991
 20
566.90992500000004
 30
0.0
 11
128.48064099999991
 21
608.68704700000001
 31
0.0
  0
LINE
  5
1DF
  8
0
 62
   150
 10
149.98064099999991
 20
566.90992500000004
 30
0.0
 11
149.98064099999991
 21
608.68704700000001
 31
0.0
  0
LINE
  5
1E0
  8
0
 62
     3
 10
186.73068000000001
 20
572.15215799999999
 30
0.0
 11
184.73068000000001
 21
572.15215799999999
 31
0.0
  0
LINE
  5
1E1
  8
0
 62
     3
 10
184.37714899999989
 20
572.005719
 30
0.0
 11
184.73070999999999
 21
572.15216499999997
 31
0.0
  0
LINE
  5
1E2
  8
0
 62
     3
 10
184.23068000000001
 20
571.65215799999999
 30
0.0
 11
184.377118
 21
572.0057119999999
 31
0.0
  0
LINE
  5
1E3
  8
0
 62
     3
 10
184.23068000000001
 20
560.65215799999987
 30
0.0
 11
184.23068000000001
 21
571.65215799999999
 31
0.0
  0
LINE
  5
1E4
  8
0
 62
     3
 10
184.377118
 20
560.29860399999995
 30
0.0
 11
184.23068000000001
 21
560.65215799999987
 31
0.0
  0
LINE
  5
1E5
  8
0
 62
     3
 10
184.730695
 20
560.15215799999999
 30
0.0
 11
184.37713299999999
 21
560.29860399999995
 31
0.0
  0
LINE
  5
1E6
  8
0
 62
     3
 10
186.73068000000001
 20
560.15215799999999
 30
0.0
 11
184.73068000000001
 21
560.15215799999999
 31
0.0
  0
LINE
  5
1E7
  8
0
 62
     3
 10
188.23068000000001
 20
560.15215799999999
 30
0.0
 11
186.73068000000001
 21
560.15215799999999
 31
0.0
  0
LINE
  5
1E8
  8
0
 62
     3
 10
188.2306639999999
 20
560.15215000000001
 30
0.0
 11
188.5842099999999
 21
560.29859599999986
 31
0.0
  0
LINE
  5
1E9
  8
0
 62
     3
 10
188.584226
 20
560.29861200000005
 30
0.0
 11
188.73068000000001
 21
560.65216500000008
 31
0.0
  0
LINE
  5
1EA
  8
0
 62
     3
 10
188.73068000000001
 20
560.65215799999987
 30
0.0
 11
188.73068000000001
 21
571.65215799999999
 31
0.0
  0
LINE
  5
1EB
  8
0
 62
     3
 10
188.73068000000001
 20
571.65215799999999
 30
0.0
 11
188.584226
 21
572.0057119999999
 31
0.0
  0
LINE
  5
1EC
  8
0
 62
     3
 10
188.5842099999999
 20
572.0057119999999
 30
0.0
 11
188.2306639999999
 21
572.15215799999999
 31
0.0
  0
LINE
  5
1ED
  8
0
 62
     3
 10
188.23068000000001
 20
572.15215799999999
 30
0.0
 11
186.73068000000001
 21
572.15215799999999
 31
0.0
  0
LINE
  5
1EE
  8
0
 62
   150
 10
158.73061799999991
 20
611.73178600000006
 30
0.0
 11
158.73061799999991
 21
612.73178600000006
 31
0.0
  0
LINE
  5
1EF
  8
0
 62
   150
 10
158.73061799999991
 20
562.73178600000006
 30
0.0
 11
158.73061799999991
 21
563.73178600000006
 31
0.0
  0
LINE
  5
1F0
  8
0
 62
     3
 10
128.48061100000001
 20
598.23178600000006
 30
0.0
 11
89.230572999999993
 21
598.23178600000006
 31
0.0
  0
LINE
  5
1F1
  8
0
 62
   150
 10
158.73061799999991
 20
598.73178600000006
 30
0.0
 11
158.73061799999991
 21
599.73178600000006
 31
0.0
  0
LINE
  5
1F2
  8
0
 62
     3
 10
158.73061799999991
 20
598.23178600000006
 30
0.0
 11
149.98064099999991
 21
598.23178600000006
 31
0.0
  0
LINE
  5
1F3
  8
0
 62
   150
 10
158.73061799999991
 20
575.73178600000006
 30
0.0
 11
158.73061799999991
 21
576.73178600000006
 31
0.0
  0
LINE
  5
1F4
  8
0
 62
   150
 10
159.73066399999999
 20
545.73154499999998
 30
0.0
 11
87.227058999999997
 21
545.73330799999985
 31
0.0
  0
LINE
  5
1F5
  8
0
 62
     3
 10
190.480695
 20
546.23191199999997
 30
0.0
 11
190.480695
 21
638.23183899999992
 31
0.0
  0
LINE
  5
1F6
  8
0
 62
     3
 10
87.980598999999998
 20
545.73328499999991
 30
0.0
 11
87.980598999999998
 21
638.231763
 31
0.0
  0
LINE
  5
1F7
  8
0
 62
   150
 10
87.095239000000007
 20
545.78789600000005
 30
0.0
 11
87.096715000000003
 21
545.78937199999984
 31
0.0
  0
LINE
  5
1F8
  8
0
 62
   150
 10
149.98064099999991
 20
608.24622799999986
 30
0.0
 11
128.48064099999991
 21
608.24622799999986
 31
0.0
  0
LINE
  5
1F9
  8
0
 62
   150
 10
149.98064099999991
 20
608.68704700000001
 30
0.0
 11
128.48064099999991
 21
608.68704700000001
 31
0.0
  0
LINE
  5
1FA
  8
0
 62
   150
 10
149.98064099999991
 20
566.90992500000004
 30
0.0
 11
128.48064099999991
 21
566.90992500000004
 31
0.0
  0
LINE
  5
1FB
  8
0
 62
   150
 10
149.98064099999991
 20
567.57980099999997
 30
0.0
 11
128.48064099999991
 21
567.57980099999997
 31
0.0
  0
LINE
  5
1FC
  8
0
 62
     7
 10
199.73057299999991
 20
616.98174800000004
 30
0.0
 11
196.73068000000001
 21
616.98174800000004
 31
0.0
  0
LINE
  5
1FD
  8
0
 62
     4
 10
198.73067999999989
 20
556.98173999999995
 30
0.0
 11
198.73067999999989
 21
565.23173199999997
 31
0.0
  0
CIRCLE
  5
1FE
  8
0
 62
     4
 10
208.73070999999999
 20
570.48174800000004
 30
0.0
 40
5.249981
  0
LINE
  5
1FF
  8
0
  6
DASHDOT
 62
     7
 10
208.73070999999999
 20
562.231763
 30
0.0
 11
208.73070999999999
 21
578.73172499999998
 31
0.0
  0
LINE
  5
200
  8
0
  6
DASHDOT
 62
     7
 10
216.980695
 20
570.48174800000004
 30
0.0
 11
200.48072500000001
 21
570.48174800000004
 31
0.0
  0
LINE
  5
201
  8
0
  6
DASHDOT
 62
     7
 10
230.36015
 20
598.23154199999988
 30
0.0
 11
70.911377999999999
 21
598.23154199999988
 31
0.0
  0
LINE
  5
202
  8
0
 62
     3
 10
115.58051
 20
678.72523200000001
 30
0.0
 11
115.58051
 21
687.98153400000001
 31
0.0
  0
CIRCLE
  5
203
  8
0
 62
     7
 10
229.677335
 20
673.26548500000001
 30
0.0
 40
0.2
  0
LINE
  5
204
  8
0
 62
     7
 10
191.73051199999989
 20
729.76142600000003
 30
0.0
 11
185.82163700000001
 21
730.80331100000001
 31
0.0
  0
LINE
  5
205
  8
0
 62
     7
 10
191.73051199999989
 20
729.76142600000003
 30
0.0
 11
185.82163700000001
 21
728.71952499999986
 31
0.0
  0
LINE
  5
206
  8
0
 62
     7
 10
86.730512000000004
 20
729.76145599999995
 30
0.0
 11
92.639386000000016
 21
728.71955600000001
 31
0.0
  0
LINE
  5
207
  8
0
 62
     7
 10
86.730512000000004
 20
729.76145599999995
 30
0.0
 11
92.639386000000016
 21
730.80334200000004
 31
0.0
  0
LINE
  5
208
  8
0
 62
     7
 10
191.73051199999989
 20
729.76142600000003
 30
0.0
 11
86.730512000000004
 21
729.76145599999995
 31
0.0
  0
LINE
  5
209
  8
0
 62
     7
 10
191.73051199999989
 20
733.76142600000003
 30
0.0
 11
191.730481
 21
650.23154899999986
 31
0.0
  0
LINE
  5
20A
  8
0
 62
     7
 10
86.730542000000014
 20
733.76145599999995
 30
0.0
 11
86.730512000000004
 21
650.23157999999989
 31
0.0
  0
LINE
  5
20B
  8
0
 62
     7
 10
174.23057299999991
 20
441.22384399999999
 30
0.0
 11
168.321698
 21
442.2657329999999
 31
0.0
  0
LINE
  5
20C
  8
0
 62
     7
 10
174.23057299999991
 20
441.22384399999999
 30
0.0
 11
168.321698
 21
440.18195399999991
 31
0.0
  0
LINE
  5
20D
  8
0
 62
     7
 10
139.230512
 20
441.223859
 30
0.0
 11
145.13935599999991
 21
440.18196599999999
 31
0.0
  0
LINE
  5
20E
  8
0
 62
     7
 10
139.230512
 20
441.223859
 30
0.0
 11
145.13935599999991
 21
442.26574399999998
 31
0.0
  0
LINE
  5
20F
  8
0
 62
     7
 10
139.230512
 20
441.223859
 30
0.0
 11
133.3216679999999
 21
442.26574399999998
 31
0.0
  0
LINE
  5
210
  8
0
 62
     7
 10
139.230512
 20
441.223859
 30
0.0
 11
133.3216679999999
 21
440.18196599999999
 31
0.0
  0
LINE
  5
211
  8
0
 62
     7
 10
104.23051199999991
 20
441.22386599999987
 30
0.0
 11
110.13935599999991
 21
440.1819769999999
 31
0.0
  0
LINE
  5
212
  8
0
 62
     7
 10
104.23051199999991
 20
441.22386599999987
 30
0.0
 11
110.13935599999991
 21
442.2657559999999
 31
0.0
  0
LINE
  5
213
  8
0
 62
     7
 10
174.23057299999991
 20
441.22384399999999
 30
0.0
 11
104.23051199999991
 21
441.22386599999987
 31
0.0
  0
LINE
  5
214
  8
0
 62
     7
 10
174.2305419999999
 20
437.22384399999999
 30
0.0
 11
174.23057299999991
 21
512.98153400000001
 31
0.0
  0
LINE
  5
215
  8
0
 62
     7
 10
104.230481
 20
437.22386599999987
 30
0.0
 11
104.23051199999991
 21
512.98155699999995
 31
0.0
  0
LINE
  5
216
  8
0
 62
     7
 10
-12.47389499999999
 20
485.48153300000001
 30
0.0
 11
-13.515765
 21
479.57268599999998
 31
0.0
  0
LINE
  5
217
  8
0
 62
     7
 10
-12.47389499999999
 20
485.48153300000001
 30
0.0
 11
-11.431964000000001
 21
479.57268599999998
 31
0.0
  0
LINE
  5
218
  8
0
 62
     7
 10
-12.47389499999999
 20
495.48155400000002
 30
0.0
 11
-11.431964000000001
 21
501.390401
 31
0.0
  0
LINE
  5
219
  8
0
 62
     7
 10
-12.47389499999999
 20
495.48155400000002
 30
0.0
 11
-13.515765
 21
501.3904
 31
0.0
  0
LINE
  5
21A
  8
0
 62
     7
 10
-12.47389499999999
 20
705.48150299999998
 30
0.0
 11
-13.515765
 21
699.57264400000008
 31
0.0
  0
LINE
  5
21B
  8
0
 62
     7
 10
-12.47389499999999
 20
705.48150299999998
 30
0.0
 11
-11.431964000000001
 21
699.57264400000008
 31
0.0
  0
LINE
  5
21C
  8
0
 62
     7
 10
-12.47389499999999
 20
715.48151900000005
 30
0.0
 11
-11.431964000000001
 21
721.39036299999987
 31
0.0
  0
LINE
  5
21D
  8
0
 62
     7
 10
-12.47389499999999
 20
715.48151900000005
 30
0.0
 11
-13.515765
 21
721.39036299999987
 31
0.0
  0
LINE
  5
21E
  8
0
 62
     7
 10
-12.47389499999999
 20
468.48153200000002
 30
0.0
 11
-12.47389499999999
 21
715.48151900000005
 31
0.0
  0
LINE
  5
21F
  8
0
 62
     7
 10
-16.473894999999999
 20
485.48153300000001
 30
0.0
 11
165.48042000000001
 21
485.48154099999988
 31
0.0
  0
LINE
  5
220
  8
0
 62
     7
 10
-16.473894999999999
 20
495.48155400000002
 30
0.0
 11
168.13044500000001
 21
495.48156199999988
 31
0.0
  0
LINE
  5
221
  8
0
 62
     7
 10
-16.473894999999999
 20
705.48150299999998
 30
0.0
 11
168.13044500000001
 21
705.48150299999998
 31
0.0
  0
LINE
  5
222
  8
0
 62
     7
 10
-16.473894999999999
 20
715.48151900000005
 30
0.0
 11
165.48042000000001
 21
715.48151900000005
 31
0.0
  0
LINE
  5
223
  8
0
 62
     7
 10
114.23057299999989
 20
463.75117
 30
0.0
 11
120.1394169999999
 21
462.70928099999992
 31
0.0
  0
LINE
  5
224
  8
0
 62
     7
 10
114.23057299999989
 20
463.75117
 30
0.0
 11
120.1394169999999
 21
464.79305899999991
 31
0.0
  0
LINE
  5
225
  8
0
 62
     7
 10
94.230572999999993
 20
463.75117799999998
 30
0.0
 11
88.321729000000005
 21
464.79306700000001
 31
0.0
  0
LINE
  5
226
  8
0
 62
     7
 10
94.230572999999993
 20
463.75117799999998
 30
0.0
 11
88.321729000000005
 21
462.7092889999999
 31
0.0
  0
LINE
  5
227
  8
0
 62
     7
 10
131.23057299999999
 20
463.75116600000001
 30
0.0
 11
94.230572999999993
 21
463.75117799999998
 31
0.0
  0
LINE
  5
228
  8
0
 62
     7
 10
114.23057299999989
 20
459.75117
 30
0.0
 11
114.230603
 21
505.48152299999998
 31
0.0
  0
LINE
  5
229
  8
0
 62
     7
 10
94.230572999999993
 20
459.75117799999998
 30
0.0
 11
94.230603000000016
 21
505.48152800000003
 31
0.0
  0
LINE
  5
22A
  8
0
 62
     7
 10
177.33402699999999
 20
492.80225799999999
 30
0.0
 11
181.12586699999989
 21
488.152308
 31
0.0
  0
LINE
  5
22B
  8
0
 62
     7
 10
177.33402699999999
 20
492.80225799999999
 30
0.0
 11
182.487561
 21
489.72961500000002
 31
0.0
  0
LINE
  5
22C
  8
0
 62
     7
 10
171.12699599999991
 20
498.16084999999998
 30
0.0
 11
167.33515600000001
 21
502.81080300000002
 31
0.0
  0
LINE
  5
22D
  8
0
 62
     7
 10
171.12699599999991
 20
498.16084999999998
 30
0.0
 11
165.97346200000001
 21
501.233497
 31
0.0
  0
LINE
  5
22E
  8
0
 62
     7
 10
171.12699599999991
 20
498.16084999999998
 30
0.0
 11
208.319379
 21
466.052369
 31
0.0
  0
LINE
  5
22F
  8
0
 62
     7
 10
223.23066399999999
 20
422.32998400000002
 30
0.0
 11
217.32182
 21
423.37187699999998
 31
0.0
  0
LINE
  5
230
  8
0
 62
     7
 10
223.23066399999999
 20
422.32998400000002
 30
0.0
 11
217.32182
 21
421.28809799999999
 31
0.0
  0
LINE
  5
231
  8
0
 62
     7
 10
139.230512
 20
422.32998400000002
 30
0.0
 11
145.13935599999991
 21
421.28809799999999
 31
0.0
  0
LINE
  5
232
  8
0
 62
     7
 10
139.230512
 20
422.32998400000002
 30
0.0
 11
145.13935599999991
 21
423.37187699999998
 31
0.0
  0
LINE
  5
233
  8
0
 62
     7
 10
223.23066399999999
 20
422.32998400000002
 30
0.0
 11
139.230512
 21
422.32998400000002
 31
0.0
  0
LINE
  5
234
  8
0
 62
     7
 10
223.23066399999999
 20
418.32998400000002
 30
0.0
 11
223.23066399999999
 21
585.98173200000008
 31
0.0
  0
LINE
  5
235
  8
0
 62
     7
 10
139.230512
 20
418.32998400000002
 30
0.0
 11
139.230512
 21
438.3472339999999
 31
0.0
  0
LINE
  5
236
  8
0
 62
     7
 10
3.6726499999999991
 20
598.23154199999988
 30
0.0
 11
4.7145199999999994
 21
604.14039300000002
 31
0.0
  0
LINE
  5
237
  8
0
 62
     7
 10
3.6726499999999991
 20
598.23154199999988
 30
0.0
 11
2.6307800000000001
 21
604.14039300000002
 31
0.0
  0
LINE
  5
238
  8
0
 62
     7
 10
3.6726499999999991
 20
705.48151900000005
 30
0.0
 11
2.6307800000000001
 21
699.57265899999993
 31
0.0
  0
LINE
  5
239
  8
0
 62
     7
 10
3.6726499999999991
 20
705.48151900000005
 30
0.0
 11
4.7145199999999994
 21
699.57265899999993
 31
0.0
  0
LINE
  5
23A
  8
0
 62
     7
 10
3.6726499999999991
 20
598.23154199999988
 30
0.0
 11
3.6726499999999991
 21
705.48151900000005
 31
0.0
  0
LINE
  5
23B
  8
0
 62
     7
 10
-0.32735
 20
598.23154199999988
 30
0.0
 11
70.911389
 21
598.23154899999986
 31
0.0
  0
LINE
  5
23C
  8
0
 62
     7
 10
-0.32735
 20
705.48151900000005
 30
0.0
 11
98.130444999999995
 21
705.48151900000005
 31
0.0
  0
LINE
  5
23D
  8
0
 62
     7
 10
235.230512
 20
749.94459199999994
 30
0.0
 11
229.32166799999999
 21
750.98649299999988
 31
0.0
  0
LINE
  5
23E
  8
0
 62
     7
 10
235.230512
 20
749.94459199999994
 30
0.0
 11
229.32166799999999
 21
748.902692
 31
0.0
  0
LINE
  5
23F
  8
0
 62
     7
 10
139.230512
 20
749.94459199999994
 30
0.0
 11
145.13935599999991
 21
748.902692
 31
0.0
  0
LINE
  5
240
  8
0
 62
     7
 10
139.230512
 20
749.94459199999994
 30
0.0
 11
145.13935599999991
 21
750.98649299999988
 31
0.0
  0
LINE
  5
241
  8
0
 62
     7
 10
139.230512
 20
749.94459199999994
 30
0.0
 11
133.3216679999999
 21
750.98649299999988
 31
0.0
  0
LINE
  5
242
  8
0
 62
     7
 10
139.230512
 20
749.94459199999994
 30
0.0
 11
133.3216679999999
 21
748.902692
 31
0.0
  0
LINE
  5
243
  8
0
 62
     7
 10
60.730511999999997
 20
749.94459199999994
 30
0.0
 11
66.639356000000006
 21
748.902692
 31
0.0
  0
LINE
  5
244
  8
0
 62
     7
 10
60.730511999999997
 20
749.94459199999994
 30
0.0
 11
66.639356000000006
 21
750.98649299999988
 31
0.0
  0
LINE
  5
245
  8
0
 62
     7
 10
235.230512
 20
749.94459199999994
 30
0.0
 11
60.730511999999997
 21
749.94459199999994
 31
0.0
  0
LINE
  5
246
  8
0
 62
     7
 10
235.230512
 20
753.94459199999994
 30
0.0
 11
235.230512
 21
677.47523200000001
 31
0.0
  0
LINE
  5
247
  8
0
 62
     7
 10
139.230512
 20
753.94459199999994
 30
0.0
 11
139.230512
 21
744.00834400000008
 31
0.0
  0
LINE
  5
248
  8
0
 62
     7
 10
60.730511999999997
 20
753.94459199999994
 30
0.0
 11
60.730511999999997
 21
677.47523200000001
 31
0.0
  0
LINE
  5
249
  8
0
 62
     3
 10
-166.74362600000001
 20
518.28155499999991
 30
0.0
 11
-238.74362599999989
 21
518.28155499999991
 31
0.0
  0
LINE
  5
24A
  8
0
 62
     7
 10
-166.74362600000001
 20
512.98155599999996
 30
0.0
 11
-166.74362600000001
 21
528.73150999999984
 31
0.0
  0
LINE
  5
24B
  8
0
 62
     7
 10
-164.74362600000001
 20
525.98152500000003
 30
0.0
 11
-166.74362600000001
 21
525.98152500000003
 31
0.0
  0
LINE
  5
24C
  8
0
 62
     7
 10
-164.74362600000001
 20
674.98150999999984
 30
0.0
 11
-166.74362600000001
 21
674.98150999999984
 31
0.0
  0
LINE
  5
24D
  8
0
 62
     7
 10
-170.52730199999991
 20
580.63375499999995
 30
0.0
 11
-170.49362600000001
 21
580.65626100000009
 31
0.0
  0
LINE
  5
24E
  8
0
 62
     3
 10
-166.74362600000001
 20
682.68155300000001
 30
0.0
 11
-260.943623
 21
682.68155300000001
 31
0.0
  0
LINE
  5
24F
  8
0
 62
     3
 10
-238.74362599999989
 20
518.28155499999991
 30
0.0
 11
-260.943623
 21
518.28155499999991
 31
0.0
  0
LINE
  5
250
  8
0
 62
     3
 10
-260.943623
 20
518.28155900000002
 30
0.0
 11
-260.943623
 21
529.48150999999996
 31
0.0
  0
LINE
  5
251
  8
0
 62
     3
 10
-260.943623
 20
673.48152500000003
 30
0.0
 11
-260.943623
 21
682.68155300000001
 31
0.0
  0
LINE
  5
252
  8
0
 62
     6
 10
-117.24357999999999
 20
570.48151799999994
 30
0.0
 11
-119.2435649999999
 21
570.48152500000003
 31
0.0
  0
LINE
  5
253
  8
0
 62
     6
 10
-117.24357999999999
 20
563.48151799999994
 30
0.0
 11
-119.2435649999999
 21
563.48152500000003
 31
0.0
  0
LINE
  5
254
  8
0
 62
     7
 10
-116.74357999999999
 20
516.48154099999999
 30
0.0
 11
-116.74357999999999
 21
541.48154099999999
 31
0.0
  0
LINE
  5
255
  8
0
 62
     3
 10
-116.74357999999999
 20
659.48154099999988
 30
0.0
 11
-116.74357999999999
 21
684.48154099999988
 31
0.0
  0
LINE
  5
256
  8
0
 62
     7
 10
-127.74357999999999
 20
518.28154400000005
 30
0.0
 11
-164.74362600000001
 21
518.28154400000005
 31
0.0
  0
LINE
  5
257
  8
0
 62
     6
 10
-127.74357999999999
 20
515.48154099999999
 30
0.0
 11
-164.74362600000001
 21
515.48154099999999
 31
0.0
  0
LINE
  5
258
  8
0
 62
     6
 10
-127.74357999999999
 20
685.48154099999999
 30
0.0
 11
-164.74362600000001
 21
685.48154099999999
 31
0.0
  0
LINE
  5
259
  8
0
 62
     3
 10
-127.74357999999999
 20
682.68155300000001
 30
0.0
 11
-164.74362600000001
 21
682.68155300000001
 31
0.0
  0
LINE
  5
25A
  8
0
 62
     6
 10
-164.74362600000001
 20
515.48154099999999
 30
0.0
 11
-164.74362600000001
 21
528.73150999999984
 31
0.0
  0
LINE
  5
25B
  8
0
 62
     6
 10
-127.74357999999999
 20
515.48154099999999
 30
0.0
 11
-127.74357999999999
 21
516.48154099999999
 31
0.0
  0
LINE
  5
25C
  8
0
 62
     6
 10
-115.2435649999999
 20
543.98153699999989
 30
0.0
 11
-115.24357999999999
 21
556.9815329999999
 31
0.0
  0
LINE
  5
25D
  8
0
 62
     6
 10
-115.24357999999999
 20
643.98152500000003
 30
0.0
 11
-115.2435649999999
 21
656.98152500000003
 31
0.0
  0
LINE
  5
25E
  8
0
 62
     2
 10
-115.74357999999999
 20
657.48154099999999
 30
0.0
 11
-117.24357999999999
 21
657.48154099999999
 31
0.0
  0
LINE
  5
25F
  8
0
 62
     2
 10
-115.74357999999999
 20
543.48154099999988
 30
0.0
 11
-117.24357999999999
 21
543.48154099999988
 31
0.0
  0
LINE
  5
260
  8
0
 62
     2
 10
-117.24357999999999
 20
656.98154099999999
 30
0.0
 11
-117.24357999999999
 21
657.48154099999999
 31
0.0
  0
LINE
  5
261
  8
0
 62
     2
 10
-117.24357999999999
 20
556.98164699999995
 30
0.0
 11
-117.24357999999999
 21
643.98154099999999
 31
0.0
  0
LINE
  5
262
  8
0
 62
     2
 10
-117.24357999999999
 20
543.48154099999988
 30
0.0
 11
-117.24357999999999
 21
543.98161700000003
 31
0.0
  0
LINE
  5
263
  8
0
 62
     2
 10
-115.74357999999999
 20
543.48154099999988
 30
0.0
 11
-115.74357999999999
 21
543.98152500000003
 31
0.0
  0
LINE
  5
264
  8
0
 62
     2
 10
-115.74357999999999
 20
556.98152500000003
 30
0.0
 11
-115.74357999999999
 21
643.98146399999985
 31
0.0
  0
LINE
  5
265
  8
0
 62
     2
 10
-115.74357999999999
 20
656.98146399999985
 30
0.0
 11
-115.74357999999999
 21
657.48154099999999
 31
0.0
  0
LINE
  5
266
  8
0
 62
     3
 10
-115.74357999999999
 20
658.98154099999988
 30
0.0
 11
-115.74357999999999
 21
684.98154099999988
 31
0.0
  0
LINE
  5
267
  8
0
 62
     3
 10
-123.743595
 20
684.48154099999988
 30
0.0
 11
-123.743595
 21
685.98154099999999
 31
0.0
  0
LINE
  5
268
  8
0
 62
     7
 10
-116.74357999999999
 20
541.48154099999999
 30
0.0
 11
-119.2435649999999
 21
541.48154099999999
 31
0.0
  0
LINE
  5
269
  8
0
 62
     7
 10
-116.74357999999999
 20
516.48154099999999
 30
0.0
 11
-127.74357999999999
 21
516.48154099999999
 31
0.0
  0
LINE
  5
26A
  8
0
 62
     3
 10
-116.74357999999999
 20
659.48154099999988
 30
0.0
 11
-119.24357999999999
 21
659.48154099999988
 31
0.0
  0
LINE
  5
26B
  8
0
 62
     3
 10
-116.74357999999999
 20
684.48154099999988
 30
0.0
 11
-123.743595
 21
684.48154099999988
 31
0.0
  0
LINE
  5
26C
  8
0
 62
     6
 10
-115.2435649999999
 20
543.98154099999999
 30
0.0
 11
-119.2435649999999
 21
543.98154099999999
 31
0.0
  0
LINE
  5
26D
  8
0
 62
     6
 10
-115.24357999999999
 20
556.98154099999999
 30
0.0
 11
-119.2435649999999
 21
556.98154099999999
 31
0.0
  0
LINE
  5
26E
  8
0
 62
     6
 10
-115.2435649999999
 20
656.98154099999999
 30
0.0
 11
-119.24357999999999
 21
656.98154099999999
 31
0.0
  0
LINE
  5
26F
  8
0
 62
     6
 10
-115.24357999999999
 20
643.98154099999999
 30
0.0
 11
-119.24357999999999
 21
643.98154099999999
 31
0.0
  0
LINE
  5
270
  8
0
 62
     6
 10
-117.24357999999999
 20
640.48154099999999
 30
0.0
 11
-119.24357999999999
 21
640.48154099999999
 31
0.0
  0
LINE
  5
271
  8
0
 62
     6
 10
-117.24357999999999
 20
632.48154099999999
 30
0.0
 11
-119.24357999999999
 21
632.48154099999999
 31
0.0
  0
LINE
  5
272
  8
0
 62
     3
 10
-115.7435649999999
 20
684.98157100000003
 30
0.0
 11
-116.7435649999999
 21
685.98157100000003
 31
0.0
  0
LINE
  5
273
  8
0
 62
     3
 10
-116.74351899999991
 20
657.98160199999995
 30
0.0
 11
-115.74351899999991
 21
658.98160199999995
 31
0.0
  0
LINE
  5
274
  8
0
 62
     3
 10
-116.74357999999999
 20
685.98154099999999
 30
0.0
 11
-123.743595
 21
685.98154099999999
 31
0.0
  0
LINE
  5
275
  8
0
 62
     3
 10
-116.74357999999999
 20
657.98154099999999
 30
0.0
 11
-119.24357999999999
 21
657.98154099999999
 31
0.0
  0
LINE
  5
276
  8
0
 62
     3
 10
-146.24362600000001
 20
505.48154099999988
 30
0.0
 11
-151.24362600000001
 21
505.48154099999988
 31
0.0
  0
LINE
  5
277
  8
0
 62
     3
 10
-146.24362600000001
 20
485.48154999999991
 30
0.0
 11
-151.24362600000001
 21
485.48154999999991
 31
0.0
  0
LINE
  5
278
  8
0
 62
     3
 10
-151.24362600000001
 20
485.4815559999999
 30
0.0
 11
-151.24362600000001
 21
515.48154099999999
 31
0.0
  0
LINE
  5
279
  8
0
 62
     3
 10
-146.24362600000001
 20
485.48154999999991
 30
0.0
 11
-146.24362600000001
 21
515.48154099999999
 31
0.0
  0
LINE
  5
27A
  8
0
 62
     3
 10
-151.24362600000001
 20
685.48154099999999
 30
0.0
 11
-151.24362600000001
 21
715.48152500000003
 31
0.0
  0
LINE
  5
27B
  8
0
 62
     3
 10
-146.24362600000001
 20
685.48154099999999
 30
0.0
 11
-146.24362600000001
 21
715.48152500000003
 31
0.0
  0
LINE
  5
27C
  8
0
 62
     3
 10
-146.24362600000001
 20
715.48152500000003
 30
0.0
 11
-151.24362600000001
 21
715.48152500000003
 31
0.0
  0
LINE
  5
27D
  8
0
 62
     3
 10
-146.24362600000001
 20
695.48154099999999
 30
0.0
 11
-151.24362600000001
 21
695.48154099999999
 31
0.0
  0
LINE
  5
27E
  8
0
 62
     3
 10
-116.74357999999999
 20
514.98154099999999
 30
0.0
 11
-123.743595
 21
514.98154099999999
 31
0.0
  0
LINE
  5
27F
  8
0
 62
     3
 10
-116.7435649999999
 20
514.98150399999997
 30
0.0
 11
-115.7435649999999
 21
515.98150399999986
 31
0.0
  0
LINE
  5
280
  8
0
 62
     3
 10
-115.74357999999999
 20
515.98154099999999
 30
0.0
 11
-115.74357999999999
 21
541.98154099999988
 31
0.0
  0
LINE
  5
281
  8
0
 62
     3
 10
-115.74351899999991
 20
541.98147900000004
 30
0.0
 11
-116.74351899999991
 21
542.98147900000004
 31
0.0
  0
LINE
  5
282
  8
0
 62
     3
 10
-116.74357999999999
 20
542.98154099999988
 30
0.0
 11
-119.2435649999999
 21
542.98154099999988
 31
0.0
  0
LINE
  5
283
  8
0
 62
     3
 10
-123.743595
 20
514.98154099999999
 30
0.0
 11
-123.743595
 21
516.48154099999999
 31
0.0
  0
LINE
  5
284
  8
0
  6
DASHDOT
 62
     7
 10
-115.2435649999999
 20
656.98154099999999
 30
0.0
 11
-115.2435649999999
 21
706.99962199999993
 31
0.0
  0
LINE
  5
285
  8
0
  6
DASHDOT
 62
     7
 10
-115.24357999999999
 20
556.9815329999999
 30
0.0
 11
-115.24357999999999
 21
643.98154099999999
 31
0.0
  0
LINE
  5
286
  8
0
  6
DASHDOT
 62
     7
 10
-115.2435649999999
 20
491.43195999999989
 30
0.0
 11
-115.2435649999999
 21
543.98153699999989
 31
0.0
  0
LINE
  5
287
  8
0
  6
DASHDOT
 62
     7
 10
-112.24357999999999
 20
491.33573499999989
 30
0.0
 11
-112.24357999999999
 21
706.99962199999993
 31
0.0
  0
POLYLINE
  5
288
  8
0
 62
     7
 66
     1
 10
0.0
 20
0.0
 30
0.0
  0
VERTEX
  5
873
  8
0
 62
     7
 10
-101.142353
 20
706.99962199999993
 30
0.0
  0
VERTEX
  5
874
  8
0
 62
     7
 10
-117.1423529999999
 20
706.99962199999993
 30
0.0
  0
VERTEX
  5
875
  8
0
 62
     7
 10
-118.1423529999999
 20
704.99962199999993
 30
0.0
  0
VERTEX
  5
876
  8
0
 62
     7
 10
-119.1423529999999
 20
708.99962199999993
 30
0.0
  0
VERTEX
  5
877
  8
0
 62
     7
 10
-120.142353
 20
706.99962199999993
 30
0.0
  0
VERTEX
  5
878
  8
0
 62
     7
 10
-121.42172600000001
 20
706.99962199999993
 30
0.0
  0
SEQEND
  5
879
  8
0
 62
     7
  0
POLYLINE
  5
290
  8
0
 62
     7
 66
     1
 10
0.0
 20
0.0
 30
0.0
  0
VERTEX
  5
87A
  8
0
 62
     7
 10
-106.817921
 20
491.230682
 30
0.0
  0
VERTEX
  5
87B
  8
0
 62
     7
 10
-117.9411659999999
 20
491.44605300000001
 30
0.0
  0
VERTEX
  5
87C
  8
0
 62
     7
 10
-118.9796939999999
 20
489.46578599999998
 30
0.0
  0
VERTEX
  5
87D
  8
0
 62
     7
 10
-119.9020729999999
 20
493.48439500000001
 30
0.0
  0
VERTEX
  5
87E
  8
0
 62
     7
 10
-120.940601
 20
491.50412899999992
 30
0.0
  0
SEQEND
  5
87F
  8
0
 62
     7
  0
LINE
  5
297
  8
0
 62
     7
 10
-123.743595
 20
516.48154099999999
 30
0.0
 11
-127.74357999999999
 21
516.48154099999999
 31
0.0
  0
LINE
  5
298
  8
0
 62
     7
 10
-127.74357999999999
 20
516.48154099999999
 30
0.0
 11
-127.74357999999999
 21
533.48128099999985
 31
0.0
  0
LINE
  5
299
  8
0
 62
     6
 10
-127.74357999999999
 20
684.48154099999988
 30
0.0
 11
-127.74357999999999
 21
685.48154099999999
 31
0.0
  0
LINE
  5
29A
  8
0
 62
     3
 10
-127.74357999999999
 20
659.48154099999988
 30
0.0
 11
-127.74357999999999
 21
684.48154099999988
 31
0.0
  0
LINE
  5
29B
  8
0
 62
     6
 10
-123.743595
 20
684.48154099999988
 30
0.0
 11
-127.74357999999999
 21
684.48154099999988
 31
0.0
  0
LINE
  5
29C
  8
0
  6
DASHDOT
 62
     7
 10
-101.51997799999999
 20
650.48154099999988
 30
0.0
 11
-125.18471099999999
 21
650.48154099999988
 31
0.0
  0
LINE
  5
29D
  8
0
  6
DASHDOT
 62
     7
 10
-102.16913199999991
 20
550.48154099999988
 30
0.0
 11
-124.01273
 21
550.48154099999988
 31
0.0
  0
CIRCLE
  5
29E
  8
0
 62
     7
 10
-147.39403899999991
 20
690.67807400000004
 30
0.0
 40
0.2
  0
LINE
  5
29F
  8
0
  6
DASHDOT
 62
     7
 10
-138.82391699999999
 20
705.48152500000003
 30
0.0
 11
-156.53551899999999
 21
705.48152500000003
 31
0.0
  0
LINE
  5
2A0
  8
0
  6
DASHDOT
 62
     7
 10
-139.9665949999999
 20
495.48155000000003
 30
0.0
 11
-156.72596399999989
 21
495.48155000000003
 31
0.0
  0
LINE
  5
2A1
  8
0
 62
     4
 10
-294.24349799999987
 20
544.48149899999999
 30
0.0
 11
-294.24354899999997
 21
548.48152500000003
 31
0.0
  0
LINE
  5
2A2
  8
0
 62
     3
 10
-280.54484899999989
 20
537.481495
 30
0.0
 11
-280.24355000000003
 21
537.48149899999987
 31
0.0
  0
LINE
  5
2A3
  8
0
 62
     4
 10
-294.24354899999997
 20
533.48150199999986
 30
0.0
 11
-294.24349999999993
 21
537.48148700000002
 31
0.0
  0
LINE
  5
2A4
  8
0
 62
     4
 10
-162.74360999999999
 20
533.48138399999993
 30
0.0
 11
-164.74360999999999
 21
533.48150999999984
 31
0.0
  0
LINE
  5
2A5
  8
0
 62
     4
 10
-289.24354899999997
 20
533.48150199999986
 30
0.0
 11
-169.74362600000001
 21
533.48150999999984
 31
0.0
  0
LINE
  5
2A6
  8
0
 62
     4
 10
-119.24357999999999
 20
673.48152500000003
 30
0.0
 11
-162.74362600000001
 21
673.48152500000003
 31
0.0
  0
LINE
  5
2A7
  8
0
 62
     4
 10
-119.24357999999999
 20
533.48125800000003
 30
0.0
 11
-162.74360999999999
 21
533.48138399999993
 31
0.0
  0
LINE
  5
2A8
  8
0
 62
     4
 10
-119.24357999999999
 20
533.48125800000003
 30
0.0
 11
-119.2435649999999
 21
544.48147599999982
 31
0.0
  0
LINE
  5
2A9
  8
0
 62
     3
 10
-203.7435649999999
 20
641.48154099999999
 30
0.0
 11
-294.24354899999997
 21
641.48154099999999
 31
0.0
  0
LINE
  5
2AA
  8
0
 62
     3
 10
-203.7435649999999
 20
611.481495
 30
0.0
 11
-238.24358399999991
 21
611.481495
 31
0.0
  0
LINE
  5
2AB
  8
0
 62
     4
 10
-294.24349999999993
 20
537.48148700000002
 30
0.0
 11
-294.24349799999987
 21
544.48149899999999
 31
0.0
  0
LINE
  5
2AC
  8
0
 62
     4
 10
-162.74362600000001
 20
673.48152500000003
 30
0.0
 11
-294.24354899999997
 21
673.48152500000003
 31
0.0
  0
LINE
  5
2AD
  8
0
 62
     4
 10
-294.24354899999997
 20
641.48154099999999
 30
0.0
 11
-294.24354899999997
 21
673.48152500000003
 31
0.0
  0
LINE
  5
2AE
  8
0
 62
     3
 10
-191.99362600000001
 20
537.48154800000009
 30
0.0
 11
-166.74360999999999
 21
537.48159400000009
 31
0.0
  0
LINE
  5
2AF
  8
0
 62
     3
 10
-232.86856499999999
 20
537.48152500000003
 30
0.0
 11
-195.99362600000001
 21
537.48154800000009
 31
0.0
  0
LINE
  5
2B0
  8
0
 62
     3
 10
-290.24344100000002
 20
537.48148700000002
 30
0.0
 11
-236.86856299999991
 21
537.48152100000004
 31
0.0
  0
LINE
  5
2B1
  8
0
 62
     3
 10
-290.24343099999987
 20
541.98149899999987
 30
0.0
 11
-236.86856099999989
 21
541.98153300000001
 31
0.0
  0
LINE
  5
2B2
  8
0
 62
     3
 10
-232.86856099999989
 20
541.981537
 30
0.0
 11
-195.99361799999991
 21
541.98155999999994
 31
0.0
  0
LINE
  5
2B3
  8
0
 62
     3
 10
-191.993618
 20
541.98156299999994
 30
0.0
 11
-166.74360999999999
 21
541.98157900000001
 31
0.0
  0
LINE
  5
2B4
  8
0
 62
     3
 10
-290.24344100000002
 20
537.48148700000002
 30
0.0
 11
-290.24343299999992
 21
541.98149899999987
 31
0.0
  0
LINE
  5
2B5
  8
0
 62
     3
 10
-166.74360999999999
 20
537.48159400000009
 30
0.0
 11
-166.74360999999999
 21
541.98157900000001
 31
0.0
  0
LINE
  5
2B6
  8
0
 62
     3
 10
-191.99362600000001
 20
537.48154800000009
 30
0.0
 11
-191.993618
 21
541.981582
 31
0.0
  0
LINE
  5
2B7
  8
0
 62
     3
 10
-195.99362600000001
 20
537.48154800000009
 30
0.0
 11
-195.99361799999991
 21
541.98157900000001
 31
0.0
  0
LINE
  5
2B8
  8
0
 62
     3
 10
-232.86856499999999
 20
537.48152500000003
 30
0.0
 11
-232.86856099999989
 21
541.98155599999996
 31
0.0
  0
LINE
  5
2B9
  8
0
 62
     3
 10
-236.86856299999991
 20
537.48152100000004
 30
0.0
 11
-236.86855899999989
 21
541.98155599999996
 31
0.0
  0
LINE
  5
2BA
  8
0
 62
     4
 10
-262.24355099999991
 20
529.48150999999996
 30
0.0
 11
-262.24355099999991
 21
533.48150999999984
 31
0.0
  0
LINE
  5
2BB
  8
0
 62
     4
 10
-258.24355000000003
 20
529.48150999999996
 30
0.0
 11
-258.24355000000003
 21
533.48150999999984
 31
0.0
  0
LINE
  5
2BC
  8
0
 62
     4
 10
-258.24355000000003
 20
529.48150999999996
 30
0.0
 11
-262.24355099999991
 21
529.48150999999996
 31
0.0
  0
LINE
  5
2BD
  8
0
 62
     4
 10
-178.493549
 20
529.48156299999994
 30
0.0
 11
-178.493549
 21
533.481495
 31
0.0
  0
LINE
  5
2BE
  8
0
 62
     4
 10
-174.493549
 20
529.48156299999994
 30
0.0
 11
-174.493549
 21
533.481495
 31
0.0
  0
LINE
  5
2BF
  8
0
 62
     4
 10
-174.493549
 20
529.48156299999994
 30
0.0
 11
-178.493549
 21
529.48156299999994
 31
0.0
  0
LINE
  5
2C0
  8
0
 62
     4
 10
-289.24354899999997
 20
528.73150999999984
 30
0.0
 11
-289.24354899999997
 21
531.23150999999984
 31
0.0
  0
LINE
  5
2C1
  8
0
 62
     4
 10
-294.24354899999997
 20
528.73150999999984
 30
0.0
 11
-294.24354899999997
 21
533.48150199999986
 31
0.0
  0
LINE
  5
2C2
  8
0
 62
     4
 10
-289.24354899999997
 20
528.73150999999984
 30
0.0
 11
-294.24354899999997
 21
528.73150999999984
 31
0.0
  0
LINE
  5
2C3
  8
0
 62
     4
 10
-289.24354899999997
 20
531.23150999999984
 30
0.0
 11
-289.24354899999997
 21
533.48150999999984
 31
0.0
  0
LINE
  5
2C4
  8
0
 62
     4
 10
-169.74364099999991
 20
528.73150999999984
 30
0.0
 11
-169.74364099999991
 21
531.23150999999984
 31
0.0
  0
LINE
  5
2C5
  8
0
 62
     4
 10
-164.743641
 20
528.73150999999984
 30
0.0
 11
-169.74364099999991
 21
528.73150999999984
 31
0.0
  0
LINE
  5
2C6
  8
0
 62
     4
 10
-164.743641
 20
528.73150999999984
 30
0.0
 11
-164.74360999999999
 21
533.48150999999984
 31
0.0
  0
LINE
  5
2C7
  8
0
 62
     4
 10
-169.74364099999991
 20
531.23150999999984
 30
0.0
 11
-169.74362600000001
 21
533.481495
 31
0.0
  0
LINE
  5
2C8
  8
0
 62
     3
 10
-287.24355700000001
 20
652.98155599999996
 30
0.0
 11
-290.24355700000001
 21
655.98155599999996
 31
0.0
  0
LINE
  5
2C9
  8
0
 62
     4
 10
-294.24354899999997
 20
548.48152500000003
 30
0.0
 11
-294.24354899999997
 21
611.48151799999994
 31
0.0
  0
LINE
  5
2CA
  8
0
 62
     3
 10
-238.24358699999999
 20
611.48150999999984
 30
0.0
 11
-294.24354899999997
 21
611.48151799999994
 31
0.0
  0
LINE
  5
2CB
  8
0
 62
     3
 10
-203.7435649999999
 20
611.481495
 30
0.0
 11
-203.7435649999999
 21
641.48154099999999
 31
0.0
  0
LINE
  5
2CC
  8
0
 62
     3
 10
-278.74355000000003
 20
640.98154099999999
 30
0.0
 11
-278.74355000000003
 21
641.48154099999999
 31
0.0
  0
LINE
  5
2CD
  8
0
 62
     3
 10
-191.99362600000001
 20
660.23152500000003
 30
0.0
 11
-166.74360999999999
 21
660.23154099999999
 31
0.0
  0
LINE
  5
2CE
  8
0
 62
     3
 10
-191.99362600000001
 20
652.98152500000003
 30
0.0
 11
-191.99362600000001
 21
660.23152500000003
 31
0.0
  0
LINE
  5
2CF
  8
0
 62
     3
 10
-191.99362600000001
 20
652.98152500000003
 30
0.0
 11
-166.74360999999999
 21
652.98154099999999
 31
0.0
  0
LINE
  5
2D0
  8
0
 62
     3
 10
-166.74360999999999
 20
652.98154099999999
 30
0.0
 11
-166.74360999999999
 21
660.23154099999999
 31
0.0
  0
LINE
  5
2D1
  8
0
 62
     3
 10
-236.86856299999991
 20
652.98154099999999
 30
0.0
 11
-236.86856299999991
 21
660.23154099999999
 31
0.0
  0
LINE
  5
2D2
  8
0
 62
     3
 10
-195.99362600000001
 20
652.98154099999999
 30
0.0
 11
-236.8685649999999
 21
652.98154099999999
 31
0.0
  0
LINE
  5
2D3
  8
0
 62
     3
 10
-195.99362600000001
 20
652.98154099999999
 30
0.0
 11
-195.99362600000001
 21
660.23154099999999
 31
0.0
  0
LINE
  5
2D4
  8
0
 62
     3
 10
-195.99362600000001
 20
660.23154099999999
 30
0.0
 11
-236.8685649999999
 21
660.23154099999999
 31
0.0
  0
LINE
  5
2D5
  8
0
 62
     3
 10
-240.86856299999991
 20
652.98154099999999
 30
0.0
 11
-290.24354699999998
 21
652.98154099999999
 31
0.0
  0
LINE
  5
2D6
  8
0
 62
     3
 10
-240.86856299999991
 20
652.98154099999999
 30
0.0
 11
-240.86856299999991
 21
660.23154099999999
 31
0.0
  0
LINE
  5
2D7
  8
0
 62
     3
 10
-240.86856299999991
 20
660.23154099999999
 30
0.0
 11
-290.24354699999998
 21
660.23154099999999
 31
0.0
  0
LINE
  5
2D8
  8
0
 62
     3
 10
-290.24354899999997
 20
652.98154099999999
 30
0.0
 11
-290.24354899999997
 21
660.23154099999999
 31
0.0
  0
LINE
  5
2D9
  8
0
 62
     3
 10
-280.24355000000003
 20
537.48149899999987
 30
0.0
 11
-280.24355000000003
 21
541.98152100000004
 31
0.0
  0
LINE
  5
2DA
  8
0
 62
     3
 10
-276.24354699999998
 20
537.48149899999987
 30
0.0
 11
-276.24354699999998
 21
541.98152500000003
 31
0.0
  0
LINE
  5
2DB
  8
0
 62
     3
 10
-290.24315799999999
 20
537.48145999999986
 30
0.0
 11
-290.243156
 21
541.98149899999987
 31
0.0
  0
LINE
  5
2DC
  8
0
 62
     4
 10
-294.24354899999997
 20
533.481449
 30
0.0
 11
-294.24354599999998
 21
534.48152100000004
 31
0.0
  0
LINE
  5
2DD
  8
0
 62
     4
 10
-162.743618
 20
533.48138399999993
 30
0.0
 11
-164.74360999999999
 21
533.48141499999997
 31
0.0
  0
LINE
  5
2DE
  8
0
 62
     4
 10
-119.2435649999999
 20
544.48147599999982
 30
0.0
 11
-119.24357999999999
 21
673.48152500000003
 31
0.0
  0
LINE
  5
2DF
  8
0
 62
     3
 10
-191.94156299999989
 20
537.48152899999991
 30
0.0
 11
-191.94156299999989
 21
541.98156299999994
 31
0.0
  0
LINE
  5
2E0
  8
0
 62
     3
 10
-195.9948389999999
 20
537.48148300000003
 30
0.0
 11
-195.9948389999999
 21
541.98155999999994
 31
0.0
  0
LINE
  5
2E1
  8
0
 62
     3
 10
-218.243549
 20
640.98154099999999
 30
0.0
 11
-294.24354899999997
 21
640.98154099999999
 31
0.0
  0
LINE
  5
2E2
  8
0
 62
     3
 10
-218.243549
 20
611.481495
 30
0.0
 11
-218.243549
 21
640.98154099999999
 31
0.0
  0
LINE
  5
2E3
  8
0
 62
     7
 10
-294.24354899999997
 20
611.48151799999994
 30
0.0
 11
-294.24354899999997
 21
640.98154099999999
 31
0.0
  0
LINE
  5
2E4
  8
0
 62
     3
 10
-287.24343099999999
 20
537.48151399999995
 30
0.0
 11
-287.24343299999992
 21
541.98151799999994
 31
0.0
  0
LINE
  5
2E5
  8
0
 62
     3
 10
-166.74360999999999
 20
654.48154099999988
 30
0.0
 11
-191.99360999999999
 21
654.48154099999988
 31
0.0
  0
LINE
  5
2E6
  8
0
 62
     3
 10
-195.99361799999991
 20
654.48154099999988
 30
0.0
 11
-236.86855299999999
 21
654.48154099999988
 31
0.0
  0
LINE
  5
2E7
  8
0
 62
     3
 10
-240.86855299999999
 20
654.48154099999988
 30
0.0
 11
-287.24354899999997
 21
654.48154099999988
 31
0.0
  0
LINE
  5
2E8
  8
0
 62
     3
 10
-287.99354599999998
 20
653.73155599999996
 30
0.0
 11
-287.24354599999992
 21
654.48155599999996
 31
0.0
  0
LINE
  5
2E9
  8
0
 62
     3
 10
-287.24354899999997
 20
654.48154099999988
 30
0.0
 11
-287.24354899999997
 21
660.23154099999999
 31
0.0
  0
LINE
  5
2EA
  8
0
 62
     6
 10
-164.74362600000001
 20
673.48152500000003
 30
0.0
 11
-164.74362600000001
 21
685.48154099999999
 31
0.0
  0
LINE
  5
2EB
  8
0
 62
     7
 10
-166.74362600000001
 20
673.48152500000003
 30
0.0
 11
-166.74362600000001
 21
687.98154099999988
 31
0.0
  0
LINE
  5
2EC
  8
0
 62
     3
 10
-238.74362599999989
 20
673.48152500000003
 30
0.0
 11
-238.74362599999989
 21
685.48154099999999
 31
0.0
  0
LINE
  5
2ED
  8
0
 62
   150
 10
-310.74355700000001
 20
546.22672999999986
 30
0.0
 11
-310.74355700000001
 21
638.73158599999999
 31
0.0
  0
LINE
  5
2EE
  8
0
 62
   150
 10
-310.74355700000001
 20
648.73158599999988
 30
0.0
 11
-310.74355700000001
 21
650.23578200000009
 31
0.0
  0
LINE
  5
2EF
  8
0
 62
   150
 10
-310.74385099999989
 20
546.23098400000003
 30
0.0
 11
-310.74356499999988
 21
546.23303199999987
 31
0.0
  0
CIRCLE
  5
2F0
  8
0
 62
     4
 10
-139.74360999999999
 20
650.48154099999988
 30
0.0
 40
5.9999960000000003
  0
CIRCLE
  5
2F1
  8
0
 62
     4
 10
-139.74363299999999
 20
650.48150999999996
 30
0.0
 40
3.2500040000000001
  0
CIRCLE
  5
2F2
  8
0
 62
     4
 10
-139.74360999999999
 20
550.48151399999995
 30
0.0
 40
6.0000099999999987
  0
CIRCLE
  5
2F3
  8
0
 62
     4
 10
-139.74360300000001
 20
550.48152500000003
 30
0.0
 40
3.2500009999999988
  0
CIRCLE
  5
2F4
  8
0
 62
     4
 10
-282.24363799999992
 20
596.48145699999986
 30
0.0
 40
10.00001799999999
  0
CIRCLE
  5
2F5
  8
0
 62
     4
 10
-282.243629
 20
596.48147900000004
 30
0.0
 40
2.749997
  0
LINE
  5
2F6
  8
0
  6
DASHDOT
 62
     7
 10
-282.24363799999992
 20
583.4814409999999
 30
0.0
 11
-282.24363799999992
 21
609.48147900000004
 31
0.0
  0
LINE
  5
2F7
  8
0
  6
DASHDOT
 62
     7
 10
-269.24362000000002
 20
596.48145699999986
 30
0.0
 11
-295.24365599999987
 21
596.48145699999986
 31
0.0
  0
LINE
  5
2F8
  8
0
  6
DASHDOT
 62
     7
 10
-139.74360999999999
 20
641.48154099999999
 30
0.0
 11
-139.74360999999999
 21
659.48154099999988
 31
0.0
  0
LINE
  5
2F9
  8
0
  6
DASHDOT
 62
     7
 10
-130.74360999999999
 20
650.48154099999988
 30
0.0
 11
-148.74360999999999
 21
650.48154099999988
 31
0.0
  0
LINE
  5
2FA
  8
0
  6
DASHDOT
 62
     7
 10
-139.74360999999999
 20
541.48150199999986
 30
0.0
 11
-139.74360999999999
 21
559.48152500000003
 31
0.0
  0
LINE
  5
2FB
  8
0
  6
DASHDOT
 62
     7
 10
-130.743595
 20
550.48151399999995
 30
0.0
 11
-148.74361799999991
 21
550.48151399999995
 31
0.0
  0
LINE
  5
2FC
  8
0
 62
     3
 10
-297.243561
 20
564.48160899999993
 30
0.0
 11
-297.243561
 21
577.48141099999998
 31
0.0
  0
LINE
  5
2FD
  8
0
 62
     1
 10
-307.24356099999989
 20
517.73140699999999
 30
0.0
 11
-307.24356099999989
 21
678.731403
 31
0.0
  0
LINE
  5
2FE
  8
0
 62
     1
 10
-307.24356099999989
 20
517.73140699999999
 30
0.0
 11
-310.743561
 21
517.73140699999999
 31
0.0
  0
LINE
  5
2FF
  8
0
 62
     1
 10
-310.743561
 20
517.73140699999999
 30
0.0
 11
-310.743561
 21
562.48141099999987
 31
0.0
  0
LINE
  5
300
  8
0
 62
     1
 10
-310.743561
 20
579.48141099999987
 30
0.0
 11
-310.743561
 21
678.731403
 31
0.0
  0
LINE
  5
301
  8
0
 62
     1
 10
-307.24356099999989
 20
678.731403
 30
0.0
 11
-310.743561
 21
678.731403
 31
0.0
  0
LINE
  5
302
  8
0
 62
     1
 10
-305.24356099999989
 20
601.23141099999998
 30
0.0
 11
-305.24356099999989
 21
660.231403
 31
0.0
  0
LINE
  5
303
  8
0
 62
     1
 10
-305.24356099999989
 20
577.48141799999985
 30
0.0
 11
-305.24356099999989
 21
595.23141799999996
 31
0.0
  0
LINE
  5
304
  8
0
 62
     1
 10
-305.24356099999989
 20
536.23140699999999
 30
0.0
 11
-305.24356099999989
 21
564.48141799999996
 31
0.0
  0
LINE
  5
305
  8
0
 62
     3
 10
-300.74356099999989
 20
524.8087579999999
 30
0.0
 11
-300.74356099999989
 21
529.65405599999985
 31
0.0
  0
LINE
  5
306
  8
0
 62
     3
 10
-300.74356099999989
 20
666.80875000000003
 30
0.0
 11
-300.74356099999989
 21
671.65405599999985
 31
0.0
  0
LINE
  5
307
  8
0
 62
     3
 10
-300.74356099999989
 20
595.8087579999999
 30
0.0
 11
-300.74356099999989
 21
600.65405599999985
 31
0.0
  0
LINE
  5
308
  8
0
 62
     3
 10
-309.743561
 20
562.48141099999987
 30
0.0
 11
-310.743561
 21
562.48141099999987
 31
0.0
  0
LINE
  5
309
  8
0
 62
     3
 10
-309.743561
 20
562.48141099999987
 30
0.0
 11
-309.743561
 21
579.48141099999987
 31
0.0
  0
LINE
  5
30A
  8
0
 62
     3
 10
-309.743561
 20
579.48141099999987
 30
0.0
 11
-310.743561
 21
579.48141099999987
 31
0.0
  0
LINE
  5
30B
  8
0
 62
     3
 10
-309.743561
 20
559.48141099999987
 30
0.0
 11
-309.743561
 21
562.48141099999987
 31
0.0
  0
LINE
  5
30C
  8
0
 62
     3
 10
-309.743561
 20
579.48141099999987
 30
0.0
 11
-309.743561
 21
582.48141099999998
 31
0.0
  0
LINE
  5
30D
  8
0
 62
     3
 10
-308.74356099999989
 20
559.48141099999987
 30
0.0
 11
-309.743561
 21
559.48141099999987
 31
0.0
  0
LINE
  5
30E
  8
0
 62
     3
 10
-308.74356099999989
 20
559.48141099999987
 30
0.0
 11
-308.74356099999989
 21
582.48141099999998
 31
0.0
  0
LINE
  5
30F
  8
0
 62
     3
 10
-308.74356099999989
 20
582.48141099999998
 30
0.0
 11
-309.743561
 21
582.48141099999998
 31
0.0
  0
LINE
  5
310
  8
0
 62
     3
 10
-297.243561
 20
564.48160899999993
 30
0.0
 11
-307.24356099999989
 21
564.48160899999993
 31
0.0
  0
LINE
  5
311
  8
0
 62
     3
 10
-297.243561
 20
577.48141099999998
 30
0.0
 11
-307.24356099999989
 21
577.48141099999998
 31
0.0
  0
LINE
  5
312
  8
0
 62
     1
 10
-310.743561
 20
562.48141099999987
 30
0.0
 11
-310.743561
 21
579.48141099999987
 31
0.0
  0
LINE
  5
313
  8
0
 62
     3
 10
-301.743561
 20
524.23140699999988
 30
0.0
 11
-307.24356099999989
 21
524.23140699999988
 31
0.0
  0
LINE
  5
314
  8
0
 62
     3
 10
-301.743561
 20
530.23140699999999
 30
0.0
 11
-307.24356099999989
 21
530.23140699999999
 31
0.0
  0
LINE
  5
315
  8
0
 62
     1
 10
-301.743561
 20
530.00304400000005
 30
0.0
 11
-301.743561
 21
530.23140699999999
 31
0.0
  0
LINE
  5
316
  8
0
 62
     3
 10
-301.743561
 20
529.35272599999985
 30
0.0
 11
-301.743561
 21
530.00304400000005
 31
0.0
  0
LINE
  5
317
  8
0
 62
     3
 10
-301.743561
 20
528.379459
 30
0.0
 11
-301.743561
 21
529.35272599999985
 31
0.0
  0
LINE
  5
318
  8
0
 62
     3
 10
-301.743561
 20
527.23140699999999
 30
0.0
 11
-301.743561
 21
528.379459
 31
0.0
  0
LINE
  5
319
  8
0
 62
     3
 10
-301.743561
 20
526.08335899999986
 30
0.0
 11
-301.743561
 21
527.23140699999999
 31
0.0
  0
LINE
  5
31A
  8
0
 62
     3
 10
-301.743561
 20
525.11008800000002
 30
0.0
 11
-301.743561
 21
526.08335899999986
 31
0.0
  0
LINE
  5
31B
  8
0
 62
     3
 10
-301.743561
 20
524.45977000000005
 30
0.0
 11
-301.743561
 21
525.11008800000002
 31
0.0
  0
LINE
  5
31C
  8
0
 62
     3
 10
-301.743561
 20
524.23140699999988
 30
0.0
 11
-301.743561
 21
524.45977000000005
 31
0.0
  0
LINE
  5
31D
  8
0
 62
     3
 10
-301.743561
 20
524.23140699999988
 30
0.0
 11
-300.74356099999989
 21
524.8087579999999
 31
0.0
  0
LINE
  5
31E
  8
0
 62
     3
 10
-300.74355700000001
 20
529.65405599999985
 30
0.0
 11
-301.7435569999999
 21
530.23140699999999
 31
0.0
  0
LINE
  5
31F
  8
0
 62
     3
 10
-301.743561
 20
666.231403
 30
0.0
 11
-307.24356099999989
 21
666.231403
 31
0.0
  0
LINE
  5
320
  8
0
 62
     3
 10
-301.743561
 20
672.23140299999989
 30
0.0
 11
-307.24356099999989
 21
672.23140299999989
 31
0.0
  0
LINE
  5
321
  8
0
 62
     3
 10
-301.743561
 20
672.00304000000006
 30
0.0
 11
-301.743561
 21
672.23140299999989
 31
0.0
  0
LINE
  5
322
  8
0
 62
     3
 10
-301.743561
 20
671.35272599999985
 30
0.0
 11
-301.743561
 21
672.00304000000006
 31
0.0
  0
LINE
  5
323
  8
0
 62
     3
 10
-301.743561
 20
670.379459
 30
0.0
 11
-301.743561
 21
671.35272599999985
 31
0.0
  0
LINE
  5
324
  8
0
 62
     3
 10
-301.743561
 20
669.231403
 30
0.0
 11
-301.743561
 21
670.379459
 31
0.0
  0
LINE
  5
325
  8
0
 62
     3
 10
-301.743561
 20
668.08336199999985
 30
0.0
 11
-301.743561
 21
669.231403
 31
0.0
  0
LINE
  5
326
  8
0
 62
     3
 10
-301.743561
 20
667.11008099999992
 30
0.0
 11
-301.743561
 21
668.08336199999985
 31
0.0
  0
LINE
  5
327
  8
0
 62
     3
 10
-301.743561
 20
666.45976599999995
 30
0.0
 11
-301.743561
 21
667.11008099999992
 31
0.0
  0
LINE
  5
328
  8
0
 62
     3
 10
-301.743561
 20
666.231403
 30
0.0
 11
-301.743561
 21
666.45976599999995
 31
0.0
  0
LINE
  5
329
  8
0
 62
     3
 10
-301.743561
 20
666.231403
 30
0.0
 11
-300.74356099999989
 21
666.80875000000003
 31
0.0
  0
LINE
  5
32A
  8
0
 62
     3
 10
-300.74356099999989
 20
671.65405599999985
 30
0.0
 11
-301.743561
 21
672.23140299999989
 31
0.0
  0
LINE
  5
32B
  8
0
 62
     3
 10
-301.743561
 20
595.23141099999987
 30
0.0
 11
-307.24356099999989
 21
595.23141099999987
 31
0.0
  0
LINE
  5
32C
  8
0
 62
     3
 10
-301.743561
 20
601.23141099999998
 30
0.0
 11
-307.24356099999989
 21
601.23141099999998
 31
0.0
  0
LINE
  5
32D
  8
0
 62
     3
 10
-301.743561
 20
601.00304800000004
 30
0.0
 11
-301.743561
 21
601.23141099999998
 31
0.0
  0
LINE
  5
32E
  8
0
 62
     3
 10
-301.743561
 20
600.35272599999985
 30
0.0
 11
-301.743561
 21
601.00304800000004
 31
0.0
  0
LINE
  5
32F
  8
0
 62
     3
 10
-301.743561
 20
599.379459
 30
0.0
 11
-301.743561
 21
600.35272599999985
 31
0.0
  0
LINE
  5
330
  8
0
 62
     3
 10
-301.743561
 20
598.23141099999987
 30
0.0
 11
-301.743561
 21
599.379459
 31
0.0
  0
LINE
  5
331
  8
0
 62
     3
 10
-301.743561
 20
597.08335499999998
 30
0.0
 11
-301.743561
 21
598.23141099999987
 31
0.0
  0
LINE
  5
332
  8
0
 62
     3
 10
-301.743561
 20
596.11008800000002
 30
0.0
 11
-301.743561
 21
597.08335499999998
 31
0.0
  0
LINE
  5
333
  8
0
 62
     3
 10
-301.743561
 20
595.45976600000006
 30
0.0
 11
-301.743561
 21
596.11008800000002
 31
0.0
  0
LINE
  5
334
  8
0
 62
     3
 10
-301.743561
 20
595.23141099999987
 30
0.0
 11
-301.743561
 21
595.45976600000006
 31
0.0
  0
LINE
  5
335
  8
0
 62
     3
 10
-301.743561
 20
595.23141099999987
 30
0.0
 11
-300.74356099999989
 21
595.8087579999999
 31
0.0
  0
LINE
  5
336
  8
0
 62
     3
 10
-300.74356099999989
 20
600.65405599999985
 30
0.0
 11
-301.743561
 21
601.23141099999998
 31
0.0
  0
LINE
  5
337
  8
0
 62
     7
 10
-307.24356099999989
 20
678.731403
 30
0.0
 11
-307.24356099999989
 21
733.31770700000004
 31
0.0
  0
LINE
  5
338
  8
0
 62
     7
 10
-305.24356099999989
 20
660.231403
 30
0.0
 11
-305.24356099999989
 21
666.231403
 31
0.0
  0
LINE
  5
339
  8
0
 62
     7
 10
-307.24356099999989
 20
450.88434999999998
 30
0.0
 11
-307.24356099999989
 21
517.73140699999999
 31
0.0
  0
LINE
  5
33A
  8
0
 62
     7
 10
-305.24356099999989
 20
451.47055399999999
 30
0.0
 11
-305.24356099999989
 21
524.23140699999988
 31
0.0
  0
POLYLINE
  5
33B
  8
0
 62
     3
 66
     1
 10
0.0
 20
0.0
 30
0.0
  0
VERTEX
  5
880
  8
0
 62
     3
 10
-314.08768099999998
 20
448.87831499999999
 30
0.0
  0
VERTEX
  5
881
  8
0
 62
     3
 10
-301.69407299999989
 20
452.51092499999987
 30
0.0
  0
VERTEX
  5
882
  8
0
 62
     3
 10
-301.296986
 20
454.71145200000001
 30
0.0
  0
VERTEX
  5
883
  8
0
 62
     3
 10
-299.21227599999992
 20
451.15420899999992
 30
0.0
  0
VERTEX
  5
884
  8
0
 62
     3
 10
-298.81518699999998
 20
453.354736
 30
0.0
  0
SEQEND
  5
885
  8
0
 62
     3
  0
POLYLINE
  5
342
  8
0
 62
     3
 66
     1
 10
0.0
 20
0.0
 30
0.0
  0
VERTEX
  5
886
  8
0
 62
     3
 10
-313.56104299999998
 20
732.20938499999988
 30
0.0
  0
VERTEX
  5
887
  8
0
 62
     3
 10
-301.50674099999998
 20
734.32417699999985
 30
0.0
  0
VERTEX
  5
888
  8
0
 62
     3
 10
-300.86738199999991
 20
736.46689200000003
 30
0.0
  0
VERTEX
  5
889
  8
0
 62
     3
 10
-299.19122700000003
 20
732.69986299999994
 30
0.0
  0
VERTEX
  5
88A
  8
0
 62
     3
 10
-298.55186800000001
 20
734.842579
 30
0.0
  0
SEQEND
  5
88B
  8
0
 62
     3
  0
LINE
  5
349
  8
0
 62
     7
 10
-305.24356099999989
 20
672.731403
 30
0.0
 11
-307.24356099999989
 21
672.731403
 31
0.0
  0
LINE
  5
34A
  8
0
 62
     7
 10
-305.24356099999989
 20
665.731403
 30
0.0
 11
-307.24356099999989
 21
665.731403
 31
0.0
  0
LINE
  5
34B
  8
0
 62
     7
 10
-305.24356099999989
 20
577.98141099999998
 30
0.0
 11
-307.24356099999989
 21
577.98141099999998
 31
0.0
  0
LINE
  5
34C
  8
0
 62
     7
 10
-305.24356099999989
 20
594.73141099999987
 30
0.0
 11
-307.24356099999989
 21
594.73141099999987
 31
0.0
  0
LINE
  5
34D
  8
0
 62
     7
 10
-305.24356099999989
 20
601.73141099999998
 30
0.0
 11
-307.24356099999989
 21
601.73141099999998
 31
0.0
  0
LINE
  5
34E
  8
0
 62
     7
 10
-305.24356099999989
 20
563.98160899999993
 30
0.0
 11
-307.24356099999989
 21
563.98160899999993
 31
0.0
  0
LINE
  5
34F
  8
0
 62
     7
 10
-305.24356099999989
 20
672.23140299999989
 30
0.0
 11
-305.24356099999989
 21
733.66858300000001
 31
0.0
  0
LINE
  5
350
  8
0
 62
     7
 10
-305.24356099999989
 20
530.23140699999999
 30
0.0
 11
-305.24356099999989
 21
536.23140699999999
 31
0.0
  0
LINE
  5
351
  8
0
 62
     7
 10
-305.24356099999989
 20
530.73140699999999
 30
0.0
 11
-307.24356099999989
 21
530.73140699999999
 31
0.0
  0
LINE
  5
352
  8
0
 62
     7
 10
-305.24356099999989
 20
523.73140699999999
 30
0.0
 11
-307.24356099999989
 21
523.73140699999999
 31
0.0
  0
CIRCLE
  5
353
  8
0
 62
     7
 10
-134.4372139999999
 20
677.99564000000009
 30
0.0
 40
0.25
  0
CIRCLE
  5
354
  8
0
 62
     7
 10
-253.44790499999991
 20
678.56918700000006
 30
0.0
 40
0.25
  0
LINE
  5
355
  8
0
 62
     7
 10
-166.74362600000001
 20
687.98154099999988
 30
0.0
 11
-265.24362599999989
 21
687.98154099999988
 31
0.0
  0
LINE
  5
356
  8
0
 62
     7
 10
-266.24362599999989
 20
673.48152500000003
 30
0.0
 11
-266.24362599999989
 21
686.98154099999999
 31
0.0
  0
LINE
  5
357
  8
0
 62
     7
 10
-266.24362599999989
 20
513.98155599999996
 30
0.0
 11
-266.24362599999989
 21
533.48150199999986
 31
0.0
  0
LINE
  5
358
  8
0
 62
     7
 10
-166.74362600000001
 20
512.98155599999996
 30
0.0
 11
-265.24362599999989
 21
512.98155599999996
 31
0.0
  0
ARC
  5
359
  8
0
 62
     7
 10
-265.24362599999989
 20
513.98155599999996
 30
0.0
 40
1.0
 50
180.00000299999991
 51
270.00000499999987
  0
ARC
  5
35A
  8
0
 62
     7
 10
-265.24362599999989
 20
686.98154099999999
 30
0.0
 40
1.0
 50
90.0
 51
180.00000299999991
  0
LINE
  5
35B
  8
0
 62
     7
 10
-294.24354899999997
 20
650.73154099999999
 30
0.0
 11
-305.24356099999989
 21
650.73154099999999
 31
0.0
  0
LINE
  5
35C
  8
0
 62
     7
 10
-294.24354899999997
 20
545.73154099999988
 30
0.0
 11
-305.24356099999989
 21
545.73154099999988
 31
0.0
  0
LINE
  5
35D
  8
0
  6
DASHDOT
 62
     7
 10
-102.08061600000001
 20
598.23154099999988
 30
0.0
 11
-317.70962900000001
 21
598.23154099999988
 31
0.0
  0
LINE
  5
35E
  8
0
 62
     7
 10
-295.74356299999988
 20
652.23154099999999
 30
0.0
 11
-298.24356799999998
 21
652.23154099999999
 31
0.0
  0
LINE
  5
35F
  8
0
 62
     7
 10
-295.74356299999988
 20
652.23154099999999
 30
0.0
 11
-295.74356299999988
 21
662.73154099999999
 31
0.0
  0
LINE
  5
360
  8
0
 62
     7
 10
-299.24356799999998
 20
666.23154099999988
 30
0.0
 11
-301.74356799999998
 21
666.23154099999988
 31
0.0
  0
LINE
  5
361
  8
0
 62
     7
 10
-302.74356799999998
 20
672.23140299999989
 30
0.0
 11
-302.74356799999998
 21
675.23154099999999
 31
0.0
  0
LINE
  5
362
  8
0
 62
     7
 10
-302.74356799999998
 20
675.23154099999999
 30
0.0
 11
-305.24356099999989
 21
675.23154099999999
 31
0.0
  0
LINE
  5
363
  8
0
 62
     7
 10
-299.24356799999998
 20
663.73154099999999
 30
0.0
 11
-301.74356799999998
 21
663.73154099999999
 31
0.0
  0
LINE
  5
364
  8
0
 62
     7
 10
-298.24356799999998
 20
652.23154099999999
 30
0.0
 11
-298.24356799999998
 21
662.73154099999999
 31
0.0
  0
ARC
  5
365
  8
0
 62
     7
 10
-299.243584
 20
662.73152500000003
 30
0.0
 40
3.500017999999999
 50
0.000329
 51
89.999818999999988
  0
ARC
  5
366
  8
0
 62
     7
 10
-299.24352499999992
 20
662.73158599999999
 30
0.0
 40
0.9999499999999999
 50
359.99882599999989
 51
90.002235999999996
  0
ARC
  5
367
  8
0
 62
     7
 10
-301.74358699999988
 20
667.23150999999984
 30
0.0
 40
3.4999709999999991
 50
196.60348899999991
 51
270.00034699999998
  0
LINE
  5
368
  8
0
 62
     7
 10
-295.74356299999988
 20
661.23154099999988
 30
0.0
 11
-298.24356799999998
 21
661.23154099999988
 31
0.0
  0
LINE
  5
369
  8
0
 62
     7
 10
-301.743561
 20
650.73154099999999
 30
0.0
 11
-301.743561
 21
657.73154099999988
 31
0.0
  0
LINE
  5
36A
  8
0
 62
     7
 10
-299.743561
 20
650.73154099999999
 30
0.0
 11
-299.743561
 21
657.73154099999988
 31
0.0
  0
LINE
  5
36B
  8
0
 62
     7
 10
-299.743561
 20
657.73154099999988
 30
0.0
 11
-301.743561
 21
657.73154099999988
 31
0.0
  0
LINE
  5
36C
  8
0
  6
DASHSPACE
 62
     7
 10
-338.24356499999999
 20
545.73154099999988
 30
0.0
 11
-338.24356499999999
 21
650.73154099999999
 31
0.0
  0
LINE
  5
36D
  8
0
  6
DASHSPACE
 62
     7
 10
-320.81129800000002
 20
650.73154099999999
 30
0.0
 11
-338.24356499999999
 21
650.73154099999999
 31
0.0
  0
LINE
  5
36E
  8
0
  6
DASHSPACE
 62
     7
 10
-322.419197
 20
545.73154099999988
 30
0.0
 11
-338.24356499999999
 21
545.73154099999988
 31
0.0
  0
LINE
  5
36F
  8
0
 62
     7
 10
-109.043583
 20
646.58154699999989
 30
0.0
 11
-109.043583
 21
654.38153399999999
 31
0.0
  0
LINE
  5
370
  8
0
 62
     7
 10
-105.843586
 20
648.48154099999999
 30
0.0
 11
-105.843586
 21
652.48154099999999
 31
0.0
  0
LINE
  5
371
  8
0
 62
     7
 10
-109.043583
 20
654.38153399999999
 30
0.0
 11
-112.24357999999999
 21
654.38153399999999
 31
0.0
  0
LINE
  5
372
  8
0
 62
     7
 10
-109.043583
 20
646.58154699999989
 30
0.0
 11
-112.24357999999999
 21
646.58154699999989
 31
0.0
  0
LINE
  5
373
  8
0
 62
     7
 10
-105.843586
 20
652.48154099999999
 30
0.0
 11
-112.24357999999999
 21
652.48154099999999
 31
0.0
  0
LINE
  5
374
  8
0
 62
     7
 10
-105.843586
 20
648.48154099999999
 30
0.0
 11
-112.24357999999999
 21
648.48154099999999
 31
0.0
  0
LINE
  5
375
  8
0
 62
     7
 10
-109.043583
 20
554.38154199999985
 30
0.0
 11
-112.24357999999999
 21
554.38154199999985
 31
0.0
  0
LINE
  5
376
  8
0
 62
     7
 10
-105.843586
 20
552.48154099999999
 30
0.0
 11
-112.24357999999999
 21
552.48154099999999
 31
0.0
  0
LINE
  5
377
  8
0
 62
     7
 10
-105.843586
 20
548.48154099999999
 30
0.0
 11
-112.24357999999999
 21
548.48154099999999
 31
0.0
  0
LINE
  5
378
  8
0
 62
     7
 10
-109.043583
 20
546.58153900000002
 30
0.0
 11
-112.24357999999999
 21
546.58153900000002
 31
0.0
  0
LINE
  5
379
  8
0
 62
     7
 10
-109.043583
 20
546.58153900000002
 30
0.0
 11
-109.043583
 21
554.38154199999985
 31
0.0
  0
LINE
  5
37A
  8
0
 62
     7
 10
-105.843586
 20
548.48154099999999
 30
0.0
 11
-105.843586
 21
552.48154099999999
 31
0.0
  0
LINE
  5
37B
  8
0
 62
     7
 10
-115.2435649999999
 20
468.62722799999989
 30
0.0
 11
-121.1524389999999
 21
469.66911700000003
 31
0.0
  0
LINE
  5
37C
  8
0
 62
     7
 10
-115.2435649999999
 20
468.62722799999989
 30
0.0
 11
-121.1524389999999
 21
467.58533799999992
 31
0.0
  0
LINE
  5
37D
  8
0
 62
     7
 10
-282.24362599999989
 20
468.62722000000002
 30
0.0
 11
-276.33481199999989
 21
467.58533299999988
 31
0.0
  0
LINE
  5
37E
  8
0
 62
     7
 10
-282.24362599999989
 20
468.62722000000002
 30
0.0
 11
-276.33481199999989
 21
469.66910899999988
 31
0.0
  0
LINE
  5
37F
  8
0
 62
     7
 10
-115.2435649999999
 20
468.62722799999989
 30
0.0
 11
-282.24362599999989
 21
468.62722000000002
 31
0.0
  0
LINE
  5
380
  8
0
 62
     7
 10
-115.2435649999999
 20
464.62722999999988
 30
0.0
 11
-115.2435649999999
 21
491.431961
 31
0.0
  0
LINE
  5
381
  8
0
 62
     7
 10
-282.24362599999989
 20
464.6272219999999
 30
0.0
 11
-282.24362599999989
 21
583.4814409999999
 31
0.0
  0
LINE
  5
382
  8
0
 62
     7
 10
-115.2435649999999
 20
445.71848699999998
 30
0.0
 11
-121.1524389999999
 21
446.76037599999989
 31
0.0
  0
LINE
  5
383
  8
0
 62
     7
 10
-115.2435649999999
 20
445.71848699999998
 30
0.0
 11
-121.1524389999999
 21
444.6765969999999
 31
0.0
  0
LINE
  5
384
  8
0
 62
     7
 10
-305.24356499999999
 20
445.71847500000001
 30
0.0
 11
-299.33468999999991
 21
444.67658999999998
 31
0.0
  0
LINE
  5
385
  8
0
 62
     7
 10
-305.24356499999999
 20
445.71847500000001
 30
0.0
 11
-299.33468999999991
 21
446.76036799999991
 31
0.0
  0
LINE
  5
386
  8
0
 62
     7
 10
-307.24356499999999
 20
445.71847500000001
 30
0.0
 11
-313.152378
 21
446.76036399999998
 31
0.0
  0
LINE
  5
387
  8
0
 62
     7
 10
-307.24356499999999
 20
445.71847500000001
 30
0.0
 11
-313.152378
 21
444.67658599999999
 31
0.0
  0
LINE
  5
388
  8
0
 62
     7
 10
-115.2435649999999
 20
445.71848699999998
 30
0.0
 11
-307.24356499999999
 21
445.71847500000001
 31
0.0
  0
LINE
  5
389
  8
0
 62
     7
 10
-115.2435649999999
 20
441.71848699999998
 30
0.0
 11
-115.2435649999999
 21
491.4319569999999
 31
0.0
  0
LINE
  5
38A
  8
0
 62
     7
 10
-305.24356499999999
 20
441.71847500000001
 30
0.0
 11
-305.24356499999999
 21
451.47054299999991
 31
0.0
  0
LINE
  5
38B
  8
0
 62
     7
 10
-307.24356499999999
 20
441.71847500000001
 30
0.0
 11
-307.24356499999999
 21
450.88433800000001
 31
0.0
  0
LINE
  5
38C
  8
0
 62
     7
 10
-115.2435649999999
 20
427.02285399999988
 30
0.0
 11
-121.1524389999999
 21
428.06473899999992
 31
0.0
  0
LINE
  5
38D
  8
0
 62
     7
 10
-115.2435649999999
 20
427.02285399999988
 30
0.0
 11
-121.1524389999999
 21
425.98096099999998
 31
0.0
  0
LINE
  5
38E
  8
0
 62
     7
 10
-310.74356499999988
 20
427.02284199999991
 30
0.0
 11
-304.83468999999991
 21
425.98094900000001
 31
0.0
  0
LINE
  5
38F
  8
0
 62
     7
 10
-310.74356499999988
 20
427.02284199999991
 30
0.0
 11
-304.83468999999991
 21
428.064728
 31
0.0
  0
LINE
  5
390
  8
0
 62
     7
 10
-115.2435649999999
 20
427.02285399999988
 30
0.0
 11
-310.74356499999988
 21
427.02284199999991
 31
0.0
  0
LINE
  5
391
  8
0
 62
     7
 10
-115.2435649999999
 20
423.02285399999988
 30
0.0
 11
-115.2435649999999
 21
491.431961
 31
0.0
  0
LINE
  5
392
  8
0
 62
     7
 10
-310.74356499999988
 20
423.02284600000002
 30
0.0
 11
-310.74356499999988
 21
517.73139900000001
 31
0.0
  0
LINE
  5
393
  8
0
 62
     7
 10
-222.10269500000001
 20
596.48145699999986
 30
0.0
 11
-223.144566
 21
590.57261299999993
 31
0.0
  0
LINE
  5
394
  8
0
 62
     7
 10
-222.10269500000001
 20
596.48145699999986
 30
0.0
 11
-221.06076400000001
 21
590.57261299999993
 31
0.0
  0
LINE
  5
395
  8
0
 62
     7
 10
-222.10269500000001
 20
598.23154099999988
 30
0.0
 11
-221.06076400000001
 21
604.14039200000002
 31
0.0
  0
LINE
  5
396
  8
0
 62
     7
 10
-222.10269500000001
 20
598.23154099999988
 30
0.0
 11
-223.144566
 21
604.14039200000002
 31
0.0
  0
LINE
  5
397
  8
0
 62
     7
 10
-222.10269500000001
 20
568.48145699999986
 30
0.0
 11
-222.10269500000001
 21
598.23154099999988
 31
0.0
  0
LINE
  5
398
  8
0
 62
     7
 10
-218.10269500000001
 20
596.48145699999986
 30
0.0
 11
-269.24362599999989
 21
596.48145699999986
 31
0.0
  0
LINE
  5
399
  8
0
 62
     7
 10
-218.10269500000001
 20
598.23154099999988
 30
0.0
 11
-233.80612599999989
 21
598.23154099999988
 31
0.0
  0
LINE
  5
39A
  8
0
 62
     7
 10
-356.87424099999998
 20
545.73153699999989
 30
0.0
 11
-355.83230999999989
 21
551.64038499999992
 31
0.0
  0
LINE
  5
39B
  8
0
 62
     7
 10
-356.87424099999998
 20
545.73153699999989
 30
0.0
 11
-357.916111
 21
551.64038499999992
 31
0.0
  0
LINE
  5
39C
  8
0
 62
     7
 10
-356.87424099999998
 20
650.73154099999999
 30
0.0
 11
-357.916111
 21
644.82268099999999
 31
0.0
  0
LINE
  5
39D
  8
0
 62
     7
 10
-356.87424099999998
 20
650.73154099999999
 30
0.0
 11
-355.83230999999989
 21
644.82268099999999
 31
0.0
  0
LINE
  5
39E
  8
0
 62
     7
 10
-356.87424099999998
 20
545.73153699999989
 30
0.0
 11
-356.87424099999998
 21
650.73154099999999
 31
0.0
  0
LINE
  5
39F
  8
0
 62
     7
 10
-360.87424099999998
 20
545.73153699999989
 30
0.0
 11
-305.24356499999999
 21
545.73154099999988
 31
0.0
  0
LINE
  5
3A0
  8
0
 62
     7
 10
-360.87424099999998
 20
650.73154099999999
 30
0.0
 11
-305.24356499999999
 21
650.73154099999999
 31
0.0
  0
LINE
  5
3A1
  8
0
 62
     7
 10
-112.2435649999999
 20
738.43677100000002
 30
0.0
 11
-106.334751
 21
737.39487099999985
 31
0.0
  0
LINE
  5
3A2
  8
0
 62
     7
 10
-112.2435649999999
 20
738.43677100000002
 30
0.0
 11
-106.334751
 21
739.47865699999988
 31
0.0
  0
LINE
  5
3A3
  8
0
 62
     7
 10
-115.2435649999999
 20
738.43677100000002
 30
0.0
 11
-121.1524389999999
 21
739.47865699999988
 31
0.0
  0
LINE
  5
3A4
  8
0
 62
     7
 10
-115.2435649999999
 20
738.43677100000002
 30
0.0
 11
-121.1524389999999
 21
737.39487099999985
 31
0.0
  0
LINE
  5
3A5
  8
0
 62
     7
 10
-146.24362600000001
 20
738.43677100000002
 30
0.0
 11
-140.33475100000001
 21
737.39487099999985
 31
0.0
  0
LINE
  5
3A6
  8
0
 62
     7
 10
-146.24362600000001
 20
738.43677100000002
 30
0.0
 11
-140.33475100000001
 21
739.47865699999988
 31
0.0
  0
LINE
  5
3A7
  8
0
 62
     7
 10
-151.24362600000001
 20
738.43677100000002
 30
0.0
 11
-157.1525
 21
739.47865699999988
 31
0.0
  0
LINE
  5
3A8
  8
0
 62
     7
 10
-151.24362600000001
 20
738.43677100000002
 30
0.0
 11
-157.1525
 21
737.39487099999985
 31
0.0
  0
LINE
  5
3A9
  8
0
 62
     7
 10
-100.743565
 20
738.43677100000002
 30
0.0
 11
-162.74362600000001
 21
738.43675599999995
 31
0.0
  0
LINE
  5
3AA
  8
0
 62
     7
 10
-112.2435649999999
 20
742.43677100000002
 30
0.0
 11
-112.2435649999999
 21
706.99960700000008
 31
0.0
  0
LINE
  5
3AB
  8
0
 62
     7
 10
-115.2435649999999
 20
742.43677100000002
 30
0.0
 11
-115.2435649999999
 21
706.99960700000008
 31
0.0
  0
LINE
  5
3AC
  8
0
 62
     7
 10
-146.24362600000001
 20
742.43677100000002
 30
0.0
 11
-146.24362600000001
 21
715.48152500000003
 31
0.0
  0
LINE
  5
3AD
  8
0
 62
     7
 10
-151.24362600000001
 20
742.43677100000002
 30
0.0
 11
-151.24362600000001
 21
715.48152500000003
 31
0.0
  0
LINE
  5
3AE
  8
0
 62
     7
 10
-310.74356499999988
 20
758.11896100000001
 30
0.0
 11
-304.83468999999991
 21
757.07706100000007
 31
0.0
  0
LINE
  5
3AF
  8
0
 62
     7
 10
-310.74356499999988
 20
758.11896100000001
 30
0.0
 11
-304.83468999999991
 21
759.1608309999998
 31
0.0
  0
LINE
  5
3B0
  8
0
 62
     7
 10
-338.24356499999999
 20
758.11896100000001
 30
0.0
 11
-344.15243900000002
 21
759.1608309999998
 31
0.0
  0
LINE
  5
3B1
  8
0
 62
     7
 10
-338.24356499999999
 20
758.11896100000001
 30
0.0
 11
-344.15243900000002
 21
757.07706100000007
 31
0.0
  0
LINE
  5
3B2
  8
0
 62
     7
 10
-198.95651599999991
 20
758.11896100000001
 30
0.0
 11
-369.45651600000002
 21
758.11896100000001
 31
0.0
  0
LINE
  5
3B3
  8
0
 62
     7
 10
-310.74356499999988
 20
762.11896100000001
 30
0.0
 11
-310.74356499999988
 21
678.73138800000004
 31
0.0
  0
LINE
  5
3B4
  8
0
 62
     7
 10
-338.24356499999999
 20
762.11896100000001
 30
0.0
 11
-338.24356499999999
 21
650.73152500000003
 31
0.0
  0
LINE
  5
3B5
  8
0
 62
     7
 10
-280.39535899999993
 20
594.44520899999986
 30
0.0
 11
-277.19552999999991
 21
589.36967799999991
 31
0.0
  0
LINE
  5
3B6
  8
0
 62
     7
 10
-280.39535899999993
 20
594.44520899999986
 30
0.0
 11
-275.65256099999999
 21
590.77017599999999
 31
0.0
  0
LINE
  5
3B7
  8
0
 62
     7
 10
-284.09189199999992
 20
598.51774999999986
 30
0.0
 11
-287.291721
 21
603.59328800000003
 31
0.0
  0
LINE
  5
3B8
  8
0
 62
     7
 10
-284.09189199999992
 20
598.51774999999986
 30
0.0
 11
-288.83468999999991
 21
602.19278299999996
 31
0.0
  0
LINE
  5
3B9
  8
0
 62
     7
 10
-284.09189199999992
 20
598.51775700000007
 30
0.0
 11
-251.8754009999999
 21
563.024181
 31
0.0
  0
POINT
  5
3BA
  8
0
 62
     7
 10
885.7754359999999
 20
570.48154099999999
 30
0.0
  0
LINE
  5
3BB
  8
0
 62
     7
 10
719.77543600000001
 20
535.23154099999999
 30
0.0
 11
854.77543599999979
 21
535.23154099999999
 31
0.0
  0
LINE
  5
3BC
  8
0
 62
     7
 10
719.77543600000001
 20
661.23154099999988
 30
0.0
 11
854.77543599999979
 21
661.23154099999988
 31
0.0
  0
LINE
  5
3BD
  8
0
 62
     7
 10
854.77543599999979
 20
661.23154099999988
 30
0.0
 11
854.77543599999979
 21
578.98154099999999
 31
0.0
  0
LINE
  5
3BE
  8
0
 62
     7
 10
719.77543600000001
 20
661.23154099999988
 30
0.0
 11
719.77543600000001
 21
535.23154099999999
 31
0.0
  0
LINE
  5
3BF
  8
0
  6
DASHDOT
 62
     7
 10
836.87549200000001
 20
570.98154099999999
 30
0.0
 11
892.79666099999997
 21
570.98154099999999
 31
0.0
  0
LINE
  5
3C0
  8
0
 62
     7
 10
854.77543599999979
 20
578.98154099999999
 30
0.0
 11
877.7754359999999
 21
578.98154099999999
 31
0.0
  0
LINE
  5
3C1
  8
0
 62
     7
 10
854.77543599999979
 20
562.98154099999988
 30
0.0
 11
877.7754359999999
 21
562.98154099999988
 31
0.0
  0
ARC
  5
3C2
  8
0
 62
     7
 10
877.7754359999999
 20
570.98154099999999
 30
0.0
 40
8.0
 50
270.0
 51
90.000005000000002
  0
LINE
  5
3C3
  8
0
 62
     7
 10
854.77543599999979
 20
562.98154099999988
 30
0.0
 11
854.77543599999979
 21
535.23154099999999
 31
0.0
  0
LINE
  5
3C4
  8
0
  6
DASHDOT
 62
     7
 10
791.7754359999999
 20
700.74150499999985
 30
0.0
 11
791.7754359999999
 21
505.65081400000003
 31
0.0
  0
CIRCLE
  5
3C5
  8
0
 62
     7
 10
747.77543600000001
 20
669.23154099999988
 30
0.0
 40
3.5
  0
CIRCLE
  5
3C6
  8
0
 62
     7
 10
872.77543599999979
 20
669.23154099999988
 30
0.0
 40
4.0
  0
CIRCLE
  5
3C7
  8
0
 62
     7
 10
872.77543599999979
 20
598.23154099999988
 30
0.0
 40
4.0
  0
CIRCLE
  5
3C8
  8
0
 62
     7
 10
872.77543599999979
 20
527.23154099999999
 30
0.0
 40
3.5
  0
CIRCLE
  5
3C9
  8
0
 62
     7
 10
747.77543600000001
 20
527.23154099999999
 30
0.0
 40
4.0
  0
LINE
  5
3CA
  8
0
  6
DASHDOT
 62
     7
 10
747.77543600000001
 20
675.73154099999999
 30
0.0
 11
747.77543600000001
 21
662.73154099999999
 31
0.0
  0
LINE
  5
3CB
  8
0
  6
DASHDOT
 62
     7
 10
741.27543600000001
 20
669.23154099999988
 30
0.0
 11
754.2754359999999
 21
669.23154099999988
 31
0.0
  0
LINE
  5
3CC
  8
0
  6
DASHDOT
 62
     7
 10
872.77543599999979
 20
675.73154099999999
 30
0.0
 11
872.77543599999979
 21
662.73154099999999
 31
0.0
  0
LINE
  5
3CD
  8
0
  6
DASHDOT
 62
     7
 10
866.2754359999999
 20
669.23154099999988
 30
0.0
 11
879.2754359999999
 21
669.23154099999988
 31
0.0
  0
LINE
  5
3CE
  8
0
  6
DASHDOT
 62
     7
 10
872.77543599999979
 20
604.73154099999999
 30
0.0
 11
872.77543599999979
 21
591.73154099999988
 31
0.0
  0
LINE
  5
3CF
  8
0
  6
DASHDOT
 62
     7
 10
866.2754359999999
 20
598.23154099999988
 30
0.0
 11
879.2754359999999
 21
598.23154099999988
 31
0.0
  0
LINE
  5
3D0
  8
0
  6
DASHDOT
 62
     7
 10
872.77543599999979
 20
533.73154099999999
 30
0.0
 11
872.77543599999979
 21
520.73154099999988
 31
0.0
  0
LINE
  5
3D1
  8
0
  6
DASHDOT
 62
     7
 10
866.2754359999999
 20
527.23154099999999
 30
0.0
 11
879.2754359999999
 21
527.23154099999999
 31
0.0
  0
LINE
  5
3D2
  8
0
  6
DASHDOT
 62
     7
 10
747.77543600000001
 20
533.73154099999999
 30
0.0
 11
747.77543600000001
 21
520.73154099999988
 31
0.0
  0
LINE
  5
3D3
  8
0
  6
DASHDOT
 62
     7
 10
741.27543600000001
 20
527.23154099999999
 30
0.0
 11
754.2754359999999
 21
527.23154099999999
 31
0.0
  0
POLYLINE
  5
3D4
  8
0
 62
     7
 66
     1
 10
0.0
 20
0.0
 30
0.0
  0
VERTEX
  5
88C
  8
0
 62
     7
 10
696.07720199999994
 20
681.23154099999999
 30
0.0
  0
VERTEX
  5
88D
  8
0
 62
     7
 10
712.07720199999994
 20
681.23154099999999
 30
0.0
  0
VERTEX
  5
88E
  8
0
 62
     7
 10
713.07720199999994
 20
683.23154099999988
 30
0.0
  0
VERTEX
  5
88F
  8
0
 62
     7
 10
714.07720199999994
 20
679.23154099999999
 30
0.0
  0
VERTEX
  5
890
  8
0
 62
     7
 10
715.07720199999994
 20
681.23154099999999
 30
0.0
  0
VERTEX
  5
891
  8
0
 62
     7
 10
731.07720199999994
 20
681.23154099999999
 30
0.0
  0
VERTEX
  5
892
  8
0
 62
     7
 10
732.07720199999994
 20
683.23154099999988
 30
0.0
  0
VERTEX
  5
893
  8
0
 62
     7
 10
733.07720199999994
 20
679.23154099999999
 30
0.0
  0
VERTEX
  5
894
  8
0
 62
     7
 10
734.07720199999994
 20
681.23154099999999
 30
0.0
  0
VERTEX
  5
895
  8
0
 62
     7
 10
750.07720199999994
 20
681.23154099999999
 30
0.0
  0
VERTEX
  5
896
  8
0
 62
     7
 10
751.07720199999994
 20
683.23154099999988
 30
0.0
  0
VERTEX
  5
897
  8
0
 62
     7
 10
752.07720199999994
 20
679.23154099999999
 30
0.0
  0
VERTEX
  5
898
  8
0
 62
     7
 10
753.07720199999994
 20
681.23154099999999
 30
0.0
  0
VERTEX
  5
899
  8
0
 62
     7
 10
769.07720199999994
 20
681.23154099999999
 30
0.0
  0
VERTEX
  5
89A
  8
0
 62
     7
 10
770.07720199999994
 20
683.23154099999988
 30
0.0
  0
VERTEX
  5
89B
  8
0
 62
     7
 10
771.07720199999994
 20
679.23154099999999
 30
0.0
  0
VERTEX
  5
89C
  8
0
 62
     7
 10
772.07720199999994
 20
681.23154099999999
 30
0.0
  0
VERTEX
  5
89D
  8
0
 62
     7
 10
788.07720199999994
 20
681.23154099999999
 30
0.0
  0
VERTEX
  5
89E
  8
0
 62
     7
 10
789.07720199999994
 20
683.23154099999988
 30
0.0
  0
VERTEX
  5
89F
  8
0
 62
     7
 10
790.07720199999994
 20
679.23154099999999
 30
0.0
  0
VERTEX
  5
8A0
  8
0
 62
     7
 10
791.07720199999994
 20
681.23154099999999
 30
0.0
  0
VERTEX
  5
8A1
  8
0
 62
     7
 10
807.07720199999994
 20
681.23154099999999
 30
0.0
  0
VERTEX
  5
8A2
  8
0
 62
     7
 10
808.07720199999994
 20
683.23154099999988
 30
0.0
  0
VERTEX
  5
8A3
  8
0
 62
     7
 10
809.07720199999994
 20
679.23154099999999
 30
0.0
  0
VERTEX
  5
8A4
  8
0
 62
     7
 10
810.07720199999994
 20
681.23154099999999
 30
0.0
  0
VERTEX
  5
8A5
  8
0
 62
     7
 10
826.07720199999994
 20
681.23154099999999
 30
0.0
  0
VERTEX
  5
8A6
  8
0
 62
     7
 10
827.07720199999994
 20
683.23154099999988
 30
0.0
  0
VERTEX
  5
8A7
  8
0
 62
     7
 10
828.07720199999983
 20
679.23154099999999
 30
0.0
  0
VERTEX
  5
8A8
  8
0
 62
     7
 10
829.07720200000006
 20
681.23154099999999
 30
0.0
  0
VERTEX
  5
8A9
  8
0
 62
     7
 10
845.07720199999983
 20
681.23154099999999
 30
0.0
  0
VERTEX
  5
8AA
  8
0
 62
     7
 10
846.07720200000006
 20
683.23154099999988
 30
0.0
  0
VERTEX
  5
8AB
  8
0
 62
     7
 10
847.07720200000006
 20
679.23154099999999
 30
0.0
  0
VERTEX
  5
8AC
  8
0
 62
     7
 10
848.07720199999994
 20
681.23154099999999
 30
0.0
  0
VERTEX
  5
8AD
  8
0
 62
     7
 10
864.07720199999994
 20
681.23154099999999
 30
0.0
  0
VERTEX
  5
8AE
  8
0
 62
     7
 10
865.07720199999994
 20
683.23154099999988
 30
0.0
  0
VERTEX
  5
8AF
  8
0
 62
     7
 10
866.07720199999994
 20
679.23154099999999
 30
0.0
  0
VERTEX
  5
8B0
  8
0
 62
     7
 10
867.07720199999994
 20
681.23154099999999
 30
0.0
  0
VERTEX
  5
8B1
  8
0
 62
     7
 10
883.07720199999994
 20
681.23154099999999
 30
0.0
  0
VERTEX
  5
8B2
  8
0
 62
     7
 10
884.07720199999994
 20
683.23154099999988
 30
0.0
  0
VERTEX
  5
8B3
  8
0
 62
     7
 10
885.07720199999994
 20
679.23154099999999
 30
0.0
  0
VERTEX
  5
8B4
  8
0
 62
     7
 10
886.07720199999983
 20
681.23154099999999
 30
0.0
  0
VERTEX
  5
8B5
  8
0
 62
     7
 10
894.42543000000001
 20
681.23154099999999
 30
0.0
  0
SEQEND
  5
8B6
  8
0
 62
     7
  0
POLYLINE
  5
400
  8
0
 62
     7
 66
     1
 10
0.0
 20
0.0
 30
0.0
  0
VERTEX
  5
8B7
  8
0
 62
     7
 10
693.54355599999997
 20
515.23154099999988
 30
0.0
  0
VERTEX
  5
8B8
  8
0
 62
     7
 10
709.54355599999985
 20
515.23154099999988
 30
0.0
  0
VERTEX
  5
8B9
  8
0
 62
     7
 10
710.54355599999997
 20
517.23154099999999
 30
0.0
  0
VERTEX
  5
8BA
  8
0
 62
     7
 10
711.54355599999985
 20
513.23154099999999
 30
0.0
  0
VERTEX
  5
8BB
  8
0
 62
     7
 10
712.54355599999985
 20
515.23154099999988
 30
0.0
  0
VERTEX
  5
8BC
  8
0
 62
     7
 10
728.54355599999985
 20
515.23154099999988
 30
0.0
  0
VERTEX
  5
8BD
  8
0
 62
     7
 10
729.54355599999985
 20
517.23154099999999
 30
0.0
  0
VERTEX
  5
8BE
  8
0
 62
     7
 10
730.54355599999985
 20
513.23154099999999
 30
0.0
  0
VERTEX
  5
8BF
  8
0
 62
     7
 10
731.54355599999997
 20
515.23154099999988
 30
0.0
  0
VERTEX
  5
8C0
  8
0
 62
     7
 10
747.54355599999997
 20
515.23154099999988
 30
0.0
  0
VERTEX
  5
8C1
  8
0
 62
     7
 10
748.54355599999985
 20
517.23154099999999
 30
0.0
  0
VERTEX
  5
8C2
  8
0
 62
     7
 10
749.54355599999985
 20
513.23154099999999
 30
0.0
  0
VERTEX
  5
8C3
  8
0
 62
     7
 10
750.54355599999985
 20
515.23154099999988
 30
0.0
  0
VERTEX
  5
8C4
  8
0
 62
     7
 10
766.54355599999985
 20
515.23154099999988
 30
0.0
  0
VERTEX
  5
8C5
  8
0
 62
     7
 10
767.54355599999985
 20
517.23154099999999
 30
0.0
  0
VERTEX
  5
8C6
  8
0
 62
     7
 10
768.54355599999997
 20
513.23154099999999
 30
0.0
  0
VERTEX
  5
8C7
  8
0
 62
     7
 10
769.54355599999985
 20
515.23154099999988
 30
0.0
  0
VERTEX
  5
8C8
  8
0
 62
     7
 10
785.54355599999997
 20
515.23154099999988
 30
0.0
  0
VERTEX
  5
8C9
  8
0
 62
     7
 10
786.54355599999985
 20
517.23154099999999
 30
0.0
  0
VERTEX
  5
8CA
  8
0
 62
     7
 10
787.54355599999985
 20
513.23154099999999
 30
0.0
  0
VERTEX
  5
8CB
  8
0
 62
     7
 10
788.54355599999985
 20
515.23154099999988
 30
0.0
  0
VERTEX
  5
8CC
  8
0
 62
     7
 10
804.54355599999985
 20
515.23154099999988
 30
0.0
  0
VERTEX
  5
8CD
  8
0
 62
     7
 10
805.54355599999985
 20
517.23154099999999
 30
0.0
  0
VERTEX
  5
8CE
  8
0
 62
     7
 10
806.54355599999985
 20
513.23154099999999
 30
0.0
  0
VERTEX
  5
8CF
  8
0
 62
     7
 10
807.54355599999985
 20
515.23154099999988
 30
0.0
  0
VERTEX
  5
8D0
  8
0
 62
     7
 10
823.54355599999985
 20
515.23154099999988
 30
0.0
  0
VERTEX
  5
8D1
  8
0
 62
     7
 10
824.54355599999997
 20
517.23154099999999
 30
0.0
  0
VERTEX
  5
8D2
  8
0
 62
     7
 10
825.54355599999997
 20
513.23154099999999
 30
0.0
  0
VERTEX
  5
8D3
  8
0
 62
     7
 10
826.54355599999997
 20
515.23154099999988
 30
0.0
  0
VERTEX
  5
8D4
  8
0
 62
     7
 10
842.54355599999997
 20
515.23154099999988
 30
0.0
  0
VERTEX
  5
8D5
  8
0
 62
     7
 10
843.54355599999997
 20
517.23154099999999
 30
0.0
  0
VERTEX
  5
8D6
  8
0
 62
     7
 10
844.54355600000008
 20
513.23154099999999
 30
0.0
  0
VERTEX
  5
8D7
  8
0
 62
     7
 10
845.54355600000008
 20
515.23154099999988
 30
0.0
  0
VERTEX
  5
8D8
  8
0
 62
     7
 10
861.54355600000008
 20
515.23154099999988
 30
0.0
  0
VERTEX
  5
8D9
  8
0
 62
     7
 10
862.54355600000008
 20
517.23154099999999
 30
0.0
  0
VERTEX
  5
8DA
  8
0
 62
     7
 10
863.54355600000008
 20
513.23154099999999
 30
0.0
  0
VERTEX
  5
8DB
  8
0
 62
     7
 10
864.54355600000008
 20
515.23154099999988
 30
0.0
  0
VERTEX
  5
8DC
  8
0
 62
     7
 10
880.54355600000008
 20
515.23154099999988
 30
0.0
  0
VERTEX
  5
8DD
  8
0
 62
     7
 10
881.54355599999997
 20
517.23154099999999
 30
0.0
  0
VERTEX
  5
8DE
  8
0
 62
     7
 10
882.54355599999997
 20
513.23154099999999
 30
0.0
  0
VERTEX
  5
8DF
  8
0
 62
     7
 10
883.54355599999997
 20
515.23154099999988
 30
0.0
  0
VERTEX
  5
8E0
  8
0
 62
     7
 10
896.235184
 20
515.23154099999988
 30
0.0
  0
SEQEND
  5
8E1
  8
0
 62
     7
  0
POLYLINE
  5
42C
  8
0
 62
     7
 66
     1
 10
0.0
 20
0.0
 30
0.0
  0
VERTEX
  5
8E2
  8
0
 62
     7
 10
892.7754359999999
 20
684.55172300000004
 30
0.0
  0
VERTEX
  5
8E3
  8
0
 62
     7
 10
892.7754359999999
 20
668.55172300000004
 30
0.0
  0
VERTEX
  5
8E4
  8
0
 62
     7
 10
894.7754359999999
 20
667.55172300000004
 30
0.0
  0
VERTEX
  5
8E5
  8
0
 62
     7
 10
890.77543599999979
 20
666.55172300000004
 30
0.0
  0
VERTEX
  5
8E6
  8
0
 62
     7
 10
892.7754359999999
 20
665.55172300000004
 30
0.0
  0
VERTEX
  5
8E7
  8
0
 62
     7
 10
892.7754359999999
 20
649.55172300000004
 30
0.0
  0
VERTEX
  5
8E8
  8
0
 62
     7
 10
894.7754359999999
 20
648.55172300000004
 30
0.0
  0
VERTEX
  5
8E9
  8
0
 62
     7
 10
890.77543599999979
 20
647.55172300000004
 30
0.0
  0
VERTEX
  5
8EA
  8
0
 62
     7
 10
892.7754359999999
 20
646.55172300000004
 30
0.0
  0
VERTEX
  5
8EB
  8
0
 62
     7
 10
892.7754359999999
 20
630.55172300000004
 30
0.0
  0
VERTEX
  5
8EC
  8
0
 62
     7
 10
894.7754359999999
 20
629.55172300000004
 30
0.0
  0
VERTEX
  5
8ED
  8
0
 62
     7
 10
890.77543599999979
 20
628.55172300000004
 30
0.0
  0
VERTEX
  5
8EE
  8
0
 62
     7
 10
892.7754359999999
 20
627.55172300000004
 30
0.0
  0
VERTEX
  5
8EF
  8
0
 62
     7
 10
892.7754359999999
 20
611.55172300000004
 30
0.0
  0
VERTEX
  5
8F0
  8
0
 62
     7
 10
894.7754359999999
 20
610.55172300000004
 30
0.0
  0
VERTEX
  5
8F1
  8
0
 62
     7
 10
890.77543599999979
 20
609.55172300000004
 30
0.0
  0
VERTEX
  5
8F2
  8
0
 62
     7
 10
892.7754359999999
 20
608.55172300000004
 30
0.0
  0
VERTEX
  5
8F3
  8
0
 62
     7
 10
892.7754359999999
 20
592.55172300000004
 30
0.0
  0
VERTEX
  5
8F4
  8
0
 62
     7
 10
894.7754359999999
 20
591.55172300000004
 30
0.0
  0
VERTEX
  5
8F5
  8
0
 62
     7
 10
890.77543599999979
 20
590.55172300000004
 30
0.0
  0
VERTEX
  5
8F6
  8
0
 62
     7
 10
892.7754359999999
 20
589.55172300000004
 30
0.0
  0
VERTEX
  5
8F7
  8
0
 62
     7
 10
892.7754359999999
 20
573.55172300000004
 30
0.0
  0
VERTEX
  5
8F8
  8
0
 62
     7
 10
894.7754359999999
 20
572.55172300000004
 30
0.0
  0
VERTEX
  5
8F9
  8
0
 62
     7
 10
890.77543599999979
 20
571.55172300000004
 30
0.0
  0
VERTEX
  5
8FA
  8
0
 62
     7
 10
892.7754359999999
 20
570.55172300000004
 30
0.0
  0
VERTEX
  5
8FB
  8
0
 62
     7
 10
892.7754359999999
 20
554.55172300000004
 30
0.0
  0
VERTEX
  5
8FC
  8
0
 62
     7
 10
894.7754359999999
 20
553.55172300000004
 30
0.0
  0
VERTEX
  5
8FD
  8
0
 62
     7
 10
890.77543599999979
 20
552.55172300000004
 30
0.0
  0
VERTEX
  5
8FE
  8
0
 62
     7
 10
892.7754359999999
 20
551.55172300000004
 30
0.0
  0
VERTEX
  5
8FF
  8
0
 62
     7
 10
892.7754359999999
 20
535.55172300000004
 30
0.0
  0
VERTEX
  5
900
  8
0
 62
     7
 10
894.7754359999999
 20
534.55172300000004
 30
0.0
  0
VERTEX
  5
901
  8
0
 62
     7
 10
890.77543599999979
 20
533.55172300000004
 30
0.0
  0
VERTEX
  5
902
  8
0
 62
     7
 10
892.7754359999999
 20
532.55172300000004
 30
0.0
  0
VERTEX
  5
903
  8
0
 62
     7
 10
892.7754359999999
 20
516.55172300000004
 30
0.0
  0
VERTEX
  5
904
  8
0
 62
     7
 10
894.7754359999999
 20
515.55172300000004
 30
0.0
  0
VERTEX
  5
905
  8
0
 62
     7
 10
890.77543599999979
 20
514.55172300000004
 30
0.0
  0
VERTEX
  5
906
  8
0
 62
     7
 10
892.7754359999999
 20
513.55172300000004
 30
0.0
  0
VERTEX
  5
907
  8
0
 62
     7
 10
892.7754359999999
 20
511.53994399999999
 30
0.0
  0
SEQEND
  5
908
  8
0
 62
     7
  0
POLYLINE
  5
454
  8
0
 62
     7
 66
     1
 10
0.0
 20
0.0
 30
0.0
  0
VERTEX
  5
909
  8
0
 62
     7
 10
699.77543600000001
 20
684.55172300000004
 30
0.0
  0
VERTEX
  5
90A
  8
0
 62
     7
 10
699.77543600000001
 20
668.55172300000004
 30
0.0
  0
VERTEX
  5
90B
  8
0
 62
     7
 10
701.77543600000001
 20
667.55172300000004
 30
0.0
  0
VERTEX
  5
90C
  8
0
 62
     7
 10
697.77543600000001
 20
666.55172300000004
 30
0.0
  0
VERTEX
  5
90D
  8
0
 62
     7
 10
699.77543600000001
 20
665.55172300000004
 30
0.0
  0
VERTEX
  5
90E
  8
0
 62
     7
 10
699.77543600000001
 20
649.55172300000004
 30
0.0
  0
VERTEX
  5
90F
  8
0
 62
     7
 10
701.77543600000001
 20
648.55172300000004
 30
0.0
  0
VERTEX
  5
910
  8
0
 62
     7
 10
697.77543600000001
 20
647.55172300000004
 30
0.0
  0
VERTEX
  5
911
  8
0
 62
     7
 10
699.77543600000001
 20
646.55172300000004
 30
0.0
  0
VERTEX
  5
912
  8
0
 62
     7
 10
699.77543600000001
 20
630.55172300000004
 30
0.0
  0
VERTEX
  5
913
  8
0
 62
     7
 10
701.77543600000001
 20
629.55172300000004
 30
0.0
  0
VERTEX
  5
914
  8
0
 62
     7
 10
697.77543600000001
 20
628.55172300000004
 30
0.0
  0
VERTEX
  5
915
  8
0
 62
     7
 10
699.77543600000001
 20
627.55172300000004
 30
0.0
  0
VERTEX
  5
916
  8
0
 62
     7
 10
699.77543600000001
 20
611.55172300000004
 30
0.0
  0
VERTEX
  5
917
  8
0
 62
     7
 10
701.77543600000001
 20
610.55172300000004
 30
0.0
  0
VERTEX
  5
918
  8
0
 62
     7
 10
697.77543600000001
 20
609.55172300000004
 30
0.0
  0
VERTEX
  5
919
  8
0
 62
     7
 10
699.77543600000001
 20
608.55172300000004
 30
0.0
  0
VERTEX
  5
91A
  8
0
 62
     7
 10
699.77543600000001
 20
592.55172300000004
 30
0.0
  0
VERTEX
  5
91B
  8
0
 62
     7
 10
701.77543600000001
 20
591.55172300000004
 30
0.0
  0
VERTEX
  5
91C
  8
0
 62
     7
 10
697.77543600000001
 20
590.55172300000004
 30
0.0
  0
VERTEX
  5
91D
  8
0
 62
     7
 10
699.77543600000001
 20
589.55172300000004
 30
0.0
  0
VERTEX
  5
91E
  8
0
 62
     7
 10
699.77543600000001
 20
573.55172300000004
 30
0.0
  0
VERTEX
  5
91F
  8
0
 62
     7
 10
701.77543600000001
 20
572.55172300000004
 30
0.0
  0
VERTEX
  5
920
  8
0
 62
     7
 10
697.77543600000001
 20
571.55172300000004
 30
0.0
  0
VERTEX
  5
921
  8
0
 62
     7
 10
699.77543600000001
 20
570.55172300000004
 30
0.0
  0
VERTEX
  5
922
  8
0
 62
     7
 10
699.77543600000001
 20
554.55172300000004
 30
0.0
  0
VERTEX
  5
923
  8
0
 62
     7
 10
701.77543600000001
 20
553.55172300000004
 30
0.0
  0
VERTEX
  5
924
  8
0
 62
     7
 10
697.77543600000001
 20
552.55172300000004
 30
0.0
  0
VERTEX
  5
925
  8
0
 62
     7
 10
699.77543600000001
 20
551.55172300000004
 30
0.0
  0
VERTEX
  5
926
  8
0
 62
     7
 10
699.77543600000001
 20
535.55172300000004
 30
0.0
  0
VERTEX
  5
927
  8
0
 62
     7
 10
701.77543600000001
 20
534.55172300000004
 30
0.0
  0
VERTEX
  5
928
  8
0
 62
     7
 10
697.77543600000001
 20
533.55172300000004
 30
0.0
  0
VERTEX
  5
929
  8
0
 62
     7
 10
699.77543600000001
 20
532.55172300000004
 30
0.0
  0
VERTEX
  5
92A
  8
0
 62
     7
 10
699.77543600000001
 20
516.55172300000004
 30
0.0
  0
VERTEX
  5
92B
  8
0
 62
     7
 10
701.77543600000001
 20
515.55172300000004
 30
0.0
  0
VERTEX
  5
92C
  8
0
 62
     7
 10
697.77543600000001
 20
514.55172300000004
 30
0.0
  0
VERTEX
  5
92D
  8
0
 62
     7
 10
699.77543600000001
 20
513.55172300000004
 30
0.0
  0
VERTEX
  5
92E
  8
0
 62
     7
 10
699.77543600000001
 20
509.18726699999991
 30
0.0
  0
SEQEND
  5
92F
  8
0
 62
     7
  0
LINE
  5
47C
  8
0
  6
DASHDOT
 62
     7
 10
681.93254100000001
 20
598.23154099999988
 30
0.0
 11
903.74635299999977
 21
598.23154099999988
 31
0.0
  0
CIRCLE
  5
47D
  8
0
 62
     7
 10
814.2754359999999
 20
670.73154099999988
 30
0.0
 40
2.0
  0
CIRCLE
  5
47E
  8
0
 62
     7
 10
769.27543600000001
 20
670.73154099999988
 30
0.0
 40
2.0
  0
CIRCLE
  5
47F
  8
0
 62
     7
 10
814.2754359999999
 20
670.73154099999988
 30
0.0
 40
3.6800000000000002
  0
CIRCLE
  5
480
  8
0
 62
     7
 10
769.27543600000001
 20
670.73154099999988
 30
0.0
 40
3.6800000000000002
  0
LINE
  5
481
  8
0
  6
DASHDOT
 62
     7
 10
814.2754359999999
 20
677.41154100000006
 30
0.0
 11
814.2754359999999
 21
664.05154000000005
 31
0.0
  0
LINE
  5
482
  8
0
  6
DASHDOT
 62
     7
 10
807.59543599999995
 20
670.73154099999988
 30
0.0
 11
820.95543699999985
 21
670.73154099999988
 31
0.0
  0
LINE
  5
483
  8
0
  6
DASHDOT
 62
     7
 10
769.27543600000001
 20
677.41154100000006
 30
0.0
 11
769.27543600000001
 21
664.05154000000005
 31
0.0
  0
LINE
  5
484
  8
0
  6
DASHDOT
 62
     7
 10
762.59543599999995
 20
670.73154099999988
 30
0.0
 11
775.95543699999996
 21
670.73154099999988
 31
0.0
  0
LINE
  5
485
  8
0
 62
     7
 10
900.38830600000006
 20
660.83068099999991
 30
0.0
 11
900.38830600000006
 21
635.56366300000002
 31
0.0
  0
LINE
  5
486
  8
0
 62
     7
 10
912.79210699999987
 20
660.83068099999991
 30
0.0
 11
912.79210699999987
 21
635.56366300000002
 31
0.0
  0
LINE
  5
487
  8
0
 62
     7
 10
900.38830600000006
 20
660.83068099999991
 30
0.0
 11
912.79210699999987
 21
660.83068099999991
 31
0.0
  0
LINE
  5
488
  8
0
 62
     7
 10
900.38830600000006
 20
635.56366300000002
 30
0.0
 11
912.79210699999987
 21
635.56366300000002
 31
0.0
  0
LINE
  5
489
  8
0
 62
     7
 10
900.38830600000006
 20
560.89941799999986
 30
0.0
 11
900.38830600000006
 21
535.63239699999997
 31
0.0
  0
LINE
  5
48A
  8
0
 62
     7
 10
912.79210699999987
 20
560.89941799999986
 30
0.0
 11
912.79210699999987
 21
535.63239699999997
 31
0.0
  0
LINE
  5
48B
  8
0
 62
     7
 10
900.38830600000006
 20
560.89941799999986
 30
0.0
 11
912.79210699999987
 21
560.89941799999986
 31
0.0
  0
LINE
  5
48C
  8
0
 62
     7
 10
900.38830600000006
 20
535.63239699999997
 30
0.0
 11
912.79210699999987
 21
535.63239699999997
 31
0.0
  0
LINE
  5
48D
  8
0
  6
DASHDOT
 62
     7
 10
906.59020999999996
 20
676.90969500000006
 30
0.0
 11
906.59020999999996
 21
468.34195299999999
 31
0.0
  0
LINE
  5
48E
  8
0
 62
     7
 10
791.7754359999999
 20
739.416202
 30
0.0
 11
803.59312399999999
 21
737.33243200000004
 31
0.0
  0
LINE
  5
48F
  8
0
 62
     7
 10
791.7754359999999
 20
739.416202
 30
0.0
 11
803.59312399999999
 21
741.49998800000003
 31
0.0
  0
LINE
  5
490
  8
0
 62
     7
 10
854.77543599999979
 20
739.416202
 30
0.0
 11
842.95774800000004
 21
741.49997299999995
 31
0.0
  0
LINE
  5
491
  8
0
 62
     7
 10
854.77543599999979
 20
739.416202
 30
0.0
 11
842.95774800000004
 21
737.33241599999997
 31
0.0
  0
LINE
  5
492
  8
0
 62
     7
 10
791.7754359999999
 20
739.416202
 30
0.0
 11
854.77543599999979
 21
739.416202
 31
0.0
  0
LINE
  5
493
  8
0
 62
     7
 10
791.7754359999999
 20
747.416202
 30
0.0
 11
791.7754359999999
 21
700.74150499999985
 31
0.0
  0
LINE
  5
494
  8
0
 62
     7
 10
854.77543599999979
 20
747.416202
 30
0.0
 11
854.77543599999979
 21
661.23154099999988
 31
0.0
  0
LINE
  5
495
  8
0
 62
     7
 10
719.77543600000001
 20
772.364597
 30
0.0
 11
731.59312399999999
 21
770.28082599999993
 31
0.0
  0
LINE
  5
496
  8
0
 62
     7
 10
719.77543600000001
 20
772.364597
 30
0.0
 11
731.59312399999999
 21
774.44836799999996
 31
0.0
  0
LINE
  5
497
  8
0
 62
     7
 10
854.77543599999979
 20
772.364597
 30
0.0
 11
842.95774800000004
 21
774.44836799999996
 31
0.0
  0
LINE
  5
498
  8
0
 62
     7
 10
854.77543599999979
 20
772.364597
 30
0.0
 11
842.95774800000004
 21
770.28082599999993
 31
0.0
  0
LINE
  5
499
  8
0
 62
     7
 10
719.77543600000001
 20
772.364597
 30
0.0
 11
854.77543599999979
 21
772.364597
 31
0.0
  0
LINE
  5
49A
  8
0
 62
     7
 10
719.77543600000001
 20
780.36459699999989
 30
0.0
 11
719.77543600000001
 21
661.23154099999988
 31
0.0
  0
LINE
  5
49B
  8
0
 62
     7
 10
854.77543599999979
 20
780.36459699999989
 30
0.0
 11
854.77543599999979
 21
661.23154099999988
 31
0.0
  0
LINE
  5
49C
  8
0
 62
     7
 10
791.7754359999999
 20
498.41183099999989
 30
0.0
 11
803.59312399999999
 21
496.3280519999999
 31
0.0
  0
LINE
  5
49D
  8
0
 62
     7
 10
791.7754359999999
 20
498.41183099999989
 30
0.0
 11
803.59312399999999
 21
500.495609
 31
0.0
  0
LINE
  5
49E
  8
0
 62
     7
 10
872.77543599999979
 20
498.41183099999989
 30
0.0
 11
860.95774800000004
 21
500.495609
 31
0.0
  0
LINE
  5
49F
  8
0
 62
     7
 10
872.77543599999979
 20
498.41183099999989
 30
0.0
 11
860.95774800000004
 21
496.3280519999999
 31
0.0
  0
LINE
  5
4A0
  8
0
 62
     7
 10
791.7754359999999
 20
498.41183099999989
 30
0.0
 11
872.77543599999979
 21
498.41183099999989
 31
0.0
  0
LINE
  5
4A1
  8
0
 62
     7
 10
791.7754359999999
 20
490.41183099999989
 30
0.0
 11
791.7754359999999
 21
505.65081400000003
 31
0.0
  0
LINE
  5
4A2
  8
0
 62
     7
 10
872.77543599999979
 20
490.41183099999989
 30
0.0
 11
872.77543599999979
 21
520.73154099999988
 31
0.0
  0
LINE
  5
4A3
  8
0
 62
     7
 10
747.77543600000001
 20
469.99881299999998
 30
0.0
 11
759.59312399999988
 21
467.91504299999991
 31
0.0
  0
LINE
  5
4A4
  8
0
 62
     7
 10
747.77543600000001
 20
469.99881299999998
 30
0.0
 11
759.59312399999988
 21
472.08258399999988
 31
0.0
  0
LINE
  5
4A5
  8
0
 62
     7
 10
872.77543599999979
 20
469.99881299999998
 30
0.0
 11
860.95774800000004
 21
472.08258399999988
 31
0.0
  0
LINE
  5
4A6
  8
0
 62
     7
 10
872.77543599999979
 20
469.99881299999998
 30
0.0
 11
860.95774800000004
 21
467.91502700000001
 31
0.0
  0
LINE
  5
4A7
  8
0
 62
     7
 10
747.77543600000001
 20
469.99881299999998
 30
0.0
 11
872.77543599999979
 21
469.99881299999998
 31
0.0
  0
LINE
  5
4A8
  8
0
 62
     7
 10
747.77543600000001
 20
461.99881299999998
 30
0.0
 11
747.77543600000001
 21
520.73154099999988
 31
0.0
  0
LINE
  5
4A9
  8
0
 62
     7
 10
872.77543599999979
 20
461.99881299999998
 30
0.0
 11
872.77543599999979
 21
520.73154099999988
 31
0.0
  0
LINE
  5
4AA
  8
0
 62
     7
 10
791.7754359999999
 20
612.42586900000003
 30
0.0
 11
803.59312399999999
 21
610.34208999999987
 31
0.0
  0
LINE
  5
4AB
  8
0
 62
     7
 10
791.7754359999999
 20
612.42586900000003
 30
0.0
 11
803.59312399999999
 21
614.50964699999986
 31
0.0
  0
LINE
  5
4AC
  8
0
 62
     7
 10
885.7754359999999
 20
612.42586900000003
 30
0.0
 11
873.95774800000015
 21
614.50964699999986
 31
0.0
  0
LINE
  5
4AD
  8
0
 62
     7
 10
885.7754359999999
 20
612.42586900000003
 30
0.0
 11
873.95774800000015
 21
610.34208999999987
 31
0.0
  0
LINE
  5
4AE
  8
0
 62
     7
 10
791.7754359999999
 20
612.42586900000003
 30
0.0
 11
885.7754359999999
 21
612.42586900000003
 31
0.0
  0
LINE
  5
4AF
  8
0
 62
     7
 10
885.7754359999999
 20
620.42586900000003
 30
0.0
 11
885.7754359999999
 21
570.48154399999987
 31
0.0
  0
LINE
  5
4B0
  8
0
 62
     7
 10
823.84532200000001
 20
578.98154099999999
 30
0.0
 11
825.92909199999986
 21
590.79923599999995
 31
0.0
  0
LINE
  5
4B1
  8
0
 62
     7
 10
823.84532200000001
 20
578.98154099999999
 30
0.0
 11
821.76152000000002
 21
590.79923599999995
 31
0.0
  0
LINE
  5
4B2
  8
0
 62
     7
 10
823.84532200000001
 20
562.98154099999988
 30
0.0
 11
821.76155099999994
 21
551.16384900000003
 31
0.0
  0
LINE
  5
4B3
  8
0
 62
     7
 10
823.84532200000001
 20
562.98154099999988
 30
0.0
 11
825.92909199999986
 21
551.16384900000003
 31
0.0
  0
LINE
  5
4B4
  8
0
 62
     7
 10
823.84532200000001
 20
582.32258999999988
 30
0.0
 11
823.84532200000001
 21
560.32258999999988
 31
0.0
  0
LINE
  5
4B5
  8
0
 62
     7
 10
815.84532200000001
 20
578.98154099999999
 30
0.0
 11
854.77543599999979
 21
578.98154099999999
 31
0.0
  0
LINE
  5
4B6
  8
0
 62
     7
 10
815.84532200000001
 20
562.98154099999988
 30
0.0
 11
854.77543599999979
 21
562.98154099999988
 31
0.0
  0
LINE
  5
4B7
  8
0
 62
     7
 10
997.40002400000003
 20
669.23154099999988
 30
0.0
 11
995.31625399999984
 21
657.4138529999999
 31
0.0
  0
LINE
  5
4B8
  8
0
 62
     7
 10
997.40002400000003
 20
669.23154099999988
 30
0.0
 11
999.48380999999995
 21
657.4138529999999
 31
0.0
  0
LINE
  5
4B9
  8
0
 62
     7
 10
997.40002400000003
 20
527.23154099999999
 30
0.0
 11
999.48379499999987
 21
539.04923199999996
 31
0.0
  0
LINE
  5
4BA
  8
0
 62
     7
 10
997.40002400000003
 20
527.23154099999999
 30
0.0
 11
995.31623800000011
 21
539.04923199999996
 31
0.0
  0
LINE
  5
4BB
  8
0
 62
     7
 10
997.40002400000003
 20
669.23154099999988
 30
0.0
 11
997.40002400000003
 21
527.23154099999999
 31
0.0
  0
LINE
  5
4BC
  8
0
 62
     7
 10
1005.400024
 20
669.23154099999988
 30
0.0
 11
754.2754359999999
 21
669.23152500000003
 31
0.0
  0
LINE
  5
4BD
  8
0
 62
     7
 10
1005.400024
 20
527.23154099999999
 30
0.0
 11
879.2754359999999
 21
527.23153300000001
 31
0.0
  0
LINE
  5
4BE
  8
0
 62
     7
 10
675.20207199999993
 20
661.23154099999988
 30
0.0
 11
673.11833200000001
 21
649.41385300000002
 31
0.0
  0
LINE
  5
4BF
  8
0
 62
     7
 10
675.20207199999993
 20
661.23154099999988
 30
0.0
 11
677.28587300000004
 21
649.41385300000002
 31
0.0
  0
LINE
  5
4C0
  8
0
 62
     7
 10
675.20207199999993
 20
535.23154099999999
 30
0.0
 11
677.28587300000004
 21
547.04923199999996
 31
0.0
  0
LINE
  5
4C1
  8
0
 62
     7
 10
675.20207199999993
 20
535.23154099999999
 30
0.0
 11
673.11827100000005
 21
547.04923199999996
 31
0.0
  0
LINE
  5
4C2
  8
0
 62
     7
 10
675.20207199999993
 20
661.23154099999988
 30
0.0
 11
675.20207199999993
 21
535.23154099999999
 31
0.0
  0
LINE
  5
4C3
  8
0
 62
     7
 10
667.20207199999993
 20
661.23154099999988
 30
0.0
 11
719.77543600000001
 21
661.23154099999988
 31
0.0
  0
LINE
  5
4C4
  8
0
 62
     7
 10
667.20207199999993
 20
535.23154099999999
 30
0.0
 11
719.77543600000001
 21
535.23154099999999
 31
0.0
  0
LINE
  5
4C5
  8
0
 62
     7
 10
970.61196899999993
 20
669.23154099999988
 30
0.0
 11
968.52819799999997
 21
657.4138529999999
 31
0.0
  0
LINE
  5
4C6
  8
0
 62
     7
 10
970.61196899999993
 20
669.23154099999988
 30
0.0
 11
972.69575500000008
 21
657.4138529999999
 31
0.0
  0
LINE
  5
4C7
  8
0
 62
     7
 10
970.61196899999993
 20
598.23154099999988
 30
0.0
 11
972.69573999999989
 21
610.04923599999995
 31
0.0
  0
LINE
  5
4C8
  8
0
 62
     7
 10
970.61196899999993
 20
598.23154099999988
 30
0.0
 11
968.52818300000001
 21
610.04923599999995
 31
0.0
  0
LINE
  5
4C9
  8
0
 62
     7
 10
970.61196899999993
 20
598.23154099999988
 30
0.0
 11
968.52819799999997
 21
586.41384500000004
 31
0.0
  0
LINE
  5
4CA
  8
0
 62
     7
 10
970.61196899999993
 20
598.23154099999988
 30
0.0
 11
972.69575500000008
 21
586.41384500000004
 31
0.0
  0
LINE
  5
4CB
  8
0
 62
     7
 10
970.61196899999993
 20
527.23154099999999
 30
0.0
 11
972.69573999999989
 21
539.04923199999996
 31
0.0
  0
LINE
  5
4CC
  8
0
 62
     7
 10
970.61196899999993
 20
527.23154099999999
 30
0.0
 11
968.52818300000001
 21
539.04923199999996
 31
0.0
  0
LINE
  5
4CD
  8
0
 62
     7
 10
970.61196899999993
 20
669.23154099999988
 30
0.0
 11
970.61196899999993
 21
527.23154099999999
 31
0.0
  0
LINE
  5
4CE
  8
0
 62
     7
 10
978.61196899999993
 20
669.23154099999988
 30
0.0
 11
879.2754359999999
 21
669.23154099999988
 31
0.0
  0
LINE
  5
4CF
  8
0
 62
     7
 10
978.61196899999993
 20
598.23154099999988
 30
0.0
 11
879.2754359999999
 21
598.23153300000001
 31
0.0
  0
LINE
  5
4D0
  8
0
 62
     7
 10
978.61196899999993
 20
527.23154099999999
 30
0.0
 11
879.2754359999999
 21
527.23153300000001
 31
0.0
  0
LINE
  5
4D1
  8
0
 62
     7
 10
950.4629359999999
 20
598.23154099999988
 30
0.0
 11
952.54670700000008
 21
610.04923599999995
 31
0.0
  0
LINE
  5
4D2
  8
0
 62
     7
 10
950.4629359999999
 20
598.23154099999988
 30
0.0
 11
948.37914999999998
 21
610.04923599999995
 31
0.0
  0
LINE
  5
4D3
  8
0
 62
     7
 10
950.4629359999999
 20
570.98154099999999
 30
0.0
 11
948.37916600000005
 21
559.16384900000003
 31
0.0
  0
LINE
  5
4D4
  8
0
 62
     7
 10
950.4629359999999
 20
570.98154099999999
 30
0.0
 11
952.54672200000005
 21
559.16384900000003
 31
0.0
  0
LINE
  5
4D5
  8
0
 62
     7
 10
950.4629359999999
 20
665.23154099999988
 30
0.0
 11
950.4629359999999
 21
570.98154099999999
 31
0.0
  0
LINE
  5
4D6
  8
0
 62
     7
 10
958.4629359999999
 20
598.23154099999988
 30
0.0
 11
903.74635299999977
 21
598.23154099999988
 31
0.0
  0
LINE
  5
4D7
  8
0
 62
     7
 10
958.4629359999999
 20
570.98154099999999
 30
0.0
 11
892.79667699999993
 21
570.981537
 31
0.0
  0
LINE
  5
4D8
  8
0
 62
     7
 10
769.27543600000001
 20
709.66177699999992
 30
0.0
 11
757.45774800000004
 21
711.7455480000001
 31
0.0
  0
LINE
  5
4D9
  8
0
 62
     7
 10
769.27543600000001
 20
709.66177699999992
 30
0.0
 11
757.45774800000004
 21
707.577991
 31
0.0
  0
LINE
  5
4DA
  8
0
 62
     7
 10
814.2754359999999
 20
709.66177699999992
 30
0.0
 11
826.09312399999988
 21
707.577991
 31
0.0
  0
LINE
  5
4DB
  8
0
 62
     7
 10
814.2754359999999
 20
709.66177699999992
 30
0.0
 11
826.09312399999988
 21
711.7455480000001
 31
0.0
  0
LINE
  5
4DC
  8
0
 62
     7
 10
735.27543600000001
 20
709.66176199999995
 30
0.0
 11
814.2754359999999
 21
709.66177699999992
 31
0.0
  0
LINE
  5
4DD
  8
0
 62
     7
 10
769.27543600000001
 20
717.66177699999992
 30
0.0
 11
769.27543600000001
 21
677.41153299999985
 31
0.0
  0
LINE
  5
4DE
  8
0
 62
     7
 10
814.2754359999999
 20
717.66177699999992
 30
0.0
 11
814.2754359999999
 21
677.41153299999985
 31
0.0
  0
LINE
  5
4DF
  8
0
 62
     7
 10
645.615768
 20
670.73154099999988
 30
0.0
 11
643.53196700000001
 21
658.91385300000002
 31
0.0
  0
LINE
  5
4E0
  8
0
 62
     7
 10
645.615768
 20
670.73154099999988
 30
0.0
 11
647.69950900000003
 21
658.91385300000002
 31
0.0
  0
LINE
  5
4E1
  8
0
 62
     7
 10
645.615768
 20
598.23154099999988
 30
0.0
 11
647.69950900000003
 21
610.04923599999995
 31
0.0
  0
LINE
  5
4E2
  8
0
 62
     7
 10
645.615768
 20
598.23154099999988
 30
0.0
 11
643.53196700000001
 21
610.04923599999995
 31
0.0
  0
LINE
  5
4E3
  8
0
 62
     7
 10
645.615768
 20
670.73154099999988
 30
0.0
 11
645.615768
 21
598.23154099999988
 31
0.0
  0
LINE
  5
4E4
  8
0
 62
     7
 10
637.615768
 20
670.73154099999988
 30
0.0
 11
762.59544400000004
 21
670.73154099999988
 31
0.0
  0
LINE
  5
4E5
  8
0
 62
     7
 10
637.615768
 20
598.23154099999988
 30
0.0
 11
681.93254100000001
 21
598.23154099999988
 31
0.0
  0
LINE
  5
4E6
  8
0
 62
     7
 10
791.7754359999999
 20
438.48092999999989
 30
0.0
 11
779.95774800000004
 21
440.56470100000001
 31
0.0
  0
LINE
  5
4E7
  8
0
 62
     7
 10
791.7754359999999
 20
438.48092999999989
 30
0.0
 11
779.95774800000004
 21
436.39715899999999
 31
0.0
  0
LINE
  5
4E8
  8
0
 62
     7
 10
906.59019499999977
 20
438.48092999999989
 30
0.0
 11
918.40791300000001
 21
436.39714400000003
 31
0.0
  0
LINE
  5
4E9
  8
0
 62
     7
 10
906.59019499999977
 20
438.48092999999989
 30
0.0
 11
918.40791300000001
 21
440.56470100000001
 31
0.0
  0
LINE
  5
4EA
  8
0
 62
     7
 10
791.7754359999999
 20
438.48092999999989
 30
0.0
 11
906.59019499999977
 21
438.48092999999989
 31
0.0
  0
LINE
  5
4EB
  8
0
 62
     7
 10
791.7754359999999
 20
430.48093
 30
0.0
 11
791.7754359999999
 21
505.65082199999989
 31
0.0
  0
LINE
  5
4EC
  8
0
 62
     7
 10
906.59022500000003
 20
430.48093
 30
0.0
 11
906.59019499999977
 21
468.34195299999999
 31
0.0
  0
POINT
  5
4ED
  8
0
 62
     7
 10
679.93252527226628
 20
739.32537754646
 30
0.0
  0
POINT
  5
4EE
  8
0
 62
     7
 10
679.93252527226628
 20
735.32537754646
 30
0.0
  0
LINE
  5
4EF
  8
0
 62
     7
 10
681.93252527226639
 20
749.28363754646011
 30
0.0
 11
681.93252527226639
 21
725.36711654646001
 31
0.0
  0
LINE
  5
4F0
  8
0
 62
     7
 10
679.93252527226628
 20
749.28363754646011
 30
0.0
 11
679.93252527226628
 21
725.36711654646001
 31
0.0
  0
LINE
  5
4F1
  8
0
  6
DASHDOT
 62
     7
 10
676.72992227226644
 20
737.32537754646
 30
0.0
 11
685.15614127226638
 21
737.32537754646
 31
0.0
  0
LINE
  5
4F2
  8
0
 62
     7
 10
681.93252527226639
 20
741.00357654645995
 30
0.0
 11
679.93252527226628
 21
739.32537754646
 31
0.0
  0
LINE
  5
4F3
  8
0
 62
     7
 10
679.93252527226628
 20
735.32537754646
 30
0.0
 11
681.93252527226639
 21
733.64717754645994
 31
0.0
  0
LINE
  5
4F4
  8
0
 62
     7
 10
679.93252527226628
 20
727.82537754646
 30
0.0
 11
681.93252527226639
 21
727.82537754646
 31
0.0
  0
CIRCLE
  5
4F5
  8
0
 62
     7
 10
680.93252527226639
 20
737.32537754646
 30
0.0
 40
12.0
  0
LINE
  5
4F6
  8
0
 62
     7
 10
673.93253327226637
 20
732.82537754646
 30
0.0
 11
676.43253327226637
 21
732.82537754646
 31
0.0
  0
LINE
  5
4F7
  8
0
 62
     7
 10
677.43253327226637
 20
741.82537754646
 30
0.0
 11
677.43253327226637
 21
733.82537754646
 31
0.0
  0
LINE
  5
4F8
  8
0
 62
     7
 10
677.43253327226637
 20
741.82537754646
 30
0.0
 11
679.93252527226628
 21
741.82537754646
 31
0.0
  0
LINE
  5
4F9
  8
0
 62
     7
 10
673.93253327226637
 20
730.32537754645989
 30
0.0
 11
676.43253327226637
 21
730.32537754645989
 31
0.0
  0
LINE
  5
4FA
  8
0
 62
     7
 10
672.93253327226637
 20
729.32537754646
 30
0.0
 11
672.93253327226637
 21
728.38109854645995
 31
0.0
  0
ARC
  5
4FB
  8
0
 62
     7
 10
676.43253727226636
 20
733.82537654646001
 30
0.0
 40
0.9999969999999999
 50
269.99984599999988
 51
0.0002549999999957
  0
ARC
  5
4FC
  8
0
 62
     7
 10
673.93254727226645
 20
729.32536454646015
 30
0.0
 40
3.500017999999999
 50
90.000182999999979
 51
153.40876399999991
  0
ARC
  5
4FD
  8
0
 62
     7
 10
673.93248827226626
 20
729.32541854646001
 30
0.0
 40
0.9999499999999999
 50
89.997765000000044
 51
180.0011749999999
  0
ARC
  5
4FE
  8
0
 62
     7
 10
676.43255227226643
 20
733.82534554646008
 30
0.0
 40
3.4999709999999991
 50
269.9996549999999
 51
0.0004190000000559
  0
LINE
  5
4FF
  8
0
 62
     7
 10
660.48686227226642
 20
739.32537754646
 30
0.0
 11
661.00780427226641
 21
742.27979954646003
 31
0.0
  0
LINE
  5
500
  8
0
 62
     7
 10
660.48686227226642
 20
739.32537754646
 30
0.0
 11
659.96591127226634
 21
742.27979954646003
 31
0.0
  0
LINE
  5
501
  8
0
 62
     7
 10
660.48686227226642
 20
735.32537754646
 30
0.0
 11
659.96591127226634
 21
732.3709555464601
 31
0.0
  0
LINE
  5
502
  8
0
 62
     7
 10
660.48686227226642
 20
735.32537754646
 30
0.0
 11
661.00780427226641
 21
732.3709555464601
 31
0.0
  0
LINE
  5
503
  8
0
 62
     7
 10
660.48686227226642
 20
748.73544154646004
 30
0.0
 11
660.48686227226642
 21
735.32537754646
 31
0.0
  0
LINE
  5
504
  8
0
 62
     7
 10
658.48686227226642
 20
739.32537754646
 30
0.0
 11
679.93252527226628
 21
739.32537754646
 31
0.0
  0
LINE
  5
505
  8
0
 62
     7
 10
658.48686227226642
 20
735.32537754646
 30
0.0
 11
679.93252527226628
 21
735.32537754646
 31
0.0
  0
LINE
  5
506
  8
0
 62
     7
 10
695.36844627226628
 20
722.37309854646014
 30
0.0
 11
697.6665802722664
 21
724.30145854646014
 31
0.0
  0
LINE
  5
507
  8
0
 62
     7
 10
695.36844627226628
 20
722.37309854646014
 30
0.0
 11
696.8684462722664
 21
724.97117454646002
 31
0.0
  0
LINE
  5
508
  8
0
 62
     7
 10
695.36844627226628
 20
752.27765554645998
 30
0.0
 11
696.8684462722664
 21
749.6795795464601
 31
0.0
  0
LINE
  5
509
  8
0
 62
     7
 10
695.36844627226628
 20
752.27765554645998
 30
0.0
 11
697.6665802722664
 21
750.3492955464601
 31
0.0
  0
POLYLINE
  5
50A
  8
0
 62
     7
 66
     1
 10
0.0
 20
0.0
 30
0.0
  0
VERTEX
  5
930
  8
0
 62
     7
 10
695.36844627226628
 20
722.37309854646014
 30
0.0
  0
VERTEX
  5
931
  8
0
 62
     7
 10
696.86862927226628
 20
724.36947554645997
 30
0.0
  0
VERTEX
  5
932
  8
0
 62
     7
 10
698.14615627226635
 20
726.51516554646014
 30
0.0
  0
VERTEX
  5
933
  8
0
 62
     7
 10
699.18630927226627
 20
728.78543754646012
 30
0.0
  0
VERTEX
  5
934
  8
0
 62
     7
 10
699.97709627226641
 20
731.15413554646
 30
0.0
  0
VERTEX
  5
935
  8
0
 62
     7
 10
700.50940627226635
 20
733.59395454646005
 30
0.0
  0
VERTEX
  5
936
  8
0
 62
     7
 10
700.77709927226636
 20
736.07677354646012
 30
0.0
  0
VERTEX
  5
937
  8
0
 62
     7
 10
700.77709927226636
 20
738.57398054646012
 30
0.0
  0
VERTEX
  5
938
  8
0
 62
     7
 10
700.50940627226635
 20
741.05680754646005
 30
0.0
  0
VERTEX
  5
939
  8
0
 62
     7
 10
699.97709627226641
 20
743.49661854646001
 30
0.0
  0
VERTEX
  5
93A
  8
0
 62
     7
 10
699.18630927226627
 20
745.86531754646012
 30
0.0
  0
VERTEX
  5
93B
  8
0
 62
     7
 10
698.14615627226635
 20
748.13559554645997
 30
0.0
  0
VERTEX
  5
93C
  8
0
 62
     7
 10
696.86862927226628
 20
750.28128654646002
 30
0.0
  0
VERTEX
  5
93D
  8
0
 62
     7
 10
695.36845327226638
 20
752.27766254646008
 30
0.0
  0
SEQEND
  5
93E
  8
0
 62
     7
  0
LINE
  5
51A
  8
0
 62
     7
 10
696.90053527226644
 20
721.08752354646003
 30
0.0
 11
682.15309827226633
 21
733.46209554645998
 31
0.0
  0
LINE
  5
51B
  8
0
 62
     7
 10
696.90053527226644
 20
753.56323154645997
 30
0.0
 11
682.15309827226633
 21
741.18865854646015
 31
0.0
  0
INSERT
  5
76E
  8
0
  2
BLOCK0
 10
-192.558029
 20
242.36026799999999
 30
0.0
 50
180.0
  0
INSERT
  5
76F
  8
0
  2
BLOCK1
 10
-192.558029
 20
242.36026799999999
 30
0.0
 50
180.0
  0
INSERT
  5
770
  8
0
  2
BLOCK2
 10
-192.558029
 20
242.36026799999999
 30
0.0
 50
180.0
  0
INSERT
  5
771
  8
0
  2
BLOCK3
 10
-192.558029
 20
242.36026799999999
 30
0.0
 50
180.0
  0
INSERT
  5
772
  8
0
  2
BLOCK4
 10
-192.558029
 20
242.36026799999999
 30
0.0
 50
180.0
  0
INSERT
  5
773
  8
0
  2
BLOCK5
 10
-192.558029
 20
242.36026799999999
 30
0.0
 50
180.0
  0
INSERT
  5
774
  8
0
  2
BLOCK6
 10
-192.558029
 20
242.36026799999999
 30
0.0
 50
180.0
  0
INSERT
  5
775
  8
0
  2
BLOCK7
 10
451.56565899999993
 20
600.48154099999988
 30
0.0
 50
180.0
  0
INSERT
  5
776
  8
0
  2
BLOCK8
 10
451.56565899999993
 20
600.48154099999988
 30
0.0
 50
180.0
  0
INSERT
  5
777
  8
0
  2
BLOCK9
 10
451.56565899999993
 20
600.48154099999988
 30
0.0
 50
180.0
  0
INSERT
  5
778
  8
0
  2
BLOCK10
 10
451.56565899999993
 20
600.48154099999988
 30
0.0
 50
180.0
  0
INSERT
  5
779
  8
0
  2
BLOCK11
 10
451.56565899999993
 20
600.48154099999988
 30
0.0
 50
180.0
  0
INSERT
  5
77A
  8
0
  2
BLOCK12
 10
451.56565899999993
 20
600.48154099999988
 30
0.0
 50
180.0
  0
INSERT
  5
77B
  8
0
  2
BLOCK13
 10
451.56565899999993
 20
600.48154099999988
 30
0.0
 50
180.0
  0
INSERT
  5
77C
  8
0
  2
BLOCK14
 10
451.56565899999993
 20
600.48154099999988
 30
0.0
 50
180.0
  0
INSERT
  5
77D
  8
0
  2
BLOCK15
 10
451.56565899999993
 20
600.48154099999988
 30
0.0
 50
180.0
  0
INSERT
  5
77E
  8
0
  2
BLOCK16
 10
451.56565899999993
 20
600.48154099999988
 30
0.0
 50
180.0
  0
INSERT
  5
77F
  8
0
  2
BLOCK17
 10
451.56565899999993
 20
600.48154099999988
 30
0.0
 50
180.0
  0
INSERT
  5
780
  8
0
  2
BLOCK18
 10
24.392377
 20
487.74473299999988
 30
0.0
 50
90.0
  0
INSERT
  5
781
  8
0
  2
BLOCK19
 10
24.392377
 20
487.74473299999988
 30
0.0
 50
90.0
  0
INSERT
  5
782
  8
0
  2
BLOCK20
 10
24.392377
 20
487.74473299999988
 30
0.0
 50
90.0
  0
INSERT
  5
783
  8
0
  2
BLOCK21
 10
24.392377
 20
487.74473299999988
 30
0.0
 50
90.0
  0
INSERT
  5
784
  8
0
  2
BLOCK22
 10
24.392377
 20
487.74473299999988
 30
0.0
 50
90.0
  0
INSERT
  5
785
  8
0
  2
BLOCK23
 10
24.392377
 20
487.74473299999988
 30
0.0
 50
90.0
  0
INSERT
  5
786
  8
0
  2
BLOCK24
 10
24.392377
 20
487.74473299999988
 30
0.0
 50
90.0
  0
INSERT
  5
787
  8
0
  2
BLOCK25
 10
24.392377
 20
487.74473299999988
 30
0.0
 50
90.0
  0
INSERT
  5
788
  8
0
  2
BLOCK26
 10
24.392377
 20
487.74473299999988
 30
0.0
 50
90.0
  0
INSERT
  5
789
  8
0
  2
BLOCK27
 10
24.392377
 20
487.74473299999988
 30
0.0
 50
90.0
  0
INSERT
  5
78A
  8
0
  2
BLOCK28
 10
24.392377
 20
487.74473299999988
 30
0.0
 50
90.0
  0
INSERT
  5
78B
  8
0
  2
BLOCK29
 10
24.392377
 20
487.74473299999988
 30
0.0
 50
90.0
  0
INSERT
  5
78C
  8
0
  2
BLOCK30
 10
24.392377
 20
487.74473299999988
 30
0.0
 50
90.0
  0
INSERT
  5
78D
  8
0
  2
BLOCK31
 10
24.392377
 20
487.74473299999988
 30
0.0
 50
90.0
  0
INSERT
  5
78E
  8
0
  2
BLOCK32
 10
24.392377
 20
487.74473299999988
 30
0.0
 50
90.0
  0
INSERT
  5
78F
  8
0
  2
BLOCK33
 10
24.392377
 20
487.74473299999988
 30
0.0
 50
90.0
  0
INSERT
  5
790
  8
0
  2
BLOCK34
 10
24.392377
 20
487.74473299999988
 30
0.0
 50
90.0
  0
INSERT
  5
791
  8
0
  2
BLOCK35
 10
24.392377
 20
487.74473299999988
 30
0.0
 50
90.0
  0
INSERT
  5
792
  8
0
  2
BLOCK36
 10
24.392377
 20
487.74473299999988
 30
0.0
 50
90.0
  0
INSERT
  5
793
  8
0
  2
BLOCK37
 10
-267.74356499999999
 20
488.24448000000001
 30
0.0
 50
90.0
  0
INSERT
  5
794
  8
0
  2
BLOCK38
 10
-267.74356499999999
 20
488.24448000000001
 30
0.0
 50
90.0
  0
INSERT
  5
795
  8
0
  2
BLOCK39
 10
-267.74356499999999
 20
488.24448000000001
 30
0.0
 50
90.0
  0
INSERT
  5
796
  8
0
  2
BLOCK40
 10
-267.74356499999999
 20
488.24448000000001
 30
0.0
 50
90.0
  0
INSERT
  5
797
  8
0
  2
BLOCK41
 10
-267.74356499999999
 20
488.24448000000001
 30
0.0
 50
90.0
  0
INSERT
  5
798
  8
0
  2
BLOCK42
 10
-267.74356499999999
 20
488.24448000000001
 30
0.0
 50
90.0
  0
INSERT
  5
799
  8
0
  2
BLOCK43
 10
-267.74356499999999
 20
488.24448000000001
 30
0.0
 50
90.0
  0
INSERT
  5
79A
  8
0
  2
BLOCK44
 10
-267.74356499999999
 20
488.24448000000001
 30
0.0
 50
90.0
  0
INSERT
  5
79B
  8
0
  2
BLOCK45
 10
-267.74356499999999
 20
488.24448000000001
 30
0.0
 50
90.0
  0
INSERT
  5
79C
  8
0
  2
BLOCK46
 10
-267.74356499999999
 20
488.24448000000001
 30
0.0
 50
90.0
  0
INSERT
  5
79D
  8
0
  2
BLOCK47
 10
-267.74356499999999
 20
488.24448000000001
 30
0.0
 50
90.0
  0
INSERT
  5
79E
  8
0
  2
BLOCK48
 10
-267.74356499999999
 20
488.24448000000001
 30
0.0
 50
90.0
  0
INSERT
  5
79F
  8
0
  2
BLOCK49
 10
-267.74356499999999
 20
488.24448000000001
 30
0.0
 50
90.0
  0
INSERT
  5
7A0
  8
0
  2
BLOCK50
 10
-267.74356499999999
 20
488.24448000000001
 30
0.0
 50
90.0
  0
INSERT
  5
7A1
  8
0
  2
BLOCK51
 10
-267.74356499999999
 20
488.24448000000001
 30
0.0
 50
90.0
  0
INSERT
  5
7A2
  8
0
  2
BLOCK52
 10
-267.74356499999999
 20
488.24448000000001
 30
0.0
 50
90.0
  0
INSERT
  5
7A3
  8
0
  2
BLOCK53
 10
-267.74356499999999
 20
488.24448000000001
 30
0.0
 50
90.0
  0
INSERT
  5
7A4
  8
0
  2
BLOCK54
 10
-267.74356499999999
 20
488.24448000000001
 30
0.0
 50
90.0
  0
INSERT
  5
7A5
  8
0
  2
BLOCK55
 10
-267.74356499999999
 20
488.24448000000001
 30
0.0
 50
90.0
  0
INSERT
  5
7A6
  8
0
  2
BLOCK56
 10
-267.74356499999999
 20
488.24448000000001
 30
0.0
 50
90.0
  0
INSERT
  5
7A7
  8
0
  2
BLOCK57
 10
-267.74356499999999
 20
488.24448000000001
 30
0.0
 50
90.0
  0
INSERT
  5
7A8
  8
0
  2
BLOCK58
 10
-267.74356499999999
 20
488.24448000000001
 30
0.0
 50
90.0
  0
INSERT
  5
7A9
  8
0
  2
BLOCK59
 10
-267.74356499999999
 20
488.24448000000001
 30
0.0
 50
90.0
  0
INSERT
  5
7AA
  8
0
  2
BLOCK60
 10
-267.74356499999999
 20
488.24448000000001
 30
0.0
 50
90.0
  0
INSERT
  5
7AB
  8
0
  2
BLOCK61
 10
791.7754359999999
 20
600.48154099999988
 30
0.0
 50
270.0
  0
INSERT
  5
7AC
  8
0
  2
BLOCK62
 10
791.7754359999999
 20
600.48154099999988
 30
0.0
 50
270.0
  0
INSERT
  5
7AD
  8
0
  2
BLOCK63
 10
791.7754359999999
 20
600.48154099999988
 30
0.0
 50
270.0
  0
INSERT
  5
7AE
  8
0
  2
BLOCK64
 10
791.7754359999999
 20
600.48154099999988
 30
0.0
 50
270.0
  0
INSERT
  5
7AF
  8
0
  2
BLOCK65
 10
791.7754359999999
 20
600.48154099999988
 30
0.0
 50
270.0
  0
INSERT
  5
7B0
  8
0
  2
BLOCK66
 10
791.7754359999999
 20
600.48154099999988
 30
0.0
 50
270.0
  0
INSERT
  5
7B1
  8
0
  2
BLOCK67
 10
791.7754359999999
 20
600.48154099999988
 30
0.0
 50
270.0
  0
INSERT
  5
7B2
  8
0
  2
BLOCK68
 10
791.7754359999999
 20
600.48154099999988
 30
0.0
 50
270.0
  0
INSERT
  5
7B3
  8
0
  2
BLOCK69
 10
791.7754359999999
 20
600.48154099999988
 30
0.0
 50
270.0
  0
INSERT
  5
7B4
  8
0
  2
BLOCK70
 10
791.7754359999999
 20
600.48154099999988
 30
0.0
 50
270.0
  0
INSERT
  5
7B5
  8
0
  2
BLOCK71
 10
791.7754359999999
 20
600.48154099999988
 30
0.0
 50
270.0
  0
INSERT
  5
7B6
  8
0
  2
BLOCK72
 10
791.7754359999999
 20
600.48154099999988
 30
0.0
 50
270.0
  0
INSERT
  5
7B7
  8
0
  2
BLOCK73
 10
791.7754359999999
 20
600.48154099999988
 30
0.0
 50
270.0
  0
INSERT
  5
7B8
  8
0
  2
BLOCK74
 10
791.7754359999999
 20
600.48154099999988
 30
0.0
 50
270.0
  0
INSERT
  5
7B9
  8
0
  2
BLOCK75
 10
791.7754359999999
 20
600.48154099999988
 30
0.0
 50
270.0
  0
INSERT
  5
7BA
  8
0
  2
BLOCK76
 10
791.7754359999999
 20
600.48154099999988
 30
0.0
 50
270.0
  0
INSERT
  5
7BB
  8
0
  2
BLOCK77
 10
791.7754359999999
 20
600.48154099999988
 30
0.0
 50
270.0
  0
INSERT
  5
7BC
  8
0
  2
BLOCK78
 10
791.7754359999999
 20
600.48154099999988
 30
0.0
 50
270.0
  0
INSERT
  5
7BD
  8
0
  2
BLOCK79
 10
791.7754359999999
 20
600.48154099999988
 30
0.0
 50
270.0
  0
INSERT
  5
7BE
  8
0
  2
BLOCK80
 10
791.7754359999999
 20
600.48154099999988
 30
0.0
 50
270.0
  0
INSERT
  5
7BF
  8
0
  2
BLOCK81
 10
791.7754359999999
 20
600.48154099999988
 30
0.0
 50
270.0
  0
INSERT
  5
7C0
  8
0
  2
BLOCK82
 10
680.93252527226639
 20
737.32537754646
 30
0.0
 50
270.0
  0
INSERT
  5
7C1
  8
0
  2
BLOCK83
 10
680.93252527226639
 20
737.32537754646
 30
0.0
 50
270.0
  0
INSERT
  5
7C2
  8
0
  2
BLOCK84
 10
680.93252527226639
 20
737.32537754646
 30
0.0
 50
270.0
  0
INSERT
  5
7C3
  8
0
  2
BLOCK85
 10
680.93252527226639
 20
737.32537754646
 30
0.0
 50
270.0
  0
VIEWPORT
  5
51C
 67
     1
  8
0
 62
     0
 10
0.0
 20
0.0
 30
0.0
 40
1000.0
 41
1000.0
 68
     1
 69
     1
1001
ACAD
1000
MVIEW
1002
{
1070
    16
1010
0.0
1020
0.0
1030
0.0
1010
0.0
1020
0.0
1030
1.0
1040
0.0
1040
1000.0
1040
0.0
1040
0.0
1040
50.0
1040
0.0
1040
0.0
1070
     0
1070
   100
1070
     1
1070
     1
1070
     0
1070
     0
1070
     0
1070
     0
1040
0.0
1040
0.0
1040
0.0
1040
1.0
1040
1.0
1040
1.0
1040
1.0
1070
     0
1002
{
1002
}
1002
}
  0
ENDSEC
  0
EOF
