  0
SECTION
  2
HEADER
  9
$ACADVER
  1
AC1009
  9
$DWGCODEPAGE
  3
iso8859-1
  9
$INSBASE
 10
0.0
 20
0.0
 30
0.0
  9
$EXTMIN
 10
1.0E20
 20
1.0E20
  9
$EXTMAX
 10
-1.0E20
 20
-1.0E20
  9
$LIMMIN
 10
0.0
 20
0.0
  9
$LIMMAX
 10
12.0
 20
9.0
  9
$ORTHOMODE
 70
     0
  9
$REGENMODE
 70
     1
  9
$FILLMODE
 70
     1
  9
$QTEXTMODE
 70
     0
  9
$MIRRTEXT
 70
     1
  9
$DRAGMODE
 70
     2
  9
$LTSCALE
 40
15.0
  9
$OSMODE
 70
     0
  9
$ATTMODE
 70
     1
  9
$TEXTSIZE
 40
0.2
  9
$TRACEWID
 40
0.05
  9
$TEXTSTYLE
  7
STANDARD
  9
$CLAYER
  8
0
  9
$CELTYPE
  6
DASHED
  9
$CECOLOR
 62
   256
  9
$DIMSCALE
 40
1.0
  9
$DIMASZ
 40
0.18
  9
$DIMEXO
 40
0.0625
  9
$DIMDLI
 40
0.38
  9
$DIMRND
 40
0.0
  9
$DIMDLE
 40
0.0
  9
$DIMEXE
 40
0.18
  9
$DIMTP
 40
0.0
  9
$DIMTM
 40
0.0
  9
$DIMTXT
 40
0.18
  9
$DIMCEN
 40
0.09
  9
$DIMTSZ
 40
0.0
  9
$DIMTOL
 70
     0
  9
$DIMLIM
 70
     0
  9
$DIMTIH
 70
     1
  9
$DIMTOH
 70
     1
  9
$DIMSE1
 70
     0
  9
$DIMSE2
 70
     0
  9
$DIMTAD
 70
     0
  9
$DIMZIN
 70
     0
  9
$DIMBLK
  1

  9
$DIMASO
 70
     1
  9
$DIMSHO
 70
     1
  9
$DIMPOST
  1

  9
$DIMAPOST
  1

  9
$DIMALT
 70
     0
  9
$DIMALTD
 70
     2
  9
$DIMALTF
 40
25.4
  9
$DIMLFAC
 40
1.0
  9
$DIMTOFL
 70
     0
  9
$DIMTVP
 40
0.0
  9
$DIMTIX
 70
     0
  9
$DIMSOXD
 70
     0
  9
$DIMSAH
 70
     0
  9
$DIMBLK1
  1

  9
$DIMBLK2
  1

  9
$DIMSTYLE
  2
STANDARD
  9
$DIMCLRD
 70
     0
  9
$DIMCLRE
 70
     0
  9
$DIMCLRT
 70
     0
  9
$DIMTFAC
 40
1.0
  9
$DIMGAP
 40
0.09
  9
$LUNITS
 70
     2
  9
$LUPREC
 70
     4
  9
$AXISMODE
 70
     0
  9
$AXISUNIT
 10
0.0
 20
0.0
  9
$SKETCHINC
 40
0.1
  9
$FILLETRAD
 40
0.0
  9
$AUNITS
 70
     0
  9
$AUPREC
 70
     0
  9
$MENU
  1
acad
  9
$ELEVATION
 40
0.0
  9
$PELEVATION
 40
0.0
  9
$THICKNESS
 40
0.0
  9
$LIMCHECK
 70
     0
  9
$BLIPMODE
 70
     1
  9
$CHAMFERA
 40
0.0
  9
$CHAMFERB
 40
0.0
  9
$SKPOLY
 70
     0
  9
$TDCREATE
 40
0.000000000
  9
$TDUPDATE
 40
0.000000000
  9
$TDINDWG
 40
0.0
  9
$TDUSRTIMER
 40
0.0
  9
$USRTIMER
 70
     1
  9
$ANGBASE
 50
0.0
  9
$ANGDIR
 70
     0
  9
$PDMODE
 70
     0
  9
$PDSIZE
 40
0.0
  9
$PLINEWID
 40
0.0
  9
$COORDS
 70
     1
  9
$SPLFRAME
 70
     0
  9
$SPLINETYPE
 70
     6
  9
$SPLINESEGS
 70
     8
  9
$ATTDIA
 70
     0
  9
$ATTREQ
 70
     1
  9
$HANDLING
 70
     1
  9
$HANDSEED
  5
   68F
  9
$SURFTAB1
 70
     6
  9
$SURFTAB2
 70
     6
  9
$SURFTYPE
 70
     6
  9
$SURFU
 70
     6
  9
$SURFV
 70
     6
  9
$UCSNAME
  2

  9
$UCSORG
 10
0.0
 20
0.0
 30
0.0
  9
$UCSXDIR
 10
1.0
 20
0.0
 30
0.0
  9
$UCSYDIR
 10
0.0
 20
1.0
 30
0.0
  9
$PUCSNAME
  2

  9
$PUCSORG
 10
0.0
 20
0.0
 30
0.0
  9
$PUCSXDIR
 10
1.0
 20
0.0
 30
0.0
  9
$PUCSYDIR
 10
0.0
 20
1.0
 30
0.0
  9
$USERI1
 70
     0
  9
$USERI2
 70
     0
  9
$USERI3
 70
     0
  9
$USERI4
 70
     0
  9
$USERI5
 70
     0
  9
$USERR1
 40
0.0
  9
$USERR2
 40
0.0
  9
$USERR3
 40
0.0
  9
$USERR4
 40
0.0
  9
$USERR5
 40
0.0
  9
$WORLDVIEW
 70
     1
  9
$SHADEDGE
 70
     3
  9
$SHADEDIF
 70
    70
  9
$TILEMODE
 70
     1
  9
$MAXACTVP
 70
    16
  9
$PINSBASE
 10
0.0
 20
0.0
 30
0.0
  9
$PLIMCHECK
 70
     0
  9
$PEXTMIN
 10
1.0E20
 20
1.0E20
 30
1.0E20
  9
$PEXTMAX
 10
-1.0E20
 20
-1.0E20
 30
-1.0E20
  9
$PLIMMIN
 10
0.0
 20
0.0
  9
$PLIMMAX
 10
12.0
 20
9.0
  9
$UNITMODE
 70
     0
  9
$VISRETAIN
 70
     0
  0
ENDSEC
  0
SECTION
  2
TABLES
  0
TABLE
  2
VPORT
 70
     1
  0
VPORT
  2
*ACTIVE
 70
     0
 10
0.0
 20
0.0
 11
1.0
 21
1.0
 12
6.801242
 22
4.5
 13
0.0
 23
0.0
 14
1.0
 24
1.0
 15
0.0
 25
0.0
 16
0.0
 26
0.0
 36
1.0
 17
0.0
 27
0.0
 37
0.0
 40
9.0
 41
1.511387
 42
50.0
 43
0.0
 44
0.0
 50
0.0
 51
0.0
 71
     0
 72
   100
 73
     1
 74
     1
 75
     0
 76
     0
 77
     0
 78
     0
  0
ENDTAB
  0
TABLE
  2
LTYPE
 70
    41
  0
LTYPE
  2
BYBLOCK
 70
     0
  3

 72
    65
 73
     0
 40
0.0
  0
LTYPE
  2
BYLAYER
 70
     0
  3

 72
    65
 73
     0
 40
0.0
  0
LTYPE
  2
CONTINUOUS
 70
     0
  3
Solid line
 72
    65
 73
     0
 40
0.0
  0
LTYPE
  2
BORDER
 70
    64
  3
__ __ . __ __ . __ __ . __ __ . __ __ . __ __ .
 72
    65
 73
     6
 40
1.75
 49
0.5
 49
-0.25
 49
0.5
 49
-0.25
 49
0.0
 49
-0.25
  0
LTYPE
  2
BORDER2
 70
    64
  3
__.__.__.__.__.__.__.__.__.__.__.__.__.__.__.__
 72
    65
 73
     6
 40
0.875
 49
0.25
 49
-0.125
 49
0.25
 49
-0.125
 49
0.0
 49
-0.125
  0
LTYPE
  2
BORDERX2
 70
    64
  3
____  ____  .  ____  ____  .  ____  ____  .  __
 72
    65
 73
     6
 40
3.5
 49
1.0
 49
-0.5
 49
1.0
 49
-0.5
 49
0.0
 49
-0.5
  0
LTYPE
  2
CENTER
 70
    64
  3
____ _ ____ _ ____ _ ____ _ ____ _ ____ _ ____
 72
    65
 73
     4
 40
2.0
 49
1.25
 49
-0.25
 49
0.25
 49
-0.25
  0
LTYPE
  2
CENTER2
 70
    64
  3
___ _ ___ _ ___ _ ___ _ ___ _ ___ _ ___ _ ___ _
 72
    65
 73
     4
 40
1.125
 49
0.75
 49
-0.125
 49
0.125
 49
-0.125
  0
LTYPE
  2
CENTERX2
 70
    64
  3
________  __  ________  __  ________  __  _____
 72
    65
 73
     4
 40
4.0
 49
2.5
 49
-0.5
 49
0.5
 49
-0.5
  0
LTYPE
  2
DASHDOT
 70
    64
  3
__ . __ . __ . __ . __ . __ . __ . __ . __ . __
 72
    65
 73
     4
 40
1.0
 49
0.5
 49
-0.25
 49
0.0
 49
-0.25
  0
LTYPE
  2
DASHDOT2
 70
    64
  3
_._._._._._._._._._._._._._._._._._._._._._._._
 72
    65
 73
     4
 40
0.5
 49
0.25
 49
-0.125
 49
0.0
 49
-0.125
  0
LTYPE
  2
DASHDOTX2
 70
    64
  3
____  .  ____  .  ____  .  ____  .  ____  .  __
 72
    65
 73
     4
 40
2.0
 49
1.0
 49
-0.5
 49
0.0
 49
-0.5
  0
LTYPE
  2
DASHED
 70
    64
  3
__ __ __ __ __ __ __ __ __ __ __ __ __ __ __ __
 72
    65
 73
     2
 40
0.75
 49
0.5
 49
-0.25
  0
LTYPE
  2
DASHED2
 70
    64
  3
_ _ _ _ _ _ _ _ _ _ _ _ _ _ _ _ _ _ _ _ _ _ _ _
 72
    65
 73
     2
 40
0.375
 49
0.25
 49
-0.125
  0
LTYPE
  2
DASHEDX2
 70
    64
  3
____  ____  ____  ____  ____  ____  ____  ____
 72
    65
 73
     2
 40
1.5
 49
1.0
 49
-0.5
  0
LTYPE
  2
DIVIDE
 70
    64
  3
____ . . ____ . . ____ . . ____ . . ____ . . __
 72
    65
 73
     6
 40
1.25
 49
0.5
 49
-0.25
 49
0.0
 49
-0.25
 49
0.0
 49
-0.25
  0
LTYPE
  2
DIVIDE2
 70
    64
  3
__..__..__..__..__..__..__..__..__..__..__..__.
 72
    65
 73
     6
 40
0.625
 49
0.25
 49
-0.125
 49
0.0
 49
-0.125
 49
0.0
 49
-0.125
  0
LTYPE
  2
DIVIDEX2
 70
    64
  3
________  .  .  ________  .  .  ________  .  .
 72
    65
 73
     6
 40
2.5
 49
1.0
 49
-0.5
 49
0.0
 49
-0.5
 49
0.0
 49
-0.5
  0
LTYPE
  2
DOT
 70
    64
  3
. . . . . . . . . . . . . . . . . . . . . . . .
 72
    65
 73
     2
 40
0.25
 49
0.0
 49
-0.25
  0
LTYPE
  2
DOT2
 70
    64
  3
...............................................
 72
    65
 73
     2
 40
0.125
 49
0.0
 49
-0.125
  0
LTYPE
  2
DOTX2
 70
    64
  3
.  .  .  .  .  .  .  .  .  .  .  .  .  .  .  .
 72
    65
 73
     2
 40
0.5
 49
0.0
 49
-0.5
  0
LTYPE
  2
HIDDEN
 70
    64
  3
__ __ __ __ __ __ __ __ __ __ __ __ __ __ __ __
 72
    65
 73
     2
 40
0.375
 49
0.25
 49
-0.125
  0
LTYPE
  2
HIDDEN2
 70
    64
  3
_ _ _ _ _ _ _ _ _ _ _ _ _ _ _ _ _ _ _ _ _ _ _ _
 72
    65
 73
     2
 40
0.1875
 49
0.125
 49
-0.0625
  0
LTYPE
  2
HIDDENX2
 70
    64
  3
____ ____ ____ ____ ____ ____ ____ ____ ____ __
 72
    65
 73
     2
 40
0.75
 49
0.5
 49
-0.25
  0
LTYPE
  2
PHANTOM
 70
    64
  3
______  __  __  ______  __  __  ______  __  __
 72
    65
 73
     6
 40
2.5
 49
1.25
 49
-0.25
 49
0.25
 49
-0.25
 49
0.25
 49
-0.25
  0
LTYPE
  2
PHANTOM2
 70
    64
  3
___ _ _ ___ _ _ ___ _ _ ___ _ _ ___ _ _ ___ _ _
 72
    65
 73
     6
 40
1.25
 49
0.625
 49
-0.125
 49
0.125
 49
-0.125
 49
0.125
 49
-0.125
  0
LTYPE
  2
PHANTOMX2
 70
    64
  3
____________    ____    ____    ____________
 72
    65
 73
     6
 40
5.0
 49
2.5
 49
-0.5
 49
0.5
 49
-0.5
 49
0.5
 49
-0.5
  0
LTYPE
  2
ACAD_ISO02W100
 70
    64
  3
__ __ __ __ __ __ __ __ __ __ __ __ __ __ __ __
 72
    65
 73
     2
 40
15.0
 49
12.0
 49
-3.0
  0
LTYPE
  2
ACAD_ISO03W100
 70
    64
  3
__    __    __    __    __    __    __    __
 72
    65
 73
     2
 40
30.0
 49
12.0
 49
-18.0
  0
LTYPE
  2
ACAD_ISO04W100
 70
    64
  3
____ . ____ . ____ . ____ . ____ . ____ . ____
 72
    65
 73
     4
 40
30.5
 49
24.0
 49
-3.0
 49
0.5
 49
-3.0
  0
LTYPE
  2
ACAD_ISO05W100
 70
    64
  3
____ .. ____ .. ____ .. ____ .. ____ .. ____ ..
 72
    65
 73
     6
 40
34.0
 49
24.0
 49
-3.0
 49
0.5
 49
-3.0
 49
0.5
 49
-3.0
  0
LTYPE
  2
ACAD_ISO06W100
 70
    64
  3
____ ... ____ ... ____ ... ____ ... ____ ... __
 72
    65
 73
     8
 40
37.5
 49
24.0
 49
-3.0
 49
0.5
 49
-3.0
 49
0.5
 49
-3.0
 49
0.5
 49
-3.0
  0
LTYPE
  2
ACAD_ISO07W100
 70
    64
  3
. . . . . . . . . . . . . . . . . . . . . . . .
 72
    65
 73
     2
 40
3.5
 49
0.5
 49
-3.0
  0
LTYPE
  2
ACAD_ISO08W100
 70
    64
  3
____ __ ____ __ ____ __ ____ ____ __ __ ____ __
 72
    65
 73
     4
 40
36.0
 49
24.0
 49
-3.0
 49
6.0
 49
-3.0
  0
LTYPE
  2
ACAD_ISO09W100
 70
    64
  3
____ __ __ ____ __ __ ____ __ __ ____ __ __ ___
 72
    65
 73
     6
 40
45.0
 49
24.0
 49
-3.0
 49
6.0
 49
-3.0
 49
6.0
 49
-3.0
  0
LTYPE
  2
ACAD_ISO10W100
 70
    64
  3
__ . __ . __ . __ . __ . __ . __ . __ . __ . __
 72
    65
 73
     4
 40
18.5
 49
12.0
 49
-3.0
 49
0.5
 49
-3.0
  0
LTYPE
  2
ACAD_ISO11W100
 70
    64
  3
__ __ . __ __ . __ __ . __ __ . __ __ . __ __ .
 72
    65
 73
     6
 40
33.5
 49
12.0
 49
-3.0
 49
12.0
 49
-3.0
 49
0.5
 49
-3.0
  0
LTYPE
  2
ACAD_ISO12W100
 70
    64
  3
__ . . __ . . __ . . __ . . __ . . __ . . __ .
 72
    65
 73
     6
 40
22.0
 49
12.0
 49
-3.0
 49
0.5
 49
-3.0
 49
0.5
 49
-3.0
  0
LTYPE
  2
ACAD_ISO13W100
 70
    64
  3
__ __ . . __ __ . . __ __ . . __ __ . . __ __ .
 72
    65
 73
     8
 40
37.0
 49
12.0
 49
-3.0
 49
12.0
 49
-3.0
 49
0.5
 49
-3.0
 49
0.5
 49
-3.0
  0
LTYPE
  2
ACAD_ISO14W100
 70
    64
  3
__ . . . __ . . . __ . . . __ . . . __ . . . __
 72
    65
 73
     8
 40
25.5
 49
12.0
 49
-3.0
 49
0.5
 49
-3.0
 49
0.5
 49
-3.0
 49
0.5
 49
-3.0
  0
LTYPE
  2
ACAD_ISO15W100
 70
    64
  3
__ __ . . . __ __ . . . __ __ . . . __ __ . . .
 72
    65
 73
    10
 40
40.5
 49
12.0
 49
-3.0
 49
12.0
 49
-3.0
 49
0.5
 49
-3.0
 49
0.5
 49
-3.0
 49
0.5
 49
-3.0
  0
ENDTAB
  0
TABLE
  2
STYLE
 70
     4
  0
STYLE
  2
STANDARD
 70
    64
 40
0.0
 41
1.0
 50
0.0
 71
     0
 42
0.2
  3
txt
  4

  0
STYLE
  2
TOLERANCE
 70
    64
 40
0.0
 41
1.0
 50
0.0
 71
     0
 42
0.2
  3
../igesfont/iges1003.shx
  4

  0
STYLE
  2
ROMANS
 70
    64
 40
0.0
 41
1.0
 50
0.0
 71
     0
 42
0.2
  3
romans.shx
  4

  0
STYLE
  2
ROMANC
 70
    64
 40
0.0
 41
1.0
 50
0.0
 71
     0
 42
0.2
  3
romanc.shx
  4

  0
ENDTAB
  0
TABLE
  2
DIMSTYLE
 70
     2
  0
DIMSTYLE
  2
UNNAMED
 70
     0
  3

  4

  5

  6

  7

 40
1.0
 41
0.18
 42
0.0625
 43
0.38
 44
0.18
 45
0.0
 46
0.0
 47
0.0
 48
0.0
140
0.18
141
0.09
142
0.0
143
25.4
144
1.0
145
0.0
146
1.0
147
0.09
 71
     0
 72
     0
 73
     1
 74
     1
 75
     0
 76
     0
 77
     0
 78
     0
170
     0
171
     2
172
     0
173
     0
174
     0
175
     0
176
     0
177
     0
178
     0
  0
DIMSTYLE
  2
STANDARD
 70
     0
  3

  4

  5

  6

  7

 40
1.0
 41
0.18
 42
0.0625
 43
0.38
 44
0.18
 45
0.0
 46
0.0
 47
0.0
 48
0.0
140
0.18
141
0.09
142
0.0
143
25.4
144
1.0
145
0.0
146
1.0
147
0.09
 71
     0
 72
     0
 73
     1
 74
     1
 75
     0
 76
     0
 77
     0
 78
     0
170
     0
171
     2
172
     0
173
     0
174
     0
175
     0
176
     0
177
     0
178
     0
  0
ENDTAB
  0
TABLE
  2
LAYER
 70
     2
  0
LAYER
  2
0
 70
     0
 62
     7
  6
CONTINUOUS
  0
LAYER
  2
255
 70
     0
 62
     7
  6
CONTINUOUS
  0
ENDTAB
  0
ENDSEC
  0
SECTION
  2
BLOCKS
  0
BLOCK
  5
     B
  8
0
  6
CONTINUOUS
 62
     5
  2
*UDIM42
 70
    65
 10
0.0
 20
0.0
 30
0.0
  3
*UDIM42
  0
TEXT
  5
     C
  8
0
  6
CONTINUOUS
 62
     5
 10
-681.853168502191
 20
-116.899429410427
 30
0.0
 40
3.00000002980232
  1
105,25
 50
449.999999896069
 41
0.933333333333333
 72
     1
 11
-683.35316850245
 21
-108.79942932725
 31
0.0
 73
     2
  0
LINE
  5
     D
  8
0
  6
CONTINUOUS
 62
     5
 10
-674.523177191499
 20
-95.3681793212891
 30
0.0
 11
-682.853168487549
 21
-95.3681793212891
 31
0.0
  0
LINE
  5
     E
  8
0
  6
CONTINUOUS
 62
     5
 10
-680.853168487549
 20
-95.3681793212891
 30
0.0
 11
-680.853168487549
 21
-121.680679321289
 31
0.0
  0
LINE
  5
     F
  8
0
  6
CONTINUOUS
 62
     5
 10
-680.332224057597
 20
-98.322602598496
 30
0.0
 11
-680.853168487549
 21
-95.3681793212891
 31
0.0
  0
LINE
  5
    10
  8
0
  6
CONTINUOUS
 62
     5
 10
-680.853168487549
 20
-95.3681793212891
 30
0.0
 11
-681.374112917501
 21
-98.322602598496
 31
0.0
  0
LINE
  5
    11
  8
0
  6
CONTINUOUS
 62
     5
 10
-681.374112917501
 20
-118.726256044082
 30
0.0
 11
-680.853168487549
 21
-121.680679321289
 31
0.0
  0
LINE
  5
    12
  8
0
  6
CONTINUOUS
 62
     5
 10
-680.853168487549
 20
-121.680679321289
 30
0.0
 11
-680.332224057597
 21
-118.726256044082
 31
0.0
  0
ENDBLK
  5
    13
  8
0
  6
CONTINUOUS
 62
     5
  0
BLOCK
  5
    14
  8
0
  6
CONTINUOUS
 62
     7
  2
*UDIM43
 70
    65
 10
0.0
 20
0.0
 30
0.0
  3
*UDIM43
  0
TEXT
  5
    15
  8
0
  6
CONTINUOUS
 62
     7
 10
-644.11051752938
 20
-113.506290431269
 30
0.0
 40
3.00000002980232
  1
35
 50
359.999999896069
 41
0.933333333333333
 72
     1
 11
-641.610517501831
 21
-112.00629042089
 31
0.0
 73
     2
  0
LINE
  5
    16
  8
0
  6
CONTINUOUS
 62
     7
 10
-639.110517476996
 20
-114.506290435791
 30
0.0
 11
-665.546508789063
 21
-114.506290435791
 31
0.0
  0
LINE
  5
    17
  8
0
  6
CONTINUOUS
 62
     7
 10
-653.842085511856
 20
-113.985346005839
 30
0.0
 11
-656.796508789063
 21
-114.506290435791
 31
0.0
  0
LINE
  5
    18
  8
0
  6
CONTINUOUS
 62
     7
 10
-656.796508789063
 20
-114.506290435791
 30
0.0
 11
-653.842085511856
 21
-115.027234865743
 31
0.0
  0
LINE
  5
    19
  8
0
  6
CONTINUOUS
 62
     7
 10
-668.50093206627
 20
-115.027234865743
 30
0.0
 11
-665.546508789063
 21
-114.506290435791
 31
0.0
  0
LINE
  5
    1A
  8
0
  6
CONTINUOUS
 62
     7
 10
-665.546508789063
 20
-114.506290435791
 30
0.0
 11
-668.50093206627
 21
-113.985346005839
 31
0.0
  0
ENDBLK
  5
    1B
  8
0
  6
CONTINUOUS
 62
     7
  0
BLOCK
  5
    1C
  8
0
  6
CONTINUOUS
 62
     7
  2
*UDIM44
 70
    65
 10
0.0
 20
0.0
 30
0.0
  3
*UDIM44
  0
TEXT
  5
    1D
  8
0
  6
CONTINUOUS
 62
     7
 10
-644.977178662641
 20
-98.9628534929281
 30
0.0
 40
3.00000002980232
  1
5,5
 50
338.440679311644
 41
0.933333333333333
 72
     1
 11
-640.798835425819
 21
-99.0009079565469
 31
0.0
 73
     2
  0
TEXT
  5
    1E
  8
0
  6
CONTINUOUS
 62
     7
 10
-647.906797164703
 20
-97.8053408601844
 30
0.0
 40
3.00000002980232
  1
Ø
 50
338.440679311644
 41
0.933333333333334
 72
     1
 11
-646.332559277188
 21
-96.8144951899332
 31
0.0
 73
     2
  0
TEXT
  5
    1F
  8
0
  6
CONTINUOUS
 62
     7
 10
-637.211364482539
 20
-102.031180661473
 30
0.0
 40
3.00000002980232
  1
 - M5
 50
338.440679311644
 41
0.933333333333333
 72
     1
 11
-630.42891589641
 21
-103.098135258962
 31
0.0
 73
     2
  0
LINE
  5
    20
  8
0
  6
CONTINUOUS
 62
     7
 10
-625.11632463207
 20
-107.88524033661
 30
0.0
 11
-657.435909650185
 21
-95.1155475956571
 31
0.0
  0
LINE
  5
    21
  8
0
  6
CONTINUOUS
 62
     7
 10
-653.217954651048
 20
-96.221958295881
 30
0.0
 11
-656.15710792794
 21
-95.620811046921
 31
0.0
  0
LINE
  5
    22
  8
0
  6
CONTINUOUS
 62
     7
 10
-656.15710792794
 20
-95.620811046921
 30
0.0
 11
-653.600811641003
 21
-97.1909541274681
 31
0.0
  0
LINE
  5
    23
  8
0
  6
CONTINUOUS
 62
     7
 10
-660.375062927077
 20
-94.5144003466971
 30
0.0
 11
-657.435909650185
 21
-95.1155475956571
 31
0.0
  0
LINE
  5
    24
  8
0
  6
CONTINUOUS
 62
     7
 10
-657.435909650185
 20
-95.1155475956571
 30
0.0
 11
-659.992205937123
 21
-93.54540451511
 31
0.0
  0
ENDBLK
  5
    25
  8
0
  6
CONTINUOUS
 62
     7
  0
BLOCK
  5
    26
  8
0
  6
CONTINUOUS
 62
     7
  2
*UDIM45
 70
    65
 10
0.0
 20
0.0
 30
0.0
  3
*UDIM45
  0
TEXT
  5
    27
  8
0
  6
CONTINUOUS
 62
     7
 10
-689.546939856903
 20
-126.293180807889
 30
0.0
 40
3.00000002980232
  1
214
 50
449.999999896069
 41
0.933333333333333
 72
     1
 11
-691.046939864755
 21
-122.393180766434
 31
0.0
 73
     2
  0
LINE
  5
    28
  8
0
  6
CONTINUOUS
 62
     7
 10
-674.523177191499
 20
-95.3681790073726
 30
0.0
 11
-690.546939849854
 21
-95.3681739772495
 31
0.0
  0
LINE
  5
    29
  8
0
  6
CONTINUOUS
 62
     7
 10
-673.676462237209
 20
-148.868179007373
 30
0.0
 11
-690.546939849854
 21
-148.868173711452
 31
0.0
  0
LINE
  5
    2A
  8
0
  6
CONTINUOUS
 62
     7
 10
-688.546939849854
 20
-95.3681746050825
 30
0.0
 11
-688.546939849854
 21
-148.868174339285
 31
0.0
  0
LINE
  5
    2B
  8
0
  6
CONTINUOUS
 62
     7
 10
-688.025995419902
 20
-98.3225978822895
 30
0.0
 11
-688.546939849854
 21
-95.3681746050825
 31
0.0
  0
LINE
  5
    2C
  8
0
  6
CONTINUOUS
 62
     7
 10
-688.546939849854
 20
-95.3681746050825
 30
0.0
 11
-689.067884279805
 21
-98.3225978822895
 31
0.0
  0
LINE
  5
    2D
  8
0
  6
CONTINUOUS
 62
     7
 10
-689.067884279805
 20
-145.913751062078
 30
0.0
 11
-688.546939849854
 21
-148.868174339285
 31
0.0
  0
LINE
  5
    2E
  8
0
  6
CONTINUOUS
 62
     7
 10
-688.546939849854
 20
-148.868174339285
 30
0.0
 11
-688.025995419902
 21
-145.913751062078
 31
0.0
  0
ENDBLK
  5
    2F
  8
0
  6
CONTINUOUS
 62
     7
  0
BLOCK
  5
    30
  8
0
  6
CONTINUOUS
 62
     7
  2
*HATCH15
 70
    65
 10
0.0
 20
0.0
 30
0.0
  3
*HATCH15
  0
LINE
  5
    31
  8
0
  6
CONTINUOUS
 62
     3
 10
204.218536376953
 20
77.9999618530274
 30
0.0
 11
202.237045288086
 21
76.0184707641602
 31
0.0
  0
LINE
  5
    32
  8
0
  6
CONTINUOUS
 62
     3
 10
206.237045288086
 20
77.8971557617188
 30
0.0
 11
202.237045288086
 21
73.8971557617188
 31
0.0
  0
LINE
  5
    33
  8
0
  6
CONTINUOUS
 62
     3
 10
206.237045288086
 20
75.7758331298828
 30
0.0
 11
202.237045288086
 21
71.7758331298828
 31
0.0
  0
LINE
  5
    34
  8
0
  6
CONTINUOUS
 62
     3
 10
206.237045288086
 20
73.6545104980469
 30
0.0
 11
202.237045288086
 21
69.6545104980469
 31
0.0
  0
LINE
  5
    35
  8
0
  6
CONTINUOUS
 62
     3
 10
206.237045288086
 20
71.5331878662109
 30
0.0
 11
202.237045288086
 21
67.5331878662109
 31
0.0
  0
LINE
  5
    36
  8
0
  6
CONTINUOUS
 62
     3
 10
206.237045288086
 20
69.4118728637695
 30
0.0
 11
202.819671630859
 21
65.994499206543
 31
0.0
  0
LINE
  5
    37
  8
0
  6
CONTINUOUS
 62
     3
 10
206.237045288086
 20
67.2905502319336
 30
0.0
 11
204.279418945313
 21
65.3329238891602
 31
0.0
  0
LINE
  5
    38
  8
0
  6
CONTINUOUS
 62
     3
 10
206.237045288086
 20
65.1692276000977
 30
0.0
 11
205.739166259766
 21
64.6713485717773
 31
0.0
  0
ENDBLK
  5
    39
  8
0
  6
CONTINUOUS
 62
     7
  0
BLOCK
  5
    3A
  8
0
  6
CONTINUOUS
 62
     7
  2
*HATCH16
 70
    65
 10
0.0
 20
0.0
 30
0.0
  3
*HATCH16
  0
LINE
  5
    3B
  8
0
  6
CONTINUOUS
 62
     3
 10
197.431854248047
 20
90.3051605224609
 30
0.0
 11
196.745819091797
 21
89.6191329956055
 31
0.0
  0
LINE
  5
    3C
  8
0
  6
CONTINUOUS
 62
     3
 10
198.492523193359
 20
89.2445068359375
 30
0.0
 11
196.745819091797
 21
87.4978103637695
 31
0.0
  0
LINE
  5
    3D
  8
0
  6
CONTINUOUS
 62
     3
 10
199.553192138672
 20
88.1838531494141
 30
0.0
 11
196.745819091797
 21
85.3764877319336
 31
0.0
  0
LINE
  5
    3E
  8
0
  6
CONTINUOUS
 62
     3
 10
199.737045288086
 20
86.2463912963867
 30
0.0
 11
196.745819091797
 21
83.2551727294922
 31
0.0
  0
LINE
  5
    3F
  8
0
  6
CONTINUOUS
 62
     3
 10
199.737045288086
 20
84.1250762939453
 30
0.0
 11
198.611923217773
 21
82.9999618530274
 31
0.0
  0
ENDBLK
  5
    40
  8
0
  6
CONTINUOUS
 62
     7
  0
BLOCK
  5
    41
  8
0
  6
CONTINUOUS
 62
     7
  2
*HATCH17
 70
    65
 10
0.0
 20
0.0
 30
0.0
  3
*HATCH17
  0
LINE
  5
    42
  8
0
  6
CONTINUOUS
 62
   210
 10
-10.7629547119141
 20
80.7665863037109
 30
0.0
 11
-7.99633836746216
 21
77.9999618530274
 31
0.0
  0
LINE
  5
    43
  8
0
  6
CONTINUOUS
 62
   210
 10
-8.75369358062744
 20
82.9999618530274
 30
0.0
 11
-4.76300573348999
 21
79.0092697143555
 31
0.0
  0
ENDBLK
  5
    44
  8
0
  6
CONTINUOUS
 62
     7
  0
BLOCK
  5
    45
  8
0
  6
CONTINUOUS
 62
     7
  2
*HATCH18
 70
    65
 10
0.0
 20
0.0
 30
0.0
  3
*HATCH18
  0
LINE
  5
    46
  8
0
  6
CONTINUOUS
 62
   210
 10
3.23699402809143
 20
81.6158676147461
 30
0.0
 11
6.8528938293457
 21
77.9999618530274
 31
0.0
  0
LINE
  5
    47
  8
0
  6
CONTINUOUS
 62
   210
 10
6.09554004669189
 20
82.9999618530274
 30
0.0
 11
11.095531463623
 21
77.9999618530274
 31
0.0
  0
LINE
  5
    48
  8
0
  6
CONTINUOUS
 62
   210
 10
10.3381776809692
 20
82.9999618530274
 30
0.0
 11
15.3381690979004
 21
77.9999618530274
 31
0.0
  0
LINE
  5
    49
  8
0
  6
CONTINUOUS
 62
   210
 10
14.5808153152466
 20
82.9999618530274
 30
0.0
 11
19.5808067321777
 21
77.9999618530274
 31
0.0
  0
LINE
  5
    4A
  8
0
  6
CONTINUOUS
 62
   210
 10
18.8234539031982
 20
82.9999618530274
 30
0.0
 11
19.7282676696777
 21
82.0951461791992
 31
0.0
  0
ENDBLK
  5
    4B
  8
0
  6
CONTINUOUS
 62
     7
  0
BLOCK
  5
    4C
  8
0
  6
CONTINUOUS
 62
     7
  2
*HATCH19
 70
    65
 10
0.0
 20
0.0
 30
0.0
  3
*HATCH19
  0
LINE
  5
    4D
  8
0
  6
CONTINUOUS
 62
     3
 10
17.0864696502686
 20
102.999938964844
 30
0.0
 11
15.2370948791504
 21
101.150566101074
 31
0.0
  0
LINE
  5
    4E
  8
0
  6
CONTINUOUS
 62
     3
 10
18.1471290588379
 20
102.999938964844
 30
0.0
 11
14.2369937896729
 21
99.0898056030274
 31
0.0
  0
LINE
  5
    4F
  8
0
  6
CONTINUOUS
 62
     3
 10
18.2369937896729
 20
100.968482971191
 30
0.0
 11
14.2369937896729
 21
96.9684829711914
 31
0.0
  0
LINE
  5
    50
  8
0
  6
CONTINUOUS
 62
     3
 10
18.2369937896729
 20
98.8471603393555
 30
0.0
 11
14.2369937896729
 21
94.8471603393555
 31
0.0
  0
LINE
  5
    51
  8
0
  6
CONTINUOUS
 62
     3
 10
18.2369937896729
 20
96.7258377075195
 30
0.0
 11
14.2369937896729
 21
92.7258377075195
 31
0.0
  0
LINE
  5
    52
  8
0
  6
CONTINUOUS
 62
     3
 10
18.2369937896729
 20
94.6045150756836
 30
0.0
 11
14.2369937896729
 21
90.6045150756836
 31
0.0
  0
LINE
  5
    53
  8
0
  6
CONTINUOUS
 62
     3
 10
18.2369937896729
 20
92.4831924438477
 30
0.0
 11
14.2369937896729
 21
88.4831924438477
 31
0.0
  0
LINE
  5
    54
  8
0
  6
CONTINUOUS
 62
     3
 10
18.2369937896729
 20
90.3618698120117
 30
0.0
 11
14.2369937896729
 21
86.3618698120117
 31
0.0
  0
LINE
  5
    55
  8
0
  6
CONTINUOUS
 62
     3
 10
18.2369937896729
 20
88.2405471801758
 30
0.0
 11
14.2369937896729
 21
84.2405471801758
 31
0.0
  0
LINE
  5
    56
  8
0
  6
CONTINUOUS
 62
     3
 10
18.2369937896729
 20
86.1192398071289
 30
0.0
 11
15.117714881897
 21
82.9999618530274
 31
0.0
  0
LINE
  5
    57
  8
0
  6
CONTINUOUS
 62
     3
 10
18.2369937896729
 20
83.997917175293
 30
0.0
 11
17.23903465271
 21
82.9999618530274
 31
0.0
  0
ENDBLK
  5
    58
  8
0
  6
CONTINUOUS
 62
     7
  0
BLOCK
  5
    59
  8
0
  6
CONTINUOUS
 62
     7
  2
*HATCH20
 70
    65
 10
0.0
 20
0.0
 30
0.0
  3
*HATCH20
  0
LINE
  5
    5A
  8
0
  6
CONTINUOUS
 62
     3
 10
12.2390375137329
 20
77.9999618530274
 30
0.0
 11
10.2369937896729
 21
75.997917175293
 31
0.0
  0
LINE
  5
    5B
  8
0
  6
CONTINUOUS
 62
     3
 10
14.2369937896729
 20
77.8766021728516
 30
0.0
 11
10.2369937896729
 21
73.8766021728516
 31
0.0
  0
LINE
  5
    5C
  8
0
  6
CONTINUOUS
 62
     3
 10
14.2369937896729
 20
75.7552795410156
 30
0.0
 11
10.2369937896729
 21
71.7552795410156
 31
0.0
  0
LINE
  5
    5D
  8
0
  6
CONTINUOUS
 62
     3
 10
14.2369937896729
 20
73.6339569091797
 30
0.0
 11
10.2369937896729
 21
69.6339569091797
 31
0.0
  0
LINE
  5
    5E
  8
0
  6
CONTINUOUS
 62
     3
 10
14.2369937896729
 20
71.5126342773438
 30
0.0
 11
10.2369937896729
 21
67.5126342773438
 31
0.0
  0
LINE
  5
    5F
  8
0
  6
CONTINUOUS
 62
     3
 10
14.2369937896729
 20
69.3913116455078
 30
0.0
 11
10.2369937896729
 21
65.3913116455078
 31
0.0
  0
LINE
  5
    60
  8
0
  6
CONTINUOUS
 62
     3
 10
14.2369937896729
 20
67.2699890136719
 30
0.0
 11
10.2369937896729
 21
63.2699890136719
 31
0.0
  0
LINE
  5
    61
  8
0
  6
CONTINUOUS
 62
     3
 10
14.2369937896729
 20
65.148681640625
 30
0.0
 11
10.8553380966187
 21
61.7670249938965
 31
0.0
  0
LINE
  5
    62
  8
0
  6
CONTINUOUS
 62
     3
 10
14.2369937896729
 20
63.0273590087891
 30
0.0
 11
13.7800302505493
 21
62.5703964233398
 31
0.0
  0
ENDBLK
  5
    63
  8
0
  6
CONTINUOUS
 62
     7
  0
BLOCK
  5
    64
  8
0
  6
CONTINUOUS
 62
     7
  2
*HATCH21
 70
    65
 10
0.0
 20
0.0
 30
0.0
  3
*HATCH21
  0
LINE
  5
    65
  8
0
  6
CONTINUOUS
 62
     3
 10
185.858123779297
 20
-4.00005149841309
 30
0.0
 11
184.480621337891
 21
-5.37755584716797
 31
0.0
  0
LINE
  5
    66
  8
0
  6
CONTINUOUS
 62
     3
 10
187.979446411133
 20
-4.00005149841309
 30
0.0
 11
185.979446411133
 21
-6.00005149841309
 31
0.0
  0
LINE
  5
    67
  8
0
  6
CONTINUOUS
 62
     3
 10
190.10075378418
 20
-4.00005149841309
 30
0.0
 11
188.10075378418
 21
-6.00005149841309
 31
0.0
  0
LINE
  5
    68
  8
0
  6
CONTINUOUS
 62
     3
 10
192.222061157227
 20
-4.00005149841309
 30
0.0
 11
190.222061157227
 21
-6.00005149841309
 31
0.0
  0
LINE
  5
    69
  8
0
  6
CONTINUOUS
 62
     3
 10
194.343368530273
 20
-4.00005149841309
 30
0.0
 11
192.343368530273
 21
-6.00005149841309
 31
0.0
  0
LINE
  5
    6A
  8
0
  6
CONTINUOUS
 62
     3
 10
196.46467590332
 20
-4.00005149841309
 30
0.0
 11
194.46467590332
 21
-6.00005149841309
 31
0.0
  0
LINE
  5
    6B
  8
0
  6
CONTINUOUS
 62
     3
 10
198.585983276367
 20
-4.00005149841309
 30
0.0
 11
196.585983276367
 21
-6.00005149841309
 31
0.0
  0
LINE
  5
    6C
  8
0
  6
CONTINUOUS
 62
     3
 10
200.707290649414
 20
-4.00005149841309
 30
0.0
 11
198.707290649414
 21
-6.00005149841309
 31
0.0
  0
LINE
  5
    6D
  8
0
  6
CONTINUOUS
 62
     3
 10
202.828598022461
 20
-4.00005149841309
 30
0.0
 11
200.828598022461
 21
-6.00005149841309
 31
0.0
  0
LINE
  5
    6E
  8
0
  6
CONTINUOUS
 62
     3
 10
204.949905395508
 20
-4.00005149841309
 30
0.0
 11
202.949905395508
 21
-6.00005149841309
 31
0.0
  0
LINE
  5
    6F
  8
0
  6
CONTINUOUS
 62
     3
 10
207.071212768555
 20
-4.00005149841309
 30
0.0
 11
205.071212768555
 21
-6.00005149841309
 31
0.0
  0
LINE
  5
    70
  8
0
  6
CONTINUOUS
 62
     3
 10
209.192520141602
 20
-4.00005149841309
 30
0.0
 11
207.192520141602
 21
-6.00005149841309
 31
0.0
  0
LINE
  5
    71
  8
0
  6
CONTINUOUS
 62
     3
 10
211.313827514648
 20
-4.00005149841309
 30
0.0
 11
209.313827514648
 21
-6.00005149841309
 31
0.0
  0
LINE
  5
    72
  8
0
  6
CONTINUOUS
 62
     3
 10
213.435134887695
 20
-4.00005149841309
 30
0.0
 11
211.435134887695
 21
-6.00005149841309
 31
0.0
  0
LINE
  5
    73
  8
0
  6
CONTINUOUS
 62
     3
 10
215.556442260742
 20
-4.00005149841309
 30
0.0
 11
213.556442260742
 21
-6.00005149841309
 31
0.0
  0
LINE
  5
    74
  8
0
  6
CONTINUOUS
 62
     3
 10
217.677749633789
 20
-4.00005149841309
 30
0.0
 11
215.677749633789
 21
-6.00005149841309
 31
0.0
  0
LINE
  5
    75
  8
0
  6
CONTINUOUS
 62
     3
 10
219.799057006836
 20
-4.00005149841309
 30
0.0
 11
217.799057006836
 21
-6.00005149841309
 31
0.0
  0
LINE
  5
    76
  8
0
  6
CONTINUOUS
 62
     3
 10
221.920364379883
 20
-4.00005149841309
 30
0.0
 11
219.920364379883
 21
-6.00005149841309
 31
0.0
  0
LINE
  5
    77
  8
0
  6
CONTINUOUS
 62
     3
 10
224.04167175293
 20
-4.00005149841309
 30
0.0
 11
222.04167175293
 21
-6.00005149841309
 31
0.0
  0
LINE
  5
    78
  8
0
  6
CONTINUOUS
 62
     3
 10
226.162979125977
 20
-4.00005149841309
 30
0.0
 11
224.162979125977
 21
-6.00005149841309
 31
0.0
  0
LINE
  5
    79
  8
0
  6
CONTINUOUS
 62
     3
 10
228.284286499023
 20
-4.00005149841309
 30
0.0
 11
226.284286499023
 21
-6.00005149841309
 31
0.0
  0
LINE
  5
    7A
  8
0
  6
CONTINUOUS
 62
     3
 10
230.40559387207
 20
-4.00005149841309
 30
0.0
 11
228.40559387207
 21
-6.00005149841309
 31
0.0
  0
LINE
  5
    7B
  8
0
  6
CONTINUOUS
 62
     3
 10
232.526901245117
 20
-4.00005149841309
 30
0.0
 11
230.526901245117
 21
-6.00005149841309
 31
0.0
  0
LINE
  5
    7C
  8
0
  6
CONTINUOUS
 62
     3
 10
234.648208618164
 20
-4.00005149841309
 30
0.0
 11
232.648208618164
 21
-6.00005149841309
 31
0.0
  0
LINE
  5
    7D
  8
0
  6
CONTINUOUS
 62
     3
 10
236.769515991211
 20
-4.00005149841309
 30
0.0
 11
234.769515991211
 21
-6.00005149841309
 31
0.0
  0
LINE
  5
    7E
  8
0
  6
CONTINUOUS
 62
     3
 10
238.890823364258
 20
-4.00005149841309
 30
0.0
 11
236.890823364258
 21
-6.00005149841309
 31
0.0
  0
LINE
  5
    7F
  8
0
  6
CONTINUOUS
 62
     3
 10
241.012130737305
 20
-4.00005149841309
 30
0.0
 11
239.012130737305
 21
-6.00005149841309
 31
0.0
  0
LINE
  5
    80
  8
0
  6
CONTINUOUS
 62
     3
 10
243.133438110352
 20
-4.00005149841309
 30
0.0
 11
241.133438110352
 21
-6.00005149841309
 31
0.0
  0
LINE
  5
    81
  8
0
  6
CONTINUOUS
 62
     3
 10
245.254745483398
 20
-4.00005149841309
 30
0.0
 11
243.254745483398
 21
-6.00005149841309
 31
0.0
  0
LINE
  5
    82
  8
0
  6
CONTINUOUS
 62
     3
 10
247.376052856445
 20
-4.00005149841309
 30
0.0
 11
245.376052856445
 21
-6.00005149841309
 31
0.0
  0
LINE
  5
    83
  8
0
  6
CONTINUOUS
 62
     3
 10
248.910140991211
 20
-4.58765363693237
 30
0.0
 11
247.497741699219
 21
-6.00005149841309
 31
0.0
  0
LINE
  5
    84
  8
0
  6
CONTINUOUS
 62
     3
 10
249.653274536133
 20
-5.96583604812622
 30
0.0
 11
249.619049072266
 21
-6.00005149841309
 31
0.0
  0
ENDBLK
  5
    85
  8
0
  6
CONTINUOUS
 62
     7
  0
BLOCK
  5
    86
  8
0
  6
CONTINUOUS
 62
     7
  2
*HATCH22
 70
    65
 10
0.0
 20
0.0
 30
0.0
  3
*HATCH22
  0
LINE
  5
    87
  8
0
  6
CONTINUOUS
 62
     3
 10
167.826889038086
 20
-4.00005149841309
 30
0.0
 11
165.980621337891
 21
-5.84633255004883
 31
0.0
  0
LINE
  5
    88
  8
0
  6
CONTINUOUS
 62
     3
 10
169.948211669922
 20
-4.00005149841309
 30
0.0
 11
167.948211669922
 21
-6.00005149841309
 31
0.0
  0
LINE
  5
    89
  8
0
  6
CONTINUOUS
 62
     3
 10
172.069519042969
 20
-4.00005149841309
 30
0.0
 11
170.069519042969
 21
-6.00005149841309
 31
0.0
  0
LINE
  5
    8A
  8
0
  6
CONTINUOUS
 62
     3
 10
174.190826416016
 20
-4.00005149841309
 30
0.0
 11
172.190826416016
 21
-6.00005149841309
 31
0.0
  0
LINE
  5
    8B
  8
0
  6
CONTINUOUS
 62
     3
 10
176.312133789062
 20
-4.00005149841309
 30
0.0
 11
174.312133789063
 21
-6.00005149841309
 31
0.0
  0
LINE
  5
    8C
  8
0
  6
CONTINUOUS
 62
     3
 10
177.480621337891
 20
-4.95293474197388
 30
0.0
 11
176.433502197266
 21
-6.00005149841309
 31
0.0
  0
ENDBLK
  5
    8D
  8
0
  6
CONTINUOUS
 62
     7
  0
BLOCK
  5
    8E
  8
0
  6
CONTINUOUS
 62
     7
  2
*HATCH23
 70
    65
 10
0.0
 20
0.0
 30
0.0
  3
*HATCH23
  0
LINE
  5
    8F
  8
0
  6
CONTINUOUS
 62
     3
 10
43.7296600341797
 20
-4.00005149841309
 30
0.0
 11
42.4806251525879
 21
-5.24908351898193
 31
0.0
  0
LINE
  5
    90
  8
0
  6
CONTINUOUS
 62
     3
 10
45.8509788513184
 20
-4.00005149841309
 30
0.0
 11
43.8509788513184
 21
-6.00005149841309
 31
0.0
  0
LINE
  5
    91
  8
0
  6
CONTINUOUS
 62
     3
 10
47.9723014831543
 20
-4.00005149841309
 30
0.0
 11
45.9723014831543
 21
-6.00005149841309
 31
0.0
  0
LINE
  5
    92
  8
0
  6
CONTINUOUS
 62
     3
 10
50.0936241149902
 20
-4.00005149841309
 30
0.0
 11
48.0936241149902
 21
-6.00005149841309
 31
0.0
  0
LINE
  5
    93
  8
0
  6
CONTINUOUS
 62
     3
 10
52.2149467468262
 20
-4.00005149841309
 30
0.0
 11
50.2149467468262
 21
-6.00005149841309
 31
0.0
  0
LINE
  5
    94
  8
0
  6
CONTINUOUS
 62
     3
 10
53.9806251525879
 20
-4.35568618774414
 30
0.0
 11
52.3362579345703
 21
-6.00005149841309
 31
0.0
  0
ENDBLK
  5
    95
  8
0
  6
CONTINUOUS
 62
     7
  0
BLOCK
  5
    96
  8
0
  6
CONTINUOUS
 62
     7
  2
*HATCH24
 70
    65
 10
0.0
 20
0.0
 30
0.0
  3
*HATCH24
  0
LINE
  5
    97
  8
0
  6
CONTINUOUS
 62
     3
 10
-24.1525974273682
 20
-4.00005149841309
 30
0.0
 11
-25.3908443450928
 21
-5.23830080032349
 31
0.0
  0
LINE
  5
    98
  8
0
  6
CONTINUOUS
 62
     3
 10
-22.0312747955322
 20
-4.00005149841309
 30
0.0
 11
-24.0312747955322
 21
-6.00005149841309
 31
0.0
  0
LINE
  5
    99
  8
0
  6
CONTINUOUS
 62
     3
 10
-19.9099559783936
 20
-4.00005149841309
 30
0.0
 11
-21.9099559783936
 21
-6.00005149841309
 31
0.0
  0
LINE
  5
    9A
  8
0
  6
CONTINUOUS
 62
     3
 10
-17.7886371612549
 20
-4.00005149841309
 30
0.0
 11
-19.7886371612549
 21
-6.00005149841309
 31
0.0
  0
LINE
  5
    9B
  8
0
  6
CONTINUOUS
 62
     3
 10
-15.6673173904419
 20
-4.00005149841309
 30
0.0
 11
-17.6673183441162
 21
-6.00005149841309
 31
0.0
  0
LINE
  5
    9C
  8
0
  6
CONTINUOUS
 62
     3
 10
-13.5459966659546
 20
-4.00005149841309
 30
0.0
 11
-15.5459985733032
 21
-6.00005149841309
 31
0.0
  0
LINE
  5
    9D
  8
0
  6
CONTINUOUS
 62
     3
 10
-11.4246759414673
 20
-4.00005149841309
 30
0.0
 11
-13.4246778488159
 21
-6.00005149841309
 31
0.0
  0
LINE
  5
    9E
  8
0
  6
CONTINUOUS
 62
     3
 10
-9.30335521697998
 20
-4.00005149841309
 30
0.0
 11
-11.3033571243286
 21
-6.00005149841309
 31
0.0
  0
LINE
  5
    9F
  8
0
  6
CONTINUOUS
 62
     3
 10
-7.18203449249268
 20
-4.00005149841309
 30
0.0
 11
-9.18203639984131
 21
-6.00005149841309
 31
0.0
  0
LINE
  5
    A0
  8
0
  6
CONTINUOUS
 62
     3
 10
-5.06071376800537
 20
-4.00005149841309
 30
0.0
 11
-7.060715675354
 21
-6.00005149841309
 31
0.0
  0
LINE
  5
    A1
  8
0
  6
CONTINUOUS
 62
     3
 10
-2.93939328193665
 20
-4.00005149841309
 30
0.0
 11
-4.9393949508667
 21
-6.00005149841309
 31
0.0
  0
LINE
  5
    A2
  8
0
  6
CONTINUOUS
 62
     3
 10
-0.818073034286499
 20
-4.00005149841309
 30
0.0
 11
-2.81807422637939
 21
-6.00005149841309
 31
0.0
  0
LINE
  5
    A3
  8
0
  6
CONTINUOUS
 62
     3
 10
1.30324721336365
 20
-4.00005149841309
 30
0.0
 11
-0.696753740310669
 21
-6.00005149841309
 31
0.0
  0
LINE
  5
    A4
  8
0
  6
CONTINUOUS
 62
     3
 10
3.42456746101379
 20
-4.00005149841309
 30
0.0
 11
1.42456674575806
 21
-6.00005149841309
 31
0.0
  0
LINE
  5
    A5
  8
0
  6
CONTINUOUS
 62
     3
 10
5.54588794708252
 20
-4.00005149841309
 30
0.0
 11
3.54588747024536
 21
-6.00005149841309
 31
0.0
  0
LINE
  5
    A6
  8
0
  6
CONTINUOUS
 62
     3
 10
7.66720867156982
 20
-4.00005149841309
 30
0.0
 11
5.66720819473267
 21
-6.00005149841309
 31
0.0
  0
LINE
  5
    A7
  8
0
  6
CONTINUOUS
 62
     3
 10
9.78852939605713
 20
-4.00005149841309
 30
0.0
 11
7.78852891921997
 21
-6.00005149841309
 31
0.0
  0
LINE
  5
    A8
  8
0
  6
CONTINUOUS
 62
     3
 10
11.9098501205444
 20
-4.00005149841309
 30
0.0
 11
9.90984916687012
 21
-6.00005149841309
 31
0.0
  0
LINE
  5
    A9
  8
0
  6
CONTINUOUS
 62
     3
 10
14.0311708450317
 20
-4.00005149841309
 30
0.0
 11
12.0311698913574
 21
-6.00005149841309
 31
0.0
  0
LINE
  5
    AA
  8
0
  6
CONTINUOUS
 62
     3
 10
16.1524906158447
 20
-4.00005149841309
 30
0.0
 11
14.1524906158447
 21
-6.00005149841309
 31
0.0
  0
LINE
  5
    AB
  8
0
  6
CONTINUOUS
 62
     3
 10
18.2738094329834
 20
-4.00005149841309
 30
0.0
 11
16.273811340332
 21
-6.00005149841309
 31
0.0
  0
LINE
  5
    AC
  8
0
  6
CONTINUOUS
 62
     3
 10
20.3951282501221
 20
-4.00005149841309
 30
0.0
 11
18.3951301574707
 21
-6.00005149841309
 31
0.0
  0
LINE
  5
    AD
  8
0
  6
CONTINUOUS
 62
     3
 10
22.5164470672607
 20
-4.00005149841309
 30
0.0
 11
20.5164489746094
 21
-6.00005149841309
 31
0.0
  0
LINE
  5
    AE
  8
0
  6
CONTINUOUS
 62
     3
 10
24.6377658843994
 20
-4.00005149841309
 30
0.0
 11
22.637767791748
 21
-6.00005149841309
 31
0.0
  0
LINE
  5
    AF
  8
0
  6
CONTINUOUS
 62
     3
 10
26.7590847015381
 20
-4.00005149841309
 30
0.0
 11
24.7590866088867
 21
-6.00005149841309
 31
0.0
  0
LINE
  5
    B0
  8
0
  6
CONTINUOUS
 62
     3
 10
28.8804035186768
 20
-4.00005149841309
 30
0.0
 11
26.8804054260254
 21
-6.00005149841309
 31
0.0
  0
LINE
  5
    B1
  8
0
  6
CONTINUOUS
 62
     3
 10
31.0017223358154
 20
-4.00005149841309
 30
0.0
 11
29.0017242431641
 21
-6.00005149841309
 31
0.0
  0
LINE
  5
    B2
  8
0
  6
CONTINUOUS
 62
     3
 10
33.1230430603027
 20
-4.00005149841309
 30
0.0
 11
31.1230430603027
 21
-6.00005149841309
 31
0.0
  0
LINE
  5
    B3
  8
0
  6
CONTINUOUS
 62
     3
 10
35.2443656921387
 20
-4.00005149841309
 30
0.0
 11
33.2443656921387
 21
-6.00005149841309
 31
0.0
  0
LINE
  5
    B4
  8
0
  6
CONTINUOUS
 62
     3
 10
35.4806251525879
 20
-5.88512229919434
 30
0.0
 11
35.3656959533691
 21
-6.00005149841309
 31
0.0
  0
ENDBLK
  5
    B5
  8
0
  6
CONTINUOUS
 62
     7
  0
BLOCK
  5
    B6
  8
0
  6
CONTINUOUS
 62
     2
  2
*HATCH25
 70
    65
 10
0.0
 20
0.0
 30
0.0
  3
*HATCH25
  0
LINE
  5
    B7
  8
0
  6
CONTINUOUS
 62
   210
 10
225.128433227539
 20
82.9999618530274
 30
0.0
 11
221.237091064453
 21
79.1086196899414
 31
0.0
  0
LINE
  5
    B8
  8
0
  6
CONTINUOUS
 62
   210
 10
227.237045288086
 20
80.8659286499024
 30
0.0
 11
225.371078491211
 21
78.9999618530273
 31
0.0
  0
ENDBLK
  5
    B9
  8
0
  6
CONTINUOUS
 62
     2
  0
BLOCK
  5
    BA
  8
0
  6
CONTINUOUS
 62
     2
  2
*HATCH26
 70
    65
 10
0.0
 20
0.0
 30
0.0
  3
*HATCH26
  0
LINE
  5
    BB
  8
0
  6
CONTINUOUS
 62
   210
 10
199.672592163086
 20
82.9999618530274
 30
0.0
 11
196.745819091797
 21
80.0731887817383
 31
0.0
  0
LINE
  5
    BC
  8
0
  6
CONTINUOUS
 62
   210
 10
203.915237426758
 20
82.9999618530274
 30
0.0
 11
198.915237426758
 21
77.9999618530274
 31
0.0
  0
LINE
  5
    BD
  8
0
  6
CONTINUOUS
 62
   210
 10
208.15788269043
 20
82.9999618530274
 30
0.0
 11
203.15788269043
 21
77.9999618530274
 31
0.0
  0
LINE
  5
    BE
  8
0
  6
CONTINUOUS
 62
   210
 10
212.400512695313
 20
82.9999618530274
 30
0.0
 11
208.400512695313
 21
78.9999618530273
 31
0.0
  0
LINE
  5
    BF
  8
0
  6
CONTINUOUS
 62
   210
 10
213.237091064453
 20
79.5939025878906
 30
0.0
 11
212.643157958984
 21
78.9999618530273
 31
0.0
  0
ENDBLK
  5
    C0
  8
0
  6
CONTINUOUS
 62
     2
  0
BLOCK
  5
    C1
  8
0
  6
CONTINUOUS
 62
     2
  2
*HATCH27
 70
    65
 10
0.0
 20
0.0
 30
0.0
  3
*HATCH27
  0
LINE
  5
    C2
  8
0
  6
CONTINUOUS
 62
   210
 10
207.237091064453
 20
74.8984298706055
 30
0.0
 11
210.135559082031
 21
71.9999618530273
 31
0.0
  0
LINE
  5
    C3
  8
0
  6
CONTINUOUS
 62
   210
 10
208.378204345703
 20
77.9999618530274
 30
0.0
 11
212.987091064453
 21
73.3910598754883
 31
0.0
  0
LINE
  5
    C4
  8
0
  6
CONTINUOUS
 62
   210
 10
212.620849609375
 20
77.9999618530274
 30
0.0
 11
212.987091064453
 21
77.6337051391602
 31
0.0
  0
ENDBLK
  5
    C5
  8
0
  6
CONTINUOUS
 62
     2
  0
BLOCK
  5
    C6
  8
0
  6
CONTINUOUS
 62
     2
  2
*HATCH28
 70
    65
 10
0.0
 20
0.0
 30
0.0
  3
*HATCH28
  0
LINE
  5
    C7
  8
0
  6
CONTINUOUS
 62
   210
 10
221.487091064453
 20
75.4976654052734
 30
0.0
 11
224.984786987305
 21
71.9999618530273
 31
0.0
  0
LINE
  5
    C8
  8
0
  6
CONTINUOUS
 62
   210
 10
223.227432250977
 20
77.9999618530274
 30
0.0
 11
229.227432250977
 21
71.9999618530273
 31
0.0
  0
LINE
  5
    C9
  8
0
  6
CONTINUOUS
 62
   210
 10
227.470077514648
 20
77.9999618530274
 30
0.0
 11
233.470077514648
 21
71.9999618530273
 31
0.0
  0
LINE
  5
    CA
  8
0
  6
CONTINUOUS
 62
   210
 10
231.71272277832
 20
77.9999618530274
 30
0.0
 11
237.71272277832
 21
71.9999618530273
 31
0.0
  0
LINE
  5
    CB
  8
0
  6
CONTINUOUS
 62
   210
 10
235.955368041992
 20
77.9999618530274
 30
0.0
 11
241.955368041992
 21
71.9999618530273
 31
0.0
  0
LINE
  5
    CC
  8
0
  6
CONTINUOUS
 62
   210
 10
240.198013305664
 20
77.9999618530274
 30
0.0
 11
246.198013305664
 21
71.9999618530273
 31
0.0
  0
LINE
  5
    CD
  8
0
  6
CONTINUOUS
 62
   210
 10
244.440628051758
 20
77.9999618530274
 30
0.0
 11
246.487091064453
 21
75.9534912109375
 31
0.0
  0
ENDBLK
  5
    CE
  8
0
  6
CONTINUOUS
 62
     2
  0
BLOCK
  5
    CF
  8
0
  6
CONTINUOUS
 62
     2
  2
*HATCH29
 70
    65
 10
0.0
 20
0.0
 30
0.0
  3
*HATCH29
  0
LINE
  5
    D0
  8
0
  6
CONTINUOUS
 62
   210
 10
254.987091064453
 20
75.9387664794922
 30
0.0
 11
258.925872802734
 21
71.9999618530273
 31
0.0
  0
LINE
  5
    D1
  8
0
  6
CONTINUOUS
 62
   210
 10
257.168548583984
 20
77.9999618530274
 30
0.0
 11
263.168518066406
 21
71.9999618530273
 31
0.0
  0
LINE
  5
    D2
  8
0
  6
CONTINUOUS
 62
   210
 10
261.411163330078
 20
77.9999618530274
 30
0.0
 11
263.237091064453
 21
76.1740417480469
 31
0.0
  0
ENDBLK
  5
    D3
  8
0
  6
CONTINUOUS
 62
     2
  0
BLOCK
  5
    D4
  8
0
  6
CONTINUOUS
 62
     7
  2
PROLUNGATI
 70
    64
 10
0.0
 20
0.0
 30
0.0
  3
PROLUNGATI
  0
LINE
  5
    D5
  8
0
  6
CONTINUOUS
 62
     3
 10
-0.999999995575894
 20
20.5000305395807
 30
0.0
 11
4.42410552636829E-9
 21
20.5000457983697
 31
0.0
  0
LINE
  5
    D6
  8
0
  6
CONTINUOUS
 62
     3
 10
1.10387083651631E-6
 20
20.500041095613
 30
0.0
 11
1.0000010696423
 21
19.5000411298415
 31
0.0
  0
LINE
  5
    D7
  8
0
  6
CONTINUOUS
 62
     3
 10
1.0
 20
18.0000457763672
 30
0.0
 11
1.0
 21
19.5000457763672
 31
0.0
  0
LINE
  5
    D8
  8
0
  6
CONTINUOUS
 62
     3
 10
-0.999999998894022
 20
18.000030523006
 30
0.0
 11
1.00000000110598
 21
18.0000457817951
 31
0.0
  0
LINE
  5
    D9
  8
0
  6
CONTINUOUS
 62
     3
 10
-1.00000000000001
 20
18.0
 30
0.0
 11
0.99999999999999
 21
18.0
 31
0.0
  0
LINE
  5
    DA
  8
0
  6
CONTINUOUS
 62
     3
 10
-0.5
 20
-8.5
 30
0.0
 11
-0.5
 21
8.5
 31
0.0
  0
LINE
  5
    DB
  8
0
  6
CONTINUOUS
 62
     3
 10
-4.25000286102296
 20
11.5
 30
0.0
 11
-1.00000000000001
 21
11.5
 31
0.0
  0
LINE
  5
    DC
  8
0
  6
CONTINUOUS
 62
     3
 10
-1.0
 20
11.5
 30
0.0
 11
-1.0
 21
18.0
 31
0.0
  0
LINE
  5
    DD
  8
0
  6
CONTINUOUS
 62
     3
 10
-16.5
 20
-10.0
 30
0.0
 11
-15.0
 21
-10.0
 31
0.0
  0
LINE
  5
    DE
  8
0
  6
CONTINUOUS
 62
     3
 10
-16.5
 20
-10.0000152587891
 30
0.0
 11
-15.0
 21
-10.0000152587891
 31
0.0
  0
LINE
  5
    DF
  8
0
  6
CONTINUOUS
 62
     3
 10
-16.5
 20
20.5000152587891
 30
0.0
 11
-1.00000000000001
 21
20.5000152587891
 31
0.0
  0
LINE
  5
    E0
  8
0
  6
CONTINUOUS
 62
     3
 10
-16.5
 20
-10.0
 30
0.0
 11
-16.5
 21
20.5000152587891
 31
0.0
  0
LINE
  5
    E1
  8
0
  6
CONTINUOUS
 62
     3
 10
-1.0
 20
18.0000152587891
 30
0.0
 11
-1.0
 21
20.5000152587891
 31
0.0
  0
LINE
  5
    E2
  8
0
  6
CONTINUOUS
 62
     3
 10
-2.00000000000001
 20
14.8000183105469
 30
0.0
 11
-1.00000000000001
 21
14.8000183105469
 31
0.0
  0
LINE
  5
    E3
  8
0
  6
CONTINUOUS
 62
     3
 10
-2.39999850008332
 20
15.2000076486687
 30
0.0
 11
-1.99999886783133
 21
14.8000137483419
 31
0.0
  0
LINE
  5
    E4
  8
0
  6
CONTINUOUS
 62
     3
 10
-14.9999995594845
 20
-10.0000004523688
 30
0.0
 11
-0.999999868097963
 21
18.0000157236966
 31
0.0
  0
LINE
  5
    E5
  8
0
  6
CONTINUOUS
 62
   210
 10
0.0
 20
-6.5
 30
0.0
 11
0.0
 21
6.5
 31
0.0
  0
LINE
  5
    E6
  8
0
  6
CONTINUOUS
 62
     3
 10
-14.2500057220459
 20
-8.5
 30
0.0
 11
-0.500000000000011
 21
-8.5
 31
0.0
  0
LINE
  5
    E7
  8
0
  6
CONTINUOUS
 62
     3
 10
-5.75000476837159
 20
8.5
 30
0.0
 11
-0.50000000000001
 21
8.5
 31
0.0
  0
LINE
  5
    E8
  8
0
  6
CONTINUOUS
 62
     3
 10
-16.5
 20
19.5000152587891
 30
0.0
 11
-1.00000000000001
 21
19.5000152587891
 31
0.0
  0
LINE
  5
    E9
  8
0
  6
CONTINUOUS
 62
     3
 10
-16.5
 20
-8.99998474121094
 30
0.0
 11
-14.5
 21
-8.99998474121094
 31
0.0
  0
LINE
  5
    EA
  8
0
  6
CONTINUOUS
 62
   210
 10
-0.500000000000011
 20
6.5
 30
0.0
 11
-1.05356783140903E-14
 21
6.5
 31
0.0
  0
LINE
  5
    EB
  8
0
  6
CONTINUOUS
 62
   210
 10
-0.500000000000011
 20
-6.5
 30
0.0
 11
-1.13316987335361E-14
 21
-6.5
 31
0.0
  0
POINT
  5
    EC
  8
0
  6
CONTINUOUS
 62
     7
 10
-1.0
 20
20.5000305395806
 30
0.0
  0
POINT
  5
    ED
  8
0
  6
CONTINUOUS
 62
     7
 10
-1.0
 20
20.5000305395806
 30
0.0
  0
POINT
  5
    EE
  8
0
  6
CONTINUOUS
 62
     7
 10
0.0
 20
0.0
 30
0.0
  0
ENDBLK
  5
    EF
  8
0
  6
CONTINUOUS
 62
     7
  0
BLOCK
  5
    F0
  8
0
  6
CONTINUOUS
 62
     7
  2
*UDIM46
 70
    65
 10
0.0
 20
0.0
 30
0.0
  3
*UDIM46
  0
TEXT
  5
    F1
  8
0
  6
CONTINUOUS
 62
     7
 10
-576.35459900002
 20
-64.275139608433
 30
0.0
 40
3.00000002980232
  1
8
 50
89.9999999480344
 41
0.933333333333334
 72
     1
 11
-577.854599013925
 21
-63.1751395961469
 31
0.0
 73
     2
  0
TEXT
  5
    F2
  8
0
  6
CONTINUOUS
 62
     7
 10
-576.35459900002
 20
-67.025139642209
 30
0.0
 40
3.00000002980232
  1
M
 50
89.9999999480344
 41
0.933333333333334
 72
     1
 11
-577.854599013925
 21
-65.9251396299229
 31
0.0
 73
     2
  0
LINE
  5
    F3
  8
0
  6
CONTINUOUS
 62
     7
 10
-550.500226245274
 20
-58.5251399776167
 30
0.0
 11
-577.354598999024
 21
-58.5251399776167
 31
0.0
  0
LINE
  5
    F4
  8
0
  6
CONTINUOUS
 62
     7
 10
-550.500226245274
 20
-54.5251399776167
 30
0.0
 11
-577.354598999024
 21
-54.5251399776167
 31
0.0
  0
LINE
  5
    F5
  8
0
  6
CONTINUOUS
 62
     7
 10
-575.354598999024
 20
-67.0251396408504
 30
0.0
 11
-575.354598999024
 21
-54.5251399776167
 31
0.0
  0
LINE
  5
    F6
  8
0
  6
CONTINUOUS
 62
     7
 10
-574.833654569072
 20
-61.4795632548236
 30
0.0
 11
-575.354598999024
 21
-58.5251399776167
 31
0.0
  0
LINE
  5
    F7
  8
0
  6
CONTINUOUS
 62
     7
 10
-575.354598999024
 20
-58.5251399776167
 30
0.0
 11
-575.875543428975
 21
-61.4795632548236
 31
0.0
  0
LINE
  5
    F8
  8
0
  6
CONTINUOUS
 62
     7
 10
-575.875543428975
 20
-51.5707167004097
 30
0.0
 11
-575.354598999024
 21
-54.5251399776167
 31
0.0
  0
LINE
  5
    F9
  8
0
  6
CONTINUOUS
 62
     7
 10
-575.354598999024
 20
-54.5251399776167
 30
0.0
 11
-574.833654569072
 21
-51.5707167004097
 31
0.0
  0
ENDBLK
  5
    FA
  8
0
  6
CONTINUOUS
 62
     7
  0
BLOCK
  5
    FB
  8
0
  6
CONTINUOUS
 62
     7
  2
*UDIM47
 70
    65
 10
0.0
 20
0.0
 30
0.0
  3
*UDIM47
  0
TEXT
  5
    FC
  8
0
  6
CONTINUOUS
 62
     7
 10
-543.000224922411
 20
87.7954292307285
 30
0.0
 40
3.00000002980232
  1
6
 50
359.999999948034
 41
0.933333333333334
 72
     1
 11
-541.90022491013
 21
89.2954292446375
 31
0.0
 73
     2
  0
LINE
  5
    FD
  8
0
  6
CONTINUOUS
 62
     7
 10
-546.000226245274
 20
76.4748600223834
 30
0.0
 11
-546.000226245274
 21
88.7954292297363
 31
0.0
  0
LINE
  5
    FE
  8
0
  6
CONTINUOUS
 62
     7
 10
-549.000226245274
 20
76.4748600223834
 30
0.0
 11
-549.000226245274
 21
88.7954292297363
 31
0.0
  0
LINE
  5
    FF
  8
0
  6
CONTINUOUS
 62
     7
 10
-540.800224899203
 20
86.7954292297363
 30
0.0
 11
-549.000226245274
 21
86.7954292297363
 31
0.0
  0
LINE
  5
   100
  8
0
  6
CONTINUOUS
 62
     7
 10
-543.045802968067
 20
87.316373659688
 30
0.0
 11
-546.000226245274
 21
86.7954292297363
 31
0.0
  0
LINE
  5
   101
  8
0
  6
CONTINUOUS
 62
     7
 10
-546.000226245274
 20
86.7954292297363
 30
0.0
 11
-543.045802968067
 21
86.2744847997847
 31
0.0
  0
LINE
  5
   102
  8
0
  6
CONTINUOUS
 62
     7
 10
-551.954649522481
 20
86.2744847997847
 30
0.0
 11
-549.000226245274
 21
86.7954292297363
 31
0.0
  0
LINE
  5
   103
  8
0
  6
CONTINUOUS
 62
     7
 10
-549.000226245274
 20
86.7954292297363
 30
0.0
 11
-551.954649522481
 21
87.316373659688
 31
0.0
  0
ENDBLK
  5
   104
  8
0
  6
CONTINUOUS
 62
     7
  0
BLOCK
  5
   105
  8
0
  6
CONTINUOUS
 62
     7
  2
*UDIM48
 70
    65
 10
0.0
 20
0.0
 30
0.0
  3
*UDIM48
  0
TEXT
  5
   106
  8
0
  6
CONTINUOUS
 62
     7
 10
-558.025221277611
 20
87.7954292319912
 30
0.0
 40
3.00000002980232
  1
25
 50
359.999999948034
 41
0.933333333333333
 72
     1
 11
-555.525221251423
 21
89.2954292446375
 31
0.0
 73
     2
  0
LINE
  5
   107
  8
0
  6
CONTINUOUS
 62
     7
 10
-561.500213623047
 20
71.0309395935955
 30
0.0
 11
-561.500213623047
 21
88.7954292297363
 31
0.0
  0
LINE
  5
   108
  8
0
  6
CONTINUOUS
 62
     7
 10
-549.000226245274
 20
86.7954292297363
 30
0.0
 11
-561.500213623047
 21
86.7954292297363
 31
0.0
  0
LINE
  5
   109
  8
0
  6
CONTINUOUS
 62
     7
 10
-551.954649522481
 20
86.2744847997847
 30
0.0
 11
-549.000226245274
 21
86.7954292297363
 31
0.0
  0
LINE
  5
   10A
  8
0
  6
CONTINUOUS
 62
     7
 10
-549.000226245274
 20
86.7954292297363
 30
0.0
 11
-551.954649522481
 21
87.316373659688
 31
0.0
  0
LINE
  5
   10B
  8
0
  6
CONTINUOUS
 62
     7
 10
-558.54579034584
 20
87.316373659688
 30
0.0
 11
-561.500213623047
 21
86.7954292297363
 31
0.0
  0
LINE
  5
   10C
  8
0
  6
CONTINUOUS
 62
     7
 10
-561.500213623047
 20
86.7954292297363
 30
0.0
 11
-558.54579034584
 21
86.2744847997847
 31
0.0
  0
ENDBLK
  5
   10D
  8
0
  6
CONTINUOUS
 62
     7
  0
BLOCK
  5
   10E
  8
0
  6
CONTINUOUS
 62
     7
  2
*UDIM49
 70
    65
 10
0.0
 20
0.0
 30
0.0
  3
*UDIM49
  0
TEXT
  5
   10F
  8
0
  6
CONTINUOUS
 62
     7
 10
-576.206489567789
 20
54.7797858392694
 30
0.0
 40
3.00000002980232
  1
33,5
 50
89.9999999480344
 41
0.933333333333333
 72
     1
 11
-577.70648957789
 21
60.0797858932787
 31
0.0
 73
     2
  0
LINE
  5
   110
  8
0
  6
CONTINUOUS
 62
     7
 10
-556.214896822562
 20
52.4748600223834
 30
0.0
 11
-577.206489562988
 21
52.4748600223834
 31
0.0
  0
LINE
  5
   111
  8
0
  6
CONTINUOUS
 62
     7
 10
-551.9713251586
 20
69.2248600223834
 30
0.0
 11
-577.206489562988
 21
69.2248600223834
 31
0.0
  0
LINE
  5
   112
  8
0
  6
CONTINUOUS
 62
     7
 10
-575.206489562988
 20
52.4748600223834
 30
0.0
 11
-575.206489562988
 21
69.2248600223834
 31
0.0
  0
LINE
  5
   113
  8
0
  6
CONTINUOUS
 62
     7
 10
-575.72743399294
 20
55.4292832995903
 30
0.0
 11
-575.206489562988
 21
52.4748600223834
 31
0.0
  0
LINE
  5
   114
  8
0
  6
CONTINUOUS
 62
     7
 10
-575.206489562988
 20
52.4748600223834
 30
0.0
 11
-574.685545133037
 21
55.4292832995903
 31
0.0
  0
LINE
  5
   115
  8
0
  6
CONTINUOUS
 62
     7
 10
-574.685545133037
 20
66.2704367451764
 30
0.0
 11
-575.206489562988
 21
69.2248600223834
 31
0.0
  0
LINE
  5
   116
  8
0
  6
CONTINUOUS
 62
     7
 10
-575.206489562988
 20
69.2248600223834
 30
0.0
 11
-575.72743399294
 21
66.2704367451764
 31
0.0
  0
ENDBLK
  5
   117
  8
0
  6
CONTINUOUS
 62
     7
  0
BLOCK
  5
   118
  8
0
  6
CONTINUOUS
 62
     7
  2
*UDIM50
 70
    65
 10
0.0
 20
0.0
 30
0.0
  3
*UDIM50
  0
TEXT
  5
   119
  8
0
  6
CONTINUOUS
 62
     7
 10
-576.206489567789
 20
78.3998574888208
 30
0.0
 40
3.00000002980232
  1
12,5
 50
89.9999999480344
 41
0.933333333333333
 72
     1
 11
-577.70648957789
 21
83.6998575428301
 31
0.0
 73
     2
  0
LINE
  5
   11A
  8
0
  6
CONTINUOUS
 62
     7
 10
-550.000226245274
 20
75.4748600223834
 30
0.0
 11
-577.206489562988
 21
75.4748600223834
 31
0.0
  0
LINE
  5
   11B
  8
0
  6
CONTINUOUS
 62
     7
 10
-575.206489562988
 20
69.2248600223834
 30
0.0
 11
-575.206489562988
 21
88.9998575954809
 31
0.0
  0
LINE
  5
   11C
  8
0
  6
CONTINUOUS
 62
     7
 10
-575.72743399294
 20
72.1792832995903
 30
0.0
 11
-575.206489562988
 21
69.2248600223834
 31
0.0
  0
LINE
  5
   11D
  8
0
  6
CONTINUOUS
 62
     7
 10
-575.206489562988
 20
69.2248600223834
 30
0.0
 11
-574.685545133037
 21
72.1792832995903
 31
0.0
  0
LINE
  5
   11E
  8
0
  6
CONTINUOUS
 62
     7
 10
-574.685545133037
 20
72.5204367451764
 30
0.0
 11
-575.206489562988
 21
75.4748600223834
 31
0.0
  0
LINE
  5
   11F
  8
0
  6
CONTINUOUS
 62
     7
 10
-575.206489562988
 20
75.4748600223834
 30
0.0
 11
-575.72743399294
 21
72.5204367451764
 31
0.0
  0
ENDBLK
  5
   120
  8
0
  6
CONTINUOUS
 62
     7
  0
BLOCK
  5
   121
  8
0
  6
CONTINUOUS
 62
     7
  2
*UDIM51
 70
    65
 10
0.0
 20
0.0
 30
0.0
  3
*UDIM51
  0
TEXT
  5
   122
  8
0
  6
CONTINUOUS
 62
     7
 10
-533.766821239702
 20
-87.9655570973965
 30
0.0
 40
3.00000002980232
  1
5
 50
359.999999948034
 41
0.933333333333334
 72
     1
 11
-532.666821227421
 21
-86.4655570834875
 31
0.0
 73
     2
  0
TEXT
  5
   123
  8
0
  6
CONTINUOUS
 62
     7
 10
-544.916821356924
 20
-87.9655570936084
 30
0.0
 40
3.00000002980232
  1
min.
 50
359.999999948034
 41
0.933333333333333
 72
     1
 11
-539.616821302921
 21
-86.4655570834875
 31
0.0
 73
     2
  0
LINE
  5
   124
  8
0
  6
CONTINUOUS
 62
     7
 10
-546.500226245274
 20
-62.0251399776167
 30
0.0
 11
-546.500226245274
 21
-90.9655570983887
 31
0.0
  0
LINE
  5
   125
  8
0
  6
CONTINUOUS
 62
     7
 10
-549.0002252916
 20
-62.5251655578613
 30
0.0
 11
-549.0002252916
 21
-90.9655570983887
 31
0.0
  0
LINE
  5
   126
  8
0
  6
CONTINUOUS
 62
     7
 10
-531.566821216494
 20
-88.9655570983887
 30
0.0
 11
-549.0002252916
 21
-88.9655570983887
 31
0.0
  0
LINE
  5
   127
  8
0
  6
CONTINUOUS
 62
     7
 10
-543.545802968067
 20
-88.444612668437
 30
0.0
 11
-546.500226245274
 21
-88.9655570983887
 31
0.0
  0
LINE
  5
   128
  8
0
  6
CONTINUOUS
 62
     7
 10
-546.500226245274
 20
-88.9655570983887
 30
0.0
 11
-543.545802968067
 21
-89.4865015283403
 31
0.0
  0
LINE
  5
   129
  8
0
  6
CONTINUOUS
 62
     7
 10
-551.954648568807
 20
-89.4865015283403
 30
0.0
 11
-549.0002252916
 21
-88.9655570983887
 31
0.0
  0
LINE
  5
   12A
  8
0
  6
CONTINUOUS
 62
     7
 10
-549.0002252916
 20
-88.9655570983887
 30
0.0
 11
-551.954648568807
 21
-88.444612668437
 31
0.0
  0
ENDBLK
  5
   12B
  8
0
  6
CONTINUOUS
 62
     7
  0
BLOCK
  5
   12C
  8
0
  6
CONTINUOUS
 62
     7
  2
*UDIM52
 70
    65
 10
0.0
 20
0.0
 30
0.0
  3
*UDIM52
  0
TEXT
  5
   12D
  8
0
  6
CONTINUOUS
 62
     7
 10
-557.25022492241
 20
-87.9655570973965
 30
0.0
 40
3.00000002980232
  1
5
 50
359.999999948034
 41
0.933333333333334
 72
     1
 11
-556.15022491013
 21
-86.4655570834875
 31
0.0
 73
     2
  0
LINE
  5
   12E
  8
0
  6
CONTINUOUS
 62
     7
 10
-551.5002252916
 20
-62.5251655578613
 30
0.0
 11
-551.5002252916
 21
-90.9655570983887
 31
0.0
  0
LINE
  5
   12F
  8
0
  6
CONTINUOUS
 62
     7
 10
-549.0002252916
 20
-88.9655570983887
 30
0.0
 11
-557.250224921058
 21
-88.9655570983887
 31
0.0
  0
LINE
  5
   130
  8
0
  6
CONTINUOUS
 62
     7
 10
-546.045802014393
 20
-88.444612668437
 30
0.0
 11
-549.0002252916
 21
-88.9655570983887
 31
0.0
  0
LINE
  5
   131
  8
0
  6
CONTINUOUS
 62
     7
 10
-549.0002252916
 20
-88.9655570983887
 30
0.0
 11
-546.045802014393
 21
-89.4865015283403
 31
0.0
  0
LINE
  5
   132
  8
0
  6
CONTINUOUS
 62
     7
 10
-554.454648568807
 20
-89.4865015283403
 30
0.0
 11
-551.5002252916
 21
-88.9655570983887
 31
0.0
  0
LINE
  5
   133
  8
0
  6
CONTINUOUS
 62
     7
 10
-551.5002252916
 20
-88.9655570983887
 30
0.0
 11
-554.454648568807
 21
-88.444612668437
 31
0.0
  0
ENDBLK
  5
   134
  8
0
  6
CONTINUOUS
 62
     7
  0
BLOCK
  5
   135
  8
0
  6
CONTINUOUS
 62
     7
  2
*UDIM53
 70
    65
 10
0.0
 20
0.0
 30
0.0
  3
*UDIM53
  0
TEXT
  5
   136
  8
0
  6
CONTINUOUS
 62
     7
 10
-575.338819642203
 20
-79.1694831825596
 30
0.0
 40
3.00000002980232
  1
20
 50
359.999999948034
 41
0.933333333333333
 72
     1
 11
-572.838819616015
 21
-77.6694831699133
 31
0.0
 73
     2
  0
LINE
  5
   137
  8
0
  6
CONTINUOUS
 62
     7
 10
-551.5002252916
 20
-62.5251655578613
 30
0.0
 11
-551.5002252916
 21
-82.1694831848145
 31
0.0
  0
LINE
  5
   138
  8
0
  6
CONTINUOUS
 62
     7
 10
-561.500213623047
 20
-76.1164914085939
 30
0.0
 11
-561.500213623047
 21
-82.1694831848145
 31
0.0
  0
LINE
  5
   139
  8
0
  6
CONTINUOUS
 62
     7
 10
-551.5002252916
 20
-80.1694831848144
 30
0.0
 11
-575.33881964085
 21
-80.1694831848144
 31
0.0
  0
LINE
  5
   13A
  8
0
  6
CONTINUOUS
 62
     7
 10
-554.454648568807
 20
-80.6904276147661
 30
0.0
 11
-551.5002252916
 21
-80.1694831848144
 31
0.0
  0
LINE
  5
   13B
  8
0
  6
CONTINUOUS
 62
     7
 10
-551.5002252916
 20
-80.1694831848144
 30
0.0
 11
-554.454648568807
 21
-79.6485387548628
 31
0.0
  0
LINE
  5
   13C
  8
0
  6
CONTINUOUS
 62
     7
 10
-558.54579034584
 20
-79.6485387548628
 30
0.0
 11
-561.500213623047
 21
-80.1694831848144
 31
0.0
  0
LINE
  5
   13D
  8
0
  6
CONTINUOUS
 62
     7
 10
-561.500213623047
 20
-80.1694831848144
 30
0.0
 11
-558.54579034584
 21
-80.6904276147661
 31
0.0
  0
ENDBLK
  5
   13E
  8
0
  6
CONTINUOUS
 62
     7
  0
BLOCK
  5
   13F
  8
0
  6
CONTINUOUS
 62
     5
  2
*UDIM54
 70
    65
 10
0.0
 20
0.0
 30
0.0
  3
*UDIM54
  0
TEXT
  5
   140
  8
0
  6
CONTINUOUS
 62
     5
 10
-576.206489570325
 20
17.2873572391095
 30
0.0
 40
3.00000002980232
  1
107,25
 50
89.9999999480344
 41
0.933333333333333
 72
     1
 11
-577.70648957789
 21
25.3873573209344
 31
0.0
 73
     2
  0
LINE
  5
   141
  8
0
  6
CONTINUOUS
 62
     5
 10
-570.379350796083
 20
-1.15014846803524
 30
0.0
 11
-577.206489562988
 21
-1.15014846803524
 31
0.0
  0
LINE
  5
   142
  8
0
  6
CONTINUOUS
 62
     5
 10
-556.214896822562
 20
52.4748600223834
 30
0.0
 11
-577.206489562988
 21
52.4748600223834
 31
0.0
  0
LINE
  5
   143
  8
0
  6
CONTINUOUS
 62
     5
 10
-575.206489562988
 20
-1.15014846803524
 30
0.0
 11
-575.206489562988
 21
52.4748600223834
 31
0.0
  0
LINE
  5
   144
  8
0
  6
CONTINUOUS
 62
     5
 10
-575.72743399294
 20
1.80427480917172
 30
0.0
 11
-575.206489562988
 21
-1.15014846803524
 31
0.0
  0
LINE
  5
   145
  8
0
  6
CONTINUOUS
 62
     5
 10
-575.206489562988
 20
-1.15014846803524
 30
0.0
 11
-574.685545133037
 21
1.80427480917172
 31
0.0
  0
LINE
  5
   146
  8
0
  6
CONTINUOUS
 62
     5
 10
-574.685545133037
 20
49.5204367451764
 30
0.0
 11
-575.206489562988
 21
52.4748600223834
 31
0.0
  0
LINE
  5
   147
  8
0
  6
CONTINUOUS
 62
     5
 10
-575.206489562988
 20
52.4748600223834
 30
0.0
 11
-575.72743399294
 21
49.5204367451764
 31
0.0
  0
ENDBLK
  5
   148
  8
0
  6
CONTINUOUS
 62
     5
  0
BLOCK
  5
   149
  8
0
  6
CONTINUOUS
 62
     7
  2
*UDIM55
 70
    65
 10
0.0
 20
0.0
 30
0.0
  3
*UDIM55
  0
TEXT
  5
   14A
  8
0
  6
CONTINUOUS
 62
     7
 10
-504.000218499066
 20
-113.990333556137
 30
0.0
 40
3.00000002980232
  1
2
 50
359.999999948034
 41
0.933333333333334
 72
     1
 11
-502.900218486786
 21
-112.490333542228
 31
0.0
 73
     2
  0
LINE
  5
   14B
  8
0
  6
CONTINUOUS
 62
     7
 10
-507.000218391418
 20
-69.6053320793685
 30
0.0
 11
-507.000218391418
 21
-116.990333557129
 31
0.0
  0
LINE
  5
   14C
  8
0
  6
CONTINUOUS
 62
     7
 10
-508.000218391419
 20
-70.2191251828167
 30
0.0
 11
-508.000218391419
 21
-116.990333557129
 31
0.0
  0
LINE
  5
   14D
  8
0
  6
CONTINUOUS
 62
     7
 10
-501.800218475858
 20
-114.990333557129
 30
0.0
 11
-508.000218391419
 21
-114.990333557129
 31
0.0
  0
LINE
  5
   14E
  8
0
  6
CONTINUOUS
 62
     7
 10
-504.045795114212
 20
-114.469389127177
 30
0.0
 11
-507.000218391418
 21
-114.990333557129
 31
0.0
  0
LINE
  5
   14F
  8
0
  6
CONTINUOUS
 62
     7
 10
-507.000218391418
 20
-114.990333557129
 30
0.0
 11
-504.045795114212
 21
-115.511277987081
 31
0.0
  0
LINE
  5
   150
  8
0
  6
CONTINUOUS
 62
     7
 10
-510.954641668625
 20
-115.511277987081
 30
0.0
 11
-508.000218391419
 21
-114.990333557129
 31
0.0
  0
LINE
  5
   151
  8
0
  6
CONTINUOUS
 62
     7
 10
-508.000218391419
 20
-114.990333557129
 30
0.0
 11
-510.954641668625
 21
-114.469389127177
 31
0.0
  0
ENDBLK
  5
   152
  8
0
  6
CONTINUOUS
 62
     7
  0
BLOCK
  5
   153
  8
0
  6
CONTINUOUS
 62
     7
  2
*UDIM56
 70
    65
 10
0.0
 20
0.0
 30
0.0
  3
*UDIM56
  0
TEXT
  5
   154
  8
0
  6
CONTINUOUS
 62
     7
 10
-538.925215576452
 20
-113.990333553611
 30
0.0
 40
3.00000002980232
  1
107
 50
359.999999948034
 41
0.933333333333333
 72
     1
 11
-535.025215536356
 21
-112.490333542228
 31
0.0
 73
     2
  0
LINE
  5
   155
  8
0
  6
CONTINUOUS
 62
     7
 10
-561.500213623047
 20
-76.1164914085939
 30
0.0
 11
-561.500213623047
 21
-116.990333557129
 31
0.0
  0
LINE
  5
   156
  8
0
  6
CONTINUOUS
 62
     7
 10
-508.000218391419
 20
-114.990333557129
 30
0.0
 11
-561.500213623047
 21
-114.990333557129
 31
0.0
  0
LINE
  5
   157
  8
0
  6
CONTINUOUS
 62
     7
 10
-510.954641668625
 20
-115.511277987081
 30
0.0
 11
-508.000218391419
 21
-114.990333557129
 31
0.0
  0
LINE
  5
   158
  8
0
  6
CONTINUOUS
 62
     7
 10
-508.000218391419
 20
-114.990333557129
 30
0.0
 11
-510.954641668625
 21
-114.469389127177
 31
0.0
  0
LINE
  5
   159
  8
0
  6
CONTINUOUS
 62
     7
 10
-558.54579034584
 20
-114.469389127177
 30
0.0
 11
-561.500213623047
 21
-114.990333557129
 31
0.0
  0
LINE
  5
   15A
  8
0
  6
CONTINUOUS
 62
     7
 10
-561.500213623047
 20
-114.990333557129
 30
0.0
 11
-558.54579034584
 21
-115.511277987081
 31
0.0
  0
ENDBLK
  5
   15B
  8
0
  6
CONTINUOUS
 62
     7
  0
BLOCK
  5
   15C
  8
0
  6
CONTINUOUS
 62
     7
  2
*UDIM57
 70
    65
 10
0.0
 20
0.0
 30
0.0
  3
*UDIM57
  0
TEXT
  5
   15D
  8
0
  6
CONTINUOUS
 62
     7
 10
-542.600217498545
 20
-105.470069879211
 30
0.0
 40
3.00000002980232
  1
103,5
 50
359.999999948034
 41
0.933333333333333
 72
     1
 11
-535.900217430633
 21
-103.970069870353
 31
0.0
 73
     2
  0
LINE
  5
   15E
  8
0
  6
CONTINUOUS
 62
     7
 10
-509.750221566358
 20
-28.4001332092461
 30
0.0
 11
-509.750246701631
 21
-108.470069885254
 31
0.0
  0
LINE
  5
   15F
  8
0
  6
CONTINUOUS
 62
     7
 10
-561.500213936963
 20
-76.1164914085938
 30
0.0
 11
-561.500224093285
 21
-108.470069885254
 31
0.0
  0
LINE
  5
   160
  8
0
  6
CONTINUOUS
 62
     7
 10
-509.750246073798
 20
-106.470069885254
 30
0.0
 11
-561.500223465452
 21
-106.470069885254
 31
0.0
  0
LINE
  5
   161
  8
0
  6
CONTINUOUS
 62
     7
 10
-512.704669351004
 20
-106.991014315206
 30
0.0
 11
-509.750246073798
 21
-106.470069885254
 31
0.0
  0
LINE
  5
   162
  8
0
  6
CONTINUOUS
 62
     7
 10
-509.750246073798
 20
-106.470069885254
 30
0.0
 11
-512.704669351004
 21
-105.949125455302
 31
0.0
  0
LINE
  5
   163
  8
0
  6
CONTINUOUS
 62
     7
 10
-558.545800188245
 20
-105.949125455302
 30
0.0
 11
-561.500223465452
 21
-106.470069885254
 31
0.0
  0
LINE
  5
   164
  8
0
  6
CONTINUOUS
 62
     7
 10
-561.500223465452
 20
-106.470069885254
 30
0.0
 11
-558.545800188245
 21
-106.991014315206
 31
0.0
  0
ENDBLK
  5
   165
  8
0
  6
CONTINUOUS
 62
     7
  0
BLOCK
  5
   166
  8
0
  6
CONTINUOUS
 62
     7
  2
*UDIM58
 70
    65
 10
0.0
 20
0.0
 30
0.0
  3
*UDIM58
  0
TEXT
  5
   167
  8
0
  6
CONTINUOUS
 62
     7
 10
-568.750213559519
 20
-105.470069884262
 30
0.0
 40
3.00000002980232
  1
3
 50
359.999999948034
 41
0.933333333333334
 72
     1
 11
-567.650213547239
 21
-103.970069870353
 31
0.0
 73
     2
  0
TEXT
  5
   168
  8
0
  6
CONTINUOUS
 62
     7
 10
-571.500213593295
 20
-105.470069884262
 30
0.0
 40
3.00000002980232
  1
_
 50
359.999999948034
 41
0.933333333333334
 72
     1
 11
-570.400213581015
 21
-103.970069870353
 31
0.0
 73
     2
  0
LINE
  5
   169
  8
0
  6
CONTINUOUS
 62
     7
 10
-563.000213936963
 20
-76.1164914085938
 30
0.0
 11
-563.000224093285
 21
-108.470069885254
 31
0.0
  0
LINE
  5
   16A
  8
0
  6
CONTINUOUS
 62
     7
 10
-561.500223465452
 20
-106.470069885254
 30
0.0
 11
-571.500213591942
 21
-106.470069885254
 31
0.0
  0
LINE
  5
   16B
  8
0
  6
CONTINUOUS
 62
     7
 10
-558.545800188245
 20
-105.949125455302
 30
0.0
 11
-561.500223465452
 21
-106.470069885254
 31
0.0
  0
LINE
  5
   16C
  8
0
  6
CONTINUOUS
 62
     7
 10
-561.500223465452
 20
-106.470069885254
 30
0.0
 11
-558.545800188245
 21
-106.991014315206
 31
0.0
  0
LINE
  5
   16D
  8
0
  6
CONTINUOUS
 62
     7
 10
-565.954646742659
 20
-106.991014315206
 30
0.0
 11
-563.000223465452
 21
-106.470069885254
 31
0.0
  0
LINE
  5
   16E
  8
0
  6
CONTINUOUS
 62
     7
 10
-563.000223465452
 20
-106.470069885254
 30
0.0
 11
-565.954646742659
 21
-105.949125455302
 31
0.0
  0
ENDBLK
  5
   16F
  8
0
  6
CONTINUOUS
 62
     7
  0
BLOCK
  5
   170
  8
0
  6
CONTINUOUS
 62
     7
  2
*UDIM59
 70
    65
 10
0.0
 20
0.0
 30
0.0
  3
*UDIM59
  0
TEXT
  5
   171
  8
0
  6
CONTINUOUS
 62
     7
 10
-502.424827577948
 20
-56.5596572819203
 30
0.0
 40
3.00000002980232
  1
11
 50
89.9999999480344
 41
0.933333333333333
 72
     1
 11
-503.924827590585
 21
-54.0596572557265
 31
0.0
 73
     2
  0
LINE
  5
   172
  8
0
  6
CONTINUOUS
 62
     7
 10
-540.148254805124
 20
-56.525191138106
 30
0.0
 11
-499.424827575684
 21
-56.525191138106
 31
0.0
  0
LINE
  5
   173
  8
0
  6
CONTINUOUS
 62
     7
 10
-539.798830792918
 20
-51.025191138106
 30
0.0
 11
-499.424827575684
 21
-51.025191138106
 31
0.0
  0
LINE
  5
   174
  8
0
  6
CONTINUOUS
 62
     7
 10
-501.424827575684
 20
-56.5596572805618
 30
0.0
 11
-501.424827575684
 21
-51.025191138106
 31
0.0
  0
LINE
  5
   175
  8
0
  6
CONTINUOUS
 62
     7
 10
-500.903883145732
 20
-59.479614415313
 30
0.0
 11
-501.424827575684
 21
-56.525191138106
 31
0.0
  0
LINE
  5
   176
  8
0
  6
CONTINUOUS
 62
     7
 10
-501.424827575684
 20
-56.525191138106
 30
0.0
 11
-501.945772005635
 21
-59.479614415313
 31
0.0
  0
LINE
  5
   177
  8
0
  6
CONTINUOUS
 62
     7
 10
-501.945772005635
 20
-48.070767860899
 30
0.0
 11
-501.424827575684
 21
-51.025191138106
 31
0.0
  0
LINE
  5
   178
  8
0
  6
CONTINUOUS
 62
     7
 10
-501.424827575684
 20
-51.025191138106
 30
0.0
 11
-500.903883145732
 21
-48.070767860899
 31
0.0
  0
ENDBLK
  5
   179
  8
0
  6
CONTINUOUS
 62
     7
  0
BLOCK
  5
   17A
  8
0
  6
CONTINUOUS
 62
     7
  2
*UDIM60
 70
    65
 10
0.0
 20
0.0
 30
0.0
  3
*UDIM60
  0
TEXT
  5
   17B
  8
0
  6
CONTINUOUS
 62
     7
 10
-584.986282350897
 20
-65.0501917365045
 30
0.0
 40
3.00000002980232
  1
15
 50
89.9999999480344
 41
0.933333333333333
 72
     1
 11
-586.486282363534
 21
-62.5501917103106
 31
0.0
 73
     2
  0
LINE
  5
   17C
  8
0
  6
CONTINUOUS
 62
     7
 10
-556.214896822562
 20
-56.525191138106
 30
0.0
 11
-585.986282348633
 21
-56.525191138106
 31
0.0
  0
LINE
  5
   17D
  8
0
  6
CONTINUOUS
 62
     7
 10
-561.500214099884
 20
-49.025191138106
 30
0.0
 11
-585.986282348633
 21
-49.025191138106
 31
0.0
  0
LINE
  5
   17E
  8
0
  6
CONTINUOUS
 62
     7
 10
-583.986282348633
 20
-65.0501917351459
 30
0.0
 11
-583.986282348633
 21
-49.025191138106
 31
0.0
  0
LINE
  5
   17F
  8
0
  6
CONTINUOUS
 62
     7
 10
-583.465337918681
 20
-59.479614415313
 30
0.0
 11
-583.986282348633
 21
-56.525191138106
 31
0.0
  0
LINE
  5
   180
  8
0
  6
CONTINUOUS
 62
     7
 10
-583.986282348633
 20
-56.525191138106
 30
0.0
 11
-584.507226778585
 21
-59.479614415313
 31
0.0
  0
LINE
  5
   181
  8
0
  6
CONTINUOUS
 62
     7
 10
-584.507226778585
 20
-46.0707678608991
 30
0.0
 11
-583.986282348633
 21
-49.025191138106
 31
0.0
  0
LINE
  5
   182
  8
0
  6
CONTINUOUS
 62
     7
 10
-583.986282348633
 20
-49.025191138106
 30
0.0
 11
-583.465337918681
 21
-46.0707678608991
 31
0.0
  0
ENDBLK
  5
   183
  8
0
  6
CONTINUOUS
 62
     7
  0
BLOCK
  5
   184
  8
0
  6
CONTINUOUS
 62
     7
  2
*UDIM61
 70
    65
 10
0.0
 20
0.0
 30
0.0
  3
*UDIM61
  0
TEXT
  5
   185
  8
0
  6
CONTINUOUS
 62
     7
 10
-546.461461666384
 20
-96.4858283936152
 30
0.0
 40
3.00000002980232
  1
101,5
 50
359.999999948034
 41
0.933333333333333
 72
     1
 11
-539.761461598472
 21
-94.985828384757
 31
0.0
 73
     2
  0
LINE
  5
   186
  8
0
  6
CONTINUOUS
 62
     7
 10
-510.750221566358
 20
24.0998515319648
 30
0.0
 11
-510.750260361939
 21
-99.4858283996581
 31
0.0
  0
LINE
  5
   187
  8
0
  6
CONTINUOUS
 62
     7
 10
-561.500213936963
 20
-76.1164914085938
 30
0.0
 11
-561.500221272983
 21
-99.4858283996581
 31
0.0
  0
LINE
  5
   188
  8
0
  6
CONTINUOUS
 62
     7
 10
-510.750259734106
 20
-97.4858283996582
 30
0.0
 11
-561.50022064515
 21
-97.4858283996582
 31
0.0
  0
LINE
  5
   189
  8
0
  6
CONTINUOUS
 62
     7
 10
-513.704683011314
 20
-98.0067728296099
 30
0.0
 11
-510.750259734106
 21
-97.4858283996582
 31
0.0
  0
LINE
  5
   18A
  8
0
  6
CONTINUOUS
 62
     7
 10
-510.750259734106
 20
-97.4858283996582
 30
0.0
 11
-513.704683011314
 21
-96.9648839697065
 31
0.0
  0
LINE
  5
   18B
  8
0
  6
CONTINUOUS
 62
     7
 10
-558.545797367943
 20
-96.9648839697065
 30
0.0
 11
-561.50022064515
 21
-97.4858283996582
 31
0.0
  0
LINE
  5
   18C
  8
0
  6
CONTINUOUS
 62
     7
 10
-561.50022064515
 20
-97.4858283996582
 30
0.0
 11
-558.545797367943
 21
-98.0067728296099
 31
0.0
  0
ENDBLK
  5
   18D
  8
0
  6
CONTINUOUS
 62
     7
  0
BLOCK
  5
   18E
  8
0
  6
CONTINUOUS
 62
     7
  2
*UDIM62
 70
    65
 10
0.0
 20
0.0
 30
0.0
  3
*UDIM62
  0
TEXT
  5
   18F
  8
0
  6
CONTINUOUS
 62
     7
 10
-480.804222109198
 20
47.291539737176
 30
0.0
 40
3.00000002980232
  1
11
 50
89.9999999480344
 41
0.933333333333333
 72
     1
 11
-482.304222121835
 21
49.7915397633699
 31
0.0
 73
     2
  0
LINE
  5
   190
  8
0
  6
CONTINUOUS
 62
     7
 10
-541.223089829915
 20
46.9748344421387
 30
0.0
 11
-477.804222106934
 21
46.9748344421387
 31
0.0
  0
LINE
  5
   191
  8
0
  6
CONTINUOUS
 62
     7
 10
-540.148254805124
 20
52.4748600223834
 30
0.0
 11
-477.804222106934
 21
52.4748600223834
 31
0.0
  0
LINE
  5
   192
  8
0
  6
CONTINUOUS
 62
     7
 10
-479.804222106934
 20
46.9748344421387
 30
0.0
 11
-479.804222106934
 21
52.4748600223834
 31
0.0
  0
LINE
  5
   193
  8
0
  6
CONTINUOUS
 62
     7
 10
-479.283277676982
 20
44.0204111649317
 30
0.0
 11
-479.804222106934
 21
46.9748344421387
 31
0.0
  0
LINE
  5
   194
  8
0
  6
CONTINUOUS
 62
     7
 10
-479.804222106934
 20
46.9748344421387
 30
0.0
 11
-480.325166536885
 21
44.0204111649317
 31
0.0
  0
LINE
  5
   195
  8
0
  6
CONTINUOUS
 62
     7
 10
-480.325166536885
 20
55.4292832995903
 30
0.0
 11
-479.804222106934
 21
52.4748600223834
 31
0.0
  0
LINE
  5
   196
  8
0
  6
CONTINUOUS
 62
     7
 10
-479.804222106934
 20
52.4748600223834
 30
0.0
 11
-479.283277676982
 21
55.4292832995903
 31
0.0
  0
ENDBLK
  5
   197
  8
0
  6
CONTINUOUS
 62
     7
  0
BLOCK
  5
   198
  8
0
  6
CONTINUOUS
 62
     7
  2
*UDIM63
 70
    65
 10
0.0
 20
0.0
 30
0.0
  3
*UDIM63
  0
TEXT
  5
   199
  8
0
  6
CONTINUOUS
 62
     7
 10
-587.271293643669
 20
-6.20016941862065
 30
0.0
 40
3.00000002980232
  1
218
 50
89.9999999480344
 41
0.933333333333333
 72
     1
 11
-588.771293655038
 21
-2.30016937851906
 31
0.0
 73
     2
  0
LINE
  5
   19A
  8
0
  6
CONTINUOUS
 62
     7
 10
-556.214896822562
 20
-56.525191138106
 30
0.0
 11
-588.271293640137
 21
-56.525191138106
 31
0.0
  0
LINE
  5
   19B
  8
0
  6
CONTINUOUS
 62
     7
 10
-556.214896822562
 20
52.4748600223834
 30
0.0
 11
-588.271293640137
 21
52.4748600223834
 31
0.0
  0
LINE
  5
   19C
  8
0
  6
CONTINUOUS
 62
     7
 10
-586.271293640137
 20
-56.525191138106
 30
0.0
 11
-586.271293640137
 21
52.4748600223834
 31
0.0
  0
LINE
  5
   19D
  8
0
  6
CONTINUOUS
 62
     7
 10
-586.792238070088
 20
-53.5707678608991
 30
0.0
 11
-586.271293640137
 21
-56.525191138106
 31
0.0
  0
LINE
  5
   19E
  8
0
  6
CONTINUOUS
 62
     7
 10
-586.271293640137
 20
-56.525191138106
 30
0.0
 11
-585.750349210185
 21
-53.5707678608991
 31
0.0
  0
LINE
  5
   19F
  8
0
  6
CONTINUOUS
 62
     7
 10
-585.750349210185
 20
49.5204367451764
 30
0.0
 11
-586.271293640137
 21
52.4748600223834
 31
0.0
  0
LINE
  5
   1A0
  8
0
  6
CONTINUOUS
 62
     7
 10
-586.271293640137
 20
52.4748600223834
 30
0.0
 11
-586.792238070088
 21
49.5204367451764
 31
0.0
  0
ENDBLK
  5
   1A1
  8
0
  6
CONTINUOUS
 62
     7
  0
BLOCK
  5
   1A2
  8
0
  6
CONTINUOUS
 62
     7
  2
*UDIM64
 70
    65
 10
0.0
 20
0.0
 30
0.0
  3
*UDIM64
  0
TEXT
  5
   1A3
  8
0
  6
CONTINUOUS
 62
     7
 10
-531.914200636684
 20
-122.341892238914
 30
0.0
 40
3.00000002980232
  1
135
 50
359.999999948034
 41
0.933333333333333
 72
     1
 11
-528.014200596588
 21
-120.841892227531
 31
0.0
 73
     2
  0
LINE
  5
   1A4
  8
0
  6
CONTINUOUS
 62
     7
 10
-493.978180319467
 20
-7.27513320924611
 30
0.0
 11
-493.978224244716
 21
-125.341892242432
 31
0.0
  0
LINE
  5
   1A5
  8
0
  6
CONTINUOUS
 62
     7
 10
-561.500213936963
 20
-76.1164914085938
 30
0.0
 11
-561.500229389628
 21
-125.341892242432
 31
0.0
  0
LINE
  5
   1A6
  8
0
  6
CONTINUOUS
 62
     7
 10
-493.978223500642
 20
-123.341892242432
 30
0.0
 11
-561.500228761795
 21
-123.341892242432
 31
0.0
  0
LINE
  5
   1A7
  8
0
  6
CONTINUOUS
 62
     7
 10
-496.932646777848
 20
-123.862836672383
 30
0.0
 11
-493.978223500642
 21
-123.341892242432
 31
0.0
  0
LINE
  5
   1A8
  8
0
  6
CONTINUOUS
 62
     7
 10
-493.978223500642
 20
-123.341892242432
 30
0.0
 11
-496.932646777848
 21
-122.82094781248
 31
0.0
  0
LINE
  5
   1A9
  8
0
  6
CONTINUOUS
 62
     7
 10
-558.545805484588
 20
-122.82094781248
 30
0.0
 11
-561.500228761795
 21
-123.341892242432
 31
0.0
  0
LINE
  5
   1AA
  8
0
  6
CONTINUOUS
 62
     7
 10
-561.500228761795
 20
-123.341892242432
 30
0.0
 11
-558.545805484588
 21
-123.862836672383
 31
0.0
  0
ENDBLK
  5
   1AB
  8
0
  6
CONTINUOUS
 62
     7
  0
BLOCK
  5
   1AC
  8
0
  6
CONTINUOUS
 62
     7
  2
*UDIM65
 70
    65
 10
0.0
 20
0.0
 30
0.0
  3
*UDIM65
  0
TEXT
  5
   1AD
  8
0
  6
CONTINUOUS
 62
     7
 10
-476.811084750847
 20
-5.32514270264442
 30
0.0
 40
3.00000002980232
  1
105
 50
89.9999999480344
 41
0.933333333333333
 72
     1
 11
-478.311084762216
 21
-1.42514266254283
 31
0.0
 73
     2
  0
LINE
  5
   1AE
  8
0
  6
CONTINUOUS
 62
     7
 10
-507.000218391418
 20
-27.4001332092462
 30
0.0
 11
-473.811084747314
 21
-27.4001332092462
 31
0.0
  0
LINE
  5
   1AF
  8
0
  6
CONTINUOUS
 62
     7
 10
-507.000218391418
 20
25.0998515319648
 30
0.0
 11
-473.811084747314
 21
25.0998515319648
 31
0.0
  0
LINE
  5
   1B0
  8
0
  6
CONTINUOUS
 62
     7
 10
-475.811084747315
 20
-27.4001332092462
 30
0.0
 11
-475.811084747315
 21
25.0998515319648
 31
0.0
  0
LINE
  5
   1B1
  8
0
  6
CONTINUOUS
 62
     7
 10
-476.332029177266
 20
-24.4457099320392
 30
0.0
 11
-475.811084747315
 21
-27.4001332092462
 31
0.0
  0
LINE
  5
   1B2
  8
0
  6
CONTINUOUS
 62
     7
 10
-475.811084747315
 20
-27.4001332092462
 30
0.0
 11
-475.290140317363
 21
-24.4457099320392
 31
0.0
  0
LINE
  5
   1B3
  8
0
  6
CONTINUOUS
 62
     7
 10
-475.290140317363
 20
22.1454282547578
 30
0.0
 11
-475.811084747315
 21
25.0998515319648
 31
0.0
  0
LINE
  5
   1B4
  8
0
  6
CONTINUOUS
 62
     7
 10
-475.811084747315
 20
25.0998515319648
 30
0.0
 11
-476.332029177266
 21
22.1454282547578
 31
0.0
  0
ENDBLK
  5
   1B5
  8
0
  6
CONTINUOUS
 62
     7
  0
BLOCK
  5
   1B6
  8
0
  6
CONTINUOUS
 62
     0
  2
ON-OFF
 70
    64
 10
0.0
 20
0.0
 30
0.0
  3
ON-OFF
  0
LINE
  5
   1B7
  8
0
  6
CONTINUOUS
 62
     0
 10
5.09999999999999
 20
-29.65
 30
0.0
 11
5.54999999999999
 21
-29.65
 31
0.0
  0
LINE
  5
   1B8
  8
0
  6
CONTINUOUS
 62
     0
 10
3.79999999999999
 20
-37.35
 30
0.0
 11
4.59999999999999
 21
-37.35
 31
0.0
  0
LINE
  5
   1B9
  8
0
  6
CONTINUOUS
 62
     0
 10
-2.6
 20
-34.75
 30
0.0
 11
-2.6
 21
-34.25
 31
0.0
  0
LINE
  5
   1BA
  8
0
  6
CONTINUOUS
 62
     0
 10
2.6
 20
-34.75
 30
0.0
 11
2.6
 21
-34.25
 31
0.0
  0
ARC
  5
   1BB
  8
0
  6
CONTINUOUS
 62
     0
 10
-3.5527136788005E-15
 20
-34.25
 30
0.0
 40
2.6
 50
0.0
 51
180.0
  0
ARC
  5
   1BC
  8
0
  6
CONTINUOUS
 62
     0
 10
-3.5527136788005E-15
 20
-34.75
 30
0.0
 40
2.6
 50
180.0
 51
360.0
  0
ARC
  5
   1BD
  8
0
  6
CONTINUOUS
 62
     0
 10
-3.5527136788005E-15
 20
-34.25
 30
0.0
 40
1.8
 50
0.0
 51
180.0
  0
ARC
  5
   1BE
  8
0
  6
CONTINUOUS
 62
     0
 10
-3.5527136788005E-15
 20
-34.75
 30
0.0
 40
1.8
 50
180.0
 51
360.0
  0
LINE
  5
   1BF
  8
0
  6
CONTINUOUS
 62
     0
 10
-1.8
 20
-34.75
 30
0.0
 11
-1.8
 21
-34.25
 31
0.0
  0
LINE
  5
   1C0
  8
0
  6
CONTINUOUS
 62
     0
 10
1.8
 20
-34.75
 30
0.0
 11
1.8
 21
-34.25
 31
0.0
  0
LINE
  5
   1C1
  8
0
  6
CONTINUOUS
 62
     0
 10
2.84999999999999
 20
-32.85
 30
0.0
 11
2.84999999999999
 21
-32.05
 31
0.0
  0
LINE
  5
   1C2
  8
0
  6
CONTINUOUS
 62
     0
 10
2.84999999999999
 20
-32.85
 30
0.0
 11
3.79999999999999
 21
-32.85
 31
0.0
  0
LINE
  5
   1C3
  8
0
  6
CONTINUOUS
 62
     0
 10
5.54999999999999
 20
-32.85
 30
0.0
 11
5.54999999999999
 21
-32.05
 31
0.0
  0
LINE
  5
   1C4
  8
0
  6
CONTINUOUS
 62
     0
 10
2.84999999999999
 20
-32.05
 30
0.0
 11
3.79999999999999
 21
-32.05
 31
0.0
  0
LINE
  5
   1C5
  8
0
  6
CONTINUOUS
 62
     0
 10
3.79999999999999
 20
-37.35
 30
0.0
 11
3.79999999999999
 21
-32.85
 31
0.0
  0
LINE
  5
   1C6
  8
0
  6
CONTINUOUS
 62
     0
 10
4.59999999999999
 20
-37.35
 30
0.0
 11
4.59999999999999
 21
-32.85
 31
0.0
  0
LINE
  5
   1C7
  8
0
  6
CONTINUOUS
 62
     0
 10
4.59999999999999
 20
-32.85
 30
0.0
 11
5.54999999999999
 21
-32.85
 31
0.0
  0
LINE
  5
   1C8
  8
0
  6
CONTINUOUS
 62
     0
 10
4.59999999999999
 20
-32.05
 30
0.0
 11
5.54999999999999
 21
-32.05
 31
0.0
  0
LINE
  5
   1C9
  8
0
  6
CONTINUOUS
 62
     0
 10
3.79999999999999
 20
-32.05
 30
0.0
 11
3.79999999999999
 21
-30.95
 31
0.0
  0
LINE
  5
   1CA
  8
0
  6
CONTINUOUS
 62
     0
 10
4.59999999999999
 20
-32.05
 30
0.0
 11
4.59999999999999
 21
-30.95
 31
0.0
  0
ARC
  5
   1CB
  8
0
  6
CONTINUOUS
 62
     0
 10
5.09999999999999
 20
-30.95
 30
0.0
 40
1.3
 50
89.9999999999999
 51
180.0
  0
ARC
  5
   1CC
  8
0
  6
CONTINUOUS
 62
     0
 10
5.09999999999999
 20
-30.95
 30
0.0
 40
0.5
 50
89.9999999999999
 51
180.0
  0
LINE
  5
   1CD
  8
0
  6
CONTINUOUS
 62
     0
 10
5.54999999999999
 20
-30.45
 30
0.0
 11
5.54999999999999
 21
-29.65
 31
0.0
  0
LINE
  5
   1CE
  8
0
  6
CONTINUOUS
 62
     0
 10
5.09999999999999
 20
-30.45
 30
0.0
 11
5.54999999999999
 21
-30.45
 31
0.0
  0
LINE
  5
   1CF
  8
0
  6
CONTINUOUS
 62
     0
 10
8.29999999999998
 20
-29.65
 30
0.0
 11
8.74999999999999
 21
-29.65
 31
0.0
  0
LINE
  5
   1D0
  8
0
  6
CONTINUOUS
 62
     0
 10
6.99999999999999
 20
-37.35
 30
0.0
 11
7.79999999999999
 21
-37.35
 31
0.0
  0
LINE
  5
   1D1
  8
0
  6
CONTINUOUS
 62
     0
 10
6.04999999999999
 20
-32.85
 30
0.0
 11
6.04999999999999
 21
-32.05
 31
0.0
  0
LINE
  5
   1D2
  8
0
  6
CONTINUOUS
 62
     0
 10
6.04999999999999
 20
-32.85
 30
0.0
 11
6.99999999999999
 21
-32.85
 31
0.0
  0
LINE
  5
   1D3
  8
0
  6
CONTINUOUS
 62
     0
 10
8.74999999999999
 20
-32.85
 30
0.0
 11
8.74999999999999
 21
-32.05
 31
0.0
  0
LINE
  5
   1D4
  8
0
  6
CONTINUOUS
 62
     0
 10
6.04999999999999
 20
-32.05
 30
0.0
 11
6.99999999999999
 21
-32.05
 31
0.0
  0
LINE
  5
   1D5
  8
0
  6
CONTINUOUS
 62
     0
 10
6.99999999999999
 20
-37.35
 30
0.0
 11
6.99999999999999
 21
-32.85
 31
0.0
  0
LINE
  5
   1D6
  8
0
  6
CONTINUOUS
 62
     0
 10
7.79999999999999
 20
-37.35
 30
0.0
 11
7.79999999999999
 21
-32.85
 31
0.0
  0
LINE
  5
   1D7
  8
0
  6
CONTINUOUS
 62
     0
 10
7.79999999999999
 20
-32.85
 30
0.0
 11
8.74999999999999
 21
-32.85
 31
0.0
  0
LINE
  5
   1D8
  8
0
  6
CONTINUOUS
 62
     0
 10
7.79999999999999
 20
-32.05
 30
0.0
 11
8.74999999999999
 21
-32.05
 31
0.0
  0
LINE
  5
   1D9
  8
0
  6
CONTINUOUS
 62
     0
 10
6.99999999999999
 20
-32.05
 30
0.0
 11
6.99999999999999
 21
-30.95
 31
0.0
  0
LINE
  5
   1DA
  8
0
  6
CONTINUOUS
 62
     0
 10
7.79999999999999
 20
-32.05
 30
0.0
 11
7.79999999999999
 21
-30.95
 31
0.0
  0
ARC
  5
   1DB
  8
0
  6
CONTINUOUS
 62
     0
 10
8.29999999999998
 20
-30.95
 30
0.0
 40
1.3
 50
89.9999999999999
 51
180.0
  0
ARC
  5
   1DC
  8
0
  6
CONTINUOUS
 62
     0
 10
8.29999999999998
 20
-30.95
 30
0.0
 40
0.5
 50
89.9999999999999
 51
180.0
  0
LINE
  5
   1DD
  8
0
  6
CONTINUOUS
 62
     0
 10
8.74999999999999
 20
-30.45
 30
0.0
 11
8.74999999999999
 21
-29.65
 31
0.0
  0
LINE
  5
   1DE
  8
0
  6
CONTINUOUS
 62
     0
 10
8.29999999999998
 20
-30.45
 30
0.0
 11
8.74999999999999
 21
-30.45
 31
0.0
  0
LINE
  5
   1DF
  8
0
  6
CONTINUOUS
 62
     0
 10
3.4
 20
-2.85000000000002
 30
0.0
 11
4.19999999999999
 21
-2.85000000000002
 31
0.0
  0
ARC
  5
   1E0
  8
0
  6
CONTINUOUS
 62
     0
 10
-3.5527136788005E-15
 20
0.249999999999979
 30
0.0
 40
2.6
 50
0.0
 51
180.0
  0
ARC
  5
   1E1
  8
0
  6
CONTINUOUS
 62
     0
 10
-3.5527136788005E-15
 20
0.249999999999979
 30
0.0
 40
1.8
 50
0.0
 51
180.0
  0
ARC
  5
   1E2
  8
0
  6
CONTINUOUS
 62
     0
 10
-3.5527136788005E-15
 20
-0.250000000000018
 30
0.0
 40
2.6
 50
180.0
 51
360.0
  0
ARC
  5
   1E3
  8
0
  6
CONTINUOUS
 62
     0
 10
-3.5527136788005E-15
 20
-0.250000000000018
 30
0.0
 40
1.8
 50
180.0
 51
360.0
  0
LINE
  5
   1E4
  8
0
  6
CONTINUOUS
 62
     0
 10
1.8
 20
-0.250000000000018
 30
0.0
 11
1.8
 21
0.249999999999979
 31
0.0
  0
LINE
  5
   1E5
  8
0
  6
CONTINUOUS
 62
     0
 10
2.6
 20
-0.250000000000018
 30
0.0
 11
2.6
 21
0.249999999999979
 31
0.0
  0
LINE
  5
   1E6
  8
0
  6
CONTINUOUS
 62
     0
 10
-1.8
 20
-0.250000000000032
 30
0.0
 11
-1.8
 21
0.249999999999964
 31
0.0
  0
LINE
  5
   1E7
  8
0
  6
CONTINUOUS
 62
     0
 10
-2.6
 20
-0.250000000000018
 30
0.0
 11
-2.6
 21
0.249999999999979
 31
0.0
  0
LINE
  5
   1E8
  8
0
  6
CONTINUOUS
 62
     0
 10
3.4
 20
-2.85000000000002
 30
0.0
 11
3.4
 21
2.84999999999998
 31
0.0
  0
LINE
  5
   1E9
  8
0
  6
CONTINUOUS
 62
     0
 10
4.19999999999999
 20
-2.85000000000002
 30
0.0
 11
4.19999999999999
 21
0.649999999999981
 31
0.0
  0
LINE
  5
   1EA
  8
0
  6
CONTINUOUS
 62
     0
 10
6.99999999999999
 20
-2.85000000000002
 30
0.0
 11
6.99999999999999
 21
0.649999999999981
 31
0.0
  0
LINE
  5
   1EB
  8
0
  6
CONTINUOUS
 62
     0
 10
7.79999999999999
 20
-2.85000000000002
 30
0.0
 11
7.79999999999999
 21
0.84999999999998
 31
0.0
  0
LINE
  5
   1EC
  8
0
  6
CONTINUOUS
 62
     0
 10
3.4
 20
2.84999999999998
 30
0.0
 11
4.19999999999999
 21
2.84999999999998
 31
0.0
  0
ARC
  5
   1ED
  8
0
  6
CONTINUOUS
 62
     0
 10
5.59999999999999
 20
0.649999999999981
 30
0.0
 40
1.4
 50
0.0
 51
180.0
  0
LINE
  5
   1EE
  8
0
  6
CONTINUOUS
 62
     0
 10
4.19999999999999
 20
2.05
 30
0.0
 11
4.19999999999999
 21
2.84999999999998
 31
0.0
  0
ARC
  5
   1EF
  8
0
  6
CONTINUOUS
 62
     0
 10
5.79999999999999
 20
0.84999999999998
 30
0.0
 40
2.0
 50
0.0
 51
143.130102354155
  0
LINE
  5
   1F0
  8
0
  6
CONTINUOUS
 62
     0
 10
6.99999999999999
 20
-2.85000000000002
 30
0.0
 11
7.79999999999999
 21
-2.85000000000002
 31
0.0
  0
ENDBLK
  5
   1F1
  8
0
  6
CONTINUOUS
 62
     0
  0
BLOCK
  5
   1F2
  8
0
  6
CONTINUOUS
 62
     7
  2
COPRITERMINALI
 70
    64
 10
0.0
 20
0.0
 30
0.0
  3
COPRITERMINALI
  0
LINE
  5
   1F3
  8
0
  6
CONTINUOUS
 62
     3
 10
-26.9653228477592
 20
-26.4999963653409
 30
0.0
 11
51.499997307872
 21
-26.4999847412093
 31
0.0
  0
LINE
  5
   1F4
  8
0
  6
CONTINUOUS
 62
     3
 10
-11.8807223165952
 20
-3.2146989469386E-15
 30
0.0
 11
51.2499820490807
 21
-3.2146989469386E-15
 31
0.0
  0
LINE
  5
   1F5
  8
0
  6
CONTINUOUS
 62
     3
 10
52.5000359267571
 20
-25.4999999999854
 30
0.0
 11
52.5000359267571
 21
-1.24999999998545
 31
0.0
  0
LINE
  5
   1F6
  8
0
  6
CONTINUOUS
 62
     3
 10
51.2499875325437
 20
6.62021609443286E-6
 30
0.0
 11
52.1338681534683
 21
-0.366112771113006
 31
0.0
  0
LINE
  5
   1F7
  8
0
  6
CONTINUOUS
 62
     3
 10
52.1338651254927
 20
-0.366107818105295
 30
0.0
 11
52.4999845168218
 21
-1.24998843902992
 31
0.0
  0
LINE
  5
   1F8
  8
0
  6
CONTINUOUS
 62
     3
 10
50.1499835749595
 20
-25.4999847412109
 30
0.0
 11
50.1499835749595
 21
-0.310653686523438
 31
0.0
  0
LINE
  5
   1F9
  8
0
  6
CONTINUOUS
 62
     3
 10
46.5499851008385
 20
-25.5
 30
0.0
 11
46.5499851008385
 21
-0.310653686523438
 31
0.0
  0
LINE
  5
   1FA
  8
0
  6
CONTINUOUS
 62
     3
 10
42.9499866267174
 20
-25.5
 30
0.0
 11
42.9499866267174
 21
-0.310653686523438
 31
0.0
  0
LINE
  5
   1FB
  8
0
  6
CONTINUOUS
 62
     3
 10
39.3499881525963
 20
-25.5
 30
0.0
 11
39.3499881525963
 21
-0.310653686523438
 31
0.0
  0
LINE
  5
   1FC
  8
0
  6
CONTINUOUS
 62
     3
 10
35.7499820490806
 20
-25.5
 30
0.0
 11
35.7499820490806
 21
-0.310653686523438
 31
0.0
  0
LINE
  5
   1FD
  8
0
  6
CONTINUOUS
 62
     3
 10
32.1499835749596
 20
-25.5
 30
0.0
 11
32.1499835749596
 21
-0.310653686523438
 31
0.0
  0
LINE
  5
   1FE
  8
0
  6
CONTINUOUS
 62
     3
 10
28.5499851008385
 20
-25.5
 30
0.0
 11
28.5499851008385
 21
-0.310653686523438
 31
0.0
  0
LINE
  5
   1FF
  8
0
  6
CONTINUOUS
 62
     3
 10
24.9499866267174
 20
-25.5
 30
0.0
 11
24.9499866267174
 21
-0.310653686523438
 31
0.0
  0
LINE
  5
   200
  8
0
  6
CONTINUOUS
 62
     3
 10
21.3499881525963
 20
-25.5
 30
0.0
 11
21.3499881525963
 21
-0.310653686523438
 31
0.0
  0
LINE
  5
   201
  8
0
  6
CONTINUOUS
 62
     3
 10
17.7499820490806
 20
-25.5
 30
0.0
 11
17.7499820490806
 21
-0.310653686523438
 31
0.0
  0
LINE
  5
   202
  8
0
  6
CONTINUOUS
 62
     3
 10
14.1499835749596
 20
-25.5
 30
0.0
 11
14.1499835749596
 21
-0.310653686523438
 31
0.0
  0
LINE
  5
   203
  8
0
  6
CONTINUOUS
 62
     3
 10
10.5499851008385
 20
-25.5
 30
0.0
 11
10.5499851008385
 21
-0.310653686523438
 31
0.0
  0
LINE
  5
   204
  8
0
  6
CONTINUOUS
 62
     3
 10
6.94998662671736
 20
-25.5
 30
0.0
 11
6.94998662671736
 21
-0.310653686523438
 31
0.0
  0
LINE
  5
   205
  8
0
  6
CONTINUOUS
 62
     3
 10
3.349984337899
 20
-25.5
 30
0.0
 11
3.349984337899
 21
-0.310653686523438
 31
0.0
  0
LINE
  5
   206
  8
0
  6
CONTINUOUS
 62
     3
 10
-0.250014136222092
 20
-25.5
 30
0.0
 11
-0.250014136222092
 21
-0.310653686523438
 31
0.0
  0
LINE
  5
   207
  8
0
  6
CONTINUOUS
 62
     3
 10
-3.85001261034319
 20
-25.5
 30
0.0
 11
-3.85001261034319
 21
-0.310653686523438
 31
0.0
  0
LINE
  5
   208
  8
0
  6
CONTINUOUS
 62
     3
 10
-7.45001489916154
 20
-25.5
 30
0.0
 11
-7.45001489916154
 21
-0.310653686523438
 31
0.0
  0
LINE
  5
   209
  8
0
  6
CONTINUOUS
 62
     3
 10
-11.0500133732826
 20
-25.5
 30
0.0
 11
-11.0500133732826
 21
-0.310653686523438
 31
0.0
  0
LINE
  5
   20A
  8
0
  6
CONTINUOUS
 62
     3
 10
-14.650015662101
 20
-25.5
 30
0.0
 11
-14.650015662101
 21
-9.57938879857687
 31
0.0
  0
LINE
  5
   20B
  8
0
  6
CONTINUOUS
 62
     3
 10
-18.2500141362221
 20
-25.5
 30
0.0
 11
-18.2500141362221
 21
-13.5387104077297
 31
0.0
  0
LINE
  5
   20C
  8
0
  6
CONTINUOUS
 62
     3
 10
-21.8500145176918
 20
-25.5
 30
0.0
 11
-21.8500145176918
 21
-21.696898268415
 31
0.0
  0
LINE
  5
   20D
  8
0
  6
CONTINUOUS
 62
     3
 10
-25.4500148991615
 20
-25.5
 30
0.0
 11
-25.4500148991615
 21
-23.7334800633219
 31
0.0
  0
LINE
  5
   20E
  8
0
  6
CONTINUOUS
 62
     3
 10
51.4999973078697
 20
-26.4999847412109
 30
0.0
 11
51.4999973078697
 21
-25.4999847412109
 31
0.0
  0
LINE
  5
   20F
  8
0
  6
CONTINUOUS
 62
     3
 10
51.4999973323171
 20
-25.4999847240978
 30
0.0
 11
52.4999897029225
 21
-25.4999999828869
 31
0.0
  0
LINE
  5
   210
  8
0
  6
CONTINUOUS
 62
     3
 10
-26.7252113460517
 20
-25.4999962297817
 30
0.0
 11
51.499997307872
 21
-25.4999847412093
 31
0.0
  0
POLYLINE
  5
   211
  8
0
  6
CONTINUOUS
 62
     3
 66
     1
 10
0.0
 20
0.0
 30
0.0
  0
VERTEX
  5
   212
  8
0
  6
CONTINUOUS
 10
-11.8807223165952
 20
-7.17635511806862E-7
 30
0.0
 40
0.0
 41
0.0
  0
VERTEX
  5
   213
  8
0
  6
CONTINUOUS
 10
-12.0380882028879
 20
-0.124695022286736
 30
0.0
 40
0.0
 41
0.0
  0
VERTEX
  5
   214
  8
0
  6
CONTINUOUS
 10
-12.1870378355997
 20
-0.252159435912545
 30
0.0
 40
0.0
 41
0.0
  0
VERTEX
  5
   215
  8
0
  6
CONTINUOUS
 10
-12.3275980880227
 20
-0.382387323729221
 30
0.0
 40
0.0
 41
0.0
  0
VERTEX
  5
   216
  8
0
  6
CONTINUOUS
 10
-12.4598050795586
 20
-0.515369768168507
 30
0.0
 40
0.0
 41
0.0
  0
VERTEX
  5
   217
  8
0
  6
CONTINUOUS
 10
-12.5837055478119
 20
-0.651095230119601
 30
0.0
 40
0.0
 41
0.0
  0
VERTEX
  5
   218
  8
0
  6
CONTINUOUS
 10
-12.6425586822873
 20
-0.719982186495683
 30
0.0
 40
0.0
 41
0.0
  0
VERTEX
  5
   219
  8
0
  6
CONTINUOUS
 10
-12.6993582206831
 20
-0.789549210171149
 30
0.0
 40
0.0
 41
0.0
  0
VERTEX
  5
   21A
  8
0
  6
CONTINUOUS
 10
-12.7541136025796
 20
-0.859793970595136
 30
0.0
 40
0.0
 41
0.0
  0
VERTEX
  5
   21B
  8
0
  6
CONTINUOUS
 10
-12.8068351884624
 20
-0.93071390985324
 30
0.0
 40
0.0
 41
0.0
  0
VERTEX
  5
   21C
  8
0
  6
CONTINUOUS
 10
-12.8575343026004
 20
-1.00230623208134
 30
0.0
 40
0.0
 41
0.0
  0
VERTEX
  5
   21D
  8
0
  6
CONTINUOUS
 10
-12.9062232759231
 20
-1.0745678928794
 30
0.0
 40
0.0
 41
0.0
  0
VERTEX
  5
   21E
  8
0
  6
CONTINUOUS
 10
-12.9529154888994
 20
-1.14749558872529
 30
0.0
 40
0.0
 41
0.0
  0
VERTEX
  5
   21F
  8
0
  6
CONTINUOUS
 10
-12.9976254144146
 20
-1.22108574638858
 30
0.0
 40
0.0
 41
0.0
  0
VERTEX
  5
   220
  8
0
  6
CONTINUOUS
 10
-13.0403686606493
 20
-1.29533451234439
 30
0.0
 40
0.0
 41
0.0
  0
VERTEX
  5
   221
  8
0
  6
CONTINUOUS
 10
-13.0811620139563
 20
-1.37023774218716
 30
0.0
 40
0.0
 41
0.0
  0
VERTEX
  5
   222
  8
0
  6
CONTINUOUS
 10
-13.1200234817393
 20
-1.4457909900445
 30
0.0
 40
0.0
 41
0.0
  0
VERTEX
  5
   223
  8
0
  6
CONTINUOUS
 10
-13.1569723353304
 20
-1.52198949799095
 30
0.0
 40
0.0
 41
0.0
  0
VERTEX
  5
   224
  8
0
  6
CONTINUOUS
 10
-13.225215862176
 20
-1.67630163866714
 30
0.0
 40
0.0
 41
0.0
  0
VERTEX
  5
   225
  8
0
  6
CONTINUOUS
 10
-13.286073673082
 20
-1.83312945747635
 30
0.0
 40
0.0
 41
0.0
  0
VERTEX
  5
   226
  8
0
  6
CONTINUOUS
 10
-13.3397498136806
 20
-1.9924225773146
 30
0.0
 40
0.0
 41
0.0
  0
VERTEX
  5
   227
  8
0
  6
CONTINUOUS
 10
-13.3864726687407
 20
-2.15412461195529
 30
0.0
 40
0.0
 41
0.0
  0
VERTEX
  5
   228
  8
0
  6
CONTINUOUS
 10
-13.4264963342613
 20
-2.31817282729122
 30
0.0
 40
0.0
 41
0.0
  0
VERTEX
  5
   229
  8
0
  6
CONTINUOUS
 10
-13.460101989565
 20
-2.48449780257656
 30
0.0
 40
0.0
 41
0.0
  0
VERTEX
  5
   22A
  8
0
  6
CONTINUOUS
 10
-13.4875992693913
 20
-2.65302309166887
 30
0.0
 40
0.0
 41
0.0
  0
VERTEX
  5
   22B
  8
0
  6
CONTINUOUS
 10
-13.5093276359897
 20
-2.82366488427106
 30
0.0
 40
0.0
 41
0.0
  0
VERTEX
  5
   22C
  8
0
  6
CONTINUOUS
 10
-13.5256577512138
 20
-2.99633166717342
 30
0.0
 40
0.0
 41
0.0
  0
VERTEX
  5
   22D
  8
0
  6
CONTINUOUS
 10
-13.5392744625448
 20
-3.21887433710571
 30
0.0
 40
0.0
 41
0.0
  0
VERTEX
  5
   22E
  8
0
  6
CONTINUOUS
 10
-13.5457089984619
 20
-3.44431131298729
 30
0.0
 40
0.0
 41
0.0
  0
VERTEX
  5
   22F
  8
0
  6
CONTINUOUS
 10
-13.5459448045399
 20
-3.67239820678813
 30
0.0
 40
0.0
 41
0.0
  0
VERTEX
  5
   230
  8
0
  6
CONTINUOUS
 10
-13.5410289084444
 20
-3.90287239850856
 30
0.0
 40
0.0
 41
0.0
  0
VERTEX
  5
   231
  8
0
  6
CONTINUOUS
 10
-13.5320591677427
 20
-4.13545491753417
 30
0.0
 40
0.0
 41
0.0
  0
VERTEX
  5
   232
  8
0
  6
CONTINUOUS
 10
-13.5201715177152
 20
-4.36985232399089
 30
0.0
 40
0.0
 41
0.0
  0
VERTEX
  5
   233
  8
0
  6
CONTINUOUS
 10
-13.4923001062319
 20
-4.84285698153295
 30
0.0
 40
0.0
 41
0.0
  0
VERTEX
  5
   234
  8
0
  6
CONTINUOUS
 10
-13.4667791273031
 20
-5.31932095843851
 30
0.0
 40
0.0
 41
0.0
  0
VERTEX
  5
   235
  8
0
  6
CONTINUOUS
 10
-13.4577810265544
 20
-5.55801647470083
 30
0.0
 40
0.0
 41
0.0
  0
VERTEX
  5
   236
  8
0
  6
CONTINUOUS
 10
-13.4527661375365
 20
-5.79656774057655
 30
0.0
 40
0.0
 41
0.0
  0
VERTEX
  5
   237
  8
0
  6
CONTINUOUS
 10
-13.4527798782228
 20
-6.03463270931388
 30
0.0
 40
0.0
 41
0.0
  0
VERTEX
  5
   238
  8
0
  6
CONTINUOUS
 10
-13.4588037267864
 20
-6.27186991574137
 30
0.0
 40
0.0
 41
0.0
  0
VERTEX
  5
   239
  8
0
  6
CONTINUOUS
 10
-13.471742469411
 20
-6.50794035762288
 30
0.0
 40
0.0
 41
0.0
  0
VERTEX
  5
   23A
  8
0
  6
CONTINUOUS
 10
-13.4810635629787
 20
-6.6254332401087
 30
0.0
 40
0.0
 41
0.0
  0
VERTEX
  5
   23B
  8
0
  6
CONTINUOUS
 10
-13.4924114481018
 20
-6.74250937701265
 30
0.0
 40
0.0
 41
0.0
  0
VERTEX
  5
   23C
  8
0
  6
CONTINUOUS
 10
-13.5058719747218
 20
-6.85912792354668
 30
0.0
 40
0.0
 41
0.0
  0
VERTEX
  5
   23D
  8
0
  6
CONTINUOUS
 10
-13.5215238084959
 20
-6.97524854161025
 30
0.0
 40
0.0
 41
0.0
  0
VERTEX
  5
   23E
  8
0
  6
CONTINUOUS
 10
-13.53943803229
 20
-7.09083145858272
 30
0.0
 40
0.0
 41
0.0
  0
VERTEX
  5
   23F
  8
0
  6
CONTINUOUS
 10
-13.5596777476739
 20
-7.20583752611561
 30
0.0
 40
0.0
 41
0.0
  0
VERTEX
  5
   240
  8
0
  6
CONTINUOUS
 10
-13.5822976764144
 20
-7.32022827892504
 30
0.0
 40
0.0
 41
0.0
  0
VERTEX
  5
   241
  8
0
  6
CONTINUOUS
 10
-13.6073437619702
 20
-7.43396599358399
 30
0.0
 40
0.0
 41
0.0
  0
VERTEX
  5
   242
  8
0
  6
CONTINUOUS
 10
-13.6348527709855
 20
-7.54701374731472
 30
0.0
 40
0.0
 41
0.0
  0
VERTEX
  5
   243
  8
0
  6
CONTINUOUS
 10
-13.6648518947842
 20
-7.65933547678105
 30
0.0
 40
0.0
 41
0.0
  0
VERTEX
  5
   244
  8
0
  6
CONTINUOUS
 10
-13.7102052147405
 20
-7.81255594844713
 30
0.0
 40
0.0
 41
0.0
  0
VERTEX
  5
   245
  8
0
  6
CONTINUOUS
 10
-13.7603128733319
 20
-7.96424869821502
 30
0.0
 40
0.0
 41
0.0
  0
VERTEX
  5
   246
  8
0
  6
CONTINUOUS
 10
-13.8151539241413
 20
-8.11432972818013
 30
0.0
 40
0.0
 41
0.0
  0
VERTEX
  5
   247
  8
0
  6
CONTINUOUS
 10
-13.8746753653185
 20
-8.26272004112415
 30
0.0
 40
0.0
 41
0.0
  0
VERTEX
  5
   248
  8
0
  6
CONTINUOUS
 10
-13.9387946632176
 20
-8.4093463934055
 30
0.0
 40
0.0
 41
0.0
  0
VERTEX
  5
   249
  8
0
  6
CONTINUOUS
 10
-14.0074022760342
 20
-8.55414204784972
 30
0.0
 40
0.0
 41
0.0
  0
VERTEX
  5
   24A
  8
0
  6
CONTINUOUS
 10
-14.0803641774427
 20
-8.69704752663992
 30
0.0
 40
0.0
 41
0.0
  0
VERTEX
  5
   24B
  8
0
  6
CONTINUOUS
 10
-14.1575243802331
 20
-8.83801136420718
 30
0.0
 40
0.0
 41
0.0
  0
VERTEX
  5
   24C
  8
0
  6
CONTINUOUS
 10
-14.2387074599486
 20
-8.976990860121
 30
0.0
 40
0.0
 41
0.0
  0
VERTEX
  5
   24D
  8
0
  6
CONTINUOUS
 10
-14.3237210785229
 20
-9.11395283197969
 30
0.0
 40
0.0
 41
0.0
  0
VERTEX
  5
   24E
  8
0
  6
CONTINUOUS
 10
-14.4123585079169
 20
-9.24887436830084
 30
0.0
 40
0.0
 41
0.0
  0
VERTEX
  5
   24F
  8
0
  6
CONTINUOUS
 10
-14.5044011537565
 20
-9.38174358141167
 30
0.0
 40
0.0
 41
0.0
  0
VERTEX
  5
   250
  8
0
  6
CONTINUOUS
 10
-14.5996210789693
 20
-9.51256036033953
 30
0.0
 40
0.0
 41
0.0
  0
VERTEX
  5
   251
  8
0
  6
CONTINUOUS
 10
-14.6977835274221
 20
-9.64133712370228
 30
0.0
 40
0.0
 41
0.0
  0
VERTEX
  5
   252
  8
0
  6
CONTINUOUS
 10
-14.7986494475581
 20
-9.76809957259872
 30
0.0
 40
0.0
 41
0.0
  0
VERTEX
  5
   253
  8
0
  6
CONTINUOUS
 10
-14.9019780160339
 20
-9.89288744349901
 30
0.0
 40
0.0
 41
0.0
  0
VERTEX
  5
   254
  8
0
  6
CONTINUOUS
 10
-15.0075291613572
 20
-10.0157552611351
 30
0.0
 40
0.0
 41
0.0
  0
VERTEX
  5
   255
  8
0
  6
CONTINUOUS
 10
-15.1150660875233
 20
-10.1367730913912
 30
0.0
 40
0.0
 41
0.0
  0
VERTEX
  5
   256
  8
0
  6
CONTINUOUS
 10
-15.2243577976528
 20
-10.256027294194
 30
0.0
 40
0.0
 41
0.0
  0
VERTEX
  5
   257
  8
0
  6
CONTINUOUS
 10
-15.3351816176287
 20
-10.3736212764034
 30
0.0
 40
0.0
 41
0.0
  0
VERTEX
  5
   258
  8
0
  6
CONTINUOUS
 10
-15.4727327398165
 20
-10.5156039225108
 30
0.0
 40
0.0
 41
0.0
  0
VERTEX
  5
   259
  8
0
  6
CONTINUOUS
 10
-15.6119019776945
 20
-10.6555369357352
 30
0.0
 40
0.0
 41
0.0
  0
VERTEX
  5
   25A
  8
0
  6
CONTINUOUS
 10
-15.8937631365907
 20
-10.930467143671
 30
0.0
 40
0.0
 41
0.0
  0
VERTEX
  5
   25B
  8
0
  6
CONTINUOUS
 10
-16.46324532334
 20
-11.4705085657159
 30
0.0
 40
0.0
 41
0.0
  0
VERTEX
  5
   25C
  8
0
  6
CONTINUOUS
 10
-16.7464445499341
 20
-11.7418227858257
 30
0.0
 40
0.0
 41
0.0
  0
VERTEX
  5
   25D
  8
0
  6
CONTINUOUS
 10
-16.8867002763727
 20
-11.8791914496362
 30
0.0
 40
0.0
 41
0.0
  0
VERTEX
  5
   25E
  8
0
  6
CONTINUOUS
 10
-17.025675870363
 20
-12.0182117486832
 30
0.0
 40
0.0
 41
0.0
  0
VERTEX
  5
   25F
  8
0
  6
CONTINUOUS
 10
-17.1630649050046
 20
-12.1592459296682
 30
0.0
 40
0.0
 41
0.0
  0
VERTEX
  5
   260
  8
0
  6
CONTINUOUS
 10
-17.2985413659313
 20
-12.302633192929
 30
0.0
 40
0.0
 41
0.0
  0
VERTEX
  5
   261
  8
0
  6
CONTINUOUS
 10
-17.4317555090847
 20
-12.4486842890361
 30
0.0
 40
0.0
 41
0.0
  0
VERTEX
  5
   262
  8
0
  6
CONTINUOUS
 10
-17.562329718488
 20
-12.5976761153882
 30
0.0
 40
0.0
 41
0.0
  0
VERTEX
  5
   263
  8
0
  6
CONTINUOUS
 10
-17.6898543640196
 20
-12.7498463128088
 30
0.0
 40
0.0
 41
0.0
  0
VERTEX
  5
   264
  8
0
  6
CONTINUOUS
 10
-17.8138836591874
 20
-12.9053878621415
 30
0.0
 40
0.0
 41
0.0
  0
VERTEX
  5
   265
  8
0
  6
CONTINUOUS
 10
-17.933931518902
 20
-13.0644436808464
 30
0.0
 40
0.0
 41
0.0
  0
VERTEX
  5
   266
  8
0
  6
CONTINUOUS
 10
-18.0494674172511
 20
-13.2271012195961
 30
0.0
 40
0.0
 41
0.0
  0
VERTEX
  5
   267
  8
0
  6
CONTINUOUS
 10
-18.1251608148491
 20
-13.3397812332793
 30
0.0
 40
0.0
 41
0.0
  0
VERTEX
  5
   268
  8
0
  6
CONTINUOUS
 10
-18.1983064339121
 20
-13.4541318798404
 30
0.0
 40
0.0
 41
0.0
  0
VERTEX
  5
   269
  8
0
  6
CONTINUOUS
 10
-18.2687018186097
 20
-13.5701316400191
 30
0.0
 40
0.0
 41
0.0
  0
VERTEX
  5
   26A
  8
0
  6
CONTINUOUS
 10
-18.3361404474715
 20
-13.6877470203599
 30
0.0
 40
0.0
 41
0.0
  0
VERTEX
  5
   26B
  8
0
  6
CONTINUOUS
 10
-18.4004153371355
 20
-13.8069336510575
 30
0.0
 40
0.0
 41
0.0
  0
VERTEX
  5
   26C
  8
0
  6
CONTINUOUS
 10
-18.4613226460948
 20
-13.9276373838021
 30
0.0
 40
0.0
 41
0.0
  0
VERTEX
  5
   26D
  8
0
  6
CONTINUOUS
 10
-18.5186652784458
 20
-14.0497953896251
 30
0.0
 40
0.0
 41
0.0
  0
VERTEX
  5
   26E
  8
0
  6
CONTINUOUS
 10
-18.5722564876352
 20
-14.1733372567445
 30
0.0
 40
0.0
 41
0.0
  0
VERTEX
  5
   26F
  8
0
  6
CONTINUOUS
 10
-18.6219234802078
 20
-14.2981860884109
 30
0.0
 40
0.0
 41
0.0
  0
VERTEX
  5
   270
  8
0
  6
CONTINUOUS
 10
-18.6675110195543
 20
-14.4242596007524
 30
0.0
 40
0.0
 41
0.0
  0
VERTEX
  5
   271
  8
0
  6
CONTINUOUS
 10
-18.7088850296582
 20
-14.5514712206204
 30
0.0
 40
0.0
 41
0.0
  0
VERTEX
  5
   272
  8
0
  6
CONTINUOUS
 10
-18.7459361988438
 20
-14.6797311834354
 30
0.0
 40
0.0
 41
0.0
  0
VERTEX
  5
   273
  8
0
  6
CONTINUOUS
 10
-18.7785835835239
 20
-14.8089476310319
 30
0.0
 40
0.0
 41
0.0
  0
VERTEX
  5
   274
  8
0
  6
CONTINUOUS
 10
-18.8067782119466
 20
-14.9390277095047
 30
0.0
 40
0.0
 41
0.0
  0
VERTEX
  5
   275
  8
0
  6
CONTINUOUS
 10
-18.8305066879437
 20
-15.0698786670537
 30
0.0
 40
0.0
 41
0.0
  0
VERTEX
  5
   276
  8
0
  6
CONTINUOUS
 10
-18.8497947946776
 20
-15.2014089518301
 30
0.0
 40
0.0
 41
0.0
  0
VERTEX
  5
   277
  8
0
  6
CONTINUOUS
 10
-18.8647110983892
 20
-15.3335293097812
 30
0.0
 40
0.0
 41
0.0
  0
VERTEX
  5
   278
  8
0
  6
CONTINUOUS
 10
-18.8753705521454
 20
-15.4661538824968
 30
0.0
 40
0.0
 41
0.0
  0
VERTEX
  5
   279
  8
0
  6
CONTINUOUS
 10
-18.8819380995863
 20
-15.599201305054
 30
0.0
 40
0.0
 41
0.0
  0
VERTEX
  5
   27A
  8
0
  6
CONTINUOUS
 10
-18.8846322786733
 20
-15.7325958038629
 30
0.0
 40
0.0
 41
0.0
  0
VERTEX
  5
   27B
  8
0
  6
CONTINUOUS
 10
-18.8842190005345
 20
-15.8369168510388
 30
0.0
 40
0.0
 41
0.0
  0
VERTEX
  5
   27C
  8
0
  6
CONTINUOUS
 10
-18.8817683995859
 20
-15.9413773544323
 30
0.0
 40
0.0
 41
0.0
  0
VERTEX
  5
   27D
  8
0
  6
CONTINUOUS
 10
-18.8714788565952
 20
-16.1506101986441
 30
0.0
 40
0.0
 41
0.0
  0
VERTEX
  5
   27E
  8
0
  6
CONTINUOUS
 10
-18.85538066569
 20
-16.3601019191307
 30
0.0
 40
0.0
 41
0.0
  0
VERTEX
  5
   27F
  8
0
  6
CONTINUOUS
 10
-18.8353142465831
 20
-16.5696860109618
 30
0.0
 40
0.0
 41
0.0
  0
VERTEX
  5
   280
  8
0
  6
CONTINUOUS
 10
-18.7913421550987
 20
-16.9885338250813
 30
0.0
 40
0.0
 41
0.0
  0
VERTEX
  5
   281
  8
0
  6
CONTINUOUS
 10
-18.7716144415617
 20
-17.1975025606325
 30
0.0
 40
0.0
 41
0.0
  0
VERTEX
  5
   282
  8
0
  6
CONTINUOUS
 10
-18.7561366621251
 20
-17.4059533520397
 30
0.0
 40
0.0
 41
0.0
  0
VERTEX
  5
   283
  8
0
  6
CONTINUOUS
 10
-18.7468330897795
 20
-17.6136966914533
 30
0.0
 40
0.0
 41
0.0
  0
VERTEX
  5
   284
  8
0
  6
CONTINUOUS
 10
-18.7450479344463
 20
-17.7172345221966
 30
0.0
 40
0.0
 41
0.0
  0
VERTEX
  5
   285
  8
0
  6
CONTINUOUS
 10
-18.7454381351029
 20
-17.8205079574186
 30
0.0
 40
0.0
 41
0.0
  0
VERTEX
  5
   286
  8
0
  6
CONTINUOUS
 10
-18.7477872405867
 20
-17.9129842949241
 30
0.0
 40
0.0
 41
0.0
  0
VERTEX
  5
   287
  8
0
  6
CONTINUOUS
 10
-18.7521459809002
 20
-18.005191315638
 30
0.0
 40
0.0
 41
0.0
  0
VERTEX
  5
   288
  8
0
  6
CONTINUOUS
 10
-18.7586152097789
 20
-18.0970991504369
 30
0.0
 40
0.0
 41
0.0
  0
VERTEX
  5
   289
  8
0
  6
CONTINUOUS
 10
-18.7672833462021
 20
-18.1886760194679
 30
0.0
 40
0.0
 41
0.0
  0
VERTEX
  5
   28A
  8
0
  6
CONTINUOUS
 10
-18.7782268121109
 20
-18.2798884032864
 30
0.0
 40
0.0
 41
0.0
  0
VERTEX
  5
   28B
  8
0
  6
CONTINUOUS
 10
-18.7915104701262
 20
-18.3707012139947
 30
0.0
 40
0.0
 41
0.0
  0
VERTEX
  5
   28C
  8
0
  6
CONTINUOUS
 10
-18.8071880612666
 20
-18.4610779663801
 30
0.0
 40
0.0
 41
0.0
  0
VERTEX
  5
   28D
  8
0
  6
CONTINUOUS
 10
-18.8253026426664
 20
-18.5509809490533
 30
0.0
 40
0.0
 41
0.0
  0
VERTEX
  5
   28E
  8
0
  6
CONTINUOUS
 10
-18.8458870252939
 20
-18.6403713955868
 30
0.0
 40
0.0
 41
0.0
  0
VERTEX
  5
   28F
  8
0
  6
CONTINUOUS
 10
-18.8689642116689
 20
-18.7292096556529
 30
0.0
 40
0.0
 41
0.0
  0
VERTEX
  5
   290
  8
0
  6
CONTINUOUS
 10
-18.8945478335812
 20
-18.8174553661621
 30
0.0
 40
0.0
 41
0.0
  0
VERTEX
  5
   291
  8
0
  6
CONTINUOUS
 10
-18.9226425898082
 20
-18.9050676224014
 30
0.0
 40
0.0
 41
0.0
  0
VERTEX
  5
   292
  8
0
  6
CONTINUOUS
 10
-18.9532446838331
 20
-18.9920051491727
 30
0.0
 40
0.0
 41
0.0
  0
VERTEX
  5
   293
  8
0
  6
CONTINUOUS
 10
-18.9863422615628
 20
-19.0782264719308
 30
0.0
 40
0.0
 41
0.0
  0
VERTEX
  5
   294
  8
0
  6
CONTINUOUS
 10
-19.021915849046
 20
-19.1636900879219
 30
0.0
 40
0.0
 41
0.0
  0
VERTEX
  5
   295
  8
0
  6
CONTINUOUS
 10
-19.0599387901913
 20
-19.2483546373218
 30
0.0
 40
0.0
 41
0.0
  0
VERTEX
  5
   296
  8
0
  6
CONTINUOUS
 10
-19.1003776844846
 20
-19.3321790743743
 30
0.0
 40
0.0
 41
0.0
  0
VERTEX
  5
   297
  8
0
  6
CONTINUOUS
 10
-19.1431928247081
 20
-19.4151228385293
 30
0.0
 40
0.0
 41
0.0
  0
VERTEX
  5
   298
  8
0
  6
CONTINUOUS
 10
-19.1883386346573
 20
-19.497146025581
 30
0.0
 40
0.0
 41
0.0
  0
VERTEX
  5
   299
  8
0
  6
CONTINUOUS
 10
-19.2357641068597
 20
-19.5782095588067
 30
0.0
 40
0.0
 41
0.0
  0
VERTEX
  5
   29A
  8
0
  6
CONTINUOUS
 10
-19.2854132402923
 20
-19.6582753601044
 30
0.0
 40
0.0
 41
0.0
  0
VERTEX
  5
   29B
  8
0
  6
CONTINUOUS
 10
-19.3372254781001
 20
-19.7373065211315
 30
0.0
 40
0.0
 41
0.0
  0
VERTEX
  5
   29C
  8
0
  6
CONTINUOUS
 10
-19.3911361453136
 20
-19.8152674744432
 30
0.0
 40
0.0
 41
0.0
  0
VERTEX
  5
   29D
  8
0
  6
CONTINUOUS
 10
-19.447076886567
 20
-19.8921241646302
 30
0.0
 40
0.0
 41
0.0
  0
VERTEX
  5
   29E
  8
0
  6
CONTINUOUS
 10
-19.5049761038166
 20
-19.9678442194575
 30
0.0
 40
0.0
 41
0.0
  0
VERTEX
  5
   29F
  8
0
  6
CONTINUOUS
 10
-19.5647593940579
 20
-20.0423971210028
 30
0.0
 40
0.0
 41
0.0
  0
VERTEX
  5
   2A0
  8
0
  6
CONTINUOUS
 10
-19.6263499870445
 20
-20.115754376794
 30
0.0
 40
0.0
 41
0.0
  0
VERTEX
  5
   2A1
  8
0
  6
CONTINUOUS
 10
-19.6896691830055
 20
-20.1878896909484
 30
0.0
 40
0.0
 41
0.0
  0
VERTEX
  5
   2A2
  8
0
  6
CONTINUOUS
 10
-19.7546367903638
 20
-20.2587791353103
 30
0.0
 40
0.0
 41
0.0
  0
VERTEX
  5
   2A3
  8
0
  6
CONTINUOUS
 10
-19.821171563454
 20
-20.3284013205899
 30
0.0
 40
0.0
 41
0.0
  0
VERTEX
  5
   2A4
  8
0
  6
CONTINUOUS
 10
-19.9586149800348
 20
-20.4637720778989
 30
0.0
 40
0.0
 41
0.0
  0
VERTEX
  5
   2A5
  8
0
  6
CONTINUOUS
 10
-20.1013450189428
 20
-20.5938881291209
 30
0.0
 40
0.0
 41
0.0
  0
VERTEX
  5
   2A6
  8
0
  6
CONTINUOUS
 10
-20.2487184149115
 20
-20.7186872152003
 30
0.0
 40
0.0
 41
0.0
  0
VERTEX
  5
   2A7
  8
0
  6
CONTINUOUS
 10
-20.40011705819
 20
-20.8381641282051
 30
0.0
 40
0.0
 41
0.0
  0
VERTEX
  5
   2A8
  8
0
  6
CONTINUOUS
 10
-20.5549620015178
 20
-20.9523761877521
 30
0.0
 40
0.0
 41
0.0
  0
VERTEX
  5
   2A9
  8
0
  6
CONTINUOUS
 10
-20.68953110085
 20
-21.0458383770463
 30
0.0
 40
0.0
 41
0.0
  0
VERTEX
  5
   2AA
  8
0
  6
CONTINUOUS
 10
-20.8259375855763
 20
-21.135669762206
 30
0.0
 40
0.0
 41
0.0
  0
VERTEX
  5
   2AB
  8
0
  6
CONTINUOUS
 10
-20.9639230601744
 20
-21.2220249204068
 30
0.0
 40
0.0
 41
0.0
  0
VERTEX
  5
   2AC
  8
0
  6
CONTINUOUS
 10
-21.1032596572597
 20
-21.3050908905824
 30
0.0
 40
0.0
 41
0.0
  0
VERTEX
  5
   2AD
  8
0
  6
CONTINUOUS
 10
-21.2437474354693
 20
-21.3850838615248
 30
0.0
 40
0.0
 41
0.0
  0
VERTEX
  5
   2AE
  8
0
  6
CONTINUOUS
 10
-21.3852117773469
 20
-21.4622458599852
 30
0.0
 40
0.0
 41
0.0
  0
VERTEX
  5
   2AF
  8
0
  6
CONTINUOUS
 10
-21.527500787227
 20
-21.5368414387739
 30
0.0
 40
0.0
 41
0.0
  0
VERTEX
  5
   2B0
  8
0
  6
CONTINUOUS
 10
-21.6704826891197
 20
-21.6091543648612
 30
0.0
 40
0.0
 41
0.0
  0
VERTEX
  5
   2B1
  8
0
  6
CONTINUOUS
 10
-21.9580830506661
 20
-21.7481435262139
 30
0.0
 40
0.0
 41
0.0
  0
VERTEX
  5
   2B2
  8
0
  6
CONTINUOUS
 10
-22.2472621671836
 20
-21.8817419108181
 30
0.0
 40
0.0
 41
0.0
  0
VERTEX
  5
   2B3
  8
0
  6
CONTINUOUS
 10
-22.8280475152863
 20
-22.1432519610222
 30
0.0
 40
0.0
 41
0.0
  0
VERTEX
  5
   2B4
  8
0
  6
CONTINUOUS
 10
-23.1185961835407
 20
-22.2762741619568
 30
0.0
 40
0.0
 41
0.0
  0
VERTEX
  5
   2B5
  8
0
  6
CONTINUOUS
 10
-23.4084419447107
 20
-22.413914695241
 30
0.0
 40
0.0
 41
0.0
  0
VERTEX
  5
   2B6
  8
0
  6
CONTINUOUS
 10
-23.5729221847255
 20
-22.4951397272573
 30
0.0
 40
0.0
 41
0.0
  0
VERTEX
  5
   2B7
  8
0
  6
CONTINUOUS
 10
-23.7367350650165
 20
-22.5788045741134
 30
0.0
 40
0.0
 41
0.0
  0
VERTEX
  5
   2B8
  8
0
  6
CONTINUOUS
 10
-23.8996730794607
 20
-22.665168264236
 30
0.0
 40
0.0
 41
0.0
  0
VERTEX
  5
   2B9
  8
0
  6
CONTINUOUS
 10
-24.0615060419566
 20
-22.7544492820306
 30
0.0
 40
0.0
 41
0.0
  0
VERTEX
  5
   2BA
  8
0
  6
CONTINUOUS
 10
-24.2219834803203
 20
-22.8468281597424
 30
0.0
 40
0.0
 41
0.0
  0
VERTEX
  5
   2BB
  8
0
  6
CONTINUOUS
 10
-24.3808370301816
 20
-22.9424500693175
 30
0.0
 40
0.0
 41
0.0
  0
VERTEX
  5
   2BC
  8
0
  6
CONTINUOUS
 10
-24.5377828288802
 20
-23.0414274142638
 30
0.0
 40
0.0
 41
0.0
  0
VERTEX
  5
   2BD
  8
0
  6
CONTINUOUS
 10
-24.6925239093621
 20
-23.1438424215123
 30
0.0
 40
0.0
 41
0.0
  0
VERTEX
  5
   2BE
  8
0
  6
CONTINUOUS
 10
-24.8447525940758
 20
-23.249749733278
 30
0.0
 40
0.0
 41
0.0
  0
VERTEX
  5
   2BF
  8
0
  6
CONTINUOUS
 10
-24.9941528888687
 20
-23.3591789989207
 30
0.0
 40
0.0
 41
0.0
  0
VERTEX
  5
   2C0
  8
0
  6
CONTINUOUS
 10
-25.1404028768827
 20
-23.4721374668068
 30
0.0
 40
0.0
 41
0.0
  0
VERTEX
  5
   2C1
  8
0
  6
CONTINUOUS
 10
-25.2831771124515
 20
-23.5886125761695
 30
0.0
 40
0.0
 41
0.0
  0
VERTEX
  5
   2C2
  8
0
  6
CONTINUOUS
 10
-25.4221490149957
 20
-23.7085745489704
 30
0.0
 40
0.0
 41
0.0
  0
VERTEX
  5
   2C3
  8
0
  6
CONTINUOUS
 10
-25.5569932629201
 20
-23.8319789817604
 30
0.0
 40
0.0
 41
0.0
  0
VERTEX
  5
   2C4
  8
0
  6
CONTINUOUS
 10
-25.687388187509
 20
-23.958769437541
 30
0.0
 40
0.0
 41
0.0
  0
VERTEX
  5
   2C5
  8
0
  6
CONTINUOUS
 10
-25.8130181668233
 20
-24.0888800376248
 30
0.0
 40
0.0
 41
0.0
  0
VERTEX
  5
   2C6
  8
0
  6
CONTINUOUS
 10
-25.933576019596
 20
-24.222238053497
 30
0.0
 40
0.0
 41
0.0
  0
VERTEX
  5
   2C7
  8
0
  6
CONTINUOUS
 10
-26.0487653991288
 20
-24.3587664986766
 30
0.0
 40
0.0
 41
0.0
  0
VERTEX
  5
   2C8
  8
0
  6
CONTINUOUS
 10
-26.1583031871886
 20
-24.4983867205769
 30
0.0
 40
0.0
 41
0.0
  0
VERTEX
  5
   2C9
  8
0
  6
CONTINUOUS
 10
-26.2619218879033
 20
-24.641020992367
 30
0.0
 40
0.0
 41
0.0
  0
VERTEX
  5
   2CA
  8
0
  6
CONTINUOUS
 10
-26.3193202928071
 20
-24.7252670939351
 30
0.0
 40
0.0
 41
0.0
  0
VERTEX
  5
   2CB
  8
0
  6
CONTINUOUS
 10
-26.3745890952435
 20
-24.8104921971462
 30
0.0
 40
0.0
 41
0.0
  0
VERTEX
  5
   2CC
  8
0
  6
CONTINUOUS
 10
-26.4276846358967
 20
-24.8966832332298
 30
0.0
 40
0.0
 41
0.0
  0
VERTEX
  5
   2CD
  8
0
  6
CONTINUOUS
 10
-26.478565468312
 20
-24.9838277958021
 30
0.0
 40
0.0
 41
0.0
  0
VERTEX
  5
   2CE
  8
0
  6
CONTINUOUS
 10
-26.5271923013383
 20
-25.0719141236378
 30
0.0
 40
0.0
 41
0.0
  0
VERTEX
  5
   2CF
  8
0
  6
CONTINUOUS
 10
-26.5735279415717
 20
-25.1609310834414
 30
0.0
 40
0.0
 41
0.0
  0
VERTEX
  5
   2D0
  8
0
  6
CONTINUOUS
 10
-26.6175372357988
 20
-25.2508681526179
 30
0.0
 40
0.0
 41
0.0
  0
VERTEX
  5
   2D1
  8
0
  6
CONTINUOUS
 10
-26.6591870134399
 20
-25.3417154020446
 30
0.0
 40
0.0
 41
0.0
  0
VERTEX
  5
   2D2
  8
0
  6
CONTINUOUS
 10
-26.6984460289924
 20
-25.4334634788421
 30
0.0
 40
0.0
 41
0.0
  0
VERTEX
  5
   2D3
  8
0
  6
CONTINUOUS
 10
-26.7352849044739
 20
-25.5261035891458
 30
0.0
 40
0.0
 41
0.0
  0
VERTEX
  5
   2D4
  8
0
  6
CONTINUOUS
 10
-26.7696760718657
 20
-25.6196274808766
 30
0.0
 40
0.0
 41
0.0
  0
VERTEX
  5
   2D5
  8
0
  6
CONTINUOUS
 10
-26.8015937155559
 20
-25.7140274265128
 30
0.0
 40
0.0
 41
0.0
  0
VERTEX
  5
   2D6
  8
0
  6
CONTINUOUS
 10
-26.831013714783
 20
-25.8092962058608
 30
0.0
 40
0.0
 41
0.0
  0
VERTEX
  5
   2D7
  8
0
  6
CONTINUOUS
 10
-26.8579135860787
 20
-25.9054270888269
 30
0.0
 40
0.0
 41
0.0
  0
VERTEX
  5
   2D8
  8
0
  6
CONTINUOUS
 10
-26.8822724257115
 20
-26.002413818188
 30
0.0
 40
0.0
 41
0.0
  0
VERTEX
  5
   2D9
  8
0
  6
CONTINUOUS
 10
-26.90407085213
 20
-26.1002505923631
 30
0.0
 40
0.0
 41
0.0
  0
VERTEX
  5
   2DA
  8
0
  6
CONTINUOUS
 10
-26.9232909484063
 20
-26.1989320481847
 30
0.0
 40
0.0
 41
0.0
  0
VERTEX
  5
   2DB
  8
0
  6
CONTINUOUS
 10
-26.9399162046787
 20
-26.2984532436699
 30
0.0
 40
0.0
 41
0.0
  0
VERTEX
  5
   2DC
  8
0
  6
CONTINUOUS
 10
-26.9539314605958
 20
-26.3988096407913
 30
0.0
 40
0.0
 41
0.0
  0
VERTEX
  5
   2DD
  8
0
  6
CONTINUOUS
 10
-26.9653228477591
 20
-26.499997088249
 30
0.0
 40
0.0
 41
0.0
  0
SEQEND
  5
   2DE
  8
0
  6
CONTINUOUS
 62
     3
  0
ENDBLK
  5
   2DF
  8
0
  6
CONTINUOUS
 62
     7
  0
BLOCK
  5
   2E0
  8
0
  6
CONTINUOUS
 62
     7
  2
MOSTRINA
 70
    64
 10
0.0
 20
0.0
 30
0.0
  3
MOSTRINA
  0
LINE
  5
   2E1
  8
0
  6
CONTINUOUS
 62
     3
 10
173.338256835938
 20
30.7306251525879
 30
0.0
 11
173.338256835938
 21
189.230621337891
 31
0.0
  0
LINE
  5
   2E2
  8
0
  6
CONTINUOUS
 62
     3
 10
57.5882568359375
 20
29.4806251525879
 30
0.0
 11
172.088256835938
 21
29.4806251525879
 31
0.0
  0
LINE
  5
   2E3
  8
0
  6
CONTINUOUS
 62
     3
 10
56.3382568359375
 20
30.7306251525879
 30
0.0
 11
56.3382568359375
 21
189.230621337891
 31
0.0
  0
LINE
  5
   2E4
  8
0
  6
CONTINUOUS
 62
     3
 10
57.5882568359375
 20
190.480621337891
 30
0.0
 11
172.088256835938
 21
190.480621337891
 31
0.0
  0
LINE
  5
   2E5
  8
0
  6
CONTINUOUS
 62
     3
 10
167.838256835938
 20
56.9806251525879
 30
0.0
 11
167.838256835938
 21
162.980625152588
 31
0.0
  0
LINE
  5
   2E6
  8
0
  6
CONTINUOUS
 62
     3
 10
61.8382568359375
 20
56.9806251525879
 30
0.0
 11
167.838256835938
 21
56.9806251525879
 31
0.0
  0
LINE
  5
   2E7
  8
0
  6
CONTINUOUS
 62
     3
 10
61.8382568359375
 20
56.9806251525879
 30
0.0
 11
61.8382568359375
 21
162.980625152588
 31
0.0
  0
LINE
  5
   2E8
  8
0
  6
CONTINUOUS
 62
     3
 10
61.8382568359375
 20
162.980621337891
 30
0.0
 11
167.838256835938
 21
162.980621337891
 31
0.0
  0
LINE
  5
   2E9
  8
0
  6
CONTINUOUS
 62
     3
 10
168.838256835938
 20
48.4806251525879
 30
0.0
 11
168.838256835938
 21
49.4806251525879
 31
0.0
  0
LINE
  5
   2EA
  8
0
  6
CONTINUOUS
 62
     3
 10
61.8382568359375
 20
50.4806251525879
 30
0.0
 11
167.838256835938
 21
50.4806251525879
 31
0.0
  0
LINE
  5
   2EB
  8
0
  6
CONTINUOUS
 62
     3
 10
60.8382568359375
 20
48.4806251525879
 30
0.0
 11
60.8382568359375
 21
49.4806251525879
 31
0.0
  0
LINE
  5
   2EC
  8
0
  6
CONTINUOUS
 62
     3
 10
61.8382568359375
 20
49.4806251525879
 30
0.0
 11
167.838256835938
 21
49.4806251525879
 31
0.0
  0
LINE
  5
   2ED
  8
0
  6
CONTINUOUS
 62
     3
 10
60.8382568359375
 20
29.4806251525879
 30
0.0
 11
60.8382568359375
 21
48.4806251525879
 31
0.0
  0
LINE
  5
   2EE
  8
0
  6
CONTINUOUS
 62
     3
 10
60.8382568359375
 20
49.4806213378906
 30
0.0
 11
60.8382568359375
 21
190.480621337891
 31
0.0
  0
LINE
  5
   2EF
  8
0
  6
CONTINUOUS
 62
     3
 10
61.8382568359375
 20
29.4806251525879
 30
0.0
 11
61.8382568359375
 21
49.4806251525879
 31
0.0
  0
LINE
  5
   2F0
  8
0
  6
CONTINUOUS
 62
     3
 10
61.8382568359375
 20
162.980621337891
 30
0.0
 11
61.8382568359375
 21
169.480621337891
 31
0.0
  0
LINE
  5
   2F1
  8
0
  6
CONTINUOUS
 62
     3
 10
61.8382568359375
 20
50.4806251525879
 30
0.0
 11
61.8382568359375
 21
56.9806251525879
 31
0.0
  0
LINE
  5
   2F2
  8
0
  6
CONTINUOUS
 62
     3
 10
168.838256835938
 20
29.4806251525879
 30
0.0
 11
168.838256835938
 21
48.4806251525879
 31
0.0
  0
LINE
  5
   2F3
  8
0
  6
CONTINUOUS
 62
     3
 10
168.838256835938
 20
49.4806251525879
 30
0.0
 11
168.838256835938
 21
190.480621337891
 31
0.0
  0
LINE
  5
   2F4
  8
0
  6
CONTINUOUS
 62
     3
 10
167.838256835938
 20
50.4806251525879
 30
0.0
 11
167.838256835938
 21
56.9806251525879
 31
0.0
  0
LINE
  5
   2F5
  8
0
  6
CONTINUOUS
 62
     3
 10
167.838256835938
 20
162.980621337891
 30
0.0
 11
167.838256835938
 21
169.480621337891
 31
0.0
  0
LINE
  5
   2F6
  8
0
  6
CONTINUOUS
 62
     3
 10
167.838256835938
 20
29.4806251525879
 30
0.0
 11
167.838256835938
 21
49.4806251525879
 31
0.0
  0
LINE
  5
   2F7
  8
0
  6
CONTINUOUS
 62
     3
 10
60.8382568359375
 20
170.480621337891
 30
0.0
 11
168.838256835938
 21
170.480621337891
 31
0.0
  0
LINE
  5
   2F8
  8
0
  6
CONTINUOUS
 62
     3
 10
61.8382568359375
 20
169.480621337891
 30
0.0
 11
167.838256835938
 21
169.480621337891
 31
0.0
  0
ARC
  5
   2F9
  8
0
  6
CONTINUOUS
 62
     3
 10
57.5882568359375
 20
30.7306251525879
 30
0.0
 40
1.25
 50
180.0
 51
270.0
  0
ARC
  5
   2FA
  8
0
  6
CONTINUOUS
 62
     3
 10
172.088256835938
 20
30.7306251525879
 30
0.0
 40
1.25
 50
270.0
 51
360.0
  0
ARC
  5
   2FB
  8
0
  6
CONTINUOUS
 62
     3
 10
172.088256835938
 20
189.230621337891
 30
0.0
 40
1.25
 50
0.0
 51
90.0
  0
ARC
  5
   2FC
  8
0
  6
CONTINUOUS
 62
     3
 10
57.5882568359375
 20
189.230621337891
 30
0.0
 40
1.25
 50
90.0
 51
180.0
  0
LINE
  5
   2FD
  8
0
  6
DOT
 62
     3
 10
60.3382577409677
 20
179.7306252571
 30
0.0
 11
60.8382568359375
 21
179.7306252571
 31
0.0
  0
LINE
  5
   2FE
  8
0
  6
DOT
 62
     3
 10
60.3382577409676
 20
181.2306252571
 30
0.0
 11
60.8382568359375
 21
181.2306252571
 31
0.0
  0
LINE
  5
   2FF
  8
0
  6
CONTINUOUS
 62
     3
 10
168.338257745313
 20
179.730625257273
 30
0.0
 11
168.838256835938
 21
179.730625257273
 31
0.0
  0
LINE
  5
   300
  8
0
  6
CONTINUOUS
 62
     3
 10
168.338257745314
 20
181.230625257273
 30
0.0
 11
168.838256835938
 21
181.230625257273
 31
0.0
  0
ARC
  5
   301
  8
0
  6
DOT
 62
     3
 10
60.3382577401871
 20
180.480625257147
 30
0.0
 40
0.749999999345164
 50
90.0
 51
270.0
  0
ARC
  5
   302
  8
0
  6
CONTINUOUS
 62
     3
 10
61.338257740822
 20
180.480625256974
 30
0.0
 40
0.750000000009701
 50
270.0
 51
450.0
  0
LINE
  5
   303
  8
0
  6
CONTINUOUS
 62
     3
 10
60.8382568359375
 20
181.2306252571
 30
0.0
 11
61.3382577409688
 21
181.2306252571
 31
0.0
  0
LINE
  5
   304
  8
0
  6
CONTINUOUS
 62
     3
 10
60.8382568359375
 20
179.7306252571
 30
0.0
 11
61.3382577409689
 21
179.7306252571
 31
0.0
  0
ARC
  5
   305
  8
0
  6
CONTINUOUS
 62
     3
 10
168.338257745503
 20
180.480625256952
 30
0.0
 40
0.750000000048506
 50
90.0000000038822
 51
269.999999996024
  0
ARC
  5
   306
  8
0
  6
DOT
 62
     3
 10
169.338257745421
 20
180.480625256965
 30
0.0
 40
0.750000000029104
 50
270.000000002449
 51
449.999999997486
  0
LINE
  5
   307
  8
0
  6
DOT
 62
     3
 10
168.838256835938
 20
181.230625257273
 30
0.0
 11
169.338257745315
 21
181.230625257273
 31
0.0
  0
LINE
  5
   308
  8
0
  6
DOT
 62
     3
 10
168.838256835938
 20
179.730625257273
 30
0.0
 11
169.338257745315
 21
179.730625257273
 31
0.0
  0
POINT
  5
   309
  8
0
  6
CONTINUOUS
 62
     3
 10
114.838256835938
 20
109.980621337891
 30
0.0
  0
ENDBLK
  5
   30A
  8
0
  6
CONTINUOUS
 62
     7
  0
BLOCK
  5
   30B
  8
0
  6
CONTINUOUS
 62
     7
  2
*UDIM66
 70
    65
 10
0.0
 20
0.0
 30
0.0
  3
*UDIM66
  0
TEXT
  5
   30C
  8
0
  6
CONTINUOUS
 62
     7
 10
-624.651695254997
 20
82.2998496652923
 30
0.0
 40
3.00000002980232
  1
100
 50
89.9999999480344
 41
0.933333333333333
 72
     1
 11
-626.151695266366
 21
86.1998497053939
 31
0.0
 73
     2
  0
LINE
  5
   30D
  8
0
  6
CONTINUOUS
 62
     7
 10
-634.546589375785
 20
62.7248191833496
 30
0.0
 11
-621.651695251465
 21
62.7248191833496
 31
0.0
  0
LINE
  5
   30E
  8
0
  6
CONTINUOUS
 62
     7
 10
-650.95904507468
 20
110.224867901198
 30
0.0
 11
-621.651695251465
 21
110.224867901198
 31
0.0
  0
LINE
  5
   30F
  8
0
  6
CONTINUOUS
 62
     7
 10
-623.651695251465
 20
62.7248191833496
 30
0.0
 11
-623.651695251465
 21
110.224867901198
 31
0.0
  0
LINE
  5
   310
  8
0
  6
CONTINUOUS
 62
     7
 10
-624.172639681417
 20
65.6792424605566
 30
0.0
 11
-623.651695251465
 21
62.7248191833496
 31
0.0
  0
LINE
  5
   311
  8
0
  6
CONTINUOUS
 62
     7
 10
-623.651695251465
 20
62.7248191833496
 30
0.0
 11
-623.130750821513
 21
65.6792424605566
 31
0.0
  0
LINE
  5
   312
  8
0
  6
CONTINUOUS
 62
     7
 10
-623.130750821513
 20
107.270444623991
 30
0.0
 11
-623.651695251465
 21
110.224867901198
 31
0.0
  0
LINE
  5
   313
  8
0
  6
CONTINUOUS
 62
     7
 10
-623.651695251465
 20
110.224867901198
 30
0.0
 11
-624.172639681417
 21
107.270444623991
 31
0.0
  0
ENDBLK
  5
   314
  8
0
  6
CONTINUOUS
 62
     7
  0
BLOCK
  5
   315
  8
0
  6
CONTINUOUS
 62
     7
  2
*UDIM67
 70
    65
 10
0.0
 20
0.0
 30
0.0
  3
*UDIM67
  0
TEXT
  5
   316
  8
0
  6
CONTINUOUS
 62
     7
 10
-615.869560245232
 20
-5.32515034513435
 30
0.0
 40
3.00000002980232
  1
161
 50
89.9999999480344
 41
0.933333333333333
 72
     1
 11
-617.3695602566
 21
-1.42515030503276
 31
0.0
 73
     2
  0
LINE
  5
   317
  8
0
  6
CONTINUOUS
 62
     7
 10
-631.546528044816
 20
-41.4001483917237
 30
0.0
 11
-612.869560241699
 21
-41.4001483917237
 31
0.0
  0
LINE
  5
   318
  8
0
  6
CONTINUOUS
 62
     7
 10
-631.546528044816
 20
39.0998497009277
 30
0.0
 11
-612.869560241699
 21
39.0998497009277
 31
0.0
  0
LINE
  5
   319
  8
0
  6
CONTINUOUS
 62
     7
 10
-614.869560241699
 20
-41.4001483917237
 30
0.0
 11
-614.869560241699
 21
39.0998497009277
 31
0.0
  0
LINE
  5
   31A
  8
0
  6
CONTINUOUS
 62
     7
 10
-615.390504671651
 20
-38.4457251145167
 30
0.0
 11
-614.869560241699
 21
-41.4001483917237
 31
0.0
  0
LINE
  5
   31B
  8
0
  6
CONTINUOUS
 62
     7
 10
-614.869560241699
 20
-41.4001483917237
 30
0.0
 11
-614.348615811748
 21
-38.4457251145167
 31
0.0
  0
LINE
  5
   31C
  8
0
  6
CONTINUOUS
 62
     7
 10
-614.348615811748
 20
36.1454264237207
 30
0.0
 11
-614.869560241699
 21
39.0998497009277
 31
0.0
  0
LINE
  5
   31D
  8
0
  6
CONTINUOUS
 62
     7
 10
-614.869560241699
 20
39.0998497009277
 30
0.0
 11
-615.390504671651
 21
36.1454264237207
 31
0.0
  0
ENDBLK
  5
   31E
  8
0
  6
CONTINUOUS
 62
     7
  0
BLOCK
  5
   31F
  8
0
  6
CONTINUOUS
 62
     7
  2
*UDIM68
 70
    65
 10
0.0
 20
0.0
 30
0.0
  3
*UDIM68
  0
TEXT
  5
   320
  8
0
  6
CONTINUOUS
 62
     7
 10
-665.346531726755
 20
108.270122531594
 30
0.0
 40
3.00000002980232
  1
117
 50
359.999999948034
 41
0.933333333333333
 72
     1
 11
-661.446531686659
 21
109.770122542977
 31
0.0
 73
     2
  0
LINE
  5
   321
  8
0
  6
CONTINUOUS
 62
     7
 10
-631.921528044816
 20
39.4748497009277
 30
0.0
 11
-631.921528044816
 21
109.270122528076
 31
0.0
  0
LINE
  5
   322
  8
0
  6
CONTINUOUS
 62
     7
 10
-690.421528044816
 20
39.4748497009277
 30
0.0
 11
-690.421528044816
 21
109.270122528076
 31
0.0
  0
LINE
  5
   323
  8
0
  6
CONTINUOUS
 62
     7
 10
-631.921528044816
 20
107.270122528076
 30
0.0
 11
-690.421528044816
 21
107.270122528076
 31
0.0
  0
LINE
  5
   324
  8
0
  6
CONTINUOUS
 62
     7
 10
-634.875951322022
 20
106.749178098125
 30
0.0
 11
-631.921528044816
 21
107.270122528076
 31
0.0
  0
LINE
  5
   325
  8
0
  6
CONTINUOUS
 62
     7
 10
-631.921528044816
 20
107.270122528076
 30
0.0
 11
-634.875951322022
 21
107.791066958028
 31
0.0
  0
LINE
  5
   326
  8
0
  6
CONTINUOUS
 62
     7
 10
-687.467104767609
 20
107.791066958028
 30
0.0
 11
-690.421528044816
 21
107.270122528076
 31
0.0
  0
LINE
  5
   327
  8
0
  6
CONTINUOUS
 62
     7
 10
-690.421528044816
 20
107.270122528076
 30
0.0
 11
-687.467104767609
 21
106.749178098125
 31
0.0
  0
ENDBLK
  5
   328
  8
0
  6
CONTINUOUS
 62
     7
  0
BLOCK
  5
   329
  8
0
  6
CONTINUOUS
 62
     7
  2
*UDIM69
 70
    65
 10
0.0
 20
0.0
 30
0.0
  3
*UDIM69
  0
TEXT
  5
   32A
  8
0
  6
CONTINUOUS
 62
     7
 10
-699.733150513526
 20
76.0529954035868
 30
0.0
 40
3.00000002980232
  1
8,5
 50
344.626055366853
 41
0.933333333333333
 72
     1
 11
-695.575031313399
 21
76.4653606111809
 31
0.0
 73
     2
  0
TEXT
  5
   32B
  8
0
  6
CONTINUOUS
 62
     7
 10
-702.770431134644
 20
76.8881160482645
 30
0.0
 40
3.00000002980232
  1
Ø
 50
344.626055366853
 41
0.933333333333334
 72
     1
 11
-701.312116948107
 21
78.0428107274282
 31
0.0
 73
     2
  0
LINE
  5
   32C
  8
0
  6
CONTINUOUS
 62
     7
 10
-676.622580118433
 20
68.6614773550462
 30
0.0
 11
-703.035548798517
 21
75.9238999800061
 31
0.0
  0
LINE
  5
   32D
  8
0
  6
CONTINUOUS
 62
     7
 10
-673.635766155181
 20
68.3805105439688
 30
0.0
 11
-676.622580118433
 21
68.6614773550462
 31
0.0
  0
LINE
  5
   32E
  8
0
  6
CONTINUOUS
 62
     7
 10
-676.622580118433
 20
68.6614773550462
 30
0.0
 11
-673.911989296819
 21
67.3759045652814
 31
0.0
  0
LINE
  5
   32F
  8
0
  6
CONTINUOUS
 62
     7
 10
-683.70731236619
 20
70.0691942420088
 30
0.0
 11
-680.720498402939
 21
69.7882274309314
 31
0.0
  0
LINE
  5
   330
  8
0
  6
CONTINUOUS
 62
     7
 10
-680.720498402939
 20
69.7882274309314
 30
0.0
 11
-683.431089224553
 21
71.0738002206962
 31
0.0
  0
ENDBLK
  5
   331
  8
0
  6
CONTINUOUS
 62
     7
  0
BLOCK
  5
   332
  8
0
  6
CONTINUOUS
 62
     7
  2
*UDIM70
 70
    65
 10
0.0
 20
0.0
 30
0.0
  3
*UDIM70
  0
TEXT
  5
   333
  8
0
  6
CONTINUOUS
 62
     7
 10
-681.394968445204
 20
81.6383781455654
 30
0.0
 40
3.00000002980232
  1
20
 50
359.999999948034
 41
0.933333333333333
 72
     1
 11
-678.894968419016
 21
83.1383781582117
 31
0.0
 73
     2
  0
LINE
  5
   334
  8
0
  6
CONTINUOUS
 62
     7
 10
-673.671539260686
 20
76.4748523929888
 30
0.0
 11
-673.671539260686
 21
82.6383781433105
 31
0.0
  0
LINE
  5
   335
  8
0
  6
CONTINUOUS
 62
     7
 10
-683.671539260686
 20
76.4748523929888
 30
0.0
 11
-683.671539260686
 21
82.6383781433105
 31
0.0
  0
LINE
  5
   336
  8
0
  6
CONTINUOUS
 62
     7
 10
-673.671539260686
 20
80.6383781433106
 30
0.0
 11
-683.671539260686
 21
80.6383781433106
 31
0.0
  0
LINE
  5
   337
  8
0
  6
CONTINUOUS
 62
     7
 10
-676.625962537893
 20
80.1174337133589
 30
0.0
 11
-673.671539260686
 21
80.6383781433106
 31
0.0
  0
LINE
  5
   338
  8
0
  6
CONTINUOUS
 62
     7
 10
-673.671539260686
 20
80.6383781433106
 30
0.0
 11
-676.625962537893
 21
81.1593225732622
 31
0.0
  0
LINE
  5
   339
  8
0
  6
CONTINUOUS
 62
     7
 10
-680.717115983479
 20
81.1593225732622
 30
0.0
 11
-683.671539260686
 21
80.6383781433106
 31
0.0
  0
LINE
  5
   33A
  8
0
  6
CONTINUOUS
 62
     7
 10
-683.671539260686
 20
80.6383781433106
 30
0.0
 11
-680.717115983479
 21
80.1174337133589
 31
0.0
  0
ENDBLK
  5
   33B
  8
0
  6
CONTINUOUS
 62
     7
  0
BLOCK
  5
   33C
  8
0
  6
CONTINUOUS
 62
     7
  2
*UDIM71
 70
    65
 10
0.0
 20
0.0
 30
0.0
  3
*UDIM71
  0
TEXT
  5
   33D
  8
0
  6
CONTINUOUS
 62
     7
 10
-624.651695258801
 20
22.4123343543533
 30
0.0
 40
3.00000002980232
  1
127,75
 50
89.9999999480344
 41
0.933333333333333
 72
     1
 11
-626.151695266366
 21
30.5123344361782
 31
0.0
 73
     2
  0
LINE
  5
   33E
  8
0
  6
CONTINUOUS
 62
     7
 10
-628.936447998826
 20
-1.15015029907228
 30
0.0
 11
-621.651695251465
 21
-1.15015029907228
 31
0.0
  0
LINE
  5
   33F
  8
0
  6
CONTINUOUS
 62
     7
 10
-634.546589375785
 20
62.7248191833496
 30
0.0
 11
-621.651695251465
 21
62.7248191833496
 31
0.0
  0
LINE
  5
   340
  8
0
  6
CONTINUOUS
 62
     7
 10
-623.651695251465
 20
-1.15015029907228
 30
0.0
 11
-623.651695251465
 21
62.7248191833496
 31
0.0
  0
LINE
  5
   341
  8
0
  6
CONTINUOUS
 62
     7
 10
-624.172639681417
 20
1.80427297813468
 30
0.0
 11
-623.651695251465
 21
-1.15015029907228
 31
0.0
  0
LINE
  5
   342
  8
0
  6
CONTINUOUS
 62
     7
 10
-623.651695251465
 20
-1.15015029907228
 30
0.0
 11
-623.130750821513
 21
1.80427297813468
 31
0.0
  0
LINE
  5
   343
  8
0
  6
CONTINUOUS
 62
     7
 10
-623.130750821513
 20
59.7703959061426
 30
0.0
 11
-623.651695251465
 21
62.7248191833496
 31
0.0
  0
LINE
  5
   344
  8
0
  6
CONTINUOUS
 62
     7
 10
-623.651695251465
 20
62.7248191833496
 30
0.0
 11
-624.172639681417
 21
59.7703959061426
 31
0.0
  0
ENDBLK
  5
   345
  8
0
  6
CONTINUOUS
 62
     7
  0
BLOCK
  5
   346
  8
0
  6
CONTINUOUS
 62
     7
  2
*UDIM72
 70
    65
 10
0.0
 20
0.0
 30
0.0
  3
*UDIM72
  0
TEXT
  5
   347
  8
0
  6
CONTINUOUS
 62
     7
 10
-606.847488406853
 20
-6.20019231173029
 30
0.0
 40
3.00000002980232
  1
259
 50
89.9999999480344
 41
0.933333333333333
 72
     1
 11
-608.347488418222
 21
-2.3001922716287
 31
0.0
 73
     2
  0
LINE
  5
   348
  8
0
  6
CONTINUOUS
 62
     7
 10
-636.92152994408
 20
-66.7752063968951
 30
0.0
 11
-603.84748840332
 21
-66.7752063968951
 31
0.0
  0
LINE
  5
   349
  8
0
  6
CONTINUOUS
 62
     7
 10
-634.546589375785
 20
62.7248191833496
 30
0.0
 11
-603.84748840332
 21
62.7248191833496
 31
0.0
  0
LINE
  5
   34A
  8
0
  6
CONTINUOUS
 62
     7
 10
-605.84748840332
 20
-66.7752063968951
 30
0.0
 11
-605.84748840332
 21
62.7248191833496
 31
0.0
  0
LINE
  5
   34B
  8
0
  6
CONTINUOUS
 62
     7
 10
-606.368432833272
 20
-63.8207831196881
 30
0.0
 11
-605.84748840332
 21
-66.7752063968951
 31
0.0
  0
LINE
  5
   34C
  8
0
  6
CONTINUOUS
 62
     7
 10
-605.84748840332
 20
-66.7752063968951
 30
0.0
 11
-605.326543973369
 21
-63.8207831196881
 31
0.0
  0
LINE
  5
   34D
  8
0
  6
CONTINUOUS
 62
     7
 10
-605.326543973369
 20
59.7703959061426
 30
0.0
 11
-605.84748840332
 21
62.7248191833496
 31
0.0
  0
LINE
  5
   34E
  8
0
  6
CONTINUOUS
 62
     7
 10
-605.84748840332
 20
62.7248191833496
 30
0.0
 11
-606.368432833272
 21
59.7703959061426
 31
0.0
  0
ENDBLK
  5
   34F
  8
0
  6
CONTINUOUS
 62
     7
  0
BLOCK
  5
   350
  8
0
  6
CONTINUOUS
 62
     5
  2
*UDIM73
 70
    65
 10
0.0
 20
0.0
 30
0.0
  3
*UDIM73
  0
TEXT
  5
   351
  8
0
  6
CONTINUOUS
 62
     5
 10
-707.033617980664
 20
21.7873343543484
 30
0.0
 40
3.00000002980232
  1
125,25
 50
89.9999999480344
 41
0.933333333333333
 72
     1
 11
-708.533617988229
 21
29.8873344361733
 31
0.0
 73
     2
  0
LINE
  5
   352
  8
0
  6
CONTINUOUS
 62
     5
 10
-705.745981541747
 20
-1.15015029907228
 30
0.0
 11
-708.033617973328
 21
-1.15015029907228
 31
0.0
  0
LINE
  5
   353
  8
0
  6
CONTINUOUS
 62
     5
 10
-686.671541965102
 20
61.4748191833398
 30
0.0
 11
-708.033617973328
 21
61.4748191833398
 31
0.0
  0
LINE
  5
   354
  8
0
  6
CONTINUOUS
 62
     5
 10
-706.033617973328
 20
-1.15015029907228
 30
0.0
 11
-706.033617973328
 21
61.4748191833398
 31
0.0
  0
LINE
  5
   355
  8
0
  6
CONTINUOUS
 62
     5
 10
-706.554562403279
 20
1.80427297813468
 30
0.0
 11
-706.033617973328
 21
-1.15015029907228
 31
0.0
  0
LINE
  5
   356
  8
0
  6
CONTINUOUS
 62
     5
 10
-706.033617973328
 20
-1.15015029907228
 30
0.0
 11
-705.512673543376
 21
1.80427297813468
 31
0.0
  0
LINE
  5
   357
  8
0
  6
CONTINUOUS
 62
     5
 10
-705.512673543376
 20
58.5203959061328
 30
0.0
 11
-706.033617973328
 21
61.4748191833398
 31
0.0
  0
LINE
  5
   358
  8
0
  6
CONTINUOUS
 62
     5
 10
-706.033617973328
 20
61.4748191833398
 30
0.0
 11
-706.554562403279
 21
58.5203959061328
 31
0.0
  0
ENDBLK
  5
   359
  8
0
  6
CONTINUOUS
 62
     5
  0
BLOCK
  5
   35A
  8
0
  6
CONTINUOUS
 62
     7
  2
*UDIM74
 70
    65
 10
0.0
 20
0.0
 30
0.0
  3
*UDIM74
  0
TEXT
  5
   35B
  8
0
  6
CONTINUOUS
 62
     7
 10
-715.886044267372
 20
-6.20016560392805
 30
0.0
 40
3.00000002980232
  1
254
 50
89.9999999480344
 41
0.933333333333333
 72
     1
 11
-717.386044278741
 21
-2.30016556382646
 31
0.0
 73
     2
  0
LINE
  5
   35C
  8
0
  6
CONTINUOUS
 62
     7
 10
-686.671527905586
 20
-65.5251502990718
 30
0.0
 11
-716.88604426384
 21
-65.5251502990718
 31
0.0
  0
LINE
  5
   35D
  8
0
  6
CONTINUOUS
 62
     7
 10
-686.671541965102
 20
61.4748191833398
 30
0.0
 11
-716.88604426384
 21
61.4748191833398
 31
0.0
  0
LINE
  5
   35E
  8
0
  6
CONTINUOUS
 62
     7
 10
-714.88604426384
 20
-65.5251502990718
 30
0.0
 11
-714.88604426384
 21
61.4748191833398
 31
0.0
  0
LINE
  5
   35F
  8
0
  6
CONTINUOUS
 62
     7
 10
-715.406988693791
 20
-62.5707270218648
 30
0.0
 11
-714.88604426384
 21
-65.5251502990718
 31
0.0
  0
LINE
  5
   360
  8
0
  6
CONTINUOUS
 62
     7
 10
-714.88604426384
 20
-65.5251502990718
 30
0.0
 11
-714.365099833888
 21
-62.5707270218648
 31
0.0
  0
LINE
  5
   361
  8
0
  6
CONTINUOUS
 62
     7
 10
-714.365099833888
 20
58.5203959061328
 30
0.0
 11
-714.88604426384
 21
61.4748191833398
 31
0.0
  0
LINE
  5
   362
  8
0
  6
CONTINUOUS
 62
     7
 10
-714.88604426384
 20
61.4748191833398
 30
0.0
 11
-715.406988693791
 21
58.5203959061328
 31
0.0
  0
ENDBLK
  5
   363
  8
0
  6
CONTINUOUS
 62
     7
  0
BLOCK
  5
   364
  8
0
  6
CONTINUOUS
 62
     7
  2
*UDIM75
 70
    65
 10
0.0
 20
0.0
 30
0.0
  3
*UDIM75
  0
TEXT
  5
   365
  8
0
  6
CONTINUOUS
 62
     7
 10
-655.196531703269
 20
-72.2747688270908
 30
0.0
 40
3.00000002980232
  1
35
 50
359.999999948034
 41
0.933333333333333
 72
     1
 11
-652.696531677081
 21
-70.7747688144445
 31
0.0
 73
     2
  0
LINE
  5
   366
  8
0
  6
CONTINUOUS
 62
     7
 10
-643.671528155331
 20
-61.2751475066357
 30
0.0
 11
-643.671535085526
 21
-75.2747688293455
 31
0.0
  0
LINE
  5
   367
  8
0
  6
CONTINUOUS
 62
     7
 10
-661.171532565759
 20
-72.9038061208229
 30
0.0
 11
-661.171538781662
 21
-75.2747688293388
 31
0.0
  0
LINE
  5
   368
  8
0
  6
CONTINUOUS
 62
     7
 10
-643.671534095471
 20
-73.2747688293457
 30
0.0
 11
-661.171533538304
 21
-73.2747688293457
 31
0.0
  0
LINE
  5
   369
  8
0
  6
CONTINUOUS
 62
     7
 10
-646.625957372678
 20
-73.7957132592974
 30
0.0
 11
-643.671534095471
 21
-73.2747688293457
 31
0.0
  0
LINE
  5
   36A
  8
0
  6
CONTINUOUS
 62
     7
 10
-643.671534095471
 20
-73.2747688293457
 30
0.0
 11
-646.625957372678
 21
-72.753824399394
 31
0.0
  0
LINE
  5
   36B
  8
0
  6
CONTINUOUS
 62
     7
 10
-658.217110261097
 20
-72.753824399394
 30
0.0
 11
-661.171533538304
 21
-73.2747688293457
 31
0.0
  0
LINE
  5
   36C
  8
0
  6
CONTINUOUS
 62
     7
 10
-661.171533538304
 20
-73.2747688293457
 30
0.0
 11
-658.217110261097
 21
-73.7957132592974
 31
0.0
  0
ENDBLK
  5
   36D
  8
0
  6
CONTINUOUS
 62
     7
  0
BLOCK
  5
   36E
  8
0
  6
CONTINUOUS
 62
     7
  2
*UDIM76
 70
    65
 10
0.0
 20
0.0
 30
0.0
  3
*UDIM76
  0
TEXT
  5
   36F
  8
0
  6
CONTINUOUS
 62
     7
 10
-672.696527876986
 20
-72.2747688270908
 30
0.0
 40
3.00000002980232
  1
35
 50
359.999999948034
 41
0.933333333333333
 72
     1
 11
-670.196527850798
 21
-70.7747688144445
 31
0.0
 73
     2
  0
LINE
  5
   370
  8
0
  6
CONTINUOUS
 62
     7
 10
-678.671528758176
 20
-61.2751502738409
 30
0.0
 11
-678.671539686673
 21
-75.2747688293451
 31
0.0
  0
LINE
  5
   371
  8
0
  6
CONTINUOUS
 62
     7
 10
-661.171533538304
 20
-73.2747688293457
 30
0.0
 11
-678.671538125417
 21
-73.2747688293457
 31
0.0
  0
LINE
  5
   372
  8
0
  6
CONTINUOUS
 62
     7
 10
-664.125956815511
 20
-73.7957132592974
 30
0.0
 11
-661.171533538304
 21
-73.2747688293457
 31
0.0
  0
LINE
  5
   373
  8
0
  6
CONTINUOUS
 62
     7
 10
-661.171533538304
 20
-73.2747688293457
 30
0.0
 11
-664.125956815511
 21
-72.753824399394
 31
0.0
  0
LINE
  5
   374
  8
0
  6
CONTINUOUS
 62
     7
 10
-675.71711484821
 20
-72.753824399394
 30
0.0
 11
-678.671538125417
 21
-73.2747688293457
 31
0.0
  0
LINE
  5
   375
  8
0
  6
CONTINUOUS
 62
     7
 10
-678.671538125417
 20
-73.2747688293457
 30
0.0
 11
-675.71711484821
 21
-73.7957132592974
 31
0.0
  0
ENDBLK
  5
   376
  8
0
  6
CONTINUOUS
 62
     7
  0
BLOCK
  5
   377
  8
0
  6
CONTINUOUS
 62
     7
  2
*UDIM77
 70
    65
 10
0.0
 20
0.0
 30
0.0
  3
*UDIM77
  0
TEXT
  5
   378
  8
0
  6
CONTINUOUS
 62
     7
 10
-665.3465469614
 20
-80.8372230494609
 30
0.0
 40
3.00000002980232
  1
105
 50
359.999999948034
 41
0.933333333333333
 72
     1
 11
-661.446546921304
 21
-79.3372230380774
 31
0.0
 73
     2
  0
LINE
  5
   379
  8
0
  6
CONTINUOUS
 62
     7
 10
-634.921558902591
 20
38.0998497009278
 30
0.0
 11
-634.921600385328
 21
-83.8372230529784
 31
0.0
  0
LINE
  5
   37A
  8
0
  6
CONTINUOUS
 62
     7
 10
-687.421528358732
 20
38.0998497009278
 30
0.0
 11
-687.421566636789
 21
-83.8372230529784
 31
0.0
  0
LINE
  5
   37B
  8
0
  6
CONTINUOUS
 62
     7
 10
-634.921599704932
 20
-81.8372230529785
 30
0.0
 11
-687.421566008956
 21
-81.8372230529785
 31
0.0
  0
LINE
  5
   37C
  8
0
  6
CONTINUOUS
 62
     7
 10
-637.876022982139
 20
-82.3581674829302
 30
0.0
 11
-634.921599704932
 21
-81.8372230529785
 31
0.0
  0
LINE
  5
   37D
  8
0
  6
CONTINUOUS
 62
     7
 10
-634.921599704932
 20
-81.8372230529785
 30
0.0
 11
-637.876022982139
 21
-81.3162786230268
 31
0.0
  0
LINE
  5
   37E
  8
0
  6
CONTINUOUS
 62
     7
 10
-684.467142731749
 20
-81.3162786230268
 30
0.0
 11
-687.421566008956
 21
-81.8372230529785
 31
0.0
  0
LINE
  5
   37F
  8
0
  6
CONTINUOUS
 62
     7
 10
-687.421566008956
 20
-81.8372230529785
 30
0.0
 11
-684.467142731749
 21
-82.3581674829302
 31
0.0
  0
ENDBLK
  5
   380
  8
0
  6
CONTINUOUS
 62
     7
  0
BLOCK
  5
   381
  8
0
  6
CONTINUOUS
 62
     7
  2
*UDIM78
 70
    65
 10
0.0
 20
0.0
 30
0.0
  3
*UDIM78
  0
TEXT
  5
   382
  8
0
  6
CONTINUOUS
 62
     7
 10
-428.198443236465
 20
11.5912841527927
 30
0.0
 40
3.00000002980232
  1
7
 50
404.893139787217
 41
0.933333333333334
 72
     1
 11
-428.477856586003
 21
13.4302861236575
 31
0.0
 73
     2
  0
TEXT
  5
   383
  8
0
  6
CONTINUOUS
 62
     7
 10
-430.42997993674
 20
9.36805586538898
 30
0.0
 40
3.00000002980232
  1
Ø
 50
404.893139787217
 41
0.933333333333334
 72
     1
 11
-430.709393286277
 21
11.2070578362537
 31
0.0
 73
     2
  0
LINE
  5
   384
  8
0
  6
CONTINUOUS
 62
     7
 10
-413.72604544437
 20
24.5982152666889
 30
0.0
 11
-429.724193176067
 21
8.65963151908826
 31
0.0
  0
LINE
  5
   385
  8
0
  6
CONTINUOUS
 62
     7
 10
-412.000735742383
 20
27.0524578040573
 30
0.0
 11
-413.72604544437
 21
24.5982152666889
 31
0.0
  0
LINE
  5
   386
  8
0
  6
CONTINUOUS
 62
     7
 10
-413.72604544437
 20
24.5982152666889
 30
0.0
 11
-411.265384384172
 21
26.3143583687719
 31
0.0
  0
LINE
  5
   387
  8
0
  6
CONTINUOUS
 62
     7
 10
-416.691097753711
 20
20.9088459068802
 30
0.0
 11
-414.965788051724
 21
23.3630884442486
 31
0.0
  0
LINE
  5
   388
  8
0
  6
CONTINUOUS
 62
     7
 10
-414.965788051724
 20
23.3630884442486
 30
0.0
 11
-417.426449111922
 21
21.6469453421656
 31
0.0
  0
ENDBLK
  5
   389
  8
0
  6
CONTINUOUS
 62
     7
  0
BLOCK
  5
   38A
  8
0
  6
CONTINUOUS
 62
     7
  2
*UDIM79
 70
    65
 10
0.0
 20
0.0
 30
0.0
  3
*UDIM79
  0
TEXT
  5
   38B
  8
0
  6
CONTINUOUS
 62
     7
 10
-407.120916782916
 20
72.2668304511257
 30
0.0
 40
3.00000002980232
  1
80
 50
359.999999844103
 41
0.933333333333333
 72
     1
 11
-404.620916754007
 21
73.7668304592371
 31
0.0
 73
     2
  0
LINE
  5
   38C
  8
0
  6
CONTINUOUS
 62
     7
 10
-414.345916748047
 20
62.1056518554688
 30
0.0
 11
-414.345916748047
 21
73.2668304443359
 31
0.0
  0
LINE
  5
   38D
  8
0
  6
CONTINUOUS
 62
     7
 10
-394.345916748047
 20
62.1056518554688
 30
0.0
 11
-394.345916748047
 21
73.2668304443359
 31
0.0
  0
LINE
  5
   38E
  8
0
  6
CONTINUOUS
 62
     7
 10
-414.345916748047
 20
71.2668304443359
 30
0.0
 11
-394.345916748047
 21
71.2668304443359
 31
0.0
  0
LINE
  5
   38F
  8
0
  6
CONTINUOUS
 62
     7
 10
-411.39149347084
 20
71.7877748742876
 30
0.0
 11
-414.345916748047
 21
71.2668304443359
 31
0.0
  0
LINE
  5
   390
  8
0
  6
CONTINUOUS
 62
     7
 10
-414.345916748047
 20
71.2668304443359
 30
0.0
 11
-411.39149347084
 21
70.7458860143843
 31
0.0
  0
LINE
  5
   391
  8
0
  6
CONTINUOUS
 62
     7
 10
-397.300340025254
 20
70.7458860143843
 30
0.0
 11
-394.345916748047
 21
71.2668304443359
 31
0.0
  0
LINE
  5
   392
  8
0
  6
CONTINUOUS
 62
     7
 10
-394.345916748047
 20
71.2668304443359
 30
0.0
 11
-397.300340025254
 21
71.7877748742876
 31
0.0
  0
ENDBLK
  5
   393
  8
0
  6
CONTINUOUS
 62
     7
  0
BLOCK
  5
   394
  8
0
  6
CONTINUOUS
 62
     7
  2
*UDIM80
 70
    65
 10
0.0
 20
0.0
 30
0.0
  3
*UDIM80
  0
TEXT
  5
   395
  8
0
  6
CONTINUOUS
 62
     7
 10
-408.520916796824
 20
78.7064895735802
 30
0.0
 40
3.00000002980232
  1
112
 50
359.999999844103
 41
0.933333333333333
 72
     1
 11
-404.620916754007
 21
80.2064895778894
 31
0.0
 73
     2
  0
LINE
  5
   396
  8
0
  6
CONTINUOUS
 62
     7
 10
-418.345916748047
 20
56.7306518554688
 30
0.0
 11
-418.345916748047
 21
79.7064895629883
 31
0.0
  0
LINE
  5
   397
  8
0
  6
CONTINUOUS
 62
     7
 10
-390.345916748047
 20
56.7306518554688
 30
0.0
 11
-390.345916748047
 21
79.7064895629883
 31
0.0
  0
LINE
  5
   398
  8
0
  6
CONTINUOUS
 62
     7
 10
-418.345916748047
 20
77.7064895629883
 30
0.0
 11
-390.345916748047
 21
77.7064895629883
 31
0.0
  0
LINE
  5
   399
  8
0
  6
CONTINUOUS
 62
     7
 10
-415.39149347084
 20
78.22743399294
 30
0.0
 11
-418.345916748047
 21
77.7064895629883
 31
0.0
  0
LINE
  5
   39A
  8
0
  6
CONTINUOUS
 62
     7
 10
-418.345916748047
 20
77.7064895629883
 30
0.0
 11
-415.39149347084
 21
77.1855451330366
 31
0.0
  0
LINE
  5
   39B
  8
0
  6
CONTINUOUS
 62
     7
 10
-393.300340025254
 20
77.1855451330366
 30
0.0
 11
-390.345916748047
 21
77.7064895629883
 31
0.0
  0
LINE
  5
   39C
  8
0
  6
CONTINUOUS
 62
     7
 10
-390.345916748047
 20
77.7064895629883
 30
0.0
 11
-393.300340025254
 21
78.22743399294
 31
0.0
  0
ENDBLK
  5
   39D
  8
0
  6
CONTINUOUS
 62
     7
  0
BLOCK
  5
   39E
  8
0
  6
CONTINUOUS
 62
     7
  2
*UDIM81
 70
    65
 10
0.0
 20
0.0
 30
0.0
  3
*UDIM81
  0
TEXT
  5
   39F
  8
0
  6
CONTINUOUS
 62
     7
 10
-434.319074641324
 20
37.5556518066933
 30
0.0
 40
3.00000002980232
  1
112
 50
449.999999844103
 41
0.933333333333333
 72
     1
 11
-435.819074645639
 21
41.4556518495083
 31
0.0
 73
     2
  0
LINE
  5
   3A0
  8
0
  6
CONTINUOUS
 62
     7
 10
-419.345916748047
 20
55.7306518554688
 30
0.0
 11
-435.319074630737
 21
55.7306518554688
 31
0.0
  0
LINE
  5
   3A1
  8
0
  6
CONTINUOUS
 62
     7
 10
-419.345916748047
 20
27.7306518554688
 30
0.0
 11
-435.319074630737
 21
27.7306518554688
 31
0.0
  0
LINE
  5
   3A2
  8
0
  6
CONTINUOUS
 62
     7
 10
-433.319074630737
 20
55.7306518554688
 30
0.0
 11
-433.319074630737
 21
27.7306518554688
 31
0.0
  0
LINE
  5
   3A3
  8
0
  6
CONTINUOUS
 62
     7
 10
-432.798130200786
 20
52.7762285782618
 30
0.0
 11
-433.319074630737
 21
55.7306518554688
 31
0.0
  0
LINE
  5
   3A4
  8
0
  6
CONTINUOUS
 62
     7
 10
-433.319074630737
 20
55.7306518554688
 30
0.0
 11
-433.840019060689
 21
52.7762285782618
 31
0.0
  0
LINE
  5
   3A5
  8
0
  6
CONTINUOUS
 62
     7
 10
-433.840019060689
 20
30.6850751326757
 30
0.0
 11
-433.319074630737
 21
27.7306518554688
 31
0.0
  0
LINE
  5
   3A6
  8
0
  6
CONTINUOUS
 62
     7
 10
-433.319074630737
 20
27.7306518554688
 30
0.0
 11
-432.798130200786
 21
30.6850751326757
 31
0.0
  0
ENDBLK
  5
   3A7
  8
0
  6
CONTINUOUS
 62
     7
  0
BLOCK
  5
   3A8
  8
0
  6
CONTINUOUS
 62
     7
  2
*UDIM82
 70
    65
 10
0.0
 20
0.0
 30
0.0
  3
*UDIM82
  0
TEXT
  5
   3A9
  8
0
  6
CONTINUOUS
 62
     7
 10
-443.332530985929
 20
37.5556518066933
 30
0.0
 40
3.00000002980232
  1
142
 50
449.999999844103
 41
0.933333333333333
 72
     1
 11
-444.832530990243
 21
41.4556518495083
 31
0.0
 73
     2
  0
LINE
  5
   3AA
  8
0
  6
CONTINUOUS
 62
     7
 10
-416.970916748047
 20
59.4806518554688
 30
0.0
 11
-444.332530975342
 21
59.4806518554688
 31
0.0
  0
LINE
  5
   3AB
  8
0
  6
CONTINUOUS
 62
     7
 10
-416.970916748047
 20
23.9806518554688
 30
0.0
 11
-444.332530975342
 21
23.9806518554688
 31
0.0
  0
LINE
  5
   3AC
  8
0
  6
CONTINUOUS
 62
     7
 10
-442.332530975342
 20
59.4806518554688
 30
0.0
 11
-442.332530975342
 21
23.9806518554688
 31
0.0
  0
LINE
  5
   3AD
  8
0
  6
CONTINUOUS
 62
     7
 10
-441.81158654539
 20
56.5262285782618
 30
0.0
 11
-442.332530975342
 21
59.4806518554688
 31
0.0
  0
LINE
  5
   3AE
  8
0
  6
CONTINUOUS
 62
     7
 10
-442.332530975342
 20
59.4806518554688
 30
0.0
 11
-442.853475405294
 21
56.5262285782618
 31
0.0
  0
LINE
  5
   3AF
  8
0
  6
CONTINUOUS
 62
     7
 10
-442.853475405294
 20
26.9350751326757
 30
0.0
 11
-442.332530975342
 21
23.9806518554688
 31
0.0
  0
LINE
  5
   3B0
  8
0
  6
CONTINUOUS
 62
     7
 10
-442.332530975342
 20
23.9806518554688
 30
0.0
 11
-441.81158654539
 21
26.9350751326757
 31
0.0
  0
ENDBLK
  5
   3B1
  8
0
  6
CONTINUOUS
 62
     7
  0
ENDSEC
  0
SECTION
  2
ENTITIES
  0
LINE
  5
   3B2
  8
0
  6
DASHDOT
 62
     3
 10
-661.171508789063
 20
-88.5535327115977
 30
0.0
 11
-661.171508789063
 21
-155.899937537403
 31
0.0
  0
LINE
  5
   3B3
  8
0
  6
DASHDOT
 62
     3
 10
-649.228971195343
 20
-95.3681793212891
 30
0.0
 11
-673.523177191499
 21
-95.3681793212891
 31
0.0
  0
LINE
  5
   3B4
  8
0
  6
DASHDOT
 62
     3
 10
-648.72962647871
 20
-148.868179321289
 30
0.0
 11
-672.676462237209
 21
-148.868179321289
 31
0.0
  0
LINE
  5
   3B5
  8
0
  6
CONTINUOUS
 62
     7
 10
-647.421508789063
 20
-89.3351278351083
 30
0.0
 11
-647.421508789063
 21
-155.465736829113
 31
0.0
  0
LINE
  5
   3B6
  8
0
  6
CONTINUOUS
 62
     7
 10
-674.921508789063
 20
-89.0528895170117
 30
0.0
 11
-674.921508789063
 21
-154.90126019292
 31
0.0
  0
LINE
  5
   3B7
  8
0
  6
CONTINUOUS
 62
     7
 10
-646.406588014377
 20
-153.868179321289
 30
0.0
 11
-677.083722127486
 21
-153.868179321289
 31
0.0
  0
LINE
  5
   3B8
  8
0
  6
CONTINUOUS
 62
     7
 10
-645.559873060088
 20
-90.3681793212891
 30
0.0
 11
-676.649509330414
 21
-90.3681793212891
 31
0.0
  0
CIRCLE
  5
   3B9
  8
0
  6
CONTINUOUS
 62
     7
 10
-665.546508789063
 20
-95.3681793212891
 30
0.0
 40
0.6875
  0
CIRCLE
  5
   3BA
  8
0
  6
CONTINUOUS
 62
     7
 10
-656.796508789063
 20
-95.3681793212891
 30
0.0
 40
0.6875
  0
CIRCLE
  5
   3BB
  8
0
  6
CONTINUOUS
 62
     7
 10
-665.546508789063
 20
-148.868179321289
 30
0.0
 40
0.6875
  0
CIRCLE
  5
   3BC
  8
0
  6
CONTINUOUS
 62
     7
 10
-656.796508789063
 20
-148.868179321289
 30
0.0
 40
0.6875
  0
LINE
  5
   3BD
  8
0
  6
DASHDOT
 62
     3
 10
-665.546508789063
 20
-88.5535327115977
 30
0.0
 11
-665.546508789063
 21
-151.969703170104
 31
0.0
  0
LINE
  5
   3BE
  8
0
  6
DASHDOT
 62
     3
 10
-656.796508789063
 20
-88.5535327115977
 30
0.0
 11
-656.796508789063
 21
-151.697241978443
 31
0.0
  0
LINE
  5
   3BF
  8
0
  6
DASHDOT
 62
     3
 10
-640.507218400066
 20
-121.680679321289
 30
0.0
 11
-686.719068054327
 21
-121.680679321289
 31
0.0
  0
INSERT
  5
   3C0
  8
0
  6
CONTINUOUS
 62
     5
  2
*UDIM42
 10
0.0
 20
0.0
 30
0.0
  0
TEXT
  5
   3C1
  8
0
  6
CONTINUOUS
 62
     7
 10
-652.304649355741
 20
-120.628204373516
 30
0.0
 40
3.00000002980232
  1
=
 50
359.999999896069
 41
0.916666604744064
 72
     2
 11
-650.104649486871
 21
-120.628204377495
 31
0.0
  0
TEXT
  5
   3C2
  8
0
  6
CONTINUOUS
 62
     7
 10
-669.201152804227
 20
-120.628204373516
 30
0.0
 40
3.00000002980232
  1
=
 50
359.999999896069
 41
0.916666604744064
 72
     2
 11
-667.001152935357
 21
-120.628204377495
 31
0.0
  0
TEXT
  5
   3C3
  8
0
  6
CONTINUOUS
 62
     7
 10
-662.338664367532
 20
-87.7783078304944
 30
0.0
 40
3.00000002980232
  1
Y
 50
359.999999896069
 41
0.916666604744064
 72
     2
 11
-660.138664498662
 21
-87.778307834474
 31
0.0
  0
INSERT
  5
   3C4
  8
0
  6
CONTINUOUS
 62
     7
  2
*UDIM43
 10
0.0
 20
0.0
 30
0.0
  0
INSERT
  5
   3C5
  8
0
  6
CONTINUOUS
 62
     7
  2
*UDIM44
 10
0.0
 20
0.0
 30
0.0
  0
INSERT
  5
   3C6
  8
0
  6
CONTINUOUS
 62
     7
  2
*UDIM45
 10
0.0
 20
0.0
 30
0.0
  0
TEXT
  5
   3C7
  8
0
  6
CONTINUOUS
 62
     7
 10
-699.14173126492
 20
-123.555016068615
 30
0.0
 40
3.00000002980232
  1
X
 50
359.999999896069
 41
0.916666604744064
 72
     2
 11
-696.941731396051
 21
-123.555016072594
 31
0.0
  0
TEXT
  5
   3C8
  8
0
  6
CONTINUOUS
 62
     7
 10
-639.176948550077
 20
-123.728701142467
 30
0.0
 40
3.00000002980232
  1
X
 50
359.999999896069
 41
0.916666604744064
 72
     2
 11
-636.976948681207
 21
-123.728701146447
 31
0.0
  0
TEXT
  5
   3C9
  8
0
  6
CONTINUOUS
 62
     7
 10
-662.168512347074
 20
-161.483501462139
 30
0.0
 40
3.00000002980232
  1
Y
 50
359.999999896069
 41
0.916666604744064
 72
     2
 11
-659.968512478204
 21
-161.483501466118
 31
0.0
  0
LINE
  5
   3CA
  8
0
  6
CONTINUOUS
 62
     7
 10
-560.500228881836
 20
12.7248420715332
 30
0.0
 11
-560.500228881836
 21
12.9748268127441
 31
0.0
  0
LINE
  5
   3CB
  8
0
  6
CONTINUOUS
 62
     7
 10
-560.500228881836
 20
20.4748268127441
 30
0.0
 11
-560.500228881836
 21
30.4748115539551
 31
0.0
  0
LINE
  5
   3CC
  8
0
  6
CONTINUOUS
 62
     7
 10
-559.250213623047
 20
12.9748268127441
 30
0.0
 11
-559.250213623047
 21
20.4748268127441
 31
0.0
  0
LINE
  5
   3CD
  8
0
  6
CONTINUOUS
 62
     7
 10
-559.250213623047
 20
12.9748268127441
 30
0.0
 11
-560.500228881836
 21
12.9748268127441
 31
0.0
  0
LINE
  5
   3CE
  8
0
  6
CONTINUOUS
 62
     7
 10
-559.250213623047
 20
20.4748268127441
 30
0.0
 11
-560.500228881836
 21
20.4748268127441
 31
0.0
  0
LINE
  5
   3CF
  8
0
  6
CONTINUOUS
 62
     7
 10
-559.250213623047
 20
30.4748115539551
 30
0.0
 11
-559.250213623047
 21
37.9748115539551
 31
0.0
  0
LINE
  5
   3D0
  8
0
  6
CONTINUOUS
 62
     7
 10
-559.250213623047
 20
30.4748115539551
 30
0.0
 11
-560.500228881836
 21
30.4748115539551
 31
0.0
  0
LINE
  5
   3D1
  8
0
  6
CONTINUOUS
 62
     7
 10
-559.250213623047
 20
37.9748115539551
 30
0.0
 11
-560.500228881836
 21
37.9748115539551
 31
0.0
  0
LINE
  5
   3D2
  8
0
  6
CONTINUOUS
 62
     7
 10
-526.250236511231
 20
12.7248268127441
 30
0.0
 11
-526.250236511231
 21
40.2248115539551
 31
0.0
  0
LINE
  5
   3D3
  8
0
  6
CONTINUOUS
 62
     2
 10
-559.7502252916
 20
61.4748344421387
 30
0.0
 11
-560.500213623047
 21
61.4748344421387
 31
0.0
  0
LINE
  5
   3D4
  8
0
  6
CONTINUOUS
 62
     2
 10
-560.500259399646
 20
39.9748115539551
 30
0.0
 11
-560.500259399646
 21
50.2821235656738
 31
0.0
  0
LINE
  5
   3D5
  8
0
  6
CONTINUOUS
 62
     7
 10
-524.500228881836
 20
48.9748115539551
 30
0.0
 11
-526.250228881836
 21
48.9748115539551
 31
0.0
  0
LINE
  5
   3D6
  8
0
  6
CONTINUOUS
 62
     7
 10
-526.250282287953
 20
40.2248071943483
 30
0.0
 11
-526.250282287953
 21
48.9748071943483
 31
0.0
  0
LINE
  5
   3D7
  8
0
  6
CONTINUOUS
 62
     7
 10
-558.500228881836
 20
41.2248115539551
 30
0.0
 11
-560.500228881836
 21
41.2248115539551
 31
0.0
  0
LINE
  5
   3D8
  8
0
  6
CONTINUOUS
 62
     7
 10
-558.500227610453
 20
41.2248052057187
 30
0.0
 11
-558.500225056086
 21
42.2292234979236
 31
0.0
  0
LINE
  5
   3D9
  8
0
  6
CONTINUOUS
 62
     7
 10
-526.250236511231
 20
7.97483444213867
 30
0.0
 11
-526.250236511231
 21
12.7248420715332
 31
0.0
  0
LINE
  5
   3DA
  8
0
  6
CONTINUOUS
 62
     7
 10
-560.500223782175
 20
-22.5251528392368
 30
0.0
 11
-560.500208523386
 21
-22.3780352840682
 31
0.0
  0
LINE
  5
   3DB
  8
0
  6
CONTINUOUS
 62
     7
 10
-560.500213623187
 20
-14.672272178703
 30
0.0
 11
-560.500213623187
 21
12.7248378066486
 31
0.0
  0
LINE
  5
   3DC
  8
0
  6
CONTINUOUS
 62
     7
 10
-525.000228881836
 20
-15.7751579284668
 30
0.0
 11
-559.000245666505
 21
-15.7751579284668
 31
0.0
  0
LINE
  5
   3DD
  8
0
  6
CONTINUOUS
 62
     7
 10
-525.000228881836
 20
-21.2751579284668
 30
0.0
 11
-559.000245666505
 21
-21.2751579284668
 31
0.0
  0
LINE
  5
   3DE
  8
0
  6
CONTINUOUS
 62
     7
 10
-556.384199383711
 20
-15.7751528438554
 30
0.0
 11
-560.500211780716
 21
-14.672267130787
 31
0.0
  0
LINE
  5
   3DF
  8
0
  6
CONTINUOUS
 62
     7
 10
-560.500209473725
 20
-22.3780395585032
 30
0.0
 11
-556.384196981947
 21
-21.275157394107
 31
0.0
  0
LINE
  5
   3E0
  8
0
  6
CONTINUOUS
 62
     7
 10
-524.500236511231
 20
-14.2751579284668
 30
0.0
 11
-528.500236511231
 21
-14.2751579284668
 31
0.0
  0
LINE
  5
   3E1
  8
0
  6
CONTINUOUS
 62
     7
 10
-528.500236511231
 20
-14.2751579284668
 30
0.0
 11
-528.500236511231
 21
6.97483444213867
 31
0.0
  0
LINE
  5
   3E2
  8
0
  6
CONTINUOUS
 62
     7
 10
-560.000213623047
 20
-18.2751579284668
 30
0.0
 11
-560.000213623047
 21
-14.8062477111816
 31
0.0
  0
LINE
  5
   3E3
  8
0
  6
CONTINUOUS
 62
     7
 10
-560.000220665547
 20
-22.2440631750861
 30
0.0
 11
-560.000213036159
 21
-21.7751529560132
 31
0.0
  0
LINE
  5
   3E4
  8
0
  6
CONTINUOUS
 62
     2
 10
-560.500213623047
 20
-14.2751579284668
 30
0.0
 11
-561.500213623047
 21
-14.2751579284668
 31
0.0
  0
LINE
  5
   3E5
  8
0
  6
CONTINUOUS
 62
     2
 10
-560.500213623047
 20
-11.5251579284668
 30
0.0
 11
-561.500213623047
 21
-11.5251579284668
 31
0.0
  0
LINE
  5
   3E6
  8
0
  6
CONTINUOUS
 62
     7
 10
-524.500247316229
 20
-21.7751384153701
 30
0.0
 11
-525.000239670537
 21
-21.2751460610626
 31
0.0
  0
LINE
  5
   3E7
  8
0
  6
CONTINUOUS
 62
     7
 10
-525.000235200099
 20
-15.7751572274885
 30
0.0
 11
-524.500235217213
 21
-15.2751572446028
 31
0.0
  0
LINE
  5
   3E8
  8
0
  6
CONTINUOUS
 62
     7
 10
-526.250236511231
 20
6.97483444213867
 30
0.0
 11
-526.250236511231
 21
7.97483444213867
 31
0.0
  0
LINE
  5
   3E9
  8
0
  6
CONTINUOUS
 62
     2
 10
-559.500213623047
 20
-31.5251426696771
 30
0.0
 11
-561.500213623047
 21
-31.5251426696771
 31
0.0
  0
LINE
  5
   3EA
  8
0
  6
CONTINUOUS
 62
     7
 10
-560.500228881836
 20
-24.5251579284668
 30
0.0
 11
-560.500228881836
 21
-22.5251579284668
 31
0.0
  0
LINE
  5
   3EB
  8
0
  6
CONTINUOUS
 62
     7
 10
-524.500236511231
 20
-29.0251426696777
 30
0.0
 11
-529.500228881836
 21
-29.0251426696777
 31
0.0
  0
LINE
  5
   3EC
  8
0
  6
CONTINUOUS
 62
     7
 10
-529.500228881836
 20
-31.5251426696777
 30
0.0
 11
-529.500228881836
 21
-29.0251426696777
 31
0.0
  0
LINE
  5
   3ED
  8
0
  6
CONTINUOUS
 62
     7
 10
-560.500228881836
 20
-30.2751332092464
 30
0.0
 11
-560.500228881836
 21
-24.5251579284668
 31
0.0
  0
LINE
  5
   3EE
  8
0
  6
CONTINUOUS
 62
     2
 10
-560.500228881836
 20
39.9748115539551
 30
0.0
 11
-560.750213623047
 21
39.9748115539551
 31
0.0
  0
LINE
  5
   3EF
  8
0
  6
CONTINUOUS
 62
     7
 10
-560.500221252441
 20
4.7248420715332
 30
0.0
 11
-560.750213623047
 21
4.7248420715332
 31
0.0
  0
LINE
  5
   3F0
  8
0
  6
CONTINUOUS
 62
     7
 10
-560.500213623047
 20
-11.2751560211182
 30
0.0
 11
-560.750213623047
 21
-11.2751560211182
 31
0.0
  0
LINE
  5
   3F1
  8
0
  6
CONTINUOUS
 62
     7
 10
-560.000213623047
 20
-15.0251574516296
 30
0.0
 11
-560.750213623047
 21
-15.0251574516296
 31
0.0
  0
LINE
  5
   3F2
  8
0
  6
CONTINUOUS
 62
     7
 10
-560.500228881836
 20
-23.0251502990723
 30
0.0
 11
-560.750213623047
 21
-23.0251502990723
 31
0.0
  0
LINE
  5
   3F3
  8
0
  6
CONTINUOUS
 62
     2
 10
-560.750213623047
 20
-29.8251378942215
 30
0.0
 11
-560.750213623047
 21
-14.2751655578613
 31
0.0
  0
LINE
  5
   3F4
  8
0
  6
CONTINUOUS
 62
     2
 10
-560.750213623047
 20
-11.5251655578613
 30
0.0
 11
-560.750213623047
 21
39.9748039245605
 31
0.0
  0
LINE
  5
   3F5
  8
0
  6
CONTINUOUS
 62
     7
 10
-560.000213623047
 20
30.4748344421387
 30
0.0
 11
-560.000213623047
 21
37.9748115539551
 31
0.0
  0
LINE
  5
   3F6
  8
0
  6
CONTINUOUS
 62
     7
 10
-560.000213623047
 20
12.9748573303223
 30
0.0
 11
-560.000213623047
 21
20.4748497009277
 31
0.0
  0
LINE
  5
   3F7
  8
0
  6
CONTINUOUS
 62
     7
 10
-560.000213623047
 20
-21.7751197814941
 30
0.0
 11
-560.000213623047
 21
-18.2751197814941
 31
0.0
  0
LINE
  5
   3F8
  8
0
  6
CONTINUOUS
 62
     2
 10
-560.550217527563
 20
-30.0251339897054
 30
0.0
 11
-560.7502144735
 21
-29.8251370437685
 31
0.0
  0
LINE
  5
   3F9
  8
0
  6
CONTINUOUS
 62
     2
 10
-560.500213623047
 20
47.9748115539551
 30
0.0
 11
-561.500213623047
 21
47.9748115539551
 31
0.0
  0
LINE
  5
   3FA
  8
0
  6
CONTINUOUS
 62
     2
 10
-560.500213623047
 20
53.4748115539551
 30
0.0
 11
-561.500213623047
 21
53.4748115539551
 31
0.0
  0
LINE
  5
   3FB
  8
0
  6
CONTINUOUS
 62
     2
 10
-560.500213623047
 20
52.1306343078613
 30
0.0
 11
-561.500213623047
 21
52.1306343078613
 31
0.0
  0
LINE
  5
   3FC
  8
0
  6
CONTINUOUS
 62
     2
 10
-560.500213623047
 20
50.2821235656738
 30
0.0
 11
-561.500213623047
 21
50.2821235656738
 31
0.0
  0
LINE
  5
   3FD
  8
0
  6
CONTINUOUS
 62
     7
 10
-526.000244140626
 20
14.2248094653129
 30
0.0
 11
-526.000244140626
 21
41.4748323534965
 31
0.0
  0
LINE
  5
   3FE
  8
0
  6
CONTINUOUS
 62
     7
 10
-512.000267028814
 20
49.4748261006798
 30
0.0
 11
-512.000267028814
 21
61.4748261006798
 31
0.0
  0
LINE
  5
   3FF
  8
0
  6
CONTINUOUS
 62
     7
 10
-512.000228881836
 20
49.4748286437812
 30
0.0
 11
-512.250228881836
 21
49.4748286437812
 31
0.0
  0
LINE
  5
   400
  8
0
  6
CONTINUOUS
 62
     7
 10
-512.250228881836
 20
49.2248286437812
 30
0.0
 11
-512.250228881836
 21
49.4748286437812
 31
0.0
  0
LINE
  5
   401
  8
0
  6
CONTINUOUS
 62
     7
 10
-524.500228881836
 20
48.7248210143866
 30
0.0
 11
-524.500228881836
 21
49.2248286437812
 31
0.0
  0
LINE
  5
   402
  8
0
  6
CONTINUOUS
 62
     7
 10
-512.000225067144
 20
61.4748439025621
 30
0.0
 11
-524.500225067144
 21
61.4748439025621
 31
0.0
  0
LINE
  5
   403
  8
0
  6
CONTINUOUS
 62
     7
 10
-513.250228881836
 20
49.2248286437812
 30
0.0
 11
-513.400230407715
 21
49.2248286437812
 31
0.0
  0
LINE
  5
   404
  8
0
  6
CONTINUOUS
 62
     7
 10
-524.500228881836
 20
48.7248362731757
 30
0.0
 11
-526.000228881836
 21
48.7248362731757
 31
0.0
  0
LINE
  5
   405
  8
0
  6
CONTINUOUS
 62
     7
 10
-526.000228881836
 20
41.4748362731757
 30
0.0
 11
-526.000228881836
 21
48.7248362731757
 31
0.0
  0
LINE
  5
   406
  8
0
  6
CONTINUOUS
 62
     7
 10
-524.50025177002
 20
-28.5251560974298
 30
0.0
 11
-524.50025177002
 21
-24.8868504333673
 31
0.0
  0
LINE
  5
   407
  8
0
  6
CONTINUOUS
 62
     7
 10
-526.000236511231
 20
8.22482864378117
 30
0.0
 11
-526.000236511231
 21
14.2248133849921
 31
0.0
  0
LINE
  5
   408
  8
0
  6
CONTINUOUS
 62
     7
 10
-526.000236511231
 20
6.97481338499211
 30
0.0
 11
-526.500236511231
 21
6.97481338499211
 31
0.0
  0
LINE
  5
   409
  8
0
  6
CONTINUOUS
 62
     7
 10
-513.400246044522
 20
-30.0251408386301
 30
0.0
 11
-524.500252148038
 21
-30.0251408386301
 31
0.0
  0
LINE
  5
   40A
  8
0
  6
CONTINUOUS
 62
     7
 10
-524.50025177002
 20
-30.0251560974298
 30
0.0
 11
-524.50025177002
 21
-28.5251560974298
 31
0.0
  0
LINE
  5
   40B
  8
0
  6
CONTINUOUS
 62
     7
 10
-524.500244140625
 20
-24.8868504333673
 30
0.0
 11
-524.500244140625
 21
-21.400151492288
 31
0.0
  0
LINE
  5
   40C
  8
0
  6
CONTINUOUS
 62
     7
 10
-513.25025177002
 20
-31.5251637268243
 30
0.0
 11
-513.25025177002
 21
-30.0251637268243
 31
0.0
  0
LINE
  5
   40D
  8
0
  6
CONTINUOUS
 62
     7
 10
-513.25025177002
 20
-30.0251637268243
 30
0.0
 11
-513.400245636702
 21
-30.0251637268243
 31
0.0
  0
LINE
  5
   40E
  8
0
  6
CONTINUOUS
 62
     7
 10
-526.500236511231
 20
6.97481338499211
 30
0.0
 11
-528.500236511231
 21
6.97481338499211
 31
0.0
  0
LINE
  5
   40F
  8
0
  6
CONTINUOUS
 62
     7
 10
-526.000236511231
 20
6.97481338499211
 30
0.0
 11
-526.000236511231
 21
8.22482864378117
 31
0.0
  0
LINE
  5
   410
  8
0
  6
CONTINUOUS
 62
     7
 10
-513.400247745681
 20
-21.4001408386321
 30
0.0
 11
-524.500246219802
 21
-21.4001408386321
 31
0.0
  0
LINE
  5
   411
  8
0
  6
CONTINUOUS
 62
     7
 10
-513.400251422912
 20
-15.6501408386335
 30
0.0
 11
-524.500249897033
 21
-15.6501408386335
 31
0.0
  0
LINE
  5
   412
  8
0
  6
CONTINUOUS
 62
     7
 10
-523.850731416964
 20
-28.1501475391002
 30
0.0
 11
-523.75025230673
 21
-27.7751475442773
 31
0.0
  0
LINE
  5
   413
  8
0
  6
CONTINUOUS
 62
     7
 10
-524.125247099079
 20
-28.4246720718297
 30
0.0
 11
-523.850733872579
 21
-28.1501512091106
 31
0.0
  0
LINE
  5
   414
  8
0
  6
CONTINUOUS
 62
     7
 10
-524.500260412718
 20
-28.5251443795898
 30
0.0
 11
-524.125252798445
 21
-28.4246652617084
 31
0.0
  0
LINE
  5
   415
  8
0
  6
CONTINUOUS
 62
     7
 10
-524.125248620561
 20
-22.6256341351828
 30
0.0
 11
-524.500248617812
 21
-22.5251473886555
 31
0.0
  0
LINE
  5
   416
  8
0
  6
CONTINUOUS
 62
     7
 10
-523.85073603022
 20
-22.9001515638918
 30
0.0
 11
-524.12524926054
 21
-22.6256383335718
 31
0.0
  0
LINE
  5
   417
  8
0
  6
CONTINUOUS
 62
     7
 10
-523.750257496651
 20
-23.2751508687257
 30
0.0
 11
-523.850744243179
 21
-22.9001508714753
 31
0.0
  0
LINE
  5
   418
  8
0
  6
CONTINUOUS
 62
     7
 10
-523.750256008555
 20
-27.7751531291122
 30
0.0
 11
-523.750248379161
 21
-23.2751531291122
 31
0.0
  0
LINE
  5
   419
  8
0
  6
CONTINUOUS
 62
     7
 10
-513.400245666505
 20
-30.0251637268243
 30
0.0
 11
-513.400245666505
 21
49.2248223873885
 31
0.0
  0
LINE
  5
   41A
  8
0
  6
CONTINUOUS
 62
     7
 10
-513.40022277832
 20
60.0748347472968
 30
0.0
 11
-524.208951631904
 21
60.0748347472968
 31
0.0
  0
LINE
  5
   41B
  8
0
  6
CONTINUOUS
 62
     7
 10
-513.400276184089
 20
49.2248251982981
 30
0.0
 11
-513.400276184089
 21
60.0748313018138
 31
0.0
  0
LINE
  5
   41C
  8
0
  6
CONTINUOUS
 62
     7
 10
-524.500228881836
 20
49.2248362731757
 30
0.0
 11
-524.500228881836
 21
59.4321455893824
 31
0.0
  0
LINE
  5
   41D
  8
0
  6
CONTINUOUS
 62
     7
 10
-505.250221252441
 20
-27.4001332092462
 30
0.0
 11
-505.250221252441
 21
-18.1501502990723
 31
0.0
  0
LINE
  5
   41E
  8
0
  6
CONTINUOUS
 62
     7
 10
-505.250221252441
 20
23.9748515319648
 30
0.0
 11
-505.250221252441
 21
24.0998515319648
 31
0.0
  0
LINE
  5
   41F
  8
0
  6
CONTINUOUS
 62
     7
 10
-508.000218391419
 20
25.0998515319648
 30
0.0
 11
-509.750221252441
 21
25.0998515319648
 31
0.0
  0
LINE
  5
   420
  8
0
  6
CONTINUOUS
 62
     7
 10
-508.000218391419
 20
-27.4001332092462
 30
0.0
 11
-509.750221252441
 21
-27.4001332092462
 31
0.0
  0
LINE
  5
   421
  8
0
  6
CONTINUOUS
 62
     7
 10
-513.250221252441
 20
-35.5251332092462
 30
0.0
 11
-513.250221252441
 21
-30.0251637268243
 31
0.0
  0
LINE
  5
   422
  8
0
  6
CONTINUOUS
 62
     7
 10
-510.750221252442
 20
-35.5251332092462
 30
0.0
 11
-510.750221252442
 21
-27.4001332092462
 31
0.0
  0
LINE
  5
   423
  8
0
  6
CONTINUOUS
 62
     7
 10
-510.750221252442
 20
25.0998515319648
 30
0.0
 11
-510.750221252442
 21
49.2248515319648
 31
0.0
  0
LINE
  5
   424
  8
0
  6
CONTINUOUS
 62
     7
 10
-510.750221252442
 20
49.2248515319648
 30
0.0
 11
-513.250221252441
 21
49.2248515319648
 31
0.0
  0
LINE
  5
   425
  8
0
  6
CONTINUOUS
 62
     7
 10
-510.750221252442
 20
-35.5251332092462
 30
0.0
 11
-513.250221252441
 21
-35.5251332092462
 31
0.0
  0
LINE
  5
   426
  8
0
  6
CONTINUOUS
 62
     7
 10
-509.750221252441
 20
-27.4001332092462
 30
0.0
 11
-509.750221252441
 21
25.0998515319648
 31
0.0
  0
LINE
  5
   427
  8
0
  6
CONTINUOUS
 62
     7
 10
-509.750221252441
 20
-27.4001332092462
 30
0.0
 11
-510.750221252442
 21
-27.4001332092462
 31
0.0
  0
LINE
  5
   428
  8
0
  6
CONTINUOUS
 62
     7
 10
-509.750221252441
 20
25.0998515319648
 30
0.0
 11
-510.750221252442
 21
25.0998515319648
 31
0.0
  0
LINE
  5
   429
  8
0
  6
CONTINUOUS
 62
     7
 10
-513.400257246619
 20
-15.3751714046157
 30
0.0
 11
-513.250255727696
 21
-15.3620488476283
 31
0.0
  0
LINE
  5
   42A
  8
0
  6
CONTINUOUS
 62
     7
 10
-513.25022994166
 20
-21.688284120171
 30
0.0
 11
-513.400231464778
 21
-21.6751539337647
 31
0.0
  0
LINE
  5
   42B
  8
0
  6
CONTINUOUS
 62
     7
 10
-524.500244140625
 20
-15.6501514922867
 30
0.0
 11
-524.500244140625
 21
-14.2751713562188
 31
0.0
  0
LINE
  5
   42C
  8
0
  6
CONTINUOUS
 62
   218
 10
-513.400223255158
 20
-64.1251335907161
 30
0.0
 11
-537.200462399293
 21
-64.1251335907161
 31
0.0
  0
LINE
  5
   42D
  8
0
  6
CONTINUOUS
 62
     2
 10
-559.500213623047
 20
-30.2751332092464
 30
0.0
 11
-561.500213623047
 21
-30.2751332092464
 31
0.0
  0
LINE
  5
   42E
  8
0
  6
CONTINUOUS
 62
     7
 10
-513.400215148926
 20
-30.2751332092464
 30
0.0
 11
-522.000221252441
 21
-30.2751332092464
 31
0.0
  0
LINE
  5
   42F
  8
0
  6
CONTINUOUS
 62
   218
 10
-512.000213623047
 20
-65.5251332092464
 30
0.0
 11
-512.000213623047
 21
-53.5251408386409
 31
0.0
  0
LINE
  5
   430
  8
0
  6
CONTINUOUS
 62
     2
 10
-559.500213623047
 20
-31.5251332092464
 30
0.0
 11
-559.500213623047
 21
-30.2751332092464
 31
0.0
  0
LINE
  5
   431
  8
0
  6
CONTINUOUS
 62
   218
 10
-513.400219250295
 20
-51.5251408390887
 30
0.0
 11
-513.250221252831
 21
-51.5251390784869
 31
0.0
  0
LINE
  5
   432
  8
0
  6
CONTINUOUS
 62
   218
 10
-512.000213623047
 20
-53.5251408386409
 30
0.0
 11
-513.400215148926
 21
-53.5251408386409
 31
0.0
  0
LINE
  5
   433
  8
0
  6
CONTINUOUS
 62
   218
 10
-513.400215148926
 20
-64.1251316833675
 30
0.0
 11
-513.400215148926
 21
-51.5251332092464
 31
0.0
  0
LINE
  5
   434
  8
0
  6
CONTINUOUS
 62
   218
 10
-513.400215148926
 20
-51.5251332092464
 30
0.0
 11
-513.400215148926
 21
-30.2751332092464
 31
0.0
  0
LINE
  5
   435
  8
0
  6
CONTINUOUS
 62
     7
 10
-513.250221252441
 20
-36.0251332092464
 30
0.0
 11
-513.400215148926
 21
-36.0251332092464
 31
0.0
  0
LINE
  5
   436
  8
0
  6
CONTINUOUS
 62
   218
 10
-561.500213623089
 20
-48.5251408381462
 30
0.0
 11
-560.500214099949
 21
-48.5251332087516
 31
0.0
  0
LINE
  5
   437
  8
0
  6
CONTINUOUS
 62
   218
 10
-560.500214099884
 20
-65.5251332092462
 30
0.0
 11
-560.500214099884
 21
-48.5251408386407
 31
0.0
  0
LINE
  5
   438
  8
0
  6
CONTINUOUS
 62
   218
 10
-560.500213623047
 20
-53.9001408386409
 30
0.0
 11
-561.500213623047
 21
-53.9001408386409
 31
0.0
  0
LINE
  5
   439
  8
0
  6
CONTINUOUS
 62
     7
 10
-524.500226973411
 20
-30.2751332065255
 30
0.0
 11
-524.500219344016
 21
-29.2751332065026
 31
0.0
  0
LINE
  5
   43A
  8
0
  6
CONTINUOUS
 62
     7
 10
-524.500213623047
 20
-29.2751332092464
 30
0.0
 11
-529.500213623047
 21
-29.2751332092464
 31
0.0
  0
LINE
  5
   43B
  8
0
  6
CONTINUOUS
 62
     7
 10
-522.000221252441
 20
-30.2751332092464
 30
0.0
 11
-524.500221252442
 21
-30.2751332092464
 31
0.0
  0
LINE
  5
   43C
  8
0
  6
CONTINUOUS
 62
   218
 10
-560.500213623047
 20
-58.2589364814937
 30
0.0
 11
-561.500213623047
 21
-58.2589364814937
 31
0.0
  0
LINE
  5
   43D
  8
0
  6
CONTINUOUS
 62
   218
 10
-560.500213623047
 20
-57.0324421692073
 30
0.0
 11
-561.500213623047
 21
-57.0324421692073
 31
0.0
  0
LINE
  5
   43E
  8
0
  6
CONTINUOUS
 62
   218
 10
-560.500213623047
 20
-53.9640293884456
 30
0.0
 11
-561.500213623047
 21
-53.9640293884456
 31
0.0
  0
LINE
  5
   43F
  8
0
  6
CONTINUOUS
 62
     7
 10
-510.750221252442
 20
-35.7751332092462
 30
0.0
 11
-513.250221252441
 21
-35.7751332092462
 31
0.0
  0
LINE
  5
   440
  8
0
  6
CONTINUOUS
 62
     7
 10
-510.750221252442
 20
-53.2751332092462
 30
0.0
 11
-513.250221252441
 21
-53.2751332092462
 31
0.0
  0
LINE
  5
   441
  8
0
  6
CONTINUOUS
 62
     7
 10
-510.750221252442
 20
-53.2751332092462
 30
0.0
 11
-510.750221252442
 21
-35.7751332092462
 31
0.0
  0
LINE
  5
   442
  8
0
  6
CONTINUOUS
 62
     7
 10
-511.750221252441
 20
-53.2751332092462
 30
0.0
 11
-511.750221252441
 21
-35.7751332092462
 31
0.0
  0
LINE
  5
   443
  8
0
  6
CONTINUOUS
 62
     7
 10
-513.250221252441
 20
-53.2751332092462
 30
0.0
 11
-513.250221252441
 21
-35.7751332092462
 31
0.0
  0
ARC
  5
   444
  8
0
  6
CONTINUOUS
 62
     7
 10
-494.912694867185
 20
-12.1720739417776
 30
0.0
 40
0.499999897877905
 50
348.623573369035
 51
436.688788706936
  0
ARC
  5
   445
  8
0
  6
CONTINUOUS
 62
     7
 10
-495.511067067103
 20
-15.1459829257765
 30
0.0
 40
0.50000037262337
 50
260.593992196011
 51
348.623573369035
  0
LINE
  5
   446
  8
0
  6
DASHDOT
 62
     7
 10
-487.512402541411
 20
-15.2264045796749
 30
0.0
 11
-512.570745775865
 21
-10.1844844117766
 31
0.0
  0
LINE
  5
   447
  8
0
  6
CONTINUOUS
 62
     7
 10
-494.797574894838
 20
-11.6855074720789
 30
0.0
 11
-505.250221252442
 21
-9.2124468841071
 31
0.0
  0
LINE
  5
   448
  8
0
  6
CONTINUOUS
 62
     7
 10
-495.020890622223
 20
-15.24460997706
 30
0.0
 11
-494.422518586598
 21
-12.2707009600043
 31
0.0
  0
LINE
  5
   449
  8
0
  6
CONTINUOUS
 62
     7
 10
-495.592781805697
 20
-15.6392606486479
 30
0.0
 11
-505.250221252442
 21
-14.0394415137466
 31
0.0
  0
LINE
  5
   44A
  8
0
  6
CONTINUOUS
 62
     7
 10
-559.000245666505
 20
-21.2751579284668
 30
0.0
 11
-559.000245666505
 21
-15.7751579284668
 31
0.0
  0
LINE
  5
   44B
  8
0
  6
CONTINUOUS
 62
     7
 10
-549.500226245274
 20
57.4748344421387
 30
0.0
 11
-551.5002252916
 21
57.4748344421387
 31
0.0
  0
LINE
  5
   44C
  8
0
  6
DASHDOT
 62
     7
 10
-541.148254805124
 20
52.4748600223834
 30
0.0
 11
-555.214896822562
 21
52.4748600223834
 31
0.0
  0
LINE
  5
   44D
  8
0
  6
CONTINUOUS
 62
     7
 10
-549.500226245274
 20
54.4748600223833
 30
0.0
 11
-551.5002252916
 21
54.4748600223833
 31
0.0
  0
LINE
  5
   44E
  8
0
  6
CONTINUOUS
 62
     7
 10
-549.500226245274
 20
50.4748600223833
 30
0.0
 11
-551.5002252916
 21
50.4748600223833
 31
0.0
  0
LINE
  5
   44F
  8
0
  6
CONTINUOUS
 62
     7
 10
-544.373878418086
 20
42.2292234927537
 30
0.0
 11
-542.102450354376
 21
47.2410196075197
 31
0.0
  0
LINE
  5
   450
  8
0
  6
CONTINUOUS
 62
     7
 10
-549.000226245274
 20
42.2292234927538
 30
0.0
 11
-549.000226245274
 21
47.4748600223834
 31
0.0
  0
LINE
  5
   451
  8
0
  6
CONTINUOUS
 62
     7
 10
-551.5002252916
 20
42.2292234927538
 30
0.0
 11
-551.5002252916
 21
50.4748600223833
 31
0.0
  0
LINE
  5
   452
  8
0
  6
CONTINUOUS
 62
     2
 10
-560.500259399646
 20
52.1306343078613
 30
0.0
 11
-560.500259399646
 21
61.4748339035991
 31
0.0
  0
LINE
  5
   453
  8
0
  6
CONTINUOUS
 62
     7
 10
-542.223089829915
 20
46.9748344421387
 30
0.0
 11
-549.000226245274
 21
46.9748344421387
 31
0.0
  0
LINE
  5
   454
  8
0
  6
CONTINUOUS
 62
     7
 10
-543.129522578452
 20
44.9748344421387
 30
0.0
 11
-549.000226245274
 21
44.9748344421387
 31
0.0
  0
INSERT
  5
   455
  8
0
  6
CONTINUOUS
 62
     7
  2
*HATCH15
 10
-510.000244140625
 20
-56.1436882019043
 30
0.0
 41
0.5
 42
0.5
 50
89.9999999480344
 43
0.5
  0
LINE
  5
   456
  8
0
  6
CONTINUOUS
 62
     2
 10
-524.500244140625
 20
61.4748344421387
 30
0.0
 11
-545.8752252916
 21
61.4748344421387
 31
0.0
  0
LINE
  5
   457
  8
0
  6
DASHDOT
 62
     7
 10
-561.500213623047
 20
-75.1164914085939
 30
0.0
 11
-561.500213623047
 21
70.0309395935955
 31
0.0
  0
LINE
  5
   458
  8
0
  6
DASHDOT
 62
     7
 10
-563.000213623047
 20
-75.1164914085939
 30
0.0
 11
-563.000213623047
 21
70.0309395935955
 31
0.0
  0
LINE
  5
   459
  8
0
  6
CONTINUOUS
 62
     7
 10
-559.93535299748
 20
70.0309395935955
 30
0.0
 11
-565.004248869508
 21
70.0309395935955
 31
0.0
  0
LINE
  5
   45A
  8
0
  6
CONTINUOUS
 62
     7
 10
-558.125033043185
 20
-75.1164914085939
 30
0.0
 11
-567.418008808569
 21
-75.1164914085939
 31
0.0
  0
ARC
  5
   45B
  8
0
  6
CONTINUOUS
 62
     7
 10
-532.000221252441
 20
-6.27513320924617
 30
0.0
 40
38.0220413050115
 50
333.082565820193
 51
379.93594827737
  0
LINE
  5
   45C
  8
0
  6
CONTINUOUS
 62
     7
 10
-493.97817994743
 20
-6.27513320924619
 30
0.0
 11
-493.97817994743
 21
15.3995063061861
 31
0.0
  0
LINE
  5
   45D
  8
0
  6
CONTINUOUS
 62
     7
 10
-544.373878418086
 20
42.2292234927538
 30
0.0
 11
-562.704298504161
 21
42.2292234927538
 31
0.0
  0
LINE
  5
   45E
  8
0
  6
CONTINUOUS
 62
     7
 10
-551.5002252916
 20
43.7248344421387
 30
0.0
 11
-554.0002252916
 21
43.7248344421387
 31
0.0
  0
LINE
  5
   45F
  8
0
  6
CONTINUOUS
 62
     7
 10
-555.495836240985
 20
42.2292234927538
 30
0.0
 11
-554.0002252916
 21
43.7248344421386
 31
0.0
  0
INSERT
  5
   460
  8
0
  6
CONTINUOUS
 62
     7
  2
*HATCH16
 10
-510.000244140625
 20
-56.1436882019043
 30
0.0
 41
0.5
 42
0.5
 50
89.9999999480344
 43
0.5
  0
LINE
  5
   461
  8
0
  6
DASHDOT
 62
     7
 10
-541.148254805124
 20
-56.525191138106
 30
0.0
 11
-555.214896822562
 21
-56.525191138106
 31
0.0
  0
LINE
  5
   462
  8
0
  6
CONTINUOUS
 62
     7
 10
-549.0002252916
 20
-61.5251655578613
 30
0.0
 11
-551.5002252916
 21
-61.5251655578613
 31
0.0
  0
LINE
  5
   463
  8
0
  6
CONTINUOUS
 62
     7
 10
-551.5002252916
 20
-61.5251655578613
 30
0.0
 11
-551.5002252916
 21
-46.2795546084765
 31
0.0
  0
LINE
  5
   464
  8
0
  6
CONTINUOUS
 62
     7
 10
-549.000226245274
 20
-54.525191138106
 30
0.0
 11
-551.5002252916
 21
-54.525191138106
 31
0.0
  0
LINE
  5
   465
  8
0
  6
CONTINUOUS
 62
     7
 10
-549.000226245274
 20
-58.525191138106
 30
0.0
 11
-551.5002252916
 21
-58.525191138106
 31
0.0
  0
LINE
  5
   466
  8
0
  6
CONTINUOUS
 62
     7
 10
-549.000226245274
 20
-54.5251399776167
 30
0.0
 11
-549.000226245274
 21
-46.2795546084765
 31
0.0
  0
LINE
  5
   467
  8
0
  6
CONTINUOUS
 62
     7
 10
-541.068597933169
 20
-46.2795546084765
 30
0.0
 11
-566.054498040371
 21
-46.2795546084765
 31
0.0
  0
LINE
  5
   468
  8
0
  6
CONTINUOUS
 62
     7
 10
-536.388576396062
 20
-67.0808231580351
 30
0.0
 11
-542.306289579346
 21
-45.5372529417634
 31
0.0
  0
LINE
  5
   469
  8
0
  6
CONTINUOUS
 62
   218
 10
-512.000214099884
 20
-65.5251332092462
 30
0.0
 11
-551.0002252916
 21
-65.5251332092462
 31
0.0
  0
INSERT
  5
   46A
  8
0
  6
CONTINUOUS
 62
     7
  2
*HATCH17
 10
-510.000244140625
 20
-56.1436882019043
 30
0.0
 41
0.5
 42
0.5
 50
89.9999999480344
 43
0.5
  0
INSERT
  5
   46B
  8
0
  6
CONTINUOUS
 62
     7
  2
*HATCH18
 10
-510.000244140625
 20
-56.1436882019043
 30
0.0
 41
0.5
 42
0.5
 50
89.9999999480344
 43
0.5
  0
LINE
  5
   46C
  8
0
  6
CONTINUOUS
 62
     7
 10
-551.5002252916
 20
-49.025191138106
 30
0.0
 11
-560.500214099884
 21
-49.025191138106
 31
0.0
  0
LINE
  5
   46D
  8
0
  6
CONTINUOUS
 62
     7
 10
-551.5002252916
 20
-47.025191138106
 30
0.0
 11
-561.500213623047
 21
-47.025191138106
 31
0.0
  0
LINE
  5
   46E
  8
0
  6
CONTINUOUS
 62
     7
 10
-540.798830792918
 20
-51.025191138106
 30
0.0
 11
-549.000226245274
 21
-51.025191138106
 31
0.0
  0
INSERT
  5
   46F
  8
0
  6
CONTINUOUS
 62
     7
  2
*HATCH19
 10
-510.000244140625
 20
-56.1436882019043
 30
0.0
 41
0.5
 42
0.5
 50
89.9999999480344
 43
0.5
  0
LINE
  5
   470
  8
0
  6
CONTINUOUS
 62
     7
 10
-541.348202426671
 20
-49.025191138106
 30
0.0
 11
-549.000226245274
 21
-49.025191138106
 31
0.0
  0
INSERT
  5
   471
  8
0
  6
CONTINUOUS
 62
     7
  2
*HATCH20
 10
-510.000244140625
 20
-56.1436882019043
 30
0.0
 41
0.5
 42
0.5
 50
89.9999999480344
 43
0.5
  0
LINE
  5
   472
  8
0
  6
CONTINUOUS
 62
     7
 10
-529.500228881836
 20
-31.5251426696771
 30
0.0
 11
-559.500213623047
 21
-31.5251426696771
 31
0.0
  0
LINE
  5
   473
  8
0
  6
CONTINUOUS
 62
     7
 10
-505.250221252441
 20
5.59984970092773
 30
0.0
 11
-505.250221252441
 21
25.0998515319648
 31
0.0
  0
LINE
  5
   474
  8
0
  6
CONTINUOUS
 62
     7
 10
-505.250221252441
 20
-0.900150299072266
 30
0.0
 11
-505.250221252441
 21
5.09984970092773
 31
0.0
  0
LINE
  5
   475
  8
0
  6
CONTINUOUS
 62
     7
 10
-505.250221252441
 20
-11.1501350402843
 30
0.0
 11
-505.250221252441
 21
-1.40015029907227
 31
0.0
  0
LINE
  5
   476
  8
0
  6
CONTINUOUS
 62
     7
 10
-505.250221252441
 20
-17.6501502990723
 30
0.0
 11
-505.250221252441
 21
-11.6501350402842
 31
0.0
  0
LINE
  5
   477
  8
0
  6
CONTINUOUS
 62
     1
 10
-508.000218391419
 20
-28.6533756256104
 30
0.0
 11
-508.000218391419
 21
-27.6533756256104
 31
0.0
  0
LINE
  5
   478
  8
0
  6
CONTINUOUS
 62
     1
 10
-507.000218391418
 20
-28.6533756256104
 30
0.0
 11
-508.000218391419
 21
-28.6533756256104
 31
0.0
  0
LINE
  5
   479
  8
0
  6
CONTINUOUS
 62
     1
 10
-508.000218391419
 20
25.346622467041
 30
0.0
 11
-508.000218391419
 21
26.346622467041
 31
0.0
  0
LINE
  5
   47A
  8
0
  6
CONTINUOUS
 62
     1
 10
-507.000218391418
 20
26.346622467041
 30
0.0
 11
-508.000218391419
 21
26.346622467041
 31
0.0
  0
LINE
  5
   47B
  8
0
  6
CONTINUOUS
 62
     1
 10
-508.000218391419
 20
-27.6533756256104
 30
0.0
 11
-508.000218391419
 21
25.3466243743897
 31
0.0
  0
LINE
  5
   47C
  8
0
  6
CONTINUOUS
 62
     1
 10
-510.250218391419
 20
33.1352958679199
 30
0.0
 11
-510.250218391419
 21
35.5579490661621
 31
0.0
  0
LINE
  5
   47D
  8
0
  6
CONTINUOUS
 62
     1
 10
-507.000218391418
 20
-41.9033756256104
 30
0.0
 11
-507.000218391418
 21
39.5966243743896
 31
0.0
  0
LINE
  5
   47E
  8
0
  6
CONTINUOUS
 62
     1
 10
-505.250218391419
 20
-41.9033756256104
 30
0.0
 11
-507.000218391418
 21
-41.9033756256104
 31
0.0
  0
LINE
  5
   47F
  8
0
  6
CONTINUOUS
 62
     1
 10
-505.250218391419
 20
-41.903377532959
 30
0.0
 11
-505.250218391419
 21
39.596622467041
 31
0.0
  0
LINE
  5
   480
  8
0
  6
CONTINUOUS
 62
     1
 10
-505.250218391419
 20
39.596622467041
 30
0.0
 11
-505.750218391418
 21
39.596622467041
 31
0.0
  0
LINE
  5
   481
  8
0
  6
CONTINUOUS
 62
     1
 10
-506.250218391419
 20
39.596622467041
 30
0.0
 11
-507.000218391418
 21
39.596622467041
 31
0.0
  0
LINE
  5
   482
  8
0
  6
CONTINUOUS
 62
     1
 10
-507.000218391418
 20
32.846622467041
 30
0.0
 11
-509.750219989733
 21
32.846622467041
 31
0.0
  0
LINE
  5
   483
  8
0
  6
CONTINUOUS
 62
     1
 10
-507.000218391418
 20
35.846622467041
 30
0.0
 11
-509.750216753155
 21
35.846622467041
 31
0.0
  0
LINE
  5
   484
  8
0
  6
CONTINUOUS
 62
     1
 10
-509.750218398269
 20
32.846622467041
 30
0.0
 11
-509.750218398269
 21
32.9608039855957
 31
0.0
  0
LINE
  5
   485
  8
0
  6
CONTINUOUS
 62
     1
 10
-509.750218000407
 20
32.8466213185103
 30
0.0
 11
-510.250218016871
 21
33.1352947230085
 31
0.0
  0
LINE
  5
   486
  8
0
  6
CONTINUOUS
 62
     1
 10
-509.750218398269
 20
32.9608039855957
 30
0.0
 11
-509.750218398269
 21
33.285961151123
 31
0.0
  0
LINE
  5
   487
  8
0
  6
CONTINUOUS
 62
     1
 10
-509.750218398269
 20
33.285961151123
 30
0.0
 11
-509.750218398269
 21
33.7726020812988
 31
0.0
  0
LINE
  5
   488
  8
0
  6
CONTINUOUS
 62
     1
 10
-509.750218398269
 20
33.7726020812988
 30
0.0
 11
-509.750218398269
 21
34.346622467041
 31
0.0
  0
LINE
  5
   489
  8
0
  6
CONTINUOUS
 62
     1
 10
-509.750218398269
 20
34.346622467041
 30
0.0
 11
-509.750218398269
 21
34.9206504821777
 31
0.0
  0
LINE
  5
   48A
  8
0
  6
CONTINUOUS
 62
     1
 10
-509.750218398269
 20
34.9206504821777
 30
0.0
 11
-509.750218398269
 21
35.407283782959
 31
0.0
  0
LINE
  5
   48B
  8
0
  6
CONTINUOUS
 62
     1
 10
-509.750218398269
 20
35.407283782959
 30
0.0
 11
-509.750218398269
 21
35.7324409484863
 31
0.0
  0
LINE
  5
   48C
  8
0
  6
CONTINUOUS
 62
     1
 10
-509.750218398269
 20
35.7324409484863
 30
0.0
 11
-509.750218398269
 21
35.846622467041
 31
0.0
  0
LINE
  5
   48D
  8
0
  6
CONTINUOUS
 62
     1
 10
-510.250218826008
 20
35.5579478752931
 30
0.0
 11
-509.750218809544
 21
35.8466212797913
 31
0.0
  0
LINE
  5
   48E
  8
0
  6
CONTINUOUS
 62
     1
 10
-507.000218391418
 20
-35.1533756256104
 30
0.0
 11
-509.750217395713
 21
-35.1533756256104
 31
0.0
  0
LINE
  5
   48F
  8
0
  6
CONTINUOUS
 62
     1
 10
-507.000218391418
 20
-38.1533756256104
 30
0.0
 11
-509.750218381611
 21
-38.1533756256104
 31
0.0
  0
LINE
  5
   490
  8
0
  6
CONTINUOUS
 62
     1
 10
-509.750218381611
 20
-35.267557144165
 30
0.0
 11
-509.750218381611
 21
-35.1533756256104
 31
0.0
  0
LINE
  5
   491
  8
0
  6
CONTINUOUS
 62
     1
 10
-509.750218381623
 20
-35.592716217041
 30
0.0
 11
-509.750218381623
 21
-35.267557144165
 31
0.0
  0
LINE
  5
   492
  8
0
  6
CONTINUOUS
 62
     1
 10
-509.750218381609
 20
-36.0793495178223
 30
0.0
 11
-509.750218381609
 21
-35.592716217041
 31
0.0
  0
LINE
  5
   493
  8
0
  6
CONTINUOUS
 62
     1
 10
-509.750218381644
 20
-36.6533756256104
 30
0.0
 11
-509.750218381644
 21
-36.0793495178223
 31
0.0
  0
LINE
  5
   494
  8
0
  6
CONTINUOUS
 62
     1
 10
-509.750218381582
 20
-37.2273998260498
 30
0.0
 11
-509.750218381582
 21
-36.6533756256104
 31
0.0
  0
LINE
  5
   495
  8
0
  6
CONTINUOUS
 62
     1
 10
-509.750218381609
 20
-37.7140350341797
 30
0.0
 11
-509.750218381609
 21
-37.2273998260498
 31
0.0
  0
LINE
  5
   496
  8
0
  6
CONTINUOUS
 62
     1
 10
-509.750218381622
 20
-38.1533756256104
 30
0.0
 11
-509.750218381622
 21
-37.7140350341797
 31
0.0
  0
LINE
  5
   497
  8
0
  6
CONTINUOUS
 62
     1
 10
-509.750218381611
 20
-38.1533756256104
 30
0.0
 11
-509.750218381611
 21
-38.0391941070557
 31
0.0
  0
LINE
  5
   498
  8
0
  6
CONTINUOUS
 62
     1
 10
-505.750218391418
 20
39.596622467041
 30
0.0
 11
-506.250218391419
 21
39.596622467041
 31
0.0
  0
LINE
  5
   499
  8
0
  6
CONTINUOUS
 62
     7
 10
-510.250218652493
 20
-35.4420516339638
 30
0.0
 11
-509.750218636029
 21
-35.1533763417072
 31
0.0
  0
LINE
  5
   49A
  8
0
  6
CONTINUOUS
 62
     7
 10
-509.750218174449
 20
-38.1533762393599
 30
0.0
 11
-510.250218190913
 21
-37.8647009471033
 31
0.0
  0
LINE
  5
   49B
  8
0
  6
CONTINUOUS
 62
     7
 10
-508.000218391419
 20
-69.2191251828167
 30
0.0
 11
-508.000218391419
 21
-38.1533756256104
 31
0.0
  0
LINE
  5
   49C
  8
0
  6
CONTINUOUS
 62
     7
 10
-507.000218391418
 20
-68.6053320793685
 30
0.0
 11
-507.000218391418
 21
-41.9033756256104
 31
0.0
  0
LINE
  5
   49D
  8
0
  6
CONTINUOUS
 62
     7
 10
-507.000218391418
 20
36.096622467041
 30
0.0
 11
-507.000218391418
 21
68.6921738373864
 31
0.0
  0
LINE
  5
   49E
  8
0
  6
CONTINUOUS
 62
     7
 10
-507.000218391418
 20
-29.1533756256104
 30
0.0
 11
-508.000218391419
 21
-29.1533756256104
 31
0.0
  0
LINE
  5
   49F
  8
0
  6
CONTINUOUS
 62
     7
 10
-507.000218391418
 20
26.846622467041
 30
0.0
 11
-508.000218391419
 21
26.846622467041
 31
0.0
  0
LINE
  5
   4A0
  8
0
  6
CONTINUOUS
 62
     7
 10
-507.000218391418
 20
36.096622467041
 30
0.0
 11
-508.000218391419
 21
36.096622467041
 31
0.0
  0
LINE
  5
   4A1
  8
0
  6
CONTINUOUS
 62
     7
 10
-507.000218391418
 20
32.596622467041
 30
0.0
 11
-508.000218391419
 21
32.596622467041
 31
0.0
  0
LINE
  5
   4A2
  8
0
  6
CONTINUOUS
 62
     7
 10
-507.000218391418
 20
-34.9033756256104
 30
0.0
 11
-508.000218391419
 21
-34.9033756256104
 31
0.0
  0
LINE
  5
   4A3
  8
0
  6
CONTINUOUS
 62
     7
 10
-507.000218391418
 20
-38.4033756256104
 30
0.0
 11
-508.000218391419
 21
-38.4033756256104
 31
0.0
  0
LINE
  5
   4A4
  8
0
  6
CONTINUOUS
 62
     7
 10
-508.000218391419
 20
-35.1533756256104
 30
0.0
 11
-508.000218391419
 21
32.846622467041
 31
0.0
  0
LINE
  5
   4A5
  8
0
  6
CONTINUOUS
 62
     7
 10
-508.000218391419
 20
35.846622467041
 30
0.0
 11
-508.000218391419
 21
68.1529581511119
 31
0.0
  0
LINE
  5
   4A6
  8
0
  6
CONTINUOUS
 62
     7
 10
-509.197113155086
 20
67.5075737197228
 30
0.0
 11
-505.542961069716
 21
69.477949844187
 31
0.0
  0
LINE
  5
   4A7
  8
0
  6
CONTINUOUS
 62
     7
 10
-509.662838420868
 20
-70.2396298905478
 30
0.0
 11
-504.468210456372
 21
-67.0512030709603
 31
0.0
  0
INSERT
  5
   4A8
  8
0
  6
CONTINUOUS
 62
     7
  2
*HATCH21
 10
-510.000244140625
 20
-56.1436882019043
 30
0.0
 41
0.5
 42
0.5
 50
89.9999999480344
 43
0.5
  0
INSERT
  5
   4A9
  8
0
  6
CONTINUOUS
 62
     7
  2
*HATCH22
 10
-510.000244140625
 20
-56.1436882019043
 30
0.0
 41
0.5
 42
0.5
 50
89.9999999480344
 43
0.5
  0
INSERT
  5
   4AA
  8
0
  6
CONTINUOUS
 62
     7
  2
*HATCH23
 10
-510.000244140625
 20
-56.1436882019043
 30
0.0
 41
0.5
 42
0.5
 50
89.9999999480344
 43
0.5
  0
INSERT
  5
   4AB
  8
0
  6
CONTINUOUS
 62
     7
  2
*HATCH24
 10
-510.000244140625
 20
-56.1436882019043
 30
0.0
 41
0.5
 42
0.5
 50
89.9999999480344
 43
0.5
  0
LINE
  5
   4AC
  8
0
  6
CONTINUOUS
 62
     7
 10
-510.250218190913
 20
-37.8647009471033
 30
0.0
 11
-510.250218652493
 21
-35.4420516339638
 31
0.0
  0
LINE
  5
   4AD
  8
0
  6
DASHDOT
 62
     7
 10
-482.106198198254
 20
-1.15014846803524
 30
0.0
 11
-569.379350796083
 21
-1.15014846803524
 31
0.0
  0
LINE
  5
   4AE
  8
0
  6
CONTINUOUS
 62
     7
 10
-551.5002252916
 20
54.4748600223833
 30
0.0
 11
-551.5002252916
 21
57.4748344421387
 31
0.0
  0
LINE
  5
   4AF
  8
0
  6
CONTINUOUS
 62
     7
 10
-530.025446797592
 20
47.2410196075197
 30
0.0
 11
-542.102450354376
 21
47.2410196075197
 31
0.0
  0
LINE
  5
   4B0
  8
0
  6
CONTINUOUS
 62
     7
 10
-530.025446797592
 20
47.2410196075197
 30
0.0
 11
-522.56716485974
 21
63.6973578187818
 31
0.0
  0
LINE
  5
   4B1
  8
0
  6
CONTINUOUS
 62
     2
 10
-546.000226245274
 20
47.4748600223834
 30
0.0
 11
-549.500226245274
 21
47.4748600223834
 31
0.0
  0
LINE
  5
   4B2
  8
0
  6
CONTINUOUS
 62
     2
 10
-546.000226245274
 20
47.4748600223834
 30
0.0
 11
-546.000226245274
 21
75.4748600223834
 31
0.0
  0
LINE
  5
   4B3
  8
0
  6
CONTINUOUS
 62
     2
 10
-546.000226245274
 20
75.4748600223834
 30
0.0
 11
-549.000226245274
 21
75.4748600223834
 31
0.0
  0
LINE
  5
   4B4
  8
0
  6
CONTINUOUS
 62
     2
 10
-546.000226245274
 20
54.5998600223834
 30
0.0
 11
-549.500226245274
 21
54.5998600223834
 31
0.0
  0
LINE
  5
   4B5
  8
0
  6
CONTINUOUS
 62
     2
 10
-546.000226245274
 20
50.3498600223834
 30
0.0
 11
-549.500226245274
 21
50.3498600223834
 31
0.0
  0
LINE
  5
   4B6
  8
0
  6
DASHDOT
 62
     7
 10
-545.355227995769
 20
69.2248600223834
 30
0.0
 11
-550.9713251586
 21
69.2248600223834
 31
0.0
  0
LINE
  5
   4B7
  8
0
  6
CONTINUOUS
 62
     2
 10
-546.000226245274
 20
71.3498600223834
 30
0.0
 11
-549.000226245274
 21
71.3498600223834
 31
0.0
  0
LINE
  5
   4B8
  8
0
  6
CONTINUOUS
 62
     2
 10
-546.000226245274
 20
67.0998600223834
 30
0.0
 11
-549.000226245274
 21
67.0998600223834
 31
0.0
  0
LINE
  5
   4B9
  8
0
  6
CONTINUOUS
 62
     1
 10
-510.750267028814
 20
63.2248755305922
 30
0.0
 11
-510.750267028814
 21
64.2248755305922
 31
0.0
  0
LINE
  5
   4BA
  8
0
  6
CONTINUOUS
 62
     1
 10
-510.750267028814
 20
64.2248755305922
 30
0.0
 11
-546.000226245274
 21
64.2248755305922
 31
0.0
  0
LINE
  5
   4BB
  8
0
  6
CONTINUOUS
 62
     1
 10
-561.250224829664
 20
63.2248755305922
 30
0.0
 11
-561.250224829664
 21
64.2248755305922
 31
0.0
  0
LINE
  5
   4BC
  8
0
  6
CONTINUOUS
 62
     1
 10
-559.7502252916
 20
62.7248755305922
 30
0.0
 11
-560.750224814763
 21
62.7248755305922
 31
0.0
  0
LINE
  5
   4BD
  8
0
  6
CONTINUOUS
 62
     1
 10
-549.000226245274
 20
62.7248755305922
 30
0.0
 11
-551.500219700067
 21
62.7248755305922
 31
0.0
  0
LINE
  5
   4BE
  8
0
  6
CONTINUOUS
 62
     1
 10
-549.000226245274
 20
60.0748753160155
 30
0.0
 11
-551.1252252916
 21
60.0748753160155
 31
0.0
  0
LINE
  5
   4BF
  8
0
  6
CONTINUOUS
 62
     1
 10
-549.000226245274
 20
58.4748752921737
 30
0.0
 11
-551.6252252916
 21
58.4748752921737
 31
0.0
  0
LINE
  5
   4C0
  8
0
  6
CONTINUOUS
 62
     1
 10
-545.8752252916
 20
58.4748752921737
 30
0.0
 11
-545.8752252916
 21
62.7248752921736
 31
0.0
  0
LINE
  5
   4C1
  8
0
  6
CONTINUOUS
 62
     1
 10
-551.6252252916
 20
58.4748753666795
 30
0.0
 11
-551.6252252916
 21
61.4748753666795
 31
0.0
  0
LINE
  5
   4C2
  8
0
  6
CONTINUOUS
 62
     1
 10
-561.250224829664
 20
64.2248755305922
 30
0.0
 11
-561.250224829664
 21
110.224875530592
 31
0.0
  0
LINE
  5
   4C3
  8
0
  6
CONTINUOUS
 62
     1
 10
-510.750267028814
 20
64.2248755305922
 30
0.0
 11
-510.750267028814
 21
110.224875530592
 31
0.0
  0
LINE
  5
   4C4
  8
0
  6
CONTINUOUS
 62
     1
 10
-545.875225696138
 20
59.5748754942179
 30
0.0
 11
-546.000226245274
 21
59.6998760433536
 31
0.0
  0
LINE
  5
   4C5
  8
0
  6
CONTINUOUS
 62
     1
 10
-551.625225516011
 20
59.5748752845681
 30
0.0
 11
-551.125225533125
 21
60.0748752674538
 31
0.0
  0
LINE
  5
   4C6
  8
0
  6
CONTINUOUS
 62
     1
 10
-511.250267662042
 20
62.7248752909924
 30
0.0
 11
-510.750267679157
 21
63.2248752738782
 31
0.0
  0
LINE
  5
   4C7
  8
0
  6
CONTINUOUS
 62
     1
 10
-560.750224825385
 20
62.7248755006423
 30
0.0
 11
-561.250224808271
 21
63.224875483528
 31
0.0
  0
LINE
  5
   4C8
  8
0
  6
CONTINUOUS
 62
     1
 10
-510.750267028814
 20
110.224875530592
 30
0.0
 11
-561.250224829664
 21
110.224875530592
 31
0.0
  0
LINE
  5
   4C9
  8
0
  6
CONTINUOUS
 62
     3
 10
-552.000225289874
 20
62.7248752921737
 30
0.0
 11
-551.500225289878
 21
62.7248829215682
 31
0.0
  0
LINE
  5
   4CA
  8
0
  6
CONTINUOUS
 62
     3
 10
-551.000224756779
 20
62.2248805873041
 30
0.0
 11
-551.500224739664
 21
62.7248805701898
 31
0.0
  0
LINE
  5
   4CB
  8
0
  6
CONTINUOUS
 62
     3
 10
-551.0002252916
 20
61.474882910567
 30
0.0
 11
-551.0002252916
 21
62.224882910567
 31
0.0
  0
LINE
  5
   4CC
  8
0
  6
CONTINUOUS
 62
     3
 10
-552.000225290865
 20
61.4748752838863
 30
0.0
 11
-551.000225290881
 21
61.4748829132809
 31
0.0
  0
LINE
  5
   4CD
  8
0
  6
CONTINUOUS
 62
     3
 10
-551.0002252916
 20
61.4748600223834
 30
0.0
 11
-552.0002252916
 21
61.4748600223834
 31
0.0
  0
LINE
  5
   4CE
  8
0
  6
CONTINUOUS
 62
     3
 10
-551.7502252916
 20
48.2248600223834
 30
0.0
 11
-551.7502252916
 21
56.7248600223834
 31
0.0
  0
LINE
  5
   4CF
  8
0
  6
CONTINUOUS
 62
     3
 10
-552.0002252916
 20
58.2248600223834
 30
0.0
 11
-553.625226722111
 21
58.2248600223834
 31
0.0
  0
LINE
  5
   4D0
  8
0
  6
CONTINUOUS
 62
     3
 10
-552.0002252916
 20
58.2248600223834
 30
0.0
 11
-552.0002252916
 21
61.4748600223834
 31
0.0
  0
LINE
  5
   4D1
  8
0
  6
CONTINUOUS
 62
     3
 10
-559.0002252916
 20
47.4748600223834
 30
0.0
 11
-559.7502252916
 21
47.4748600223834
 31
0.0
  0
LINE
  5
   4D2
  8
0
  6
CONTINUOUS
 62
     3
 10
-559.0002252916
 20
47.4748523929888
 30
0.0
 11
-559.7502252916
 21
47.4748523929888
 31
0.0
  0
LINE
  5
   4D3
  8
0
  6
CONTINUOUS
 62
     3
 10
-552.0002252916
 20
62.7248676517779
 30
0.0
 11
-559.7502252916
 21
62.7248676517779
 31
0.0
  0
LINE
  5
   4D4
  8
0
  6
CONTINUOUS
 62
     3
 10
-559.7502252916
 20
47.4748600223834
 30
0.0
 11
-559.7502252916
 21
62.7248676517779
 31
0.0
  0
LINE
  5
   4D5
  8
0
  6
CONTINUOUS
 62
     3
 10
-552.0002252916
 20
61.4748676517779
 30
0.0
 11
-552.0002252916
 21
62.7248676517779
 31
0.0
  0
LINE
  5
   4D6
  8
0
  6
CONTINUOUS
 62
     3
 10
-552.0002252916
 20
59.8748691776568
 30
0.0
 11
-552.5002252916
 21
59.8748691776568
 31
0.0
  0
LINE
  5
   4D7
  8
0
  6
CONTINUOUS
 62
     3
 10
-552.500224725515
 20
59.8748668965543
 30
0.0
 11
-552.700224541641
 21
60.0748638467177
 31
0.0
  0
LINE
  5
   4D8
  8
0
  6
CONTINUOUS
 62
     3
 10
-559.000225071342
 20
47.474859796199
 30
0.0
 11
-552.000225225649
 21
61.4748678842317
 31
0.0
  0
LINE
  5
   4D9
  8
0
  6
CONTINUOUS
 62
   210
 10
-551.5002252916
 20
49.2248600223834
 30
0.0
 11
-551.5002252916
 21
55.7248600223834
 31
0.0
  0
LINE
  5
   4DA
  8
0
  6
CONTINUOUS
 62
     3
 10
-551.7502252916
 20
48.2248600223834
 30
0.0
 11
-558.625228152623
 21
48.2248600223834
 31
0.0
  0
LINE
  5
   4DB
  8
0
  6
CONTINUOUS
 62
     3
 10
-551.7502252916
 20
56.7248600223834
 30
0.0
 11
-554.375227675786
 21
56.7248600223834
 31
0.0
  0
LINE
  5
   4DC
  8
0
  6
CONTINUOUS
 62
     3
 10
-552.0002252916
 20
62.2248676517779
 30
0.0
 11
-559.7502252916
 21
62.2248676517779
 31
0.0
  0
LINE
  5
   4DD
  8
0
  6
CONTINUOUS
 62
     3
 10
-558.7502252916
 20
47.9748676517779
 30
0.0
 11
-559.7502252916
 21
47.9748676517779
 31
0.0
  0
LINE
  5
   4DE
  8
0
  6
CONTINUOUS
 62
   210
 10
-551.5002252916
 20
55.7248600223834
 30
0.0
 11
-551.7502252916
 21
55.7248600223834
 31
0.0
  0
LINE
  5
   4DF
  8
0
  6
CONTINUOUS
 62
   210
 10
-551.5002252916
 20
49.2248600223834
 30
0.0
 11
-551.7502252916
 21
49.2248600223834
 31
0.0
  0
LINE
  5
   4E0
  8
0
  6
CONTINUOUS
 62
     1
 10
-511.250267662042
 20
62.7248752909924
 30
0.0
 11
-546.000226245274
 21
62.7248752909924
 31
0.0
  0
LINE
  5
   4E1
  8
0
  6
CONTINUOUS
 62
     1
 10
-545.8752252916
 20
58.4748752921737
 30
0.0
 11
-546.000226245274
 21
58.4748752921737
 31
0.0
  0
LINE
  5
   4E2
  8
0
  6
CONTINUOUS
 62
     1
 10
-549.000226245274
 20
64.2248755305922
 30
0.0
 11
-561.250224829664
 21
64.2248755305922
 31
0.0
  0
LINE
  5
   4E3
  8
0
  6
CONTINUOUS
 62
     2
 10
-511.375267028814
 20
62.7248344421387
 30
0.0
 11
-536.750266773682
 21
62.7248344421387
 31
0.0
  0
LINE
  5
   4E4
  8
0
  6
CONTINUOUS
 62
     2
 10
-510.750267028814
 20
49.7248515319648
 30
0.0
 11
-510.750267028814
 21
62.0998344421387
 31
0.0
  0
ARC
  5
   4E5
  8
0
  6
CONTINUOUS
 62
     2
 10
-511.375267028814
 20
62.0998344421387
 30
0.0
 40
0.625
 50
359.999999948034
 51
449.999999948034
  0
LINE
  5
   4E6
  8
0
  6
CONTINUOUS
 62
     2
 10
-510.750221252442
 20
49.7248515319648
 30
0.0
 11
-511.250267028814
 21
49.7248515319648
 31
0.0
  0
LINE
  5
   4E7
  8
0
  6
CONTINUOUS
 62
     2
 10
-511.250267028814
 20
49.2248515319648
 30
0.0
 11
-511.250267028814
 21
49.7248515319648
 31
0.0
  0
INSERT
  5
   4E8
  8
0
  6
CONTINUOUS
 62
     2
  2
*HATCH25
 10
-510.000244140625
 20
-56.1436882019043
 30
0.0
 41
0.5
 42
0.5
 50
89.9999999480344
 43
0.5
  0
INSERT
  5
   4E9
  8
0
  6
CONTINUOUS
 62
     2
  2
*HATCH26
 10
-510.000244140625
 20
-56.1436882019043
 30
0.0
 41
0.5
 42
0.5
 50
89.9999999480344
 43
0.5
  0
INSERT
  5
   4EA
  8
0
  6
CONTINUOUS
 62
     2
  2
*HATCH27
 10
-510.000244140625
 20
-56.1436882019043
 30
0.0
 41
0.5
 42
0.5
 50
89.9999999480344
 43
0.5
  0
INSERT
  5
   4EB
  8
0
  6
CONTINUOUS
 62
     2
  2
*HATCH28
 10
-510.000244140625
 20
-56.1436882019043
 30
0.0
 41
0.5
 42
0.5
 50
89.9999999480344
 43
0.5
  0
INSERT
  5
   4EC
  8
0
  6
CONTINUOUS
 62
     2
  2
*HATCH29
 10
-510.000244140625
 20
-56.1436882019043
 30
0.0
 41
0.5
 42
0.5
 50
89.9999999480344
 43
0.5
  0
LINE
  5
   4ED
  8
0
  6
CONTINUOUS
 62
     7
 10
-545.500226245274
 20
47.9748600223834
 30
0.0
 11
-545.500226245274
 21
56.9748600223834
 31
0.0
  0
LINE
  5
   4EE
  8
0
  6
CONTINUOUS
 62
     7
 10
-545.500226245274
 20
56.9748600223834
 30
0.0
 11
-546.000226245274
 21
56.9748600223834
 31
0.0
  0
LINE
  5
   4EF
  8
0
  6
CONTINUOUS
 62
     7
 10
-545.500226245274
 20
47.9748600223834
 30
0.0
 11
-546.000226245274
 21
47.9748600223834
 31
0.0
  0
LINE
  5
   4F0
  8
0
  6
CONTINUOUS
 62
     2
 10
-549.000226245274
 20
54.5998600223834
 30
0.0
 11
-549.000226245274
 21
75.4748600223834
 31
0.0
  0
INSERT
  5
   4F1
  8
255
  6
CONTINUOUS
 62
     7
  2
PROLUNGATI
 10
-551.5002252916
 20
-56.525191138106
 30
0.0
 41
0.5
 42
-0.5
 50
1.03931142803049E-7
 43
0.5
  0
LINE
  5
   4F2
  8
0
  6
CONTINUOUS
 62
     7
 10
-559.7502252916
 20
-65.5251332092462
 30
0.0
 11
-560.500214099884
 21
-65.5251332092462
 31
0.0
  0
LINE
  5
   4F3
  8
0
  6
CONTINUOUS
 62
     7
 10
-546.000226245274
 20
-61.0251399776167
 30
0.0
 11
-546.000226245274
 21
-52.0251399776167
 31
0.0
  0
LINE
  5
   4F4
  8
0
  6
CONTINUOUS
 62
     7
 10
-546.000226245274
 20
-61.0251399776167
 30
0.0
 11
-546.500226245274
 21
-61.0251399776167
 31
0.0
  0
LINE
  5
   4F5
  8
0
  6
CONTINUOUS
 62
     7
 10
-546.000226245274
 20
-52.0251399776167
 30
0.0
 11
-546.500226245274
 21
-52.0251399776167
 31
0.0
  0
LINE
  5
   4F6
  8
0
  6
CONTINUOUS
 62
     7
 10
-546.500226245274
 20
-58.5251399776167
 30
0.0
 11
-549.500226245274
 21
-58.5251399776167
 31
0.0
  0
LINE
  5
   4F7
  8
0
  6
CONTINUOUS
 62
     7
 10
-546.500226245274
 20
-58.1251399776166
 30
0.0
 11
-551.5002252916
 21
-58.1251399776166
 31
0.0
  0
LINE
  5
   4F8
  8
0
  6
CONTINUOUS
 62
     7
 10
-546.500226245274
 20
-54.9251399776167
 30
0.0
 11
-551.5002252916
 21
-54.9251399776167
 31
0.0
  0
LINE
  5
   4F9
  8
0
  6
CONTINUOUS
 62
     7
 10
-546.500226245274
 20
-54.5251399776167
 30
0.0
 11
-549.500226245274
 21
-54.5251399776167
 31
0.0
  0
LINE
  5
   4FA
  8
0
  6
CONTINUOUS
 62
     7
 10
-546.500226245274
 20
-61.0251399776167
 30
0.0
 11
-546.500226245274
 21
-52.0251399776167
 31
0.0
  0
LINE
  5
   4FB
  8
0
  6
CONTINUOUS
 62
     7
 10
-549.0002252916
 20
-61.5251655578613
 30
0.0
 11
-549.0002252916
 21
-58.5251399776167
 31
0.0
  0
LINE
  5
   4FC
  8
0
  6
CONTINUOUS
 62
     1
 10
-545.800226245274
 20
-60.1201399776167
 30
0.0
 11
-545.800226245274
 21
-52.9301399776167
 31
0.0
  0
ARC
  5
   4FD
  8
0
  6
CONTINUOUS
 62
     1
 10
-544.623394055718
 20
-59.2213899776166
 30
0.0
 40
1.37316781044413
 50
319.117607838934
 51
400.882392057134
  0
ARC
  5
   4FE
  8
0
  6
CONTINUOUS
 62
     1
 10
-544.623394055718
 20
-53.8288899776166
 30
0.0
 40
1.37316781044413
 50
319.117607838934
 51
400.882392057134
  0
LINE
  5
   4FF
  8
0
  6
CONTINUOUS
 62
     1
 10
-543.558628488543
 20
-58.3226399776166
 30
0.0
 11
-545.800226245274
 21
-58.3226399776166
 31
0.0
  0
ARC
  5
   500
  8
0
  6
CONTINUOUS
 62
     1
 10
-548.642726245274
 20
-56.5251399776167
 30
0.0
 40
5.3925
 50
340.528779313544
 51
379.471220582525
  0
LINE
  5
   501
  8
0
  6
CONTINUOUS
 62
     1
 10
-543.558628488543
 20
-54.7276399776166
 30
0.0
 11
-545.800226245274
 21
-54.7276399776166
 31
0.0
  0
LINE
  5
   502
  8
0
  6
CONTINUOUS
 62
     1
 10
-543.585204153465
 20
-60.1201399776166
 30
0.0
 11
-545.800226245274
 21
-60.1201399776166
 31
0.0
  0
LINE
  5
   503
  8
0
  6
CONTINUOUS
 62
     1
 10
-543.585204153465
 20
-52.9301399776167
 30
0.0
 11
-545.800226245274
 21
-52.9301399776167
 31
0.0
  0
LINE
  5
   504
  8
0
  6
CONTINUOUS
 62
     1
 10
-545.800226245274
 20
-59.5751399776166
 30
0.0
 11
-546.000226245274
 21
-59.5751399776166
 31
0.0
  0
LINE
  5
   505
  8
0
  6
CONTINUOUS
 62
     1
 10
-545.800226245274
 20
-53.4751399776167
 30
0.0
 11
-546.000226245274
 21
-53.4751399776167
 31
0.0
  0
LINE
  5
   506
  8
0
  6
CONTINUOUS
 62
     7
 10
-547.250226245274
 20
-54.9085337276167
 30
0.0
 11
-551.000226245274
 21
-54.9085337276167
 31
0.0
  0
LINE
  5
   507
  8
0
  6
CONTINUOUS
 62
     1
 10
-546.500226245274
 20
-54.5251399776167
 30
0.0
 11
-551.000226245274
 21
-54.5251399776167
 31
0.0
  0
LINE
  5
   508
  8
0
  6
CONTINUOUS
 62
     1
 10
-546.500226245274
 20
-58.5251399776167
 30
0.0
 11
-551.000226245274
 21
-58.5251399776167
 31
0.0
  0
LINE
  5
   509
  8
0
  6
CONTINUOUS
 62
     1
 10
-547.250226245274
 20
-58.5251399776167
 30
0.0
 11
-547.250226245274
 21
-54.5251399776167
 31
0.0
  0
LINE
  5
   50A
  8
0
  6
CONTINUOUS
 62
     1
 10
-543.250226245274
 20
-59.2213899776167
 30
0.0
 11
-543.250226245274
 21
-53.8288899776167
 31
0.0
  0
LINE
  5
   50B
  8
0
  6
DASHDOT
 62
     7
 10
-541.250226245274
 20
-56.5251399776167
 30
0.0
 11
-553.000226245274
 21
-56.5251399776167
 31
0.0
  0
LINE
  5
   50C
  8
0
  6
CONTINUOUS
 62
     1
 10
-545.300226245274
 20
48.8798600223833
 30
0.0
 11
-545.300226245274
 21
56.0698600223833
 31
0.0
  0
ARC
  5
   50D
  8
0
  6
CONTINUOUS
 62
     1
 10
-544.123394055718
 20
55.1711100223833
 30
0.0
 40
1.37316781044413
 50
319.117607838934
 51
400.882392057134
  0
ARC
  5
   50E
  8
0
  6
CONTINUOUS
 62
     1
 10
-544.123394055718
 20
49.7786100223833
 30
0.0
 40
1.37316781044413
 50
319.117607838934
 51
400.882392057134
  0
LINE
  5
   50F
  8
0
  6
CONTINUOUS
 62
     1
 10
-543.058628488543
 20
54.2723600223834
 30
0.0
 11
-545.300226245274
 21
54.2723600223834
 31
0.0
  0
ARC
  5
   510
  8
0
  6
CONTINUOUS
 62
     1
 10
-548.142726245274
 20
52.4748600223834
 30
0.0
 40
5.3925
 50
340.528779313544
 51
379.471220582525
  0
LINE
  5
   511
  8
0
  6
CONTINUOUS
 62
     1
 10
-543.058628488543
 20
50.6773600223834
 30
0.0
 11
-545.300226245274
 21
50.6773600223834
 31
0.0
  0
LINE
  5
   512
  8
0
  6
CONTINUOUS
 62
     1
 10
-543.085204153465
 20
56.0698600223834
 30
0.0
 11
-545.300226245274
 21
56.0698600223834
 31
0.0
  0
LINE
  5
   513
  8
0
  6
CONTINUOUS
 62
     1
 10
-543.085204153465
 20
48.8798600223834
 30
0.0
 11
-545.300226245274
 21
48.8798600223834
 31
0.0
  0
LINE
  5
   514
  8
0
  6
CONTINUOUS
 62
     1
 10
-545.300226245274
 20
55.5248600223834
 30
0.0
 11
-545.500226245274
 21
55.5248600223834
 31
0.0
  0
LINE
  5
   515
  8
0
  6
CONTINUOUS
 62
     1
 10
-545.300226245274
 20
49.4248600223834
 30
0.0
 11
-545.500226245274
 21
49.4248600223834
 31
0.0
  0
LINE
  5
   516
  8
0
  6
CONTINUOUS
 62
     7
 10
-547.250226245274
 20
54.0914662723834
 30
0.0
 11
-551.000226245274
 21
54.0914662723834
 31
0.0
  0
LINE
  5
   517
  8
0
  6
CONTINUOUS
 62
     7
 10
-547.250226245274
 20
50.8582537723834
 30
0.0
 11
-551.000226245274
 21
50.8582537723834
 31
0.0
  0
LINE
  5
   518
  8
0
  6
CONTINUOUS
 62
     1
 10
-546.000226245274
 20
50.4748600223834
 30
0.0
 11
-551.000226245274
 21
50.4748600223834
 31
0.0
  0
LINE
  5
   519
  8
0
  6
CONTINUOUS
 62
     1
 10
-546.000226245274
 20
54.4748600223834
 30
0.0
 11
-551.000226245274
 21
54.4748600223834
 31
0.0
  0
LINE
  5
   51A
  8
0
  6
CONTINUOUS
 62
     1
 10
-547.250226245274
 20
50.4748600223833
 30
0.0
 11
-547.250226245274
 21
54.4748600223833
 31
0.0
  0
LINE
  5
   51B
  8
0
  6
CONTINUOUS
 62
     1
 10
-542.750226245274
 20
49.7786100223833
 30
0.0
 11
-542.750226245274
 21
55.1711100223833
 31
0.0
  0
LINE
  5
   51C
  8
0
  6
DASHDOT
 62
     7
 10
-541.250226245274
 20
52.4748600223834
 30
0.0
 11
-553.000226245274
 21
52.4748600223834
 31
0.0
  0
LINE
  5
   51D
  8
0
  6
CONTINUOUS
 62
     7
 10
-549.000226245274
 20
57.4748600223834
 30
0.0
 11
-549.500226245274
 21
57.4748600223834
 31
0.0
  0
LINE
  5
   51E
  8
0
  6
CONTINUOUS
 62
     7
 10
-549.500226245274
 20
54.4748600223834
 30
0.0
 11
-549.500226245274
 21
57.4748600223834
 31
0.0
  0
LINE
  5
   51F
  8
0
  6
CONTINUOUS
 62
     7
 10
-549.500226245274
 20
47.4748600223834
 30
0.0
 11
-549.500226245274
 21
50.4748600223834
 31
0.0
  0
LINE
  5
   520
  8
0
  6
CONTINUOUS
 62
     2
 10
-549.000226245274
 20
47.4748600223834
 30
0.0
 11
-549.000226245274
 21
50.3498600223834
 31
0.0
  0
LINE
  5
   521
  8
0
  6
DASHDOT
 62
     7
 10
-558.937067257847
 20
51.4748515319648
 30
0.0
 11
-570.313098815544
 21
51.4748515319648
 31
0.0
  0
LINE
  5
   522
  8
0
  6
CONTINUOUS
 62
     7
 10
-563.000213623047
 20
53.4748515319648
 30
0.0
 11
-565.000213623047
 21
53.4748515319648
 31
0.0
  0
LINE
  5
   523
  8
0
  6
CONTINUOUS
 62
     7
 10
-563.000213623047
 20
49.4748515319648
 30
0.0
 11
-565.000213623047
 21
49.4748515319648
 31
0.0
  0
LINE
  5
   524
  8
0
  6
CONTINUOUS
 62
     7
 10
-565.000213623047
 20
49.4748515319648
 30
0.0
 11
-565.000213623047
 21
53.4748515319648
 31
0.0
  0
LINE
  5
   525
  8
0
  6
CONTINUOUS
 62
     7
 10
-563.000213623047
 20
52.7248515319648
 30
0.0
 11
-567.000213623047
 21
52.7248515319648
 31
0.0
  0
LINE
  5
   526
  8
0
  6
CONTINUOUS
 62
     7
 10
-563.000213623047
 20
50.2248515319648
 30
0.0
 11
-567.000213623047
 21
50.2248515319648
 31
0.0
  0
LINE
  5
   527
  8
0
  6
CONTINUOUS
 62
     7
 10
-567.000213623047
 20
50.2248515319648
 30
0.0
 11
-567.000213623047
 21
52.7248515319648
 31
0.0
  0
LINE
  5
   528
  8
0
  6
CONTINUOUS
 62
     7
 10
-563.000213623047
 20
-53.5251484680352
 30
0.0
 11
-565.000213623047
 21
-53.5251484680352
 31
0.0
  0
LINE
  5
   529
  8
0
  6
CONTINUOUS
 62
     7
 10
-563.000213623047
 20
-54.2751484680352
 30
0.0
 11
-567.000213623047
 21
-54.2751484680352
 31
0.0
  0
LINE
  5
   52A
  8
0
  6
DASHDOT
 62
     7
 10
-558.937067257847
 20
-55.5251484680352
 30
0.0
 11
-570.313098815544
 21
-55.5251484680352
 31
0.0
  0
LINE
  5
   52B
  8
0
  6
CONTINUOUS
 62
     7
 10
-563.000213623047
 20
-56.7751484680352
 30
0.0
 11
-567.000213623047
 21
-56.7751484680352
 31
0.0
  0
LINE
  5
   52C
  8
0
  6
CONTINUOUS
 62
     7
 10
-563.000213623047
 20
-57.5251484680352
 30
0.0
 11
-565.000213623047
 21
-57.5251484680352
 31
0.0
  0
LINE
  5
   52D
  8
0
  6
CONTINUOUS
 62
     7
 10
-565.000213623047
 20
-57.5251484680352
 30
0.0
 11
-565.000213623047
 21
-53.5251484680352
 31
0.0
  0
LINE
  5
   52E
  8
0
  6
CONTINUOUS
 62
     7
 10
-567.000213623047
 20
-56.7751484680352
 30
0.0
 11
-567.000213623047
 21
-54.2751484680352
 31
0.0
  0
CIRCLE
  5
   52F
  8
0
  6
CONTINUOUS
 62
     7
 10
-564.498682686055
 20
-55.6155660081938
 30
0.0
 40
0.1
  0
TEXT
  5
   530
  8
0
  6
CONTINUOUS
 62
     7
 10
-611.762405407712
 20
-14.8992789445992
 30
0.0
 40
3.00000002980232
  1
=        =
 50
89.9999999480344
 41
0.916666604744064
 72
     2
 11
-611.762405383303
 21
12.0507194982294
 31
0.0
  0
TEXT
  5
   531
  8
0
  6
CONTINUOUS
 62
     1
 10
-504.389622131394
 20
-149.24830954733
 30
0.0
 40
2.00000008940697
  1
M 3076 95-01-16.
 50
359.999999948034
 41
0.749999861419206
 72
     2
 11
-480.689625458823
 21
-149.248309568706
 31
0.0
  0
INSERT
  5
   532
  8
0
  6
CONTINUOUS
 62
     7
  2
*UDIM46
 10
0.0
 20
0.0
 30
0.0
  0
INSERT
  5
   533
  8
0
  6
CONTINUOUS
 62
     7
  2
*UDIM47
 10
0.0
 20
0.0
 30
0.0
  0
INSERT
  5
   534
  8
0
  6
CONTINUOUS
 62
     7
  2
*UDIM48
 10
0.0
 20
0.0
 30
0.0
  0
INSERT
  5
   535
  8
0
  6
CONTINUOUS
 62
     7
  2
*UDIM49
 10
0.0
 20
0.0
 30
0.0
  0
INSERT
  5
   536
  8
0
  6
CONTINUOUS
 62
     7
  2
*UDIM50
 10
0.0
 20
0.0
 30
0.0
  0
INSERT
  5
   537
  8
0
  6
CONTINUOUS
 62
     7
  2
*UDIM51
 10
0.0
 20
0.0
 30
0.0
  0
INSERT
  5
   538
  8
0
  6
CONTINUOUS
 62
     7
  2
*UDIM52
 10
0.0
 20
0.0
 30
0.0
  0
INSERT
  5
   539
  8
0
  6
CONTINUOUS
 62
     7
  2
*UDIM53
 10
0.0
 20
0.0
 30
0.0
  0
TEXT
  5
   53A
  8
0
  6
CONTINUOUS
 62
     1
 10
-511.600387530433
 20
-134.394298114206
 30
0.0
 40
2.00000008940697
  1
93-04-05 ROTA S.
 50
359.999999948034
 41
0.749999861419206
 72
     2
 11
-487.900390857862
 21
-134.394298135582
 31
0.0
  0
INSERT
  5
   53B
  8
0
  6
CONTINUOUS
 62
     5
  2
*UDIM54
 10
0.0
 20
0.0
 30
0.0
  0
TEXT
  5
   53C
  8
0
  6
CONTINUOUS
 62
     5
 10
-470.803607952878
 20
-15.3586524187203
 30
0.0
 40
3.00000002980232
  1
=        =
 50
89.9999999480344
 41
0.916666604744064
 72
     2
 11
-470.803607928469
 21
11.5913460241084
 31
0.0
  0
INSERT
  5
   53D
  8
0
  6
CONTINUOUS
 62
     7
  2
*UDIM55
 10
0.0
 20
0.0
 30
0.0
  0
INSERT
  5
   53E
  8
0
  6
CONTINUOUS
 62
     7
  2
*UDIM56
 10
0.0
 20
0.0
 30
0.0
  0
INSERT
  5
   53F
  8
0
  6
CONTINUOUS
 62
     7
  2
*UDIM57
 10
0.0
 20
0.0
 30
0.0
  0
INSERT
  5
   540
  8
0
  6
CONTINUOUS
 62
     7
  2
*UDIM58
 10
0.0
 20
0.0
 30
0.0
  0
INSERT
  5
   541
  8
0
  6
CONTINUOUS
 62
     7
  2
*UDIM59
 10
0.0
 20
0.0
 30
0.0
  0
INSERT
  5
   542
  8
0
  6
CONTINUOUS
 62
     7
  2
*UDIM60
 10
0.0
 20
0.0
 30
0.0
  0
INSERT
  5
   543
  8
0
  6
CONTINUOUS
 62
     7
  2
*UDIM61
 10
0.0
 20
0.0
 30
0.0
  0
INSERT
  5
   544
  8
0
  6
CONTINUOUS
 62
     7
  2
*UDIM62
 10
0.0
 20
0.0
 30
0.0
  0
INSERT
  5
   545
  8
0
  6
CONTINUOUS
 62
     7
  2
*UDIM63
 10
0.0
 20
0.0
 30
0.0
  0
TEXT
  5
   546
  8
0
  6
CONTINUOUS
 62
     1
 10
-409.308593664381
 20
-160.425837829503
 30
0.0
 40
4.00000017881393
  1
601812/081
 50
359.999999948034
 41
0.937499973922969
 72
     2
 11
-372.558593064609
 21
-160.425837862649
 31
0.0
  0
TEXT
  5
   547
  8
0
  6
CONTINUOUS
 62
     1
 10
-391.222900326411
 20
-151.444255748242
 30
0.0
 40
3.00000002980232
  1
S4
 50
359.999999948034
 41
0.916666604744064
 72
     2
 11
-386.27290061599
 21
-151.444255752706
 31
0.0
  0
TEXT
  5
   548
  8
0
  6
CONTINUOUS
 62
     1
 10
-419.757320181439
 20
-133.133983637074
 30
0.0
 40
2.00000008940697
  1
3POLE LOW VOLTAGE M.C.C.B SERIES ISOMAX
 50
359.999999948034
 41
0.749999861419206
 72
     1
 11
-390.657324260475
 21
-132.133983618617
 31
0.0
 73
     2
  0
TEXT
  5
   549
  8
0
  6
CONTINUOUS
 62
     1
 10
-423.507319525039
 20
-136.133983633692
 30
0.0
 40
2.00000008940697
  1
FIXED VERSION FRONT+EXTENDED FRONT TERMINALS
 50
359.999999948034
 41
0.749999861419206
 72
     1
 11
-390.657324129341
 21
-135.133983618617
 31
0.0
 73
     2
  0
TEXT
  5
   54A
  8
0
  6
CONTINUOUS
 62
     1
 10
-416.554928548793
 20
-141.204250366795
 30
0.0
 40
2.00000008940697
  1
INTERR.AUTOMATICO SERIE ISOMAX
 50
359.999999948034
 41
0.749999861419206
 72
     1
 11
-394.20493168235
 21
-140.20425034225
 31
0.0
 73
     2
  0
TEXT
  5
   54B
  8
0
  6
CONTINUOUS
 62
     1
 10
-430.804926421648
 20
-144.204250353942
 30
0.0
 40
2.00000008940697
  1
TRIPOL.ESECUZIONE FISSA TERMINALI ANT.E ANT.PROL.
 50
359.999999948034
 41
0.749999861419206
 72
     1
 11
-394.204931551216
 21
-143.20425034225
 31
0.0
 73
     2
  0
INSERT
  5
   54C
  8
0
  6
CONTINUOUS
 62
     7
  2
*UDIM64
 10
0.0
 20
0.0
 30
0.0
  0
INSERT
  5
   54D
  8
0
  6
CONTINUOUS
 62
     7
  2
*UDIM65
 10
0.0
 20
0.0
 30
0.0
  0
TEXT
  5
   54E
  8
0
  6
CONTINUOUS
 62
     7
 10
-466.598850162189
 20
-2.52115935613954
 30
0.0
 40
3.00000002980232
  1
X
 50
359.999999948034
 41
0.916666604744064
 72
     1
 11
-465.498850226401
 21
-1.02115934223052
 31
0.0
 73
     2
  0
LINE
  5
   54F
  8
0
  6
CONTINUOUS
 62
     7
 10
-674.921528044815
 20
-27.4001502990723
 30
0.0
 11
-679.921528044816
 21
-27.4001502990723
 31
0.0
  0
LINE
  5
   550
  8
0
  6
CONTINUOUS
 62
     7
 10
-687.421528044815
 20
24.0998344421387
 30
0.0
 11
-687.421528044815
 21
25.0998344421387
 31
0.0
  0
LINE
  5
   551
  8
0
  6
CONTINUOUS
 62
     7
 10
-679.921528044816
 20
-27.4001502990723
 30
0.0
 11
-687.421528044815
 21
-27.4001502990723
 31
0.0
  0
LINE
  5
   552
  8
0
  6
CONTINUOUS
 62
     7
 10
-661.171543303605
 20
-27.4001502990723
 30
0.0
 11
-674.921528044815
 21
-27.4001502990723
 31
0.0
  0
LINE
  5
   553
  8
0
  6
CONTINUOUS
 62
    52
 10
-642.421558562394
 20
-27.4001502990723
 30
0.0
 11
-647.421558562394
 21
-27.4001502990723
 31
0.0
  0
LINE
  5
   554
  8
0
  6
CONTINUOUS
 62
    52
 10
-634.921558562394
 20
-27.4001502990723
 30
0.0
 11
-642.421558562394
 21
-27.4001502990723
 31
0.0
  0
LINE
  5
   555
  8
0
  6
CONTINUOUS
 62
    52
 10
-647.421558562394
 20
-27.4001502990723
 30
0.0
 11
-661.171543303605
 21
-27.4001502990723
 31
0.0
  0
LINE
  5
   556
  8
0
  6
CONTINUOUS
 62
     7
 10
-672.546536934116
 20
49.4748191833407
 30
0.0
 11
-686.171529304722
 21
49.4748191833407
 31
0.0
  0
LINE
  5
   557
  8
0
  6
CONTINUOUS
 62
     7
 10
-655.046552363511
 20
49.4748191833496
 30
0.0
 11
-667.296544734116
 21
49.4748191833496
 31
0.0
  0
LINE
  5
   558
  8
0
  6
CONTINUOUS
 62
     7
 10
-636.171558562394
 20
49.4748268127441
 30
0.0
 11
-649.796558562394
 21
49.4748268127441
 31
0.0
  0
LINE
  5
   559
  8
0
  6
CONTINUOUS
 62
     7
 10
-670.796528044815
 20
61.4748191833398
 30
0.0
 11
-685.671541965102
 21
61.4748191833398
 31
0.0
  0
LINE
  5
   55A
  8
0
  6
CONTINUOUS
 62
     7
 10
-686.025086804779
 20
61.328358478313
 30
0.0
 11
-685.67154067118
 21
61.4748046951519
 31
0.0
  0
LINE
  5
   55B
  8
0
  6
CONTINUOUS
 62
     7
 10
-686.17153375673
 20
60.9748057465278
 30
0.0
 11
-686.025079921359
 21
61.3283595024943
 31
0.0
  0
LINE
  5
   55C
  8
0
  6
CONTINUOUS
 62
     7
 10
-686.171534213251
 20
49.2248105800201
 30
0.0
 11
-686.17154125827
 21
60.0748176574707
 31
0.0
  0
LINE
  5
   55D
  8
0
  6
CONTINUOUS
 62
     7
 10
-636.171563269845
 20
49.2248211313456
 30
0.0
 11
-636.17157735988
 21
60.0748252868652
 31
0.0
  0
LINE
  5
   55E
  8
0
  6
CONTINUOUS
 62
     7
 10
-634.921558562394
 20
49.2248268127441
 30
0.0
 11
-634.921558562394
 21
60.0748252868652
 31
0.0
  0
LINE
  5
   55F
  8
0
  6
CONTINUOUS
 62
     7
 10
-687.42153567421
 20
49.2248115539551
 30
0.0
 11
-687.42153567421
 21
60.0748176574707
 31
0.0
  0
LINE
  5
   560
  8
0
  6
CONTINUOUS
 62
     7
 10
-686.17153567421
 20
60.0748176574707
 30
0.0
 11
-687.42153567421
 21
60.0748176574707
 31
0.0
  0
LINE
  5
   561
  8
0
  6
CONTINUOUS
 62
     7
 10
-687.421528044815
 20
39.0998497009277
 30
0.0
 11
-687.421528044815
 21
49.2248344421387
 31
0.0
  0
LINE
  5
   562
  8
0
  6
CONTINUOUS
 62
     7
 10
-661.171543303605
 20
49.2248344421387
 30
0.0
 11
-687.421528044815
 21
49.2248344421387
 31
0.0
  0
LINE
  5
   563
  8
0
  6
CONTINUOUS
 62
     7
 10
-634.921558562394
 20
39.0998497009277
 30
0.0
 11
-634.921558562394
 21
49.2248344421387
 31
0.0
  0
LINE
  5
   564
  8
0
  6
CONTINUOUS
 62
     7
 10
-634.921558562394
 20
49.2248344421387
 30
0.0
 11
-661.171543303605
 21
49.2248344421387
 31
0.0
  0
LINE
  5
   565
  8
0
  6
DASHDOT
 62
     7
 10
-661.171535264716
 20
-41.0637756221401
 30
0.0
 11
-661.171568283394
 21
83.000432014828
 31
0.0
  0
LINE
  5
   566
  8
0
  6
CONTINUOUS
 62
     3
 10
-687.421528044815
 20
-64.1251503229141
 30
0.0
 11
-687.421528044815
 21
-41.4001483917237
 31
0.0
  0
LINE
  5
   567
  8
0
  6
CONTINUOUS
 62
     3
 10
-686.171528044816
 20
-64.1251503229141
 30
0.0
 11
-687.421528044815
 21
-64.1251503229141
 31
0.0
  0
LINE
  5
   568
  8
0
  6
CONTINUOUS
 62
     3
 10
-686.171528044816
 20
-65.0251502990723
 30
0.0
 11
-686.171528044816
 21
-64.1251503229141
 31
0.0
  0
LINE
  5
   569
  8
0
  6
CONTINUOUS
 62
     3
 10
-670.796528044815
 20
-65.5251502990718
 30
0.0
 11
-685.671527905586
 21
-65.5251502990718
 31
0.0
  0
LINE
  5
   56A
  8
0
  6
CONTINUOUS
 62
     3
 10
-653.296528044815
 20
-65.525150299072
 30
0.0
 11
-669.046528044816
 21
-65.525150299072
 31
0.0
  0
LINE
  5
   56B
  8
0
  6
CONTINUOUS
 62
     3
 10
-636.671528044815
 20
-65.5251502990714
 30
0.0
 11
-651.546528044815
 21
-65.5251502990714
 31
0.0
  0
LINE
  5
   56C
  8
0
  6
CONTINUOUS
 62
     3
 10
-636.171528044816
 20
-65.0251502990723
 30
0.0
 11
-636.171528044816
 21
-64.1251503229141
 31
0.0
  0
LINE
  5
   56D
  8
0
  6
CONTINUOUS
 62
     3
 10
-634.921528044816
 20
-64.1251503229141
 30
0.0
 11
-636.171528044816
 21
-64.1251503229141
 31
0.0
  0
LINE
  5
   56E
  8
0
  6
CONTINUOUS
 62
     7
 10
-686.171528044816
 20
-64.1251503229141
 30
0.0
 11
-686.171528044816
 21
-54.0251502990723
 31
0.0
  0
LINE
  5
   56F
  8
0
  6
CONTINUOUS
 62
     7
 10
-655.046528044816
 20
-53.5251502990723
 30
0.0
 11
-667.296528044815
 21
-53.5251502990723
 31
0.0
  0
LINE
  5
   570
  8
0
  6
CONTINUOUS
 62
     7
 10
-655.046528044816
 20
-55.5251502990723
 30
0.0
 11
-655.046528044816
 21
-53.5251502990723
 31
0.0
  0
LINE
  5
   571
  8
0
  6
CONTINUOUS
 62
     7
 10
-649.796528044816
 20
-55.5251502990723
 30
0.0
 11
-649.796528044816
 21
-53.5251502990723
 31
0.0
  0
LINE
  5
   572
  8
0
  6
CONTINUOUS
 62
     7
 10
-638.171528044816
 20
-53.5251502990723
 30
0.0
 11
-649.796528044816
 21
-53.5251502990723
 31
0.0
  0
LINE
  5
   573
  8
0
  6
CONTINUOUS
 62
     7
 10
-636.171528044816
 20
-64.1251503229141
 30
0.0
 11
-636.171528044816
 21
-54.0251502990723
 31
0.0
  0
LINE
  5
   574
  8
0
  6
CONTINUOUS
 62
     7
 10
-668.671528044815
 20
-58.7751502990723
 30
0.0
 11
-668.671528044815
 21
-57.8334053915489
 31
0.0
  0
LINE
  5
   575
  8
0
  6
CONTINUOUS
 62
     7
 10
-671.171528044816
 20
-58.7751502990723
 30
0.0
 11
-671.171528044816
 21
-57.8334046621653
 31
0.0
  0
LINE
  5
   576
  8
0
  6
CONTINUOUS
 62
     7
 10
-668.671528044815
 20
-58.7751502990723
 30
0.0
 11
-671.171528044816
 21
-58.7751502990723
 31
0.0
  0
LINE
  5
   577
  8
0
  6
CONTINUOUS
 62
     7
 10
-653.671528044816
 20
-58.7751502990723
 30
0.0
 11
-653.671528044816
 21
-57.7863254547119
 31
0.0
  0
LINE
  5
   578
  8
0
  6
CONTINUOUS
 62
     7
 10
-641.921528044816
 20
-53.5251502990723
 30
0.0
 11
-641.921528044816
 21
-53.2751502990723
 31
0.0
  0
LINE
  5
   579
  8
0
  6
CONTINUOUS
 62
     7
 10
-635.796528044816
 20
-54.0251502990723
 30
0.0
 11
-635.796528044816
 21
-53.2751502990723
 31
0.0
  0
LINE
  5
   57A
  8
0
  6
CONTINUOUS
 62
     7
 10
-686.546528044815
 20
-54.0251502990723
 30
0.0
 11
-686.546528044815
 21
-53.2751502990723
 31
0.0
  0
LINE
  5
   57B
  8
0
  6
CONTINUOUS
 62
     7
 10
-638.171528044816
 20
-54.0251502990723
 30
0.0
 11
-638.171528044816
 21
-53.2751502990723
 31
0.0
  0
LINE
  5
   57C
  8
0
  6
CONTINUOUS
 62
     3
 10
-668.671528044815
 20
-64.0251502990723
 30
0.0
 11
-668.671528044815
 21
-62.2751502990723
 31
0.0
  0
LINE
  5
   57D
  8
0
  6
CONTINUOUS
 62
     3
 10
-671.171528044816
 20
-64.0251504182816
 30
0.0
 11
-671.171528044816
 21
-62.2751502990723
 31
0.0
  0
LINE
  5
   57E
  8
0
  6
CONTINUOUS
 62
     3
 10
-669.046528044816
 20
-65.525150299072
 30
0.0
 11
-669.046528044816
 21
-64.025150299072
 31
0.0
  0
LINE
  5
   57F
  8
0
  6
CONTINUOUS
 62
     3
 10
-668.671528044815
 20
-64.0251502990723
 30
0.0
 11
-669.046528044816
 21
-64.0251502990723
 31
0.0
  0
LINE
  5
   580
  8
0
  6
CONTINUOUS
 62
     3
 10
-670.796528044815
 20
-65.525150299072
 30
0.0
 11
-670.796528044815
 21
-64.025150299072
 31
0.0
  0
LINE
  5
   581
  8
0
  6
CONTINUOUS
 62
     3
 10
-670.796528044815
 20
-64.0251502990723
 30
0.0
 11
-671.171528044816
 21
-64.0251502990723
 31
0.0
  0
LINE
  5
   582
  8
0
  6
CONTINUOUS
 62
     3
 10
-651.171528044816
 20
-64.0251502990723
 30
0.0
 11
-651.171528044816
 21
-62.2751502990723
 31
0.0
  0
LINE
  5
   583
  8
0
  6
CONTINUOUS
 62
     3
 10
-653.671528044816
 20
-64.0251504182816
 30
0.0
 11
-653.671528044816
 21
-62.2751502990723
 31
0.0
  0
LINE
  5
   584
  8
0
  6
CONTINUOUS
 62
     3
 10
-651.546528044815
 20
-65.525150299072
 30
0.0
 11
-651.546528044815
 21
-64.025150299072
 31
0.0
  0
LINE
  5
   585
  8
0
  6
CONTINUOUS
 62
     3
 10
-651.171528044816
 20
-64.0251502990723
 30
0.0
 11
-651.546528044815
 21
-64.0251502990723
 31
0.0
  0
LINE
  5
   586
  8
0
  6
CONTINUOUS
 62
     3
 10
-653.296528044815
 20
-65.525150299072
 30
0.0
 11
-653.296528044815
 21
-64.025150299072
 31
0.0
  0
LINE
  5
   587
  8
0
  6
CONTINUOUS
 62
     3
 10
-653.296528044815
 20
-64.0251502990723
 30
0.0
 11
-653.671528044816
 21
-64.0251502990723
 31
0.0
  0
CIRCLE
  5
   588
  8
0
  6
CONTINUOUS
 62
     7
 10
-678.671527977547
 20
-56.5251523374205
 30
0.0
 40
2.74999793642075
  0
CIRCLE
  5
   589
  8
0
  6
CONTINUOUS
 62
     7
 10
-669.92152717574
 20
-55.5251476214477
 30
0.0
 40
1.37499758123315
  0
ARC
  5
   58A
  8
0
  6
CONTINUOUS
 62
     7
 10
-669.921527371372
 20
-55.5251415373816
 30
0.0
 40
2.62499149271879
 50
298.436973936778
 51
418.997218532549
  0
CIRCLE
  5
   58B
  8
0
  6
CONTINUOUS
 62
     7
 10
-661.171527818925
 20
-56.5251486254787
 30
0.0
 40
2.74999836975995
  0
ARC
  5
   58C
  8
0
  6
CONTINUOUS
 62
     7
 10
-652.421526686917
 20
-55.5251426843761
 30
0.0
 40
2.6249925524032
 50
298.436944421718
 51
418.99722864746
  0
CIRCLE
  5
   58D
  8
0
  6
CONTINUOUS
 62
     7
 10
-643.671527660304
 20
-56.5251488912943
 30
0.0
 40
2.74999861534155
  0
CIRCLE
  5
   58E
  8
0
  6
CONTINUOUS
 62
     7
 10
-643.671528272596
 20
-63.5251490692059
 30
0.0
 40
0.699998731101407
  0
CIRCLE
  5
   58F
  8
0
  6
CONTINUOUS
 62
     7
 10
-661.17152994408
 20
-63.525149728814
 30
0.0
 40
0.699999655882045
  0
CIRCLE
  5
   590
  8
0
  6
CONTINUOUS
 62
     7
 10
-678.671528671684
 20
-63.5251513116889
 30
0.0
 40
0.700001026691361
  0
ARC
  5
   591
  8
0
  6
CONTINUOUS
 62
     3
 10
-636.671524878703
 20
-65.0251542878113
 30
0.0
 40
0.499995810037669
 50
269.999758026082
 51
360.000419025074
  0
ARC
  5
   592
  8
0
  6
CONTINUOUS
 62
     3
 10
-685.671527905586
 20
-65.0251500933594
 30
0.0
 40
0.50000021494898
 50
180.000023420064
 51
269.999992853049
  0
LINE
  5
   593
  8
0
  6
DASHDOT
 62
     3
 10
-678.671527977547
 20
-60.2751502738412
 30
0.0
 11
-678.671527977547
 21
-52.7751544009997
 31
0.0
  0
LINE
  5
   594
  8
0
  6
DASHDOT
 62
     3
 10
-674.921530041127
 20
-56.5251523374205
 30
0.0
 11
-682.421525913968
 21
-56.5251523374205
 31
0.0
  0
LINE
  5
   595
  8
0
  6
DASHDOT
 62
     3
 10
-669.921527371372
 20
-67.1195193895054
 30
0.0
 11
-669.921527371372
 21
-44.4038388709651
 31
0.0
  0
LINE
  5
   596
  8
0
  6
DASHDOT
 62
     3
 10
-666.296535878653
 20
-55.5251415373816
 30
0.0
 11
-673.546518864091
 21
-55.5251415373816
 31
0.0
  0
LINE
  5
   597
  8
0
  6
DASHDOT
 62
     3
 10
-661.171527818925
 20
-60.2751469952386
 30
0.0
 11
-661.171527818925
 21
-24.7379623102893
 31
0.0
  0
LINE
  5
   598
  8
0
  6
DASHDOT
 62
     3
 10
-657.421529449165
 20
-56.5251486254787
 30
0.0
 11
-664.921526188685
 21
-56.5251486254787
 31
0.0
  0
LINE
  5
   599
  8
0
  6
DASHDOT
 62
     3
 10
-652.421526686917
 20
-65.7423378164643
 30
0.0
 11
-652.421526686917
 21
-45.4386432544853
 31
0.0
  0
LINE
  5
   59A
  8
0
  6
DASHDOT
 62
     3
 10
-648.796534134513
 20
-55.5251426843762
 30
0.0
 11
-656.04651923932
 21
-55.5251426843762
 31
0.0
  0
LINE
  5
   59B
  8
0
  6
DASHDOT
 62
     3
 10
-643.671527660304
 20
-60.2751475066359
 30
0.0
 11
-643.671527660304
 21
-52.7751502759528
 31
0.0
  0
LINE
  5
   59C
  8
0
  6
DASHDOT
 62
     3
 10
-639.921529044962
 20
-56.5251488912943
 30
0.0
 11
-647.421526275645
 21
-56.5251488912943
 31
0.0
  0
LINE
  5
   59D
  8
0
  6
DASHDOT
 62
     3
 10
-643.671528272596
 20
-65.2251478003073
 30
0.0
 11
-643.671528272596
 21
-61.8251503381045
 31
0.0
  0
LINE
  5
   59E
  8
0
  6
DASHDOT
 62
     3
 10
-641.971529541495
 20
-63.5251490692059
 30
0.0
 11
-645.371527003697
 21
-63.5251490692059
 31
0.0
  0
LINE
  5
   59F
  8
0
  6
DASHDOT
 62
     3
 10
-661.17152994408
 20
-71.9038061208263
 30
0.0
 11
-661.17152994408
 21
-61.825150072932
 31
0.0
  0
LINE
  5
   5A0
  8
0
  6
DASHDOT
 62
     3
 10
-659.471530288198
 20
-63.525149728814
 30
0.0
 11
-662.871529599962
 21
-63.525149728814
 31
0.0
  0
LINE
  5
   5A1
  8
0
  6
DASHDOT
 62
     3
 10
-678.671528671684
 20
-65.2251523383803
 30
0.0
 11
-678.671528671684
 21
-61.8251502849976
 31
0.0
  0
LINE
  5
   5A2
  8
0
  6
DASHDOT
 62
     3
 10
-676.971527644993
 20
-63.5251513116889
 30
0.0
 11
-680.371529698375
 21
-63.5251513116889
 31
0.0
  0
LINE
  5
   5A3
  8
0
  6
DASHDOT
 62
     3
 10
-667.046534132104
 20
-27.2751417646042
 30
0.0
 11
-672.796521496607
 21
-27.2751417646042
 31
0.0
  0
LINE
  5
   5A4
  8
0
  6
DASHDOT
 62
     3
 10
-649.546331045349
 20
-27.2753628876161
 30
0.0
 11
-655.296688622628
 21
-27.2753628876161
 31
0.0
  0
LINE
  5
   5A5
  8
0
  6
CONTINUOUS
 62
     3
 10
-686.171528044816
 20
-65.0251502990723
 30
0.0
 11
-686.171528044816
 21
-64.1251503229141
 31
0.0
  0
LINE
  5
   5A6
  8
0
  6
CONTINUOUS
 62
     3
 10
-636.171528044816
 20
-65.0251502990723
 30
0.0
 11
-636.171528044816
 21
-64.1251503229141
 31
0.0
  0
LINE
  5
   5A7
  8
0
  6
CONTINUOUS
 62
     3
 10
-634.921528044816
 20
-64.1251487731934
 30
0.0
 11
-634.921528044816
 21
-41.4001483917237
 31
0.0
  0
LINE
  5
   5A8
  8
0
  6
CONTINUOUS
 62
     7
 10
-684.171528044816
 20
-54.0251502990723
 30
0.0
 11
-686.546528044815
 21
-54.0251502990723
 31
0.0
  0
LINE
  5
   5A9
  8
0
  6
CONTINUOUS
 62
     7
 10
-672.546528044816
 20
-55.5251502990723
 30
0.0
 11
-672.546528044816
 21
-53.5251502990723
 31
0.0
  0
LINE
  5
   5AA
  8
0
  6
CONTINUOUS
 62
     7
 10
-667.296528044815
 20
-55.5251502990723
 30
0.0
 11
-667.296528044815
 21
-53.5251502990723
 31
0.0
  0
LINE
  5
   5AB
  8
0
  6
CONTINUOUS
 62
     7
 10
-651.171528044816
 20
-58.7751502990723
 30
0.0
 11
-651.171528044816
 21
-57.8334081142862
 31
0.0
  0
LINE
  5
   5AC
  8
0
  6
CONTINUOUS
 62
     7
 10
-651.171528044816
 20
-58.7751502990723
 30
0.0
 11
-653.671528044816
 21
-58.7751502990723
 31
0.0
  0
LINE
  5
   5AD
  8
0
  6
CONTINUOUS
 62
     7
 10
-680.421528044815
 20
-53.5251502990723
 30
0.0
 11
-680.421528044815
 21
-53.2751502990723
 31
0.0
  0
LINE
  5
   5AE
  8
0
  6
CONTINUOUS
 62
     7
 10
-684.171528044816
 20
-54.0251502990723
 30
0.0
 11
-684.171528044816
 21
-53.2751502990723
 31
0.0
  0
LINE
  5
   5AF
  8
0
  6
CONTINUOUS
 62
     3
 10
-651.171528044816
 20
-64.0251502990723
 30
0.0
 11
-651.171528044816
 21
-62.2751502990723
 31
0.0
  0
LINE
  5
   5B0
  8
0
  6
CONTINUOUS
 62
     3
 10
-651.546528044815
 20
-65.525150299072
 30
0.0
 11
-651.546528044815
 21
-64.025150299072
 31
0.0
  0
LINE
  5
   5B1
  8
0
  6
CONTINUOUS
 62
     3
 10
-651.171528044816
 20
-64.0251502990723
 30
0.0
 11
-651.546528044815
 21
-64.0251502990723
 31
0.0
  0
LINE
  5
   5B2
  8
0
  6
CONTINUOUS
 62
     3
 10
-653.296528044815
 20
-64.0251502990723
 30
0.0
 11
-653.671528044816
 21
-64.0251502990723
 31
0.0
  0
CIRCLE
  5
   5B3
  8
0
  6
CONTINUOUS
 62
     7
 10
-652.421526300317
 20
-55.5251487104892
 30
0.0
 40
1.37499852437043
  0
ARC
  5
   5B4
  8
0
  6
CONTINUOUS
 62
     3
 10
-685.671527905586
 20
-65.0251500933594
 30
0.0
 40
0.50000021494898
 50
180.000023420064
 51
269.999992853049
  0
LINE
  5
   5B5
  8
0
  6
DASHDOT
 62
     3
 10
-666.296535878653
 20
-55.5251415373816
 30
0.0
 11
-673.546518864091
 21
-55.5251415373816
 31
0.0
  0
LINE
  5
   5B6
  8
0
  6
DASHDOT
 62
     3
 10
-657.421529449165
 20
-56.5251486254787
 30
0.0
 11
-664.921526188685
 21
-56.5251486254787
 31
0.0
  0
LINE
  5
   5B7
  8
0
  6
DASHDOT
 62
     3
 10
-652.421526686917
 20
-65.7423378164643
 30
0.0
 11
-652.421526686917
 21
-44.6321774592742
 31
0.0
  0
LINE
  5
   5B8
  8
0
  6
DASHDOT
 62
     3
 10
-648.796534134513
 20
-55.5251426843762
 30
0.0
 11
-656.04651923932
 21
-55.5251426843762
 31
0.0
  0
LINE
  5
   5B9
  8
0
  6
CONTINUOUS
 62
     7
 10
-672.546528044816
 20
-53.5251502990723
 30
0.0
 11
-684.171528044816
 21
-53.5251502990723
 31
0.0
  0
LINE
  5
   5BA
  8
0
  6
CONTINUOUS
 62
     7
 10
-635.796528044816
 20
-54.0251502990723
 30
0.0
 11
-638.171528044816
 21
-54.0251502990723
 31
0.0
  0
LINE
  5
   5BB
  8
0
  6
CONTINUOUS
 62
     7
 10
-634.921558562394
 20
-53.2751502990723
 30
0.0
 11
-687.421528044815
 21
-53.2751502990723
 31
0.0
  0
ARC
  5
   5BC
  8
0
  6
CONTINUOUS
 62
     7
 10
-669.921527371372
 20
-55.5251415373816
 30
0.0
 40
2.62499149271879
 50
121.002781363519
 51
241.56299252681
  0
ARC
  5
   5BD
  8
0
  6
CONTINUOUS
 62
     7
 10
-652.421526686917
 20
-55.5251426843761
 30
0.0
 40
2.6249925524032
 50
121.002771248608
 51
241.562988062779
  0
CIRCLE
  5
   5BE
  8
0
  6
CONTINUOUS
 62
     7
 10
-678.671591124722
 20
52.4744705555122
 30
0.0
 40
2.75032955665546
  0
CIRCLE
  5
   5BF
  8
0
  6
CONTINUOUS
 62
     7
 10
-678.671539260686
 20
59.474818303191
 30
0.0
 40
0.699999862369895
  0
ARC
  5
   5C0
  8
0
  6
CONTINUOUS
 62
     7
 10
-669.921545160763
 20
51.4748365144354
 30
0.0
 40
2.62498079731739
 50
103.846340220761
 51
175.64338747478
  0
LINE
  5
   5C1
  8
0
  6
CONTINUOUS
 62
     7
 10
-674.92153567421
 20
-27.4001502990723
 30
0.0
 11
-679.921528044816
 21
-27.4001502990723
 31
0.0
  0
LINE
  5
   5C2
  8
0
  6
CONTINUOUS
 62
     7
 10
-642.421543303605
 20
-27.4001502990723
 30
0.0
 11
-647.421543303605
 21
-27.4001502990723
 31
0.0
  0
LINE
  5
   5C3
  8
0
  6
CONTINUOUS
 62
     7
 10
-634.921528044816
 20
-27.1501502990723
 30
0.0
 11
-634.921528044816
 21
-18.1501579284668
 31
0.0
  0
LINE
  5
   5C4
  8
0
  6
CONTINUOUS
 62
     7
 10
-687.421528044815
 20
-27.1501502990723
 30
0.0
 11
-687.421528044815
 21
-18.1501579284668
 31
0.0
  0
LINE
  5
   5C5
  8
0
  6
CONTINUOUS
 62
     7
 10
-635.171528044815
 20
25.0998497009277
 30
0.0
 11
-687.171528044802
 21
25.0998497009277
 31
0.0
  0
LINE
  5
   5C6
  8
0
  6
CONTINUOUS
 62
     7
 10
-679.921528044816
 20
-27.4001502990723
 30
0.0
 11
-687.171528044815
 21
-27.4001502990723
 31
0.0
  0
LINE
  5
   5C7
  8
0
  6
CONTINUOUS
 62
     7
 10
-647.421543303605
 20
-27.4001502990723
 30
0.0
 11
-674.92153567421
 21
-27.4001502990723
 31
0.0
  0
LINE
  5
   5C8
  8
0
  6
CONTINUOUS
 62
     7
 10
-635.171528044815
 20
-27.4001502990723
 30
0.0
 11
-642.421543303605
 21
-27.4001502990723
 31
0.0
  0
LINE
  5
   5C9
  8
0
  6
CONTINUOUS
 62
     7
 10
-655.796528044815
 20
-16.2751579284668
 30
0.0
 11
-655.796528044815
 21
3.72483444213867
 31
0.0
  0
LINE
  5
   5CA
  8
0
  6
CONTINUOUS
 62
     7
 10
-666.546528044815
 20
-16.2751579284668
 30
0.0
 11
-666.546528044815
 21
3.72483444213867
 31
0.0
  0
LINE
  5
   5CB
  8
0
  6
CONTINUOUS
 62
     7
 10
-634.921528044816
 20
19.0998344421387
 30
0.0
 11
-687.421528044815
 21
19.0998344421387
 31
0.0
  0
LINE
  5
   5CC
  8
0
  6
CONTINUOUS
 62
     7
 10
-634.921528044816
 20
24.0998344421387
 30
0.0
 11
-687.421528044815
 21
24.0998344421387
 31
0.0
  0
LINE
  5
   5CD
  8
0
  6
CONTINUOUS
 62
     7
 10
-655.796528044815
 20
3.59260177612304
 30
0.0
 11
-666.546528044815
 21
3.59260177612304
 31
0.0
  0
LINE
  5
   5CE
  8
0
  6
CONTINUOUS
 62
     7
 10
-655.796528044815
 20
3.72483444213866
 30
0.0
 11
-666.546528044815
 21
3.72483444213866
 31
0.0
  0
LINE
  5
   5CF
  8
0
  6
CONTINUOUS
 62
     7
 10
-655.796528044815
 20
-16.2751579284668
 30
0.0
 11
-666.546528044815
 21
-16.2751579284668
 31
0.0
  0
LINE
  5
   5D0
  8
0
  6
CONTINUOUS
 62
     7
 10
-655.796528044815
 20
-16.1429100036621
 30
0.0
 11
-666.546528044815
 21
-16.1429100036621
 31
0.0
  0
LINE
  5
   5D1
  8
0
  6
DASHDOT
 62
     7
 10
-661.171528044816
 20
-29.0267912387517
 30
0.0
 11
-661.171528044816
 21
14.2010518447727
 31
0.0
  0
LINE
  5
   5D2
  8
0
  6
CONTINUOUS
 62
     7
 10
-634.92153567421
 20
-17.6501579284668
 30
0.0
 11
-634.92153567421
 21
-11.6501619050861
 31
0.0
  0
LINE
  5
   5D3
  8
0
  6
CONTINUOUS
 62
     7
 10
-634.92153567421
 20
5.5998420715332
 30
0.0
 11
-634.92153567421
 21
24.8498497009277
 31
0.0
  0
LINE
  5
   5D4
  8
0
  6
CONTINUOUS
 62
     7
 10
-634.92153567421
 20
-11.150161905086
 30
0.0
 11
-634.92153567421
 21
-1.4001579284668
 31
0.0
  0
LINE
  5
   5D5
  8
0
  6
CONTINUOUS
 62
     7
 10
-634.92153567421
 20
-0.900157928466797
 30
0.0
 11
-634.92153567421
 21
5.0998420715332
 31
0.0
  0
LINE
  5
   5D6
  8
0
  6
CONTINUOUS
 62
     7
 10
-687.421528044818
 20
-17.6501579284668
 30
0.0
 11
-687.421528044818
 21
-11.6501579284657
 31
0.0
  0
LINE
  5
   5D7
  8
0
  6
CONTINUOUS
 62
     7
 10
-687.421528044827
 20
-11.1501579284657
 30
0.0
 11
-687.421528044827
 21
-1.4001579284668
 31
0.0
  0
LINE
  5
   5D8
  8
0
  6
CONTINUOUS
 62
     7
 10
-687.421528044813
 20
-0.900157928466797
 30
0.0
 11
-687.421528044813
 21
5.0998420715332
 31
0.0
  0
LINE
  5
   5D9
  8
0
  6
CONTINUOUS
 62
     7
 10
-687.421528044802
 20
5.5998420715332
 30
0.0
 11
-687.421528044802
 21
24.8498497009277
 31
0.0
  0
LINE
  5
   5DA
  8
0
  6
CONTINUOUS
 62
     7
 10
-666.546532031677
 20
-11.6501579284678
 30
0.0
 11
-686.921528074618
 21
-11.6501579284678
 31
0.0
  0
LINE
  5
   5DB
  8
0
  6
CONTINUOUS
 62
     7
 10
-634.92153567421
 20
-11.6501426696788
 30
0.0
 11
-635.42153567421
 21
-11.6501426696788
 31
0.0
  0
LINE
  5
   5DC
  8
0
  6
CONTINUOUS
 62
     7
 10
-666.546541811222
 20
-11.1501579284679
 30
0.0
 11
-686.921528074618
 21
-11.1501579284679
 31
0.0
  0
LINE
  5
   5DD
  8
0
  6
CONTINUOUS
 62
     7
 10
-634.92153567421
 20
-11.1501426696788
 30
0.0
 11
-635.42153567421
 21
-11.1501426696788
 31
0.0
  0
LINE
  5
   5DE
  8
0
  6
CONTINUOUS
 62
     7
 10
-686.921528074618
 20
-11.6501579284668
 30
0.0
 11
-686.921528074618
 21
-11.1501579284668
 31
0.0
  0
LINE
  5
   5DF
  8
0
  6
CONTINUOUS
 62
     7
 10
-635.42153567421
 20
-11.6501579284668
 30
0.0
 11
-635.42153567421
 21
-11.1501579284668
 31
0.0
  0
LINE
  5
   5E0
  8
0
  6
CONTINUOUS
 62
     7
 10
-634.921528044816
 20
-18.1501579284668
 30
0.0
 11
-635.42153567421
 21
-18.1501579284668
 31
0.0
  0
LINE
  5
   5E1
  8
0
  6
CONTINUOUS
 62
     7
 10
-634.92153567421
 20
-17.6501579284668
 30
0.0
 11
-635.42153567421
 21
-17.6501579284668
 31
0.0
  0
LINE
  5
   5E2
  8
0
  6
CONTINUOUS
 62
     7
 10
-686.921528074618
 20
-18.1501579284668
 30
0.0
 11
-686.921528074618
 21
-17.6501579284668
 31
0.0
  0
LINE
  5
   5E3
  8
0
  6
CONTINUOUS
 62
     7
 10
-635.42153567421
 20
-18.1501579284668
 30
0.0
 11
-635.42153567421
 21
-17.6501579284668
 31
0.0
  0
LINE
  5
   5E4
  8
0
  6
CONTINUOUS
 62
     7
 10
-634.92153567421
 20
5.0998420715332
 30
0.0
 11
-635.42153567421
 21
5.0998420715332
 31
0.0
  0
LINE
  5
   5E5
  8
0
  6
CONTINUOUS
 62
     7
 10
-634.92153567421
 20
5.5998420715332
 30
0.0
 11
-635.42153567421
 21
5.5998420715332
 31
0.0
  0
LINE
  5
   5E6
  8
0
  6
CONTINUOUS
 62
     7
 10
-686.921528074618
 20
5.0998420715332
 30
0.0
 11
-686.921528074618
 21
5.5998420715332
 31
0.0
  0
LINE
  5
   5E7
  8
0
  6
CONTINUOUS
 62
     7
 10
-635.42153567421
 20
5.0998420715332
 30
0.0
 11
-635.42153567421
 21
5.5998420715332
 31
0.0
  0
LINE
  5
   5E8
  8
0
  6
CONTINUOUS
 62
     7
 10
-666.546532008524
 20
-1.4001579284668
 30
0.0
 11
-686.921528074618
 21
-1.4001579284668
 31
0.0
  0
LINE
  5
   5E9
  8
0
  6
CONTINUOUS
 62
     7
 10
-634.92153567421
 20
-1.4001579284668
 30
0.0
 11
-635.42153567421
 21
-1.4001579284668
 31
0.0
  0
LINE
  5
   5EA
  8
0
  6
CONTINUOUS
 62
     7
 10
-666.546528044815
 20
-0.900157928466804
 30
0.0
 11
-686.921528074618
 21
-0.900157928466804
 31
0.0
  0
LINE
  5
   5EB
  8
0
  6
CONTINUOUS
 62
     7
 10
-634.92153567421
 20
-0.900157928466804
 30
0.0
 11
-635.42153567421
 21
-0.900157928466804
 31
0.0
  0
LINE
  5
   5EC
  8
0
  6
CONTINUOUS
 62
     7
 10
-686.921528074618
 20
-1.4001579284668
 30
0.0
 11
-686.921528074618
 21
-0.900157928466797
 31
0.0
  0
LINE
  5
   5ED
  8
0
  6
CONTINUOUS
 62
     7
 10
-635.42153567421
 20
-1.4001579284668
 30
0.0
 11
-635.42153567421
 21
-0.900157928466797
 31
0.0
  0
ARC
  5
   5EE
  8
0
  6
CONTINUOUS
 62
     7
 10
-687.171528044815
 20
-27.1501502990723
 30
0.0
 40
0.25
 50
179.999999948034
 51
269.999999948034
  0
ARC
  5
   5EF
  8
0
  6
CONTINUOUS
 62
     7
 10
-635.171528044815
 20
-27.1501502990723
 30
0.0
 40
0.25
 50
269.999999948034
 51
359.999999948034
  0
ARC
  5
   5F0
  8
0
  6
CONTINUOUS
 62
     7
 10
-635.171528044815
 20
24.8498497009277
 30
0.0
 40
0.25
 50
359.999999948034
 51
449.999999948034
  0
ARC
  5
   5F1
  8
0
  6
CONTINUOUS
 62
     7
 10
-687.171528044802
 20
24.8498497009277
 30
0.0
 40
0.25
 50
449.999999948034
 51
539.999999948034
  0
INSERT
  5
   5F2
  8
255
  6
CONTINUOUS
 62
     7
  2
ON-OFF
 10
-651.171532927628
 20
2.09984207153321
 30
0.0
 41
0.5
 42
0.5
 50
359.999999792137
 43
0.5
  0
LINE
  5
   5F3
  8
0
  6
CONTINUOUS
 62
     7
 10
-672.421528044816
 20
4.3498420715332
 30
0.0
 11
-673.171528044816
 21
4.3498420715332
 31
0.0
  0
LINE
  5
   5F4
  8
0
  6
CONTINUOUS
 62
     7
 10
-672.421528044816
 20
-0.150157928466804
 30
0.0
 11
-673.171528044816
 21
-0.150157928466804
 31
0.0
  0
CIRCLE
  5
   5F5
  8
0
  6
CONTINUOUS
 62
     7
 10
-672.796528044815
 20
-14.6501579284668
 30
0.0
 40
2.25
  0
CIRCLE
  5
   5F6
  8
0
  6
CONTINUOUS
 62
     7
 10
-672.796528044815
 20
-14.6501579284668
 30
0.0
 40
1.5
  0
LINE
  5
   5F7
  8
0
  6
CONTINUOUS
 62
     7
 10
-673.171528044816
 20
-0.150157928466797
 30
0.0
 11
-673.171528044816
 21
4.3498420715332
 31
0.0
  0
LINE
  5
   5F8
  8
0
  6
CONTINUOUS
 62
     7
 10
-672.421528044816
 20
-0.150157928466797
 30
0.0
 11
-672.421528044816
 21
4.3498420715332
 31
0.0
  0
LINE
  5
   5F9
  8
0
  6
CONTINUOUS
 62
     7
 10
-667.921528044815
 20
-17.6501579284668
 30
0.0
 11
-667.921528044815
 21
-11.650150783884
 31
0.0
  0
LINE
  5
   5FA
  8
0
  6
CONTINUOUS
 62
     7
 10
-654.421528044816
 20
-17.6501579284668
 30
0.0
 11
-654.421528044816
 21
-11.6501547605072
 31
0.0
  0
LINE
  5
   5FB
  8
0
  6
CONTINUOUS
 62
     7
 10
-654.421528044816
 20
-0.900157928466797
 30
0.0
 11
-654.421528044816
 21
5.0998420715332
 31
0.0
  0
LINE
  5
   5FC
  8
0
  6
CONTINUOUS
 62
     7
 10
-667.921528044815
 20
-0.900157928466797
 30
0.0
 11
-667.921528044815
 21
5.0998420715332
 31
0.0
  0
LINE
  5
   5FD
  8
0
  6
DASHDOT
 62
     7
 10
-661.171562490582
 20
44.7242978642501
 30
0.0
 11
-661.171562490582
 21
60.2248105836527
 31
0.0
  0
LINE
  5
   5FE
  8
0
  6
DASHDOT
 62
     7
 10
-669.921545160763
 20
43.849855717118
 30
0.0
 11
-669.921545160763
 21
59.0998173117528
 31
0.0
  0
LINE
  5
   5FF
  8
0
  6
DASHDOT
 62
     7
 10
-678.671591124722
 20
44.7241409988567
 30
0.0
 11
-678.671591124722
 21
60.2248001121676
 31
0.0
  0
LINE
  5
   600
  8
0
  6
DASHDOT
 62
     7
 10
-670.921261568066
 20
52.4744705555122
 30
0.0
 11
-686.421920681377
 21
52.4744705555122
 31
0.0
  0
LINE
  5
   601
  8
0
  6
DASHDOT
 62
     7
 10
-678.671539260686
 20
53.7748184408211
 30
0.0
 11
-678.671539260686
 21
65.1748181655609
 31
0.0
  0
LINE
  5
   602
  8
0
  6
DASHDOT
 62
     7
 10
-672.971539398316
 20
59.474818303191
 30
0.0
 11
-684.371539123056
 21
59.474818303191
 31
0.0
  0
LINE
  5
   603
  8
0
  6
CONTINUOUS
 62
     7
 10
-655.796528044815
 20
-11.6855147507464
 30
0.0
 11
-666.546528044815
 21
-11.6855147507464
 31
0.0
  0
LINE
  5
   604
  8
0
  6
CONTINUOUS
 62
     7
 10
-655.796528044815
 20
-15.6459909277944
 30
0.0
 11
-666.546528044815
 21
-15.6459909277944
 31
0.0
  0
LINE
  5
   605
  8
0
  6
CONTINUOUS
 62
     7
 10
-655.796528044815
 20
-11.6855151014735
 30
0.0
 11
-666.546528044815
 21
-11.6855151014735
 31
0.0
  0
LINE
  5
   606
  8
0
  6
CONTINUOUS
 62
     7
 10
-655.796528044815
 20
-9.21245451350165
 30
0.0
 11
-666.546528044815
 21
-9.21245451350165
 31
0.0
  0
LINE
  5
   607
  8
0
  6
CONTINUOUS
 62
     7
 10
-686.671556599612
 20
39.0998497009277
 30
0.0
 11
-686.67155862894
 21
46.7248344421386
 31
0.0
  0
LINE
  5
   608
  8
0
  6
CONTINUOUS
 62
     3
 10
-668.671528044815
 20
-62.2751502990723
 30
0.0
 11
-671.171528044816
 21
-62.2751502990723
 31
0.0
  0
LINE
  5
   609
  8
0
  6
CONTINUOUS
 62
     3
 10
-651.171528044816
 20
-62.2751502990723
 30
0.0
 11
-653.671528044816
 21
-62.2751502990723
 31
0.0
  0
LINE
  5
   60A
  8
0
  6
CONTINUOUS
 62
     7
 10
-686.921528074618
 20
5.5998420715332
 30
0.0
 11
-687.421528044802
 21
5.5998420715332
 31
0.0
  0
LINE
  5
   60B
  8
0
  6
CONTINUOUS
 62
     7
 10
-686.921528074618
 20
5.0998420715332
 30
0.0
 11
-687.421528044813
 21
5.0998420715332
 31
0.0
  0
LINE
  5
   60C
  8
0
  6
CONTINUOUS
 62
     7
 10
-686.921528074618
 20
-0.900157928466804
 30
0.0
 11
-687.421528044813
 21
-0.900157928466804
 31
0.0
  0
LINE
  5
   60D
  8
0
  6
CONTINUOUS
 62
     7
 10
-686.921528074618
 20
-1.4001579284668
 30
0.0
 11
-687.421528044827
 21
-1.4001579284668
 31
0.0
  0
LINE
  5
   60E
  8
0
  6
CONTINUOUS
 62
     7
 10
-686.921528074618
 20
-11.1501579284679
 30
0.0
 11
-687.421528044827
 21
-11.1501579284679
 31
0.0
  0
LINE
  5
   60F
  8
0
  6
CONTINUOUS
 62
     7
 10
-686.921528074618
 20
-11.6501579284678
 30
0.0
 11
-687.421528044818
 21
-11.6501579284678
 31
0.0
  0
LINE
  5
   610
  8
0
  6
CONTINUOUS
 62
     7
 10
-686.921528074618
 20
-17.6501579284668
 30
0.0
 11
-687.421528044818
 21
-17.6501579284668
 31
0.0
  0
LINE
  5
   611
  8
0
  6
CONTINUOUS
 62
     7
 10
-686.921528074618
 20
-18.1501579284668
 30
0.0
 11
-687.421528044815
 21
-18.1501579284668
 31
0.0
  0
LINE
  5
   612
  8
0
  6
CONTINUOUS
 62
     7
 10
-635.42153567421
 20
-17.6501579284668
 30
0.0
 11
-686.921528074618
 21
-17.6501579284668
 31
0.0
  0
LINE
  5
   613
  8
0
  6
CONTINUOUS
 62
     7
 10
-635.42153567421
 20
-18.1501579284668
 30
0.0
 11
-686.921528074618
 21
-18.1501579284668
 31
0.0
  0
LINE
  5
   614
  8
0
  6
CONTINUOUS
 62
     7
 10
-635.42153567421
 20
-11.1501426696788
 30
0.0
 11
-655.796529537195
 21
-11.1501426696788
 31
0.0
  0
LINE
  5
   615
  8
0
  6
CONTINUOUS
 62
     7
 10
-635.42153567421
 20
-11.6501426696788
 30
0.0
 11
-655.796529720389
 21
-11.6501426696788
 31
0.0
  0
LINE
  5
   616
  8
0
  6
CONTINUOUS
 62
     7
 10
-635.42153567421
 20
-0.900157928466804
 30
0.0
 11
-655.796528044815
 21
-0.900157928466804
 31
0.0
  0
LINE
  5
   617
  8
0
  6
CONTINUOUS
 62
     7
 10
-635.42153567421
 20
-1.4001579284668
 30
0.0
 11
-655.796528044815
 21
-1.4001579284668
 31
0.0
  0
LINE
  5
   618
  8
0
  6
CONTINUOUS
 62
     7
 10
-635.42153567421
 20
5.5998420715332
 30
0.0
 11
-686.921528074618
 21
5.5998420715332
 31
0.0
  0
LINE
  5
   619
  8
0
  6
CONTINUOUS
 62
     7
 10
-635.42153567421
 20
5.0998420715332
 30
0.0
 11
-686.921528074618
 21
5.0998420715332
 31
0.0
  0
LINE
  5
   61A
  8
0
  6
CONTINUOUS
 62
     7
 10
-686.17154125827
 20
60.0748176574707
 30
0.0
 11
-686.171541842645
 21
60.97481058002
 31
0.0
  0
LINE
  5
   61B
  8
0
  6
CONTINUOUS
 62
     7
 10
-668.671528044815
 20
58.2247886657715
 30
0.0
 11
-671.171528044816
 21
58.2247886657715
 31
0.0
  0
LINE
  5
   61C
  8
0
  6
CONTINUOUS
 62
     7
 10
-671.171528044816
 20
58.2247886657715
 30
0.0
 11
-671.171528044816
 21
59.9747887849808
 31
0.0
  0
LINE
  5
   61D
  8
0
  6
CONTINUOUS
 62
     7
 10
-670.796528044815
 20
59.9747886657715
 30
0.0
 11
-671.171528044816
 21
59.9747886657715
 31
0.0
  0
LINE
  5
   61E
  8
0
  6
CONTINUOUS
 62
     7
 10
-670.796528044815
 20
59.9747886657712
 30
0.0
 11
-670.796528044815
 21
61.4747886657712
 31
0.0
  0
LINE
  5
   61F
  8
0
  6
CONTINUOUS
 62
     7
 10
-669.046528044816
 20
59.9747886657712
 30
0.0
 11
-669.046528044816
 21
61.4747886657712
 31
0.0
  0
LINE
  5
   620
  8
0
  6
CONTINUOUS
 62
     7
 10
-668.671528044815
 20
59.9747886657715
 30
0.0
 11
-669.046528044816
 21
59.9747886657715
 31
0.0
  0
LINE
  5
   621
  8
0
  6
CONTINUOUS
 62
     7
 10
-668.671528044815
 20
58.2247886657715
 30
0.0
 11
-668.671528044815
 21
59.9747886657715
 31
0.0
  0
LINE
  5
   622
  8
0
  6
DASHDOT
 62
     7
 10
-629.936447998826
 20
-1.15015029907228
 30
0.0
 11
-704.745981541747
 21
-1.15015029907228
 31
0.0
  0
LINE
  5
   623
  8
0
  6
DASHDOT
 62
     7
 10
-723.345177997022
 20
-1.15015029907228
 30
0.0
 11
-730.069502869314
 21
-1.15015029907228
 31
0.0
  0
INSERT
  5
   624
  8
255
  6
CONTINUOUS
 62
     7
  2
COPRITERMINALI
 10
-661.171580400326
 20
62.7248191833496
 30
0.0
 41
0.5
 42
0.5
 50
3.50835464724173E-15
 43
0.5
  0
LINE
  5
   625
  8
0
  6
CONTINUOUS
 62
     7
 10
-667.903102456861
 20
61.4747886657712
 30
0.0
 11
-669.046528044816
 21
61.4747886657712
 31
0.0
  0
LINE
  5
   626
  8
0
  6
CONTINUOUS
 62
     2
 10
-683.671539260686
 20
61.4748191833398
 30
0.0
 11
-683.671539260686
 21
75.4748523929888
 31
0.0
  0
LINE
  5
   627
  8
0
  6
CONTINUOUS
 62
     2
 10
-673.671539260686
 20
61.4748191833398
 30
0.0
 11
-673.671539260686
 21
75.4748523929888
 31
0.0
  0
LINE
  5
   628
  8
0
  6
CONTINUOUS
 62
     2
 10
-673.671539260686
 20
75.4748523929888
 30
0.0
 11
-683.671539260686
 21
75.4748523929888
 31
0.0
  0
CIRCLE
  5
   629
  8
0
  6
CONTINUOUS
 62
     2
 10
-678.671539260686
 20
69.2248523929888
 30
0.0
 40
2.125
  0
LINE
  5
   62A
  8
0
  6
DASHDOT
 62
     2
 10
-678.671539260686
 20
64.5998523929888
 30
0.0
 11
-678.671539260686
 21
73.8498523929888
 31
0.0
  0
LINE
  5
   62B
  8
0
  6
DASHDOT
 62
     2
 10
-674.046539260686
 20
69.2248523929888
 30
0.0
 11
-683.296539260686
 21
69.2248523929888
 31
0.0
  0
LINE
  5
   62C
  8
0
  6
CONTINUOUS
 62
     2
 10
-656.171539260686
 20
75.4748523929888
 30
0.0
 11
-666.171539260686
 21
75.4748523929888
 31
0.0
  0
LINE
  5
   62D
  8
0
  6
CONTINUOUS
 62
     2
 10
-656.171539260686
 20
62.7248191833496
 30
0.0
 11
-656.171539260686
 21
75.4748523929888
 31
0.0
  0
LINE
  5
   62E
  8
0
  6
CONTINUOUS
 62
     2
 10
-666.171539260686
 20
62.7248191833496
 30
0.0
 11
-666.171539260686
 21
75.4748523929888
 31
0.0
  0
CIRCLE
  5
   62F
  8
0
  6
CONTINUOUS
 62
     2
 10
-661.171539260686
 20
69.2248523929888
 30
0.0
 40
2.125
  0
LINE
  5
   630
  8
0
  6
CONTINUOUS
 62
     2
 10
-648.671539260686
 20
62.7248191833496
 30
0.0
 11
-648.671539260686
 21
75.4748523929888
 31
0.0
  0
LINE
  5
   631
  8
0
  6
CONTINUOUS
 62
     2
 10
-638.671539260686
 20
75.4748523929888
 30
0.0
 11
-648.671539260686
 21
75.4748523929888
 31
0.0
  0
LINE
  5
   632
  8
0
  6
CONTINUOUS
 62
     2
 10
-638.671539260686
 20
62.7248191833496
 30
0.0
 11
-638.671539260686
 21
75.4748523929888
 31
0.0
  0
CIRCLE
  5
   633
  8
0
  6
CONTINUOUS
 62
     2
 10
-643.671539260686
 20
69.2248523929888
 30
0.0
 40
2.125
  0
LINE
  5
   634
  8
0
  6
DASHDOT
 62
     2
 10
-643.671539260686
 20
64.5998523929888
 30
0.0
 11
-643.671539260686
 21
73.8498523929888
 31
0.0
  0
LINE
  5
   635
  8
0
  6
DASHDOT
 62
     2
 10
-639.046539260686
 20
69.2248523929888
 30
0.0
 11
-648.296539260686
 21
69.2248523929888
 31
0.0
  0
LINE
  5
   636
  8
0
  6
DASHDOT
 62
     2
 10
-661.171539260686
 20
64.5998523929888
 30
0.0
 11
-661.171539260686
 21
73.8498523929888
 31
0.0
  0
LINE
  5
   637
  8
0
  6
DASHDOT
 62
     2
 10
-656.546539260686
 20
69.2248523929888
 30
0.0
 11
-665.796539260686
 21
69.2248523929888
 31
0.0
  0
LINE
  5
   638
  8
0
  6
CONTINUOUS
 62
     1
 10
-669.45904507468
 20
110.224867901198
 30
0.0
 11
-670.384045223246
 21
110.224867901198
 31
0.0
  0
LINE
  5
   639
  8
0
  6
CONTINUOUS
 62
     1
 10
-667.171545160763
 20
61.4747886657712
 30
0.0
 11
-667.171545160763
 21
64.2247886657712
 31
0.0
  0
LINE
  5
   63A
  8
0
  6
CONTINUOUS
 62
     1
 10
-670.671545160763
 20
64.2247886657712
 30
0.0
 11
-672.671545160763
 21
64.2247886657712
 31
0.0
  0
LINE
  5
   63B
  8
0
  6
CONTINUOUS
 62
     1
 10
-667.171545160763
 20
64.2247886657712
 30
0.0
 11
-669.171545160763
 21
64.2247886657712
 31
0.0
  0
LINE
  5
   63C
  8
0
  6
CONTINUOUS
 62
     1
 10
-672.671545160763
 20
61.4747886657712
 30
0.0
 11
-672.671545160763
 21
64.2247886657712
 31
0.0
  0
LINE
  5
   63D
  8
0
  6
CONTINUOUS
 62
     1
 10
-667.171545160763
 20
62.7247886657712
 30
0.0
 11
-672.671545160763
 21
62.7247886657712
 31
0.0
  0
LINE
  5
   63E
  8
0
  6
CONTINUOUS
 62
     1
 10
-670.671545160763
 20
60.0747884511945
 30
0.0
 11
-671.046545160763
 21
60.0747884511945
 31
0.0
  0
LINE
  5
   63F
  8
0
  6
CONTINUOUS
 62
     1
 10
-671.046545160763
 20
58.4747884273526
 30
0.0
 11
-671.046545160763
 21
60.0747884511945
 31
0.0
  0
LINE
  5
   640
  8
0
  6
CONTINUOUS
 62
     1
 10
-668.796545160763
 20
58.4747884273526
 30
0.0
 11
-671.046545160763
 21
58.4747884273526
 31
0.0
  0
LINE
  5
   641
  8
0
  6
CONTINUOUS
 62
     1
 10
-668.796545160763
 20
58.4747884273526
 30
0.0
 11
-668.796545160763
 21
60.0747884511945
 31
0.0
  0
LINE
  5
   642
  8
0
  6
CONTINUOUS
 62
     1
 10
-668.796545160763
 20
60.0747884511945
 30
0.0
 11
-669.171545160763
 21
60.0747884511945
 31
0.0
  0
LINE
  5
   643
  8
0
  6
CONTINUOUS
 62
     1
 10
-669.171545160763
 20
60.0747883319852
 30
0.0
 11
-669.171545160763
 21
62.7247884273526
 31
0.0
  0
LINE
  5
   644
  8
0
  6
CONTINUOUS
 62
     1
 10
-670.671545160763
 20
60.0747884511945
 30
0.0
 11
-670.671545160763
 21
62.7247884273526
 31
0.0
  0
LINE
  5
   645
  8
0
  6
CONTINUOUS
 62
     1
 10
-670.671545160763
 20
59.5747884511945
 30
0.0
 11
-670.671545160763
 21
60.0747884511945
 31
0.0
  0
LINE
  5
   646
  8
0
  6
CONTINUOUS
 62
     1
 10
-669.171545160763
 20
59.5747884511945
 30
0.0
 11
-669.171545160763
 21
60.0747884511945
 31
0.0
  0
LINE
  5
   647
  8
0
  6
CONTINUOUS
 62
     1
 10
-670.671545160763
 20
59.5747884511945
 30
0.0
 11
-671.046545160763
 21
59.5747884511945
 31
0.0
  0
LINE
  5
   648
  8
0
  6
CONTINUOUS
 62
     1
 10
-668.796545160763
 20
59.5747884511945
 30
0.0
 11
-669.171545160763
 21
59.5747884511945
 31
0.0
  0
LINE
  5
   649
  8
0
  6
CONTINUOUS
 62
     1
 10
-667.171545160763
 20
63.2247886657712
 30
0.0
 11
-672.671545160763
 21
63.2247886657712
 31
0.0
  0
LINE
  5
   64A
  8
0
  6
CONTINUOUS
 62
     1
 10
-667.171545160763
 20
61.4747886657712
 30
0.0
 11
-669.171545160763
 21
61.4747886657712
 31
0.0
  0
LINE
  5
   64B
  8
0
  6
CONTINUOUS
 62
     1
 10
-670.671545160763
 20
61.4747886657712
 30
0.0
 11
-672.671545160763
 21
61.4747886657712
 31
0.0
  0
LINE
  5
   64C
  8
0
  6
CONTINUOUS
 62
     1
 10
-669.171545160763
 20
64.2247886657712
 30
0.0
 11
-669.45904507468
 21
110.224867901198
 31
0.0
  0
LINE
  5
   64D
  8
0
  6
CONTINUOUS
 62
     1
 10
-670.671545160763
 20
64.2247886657712
 30
0.0
 11
-670.384045223246
 21
110.224867901198
 31
0.0
  0
LINE
  5
   64E
  8
0
  6
CONTINUOUS
 62
     1
 10
-651.671545160763
 20
64.2247886657712
 30
0.0
 11
-651.95904507468
 21
110.224867901198
 31
0.0
  0
LINE
  5
   64F
  8
0
  6
CONTINUOUS
 62
     1
 10
-653.171545160763
 20
64.2247886657712
 30
0.0
 11
-652.884045223246
 21
110.224867901198
 31
0.0
  0
LINE
  5
   650
  8
0
  6
CONTINUOUS
 62
     1
 10
-651.95904507468
 20
110.224867901198
 30
0.0
 11
-652.884045223246
 21
110.224867901198
 31
0.0
  0
LINE
  5
   651
  8
0
  6
CONTINUOUS
 62
     1
 10
-649.671545160763
 20
64.2247886657712
 30
0.0
 11
-651.671545160763
 21
64.2247886657712
 31
0.0
  0
LINE
  5
   652
  8
0
  6
CONTINUOUS
 62
     1
 10
-653.171545160763
 20
64.2247886657712
 30
0.0
 11
-655.171545160763
 21
64.2247886657712
 31
0.0
  0
LINE
  5
   653
  8
0
  6
CONTINUOUS
 62
     1
 10
-649.671545160763
 20
63.2247886657712
 30
0.0
 11
-655.171545160763
 21
63.2247886657712
 31
0.0
  0
LINE
  5
   654
  8
0
  6
CONTINUOUS
 62
     1
 10
-649.671545160763
 20
62.7248191833496
 30
0.0
 11
-649.671545160763
 21
64.2247886657712
 31
0.0
  0
LINE
  5
   655
  8
0
  6
CONTINUOUS
 62
     1
 10
-655.171545160763
 20
62.7248191833496
 30
0.0
 11
-655.171545160763
 21
64.2247886657712
 31
0.0
  0
LINE
  5
   656
  8
0
  6
DASHDOT
 62
     7
 10
-661.171570685702
 20
92.0268539869526
 30
0.0
 11
-661.171574868463
 21
107.743138494724
 31
0.0
  0
LINE
  5
   657
  8
0
  6
CONTINUOUS
 62
     3
 10
-637.92152994408
 20
-66.7752063968951
 30
0.0
 11
-684.42152994408
 21
-66.7752063968951
 31
0.0
  0
LINE
  5
   658
  8
0
  6
CONTINUOUS
 62
     7
 10
-684.42152994408
 20
-66.7752063968951
 30
0.0
 11
-684.42152994408
 21
-65.5251502990718
 31
0.0
  0
LINE
  5
   659
  8
0
  6
CONTINUOUS
 62
     7
 10
-637.92152994408
 20
-66.7752063968951
 30
0.0
 11
-637.92152994408
 21
-65.5251502990714
 31
0.0
  0
LINE
  5
   65A
  8
0
  6
CONTINUOUS
 62
     7
 10
-651.171528044816
 20
-62.5251502990723
 30
0.0
 11
-653.671528044816
 21
-62.5251502990723
 31
0.0
  0
LINE
  5
   65B
  8
0
  6
CONTINUOUS
 62
     7
 10
-668.671528044815
 20
-62.5251502990723
 30
0.0
 11
-671.171528044816
 21
-62.5251502990723
 31
0.0
  0
INSERT
  5
   65C
  8
255
  6
CONTINUOUS
 62
     7
  2
MOSTRINA
 10
-718.590656462784
 20
-56.1404609680176
 30
0.0
 41
0.5
 42
0.5
 50
3.50835464724173E-15
 43
0.5
  0
INSERT
  5
   65D
  8
0
  6
CONTINUOUS
 62
     7
  2
*UDIM66
 10
0.0
 20
0.0
 30
0.0
  0
INSERT
  5
   65E
  8
0
  6
CONTINUOUS
 62
     7
  2
*UDIM67
 10
0.0
 20
0.0
 30
0.0
  0
INSERT
  5
   65F
  8
0
  6
CONTINUOUS
 62
     7
  2
*UDIM68
 10
0.0
 20
0.0
 30
0.0
  0
INSERT
  5
   660
  8
0
  6
CONTINUOUS
 62
     7
  2
*UDIM69
 10
0.0
 20
0.0
 30
0.0
  0
INSERT
  5
   661
  8
0
  6
CONTINUOUS
 62
     7
  2
*UDIM70
 10
0.0
 20
0.0
 30
0.0
  0
INSERT
  5
   662
  8
0
  6
CONTINUOUS
 62
     7
  2
*UDIM71
 10
0.0
 20
0.0
 30
0.0
  0
INSERT
  5
   663
  8
0
  6
CONTINUOUS
 62
     7
  2
*UDIM72
 10
0.0
 20
0.0
 30
0.0
  0
INSERT
  5
   664
  8
0
  6
CONTINUOUS
 62
     5
  2
*UDIM73
 10
0.0
 20
0.0
 30
0.0
  0
TEXT
  5
   665
  8
0
  6
CONTINUOUS
 62
     7
 10
-598.200416476887
 20
-2.30969595243771
 30
0.0
 40
3.00000002980232
  1
X
 50
359.999999948034
 41
0.916666604744064
 72
     1
 11
-597.100416541099
 21
-0.809695938528691
 31
0.0
 73
     2
  0
TEXT
  5
   666
  8
0
  6
CONTINUOUS
 62
     7
 10
-732.883758456868
 20
-2.97618459989865
 30
0.0
 40
3.00000002980232
  1
X
 50
359.999999948034
 41
0.916666604744064
 72
     1
 11
-731.78375852108
 21
-1.47618458598963
 31
0.0
 73
     2
  0
TEXT
  5
   667
  8
0
  6
CONTINUOUS
 62
     7
 10
-662.783912570637
 20
86.0757868356482
 30
0.0
 40
3.00000002980232
  1
Y
 50
359.999999948034
 41
0.916666604744064
 72
     1
 11
-661.683912634849
 21
87.5757868495572
 31
0.0
 73
     2
  0
INSERT
  5
   668
  8
0
  6
CONTINUOUS
 62
     7
  2
*UDIM74
 10
0.0
 20
0.0
 30
0.0
  0
INSERT
  5
   669
  8
0
  6
CONTINUOUS
 62
     7
  2
*UDIM75
 10
0.0
 20
0.0
 30
0.0
  0
INSERT
  5
   66A
  8
0
  6
CONTINUOUS
 62
     7
  2
*UDIM76
 10
0.0
 20
0.0
 30
0.0
  0
INSERT
  5
   66B
  8
0
  6
CONTINUOUS
 62
     7
  2
*UDIM77
 10
0.0
 20
0.0
 30
0.0
  0
LINE
  5
   66C
  8
0
  6
CONTINUOUS
 62
     7
 10
-418.345916748047
 20
27.7306518554688
 30
0.0
 11
-390.345916748047
 21
27.7306518554688
 31
0.0
  0
LINE
  5
   66D
  8
0
  6
CONTINUOUS
 62
     7
 10
-418.345916748047
 20
55.7306518554688
 30
0.0
 11
-390.345916748047
 21
55.7306518554688
 31
0.0
  0
LINE
  5
   66E
  8
0
  6
CONTINUOUS
 62
     7
 10
-418.345916748047
 20
55.7306518554688
 30
0.0
 11
-418.345916748047
 21
27.7306518554688
 31
0.0
  0
LINE
  5
   66F
  8
0
  6
CONTINUOUS
 62
     7
 10
-390.345916748047
 20
55.7306518554688
 30
0.0
 11
-390.345916748047
 21
27.7306518554688
 31
0.0
  0
CIRCLE
  5
   670
  8
0
  6
CONTINUOUS
 62
     7
 10
-414.345916748047
 20
59.4806518554688
 30
0.0
 40
0.875
  0
CIRCLE
  5
   671
  8
0
  6
CONTINUOUS
 62
     7
 10
-394.345916748047
 20
59.4806518554688
 30
0.0
 40
0.875
  0
CIRCLE
  5
   672
  8
0
  6
CONTINUOUS
 62
     7
 10
-414.345916748047
 20
23.9806518554688
 30
0.0
 40
0.875
  0
CIRCLE
  5
   673
  8
0
  6
CONTINUOUS
 62
     7
 10
-394.345916748047
 20
23.9806518554688
 30
0.0
 40
0.875
  0
LINE
  5
   674
  8
0
  6
DASHDOT
 62
     7
 10
-414.345916748047
 20
61.1056518554688
 30
0.0
 11
-414.345916748047
 21
57.8556518554688
 31
0.0
  0
LINE
  5
   675
  8
0
  6
DASHDOT
 62
     7
 10
-415.970916748047
 20
59.4806518554688
 30
0.0
 11
-412.720916748047
 21
59.4806518554688
 31
0.0
  0
LINE
  5
   676
  8
0
  6
DASHDOT
 62
     7
 10
-394.345916748047
 20
61.1056518554688
 30
0.0
 11
-394.345916748047
 21
57.8556518554688
 31
0.0
  0
LINE
  5
   677
  8
0
  6
DASHDOT
 62
     7
 10
-395.970916748047
 20
59.4806518554688
 30
0.0
 11
-392.720916748047
 21
59.4806518554688
 31
0.0
  0
LINE
  5
   678
  8
0
  6
DASHDOT
 62
     7
 10
-394.345916748047
 20
25.6056518554688
 30
0.0
 11
-394.345916748047
 21
22.3556518554688
 31
0.0
  0
LINE
  5
   679
  8
0
  6
DASHDOT
 62
     7
 10
-395.970916748047
 20
23.9806518554688
 30
0.0
 11
-392.720916748047
 21
23.9806518554688
 31
0.0
  0
LINE
  5
   67A
  8
0
  6
DASHDOT
 62
     7
 10
-414.345916748047
 20
25.6056518554688
 30
0.0
 11
-414.345916748047
 21
22.3556518554688
 31
0.0
  0
LINE
  5
   67B
  8
0
  6
DASHDOT
 62
     7
 10
-415.970916748047
 20
23.9806518554688
 30
0.0
 11
-412.720916748047
 21
23.9806518554688
 31
0.0
  0
LINE
  5
   67C
  8
0
  6
DASHDOT
 62
     7
 10
-404.345916748047
 20
69.1007641408058
 30
0.0
 11
-404.345916748047
 21
12.6074010106477
 31
0.0
  0
LINE
  5
   67D
  8
0
  6
CONTINUOUS
 62
     7
 10
-421.166493291713
 20
62.1318375106748
 30
0.0
 11
-387.211933068405
 21
62.1318375106748
 31
0.0
  0
LINE
  5
   67E
  8
0
  6
CONTINUOUS
 62
     7
 10
-421.166493291713
 20
20.5667724097295
 30
0.0
 11
-387.211933068405
 21
20.5667724097295
 31
0.0
  0
LINE
  5
   67F
  8
0
  6
CONTINUOUS
 62
     7
 10
-387.211933068405
 20
62.1318375106748
 30
0.0
 11
-387.211933068405
 21
20.5667724097295
 31
0.0
  0
LINE
  5
   680
  8
0
  6
CONTINUOUS
 62
     7
 10
-421.166493291713
 20
62.1318375106748
 30
0.0
 11
-421.166493291713
 21
20.5667724097295
 31
0.0
  0
LINE
  5
   681
  8
0
  6
DASHDOT
 62
     7
 10
-427.596245510102
 20
41.7306518554688
 30
0.0
 11
-378.379910274605
 21
41.7306518554688
 31
0.0
  0
TEXT
  5
   682
  8
0
  6
CONTINUOUS
 62
     7
 10
-438.898835243322
 20
30.803072437053
 30
0.0
 40
3.00000002980232
  1
=      =
 50
449.999999844103
 41
0.916666604744064
 72
     2
 11
-438.898835185093
 21
52.2530711967797
 31
0.0
  0
TEXT
  5
   683
  8
0
  6
CONTINUOUS
 62
     7
 10
-430.028448995726
 20
31.6931527305693
 30
0.0
 40
3.00000002980232
  1
=     =
 50
449.999999844103
 41
0.916666604744064
 72
     2
 11
-430.028448944962
 21
50.393151648745
 31
0.0
  0
INSERT
  5
   684
  8
0
  6
CONTINUOUS
 62
     7
  2
*UDIM78
 10
0.0
 20
0.0
 30
0.0
  0
TEXT
  5
   685
  8
0
  6
CONTINUOUS
 62
     7
 10
-411.246458741131
 20
74.9549977217458
 30
0.0
 40
3.00000002980232
  1
=   =
 50
359.999999844103
 41
0.916666604744064
 72
     2
 11
-398.046459506058
 21
74.9549976858961
 31
0.0
  0
TEXT
  5
   686
  8
0
  6
CONTINUOUS
 62
     7
 10
-411.305000992718
 20
68.3982560072683
 30
0.0
 40
3.00000002980232
  1
=   =
 50
359.999999844103
 41
0.916666604744064
 72
     2
 11
-398.105001757644
 21
68.3982559714186
 31
0.0
  0
INSERT
  5
   687
  8
0
  6
CONTINUOUS
 62
     7
  2
*UDIM79
 10
0.0
 20
0.0
 30
0.0
  0
INSERT
  5
   688
  8
0
  6
CONTINUOUS
 62
     7
  2
*UDIM80
 10
0.0
 20
0.0
 30
0.0
  0
INSERT
  5
   689
  8
0
  6
CONTINUOUS
 62
     7
  2
*UDIM81
 10
0.0
 20
0.0
 30
0.0
  0
INSERT
  5
   68A
  8
0
  6
CONTINUOUS
 62
     7
  2
*UDIM82
 10
0.0
 20
0.0
 30
0.0
  0
TEXT
  5
   68B
  8
0
  6
CONTINUOUS
 62
     7
 10
-405.534196744465
 20
5.7555579447797
 30
0.0
 40
3.00000002980232
  1
Y
 50
359.999999844103
 41
0.916666604744064
 72
     2
 11
-403.334196875595
 21
5.75555793880475
 31
0.0
  0
TEXT
  5
   68C
  8
0
  6
CONTINUOUS
 62
     7
 10
-404.597519288563
 20
84.4950141215375
 30
0.0
 40
3.00000002980232
  1
Y
 50
359.999999844103
 41
0.916666604744064
 72
     2
 11
-402.397519419693
 21
84.4950141155626
 31
0.0
  0
TEXT
  5
   68D
  8
0
  6
CONTINUOUS
 62
     7
 10
-376.694717298054
 20
39.783633401399
 30
0.0
 40
3.00000002980232
  1
X
 50
359.999999844103
 41
0.916666604744064
 72
     2
 11
-374.494717429184
 21
39.783633395424
 31
0.0
  0
TEXT
  5
   68E
  8
0
  6
CONTINUOUS
 62
     7
 10
-451.520713696979
 20
40.4989871287397
 30
0.0
 40
3.00000002980232
  1
X
 50
359.999999844103
 41
0.916666604744064
 72
     2
 11
-449.32071382811
 21
40.4989871227647
 31
0.0
  0
ENDSEC
  0
EOF
