  0
SECTION
  2
HEADER
  9
$ACADVER
  1
AC1009
  9
$DWGCODEPAGE
  3
iso8859-1
  9
$INSBASE
 10
0.0
 20
0.0
 30
0.0
  9
$EXTMIN
 10
1.0E20
 20
1.0E20
  9
$EXTMAX
 10
-1.0E20
 20
-1.0E20
  9
$LIMMIN
 10
0.0
 20
0.0
  9
$LIMMAX
 10
12.0
 20
9.0
  9
$ORTHOMODE
 70
     0
  9
$REGENMODE
 70
     1
  9
$FILLMODE
 70
     1
  9
$QTEXTMODE
 70
     0
  9
$MIRRTEXT
 70
     1
  9
$DRAGMODE
 70
     2
  9
$LTSCALE
 40
15.0
  9
$OSMODE
 70
     0
  9
$ATTMODE
 70
     1
  9
$TEXTSIZE
 40
0.2
  9
$TRACEWID
 40
0.05
  9
$TEXTSTYLE
  7
STANDARD
  9
$CLAYER
  8
0
  9
$CELTYPE
  6
DASHED
  9
$CECOLOR
 62
   256
  9
$DIMSCALE
 40
1.0
  9
$DIMASZ
 40
0.18
  9
$DIMEXO
 40
0.0625
  9
$DIMDLI
 40
0.38
  9
$DIMRND
 40
0.0
  9
$DIMDLE
 40
0.0
  9
$DIMEXE
 40
0.18
  9
$DIMTP
 40
0.0
  9
$DIMTM
 40
0.0
  9
$DIMTXT
 40
0.18
  9
$DIMCEN
 40
0.09
  9
$DIMTSZ
 40
0.0
  9
$DIMTOL
 70
     0
  9
$DIMLIM
 70
     0
  9
$DIMTIH
 70
     1
  9
$DIMTOH
 70
     1
  9
$DIMSE1
 70
     0
  9
$DIMSE2
 70
     0
  9
$DIMTAD
 70
     0
  9
$DIMZIN
 70
     0
  9
$DIMBLK
  1

  9
$DIMASO
 70
     1
  9
$DIMSHO
 70
     1
  9
$DIMPOST
  1

  9
$DIMAPOST
  1

  9
$DIMALT
 70
     0
  9
$DIMALTD
 70
     2
  9
$DIMALTF
 40
25.4
  9
$DIMLFAC
 40
1.0
  9
$DIMTOFL
 70
     0
  9
$DIMTVP
 40
0.0
  9
$DIMTIX
 70
     0
  9
$DIMSOXD
 70
     0
  9
$DIMSAH
 70
     0
  9
$DIMBLK1
  1

  9
$DIMBLK2
  1

  9
$DIMSTYLE
  2
STANDARD
  9
$DIMCLRD
 70
     0
  9
$DIMCLRE
 70
     0
  9
$DIMCLRT
 70
     0
  9
$DIMTFAC
 40
1.0
  9
$DIMGAP
 40
0.09
  9
$LUNITS
 70
     2
  9
$LUPREC
 70
     4
  9
$AXISMODE
 70
     0
  9
$AXISUNIT
 10
0.0
 20
0.0
  9
$SKETCHINC
 40
0.1
  9
$FILLETRAD
 40
0.0
  9
$AUNITS
 70
     0
  9
$AUPREC
 70
     0
  9
$MENU
  1
acad
  9
$ELEVATION
 40
0.0
  9
$PELEVATION
 40
0.0
  9
$THICKNESS
 40
0.0
  9
$LIMCHECK
 70
     0
  9
$BLIPMODE
 70
     1
  9
$CHAMFERA
 40
0.0
  9
$CHAMFERB
 40
0.0
  9
$SKPOLY
 70
     0
  9
$TDCREATE
 40
0.000000000
  9
$TDUPDATE
 40
0.000000000
  9
$TDINDWG
 40
0.0
  9
$TDUSRTIMER
 40
0.0
  9
$USRTIMER
 70
     1
  9
$ANGBASE
 50
0.0
  9
$ANGDIR
 70
     0
  9
$PDMODE
 70
     0
  9
$PDSIZE
 40
0.0
  9
$PLINEWID
 40
0.0
  9
$COORDS
 70
     1
  9
$SPLFRAME
 70
     0
  9
$SPLINETYPE
 70
     6
  9
$SPLINESEGS
 70
     8
  9
$ATTDIA
 70
     0
  9
$ATTREQ
 70
     1
  9
$HANDLING
 70
     1
  9
$HANDSEED
  5
   66E
  9
$SURFTAB1
 70
     6
  9
$SURFTAB2
 70
     6
  9
$SURFTYPE
 70
     6
  9
$SURFU
 70
     6
  9
$SURFV
 70
     6
  9
$UCSNAME
  2

  9
$UCSORG
 10
0.0
 20
0.0
 30
0.0
  9
$UCSXDIR
 10
1.0
 20
0.0
 30
0.0
  9
$UCSYDIR
 10
0.0
 20
1.0
 30
0.0
  9
$PUCSNAME
  2

  9
$PUCSORG
 10
0.0
 20
0.0
 30
0.0
  9
$PUCSXDIR
 10
1.0
 20
0.0
 30
0.0
  9
$PUCSYDIR
 10
0.0
 20
1.0
 30
0.0
  9
$USERI1
 70
     0
  9
$USERI2
 70
     0
  9
$USERI3
 70
     0
  9
$USERI4
 70
     0
  9
$USERI5
 70
     0
  9
$USERR1
 40
0.0
  9
$USERR2
 40
0.0
  9
$USERR3
 40
0.0
  9
$USERR4
 40
0.0
  9
$USERR5
 40
0.0
  9
$WORLDVIEW
 70
     1
  9
$SHADEDGE
 70
     3
  9
$SHADEDIF
 70
    70
  9
$TILEMODE
 70
     1
  9
$MAXACTVP
 70
    16
  9
$PINSBASE
 10
0.0
 20
0.0
 30
0.0
  9
$PLIMCHECK
 70
     0
  9
$PEXTMIN
 10
1.0E20
 20
1.0E20
 30
1.0E20
  9
$PEXTMAX
 10
-1.0E20
 20
-1.0E20
 30
-1.0E20
  9
$PLIMMIN
 10
0.0
 20
0.0
  9
$PLIMMAX
 10
12.0
 20
9.0
  9
$UNITMODE
 70
     0
  9
$VISRETAIN
 70
     0
  0
ENDSEC
  0
SECTION
  2
TABLES
  0
TABLE
  2
VPORT
 70
     1
  0
VPORT
  2
*ACTIVE
 70
     0
 10
0.0
 20
0.0
 11
1.0
 21
1.0
 12
6.801242
 22
4.5
 13
0.0
 23
0.0
 14
1.0
 24
1.0
 15
0.0
 25
0.0
 16
0.0
 26
0.0
 36
1.0
 17
0.0
 27
0.0
 37
0.0
 40
9.0
 41
1.511387
 42
50.0
 43
0.0
 44
0.0
 50
0.0
 51
0.0
 71
     0
 72
   100
 73
     1
 74
     1
 75
     0
 76
     0
 77
     0
 78
     0
  0
ENDTAB
  0
TABLE
  2
LTYPE
 70
    41
  0
LTYPE
  2
BYBLOCK
 70
     0
  3

 72
    65
 73
     0
 40
0.0
  0
LTYPE
  2
BYLAYER
 70
     0
  3

 72
    65
 73
     0
 40
0.0
  0
LTYPE
  2
CONTINUOUS
 70
     0
  3
Solid line
 72
    65
 73
     0
 40
0.0
  0
LTYPE
  2
BORDER
 70
    64
  3
__ __ . __ __ . __ __ . __ __ . __ __ . __ __ .
 72
    65
 73
     6
 40
1.75
 49
0.5
 49
-0.25
 49
0.5
 49
-0.25
 49
0.0
 49
-0.25
  0
LTYPE
  2
BORDER2
 70
    64
  3
__.__.__.__.__.__.__.__.__.__.__.__.__.__.__.__
 72
    65
 73
     6
 40
0.875
 49
0.25
 49
-0.125
 49
0.25
 49
-0.125
 49
0.0
 49
-0.125
  0
LTYPE
  2
BORDERX2
 70
    64
  3
____  ____  .  ____  ____  .  ____  ____  .  __
 72
    65
 73
     6
 40
3.5
 49
1.0
 49
-0.5
 49
1.0
 49
-0.5
 49
0.0
 49
-0.5
  0
LTYPE
  2
CENTER
 70
    64
  3
____ _ ____ _ ____ _ ____ _ ____ _ ____ _ ____
 72
    65
 73
     4
 40
2.0
 49
1.25
 49
-0.25
 49
0.25
 49
-0.25
  0
LTYPE
  2
CENTER2
 70
    64
  3
___ _ ___ _ ___ _ ___ _ ___ _ ___ _ ___ _ ___ _
 72
    65
 73
     4
 40
1.125
 49
0.75
 49
-0.125
 49
0.125
 49
-0.125
  0
LTYPE
  2
CENTERX2
 70
    64
  3
________  __  ________  __  ________  __  _____
 72
    65
 73
     4
 40
4.0
 49
2.5
 49
-0.5
 49
0.5
 49
-0.5
  0
LTYPE
  2
DASHDOT
 70
    64
  3
__ . __ . __ . __ . __ . __ . __ . __ . __ . __
 72
    65
 73
     4
 40
1.0
 49
0.5
 49
-0.25
 49
0.0
 49
-0.25
  0
LTYPE
  2
DASHDOT2
 70
    64
  3
_._._._._._._._._._._._._._._._._._._._._._._._
 72
    65
 73
     4
 40
0.5
 49
0.25
 49
-0.125
 49
0.0
 49
-0.125
  0
LTYPE
  2
DASHDOTX2
 70
    64
  3
____  .  ____  .  ____  .  ____  .  ____  .  __
 72
    65
 73
     4
 40
2.0
 49
1.0
 49
-0.5
 49
0.0
 49
-0.5
  0
LTYPE
  2
DASHED
 70
    64
  3
__ __ __ __ __ __ __ __ __ __ __ __ __ __ __ __
 72
    65
 73
     2
 40
0.75
 49
0.5
 49
-0.25
  0
LTYPE
  2
DASHED2
 70
    64
  3
_ _ _ _ _ _ _ _ _ _ _ _ _ _ _ _ _ _ _ _ _ _ _ _
 72
    65
 73
     2
 40
0.375
 49
0.25
 49
-0.125
  0
LTYPE
  2
DASHEDX2
 70
    64
  3
____  ____  ____  ____  ____  ____  ____  ____
 72
    65
 73
     2
 40
1.5
 49
1.0
 49
-0.5
  0
LTYPE
  2
DIVIDE
 70
    64
  3
____ . . ____ . . ____ . . ____ . . ____ . . __
 72
    65
 73
     6
 40
1.25
 49
0.5
 49
-0.25
 49
0.0
 49
-0.25
 49
0.0
 49
-0.25
  0
LTYPE
  2
DIVIDE2
 70
    64
  3
__..__..__..__..__..__..__..__..__..__..__..__.
 72
    65
 73
     6
 40
0.625
 49
0.25
 49
-0.125
 49
0.0
 49
-0.125
 49
0.0
 49
-0.125
  0
LTYPE
  2
DIVIDEX2
 70
    64
  3
________  .  .  ________  .  .  ________  .  .
 72
    65
 73
     6
 40
2.5
 49
1.0
 49
-0.5
 49
0.0
 49
-0.5
 49
0.0
 49
-0.5
  0
LTYPE
  2
DOT
 70
    64
  3
. . . . . . . . . . . . . . . . . . . . . . . .
 72
    65
 73
     2
 40
0.25
 49
0.0
 49
-0.25
  0
LTYPE
  2
DOT2
 70
    64
  3
...............................................
 72
    65
 73
     2
 40
0.125
 49
0.0
 49
-0.125
  0
LTYPE
  2
DOTX2
 70
    64
  3
.  .  .  .  .  .  .  .  .  .  .  .  .  .  .  .
 72
    65
 73
     2
 40
0.5
 49
0.0
 49
-0.5
  0
LTYPE
  2
HIDDEN
 70
    64
  3
__ __ __ __ __ __ __ __ __ __ __ __ __ __ __ __
 72
    65
 73
     2
 40
0.375
 49
0.25
 49
-0.125
  0
LTYPE
  2
HIDDEN2
 70
    64
  3
_ _ _ _ _ _ _ _ _ _ _ _ _ _ _ _ _ _ _ _ _ _ _ _
 72
    65
 73
     2
 40
0.1875
 49
0.125
 49
-0.0625
  0
LTYPE
  2
HIDDENX2
 70
    64
  3
____ ____ ____ ____ ____ ____ ____ ____ ____ __
 72
    65
 73
     2
 40
0.75
 49
0.5
 49
-0.25
  0
LTYPE
  2
PHANTOM
 70
    64
  3
______  __  __  ______  __  __  ______  __  __
 72
    65
 73
     6
 40
2.5
 49
1.25
 49
-0.25
 49
0.25
 49
-0.25
 49
0.25
 49
-0.25
  0
LTYPE
  2
PHANTOM2
 70
    64
  3
___ _ _ ___ _ _ ___ _ _ ___ _ _ ___ _ _ ___ _ _
 72
    65
 73
     6
 40
1.25
 49
0.625
 49
-0.125
 49
0.125
 49
-0.125
 49
0.125
 49
-0.125
  0
LTYPE
  2
PHANTOMX2
 70
    64
  3
____________    ____    ____    ____________
 72
    65
 73
     6
 40
5.0
 49
2.5
 49
-0.5
 49
0.5
 49
-0.5
 49
0.5
 49
-0.5
  0
LTYPE
  2
ACAD_ISO02W100
 70
    64
  3
__ __ __ __ __ __ __ __ __ __ __ __ __ __ __ __
 72
    65
 73
     2
 40
15.0
 49
12.0
 49
-3.0
  0
LTYPE
  2
ACAD_ISO03W100
 70
    64
  3
__    __    __    __    __    __    __    __
 72
    65
 73
     2
 40
30.0
 49
12.0
 49
-18.0
  0
LTYPE
  2
ACAD_ISO04W100
 70
    64
  3
____ . ____ . ____ . ____ . ____ . ____ . ____
 72
    65
 73
     4
 40
30.5
 49
24.0
 49
-3.0
 49
0.5
 49
-3.0
  0
LTYPE
  2
ACAD_ISO05W100
 70
    64
  3
____ .. ____ .. ____ .. ____ .. ____ .. ____ ..
 72
    65
 73
     6
 40
34.0
 49
24.0
 49
-3.0
 49
0.5
 49
-3.0
 49
0.5
 49
-3.0
  0
LTYPE
  2
ACAD_ISO06W100
 70
    64
  3
____ ... ____ ... ____ ... ____ ... ____ ... __
 72
    65
 73
     8
 40
37.5
 49
24.0
 49
-3.0
 49
0.5
 49
-3.0
 49
0.5
 49
-3.0
 49
0.5
 49
-3.0
  0
LTYPE
  2
ACAD_ISO07W100
 70
    64
  3
. . . . . . . . . . . . . . . . . . . . . . . .
 72
    65
 73
     2
 40
3.5
 49
0.5
 49
-3.0
  0
LTYPE
  2
ACAD_ISO08W100
 70
    64
  3
____ __ ____ __ ____ __ ____ ____ __ __ ____ __
 72
    65
 73
     4
 40
36.0
 49
24.0
 49
-3.0
 49
6.0
 49
-3.0
  0
LTYPE
  2
ACAD_ISO09W100
 70
    64
  3
____ __ __ ____ __ __ ____ __ __ ____ __ __ ___
 72
    65
 73
     6
 40
45.0
 49
24.0
 49
-3.0
 49
6.0
 49
-3.0
 49
6.0
 49
-3.0
  0
LTYPE
  2
ACAD_ISO10W100
 70
    64
  3
__ . __ . __ . __ . __ . __ . __ . __ . __ . __
 72
    65
 73
     4
 40
18.5
 49
12.0
 49
-3.0
 49
0.5
 49
-3.0
  0
LTYPE
  2
ACAD_ISO11W100
 70
    64
  3
__ __ . __ __ . __ __ . __ __ . __ __ . __ __ .
 72
    65
 73
     6
 40
33.5
 49
12.0
 49
-3.0
 49
12.0
 49
-3.0
 49
0.5
 49
-3.0
  0
LTYPE
  2
ACAD_ISO12W100
 70
    64
  3
__ . . __ . . __ . . __ . . __ . . __ . . __ .
 72
    65
 73
     6
 40
22.0
 49
12.0
 49
-3.0
 49
0.5
 49
-3.0
 49
0.5
 49
-3.0
  0
LTYPE
  2
ACAD_ISO13W100
 70
    64
  3
__ __ . . __ __ . . __ __ . . __ __ . . __ __ .
 72
    65
 73
     8
 40
37.0
 49
12.0
 49
-3.0
 49
12.0
 49
-3.0
 49
0.5
 49
-3.0
 49
0.5
 49
-3.0
  0
LTYPE
  2
ACAD_ISO14W100
 70
    64
  3
__ . . . __ . . . __ . . . __ . . . __ . . . __
 72
    65
 73
     8
 40
25.5
 49
12.0
 49
-3.0
 49
0.5
 49
-3.0
 49
0.5
 49
-3.0
 49
0.5
 49
-3.0
  0
LTYPE
  2
ACAD_ISO15W100
 70
    64
  3
__ __ . . . __ __ . . . __ __ . . . __ __ . . .
 72
    65
 73
    10
 40
40.5
 49
12.0
 49
-3.0
 49
12.0
 49
-3.0
 49
0.5
 49
-3.0
 49
0.5
 49
-3.0
 49
0.5
 49
-3.0
  0
ENDTAB
  0
TABLE
  2
STYLE
 70
     4
  0
STYLE
  2
STANDARD
 70
    64
 40
0.0
 41
1.0
 50
0.0
 71
     0
 42
0.2
  3
txt
  4

  0
STYLE
  2
TOLERANCE
 70
    64
 40
0.0
 41
1.0
 50
0.0
 71
     0
 42
0.2
  3
../igesfont/iges1003.shx
  4

  0
STYLE
  2
ROMANS
 70
    64
 40
0.0
 41
1.0
 50
0.0
 71
     0
 42
0.2
  3
romans.shx
  4

  0
STYLE
  2
ROMANC
 70
    64
 40
0.0
 41
1.0
 50
0.0
 71
     0
 42
0.2
  3
romanc.shx
  4

  0
ENDTAB
  0
TABLE
  2
DIMSTYLE
 70
     2
  0
DIMSTYLE
  2
UNNAMED
 70
     0
  3

  4

  5

  6

  7

 40
1.0
 41
0.18
 42
0.0625
 43
0.38
 44
0.18
 45
0.0
 46
0.0
 47
0.0
 48
0.0
140
0.18
141
0.09
142
0.0
143
25.4
144
1.0
145
0.0
146
1.0
147
0.09
 71
     0
 72
     0
 73
     1
 74
     1
 75
     0
 76
     0
 77
     0
 78
     0
170
     0
171
     2
172
     0
173
     0
174
     0
175
     0
176
     0
177
     0
178
     0
  0
DIMSTYLE
  2
STANDARD
 70
     0
  3

  4

  5

  6

  7

 40
1.0
 41
0.18
 42
0.0625
 43
0.38
 44
0.18
 45
0.0
 46
0.0
 47
0.0
 48
0.0
140
0.18
141
0.09
142
0.0
143
25.4
144
1.0
145
0.0
146
1.0
147
0.09
 71
     0
 72
     0
 73
     1
 74
     1
 75
     0
 76
     0
 77
     0
 78
     0
170
     0
171
     2
172
     0
173
     0
174
     0
175
     0
176
     0
177
     0
178
     0
  0
ENDTAB
  0
TABLE
  2
LAYER
 70
     1
  0
LAYER
  2
0
 70
     0
 62
     7
  6
CONTINUOUS
  0
ENDTAB
  0
ENDSEC
  0
SECTION
  2
BLOCKS
  0
BLOCK
  5
     B
  8
0
  6
CONTINUOUS
 62
     7
  2
*HATCH360
 70
    65
 10
0.0
 20
0.0
 30
0.0
  3
*HATCH360
  0
LINE
  5
     C
  8
0
  6
CONTINUOUS
 62
    12
 10
9.5694751739502
 20
-19.7999992370605
 30
0.0
 11
8.22863960266113
 21
-19.7999992370605
 31
0.0
  0
LINE
  5
     D
  8
0
  6
CONTINUOUS
 62
    12
 10
9.41289710998535
 20
-20.6999988555908
 30
0.0
 11
8.38521766662598
 21
-20.6999988555908
 31
0.0
  0
ENDBLK
  5
     E
  8
0
  6
CONTINUOUS
 62
     7
  0
BLOCK
  5
     F
  8
0
  6
CONTINUOUS
 62
     7
  2
*UDIM776
 70
    65
 10
0.0
 20
0.0
 30
0.0
  3
*UDIM776
  0
TEXT
  5
    10
  8
0
  6
CONTINUOUS
 62
     7
 10
-278.309714765433
 20
7.17908991266883
 30
0.0
 40
3.00000002980232
  1
=
 50
449.999999844103
 41
0.933333333333334
 72
     1
 11
-279.809714777348
 21
8.27908992766829
 31
0.0
 73
     2
  0
LINE
  5
    11
  8
0
  6
CONTINUOUS
 62
     3
 10
-291.507411956787
 20
19.5290899276683
 30
0.0
 11
-275.309714762447
 21
19.5290899276683
 31
0.0
  0
LINE
  5
    12
  8
0
  6
CONTINUOUS
 62
     3
 10
-283.510065702271
 20
-2.97091007233171
 30
0.0
 11
-275.309714762447
 21
-2.97091007233171
 31
0.0
  0
LINE
  5
    13
  8
0
  6
CONTINUOUS
 62
     3
 10
-277.309714762447
 20
19.5290899276683
 30
0.0
 11
-277.309714762447
 21
-2.97091007233171
 31
0.0
  0
LINE
  5
    14
  8
0
  6
CONTINUOUS
 62
     3
 10
-276.788770332495
 20
16.5746666504613
 30
0.0
 11
-277.309714762447
 21
19.5290899276683
 31
0.0
  0
LINE
  5
    15
  8
0
  6
CONTINUOUS
 62
     3
 10
-277.309714762447
 20
19.5290899276683
 30
0.0
 11
-277.830659192398
 21
16.5746666504613
 31
0.0
  0
LINE
  5
    16
  8
0
  6
CONTINUOUS
 62
     3
 10
-277.830659192398
 20
-1.64867951247416E-2
 30
0.0
 11
-277.309714762447
 21
-2.97091007233171
 31
0.0
  0
LINE
  5
    17
  8
0
  6
CONTINUOUS
 62
     3
 10
-277.309714762447
 20
-2.97091007233171
 30
0.0
 11
-276.788770332495
 21
-1.64867951247416E-2
 31
0.0
  0
ENDBLK
  5
    18
  8
0
  6
CONTINUOUS
 62
     7
  0
BLOCK
  5
    19
  8
0
  6
CONTINUOUS
 62
     7
  2
*UDIM777
 70
    65
 10
0.0
 20
0.0
 30
0.0
  3
*UDIM777
  0
TEXT
  5
    1A
  8
0
  6
CONTINUOUS
 62
     7
 10
-278.309714765433
 20
-15.3209100873252
 30
0.0
 40
3.00000002980232
  1
=
 50
449.999999844103
 41
0.933333333333334
 72
     1
 11
-279.809714777348
 21
-14.2209100723258
 31
0.0
 73
     2
  0
LINE
  5
    1B
  8
0
  6
CONTINUOUS
 62
     3
 10
-291.507418823241
 20
-25.4709100723198
 30
0.0
 11
-275.309714762447
 21
-25.4709100723198
 31
0.0
  0
LINE
  5
    1C
  8
0
  6
CONTINUOUS
 62
     3
 10
-277.309714762447
 20
-2.97091007233171
 30
0.0
 11
-277.309714762447
 21
-25.4709100723198
 31
0.0
  0
LINE
  5
    1D
  8
0
  6
CONTINUOUS
 62
     3
 10
-276.788770332495
 20
-5.92533334953867
 30
0.0
 11
-277.309714762447
 21
-2.97091007233171
 31
0.0
  0
LINE
  5
    1E
  8
0
  6
CONTINUOUS
 62
     3
 10
-277.309714762447
 20
-2.97091007233171
 30
0.0
 11
-277.830659192398
 21
-5.92533334953867
 31
0.0
  0
LINE
  5
    1F
  8
0
  6
CONTINUOUS
 62
     3
 10
-277.830659192398
 20
-22.5164867951129
 30
0.0
 11
-277.309714762447
 21
-25.4709100723198
 31
0.0
  0
LINE
  5
    20
  8
0
  6
CONTINUOUS
 62
     3
 10
-277.309714762447
 20
-25.4709100723198
 30
0.0
 11
-276.788770332495
 21
-22.5164867951129
 31
0.0
  0
ENDBLK
  5
    21
  8
0
  6
CONTINUOUS
 62
     7
  0
BLOCK
  5
    22
  8
0
  6
CONTINUOUS
 62
     3
  2
*UDIM778
 70
    65
 10
0.0
 20
0.0
 30
0.0
  3
*UDIM778
  0
TEXT
  5
    23
  8
0
  6
CONTINUOUS
 62
     3
 10
-271.279745166974
 20
-30.7459177365905
 30
0.0
 40
3.00000002980232
  1
50
 50
449.999999844103
 41
0.933333333333333
 72
     1
 11
-272.779745175089
 21
-28.2459177076833
 31
0.0
 73
     2
  0
LINE
  5
    24
  8
0
  6
CONTINUOUS
 62
     3
 10
-284.510065702271
 20
-2.97091007233171
 30
0.0
 11
-268.279745160188
 21
-2.97091007233171
 31
0.0
  0
LINE
  5
    25
  8
0
  6
CONTINUOUS
 62
     3
 10
-293.507453384399
 20
-52.9709253311139
 30
0.0
 11
-268.279745160188
 21
-52.9709253311139
 31
0.0
  0
LINE
  5
    26
  8
0
  6
CONTINUOUS
 62
     3
 10
-270.279745160188
 20
-2.97091007233171
 30
0.0
 11
-270.279745160188
 21
-52.9709253311139
 31
0.0
  0
LINE
  5
    27
  8
0
  6
CONTINUOUS
 62
     3
 10
-269.758800730236
 20
-5.92533334953867
 30
0.0
 11
-270.279745160188
 21
-2.97091007233171
 31
0.0
  0
LINE
  5
    28
  8
0
  6
CONTINUOUS
 62
     3
 10
-270.279745160188
 20
-2.97091007233171
 30
0.0
 11
-270.800689590139
 21
-5.92533334953867
 31
0.0
  0
LINE
  5
    29
  8
0
  6
CONTINUOUS
 62
     3
 10
-270.800689590139
 20
-50.0165020539069
 30
0.0
 11
-270.279745160188
 21
-52.9709253311139
 31
0.0
  0
LINE
  5
    2A
  8
0
  6
CONTINUOUS
 62
     3
 10
-270.279745160188
 20
-52.9709253311139
 30
0.0
 11
-269.758800730236
 21
-50.0165020539069
 31
0.0
  0
ENDBLK
  5
    2B
  8
0
  6
CONTINUOUS
 62
     3
  0
BLOCK
  5
    2C
  8
0
  6
CONTINUOUS
 62
     3
  2
*UDIM779
 70
    65
 10
0.0
 20
0.0
 30
0.0
  3
*UDIM779
  0
TEXT
  5
    2D
  8
0
  6
CONTINUOUS
 62
     3
 10
-317.507414104786
 20
83.7082029519608
 30
0.0
 40
3.00000002980232
  1
45
 50
359.999999844103
 41
0.933333333333333
 72
     1
 11
-315.007414075877
 21
85.2082029600723
 31
0.0
 73
     2
  0
LINE
  5
    2E
  8
0
  6
CONTINUOUS
 62
     3
 10
-337.507385975665
 20
74.8013334946528
 30
0.0
 11
-337.507385975665
 21
84.7082029451711
 31
0.0
  0
LINE
  5
    2F
  8
0
  6
CONTINUOUS
 62
     3
 10
-292.507435352903
 20
71.0290592575102
 30
0.0
 11
-292.507443344529
 21
84.7082029451708
 31
0.0
  0
LINE
  5
    30
  8
0
  6
CONTINUOUS
 62
     3
 10
-337.507385975665
 20
82.7082029451711
 30
0.0
 11
-292.507442176089
 21
82.7082029451711
 31
0.0
  0
LINE
  5
    31
  8
0
  6
CONTINUOUS
 62
     3
 10
-334.609608502454
 20
83.4846601015897
 30
0.0
 11
-337.507385975665
 21
82.7082029451711
 31
0.0
  0
LINE
  5
    32
  8
0
  6
CONTINUOUS
 62
     3
 10
-337.507385975665
 20
82.7082029451711
 30
0.0
 11
-334.609608502454
 21
81.9317457887526
 31
0.0
  0
LINE
  5
    33
  8
0
  6
CONTINUOUS
 62
     3
 10
-295.4052196493
 20
81.9317457887526
 30
0.0
 11
-292.507442176089
 21
82.7082029451711
 31
0.0
  0
LINE
  5
    34
  8
0
  6
CONTINUOUS
 62
     3
 10
-292.507442176089
 20
82.7082029451711
 30
0.0
 11
-295.4052196493
 21
83.4846601015897
 31
0.0
  0
ENDBLK
  5
    35
  8
0
  6
CONTINUOUS
 62
     3
  0
BLOCK
  5
    36
  8
0
  6
CONTINUOUS
 62
     3
  2
*UDIM780
 70
    65
 10
0.0
 20
0.0
 30
0.0
  3
*UDIM780
  0
TEXT
  5
    37
  8
0
  6
CONTINUOUS
 62
     3
 10
-356.40741314405
 20
94.4912999608543
 30
0.0
 40
3.00000002980232
  1
120
 50
359.999999844103
 41
0.933333333333333
 72
     1
 11
-352.507413101233
 21
95.9912999651635
 31
0.0
 73
     2
  0
LINE
  5
    38
  8
0
  6
CONTINUOUS
 62
     3
 10
-412.507396579184
 20
71.0290592575103
 30
0.0
 11
-412.507391806513
 21
95.4912999502623
 31
0.0
  0
LINE
  5
    39
  8
0
  6
CONTINUOUS
 62
     3
 10
-292.507434736165
 20
71.0290592575104
 30
0.0
 11
-292.507433940711
 21
95.4912999502623
 31
0.0
  0
LINE
  5
    3A
  8
0
  6
CONTINUOUS
 62
     3
 10
-412.50739219672
 20
93.4912999502624
 30
0.0
 11
-292.507434005746
 21
93.4912999502624
 31
0.0
  0
LINE
  5
    3B
  8
0
  6
CONTINUOUS
 62
     3
 10
-409.60961472351
 20
94.2677571066809
 30
0.0
 11
-412.50739219672
 21
93.4912999502624
 31
0.0
  0
LINE
  5
    3C
  8
0
  6
CONTINUOUS
 62
     3
 10
-412.50739219672
 20
93.4912999502624
 30
0.0
 11
-409.60961472351
 21
92.7148427938438
 31
0.0
  0
LINE
  5
    3D
  8
0
  6
CONTINUOUS
 62
     3
 10
-295.405211478957
 20
92.7148427938438
 30
0.0
 11
-292.507434005746
 21
93.4912999502624
 31
0.0
  0
LINE
  5
    3E
  8
0
  6
CONTINUOUS
 62
     3
 10
-292.507434005746
 20
93.4912999502624
 30
0.0
 11
-295.405211478957
 21
94.2677571066809
 31
0.0
  0
ENDBLK
  5
    3F
  8
0
  6
CONTINUOUS
 62
     3
  0
BLOCK
  5
    40
  8
0
  6
CONTINUOUS
 62
     3
  2
*UDIM781
 70
    65
 10
0.0
 20
0.0
 30
0.0
  3
*UDIM781
  0
TEXT
  5
    41
  8
0
  6
CONTINUOUS
 62
     3
 10
-356.407507367036
 20
105.007677252039
 30
0.0
 40
3.00000002980232
  1
133
 50
359.999999844103
 41
0.933333333333333
 72
     1
 11
-352.507507324219
 21
106.507677256348
 31
0.0
 73
     2
  0
LINE
  5
    42
  8
0
  6
CONTINUOUS
 62
     3
 10
-419.007507324219
 20
44.7795257568359
 30
0.0
 11
-419.007507324219
 21
106.007677241447
 31
0.0
  0
LINE
  5
    43
  8
0
  6
CONTINUOUS
 62
     3
 10
-286.007507324219
 20
44.7795257568359
 30
0.0
 11
-286.007507324219
 21
106.007677241447
 31
0.0
  0
LINE
  5
    44
  8
0
  6
CONTINUOUS
 62
     3
 10
-419.007507324219
 20
104.007677241447
 30
0.0
 11
-286.007507324219
 21
104.007677241447
 31
0.0
  0
LINE
  5
    45
  8
0
  6
CONTINUOUS
 62
     3
 10
-416.109729851008
 20
104.784134397865
 30
0.0
 11
-419.007507324219
 21
104.007677241447
 31
0.0
  0
LINE
  5
    46
  8
0
  6
CONTINUOUS
 62
     3
 10
-419.007507324219
 20
104.007677241447
 30
0.0
 11
-416.109729851008
 21
103.231220085028
 31
0.0
  0
LINE
  5
    47
  8
0
  6
CONTINUOUS
 62
     3
 10
-288.905284797429
 20
103.231220085028
 30
0.0
 11
-286.007507324219
 21
104.007677241447
 31
0.0
  0
LINE
  5
    48
  8
0
  6
CONTINUOUS
 62
     3
 10
-286.007507324219
 20
104.007677241447
 30
0.0
 11
-288.905284797429
 21
104.784134397865
 31
0.0
  0
ENDBLK
  5
    49
  8
0
  6
CONTINUOUS
 62
     3
  0
BLOCK
  5
    4A
  8
0
  6
CONTINUOUS
 62
     3
  2
*UDIM782
 70
    65
 10
0.0
 20
0.0
 30
0.0
  3
*UDIM782
  0
TEXT
  5
    4B
  8
0
  6
CONTINUOUS
 62
     3
 10
-428.949198902195
 20
-5.47047427207128
 30
0.0
 40
3.00000002980232
  1
96
 50
449.999999844103
 41
0.933333333333333
 72
     1
 11
-430.44919891031
 21
-2.97047424316406
 31
0.0
 73
     2
  0
LINE
  5
    4C
  8
0
  6
CONTINUOUS
 62
     3
 10
-418.757507324219
 20
45.0295257568359
 30
0.0
 11
-429.949198895409
 21
45.0295257568359
 31
0.0
  0
LINE
  5
    4D
  8
0
  6
CONTINUOUS
 62
     3
 10
-418.757507324219
 20
-50.9704742431641
 30
0.0
 11
-429.949198895409
 21
-50.9704742431641
 31
0.0
  0
LINE
  5
    4E
  8
0
  6
CONTINUOUS
 62
     3
 10
-427.949198895409
 20
45.0295257568359
 30
0.0
 11
-427.949198895409
 21
-50.9704742431641
 31
0.0
  0
LINE
  5
    4F
  8
0
  6
CONTINUOUS
 62
     3
 10
-427.17274173899
 20
42.1317482836254
 30
0.0
 11
-427.949198895409
 21
45.0295257568359
 31
0.0
  0
LINE
  5
    50
  8
0
  6
CONTINUOUS
 62
     3
 10
-427.949198895409
 20
45.0295257568359
 30
0.0
 11
-428.725656051827
 21
42.1317482836254
 31
0.0
  0
LINE
  5
    51
  8
0
  6
CONTINUOUS
 62
     3
 10
-428.725656051827
 20
-48.0726967699535
 30
0.0
 11
-427.949198895409
 21
-50.9704742431641
 31
0.0
  0
LINE
  5
    52
  8
0
  6
CONTINUOUS
 62
     3
 10
-427.949198895409
 20
-50.9704742431641
 30
0.0
 11
-427.17274173899
 21
-48.0726967699535
 31
0.0
  0
ENDBLK
  5
    53
  8
0
  6
CONTINUOUS
 62
     3
  0
BLOCK
  5
    54
  8
0
  6
CONTINUOUS
 62
     3
  2
*UDIM783
 70
    65
 10
0.0
 20
0.0
 30
0.0
  3
*UDIM783
  0
TEXT
  5
    55
  8
0
  6
CONTINUOUS
 62
     3
 10
-436.226836814025
 20
4.85406699071673
 30
0.0
 40
3.00000002980232
  1
124
 50
449.999999844103
 41
0.933333333333333
 72
     1
 11
-437.726836818339
 21
8.75406703353169
 31
0.0
 73
     2
  0
LINE
  5
    56
  8
0
  6
CONTINUOUS
 62
     3
 10
-411.507396774288
 20
71.0290594100982
 30
0.0
 11
-437.226836803438
 21
71.0290594100982
 31
0.0
  0
LINE
  5
    57
  8
0
  6
CONTINUOUS
 62
     3
 10
-411.507378158571
 20
-52.9709253311139
 30
0.0
 11
-437.226836803438
 21
-52.9709253311139
 31
0.0
  0
LINE
  5
    58
  8
0
  6
CONTINUOUS
 62
     3
 10
-435.226836803438
 20
71.0290594100982
 30
0.0
 11
-435.226836803438
 21
-52.9709253311139
 31
0.0
  0
LINE
  5
    59
  8
0
  6
CONTINUOUS
 62
     3
 10
-434.705892373487
 20
68.0746361328912
 30
0.0
 11
-435.226836803438
 21
71.0290594100982
 31
0.0
  0
LINE
  5
    5A
  8
0
  6
CONTINUOUS
 62
     3
 10
-435.226836803438
 20
71.0290594100982
 30
0.0
 11
-435.74778123339
 21
68.0746361328912
 31
0.0
  0
LINE
  5
    5B
  8
0
  6
CONTINUOUS
 62
     3
 10
-435.74778123339
 20
-50.0165020539069
 30
0.0
 11
-435.226836803438
 21
-52.9709253311139
 31
0.0
  0
LINE
  5
    5C
  8
0
  6
CONTINUOUS
 62
     3
 10
-435.226836803438
 20
-52.9709253311139
 30
0.0
 11
-434.705892373487
 21
-50.0165020539069
 31
0.0
  0
ENDBLK
  5
    5D
  8
0
  6
CONTINUOUS
 62
     3
  0
BLOCK
  5
    5E
  8
0
  6
CONTINUOUS
 62
     7
  2
*UDIM784
 70
    65
 10
0.0
 20
0.0
 30
0.0
  3
*UDIM784
  0
TEXT
  5
    5F
  8
0
  6
CONTINUOUS
 62
     7
 10
-385.282431061893
 20
-60.3863153389745
 30
0.0
 40
3.00000002980232
  1
30
 50
359.999999844103
 41
0.933333333333333
 72
     1
 11
-382.782431032983
 21
-58.886315330863
 31
0.0
 73
     2
  0
LINE
  5
    60
  8
0
  6
CONTINUOUS
 62
     3
 10
-397.507415771484
 20
-55.6709489631413
 30
0.0
 11
-397.507415771484
 21
-63.3863153457642
 31
0.0
  0
LINE
  5
    61
  8
0
  6
CONTINUOUS
 62
     3
 10
-367.507445567306
 20
-56.1709489631413
 30
0.0
 11
-367.507445567306
 21
-63.3863153457642
 31
0.0
  0
LINE
  5
    62
  8
0
  6
CONTINUOUS
 62
     3
 10
-397.507415771484
 20
-61.3863153457642
 30
0.0
 11
-367.507445567306
 21
-61.3863153457642
 31
0.0
  0
LINE
  5
    63
  8
0
  6
CONTINUOUS
 62
     3
 10
-394.552992494277
 20
-60.8653709158125
 30
0.0
 11
-397.507415771484
 21
-61.3863153457642
 31
0.0
  0
LINE
  5
    64
  8
0
  6
CONTINUOUS
 62
     3
 10
-397.507415771484
 20
-61.3863153457642
 30
0.0
 11
-394.552992494277
 21
-61.9072597757158
 31
0.0
  0
LINE
  5
    65
  8
0
  6
CONTINUOUS
 62
     3
 10
-370.461868844513
 20
-61.9072597757158
 30
0.0
 11
-367.507445567306
 21
-61.3863153457642
 31
0.0
  0
LINE
  5
    66
  8
0
  6
CONTINUOUS
 62
     3
 10
-367.507445567306
 20
-61.3863153457642
 30
0.0
 11
-370.461868844513
 21
-60.8653709158125
 31
0.0
  0
ENDBLK
  5
    67
  8
0
  6
CONTINUOUS
 62
     7
  0
BLOCK
  5
    68
  8
0
  6
CONTINUOUS
 62
     7
  2
*UDIM785
 70
    65
 10
0.0
 20
0.0
 30
0.0
  3
*UDIM785
  0
TEXT
  5
    69
  8
0
  6
CONTINUOUS
 62
     7
 10
-355.282446317431
 20
-60.3863153389745
 30
0.0
 40
3.00000002980232
  1
30
 50
359.999999844103
 41
0.933333333333333
 72
     1
 11
-352.782446288522
 21
-58.886315330863
 31
0.0
 73
     2
  0
LINE
  5
    6A
  8
0
  6
CONTINUOUS
 62
     3
 10
-337.507445567306
 20
-57.7279453488065
 30
0.0
 11
-337.507445567306
 21
-63.3863153457642
 31
0.0
  0
LINE
  5
    6B
  8
0
  6
CONTINUOUS
 62
     3
 10
-367.507445567306
 20
-61.3863153457642
 30
0.0
 11
-337.507445567306
 21
-61.3863153457642
 31
0.0
  0
LINE
  5
    6C
  8
0
  6
CONTINUOUS
 62
     3
 10
-364.553022290099
 20
-60.8653709158125
 30
0.0
 11
-367.507445567306
 21
-61.3863153457642
 31
0.0
  0
LINE
  5
    6D
  8
0
  6
CONTINUOUS
 62
     3
 10
-367.507445567306
 20
-61.3863153457642
 30
0.0
 11
-364.553022290099
 21
-61.9072597757158
 31
0.0
  0
LINE
  5
    6E
  8
0
  6
CONTINUOUS
 62
     3
 10
-340.461868844513
 20
-61.9072597757158
 30
0.0
 11
-337.507445567306
 21
-61.3863153457642
 31
0.0
  0
LINE
  5
    6F
  8
0
  6
CONTINUOUS
 62
     3
 10
-337.507445567306
 20
-61.3863153457642
 30
0.0
 11
-340.461868844513
 21
-60.8653709158125
 31
0.0
  0
ENDBLK
  5
    70
  8
0
  6
CONTINUOUS
 62
     7
  0
BLOCK
  5
    71
  8
0
  6
CONTINUOUS
 62
     7
  2
*UDIM786
 70
    65
 10
0.0
 20
0.0
 30
0.0
  3
*UDIM786
  0
TEXT
  5
    72
  8
0
  6
CONTINUOUS
 62
     7
 10
-325.282415806355
 20
-60.3863153389745
 30
0.0
 40
3.00000002980232
  1
30
 50
359.999999844103
 41
0.933333333333333
 72
     1
 11
-322.782415777446
 21
-58.886315330863
 31
0.0
 73
     2
  0
LINE
  5
    73
  8
0
  6
CONTINUOUS
 62
     3
 10
-307.507385975665
 20
-56.1709489631413
 30
0.0
 11
-307.507385975665
 21
-63.3863153457642
 31
0.0
  0
LINE
  5
    74
  8
0
  6
CONTINUOUS
 62
     3
 10
-337.507445567306
 20
-61.3863153457642
 30
0.0
 11
-307.507385975665
 21
-61.3863153457642
 31
0.0
  0
LINE
  5
    75
  8
0
  6
CONTINUOUS
 62
     3
 10
-334.553022290099
 20
-60.8653709158125
 30
0.0
 11
-337.507445567306
 21
-61.3863153457642
 31
0.0
  0
LINE
  5
    76
  8
0
  6
CONTINUOUS
 62
     3
 10
-337.507445567306
 20
-61.3863153457642
 30
0.0
 11
-334.553022290099
 21
-61.9072597757158
 31
0.0
  0
LINE
  5
    77
  8
0
  6
CONTINUOUS
 62
     3
 10
-310.461809252872
 20
-61.9072597757158
 30
0.0
 11
-307.507385975665
 21
-61.3863153457642
 31
0.0
  0
LINE
  5
    78
  8
0
  6
CONTINUOUS
 62
     3
 10
-307.507385975665
 20
-61.3863153457642
 30
0.0
 11
-310.461809252872
 21
-60.8653709158125
 31
0.0
  0
ENDBLK
  5
    79
  8
0
  6
CONTINUOUS
 62
     7
  0
BLOCK
  5
    7A
  8
0
  6
CONTINUOUS
 62
     3
  2
*UDIM787
 70
    65
 10
0.0
 20
0.0
 30
0.0
  3
*UDIM787
  0
TEXT
  5
    7B
  8
0
  6
CONTINUOUS
 62
     3
 10
-374.966092294385
 20
-110.898323466479
 30
0.0
 40
3.00000002980232
  1
62
 50
449.999999844103
 41
0.933333333333333
 72
     1
 11
-376.4660923025
 21
-108.398323437571
 31
0.0
 73
     2
  0
LINE
  5
    7C
  8
0
  6
CONTINUOUS
 62
     3
 10
-349.207386001945
 20
-92.6233242064714
 30
0.0
 11
-375.966092287599
 21
-92.6233242064714
 31
0.0
  0
LINE
  5
    7D
  8
0
  6
CONTINUOUS
 62
     3
 10
-355.906710804479
 20
-123.623324206471
 30
0.0
 11
-375.966092287599
 21
-123.623324206471
 31
0.0
  0
LINE
  5
    7E
  8
0
  6
CONTINUOUS
 62
     3
 10
-373.966092287599
 20
-92.6233242064714
 30
0.0
 11
-373.966092287599
 21
-123.623324206471
 31
0.0
  0
LINE
  5
    7F
  8
0
  6
CONTINUOUS
 62
     3
 10
-373.445147857647
 20
-95.5777474836783
 30
0.0
 11
-373.966092287599
 21
-92.6233242064714
 31
0.0
  0
LINE
  5
    80
  8
0
  6
CONTINUOUS
 62
     3
 10
-373.966092287599
 20
-92.6233242064714
 30
0.0
 11
-374.48703671755
 21
-95.5777474836783
 31
0.0
  0
LINE
  5
    81
  8
0
  6
CONTINUOUS
 62
     3
 10
-374.48703671755
 20
-120.668900929264
 30
0.0
 11
-373.966092287599
 21
-123.623324206471
 31
0.0
  0
LINE
  5
    82
  8
0
  6
CONTINUOUS
 62
     3
 10
-373.966092287599
 20
-123.623324206471
 30
0.0
 11
-373.445147857647
 21
-120.668900929264
 31
0.0
  0
ENDBLK
  5
    83
  8
0
  6
CONTINUOUS
 62
     3
  0
BLOCK
  5
    84
  8
0
  6
CONTINUOUS
 62
     3
  2
*UDIM788
 70
    65
 10
0.0
 20
0.0
 30
0.0
  3
*UDIM788
  0
TEXT
  5
    85
  8
0
  6
CONTINUOUS
 62
     3
 10
-354.430874999898
 20
-102.341753007203
 30
0.0
 40
3.00000002980232
  1
4.5
 50
410.11914179375
 41
0.933333333333333
 72
     1
 11
-353.081290247371
 21
-98.3871833286353
 31
0.0
 73
     2
  0
TEXT
  5
    86
  8
0
  6
CONTINUOUS
 62
     3
 10
-356.995648188145
 20
-105.411270677989
 30
0.0
 40
3.00000002980232
  1
Ø
 50
410.11914179375
 41
1.2
 72
     1
 11
-357.184927360389
 21
-103.298411599782
 31
0.0
 73
     2
  0
TEXT
  5
    87
  8
0
  6
CONTINUOUS
 62
     3
 10
-364.433490468582
 20
-114.312871919021
 30
0.0
 40
3.00000002980232
  1
M4 o
 50
410.11914179375
 41
0.933333333333333
 72
     1
 11
-362.186235093272
 21
-109.28397105691
 31
0.0
 73
     2
  0
LINE
  5
    88
  8
0
  6
CONTINUOUS
 62
     3
 10
-345.00738607347
 20
-92.6233242064714
 30
0.0
 11
-363.666111043993
 21
-114.954065218657
 31
0.0
  0
LINE
  5
    89
  8
0
  6
CONTINUOUS
 62
     3
 10
-346.71841961797
 20
-95.882043676802
 30
0.0
 11
-345.456221371301
 21
-93.1604897849777
 31
0.0
  0
LINE
  5
    8A
  8
0
  6
CONTINUOUS
 62
     3
 10
-345.456221371301
 20
-93.1604897849777
 30
0.0
 11
-347.910094088587
 21
-94.8863254339771
 31
0.0
  0
ENDBLK
  5
    8B
  8
0
  6
CONTINUOUS
 62
     3
  0
BLOCK
  5
    8C
  8
0
  6
CONTINUOUS
 62
     3
  2
*UDIM789
 70
    65
 10
0.0
 20
0.0
 30
0.0
  3
*UDIM789
  0
TEXT
  5
    8D
  8
0
  6
CONTINUOUS
 62
     3
 10
-340.28238624245
 20
-76.1979484490208
 30
0.0
 40
3.00000002980232
  1
30
 50
359.999999844103
 41
0.933333333333333
 72
     1
 11
-337.782386213541
 21
-74.6979484409094
 31
0.0
 73
     2
  0
TEXT
  5
    8E
  8
0
  6
CONTINUOUS
 62
     3
 10
-341.682386256358
 20
-80.1979484750209
 30
0.0
 40
3.00000002980232
  1
= =
 50
359.999999844103
 41
0.933333333333333
 72
     1
 11
-337.782386213541
 21
-78.6979484707117
 31
0.0
 73
     2
  0
LINE
  5
    8F
  8
0
  6
CONTINUOUS
 62
     3
 10
-345.00738607347
 20
-88.423324277997
 30
0.0
 11
-345.00738607347
 21
-75.1979484558106
 31
0.0
  0
LINE
  5
    90
  8
0
  6
CONTINUOUS
 62
     3
 10
-330.007386222482
 20
-138.423313000798
 30
0.0
 11
-330.007386222482
 21
-75.1979484558106
 31
0.0
  0
LINE
  5
    91
  8
0
  6
CONTINUOUS
 62
     3
 10
-345.00738607347
 20
-77.1979484558106
 30
0.0
 11
-330.007386222482
 21
-77.1979484558106
 31
0.0
  0
LINE
  5
    92
  8
0
  6
CONTINUOUS
 62
     3
 10
-342.052962796263
 20
-76.6770040258589
 30
0.0
 11
-345.00738607347
 21
-77.1979484558106
 31
0.0
  0
LINE
  5
    93
  8
0
  6
CONTINUOUS
 62
     3
 10
-345.00738607347
 20
-77.1979484558106
 30
0.0
 11
-342.052962796263
 21
-77.7188928857622
 31
0.0
  0
LINE
  5
    94
  8
0
  6
CONTINUOUS
 62
     3
 10
-332.961809499689
 20
-77.7188928857622
 30
0.0
 11
-330.007386222482
 21
-77.1979484558106
 31
0.0
  0
LINE
  5
    95
  8
0
  6
CONTINUOUS
 62
     3
 10
-330.007386222482
 20
-77.1979484558106
 30
0.0
 11
-332.961809499689
 21
-76.6770040258589
 31
0.0
  0
ENDBLK
  5
    96
  8
0
  6
CONTINUOUS
 62
     3
  0
BLOCK
  5
    97
  8
0
  6
CONTINUOUS
 62
     3
  2
*UDIM790
 70
    65
 10
0.0
 20
0.0
 30
0.0
  3
*UDIM790
  0
TEXT
  5
    98
  8
0
  6
CONTINUOUS
 62
     3
 10
-388.856521617032
 20
-121.79831775238
 30
0.0
 40
3.00000002980232
  1
100
 50
449.999999844103
 41
0.933333333333333
 72
     1
 11
-390.356521621347
 21
-117.898317709565
 31
0.0
 73
     2
  0
LINE
  5
    99
  8
0
  6
CONTINUOUS
 62
     3
 10
-350.207386001945
 20
-92.6233242064714
 30
0.0
 11
-389.856521606445
 21
-92.6233242064714
 31
0.0
  0
LINE
  5
    9A
  8
0
  6
CONTINUOUS
 62
     3
 10
-338.332386150956
 20
-142.623312929273
 30
0.0
 11
-389.856521606445
 21
-142.623312929273
 31
0.0
  0
LINE
  5
    9B
  8
0
  6
CONTINUOUS
 62
     3
 10
-387.856521606445
 20
-92.6233242064714
 30
0.0
 11
-387.856521606445
 21
-142.623312929273
 31
0.0
  0
LINE
  5
    9C
  8
0
  6
CONTINUOUS
 62
     3
 10
-387.335577176494
 20
-95.5777474836783
 30
0.0
 11
-387.856521606445
 21
-92.6233242064714
 31
0.0
  0
LINE
  5
    9D
  8
0
  6
CONTINUOUS
 62
     3
 10
-387.856521606445
 20
-92.6233242064714
 30
0.0
 11
-388.377466036397
 21
-95.5777474836783
 31
0.0
  0
LINE
  5
    9E
  8
0
  6
CONTINUOUS
 62
     3
 10
-388.377466036397
 20
-139.668889652066
 30
0.0
 11
-387.856521606445
 21
-142.623312929273
 31
0.0
  0
LINE
  5
    9F
  8
0
  6
CONTINUOUS
 62
     3
 10
-387.856521606445
 20
-142.623312929273
 30
0.0
 11
-387.335577176494
 21
-139.668889652066
 31
0.0
  0
ENDBLK
  5
    A0
  8
0
  6
CONTINUOUS
 62
     3
  0
BLOCK
  5
    A1
  8
0
  6
CONTINUOUS
 62
     3
  2
*HATCH361
 70
    65
 10
0.0
 20
0.0
 30
0.0
  3
*HATCH361
  0
LINE
  5
    A2
  8
0
  6
CONTINUOUS
 62
     7
 10
-35.4171371459961
 20
-125.803260803223
 30
0.0
 11
-35.3765678405762
 21
-125.84383392334
 31
0.0
  0
ENDBLK
  5
    A3
  8
0
  6
CONTINUOUS
 62
     3
  0
BLOCK
  5
    A4
  8
0
  6
CONTINUOUS
 62
     7
  2
*HATCH362
 70
    65
 10
0.0
 20
0.0
 30
0.0
  3
*HATCH362
  0
LINE
  5
    A5
  8
0
  6
CONTINUOUS
 62
     7
 10
-53.5225372314453
 20
-125.647422790527
 30
0.0
 11
-53.9999885559082
 21
-126.124870300293
 31
0.0
  0
LINE
  5
    A6
  8
0
  6
CONTINUOUS
 62
     7
 10
-49.2798957824707
 20
-125.647422790527
 30
0.0
 11
-50.479850769043
 21
-126.847373962402
 31
0.0
  0
LINE
  5
    A7
  8
0
  6
CONTINUOUS
 62
     7
 10
-45.0372543334961
 20
-125.647422790527
 30
0.0
 11
-46.2372093200684
 21
-126.847373962402
 31
0.0
  0
LINE
  5
    A8
  8
0
  6
CONTINUOUS
 62
     7
 10
-40.7946128845215
 20
-125.647422790527
 30
0.0
 11
-41.9945678710938
 21
-126.847373962402
 31
0.0
  0
ENDBLK
  5
    A9
  8
0
  6
CONTINUOUS
 62
     7
  0
BLOCK
  5
    AA
  8
0
  6
CONTINUOUS
 62
     7
  2
*HATCH363
 70
    65
 10
0.0
 20
0.0
 30
0.0
  3
*HATCH363
  0
LINE
  5
    AB
  8
0
  6
CONTINUOUS
 62
     7
 10
-28.1726608276367
 20
-125.753387451172
 30
0.0
 11
-29.2666473388672
 21
-126.847373962402
 31
0.0
  0
ENDBLK
  5
    AC
  8
0
  6
CONTINUOUS
 62
     7
  0
BLOCK
  5
    AD
  8
0
  6
CONTINUOUS
 62
     7
  2
*HATCH364
 70
    65
 10
0.0
 20
0.0
 30
0.0
  3
*HATCH364
  0
LINE
  5
    AE
  8
0
  6
CONTINUOUS
 62
     7
 10
-23.8240509033203
 20
-125.647422790527
 30
0.0
 11
-23.9999923706055
 21
-125.823364257813
 31
0.0
  0
LINE
  5
    AF
  8
0
  6
CONTINUOUS
 62
     7
 10
-19.5813617706299
 20
-125.64737701416
 30
0.0
 11
-20.7813663482666
 21
-126.847373962402
 31
0.0
  0
LINE
  5
    B0
  8
0
  6
CONTINUOUS
 62
     7
 10
-16.5611629486084
 20
-126.869819641113
 30
0.0
 11
-17.4396076202393
 21
-127.748260498047
 31
0.0
  0
ENDBLK
  5
    B1
  8
0
  6
CONTINUOUS
 62
     7
  0
BLOCK
  5
    B2
  8
0
  6
CONTINUOUS
 62
     3
  2
*HATCH365
 70
    65
 10
0.0
 20
0.0
 30
0.0
  3
*HATCH365
  0
LINE
  5
    B3
  8
0
  6
CONTINUOUS
 62
     7
 10
-35.4171371459961
 20
-125.803260803223
 30
0.0
 11
-35.3765678405762
 21
-125.84383392334
 31
0.0
  0
ENDBLK
  5
    B4
  8
0
  6
CONTINUOUS
 62
     3
  0
BLOCK
  5
    B5
  8
0
  6
CONTINUOUS
 62
     3
  2
*HATCH366
 70
    65
 10
0.0
 20
0.0
 30
0.0
  3
*HATCH366
  0
LINE
  5
    B6
  8
0
  6
CONTINUOUS
 62
   210
 10
-30.7072048187256
 20
-124.149238586426
 30
0.0
 11
-30.5318412780762
 21
-124.324600219727
 31
0.0
  0
ENDBLK
  5
    B7
  8
0
  6
CONTINUOUS
 62
     3
  0
BLOCK
  5
    B8
  8
0
  6
CONTINUOUS
 62
     3
  2
*HATCH367
 70
    65
 10
0.0
 20
0.0
 30
0.0
  3
*HATCH367
  0
LINE
  5
    B9
  8
0
  6
CONTINUOUS
 62
   210
 10
-35.4136276245117
 20
-123.685455322266
 30
0.0
 11
-34.9064331054688
 21
-124.192649841309
 31
0.0
  0
ENDBLK
  5
    BA
  8
0
  6
CONTINUOUS
 62
     3
  0
BLOCK
  5
    BB
  8
0
  6
CONTINUOUS
 62
     3
  2
*HATCH368
 70
    65
 10
0.0
 20
0.0
 30
0.0
  3
*HATCH368
  0
LINE
  5
    BC
  8
0
  6
CONTINUOUS
 62
   210
 10
-37.1537094116211
 20
-124.066688537598
 30
0.0
 11
-36.8765678405762
 21
-124.34383392334
 31
0.0
  0
ENDBLK
  5
    BD
  8
0
  6
CONTINUOUS
 62
     3
  0
BLOCK
  5
    BE
  8
0
  6
CONTINUOUS
 62
     3
  2
*HATCH369
 70
    65
 10
0.0
 20
0.0
 30
0.0
  3
*HATCH369
  0
LINE
  5
    BF
  8
0
  6
CONTINUOUS
 62
   210
 10
-41.8004341125488
 20
-123.662605285645
 30
0.0
 11
-41.2932434082031
 21
-124.169792175293
 31
0.0
  0
ENDBLK
  5
    C0
  8
0
  6
CONTINUOUS
 62
     3
  0
BLOCK
  5
    C1
  8
0
  6
CONTINUOUS
 62
     3
  2
*HATCH370
 70
    65
 10
0.0
 20
0.0
 30
0.0
  3
*HATCH370
  0
LINE
  5
    C2
  8
0
  6
CONTINUOUS
 62
   210
 10
-43.591236114502
 20
-123.993118286133
 30
0.0
 11
-43.2405242919922
 21
-124.34383392334
 31
0.0
  0
ENDBLK
  5
    C3
  8
0
  6
CONTINUOUS
 62
     3
  0
BLOCK
  5
    C4
  8
0
  6
CONTINUOUS
 62
     3
  2
*HATCH371
 70
    65
 10
0.0
 20
0.0
 30
0.0
  3
*HATCH371
  0
LINE
  5
    C5
  8
0
  6
CONTINUOUS
 62
   210
 10
-45.4999885559082
 20
-128.448333740234
 30
0.0
 11
-45.2529640197754
 21
-128.695358276367
 31
0.0
  0
ENDBLK
  5
    C6
  8
0
  6
CONTINUOUS
 62
     3
  0
BLOCK
  5
    C7
  8
0
  6
CONTINUOUS
 62
     3
  2
*HATCH372
 70
    65
 10
0.0
 20
0.0
 30
0.0
  3
*HATCH372
  0
LINE
  5
    C8
  8
0
  6
CONTINUOUS
 62
   210
 10
-41.1738166809082
 20
-128.531860351563
 30
0.0
 11
-40.8618469238281
 21
-128.843826293945
 31
0.0
  0
ENDBLK
  5
    C9
  8
0
  6
CONTINUOUS
 62
     3
  0
BLOCK
  5
    CA
  8
0
  6
CONTINUOUS
 62
     3
  2
*HATCH373
 70
    65
 10
0.0
 20
0.0
 30
0.0
  3
*HATCH373
  0
LINE
  5
    CB
  8
0
  6
CONTINUOUS
 62
   210
 10
-39.4082412719727
 20
-128.176116943359
 30
0.0
 11
-38.9010467529297
 21
-128.683319091797
 31
0.0
  0
ENDBLK
  5
    CC
  8
0
  6
CONTINUOUS
 62
     3
  0
BLOCK
  5
    CD
  8
0
  6
CONTINUOUS
 62
     3
  2
*HATCH374
 70
    65
 10
0.0
 20
0.0
 30
0.0
  3
*HATCH374
  0
LINE
  5
    CE
  8
0
  6
CONTINUOUS
 62
   210
 10
-34.7245826721191
 20
-128.617141723633
 30
0.0
 11
-34.4978904724121
 21
-128.843826293945
 31
0.0
  0
ENDBLK
  5
    CF
  8
0
  6
CONTINUOUS
 62
     3
  0
BLOCK
  5
    D0
  8
0
  6
CONTINUOUS
 62
     3
  2
*HATCH375
 70
    65
 10
0.0
 20
0.0
 30
0.0
  3
*HATCH375
  0
LINE
  5
    D1
  8
0
  6
CONTINUOUS
 62
   210
 10
-33.0214233398438
 20
-128.198974609375
 30
0.0
 11
-32.5142364501953
 21
-128.706176757813
 31
0.0
  0
ENDBLK
  5
    D2
  8
0
  6
CONTINUOUS
 62
     3
  0
BLOCK
  5
    D3
  8
0
  6
CONTINUOUS
 62
     7
  2
*HATCH376
 70
    65
 10
0.0
 20
0.0
 30
0.0
  3
*HATCH376
  0
LINE
  5
    D4
  8
0
  6
CONTINUOUS
 62
     7
 10
-57.9999885559082
 20
-124.433601379395
 30
0.0
 11
-57.9861831665039
 21
-124.447410583496
 31
0.0
  0
LINE
  5
    D5
  8
0
  6
CONTINUOUS
 62
     7
 10
-54.9435577392578
 20
-123.24739074707
 30
0.0
 11
-53.7435455322266
 21
-124.447410583496
 31
0.0
  0
LINE
  5
    D6
  8
0
  6
CONTINUOUS
 62
     7
 10
-50.7009201049805
 20
-123.24739074707
 30
0.0
 11
-49.5009078979492
 21
-124.447410583496
 31
0.0
  0
ENDBLK
  5
    D7
  8
0
  6
CONTINUOUS
 62
     7
  0
BLOCK
  5
    D8
  8
0
  6
CONTINUOUS
 62
     7
  2
*HATCH377
 70
    65
 10
0.0
 20
0.0
 30
0.0
  3
*HATCH377
  0
LINE
  5
    D9
  8
0
  6
CONTINUOUS
 62
     7
 10
-46.6999702453613
 20
-127.248344421387
 30
0.0
 11
-45.4999885559082
 21
-128.448333740234
 31
0.0
  0
ENDBLK
  5
    DA
  8
0
  6
CONTINUOUS
 62
     7
  0
BLOCK
  5
    DB
  8
0
  6
CONTINUOUS
 62
     7
  2
*HATCH378
 70
    65
 10
0.0
 20
0.0
 30
0.0
  3
*HATCH378
  0
LINE
  5
    DC
  8
0
  6
CONTINUOUS
 62
     7
 10
-25.4999885559082
 20
-127.235137939453
 30
0.0
 11
-24.299991607666
 21
-128.435134887695
 31
0.0
  0
ENDBLK
  5
    DD
  8
0
  6
CONTINUOUS
 62
     7
  0
BLOCK
  5
    DE
  8
0
  6
CONTINUOUS
 62
     7
  2
*HATCH379
 70
    65
 10
0.0
 20
0.0
 30
0.0
  3
*HATCH379
  0
LINE
  5
    DF
  8
0
  6
CONTINUOUS
 62
     7
 10
-24.6751708984375
 20
-123.817314147949
 30
0.0
 11
-23.8555488586426
 21
-124.636940002441
 31
0.0
  0
LINE
  5
    E0
  8
0
  6
CONTINUOUS
 62
     7
 10
-21.0024528503418
 20
-123.24739074707
 30
0.0
 11
-19.8024406433105
 21
-124.447410583496
 31
0.0
  0
LINE
  5
    E1
  8
0
  6
CONTINUOUS
 62
     7
 10
-16.7598114013672
 20
-123.24739074707
 30
0.0
 11
-15.5598030090332
 21
-124.447410583496
 31
0.0
  0
LINE
  5
    E2
  8
0
  6
CONTINUOUS
 62
     7
 10
-12.5171699523926
 20
-123.24739074707
 30
0.0
 11
-11.3171653747559
 21
-124.447410583496
 31
0.0
  0
LINE
  5
    E3
  8
0
  6
CONTINUOUS
 62
     7
 10
-8.27452850341797
 20
-123.24739074707
 30
0.0
 11
-7.07452726364136
 21
-124.447410583496
 31
0.0
  0
LINE
  5
    E4
  8
0
  6
CONTINUOUS
 62
     7
 10
-4.03188753128052
 20
-123.24739074707
 30
0.0
 11
-2.83188915252686
 21
-124.447410583496
 31
0.0
  0
ENDBLK
  5
    E5
  8
0
  6
CONTINUOUS
 62
     7
  0
BLOCK
  5
    E6
  8
0
  6
CONTINUOUS
 62
     3
  2
*HATCH380
 70
    65
 10
0.0
 20
0.0
 30
0.0
  3
*HATCH380
  0
LINE
  5
    E7
  8
0
  6
CONTINUOUS
 62
     7
 10
-35.4171371459961
 20
-125.803260803223
 30
0.0
 11
-35.3765678405762
 21
-125.84383392334
 31
0.0
  0
ENDBLK
  5
    E8
  8
0
  6
CONTINUOUS
 62
     3
  0
BLOCK
  5
    E9
  8
0
  6
CONTINUOUS
 62
     3
  2
*HATCH381
 70
    65
 10
0.0
 20
0.0
 30
0.0
  3
*HATCH381
  0
LINE
  5
    EA
  8
0
  6
CONTINUOUS
 62
   210
 10
-30.7072048187256
 20
-124.149238586426
 30
0.0
 11
-30.5318412780762
 21
-124.324600219727
 31
0.0
  0
ENDBLK
  5
    EB
  8
0
  6
CONTINUOUS
 62
     3
  0
BLOCK
  5
    EC
  8
0
  6
CONTINUOUS
 62
     3
  2
*HATCH382
 70
    65
 10
0.0
 20
0.0
 30
0.0
  3
*HATCH382
  0
LINE
  5
    ED
  8
0
  6
CONTINUOUS
 62
   210
 10
-35.4136276245117
 20
-123.685455322266
 30
0.0
 11
-34.9064331054688
 21
-124.192649841309
 31
0.0
  0
ENDBLK
  5
    EE
  8
0
  6
CONTINUOUS
 62
     3
  0
BLOCK
  5
    EF
  8
0
  6
CONTINUOUS
 62
     3
  2
*HATCH383
 70
    65
 10
0.0
 20
0.0
 30
0.0
  3
*HATCH383
  0
LINE
  5
    F0
  8
0
  6
CONTINUOUS
 62
   210
 10
-37.1537094116211
 20
-124.066688537598
 30
0.0
 11
-36.8765678405762
 21
-124.34383392334
 31
0.0
  0
ENDBLK
  5
    F1
  8
0
  6
CONTINUOUS
 62
     3
  0
BLOCK
  5
    F2
  8
0
  6
CONTINUOUS
 62
     3
  2
*HATCH384
 70
    65
 10
0.0
 20
0.0
 30
0.0
  3
*HATCH384
  0
LINE
  5
    F3
  8
0
  6
CONTINUOUS
 62
   210
 10
-41.8004341125488
 20
-123.662605285645
 30
0.0
 11
-41.2932434082031
 21
-124.169792175293
 31
0.0
  0
ENDBLK
  5
    F4
  8
0
  6
CONTINUOUS
 62
     3
  0
BLOCK
  5
    F5
  8
0
  6
CONTINUOUS
 62
     3
  2
*HATCH385
 70
    65
 10
0.0
 20
0.0
 30
0.0
  3
*HATCH385
  0
LINE
  5
    F6
  8
0
  6
CONTINUOUS
 62
   210
 10
-43.591236114502
 20
-123.993118286133
 30
0.0
 11
-43.2405242919922
 21
-124.34383392334
 31
0.0
  0
ENDBLK
  5
    F7
  8
0
  6
CONTINUOUS
 62
     3
  0
BLOCK
  5
    F8
  8
0
  6
CONTINUOUS
 62
     3
  2
*HATCH386
 70
    65
 10
0.0
 20
0.0
 30
0.0
  3
*HATCH386
  0
LINE
  5
    F9
  8
0
  6
CONTINUOUS
 62
   210
 10
-45.4999885559082
 20
-128.448333740234
 30
0.0
 11
-45.2529640197754
 21
-128.695358276367
 31
0.0
  0
ENDBLK
  5
    FA
  8
0
  6
CONTINUOUS
 62
     3
  0
BLOCK
  5
    FB
  8
0
  6
CONTINUOUS
 62
     3
  2
*HATCH387
 70
    65
 10
0.0
 20
0.0
 30
0.0
  3
*HATCH387
  0
LINE
  5
    FC
  8
0
  6
CONTINUOUS
 62
   210
 10
-41.1738166809082
 20
-128.531860351563
 30
0.0
 11
-40.8618469238281
 21
-128.843826293945
 31
0.0
  0
ENDBLK
  5
    FD
  8
0
  6
CONTINUOUS
 62
     3
  0
BLOCK
  5
    FE
  8
0
  6
CONTINUOUS
 62
     3
  2
*HATCH388
 70
    65
 10
0.0
 20
0.0
 30
0.0
  3
*HATCH388
  0
LINE
  5
    FF
  8
0
  6
CONTINUOUS
 62
   210
 10
-39.4082412719727
 20
-128.176116943359
 30
0.0
 11
-38.9010467529297
 21
-128.683319091797
 31
0.0
  0
ENDBLK
  5
   100
  8
0
  6
CONTINUOUS
 62
     3
  0
BLOCK
  5
   101
  8
0
  6
CONTINUOUS
 62
     3
  2
*HATCH389
 70
    65
 10
0.0
 20
0.0
 30
0.0
  3
*HATCH389
  0
LINE
  5
   102
  8
0
  6
CONTINUOUS
 62
   210
 10
-34.7245826721191
 20
-128.617141723633
 30
0.0
 11
-34.4978904724121
 21
-128.843826293945
 31
0.0
  0
ENDBLK
  5
   103
  8
0
  6
CONTINUOUS
 62
     3
  0
BLOCK
  5
   104
  8
0
  6
CONTINUOUS
 62
     3
  2
*HATCH390
 70
    65
 10
0.0
 20
0.0
 30
0.0
  3
*HATCH390
  0
LINE
  5
   105
  8
0
  6
CONTINUOUS
 62
   210
 10
-33.0214233398438
 20
-128.198974609375
 30
0.0
 11
-32.5142364501953
 21
-128.706176757813
 31
0.0
  0
ENDBLK
  5
   106
  8
0
  6
CONTINUOUS
 62
     3
  0
BLOCK
  5
   107
  8
0
  6
CONTINUOUS
 62
     7
  2
*HATCH391
 70
    65
 10
0.0
 20
0.0
 30
0.0
  3
*HATCH391
  0
LINE
  5
   108
  8
0
  6
CONTINUOUS
 62
     7
 10
33.3043479919434
 20
-89.7322311401367
 30
0.0
 11
30.5
 21
-92.5365753173828
 31
0.0
  0
ENDBLK
  5
   109
  8
0
  6
CONTINUOUS
 62
     7
  0
BLOCK
  5
   10A
  8
0
  6
CONTINUOUS
 62
     7
  2
*HATCH392
 70
    65
 10
0.0
 20
0.0
 30
0.0
  3
*HATCH392
  0
LINE
  5
   10B
  8
0
  6
CONTINUOUS
 62
     7
 10
41.7896270751953
 20
-89.7322311401367
 30
0.0
 11
39.4999885559082
 21
-92.0218734741211
 31
0.0
  0
LINE
  5
   10C
  8
0
  6
CONTINUOUS
 62
     7
 10
42.5
 20
-93.2645034790039
 30
0.0
 11
42.0322685241699
 21
-93.7322311401367
 31
0.0
  0
ENDBLK
  5
   10D
  8
0
  6
CONTINUOUS
 62
     7
  0
BLOCK
  5
   10E
  8
0
  6
CONTINUOUS
 62
     7
  2
*HATCH393
 70
    65
 10
0.0
 20
0.0
 30
0.0
  3
*HATCH393
  0
LINE
  5
   10F
  8
0
  6
CONTINUOUS
 62
     7
 10
31.8646125793457
 20
-108.232231140137
 30
0.0
 11
33.8646087646484
 21
-110.232231140137
 31
0.0
  0
LINE
  5
   110
  8
0
  6
CONTINUOUS
 62
     7
 10
36.107250213623
 20
-108.232231140137
 30
0.0
 11
38.1072463989258
 21
-110.232231140137
 31
0.0
  0
LINE
  5
   111
  8
0
  6
CONTINUOUS
 62
     7
 10
40.3498878479004
 20
-108.232231140137
 30
0.0
 11
42.3498840332031
 21
-110.232231140137
 31
0.0
  0
ENDBLK
  5
   112
  8
0
  6
CONTINUOUS
 62
     7
  0
BLOCK
  5
   113
  8
0
  6
CONTINUOUS
 62
     7
  2
*HATCH394
 70
    65
 10
0.0
 20
0.0
 30
0.0
  3
*HATCH394
  0
LINE
  5
   114
  8
0
  6
CONTINUOUS
 62
    52
 10
21.7561721801758
 20
-48.2473983764648
 30
0.0
 11
20.9999847412109
 21
-49.0035858154297
 31
0.0
  0
LINE
  5
   115
  8
0
  6
CONTINUOUS
 62
    52
 10
23.8774929046631
 20
-48.2473983764648
 30
0.0
 11
20.9999847412109
 21
-51.1249046325684
 31
0.0
  0
LINE
  5
   116
  8
0
  6
CONTINUOUS
 62
    52
 10
25.9988136291504
 20
-48.2473983764648
 30
0.0
 11
22.9988117218018
 21
-51.2473983764648
 31
0.0
  0
LINE
  5
   117
  8
0
  6
CONTINUOUS
 62
    52
 10
22.4999847412109
 20
-51.7462272644043
 30
0.0
 11
21.4988117218018
 21
-52.7473983764648
 31
0.0
  0
LINE
  5
   118
  8
0
  6
CONTINUOUS
 62
    52
 10
28.1201324462891
 20
-48.2473983764648
 30
0.0
 11
25.1201324462891
 21
-51.2473983764648
 31
0.0
  0
LINE
  5
   119
  8
0
  6
CONTINUOUS
 62
    52
 10
30.2414531707764
 20
-48.2473983764648
 30
0.0
 11
27.2414531707764
 21
-51.2473983764648
 31
0.0
  0
LINE
  5
   11A
  8
0
  6
CONTINUOUS
 62
    52
 10
32.3627738952637
 20
-48.2473983764648
 30
0.0
 11
29.3627738952637
 21
-51.2473983764648
 31
0.0
  0
LINE
  5
   11B
  8
0
  6
CONTINUOUS
 62
    52
 10
34.4840927124023
 20
-48.2473983764648
 30
0.0
 11
31.484094619751
 21
-51.2473983764648
 31
0.0
  0
LINE
  5
   11C
  8
0
  6
CONTINUOUS
 62
    52
 10
36.605411529541
 20
-48.2473983764648
 30
0.0
 11
33.6054153442383
 21
-51.2473983764648
 31
0.0
  0
LINE
  5
   11D
  8
0
  6
CONTINUOUS
 62
    52
 10
38.7267303466797
 20
-48.2473983764648
 30
0.0
 11
35.726734161377
 21
-51.2473983764648
 31
0.0
  0
LINE
  5
   11E
  8
0
  6
CONTINUOUS
 62
    52
 10
40.8480491638184
 20
-48.2473983764648
 30
0.0
 11
37.8480529785156
 21
-51.2473983764648
 31
0.0
  0
LINE
  5
   11F
  8
0
  6
CONTINUOUS
 62
    52
 10
42.969367980957
 20
-48.2473983764648
 30
0.0
 11
39.9693717956543
 21
-51.2473983764648
 31
0.0
  0
LINE
  5
   120
  8
0
  6
CONTINUOUS
 62
    52
 10
45.0906867980957
 20
-48.2473983764648
 30
0.0
 11
42.090690612793
 21
-51.2473983764648
 31
0.0
  0
LINE
  5
   121
  8
0
  6
CONTINUOUS
 62
    52
 10
45.4999847412109
 20
-49.9594306945801
 30
0.0
 11
44.2120170593262
 21
-51.2473983764648
 31
0.0
  0
ENDBLK
  5
   122
  8
0
  6
CONTINUOUS
 62
     7
  0
BLOCK
  5
   123
  8
0
  6
CONTINUOUS
 62
     7
  2
*HATCH395
 70
    65
 10
0.0
 20
0.0
 30
0.0
  3
*HATCH395
  0
LINE
  5
   124
  8
0
  6
CONTINUOUS
 62
    52
 10
-50.3687210083008
 20
-48.2473983764648
 30
0.0
 11
-50.5000152587891
 21
-48.3786926269531
 31
0.0
  0
LINE
  5
   125
  8
0
  6
CONTINUOUS
 62
    52
 10
-48.2474021911621
 20
-48.2473983764648
 30
0.0
 11
-50.5000152587891
 21
-50.5000114440918
 31
0.0
  0
LINE
  5
   126
  8
0
  6
CONTINUOUS
 62
    52
 10
-46.1260833740234
 20
-48.2473983764648
 30
0.0
 11
-49.1260833740234
 21
-51.2473983764648
 31
0.0
  0
LINE
  5
   127
  8
0
  6
CONTINUOUS
 62
    52
 10
-44.0047645568848
 20
-48.2473983764648
 30
0.0
 11
-47.0047645568848
 21
-51.2473983764648
 31
0.0
  0
LINE
  5
   128
  8
0
  6
CONTINUOUS
 62
    52
 10
-41.8834457397461
 20
-48.2473983764648
 30
0.0
 11
-44.8834457397461
 21
-51.2473983764648
 31
0.0
  0
LINE
  5
   129
  8
0
  6
CONTINUOUS
 62
    52
 10
-39.7621269226074
 20
-48.2473983764648
 30
0.0
 11
-42.7621269226074
 21
-51.2473983764648
 31
0.0
  0
LINE
  5
   12A
  8
0
  6
CONTINUOUS
 62
    52
 10
-37.6408081054688
 20
-48.2473983764648
 30
0.0
 11
-40.6408081054688
 21
-51.2473983764648
 31
0.0
  0
LINE
  5
   12B
  8
0
  6
CONTINUOUS
 62
    52
 10
-35.5194892883301
 20
-48.2473983764648
 30
0.0
 11
-38.5194892883301
 21
-51.2473983764648
 31
0.0
  0
LINE
  5
   12C
  8
0
  6
CONTINUOUS
 62
    52
 10
-33.3981704711914
 20
-48.2473983764648
 30
0.0
 11
-36.3981704711914
 21
-51.2473983764648
 31
0.0
  0
LINE
  5
   12D
  8
0
  6
CONTINUOUS
 62
    52
 10
-31.2768497467041
 20
-48.2473983764648
 30
0.0
 11
-34.2768516540527
 21
-51.2473983764648
 31
0.0
  0
LINE
  5
   12E
  8
0
  6
CONTINUOUS
 62
    52
 10
-29.1555290222168
 20
-48.2473983764648
 30
0.0
 11
-32.1555328369141
 21
-51.2473983764648
 31
0.0
  0
LINE
  5
   12F
  8
0
  6
CONTINUOUS
 62
    52
 10
-27.0342082977295
 20
-48.2473983764648
 30
0.0
 11
-30.0342121124268
 21
-51.2473983764648
 31
0.0
  0
LINE
  5
   130
  8
0
  6
CONTINUOUS
 62
    52
 10
-26.0000152587891
 20
-49.3345375061035
 30
0.0
 11
-27.912878036499
 21
-51.2473983764648
 31
0.0
  0
LINE
  5
   131
  8
0
  6
CONTINUOUS
 62
    52
 10
-26.0000152587891
 20
-51.4558563232422
 30
0.0
 11
-27.2915573120117
 21
-52.7473983764648
 31
0.0
  0
ENDBLK
  5
   132
  8
0
  6
CONTINUOUS
 62
     7
  0
BLOCK
  5
   133
  8
0
  6
CONTINUOUS
 62
     7
  2
*HATCH396
 70
    65
 10
0.0
 20
0.0
 30
0.0
  3
*HATCH396
  0
LINE
  5
   134
  8
0
  6
CONTINUOUS
 62
     7
 10
-107.983299255371
 20
-99.4980087280273
 30
0.0
 11
-108.891090393066
 21
-100.405799865723
 31
0.0
  0
LINE
  5
   135
  8
0
  6
CONTINUOUS
 62
     7
 10
-107.559028625488
 20
-99.4980087280273
 30
0.0
 11
-109.041496276855
 21
-100.980476379395
 31
0.0
  0
LINE
  5
   136
  8
0
  6
CONTINUOUS
 62
     7
 10
-107.134765625
 20
-99.4980087280273
 30
0.0
 11
-108.937454223633
 21
-101.30069732666
 31
0.0
  0
LINE
  5
   137
  8
0
  6
CONTINUOUS
 62
     7
 10
-106.872779846191
 20
-99.6602783203125
 30
0.0
 11
-108.833404541016
 21
-101.620910644531
 31
0.0
  0
LINE
  5
   138
  8
0
  6
CONTINUOUS
 62
     7
 10
-106.627044677734
 20
-99.8388137817383
 30
0.0
 11
-108.669692993164
 21
-101.881462097168
 31
0.0
  0
LINE
  5
   139
  8
0
  6
CONTINUOUS
 62
     7
 10
-106.381317138672
 20
-100.017349243164
 30
0.0
 11
-108.423965454102
 21
-102.059997558594
 31
0.0
  0
LINE
  5
   13A
  8
0
  6
CONTINUOUS
 62
     7
 10
-106.256980895996
 20
-100.317276000977
 30
0.0
 11
-108.178230285645
 21
-102.238525390625
 31
0.0
  0
LINE
  5
   13B
  8
0
  6
CONTINUOUS
 62
     7
 10
-106.152938842773
 20
-100.637496948242
 30
0.0
 11
-107.86661529541
 21
-102.351173400879
 31
0.0
  0
LINE
  5
   13C
  8
0
  6
CONTINUOUS
 62
     7
 10
-106.080780029297
 20
-100.989601135254
 30
0.0
 11
-107.442352294922
 21
-102.351173400879
 31
0.0
  0
LINE
  5
   13D
  8
0
  6
CONTINUOUS
 62
     7
 10
-106.284980773926
 20
-101.618064880371
 30
0.0
 11
-106.810745239258
 21
-102.143829345703
 31
0.0
  0
ENDBLK
  5
   13E
  8
0
  6
CONTINUOUS
 62
     7
  0
BLOCK
  5
   13F
  8
0
  6
CONTINUOUS
 62
     7
  2
*HATCH397
 70
    65
 10
0.0
 20
0.0
 30
0.0
  3
*HATCH397
  0
LINE
  5
   140
  8
0
  6
CONTINUOUS
 62
     7
 10
-98.4460983276367
 20
-89.9608154296875
 30
0.0
 11
-98.9740982055664
 21
-90.4888153076172
 31
0.0
  0
LINE
  5
   141
  8
0
  6
CONTINUOUS
 62
     7
 10
-97.8159255981445
 20
-89.7549057006836
 30
0.0
 11
-99.1782989501953
 21
-91.1172790527344
 31
0.0
  0
LINE
  5
   142
  8
0
  6
CONTINUOUS
 62
     7
 10
-97.3916625976563
 20
-89.7549057006836
 30
0.0
 11
-99.1057510375977
 21
-91.4689865112305
 31
0.0
  0
LINE
  5
   143
  8
0
  6
CONTINUOUS
 62
     7
 10
-97.0802764892578
 20
-89.8677825927734
 30
0.0
 11
-99.0017013549805
 21
-91.7892074584961
 31
0.0
  0
LINE
  5
   144
  8
0
  6
CONTINUOUS
 62
     7
 10
-96.8345413208008
 20
-90.0463104248047
 30
0.0
 11
-98.8771896362305
 21
-92.0889587402344
 31
0.0
  0
LINE
  5
   145
  8
0
  6
CONTINUOUS
 62
     7
 10
-96.5888137817383
 20
-90.2248458862305
 30
0.0
 11
-98.631462097168
 21
-92.2674942016602
 31
0.0
  0
LINE
  5
   146
  8
0
  6
CONTINUOUS
 62
     7
 10
-96.4252777099609
 20
-90.4855728149414
 30
0.0
 11
-98.3857269287109
 21
-92.4460220336914
 31
0.0
  0
LINE
  5
   147
  8
0
  6
CONTINUOUS
 62
     7
 10
-96.3212356567383
 20
-90.805793762207
 30
0.0
 11
-98.1235122680664
 21
-92.6080703735352
 31
0.0
  0
LINE
  5
   148
  8
0
  6
CONTINUOUS
 62
     7
 10
-96.2171936035156
 20
-91.1260147094727
 30
0.0
 11
-97.6992492675781
 21
-92.6080703735352
 31
0.0
  0
LINE
  5
   149
  8
0
  6
CONTINUOUS
 62
     7
 10
-96.3679885864258
 20
-91.7010803222656
 30
0.0
 11
-97.2749862670899
 21
-92.6080703735352
 31
0.0
  0
ENDBLK
  5
   14A
  8
0
  6
CONTINUOUS
 62
     7
  0
BLOCK
  5
   14B
  8
0
  6
CONTINUOUS
 62
     7
  2
*UDIM791
 70
    65
 10
0.0
 20
0.0
 30
0.0
  3
*UDIM791
  0
TEXT
  5
   14C
  8
0
  6
CONTINUOUS
 62
     7
 10
-257.791061280833
 20
4.42907662089632
 30
0.0
 40
3.00000002980232
  1
=
 50
449.999999844103
 41
0.933333333333334
 72
     1
 11
-259.291061292749
 21
5.52907663589579
 31
0.0
 73
     2
  0
LINE
  5
   14D
  8
0
  6
CONTINUOUS
 62
     3
 10
-246.778138160706
 20
14.0290633441182
 30
0.0
 11
-258.791061277847
 21
14.0290633441182
 31
0.0
  0
LINE
  5
   14E
  8
0
  6
CONTINUOUS
 62
     3
 10
-252.448929948157
 20
-2.97091007232661
 30
0.0
 11
-258.791061277847
 21
-2.97091007232661
 31
0.0
  0
LINE
  5
   14F
  8
0
  6
CONTINUOUS
 62
     3
 10
-256.791061277847
 20
14.0290633441182
 30
0.0
 11
-256.791061277847
 21
-2.97091007232661
 31
0.0
  0
LINE
  5
   150
  8
0
  6
CONTINUOUS
 62
     3
 10
-256.270116847896
 20
11.0746400669112
 30
0.0
 11
-256.791061277847
 21
14.0290633441182
 31
0.0
  0
LINE
  5
   151
  8
0
  6
CONTINUOUS
 62
     3
 10
-256.791061277847
 20
14.0290633441182
 30
0.0
 11
-257.312005707799
 21
11.0746400669112
 31
0.0
  0
LINE
  5
   152
  8
0
  6
CONTINUOUS
 62
     3
 10
-257.312005707799
 20
-0.016486795119647
 30
0.0
 11
-256.791061277847
 21
-2.97091007232661
 31
0.0
  0
LINE
  5
   153
  8
0
  6
CONTINUOUS
 62
     3
 10
-256.791061277847
 20
-2.97091007232661
 30
0.0
 11
-256.270116847896
 21
-0.016486795119647
 31
0.0
  0
ENDBLK
  5
   154
  8
0
  6
CONTINUOUS
 62
     7
  0
BLOCK
  5
   155
  8
0
  6
CONTINUOUS
 62
     7
  2
*UDIM792
 70
    65
 10
0.0
 20
0.0
 30
0.0
  3
*UDIM792
  0
TEXT
  5
   156
  8
0
  6
CONTINUOUS
 62
     7
 10
-257.791061280833
 20
-13.3209233791037
 30
0.0
 40
3.00000002980232
  1
=
 50
449.999999844103
 41
0.933333333333334
 72
     1
 11
-259.291061292749
 21
-12.2209233641042
 31
0.0
 73
     2
  0
LINE
  5
   157
  8
0
  6
CONTINUOUS
 62
     3
 10
-246.778138160706
 20
-21.4709366558818
 30
0.0
 11
-258.791061277847
 21
-21.4709366558818
 31
0.0
  0
LINE
  5
   158
  8
0
  6
CONTINUOUS
 62
     3
 10
-256.791061277847
 20
-2.97091007232661
 30
0.0
 11
-256.791061277847
 21
-21.4709366558818
 31
0.0
  0
LINE
  5
   159
  8
0
  6
CONTINUOUS
 62
     3
 10
-256.270116847896
 20
-5.92533334953357
 30
0.0
 11
-256.791061277847
 21
-2.97091007232661
 31
0.0
  0
LINE
  5
   15A
  8
0
  6
CONTINUOUS
 62
     3
 10
-256.791061277847
 20
-2.97091007232661
 30
0.0
 11
-257.312005707799
 21
-5.92533334953357
 31
0.0
  0
LINE
  5
   15B
  8
0
  6
CONTINUOUS
 62
     3
 10
-257.312005707799
 20
-18.5165133786749
 30
0.0
 11
-256.791061277847
 21
-21.4709366558818
 31
0.0
  0
LINE
  5
   15C
  8
0
  6
CONTINUOUS
 62
     3
 10
-256.791061277847
 20
-21.4709366558818
 30
0.0
 11
-256.270116847896
 21
-18.5165133786749
 31
0.0
  0
ENDBLK
  5
   15D
  8
0
  6
CONTINUOUS
 62
     7
  0
BLOCK
  5
   15E
  8
0
  6
CONTINUOUS
 62
     3
  2
*UDIM793
 70
    65
 10
0.0
 20
0.0
 30
0.0
  3
*UDIM793
  0
TEXT
  5
   15F
  8
0
  6
CONTINUOUS
 62
     3
 10
-208.053129612506
 20
-113.615396903566
 30
0.0
 40
3.00000002980232
  1
75
 50
359.999999844103
 41
0.933333333333333
 72
     1
 11
-205.553129583597
 21
-112.115396895455
 31
0.0
 73
     2
  0
LINE
  5
   160
  8
0
  6
CONTINUOUS
 62
     3
 10
-242.778123855591
 20
-47.97092521179
 30
0.0
 11
-242.778123855591
 21
-116.615396910356
 31
0.0
  0
LINE
  5
   161
  8
0
  6
CONTINUOUS
 62
     3
 10
-167.778136968613
 20
-25.4709100723266
 30
0.0
 11
-167.778136968613
 21
-116.615396910356
 31
0.0
  0
LINE
  5
   162
  8
0
  6
CONTINUOUS
 62
     3
 10
-242.778123855591
 20
-114.615396910356
 30
0.0
 11
-167.778136968613
 21
-114.615396910356
 31
0.0
  0
LINE
  5
   163
  8
0
  6
CONTINUOUS
 62
     3
 10
-239.823700578384
 20
-114.094452480404
 30
0.0
 11
-242.778123855591
 21
-114.615396910356
 31
0.0
  0
LINE
  5
   164
  8
0
  6
CONTINUOUS
 62
     3
 10
-242.778123855591
 20
-114.615396910356
 30
0.0
 11
-239.823700578384
 21
-115.136341340308
 31
0.0
  0
LINE
  5
   165
  8
0
  6
CONTINUOUS
 62
     3
 10
-170.73256024582
 20
-115.136341340308
 30
0.0
 11
-167.778136968613
 21
-114.615396910356
 31
0.0
  0
LINE
  5
   166
  8
0
  6
CONTINUOUS
 62
     3
 10
-167.778136968613
 20
-114.615396910356
 30
0.0
 11
-170.73256024582
 21
-114.094452480404
 31
0.0
  0
ENDBLK
  5
   167
  8
0
  6
CONTINUOUS
 62
     3
  0
BLOCK
  5
   168
  8
0
  6
CONTINUOUS
 62
     3
  2
*UDIM794
 70
    65
 10
0.0
 20
0.0
 30
0.0
  3
*UDIM794
  0
TEXT
  5
   169
  8
0
  6
CONTINUOUS
 62
     3
 10
-234.595538392763
 20
-101.685583557609
 30
0.0
 40
3.00000002980232
  1
27,5
 50
359.999999844103
 41
0.933333333333333
 72
     1
 11
-229.295538336039
 21
-100.185583557102
 31
0.0
 73
     2
  0
LINE
  5
   16A
  8
0
  6
CONTINUOUS
 62
     3
 10
-242.778123855591
 20
-47.97092521179
 30
0.0
 11
-242.778123855591
 21
-104.685583572003
 31
0.0
  0
LINE
  5
   16B
  8
0
  6
CONTINUOUS
 62
     3
 10
-215.262962341309
 20
-46.9450441237391
 30
0.0
 11
-215.262962341309
 21
-104.685583572003
 31
0.0
  0
LINE
  5
   16C
  8
0
  6
CONTINUOUS
 62
     3
 10
-242.778123855591
 20
-102.685583572003
 30
0.0
 11
-215.262962341309
 21
-102.685583572003
 31
0.0
  0
LINE
  5
   16D
  8
0
  6
CONTINUOUS
 62
     3
 10
-239.823700578384
 20
-102.164639142052
 30
0.0
 11
-242.778123855591
 21
-102.685583572003
 31
0.0
  0
LINE
  5
   16E
  8
0
  6
CONTINUOUS
 62
     3
 10
-242.778123855591
 20
-102.685583572003
 30
0.0
 11
-239.823700578384
 21
-103.206528001955
 31
0.0
  0
LINE
  5
   16F
  8
0
  6
CONTINUOUS
 62
     3
 10
-218.217385618516
 20
-103.206528001955
 30
0.0
 11
-215.262962341309
 21
-102.685583572003
 31
0.0
  0
LINE
  5
   170
  8
0
  6
CONTINUOUS
 62
     3
 10
-215.262962341309
 20
-102.685583572003
 30
0.0
 11
-218.217385618516
 21
-102.164639142052
 31
0.0
  0
ENDBLK
  5
   171
  8
0
  6
CONTINUOUS
 62
     3
  0
BLOCK
  5
   172
  8
0
  6
CONTINUOUS
 62
     3
  2
*UDIM795
 70
    65
 10
0.0
 20
0.0
 30
0.0
  3
*UDIM795
  0
TEXT
  5
   173
  8
0
  6
CONTINUOUS
 62
     3
 10
-251.5281373174
 20
-101.685583569016
 30
0.0
 40
3.00000002980232
  1
3
 50
359.999999844103
 41
0.933333333333334
 72
     1
 11
-250.428137302399
 21
-100.185583557102
 31
0.0
 73
     2
  0
LINE
  5
   174
  8
0
  6
CONTINUOUS
 62
     3
 10
-245.778138160706
 20
-21.4709366558818
 30
0.0
 11
-245.778138160706
 21
-104.685583572003
 31
0.0
  0
LINE
  5
   175
  8
0
  6
CONTINUOUS
 62
     3
 10
-242.778123855591
 20
-47.97092521179
 30
0.0
 11
-242.778123855591
 21
-104.685583572003
 31
0.0
  0
LINE
  5
   176
  8
0
  6
CONTINUOUS
 62
     3
 10
-251.528137313326
 20
-102.685583572003
 30
0.0
 11
-242.778123855591
 21
-102.685583572003
 31
0.0
  0
LINE
  5
   177
  8
0
  6
CONTINUOUS
 62
     3
 10
-248.732561437913
 20
-103.206528001955
 30
0.0
 11
-245.778138160706
 21
-102.685583572003
 31
0.0
  0
LINE
  5
   178
  8
0
  6
CONTINUOUS
 62
     3
 10
-245.778138160706
 20
-102.685583572003
 30
0.0
 11
-248.732561437913
 21
-102.164639142052
 31
0.0
  0
LINE
  5
   179
  8
0
  6
CONTINUOUS
 62
     3
 10
-239.823700578384
 20
-102.164639142052
 30
0.0
 11
-242.778123855591
 21
-102.685583572003
 31
0.0
  0
LINE
  5
   17A
  8
0
  6
CONTINUOUS
 62
     3
 10
-242.778123855591
 20
-102.685583572003
 30
0.0
 11
-239.823700578384
 21
-103.206528001955
 31
0.0
  0
ENDBLK
  5
   17B
  8
0
  6
CONTINUOUS
 62
     3
  0
BLOCK
  5
   17C
  8
0
  6
CONTINUOUS
 62
     7
  2
*UDIM796
 70
    65
 10
0.0
 20
0.0
 30
0.0
  3
*UDIM796
  0
TEXT
  5
   17D
  8
0
  6
CONTINUOUS
 62
     7
 10
-212.99060331295
 20
-89.2839696917511
 30
0.0
 40
3.00000002980232
  1
12.5
 50
359.999999844103
 41
0.933333333333333
 72
     1
 11
-207.690603256226
 21
-87.7839696912441
 31
0.0
 73
     2
  0
TEXT
  5
   17E
  8
0
  6
CONTINUOUS
 62
     7
 10
-201.390603207649
 20
-89.2839696879488
 30
0.0
 40
3.00000002980232
  1
x12.5
 50
359.999999844103
 41
0.933333333333333
 72
     1
 11
-194.690603137016
 21
-87.7839696912441
 31
0.0
 73
     2
  0
LINE
  5
   17F
  8
0
  6
CONTINUOUS
 62
     3
 10
-227.762962341309
 20
-48.9709253311157
 30
0.0
 11
-227.762962341309
 21
-92.2839697061453
 31
0.0
  0
LINE
  5
   180
  8
0
  6
CONTINUOUS
 62
     3
 10
-215.262962341309
 20
-49.4717860780354
 30
0.0
 11
-215.262962341309
 21
-92.2839697061453
 31
0.0
  0
LINE
  5
   181
  8
0
  6
CONTINUOUS
 62
     3
 10
-227.762962341309
 20
-90.2839697061453
 30
0.0
 11
-187.990603070458
 21
-90.2839697061453
 31
0.0
  0
LINE
  5
   182
  8
0
  6
CONTINUOUS
 62
     3
 10
-224.865184868098
 20
-89.5075125497267
 30
0.0
 11
-227.762962341309
 21
-90.2839697061453
 31
0.0
  0
LINE
  5
   183
  8
0
  6
CONTINUOUS
 62
     3
 10
-227.762962341309
 20
-90.2839697061453
 30
0.0
 11
-224.865184868098
 21
-91.0604268625638
 31
0.0
  0
LINE
  5
   184
  8
0
  6
CONTINUOUS
 62
     3
 10
-218.160739814519
 20
-91.0604268625638
 30
0.0
 11
-215.262962341309
 21
-90.2839697061453
 31
0.0
  0
LINE
  5
   185
  8
0
  6
CONTINUOUS
 62
     3
 10
-215.262962341309
 20
-90.2839697061453
 30
0.0
 11
-218.160739814519
 21
-89.5075125497267
 31
0.0
  0
ENDBLK
  5
   186
  8
0
  6
CONTINUOUS
 62
     7
  0
BLOCK
  5
   187
  8
0
  6
CONTINUOUS
 62
     7
  2
*UDIM797
 70
    65
 10
0.0
 20
0.0
 30
0.0
  3
*UDIM797
  0
TEXT
  5
   188
  8
0
  6
CONTINUOUS
 62
     7
 10
-198.814296045462
 20
-125.107109752092
 30
0.0
 40
3.00000002980232
  1
93
 50
359.999999844103
 41
0.933333333333333
 72
     1
 11
-196.314296016553
 21
-123.607109743981
 31
0.0
 73
     2
  0
LINE
  5
   189
  8
0
  6
CONTINUOUS
 62
     3
 10
-242.778123410543
 20
-53.9709253311157
 30
0.0
 11
-242.778123410543
 21
-128.107109758882
 31
0.0
  0
LINE
  5
   18A
  8
0
  6
CONTINUOUS
 62
     3
 10
-149.850468622563
 20
-22.2079281635205
 30
0.0
 11
-149.850468622563
 21
-128.107109758882
 31
0.0
  0
LINE
  5
   18B
  8
0
  6
CONTINUOUS
 62
     3
 10
-242.778123410543
 20
-126.107109758882
 30
0.0
 11
-149.850468622563
 21
-126.107109758882
 31
0.0
  0
LINE
  5
   18C
  8
0
  6
CONTINUOUS
 62
     3
 10
-239.880345937332
 20
-125.330652602463
 30
0.0
 11
-242.778123410543
 21
-126.107109758882
 31
0.0
  0
LINE
  5
   18D
  8
0
  6
CONTINUOUS
 62
     3
 10
-242.778123410543
 20
-126.107109758882
 30
0.0
 11
-239.880345937332
 21
-126.883566915301
 31
0.0
  0
LINE
  5
   18E
  8
0
  6
CONTINUOUS
 62
     3
 10
-152.748246095773
 20
-126.883566915301
 30
0.0
 11
-149.850468622563
 21
-126.107109758882
 31
0.0
  0
LINE
  5
   18F
  8
0
  6
CONTINUOUS
 62
     3
 10
-149.850468622563
 20
-126.107109758882
 30
0.0
 11
-152.748246095773
 21
-125.330652602463
 31
0.0
  0
ENDBLK
  5
   190
  8
0
  6
CONTINUOUS
 62
     7
  0
BLOCK
  5
   191
  8
0
  6
CONTINUOUS
 62
     3
  2
*UDIM798
 70
    65
 10
0.0
 20
0.0
 30
0.0
  3
*UDIM798
  0
TEXT
  5
   192
  8
0
  6
CONTINUOUS
 62
     3
 10
-168.73578765303
 20
90.5324545088581
 30
0.0
 40
3.00000002980232
  1
1.5-2
 50
359.999999844103
 41
0.933333333333333
 72
     1
 11
-162.035787582397
 21
92.0324545055628
 31
0.0
 73
     2
  0
LINE
  5
   193
  8
0
  6
CONTINUOUS
 62
     3
 10
-172.278129577637
 20
81.6704284834896
 30
0.0
 11
-172.278129577637
 21
91.5324544906616
 31
0.0
  0
LINE
  5
   194
  8
0
  6
CONTINUOUS
 62
     3
 10
-170.778129577637
 20
81.6704284834896
 30
0.0
 11
-170.778129577637
 21
91.5324544906616
 31
0.0
  0
LINE
  5
   195
  8
0
  6
CONTINUOUS
 62
     3
 10
-172.278129577637
 20
89.5324544906616
 30
0.0
 11
-155.335787515839
 21
89.5324544906616
 31
0.0
  0
LINE
  5
   196
  8
0
  6
CONTINUOUS
 62
     3
 10
-175.232552854844
 20
89.0115100607099
 30
0.0
 11
-172.278129577637
 21
89.5324544906616
 31
0.0
  0
LINE
  5
   197
  8
0
  6
CONTINUOUS
 62
     3
 10
-172.278129577637
 20
89.5324544906616
 30
0.0
 11
-175.232552854844
 21
90.0533989206133
 31
0.0
  0
LINE
  5
   198
  8
0
  6
CONTINUOUS
 62
     3
 10
-167.82370630043
 20
90.0533989206133
 30
0.0
 11
-170.778129577637
 21
89.5324544906616
 31
0.0
  0
LINE
  5
   199
  8
0
  6
CONTINUOUS
 62
     3
 10
-170.778129577637
 20
89.5324544906616
 30
0.0
 11
-167.82370630043
 21
89.0115100607099
 31
0.0
  0
ENDBLK
  5
   19A
  8
0
  6
CONTINUOUS
 62
     3
  0
BLOCK
  5
   19B
  8
0
  6
CONTINUOUS
 62
     3
  2
*UDIM799
 70
    65
 10
0.0
 20
0.0
 30
0.0
  3
*UDIM799
  0
TEXT
  5
   19C
  8
0
  6
CONTINUOUS
 62
     3
 10
-208.155622884731
 20
90.5324544974513
 30
0.0
 40
3.00000002980232
  1
71
 50
359.999999844103
 41
0.933333333333333
 72
     1
 11
-205.655622855822
 21
92.0324545055628
 31
0.0
 73
     2
  0
LINE
  5
   19D
  8
0
  6
CONTINUOUS
 62
     3
 10
-242.778123410543
 20
72.0290746688843
 30
0.0
 11
-242.778123410543
 21
91.5324544906616
 31
0.0
  0
LINE
  5
   19E
  8
0
  6
CONTINUOUS
 62
     3
 10
-172.278129577637
 20
81.6704284834896
 30
0.0
 11
-172.278129577637
 21
91.5324544906616
 31
0.0
  0
LINE
  5
   19F
  8
0
  6
CONTINUOUS
 62
     3
 10
-242.778123410543
 20
89.5324544906616
 30
0.0
 11
-172.278129577637
 21
89.5324544906616
 31
0.0
  0
LINE
  5
   1A0
  8
0
  6
CONTINUOUS
 62
     3
 10
-239.823700133336
 20
90.0533989206133
 30
0.0
 11
-242.778123410543
 21
89.5324544906616
 31
0.0
  0
LINE
  5
   1A1
  8
0
  6
CONTINUOUS
 62
     3
 10
-242.778123410543
 20
89.5324544906616
 30
0.0
 11
-239.823700133336
 21
89.0115100607099
 31
0.0
  0
LINE
  5
   1A2
  8
0
  6
CONTINUOUS
 62
     3
 10
-175.232552854844
 20
89.0115100607099
 30
0.0
 11
-172.278129577637
 21
89.5324544906616
 31
0.0
  0
LINE
  5
   1A3
  8
0
  6
CONTINUOUS
 62
     3
 10
-172.278129577637
 20
89.5324544906616
 30
0.0
 11
-175.232552854844
 21
90.0533989206133
 31
0.0
  0
ENDBLK
  5
   1A4
  8
0
  6
CONTINUOUS
 62
     3
  0
BLOCK
  5
   1A5
  8
0
  6
CONTINUOUS
 62
     3
  2
*UDIM800
 70
    65
 10
0.0
 20
0.0
 30
0.0
  3
*UDIM800
  0
TEXT
  5
   1A6
  8
0
  6
CONTINUOUS
 62
     3
 10
-139.848281867138
 20
-5.74591010719429
 30
0.0
 40
3.00000002980232
  1
45
 50
449.999999844103
 41
0.933333333333333
 72
     1
 11
-141.348281875253
 21
-3.24591007828707
 31
0.0
 73
     2
  0
LINE
  5
   1A7
  8
0
  6
CONTINUOUS
 62
     3
 10
-166.778136968613
 20
19.5290899276734
 30
0.0
 11
-136.848281860352
 21
19.5290899276734
 31
0.0
  0
LINE
  5
   1A8
  8
0
  6
CONTINUOUS
 62
     3
 10
-166.778136968613
 20
-25.4709100723266
 30
0.0
 11
-136.848281860352
 21
-25.4709100723266
 31
0.0
  0
LINE
  5
   1A9
  8
0
  6
CONTINUOUS
 62
     3
 10
-138.848281860352
 20
19.5290899276734
 30
0.0
 11
-138.848281860352
 21
-25.4709100723266
 31
0.0
  0
LINE
  5
   1AA
  8
0
  6
CONTINUOUS
 62
     3
 10
-138.3273374304
 20
16.5746666504664
 30
0.0
 11
-138.848281860352
 21
19.5290899276734
 31
0.0
  0
LINE
  5
   1AB
  8
0
  6
CONTINUOUS
 62
     3
 10
-138.848281860352
 20
19.5290899276734
 30
0.0
 11
-139.369226290303
 21
16.5746666504664
 31
0.0
  0
LINE
  5
   1AC
  8
0
  6
CONTINUOUS
 62
     3
 10
-139.369226290303
 20
-22.5164867951196
 30
0.0
 11
-138.848281860352
 21
-25.4709100723266
 31
0.0
  0
LINE
  5
   1AD
  8
0
  6
CONTINUOUS
 62
     3
 10
-138.848281860352
 20
-25.4709100723266
 30
0.0
 11
-138.3273374304
 21
-22.5164867951196
 31
0.0
  0
ENDBLK
  5
   1AE
  8
0
  6
CONTINUOUS
 62
     3
  0
BLOCK
  5
   1AF
  8
0
  6
CONTINUOUS
 62
     3
  2
*UDIM801
 70
    65
 10
0.0
 20
0.0
 30
0.0
  3
*UDIM801
  0
TEXT
  5
   1B0
  8
0
  6
CONTINUOUS
 62
     3
 10
-52.4567317067176
 20
70.9308133134256
 30
0.0
 40
3.00000002980232
  1
53
 50
449.999999844103
 41
0.933333333333333
 72
     1
 11
-53.9567317148322
 21
73.4308133423328
 31
0.0
 73
     2
  0
LINE
  5
   1B1
  8
0
  6
CONTINUOUS
 62
     3
 10
-71.5472259521484
 20
86.5266494750977
 30
0.0
 11
-49.4567316999311
 21
86.5266494750977
 31
0.0
  0
LINE
  5
   1B2
  8
0
  6
CONTINUOUS
 62
     3
 10
-71.5472259521484
 20
60.0266494750977
 30
0.0
 11
-49.4567316999311
 21
60.0266494750977
 31
0.0
  0
LINE
  5
   1B3
  8
0
  6
CONTINUOUS
 62
     3
 10
-51.4567316999311
 20
86.5266494750977
 30
0.0
 11
-51.4567316999311
 21
60.0266494750977
 31
0.0
  0
LINE
  5
   1B4
  8
0
  6
CONTINUOUS
 62
     3
 10
-50.6802745435125
 20
83.6288720018871
 30
0.0
 11
-51.4567316999311
 21
86.5266494750977
 31
0.0
  0
LINE
  5
   1B5
  8
0
  6
CONTINUOUS
 62
     3
 10
-51.4567316999311
 20
86.5266494750977
 30
0.0
 11
-52.2331888563496
 21
83.6288720018871
 31
0.0
  0
LINE
  5
   1B6
  8
0
  6
CONTINUOUS
 62
     3
 10
-52.2331888563496
 20
62.9244269483082
 30
0.0
 11
-51.4567316999311
 21
60.0266494750977
 31
0.0
  0
LINE
  5
   1B7
  8
0
  6
CONTINUOUS
 62
     3
 10
-51.4567316999311
 20
60.0266494750977
 30
0.0
 11
-50.6802745435125
 21
62.9244269483082
 31
0.0
  0
ENDBLK
  5
   1B8
  8
0
  6
CONTINUOUS
 62
     3
  0
BLOCK
  5
   1B9
  8
0
  6
CONTINUOUS
 62
     3
  2
*UDIM802
 70
    65
 10
0.0
 20
0.0
 30
0.0
  3
*UDIM802
  0
TEXT
  5
   1BA
  8
0
  6
CONTINUOUS
 62
     3
 10
-86.3424679449209
 20
45.8531813932826
 30
0.0
 40
3.00000002980232
  1
48
 50
359.999999844103
 41
0.933333333333333
 72
     1
 11
-83.8424679160118
 21
47.3531814013941
 31
0.0
 73
     2
  0
LINE
  5
   1BB
  8
0
  6
CONTINUOUS
 62
     3
 10
-96.2972259521484
 20
52.0759905801597
 30
0.0
 11
-96.2972259521484
 21
42.8531813864929
 31
0.0
  0
LINE
  5
   1BC
  8
0
  6
CONTINUOUS
 62
     3
 10
-72.3222259521484
 20
51.7766494750977
 30
0.0
 11
-72.3222259521484
 21
42.8531813864929
 31
0.0
  0
LINE
  5
   1BD
  8
0
  6
CONTINUOUS
 62
     3
 10
-96.2972259521484
 20
44.8531813864929
 30
0.0
 11
-72.3222259521484
 21
44.8531813864929
 31
0.0
  0
LINE
  5
   1BE
  8
0
  6
CONTINUOUS
 62
     3
 10
-93.3994484789379
 20
45.6296385429114
 30
0.0
 11
-96.2972259521484
 21
44.8531813864929
 31
0.0
  0
LINE
  5
   1BF
  8
0
  6
CONTINUOUS
 62
     3
 10
-96.2972259521484
 20
44.8531813864929
 30
0.0
 11
-93.3994484789379
 21
44.0767242300744
 31
0.0
  0
LINE
  5
   1C0
  8
0
  6
CONTINUOUS
 62
     3
 10
-75.220003425359
 20
44.0767242300744
 30
0.0
 11
-72.3222259521484
 21
44.8531813864929
 31
0.0
  0
LINE
  5
   1C1
  8
0
  6
CONTINUOUS
 62
     3
 10
-72.3222259521484
 20
44.8531813864929
 30
0.0
 11
-75.220003425359
 21
45.6296385429114
 31
0.0
  0
ENDBLK
  5
   1C2
  8
0
  6
CONTINUOUS
 62
     3
  0
BLOCK
  5
   1C3
  8
0
  6
CONTINUOUS
 62
     3
  2
*UDIM803
 70
    65
 10
0.0
 20
0.0
 30
0.0
  3
*UDIM803
  0
TEXT
  5
   1C4
  8
0
  6
CONTINUOUS
 62
     3
 10
-107.830587314666
 20
31.9687658809569
 30
0.0
 40
3.00000002980232
  1
125.5
 50
359.999999844103
 41
0.933333333333333
 72
     1
 11
-101.130587244034
 21
33.4687658776617
 31
0.0
 73
     2
  0
LINE
  5
   1C5
  8
0
  6
CONTINUOUS
 62
     3
 10
-135.072225952148
 20
51.7766494750977
 30
0.0
 11
-135.072225952148
 21
28.9687658627605
 31
0.0
  0
LINE
  5
   1C6
  8
0
  6
CONTINUOUS
 62
     3
 10
-72.3222259521484
 20
51.7766494750977
 30
0.0
 11
-72.3222259521484
 21
28.9687658627605
 31
0.0
  0
LINE
  5
   1C7
  8
0
  6
CONTINUOUS
 62
     3
 10
-135.072225952148
 20
30.9687658627605
 30
0.0
 11
-72.3222259521484
 21
30.9687658627605
 31
0.0
  0
LINE
  5
   1C8
  8
0
  6
CONTINUOUS
 62
     3
 10
-132.174448478938
 20
31.745223019179
 30
0.0
 11
-135.072225952148
 21
30.9687658627605
 31
0.0
  0
LINE
  5
   1C9
  8
0
  6
CONTINUOUS
 62
     3
 10
-135.072225952148
 20
30.9687658627605
 30
0.0
 11
-132.174448478938
 21
30.1923087063419
 31
0.0
  0
LINE
  5
   1CA
  8
0
  6
CONTINUOUS
 62
     3
 10
-75.220003425359
 20
30.1923087063419
 30
0.0
 11
-72.3222259521484
 21
30.9687658627605
 31
0.0
  0
LINE
  5
   1CB
  8
0
  6
CONTINUOUS
 62
     3
 10
-72.3222259521484
 20
30.9687658627605
 30
0.0
 11
-75.220003425359
 21
31.745223019179
 31
0.0
  0
ENDBLK
  5
   1CC
  8
0
  6
CONTINUOUS
 62
     3
  0
BLOCK
  5
   1CD
  8
0
  6
CONTINUOUS
 62
     3
  2
*UDIM804
 70
    65
 10
0.0
 20
0.0
 30
0.0
  3
*UDIM804
  0
TEXT
  5
   1CE
  8
0
  6
CONTINUOUS
 62
     3
 10
-107.697225994965
 20
66.7766494856896
 30
0.0
 40
3.00000002980232
  1
128
 50
359.999999844103
 41
0.933333333333333
 72
     1
 11
-103.797225952148
 21
68.2766494899988
 31
0.0
 73
     2
  0
LINE
  5
   1CF
  8
0
  6
CONTINUOUS
 62
     3
 10
-135.797225952148
 20
65.7766494750977
 30
0.0
 11
-71.7972259521484
 21
65.7766494750977
 31
0.0
  0
LINE
  5
   1D0
  8
0
  6
CONTINUOUS
 62
     3
 10
-132.899448478938
 20
66.5531066315162
 30
0.0
 11
-135.797225952148
 21
65.7766494750977
 31
0.0
  0
LINE
  5
   1D1
  8
0
  6
CONTINUOUS
 62
     3
 10
-135.797225952148
 20
65.7766494750977
 30
0.0
 11
-132.899448478938
 21
65.0001923186791
 31
0.0
  0
LINE
  5
   1D2
  8
0
  6
CONTINUOUS
 62
     3
 10
-74.695003425359
 20
65.0001923186791
 30
0.0
 11
-71.7972259521484
 21
65.7766494750977
 31
0.0
  0
LINE
  5
   1D3
  8
0
  6
CONTINUOUS
 62
     3
 10
-71.7972259521484
 20
65.7766494750977
 30
0.0
 11
-74.695003425359
 21
66.5531066315162
 31
0.0
  0
ENDBLK
  5
   1D4
  8
0
  6
CONTINUOUS
 62
     3
  0
BLOCK
  5
   1D5
  8
0
  6
CONTINUOUS
 62
     3
  2
*UDIM805
 70
    65
 10
0.0
 20
0.0
 30
0.0
  3
*UDIM805
  0
TEXT
  5
   1D6
  8
0
  6
CONTINUOUS
 62
     3
 10
-151.635942595903
 20
70.8297131964575
 30
0.0
 40
3.00000002980232
  1
64
 50
449.999999844103
 41
0.933333333333333
 72
     1
 11
-153.135942604018
 21
73.3297132253647
 31
0.0
 73
     2
  0
LINE
  5
   1D7
  8
0
  6
CONTINUOUS
 62
     3
 10
-140.572225952148
 20
89.2766494750977
 30
0.0
 11
-152.635942589117
 21
89.2766494750977
 31
0.0
  0
LINE
  5
   1D8
  8
0
  6
CONTINUOUS
 62
     3
 10
-140.572225952148
 20
57.2766494750977
 30
0.0
 11
-152.635942589117
 21
57.2766494750977
 31
0.0
  0
LINE
  5
   1D9
  8
0
  6
CONTINUOUS
 62
     3
 10
-150.635942589117
 20
89.2766494750977
 30
0.0
 11
-150.635942589117
 21
57.2766494750977
 31
0.0
  0
LINE
  5
   1DA
  8
0
  6
CONTINUOUS
 62
     3
 10
-149.859485432698
 20
86.3788720018871
 30
0.0
 11
-150.635942589117
 21
89.2766494750977
 31
0.0
  0
LINE
  5
   1DB
  8
0
  6
CONTINUOUS
 62
     3
 10
-150.635942589117
 20
89.2766494750977
 30
0.0
 11
-151.412399745535
 21
86.3788720018871
 31
0.0
  0
LINE
  5
   1DC
  8
0
  6
CONTINUOUS
 62
     3
 10
-151.412399745535
 20
60.1744269483082
 30
0.0
 11
-150.635942589117
 21
57.2766494750977
 31
0.0
  0
LINE
  5
   1DD
  8
0
  6
CONTINUOUS
 62
     3
 10
-150.635942589117
 20
57.2766494750977
 30
0.0
 11
-149.859485432698
 21
60.1744269483082
 31
0.0
  0
ENDBLK
  5
   1DE
  8
0
  6
CONTINUOUS
 62
     3
  0
BLOCK
  5
   1DF
  8
0
  6
CONTINUOUS
 62
     3
  2
*UDIM806
 70
    65
 10
0.0
 20
0.0
 30
0.0
  3
*UDIM806
  0
TEXT
  5
   1E0
  8
0
  6
CONTINUOUS
 62
     3
 10
-86.8097259810575
 20
99.5834358770619
 30
0.0
 40
3.00000002980232
  1
48
 50
359.999999844103
 41
0.933333333333333
 72
     1
 11
-84.3097259521485
 21
101.083435885173
 31
0.0
 73
     2
  0
LINE
  5
   1E1
  8
0
  6
CONTINUOUS
 62
     3
 10
-96.2972259521484
 20
94.5834358702721
 30
0.0
 11
-96.2972259521484
 21
100.583435870272
 31
0.0
  0
LINE
  5
   1E2
  8
0
  6
CONTINUOUS
 62
     3
 10
-72.3222259521484
 20
94.7766494750977
 30
0.0
 11
-72.3222259521484
 21
100.583435870272
 31
0.0
  0
LINE
  5
   1E3
  8
0
  6
CONTINUOUS
 62
     3
 10
-96.2972259521484
 20
98.5834358702721
 30
0.0
 11
-72.3222259521484
 21
98.5834358702721
 31
0.0
  0
LINE
  5
   1E4
  8
0
  6
CONTINUOUS
 62
     3
 10
-93.3994484789379
 20
99.3598930266907
 30
0.0
 11
-96.2972259521484
 21
98.5834358702721
 31
0.0
  0
LINE
  5
   1E5
  8
0
  6
CONTINUOUS
 62
     3
 10
-96.2972259521484
 20
98.5834358702721
 30
0.0
 11
-93.3994484789379
 21
97.8069787138536
 31
0.0
  0
LINE
  5
   1E6
  8
0
  6
CONTINUOUS
 62
     3
 10
-75.220003425359
 20
97.8069787138536
 30
0.0
 11
-72.3222259521484
 21
98.5834358702721
 31
0.0
  0
LINE
  5
   1E7
  8
0
  6
CONTINUOUS
 62
     3
 10
-72.3222259521484
 20
98.5834358702721
 30
0.0
 11
-75.220003425359
 21
99.3598930266907
 31
0.0
  0
ENDBLK
  5
   1E8
  8
0
  6
CONTINUOUS
 62
     3
  0
BLOCK
  5
   1E9
  8
0
  6
CONTINUOUS
 62
     3
  2
*UDIM807
 70
    65
 10
0.0
 20
0.0
 30
0.0
  3
*UDIM807
  0
TEXT
  5
   1EA
  8
0
  6
CONTINUOUS
 62
     3
 10
-83.7093335262169
 20
75.1161316577914
 30
0.0
 40
3.00000002980232
  1
1,5
 50
407.397966829164
 41
0.933333333333333
 72
     1
 11
-82.173524960829
 21
79.0021697941689
 31
0.0
 73
     2
  0
TEXT
  5
   1EB
  8
0
  6
CONTINUOUS
 62
     3
 10
-85.570814285609
 20
73.0919306874871
 30
0.0
 40
3.00000002980232
  1
R
 50
407.397966829164
 41
0.933333333333334
 72
     1
 11
-85.9303315911731
 21
74.9169642147803
 31
0.0
 73
     2
  0
LINE
  5
   1EC
  8
0
  6
CONTINUOUS
 62
     3
 10
-72.0395493861143
 20
86.3287042769967
 30
0.0
 11
-84.834741211455
 21
72.4150286004178
 31
0.0
  0
LINE
  5
   1ED
  8
0
  6
CONTINUOUS
 62
     3
 10
-73.6559515059896
 20
83.8014044952409
 30
0.0
 11
-72.0395493861143
 21
86.3287042769967
 31
0.0
  0
LINE
  5
   1EE
  8
0
  6
CONTINUOUS
 62
     3
 10
-72.0395493861143
 20
86.3287042769967
 30
0.0
 11
-74.4228578368625
 21
84.5066612400208
 31
0.0
  0
ENDBLK
  5
   1EF
  8
0
  6
CONTINUOUS
 62
     3
  0
BLOCK
  5
   1F0
  8
0
  6
CONTINUOUS
 62
     3
  2
*UDIM808
 70
    65
 10
0.0
 20
0.0
 30
0.0
  3
*UDIM808
  0
TEXT
  5
   1F1
  8
0
  6
CONTINUOUS
 62
     3
 10
-128.527944721146
 20
97.1892878016507
 30
0.0
 40
3.00000002980232
  1
4
 50
404.818233515836
 41
0.933333333333334
 72
     1
 11
-128.804953593005
 21
99.0286534949415
 31
0.0
 73
     2
  0
TEXT
  5
   1F2
  8
0
  6
CONTINUOUS
 62
     3
 10
-130.762386075633
 20
94.9689788375779
 30
0.0
 40
3.00000002980232
  1
Ø
 50
404.818233515836
 41
0.933333333333334
 72
     1
 11
-131.039394947492
 21
96.8083445308687
 31
0.0
 73
     2
  0
LINE
  5
   1F3
  8
0
  6
CONTINUOUS
 62
     3
 10
-126.262522503366
 20
98.0306333283202
 30
0.0
 11
-135.781572411653
 21
88.571789488726
 31
0.0
  0
LINE
  5
   1F4
  8
0
  6
CONTINUOUS
 62
     3
 10
-132.634362684874
 20
92.4334942993624
 30
0.0
 11
-134.362879492643
 21
89.9815094614693
 31
0.0
  0
LINE
  5
   1F5
  8
0
  6
CONTINUOUS
 62
     3
 10
-134.362879492643
 20
89.9815094614693
 30
0.0
 11
-131.899976917282
 21
91.6944341253924
 31
0.0
  0
LINE
  5
   1F6
  8
0
  6
CONTINUOUS
 62
     3
 10
-137.510089219423
 20
86.1198046508329
 30
0.0
 11
-135.781572411653
 21
88.571789488726
 31
0.0
  0
LINE
  5
   1F7
  8
0
  6
CONTINUOUS
 62
     3
 10
-135.781572411653
 20
88.571789488726
 30
0.0
 11
-138.244474987015
 21
86.858864824803
 31
0.0
  0
ENDBLK
  5
   1F8
  8
0
  6
CONTINUOUS
 62
     3
  0
ENDSEC
  0
SECTION
  2
ENTITIES
  0
LINE
  5
   1F9
  8
0
  6
CONTINUOUS
 62
     7
 10
-286.007507324219
 20
43.7795257568359
 30
0.0
 11
-286.007507324219
 21
-22.7199223294951
 31
0.0
  0
LINE
  5
   1FA
  8
0
  6
CONTINUOUS
 62
     7
 10
-417.757507324219
 20
-50.9704742431641
 30
0.0
 11
-343.346904211373
 21
-50.9704742431641
 31
0.0
  0
LINE
  5
   1FB
  8
0
  6
CONTINUOUS
 62
     7
 10
-419.007507324219
 20
43.7795257568359
 30
0.0
 11
-419.007507324219
 21
-49.7204742431641
 31
0.0
  0
LINE
  5
   1FC
  8
0
  6
CONTINUOUS
 62
     7
 10
-417.757507324219
 20
45.0295257568359
 30
0.0
 11
-287.257507324219
 21
45.0295257568359
 31
0.0
  0
LINE
  5
   1FD
  8
0
  6
CONTINUOUS
 62
     7
 10
-414.007507324219
 20
-26.9704742431641
 30
0.0
 11
-343.346904211373
 21
-26.9704742431641
 31
0.0
  0
LINE
  5
   1FE
  8
0
  6
CONTINUOUS
 62
     7
 10
-414.007507324219
 20
21.0295257568359
 30
0.0
 11
-291.007507324219
 21
21.0295257568359
 31
0.0
  0
LINE
  5
   1FF
  8
0
  6
CONTINUOUS
 62
     7
 10
-414.507507324219
 20
45.0295257568359
 30
0.0
 11
-414.507507324219
 21
-50.9704742431641
 31
0.0
  0
LINE
  5
   200
  8
0
  6
CONTINUOUS
 62
     7
 10
-413.507507324219
 20
31.5295257568359
 30
0.0
 11
-413.507507324219
 21
21.0295257568359
 31
0.0
  0
LINE
  5
   201
  8
0
  6
CONTINUOUS
 62
     7
 10
-413.507507324219
 20
-26.9704742431641
 30
0.0
 11
-413.507507324219
 21
-37.4704742431641
 31
0.0
  0
LINE
  5
   202
  8
0
  6
CONTINUOUS
 62
     7
 10
-413.507507324219
 20
-38.4704742431641
 30
0.0
 11
-413.507507324219
 21
-50.9704742431641
 31
0.0
  0
LINE
  5
   203
  8
0
  6
CONTINUOUS
 62
     7
 10
-290.507507324219
 20
45.0295257568359
 30
0.0
 11
-290.507507324219
 21
-22.7199223294951
 31
0.0
  0
LINE
  5
   204
  8
0
  6
CONTINUOUS
 62
     7
 10
-291.507507324219
 20
31.5295257568359
 30
0.0
 11
-291.507507324219
 21
21.0295257568359
 31
0.0
  0
LINE
  5
   205
  8
0
  6
CONTINUOUS
 62
     7
 10
-414.507507324219
 20
32.5295257568359
 30
0.0
 11
-290.507507324219
 21
32.5295257568359
 31
0.0
  0
LINE
  5
   206
  8
0
  6
CONTINUOUS
 62
     7
 10
-413.507507324219
 20
31.5295257568359
 30
0.0
 11
-291.507507324219
 21
31.5295257568359
 31
0.0
  0
LINE
  5
   207
  8
0
  6
CONTINUOUS
 62
     7
 10
-413.507507324219
 20
-38.4704742431641
 30
0.0
 11
-343.346904211373
 21
-38.4704742431641
 31
0.0
  0
LINE
  5
   208
  8
0
  6
CONTINUOUS
 62
     7
 10
-413.507507324219
 20
-37.4704742431641
 30
0.0
 11
-343.346904211373
 21
-37.4704742431641
 31
0.0
  0
LINE
  5
   209
  8
0
  6
CONTINUOUS
 62
     7
 10
-414.507507324219
 20
39.5295257568359
 30
0.0
 11
-414.207504272461
 21
39.5295257568359
 31
0.0
  0
LINE
  5
   20A
  8
0
  6
CONTINUOUS
 62
     7
 10
-414.507507324219
 20
38.0295257568359
 30
0.0
 11
-414.207504272461
 21
38.0295257568359
 31
0.0
  0
LINE
  5
   20B
  8
0
  6
CONTINUOUS
 62
     7
 10
-290.807507514954
 20
39.5295257568359
 30
0.0
 11
-290.507507324219
 21
39.5295257568359
 31
0.0
  0
LINE
  5
   20C
  8
0
  6
CONTINUOUS
 62
     7
 10
-290.807507514954
 20
38.0295257568359
 30
0.0
 11
-290.507507324219
 21
38.0295257568359
 31
0.0
  0
ARC
  5
   20D
  8
0
  6
CONTINUOUS
 62
     7
 10
-414.207544215137
 20
38.7795008388815
 30
0.0
 40
0.750043449440929
 50
270.002994716444
 51
449.997011754257
  0
ARC
  5
   20E
  8
0
  6
CONTINUOUS
 62
     7
 10
-290.807492651836
 20
38.7795202467055
 30
0.0
 40
0.750014940188872
 50
450.001135501493
 51
629.998857587167
  0
ARC
  5
   20F
  8
0
  6
CONTINUOUS
 62
     7
 10
-287.257507324219
 20
43.7795257568359
 30
0.0
 40
1.25
 50
359.999999844103
 51
449.999999844103
  0
ARC
  5
   210
  8
0
  6
CONTINUOUS
 62
     7
 10
-417.757507324219
 20
43.7795257568359
 30
0.0
 40
1.25
 50
449.999999844103
 51
539.999999844103
  0
ARC
  5
   211
  8
0
  6
CONTINUOUS
 62
     7
 10
-417.757507324219
 20
-49.7204742431641
 30
0.0
 40
1.25
 50
539.999999844103
 51
629.999999844103
  0
LINE
  5
   212
  8
0
  6
CONTINUOUS
 62
     7
 10
-291.007507324219
 20
21.0295257568359
 30
0.0
 11
-291.007507324219
 21
-22.7199223294951
 31
0.0
  0
LINE
  5
   213
  8
0
  6
CONTINUOUS
 62
     7
 10
-414.007507324219
 20
21.0295257568359
 30
0.0
 11
-414.007507324219
 21
-26.9704742431641
 31
0.0
  0
LINE
  5
   214
  8
0
  6
DOT
 62
   130
 10
-296.007415771484
 20
8.72905941009521
 30
0.0
 11
-296.007415771484
 21
-8.67094058990478
 31
0.0
  0
LINE
  5
   215
  8
0
  6
DOT
 62
   130
 10
-294.430649965103
 20
9.22905941009521
 30
0.0
 11
-293.056911255375
 21
8.72905941009521
 31
0.0
  0
LINE
  5
   216
  8
0
  6
DOT
 62
   130
 10
-293.056911255375
 20
-8.67094058990479
 30
0.0
 11
-294.430649965103
 21
-9.17094058990479
 31
0.0
  0
LINE
  5
   217
  8
0
  6
DOT
 62
   130
 10
-293.056911255375
 20
8.72905941009521
 30
0.0
 11
-292.507415771484
 21
8.72905941009521
 31
0.0
  0
LINE
  5
   218
  8
0
  6
DOT
 62
   130
 10
-293.056911255375
 20
-8.67094058990478
 30
0.0
 11
-292.507415771484
 21
-8.67094058990478
 31
0.0
  0
LINE
  5
   219
  8
0
  6
DOT
 62
   130
 10
-295.507415771484
 20
9.22905941009521
 30
0.0
 11
-294.430649965103
 21
9.22905941009521
 31
0.0
  0
LINE
  5
   21A
  8
0
  6
DOT
 62
   130
 10
-295.507415771484
 20
-9.17094058990478
 30
0.0
 11
-294.430649965103
 21
-9.17094058990478
 31
0.0
  0
LINE
  5
   21B
  8
0
  6
CONTINUOUS
 62
   130
 10
-279.594573974609
 20
-5.47094058990479
 30
0.0
 11
-279.594573974609
 21
-5.47094058990479
 31
0.0
  0
LINE
  5
   21C
  8
0
  6
CONTINUOUS
 62
   130
 10
-279.594573974609
 20
-5.47094058990479
 30
0.0
 11
-279.594573974609
 21
-5.47094058990479
 31
0.0
  0
LINE
  5
   21D
  8
0
  6
CONTINUOUS
 62
   130
 10
-279.594573974609
 20
-5.47094058990479
 30
0.0
 11
-279.594573974609
 21
-5.47094058990479
 31
0.0
  0
LINE
  5
   21E
  8
0
  6
CONTINUOUS
 62
   130
 10
-279.594573974609
 20
-5.47094058990479
 30
0.0
 11
-279.594573974609
 21
-5.47094058990479
 31
0.0
  0
LINE
  5
   21F
  8
0
  6
CONTINUOUS
 62
   130
 10
-279.594573974609
 20
-5.47094058990479
 30
0.0
 11
-279.594573974609
 21
-5.47094058990479
 31
0.0
  0
LINE
  5
   220
  8
0
  6
CONTINUOUS
 62
   130
 10
-279.594573974609
 20
-5.47094058990479
 30
0.0
 11
-279.594573974609
 21
-5.47094058990479
 31
0.0
  0
LINE
  5
   221
  8
0
  6
CONTINUOUS
 62
   130
 10
-279.594573974609
 20
-5.47094058990479
 30
0.0
 11
-279.594573974609
 21
-5.47094058990479
 31
0.0
  0
LINE
  5
   222
  8
0
  6
CONTINUOUS
 62
   130
 10
-279.594573974609
 20
-5.47094058990479
 30
0.0
 11
-279.594573974609
 21
-5.47094058990479
 31
0.0
  0
LINE
  5
   223
  8
0
  6
CONTINUOUS
 62
   130
 10
-412.507396774288
 20
70.0290592575104
 30
0.0
 11
-412.507392959662
 21
45.0295257568359
 31
0.0
  0
LINE
  5
   224
  8
0
  6
CONTINUOUS
 62
   130
 10
-412.507382202152
 20
-25.4709100723198
 30
0.0
 11
-337.50741271973
 21
-25.4709100723198
 31
0.0
  0
LINE
  5
   225
  8
0
  6
CONTINUOUS
 62
   130
 10
-412.507389068606
 20
19.5290899276683
 30
0.0
 11
-337.507419586183
 21
19.5290899276683
 31
0.0
  0
LINE
  5
   226
  8
0
  6
CONTINUOUS
 62
   130
 10
-345.007430711213
 20
11.1650933688836
 30
0.0
 11
-330.862985165824
 21
11.1650933688836
 31
0.0
  0
LINE
  5
   227
  8
0
  6
CONTINUOUS
 62
   130
 10
-345.007430782319
 20
13.0290899276683
 30
0.0
 11
-345.007429755713
 21
-13.8827608669608
 31
0.0
  0
LINE
  5
   228
  8
0
  6
DASHDOT
 62
   130
 10
-358.107413482667
 20
-15.2209253311139
 30
0.0
 11
-358.107413482667
 21
-25.7209253311139
 31
0.0
  0
LINE
  5
   229
  8
0
  6
CONTINUOUS
 62
   130
 10
-345.007429755713
 20
-13.8827608669608
 30
0.0
 11
-344.007429755713
 21
-13.8827608669608
 31
0.0
  0
LINE
  5
   22A
  8
0
  6
CONTINUOUS
 62
   130
 10
-345.007429770064
 20
-13.506557381767
 30
0.0
 11
-344.007429770064
 21
-13.506557381767
 31
0.0
  0
LINE
  5
   22B
  8
0
  6
CONTINUOUS
 62
   130
 10
-382.507385975665
 20
13.0290899276683
 30
0.0
 11
-327.315992054297
 21
13.0290899276683
 31
0.0
  0
LINE
  5
   22C
  8
0
  6
CONTINUOUS
 62
   130
 10
-382.507385975665
 20
11.5290899276683
 30
0.0
 11
-345.007430725099
 21
11.5290899276683
 31
0.0
  0
LINE
  5
   22D
  8
0
  6
CONTINUOUS
 62
   130
 10
-382.507385975665
 20
-18.9709100723198
 30
0.0
 11
-363.107413482667
 21
-18.9709100723198
 31
0.0
  0
LINE
  5
   22E
  8
0
  6
CONTINUOUS
 62
   130
 10
-382.507385975665
 20
-17.4709100723198
 30
0.0
 11
-344.007429618836
 21
-17.4709100723198
 31
0.0
  0
LINE
  5
   22F
  8
0
  6
CONTINUOUS
 62
   130
 10
-353.107413482667
 20
-18.9709100723198
 30
0.0
 11
-304.328014507649
 21
-18.9709100723198
 31
0.0
  0
ARC
  5
   230
  8
0
  6
DOT
 62
   130
 10
-295.507415771484
 20
8.72905941009521
 30
0.0
 40
0.5
 50
449.999999844103
 51
539.999999844103
  0
ARC
  5
   231
  8
0
  6
DOT
 62
   130
 10
-295.507415771484
 20
-8.67094058990478
 30
0.0
 40
0.5
 50
539.999999844103
 51
629.999999844103
  0
LINE
  5
   232
  8
0
  6
CONTINUOUS
 62
   130
 10
-344.00742995378
 20
-8.69056581675995
 30
0.0
 11
-344.007429632848
 21
-17.1035770130312
 31
0.0
  0
LINE
  5
   233
  8
0
  6
CONTINUOUS
 62
   130
 10
-279.594573974609
 20
-5.47094058990479
 30
0.0
 11
-279.594573974609
 21
-5.47094058990479
 31
0.0
  0
LINE
  5
   234
  8
0
  6
CONTINUOUS
 62
   130
 10
-279.594573974609
 20
-5.47094058990479
 30
0.0
 11
-279.594573974609
 21
-5.47094058990479
 31
0.0
  0
LINE
  5
   235
  8
0
  6
CONTINUOUS
 62
   130
 10
-279.594573974609
 20
-5.47094058990479
 30
0.0
 11
-279.594573974609
 21
-5.47094058990479
 31
0.0
  0
LINE
  5
   236
  8
0
  6
CONTINUOUS
 62
   130
 10
-279.594573974609
 20
-5.47094058990479
 30
0.0
 11
-279.594573974609
 21
-5.47094058990479
 31
0.0
  0
LINE
  5
   237
  8
0
  6
CONTINUOUS
 62
   130
 10
-279.594573974609
 20
-5.47094058990479
 30
0.0
 11
-279.594573974609
 21
-5.47094058990479
 31
0.0
  0
LINE
  5
   238
  8
0
  6
CONTINUOUS
 62
   130
 10
-279.594573974609
 20
-5.47094058990479
 30
0.0
 11
-279.594573974609
 21
-5.47094058990479
 31
0.0
  0
LINE
  5
   239
  8
0
  6
CONTINUOUS
 62
   130
 10
-279.594573974609
 20
-5.47094058990479
 30
0.0
 11
-279.594573974609
 21
-5.47094058990479
 31
0.0
  0
LINE
  5
   23A
  8
0
  6
CONTINUOUS
 62
   130
 10
-411.507424926752
 20
54.5290476445807
 30
0.0
 11
-411.50742469787
 21
53.0290476445807
 31
0.0
  0
LINE
  5
   23B
  8
0
  6
CONTINUOUS
 62
   130
 10
-412.507394409174
 20
54.5290476445807
 30
0.0
 11
-337.507445567306
 21
54.5290476445807
 31
0.0
  0
LINE
  5
   23C
  8
0
  6
CONTINUOUS
 62
   130
 10
-412.507394180292
 20
53.0290476445807
 30
0.0
 11
-337.507415771484
 21
53.0290476445807
 31
0.0
  0
LINE
  5
   23D
  8
0
  6
DOT
 62
   130
 10
-409.007415771486
 20
1.32905941009521
 30
0.0
 11
-409.007415771486
 21
-8.67094058990478
 31
0.0
  0
LINE
  5
   23E
  8
0
  6
DOT
 62
   130
 10
-410.584180448718
 20
1.8290594100952
 30
0.0
 11
-411.957919158445
 21
1.32905941009521
 31
0.0
  0
LINE
  5
   23F
  8
0
  6
DOT
 62
   130
 10
-411.957920287595
 20
-8.67094058990479
 30
0.0
 11
-410.584181577868
 21
-9.1709405899048
 31
0.0
  0
LINE
  5
   240
  8
0
  6
DOT
 62
   130
 10
-412.507414642336
 20
1.32905941009521
 30
0.0
 11
-411.957919158445
 21
1.32905941009521
 31
0.0
  0
LINE
  5
   241
  8
0
  6
DOT
 62
   130
 10
-412.507415771486
 20
-8.67094058990478
 30
0.0
 11
-411.957920287595
 21
-8.67094058990478
 31
0.0
  0
LINE
  5
   242
  8
0
  6
DOT
 62
   130
 10
-410.584180448718
 20
1.82905941009521
 30
0.0
 11
-409.507414642336
 21
1.82905941009521
 31
0.0
  0
LINE
  5
   243
  8
0
  6
DOT
 62
   130
 10
-410.584181577868
 20
-9.17094058990478
 30
0.0
 11
-409.507415771486
 21
-9.17094058990478
 31
0.0
  0
LINE
  5
   244
  8
0
  6
CONTINUOUS
 62
   130
 10
-279.594573974609
 20
-5.47094058990479
 30
0.0
 11
-279.594573974609
 21
-5.47094058990479
 31
0.0
  0
LINE
  5
   245
  8
0
  6
CONTINUOUS
 62
   130
 10
-279.594573974609
 20
-5.47094058990479
 30
0.0
 11
-279.594573974609
 21
-5.47094058990479
 31
0.0
  0
LINE
  5
   246
  8
0
  6
CONTINUOUS
 62
   130
 10
-279.594573974609
 20
-5.47094058990479
 30
0.0
 11
-279.594573974609
 21
-5.47094058990479
 31
0.0
  0
LINE
  5
   247
  8
0
  6
CONTINUOUS
 62
   130
 10
-279.594573974609
 20
-5.47094058990479
 30
0.0
 11
-279.594573974609
 21
-5.47094058990479
 31
0.0
  0
LINE
  5
   248
  8
0
  6
CONTINUOUS
 62
   130
 10
-279.594573974609
 20
-5.47094058990479
 30
0.0
 11
-279.594573974609
 21
-5.47094058990479
 31
0.0
  0
LINE
  5
   249
  8
0
  6
CONTINUOUS
 62
   130
 10
-279.594573974609
 20
-5.47094058990479
 30
0.0
 11
-279.594573974609
 21
-5.47094058990479
 31
0.0
  0
LINE
  5
   24A
  8
0
  6
CONTINUOUS
 62
   130
 10
-279.594573974609
 20
-5.47094058990479
 30
0.0
 11
-279.594573974609
 21
-5.47094058990479
 31
0.0
  0
LINE
  5
   24B
  8
0
  6
CONTINUOUS
 62
   130
 10
-279.594573974609
 20
-5.47094058990479
 30
0.0
 11
-279.594573974609
 21
-5.47094058990479
 31
0.0
  0
LINE
  5
   24C
  8
0
  6
CONTINUOUS
 62
   130
 10
-411.507378158571
 20
-52.9709253311139
 30
0.0
 11
-293.507453384399
 21
-52.9709253311139
 31
0.0
  0
LINE
  5
   24D
  8
0
  6
CONTINUOUS
 62
   130
 10
-411.507396774288
 20
71.0290594100982
 30
0.0
 11
-293.507434768683
 21
71.0290594100982
 31
0.0
  0
LINE
  5
   24E
  8
0
  6
CONTINUOUS
 62
   130
 10
-292.507434768683
 20
70.0290592575104
 30
0.0
 11
-292.507438583308
 21
45.0295257568359
 31
0.0
  0
LINE
  5
   24F
  8
0
  6
CONTINUOUS
 62
   130
 10
-337.507418823241
 20
-25.4709100723198
 30
0.0
 11
-292.507418823241
 21
-25.4709100723198
 31
0.0
  0
LINE
  5
   250
  8
0
  6
CONTINUOUS
 62
   130
 10
-337.507411956787
 20
19.5290899276683
 30
0.0
 11
-292.507411956787
 21
19.5290899276683
 31
0.0
  0
LINE
  5
   251
  8
0
  6
CONTINUOUS
 62
   130
 10
-331.007400831757
 20
11.1650933688836
 30
0.0
 11
-330.007400831757
 21
11.1650933688836
 31
0.0
  0
LINE
  5
   252
  8
0
  6
CONTINUOUS
 62
   130
 10
-330.007400760651
 20
13.0290899276683
 30
0.0
 11
-330.007401787258
 21
-13.8827608669608
 31
0.0
  0
LINE
  5
   253
  8
0
  6
CONTINUOUS
 62
   130
 10
-331.007401787258
 20
-13.8827608669608
 30
0.0
 11
-330.007401787258
 21
-13.8827608669608
 31
0.0
  0
LINE
  5
   254
  8
0
  6
CONTINUOUS
 62
   130
 10
-331.007401772907
 20
-13.506557381767
 30
0.0
 11
-330.007401772907
 21
-13.506557381767
 31
0.0
  0
LINE
  5
   255
  8
0
  6
CONTINUOUS
 62
   130
 10
-331.007400760651
 20
13.0290899276683
 30
0.0
 11
-292.507412948608
 21
13.0290899276683
 31
0.0
  0
LINE
  5
   256
  8
0
  6
CONTINUOUS
 62
   130
 10
-330.007400817872
 20
11.5290899276683
 30
0.0
 11
-292.50741317749
 21
11.5290899276683
 31
0.0
  0
ARC
  5
   257
  8
0
  6
DOT
 62
   130
 10
-409.507414642336
 20
1.32905941009521
 30
0.0
 40
0.5
 50
359.999999844103
 51
449.999999844103
  0
ARC
  5
   258
  8
0
  6
DOT
 62
   130
 10
-409.507415771486
 20
-8.67094058990478
 30
0.0
 40
0.5
 50
269.999999844103
 51
359.999999844103
  0
LINE
  5
   259
  8
0
  6
CONTINUOUS
 62
   130
 10
-331.007401589191
 20
-8.69056581675995
 30
0.0
 11
-331.007401910122
 21
-17.1035770130312
 31
0.0
  0
LINE
  5
   25A
  8
0
  6
CONTINUOUS
 62
   130
 10
-279.594573974609
 20
-5.47094058990479
 30
0.0
 11
-279.594573974609
 21
-5.47094058990479
 31
0.0
  0
LINE
  5
   25B
  8
0
  6
CONTINUOUS
 62
   130
 10
-279.594573974609
 20
-5.47094058990479
 30
0.0
 11
-279.594573974609
 21
-5.47094058990479
 31
0.0
  0
LINE
  5
   25C
  8
0
  6
CONTINUOUS
 62
   130
 10
-279.594573974609
 20
-5.47094058990479
 30
0.0
 11
-279.594573974609
 21
-5.47094058990479
 31
0.0
  0
LINE
  5
   25D
  8
0
  6
CONTINUOUS
 62
   130
 10
-279.594573974609
 20
-5.47094058990479
 30
0.0
 11
-279.594573974609
 21
-5.47094058990479
 31
0.0
  0
LINE
  5
   25E
  8
0
  6
CONTINUOUS
 62
   130
 10
-279.594573974609
 20
-5.47094058990479
 30
0.0
 11
-279.594573974609
 21
-5.47094058990479
 31
0.0
  0
LINE
  5
   25F
  8
0
  6
CONTINUOUS
 62
   130
 10
-279.594573974609
 20
-5.47094058990479
 30
0.0
 11
-279.594573974609
 21
-5.47094058990479
 31
0.0
  0
LINE
  5
   260
  8
0
  6
CONTINUOUS
 62
   130
 10
-279.594573974609
 20
-5.47094058990479
 30
0.0
 11
-279.594573974609
 21
-5.47094058990479
 31
0.0
  0
LINE
  5
   261
  8
0
  6
CONTINUOUS
 62
   130
 10
-337.507422447206
 20
-36.4709218378412
 30
0.0
 11
-292.507451019287
 21
-36.4709218378412
 31
0.0
  0
LINE
  5
   262
  8
0
  6
CONTINUOUS
 62
   130
 10
-337.507401539626
 20
-34.9709218378412
 30
0.0
 11
-292.507420272828
 21
-34.9709218378412
 31
0.0
  0
LINE
  5
   263
  8
0
  6
CONTINUOUS
 62
   130
 10
-293.507406845101
 20
-34.9709218378412
 30
0.0
 11
-293.507406616219
 21
-36.4709218378412
 31
0.0
  0
LINE
  5
   264
  8
0
  6
CONTINUOUS
 62
   130
 10
-293.507406616219
 20
54.5290476445807
 30
0.0
 11
-293.507406845101
 21
53.0290476445807
 31
0.0
  0
LINE
  5
   265
  8
0
  6
CONTINUOUS
 62
   130
 10
-337.507385975665
 20
54.5290476445807
 30
0.0
 11
-292.507437133796
 21
54.5290476445807
 31
0.0
  0
LINE
  5
   266
  8
0
  6
CONTINUOUS
 62
   130
 10
-337.507415771486
 20
53.0290476445807
 30
0.0
 11
-292.507420272828
 21
53.0290476445807
 31
0.0
  0
LINE
  5
   267
  8
0
  6
DASHDOT
 62
   130
 10
-337.507385975665
 20
73.8013334946528
 30
0.0
 11
-337.507385975665
 21
-30.8335820853854
 31
0.0
  0
LINE
  5
   268
  8
0
  6
DASHDOT
 62
   130
 10
-358.107413482667
 20
-7.6709253311139
 30
0.0
 11
-358.107413482667
 21
-33.2709253311139
 31
0.0
  0
LINE
  5
   269
  8
0
  6
DASHDOT
 62
   130
 10
-370.907413482667
 20
-20.4709253311139
 30
0.0
 11
-345.307413482667
 21
-20.4709253311139
 31
0.0
  0
LINE
  5
   26A
  8
0
  6
DASHDOT
 62
   130
 10
-367.507445567306
 20
-29.1709489631413
 30
0.0
 11
-367.507445567306
 21
-55.1709489631413
 31
0.0
  0
LINE
  5
   26B
  8
0
  6
DASHDOT
 62
   130
 10
-337.507445567306
 20
-29.1709489631413
 30
0.0
 11
-337.507445567306
 21
-56.7279453488065
 31
0.0
  0
LINE
  5
   26C
  8
0
  6
DASHDOT
 62
   130
 10
-322.507497725879
 20
-26.7208259811836
 30
0.0
 11
-322.507497725879
 21
-55.2209594700177
 31
0.0
  0
LINE
  5
   26D
  8
0
  6
DASHDOT
 62
   130
 10
-307.507385975665
 20
-29.1709489631413
 30
0.0
 11
-307.507385975665
 21
-55.1709489631413
 31
0.0
  0
LINE
  5
   26E
  8
0
  6
DASHDOT
 62
   130
 10
-299.707412719727
 20
-16.8944115268629
 30
0.0
 11
-299.707412719727
 21
-23.5141972341981
 31
0.0
  0
LINE
  5
   26F
  8
0
  6
DASHDOT
 62
   130
 10
-302.49007067864
 20
-20.2709251174047
 30
0.0
 11
-297.018910158497
 21
-20.2709251174047
 31
0.0
  0
LINE
  5
   270
  8
0
  6
CONTINUOUS
 62
   130
 10
-300.207412719727
 20
-20.7709251174047
 30
0.0
 11
-300.207412719727
 21
-21.7709251174047
 31
0.0
  0
LINE
  5
   271
  8
0
  6
CONTINUOUS
 62
   130
 10
-299.207412719727
 20
-20.7709251174047
 30
0.0
 11
-299.207412719727
 21
-21.7709251174047
 31
0.0
  0
LINE
  5
   272
  8
0
  6
CONTINUOUS
 62
   130
 10
-299.707412719727
 20
-15.4709251174047
 30
0.0
 11
-300.298752994958
 21
-16.0622653926361
 31
0.0
  0
LINE
  5
   273
  8
0
  6
CONTINUOUS
 62
   130
 10
-299.707412719727
 20
-15.4709251174047
 30
0.0
 11
-299.116072444495
 21
-16.0622653926361
 31
0.0
  0
ARC
  5
   274
  8
0
  6
CONTINUOUS
 62
   130
 10
-299.707412719727
 20
-20.2709251174047
 30
0.0
 40
4.25
 50
457.998020342877
 51
802.00197934533
  0
LINE
  5
   275
  8
0
  6
CONTINUOUS
 62
   130
 10
-299.207412719727
 20
-20.7709251174047
 30
0.0
 11
-298.207412719727
 21
-20.7709251174047
 31
0.0
  0
LINE
  5
   276
  8
0
  6
CONTINUOUS
 62
   130
 10
-299.207412719727
 20
-19.7709251174047
 30
0.0
 11
-298.207412719727
 21
-19.7709251174047
 31
0.0
  0
LINE
  5
   277
  8
0
  6
CONTINUOUS
 62
   130
 10
-301.207412719727
 20
-19.7709251174047
 30
0.0
 11
-300.207412719727
 21
-19.7709251174047
 31
0.0
  0
LINE
  5
   278
  8
0
  6
CONTINUOUS
 62
   130
 10
-301.207412719727
 20
-20.7709251174047
 30
0.0
 11
-300.207412719727
 21
-20.7709251174047
 31
0.0
  0
LINE
  5
   279
  8
0
  6
CONTINUOUS
 62
   130
 10
-300.207412719727
 20
-18.7709251174047
 30
0.0
 11
-300.207412719727
 21
-19.7709251174047
 31
0.0
  0
LINE
  5
   27A
  8
0
  6
CONTINUOUS
 62
   130
 10
-299.207412719727
 20
-18.7709251174047
 30
0.0
 11
-299.207412719727
 21
-19.7709251174047
 31
0.0
  0
ARC
  5
   27B
  8
0
  6
CONTINUOUS
 62
   130
 10
-299.707412719727
 20
-20.2709251174047
 30
0.0
 40
4.8
 50
359.999999844103
 51
539.999999844103
  0
LINE
  5
   27C
  8
0
  6
CONTINUOUS
 62
   130
 10
-304.507412719727
 20
-20.2709251174047
 30
0.0
 11
-303.957412719727
 21
-20.2709251174047
 31
0.0
  0
LINE
  5
   27D
  8
0
  6
CONTINUOUS
 62
   130
 10
-295.457412719727
 20
-20.2709251174047
 30
0.0
 11
-294.907412719727
 21
-20.2709251174047
 31
0.0
  0
ARC
  5
   27E
  8
0
  6
CONTINUOUS
 62
   130
 10
-299.707412719727
 20
-18.7709251174047
 30
0.0
 40
0.500000000000002
 50
359.999999844103
 51
539.999999844103
  0
ARC
  5
   27F
  8
0
  6
CONTINUOUS
 62
   130
 10
-301.207412719727
 20
-20.2709251174047
 30
0.0
 40
0.5
 50
449.999999844103
 51
629.999999844103
  0
ARC
  5
   280
  8
0
  6
CONTINUOUS
 62
   130
 10
-298.207412719727
 20
-20.2709251174047
 30
0.0
 40
0.5
 50
269.999999844103
 51
449.999999844103
  0
ARC
  5
   281
  8
0
  6
CONTINUOUS
 62
   130
 10
-299.707412719727
 20
-21.7709251174047
 30
0.0
 40
0.5
 50
539.999999844103
 51
719.999999844103
  0
LINE
  5
   282
  8
0
  6
CONTINUOUS
 62
   130
 10
-295.808705786999
 20
-17.4709100723198
 30
0.0
 11
-292.507448120116
 21
-17.4709100723198
 31
0.0
  0
LINE
  5
   283
  8
0
  6
CONTINUOUS
 62
   130
 10
-295.086810931804
 20
-18.9709100723198
 30
0.0
 11
-292.507448348998
 21
-18.9709100723198
 31
0.0
  0
CIRCLE
  5
   284
  8
0
  6
CONTINUOUS
 62
   130
 10
-299.707412719727
 20
-14.3699980305874
 30
0.0
 40
0.8
  0
INSERT
  5
   285
  8
0
  6
CONTINUOUS
 62
     7
  2
*HATCH360
 10
-279.594573974609
 20
-5.47094058990479
 30
0.0
 50
269.999999844103
  0
LINE
  5
   286
  8
0
  6
CONTINUOUS
 62
   130
 10
-299.707412719727
 20
-13.7206898806583
 30
0.0
 11
-299.707412719727
 21
-15.4709251174047
 31
0.0
  0
LINE
  5
   287
  8
0
  6
CONTINUOUS
 62
   130
 10
-306.384082140948
 20
-20.2709251174047
 30
0.0
 11
-304.507412719727
 21
-20.2709251174047
 31
0.0
  0
LINE
  5
   288
  8
0
  6
CONTINUOUS
 62
   130
 10
-294.907412719727
 20
-20.2709251174047
 30
0.0
 11
-293.179832822788
 21
-20.2709251174047
 31
0.0
  0
LINE
  5
   289
  8
0
  6
DASHDOT
 62
   130
 10
-421.928953924368
 20
-2.97091007233171
 30
0.0
 11
-284.510065702271
 21
-2.97091007233171
 31
0.0
  0
LINE
  5
   28A
  8
0
  6
CONTINUOUS
 62
   130
 10
-344.00742995378
 20
-8.69056581675995
 30
0.0
 11
-331.007401589191
 21
-8.69056581675995
 31
0.0
  0
LINE
  5
   28B
  8
0
  6
CONTINUOUS
 62
   130
 10
-343.507429725058
 20
-14.1863619735266
 30
0.0
 11
-331.507401817913
 21
-14.1863619735266
 31
0.0
  0
LINE
  5
   28C
  8
0
  6
CONTINUOUS
 62
   130
 10
-343.507429632849
 20
-17.6035769939577
 30
0.0
 11
-331.507401910122
 21
-17.6035769939577
 31
0.0
  0
LINE
  5
   28D
  8
0
  6
CONTINUOUS
 62
   130
 10
-331.007401924135
 20
-17.4709100723198
 30
0.0
 11
-303.606119652454
 21
-17.4709100723198
 31
0.0
  0
ARC
  5
   28E
  8
0
  6
CONTINUOUS
 62
   130
 10
-343.507429632849
 20
-17.1035769939577
 30
0.0
 40
0.5
 50
540.000002029765
 51
629.999999844103
  0
ARC
  5
   28F
  8
0
  6
CONTINUOUS
 62
   130
 10
-331.507401910122
 20
-17.1035769939577
 30
0.0
 40
0.5
 50
269.999999844103
 51
359.999997658442
  0
ARC
  5
   290
  8
0
  6
CONTINUOUS
 62
   130
 10
-331.507401817913
 20
-14.6863619735266
 30
0.0
 40
0.5
 50
359.999997658442
 51
449.999999844103
  0
ARC
  5
   291
  8
0
  6
CONTINUOUS
 62
   130
 10
-343.507429725058
 20
-14.6863619735266
 30
0.0
 40
0.5
 50
449.999999844103
 51
540.000002029765
  0
LINE
  5
   292
  8
0
  6
DASHDOT
 62
   130
 10
-397.507415771484
 20
-29.6709489631413
 30
0.0
 11
-397.507415771484
 21
-54.6709489631413
 31
0.0
  0
LINE
  5
   293
  8
0
  6
CONTINUOUS
 62
   130
 10
-351.276123046875
 20
9.38523676884612
 30
0.0
 11
-350.526123046875
 21
9.38523676884612
 31
0.0
  0
LINE
  5
   294
  8
0
  6
CONTINUOUS
 62
   130
 10
-351.276123046875
 20
4.88523676884612
 30
0.0
 11
-350.526123046875
 21
4.88523676884612
 31
0.0
  0
CIRCLE
  5
   295
  8
0
  6
CONTINUOUS
 62
   130
 10
-350.901123046875
 20
-9.61476323115386
 30
0.0
 40
2.25
  0
CIRCLE
  5
   296
  8
0
  6
CONTINUOUS
 62
   130
 10
-350.901123046875
 20
-9.61476323115386
 30
0.0
 40
1.5
  0
LINE
  5
   297
  8
0
  6
CONTINUOUS
 62
   130
 10
-351.276123046875
 20
9.38523676884612
 30
0.0
 11
-351.276123046875
 21
4.88523676884612
 31
0.0
  0
LINE
  5
   298
  8
0
  6
CONTINUOUS
 62
   130
 10
-350.526123046875
 20
9.38523676884612
 30
0.0
 11
-350.526123046875
 21
4.88523676884612
 31
0.0
  0
LINE
  5
   299
  8
0
  6
CONTINUOUS
 62
   130
 10
-322.726127929688
 20
-7.68976323115387
 30
0.0
 11
-322.501127929688
 21
-7.68976323115387
 31
0.0
  0
LINE
  5
   29A
  8
0
  6
CONTINUOUS
 62
   130
 10
-323.376127929688
 20
-11.5397632311539
 30
0.0
 11
-322.976127929688
 21
-11.5397632311539
 31
0.0
  0
LINE
  5
   29B
  8
0
  6
CONTINUOUS
 62
   130
 10
-323.976127929688
 20
-9.98976323115384
 30
0.0
 11
-323.976127929688
 21
-10.2397632311538
 31
0.0
  0
ARC
  5
   29C
  8
0
  6
CONTINUOUS
 62
   130
 10
-325.276127929688
 20
-9.98976323115387
 30
0.0
 40
1.3
 50
359.999999844103
 51
539.999999844103
  0
ARC
  5
   29D
  8
0
  6
CONTINUOUS
 62
   130
 10
-325.276127929688
 20
-10.2397632311539
 30
0.0
 40
1.3
 50
539.999999844103
 51
719.999999844103
  0
ARC
  5
   29E
  8
0
  6
CONTINUOUS
 62
   130
 10
-325.276127929688
 20
-9.98976323115387
 30
0.0
 40
0.900000000000001
 50
359.999999844103
 51
539.999999844103
  0
ARC
  5
   29F
  8
0
  6
CONTINUOUS
 62
   130
 10
-325.276127929688
 20
-10.2397632311539
 30
0.0
 40
0.899999999999999
 50
539.999999844103
 51
719.999999844103
  0
LINE
  5
   2A0
  8
0
  6
CONTINUOUS
 62
   130
 10
-324.376127929688
 20
-9.98976323115384
 30
0.0
 11
-324.376127929688
 21
-10.2397632311538
 31
0.0
  0
LINE
  5
   2A1
  8
0
  6
CONTINUOUS
 62
   130
 10
-323.851127929688
 20
-8.88976323115384
 30
0.0
 11
-323.851127929688
 21
-9.28976323115384
 31
0.0
  0
LINE
  5
   2A2
  8
0
  6
CONTINUOUS
 62
   130
 10
-323.851127929688
 20
-9.28976323115386
 30
0.0
 11
-323.376127929688
 21
-9.28976323115386
 31
0.0
  0
LINE
  5
   2A3
  8
0
  6
CONTINUOUS
 62
   130
 10
-322.501127929688
 20
-8.88976323115384
 30
0.0
 11
-322.501127929688
 21
-9.28976323115384
 31
0.0
  0
LINE
  5
   2A4
  8
0
  6
CONTINUOUS
 62
   130
 10
-323.851127929688
 20
-8.88976323115387
 30
0.0
 11
-323.376127929688
 21
-8.88976323115387
 31
0.0
  0
LINE
  5
   2A5
  8
0
  6
CONTINUOUS
 62
   130
 10
-323.376127929688
 20
-9.28976323115384
 30
0.0
 11
-323.376127929688
 21
-11.5397632311538
 31
0.0
  0
LINE
  5
   2A6
  8
0
  6
CONTINUOUS
 62
   130
 10
-322.976127929688
 20
-9.28976323115384
 30
0.0
 11
-322.976127929688
 21
-11.5397632311538
 31
0.0
  0
LINE
  5
   2A7
  8
0
  6
CONTINUOUS
 62
   130
 10
-322.976127929688
 20
-9.28976323115386
 30
0.0
 11
-322.501127929688
 21
-9.28976323115386
 31
0.0
  0
LINE
  5
   2A8
  8
0
  6
CONTINUOUS
 62
   130
 10
-322.976127929688
 20
-8.88976323115387
 30
0.0
 11
-322.501127929688
 21
-8.88976323115387
 31
0.0
  0
LINE
  5
   2A9
  8
0
  6
CONTINUOUS
 62
   130
 10
-323.376127929688
 20
-8.33976323115384
 30
0.0
 11
-323.376127929688
 21
-8.88976323115384
 31
0.0
  0
LINE
  5
   2AA
  8
0
  6
CONTINUOUS
 62
   130
 10
-322.976127929688
 20
-8.33976323115384
 30
0.0
 11
-322.976127929688
 21
-8.88976323115384
 31
0.0
  0
ARC
  5
   2AB
  8
0
  6
CONTINUOUS
 62
   130
 10
-322.726127929688
 20
-8.33976323115387
 30
0.0
 40
0.65
 50
449.999999844103
 51
539.999999844103
  0
ARC
  5
   2AC
  8
0
  6
CONTINUOUS
 62
   130
 10
-322.726127929688
 20
-8.33976323115387
 30
0.0
 40
0.25
 50
449.999999844103
 51
539.999999844103
  0
LINE
  5
   2AD
  8
0
  6
CONTINUOUS
 62
   130
 10
-322.501127929688
 20
-7.68976323115384
 30
0.0
 11
-322.501127929688
 21
-8.08976323115384
 31
0.0
  0
LINE
  5
   2AE
  8
0
  6
CONTINUOUS
 62
   130
 10
-322.726127929688
 20
-8.08976323115387
 30
0.0
 11
-322.501127929688
 21
-8.08976323115387
 31
0.0
  0
LINE
  5
   2AF
  8
0
  6
CONTINUOUS
 62
   130
 10
-321.126127929688
 20
-7.68976323115387
 30
0.0
 11
-320.901127929688
 21
-7.68976323115387
 31
0.0
  0
LINE
  5
   2B0
  8
0
  6
CONTINUOUS
 62
   130
 10
-321.776127929688
 20
-11.5397632311539
 30
0.0
 11
-321.376127929688
 21
-11.5397632311539
 31
0.0
  0
LINE
  5
   2B1
  8
0
  6
CONTINUOUS
 62
   130
 10
-322.251127929688
 20
-8.88976323115384
 30
0.0
 11
-322.251127929688
 21
-9.28976323115384
 31
0.0
  0
LINE
  5
   2B2
  8
0
  6
CONTINUOUS
 62
   130
 10
-322.251127929688
 20
-9.28976323115386
 30
0.0
 11
-321.776127929688
 21
-9.28976323115386
 31
0.0
  0
LINE
  5
   2B3
  8
0
  6
CONTINUOUS
 62
   130
 10
-320.901127929688
 20
-8.88976323115384
 30
0.0
 11
-320.901127929688
 21
-9.28976323115384
 31
0.0
  0
LINE
  5
   2B4
  8
0
  6
CONTINUOUS
 62
   130
 10
-322.251127929688
 20
-8.88976323115387
 30
0.0
 11
-321.776127929688
 21
-8.88976323115387
 31
0.0
  0
LINE
  5
   2B5
  8
0
  6
CONTINUOUS
 62
   130
 10
-321.776127929688
 20
-9.28976323115384
 30
0.0
 11
-321.776127929688
 21
-11.5397632311538
 31
0.0
  0
LINE
  5
   2B6
  8
0
  6
CONTINUOUS
 62
   130
 10
-321.376127929688
 20
-9.28976323115384
 30
0.0
 11
-321.376127929688
 21
-11.5397632311538
 31
0.0
  0
LINE
  5
   2B7
  8
0
  6
CONTINUOUS
 62
   130
 10
-321.376127929688
 20
-9.28976323115386
 30
0.0
 11
-320.901127929688
 21
-9.28976323115386
 31
0.0
  0
LINE
  5
   2B8
  8
0
  6
CONTINUOUS
 62
   130
 10
-321.376127929688
 20
-8.88976323115387
 30
0.0
 11
-320.901127929688
 21
-8.88976323115387
 31
0.0
  0
LINE
  5
   2B9
  8
0
  6
CONTINUOUS
 62
   130
 10
-321.776127929688
 20
-8.33976323115384
 30
0.0
 11
-321.776127929688
 21
-8.88976323115384
 31
0.0
  0
LINE
  5
   2BA
  8
0
  6
CONTINUOUS
 62
   130
 10
-321.376127929688
 20
-8.33976323115384
 30
0.0
 11
-321.376127929688
 21
-8.88976323115384
 31
0.0
  0
ARC
  5
   2BB
  8
0
  6
CONTINUOUS
 62
   130
 10
-321.126127929688
 20
-8.33976323115387
 30
0.0
 40
0.65
 50
449.999999844103
 51
539.999999844103
  0
ARC
  5
   2BC
  8
0
  6
CONTINUOUS
 62
   130
 10
-321.126127929688
 20
-8.33976323115387
 30
0.0
 40
0.25
 50
449.999999844103
 51
539.999999844103
  0
LINE
  5
   2BD
  8
0
  6
CONTINUOUS
 62
   130
 10
-320.901127929688
 20
-7.68976323115384
 30
0.0
 11
-320.901127929688
 21
-8.08976323115384
 31
0.0
  0
LINE
  5
   2BE
  8
0
  6
CONTINUOUS
 62
   130
 10
-321.126127929688
 20
-8.08976323115387
 30
0.0
 11
-320.901127929688
 21
-8.08976323115387
 31
0.0
  0
LINE
  5
   2BF
  8
0
  6
CONTINUOUS
 62
   130
 10
-323.576127929688
 20
5.71023676884612
 30
0.0
 11
-323.176127929688
 21
5.71023676884612
 31
0.0
  0
ARC
  5
   2C0
  8
0
  6
CONTINUOUS
 62
   130
 10
-325.276127929688
 20
7.26023676884612
 30
0.0
 40
1.3
 50
359.999999844103
 51
539.999999844103
  0
ARC
  5
   2C1
  8
0
  6
CONTINUOUS
 62
   130
 10
-325.276127929688
 20
7.26023676884612
 30
0.0
 40
0.900000000000001
 50
359.999999844103
 51
539.999999844103
  0
ARC
  5
   2C2
  8
0
  6
CONTINUOUS
 62
   130
 10
-325.276127929688
 20
7.01023676884612
 30
0.0
 40
1.3
 50
539.999999844103
 51
719.999999844103
  0
ARC
  5
   2C3
  8
0
  6
CONTINUOUS
 62
   130
 10
-325.276127929688
 20
7.01023676884612
 30
0.0
 40
0.899999999999999
 50
539.999999844103
 51
719.999999844103
  0
LINE
  5
   2C4
  8
0
  6
CONTINUOUS
 62
   130
 10
-323.576127929688
 20
8.56023676884615
 30
0.0
 11
-323.576127929688
 21
5.71023676884615
 31
0.0
  0
LINE
  5
   2C5
  8
0
  6
CONTINUOUS
 62
   130
 10
-323.176127929688
 20
7.46023676884615
 30
0.0
 11
-323.176127929688
 21
5.71023676884615
 31
0.0
  0
LINE
  5
   2C6
  8
0
  6
CONTINUOUS
 62
   130
 10
-321.776127929688
 20
7.46023676884615
 30
0.0
 11
-321.776127929688
 21
5.71023676884615
 31
0.0
  0
LINE
  5
   2C7
  8
0
  6
CONTINUOUS
 62
   130
 10
-321.376127929688
 20
7.56023676884615
 30
0.0
 11
-321.376127929688
 21
5.71023676884615
 31
0.0
  0
LINE
  5
   2C8
  8
0
  6
CONTINUOUS
 62
   130
 10
-323.576127929688
 20
8.56023676884612
 30
0.0
 11
-323.176127929688
 21
8.56023676884612
 31
0.0
  0
ARC
  5
   2C9
  8
0
  6
CONTINUOUS
 62
   130
 10
-322.476127929688
 20
7.46023676884612
 30
0.0
 40
0.699999999999999
 50
359.999999844103
 51
539.999999844103
  0
LINE
  5
   2CA
  8
0
  6
CONTINUOUS
 62
   130
 10
-323.176127929688
 20
8.56023676884615
 30
0.0
 11
-323.176127929688
 21
8.16023676884616
 31
0.0
  0
ARC
  5
   2CB
  8
0
  6
CONTINUOUS
 62
   130
 10
-322.376127929688
 20
7.56023676884612
 30
0.0
 40
1.0
 50
359.999999844103
 51
503.130102198259
  0
LINE
  5
   2CC
  8
0
  6
CONTINUOUS
 62
   130
 10
-321.776127929688
 20
5.71023676884612
 30
0.0
 11
-321.376127929688
 21
5.71023676884612
 31
0.0
  0
LINE
  5
   2CD
  8
0
  6
CONTINUOUS
 62
   130
 10
-323.107803135589
 20
18.1881992005613
 30
0.0
 11
-323.341834829636
 21
18.1469337172551
 31
0.0
  0
LINE
  5
   2CE
  8
0
  6
CONTINUOUS
 62
   130
 10
-323.341820374747
 20
18.146941572853
 30
0.0
 11
-323.547623275062
 21
18.02812282968
 31
0.0
  0
LINE
  5
   2CF
  8
0
  6
CONTINUOUS
 62
   130
 10
-323.547631740765
 20
18.0281141537387
 30
0.0
 11
-323.700379865758
 21
17.8460734425367
 31
0.0
  0
LINE
  5
   2D0
  8
0
  6
CONTINUOUS
 62
   130
 10
-323.700377014984
 20
17.8460745569978
 30
0.0
 11
-323.781652950468
 21
17.6227683827557
 31
0.0
  0
LINE
  5
   2D1
  8
0
  6
CONTINUOUS
 62
   130
 10
-323.781660216545
 20
17.6227687890208
 30
0.0
 11
-323.781660216545
 21
17.3851312691844
 31
0.0
  0
LINE
  5
   2D2
  8
0
  6
CONTINUOUS
 62
   130
 10
-323.781653612747
 20
17.3851336905046
 30
0.0
 11
-323.700377677264
 21
17.1618275162625
 31
0.0
  0
LINE
  5
   2D3
  8
0
  6
CONTINUOUS
 62
   130
 10
-323.70038123718
 20
17.1618265631091
 30
0.0
 11
-323.547633112187
 21
16.9797858519071
 31
0.0
  0
LINE
  5
   2D4
  8
0
  6
CONTINUOUS
 62
   130
 10
-323.547619939588
 20
16.9797812515201
 30
0.0
 11
-323.341817039273
 21
16.8609625083471
 31
0.0
  0
LINE
  5
   2D5
  8
0
  6
CONTINUOUS
 62
   130
 10
-323.341833202968
 20
16.8609654359617
 30
0.0
 11
-323.107801508922
 21
16.8196999526555
 31
0.0
  0
LINE
  5
   2D6
  8
0
  6
CONTINUOUS
 62
   130
 10
-323.107801573967
 20
16.8197001511729
 30
0.0
 11
-322.878378051018
 21
16.8197001511729
 31
0.0
  0
LINE
  5
   2D7
  8
0
  6
CONTINUOUS
 62
   130
 10
-322.878365844172
 20
16.8197050174993
 30
0.0
 11
-322.790833815686
 21
16.7912626398867
 31
0.0
  0
LINE
  5
   2D8
  8
0
  6
CONTINUOUS
 62
   130
 10
-322.79083478093
 20
16.7912624105396
 30
0.0
 11
-322.73673475354
 21
16.7168000061959
 31
0.0
  0
LINE
  5
   2D9
  8
0
  6
CONTINUOUS
 62
   130
 10
-322.73674597094
 20
16.7167953545726
 30
0.0
 11
-322.73674597094
 21
16.6247548157847
 31
0.0
  0
LINE
  5
   2DA
  8
0
  6
CONTINUOUS
 62
   130
 10
-322.736738752102
 20
16.6247580972037
 30
0.0
 11
-322.790838779492
 21
16.55029569286
 31
0.0
  0
LINE
  5
   2DB
  8
0
  6
CONTINUOUS
 62
   130
 10
-322.79083627819
 20
16.5502956949631
 30
0.0
 11
-322.878368306676
 21
16.5218533173504
 31
0.0
  0
LINE
  5
   2DC
  8
0
  6
CONTINUOUS
 62
   130
 10
-323.711553710198
 20
16.5218500191844
 30
0.0
 11
-322.878378051018
 21
16.5218500191844
 31
0.0
  0
LINE
  5
   2DD
  8
0
  6
CONTINUOUS
 62
   130
 10
-323.711553710198
 20
16.5218500191844
 30
0.0
 11
-323.711553710198
 21
15.9744504983103
 31
0.0
  0
LINE
  5
   2DE
  8
0
  6
CONTINUOUS
 62
   130
 10
-323.711553710198
 20
15.9744504983103
 30
0.0
 11
-322.878378051018
 21
15.9744504983103
 31
0.0
  0
LINE
  5
   2DF
  8
0
  6
CONTINUOUS
 62
   130
 10
-322.640221277784
 20
16.0164448597754
 30
0.0
 11
-322.878372814521
 21
15.9744517227902
 31
0.0
  0
LINE
  5
   2E0
  8
0
  6
CONTINUOUS
 62
   130
 10
-322.430788819942
 20
16.1373618006792
 30
0.0
 11
-322.640223358853
 21
16.0164458921971
 31
0.0
  0
LINE
  5
   2E1
  8
0
  6
CONTINUOUS
 62
   130
 10
-322.275331333273
 20
16.3226162863431
 30
0.0
 11
-322.43078024606
 21
16.1373631555219
 31
0.0
  0
LINE
  5
   2E2
  8
0
  6
CONTINUOUS
 62
   130
 10
-322.192628639317
 20
16.5498569679625
 30
0.0
 11
-322.275338908684
 21
16.3226101750258
 31
0.0
  0
LINE
  5
   2E3
  8
0
  6
CONTINUOUS
 62
   130
 10
-322.19263281176
 20
16.7916907365
 30
0.0
 11
-322.19263281176
 21
16.5498594338572
 31
0.0
  0
LINE
  5
   2E4
  8
0
  6
CONTINUOUS
 62
   130
 10
-322.27533909847
 20
17.0189389410732
 30
0.0
 11
-322.192628829104
 21
16.7916921481365
 31
0.0
  0
LINE
  5
   2E5
  8
0
  6
CONTINUOUS
 62
   130
 10
-322.430785377545
 20
17.2041970040915
 30
0.0
 11
-322.275336454333
 21
17.0189433697829
 31
0.0
  0
LINE
  5
   2E6
  8
0
  6
CONTINUOUS
 62
   130
 10
-322.640227700895
 20
17.3251074951411
 30
0.0
 11
-322.430793171347
 21
17.2041920689335
 31
0.0
  0
LINE
  5
   2E7
  8
0
  6
CONTINUOUS
 62
   130
 10
-322.87836576717
 20
17.3670987443885
 30
0.0
 11
-322.640214233864
 21
17.3251051315131
 31
0.0
  0
LINE
  5
   2E8
  8
0
  6
CONTINUOUS
 62
   130
 10
-323.107801573967
 20
17.3671001488841
 30
0.0
 11
-322.878378051018
 21
17.3671001488841
 31
0.0
  0
LINE
  5
   2E9
  8
0
  6
CONTINUOUS
 62
   130
 10
-323.188237477933
 20
17.393238430624
 30
0.0
 11
-323.10779314316
 21
17.3671025101924
 31
0.0
  0
LINE
  5
   2EA
  8
0
  6
CONTINUOUS
 62
   130
 10
-323.237956105063
 20
17.4616598649646
 30
0.0
 11
-323.188242970271
 21
17.393234684003
 31
0.0
  0
LINE
  5
   2EB
  8
0
  6
CONTINUOUS
 62
   130
 10
-323.23795904467
 20
17.546238809315
 30
0.0
 11
-323.23795904467
 21
17.4616612488902
 31
0.0
  0
LINE
  5
   2EC
  8
0
  6
CONTINUOUS
 62
   130
 10
-323.188235586334
 20
17.6146616818213
 30
0.0
 11
-323.237948721126
 21
17.5462365008597
 31
0.0
  0
LINE
  5
   2ED
  8
0
  6
CONTINUOUS
 62
   130
 10
-323.107790037866
 20
17.6408036484108
 30
0.0
 11
-323.188234372639
 21
17.6146677279793
 31
0.0
  0
LINE
  5
   2EE
  8
0
  6
CONTINUOUS
 62
   130
 10
-323.107801573967
 20
17.6407999093211
 30
0.0
 11
-322.262556212639
 21
17.6407999093211
 31
0.0
  0
LINE
  5
   2EF
  8
0
  6
CONTINUOUS
 62
   130
 10
-323.107801573967
 20
18.1881999070323
 30
0.0
 11
-322.262556212639
 21
18.1881999070323
 31
0.0
  0
LINE
  5
   2F0
  8
0
  6
CONTINUOUS
 62
   130
 10
-321.4831542141
 20
16.4172015781376
 30
0.0
 11
-321.611953648648
 21
15.9744520824064
 31
0.0
  0
LINE
  5
   2F1
  8
0
  6
CONTINUOUS
 62
   130
 10
-321.48316015551
 20
16.417199998585
 30
0.0
 11
-320.868444579338
 21
16.417199998585
 31
0.0
  0
LINE
  5
   2F2
  8
0
  6
CONTINUOUS
 62
   130
 10
-320.868439864953
 20
16.4172011789697
 30
0.0
 11
-320.739640430404
 21
15.9744516832385
 31
0.0
  0
LINE
  5
   2F3
  8
0
  6
CONTINUOUS
 62
   130
 10
-320.739645140862
 20
15.9744504983103
 30
0.0
 11
-320.169553893303
 21
15.9744504983103
 31
0.0
  0
LINE
  5
   2F4
  8
0
  6
CONTINUOUS
 62
   130
 10
-320.813553277245
 20
18.1882002453581
 30
0.0
 11
-320.169548286525
 21
15.9744502758196
 31
0.0
  0
LINE
  5
   2F5
  8
0
  6
CONTINUOUS
 62
   130
 10
-321.538053649163
 20
18.1881999070323
 30
0.0
 11
-320.813558715081
 21
18.1881999070323
 31
0.0
  0
LINE
  5
   2F6
  8
0
  6
CONTINUOUS
 62
   130
 10
-321.538050582516
 20
18.1881914740252
 30
0.0
 11
-322.182055573235
 21
15.9744415044867
 31
0.0
  0
LINE
  5
   2F7
  8
0
  6
CONTINUOUS
 62
   130
 10
-321.175797985477
 20
17.4737422339541
 30
0.0
 11
-321.027688473993
 21
16.9646000626706
 31
0.0
  0
LINE
  5
   2F8
  8
0
  6
CONTINUOUS
 62
   130
 10
-321.323919432854
 20
16.9645999962962
 30
0.0
 11
-321.027692931389
 21
16.9645999962962
 31
0.0
  0
LINE
  5
   2F9
  8
0
  6
CONTINUOUS
 62
   130
 10
-321.175793444762
 20
17.4737427324258
 30
0.0
 11
-321.323910499078
 21
16.9646008413024
 31
0.0
  0
LINE
  5
   2FA
  8
0
  6
CONTINUOUS
 62
   130
 10
-318.302183507064
 20
17.8855841374623
 30
0.0
 11
-318.1063979915
 21
17.63875080444
 31
0.0
  0
LINE
  5
   2FB
  8
0
  6
CONTINUOUS
 62
   130
 10
-318.559565663337
 20
18.0672576261571
 30
0.0
 11
-318.302180425307
 21
17.8855798217668
 31
0.0
  0
LINE
  5
   2FC
  8
0
  6
CONTINUOUS
 62
   130
 10
-318.857718450792
 20
18.1690569222709
 30
0.0
 11
-318.559569344455
 21
18.0672536298622
 31
0.0
  0
LINE
  5
   2FD
  8
0
  6
CONTINUOUS
 62
   130
 10
-319.172468476744
 20
18.1827401982239
 30
0.0
 11
-318.857717796958
 21
18.1690583092513
 31
0.0
  0
LINE
  5
   2FE
  8
0
  6
CONTINUOUS
 62
   130
 10
-319.172474067235
 20
18.1827407727679
 30
0.0
 11
-319.478336493749
 21
18.107192604823
 31
0.0
  0
LINE
  5
   2FF
  8
0
  6
CONTINUOUS
 62
   130
 10
-319.478331696237
 20
18.1071961424675
 30
0.0
 11
-319.750510330111
 21
17.9485381169704
 31
0.0
  0
LINE
  5
   300
  8
0
  6
CONTINUOUS
 62
   130
 10
-319.750514575863
 20
17.9485333031431
 30
0.0
 11
-319.966975755215
 21
17.7196190444403
 31
0.0
  0
LINE
  5
   301
  8
0
  6
CONTINUOUS
 62
   130
 10
-319.966970495902
 20
17.7196235399222
 30
0.0
 11
-320.110166585491
 21
17.4389986779045
 31
0.0
  0
LINE
  5
   302
  8
0
  6
CONTINUOUS
 62
   130
 10
-320.110169078829
 20
17.4389940382745
 30
0.0
 11
-320.168503429395
 21
17.1293927233532
 31
0.0
  0
LINE
  5
   303
  8
0
  6
CONTINUOUS
 62
   130
 10
-320.168502807551
 20
17.1293946113148
 30
0.0
 11
-320.137252822505
 21
16.8158989797062
 31
0.0
  0
LINE
  5
   304
  8
0
  6
CONTINUOUS
 62
   130
 10
-320.137255250666
 20
16.8158997155338
 30
0.0
 11
-320.018946244204
 21
16.5239075431376
 31
0.0
  0
LINE
  5
   305
  8
0
  6
CONTINUOUS
 62
   130
 10
-320.018945661187
 20
16.5239100854112
 30
0.0
 11
-319.842912635641
 21
16.2962131804201
 31
0.0
  0
LINE
  5
   306
  8
0
  6
CONTINUOUS
 62
   130
 10
-319.84290961603
 20
16.296207961716
 30
0.0
 11
-319.614119334499
 21
16.1215935267495
 31
0.0
  0
LINE
  5
   307
  8
0
  6
CONTINUOUS
 62
   130
 10
-319.614124001074
 20
16.1215960551317
 30
0.0
 11
-319.348048871696
 21
16.0118701051232
 31
0.0
  0
LINE
  5
   308
  8
0
  6
CONTINUOUS
 62
   130
 10
-319.348046029699
 20
16.0118687745161
 30
0.0
 11
-319.062676162525
 21
15.9744504105966
 31
0.0
  0
LINE
  5
   309
  8
0
  6
CONTINUOUS
 62
   130
 10
-318.777302182302
 20
16.0118698438792
 30
0.0
 11
-319.062672049476
 21
15.9744514799597
 31
0.0
  0
LINE
  5
   30A
  8
0
  6
CONTINUOUS
 62
   130
 10
-318.511236128995
 20
16.1215948889036
 30
0.0
 11
-318.777311258373
 21
16.0118689388951
 31
0.0
  0
LINE
  5
   30B
  8
0
  6
CONTINUOUS
 62
   130
 10
-318.282438178836
 20
16.2962150880656
 30
0.0
 11
-318.511228460368
 21
16.1216006530992
 31
0.0
  0
LINE
  5
   30C
  8
0
  6
CONTINUOUS
 62
   130
 10
-318.106399419204
 20
16.5239067963461
 30
0.0
 11
-318.282440066738
 21
16.2962099066266
 31
0.0
  0
LINE
  5
   30D
  8
0
  6
CONTINUOUS
 62
   130
 10
-318.579321107048
 20
16.799577533564
 30
0.0
 11
-318.106397880092
 21
16.5239084734284
 31
0.0
  0
LINE
  5
   30E
  8
0
  6
CONTINUOUS
 62
   130
 10
-318.579329624948
 20
16.7995720819044
 30
0.0
 11
-318.704245709836
 21
16.6517439676543
 31
0.0
  0
LINE
  5
   30F
  8
0
  6
CONTINUOUS
 62
   130
 10
-318.704243359558
 20
16.6517480053655
 30
0.0
 11
-318.872059554193
 21
16.5553267456886
 31
0.0
  0
LINE
  5
   310
  8
0
  6
CONTINUOUS
 62
   130
 10
-318.872054965893
 20
16.5553260149328
 30
0.0
 11
-319.062675411915
 21
16.5218501397855
 31
0.0
  0
LINE
  5
   311
  8
0
  6
CONTINUOUS
 62
   130
 10
-319.253305349354
 20
16.5553262291198
 30
0.0
 11
-319.062684903332
 21
16.5218503539726
 31
0.0
  0
LINE
  5
   312
  8
0
  6
CONTINUOUS
 62
   130
 10
-319.421117961163
 20
16.6517493222065
 30
0.0
 11
-319.253301766529
 21
16.5553280625296
 31
0.0
  0
LINE
  5
   313
  8
0
  6
CONTINUOUS
 62
   130
 10
-319.546033407645
 20
16.7995783759927
 30
0.0
 11
-319.421117322756
 21
16.6517502617426
 31
0.0
  0
LINE
  5
   314
  8
0
  6
CONTINUOUS
 62
   130
 10
-319.617056716435
 20
17.0059947144049
 30
0.0
 11
-319.546027053455
 21
16.7995771473758
 31
0.0
  0
LINE
  5
   315
  8
0
  6
CONTINUOUS
 62
   130
 10
-319.603680073025
 20
17.2238769329495
 30
0.0
 11
-319.617054403201
 21
17.0059904625582
 31
0.0
  0
LINE
  5
   316
  8
0
  6
CONTINUOUS
 62
   130
 10
-319.507946739458
 20
17.4200650614248
 30
0.0
 11
-319.603680386744
 21
17.2238813702877
 31
0.0
  0
LINE
  5
   317
  8
0
  6
CONTINUOUS
 62
   130
 10
-319.344425670773
 20
17.5646794236539
 30
0.0
 11
-319.507954126003
 21
17.4200651822357
 31
0.0
  0
LINE
  5
   318
  8
0
  6
CONTINUOUS
 62
   130
 10
-319.138010844773
 20
17.6357059960527
 30
0.0
 11
-319.344424113806
 21
17.5646782471506
 31
0.0
  0
LINE
  5
   319
  8
0
  6
CONTINUOUS
 62
   130
 10
-319.138014455434
 20
17.6357039535796
 30
0.0
 11
-318.920126510268
 21
17.6223329595216
 31
0.0
  0
LINE
  5
   31A
  8
0
  6
CONTINUOUS
 62
   130
 10
-318.920120515883
 20
17.6223311118689
 30
0.0
 11
-318.723938240497
 21
17.5265960249199
 31
0.0
  0
LINE
  5
   31B
  8
0
  6
CONTINUOUS
 62
   130
 10
-318.723935614746
 20
17.5266076807213
 30
0.0
 11
-318.57932043037
 21
17.3630840018344
 31
0.0
  0
LINE
  5
   31C
  8
0
  6
CONTINUOUS
 62
   130
 10
-318.106394342092
 20
17.6387509393004
 30
0.0
 11
-318.579317569049
 21
17.3630818791648
 31
0.0
  0
LINE
  5
   31D
  8
0
  6
CONTINUOUS
 62
   130
 10
-317.905157225823
 20
18.1881994301951
 30
0.0
 11
-317.905157225823
 21
15.9744504983103
 31
0.0
  0
LINE
  5
   31E
  8
0
  6
CONTINUOUS
 62
   130
 10
-317.905157225823
 20
15.9744504983103
 30
0.0
 11
-316.456159728264
 21
15.9744504983103
 31
0.0
  0
LINE
  5
   31F
  8
0
  6
CONTINUOUS
 62
   130
 10
-316.456159728264
 20
16.5218500191844
 30
0.0
 11
-316.456159728264
 21
15.9744504983103
 31
0.0
  0
LINE
  5
   320
  8
0
  6
CONTINUOUS
 62
   130
 10
-317.3577557976
 20
16.5218500191844
 30
0.0
 11
-316.456159728264
 21
16.5218500191844
 31
0.0
  0
LINE
  5
   321
  8
0
  6
CONTINUOUS
 62
   130
 10
-317.3577557976
 20
16.8076252038157
 30
0.0
 11
-317.3577557976
 21
16.5218500191844
 31
0.0
  0
LINE
  5
   322
  8
0
  6
CONTINUOUS
 62
   130
 10
-317.3577557976
 20
16.8076252038157
 30
0.0
 11
-316.57691015551
 21
16.8076252038157
 31
0.0
  0
LINE
  5
   323
  8
0
  6
CONTINUOUS
 62
   130
 10
-316.57691015551
 20
17.3550252015269
 30
0.0
 11
-316.57691015551
 21
16.8076252038157
 31
0.0
  0
LINE
  5
   324
  8
0
  6
CONTINUOUS
 62
   130
 10
-317.3577557976
 20
17.3550252015269
 30
0.0
 11
-316.57691015551
 21
17.3550252015269
 31
0.0
  0
LINE
  5
   325
  8
0
  6
CONTINUOUS
 62
   130
 10
-317.3577557976
 20
17.6407998795188
 30
0.0
 11
-317.3577557976
 21
17.3550252015269
 31
0.0
  0
LINE
  5
   326
  8
0
  6
CONTINUOUS
 62
   130
 10
-317.3577557976
 20
17.6407999093211
 30
0.0
 11
-316.456159728264
 21
17.6407999093211
 31
0.0
  0
LINE
  5
   327
  8
0
  6
CONTINUOUS
 62
   130
 10
-316.456159728264
 20
18.1881999070323
 30
0.0
 11
-316.456159728264
 21
17.6407999093211
 31
0.0
  0
LINE
  5
   328
  8
0
  6
CONTINUOUS
 62
   130
 10
-317.905157225823
 20
18.1881999070323
 30
0.0
 11
-316.456159728264
 21
18.1881999070323
 31
0.0
  0
LINE
  5
   329
  8
0
  6
CONTINUOUS
 62
   130
 10
-376.18659579563
 20
18.0385330971108
 30
0.0
 11
-376.640453108348
 21
16.7417804636889
 31
0.0
  0
LINE
  5
   32A
  8
0
  6
CONTINUOUS
 62
   130
 10
-376.64046082959
 20
16.741784292095
 30
0.0
 11
-375.820850233887
 21
16.741784292095
 31
0.0
  0
LINE
  5
   32B
  8
0
  6
CONTINUOUS
 62
   130
 10
-375.820850233887
 20
18.0385372217825
 30
0.0
 11
-375.820850233887
 21
16.741784292095
 31
0.0
  0
LINE
  5
   32C
  8
0
  6
CONTINUOUS
 62
   130
 10
-376.186603407715
 20
18.0385372217825
 30
0.0
 11
-375.820850233887
 21
18.0385372217825
 31
0.0
  0
LINE
  5
   32D
  8
0
  6
CONTINUOUS
 62
   130
 10
-377.117603163574
 20
15.3785407122305
 30
0.0
 11
-376.452602248047
 21
15.3785407122305
 31
0.0
  0
LINE
  5
   32E
  8
0
  6
CONTINUOUS
 62
   130
 10
-376.266393637941
 20
15.9105388228501
 30
0.0
 11
-376.452596633601
 21
15.3785392099109
 31
0.0
  0
LINE
  5
   32F
  8
0
  6
CONTINUOUS
 62
   130
 10
-376.266399245117
 20
15.9105403002432
 30
0.0
 11
-375.820850233887
 21
15.9105403002432
 31
0.0
  0
LINE
  5
   330
  8
0
  6
CONTINUOUS
 62
   130
 10
-375.820850233887
 20
16.6752864893606
 30
0.0
 11
-375.820850233887
 21
15.9105403002432
 31
0.0
  0
LINE
  5
   331
  8
0
  6
CONTINUOUS
 62
   130
 10
-376.663738112305
 20
16.6752864893606
 30
0.0
 11
-375.820850233887
 21
16.6752864893606
 31
0.0
  0
LINE
  5
   332
  8
0
  6
CONTINUOUS
 62
   130
 10
-376.663732805603
 20
16.6752837917674
 30
0.0
 11
-377.117597721244
 21
15.3785382842837
 31
0.0
  0
LINE
  5
   333
  8
0
  6
CONTINUOUS
 62
   130
 10
-374.911450336616
 20
16.6752836130456
 30
0.0
 11
-374.457585420975
 21
15.378538105562
 31
0.0
  0
LINE
  5
   334
  8
0
  6
CONTINUOUS
 62
   130
 10
-375.754352431152
 20
16.6752864893606
 30
0.0
 11
-374.911464552734
 21
16.6752864893606
 31
0.0
  0
LINE
  5
   335
  8
0
  6
CONTINUOUS
 62
   130
 10
-375.754352431152
 20
16.6752864893606
 30
0.0
 11
-375.754352431152
 21
15.9105403002432
 31
0.0
  0
LINE
  5
   336
  8
0
  6
CONTINUOUS
 62
   130
 10
-375.754352431152
 20
15.9105403002432
 30
0.0
 11
-375.308803419922
 21
15.9105403002432
 31
0.0
  0
LINE
  5
   337
  8
0
  6
CONTINUOUS
 62
   130
 10
-375.308791836946
 20
15.9105411401111
 30
0.0
 11
-375.122588841286
 21
15.3785415271719
 31
0.0
  0
LINE
  5
   338
  8
0
  6
CONTINUOUS
 62
   130
 10
-375.122600416992
 20
15.3785407122305
 30
0.0
 11
-374.457599501465
 21
15.3785407122305
 31
0.0
  0
LINE
  5
   339
  8
0
  6
CONTINUOUS
 62
   130
 10
-375.754352431152
 20
18.0385372217825
 30
0.0
 11
-375.388599257324
 21
18.0385372217825
 31
0.0
  0
LINE
  5
   33A
  8
0
  6
CONTINUOUS
 62
   130
 10
-375.754352431152
 20
18.0385372217825
 30
0.0
 11
-375.754352431152
 21
16.741784292095
 31
0.0
  0
LINE
  5
   33B
  8
0
  6
CONTINUOUS
 62
   130
 10
-375.754352431152
 20
16.741784292095
 30
0.0
 11
-374.934734206055
 21
16.741784292095
 31
0.0
  0
LINE
  5
   33C
  8
0
  6
CONTINUOUS
 62
   130
 10
-375.388591620375
 20
18.0385345909085
 30
0.0
 11
-374.934726670844
 21
16.7417817686358
 31
0.0
  0
LINE
  5
   33D
  8
0
  6
CONTINUOUS
 62
   130
 10
-374.291347365234
 20
16.741784292095
 30
0.0
 11
-373.526599745606
 21
16.741784292095
 31
0.0
  0
LINE
  5
   33E
  8
0
  6
CONTINUOUS
 62
   130
 10
-373.526599745606
 20
18.0385372217825
 30
0.0
 11
-373.526599745606
 21
16.741784292095
 31
0.0
  0
LINE
  5
   33F
  8
0
  6
CONTINUOUS
 62
   130
 10
-374.291347365234
 20
18.0385372217825
 30
0.0
 11
-373.526599745606
 21
18.0385372217825
 31
0.0
  0
LINE
  5
   340
  8
0
  6
CONTINUOUS
 62
   130
 10
-374.291347365234
 20
15.3785407122305
 30
0.0
 11
-373.526599745606
 21
15.3785407122305
 31
0.0
  0
LINE
  5
   341
  8
0
  6
CONTINUOUS
 62
   130
 10
-373.526599745606
 20
16.6752864893606
 30
0.0
 11
-373.526599745606
 21
15.3785407122305
 31
0.0
  0
LINE
  5
   342
  8
0
  6
CONTINUOUS
 62
   130
 10
-374.291347365234
 20
16.6752864893606
 30
0.0
 11
-373.526599745606
 21
16.6752864893606
 31
0.0
  0
LINE
  5
   343
  8
0
  6
CONTINUOUS
 62
   130
 10
-372.229854445313
 20
18.0385372217825
 30
0.0
 11
-372.229854445313
 21
16.741784292095
 31
0.0
  0
LINE
  5
   344
  8
0
  6
CONTINUOUS
 62
   130
 10
-372.229854445313
 20
16.741784292095
 30
0.0
 11
-371.465099196289
 21
16.741784292095
 31
0.0
  0
LINE
  5
   345
  8
0
  6
CONTINUOUS
 62
   130
 10
-371.465099196289
 20
18.0385372217825
 30
0.0
 11
-371.465099196289
 21
16.741784292095
 31
0.0
  0
LINE
  5
   346
  8
0
  6
CONTINUOUS
 62
   130
 10
-372.229854445313
 20
18.0385372217825
 30
0.0
 11
-371.465099196289
 21
18.0385372217825
 31
0.0
  0
LINE
  5
   347
  8
0
  6
CONTINUOUS
 62
   130
 10
-372.229854445313
 20
15.3785407122305
 30
0.0
 11
-371.465099196289
 21
15.3785407122305
 31
0.0
  0
LINE
  5
   348
  8
0
  6
CONTINUOUS
 62
   130
 10
-371.465099196289
 20
16.6752864893606
 30
0.0
 11
-371.465099196289
 21
15.3785407122305
 31
0.0
  0
LINE
  5
   349
  8
0
  6
CONTINUOUS
 62
   130
 10
-372.229854445313
 20
16.6752864893606
 30
0.0
 11
-371.465099196289
 21
16.6752864893606
 31
0.0
  0
LINE
  5
   34A
  8
0
  6
CONTINUOUS
 62
   130
 10
-372.229854445313
 20
16.6752864893606
 30
0.0
 11
-372.229854445313
 21
15.3785407122305
 31
0.0
  0
LINE
  5
   34B
  8
0
  6
CONTINUOUS
 62
   130
 10
-371.398601393555
 20
18.0385372217825
 30
0.0
 11
-371.184863905762
 21
18.0385372217825
 31
0.0
  0
LINE
  5
   34C
  8
0
  6
CONTINUOUS
 62
   130
 10
-371.398601393555
 20
18.0385372217825
 30
0.0
 11
-371.398601393555
 21
16.741784292095
 31
0.0
  0
LINE
  5
   34D
  8
0
  6
CONTINUOUS
 62
   130
 10
-371.398601393555
 20
16.741784292095
 30
0.0
 11
-370.624423842285
 21
16.741784292095
 31
0.0
  0
LINE
  5
   34E
  8
0
  6
CONTINUOUS
 62
   130
 10
-370.738638944898
 20
16.8279225140091
 30
0.0
 11
-370.624426893143
 21
16.7417866368132
 31
0.0
  0
LINE
  5
   34F
  8
0
  6
CONTINUOUS
 62
   130
 10
-370.866601428763
 20
16.8918469486887
 30
0.0
 11
-370.738633575571
 21
16.8279202460432
 31
0.0
  0
LINE
  5
   350
  8
0
  6
CONTINUOUS
 62
   130
 10
-370.71427902113
 20
17.0211765869775
 30
0.0
 11
-370.866599868704
 21
16.8918431094223
 31
0.0
  0
LINE
  5
   351
  8
0
  6
CONTINUOUS
 62
   130
 10
-370.611231884004
 20
17.1923787423121
 30
0.0
 11
-370.714274475108
 21
17.0211751347448
 31
0.0
  0
LINE
  5
   352
  8
0
  6
CONTINUOUS
 62
   130
 10
-370.568257865382
 20
17.3875163564245
 30
0.0
 11
-370.611234239644
 21
17.1923793558025
 31
0.0
  0
LINE
  5
   353
  8
0
  6
CONTINUOUS
 62
   130
 10
-370.589842992441
 20
17.5861730854386
 30
0.0
 11
-370.568259441707
 21
17.3875188687148
 31
0.0
  0
LINE
  5
   354
  8
0
  6
CONTINUOUS
 62
   130
 10
-370.673733644494
 20
17.7675282017788
 30
0.0
 11
-370.58984843851
 21
17.5861774717692
 31
0.0
  0
LINE
  5
   355
  8
0
  6
CONTINUOUS
 62
   130
 10
-370.811142002148
 20
17.9126103995463
 30
0.0
 11
-370.673736593599
 21
17.7675298240365
 31
0.0
  0
LINE
  5
   356
  8
0
  6
CONTINUOUS
 62
   130
 10
-370.987671106033
 20
18.0061949218402
 30
0.0
 11
-370.811134538472
 21
17.9125975020609
 31
0.0
  0
LINE
  5
   357
  8
0
  6
CONTINUOUS
 62
   130
 10
-371.184863671359
 20
18.0385361097929
 30
0.0
 11
-370.987674305213
 21
18.0062027329363
 31
0.0
  0
LINE
  5
   358
  8
0
  6
CONTINUOUS
 62
   130
 10
-371.398601393555
 20
16.6752864893606
 30
0.0
 11
-370.559444289063
 21
16.6752864893606
 31
0.0
  0
LINE
  5
   359
  8
0
  6
CONTINUOUS
 62
   130
 10
-371.398601393555
 20
16.6752864893606
 30
0.0
 11
-371.398601393555
 21
15.3785407122305
 31
0.0
  0
LINE
  5
   35A
  8
0
  6
CONTINUOUS
 62
   130
 10
-371.398601393555
 20
15.3785407122305
 30
0.0
 11
-371.15128694043
 21
15.3785407122305
 31
0.0
  0
LINE
  5
   35B
  8
0
  6
CONTINUOUS
 62
   130
 10
-370.930519537193
 20
15.4102865916118
 30
0.0
 11
-371.151283721171
 21
15.378539253172
 31
0.0
  0
LINE
  5
   35C
  8
0
  6
CONTINUOUS
 62
   130
 10
-370.727647510077
 20
15.5029560993257
 30
0.0
 11
-370.93052075268
 21
15.4102870876599
 31
0.0
  0
LINE
  5
   35D
  8
0
  6
CONTINUOUS
 62
   130
 10
-370.559116059821
 20
15.6490359727502
 30
0.0
 11
-370.72764940061
 21
15.502955474084
 31
0.0
  0
LINE
  5
   35E
  8
0
  6
CONTINUOUS
 62
   130
 10
-370.438570305151
 20
15.8366891627521
 30
0.0
 11
-370.559114738171
 21
15.6490365771007
 31
0.0
  0
LINE
  5
   35F
  8
0
  6
CONTINUOUS
 62
   130
 10
-370.37578720393
 20
16.0507020841391
 30
0.0
 11
-370.438561860415
 21
15.8366866108905
 31
0.0
  0
LINE
  5
   360
  8
0
  6
CONTINUOUS
 62
   130
 10
-370.375862454957
 20
16.2737398939462
 30
0.0
 11
-370.375793790409
 21
16.0507064551843
 31
0.0
  0
LINE
  5
   361
  8
0
  6
CONTINUOUS
 62
   130
 10
-370.438772981102
 20
16.4877173274866
 30
0.0
 11
-370.375860998495
 21
16.2737414102575
 31
0.0
  0
LINE
  5
   362
  8
0
  6
CONTINUOUS
 62
   130
 10
-370.559442453439
 20
16.6752836899385
 30
0.0
 11
-370.438775950827
 21
16.4877121673293
 31
0.0
  0
LINE
  5
   363
  8
0
  6
CONTINUOUS
 62
   130
 10
-373.460101942871
 20
18.0385372217825
 30
0.0
 11
-373.246356825684
 21
18.0385372217825
 31
0.0
  0
LINE
  5
   364
  8
0
  6
CONTINUOUS
 62
   130
 10
-373.460101942871
 20
18.0385372217825
 30
0.0
 11
-373.460101942871
 21
16.741784292095
 31
0.0
  0
LINE
  5
   365
  8
0
  6
CONTINUOUS
 62
   130
 10
-373.460101942871
 20
16.741784292095
 30
0.0
 11
-372.685924391602
 21
16.741784292095
 31
0.0
  0
LINE
  5
   366
  8
0
  6
CONTINUOUS
 62
   130
 10
-372.800134534191
 20
16.8279186322545
 30
0.0
 11
-372.685922482436
 21
16.7417827550587
 31
0.0
  0
LINE
  5
   367
  8
0
  6
CONTINUOUS
 62
   130
 10
-372.928103456438
 20
16.8918470974631
 30
0.0
 11
-372.800135603246
 21
16.8279203948176
 31
0.0
  0
LINE
  5
   368
  8
0
  6
CONTINUOUS
 62
   130
 10
-372.775780700318
 20
17.0211805755699
 30
0.0
 11
-372.928101547892
 21
16.8918470980148
 31
0.0
  0
LINE
  5
   369
  8
0
  6
CONTINUOUS
 62
   130
 10
-372.672735526138
 20
17.1923810201174
 30
0.0
 11
-372.775778117242
 21
17.0211774125501
 31
0.0
  0
LINE
  5
   36A
  8
0
  6
CONTINUOUS
 62
   130
 10
-372.629752038842
 20
17.3875171952352
 30
0.0
 11
-372.672736044048
 21
17.192380183225
 31
0.0
  0
LINE
  5
   36B
  8
0
  6
CONTINUOUS
 62
   130
 10
-372.651335035301
 20
17.5861763854091
 30
0.0
 11
-372.629751484567
 21
17.3875221686853
 31
0.0
  0
LINE
  5
   36C
  8
0
  6
CONTINUOUS
 62
   130
 10
-372.73523116007
 20
17.767522136408
 30
0.0
 11
-372.651338331847
 21
17.586171415033
 31
0.0
  0
LINE
  5
   36D
  8
0
  6
CONTINUOUS
 62
   130
 10
-372.872639462522
 20
17.912613877011
 30
0.0
 11
-372.735234053972
 21
17.7675333015011
 31
0.0
  0
LINE
  5
   36E
  8
0
  6
CONTINUOUS
 62
   130
 10
-373.049176638605
 20
18.0061973351834
 30
0.0
 11
-372.872640071045
 21
17.9125999154041
 31
0.0
  0
LINE
  5
   36F
  8
0
  6
CONTINUOUS
 62
   130
 10
-373.246357450888
 20
18.038537722451
 30
0.0
 11
-373.049175707516
 21
18.006204349453
 31
0.0
  0
LINE
  5
   370
  8
0
  6
CONTINUOUS
 62
   130
 10
-373.460101942871
 20
16.6752864893606
 30
0.0
 11
-372.620944838379
 21
16.6752864893606
 31
0.0
  0
LINE
  5
   371
  8
0
  6
CONTINUOUS
 62
   130
 10
-373.460101942871
 20
16.6752864893606
 30
0.0
 11
-373.460101942871
 21
15.3785407122305
 31
0.0
  0
LINE
  5
   372
  8
0
  6
CONTINUOUS
 62
   130
 10
-373.460101942871
 20
15.3785407122305
 30
0.0
 11
-373.212787489746
 21
15.3785407122305
 31
0.0
  0
LINE
  5
   373
  8
0
  6
CONTINUOUS
 62
   130
 10
-372.99202267171
 20
15.4102816855239
 30
0.0
 11
-373.212786855689
 21
15.3785343470842
 31
0.0
  0
LINE
  5
   374
  8
0
  6
CONTINUOUS
 62
   130
 10
-372.789147844941
 20
15.5029547919799
 30
0.0
 11
-372.992021087544
 21
15.4102857803141
 31
0.0
  0
LINE
  5
   375
  8
0
  6
CONTINUOUS
 62
   130
 10
-372.620616033402
 20
15.6490349983806
 30
0.0
 11
-372.789149374191
 21
15.5029544997144
 31
0.0
  0
LINE
  5
   376
  8
0
  6
CONTINUOUS
 62
   130
 10
-372.500071888086
 20
15.8366894191288
 30
0.0
 11
-372.620616321106
 21
15.6490368334774
 31
0.0
  0
LINE
  5
   377
  8
0
  6
CONTINUOUS
 62
   130
 10
-372.437284366284
 20
16.050704913653
 30
0.0
 11
-372.500066658596
 21
15.8366894173233
 31
0.0
  0
LINE
  5
   378
  8
0
  6
CONTINUOUS
 62
   130
 10
-372.437365349615
 20
16.2737401256918
 30
0.0
 11
-372.437289055707
 21
16.0507066844505
 31
0.0
  0
LINE
  5
   379
  8
0
  6
CONTINUOUS
 62
   130
 10
-372.500271667494
 20
16.487717225433
 30
0.0
 11
-372.437359684887
 21
16.2737413082039
 31
0.0
  0
LINE
  5
   37A
  8
0
  6
CONTINUOUS
 62
   130
 10
-372.620941005446
 20
16.6752841999688
 30
0.0
 11
-372.500274502834
 21
16.4877126773596
 31
0.0
  0
LINE
  5
   37B
  8
0
  6
CONTINUOUS
 62
   130
 10
-374.291347365234
 20
18.0385372217825
 30
0.0
 11
-374.291347365234
 21
15.3785407122305
 31
0.0
  0
LINE
  5
   37C
  8
0
  6
CONTINUOUS
 62
   130
 10
-382.507385975665
 20
14.0290899276683
 30
0.0
 11
-348.507430820466
 21
14.0290899276683
 31
0.0
  0
LINE
  5
   37D
  8
0
  6
CONTINUOUS
 62
   130
 10
-348.00743089676
 20
16.0290899276683
 30
0.0
 11
-348.007430782319
 21
13.0290899276683
 31
0.0
  0
LINE
  5
   37E
  8
0
  6
CONTINUOUS
 62
   130
 10
-327.00740064621
 20
16.0290899276683
 30
0.0
 11
-327.007400760651
 21
13.0290899276683
 31
0.0
  0
LINE
  5
   37F
  8
0
  6
CONTINUOUS
 62
   130
 10
-348.00743089676
 20
16.0290899276683
 30
0.0
 11
-327.00740064621
 21
16.0290899276683
 31
0.0
  0
LINE
  5
   380
  8
0
  6
CONTINUOUS
 62
   130
 10
-326.507400722504
 20
14.0290899276683
 30
0.0
 11
-292.507443313598
 21
14.0290899276683
 31
0.0
  0
LINE
  5
   381
  8
0
  6
CONTINUOUS
 62
   130
 10
-348.507430915834
 20
16.5290899276683
 30
0.0
 11
-326.507400627137
 21
16.5290899276683
 31
0.0
  0
LINE
  5
   382
  8
0
  6
CONTINUOUS
 62
   130
 10
-326.507400627137
 20
16.5290899276683
 30
0.0
 11
-326.507400760651
 21
13.0290899276683
 31
0.0
  0
LINE
  5
   383
  8
0
  6
CONTINUOUS
 62
   130
 10
-348.507430915834
 20
16.5290899276683
 30
0.0
 11
-348.507430782319
 21
13.0290899276683
 31
0.0
  0
LINE
  5
   384
  8
0
  6
CONTINUOUS
 62
   130
 10
-327.007401749111
 20
-12.8827608669608
 30
0.0
 11
-327.007401863552
 21
-15.8827608669608
 31
0.0
  0
LINE
  5
   385
  8
0
  6
CONTINUOUS
 62
   130
 10
-348.00742979386
 20
-12.8827608669608
 30
0.0
 11
-348.007429679419
 21
-15.8827608669608
 31
0.0
  0
LINE
  5
   386
  8
0
  6
CONTINUOUS
 62
   130
 10
-348.00742979386
 20
-12.8827608669608
 30
0.0
 11
-345.00742979386
 21
-12.8827608669608
 31
0.0
  0
LINE
  5
   387
  8
0
  6
CONTINUOUS
 62
   130
 10
-330.007401749111
 20
-12.8827608669608
 30
0.0
 11
-327.007401749111
 21
-12.8827608669608
 31
0.0
  0
LINE
  5
   388
  8
0
  6
CONTINUOUS
 62
   130
 10
-348.007429679419
 20
-15.8827608669608
 30
0.0
 11
-344.007429679419
 21
-15.8827608669608
 31
0.0
  0
LINE
  5
   389
  8
0
  6
CONTINUOUS
 62
   130
 10
-331.007401863552
 20
-15.8827608669608
 30
0.0
 11
-327.007401863552
 21
-15.8827608669608
 31
0.0
  0
LINE
  5
   38A
  8
0
  6
CONTINUOUS
 62
   130
 10
-382.507385975665
 20
13.0290899276683
 30
0.0
 11
-382.507385975665
 21
11.5290899276683
 31
0.0
  0
LINE
  5
   38B
  8
0
  6
CONTINUOUS
 62
   130
 10
-382.507385975665
 20
-17.4709100723198
 30
0.0
 11
-382.507385975665
 21
-18.9709100723198
 31
0.0
  0
LINE
  5
   38C
  8
0
  6
CONTINUOUS
 62
   130
 10
-363.107413482667
 20
-18.2209253311139
 30
0.0
 11
-353.107413482667
 21
-18.2209253311139
 31
0.0
  0
LINE
  5
   38D
  8
0
  6
CONTINUOUS
 62
   130
 10
-363.107413482667
 20
-22.7209253311139
 30
0.0
 11
-353.107413482667
 21
-22.7209253311139
 31
0.0
  0
LINE
  5
   38E
  8
0
  6
CONTINUOUS
 62
   130
 10
-353.107413482667
 20
-18.2209253311139
 30
0.0
 11
-353.107413482667
 21
-22.7209253311139
 31
0.0
  0
LINE
  5
   38F
  8
0
  6
CONTINUOUS
 62
   130
 10
-363.107413482667
 20
-18.2209253311139
 30
0.0
 11
-363.107413482667
 21
-22.7209253311139
 31
0.0
  0
LINE
  5
   390
  8
0
  6
CONTINUOUS
 62
   130
 10
-382.507385975665
 20
53.0290476445807
 30
0.0
 11
-382.507385975665
 21
45.0295257568359
 31
0.0
  0
LINE
  5
   391
  8
0
  6
CONTINUOUS
 62
   130
 10
-383.807385975665
 20
53.0290476445807
 30
0.0
 11
-383.807385975665
 21
45.0295257568359
 31
0.0
  0
LINE
  5
   392
  8
0
  6
CONTINUOUS
 62
   130
 10
-384.307385975665
 20
53.0290476445807
 30
0.0
 11
-384.307385975665
 21
45.0295257568359
 31
0.0
  0
LINE
  5
   393
  8
0
  6
CONTINUOUS
 62
   130
 10
-385.607385975665
 20
53.0290476445807
 30
0.0
 11
-385.607385975665
 21
45.0295257568359
 31
0.0
  0
LINE
  5
   394
  8
0
  6
CONTINUOUS
 62
   130
 10
-387.407385975665
 20
53.0290476445807
 30
0.0
 11
-387.407385975665
 21
45.0295257568359
 31
0.0
  0
LINE
  5
   395
  8
0
  6
CONTINUOUS
 62
   130
 10
-385.607385975665
 20
53.0290476445807
 30
0.0
 11
-385.607385975665
 21
45.0295257568359
 31
0.0
  0
LINE
  5
   396
  8
0
  6
CONTINUOUS
 62
   130
 10
-386.107385975665
 20
53.0290476445807
 30
0.0
 11
-386.107385975665
 21
45.0295257568359
 31
0.0
  0
LINE
  5
   397
  8
0
  6
CONTINUOUS
 62
   130
 10
-387.407385975665
 20
53.0290476445807
 30
0.0
 11
-387.407385975665
 21
45.0295257568359
 31
0.0
  0
LINE
  5
   398
  8
0
  6
CONTINUOUS
 62
   130
 10
-387.907385975665
 20
53.0290476445807
 30
0.0
 11
-387.907385975665
 21
45.0295257568359
 31
0.0
  0
LINE
  5
   399
  8
0
  6
CONTINUOUS
 62
   130
 10
-389.207385975665
 20
53.0290476445807
 30
0.0
 11
-389.207385975665
 21
45.0295257568359
 31
0.0
  0
LINE
  5
   39A
  8
0
  6
CONTINUOUS
 62
   130
 10
-389.707385975665
 20
53.0290476445807
 30
0.0
 11
-389.707385975665
 21
45.0295257568359
 31
0.0
  0
LINE
  5
   39B
  8
0
  6
CONTINUOUS
 62
   130
 10
-391.007385975665
 20
53.0290476445807
 30
0.0
 11
-391.007385975665
 21
45.0295257568359
 31
0.0
  0
LINE
  5
   39C
  8
0
  6
CONTINUOUS
 62
   130
 10
-391.507385975665
 20
53.0290476445807
 30
0.0
 11
-391.507385975665
 21
45.0295257568359
 31
0.0
  0
LINE
  5
   39D
  8
0
  6
CONTINUOUS
 62
   130
 10
-392.807385975665
 20
53.0290476445807
 30
0.0
 11
-392.807385975665
 21
45.0295257568359
 31
0.0
  0
LINE
  5
   39E
  8
0
  6
CONTINUOUS
 62
   130
 10
-393.307385975665
 20
53.0290476445807
 30
0.0
 11
-393.307385975665
 21
45.0295257568359
 31
0.0
  0
LINE
  5
   39F
  8
0
  6
CONTINUOUS
 62
   130
 10
-394.607385975665
 20
53.0290476445807
 30
0.0
 11
-394.607385975665
 21
45.0295257568359
 31
0.0
  0
LINE
  5
   3A0
  8
0
  6
CONTINUOUS
 62
   130
 10
-395.107385975665
 20
53.0290476445807
 30
0.0
 11
-395.107385975665
 21
45.0295257568359
 31
0.0
  0
LINE
  5
   3A1
  8
0
  6
CONTINUOUS
 62
   130
 10
-396.407385975665
 20
53.0290476445807
 30
0.0
 11
-396.407385975665
 21
45.0295257568359
 31
0.0
  0
LINE
  5
   3A2
  8
0
  6
CONTINUOUS
 62
   130
 10
-396.907385975665
 20
53.0290476445807
 30
0.0
 11
-396.907385975665
 21
45.0295257568359
 31
0.0
  0
LINE
  5
   3A3
  8
0
  6
CONTINUOUS
 62
   130
 10
-398.207385975665
 20
53.0290476445807
 30
0.0
 11
-398.207385975665
 21
45.0295257568359
 31
0.0
  0
LINE
  5
   3A4
  8
0
  6
CONTINUOUS
 62
   130
 10
-398.207385975665
 20
53.0290476445807
 30
0.0
 11
-398.207385975665
 21
45.0295257568359
 31
0.0
  0
LINE
  5
   3A5
  8
0
  6
CONTINUOUS
 62
   130
 10
-398.707385975665
 20
53.0290476445807
 30
0.0
 11
-398.707385975665
 21
45.0295257568359
 31
0.0
  0
LINE
  5
   3A6
  8
0
  6
CONTINUOUS
 62
   130
 10
-400.007385975665
 20
53.0290476445807
 30
0.0
 11
-400.007385975665
 21
45.0295257568359
 31
0.0
  0
LINE
  5
   3A7
  8
0
  6
CONTINUOUS
 62
   130
 10
-400.507385975665
 20
53.0290476445807
 30
0.0
 11
-400.507385975665
 21
45.0295257568359
 31
0.0
  0
LINE
  5
   3A8
  8
0
  6
CONTINUOUS
 62
   130
 10
-401.807385975665
 20
53.0290476445807
 30
0.0
 11
-401.807385975665
 21
45.0295257568359
 31
0.0
  0
LINE
  5
   3A9
  8
0
  6
CONTINUOUS
 62
   130
 10
-402.307385975665
 20
53.0290476445807
 30
0.0
 11
-402.307385975665
 21
45.0295257568359
 31
0.0
  0
LINE
  5
   3AA
  8
0
  6
CONTINUOUS
 62
   130
 10
-403.607385975665
 20
53.0290476445807
 30
0.0
 11
-403.607385975665
 21
45.0295257568359
 31
0.0
  0
LINE
  5
   3AB
  8
0
  6
CONTINUOUS
 62
   130
 10
-404.107385975665
 20
53.0290476445807
 30
0.0
 11
-404.107385975665
 21
45.0295257568359
 31
0.0
  0
LINE
  5
   3AC
  8
0
  6
CONTINUOUS
 62
   130
 10
-405.407385975665
 20
53.0290476445807
 30
0.0
 11
-405.407385975665
 21
45.0295257568359
 31
0.0
  0
LINE
  5
   3AD
  8
0
  6
CONTINUOUS
 62
   130
 10
-405.907385975665
 20
53.0290476445807
 30
0.0
 11
-405.907385975665
 21
45.0295257568359
 31
0.0
  0
LINE
  5
   3AE
  8
0
  6
CONTINUOUS
 62
   130
 10
-407.207385975665
 20
53.0290476445807
 30
0.0
 11
-407.207385975665
 21
45.0295257568359
 31
0.0
  0
LINE
  5
   3AF
  8
0
  6
CONTINUOUS
 62
   130
 10
-407.707385975665
 20
53.0290476445807
 30
0.0
 11
-407.707385975665
 21
45.0295257568359
 31
0.0
  0
LINE
  5
   3B0
  8
0
  6
CONTINUOUS
 62
   130
 10
-409.007385975665
 20
53.0290476445807
 30
0.0
 11
-409.007385975665
 21
45.0295257568359
 31
0.0
  0
LINE
  5
   3B1
  8
0
  6
CONTINUOUS
 62
   130
 10
-409.507385975665
 20
53.0290476445807
 30
0.0
 11
-409.507385975665
 21
45.0295257568359
 31
0.0
  0
LINE
  5
   3B2
  8
0
  6
CONTINUOUS
 62
   130
 10
-410.807385975665
 20
53.0290476445807
 30
0.0
 11
-410.807385975665
 21
45.0295257568359
 31
0.0
  0
LINE
  5
   3B3
  8
0
  6
CONTINUOUS
 62
   130
 10
-411.307385975665
 20
53.0290476445807
 30
0.0
 11
-411.307385975665
 21
45.0295257568359
 31
0.0
  0
ARC
  5
   3B4
  8
0
  6
CONTINUOUS
 62
   130
 10
-293.507434768683
 20
70.0290594100982
 30
0.0
 40
1.0
 50
359.999991101463
 51
449.999999844103
  0
ARC
  5
   3B5
  8
0
  6
CONTINUOUS
 62
   130
 10
-411.507396774288
 20
70.0290594100982
 30
0.0
 40
1.0
 50
449.999999844103
 51
540.000008586744
  0
ARC
  5
   3B6
  8
0
  6
CONTINUOUS
 62
   130
 10
-411.507378158571
 20
-51.9709253311139
 30
0.0
 40
1.0
 50
540.000008586744
 51
629.999999844103
  0
ARC
  5
   3B7
  8
0
  6
CONTINUOUS
 62
   130
 10
-293.507453384399
 20
-51.9709253311139
 30
0.0
 40
1.0
 50
269.999999844103
 51
359.999991101463
  0
LINE
  5
   3B8
  8
0
  6
CONTINUOUS
 62
   130
 10
-410.154456794585
 20
70.0290596165404
 30
0.0
 11
-410.154454429471
 21
54.5290476445807
 31
0.0
  0
LINE
  5
   3B9
  8
0
  6
CONTINUOUS
 62
   130
 10
-407.801516814882
 20
70.0290599755705
 30
0.0
 11
-407.801514449769
 21
54.5290476445807
 31
0.0
  0
LINE
  5
   3BA
  8
0
  6
CONTINUOUS
 62
   130
 10
-405.44857683518
 20
70.0290603346006
 30
0.0
 11
-405.448574470066
 21
54.5290476445807
 31
0.0
  0
LINE
  5
   3BB
  8
0
  6
CONTINUOUS
 62
   130
 10
-403.095636855477
 20
70.0290606936306
 30
0.0
 11
-403.095634490363
 21
54.5290476445807
 31
0.0
  0
LINE
  5
   3BC
  8
0
  6
CONTINUOUS
 62
   130
 10
-400.742696875774
 20
70.0290610526607
 30
0.0
 11
-400.742694510661
 21
54.5290476445807
 31
0.0
  0
LINE
  5
   3BD
  8
0
  6
CONTINUOUS
 62
   130
 10
-398.389756896072
 20
70.0290614116908
 30
0.0
 11
-398.389754530958
 21
54.5290476445807
 31
0.0
  0
LINE
  5
   3BE
  8
0
  6
CONTINUOUS
 62
   130
 10
-396.036816916369
 20
70.0290617707208
 30
0.0
 11
-396.036814551255
 21
54.5290476445807
 31
0.0
  0
LINE
  5
   3BF
  8
0
  6
CONTINUOUS
 62
   130
 10
-393.683876936666
 20
70.0290621297509
 30
0.0
 11
-393.683874571553
 21
54.5290476445807
 31
0.0
  0
LINE
  5
   3C0
  8
0
  6
CONTINUOUS
 62
   130
 10
-391.330936956964
 20
70.029062488781
 30
0.0
 11
-391.33093459185
 21
54.5290476445807
 31
0.0
  0
LINE
  5
   3C1
  8
0
  6
CONTINUOUS
 62
   130
 10
-388.977996977261
 20
70.029062847811
 30
0.0
 11
-388.977994612147
 21
54.5290476445807
 31
0.0
  0
LINE
  5
   3C2
  8
0
  6
CONTINUOUS
 62
   130
 10
-386.625056997559
 20
70.0290632068411
 30
0.0
 11
-386.625054632444
 21
54.5290476445807
 31
0.0
  0
LINE
  5
   3C3
  8
0
  6
CONTINUOUS
 62
   130
 10
-384.272117017856
 20
70.0290635658712
 30
0.0
 11
-384.272114652742
 21
54.5290476445808
 31
0.0
  0
LINE
  5
   3C4
  8
0
  6
CONTINUOUS
 62
   130
 10
-381.919177038153
 20
70.0290639249012
 30
0.0
 11
-381.919174673039
 21
54.5290476445807
 31
0.0
  0
LINE
  5
   3C5
  8
0
  6
CONTINUOUS
 62
   130
 10
-379.566237058451
 20
70.0290642839313
 30
0.0
 11
-379.566234693336
 21
54.5290476445807
 31
0.0
  0
LINE
  5
   3C6
  8
0
  6
CONTINUOUS
 62
   130
 10
-377.213297078748
 20
70.0290646429614
 30
0.0
 11
-377.213294713634
 21
54.5290476445807
 31
0.0
  0
LINE
  5
   3C7
  8
0
  6
CONTINUOUS
 62
   130
 10
-374.860357099045
 20
70.0290650019914
 30
0.0
 11
-374.860354733931
 21
54.5290476445807
 31
0.0
  0
LINE
  5
   3C8
  8
0
  6
CONTINUOUS
 62
   130
 10
-372.507417119343
 20
70.0290653610215
 30
0.0
 11
-372.507414754228
 21
54.5290476445807
 31
0.0
  0
LINE
  5
   3C9
  8
0
  6
CONTINUOUS
 62
   130
 10
-370.15447713964
 20
70.0290657200516
 30
0.0
 11
-370.154474774525
 21
54.5290476445807
 31
0.0
  0
LINE
  5
   3CA
  8
0
  6
CONTINUOUS
 62
   130
 10
-367.801537159937
 20
70.0290660790816
 30
0.0
 11
-367.801534794823
 21
54.5290476445807
 31
0.0
  0
LINE
  5
   3CB
  8
0
  6
CONTINUOUS
 62
   130
 10
-365.448597180235
 20
70.0290664381117
 30
0.0
 11
-365.44859481512
 21
54.5290476445807
 31
0.0
  0
LINE
  5
   3CC
  8
0
  6
CONTINUOUS
 62
   130
 10
-363.095657200532
 20
70.0290667971418
 30
0.0
 11
-363.095654835417
 21
54.5290476445807
 31
0.0
  0
LINE
  5
   3CD
  8
0
  6
CONTINUOUS
 62
   130
 10
-360.742717220829
 20
70.0290671561718
 30
0.0
 11
-360.742714855714
 21
54.5290476445807
 31
0.0
  0
LINE
  5
   3CE
  8
0
  6
CONTINUOUS
 62
   130
 10
-358.389777241127
 20
70.0290675152019
 30
0.0
 11
-358.389774876012
 21
54.5290476445807
 31
0.0
  0
LINE
  5
   3CF
  8
0
  6
CONTINUOUS
 62
   130
 10
-356.036837261424
 20
70.029067874232
 30
0.0
 11
-356.036834896309
 21
54.5290476445807
 31
0.0
  0
LINE
  5
   3D0
  8
0
  6
CONTINUOUS
 62
   130
 10
-353.683897281721
 20
70.0290682332621
 30
0.0
 11
-353.683894916606
 21
54.5290476445807
 31
0.0
  0
LINE
  5
   3D1
  8
0
  6
CONTINUOUS
 62
   130
 10
-351.330957302019
 20
70.0290685922921
 30
0.0
 11
-351.330954936904
 21
54.5290476445807
 31
0.0
  0
LINE
  5
   3D2
  8
0
  6
CONTINUOUS
 62
   130
 10
-348.978017322316
 20
70.0290689513222
 30
0.0
 11
-348.978014957201
 21
54.5290476445807
 31
0.0
  0
LINE
  5
   3D3
  8
0
  6
CONTINUOUS
 62
   130
 10
-346.625077342613
 20
70.0290693103523
 30
0.0
 11
-346.625074977498
 21
54.5290476445807
 31
0.0
  0
LINE
  5
   3D4
  8
0
  6
CONTINUOUS
 62
   130
 10
-344.272137362911
 20
70.0290696693823
 30
0.0
 11
-344.272134997795
 21
54.5290476445807
 31
0.0
  0
LINE
  5
   3D5
  8
0
  6
CONTINUOUS
 62
   130
 10
-341.919197383208
 20
70.0290700284124
 30
0.0
 11
-341.919195018093
 21
54.5290476445807
 31
0.0
  0
LINE
  5
   3D6
  8
0
  6
CONTINUOUS
 62
   130
 10
-339.566257403505
 20
70.0290703874424
 30
0.0
 11
-339.56625503839
 21
54.5290476445807
 31
0.0
  0
LINE
  5
   3D7
  8
0
  6
CONTINUOUS
 62
   130
 10
-337.213317423803
 20
70.0290707464725
 30
0.0
 11
-337.213315058687
 21
54.5290476445807
 31
0.0
  0
LINE
  5
   3D8
  8
0
  6
CONTINUOUS
 62
   130
 10
-334.8603774441
 20
70.0290711055026
 30
0.0
 11
-334.860375078985
 21
54.5290476445807
 31
0.0
  0
LINE
  5
   3D9
  8
0
  6
CONTINUOUS
 62
   130
 10
-332.507437464397
 20
70.0290714645327
 30
0.0
 11
-332.507435099282
 21
54.5290476445807
 31
0.0
  0
LINE
  5
   3DA
  8
0
  6
CONTINUOUS
 62
   130
 10
-330.154497484695
 20
70.0290718235627
 30
0.0
 11
-330.154495119579
 21
54.5290476445807
 31
0.0
  0
LINE
  5
   3DB
  8
0
  6
CONTINUOUS
 62
   130
 10
-327.801557504992
 20
70.0290721825928
 30
0.0
 11
-327.801555139877
 21
54.5290476445807
 31
0.0
  0
LINE
  5
   3DC
  8
0
  6
CONTINUOUS
 62
   130
 10
-325.44861752529
 20
70.0290725416229
 30
0.0
 11
-325.448615160174
 21
54.5290476445807
 31
0.0
  0
LINE
  5
   3DD
  8
0
  6
CONTINUOUS
 62
   130
 10
-323.095677545587
 20
70.0290729006529
 30
0.0
 11
-323.095675180471
 21
54.5290476445807
 31
0.0
  0
LINE
  5
   3DE
  8
0
  6
CONTINUOUS
 62
   130
 10
-320.742737565884
 20
70.029073259683
 30
0.0
 11
-320.742735200768
 21
54.5290476445807
 31
0.0
  0
LINE
  5
   3DF
  8
0
  6
CONTINUOUS
 62
   130
 10
-318.389797586182
 20
70.0290736187131
 30
0.0
 11
-318.389795221066
 21
54.5290476445807
 31
0.0
  0
LINE
  5
   3E0
  8
0
  6
CONTINUOUS
 62
   130
 10
-316.036857606479
 20
70.0290739777431
 30
0.0
 11
-316.036855241363
 21
54.5290476445807
 31
0.0
  0
LINE
  5
   3E1
  8
0
  6
CONTINUOUS
 62
   130
 10
-313.683917626776
 20
70.0290743367732
 30
0.0
 11
-313.68391526166
 21
54.5290476445807
 31
0.0
  0
LINE
  5
   3E2
  8
0
  6
CONTINUOUS
 62
   130
 10
-311.330977647074
 20
70.0290746958033
 30
0.0
 11
-311.330975281958
 21
54.5290476445807
 31
0.0
  0
LINE
  5
   3E3
  8
0
  6
CONTINUOUS
 62
   130
 10
-308.978037667371
 20
70.0290750548334
 30
0.0
 11
-308.978035302255
 21
54.5290476445807
 31
0.0
  0
LINE
  5
   3E4
  8
0
  6
CONTINUOUS
 62
   130
 10
-306.625097687668
 20
70.0290754138634
 30
0.0
 11
-306.625095322552
 21
54.5290476445807
 31
0.0
  0
LINE
  5
   3E5
  8
0
  6
CONTINUOUS
 62
   130
 10
-304.272157707966
 20
70.0290757728935
 30
0.0
 11
-304.272155342849
 21
54.5290476445807
 31
0.0
  0
LINE
  5
   3E6
  8
0
  6
CONTINUOUS
 62
   130
 10
-301.919217728263
 20
70.0290761319236
 30
0.0
 11
-301.919215363147
 21
54.5290476445807
 31
0.0
  0
LINE
  5
   3E7
  8
0
  6
CONTINUOUS
 62
   130
 10
-299.56627774856
 20
70.0290764909536
 30
0.0
 11
-299.566275383444
 21
54.5290476445807
 31
0.0
  0
LINE
  5
   3E8
  8
0
  6
CONTINUOUS
 62
   130
 10
-297.213337768858
 20
70.0290768499837
 30
0.0
 11
-297.213335403741
 21
54.5290476445807
 31
0.0
  0
LINE
  5
   3E9
  8
0
  6
CONTINUOUS
 62
   130
 10
-294.860397789155
 20
70.0290772090137
 30
0.0
 11
-294.860395424039
 21
54.5290476445807
 31
0.0
  0
CIRCLE
  5
   3EA
  8
0
  6
CONTINUOUS
 62
   130
 10
-307.507385975665
 20
68.0290594100982
 30
0.0
 40
2.5
  0
LINE
  5
   3EB
  8
0
  6
CONTINUOUS
 62
   130
 10
-309.956875718448
 20
68.5290594100982
 30
0.0
 11
-305.057896232882
 21
68.5290594100982
 31
0.0
  0
LINE
  5
   3EC
  8
0
  6
CONTINUOUS
 62
   130
 10
-309.956875718448
 20
67.5290594100982
 30
0.0
 11
-305.057896232882
 21
67.5290594100982
 31
0.0
  0
LINE
  5
   3ED
  8
0
  6
DOT
 62
   130
 10
-307.007385975665
 20
70.4785491528814
 30
0.0
 11
-307.007385975665
 21
65.579569667315
 31
0.0
  0
LINE
  5
   3EE
  8
0
  6
DOT
 62
   130
 10
-308.007385975665
 20
70.4785491528814
 30
0.0
 11
-308.007385975665
 21
65.579569667315
 31
0.0
  0
LINE
  5
   3EF
  8
0
  6
DASHDOT
 62
   130
 10
-337.507385975665
 20
48.8917161643698
 30
0.0
 11
-337.507385975665
 21
-55.7431994156684
 31
0.0
  0
LINE
  5
   3F0
  8
0
  6
CONTINUOUS
 62
   130
 10
-341.919195018093
 20
-36.4709135655964
 30
0.0
 11
-341.919197383208
 21
-51.9709359494281
 31
0.0
  0
LINE
  5
   3F1
  8
0
  6
CONTINUOUS
 62
   130
 10
-339.56625503839
 20
-36.4709135655964
 30
0.0
 11
-339.566257403505
 21
-51.9709363084581
 31
0.0
  0
LINE
  5
   3F2
  8
0
  6
CONTINUOUS
 62
   130
 10
-337.213315058687
 20
-36.4709135655964
 30
0.0
 11
-337.213317423803
 21
-51.9709366674882
 31
0.0
  0
LINE
  5
   3F3
  8
0
  6
CONTINUOUS
 62
   130
 10
-334.860375078985
 20
-36.4709135655964
 30
0.0
 11
-334.8603774441
 21
-51.9709370265183
 31
0.0
  0
LINE
  5
   3F4
  8
0
  6
CONTINUOUS
 62
   130
 10
-332.507435099282
 20
-36.4709135655964
 30
0.0
 11
-332.507437464397
 21
-51.9709373855483
 31
0.0
  0
LINE
  5
   3F5
  8
0
  6
CONTINUOUS
 62
   130
 10
-330.154495119579
 20
-36.4709135655964
 30
0.0
 11
-330.154497484695
 21
-51.9709377445784
 31
0.0
  0
LINE
  5
   3F6
  8
0
  6
CONTINUOUS
 62
   130
 10
-327.801555139877
 20
-36.4709135655964
 30
0.0
 11
-327.801557504992
 21
-51.9709381036085
 31
0.0
  0
LINE
  5
   3F7
  8
0
  6
CONTINUOUS
 62
   130
 10
-325.448615160174
 20
-36.4709135655964
 30
0.0
 11
-325.44861752529
 21
-51.9709384626385
 31
0.0
  0
LINE
  5
   3F8
  8
0
  6
CONTINUOUS
 62
   130
 10
-323.095675180471
 20
-36.4709135655964
 30
0.0
 11
-323.095677545587
 21
-51.9709388216686
 31
0.0
  0
LINE
  5
   3F9
  8
0
  6
CONTINUOUS
 62
   130
 10
-320.742735200768
 20
-36.4709135655964
 30
0.0
 11
-320.742737565884
 21
-51.9709391806987
 31
0.0
  0
LINE
  5
   3FA
  8
0
  6
CONTINUOUS
 62
   130
 10
-318.389795221066
 20
-36.4709135655964
 30
0.0
 11
-318.389797586182
 21
-51.9709395397287
 31
0.0
  0
LINE
  5
   3FB
  8
0
  6
CONTINUOUS
 62
   130
 10
-316.036855241363
 20
-36.4709135655964
 30
0.0
 11
-316.036857606479
 21
-51.9709398987588
 31
0.0
  0
LINE
  5
   3FC
  8
0
  6
CONTINUOUS
 62
   130
 10
-313.68391526166
 20
-36.4709135655964
 30
0.0
 11
-313.683917626776
 21
-51.9709402577889
 31
0.0
  0
LINE
  5
   3FD
  8
0
  6
CONTINUOUS
 62
   130
 10
-311.330975281958
 20
-36.4709135655964
 30
0.0
 11
-311.330977647074
 21
-51.970940616819
 31
0.0
  0
LINE
  5
   3FE
  8
0
  6
CONTINUOUS
 62
   130
 10
-308.978035302255
 20
-36.4709135655964
 30
0.0
 11
-308.978037667371
 21
-51.970940975849
 31
0.0
  0
LINE
  5
   3FF
  8
0
  6
CONTINUOUS
 62
   130
 10
-306.625095322552
 20
-36.4709135655964
 30
0.0
 11
-306.625097687668
 21
-51.9709413348791
 31
0.0
  0
LINE
  5
   400
  8
0
  6
CONTINUOUS
 62
   130
 10
-304.272155342849
 20
-36.4709135655964
 30
0.0
 11
-304.272157707966
 21
-51.9709416939091
 31
0.0
  0
LINE
  5
   401
  8
0
  6
CONTINUOUS
 62
   130
 10
-301.919215363147
 20
-36.4709135655964
 30
0.0
 11
-301.919217728263
 21
-51.9709420529392
 31
0.0
  0
LINE
  5
   402
  8
0
  6
CONTINUOUS
 62
   130
 10
-299.566275383444
 20
-36.4709135655964
 30
0.0
 11
-299.56627774856
 21
-51.9709424119693
 31
0.0
  0
LINE
  5
   403
  8
0
  6
CONTINUOUS
 62
   130
 10
-297.213335403741
 20
-36.4709135655964
 30
0.0
 11
-297.213337768858
 21
-51.9709427709994
 31
0.0
  0
LINE
  5
   404
  8
0
  6
CONTINUOUS
 62
   130
 10
-294.860395424039
 20
-36.4709135655964
 30
0.0
 11
-294.860397789155
 21
-51.9709431300294
 31
0.0
  0
CIRCLE
  5
   405
  8
0
  6
CONTINUOUS
 62
   130
 10
-307.507385975665
 20
-49.9709253311139
 30
0.0
 40
2.5
  0
LINE
  5
   406
  8
0
  6
CONTINUOUS
 62
   130
 10
-309.956875718448
 20
-50.4709253311139
 30
0.0
 11
-305.057896232882
 21
-50.4709253311139
 31
0.0
  0
LINE
  5
   407
  8
0
  6
CONTINUOUS
 62
   130
 10
-309.956875718448
 20
-49.4709253311139
 30
0.0
 11
-305.057896232882
 21
-49.4709253311139
 31
0.0
  0
LINE
  5
   408
  8
0
  6
DOT
 62
   130
 10
-307.007385975665
 20
-47.5214355883306
 30
0.0
 11
-307.007385975665
 21
-52.4204150738971
 31
0.0
  0
LINE
  5
   409
  8
0
  6
DOT
 62
   130
 10
-308.007385975665
 20
-47.5214355883306
 30
0.0
 11
-308.007385975665
 21
-52.4204150738971
 31
0.0
  0
INSERT
  5
   40A
  8
0
  6
CONTINUOUS
 62
     7
  2
*UDIM776
 10
0.0
 20
0.0
 30
0.0
  0
INSERT
  5
   40B
  8
0
  6
CONTINUOUS
 62
     7
  2
*UDIM777
 10
0.0
 20
0.0
 30
0.0
  0
INSERT
  5
   40C
  8
0
  6
CONTINUOUS
 62
     3
  2
*UDIM778
 10
0.0
 20
0.0
 30
0.0
  0
TEXT
  5
   40D
  8
0
  6
CONTINUOUS
 62
     2
 10
-268.488912799458
 20
-4.50408222343993
 30
0.0
 40
3.00000002980232
  1
X
 50
359.999999844103
 41
0.916666674282816
 11
-268.488912795385
 21
-3.00408220853877
 31
0.0
 73
     2
  0
TEXT
  5
   40E
  8
0
  6
CONTINUOUS
 62
     2
 10
-338.353688855073
 20
86.2919835925175
 30
0.0
 40
3.00000002980232
  1
Y
 50
359.999999844103
 41
0.916666674282816
 72
     1
 11
-337.253688812256
 21
87.7919836044312
 31
0.0
 73
     2
  0
TEXT
  5
   40F
  8
0
  6
CONTINUOUS
 62
     2
 10
-424.033696965247
 20
-4.50408231960499
 30
0.0
 40
3.00000002980232
  1
X
 50
359.999999844103
 41
0.916666674282816
 72
     2
 11
-421.833696883687
 21
-3.00408231067878
 31
0.0
 73
     2
  0
TEXT
  5
   410
  8
0
  6
CONTINUOUS
 62
     2
 10
-338.353688855073
 20
-67.5066537976193
 30
0.0
 40
3.00000002980232
  1
Y
 50
359.999999844103
 41
0.916666674282816
 72
     1
 11
-337.253688812256
 21
-66.0066537857056
 31
0.0
 73
     2
  0
LINE
  5
   411
  8
0
  6
CONTINUOUS
 62
   130
 10
-291.888438219092
 20
-22.7199223294951
 30
0.0
 11
-285.56157764627
 21
-22.7199223294951
 31
0.0
  0
LINE
  5
   412
  8
0
  6
CONTINUOUS
 62
   130
 10
-343.346904211373
 20
-26.3051433207606
 30
0.0
 11
-343.346904211373
 21
-51.9289286406875
 31
0.0
  0
LINE
  5
   413
  8
0
  6
CONTINUOUS
 62
   130
 10
-343.346904211373
 20
-34.9709218378412
 30
0.0
 11
-337.507430003344
 21
-34.9709218378412
 31
0.0
  0
LINE
  5
   414
  8
0
  6
CONTINUOUS
 62
   130
 10
-343.346904211373
 20
-36.4709218378412
 30
0.0
 11
-337.507409095764
 21
-36.4709218378412
 31
0.0
  0
LINE
  5
   415
  8
0
  6
CONTINUOUS
 62
   130
 10
-365.448597027577
 20
-50.9704742431641
 30
0.0
 11
-365.448597180235
 21
-51.9709323591274
 31
0.0
  0
LINE
  5
   416
  8
0
  6
CONTINUOUS
 62
   130
 10
-363.095657047874
 20
-50.9704742431641
 30
0.0
 11
-363.095657200532
 21
-51.9709327181575
 31
0.0
  0
LINE
  5
   417
  8
0
  6
CONTINUOUS
 62
   130
 10
-360.742717068171
 20
-50.9704742431641
 30
0.0
 11
-360.742717220829
 21
-51.9709330771875
 31
0.0
  0
LINE
  5
   418
  8
0
  6
CONTINUOUS
 62
   130
 10
-358.389777088469
 20
-50.9704742431641
 30
0.0
 11
-358.389777241127
 21
-51.9709334362176
 31
0.0
  0
LINE
  5
   419
  8
0
  6
CONTINUOUS
 62
   130
 10
-356.036837108766
 20
-50.9704742431641
 30
0.0
 11
-356.036837261424
 21
-51.9709337952477
 31
0.0
  0
LINE
  5
   41A
  8
0
  6
CONTINUOUS
 62
   130
 10
-353.683897129063
 20
-50.9704742431641
 30
0.0
 11
-353.683897281721
 21
-51.9709341542777
 31
0.0
  0
LINE
  5
   41B
  8
0
  6
CONTINUOUS
 62
   130
 10
-351.330957149361
 20
-50.9704742431641
 30
0.0
 11
-351.330957302019
 21
-51.9709345133078
 31
0.0
  0
LINE
  5
   41C
  8
0
  6
CONTINUOUS
 62
   130
 10
-348.978017169658
 20
-50.9704742431641
 30
0.0
 11
-348.978017322316
 21
-51.9709348723379
 31
0.0
  0
LINE
  5
   41D
  8
0
  6
CONTINUOUS
 62
   130
 10
-346.625077189955
 20
-50.9704742431641
 30
0.0
 11
-346.625077342613
 21
-51.9709352313679
 31
0.0
  0
LINE
  5
   41E
  8
0
  6
CONTINUOUS
 62
   130
 10
-344.272137210252
 20
-50.9704742431641
 30
0.0
 11
-344.272137362911
 21
-51.970935590398
 31
0.0
  0
LINE
  5
   41F
  8
0
  6
CONTINUOUS
 62
   130
 10
-396.036816763712
 20
-50.9704742431641
 30
0.0
 11
-396.036816916369
 21
-51.9709276917365
 31
0.0
  0
LINE
  5
   420
  8
0
  6
CONTINUOUS
 62
   130
 10
-393.683876784009
 20
-50.9704742431641
 30
0.0
 11
-393.683876936666
 21
-51.9709280507666
 31
0.0
  0
LINE
  5
   421
  8
0
  6
CONTINUOUS
 62
   130
 10
-391.330936804307
 20
-50.9704742431641
 30
0.0
 11
-391.330936956964
 21
-51.9709284097966
 31
0.0
  0
LINE
  5
   422
  8
0
  6
CONTINUOUS
 62
   130
 10
-388.977996824604
 20
-50.9704742431641
 30
0.0
 11
-388.977996977261
 21
-51.9709287688267
 31
0.0
  0
LINE
  5
   423
  8
0
  6
CONTINUOUS
 62
   130
 10
-386.625056844901
 20
-50.9704742431641
 30
0.0
 11
-386.625056997559
 21
-51.9709291278568
 31
0.0
  0
LINE
  5
   424
  8
0
  6
CONTINUOUS
 62
   130
 10
-384.272116865199
 20
-50.9704742431641
 30
0.0
 11
-384.272117017856
 21
-51.9709294868869
 31
0.0
  0
LINE
  5
   425
  8
0
  6
CONTINUOUS
 62
   130
 10
-381.919176885496
 20
-50.9704742431641
 30
0.0
 11
-381.919177038153
 21
-51.9709298459169
 31
0.0
  0
LINE
  5
   426
  8
0
  6
CONTINUOUS
 62
   130
 10
-379.566236905793
 20
-50.9704742431641
 30
0.0
 11
-379.566237058451
 21
-51.970930204947
 31
0.0
  0
LINE
  5
   427
  8
0
  6
CONTINUOUS
 62
   130
 10
-377.213296926091
 20
-50.9704742431641
 30
0.0
 11
-377.213297078748
 21
-51.9709305639771
 31
0.0
  0
LINE
  5
   428
  8
0
  6
CONTINUOUS
 62
   130
 10
-374.860356946388
 20
-50.9704742431641
 30
0.0
 11
-374.860357099045
 21
-51.9709309230071
 31
0.0
  0
LINE
  5
   429
  8
0
  6
CONTINUOUS
 62
   130
 10
-372.507416966685
 20
-50.9704742431641
 30
0.0
 11
-372.507417119343
 21
-51.9709312820372
 31
0.0
  0
LINE
  5
   42A
  8
0
  6
CONTINUOUS
 62
   130
 10
-370.154476986982
 20
-50.9704742431641
 30
0.0
 11
-370.15447713964
 21
-51.9709316410672
 31
0.0
  0
LINE
  5
   42B
  8
0
  6
CONTINUOUS
 62
   130
 10
-367.80153700728
 20
-50.9704742431641
 30
0.0
 11
-367.801537159937
 21
-51.9709320000973
 31
0.0
  0
LINE
  5
   42C
  8
0
  6
CONTINUOUS
 62
   130
 10
-412.507378311228
 20
-50.9704742431641
 30
0.0
 11
-412.507378158571
 21
-51.9709254837018
 31
0.0
  0
LINE
  5
   42D
  8
0
  6
CONTINUOUS
 62
   130
 10
-410.154456641928
 20
-50.9704742431641
 30
0.0
 11
-410.154456794585
 21
-51.9709255375561
 31
0.0
  0
LINE
  5
   42E
  8
0
  6
CONTINUOUS
 62
   130
 10
-407.801516662226
 20
-50.9704742431641
 30
0.0
 11
-407.801516814882
 21
-51.9709258965862
 31
0.0
  0
LINE
  5
   42F
  8
0
  6
CONTINUOUS
 62
   130
 10
-405.448576682523
 20
-50.9704742431641
 30
0.0
 11
-405.44857683518
 21
-51.9709262556162
 31
0.0
  0
LINE
  5
   430
  8
0
  6
CONTINUOUS
 62
   130
 10
-403.09563670282
 20
-50.9704742431641
 30
0.0
 11
-403.095636855477
 21
-51.9709266146463
 31
0.0
  0
LINE
  5
   431
  8
0
  6
CONTINUOUS
 62
   130
 10
-400.742696723117
 20
-50.9704742431641
 30
0.0
 11
-400.742696875774
 21
-51.9709269736764
 31
0.0
  0
LINE
  5
   432
  8
0
  6
CONTINUOUS
 62
   130
 10
-398.389756743415
 20
-50.9704742431641
 30
0.0
 11
-398.389756896072
 21
-51.9709273327064
 31
0.0
  0
LINE
  5
   433
  8
0
  6
CONTINUOUS
 62
   130
 10
-292.507442245417
 20
21.0295257568359
 30
0.0
 11
-292.507453384399
 21
-51.9709254837018
 31
0.0
  0
LINE
  5
   434
  8
0
  6
CONTINUOUS
 62
   130
 10
-412.507389297554
 20
21.0295257568359
 30
0.0
 11
-412.507381973337
 21
-26.9704742431641
 31
0.0
  0
LINE
  5
   435
  8
0
  6
CONTINUOUS
 62
   130
 10
-382.507385975665
 20
21.0295257568359
 30
0.0
 11
-382.507385975665
 21
-26.9704742431641
 31
0.0
  0
LINE
  5
   436
  8
0
  6
CONTINUOUS
 62
   130
 10
-383.807385975665
 20
21.0295257568359
 30
0.0
 11
-383.807385975665
 21
-26.9704742431641
 31
0.0
  0
LINE
  5
   437
  8
0
  6
CONTINUOUS
 62
   130
 10
-384.307385975665
 20
21.0295257568359
 30
0.0
 11
-384.307385975665
 21
-26.9704742431641
 31
0.0
  0
LINE
  5
   438
  8
0
  6
CONTINUOUS
 62
   130
 10
-385.607385975665
 20
21.0295257568359
 30
0.0
 11
-385.607385975665
 21
-26.9704742431641
 31
0.0
  0
LINE
  5
   439
  8
0
  6
CONTINUOUS
 62
   130
 10
-387.407385975665
 20
21.0295257568359
 30
0.0
 11
-387.407385975665
 21
-26.9704742431641
 31
0.0
  0
LINE
  5
   43A
  8
0
  6
CONTINUOUS
 62
   130
 10
-385.607385975665
 20
21.0295257568359
 30
0.0
 11
-385.607385975665
 21
-26.9704742431641
 31
0.0
  0
LINE
  5
   43B
  8
0
  6
CONTINUOUS
 62
   130
 10
-386.107385975665
 20
21.0295257568359
 30
0.0
 11
-386.107385975665
 21
-26.9704742431641
 31
0.0
  0
LINE
  5
   43C
  8
0
  6
CONTINUOUS
 62
   130
 10
-387.407385975665
 20
21.0295257568359
 30
0.0
 11
-387.407385975665
 21
-26.9704742431641
 31
0.0
  0
LINE
  5
   43D
  8
0
  6
CONTINUOUS
 62
   130
 10
-387.907385975665
 20
21.0295257568359
 30
0.0
 11
-387.907385975665
 21
-26.9704742431641
 31
0.0
  0
LINE
  5
   43E
  8
0
  6
CONTINUOUS
 62
   130
 10
-389.207385975665
 20
21.0295257568359
 30
0.0
 11
-389.207385975665
 21
-26.9704742431641
 31
0.0
  0
LINE
  5
   43F
  8
0
  6
CONTINUOUS
 62
   130
 10
-389.707385975665
 20
21.0295257568359
 30
0.0
 11
-389.707385975665
 21
-26.9704742431641
 31
0.0
  0
LINE
  5
   440
  8
0
  6
CONTINUOUS
 62
   130
 10
-391.007385975665
 20
21.0295257568359
 30
0.0
 11
-391.007385975665
 21
-26.9704742431641
 31
0.0
  0
LINE
  5
   441
  8
0
  6
CONTINUOUS
 62
   130
 10
-391.507385975665
 20
21.0295257568359
 30
0.0
 11
-391.507385975665
 21
-26.9704742431641
 31
0.0
  0
LINE
  5
   442
  8
0
  6
CONTINUOUS
 62
   130
 10
-392.807385975665
 20
21.0295257568359
 30
0.0
 11
-392.807385975665
 21
-26.9704742431641
 31
0.0
  0
LINE
  5
   443
  8
0
  6
CONTINUOUS
 62
   130
 10
-393.307385975665
 20
21.0295257568359
 30
0.0
 11
-393.307385975665
 21
-26.9704742431641
 31
0.0
  0
LINE
  5
   444
  8
0
  6
CONTINUOUS
 62
   130
 10
-394.607385975665
 20
21.0295257568359
 30
0.0
 11
-394.607385975665
 21
-26.9704742431641
 31
0.0
  0
LINE
  5
   445
  8
0
  6
CONTINUOUS
 62
   130
 10
-395.107385975665
 20
21.0295257568359
 30
0.0
 11
-395.107385975665
 21
-26.9704742431641
 31
0.0
  0
LINE
  5
   446
  8
0
  6
CONTINUOUS
 62
   130
 10
-396.407385975665
 20
21.0295257568359
 30
0.0
 11
-396.407385975665
 21
-26.9704742431641
 31
0.0
  0
LINE
  5
   447
  8
0
  6
CONTINUOUS
 62
   130
 10
-396.907385975665
 20
21.0295257568359
 30
0.0
 11
-396.907385975665
 21
-26.9704742431641
 31
0.0
  0
LINE
  5
   448
  8
0
  6
CONTINUOUS
 62
   130
 10
-398.207385975665
 20
21.0295257568359
 30
0.0
 11
-398.207385975665
 21
-26.9704742431641
 31
0.0
  0
LINE
  5
   449
  8
0
  6
CONTINUOUS
 62
   130
 10
-398.207385975665
 20
21.0295257568359
 30
0.0
 11
-398.207385975665
 21
-26.9704742431641
 31
0.0
  0
LINE
  5
   44A
  8
0
  6
CONTINUOUS
 62
   130
 10
-398.707385975665
 20
21.0295257568359
 30
0.0
 11
-398.707385975665
 21
-26.9704742431641
 31
0.0
  0
LINE
  5
   44B
  8
0
  6
CONTINUOUS
 62
   130
 10
-400.007385975665
 20
21.0295257568359
 30
0.0
 11
-400.007385975665
 21
-26.9704742431641
 31
0.0
  0
LINE
  5
   44C
  8
0
  6
CONTINUOUS
 62
   130
 10
-400.507385975665
 20
21.0295257568359
 30
0.0
 11
-400.507385975665
 21
-26.9704742431641
 31
0.0
  0
LINE
  5
   44D
  8
0
  6
CONTINUOUS
 62
   130
 10
-401.807385975665
 20
21.0295257568359
 30
0.0
 11
-401.807385975665
 21
-26.9704742431641
 31
0.0
  0
LINE
  5
   44E
  8
0
  6
CONTINUOUS
 62
   130
 10
-402.307385975665
 20
21.0295257568359
 30
0.0
 11
-402.307385975665
 21
-26.9704742431641
 31
0.0
  0
LINE
  5
   44F
  8
0
  6
CONTINUOUS
 62
   130
 10
-403.607385975665
 20
21.0295257568359
 30
0.0
 11
-403.607385975665
 21
-26.9704742431641
 31
0.0
  0
LINE
  5
   450
  8
0
  6
CONTINUOUS
 62
   130
 10
-404.107385975665
 20
21.0295257568359
 30
0.0
 11
-404.107385975665
 21
-26.9704742431641
 31
0.0
  0
LINE
  5
   451
  8
0
  6
CONTINUOUS
 62
   130
 10
-405.407385975665
 20
21.0295257568359
 30
0.0
 11
-405.407385975665
 21
-26.9704742431641
 31
0.0
  0
LINE
  5
   452
  8
0
  6
CONTINUOUS
 62
   130
 10
-405.907385975665
 20
21.0295257568359
 30
0.0
 11
-405.907385975665
 21
-26.9704742431641
 31
0.0
  0
LINE
  5
   453
  8
0
  6
CONTINUOUS
 62
   130
 10
-407.207385975665
 20
21.0295257568359
 30
0.0
 11
-407.207385975665
 21
-26.9704742431641
 31
0.0
  0
LINE
  5
   454
  8
0
  6
CONTINUOUS
 62
   130
 10
-407.707385975665
 20
21.0295257568359
 30
0.0
 11
-407.707385975665
 21
-26.9704742431641
 31
0.0
  0
LINE
  5
   455
  8
0
  6
CONTINUOUS
 62
   130
 10
-409.007385975665
 20
21.0295257568359
 30
0.0
 11
-409.007385975665
 21
-26.9704742431641
 31
0.0
  0
LINE
  5
   456
  8
0
  6
CONTINUOUS
 62
   130
 10
-409.507385975665
 20
21.0295257568359
 30
0.0
 11
-409.507385975665
 21
-26.9704742431641
 31
0.0
  0
LINE
  5
   457
  8
0
  6
CONTINUOUS
 62
   130
 10
-410.807385975665
 20
21.0295257568359
 30
0.0
 11
-410.807385975665
 21
-26.9704742431641
 31
0.0
  0
LINE
  5
   458
  8
0
  6
CONTINUOUS
 62
   130
 10
-411.307385975665
 20
21.0295257568359
 30
0.0
 11
-411.307385975665
 21
-26.9704742431641
 31
0.0
  0
INSERT
  5
   459
  8
0
  6
CONTINUOUS
 62
     3
  2
*UDIM779
 10
0.0
 20
0.0
 30
0.0
  0
INSERT
  5
   45A
  8
0
  6
CONTINUOUS
 62
     3
  2
*UDIM780
 10
0.0
 20
0.0
 30
0.0
  0
INSERT
  5
   45B
  8
0
  6
CONTINUOUS
 62
     3
  2
*UDIM781
 10
0.0
 20
0.0
 30
0.0
  0
INSERT
  5
   45C
  8
0
  6
CONTINUOUS
 62
     3
  2
*UDIM782
 10
0.0
 20
0.0
 30
0.0
  0
INSERT
  5
   45D
  8
0
  6
CONTINUOUS
 62
     3
  2
*UDIM783
 10
0.0
 20
0.0
 30
0.0
  0
LINE
  5
   45E
  8
0
  6
DOT
 62
   130
 10
-398.007385975665
 20
70.4785491528814
 30
0.0
 11
-398.007385975665
 21
65.579569667315
 31
0.0
  0
LINE
  5
   45F
  8
0
  6
DOT
 62
   130
 10
-397.007385975665
 20
70.4785491528814
 30
0.0
 11
-397.007385975665
 21
65.579569667315
 31
0.0
  0
CIRCLE
  5
   460
  8
0
  6
CONTINUOUS
 62
   130
 10
-397.507385975665
 20
68.0290594100982
 30
0.0
 40
2.5
  0
LINE
  5
   461
  8
0
  6
CONTINUOUS
 62
   130
 10
-399.956875718448
 20
68.5290594100982
 30
0.0
 11
-395.057896232882
 21
68.5290594100982
 31
0.0
  0
LINE
  5
   462
  8
0
  6
CONTINUOUS
 62
   130
 10
-399.956875718448
 20
67.5290594100982
 30
0.0
 11
-395.057896232882
 21
67.5290594100982
 31
0.0
  0
ARC
  5
   463
  8
0
  6
CONTINUOUS
 62
   130
 10
-397.507385975665
 20
-49.9709253311139
 30
0.0
 40
2.5
 50
563.566898933877
 51
696.43310075433
  0
LINE
  5
   464
  8
0
  6
DOT
 62
   130
 10
-398.007385975665
 20
-50.9704742431641
 30
0.0
 11
-398.007385975665
 21
-52.4204150738971
 31
0.0
  0
LINE
  5
   465
  8
0
  6
DOT
 62
   130
 10
-397.007385975665
 20
-50.9704742431641
 30
0.0
 11
-397.007385975665
 21
-52.4204150738971
 31
0.0
  0
INSERT
  5
   466
  8
0
  6
CONTINUOUS
 62
     7
  2
*UDIM784
 10
0.0
 20
0.0
 30
0.0
  0
INSERT
  5
   467
  8
0
  6
CONTINUOUS
 62
     7
  2
*UDIM785
 10
0.0
 20
0.0
 30
0.0
  0
INSERT
  5
   468
  8
0
  6
CONTINUOUS
 62
     7
  2
*UDIM786
 10
0.0
 20
0.0
 30
0.0
  0
LINE
  5
   469
  8
0
  6
CONTINUOUS
 62
   130
 10
-351.157385915518
 20
-90.7683788041853
 30
0.0
 11
-351.157385915518
 21
-144.419875295493
 31
0.0
  0
LINE
  5
   46A
  8
0
  6
CONTINUOUS
 62
   130
 10
-323.85739172101
 20
-90.7683788041853
 30
0.0
 11
-323.85739172101
 21
-144.419875295493
 31
0.0
  0
CIRCLE
  5
   46B
  8
0
  6
CONTINUOUS
 62
   130
 10
-345.00738607347
 20
-92.6233242064714
 30
0.0
 40
0.559999990463257
  0
CIRCLE
  5
   46C
  8
0
  6
CONTINUOUS
 62
   130
 10
-330.007386222482
 20
-142.623312929273
 30
0.0
 40
0.559999990463257
  0
ARC
  5
   46D
  8
0
  6
CONTINUOUS
 62
   130
 10
-345.00738607347
 20
-92.6233242064714
 30
0.0
 40
0.699999988079071
 50
540.290583474834
 51
809.999999844103
  0
CIRCLE
  5
   46E
  8
0
  6
CONTINUOUS
 62
   130
 10
-330.007386222482
 20
-142.623312929273
 30
0.0
 40
0.55514766872928
  0
ARC
  5
   46F
  8
0
  6
CONTINUOUS
 62
   130
 10
-330.007386222482
 20
-142.623312929273
 30
0.0
 40
0.699999988079071
 50
449.999999844103
 51
719.712644462792
  0
LINE
  5
   470
  8
0
  6
DASHDOT
 62
   130
 10
-345.00738607347
 20
-88.423324277997
 30
0.0
 11
-345.00738607347
 21
-96.8233241349458
 31
0.0
  0
LINE
  5
   471
  8
0
  6
DASHDOT
 62
   130
 10
-349.207386001945
 20
-92.6233242064714
 30
0.0
 11
-340.807386144996
 21
-92.6233242064714
 31
0.0
  0
LINE
  5
   472
  8
0
  6
CONTINUOUS
 62
   130
 10
-330.007386222482
 20
-138.423313000798
 30
0.0
 11
-330.007386222482
 21
-146.823312857747
 31
0.0
  0
LINE
  5
   473
  8
0
  6
DASHDOT
 62
   130
 10
-337.332386150956
 20
-142.623312929273
 30
0.0
 11
-328.932386294007
 21
-142.623312929273
 31
0.0
  0
LINE
  5
   474
  8
0
  6
DASHDOT
 62
   130
 10
-337.507391488552
 20
-85.7461937911613
 30
0.0
 11
-337.507391488552
 21
-147.545784244827
 31
0.0
  0
LINE
  5
   475
  8
0
  6
CONTINUOUS
 62
   130
 10
-351.157385915518
 20
-90.7683788041853
 30
0.0
 11
-323.85739172101
 21
-90.7683788041853
 31
0.0
  0
LINE
  5
   476
  8
0
  6
CONTINUOUS
 62
   130
 10
-351.157385915518
 20
-144.419875295493
 30
0.0
 11
-323.85739172101
 21
-144.419875295493
 31
0.0
  0
LINE
  5
   477
  8
0
  6
DASHDOT
 62
   130
 10
-355.906710804479
 20
-123.623324206471
 30
0.0
 11
-318.646540970518
 21
-123.623324206471
 31
0.0
  0
INSERT
  5
   478
  8
0
  6
CONTINUOUS
 62
     3
  2
*UDIM787
 10
0.0
 20
0.0
 30
0.0
  0
TEXT
  5
   479
  8
0
  6
CONTINUOUS
 62
     2
 10
-379.974196626881
 20
-125.147006674923
 30
0.0
 40
3.00000002980232
  1
X
 50
359.999999844103
 41
0.916666674282816
 72
     2
 11
-377.774196545321
 21
-123.647006665997
 31
0.0
 73
     2
  0
TEXT
  5
   47A
  8
0
  6
CONTINUOUS
 62
     2
 10
-338.304330487153
 20
-84.8249073147701
 30
0.0
 40
3.00000002980232
  1
Y
 50
359.999999844103
 41
0.916666674282816
 72
     1
 11
-337.204330444336
 21
-83.3249073028565
 31
0.0
 73
     2
  0
TEXT
  5
   47B
  8
0
  6
CONTINUOUS
 62
     2
 10
-316.970825199386
 20
-125.277077078413
 30
0.0
 40
3.00000002980232
  1
X
 50
359.999999844103
 41
0.916666674282816
 11
-316.970825195313
 21
-123.777077063512
 31
0.0
 73
     2
  0
TEXT
  5
   47C
  8
0
  6
CONTINUOUS
 62
     2
 10
-338.624933246872
 20
-150.267303824019
 30
0.0
 40
3.00000002980232
  1
Y
 50
359.999999844103
 41
0.916666674282816
 11
-338.624933242798
 21
-148.767303809118
 31
0.0
 73
     2
  0
INSERT
  5
   47D
  8
0
  6
CONTINUOUS
 62
     3
  2
*UDIM788
 10
0.0
 20
0.0
 30
0.0
  0
INSERT
  5
   47E
  8
0
  6
CONTINUOUS
 62
     3
  2
*UDIM789
 10
0.0
 20
0.0
 30
0.0
  0
INSERT
  5
   47F
  8
0
  6
CONTINUOUS
 62
     3
  2
*UDIM790
 10
0.0
 20
0.0
 30
0.0
  0
LINE
  5
   480
  8
0
  6
DOT
 62
   130
 10
-212.278137779236
 20
63.0290627243244
 30
0.0
 11
-212.778137779236
 21
62.5290627243244
 31
0.0
  0
LINE
  5
   481
  8
0
  6
DOT
 62
   130
 10
-212.778137779236
 20
57.5290627243244
 30
0.0
 11
-212.278137779236
 21
57.0290627243244
 31
0.0
  0
LINE
  5
   482
  8
0
  6
DOT
 62
   130
 10
-212.278137779236
 20
63.0290627243244
 30
0.0
 11
-212.278137779236
 21
57.0290627243244
 31
0.0
  0
LINE
  5
   483
  8
0
  6
DOT
 62
   130
 10
-198.278137779236
 20
63.0290627243244
 30
0.0
 11
-198.278137779236
 21
57.0290627243244
 31
0.0
  0
LINE
  5
   484
  8
0
  6
DOT
 62
   130
 10
-192.778137779236
 20
65.5708337924099
 30
0.0
 11
-192.778137779236
 21
54.487291656239
 31
0.0
  0
LINE
  5
   485
  8
0
  6
DOT
 62
   130
 10
-212.278137779236
 20
57.0290627243244
 30
0.0
 11
-195.778137779236
 21
57.0290627243244
 31
0.0
  0
LINE
  5
   486
  8
0
  6
DOT
 62
   130
 10
-212.278137779236
 20
63.0290627243244
 30
0.0
 11
-195.778137779236
 21
63.0290627243244
 31
0.0
  0
ARC
  5
   487
  8
0
  6
DOT
 62
   130
 10
-203.178137779236
 20
60.0290627243244
 30
0.0
 40
12.0
 50
332.615940118948
 51
358.089786672393
  0
LINE
  5
   488
  8
0
  6
DOT
 62
   130
 10
-192.522817182196
 20
54.5096295129989
 30
0.0
 11
-195.778137779236
 21
54.2248233279621
 31
0.0
  0
LINE
  5
   489
  8
0
  6
DOT
 62
   130
 10
-195.778137779236
 20
65.8333021206868
 30
0.0
 11
-192.522817182195
 21
65.5484959356499
 31
0.0
  0
LINE
  5
   48A
  8
0
  6
DOT
 62
   130
 10
-195.778137779236
 20
65.8333021206867
 30
0.0
 11
-195.778137779236
 21
54.2248233279621
 31
0.0
  0
LINE
  5
   48B
  8
0
  6
DOT
 62
   130
 10
-212.778125572203
 20
57.6424927243244
 30
0.0
 11
-198.278137779236
 21
57.6424927243244
 31
0.0
  0
LINE
  5
   48C
  8
0
  6
DOT
 62
   130
 10
-212.778125572203
 20
62.4156327243244
 30
0.0
 11
-198.278137779236
 21
62.4156327243244
 31
0.0
  0
LINE
  5
   48D
  8
0
  6
DOT
 62
   130
 10
-191.978137779236
 20
60.4290627243244
 30
0.0
 11
-191.978137779236
 21
59.6290627243244
 31
0.0
  0
LINE
  5
   48E
  8
0
  6
DOT
 62
   130
 10
-191.978137779236
 20
59.6290627243244
 30
0.0
 11
-191.184806298784
 21
59.6290627243244
 31
0.0
  0
LINE
  5
   48F
  8
0
  6
DOT
 62
   130
 10
-191.978137779236
 20
60.4290627243244
 30
0.0
 11
-191.184806298784
 21
60.4290627243244
 31
0.0
  0
ARC
  5
   490
  8
0
  6
DOT
 62
   130
 10
-203.178137779236
 20
60.0290627243244
 30
0.0
 40
12.0
 50
361.910213015813
 51
387.384059569259
  0
LINE
  5
   491
  8
0
  6
DOT
 62
   130
 10
-229.278137779236
 20
54.0290594100881
 30
0.0
 11
-215.778137183189
 21
54.0290594100881
 31
0.0
  0
LINE
  5
   492
  8
0
  6
CONTINUOUS
 62
   130
 10
-242.778123410543
 20
47.5290746688843
 30
0.0
 11
-240.278123410543
 21
45.0290746688843
 31
0.0
  0
LINE
  5
   493
  8
0
  6
CONTINUOUS
 62
   130
 10
-242.778123410543
 20
71.0290746688843
 30
0.0
 11
-242.778123410543
 21
47.5290746688843
 31
0.0
  0
LINE
  5
   494
  8
0
  6
CONTINUOUS
 62
   130
 10
-215.262962341309
 20
-35.4709100723267
 30
0.0
 11
-215.262962341309
 21
-46.9450441237391
 31
0.0
  0
LINE
  5
   495
  8
0
  6
CONTINUOUS
 62
   130
 10
-213.262962341309
 20
-35.4709100723267
 30
0.0
 11
-213.262962341309
 21
-47.9709253311157
 31
0.0
  0
LINE
  5
   496
  8
0
  6
CONTINUOUS
 62
   130
 10
-215.262962341309
 20
-46.9450441237391
 30
0.0
 11
-213.262962341309
 21
-46.9450441237391
 31
0.0
  0
LINE
  5
   497
  8
0
  6
DASHDOT
 62
   130
 10
-219.308384322269
 20
60.0290627243244
 30
0.0
 11
-194.277372845136
 21
60.0290627243244
 31
0.0
  0
LINE
  5
   498
  8
0
  6
DASHDOT
 62
   130
 10
-216.92296028298
 20
-41.9709100723149
 30
0.0
 11
-200.092929197026
 21
-41.9709100723149
 31
0.0
  0
LINE
  5
   499
  8
0
  6
CONTINUOUS
 62
   130
 10
-167.778136968613
 20
-8.69056581675995
 30
0.0
 11
-150.582502572898
 21
-13.8867937546614
 31
0.0
  0
LINE
  5
   49A
  8
0
  6
CONTINUOUS
 62
   130
 10
-150.582448442449
 20
-13.8868099947183
 30
0.0
 11
-150.368275258429
 21
-14.0172138438931
 31
0.0
  0
LINE
  5
   49B
  8
0
  6
CONTINUOUS
 62
   130
 10
-150.368313372756
 20
-14.0171998016689
 30
0.0
 11
-150.244375251121
 21
-14.2351855606598
 31
0.0
  0
LINE
  5
   49C
  8
0
  6
CONTINUOUS
 62
   130
 10
-150.244354620915
 20
-14.2351981855585
 30
0.0
 11
-150.241829024483
 21
-14.4859385658432
 31
0.0
  0
LINE
  5
   49D
  8
0
  6
CONTINUOUS
 62
   130
 10
-150.241838285517
 20
-14.4859301923918
 30
0.0
 11
-150.970761427774
 21
-17.4211971065235
 31
0.0
  0
LINE
  5
   49E
  8
0
  6
CONTINUOUS
 62
   130
 10
-150.97075526459
 20
-17.4211922697141
 30
0.0
 11
-151.096018719253
 21
-17.6476789430076
 31
0.0
  0
LINE
  5
   49F
  8
0
  6
CONTINUOUS
 62
   130
 10
-151.096012309011
 20
-17.6476868291552
 30
0.0
 11
-151.317739041248
 21
-17.7811971528773
 31
0.0
  0
LINE
  5
   4A0
  8
0
  6
CONTINUOUS
 62
   130
 10
-151.317715875158
 20
-17.7811971681654
 30
0.0
 11
-151.576491173831
 21
-17.7859579718917
 31
0.0
  0
LINE
  5
   4A1
  8
0
  6
CONTINUOUS
 62
   130
 10
-167.778136968613
 20
-13.7626494599072
 30
0.0
 11
-151.576516796881
 21
-17.7859568813919
 31
0.0
  0
LINE
  5
   4A2
  8
0
  6
DOT
 62
   130
 10
-208.778137779236
 20
66.0290627243244
 30
0.0
 11
-208.778137779236
 21
63.0290627243244
 31
0.0
  0
LINE
  5
   4A3
  8
0
  6
DOT
 62
   130
 10
-227.278137779236
 20
66.0290627243244
 30
0.0
 11
-227.278137779236
 21
54.0290627243244
 31
0.0
  0
LINE
  5
   4A4
  8
0
  6
DOT
 62
   130
 10
-229.278137779236
 20
66.0290627243244
 30
0.0
 11
-229.278137779236
 21
54.0290627243244
 31
0.0
  0
LINE
  5
   4A5
  8
0
  6
DOT
 62
   130
 10
-229.278137779236
 20
66.0290627243244
 30
0.0
 11
-208.778137779236
 21
66.0290627243244
 31
0.0
  0
LINE
  5
   4A6
  8
0
  6
DOT
 62
   130
 10
-212.778137779236
 20
54.0290627243244
 30
0.0
 11
-208.778137779236
 21
54.0290627243244
 31
0.0
  0
LINE
  5
   4A7
  8
0
  6
DOT
 62
   130
 10
-208.778137779236
 20
57.0290627243244
 30
0.0
 11
-208.778137779236
 21
54.0290627243244
 31
0.0
  0
LINE
  5
   4A8
  8
0
  6
CONTINUOUS
 62
   130
 10
-209.262962341309
 20
-35.9709253311157
 30
0.0
 11
-209.262962341309
 21
-38.9709133865559
 31
0.0
  0
LINE
  5
   4A9
  8
0
  6
CONTINUOUS
 62
   130
 10
-227.762962341309
 20
-35.9709253311157
 30
0.0
 11
-227.762962341309
 21
-47.9709253311157
 31
0.0
  0
LINE
  5
   4AA
  8
0
  6
CONTINUOUS
 62
   130
 10
-229.762962341309
 20
-35.9709253311157
 30
0.0
 11
-229.762962341309
 21
-47.9709253311157
 31
0.0
  0
LINE
  5
   4AB
  8
0
  6
CONTINUOUS
 62
   130
 10
-229.762962341309
 20
-35.9709253311157
 30
0.0
 11
-215.262962341309
 21
-35.9709253311157
 31
0.0
  0
LINE
  5
   4AC
  8
0
  6
CONTINUOUS
 62
   130
 10
-229.762962341309
 20
-47.9709253311157
 30
0.0
 11
-209.262962341309
 21
-47.9709253311157
 31
0.0
  0
LINE
  5
   4AD
  8
0
  6
CONTINUOUS
 62
   130
 10
-197.278143230254
 20
67.0290746688843
 30
0.0
 11
-197.278143230254
 21
-48.9709253311157
 31
0.0
  0
LINE
  5
   4AE
  8
0
  6
CONTINUOUS
 62
   130
 10
-213.262962341309
 20
-35.9709253311157
 30
0.0
 11
-209.262962341309
 21
-35.9709253311157
 31
0.0
  0
LINE
  5
   4AF
  8
0
  6
CONTINUOUS
 62
   130
 10
-240.278123410543
 20
45.0290746688843
 30
0.0
 11
-240.278123410543
 21
-7.67092533111573
 31
0.0
  0
LINE
  5
   4B0
  8
0
  6
CONTINUOUS
 62
   130
 10
-240.278123410543
 20
-7.67092533111573
 30
0.0
 11
-242.778123410543
 21
-10.1709253311157
 31
0.0
  0
LINE
  5
   4B1
  8
0
  6
CONTINUOUS
 62
   130
 10
-242.778123410543
 20
-10.1709253311157
 30
0.0
 11
-242.778123410543
 21
-52.9709253311157
 31
0.0
  0
INSERT
  5
   4B2
  8
0
  6
CONTINUOUS
 62
     3
  2
*HATCH361
 10
-119.530731201172
 20
-5.47092533111572
 30
0.0
 50
269.999999844103
  0
LINE
  5
   4B3
  8
0
  6
DOT
 62
   130
 10
-215.778124976157
 20
65.2790580246312
 30
0.0
 11
-215.778124976157
 21
53.5790670394897
 31
0.0
  0
LINE
  5
   4B4
  8
0
  6
DOT
 62
   130
 10
-212.778125572203
 20
65.2790517807007
 30
0.0
 11
-212.778125572203
 21
53.0790670394897
 31
0.0
  0
LINE
  5
   4B5
  8
0
  6
DOT
 62
   130
 10
-215.778124975397
 20
65.2790649604478
 30
0.0
 11
-212.778125571629
 21
65.2790441530021
 31
0.0
  0
LINE
  5
   4B6
  8
0
  6
CONTINUOUS
 62
   130
 10
-243.978138923645
 20
52.5290633441182
 30
0.0
 11
-242.778123855591
 21
52.5290633441182
 31
0.0
  0
LINE
  5
   4B7
  8
0
  6
CONTINUOUS
 62
   130
 10
-243.978138923645
 20
64.0290633441182
 30
0.0
 11
-242.778123855591
 21
64.0290633441182
 31
0.0
  0
LINE
  5
   4B8
  8
0
  6
CONTINUOUS
 62
   130
 10
-243.978138923645
 20
-47.97092521179
 30
0.0
 11
-242.778123855591
 21
-47.97092521179
 31
0.0
  0
LINE
  5
   4B9
  8
0
  6
DOT
 62
   130
 10
-243.046073079109
 20
20.5290633441182
 30
0.0
 11
-242.778123855591
 21
20.5290633441182
 31
0.0
  0
LINE
  5
   4BA
  8
0
  6
CONTINUOUS
 62
   130
 10
-243.978138923645
 20
64.0290633441182
 30
0.0
 11
-243.978138923645
 21
42.2289854690195
 31
0.0
  0
LINE
  5
   4BB
  8
0
  6
CONTINUOUS
 62
   130
 10
-243.978138923645
 20
-27.4709061383037
 30
0.0
 11
-243.978138923645
 21
-47.9709213970928
 31
0.0
  0
LINE
  5
   4BC
  8
0
  6
CONTINUOUS
 62
   130
 10
-242.778123855591
 20
64.0290595294209
 30
0.0
 11
-242.778123855591
 21
-47.97092521179
 31
0.0
  0
LINE
  5
   4BD
  8
0
  6
CONTINUOUS
 62
   130
 10
-245.178154563904
 20
41.2290450335713
 30
0.0
 11
-244.978138923645
 21
41.2290450335713
 31
0.0
  0
LINE
  5
   4BE
  8
0
  6
CONTINUOUS
 62
   130
 10
-245.178154563904
 20
40.0290633441182
 30
0.0
 11
-244.97813911438
 21
40.0290633441182
 31
0.0
  0
LINE
  5
   4BF
  8
0
  6
CONTINUOUS
 62
   130
 10
-250.778138160706
 20
41.2290450335713
 30
0.0
 11
-250.778138160706
 21
40.0290633441182
 31
0.0
  0
LINE
  5
   4C0
  8
0
  6
CONTINUOUS
 62
   130
 10
-250.778138160706
 20
20.0290633441182
 30
0.0
 11
-250.778138160706
 21
18.829066395876
 31
0.0
  0
LINE
  5
   4C1
  8
0
  6
CONTINUOUS
 62
   130
 10
-250.778138160706
 20
-18.9709366558818
 30
0.0
 11
-250.778138160706
 21
-23.9709366558818
 31
0.0
  0
LINE
  5
   4C2
  8
0
  6
CONTINUOUS
 62
   130
 10
-250.778138160706
 20
-18.9709366558818
 30
0.0
 11
-247.447996139526
 21
-18.9709366558818
 31
0.0
  0
LINE
  5
   4C3
  8
0
  6
CONTINUOUS
 62
   130
 10
-247.448025581637
 20
-18.9709389382553
 30
0.0
 11
-246.778153043892
 21
-21.4709364198252
 31
0.0
  0
LINE
  5
   4C4
  8
0
  6
CONTINUOUS
 62
   130
 10
-246.778138160706
 20
-21.4709366558818
 30
0.0
 11
-245.778138160706
 21
-21.4709366558818
 31
0.0
  0
LINE
  5
   4C5
  8
0
  6
CONTINUOUS
 62
   130
 10
-245.778138160706
 20
14.0290633441182
 30
0.0
 11
-245.778138160706
 21
-21.4709366558818
 31
0.0
  0
LINE
  5
   4C6
  8
0
  6
CONTINUOUS
 62
   130
 10
-246.778138160706
 20
14.0290633441182
 30
0.0
 11
-245.778138160706
 21
14.0290633441182
 31
0.0
  0
LINE
  5
   4C7
  8
0
  6
CONTINUOUS
 62
   130
 10
-250.778153757099
 20
15.1008797743452
 30
0.0
 11
-247.787522320304
 21
14.2995343561059
 31
0.0
  0
LINE
  5
   4C8
  8
0
  6
CONTINUOUS
 62
   130
 10
-250.778138160706
 20
17.0290633441182
 30
0.0
 11
-250.778138160706
 21
15.1008712054463
 31
0.0
  0
LINE
  5
   4C9
  8
0
  6
DOT
 62
   130
 10
-243.978138923645
 20
20.5290633441182
 30
0.0
 11
-243.046073019505
 21
20.5290633441182
 31
0.0
  0
LINE
  5
   4CA
  8
0
  6
CONTINUOUS
 62
   130
 10
-247.278123855591
 20
-27.4709261654643
 30
0.0
 11
-242.778123855591
 21
-27.4709261654643
 31
0.0
  0
LINE
  5
   4CB
  8
0
  6
CONTINUOUS
 62
   130
 10
-246.378108596802
 20
68.5290633441182
 30
0.0
 11
-245.178154563904
 21
68.5290633441182
 31
0.0
  0
LINE
  5
   4CC
  8
0
  6
CONTINUOUS
 62
   130
 10
-245.178154563904
 20
14.0290480853291
 30
0.0
 11
-245.178154563904
 21
13.2075301409932
 31
0.0
  0
LINE
  5
   4CD
  8
0
  6
CONTINUOUS
 62
   130
 10
-245.178154563904
 20
40.0290328265401
 30
0.0
 11
-245.178154563904
 21
14.0290633441182
 31
0.0
  0
LINE
  5
   4CE
  8
0
  6
CONTINUOUS
 62
   130
 10
-245.178154563904
 20
68.5290633441182
 30
0.0
 11
-245.178154563904
 21
40.0290633441182
 31
0.0
  0
LINE
  5
   4CF
  8
0
  6
CONTINUOUS
 62
   130
 10
-245.178085101766
 20
13.2075305107266
 30
0.0
 11
-247.338855205219
 21
9.46496031504298
 31
0.0
  0
LINE
  5
   4D0
  8
0
  6
CONTINUOUS
 62
   130
 10
-248.378125760621
 20
10.0649414163807
 30
0.0
 11
-247.338934851228
 21
9.46495812982548
 31
0.0
  0
LINE
  5
   4D1
  8
0
  6
CONTINUOUS
 62
   130
 10
-246.378138524246
 20
13.5290485165036
 30
0.0
 11
-248.378138473938
 21
10.0649526107117
 31
0.0
  0
LINE
  5
   4D2
  8
0
  6
CONTINUOUS
 62
   130
 10
-246.378108596802
 20
68.5290633441182
 30
0.0
 11
-246.378108596802
 21
40.0290633441182
 31
0.0
  0
LINE
  5
   4D3
  8
0
  6
CONTINUOUS
 62
   130
 10
-246.378108596802
 20
40.0290633441182
 30
0.0
 11
-246.378108596802
 21
23.6001311559837
 31
0.0
  0
LINE
  5
   4D4
  8
0
  6
CONTINUOUS
 62
   130
 10
-246.378108596802
 20
14.3238478900166
 30
0.0
 11
-246.378108596802
 21
13.5290633441182
 31
0.0
  0
LINE
  5
   4D5
  8
0
  6
CONTINUOUS
 62
   130
 10
-245.178153991699
 20
-44.47092521179
 30
0.0
 11
-244.978138923645
 21
-44.47092521179
 31
0.0
  0
LINE
  5
   4D6
  8
0
  6
CONTINUOUS
 62
   130
 10
-245.178153991699
 20
-39.4709261654643
 30
0.0
 11
-244.978138923645
 21
-39.4709261654643
 31
0.0
  0
ARC
  5
   4D7
  8
0
  6
CONTINUOUS
 62
   130
 10
-247.278187072877
 20
17.0290710278667
 30
0.0
 40
3.49996037873244
 50
509.049876306511
 51
539.99994520259
  0
LINE
  5
   4D8
  8
0
  6
CONTINUOUS
 62
   130
 10
-246.47813911438
 20
41.2290450335713
 30
0.0
 11
-246.47813911438
 21
40.0290633441182
 31
0.0
  0
LINE
  5
   4D9
  8
0
  6
CONTINUOUS
 62
   130
 10
-246.47813911438
 20
20.0290633441182
 30
0.0
 11
-246.47813911438
 21
18.829066395876
 31
0.0
  0
LINE
  5
   4DA
  8
0
  6
CONTINUOUS
 62
   130
 10
-245.078124046326
 20
41.2290450335713
 30
0.0
 11
-245.078124046326
 21
40.0290633441182
 31
0.0
  0
LINE
  5
   4DB
  8
0
  6
CONTINUOUS
 62
   130
 10
-245.078124046326
 20
20.0290633441182
 30
0.0
 11
-245.078124046326
 21
18.829066395876
 31
0.0
  0
LINE
  5
   4DC
  8
0
  6
CONTINUOUS
 62
   130
 10
-250.778137207031
 20
41.2290450335713
 30
0.0
 11
-246.47813911438
 21
41.2290450335713
 31
0.0
  0
LINE
  5
   4DD
  8
0
  6
CONTINUOUS
 62
   130
 10
-250.778137207031
 20
40.0290633441182
 30
0.0
 11
-246.47813911438
 21
40.0290633441182
 31
0.0
  0
LINE
  5
   4DE
  8
0
  6
CONTINUOUS
 62
   130
 10
-250.778138160706
 20
20.0290633441182
 30
0.0
 11
-246.47813911438
 21
20.0290633441182
 31
0.0
  0
LINE
  5
   4DF
  8
0
  6
CONTINUOUS
 62
   130
 10
-250.778138160706
 20
18.829066395876
 30
0.0
 11
-246.47813911438
 21
18.829066395876
 31
0.0
  0
LINE
  5
   4E0
  8
0
  6
CONTINUOUS
 62
   130
 10
-246.388159563216
 20
23.4587033259903
 30
0.0
 11
-246.853865395808
 21
20.1987624978469
 31
0.0
  0
LINE
  5
   4E1
  8
0
  6
CONTINUOUS
 62
   130
 10
-245.188159753951
 20
23.3734206166077
 30
0.0
 11
-245.665926003415
 21
20.0290568703621
 31
0.0
  0
LINE
  5
   4E2
  8
0
  6
CONTINUOUS
 62
   130
 10
-246.853865395808
 20
20.198762497847
 30
0.0
 11
-245.665926003415
 21
20.0290568703622
 31
0.0
  0
ARC
  5
   4E3
  8
0
  6
CONTINUOUS
 62
   130
 10
-247.378108596802
 20
23.6001311559837
 30
0.0
 40
1.0
 50
351.869897489947
 51
359.999999844103
  0
ARC
  5
   4E4
  8
0
  6
CONTINUOUS
 62
   130
 10
-246.178154563904
 20
23.514848446601
 30
0.0
 40
1.0
 50
351.869897489947
 51
359.999999844103
  0
LINE
  5
   4E5
  8
0
  6
CONTINUOUS
 62
   130
 10
-245.178154563904
 20
20.0290633441182
 30
0.0
 11
-244.97813911438
 21
20.0290633441182
 31
0.0
  0
LINE
  5
   4E6
  8
0
  6
CONTINUOUS
 62
   130
 10
-245.178154563904
 20
18.829066395876
 30
0.0
 11
-244.978138923645
 21
18.829066395876
 31
0.0
  0
LINE
  5
   4E7
  8
0
  6
DOT
 62
   130
 10
-246.378108596802
 20
23.6001311559837
 30
0.0
 11
-246.378108596802
 21
20.1308037803271
 31
0.0
  0
LINE
  5
   4E8
  8
0
  6
CONTINUOUS
 62
   130
 10
-246.378108596802
 20
20.1308037803271
 30
0.0
 11
-246.378108596802
 21
14.3238191731308
 31
0.0
  0
LINE
  5
   4E9
  8
0
  6
CONTINUOUS
 62
   130
 10
-246.378108596802
 20
66.5290633441182
 30
0.0
 11
-245.178154563904
 21
66.5290633441182
 31
0.0
  0
LINE
  5
   4EA
  8
0
  6
CONTINUOUS
 62
   130
 10
-246.378108596802
 20
48.5290633441182
 30
0.0
 11
-245.178154563904
 21
48.5290633441182
 31
0.0
  0
LINE
  5
   4EB
  8
0
  6
CONTINUOUS
 62
   130
 10
-246.378108596802
 20
33.0290633441182
 30
0.0
 11
-245.178154563904
 21
33.0290633441182
 31
0.0
  0
LINE
  5
   4EC
  8
0
  6
CONTINUOUS
 62
   130
 10
-246.378108596802
 20
26.0290633441182
 30
0.0
 11
-245.178154563904
 21
26.0290633441182
 31
0.0
  0
LINE
  5
   4ED
  8
0
  6
CONTINUOUS
 62
   130
 10
-246.378108596802
 20
18.529066395876
 30
0.0
 11
-245.178154563904
 21
18.529066395876
 31
0.0
  0
INSERT
  5
   4EE
  8
0
  6
CONTINUOUS
 62
     7
  2
*HATCH362
 10
-119.530731201172
 20
-5.47092533111572
 30
0.0
 50
269.999999844103
  0
INSERT
  5
   4EF
  8
0
  6
CONTINUOUS
 62
     7
  2
*HATCH363
 10
-119.530731201172
 20
-5.47092533111572
 30
0.0
 50
269.999999844103
  0
INSERT
  5
   4F0
  8
0
  6
CONTINUOUS
 62
     7
  2
*HATCH364
 10
-119.530731201172
 20
-5.47092533111572
 30
0.0
 50
269.999999844103
  0
ARC
  5
   4F1
  8
0
  6
CONTINUOUS
 62
   130
 10
-244.978138923645
 20
17.829066395876
 30
0.0
 40
1.0
 50
359.999999844103
 51
449.999999844103
  0
ARC
  5
   4F2
  8
0
  6
CONTINUOUS
 62
   130
 10
-244.97813911438
 20
17.8290633441182
 30
0.0
 40
2.19999904632568
 50
359.999999844103
 51
449.999999844103
  0
LINE
  5
   4F3
  8
0
  6
CONTINUOUS
 62
   130
 10
-245.178154563904
 20
20.5290633441182
 30
0.0
 11
-243.978138923645
 21
20.5290633441182
 31
0.0
  0
ARC
  5
   4F4
  8
0
  6
CONTINUOUS
 62
   130
 10
-247.278187072877
 20
17.0290710278667
 30
0.0
 40
3.49996037873244
 50
467.486019062348
 51
481.001855151888
  0
ARC
  5
   4F5
  8
0
  6
DOT
 62
   130
 10
-247.278187072877
 20
17.0290710278667
 30
0.0
 40
3.49996037873244
 50
481.001855151888
 51
509.049876306511
  0
ARC
  5
   4F6
  8
0
  6
CONTINUOUS
 62
   130
 10
-247.278187072877
 20
17.0290710278667
 30
0.0
 40
3.49996037873244
 50
449.999999844103
 51
467.486019062348
  0
LINE
  5
   4F7
  8
0
  6
CONTINUOUS
 62
   130
 10
-247.278136312962
 20
20.5290633441182
 30
0.0
 11
-246.806695284162
 21
20.5290633441182
 31
0.0
  0
LINE
  5
   4F8
  8
0
  6
CONTINUOUS
 62
   130
 10
-247.787522320304
 20
14.2995343561059
 30
0.0
 11
-246.778152223776
 21
14.0290717065768
 31
0.0
  0
ARC
  5
   4F9
  8
0
  6
CONTINUOUS
 62
   130
 10
-247.278192655915
 20
-23.9709547784032
 30
0.0
 40
3.49994520846391
 50
540.000159625357
 51
630.000829476908
  0
ARC
  5
   4FA
  8
0
  6
CONTINUOUS
 62
   130
 10
-244.97813911438
 20
42.2290480853291
 30
0.0
 40
2.19999904632568
 50
269.999999844103
 51
359.999999844103
  0
LINE
  5
   4FB
  8
0
  6
DOT
 62
   130
 10
-243.978138923645
 20
19.7886550410108
 30
0.0
 11
-243.978138923645
 21
17.829066395876
 31
0.0
  0
LINE
  5
   4FC
  8
0
  6
CONTINUOUS
 62
   130
 10
-243.978138923645
 20
17.829066395876
 30
0.0
 11
-243.978138923645
 21
-3.36981864342834
 31
0.0
  0
LINE
  5
   4FD
  8
0
  6
CONTINUOUS
 62
   130
 10
-243.978138923645
 20
40.2694716472255
 30
0.0
 11
-243.978138923645
 21
19.7886550410108
 31
0.0
  0
LINE
  5
   4FE
  8
0
  6
DOT
 62
   130
 10
-243.978138923645
 20
42.2289854690195
 30
0.0
 11
-243.978138923645
 21
40.2694716472255
 31
0.0
  0
LINE
  5
   4FF
  8
0
  6
CONTINUOUS
 62
   130
 10
-243.978138923645
 20
-36.47092521179
 30
0.0
 11
-242.778123855591
 21
-36.47092521179
 31
0.0
  0
ARC
  5
   500
  8
0
  6
CONTINUOUS
 62
   130
 10
-244.978139372815
 20
42.2290728671613
 30
0.0
 40
1.00003107655773
 50
270.00070276675
 51
359.997118270512
  0
ARC
  5
   501
  8
0
  6
CONTINUOUS
 62
   130
 10
-244.978138971257
 20
-38.4709273091801
 30
0.0
 40
0.999999854264095
 50
270.000056701202
 51
359.999980612941
  0
ARC
  5
   502
  8
0
  6
CONTINUOUS
 62
   130
 10
-244.978137813735
 20
-45.4709236580139
 30
0.0
 40
0.999999781581745
 50
359.999963768781
 51
449.999994616734
  0
LINE
  5
   503
  8
0
  6
DASHDOT
 62
   130
 10
-246.489612850887
 20
-41.97092521179
 30
0.0
 11
-241.525996686749
 21
-41.97092521179
 31
0.0
  0
LINE
  5
   504
  8
0
  6
DOT
 62
   130
 10
-245.178153991699
 20
-40.47092521179
 30
0.0
 11
-242.778123855591
 21
-40.47092521179
 31
0.0
  0
LINE
  5
   505
  8
0
  6
DOT
 62
   130
 10
-245.178153991699
 20
-43.47092521179
 30
0.0
 11
-242.778123855591
 21
-43.47092521179
 31
0.0
  0
LINE
  5
   506
  8
0
  6
DOT
 62
   130
 10
-245.178153991699
 20
-39.97092521179
 30
0.0
 11
-242.778123855591
 21
-39.97092521179
 31
0.0
  0
LINE
  5
   507
  8
0
  6
DOT
 62
   130
 10
-245.178153991699
 20
-43.97092521179
 30
0.0
 11
-242.778123855591
 21
-43.97092521179
 31
0.0
  0
LINE
  5
   508
  8
0
  6
CONTINUOUS
 62
   130
 10
-245.178153991699
 20
-39.4709261654643
 30
0.0
 11
-245.178153991699
 21
-44.47092521179
 31
0.0
  0
ARC
  5
   509
  8
0
  6
CONTINUOUS
 62
   130
 10
-244.978137813735
 20
61.5290579756448
 30
0.0
 40
0.999999781581745
 50
270.000005071472
 51
360.000035919426
  0
LINE
  5
   50A
  8
0
  6
CONTINUOUS
 62
   130
 10
-245.178153991699
 20
60.5290595294209
 30
0.0
 11
-244.978138923645
 21
60.5290595294209
 31
0.0
  0
LINE
  5
   50B
  8
0
  6
CONTINUOUS
 62
   130
 10
-245.178153991699
 20
60.5290595294209
 30
0.0
 11
-245.178153991699
 21
55.5290604830952
 31
0.0
  0
LINE
  5
   50C
  8
0
  6
CONTINUOUS
 62
   130
 10
-245.178153991699
 20
55.5290604830952
 30
0.0
 11
-244.978138923645
 21
55.5290604830952
 31
0.0
  0
ARC
  5
   50D
  8
0
  6
CONTINUOUS
 62
   130
 10
-244.978138971257
 20
54.529061626811
 30
0.0
 40
0.999999854264095
 50
360.000019075265
 51
449.999888345491
  0
LINE
  5
   50E
  8
0
  6
DOT
 62
   130
 10
-245.178153991699
 20
56.0290595294209
 30
0.0
 11
-242.778123855591
 21
56.0290595294209
 31
0.0
  0
LINE
  5
   50F
  8
0
  6
DOT
 62
   130
 10
-245.178153991699
 20
56.5290595294209
 30
0.0
 11
-242.778123855591
 21
56.5290595294209
 31
0.0
  0
LINE
  5
   510
  8
0
  6
DASHDOT
 62
   130
 10
-246.489612850887
 20
58.0290595294209
 30
0.0
 11
-241.525996686749
 21
58.0290595294209
 31
0.0
  0
LINE
  5
   511
  8
0
  6
DOT
 62
   130
 10
-245.178153991699
 20
59.5290595294209
 30
0.0
 11
-242.778123855591
 21
59.5290595294209
 31
0.0
  0
LINE
  5
   512
  8
0
  6
DOT
 62
   130
 10
-245.178153991699
 20
60.0290595294209
 30
0.0
 11
-242.778123855591
 21
60.0290595294209
 31
0.0
  0
LINE
  5
   513
  8
0
  6
CONTINUOUS
 62
   130
 10
-245.178154563904
 20
24.5290633441182
 30
0.0
 11
-243.457578312539
 21
24.5290633441182
 31
0.0
  0
LINE
  5
   514
  8
0
  6
DASHDOT
 62
   130
 10
-248.028123950958
 20
42.6289755967894
 30
0.0
 11
-248.028123950958
 21
22.4634418531712
 31
0.0
  0
LINE
  5
   515
  8
0
  6
DASHDOT
 62
   130
 10
-243.528123950958
 20
42.7554730241655
 30
0.0
 11
-243.528123950958
 21
22.9488975093861
 31
0.0
  0
CIRCLE
  5
   516
  8
0
  6
CONTINUOUS
 62
   130
 10
-248.028123950958
 20
25.7227933441182
 30
0.0
 40
0.39999988079071
  0
CIRCLE
  5
   517
  8
0
  6
CONTINUOUS
 62
   130
 10
-248.028123950958
 20
27.3227933441182
 30
0.0
 40
0.39999988079071
  0
CIRCLE
  5
   518
  8
0
  6
CONTINUOUS
 62
   130
 10
-248.028123950958
 20
28.9227933441182
 30
0.0
 40
0.39999988079071
  0
CIRCLE
  5
   519
  8
0
  6
CONTINUOUS
 62
   130
 10
-248.028123950958
 20
30.5227780853291
 30
0.0
 40
0.39999988079071
  0
CIRCLE
  5
   51A
  8
0
  6
CONTINUOUS
 62
   130
 10
-248.028123950958
 20
32.1227780853291
 30
0.0
 40
0.39999988079071
  0
CIRCLE
  5
   51B
  8
0
  6
CONTINUOUS
 62
   130
 10
-248.028123950958
 20
33.7227933441182
 30
0.0
 40
0.39999988079071
  0
CIRCLE
  5
   51C
  8
0
  6
CONTINUOUS
 62
   130
 10
-248.028123950958
 20
35.3227933441182
 30
0.0
 40
0.39999988079071
  0
CIRCLE
  5
   51D
  8
0
  6
CONTINUOUS
 62
   130
 10
-248.028123950958
 20
36.9227933441182
 30
0.0
 40
0.39999988079071
  0
CIRCLE
  5
   51E
  8
0
  6
CONTINUOUS
 62
   130
 10
-248.028123950958
 20
38.5227780853291
 30
0.0
 40
0.39999988079071
  0
ARC
  5
   51F
  8
0
  6
CONTINUOUS
 62
   130
 10
-248.028123950958
 20
40.1227780853291
 30
0.0
 40
0.39999988079071
 50
553.551673104685
 51
629.99994520259
  0
CIRCLE
  5
   520
  8
0
  6
CONTINUOUS
 62
   130
 10
-243.528123950958
 20
26.5227780853291
 30
0.0
 40
0.39999988079071
  0
ARC
  5
   521
  8
0
  6
CONTINUOUS
 62
   130
 10
-243.528123950958
 20
24.9227933441182
 30
0.0
 40
0.39999988079071
 50
280.158049687986
 51
619.841895358707
  0
CIRCLE
  5
   522
  8
0
  6
CONTINUOUS
 62
   130
 10
-243.528123950958
 20
28.1227780853291
 30
0.0
 40
0.39999988079071
  0
CIRCLE
  5
   523
  8
0
  6
CONTINUOUS
 62
   130
 10
-243.528123950958
 20
29.7227933441182
 30
0.0
 40
0.39999988079071
  0
CIRCLE
  5
   524
  8
0
  6
CONTINUOUS
 62
   130
 10
-243.528123950958
 20
31.3227933441182
 30
0.0
 40
0.39999988079071
  0
CIRCLE
  5
   525
  8
0
  6
CONTINUOUS
 62
   130
 10
-243.528123950958
 20
32.9227933441182
 30
0.0
 40
0.39999988079071
  0
CIRCLE
  5
   526
  8
0
  6
CONTINUOUS
 62
   130
 10
-243.528123950958
 20
34.5227780853291
 30
0.0
 40
0.39999988079071
  0
CIRCLE
  5
   527
  8
0
  6
CONTINUOUS
 62
   130
 10
-243.528123950958
 20
36.1227780853291
 30
0.0
 40
0.39999988079071
  0
LINE
  5
   528
  8
0
  6
CONTINUOUS
 62
   130
 10
-243.598120061932
 20
25.3166113363911
 30
0.0
 11
-245.178136869875
 21
25.0357194594233
 31
0.0
  0
LINE
  5
   529
  8
0
  6
CONTINUOUS
 62
   130
 10
-243.458108417389
 20
26.1289586593656
 30
0.0
 11
-245.178151893107
 21
25.8231731525714
 31
0.0
  0
LINE
  5
   52A
  8
0
  6
CONTINUOUS
 62
   130
 10
-243.59813775596
 20
26.916623688826
 30
0.0
 11
-245.178109494209
 21
26.6357398242484
 31
0.0
  0
LINE
  5
   52B
  8
0
  6
CONTINUOUS
 62
   130
 10
-243.458141134649
 20
27.7289683410038
 30
0.0
 11
-245.17812451744
 21
27.4231935173965
 31
0.0
  0
LINE
  5
   52C
  8
0
  6
CONTINUOUS
 62
   130
 10
-243.598165131626
 20
28.5166033240009
 30
0.0
 11
-245.178121846644
 21
28.2357221302201
 31
0.0
  0
LINE
  5
   52D
  8
0
  6
CONTINUOUS
 62
   130
 10
-243.458108417389
 20
29.3289586593656
 30
0.0
 11
-245.178136869875
 21
29.0231758233681
 31
0.0
  0
LINE
  5
   52E
  8
0
  6
CONTINUOUS
 62
   130
 10
-243.598135085163
 20
30.1166086655944
 30
0.0
 11
-245.178151893107
 21
29.8357167886266
 31
0.0
  0
LINE
  5
   52F
  8
0
  6
CONTINUOUS
 62
   130
 10
-243.458126111418
 20
30.9289710118005
 30
0.0
 11
-245.178109494209
 21
30.6231961881932
 31
0.0
  0
LINE
  5
   530
  8
0
  6
CONTINUOUS
 62
   130
 10
-243.598152779192
 20
31.7166210180293
 30
0.0
 11
-245.17812451744
 21
31.4357371534517
 31
0.0
  0
LINE
  5
   531
  8
0
  6
CONTINUOUS
 62
   130
 10
-243.458096064954
 20
32.528976353394
 30
0.0
 11
-245.17812451744
 21
32.2231935173965
 31
0.0
  0
LINE
  5
   532
  8
0
  6
CONTINUOUS
 62
   130
 10
-243.598120061932
 20
33.3166113363911
 30
0.0
 11
-245.178136869875
 21
33.0357194594233
 31
0.0
  0
LINE
  5
   533
  8
0
  6
CONTINUOUS
 62
   130
 10
-243.458108417389
 20
34.1289586593656
 30
0.0
 11
-245.178151893107
 21
33.8231731525714
 31
0.0
  0
LINE
  5
   534
  8
0
  6
CONTINUOUS
 62
   130
 10
-243.59813775596
 20
34.916623688826
 30
0.0
 11
-245.178109494209
 21
34.6357398242484
 31
0.0
  0
LINE
  5
   535
  8
0
  6
CONTINUOUS
 62
   130
 10
-243.458141134649
 20
35.7289683410038
 30
0.0
 11
-245.17812451744
 21
35.4231935173965
 31
0.0
  0
LINE
  5
   536
  8
0
  6
CONTINUOUS
 62
   130
 10
-243.598165131626
 20
36.5166033240009
 30
0.0
 11
-245.178121846644
 21
36.2357221302201
 31
0.0
  0
LINE
  5
   537
  8
0
  6
CONTINUOUS
 62
   130
 10
-243.458093394158
 20
37.3289613301624
 30
0.0
 11
-245.178136869875
 21
37.0231758233681
 31
0.0
  0
LINE
  5
   538
  8
0
  6
CONTINUOUS
 62
   130
 10
-243.598122732728
 20
38.1166263596227
 30
0.0
 11
-245.178154563904
 21
37.8357318118582
 31
0.0
  0
LINE
  5
   539
  8
0
  6
CONTINUOUS
 62
   130
 10
-243.458126111418
 20
38.9289710118005
 30
0.0
 11
-245.178109494209
 21
38.6231961881932
 31
0.0
  0
LINE
  5
   53A
  8
0
  6
CONTINUOUS
 62
   130
 10
-243.598150108395
 20
39.7166059947976
 30
0.0
 11
-245.178106823412
 21
39.4357248010168
 31
0.0
  0
LINE
  5
   53B
  8
0
  6
CONTINUOUS
 62
   130
 10
-246.378121655909
 20
40.0098451947399
 30
0.0
 11
-247.958093394158
 21
39.7289613301624
 31
0.0
  0
CIRCLE
  5
   53C
  8
0
  6
CONTINUOUS
 62
   130
 10
-243.528123950958
 20
37.7227933441182
 30
0.0
 40
0.39999988079071
  0
CIRCLE
  5
   53D
  8
0
  6
CONTINUOUS
 62
   130
 10
-243.528123950958
 20
39.3227933441182
 30
0.0
 40
0.39999988079071
  0
ARC
  5
   53E
  8
0
  6
CONTINUOUS
 62
   130
 10
-248.028123950958
 20
40.1227780853291
 30
0.0
 40
0.39999988079071
 50
269.999999844103
 51
346.448162658981
  0
LINE
  5
   53F
  8
0
  6
CONTINUOUS
 62
   130
 10
-246.378106632677
 20
39.2223915015919
 30
0.0
 11
-248.098150108395
 21
38.9166059947976
 31
0.0
  0
LINE
  5
   540
  8
0
  6
CONTINUOUS
 62
   130
 10
-246.378109303474
 20
38.4098628887683
 30
0.0
 11
-247.958126111418
 21
38.1289710118005
 31
0.0
  0
LINE
  5
   541
  8
0
  6
CONTINUOUS
 62
   130
 10
-246.378154373169
 20
37.6223985124333
 30
0.0
 11
-248.098122732728
 21
37.3166263596227
 31
0.0
  0
LINE
  5
   542
  8
0
  6
CONTINUOUS
 62
   130
 10
-246.37813667914
 20
36.8098425239432
 30
0.0
 11
-247.958093394158
 21
36.5289613301624
 31
0.0
  0
LINE
  5
   543
  8
0
  6
CONTINUOUS
 62
   130
 10
-246.378121655909
 20
36.0223888307952
 30
0.0
 11
-248.098165131626
 21
35.7166033240009
 31
0.0
  0
LINE
  5
   544
  8
0
  6
CONTINUOUS
 62
   130
 10
-246.378109303474
 20
35.2098628887683
 30
0.0
 11
-247.958141134649
 21
34.9289683410038
 31
0.0
  0
LINE
  5
   545
  8
0
  6
CONTINUOUS
 62
   130
 10
-246.378154373169
 20
34.4223985124333
 30
0.0
 11
-248.09813775596
 21
34.116623688826
 31
0.0
  0
LINE
  5
   546
  8
0
  6
CONTINUOUS
 62
   130
 10
-246.378151702372
 20
33.6098398531465
 30
0.0
 11
-247.958108417389
 21
33.3289586593656
 31
0.0
  0
LINE
  5
   547
  8
0
  6
CONTINUOUS
 62
   130
 10
-246.37813667914
 20
32.8223861599984
 30
0.0
 11
-248.098120061932
 21
32.5166113363911
 31
0.0
  0
LINE
  5
   548
  8
0
  6
CONTINUOUS
 62
   130
 10
-246.378124326705
 20
32.0098602179716
 30
0.0
 11
-247.958096064954
 21
31.728976353394
 31
0.0
  0
LINE
  5
   549
  8
0
  6
CONTINUOUS
 62
   130
 10
-246.378109303474
 20
31.2224065248235
 30
0.0
 11
-248.098152779192
 21
30.9166210180293
 31
0.0
  0
LINE
  5
   54A
  8
0
  6
CONTINUOUS
 62
   130
 10
-246.378109303474
 20
30.4098628887683
 30
0.0
 11
-247.958126111418
 21
30.1289710118005
 31
0.0
  0
LINE
  5
   54B
  8
0
  6
CONTINUOUS
 62
   130
 10
-246.378151702372
 20
29.6223834892017
 30
0.0
 11
-248.098120061932
 21
29.3166113363911
 31
0.0
  0
LINE
  5
   54C
  8
0
  6
CONTINUOUS
 62
   130
 10
-246.37813667914
 20
28.8098425239432
 30
0.0
 11
-247.958093394158
 21
28.5289613301624
 31
0.0
  0
LINE
  5
   54D
  8
0
  6
CONTINUOUS
 62
   130
 10
-246.378121655909
 20
28.0223888307952
 30
0.0
 11
-248.098165131626
 21
27.7166033240009
 31
0.0
  0
LINE
  5
   54E
  8
0
  6
CONTINUOUS
 62
   130
 10
-246.378109303474
 20
27.2098628887683
 30
0.0
 11
-247.958141134649
 21
26.9289683410038
 31
0.0
  0
LINE
  5
   54F
  8
0
  6
CONTINUOUS
 62
   130
 10
-246.378109303474
 20
26.4224065248235
 30
0.0
 11
-248.09813775596
 21
26.116623688826
 31
0.0
  0
LINE
  5
   550
  8
0
  6
CONTINUOUS
 62
   130
 10
-246.378151702372
 20
25.6098398531465
 30
0.0
 11
-247.958108417389
 21
25.3289586593656
 31
0.0
  0
LINE
  5
   551
  8
0
  6
CONTINUOUS
 62
   130
 10
-246.37813667914
 20
24.8223861599984
 30
0.0
 11
-248.028162024145
 21
24.5290483208866
 31
0.0
  0
LINE
  5
   552
  8
0
  6
CONTINUOUS
 62
   130
 10
-248.028134177363
 20
24.5290633441182
 30
0.0
 11
-246.378108596802
 21
24.5290633441182
 31
0.0
  0
INSERT
  5
   553
  8
0
  6
CONTINUOUS
 62
     3
  2
*HATCH365
 10
-119.530731201172
 20
-5.47092533111572
 30
0.0
 50
269.999999844103
  0
INSERT
  5
   554
  8
0
  6
CONTINUOUS
 62
     3
  2
*HATCH366
 10
-119.530731201172
 20
-5.47092533111572
 30
0.0
 50
269.999999844103
  0
INSERT
  5
   555
  8
0
  6
CONTINUOUS
 62
     3
  2
*HATCH367
 10
-119.530731201172
 20
-5.47092533111572
 30
0.0
 50
269.999999844103
  0
INSERT
  5
   556
  8
0
  6
CONTINUOUS
 62
     3
  2
*HATCH368
 10
-119.530731201172
 20
-5.47092533111572
 30
0.0
 50
269.999999844103
  0
INSERT
  5
   557
  8
0
  6
CONTINUOUS
 62
     3
  2
*HATCH369
 10
-119.530731201172
 20
-5.47092533111572
 30
0.0
 50
269.999999844103
  0
INSERT
  5
   558
  8
0
  6
CONTINUOUS
 62
     3
  2
*HATCH370
 10
-119.530731201172
 20
-5.47092533111572
 30
0.0
 50
269.999999844103
  0
INSERT
  5
   559
  8
0
  6
CONTINUOUS
 62
     3
  2
*HATCH371
 10
-119.530731201172
 20
-5.47092533111572
 30
0.0
 50
269.999999844103
  0
INSERT
  5
   55A
  8
0
  6
CONTINUOUS
 62
     3
  2
*HATCH372
 10
-119.530731201172
 20
-5.47092533111572
 30
0.0
 50
269.999999844103
  0
INSERT
  5
   55B
  8
0
  6
CONTINUOUS
 62
     3
  2
*HATCH373
 10
-119.530731201172
 20
-5.47092533111572
 30
0.0
 50
269.999999844103
  0
INSERT
  5
   55C
  8
0
  6
CONTINUOUS
 62
     3
  2
*HATCH374
 10
-119.530731201172
 20
-5.47092533111572
 30
0.0
 50
269.999999844103
  0
INSERT
  5
   55D
  8
0
  6
CONTINUOUS
 62
     3
  2
*HATCH375
 10
-119.530731201172
 20
-5.47092533111572
 30
0.0
 50
269.999999844103
  0
POLYLINE
  5
   55E
  8
0
  6
CONTINUOUS
 62
   130
 66
     1
 10
0.0
 20
0.0
 30
0.0
  0
VERTEX
  5
   55F
  8
0
  6
CONTINUOUS
 10
-242.778049893508
 20
-3.06355021292411
 30
0.0
 40
0.0
 41
0.0
  0
VERTEX
  5
   560
  8
0
  6
CONTINUOUS
 10
-242.879149845415
 20
-3.04754036432347
 30
0.0
 40
0.0
 41
0.0
  0
VERTEX
  5
   561
  8
0
  6
CONTINUOUS
 10
-242.97912803952
 20
-3.03488483862696
 30
0.0
 40
0.0
 41
0.0
  0
VERTEX
  5
   562
  8
0
  6
CONTINUOUS
 10
-243.02866349064
 20
-3.03018670381807
 30
0.0
 40
0.0
 41
0.0
  0
VERTEX
  5
   563
  8
0
  6
CONTINUOUS
 10
-243.127306048061
 20
-3.02479732729303
 30
0.0
 40
0.0
 41
0.0
  0
VERTEX
  5
   564
  8
0
  6
CONTINUOUS
 10
-243.224700798184
 20
-3.02585714145151
 30
0.0
 40
0.0
 41
0.0
  0
VERTEX
  5
   565
  8
0
  6
CONTINUOUS
 10
-243.272950952286
 20
-3.02918195443268
 30
0.0
 40
0.0
 41
0.0
  0
VERTEX
  5
   566
  8
0
  6
CONTINUOUS
 10
-243.320920202267
 20
-3.03455840804029
 30
0.0
 40
0.0
 41
0.0
  0
VERTEX
  5
   567
  8
0
  6
CONTINUOUS
 10
-243.368624390287
 20
-3.04211592105049
 30
0.0
 40
0.0
 41
0.0
  0
VERTEX
  5
   568
  8
0
  6
CONTINUOUS
 10
-243.416081024639
 20
-3.05197161138704
 30
0.0
 40
0.0
 41
0.0
  0
VERTEX
  5
   569
  8
0
  6
CONTINUOUS
 10
-243.463308728342
 20
-3.06422795123946
 30
0.0
 40
0.0
 41
0.0
  0
VERTEX
  5
   56A
  8
0
  6
CONTINUOUS
 10
-243.510326687734
 20
-3.07897042218119
 30
0.0
 40
0.0
 41
0.0
  0
VERTEX
  5
   56B
  8
0
  6
CONTINUOUS
 10
-243.557154101072
 20
-3.09626517028772
 30
0.0
 40
0.0
 41
0.0
  0
VERTEX
  5
   56C
  8
0
  6
CONTINUOUS
 10
-243.603809627122
 20
-3.11615666125476
 30
0.0
 40
0.0
 41
0.0
  0
VERTEX
  5
   56D
  8
0
  6
CONTINUOUS
 10
-243.650310833753
 20
-3.13866533551639
 30
0.0
 40
0.0
 41
0.0
  0
VERTEX
  5
   56E
  8
0
  6
CONTINUOUS
 10
-243.696673646538
 20
-3.16378526336318
 30
0.0
 40
0.0
 41
0.0
  0
VERTEX
  5
   56F
  8
0
  6
CONTINUOUS
 10
-243.742911797342
 20
-3.19148180006039
 30
0.0
 40
0.0
 41
0.0
  0
VERTEX
  5
   570
  8
0
  6
CONTINUOUS
 10
-243.789036272919
 20
-3.22168924096609
 30
0.0
 40
0.0
 41
0.0
  0
VERTEX
  5
   571
  8
0
  6
CONTINUOUS
 10
-243.880971111431
 20
-3.28920464800821
 30
0.0
 40
0.0
 41
0.0
  0
VERTEX
  5
   572
  8
0
  6
CONTINUOUS
 10
-243.972490200503
 20
-3.36509554370013
 30
0.0
 40
0.0
 41
0.0
  0
VERTEX
  5
   573
  8
0
  6
CONTINUOUS
 10
-244.077774533096
 20
-3.4608484036478
 30
0.0
 40
0.0
 41
0.0
  0
VERTEX
  5
   574
  8
0
  6
CONTINUOUS
 10
-244.285340333212
 20
-3.66147841984445
 30
0.0
 40
0.0
 41
0.0
  0
VERTEX
  5
   575
  8
0
  6
CONTINUOUS
 10
-244.386856469852
 20
-3.75608778409112
 30
0.0
 40
0.0
 41
0.0
  0
VERTEX
  5
   576
  8
0
  6
CONTINUOUS
 10
-244.436868880301
 20
-3.79957560385884
 30
0.0
 40
0.0
 41
0.0
  0
VERTEX
  5
   577
  8
0
  6
CONTINUOUS
 10
-244.486322051722
 20
-3.83962602144835
 30
0.0
 40
0.0
 41
0.0
  0
VERTEX
  5
   578
  8
0
  6
CONTINUOUS
 10
-244.535176416956
 20
-3.87560591267674
 30
0.0
 40
0.0
 41
0.0
  0
VERTEX
  5
   579
  8
0
  6
CONTINUOUS
 10
-244.583400275385
 20
-3.90692635983957
 30
0.0
 40
0.0
 41
0.0
  0
VERTEX
  5
   57A
  8
0
  6
CONTINUOUS
 10
-244.630971659595
 20
-3.93305515959432
 30
0.0
 40
0.0
 41
0.0
  0
VERTEX
  5
   57B
  8
0
  6
CONTINUOUS
 10
-244.677880202037
 20
-3.95352933084376
 30
0.0
 40
0.0
 41
0.0
  0
VERTEX
  5
   57C
  8
0
  6
CONTINUOUS
 10
-244.724129001694
 20
-3.96796762261948
 30
0.0
 40
0.0
 41
0.0
  0
VERTEX
  5
   57D
  8
0
  6
CONTINUOUS
 10
-244.769736490744
 20
-3.97608302196523
 30
0.0
 40
0.0
 41
0.0
  0
VERTEX
  5
   57E
  8
0
  6
CONTINUOUS
 10
-244.81473830122
 20
-3.97769526182041
 30
0.0
 40
0.0
 41
0.0
  0
VERTEX
  5
   57F
  8
0
  6
CONTINUOUS
 10
-244.859189131681
 20
-3.97274332890349
 30
0.0
 40
0.0
 41
0.0
  0
VERTEX
  5
   580
  8
0
  6
CONTINUOUS
 10
-244.903164613868
 20
-3.96129797159541
 30
0.0
 40
0.0
 41
0.0
  0
VERTEX
  5
   581
  8
0
  6
CONTINUOUS
 10
-244.946763179374
 20
-3.94357420782307
 30
0.0
 40
0.0
 41
0.0
  0
VERTEX
  5
   582
  8
0
  6
CONTINUOUS
 10
-244.975132930502
 20
-3.92875727557715
 30
0.0
 40
0.0
 41
0.0
  0
VERTEX
  5
   583
  8
0
  6
CONTINUOUS
 10
-245.031707223198
 20
-3.89212712309256
 30
0.0
 40
0.0
 41
0.0
  0
VERTEX
  5
   584
  8
0
  6
CONTINUOUS
 10
-245.060003897398
 20
-3.87067714909885
 30
0.0
 40
0.0
 41
0.0
  0
VERTEX
  5
   585
  8
0
  6
CONTINUOUS
 10
-245.116866894659
 20
-3.82258109598806
 30
0.0
 40
0.0
 41
0.0
  0
VERTEX
  5
   586
  8
0
  6
CONTINUOUS
 10
-245.174440799404
 20
-3.76918671928763
 30
0.0
 40
0.0
 41
0.0
  0
VERTEX
  5
   587
  8
0
  6
CONTINUOUS
 10
-245.293393338838
 20
-3.65504600441888
 30
0.0
 40
0.0
 41
0.0
  0
VERTEX
  5
   588
  8
0
  6
CONTINUOUS
 10
-245.355532611948
 20
-3.59869140472719
 30
0.0
 40
0.0
 41
0.0
  0
VERTEX
  5
   589
  8
0
  6
CONTINUOUS
 10
-245.419855155493
 20
-3.54561853663963
 30
0.0
 40
0.0
 41
0.0
  0
VERTEX
  5
   58A
  8
0
  6
CONTINUOUS
 10
-245.486555867112
 20
-3.49768580426172
 30
0.0
 40
0.0
 41
0.0
  0
VERTEX
  5
   58B
  8
0
  6
CONTINUOUS
 10
-245.555711453311
 20
-3.45643354606233
 30
0.0
 40
0.0
 41
0.0
  0
VERTEX
  5
   58C
  8
0
  6
CONTINUOUS
 10
-245.598701379461
 20
-3.4352214439579
 30
0.0
 40
0.0
 41
0.0
  0
VERTEX
  5
   58D
  8
0
  6
CONTINUOUS
 10
-245.642524616223
 20
-3.41703473323979
 30
0.0
 40
0.0
 41
0.0
  0
VERTEX
  5
   58E
  8
0
  6
CONTINUOUS
 10
-245.687119174249
 20
-3.40197271907788
 30
0.0
 40
0.0
 41
0.0
  0
VERTEX
  5
   58F
  8
0
  6
CONTINUOUS
 10
-245.732405840772
 20
-3.39007800325988
 30
0.0
 40
0.0
 41
0.0
  0
VERTEX
  5
   590
  8
0
  6
CONTINUOUS
 10
-245.778290759736
 20
-3.38134300186248
 30
0.0
 40
0.0
 41
0.0
  0
SEQEND
  5
   591
  8
0
  6
CONTINUOUS
 62
   130
  0
LINE
  5
   592
  8
0
  6
DOT
 62
   130
 10
-243.978138923645
 20
-3.36981864342834
 30
0.0
 11
-243.978138923645
 21
-27.4709261654643
 31
0.0
  0
LINE
  5
   593
  8
0
  6
CONTINUOUS
 62
   130
 10
-246.678153991699
 20
41.2290450335713
 30
0.0
 11
-246.378108596802
 21
41.2290450335713
 31
0.0
  0
LINE
  5
   594
  8
0
  6
CONTINUOUS
 62
   130
 10
-246.678153991699
 20
40.0290633441182
 30
0.0
 11
-246.378108596802
 21
40.0290633441182
 31
0.0
  0
LINE
  5
   595
  8
0
  6
CONTINUOUS
 62
   130
 10
-246.47813911438
 20
20.0290633441182
 30
0.0
 11
-246.378108596802
 21
20.0290633441182
 31
0.0
  0
LINE
  5
   596
  8
0
  6
CONTINUOUS
 62
   130
 10
-246.47813911438
 20
18.829066395876
 30
0.0
 11
-246.378108596802
 21
18.829066395876
 31
0.0
  0
LINE
  5
   597
  8
0
  6
CONTINUOUS
 62
   130
 10
-246.806695284162
 20
20.5290633441182
 30
0.0
 11
-246.378108596802
 21
20.5290633441182
 31
0.0
  0
LINE
  5
   598
  8
0
  6
DOT
 62
   130
 10
-246.378108596802
 20
20.5290633441182
 30
0.0
 11
-245.178154563904
 21
20.5290633441182
 31
0.0
  0
INSERT
  5
   599
  8
0
  6
CONTINUOUS
 62
     7
  2
*HATCH376
 10
-119.530731201172
 20
-5.47092533111572
 30
0.0
 50
269.999999844103
  0
INSERT
  5
   59A
  8
0
  6
CONTINUOUS
 62
     7
  2
*HATCH377
 10
-119.530731201172
 20
-5.47092533111572
 30
0.0
 50
269.999999844103
  0
INSERT
  5
   59B
  8
0
  6
CONTINUOUS
 62
     7
  2
*HATCH378
 10
-119.530731201172
 20
-5.47092533111572
 30
0.0
 50
269.999999844103
  0
INSERT
  5
   59C
  8
0
  6
CONTINUOUS
 62
     7
  2
*HATCH379
 10
-119.530731201172
 20
-5.47092533111572
 30
0.0
 50
269.999999844103
  0
INSERT
  5
   59D
  8
0
  6
CONTINUOUS
 62
     3
  2
*HATCH380
 10
-119.530731201172
 20
-5.47092533111572
 30
0.0
 50
269.999999844103
  0
INSERT
  5
   59E
  8
0
  6
CONTINUOUS
 62
     3
  2
*HATCH381
 10
-119.530731201172
 20
-5.47092533111572
 30
0.0
 50
269.999999844103
  0
INSERT
  5
   59F
  8
0
  6
CONTINUOUS
 62
     3
  2
*HATCH382
 10
-119.530731201172
 20
-5.47092533111572
 30
0.0
 50
269.999999844103
  0
INSERT
  5
   5A0
  8
0
  6
CONTINUOUS
 62
     3
  2
*HATCH383
 10
-119.530731201172
 20
-5.47092533111572
 30
0.0
 50
269.999999844103
  0
INSERT
  5
   5A1
  8
0
  6
CONTINUOUS
 62
     3
  2
*HATCH384
 10
-119.530731201172
 20
-5.47092533111572
 30
0.0
 50
269.999999844103
  0
INSERT
  5
   5A2
  8
0
  6
CONTINUOUS
 62
     3
  2
*HATCH385
 10
-119.530731201172
 20
-5.47092533111572
 30
0.0
 50
269.999999844103
  0
INSERT
  5
   5A3
  8
0
  6
CONTINUOUS
 62
     3
  2
*HATCH386
 10
-119.530731201172
 20
-5.47092533111572
 30
0.0
 50
269.999999844103
  0
INSERT
  5
   5A4
  8
0
  6
CONTINUOUS
 62
     3
  2
*HATCH387
 10
-119.530731201172
 20
-5.47092533111572
 30
0.0
 50
269.999999844103
  0
INSERT
  5
   5A5
  8
0
  6
CONTINUOUS
 62
     3
  2
*HATCH388
 10
-119.530731201172
 20
-5.47092533111572
 30
0.0
 50
269.999999844103
  0
INSERT
  5
   5A6
  8
0
  6
CONTINUOUS
 62
     3
  2
*HATCH389
 10
-119.530731201172
 20
-5.47092533111572
 30
0.0
 50
269.999999844103
  0
INSERT
  5
   5A7
  8
0
  6
CONTINUOUS
 62
     3
  2
*HATCH390
 10
-119.530731201172
 20
-5.47092533111572
 30
0.0
 50
269.999999844103
  0
LINE
  5
   5A8
  8
0
  6
CONTINUOUS
 62
   130
 10
-172.778152227402
 20
-25.4709100723266
 30
0.0
 11
-172.778152227402
 21
-33.9709253311157
 31
0.0
  0
LINE
  5
   5A9
  8
0
  6
CONTINUOUS
 62
   130
 10
-172.778152552057
 20
-25.4709100723266
 30
0.0
 11
-167.778136968613
 21
-25.4709100723266
 31
0.0
  0
LINE
  5
   5AA
  8
0
  6
DASHDOT
 62
   130
 10
-199.478304609446
 20
60.0290802763289
 30
0.0
 11
-172.610163010472
 21
60.0290802763289
 31
0.0
  0
LINE
  5
   5AB
  8
0
  6
CONTINUOUS
 62
   130
 10
-172.778137293268
 20
19.5290899276734
 30
0.0
 11
-167.778136968613
 21
19.5290899276734
 31
0.0
  0
LINE
  5
   5AC
  8
0
  6
CONTINUOUS
 62
   130
 10
-172.778136968613
 20
52.0290746688843
 30
0.0
 11
-172.778136968613
 21
19.5290899276734
 31
0.0
  0
LINE
  5
   5AD
  8
0
  6
CONTINUOUS
 62
   130
 10
-167.778136968613
 20
19.5290899276734
 30
0.0
 11
-167.778136968613
 21
-25.4709100723266
 31
0.0
  0
LINE
  5
   5AE
  8
0
  6
CONTINUOUS
 62
   130
 10
-173.778152227402
 20
-34.9709253311157
 30
0.0
 11
-173.778152227402
 21
-36.4709253311157
 31
0.0
  0
LINE
  5
   5AF
  8
0
  6
CONTINUOUS
 62
   130
 10
-179.278152227402
 20
-36.4709253311157
 30
0.0
 11
-175.278152227402
 21
-36.4709253311157
 31
0.0
  0
LINE
  5
   5B0
  8
0
  6
CONTINUOUS
 62
   130
 10
-179.278152227402
 20
-34.9709253311157
 30
0.0
 11
-173.778152227402
 21
-34.9709253311157
 31
0.0
  0
LINE
  5
   5B1
  8
0
  6
CONTINUOUS
 62
   130
 10
-179.278152227402
 20
53.0290746688843
 30
0.0
 11
-173.778136968613
 21
53.0290746688843
 31
0.0
  0
LINE
  5
   5B2
  8
0
  6
CONTINUOUS
 62
   130
 10
-173.778152227402
 20
54.5290746688843
 30
0.0
 11
-173.778152227402
 21
53.0290746688843
 31
0.0
  0
LINE
  5
   5B3
  8
0
  6
CONTINUOUS
 62
   130
 10
-179.278152227402
 20
54.5290746688843
 30
0.0
 11
-175.278152227402
 21
54.5290746688843
 31
0.0
  0
LINE
  5
   5B4
  8
0
  6
CONTINUOUS
 62
   130
 10
-213.262962341309
 20
-44.9709133865559
 30
0.0
 11
-202.922238994834
 21
-44.9709133865559
 31
0.0
  0
LINE
  5
   5B5
  8
0
  6
CONTINUOUS
 62
   130
 10
-213.262962341309
 20
-44.4709133865558
 30
0.0
 11
-202.922238994834
 21
-44.4709133865558
 31
0.0
  0
LINE
  5
   5B6
  8
0
  6
CONTINUOUS
 62
   130
 10
-213.262962341309
 20
-39.4709133865559
 30
0.0
 11
-202.922238994834
 21
-39.4709133865559
 31
0.0
  0
LINE
  5
   5B7
  8
0
  6
CONTINUOUS
 62
   130
 10
-213.262962341309
 20
-38.9709133865559
 30
0.0
 11
-202.922238994834
 21
-38.9709133865559
 31
0.0
  0
LINE
  5
   5B8
  8
0
  6
CONTINUOUS
 62
   130
 10
-212.762962341309
 20
-38.9709133865559
 30
0.0
 11
-212.762962341309
 21
-44.9709133865559
 31
0.0
  0
LINE
  5
   5B9
  8
0
  6
CONTINUOUS
 62
   130
 10
-213.262962341309
 20
-44.4709133865559
 30
0.0
 11
-212.762962341309
 21
-44.9709133865559
 31
0.0
  0
LINE
  5
   5BA
  8
0
  6
CONTINUOUS
 62
   130
 10
-212.762962341309
 20
-38.9709133865559
 30
0.0
 11
-213.262962341309
 21
-39.4709133865559
 31
0.0
  0
LINE
  5
   5BB
  8
0
  6
DOT
 62
   130
 10
-213.262962341309
 20
-39.4709133865559
 30
0.0
 11
-213.262962341309
 21
-44.4709133865558
 31
0.0
  0
LINE
  5
   5BC
  8
0
  6
CONTINUOUS
 62
   130
 10
-209.262962341309
 20
-44.9709133865559
 30
0.0
 11
-209.262962341309
 21
-47.9709253311157
 31
0.0
  0
LINE
  5
   5BD
  8
0
  6
CONTINUOUS
 62
   130
 10
-241.27812858336
 20
-8.67093050393323
 30
0.0
 11
-197.278143230254
 21
-8.67093050393323
 31
0.0
  0
LINE
  5
   5BE
  8
0
  6
CONTINUOUS
 62
   130
 10
-179.278152227402
 20
64.0290729893413
 30
0.0
 11
-179.278152227402
 21
53.0290746688843
 31
0.0
  0
LINE
  5
   5BF
  8
0
  6
CONTINUOUS
 62
   130
 10
-242.778123410543
 20
65.0290729893413
 30
0.0
 11
-180.278152227402
 21
65.0290729893413
 31
0.0
  0
ARC
  5
   5C0
  8
0
  6
CONTINUOUS
 62
   130
 10
-180.278152227402
 20
64.0290729893413
 30
0.0
 40
1.0
 50
359.999999844103
 51
449.999999844103
  0
ARC
  5
   5C1
  8
0
  6
CONTINUOUS
 62
   130
 10
-173.778136968613
 20
52.0290746688843
 30
0.0
 40
1.0
 50
359.999999844103
 51
449.999999844103
  0
ARC
  5
   5C2
  8
0
  6
CONTINUOUS
 62
   130
 10
-180.278152227402
 20
-45.9709236515728
 30
0.0
 40
1.0
 50
269.999999844103
 51
359.999999844103
  0
LINE
  5
   5C3
  8
0
  6
CONTINUOUS
 62
   130
 10
-179.278152227402
 20
-34.9709253311157
 30
0.0
 11
-179.278152227402
 21
-45.9709236515728
 31
0.0
  0
ARC
  5
   5C4
  8
0
  6
CONTINUOUS
 62
   130
 10
-173.778152227402
 20
-33.9709253311157
 30
0.0
 40
1.0
 50
269.999999844103
 51
359.999999844103
  0
ARC
  5
   5C5
  8
0
  6
CONTINUOUS
 62
   130
 10
-202.278136968613
 20
-5.47091007231199
 30
0.0
 40
52.4276683460498
 50
340.405499850824
 51
359.999999844103
  0
LINE
  5
   5C6
  8
0
  6
CONTINUOUS
 62
   130
 10
-149.850468622563
 20
-5.47091007231199
 30
0.0
 11
-149.850468622563
 21
-21.2079281635205
 31
0.0
  0
LINE
  5
   5C7
  8
0
  6
DASHDOT
 62
   130
 10
-251.448929948157
 20
-2.97091007232661
 30
0.0
 11
-156.634549295972
 21
-2.97091007232661
 31
0.0
  0
POINT
  5
   5C8
  8
0
  6
CONTINUOUS
 62
   130
 10
-245.778138160706
 20
14.0290633441182
 30
0.0
  0
POINT
  5
   5C9
  8
0
  6
CONTINUOUS
 62
   130
 10
-245.778138160706
 20
-21.4709366558818
 30
0.0
  0
LINE
  5
   5CA
  8
0
  6
CONTINUOUS
 62
   130
 10
-215.262962341309
 20
-35.9709253311157
 30
0.0
 11
-215.262962341309
 21
-46.9709236515728
 31
0.0
  0
LINE
  5
   5CB
  8
0
  6
CONTINUOUS
 62
   130
 10
-229.762962341309
 20
-48.4717860780354
 30
0.0
 11
-213.262962341309
 21
-48.4717860780354
 31
0.0
  0
LINE
  5
   5CC
  8
0
  6
CONTINUOUS
 62
   130
 10
-229.762962341309
 20
-48.4717860780354
 30
0.0
 11
-229.762962341309
 21
-67.0938285541645
 31
0.0
  0
LINE
  5
   5CD
  8
0
  6
CONTINUOUS
 62
   130
 10
-213.262962341309
 20
-48.4717860780354
 30
0.0
 11
-213.262962341309
 21
-67.0938285541645
 31
0.0
  0
LINE
  5
   5CE
  8
0
  6
CONTINUOUS
 62
   130
 10
-231.654272076594
 20
-67.0938285541645
 30
0.0
 11
-211.835211014112
 21
-67.0938285541645
 31
0.0
  0
LINE
  5
   5CF
  8
0
  6
CONTINUOUS
 62
   130
 10
-215.262962341309
 20
-35.9709253311157
 30
0.0
 11
-215.262962341309
 21
-48.4717860780354
 31
0.0
  0
LINE
  5
   5D0
  8
0
  6
CONTINUOUS
 62
   130
 10
-225.213818605176
 20
-35.9709253311157
 30
0.0
 11
-227.762962341309
 21
-41.8450391578555
 31
0.0
  0
LINE
  5
   5D1
  8
0
  6
CONTINUOUS
 62
   130
 10
-223.033613801304
 20
-35.9709253311157
 30
0.0
 11
-227.762962341309
 21
-46.8689893580831
 31
0.0
  0
LINE
  5
   5D2
  8
0
  6
CONTINUOUS
 62
   130
 10
-220.853408997432
 20
-35.9709253311157
 30
0.0
 11
-226.278310831
 21
-48.4717860780354
 31
0.0
  0
LINE
  5
   5D3
  8
0
  6
CONTINUOUS
 62
   130
 10
-218.673204193559
 20
-35.9709253311157
 30
0.0
 11
-224.098106027128
 21
-48.4717860780354
 31
0.0
  0
LINE
  5
   5D4
  8
0
  6
CONTINUOUS
 62
   130
 10
-216.492999389687
 20
-35.9709253311157
 30
0.0
 11
-221.917901223256
 21
-48.4717860780354
 31
0.0
  0
LINE
  5
   5D5
  8
0
  6
CONTINUOUS
 62
   130
 10
-215.262962341309
 20
-38.1604423329064
 30
0.0
 11
-219.737696419383
 21
-48.4717860780354
 31
0.0
  0
LINE
  5
   5D6
  8
0
  6
CONTINUOUS
 62
   130
 10
-215.262962341309
 20
-43.184392533134
 30
0.0
 11
-217.557491615511
 21
-48.4717860780354
 31
0.0
  0
LINE
  5
   5D7
  8
0
  6
CONTINUOUS
 62
   130
 10
-226.762962341309
 20
-47.9709253311157
 30
0.0
 11
-226.762962341309
 21
-48.4717860780354
 31
0.0
  0
LINE
  5
   5D8
  8
0
  6
CONTINUOUS
 62
   130
 10
-231.020759578688
 20
-34.9953079703104
 30
0.0
 11
-202.922238994834
 21
-34.9953079703104
 31
0.0
  0
LINE
  5
   5D9
  8
0
  6
CONTINUOUS
 62
   130
 10
-202.922238994834
 20
-34.9953079703104
 30
0.0
 11
-202.922238994834
 21
-48.9709253311157
 31
0.0
  0
LINE
  5
   5DA
  8
0
  6
CONTINUOUS
 62
   130
 10
-231.020759578688
 20
-34.9953079703104
 30
0.0
 11
-231.020759578688
 21
-48.9709253311157
 31
0.0
  0
LINE
  5
   5DB
  8
0
  6
CONTINUOUS
 62
   130
 10
-202.922238994834
 20
-46.9709236515728
 30
0.0
 11
-180.278152227402
 21
-46.9709236515728
 31
0.0
  0
LINE
  5
   5DC
  8
0
  6
CONTINUOUS
 62
   130
 10
-242.778123855591
 20
-46.9709236515728
 30
0.0
 11
-231.020759578688
 21
-46.9709236515728
 31
0.0
  0
LINE
  5
   5DD
  8
0
  6
CONTINUOUS
 62
   130
 10
-227.278137779236
 20
58.7859840699781
 30
0.0
 11
-225.213818605176
 21
54.0290746688843
 31
0.0
  0
LINE
  5
   5DE
  8
0
  6
CONTINUOUS
 62
   130
 10
-227.278137779236
 20
63.8099342702057
 30
0.0
 11
-223.033613801304
 21
54.0290746688843
 31
0.0
  0
LINE
  5
   5DF
  8
0
  6
CONTINUOUS
 62
   130
 10
-226.278310831
 20
66.529935415804
 30
0.0
 11
-220.853408997432
 21
54.0290746688843
 31
0.0
  0
LINE
  5
   5E0
  8
0
  6
CONTINUOUS
 62
   130
 10
-224.098106027128
 20
66.529935415804
 30
0.0
 11
-218.673204193559
 21
54.0290746688843
 31
0.0
  0
LINE
  5
   5E1
  8
0
  6
CONTINUOUS
 62
   130
 10
-221.917901223256
 20
66.529935415804
 30
0.0
 11
-216.492999389687
 21
54.0290746688843
 31
0.0
  0
LINE
  5
   5E2
  8
0
  6
CONTINUOUS
 62
   130
 10
-219.737696419383
 20
66.529935415804
 30
0.0
 11
-215.778124976157
 21
57.4057055683681
 31
0.0
  0
LINE
  5
   5E3
  8
0
  6
CONTINUOUS
 62
   130
 10
-217.557491615511
 20
66.529935415804
 30
0.0
 11
-215.778124976157
 21
62.4296557685956
 31
0.0
  0
LINE
  5
   5E4
  8
0
  6
CONTINUOUS
 62
   130
 10
-229.762962341309
 20
66.529935415804
 30
0.0
 11
-213.262962341309
 21
66.529935415804
 31
0.0
  0
LINE
  5
   5E5
  8
0
  6
CONTINUOUS
 62
   130
 10
-229.762962341309
 20
84.44369403923
 30
0.0
 11
-229.762962341309
 21
66.529935415804
 31
0.0
  0
LINE
  5
   5E6
  8
0
  6
CONTINUOUS
 62
   130
 10
-213.262962341309
 20
84.44369403923
 30
0.0
 11
-213.262962341309
 21
66.529935415804
 31
0.0
  0
LINE
  5
   5E7
  8
0
  6
CONTINUOUS
 62
   130
 10
-231.040448353446
 20
84.44369403923
 30
0.0
 11
-211.828227487339
 21
84.44369403923
 31
0.0
  0
LINE
  5
   5E8
  8
0
  6
CONTINUOUS
 62
   130
 10
-240.278123410543
 20
1.32906949606677
 30
0.0
 11
-197.278143230254
 21
1.32906949606677
 31
0.0
  0
LINE
  5
   5E9
  8
0
  6
CONTINUOUS
 62
   130
 10
-175.278152227402
 20
54.5290746688843
 30
0.0
 11
-173.778152227402
 21
54.5290746688843
 31
0.0
  0
LINE
  5
   5EA
  8
0
  6
CONTINUOUS
 62
   130
 10
-175.278152227402
 20
-36.4709253311157
 30
0.0
 11
-173.778152227402
 21
-36.4709253311157
 31
0.0
  0
INSERT
  5
   5EB
  8
0
  6
CONTINUOUS
 62
     7
  2
*HATCH391
 10
-119.530731201172
 20
-5.47092533111572
 30
0.0
 50
269.999999844103
  0
INSERT
  5
   5EC
  8
0
  6
CONTINUOUS
 62
     7
  2
*HATCH392
 10
-119.530731201172
 20
-5.47092533111572
 30
0.0
 50
269.999999844103
  0
INSERT
  5
   5ED
  8
0
  6
CONTINUOUS
 62
     7
  2
*HATCH393
 10
-119.530731201172
 20
-5.47092533111572
 30
0.0
 50
269.999999844103
  0
LINE
  5
   5EE
  8
0
  6
CONTINUOUS
 62
   130
 10
-170.778129577637
 20
20.5290899276734
 30
0.0
 11
-170.778129577637
 21
19.5290899276734
 31
0.0
  0
LINE
  5
   5EF
  8
0
  6
CONTINUOUS
 62
   130
 10
-170.778129577637
 20
-25.4709100723266
 30
0.0
 11
-170.778129577637
 21
-26.4709100723266
 31
0.0
  0
LINE
  5
   5F0
  8
0
  6
CONTINUOUS
 62
   130
 10
-170.778129577637
 20
45.0290899276734
 30
0.0
 11
-170.778129577637
 21
22.0290899276734
 31
0.0
  0
LINE
  5
   5F1
  8
0
  6
DASHDOT
 62
   130
 10
-170.778129577637
 20
80.6704284834896
 30
0.0
 11
-170.778129577637
 21
-71.4738063467238
 31
0.0
  0
LINE
  5
   5F2
  8
0
  6
CONTINUOUS
 62
   130
 10
-167.778129577637
 20
-25.4709100723266
 30
0.0
 11
-167.778129577637
 21
-50.9709100723266
 31
0.0
  0
LINE
  5
   5F3
  8
0
  6
CONTINUOUS
 62
   130
 10
-172.278129577637
 20
20.5290899276734
 30
0.0
 11
-170.778129577637
 21
20.5290899276734
 31
0.0
  0
LINE
  5
   5F4
  8
0
  6
CONTINUOUS
 62
   130
 10
-172.278129577637
 20
22.0290899276734
 30
0.0
 11
-170.778129577637
 21
22.0290899276734
 31
0.0
  0
LINE
  5
   5F5
  8
0
  6
CONTINUOUS
 62
   130
 10
-172.278129577637
 20
22.0290899276734
 30
0.0
 11
-172.278129577637
 21
20.5290899276734
 31
0.0
  0
LINE
  5
   5F6
  8
0
  6
CONTINUOUS
 62
   130
 10
-170.778129577637
 20
45.0290899276734
 30
0.0
 11
-167.778129577637
 21
45.0290899276734
 31
0.0
  0
LINE
  5
   5F7
  8
0
  6
CONTINUOUS
 62
   130
 10
-170.778129577637
 20
-50.9709100723266
 30
0.0
 11
-167.778129577637
 21
-50.9709100723266
 31
0.0
  0
LINE
  5
   5F8
  8
0
  6
CONTINUOUS
 62
   130
 10
-170.778129577637
 20
-27.9709100723266
 30
0.0
 11
-170.778129577637
 21
-50.9709100723266
 31
0.0
  0
LINE
  5
   5F9
  8
0
  6
CONTINUOUS
 62
   130
 10
-172.278129577637
 20
-27.9709100723266
 30
0.0
 11
-170.778129577637
 21
-27.9709100723266
 31
0.0
  0
LINE
  5
   5FA
  8
0
  6
CONTINUOUS
 62
   130
 10
-172.278129577637
 20
-26.4709100723266
 30
0.0
 11
-172.278129577637
 21
-27.9709100723266
 31
0.0
  0
LINE
  5
   5FB
  8
0
  6
DOT
 62
   130
 10
-170.778129577637
 20
19.5290899276734
 30
0.0
 11
-170.778129577637
 21
-25.4709100723266
 31
0.0
  0
LINE
  5
   5FC
  8
0
  6
CONTINUOUS
 62
   130
 10
-167.778129577637
 20
45.0290899276734
 30
0.0
 11
-167.778129577637
 21
19.5290899276734
 31
0.0
  0
LINE
  5
   5FD
  8
0
  6
CONTINUOUS
 62
   130
 10
-172.778129577637
 20
30.5290899276734
 30
0.0
 11
-170.778129577637
 21
30.5290899276734
 31
0.0
  0
LINE
  5
   5FE
  8
0
  6
CONTINUOUS
 62
   130
 10
-172.778129577637
 20
27.5290899276734
 30
0.0
 11
-170.778129577637
 21
27.5290899276734
 31
0.0
  0
LINE
  5
   5FF
  8
0
  6
CONTINUOUS
 62
   130
 10
-172.778129577637
 20
31.2790899276734
 30
0.0
 11
-172.778129577637
 21
26.7790899276734
 31
0.0
  0
LINE
  5
   600
  8
0
  6
DOT
 62
   130
 10
-172.778129577637
 20
31.2790899276734
 30
0.0
 11
-174.778129577637
 21
29.9300728939886
 31
0.0
  0
LINE
  5
   601
  8
0
  6
DOT
 62
   130
 10
-174.778129577637
 20
28.1281069613583
 30
0.0
 11
-172.778129577637
 21
26.7790899276734
 31
0.0
  0
LINE
  5
   602
  8
0
  6
DOT
 62
   130
 10
-174.778129577637
 20
29.9300728939885
 30
0.0
 11
-174.778129577637
 21
28.1281069613582
 31
0.0
  0
LINE
  5
   603
  8
0
  6
DOT
 62
   130
 10
-174.778129577637
 20
-35.8718930386418
 30
0.0
 11
-172.778129577637
 21
-37.2209100723266
 31
0.0
  0
LINE
  5
   604
  8
0
  6
DOT
 62
   130
 10
-174.778129577637
 20
-34.0699271060114
 30
0.0
 11
-174.778129577637
 21
-35.8718930386417
 31
0.0
  0
LINE
  5
   605
  8
0
  6
DOT
 62
   130
 10
-172.778129577637
 20
-32.7209100723266
 30
0.0
 11
-174.778129577637
 21
-34.0699271060115
 31
0.0
  0
LINE
  5
   606
  8
0
  6
CONTINUOUS
 62
   130
 10
-172.778129577637
 20
-32.7209100723266
 30
0.0
 11
-172.778129577637
 21
-37.2209100723266
 31
0.0
  0
LINE
  5
   607
  8
0
  6
CONTINUOUS
 62
   130
 10
-172.778129577637
 20
-36.4709100723266
 30
0.0
 11
-170.778129577637
 21
-36.4709100723266
 31
0.0
  0
LINE
  5
   608
  8
0
  6
CONTINUOUS
 62
   130
 10
-172.778129577637
 20
-33.4709100723266
 30
0.0
 11
-170.778129577637
 21
-33.4709100723266
 31
0.0
  0
LINE
  5
   609
  8
0
  6
CONTINUOUS
 62
   130
 10
-170.778129577637
 20
20.5290899276734
 30
0.0
 11
-167.778129577637
 21
20.5290899276734
 31
0.0
  0
LINE
  5
   60A
  8
0
  6
CONTINUOUS
 62
   130
 10
-172.278129577637
 20
-26.4709100723266
 30
0.0
 11
-167.778129577637
 21
-26.4709100723266
 31
0.0
  0
LINE
  5
   60B
  8
0
  6
DASHDOT
 62
   130
 10
-172.278129577637
 20
80.6704284834896
 30
0.0
 11
-172.278129577637
 21
-72.0060781738213
 31
0.0
  0
INSERT
  5
   60C
  8
0
  6
CONTINUOUS
 62
     7
  2
*HATCH394
 10
-119.530731201172
 20
-5.47092533111572
 30
0.0
 50
269.999999844103
  0
INSERT
  5
   60D
  8
0
  6
CONTINUOUS
 62
     7
  2
*HATCH395
 10
-119.530731201172
 20
-5.47092533111572
 30
0.0
 50
269.999999844103
  0
CIRCLE
  5
   60E
  8
0
  6
CONTINUOUS
 62
   130
 10
-159.44350947846
 20
92.5085591573973
 30
0.0
 40
0.23
  0
CIRCLE
  5
   60F
  8
0
  6
CONTINUOUS
 62
   130
 10
-159.608848608301
 20
91.1858461186731
 30
0.0
 40
0.23
  0
LINE
  5
   610
  8
0
  6
CONTINUOUS
 62
   130
 10
-176.778136968613
 20
54.5290746688843
 30
0.0
 11
-172.778136968613
 21
54.5290746688843
 31
0.0
  0
LINE
  5
   611
  8
0
  6
CONTINUOUS
 62
   130
 10
-172.778136968613
 20
70.0290746688843
 30
0.0
 11
-172.778136968613
 21
54.5290746688843
 31
0.0
  0
LINE
  5
   612
  8
0
  6
CONTINUOUS
 62
   130
 10
-242.778123410543
 20
71.0290746688843
 30
0.0
 11
-173.778136968613
 21
71.0290746688843
 31
0.0
  0
ARC
  5
   613
  8
0
  6
CONTINUOUS
 62
   130
 10
-173.778136968613
 20
70.0290746688843
 30
0.0
 40
1.0
 50
359.999999844103
 51
449.999999844103
  0
LINE
  5
   614
  8
0
  6
CONTINUOUS
 62
   130
 10
-242.778123410543
 20
67.0290746688843
 30
0.0
 11
-176.778136968613
 21
67.0290746688843
 31
0.0
  0
LINE
  5
   615
  8
0
  6
CONTINUOUS
 62
   130
 10
-176.778136968613
 20
67.0290746688843
 30
0.0
 11
-176.778136968613
 21
54.5290746688843
 31
0.0
  0
LINE
  5
   616
  8
0
  6
CONTINUOUS
 62
   130
 10
-172.778136968613
 20
70.5290746688843
 30
0.0
 11
-169.278136968613
 21
70.5290746688843
 31
0.0
  0
LINE
  5
   617
  8
0
  6
CONTINUOUS
 62
   130
 10
-172.778136968613
 20
65.5290746688843
 30
0.0
 11
-169.278136968613
 21
65.5290746688843
 31
0.0
  0
LINE
  5
   618
  8
0
  6
CONTINUOUS
 62
   130
 10
-168.778136968613
 20
70.0290746688843
 30
0.0
 11
-168.778136968613
 21
66.0290746688843
 31
0.0
  0
CIRCLE
  5
   619
  8
0
  6
CONTINUOUS
 62
   130
 10
-170.778136968613
 20
68.0290746688843
 30
0.0
 40
0.75
  0
LINE
  5
   61A
  8
0
  6
CONTINUOUS
 62
   130
 10
-169.278136968613
 20
70.5290746688843
 30
0.0
 11
-168.778136968613
 21
70.0290746688843
 31
0.0
  0
LINE
  5
   61B
  8
0
  6
CONTINUOUS
 62
   130
 10
-168.778136968613
 20
66.0290746688843
 30
0.0
 11
-169.278136968613
 21
65.5290746688843
 31
0.0
  0
LINE
  5
   61C
  8
0
  6
CONTINUOUS
 62
   130
 10
-169.278136968613
 20
70.5290746688843
 30
0.0
 11
-169.278136968613
 21
65.5290746688843
 31
0.0
  0
LINE
  5
   61D
  8
0
  6
DASHDOT
 62
   130
 10
-170.778129577637
 20
80.6704284834896
 30
0.0
 11
-170.778129577637
 21
-71.4738063467238
 31
0.0
  0
LINE
  5
   61E
  8
0
  6
DASHDOT
 62
   130
 10
-172.278129577637
 20
80.6704284834896
 30
0.0
 11
-172.278129577637
 21
-72.0060781738213
 31
0.0
  0
LINE
  5
   61F
  8
0
  6
CONTINUOUS
 62
   130
 10
-242.778123410543
 20
-52.9709253311157
 30
0.0
 11
-173.778136968613
 21
-52.9709253311157
 31
0.0
  0
LINE
  5
   620
  8
0
  6
CONTINUOUS
 62
   130
 10
-242.778123410543
 20
-48.9709253311157
 30
0.0
 11
-176.778136968613
 21
-48.9709253311157
 31
0.0
  0
LINE
  5
   621
  8
0
  6
CONTINUOUS
 62
   130
 10
-176.778136968613
 20
-36.4709253311157
 30
0.0
 11
-176.778136968613
 21
-48.9709253311157
 31
0.0
  0
LINE
  5
   622
  8
0
  6
CONTINUOUS
 62
   130
 10
-172.778136968613
 20
-36.4709253311157
 30
0.0
 11
-172.778136968613
 21
-51.9709253311157
 31
0.0
  0
LINE
  5
   623
  8
0
  6
CONTINUOUS
 62
   130
 10
-172.778136968613
 20
-52.4709253311157
 30
0.0
 11
-169.278136968613
 21
-52.4709253311157
 31
0.0
  0
LINE
  5
   624
  8
0
  6
CONTINUOUS
 62
   130
 10
-169.278136968613
 20
-47.4709253311157
 30
0.0
 11
-169.278136968613
 21
-52.4709253311157
 31
0.0
  0
LINE
  5
   625
  8
0
  6
CONTINUOUS
 62
   130
 10
-176.778136968613
 20
-36.4709253311157
 30
0.0
 11
-172.778136968613
 21
-36.4709253311157
 31
0.0
  0
LINE
  5
   626
  8
0
  6
CONTINUOUS
 62
   130
 10
-172.778136968613
 20
-47.4709253311157
 30
0.0
 11
-169.278136968613
 21
-47.4709253311157
 31
0.0
  0
LINE
  5
   627
  8
0
  6
CONTINUOUS
 62
   130
 10
-169.278136968613
 20
-47.4709253311157
 30
0.0
 11
-168.778136968613
 21
-47.9709253311157
 31
0.0
  0
LINE
  5
   628
  8
0
  6
CONTINUOUS
 62
   130
 10
-169.278136968613
 20
-47.4709253311157
 30
0.0
 11
-169.278136968613
 21
-52.4709253311157
 31
0.0
  0
LINE
  5
   629
  8
0
  6
CONTINUOUS
 62
   130
 10
-168.778136968613
 20
-47.9709253311157
 30
0.0
 11
-168.778136968613
 21
-51.9709253311157
 31
0.0
  0
LINE
  5
   62A
  8
0
  6
CONTINUOUS
 62
   130
 10
-168.778136968613
 20
-51.9709253311157
 30
0.0
 11
-169.278136968613
 21
-52.4709253311157
 31
0.0
  0
ARC
  5
   62B
  8
0
  6
CONTINUOUS
 62
   130
 10
-173.778136968613
 20
-51.9709253311157
 30
0.0
 40
1.0
 50
269.999999844103
 51
359.999999844103
  0
CIRCLE
  5
   62C
  8
0
  6
CONTINUOUS
 62
   130
 10
-220.455323581734
 20
102.088729789828
 30
0.0
 40
1.5
  0
CIRCLE
  5
   62D
  8
0
  6
CONTINUOUS
 62
   130
 10
-210.712218074154
 20
92.2282374689032
 30
0.0
 40
1.5
  0
INSERT
  5
   62E
  8
0
  6
CONTINUOUS
 62
     7
  2
*HATCH396
 10
-119.530731201172
 20
-5.47092533111572
 30
0.0
 50
269.999999844103
  0
INSERT
  5
   62F
  8
0
  6
CONTINUOUS
 62
     7
  2
*HATCH397
 10
-119.530731201172
 20
-5.47092533111572
 30
0.0
 50
269.999999844103
  0
INSERT
  5
   630
  8
0
  6
CONTINUOUS
 62
     7
  2
*UDIM791
 10
0.0
 20
0.0
 30
0.0
  0
INSERT
  5
   631
  8
0
  6
CONTINUOUS
 62
     7
  2
*UDIM792
 10
0.0
 20
0.0
 30
0.0
  0
TEXT
  5
   632
  8
0
  6
CONTINUOUS
 62
     2
 10
-262.46216524034
 20
-4.46717213995059
 30
0.0
 40
3.00000002980232
  1
X
 50
359.999999844103
 41
0.916666674282816
 72
     2
 11
-260.26216515878
 21
-2.96717213102438
 31
0.0
 73
     2
  0
TEXT
  5
   633
  8
0
  6
CONTINUOUS
 62
     2
 10
-155.320247830566
 20
-4.46717204378553
 30
0.0
 40
3.00000002980232
  1
X
 50
359.999999844103
 41
0.916666674282816
 11
-155.320247826492
 21
-2.96717202888437
 31
0.0
 73
     2
  0
INSERT
  5
   634
  8
0
  6
CONTINUOUS
 62
     3
  2
*UDIM793
 10
0.0
 20
0.0
 30
0.0
  0
INSERT
  5
   635
  8
0
  6
CONTINUOUS
 62
     3
  2
*UDIM794
 10
0.0
 20
0.0
 30
0.0
  0
INSERT
  5
   636
  8
0
  6
CONTINUOUS
 62
     3
  2
*UDIM795
 10
0.0
 20
0.0
 30
0.0
  0
TEXT
  5
   637
  8
0
  6
CONTINUOUS
 62
     2
 10
-208.34817886692
 20
-150.185488266418
 30
0.0
 40
2.50000005960464
  1
M3727 95-01-18
 50
359.999999844103
 41
0.64999958527089
 11
-208.348178863525
 21
-148.935488236615
 31
0.0
 73
     2
  0
TEXT
  5
   638
  8
0
  6
CONTINUOUS
 62
     2
 10
-118.816987236327
 20
-133.858355557313
 30
0.0
 40
2.00000008940697
  1
4POLE LOW VOLTAGE M.C.C.B SERIES ISOMAX
 50
359.999999844103
 41
0.625
 72
     1
 11
-94.5669861495515
 21
-132.85835557847
 31
0.0
 73
     2
  0
TEXT
  5
   639
  8
0
  6
CONTINUOUS
 62
     2
 10
-112.566986825796
 20
-136.858355574287
 30
0.0
 40
2.00000008940697
  1
FIXED VERSION FRONT TERMINALS
 50
359.999999844103
 41
0.625
 72
     1
 11
-94.5669860184173
 21
-135.85835557847
 31
0.0
 73
     2
  0
TEXT
  5
   63A
  8
0
  6
CONTINUOUS
 62
     2
 10
-96.9636168026436
 20
-152.628130977274
 30
0.0
 40
3.00000002980232
  1
S2
 50
359.999999844103
 41
0.916666604744064
 72
     1
 11
-94.4886169433594
 21
-151.128130969095
 31
0.0
 73
     2
  0
TEXT
  5
   63B
  8
0
  6
CONTINUOUS
 62
     2
 10
-219.814914706085
 20
-133.250094317459
 30
0.0
 40
2.00000008940697
  1
3/11/92
 50
359.999999844103
 41
0.625
 11
-219.814914703369
 21
-132.250094272756
 31
0.0
 73
     2
  0
TEXT
  5
   63C
  8
0
  6
CONTINUOUS
 62
     2
 10
-219.814914706085
 20
-137.250094317459
 30
0.0
 40
2.00000008940697
  1
MOSTOSI
 50
359.999999844103
 41
0.625
 11
-219.814914703369
 21
-136.250094272756
 31
0.0
 73
     2
  0
TEXT
  5
   63D
  8
0
  6
CONTINUOUS
 62
     2
 10
-116.876512051458
 20
-162.018923814385
 30
0.0
 40
5.00000011920929
  1
601855/201
 50
359.999999844103
 41
0.916666496197386
 72
     1
 11
-94.4181823730469
 21
-159.518923815775
 31
0.0
 73
     2
  0
TEXT
  5
   63E
  8
0
  6
CONTINUOUS
 62
     2
 10
-58.5060282795403
 20
-163.074267464429
 30
0.0
 40
2.50000005960464
  1
1/1
 50
359.999999844103
 41
0.954999929332734
 72
     1
 11
-55.1635284423828
 21
-161.824267443704
 31
0.0
 73
     2
  0
TEXT
  5
   63F
  8
0
  6
CONTINUOUS
 62
     2
 10
-216.464172431564
 20
102.823501308159
 30
0.0
 40
2.00000008940697
  1
75mm.CON VITI SIGILLABILI
 50
359.999999844103
 41
0.625
 11
-216.464172428848
 21
103.823501352863
 31
0.0
 73
     2
  0
TEXT
  5
   640
  8
0
  6
CONTINUOUS
 62
     2
 10
-216.46417230043
 20
99.823501279142
 30
0.0
 40
2.00000008940697
  1
75mm.WITH SCREWS TO SEAL
 50
359.999999844103
 41
0.625
 11
-216.464172297714
 21
100.823501323846
 31
0.0
 73
     2
  0
INSERT
  5
   641
  8
0
  6
CONTINUOUS
 62
     7
  2
*UDIM796
 10
0.0
 20
0.0
 30
0.0
  0
INSERT
  5
   642
  8
0
  6
CONTINUOUS
 62
     7
  2
*UDIM797
 10
0.0
 20
0.0
 30
0.0
  0
INSERT
  5
   643
  8
0
  6
CONTINUOUS
 62
     3
  2
*UDIM798
 10
0.0
 20
0.0
 30
0.0
  0
INSERT
  5
   644
  8
0
  6
CONTINUOUS
 62
     3
  2
*UDIM799
 10
0.0
 20
0.0
 30
0.0
  0
INSERT
  5
   645
  8
0
  6
CONTINUOUS
 62
     3
  2
*UDIM800
 10
0.0
 20
0.0
 30
0.0
  0
TEXT
  5
   646
  8
0
  6
CONTINUOUS
 62
     2
 10
-116.059708542487
 20
-142.399971961559
 30
0.0
 40
2.00000008940697
  1
INTERR.AUTOMATICO SERIE ISOMAX
 50
359.999999844103
 41
0.625
 72
     1
 11
-97.4347077071687
 21
-141.399971967439
 31
0.0
 73
     2
  0
TEXT
  5
   647
  8
0
  6
CONTINUOUS
 62
     2
 10
-133.559709193664
 20
-145.399971914031
 30
0.0
 40
2.00000008940697
  1
TETRAP.ESECUZIONE FISSA TERMINALI ANTERIORI CON COPRITERM.
 50
359.999999844103
 41
0.625
 72
     1
 11
-97.4347075760345
 21
-144.399971967439
 31
0.0
 73
     2
  0
LINE
  5
   648
  8
0
  6
DASHDOT
 62
   130
 10
-143.592634714214
 20
73.2766494750977
 30
0.0
 11
-64.835646658479
 21
73.2766494750977
 31
0.0
  0
LINE
  5
   649
  8
0
  6
DASHDOT
 62
   130
 10
-96.2972259521484
 20
93.5834358702721
 30
0.0
 11
-96.2972259521484
 21
53.0759905801597
 31
0.0
  0
CIRCLE
  5
   64A
  8
0
  6
CONTINUOUS
 62
   130
 10
-72.3222259521484
 20
89.2766494750977
 30
0.0
 40
1.0
  0
CIRCLE
  5
   64B
  8
0
  6
CONTINUOUS
 62
   130
 10
-135.072225952148
 20
89.2766494750977
 30
0.0
 40
1.0
  0
CIRCLE
  5
   64C
  8
0
  6
CONTINUOUS
 62
   130
 10
-135.072225952148
 20
57.2766494750977
 30
0.0
 40
1.0
  0
CIRCLE
  5
   64D
  8
0
  6
CONTINUOUS
 62
   130
 10
-72.3222259521484
 20
57.2766494750977
 30
0.0
 40
1.0
  0
LINE
  5
   64E
  8
0
  6
CONTINUOUS
 62
   130
 10
-71.7972259521484
 20
85.7766494750977
 30
0.0
 11
-71.7972259521484
 21
60.7766494750977
 31
0.0
  0
LINE
  5
   64F
  8
0
  6
CONTINUOUS
 62
   130
 10
-135.797225952148
 20
85.7766494750977
 30
0.0
 11
-135.797225952148
 21
60.7766494750977
 31
0.0
  0
LINE
  5
   650
  8
0
  6
CONTINUOUS
 62
   130
 10
-135.047225952148
 20
86.5266494750977
 30
0.0
 11
-72.5472259521484
 21
86.5266494750977
 31
0.0
  0
LINE
  5
   651
  8
0
  6
CONTINUOUS
 62
   130
 10
-135.047225952148
 20
60.0266494750977
 30
0.0
 11
-72.5472259521484
 21
60.0266494750977
 31
0.0
  0
ARC
  5
   652
  8
0
  6
CONTINUOUS
 62
   130
 10
-72.5472259521484
 20
85.7766494750977
 30
0.0
 40
0.75
 50
359.999999844103
 51
449.999999844103
  0
ARC
  5
   653
  8
0
  6
CONTINUOUS
 62
   130
 10
-72.5472259521484
 20
60.7766494750977
 30
0.0
 40
0.75
 50
269.999999844103
 51
359.999999844103
  0
ARC
  5
   654
  8
0
  6
CONTINUOUS
 62
   130
 10
-135.047225952148
 20
60.7766494750977
 30
0.0
 40
0.75
 50
539.999999844103
 51
629.999999844103
  0
ARC
  5
   655
  8
0
  6
CONTINUOUS
 62
   130
 10
-135.047225952148
 20
85.7766494750977
 30
0.0
 40
0.75
 50
449.999999844103
 51
539.999999844103
  0
LINE
  5
   656
  8
0
  6
CONTINUOUS
 62
   130
 10
-138.638729175406
 20
92.0669341747188
 30
0.0
 11
-68.6100508785228
 21
92.0669341747188
 31
0.0
  0
LINE
  5
   657
  8
0
  6
CONTINUOUS
 62
   130
 10
-138.638729175406
 20
54.2217918612444
 30
0.0
 11
-68.6100508785228
 21
54.2217918612444
 31
0.0
  0
LINE
  5
   658
  8
0
  6
CONTINUOUS
 62
   130
 10
-138.638729175406
 20
92.0669341747188
 30
0.0
 11
-138.638729175406
 21
54.2217918612444
 31
0.0
  0
LINE
  5
   659
  8
0
  6
CONTINUOUS
 62
   130
 10
-68.6100508785228
 20
92.0669341747188
 30
0.0
 11
-68.6100508785228
 21
54.2217918612444
 31
0.0
  0
LINE
  5
   65A
  8
0
  6
DASHDOT
 62
     7
 10
-135.072225952148
 20
93.7766494750977
 30
0.0
 11
-135.072225952148
 21
84.7766494750977
 31
0.0
  0
LINE
  5
   65B
  8
0
  6
DASHDOT
 62
     7
 10
-139.572225952148
 20
89.2766494750977
 30
0.0
 11
-130.572225952148
 21
89.2766494750977
 31
0.0
  0
LINE
  5
   65C
  8
0
  6
DASHDOT
 62
     7
 10
-72.3222259521484
 20
93.7766494750977
 30
0.0
 11
-72.3222259521484
 21
84.7766494750977
 31
0.0
  0
LINE
  5
   65D
  8
0
  6
DASHDOT
 62
     7
 10
-76.8222259521484
 20
89.2766494750977
 30
0.0
 11
-67.8222259521484
 21
89.2766494750977
 31
0.0
  0
LINE
  5
   65E
  8
0
  6
DASHDOT
 62
     7
 10
-72.3222259521484
 20
61.7766494750977
 30
0.0
 11
-72.3222259521484
 21
52.7766494750977
 31
0.0
  0
LINE
  5
   65F
  8
0
  6
DASHDOT
 62
     7
 10
-76.8222259521484
 20
57.2766494750977
 30
0.0
 11
-67.8222259521484
 21
57.2766494750977
 31
0.0
  0
LINE
  5
   660
  8
0
  6
DASHDOT
 62
     7
 10
-135.072225952148
 20
61.7766494750977
 30
0.0
 11
-135.072225952148
 21
52.7766494750977
 31
0.0
  0
LINE
  5
   661
  8
0
  6
DASHDOT
 62
     7
 10
-139.572225952148
 20
57.2766494750977
 30
0.0
 11
-130.572225952148
 21
57.2766494750977
 31
0.0
  0
INSERT
  5
   662
  8
0
  6
CONTINUOUS
 62
     3
  2
*UDIM801
 10
0.0
 20
0.0
 30
0.0
  0
INSERT
  5
   663
  8
0
  6
CONTINUOUS
 62
     3
  2
*UDIM802
 10
0.0
 20
0.0
 30
0.0
  0
INSERT
  5
   664
  8
0
  6
CONTINUOUS
 62
     3
  2
*UDIM803
 10
0.0
 20
0.0
 30
0.0
  0
INSERT
  5
   665
  8
0
  6
CONTINUOUS
 62
     3
  2
*UDIM804
 10
0.0
 20
0.0
 30
0.0
  0
INSERT
  5
   666
  8
0
  6
CONTINUOUS
 62
     3
  2
*UDIM805
 10
0.0
 20
0.0
 30
0.0
  0
INSERT
  5
   667
  8
0
  6
CONTINUOUS
 62
     3
  2
*UDIM806
 10
0.0
 20
0.0
 30
0.0
  0
TEXT
  5
   668
  8
0
  6
CONTINUOUS
 62
     2
 10
-97.4451819966925
 20
101.907345179963
 30
0.0
 40
3.00000002980232
  1
Y
 50
359.999999844103
 41
0.916666674282816
 72
     1
 11
-96.3451819579495
 21
101.907345176976
 31
0.0
  0
TEXT
  5
   669
  8
0
  6
CONTINUOUS
 62
     2
 10
-97.3103817148425
 20
39.5615787975086
 30
0.0
 40
3.00000002980232
  1
Y
 50
359.999999844103
 41
0.916666674282816
 72
     1
 11
-96.2103816679519
 21
42.5615788243235
 31
0.0
 73
     3
  0
TEXT
  5
   66A
  8
0
  6
CONTINUOUS
 62
     2
 10
-147.241736415969
 20
71.5938129014669
 30
0.0
 40
3.00000002980232
  1
X
 50
359.999999844103
 41
0.916666674282816
 72
     2
 11
-145.041736334409
 21
73.0938129103932
 31
0.0
 73
     2
  0
TEXT
  5
   66B
  8
0
  6
CONTINUOUS
 62
     2
 10
-63.7235454191471
 20
71.7286131483479
 30
0.0
 40
3.00000002980232
  1
X
 50
359.999999844103
 41
0.916666674282816
 11
-63.7235454150733
 21
73.228613163249
 31
0.0
 73
     2
  0
INSERT
  5
   66C
  8
0
  6
CONTINUOUS
 62
     3
  2
*UDIM807
 10
0.0
 20
0.0
 30
0.0
  0
INSERT
  5
   66D
  8
0
  6
CONTINUOUS
 62
     3
  2
*UDIM808
 10
0.0
 20
0.0
 30
0.0
  0
ENDSEC
  0
EOF
