ISO-10303-21;
HEADER;
FILE_DESCRIPTION(('CATIA V5 STEP'),'2;1');

FILE_NAME('C:\\Users\\ITLUGRI2\\Desktop\\Modelli semplificati Emax\\E4.2\\1SDH001336R0173_E4.2_III_F_FLOOR_FIXING_EXTERNAL_UL.stp','2014-09-20T08:58:13+00:00',('none'),('none'),'CATIA Version 5 Release 20 SP 6 (IN-10)','CATIA V5 STEP AP214','none');

FILE_SCHEMA(('AUTOMOTIVE_DESIGN { 1 0 10303 214 1 1 1 1 }'));

ENDSEC;
/* file written by CATIA V5R20 */
DATA;
#5=PRODUCT('E4.2_III_F_FLOOR_FIXING_EXTERNAL','','',(#2)) ;
#2=PRODUCT_CONTEXT(' ',#1,'mechanical') ;
#1=APPLICATION_CONTEXT('automotive design') ;
#10=PRODUCT_DEFINITION('',' ',#6,#3) ;
#3=PRODUCT_DEFINITION_CONTEXT('part definition',#1,' ') ;
#11=PRODUCT_DEFINITION_SHAPE(' ',' ',#10) ;
#442=MECHANICAL_DESIGN_GEOMETRIC_PRESENTATION_REPRESENTATION(' ',(#30),#17) ;
#20=SHAPE_REPRESENTATION(' ',(#19),#17) ;
#19=AXIS2_PLACEMENT_3D(' ',#18,$,$) ;
#35=AXIS2_PLACEMENT_3D('Cylinder Axis2P3D',#32,#33,#34) ;
#39=AXIS2_PLACEMENT_3D('Circle Axis2P3D',#37,#38,$) ;
#55=AXIS2_PLACEMENT_3D('Circle Axis2P3D',#53,#54,$) ;
#74=AXIS2_PLACEMENT_3D('Circle Axis2P3D',#72,#73,$) ;
#79=AXIS2_PLACEMENT_3D('Circle Axis2P3D',#77,#78,$) ;
#92=AXIS2_PLACEMENT_3D('Plane Axis2P3D',#89,#90,#91) ;
#134=AXIS2_PLACEMENT_3D('Circle Axis2P3D',#132,#133,$) ;
#143=AXIS2_PLACEMENT_3D('Circle Axis2P3D',#141,#142,$) ;
#152=AXIS2_PLACEMENT_3D('Circle Axis2P3D',#150,#151,$) ;
#161=AXIS2_PLACEMENT_3D('Circle Axis2P3D',#159,#160,$) ;
#170=AXIS2_PLACEMENT_3D('Circle Axis2P3D',#168,#169,$) ;
#179=AXIS2_PLACEMENT_3D('Circle Axis2P3D',#177,#178,$) ;
#190=AXIS2_PLACEMENT_3D('Plane Axis2P3D',#187,#188,#189) ;
#221=AXIS2_PLACEMENT_3D('Plane Axis2P3D',#218,#219,#220) ;
#245=AXIS2_PLACEMENT_3D('Plane Axis2P3D',#242,#243,#244) ;
#269=AXIS2_PLACEMENT_3D('Plane Axis2P3D',#266,#267,#268) ;
#286=AXIS2_PLACEMENT_3D('Cylinder Axis2P3D',#283,#284,#285) ;
#290=AXIS2_PLACEMENT_3D('Circle Axis2P3D',#288,#289,$) ;
#316=AXIS2_PLACEMENT_3D('Circle Axis2P3D',#314,#315,$) ;
#329=AXIS2_PLACEMENT_3D('Cylinder Axis2P3D',#326,#327,#328) ;
#333=AXIS2_PLACEMENT_3D('Circle Axis2P3D',#331,#332,$) ;
#359=AXIS2_PLACEMENT_3D('Circle Axis2P3D',#357,#358,$) ;
#372=AXIS2_PLACEMENT_3D('Cylinder Axis2P3D',#369,#370,#371) ;
#376=AXIS2_PLACEMENT_3D('Circle Axis2P3D',#374,#375,$) ;
#402=AXIS2_PLACEMENT_3D('Circle Axis2P3D',#400,#401,$) ;
#415=AXIS2_PLACEMENT_3D('Plane Axis2P3D',#412,#413,#414) ;
#18=CARTESIAN_POINT(' ',(0.,0.,0.)) ;
#32=CARTESIAN_POINT('Axis2P3D Location',(-400.,173.,-15.9)) ;
#37=CARTESIAN_POINT('Axis2P3D Location',(-400.,173.,-16.)) ;
#41=CARTESIAN_POINT('Vertex',(-404.60730845,170.483015922,-16.)) ;
#43=CARTESIAN_POINT('Vertex',(-395.39269155,175.516984078,-16.)) ;
#46=CARTESIAN_POINT('Line Origine',(-404.60730845,170.483015922,-11.1550000001)) ;
#50=CARTESIAN_POINT('Vertex',(-404.60730845,170.483015922,-6.)) ;
#53=CARTESIAN_POINT('Axis2P3D Location',(-400.,173.,-6.)) ;
#57=CARTESIAN_POINT('Vertex',(-395.39269155,175.516984078,-6.)) ;
#60=CARTESIAN_POINT('Line Origine',(-395.39269155,175.516984078,-11.1550000001)) ;
#72=CARTESIAN_POINT('Axis2P3D Location',(-400.,173.,-16.)) ;
#77=CARTESIAN_POINT('Axis2P3D Location',(-400.,173.,-6.)) ;
#89=CARTESIAN_POINT('Axis2P3D Location',(-192.,98.,-6.)) ;
#94=CARTESIAN_POINT('Line Origine',(-442.,98.,-6.)) ;
#98=CARTESIAN_POINT('Vertex',(-442.,198.,-6.)) ;
#100=CARTESIAN_POINT('Vertex',(-442.,-2.,-6.)) ;
#103=CARTESIAN_POINT('Line Origine',(-192.,-2.,-6.)) ;
#107=CARTESIAN_POINT('Vertex',(58.,-2.,-6.)) ;
#110=CARTESIAN_POINT('Line Origine',(58.,98.,-6.)) ;
#114=CARTESIAN_POINT('Vertex',(58.,198.,-6.)) ;
#117=CARTESIAN_POINT('Line Origine',(-192.,198.,-6.)) ;
#132=CARTESIAN_POINT('Axis2P3D Location',(-400.,23.,-6.)) ;
#136=CARTESIAN_POINT('Vertex',(-395.39269155,25.5169840777,-6.)) ;
#138=CARTESIAN_POINT('Vertex',(-404.60730845,20.4830159223,-6.)) ;
#141=CARTESIAN_POINT('Axis2P3D Location',(-400.,23.,-6.)) ;
#150=CARTESIAN_POINT('Axis2P3D Location',(16.,173.,-6.)) ;
#154=CARTESIAN_POINT('Vertex',(20.6073084499,175.516984078,-6.)) ;
#156=CARTESIAN_POINT('Vertex',(11.3926915501,170.483015922,-6.)) ;
#159=CARTESIAN_POINT('Axis2P3D Location',(16.,173.,-6.)) ;
#168=CARTESIAN_POINT('Axis2P3D Location',(16.,23.,-6.)) ;
#172=CARTESIAN_POINT('Vertex',(20.6073084499,25.5169840777,-6.)) ;
#174=CARTESIAN_POINT('Vertex',(11.3926915501,20.4830159223,-6.)) ;
#177=CARTESIAN_POINT('Axis2P3D Location',(16.,23.,-6.)) ;
#187=CARTESIAN_POINT('Axis2P3D Location',(-442.,198.,-6.)) ;
#192=CARTESIAN_POINT('Line Origine',(-442.,98.,-16.)) ;
#196=CARTESIAN_POINT('Vertex',(-442.,198.,-16.)) ;
#198=CARTESIAN_POINT('Vertex',(-442.,-2.,-16.)) ;
#201=CARTESIAN_POINT('Line Origine',(-442.,-2.,-11.)) ;
#206=CARTESIAN_POINT('Line Origine',(-442.,198.,-11.)) ;
#218=CARTESIAN_POINT('Axis2P3D Location',(58.,-2.,-6.)) ;
#223=CARTESIAN_POINT('Line Origine',(-192.,-2.,-16.)) ;
#227=CARTESIAN_POINT('Vertex',(58.,-2.,-16.)) ;
#230=CARTESIAN_POINT('Line Origine',(58.,-2.,-11.)) ;
#242=CARTESIAN_POINT('Axis2P3D Location',(58.,-2.,-6.)) ;
#247=CARTESIAN_POINT('Line Origine',(58.,98.,-16.)) ;
#251=CARTESIAN_POINT('Vertex',(58.,198.,-16.)) ;
#254=CARTESIAN_POINT('Line Origine',(58.,198.,-11.)) ;
#266=CARTESIAN_POINT('Axis2P3D Location',(-442.,198.,-6.)) ;
#271=CARTESIAN_POINT('Line Origine',(-192.,198.,-16.)) ;
#283=CARTESIAN_POINT('Axis2P3D Location',(16.,23.,-15.9)) ;
#288=CARTESIAN_POINT('Axis2P3D Location',(16.,23.,-16.)) ;
#292=CARTESIAN_POINT('Vertex',(11.3926915501,20.4830159223,-16.)) ;
#294=CARTESIAN_POINT('Vertex',(20.6073084499,25.5169840777,-16.)) ;
#297=CARTESIAN_POINT('Line Origine',(11.3926915501,20.4830159223,-11.1550000001)) ;
#302=CARTESIAN_POINT('Line Origine',(20.6073084499,25.5169840777,-11.1550000001)) ;
#314=CARTESIAN_POINT('Axis2P3D Location',(16.,23.,-16.)) ;
#326=CARTESIAN_POINT('Axis2P3D Location',(16.,173.,-15.9)) ;
#331=CARTESIAN_POINT('Axis2P3D Location',(16.,173.,-16.)) ;
#335=CARTESIAN_POINT('Vertex',(11.3926915501,170.483015922,-16.)) ;
#337=CARTESIAN_POINT('Vertex',(20.6073084499,175.516984078,-16.)) ;
#340=CARTESIAN_POINT('Line Origine',(11.3926915501,170.483015922,-11.1550000001)) ;
#345=CARTESIAN_POINT('Line Origine',(20.6073084499,175.516984078,-11.1550000001)) ;
#357=CARTESIAN_POINT('Axis2P3D Location',(16.,173.,-16.)) ;
#369=CARTESIAN_POINT('Axis2P3D Location',(-400.,23.,-15.9)) ;
#374=CARTESIAN_POINT('Axis2P3D Location',(-400.,23.,-16.)) ;
#378=CARTESIAN_POINT('Vertex',(-404.60730845,20.4830159223,-16.)) ;
#380=CARTESIAN_POINT('Vertex',(-395.39269155,25.5169840777,-16.)) ;
#383=CARTESIAN_POINT('Line Origine',(-404.60730845,20.4830159223,-11.1550000001)) ;
#388=CARTESIAN_POINT('Line Origine',(-395.39269155,25.5169840777,-11.1550000001)) ;
#400=CARTESIAN_POINT('Axis2P3D Location',(-400.,23.,-16.)) ;
#412=CARTESIAN_POINT('Axis2P3D Location',(-192.,98.,-16.)) ;
#33=DIRECTION('Axis2P3D Direction',(0.,0.,1.)) ;
#34=DIRECTION('Axis2P3D XDirection',(0.87758256189,0.479425538604,0.)) ;
#38=DIRECTION('Axis2P3D Direction',(0.,0.,1.)) ;
#47=DIRECTION('Vector Direction',(0.,0.,1.)) ;
#54=DIRECTION('Axis2P3D Direction',(0.,0.,1.)) ;
#61=DIRECTION('Vector Direction',(0.,0.,1.)) ;
#73=DIRECTION('Axis2P3D Direction',(0.,0.,1.)) ;
#78=DIRECTION('Axis2P3D Direction',(0.,0.,1.)) ;
#90=DIRECTION('Axis2P3D Direction',(0.,0.,1.)) ;
#91=DIRECTION('Axis2P3D XDirection',(1.,0.,0.)) ;
#95=DIRECTION('Vector Direction',(0.,-1.,0.)) ;
#104=DIRECTION('Vector Direction',(-1.,0.,0.)) ;
#111=DIRECTION('Vector Direction',(0.,1.,0.)) ;
#118=DIRECTION('Vector Direction',(1.,0.,0.)) ;
#133=DIRECTION('Axis2P3D Direction',(0.,0.,1.)) ;
#142=DIRECTION('Axis2P3D Direction',(0.,0.,1.)) ;
#151=DIRECTION('Axis2P3D Direction',(0.,0.,1.)) ;
#160=DIRECTION('Axis2P3D Direction',(0.,0.,1.)) ;
#169=DIRECTION('Axis2P3D Direction',(0.,0.,1.)) ;
#178=DIRECTION('Axis2P3D Direction',(0.,0.,1.)) ;
#188=DIRECTION('Axis2P3D Direction',(1.,0.,0.)) ;
#189=DIRECTION('Axis2P3D XDirection',(0.,-1.,0.)) ;
#193=DIRECTION('Vector Direction',(0.,-1.,0.)) ;
#202=DIRECTION('Vector Direction',(0.,0.,-1.)) ;
#207=DIRECTION('Vector Direction',(0.,0.,-1.)) ;
#219=DIRECTION('Axis2P3D Direction',(-0.,-1.,-0.)) ;
#220=DIRECTION('Axis2P3D XDirection',(-1.,0.,0.)) ;
#224=DIRECTION('Vector Direction',(-1.,0.,0.)) ;
#231=DIRECTION('Vector Direction',(0.,0.,-1.)) ;
#243=DIRECTION('Axis2P3D Direction',(-1.,0.,0.)) ;
#244=DIRECTION('Axis2P3D XDirection',(0.,1.,0.)) ;
#248=DIRECTION('Vector Direction',(0.,1.,0.)) ;
#255=DIRECTION('Vector Direction',(0.,0.,-1.)) ;
#267=DIRECTION('Axis2P3D Direction',(-0.,1.,0.)) ;
#268=DIRECTION('Axis2P3D XDirection',(1.,0.,0.)) ;
#272=DIRECTION('Vector Direction',(1.,0.,0.)) ;
#284=DIRECTION('Axis2P3D Direction',(0.,0.,1.)) ;
#285=DIRECTION('Axis2P3D XDirection',(0.87758256189,0.479425538604,0.)) ;
#289=DIRECTION('Axis2P3D Direction',(0.,0.,1.)) ;
#298=DIRECTION('Vector Direction',(0.,0.,1.)) ;
#303=DIRECTION('Vector Direction',(0.,0.,1.)) ;
#315=DIRECTION('Axis2P3D Direction',(0.,0.,1.)) ;
#327=DIRECTION('Axis2P3D Direction',(0.,0.,1.)) ;
#328=DIRECTION('Axis2P3D XDirection',(0.87758256189,0.479425538604,0.)) ;
#332=DIRECTION('Axis2P3D Direction',(0.,0.,1.)) ;
#341=DIRECTION('Vector Direction',(0.,0.,1.)) ;
#346=DIRECTION('Vector Direction',(0.,0.,1.)) ;
#358=DIRECTION('Axis2P3D Direction',(0.,0.,1.)) ;
#370=DIRECTION('Axis2P3D Direction',(0.,0.,1.)) ;
#371=DIRECTION('Axis2P3D XDirection',(0.87758256189,0.479425538604,0.)) ;
#375=DIRECTION('Axis2P3D Direction',(0.,0.,1.)) ;
#384=DIRECTION('Vector Direction',(0.,0.,1.)) ;
#389=DIRECTION('Vector Direction',(0.,0.,1.)) ;
#401=DIRECTION('Axis2P3D Direction',(0.,0.,1.)) ;
#413=DIRECTION('Axis2P3D Direction',(0.,0.,1.)) ;
#414=DIRECTION('Axis2P3D XDirection',(1.,0.,0.)) ;
#8=PRODUCT_RELATED_PRODUCT_CATEGORY('part',$,(#5)) ;
#7=PRODUCT_CATEGORY('part','specification') ;
#30=STYLED_ITEM(' ',(#29),#22) ;
#29=PRESENTATION_STYLE_ASSIGNMENT((#28)) ;
#28=SURFACE_STYLE_USAGE(.BOTH.,#27) ;
#27=SURFACE_SIDE_STYLE(' ',(#26)) ;
#26=SURFACE_STYLE_FILL_AREA(#25) ;
#25=FILL_AREA_STYLE(' ',(#24)) ;
#24=FILL_AREA_STYLE_COLOUR(' ',#23) ;
#48=VECTOR('Line Direction',#47,1.) ;
#62=VECTOR('Line Direction',#61,1.) ;
#96=VECTOR('Line Direction',#95,1.) ;
#105=VECTOR('Line Direction',#104,1.) ;
#112=VECTOR('Line Direction',#111,1.) ;
#119=VECTOR('Line Direction',#118,1.) ;
#194=VECTOR('Line Direction',#193,1.) ;
#203=VECTOR('Line Direction',#202,1.) ;
#208=VECTOR('Line Direction',#207,1.) ;
#225=VECTOR('Line Direction',#224,1.) ;
#232=VECTOR('Line Direction',#231,1.) ;
#249=VECTOR('Line Direction',#248,1.) ;
#256=VECTOR('Line Direction',#255,1.) ;
#273=VECTOR('Line Direction',#272,1.) ;
#299=VECTOR('Line Direction',#298,1.) ;
#304=VECTOR('Line Direction',#303,1.) ;
#342=VECTOR('Line Direction',#341,1.) ;
#347=VECTOR('Line Direction',#346,1.) ;
#385=VECTOR('Line Direction',#384,1.) ;
#390=VECTOR('Line Direction',#389,1.) ;
#16=UNCERTAINTY_MEASURE_WITH_UNIT(LENGTH_MEASURE(0.005),#12,'distance_accuracy_value','CONFUSED CURVE UNCERTAINTY') ;
#441=SHAPE_REPRESENTATION_RELATIONSHIP(' ',' ',#20,#440) ;
#66=ORIENTED_EDGE('',*,*,#45,.F.) ;
#67=ORIENTED_EDGE('',*,*,#52,.F.) ;
#68=ORIENTED_EDGE('',*,*,#59,.T.) ;
#69=ORIENTED_EDGE('',*,*,#64,.T.) ;
#83=ORIENTED_EDGE('',*,*,#76,.F.) ;
#84=ORIENTED_EDGE('',*,*,#64,.F.) ;
#85=ORIENTED_EDGE('',*,*,#81,.T.) ;
#86=ORIENTED_EDGE('',*,*,#52,.T.) ;
#123=ORIENTED_EDGE('',*,*,#102,.T.) ;
#124=ORIENTED_EDGE('',*,*,#109,.T.) ;
#125=ORIENTED_EDGE('',*,*,#116,.T.) ;
#126=ORIENTED_EDGE('',*,*,#121,.T.) ;
#129=ORIENTED_EDGE('',*,*,#81,.F.) ;
#130=ORIENTED_EDGE('',*,*,#59,.F.) ;
#147=ORIENTED_EDGE('',*,*,#140,.F.) ;
#148=ORIENTED_EDGE('',*,*,#145,.F.) ;
#165=ORIENTED_EDGE('',*,*,#158,.F.) ;
#166=ORIENTED_EDGE('',*,*,#163,.F.) ;
#183=ORIENTED_EDGE('',*,*,#176,.F.) ;
#184=ORIENTED_EDGE('',*,*,#181,.F.) ;
#212=ORIENTED_EDGE('',*,*,#200,.T.) ;
#213=ORIENTED_EDGE('',*,*,#205,.F.) ;
#214=ORIENTED_EDGE('',*,*,#102,.F.) ;
#215=ORIENTED_EDGE('',*,*,#210,.T.) ;
#236=ORIENTED_EDGE('',*,*,#229,.T.) ;
#237=ORIENTED_EDGE('',*,*,#234,.F.) ;
#238=ORIENTED_EDGE('',*,*,#109,.F.) ;
#239=ORIENTED_EDGE('',*,*,#205,.T.) ;
#260=ORIENTED_EDGE('',*,*,#253,.T.) ;
#261=ORIENTED_EDGE('',*,*,#258,.F.) ;
#262=ORIENTED_EDGE('',*,*,#116,.F.) ;
#263=ORIENTED_EDGE('',*,*,#234,.T.) ;
#277=ORIENTED_EDGE('',*,*,#275,.T.) ;
#278=ORIENTED_EDGE('',*,*,#210,.F.) ;
#279=ORIENTED_EDGE('',*,*,#121,.F.) ;
#280=ORIENTED_EDGE('',*,*,#258,.T.) ;
#308=ORIENTED_EDGE('',*,*,#296,.F.) ;
#309=ORIENTED_EDGE('',*,*,#301,.F.) ;
#310=ORIENTED_EDGE('',*,*,#181,.T.) ;
#311=ORIENTED_EDGE('',*,*,#306,.T.) ;
#320=ORIENTED_EDGE('',*,*,#318,.F.) ;
#321=ORIENTED_EDGE('',*,*,#306,.F.) ;
#322=ORIENTED_EDGE('',*,*,#176,.T.) ;
#323=ORIENTED_EDGE('',*,*,#301,.T.) ;
#351=ORIENTED_EDGE('',*,*,#339,.F.) ;
#352=ORIENTED_EDGE('',*,*,#344,.F.) ;
#353=ORIENTED_EDGE('',*,*,#163,.T.) ;
#354=ORIENTED_EDGE('',*,*,#349,.T.) ;
#363=ORIENTED_EDGE('',*,*,#361,.F.) ;
#364=ORIENTED_EDGE('',*,*,#349,.F.) ;
#365=ORIENTED_EDGE('',*,*,#158,.T.) ;
#366=ORIENTED_EDGE('',*,*,#344,.T.) ;
#394=ORIENTED_EDGE('',*,*,#382,.F.) ;
#395=ORIENTED_EDGE('',*,*,#387,.F.) ;
#396=ORIENTED_EDGE('',*,*,#145,.T.) ;
#397=ORIENTED_EDGE('',*,*,#392,.T.) ;
#406=ORIENTED_EDGE('',*,*,#404,.F.) ;
#407=ORIENTED_EDGE('',*,*,#392,.F.) ;
#408=ORIENTED_EDGE('',*,*,#140,.T.) ;
#409=ORIENTED_EDGE('',*,*,#387,.T.) ;
#418=ORIENTED_EDGE('',*,*,#275,.F.) ;
#419=ORIENTED_EDGE('',*,*,#253,.F.) ;
#420=ORIENTED_EDGE('',*,*,#229,.F.) ;
#421=ORIENTED_EDGE('',*,*,#200,.F.) ;
#424=ORIENTED_EDGE('',*,*,#45,.T.) ;
#425=ORIENTED_EDGE('',*,*,#76,.T.) ;
#428=ORIENTED_EDGE('',*,*,#382,.T.) ;
#429=ORIENTED_EDGE('',*,*,#404,.T.) ;
#432=ORIENTED_EDGE('',*,*,#339,.T.) ;
#433=ORIENTED_EDGE('',*,*,#361,.T.) ;
#436=ORIENTED_EDGE('',*,*,#296,.T.) ;
#437=ORIENTED_EDGE('',*,*,#318,.T.) ;
#131=FACE_BOUND('',#128,.T.) ;
#149=FACE_BOUND('',#146,.T.) ;
#167=FACE_BOUND('',#164,.T.) ;
#185=FACE_BOUND('',#182,.T.) ;
#426=FACE_BOUND('',#423,.T.) ;
#430=FACE_BOUND('',#427,.T.) ;
#434=FACE_BOUND('',#431,.T.) ;
#438=FACE_BOUND('',#435,.T.) ;
#31=CLOSED_SHELL('Closed Shell',(#71,#88,#186,#217,#241,#265,#282,#313,#325,#356,#368,#399,#411,#439)) ;
#440=ADVANCED_BREP_SHAPE_REPRESENTATION('NONE',(#22),#17) ;
#71=ADVANCED_FACE('Body.2',(#70),#36,.F.) ;
#88=ADVANCED_FACE('Body.2',(#87),#36,.F.) ;
#186=ADVANCED_FACE('Body.2',(#127,#131,#149,#167,#185),#93,.T.) ;
#217=ADVANCED_FACE('Body.2',(#216),#191,.F.) ;
#241=ADVANCED_FACE('Body.2',(#240),#222,.T.) ;
#265=ADVANCED_FACE('Body.2',(#264),#246,.F.) ;
#282=ADVANCED_FACE('Body.2',(#281),#270,.T.) ;
#313=ADVANCED_FACE('Body.2',(#312),#287,.F.) ;
#325=ADVANCED_FACE('Body.2',(#324),#287,.F.) ;
#356=ADVANCED_FACE('Body.2',(#355),#330,.F.) ;
#368=ADVANCED_FACE('Body.2',(#367),#330,.F.) ;
#399=ADVANCED_FACE('Body.2',(#398),#373,.F.) ;
#411=ADVANCED_FACE('Body.2',(#410),#373,.F.) ;
#439=ADVANCED_FACE('Body.2',(#422,#426,#430,#434,#438),#416,.F.) ;
#4=APPLICATION_PROTOCOL_DEFINITION('international standard','automotive_design',2001,#1) ;
#22=MANIFOLD_SOLID_BREP('Body.2',#31) ;
#40=CIRCLE('generated circle',#39,5.25) ;
#56=CIRCLE('generated circle',#55,5.25) ;
#75=CIRCLE('generated circle',#74,5.25) ;
#80=CIRCLE('generated circle',#79,5.25) ;
#135=CIRCLE('generated circle',#134,5.25) ;
#144=CIRCLE('generated circle',#143,5.25) ;
#153=CIRCLE('generated circle',#152,5.25) ;
#162=CIRCLE('generated circle',#161,5.25) ;
#171=CIRCLE('generated circle',#170,5.25) ;
#180=CIRCLE('generated circle',#179,5.25) ;
#291=CIRCLE('generated circle',#290,5.25) ;
#317=CIRCLE('generated circle',#316,5.25) ;
#334=CIRCLE('generated circle',#333,5.25) ;
#360=CIRCLE('generated circle',#359,5.25) ;
#377=CIRCLE('generated circle',#376,5.25) ;
#403=CIRCLE('generated circle',#402,5.25) ;
#23=COLOUR_RGB('Colour',0.752941176471,0.76862745098,0.749019607843) ;
#36=CYLINDRICAL_SURFACE('generated cylinder',#35,5.25) ;
#287=CYLINDRICAL_SURFACE('generated cylinder',#286,5.25) ;
#330=CYLINDRICAL_SURFACE('generated cylinder',#329,5.25) ;
#373=CYLINDRICAL_SURFACE('generated cylinder',#372,5.25) ;
#45=EDGE_CURVE('',#42,#44,#40,.T.) ;
#52=EDGE_CURVE('',#51,#42,#49,.F.) ;
#59=EDGE_CURVE('',#51,#58,#56,.T.) ;
#64=EDGE_CURVE('',#58,#44,#63,.F.) ;
#76=EDGE_CURVE('',#44,#42,#75,.T.) ;
#81=EDGE_CURVE('',#58,#51,#80,.T.) ;
#102=EDGE_CURVE('',#99,#101,#97,.T.) ;
#109=EDGE_CURVE('',#101,#108,#106,.F.) ;
#116=EDGE_CURVE('',#108,#115,#113,.T.) ;
#121=EDGE_CURVE('',#115,#99,#120,.F.) ;
#140=EDGE_CURVE('',#137,#139,#135,.T.) ;
#145=EDGE_CURVE('',#139,#137,#144,.T.) ;
#158=EDGE_CURVE('',#155,#157,#153,.T.) ;
#163=EDGE_CURVE('',#157,#155,#162,.T.) ;
#176=EDGE_CURVE('',#173,#175,#171,.T.) ;
#181=EDGE_CURVE('',#175,#173,#180,.T.) ;
#200=EDGE_CURVE('',#197,#199,#195,.T.) ;
#205=EDGE_CURVE('',#101,#199,#204,.T.) ;
#210=EDGE_CURVE('',#99,#197,#209,.T.) ;
#229=EDGE_CURVE('',#199,#228,#226,.F.) ;
#234=EDGE_CURVE('',#108,#228,#233,.T.) ;
#253=EDGE_CURVE('',#228,#252,#250,.T.) ;
#258=EDGE_CURVE('',#115,#252,#257,.T.) ;
#275=EDGE_CURVE('',#252,#197,#274,.F.) ;
#296=EDGE_CURVE('',#293,#295,#291,.T.) ;
#301=EDGE_CURVE('',#175,#293,#300,.F.) ;
#306=EDGE_CURVE('',#173,#295,#305,.F.) ;
#318=EDGE_CURVE('',#295,#293,#317,.T.) ;
#339=EDGE_CURVE('',#336,#338,#334,.T.) ;
#344=EDGE_CURVE('',#157,#336,#343,.F.) ;
#349=EDGE_CURVE('',#155,#338,#348,.F.) ;
#361=EDGE_CURVE('',#338,#336,#360,.T.) ;
#382=EDGE_CURVE('',#379,#381,#377,.T.) ;
#387=EDGE_CURVE('',#139,#379,#386,.F.) ;
#392=EDGE_CURVE('',#137,#381,#391,.F.) ;
#404=EDGE_CURVE('',#381,#379,#403,.T.) ;
#65=EDGE_LOOP('',(#66,#67,#68,#69)) ;
#82=EDGE_LOOP('',(#83,#84,#85,#86)) ;
#122=EDGE_LOOP('',(#123,#124,#125,#126)) ;
#128=EDGE_LOOP('',(#129,#130)) ;
#146=EDGE_LOOP('',(#147,#148)) ;
#164=EDGE_LOOP('',(#165,#166)) ;
#182=EDGE_LOOP('',(#183,#184)) ;
#211=EDGE_LOOP('',(#212,#213,#214,#215)) ;
#235=EDGE_LOOP('',(#236,#237,#238,#239)) ;
#259=EDGE_LOOP('',(#260,#261,#262,#263)) ;
#276=EDGE_LOOP('',(#277,#278,#279,#280)) ;
#307=EDGE_LOOP('',(#308,#309,#310,#311)) ;
#319=EDGE_LOOP('',(#320,#321,#322,#323)) ;
#350=EDGE_LOOP('',(#351,#352,#353,#354)) ;
#362=EDGE_LOOP('',(#363,#364,#365,#366)) ;
#393=EDGE_LOOP('',(#394,#395,#396,#397)) ;
#405=EDGE_LOOP('',(#406,#407,#408,#409)) ;
#417=EDGE_LOOP('',(#418,#419,#420,#421)) ;
#423=EDGE_LOOP('',(#424,#425)) ;
#427=EDGE_LOOP('',(#428,#429)) ;
#431=EDGE_LOOP('',(#432,#433)) ;
#435=EDGE_LOOP('',(#436,#437)) ;
#70=FACE_OUTER_BOUND('',#65,.T.) ;
#87=FACE_OUTER_BOUND('',#82,.T.) ;
#127=FACE_OUTER_BOUND('',#122,.T.) ;
#216=FACE_OUTER_BOUND('',#211,.T.) ;
#240=FACE_OUTER_BOUND('',#235,.T.) ;
#264=FACE_OUTER_BOUND('',#259,.T.) ;
#281=FACE_OUTER_BOUND('',#276,.T.) ;
#312=FACE_OUTER_BOUND('',#307,.T.) ;
#324=FACE_OUTER_BOUND('',#319,.T.) ;
#355=FACE_OUTER_BOUND('',#350,.T.) ;
#367=FACE_OUTER_BOUND('',#362,.T.) ;
#398=FACE_OUTER_BOUND('',#393,.T.) ;
#410=FACE_OUTER_BOUND('',#405,.T.) ;
#422=FACE_OUTER_BOUND('',#417,.T.) ;
#49=LINE('Line',#46,#48) ;
#63=LINE('Line',#60,#62) ;
#97=LINE('Line',#94,#96) ;
#106=LINE('Line',#103,#105) ;
#113=LINE('Line',#110,#112) ;
#120=LINE('Line',#117,#119) ;
#195=LINE('Line',#192,#194) ;
#204=LINE('Line',#201,#203) ;
#209=LINE('Line',#206,#208) ;
#226=LINE('Line',#223,#225) ;
#233=LINE('Line',#230,#232) ;
#250=LINE('Line',#247,#249) ;
#257=LINE('Line',#254,#256) ;
#274=LINE('Line',#271,#273) ;
#300=LINE('Line',#297,#299) ;
#305=LINE('Line',#302,#304) ;
#343=LINE('Line',#340,#342) ;
#348=LINE('Line',#345,#347) ;
#386=LINE('Line',#383,#385) ;
#391=LINE('Line',#388,#390) ;
#93=PLANE('',#92) ;
#191=PLANE('',#190) ;
#222=PLANE('',#221) ;
#246=PLANE('',#245) ;
#270=PLANE('',#269) ;
#416=PLANE('',#415) ;
#14=PLANE_ANGLE_MEASURE_WITH_UNIT(PLANE_ANGLE_MEASURE(0.0174532925199),#13) ;
#9=PRODUCT_CATEGORY_RELATIONSHIP(' ',' ',#7,#8) ;
#6=PRODUCT_DEFINITION_FORMATION_WITH_SPECIFIED_SOURCE('',' ',#5,.NOT_KNOWN.) ;
#21=SHAPE_DEFINITION_REPRESENTATION(#11,#20) ;
#42=VERTEX_POINT('',#41) ;
#44=VERTEX_POINT('',#43) ;
#51=VERTEX_POINT('',#50) ;
#58=VERTEX_POINT('',#57) ;
#99=VERTEX_POINT('',#98) ;
#101=VERTEX_POINT('',#100) ;
#108=VERTEX_POINT('',#107) ;
#115=VERTEX_POINT('',#114) ;
#137=VERTEX_POINT('',#136) ;
#139=VERTEX_POINT('',#138) ;
#155=VERTEX_POINT('',#154) ;
#157=VERTEX_POINT('',#156) ;
#173=VERTEX_POINT('',#172) ;
#175=VERTEX_POINT('',#174) ;
#197=VERTEX_POINT('',#196) ;
#199=VERTEX_POINT('',#198) ;
#228=VERTEX_POINT('',#227) ;
#252=VERTEX_POINT('',#251) ;
#293=VERTEX_POINT('',#292) ;
#295=VERTEX_POINT('',#294) ;
#336=VERTEX_POINT('',#335) ;
#338=VERTEX_POINT('',#337) ;
#379=VERTEX_POINT('',#378) ;
#381=VERTEX_POINT('',#380) ;
#12=(LENGTH_UNIT()NAMED_UNIT(*)SI_UNIT(.MILLI.,.METRE.)) ;
#13=(NAMED_UNIT(*)PLANE_ANGLE_UNIT()SI_UNIT($,.RADIAN.)) ;
#15=(NAMED_UNIT(*)SI_UNIT($,.STERADIAN.)SOLID_ANGLE_UNIT()) ;
#17=(GEOMETRIC_REPRESENTATION_CONTEXT(3)GLOBAL_UNCERTAINTY_ASSIGNED_CONTEXT((#16))GLOBAL_UNIT_ASSIGNED_CONTEXT((#12,#13,#15))REPRESENTATION_CONTEXT(' ',' ')) ;
ENDSEC;
END-ISO-10303-21;
