  0
SECTION
  2
HEADER
  9
$ACADVER
  1
AC1009
999
I-DEAS 11 NX Not Encoded
  9
$EXTMIN
 10
0.0
 20
0.0
  9
$EXTMAX
 10
4.2E+002
 20
2.97E+002
  9
$TEXTSIZE
 40
1.25E-001
  9
$LTSCALE
 40
1.0
  9
$CLAYER
  8
1
  9
$CECOLOR
 62
1
  9
$DIMASZ
 40
1.25E-001
  9
$DIMEXO
 40
6.25E-002
  9
$DIMDLI
 40
2.5E-001
  9
$DIMEXE
 40
1.25E-001
  9
$DIMTP
 40
5.0E-003
  9
$DIMTM
 40
-5.0E-003
  9
$DIMTXT
 40
3.0
  9
$DIMLIM
 70
0
  9
$DIMTIH
 70
1
  9
$DIMTOH
 70
1
  9
$DIMSE1
 70
0
  9
$DIMSE2
 70
0
  9
$DIMTAD
 70
0
  9
$DIMASO
 70
1
  9
$DIMALT
 70
0
  9
$DIMALTD
 70
0
  9
$DIMTOFL
 70
1
  9
$DIMTIX
 70
0
  9
$DIMSAH
 70
0
  9
$DIMTFAC
 40
1.0
  9
$DIMGAP
 40
6.25E-002
  9
$LUNITS
 70
2
  9
$LUPREC
 70
3
  9
$FILLETRAD
 40
1.0E+001
  9
$AUNITS
 70
0
  9
$AUPREC
 70
1
  9
$CHAMFERA
 40
6.0
  9
$CHAMFERB
 40
6.0
  9
$ANGBASE
 50
0.0
  9
$ANGDIR
 70
0
  9
$PEXTMIN
 10
0.0
 20
0.0
 30
0.0
  9
$PEXTMAX
 10
4.2E+002
 20
2.97E+002
 30
0.0
  9
$PLIMMIN
 10
0.0
 20
0.0
  9
$PLIMMAX
 10
4.2E+002
 20
2.97E+002
  9
$PDMODE
 70
2
  9
$PDSIZE
 40
-1.0E-002
  9
$SPLINETYPE
 70
6
  9
$TILEMODE
 70
1
  0
ENDSEC
  0
SECTION
  2
TABLES
  0
TABLE
  2
VPORT
 70
2
  0
VPORT
  2
*Active
 70
0
 10
0.0
 20
0.0
 11
4.2E+002
 21
2.97E+002
 12
2.1E+002
 22
1.485E+002
 13
0.0
 23
0.0
 14
1.0
 24
1.0
 15
0.0
 25
0.0
 16
0.0
 26
0.0
 36
1.0
 17
0.0
 27
0.0
 37
0.0
 40
2.97E+002
 41
1.4141414
 42
5.0E+001
 43
0.0
 44
0.0
 50
0.0
 51
0.0
 71
0
 72
100
 73
1
 74
3
 75
0
 76
0
 77
0
 78
0
  0
ENDTAB
  0
TABLE
  2
LTYPE
 70
7
  0
LTYPE
  2
HIDDENNEW0
  3
_ 
 70
64
 72
65
 73
3
 40
4.5
 49
1.5
 49
-1.5
 49
1.5
  0
LTYPE
  2
HIDDENNEW1
  3
_ 
 70
64
 72
65
 73
3
 40
4.5
 49
1.5
 49
-1.5
 49
1.5
  0
LTYPE
  2
HIDDEN
  3
_ 
 70
64
 72
65
 73
3
 40
4.5
 49
1.5
 49
-1.5
 49
1.5
  0
LTYPE
  2
CENTERLINE
  3
_ 
 70
64
 72
65
 73
5
 40
3.0E+001
 49
1.2E+001
 49
-1.5
 49
3.0
 49
-1.5
 49
1.2E+001
  0
LTYPE
  2
PHANTOM
  3
_ 
 70
64
 72
65
 73
7
 40
2.95E+001
 49
9.5
 49
-1.5
 49
3.0
 49
-1.5
 49
3.0
 49
-1.5
 49
9.5
  0
LTYPE
  2
SHORT_DASH
  3
_ 
 70
64
 72
65
 73
3
 40
3.0
 49
7.5E-001
 49
-1.5
 49
7.5E-001
  0
LTYPE
  2
LONG_DASH
  3
_ 
 70
64
 72
65
 73
3
 40
9.0
 49
2.25
 49
-4.5
 49
2.25
  0
ENDTAB
  0
TABLE
  2
LAYER
 70
258
  0
LAYER
  2
1
 70
0
 62
7
  6
CONTINUOUS
  0
LAYER
  2
2
 70
0
 62
7
  6
CONTINUOUS
  0
LAYER
  2
Drafting_Hidden_Entities
 70
1
 62
7
  6
CONTINUOUS
  0
ENDTAB
  0
TABLE
  2
STYLE
 70
1
  0
STYLE
  2
STANDARD
 70
64
 40
0.0
 41
1.0
 50
0.0
 71
0
 42
1.0
  3
monotxt.shx
  4

  0
ENDTAB
  0
TABLE
  2
VIEW
 70
0
  0
ENDTAB
  0
TABLE
  2
DIMSTYLE
 70
0
  0
ENDTAB
  0
ENDSEC
  0
SECTION
  2
BLOCKS
  0
BLOCK
  2
_AH12
  3
_AH
 10
0.0
 20
0.0
 70
64
  0
LINE
  8
0
  6
CONTINUOUS
 62
0
 10
0.0
 20
0.0
 11
1.0
 21
0.0
  0
LINE
  8
0
  6
CONTINUOUS
 62
0
 10
0.0
 20
0.0
 11
-1.0
 21
0.0
  0
ENDBLK
  0
BLOCK
  2
_AH13
  3
_AH
 10
0.0
 20
0.0
 70
64
  0
SOLID
  8
0
  6
CONTINUOUS
 62
0
 10
0.0
 20
0.0
 11
-1.0
 21
1.66667E-001
 12
-1.0
 22
-1.66667E-001
 13
0.0
 23
0.0
  0
ENDBLK
  0
BLOCK
  2
_AH14
  3
_AH
 10
0.0
 20
0.0
 70
64
  0
ENDBLK
  0
BLOCK
  2
_AH15
  3
_AH
 10
0.0
 20
0.0
 70
64
  0
CIRCLE
  8
0
  6
CONTINUOUS
 62
0
 10
0.0
 20
0.0
 40
1.66667E-001
  0
LINE
  8
0
  6
CONTINUOUS
 62
0
 10
0.0
 20
0.0
 11
-1.0
 21
0.0
  0
ENDBLK
  0
BLOCK
  2
_AH16
  3
_AH
 10
0.0
 20
0.0
 70
64
  0
POLYLINE
  8
0
  6
CONTINUOUS
 62
0
 66
1
 40
0.0
 41
0.0
 70
0
  0
VERTEX
  8
0
 42
1.0
 10
8.3335E-002
 20
0.0
 70
0
  0
VERTEX
  8
0
 42
1.0
 10
-8.3335E-002
 20
0.0
 70
0
  0
VERTEX
  8
0
 42
0.0
 10
8.3335E-002
 20
0.0
 70
0
  0
SEQEND
  0
LINE
  8
0
  6
CONTINUOUS
 62
0
 10
0.0
 20
0.0
 11
-1.0
 21
0.0
  0
ENDBLK
  0
BLOCK
  2
_AH17
  3
_AH
 10
0.0
 20
0.0
 70
64
  0
LINE
  8
0
  6
CONTINUOUS
 62
0
 10
-1.66667E-001
 20
-1.66667E-001
 11
1.66667E-001
 21
-1.66667E-001
  0
LINE
  8
0
  6
CONTINUOUS
 62
0
 10
1.66667E-001
 20
-1.66667E-001
 11
1.66667E-001
 21
1.66667E-001
  0
LINE
  8
0
  6
CONTINUOUS
 62
0
 10
1.66667E-001
 20
1.66667E-001
 11
-1.66667E-001
 21
1.66667E-001
  0
LINE
  8
0
  6
CONTINUOUS
 62
0
 10
-1.66667E-001
 20
1.66667E-001
 11
-1.66667E-001
 21
-1.66667E-001
  0
LINE
  8
0
  6
CONTINUOUS
 62
0
 10
0.0
 20
0.0
 11
-1.0
 21
0.0
  0
ENDBLK
  0
BLOCK
  2
_AH18
  3
_AH
 10
0.0
 20
0.0
 70
64
  0
SOLID
  8
0
  6
CONTINUOUS
 62
0
 10
-1.66667E-001
 20
-1.66667E-001
 11
1.66667E-001
 21
-1.66667E-001
 12
-1.66667E-001
 22
1.66667E-001
 13
1.66667E-001
 23
1.66667E-001
  0
LINE
  8
0
  6
CONTINUOUS
 62
0
 10
0.0
 20
0.0
 11
-1.0
 21
0.0
  0
ENDBLK
  0
BLOCK
  2
_AH19
  3
_AH
 10
0.0
 20
0.0
 70
64
  0
LINE
  8
0
  6
CONTINUOUS
 62
0
 10
-5.0E-001
 20
-5.0E-001
 11
5.0E-001
 21
5.0E-001
  0
LINE
  8
0
  6
CONTINUOUS
 62
0
 10
0.0
 20
0.0
 11
-1.0
 21
0.0
  0
ENDBLK
  0
BLOCK
  2
_AH20
  3
_AH
 10
0.0
 20
0.0
 70
64
  0
POLYLINE
  8
0
  6
CONTINUOUS
 62
0
 66
1
 40
5.0E-001
 41
5.0E-001
 70
0
  0
VERTEX
  8
0
 42
4.1421356E-001
 10
-1.66667E-001
 20
-1.66667E-001
 70
0
  0
VERTEX
  8
0
 42
0.0
 10
0.0
 20
0.0
 70
0
  0
SEQEND
  0
POLYLINE
  8
0
  6
CONTINUOUS
 62
0
 66
1
 40
5.0E-001
 41
5.0E-001
 70
0
  0
VERTEX
  8
0
 42
4.1421356E-001
 10
1.66667E-001
 20
1.66667E-001
 70
0
  0
VERTEX
  8
0
 42
0.0
 10
0.0
 20
0.0
 70
0
  0
SEQEND
  0
LINE
  8
0
  6
CONTINUOUS
 62
0
 10
0.0
 20
0.0
 11
-1.0
 21
0.0
  0
ENDBLK
  0
BLOCK
  2
_AH21
  3
_AH
 10
0.0
 20
0.0
 70
64
  0
LINE
  8
0
  6
CONTINUOUS
 62
0
 10
0.0
 20
0.0
 11
-1.0
 21
-1.66667E-001
  0
LINE
  8
0
  6
CONTINUOUS
 62
0
 10
-1.0
 20
-1.66667E-001
 11
-1.0
 21
1.66667E-001
  0
LINE
  8
0
  6
CONTINUOUS
 62
0
 10
-1.0
 20
1.66667E-001
 11
0.0
 21
0.0
  0
ENDBLK
  0
BLOCK
  2
CADRE_A3
 10
0.0
 20
0.0
 70
0
  0
POINT
  8
1
  6
CONTINUOUS
 62
1
 10
3.965E+002
 20
2.78E+002
  0
LINE
  8
1
  6
CONTINUOUS
 62
40
 10
2.3206571E+002
 20
2.3E+001
 11
2.338E+002
 21
2.3E+001
  0
LINE
  8
1
  6
CONTINUOUS
 62
3
 10
2.315E+002
 20
5.0E+001
 11
2.315E+002
 21
5.4E+001
  0
LINE
  8
1
  6
CONTINUOUS
 62
40
 10
3.535E+002
 20
5.0E+001
 11
3.965E+002
 21
5.0E+001
  0
LINE
  8
1
  6
CONTINUOUS
 62
40
 10
2.338E+002
 20
2.3E+001
 11
2.338E+002
 21
2.632E+001
  0
LINE
  8
1
  6
CONTINUOUS
 62
40
 10
2.338E+002
 20
2.632E+001
 11
2.3322771E+002
 21
2.632E+001
  0
LINE
  8
1
  6
CONTINUOUS
 62
40
 10
2.3322771E+002
 20
2.632E+001
 11
2.3206571E+002
 21
2.3E+001
  0
LINE
  8
1
  6
CONTINUOUS
 62
40
 10
2.3231941E+002
 20
2.318E+001
 11
2.3362E+002
 21
2.318E+001
  0
LINE
  8
1
  6
CONTINUOUS
 62
40
 10
2.3362E+002
 20
2.318E+001
 11
2.3362E+002
 21
2.614E+001
  0
LINE
  8
1
  6
CONTINUOUS
 62
40
 10
2.3362E+002
 20
2.614E+001
 11
2.3335541E+002
 21
2.614E+001
  0
LINE
  8
1
  6
CONTINUOUS
 62
40
 10
2.3335541E+002
 20
2.614E+001
 11
2.3231941E+002
 21
2.318E+001
  0
LINE
  8
1
  6
CONTINUOUS
 62
40
 10
2.3257312E+002
 20
2.336E+001
 11
2.3344E+002
 21
2.336E+001
  0
LINE
  8
1
  6
CONTINUOUS
 62
40
 10
2.3344E+002
 20
2.336E+001
 11
2.3344E+002
 21
2.5836801E+001
  0
LINE
  8
1
  6
CONTINUOUS
 62
40
 10
2.3344E+002
 20
2.5836801E+001
 11
2.3257312E+002
 21
2.336E+001
  0
LINE
  8
1
  6
CONTINUOUS
 62
40
 10
2.3282683E+002
 20
2.354E+001
 11
2.3326E+002
 21
2.354E+001
  0
LINE
  8
1
  6
CONTINUOUS
 62
40
 10
2.3326E+002
 20
2.354E+001
 11
2.3326E+002
 21
2.4777639E+001
  0
LINE
  8
1
  6
CONTINUOUS
 62
40
 10
2.3326E+002
 20
2.4777639E+001
 11
2.3282683E+002
 21
2.354E+001
  0
LINE
  8
1
  6
CONTINUOUS
 62
40
 10
2.3303825E+002
 20
2.369E+001
 11
2.3311E+002
 21
2.369E+001
  0
LINE
  8
1
  6
CONTINUOUS
 62
40
 10
2.3311E+002
 20
2.369E+001
 11
2.3311E+002
 21
2.3895004E+001
  0
LINE
  8
1
  6
CONTINUOUS
 62
40
 10
2.3311E+002
 20
2.3895004E+001
 11
2.3303825E+002
 21
2.369E+001
  0
LINE
  8
1
  6
CONTINUOUS
 62
40
 10
2.348E+002
 20
2.3E+001
 11
2.348E+002
 21
2.632E+001
  0
LINE
  8
1
  6
CONTINUOUS
 62
40
 10
2.348E+002
 20
2.632E+001
 11
2.3537229E+002
 21
2.632E+001
  0
LINE
  8
1
  6
CONTINUOUS
 62
40
 10
2.3537229E+002
 20
2.632E+001
 11
2.3653429E+002
 21
2.3E+001
  0
LINE
  8
1
  6
CONTINUOUS
 62
40
 10
2.3653429E+002
 20
2.3E+001
 11
2.348E+002
 21
2.3E+001
  0
LINE
  8
1
  6
CONTINUOUS
 62
40
 10
2.3498E+002
 20
2.318E+001
 11
2.3498E+002
 21
2.614E+001
  0
LINE
  8
1
  6
CONTINUOUS
 62
40
 10
2.3498E+002
 20
2.614E+001
 11
2.3524459E+002
 21
2.614E+001
  0
LINE
  8
1
  6
CONTINUOUS
 62
40
 10
2.3524459E+002
 20
2.614E+001
 11
2.3628059E+002
 21
2.318E+001
  0
LINE
  8
1
  6
CONTINUOUS
 62
40
 10
2.3628059E+002
 20
2.318E+001
 11
2.3498E+002
 21
2.318E+001
  0
LINE
  8
1
  6
CONTINUOUS
 62
40
 10
2.3516E+002
 20
2.336E+001
 11
2.3516E+002
 21
2.5836801E+001
  0
LINE
  8
1
  6
CONTINUOUS
 62
40
 10
2.3516E+002
 20
2.5836801E+001
 11
2.3602688E+002
 21
2.336E+001
  0
LINE
  8
1
  6
CONTINUOUS
 62
40
 10
2.3602688E+002
 20
2.336E+001
 11
2.3516E+002
 21
2.336E+001
  0
LINE
  8
1
  6
CONTINUOUS
 62
40
 10
2.3534E+002
 20
2.354E+001
 11
2.3534E+002
 21
2.4777639E+001
  0
LINE
  8
1
  6
CONTINUOUS
 62
40
 10
2.3534E+002
 20
2.4777639E+001
 11
2.3577317E+002
 21
2.354E+001
  0
LINE
  8
1
  6
CONTINUOUS
 62
40
 10
2.3577317E+002
 20
2.354E+001
 11
2.3534E+002
 21
2.354E+001
  0
LINE
  8
1
  6
CONTINUOUS
 62
40
 10
2.3556175E+002
 20
2.369E+001
 11
2.3549E+002
 21
2.369E+001
  0
LINE
  8
1
  6
CONTINUOUS
 62
40
 10
2.3549E+002
 20
2.369E+001
 11
2.3549E+002
 21
2.3895004E+001
  0
LINE
  8
1
  6
CONTINUOUS
 62
40
 10
2.3549E+002
 20
2.3895004E+001
 11
2.3556175E+002
 21
2.369E+001
  0
LINE
  8
1
  6
CONTINUOUS
 62
40
 10
2.3055371E+002
 20
1.868E+001
 11
2.3171571E+002
 21
2.2E+001
  0
LINE
  8
1
  6
CONTINUOUS
 62
3
 10
2.255E+002
 20
1.5E+001
 11
2.255E+002
 21
5.8E+001
  0
LINE
  8
1
  6
CONTINUOUS
 62
3
 10
2.255E+002
 20
5.8E+001
 11
3.965E+002
 21
5.8E+001
  0
LINE
  8
1
  6
CONTINUOUS
 62
3
 10
2.255E+002
 20
5.4E+001
 11
3.965E+002
 21
5.4E+001
  0
LINE
  8
1
  6
CONTINUOUS
 62
3
 10
2.255E+002
 20
5.0E+001
 11
3.535E+002
 21
5.0E+001
  0
LINE
  8
1
  6
CONTINUOUS
 62
40
 10
2.315E+002
 20
4.6E+001
 11
3.385E+002
 21
4.6E+001
  0
LINE
  8
1
  6
CONTINUOUS
 62
40
 10
2.315E+002
 20
4.2E+001
 11
3.385E+002
 21
4.2E+001
  0
LINE
  8
1
  6
CONTINUOUS
 62
40
 10
2.315E+002
 20
3.8E+001
 11
3.385E+002
 21
3.8E+001
  0
LINE
  8
1
  6
CONTINUOUS
 62
40
 10
2.315E+002
 20
3.4E+001
 11
3.385E+002
 21
3.4E+001
  0
LINE
  8
1
  6
CONTINUOUS
 62
3
 10
2.255E+002
 20
3.0E+001
 11
3.965E+002
 21
3.0E+001
  0
LINE
  8
1
  6
CONTINUOUS
 62
3
 10
2.555E+002
 20
2.6E+001
 11
3.385E+002
 21
2.6E+001
  0
LINE
  8
1
  6
CONTINUOUS
 62
3
 10
3.385E+002
 20
2.3E+001
 11
3.965E+002
 21
2.3E+001
  0
LINE
  8
1
  6
CONTINUOUS
 62
40
 10
2.315E+002
 20
3.0E+001
 11
2.315E+002
 21
5.0E+001
  0
LINE
  8
1
  6
CONTINUOUS
 62
3
 10
2.345E+002
 20
5.4E+001
 11
2.345E+002
 21
5.8E+001
  0
LINE
  8
1
  6
CONTINUOUS
 62
40
 10
2.385E+002
 20
3.0E+001
 11
2.385E+002
 21
5.0E+001
  0
LINE
  8
1
  6
CONTINUOUS
 62
3
 10
2.555E+002
 20
1.5E+001
 11
2.555E+002
 21
3.0E+001
  0
LINE
  8
1
  6
CONTINUOUS
 62
3
 10
2.685E+002
 20
5.4E+001
 11
2.685E+002
 21
5.8E+001
  0
LINE
  8
1
  6
CONTINUOUS
 62
3
 10
2.715E+002
 20
5.0E+001
 11
2.715E+002
 21
5.4E+001
  0
LINE
  8
1
  6
CONTINUOUS
 62
3
 10
2.785E+002
 20
5.4E+001
 11
2.785E+002
 21
5.8E+001
  0
LINE
  8
1
  6
CONTINUOUS
 62
3
 10
3.115E+002
 20
5.0E+001
 11
3.115E+002
 21
5.8E+001
  0
LINE
  8
1
  6
CONTINUOUS
 62
3
 10
3.215E+002
 20
5.4E+001
 11
3.215E+002
 21
5.8E+001
  0
LINE
  8
1
  6
CONTINUOUS
 62
3
 10
3.385E+002
 20
1.5E+001
 11
3.385E+002
 21
5.0E+001
  0
LINE
  8
1
  6
CONTINUOUS
 62
3
 10
3.445E+002
 20
2.3E+001
 11
3.445E+002
 21
2.6107786E+001
  0
LINE
  8
1
  6
CONTINUOUS
 62
3
 10
3.505E+002
 20
2.3E+001
 11
3.505E+002
 21
3.0E+001
  0
LINE
  8
1
  6
CONTINUOUS
 62
3
 10
3.535E+002
 20
3.0E+001
 11
3.535E+002
 21
5.8E+001
  0
LINE
  8
1
  6
CONTINUOUS
 62
3
 10
3.565E+002
 20
2.3E+001
 11
3.565E+002
 21
2.6107786E+001
  0
LINE
  8
1
  6
CONTINUOUS
 62
3
 10
1.95E+001
 20
2.78E+002
 11
1.95E+001
 21
1.5E+001
  0
LINE
  8
1
  6
CONTINUOUS
 62
3
 10
1.95E+001
 20
1.5E+001
 11
3.965E+002
 21
1.5E+001
  0
LINE
  8
1
  6
CONTINUOUS
 62
3
 10
3.625E+002
 20
2.3E+001
 11
3.625E+002
 21
3.0E+001
  0
LINE
  8
1
  6
CONTINUOUS
 62
3
 10
3.635E+002
 20
5.4E+001
 11
3.635E+002
 21
5.8E+001
  0
LINE
  8
1
  6
CONTINUOUS
 62
3
 10
3.735E+002
 20
2.3E+001
 11
3.735E+002
 21
3.0E+001
  0
LINE
  8
1
  6
CONTINUOUS
 62
3
 10
3.855E+002
 20
2.3E+001
 11
3.855E+002
 21
3.0E+001
  0
LINE
  8
1
  6
CONTINUOUS
 62
40
 10
3.93E+002
 20
5.35E+001
 11
3.96E+002
 21
5.35E+001
  0
LINE
  8
1
  6
CONTINUOUS
 62
40
 10
3.96E+002
 20
5.35E+001
 11
3.96E+002
 21
5.05E+001
  0
LINE
  8
1
  6
CONTINUOUS
 62
40
 10
3.93E+002
 20
5.05E+001
 11
3.96E+002
 21
5.05E+001
  0
LINE
  8
1
  6
CONTINUOUS
 62
40
 10
3.93E+002
 20
5.35E+001
 11
3.93E+002
 21
5.05E+001
  0
LINE
  8
1
  6
CONTINUOUS
 62
40
 10
3.93E+002
 20
4.95E+001
 11
3.93E+002
 21
4.65E+001
  0
LINE
  8
1
  6
CONTINUOUS
 62
40
 10
3.93E+002
 20
4.65E+001
 11
3.96E+002
 21
4.65E+001
  0
LINE
  8
1
  6
CONTINUOUS
 62
40
 10
3.96E+002
 20
4.95E+001
 11
3.96E+002
 21
4.65E+001
  0
LINE
  8
1
  6
CONTINUOUS
 62
40
 10
3.93E+002
 20
4.95E+001
 11
3.96E+002
 21
4.95E+001
  0
LINE
  8
1
  6
CONTINUOUS
 62
40
 10
3.93E+002
 20
4.55E+001
 11
3.93E+002
 21
4.25E+001
  0
LINE
  8
1
  6
CONTINUOUS
 62
40
 10
3.93E+002
 20
4.25E+001
 11
3.96E+002
 21
4.25E+001
  0
LINE
  8
1
  6
CONTINUOUS
 62
3
 10
3.965E+002
 20
1.5E+001
 11
3.965E+002
 21
2.78E+002
  0
LINE
  8
1
  6
CONTINUOUS
 62
3
 10
3.965E+002
 20
2.78E+002
 11
1.95E+001
 21
2.78E+002
  0
LINE
  8
1
  6
CONTINUOUS
 62
40
 10
3.96E+002
 20
4.55E+001
 11
3.96E+002
 21
4.25E+001
  0
LINE
  8
1
  6
CONTINUOUS
 62
40
 10
3.93E+002
 20
4.55E+001
 11
3.96E+002
 21
4.55E+001
  0
LINE
  8
1
  6
CONTINUOUS
 62
40
 10
3.965E+002
 20
1.5E+001
 11
4.005E+002
 21
1.5E+001
  0
LINE
  8
1
  6
CONTINUOUS
 62
40
 10
3.965E+002
 20
1.8E+001
 11
4.005E+002
 21
1.8E+001
  0
LINE
  8
1
  6
CONTINUOUS
 62
40
 10
3.965E+002
 20
2.1E+001
 11
4.005E+002
 21
2.1E+001
  0
LINE
  8
1
  6
CONTINUOUS
 62
40
 10
3.965E+002
 20
2.4E+001
 11
4.005E+002
 21
2.4E+001
  0
LINE
  8
1
  6
CONTINUOUS
 62
40
 10
3.965E+002
 20
2.7E+001
 11
4.005E+002
 21
2.7E+001
  0
LINE
  8
1
  6
CONTINUOUS
 62
40
 10
3.965E+002
 20
3.0E+001
 11
4.005E+002
 21
3.0E+001
  0
LINE
  8
1
  6
CONTINUOUS
 62
40
 10
2.331E+002
 20
2.65E+001
 11
2.3398E+002
 21
2.65E+001
  0
LINE
  8
1
  6
CONTINUOUS
 62
40
 10
8.65E+001
 20
2.78E+002
 11
8.65E+001
 21
2.66E+002
  0
LINE
  8
1
  6
CONTINUOUS
 62
3
 10
1.535E+002
 20
2.66E+002
 11
1.535E+002
 21
2.78E+002
  0
LINE
  8
1
  6
CONTINUOUS
 62
3
 10
1.535E+002
 20
2.66E+002
 11
1.95E+001
 21
2.66E+002
  0
LINE
  8
1
  6
CONTINUOUS
 62
40
 10
2.323E+002
 20
1.85E+001
 11
2.303E+002
 21
1.85E+001
  0
LINE
  8
1
  6
CONTINUOUS
 62
40
 10
2.3171571E+002
 20
2.2E+001
 11
2.338E+002
 21
2.2E+001
  0
LINE
  8
1
  6
CONTINUOUS
 62
40
 10
2.303E+002
 20
1.85E+001
 11
2.31588E+002
 21
2.218E+001
  0
LINE
  8
1
  6
CONTINUOUS
 62
40
 10
2.355E+002
 20
2.65E+001
 11
2.36788E+002
 21
2.282E+001
  0
LINE
  8
1
  6
CONTINUOUS
 62
40
 10
2.3574E+002
 20
2.01E+001
 11
2.363E+002
 21
1.85E+001
  0
LINE
  8
1
  6
CONTINUOUS
 62
40
 10
2.323E+002
 20
1.85E+001
 11
2.3286E+002
 21
2.01E+001
  0
LINE
  8
1
  6
CONTINUOUS
 62
40
 10
2.3886E+002
 20
1.85E+001
 11
2.4094E+002
 21
1.85E+001
  0
LINE
  8
1
  6
CONTINUOUS
 62
40
 10
2.3886E+002
 20
2.65E+001
 11
2.4094E+002
 21
2.65E+001
  0
LINE
  8
1
  6
CONTINUOUS
 62
40
 10
2.3286E+002
 20
2.01E+001
 11
2.3398E+002
 21
2.01E+001
  0
LINE
  8
1
  6
CONTINUOUS
 62
40
 10
2.363E+002
 20
1.85E+001
 11
2.383E+002
 21
1.85E+001
  0
LINE
  8
1
  6
CONTINUOUS
 62
40
 10
2.31588E+002
 20
2.218E+001
 11
2.3398E+002
 21
2.218E+001
  0
LINE
  8
1
  6
CONTINUOUS
 62
40
 10
2.31812E+002
 20
2.282E+001
 11
2.3398E+002
 21
2.282E+001
  0
LINE
  8
1
  6
CONTINUOUS
 62
40
 10
6.119113E+001
 20
2.7118273E+002
 11
6.419113E+001
 21
2.7118273E+002
  0
LINE
  8
1
  6
CONTINUOUS
 62
40
 10
6.419113E+001
 20
2.7118273E+002
 11
6.419113E+001
 21
2.6818273E+002
  0
LINE
  8
1
  6
CONTINUOUS
 62
40
 10
2.3398E+002
 20
2.01E+001
 11
2.3398E+002
 21
2.218E+001
  0
LINE
  8
1
  6
CONTINUOUS
 62
40
 10
2.3462E+002
 20
2.01E+001
 11
2.3462E+002
 21
2.218E+001
  0
LINE
  8
1
  6
CONTINUOUS
 62
40
 10
2.3462E+002
 20
2.01E+001
 11
2.3574E+002
 21
2.01E+001
  0
LINE
  8
1
  6
CONTINUOUS
 62
40
 10
2.3462E+002
 20
2.218E+001
 11
2.37012E+002
 21
2.218E+001
  0
LINE
  8
1
  6
CONTINUOUS
 62
40
 10
2.31812E+002
 20
2.282E+001
 11
2.331E+002
 21
2.65E+001
  0
LINE
  8
1
  6
CONTINUOUS
 62
40
 10
2.3462E+002
 20
2.282E+001
 11
2.36788E+002
 21
2.282E+001
  0
LINE
  8
1
  6
CONTINUOUS
 62
40
 10
2.3462E+002
 20
2.282E+001
 11
2.3462E+002
 21
2.65E+001
  0
LINE
  8
1
  6
CONTINUOUS
 62
40
 10
2.3398E+002
 20
2.282E+001
 11
2.3398E+002
 21
2.65E+001
  0
LINE
  8
1
  6
CONTINUOUS
 62
40
 10
2.355E+002
 20
2.65E+001
 11
2.3462E+002
 21
2.65E+001
  0
LINE
  8
1
  6
CONTINUOUS
 62
40
 10
2.37012E+002
 20
2.218E+001
 11
2.383E+002
 21
1.85E+001
  0
LINE
  8
1
  6
CONTINUOUS
 62
40
 10
2.3886E+002
 20
1.85E+001
 11
2.3886E+002
 21
2.218E+001
  0
LINE
  8
1
  6
CONTINUOUS
 62
40
 10
6.119113E+001
 20
2.6818273E+002
 11
6.419113E+001
 21
2.6818273E+002
  0
LINE
  8
1
  6
CONTINUOUS
 62
40
 10
6.119113E+001
 20
2.7118273E+002
 11
6.119113E+001
 21
2.6818273E+002
  0
LINE
  8
1
  6
CONTINUOUS
 62
40
 10
5.171513E+001
 20
2.7118273E+002
 11
5.471513E+001
 21
2.7118273E+002
  0
ARC
  8
1
  6
CONTINUOUS
 62
40
 10
2.4206E+002
 20
2.47E+001
 40
1.8
 50
2.9938468E+002
 51
4.5E+002
  0
ARC
  8
1
  6
CONTINUOUS
 62
40
 10
2.4206E+002
 20
2.09E+001
 40
2.4
 50
2.7E+002
 51
3.9223095E+002
  0
LINE
  8
1
  6
CONTINUOUS
 62
40
 10
5.471513E+001
 20
2.7118273E+002
 11
5.471513E+001
 21
2.6818273E+002
  0
LINE
  8
1
  6
CONTINUOUS
 62
40
 10
5.171513E+001
 20
2.6818273E+002
 11
5.471513E+001
 21
2.6818273E+002
  0
LINE
  8
1
  6
CONTINUOUS
 62
40
 10
2.435E+002
 20
2.282E+001
 11
2.4158E+002
 21
2.282E+001
  0
LINE
  8
1
  6
CONTINUOUS
 62
40
 10
2.4409017E+002
 20
2.218E+001
 11
2.4158E+002
 21
2.218E+001
  0
LINE
  8
1
  6
CONTINUOUS
 62
40
 10
2.4158E+002
 20
1.85E+001
 11
2.4158E+002
 21
2.218E+001
  0
LINE
  8
1
  6
CONTINUOUS
 62
40
 10
2.4094E+002
 20
1.85E+001
 11
2.4094E+002
 21
2.218E+001
  0
LINE
  8
1
  6
CONTINUOUS
 62
40
 10
2.4158E+002
 20
2.65E+001
 11
2.4206E+002
 21
2.65E+001
  0
LINE
  8
1
  6
CONTINUOUS
 62
40
 10
2.4094E+002
 20
2.282E+001
 11
2.3886E+002
 21
2.282E+001
  0
LINE
  8
1
  6
CONTINUOUS
 62
40
 10
2.4094E+002
 20
2.218E+001
 11
2.3886E+002
 21
2.218E+001
  0
LINE
  8
1
  6
CONTINUOUS
 62
40
 10
2.4158E+002
 20
1.85E+001
 11
2.4206E+002
 21
1.85E+001
  0
LINE
  8
1
  6
CONTINUOUS
 62
40
 10
2.3886E+002
 20
2.282E+001
 11
2.3886E+002
 21
2.65E+001
  0
LINE
  8
1
  6
CONTINUOUS
 62
40
 10
5.171513E+001
 20
2.7118273E+002
 11
5.171513E+001
 21
2.6818273E+002
  0
LINE
  8
1
  6
CONTINUOUS
 62
40
 10
2.4094E+002
 20
2.282E+001
 11
2.4094E+002
 21
2.65E+001
  0
LINE
  8
1
  6
CONTINUOUS
 62
40
 10
2.4158E+002
 20
2.282E+001
 11
2.4158E+002
 21
2.65E+001
  0
ARC
  8
1
  6
CONTINUOUS
 62
40
 10
2.4206E+002
 20
2.09E+001
 40
2.4
 50
5.3130102E+001
 51
6.8407484E+001
  0
LINE
  8
1
  6
CONTINUOUS
 62
40
 10
2.451E+002
 20
1.85E+001
 11
2.451E+002
 21
2.218E+001
  0
LINE
  8
1
  6
CONTINUOUS
 62
40
 10
2.4718E+002
 20
2.218E+001
 11
2.451E+002
 21
2.218E+001
  0
LINE
  8
1
  6
CONTINUOUS
 62
40
 10
2.4718E+002
 20
1.85E+001
 11
2.4718E+002
 21
2.218E+001
  0
LINE
  8
1
  6
CONTINUOUS
 62
40
 10
1.275E+002
 20
2.69E+002
 11
1.305E+002
 21
2.69E+002
  0
LINE
  8
1
  6
CONTINUOUS
 62
40
 10
2.451E+002
 20
1.85E+001
 11
2.4718E+002
 21
1.85E+001
  0
LINE
  8
1
  6
CONTINUOUS
 62
40
 10
2.4782E+002
 20
1.85E+001
 11
2.4782E+002
 21
2.218E+001
  0
LINE
  8
1
  6
CONTINUOUS
 62
40
 10
2.5033017E+002
 20
2.218E+001
 11
2.4782E+002
 21
2.218E+001
  0
LINE
  8
1
  6
CONTINUOUS
 62
40
 10
1.305E+002
 20
2.72E+002
 11
1.305E+002
 21
2.69E+002
  0
LINE
  8
1
  6
CONTINUOUS
 62
40
 10
1.275E+002
 20
2.72E+002
 11
1.305E+002
 21
2.72E+002
  0
LINE
  8
1
  6
CONTINUOUS
 62
40
 10
1.275E+002
 20
2.72E+002
 11
1.275E+002
 21
2.69E+002
  0
ARC
  8
1
  6
CONTINUOUS
 62
40
 10
2.483E+002
 20
2.09E+001
 40
2.4
 50
2.7E+002
 51
3.9223095E+002
  0
LINE
  8
1
  6
CONTINUOUS
 62
40
 10
1.405E+002
 20
2.69E+002
 11
1.435E+002
 21
2.69E+002
  0
LINE
  8
1
  6
CONTINUOUS
 62
40
 10
2.4782E+002
 20
1.85E+001
 11
2.483E+002
 21
1.85E+001
  0
LINE
  8
1
  6
CONTINUOUS
 62
40
 10
2.451E+002
 20
2.282E+001
 11
2.451E+002
 21
2.65E+001
  0
LINE
  8
1
  6
CONTINUOUS
 62
40
 10
2.451E+002
 20
2.65E+001
 11
2.4718E+002
 21
2.65E+001
  0
LINE
  8
1
  6
CONTINUOUS
 62
40
 10
2.4718E+002
 20
2.282E+001
 11
2.4718E+002
 21
2.65E+001
  0
LINE
  8
1
  6
CONTINUOUS
 62
40
 10
2.4718E+002
 20
2.282E+001
 11
2.451E+002
 21
2.282E+001
  0
LINE
  8
1
  6
CONTINUOUS
 62
40
 10
2.4782E+002
 20
2.282E+001
 11
2.4782E+002
 21
2.65E+001
  0
LINE
  8
1
  6
CONTINUOUS
 62
40
 10
2.4782E+002
 20
2.65E+001
 11
2.483E+002
 21
2.65E+001
  0
ARC
  8
1
  6
CONTINUOUS
 62
40
 10
2.483E+002
 20
2.47E+001
 40
1.8
 50
2.9938468E+002
 51
4.5E+002
  0
LINE
  8
1
  6
CONTINUOUS
 62
40
 10
1.435E+002
 20
2.72E+002
 11
1.435E+002
 21
2.69E+002
  0
ARC
  8
1
  6
CONTINUOUS
 62
40
 10
2.483E+002
 20
2.09E+001
 40
2.4
 50
5.3130102E+001
 51
6.8407484E+001
  0
LINE
  8
1
  6
CONTINUOUS
 62
40
 10
2.4974E+002
 20
2.282E+001
 11
2.4782E+002
 21
2.282E+001
  0
LINE
  8
1
  6
CONTINUOUS
 62
40
 10
1.405E+002
 20
2.72E+002
 11
1.435E+002
 21
2.72E+002
  0
TEXT
  8
1
  6
CONTINUOUS
 62
40
 10
3.1542442E+001
 20
2.7305173E+002
 40
2.5
  1
Tolerances generales selon ISO 2768
 41
5.0E-001
  0
TEXT
  8
1
  6
CONTINUOUS
 62
40
 10
2.2529304E+001
 20
2.6829203E+002
 40
2.5
  1
Degre de precision   f      m       c       v
 41
5.0E-001
  0
TEXT
  8
1
  6
CONTINUOUS
 62
40
 10
8.9794943E+001
 20
2.736093E+002
 40
2.5
  1
Tolerances generales sur pieces moulees selon
 41
5.0E-001
  0
TEXT
  8
1
  6
CONTINUOUS
 62
40
 10
8.9794943E+001
 20
2.691093E+002
 40
2.5
  1
Din 16901 (FPTC 407364)   130       140   
 41
5.0E-001
  0
LINE
  8
1
  6
CONTINUOUS
 62
40
 10
2.338E+002
 20
2.2E+001
 11
2.338E+002
 21
2.028E+001
  0
LINE
  8
1
  6
CONTINUOUS
 62
40
 10
7.066713E+001
 20
2.6818273E+002
 11
7.366713E+001
 21
2.6818273E+002
  0
LINE
  8
1
  6
CONTINUOUS
 62
40
 10
1.405E+002
 20
2.72E+002
 11
1.405E+002
 21
2.69E+002
  0
LINE
  8
1
  6
CONTINUOUS
 62
40
 10
2.338E+002
 20
2.028E+001
 11
2.3273229E+002
 21
2.028E+001
  0
LINE
  8
1
  6
CONTINUOUS
 62
40
 10
2.3273229E+002
 20
2.028E+001
 11
2.3217229E+002
 21
1.868E+001
  0
LINE
  8
1
  6
CONTINUOUS
 62
40
 10
1.95E+001
 20
2.78E+002
 11
2.1E+001
 21
2.8167156E+002
  0
LINE
  8
1
  6
CONTINUOUS
 62
40
 10
2.1E+001
 20
2.8167156E+002
 11
2.25E+001
 21
2.78E+002
  0
LINE
  8
1
  6
CONTINUOUS
 62
40
 10
2.155E+002
 20
2.78E+002
 11
2.17E+002
 21
2.8167156E+002
  0
LINE
  8
1
  6
CONTINUOUS
 62
40
 10
2.17E+002
 20
2.8167156E+002
 11
2.185E+002
 21
2.78E+002
  0
LINE
  8
1
  6
CONTINUOUS
 62
40
 10
1.95E+001
 20
1.5E+001
 11
2.1E+001
 21
1.1328442E+001
  0
LINE
  8
1
  6
CONTINUOUS
 62
40
 10
2.1E+001
 20
1.1328442E+001
 11
2.25E+001
 21
1.5E+001
  0
LINE
  8
1
  6
CONTINUOUS
 62
40
 10
2.155E+002
 20
1.5E+001
 11
2.17E+002
 21
1.1328442E+001
  0
LINE
  8
1
  6
CONTINUOUS
 62
40
 10
2.17E+002
 20
1.1328442E+001
 11
2.185E+002
 21
1.5E+001
  0
LINE
  8
1
  6
CONTINUOUS
 62
40
 10
2.3217229E+002
 20
1.868E+001
 11
2.3055371E+002
 21
1.868E+001
  0
LINE
  8
1
  6
CONTINUOUS
 62
40
 10
2.3080741E+002
 20
1.886E+001
 11
2.3184341E+002
 21
2.182E+001
  0
LINE
  8
1
  6
CONTINUOUS
 62
40
 10
2.3184341E+002
 20
2.182E+001
 11
2.3362E+002
 21
2.182E+001
  0
LINE
  8
1
  6
CONTINUOUS
 62
40
 10
2.3362E+002
 20
2.182E+001
 11
2.3362E+002
 21
2.046E+001
  0
LINE
  8
1
  6
CONTINUOUS
 62
40
 10
2.3362E+002
 20
2.046E+001
 11
2.3260459E+002
 21
2.046E+001
  0
LINE
  8
1
  6
CONTINUOUS
 62
40
 10
2.3260459E+002
 20
2.046E+001
 11
2.3204459E+002
 21
1.886E+001
  0
LINE
  8
1
  6
CONTINUOUS
 62
40
 10
2.3204459E+002
 20
1.886E+001
 11
2.3080741E+002
 21
1.886E+001
  0
LINE
  8
1
  6
CONTINUOUS
 62
40
 10
2.3106112E+002
 20
1.904E+001
 11
2.3197112E+002
 21
2.164E+001
  0
LINE
  8
1
  6
CONTINUOUS
 62
40
 10
2.3197112E+002
 20
2.164E+001
 11
2.3344E+002
 21
2.164E+001
  0
LINE
  8
1
  6
CONTINUOUS
 62
40
 10
2.3344E+002
 20
2.164E+001
 11
2.3344E+002
 21
2.064E+001
  0
LINE
  8
1
  6
CONTINUOUS
 62
40
 10
2.3344E+002
 20
2.064E+001
 11
2.3247688E+002
 21
2.064E+001
  0
LINE
  8
1
  6
CONTINUOUS
 62
40
 10
2.3247688E+002
 20
2.064E+001
 11
2.3191688E+002
 21
1.904E+001
  0
LINE
  8
1
  6
CONTINUOUS
 62
40
 10
2.3191688E+002
 20
1.904E+001
 11
2.3106112E+002
 21
1.904E+001
  0
LINE
  8
1
  6
CONTINUOUS
 62
40
 10
2.3131483E+002
 20
1.922E+001
 11
2.3209883E+002
 21
2.146E+001
  0
LINE
  8
1
  6
CONTINUOUS
 62
40
 10
2.3209883E+002
 20
2.146E+001
 11
2.3326E+002
 21
2.146E+001
  0
LINE
  8
1
  6
CONTINUOUS
 62
40
 10
2.3326E+002
 20
2.146E+001
 11
2.3326E+002
 21
2.082E+001
  0
LINE
  8
1
  6
CONTINUOUS
 62
40
 10
2.3326E+002
 20
2.082E+001
 11
2.3234917E+002
 21
2.082E+001
  0
LINE
  8
1
  6
CONTINUOUS
 62
40
 10
2.3234917E+002
 20
2.082E+001
 11
2.3178917E+002
 21
1.922E+001
  0
LINE
  8
1
  6
CONTINUOUS
 62
40
 10
2.3178917E+002
 20
1.922E+001
 11
2.3131483E+002
 21
1.922E+001
  0
LINE
  8
1
  6
CONTINUOUS
 62
40
 10
7.366713E+001
 20
2.7118273E+002
 11
7.366713E+001
 21
2.6818273E+002
  0
LINE
  8
1
  6
CONTINUOUS
 62
40
 10
7.066713E+001
 20
2.7118273E+002
 11
7.366713E+001
 21
2.7118273E+002
  0
LINE
  8
1
  6
CONTINUOUS
 62
40
 10
7.066713E+001
 20
2.7118273E+002
 11
7.066713E+001
 21
2.6818273E+002
  0
LINE
  8
1
  6
CONTINUOUS
 62
40
 10
8.014313E+001
 20
2.6818273E+002
 11
8.314313E+001
 21
2.6818273E+002
  0
LINE
  8
1
  6
CONTINUOUS
 62
40
 10
8.314313E+001
 20
2.7118273E+002
 11
8.314313E+001
 21
2.6818273E+002
  0
LINE
  8
1
  6
CONTINUOUS
 62
40
 10
2.3156853E+002
 20
1.94E+001
 11
2.3222653E+002
 21
2.128E+001
  0
LINE
  8
1
  6
CONTINUOUS
 62
40
 10
2.3222653E+002
 20
2.128E+001
 11
2.3308E+002
 21
2.128E+001
  0
TEXT
  8
1
  6
CONTINUOUS
 62
40
 10
3.1283055E+002
 20
5.6201294E+001
 40
1.45
  1
Controle
 41
6.0E-001
  0
TEXT
  8
1
  6
CONTINUOUS
 62
40
 10
3.1283055E+002
 20
5.4461294E+001
 40
1.45
  1
Normes
 41
6.0E-001
  0
TEXT
  8
1
  6
CONTINUOUS
 62
40
 10
3.1283055E+002
 20
5.2201294E+001
 40
1.45
  1
Remplace
 41
6.0E-001
  0
TEXT
  8
1
  6
CONTINUOUS
 62
40
 10
3.1283055E+002
 20
5.0461294E+001
 40
1.45
  1
par :
 41
6.0E-001
  0
TEXT
  8
1
  6
CONTINUOUS
 62
40
 10
3.5483055E+002
 20
5.6201294E+001
 40
1.45
  1
Bon pour
 41
6.0E-001
  0
TEXT
  8
1
  6
CONTINUOUS
 62
40
 10
3.5483055E+002
 20
5.4461294E+001
 40
1.45
  1
execution
 41
6.0E-001
  0
LINE
  8
1
  6
CONTINUOUS
 62
40
 10
8.014313E+001
 20
2.7118273E+002
 11
8.314313E+001
 21
2.7118273E+002
  0
LINE
  8
1
  6
CONTINUOUS
 62
40
 10
2.3308E+002
 20
2.128E+001
 11
2.3308E+002
 21
2.1E+001
  0
LINE
  8
1
  6
CONTINUOUS
 62
40
 10
2.3308E+002
 20
2.1E+001
 11
2.3222147E+002
 21
2.1E+001
  0
LINE
  8
1
  6
CONTINUOUS
 62
40
 10
2.3222147E+002
 20
2.1E+001
 11
2.3166147E+002
 21
1.94E+001
  0
LINE
  8
1
  6
CONTINUOUS
 62
40
 10
2.3166147E+002
 20
1.94E+001
 11
2.3156853E+002
 21
1.94E+001
  0
LINE
  8
1
  6
CONTINUOUS
 62
40
 10
2.3308E+002
 20
2.115E+001
 11
2.3222147E+002
 21
2.115E+001
  0
LINE
  8
1
  6
CONTINUOUS
 62
40
 10
2.3642771E+002
 20
1.868E+001
 11
2.3804629E+002
 21
1.868E+001
  0
LINE
  8
1
  6
CONTINUOUS
 62
40
 10
2.3804629E+002
 20
1.868E+001
 11
2.3688429E+002
 21
2.2E+001
  0
LINE
  8
1
  6
CONTINUOUS
 62
40
 10
2.3688429E+002
 20
2.2E+001
 11
2.348E+002
 21
2.2E+001
  0
LINE
  8
1
  6
CONTINUOUS
 62
40
 10
2.348E+002
 20
2.2E+001
 11
2.348E+002
 21
2.028E+001
  0
LINE
  8
1
  6
CONTINUOUS
 62
40
 10
2.348E+002
 20
2.028E+001
 11
2.3586771E+002
 21
2.028E+001
  0
LINE
  8
1
  6
CONTINUOUS
 62
40
 10
2.3586771E+002
 20
2.028E+001
 11
2.3642771E+002
 21
1.868E+001
  0
LINE
  8
1
  6
CONTINUOUS
 62
40
 10
2.3655541E+002
 20
1.886E+001
 11
2.3779259E+002
 21
1.886E+001
  0
LINE
  8
1
  6
CONTINUOUS
 62
40
 10
2.3779259E+002
 20
1.886E+001
 11
2.3675659E+002
 21
2.182E+001
  0
LINE
  8
1
  6
CONTINUOUS
 62
40
 10
2.3675659E+002
 20
2.182E+001
 11
2.3498E+002
 21
2.182E+001
  0
LINE
  8
1
  6
CONTINUOUS
 62
40
 10
2.3498E+002
 20
2.182E+001
 11
2.3498E+002
 21
2.046E+001
  0
LINE
  8
1
  6
CONTINUOUS
 62
40
 10
2.3498E+002
 20
2.046E+001
 11
2.3599541E+002
 21
2.046E+001
  0
LINE
  8
1
  6
CONTINUOUS
 62
40
 10
2.3599541E+002
 20
2.046E+001
 11
2.3655541E+002
 21
1.886E+001
  0
LINE
  8
1
  6
CONTINUOUS
 62
40
 10
2.3753888E+002
 20
1.904E+001
 11
2.3662888E+002
 21
2.164E+001
  0
LINE
  8
1
  6
CONTINUOUS
 62
40
 10
2.3662888E+002
 20
2.164E+001
 11
2.3516E+002
 21
2.164E+001
  0
LINE
  8
1
  6
CONTINUOUS
 62
40
 10
2.3516E+002
 20
2.164E+001
 11
2.3516E+002
 21
2.064E+001
  0
LINE
  8
1
  6
CONTINUOUS
 62
40
 10
2.3516E+002
 20
2.064E+001
 11
2.3612312E+002
 21
2.064E+001
  0
LINE
  8
1
  6
CONTINUOUS
 62
40
 10
2.3612312E+002
 20
2.064E+001
 11
2.3668312E+002
 21
1.904E+001
  0
LINE
  8
1
  6
CONTINUOUS
 62
40
 10
2.3668312E+002
 20
1.904E+001
 11
2.3753888E+002
 21
1.904E+001
  0
LINE
  8
1
  6
CONTINUOUS
 62
40
 10
2.3728517E+002
 20
1.922E+001
 11
2.3650117E+002
 21
2.146E+001
  0
LINE
  8
1
  6
CONTINUOUS
 62
40
 10
2.3650117E+002
 20
2.146E+001
 11
2.3534E+002
 21
2.146E+001
  0
LINE
  8
1
  6
CONTINUOUS
 62
40
 10
2.3534E+002
 20
2.146E+001
 11
2.3534E+002
 21
2.082E+001
  0
LINE
  8
1
  6
CONTINUOUS
 62
40
 10
2.3534E+002
 20
2.082E+001
 11
2.3625083E+002
 21
2.082E+001
  0
LINE
  8
1
  6
CONTINUOUS
 62
40
 10
2.3625083E+002
 20
2.082E+001
 11
2.3681083E+002
 21
1.922E+001
  0
LINE
  8
1
  6
CONTINUOUS
 62
40
 10
2.3681083E+002
 20
1.922E+001
 11
2.3728517E+002
 21
1.922E+001
  0
LINE
  8
1
  6
CONTINUOUS
 62
40
 10
2.3703147E+002
 20
1.94E+001
 11
2.3637347E+002
 21
2.128E+001
  0
LINE
  8
1
  6
CONTINUOUS
 62
40
 10
2.3637347E+002
 20
2.128E+001
 11
2.3552E+002
 21
2.128E+001
  0
LINE
  8
1
  6
CONTINUOUS
 62
40
 10
2.3552E+002
 20
2.128E+001
 11
2.3552E+002
 21
2.1E+001
  0
LINE
  8
1
  6
CONTINUOUS
 62
40
 10
2.3552E+002
 20
2.1E+001
 11
2.3637853E+002
 21
2.1E+001
  0
LINE
  8
1
  6
CONTINUOUS
 62
40
 10
2.3637853E+002
 20
2.1E+001
 11
2.3693853E+002
 21
1.94E+001
  0
LINE
  8
1
  6
CONTINUOUS
 62
40
 10
2.3693853E+002
 20
1.94E+001
 11
2.3703147E+002
 21
1.94E+001
  0
LINE
  8
1
  6
CONTINUOUS
 62
40
 10
2.3552E+002
 20
2.115E+001
 11
2.3637853E+002
 21
2.115E+001
  0
LINE
  8
1
  6
CONTINUOUS
 62
40
 10
2.3904E+002
 20
2.3E+001
 11
2.3904E+002
 21
2.632E+001
  0
LINE
  8
1
  6
CONTINUOUS
 62
40
 10
2.3904E+002
 20
2.632E+001
 11
2.4076E+002
 21
2.632E+001
  0
LINE
  8
1
  6
CONTINUOUS
 62
40
 10
2.4076E+002
 20
2.632E+001
 11
2.4076E+002
 21
2.3E+001
  0
LINE
  8
1
  6
CONTINUOUS
 62
40
 10
2.4076E+002
 20
2.3E+001
 11
2.3904E+002
 21
2.3E+001
  0
LINE
  8
1
  6
CONTINUOUS
 62
40
 10
2.4058E+002
 20
2.318E+001
 11
2.3922E+002
 21
2.318E+001
  0
LINE
  8
1
  6
CONTINUOUS
 62
40
 10
2.3922E+002
 20
2.318E+001
 11
2.3922E+002
 21
2.614E+001
  0
LINE
  8
1
  6
CONTINUOUS
 62
40
 10
3.535E+002
 20
4.6E+001
 11
3.965E+002
 21
4.6E+001
  0
LINE
  8
1
  6
CONTINUOUS
 62
40
 10
3.535E+002
 20
4.2E+001
 11
3.965E+002
 21
4.2E+001
  0
LINE
  8
1
  6
CONTINUOUS
 62
40
 10
3.535E+002
 20
3.8E+001
 11
3.965E+002
 21
3.8E+001
  0
LINE
  8
1
  6
CONTINUOUS
 62
40
 10
3.385E+002
 20
3.4E+001
 11
3.965E+002
 21
3.4E+001
  0
TEXT
  8
1
  6
CONTINUOUS
 62
40
 10
2.2669606E+002
 20
5.4832339E+001
 40
2.0
  1
Etabli
 41
5.0E-001
  0
TEXT
  8
1
  6
CONTINUOUS
 62
40
 10
2.3269606E+002
 20
5.0832339E+001
 40
2.0
  1
Issu de :
 41
5.0E-001
  0
TEXT
  8
1
  6
CONTINUOUS
 62
40
 10
2.2968532E+002
 20
3.7081261E+001
 40
2.2
  1
Modif.
 41
5.0E-001
 50
9.0E+001
  0
TEXT
  8
1
  6
CONTINUOUS
 62
40
 10
2.6953012E+002
 20
5.4832339E+001
 40
2.0
  1
Controle
 41
5.0E-001
  0
TEXT
  8
1
  6
CONTINUOUS
 62
40
 10
2.7253012E+002
 20
5.0832339E+001
 40
2.0
  1
Remplace
 41
5.0E-001
  0
LINE
  8
1
  6
CONTINUOUS
 62
40
 10
2.3922E+002
 20
2.614E+001
 11
2.4058E+002
 21
2.614E+001
  0
LINE
  8
1
  6
CONTINUOUS
 62
40
 10
2.4058E+002
 20
2.614E+001
 11
2.4058E+002
 21
2.318E+001
  0
LINE
  8
1
  6
CONTINUOUS
 62
40
 10
2.394E+002
 20
2.336E+001
 11
2.394E+002
 21
2.596E+001
  0
TEXT
  8
1
  6
CONTINUOUS
 62
40
 10
3.4204651E+002
 20
4.6906468E+001
 40
2.0
  1
Echelle
 41
5.0E-001
  0
TEXT
  8
1
  6
CONTINUOUS
 62
40
 10
3.5478476E+002
 20
4.3201045E+001
 40
2.0
  1
Nomenclature separee de numero different
 41
4.5E-001
  0
TEXT
  8
1
  6
CONTINUOUS
 62
40
 10
3.5478476E+002
 20
4.7201045E+001
 40
2.0
  1
Nomenclature separee de meme numero
 41
4.5E-001
  0
TEXT
  8
1
  6
CONTINUOUS
 62
40
 10
3.5478476E+002
 20
5.1201045E+001
 40
2.0
  1
Sans nomenclature separee
 41
4.5E-001
  0
TEXT
  8
1
  6
CONTINUOUS
 62
40
 10
3.5478476E+002
 20
3.1201045E+001
 40
2.0
  1
Service resp.: B E
 41
4.5E-001
  0
TEXT
  8
1
  6
CONTINUOUS
 62
40
 10
3.4011841E+002
 20
2.7130883E+001
 40
2.2
  1
Doc. Type     Format     Langue     Feuil.No    Nb.feuil.
 41
4.5E-001
  0
TEXT
  8
1
  6
CONTINUOUS
 62
40
 10
3.6740098E+002
 20
2.3606885E+001
 40
2.2
  1
F
 41
7.5E-001
  0
TEXT
  8
1
  6
CONTINUOUS
 62
40
 10
3.585488E+002
 20
2.3606885E+001
 40
2.2
  1
3
 41
7.5E-001
  0
TEXT
  8
1
  6
CONTINUOUS
 62
5
 10
2.5700904E+002
 20
2.6746705E+001
 40
2.5
  1
ABB Control
 41
9.0E-001
  0
TEXT
  8
1
  6
CONTINUOUS
 62
40
 10
2.5714853E+002
 20
2.2747949E+001
 40
2.0
  1
Titre
 41
7.5E-001
  0
LINE
  8
1
  6
CONTINUOUS
 62
40
 10
3.25E+001
 20
6.9E+001
 11
3.25E+001
 21
1.5E+001
  0
LINE
  8
1
  6
CONTINUOUS
 62
40
 10
1.95E+001
 20
6.9E+001
 11
3.25E+001
 21
6.9E+001
  0
LINE
  8
1
  6
CONTINUOUS
 62
40
 10
2.394E+002
 20
2.596E+001
 11
2.404E+002
 21
2.596E+001
  0
LINE
  8
1
  6
CONTINUOUS
 62
40
 10
1.95E+001
 20
5.8833333E+001
 11
1.7E+001
 21
5.8833333E+001
  0
LINE
  8
1
  6
CONTINUOUS
 62
40
 10
1.95E+001
 20
1.0266667E+002
 11
1.7E+001
 21
1.0266667E+002
  0
LINE
  8
1
  6
CONTINUOUS
 62
40
 10
1.95E+001
 20
1.465E+002
 11
1.7E+001
 21
1.465E+002
  0
LINE
  8
1
  6
CONTINUOUS
 62
40
 10
1.95E+001
 20
1.9033333E+002
 11
1.7E+001
 21
1.9033333E+002
  0
LINE
  8
1
  6
CONTINUOUS
 62
40
 10
1.95E+001
 20
2.3416667E+002
 11
1.7E+001
 21
2.3416667E+002
  0
TEXT
  8
1
  6
CONTINUOUS
 62
40
 10
1.7E+001
 20
3.6916667E+001
 40
2.0
  1
A
  0
TEXT
  8
1
  6
CONTINUOUS
 62
40
 10
1.7E+001
 20
8.075E+001
 40
2.0
  1
B
  0
TEXT
  8
1
  6
CONTINUOUS
 62
40
 10
1.7E+001
 20
1.2458333E+002
 40
2.0
  1
C
  0
TEXT
  8
1
  6
CONTINUOUS
 62
40
 10
1.7E+001
 20
1.6841667E+002
 40
2.0
  1
D
  0
TEXT
  8
1
  6
CONTINUOUS
 62
40
 10
1.7E+001
 20
2.1225E+002
 40
2.0
  1
E
  0
TEXT
  8
1
  6
CONTINUOUS
 62
40
 10
1.7E+001
 20
2.5608333E+002
 40
2.0
  1
F
  0
TEXT
  8
1
  6
CONTINUOUS
 62
40
 10
3.9764933E+002
 20
3.6799778E+001
 40
2.0
  1
A
  0
LINE
  8
1
  6
CONTINUOUS
 62
40
 10
4.005E+002
 20
5.8833333E+001
 11
3.965E+002
 21
5.8833333E+001
  0
TEXT
  8
1
  6
CONTINUOUS
 62
40
 10
3.9764933E+002
 20
8.0633111E+001
 40
2.0
  1
B
  0
LINE
  8
1
  6
CONTINUOUS
 62
40
 10
4.005E+002
 20
1.0266667E+002
 11
3.965E+002
 21
1.0266667E+002
  0
TEXT
  8
1
  6
CONTINUOUS
 62
40
 10
3.9764933E+002
 20
1.2446644E+002
 40
2.0
  1
C
  0
LINE
  8
1
  6
CONTINUOUS
 62
40
 10
4.005E+002
 20
1.465E+002
 11
3.965E+002
 21
1.465E+002
  0
TEXT
  8
1
  6
CONTINUOUS
 62
40
 10
3.9764933E+002
 20
1.6829978E+002
 40
2.0
  1
D
  0
LINE
  8
1
  6
CONTINUOUS
 62
40
 10
4.005E+002
 20
1.9033333E+002
 11
3.965E+002
 21
1.9033333E+002
  0
TEXT
  8
1
  6
CONTINUOUS
 62
40
 10
3.9764933E+002
 20
2.1213311E+002
 40
2.0
  1
E
  0
LINE
  8
1
  6
CONTINUOUS
 62
40
 10
4.005E+002
 20
2.3416667E+002
 11
3.965E+002
 21
2.3416667E+002
  0
TEXT
  8
1
  6
CONTINUOUS
 62
40
 10
3.9814933E+002
 20
2.5596644E+002
 40
2.0
  1
F
  0
LINE
  8
1
  6
CONTINUOUS
 62
40
 10
4.005E+002
 20
1.5E+001
 11
4.005E+002
 21
3.0E+001
  0
LINE
  8
1
  6
CONTINUOUS
 62
40
 10
3.47625E+002
 20
1.5E+001
 11
3.47625E+002
 21
1.0E+001
  0
LINE
  8
1
  6
CONTINUOUS
 62
40
 10
3.47625E+002
 20
2.78E+002
 11
3.47625E+002
 21
2.83E+002
  0
LINE
  8
1
  6
CONTINUOUS
 62
40
 10
2.9875E+002
 20
1.5E+001
 11
2.9875E+002
 21
1.0E+001
  0
LINE
  8
1
  6
CONTINUOUS
 62
40
 10
2.9875E+002
 20
2.78E+002
 11
2.9875E+002
 21
2.83E+002
  0
LINE
  8
1
  6
CONTINUOUS
 62
40
 10
2.49875E+002
 20
1.5E+001
 11
2.49875E+002
 21
1.0E+001
  0
LINE
  8
1
  6
CONTINUOUS
 62
40
 10
2.49875E+002
 20
2.78E+002
 11
2.49875E+002
 21
2.83E+002
  0
LINE
  8
1
  6
CONTINUOUS
 62
40
 10
2.01E+002
 20
1.5E+001
 11
2.01E+002
 21
1.0E+001
  0
LINE
  8
1
  6
CONTINUOUS
 62
40
 10
2.01E+002
 20
2.78E+002
 11
2.01E+002
 21
2.83E+002
  0
LINE
  8
1
  6
CONTINUOUS
 62
40
 10
1.53125E+002
 20
1.5E+001
 11
1.53125E+002
 21
1.0E+001
  0
LINE
  8
1
  6
CONTINUOUS
 62
40
 10
1.53125E+002
 20
2.78E+002
 11
1.53125E+002
 21
2.83E+002
  0
LINE
  8
1
  6
CONTINUOUS
 62
40
 10
1.0425E+002
 20
1.5E+001
 11
1.0425E+002
 21
1.0E+001
  0
LINE
  8
1
  6
CONTINUOUS
 62
40
 10
1.0425E+002
 20
2.78E+002
 11
1.0425E+002
 21
2.83E+002
  0
LINE
  8
1
  6
CONTINUOUS
 62
40
 10
5.5375E+001
 20
1.5E+001
 11
5.5375E+001
 21
1.0E+001
  0
LINE
  8
1
  6
CONTINUOUS
 62
40
 10
5.5375E+001
 20
2.78E+002
 11
5.5375E+001
 21
2.83E+002
  0
TEXT
  8
1
  6
CONTINUOUS
 62
40
 10
3.720625E+002
 20
1.1249993E+001
 40
2.0
  1
1
  0
TEXT
  8
1
  6
CONTINUOUS
 62
40
 10
3.231875E+002
 20
1.1249993E+001
 40
2.0
  1
2
  0
TEXT
  8
1
  6
CONTINUOUS
 62
40
 10
2.743125E+002
 20
1.1249993E+001
 40
2.0
  1
3
  0
TEXT
  8
1
  6
CONTINUOUS
 62
40
 10
2.254375E+002
 20
1.1249993E+001
 40
2.0
  1
4
  0
TEXT
  8
1
  6
CONTINUOUS
 62
40
 10
1.775625E+002
 20
1.1249993E+001
 40
2.0
  1
5
  0
TEXT
  8
1
  6
CONTINUOUS
 62
40
 10
1.286875E+002
 20
1.1249993E+001
 40
2.0
  1
6
  0
TEXT
  8
1
  6
CONTINUOUS
 62
40
 10
7.98125E+001
 20
1.1249993E+001
 40
2.0
  1
7
  0
TEXT
  8
1
  6
CONTINUOUS
 62
40
 10
3.09375E+001
 20
1.1249993E+001
 40
2.0
  1
8
  0
TEXT
  8
1
  6
CONTINUOUS
 62
40
 10
3.720625E+002
 20
2.7924999E+002
 40
2.0
  1
1
  0
TEXT
  8
1
  6
CONTINUOUS
 62
40
 10
3.231875E+002
 20
2.7924999E+002
 40
2.0
  1
2
  0
TEXT
  8
1
  6
CONTINUOUS
 62
40
 10
2.743125E+002
 20
2.7924999E+002
 40
2.0
  1
3
  0
TEXT
  8
1
  6
CONTINUOUS
 62
40
 10
2.254375E+002
 20
2.7924999E+002
 40
2.0
  1
4
  0
TEXT
  8
1
  6
CONTINUOUS
 62
40
 10
1.775625E+002
 20
2.7924999E+002
 40
2.0
  1
5
  0
TEXT
  8
1
  6
CONTINUOUS
 62
40
 10
1.286875E+002
 20
2.7924999E+002
 40
2.0
  1
6
  0
TEXT
  8
1
  6
CONTINUOUS
 62
40
 10
7.98125E+001
 20
2.7924999E+002
 40
2.0
  1
7
  0
TEXT
  8
1
  6
CONTINUOUS
 62
40
 10
3.09375E+001
 20
2.7924999E+002
 40
2.0
  1
8
  0
LINE
  8
1
  6
CONTINUOUS
 62
40
 10
2.404E+002
 20
2.596E+001
 11
2.404E+002
 21
2.336E+001
  0
LINE
  8
1
  6
CONTINUOUS
 62
40
 10
2.404E+002
 20
2.336E+001
 11
2.394E+002
 21
2.336E+001
  0
LINE
  8
1
  6
CONTINUOUS
 62
40
 10
2.3958E+002
 20
2.354E+001
 11
2.3958E+002
 21
2.578E+001
  0
LINE
  8
1
  6
CONTINUOUS
 62
40
 10
2.3958E+002
 20
2.578E+001
 11
2.4022E+002
 21
2.578E+001
  0
LINE
  8
1
  6
CONTINUOUS
 62
40
 10
2.4022E+002
 20
2.578E+001
 11
2.4022E+002
 21
2.354E+001
  0
LINE
  8
1
  6
CONTINUOUS
 62
40
 10
2.4022E+002
 20
2.354E+001
 11
2.3958E+002
 21
2.354E+001
  0
LINE
  8
1
  6
CONTINUOUS
 62
40
 10
2.3976E+002
 20
2.372E+001
 11
2.3976E+002
 21
2.56E+001
  0
LINE
  8
1
  6
CONTINUOUS
 62
40
 10
2.3976E+002
 20
2.56E+001
 11
2.4004E+002
 21
2.56E+001
  0
LINE
  8
1
  6
CONTINUOUS
 62
40
 10
2.4004E+002
 20
2.56E+001
 11
2.4004E+002
 21
2.372E+001
  0
LINE
  8
1
  6
CONTINUOUS
 62
40
 10
2.4004E+002
 20
2.372E+001
 11
2.3976E+002
 21
2.372E+001
  0
LINE
  8
1
  6
CONTINUOUS
 62
40
 10
2.3992E+002
 20
2.384E+001
 11
2.3988E+002
 21
2.384E+001
  0
LINE
  8
1
  6
CONTINUOUS
 62
40
 10
2.3988E+002
 20
2.384E+001
 11
2.3988E+002
 21
2.548E+001
  0
LINE
  8
1
  6
CONTINUOUS
 62
40
 10
2.3988E+002
 20
2.548E+001
 11
2.3992E+002
 21
2.548E+001
  0
LINE
  8
1
  6
CONTINUOUS
 62
40
 10
2.3992E+002
 20
2.548E+001
 11
2.3992E+002
 21
2.384E+001
  0
LINE
  8
1
  6
CONTINUOUS
 62
40
 10
2.3904E+002
 20
1.868E+001
 11
2.4076E+002
 21
1.868E+001
  0
LINE
  8
1
  6
CONTINUOUS
 62
40
 10
2.4076E+002
 20
1.868E+001
 11
2.4076E+002
 21
2.2E+001
  0
LINE
  8
1
  6
CONTINUOUS
 62
40
 10
2.4076E+002
 20
2.2E+001
 11
2.3904E+002
 21
2.2E+001
  0
LINE
  8
1
  6
CONTINUOUS
 62
40
 10
2.3904E+002
 20
2.2E+001
 11
2.3904E+002
 21
1.868E+001
  0
LINE
  8
1
  6
CONTINUOUS
 62
40
 10
2.3922E+002
 20
2.182E+001
 11
2.3922E+002
 21
1.886E+001
  0
LINE
  8
1
  6
CONTINUOUS
 62
40
 10
2.3922E+002
 20
1.886E+001
 11
2.4058E+002
 21
1.886E+001
  0
LINE
  8
1
  6
CONTINUOUS
 62
40
 10
2.4058E+002
 20
1.886E+001
 11
2.4058E+002
 21
2.182E+001
  0
LINE
  8
1
  6
CONTINUOUS
 62
40
 10
2.4058E+002
 20
2.182E+001
 11
2.3922E+002
 21
2.182E+001
  0
LINE
  8
1
  6
CONTINUOUS
 62
40
 10
2.394E+002
 20
2.164E+001
 11
2.394E+002
 21
1.904E+001
  0
LINE
  8
1
  6
CONTINUOUS
 62
40
 10
2.394E+002
 20
1.904E+001
 11
2.404E+002
 21
1.904E+001
  0
LINE
  8
1
  6
CONTINUOUS
 62
40
 10
2.404E+002
 20
1.904E+001
 11
2.404E+002
 21
2.164E+001
  0
LINE
  8
1
  6
CONTINUOUS
 62
40
 10
2.404E+002
 20
2.164E+001
 11
2.394E+002
 21
2.164E+001
  0
LINE
  8
1
  6
CONTINUOUS
 62
40
 10
2.3958E+002
 20
2.146E+001
 11
2.3958E+002
 21
1.922E+001
  0
LINE
  8
1
  6
CONTINUOUS
 62
40
 10
2.3958E+002
 20
1.922E+001
 11
2.4022E+002
 21
1.922E+001
  0
LINE
  8
1
  6
CONTINUOUS
 62
40
 10
2.4022E+002
 20
1.922E+001
 11
2.4022E+002
 21
2.146E+001
  0
LINE
  8
1
  6
CONTINUOUS
 62
40
 10
2.4022E+002
 20
2.146E+001
 11
2.3958E+002
 21
2.146E+001
  0
LINE
  8
1
  6
CONTINUOUS
 62
40
 10
2.3976E+002
 20
1.94E+001
 11
2.4004E+002
 21
1.94E+001
  0
LINE
  8
1
  6
CONTINUOUS
 62
40
 10
2.4004E+002
 20
1.94E+001
 11
2.4004E+002
 21
2.128E+001
  0
LINE
  8
1
  6
CONTINUOUS
 62
40
 10
2.4004E+002
 20
2.128E+001
 11
2.3976E+002
 21
2.128E+001
  0
LINE
  8
1
  6
CONTINUOUS
 62
40
 10
2.3976E+002
 20
2.128E+001
 11
2.3976E+002
 21
1.94E+001
  0
LINE
  8
1
  6
CONTINUOUS
 62
40
 10
2.3988E+002
 20
1.952E+001
 11
2.3992E+002
 21
1.952E+001
  0
LINE
  8
1
  6
CONTINUOUS
 62
40
 10
2.3992E+002
 20
1.952E+001
 11
2.3992E+002
 21
2.116E+001
  0
LINE
  8
1
  6
CONTINUOUS
 62
40
 10
2.3992E+002
 20
2.116E+001
 11
2.3988E+002
 21
2.116E+001
  0
LINE
  8
1
  6
CONTINUOUS
 62
40
 10
2.3988E+002
 20
2.116E+001
 11
2.3988E+002
 21
1.952E+001
  0
LINE
  8
1
  6
CONTINUOUS
 62
40
 10
2.4176E+002
 20
2.3E+001
 11
2.4176E+002
 21
2.632E+001
  0
LINE
  8
1
  6
CONTINUOUS
 62
40
 10
2.4176E+002
 20
2.632E+001
 11
2.4206E+002
 21
2.632E+001
  0
ARC
  8
1
  6
CONTINUOUS
 62
40
 10
2.4206E+002
 20
2.47E+001
 40
1.62
 50
2.9938468E+002
 51
4.5E+002
  0
ARC
  8
1
  6
CONTINUOUS
 62
40
 10
2.4294321E+002
 20
2.3131579E+001
 40
1.8E-001
 50
1.1938468E+002
 51
2.269698E+002
  0
LINE
  8
1
  6
CONTINUOUS
 62
40
 10
2.4282038E+002
 20
2.3E+001
 11
2.4176E+002
 21
2.3E+001
  0
LINE
  8
1
  6
CONTINUOUS
 62
40
 10
2.4194E+002
 20
2.318E+001
 11
2.4194E+002
 21
2.614E+001
  0
LINE
  8
1
  6
CONTINUOUS
 62
40
 10
2.4194E+002
 20
2.614E+001
 11
2.4206E+002
 21
2.614E+001
  0
ARC
  8
1
  6
CONTINUOUS
 62
40
 10
2.4206E+002
 20
2.47E+001
 40
1.44
 50
2.9938468E+002
 51
4.5E+002
  0
ARC
  8
1
  6
CONTINUOUS
 62
40
 10
2.4294321E+002
 20
2.3131579E+001
 40
3.6E-001
 50
1.1938468E+002
 51
1.7227012E+002
  0
LINE
  8
1
  6
CONTINUOUS
 62
40
 10
2.4258648E+002
 20
2.318E+001
 11
2.4194E+002
 21
2.318E+001
  0
LINE
  8
1
  6
CONTINUOUS
 62
40
 10
2.4212E+002
 20
2.336E+001
 11
2.4212E+002
 21
2.5958571E+001
  0
ARC
  8
1
  6
CONTINUOUS
 62
40
 10
2.4206E+002
 20
2.47E+001
 40
1.26
 50
2.9938468E+002
 51
4.472706E+002
  0
ARC
  8
1
  6
CONTINUOUS
 62
40
 10
2.4294321E+002
 20
2.3131579E+001
 40
5.4E-001
 50
1.1938468E+002
 51
1.5497574E+002
  0
LINE
  8
1
  6
CONTINUOUS
 62
40
 10
2.424539E+002
 20
2.336E+001
 11
2.4212E+002
 21
2.336E+001
  0
LINE
  8
1
  6
CONTINUOUS
 62
40
 10
2.423E+002
 20
2.354E+001
 11
2.423E+002
 21
2.5752996E+001
  0
ARC
  8
1
  6
CONTINUOUS
 62
40
 10
2.4206E+002
 20
2.47E+001
 40
1.08
 50
2.9938468E+002
 51
4.3716041E+002
  0
ARC
  8
1
  6
CONTINUOUS
 62
40
 10
2.4294321E+002
 20
2.3131579E+001
 40
7.2E-001
 50
1.1938468E+002
 51
1.4544122E+002
  0
LINE
  8
1
  6
CONTINUOUS
 62
40
 10
2.4235026E+002
 20
2.354E+001
 11
2.423E+002
 21
2.354E+001
  0
LINE
  8
1
  6
CONTINUOUS
 62
40
 10
2.4248E+002
 20
2.3903226E+001
 11
2.4248E+002
 21
2.549599E+001
  0
ARC
  8
1
  6
CONTINUOUS
 62
40
 10
2.4206E+002
 20
2.47E+001
 40
9.0E-001
 50
2.9938468E+002
 51
4.2218186E+002
  0
ARC
  8
1
  6
CONTINUOUS
 62
40
 10
2.4294321E+002
 20
2.3131579E+001
 40
9.0E-001
 50
1.1938468E+002
 51
1.2097573E+002
  0
LINE
  8
1
  6
CONTINUOUS
 62
40
 10
2.426E+002
 20
2.413715E+001
 11
2.426E+002
 21
2.526285E+001
  0
ARC
  8
1
  6
CONTINUOUS
 62
40
 10
2.4206E+002
 20
2.47E+001
 40
7.8E-001
 50
3.1381306E+002
 51
4.0618694E+002
  0
LINE
  8
1
  6
CONTINUOUS
 62
40
 10
2.4176E+002
 20
1.868E+001
 11
2.4176E+002
 21
2.2E+001
  0
LINE
  8
1
  6
CONTINUOUS
 62
40
 10
2.4176E+002
 20
2.2E+001
 11
2.4398832E+002
 21
2.2E+001
  0
ARC
  8
1
  6
CONTINUOUS
 62
40
 10
2.4206E+002
 20
2.09E+001
 40
2.22
 50
2.7E+002
 51
3.8970243E+002
  0
LINE
  8
1
  6
CONTINUOUS
 62
40
 10
2.4206E+002
 20
1.868E+001
 11
2.4176E+002
 21
1.868E+001
  0
LINE
  8
1
  6
CONTINUOUS
 62
40
 10
2.4194E+002
 20
1.886E+001
 11
2.4194E+002
 21
2.182E+001
  0
LINE
  8
1
  6
CONTINUOUS
 62
40
 10
2.4194E+002
 20
2.182E+001
 11
2.4388077E+002
 21
2.182E+001
  0
ARC
  8
1
  6
CONTINUOUS
 62
40
 10
2.4206E+002
 20
2.09E+001
 40
2.04
 50
2.7E+002
 51
3.868066E+002
  0
LINE
  8
1
  6
CONTINUOUS
 62
40
 10
2.4206E+002
 20
1.886E+001
 11
2.4194E+002
 21
1.886E+001
  0
LINE
  8
1
  6
CONTINUOUS
 62
40
 10
2.4212E+002
 20
1.9040968E+001
 11
2.4212E+002
 21
2.164E+001
  0
LINE
  8
1
  6
CONTINUOUS
 62
40
 10
2.4212E+002
 20
2.164E+001
 11
2.4376646E+002
 21
2.164E+001
  0
ARC
  8
1
  6
CONTINUOUS
 62
40
 10
2.4206E+002
 20
2.09E+001
 40
1.86
 50
2.7184857E+002
 51
3.8344381E+002
  0
LINE
  8
1
  6
CONTINUOUS
 62
40
 10
2.423E+002
 20
1.9237231E+001
 11
2.423E+002
 21
2.146E+001
  0
LINE
  8
1
  6
CONTINUOUS
 62
40
 10
2.423E+002
 20
2.146E+001
 11
2.4364392E+002
 21
2.146E+001
  0
ARC
  8
1
  6
CONTINUOUS
 62
40
 10
2.4206E+002
 20
2.09E+001
 40
1.68
 50
2.7821321E+002
 51
3.7947122E+002
  0
LINE
  8
1
  6
CONTINUOUS
 62
40
 10
2.4248E+002
 20
1.946E+001
 11
2.4248E+002
 21
2.128E+001
  0
LINE
  8
1
  6
CONTINUOUS
 62
40
 10
2.4248E+002
 20
2.128E+001
 11
2.4351107E+002
 21
2.128E+001
  0
ARC
  8
1
  6
CONTINUOUS
 62
40
 10
2.4206E+002
 20
2.09E+001
 40
1.5
 50
2.862602E+002
 51
3.7467485E+002
  0
LINE
  8
1
  6
CONTINUOUS
 62
40
 10
2.4266E+002
 20
1.9724245E+001
 11
2.4266E+002
 21
2.11E+001
  0
LINE
  8
1
  6
CONTINUOUS
 62
40
 10
2.4266E+002
 20
2.11E+001
 11
2.4336476E+002
 21
2.11E+001
  0
ARC
  8
1
  6
CONTINUOUS
 62
40
 10
2.4206E+002
 20
2.09E+001
 40
1.32
 50
2.9703569E+002
 51
3.6871474E+002
  0
LINE
  8
1
  6
CONTINUOUS
 62
40
 10
2.4281E+002
 20
2.0002002E+001
 11
2.4281E+002
 21
2.095E+001
  0
LINE
  8
1
  6
CONTINUOUS
 62
40
 10
2.4281E+002
 20
2.095E+001
 11
2.4322893E+002
 21
2.095E+001
  0
ARC
  8
1
  6
CONTINUOUS
 62
40
 10
2.4206E+002
 20
2.09E+001
 40
1.17
 50
3.0986834E+002
 51
3.6244928E+002
  0
LINE
  8
1
  6
CONTINUOUS
 62
40
 10
2.4528E+002
 20
2.3E+001
 11
2.4528E+002
 21
2.632E+001
  0
LINE
  8
1
  6
CONTINUOUS
 62
40
 10
2.4528E+002
 20
2.632E+001
 11
2.47E+002
 21
2.632E+001
  0
LINE
  8
1
  6
CONTINUOUS
 62
40
 10
2.47E+002
 20
2.632E+001
 11
2.47E+002
 21
2.3E+001
  0
LINE
  8
1
  6
CONTINUOUS
 62
40
 10
2.47E+002
 20
2.3E+001
 11
2.4528E+002
 21
2.3E+001
  0
LINE
  8
1
  6
CONTINUOUS
 62
40
 10
2.4682E+002
 20
2.318E+001
 11
2.4546E+002
 21
2.318E+001
  0
LINE
  8
1
  6
CONTINUOUS
 62
40
 10
2.4546E+002
 20
2.318E+001
 11
2.4546E+002
 21
2.614E+001
  0
LINE
  8
1
  6
CONTINUOUS
 62
40
 10
2.4546E+002
 20
2.614E+001
 11
2.4682E+002
 21
2.614E+001
  0
LINE
  8
1
  6
CONTINUOUS
 62
40
 10
2.4682E+002
 20
2.614E+001
 11
2.4682E+002
 21
2.318E+001
  0
LINE
  8
1
  6
CONTINUOUS
 62
40
 10
2.4564E+002
 20
2.336E+001
 11
2.4564E+002
 21
2.596E+001
  0
LINE
  8
1
  6
CONTINUOUS
 62
40
 10
2.4564E+002
 20
2.596E+001
 11
2.4664E+002
 21
2.596E+001
  0
LINE
  8
1
  6
CONTINUOUS
 62
40
 10
2.4664E+002
 20
2.596E+001
 11
2.4664E+002
 21
2.336E+001
  0
LINE
  8
1
  6
CONTINUOUS
 62
40
 10
2.4664E+002
 20
2.336E+001
 11
2.4564E+002
 21
2.336E+001
  0
LINE
  8
1
  6
CONTINUOUS
 62
40
 10
2.4582E+002
 20
2.354E+001
 11
2.4582E+002
 21
2.578E+001
  0
LINE
  8
1
  6
CONTINUOUS
 62
40
 10
2.4582E+002
 20
2.578E+001
 11
2.4646E+002
 21
2.578E+001
  0
LINE
  8
1
  6
CONTINUOUS
 62
40
 10
2.4646E+002
 20
2.578E+001
 11
2.4646E+002
 21
2.354E+001
  0
LINE
  8
1
  6
CONTINUOUS
 62
40
 10
2.4646E+002
 20
2.354E+001
 11
2.4582E+002
 21
2.354E+001
  0
LINE
  8
1
  6
CONTINUOUS
 62
40
 10
2.4628E+002
 20
2.372E+001
 11
2.46E+002
 21
2.372E+001
  0
LINE
  8
1
  6
CONTINUOUS
 62
40
 10
2.46E+002
 20
2.372E+001
 11
2.46E+002
 21
2.56E+001
  0
LINE
  8
1
  6
CONTINUOUS
 62
40
 10
2.46E+002
 20
2.56E+001
 11
2.4628E+002
 21
2.56E+001
  0
LINE
  8
1
  6
CONTINUOUS
 62
40
 10
2.4628E+002
 20
2.56E+001
 11
2.4628E+002
 21
2.372E+001
  0
LINE
  8
1
  6
CONTINUOUS
 62
40
 10
2.4612E+002
 20
2.384E+001
 11
2.4612E+002
 21
2.548E+001
  0
LINE
  8
1
  6
CONTINUOUS
 62
40
 10
2.4612E+002
 20
2.548E+001
 11
2.4616E+002
 21
2.548E+001
  0
LINE
  8
1
  6
CONTINUOUS
 62
40
 10
2.4616E+002
 20
2.548E+001
 11
2.4616E+002
 21
2.384E+001
  0
LINE
  8
1
  6
CONTINUOUS
 62
1
 10
2.4616E+002
 20
2.384E+001
 11
2.4612E+002
 21
2.384E+001
  0
LINE
  8
1
  6
CONTINUOUS
 62
40
 10
2.4528E+002
 20
1.868E+001
 11
2.47E+002
 21
1.868E+001
  0
LINE
  8
1
  6
CONTINUOUS
 62
40
 10
2.47E+002
 20
1.868E+001
 11
2.47E+002
 21
2.2E+001
  0
LINE
  8
1
  6
CONTINUOUS
 62
40
 10
2.47E+002
 20
2.2E+001
 11
2.4528E+002
 21
2.2E+001
  0
LINE
  8
1
  6
CONTINUOUS
 62
40
 10
2.4528E+002
 20
2.2E+001
 11
2.4528E+002
 21
1.868E+001
  0
LINE
  8
1
  6
CONTINUOUS
 62
40
 10
2.4546E+002
 20
2.182E+001
 11
2.4546E+002
 21
1.886E+001
  0
LINE
  8
1
  6
CONTINUOUS
 62
40
 10
2.4546E+002
 20
1.886E+001
 11
2.4682E+002
 21
1.886E+001
  0
LINE
  8
1
  6
CONTINUOUS
 62
40
 10
2.4682E+002
 20
1.886E+001
 11
2.4682E+002
 21
2.182E+001
  0
LINE
  8
1
  6
CONTINUOUS
 62
40
 10
2.4682E+002
 20
2.182E+001
 11
2.4546E+002
 21
2.182E+001
  0
LINE
  8
1
  6
CONTINUOUS
 62
40
 10
2.4564E+002
 20
2.164E+001
 11
2.4564E+002
 21
1.904E+001
  0
LINE
  8
1
  6
CONTINUOUS
 62
40
 10
2.4564E+002
 20
1.904E+001
 11
2.4664E+002
 21
1.904E+001
  0
LINE
  8
1
  6
CONTINUOUS
 62
40
 10
2.4664E+002
 20
1.904E+001
 11
2.4664E+002
 21
2.164E+001
  0
LINE
  8
1
  6
CONTINUOUS
 62
40
 10
2.4664E+002
 20
2.164E+001
 11
2.4564E+002
 21
2.164E+001
  0
LINE
  8
1
  6
CONTINUOUS
 62
40
 10
2.4582E+002
 20
1.922E+001
 11
2.4646E+002
 21
1.922E+001
  0
LINE
  8
1
  6
CONTINUOUS
 62
40
 10
2.4646E+002
 20
1.922E+001
 11
2.4646E+002
 21
2.146E+001
  0
LINE
  8
1
  6
CONTINUOUS
 62
40
 10
2.4646E+002
 20
2.146E+001
 11
2.4582E+002
 21
2.146E+001
  0
LINE
  8
1
  6
CONTINUOUS
 62
40
 10
2.4582E+002
 20
2.146E+001
 11
2.4582E+002
 21
1.922E+001
  0
LINE
  8
1
  6
CONTINUOUS
 62
40
 10
2.46E+002
 20
2.128E+001
 11
2.46E+002
 21
1.94E+001
  0
LINE
  8
1
  6
CONTINUOUS
 62
40
 10
2.46E+002
 20
1.94E+001
 11
2.4628E+002
 21
1.94E+001
  0
LINE
  8
1
  6
CONTINUOUS
 62
40
 10
2.4628E+002
 20
1.94E+001
 11
2.4628E+002
 21
2.128E+001
  0
LINE
  8
1
  6
CONTINUOUS
 62
40
 10
2.4628E+002
 20
2.128E+001
 11
2.46E+002
 21
2.128E+001
  0
LINE
  8
1
  6
CONTINUOUS
 62
40
 10
2.4612E+002
 20
2.116E+001
 11
2.4612E+002
 21
1.952E+001
  0
LINE
  8
1
  6
CONTINUOUS
 62
40
 10
2.4612E+002
 20
1.952E+001
 11
2.4616E+002
 21
1.952E+001
  0
LINE
  8
1
  6
CONTINUOUS
 62
40
 10
2.4616E+002
 20
1.952E+001
 11
2.4616E+002
 21
2.116E+001
  0
LINE
  8
1
  6
CONTINUOUS
 62
40
 10
2.4616E+002
 20
2.116E+001
 11
2.4612E+002
 21
2.116E+001
  0
LINE
  8
1
  6
CONTINUOUS
 62
40
 10
2.4906038E+002
 20
2.3E+001
 11
2.48E+002
 21
2.3E+001
  0
LINE
  8
1
  6
CONTINUOUS
 62
40
 10
2.48E+002
 20
2.3E+001
 11
2.48E+002
 21
2.632E+001
  0
LINE
  8
1
  6
CONTINUOUS
 62
40
 10
2.48E+002
 20
2.632E+001
 11
2.483E+002
 21
2.632E+001
  0
ARC
  8
1
  6
CONTINUOUS
 62
40
 10
2.483E+002
 20
2.47E+001
 40
1.62
 50
2.9938468E+002
 51
4.5E+002
  0
ARC
  8
1
  6
CONTINUOUS
 62
40
 10
2.4918321E+002
 20
2.3131579E+001
 40
1.8E-001
 50
1.1938468E+002
 51
2.269698E+002
  0
LINE
  8
1
  6
CONTINUOUS
 62
40
 10
2.4818E+002
 20
2.318E+001
 11
2.4818E+002
 21
2.614E+001
  0
LINE
  8
1
  6
CONTINUOUS
 62
40
 10
2.4818E+002
 20
2.614E+001
 11
2.483E+002
 21
2.614E+001
  0
ARC
  8
1
  6
CONTINUOUS
 62
40
 10
2.483E+002
 20
2.47E+001
 40
1.44
 50
2.9938468E+002
 51
4.5E+002
  0
ARC
  8
1
  6
CONTINUOUS
 62
40
 10
2.4918321E+002
 20
2.3131579E+001
 40
3.6E-001
 50
1.1938468E+002
 51
1.7227012E+002
  0
LINE
  8
1
  6
CONTINUOUS
 62
40
 10
2.4882648E+002
 20
2.318E+001
 11
2.4818E+002
 21
2.318E+001
  0
LINE
  8
1
  6
CONTINUOUS
 62
40
 10
2.486939E+002
 20
2.336E+001
 11
2.4836E+002
 21
2.336E+001
  0
LINE
  8
1
  6
CONTINUOUS
 62
40
 10
2.4836E+002
 20
2.336E+001
 11
2.4836E+002
 21
2.5958571E+001
  0
ARC
  8
1
  6
CONTINUOUS
 62
40
 10
2.483E+002
 20
2.47E+001
 40
1.26
 50
2.9938468E+002
 51
4.472706E+002
  0
ARC
  8
1
  6
CONTINUOUS
 62
40
 10
2.4918321E+002
 20
2.3131579E+001
 40
5.4E-001
 50
1.1938468E+002
 51
1.5497574E+002
  0
LINE
  8
1
  6
CONTINUOUS
 62
40
 10
2.4854E+002
 20
2.354E+001
 11
2.4854E+002
 21
2.5752996E+001
  0
ARC
  8
1
  6
CONTINUOUS
 62
40
 10
2.483E+002
 20
2.47E+001
 40
1.08
 50
2.9938468E+002
 51
4.3716041E+002
  0
ARC
  8
1
  6
CONTINUOUS
 62
40
 10
2.4918321E+002
 20
2.3131579E+001
 40
7.2E-001
 50
1.1938468E+002
 51
1.4544122E+002
  0
LINE
  8
1
  6
CONTINUOUS
 62
40
 10
2.4859026E+002
 20
2.354E+001
 11
2.4854E+002
 21
2.354E+001
  0
LINE
  8
1
  6
CONTINUOUS
 62
40
 10
2.4872E+002
 20
2.3903226E+001
 11
2.4872E+002
 21
2.549599E+001
  0
ARC
  8
1
  6
CONTINUOUS
 62
40
 10
2.483E+002
 20
2.47E+001
 40
9.0E-001
 50
2.9938468E+002
 51
4.2218186E+002
  0
ARC
  8
1
  6
CONTINUOUS
 62
40
 10
2.4918321E+002
 20
2.3131579E+001
 40
9.0E-001
 50
1.1938468E+002
 51
1.2097573E+002
  0
LINE
  8
1
  6
CONTINUOUS
 62
40
 10
2.4884E+002
 20
2.413715E+001
 11
2.4884E+002
 21
2.526285E+001
  0
ARC
  8
1
  6
CONTINUOUS
 62
40
 10
2.483E+002
 20
2.47E+001
 40
7.8E-001
 50
3.1381306E+002
 51
4.0618694E+002
  0
LINE
  8
1
  6
CONTINUOUS
 62
40
 10
2.48E+002
 20
1.868E+001
 11
2.48E+002
 21
2.2E+001
  0
LINE
  8
1
  6
CONTINUOUS
 62
40
 10
2.48E+002
 20
2.2E+001
 11
2.5022832E+002
 21
2.2E+001
  0
ARC
  8
1
  6
CONTINUOUS
 62
40
 10
2.483E+002
 20
2.09E+001
 40
2.22
 50
2.7E+002
 51
3.8970243E+002
  0
LINE
  8
1
  6
CONTINUOUS
 62
40
 10
2.483E+002
 20
1.868E+001
 11
2.48E+002
 21
1.868E+001
  0
LINE
  8
1
  6
CONTINUOUS
 62
40
 10
2.4818E+002
 20
1.886E+001
 11
2.4818E+002
 21
2.182E+001
  0
LINE
  8
1
  6
CONTINUOUS
 62
40
 10
2.4818E+002
 20
2.182E+001
 11
2.5012077E+002
 21
2.182E+001
  0
ARC
  8
1
  6
CONTINUOUS
 62
40
 10
2.483E+002
 20
2.09E+001
 40
2.04
 50
2.7E+002
 51
3.868066E+002
  0
LINE
  8
1
  6
CONTINUOUS
 62
40
 10
2.483E+002
 20
1.886E+001
 11
2.4818E+002
 21
1.886E+001
  0
LINE
  8
1
  6
CONTINUOUS
 62
40
 10
2.4836E+002
 20
1.9040968E+001
 11
2.4836E+002
 21
2.164E+001
  0
LINE
  8
1
  6
CONTINUOUS
 62
40
 10
2.4836E+002
 20
2.164E+001
 11
2.5000646E+002
 21
2.164E+001
  0
ARC
  8
1
  6
CONTINUOUS
 62
40
 10
2.483E+002
 20
2.09E+001
 40
1.86
 50
2.7184857E+002
 51
3.8344381E+002
  0
LINE
  8
1
  6
CONTINUOUS
 62
40
 10
2.4854E+002
 20
1.9237231E+001
 11
2.4854E+002
 21
2.146E+001
  0
LINE
  8
1
  6
CONTINUOUS
 62
40
 10
2.4854E+002
 20
2.146E+001
 11
2.4988392E+002
 21
2.146E+001
  0
ARC
  8
1
  6
CONTINUOUS
 62
40
 10
2.483E+002
 20
2.09E+001
 40
1.68
 50
2.7821321E+002
 51
3.7947122E+002
  0
LINE
  8
1
  6
CONTINUOUS
 62
40
 10
2.4872E+002
 20
1.946E+001
 11
2.4872E+002
 21
2.128E+001
  0
LINE
  8
1
  6
CONTINUOUS
 62
40
 10
2.4872E+002
 20
2.128E+001
 11
2.4975107E+002
 21
2.128E+001
  0
ARC
  8
1
  6
CONTINUOUS
 62
40
 10
2.483E+002
 20
2.09E+001
 40
1.5
 50
2.862602E+002
 51
3.7467485E+002
  0
LINE
  8
1
  6
CONTINUOUS
 62
40
 10
2.489E+002
 20
1.9724245E+001
 11
2.489E+002
 21
2.11E+001
  0
LINE
  8
1
  6
CONTINUOUS
 62
40
 10
2.489E+002
 20
2.11E+001
 11
2.4960476E+002
 21
2.11E+001
  0
ARC
  8
1
  6
CONTINUOUS
 62
40
 10
2.483E+002
 20
2.09E+001
 40
1.32
 50
2.9703569E+002
 51
3.6871474E+002
  0
LINE
  8
1
  6
CONTINUOUS
 62
40
 10
2.4908E+002
 20
2.0068616E+001
 11
2.4908E+002
 21
2.092E+001
  0
LINE
  8
1
  6
CONTINUOUS
 62
40
 10
2.4908E+002
 20
2.092E+001
 11
2.4943982E+002
 21
2.092E+001
  0
ARC
  8
1
  6
CONTINUOUS
 62
40
 10
2.483E+002
 20
2.09E+001
 40
1.14
 50
3.1317355E+002
 51
3.6100524E+002
  0
LINE
  8
1
  6
CONTINUOUS
 62
40
 10
2.4292E+002
 20
2.084E+001
 11
2.431183E+002
 21
2.084E+001
  0
ARC
  8
1
  6
CONTINUOUS
 62
40
 10
2.4206E+002
 20
2.09E+001
 40
1.06
 50
3.2422517E+002
 51
3.5675511E+002
  0
LINE
  8
1
  6
CONTINUOUS
 62
40
 10
2.4292E+002
 20
2.0280323E+001
 11
2.4292E+002
 21
2.084E+001
  0
LINE
  8
1
  6
CONTINUOUS
 62
40
 10
2.4919E+002
 20
2.0381541E+001
 11
2.4919E+002
 21
2.081E+001
  0
LINE
  8
1
  6
CONTINUOUS
 62
40
 10
2.4919E+002
 20
2.081E+001
 11
2.4932606E+002
 21
2.081E+001
  0
ARC
  8
1
  6
CONTINUOUS
 62
40
 10
2.483E+002
 20
2.09E+001
 40
1.03
 50
3.2977755E+002
 51
3.5498718E+002
  0
LINE
  8
1
  6
CONTINUOUS
 62
40
 10
8.014313E+001
 20
2.7118273E+002
 11
8.014313E+001
 21
2.6818273E+002
  0
TEXT
  8
1
  6
CONTINUOUS
 62
40
 10
2.2394545E+001
 20
1.7473426E+001
 40
2.0
  1
Ce document, propriete exclusive de notre
 41
6.0E-001
 50
9.0E+001
  0
TEXT
  8
1
  6
CONTINUOUS
 62
40
 10
2.5394545E+001
 20
1.7473426E+001
 40
2.0
  1
Societe, est strictement confidentiel. Il
 41
6.0E-001
 50
9.0E+001
  0
TEXT
  8
1
  6
CONTINUOUS
 62
40
 10
2.8394545E+001
 20
1.7473426E+001
 40
2.0
  1
ne peut etre communique, copie ou
 41
6.0E-001
 50
9.0E+001
  0
TEXT
  8
1
  6
CONTINUOUS
 62
40
 10
3.1394545E+001
 20
1.7473426E+001
 40
2.0
  1
reproduit sans son autorisation ecrite.
 41
6.0E-001
 50
9.0E+001
  0
POINT
  8
1
  6
CONTINUOUS
 62
1
 10
3.965E+002
 20
2.78E+002
  0
POINT
  8
1
  6
CONTINUOUS
 62
1
 10
3.965E+002
 20
2.78E+002
  0
ATTDEF
  8
1
  6
CONTINUOUS
 62
3
 10
3.4057224E+002
 20
1.58802E+001
 40
6.0
  1
 
 41
8.0E-001
  3
N_plan
  2
N_plan
 70
0
  0
ATTDEF
  8
1
  6
CONTINUOUS
 62
5
 10
2.705845E+002
 20
2.2158328E+001
 40
2.5
  1
 
 41
8.0E-001
  3
Appareil
  2
Appareil
 70
0
  0
ATTDEF
  8
1
  6
CONTINUOUS
 62
3
 10
3.044375E+002
 20
1.6254832E+001
 40
3.5
  1
 
 41
8.5E-001
 72
1
 11
2.97E+002
 21
1.6254832E+001
  3
Piece
  2
Piece
 70
0
  0
ATTDEF
  8
1
  6
CONTINUOUS
 62
3
 10
3.6523956E+002
 20
4.453937E+001
 40
8.0
  1
 
 41
7.0E-001
 72
1
 11
3.4563956E+002
 21
4.053937E+001
  3
Echelle
  2
Echelle
 70
0
 73
2
 74
2
  0
ATTDEF
  8
1
  6
CONTINUOUS
 62
40
 10
2.3550289E+002
 20
5.4925552E+001
 40
2.2
  1
 
 41
6.0E-001
  3
Etabli
  2
Etabli
 70
0
  0
ATTDEF
  8
1
  6
CONTINUOUS
 62
40
 10
2.7975314E+002
 20
5.4847514E+001
 40
2.2
  1
 
 41
6.0E-001
  3
Controle
  2
Controle
 70
0
  0
ATTDEF
  8
1
  6
CONTINUOUS
 62
40
 10
3.6490138E+002
 20
5.4716689E+001
 40
2.5
  1
 
 41
5.0E-001
  3
Execution
  2
Execution
 70
0
  0
ATTDEF
  8
1
  6
CONTINUOUS
 62
40
 10
2.4266886E+002
 20
5.0869941E+001
 40
2.2
  1
 
 41
6.0E-001
  3
Issu
  2
Issu
 70
0
  0
ATTDEF
  8
1
  6
CONTINUOUS
 62
40
 10
2.8205203E+002
 20
5.0832642E+001
 40
2.2
  1
 
 41
6.0E-001
  3
Remplace
  2
Remplace
 70
0
  0
ATTDEF
  8
1
  6
CONTINUOUS
 62
40
 10
3.2164064E+002
 20
5.0943037E+001
 40
2.2
  1
 
 41
6.0E-001
  3
Remplace_par
  2
Remplace_par
 70
0
  0
ATTDEF
  8
1
  6
CONTINUOUS
 62
40
 10
2.4248861E+002
 20
3.3211826E+001
 40
2.5
  1
 
 72
1
 11
2.3498861E+002
 21
3.1961826E+001
  3
Indice
  2
Indice
 70
0
 73
2
 74
2
  0
ATTDEF
  8
1
  6
CONTINUOUS
 62
40
 10
4.0821335E+002
 20
1.7713872E+001
 40
2.4
  1
 
 72
1
 11
3.9861335E+002
 21
1.6513872E+001
  3
Indice_2
  2
Indice_2
 70
0
 73
2
 74
2
  0
ATTDEF
  8
1
  6
CONTINUOUS
 62
40
 10
2.401432E+002
 20
3.0659267E+001
 40
2.5
  1
 
 41
5.0E-001
  3
Texte_indice
  2
Texte_indice
 70
0
  0
ATTDEF
  8
1
  6
CONTINUOUS
 62
40
 10
4.2659522E+002
 20
5.3448568E+001
 40
2.9
  1
 
 41
1.3
 72
1
 11
3.9455022E+002
 21
5.1998568E+001
  3
Sans_nomenclature
  2
Sans_nomenclature
 70
0
 73
2
 74
2
  0
ATTDEF
  8
1
  6
CONTINUOUS
 62
40
 10
4.2856844E+002
 20
4.9434386E+001
 40
2.9
  1
 
 41
1.3
 72
1
 11
3.9463844E+002
 21
4.7984386E+001
  3
Nomenc_meme_numero
  2
Nomenc_meme_numero
 70
0
 73
2
 74
2
  0
ATTDEF
  8
1
  6
CONTINUOUS
 62
40
 10
4.2663933E+002
 20
4.5376092E+001
 40
2.9
  1
 
 41
1.3
 72
1
 11
3.9459433E+002
 21
4.3926092E+001
  3
Nomenc_numero_dif
  2
Nomenc_numero_dif
 70
0
 73
2
 74
2
  0
ATTDEF
  8
1
  6
CONTINUOUS
 62
40
 10
5.5410405E+001
 20
2.7117194E+002
 40
3.0
  1
 
 41
1.4
 72
1
 11
5.3310405E+001
 21
2.6967194E+002
  3
f
  2
f
 70
0
 73
2
 74
2
  0
ATTDEF
  8
1
  6
CONTINUOUS
 62
40
 10
6.4886971E+001
 20
2.7118863E+002
 40
3.0
  1
 
 41
1.4
 72
1
 11
6.2786971E+001
 21
2.6968863E+002
  3
m
  2
m
 70
0
 73
2
 74
2
  0
ATTDEF
  8
1
  6
CONTINUOUS
 62
40
 10
7.4380531E+001
 20
2.7118698E+002
 40
3.0
  1
 
 41
1.4
 72
1
 11
7.2280531E+001
 21
2.6968698E+002
  3
c
  2
c
 70
0
 73
2
 74
2
  0
ATTDEF
  8
1
  6
CONTINUOUS
 62
40
 10
8.3855731E+001
 20
2.7117858E+002
 40
3.0
  1
 
 41
1.4
 72
1
 11
8.1755731E+001
 21
2.6967858E+002
  3
v
  2
v
 70
0
 73
2
 74
2
  0
ATTDEF
  8
1
  6
CONTINUOUS
 62
40
 10
1.3471797E+002
 20
2.7195796E+002
 40
2.9
  1
 
 41
1.3
 72
1
 11
1.2906297E+002
 21
2.7050796E+002
  3
130
  2
130
 70
0
 73
2
 74
2
  0
ATTDEF
  8
1
  6
CONTINUOUS
 62
40
 10
1.4770684E+002
 20
2.7193317E+002
 40
2.9
  1
 
 41
1.3
 72
1
 11
1.4205184E+002
 21
2.7048317E+002
  3
140
  2
140
 70
0
 73
2
 74
2
  0
POINT
  8
1
  6
CONTINUOUS
 62
1
 10
3.965E+002
 20
2.78E+002
  0
ENDBLK
  0
BLOCK
  2
ABB-S-E-B
 10
0.0
 20
0.0
 70
0
  0
LINE
  8
1
  6
CONTINUOUS
 62
1
 10
3.5E-001
 20
1.0
 11
4.6E-001
 21
1.0
  0
LINE
  8
1
  6
CONTINUOUS
 62
1
 10
4.6E-001
 20
5.4E-001
 11
4.6E-001
 21
1.0
  0
LINE
  8
1
  6
CONTINUOUS
 62
1
 10
1.89E-001
 20
5.4E-001
 11
4.6E-001
 21
5.4E-001
  0
LINE
  8
1
  6
CONTINUOUS
 62
1
 10
1.89E-001
 20
5.4E-001
 11
3.5E-001
 21
1.0
  0
LINE
  8
1
  6
CONTINUOUS
 62
1
 10
6.5E-001
 20
1.0
 11
8.11E-001
 21
5.4E-001
  0
LINE
  8
1
  6
CONTINUOUS
 62
1
 10
5.4E-001
 20
5.4E-001
 11
8.11E-001
 21
5.4E-001
  0
LINE
  8
1
  6
CONTINUOUS
 62
1
 10
5.4E-001
 20
5.4E-001
 11
5.4E-001
 21
1.0
  0
LINE
  8
1
  6
CONTINUOUS
 62
1
 10
5.4E-001
 20
1.0
 11
6.5E-001
 21
1.0
  0
LINE
  8
1
  6
CONTINUOUS
 62
1
 10
0.0
 20
0.0
 11
1.61E-001
 21
4.6E-001
  0
LINE
  8
1
  6
CONTINUOUS
 62
1
 10
0.0
 20
0.0
 11
2.5E-001
 21
0.0
  0
LINE
  8
1
  6
CONTINUOUS
 62
1
 10
2.5E-001
 20
0.0
 11
3.2E-001
 21
2.0E-001
  0
LINE
  8
1
  6
CONTINUOUS
 62
1
 10
3.2E-001
 20
2.0E-001
 11
4.6E-001
 21
2.0E-001
  0
LINE
  8
1
  6
CONTINUOUS
 62
1
 10
4.6E-001
 20
2.0E-001
 11
4.6E-001
 21
4.6E-001
  0
LINE
  8
1
  6
CONTINUOUS
 62
1
 10
1.61E-001
 20
4.6E-001
 11
4.6E-001
 21
4.6E-001
  0
LINE
  8
1
  6
CONTINUOUS
 62
1
 10
5.4E-001
 20
2.0E-001
 11
6.8E-001
 21
2.0E-001
  0
LINE
  8
1
  6
CONTINUOUS
 62
1
 10
7.5E-001
 20
0.0
 11
6.8E-001
 21
2.0E-001
  0
LINE
  8
1
  6
CONTINUOUS
 62
1
 10
7.5E-001
 20
0.0
 11
1.0
 21
0.0
  0
LINE
  8
1
  6
CONTINUOUS
 62
1
 10
8.39E-001
 20
4.6E-001
 11
1.0
 21
0.0
  0
LINE
  8
1
  6
CONTINUOUS
 62
1
 10
5.4E-001
 20
4.6E-001
 11
8.39E-001
 21
4.6E-001
  0
LINE
  8
1
  6
CONTINUOUS
 62
1
 10
5.4E-001
 20
2.0E-001
 11
5.4E-001
 21
4.6E-001
  0
LINE
  8
1
  6
CONTINUOUS
 62
1
 10
1.07
 20
1.0
 11
1.07
 21
5.4E-001
  0
LINE
  8
1
  6
CONTINUOUS
 62
1
 10
1.07
 20
5.4E-001
 11
1.33
 21
5.4E-001
  0
LINE
  8
1
  6
CONTINUOUS
 62
1
 10
1.33
 20
1.0
 11
1.33
 21
5.4E-001
  0
LINE
  8
1
  6
CONTINUOUS
 62
1
 10
1.07
 20
1.0
 11
1.33
 21
1.0
  0
LINE
  8
1
  6
CONTINUOUS
 62
1
 10
1.41
 20
1.0
 11
1.41
 21
5.4E-001
  0
LINE
  8
1
  6
CONTINUOUS
 62
1
 10
1.41
 20
1.0
 11
1.47
 21
1.0
  0
ARC
  8
1
  6
CONTINUOUS
 62
1
 10
1.47
 20
7.75E-001
 40
2.25E-001
 50
2.9938468E+002
 51
4.5E+002
  0
ARC
  8
1
  6
CONTINUOUS
 62
1
 10
1.47
 20
3.0E-001
 40
3.0E-001
 50
5.3130102E+001
 51
6.8407484E+001
  0
LINE
  8
1
  6
CONTINUOUS
 62
1
 10
1.41
 20
5.4E-001
 11
1.65
 21
5.4E-001
  0
LINE
  8
1
  6
CONTINUOUS
 62
1
 10
1.07
 20
0.0
 11
1.33
 21
0.0
  0
LINE
  8
1
  6
CONTINUOUS
 62
1
 10
1.33
 20
4.6E-001
 11
1.33
 21
0.0
  0
LINE
  8
1
  6
CONTINUOUS
 62
1
 10
1.07
 20
4.6E-001
 11
1.33
 21
4.6E-001
  0
LINE
  8
1
  6
CONTINUOUS
 62
1
 10
1.07
 20
4.6E-001
 11
1.07
 21
0.0
  0
LINE
  8
1
  6
CONTINUOUS
 62
1
 10
1.41
 20
0.0
 11
1.47
 21
0.0
  0
ARC
  8
1
  6
CONTINUOUS
 62
1
 10
1.47
 20
3.0E-001
 40
3.0E-001
 50
2.7E+002
 51
3.9223095E+002
  0
LINE
  8
1
  6
CONTINUOUS
 62
1
 10
1.41
 20
4.6E-001
 11
1.7237716
 21
4.6E-001
  0
LINE
  8
1
  6
CONTINUOUS
 62
1
 10
1.41
 20
4.6E-001
 11
1.41
 21
0.0
  0
LINE
  8
1
  6
CONTINUOUS
 62
1
 10
1.85
 20
5.4E-001
 11
2.11
 21
5.4E-001
  0
LINE
  8
1
  6
CONTINUOUS
 62
1
 10
2.11
 20
1.0
 11
2.11
 21
5.4E-001
  0
LINE
  8
1
  6
CONTINUOUS
 62
1
 10
1.85
 20
1.0
 11
2.11
 21
1.0
  0
LINE
  8
1
  6
CONTINUOUS
 62
1
 10
1.85
 20
1.0
 11
1.85
 21
5.4E-001
  0
LINE
  8
1
  6
CONTINUOUS
 62
1
 10
2.19
 20
1.0
 11
2.19
 21
5.4E-001
  0
LINE
  8
1
  6
CONTINUOUS
 62
1
 10
2.19
 20
1.0
 11
2.25
 21
1.0
  0
ARC
  8
1
  6
CONTINUOUS
 62
1
 10
2.25
 20
7.75E-001
 40
2.25E-001
 50
2.9938468E+002
 51
4.5E+002
  0
ARC
  8
1
  6
CONTINUOUS
 62
1
 10
2.25
 20
3.0E-001
 40
3.0E-001
 50
5.3130102E+001
 51
6.8407484E+001
  0
LINE
  8
1
  6
CONTINUOUS
 62
1
 10
2.19
 20
5.4E-001
 11
2.43
 21
5.4E-001
  0
LINE
  8
1
  6
CONTINUOUS
 62
1
 10
1.85
 20
0.0
 11
2.11
 21
0.0
  0
LINE
  8
1
  6
CONTINUOUS
 62
1
 10
2.11
 20
4.6E-001
 11
2.11
 21
0.0
  0
LINE
  8
1
  6
CONTINUOUS
 62
1
 10
1.85
 20
4.6E-001
 11
2.11
 21
4.6E-001
  0
LINE
  8
1
  6
CONTINUOUS
 62
1
 10
1.85
 20
4.6E-001
 11
1.85
 21
0.0
  0
LINE
  8
1
  6
CONTINUOUS
 62
1
 10
2.19
 20
4.6E-001
 11
2.19
 21
0.0
  0
LINE
  8
1
  6
CONTINUOUS
 62
1
 10
2.19
 20
4.6E-001
 11
2.5037716
 21
4.6E-001
  0
ARC
  8
1
  6
CONTINUOUS
 62
1
 10
2.25
 20
3.0E-001
 40
3.0E-001
 50
2.7E+002
 51
3.9223095E+002
  0
LINE
  8
1
  6
CONTINUOUS
 62
1
 10
2.19
 20
0.0
 11
2.25
 21
0.0
  0
ENDBLK
  0
BLOCK
  2
CE
 10
0.0
 20
0.0
 70
0
  0
LINE
  8
1
  6
CONTINUOUS
 62
1
 10
5.0E-001
 20
1.5E-001
 11
5.5E-001
 21
1.5E-001
  0
ARC
  8
1
  6
CONTINUOUS
 62
1
 10
5.0E-001
 20
5.0E-001
 40
3.5E-001
 50
9.0E+001
 51
2.7E+002
  0
LINE
  8
1
  6
CONTINUOUS
 62
1
 10
5.5E-001
 20
1.0
 11
5.5E-001
 21
8.5E-001
  0
LINE
  8
1
  6
CONTINUOUS
 62
1
 10
5.0E-001
 20
1.0
 11
5.5E-001
 21
1.0
  0
ARC
  8
1
  6
CONTINUOUS
 62
1
 10
5.0E-001
 20
5.0E-001
 40
5.0E-001
 50
9.0E+001
 51
2.7E+002
  0
LINE
  8
1
  6
CONTINUOUS
 62
1
 10
5.0E-001
 20
0.0
 11
5.5E-001
 21
0.0
  0
LINE
  8
1
  6
CONTINUOUS
 62
1
 10
5.5E-001
 20
1.5E-001
 11
5.5E-001
 21
0.0
  0
LINE
  8
1
  6
CONTINUOUS
 62
1
 10
5.0E-001
 20
8.5E-001
 11
5.5E-001
 21
8.5E-001
  0
LINE
  8
1
  6
CONTINUOUS
 62
1
 10
1.4
 20
8.5E-001
 11
1.35
 21
8.5E-001
  0
LINE
  8
1
  6
CONTINUOUS
 62
1
 10
1.4
 20
1.0
 11
1.4
 21
8.5E-001
  0
LINE
  8
1
  6
CONTINUOUS
 62
1
 10
1.4
 20
1.0
 11
1.35
 21
1.0
  0
ARC
  8
1
  6
CONTINUOUS
 62
1
 10
1.35
 20
5.0E-001
 40
5.0E-001
 50
9.0E+001
 51
2.7E+002
  0
LINE
  8
1
  6
CONTINUOUS
 62
1
 10
1.4
 20
0.0
 11
1.35
 21
0.0
  0
LINE
  8
1
  6
CONTINUOUS
 62
1
 10
1.4
 20
1.5E-001
 11
1.4
 21
0.0
  0
ARC
  8
1
  6
CONTINUOUS
 62
1
 10
1.35
 20
5.0E-001
 40
3.5E-001
 50
1.9237363E+002
 51
2.7E+002
  0
LINE
  8
1
  6
CONTINUOUS
 62
1
 10
1.0081301
 20
4.25E-001
 11
1.3
 21
4.25E-001
  0
LINE
  8
1
  6
CONTINUOUS
 62
1
 10
1.3
 20
5.75E-001
 11
1.3
 21
4.25E-001
  0
LINE
  8
1
  6
CONTINUOUS
 62
1
 10
1.0081301
 20
5.75E-001
 11
1.3
 21
5.75E-001
  0
ARC
  8
1
  6
CONTINUOUS
 62
1
 10
1.35
 20
5.0E-001
 40
3.5E-001
 50
9.0E+001
 51
1.6762637E+002
  0
LINE
  8
1
  6
CONTINUOUS
 62
1
 10
1.4
 20
1.5E-001
 11
1.35
 21
1.5E-001
  0
ENDBLK
  0
BLOCK
  2
MARCHE
 10
0.0
 20
0.0
 70
0
  0
TEXT
  8
1
  6
CONTINUOUS
 62
1
 10
-1.0876847E+001
 20
-2.455336
 40
2.0
  1
I
 41
7.5E-001
  0
LINE
  8
1
  6
CONTINUOUS
 62
1
 10
-2.576847
 20
-3.955336
 11
-4.576847
 21
1.044664
  0
LINE
  8
1
  6
CONTINUOUS
 62
1
 10
-2.576847
 20
7.044645
 11
-2.576847
 21
1.044664
  0
LINE
  8
1
  6
CONTINUOUS
 62
1
 10
-2.576847
 20
-8.955336
 11
-2.576847
 21
-3.955336
  0
LINE
  8
1
  6
CONTINUOUS
 62
1
 10
-7.076847
 20
5.44664E-001
 11
-8.576847
 21
5.44664E-001
  0
LINE
  8
1
  6
CONTINUOUS
 62
1
 10
-8.576847
 20
5.44664E-001
 11
-8.576847
 21
-3.455336
  0
LINE
  8
1
  6
CONTINUOUS
 62
1
 10
-7.076847
 20
-3.455336
 11
-8.576847
 21
-3.455336
  0
LINE
  8
1
  6
HIDDEN
 62
1
 10
-3.576847
 20
-1.455336
 11
-8.576847
 21
-1.455336
  0
TEXT
  8
1
  6
CONTINUOUS
 62
1
 10
-3.326847
 20
2.044664
 40
2.0
  1
67
 41
7.5E-001
 50
9.0E+001
  0
TEXT
  8
1
  6
CONTINUOUS
 62
1
 10
-3.326847
 20
-6.955336
 40
2.0
  1
68
 41
7.5E-001
 50
9.0E+001
  0
LINE
  8
1
  6
CONTINUOUS
 62
1
 10
2.423153
 20
-8.955336
 11
-2.576847
 21
-8.955336
  0
LINE
  8
1
  6
CONTINUOUS
 62
1
 10
2.423153
 20
7.044645
 11
-2.576847
 21
7.044645
  0
TEXT
  8
1
  6
CONTINUOUS
 62
1
 10
-2.1876847E+001
 20
-2.455336
 40
2.0
  1
I
 41
7.5E-001
  0
LINE
  8
1
  6
CONTINUOUS
 62
1
 10
-1.3576847E+001
 20
-3.955336
 11
-1.5576847E+001
 21
1.044664
  0
LINE
  8
1
  6
CONTINUOUS
 62
1
 10
-1.3576847E+001
 20
7.044645
 11
-1.3576847E+001
 21
1.044664
  0
LINE
  8
1
  6
CONTINUOUS
 62
1
 10
-1.3576847E+001
 20
-8.955336
 11
-1.3576847E+001
 21
-3.955336
  0
LINE
  8
1
  6
CONTINUOUS
 62
1
 10
-1.8076847E+001
 20
5.44664E-001
 11
-1.9576847E+001
 21
5.44664E-001
  0
LINE
  8
1
  6
CONTINUOUS
 62
1
 10
-1.9576847E+001
 20
5.44664E-001
 11
-1.9576847E+001
 21
-3.455336
  0
LINE
  8
1
  6
CONTINUOUS
 62
1
 10
-1.8076847E+001
 20
-3.455336
 11
-1.9576847E+001
 21
-3.455336
  0
LINE
  8
1
  6
HIDDEN
 62
1
 10
-1.4576847E+001
 20
-1.455336
 11
-1.9576847E+001
 21
-1.455336
  0
TEXT
  8
1
  6
CONTINUOUS
 62
1
 10
-1.4326847E+001
 20
2.044664
 40
2.0
  1
57
 41
7.5E-001
 50
9.0E+001
  0
TEXT
  8
1
  6
CONTINUOUS
 62
1
 10
-1.4326847E+001
 20
-6.955336
 40
2.0
  1
58
 41
7.5E-001
 50
9.0E+001
  0
LINE
  8
1
  6
CONTINUOUS
 62
1
 10
-8.576847
 20
-8.955336
 11
-1.3576847E+001
 21
-8.955336
  0
LINE
  8
1
  6
CONTINUOUS
 62
1
 10
-8.576847
 20
7.044645
 11
-1.3576847E+001
 21
7.044645
  0
TEXT
  8
1
  6
CONTINUOUS
 62
1
 10
1.6673153E+001
 20
2.576833
 40
2.0
  1
13
 41
7.5E-001
 50
9.0E+001
  0
TEXT
  8
1
  6
CONTINUOUS
 62
1
 10
1.0923153E+001
 20
-1.7917823
 40
2.0
  1
KM1
 41
7.5E-001
  0
LINE
  8
1
  6
CONTINUOUS
 62
1
 10
1.7423153E+001
 20
-3.423167
 11
1.5423153E+001
 21
1.576833
  0
TEXT
  8
1
  6
CONTINUOUS
 62
1
 10
1.6673153E+001
 20
-6.423167
 40
2.0
  1
14
 41
7.5E-001
 50
9.0E+001
  0
TEXT
  8
1
  6
CONTINUOUS
 62
1
 10
1.23153E-001
 20
-2.455336
 40
2.0
  1
I
 41
7.5E-001
  0
LINE
  8
1
  6
CONTINUOUS
 62
1
 10
1.7423153E+001
 20
7.044645
 11
8.423153
 21
7.044645
  0
LINE
  8
1
  6
CONTINUOUS
 62
1
 10
1.7423153E+001
 20
-8.955336
 11
8.423153
 21
-8.955336
  0
LINE
  8
1
  6
CONTINUOUS
 62
1
 10
8.423153
 20
-3.955336
 11
6.423153
 21
1.044664
  0
LINE
  8
1
  6
CONTINUOUS
 62
1
 10
8.423153
 20
7.044645
 11
8.423153
 21
1.044664
  0
LINE
  8
1
  6
CONTINUOUS
 62
1
 10
8.423153
 20
-8.955336
 11
8.423153
 21
-3.955336
  0
LINE
  8
1
  6
CONTINUOUS
 62
1
 10
3.923153
 20
5.44664E-001
 11
2.423153
 21
5.44664E-001
  0
LINE
  8
1
  6
CONTINUOUS
 62
1
 10
2.423153
 20
5.44664E-001
 11
2.423153
 21
-3.455336
  0
LINE
  8
1
  6
CONTINUOUS
 62
1
 10
3.923153
 20
-3.455336
 11
2.423153
 21
-3.455336
  0
LINE
  8
1
  6
HIDDEN
 62
1
 10
7.423153
 20
-1.455336
 11
2.423153
 21
-1.455336
  0
TEXT
  8
1
  6
CONTINUOUS
 62
1
 10
7.673153
 20
2.044664
 40
2.0
  1
47
 41
7.5E-001
 50
9.0E+001
  0
TEXT
  8
1
  6
CONTINUOUS
 62
1
 10
7.673153
 20
-6.955336
 40
2.0
  1
48
 41
7.5E-001
 50
9.0E+001
  0
TEXT
  8
1
  6
CONTINUOUS
 62
1
 10
-1.4328373E+001
 20
9.881134
 40
2.0
  1
A26
 41
7.5E-001
 50
9.0E+001
  0
TEXT
  8
1
  6
CONTINUOUS
 62
1
 10
-3.328373
 20
9.881134
 40
2.0
  1
A30/40
 41
7.5E-001
 50
9.0E+001
  0
INSERT
  2
*TX416
  8
1
 10
7.671627
 20
9.881134
  0
POINT
  8
Drafting_Hidden_Entities
  6
CONTINUOUS
 62
1
 10
0.0
 20
0.0
  0
ENDBLK
  0
BLOCK
  2
*XH103
  3
*XH
 10
0.0
 20
0.0
 70
65
  0
LINE
  8
1
  6
CONTINUOUS
 62
7
 10
-5.0147275E-002
 20
-5.0147275E-002
 11
5.0147275E-002
 21
5.0147275E-002
  0
LINE
  8
1
  6
CONTINUOUS
 62
7
 10
-9.8194609E-002
 20
1.846481E-001
 11
1.2291826E-001
 21
4.0576097E-001
  0
LINE
  8
1
  6
CONTINUOUS
 62
7
 10
-1.4624194E-001
 20
4.1944348E-001
 11
1.9568924E-001
 21
7.6137466E-001
  0
LINE
  8
1
  6
CONTINUOUS
 62
7
 10
-1.9428928E-001
 20
6.5423886E-001
 11
2.6846022E-001
 21
1.1169884
  0
LINE
  8
1
  6
CONTINUOUS
 62
7
 10
-2.4233661E-001
 20
8.8903424E-001
 11
3.412312E-001
 21
1.4726021
  0
LINE
  8
1
  6
CONTINUOUS
 62
7
 10
-2.9038395E-001
 20
1.1238296
 11
4.1400218E-001
 21
1.8282157
  0
LINE
  8
1
  6
CONTINUOUS
 62
7
 10
-3.3843128E-001
 20
1.358625
 11
2.4855716E-001
 21
1.9456134
  0
LINE
  8
1
  6
CONTINUOUS
 62
7
 10
-3.8647862E-001
 20
1.5934204
 11
-3.4285551E-002
 21
1.9456134
  0
LINE
  8
1
  6
CONTINUOUS
 62
7
 10
-4.3452595E-001
 20
1.8282157
 11
-3.1712826E-001
 21
1.9456134
  0
ENDBLK
  0
BLOCK
  2
*XH105
  3
*XH
 10
0.0
 20
0.0
 70
65
  0
LINE
  8
1
  6
CONTINUOUS
 62
7
 10
-5.0147275E-002
 20
-5.0147275E-002
 11
5.0147275E-002
 21
5.0147275E-002
  0
LINE
  8
1
  6
CONTINUOUS
 62
7
 10
-9.8194609E-002
 20
1.846481E-001
 11
1.2291826E-001
 21
4.0576097E-001
  0
LINE
  8
1
  6
CONTINUOUS
 62
7
 10
-1.4624194E-001
 20
4.1944348E-001
 11
1.9568924E-001
 21
7.6137466E-001
  0
LINE
  8
1
  6
CONTINUOUS
 62
7
 10
-1.9428928E-001
 20
6.5423886E-001
 11
2.6846022E-001
 21
1.1169884
  0
LINE
  8
1
  6
CONTINUOUS
 62
7
 10
-2.4233661E-001
 20
8.8903424E-001
 11
3.412312E-001
 21
1.4726021
  0
LINE
  8
1
  6
CONTINUOUS
 62
7
 10
-2.9038395E-001
 20
1.1238296
 11
4.1400218E-001
 21
1.8282157
  0
LINE
  8
1
  6
CONTINUOUS
 62
7
 10
-3.3843128E-001
 20
1.358625
 11
2.4855716E-001
 21
1.9456134
  0
LINE
  8
1
  6
CONTINUOUS
 62
7
 10
-3.8647862E-001
 20
1.5934204
 11
-3.4285551E-002
 21
1.9456134
  0
LINE
  8
1
  6
CONTINUOUS
 62
7
 10
-4.3452595E-001
 20
1.8282157
 11
-3.1712826E-001
 21
1.9456134
  0
ENDBLK
  0
BLOCK
  2
OEM-A3V_19-11_-1
 10
0.0
 20
0.0
 70
0
  0
ATTDEF
  8
1
  6
CONTINUOUS
 62
5
 10
3.6549644E+002
 20
2.7E+001
 40
2.0
  1
FPEM123456P0001
 41
6.5E-001
 11
3.6549644E+002
 21
2.6E+001
  3
ANCIEN_ Plan
  2
ANCIEN_Plan
 70
0
 73
2
 74
2
  0
ATTDEF
  8
1
  6
CONTINUOUS
 62
5
 10
3.6549644E+002
 20
1.1E+001
 40
4.0
  1
FPEM470778P0001
 41
7.5E-001
 72
1
 11
3.5649644E+002
 21
9.0
  3
N°PLAN
  2
N°PLAN
 70
0
 73
2
 74
2
  0
ATTDEF
  8
1
  6
CONTINUOUS
 62
5
 10
3.6549644E+002
 20
2.3005401E+001
 40
2.0
  1
OEM-12345
 41
7.5E-001
 11
3.6549644E+002
 21
2.2005401E+001
  3
N°OEM
  2
N°OEM
 70
0
 73
2
 74
2
  0
ATTDEF
  8
1
  6
CONTINUOUS
 62
5
 10
2.929758E+002
 20
1.38E+001
 40
1.6
  1
PLAN D'ENSEMBLE
 41
9.0E-001
 72
1
 11
2.864958E+002
 21
1.3E+001
  3
TYPE_PLAN
  2
TYPE_PLAN
 70
0
 73
2
 74
2
  0
ATTDEF
  8
1
  6
CONTINUOUS
 62
5
 10
3.014958E+002
 20
1.025E+001
 40
2.5
  1
DWA, DYA9...16-30 sans relais
 41
7.5E-001
 72
1
 11
2.864958E+002
 21
9.0
  3
DESIGNATION_PLAN
  2
DESIGNATION_PLAN
 70
0
 73
2
 74
2
  0
ATTDEF
  8
1
  6
CONTINUOUS
 62
5
 10
3.898708E+002
 20
8.75
 40
2.5
  1
A
 41
7.5E-001
 72
1
 11
3.879958E+002
 21
7.5
  3
ID
  2
ID
 70
0
 73
2
 74
2
  0
ATTDEF
  8
1
  6
CONTINUOUS
 62
5
 10
3.5575484E+002
 20
1.6659209E+001
 40
2.75
  1
A4
 41
7.5E-001
 72
1
 11
3.5369234E+002
 21
1.5284209E+001
  3
A?
  2
A?
 70
0
 73
2
 74
2
  0
ATTDEF
  8
1
  6
CONTINUOUS
 62
5
 10
3.4833212E+002
 20
3.925E+001
 40
2.5
  1
 
 11
3.4833212E+002
 21
3.8E+001
  3
N°OE_Origine
  2
N°OE_Origine
 70
0
 73
2
 74
2
  0
ATTDEF
  8
1
  6
CONTINUOUS
 62
5
 10
3.4833212E+002
 20
3.5E+001
 40
2.0
  1
P.BLANCHET le 01.01.04
 41
7.5E-001
 11
3.4833212E+002
 21
3.4E+001
  3
CONTROLEUR_Origine
  2
CONTROLEUR_Origine
 70
0
 73
2
 74
2
  0
ATTDEF
  8
1
  6
CONTINUOUS
 62
5
 10
3.4833212E+002
 20
3.1E+001
 40
2.0
  1
C.ECOCHARD le 01.01.04
 41
7.5E-001
 11
3.4833212E+002
 21
3.0E+001
  3
DESSINATEUR_Origine
  2
DESSINATEUR_Origine
 70
0
 73
2
 74
2
  0
ATTDEF
  8
1
  6
CONTINUOUS
 62
5
 10
3.4424644E+002
 20
2.1551214E+001
 40
6.0
  1
1:4
 41
7.5E-001
 72
1
 11
3.3749644E+002
 21
1.8551214E+001
  3
Ech
  2
Ech
 70
0
 73
2
 74
2
  0
POLYLINE
  8
1
  6
CONTINUOUS
 62
7
 66
1
 40
5.0E-001
 41
5.0E-001
 70
0
  0
VERTEX
  8
1
 42
0.0
 10
1.0E+001
 20
2.72E+002
 70
0
  0
VERTEX
  8
1
 42
0.0
 10
1.0E+001
 20
4.0E+001
 70
0
  0
SEQEND
  0
POLYLINE
  8
1
  6
CONTINUOUS
 62
7
 66
1
 40
5.0E-001
 41
5.0E-001
 70
0
  0
VERTEX
  8
1
 42
0.0
 10
1.0E+001
 20
4.0E+001
 70
0
  0
VERTEX
  8
1
 42
0.0
 10
1.0065101E+001
 20
5.0
 70
0
  0
SEQEND
  0
POLYLINE
  8
1
  6
CONTINUOUS
 62
7
 66
1
 40
5.0E-001
 41
5.0E-001
 70
0
  0
VERTEX
  8
1
 42
0.0
 10
1.0065101E+001
 20
5.0
 70
0
  0
VERTEX
  8
1
 42
0.0
 10
3.9049515E+002
 20
5.0
 70
0
  0
SEQEND
  0
POLYLINE
  8
1
  6
CONTINUOUS
 62
7
 66
1
 40
5.0E-001
 41
5.0E-001
 70
0
  0
VERTEX
  8
1
 42
0.0
 10
3.9049515E+002
 20
1.0E+001
 70
0
  0
VERTEX
  8
1
 42
0.0
 10
3.9049515E+002
 20
5.0
 70
0
  0
SEQEND
  0
TEXT
  8
1
  6
CONTINUOUS
 62
7
 10
3.5670343E+002
 20
1.7697775E+001
 40
1.5
  1
Format
 41
6.5E-001
 72
1
 11
3.5377843E+002
 21
1.7697775E+001
  0
TEXT
  8
1
  6
CONTINUOUS
 62
7
 10
3.7175835E+002
 20
1.7697775E+001
 40
1.5
  1
Feuille n%%d
 41
6.5E-001
 72
1
 11
3.6688335E+002
 21
1.7697775E+001
  0
TEXT
  8
1
  6
CONTINUOUS
 62
7
 10
3.8447593E+002
 20
1.7697775E+001
 40
1.5
  1
Nb Feuilles
 41
6.5E-001
 72
1
 11
3.7911343E+002
 21
1.7697775E+001
  0
LINE
  8
1
  6
CONTINUOUS
 62
1
 10
0.0
 20
4.0E+001
 11
0.0
 21
4.1E+001
  0
TEXT
  8
1
  6
CONTINUOUS
 62
7
 10
3.6049644E+002
 20
2.3005401E+001
 40
2.0
  1
PROJET
 41
7.5E-001
 72
1
 11
3.5599644E+002
 21
2.2005401E+001
 73
2
  0
TEXT
  8
1
  6
CONTINUOUS
 62
7
 10
8.75
 20
6.0087564E+001
 40
1.25
  1
autorisation écrite.
 41
7.5E-001
 50
9.0E+001
 11
8.75
 21
5.9462564E+001
 73
2
  0
TEXT
  8
1
  6
CONTINUOUS
 62
7
 10
3.6399644E+002
 20
2.7E+001
 40
2.0
  1
Issu de/Remplace
 41
5.0E-001
 72
1
 11
3.5599644E+002
 21
2.6E+001
 73
2
  0
TEXT
  8
1
  6
CONTINUOUS
 62
7
 10
3.4668394E+002
 20
3.8875E+001
 40
1.75
  1
ORDRE EXECUTION
 41
7.0E-001
 72
1
 11
3.3749644E+002
 21
3.8E+001
 73
2
  0
TEXT
  8
1
  6
CONTINUOUS
 62
7
 10
3.4484644E+002
 20
3.4875E+001
 40
1.75
  1
CONTROLE PAR
 41
7.0E-001
 72
1
 11
3.3749644E+002
 21
3.4E+001
 73
2
  0
TEXT
  8
1
  6
CONTINUOUS
 62
7
 10
3.4423394E+002
 20
3.0875E+001
 40
1.75
  1
REALISE PAR
 41
7.0E-001
 72
1
 11
3.3749644E+002
 21
3.0E+001
 73
2
  0
LINE
  8
2
  6
CONTINUOUS
 62
7
 10
9.5000647E+001
 20
2.72E+002
 11
9.5000647E+001
 21
2.77E+002
  0
LINE
  8
2
  6
CONTINUOUS
 62
7
 10
4.7500323E+001
 20
2.72E+002
 11
4.7500323E+001
 21
2.77E+002
  0
LINE
  8
2
  6
CONTINUOUS
 62
7
 10
1.4250097E+002
 20
2.72E+002
 11
1.4250097E+002
 21
2.77E+002
  0
TEXT
  8
2
  6
CONTINUOUS
 62
7
 10
7.0162765E+001
 20
2.7829144E+002
 40
2.5
  1
H
 11
7.0162765E+001
 21
2.7579144E+002
 73
3
  0
TEXT
  8
2
  6
CONTINUOUS
 62
7
 10
2.2581586E+001
 20
2.7829144E+002
 40
2.5
  1
I
 11
2.2581586E+001
 21
2.7579144E+002
 73
3
  0
TEXT
  8
2
  6
CONTINUOUS
 62
7
 10
1.1758442E+002
 20
2.7829144E+002
 40
2.5
  1
G
 11
1.1758442E+002
 21
2.7579144E+002
 73
3
  0
TEXT
  8
2
  6
CONTINUOUS
 62
7
 10
1.6500049E+002
 20
2.7575E+002
 40
2.5
  1
F
 72
1
 11
1.6375049E+002
 21
2.745E+002
 73
2
  0
TEXT
  8
2
  6
CONTINUOUS
 62
7
 10
3.8679278E+002
 20
2.4625255E+002
 40
2.5
  1
4
 11
3.8679278E+002
 21
2.4375255E+002
 73
3
  0
LINE
  8
2
  6
CONTINUOUS
 62
7
 10
0.0
 20
2.77E+002
 11
0.0
 21
0.0
  0
LINE
  8
2
  6
CONTINUOUS
 62
7
 10
3.9049515E+002
 20
2.77E+002
 11
0.0
 21
2.77E+002
  0
LINE
  8
2
  6
CONTINUOUS
 62
7
 10
3.7273041E+002
 20
1.3E+001
 11
3.7273041E+002
 21
2.0010803E+001
  0
LINE
  8
2
  6
CONTINUOUS
 62
7
 10
3.6006041E+002
 20
1.3E+001
 11
3.6006041E+002
 21
2.0010803E+001
  0
POLYLINE
  8
1
  6
CONTINUOUS
 62
7
 66
1
 40
5.0E-001
 41
5.0E-001
 70
0
  0
VERTEX
  8
1
 42
0.0
 10
3.9049644E+002
 20
1.0E+001
 70
0
  0
VERTEX
  8
1
 42
0.0
 10
3.8549644E+002
 20
1.0E+001
 70
0
  0
SEQEND
  0
TEXT
  8
2
  6
CONTINUOUS
 62
7
 10
2.2483169E+002
 20
2.2875E+001
 40
1.75
  1
IND
 41
7.0E-001
 72
1
 11
2.2299419E+002
 21
2.2E+001
 73
2
  0
TEXT
  8
2
  6
CONTINUOUS
 62
7
 10
2.2644467E+002
 20
3.1E+001
 40
2.0
  1
Modifications
 41
6.5E-001
 50
9.0E+001
 72
1
 11
2.1799467E+002
 21
3.0E+001
 73
2
  0
LINE
  8
2
  6
CONTINUOUS
 62
7
 10
3.6449644E+002
 20
2.0010803E+001
 11
3.6449644E+002
 21
2.8E+001
  0
LINE
  8
2
  6
CONTINUOUS
 62
7
 10
3.8549644E+002
 20
2.0010803E+001
 11
3.4749644E+002
 21
2.0010803E+001
  0
LINE
  8
2
  6
CONTINUOUS
 62
7
 10
3.4749644E+002
 20
2.4E+001
 11
3.8549644E+002
 21
2.4E+001
  0
LINE
  8
2
  6
CONTINUOUS
 62
7
 10
3.4749644E+002
 20
1.3E+001
 11
3.4749644E+002
 21
4.0E+001
  0
POLYLINE
  8
1
  6
CONTINUOUS
 62
7
 66
1
 40
5.0E-001
 41
5.0E-001
 70
0
  0
VERTEX
  8
1
 42
0.0
 10
3.2749644E+002
 20
1.3E+001
 70
0
  0
VERTEX
  8
1
 42
0.0
 10
3.8549644E+002
 20
1.3E+001
 70
0
  0
SEQEND
  0
LINE
  8
2
  6
CONTINUOUS
 62
7
 10
2.4549515E+002
 20
1.6000915E+001
 11
3.2749644E+002
 21
1.6000915E+001
  0
LINE
  8
2
  6
CONTINUOUS
 62
7
 10
2.2549419E+002
 20
4.0E+001
 11
2.2549419E+002
 21
2.0E+001
  0
LINE
  8
2
  6
CONTINUOUS
 62
7
 10
2.2049419E+002
 20
4.0E+001
 11
2.2049419E+002
 21
2.0E+001
  0
LINE
  8
2
  6
CONTINUOUS
 62
7
 10
2.8749644E+002
 20
4.0E+001
 11
2.8749644E+002
 21
2.0E+001
  0
LINE
  8
2
  6
CONTINUOUS
 62
7
 10
3.8549644E+002
 20
3.2E+001
 11
2.2049419E+002
 21
3.2E+001
  0
LINE
  8
2
  6
CONTINUOUS
 62
7
 10
3.8549644E+002
 20
3.6E+001
 11
2.2049419E+002
 21
3.6E+001
  0
LINE
  8
2
  6
CONTINUOUS
 62
7
 10
2.2049419E+002
 20
2.8E+001
 11
3.8549644E+002
 21
2.8E+001
  0
LINE
  8
2
  6
CONTINUOUS
 62
7
 10
3.2749644E+002
 20
2.4E+001
 11
2.2049419E+002
 21
2.4E+001
  0
POLYLINE
  8
1
  6
CONTINUOUS
 62
7
 66
1
 40
5.0E-001
 41
5.0E-001
 70
0
  0
VERTEX
  8
1
 42
0.0
 10
3.2749644E+002
 20
5.0
 70
0
  0
VERTEX
  8
1
 42
0.0
 10
3.2749644E+002
 20
4.0E+001
 70
0
  0
SEQEND
  0
LINE
  8
2
  6
CONTINUOUS
 62
7
 10
3.2749644E+002
 20
2.0E+001
 11
2.1549515E+002
 21
2.0E+001
  0
LINE
  8
2
  6
CONTINUOUS
 62
7
 10
2.4549515E+002
 20
5.0
 11
2.4549515E+002
 21
2.0E+001
  0
POLYLINE
  8
1
  6
CONTINUOUS
 62
7
 66
1
 40
5.0E-001
 41
5.0E-001
 70
0
  0
VERTEX
  8
1
 42
0.0
 10
3.8549644E+002
 20
4.0E+001
 70
0
  0
VERTEX
  8
1
 42
0.0
 10
2.1549515E+002
 20
4.0E+001
 70
0
  0
SEQEND
  0
CIRCLE
  8
2
  6
CONTINUOUS
 62
7
 10
-6.124541
 20
1.8151881E+002
 40
2.5
  0
INSERT
  2
SE0
  8
2
 10
-1.609108E+001
 20
-6.9948784
  0
CIRCLE
  8
2
  6
CONTINUOUS
 62
7
 10
-6.124541
 20
1.0151881E+002
 40
2.5
  0
INSERT
  2
SE1
  8
2
 10
-1.609108E+001
 20
-6.9948784
  0
CIRCLE
  8
2
  6
CONTINUOUS
 62
7
 10
-6.124541
 20
2.1518811E+001
 40
2.5
  0
INSERT
  2
SE2
  8
2
 10
-1.609108E+001
 20
-6.9948784
  0
CIRCLE
  8
2
  6
CONTINUOUS
 62
7
 10
-6.124541
 20
2.6151881E+002
 40
2.5
  0
INSERT
  2
SE3
  8
2
 10
-1.609108E+001
 20
-6.9948784
  0
LINE
  8
2
  6
CONTINUOUS
 62
7
 10
0.0
 20
0.0
 11
3.9049515E+002
 21
0.0
  0
LINE
  8
2
  6
CONTINUOUS
 62
7
 10
-8.9879611
 20
1.3551881E+002
 11
-2.8976631
 21
1.3551881E+002
  0
LINE
  8
2
  6
CONTINUOUS
 62
7
 10
1.0E+001
 20
2.72E+002
 11
1.0E+001
 21
5.0
  0
POLYLINE
  8
1
  6
CONTINUOUS
 62
7
 66
1
 40
5.0E-001
 41
5.0E-001
 70
0
  0
VERTEX
  8
1
 42
0.0
 10
1.0E+001
 20
2.72E+002
 70
0
  0
VERTEX
  8
1
 42
0.0
 10
3.8549644E+002
 20
2.72E+002
 70
0
  0
SEQEND
  0
TEXT
  8
2
  6
CONTINUOUS
 62
7
 10
1.25
 20
6.7
 40
1.4
  1
We reserve all rights in this document and in the
 41
7.5E-001
 50
9.0E+001
 11
1.25
 21
6.0
 73
2
  0
TEXT
  8
2
  6
CONTINUOUS
 62
7
 10
3.75
 20
6.7
 40
1.4
  1
information contained therein. Reproduction, use
 41
7.5E-001
 50
9.0E+001
 11
3.75
 21
6.0
 73
2
  0
TEXT
  8
2
  6
CONTINUOUS
 62
7
 10
6.25
 20
6.7
 40
1.4
  1
or disclosure to third parties without express
 41
7.5E-001
 50
9.0E+001
 11
6.25
 21
6.0
 73
2
  0
TEXT
  8
2
  6
CONTINUOUS
 62
7
 10
8.75
 20
6.7
 40
1.4
  1
autority is strictly forbidden
 41
7.5E-001
 50
9.0E+001
 11
8.75
 21
6.0
 73
2
  0
TEXT
  8
2
  6
CONTINUOUS
 62
7
 10
1.25
 20
6.0162564E+001
 40
1.4
  1
Ce document, propriété exclusive de notre
 41
7.5E-001
 50
9.0E+001
 11
1.25
 21
5.9462564E+001
 73
2
  0
TEXT
  8
2
  6
CONTINUOUS
 62
7
 10
3.75
 20
6.0162564E+001
 40
1.4
  1
société, est strictement confidentiel. Il ne peut
 41
7.5E-001
 50
9.0E+001
 11
3.75
 21
5.9462564E+001
 73
2
  0
TEXT
  8
2
  6
CONTINUOUS
 62
7
 10
6.25
 20
6.0162564E+001
 40
1.4
  1
être communiqué, copié ou reproduit sans son
 41
7.5E-001
 50
9.0E+001
 11
6.25
 21
5.9462564E+001
 73
2
  0
LINE
  8
2
  6
CONTINUOUS
 62
7
 10
1.0E+001
 20
5.0
 11
0.0
 21
5.0
  0
LINE
  8
2
  6
CONTINUOUS
 62
7
 10
3.0749644E+002
 20
2.0E+001
 11
3.0749644E+002
 21
4.0E+001
  0
LINE
  8
2
  6
CONTINUOUS
 62
7
 10
2.9749644E+002
 20
1.6000915E+001
 11
2.9749644E+002
 21
4.0E+001
  0
LINE
  8
2
  6
CONTINUOUS
 62
7
 10
3.1449644E+002
 20
2.0E+001
 11
3.1449644E+002
 21
4.0E+001
  0
TEXT
  8
1
  6
CONTINUOUS
 62
7
 10
2.2649419E+002
 20
2.2875E+001
 40
1.75
  1
DESCRIPTION
 41
7.0E-001
 11
2.2649419E+002
 21
2.2E+001
 73
2
  0
TEXT
  8
1
  6
CONTINUOUS
 62
7
 10
2.9494644E+002
 20
2.2875E+001
 40
1.75
  1
DATE
 41
7.0E-001
 72
1
 11
2.9249644E+002
 21
2.2E+001
 73
2
  0
TEXT
  8
1
  6
CONTINUOUS
 62
7
 10
3.0494644E+002
 20
2.2875E+001
 40
1.75
  1
N°OE
 41
7.0E-001
 72
1
 11
3.0249644E+002
 21
2.2E+001
 73
2
  0
TEXT
  8
1
  6
CONTINUOUS
 62
7
 10
3.1362144E+002
 20
2.2875E+001
 40
1.75
  1
Auteur
 41
5.0E-001
 72
1
 11
3.1099644E+002
 21
2.2E+001
 73
2
  0
TEXT
  8
1
  6
CONTINUOUS
 62
7
 10
3.2554644E+002
 20
2.2875E+001
 40
1.75
  1
Controlé
 41
6.5E-001
 72
1
 11
3.2099644E+002
 21
2.2E+001
 73
2
  0
TEXT
  8
1
  6
CONTINUOUS
 62
7
 10
3.2689644E+002
 20
1.9000457E+001
 40
2.0
  1
Service responsable: OEM
 41
6.0E-001
 72
1
 11
3.1249644E+002
 21
1.8000457E+001
 73
2
  0
TEXT
  8
1
  6
CONTINUOUS
 62
7
 10
2.4649515E+002
 20
1.9250457E+001
 40
2.5
  1
ABB CONTROL
 41
7.5E-001
 11
2.4649515E+002
 21
1.8000457E+001
 73
2
  0
TEXT
  8
1
  6
CONTINUOUS
 62
7
 10
2.4649515E+002
 20
1.4686428E+001
 40
1.5
  1
Titre
 11
2.4649515E+002
 21
1.3936428E+001
 73
2
  0
TEXT
  8
1
  6
CONTINUOUS
 62
7
 10
3.4143394E+002
 20
2.675E+001
 40
1.5
  1
ECHELLE
 41
7.5E-001
 72
1
 11
3.3749644E+002
 21
2.6E+001
 73
2
  0
TEXT
  8
2
  6
CONTINUOUS
 62
7
 10
3.8710271E+002
 20
3.8454406E+001
 40
2.5
  1
1
 41
6.65E-001
 11
3.8710271E+002
 21
3.5954406E+001
 73
3
  0
TEXT
  8
2
  6
CONTINUOUS
 62
7
 10
3.8676438E+002
 20
1.0780311E+002
 40
2.5
  1
2
 11
3.8676438E+002
 21
1.0530311E+002
 73
3
  0
TEXT
  8
2
  6
CONTINUOUS
 62
7
 10
3.8687801E+002
 20
1.7698651E+002
 40
2.5
  1
3
 11
3.8687801E+002
 21
1.7448651E+002
 73
3
  0
LINE
  8
2
  6
CONTINUOUS
 62
7
 10
3.8549644E+002
 20
6.925E+001
 11
3.9049515E+002
 21
6.925E+001
  0
LINE
  8
2
  6
CONTINUOUS
 62
7
 10
3.8549644E+002
 20
2.0775E+002
 11
3.9049515E+002
 21
2.0775E+002
  0
LINE
  8
2
  6
CONTINUOUS
 62
7
 10
3.9049515E+002
 20
1.385E+002
 11
3.8549644E+002
 21
1.385E+002
  0
POLYLINE
  8
1
  6
CONTINUOUS
 62
7
 66
1
 40
5.0E-001
 41
5.0E-001
 70
0
  0
VERTEX
  8
1
 42
0.0
 10
3.8549644E+002
 20
5.0
 70
0
  0
VERTEX
  8
1
 42
0.0
 10
3.8549644E+002
 20
2.72E+002
 70
0
  0
SEQEND
  0
LINE
  8
1
  6
CONTINUOUS
 62
7
 10
2.2205175E+002
 20
1.25E+001
 11
2.2405715E+002
 21
1.25E+001
  0
LINE
  8
1
  6
CONTINUOUS
 62
7
 10
2.2205175E+002
 20
1.25E+001
 11
2.2324315E+002
 21
1.5904E+001
  0
LINE
  8
1
  6
CONTINUOUS
 62
7
 10
2.2324315E+002
 20
1.5904E+001
 11
2.2405715E+002
 21
1.5904E+001
  0
LINE
  8
1
  6
CONTINUOUS
 62
7
 10
2.2405715E+002
 20
1.25E+001
 11
2.2405715E+002
 21
1.5904E+001
  0
LINE
  8
1
  6
CONTINUOUS
 62
7
 10
2.2464915E+002
 20
1.25E+001
 11
2.2665455E+002
 21
1.25E+001
  0
LINE
  8
1
  6
CONTINUOUS
 62
7
 10
2.2546315E+002
 20
1.5904E+001
 11
2.2665455E+002
 21
1.25E+001
  0
LINE
  8
1
  6
CONTINUOUS
 62
7
 10
2.2464915E+002
 20
1.5904E+001
 11
2.2546315E+002
 21
1.5904E+001
  0
LINE
  8
1
  6
CONTINUOUS
 62
7
 10
2.2464915E+002
 20
1.25E+001
 11
2.2464915E+002
 21
1.5904E+001
  0
LINE
  8
1
  6
CONTINUOUS
 62
7
 10
2.2405715E+002
 20
9.984
 11
2.2405715E+002
 21
1.1908E+001
  0
LINE
  8
1
  6
CONTINUOUS
 62
7
 10
2.2302115E+002
 20
9.984
 11
2.2405715E+002
 21
9.984
  0
LINE
  8
1
  6
CONTINUOUS
 62
7
 10
2.2250315E+002
 20
8.504
 11
2.2302115E+002
 21
9.984
  0
LINE
  8
1
  6
CONTINUOUS
 62
7
 10
2.2065315E+002
 20
8.504
 11
2.2250315E+002
 21
8.504
  0
LINE
  8
1
  6
CONTINUOUS
 62
7
 10
2.2065315E+002
 20
8.504
 11
2.2184455E+002
 21
1.1908E+001
  0
LINE
  8
1
  6
CONTINUOUS
 62
7
 10
2.2184455E+002
 20
1.1908E+001
 11
2.2405715E+002
 21
1.1908E+001
  0
LINE
  8
1
  6
CONTINUOUS
 62
7
 10
2.2464915E+002
 20
1.1908E+001
 11
2.2686175E+002
 21
1.1908E+001
  0
LINE
  8
1
  6
CONTINUOUS
 62
7
 10
2.2686175E+002
 20
1.1908E+001
 11
2.2805315E+002
 21
8.504
  0
LINE
  8
1
  6
CONTINUOUS
 62
7
 10
2.2620315E+002
 20
8.504
 11
2.2805315E+002
 21
8.504
  0
LINE
  8
1
  6
CONTINUOUS
 62
7
 10
2.2620315E+002
 20
8.504
 11
2.2568515E+002
 21
9.984
  0
LINE
  8
1
  6
CONTINUOUS
 62
7
 10
2.2464915E+002
 20
9.984
 11
2.2568515E+002
 21
9.984
  0
LINE
  8
1
  6
CONTINUOUS
 62
7
 10
2.2464915E+002
 20
9.984
 11
2.2464915E+002
 21
1.1908E+001
  0
LINE
  8
1
  6
CONTINUOUS
 62
7
 10
2.2857115E+002
 20
1.25E+001
 11
2.3049515E+002
 21
1.25E+001
  0
LINE
  8
1
  6
CONTINUOUS
 62
7
 10
2.2857115E+002
 20
1.5904E+001
 11
2.2857115E+002
 21
1.25E+001
  0
LINE
  8
1
  6
CONTINUOUS
 62
7
 10
2.2857115E+002
 20
1.5904E+001
 11
2.3049515E+002
 21
1.5904E+001
  0
LINE
  8
1
  6
CONTINUOUS
 62
7
 10
2.3049515E+002
 20
1.5904E+001
 11
2.3049515E+002
 21
1.25E+001
  0
LINE
  8
1
  6
CONTINUOUS
 62
7
 10
2.3108715E+002
 20
1.25E+001
 11
2.3286315E+002
 21
1.25E+001
  0
ARC
  8
1
  6
CONTINUOUS
 62
7
 10
2.3153115E+002
 20
1.0724E+001
 40
2.22
 50
5.3130102E+001
 51
6.8407484E+001
  0
ARC
  8
1
  6
CONTINUOUS
 62
7
 10
2.3153115E+002
 20
1.4239E+001
 40
1.665
 50
2.9938468E+002
 51
4.5E+002
  0
LINE
  8
1
  6
CONTINUOUS
 62
7
 10
2.3108715E+002
 20
1.5904E+001
 11
2.3153115E+002
 21
1.5904E+001
  0
LINE
  8
1
  6
CONTINUOUS
 62
7
 10
2.3108715E+002
 20
1.5904E+001
 11
2.3108715E+002
 21
1.25E+001
  0
LINE
  8
1
  6
CONTINUOUS
 62
7
 10
2.3049515E+002
 20
1.1908E+001
 11
2.3049515E+002
 21
8.504
  0
LINE
  8
1
  6
CONTINUOUS
 62
7
 10
2.2857115E+002
 20
8.504
 11
2.3049515E+002
 21
8.504
  0
LINE
  8
1
  6
CONTINUOUS
 62
7
 10
2.2857115E+002
 20
1.1908E+001
 11
2.2857115E+002
 21
8.504
  0
LINE
  8
1
  6
CONTINUOUS
 62
7
 10
2.2857115E+002
 20
1.1908E+001
 11
2.3049515E+002
 21
1.1908E+001
  0
LINE
  8
1
  6
CONTINUOUS
 62
7
 10
2.3108715E+002
 20
1.1908E+001
 11
2.3340906E+002
 21
1.1908E+001
  0
ARC
  8
1
  6
CONTINUOUS
 62
7
 10
2.3153115E+002
 20
1.0724E+001
 40
2.22
 50
2.7E+002
 51
3.9223095E+002
  0
LINE
  8
1
  6
CONTINUOUS
 62
7
 10
2.3108715E+002
 20
8.504
 11
2.3153115E+002
 21
8.504
  0
LINE
  8
1
  6
CONTINUOUS
 62
7
 10
2.3108715E+002
 20
1.1908E+001
 11
2.3108715E+002
 21
8.504
  0
LINE
  8
1
  6
CONTINUOUS
 62
7
 10
2.3434315E+002
 20
1.25E+001
 11
2.3626715E+002
 21
1.25E+001
  0
LINE
  8
1
  6
CONTINUOUS
 62
7
 10
2.3434315E+002
 20
1.5904E+001
 11
2.3434315E+002
 21
1.25E+001
  0
LINE
  8
1
  6
CONTINUOUS
 62
7
 10
2.3434315E+002
 20
1.5904E+001
 11
2.3626715E+002
 21
1.5904E+001
  0
LINE
  8
1
  6
CONTINUOUS
 62
7
 10
2.3626715E+002
 20
1.5904E+001
 11
2.3626715E+002
 21
1.25E+001
  0
LINE
  8
1
  6
CONTINUOUS
 62
7
 10
2.3685915E+002
 20
1.5904E+001
 11
2.3685915E+002
 21
1.25E+001
  0
LINE
  8
1
  6
CONTINUOUS
 62
7
 10
2.3685915E+002
 20
1.5904E+001
 11
2.3730315E+002
 21
1.5904E+001
  0
ARC
  8
1
  6
CONTINUOUS
 62
7
 10
2.3730315E+002
 20
1.4239E+001
 40
1.665
 50
2.9938468E+002
 51
4.5E+002
  0
ARC
  8
1
  6
CONTINUOUS
 62
7
 10
2.3730315E+002
 20
1.0724E+001
 40
2.22
 50
5.3130102E+001
 51
6.8407484E+001
  0
LINE
  8
1
  6
CONTINUOUS
 62
7
 10
2.3685915E+002
 20
1.25E+001
 11
2.3863515E+002
 21
1.25E+001
  0
LINE
  8
1
  6
CONTINUOUS
 62
7
 10
2.3626715E+002
 20
1.1908E+001
 11
2.3626715E+002
 21
8.504
  0
LINE
  8
1
  6
CONTINUOUS
 62
7
 10
2.3434315E+002
 20
8.504
 11
2.3626715E+002
 21
8.504
  0
LINE
  8
1
  6
CONTINUOUS
 62
7
 10
2.3434315E+002
 20
1.1908E+001
 11
2.3434315E+002
 21
8.504
  0
LINE
  8
1
  6
CONTINUOUS
 62
7
 10
2.3434315E+002
 20
1.1908E+001
 11
2.3626715E+002
 21
1.1908E+001
  0
LINE
  8
1
  6
CONTINUOUS
 62
7
 10
2.3685915E+002
 20
1.1908E+001
 11
2.3918106E+002
 21
1.1908E+001
  0
ARC
  8
1
  6
CONTINUOUS
 62
7
 10
2.3730315E+002
 20
1.0724E+001
 40
2.22
 50
2.7E+002
 51
3.9223095E+002
  0
LINE
  8
1
  6
CONTINUOUS
 62
7
 10
2.3685915E+002
 20
8.504
 11
2.3730315E+002
 21
8.504
  0
LINE
  8
1
  6
CONTINUOUS
 62
7
 10
2.3685915E+002
 20
1.1908E+001
 11
2.3685915E+002
 21
8.504
  0
LINE
  8
1
  6
CONTINUOUS
 62
7
 10
1.0E+001
 20
5.8462564E+001
 11
0.0
 21
5.8462564E+001
  0
LINE
  8
1
  6
CONTINUOUS
 62
7
 10
0.0
 20
1.1192513E+002
 11
1.0E+001
 21
1.1192513E+002
  0
LINE
  8
2
  6
CONTINUOUS
 62
7
 10
2.2749903E+002
 20
2.72E+002
 11
2.2749903E+002
 21
2.77E+002
  0
LINE
  8
1
  6
CONTINUOUS
 62
7
 10
1.85E+002
 20
2.77E+002
 11
1.85E+002
 21
2.72E+002
  0
LINE
  8
1
  6
CONTINUOUS
 62
7
 10
2.6999806E+002
 20
2.77E+002
 11
2.6999806E+002
 21
2.72E+002
  0
LINE
  8
1
  6
CONTINUOUS
 62
7
 10
3.5499612E+002
 20
2.77E+002
 11
3.5499612E+002
 21
2.72E+002
  0
LINE
  8
2
  6
CONTINUOUS
 62
7
 10
3.1249709E+002
 20
2.72E+002
 11
3.1249709E+002
 21
2.77E+002
  0
LINE
  8
2
  6
CONTINUOUS
 62
7
 10
3.9049515E+002
 20
0.0
 11
3.9049515E+002
 21
2.77E+002
  0
POLYLINE
  8
1
  6
CONTINUOUS
 62
7
 66
1
 40
5.0E-001
 41
5.0E-001
 70
0
  0
VERTEX
  8
1
 42
0.0
 10
2.1549515E+002
 20
4.0E+001
 70
0
  0
VERTEX
  8
1
 42
0.0
 10
2.1549515E+002
 20
5.0
 70
0
  0
SEQEND
  0
TEXT
  8
2
  6
CONTINUOUS
 62
7
 10
2.0983526E+002
 20
2.760248E+002
 40
2.5
  1
E
 72
1
 11
2.0858526E+002
 21
2.747748E+002
 73
2
  0
TEXT
  8
2
  6
CONTINUOUS
 62
7
 10
2.4999854E+002
 20
2.7575E+002
 40
2.5
  1
D
 72
1
 11
2.4874854E+002
 21
2.745E+002
 73
2
  0
TEXT
  8
2
  6
CONTINUOUS
 62
7
 10
2.9249757E+002
 20
2.7575E+002
 40
2.5
  1
C
 72
1
 11
2.9124757E+002
 21
2.745E+002
 73
2
  0
TEXT
  8
2
  6
CONTINUOUS
 62
7
 10
3.349966E+002
 20
2.7575E+002
 40
2.5
  1
B
 72
1
 11
3.337466E+002
 21
2.745E+002
 73
2
  0
TEXT
  8
2
  6
CONTINUOUS
 62
7
 10
3.7749563E+002
 20
2.7575E+002
 40
2.5
  1
A
 72
1
 11
3.7624563E+002
 21
2.745E+002
 73
2
  0
POINT
  8
Drafting_Hidden_Entities
  6
CONTINUOUS
 62
1
 10
0.0
 20
0.0
  0
ENDBLK
  0
BLOCK
  2
OEM-A3H_19-11_-2
 10
0.0
 20
0.0
 70
0
  0
ATTDEF
  8
1
  6
CONTINUOUS
 62
5
 10
3.8449644E+002
 20
3.8E+001
 40
2.0
  1
FPEM123456P0001
 41
6.5E-001
 11
3.8449644E+002
 21
3.7E+001
  3
ANCIEN_ Plan
  2
ANCIEN_Plan
 70
0
 73
2
 74
2
  0
ATTDEF
  8
1
  6
CONTINUOUS
 62
5
 10
3.8449644E+002
 20
2.2E+001
 40
4.0
  1
FPEM470778P0001
 41
7.5E-001
 72
1
 11
3.7549644E+002
 21
2.0E+001
  3
N°PLAN
  2
N°PLAN
 70
0
 73
2
 74
2
  0
ATTDEF
  8
1
  6
CONTINUOUS
 62
5
 10
3.8449644E+002
 20
3.4005401E+001
 40
2.0
  1
OEM-12345
 41
7.5E-001
 11
3.8449644E+002
 21
3.3005401E+001
  3
N°OEM
  2
N°OEM
 70
0
 73
2
 74
2
  0
ATTDEF
  8
1
  6
CONTINUOUS
 62
5
 10
3.7475484E+002
 20
2.7659209E+001
 40
2.75
  1
A4
 41
7.5E-001
 72
1
 11
3.7269234E+002
 21
2.6284209E+001
  3
A?
  2
A?
 70
0
 73
2
 74
2
  0
POLYLINE
  8
1
  6
CONTINUOUS
 62
7
 66
1
 40
5.0E-001
 41
5.0E-001
 70
0
  0
VERTEX
  8
1
 42
0.0
 10
2.9E+001
 20
2.83E+002
 70
0
  0
VERTEX
  8
1
 42
0.0
 10
2.9E+001
 20
5.1E+001
 70
0
  0
SEQEND
  0
POLYLINE
  8
1
  6
CONTINUOUS
 62
7
 66
1
 40
5.0E-001
 41
5.0E-001
 70
0
  0
VERTEX
  8
1
 42
0.0
 10
2.9E+001
 20
5.1E+001
 70
0
  0
VERTEX
  8
1
 42
0.0
 10
2.9065101E+001
 20
1.6E+001
 70
0
  0
SEQEND
  0
POLYLINE
  8
1
  6
CONTINUOUS
 62
7
 66
1
 40
5.0E-001
 41
5.0E-001
 70
0
  0
VERTEX
  8
1
 42
0.0
 10
2.9065101E+001
 20
1.6E+001
 70
0
  0
VERTEX
  8
1
 42
0.0
 10
4.0949515E+002
 20
1.6E+001
 70
0
  0
SEQEND
  0
POLYLINE
  8
1
  6
CONTINUOUS
 62
7
 66
1
 40
5.0E-001
 41
5.0E-001
 70
0
  0
VERTEX
  8
1
 42
0.0
 10
4.0949515E+002
 20
2.1E+001
 70
0
  0
VERTEX
  8
1
 42
0.0
 10
4.0949515E+002
 20
1.6E+001
 70
0
  0
SEQEND
  0
TEXT
  8
1
  6
CONTINUOUS
 62
7
 10
3.7570343E+002
 20
2.8697775E+001
 40
1.5
  1
Format
 41
6.5E-001
 72
1
 11
3.7277843E+002
 21
2.8697775E+001
  0
TEXT
  8
1
  6
CONTINUOUS
 62
7
 10
3.9075835E+002
 20
2.8697775E+001
 40
1.5
  1
Feuille n%%d
 41
6.5E-001
 72
1
 11
3.8588335E+002
 21
2.8697775E+001
  0
TEXT
  8
1
  6
CONTINUOUS
 62
7
 10
4.0347593E+002
 20
2.8697775E+001
 40
1.5
  1
Nb Feuilles
 41
6.5E-001
 72
1
 11
3.9811343E+002
 21
2.8697775E+001
  0
LINE
  8
1
  6
CONTINUOUS
 62
1
 10
1.9E+001
 20
5.1E+001
 11
1.9E+001
 21
5.2E+001
  0
TEXT
  8
1
  6
CONTINUOUS
 62
7
 10
3.7949644E+002
 20
3.4005401E+001
 40
2.0
  1
PROJET
 41
7.5E-001
 72
1
 11
3.7499644E+002
 21
3.3005401E+001
 73
2
  0
TEXT
  8
1
  6
CONTINUOUS
 62
7
 10
2.775E+001
 20
7.1087564E+001
 40
1.25
  1
autorisation écrite.
 41
7.5E-001
 50
9.0E+001
 11
2.775E+001
 21
7.0462564E+001
 73
2
  0
TEXT
  8
1
  6
CONTINUOUS
 62
7
 10
3.8299644E+002
 20
3.8E+001
 40
2.0
  1
Issu de/Remplace
 41
5.0E-001
 72
1
 11
3.7499644E+002
 21
3.7E+001
 73
2
  0
TEXT
  8
1
  6
CONTINUOUS
 62
7
 10
3.6568394E+002
 20
4.9875E+001
 40
1.75
  1
ORDRE EXECUTION
 41
7.0E-001
 72
1
 11
3.5649644E+002
 21
4.9E+001
 73
2
  0
TEXT
  8
1
  6
CONTINUOUS
 62
7
 10
3.6384644E+002
 20
4.5875E+001
 40
1.75
  1
CONTROLE PAR
 41
7.0E-001
 72
1
 11
3.5649644E+002
 21
4.5E+001
 73
2
  0
TEXT
  8
1
  6
CONTINUOUS
 62
7
 10
3.6323394E+002
 20
4.1875E+001
 40
1.75
  1
REALISE PAR
 41
7.0E-001
 72
1
 11
3.5649644E+002
 21
4.1E+001
 73
2
  0
LINE
  8
2
  6
CONTINUOUS
 62
7
 10
1.1400065E+002
 20
2.83E+002
 11
1.1400065E+002
 21
2.88E+002
  0
LINE
  8
2
  6
CONTINUOUS
 62
7
 10
6.6500323E+001
 20
2.83E+002
 11
6.6500323E+001
 21
2.88E+002
  0
LINE
  8
2
  6
CONTINUOUS
 62
7
 10
1.6150097E+002
 20
2.83E+002
 11
1.6150097E+002
 21
2.88E+002
  0
TEXT
  8
2
  6
CONTINUOUS
 62
7
 10
8.9162765E+001
 20
2.8929144E+002
 40
2.5
  1
H
 11
8.9162765E+001
 21
2.8679144E+002
 73
3
  0
TEXT
  8
2
  6
CONTINUOUS
 62
7
 10
4.1581586E+001
 20
2.8929144E+002
 40
2.5
  1
I
 11
4.1581586E+001
 21
2.8679144E+002
 73
3
  0
TEXT
  8
2
  6
CONTINUOUS
 62
7
 10
1.3658442E+002
 20
2.8929144E+002
 40
2.5
  1
G
 11
1.3658442E+002
 21
2.8679144E+002
 73
3
  0
TEXT
  8
2
  6
CONTINUOUS
 62
7
 10
1.8400049E+002
 20
2.8675E+002
 40
2.5
  1
F
 72
1
 11
1.8275049E+002
 21
2.855E+002
 73
2
  0
TEXT
  8
2
  6
CONTINUOUS
 62
7
 10
4.0579278E+002
 20
2.5725255E+002
 40
2.5
  1
4
 11
4.0579278E+002
 21
2.5475255E+002
 73
3
  0
LINE
  8
2
  6
CONTINUOUS
 62
7
 10
1.9E+001
 20
2.88E+002
 11
1.9E+001
 21
1.1E+001
  0
LINE
  8
2
  6
CONTINUOUS
 62
7
 10
4.0949515E+002
 20
2.88E+002
 11
1.9E+001
 21
2.88E+002
  0
LINE
  8
2
  6
CONTINUOUS
 62
7
 10
3.9173041E+002
 20
2.4E+001
 11
3.9173041E+002
 21
3.1010803E+001
  0
LINE
  8
2
  6
CONTINUOUS
 62
7
 10
3.7906041E+002
 20
2.4E+001
 11
3.7906041E+002
 21
3.1010803E+001
  0
POLYLINE
  8
1
  6
CONTINUOUS
 62
7
 66
1
 40
5.0E-001
 41
5.0E-001
 70
0
  0
VERTEX
  8
1
 42
0.0
 10
4.0949644E+002
 20
2.1E+001
 70
0
  0
VERTEX
  8
1
 42
0.0
 10
4.0449644E+002
 20
2.1E+001
 70
0
  0
SEQEND
  0
TEXT
  8
2
  6
CONTINUOUS
 62
7
 10
2.4383169E+002
 20
3.3875E+001
 40
1.75
  1
IND
 41
7.0E-001
 72
1
 11
2.4199419E+002
 21
3.3E+001
 73
2
  0
TEXT
  8
2
  6
CONTINUOUS
 62
7
 10
2.4544467E+002
 20
4.2E+001
 40
2.0
  1
Modifications
 41
6.5E-001
 50
9.0E+001
 72
1
 11
2.3699467E+002
 21
4.1E+001
 73
2
  0
LINE
  8
2
  6
CONTINUOUS
 62
7
 10
3.8349644E+002
 20
3.1010803E+001
 11
3.8349644E+002
 21
3.9E+001
  0
LINE
  8
2
  6
CONTINUOUS
 62
7
 10
4.0449644E+002
 20
3.1010803E+001
 11
3.6649644E+002
 21
3.1010803E+001
  0
LINE
  8
2
  6
CONTINUOUS
 62
7
 10
3.6649644E+002
 20
3.5E+001
 11
4.0449644E+002
 21
3.5E+001
  0
LINE
  8
2
  6
CONTINUOUS
 62
7
 10
3.6649644E+002
 20
2.4E+001
 11
3.6649644E+002
 21
5.1E+001
  0
POLYLINE
  8
1
  6
CONTINUOUS
 62
7
 66
1
 40
5.0E-001
 41
5.0E-001
 70
0
  0
VERTEX
  8
1
 42
0.0
 10
3.4649644E+002
 20
2.4E+001
 70
0
  0
VERTEX
  8
1
 42
0.0
 10
4.0449644E+002
 20
2.4E+001
 70
0
  0
SEQEND
  0
LINE
  8
2
  6
CONTINUOUS
 62
7
 10
2.6449515E+002
 20
2.7000915E+001
 11
3.4649644E+002
 21
2.7000915E+001
  0
LINE
  8
2
  6
CONTINUOUS
 62
7
 10
2.4449419E+002
 20
5.1E+001
 11
2.4449419E+002
 21
3.1E+001
  0
LINE
  8
2
  6
CONTINUOUS
 62
7
 10
2.3949419E+002
 20
5.1E+001
 11
2.3949419E+002
 21
3.1E+001
  0
LINE
  8
2
  6
CONTINUOUS
 62
7
 10
3.0649644E+002
 20
5.1E+001
 11
3.0649644E+002
 21
3.1E+001
  0
LINE
  8
2
  6
CONTINUOUS
 62
7
 10
4.0449644E+002
 20
4.3E+001
 11
2.3949419E+002
 21
4.3E+001
  0
LINE
  8
2
  6
CONTINUOUS
 62
7
 10
4.0449644E+002
 20
4.7E+001
 11
2.3949419E+002
 21
4.7E+001
  0
LINE
  8
2
  6
CONTINUOUS
 62
7
 10
2.3949419E+002
 20
3.9E+001
 11
4.0449644E+002
 21
3.9E+001
  0
LINE
  8
2
  6
CONTINUOUS
 62
7
 10
3.4649644E+002
 20
3.5E+001
 11
2.3949419E+002
 21
3.5E+001
  0
POLYLINE
  8
1
  6
CONTINUOUS
 62
7
 66
1
 40
5.0E-001
 41
5.0E-001
 70
0
  0
VERTEX
  8
1
 42
0.0
 10
3.4649644E+002
 20
1.6E+001
 70
0
  0
VERTEX
  8
1
 42
0.0
 10
3.4649644E+002
 20
5.1E+001
 70
0
  0
SEQEND
  0
LINE
  8
2
  6
CONTINUOUS
 62
7
 10
3.4649644E+002
 20
3.1E+001
 11
2.3449515E+002
 21
3.1E+001
  0
LINE
  8
2
  6
CONTINUOUS
 62
7
 10
2.6449515E+002
 20
1.6E+001
 11
2.6449515E+002
 21
3.1E+001
  0
POLYLINE
  8
1
  6
CONTINUOUS
 62
7
 66
1
 40
5.0E-001
 41
5.0E-001
 70
0
  0
VERTEX
  8
1
 42
0.0
 10
4.0449644E+002
 20
5.1E+001
 70
0
  0
VERTEX
  8
1
 42
0.0
 10
2.3449515E+002
 20
5.1E+001
 70
0
  0
SEQEND
  0
CIRCLE
  8
2
  6
CONTINUOUS
 62
7
 10
1.2875459E+001
 20
1.9251881E+002
 40
2.5
  0
INSERT
  2
SE0
  8
2
 10
2.9089201
 20
4.0051216
  0
CIRCLE
  8
2
  6
CONTINUOUS
 62
7
 10
1.2875459E+001
 20
1.1251881E+002
 40
2.5
  0
INSERT
  2
SE1
  8
2
 10
2.9089201
 20
4.0051216
  0
CIRCLE
  8
2
  6
CONTINUOUS
 62
7
 10
1.2875459E+001
 20
3.2518811E+001
 40
2.5
  0
INSERT
  2
SE2
  8
2
 10
2.9089201
 20
4.0051216
  0
CIRCLE
  8
2
  6
CONTINUOUS
 62
7
 10
1.2875459E+001
 20
2.7251881E+002
 40
2.5
  0
INSERT
  2
SE3
  8
2
 10
2.9089201
 20
4.0051216
  0
LINE
  8
2
  6
CONTINUOUS
 62
7
 10
1.9E+001
 20
1.1E+001
 11
4.0949515E+002
 21
1.1E+001
  0
LINE
  8
2
  6
CONTINUOUS
 62
7
 10
1.0012039E+001
 20
1.4651881E+002
 11
1.6102337E+001
 21
1.4651881E+002
  0
LINE
  8
2
  6
CONTINUOUS
 62
7
 10
2.9E+001
 20
2.83E+002
 11
2.9E+001
 21
1.6E+001
  0
POLYLINE
  8
1
  6
CONTINUOUS
 62
7
 66
1
 40
5.0E-001
 41
5.0E-001
 70
0
  0
VERTEX
  8
1
 42
0.0
 10
2.9E+001
 20
2.83E+002
 70
0
  0
VERTEX
  8
1
 42
0.0
 10
4.0449644E+002
 20
2.83E+002
 70
0
  0
SEQEND
  0
TEXT
  8
2
  6
CONTINUOUS
 62
7
 10
2.025E+001
 20
1.77E+001
 40
1.4
  1
We reserve all rights in this document and in the
 41
7.5E-001
 50
9.0E+001
 11
2.025E+001
 21
1.7E+001
 73
2
  0
TEXT
  8
2
  6
CONTINUOUS
 62
7
 10
2.275E+001
 20
1.77E+001
 40
1.4
  1
information contained therein. Reproduction, use
 41
7.5E-001
 50
9.0E+001
 11
2.275E+001
 21
1.7E+001
 73
2
  0
TEXT
  8
2
  6
CONTINUOUS
 62
7
 10
2.525E+001
 20
1.77E+001
 40
1.4
  1
or disclosure to third parties without express
 41
7.5E-001
 50
9.0E+001
 11
2.525E+001
 21
1.7E+001
 73
2
  0
TEXT
  8
2
  6
CONTINUOUS
 62
7
 10
2.775E+001
 20
1.77E+001
 40
1.4
  1
autority is strictly forbidden
 41
7.5E-001
 50
9.0E+001
 11
2.775E+001
 21
1.7E+001
 73
2
  0
TEXT
  8
2
  6
CONTINUOUS
 62
7
 10
2.025E+001
 20
7.1162564E+001
 40
1.4
  1
Ce document, propriété exclusive de notre
 41
7.5E-001
 50
9.0E+001
 11
2.025E+001
 21
7.0462564E+001
 73
2
  0
TEXT
  8
2
  6
CONTINUOUS
 62
7
 10
2.275E+001
 20
7.1162564E+001
 40
1.4
  1
société, est strictement confidentiel. Il ne peut
 41
7.5E-001
 50
9.0E+001
 11
2.275E+001
 21
7.0462564E+001
 73
2
  0
TEXT
  8
2
  6
CONTINUOUS
 62
7
 10
2.525E+001
 20
7.1162564E+001
 40
1.4
  1
être communiqué, copié ou reproduit sans son
 41
7.5E-001
 50
9.0E+001
 11
2.525E+001
 21
7.0462564E+001
 73
2
  0
LINE
  8
2
  6
CONTINUOUS
 62
7
 10
2.9E+001
 20
1.6E+001
 11
1.9E+001
 21
1.6E+001
  0
LINE
  8
2
  6
CONTINUOUS
 62
7
 10
3.2649644E+002
 20
3.1E+001
 11
3.2649644E+002
 21
5.1E+001
  0
LINE
  8
2
  6
CONTINUOUS
 62
7
 10
3.1649644E+002
 20
2.7000915E+001
 11
3.1649644E+002
 21
5.1E+001
  0
LINE
  8
2
  6
CONTINUOUS
 62
7
 10
3.3349644E+002
 20
3.1E+001
 11
3.3349644E+002
 21
5.1E+001
  0
TEXT
  8
1
  6
CONTINUOUS
 62
7
 10
2.4549419E+002
 20
3.3875E+001
 40
1.75
  1
DESCRIPTION
 41
7.0E-001
 11
2.4549419E+002
 21
3.3E+001
 73
2
  0
TEXT
  8
1
  6
CONTINUOUS
 62
7
 10
3.1394644E+002
 20
3.3875E+001
 40
1.75
  1
DATE
 41
7.0E-001
 72
1
 11
3.1149644E+002
 21
3.3E+001
 73
2
  0
TEXT
  8
1
  6
CONTINUOUS
 62
7
 10
3.2394644E+002
 20
3.3875E+001
 40
1.75
  1
N°OE
 41
7.0E-001
 72
1
 11
3.2149644E+002
 21
3.3E+001
 73
2
  0
TEXT
  8
1
  6
CONTINUOUS
 62
7
 10
3.3262144E+002
 20
3.3875E+001
 40
1.75
  1
Auteur
 41
5.0E-001
 72
1
 11
3.2999644E+002
 21
3.3E+001
 73
2
  0
TEXT
  8
1
  6
CONTINUOUS
 62
7
 10
3.4454644E+002
 20
3.3875E+001
 40
1.75
  1
Controlé
 41
6.5E-001
 72
1
 11
3.3999644E+002
 21
3.3E+001
 73
2
  0
TEXT
  8
1
  6
CONTINUOUS
 62
7
 10
3.4589644E+002
 20
3.0000457E+001
 40
2.0
  1
Service responsable: OEM
 41
6.0E-001
 72
1
 11
3.3149644E+002
 21
2.9000457E+001
 73
2
  0
TEXT
  8
1
  6
CONTINUOUS
 62
7
 10
2.6549515E+002
 20
3.0250457E+001
 40
2.5
  1
ABB CONTROL
 41
7.5E-001
 11
2.6549515E+002
 21
2.9000457E+001
 73
2
  0
TEXT
  8
1
  6
CONTINUOUS
 62
7
 10
2.6549515E+002
 20
2.5686428E+001
 40
1.5
  1
Titre
 11
2.6549515E+002
 21
2.4936428E+001
 73
2
  0
TEXT
  8
1
  6
CONTINUOUS
 62
7
 10
3.6043394E+002
 20
3.775E+001
 40
1.5
  1
ECHELLE
 41
7.5E-001
 72
1
 11
3.5649644E+002
 21
3.7E+001
 73
2
  0
TEXT
  8
2
  6
CONTINUOUS
 62
7
 10
4.0610271E+002
 20
4.9454406E+001
 40
2.5
  1
1
 41
6.65E-001
 11
4.0610271E+002
 21
4.6954406E+001
 73
3
  0
TEXT
  8
2
  6
CONTINUOUS
 62
7
 10
4.0576438E+002
 20
1.1880311E+002
 40
2.5
  1
2
 11
4.0576438E+002
 21
1.1630311E+002
 73
3
  0
TEXT
  8
2
  6
CONTINUOUS
 62
7
 10
4.0587801E+002
 20
1.8798651E+002
 40
2.5
  1
3
 11
4.0587801E+002
 21
1.8548651E+002
 73
3
  0
LINE
  8
2
  6
CONTINUOUS
 62
7
 10
4.0449644E+002
 20
8.025E+001
 11
4.0949515E+002
 21
8.025E+001
  0
LINE
  8
2
  6
CONTINUOUS
 62
7
 10
4.0449644E+002
 20
2.1875E+002
 11
4.0949515E+002
 21
2.1875E+002
  0
LINE
  8
2
  6
CONTINUOUS
 62
7
 10
4.0949515E+002
 20
1.495E+002
 11
4.0449644E+002
 21
1.495E+002
  0
POLYLINE
  8
1
  6
CONTINUOUS
 62
7
 66
1
 40
5.0E-001
 41
5.0E-001
 70
0
  0
VERTEX
  8
1
 42
0.0
 10
4.0449644E+002
 20
1.6E+001
 70
0
  0
VERTEX
  8
1
 42
0.0
 10
4.0449644E+002
 20
2.83E+002
 70
0
  0
SEQEND
  0
LINE
  8
1
  6
CONTINUOUS
 62
7
 10
2.4105175E+002
 20
2.35E+001
 11
2.4305715E+002
 21
2.35E+001
  0
LINE
  8
1
  6
CONTINUOUS
 62
7
 10
2.4105175E+002
 20
2.35E+001
 11
2.4224315E+002
 21
2.6904E+001
  0
LINE
  8
1
  6
CONTINUOUS
 62
7
 10
2.4224315E+002
 20
2.6904E+001
 11
2.4305715E+002
 21
2.6904E+001
  0
LINE
  8
1
  6
CONTINUOUS
 62
7
 10
2.4305715E+002
 20
2.35E+001
 11
2.4305715E+002
 21
2.6904E+001
  0
LINE
  8
1
  6
CONTINUOUS
 62
7
 10
2.4364915E+002
 20
2.35E+001
 11
2.4565455E+002
 21
2.35E+001
  0
LINE
  8
1
  6
CONTINUOUS
 62
7
 10
2.4446315E+002
 20
2.6904E+001
 11
2.4565455E+002
 21
2.35E+001
  0
LINE
  8
1
  6
CONTINUOUS
 62
7
 10
2.4364915E+002
 20
2.6904E+001
 11
2.4446315E+002
 21
2.6904E+001
  0
LINE
  8
1
  6
CONTINUOUS
 62
7
 10
2.4364915E+002
 20
2.35E+001
 11
2.4364915E+002
 21
2.6904E+001
  0
LINE
  8
1
  6
CONTINUOUS
 62
7
 10
2.4305715E+002
 20
2.0984E+001
 11
2.4305715E+002
 21
2.2908E+001
  0
LINE
  8
1
  6
CONTINUOUS
 62
7
 10
2.4202115E+002
 20
2.0984E+001
 11
2.4305715E+002
 21
2.0984E+001
  0
LINE
  8
1
  6
CONTINUOUS
 62
7
 10
2.4150315E+002
 20
1.9504E+001
 11
2.4202115E+002
 21
2.0984E+001
  0
LINE
  8
1
  6
CONTINUOUS
 62
7
 10
2.3965315E+002
 20
1.9504E+001
 11
2.4150315E+002
 21
1.9504E+001
  0
LINE
  8
1
  6
CONTINUOUS
 62
7
 10
2.3965315E+002
 20
1.9504E+001
 11
2.4084455E+002
 21
2.2908E+001
  0
LINE
  8
1
  6
CONTINUOUS
 62
7
 10
2.4084455E+002
 20
2.2908E+001
 11
2.4305715E+002
 21
2.2908E+001
  0
LINE
  8
1
  6
CONTINUOUS
 62
7
 10
2.4364915E+002
 20
2.2908E+001
 11
2.4586175E+002
 21
2.2908E+001
  0
LINE
  8
1
  6
CONTINUOUS
 62
7
 10
2.4586175E+002
 20
2.2908E+001
 11
2.4705315E+002
 21
1.9504E+001
  0
LINE
  8
1
  6
CONTINUOUS
 62
7
 10
2.4520315E+002
 20
1.9504E+001
 11
2.4705315E+002
 21
1.9504E+001
  0
LINE
  8
1
  6
CONTINUOUS
 62
7
 10
2.4520315E+002
 20
1.9504E+001
 11
2.4468515E+002
 21
2.0984E+001
  0
LINE
  8
1
  6
CONTINUOUS
 62
7
 10
2.4364915E+002
 20
2.0984E+001
 11
2.4468515E+002
 21
2.0984E+001
  0
LINE
  8
1
  6
CONTINUOUS
 62
7
 10
2.4364915E+002
 20
2.0984E+001
 11
2.4364915E+002
 21
2.2908E+001
  0
LINE
  8
1
  6
CONTINUOUS
 62
7
 10
2.4757115E+002
 20
2.35E+001
 11
2.4949515E+002
 21
2.35E+001
  0
LINE
  8
1
  6
CONTINUOUS
 62
7
 10
2.4757115E+002
 20
2.6904E+001
 11
2.4757115E+002
 21
2.35E+001
  0
LINE
  8
1
  6
CONTINUOUS
 62
7
 10
2.4757115E+002
 20
2.6904E+001
 11
2.4949515E+002
 21
2.6904E+001
  0
LINE
  8
1
  6
CONTINUOUS
 62
7
 10
2.4949515E+002
 20
2.6904E+001
 11
2.4949515E+002
 21
2.35E+001
  0
LINE
  8
1
  6
CONTINUOUS
 62
7
 10
2.5008715E+002
 20
2.35E+001
 11
2.5186315E+002
 21
2.35E+001
  0
ARC
  8
1
  6
CONTINUOUS
 62
7
 10
2.5053115E+002
 20
2.1724E+001
 40
2.22
 50
5.3130102E+001
 51
6.8407484E+001
  0
ARC
  8
1
  6
CONTINUOUS
 62
7
 10
2.5053115E+002
 20
2.5239E+001
 40
1.665
 50
2.9938468E+002
 51
4.5E+002
  0
LINE
  8
1
  6
CONTINUOUS
 62
7
 10
2.5008715E+002
 20
2.6904E+001
 11
2.5053115E+002
 21
2.6904E+001
  0
LINE
  8
1
  6
CONTINUOUS
 62
7
 10
2.5008715E+002
 20
2.6904E+001
 11
2.5008715E+002
 21
2.35E+001
  0
LINE
  8
1
  6
CONTINUOUS
 62
7
 10
2.4949515E+002
 20
2.2908E+001
 11
2.4949515E+002
 21
1.9504E+001
  0
LINE
  8
1
  6
CONTINUOUS
 62
7
 10
2.4757115E+002
 20
1.9504E+001
 11
2.4949515E+002
 21
1.9504E+001
  0
LINE
  8
1
  6
CONTINUOUS
 62
7
 10
2.4757115E+002
 20
2.2908E+001
 11
2.4757115E+002
 21
1.9504E+001
  0
LINE
  8
1
  6
CONTINUOUS
 62
7
 10
2.4757115E+002
 20
2.2908E+001
 11
2.4949515E+002
 21
2.2908E+001
  0
LINE
  8
1
  6
CONTINUOUS
 62
7
 10
2.5008715E+002
 20
2.2908E+001
 11
2.5240906E+002
 21
2.2908E+001
  0
ARC
  8
1
  6
CONTINUOUS
 62
7
 10
2.5053115E+002
 20
2.1724E+001
 40
2.22
 50
2.7E+002
 51
3.9223095E+002
  0
LINE
  8
1
  6
CONTINUOUS
 62
7
 10
2.5008715E+002
 20
1.9504E+001
 11
2.5053115E+002
 21
1.9504E+001
  0
LINE
  8
1
  6
CONTINUOUS
 62
7
 10
2.5008715E+002
 20
2.2908E+001
 11
2.5008715E+002
 21
1.9504E+001
  0
LINE
  8
1
  6
CONTINUOUS
 62
7
 10
2.5334315E+002
 20
2.35E+001
 11
2.5526715E+002
 21
2.35E+001
  0
LINE
  8
1
  6
CONTINUOUS
 62
7
 10
2.5334315E+002
 20
2.6904E+001
 11
2.5334315E+002
 21
2.35E+001
  0
LINE
  8
1
  6
CONTINUOUS
 62
7
 10
2.5334315E+002
 20
2.6904E+001
 11
2.5526715E+002
 21
2.6904E+001
  0
LINE
  8
1
  6
CONTINUOUS
 62
7
 10
2.5526715E+002
 20
2.6904E+001
 11
2.5526715E+002
 21
2.35E+001
  0
LINE
  8
1
  6
CONTINUOUS
 62
7
 10
2.5585915E+002
 20
2.6904E+001
 11
2.5585915E+002
 21
2.35E+001
  0
LINE
  8
1
  6
CONTINUOUS
 62
7
 10
2.5585915E+002
 20
2.6904E+001
 11
2.5630315E+002
 21
2.6904E+001
  0
ARC
  8
1
  6
CONTINUOUS
 62
7
 10
2.5630315E+002
 20
2.5239E+001
 40
1.665
 50
2.9938468E+002
 51
4.5E+002
  0
ARC
  8
1
  6
CONTINUOUS
 62
7
 10
2.5630315E+002
 20
2.1724E+001
 40
2.22
 50
5.3130102E+001
 51
6.8407484E+001
  0
LINE
  8
1
  6
CONTINUOUS
 62
7
 10
2.5585915E+002
 20
2.35E+001
 11
2.5763515E+002
 21
2.35E+001
  0
LINE
  8
1
  6
CONTINUOUS
 62
7
 10
2.5526715E+002
 20
2.2908E+001
 11
2.5526715E+002
 21
1.9504E+001
  0
LINE
  8
1
  6
CONTINUOUS
 62
7
 10
2.5334315E+002
 20
1.9504E+001
 11
2.5526715E+002
 21
1.9504E+001
  0
LINE
  8
1
  6
CONTINUOUS
 62
7
 10
2.5334315E+002
 20
2.2908E+001
 11
2.5334315E+002
 21
1.9504E+001
  0
LINE
  8
1
  6
CONTINUOUS
 62
7
 10
2.5334315E+002
 20
2.2908E+001
 11
2.5526715E+002
 21
2.2908E+001
  0
LINE
  8
1
  6
CONTINUOUS
 62
7
 10
2.5585915E+002
 20
2.2908E+001
 11
2.5818106E+002
 21
2.2908E+001
  0
ARC
  8
1
  6
CONTINUOUS
 62
7
 10
2.5630315E+002
 20
2.1724E+001
 40
2.22
 50
2.7E+002
 51
3.9223095E+002
  0
LINE
  8
1
  6
CONTINUOUS
 62
7
 10
2.5585915E+002
 20
1.9504E+001
 11
2.5630315E+002
 21
1.9504E+001
  0
LINE
  8
1
  6
CONTINUOUS
 62
7
 10
2.5585915E+002
 20
2.2908E+001
 11
2.5585915E+002
 21
1.9504E+001
  0
LINE
  8
1
  6
CONTINUOUS
 62
7
 10
2.9E+001
 20
6.9462564E+001
 11
1.9E+001
 21
6.9462564E+001
  0
LINE
  8
1
  6
CONTINUOUS
 62
7
 10
1.9E+001
 20
1.2292513E+002
 11
2.9E+001
 21
1.2292513E+002
  0
LINE
  8
2
  6
CONTINUOUS
 62
7
 10
2.4649903E+002
 20
2.83E+002
 11
2.4649903E+002
 21
2.88E+002
  0
LINE
  8
1
  6
CONTINUOUS
 62
7
 10
2.04E+002
 20
2.88E+002
 11
2.04E+002
 21
2.83E+002
  0
LINE
  8
1
  6
CONTINUOUS
 62
7
 10
2.8899806E+002
 20
2.88E+002
 11
2.8899806E+002
 21
2.83E+002
  0
LINE
  8
1
  6
CONTINUOUS
 62
7
 10
3.7399612E+002
 20
2.88E+002
 11
3.7399612E+002
 21
2.83E+002
  0
LINE
  8
2
  6
CONTINUOUS
 62
7
 10
3.3149709E+002
 20
2.83E+002
 11
3.3149709E+002
 21
2.88E+002
  0
LINE
  8
2
  6
CONTINUOUS
 62
7
 10
4.0949515E+002
 20
1.1E+001
 11
4.0949515E+002
 21
2.88E+002
  0
POLYLINE
  8
1
  6
CONTINUOUS
 62
7
 66
1
 40
5.0E-001
 41
5.0E-001
 70
0
  0
VERTEX
  8
1
 42
0.0
 10
2.3449515E+002
 20
5.1E+001
 70
0
  0
VERTEX
  8
1
 42
0.0
 10
2.3449515E+002
 20
1.6E+001
 70
0
  0
SEQEND
  0
TEXT
  8
2
  6
CONTINUOUS
 62
7
 10
2.2883526E+002
 20
2.870248E+002
 40
2.5
  1
E
 72
1
 11
2.2758526E+002
 21
2.857748E+002
 73
2
  0
TEXT
  8
2
  6
CONTINUOUS
 62
7
 10
2.6899854E+002
 20
2.8675E+002
 40
2.5
  1
D
 72
1
 11
2.6774854E+002
 21
2.855E+002
 73
2
  0
TEXT
  8
2
  6
CONTINUOUS
 62
7
 10
3.1149757E+002
 20
2.8675E+002
 40
2.5
  1
C
 72
1
 11
3.1024757E+002
 21
2.855E+002
 73
2
  0
TEXT
  8
2
  6
CONTINUOUS
 62
7
 10
3.539966E+002
 20
2.8675E+002
 40
2.5
  1
B
 72
1
 11
3.527466E+002
 21
2.855E+002
 73
2
  0
TEXT
  8
2
  6
CONTINUOUS
 62
7
 10
3.9649563E+002
 20
2.8675E+002
 40
2.5
  1
A
 72
1
 11
3.9524563E+002
 21
2.855E+002
 73
2
  0
POINT
  8
Drafting_Hidden_Entities
  6
CONTINUOUS
 62
1
 10
0.0
 20
0.0
  0
ENDBLK
  0
BLOCK
  2
SE0
 10
0.0
 20
0.0
 70
0
  0
LINE
  8
2
  6
CENTERLINE
 62
7
 10
1.1554039E+001
 20
1.8851369E+002
 11
8.3790389
 21
1.8851369E+002
  0
LINE
  8
2
  6
CENTERLINE
 62
7
 10
9.9665389
 20
1.9010119E+002
 11
9.9665389
 21
1.8692619E+002
  0
LINE
  8
2
  6
CENTERLINE
 62
7
 10
1.3141539E+001
 20
1.8851369E+002
 11
1.5641539E+001
 21
1.8851369E+002
  0
LINE
  8
2
  6
CENTERLINE
 62
7
 10
9.9665389
 20
1.9168869E+002
 11
9.9665389
 21
1.9418869E+002
  0
LINE
  8
2
  6
CENTERLINE
 62
7
 10
6.7915389
 20
1.8851369E+002
 11
4.2915389
 21
1.8851369E+002
  0
LINE
  8
2
  6
CENTERLINE
 62
7
 10
9.9665389
 20
1.8533869E+002
 11
9.9665389
 21
1.8283869E+002
  0
ENDBLK
  0
BLOCK
  2
SE1
 10
0.0
 20
0.0
 70
0
  0
LINE
  8
2
  6
CENTERLINE
 62
7
 10
1.1554039E+001
 20
1.0851369E+002
 11
8.3790389
 21
1.0851369E+002
  0
LINE
  8
2
  6
CENTERLINE
 62
7
 10
9.9665389
 20
1.1010119E+002
 11
9.9665389
 21
1.0692619E+002
  0
LINE
  8
2
  6
CENTERLINE
 62
7
 10
1.3141539E+001
 20
1.0851369E+002
 11
1.5641539E+001
 21
1.0851369E+002
  0
LINE
  8
2
  6
CENTERLINE
 62
7
 10
9.9665389
 20
1.1168869E+002
 11
9.9665389
 21
1.1418869E+002
  0
LINE
  8
2
  6
CENTERLINE
 62
7
 10
6.7915389
 20
1.0851369E+002
 11
4.2915389
 21
1.0851369E+002
  0
LINE
  8
2
  6
CENTERLINE
 62
7
 10
9.9665389
 20
1.0533869E+002
 11
9.9665389
 21
1.0283869E+002
  0
ENDBLK
  0
BLOCK
  2
SE2
 10
0.0
 20
0.0
 70
0
  0
LINE
  8
2
  6
CENTERLINE
 62
7
 10
1.1554039E+001
 20
2.851369E+001
 11
8.3790389
 21
2.851369E+001
  0
LINE
  8
2
  6
CENTERLINE
 62
7
 10
9.9665389
 20
3.010119E+001
 11
9.9665389
 21
2.692619E+001
  0
LINE
  8
2
  6
CENTERLINE
 62
7
 10
1.3141539E+001
 20
2.851369E+001
 11
1.5641539E+001
 21
2.851369E+001
  0
LINE
  8
2
  6
CENTERLINE
 62
7
 10
9.9665389
 20
3.168869E+001
 11
9.9665389
 21
3.418869E+001
  0
LINE
  8
2
  6
CENTERLINE
 62
7
 10
6.7915389
 20
2.851369E+001
 11
4.2915389
 21
2.851369E+001
  0
LINE
  8
2
  6
CENTERLINE
 62
7
 10
9.9665389
 20
2.533869E+001
 11
9.9665389
 21
2.283869E+001
  0
ENDBLK
  0
BLOCK
  2
SE3
 10
0.0
 20
0.0
 70
0
  0
LINE
  8
2
  6
CENTERLINE
 62
7
 10
1.1554039E+001
 20
2.6851369E+002
 11
8.3790389
 21
2.6851369E+002
  0
LINE
  8
2
  6
CENTERLINE
 62
7
 10
9.9665389
 20
2.7010119E+002
 11
9.9665389
 21
2.6692619E+002
  0
LINE
  8
2
  6
CENTERLINE
 62
7
 10
1.3141539E+001
 20
2.6851369E+002
 11
1.5641539E+001
 21
2.6851369E+002
  0
LINE
  8
2
  6
CENTERLINE
 62
7
 10
9.9665389
 20
2.7168869E+002
 11
9.9665389
 21
2.7418869E+002
  0
LINE
  8
2
  6
CENTERLINE
 62
7
 10
6.7915389
 20
2.6851369E+002
 11
4.2915389
 21
2.6851369E+002
  0
LINE
  8
2
  6
CENTERLINE
 62
7
 10
9.9665389
 20
2.6533869E+002
 11
9.9665389
 21
2.6283869E+002
  0
ENDBLK
  0
BLOCK
  2
A3N
 10
0.0
 20
0.0
 70
0
  0
ATTDEF
  8
1
  6
CONTINUOUS
 62
5
 10
3.6549644E+002
 20
2.7E+001
 40
2.0
  1
FPEM123456P0001
 41
6.5E-001
 11
3.6549644E+002
 21
2.6E+001
  3
ANCIEN_ Plan
  2
ANCIEN_Plan
 70
0
 73
2
 74
2
  0
ATTDEF
  8
1
  6
CONTINUOUS
 62
5
 10
3.6549644E+002
 20
1.1E+001
 40
4.0
  1
FPEM470778P0001
 41
7.5E-001
 72
1
 11
3.5649644E+002
 21
9.0
  3
N°PLAN
  2
N°PLAN
 70
0
 73
2
 74
2
  0
ATTDEF
  8
1
  6
CONTINUOUS
 62
5
 10
3.6549644E+002
 20
2.3005401E+001
 40
2.0
  1
OEM-12345
 41
7.5E-001
 11
3.6549644E+002
 21
2.2005401E+001
  3
N°OEM
  2
N°OEM
 70
0
 73
2
 74
2
  0
ATTDEF
  8
1
  6
CONTINUOUS
 62
5
 10
2.929758E+002
 20
1.38E+001
 40
1.6
  1
PLAN D'ENSEMBLE
 41
9.0E-001
 72
1
 11
2.864958E+002
 21
1.3E+001
  3
TYPE_PLAN
  2
TYPE_PLAN
 70
0
 73
2
 74
2
  0
ATTDEF
  8
1
  6
CONTINUOUS
 62
5
 10
3.014958E+002
 20
1.025E+001
 40
2.5
  1
DWA, DYA9...16-30 sans relais
 41
7.5E-001
 72
1
 11
2.864958E+002
 21
9.0
  3
DESIGNATION_PLAN
  2
DESIGNATION_PLAN
 70
0
 73
2
 74
2
  0
ATTDEF
  8
1
  6
CONTINUOUS
 62
5
 10
3.898708E+002
 20
8.75
 40
2.5
  1
A
 41
7.5E-001
 72
1
 11
3.879958E+002
 21
7.5
  3
ID
  2
ID
 70
0
 73
2
 74
2
  0
ATTDEF
  8
1
  6
CONTINUOUS
 62
5
 10
3.5575484E+002
 20
1.6659209E+001
 40
2.75
  1
A4
 41
7.5E-001
 72
1
 11
3.5369234E+002
 21
1.5284209E+001
  3
A?
  2
A?
 70
0
 73
2
 74
2
  0
ATTDEF
  8
1
  6
CONTINUOUS
 62
5
 10
3.7155166E+002
 20
1.6659209E+001
 40
2.75
  1
1
 41
7.5E-001
 72
1
 11
3.6639541E+002
 21
1.5284209E+001
  3
Folio
  2
Folio
 70
0
 73
2
 74
2
  0
ATTDEF
  8
1
  6
CONTINUOUS
 62
5
 10
3.8530093E+002
 20
1.6659209E+001
 40
2.75
  1
1
 41
7.5E-001
 72
1
 11
3.7911343E+002
 21
1.5284209E+001
  3
Folios
  2
Folios
 70
0
 73
2
 74
2
  0
ATTDEF
  8
1
  6
CONTINUOUS
 62
5
 10
3.4833212E+002
 20
3.925E+001
 40
2.5
  1
 
 11
3.4833212E+002
 21
3.8E+001
  3
N°OE_Origine
  2
N°OE_Origine
 70
0
 73
2
 74
2
  0
ATTDEF
  8
1
  6
CONTINUOUS
 62
5
 10
3.4833212E+002
 20
3.5E+001
 40
2.0
  1
P.BLANCHET le 01.01.04
 41
7.5E-001
 11
3.4833212E+002
 21
3.4E+001
  3
CONTROLEUR_Origine
  2
CONTROLEUR_Origine
 70
0
 73
2
 74
2
  0
ATTDEF
  8
1
  6
CONTINUOUS
 62
5
 10
3.4833212E+002
 20
3.1E+001
 40
2.0
  1
C.ECOCHARD le 01.01.04
 41
7.5E-001
 11
3.4833212E+002
 21
3.0E+001
  3
DESSINATEUR_Origine
  2
DESSINATEUR_Origine
 70
0
 73
2
 74
2
  0
ATTDEF
  8
1
  6
CONTINUOUS
 62
5
 10
2.2580669E+002
 20
2.725E+001
 40
2.5
  1
A
 41
7.5E-001
 72
1
 11
2.2299419E+002
 21
2.6E+001
  3
ID1
  2
ID1
 70
0
 73
2
 74
2
  0
ATTDEF
  8
1
  6
CONTINUOUS
 62
5
 10
2.2580669E+002
 20
3.125E+001
 40
2.5
  1
 
 41
7.5E-001
 72
1
 11
2.2299419E+002
 21
3.0E+001
  3
ID2
  2
ID2
 70
0
 73
2
 74
2
  0
ATTDEF
  8
1
  6
CONTINUOUS
 62
5
 10
2.2580669E+002
 20
3.525E+001
 40
2.5
  1
 
 41
7.5E-001
 72
1
 11
2.2299419E+002
 21
3.4E+001
  3
ID3
  2
ID3
 70
0
 73
2
 74
2
  0
ATTDEF
  8
1
  6
CONTINUOUS
 62
5
 10
2.2580669E+002
 20
3.925E+001
 40
2.5
  1
 
 41
7.5E-001
 72
1
 11
2.2299419E+002
 21
3.8E+001
  3
ID4
  2
ID4
 70
0
 73
2
 74
2
  0
ATTDEF
  8
1
  6
CONTINUOUS
 62
5
 10
3.4424644E+002
 20
2.1551214E+001
 40
6.0
  1
1:4
 41
7.5E-001
 72
1
 11
3.3749644E+002
 21
1.8551214E+001
  3
Ech
  2
Ech
 70
0
 73
2
 74
2
  0
POLYLINE
  8
1
  6
CONTINUOUS
 62
7
 66
1
 40
5.0E-001
 41
5.0E-001
 70
0
  0
VERTEX
  8
1
 42
0.0
 10
1.0E+001
 20
2.72E+002
 70
0
  0
VERTEX
  8
1
 42
0.0
 10
1.0E+001
 20
4.0E+001
 70
0
  0
SEQEND
  0
POLYLINE
  8
1
  6
CONTINUOUS
 62
7
 66
1
 40
5.0E-001
 41
5.0E-001
 70
0
  0
VERTEX
  8
1
 42
0.0
 10
1.0E+001
 20
4.0E+001
 70
0
  0
VERTEX
  8
1
 42
0.0
 10
1.0065101E+001
 20
5.0
 70
0
  0
SEQEND
  0
POLYLINE
  8
1
  6
CONTINUOUS
 62
7
 66
1
 40
5.0E-001
 41
5.0E-001
 70
0
  0
VERTEX
  8
1
 42
0.0
 10
1.0065101E+001
 20
5.0
 70
0
  0
VERTEX
  8
1
 42
0.0
 10
3.9049515E+002
 20
5.0
 70
0
  0
SEQEND
  0
POLYLINE
  8
1
  6
CONTINUOUS
 62
7
 66
1
 40
5.0E-001
 41
5.0E-001
 70
0
  0
VERTEX
  8
1
 42
0.0
 10
3.9049515E+002
 20
1.0E+001
 70
0
  0
VERTEX
  8
1
 42
0.0
 10
3.9049515E+002
 20
5.0
 70
0
  0
SEQEND
  0
TEXT
  8
1
  6
CONTINUOUS
 62
7
 10
3.5670343E+002
 20
1.7697775E+001
 40
1.5
  1
Format
 41
6.5E-001
 72
1
 11
3.5377843E+002
 21
1.7697775E+001
  0
TEXT
  8
1
  6
CONTINUOUS
 62
7
 10
3.7175835E+002
 20
1.7697775E+001
 40
1.5
  1
Feuille n%%d
 41
6.5E-001
 72
1
 11
3.6688335E+002
 21
1.7697775E+001
  0
TEXT
  8
1
  6
CONTINUOUS
 62
7
 10
3.8447593E+002
 20
1.7697775E+001
 40
1.5
  1
Nb Feuilles
 41
6.5E-001
 72
1
 11
3.7911343E+002
 21
1.7697775E+001
  0
LINE
  8
1
  6
CONTINUOUS
 62
1
 10
0.0
 20
4.0E+001
 11
0.0
 21
4.1E+001
  0
TEXT
  8
1
  6
CONTINUOUS
 62
7
 10
3.6049644E+002
 20
2.3005401E+001
 40
2.0
  1
PROJET
 41
7.5E-001
 72
1
 11
3.5599644E+002
 21
2.2005401E+001
 73
2
  0
TEXT
  8
1
  6
CONTINUOUS
 62
7
 10
8.75
 20
6.0087564E+001
 40
1.25
  1
autorisation écrite.
 41
7.5E-001
 50
9.0E+001
 11
8.75
 21
5.9462564E+001
 73
2
  0
TEXT
  8
1
  6
CONTINUOUS
 62
7
 10
3.6399644E+002
 20
2.7E+001
 40
2.0
  1
Issu de/Remplace
 41
5.0E-001
 72
1
 11
3.5599644E+002
 21
2.6E+001
 73
2
  0
TEXT
  8
1
  6
CONTINUOUS
 62
7
 10
3.4668394E+002
 20
3.8875E+001
 40
1.75
  1
ORDRE EXECUTION
 41
7.0E-001
 72
1
 11
3.3749644E+002
 21
3.8E+001
 73
2
  0
TEXT
  8
1
  6
CONTINUOUS
 62
7
 10
3.4484644E+002
 20
3.4875E+001
 40
1.75
  1
CONTROLE PAR
 41
7.0E-001
 72
1
 11
3.3749644E+002
 21
3.4E+001
 73
2
  0
TEXT
  8
1
  6
CONTINUOUS
 62
7
 10
3.4423394E+002
 20
3.0875E+001
 40
1.75
  1
REALISE PAR
 41
7.0E-001
 72
1
 11
3.3749644E+002
 21
3.0E+001
 73
2
  0
LINE
  8
2
  6
CONTINUOUS
 62
7
 10
9.5000647E+001
 20
2.72E+002
 11
9.5000647E+001
 21
2.77E+002
  0
LINE
  8
2
  6
CONTINUOUS
 62
7
 10
4.7500323E+001
 20
2.72E+002
 11
4.7500323E+001
 21
2.77E+002
  0
LINE
  8
2
  6
CONTINUOUS
 62
7
 10
1.4250097E+002
 20
2.72E+002
 11
1.4250097E+002
 21
2.77E+002
  0
TEXT
  8
2
  6
CONTINUOUS
 62
7
 10
7.0162765E+001
 20
2.7829144E+002
 40
2.5
  1
H
 11
7.0162765E+001
 21
2.7579144E+002
 73
3
  0
TEXT
  8
2
  6
CONTINUOUS
 62
7
 10
2.2581586E+001
 20
2.7829144E+002
 40
2.5
  1
I
 11
2.2581586E+001
 21
2.7579144E+002
 73
3
  0
TEXT
  8
2
  6
CONTINUOUS
 62
7
 10
1.1758442E+002
 20
2.7829144E+002
 40
2.5
  1
G
 11
1.1758442E+002
 21
2.7579144E+002
 73
3
  0
TEXT
  8
2
  6
CONTINUOUS
 62
7
 10
1.6500049E+002
 20
2.7575E+002
 40
2.5
  1
F
 72
1
 11
1.6375049E+002
 21
2.745E+002
 73
2
  0
TEXT
  8
2
  6
CONTINUOUS
 62
7
 10
3.8679278E+002
 20
2.4625255E+002
 40
2.5
  1
4
 11
3.8679278E+002
 21
2.4375255E+002
 73
3
  0
LINE
  8
2
  6
CONTINUOUS
 62
7
 10
0.0
 20
2.77E+002
 11
0.0
 21
0.0
  0
LINE
  8
2
  6
CONTINUOUS
 62
7
 10
3.9049515E+002
 20
2.77E+002
 11
0.0
 21
2.77E+002
  0
LINE
  8
2
  6
CONTINUOUS
 62
7
 10
3.7273041E+002
 20
1.3E+001
 11
3.7273041E+002
 21
2.0010803E+001
  0
LINE
  8
2
  6
CONTINUOUS
 62
7
 10
3.6006041E+002
 20
1.3E+001
 11
3.6006041E+002
 21
2.0010803E+001
  0
POLYLINE
  8
1
  6
CONTINUOUS
 62
7
 66
1
 40
5.0E-001
 41
5.0E-001
 70
0
  0
VERTEX
  8
1
 42
0.0
 10
3.9049644E+002
 20
1.0E+001
 70
0
  0
VERTEX
  8
1
 42
0.0
 10
3.8549644E+002
 20
1.0E+001
 70
0
  0
SEQEND
  0
TEXT
  8
2
  6
CONTINUOUS
 62
7
 10
2.2483169E+002
 20
2.2875E+001
 40
1.75
  1
IND
 41
7.0E-001
 72
1
 11
2.2299419E+002
 21
2.2E+001
 73
2
  0
TEXT
  8
2
  6
CONTINUOUS
 62
7
 10
2.2644467E+002
 20
3.1E+001
 40
2.0
  1
Modifications
 41
6.5E-001
 50
9.0E+001
 72
1
 11
2.1799467E+002
 21
3.0E+001
 73
2
  0
LINE
  8
2
  6
CONTINUOUS
 62
7
 10
3.6449644E+002
 20
2.0010803E+001
 11
3.6449644E+002
 21
2.8E+001
  0
LINE
  8
2
  6
CONTINUOUS
 62
7
 10
3.8549644E+002
 20
2.0010803E+001
 11
3.4749644E+002
 21
2.0010803E+001
  0
LINE
  8
2
  6
CONTINUOUS
 62
7
 10
3.4749644E+002
 20
2.4E+001
 11
3.8549644E+002
 21
2.4E+001
  0
LINE
  8
2
  6
CONTINUOUS
 62
7
 10
3.4749644E+002
 20
1.3E+001
 11
3.4749644E+002
 21
4.0E+001
  0
POLYLINE
  8
1
  6
CONTINUOUS
 62
7
 66
1
 40
5.0E-001
 41
5.0E-001
 70
0
  0
VERTEX
  8
1
 42
0.0
 10
3.2749644E+002
 20
1.3E+001
 70
0
  0
VERTEX
  8
1
 42
0.0
 10
3.8549644E+002
 20
1.3E+001
 70
0
  0
SEQEND
  0
LINE
  8
2
  6
CONTINUOUS
 62
7
 10
2.4549515E+002
 20
1.6000915E+001
 11
3.2749644E+002
 21
1.6000915E+001
  0
LINE
  8
2
  6
CONTINUOUS
 62
7
 10
2.2549419E+002
 20
4.0E+001
 11
2.2549419E+002
 21
2.0E+001
  0
LINE
  8
2
  6
CONTINUOUS
 62
7
 10
2.2049419E+002
 20
4.0E+001
 11
2.2049419E+002
 21
2.0E+001
  0
LINE
  8
2
  6
CONTINUOUS
 62
7
 10
2.8749644E+002
 20
4.0E+001
 11
2.8749644E+002
 21
2.0E+001
  0
LINE
  8
2
  6
CONTINUOUS
 62
7
 10
3.8549644E+002
 20
3.2E+001
 11
2.2049419E+002
 21
3.2E+001
  0
LINE
  8
2
  6
CONTINUOUS
 62
7
 10
3.8549644E+002
 20
3.6E+001
 11
2.2049419E+002
 21
3.6E+001
  0
LINE
  8
2
  6
CONTINUOUS
 62
7
 10
2.2049419E+002
 20
2.8E+001
 11
3.8549644E+002
 21
2.8E+001
  0
LINE
  8
2
  6
CONTINUOUS
 62
7
 10
3.2749644E+002
 20
2.4E+001
 11
2.2049419E+002
 21
2.4E+001
  0
POLYLINE
  8
1
  6
CONTINUOUS
 62
7
 66
1
 40
5.0E-001
 41
5.0E-001
 70
0
  0
VERTEX
  8
1
 42
0.0
 10
3.2749644E+002
 20
5.0
 70
0
  0
VERTEX
  8
1
 42
0.0
 10
3.2749644E+002
 20
4.0E+001
 70
0
  0
SEQEND
  0
LINE
  8
2
  6
CONTINUOUS
 62
7
 10
3.2749644E+002
 20
2.0E+001
 11
2.1549515E+002
 21
2.0E+001
  0
LINE
  8
2
  6
CONTINUOUS
 62
7
 10
2.4549515E+002
 20
5.0
 11
2.4549515E+002
 21
2.0E+001
  0
POLYLINE
  8
1
  6
CONTINUOUS
 62
7
 66
1
 40
5.0E-001
 41
5.0E-001
 70
0
  0
VERTEX
  8
1
 42
0.0
 10
3.8549644E+002
 20
4.0E+001
 70
0
  0
VERTEX
  8
1
 42
0.0
 10
2.1549515E+002
 20
4.0E+001
 70
0
  0
SEQEND
  0
CIRCLE
  8
2
  6
CONTINUOUS
 62
7
 10
-6.124541
 20
1.8151881E+002
 40
2.5
  0
INSERT
  2
SE0
  8
2
 10
-1.609108E+001
 20
-6.9948784
  0
CIRCLE
  8
2
  6
CONTINUOUS
 62
7
 10
-6.124541
 20
1.0151881E+002
 40
2.5
  0
INSERT
  2
SE1
  8
2
 10
-1.609108E+001
 20
-6.9948784
  0
CIRCLE
  8
2
  6
CONTINUOUS
 62
7
 10
-6.124541
 20
2.1518811E+001
 40
2.5
  0
INSERT
  2
SE2
  8
2
 10
-1.609108E+001
 20
-6.9948784
  0
CIRCLE
  8
2
  6
CONTINUOUS
 62
7
 10
-6.124541
 20
2.6151881E+002
 40
2.5
  0
INSERT
  2
SE3
  8
2
 10
-1.609108E+001
 20
-6.9948784
  0
LINE
  8
2
  6
CONTINUOUS
 62
7
 10
0.0
 20
0.0
 11
3.9049515E+002
 21
0.0
  0
LINE
  8
2
  6
CONTINUOUS
 62
7
 10
-8.9879611
 20
1.3551881E+002
 11
-2.8976631
 21
1.3551881E+002
  0
LINE
  8
2
  6
CONTINUOUS
 62
7
 10
1.0E+001
 20
2.72E+002
 11
1.0E+001
 21
5.0
  0
POLYLINE
  8
1
  6
CONTINUOUS
 62
7
 66
1
 40
5.0E-001
 41
5.0E-001
 70
0
  0
VERTEX
  8
1
 42
0.0
 10
1.0E+001
 20
2.72E+002
 70
0
  0
VERTEX
  8
1
 42
0.0
 10
3.8549644E+002
 20
2.72E+002
 70
0
  0
SEQEND
  0
TEXT
  8
2
  6
CONTINUOUS
 62
7
 10
1.25
 20
6.7
 40
1.4
  1
We reserve all rights in this document and in the
 41
7.5E-001
 50
9.0E+001
 11
1.25
 21
6.0
 73
2
  0
TEXT
  8
2
  6
CONTINUOUS
 62
7
 10
3.75
 20
6.7
 40
1.4
  1
information contained therein. Reproduction, use
 41
7.5E-001
 50
9.0E+001
 11
3.75
 21
6.0
 73
2
  0
TEXT
  8
2
  6
CONTINUOUS
 62
7
 10
6.25
 20
6.7
 40
1.4
  1
or disclosure to third parties without express
 41
7.5E-001
 50
9.0E+001
 11
6.25
 21
6.0
 73
2
  0
TEXT
  8
2
  6
CONTINUOUS
 62
7
 10
8.75
 20
6.7
 40
1.4
  1
autority is strictly forbidden
 41
7.5E-001
 50
9.0E+001
 11
8.75
 21
6.0
 73
2
  0
TEXT
  8
2
  6
CONTINUOUS
 62
7
 10
1.25
 20
6.0162564E+001
 40
1.4
  1
Ce document, propriété exclusive de notre
 41
7.5E-001
 50
9.0E+001
 11
1.25
 21
5.9462564E+001
 73
2
  0
TEXT
  8
2
  6
CONTINUOUS
 62
7
 10
3.75
 20
6.0162564E+001
 40
1.4
  1
société, est strictement confidentiel. Il ne peut
 41
7.5E-001
 50
9.0E+001
 11
3.75
 21
5.9462564E+001
 73
2
  0
TEXT
  8
2
  6
CONTINUOUS
 62
7
 10
6.25
 20
6.0162564E+001
 40
1.4
  1
être communiqué, copié ou reproduit sans son
 41
7.5E-001
 50
9.0E+001
 11
6.25
 21
5.9462564E+001
 73
2
  0
LINE
  8
2
  6
CONTINUOUS
 62
7
 10
1.0E+001
 20
5.0
 11
0.0
 21
5.0
  0
LINE
  8
2
  6
CONTINUOUS
 62
7
 10
3.0749644E+002
 20
2.0E+001
 11
3.0749644E+002
 21
4.0E+001
  0
LINE
  8
2
  6
CONTINUOUS
 62
7
 10
2.9749644E+002
 20
1.6000915E+001
 11
2.9749644E+002
 21
4.0E+001
  0
LINE
  8
2
  6
CONTINUOUS
 62
7
 10
3.1449644E+002
 20
2.0E+001
 11
3.1449644E+002
 21
4.0E+001
  0
TEXT
  8
1
  6
CONTINUOUS
 62
7
 10
2.2649419E+002
 20
2.2875E+001
 40
1.75
  1
DESCRIPTION
 41
7.0E-001
 11
2.2649419E+002
 21
2.2E+001
 73
2
  0
TEXT
  8
1
  6
CONTINUOUS
 62
7
 10
2.9494644E+002
 20
2.2875E+001
 40
1.75
  1
DATE
 41
7.0E-001
 72
1
 11
2.9249644E+002
 21
2.2E+001
 73
2
  0
TEXT
  8
1
  6
CONTINUOUS
 62
7
 10
3.0494644E+002
 20
2.2875E+001
 40
1.75
  1
N°OE
 41
7.0E-001
 72
1
 11
3.0249644E+002
 21
2.2E+001
 73
2
  0
TEXT
  8
1
  6
CONTINUOUS
 62
7
 10
3.1362144E+002
 20
2.2875E+001
 40
1.75
  1
Auteur
 41
5.0E-001
 72
1
 11
3.1099644E+002
 21
2.2E+001
 73
2
  0
TEXT
  8
1
  6
CONTINUOUS
 62
7
 10
3.2554644E+002
 20
2.2875E+001
 40
1.75
  1
Controlé
 41
6.5E-001
 72
1
 11
3.2099644E+002
 21
2.2E+001
 73
2
  0
TEXT
  8
1
  6
CONTINUOUS
 62
7
 10
3.2689644E+002
 20
1.9000457E+001
 40
2.0
  1
Service responsable: OEM
 41
6.0E-001
 72
1
 11
3.1249644E+002
 21
1.8000457E+001
 73
2
  0
TEXT
  8
1
  6
CONTINUOUS
 62
7
 10
2.4649515E+002
 20
1.9250457E+001
 40
2.5
  1
ABB Entrelec
 41
7.5E-001
 11
2.4649515E+002
 21
1.8000457E+001
 73
2
  0
TEXT
  8
1
  6
CONTINUOUS
 62
7
 10
2.4649515E+002
 20
1.4686428E+001
 40
1.5
  1
Titre
 11
2.4649515E+002
 21
1.3936428E+001
 73
2
  0
TEXT
  8
1
  6
CONTINUOUS
 62
7
 10
3.4143394E+002
 20
2.675E+001
 40
1.5
  1
ECHELLE
 41
7.5E-001
 72
1
 11
3.3749644E+002
 21
2.6E+001
 73
2
  0
TEXT
  8
2
  6
CONTINUOUS
 62
7
 10
3.8710271E+002
 20
3.8454406E+001
 40
2.5
  1
1
 41
6.65E-001
 11
3.8710271E+002
 21
3.5954406E+001
 73
3
  0
TEXT
  8
2
  6
CONTINUOUS
 62
7
 10
3.8676438E+002
 20
1.0780311E+002
 40
2.5
  1
2
 11
3.8676438E+002
 21
1.0530311E+002
 73
3
  0
TEXT
  8
2
  6
CONTINUOUS
 62
7
 10
3.8687801E+002
 20
1.7698651E+002
 40
2.5
  1
3
 11
3.8687801E+002
 21
1.7448651E+002
 73
3
  0
LINE
  8
2
  6
CONTINUOUS
 62
7
 10
3.8549644E+002
 20
6.925E+001
 11
3.9049515E+002
 21
6.925E+001
  0
LINE
  8
2
  6
CONTINUOUS
 62
7
 10
3.8549644E+002
 20
2.0775E+002
 11
3.9049515E+002
 21
2.0775E+002
  0
LINE
  8
2
  6
CONTINUOUS
 62
7
 10
3.9049515E+002
 20
1.385E+002
 11
3.8549644E+002
 21
1.385E+002
  0
POLYLINE
  8
1
  6
CONTINUOUS
 62
7
 66
1
 40
5.0E-001
 41
5.0E-001
 70
0
  0
VERTEX
  8
1
 42
0.0
 10
3.8549644E+002
 20
5.0
 70
0
  0
VERTEX
  8
1
 42
0.0
 10
3.8549644E+002
 20
2.72E+002
 70
0
  0
SEQEND
  0
LINE
  8
1
  6
CONTINUOUS
 62
7
 10
2.2205175E+002
 20
1.25E+001
 11
2.2405715E+002
 21
1.25E+001
  0
LINE
  8
1
  6
CONTINUOUS
 62
7
 10
2.2205175E+002
 20
1.25E+001
 11
2.2324315E+002
 21
1.5904E+001
  0
LINE
  8
1
  6
CONTINUOUS
 62
7
 10
2.2324315E+002
 20
1.5904E+001
 11
2.2405715E+002
 21
1.5904E+001
  0
LINE
  8
1
  6
CONTINUOUS
 62
7
 10
2.2405715E+002
 20
1.25E+001
 11
2.2405715E+002
 21
1.5904E+001
  0
LINE
  8
1
  6
CONTINUOUS
 62
7
 10
2.2464915E+002
 20
1.25E+001
 11
2.2665455E+002
 21
1.25E+001
  0
LINE
  8
1
  6
CONTINUOUS
 62
7
 10
2.2546315E+002
 20
1.5904E+001
 11
2.2665455E+002
 21
1.25E+001
  0
LINE
  8
1
  6
CONTINUOUS
 62
7
 10
2.2464915E+002
 20
1.5904E+001
 11
2.2546315E+002
 21
1.5904E+001
  0
LINE
  8
1
  6
CONTINUOUS
 62
7
 10
2.2464915E+002
 20
1.25E+001
 11
2.2464915E+002
 21
1.5904E+001
  0
LINE
  8
1
  6
CONTINUOUS
 62
7
 10
2.2405715E+002
 20
9.984
 11
2.2405715E+002
 21
1.1908E+001
  0
LINE
  8
1
  6
CONTINUOUS
 62
7
 10
2.2302115E+002
 20
9.984
 11
2.2405715E+002
 21
9.984
  0
LINE
  8
1
  6
CONTINUOUS
 62
7
 10
2.2250315E+002
 20
8.504
 11
2.2302115E+002
 21
9.984
  0
LINE
  8
1
  6
CONTINUOUS
 62
7
 10
2.2065315E+002
 20
8.504
 11
2.2250315E+002
 21
8.504
  0
LINE
  8
1
  6
CONTINUOUS
 62
7
 10
2.2065315E+002
 20
8.504
 11
2.2184455E+002
 21
1.1908E+001
  0
LINE
  8
1
  6
CONTINUOUS
 62
7
 10
2.2184455E+002
 20
1.1908E+001
 11
2.2405715E+002
 21
1.1908E+001
  0
LINE
  8
1
  6
CONTINUOUS
 62
7
 10
2.2464915E+002
 20
1.1908E+001
 11
2.2686175E+002
 21
1.1908E+001
  0
LINE
  8
1
  6
CONTINUOUS
 62
7
 10
2.2686175E+002
 20
1.1908E+001
 11
2.2805315E+002
 21
8.504
  0
LINE
  8
1
  6
CONTINUOUS
 62
7
 10
2.2620315E+002
 20
8.504
 11
2.2805315E+002
 21
8.504
  0
LINE
  8
1
  6
CONTINUOUS
 62
7
 10
2.2620315E+002
 20
8.504
 11
2.2568515E+002
 21
9.984
  0
LINE
  8
1
  6
CONTINUOUS
 62
7
 10
2.2464915E+002
 20
9.984
 11
2.2568515E+002
 21
9.984
  0
LINE
  8
1
  6
CONTINUOUS
 62
7
 10
2.2464915E+002
 20
9.984
 11
2.2464915E+002
 21
1.1908E+001
  0
LINE
  8
1
  6
CONTINUOUS
 62
7
 10
2.2857115E+002
 20
1.25E+001
 11
2.3049515E+002
 21
1.25E+001
  0
LINE
  8
1
  6
CONTINUOUS
 62
7
 10
2.2857115E+002
 20
1.5904E+001
 11
2.2857115E+002
 21
1.25E+001
  0
LINE
  8
1
  6
CONTINUOUS
 62
7
 10
2.2857115E+002
 20
1.5904E+001
 11
2.3049515E+002
 21
1.5904E+001
  0
LINE
  8
1
  6
CONTINUOUS
 62
7
 10
2.3049515E+002
 20
1.5904E+001
 11
2.3049515E+002
 21
1.25E+001
  0
LINE
  8
1
  6
CONTINUOUS
 62
7
 10
2.3108715E+002
 20
1.25E+001
 11
2.3286315E+002
 21
1.25E+001
  0
ARC
  8
1
  6
CONTINUOUS
 62
7
 10
2.3153115E+002
 20
1.0724E+001
 40
2.22
 50
5.3130102E+001
 51
6.8407484E+001
  0
ARC
  8
1
  6
CONTINUOUS
 62
7
 10
2.3153115E+002
 20
1.4239E+001
 40
1.665
 50
2.9938468E+002
 51
4.5E+002
  0
LINE
  8
1
  6
CONTINUOUS
 62
7
 10
2.3108715E+002
 20
1.5904E+001
 11
2.3153115E+002
 21
1.5904E+001
  0
LINE
  8
1
  6
CONTINUOUS
 62
7
 10
2.3108715E+002
 20
1.5904E+001
 11
2.3108715E+002
 21
1.25E+001
  0
LINE
  8
1
  6
CONTINUOUS
 62
7
 10
2.3049515E+002
 20
1.1908E+001
 11
2.3049515E+002
 21
8.504
  0
LINE
  8
1
  6
CONTINUOUS
 62
7
 10
2.2857115E+002
 20
8.504
 11
2.3049515E+002
 21
8.504
  0
LINE
  8
1
  6
CONTINUOUS
 62
7
 10
2.2857115E+002
 20
1.1908E+001
 11
2.2857115E+002
 21
8.504
  0
LINE
  8
1
  6
CONTINUOUS
 62
7
 10
2.2857115E+002
 20
1.1908E+001
 11
2.3049515E+002
 21
1.1908E+001
  0
LINE
  8
1
  6
CONTINUOUS
 62
7
 10
2.3108715E+002
 20
1.1908E+001
 11
2.3340906E+002
 21
1.1908E+001
  0
ARC
  8
1
  6
CONTINUOUS
 62
7
 10
2.3153115E+002
 20
1.0724E+001
 40
2.22
 50
2.7E+002
 51
3.9223095E+002
  0
LINE
  8
1
  6
CONTINUOUS
 62
7
 10
2.3108715E+002
 20
8.504
 11
2.3153115E+002
 21
8.504
  0
LINE
  8
1
  6
CONTINUOUS
 62
7
 10
2.3108715E+002
 20
1.1908E+001
 11
2.3108715E+002
 21
8.504
  0
LINE
  8
1
  6
CONTINUOUS
 62
7
 10
2.3434315E+002
 20
1.25E+001
 11
2.3626715E+002
 21
1.25E+001
  0
LINE
  8
1
  6
CONTINUOUS
 62
7
 10
2.3434315E+002
 20
1.5904E+001
 11
2.3434315E+002
 21
1.25E+001
  0
LINE
  8
1
  6
CONTINUOUS
 62
7
 10
2.3434315E+002
 20
1.5904E+001
 11
2.3626715E+002
 21
1.5904E+001
  0
LINE
  8
1
  6
CONTINUOUS
 62
7
 10
2.3626715E+002
 20
1.5904E+001
 11
2.3626715E+002
 21
1.25E+001
  0
LINE
  8
1
  6
CONTINUOUS
 62
7
 10
2.3685915E+002
 20
1.5904E+001
 11
2.3685915E+002
 21
1.25E+001
  0
LINE
  8
1
  6
CONTINUOUS
 62
7
 10
2.3685915E+002
 20
1.5904E+001
 11
2.3730315E+002
 21
1.5904E+001
  0
ARC
  8
1
  6
CONTINUOUS
 62
7
 10
2.3730315E+002
 20
1.4239E+001
 40
1.665
 50
2.9938468E+002
 51
4.5E+002
  0
ARC
  8
1
  6
CONTINUOUS
 62
7
 10
2.3730315E+002
 20
1.0724E+001
 40
2.22
 50
5.3130102E+001
 51
6.8407484E+001
  0
LINE
  8
1
  6
CONTINUOUS
 62
7
 10
2.3685915E+002
 20
1.25E+001
 11
2.3863515E+002
 21
1.25E+001
  0
LINE
  8
1
  6
CONTINUOUS
 62
7
 10
2.3626715E+002
 20
1.1908E+001
 11
2.3626715E+002
 21
8.504
  0
LINE
  8
1
  6
CONTINUOUS
 62
7
 10
2.3434315E+002
 20
8.504
 11
2.3626715E+002
 21
8.504
  0
LINE
  8
1
  6
CONTINUOUS
 62
7
 10
2.3434315E+002
 20
1.1908E+001
 11
2.3434315E+002
 21
8.504
  0
LINE
  8
1
  6
CONTINUOUS
 62
7
 10
2.3434315E+002
 20
1.1908E+001
 11
2.3626715E+002
 21
1.1908E+001
  0
LINE
  8
1
  6
CONTINUOUS
 62
7
 10
2.3685915E+002
 20
1.1908E+001
 11
2.3918106E+002
 21
1.1908E+001
  0
ARC
  8
1
  6
CONTINUOUS
 62
7
 10
2.3730315E+002
 20
1.0724E+001
 40
2.22
 50
2.7E+002
 51
3.9223095E+002
  0
LINE
  8
1
  6
CONTINUOUS
 62
7
 10
2.3685915E+002
 20
8.504
 11
2.3730315E+002
 21
8.504
  0
LINE
  8
1
  6
CONTINUOUS
 62
7
 10
2.3685915E+002
 20
1.1908E+001
 11
2.3685915E+002
 21
8.504
  0
LINE
  8
1
  6
CONTINUOUS
 62
7
 10
1.0E+001
 20
5.8462564E+001
 11
0.0
 21
5.8462564E+001
  0
LINE
  8
1
  6
CONTINUOUS
 62
7
 10
0.0
 20
1.1192513E+002
 11
1.0E+001
 21
1.1192513E+002
  0
ATTDEF
  8
1
  6
CONTINUOUS
 62
5
 10
2.2649419E+002
 20
2.6875E+001
 40
1.75
  1
 
 41
7.5E-001
 11
2.2649419E+002
 21
2.6E+001
  3
DESC-1
  2
DESC-1
 70
0
 73
2
 74
2
  0
ATTDEF
  8
1
  6
CONTINUOUS
 62
5
 10
2.2649419E+002
 20
3.0875E+001
 40
1.75
  1
 
 41
7.5E-001
 11
2.2649419E+002
 21
3.0E+001
  3
DESC-2
  2
DESC-2
 70
0
 73
2
 74
2
  0
ATTDEF
  8
1
  6
CONTINUOUS
 62
5
 10
2.2649419E+002
 20
3.4875E+001
 40
1.75
  1
 
 41
7.5E-001
 11
2.2649419E+002
 21
3.4E+001
  3
DESC-3
  2
DESC-3
 70
0
 73
2
 74
2
  0
ATTDEF
  8
1
  6
CONTINUOUS
 62
5
 10
2.2649419E+002
 20
3.8875E+001
 40
1.75
  1
 
 41
7.5E-001
 11
2.2649419E+002
 21
3.8E+001
  3
DESC-4
  2
DESC-4
 70
0
 73
2
 74
2
  0
ATTDEF
  8
1
  6
CONTINUOUS
 62
5
 10
2.9519644E+002
 20
2.69E+001
 40
1.8
  1
01.01.04
 41
6.0E-001
 72
1
 11
2.9249644E+002
 21
2.6E+001
  3
DATE1
  2
DATE1
 70
0
 73
2
 74
2
  0
ATTDEF
  8
1
  6
CONTINUOUS
 62
5
 10
2.9519644E+002
 20
3.09E+001
 40
1.8
  1
 
 41
6.0E-001
 72
1
 11
2.9249644E+002
 21
3.0E+001
  3
DATE2
  2
DATE2
 70
0
 73
2
 74
2
  0
ATTDEF
  8
1
  6
CONTINUOUS
 62
5
 10
2.9519644E+002
 20
3.49E+001
 40
1.8
  1
 
 41
6.0E-001
 72
1
 11
2.9249644E+002
 21
3.4E+001
  3
DATE3
  2
DATE3
 70
0
 73
2
 74
2
  0
ATTDEF
  8
1
  6
CONTINUOUS
 62
5
 10
2.9519644E+002
 20
3.89E+001
 40
1.8
  1
 
 41
6.0E-001
 72
1
 11
2.9249644E+002
 21
3.8E+001
  3
DATE4
  2
DATE4
 70
0
 73
2
 74
2
  0
ATTDEF
  8
1
  6
CONTINUOUS
 62
5
 10
3.0452144E+002
 20
2.69E+001
 40
1.8
  1
12345
 41
7.5E-001
 72
1
 11
3.0249644E+002
 21
2.6E+001
  3
OE1
  2
OE1
 70
0
 73
2
 74
2
  0
ATTDEF
  8
1
  6
CONTINUOUS
 62
5
 10
3.0452144E+002
 20
3.09E+001
 40
1.8
  1
 
 41
7.5E-001
 72
1
 11
3.0249644E+002
 21
3.0E+001
  3
OE2
  2
OE2
 70
0
 73
2
 74
2
  0
ATTDEF
  8
1
  6
CONTINUOUS
 62
5
 10
3.0452144E+002
 20
3.49E+001
 40
1.8
  1
 
 41
7.5E-001
 72
1
 11
3.0249644E+002
 21
3.4E+001
  3
OE3
  2
OE3
 70
0
 73
2
 74
2
  0
ATTDEF
  8
1
  6
CONTINUOUS
 62
5
 10
3.0452144E+002
 20
3.89E+001
 40
1.8
  1
 
 41
7.5E-001
 72
1
 11
3.0249644E+002
 21
3.8E+001
  3
OE4
  2
OE4
 70
0
 73
2
 74
2
  0
ATTDEF
  8
1
  6
CONTINUOUS
 62
5
 10
3.1369644E+002
 20
2.69E+001
 40
1.8
  1
 
 41
7.5E-001
 72
1
 11
3.1099644E+002
 21
2.6E+001
  3
AUT1
  2
AUT1
 70
0
 73
2
 74
2
  0
ATTDEF
  8
1
  6
CONTINUOUS
 62
5
 10
3.1369644E+002
 20
3.09E+001
 40
1.8
  1
 
 41
7.5E-001
 72
1
 11
3.1099644E+002
 21
3.0E+001
  3
AUT2
  2
AUT2
 70
0
 73
2
 74
2
  0
ATTDEF
  8
1
  6
CONTINUOUS
 62
5
 10
3.1369644E+002
 20
3.49E+001
 40
1.8
  1
 
 41
7.5E-001
 72
1
 11
3.1099644E+002
 21
3.4E+001
  3
AUT3
  2
AUT3
 70
0
 73
2
 74
2
  0
ATTDEF
  8
1
  6
CONTINUOUS
 62
5
 10
3.1369644E+002
 20
3.89E+001
 40
1.8
  1
 
 41
7.5E-001
 72
1
 11
3.1099644E+002
 21
3.8E+001
  3
AUT4
  2
AUT4
 70
0
 73
2
 74
2
  0
ATTDEF
  8
1
  6
CONTINUOUS
 62
5
 10
3.1540529E+002
 20
2.69E+001
 40
1.8
  1
 
 41
7.5E-001
 11
3.1540529E+002
 21
2.6E+001
  3
CONT1
  2
CONT1
 70
0
 73
2
 74
2
  0
ATTDEF
  8
1
  6
CONTINUOUS
 62
5
 10
3.1540529E+002
 20
3.09E+001
 40
1.8
  1
 
 41
7.5E-001
 11
3.1540529E+002
 21
3.0E+001
  3
CONT2
  2
CONT2
 70
0
 73
2
 74
2
  0
ATTDEF
  8
1
  6
CONTINUOUS
 62
5
 10
3.1540529E+002
 20
3.49E+001
 40
1.8
  1
 
 41
7.5E-001
 11
3.1540529E+002
 21
3.4E+001
  3
CONT3
  2
CONT3
 70
0
 73
2
 74
2
  0
ATTDEF
  8
1
  6
CONTINUOUS
 62
5
 10
3.1540529E+002
 20
3.89E+001
 40
1.8
  1
 
 41
7.5E-001
 11
3.1540529E+002
 21
3.8E+001
  3
CONT4
  2
CONT4
 70
0
 73
2
 74
2
  0
LINE
  8
2
  6
CONTINUOUS
 62
7
 10
2.2749903E+002
 20
2.72E+002
 11
2.2749903E+002
 21
2.77E+002
  0
LINE
  8
1
  6
CONTINUOUS
 62
7
 10
1.85E+002
 20
2.77E+002
 11
1.85E+002
 21
2.72E+002
  0
LINE
  8
1
  6
CONTINUOUS
 62
7
 10
2.6999806E+002
 20
2.77E+002
 11
2.6999806E+002
 21
2.72E+002
  0
LINE
  8
1
  6
CONTINUOUS
 62
7
 10
3.5499612E+002
 20
2.77E+002
 11
3.5499612E+002
 21
2.72E+002
  0
LINE
  8
2
  6
CONTINUOUS
 62
7
 10
3.1249709E+002
 20
2.72E+002
 11
3.1249709E+002
 21
2.77E+002
  0
LINE
  8
2
  6
CONTINUOUS
 62
7
 10
3.9049515E+002
 20
0.0
 11
3.9049515E+002
 21
2.77E+002
  0
POLYLINE
  8
1
  6
CONTINUOUS
 62
7
 66
1
 40
5.0E-001
 41
5.0E-001
 70
0
  0
VERTEX
  8
1
 42
0.0
 10
2.1549515E+002
 20
4.0E+001
 70
0
  0
VERTEX
  8
1
 42
0.0
 10
2.1549515E+002
 20
5.0
 70
0
  0
SEQEND
  0
TEXT
  8
2
  6
CONTINUOUS
 62
7
 10
2.0983526E+002
 20
2.760248E+002
 40
2.5
  1
E
 72
1
 11
2.0858526E+002
 21
2.747748E+002
 73
2
  0
TEXT
  8
2
  6
CONTINUOUS
 62
7
 10
2.4999854E+002
 20
2.7575E+002
 40
2.5
  1
D
 72
1
 11
2.4874854E+002
 21
2.745E+002
 73
2
  0
TEXT
  8
2
  6
CONTINUOUS
 62
7
 10
2.9249757E+002
 20
2.7575E+002
 40
2.5
  1
C
 72
1
 11
2.9124757E+002
 21
2.745E+002
 73
2
  0
TEXT
  8
2
  6
CONTINUOUS
 62
7
 10
3.349966E+002
 20
2.7575E+002
 40
2.5
  1
B
 72
1
 11
3.337466E+002
 21
2.745E+002
 73
2
  0
TEXT
  8
2
  6
CONTINUOUS
 62
7
 10
3.7749563E+002
 20
2.7575E+002
 40
2.5
  1
A
 72
1
 11
3.7624563E+002
 21
2.745E+002
 73
2
  0
POINT
  8
Drafting_Hidden_Entities
  6
CONTINUOUS
 62
1
 10
0.0
 20
0.0
  0
ENDBLK
  0
BLOCK
  2
*TX416
  3
*TX
 10
0.0
 20
0.0
 70
65
  0
TEXT
  8
1
  6
CONTINUOUS
 62
1
 10
0.0
 20
0.0
 40
2.0
  1
A50/63/75
 41
7.5E-001
 50
9.0E+001
  0
TEXT
  8
1
  6
CONTINUOUS
 62
1
 10
3.0
 20
0.0
 40
2.0
  1
A95/110
 41
7.5E-001
 50
9.0E+001
  0
ENDBLK
  0
BLOCK
  2
*TX417
  3
*TX
 10
0.0
 20
0.0
 70
65
  0
TEXT
  8
1
  6
CONTINUOUS
 62
1
 10
0.0
 20
0.0
 40
3.0
  1
Mounting Star-Delta-Main
 41
7.5E-001
 51
1.5E+001
  0
TEXT
  8
1
  6
CONTINUOUS
 62
1
 10
0.0
 20
-4.5
 40
3.0
  1
Protection by Thermal Overload Relay   
 41
7.5E-001
 51
1.5E+001
  0
ENDBLK
  0
BLOCK
  2
*TX418
  3
*TX
 10
0.0
 20
0.0
 70
65
  0
TEXT
  8
1
  6
CONTINUOUS
 62
7
 10
0.0
 20
0.0
 40
2.25
  1
Magnetic coil for remote reset
 41
7.5E-001
  0
TEXT
  8
1
  6
CONTINUOUS
 62
7
 10
0.0
 20
-3.375
 40
2.25
  1
Fernrückstellspule
 41
7.5E-001
  0
TEXT
  8
1
  6
CONTINUOUS
 62
7
 10
0.0
 20
-6.75
 40
2.25
  1
Bobine pour réarmement à distance
 41
7.5E-001
  0
ENDBLK
  0
BLOCK
  2
*TX419
  3
*TX
 10
0.0
 20
0.0
 70
65
  0
TEXT
  8
1
  6
CONTINUOUS
 62
7
 10
0.0
 20
0.0
 40
2.25
  1
Magnetic coil for remote tripping
 41
7.5E-001
  0
TEXT
  8
1
  6
CONTINUOUS
 62
7
 10
0.0
 20
-3.375
 40
2.25
  1
Fernauslösespule
 41
7.5E-001
  0
TEXT
  8
1
  6
CONTINUOUS
 62
7
 10
0.0
 20
-6.75
 40
2.25
  1
Bobine pour déclenchement à distance
 41
7.5E-001
  0
ENDBLK
  0
BLOCK
  2
*TX420
  3
*TX
 10
0.0
 20
0.0
 70
65
  0
TEXT
  8
1
  6
CONTINUOUS
 62
7
 10
0.0
 20
0.0
 40
2.25
  1
Under voltage
 41
7.5E-001
  0
TEXT
  8
1
  6
CONTINUOUS
 62
7
 10
0.0
 20
-3.375
 40
2.25
  1
Unter Spannung
 41
7.5E-001
  0
TEXT
  8
1
  6
CONTINUOUS
 62
7
 10
0.0
 20
-6.75
 40
2.25
  1
Mise sous tension
 41
7.5E-001
  0
ENDBLK
  0
BLOCK
  2
*TX421
  3
*TX
 10
0.0
 20
0.0
 70
65
  0
TEXT
  8
1
  6
CONTINUOUS
 62
7
 10
0.0
 20
0.0
 40
2.25
  1
Tripping of relay
 41
7.5E-001
  0
TEXT
  8
1
  6
CONTINUOUS
 62
7
 10
0.0
 20
-3.375
 40
2.25
  1
Relais ausgelöst
 41
7.5E-001
  0
TEXT
  8
1
  6
CONTINUOUS
 62
7
 10
0.0
 20
-6.75
 40
2.25
  1
Déclenchement relais
 41
7.5E-001
  0
ENDBLK
  0
BLOCK
  2
*TX422
  3
*TX
 10
0.0
 20
0.0
 70
65
  0
TEXT
  8
1
  6
CONTINUOUS
 62
7
 10
0.0
 20
0.0
 40
2.25
  1
Only for starters A9...30
 41
7.5E-001
  0
TEXT
  8
1
  6
CONTINUOUS
 62
7
 10
0.0
 20
-3.375
 40
2.25
  1
Nur für A9...30 Starters
 41
7.5E-001
  0
TEXT
  8
1
  6
CONTINUOUS
 62
7
 10
0.0
 20
-6.75
 40
2.25
  1
Uniquement pour démarreurs A9...30
 41
7.5E-001
  0
ENDBLK
  0
BLOCK
  2
*TX423
  3
*TX
 10
0.0
 20
0.0
 70
65
  0
TEXT
  8
1
  6
CONTINUOUS
 62
7
 10
0.0
 20
0.0
 40
2.0
  1
KM3:5/L3
 41
7.5E-001
  0
TEXT
  8
1
  6
CONTINUOUS
 62
7
 10
0.0
 20
-3.0
 40
2.0
  1
Us
 41
7.5E-001
  0
ENDBLK
  0
BLOCK
  2
*TX424
  3
*TX
 10
0.0
 20
0.0
 70
65
  0
TEXT
  8
1
  6
CONTINUOUS
 62
7
 10
0.0
 20
0.0
 40
2.0
  1
Us
 41
7.5E-001
  0
TEXT
  8
1
  6
CONTINUOUS
 62
7
 10
0.0
 20
-3.0
 40
2.0
  1
N
 41
7.5E-001
  0
TEXT
  8
1
  6
CONTINUOUS
 62
7
 10
0.0
 20
-6.0
 40
2.0
  1
KM3:3/L2
 41
7.5E-001
  0
ENDBLK
  0
BLOCK
  2
*TX425
  3
*TX
 10
0.0
 20
0.0
 70
65
  0
TEXT
  8
1
  6
CONTINUOUS
 62
7
 10
0.0
 20
0.0
 40
2.25
  1
Remote control
 41
7.5E-001
  0
TEXT
  8
1
  6
CONTINUOUS
 62
7
 10
0.0
 20
-3.375
 40
2.25
  1
Fernbetätigung
 41
7.5E-001
  0
TEXT
  8
1
  6
CONTINUOUS
 62
7
 10
0.0
 20
-6.75
 40
2.25
  1
Commande à distance
 41
7.5E-001
  0
ENDBLK
  0
BLOCK
  2
*TX426
  3
*TX
 10
0.0
 20
0.0
 70
65
  0
TEXT
  8
1
  6
CONTINUOUS
 62
7
 10
0.0
 20
0.0
 40
2.0
  1
KM3:5/L3
 41
7.5E-001
  0
TEXT
  8
1
  6
CONTINUOUS
 62
7
 10
0.0
 20
-3.0
 40
2.0
  1
Us
 41
7.5E-001
  0
ENDBLK
  0
BLOCK
  2
*TX427
  3
*TX
 10
0.0
 20
0.0
 70
65
  0
TEXT
  8
1
  6
CONTINUOUS
 62
7
 10
0.0
 20
0.0
 40
2.0
  1
Us
 41
7.5E-001
  0
TEXT
  8
1
  6
CONTINUOUS
 62
7
 10
0.0
 20
-3.0
 40
2.0
  1
N
 41
7.5E-001
  0
TEXT
  8
1
  6
CONTINUOUS
 62
7
 10
0.0
 20
-6.0
 40
2.0
  1
KM3:3/L2
 41
7.5E-001
  0
ENDBLK
  0
BLOCK
  2
*TX428
  3
*TX
 10
0.0
 20
0.0
 70
65
  0
TEXT
  8
1
  6
CONTINUOUS
 62
7
 10
0.0
 20
0.0
 40
2.25
  1
Local control
 41
7.5E-001
  0
TEXT
  8
1
  6
CONTINUOUS
 62
7
 10
0.0
 20
-3.375
 40
2.25
  1
betätigung innerhalb
 41
7.5E-001
  0
TEXT
  8
1
  6
CONTINUOUS
 62
7
 10
0.0
 20
-6.75
 40
2.25
  1
Commande locale
 41
7.5E-001
  0
ENDBLK
  0
BLOCK
  2
*TX429
  3
*TX
 10
0.0
 20
0.0
 70
65
  0
TEXT
  8
1
  6
CONTINUOUS
 62
7
 10
0.0
 20
0.0
 40
2.0
  1
KM3:5/L3
 41
7.5E-001
  0
TEXT
  8
1
  6
CONTINUOUS
 62
7
 10
0.0
 20
-3.0
 40
2.0
  1
Us
 41
7.5E-001
  0
ENDBLK
  0
BLOCK
  2
_AH1
 70
0
 10
0.0
 20
0.0
  3
_AH1
  0
LINE
  8
0
  6
CONTINUOUS
 62
0
 10
-1.0
 20
1.66667E-001
 11
0.0
 21
0.0
  0
LINE
  8
0
  6
CONTINUOUS
 62
0
 10
0.0
 20
0.0
 11
-1.0
 21
-1.66667E-001
  0
LINE
  8
0
  6
CONTINUOUS
 62
0
 10
-1.0
 20
1.66667E-001
 11
-1.0
 21
-1.66667E-001
  0
LINE
  8
0
  6
CONTINUOUS
 62
0
 10
0.0
 20
0.0
 11
-1.0
 21
0.0
  0
ENDBLK
  0
BLOCK
  2
_AH2
 70
0
 10
0.0
 20
0.0
  3
_AH2
  0
LINE
  8
0
  6
CONTINUOUS
 62
0
 10
-1.0
 20
1.66667E-001
 11
0.0
 21
0.0
  0
LINE
  8
0
  6
CONTINUOUS
 62
0
 10
0.0
 20
0.0
 11
-1.0
 21
-1.66667E-001
  0
LINE
  8
0
  6
CONTINUOUS
 62
0
 10
0.0
 20
0.0
 11
-1.0
 21
0.0
  0
ENDBLK
  0
ENDSEC
  0
SECTION
  2
ENTITIES
  0
LINE
  8
1
  6
CONTINUOUS
 62
7
 10
1.245E+002
 20
9.4044578E+001
 11
1.265E+002
 21
9.4044578E+001
  0
LINE
  8
1
  6
CONTINUOUS
 62
7
 10
1.245E+002
 20
8.9044578E+001
 11
1.255E+002
 21
9.5044578E+001
  0
LINE
  8
1
  6
CONTINUOUS
 62
7
 10
1.475E+002
 20
9.4044578E+001
 11
1.495E+002
 21
9.4044578E+001
  0
LINE
  8
1
  6
CONTINUOUS
 62
7
 10
1.475E+002
 20
8.9044578E+001
 11
1.485E+002
 21
9.5044578E+001
  0
LINE
  8
1
  6
CONTINUOUS
 62
7
 10
1.475E+002
 20
8.9044578E+001
 11
1.475E+002
 21
8.0E+001
  0
LINE
  8
1
  6
CONTINUOUS
 62
7
 10
1.245E+002
 20
8.9044578E+001
 11
1.245E+002
 21
8.0E+001
  0
LINE
  8
1
  6
CONTINUOUS
 62
7
 10
1.655E+002
 20
8.9E+001
 11
1.635E+002
 21
9.4E+001
  0
LINE
  8
1
  6
CONTINUOUS
 62
7
 10
1.73E+002
 20
8.9E+001
 11
1.71E+002
 21
9.4E+001
  0
LINE
  8
1
  6
CONTINUOUS
 62
7
 10
1.73E+002
 20
8.9E+001
 11
1.73E+002
 21
8.548785E+001
  0
LINE
  8
1
  6
CONTINUOUS
 62
7
 10
1.655E+002
 20
8.548785E+001
 11
1.655E+002
 21
8.9E+001
  0
LINE
  8
1
  6
CONTINUOUS
 62
7
 10
1.655E+002
 20
8.548785E+001
 11
1.73E+002
 21
8.548785E+001
  0
LINE
  8
1
  6
CONTINUOUS
 62
7
 10
1.115E+002
 20
1.3548785E+002
 11
1.18E+002
 21
1.3548785E+002
  0
TEXT
  8
1
  6
CONTINUOUS
 62
7
 10
1.1425E+002
 20
2.32E+002
 40
2.0
  1
21
 41
7.5E-001
 50
9.0E+001
  0
ARC
  8
1
  6
CONTINUOUS
 62
7
 10
1.05E+002
 20
2.3173785E+002
 40
1.25
 50
9.0E+001
 51
2.7E+002
  0
ARC
  8
1
  6
CONTINUOUS
 62
7
 10
1.0E+002
 20
2.3175E+002
 40
1.25
 50
9.0E+001
 51
2.7E+002
  0
ARC
  8
1
  6
CONTINUOUS
 62
7
 10
9.5E+001
 20
2.3175E+002
 40
1.25
 50
9.0E+001
 51
2.7E+002
  0
ARC
  8
1
  6
CONTINUOUS
 62
7
 10
1.49E+002
 20
2.3175E+002
 40
1.25
 50
9.0E+001
 51
2.7E+002
  0
ARC
  8
1
  6
CONTINUOUS
 62
7
 10
1.54E+002
 20
2.3175E+002
 40
1.25
 50
9.0E+001
 51
2.7E+002
  0
ARC
  8
1
  6
CONTINUOUS
 62
7
 10
1.59E+002
 20
2.3175E+002
 40
1.25
 50
9.0E+001
 51
2.7E+002
  0
TEXT
  8
1
  6
CONTINUOUS
 62
7
 10
1.1425E+002
 20
2.21E+002
 40
2.0
  1
22
 41
7.5E-001
 50
9.0E+001
  0
TEXT
  8
1
  6
CONTINUOUS
 62
7
 10
1.6325E+002
 20
2.32E+002
 40
2.0
  1
21
 41
7.5E-001
 50
9.0E+001
  0
ARC
  8
1
  6
CONTINUOUS
 62
7
 10
2.09E+002
 20
2.3175E+002
 40
1.25
 50
9.0E+001
 51
2.7E+002
  0
TEXT
  8
1
  6
CONTINUOUS
 62
7
 10
1.6325E+002
 20
2.21E+002
 40
2.0
  1
22
 41
7.5E-001
 50
9.0E+001
  0
TEXT
  8
1
  6
CONTINUOUS
 62
7
 10
2.2325E+002
 20
2.315E+002
 40
2.0
  1
13
 41
7.5E-001
 50
9.0E+001
  0
TEXT
  8
1
  6
CONTINUOUS
 62
7
 10
2.2325E+002
 20
2.21E+002
 40
2.0
  1
14
 41
7.5E-001
 50
9.0E+001
  0
INSERT
  2
*TX417
  8
1
 10
7.3E+001
 20
2.67E+002
  0
TEXT
  8
1
  6
CONTINUOUS
 62
7
 10
2.1906524E+002
 20
1.2598787E+002
 40
2.0
  1
I
 41
7.5E-001
  0
LINE
  8
1
  6
CONTINUOUS
 62
7
 10
2.2286524E+002
 20
1.2898787E+002
 11
2.2136524E+002
 21
1.2898787E+002
  0
LINE
  8
1
  6
CONTINUOUS
 62
7
 10
2.2136524E+002
 20
1.2898787E+002
 11
2.2136524E+002
 21
1.2498787E+002
  0
LINE
  8
1
  6
CONTINUOUS
 62
7
 10
2.2286524E+002
 20
1.2498787E+002
 11
2.2136524E+002
 21
1.2498787E+002
  0
LINE
  8
1
  6
HIDDEN
 62
7
 10
2.2636524E+002
 20
1.2698787E+002
 11
2.2136524E+002
 21
1.2698787E+002
  0
LINE
  8
1
  6
SHORT_DASH
 62
7
 10
2.44E+002
 20
1.3548785E+002
 11
2.2736524E+002
 21
1.3548785E+002
  0
LINE
  8
1
  6
SHORT_DASH
 62
7
 10
2.44E+002
 20
1.2048785E+002
 11
2.2736524E+002
 21
1.2048785E+002
  0
LINE
  8
1
  6
CONTINUOUS
 62
7
 10
2.2736524E+002
 20
1.2448787E+002
 11
2.2536524E+002
 21
1.2948787E+002
  0
LINE
  8
1
  6
CONTINUOUS
 62
7
 10
2.2736524E+002
 20
1.3548785E+002
 11
2.2736524E+002
 21
1.2948787E+002
  0
LINE
  8
1
  6
CONTINUOUS
 62
7
 10
2.2736524E+002
 20
1.2048785E+002
 11
2.2736524E+002
 21
1.2448787E+002
  0
ARC
  8
1
  6
CONTINUOUS
 62
7
 10
2.14E+002
 20
2.3175E+002
 40
1.25
 50
9.0E+001
 51
2.7E+002
  0
LINE
  8
1
  6
CONTINUOUS
 62
7
 10
1.585E+002
 20
9.948785E+001
 11
1.635E+002
 21
9.948785E+001
  0
LINE
  8
1
  6
CONTINUOUS
 62
7
 10
1.635E+002
 20
1.0248785E+002
 11
1.635E+002
 21
9.948785E+001
  0
LINE
  8
1
  6
CONTINUOUS
 62
7
 10
1.635E+002
 20
1.0448785E+002
 11
1.635E+002
 21
1.0348785E+002
  0
LINE
  8
1
  6
CONTINUOUS
 62
7
 10
1.635E+002
 20
1.1048785E+002
 11
1.635E+002
 21
1.0548785E+002
  0
LINE
  8
1
  6
CONTINUOUS
 62
7
 10
1.635E+002
 20
1.1248785E+002
 11
1.635E+002
 21
1.1148785E+002
  0
LINE
  8
1
  6
CONTINUOUS
 62
7
 10
1.635E+002
 20
1.1648785E+002
 11
1.635E+002
 21
1.1348785E+002
  0
LINE
  8
1
  6
CONTINUOUS
 62
7
 10
1.615E+002
 20
1.1648785E+002
 11
1.635E+002
 21
1.1648785E+002
  0
LINE
  8
1
  6
CONTINUOUS
 62
7
 10
1.595E+002
 20
1.1648785E+002
 11
1.605E+002
 21
1.1648785E+002
  0
LINE
  8
1
  6
CONTINUOUS
 62
7
 10
1.535E+002
 20
1.1648785E+002
 11
1.585E+002
 21
1.1648785E+002
  0
LINE
  8
1
  6
CONTINUOUS
 62
7
 10
1.515E+002
 20
1.1648785E+002
 11
1.525E+002
 21
1.1648785E+002
  0
LINE
  8
1
  6
CONTINUOUS
 62
7
 10
1.455E+002
 20
1.1648785E+002
 11
1.505E+002
 21
1.1648785E+002
  0
LINE
  8
1
  6
CONTINUOUS
 62
7
 10
1.435E+002
 20
1.1648785E+002
 11
1.445E+002
 21
1.1648785E+002
  0
LINE
  8
1
  6
CONTINUOUS
 62
7
 10
1.375E+002
 20
1.1648785E+002
 11
1.425E+002
 21
1.1648785E+002
  0
LINE
  8
1
  6
CONTINUOUS
 62
7
 10
1.305E+002
 20
1.1648785E+002
 11
1.355E+002
 21
1.1648785E+002
  0
LINE
  8
1
  6
CONTINUOUS
 62
7
 10
1.285E+002
 20
1.1648785E+002
 11
1.295E+002
 21
1.1648785E+002
  0
LINE
  8
1
  6
CONTINUOUS
 62
7
 10
1.225E+002
 20
1.1648785E+002
 11
1.275E+002
 21
1.1648785E+002
  0
LINE
  8
1
  6
CONTINUOUS
 62
7
 10
1.205E+002
 20
1.1648785E+002
 11
1.215E+002
 21
1.1648785E+002
  0
LINE
  8
1
  6
CONTINUOUS
 62
7
 10
1.205E+002
 20
1.1648785E+002
 11
1.205E+002
 21
1.1248785E+002
  0
LINE
  8
1
  6
CONTINUOUS
 62
7
 10
1.205E+002
 20
1.1048785E+002
 11
1.205E+002
 21
1.1148785E+002
  0
LINE
  8
1
  6
CONTINUOUS
 62
7
 10
1.205E+002
 20
1.0448785E+002
 11
1.205E+002
 21
1.0948785E+002
  0
LINE
  8
1
  6
CONTINUOUS
 62
7
 10
1.205E+002
 20
1.0248785E+002
 11
1.205E+002
 21
1.0348785E+002
  0
LINE
  8
1
  6
CONTINUOUS
 62
7
 10
1.205E+002
 20
1.0148785E+002
 11
1.205E+002
 21
9.948785E+001
  0
LINE
  8
1
  6
CONTINUOUS
 62
7
 10
1.235E+002
 20
9.948785E+001
 11
1.205E+002
 21
9.948785E+001
  0
LINE
  8
1
  6
CONTINUOUS
 62
7
 10
1.255E+002
 20
9.948785E+001
 11
1.305E+002
 21
9.948785E+001
  0
LINE
  8
1
  6
CONTINUOUS
 62
7
 10
1.325E+002
 20
9.948785E+001
 11
1.315E+002
 21
9.948785E+001
  0
LINE
  8
1
  6
CONTINUOUS
 62
7
 10
1.385E+002
 20
9.948785E+001
 11
1.335E+002
 21
9.948785E+001
  0
LINE
  8
1
  6
CONTINUOUS
 62
7
 10
1.405E+002
 20
9.948785E+001
 11
1.395E+002
 21
9.948785E+001
  0
LINE
  8
1
  6
CONTINUOUS
 62
7
 10
1.465E+002
 20
9.948785E+001
 11
1.415E+002
 21
9.948785E+001
  0
LINE
  8
1
  6
CONTINUOUS
 62
7
 10
1.495E+002
 20
9.948785E+001
 11
1.485E+002
 21
9.948785E+001
  0
LINE
  8
1
  6
CONTINUOUS
 62
7
 10
1.555E+002
 20
9.948785E+001
 11
1.505E+002
 21
9.948785E+001
  0
LINE
  8
1
  6
CONTINUOUS
 62
7
 10
1.575E+002
 20
9.948785E+001
 11
1.565E+002
 21
9.948785E+001
  0
LINE
  8
1
  6
CONTINUOUS
 62
7
 10
2.325E+002
 20
2.365E+002
 11
2.325E+002
 21
2.325E+002
  0
LINE
  8
1
  6
CONTINUOUS
 62
7
 10
2.325E+002
 20
2.305E+002
 11
2.325E+002
 21
2.315E+002
  0
LINE
  8
1
  6
CONTINUOUS
 62
7
 10
2.325E+002
 20
2.245E+002
 11
2.325E+002
 21
2.295E+002
  0
LINE
  8
1
  6
CONTINUOUS
 62
7
 10
2.29E+002
 20
2.225E+002
 11
2.29E+002
 21
2.235E+002
  0
LINE
  8
1
  6
CONTINUOUS
 62
7
 10
2.29E+002
 20
2.215E+002
 11
2.29E+002
 21
2.195E+002
  0
LINE
  8
1
  6
CONTINUOUS
 62
7
 10
2.355E+002
 20
2.195E+002
 11
2.325E+002
 21
2.195E+002
  0
LINE
  8
1
  6
CONTINUOUS
 62
7
 10
2.375E+002
 20
2.195E+002
 11
2.425E+002
 21
2.195E+002
  0
LINE
  8
1
  6
CONTINUOUS
 62
7
 10
2.445E+002
 20
2.195E+002
 11
2.435E+002
 21
2.195E+002
  0
LINE
  8
1
  6
CONTINUOUS
 62
7
 10
2.505E+002
 20
2.195E+002
 11
2.455E+002
 21
2.195E+002
  0
LINE
  8
1
  6
CONTINUOUS
 62
7
 10
2.585E+002
 20
2.195E+002
 11
2.535E+002
 21
2.195E+002
  0
LINE
  8
1
  6
CONTINUOUS
 62
7
 10
2.525E+002
 20
2.195E+002
 11
2.515E+002
 21
2.195E+002
  0
LINE
  8
1
  6
CONTINUOUS
 62
7
 10
2.615E+002
 20
2.195E+002
 11
2.605E+002
 21
2.195E+002
  0
LINE
  8
1
  6
CONTINUOUS
 62
7
 10
2.675E+002
 20
2.195E+002
 11
2.625E+002
 21
2.195E+002
  0
LINE
  8
1
  6
CONTINUOUS
 62
7
 10
2.705E+002
 20
2.195E+002
 11
2.755E+002
 21
2.195E+002
  0
LINE
  8
1
  6
CONTINUOUS
 62
7
 10
2.755E+002
 20
2.225E+002
 11
2.755E+002
 21
2.195E+002
  0
LINE
  8
1
  6
CONTINUOUS
 62
7
 10
2.695E+002
 20
2.195E+002
 11
2.685E+002
 21
2.195E+002
  0
LINE
  8
1
  6
CONTINUOUS
 62
7
 10
2.755E+002
 20
2.245E+002
 11
2.755E+002
 21
2.235E+002
  0
LINE
  8
1
  6
CONTINUOUS
 62
7
 10
2.755E+002
 20
2.305E+002
 11
2.755E+002
 21
2.255E+002
  0
LINE
  8
1
  6
CONTINUOUS
 62
7
 10
2.755E+002
 20
2.325E+002
 11
2.755E+002
 21
2.315E+002
  0
LINE
  8
1
  6
CONTINUOUS
 62
7
 10
2.755E+002
 20
2.365E+002
 11
2.755E+002
 21
2.335E+002
  0
LINE
  8
1
  6
CONTINUOUS
 62
7
 10
2.735E+002
 20
2.365E+002
 11
2.755E+002
 21
2.365E+002
  0
LINE
  8
1
  6
CONTINUOUS
 62
7
 10
2.715E+002
 20
2.365E+002
 11
2.725E+002
 21
2.365E+002
  0
LINE
  8
1
  6
CONTINUOUS
 62
7
 10
2.655E+002
 20
2.365E+002
 11
2.705E+002
 21
2.365E+002
  0
LINE
  8
1
  6
CONTINUOUS
 62
7
 10
2.635E+002
 20
2.365E+002
 11
2.645E+002
 21
2.365E+002
  0
LINE
  8
1
  6
CONTINUOUS
 62
7
 10
2.575E+002
 20
2.365E+002
 11
2.625E+002
 21
2.365E+002
  0
LINE
  8
1
  6
CONTINUOUS
 62
7
 10
2.555E+002
 20
2.365E+002
 11
2.565E+002
 21
2.365E+002
  0
LINE
  8
1
  6
CONTINUOUS
 62
7
 10
2.495E+002
 20
2.365E+002
 11
2.545E+002
 21
2.365E+002
  0
LINE
  8
1
  6
CONTINUOUS
 62
7
 10
2.425E+002
 20
2.365E+002
 11
2.475E+002
 21
2.365E+002
  0
LINE
  8
1
  6
CONTINUOUS
 62
7
 10
2.405E+002
 20
2.365E+002
 11
2.415E+002
 21
2.365E+002
  0
LINE
  8
1
  6
CONTINUOUS
 62
7
 10
2.345E+002
 20
2.365E+002
 11
2.395E+002
 21
2.365E+002
  0
LINE
  8
1
  6
CONTINUOUS
 62
7
 10
2.325E+002
 20
2.365E+002
 11
2.335E+002
 21
2.365E+002
  0
LINE
  8
1
  6
CONTINUOUS
 62
7
 10
7.35E+001
 20
1.4846783E+002
 11
7.95E+001
 21
1.4846783E+002
  0
LINE
  8
1
  6
CONTINUOUS
 62
7
 10
7.35E+001
 20
1.4846783E+002
 11
7.35E+001
 21
1.4756506E+002
  0
LINE
  8
1
  6
CONTINUOUS
 62
7
 10
7.35E+001
 20
1.2346783E+002
 11
7.95E+001
 21
1.2346783E+002
  0
TEXT
  8
1
  6
CONTINUOUS
 62
7
 10
1.6475E+002
 20
9.5E+001
 40
2.0
  1
13
 41
7.5E-001
 50
9.0E+001
  0
TEXT
  8
1
  6
CONTINUOUS
 62
7
 10
1.6475E+002
 20
8.6E+001
 40
2.0
  1
14
 41
7.5E-001
 50
9.0E+001
  0
TEXT
  8
1
  6
CONTINUOUS
 62
7
 10
1.7225E+002
 20
9.5E+001
 40
2.0
  1
13
 41
7.5E-001
 50
9.0E+001
  0
TEXT
  8
1
  6
CONTINUOUS
 62
7
 10
1.7225E+002
 20
8.6E+001
 40
2.0
  1
14
 41
7.5E-001
 50
9.0E+001
  0
ARC
  8
1
  6
CONTINUOUS
 62
7
 10
2.19E+002
 20
2.3175E+002
 40
1.25
 50
9.0E+001
 51
2.7E+002
  0
TEXT
  8
1
  6
CONTINUOUS
 62
7
 10
1.2375E+002
 20
6.8881385E+001
 40
2.0
  1
Y
 41
7.5E-001
  0
TEXT
  8
1
  6
CONTINUOUS
 62
7
 10
1.155E+002
 20
7.7631385E+001
 40
2.0
  1
KM2
 41
7.5E-001
  0
TEXT
  8
1
  6
CONTINUOUS
 62
7
 10
1.385E+002
 20
7.7631385E+001
 40
2.0
  1
KM3
 41
7.5E-001
  0
TEXT
  8
1
  6
CONTINUOUS
 62
7
 10
1.64E+002
 20
7.7631385E+001
 40
2.0
  1
KM1
 41
7.5E-001
  0
LINE
  8
1
  6
CONTINUOUS
 62
7
 10
2.29E+002
 20
2.305E+002
 11
2.29E+002
 21
2.355E+002
  0
TEXT
  8
1
  6
CONTINUOUS
 62
7
 10
1.7225E+002
 20
6.8881385E+001
 40
2.0
  1
L
 41
7.5E-001
  0
TEXT
  8
1
  6
CONTINUOUS
 62
7
 10
1.59E+002
 20
9.0631385E+001
 40
2.0
  1
KM2
 41
7.5E-001
  0
TEXT
  8
1
  6
CONTINUOUS
 62
7
 10
1.665E+002
 20
9.0631385E+001
 40
2.0
  1
KM1
 41
7.5E-001
  0
TEXT
  8
1
  6
CONTINUOUS
 62
7
 10
1.19E+002
 20
9.0675963E+001
 40
2.0
  1
KM3
 41
7.5E-001
  0
TEXT
  8
1
  6
CONTINUOUS
 62
7
 10
1.42E+002
 20
9.0675963E+001
 40
2.0
  1
KM2
 41
7.5E-001
  0
TEXT
  8
1
  6
CONTINUOUS
 62
7
 10
1.4675E+002
 20
9.5044578E+001
 40
2.0
  1
21
 41
7.5E-001
 50
9.0E+001
  0
TEXT
  8
1
  6
CONTINUOUS
 62
7
 10
1.4675E+002
 20
8.6044578E+001
 40
2.0
  1
22
 41
7.5E-001
 50
9.0E+001
  0
TEXT
  8
1
  6
CONTINUOUS
 62
7
 10
1.2375E+002
 20
9.5044578E+001
 40
2.0
  1
21
 41
7.5E-001
 50
9.0E+001
  0
TEXT
  8
1
  6
CONTINUOUS
 62
7
 10
1.2375E+002
 20
8.6044578E+001
 40
2.0
  1
22
 41
7.5E-001
 50
9.0E+001
  0
LINE
  8
1
  6
CONTINUOUS
 62
7
 10
1.07E+002
 20
1.4496783E+002
 11
1.055E+002
 21
1.4496783E+002
  0
TEXT
  8
1
  6
CONTINUOUS
 62
7
 10
1.032E+002
 20
1.4196783E+002
 40
2.0
  1
O
 41
7.5E-001
  0
LINE
  8
1
  6
CONTINUOUS
 62
7
 10
1.055E+002
 20
1.4496783E+002
 11
1.055E+002
 21
1.4096783E+002
  0
LINE
  8
1
  6
HIDDEN
 62
7
 10
1.12E+002
 20
1.4296783E+002
 11
1.055E+002
 21
1.4296783E+002
  0
LINE
  8
1
  6
CONTINUOUS
 62
7
 10
1.07E+002
 20
1.4096783E+002
 11
1.055E+002
 21
1.4096783E+002
  0
TEXT
  8
1
  6
CONTINUOUS
 62
7
 10
2.2825E+002
 20
2.315E+002
 40
2.0
  1
23
 41
7.5E-001
 50
9.0E+001
  0
LINE
  8
1
  6
CONTINUOUS
 62
7
 10
1.115E+002
 20
1.4046783E+002
 11
1.125E+002
 21
1.4646783E+002
  0
LINE
  8
1
  6
CONTINUOUS
 62
7
 10
1.115E+002
 20
1.4546783E+002
 11
1.135E+002
 21
1.4546783E+002
  0
LINE
  8
1
  6
CONTINUOUS
 62
7
 10
1.115E+002
 20
1.2546783E+002
 11
1.095E+002
 21
1.3046783E+002
  0
LINE
  8
1
  6
CONTINUOUS
 62
7
 10
1.115E+002
 20
1.5048785E+002
 11
1.115E+002
 21
1.4546783E+002
  0
LINE
  8
1
  6
CONTINUOUS
 62
7
 10
1.115E+002
 20
1.4046783E+002
 11
1.115E+002
 21
1.3046783E+002
  0
LINE
  8
1
  6
CONTINUOUS
 62
7
 10
1.115E+002
 20
1.2048785E+002
 11
1.115E+002
 21
1.2546783E+002
  0
TEXT
  8
1
  6
CONTINUOUS
 62
7
 10
2.2825E+002
 20
2.21E+002
 40
2.0
  1
24
 41
7.5E-001
 50
9.0E+001
  0
LINE
  8
1
  6
CONTINUOUS
 62
7
 10
8.05E+001
 20
1.4848785E+002
 11
8.15E+001
 21
1.4848785E+002
  0
LINE
  8
1
  6
CENTERLINE
 62
7
 10
7.3E+001
 20
2.55E+002
 11
7.3E+001
 21
1.92E+002
  0
LINE
  8
1
  6
CONTINUOUS
 62
7
 10
1.07E+002
 20
1.2996783E+002
 11
1.055E+002
 21
1.2996783E+002
  0
TEXT
  8
1
  6
CONTINUOUS
 62
7
 10
7.4E+001
 20
2.72E+002
 40
4.0
  1
STAR-DELTA STARTER / STERN-DREIECK-ANLASSER / DEMARREUR ETOILE-TRIANGLE
 41
7.5E-001
  0
TEXT
  8
1
  6
CONTINUOUS
 62
7
 10
1.032E+002
 20
1.2696783E+002
 40
2.0
  1
I
 41
7.5E-001
  0
LINE
  8
1
  6
CONTINUOUS
 62
7
 10
1.055E+002
 20
1.2996783E+002
 11
1.055E+002
 21
1.2596783E+002
  0
LINE
  8
1
  6
CENTERLINE
 62
7
 10
7.3E+001
 20
2.55E+002
 11
2.79E+002
 21
2.55E+002
  0
LINE
  8
1
  6
CENTERLINE
 62
7
 10
7.3E+001
 20
1.92E+002
 11
2.79E+002
 21
1.92E+002
  0
LINE
  8
1
  6
CENTERLINE
 62
7
 10
2.79E+002
 20
2.55E+002
 11
2.79E+002
 21
1.92E+002
  0
TEXT
  8
1
  6
CONTINUOUS
 62
7
 10
2.87E+002
 20
2.525E+002
 40
2.25
  1
Adjunction/Zusatz/Adjonction
 41
7.5E-001
  0
LINE
  8
1
  6
CONTINUOUS
 62
7
 10
1.07E+002
 20
1.2596783E+002
 11
1.055E+002
 21
1.2596783E+002
  0
LINE
  8
1
  6
HIDDEN
 62
7
 10
1.105E+002
 20
1.2796783E+002
 11
1.055E+002
 21
1.2796783E+002
  0
LINE
  8
1
  6
HIDDEN
 62
7
 10
1.110344E+002
 20
1.5748785E+002
 11
1.2209297E+002
 21
1.5748785E+002
  0
INSERT
  2
*TX418
  8
1
 10
2.93E+002
 20
2.475E+002
  0
TEXT
  8
1
  6
CONTINUOUS
 62
7
 10
2.8025E+002
 20
2.435E+002
 40
2.25
  1
(1) DR
 41
7.5E-001
  0
LINE
  8
1
  6
CONTINUOUS
 62
7
 10
2.29E+002
 20
2.255E+002
 11
2.27E+002
 21
2.305E+002
  0
LINE
  8
1
  6
CONTINUOUS
 62
7
 10
8.75E+001
 20
1.4748785E+002
 11
8.75E+001
 21
1.4848785E+002
  0
LINE
  8
1
  6
CONTINUOUS
 62
7
 10
8.25E+001
 20
1.4848785E+002
 11
8.75E+001
 21
1.4848785E+002
  0
INSERT
  2
*TX419
  8
1
 10
2.93E+002
 20
2.35E+002
  0
LINE
  8
1
  6
CONTINUOUS
 62
7
 10
2.29E+002
 20
2.255E+002
 11
2.29E+002
 21
2.205E+002
  0
TEXT
  8
1
  6
CONTINUOUS
 62
7
 10
2.93E+002
 20
2.225E+002
 40
2.25
  1
On/Ein/Marche
 41
7.5E-001
  0
TEXT
  8
1
  6
CONTINUOUS
 62
7
 10
2.93E+002
 20
2.18E+002
 40
2.25
  1
Off/Aus/Arrêt
 41
7.5E-001
  0
LINE
  8
1
  6
CONTINUOUS
 62
7
 10
7.35E+001
 20
1.4648785E+002
 11
7.35E+001
 21
1.4548785E+002
  0
LINE
  8
1
  6
CONTINUOUS
 62
7
 10
7.35E+001
 20
1.4448785E+002
 11
7.35E+001
 21
1.3948785E+002
  0
LINE
  8
1
  6
CONTINUOUS
 62
7
 10
1.37E+002
 20
1.5498785E+002
 11
1.38E+002
 21
1.6098785E+002
  0
INSERT
  2
*TX420
  8
1
 10
2.93E+002
 20
2.13E+002
  0
LINE
  8
1
  6
CONTINUOUS
 62
7
 10
1.37E+002
 20
1.5998785E+002
 11
1.39E+002
 21
1.5998785E+002
  0
LINE
  8
1
  6
CONTINUOUS
 62
7
 10
1.37E+002
 20
1.5998785E+002
 11
1.37E+002
 21
1.71E+002
  0
LINE
  8
1
  6
CONTINUOUS
 62
7
 10
7.35E+001
 20
1.3848785E+002
 11
7.35E+001
 21
1.3748785E+002
  0
INSERT
  2
*TX421
  8
1
 10
2.93E+002
 20
2.01E+002
  0
TEXT
  8
1
  6
CONTINUOUS
 62
7
 10
2.87E+002
 20
2.225E+002
 40
2.25
  1
H1
 41
7.5E-001
  0
TEXT
  8
1
  6
CONTINUOUS
 62
7
 10
2.87E+002
 20
2.18E+002
 40
2.25
  1
H2
 41
7.5E-001
  0
TEXT
  8
1
  6
CONTINUOUS
 62
7
 10
2.87E+002
 20
2.095E+002
 40
2.25
  1
H3
 41
7.5E-001
  0
TEXT
  8
1
  6
CONTINUOUS
 62
7
 10
2.87E+002
 20
1.98E+002
 40
2.25
  1
H9
 41
7.5E-001
  0
LINE
  8
1
  6
CONTINUOUS
 62
7
 10
1.37E+002
 20
1.5498785E+002
 11
1.37E+002
 21
1.5048785E+002
  0
LINE
  8
1
  6
CONTINUOUS
 62
7
 10
7.35E+001
 20
1.3148785E+002
 11
7.35E+001
 21
1.3648785E+002
  0
LINE
  8
1
  6
CONTINUOUS
 62
7
 10
1.2509297E+002
 20
1.5948785E+002
 11
1.2909297E+002
 21
1.5748785E+002
  0
LINE
  8
1
  6
CONTINUOUS
 62
7
 10
1.2509297E+002
 20
1.5948785E+002
 11
1.2509297E+002
 21
1.5748785E+002
  0
LINE
  8
1
  6
CONTINUOUS
 62
7
 10
1.2509297E+002
 20
1.5748785E+002
 11
1.2909297E+002
 21
1.5748785E+002
  0
LINE
  8
1
  6
CONTINUOUS
 62
7
 10
1.1209297E+002
 20
1.5948785E+002
 11
1.1609297E+002
 21
1.5748785E+002
  0
LINE
  8
1
  6
CONTINUOUS
 62
7
 10
1.1209297E+002
 20
1.5948785E+002
 11
1.1209297E+002
 21
1.5748785E+002
  0
LINE
  8
1
  6
CONTINUOUS
 62
7
 10
1.1209297E+002
 20
1.5748785E+002
 11
1.1609297E+002
 21
1.5748785E+002
  0
LINE
  8
1
  6
HIDDEN
 62
7
 10
1.2909297E+002
 20
1.5848785E+002
 11
1.2909297E+002
 21
1.6298785E+002
  0
LINE
  8
1
  6
HIDDEN
 62
7
 10
1.2909297E+002
 20
1.6298785E+002
 11
1.2109297E+002
 21
1.6298785E+002
  0
LINE
  8
1
  6
HIDDEN
 62
7
 10
1.3009297E+002
 20
1.5848785E+002
 11
1.3758333E+002
 21
1.5848785E+002
  0
LINE
  8
1
  6
HIDDEN
 62
7
 10
1.3009297E+002
 20
1.6398785E+002
 11
1.3009297E+002
 21
1.5848785E+002
  0
LINE
  8
1
  6
HIDDEN
 62
7
 10
1.2109297E+002
 20
1.6398785E+002
 11
1.3009297E+002
 21
1.6398785E+002
  0
LINE
  8
1
  6
CONTINUOUS
 62
7
 10
1.2109297E+002
 20
1.6548785E+002
 11
1.2109297E+002
 21
1.6148785E+002
  0
LINE
  8
1
  6
CONTINUOUS
 62
7
 10
1.2259297E+002
 20
1.6148785E+002
 11
1.2109297E+002
 21
1.6148785E+002
  0
LINE
  8
1
  6
CONTINUOUS
 62
7
 10
1.2259297E+002
 20
1.6548785E+002
 11
1.2109297E+002
 21
1.6548785E+002
  0
TEXT
  8
1
  6
CONTINUOUS
 62
7
 10
1.1709297E+002
 20
1.6348785E+002
 40
2.0
  1
O
 41
7.5E-001
  0
TEXT
  8
1
  6
CONTINUOUS
 62
7
 10
1.1879297E+002
 20
1.6148785E+002
 40
2.0
  1
R
 41
7.5E-001
  0
LINE
  8
1
  6
CONTINUOUS
 62
7
 10
1.1929297E+002
 20
1.6488785E+002
 11
1.1769297E+002
 21
1.6168785E+002
  0
LINE
  8
1
  6
HIDDEN
 62
7
 10
1.1609297E+002
 20
1.5848785E+002
 11
1.1609297E+002
 21
1.6298785E+002
  0
LINE
  8
1
  6
HIDDEN
 62
7
 10
1.1609297E+002
 20
1.6298785E+002
 11
1.0809297E+002
 21
1.6298785E+002
  0
LINE
  8
1
  6
CONTINUOUS
 62
7
 10
1.0959297E+002
 20
1.6148785E+002
 11
1.0809297E+002
 21
1.6148785E+002
  0
LINE
  8
1
  6
CONTINUOUS
 62
7
 10
1.0809297E+002
 20
1.6548785E+002
 11
1.0809297E+002
 21
1.6148785E+002
  0
LINE
  8
1
  6
CONTINUOUS
 62
7
 10
1.0959297E+002
 20
1.6548785E+002
 11
1.0809297E+002
 21
1.6548785E+002
  0
TEXT
  8
1
  6
CONTINUOUS
 62
7
 10
1.0579297E+002
 20
1.6148785E+002
 40
2.0
  1
R
 41
7.5E-001
  0
LINE
  8
1
  6
HIDDEN
 62
7
 10
1.2909297E+002
 20
1.5748785E+002
 11
1.4E+002
 21
1.5748785E+002
  0
LINE
  8
1
  6
CONTINUOUS
 62
7
 10
1.4E+002
 20
1.58E+002
 11
1.4E+002
 21
1.57E+002
  0
LINE
  8
1
  6
CONTINUOUS
 62
7
 10
1.4E+002
 20
1.58E+002
 11
1.42E+002
 21
1.58E+002
  0
LINE
  8
1
  6
CONTINUOUS
 62
7
 10
1.4E+002
 20
1.57E+002
 11
1.42E+002
 21
1.57E+002
  0
LINE
  8
1
  6
CONTINUOUS
 62
7
 10
1.42E+002
 20
1.57E+002
 11
1.42E+002
 21
1.56E+002
  0
LINE
  8
1
  6
CONTINUOUS
 62
7
 10
1.42E+002
 20
1.58E+002
 11
1.42E+002
 21
1.59E+002
  0
TEXT
  8
1
  6
CONTINUOUS
 62
7
 10
1.425E+002
 20
1.5663138E+002
 40
2.0
  1
FR1
 41
7.5E-001
  0
LINE
  8
1
  6
CONTINUOUS
 62
7
 10
7.35E+001
 20
1.3048785E+002
 11
7.35E+001
 21
1.2948785E+002
  0
LINE
  8
1
  6
CONTINUOUS
 62
7
 10
7.35E+001
 20
1.2848785E+002
 11
7.35E+001
 21
1.2338682E+002
  0
LINE
  8
1
  6
CONTINUOUS
 62
7
 10
1.115E+002
 20
1.5048785E+002
 11
1.18E+002
 21
1.5048785E+002
  0
LINE
  8
1
  6
CONTINUOUS
 62
7
 10
1.655E+002
 20
9.948785E+001
 11
1.73E+002
 21
9.948785E+001
  0
LINE
  8
1
  6
CONTINUOUS
 62
7
 10
8.75E+001
 20
1.2548785E+002
 11
8.75E+001
 21
1.2348785E+002
  0
LINE
  8
1
  6
SHORT_DASH
 62
7
 10
1.18E+002
 20
1.5048785E+002
 11
1.37E+002
 21
1.5048785E+002
  0
LINE
  8
1
  6
CONTINUOUS
 62
7
 10
1.73E+002
 20
9.948785E+001
 11
1.73E+002
 21
1.25E+002
  0
LINE
  8
1
  6
CONTINUOUS
 62
7
 10
8.25E+001
 20
1.2348785E+002
 11
8.75E+001
 21
1.2348785E+002
  0
LINE
  8
1
  6
CONTINUOUS
 62
7
 10
8.15E+001
 20
1.2348785E+002
 11
8.05E+001
 21
1.2348785E+002
  0
LINE
  8
1
  6
CONTINUOUS
 62
7
 10
8.75E+001
 20
1.4648785E+002
 11
8.75E+001
 21
1.4548785E+002
  0
LINE
  8
1
  6
CONTINUOUS
 62
7
 10
8.75E+001
 20
1.4448785E+002
 11
8.75E+001
 21
1.3948785E+002
  0
LINE
  8
1
  6
CONTINUOUS
 62
7
 10
8.75E+001
 20
1.3848785E+002
 11
8.75E+001
 21
1.3748785E+002
  0
LINE
  8
1
  6
CONTINUOUS
 62
7
 10
2.325E+002
 20
2.225E+002
 11
2.325E+002
 21
2.235E+002
  0
LINE
  8
1
  6
CONTINUOUS
 62
7
 10
2.325E+002
 20
2.195E+002
 11
2.325E+002
 21
2.215E+002
  0
LINE
  8
1
  6
CONTINUOUS
 62
7
 10
8.75E+001
 20
1.3648785E+002
 11
8.75E+001
 21
1.3148785E+002
  0
LINE
  8
1
  6
CONTINUOUS
 62
7
 10
8.75E+001
 20
1.3048785E+002
 11
8.75E+001
 21
1.2948785E+002
  0
LINE
  8
1
  6
CONTINUOUS
 62
7
 10
8.55E+001
 20
1.3146783E+002
 11
8.35E+001
 21
1.3646783E+002
  0
LINE
  8
1
  6
CONTINUOUS
 62
7
 10
8.75E+001
 20
1.2848785E+002
 11
8.75E+001
 21
1.2348785E+002
  0
LINE
  8
1
  6
CONTINUOUS
 62
7
 10
8.55E+001
 20
1.5048785E+002
 11
8.55E+001
 21
1.3614524E+002
  0
LINE
  8
1
  6
CONTINUOUS
 62
7
 10
8.55E+001
 20
1.2048785E+002
 11
8.55E+001
 21
1.3146783E+002
  0
LINE
  8
1
  6
CONTINUOUS
 62
7
 10
1.37E+002
 20
1.2048785E+002
 11
1.73E+002
 21
1.2048785E+002
  0
LINE
  8
1
  6
CONTINUOUS
 62
7
 10
7.85E+001
 20
1.3596783E+002
 11
7.85E+001
 21
1.3196783E+002
  0
LINE
  8
1
  6
CONTINUOUS
 62
7
 10
1.73E+002
 20
8.548785E+001
 11
1.73E+002
 21
8.0E+001
  0
LINE
  8
1
  6
SHORT_DASH
 62
7
 10
9.05E+001
 20
1.5048785E+002
 11
9.65E+001
 21
1.5048785E+002
  0
LINE
  8
1
  6
CONTINUOUS
 62
7
 10
8.55E+001
 20
1.5048785E+002
 11
9.05E+001
 21
1.5048785E+002
  0
LINE
  8
1
  6
CONTINUOUS
 62
7
 10
8.55E+001
 20
1.2048785E+002
 11
9.05E+001
 21
1.2048785E+002
  0
LINE
  8
1
  6
SHORT_DASH
 62
7
 10
9.05E+001
 20
1.2048785E+002
 11
9.65E+001
 21
1.2048785E+002
  0
LINE
  8
1
  6
HIDDEN
 62
7
 10
8.9E+001
 20
2.28E+002
 11
1.1541667E+002
 21
2.28E+002
  0
LINE
  8
1
  6
CONTINUOUS
 62
7
 10
7.6863913E+001
 20
1.3542783E+002
 11
7.5263913E+001
 21
1.3222783E+002
  0
LINE
  8
1
  6
CONTINUOUS
 62
7
 10
8.1E+001
 20
2.3E+002
 11
8.1E+001
 21
2.2611862E+002
  0
LINE
  8
1
  6
CONTINUOUS
 62
7
 10
8.9E+001
 20
2.3E+002
 11
8.9E+001
 21
2.2611862E+002
  0
LINE
  8
1
  6
CONTINUOUS
 62
7
 10
8.9E+001
 20
2.3E+002
 11
8.1E+001
 21
2.3E+002
  0
LINE
  8
1
  6
CONTINUOUS
 62
7
 10
8.9E+001
 20
2.2611862E+002
 11
8.1E+001
 21
2.2611862E+002
  0
LINE
  8
1
  6
CONTINUOUS
 62
7
 10
8.5E+001
 20
2.3E+002
 11
8.5E+001
 21
2.35E+002
  0
LINE
  8
1
  6
CONTINUOUS
 62
7
 10
8.5E+001
 20
2.2611862E+002
 11
8.5E+001
 21
2.21E+002
  0
TEXT
  8
1
  6
CONTINUOUS
 62
7
 10
7.6E+001
 20
2.27E+002
 40
2.0
  1
KM2
 41
7.5E-001
  0
TEXT
  8
1
  6
CONTINUOUS
 62
7
 10
8.425E+001
 20
2.31E+002
 40
2.0
  1
A1
 41
7.5E-001
 50
9.0E+001
  0
TEXT
  8
1
  6
CONTINUOUS
 62
7
 10
8.425E+001
 20
2.22E+002
 40
2.0
  1
A2
 41
7.5E-001
 50
9.0E+001
  0
LINE
  8
1
  6
CONTINUOUS
 62
7
 10
9.5E+001
 20
2.305E+002
 11
9.5E+001
 21
2.49E+002
  0
LINE
  8
1
  6
CONTINUOUS
 62
7
 10
9.5E+001
 20
2.255E+002
 11
9.5E+001
 21
2.08E+002
  0
TEXT
  8
1
  6
CONTINUOUS
 62
7
 10
7.4663913E+001
 20
1.3402783E+002
 40
2.0
  1
O
 41
7.5E-001
  0
TEXT
  8
1
  6
CONTINUOUS
 62
7
 10
7.6363913E+001
 20
1.3202783E+002
 40
2.0
  1
I
 41
7.5E-001
  0
LINE
  8
1
  6
CONTINUOUS
 62
7
 10
1.015E+002
 20
1.4846783E+002
 11
1.015E+002
 21
1.4756506E+002
  0
LINE
  8
1
  6
CONTINUOUS
 62
7
 10
1.0E+002
 20
2.305E+002
 11
1.0E+002
 21
2.49E+002
  0
LINE
  8
1
  6
CONTINUOUS
 62
7
 10
1.0E+002
 20
2.255E+002
 11
1.0E+002
 21
2.1E+002
  0
LINE
  8
1
  6
CONTINUOUS
 62
7
 10
1.015E+002
 20
1.4648785E+002
 11
1.015E+002
 21
1.4548785E+002
  0
LINE
  8
1
  6
CONTINUOUS
 62
7
 10
1.105E+002
 20
1.2348785E+002
 11
1.155E+002
 21
1.2348785E+002
  0
LINE
  8
1
  6
CONTINUOUS
 62
7
 10
1.05E+002
 20
2.3048785E+002
 11
1.05E+002
 21
2.49E+002
  0
LINE
  8
1
  6
CONTINUOUS
 62
7
 10
1.05E+002
 20
2.255E+002
 11
1.05E+002
 21
2.12E+002
  0
LINE
  8
1
  6
CONTINUOUS
 62
7
 10
1.015E+002
 20
1.4448785E+002
 11
1.015E+002
 21
1.3948785E+002
  0
LINE
  8
1
  6
CONTINUOUS
 62
7
 10
1.095E+002
 20
1.2348785E+002
 11
1.085E+002
 21
1.2348785E+002
  0
LINE
  8
1
  6
CONTINUOUS
 62
7
 10
9.5E+001
 20
2.49E+002
 11
1.05E+002
 21
2.49E+002
  0
LINE
  8
1
  6
CONTINUOUS
 62
7
 10
1.15E+002
 20
2.305E+002
 11
1.15E+002
 21
2.355E+002
  0
LINE
  8
1
  6
CONTINUOUS
 62
7
 10
1.15E+002
 20
2.255E+002
 11
1.15E+002
 21
2.205E+002
  0
LINE
  8
1
  6
HIDDEN
 62
7
 10
8.15E+001
 20
1.3396783E+002
 11
8.45E+001
 21
1.3396783E+002
  0
LINE
  8
1
  6
CONTINUOUS
 62
7
 10
8.0E+001
 20
1.3396783E+002
 11
8.075E+001
 21
1.3246783E+002
  0
LINE
  8
1
  6
CONTINUOUS
 62
7
 10
1.15E+002
 20
2.305E+002
 11
1.17E+002
 21
2.305E+002
  0
LINE
  8
1
  6
CONTINUOUS
 62
7
 10
1.1E+002
 20
2.305E+002
 11
1.1E+002
 21
2.355E+002
  0
LINE
  8
1
  6
CONTINUOUS
 62
7
 10
8.075E+001
 20
1.3246783E+002
 11
8.15E+001
 21
1.3396783E+002
  0
LINE
  8
1
  6
CONTINUOUS
 62
7
 10
1.1E+002
 20
2.255E+002
 11
1.1E+002
 21
2.205E+002
  0
LINE
  8
1
  6
HIDDEN
 62
7
 10
8.0E+001
 20
1.3396783E+002
 11
7.85E+001
 21
1.3396783E+002
  0
LINE
  8
1
  6
CONTINUOUS
 62
7
 10
1.015E+002
 20
1.3848785E+002
 11
1.015E+002
 21
1.3748785E+002
  0
LINE
  8
1
  6
CONTINUOUS
 62
7
 10
1.015E+002
 20
1.3148785E+002
 11
1.015E+002
 21
1.3648785E+002
  0
LINE
  8
1
  6
CONTINUOUS
 62
7
 10
1.15E+002
 20
2.255E+002
 11
1.16E+002
 21
2.315E+002
  0
TEXT
  8
1
  6
CONTINUOUS
 62
7
 10
9.7E+001
 20
1.4946381E+002
 40
2.0
  1
96
 41
7.5E-001
  0
LINE
  8
1
  6
CONTINUOUS
 62
7
 10
1.1E+002
 20
2.255E+002
 11
1.08E+002
 21
2.305E+002
  0
LINE
  8
1
  6
CONTINUOUS
 62
7
 10
1.05E+002
 20
2.255E+002
 11
1.03E+002
 21
2.305E+002
  0
LINE
  8
1
  6
CONTINUOUS
 62
7
 10
1.0E+002
 20
2.255E+002
 11
9.8E+001
 21
2.305E+002
  0
LINE
  8
1
  6
CONTINUOUS
 62
7
 10
9.5E+001
 20
2.255E+002
 11
9.3E+001
 21
2.305E+002
  0
TEXT
  8
1
  6
CONTINUOUS
 62
7
 10
9.425E+001
 20
2.41E+002
 40
2.0
  1
1/L1
 41
7.5E-001
 50
9.0E+001
  0
TEXT
  8
1
  6
CONTINUOUS
 62
7
 10
9.925E+001
 20
2.41E+002
 40
2.0
  1
3/L2
 41
7.5E-001
 50
9.0E+001
  0
TEXT
  8
1
  6
CONTINUOUS
 62
7
 10
1.0425E+002
 20
2.41E+002
 40
2.0
  1
5/L3
 41
7.5E-001
 50
9.0E+001
  0
TEXT
  8
1
  6
CONTINUOUS
 62
7
 10
1.0925E+002
 20
2.32E+002
 40
2.0
  1
13
 41
7.5E-001
 50
9.0E+001
  0
TEXT
  8
1
  6
CONTINUOUS
 62
7
 10
9.425E+001
 20
2.17E+002
 40
2.0
  1
2/T1
 41
7.5E-001
 50
9.0E+001
  0
TEXT
  8
1
  6
CONTINUOUS
 62
7
 10
9.925E+001
 20
2.17E+002
 40
2.0
  1
4/T2
 41
7.5E-001
 50
9.0E+001
  0
TEXT
  8
1
  6
CONTINUOUS
 62
7
 10
1.0425E+002
 20
2.17E+002
 40
2.0
  1
6/T3
 41
7.5E-001
 50
9.0E+001
  0
TEXT
  8
1
  6
CONTINUOUS
 62
7
 10
1.0925E+002
 20
2.21E+002
 40
2.0
  1
14
 41
7.5E-001
 50
9.0E+001
  0
LINE
  8
1
  6
CONTINUOUS
 62
7
 10
1.05E+002
 20
2.12E+002
 11
1.4790829E+002
 21
2.12E+002
  0
LINE
  8
1
  6
CONTINUOUS
 62
7
 10
1.0E+002
 20
2.1E+002
 11
1.5178873E+002
 21
2.1E+002
  0
LINE
  8
1
  6
CONTINUOUS
 62
7
 10
9.5E+001
 20
2.08E+002
 11
1.5566918E+002
 21
2.08E+002
  0
LINE
  8
1
  6
CONTINUOUS
 62
7
 10
1.015E+002
 20
1.3048785E+002
 11
1.015E+002
 21
1.2948785E+002
  0
TEXT
  8
1
  6
CONTINUOUS
 62
7
 10
9.7E+001
 20
1.1946381E+002
 40
2.0
  1
24
 41
7.5E-001
  0
LINE
  8
1
  6
CONTINUOUS
 62
7
 10
1.35E+002
 20
2.3E+002
 11
1.35E+002
 21
2.2611862E+002
  0
LINE
  8
1
  6
CONTINUOUS
 62
7
 10
1.43E+002
 20
2.3E+002
 11
1.43E+002
 21
2.2611862E+002
  0
LINE
  8
1
  6
CONTINUOUS
 62
7
 10
1.43E+002
 20
2.3E+002
 11
1.35E+002
 21
2.3E+002
  0
LINE
  8
1
  6
CONTINUOUS
 62
7
 10
1.43E+002
 20
2.2611862E+002
 11
1.35E+002
 21
2.2611862E+002
  0
LINE
  8
1
  6
CONTINUOUS
 62
7
 10
1.39E+002
 20
2.3E+002
 11
1.39E+002
 21
2.35E+002
  0
LINE
  8
1
  6
CONTINUOUS
 62
7
 10
1.39E+002
 20
2.2611862E+002
 11
1.39E+002
 21
2.21E+002
  0
TEXT
  8
1
  6
CONTINUOUS
 62
7
 10
1.3E+002
 20
2.27E+002
 40
2.0
  1
KM3
 41
7.5E-001
  0
TEXT
  8
1
  6
CONTINUOUS
 62
7
 10
1.3825E+002
 20
2.31E+002
 40
2.0
  1
A1
 41
7.5E-001
 50
9.0E+001
  0
TEXT
  8
1
  6
CONTINUOUS
 62
7
 10
1.3825E+002
 20
2.22E+002
 40
2.0
  1
A2
 41
7.5E-001
 50
9.0E+001
  0
LINE
  8
1
  6
CONTINUOUS
 62
7
 10
1.49E+002
 20
2.305E+002
 11
1.49E+002
 21
2.53E+002
  0
LINE
  8
1
  6
CONTINUOUS
 62
7
 10
1.49E+002
 20
2.255E+002
 11
1.49E+002
 21
2.1395026E+002
  0
LINE
  8
1
  6
CONTINUOUS
 62
7
 10
1.015E+002
 20
1.2848785E+002
 11
1.015E+002
 21
1.2338682E+002
  0
LINE
  8
1
  6
CONTINUOUS
 62
7
 10
1.54E+002
 20
2.305E+002
 11
1.54E+002
 21
2.51E+002
  0
LINE
  8
1
  6
CONTINUOUS
 62
7
 10
1.54E+002
 20
2.255E+002
 11
1.54E+002
 21
2.1395026E+002
  0
INSERT
  2
*TX422
  8
1
 10
2.875E+002
 20
1.89E+002
  0
LINE
  8
1
  6
CONTINUOUS
 62
7
 10
1.59E+002
 20
2.305E+002
 11
1.59E+002
 21
2.49E+002
  0
LINE
  8
1
  6
CONTINUOUS
 62
7
 10
1.59E+002
 20
2.255E+002
 11
1.59E+002
 21
2.1395026E+002
  0
TEXT
  8
1
  6
CONTINUOUS
 62
7
 10
2.815E+002
 20
1.86E+002
 40
2.25
  1
(1)
 41
7.5E-001
  0
LINE
  8
1
  6
CONTINUOUS
 62
7
 10
1.64E+002
 20
2.305E+002
 11
1.64E+002
 21
2.355E+002
  0
LINE
  8
1
  6
CONTINUOUS
 62
7
 10
1.64E+002
 20
2.255E+002
 11
1.64E+002
 21
2.205E+002
  0
LINE
  8
1
  6
CONTINUOUS
 62
7
 10
1.64E+002
 20
2.305E+002
 11
1.66E+002
 21
2.305E+002
  0
TEXT
  8
1
  6
CONTINUOUS
 62
7
 10
2.8853938E+002
 20
1.735E+002
 40
2.25
  1
Adjunction/Zusatz/Adjonction
 41
7.5E-001
  0
LINE
  8
1
  6
CONTINUOUS
 62
7
 10
1.155E+002
 20
1.2848785E+002
 11
1.155E+002
 21
1.2348785E+002
  0
LINE
  8
1
  6
CONTINUOUS
 62
7
 10
1.64E+002
 20
2.255E+002
 11
1.65E+002
 21
2.315E+002
  0
LINE
  8
1
  6
CONTINUOUS
 62
7
 10
1.155E+002
 20
1.3648785E+002
 11
1.155E+002
 21
1.3148785E+002
  0
LINE
  8
1
  6
CONTINUOUS
 62
7
 10
1.59E+002
 20
2.255E+002
 11
1.57E+002
 21
2.305E+002
  0
LINE
  8
1
  6
CONTINUOUS
 62
7
 10
1.54E+002
 20
2.255E+002
 11
1.52E+002
 21
2.305E+002
  0
LINE
  8
1
  6
CONTINUOUS
 62
7
 10
1.49E+002
 20
2.255E+002
 11
1.47E+002
 21
2.305E+002
  0
TEXT
  8
1
  6
CONTINUOUS
 62
7
 10
1.4825E+002
 20
2.41E+002
 40
2.0
  1
1/L1
 41
7.5E-001
 50
9.0E+001
  0
TEXT
  8
1
  6
CONTINUOUS
 62
7
 10
1.5325E+002
 20
2.41E+002
 40
2.0
  1
3/L2
 41
7.5E-001
 50
9.0E+001
  0
TEXT
  8
1
  6
CONTINUOUS
 62
7
 10
1.5825E+002
 20
2.41E+002
 40
2.0
  1
5/L3
 41
7.5E-001
 50
9.0E+001
  0
TEXT
  8
1
  6
CONTINUOUS
 62
7
 10
1.4825E+002
 20
2.17E+002
 40
2.0
  1
2/T1
 41
7.5E-001
 50
9.0E+001
  0
TEXT
  8
1
  6
CONTINUOUS
 62
7
 10
1.5325E+002
 20
2.17E+002
 40
2.0
  1
4/T2
 41
7.5E-001
 50
9.0E+001
  0
TEXT
  8
1
  6
CONTINUOUS
 62
7
 10
1.5825E+002
 20
2.17E+002
 40
2.0
  1
6/T3
 41
7.5E-001
 50
9.0E+001
  0
LINE
  8
1
  6
CONTINUOUS
 62
7
 10
8.5969238E+001
 20
1.71E+002
 11
1.42E+002
 21
1.71E+002
  0
LINE
  8
1
  6
CONTINUOUS
 62
7
 10
1.245E+002
 20
7.2E+001
 11
1.73E+002
 21
7.2E+001
  0
LINE
  8
1
  6
CONTINUOUS
 62
7
 10
1.4790829E+002
 20
2.12E+002
 11
1.49E+002
 21
2.1395026E+002
  0
LINE
  8
1
  6
CONTINUOUS
 62
7
 10
1.5178873E+002
 20
2.1E+002
 11
1.54E+002
 21
2.1395026E+002
  0
LINE
  8
1
  6
CONTINUOUS
 62
7
 10
1.5566918E+002
 20
2.08E+002
 11
1.59E+002
 21
2.1395026E+002
  0
LINE
  8
1
  6
HIDDEN
 62
7
 10
1.43E+002
 20
2.28E+002
 11
1.6441667E+002
 21
2.28E+002
  0
LINE
  8
1
  6
CONTINUOUS
 62
7
 10
1.95E+002
 20
2.3E+002
 11
1.95E+002
 21
2.2611862E+002
  0
LINE
  8
1
  6
CONTINUOUS
 62
7
 10
2.03E+002
 20
2.3E+002
 11
2.03E+002
 21
2.2611862E+002
  0
LINE
  8
1
  6
CONTINUOUS
 62
7
 10
2.03E+002
 20
2.3E+002
 11
1.95E+002
 21
2.3E+002
  0
LINE
  8
1
  6
CONTINUOUS
 62
7
 10
2.03E+002
 20
2.2611862E+002
 11
1.95E+002
 21
2.2611862E+002
  0
LINE
  8
1
  6
CONTINUOUS
 62
7
 10
1.99E+002
 20
2.3E+002
 11
1.99E+002
 21
2.35E+002
  0
LINE
  8
1
  6
CONTINUOUS
 62
7
 10
1.99E+002
 20
2.2611862E+002
 11
1.99E+002
 21
2.21E+002
  0
TEXT
  8
1
  6
CONTINUOUS
 62
7
 10
1.9E+002
 20
2.27E+002
 40
2.0
  1
KM1
 41
7.5E-001
  0
TEXT
  8
1
  6
CONTINUOUS
 62
7
 10
1.9825E+002
 20
2.31E+002
 40
2.0
  1
A1
 41
7.5E-001
 50
9.0E+001
  0
TEXT
  8
1
  6
CONTINUOUS
 62
7
 10
1.9825E+002
 20
2.22E+002
 40
2.0
  1
A2
 41
7.5E-001
 50
9.0E+001
  0
LINE
  8
1
  6
CONTINUOUS
 62
7
 10
2.09E+002
 20
2.305E+002
 11
2.09E+002
 21
2.4724641E+002
  0
LINE
  8
1
  6
CONTINUOUS
 62
7
 10
2.09E+002
 20
2.255E+002
 11
2.09E+002
 21
2.1395026E+002
  0
TEXT
  8
1
  6
CONTINUOUS
 62
7
 10
1.7225E+002
 20
1.31E+002
 40
2.0
  1
23
 41
7.5E-001
 50
9.0E+001
  0
LINE
  8
1
  6
CONTINUOUS
 62
7
 10
2.14E+002
 20
2.305E+002
 11
2.14E+002
 21
2.4724641E+002
  0
LINE
  8
1
  6
CONTINUOUS
 62
7
 10
2.14E+002
 20
2.255E+002
 11
2.14E+002
 21
2.1395026E+002
  0
TEXT
  8
1
  6
CONTINUOUS
 62
7
 10
1.665E+002
 20
1.2663138E+002
 40
2.0
  1
KM1
 41
7.5E-001
  0
LINE
  8
1
  6
CONTINUOUS
 62
7
 10
2.19E+002
 20
2.305E+002
 11
2.19E+002
 21
2.49E+002
  0
LINE
  8
1
  6
CONTINUOUS
 62
7
 10
2.19E+002
 20
2.255E+002
 11
2.19E+002
 21
2.1395026E+002
  0
TEXT
  8
1
  6
CONTINUOUS
 62
7
 10
1.7225E+002
 20
1.22E+002
 40
2.0
  1
24
 41
7.5E-001
 50
9.0E+001
  0
LINE
  8
1
  6
CONTINUOUS
 62
7
 10
2.24E+002
 20
2.305E+002
 11
2.24E+002
 21
2.355E+002
  0
LINE
  8
1
  6
CONTINUOUS
 62
7
 10
2.24E+002
 20
2.255E+002
 11
2.24E+002
 21
2.195E+002
  0
LINE
  8
1
  6
CONTINUOUS
 62
7
 10
1.155E+002
 20
1.3048785E+002
 11
1.155E+002
 21
1.2948785E+002
  0
INSERT
  2
*TX423
  8
1
 10
7.35E+001
 20
1.6997596E+002
  0
LINE
  8
1
  6
SHORT_DASH
 62
7
 10
7.7E+001
 20
1.68E+002
 11
8.9086443E+001
 21
1.68E+002
  0
LINE
  8
1
  6
CONTINUOUS
 62
7
 10
8.9086443E+001
 20
1.68E+002
 11
8.9086443E+001
 21
1.71E+002
  0
LINE
  8
1
  6
CONTINUOUS
 62
7
 10
2.24E+002
 20
2.255E+002
 11
2.22E+002
 21
2.305E+002
  0
LINE
  8
1
  6
CONTINUOUS
 62
7
 10
2.19E+002
 20
2.255E+002
 11
2.17E+002
 21
2.305E+002
  0
LINE
  8
1
  6
CONTINUOUS
 62
7
 10
2.14E+002
 20
2.255E+002
 11
2.12E+002
 21
2.305E+002
  0
LINE
  8
1
  6
CONTINUOUS
 62
7
 10
2.09E+002
 20
2.255E+002
 11
2.07E+002
 21
2.305E+002
  0
TEXT
  8
1
  6
CONTINUOUS
 62
7
 10
2.0825E+002
 20
2.41E+002
 40
2.0
  1
1/L1
 41
7.5E-001
 50
9.0E+001
  0
TEXT
  8
1
  6
CONTINUOUS
 62
7
 10
2.1325E+002
 20
2.41E+002
 40
2.0
  1
3/L2
 41
7.5E-001
 50
9.0E+001
  0
TEXT
  8
1
  6
CONTINUOUS
 62
7
 10
2.1825E+002
 20
2.41E+002
 40
2.0
  1
5/L3
 41
7.5E-001
 50
9.0E+001
  0
TEXT
  8
1
  6
CONTINUOUS
 62
7
 10
2.0825E+002
 20
2.17E+002
 40
2.0
  1
2/T1
 41
7.5E-001
 50
9.0E+001
  0
TEXT
  8
1
  6
CONTINUOUS
 62
7
 10
2.1325E+002
 20
2.17E+002
 40
2.0
  1
4/T2
 41
7.5E-001
 50
9.0E+001
  0
TEXT
  8
1
  6
CONTINUOUS
 62
7
 10
2.1825E+002
 20
2.17E+002
 40
2.0
  1
6/T3
 41
7.5E-001
 50
9.0E+001
  0
LINE
  8
1
  6
CONTINUOUS
 62
7
 10
1.015E+002
 20
1.4846783E+002
 11
1.075E+002
 21
1.4846783E+002
  0
INSERT
  2
*TX424
  8
1
 10
7.35E+001
 20
7.6975963E+001
  0
LINE
  8
1
  6
CONTINUOUS
 62
7
 10
1.59E+002
 20
2.49E+002
 11
2.0801838E+002
 21
2.49E+002
  0
LINE
  8
1
  6
CONTINUOUS
 62
7
 10
1.54E+002
 20
2.51E+002
 11
2.1189882E+002
 21
2.51E+002
  0
LINE
  8
1
  6
CONTINUOUS
 62
7
 10
1.49E+002
 20
2.53E+002
 11
2.1577927E+002
 21
2.53E+002
  0
LINE
  8
1
  6
CONTINUOUS
 62
7
 10
2.0801838E+002
 20
2.49E+002
 11
2.09E+002
 21
2.4724641E+002
  0
LINE
  8
1
  6
CONTINUOUS
 62
7
 10
2.1189882E+002
 20
2.51E+002
 11
2.14E+002
 21
2.4724641E+002
  0
LINE
  8
1
  6
CONTINUOUS
 62
7
 10
2.1577927E+002
 20
2.53E+002
 11
2.19E+002
 21
2.4724641E+002
  0
LINE
  8
1
  6
HIDDEN
 62
7
 10
2.19E+002
 20
2.4724641E+002
 11
2.19E+002
 21
2.57E+002
  0
LINE
  8
1
  6
HIDDEN
 62
7
 10
2.14E+002
 20
2.4724641E+002
 11
2.14E+002
 21
2.57E+002
  0
LINE
  8
1
  6
HIDDEN
 62
7
 10
2.09E+002
 20
2.4724641E+002
 11
2.09E+002
 21
2.57E+002
  0
LINE
  8
1
  6
HIDDEN
 62
7
 10
2.03E+002
 20
2.28E+002
 11
2.275E+002
 21
2.28E+002
  0
LINE
  8
1
  6
HIDDEN
 62
7
 10
1.59E+002
 20
2.1395026E+002
 11
1.59E+002
 21
1.82E+002
  0
LINE
  8
1
  6
SHORT_DASH
 62
7
 10
7.7E+001
 20
7.5E+001
 11
8.9086443E+001
 21
7.5E+001
  0
LINE
  8
1
  6
HIDDEN
 62
7
 10
1.54E+002
 20
1.87E+002
 11
1.54E+002
 21
2.1395026E+002
  0
LINE
  8
1
  6
HIDDEN
 62
7
 10
1.49E+002
 20
2.1395026E+002
 11
1.49E+002
 21
1.77E+002
  0
LINE
  8
1
  6
CONTINUOUS
 62
7
 10
2.09E+002
 20
2.1395026E+002
 11
2.09E+002
 21
2.0575E+002
  0
LINE
  8
1
  6
HIDDEN
 62
7
 10
2.14E+002
 20
1.82E+002
 11
2.14E+002
 21
1.92E+002
  0
LINE
  8
1
  6
CONTINUOUS
 62
7
 10
2.19E+002
 20
2.1395026E+002
 11
2.19E+002
 21
2.0575E+002
  0
LINE
  8
1
  6
SHORT_DASH
 62
7
 10
7.7E+001
 20
7.8E+001
 11
8.9086443E+001
 21
7.8E+001
  0
LINE
  8
1
  6
HIDDEN
 62
7
 10
1.59E+002
 20
1.82E+002
 11
1.775E+002
 21
1.82E+002
  0
LINE
  8
1
  6
CONTINUOUS
 62
7
 10
8.9086443E+001
 20
7.8E+001
 11
8.9086443E+001
 21
7.2E+001
  0
CIRCLE
  8
1
  6
CONTINUOUS
 62
7
 10
1.84E+002
 20
1.8237E+002
 40
6.5
  0
LINE
  8
1
  6
HIDDEN
 62
7
 10
1.54E+002
 20
1.87E+002
 11
1.7943786E+002
 21
1.87E+002
  0
LINE
  8
1
  6
HIDDEN
 62
7
 10
1.49E+002
 20
1.77E+002
 11
1.8033761E+002
 21
1.77E+002
  0
LINE
  8
1
  6
HIDDEN
 62
7
 10
1.8856214E+002
 20
1.87E+002
 11
2.19E+002
 21
1.87E+002
  0
LINE
  8
1
  6
HIDDEN
 62
7
 10
1.905E+002
 20
1.82E+002
 11
2.14E+002
 21
1.82E+002
  0
LINE
  8
1
  6
HIDDEN
 62
7
 10
1.8766239E+002
 20
1.77E+002
 11
2.09E+002
 21
1.77E+002
  0
ARC
  8
1
  6
CONTINUOUS
 62
7
 10
1.84E+002
 20
1.82E+002
 40
3.5
 50
0.0
 51
1.8E+002
  0
LINE
  8
1
  6
CONTINUOUS
 62
7
 10
1.875E+002
 20
1.82E+002
 11
1.875E+002
 21
1.79E+002
  0
LINE
  8
1
  6
CONTINUOUS
 62
7
 10
1.875E+002
 20
1.79E+002
 11
1.8794829E+002
 21
1.8119067E+002
  0
LINE
  8
1
  6
CONTINUOUS
 62
7
 10
1.875E+002
 20
1.79E+002
 11
1.8705171E+002
 21
1.8119067E+002
  0
LINE
  8
1
  6
CONTINUOUS
 62
7
 10
1.8705171E+002
 20
1.8119067E+002
 11
1.8794829E+002
 21
1.8119067E+002
  0
LINE
  8
1
  6
CONTINUOUS
 62
7
 10
1.085E+002
 20
1.4848785E+002
 11
1.095E+002
 21
1.4848785E+002
  0
LINE
  8
1
  6
CONTINUOUS
 62
7
 10
1.105E+002
 20
1.4848785E+002
 11
1.155E+002
 21
1.4848785E+002
  0
INSERT
  2
*TX425
  8
1
 10
9.5084761E+001
 20
1.8E+002
  0
INSERT
  2
*XH103
  8
1
 10
1.8751026E+002
 20
1.7924506E+002
  0
CIRCLE
  8
1
  6
CONTINUOUS
 62
7
 10
1.84E+002
 20
1.5687E+002
 40
6.5
  0
LINE
  8
1
  6
CONTINUOUS
 62
7
 10
1.73E+002
 20
1.25E+002
 11
1.71E+002
 21
1.3E+002
  0
LINE
  8
1
  6
CONTINUOUS
 62
7
 10
1.73E+002
 20
1.3548785E+002
 11
1.73E+002
 21
1.2901286E+002
  0
LINE
  8
1
  6
HIDDEN
 62
7
 10
1.8815331E+002
 20
1.5187E+002
 11
2.14E+002
 21
1.5187E+002
  0
LINE
  8
1
  6
HIDDEN
 62
7
 10
1.905E+002
 20
1.5687E+002
 11
2.09E+002
 21
1.5687E+002
  0
LINE
  8
1
  6
HIDDEN
 62
7
 10
1.8815331E+002
 20
1.6187E+002
 11
2.19E+002
 21
1.6187E+002
  0
LINE
  8
1
  6
HIDDEN
 62
7
 10
1.54E+002
 20
1.6187E+002
 11
1.7984669E+002
 21
1.6187E+002
  0
LINE
  8
1
  6
HIDDEN
 62
7
 10
1.49E+002
 20
1.5687E+002
 11
1.775E+002
 21
1.5687E+002
  0
LINE
  8
1
  6
HIDDEN
 62
7
 10
1.59E+002
 20
1.5187E+002
 11
1.7984669E+002
 21
1.5187E+002
  0
ARC
  8
1
  6
CONTINUOUS
 62
7
 10
1.84E+002
 20
1.5687E+002
 40
3.5
 50
0.0
 51
1.8E+002
  0
LINE
  8
1
  6
CONTINUOUS
 62
7
 10
1.8094829E+002
 20
1.5606067E+002
 11
1.8005171E+002
 21
1.5606067E+002
  0
LINE
  8
1
  6
CONTINUOUS
 62
7
 10
1.805E+002
 20
1.5387E+002
 11
1.8005171E+002
 21
1.5606067E+002
  0
INSERT
  2
*XH105
  8
1
 10
1.8048974E+002
 20
1.5411506E+002
 41
1.0
 43
1.0
 42
-1.0
 50
1.8E+002
  0
LINE
  8
1
  6
CONTINUOUS
 62
7
 10
1.805E+002
 20
1.5387E+002
 11
1.8094829E+002
 21
1.5606067E+002
  0
LINE
  8
1
  6
CONTINUOUS
 62
7
 10
1.805E+002
 20
1.5687E+002
 11
1.805E+002
 21
1.5387E+002
  0
TEXT
  8
1
  6
CONTINUOUS
 62
7
 10
1.725E+002
 20
1.8275E+002
 40
2.0
  1
V2
 41
7.5E-001
  0
TEXT
  8
1
  6
CONTINUOUS
 62
7
 10
1.725E+002
 20
1.8775E+002
 40
2.0
  1
W2
 41
7.5E-001
  0
TEXT
  8
1
  6
CONTINUOUS
 62
7
 10
1.725E+002
 20
1.7775E+002
 40
2.0
  1
U2
 41
7.5E-001
  0
TEXT
  8
1
  6
CONTINUOUS
 62
7
 10
1.915E+002
 20
1.8275E+002
 40
2.0
  1
V1
 41
7.5E-001
  0
TEXT
  8
1
  6
CONTINUOUS
 62
7
 10
1.915E+002
 20
1.8775E+002
 40
2.0
  1
W1
 41
7.5E-001
  0
TEXT
  8
1
  6
CONTINUOUS
 62
7
 10
1.915E+002
 20
1.7775E+002
 40
2.0
  1
U1
 41
7.5E-001
  0
TEXT
  8
1
  6
CONTINUOUS
 62
7
 10
1.725E+002
 20
1.6262E+002
 40
2.0
  1
W2
 41
7.5E-001
  0
TEXT
  8
1
  6
CONTINUOUS
 62
7
 10
1.725E+002
 20
1.5762E+002
 40
2.0
  1
V2
 41
7.5E-001
  0
TEXT
  8
1
  6
CONTINUOUS
 62
7
 10
1.725E+002
 20
1.5262E+002
 40
2.0
  1
U2
 41
7.5E-001
  0
TEXT
  8
1
  6
CONTINUOUS
 62
7
 10
1.915E+002
 20
1.6262E+002
 40
2.0
  1
W1
 41
7.5E-001
  0
TEXT
  8
1
  6
CONTINUOUS
 62
7
 10
1.915E+002
 20
1.5762E+002
 40
2.0
  1
V1
 41
7.5E-001
  0
TEXT
  8
1
  6
CONTINUOUS
 62
7
 10
1.915E+002
 20
1.5262E+002
 40
2.0
  1
U1
 41
7.5E-001
  0
LINE
  8
1
  6
HIDDEN
 62
7
 10
2.09E+002
 20
1.7299853E+002
 11
2.09E+002
 21
1.5687E+002
  0
LINE
  8
1
  6
HIDDEN
 62
7
 10
2.14E+002
 20
1.5187E+002
 11
2.14E+002
 21
1.7284513E+002
  0
LINE
  8
1
  6
HIDDEN
 62
7
 10
2.19E+002
 20
1.7307377E+002
 11
2.19E+002
 21
1.6187E+002
  0
LINE
  8
1
  6
HIDDEN
 62
7
 10
1.59E+002
 20
1.7299853E+002
 11
1.59E+002
 21
1.5187E+002
  0
LINE
  8
1
  6
HIDDEN
 62
7
 10
1.54E+002
 20
1.6187E+002
 11
1.54E+002
 21
1.7284513E+002
  0
LINE
  8
1
  6
HIDDEN
 62
7
 10
1.49E+002
 20
1.7307377E+002
 11
1.49E+002
 21
1.5687E+002
  0
LINE
  8
1
  6
HIDDEN
 62
7
 10
1.7094143E+002
 20
2.045E+002
 11
1.82E+002
 21
2.045E+002
  0
LINE
  8
1
  6
CONTINUOUS
 62
7
 10
2.055E+002
 20
2.07E+002
 11
2.205E+002
 21
2.07E+002
  0
LINE
  8
1
  6
CONTINUOUS
 62
7
 10
2.055E+002
 20
2.02E+002
 11
2.205E+002
 21
2.02E+002
  0
LINE
  8
1
  6
CONTINUOUS
 62
7
 10
2.055E+002
 20
2.07E+002
 11
2.055E+002
 21
2.02E+002
  0
LINE
  8
1
  6
CONTINUOUS
 62
7
 10
2.205E+002
 20
2.07E+002
 11
2.205E+002
 21
2.02E+002
  0
LINE
  8
1
  6
CONTINUOUS
 62
7
 10
2.065E+002
 20
2.0575E+002
 11
2.09E+002
 21
2.0575E+002
  0
LINE
  8
1
  6
CONTINUOUS
 62
7
 10
2.065E+002
 20
2.0325E+002
 11
2.09E+002
 21
2.0325E+002
  0
LINE
  8
1
  6
CONTINUOUS
 62
7
 10
2.115E+002
 20
2.0575E+002
 11
2.14E+002
 21
2.0575E+002
  0
LINE
  8
1
  6
CONTINUOUS
 62
7
 10
2.115E+002
 20
2.0325E+002
 11
2.14E+002
 21
2.0325E+002
  0
LINE
  8
1
  6
CONTINUOUS
 62
7
 10
2.065E+002
 20
2.0575E+002
 11
2.065E+002
 21
2.0325E+002
  0
LINE
  8
1
  6
CONTINUOUS
 62
7
 10
2.115E+002
 20
2.0325E+002
 11
2.115E+002
 21
2.0575E+002
  0
LINE
  8
1
  6
CONTINUOUS
 62
7
 10
2.165E+002
 20
2.0575E+002
 11
2.165E+002
 21
2.0325E+002
  0
LINE
  8
1
  6
CONTINUOUS
 62
7
 10
2.165E+002
 20
2.0575E+002
 11
2.19E+002
 21
2.0575E+002
  0
LINE
  8
1
  6
CONTINUOUS
 62
7
 10
2.165E+002
 20
2.0325E+002
 11
2.19E+002
 21
2.0325E+002
  0
LINE
  8
1
  6
CONTINUOUS
 62
7
 10
2.09E+002
 20
2.0325E+002
 11
2.09E+002
 21
1.92E+002
  0
LINE
  8
1
  6
CONTINUOUS
 62
7
 10
2.14E+002
 20
2.0575E+002
 11
2.14E+002
 21
2.1395026E+002
  0
LINE
  8
1
  6
CONTINUOUS
 62
7
 10
2.19E+002
 20
2.0325E+002
 11
2.19E+002
 21
1.92E+002
  0
LINE
  8
1
  6
HIDDEN
 62
7
 10
2.09E+002
 20
1.92E+002
 11
2.09E+002
 21
1.77E+002
  0
LINE
  8
1
  6
CONTINUOUS
 62
7
 10
2.14E+002
 20
1.92E+002
 11
2.14E+002
 21
2.0325E+002
  0
LINE
  8
1
  6
HIDDEN
 62
7
 10
2.19E+002
 20
1.92E+002
 11
2.19E+002
 21
1.87E+002
  0
LINE
  8
1
  6
SHORT_DASH
 62
7
 10
1.18E+002
 20
1.2048785E+002
 11
1.37E+002
 21
1.2048785E+002
  0
LINE
  8
1
  6
CONTINUOUS
 62
7
 10
2.0190703E+002
 20
2.07E+002
 11
2.0190703E+002
 21
2.12E+002
  0
LINE
  8
1
  6
CONTINUOUS
 62
7
 10
2.0190703E+002
 20
2.02E+002
 11
1.9990703E+002
 21
2.07E+002
  0
LINE
  8
1
  6
CONTINUOUS
 62
7
 10
2.0190703E+002
 20
2.02E+002
 11
2.0190703E+002
 21
1.97E+002
  0
LINE
  8
1
  6
CONTINUOUS
 62
7
 10
1.9690703E+002
 20
2.02E+002
 11
1.9790703E+002
 21
2.08E+002
  0
LINE
  8
1
  6
CONTINUOUS
 62
7
 10
1.9690703E+002
 20
2.07E+002
 11
1.9890703E+002
 21
2.07E+002
  0
LINE
  8
1
  6
CONTINUOUS
 62
7
 10
1.9690703E+002
 20
2.07E+002
 11
1.9690703E+002
 21
2.12E+002
  0
LINE
  8
1
  6
CONTINUOUS
 62
7
 10
1.115E+002
 20
1.2048785E+002
 11
1.18E+002
 21
1.2048785E+002
  0
LINE
  8
1
  6
CONTINUOUS
 62
7
 10
1.9690703E+002
 20
2.02E+002
 11
1.9690703E+002
 21
1.97E+002
  0
LINE
  8
1
  6
SHORT_DASH
 62
7
 10
1.18E+002
 20
1.3548785E+002
 11
1.73E+002
 21
1.3548785E+002
  0
LINE
  8
1
  6
CONTINUOUS
 62
7
 10
1.85E+002
 20
2.065E+002
 11
1.89E+002
 21
2.045E+002
  0
LINE
  8
1
  6
CONTINUOUS
 62
7
 10
1.85E+002
 20
2.065E+002
 11
1.85E+002
 21
2.045E+002
  0
LINE
  8
1
  6
CONTINUOUS
 62
7
 10
1.85E+002
 20
2.045E+002
 11
1.89E+002
 21
2.045E+002
  0
LINE
  8
1
  6
CONTINUOUS
 62
7
 10
1.72E+002
 20
2.065E+002
 11
1.76E+002
 21
2.045E+002
  0
LINE
  8
1
  6
CONTINUOUS
 62
7
 10
1.72E+002
 20
2.065E+002
 11
1.72E+002
 21
2.045E+002
  0
LINE
  8
1
  6
CONTINUOUS
 62
7
 10
1.72E+002
 20
2.045E+002
 11
1.76E+002
 21
2.045E+002
  0
LINE
  8
1
  6
HIDDEN
 62
7
 10
1.89E+002
 20
2.055E+002
 11
1.89E+002
 21
2.1E+002
  0
LINE
  8
1
  6
HIDDEN
 62
7
 10
1.89E+002
 20
2.1E+002
 11
1.81E+002
 21
2.1E+002
  0
LINE
  8
1
  6
HIDDEN
 62
7
 10
1.9E+002
 20
2.055E+002
 11
1.9749036E+002
 21
2.055E+002
  0
LINE
  8
1
  6
HIDDEN
 62
7
 10
1.9E+002
 20
2.11E+002
 11
1.9E+002
 21
2.055E+002
  0
LINE
  8
1
  6
HIDDEN
 62
7
 10
1.81E+002
 20
2.11E+002
 11
1.9E+002
 21
2.11E+002
  0
LINE
  8
1
  6
CONTINUOUS
 62
7
 10
1.81E+002
 20
2.125E+002
 11
1.81E+002
 21
2.085E+002
  0
LINE
  8
1
  6
CONTINUOUS
 62
7
 10
1.825E+002
 20
2.085E+002
 11
1.81E+002
 21
2.085E+002
  0
LINE
  8
1
  6
CONTINUOUS
 62
7
 10
1.825E+002
 20
2.125E+002
 11
1.81E+002
 21
2.125E+002
  0
TEXT
  8
1
  6
CONTINUOUS
 62
7
 10
1.77E+002
 20
2.105E+002
 40
2.0
  1
O
 41
7.5E-001
  0
TEXT
  8
1
  6
CONTINUOUS
 62
7
 10
1.787E+002
 20
2.085E+002
 40
2.0
  1
R
 41
7.5E-001
  0
LINE
  8
1
  6
CONTINUOUS
 62
7
 10
1.792E+002
 20
2.119E+002
 11
1.776E+002
 21
2.087E+002
  0
LINE
  8
1
  6
HIDDEN
 62
7
 10
1.76E+002
 20
2.055E+002
 11
1.76E+002
 21
2.1E+002
  0
LINE
  8
1
  6
HIDDEN
 62
7
 10
1.76E+002
 20
2.1E+002
 11
1.68E+002
 21
2.1E+002
  0
LINE
  8
1
  6
CONTINUOUS
 62
7
 10
1.695E+002
 20
2.085E+002
 11
1.68E+002
 21
2.085E+002
  0
LINE
  8
1
  6
CONTINUOUS
 62
7
 10
1.68E+002
 20
2.125E+002
 11
1.68E+002
 21
2.085E+002
  0
LINE
  8
1
  6
CONTINUOUS
 62
7
 10
1.695E+002
 20
2.125E+002
 11
1.68E+002
 21
2.125E+002
  0
TEXT
  8
1
  6
CONTINUOUS
 62
7
 10
1.657E+002
 20
2.085E+002
 40
2.0
  1
R
 41
7.5E-001
  0
LINE
  8
1
  6
CONTINUOUS
 62
7
 10
1.73E+002
 20
9.948785E+001
 11
1.73E+002
 21
9.4012863E+001
  0
LINE
  8
1
  6
HIDDEN
 62
7
 10
1.8440034E+002
 20
2.045E+002
 11
2.065E+002
 21
2.045E+002
  0
TEXT
  8
1
  6
CONTINUOUS
 62
7
 10
2.21E+002
 20
2.03E+002
 40
2.0
  1
FR1
 41
7.5E-001
  0
LINE
  8
1
  6
CONTINUOUS
 62
7
 10
1.155E+002
 20
1.3848785E+002
 11
1.155E+002
 21
1.3748785E+002
  0
LINE
  8
1
  6
CONTINUOUS
 62
7
 10
1.155E+002
 20
1.4448785E+002
 11
1.155E+002
 21
1.3948785E+002
  0
LINE
  8
1
  6
CONTINUOUS
 62
7
 10
1.155E+002
 20
1.4648785E+002
 11
1.155E+002
 21
1.4548785E+002
  0
LINE
  8
1
  6
CONTINUOUS
 62
7
 10
1.155E+002
 20
1.4748785E+002
 11
1.155E+002
 21
1.4848785E+002
  0
LINE
  8
1
  6
CONTINUOUS
 62
7
 10
2.43E+002
 20
2.305E+002
 11
2.45E+002
 21
2.305E+002
  0
LINE
  8
1
  6
CONTINUOUS
 62
7
 10
2.49E+002
 20
2.305E+002
 11
2.49E+002
 21
2.325E+002
  0
LINE
  8
1
  6
CONTINUOUS
 62
7
 10
2.49E+002
 20
2.255E+002
 11
2.49E+002
 21
2.2338201E+002
  0
LINE
  8
1
  6
CONTINUOUS
 62
7
 10
2.43E+002
 20
2.255E+002
 11
2.44E+002
 21
2.315E+002
  0
LINE
  8
1
  6
CONTINUOUS
 62
7
 10
2.49E+002
 20
2.255E+002
 11
2.47E+002
 21
2.305E+002
  0
TEXT
  8
1
  6
CONTINUOUS
 62
7
 10
2.4825E+002
 20
2.3275E+002
 40
2.0
  1
15
 41
7.5E-001
 50
9.0E+001
  0
LINE
  8
1
  6
CONTINUOUS
 62
7
 10
1.015E+002
 20
1.2346783E+002
 11
1.075E+002
 21
1.2346783E+002
  0
LINE
  8
1
  6
CONTINUOUS
 62
7
 10
2.3805051E+002
 20
2.285E+002
 11
2.435E+002
 21
2.285E+002
  0
LINE
  8
1
  6
CONTINUOUS
 62
7
 10
2.3805051E+002
 20
2.275E+002
 11
2.4341667E+002
 21
2.275E+002
  0
LINE
  8
1
  6
CONTINUOUS
 62
7
 10
2.43E+002
 20
2.255E+002
 11
2.43E+002
 21
2.2338201E+002
  0
LINE
  8
1
  6
CONTINUOUS
 62
7
 10
2.43E+002
 20
2.305E+002
 11
2.43E+002
 21
2.325E+002
  0
LINE
  8
1
  6
HIDDEN
 62
7
 10
2.4341667E+002
 20
2.28E+002
 11
2.5405051E+002
 21
2.28E+002
  0
ARC
  8
1
  6
CONTINUOUS
 62
7
 10
2.405E+002
 20
2.28E+002
 40
2.5
 50
1.1356542E+002
 51
2.4643458E+002
  0
LINE
  8
1
  6
CONTINUOUS
 62
7
 10
2.365E+002
 20
2.325E+002
 11
2.43E+002
 21
2.325E+002
  0
LINE
  8
1
  6
CONTINUOUS
 62
7
 10
2.365E+002
 20
2.325E+002
 11
2.365E+002
 21
2.15E+002
  0
LINE
  8
1
  6
CONTINUOUS
 62
7
 10
2.49E+002
 20
2.2338201E+002
 11
2.43E+002
 21
2.2338201E+002
  0
TEXT
  8
1
  6
CONTINUOUS
 62
7
 10
2.3575E+002
 20
2.197E+002
 40
2.0
  1
16
 41
7.5E-001
 50
9.0E+001
  0
LINE
  8
1
  6
CONTINUOUS
 62
7
 10
2.49E+002
 20
2.325E+002
 11
2.595E+002
 21
2.325E+002
  0
LINE
  8
1
  6
CONTINUOUS
 62
7
 10
2.64E+002
 20
2.26E+002
 11
2.64E+002
 21
2.3E+002
  0
LINE
  8
1
  6
CONTINUOUS
 62
7
 10
2.595E+002
 20
2.255E+002
 11
2.575E+002
 21
2.305E+002
  0
LINE
  8
1
  6
CONTINUOUS
 62
7
 10
2.5455051E+002
 20
2.285E+002
 11
2.583E+002
 21
2.285E+002
  0
LINE
  8
1
  6
CONTINUOUS
 62
7
 10
2.5455051E+002
 20
2.275E+002
 11
2.587E+002
 21
2.275E+002
  0
LINE
  8
1
  6
CONTINUOUS
 62
7
 10
2.595E+002
 20
2.255E+002
 11
2.595E+002
 21
2.15E+002
  0
LINE
  8
1
  6
CONTINUOUS
 62
7
 10
2.595E+002
 20
2.305E+002
 11
2.595E+002
 21
2.325E+002
  0
ARC
  8
1
  6
CONTINUOUS
 62
7
 10
2.57E+002
 20
2.28E+002
 40
2.5
 50
1.1356542E+002
 51
2.4643458E+002
  0
LINE
  8
1
  6
CONTINUOUS
 62
7
 10
2.72E+002
 20
2.26E+002
 11
2.72E+002
 21
2.3E+002
  0
LINE
  8
1
  6
CONTINUOUS
 62
7
 10
2.74E+002
 20
2.26E+002
 11
2.74E+002
 21
2.3E+002
  0
LINE
  8
1
  6
CONTINUOUS
 62
7
 10
2.64E+002
 20
2.3E+002
 11
2.74E+002
 21
2.3E+002
  0
LINE
  8
1
  6
CONTINUOUS
 62
7
 10
2.64E+002
 20
2.26E+002
 11
2.74E+002
 21
2.26E+002
  0
LINE
  8
1
  6
CONTINUOUS
 62
7
 10
2.74E+002
 20
2.3E+002
 11
2.72E+002
 21
2.26E+002
  0
LINE
  8
1
  6
CONTINUOUS
 62
7
 10
2.72E+002
 20
2.3E+002
 11
2.74E+002
 21
2.26E+002
  0
LINE
  8
1
  6
CONTINUOUS
 62
7
 10
2.68E+002
 20
2.3E+002
 11
2.68E+002
 21
2.4095896E+002
  0
LINE
  8
1
  6
CONTINUOUS
 62
7
 10
2.68E+002
 20
2.26E+002
 11
2.68E+002
 21
2.1504104E+002
  0
LINE
  8
1
  6
HIDDEN
 62
7
 10
2.585E+002
 20
2.28E+002
 11
2.64E+002
 21
2.28E+002
  0
TEXT
  8
1
  6
CONTINUOUS
 62
7
 10
2.675E+002
 20
2.3305E+002
 40
2.0
  1
A1
 41
7.5E-001
 50
9.0E+001
  0
TEXT
  8
1
  6
CONTINUOUS
 62
7
 10
2.6725E+002
 20
2.199E+002
 40
2.0
  1
A2
 41
7.5E-001
 50
9.0E+001
  0
TEXT
  8
1
  6
CONTINUOUS
 62
7
 10
2.34E+002
 20
2.335E+002
 40
2.0
  1
KT
 41
7.5E-001
  0
TEXT
  8
1
  6
CONTINUOUS
 62
7
 10
2.4925E+002
 20
2.2295E+002
 40
2.0
  1
t1+t2
 41
7.5E-001
  0
LINE
  8
1
  6
CONTINUOUS
 62
7
 10
2.44E+002
 20
1.5498785E+002
 11
2.45E+002
 21
1.6098785E+002
  0
TEXT
  8
1
  6
CONTINUOUS
 62
7
 10
2.3725E+002
 20
2.2295E+002
 40
2.0
  1
t1
 41
7.5E-001
  0
TEXT
  8
1
  6
CONTINUOUS
 62
7
 10
2.5875E+002
 20
2.197E+002
 40
2.0
  1
18
 41
7.5E-001
 50
9.0E+001
  0
LINE
  8
1
  6
CONTINUOUS
 62
7
 10
2.44E+002
 20
1.5998785E+002
 11
2.46E+002
 21
1.5998785E+002
  0
LINE
  8
1
  6
CONTINUOUS
 62
7
 10
2.44E+002
 20
1.5998785E+002
 11
2.44E+002
 21
1.71E+002
  0
LINE
  8
1
  6
CONTINUOUS
 62
7
 10
1.655E+002
 20
9.948785E+001
 11
1.655E+002
 21
9.4012863E+001
  0
LINE
  8
1
  6
CONTINUOUS
 62
7
 10
2.3209297E+002
 20
1.5948785E+002
 11
2.3609297E+002
 21
1.5748785E+002
  0
LINE
  8
1
  6
CONTINUOUS
 62
7
 10
2.3209297E+002
 20
1.5948785E+002
 11
2.3209297E+002
 21
1.5748785E+002
  0
LINE
  8
1
  6
CONTINUOUS
 62
7
 10
2.3109297E+002
 20
1.5748785E+002
 11
2.3609297E+002
 21
1.5748785E+002
  0
LINE
  8
1
  6
HIDDEN
 62
7
 10
2.3609297E+002
 20
1.5848785E+002
 11
2.3609297E+002
 21
1.6298785E+002
  0
LINE
  8
1
  6
HIDDEN
 62
7
 10
2.3609297E+002
 20
1.6298785E+002
 11
2.2809297E+002
 21
1.6298785E+002
  0
LINE
  8
1
  6
HIDDEN
 62
7
 10
2.3709297E+002
 20
1.5848785E+002
 11
2.4458333E+002
 21
1.5848785E+002
  0
LINE
  8
1
  6
HIDDEN
 62
7
 10
2.3709297E+002
 20
1.6398785E+002
 11
2.3709297E+002
 21
1.5848785E+002
  0
LINE
  8
1
  6
HIDDEN
 62
7
 10
2.2809297E+002
 20
1.6398785E+002
 11
2.3709297E+002
 21
1.6398785E+002
  0
LINE
  8
1
  6
CONTINUOUS
 62
7
 10
2.2809297E+002
 20
1.6548785E+002
 11
2.2809297E+002
 21
1.6148785E+002
  0
LINE
  8
1
  6
CONTINUOUS
 62
7
 10
2.2959297E+002
 20
1.6148785E+002
 11
2.2809297E+002
 21
1.6148785E+002
  0
LINE
  8
1
  6
CONTINUOUS
 62
7
 10
2.2959297E+002
 20
1.6548785E+002
 11
2.2809297E+002
 21
1.6548785E+002
  0
TEXT
  8
1
  6
CONTINUOUS
 62
7
 10
2.2409297E+002
 20
1.6348785E+002
 40
2.0
  1
O
 41
7.5E-001
  0
TEXT
  8
1
  6
CONTINUOUS
 62
7
 10
2.2579297E+002
 20
1.6148785E+002
 40
2.0
  1
R
 41
7.5E-001
  0
LINE
  8
1
  6
CONTINUOUS
 62
7
 10
2.2629297E+002
 20
1.6488785E+002
 11
2.2469297E+002
 21
1.6168785E+002
  0
LINE
  8
1
  6
HIDDEN
 62
7
 10
2.3609297E+002
 20
1.5748785E+002
 11
2.47E+002
 21
1.5748785E+002
  0
LINE
  8
1
  6
CONTINUOUS
 62
7
 10
2.47E+002
 20
1.58E+002
 11
2.47E+002
 21
1.57E+002
  0
LINE
  8
1
  6
CONTINUOUS
 62
7
 10
2.47E+002
 20
1.58E+002
 11
2.49E+002
 21
1.58E+002
  0
LINE
  8
1
  6
CONTINUOUS
 62
7
 10
2.47E+002
 20
1.57E+002
 11
2.49E+002
 21
1.57E+002
  0
LINE
  8
1
  6
CONTINUOUS
 62
7
 10
2.49E+002
 20
1.57E+002
 11
2.49E+002
 21
1.56E+002
  0
LINE
  8
1
  6
CONTINUOUS
 62
7
 10
2.49E+002
 20
1.58E+002
 11
2.49E+002
 21
1.59E+002
  0
TEXT
  8
1
  6
CONTINUOUS
 62
7
 10
2.0825E+002
 20
1.9395275E+002
 40
2.0
  1
2/T1
 41
7.5E-001
 50
9.0E+001
  0
TEXT
  8
1
  6
CONTINUOUS
 62
7
 10
2.1325E+002
 20
1.9395275E+002
 40
2.0
  1
4/T2
 41
7.5E-001
 50
9.0E+001
  0
TEXT
  8
1
  6
CONTINUOUS
 62
7
 10
2.1825E+002
 20
1.9395275E+002
 40
2.0
  1
6/T3
 41
7.5E-001
 50
9.0E+001
  0
LINE
  8
1
  6
CONTINUOUS
 62
7
 10
2.315E+002
 20
9.4044578E+001
 11
2.335E+002
 21
9.4044578E+001
  0
LINE
  8
1
  6
CONTINUOUS
 62
7
 10
2.315E+002
 20
8.9044578E+001
 11
2.325E+002
 21
9.5044578E+001
  0
LINE
  8
1
  6
CONTINUOUS
 62
7
 10
2.545E+002
 20
9.4044578E+001
 11
2.565E+002
 21
9.4044578E+001
  0
LINE
  8
1
  6
CONTINUOUS
 62
7
 10
2.545E+002
 20
8.9044578E+001
 11
2.555E+002
 21
9.5044578E+001
  0
LINE
  8
1
  6
CONTINUOUS
 62
7
 10
2.545E+002
 20
8.9044578E+001
 11
2.545E+002
 21
8.0E+001
  0
LINE
  8
1
  6
CONTINUOUS
 62
7
 10
2.315E+002
 20
8.9044578E+001
 11
2.315E+002
 21
8.0E+001
  0
LINE
  8
1
  6
CONTINUOUS
 62
7
 10
2.725E+002
 20
8.9E+001
 11
2.705E+002
 21
9.4E+001
  0
LINE
  8
1
  6
CONTINUOUS
 62
7
 10
2.8E+002
 20
8.9E+001
 11
2.78E+002
 21
9.4E+001
  0
LINE
  8
1
  6
CONTINUOUS
 62
7
 10
8.6E+001
 20
7.2E+001
 11
1.245E+002
 21
7.2E+001
  0
LINE
  8
1
  6
CONTINUOUS
 62
7
 10
1.435E+002
 20
7.7E+001
 11
1.515E+002
 21
7.7E+001
  0
LINE
  8
1
  6
CONTINUOUS
 62
7
 10
1.205E+002
 20
7.7E+001
 11
1.285E+002
 21
7.7E+001
  0
LINE
  8
1
  6
CONTINUOUS
 62
7
 10
1.205E+002
 20
8.0E+001
 11
1.285E+002
 21
8.0E+001
  0
LINE
  8
1
  6
CONTINUOUS
 62
7
 10
1.435E+002
 20
8.0E+001
 11
1.515E+002
 21
8.0E+001
  0
LINE
  8
1
  6
CONTINUOUS
 62
7
 10
1.205E+002
 20
8.0E+001
 11
1.205E+002
 21
7.7E+001
  0
LINE
  8
1
  6
CONTINUOUS
 62
7
 10
1.285E+002
 20
8.0E+001
 11
1.285E+002
 21
7.7E+001
  0
LINE
  8
1
  6
CONTINUOUS
 62
7
 10
1.435E+002
 20
8.0E+001
 11
1.435E+002
 21
7.7E+001
  0
LINE
  8
1
  6
CONTINUOUS
 62
7
 10
1.515E+002
 20
8.0E+001
 11
1.515E+002
 21
7.7E+001
  0
LINE
  8
1
  6
CONTINUOUS
 62
7
 10
1.475E+002
 20
7.7E+001
 11
1.475E+002
 21
7.2E+001
  0
LINE
  8
1
  6
CONTINUOUS
 62
7
 10
1.245E+002
 20
7.7E+001
 11
1.245E+002
 21
7.2E+001
  0
LINE
  8
1
  6
CONTINUOUS
 62
7
 10
1.69E+002
 20
7.7E+001
 11
1.77E+002
 21
7.7E+001
  0
LINE
  8
1
  6
CONTINUOUS
 62
7
 10
1.69E+002
 20
8.0E+001
 11
1.77E+002
 21
8.0E+001
  0
LINE
  8
1
  6
CONTINUOUS
 62
7
 10
1.69E+002
 20
8.0E+001
 11
1.69E+002
 21
7.7E+001
  0
LINE
  8
1
  6
CONTINUOUS
 62
7
 10
1.77E+002
 20
8.0E+001
 11
1.77E+002
 21
7.7E+001
  0
LINE
  8
1
  6
CONTINUOUS
 62
7
 10
1.73E+002
 20
7.7E+001
 11
1.73E+002
 21
7.2E+001
  0
LINE
  8
1
  6
CONTINUOUS
 62
7
 10
2.8E+002
 20
8.9E+001
 11
2.8E+002
 21
8.548785E+001
  0
LINE
  8
1
  6
CONTINUOUS
 62
7
 10
2.725E+002
 20
8.548785E+001
 11
2.725E+002
 21
8.9E+001
  0
LINE
  8
1
  6
CONTINUOUS
 62
7
 10
2.725E+002
 20
8.548785E+001
 11
2.8E+002
 21
8.548785E+001
  0
LINE
  8
1
  6
CONTINUOUS
 62
7
 10
2.655E+002
 20
9.948785E+001
 11
2.705E+002
 21
9.948785E+001
  0
LINE
  8
1
  6
CONTINUOUS
 62
7
 10
2.705E+002
 20
1.0248785E+002
 11
2.705E+002
 21
9.948785E+001
  0
LINE
  8
1
  6
CONTINUOUS
 62
7
 10
2.705E+002
 20
1.0448785E+002
 11
2.705E+002
 21
1.0348785E+002
  0
LINE
  8
1
  6
CONTINUOUS
 62
7
 10
2.705E+002
 20
1.1048785E+002
 11
2.705E+002
 21
1.0548785E+002
  0
LINE
  8
1
  6
CONTINUOUS
 62
7
 10
2.705E+002
 20
1.1248785E+002
 11
2.705E+002
 21
1.1148785E+002
  0
LINE
  8
1
  6
CONTINUOUS
 62
7
 10
2.705E+002
 20
1.1648785E+002
 11
2.705E+002
 21
1.1348785E+002
  0
LINE
  8
1
  6
CONTINUOUS
 62
7
 10
2.685E+002
 20
1.1648785E+002
 11
2.705E+002
 21
1.1648785E+002
  0
LINE
  8
1
  6
CONTINUOUS
 62
7
 10
2.665E+002
 20
1.1648785E+002
 11
2.675E+002
 21
1.1648785E+002
  0
LINE
  8
1
  6
CONTINUOUS
 62
7
 10
2.605E+002
 20
1.1648785E+002
 11
2.655E+002
 21
1.1648785E+002
  0
LINE
  8
1
  6
CONTINUOUS
 62
7
 10
2.585E+002
 20
1.1648785E+002
 11
2.595E+002
 21
1.1648785E+002
  0
LINE
  8
1
  6
CONTINUOUS
 62
7
 10
2.3363893E+002
 20
1.71E+002
 11
2.52E+002
 21
1.71E+002
  0
LINE
  8
1
  6
CONTINUOUS
 62
7
 10
2.525E+002
 20
1.1648785E+002
 11
2.575E+002
 21
1.1648785E+002
  0
INSERT
  2
*TX426
  8
1
 10
2.2109355E+002
 20
1.6997596E+002
  0
LINE
  8
1
  6
SHORT_DASH
 62
7
 10
2.2459355E+002
 20
1.68E+002
 11
2.3667999E+002
 21
1.68E+002
  0
LINE
  8
1
  6
CONTINUOUS
 62
7
 10
2.3667999E+002
 20
1.68E+002
 11
2.3667999E+002
 21
1.71E+002
  0
INSERT
  2
*TX427
  8
1
 10
1.925E+002
 20
7.6975963E+001
  0
LINE
  8
1
  6
SHORT_DASH
 62
7
 10
1.96E+002
 20
7.5E+001
 11
2.0808644E+002
 21
7.5E+001
  0
LINE
  8
1
  6
SHORT_DASH
 62
7
 10
1.96E+002
 20
7.8E+001
 11
2.0808644E+002
 21
7.8E+001
  0
LINE
  8
1
  6
CONTINUOUS
 62
7
 10
2.0808644E+002
 20
7.8E+001
 11
2.0808644E+002
 21
7.2E+001
  0
LINE
  8
1
  6
CONTINUOUS
 62
7
 10
2.505E+002
 20
1.1648785E+002
 11
2.515E+002
 21
1.1648785E+002
  0
LINE
  8
1
  6
CONTINUOUS
 62
7
 10
2.445E+002
 20
1.1648785E+002
 11
2.495E+002
 21
1.1648785E+002
  0
LINE
  8
1
  6
CONTINUOUS
 62
7
 10
2.375E+002
 20
1.1648785E+002
 11
2.425E+002
 21
1.1648785E+002
  0
INSERT
  2
*TX428
  8
1
 10
2.3567831E+002
 20
1.8E+002
  0
LINE
  8
1
  6
CONTINUOUS
 62
7
 10
2.055E+002
 20
7.2E+001
 11
2.8E+002
 21
7.2E+001
  0
LINE
  8
1
  6
CONTINUOUS
 62
7
 10
2.355E+002
 20
1.1648785E+002
 11
2.365E+002
 21
1.1648785E+002
  0
LINE
  8
1
  6
CONTINUOUS
 62
7
 10
2.295E+002
 20
1.1648785E+002
 11
2.345E+002
 21
1.1648785E+002
  0
LINE
  8
1
  6
CONTINUOUS
 62
7
 10
2.275E+002
 20
1.1648785E+002
 11
2.285E+002
 21
1.1648785E+002
  0
LINE
  8
1
  6
CONTINUOUS
 62
7
 10
2.275E+002
 20
1.1648785E+002
 11
2.275E+002
 21
1.1248785E+002
  0
LINE
  8
1
  6
CONTINUOUS
 62
7
 10
2.275E+002
 20
1.1048785E+002
 11
2.275E+002
 21
1.1148785E+002
  0
LINE
  8
1
  6
CONTINUOUS
 62
7
 10
1.31E+002
 20
1.1048785E+002
 11
1.33E+002
 21
1.1048785E+002
  0
LINE
  8
1
  6
CONTINUOUS
 62
7
 10
1.37E+002
 20
1.1048785E+002
 11
1.37E+002
 21
1.2048785E+002
  0
LINE
  8
1
  6
CONTINUOUS
 62
7
 10
1.37E+002
 20
1.0548785E+002
 11
1.37E+002
 21
1.0336986E+002
  0
LINE
  8
1
  6
CONTINUOUS
 62
7
 10
1.31E+002
 20
1.0548785E+002
 11
1.32E+002
 21
1.1148785E+002
  0
LINE
  8
1
  6
CONTINUOUS
 62
7
 10
1.37E+002
 20
1.0548785E+002
 11
1.35E+002
 21
1.1048785E+002
  0
TEXT
  8
1
  6
CONTINUOUS
 62
7
 10
1.3625E+002
 20
1.1273785E+002
 40
2.0
  1
15
 41
7.5E-001
 50
9.0E+001
  0
LINE
  8
1
  6
CONTINUOUS
 62
7
 10
1.2605051E+002
 20
1.0848785E+002
 11
1.315E+002
 21
1.0848785E+002
  0
LINE
  8
1
  6
CONTINUOUS
 62
7
 10
1.2605051E+002
 20
1.0748785E+002
 11
1.3141667E+002
 21
1.0748785E+002
  0
LINE
  8
1
  6
CONTINUOUS
 62
7
 10
1.31E+002
 20
1.0548785E+002
 11
1.31E+002
 21
1.0336986E+002
  0
LINE
  8
1
  6
CONTINUOUS
 62
7
 10
1.31E+002
 20
1.1048785E+002
 11
1.31E+002
 21
1.1248785E+002
  0
LINE
  8
1
  6
HIDDEN
 62
7
 10
1.3141667E+002
 20
1.0798785E+002
 11
1.4205051E+002
 21
1.0798785E+002
  0
ARC
  8
1
  6
CONTINUOUS
 62
7
 10
1.285E+002
 20
1.0798785E+002
 40
2.5
 50
1.1356542E+002
 51
2.4643458E+002
  0
LINE
  8
1
  6
CONTINUOUS
 62
7
 10
1.245E+002
 20
1.1248785E+002
 11
1.31E+002
 21
1.1248785E+002
  0
LINE
  8
1
  6
CONTINUOUS
 62
7
 10
1.245E+002
 20
1.1248785E+002
 11
1.245E+002
 21
9.4044578E+001
  0
LINE
  8
1
  6
CONTINUOUS
 62
7
 10
1.37E+002
 20
1.0336986E+002
 11
1.31E+002
 21
1.0336986E+002
  0
TEXT
  8
1
  6
CONTINUOUS
 62
7
 10
1.2375E+002
 20
9.968785E+001
 40
2.0
  1
16
 41
7.5E-001
 50
9.0E+001
  0
LINE
  8
1
  6
CONTINUOUS
 62
7
 10
1.37E+002
 20
1.1248785E+002
 11
1.475E+002
 21
1.1248785E+002
  0
LINE
  8
1
  6
CONTINUOUS
 62
7
 10
1.52E+002
 20
1.0598785E+002
 11
1.52E+002
 21
1.0998785E+002
  0
LINE
  8
1
  6
CONTINUOUS
 62
7
 10
1.475E+002
 20
1.0548785E+002
 11
1.455E+002
 21
1.1048785E+002
  0
LINE
  8
1
  6
CONTINUOUS
 62
7
 10
1.4255051E+002
 20
1.0848785E+002
 11
1.463E+002
 21
1.0848785E+002
  0
LINE
  8
1
  6
CONTINUOUS
 62
7
 10
1.4255051E+002
 20
1.0748785E+002
 11
1.467E+002
 21
1.0748785E+002
  0
LINE
  8
1
  6
CONTINUOUS
 62
7
 10
1.475E+002
 20
1.0548785E+002
 11
1.475E+002
 21
9.4044578E+001
  0
LINE
  8
1
  6
CONTINUOUS
 62
7
 10
1.475E+002
 20
1.1048785E+002
 11
1.475E+002
 21
1.1248785E+002
  0
ARC
  8
1
  6
CONTINUOUS
 62
7
 10
1.45E+002
 20
1.0798785E+002
 40
2.5
 50
1.1356542E+002
 51
2.4643458E+002
  0
LINE
  8
1
  6
CONTINUOUS
 62
7
 10
1.6E+002
 20
1.0598785E+002
 11
1.6E+002
 21
1.0998785E+002
  0
LINE
  8
1
  6
CONTINUOUS
 62
7
 10
1.62E+002
 20
1.0598785E+002
 11
1.62E+002
 21
1.0998785E+002
  0
LINE
  8
1
  6
CONTINUOUS
 62
7
 10
1.52E+002
 20
1.0998785E+002
 11
1.62E+002
 21
1.0998785E+002
  0
LINE
  8
1
  6
CONTINUOUS
 62
7
 10
1.52E+002
 20
1.0598785E+002
 11
1.62E+002
 21
1.0598785E+002
  0
LINE
  8
1
  6
CONTINUOUS
 62
7
 10
1.62E+002
 20
1.0998785E+002
 11
1.6E+002
 21
1.0598785E+002
  0
LINE
  8
1
  6
CONTINUOUS
 62
7
 10
1.6E+002
 20
1.0998785E+002
 11
1.62E+002
 21
1.0598785E+002
  0
LINE
  8
1
  6
CONTINUOUS
 62
7
 10
1.56E+002
 20
1.0998785E+002
 11
1.56E+002
 21
1.2048785E+002
  0
LINE
  8
1
  6
CONTINUOUS
 62
7
 10
1.56E+002
 20
1.0598785E+002
 11
1.56E+002
 21
7.2E+001
  0
LINE
  8
1
  6
HIDDEN
 62
7
 10
1.465E+002
 20
1.0798785E+002
 11
1.52E+002
 21
1.0798785E+002
  0
TEXT
  8
1
  6
CONTINUOUS
 62
7
 10
1.555E+002
 20
1.1303785E+002
 40
2.0
  1
A1
 41
7.5E-001
 50
9.0E+001
  0
TEXT
  8
1
  6
CONTINUOUS
 62
7
 10
1.5525E+002
 20
9.988785E+001
 40
2.0
  1
A2
 41
7.5E-001
 50
9.0E+001
  0
TEXT
  8
1
  6
CONTINUOUS
 62
7
 10
1.22E+002
 20
1.1348785E+002
 40
2.0
  1
KT
 41
7.5E-001
  0
TEXT
  8
1
  6
CONTINUOUS
 62
7
 10
1.3725E+002
 20
1.0293785E+002
 40
2.0
  1
t1+t2
 41
7.5E-001
  0
TEXT
  8
1
  6
CONTINUOUS
 62
7
 10
1.2525E+002
 20
1.0293785E+002
 40
2.0
  1
t1
 41
7.5E-001
  0
TEXT
  8
1
  6
CONTINUOUS
 62
7
 10
1.4675E+002
 20
9.968785E+001
 40
2.0
  1
18
 41
7.5E-001
 50
9.0E+001
  0
LINE
  8
1
  6
CONTINUOUS
 62
7
 10
2.275E+002
 20
1.0448785E+002
 11
2.275E+002
 21
1.0948785E+002
  0
LINE
  8
1
  6
CONTINUOUS
 62
7
 10
2.275E+002
 20
1.0248785E+002
 11
2.275E+002
 21
1.0348785E+002
  0
LINE
  8
1
  6
CONTINUOUS
 62
7
 10
2.275E+002
 20
1.0148785E+002
 11
2.275E+002
 21
9.948785E+001
  0
LINE
  8
1
  6
CONTINUOUS
 62
7
 10
2.305E+002
 20
9.948785E+001
 11
2.275E+002
 21
9.948785E+001
  0
LINE
  8
1
  6
CONTINUOUS
 62
7
 10
2.325E+002
 20
9.948785E+001
 11
2.375E+002
 21
9.948785E+001
  0
LINE
  8
1
  6
CONTINUOUS
 62
7
 10
3.26E+002
 20
1.5E+002
 11
3.24E+002
 21
1.55E+002
  0
LINE
  8
1
  6
CONTINUOUS
 62
7
 10
3.26E+002
 20
1.55E+002
 11
3.26E+002
 21
1.71E+002
  0
TEXT
  8
1
  6
CONTINUOUS
 62
7
 10
2.495E+002
 20
1.5663138E+002
 40
2.0
  1
FR1
 41
7.5E-001
  0
LINE
  8
1
  6
CONTINUOUS
 62
7
 10
2.395E+002
 20
9.948785E+001
 11
2.385E+002
 21
9.948785E+001
  0
LINE
  8
1
  6
CONTINUOUS
 62
7
 10
2.455E+002
 20
9.948785E+001
 11
2.405E+002
 21
9.948785E+001
  0
LINE
  8
1
  6
CONTINUOUS
 62
7
 10
2.475E+002
 20
9.948785E+001
 11
2.465E+002
 21
9.948785E+001
  0
TEXT
  8
1
  6
CONTINUOUS
 62
7
 10
2.4325E+002
 20
1.6098785E+002
 40
2.0
  1
95
 41
7.5E-001
 50
9.0E+001
  0
TEXT
  8
1
  6
CONTINUOUS
 62
7
 10
2.4325E+002
 20
1.5198785E+002
 40
2.0
  1
96
 41
7.5E-001
 50
9.0E+001
  0
LINE
  8
1
  6
CONTINUOUS
 62
7
 10
2.535E+002
 20
9.948785E+001
 11
2.485E+002
 21
9.948785E+001
  0
LINE
  8
1
  6
CONTINUOUS
 62
7
 10
2.565E+002
 20
9.948785E+001
 11
2.555E+002
 21
9.948785E+001
  0
LINE
  8
1
  6
CONTINUOUS
 62
7
 10
2.625E+002
 20
9.948785E+001
 11
2.575E+002
 21
9.948785E+001
  0
LINE
  8
1
  6
CONTINUOUS
 62
7
 10
2.645E+002
 20
9.948785E+001
 11
2.635E+002
 21
9.948785E+001
  0
TEXT
  8
1
  6
CONTINUOUS
 62
7
 10
1.3625E+002
 20
1.6098785E+002
 40
2.0
  1
95
 41
7.5E-001
 50
9.0E+001
  0
TEXT
  8
1
  6
CONTINUOUS
 62
7
 10
1.3625E+002
 20
1.5198785E+002
 40
2.0
  1
96
 41
7.5E-001
 50
9.0E+001
  0
TEXT
  8
1
  6
CONTINUOUS
 62
7
 10
1.9615703E+002
 20
2.08E+002
 40
2.0
  1
95
 41
7.5E-001
 50
9.0E+001
  0
TEXT
  8
1
  6
CONTINUOUS
 62
7
 10
1.9615703E+002
 20
1.99E+002
 40
2.0
  1
96
 41
7.5E-001
 50
9.0E+001
  0
TEXT
  8
1
  6
CONTINUOUS
 62
7
 10
2.7175E+002
 20
9.5E+001
 40
2.0
  1
13
 41
7.5E-001
 50
9.0E+001
  0
TEXT
  8
1
  6
CONTINUOUS
 62
7
 10
2.7175E+002
 20
8.6E+001
 40
2.0
  1
14
 41
7.5E-001
 50
9.0E+001
  0
TEXT
  8
1
  6
CONTINUOUS
 62
7
 10
2.7925E+002
 20
9.5E+001
 40
2.0
  1
13
 41
7.5E-001
 50
9.0E+001
  0
TEXT
  8
1
  6
CONTINUOUS
 62
7
 10
2.7925E+002
 20
8.6E+001
 40
2.0
  1
14
 41
7.5E-001
 50
9.0E+001
  0
TEXT
  8
1
  6
CONTINUOUS
 62
7
 10
2.3075E+002
 20
6.8881385E+001
 40
2.0
  1
Y
 41
7.5E-001
  0
TEXT
  8
1
  6
CONTINUOUS
 62
7
 10
2.225E+002
 20
7.7631385E+001
 40
2.0
  1
KM2
 41
7.5E-001
  0
TEXT
  8
1
  6
CONTINUOUS
 62
7
 10
2.455E+002
 20
7.7631385E+001
 40
2.0
  1
KM3
 41
7.5E-001
  0
TEXT
  8
1
  6
CONTINUOUS
 62
7
 10
2.71E+002
 20
7.7631385E+001
 40
2.0
  1
KM1
 41
7.5E-001
  0
TEXT
  8
1
  6
CONTINUOUS
 62
7
 10
2.7925E+002
 20
6.8881385E+001
 40
2.0
  1
L
 41
7.5E-001
  0
TEXT
  8
1
  6
CONTINUOUS
 62
7
 10
2.66E+002
 20
9.0631385E+001
 40
2.0
  1
KM2
 41
7.5E-001
  0
TEXT
  8
1
  6
CONTINUOUS
 62
7
 10
2.735E+002
 20
9.0631385E+001
 40
2.0
  1
KM1
 41
7.5E-001
  0
TEXT
  8
1
  6
CONTINUOUS
 62
7
 10
2.26E+002
 20
9.0675963E+001
 40
2.0
  1
KM3
 41
7.5E-001
  0
TEXT
  8
1
  6
CONTINUOUS
 62
7
 10
2.49E+002
 20
9.0675963E+001
 40
2.0
  1
KM2
 41
7.5E-001
  0
TEXT
  8
1
  6
CONTINUOUS
 62
7
 10
2.5375E+002
 20
9.5044578E+001
 40
2.0
  1
21
 41
7.5E-001
 50
9.0E+001
  0
TEXT
  8
1
  6
CONTINUOUS
 62
7
 10
2.5375E+002
 20
8.6044578E+001
 40
2.0
  1
22
 41
7.5E-001
 50
9.0E+001
  0
TEXT
  8
1
  6
CONTINUOUS
 62
7
 10
2.3075E+002
 20
9.5044578E+001
 40
2.0
  1
21
 41
7.5E-001
 50
9.0E+001
  0
TEXT
  8
1
  6
CONTINUOUS
 62
7
 10
2.3075E+002
 20
8.6044578E+001
 40
2.0
  1
22
 41
7.5E-001
 50
9.0E+001
  0
LINE
  8
1
  6
CONTINUOUS
 62
7
 10
2.725E+002
 20
9.948785E+001
 11
2.8E+002
 21
9.948785E+001
  0
LINE
  8
1
  6
CONTINUOUS
 62
7
 10
2.8E+002
 20
9.948785E+001
 11
2.8E+002
 21
1.24E+002
  0
LINE
  8
1
  6
CONTINUOUS
 62
7
 10
2.44E+002
 20
1.2048785E+002
 11
2.8E+002
 21
1.2048785E+002
  0
LINE
  8
1
  6
CONTINUOUS
 62
7
 10
2.8E+002
 20
8.548785E+001
 11
2.8E+002
 21
8.0E+001
  0
TEXT
  8
1
  6
CONTINUOUS
 62
7
 10
2.7925E+002
 20
1.31E+002
 40
2.0
  1
23
 41
7.5E-001
 50
9.0E+001
  0
TEXT
  8
1
  6
CONTINUOUS
 62
7
 10
2.735E+002
 20
1.2663138E+002
 40
2.0
  1
KM1
 41
7.5E-001
  0
TEXT
  8
1
  6
CONTINUOUS
 62
7
 10
2.7925E+002
 20
1.22E+002
 40
2.0
  1
24
 41
7.5E-001
 50
9.0E+001
  0
LINE
  8
1
  6
CONTINUOUS
 62
7
 10
2.8E+002
 20
1.25E+002
 11
2.78E+002
 21
1.3E+002
  0
LINE
  8
1
  6
CONTINUOUS
 62
7
 10
2.8E+002
 20
1.25E+002
 11
2.8E+002
 21
1.2048785E+002
  0
TEXT
  8
1
  6
CONTINUOUS
 62
7
 10
2.8025E+002
 20
2.3098785E+002
 40
2.25
  1
(1) DS
 41
7.5E-001
  0
LINE
  8
1
  6
CONTINUOUS
 62
7
 10
2.8E+002
 20
1.3548785E+002
 11
2.8E+002
 21
1.2901286E+002
  0
LINE
  8
1
  6
CONTINUOUS
 62
7
 10
2.8E+002
 20
9.948785E+001
 11
2.8E+002
 21
9.4012863E+001
  0
LINE
  8
1
  6
CONTINUOUS
 62
7
 10
2.725E+002
 20
9.948785E+001
 11
2.725E+002
 21
9.4012863E+001
  0
LINE
  8
1
  6
CONTINUOUS
 62
7
 10
2.505E+002
 20
7.7E+001
 11
2.585E+002
 21
7.7E+001
  0
LINE
  8
1
  6
CONTINUOUS
 62
7
 10
2.275E+002
 20
7.7E+001
 11
2.355E+002
 21
7.7E+001
  0
LINE
  8
1
  6
CONTINUOUS
 62
7
 10
2.275E+002
 20
8.0E+001
 11
2.355E+002
 21
8.0E+001
  0
LINE
  8
1
  6
CONTINUOUS
 62
7
 10
2.505E+002
 20
8.0E+001
 11
2.585E+002
 21
8.0E+001
  0
LINE
  8
1
  6
CONTINUOUS
 62
7
 10
2.275E+002
 20
8.0E+001
 11
2.275E+002
 21
7.7E+001
  0
LINE
  8
1
  6
CONTINUOUS
 62
7
 10
2.355E+002
 20
8.0E+001
 11
2.355E+002
 21
7.7E+001
  0
LINE
  8
1
  6
CONTINUOUS
 62
7
 10
2.505E+002
 20
8.0E+001
 11
2.505E+002
 21
7.7E+001
  0
LINE
  8
1
  6
CONTINUOUS
 62
7
 10
2.585E+002
 20
8.0E+001
 11
2.585E+002
 21
7.7E+001
  0
LINE
  8
1
  6
CONTINUOUS
 62
7
 10
2.545E+002
 20
7.7E+001
 11
2.545E+002
 21
7.2E+001
  0
LINE
  8
1
  6
CONTINUOUS
 62
7
 10
2.315E+002
 20
7.7E+001
 11
2.315E+002
 21
7.2E+001
  0
LINE
  8
1
  6
CONTINUOUS
 62
7
 10
2.76E+002
 20
7.7E+001
 11
2.84E+002
 21
7.7E+001
  0
LINE
  8
1
  6
CONTINUOUS
 62
7
 10
2.76E+002
 20
8.0E+001
 11
2.84E+002
 21
8.0E+001
  0
LINE
  8
1
  6
CONTINUOUS
 62
7
 10
2.76E+002
 20
8.0E+001
 11
2.76E+002
 21
7.7E+001
  0
LINE
  8
1
  6
CONTINUOUS
 62
7
 10
2.84E+002
 20
8.0E+001
 11
2.84E+002
 21
7.7E+001
  0
LINE
  8
1
  6
CONTINUOUS
 62
7
 10
2.8E+002
 20
7.7E+001
 11
2.8E+002
 21
7.2E+001
  0
LINE
  8
1
  6
CONTINUOUS
 62
7
 10
2.38E+002
 20
1.1048785E+002
 11
2.4E+002
 21
1.1048785E+002
  0
LINE
  8
1
  6
CONTINUOUS
 62
7
 10
2.44E+002
 20
1.1048785E+002
 11
2.44E+002
 21
1.2048785E+002
  0
LINE
  8
1
  6
CONTINUOUS
 62
7
 10
2.44E+002
 20
1.0548785E+002
 11
2.44E+002
 21
1.0336986E+002
  0
LINE
  8
1
  6
CONTINUOUS
 62
7
 10
2.38E+002
 20
1.0548785E+002
 11
2.39E+002
 21
1.1148785E+002
  0
LINE
  8
1
  6
CONTINUOUS
 62
7
 10
2.44E+002
 20
1.0548785E+002
 11
2.42E+002
 21
1.1048785E+002
  0
TEXT
  8
1
  6
CONTINUOUS
 62
7
 10
2.4325E+002
 20
1.1273785E+002
 40
2.0
  1
15
 41
7.5E-001
 50
9.0E+001
  0
LINE
  8
1
  6
CONTINUOUS
 62
7
 10
2.3305051E+002
 20
1.0848785E+002
 11
2.385E+002
 21
1.0848785E+002
  0
LINE
  8
1
  6
CONTINUOUS
 62
7
 10
2.3305051E+002
 20
1.0748785E+002
 11
2.3841667E+002
 21
1.0748785E+002
  0
LINE
  8
1
  6
CONTINUOUS
 62
7
 10
2.38E+002
 20
1.0548785E+002
 11
2.38E+002
 21
1.0336986E+002
  0
LINE
  8
1
  6
CONTINUOUS
 62
7
 10
2.38E+002
 20
1.1048785E+002
 11
2.38E+002
 21
1.1248785E+002
  0
LINE
  8
1
  6
HIDDEN
 62
7
 10
2.3841667E+002
 20
1.0798785E+002
 11
2.4905051E+002
 21
1.0798785E+002
  0
ARC
  8
1
  6
CONTINUOUS
 62
7
 10
2.355E+002
 20
1.0798785E+002
 40
2.5
 50
1.1356542E+002
 51
2.4643458E+002
  0
LINE
  8
1
  6
CONTINUOUS
 62
7
 10
2.315E+002
 20
1.1248785E+002
 11
2.38E+002
 21
1.1248785E+002
  0
LINE
  8
1
  6
CONTINUOUS
 62
7
 10
2.315E+002
 20
1.1248785E+002
 11
2.315E+002
 21
9.4044578E+001
  0
LINE
  8
1
  6
CONTINUOUS
 62
7
 10
2.44E+002
 20
1.0336986E+002
 11
2.38E+002
 21
1.0336986E+002
  0
TEXT
  8
1
  6
CONTINUOUS
 62
7
 10
2.3075E+002
 20
9.968785E+001
 40
2.0
  1
16
 41
7.5E-001
 50
9.0E+001
  0
LINE
  8
1
  6
CONTINUOUS
 62
7
 10
2.44E+002
 20
1.1248785E+002
 11
2.545E+002
 21
1.1248785E+002
  0
LINE
  8
1
  6
CONTINUOUS
 62
7
 10
2.59E+002
 20
1.0598785E+002
 11
2.59E+002
 21
1.0998785E+002
  0
LINE
  8
1
  6
CONTINUOUS
 62
7
 10
2.545E+002
 20
1.0548785E+002
 11
2.525E+002
 21
1.1048785E+002
  0
LINE
  8
1
  6
CONTINUOUS
 62
7
 10
2.4955051E+002
 20
1.0848785E+002
 11
2.533E+002
 21
1.0848785E+002
  0
LINE
  8
1
  6
CONTINUOUS
 62
7
 10
2.4955051E+002
 20
1.0748785E+002
 11
2.537E+002
 21
1.0748785E+002
  0
LINE
  8
1
  6
CONTINUOUS
 62
7
 10
2.545E+002
 20
1.0548785E+002
 11
2.545E+002
 21
9.4044578E+001
  0
LINE
  8
1
  6
CONTINUOUS
 62
7
 10
2.545E+002
 20
1.1048785E+002
 11
2.545E+002
 21
1.1248785E+002
  0
ARC
  8
1
  6
CONTINUOUS
 62
7
 10
2.52E+002
 20
1.0798785E+002
 40
2.5
 50
1.1356542E+002
 51
2.4643458E+002
  0
LINE
  8
1
  6
CONTINUOUS
 62
7
 10
2.67E+002
 20
1.0598785E+002
 11
2.67E+002
 21
1.0998785E+002
  0
LINE
  8
1
  6
CONTINUOUS
 62
7
 10
2.69E+002
 20
1.0598785E+002
 11
2.69E+002
 21
1.0998785E+002
  0
LINE
  8
1
  6
CONTINUOUS
 62
7
 10
2.59E+002
 20
1.0998785E+002
 11
2.69E+002
 21
1.0998785E+002
  0
LINE
  8
1
  6
CONTINUOUS
 62
7
 10
2.59E+002
 20
1.0598785E+002
 11
2.69E+002
 21
1.0598785E+002
  0
LINE
  8
1
  6
CONTINUOUS
 62
7
 10
2.69E+002
 20
1.0998785E+002
 11
2.67E+002
 21
1.0598785E+002
  0
LINE
  8
1
  6
CONTINUOUS
 62
7
 10
2.67E+002
 20
1.0998785E+002
 11
2.69E+002
 21
1.0598785E+002
  0
LINE
  8
1
  6
CONTINUOUS
 62
7
 10
2.63E+002
 20
1.0998785E+002
 11
2.63E+002
 21
1.2048785E+002
  0
LINE
  8
1
  6
CONTINUOUS
 62
7
 10
2.63E+002
 20
1.0598785E+002
 11
2.63E+002
 21
7.2E+001
  0
LINE
  8
1
  6
HIDDEN
 62
7
 10
2.535E+002
 20
1.0798785E+002
 11
2.59E+002
 21
1.0798785E+002
  0
TEXT
  8
1
  6
CONTINUOUS
 62
7
 10
2.625E+002
 20
1.1303785E+002
 40
2.0
  1
A1
 41
7.5E-001
 50
9.0E+001
  0
TEXT
  8
1
  6
CONTINUOUS
 62
7
 10
2.6225E+002
 20
9.988785E+001
 40
2.0
  1
A2
 41
7.5E-001
 50
9.0E+001
  0
TEXT
  8
1
  6
CONTINUOUS
 62
7
 10
2.29E+002
 20
1.1348785E+002
 40
2.0
  1
KT
 41
7.5E-001
  0
TEXT
  8
1
  6
CONTINUOUS
 62
7
 10
2.4425E+002
 20
1.0293785E+002
 40
2.0
  1
t1+t2
 41
7.5E-001
  0
TEXT
  8
1
  6
CONTINUOUS
 62
7
 10
2.3225E+002
 20
1.0293785E+002
 40
2.0
  1
t1
 41
7.5E-001
  0
TEXT
  8
1
  6
CONTINUOUS
 62
7
 10
2.5375E+002
 20
9.968785E+001
 40
2.0
  1
18
 41
7.5E-001
 50
9.0E+001
  0
TEXT
  8
1
  6
CONTINUOUS
 62
7
 10
2.7925E+002
 20
8.1E+001
 40
2.0
  1
A1
 41
7.5E-001
 50
9.0E+001
  0
TEXT
  8
1
  6
CONTINUOUS
 62
7
 10
2.7925E+002
 20
7.3E+001
 40
2.0
  1
A2
 41
7.5E-001
 50
9.0E+001
  0
TEXT
  8
1
  6
CONTINUOUS
 62
7
 10
2.5375E+002
 20
8.1E+001
 40
2.0
  1
A1
 41
7.5E-001
 50
9.0E+001
  0
TEXT
  8
1
  6
CONTINUOUS
 62
7
 10
2.0115703E+002
 20
2.08E+002
 40
2.0
  1
97
 41
7.5E-001
 50
9.0E+001
  0
TEXT
  8
1
  6
CONTINUOUS
 62
7
 10
2.0115703E+002
 20
1.99E+002
 40
2.0
  1
98
 41
7.5E-001
 50
9.0E+001
  0
TEXT
  8
1
  6
CONTINUOUS
 62
7
 10
2.5375E+002
 20
7.3E+001
 40
2.0
  1
A2
 41
7.5E-001
 50
9.0E+001
  0
TEXT
  8
1
  6
CONTINUOUS
 62
7
 10
2.3075E+002
 20
8.1E+001
 40
2.0
  1
A1
 41
7.5E-001
 50
9.0E+001
  0
TEXT
  8
1
  6
CONTINUOUS
 62
7
 10
2.3075E+002
 20
7.3E+001
 40
2.0
  1
A2
 41
7.5E-001
 50
9.0E+001
  0
LINE
  8
1
  6
CONTINUOUS
 62
7
 10
2.44E+002
 20
1.3548785E+002
 11
2.8E+002
 21
1.3548785E+002
  0
LINE
  8
1
  6
CONTINUOUS
 62
7
 10
2.44E+002
 20
1.5498785E+002
 11
2.44E+002
 21
1.3548785E+002
  0
LINE
  8
1
  6
CONTINUOUS
 62
7
 10
2.5334157E+002
 20
6.8881385E+001
 11
2.5565843E+002
 21
6.8881385E+001
  0
LINE
  8
1
  6
CONTINUOUS
 62
7
 10
2.545E+002
 20
7.088785E+001
 11
2.5334157E+002
 21
6.8881385E+001
  0
LINE
  8
1
  6
CONTINUOUS
 62
7
 10
2.545E+002
 20
7.088785E+001
 11
2.5565843E+002
 21
6.8881385E+001
  0
LINE
  8
1
  6
CONTINUOUS
 62
7
 10
1.4634157E+002
 20
6.8881385E+001
 11
1.4865843E+002
 21
6.8881385E+001
  0
LINE
  8
1
  6
CONTINUOUS
 62
7
 10
1.475E+002
 20
7.088785E+001
 11
1.4634157E+002
 21
6.8881385E+001
  0
LINE
  8
1
  6
CONTINUOUS
 62
7
 10
1.475E+002
 20
7.088785E+001
 11
1.4865843E+002
 21
6.8881385E+001
  0
TEXT
  8
1
  6
CONTINUOUS
 62
7
 10
3.2525E+002
 20
1.465E+002
 40
2.0
  1
98
 41
7.5E-001
 50
9.0E+001
  0
TEXT
  8
1
  6
CONTINUOUS
 62
7
 10
3.2525E+002
 20
1.56E+002
 40
2.0
  1
97
 41
7.5E-001
 50
9.0E+001
  0
LINE
  8
1
  6
CONTINUOUS
 62
7
 10
3.54E+002
 20
1.71E+002
 11
3.54E+002
 21
8.05E+001
  0
LINE
  8
1
  6
CONTINUOUS
 62
7
 10
2.92E+002
 20
7.2E+001
 11
3.01E+002
 21
7.2E+001
  0
LINE
  8
1
  6
CONTINUOUS
 62
7
 10
3.2981946E+002
 20
1.71E+002
 11
3.45E+002
 21
1.71E+002
  0
CIRCLE
  8
1
  6
CONTINUOUS
 62
7
 10
3.54E+002
 20
7.85E+001
 40
2.0
  0
LINE
  8
1
  6
CONTINUOUS
 62
7
 10
3.5258579E+002
 20
7.9914214E+001
 11
3.5541421E+002
 21
7.7085786E+001
  0
LINE
  8
1
  6
CONTINUOUS
 62
7
 10
3.5541421E+002
 20
7.9914214E+001
 11
3.5258579E+002
 21
7.7085786E+001
  0
LINE
  8
1
  6
CONTINUOUS
 62
7
 10
3.54E+002
 20
7.65E+001
 11
3.54E+002
 21
7.2E+001
  0
CIRCLE
  8
1
  6
CONTINUOUS
 62
7
 10
3.45E+002
 20
7.85E+001
 40
2.0
  0
LINE
  8
1
  6
CONTINUOUS
 62
7
 10
3.4358579E+002
 20
7.9914214E+001
 11
3.4641421E+002
 21
7.7085786E+001
  0
LINE
  8
1
  6
CONTINUOUS
 62
7
 10
3.4641421E+002
 20
7.9914214E+001
 11
3.4358579E+002
 21
7.7085786E+001
  0
CIRCLE
  8
1
  6
CONTINUOUS
 62
7
 10
3.36E+002
 20
7.85E+001
 40
2.0
  0
LINE
  8
1
  6
CONTINUOUS
 62
7
 10
3.3458579E+002
 20
7.9914214E+001
 11
3.3741421E+002
 21
7.7085786E+001
  0
LINE
  8
1
  6
CONTINUOUS
 62
7
 10
3.3741421E+002
 20
7.9914214E+001
 11
3.3458579E+002
 21
7.7085786E+001
  0
LINE
  8
1
  6
CONTINUOUS
 62
7
 10
3.45E+002
 20
7.65E+001
 11
3.45E+002
 21
7.2E+001
  0
LINE
  8
1
  6
CONTINUOUS
 62
7
 10
3.36E+002
 20
7.65E+001
 11
3.36E+002
 21
7.2E+001
  0
LINE
  8
1
  6
CONTINUOUS
 62
7
 10
3.4801514E+002
 20
7.2E+001
 11
3.54E+002
 21
7.2E+001
  0
LINE
  8
1
  6
CONTINUOUS
 62
7
 10
3.3914408E+002
 20
7.2E+001
 11
3.45E+002
 21
7.2E+001
  0
LINE
  8
1
  6
CONTINUOUS
 62
7
 10
3.45E+002
 20
8.05E+001
 11
3.45E+002
 21
1.030317E+002
  0
LINE
  8
1
  6
CONTINUOUS
 62
7
 10
3.36E+002
 20
8.05E+001
 11
3.36E+002
 21
1.48E+002
  0
LINE
  8
1
  6
CONTINUOUS
 62
7
 10
3.26E+002
 20
8.0E+001
 11
3.26E+002
 21
8.9044578E+001
  0
LINE
  8
1
  6
CONTINUOUS
 62
7
 10
3.22E+002
 20
8.0E+001
 11
3.22E+002
 21
7.7E+001
  0
TEXT
  8
1
  6
CONTINUOUS
 62
7
 10
3.188E+002
 20
7.7631385E+001
 40
2.0
  1
DR
 41
7.5E-001
  0
LINE
  8
1
  6
CONTINUOUS
 62
7
 10
3.22E+002
 20
8.0E+001
 11
3.3E+002
 21
8.0E+001
  0
LINE
  8
1
  6
CONTINUOUS
 62
7
 10
3.22E+002
 20
7.7E+001
 11
3.3E+002
 21
7.7E+001
  0
LINE
  8
1
  6
CONTINUOUS
 62
7
 10
3.3E+002
 20
8.0E+001
 11
3.3E+002
 21
7.7E+001
  0
LINE
  8
1
  6
CONTINUOUS
 62
7
 10
3.26E+002
 20
7.7E+001
 11
3.26E+002
 21
7.2E+001
  0
TEXT
  8
1
  6
CONTINUOUS
 62
7
 10
3.308E+002
 20
7.7631385E+001
 40
2.0
  1
H9
 41
7.5E-001
  0
TEXT
  8
1
  6
CONTINUOUS
 62
7
 10
3.3985956E+002
 20
7.7631385E+001
 40
2.0
  1
H2
 41
7.5E-001
  0
TEXT
  8
1
  6
CONTINUOUS
 62
7
 10
3.4885956E+002
 20
7.7631385E+001
 40
2.0
  1
H3
 41
7.5E-001
  0
LINE
  8
1
  6
CONTINUOUS
 62
7
 10
3.085E+002
 20
8.0E+001
 11
3.085E+002
 21
7.7E+001
  0
TEXT
  8
1
  6
CONTINUOUS
 62
7
 10
3.053E+002
 20
7.7631385E+001
 40
2.0
  1
DS
 41
7.5E-001
  0
LINE
  8
1
  6
CONTINUOUS
 62
7
 10
3.085E+002
 20
8.0E+001
 11
3.165E+002
 21
8.0E+001
  0
LINE
  8
1
  6
CONTINUOUS
 62
7
 10
3.085E+002
 20
7.7E+001
 11
3.165E+002
 21
7.7E+001
  0
LINE
  8
1
  6
CONTINUOUS
 62
7
 10
3.165E+002
 20
8.0E+001
 11
3.165E+002
 21
7.7E+001
  0
LINE
  8
1
  6
CONTINUOUS
 62
7
 10
3.125E+002
 20
7.7E+001
 11
3.125E+002
 21
7.2E+001
  0
LINE
  8
1
  6
CONTINUOUS
 62
7
 10
3.125E+002
 20
8.0E+001
 11
3.125E+002
 21
8.9044578E+001
  0
TEXT
  8
1
  6
CONTINUOUS
 62
7
 10
2.958E+002
 20
7.7631385E+001
 40
2.0
  1
H1
 41
7.5E-001
  0
LINE
  8
1
  6
CONTINUOUS
 62
7
 10
3.0241421E+002
 20
7.9914214E+001
 11
2.9958579E+002
 21
7.7085786E+001
  0
LINE
  8
1
  6
CONTINUOUS
 62
7
 10
2.9958579E+002
 20
7.9914214E+001
 11
3.0241421E+002
 21
7.7085786E+001
  0
CIRCLE
  8
1
  6
CONTINUOUS
 62
7
 10
3.01E+002
 20
7.85E+001
 40
2.0
  0
LINE
  8
1
  6
CONTINUOUS
 62
7
 10
3.01E+002
 20
8.05E+001
 11
3.01E+002
 21
8.6E+001
  0
LINE
  8
1
  6
CONTINUOUS
 62
7
 10
3.01E+002
 20
7.65E+001
 11
3.01E+002
 21
7.2E+001
  0
LINE
  8
1
  6
CONTINUOUS
 62
7
 10
3.4801514E+002
 20
1.71E+002
 11
3.54E+002
 21
1.71E+002
  0
LINE
  8
1
  6
CONTINUOUS
 62
7
 10
3.45E+002
 20
1.080317E+002
 11
3.47E+002
 21
1.080317E+002
  0
LINE
  8
1
  6
CONTINUOUS
 62
7
 10
3.45E+002
 20
1.030317E+002
 11
3.46E+002
 21
1.090317E+002
  0
TEXT
  8
1
  6
CONTINUOUS
 62
7
 10
3.395E+002
 20
1.0466309E+002
 40
2.0
  1
KM3
 41
7.5E-001
  0
TEXT
  8
1
  6
CONTINUOUS
 62
7
 10
3.4425E+002
 20
1.090317E+002
 40
2.0
  1
31
 41
7.5E-001
 50
9.0E+001
  0
TEXT
  8
1
  6
CONTINUOUS
 62
7
 10
3.4425E+002
 20
1.000317E+002
 40
2.0
  1
32
 41
7.5E-001
 50
9.0E+001
  0
LINE
  8
1
  6
CONTINUOUS
 62
7
 10
3.45E+002
 20
1.220317E+002
 11
3.47E+002
 21
1.220317E+002
  0
LINE
  8
1
  6
CONTINUOUS
 62
7
 10
3.45E+002
 20
1.170317E+002
 11
3.46E+002
 21
1.230317E+002
  0
TEXT
  8
1
  6
CONTINUOUS
 62
7
 10
3.4425E+002
 20
1.230317E+002
 40
2.0
  1
31
 41
7.5E-001
 50
9.0E+001
  0
TEXT
  8
1
  6
CONTINUOUS
 62
7
 10
3.4425E+002
 20
1.140317E+002
 40
2.0
  1
32
 41
7.5E-001
 50
9.0E+001
  0
TEXT
  8
1
  6
CONTINUOUS
 62
7
 10
3.395E+002
 20
1.1866309E+002
 40
2.0
  1
KM2
 41
7.5E-001
  0
LINE
  8
1
  6
HIDDEN
 62
7
 10
3.25E+002
 20
1.525E+002
 11
3.29E+002
 21
1.525E+002
  0
LINE
  8
1
  6
CONTINUOUS
 62
7
 10
3.29E+002
 20
1.5301215E+002
 11
3.31E+002
 21
1.5301215E+002
  0
LINE
  8
1
  6
CONTINUOUS
 62
7
 10
3.29E+002
 20
1.5201215E+002
 11
3.31E+002
 21
1.5201215E+002
  0
LINE
  8
1
  6
CONTINUOUS
 62
7
 10
3.31E+002
 20
1.5201215E+002
 11
3.31E+002
 21
1.5101215E+002
  0
LINE
  8
1
  6
CONTINUOUS
 62
7
 10
3.29E+002
 20
1.5301215E+002
 11
3.29E+002
 21
1.5201215E+002
  0
TEXT
  8
1
  6
CONTINUOUS
 62
7
 10
3.315E+002
 20
1.5164353E+002
 40
2.0
  1
FR1
 41
7.5E-001
  0
LINE
  8
1
  6
CONTINUOUS
 62
7
 10
3.31E+002
 20
1.5301215E+002
 11
3.31E+002
 21
1.5401215E+002
  0
LINE
  8
1
  6
CONTINUOUS
 62
7
 10
3.335E+002
 20
1.48E+002
 11
3.36E+002
 21
1.48E+002
  0
TEXT
  8
1
  6
CONTINUOUS
 62
7
 10
3.3E+002
 20
1.47E+002
 40
2.0
  1
98
 41
7.5E-001
  0
LINE
  8
1
  6
CONTINUOUS
 62
7
 10
3.45E+002
 20
1.220317E+002
 11
3.45E+002
 21
1.71E+002
  0
LINE
  8
1
  6
CONTINUOUS
 62
7
 10
3.45E+002
 20
1.080317E+002
 11
3.45E+002
 21
1.170317E+002
  0
LINE
  8
1
  6
CONTINUOUS
 62
7
 10
3.26E+002
 20
1.71E+002
 11
3.015E+002
 21
1.71E+002
  0
LINE
  8
1
  6
CONTINUOUS
 62
7
 10
2.92E+002
 20
1.4448785E+002
 11
3.125E+002
 21
1.4448785E+002
  0
LINE
  8
1
  6
CONTINUOUS
 62
7
 10
3.125E+002
 20
8.9044578E+001
 11
3.105E+002
 21
9.4044578E+001
  0
LINE
  8
1
  6
CONTINUOUS
 62
7
 10
3.08E+002
 20
9.3544578E+001
 11
3.065E+002
 21
9.3544578E+001
  0
TEXT
  8
1
  6
CONTINUOUS
 62
7
 10
3.032E+002
 20
9.0544578E+001
 40
2.0
  1
S1
 41
7.5E-001
  0
LINE
  8
1
  6
CONTINUOUS
 62
7
 10
3.065E+002
 20
9.3544578E+001
 11
3.065E+002
 21
8.9544578E+001
  0
LINE
  8
1
  6
CONTINUOUS
 62
7
 10
3.08E+002
 20
8.9544578E+001
 11
3.065E+002
 21
8.9544578E+001
  0
LINE
  8
1
  6
HIDDEN
 62
7
 10
3.115E+002
 20
9.1544578E+001
 11
3.065E+002
 21
9.1544578E+001
  0
LINE
  8
1
  6
CONTINUOUS
 62
7
 10
3.26E+002
 20
8.9044578E+001
 11
3.24E+002
 21
9.4044578E+001
  0
LINE
  8
1
  6
CONTINUOUS
 62
7
 10
3.215E+002
 20
9.3544578E+001
 11
3.2E+002
 21
9.3544578E+001
  0
TEXT
  8
1
  6
CONTINUOUS
 62
7
 10
3.167E+002
 20
9.0544578E+001
 40
2.0
  1
S2
 41
7.5E-001
  0
LINE
  8
1
  6
CONTINUOUS
 62
7
 10
3.2E+002
 20
9.3544578E+001
 11
3.2E+002
 21
8.9544578E+001
  0
LINE
  8
1
  6
CONTINUOUS
 62
7
 10
3.215E+002
 20
8.9544578E+001
 11
3.2E+002
 21
8.9544578E+001
  0
LINE
  8
1
  6
HIDDEN
 62
7
 10
3.25E+002
 20
9.1544578E+001
 11
3.2E+002
 21
9.1544578E+001
  0
TEXT
  8
1
  6
CONTINUOUS
 62
7
 10
2.885E+002
 20
1.4348785E+002
 40
2.0
  1
96
 41
7.5E-001
  0
LINE
  8
1
  6
SHORT_DASH
 62
7
 10
2.9245462E+002
 20
1.68E+002
 11
3.0454107E+002
 21
1.68E+002
  0
LINE
  8
1
  6
CONTINUOUS
 62
7
 10
3.0454107E+002
 20
1.68E+002
 11
3.0454107E+002
 21
1.71E+002
  0
INSERT
  2
*TX429
  8
1
 10
2.8895462E+002
 20
1.6997596E+002
  0
LINE
  8
1
  6
CONTINUOUS
 62
7
 10
3.0330898E+002
 20
7.2E+001
 11
3.125E+002
 21
7.2E+001
  0
LINE
  8
1
  6
CONTINUOUS
 62
7
 10
3.1525856E+002
 20
7.2E+001
 11
3.26E+002
 21
7.2E+001
  0
LINE
  8
1
  6
CONTINUOUS
 62
7
 10
3.2819223E+002
 20
7.2E+001
 11
3.36E+002
 21
7.2E+001
  0
TEXT
  8
1
  6
CONTINUOUS
 62
7
 10
2.885E+002
 20
7.1E+001
 40
2.0
  1
A2
 41
7.5E-001
  0
LINE
  8
1
  6
CONTINUOUS
 62
7
 10
2.9804492E+002
 20
8.6E+001
 11
3.01E+002
 21
8.6E+001
  0
TEXT
  8
1
  6
CONTINUOUS
 62
7
 10
2.885E+002
 20
8.5E+001
 40
2.0
  1
KM1:A1
 41
7.5E-001
  0
LINE
  8
1
  6
CONTINUOUS
 62
7
 10
3.025E+002
 20
8.7044578E+001
 11
3.025E+002
 21
8.8046949E+001
  0
LINE
  8
1
  6
CONTINUOUS
 62
7
 10
3.26E+002
 20
9.3997426E+001
 11
3.26E+002
 21
1.5E+002
  0
LINE
  8
1
  6
CONTINUOUS
 62
7
 10
3.125E+002
 20
9.4E+001
 11
3.125E+002
 21
1.4448785E+002
  0
TEXT
  8
1
  6
CONTINUOUS
 62
7
 10
1.7225E+002
 20
8.1E+001
 40
2.0
  1
A1
 41
7.5E-001
 50
9.0E+001
  0
TEXT
  8
1
  6
CONTINUOUS
 62
7
 10
1.7225E+002
 20
7.3E+001
 40
2.0
  1
A2
 41
7.5E-001
 50
9.0E+001
  0
TEXT
  8
1
  6
CONTINUOUS
 62
7
 10
1.4675E+002
 20
8.1E+001
 40
2.0
  1
A1
 41
7.5E-001
 50
9.0E+001
  0
TEXT
  8
1
  6
CONTINUOUS
 62
7
 10
1.4675E+002
 20
7.3E+001
 40
2.0
  1
A2
 41
7.5E-001
 50
9.0E+001
  0
TEXT
  8
1
  6
CONTINUOUS
 62
7
 10
1.2375E+002
 20
8.1E+001
 40
2.0
  1
A1
 41
7.5E-001
 50
9.0E+001
  0
TEXT
  8
1
  6
CONTINUOUS
 62
7
 10
1.2375E+002
 20
7.3E+001
 40
2.0
  1
A2
 41
7.5E-001
 50
9.0E+001
  0
TEXT
  8
1
  6
CONTINUOUS
 62
7
 10
3.1175E+002
 20
8.1E+001
 40
2.0
  1
E1
 41
7.5E-001
 50
9.0E+001
  0
TEXT
  8
1
  6
CONTINUOUS
 62
7
 10
3.1175E+002
 20
7.3E+001
 40
2.0
  1
E2
 41
7.5E-001
 50
9.0E+001
  0
TEXT
  8
1
  6
CONTINUOUS
 62
7
 10
3.2525E+002
 20
8.1E+001
 40
2.0
  1
E1
 41
7.5E-001
 50
9.0E+001
  0
TEXT
  8
1
  6
CONTINUOUS
 62
7
 10
3.2525E+002
 20
7.3E+001
 40
2.0
  1
E2
 41
7.5E-001
 50
9.0E+001
  0
TEXT
  8
1
  6
CONTINUOUS
 62
7
 10
3.0025E+002
 20
8.1E+001
 40
2.0
  1
X1
 41
7.5E-001
 50
9.0E+001
  0
TEXT
  8
1
  6
CONTINUOUS
 62
7
 10
3.0025E+002
 20
7.3E+001
 40
2.0
  1
X2
 41
7.5E-001
 50
9.0E+001
  0
TEXT
  8
1
  6
CONTINUOUS
 62
7
 10
3.3525E+002
 20
8.1E+001
 40
2.0
  1
X1
 41
7.5E-001
 50
9.0E+001
  0
TEXT
  8
1
  6
CONTINUOUS
 62
7
 10
3.3525E+002
 20
7.3E+001
 40
2.0
  1
X2
 41
7.5E-001
 50
9.0E+001
  0
TEXT
  8
1
  6
CONTINUOUS
 62
7
 10
3.4425E+002
 20
8.1E+001
 40
2.0
  1
X1
 41
7.5E-001
 50
9.0E+001
  0
TEXT
  8
1
  6
CONTINUOUS
 62
7
 10
3.4425E+002
 20
7.3E+001
 40
2.0
  1
X2
 41
7.5E-001
 50
9.0E+001
  0
TEXT
  8
1
  6
CONTINUOUS
 62
7
 10
3.5325E+002
 20
8.1E+001
 40
2.0
  1
X1
 41
7.5E-001
 50
9.0E+001
  0
TEXT
  8
1
  6
CONTINUOUS
 62
7
 10
3.5325E+002
 20
7.3E+001
 40
2.0
  1
X2
 41
7.5E-001
 50
9.0E+001
  0
LINE
  8
1
  6
CONTINUOUS
 62
7
 10
3.025E+002
 20
9.6044578E+001
 11
3.0745408E+002
 21
9.6044578E+001
  0
LINE
  8
1
  6
CONTINUOUS
 62
7
 10
3.085E+002
 20
9.6044578E+001
 11
3.095923E+002
 21
9.6044578E+001
  0
LINE
  8
1
  6
CONTINUOUS
 62
7
 10
3.105E+002
 20
9.6044578E+001
 11
3.145E+002
 21
9.6044578E+001
  0
LINE
  8
1
  6
CONTINUOUS
 62
7
 10
3.025E+002
 20
8.9044578E+001
 11
3.025E+002
 21
9.4044578E+001
  0
LINE
  8
1
  6
CONTINUOUS
 62
7
 10
3.145E+002
 20
9.6044578E+001
 11
3.145E+002
 21
9.5044578E+001
  0
LINE
  8
1
  6
CONTINUOUS
 62
7
 10
3.145E+002
 20
9.4044578E+001
 11
3.145E+002
 21
8.9184979E+001
  0
LINE
  8
1
  6
CONTINUOUS
 62
7
 10
3.145E+002
 20
8.7044578E+001
 11
3.095E+002
 21
8.7044578E+001
  0
LINE
  8
1
  6
CONTINUOUS
 62
7
 10
3.145E+002
 20
8.8044578E+001
 11
3.145E+002
 21
8.7044578E+001
  0
LINE
  8
1
  6
CONTINUOUS
 62
7
 10
3.085E+002
 20
8.7044578E+001
 11
3.075E+002
 21
8.7044578E+001
  0
LINE
  8
1
  6
CONTINUOUS
 62
7
 10
3.065E+002
 20
8.7044578E+001
 11
3.025E+002
 21
8.7044578E+001
  0
LINE
  8
1
  6
CONTINUOUS
 62
7
 10
3.025E+002
 20
9.5044578E+001
 11
3.025E+002
 21
9.6044578E+001
  0
LINE
  8
1
  6
CONTINUOUS
 62
7
 10
3.28E+002
 20
8.8044578E+001
 11
3.28E+002
 21
8.7044578E+001
  0
LINE
  8
1
  6
CONTINUOUS
 62
7
 10
3.28E+002
 20
8.7044578E+001
 11
3.23E+002
 21
8.7044578E+001
  0
LINE
  8
1
  6
CONTINUOUS
 62
7
 10
3.28E+002
 20
9.4044578E+001
 11
3.28E+002
 21
8.9184979E+001
  0
LINE
  8
1
  6
CONTINUOUS
 62
7
 10
3.28E+002
 20
9.6044578E+001
 11
3.28E+002
 21
9.5044578E+001
  0
LINE
  8
1
  6
CONTINUOUS
 62
7
 10
3.24E+002
 20
9.6044578E+001
 11
3.28E+002
 21
9.6044578E+001
  0
LINE
  8
1
  6
CONTINUOUS
 62
7
 10
3.16E+002
 20
9.6044578E+001
 11
3.2095408E+002
 21
9.6044578E+001
  0
LINE
  8
1
  6
CONTINUOUS
 62
7
 10
3.16E+002
 20
9.5044578E+001
 11
3.16E+002
 21
9.6044578E+001
  0
LINE
  8
1
  6
CONTINUOUS
 62
7
 10
3.16E+002
 20
8.9044578E+001
 11
3.16E+002
 21
9.4044578E+001
  0
LINE
  8
1
  6
CONTINUOUS
 62
7
 10
3.16E+002
 20
8.7044578E+001
 11
3.16E+002
 21
8.8046949E+001
  0
LINE
  8
1
  6
CONTINUOUS
 62
7
 10
3.2E+002
 20
8.7044578E+001
 11
3.16E+002
 21
8.7044578E+001
  0
LINE
  8
1
  6
CONTINUOUS
 62
7
 10
3.22E+002
 20
8.7044578E+001
 11
3.21E+002
 21
8.7044578E+001
  0
LINE
  8
1
  6
CONTINUOUS
 62
7
 10
3.22E+002
 20
9.6044578E+001
 11
3.230923E+002
 21
9.6044578E+001
  0
INSERT
  2
A3N
  8
1
 10
1.9E+001
 20
1.1E+001
 66
1
  0
ATTRIB
  8
1
  6
CONTINUOUS
 62
5
 10
3.8449644E+002
 20
3.8E+001
 40
2.0
  1
 
 41
6.5E-001
 11
3.8449644E+002
 21
3.7E+001
  2
ANCIEN_ Plan
 70
0
 73
2
 74
2
  0
ATTRIB
  8
1
  6
CONTINUOUS
 62
5
 10
3.9049644E+002
 20
2.2E+001
 40
4.0
  1
FPTS307891
 41
7.5E-001
 72
1
 11
3.7549644E+002
 21
2.0E+001
  2
N°PLAN
 70
0
 73
2
 74
2
  0
ATTRIB
  8
1
  6
CONTINUOUS
 62
5
 10
3.8449644E+002
 20
3.4005401E+001
 40
2.0
  1
 
 41
7.5E-001
 11
3.8449644E+002
 21
3.3005401E+001
  2
N°OEM
 70
0
 73
2
 74
2
  0
ATTRIB
  8
1
  6
CONTINUOUS
 62
5
 10
3.342958E+002
 20
2.48E+001
 40
1.6
  1
DEMARREUR ETOILE-TRAINGLE A9...110 (ETL)
 41
9.0E-001
 72
1
 11
3.054958E+002
 21
2.4E+001
  2
TYPE_PLAN
 70
0
 73
2
 74
2
  0
ATTRIB
  8
1
  6
CONTINUOUS
 62
5
 10
3.364333E+002
 20
2.125E+001
 40
2.5
  1
A9...110 STAR-DELTA STARTER (SDM)
 41
7.5E-001
 72
1
 11
3.054958E+002
 21
2.0E+001
  2
DESIGNATION_PLAN
 70
0
 73
2
 74
2
  0
ATTRIB
  8
1
  6
CONTINUOUS
 62
5
 10
4.079333E+002
 20
1.975E+001
 40
2.5
  1
A
 41
7.5E-001
 72
1
 11
4.069958E+002
 21
1.85E+001
  2
ID
 70
0
 73
2
 74
2
  0
ATTRIB
  8
1
  6
CONTINUOUS
 62
5
 10
3.7475484E+002
 20
2.7659209E+001
 40
2.75
  1
A3
 41
7.5E-001
 72
1
 11
3.7269234E+002
 21
2.6284209E+001
  2
A?
 70
0
 73
2
 74
2
  0
ATTRIB
  8
1
  6
CONTINUOUS
 62
5
 10
3.8642666E+002
 20
2.7659209E+001
 40
2.75
  1
1
 41
7.5E-001
 72
1
 11
3.8539541E+002
 21
2.6284209E+001
  2
Folio
 70
0
 73
2
 74
2
  0
ATTRIB
  8
1
  6
CONTINUOUS
 62
5
 10
3.9914468E+002
 20
2.7659209E+001
 40
2.75
  1
1
 41
7.5E-001
 72
1
 11
3.9811343E+002
 21
2.6284209E+001
  2
Folios
 70
0
 73
2
 74
2
  0
ATTRIB
  8
1
  6
CONTINUOUS
 62
5
 10
3.6733212E+002
 20
5.025E+001
 40
2.5
  1
EO-18636
 11
3.6733212E+002
 21
4.9E+001
  2
N°OE_Origine
 70
0
 73
2
 74
2
  0
ATTRIB
  8
1
  6
CONTINUOUS
 62
5
 10
3.6733212E+002
 20
4.6E+001
 40
2.0
  1
P.BLANCHET le 10.08.05
 41
7.5E-001
 11
3.6733212E+002
 21
4.5E+001
  2
CONTROLEUR_Origine
 70
0
 73
2
 74
2
  0
ATTRIB
  8
1
  6
CONTINUOUS
 62
5
 10
3.6733212E+002
 20
4.2E+001
 40
2.0
  1
C.ECOCHARD le 10.08.05
 41
7.5E-001
 11
3.6733212E+002
 21
4.1E+001
  2
DESSINATEUR_Origine
 70
0
 73
2
 74
2
  0
ATTRIB
  8
1
  6
CONTINUOUS
 62
5
 10
2.4293169E+002
 20
3.825E+001
 40
2.5
  1
A
 41
7.5E-001
 72
1
 11
2.4199419E+002
 21
3.7E+001
  2
ID1
 70
0
 73
2
 74
2
  0
ATTRIB
  8
1
  6
CONTINUOUS
 62
5
 10
2.4293169E+002
 20
4.225E+001
 40
2.5
  1
 
 41
7.5E-001
 72
1
 11
2.4199419E+002
 21
4.1E+001
  2
ID2
 70
0
 73
2
 74
2
  0
ATTRIB
  8
1
  6
CONTINUOUS
 62
5
 10
2.4293169E+002
 20
4.625E+001
 40
2.5
  1
 
 41
7.5E-001
 72
1
 11
2.4199419E+002
 21
4.5E+001
  2
ID3
 70
0
 73
2
 74
2
  0
ATTRIB
  8
1
  6
CONTINUOUS
 62
5
 10
2.4293169E+002
 20
5.025E+001
 40
2.5
  1
 
 41
7.5E-001
 72
1
 11
2.4199419E+002
 21
4.9E+001
  2
ID4
 70
0
 73
2
 74
2
  0
ATTRIB
  8
1
  6
CONTINUOUS
 62
5
 10
3.5874644E+002
 20
3.2551214E+001
 40
6.0
  1
/
 41
7.5E-001
 72
1
 11
3.5649644E+002
 21
2.9551214E+001
  2
Ech
 70
0
 73
2
 74
2
  0
ATTRIB
  8
1
  6
CONTINUOUS
 62
5
 10
2.4549419E+002
 20
3.7875E+001
 40
1.75
  1
Edition originale
 41
7.5E-001
 11
2.4549419E+002
 21
3.7E+001
  2
DESC-1
 70
0
 73
2
 74
2
  0
ATTRIB
  8
1
  6
CONTINUOUS
 62
5
 10
2.4549419E+002
 20
4.1875E+001
 40
1.75
  1
 
 41
7.5E-001
 11
2.4549419E+002
 21
4.1E+001
  2
DESC-2
 70
0
 73
2
 74
2
  0
ATTRIB
  8
1
  6
CONTINUOUS
 62
5
 10
2.4549419E+002
 20
4.5875E+001
 40
1.75
  1
 
 41
7.5E-001
 11
2.4549419E+002
 21
4.5E+001
  2
DESC-3
 70
0
 73
2
 74
2
  0
ATTRIB
  8
1
  6
CONTINUOUS
 62
5
 10
2.4549419E+002
 20
4.9875E+001
 40
1.75
  1
 
 41
7.5E-001
 11
2.4549419E+002
 21
4.9E+001
  2
DESC-4
 70
0
 73
2
 74
2
  0
ATTRIB
  8
1
  6
CONTINUOUS
 62
5
 10
3.1581644E+002
 20
3.79E+001
 40
1.8
  1
10.08.05
 41
6.0E-001
 72
1
 11
3.1149644E+002
 21
3.7E+001
  2
DATE1
 70
0
 73
2
 74
2
  0
ATTRIB
  8
1
  6
CONTINUOUS
 62
5
 10
3.1203644E+002
 20
4.19E+001
 40
1.8
  1
 
 41
6.0E-001
 72
1
 11
3.1149644E+002
 21
4.1E+001
  2
DATE2
 70
0
 73
2
 74
2
  0
ATTRIB
  8
1
  6
CONTINUOUS
 62
5
 10
3.1203644E+002
 20
4.59E+001
 40
1.8
  1
 
 41
6.0E-001
 72
1
 11
3.1149644E+002
 21
4.5E+001
  2
DATE3
 70
0
 73
2
 74
2
  0
ATTRIB
  8
1
  6
CONTINUOUS
 62
5
 10
3.1203644E+002
 20
4.99E+001
 40
1.8
  1
 
 41
6.0E-001
 72
1
 11
3.1149644E+002
 21
4.9E+001
  2
DATE4
 70
0
 73
2
 74
2
  0
ATTRIB
  8
1
  6
CONTINUOUS
 62
5
 10
3.2487144E+002
 20
3.79E+001
 40
1.8
  1
18636
 41
7.5E-001
 72
1
 11
3.2149644E+002
 21
3.7E+001
  2
OE1
 70
0
 73
2
 74
2
  0
ATTRIB
  8
1
  6
CONTINUOUS
 62
5
 10
3.2217144E+002
 20
4.19E+001
 40
1.8
  1
 
 41
7.5E-001
 72
1
 11
3.2149644E+002
 21
4.1E+001
  2
OE2
 70
0
 73
2
 74
2
  0
ATTRIB
  8
1
  6
CONTINUOUS
 62
5
 10
3.2217144E+002
 20
4.59E+001
 40
1.8
  1
 
 41
7.5E-001
 72
1
 11
3.2149644E+002
 21
4.5E+001
  2
OE3
 70
0
 73
2
 74
2
  0
ATTRIB
  8
1
  6
CONTINUOUS
 62
5
 10
3.2217144E+002
 20
4.99E+001
 40
1.8
  1
 
 41
7.5E-001
 72
1
 11
3.2149644E+002
 21
4.9E+001
  2
OE4
 70
0
 73
2
 74
2
  0
ATTRIB
  8
1
  6
CONTINUOUS
 62
5
 10
3.3134644E+002
 20
3.79E+001
 40
1.8
  1
CE
 41
7.5E-001
 72
1
 11
3.2999644E+002
 21
3.7E+001
  2
AUT1
 70
0
 73
2
 74
2
  0
ATTRIB
  8
1
  6
CONTINUOUS
 62
5
 10
3.3067144E+002
 20
4.19E+001
 40
1.8
  1
 
 41
7.5E-001
 72
1
 11
3.2999644E+002
 21
4.1E+001
  2
AUT2
 70
0
 73
2
 74
2
  0
ATTRIB
  8
1
  6
CONTINUOUS
 62
5
 10
3.3067144E+002
 20
4.59E+001
 40
1.8
  1
 
 41
7.5E-001
 72
1
 11
3.2999644E+002
 21
4.5E+001
  2
AUT3
 70
0
 73
2
 74
2
  0
ATTRIB
  8
1
  6
CONTINUOUS
 62
5
 10
3.3067144E+002
 20
4.99E+001
 40
1.8
  1
 
 41
7.5E-001
 72
1
 11
3.2999644E+002
 21
4.9E+001
  2
AUT4
 70
0
 73
2
 74
2
  0
ATTRIB
  8
1
  6
CONTINUOUS
 62
5
 10
3.3440529E+002
 20
3.79E+001
 40
1.8
  1
PB
 41
7.5E-001
 11
3.3440529E+002
 21
3.7E+001
  2
CONT1
 70
0
 73
2
 74
2
  0
ATTRIB
  8
1
  6
CONTINUOUS
 62
5
 10
3.3440529E+002
 20
4.19E+001
 40
1.8
  1
 
 41
7.5E-001
 11
3.3440529E+002
 21
4.1E+001
  2
CONT2
 70
0
 73
2
 74
2
  0
ATTRIB
  8
1
  6
CONTINUOUS
 62
5
 10
3.3440529E+002
 20
4.59E+001
 40
1.8
  1
 
 41
7.5E-001
 11
3.3440529E+002
 21
4.5E+001
  2
CONT3
 70
0
 73
2
 74
2
  0
ATTRIB
  8
1
  6
CONTINUOUS
 62
5
 10
3.3440529E+002
 20
4.99E+001
 40
1.8
  1
 
 41
7.5E-001
 11
3.3440529E+002
 21
4.9E+001
  2
CONT4
 70
0
 73
2
 74
2
  0
SEQEND
  0
ENDSEC
  0
EOF
