  0
SECTION
  2
HEADER
  9
$ACADVER
  1
AC1009
  9
$DWGCODEPAGE
  3
iso8859-1
  9
$INSBASE
 10
0.0
 20
0.0
 30
0.0
  9
$EXTMIN
 10
1.0E20
 20
1.0E20
  9
$EXTMAX
 10
-1.0E20
 20
-1.0E20
  9
$LIMMIN
 10
0.0
 20
0.0
  9
$LIMMAX
 10
12.0
 20
9.0
  9
$ORTHOMODE
 70
     0
  9
$REGENMODE
 70
     1
  9
$FILLMODE
 70
     1
  9
$QTEXTMODE
 70
     0
  9
$MIRRTEXT
 70
     1
  9
$DRAGMODE
 70
     2
  9
$LTSCALE
 40
15.0
  9
$OSMODE
 70
     0
  9
$ATTMODE
 70
     1
  9
$TEXTSIZE
 40
0.2
  9
$TRACEWID
 40
0.05
  9
$TEXTSTYLE
  7
STANDARD
  9
$CLAYER
  8
0
  9
$CELTYPE
  6
DASHED
  9
$CECOLOR
 62
   256
  9
$DIMSCALE
 40
1.0
  9
$DIMASZ
 40
0.18
  9
$DIMEXO
 40
0.0625
  9
$DIMDLI
 40
0.38
  9
$DIMRND
 40
0.0
  9
$DIMDLE
 40
0.0
  9
$DIMEXE
 40
0.18
  9
$DIMTP
 40
0.0
  9
$DIMTM
 40
0.0
  9
$DIMTXT
 40
0.18
  9
$DIMCEN
 40
0.09
  9
$DIMTSZ
 40
0.0
  9
$DIMTOL
 70
     0
  9
$DIMLIM
 70
     0
  9
$DIMTIH
 70
     1
  9
$DIMTOH
 70
     1
  9
$DIMSE1
 70
     0
  9
$DIMSE2
 70
     0
  9
$DIMTAD
 70
     0
  9
$DIMZIN
 70
     0
  9
$DIMBLK
  1

  9
$DIMASO
 70
     1
  9
$DIMSHO
 70
     1
  9
$DIMPOST
  1

  9
$DIMAPOST
  1

  9
$DIMALT
 70
     0
  9
$DIMALTD
 70
     2
  9
$DIMALTF
 40
25.4
  9
$DIMLFAC
 40
1.0
  9
$DIMTOFL
 70
     0
  9
$DIMTVP
 40
0.0
  9
$DIMTIX
 70
     0
  9
$DIMSOXD
 70
     0
  9
$DIMSAH
 70
     0
  9
$DIMBLK1
  1

  9
$DIMBLK2
  1

  9
$DIMSTYLE
  2
STANDARD
  9
$DIMCLRD
 70
     0
  9
$DIMCLRE
 70
     0
  9
$DIMCLRT
 70
     0
  9
$DIMTFAC
 40
1.0
  9
$DIMGAP
 40
0.09
  9
$LUNITS
 70
     2
  9
$LUPREC
 70
     4
  9
$AXISMODE
 70
     0
  9
$AXISUNIT
 10
0.0
 20
0.0
  9
$SKETCHINC
 40
0.1
  9
$FILLETRAD
 40
0.0
  9
$AUNITS
 70
     0
  9
$AUPREC
 70
     0
  9
$MENU
  1
acad
  9
$ELEVATION
 40
0.0
  9
$PELEVATION
 40
0.0
  9
$THICKNESS
 40
0.0
  9
$LIMCHECK
 70
     0
  9
$BLIPMODE
 70
     1
  9
$CHAMFERA
 40
0.0
  9
$CHAMFERB
 40
0.0
  9
$SKPOLY
 70
     0
  9
$TDCREATE
 40
0.000000000
  9
$TDUPDATE
 40
0.000000000
  9
$TDINDWG
 40
0.0
  9
$TDUSRTIMER
 40
0.0
  9
$USRTIMER
 70
     1
  9
$ANGBASE
 50
0.0
  9
$ANGDIR
 70
     0
  9
$PDMODE
 70
     0
  9
$PDSIZE
 40
0.0
  9
$PLINEWID
 40
0.0
  9
$COORDS
 70
     1
  9
$SPLFRAME
 70
     0
  9
$SPLINETYPE
 70
     6
  9
$SPLINESEGS
 70
     8
  9
$ATTDIA
 70
     0
  9
$ATTREQ
 70
     1
  9
$HANDLING
 70
     1
  9
$HANDSEED
  5
   718
  9
$SURFTAB1
 70
     6
  9
$SURFTAB2
 70
     6
  9
$SURFTYPE
 70
     6
  9
$SURFU
 70
     6
  9
$SURFV
 70
     6
  9
$UCSNAME
  2

  9
$UCSORG
 10
0.0
 20
0.0
 30
0.0
  9
$UCSXDIR
 10
1.0
 20
0.0
 30
0.0
  9
$UCSYDIR
 10
0.0
 20
1.0
 30
0.0
  9
$PUCSNAME
  2

  9
$PUCSORG
 10
0.0
 20
0.0
 30
0.0
  9
$PUCSXDIR
 10
1.0
 20
0.0
 30
0.0
  9
$PUCSYDIR
 10
0.0
 20
1.0
 30
0.0
  9
$USERI1
 70
     0
  9
$USERI2
 70
     0
  9
$USERI3
 70
     0
  9
$USERI4
 70
     0
  9
$USERI5
 70
     0
  9
$USERR1
 40
0.0
  9
$USERR2
 40
0.0
  9
$USERR3
 40
0.0
  9
$USERR4
 40
0.0
  9
$USERR5
 40
0.0
  9
$WORLDVIEW
 70
     1
  9
$SHADEDGE
 70
     3
  9
$SHADEDIF
 70
    70
  9
$TILEMODE
 70
     1
  9
$MAXACTVP
 70
    16
  9
$PINSBASE
 10
0.0
 20
0.0
 30
0.0
  9
$PLIMCHECK
 70
     0
  9
$PEXTMIN
 10
1.0E20
 20
1.0E20
 30
1.0E20
  9
$PEXTMAX
 10
-1.0E20
 20
-1.0E20
 30
-1.0E20
  9
$PLIMMIN
 10
0.0
 20
0.0
  9
$PLIMMAX
 10
12.0
 20
9.0
  9
$UNITMODE
 70
     0
  9
$VISRETAIN
 70
     0
  0
ENDSEC
  0
SECTION
  2
TABLES
  0
TABLE
  2
VPORT
 70
     1
  0
VPORT
  2
*ACTIVE
 70
     0
 10
0.0
 20
0.0
 11
1.0
 21
1.0
 12
6.801242
 22
4.5
 13
0.0
 23
0.0
 14
1.0
 24
1.0
 15
0.0
 25
0.0
 16
0.0
 26
0.0
 36
1.0
 17
0.0
 27
0.0
 37
0.0
 40
9.0
 41
1.511387
 42
50.0
 43
0.0
 44
0.0
 50
0.0
 51
0.0
 71
     0
 72
   100
 73
     1
 74
     1
 75
     0
 76
     0
 77
     0
 78
     0
  0
ENDTAB
  0
TABLE
  2
LTYPE
 70
    41
  0
LTYPE
  2
BYBLOCK
 70
     0
  3

 72
    65
 73
     0
 40
0.0
  0
LTYPE
  2
BYLAYER
 70
     0
  3

 72
    65
 73
     0
 40
0.0
  0
LTYPE
  2
CONTINUOUS
 70
     0
  3
Solid line
 72
    65
 73
     0
 40
0.0
  0
LTYPE
  2
BORDER
 70
    64
  3
__ __ . __ __ . __ __ . __ __ . __ __ . __ __ .
 72
    65
 73
     6
 40
1.75
 49
0.5
 49
-0.25
 49
0.5
 49
-0.25
 49
0.0
 49
-0.25
  0
LTYPE
  2
BORDER2
 70
    64
  3
__.__.__.__.__.__.__.__.__.__.__.__.__.__.__.__
 72
    65
 73
     6
 40
0.875
 49
0.25
 49
-0.125
 49
0.25
 49
-0.125
 49
0.0
 49
-0.125
  0
LTYPE
  2
BORDERX2
 70
    64
  3
____  ____  .  ____  ____  .  ____  ____  .  __
 72
    65
 73
     6
 40
3.5
 49
1.0
 49
-0.5
 49
1.0
 49
-0.5
 49
0.0
 49
-0.5
  0
LTYPE
  2
CENTER
 70
    64
  3
____ _ ____ _ ____ _ ____ _ ____ _ ____ _ ____
 72
    65
 73
     4
 40
2.0
 49
1.25
 49
-0.25
 49
0.25
 49
-0.25
  0
LTYPE
  2
CENTER2
 70
    64
  3
___ _ ___ _ ___ _ ___ _ ___ _ ___ _ ___ _ ___ _
 72
    65
 73
     4
 40
1.125
 49
0.75
 49
-0.125
 49
0.125
 49
-0.125
  0
LTYPE
  2
CENTERX2
 70
    64
  3
________  __  ________  __  ________  __  _____
 72
    65
 73
     4
 40
4.0
 49
2.5
 49
-0.5
 49
0.5
 49
-0.5
  0
LTYPE
  2
DASHDOT
 70
    64
  3
__ . __ . __ . __ . __ . __ . __ . __ . __ . __
 72
    65
 73
     4
 40
1.0
 49
0.5
 49
-0.25
 49
0.0
 49
-0.25
  0
LTYPE
  2
DASHDOT2
 70
    64
  3
_._._._._._._._._._._._._._._._._._._._._._._._
 72
    65
 73
     4
 40
0.5
 49
0.25
 49
-0.125
 49
0.0
 49
-0.125
  0
LTYPE
  2
DASHDOTX2
 70
    64
  3
____  .  ____  .  ____  .  ____  .  ____  .  __
 72
    65
 73
     4
 40
2.0
 49
1.0
 49
-0.5
 49
0.0
 49
-0.5
  0
LTYPE
  2
DASHED
 70
    64
  3
__ __ __ __ __ __ __ __ __ __ __ __ __ __ __ __
 72
    65
 73
     2
 40
0.75
 49
0.5
 49
-0.25
  0
LTYPE
  2
DASHED2
 70
    64
  3
_ _ _ _ _ _ _ _ _ _ _ _ _ _ _ _ _ _ _ _ _ _ _ _
 72
    65
 73
     2
 40
0.375
 49
0.25
 49
-0.125
  0
LTYPE
  2
DASHEDX2
 70
    64
  3
____  ____  ____  ____  ____  ____  ____  ____
 72
    65
 73
     2
 40
1.5
 49
1.0
 49
-0.5
  0
LTYPE
  2
DIVIDE
 70
    64
  3
____ . . ____ . . ____ . . ____ . . ____ . . __
 72
    65
 73
     6
 40
1.25
 49
0.5
 49
-0.25
 49
0.0
 49
-0.25
 49
0.0
 49
-0.25
  0
LTYPE
  2
DIVIDE2
 70
    64
  3
__..__..__..__..__..__..__..__..__..__..__..__.
 72
    65
 73
     6
 40
0.625
 49
0.25
 49
-0.125
 49
0.0
 49
-0.125
 49
0.0
 49
-0.125
  0
LTYPE
  2
DIVIDEX2
 70
    64
  3
________  .  .  ________  .  .  ________  .  .
 72
    65
 73
     6
 40
2.5
 49
1.0
 49
-0.5
 49
0.0
 49
-0.5
 49
0.0
 49
-0.5
  0
LTYPE
  2
DOT
 70
    64
  3
. . . . . . . . . . . . . . . . . . . . . . . .
 72
    65
 73
     2
 40
0.25
 49
0.0
 49
-0.25
  0
LTYPE
  2
DOT2
 70
    64
  3
...............................................
 72
    65
 73
     2
 40
0.125
 49
0.0
 49
-0.125
  0
LTYPE
  2
DOTX2
 70
    64
  3
.  .  .  .  .  .  .  .  .  .  .  .  .  .  .  .
 72
    65
 73
     2
 40
0.5
 49
0.0
 49
-0.5
  0
LTYPE
  2
HIDDEN
 70
    64
  3
__ __ __ __ __ __ __ __ __ __ __ __ __ __ __ __
 72
    65
 73
     2
 40
0.375
 49
0.25
 49
-0.125
  0
LTYPE
  2
HIDDEN2
 70
    64
  3
_ _ _ _ _ _ _ _ _ _ _ _ _ _ _ _ _ _ _ _ _ _ _ _
 72
    65
 73
     2
 40
0.1875
 49
0.125
 49
-0.0625
  0
LTYPE
  2
HIDDENX2
 70
    64
  3
____ ____ ____ ____ ____ ____ ____ ____ ____ __
 72
    65
 73
     2
 40
0.75
 49
0.5
 49
-0.25
  0
LTYPE
  2
PHANTOM
 70
    64
  3
______  __  __  ______  __  __  ______  __  __
 72
    65
 73
     6
 40
2.5
 49
1.25
 49
-0.25
 49
0.25
 49
-0.25
 49
0.25
 49
-0.25
  0
LTYPE
  2
PHANTOM2
 70
    64
  3
___ _ _ ___ _ _ ___ _ _ ___ _ _ ___ _ _ ___ _ _
 72
    65
 73
     6
 40
1.25
 49
0.625
 49
-0.125
 49
0.125
 49
-0.125
 49
0.125
 49
-0.125
  0
LTYPE
  2
PHANTOMX2
 70
    64
  3
____________    ____    ____    ____________
 72
    65
 73
     6
 40
5.0
 49
2.5
 49
-0.5
 49
0.5
 49
-0.5
 49
0.5
 49
-0.5
  0
LTYPE
  2
ACAD_ISO02W100
 70
    64
  3
__ __ __ __ __ __ __ __ __ __ __ __ __ __ __ __
 72
    65
 73
     2
 40
15.0
 49
12.0
 49
-3.0
  0
LTYPE
  2
ACAD_ISO03W100
 70
    64
  3
__    __    __    __    __    __    __    __
 72
    65
 73
     2
 40
30.0
 49
12.0
 49
-18.0
  0
LTYPE
  2
ACAD_ISO04W100
 70
    64
  3
____ . ____ . ____ . ____ . ____ . ____ . ____
 72
    65
 73
     4
 40
30.5
 49
24.0
 49
-3.0
 49
0.5
 49
-3.0
  0
LTYPE
  2
ACAD_ISO05W100
 70
    64
  3
____ .. ____ .. ____ .. ____ .. ____ .. ____ ..
 72
    65
 73
     6
 40
34.0
 49
24.0
 49
-3.0
 49
0.5
 49
-3.0
 49
0.5
 49
-3.0
  0
LTYPE
  2
ACAD_ISO06W100
 70
    64
  3
____ ... ____ ... ____ ... ____ ... ____ ... __
 72
    65
 73
     8
 40
37.5
 49
24.0
 49
-3.0
 49
0.5
 49
-3.0
 49
0.5
 49
-3.0
 49
0.5
 49
-3.0
  0
LTYPE
  2
ACAD_ISO07W100
 70
    64
  3
. . . . . . . . . . . . . . . . . . . . . . . .
 72
    65
 73
     2
 40
3.5
 49
0.5
 49
-3.0
  0
LTYPE
  2
ACAD_ISO08W100
 70
    64
  3
____ __ ____ __ ____ __ ____ ____ __ __ ____ __
 72
    65
 73
     4
 40
36.0
 49
24.0
 49
-3.0
 49
6.0
 49
-3.0
  0
LTYPE
  2
ACAD_ISO09W100
 70
    64
  3
____ __ __ ____ __ __ ____ __ __ ____ __ __ ___
 72
    65
 73
     6
 40
45.0
 49
24.0
 49
-3.0
 49
6.0
 49
-3.0
 49
6.0
 49
-3.0
  0
LTYPE
  2
ACAD_ISO10W100
 70
    64
  3
__ . __ . __ . __ . __ . __ . __ . __ . __ . __
 72
    65
 73
     4
 40
18.5
 49
12.0
 49
-3.0
 49
0.5
 49
-3.0
  0
LTYPE
  2
ACAD_ISO11W100
 70
    64
  3
__ __ . __ __ . __ __ . __ __ . __ __ . __ __ .
 72
    65
 73
     6
 40
33.5
 49
12.0
 49
-3.0
 49
12.0
 49
-3.0
 49
0.5
 49
-3.0
  0
LTYPE
  2
ACAD_ISO12W100
 70
    64
  3
__ . . __ . . __ . . __ . . __ . . __ . . __ .
 72
    65
 73
     6
 40
22.0
 49
12.0
 49
-3.0
 49
0.5
 49
-3.0
 49
0.5
 49
-3.0
  0
LTYPE
  2
ACAD_ISO13W100
 70
    64
  3
__ __ . . __ __ . . __ __ . . __ __ . . __ __ .
 72
    65
 73
     8
 40
37.0
 49
12.0
 49
-3.0
 49
12.0
 49
-3.0
 49
0.5
 49
-3.0
 49
0.5
 49
-3.0
  0
LTYPE
  2
ACAD_ISO14W100
 70
    64
  3
__ . . . __ . . . __ . . . __ . . . __ . . . __
 72
    65
 73
     8
 40
25.5
 49
12.0
 49
-3.0
 49
0.5
 49
-3.0
 49
0.5
 49
-3.0
 49
0.5
 49
-3.0
  0
LTYPE
  2
ACAD_ISO15W100
 70
    64
  3
__ __ . . . __ __ . . . __ __ . . . __ __ . . .
 72
    65
 73
    10
 40
40.5
 49
12.0
 49
-3.0
 49
12.0
 49
-3.0
 49
0.5
 49
-3.0
 49
0.5
 49
-3.0
 49
0.5
 49
-3.0
  0
ENDTAB
  0
TABLE
  2
STYLE
 70
     4
  0
STYLE
  2
STANDARD
 70
    64
 40
0.0
 41
1.0
 50
0.0
 71
     0
 42
0.2
  3
txt
  4

  0
STYLE
  2
TOLERANCE
 70
    64
 40
0.0
 41
1.0
 50
0.0
 71
     0
 42
0.2
  3
../igesfont/iges1003.shx
  4

  0
STYLE
  2
ROMANS
 70
    64
 40
0.0
 41
1.0
 50
0.0
 71
     0
 42
0.2
  3
romans.shx
  4

  0
STYLE
  2
ROMANC
 70
    64
 40
0.0
 41
1.0
 50
0.0
 71
     0
 42
0.2
  3
romanc.shx
  4

  0
ENDTAB
  0
TABLE
  2
DIMSTYLE
 70
     2
  0
DIMSTYLE
  2
UNNAMED
 70
     0
  3

  4

  5

  6

  7

 40
1.0
 41
0.18
 42
0.0625
 43
0.38
 44
0.18
 45
0.0
 46
0.0
 47
0.0
 48
0.0
140
0.18
141
0.09
142
0.0
143
25.4
144
1.0
145
0.0
146
1.0
147
0.09
 71
     0
 72
     0
 73
     1
 74
     1
 75
     0
 76
     0
 77
     0
 78
     0
170
     0
171
     2
172
     0
173
     0
174
     0
175
     0
176
     0
177
     0
178
     0
  0
DIMSTYLE
  2
STANDARD
 70
     0
  3

  4

  5

  6

  7

 40
1.0
 41
0.18
 42
0.0625
 43
0.38
 44
0.18
 45
0.0
 46
0.0
 47
0.0
 48
0.0
140
0.18
141
0.09
142
0.0
143
25.4
144
1.0
145
0.0
146
1.0
147
0.09
 71
     0
 72
     0
 73
     1
 74
     1
 75
     0
 76
     0
 77
     0
 78
     0
170
     0
171
     2
172
     0
173
     0
174
     0
175
     0
176
     0
177
     0
178
     0
  0
ENDTAB
  0
TABLE
  2
LAYER
 70
     2
  0
LAYER
  2
0
 70
     0
 62
     7
  6
CONTINUOUS
  0
LAYER
  2
255
 70
     0
 62
     7
  6
CONTINUOUS
  0
ENDTAB
  0
ENDSEC
  0
SECTION
  2
BLOCKS
  0
BLOCK
  5
     B
  8
0
  6
CONTINUOUS
 62
     7
  2
TC_M5_INTAG____F
 70
    64
 10
0.0
 20
0.0
 30
0.0
  3
TC_M5_INTAG____F
  0
CIRCLE
  5
     C
  8
0
  6
CONTINUOUS
 62
     3
 10
0.0
 20
0.0
 30
0.0
 40
4.25
  0
LINE
  5
     D
  8
0
  6
CONTINUOUS
 62
     3
 10
-4.20743389728228
 20
0.6
 30
0.0
 11
4.20743389728228
 21
0.6
 31
0.0
  0
LINE
  5
     E
  8
0
  6
CONTINUOUS
 62
     3
 10
-4.20743389728228
 20
-0.6
 30
0.0
 11
4.20743389728228
 21
-0.6
 31
0.0
  0
LINE
  5
     F
  8
0
  6
DASHDOT
 62
     7
 10
0.0
 20
-6.25
 30
0.0
 11
0.0
 21
6.25
 31
0.0
  0
LINE
  5
    10
  8
0
  6
DASHDOT
 62
     7
 10
-6.25
 20
0.0
 30
0.0
 11
6.25
 21
0.0
 31
0.0
  0
ENDBLK
  5
    11
  8
0
  6
CONTINUOUS
 62
     7
  0
BLOCK
  5
    12
  8
0
  6
CONTINUOUS
 62
     7
  2
TB_M8_ESAGONO__F
 70
    64
 10
0.0
 20
0.0
 30
0.0
  3
TB_M8_ESAGONO__F
  0
CIRCLE
  5
    13
  8
0
  6
CONTINUOUS
 62
     3
 10
0.0
 20
0.0
 30
0.0
 40
7.0
  0
LINE
  5
    14
  8
0
  6
CONTINUOUS
 62
     3
 10
-2.5
 20
-1.44337567297406
 30
0.0
 11
-2.5
 21
1.44337567297406
 31
0.0
  0
LINE
  5
    15
  8
0
  6
CONTINUOUS
 62
     3
 10
2.5
 20
-1.44337567297406
 30
0.0
 11
2.5
 21
1.44337567297406
 31
0.0
  0
LINE
  5
    16
  8
0
  6
CONTINUOUS
 62
     3
 10
-2.5
 20
1.44337567297406
 30
0.0
 11
-4.44089209850063E-16
 21
2.88675134594813
 31
0.0
  0
LINE
  5
    17
  8
0
  6
CONTINUOUS
 62
     3
 10
4.44089209850063E-16
 20
2.88675134594813
 30
0.0
 11
2.5
 21
1.44337567297406
 31
0.0
  0
LINE
  5
    18
  8
0
  6
CONTINUOUS
 62
     3
 10
-2.5
 20
-1.44337567297406
 30
0.0
 11
-4.44089209850063E-16
 21
-2.88675134594813
 31
0.0
  0
LINE
  5
    19
  8
0
  6
CONTINUOUS
 62
     3
 10
4.44089209850063E-16
 20
-2.88675134594813
 30
0.0
 11
2.5
 21
-1.44337567297406
 31
0.0
  0
CIRCLE
  5
    1A
  8
0
  6
CONTINUOUS
 62
     3
 10
-6.66133814775093E-17
 20
-5.76888805915069E-16
 30
0.0
 40
2.88675134594813
  0
LINE
  5
    1B
  8
0
  6
DASHDOT
 62
     7
 10
0.0
 20
-12.0
 30
0.0
 11
0.0
 21
12.0
 31
0.0
  0
LINE
  5
    1C
  8
0
  6
DASHDOT
 62
     7
 10
-12.0
 20
0.0
 30
0.0
 11
12.0
 21
0.0
 31
0.0
  0
ENDBLK
  5
    1D
  8
0
  6
CONTINUOUS
 62
     7
  0
BLOCK
  5
    1E
  8
0
  6
CONTINUOUS
 62
     0
  2
$1ON-OFF
 70
    64
 10
0.0
 20
0.0
 30
0.0
  3
$1ON-OFF
  0
LINE
  5
    1F
  8
0
  6
CONTINUOUS
 62
     0
 10
5.09999999999999
 20
-29.65
 30
0.0
 11
5.54999999999999
 21
-29.65
 31
0.0
  0
LINE
  5
    20
  8
0
  6
CONTINUOUS
 62
     0
 10
3.79999999999999
 20
-37.35
 30
0.0
 11
4.59999999999999
 21
-37.35
 31
0.0
  0
LINE
  5
    21
  8
0
  6
CONTINUOUS
 62
     0
 10
-2.6
 20
-34.75
 30
0.0
 11
-2.6
 21
-34.25
 31
0.0
  0
LINE
  5
    22
  8
0
  6
CONTINUOUS
 62
     0
 10
2.6
 20
-34.75
 30
0.0
 11
2.6
 21
-34.25
 31
0.0
  0
ARC
  5
    23
  8
0
  6
CONTINUOUS
 62
     0
 10
-3.5527136788005E-15
 20
-34.25
 30
0.0
 40
2.6
 50
0.0
 51
180.0
  0
ARC
  5
    24
  8
0
  6
CONTINUOUS
 62
     0
 10
-3.5527136788005E-15
 20
-34.75
 30
0.0
 40
2.6
 50
180.0
 51
360.0
  0
ARC
  5
    25
  8
0
  6
CONTINUOUS
 62
     0
 10
-3.5527136788005E-15
 20
-34.25
 30
0.0
 40
1.8
 50
0.0
 51
180.0
  0
ARC
  5
    26
  8
0
  6
CONTINUOUS
 62
     0
 10
-3.5527136788005E-15
 20
-34.75
 30
0.0
 40
1.8
 50
180.0
 51
360.0
  0
LINE
  5
    27
  8
0
  6
CONTINUOUS
 62
     0
 10
-1.8
 20
-34.75
 30
0.0
 11
-1.8
 21
-34.25
 31
0.0
  0
LINE
  5
    28
  8
0
  6
CONTINUOUS
 62
     0
 10
1.8
 20
-34.75
 30
0.0
 11
1.8
 21
-34.25
 31
0.0
  0
LINE
  5
    29
  8
0
  6
CONTINUOUS
 62
     0
 10
2.84999999999999
 20
-32.85
 30
0.0
 11
2.84999999999999
 21
-32.05
 31
0.0
  0
LINE
  5
    2A
  8
0
  6
CONTINUOUS
 62
     0
 10
2.84999999999999
 20
-32.85
 30
0.0
 11
3.79999999999999
 21
-32.85
 31
0.0
  0
LINE
  5
    2B
  8
0
  6
CONTINUOUS
 62
     0
 10
5.54999999999999
 20
-32.85
 30
0.0
 11
5.54999999999999
 21
-32.05
 31
0.0
  0
LINE
  5
    2C
  8
0
  6
CONTINUOUS
 62
     0
 10
2.84999999999999
 20
-32.05
 30
0.0
 11
3.79999999999999
 21
-32.05
 31
0.0
  0
LINE
  5
    2D
  8
0
  6
CONTINUOUS
 62
     0
 10
3.79999999999999
 20
-37.35
 30
0.0
 11
3.79999999999999
 21
-32.85
 31
0.0
  0
LINE
  5
    2E
  8
0
  6
CONTINUOUS
 62
     0
 10
4.59999999999999
 20
-37.35
 30
0.0
 11
4.59999999999999
 21
-32.85
 31
0.0
  0
LINE
  5
    2F
  8
0
  6
CONTINUOUS
 62
     0
 10
4.59999999999999
 20
-32.85
 30
0.0
 11
5.54999999999999
 21
-32.85
 31
0.0
  0
LINE
  5
    30
  8
0
  6
CONTINUOUS
 62
     0
 10
4.59999999999999
 20
-32.05
 30
0.0
 11
5.54999999999999
 21
-32.05
 31
0.0
  0
LINE
  5
    31
  8
0
  6
CONTINUOUS
 62
     0
 10
3.79999999999999
 20
-32.05
 30
0.0
 11
3.79999999999999
 21
-30.95
 31
0.0
  0
LINE
  5
    32
  8
0
  6
CONTINUOUS
 62
     0
 10
4.59999999999999
 20
-32.05
 30
0.0
 11
4.59999999999999
 21
-30.95
 31
0.0
  0
ARC
  5
    33
  8
0
  6
CONTINUOUS
 62
     0
 10
5.09999999999999
 20
-30.95
 30
0.0
 40
1.3
 50
89.9999999999999
 51
180.0
  0
ARC
  5
    34
  8
0
  6
CONTINUOUS
 62
     0
 10
5.09999999999999
 20
-30.95
 30
0.0
 40
0.5
 50
89.9999999999999
 51
180.0
  0
LINE
  5
    35
  8
0
  6
CONTINUOUS
 62
     0
 10
5.54999999999999
 20
-30.45
 30
0.0
 11
5.54999999999999
 21
-29.65
 31
0.0
  0
LINE
  5
    36
  8
0
  6
CONTINUOUS
 62
     0
 10
5.09999999999999
 20
-30.45
 30
0.0
 11
5.54999999999999
 21
-30.45
 31
0.0
  0
LINE
  5
    37
  8
0
  6
CONTINUOUS
 62
     0
 10
8.29999999999998
 20
-29.65
 30
0.0
 11
8.74999999999999
 21
-29.65
 31
0.0
  0
LINE
  5
    38
  8
0
  6
CONTINUOUS
 62
     0
 10
6.99999999999999
 20
-37.35
 30
0.0
 11
7.79999999999999
 21
-37.35
 31
0.0
  0
LINE
  5
    39
  8
0
  6
CONTINUOUS
 62
     0
 10
6.04999999999999
 20
-32.85
 30
0.0
 11
6.04999999999999
 21
-32.05
 31
0.0
  0
LINE
  5
    3A
  8
0
  6
CONTINUOUS
 62
     0
 10
6.04999999999999
 20
-32.85
 30
0.0
 11
6.99999999999999
 21
-32.85
 31
0.0
  0
LINE
  5
    3B
  8
0
  6
CONTINUOUS
 62
     0
 10
8.74999999999999
 20
-32.85
 30
0.0
 11
8.74999999999999
 21
-32.05
 31
0.0
  0
LINE
  5
    3C
  8
0
  6
CONTINUOUS
 62
     0
 10
6.04999999999999
 20
-32.05
 30
0.0
 11
6.99999999999999
 21
-32.05
 31
0.0
  0
LINE
  5
    3D
  8
0
  6
CONTINUOUS
 62
     0
 10
6.99999999999999
 20
-37.35
 30
0.0
 11
6.99999999999999
 21
-32.85
 31
0.0
  0
LINE
  5
    3E
  8
0
  6
CONTINUOUS
 62
     0
 10
7.79999999999999
 20
-37.35
 30
0.0
 11
7.79999999999999
 21
-32.85
 31
0.0
  0
LINE
  5
    3F
  8
0
  6
CONTINUOUS
 62
     0
 10
7.79999999999999
 20
-32.85
 30
0.0
 11
8.74999999999999
 21
-32.85
 31
0.0
  0
LINE
  5
    40
  8
0
  6
CONTINUOUS
 62
     0
 10
7.79999999999999
 20
-32.05
 30
0.0
 11
8.74999999999999
 21
-32.05
 31
0.0
  0
LINE
  5
    41
  8
0
  6
CONTINUOUS
 62
     0
 10
6.99999999999999
 20
-32.05
 30
0.0
 11
6.99999999999999
 21
-30.95
 31
0.0
  0
LINE
  5
    42
  8
0
  6
CONTINUOUS
 62
     0
 10
7.79999999999999
 20
-32.05
 30
0.0
 11
7.79999999999999
 21
-30.95
 31
0.0
  0
ARC
  5
    43
  8
0
  6
CONTINUOUS
 62
     0
 10
8.29999999999998
 20
-30.95
 30
0.0
 40
1.3
 50
89.9999999999999
 51
180.0
  0
ARC
  5
    44
  8
0
  6
CONTINUOUS
 62
     0
 10
8.29999999999998
 20
-30.95
 30
0.0
 40
0.5
 50
89.9999999999999
 51
180.0
  0
LINE
  5
    45
  8
0
  6
CONTINUOUS
 62
     0
 10
8.74999999999999
 20
-30.45
 30
0.0
 11
8.74999999999999
 21
-29.65
 31
0.0
  0
LINE
  5
    46
  8
0
  6
CONTINUOUS
 62
     0
 10
8.29999999999998
 20
-30.45
 30
0.0
 11
8.74999999999999
 21
-30.45
 31
0.0
  0
LINE
  5
    47
  8
0
  6
CONTINUOUS
 62
     0
 10
3.4
 20
-2.85000000000002
 30
0.0
 11
4.19999999999999
 21
-2.85000000000002
 31
0.0
  0
ARC
  5
    48
  8
0
  6
CONTINUOUS
 62
     0
 10
-3.5527136788005E-15
 20
0.249999999999979
 30
0.0
 40
2.6
 50
0.0
 51
180.0
  0
ARC
  5
    49
  8
0
  6
CONTINUOUS
 62
     0
 10
-3.5527136788005E-15
 20
0.249999999999979
 30
0.0
 40
1.8
 50
0.0
 51
180.0
  0
ARC
  5
    4A
  8
0
  6
CONTINUOUS
 62
     0
 10
-3.5527136788005E-15
 20
-0.250000000000018
 30
0.0
 40
2.6
 50
180.0
 51
360.0
  0
ARC
  5
    4B
  8
0
  6
CONTINUOUS
 62
     0
 10
-3.5527136788005E-15
 20
-0.250000000000018
 30
0.0
 40
1.8
 50
180.0
 51
360.0
  0
LINE
  5
    4C
  8
0
  6
CONTINUOUS
 62
     0
 10
1.8
 20
-0.250000000000018
 30
0.0
 11
1.8
 21
0.249999999999979
 31
0.0
  0
LINE
  5
    4D
  8
0
  6
CONTINUOUS
 62
     0
 10
2.6
 20
-0.250000000000018
 30
0.0
 11
2.6
 21
0.249999999999979
 31
0.0
  0
LINE
  5
    4E
  8
0
  6
CONTINUOUS
 62
     0
 10
-1.8
 20
-0.250000000000032
 30
0.0
 11
-1.8
 21
0.249999999999964
 31
0.0
  0
LINE
  5
    4F
  8
0
  6
CONTINUOUS
 62
     0
 10
-2.6
 20
-0.250000000000018
 30
0.0
 11
-2.6
 21
0.249999999999979
 31
0.0
  0
LINE
  5
    50
  8
0
  6
CONTINUOUS
 62
     0
 10
3.4
 20
-2.85000000000002
 30
0.0
 11
3.4
 21
2.84999999999998
 31
0.0
  0
LINE
  5
    51
  8
0
  6
CONTINUOUS
 62
     0
 10
4.19999999999999
 20
-2.85000000000002
 30
0.0
 11
4.19999999999999
 21
0.649999999999981
 31
0.0
  0
LINE
  5
    52
  8
0
  6
CONTINUOUS
 62
     0
 10
6.99999999999999
 20
-2.85000000000002
 30
0.0
 11
6.99999999999999
 21
0.649999999999981
 31
0.0
  0
LINE
  5
    53
  8
0
  6
CONTINUOUS
 62
     0
 10
7.79999999999999
 20
-2.85000000000002
 30
0.0
 11
7.79999999999999
 21
0.84999999999998
 31
0.0
  0
LINE
  5
    54
  8
0
  6
CONTINUOUS
 62
     0
 10
3.4
 20
2.84999999999998
 30
0.0
 11
4.19999999999999
 21
2.84999999999998
 31
0.0
  0
ARC
  5
    55
  8
0
  6
CONTINUOUS
 62
     0
 10
5.59999999999999
 20
0.649999999999981
 30
0.0
 40
1.4
 50
0.0
 51
180.0
  0
LINE
  5
    56
  8
0
  6
CONTINUOUS
 62
     0
 10
4.19999999999999
 20
2.05
 30
0.0
 11
4.19999999999999
 21
2.84999999999998
 31
0.0
  0
ARC
  5
    57
  8
0
  6
CONTINUOUS
 62
     0
 10
5.79999999999999
 20
0.84999999999998
 30
0.0
 40
2.0
 50
0.0
 51
143.130102354155
  0
LINE
  5
    58
  8
0
  6
CONTINUOUS
 62
     0
 10
6.99999999999999
 20
-2.85000000000002
 30
0.0
 11
7.79999999999999
 21
-2.85000000000002
 31
0.0
  0
ENDBLK
  5
    59
  8
0
  6
CONTINUOUS
 62
     0
  0
BLOCK
  5
    5A
  8
0
  6
CONTINUOUS
 62
     0
  2
TC_M4_CROCE____F
 70
    64
 10
0.0
 20
0.0
 30
0.0
  3
TC_M4_CROCE____F
  0
CIRCLE
  5
    5B
  8
0
  6
CONTINUOUS
 62
     0
 10
0.0
 20
0.0
 30
0.0
 40
4.0
  0
LINE
  5
    5C
  8
0
  6
CONTINUOUS
 62
     0
 10
-2.3
 20
0.565
 30
0.0
 11
-0.565
 21
0.565
 31
0.0
  0
LINE
  5
    5D
  8
0
  6
CONTINUOUS
 62
     0
 10
-2.3
 20
-0.565
 30
0.0
 11
-0.565
 21
-0.565
 31
0.0
  0
LINE
  5
    5E
  8
0
  6
CONTINUOUS
 62
     0
 10
-0.565
 20
-2.3
 30
0.0
 11
-0.565
 21
-0.565
 31
0.0
  0
LINE
  5
    5F
  8
0
  6
CONTINUOUS
 62
     0
 10
0.565
 20
-2.3
 30
0.0
 11
0.565
 21
-0.565
 31
0.0
  0
LINE
  5
    60
  8
0
  6
CONTINUOUS
 62
     0
 10
-0.565
 20
2.3
 30
0.0
 11
0.565
 21
2.3
 31
0.0
  0
LINE
  5
    61
  8
0
  6
CONTINUOUS
 62
     0
 10
-0.565
 20
-2.3
 30
0.0
 11
0.565
 21
-2.3
 31
0.0
  0
LINE
  5
    62
  8
0
  6
CONTINUOUS
 62
     0
 10
-2.3
 20
-0.565
 30
0.0
 11
-2.3
 21
0.565
 31
0.0
  0
LINE
  5
    63
  8
0
  6
CONTINUOUS
 62
     0
 10
2.3
 20
-0.565
 30
0.0
 11
2.3
 21
0.565
 31
0.0
  0
LINE
  5
    64
  8
0
  6
CONTINUOUS
 62
     0
 10
0.565
 20
0.565
 30
0.0
 11
2.3
 21
0.565
 31
0.0
  0
LINE
  5
    65
  8
0
  6
CONTINUOUS
 62
     0
 10
0.565
 20
-0.565
 30
0.0
 11
2.3
 21
-0.565
 31
0.0
  0
LINE
  5
    66
  8
0
  6
CONTINUOUS
 62
     0
 10
0.565
 20
0.565
 30
0.0
 11
0.565
 21
2.3
 31
0.0
  0
LINE
  5
    67
  8
0
  6
CONTINUOUS
 62
     0
 10
-0.565
 20
0.565
 30
0.0
 11
-0.565
 21
2.3
 31
0.0
  0
LINE
  5
    68
  8
0
  6
DASHDOT
 62
     0
 10
0.0
 20
-6.0
 30
0.0
 11
0.0
 21
6.0
 31
0.0
  0
LINE
  5
    69
  8
0
  6
DASHDOT
 62
     0
 10
-6.0
 20
0.0
 30
0.0
 11
6.0
 21
0.0
 31
0.0
  0
ENDBLK
  5
    6A
  8
0
  6
CONTINUOUS
 62
     0
  0
BLOCK
  5
    6B
  8
0
  6
CONTINUOUS
 62
     7
  2
*HATCH351
 70
    65
 10
0.0
 20
0.0
 30
0.0
  3
*HATCH351
  0
LINE
  5
    6C
  8
0
  6
CONTINUOUS
 62
     7
 10
-58.7628898620606
 20
38.8178482055664
 30
0.0
 11
-64.7622375488281
 21
32.8185005187988
 31
0.0
  0
LINE
  5
    6D
  8
0
  6
CONTINUOUS
 62
     7
 10
-59.7954368591309
 20
29.3000202178955
 30
0.0
 11
-61.7954368591309
 21
27.3000202178955
 31
0.0
  0
LINE
  5
    6E
  8
0
  6
CONTINUOUS
 62
     7
 10
-51.3101539611816
 20
29.3000202178955
 30
0.0
 11
-53.3101539611816
 21
27.3000202178955
 31
0.0
  0
LINE
  5
    6F
  8
0
  6
CONTINUOUS
 62
     7
 10
-42.8248710632324
 20
29.3000202178955
 30
0.0
 11
-44.8248710632324
 21
27.3000202178955
 31
0.0
  0
LINE
  5
    70
  8
0
  6
CONTINUOUS
 62
     7
 10
-34.3395881652832
 20
29.3000202178955
 30
0.0
 11
-36.3395881652832
 21
27.3000202178955
 31
0.0
  0
LINE
  5
    71
  8
0
  6
CONTINUOUS
 62
     7
 10
-25.854305267334
 20
29.3000202178955
 30
0.0
 11
-27.854305267334
 21
27.3000202178955
 31
0.0
  0
LINE
  5
    72
  8
0
  6
CONTINUOUS
 62
     7
 10
-17.3690223693848
 20
29.3000202178955
 30
0.0
 11
-19.3690223693848
 21
27.3000202178955
 31
0.0
  0
ENDBLK
  5
    73
  8
0
  6
CONTINUOUS
 62
     7
  0
BLOCK
  5
    74
  8
0
  6
CONTINUOUS
 62
     7
  2
*HATCH352
 70
    65
 10
0.0
 20
0.0
 30
0.0
  3
*HATCH352
  0
LINE
  5
    75
  8
0
  6
CONTINUOUS
 62
     7
 10
-58.7628898620606
 20
81.244255065918
 30
0.0
 11
-64.7628936767578
 21
75.244255065918
 31
0.0
  0
LINE
  5
    76
  8
0
  6
CONTINUOUS
 62
     7
 10
-54.5968132019043
 20
76.925048828125
 30
0.0
 11
-57.5968132019043
 21
73.925048828125
 31
0.0
  0
LINE
  5
    77
  8
0
  6
CONTINUOUS
 62
     7
 10
-62.7628898620605
 20
68.7589721679688
 30
0.0
 11
-63.4718132019043
 21
68.050048828125
 31
0.0
  0
LINE
  5
    78
  8
0
  6
CONTINUOUS
 62
     7
 10
-58.7628898620606
 20
68.5163269042969
 30
0.0
 11
-59.2291717529297
 21
68.050048828125
 31
0.0
  0
LINE
  5
    79
  8
0
  6
CONTINUOUS
 62
     7
 10
-41.8688888549805
 20
76.925048828125
 30
0.0
 11
-44.8688888549805
 21
73.925048828125
 31
0.0
  0
LINE
  5
    7A
  8
0
  6
CONTINUOUS
 62
     7
 10
-33.3836059570313
 20
76.925048828125
 30
0.0
 11
-36.3836059570313
 21
73.925048828125
 31
0.0
  0
LINE
  5
    7B
  8
0
  6
CONTINUOUS
 62
     7
 10
-24.898323059082
 20
76.925048828125
 30
0.0
 11
-27.898323059082
 21
73.925048828125
 31
0.0
  0
LINE
  5
    7C
  8
0
  6
CONTINUOUS
 62
     7
 10
-16.4130401611328
 20
76.925048828125
 30
0.0
 11
-19.4130401611328
 21
73.925048828125
 31
0.0
  0
ENDBLK
  5
    7D
  8
0
  6
CONTINUOUS
 62
     7
  0
BLOCK
  5
    7E
  8
0
  6
CONTINUOUS
 62
     7
  2
*HATCH353
 70
    65
 10
0.0
 20
0.0
 30
0.0
  3
*HATCH353
  0
LINE
  5
    7F
  8
0
  6
CONTINUOUS
 62
     7
 10
-60.7628898620606
 20
121.670654296875
 30
0.0
 11
-64.7628479003906
 21
117.670700073242
 31
0.0
  0
LINE
  5
    80
  8
0
  6
CONTINUOUS
 62
     7
 10
-60.7628898620606
 20
117.428016662598
 30
0.0
 11
-64.7628784179688
 21
113.428031921387
 31
0.0
  0
LINE
  5
    81
  8
0
  6
CONTINUOUS
 62
     7
 10
-58.7628898620606
 20
115.18537902832
 30
0.0
 11
-60.7628898620606
 21
113.18537902832
 31
0.0
  0
LINE
  5
    82
  8
0
  6
CONTINUOUS
 62
     7
 10
-47.384391784668
 20
118.078590393066
 30
0.0
 11
-47.7879829406738
 21
117.675003051758
 31
0.0
  0
ENDBLK
  5
    83
  8
0
  6
CONTINUOUS
 62
     7
  0
BLOCK
  5
    84
  8
0
  6
CONTINUOUS
 62
     7
  2
*UDIM1192
 70
    65
 10
0.0
 20
0.0
 30
0.0
  3
*UDIM1192
  0
TEXT
  5
    85
  8
0
  6
CONTINUOUS
 62
     7
 10
-1077.01779376557
 20
-126.274353430507
 30
0.0
 40
3.50000005215406
  1
190
 50
359.999999948034
 41
0.933333333333333
 72
     1
 11
-1072.46779369619
 21
-124.524353408534
 31
0.0
 73
     2
  0
LINE
  5
    86
  8
0
  6
CONTINUOUS
 62
     7
 10
-1033.04531319313
 20
-99.4241819739687
 30
0.0
 11
-1033.04531319313
 21
-130.274353434611
 31
0.0
  0
LINE
  5
    87
  8
0
  6
CONTINUOUS
 62
     7
 10
-1109.04531432562
 20
-99.4241819739687
 30
0.0
 11
-1109.04531432562
 21
-130.274353434611
 31
0.0
  0
LINE
  5
    88
  8
0
  6
CONTINUOUS
 62
     7
 10
-1033.04531319313
 20
-128.274353434611
 30
0.0
 11
-1109.04531432562
 21
-128.274353434611
 31
0.0
  0
LINE
  5
    89
  8
0
  6
CONTINUOUS
 62
     7
 10
-1035.94309066634
 20
-129.050810591029
 30
0.0
 11
-1033.04531319313
 21
-128.274353434611
 31
0.0
  0
LINE
  5
    8A
  8
0
  6
CONTINUOUS
 62
     7
 10
-1033.04531319313
 20
-128.274353434611
 30
0.0
 11
-1035.94309066634
 21
-127.497896278192
 31
0.0
  0
LINE
  5
    8B
  8
0
  6
CONTINUOUS
 62
     7
 10
-1106.14753685241
 20
-127.497896278192
 30
0.0
 11
-1109.04531432562
 21
-128.274353434611
 31
0.0
  0
LINE
  5
    8C
  8
0
  6
CONTINUOUS
 62
     7
 10
-1109.04531432562
 20
-128.274353434611
 30
0.0
 11
-1106.14753685241
 21
-129.050810591029
 31
0.0
  0
ENDBLK
  5
    8D
  8
0
  6
CONTINUOUS
 62
     7
  0
BLOCK
  5
    8E
  8
0
  6
CONTINUOUS
 62
     7
  2
*UDIM1193
 70
    65
 10
0.0
 20
0.0
 30
0.0
  3
*UDIM1193
  0
TEXT
  5
    8F
  8
0
  6
CONTINUOUS
 62
     7
 10
-1019.99639844902
 20
-81.9241818190915
 30
0.0
 40
3.50000005215406
  1
7
 50
89.9999999480344
 41
0.933333333333333
 72
     1
 11
-1021.74639847393
 21
-80.6408484650501
 31
0.0
 73
     2
  0
TEXT
  5
    90
  8
0
  6
CONTINUOUS
 62
     7
 10
-1019.99639844944
 20
-86.4241818712456
 30
0.0
 40
3.50000005215406
  1
Ø
 50
89.9999999480344
 41
1.2
 72
     1
 11
-1021.74639847393
 21
-84.6741818435836
 31
0.0
 73
     2
  0
LINE
  5
    91
  8
0
  6
CONTINUOUS
 62
     7
 10
-1040.04531331234
 20
-94.2241819113839
 30
0.0
 11
-1015.99639844786
 21
-94.2241819113839
 31
0.0
  0
LINE
  5
    92
  8
0
  6
CONTINUOUS
 62
     7
 10
-1040.04531331234
 20
-91.4241818696606
 30
0.0
 11
-1015.99639844786
 21
-91.4241818696606
 31
0.0
  0
LINE
  5
    93
  8
0
  6
CONTINUOUS
 62
     7
 10
-1017.99639844786
 20
-99.2241819113839
 30
0.0
 11
-1017.99639844786
 21
-79.3575151125936
 31
0.0
  0
LINE
  5
    94
  8
0
  6
CONTINUOUS
 62
     7
 10
-1017.21994129144
 20
-97.1219593845944
 30
0.0
 11
-1017.99639844786
 21
-94.2241819113839
 31
0.0
  0
LINE
  5
    95
  8
0
  6
CONTINUOUS
 62
     7
 10
-1017.99639844786
 20
-94.2241819113839
 30
0.0
 11
-1018.77285560428
 21
-97.1219593845944
 31
0.0
  0
LINE
  5
    96
  8
0
  6
CONTINUOUS
 62
     7
 10
-1018.77285560428
 20
-88.5264043964501
 30
0.0
 11
-1017.99639844786
 21
-91.4241818696606
 31
0.0
  0
LINE
  5
    97
  8
0
  6
CONTINUOUS
 62
     7
 10
-1017.99639844786
 20
-91.4241818696606
 30
0.0
 11
-1017.21994129144
 21
-88.5264043964501
 31
0.0
  0
ENDBLK
  5
    98
  8
0
  6
CONTINUOUS
 62
     7
  0
BLOCK
  5
    99
  8
0
  6
CONTINUOUS
 62
     7
  2
*UDIM1194
 70
    65
 10
0.0
 20
0.0
 30
0.0
  3
*UDIM1194
  0
TEXT
  5
    9A
  8
0
  6
CONTINUOUS
 62
     7
 10
-1007.12609911061
 20
-23.9947307360059
 30
0.0
 40
3.50000005215406
  1
400
 50
89.9999999480344
 41
0.933333333333333
 72
     1
 11
-1008.87609913257
 21
-19.4447306666206
 31
0.0
 73
     2
  0
LINE
  5
    9B
  8
0
  6
CONTINUOUS
 62
     7
 10
-1032.44531319909
 20
-98.8241819799292
 30
0.0
 11
-1003.12609910649
 21
-98.8241819799292
 31
0.0
  0
LINE
  5
    9C
  8
0
  6
CONTINUOUS
 62
     7
 10
-1032.44531319909
 20
61.1758204042566
 30
0.0
 11
-1003.12609910649
 21
61.1758204042566
 31
0.0
  0
LINE
  5
    9D
  8
0
  6
CONTINUOUS
 62
     7
 10
-1005.12609910649
 20
-98.8241819799292
 30
0.0
 11
-1005.12609910649
 21
61.1758204042566
 31
0.0
  0
LINE
  5
    9E
  8
0
  6
CONTINUOUS
 62
     7
 10
-1005.90255626291
 20
-95.9264045067187
 30
0.0
 11
-1005.12609910649
 21
-98.8241819799292
 31
0.0
  0
LINE
  5
    9F
  8
0
  6
CONTINUOUS
 62
     7
 10
-1005.12609910649
 20
-98.8241819799292
 30
0.0
 11
-1004.34964195007
 21
-95.9264045067187
 31
0.0
  0
LINE
  5
    A0
  8
0
  6
CONTINUOUS
 62
     7
 10
-1004.34964195007
 20
58.2780429310461
 30
0.0
 11
-1005.12609910649
 21
61.1758204042566
 31
0.0
  0
LINE
  5
    A1
  8
0
  6
CONTINUOUS
 62
     7
 10
-1005.12609910649
 20
61.1758204042566
 30
0.0
 11
-1005.90255626291
 21
58.2780429310461
 31
0.0
  0
ENDBLK
  5
    A2
  8
0
  6
CONTINUOUS
 62
     7
  0
BLOCK
  5
    A3
  8
0
  6
CONTINUOUS
 62
     7
  2
*UDIM1195
 70
    65
 10
0.0
 20
0.0
 30
0.0
  3
*UDIM1195
  0
TEXT
  5
    A4
  8
0
  6
CONTINUOUS
 62
     7
 10
-1104.07502865668
 20
72.2721218146761
 30
0.0
 40
3.50000005215406
  1
35
 50
359.999999948034
 41
0.933333333333333
 72
     1
 11
-1101.15836194497
 21
74.0221218381225
 31
0.0
 73
     2
  0
LINE
  5
    A5
  8
0
  6
CONTINUOUS
 62
     7
 10
-1090.29529530055
 20
52.9758202671659
 30
0.0
 11
-1090.29529530055
 21
72.2721218120455
 31
0.0
  0
LINE
  5
    A6
  8
0
  6
CONTINUOUS
 62
     7
 10
-1104.29529550917
 20
52.9758202671659
 30
0.0
 11
-1104.29529550917
 21
72.2721218120455
 31
0.0
  0
LINE
  5
    A7
  8
0
  6
CONTINUOUS
 62
     7
 10
-1085.29529530055
 20
70.2721218120455
 30
0.0
 11
-1109.29529550917
 21
70.2721218120455
 31
0.0
  0
LINE
  5
    A8
  8
0
  6
CONTINUOUS
 62
     7
 10
-1087.39751782734
 20
71.048578968464
 30
0.0
 11
-1090.29529530055
 21
70.2721218120455
 31
0.0
  0
LINE
  5
    A9
  8
0
  6
CONTINUOUS
 62
     7
 10
-1090.29529530055
 20
70.2721218120455
 30
0.0
 11
-1087.39751782734
 21
69.4956646556269
 31
0.0
  0
LINE
  5
    AA
  8
0
  6
CONTINUOUS
 62
     7
 10
-1107.19307298238
 20
69.4956646556269
 30
0.0
 11
-1104.29529550917
 21
70.2721218120455
 31
0.0
  0
LINE
  5
    AB
  8
0
  6
CONTINUOUS
 62
     7
 10
-1104.29529550917
 20
70.2721218120455
 30
0.0
 11
-1107.19307298238
 21
71.048578968464
 31
0.0
  0
ENDBLK
  5
    AC
  8
0
  6
CONTINUOUS
 62
     7
  0
BLOCK
  5
    AD
  8
0
  6
CONTINUOUS
 62
     7
  2
*UDIM1196
 70
    65
 10
0.0
 20
0.0
 30
0.0
  3
*UDIM1196
  0
TEXT
  5
    AE
  8
0
  6
CONTINUOUS
 62
     7
 10
-1126.9453213152
 20
56.8924870055116
 30
0.0
 40
3.50000005215406
  1
=
 50
89.9999999480344
 41
0.933333333333333
 72
     1
 11
-1128.69532134012
 21
58.1758203595531
 31
0.0
 73
     2
  0
LINE
  5
    AF
  8
0
  6
CONTINUOUS
 62
     7
 10
-1104.24531423919
 20
55.1758203148496
 30
0.0
 11
-1126.94532131404
 21
55.1758203148496
 31
0.0
  0
LINE
  5
    B0
  8
0
  6
CONTINUOUS
 62
     7
 10
-1109.64531431966
 20
61.1758204042566
 30
0.0
 11
-1126.94532131404
 21
61.1758204042566
 31
0.0
  0
LINE
  5
    B1
  8
0
  6
CONTINUOUS
 62
     7
 10
-1124.94532131404
 20
55.1758203148496
 30
0.0
 11
-1124.94532131404
 21
66.1758204042566
 31
0.0
  0
LINE
  5
    B2
  8
0
  6
CONTINUOUS
 62
     7
 10
-1124.16886415762
 20
52.2780428416391
 30
0.0
 11
-1124.94532131404
 21
55.1758203148496
 31
0.0
  0
LINE
  5
    B3
  8
0
  6
CONTINUOUS
 62
     7
 10
-1124.94532131404
 20
55.1758203148496
 30
0.0
 11
-1125.72177847046
 21
52.2780428416391
 31
0.0
  0
LINE
  5
    B4
  8
0
  6
CONTINUOUS
 62
     7
 10
-1125.72177847046
 20
64.0735978774671
 30
0.0
 11
-1124.94532131404
 21
61.1758204042566
 31
0.0
  0
LINE
  5
    B5
  8
0
  6
CONTINUOUS
 62
     7
 10
-1124.94532131404
 20
61.1758204042566
 30
0.0
 11
-1124.16886415762
 21
64.0735978774671
 31
0.0
  0
ENDBLK
  5
    B6
  8
0
  6
CONTINUOUS
 62
     7
  0
BLOCK
  5
    B7
  8
0
  6
CONTINUOUS
 62
     7
  2
*UDIM1197
 70
    65
 10
0.0
 20
0.0
 30
0.0
  3
*UDIM1197
  0
TEXT
  5
    B8
  8
0
  6
CONTINUOUS
 62
     7
 10
-1126.94532131816
 20
-23.3741808572216
 30
0.0
 40
3.50000005215406
  1
370
 50
89.9999999480344
 41
0.933333333333333
 72
     1
 11
-1128.69532134012
 21
-18.8241807878363
 31
0.0
 73
     2
  0
LINE
  5
    B9
  8
0
  6
CONTINUOUS
 62
     7
 10
-1105.24531425409
 20
-92.8241818905222
 30
0.0
 11
-1126.94532131404
 21
-92.8241818905222
 31
0.0
  0
LINE
  5
    BA
  8
0
  6
CONTINUOUS
 62
     7
 10
-1124.94532131404
 20
-92.8241818905222
 30
0.0
 11
-1124.94532131404
 21
55.1758203148496
 31
0.0
  0
LINE
  5
    BB
  8
0
  6
CONTINUOUS
 62
     7
 10
-1125.72177847046
 20
-89.9264044173117
 30
0.0
 11
-1124.94532131404
 21
-92.8241818905222
 31
0.0
  0
LINE
  5
    BC
  8
0
  6
CONTINUOUS
 62
     7
 10
-1124.94532131404
 20
-92.8241818905222
 30
0.0
 11
-1124.16886415762
 21
-89.9264044173117
 31
0.0
  0
LINE
  5
    BD
  8
0
  6
CONTINUOUS
 62
     7
 10
-1124.16886415762
 20
52.2780428416391
 30
0.0
 11
-1124.94532131404
 21
55.1758203148496
 31
0.0
  0
LINE
  5
    BE
  8
0
  6
CONTINUOUS
 62
     7
 10
-1124.94532131404
 20
55.1758203148496
 30
0.0
 11
-1125.72177847046
 21
52.2780428416391
 31
0.0
  0
ENDBLK
  5
    BF
  8
0
  6
CONTINUOUS
 62
     7
  0
BLOCK
  5
    C0
  8
0
  6
CONTINUOUS
 62
     7
  2
*UDIM1198
 70
    65
 10
0.0
 20
0.0
 30
0.0
  3
*UDIM1198
  0
TEXT
  5
    C1
  8
0
  6
CONTINUOUS
 62
     7
 10
-1126.9453213152
 20
-97.1075152892672
 30
0.0
 40
3.50000005215406
  1
=
 50
89.9999999480344
 41
0.933333333333333
 72
     1
 11
-1128.69532134012
 21
-95.8241819352257
 31
0.0
 73
     2
  0
LINE
  5
    C2
  8
0
  6
CONTINUOUS
 62
     7
 10
-1109.64531431966
 20
-98.8241819799292
 30
0.0
 11
-1126.94532131404
 21
-98.8241819799292
 31
0.0
  0
LINE
  5
    C3
  8
0
  6
CONTINUOUS
 62
     7
 10
-1124.94532131404
 20
-103.824181979929
 30
0.0
 11
-1124.94532131404
 21
-92.8241818905222
 31
0.0
  0
LINE
  5
    C4
  8
0
  6
CONTINUOUS
 62
     7
 10
-1124.16886415762
 20
-101.72195945314
 30
0.0
 11
-1124.94532131404
 21
-98.8241819799292
 31
0.0
  0
LINE
  5
    C5
  8
0
  6
CONTINUOUS
 62
     7
 10
-1124.94532131404
 20
-98.8241819799292
 30
0.0
 11
-1125.72177847046
 21
-101.72195945314
 31
0.0
  0
LINE
  5
    C6
  8
0
  6
CONTINUOUS
 62
     7
 10
-1125.72177847046
 20
-89.9264044173117
 30
0.0
 11
-1124.94532131404
 21
-92.8241818905222
 31
0.0
  0
LINE
  5
    C7
  8
0
  6
CONTINUOUS
 62
     7
 10
-1124.94532131404
 20
-92.8241818905222
 30
0.0
 11
-1124.16886415762
 21
-89.9264044173117
 31
0.0
  0
ENDBLK
  5
    C8
  8
0
  6
CONTINUOUS
 62
     7
  0
BLOCK
  5
    C9
  8
0
  6
CONTINUOUS
 62
     7
  2
*UDIM1199
 70
    65
 10
0.0
 20
0.0
 30
0.0
  3
*UDIM1199
  0
TEXT
  5
    CA
  8
0
  6
CONTINUOUS
 62
     7
 10
-1038.32864660677
 20
-111.296161105143
 30
0.0
 40
3.50000005215406
  1
=
 50
359.999999948034
 41
0.933333333333333
 72
     1
 11
-1037.04531325274
 21
-109.546161080223
 31
0.0
 73
     2
  0
LINE
  5
    CB
  8
0
  6
CONTINUOUS
 62
     7
 10
-1033.04531319313
 20
-99.4241819739687
 30
0.0
 11
-1033.04531319313
 21
-115.2961611063
 31
0.0
  0
LINE
  5
    CC
  8
0
  6
CONTINUOUS
 62
     7
 10
-1041.04531331234
 20
-97.0241819382059
 30
0.0
 11
-1041.04531331234
 21
-115.2961611063
 31
0.0
  0
LINE
  5
    CD
  8
0
  6
CONTINUOUS
 62
     7
 10
-1028.04531319313
 20
-113.2961611063
 30
0.0
 11
-1041.04531331234
 21
-113.2961611063
 31
0.0
  0
LINE
  5
    CE
  8
0
  6
CONTINUOUS
 62
     7
 10
-1030.14753571992
 20
-112.519703949882
 30
0.0
 11
-1033.04531319313
 21
-113.2961611063
 31
0.0
  0
LINE
  5
    CF
  8
0
  6
CONTINUOUS
 62
     7
 10
-1033.04531319313
 20
-113.2961611063
 30
0.0
 11
-1030.14753571992
 21
-114.072618262719
 31
0.0
  0
LINE
  5
    D0
  8
0
  6
CONTINUOUS
 62
     7
 10
-1043.94309078555
 20
-114.072618262719
 30
0.0
 11
-1041.04531331234
 21
-113.2961611063
 31
0.0
  0
LINE
  5
    D1
  8
0
  6
CONTINUOUS
 62
     7
 10
-1041.04531331234
 20
-113.2961611063
 30
0.0
 11
-1043.94309078555
 21
-112.519703949882
 31
0.0
  0
ENDBLK
  5
    D2
  8
0
  6
CONTINUOUS
 62
     7
  0
BLOCK
  5
    D3
  8
0
  6
CONTINUOUS
 62
     7
  2
*UDIM1200
 70
    65
 10
0.0
 20
0.0
 30
0.0
  3
*UDIM1200
  0
TEXT
  5
    D4
  8
0
  6
CONTINUOUS
 62
     7
 10
-1075.59531382875
 20
-111.296161102196
 30
0.0
 40
3.50000005215406
  1
150
 50
359.999999948034
 41
0.933333333333333
 72
     1
 11
-1071.04531375937
 21
-109.546161080223
 31
0.0
 73
     2
  0
LINE
  5
    D5
  8
0
  6
CONTINUOUS
 62
     7
 10
-1101.04531420641
 20
-97.0241819382059
 30
0.0
 11
-1101.04531420641
 21
-115.2961611063
 31
0.0
  0
LINE
  5
    D6
  8
0
  6
CONTINUOUS
 62
     7
 10
-1041.04531331234
 20
-113.2961611063
 30
0.0
 11
-1101.04531420641
 21
-113.2961611063
 31
0.0
  0
LINE
  5
    D7
  8
0
  6
CONTINUOUS
 62
     7
 10
-1043.94309078555
 20
-114.072618262719
 30
0.0
 11
-1041.04531331234
 21
-113.2961611063
 31
0.0
  0
LINE
  5
    D8
  8
0
  6
CONTINUOUS
 62
     7
 10
-1041.04531331234
 20
-113.2961611063
 30
0.0
 11
-1043.94309078555
 21
-112.519703949882
 31
0.0
  0
LINE
  5
    D9
  8
0
  6
CONTINUOUS
 62
     7
 10
-1098.1475367332
 20
-112.519703949882
 30
0.0
 11
-1101.04531420641
 21
-113.2961611063
 31
0.0
  0
LINE
  5
    DA
  8
0
  6
CONTINUOUS
 62
     7
 10
-1101.04531420641
 20
-113.2961611063
 30
0.0
 11
-1098.1475367332
 21
-114.072618262719
 31
0.0
  0
ENDBLK
  5
    DB
  8
0
  6
CONTINUOUS
 62
     7
  0
BLOCK
  5
    DC
  8
0
  6
CONTINUOUS
 62
     7
  2
*UDIM1201
 70
    65
 10
0.0
 20
0.0
 30
0.0
  3
*UDIM1201
  0
TEXT
  5
    DD
  8
0
  6
CONTINUOUS
 62
     7
 10
-1106.32864762005
 20
-111.296161105143
 30
0.0
 40
3.50000005215406
  1
=
 50
359.999999948034
 41
0.933333333333333
 72
     1
 11
-1105.04531426601
 21
-109.546161080223
 31
0.0
 73
     2
  0
LINE
  5
    DE
  8
0
  6
CONTINUOUS
 62
     7
 10
-1109.04531432562
 20
-99.4241819739687
 30
0.0
 11
-1109.04531432562
 21
-115.2961611063
 31
0.0
  0
LINE
  5
    DF
  8
0
  6
CONTINUOUS
 62
     7
 10
-1101.04531420641
 20
-113.2961611063
 30
0.0
 11
-1114.04531432562
 21
-113.2961611063
 31
0.0
  0
LINE
  5
    E0
  8
0
  6
CONTINUOUS
 62
     7
 10
-1098.1475367332
 20
-112.519703949882
 30
0.0
 11
-1101.04531420641
 21
-113.2961611063
 31
0.0
  0
LINE
  5
    E1
  8
0
  6
CONTINUOUS
 62
     7
 10
-1101.04531420641
 20
-113.2961611063
 30
0.0
 11
-1098.1475367332
 21
-114.072618262719
 31
0.0
  0
LINE
  5
    E2
  8
0
  6
CONTINUOUS
 62
     7
 10
-1111.94309179883
 20
-114.072618262719
 30
0.0
 11
-1109.04531432562
 21
-113.2961611063
 31
0.0
  0
LINE
  5
    E3
  8
0
  6
CONTINUOUS
 62
     7
 10
-1109.04531432562
 20
-113.2961611063
 30
0.0
 11
-1111.94309179883
 21
-112.519703949882
 31
0.0
  0
ENDBLK
  5
    E4
  8
0
  6
CONTINUOUS
 62
     7
  0
BLOCK
  5
    E5
  8
0
  6
CONTINUOUS
 62
     7
  2
*UDIM1202
 70
    65
 10
0.0
 20
0.0
 30
0.0
  3
*UDIM1202
  0
TEXT
  5
    E6
  8
0
  6
CONTINUOUS
 62
     7
 10
-1027.83800060547
 20
95.4575634493888
 30
0.0
 40
3.50000005215406
  1
=
 50
359.999999948034
 41
0.933333333333333
 72
     1
 11
-1026.55466725144
 21
97.2075634743084
 31
0.0
 73
     2
  0
LINE
  5
    E7
  8
0
  6
CONTINUOUS
 62
     7
 10
-1033.04531319313
 20
61.7758203982961
 30
0.0
 11
-1033.04531319313
 21
95.4575634482313
 31
0.0
  0
LINE
  5
    E8
  8
0
  6
CONTINUOUS
 62
     7
 10
-1034.29531424642
 20
51.3757894157279
 30
0.0
 11
-1034.29531424642
 21
95.4575634482313
 31
0.0
  0
LINE
  5
    E9
  8
0
  6
CONTINUOUS
 62
     7
 10
-1025.27133389898
 20
93.4575634482313
 30
0.0
 11
-1034.29531424642
 21
93.4575634482313
 31
0.0
  0
LINE
  5
    EA
  8
0
  6
CONTINUOUS
 62
     7
 10
-1030.14753571992
 20
94.2340206046499
 30
0.0
 11
-1033.04531319313
 21
93.4575634482313
 31
0.0
  0
LINE
  5
    EB
  8
0
  6
CONTINUOUS
 62
     7
 10
-1033.04531319313
 20
93.4575634482313
 30
0.0
 11
-1030.14753571992
 21
92.6811062918128
 31
0.0
  0
LINE
  5
    EC
  8
0
  6
CONTINUOUS
 62
     7
 10
-1037.19309171963
 20
92.6811062918128
 30
0.0
 11
-1034.29531424642
 21
93.4575634482313
 31
0.0
  0
LINE
  5
    ED
  8
0
  6
CONTINUOUS
 62
     7
 10
-1034.29531424642
 20
93.4575634482313
 30
0.0
 11
-1037.19309171963
 21
94.2340206046499
 31
0.0
  0
ENDBLK
  5
    EE
  8
0
  6
CONTINUOUS
 62
     7
  0
BLOCK
  5
    EF
  8
0
  6
CONTINUOUS
 62
     7
  2
*UDIM1203
 70
    65
 10
0.0
 20
0.0
 30
0.0
  3
*UDIM1203
  0
TEXT
  5
    F0
  8
0
  6
CONTINUOUS
 62
     7
 10
-1080.4953144191
 20
95.4575634567547
 30
0.0
 40
3.50000005215406
  1
183.75
 50
359.999999948034
 41
0.933333333333333
 72
     1
 11
-1071.04531427671
 21
97.2075634743084
 31
0.0
 73
     2
  0
LINE
  5
    F1
  8
0
  6
CONTINUOUS
 62
     7
 10
-1107.79531430699
 20
23.775809211952
 30
0.0
 11
-1107.79531430699
 21
95.4575634482313
 31
0.0
  0
LINE
  5
    F2
  8
0
  6
CONTINUOUS
 62
     7
 10
-1034.29531424642
 20
93.4575634482313
 30
0.0
 11
-1107.79531430699
 21
93.4575634482313
 31
0.0
  0
LINE
  5
    F3
  8
0
  6
CONTINUOUS
 62
     7
 10
-1037.19309171963
 20
92.6811062918128
 30
0.0
 11
-1034.29531424642
 21
93.4575634482313
 31
0.0
  0
LINE
  5
    F4
  8
0
  6
CONTINUOUS
 62
     7
 10
-1034.29531424642
 20
93.4575634482313
 30
0.0
 11
-1037.19309171963
 21
94.2340206046499
 31
0.0
  0
LINE
  5
    F5
  8
0
  6
CONTINUOUS
 62
     7
 10
-1104.89753683378
 20
94.2340206046499
 30
0.0
 11
-1107.79531430699
 21
93.4575634482313
 31
0.0
  0
LINE
  5
    F6
  8
0
  6
CONTINUOUS
 62
     7
 10
-1107.79531430699
 20
93.4575634482313
 30
0.0
 11
-1104.89753683378
 21
92.6811062918128
 31
0.0
  0
ENDBLK
  5
    F7
  8
0
  6
CONTINUOUS
 62
     7
  0
BLOCK
  5
    F8
  8
0
  6
CONTINUOUS
 62
     7
  2
*UDIM1204
 70
    65
 10
0.0
 20
0.0
 30
0.0
  3
*UDIM1204
  0
TEXT
  5
    F9
  8
0
  6
CONTINUOUS
 62
     7
 10
-1117.78598574244
 20
95.4575634493888
 30
0.0
 40
3.50000005215406
  1
=
 50
359.999999948034
 41
0.933333333333333
 72
     1
 11
-1116.5026523884
 21
97.2075634743084
 31
0.0
 73
     2
  0
LINE
  5
    FA
  8
0
  6
CONTINUOUS
 62
     7
 10
-1109.04531432562
 20
61.7758203982961
 30
0.0
 11
-1109.04531432562
 21
95.4575634482313
 31
0.0
  0
LINE
  5
    FB
  8
0
  6
CONTINUOUS
 62
     7
 10
-1107.79531430699
 20
93.4575634482313
 30
0.0
 11
-1117.78598574086
 21
93.4575634482313
 31
0.0
  0
LINE
  5
    FC
  8
0
  6
CONTINUOUS
 62
     7
 10
-1104.89753683378
 20
94.2340206046499
 30
0.0
 11
-1107.79531430699
 21
93.4575634482313
 31
0.0
  0
LINE
  5
    FD
  8
0
  6
CONTINUOUS
 62
     7
 10
-1107.79531430699
 20
93.4575634482313
 30
0.0
 11
-1104.89753683378
 21
92.6811062918128
 31
0.0
  0
LINE
  5
    FE
  8
0
  6
CONTINUOUS
 62
     7
 10
-1111.94309179883
 20
92.6811062918128
 30
0.0
 11
-1109.04531432562
 21
93.4575634482313
 31
0.0
  0
LINE
  5
    FF
  8
0
  6
CONTINUOUS
 62
     7
 10
-1109.04531432562
 20
93.4575634482313
 30
0.0
 11
-1111.94309179883
 21
94.2340206046499
 31
0.0
  0
ENDBLK
  5
   100
  8
0
  6
CONTINUOUS
 62
     7
  0
BLOCK
  5
   101
  8
0
  6
CONTINUOUS
 62
     7
  2
*UDIM1205
 70
    65
 10
0.0
 20
0.0
 30
0.0
  3
*UDIM1205
  0
TEXT
  5
   102
  8
0
  6
CONTINUOUS
 62
     7
 10
-1040.82863778852
 20
84.4083388739335
 30
0.0
 40
3.50000005215406
  1
=
 50
359.999999948034
 41
0.933333333333333
 72
     1
 11
-1039.54530443449
 21
86.158338898853
 31
0.0
 73
     2
  0
LINE
  5
   103
  8
0
  6
CONTINUOUS
 62
     7
 10
-1034.29531424642
 20
51.3757894157279
 30
0.0
 11
-1034.29531424642
 21
84.408338872776
 31
0.0
  0
LINE
  5
   104
  8
0
  6
CONTINUOUS
 62
     7
 10
-1044.79529462255
 20
58.8362469533411
 30
0.0
 11
-1044.79529462255
 21
84.408338872776
 31
0.0
  0
LINE
  5
   105
  8
0
  6
CONTINUOUS
 62
     7
 10
-1029.29531424642
 20
82.408338872776
 30
0.0
 11
-1044.79529462255
 21
82.408338872776
 31
0.0
  0
LINE
  5
   106
  8
0
  6
CONTINUOUS
 62
     7
 10
-1031.39753677321
 20
83.1847960291945
 30
0.0
 11
-1034.29531424642
 21
82.408338872776
 31
0.0
  0
LINE
  5
   107
  8
0
  6
CONTINUOUS
 62
     7
 10
-1034.29531424642
 20
82.408338872776
 30
0.0
 11
-1031.39753677321
 21
81.6318817163574
 31
0.0
  0
LINE
  5
   108
  8
0
  6
CONTINUOUS
 62
     7
 10
-1047.69307209576
 20
81.6318817163574
 30
0.0
 11
-1044.79529462255
 21
82.408338872776
 31
0.0
  0
LINE
  5
   109
  8
0
  6
CONTINUOUS
 62
     7
 10
-1044.79529462255
 20
82.408338872776
 30
0.0
 11
-1047.69307209576
 21
83.1847960291945
 31
0.0
  0
ENDBLK
  5
   10A
  8
0
  6
CONTINUOUS
 62
     7
  0
BLOCK
  5
   10B
  8
0
  6
CONTINUOUS
 62
     7
  2
*UDIM1206
 70
    65
 10
0.0
 20
0.0
 30
0.0
  3
*UDIM1206
  0
TEXT
  5
   10C
  8
0
  6
CONTINUOUS
 62
     7
 10
-1061.36196153766
 20
84.4083388798262
 30
0.0
 40
3.50000005215406
  1
43.75
 50
359.999999948034
 41
0.933333333333333
 72
     1
 11
-1053.54529475294
 21
86.158338898853
 31
0.0
 73
     2
  0
LINE
  5
   10D
  8
0
  6
CONTINUOUS
 62
     7
 10
-1062.29529488332
 20
58.8362469533411
 30
0.0
 11
-1062.29529488332
 21
84.408338872776
 31
0.0
  0
LINE
  5
   10E
  8
0
  6
CONTINUOUS
 62
     7
 10
-1044.79529462255
 20
82.408338872776
 30
0.0
 11
-1062.29529488332
 21
82.408338872776
 31
0.0
  0
LINE
  5
   10F
  8
0
  6
CONTINUOUS
 62
     7
 10
-1041.89751714934
 20
83.1847960291945
 30
0.0
 11
-1044.79529462255
 21
82.408338872776
 31
0.0
  0
LINE
  5
   110
  8
0
  6
CONTINUOUS
 62
     7
 10
-1044.79529462255
 20
82.408338872776
 30
0.0
 11
-1041.89751714934
 21
81.6318817163574
 31
0.0
  0
LINE
  5
   111
  8
0
  6
CONTINUOUS
 62
     7
 10
-1065.19307235653
 20
81.6318817163574
 30
0.0
 11
-1062.29529488332
 21
82.408338872776
 31
0.0
  0
LINE
  5
   112
  8
0
  6
CONTINUOUS
 62
     7
 10
-1062.29529488332
 20
82.408338872776
 30
0.0
 11
-1065.19307235653
 21
83.1847960291945
 31
0.0
  0
ENDBLK
  5
   113
  8
0
  6
CONTINUOUS
 62
     7
  0
BLOCK
  5
   114
  8
0
  6
CONTINUOUS
 62
     7
  2
*UDIM1207
 70
    65
 10
0.0
 20
0.0
 30
0.0
  3
*UDIM1207
  0
TEXT
  5
   115
  8
0
  6
CONTINUOUS
 62
     7
 10
-1078.86196179843
 20
84.4083388798262
 30
0.0
 40
3.50000005215406
  1
43.75
 50
359.999999948034
 41
0.933333333333333
 72
     1
 11
-1071.04529501371
 21
86.158338898853
 31
0.0
 73
     2
  0
LINE
  5
   116
  8
0
  6
CONTINUOUS
 62
     7
 10
-1079.79529514409
 20
58.8362469533411
 30
0.0
 11
-1079.79529514409
 21
84.408338872776
 31
0.0
  0
LINE
  5
   117
  8
0
  6
CONTINUOUS
 62
     7
 10
-1062.29529488332
 20
82.408338872776
 30
0.0
 11
-1079.79529514409
 21
82.408338872776
 31
0.0
  0
LINE
  5
   118
  8
0
  6
CONTINUOUS
 62
     7
 10
-1059.39751741011
 20
83.1847960291945
 30
0.0
 11
-1062.29529488332
 21
82.408338872776
 31
0.0
  0
LINE
  5
   119
  8
0
  6
CONTINUOUS
 62
     7
 10
-1062.29529488332
 20
82.408338872776
 30
0.0
 11
-1059.39751741011
 21
81.6318817163574
 31
0.0
  0
LINE
  5
   11A
  8
0
  6
CONTINUOUS
 62
     7
 10
-1082.6930726173
 20
81.6318817163574
 30
0.0
 11
-1079.79529514409
 21
82.408338872776
 31
0.0
  0
LINE
  5
   11B
  8
0
  6
CONTINUOUS
 62
     7
 10
-1079.79529514409
 20
82.408338872776
 30
0.0
 11
-1082.6930726173
 21
83.1847960291945
 31
0.0
  0
ENDBLK
  5
   11C
  8
0
  6
CONTINUOUS
 62
     7
  0
BLOCK
  5
   11D
  8
0
  6
CONTINUOUS
 62
     7
  2
*UDIM1208
 70
    65
 10
0.0
 20
0.0
 30
0.0
  3
*UDIM1208
  0
TEXT
  5
   11E
  8
0
  6
CONTINUOUS
 62
     7
 10
-1096.3619620592
 20
84.4083388798262
 30
0.0
 40
3.50000005215406
  1
43.75
 50
359.999999948034
 41
0.933333333333333
 72
     1
 11
-1088.54529527448
 21
86.158338898853
 31
0.0
 73
     2
  0
LINE
  5
   11F
  8
0
  6
CONTINUOUS
 62
     7
 10
-1097.29529540486
 20
58.8362469533411
 30
0.0
 11
-1097.29529540486
 21
84.408338872776
 31
0.0
  0
LINE
  5
   120
  8
0
  6
CONTINUOUS
 62
     7
 10
-1079.79529514409
 20
82.408338872776
 30
0.0
 11
-1097.29529540486
 21
82.408338872776
 31
0.0
  0
LINE
  5
   121
  8
0
  6
CONTINUOUS
 62
     7
 10
-1076.89751767088
 20
83.1847960291945
 30
0.0
 11
-1079.79529514409
 21
82.408338872776
 31
0.0
  0
LINE
  5
   122
  8
0
  6
CONTINUOUS
 62
     7
 10
-1079.79529514409
 20
82.408338872776
 30
0.0
 11
-1076.89751767088
 21
81.6318817163574
 31
0.0
  0
LINE
  5
   123
  8
0
  6
CONTINUOUS
 62
     7
 10
-1100.19307287807
 20
81.6318817163574
 30
0.0
 11
-1097.29529540486
 21
82.408338872776
 31
0.0
  0
LINE
  5
   124
  8
0
  6
CONTINUOUS
 62
     7
 10
-1097.29529540486
 20
82.408338872776
 30
0.0
 11
-1100.19307287807
 21
83.1847960291945
 31
0.0
  0
ENDBLK
  5
   125
  8
0
  6
CONTINUOUS
 62
     7
  0
BLOCK
  5
   126
  8
0
  6
CONTINUOUS
 62
     7
  2
*UDIM1209
 70
    65
 10
0.0
 20
0.0
 30
0.0
  3
*UDIM1209
  0
TEXT
  5
   127
  8
0
  6
CONTINUOUS
 62
     7
 10
-1103.82862878101
 20
84.4083388739335
 30
0.0
 40
3.50000005215406
  1
=
 50
359.999999948034
 41
0.933333333333333
 72
     1
 11
-1102.54529542698
 21
86.158338898853
 31
0.0
 73
     2
  0
LINE
  5
   128
  8
0
  6
CONTINUOUS
 62
     7
 10
-1107.79529544909
 20
32.2558032347982
 30
0.0
 11
-1107.79529544909
 21
84.408338872776
 31
0.0
  0
LINE
  5
   129
  8
0
  6
CONTINUOUS
 62
     7
 10
-1097.29529540486
 20
82.408338872776
 30
0.0
 11
-1112.79529544909
 21
82.408338872776
 31
0.0
  0
LINE
  5
   12A
  8
0
  6
CONTINUOUS
 62
     7
 10
-1094.39751793165
 20
83.1847960291945
 30
0.0
 11
-1097.29529540486
 21
82.408338872776
 31
0.0
  0
LINE
  5
   12B
  8
0
  6
CONTINUOUS
 62
     7
 10
-1097.29529540486
 20
82.408338872776
 30
0.0
 11
-1094.39751793165
 21
81.6318817163574
 31
0.0
  0
LINE
  5
   12C
  8
0
  6
CONTINUOUS
 62
     7
 10
-1110.6930729223
 20
81.6318817163574
 30
0.0
 11
-1107.79529544909
 21
82.408338872776
 31
0.0
  0
LINE
  5
   12D
  8
0
  6
CONTINUOUS
 62
     7
 10
-1107.79529544909
 20
82.408338872776
 30
0.0
 11
-1110.6930729223
 21
83.1847960291945
 31
0.0
  0
ENDBLK
  5
   12E
  8
0
  6
CONTINUOUS
 62
     7
  0
BLOCK
  5
   12F
  8
0
  6
CONTINUOUS
 62
     7
  2
*HATCH354
 70
    65
 10
0.0
 20
0.0
 30
0.0
  3
*HATCH354
  0
LINE
  5
   130
  8
0
  6
CONTINUOUS
 62
   210
 10
204.102630615234
 20
-24.9999752044678
 30
0.0
 11
201.237121582031
 21
-27.8654766082764
 31
0.0
  0
LINE
  5
   131
  8
0
  6
CONTINUOUS
 62
   210
 10
205.237121582031
 20
-28.108118057251
 30
0.0
 11
201.237121582031
 21
-32.1081161499023
 31
0.0
  0
LINE
  5
   132
  8
0
  6
CONTINUOUS
 62
   210
 10
205.237121582031
 20
-32.350757598877
 30
0.0
 11
201.237121582031
 21
-36.3507537841797
 31
0.0
  0
LINE
  5
   133
  8
0
  6
CONTINUOUS
 62
   210
 10
205.237121582031
 20
-36.5933952331543
 30
0.0
 11
203.887817382813
 21
-37.9427146911621
 31
0.0
  0
ENDBLK
  5
   134
  8
0
  6
CONTINUOUS
 62
     7
  0
BLOCK
  5
   135
  8
0
  6
CONTINUOUS
 62
     7
  2
*HATCH355
 70
    65
 10
0.0
 20
0.0
 30
0.0
  3
*HATCH355
  0
LINE
  5
   136
  8
0
  6
CONTINUOUS
 62
   210
 10
198.4345703125
 20
-13.6974716186523
 30
0.0
 11
196.745849609375
 21
-15.3861865997314
 31
0.0
  0
LINE
  5
   137
  8
0
  6
CONTINUOUS
 62
   210
 10
199.737075805664
 20
-16.6376056671143
 30
0.0
 11
196.745849609375
 21
-19.6288280487061
 31
0.0
  0
ENDBLK
  5
   138
  8
0
  6
CONTINUOUS
 62
     7
  0
BLOCK
  5
   139
  8
0
  6
CONTINUOUS
 62
     7
  2
TASSELLO_POST_
 70
    64
 10
0.0
 20
0.0
 30
0.0
  3
TASSELLO_POST_
  0
LINE
  5
   13A
  8
0
  6
CONTINUOUS
 62
   210
 10
-1.00000000000001
 20
20.5
 30
0.0
 11
-9.40287806727546E-15
 21
20.5
 31
0.0
  0
LINE
  5
   13B
  8
0
  6
CONTINUOUS
 62
   210
 10
1.09959191973985E-6
 20
20.4999953320827
 30
0.0
 11
1.00000106536339
 21
19.4999953663112
 31
0.0
  0
LINE
  5
   13C
  8
0
  6
CONTINUOUS
 62
   210
 10
1.0
 20
18.0
 30
0.0
 11
1.0
 21
19.5
 31
0.0
  0
LINE
  5
   13D
  8
0
  6
CONTINUOUS
 62
   210
 10
-1.00000000000001
 20
18.0
 30
0.0
 11
0.99999999999999
 21
18.0
 31
0.0
  0
LINE
  5
   13E
  8
0
  6
CONTINUOUS
 62
   210
 10
-4.25000286102296
 20
11.5
 30
0.0
 11
-1.00000000000001
 21
11.5
 31
0.0
  0
LINE
  5
   13F
  8
0
  6
CONTINUOUS
 62
   210
 10
-1.0
 20
11.5
 30
0.0
 11
-1.0
 21
18.0
 31
0.0
  0
LINE
  5
   140
  8
0
  6
CONTINUOUS
 62
   210
 10
-16.5
 20
-10.0
 30
0.0
 11
-15.0
 21
-10.0
 31
0.0
  0
LINE
  5
   141
  8
0
  6
CONTINUOUS
 62
   210
 10
-16.5
 20
20.5
 30
0.0
 11
-1.00000000000001
 21
20.5
 31
0.0
  0
LINE
  5
   142
  8
0
  6
CONTINUOUS
 62
   210
 10
-16.5
 20
-10.0
 30
0.0
 11
-16.5
 21
20.5
 31
0.0
  0
LINE
  5
   143
  8
0
  6
CONTINUOUS
 62
   210
 10
-1.0
 20
18.0
 30
0.0
 11
-1.0
 21
20.5
 31
0.0
  0
LINE
  5
   144
  8
0
  6
CONTINUOUS
 62
   210
 10
-15.0000014150192
 20
-10.000004602161
 30
0.0
 11
-1.00000116385348
 21
17.9999959001704
 31
0.0
  0
LINE
  5
   145
  8
0
  6
CONTINUOUS
 62
   210
 10
-2.00000000000001
 20
14.8000030517578
 30
0.0
 11
-1.00000000000001
 21
14.8000030517578
 31
0.0
  0
LINE
  5
   146
  8
0
  6
CONTINUOUS
 62
   210
 10
-2.39999850435556
 20
15.1999924026964
 30
0.0
 11
-1.99999887210357
 21
14.7999985023696
 31
0.0
  0
LINE
  5
   147
  8
0
  6
CONTINUOUS
 62
   210
 10
-0.5
 20
-9.5
 30
0.0
 11
-0.5
 21
9.5
 31
0.0
  0
LINE
  5
   148
  8
0
  6
CONTINUOUS
 62
   218
 10
0.0
 20
-7.0
 30
0.0
 11
0.0
 21
7.0
 31
0.0
  0
LINE
  5
   149
  8
0
  6
CONTINUOUS
 62
   210
 10
-16.5
 20
-9.0
 30
0.0
 11
-14.5
 21
-9.0
 31
0.0
  0
LINE
  5
   14A
  8
0
  6
CONTINUOUS
 62
   210
 10
-16.5
 20
19.5
 30
0.0
 11
-1.00000000000001
 21
19.5
 31
0.0
  0
LINE
  5
   14B
  8
0
  6
CONTINUOUS
 62
   210
 10
-14.7500023841858
 20
-9.5
 30
0.0
 11
-0.500000476837169
 21
-9.5
 31
0.0
  0
LINE
  5
   14C
  8
0
  6
CONTINUOUS
 62
   210
 10
-5.24999713897706
 20
9.5
 30
0.0
 11
-0.50000000000001
 21
9.5
 31
0.0
  0
LINE
  5
   14D
  8
0
  6
CONTINUOUS
 62
   218
 10
-0.50000000000001
 20
7.0
 30
0.0
 11
-1.02295146566999E-14
 21
7.0
 31
0.0
  0
LINE
  5
   14E
  8
0
  6
CONTINUOUS
 62
   218
 10
-0.500000000000011
 20
-7.0
 30
0.0
 11
-1.10867674161031E-14
 21
-7.0
 31
0.0
  0
LINE
  5
   14F
  8
0
  6
CONTINUOUS
 62
   210
 10
-0.999999999999991
 20
20.5
 30
0.0
 11
9.40287806727546E-15
 21
20.5
 31
0.0
  0
LINE
  5
   150
  8
0
  6
CONTINUOUS
 62
   210
 10
1.09959193395071E-6
 20
20.4999953320826
 30
0.0
 11
1.0000010653634
 21
19.4999953663112
 31
0.0
  0
LINE
  5
   151
  8
0
  6
CONTINUOUS
 62
   210
 10
1.0
 20
18.0
 30
0.0
 11
1.0
 21
19.5
 31
0.0
  0
LINE
  5
   152
  8
0
  6
CONTINUOUS
 62
   210
 10
-0.99999999999999
 20
18.0
 30
0.0
 11
1.00000000000001
 21
18.0
 31
0.0
  0
LINE
  5
   153
  8
0
  6
CONTINUOUS
 62
   210
 10
-4.25000190734862
 20
11.5
 30
0.0
 11
-0.99999999999999
 21
11.5
 31
0.0
  0
LINE
  5
   154
  8
0
  6
CONTINUOUS
 62
   210
 10
-1.0
 20
11.5
 30
0.0
 11
-1.0
 21
18.0
 31
0.0
  0
LINE
  5
   155
  8
0
  6
CONTINUOUS
 62
   210
 10
-16.5
 20
20.5
 30
0.0
 11
-0.999999999999991
 21
20.5
 31
0.0
  0
LINE
  5
   156
  8
0
  6
CONTINUOUS
 62
   210
 10
-1.0
 20
18.0
 30
0.0
 11
-1.0
 21
20.5
 31
0.0
  0
LINE
  5
   157
  8
0
  6
CONTINUOUS
 62
   210
 10
-15.0000014150192
 20
-10.000004602161
 30
0.0
 11
-1.00000116385345
 21
17.9999959001704
 31
0.0
  0
LINE
  5
   158
  8
0
  6
CONTINUOUS
 62
   210
 10
-1.99999999999999
 20
14.8000030517578
 30
0.0
 11
-0.99999999999999
 21
14.8000030517578
 31
0.0
  0
LINE
  5
   159
  8
0
  6
CONTINUOUS
 62
   210
 10
-2.3999985317481
 20
15.1999924202095
 30
0.0
 11
-1.99999889949612
 21
14.7999985198827
 31
0.0
  0
LINE
  5
   15A
  8
0
  6
CONTINUOUS
 62
   210
 10
-0.5
 20
-9.5
 30
0.0
 11
-0.5
 21
9.5
 31
0.0
  0
LINE
  5
   15B
  8
0
  6
CONTINUOUS
 62
   210
 10
0.0
 20
-7.0
 30
0.0
 11
0.0
 21
7.0
 31
0.0
  0
LINE
  5
   15C
  8
0
  6
CONTINUOUS
 62
   210
 10
-16.5
 20
19.5
 30
0.0
 11
-0.999999999999991
 21
19.5
 31
0.0
  0
LINE
  5
   15D
  8
0
  6
CONTINUOUS
 62
   210
 10
-14.7500023841858
 20
-9.5
 30
0.0
 11
-0.500000476837147
 21
-9.5
 31
0.0
  0
LINE
  5
   15E
  8
0
  6
CONTINUOUS
 62
   210
 10
-5.24999713897704
 20
9.5
 30
0.0
 11
-0.49999999999999
 21
9.5
 31
0.0
  0
LINE
  5
   15F
  8
0
  6
CONTINUOUS
 62
   210
 10
-0.49999999999999
 20
7.0
 30
0.0
 11
1.02295146566999E-14
 21
7.0
 31
0.0
  0
LINE
  5
   160
  8
0
  6
CONTINUOUS
 62
   210
 10
-0.499999999999989
 20
-7.0
 30
0.0
 11
1.10867674161031E-14
 21
-7.0
 31
0.0
  0
LINE
  5
   161
  8
0
  6
CONTINUOUS
 62
   210
 10
-16.5
 20
-10.0
 30
0.0
 11
-16.5
 21
20.5
 31
0.0
  0
LINE
  5
   162
  8
0
  6
CONTINUOUS
 62
   210
 10
-16.5
 20
-9.0
 30
0.0
 11
-14.5
 21
-9.0
 31
0.0
  0
LINE
  5
   163
  8
0
  6
CONTINUOUS
 62
   210
 10
-16.5
 20
-10.0
 30
0.0
 11
-15.0
 21
-10.0
 31
0.0
  0
ENDBLK
  5
   164
  8
0
  6
CONTINUOUS
 62
     7
  0
BLOCK
  5
   165
  8
0
  6
CONTINUOUS
 62
     7
  2
*HATCH356
 70
    65
 10
0.0
 20
0.0
 30
0.0
  3
*HATCH356
  0
LINE
  5
   166
  8
0
  6
CONTINUOUS
 62
   210
 10
222.237121582031
 20
-22.8331680297852
 30
0.0
 11
224.403930664063
 21
-24.9999752044678
 31
0.0
  0
LINE
  5
   167
  8
0
  6
CONTINUOUS
 62
   210
 10
223.646575927734
 20
-19.9999771118164
 30
0.0
 11
227.237075805664
 21
-23.5904788970947
 31
0.0
  0
ENDBLK
  5
   168
  8
0
  6
CONTINUOUS
 62
     7
  0
BLOCK
  5
   169
  8
0
  6
CONTINUOUS
 62
     7
  2
*HATCH357
 70
    65
 10
0.0
 20
0.0
 30
0.0
  3
*HATCH357
  0
LINE
  5
   16A
  8
0
  6
CONTINUOUS
 62
   210
 10
196.745849609375
 20
-22.797721862793
 30
0.0
 11
198.948104858398
 21
-24.9999752044678
 31
0.0
  0
LINE
  5
   16B
  8
0
  6
CONTINUOUS
 62
   210
 10
198.19075012207
 20
-19.9999771118164
 30
0.0
 11
203.190734863281
 21
-24.9999752044678
 31
0.0
  0
LINE
  5
   16C
  8
0
  6
CONTINUOUS
 62
   210
 10
202.433395385742
 20
-19.9999771118164
 30
0.0
 11
207.433380126953
 21
-24.9999752044678
 31
0.0
  0
LINE
  5
   16D
  8
0
  6
CONTINUOUS
 62
   210
 10
206.676040649414
 20
-19.9999771118164
 30
0.0
 11
211.676025390625
 21
-24.9999752044678
 31
0.0
  0
LINE
  5
   16E
  8
0
  6
CONTINUOUS
 62
   210
 10
210.918670654297
 20
-19.9999771118164
 30
0.0
 11
212.237121582031
 21
-21.3184394836426
 31
0.0
  0
ENDBLK
  5
   16F
  8
0
  6
CONTINUOUS
 62
     7
  0
BLOCK
  5
   170
  8
0
  6
CONTINUOUS
 62
     7
  2
*HATCH358
 70
    65
 10
0.0
 20
0.0
 30
0.0
  3
*HATCH358
  0
LINE
  5
   171
  8
0
  6
CONTINUOUS
 62
   210
 10
-10.7629241943359
 20
-21.0568885803223
 30
0.0
 11
-6.81984090805054
 21
-24.9999752044678
 31
0.0
  0
LINE
  5
   172
  8
0
  6
CONTINUOUS
 62
   210
 10
-7.57719612121582
 20
-19.9999771118164
 30
0.0
 11
-5.86297512054443
 21
-21.7141990661621
 31
0.0
  0
ENDBLK
  5
   173
  8
0
  6
CONTINUOUS
 62
     7
  0
BLOCK
  5
   174
  8
0
  6
CONTINUOUS
 62
     7
  2
*HATCH359
 70
    65
 10
0.0
 20
0.0
 30
0.0
  3
*HATCH359
  0
LINE
  5
   175
  8
0
  6
CONTINUOUS
 62
   210
 10
4.3370246887207
 20
-21.3076019287109
 30
0.0
 11
8.02939128875732
 21
-24.9999752044678
 31
0.0
  0
LINE
  5
   176
  8
0
  6
CONTINUOUS
 62
   210
 10
7.27203750610352
 20
-19.9999771118164
 30
0.0
 11
12.2720289230347
 21
-24.9999752044678
 31
0.0
  0
LINE
  5
   177
  8
0
  6
CONTINUOUS
 62
   210
 10
11.5146751403809
 20
-19.9999771118164
 30
0.0
 11
16.5146675109863
 21
-24.9999752044678
 31
0.0
  0
LINE
  5
   178
  8
0
  6
CONTINUOUS
 62
   210
 10
15.7573137283325
 20
-19.9999771118164
 30
0.0
 11
19.7282981872559
 21
-23.9709663391113
 31
0.0
  0
ENDBLK
  5
   179
  8
0
  6
CONTINUOUS
 62
     7
  0
BLOCK
  5
   17A
  8
0
  6
CONTINUOUS
 62
     7
  2
*HATCH360
 70
    65
 10
0.0
 20
0.0
 30
0.0
  3
*HATCH360
  0
LINE
  5
   17B
  8
0
  6
CONTINUOUS
 62
   210
 10
14.9705638885498
 20
-1.99999904632568
 30
0.0
 11
14.237024307251
 21
-2.73353862762451
 31
0.0
  0
LINE
  5
   17C
  8
0
  6
CONTINUOUS
 62
   210
 10
18.237024307251
 20
-2.97617936134338
 30
0.0
 11
14.237024307251
 21
-6.9761791229248
 31
0.0
  0
LINE
  5
   17D
  8
0
  6
CONTINUOUS
 62
   210
 10
18.237024307251
 20
-7.21882009506226
 30
0.0
 11
14.237024307251
 21
-11.2188205718994
 31
0.0
  0
LINE
  5
   17E
  8
0
  6
CONTINUOUS
 62
   210
 10
18.237024307251
 20
-11.4614601135254
 30
0.0
 11
14.237024307251
 21
-15.461462020874
 31
0.0
  0
LINE
  5
   17F
  8
0
  6
CONTINUOUS
 62
   210
 10
18.237024307251
 20
-15.7041015625
 30
0.0
 11
14.237024307251
 21
-19.7041034698486
 31
0.0
  0
LINE
  5
   180
  8
0
  6
CONTINUOUS
 62
   210
 10
18.237024307251
 20
-19.946741104126
 30
0.0
 11
18.1837902069092
 21
-19.9999771118164
 31
0.0
  0
ENDBLK
  5
   181
  8
0
  6
CONTINUOUS
 62
     7
  0
BLOCK
  5
   182
  8
0
  6
CONTINUOUS
 62
     7
  2
*HATCH361
 70
    65
 10
0.0
 20
0.0
 30
0.0
  3
*HATCH361
  0
LINE
  5
   183
  8
0
  6
CONTINUOUS
 62
   210
 10
15.237024307251
 20
-25.0680618286133
 30
0.0
 11
11.237024307251
 21
-29.0680618286133
 31
0.0
  0
LINE
  5
   184
  8
0
  6
CONTINUOUS
 62
   210
 10
15.237024307251
 20
-29.3107032775879
 30
0.0
 11
11.237024307251
 21
-33.3107032775879
 31
0.0
  0
LINE
  5
   185
  8
0
  6
CONTINUOUS
 62
   210
 10
15.237024307251
 20
-33.5533447265625
 30
0.0
 11
11.237024307251
 21
-37.5533409118652
 31
0.0
  0
LINE
  5
   186
  8
0
  6
CONTINUOUS
 62
   210
 10
15.237024307251
 20
-37.7959823608398
 30
0.0
 11
11.7791585922241
 21
-41.253849029541
 31
0.0
  0
ENDBLK
  5
   187
  8
0
  6
CONTINUOUS
 62
     7
  0
BLOCK
  5
   188
  8
0
  6
CONTINUOUS
 62
     7
  2
*HATCH362
 70
    65
 10
0.0
 20
0.0
 30
0.0
  3
*HATCH362
  0
LINE
  5
   189
  8
0
  6
CONTINUOUS
 62
     7
 10
-57.5441589355469
 20
-83.0
 30
0.0
 11
-59.5441589355469
 21
-85.0
 31
0.0
  0
LINE
  5
   18A
  8
0
  6
CONTINUOUS
 62
     7
 10
-49.0588760375977
 20
-83.0
 30
0.0
 11
-51.0588760375977
 21
-85.0
 31
0.0
  0
LINE
  5
   18B
  8
0
  6
CONTINUOUS
 62
     7
 10
-40.5735931396484
 20
-83.0
 30
0.0
 11
-42.5735931396484
 21
-85.0
 31
0.0
  0
ENDBLK
  5
   18C
  8
0
  6
CONTINUOUS
 62
     7
  0
BLOCK
  5
   18D
  8
0
  6
CONTINUOUS
 62
     7
  2
*HATCH363
 70
    65
 10
0.0
 20
0.0
 30
0.0
  3
*HATCH363
  0
LINE
  5
   18E
  8
0
  6
CONTINUOUS
 62
     7
 10
-32.9408149719238
 20
-83.8525009155273
 30
0.0
 11
-34.0883178710938
 21
-85.0
 31
0.0
  0
ENDBLK
  5
   18F
  8
0
  6
CONTINUOUS
 62
     7
  0
BLOCK
  5
   190
  8
0
  6
CONTINUOUS
 62
     7
  2
*HATCH364
 70
    65
 10
0.0
 20
0.0
 30
0.0
  3
*HATCH364
  0
LINE
  5
   191
  8
0
  6
CONTINUOUS
 62
     7
 10
-60.5162353515625
 20
-98.6999969482422
 30
0.0
 11
-63.3162384033203
 21
-101.5
 31
0.0
  0
LINE
  5
   192
  8
0
  6
CONTINUOUS
 62
     7
 10
-52.0309524536133
 20
-98.6999969482422
 30
0.0
 11
-54.8309555053711
 21
-101.5
 31
0.0
  0
LINE
  5
   193
  8
0
  6
CONTINUOUS
 62
     7
 10
-43.5456695556641
 20
-98.6999969482422
 30
0.0
 11
-46.3456726074219
 21
-101.5
 31
0.0
  0
ENDBLK
  5
   194
  8
0
  6
CONTINUOUS
 62
     7
  0
BLOCK
  5
   195
  8
0
  6
CONTINUOUS
 62
     7
  2
*UDIM1210
 70
    65
 10
0.0
 20
0.0
 30
0.0
  3
*UDIM1210
  0
TEXT
  5
   196
  8
0
  6
CONTINUOUS
 62
     7
 10
-941.181317634949
 20
71.7188574124689
 30
0.0
 40
3.50000005215406
  1
14
 50
359.999999948034
 41
0.933333333333333
 72
     1
 11
-938.264650923242
 21
73.4688574359152
 31
0.0
 73
     2
  0
LINE
  5
   197
  8
0
  6
CONTINUOUS
 62
     7
 10
-925.04931640625
 20
62.1758051454675
 30
0.0
 11
-925.04931640625
 21
71.7188574098382
 31
0.0
  0
LINE
  5
   198
  8
0
  6
CONTINUOUS
 62
     7
 10
-930.649316489697
 20
62.1758051454675
 30
0.0
 11
-930.649316489697
 21
71.7188574098382
 31
0.0
  0
LINE
  5
   199
  8
0
  6
CONTINUOUS
 62
     7
 10
-920.04931640625
 20
69.7188574098382
 30
0.0
 11
-941.181317633371
 21
69.7188574098382
 31
0.0
  0
LINE
  5
   19A
  8
0
  6
CONTINUOUS
 62
     7
 10
-922.15153893304
 20
70.4953145662568
 30
0.0
 11
-925.04931640625
 21
69.7188574098382
 31
0.0
  0
LINE
  5
   19B
  8
0
  6
CONTINUOUS
 62
     7
 10
-925.04931640625
 20
69.7188574098382
 30
0.0
 11
-922.15153893304
 21
68.9424002534197
 31
0.0
  0
LINE
  5
   19C
  8
0
  6
CONTINUOUS
 62
     7
 10
-933.547093962907
 20
68.9424002534197
 30
0.0
 11
-930.649316489697
 21
69.7188574098382
 31
0.0
  0
LINE
  5
   19D
  8
0
  6
CONTINUOUS
 62
     7
 10
-930.649316489697
 20
69.7188574098382
 30
0.0
 11
-933.547093962907
 21
70.4953145662568
 31
0.0
  0
ENDBLK
  5
   19E
  8
0
  6
CONTINUOUS
 62
     7
  0
BLOCK
  5
   19F
  8
0
  6
CONTINUOUS
 62
     7
  2
*UDIM1211
 70
    65
 10
0.0
 20
0.0
 30
0.0
  3
*UDIM1211
  0
TEXT
  5
   1A0
  8
0
  6
CONTINUOUS
 62
     7
 10
-925.991695048515
 20
82.7262068509952
 30
0.0
 40
3.50000005215406
  1
39
 50
359.999999948034
 41
0.933333333333333
 72
     1
 11
-923.075028336809
 21
84.4762068744416
 31
0.0
 73
     2
  0
LINE
  5
   1A1
  8
0
  6
CONTINUOUS
 62
     7
 10
-915.04932635502
 20
35.3758084866968
 30
0.0
 11
-915.04932635502
 21
82.7262068483645
 31
0.0
  0
LINE
  5
   1A2
  8
0
  6
CONTINUOUS
 62
     7
 10
-930.649316489697
 20
62.1758051454675
 30
0.0
 11
-930.649316489697
 21
82.7262068483645
 31
0.0
  0
LINE
  5
   1A3
  8
0
  6
CONTINUOUS
 62
     7
 10
-915.04932635502
 20
80.7262068483645
 30
0.0
 11
-930.649316489697
 21
80.7262068483645
 31
0.0
  0
LINE
  5
   1A4
  8
0
  6
CONTINUOUS
 62
     7
 10
-917.947103828231
 20
79.949749691946
 30
0.0
 11
-915.04932635502
 21
80.7262068483645
 31
0.0
  0
LINE
  5
   1A5
  8
0
  6
CONTINUOUS
 62
     7
 10
-915.04932635502
 20
80.7262068483645
 30
0.0
 11
-917.947103828231
 21
81.5026640047831
 31
0.0
  0
LINE
  5
   1A6
  8
0
  6
CONTINUOUS
 62
     7
 10
-927.751539016486
 20
81.5026640047831
 30
0.0
 11
-930.649316489697
 21
80.7262068483645
 31
0.0
  0
LINE
  5
   1A7
  8
0
  6
CONTINUOUS
 62
     7
 10
-930.649316489697
 20
80.7262068483645
 30
0.0
 11
-927.751539016486
 21
79.949749691946
 31
0.0
  0
ENDBLK
  5
   1A8
  8
0
  6
CONTINUOUS
 62
     7
  0
BLOCK
  5
   1A9
  8
0
  6
CONTINUOUS
 62
     7
  2
*HATCH365
 70
    65
 10
0.0
 20
0.0
 30
0.0
  3
*HATCH365
  0
LINE
  5
   1AA
  8
0
  6
CONTINUOUS
 62
     7
 10
295.737121582031
 20
5.49019050598145
 30
0.0
 11
301.227294921875
 21
0.0
 31
0.0
  0
LINE
  5
   1AB
  8
0
  6
CONTINUOUS
 62
     7
 10
295.737121582031
 20
13.9754772186279
 30
0.0
 11
307.237121582031
 21
2.47546291351318
 31
0.0
  0
LINE
  5
   1AC
  8
0
  6
CONTINUOUS
 62
     7
 10
304.197875976563
 20
14.0
 30
0.0
 11
307.237121582031
 21
10.9607496261597
 31
0.0
  0
ENDBLK
  5
   1AD
  8
0
  6
CONTINUOUS
 62
     7
  0
BLOCK
  5
   1AE
  8
0
  6
CONTINUOUS
 62
     7
  2
*HATCH366
 70
    65
 10
0.0
 20
0.0
 30
0.0
  3
*HATCH366
  0
LINE
  5
   1AF
  8
0
  6
CONTINUOUS
 62
     7
 10
285.237121582031
 20
7.50491714477539
 30
0.0
 11
288.737121582031
 21
4.00491285324097
 31
0.0
  0
LINE
  5
   1B0
  8
0
  6
CONTINUOUS
 62
     7
 10
287.227325439453
 20
14.0
 30
0.0
 11
288.737121582031
 21
12.4901990890503
 31
0.0
  0
ENDBLK
  5
   1B1
  8
0
  6
CONTINUOUS
 62
     7
  0
BLOCK
  5
   1B2
  8
0
  6
CONTINUOUS
 62
     7
  2
*HATCH367
 70
    65
 10
0.0
 20
0.0
 30
0.0
  3
*HATCH367
  0
LINE
  5
   1B3
  8
0
  6
CONTINUOUS
 62
     7
 10
190.679550170898
 20
4.48180627822876
 30
0.0
 11
195.161361694336
 21
0.0
 31
0.0
  0
LINE
  5
   1B4
  8
0
  6
CONTINUOUS
 62
     7
 10
193.249771118164
 20
10.396858215332
 30
0.0
 11
203.64665222168
 21
0.0
 31
0.0
  0
LINE
  5
   1B5
  8
0
  6
CONTINUOUS
 62
     7
 10
198.131912231445
 20
14.0
 30
0.0
 11
212.131896972656
 21
0.0
 31
0.0
  0
LINE
  5
   1B6
  8
0
  6
CONTINUOUS
 62
     7
 10
206.6171875
 20
14.0
 30
0.0
 11
220.6171875
 21
0.0
 31
0.0
  0
LINE
  5
   1B7
  8
0
  6
CONTINUOUS
 62
     7
 10
215.102478027344
 20
14.0
 30
0.0
 11
227.237121582031
 21
1.8653392791748
 31
0.0
  0
LINE
  5
   1B8
  8
0
  6
CONTINUOUS
 62
     7
 10
223.587768554688
 20
14.0
 30
0.0
 11
227.237121582031
 21
10.3506259918213
 31
0.0
  0
ENDBLK
  5
   1B9
  8
0
  6
CONTINUOUS
 62
     7
  0
BLOCK
  5
   1BA
  8
0
  6
CONTINUOUS
 62
     7
  2
*UDIM1212
 70
    65
 10
0.0
 20
0.0
 30
0.0
  3
*UDIM1212
  0
TEXT
  5
   1BB
  8
0
  6
CONTINUOUS
 62
     7
 10
-855.347723727345
 20
-22.6539487650725
 30
0.0
 40
3.50000005215406
  1
105
 50
89.9999999480344
 41
0.933333333333333
 72
     1
 11
-857.097723749301
 21
-18.1039486956873
 31
0.0
 73
     2
  0
TEXT
  5
   1BC
  8
0
  6
CONTINUOUS
 62
     7
 10
-846.847723684066
 20
-32.4539489111039
 30
0.0
 40
3.50000005215406
  1
=       =
 50
89.9999999480344
 41
0.933333333333333
 72
     1
 11
-848.597723697146
 21
-18.1039486956873
 31
0.0
 73
     2
  0
LINE
  5
   1BD
  8
0
  6
CONTINUOUS
 62
     7
 10
-879.049321839213
 20
-38.7241871878816
 30
0.0
 11
-851.347723723224
 21
-38.7241871878816
 31
0.0
  0
LINE
  5
   1BE
  8
0
  6
CONTINUOUS
 62
     7
 10
-879.049321839213
 20
3.27580123093568
 30
0.0
 11
-851.347723723224
 21
3.27580123093568
 31
0.0
  0
LINE
  5
   1BF
  8
0
  6
CONTINUOUS
 62
     7
 10
-853.347723723224
 20
-38.7241871878816
 30
0.0
 11
-853.347723723224
 21
3.27580123093568
 31
0.0
  0
LINE
  5
   1C0
  8
0
  6
CONTINUOUS
 62
     7
 10
-854.124180879642
 20
-35.8264097146711
 30
0.0
 11
-853.347723723224
 21
-38.7241871878816
 31
0.0
  0
LINE
  5
   1C1
  8
0
  6
CONTINUOUS
 62
     7
 10
-853.347723723224
 20
-38.7241871878816
 30
0.0
 11
-852.571266566805
 21
-35.8264097146711
 31
0.0
  0
LINE
  5
   1C2
  8
0
  6
CONTINUOUS
 62
     7
 10
-852.571266566805
 20
0.37802375772516
 30
0.0
 11
-853.347723723224
 21
3.27580123093568
 31
0.0
  0
LINE
  5
   1C3
  8
0
  6
CONTINUOUS
 62
     7
 10
-853.347723723224
 20
3.27580123093568
 30
0.0
 11
-854.124180879642
 21
0.37802375772516
 31
0.0
  0
ENDBLK
  5
   1C4
  8
0
  6
CONTINUOUS
 62
     7
  0
BLOCK
  5
   1C5
  8
0
  6
CONTINUOUS
 62
     7
  2
*UDIM1213
 70
    65
 10
0.0
 20
0.0
 30
0.0
  3
*UDIM1213
  0
TEXT
  5
   1C6
  8
0
  6
CONTINUOUS
 62
     7
 10
-841.194672034674
 20
5.81962244708502
 30
0.0
 40
3.50000005215406
  1
171.25
 50
89.9999999480344
 41
0.933333333333333
 72
     1
 11
-842.944672052192
 21
15.269622589486
 31
0.0
 73
     2
  0
LINE
  5
   1C7
  8
0
  6
CONTINUOUS
 62
     7
 10
-872.309148490391
 20
-17.7241990819887
 30
0.0
 11
-861.598595245917
 21
-17.7242005468183
 31
0.0
  0
LINE
  5
   1C8
  8
0
  6
CONTINUOUS
 62
     7
 10
-850.272484237301
 20
-17.7242005468183
 30
0.0
 11
-837.194672026115
 21
-17.7241990819887
 31
0.0
  0
LINE
  5
   1C9
  8
0
  6
CONTINUOUS
 62
     7
 10
-883.449358525877
 20
50.7757741628993
 30
0.0
 11
-837.194672026115
 21
50.7757741628993
 31
0.0
  0
LINE
  5
   1CA
  8
0
  6
CONTINUOUS
 62
     7
 10
-839.194672026115
 20
-17.7241990819887
 30
0.0
 11
-839.194672026115
 21
50.7757741628993
 31
0.0
  0
LINE
  5
   1CB
  8
0
  6
CONTINUOUS
 62
     7
 10
-839.971129182533
 20
-14.8264216087782
 30
0.0
 11
-839.194672026115
 21
-17.7241990819887
 31
0.0
  0
LINE
  5
   1CC
  8
0
  6
CONTINUOUS
 62
     7
 10
-839.194672026115
 20
-17.7241990819887
 30
0.0
 11
-838.418214869696
 21
-14.8264216087782
 31
0.0
  0
LINE
  5
   1CD
  8
0
  6
CONTINUOUS
 62
     7
 10
-838.418214869696
 20
47.8779966896887
 30
0.0
 11
-839.194672026115
 21
50.7757741628993
 31
0.0
  0
LINE
  5
   1CE
  8
0
  6
CONTINUOUS
 62
     7
 10
-839.194672026115
 20
50.7757741628993
 30
0.0
 11
-839.971129182533
 21
47.8779966896887
 31
0.0
  0
ENDBLK
  5
   1CF
  8
0
  6
CONTINUOUS
 62
     7
  0
BLOCK
  5
   1D0
  8
0
  6
CONTINUOUS
 62
     7
  2
*UDIM1214
 70
    65
 10
0.0
 20
0.0
 30
0.0
  3
*UDIM1214
  0
TEXT
  5
   1D1
  8
0
  6
CONTINUOUS
 62
     7
 10
-826.644540726394
 20
-23.92084602129
 30
0.0
 40
3.50000005215406
  1
346
 50
89.9999999480344
 41
0.933333333333333
 72
     1
 11
-828.39454074835
 21
-19.3708459519047
 31
0.0
 73
     2
  0
LINE
  5
   1D2
  8
0
  6
CONTINUOUS
 62
     7
 10
-883.449315801263
 20
-87.6242001235798
 30
0.0
 11
-822.644540722273
 21
-87.6242001235798
 31
0.0
  0
LINE
  5
   1D3
  8
0
  6
CONTINUOUS
 62
     7
 10
-883.449358525877
 20
50.7757741628993
 30
0.0
 11
-822.644540722273
 21
50.7757741628993
 31
0.0
  0
LINE
  5
   1D4
  8
0
  6
CONTINUOUS
 62
     7
 10
-824.644540722273
 20
-87.6242001235798
 30
0.0
 11
-824.644540722273
 21
50.7757741628993
 31
0.0
  0
LINE
  5
   1D5
  8
0
  6
CONTINUOUS
 62
     7
 10
-825.420997878692
 20
-84.7264226503693
 30
0.0
 11
-824.644540722273
 21
-87.6242001235798
 31
0.0
  0
LINE
  5
   1D6
  8
0
  6
CONTINUOUS
 62
     7
 10
-824.644540722273
 20
-87.6242001235798
 30
0.0
 11
-823.868083565855
 21
-84.7264226503693
 31
0.0
  0
LINE
  5
   1D7
  8
0
  6
CONTINUOUS
 62
     7
 10
-823.868083565855
 20
47.8779966896887
 30
0.0
 11
-824.644540722273
 21
50.7757741628993
 31
0.0
  0
LINE
  5
   1D8
  8
0
  6
CONTINUOUS
 62
     7
 10
-824.644540722273
 20
50.7757741628993
 30
0.0
 11
-825.420997878692
 21
47.8779966896887
 31
0.0
  0
ENDBLK
  5
   1D9
  8
0
  6
CONTINUOUS
 62
     7
  0
BLOCK
  5
   1DA
  8
0
  6
CONTINUOUS
 62
     7
  2
*UDIM1215
 70
    65
 10
0.0
 20
0.0
 30
0.0
  3
*UDIM1215
  0
TEXT
  5
   1DB
  8
0
  6
CONTINUOUS
 62
     7
 10
-826.644540724915
 20
53.05912294247
 30
0.0
 40
3.50000005215406
  1
26
 50
89.9999999480344
 41
0.933333333333333
 72
     1
 11
-828.39454074835
 21
55.9757896541834
 31
0.0
 73
     2
  0
LINE
  5
   1DC
  8
0
  6
CONTINUOUS
 62
     7
 10
-924.04931640625
 20
61.1758051454675
 30
0.0
 11
-822.644540722273
 21
61.1758051454675
 31
0.0
  0
LINE
  5
   1DD
  8
0
  6
CONTINUOUS
 62
     7
 10
-824.644540722273
 20
50.7757741628993
 30
0.0
 11
-824.644540722273
 21
66.1758051454675
 31
0.0
  0
LINE
  5
   1DE
  8
0
  6
CONTINUOUS
 62
     7
 10
-823.868083565855
 20
47.8779966896887
 30
0.0
 11
-824.644540722273
 21
50.7757741628993
 31
0.0
  0
LINE
  5
   1DF
  8
0
  6
CONTINUOUS
 62
     7
 10
-824.644540722273
 20
50.7757741628993
 30
0.0
 11
-825.420997878692
 21
47.8779966896887
 31
0.0
  0
LINE
  5
   1E0
  8
0
  6
CONTINUOUS
 62
     7
 10
-825.420997878692
 20
64.0735826186781
 30
0.0
 11
-824.644540722273
 21
61.1758051454675
 31
0.0
  0
LINE
  5
   1E1
  8
0
  6
CONTINUOUS
 62
     7
 10
-824.644540722273
 20
61.1758051454675
 30
0.0
 11
-823.868083565855
 21
64.0735826186781
 31
0.0
  0
ENDBLK
  5
   1E2
  8
0
  6
CONTINUOUS
 62
     7
  0
BLOCK
  5
   1E3
  8
0
  6
CONTINUOUS
 62
     7
  2
*UDIM1216
 70
    65
 10
0.0
 20
0.0
 30
0.0
  3
*UDIM1216
  0
TEXT
  5
   1E4
  8
0
  6
CONTINUOUS
 62
     7
 10
-913.963365359405
 20
95.4762622841853
 30
0.0
 40
3.50000005215406
  1
126.5
 50
359.999999948034
 41
0.933333333333333
 72
     1
 11
-906.146698574683
 21
97.2262623032121
 31
0.0
 73
     2
  0
LINE
  5
   1E5
  8
0
  6
CONTINUOUS
 62
     7
 10
-880.049321839214
 20
4.27580123093568
 30
0.0
 11
-880.049321839214
 21
95.4762622771351
 31
0.0
  0
LINE
  5
   1E6
  8
0
  6
CONTINUOUS
 62
     7
 10
-930.649316489697
 20
62.1758051454675
 30
0.0
 11
-930.649316489697
 21
95.4762622771351
 31
0.0
  0
LINE
  5
   1E7
  8
0
  6
CONTINUOUS
 62
     7
 10
-880.049321839214
 20
93.476262277135
 30
0.0
 11
-930.649316489697
 21
93.476262277135
 31
0.0
  0
LINE
  5
   1E8
  8
0
  6
CONTINUOUS
 62
     7
 10
-882.947099312424
 20
92.6998051207165
 30
0.0
 11
-880.049321839214
 21
93.476262277135
 31
0.0
  0
LINE
  5
   1E9
  8
0
  6
CONTINUOUS
 62
     7
 10
-880.049321839214
 20
93.476262277135
 30
0.0
 11
-882.947099312424
 21
94.2527194335536
 31
0.0
  0
LINE
  5
   1EA
  8
0
  6
CONTINUOUS
 62
     7
 10
-927.751539016486
 20
94.2527194335536
 30
0.0
 11
-930.649316489697
 21
93.476262277135
 31
0.0
  0
LINE
  5
   1EB
  8
0
  6
CONTINUOUS
 62
     7
 10
-930.649316489697
 20
93.476262277135
 30
0.0
 11
-927.751539016486
 21
92.6998051207165
 31
0.0
  0
ENDBLK
  5
   1EC
  8
0
  6
CONTINUOUS
 62
     7
  0
BLOCK
  5
   1ED
  8
0
  6
CONTINUOUS
 62
     7
  2
*HATCH368
 70
    65
 10
0.0
 20
0.0
 30
0.0
  3
*HATCH368
  0
LINE
  5
   1EE
  8
0
  6
CONTINUOUS
 62
    52
 10
6.81982946395874
 20
-24.9999752044678
 30
0.0
 11
4.3370246887207
 21
-27.482780456543
 31
0.0
  0
LINE
  5
   1EF
  8
0
  6
CONTINUOUS
 62
    52
 10
9.23702430725098
 20
-26.8254203796387
 30
0.0
 11
4.3370246887207
 21
-31.7254199981689
 31
0.0
  0
LINE
  5
   1F0
  8
0
  6
CONTINUOUS
 62
    52
 10
9.23702430725098
 20
-31.0680618286133
 30
0.0
 11
6.30511093139648
 21
-33.9999732971191
 31
0.0
  0
ENDBLK
  5
   1F1
  8
0
  6
CONTINUOUS
 62
     7
  0
BLOCK
  5
   1F2
  8
0
  6
CONTINUOUS
 62
     7
  2
*HATCH369
 70
    65
 10
0.0
 20
0.0
 30
0.0
  3
*HATCH369
  0
LINE
  5
   1F3
  8
0
  6
CONTINUOUS
 62
    52
 10
-12.2720546722412
 20
-24.9999752044678
 30
0.0
 11
-14.6659460067749
 21
-27.3938674926758
 31
0.0
  0
LINE
  5
   1F4
  8
0
  6
CONTINUOUS
 62
    52
 10
-8.02941513061523
 20
-24.9999752044678
 30
0.0
 11
-13.8433923721313
 21
-30.8139572143555
 31
0.0
  0
LINE
  5
   1F5
  8
0
  6
CONTINUOUS
 62
    52
 10
-5.86297512054443
 20
-27.0761775970459
 30
0.0
 11
-12.7867727279663
 21
-33.9999732971191
 31
0.0
  0
LINE
  5
   1F6
  8
0
  6
CONTINUOUS
 62
    52
 10
-5.86297512054443
 20
-31.3188190460205
 30
0.0
 11
-8.5441312789917
 21
-33.9999732971191
 31
0.0
  0
ENDBLK
  5
   1F7
  8
0
  6
CONTINUOUS
 62
     7
  0
BLOCK
  5
   1F8
  8
0
  6
CONTINUOUS
 62
     7
  2
*UDIM1217
 70
    65
 10
0.0
 20
0.0
 30
0.0
  3
*UDIM1217
  0
TEXT
  5
   1F9
  8
0
  6
CONTINUOUS
 62
     7
 10
-951.830209478067
 20
8.01813749909017
 30
0.0
 40
3.50000005215406
  1
8.5
 50
89.9999999480344
 41
0.933333333333333
 72
     1
 11
-953.580209500023
 21
12.5681375684755
 31
0.0
 73
     2
  0
LINE
  5
   1FA
  8
0
  6
CONTINUOUS
 62
     7
 10
-916.04932635502
 20
21.7758082989422
 30
0.0
 11
-951.830209473946
 21
21.7758082989422
 31
0.0
  0
LINE
  5
   1FB
  8
0
  6
CONTINUOUS
 62
     7
 10
-921.239070273293
 20
25.1758083496061
 30
0.0
 11
-951.830209473946
 21
25.1758083496061
 31
0.0
  0
LINE
  5
   1FC
  8
0
  6
CONTINUOUS
 62
     7
 10
-949.830209473946
 20
8.01813750067517
 30
0.0
 11
-949.830209473946
 21
25.1758083496061
 31
0.0
  0
LINE
  5
   1FD
  8
0
  6
CONTINUOUS
 62
     7
 10
-949.053752317527
 20
18.8780308257316
 30
0.0
 11
-949.830209473946
 21
21.7758082989422
 31
0.0
  0
LINE
  5
   1FE
  8
0
  6
CONTINUOUS
 62
     7
 10
-949.830209473946
 20
21.7758082989422
 30
0.0
 11
-950.606666630364
 21
18.8780308257316
 31
0.0
  0
CIRCLE
  5
   1FF
  8
0
  6
CONTINUOUS
 62
     7
 10
-949.830209473946
 20
25.1758083496061
 30
0.0
 40
01.0
  0
ENDBLK
  5
   200
  8
0
  6
CONTINUOUS
 62
     7
  0
BLOCK
  5
   201
  8
0
  6
CONTINUOUS
 62
     7
  2
*UDIM1218
 70
    65
 10
0.0
 20
0.0
 30
0.0
  3
*UDIM1218
  0
TEXT
  5
   202
  8
0
  6
CONTINUOUS
 62
     7
 10
-951.830209476588
 20
31.2762751035573
 30
0.0
 40
3.50000005215406
  1
32
 50
89.9999999480344
 41
0.933333333333333
 72
     1
 11
-953.580209500023
 21
34.1929418152707
 31
0.0
 73
     2
  0
LINE
  5
   203
  8
0
  6
CONTINUOUS
 62
     7
 10
-920.049316316843
 20
37.975808540341
 30
0.0
 11
-951.830209473946
 21
37.975808540341
 31
0.0
  0
LINE
  5
   204
  8
0
  6
CONTINUOUS
 62
     7
 10
-949.830209473946
 20
25.1758083496061
 30
0.0
 11
-949.830209473946
 21
42.975808540341
 31
0.0
  0
CIRCLE
  5
   205
  8
0
  6
CONTINUOUS
 62
     7
 10
-949.830209473946
 20
25.1758083496061
 30
0.0
 40
01.0
  0
LINE
  5
   206
  8
0
  6
CONTINUOUS
 62
     7
 10
-950.606666630364
 20
40.8735860135515
 30
0.0
 11
-949.830209473946
 21
37.975808540341
 31
0.0
  0
LINE
  5
   207
  8
0
  6
CONTINUOUS
 62
     7
 10
-949.830209473946
 20
37.975808540341
 30
0.0
 11
-949.053752317527
 21
40.8735860135515
 31
0.0
  0
ENDBLK
  5
   208
  8
0
  6
CONTINUOUS
 62
     7
  0
BLOCK
  5
   209
  8
0
  6
CONTINUOUS
 62
     7
  2
*UDIM1219
 70
    65
 10
0.0
 20
0.0
 30
0.0
  3
*UDIM1219
  0
TEXT
  5
   20A
  8
0
  6
CONTINUOUS
 62
     7
 10
-976.144270873054
 20
37.9027541974879
 30
0.0
 40
3.50000005215406
  1
90
 50
89.9999999480344
 41
0.933333333333333
 72
     1
 11
-977.894270896489
 21
40.8194209092013
 31
0.0
 73
     2
  0
LINE
  5
   20B
  8
0
  6
CONTINUOUS
 62
     7
 10
-921.239070273293
 20
25.1758083496061
 30
0.0
 11
-976.144270870412
 21
25.1758083496061
 31
0.0
  0
LINE
  5
   20C
  8
0
  6
CONTINUOUS
 62
     7
 10
-931.649316489697
 20
61.1758051454675
 30
0.0
 11
-976.144270870412
 21
61.1758051454675
 31
0.0
  0
LINE
  5
   20D
  8
0
  6
CONTINUOUS
 62
     7
 10
-974.144270870413
 20
25.1758083496061
 30
0.0
 11
-974.144270870413
 21
61.1758051454675
 31
0.0
  0
LINE
  5
   20E
  8
0
  6
CONTINUOUS
 62
     7
 10
-974.920728026831
 20
28.0735858228166
 30
0.0
 11
-974.144270870413
 21
25.1758083496061
 31
0.0
  0
LINE
  5
   20F
  8
0
  6
CONTINUOUS
 62
     7
 10
-974.144270870413
 20
25.1758083496061
 30
0.0
 11
-973.367813713994
 21
28.0735858228166
 31
0.0
  0
LINE
  5
   210
  8
0
  6
CONTINUOUS
 62
     7
 10
-973.367813713994
 20
58.278027672257
 30
0.0
 11
-974.144270870413
 21
61.1758051454675
 31
0.0
  0
LINE
  5
   211
  8
0
  6
CONTINUOUS
 62
     7
 10
-974.144270870413
 20
61.1758051454675
 30
0.0
 11
-974.920728026831
 21
58.278027672257
 31
0.0
  0
ENDBLK
  5
   212
  8
0
  6
CONTINUOUS
 62
     7
  0
BLOCK
  5
   213
  8
0
  6
CONTINUOUS
 62
     7
  2
*UDIM1220
 70
    65
 10
0.0
 20
0.0
 30
0.0
  3
*UDIM1220
  0
TEXT
  5
   214
  8
0
  6
CONTINUOUS
 62
     7
 10
-965.143010567174
 20
39.5002089015998
 30
0.0
 40
3.50000005215406
  1
58
 50
89.9999999480344
 41
0.933333333333333
 72
     1
 11
-966.893010590609
 21
42.4168756133132
 31
0.0
 73
     2
  0
LINE
  5
   215
  8
0
  6
CONTINUOUS
 62
     7
 10
-931.649316489697
 20
29.1758046686304
 30
0.0
 11
-965.143010564532
 21
29.1758046686304
 31
0.0
  0
LINE
  5
   216
  8
0
  6
CONTINUOUS
 62
     7
 10
-931.649316489697
 20
52.3758050143373
 30
0.0
 11
-965.143010564532
 21
52.3758050143373
 31
0.0
  0
LINE
  5
   217
  8
0
  6
CONTINUOUS
 62
     7
 10
-963.143010564532
 20
29.1758046686304
 30
0.0
 11
-963.143010564532
 21
52.3758050143373
 31
0.0
  0
LINE
  5
   218
  8
0
  6
CONTINUOUS
 62
     7
 10
-963.919467720951
 20
32.0735821418409
 30
0.0
 11
-963.143010564532
 21
29.1758046686304
 31
0.0
  0
LINE
  5
   219
  8
0
  6
CONTINUOUS
 62
     7
 10
-963.143010564532
 20
29.1758046686304
 30
0.0
 11
-962.366553408113
 21
32.0735821418409
 31
0.0
  0
LINE
  5
   21A
  8
0
  6
CONTINUOUS
 62
     7
 10
-962.366553408113
 20
49.4780275411268
 30
0.0
 11
-963.143010564532
 21
52.3758050143373
 31
0.0
  0
LINE
  5
   21B
  8
0
  6
CONTINUOUS
 62
     7
 10
-963.143010564532
 20
52.3758050143373
 30
0.0
 11
-963.919467720951
 21
49.4780275411268
 31
0.0
  0
ENDBLK
  5
   21C
  8
0
  6
CONTINUOUS
 62
     7
  0
BLOCK
  5
   21D
  8
0
  6
CONTINUOUS
 62
     7
  2
*UDIM1221
 70
    65
 10
0.0
 20
0.0
 30
0.0
  3
*UDIM1221
  0
TEXT
  5
   21E
  8
0
  6
CONTINUOUS
 62
     7
 10
-906.745106616642
 20
-119.565397935081
 30
0.0
 40
3.50000005215406
  1
149
 50
359.999999948034
 41
0.933333333333333
 72
     1
 11
-902.195106547263
 21
-117.815397913108
 31
0.0
 73
     2
  0
LINE
  5
   21F
  8
0
  6
CONTINUOUS
 62
     7
 10
-871.049315601587
 20
-18.7241990819887
 30
0.0
 11
-871.049315601587
 21
-123.565397939185
 31
0.0
  0
LINE
  5
   220
  8
0
  6
CONTINUOUS
 62
     7
 10
-930.649316489697
 20
-99.8241972387183
 30
0.0
 11
-930.649316489697
 21
-123.565397939185
 31
0.0
  0
LINE
  5
   221
  8
0
  6
CONTINUOUS
 62
     7
 10
-871.049315601587
 20
-121.565397939185
 30
0.0
 11
-930.649316489697
 21
-121.565397939185
 31
0.0
  0
LINE
  5
   222
  8
0
  6
CONTINUOUS
 62
     7
 10
-873.947093074798
 20
-122.341855095604
 30
0.0
 11
-871.049315601587
 21
-121.565397939185
 31
0.0
  0
LINE
  5
   223
  8
0
  6
CONTINUOUS
 62
     7
 10
-871.049315601587
 20
-121.565397939185
 30
0.0
 11
-873.947093074798
 21
-120.788940782767
 31
0.0
  0
LINE
  5
   224
  8
0
  6
CONTINUOUS
 62
     7
 10
-927.751539016486
 20
-120.788940782767
 30
0.0
 11
-930.649316489697
 21
-121.565397939185
 31
0.0
  0
LINE
  5
   225
  8
0
  6
CONTINUOUS
 62
     7
 10
-930.649316489697
 20
-121.565397939185
 30
0.0
 11
-927.751539016486
 21
-122.341855095604
 31
0.0
  0
ENDBLK
  5
   226
  8
0
  6
CONTINUOUS
 62
     7
  0
BLOCK
  5
   227
  8
0
  6
CONTINUOUS
 62
     7
  2
*UDIM1222
 70
    65
 10
0.0
 20
0.0
 30
0.0
  3
*UDIM1222
  0
TEXT
  5
   228
  8
0
  6
CONTINUOUS
 62
     7
 10
-923.62454175015
 20
-108.087481504765
 30
0.0
 40
3.50000005215406
  1
48
 50
359.999999948034
 41
0.933333333333333
 72
     1
 11
-920.707875038443
 21
-106.337481481319
 31
0.0
 73
     2
  0
LINE
  5
   229
  8
0
  6
CONTINUOUS
 62
     7
 10
-911.449326301376
 20
-80.6242341404277
 30
0.0
 11
-911.449326301376
 21
-112.087481507396
 31
0.0
  0
LINE
  5
   22A
  8
0
  6
CONTINUOUS
 62
     7
 10
-930.649316489697
 20
-99.8241972387183
 30
0.0
 11
-930.649316489697
 21
-112.087481507396
 31
0.0
  0
LINE
  5
   22B
  8
0
  6
CONTINUOUS
 62
     7
 10
-911.449326301376
 20
-110.087481507396
 30
0.0
 11
-930.649316489697
 21
-110.087481507396
 31
0.0
  0
LINE
  5
   22C
  8
0
  6
CONTINUOUS
 62
     7
 10
-914.347103774587
 20
-110.863938663814
 30
0.0
 11
-911.449326301376
 21
-110.087481507396
 31
0.0
  0
LINE
  5
   22D
  8
0
  6
CONTINUOUS
 62
     7
 10
-911.449326301376
 20
-110.087481507396
 30
0.0
 11
-914.347103774587
 21
-109.311024350977
 31
0.0
  0
LINE
  5
   22E
  8
0
  6
CONTINUOUS
 62
     7
 10
-927.751539016486
 20
-109.311024350977
 30
0.0
 11
-930.649316489697
 21
-110.087481507396
 31
0.0
  0
LINE
  5
   22F
  8
0
  6
CONTINUOUS
 62
     7
 10
-930.649316489697
 20
-110.087481507396
 30
0.0
 11
-927.751539016486
 21
-110.863938663814
 31
0.0
  0
ENDBLK
  5
   230
  8
0
  6
CONTINUOUS
 62
     7
  0
BLOCK
  5
   231
  8
0
  6
CONTINUOUS
 62
     7
  2
*UDIM1223
 70
    65
 10
0.0
 20
0.0
 30
0.0
  3
*UDIM1223
  0
TEXT
  5
   232
  8
0
  6
CONTINUOUS
 62
     7
 10
-907.489291809945
 20
75.5394791978913
 30
0.0
 40
3.50000005215406
  1
7
 50
359.999999948034
 41
0.933333333333333
 72
     1
 11
-906.20595845591
 21
77.2894792228108
 31
0.0
 73
     2
  0
LINE
  5
   233
  8
0
  6
CONTINUOUS
 62
     7
 10
-912.249326313297
 20
35.3758084866968
 30
0.0
 11
-912.249326313297
 21
75.5394791967338
 31
0.0
  0
LINE
  5
   234
  8
0
  6
CONTINUOUS
 62
     7
 10
-915.04932635502
 20
35.3758084866968
 30
0.0
 11
-915.04932635502
 21
75.5394791967338
 31
0.0
  0
LINE
  5
   235
  8
0
  6
CONTINUOUS
 62
     7
 10
-904.922625103453
 20
73.5394791967338
 30
0.0
 11
-920.04932635502
 21
73.5394791967338
 31
0.0
  0
LINE
  5
   236
  8
0
  6
CONTINUOUS
 62
     7
 10
-909.351548840087
 20
74.3159363531523
 30
0.0
 11
-912.249326313297
 21
73.5394791967338
 31
0.0
  0
LINE
  5
   237
  8
0
  6
CONTINUOUS
 62
     7
 10
-912.249326313297
 20
73.5394791967338
 30
0.0
 11
-909.351548840087
 21
72.7630220403152
 31
0.0
  0
LINE
  5
   238
  8
0
  6
CONTINUOUS
 62
     7
 10
-917.947103828231
 20
72.7630220403152
 30
0.0
 11
-915.04932635502
 21
73.5394791967338
 31
0.0
  0
LINE
  5
   239
  8
0
  6
CONTINUOUS
 62
     7
 10
-915.04932635502
 20
73.5394791967338
 30
0.0
 11
-917.947103828231
 21
74.3159363531523
 31
0.0
  0
ENDBLK
  5
   23A
  8
0
  6
CONTINUOUS
 62
     7
  0
BLOCK
  5
   23B
  8
0
  6
CONTINUOUS
 62
     7
  2
*UDIM1224
 70
    65
 10
0.0
 20
0.0
 30
0.0
  3
*UDIM1224
  0
TEXT
  5
   23C
  8
0
  6
CONTINUOUS
 62
     7
 10
-862.026923063132
 20
37.8277442781556
 30
0.0
 40
3.50000005215406
  1
18
 50
89.9999999480344
 41
0.933333333333333
 72
     1
 11
-863.776923086568
 21
40.744410989869
 31
0.0
 73
     2
  0
LINE
  5
   23D
  8
0
  6
CONTINUOUS
 62
     7
 10
-906.043465266192
 20
25.1758083496061
 30
0.0
 11
-858.026923060491
 21
25.1758083496061
 31
0.0
  0
LINE
  5
   23E
  8
0
  6
CONTINUOUS
 62
     7
 10
-884.449324971442
 20
32.3757955610372
 30
0.0
 11
-858.026923060491
 21
32.3757955610373
 31
0.0
  0
LINE
  5
   23F
  8
0
  6
CONTINUOUS
 62
     7
 10
-860.026923060491
 20
20.1758083496061
 30
0.0
 11
-860.026923060491
 21
43.6610776999974
 31
0.0
  0
LINE
  5
   240
  8
0
  6
CONTINUOUS
 62
     7
 10
-859.250465904072
 20
22.2780308763956
 30
0.0
 11
-860.026923060491
 21
25.1758083496061
 31
0.0
  0
LINE
  5
   241
  8
0
  6
CONTINUOUS
 62
     7
 10
-860.026923060491
 20
25.1758083496061
 30
0.0
 11
-860.803380216909
 21
22.2780308763956
 31
0.0
  0
LINE
  5
   242
  8
0
  6
CONTINUOUS
 62
     7
 10
-860.803380216909
 20
35.2735730342478
 30
0.0
 11
-860.026923060491
 21
32.3757955610373
 31
0.0
  0
LINE
  5
   243
  8
0
  6
CONTINUOUS
 62
     7
 10
-860.026923060491
 20
32.3757955610373
 30
0.0
 11
-859.250465904072
 21
35.2735730342478
 31
0.0
  0
ENDBLK
  5
   244
  8
0
  6
CONTINUOUS
 62
     7
  0
BLOCK
  5
   245
  8
0
  6
CONTINUOUS
 62
     7
  2
*HATCH370
 70
    65
 10
0.0
 20
0.0
 30
0.0
  3
*HATCH370
  0
LINE
  5
   246
  8
0
  6
CONTINUOUS
 62
   210
 10
273.650329589844
 20
0.0
 30
0.0
 11
272.150329589844
 21
-1.5
 31
0.0
  0
LINE
  5
   247
  8
0
  6
CONTINUOUS
 62
   210
 10
277.892944335938
 20
0.0
 30
0.0
 11
276.392944335938
 21
-1.5
 31
0.0
  0
LINE
  5
   248
  8
0
  6
CONTINUOUS
 62
   210
 10
282.135620117188
 20
0.0
 30
0.0
 11
280.635620117188
 21
-1.5
 31
0.0
  0
LINE
  5
   249
  8
0
  6
CONTINUOUS
 62
   210
 10
284.256927490234
 20
0.0
 30
0.0
 11
282.756927490234
 21
-1.5
 31
0.0
  0
LINE
  5
   24A
  8
0
  6
CONTINUOUS
 62
   210
 10
286.237030029297
 20
-0.141216635704041
 30
0.0
 11
284.878265380859
 21
-1.5
 31
0.0
  0
LINE
  5
   24B
  8
0
  6
CONTINUOUS
 62
   210
 10
278.987030029297
 20
-9.51253604888916
 30
0.0
 11
277.487030029297
 21
-11.0125360488892
 31
0.0
  0
LINE
  5
   24C
  8
0
  6
CONTINUOUS
 62
   210
 10
278.987030029297
 20
-13.7551765441895
 30
0.0
 11
277.487030029297
 21
-15.2551765441895
 31
0.0
  0
LINE
  5
   24D
  8
0
  6
CONTINUOUS
 62
   210
 10
278.987030029297
 20
-17.9978179931641
 30
0.0
 11
277.487030029297
 21
-19.4978179931641
 31
0.0
  0
LINE
  5
   24E
  8
0
  6
CONTINUOUS
 62
   210
 10
278.987030029297
 20
-22.2404594421387
 30
0.0
 11
277.487030029297
 21
-23.7404594421387
 31
0.0
  0
LINE
  5
   24F
  8
0
  6
CONTINUOUS
 62
   210
 10
278.987030029297
 20
-26.4831008911133
 30
0.0
 11
277.487030029297
 21
-27.9831008911133
 31
0.0
  0
LINE
  5
   250
  8
0
  6
CONTINUOUS
 62
   210
 10
278.987030029297
 20
-30.7257423400879
 30
0.0
 11
277.487030029297
 21
-32.2257423400879
 31
0.0
  0
LINE
  5
   251
  8
0
  6
CONTINUOUS
 62
   210
 10
278.987030029297
 20
-34.9683799743652
 30
0.0
 11
277.487030029297
 21
-36.4683799743652
 31
0.0
  0
LINE
  5
   252
  8
0
  6
CONTINUOUS
 62
   210
 10
278.987030029297
 20
-39.2110176086426
 30
0.0
 11
277.487030029297
 21
-40.7110176086426
 31
0.0
  0
LINE
  5
   253
  8
0
  6
CONTINUOUS
 62
   210
 10
278.987030029297
 20
-43.4536552429199
 30
0.0
 11
277.487030029297
 21
-44.9536552429199
 31
0.0
  0
LINE
  5
   254
  8
0
  6
CONTINUOUS
 62
   210
 10
278.987030029297
 20
-47.6962928771973
 30
0.0
 11
277.487030029297
 21
-49.1962928771973
 31
0.0
  0
LINE
  5
   255
  8
0
  6
CONTINUOUS
 62
   210
 10
278.987030029297
 20
-51.9389305114746
 30
0.0
 11
277.487030029297
 21
-53.4389305114746
 31
0.0
  0
LINE
  5
   256
  8
0
  6
CONTINUOUS
 62
   210
 10
278.987030029297
 20
-56.181568145752
 30
0.0
 11
277.487030029297
 21
-57.681568145752
 31
0.0
  0
ENDBLK
  5
   257
  8
0
  6
CONTINUOUS
 62
     7
  0
ENDSEC
  0
SECTION
  2
ENTITIES
  0
INSERT
  5
   258
  8
255
  6
CONTINUOUS
 62
     7
  2
TC_M5_INTAG____F
 10
-1041.04531331234
 20
55.1758203148496
 30
0.0
 41
0.400000005960464
 42
0.400000005960464
 50
179.999999896069
 43
0.400000005960464
  0
INSERT
  5
   259
  8
255
  6
CONTINUOUS
 62
     7
  2
TC_M5_INTAG____F
 10
-1101.04531420641
 20
-92.8241818905222
 30
0.0
 41
0.400000005960464
 42
0.400000005960464
 50
179.999999896069
 43
0.400000005960464
  0
INSERT
  5
   25A
  8
255
  6
CONTINUOUS
 62
     7
  2
TC_M5_INTAG____F
 10
-1101.04531420641
 20
55.1758203148496
 30
0.0
 41
0.400000005960464
 42
0.400000005960464
 50
89.9999999480344
 43
0.400000005960464
  0
INSERT
  5
   25B
  8
255
  6
CONTINUOUS
 62
     7
  2
TB_M8_ESAGONO__F
 10
-1062.29529488332
 20
-75.2242188160735
 30
0.0
 41
0.400000005960464
 42
0.400000005960464
 50
179.999999896069
 43
0.400000005960464
  0
INSERT
  5
   25C
  8
255
  6
CONTINUOUS
 62
     7
  2
TB_M8_ESAGONO__F
 10
-1044.79531343153
 20
-75.2242188160735
 30
0.0
 41
0.400000005960464
 42
0.400000005960464
 50
89.9999999480344
 43
0.400000005960464
  0
LINE
  5
   25D
  8
0
  6
CONTINUOUS
 62
     7
 10
-1039.39531335106
 20
-70.8242187505084
 30
0.0
 11
-1050.19531351199
 21
-70.8242187505084
 31
0.0
  0
LINE
  5
   25E
  8
0
  6
CONTINUOUS
 62
     7
 10
-1056.89529480285
 20
-70.8242187505084
 30
0.0
 11
-1067.69529496379
 21
-70.8242187505084
 31
0.0
  0
LINE
  5
   25F
  8
0
  6
CONTINUOUS
 62
     1
 10
-1073.14531394717
 20
-59.6241844475584
 30
0.0
 11
-1086.44531414535
 21
-59.6241844475584
 31
0.0
  0
LINE
  5
   260
  8
0
  6
CONTINUOUS
 62
     1
 10
-1090.64531420794
 20
-59.6241844475584
 30
0.0
 11
-1106.79531444859
 21
-59.6241844475584
 31
0.0
  0
LINE
  5
   261
  8
0
  6
CONTINUOUS
 62
     1
 10
-1065.30957435995
 20
-59.6241844475582
 30
0.0
 11
-1107.39531430103
 21
-59.6241844475582
 31
0.0
  0
LINE
  5
   262
  8
0
  6
CONTINUOUS
 62
     1
 10
-1065.407146441
 20
-60.0241844535187
 30
0.0
 11
-1107.39531430103
 21
-60.0241844535187
 31
0.0
  0
LINE
  5
   263
  8
0
  6
CONTINUOUS
 62
     1
 10
-1107.79531430699
 20
-87.1241848573401
 30
0.0
 11
-1107.79531430699
 21
-60.0241844535187
 31
0.0
  0
LINE
  5
   264
  8
0
  6
CONTINUOUS
 62
     1
 10
-1107.39531430103
 20
-60.0241844535187
 30
0.0
 11
-1107.39531430103
 21
-59.6241844475582
 31
0.0
  0
ARC
  5
   265
  8
0
  6
CONTINUOUS
 62
     1
 10
-1107.29531429954
 20
-87.1241848573401
 30
0.0
 40
0.500000007450581
 50
179.999999948034
 51
269.999999948034
  0
LINE
  5
   266
  8
0
  6
CONTINUOUS
 62
     1
 10
-1099.35531418123
 20
-87.6241848647907
 30
0.0
 11
-1099.35531418123
 21
-60.0241844535187
 31
0.0
  0
LINE
  5
   267
  8
0
  6
CONTINUOUS
 62
     1
 10
-1097.91531415977
 20
-87.6241848647907
 30
0.0
 11
-1097.91531415977
 21
-69.5791682415777
 31
0.0
  0
LINE
  5
   268
  8
0
  6
CONTINUOUS
 62
     1
 10
-1096.47531413831
 20
-87.6241848647907
 30
0.0
 11
-1096.47531413831
 21
-69.4780953420564
 31
0.0
  0
LINE
  5
   269
  8
0
  6
CONTINUOUS
 62
     1
 10
-1095.03531411685
 20
-87.6241848647907
 30
0.0
 11
-1095.03531411685
 21
-60.0241844535187
 31
0.0
  0
LINE
  5
   26A
  8
0
  6
CONTINUOUS
 62
     1
 10
-1093.5953140954
 20
-87.6241848647907
 30
0.0
 11
-1093.5953140954
 21
-60.0241844535187
 31
0.0
  0
LINE
  5
   26B
  8
0
  6
CONTINUOUS
 62
     1
 10
-1092.15531407394
 20
-87.6241848647907
 30
0.0
 11
-1092.15531407394
 21
-60.0241844535187
 31
0.0
  0
LINE
  5
   26C
  8
0
  6
CONTINUOUS
 62
     1
 10
-1090.71531405248
 20
-87.6241848647907
 30
0.0
 11
-1090.71531405248
 21
-60.0241844535187
 31
0.0
  0
LINE
  5
   26D
  8
0
  6
CONTINUOUS
 62
     1
 10
-1089.27531403102
 20
-87.6241848647907
 30
0.0
 11
-1089.27531403102
 21
-60.0241844535187
 31
0.0
  0
LINE
  5
   26E
  8
0
  6
CONTINUOUS
 62
     1
 10
-1087.83531400957
 20
-87.6241848647907
 30
0.0
 11
-1087.83531400957
 21
-60.0241844535187
 31
0.0
  0
LINE
  5
   26F
  8
0
  6
CONTINUOUS
 62
     1
 10
-1086.39531398811
 20
-87.6241848647907
 30
0.0
 11
-1086.39531398811
 21
-60.0241844535187
 31
0.0
  0
LINE
  5
   270
  8
0
  6
CONTINUOUS
 62
     1
 10
-1084.95531396665
 20
-87.6241848647907
 30
0.0
 11
-1084.95531396665
 21
-60.0241844535187
 31
0.0
  0
LINE
  5
   271
  8
0
  6
CONTINUOUS
 62
     1
 10
-1083.51531394519
 20
-87.6241848647907
 30
0.0
 11
-1083.51531394519
 21
-60.0241844535187
 31
0.0
  0
LINE
  5
   272
  8
0
  6
CONTINUOUS
 62
     1
 10
-1082.07531392373
 20
-87.6241848647907
 30
0.0
 11
-1082.07531392373
 21
-60.0241844535187
 31
0.0
  0
LINE
  5
   273
  8
0
  6
CONTINUOUS
 62
     1
 10
-1080.63531390228
 20
-87.6241848647907
 30
0.0
 11
-1080.63531390228
 21
-60.0241844535187
 31
0.0
  0
LINE
  5
   274
  8
0
  6
CONTINUOUS
 62
     1
 10
-1079.19531388082
 20
-87.6241848647907
 30
0.0
 11
-1079.19531388082
 21
-60.0241844535187
 31
0.0
  0
LINE
  5
   275
  8
0
  6
CONTINUOUS
 62
     1
 10
-1077.75531385936
 20
-87.6241848647907
 30
0.0
 11
-1077.75531385936
 21
-60.0241844535187
 31
0.0
  0
LINE
  5
   276
  8
0
  6
CONTINUOUS
 62
     1
 10
-1076.3153138379
 20
-87.6241848647907
 30
0.0
 11
-1076.3153138379
 21
-60.0241844535187
 31
0.0
  0
LINE
  5
   277
  8
0
  6
CONTINUOUS
 62
     1
 10
-1074.87531381645
 20
-87.6241848647907
 30
0.0
 11
-1074.87531381645
 21
-60.0241844535187
 31
0.0
  0
LINE
  5
   278
  8
0
  6
CONTINUOUS
 62
     1
 10
-1073.43531379499
 20
-87.6241848647907
 30
0.0
 11
-1073.43531379499
 21
-60.0241844535187
 31
0.0
  0
LINE
  5
   279
  8
0
  6
CONTINUOUS
 62
     1
 10
-1071.99531377353
 20
-85.8271895780033
 30
0.0
 11
-1071.99531377353
 21
-60.0241844535187
 31
0.0
  0
LINE
  5
   27A
  8
0
  6
CONTINUOUS
 62
     1
 10
-1070.55531375207
 20
-80.4541232683482
 30
0.0
 11
-1070.55531375207
 21
-60.0241844535187
 31
0.0
  0
LINE
  5
   27B
  8
0
  6
CONTINUOUS
 62
     1
 10
-1069.11531373062
 20
-71.0180745893228
 30
0.0
 11
-1069.11531373062
 21
-60.0241844535187
 31
0.0
  0
LINE
  5
   27C
  8
0
  6
CONTINUOUS
 62
     1
 10
-1067.67531370916
 20
-67.6357328090423
 30
0.0
 11
-1067.67531370916
 21
-60.0241844535187
 31
0.0
  0
LINE
  5
   27D
  8
0
  6
CONTINUOUS
 62
     1
 10
-1066.2353136877
 20
-64.2412350559892
 30
0.0
 11
-1066.2353136877
 21
-60.0241844535187
 31
0.0
  0
LINE
  5
   27E
  8
0
  6
CONTINUOUS
 62
     1
 10
-1107.39531430103
 20
-60.0241844535187
 30
0.0
 11
-1107.79531430699
 21
-60.0241844535187
 31
0.0
  0
POLYLINE
  5
   27F
  8
0
  6
CONTINUOUS
 62
     1
 66
     1
 10
0.0
 20
0.0
 30
0.0
  0
VERTEX
  5
   280
  8
0
  6
CONTINUOUS
 10
-1073.15492803839
 20
-87.6241066556826
 30
0.0
 40
0.0
 41
0.0
  0
VERTEX
  5
   281
  8
0
  6
CONTINUOUS
 10
-1073.06388591006
 20
-87.4979850633375
 30
0.0
 40
0.0
 41
0.0
  0
VERTEX
  5
   282
  8
0
  6
CONTINUOUS
 10
-1072.97361357338
 20
-87.3710572048869
 30
0.0
 40
0.0
 41
0.0
  0
VERTEX
  5
   283
  8
0
  6
CONTINUOUS
 10
-1072.8841297864
 20
-87.243320281318
 30
0.0
 40
0.0
 41
0.0
  0
VERTEX
  5
   284
  8
0
  6
CONTINUOUS
 10
-1072.79546304923
 20
-87.1147700399366
 30
0.0
 40
0.0
 41
0.0
  0
VERTEX
  5
   285
  8
0
  6
CONTINUOUS
 10
-1072.70765365695
 20
-86.9854004680423
 30
0.0
 40
0.0
 41
0.0
  0
VERTEX
  5
   286
  8
0
  6
CONTINUOUS
 10
-1072.62075575248
 20
-86.8552034866047
 30
0.0
 40
0.0
 41
0.0
  0
VERTEX
  5
   287
  8
0
  6
CONTINUOUS
 10
-1072.53483937948
 20
-86.7241686439393
 30
0.0
 40
0.0
 41
0.0
  0
VERTEX
  5
   288
  8
0
  6
CONTINUOUS
 10
-1072.44999253519
 20
-86.5922828093835
 30
0.0
 40
0.0
 41
0.0
  0
VERTEX
  5
   289
  8
0
  6
CONTINUOUS
 10
-1072.36632322334
 20
-86.4595298669721
 30
0.0
 40
0.0
 41
0.0
  0
VERTEX
  5
   28A
  8
0
  6
CONTINUOUS
 10
-1072.28396150706
 20
-86.3258904091135
 30
0.0
 40
0.0
 41
0.0
  0
VERTEX
  5
   28B
  8
0
  6
CONTINUOUS
 10
-1072.17918671808
 20
-86.1509384927523
 30
0.0
 40
0.0
 41
0.0
  0
VERTEX
  5
   28C
  8
0
  6
CONTINUOUS
 10
-1072.1278467886
 20
-86.0628688426659
 30
0.0
 40
0.0
 41
0.0
  0
VERTEX
  5
   28D
  8
0
  6
CONTINUOUS
 10
-1072.07727709714
 20
-85.9743928236246
 30
0.0
 40
0.0
 41
0.0
  0
VERTEX
  5
   28E
  8
0
  6
CONTINUOUS
 10
-1072.02753459699
 20
-85.8855022074367
 30
0.0
 40
0.0
 41
0.0
  0
VERTEX
  5
   28F
  8
0
  6
CONTINUOUS
 10
-1071.97867768312
 20
-85.7961887237087
 30
0.0
 40
0.0
 41
0.0
  0
VERTEX
  5
   290
  8
0
  6
CONTINUOUS
 10
-1071.93076538875
 20
-85.7064442229644
 30
0.0
 40
0.0
 41
0.0
  0
VERTEX
  5
   291
  8
0
  6
CONTINUOUS
 10
-1071.88385658189
 20
-85.6162608397625
 30
0.0
 40
0.0
 41
0.0
  0
VERTEX
  5
   292
  8
0
  6
CONTINUOUS
 10
-1071.83800916191
 20
-85.5256311558152
 30
0.0
 40
0.0
 41
0.0
  0
VERTEX
  5
   293
  8
0
  6
CONTINUOUS
 10
-1071.79327925608
 20
-85.4345483631061
 30
0.0
 40
0.0
 41
0.0
  0
VERTEX
  5
   294
  8
0
  6
CONTINUOUS
 10
-1071.74972041613
 20
-85.3430064270084
 30
0.0
 40
0.0
 41
0.0
  0
VERTEX
  5
   295
  8
0
  6
CONTINUOUS
 10
-1071.70738281479
 20
-85.2510002494034
 30
0.0
 40
0.0
 41
0.0
  0
VERTEX
  5
   296
  8
0
  6
CONTINUOUS
 10
-1071.6663124424
 20
-85.1585258317983
 30
0.0
 40
0.0
 41
0.0
  0
VERTEX
  5
   297
  8
0
  6
CONTINUOUS
 10
-1071.62655030337
 20
-85.0655804384447
 30
0.0
 40
0.0
 41
0.0
  0
VERTEX
  5
   298
  8
0
  6
CONTINUOUS
 10
-1071.58813161282
 20
-84.9721627594566
 30
0.0
 40
0.0
 41
0.0
  0
VERTEX
  5
   299
  8
0
  6
CONTINUOUS
 10
-1071.55108499311
 20
-84.8782730739285
 30
0.0
 40
0.0
 41
0.0
  0
VERTEX
  5
   29A
  8
0
  6
CONTINUOUS
 10
-1071.51543167036
 20
-84.7839134130542
 30
0.0
 40
0.0
 41
0.0
  0
VERTEX
  5
   29B
  8
0
  6
CONTINUOUS
 10
-1071.48118467104
 20
-84.689087723244
 30
0.0
 40
0.0
 41
0.0
  0
VERTEX
  5
   29C
  8
0
  6
CONTINUOUS
 10
-1071.44834801853
 20
-84.5938020292438
 30
0.0
 40
0.0
 41
0.0
  0
VERTEX
  5
   29D
  8
0
  6
CONTINUOUS
 10
-1071.41691592963
 20
-84.4980645972527
 30
0.0
 40
0.0
 41
0.0
  0
VERTEX
  5
   29E
  8
0
  6
CONTINUOUS
 10
-1071.37715222491
 20
-84.3696999705934
 30
0.0
 40
0.0
 41
0.0
  0
VERTEX
  5
   29F
  8
0
  6
CONTINUOUS
 10
-1071.33978714963
 20
-84.2405832486807
 30
0.0
 40
0.0
 41
0.0
  0
VERTEX
  5
   2A0
  8
0
  6
CONTINUOUS
 10
-1071.30471912725
 20
-84.1107537833857
 30
0.0
 40
0.0
 41
0.0
  0
VERTEX
  5
   2A1
  8
0
  6
CONTINUOUS
 10
-1071.27181772187
 20
-83.9802573006747
 30
0.0
 40
0.0
 41
0.0
  0
VERTEX
  5
   2A2
  8
0
  6
CONTINUOUS
 10
-1071.24092726187
 20
-83.8491450261857
 30
0.0
 40
0.0
 41
0.0
  0
VERTEX
  5
   2A3
  8
0
  6
CONTINUOUS
 10
-1071.21187046359
 20
-83.7174728108061
 30
0.0
 40
0.0
 41
0.0
  0
VERTEX
  5
   2A4
  8
0
  6
CONTINUOUS
 10
-1071.18445205494
 20
-83.5853002562494
 30
0.0
 40
0.0
 41
0.0
  0
VERTEX
  5
   2A5
  8
0
  6
CONTINUOUS
 10
-1071.15846239909
 20
-83.4526898406325
 30
0.0
 40
0.0
 41
0.0
  0
VERTEX
  5
   2A6
  8
0
  6
CONTINUOUS
 10
-1071.13368111809
 20
-83.3197060440529
 30
0.0
 40
0.0
 41
0.0
  0
VERTEX
  5
   2A7
  8
0
  6
CONTINUOUS
 10
-1071.10988071654
 20
-83.1864144741653
 30
0.0
 40
0.0
 41
0.0
  0
VERTEX
  5
   2A8
  8
0
  6
CONTINUOUS
 10
-1071.06429872486
 20
-82.9191708363368
 30
0.0
 40
0.0
 41
0.0
  0
VERTEX
  5
   2A9
  8
0
  6
CONTINUOUS
 10
-1070.97495339417
 20
-82.3837975617369
 30
0.0
 40
0.0
 41
0.0
  0
VERTEX
  5
   2AA
  8
0
  6
CONTINUOUS
 10
-1070.92801088794
 20
-82.1165545456436
 30
0.0
 40
0.0
 41
0.0
  0
VERTEX
  5
   2AB
  8
0
  6
CONTINUOUS
 10
-1070.90342043556
 20
-81.9831985681259
 30
0.0
 40
0.0
 41
0.0
  0
VERTEX
  5
   2AC
  8
0
  6
CONTINUOUS
 10
-1070.87794165178
 20
-81.8500605364802
 30
0.0
 40
0.0
 41
0.0
  0
VERTEX
  5
   2AD
  8
0
  6
CONTINUOUS
 10
-1070.85301956238
 20
-81.7246236573178
 30
0.0
 40
0.0
 41
0.0
  0
VERTEX
  5
   2AE
  8
0
  6
CONTINUOUS
 10
-1070.82721890251
 20
-81.5994088189382
 30
0.0
 40
0.0
 41
0.0
  0
VERTEX
  5
   2AF
  8
0
  6
CONTINUOUS
 10
-1070.80053854022
 20
-81.474418943737
 30
0.0
 40
0.0
 41
0.0
  0
VERTEX
  5
   2B0
  8
0
  6
CONTINUOUS
 10
-1070.77300151594
 20
-81.3496507339848
 30
0.0
 40
0.0
 41
0.0
  0
VERTEX
  5
   2B1
  8
0
  6
CONTINUOUS
 10
-1070.71555645815
 20
-81.1007386517899
 30
0.0
 40
0.0
 41
0.0
  0
VERTEX
  5
   2B2
  8
0
  6
CONTINUOUS
 10
-1070.65546253818
 20
-80.8525447938914
 30
0.0
 40
0.0
 41
0.0
  0
VERTEX
  5
   2B3
  8
0
  6
CONTINUOUS
 10
-1070.59353549378
 20
-80.6048806065695
 30
0.0
 40
0.0
 41
0.0
  0
VERTEX
  5
   2B4
  8
0
  6
CONTINUOUS
 10
-1070.46818014104
 20
-80.110199392731
 30
0.0
 40
0.0
 41
0.0
  0
VERTEX
  5
   2B5
  8
0
  6
CONTINUOUS
 10
-1070.40689372381
 20
-79.8626757428514
 30
0.0
 40
0.0
 41
0.0
  0
VERTEX
  5
   2B6
  8
0
  6
CONTINUOUS
 10
-1070.34790813593
 20
-79.6147072635707
 30
0.0
 40
0.0
 41
0.0
  0
VERTEX
  5
   2B7
  8
0
  6
CONTINUOUS
 10
-1070.31955953685
 20
-79.4904912016484
 30
0.0
 40
0.0
 41
0.0
  0
VERTEX
  5
   2B8
  8
0
  6
CONTINUOUS
 10
-1070.29210004541
 20
-79.3660921254899
 30
0.0
 40
0.0
 41
0.0
  0
VERTEX
  5
   2B9
  8
0
  6
CONTINUOUS
 10
-1070.26484728222
 20
-79.2378536928801
 30
0.0
 40
0.0
 41
0.0
  0
VERTEX
  5
   2BA
  8
0
  6
CONTINUOUS
 10
-1070.23868018648
 20
-79.1093910675997
 30
0.0
 40
0.0
 41
0.0
  0
VERTEX
  5
   2BB
  8
0
  6
CONTINUOUS
 10
-1070.21364365829
 20
-78.980696122881
 30
0.0
 40
0.0
 41
0.0
  0
VERTEX
  5
   2BC
  8
0
  6
CONTINUOUS
 10
-1070.18976511903
 20
-78.8517651913162
 30
0.0
 40
0.0
 41
0.0
  0
VERTEX
  5
   2BD
  8
0
  6
CONTINUOUS
 10
-1070.16705585112
 20
-78.7225986706003
 30
0.0
 40
0.0
 41
0.0
  0
VERTEX
  5
   2BE
  8
0
  6
CONTINUOUS
 10
-1070.1455123378
 20
-78.5932006292749
 30
0.0
 40
0.0
 41
0.0
  0
VERTEX
  5
   2BF
  8
0
  6
CONTINUOUS
 10
-1070.12511760291
 20
-78.4635784124714
 30
0.0
 40
0.0
 41
0.0
  0
VERTEX
  5
   2C0
  8
0
  6
CONTINUOUS
 10
-1070.10584255063
 20
-78.3337422476541
 30
0.0
 40
0.0
 41
0.0
  0
VERTEX
  5
   2C1
  8
0
  6
CONTINUOUS
 10
-1070.08764730527
 20
-78.2037048503637
 30
0.0
 40
0.0
 41
0.0
  0
VERTEX
  5
   2C2
  8
0
  6
CONTINUOUS
 10
-1070.07048255103
 20
-78.0734810299607
 30
0.0
 40
0.0
 41
0.0
  0
VERTEX
  5
   2C3
  8
0
  6
CONTINUOUS
 10
-1070.05429087176
 20
-77.9430872953683
 30
0.0
 40
0.0
 41
0.0
  0
VERTEX
  5
   2C4
  8
0
  6
CONTINUOUS
 10
-1070.03900809076
 20
-77.8125414608165
 30
0.0
 40
0.0
 41
0.0
  0
VERTEX
  5
   2C5
  8
0
  6
CONTINUOUS
 10
-1070.01088675244
 20
-77.5510689097448
 30
0.0
 40
0.0
 41
0.0
  0
VERTEX
  5
   2C6
  8
0
  6
CONTINUOUS
 10
-1069.98552082205
 20
-77.2892170149563
 30
0.0
 40
0.0
 41
0.0
  0
VERTEX
  5
   2C7
  8
0
  6
CONTINUOUS
 10
-1069.96229016159
 20
-77.0271350671354
 30
0.0
 40
0.0
 41
0.0
  0
VERTEX
  5
   2C8
  8
0
  6
CONTINUOUS
 10
-1069.94059508159
 20
-76.7649553932266
 30
0.0
 40
0.0
 41
0.0
  0
VERTEX
  5
   2C9
  8
0
  6
CONTINUOUS
 10
-1069.90431787777
 20
-76.3004088504764
 30
0.0
 40
0.0
 41
0.0
  0
VERTEX
  5
   2CA
  8
0
  6
CONTINUOUS
 10
-1069.83278900019
 20
-75.3722271065007
 30
0.0
 40
0.0
 41
0.0
  0
VERTEX
  5
   2CB
  8
0
  6
CONTINUOUS
 10
-1069.79462606146
 20
-74.9085364491147
 30
0.0
 40
0.0
 41
0.0
  0
VERTEX
  5
   2CC
  8
0
  6
CONTINUOUS
 10
-1069.77438544897
 20
-74.6767561168728
 30
0.0
 40
0.0
 41
0.0
  0
VERTEX
  5
   2CD
  8
0
  6
CONTINUOUS
 10
-1069.75312576756
 20
-74.4450226320187
 30
0.0
 40
0.0
 41
0.0
  0
VERTEX
  5
   2CE
  8
0
  6
CONTINUOUS
 10
-1069.72972237772
 20
-74.2043922479016
 30
0.0
 40
0.0
 41
0.0
  0
VERTEX
  5
   2CF
  8
0
  6
CONTINUOUS
 10
-1069.70467749006
 20
-73.9638796371003
 30
0.0
 40
0.0
 41
0.0
  0
VERTEX
  5
   2D0
  8
0
  6
CONTINUOUS
 10
-1069.67765157738
 20
-73.7235498573931
 30
0.0
 40
0.0
 41
0.0
  0
VERTEX
  5
   2D1
  8
0
  6
CONTINUOUS
 10
-1069.64827660154
 20
-73.4834855966643
 30
0.0
 40
0.0
 41
0.0
  0
VERTEX
  5
   2D2
  8
0
  6
CONTINUOUS
 10
-1069.61616842176
 20
-73.2437842404932
 30
0.0
 40
0.0
 41
0.0
  0
VERTEX
  5
   2D3
  8
0
  6
CONTINUOUS
 10
-1069.59896798696
 20
-73.1241033818631
 30
0.0
 40
0.0
 41
0.0
  0
VERTEX
  5
   2D4
  8
0
  6
CONTINUOUS
 10
-1069.58093920299
 20
-73.0045549397422
 30
0.0
 40
0.0
 41
0.0
  0
VERTEX
  5
   2D5
  8
0
  6
CONTINUOUS
 10
-1069.56203504898
 20
-72.8851539152152
 30
0.0
 40
0.0
 41
0.0
  0
VERTEX
  5
   2D6
  8
0
  6
CONTINUOUS
 10
-1069.54220982422
 20
-72.7659156781452
 30
0.0
 40
0.0
 41
0.0
  0
VERTEX
  5
   2D7
  8
0
  6
CONTINUOUS
 10
-1069.52141953588
 20
-72.6468558755365
 30
0.0
 40
0.0
 41
0.0
  0
VERTEX
  5
   2D8
  8
0
  6
CONTINUOUS
 10
-1069.49962228684
 20
-72.5279903398961
 30
0.0
 40
0.0
 41
0.0
  0
VERTEX
  5
   2D9
  8
0
  6
CONTINUOUS
 10
-1069.47677866337
 20
-72.4093349975964
 30
0.0
 40
0.0
 41
0.0
  0
VERTEX
  5
   2DA
  8
0
  6
CONTINUOUS
 10
-1069.45285212295
 20
-72.290905777237
 30
0.0
 40
0.0
 41
0.0
  0
VERTEX
  5
   2DB
  8
0
  6
CONTINUOUS
 10
-1069.42780938203
 20
-72.172718518007
 30
0.0
 40
0.0
 41
0.0
  0
VERTEX
  5
   2DC
  8
0
  6
CONTINUOUS
 10
-1069.40162080374
 20
-72.054788878047
 30
0.0
 40
0.0
 41
0.0
  0
VERTEX
  5
   2DD
  8
0
  6
CONTINUOUS
 10
-1069.37415301011
 20
-71.9366792045078
 30
0.0
 40
0.0
 41
0.0
  0
VERTEX
  5
   2DE
  8
0
  6
CONTINUOUS
 10
-1069.34548323397
 20
-71.8188598193101
 30
0.0
 40
0.0
 41
0.0
  0
VERTEX
  5
   2DF
  8
0
  6
CONTINUOUS
 10
-1069.31559454793
 20
-71.7013453547128
 30
0.0
 40
0.0
 41
0.0
  0
VERTEX
  5
   2E0
  8
0
  6
CONTINUOUS
 10
-1069.28447467108
 20
-71.5841497277864
 30
0.0
 40
0.0
 41
0.0
  0
VERTEX
  5
   2E1
  8
0
  6
CONTINUOUS
 10
-1069.25211604683
 20
-71.4672859678057
 30
0.0
 40
0.0
 41
0.0
  0
VERTEX
  5
   2E2
  8
0
  6
CONTINUOUS
 10
-1069.21851592071
 20
-71.3507660436431
 30
0.0
 40
0.0
 41
0.0
  0
VERTEX
  5
   2E3
  8
0
  6
CONTINUOUS
 10
-1069.18367641822
 20
-71.2346006911616
 30
0.0
 40
0.0
 41
0.0
  0
VERTEX
  5
   2E4
  8
0
  6
CONTINUOUS
 10
-1069.14760462267
 20
-71.1187992406082
 30
0.0
 40
0.0
 41
0.0
  0
VERTEX
  5
   2E5
  8
0
  6
CONTINUOUS
 10
-1069.11031265298
 20
-71.0033694440066
 30
0.0
 40
0.0
 41
0.0
  0
VERTEX
  5
   2E6
  8
0
  6
CONTINUOUS
 10
-1069.07181774152
 20
-70.8883173025503
 30
0.0
 40
0.0
 41
0.0
  0
VERTEX
  5
   2E7
  8
0
  6
CONTINUOUS
 10
-1069.03214231194
 20
-70.7736468939961
 30
0.0
 40
0.0
 41
0.0
  0
VERTEX
  5
   2E8
  8
0
  6
CONTINUOUS
 10
-1068.99131405701
 20
-70.6593602000568
 30
0.0
 40
0.0
 41
0.0
  0
VERTEX
  5
   2E9
  8
0
  6
CONTINUOUS
 10
-1068.94936601644
 20
-70.5454569337946
 30
0.0
 40
0.0
 41
0.0
  0
VERTEX
  5
   2EA
  8
0
  6
CONTINUOUS
 10
-1068.90633665469
 20
-70.431934367014
 30
0.0
 40
0.0
 41
0.0
  0
VERTEX
  5
   2EB
  8
0
  6
CONTINUOUS
 10
-1068.86226993884
 20
-70.3187871576549
 30
0.0
 40
0.0
 41
0.0
  0
VERTEX
  5
   2EC
  8
0
  6
CONTINUOUS
 10
-1068.81721541636
 20
-70.2060071771859
 30
0.0
 40
0.0
 41
0.0
  0
VERTEX
  5
   2ED
  8
0
  6
CONTINUOUS
 10
-1068.77122829301
 20
-70.093583337997
 30
0.0
 40
0.0
 41
0.0
  0
VERTEX
  5
   2EE
  8
0
  6
CONTINUOUS
 10
-1068.72436951061
 20
-69.9815014207934
 30
0.0
 40
0.0
 41
0.0
  0
VERTEX
  5
   2EF
  8
0
  6
CONTINUOUS
 10
-1068.62830988333
 20
-69.7582897810937
 30
0.0
 40
0.0
 41
0.0
  0
VERTEX
  5
   2F0
  8
0
  6
CONTINUOUS
 10
-1068.53540251086
 20
-69.5489981808741
 30
0.0
 40
0.0
 41
0.0
  0
VERTEX
  5
   2F1
  8
0
  6
CONTINUOUS
 10
-1068.44075523104
 20
-69.3404956151808
 30
0.0
 40
0.0
 41
0.0
  0
VERTEX
  5
   2F2
  8
0
  6
CONTINUOUS
 10
-1068.05724779719
 20
-68.5095412492507
 30
0.0
 40
0.0
 41
0.0
  0
VERTEX
  5
   2F3
  8
0
  6
CONTINUOUS
 10
-1067.96306838787
 20
-68.30134178463
 30
0.0
 40
0.0
 41
0.0
  0
VERTEX
  5
   2F4
  8
0
  6
CONTINUOUS
 10
-1067.87048942197
 20
-68.0925426346727
 30
0.0
 40
0.0
 41
0.0
  0
VERTEX
  5
   2F5
  8
0
  6
CONTINUOUS
 10
-1067.77976091642
 20
-67.8830139812447
 30
0.0
 40
0.0
 41
0.0
  0
VERTEX
  5
   2F6
  8
0
  6
CONTINUOUS
 10
-1067.69096331315
 20
-67.6726936624321
 30
0.0
 40
0.0
 41
0.0
  0
VERTEX
  5
   2F7
  8
0
  6
CONTINUOUS
 10
-1067.61291659397
 20
-67.4835121716054
 30
0.0
 40
0.0
 41
0.0
  0
VERTEX
  5
   2F8
  8
0
  6
CONTINUOUS
 10
-1067.53609849743
 20
-67.2937836132585
 30
0.0
 40
0.0
 41
0.0
  0
VERTEX
  5
   2F9
  8
0
  6
CONTINUOUS
 10
-1067.23332610941
 20
-66.5322755018498
 30
0.0
 40
0.0
 41
0.0
  0
VERTEX
  5
   2FA
  8
0
  6
CONTINUOUS
 10
-1067.15651855314
 20
-66.342119565514
 30
0.0
 40
0.0
 41
0.0
  0
VERTEX
  5
   2FB
  8
0
  6
CONTINUOUS
 10
-1067.0784546903
 20
-66.1523809547398
 30
0.0
 40
0.0
 41
0.0
  0
VERTEX
  5
   2FC
  8
0
  6
CONTINUOUS
 10
-1066.99887310046
 20
-65.9631751062059
 30
0.0
 40
0.0
 41
0.0
  0
VERTEX
  5
   2FD
  8
0
  6
CONTINUOUS
 10
-1066.91765239275
 20
-65.7745668578075
 30
0.0
 40
0.0
 41
0.0
  0
VERTEX
  5
   2FE
  8
0
  6
CONTINUOUS
 10
-1066.82591839416
 20
-65.5665108730067
 30
0.0
 40
0.0
 41
0.0
  0
VERTEX
  5
   2FF
  8
0
  6
CONTINUOUS
 10
-1066.73259830862
 20
-65.3590832937343
 30
0.0
 40
0.0
 41
0.0
  0
VERTEX
  5
   300
  8
0
  6
CONTINUOUS
 10
-1066.5438219354
 20
-64.9452499620188
 30
0.0
 40
0.0
 41
0.0
  0
VERTEX
  5
   301
  8
0
  6
CONTINUOUS
 10
-1066.45010284416
 20
-64.7382528464229
 30
0.0
 40
0.0
 41
0.0
  0
VERTEX
  5
   302
  8
0
  6
CONTINUOUS
 10
-1066.3581486018
 20
-64.5307467799279
 30
0.0
 40
0.0
 41
0.0
  0
VERTEX
  5
   303
  8
0
  6
CONTINUOUS
 10
-1066.31315240569
 20
-64.4266920645466
 30
0.0
 40
0.0
 41
0.0
  0
VERTEX
  5
   304
  8
0
  6
CONTINUOUS
 10
-1066.26897619525
 20
-64.3223784949083
 30
0.0
 40
0.0
 41
0.0
  0
VERTEX
  5
   305
  8
0
  6
CONTINUOUS
 10
-1066.22573852472
 20
-64.217764870797
 30
0.0
 40
0.0
 41
0.0
  0
VERTEX
  5
   306
  8
0
  6
CONTINUOUS
 10
-1066.1835508556
 20
-64.1128125222098
 30
0.0
 40
0.0
 41
0.0
  0
VERTEX
  5
   307
  8
0
  6
CONTINUOUS
 10
-1066.1425156276
 20
-64.0074860182612
 30
0.0
 40
0.0
 41
0.0
  0
VERTEX
  5
   308
  8
0
  6
CONTINUOUS
 10
-1066.1027243296
 20
-63.9017538760875
 30
0.0
 40
0.0
 41
0.0
  0
VERTEX
  5
   309
  8
0
  6
CONTINUOUS
 10
-1066.06425557068
 20
-63.7955892697514
 30
0.0
 40
0.0
 41
0.0
  0
VERTEX
  5
   30A
  8
0
  6
CONTINUOUS
 10
-1066.02717315107
 20
-63.6889707391459
 30
0.0
 40
0.0
 41
0.0
  0
VERTEX
  5
   30B
  8
0
  6
CONTINUOUS
 10
-1065.99498854742
 20
-63.5925059113918
 30
0.0
 40
0.0
 41
0.0
  0
VERTEX
  5
   30C
  8
0
  6
CONTINUOUS
 10
-1065.96398981987
 20
-63.4956532696783
 30
0.0
 40
0.0
 41
0.0
  0
VERTEX
  5
   30D
  8
0
  6
CONTINUOUS
 10
-1065.93418749356
 20
-63.3984102403639
 30
0.0
 40
0.0
 41
0.0
  0
VERTEX
  5
   30E
  8
0
  6
CONTINUOUS
 10
-1065.90558143818
 20
-63.3007781165486
 30
0.0
 40
0.0
 41
0.0
  0
VERTEX
  5
   30F
  8
0
  6
CONTINUOUS
 10
-1065.87816169123
 20
-63.2027617561735
 30
0.0
 40
0.0
 41
0.0
  0
VERTEX
  5
   310
  8
0
  6
CONTINUOUS
 10
-1065.85190928117
 20
-63.1043692801202
 30
0.0
 40
0.0
 41
0.0
  0
VERTEX
  5
   311
  8
0
  6
CONTINUOUS
 10
-1065.82679705065
 20
-63.0056117703103
 30
0.0
 40
0.0
 41
0.0
  0
VERTEX
  5
   312
  8
0
  6
CONTINUOUS
 10
-1065.80279047966
 20
-62.9065029678048
 30
0.0
 40
0.0
 41
0.0
  0
VERTEX
  5
   313
  8
0
  6
CONTINUOUS
 10
-1065.77984850879
 20
-62.8070589709036
 30
0.0
 40
0.0
 41
0.0
  0
VERTEX
  5
   314
  8
0
  6
CONTINUOUS
 10
-1065.75792436238
 20
-62.7072979332451
 30
0.0
 40
0.0
 41
0.0
  0
VERTEX
  5
   315
  8
0
  6
CONTINUOUS
 10
-1065.73696637173
 20
-62.6072397619054
 30
0.0
 40
0.0
 41
0.0
  0
VERTEX
  5
   316
  8
0
  6
CONTINUOUS
 10
-1065.71691879831
 20
-62.506905815498
 30
0.0
 40
0.0
 41
0.0
  0
VERTEX
  5
   317
  8
0
  6
CONTINUOUS
 10
-1065.69772265693
 20
-62.4063186022732
 30
0.0
 40
0.0
 41
0.0
  0
VERTEX
  5
   318
  8
0
  6
CONTINUOUS
 10
-1065.67931653895
 20
-62.3055014782174
 30
0.0
 40
0.0
 41
0.0
  0
VERTEX
  5
   319
  8
0
  6
CONTINUOUS
 10
-1065.64462156062
 20
-62.1032733488365
 30
0.0
 40
0.0
 41
0.0
  0
VERTEX
  5
   31A
  8
0
  6
CONTINUOUS
 10
-1065.61232540677
 20
-61.9004137577513
 30
0.0
 40
0.0
 41
0.0
  0
VERTEX
  5
   31B
  8
0
  6
CONTINUOUS
 10
-1065.58193353023
 20
-61.6971092775028
 30
0.0
 40
0.0
 41
0.0
  0
VERTEX
  5
   31C
  8
0
  6
CONTINUOUS
 10
-1065.55239190311
 20
-61.4892235798139
 30
0.0
 40
0.0
 41
0.0
  0
VERTEX
  5
   31D
  8
0
  6
CONTINUOUS
 10
-1065.52394196174
 20
-61.2812107238149
 30
0.0
 40
0.0
 41
0.0
  0
VERTEX
  5
   31E
  8
0
  6
CONTINUOUS
 10
-1065.36029074097
 20
-60.0364425757576
 30
0.0
 40
0.0
 41
0.0
  0
VERTEX
  5
   31F
  8
0
  6
CONTINUOUS
 10
-1065.30451458435
 20
-59.6242532692084
 30
0.0
 40
0.0
 41
0.0
  0
SEQEND
  5
   320
  8
0
  6
CONTINUOUS
 62
     1
  0
LINE
  5
   321
  8
0
  6
CONTINUOUS
 62
     1
 10
-1100.79531420268
 20
-87.6241848647907
 30
0.0
 11
-1100.79531420268
 21
-60.0241844535187
 31
0.0
  0
LINE
  5
   322
  8
0
  6
CONTINUOUS
 62
     1
 10
-1102.23531422414
 20
-87.6241848647907
 30
0.0
 11
-1102.23531422414
 21
-60.0241844535187
 31
0.0
  0
LINE
  5
   323
  8
0
  6
CONTINUOUS
 62
     1
 10
-1103.6753142456
 20
-87.6241848647907
 30
0.0
 11
-1103.6753142456
 21
-60.0241844535187
 31
0.0
  0
LINE
  5
   324
  8
0
  6
CONTINUOUS
 62
     1
 10
-1105.11531426706
 20
-87.6241848647907
 30
0.0
 11
-1105.11531426706
 21
-60.0241844535187
 31
0.0
  0
LINE
  5
   325
  8
0
  6
CONTINUOUS
 62
     1
 10
-1106.55531428851
 20
-87.6241848647907
 30
0.0
 11
-1106.55531428851
 21
-60.0241844535187
 31
0.0
  0
LINE
  5
   326
  8
0
  6
CONTINUOUS
 62
     7
 10
-1034.29530045569
 20
22.775809211952
 30
0.0
 11
-1034.29530045569
 21
31.2558032347982
 31
0.0
  0
LINE
  5
   327
  8
0
  6
CONTINUOUS
 62
     7
 10
-1107.79529544909
 20
22.775809211952
 30
0.0
 11
-1107.79529544909
 21
31.2558032347982
 31
0.0
  0
ARC
  5
   328
  8
0
  6
CONTINUOUS
 62
     7
 10
-1106.39530606882
 20
31.9757964059294
 30
0.0
 40
0.399992741577583
 50
449.999429635018
 51
540.000998310938
  0
LINE
  5
   329
  8
0
  6
CONTINUOUS
 62
     7
 10
-1106.79529543251
 20
31.2558032347982
 30
0.0
 11
-1107.79529544909
 21
31.2558032347982
 31
0.0
  0
LINE
  5
   32A
  8
0
  6
CONTINUOUS
 62
     7
 10
-1034.29531305526
 20
-87.2241848588303
 30
0.0
 11
-1034.29531305526
 21
-44.6241918162281
 31
0.0
  0
LINE
  5
   32B
  8
0
  6
CONTINUOUS
 62
     7
 10
-1054.24531335253
 20
-69.2241784870936
 30
0.0
 11
-1068.38730933577
 21
-69.2241784870936
 31
0.0
  0
LINE
  5
   32C
  8
0
  6
CONTINUOUS
 62
     7
 10
-1035.69531307612
 20
-69.224178487094
 30
0.0
 11
-1052.84531333167
 21
-69.224178487094
 31
0.0
  0
LINE
  5
   32D
  8
0
  6
CONTINUOUS
 62
     7
 10
-1035.29531307016
 20
-68.8241784811334
 30
0.0
 11
-1035.29531307016
 21
-68.104178489478
 31
0.0
  0
LINE
  5
   32E
  8
0
  6
CONTINUOUS
 62
     7
 10
-1034.29531305526
 20
-68.104178489478
 30
0.0
 11
-1035.29531307016
 21
-68.104178489478
 31
0.0
  0
LINE
  5
   32F
  8
0
  6
CONTINUOUS
 62
     1
 10
-1073.14531363417
 20
-59.6241783440427
 30
0.0
 11
-1086.44531383235
 21
-59.6241783440427
 31
0.0
  0
LINE
  5
   330
  8
0
  6
CONTINUOUS
 62
     1
 10
-1055.6453133734
 20
-59.6241783440427
 30
0.0
 11
-1068.94531357158
 21
-59.6241783440427
 31
0.0
  0
LINE
  5
   331
  8
0
  6
CONTINUOUS
 62
     1
 10
-1055.6453133734
 20
-61.2241783678846
 30
0.0
 11
-1055.6453133734
 21
-59.6241783440427
 31
0.0
  0
LINE
  5
   332
  8
0
  6
CONTINUOUS
 62
     1
 10
-1051.44531331081
 20
-61.2241783678846
 30
0.0
 11
-1051.44531331081
 21
-59.6241783440427
 31
0.0
  0
LINE
  5
   333
  8
0
  6
CONTINUOUS
 62
     1
 10
-1035.29531307016
 20
-59.6241783440427
 30
0.0
 11
-1051.44531331081
 21
-59.6241783440427
 31
0.0
  0
LINE
  5
   334
  8
0
  6
CONTINUOUS
 62
     1
 10
-1035.29531307016
 20
-68.104178489478
 30
0.0
 11
-1035.29531307016
 21
-59.6241780579404
 31
0.0
  0
LINE
  5
   335
  8
0
  6
CONTINUOUS
 62
     1
 10
-1054.545313357
 20
-63.8241784066276
 30
0.0
 11
-1054.545313357
 21
-63.0331185193516
 31
0.0
  0
LINE
  5
   336
  8
0
  6
CONTINUOUS
 62
     1
 10
-1052.5453133272
 20
-63.8241784066276
 30
0.0
 11
-1052.5453133272
 21
-63.0331185193516
 31
0.0
  0
LINE
  5
   337
  8
0
  6
CONTINUOUS
 62
     1
 10
-1052.5453133272
 20
-63.8241784066276
 30
0.0
 11
-1054.545313357
 21
-63.8241784066276
 31
0.0
  0
LINE
  5
   338
  8
0
  6
CONTINUOUS
 62
     7
 10
-1052.5453133272
 20
-68.0241784692125
 30
0.0
 11
-1052.5453133272
 21
-66.6241784483508
 31
0.0
  0
LINE
  5
   339
  8
0
  6
CONTINUOUS
 62
     7
 10
-1054.545313357
 20
-68.0241785645799
 30
0.0
 11
-1054.545313357
 21
-66.6241784483508
 31
0.0
  0
LINE
  5
   33A
  8
0
  6
CONTINUOUS
 62
     7
 10
-1052.84531333167
 20
-69.2241784870936
 30
0.0
 11
-1052.84531333167
 21
-68.0241784692122
 31
0.0
  0
LINE
  5
   33B
  8
0
  6
CONTINUOUS
 62
     7
 10
-1052.5453133272
 20
-68.0241784692125
 30
0.0
 11
-1052.84531333167
 21
-68.0241784692125
 31
0.0
  0
LINE
  5
   33C
  8
0
  6
CONTINUOUS
 62
     7
 10
-1054.24531335253
 20
-69.2241784870936
 30
0.0
 11
-1054.24531335253
 21
-68.0241784692122
 31
0.0
  0
LINE
  5
   33D
  8
0
  6
CONTINUOUS
 62
     7
 10
-1054.24531335253
 20
-68.0241784692125
 30
0.0
 11
-1054.545313357
 21
-68.0241784692125
 31
0.0
  0
CIRCLE
  5
   33E
  8
0
  6
CONTINUOUS
 62
     1
 10
-1044.79531232216
 20
-62.0241777227692
 30
0.0
 40
2.20000070605533
  0
CIRCLE
  5
   33F
  8
0
  6
CONTINUOUS
 62
     1
 10
-1053.54531294916
 20
-61.224178930219
 30
0.0
 40
1.100000654499
  0
ARC
  5
   340
  8
0
  6
CONTINUOUS
 62
     1
 10
-1053.54531648207
 20
-61.22418684579
 30
0.0
 40
2.10000863415134
 50
121.002660601852
 51
418.997339294217
  0
CIRCLE
  5
   341
  8
0
  6
CONTINUOUS
 62
     1
 10
-1062.29531362899
 20
-62.0241784640687
 30
0.0
 40
2.19999991158446
  0
CIRCLE
  5
   342
  8
0
  6
CONTINUOUS
 62
     1
 10
-1044.79531343153
 20
-67.6241764808339
 30
0.0
 40
0.559998785806891
  0
CIRCLE
  5
   343
  8
0
  6
CONTINUOUS
 62
     1
 10
-1062.29531269693
 20
-67.6241773774191
 30
0.0
 40
0.560000824901733
  0
LINE
  5
   344
  8
0
  6
DASHDOT
 62
     7
 10
-1058.89531369952
 20
-62.0241784640687
 30
0.0
 11
-1065.69531355846
 21
-62.0241784640687
 31
0.0
  0
ARC
  5
   345
  8
0
  6
CONTINUOUS
 62
     7
 10
-1035.69531019572
 20
-68.8241821320322
 30
0.0
 40
0.399996166328924
 50
269.999729091746
 51
360.000478711826
  0
LINE
  5
   346
  8
0
  6
CONTINUOUS
 62
     1
 10
-1034.29531321176
 20
3.47581502787533
 30
0.0
 11
-1034.29531321176
 21
22.775809211952
 31
0.0
  0
LINE
  5
   347
  8
0
  6
CONTINUOUS
 62
     1
 10
-1107.79531430699
 20
-59.4241783410623
 30
0.0
 11
-1107.79531430699
 21
-38.5241978050048
 31
0.0
  0
LINE
  5
   348
  8
0
  6
CONTINUOUS
 62
     1
 10
-1107.79531430699
 20
3.47580282084391
 30
0.0
 11
-1107.79531430699
 21
22.775809211952
 31
0.0
  0
LINE
  5
   349
  8
0
  6
CONTINUOUS
 62
     1
 10
-1107.79531430699
 20
-38.5241917014891
 30
0.0
 11
-1107.79531430699
 21
3.47580892435963
 31
0.0
  0
LINE
  5
   34A
  8
0
  6
CONTINUOUS
 62
     1
 10
-1034.29531321176
 20
-44.6241918162281
 30
0.0
 11
-1034.29531321176
 21
3.47580892435961
 31
0.0
  0
LINE
  5
   34B
  8
0
  6
CONTINUOUS
 62
     1
 10
-1034.29531321176
 20
-44.6241918162281
 30
0.0
 11
-1107.79531415049
 21
-44.6241918162281
 31
0.0
  0
LINE
  5
   34C
  8
0
  6
CONTINUOUS
 62
     1
 10
-1034.69531932123
 20
-45.0241917983468
 30
0.0
 11
-1034.69531932123
 21
-44.6241918162282
 31
0.0
  0
LINE
  5
   34D
  8
0
  6
CONTINUOUS
 62
     1
 10
-1035.19531932868
 20
-38.5241917014891
 30
0.0
 11
-1035.19531932868
 21
3.4758028208439
 31
0.0
  0
LINE
  5
   34E
  8
0
  6
CONTINUOUS
 62
     1
 10
-1036.11531445958
 20
-38.5241978050049
 30
0.0
 11
-1036.11531445958
 21
3.4758028208439
 31
0.0
  0
LINE
  5
   34F
  8
0
  6
CONTINUOUS
 62
     1
 10
-1037.55531692244
 20
-38.5241978050049
 30
0.0
 11
-1037.55531692244
 21
3.4758028208439
 31
0.0
  0
LINE
  5
   350
  8
0
  6
CONTINUOUS
 62
     1
 10
-1038.99531938531
 20
-59.4241783410623
 30
0.0
 11
-1038.99531938531
 21
22.7758031084363
 31
0.0
  0
LINE
  5
   351
  8
0
  6
CONTINUOUS
 62
     1
 10
-1040.43531574466
 20
-44.6241918162281
 30
0.0
 11
-1040.43531574466
 21
22.7758031084363
 31
0.0
  0
LINE
  5
   352
  8
0
  6
CONTINUOUS
 62
     1
 10
-1035.19531932868
 20
3.4758028208439
 30
0.0
 11
-1035.19531932868
 21
22.7758031084363
 31
0.0
  0
LINE
  5
   353
  8
0
  6
CONTINUOUS
 62
     1
 10
-1036.11531445958
 20
3.4758028208439
 30
0.0
 11
-1036.11531445958
 21
22.7758031084363
 31
0.0
  0
LINE
  5
   354
  8
0
  6
CONTINUOUS
 62
     1
 10
-1037.55531692244
 20
3.4758028208439
 30
0.0
 11
-1037.55531692244
 21
22.7758031084363
 31
0.0
  0
LINE
  5
   355
  8
0
  6
CONTINUOUS
 62
     1
 10
-1040.43531574466
 20
-59.4241783410623
 30
0.0
 11
-1040.43531574466
 21
-45.4241781324461
 31
0.0
  0
LINE
  5
   356
  8
0
  6
CONTINUOUS
 62
     1
 10
-1035.19531932868
 20
-59.4241783410623
 30
0.0
 11
-1035.19531932868
 21
-45.4241781324461
 31
0.0
  0
LINE
  5
   357
  8
0
  6
CONTINUOUS
 62
     1
 10
-1036.11531445958
 20
-59.4241783410623
 30
0.0
 11
-1036.11531445958
 21
-45.4241781324461
 31
0.0
  0
LINE
  5
   358
  8
0
  6
CONTINUOUS
 62
     1
 10
-1037.55531692244
 20
-59.4241783410623
 30
0.0
 11
-1037.55531692244
 21
-45.4241781324461
 31
0.0
  0
LINE
  5
   359
  8
0
  6
CONTINUOUS
 62
     1
 10
-1082.69531393297
 20
14.4758029847567
 30
0.0
 11
-1082.69531393297
 21
20.7758091821497
 31
0.0
  0
LINE
  5
   35A
  8
0
  6
CONTINUOUS
 62
     1
 10
-1041.89531332501
 20
14.4758029847567
 30
0.0
 11
-1041.89531332501
 21
20.7758091821497
 31
0.0
  0
LINE
  5
   35B
  8
0
  6
CONTINUOUS
 62
     1
 10
-1041.89531332501
 20
20.7758091821497
 30
0.0
 11
-1082.69531393297
 21
20.7758091821497
 31
0.0
  0
LINE
  5
   35C
  8
0
  6
CONTINUOUS
 62
     3
 10
-1041.29531331607
 20
-38.3241978020246
 30
0.0
 11
-1041.29531331607
 21
-31.1241976947363
 31
0.0
  0
LINE
  5
   35D
  8
0
  6
CONTINUOUS
 62
     3
 10
-1083.29531394191
 20
-38.3241978020246
 30
0.0
 11
-1083.29531394191
 21
-31.1241976947363
 31
0.0
  0
LINE
  5
   35E
  8
0
  6
CONTINUOUS
 62
     3
 10
-1057.99531356491
 20
-29.6241976723845
 30
0.0
 11
-1057.99531356491
 21
-13.6242035374817
 31
0.0
  0
LINE
  5
   35F
  8
0
  6
CONTINUOUS
 62
     3
 10
-1066.59531369306
 20
-29.6241976723845
 30
0.0
 11
-1066.59531369306
 21
-13.6242035374817
 31
0.0
  0
LINE
  5
   360
  8
0
  6
CONTINUOUS
 62
     1
 10
-1041.29531331607
 20
-1.32420335419738
 30
0.0
 11
-1083.29531394191
 21
-1.32420335419738
 31
0.0
  0
LINE
  5
   361
  8
0
  6
CONTINUOUS
 62
     3
 10
-1057.99531356491
 20
-13.7299896718705
 30
0.0
 11
-1066.59531369306
 21
-13.7299896718705
 31
0.0
  0
LINE
  5
   362
  8
0
  6
CONTINUOUS
 62
     3
 10
-1057.99531356491
 20
-13.6242035374817
 30
0.0
 11
-1066.59531369306
 21
-13.6242035374817
 31
0.0
  0
LINE
  5
   363
  8
0
  6
CONTINUOUS
 62
     3
 10
-1057.99531356491
 20
-29.6241976723845
 30
0.0
 11
-1066.59531369306
 21
-29.6241976723845
 31
0.0
  0
LINE
  5
   364
  8
0
  6
CONTINUOUS
 62
     3
 10
-1057.99531356491
 20
-29.5183993309643
 30
0.0
 11
-1066.59531369306
 21
-29.5183993309643
 31
0.0
  0
LINE
  5
   365
  8
0
  6
CONTINUOUS
 62
     3
 10
-1041.29531941958
 20
-30.7241976887758
 30
0.0
 11
-1041.29531941958
 21
-25.9242007985457
 31
0.0
  0
LINE
  5
   366
  8
0
  6
CONTINUOUS
 62
     3
 10
-1041.29531941958
 20
-12.1241974116142
 30
0.0
 11
-1041.29531941958
 21
2.87580281190321
 31
0.0
  0
LINE
  5
   367
  8
0
  6
CONTINUOUS
 62
     3
 10
-1041.29531941958
 20
-25.5242007925852
 30
0.0
 11
-1041.29531941958
 21
-17.7241974950607
 31
0.0
  0
LINE
  5
   368
  8
0
  6
CONTINUOUS
 62
     3
 10
-1041.29531941958
 20
-17.3241974891002
 30
0.0
 11
-1041.29531941958
 21
-12.5241974175747
 31
0.0
  0
LINE
  5
   369
  8
0
  6
CONTINUOUS
 62
     3
 10
-1083.29531394192
 20
-30.7241976887758
 30
0.0
 11
-1083.29531394192
 21
-25.9241976172494
 31
0.0
  0
LINE
  5
   36A
  8
0
  6
CONTINUOUS
 62
     3
 10
-1083.29531394192
 20
-25.5241976112889
 30
0.0
 11
-1083.29531394192
 21
-17.7241974950607
 31
0.0
  0
LINE
  5
   36B
  8
0
  6
CONTINUOUS
 62
     3
 10
-1083.29531394191
 20
-17.3241974891002
 30
0.0
 11
-1083.29531394191
 21
-12.5241974175747
 31
0.0
  0
LINE
  5
   36C
  8
0
  6
CONTINUOUS
 62
     3
 10
-1083.2953139419
 20
-12.1241974116142
 30
0.0
 11
-1083.2953139419
 21
2.87580281190321
 31
0.0
  0
LINE
  5
   36D
  8
0
  6
CONTINUOUS
 62
     1
 10
-1066.59531688255
 20
-25.9241899230804
 30
0.0
 11
-1082.8953139598
 21
-25.9241899230804
 31
0.0
  0
LINE
  5
   36E
  8
0
  6
CONTINUOUS
 62
     3
 10
-1041.29531941958
 20
-25.924193104379
 30
0.0
 11
-1041.69531942554
 21
-25.924193104379
 31
0.0
  0
LINE
  5
   36F
  8
0
  6
CONTINUOUS
 62
     1
 10
-1066.59532470619
 20
-25.5241899171176
 30
0.0
 11
-1082.8953139598
 21
-25.5241899171176
 31
0.0
  0
LINE
  5
   370
  8
0
  6
CONTINUOUS
 62
     3
 10
-1041.29531941958
 20
-25.5241930984185
 30
0.0
 11
-1041.69531942554
 21
-25.5241930984185
 31
0.0
  0
LINE
  5
   371
  8
0
  6
CONTINUOUS
 62
     3
 10
-1082.8953139598
 20
-25.9241976172502
 30
0.0
 11
-1082.8953139598
 21
-25.5241976112898
 31
0.0
  0
LINE
  5
   372
  8
0
  6
CONTINUOUS
 62
     3
 10
-1041.69531942554
 20
-25.9241976172502
 30
0.0
 11
-1041.69531942554
 21
-25.5241976112898
 31
0.0
  0
LINE
  5
   373
  8
0
  6
CONTINUOUS
 62
     3
 10
-1041.29531331607
 20
-31.1241976947363
 30
0.0
 11
-1041.69531942554
 21
-31.1241976947363
 31
0.0
  0
LINE
  5
   374
  8
0
  6
CONTINUOUS
 62
     3
 10
-1041.29531941958
 20
-30.7241976887758
 30
0.0
 11
-1041.69531942554
 21
-30.7241976887758
 31
0.0
  0
LINE
  5
   375
  8
0
  6
CONTINUOUS
 62
     3
 10
-1082.8953139598
 20
-31.1241976947363
 30
0.0
 11
-1082.8953139598
 21
-30.7241976887758
 31
0.0
  0
LINE
  5
   376
  8
0
  6
CONTINUOUS
 62
     3
 10
-1041.69531942554
 20
-31.1241976947363
 30
0.0
 11
-1041.69531942554
 21
-30.7241976887758
 31
0.0
  0
LINE
  5
   377
  8
0
  6
CONTINUOUS
 62
     3
 10
-1041.29531941958
 20
-12.5241974175747
 30
0.0
 11
-1041.69531942554
 21
-12.5241974175747
 31
0.0
  0
LINE
  5
   378
  8
0
  6
CONTINUOUS
 62
     3
 10
-1041.29531941958
 20
-12.1241974116142
 30
0.0
 11
-1041.69531942554
 21
-12.1241974116142
 31
0.0
  0
LINE
  5
   379
  8
0
  6
CONTINUOUS
 62
     3
 10
-1082.8953139598
 20
-12.5241974175747
 30
0.0
 11
-1082.8953139598
 21
-12.1241974116142
 31
0.0
  0
LINE
  5
   37A
  8
0
  6
CONTINUOUS
 62
     3
 10
-1041.69531942554
 20
-12.5241974175747
 30
0.0
 11
-1041.69531942554
 21
-12.1241974116142
 31
0.0
  0
LINE
  5
   37B
  8
0
  6
CONTINUOUS
 62
     1
 10
-1066.59531686403
 20
-17.7241974950607
 30
0.0
 11
-1082.8953139598
 21
-17.7241974950607
 31
0.0
  0
LINE
  5
   37C
  8
0
  6
CONTINUOUS
 62
     3
 10
-1041.29531941958
 20
-17.7241974950607
 30
0.0
 11
-1041.69531942554
 21
-17.7241974950607
 31
0.0
  0
LINE
  5
   37D
  8
0
  6
CONTINUOUS
 62
     1
 10
-1066.59531369306
 20
-17.3241974891002
 30
0.0
 11
-1082.8953139598
 21
-17.3241974891002
 31
0.0
  0
LINE
  5
   37E
  8
0
  6
CONTINUOUS
 62
     3
 10
-1041.29531941958
 20
-17.3241974891002
 30
0.0
 11
-1041.69531942554
 21
-17.3241974891002
 31
0.0
  0
LINE
  5
   37F
  8
0
  6
CONTINUOUS
 62
     3
 10
-1082.8953139598
 20
-17.7241974950607
 30
0.0
 11
-1082.8953139598
 21
-17.3241974891002
 31
0.0
  0
LINE
  5
   380
  8
0
  6
CONTINUOUS
 62
     3
 10
-1041.69531942554
 20
-17.7241974950607
 30
0.0
 11
-1041.69531942554
 21
-17.3241974891002
 31
0.0
  0
INSERT
  5
   381
  8
255
  6
CONTINUOUS
 62
     3
  2
$1ON-OFF
 10
-1054.29531741603
 20
-14.9241974533374
 30
0.0
 41
0.400000005960464
 42
0.400000005960464
 50
359.999999792137
 43
0.400000005960464
  0
LINE
  5
   382
  8
0
  6
CONTINUOUS
 62
     1
 10
-1071.2953137631
 20
-13.1241974265154
 30
0.0
 11
-1071.89531377204
 21
-13.1241974265154
 31
0.0
  0
LINE
  5
   383
  8
0
  6
CONTINUOUS
 62
     1
 10
-1071.2953137631
 20
-16.7241974801595
 30
0.0
 11
-1071.89531377204
 21
-16.7241974801595
 31
0.0
  0
CIRCLE
  5
   384
  8
0
  6
CONTINUOUS
 62
     1
 10
-1071.59531376757
 20
-28.324197653013
 30
0.0
 40
1.80000002682209
  0
CIRCLE
  5
   385
  8
0
  6
CONTINUOUS
 62
     1
 10
-1071.59531376757
 20
-28.324197653013
 30
0.0
 40
1.20000001788139
  0
LINE
  5
   386
  8
0
  6
CONTINUOUS
 62
     1
 10
-1071.89531377204
 20
-16.7241974801595
 30
0.0
 11
-1071.89531377204
 21
-13.1241974265154
 31
0.0
  0
LINE
  5
   387
  8
0
  6
CONTINUOUS
 62
     1
 10
-1071.2953137631
 20
-16.7241974801595
 30
0.0
 11
-1071.2953137631
 21
-13.1241974265154
 31
0.0
  0
LINE
  5
   388
  8
0
  6
CONTINUOUS
 62
     1
 10
-1067.69531370946
 20
-30.7241976887758
 30
0.0
 11
-1067.69531370946
 21
-25.9241919015839
 31
0.0
  0
LINE
  5
   389
  8
0
  6
CONTINUOUS
 62
     1
 10
-1056.89531354852
 20
-30.7241976887758
 30
0.0
 11
-1056.89531354852
 21
-25.9241950828825
 31
0.0
  0
LINE
  5
   38A
  8
0
  6
CONTINUOUS
 62
     1
 10
-1056.89531354852
 20
-17.3241974891002
 30
0.0
 11
-1056.89531354852
 21
-12.5241974175747
 31
0.0
  0
LINE
  5
   38B
  8
0
  6
CONTINUOUS
 62
     1
 10
-1067.69531370946
 20
-17.3241974891002
 30
0.0
 11
-1067.69531370946
 21
-12.5241974175747
 31
0.0
  0
LINE
  5
   38C
  8
0
  6
CONTINUOUS
 62
     7
 10
-1034.29531305526
 20
-45.4241781324461
 30
0.0
 11
-1107.79531415049
 21
-45.4241781324461
 31
0.0
  0
LINE
  5
   38D
  8
0
  6
CONTINUOUS
 62
     1
 10
-1034.29531305526
 20
-59.4241783410623
 30
0.0
 11
-1107.79531415049
 21
-59.4241783410623
 31
0.0
  0
LINE
  5
   38E
  8
0
  6
DASHDOT
 62
     7
 10
-1053.54531648207
 20
-67.324195539546
 30
0.0
 11
-1053.54531648207
 21
-55.124178152034
 31
0.0
  0
LINE
  5
   38F
  8
0
  6
DASHDOT
 62
     7
 10
-1047.44530778831
 20
-61.22418684579
 30
0.0
 11
-1059.64532517582
 21
-61.22418684579
 31
0.0
  0
LINE
  5
   390
  8
0
  6
DASHDOT
 62
     7
 10
-1038.5953115565
 20
-62.0241777227692
 30
0.0
 11
-1050.99531308782
 21
-62.0241777227692
 31
0.0
  0
LINE
  5
   391
  8
0
  6
CONTINUOUS
 62
     7
 10
-1057.99531356491
 20
-26.1524772555416
 30
0.0
 11
-1066.59531369306
 21
-26.1524772555416
 31
0.0
  0
LINE
  5
   392
  8
0
  6
CONTINUOUS
 62
     7
 10
-1057.99531356491
 20
-24.1740287556829
 30
0.0
 11
-1066.59531369306
 21
-24.1740287556829
 31
0.0
  0
LINE
  5
   393
  8
0
  6
CONTINUOUS
 62
     7
 10
-1057.99531356491
 20
-29.3208579638109
 30
0.0
 11
-1066.59531369306
 21
-29.3208579638109
 31
0.0
  0
LINE
  5
   394
  8
0
  6
CONTINUOUS
 62
     7
 10
-1106.79529543251
 20
31.2558032347982
 30
0.0
 11
-1106.79529543251
 21
31.9758093490427
 31
0.0
  0
LINE
  5
   395
  8
0
  6
CONTINUOUS
 62
     7
 10
-1052.5453133272
 20
-66.6241784483508
 30
0.0
 11
-1054.545313357
 21
-66.6241784483508
 31
0.0
  0
LINE
  5
   396
  8
0
  6
CONTINUOUS
 62
     3
 10
-1082.8953139598
 20
-12.1241974116142
 30
0.0
 11
-1083.2953139419
 21
-12.1241974116142
 31
0.0
  0
LINE
  5
   397
  8
0
  6
CONTINUOUS
 62
     3
 10
-1082.8953139598
 20
-12.5241974175747
 30
0.0
 11
-1083.29531394191
 21
-12.5241974175747
 31
0.0
  0
LINE
  5
   398
  8
0
  6
CONTINUOUS
 62
     3
 10
-1082.8953139598
 20
-17.3241974891002
 30
0.0
 11
-1083.29531394191
 21
-17.3241974891002
 31
0.0
  0
LINE
  5
   399
  8
0
  6
CONTINUOUS
 62
     3
 10
-1082.8953139598
 20
-17.7241974950607
 30
0.0
 11
-1083.29531394192
 21
-17.7241974950607
 31
0.0
  0
LINE
  5
   39A
  8
0
  6
CONTINUOUS
 62
     3
 10
-1082.8953139598
 20
-25.5241899171176
 30
0.0
 11
-1083.29531394192
 21
-25.5241899171176
 31
0.0
  0
LINE
  5
   39B
  8
0
  6
CONTINUOUS
 62
     3
 10
-1082.8953139598
 20
-25.9241899230804
 30
0.0
 11
-1083.29531394192
 21
-25.9241899230804
 31
0.0
  0
LINE
  5
   39C
  8
0
  6
CONTINUOUS
 62
     3
 10
-1082.8953139598
 20
-30.7241976887758
 30
0.0
 11
-1083.29531394192
 21
-30.7241976887758
 31
0.0
  0
LINE
  5
   39D
  8
0
  6
CONTINUOUS
 62
     3
 10
-1082.8953139598
 20
-31.1241976947363
 30
0.0
 11
-1083.29531394191
 21
-31.1241976947363
 31
0.0
  0
LINE
  5
   39E
  8
0
  6
CONTINUOUS
 62
     1
 10
-1041.69531942554
 20
-31.1241976947363
 30
0.0
 11
-1082.8953139598
 21
-31.1241976947363
 31
0.0
  0
LINE
  5
   39F
  8
0
  6
CONTINUOUS
 62
     1
 10
-1041.69531942554
 20
-30.7241976887758
 30
0.0
 11
-1082.8953139598
 21
-30.7241976887758
 31
0.0
  0
LINE
  5
   3A0
  8
0
  6
CONTINUOUS
 62
     1
 10
-1041.69531942554
 20
-25.924193104379
 30
0.0
 11
-1057.99531490537
 21
-25.924193104379
 31
0.0
  0
LINE
  5
   3A1
  8
0
  6
CONTINUOUS
 62
     1
 10
-1041.69531942554
 20
-25.5241930984185
 30
0.0
 11
-1057.99531475882
 21
-25.5241930984185
 31
0.0
  0
LINE
  5
   3A2
  8
0
  6
CONTINUOUS
 62
     1
 10
-1041.69531942554
 20
-17.7241974950607
 30
0.0
 11
-1057.99531356491
 21
-17.7241974950607
 31
0.0
  0
LINE
  5
   3A3
  8
0
  6
CONTINUOUS
 62
     1
 10
-1041.69531942554
 20
-17.3241974891002
 30
0.0
 11
-1057.99531356491
 21
-17.3241974891002
 31
0.0
  0
LINE
  5
   3A4
  8
0
  6
CONTINUOUS
 62
     1
 10
-1041.69531942554
 20
-12.5241974175747
 30
0.0
 11
-1082.8953139598
 21
-12.5241974175747
 31
0.0
  0
LINE
  5
   3A5
  8
0
  6
CONTINUOUS
 62
     1
 10
-1041.69531942554
 20
-12.1241974116142
 30
0.0
 11
-1082.8953139598
 21
-12.1241974116142
 31
0.0
  0
LINE
  5
   3A6
  8
0
  6
CONTINUOUS
 62
     1
 10
-1090.64531389494
 20
-59.6241783440427
 30
0.0
 11
-1106.79531413559
 21
-59.6241783440427
 31
0.0
  0
LINE
  5
   3A7
  8
0
  6
CONTINUOUS
 62
     1
 10
-1106.79529543251
 20
22.775809211952
 30
0.0
 11
-1106.79529543251
 21
31.2558032347982
 31
0.0
  0
LINE
  5
   3A8
  8
0
  6
CONTINUOUS
 62
     7
 10
-1099.56814149842
 20
32.375789147507
 30
0.0
 11
-1106.39530606882
 21
32.375789147507
 31
0.0
  0
LINE
  5
   3A9
  8
0
  6
CONTINUOUS
 62
     1
 10
-1085.69530787416
 20
-38.3241978020246
 30
0.0
 11
-1099.29531418033
 21
-38.3241978020246
 31
0.0
  0
LINE
  5
   3AA
  8
0
  6
CONTINUOUS
 62
     1
 10
-1100.29531419523
 20
-38.3241978020246
 30
0.0
 11
-1107.79531430699
 21
-38.3241978020246
 31
0.0
  0
LINE
  5
   3AB
  8
0
  6
CONTINUOUS
 62
     1
 10
-1100.29531419523
 20
-1.92419725962235
 30
0.0
 11
-1100.29531419523
 21
7.58027701799762E-2
 31
0.0
  0
LINE
  5
   3AC
  8
0
  6
CONTINUOUS
 62
     1
 10
-1099.29531418033
 20
-1.92419725962235
 30
0.0
 11
-1100.29531419523
 21
-1.92419725962235
 31
0.0
  0
LINE
  5
   3AD
  8
0
  6
CONTINUOUS
 62
     1
 10
-1099.29531418033
 20
-1.92419725962235
 30
0.0
 11
-1099.29531418033
 21
7.58027701799762E-2
 31
0.0
  0
LINE
  5
   3AE
  8
0
  6
CONTINUOUS
 62
     1
 10
-1099.29531418033
 20
7.58027701799762E-2
 30
0.0
 11
-1100.29531419523
 21
7.58027701799762E-2
 31
0.0
  0
LINE
  5
   3AF
  8
0
  6
CONTINUOUS
 62
     1
 10
-1100.29531419523
 20
-39.3241920948798
 30
0.0
 11
-1100.29531419523
 21
-35.7241977632816
 31
0.0
  0
LINE
  5
   3B0
  8
0
  6
CONTINUOUS
 62
     1
 10
-1099.29531418033
 20
-39.3241920948798
 30
0.0
 11
-1100.29531419523
 21
-39.3241920948798
 31
0.0
  0
LINE
  5
   3B1
  8
0
  6
CONTINUOUS
 62
     1
 10
-1099.29531418033
 20
-39.3241920948798
 30
0.0
 11
-1099.29531418033
 21
-35.7241977632816
 31
0.0
  0
LINE
  5
   3B2
  8
0
  6
CONTINUOUS
 62
     1
 10
-1099.29531418033
 20
-35.7241977632816
 30
0.0
 11
-1100.29531419523
 21
-35.7241977632816
 31
0.0
  0
LINE
  5
   3B3
  8
0
  6
CONTINUOUS
 62
     1
 10
-1034.29531321176
 20
22.7758031084363
 30
0.0
 11
-1107.69530820199
 21
22.7758031084363
 31
0.0
  0
LINE
  5
   3B4
  8
0
  6
CONTINUOUS
 62
     1
 10
-1099.69531418629
 20
-1.92419725962235
 30
0.0
 11
-1099.69531418629
 21
7.58027701799762E-2
 31
0.0
  0
LINE
  5
   3B5
  8
0
  6
CONTINUOUS
 62
     1
 10
-1099.69530808278
 20
-39.3241920948798
 30
0.0
 11
-1099.69530808278
 21
-35.7241977632816
 31
0.0
  0
LINE
  5
   3B6
  8
0
  6
CONTINUOUS
 62
     1
 10
-1093.05531164594
 20
-38.5241978050048
 30
0.0
 11
-1093.05531164594
 21
3.47580282084392
 31
0.0
  0
LINE
  5
   3B7
  8
0
  6
CONTINUOUS
 62
     1
 10
-1094.49530800529
 20
-38.5241978050048
 30
0.0
 11
-1094.49530800529
 21
3.47580282084392
 31
0.0
  0
LINE
  5
   3B8
  8
0
  6
CONTINUOUS
 62
     1
 10
-1090.17531282373
 20
-38.5241978050048
 30
0.0
 11
-1090.17531282373
 21
3.47580282084392
 31
0.0
  0
LINE
  5
   3B9
  8
0
  6
CONTINUOUS
 62
     1
 10
-1091.61530918308
 20
-38.5241978050048
 30
0.0
 11
-1091.61530918308
 21
3.47580282084392
 31
0.0
  0
LINE
  5
   3BA
  8
0
  6
CONTINUOUS
 62
     1
 10
-1087.295307898
 20
-38.5241978050048
 30
0.0
 11
-1087.295307898
 21
3.47580282084392
 31
0.0
  0
LINE
  5
   3BB
  8
0
  6
CONTINUOUS
 62
     1
 10
-1088.73531036087
 20
-38.5241978050048
 30
0.0
 11
-1088.73531036087
 21
3.47580282084392
 31
0.0
  0
LINE
  5
   3BC
  8
0
  6
CONTINUOUS
 62
     1
 10
-1085.85531153865
 20
-38.5241978050048
 30
0.0
 11
-1085.85531153865
 21
3.47580282084392
 31
0.0
  0
LINE
  5
   3BD
  8
0
  6
CONTINUOUS
 62
     1
 10
-1101.69530811258
 20
-38.5241978050048
 30
0.0
 11
-1101.69530811258
 21
3.47580282084392
 31
0.0
  0
LINE
  5
   3BE
  8
0
  6
CONTINUOUS
 62
     1
 10
-1103.13531057544
 20
-38.5241978050048
 30
0.0
 11
-1103.13531057544
 21
3.47580282084392
 31
0.0
  0
LINE
  5
   3BF
  8
0
  6
CONTINUOUS
 62
     1
 10
-1104.57531303831
 20
-38.5241978050048
 30
0.0
 11
-1104.57531303831
 21
3.47580282084392
 31
0.0
  0
LINE
  5
   3C0
  8
0
  6
CONTINUOUS
 62
     1
 10
-1105.81530939468
 20
-38.5241978050048
 30
0.0
 11
-1105.81530939468
 21
3.47580282084392
 31
0.0
  0
LINE
  5
   3C1
  8
0
  6
CONTINUOUS
 62
     1
 10
-1106.73531062909
 20
-38.5241917014891
 30
0.0
 11
-1106.73531062909
 21
3.47580282084392
 31
0.0
  0
LINE
  5
   3C2
  8
0
  6
CONTINUOUS
 62
     1
 10
-1095.93531046816
 20
-38.5241978050048
 30
0.0
 11
-1095.93531046816
 21
3.47580282084392
 31
0.0
  0
LINE
  5
   3C3
  8
0
  6
CONTINUOUS
 62
     1
 10
-1097.37531293102
 20
-38.5241978050048
 30
0.0
 11
-1097.37531293102
 21
3.47580282084392
 31
0.0
  0
LINE
  5
   3C4
  8
0
  6
CONTINUOUS
 62
     1
 10
-1098.81530929037
 20
-38.5241978050048
 30
0.0
 11
-1098.81530929037
 21
3.47580282084392
 31
0.0
  0
LINE
  5
   3C5
  8
0
  6
CONTINUOUS
 62
     1
 10
-1100.25531175323
 20
-35.7241977632816
 30
0.0
 11
-1100.25531175323
 21
-1.92419725962235
 31
0.0
  0
LINE
  5
   3C6
  8
0
  6
CONTINUOUS
 62
     1
 10
-1100.25531175323
 20
7.58027701799762E-2
 30
0.0
 11
-1100.25531175323
 21
3.47580282084392
 31
0.0
  0
LINE
  5
   3C7
  8
0
  6
CONTINUOUS
 62
     1
 10
-1084.41530907579
 20
-59.4241783410623
 30
0.0
 11
-1084.41530907579
 21
22.7758031084363
 31
0.0
  0
LINE
  5
   3C8
  8
0
  6
CONTINUOUS
 62
     1
 10
-1087.295307898
 20
3.47580282084392
 30
0.0
 11
-1087.295307898
 21
22.7758031084363
 31
0.0
  0
LINE
  5
   3C9
  8
0
  6
CONTINUOUS
 62
     1
 10
-1085.85531153865
 20
3.47580282084392
 30
0.0
 11
-1085.85531153865
 21
22.7758031084363
 31
0.0
  0
LINE
  5
   3CA
  8
0
  6
CONTINUOUS
 62
     1
 10
-1090.17531282373
 20
3.47580282084392
 30
0.0
 11
-1090.17531282373
 21
22.7758031084363
 31
0.0
  0
LINE
  5
   3CB
  8
0
  6
CONTINUOUS
 62
     1
 10
-1088.73531036087
 20
3.47580282084392
 30
0.0
 11
-1088.73531036087
 21
22.7758031084363
 31
0.0
  0
LINE
  5
   3CC
  8
0
  6
CONTINUOUS
 62
     1
 10
-1093.05531164594
 20
3.47580282084392
 30
0.0
 11
-1093.05531164594
 21
22.7758031084363
 31
0.0
  0
LINE
  5
   3CD
  8
0
  6
CONTINUOUS
 62
     1
 10
-1091.61530918308
 20
3.47580282084392
 30
0.0
 11
-1091.61530918308
 21
22.7758031084363
 31
0.0
  0
LINE
  5
   3CE
  8
0
  6
CONTINUOUS
 62
     1
 10
-1095.93531046816
 20
3.47580282084392
 30
0.0
 11
-1095.93531046816
 21
22.7758031084363
 31
0.0
  0
LINE
  5
   3CF
  8
0
  6
CONTINUOUS
 62
     1
 10
-1094.49530800529
 20
3.47580282084392
 30
0.0
 11
-1094.49530800529
 21
22.7758031084363
 31
0.0
  0
LINE
  5
   3D0
  8
0
  6
CONTINUOUS
 62
     1
 10
-1098.81530929037
 20
3.47580282084392
 30
0.0
 11
-1098.81530929037
 21
22.7758031084363
 31
0.0
  0
LINE
  5
   3D1
  8
0
  6
CONTINUOUS
 62
     1
 10
-1097.37531293102
 20
3.47580282084392
 30
0.0
 11
-1097.37531293102
 21
22.7758031084363
 31
0.0
  0
LINE
  5
   3D2
  8
0
  6
CONTINUOUS
 62
     1
 10
-1106.73531062909
 20
3.47580282084392
 30
0.0
 11
-1106.73531062909
 21
22.7758031084363
 31
0.0
  0
LINE
  5
   3D3
  8
0
  6
CONTINUOUS
 62
     1
 10
-1105.81530939468
 20
3.47580282084392
 30
0.0
 11
-1105.81530939468
 21
22.7758031084363
 31
0.0
  0
LINE
  5
   3D4
  8
0
  6
CONTINUOUS
 62
     1
 10
-1101.69530811258
 20
3.47580282084392
 30
0.0
 11
-1101.69530811258
 21
22.7758031084363
 31
0.0
  0
LINE
  5
   3D5
  8
0
  6
CONTINUOUS
 62
     1
 10
-1100.25531175323
 20
3.47580282084392
 30
0.0
 11
-1100.25531175323
 21
22.7758031084363
 31
0.0
  0
LINE
  5
   3D6
  8
0
  6
CONTINUOUS
 62
     1
 10
-1104.57531303831
 20
3.47580282084392
 30
0.0
 11
-1104.57531303831
 21
22.7758031084363
 31
0.0
  0
LINE
  5
   3D7
  8
0
  6
CONTINUOUS
 62
     1
 10
-1103.13531057544
 20
3.47580282084392
 30
0.0
 11
-1103.13531057544
 21
22.7758031084363
 31
0.0
  0
LINE
  5
   3D8
  8
0
  6
CONTINUOUS
 62
     1
 10
-1093.05531164594
 20
-59.4241783410623
 30
0.0
 11
-1093.05531164594
 21
-45.4241781324461
 31
0.0
  0
LINE
  5
   3D9
  8
0
  6
CONTINUOUS
 62
     1
 10
-1091.61530918308
 20
-59.4241783410623
 30
0.0
 11
-1091.61530918308
 21
-45.4241781324461
 31
0.0
  0
LINE
  5
   3DA
  8
0
  6
CONTINUOUS
 62
     1
 10
-1097.37531293102
 20
-59.4241783410623
 30
0.0
 11
-1097.37531293102
 21
-45.4241781324461
 31
0.0
  0
LINE
  5
   3DB
  8
0
  6
CONTINUOUS
 62
     1
 10
-1094.49530800529
 20
-59.4241783410623
 30
0.0
 11
-1094.49530800529
 21
-45.4241781324461
 31
0.0
  0
LINE
  5
   3DC
  8
0
  6
CONTINUOUS
 62
     1
 10
-1095.93531046816
 20
-59.4241783410623
 30
0.0
 11
-1095.93531046816
 21
-45.4241781324461
 31
0.0
  0
LINE
  5
   3DD
  8
0
  6
CONTINUOUS
 62
     1
 10
-1087.295307898
 20
-59.4241783410623
 30
0.0
 11
-1087.295307898
 21
-45.4241781324461
 31
0.0
  0
LINE
  5
   3DE
  8
0
  6
CONTINUOUS
 62
     1
 10
-1085.85531153865
 20
-59.4241783410623
 30
0.0
 11
-1085.85531153865
 21
-45.4241781324461
 31
0.0
  0
LINE
  5
   3DF
  8
0
  6
CONTINUOUS
 62
     1
 10
-1090.17531282373
 20
-59.4241783410623
 30
0.0
 11
-1090.17531282373
 21
-45.4241781324461
 31
0.0
  0
LINE
  5
   3E0
  8
0
  6
CONTINUOUS
 62
     1
 10
-1088.73531036087
 20
-59.4241783410623
 30
0.0
 11
-1088.73531036087
 21
-45.4241781324461
 31
0.0
  0
LINE
  5
   3E1
  8
0
  6
CONTINUOUS
 62
     1
 10
-1101.69530811258
 20
-59.4241783410623
 30
0.0
 11
-1101.69530811258
 21
-45.4241781324461
 31
0.0
  0
LINE
  5
   3E2
  8
0
  6
CONTINUOUS
 62
     1
 10
-1100.25531175323
 20
-59.4241783410623
 30
0.0
 11
-1100.25531175323
 21
-45.4241781324461
 31
0.0
  0
LINE
  5
   3E3
  8
0
  6
CONTINUOUS
 62
     1
 10
-1098.81530929037
 20
-59.4241783410623
 30
0.0
 11
-1098.81530929037
 21
-45.4241781324461
 31
0.0
  0
LINE
  5
   3E4
  8
0
  6
CONTINUOUS
 62
     1
 10
-1106.73531062909
 20
-59.4241783410623
 30
0.0
 11
-1106.73531062909
 21
-45.4241781324461
 31
0.0
  0
LINE
  5
   3E5
  8
0
  6
CONTINUOUS
 62
     1
 10
-1105.81530939468
 20
-59.4241783410623
 30
0.0
 11
-1105.81530939468
 21
-45.4241781324461
 31
0.0
  0
LINE
  5
   3E6
  8
0
  6
CONTINUOUS
 62
     1
 10
-1104.57531303831
 20
-59.4241783410623
 30
0.0
 11
-1104.57531303831
 21
-45.4241781324461
 31
0.0
  0
LINE
  5
   3E7
  8
0
  6
CONTINUOUS
 62
     1
 10
-1103.13531057544
 20
-59.4241783410623
 30
0.0
 11
-1103.13531057544
 21
-45.4241781324461
 31
0.0
  0
LINE
  5
   3E8
  8
0
  6
CONTINUOUS
 62
     1
 10
-1034.29531321176
 20
-38.3241916985089
 30
0.0
 11
-1041.29531331607
 21
-38.3241916985089
 31
0.0
  0
LINE
  5
   3E9
  8
0
  6
CONTINUOUS
 62
     1
 10
-1035.19531932868
 20
-44.6241918162281
 30
0.0
 11
-1035.19531932868
 21
-38.5241913438613
 31
0.0
  0
LINE
  5
   3EA
  8
0
  6
CONTINUOUS
 62
     1
 10
-1036.11531445958
 20
-44.6241918162281
 30
0.0
 11
-1036.11531445958
 21
-38.5241913438613
 31
0.0
  0
LINE
  5
   3EB
  8
0
  6
CONTINUOUS
 62
     1
 10
-1037.55531692244
 20
-44.6241918162281
 30
0.0
 11
-1037.55531692244
 21
-38.5241913438613
 31
0.0
  0
LINE
  5
   3EC
  8
0
  6
CONTINUOUS
 62
     1
 10
-1093.05531164594
 20
-44.6241918162281
 30
0.0
 11
-1093.05531164594
 21
-38.5241978050049
 31
0.0
  0
LINE
  5
   3ED
  8
0
  6
CONTINUOUS
 62
     1
 10
-1091.61530918308
 20
-44.6241918162281
 30
0.0
 11
-1091.61530918308
 21
-38.5241978050048
 31
0.0
  0
LINE
  5
   3EE
  8
0
  6
CONTINUOUS
 62
     1
 10
-1097.37531293102
 20
-44.6241918162281
 30
0.0
 11
-1097.37531293102
 21
-38.5241978050049
 31
0.0
  0
LINE
  5
   3EF
  8
0
  6
CONTINUOUS
 62
     1
 10
-1094.49530800529
 20
-44.6241918162281
 30
0.0
 11
-1094.49530800529
 21
-38.5241978050049
 31
0.0
  0
LINE
  5
   3F0
  8
0
  6
CONTINUOUS
 62
     1
 10
-1095.93531046816
 20
-44.6241918162281
 30
0.0
 11
-1095.93531046816
 21
-38.5241978050049
 31
0.0
  0
LINE
  5
   3F1
  8
0
  6
CONTINUOUS
 62
     1
 10
-1087.295307898
 20
-44.6241918162281
 30
0.0
 11
-1087.295307898
 21
-38.5241978050048
 31
0.0
  0
LINE
  5
   3F2
  8
0
  6
CONTINUOUS
 62
     1
 10
-1085.85531153865
 20
-44.6241918162281
 30
0.0
 11
-1085.85531153865
 21
-38.5241978050049
 31
0.0
  0
LINE
  5
   3F3
  8
0
  6
CONTINUOUS
 62
     1
 10
-1090.17531282373
 20
-44.6241918162281
 30
0.0
 11
-1090.17531282373
 21
-38.5241978050049
 31
0.0
  0
LINE
  5
   3F4
  8
0
  6
CONTINUOUS
 62
     1
 10
-1088.73531036087
 20
-44.6241918162281
 30
0.0
 11
-1088.73531036087
 21
-38.5241978050049
 31
0.0
  0
LINE
  5
   3F5
  8
0
  6
CONTINUOUS
 62
     1
 10
-1101.69530811258
 20
-44.6241918162281
 30
0.0
 11
-1101.69530811258
 21
-38.5241978050049
 31
0.0
  0
LINE
  5
   3F6
  8
0
  6
CONTINUOUS
 62
     1
 10
-1100.25531175323
 20
-44.6241918162281
 30
0.0
 11
-1100.25531175323
 21
-39.3241920948798
 31
0.0
  0
LINE
  5
   3F7
  8
0
  6
CONTINUOUS
 62
     1
 10
-1098.81530929037
 20
-44.6241918162281
 30
0.0
 11
-1098.81530929037
 21
-38.5241978050049
 31
0.0
  0
LINE
  5
   3F8
  8
0
  6
CONTINUOUS
 62
     1
 10
-1106.73531062909
 20
-44.6241918162281
 30
0.0
 11
-1106.73531062909
 21
-38.5241978050049
 31
0.0
  0
LINE
  5
   3F9
  8
0
  6
CONTINUOUS
 62
     1
 10
-1105.81530939468
 20
-44.6241918162281
 30
0.0
 11
-1105.81530939468
 21
-38.5241978050049
 31
0.0
  0
LINE
  5
   3FA
  8
0
  6
CONTINUOUS
 62
     1
 10
-1104.57531303831
 20
-44.6241918162281
 30
0.0
 11
-1104.57531303831
 21
-38.5241978050049
 31
0.0
  0
LINE
  5
   3FB
  8
0
  6
CONTINUOUS
 62
     1
 10
-1103.13531057544
 20
-44.6241918162281
 30
0.0
 11
-1103.13531057544
 21
-38.5241978050049
 31
0.0
  0
LINE
  5
   3FC
  8
0
  6
CONTINUOUS
 62
     3
 10
-1041.69531942554
 20
3.27580281786368
 30
0.0
 11
-1082.89531393594
 21
3.27580281786368
 31
0.0
  0
LINE
  5
   3FD
  8
0
  6
DASHDOT
 62
     7
 10
-1029.70059721973
 20
-17.7241974950607
 30
0.0
 11
-1114.75269953623
 21
-17.7241974950607
 31
0.0
  0
LINE
  5
   3FE
  8
0
  6
CONTINUOUS
 62
     3
 10
-1041.69531332203
 20
-38.7241978079851
 30
0.0
 11
-1082.89531393595
 21
-38.7241978079851
 31
0.0
  0
ARC
  5
   3FF
  8
0
  6
CONTINUOUS
 62
     5
 10
-1041.69531332203
 20
-38.3241978020246
 30
0.0
 40
0.400000005960464
 50
269.999999948034
 51
359.999999948034
  0
ARC
  5
   400
  8
0
  6
CONTINUOUS
 62
     5
 10
-1082.89531393595
 20
-38.3241978020246
 30
0.0
 40
0.400000005960464
 50
179.999999948034
 51
269.999999948034
  0
ARC
  5
   401
  8
0
  6
CONTINUOUS
 62
     5
 10
-1082.89531393594
 20
2.87580281190321
 30
0.0
 40
0.400000005960464
 50
89.9999999480344
 51
179.999999948034
  0
ARC
  5
   402
  8
0
  6
CONTINUOUS
 62
     5
 10
-1041.69531942554
 20
2.87580281190321
 30
0.0
 40
0.400000005960464
 50
359.999999948034
 51
449.999999948034
  0
LINE
  5
   403
  8
0
  6
CONTINUOUS
 62
     1
 10
-1085.69530787416
 20
3.27580281786368
 30
0.0
 11
-1107.79531430699
 21
3.27580281786368
 31
0.0
  0
LINE
  5
   404
  8
0
  6
CONTINUOUS
 62
     1
 10
-1034.29531321176
 20
3.27580281786368
 30
0.0
 11
-1038.89530717679
 21
3.27580281786368
 31
0.0
  0
LINE
  5
   405
  8
0
  6
CONTINUOUS
 62
     1
 10
-1034.69531932123
 20
-45.0241917983467
 30
0.0
 11
-1107.79531415049
 21
-45.0241917983467
 31
0.0
  0
LINE
  5
   406
  8
0
  6
CONTINUOUS
 62
     1
 10
-1041.89531332501
 20
14.4758029847567
 30
0.0
 11
-1082.69531393297
 21
14.4758029847567
 31
0.0
  0
LINE
  5
   407
  8
0
  6
CONTINUOUS
 62
     7
 10
-1033.44531319909
 20
61.1758204042566
 30
0.0
 11
-1108.64531431966
 21
61.1758204042566
 31
0.0
  0
LINE
  5
   408
  8
0
  6
CONTINUOUS
 62
     7
 10
-1033.04531319313
 20
-98.4241819739687
 30
0.0
 11
-1033.04531319313
 21
60.7758203982961
 31
0.0
  0
LINE
  5
   409
  8
0
  6
CONTINUOUS
 62
     7
 10
-1109.04531432562
 20
-98.4241819739687
 30
0.0
 11
-1109.04531432562
 21
60.7758203982961
 31
0.0
  0
LINE
  5
   40A
  8
0
  6
CONTINUOUS
 62
     7
 10
-1090.29529530055
 20
41.4764963574974
 30
0.0
 11
-1090.29529530055
 21
51.9758202671659
 31
0.0
  0
LINE
  5
   40B
  8
0
  6
CONTINUOUS
 62
     7
 10
-1104.29529550917
 20
32.375789147507
 30
0.0
 11
-1104.29529550917
 21
51.9758202671659
 31
0.0
  0
LINE
  5
   40C
  8
0
  6
CONTINUOUS
 62
     7
 10
-1033.44531319909
 20
-98.8241819799292
 30
0.0
 11
-1108.64531431966
 21
-98.8241819799292
 31
0.0
  0
LINE
  5
   40D
  8
0
  6
CONTINUOUS
 62
     1
 10
-1067.99530802286
 20
-87.6241848647907
 30
0.0
 11
-1107.29531429954
 21
-87.6241848647907
 31
0.0
  0
CIRCLE
  5
   40E
  8
0
  6
CONTINUOUS
 62
     7
 10
-1041.04531331234
 20
55.1758203148496
 30
0.0
 40
2.00000002980232
  0
CIRCLE
  5
   40F
  8
0
  6
CONTINUOUS
 62
     7
 10
-1101.04531420641
 20
55.1758203148496
 30
0.0
 40
2.00000002980232
  0
CIRCLE
  5
   410
  8
0
  6
CONTINUOUS
 62
     7
 10
-1101.04531420641
 20
-92.8241818905222
 30
0.0
 40
2.00000002980232
  0
CIRCLE
  5
   411
  8
0
  6
CONTINUOUS
 62
     7
 10
-1041.04531331234
 20
-92.8241818905222
 30
0.0
 40
1.40000002086163
  0
LINE
  5
   412
  8
0
  6
DASHDOT
 62
     7
 10
-1041.04531331234
 20
-96.024181938206
 30
0.0
 11
-1041.04531331234
 21
-89.6241818428385
 31
0.0
  0
LINE
  5
   413
  8
0
  6
DASHDOT
 62
     7
 10
-1037.84531326466
 20
-92.8241818905222
 30
0.0
 11
-1044.24531336002
 21
-92.8241818905222
 31
0.0
  0
LINE
  5
   414
  8
0
  6
DASHDOT
 62
     7
 10
-1101.04531420641
 20
-96.024181938206
 30
0.0
 11
-1101.04531420641
 21
-89.6241818428385
 31
0.0
  0
LINE
  5
   415
  8
0
  6
DASHDOT
 62
     7
 10
-1097.84531415873
 20
-92.8241818905222
 30
0.0
 11
-1104.24531425409
 21
-92.8241818905222
 31
0.0
  0
LINE
  5
   416
  8
0
  6
CONTINUOUS
 62
   210
 10
-1050.19531147056
 20
-70.2241778131756
 30
0.0
 11
-1052.94532514766
 21
-70.2241778131756
 31
0.0
  0
LINE
  5
   417
  8
0
  6
CONTINUOUS
 62
   210
 10
-1067.69531277739
 20
-70.2241778131756
 30
0.0
 11
-1068.82460028729
 21
-70.2241778131756
 31
0.0
  0
INSERT
  5
   418
  8
255
  6
CONTINUOUS
 62
     1
  2
TC_M4_CROCE____F
 10
-1044.79529462255
 20
31.2557891308177
 30
0.0
 41
0.400000005960464
 42
0.400000005960464
 50
3.50835464724173E-15
 43
0.400000005960464
  0
INSERT
  5
   419
  8
255
  6
CONTINUOUS
 62
     1
  2
TC_M4_CROCE____F
 10
-1097.29529540486
 20
-68.1041845739201
 30
0.0
 41
0.400000005960464
 42
0.400000005960464
 50
3.50835464724173E-15
 43
0.400000005960464
  0
LINE
  5
   41A
  8
0
  6
CONTINUOUS
 62
     7
 10
-1099.23450863663
 20
33.1542658249991
 30
0.0
 11
-1080.3065832298
 21
50.7757894216884
 31
0.0
  0
LINE
  5
   41B
  8
0
  6
CONTINUOUS
 62
     7
 10
-1104.07846201784
 20
21.8517079355126
 30
0.0
 11
-1099.23450863663
 21
33.1542658249991
 31
0.0
  0
LINE
  5
   41C
  8
0
  6
CONTINUOUS
 62
     2
 10
-1034.29531424642
 20
23.1757890104163
 30
0.0
 11
-1034.29531424642
 21
50.3757894157279
 31
0.0
  0
LINE
  5
   41D
  8
0
  6
CONTINUOUS
 62
     2
 10
-1034.69531425238
 20
22.7757890044558
 30
0.0
 11
-1091.54718875436
 21
22.7757890044558
 31
0.0
  0
LINE
  5
   41E
  8
0
  6
CONTINUOUS
 62
     2
 10
-1035.25531181932
 20
23.1757890104163
 30
0.0
 11
-1035.25531181932
 21
50.7757894216883
 31
0.0
  0
LINE
  5
   41F
  8
0
  6
CONTINUOUS
 62
     2
 10
-1036.69531428218
 20
23.1757890104163
 30
0.0
 11
-1036.69531428218
 21
50.7757894216883
 31
0.0
  0
LINE
  5
   420
  8
0
  6
CONTINUOUS
 62
     2
 10
-1038.13531674505
 20
23.1757890104163
 30
0.0
 11
-1038.13531674505
 21
50.7757894216883
 31
0.0
  0
LINE
  5
   421
  8
0
  6
CONTINUOUS
 62
     2
 10
-1039.5753131044
 20
23.1757890104163
 30
0.0
 11
-1039.5753131044
 21
50.7757894216883
 31
0.0
  0
LINE
  5
   422
  8
0
  6
CONTINUOUS
 62
     2
 10
-1041.01531556726
 20
23.1757890104163
 30
0.0
 11
-1041.01531556726
 21
50.7757894216883
 31
0.0
  0
LINE
  5
   423
  8
0
  6
CONTINUOUS
 62
     2
 10
-1042.45531497837
 20
23.1757890104163
 30
0.0
 11
-1042.45531497837
 21
50.7757894216883
 31
0.0
  0
LINE
  5
   424
  8
0
  6
CONTINUOUS
 62
     2
 10
-1043.89531438947
 20
23.1757890104163
 30
0.0
 11
-1043.89531438947
 21
29.9328999985155
 31
0.0
  0
LINE
  5
   425
  8
0
  6
CONTINUOUS
 62
     2
 10
-1045.33531380058
 20
23.1757890104163
 30
0.0
 11
-1045.33531380058
 21
29.7496751365744
 31
0.0
  0
LINE
  5
   426
  8
0
  6
CONTINUOUS
 62
     2
 10
-1046.77531321168
 20
23.1757890104163
 30
0.0
 11
-1046.77531321168
 21
50.7757894216883
 31
0.0
  0
LINE
  5
   427
  8
0
  6
CONTINUOUS
 62
     2
 10
-1048.21531567455
 20
23.1757890104163
 30
0.0
 11
-1048.21531567455
 21
50.7757894216883
 31
0.0
  0
LINE
  5
   428
  8
0
  6
CONTINUOUS
 62
     2
 10
-1049.65531508565
 20
23.1757890104163
 30
0.0
 11
-1049.65531508565
 21
50.7757894216883
 31
0.0
  0
LINE
  5
   429
  8
0
  6
CONTINUOUS
 62
     2
 10
-1051.09531449676
 20
23.1757890104163
 30
0.0
 11
-1051.09531449676
 21
50.7757894216883
 31
0.0
  0
LINE
  5
   42A
  8
0
  6
CONTINUOUS
 62
     2
 10
-1052.53531390787
 20
23.1757890104163
 30
0.0
 11
-1052.53531390787
 21
50.7757894216883
 31
0.0
  0
LINE
  5
   42B
  8
0
  6
CONTINUOUS
 62
     2
 10
-1053.97531331897
 20
23.1757890104163
 30
0.0
 11
-1053.97531331897
 21
50.7757894216883
 31
0.0
  0
LINE
  5
   42C
  8
0
  6
CONTINUOUS
 62
     2
 10
-1055.41531578184
 20
23.1757890104163
 30
0.0
 11
-1055.41531578184
 21
50.7757894216883
 31
0.0
  0
LINE
  5
   42D
  8
0
  6
CONTINUOUS
 62
     2
 10
-1056.85531519294
 20
23.1757890104163
 30
0.0
 11
-1056.85531519294
 21
50.7757894216883
 31
0.0
  0
LINE
  5
   42E
  8
0
  6
CONTINUOUS
 62
     2
 10
-1058.29531460405
 20
23.1757890104163
 30
0.0
 11
-1058.29531460405
 21
50.7757894216883
 31
0.0
  0
LINE
  5
   42F
  8
0
  6
CONTINUOUS
 62
     2
 10
-1059.73531401516
 20
23.1757890104163
 30
0.0
 11
-1059.73531401516
 21
50.7757894216883
 31
0.0
  0
LINE
  5
   430
  8
0
  6
CONTINUOUS
 62
     2
 10
-1061.17531342626
 20
23.1757890104163
 30
0.0
 11
-1061.17531342626
 21
50.7757894216883
 31
0.0
  0
LINE
  5
   431
  8
0
  6
CONTINUOUS
 62
     2
 10
-1062.61531588913
 20
23.1757890104163
 30
0.0
 11
-1062.61531588913
 21
50.7757894216883
 31
0.0
  0
LINE
  5
   432
  8
0
  6
CONTINUOUS
 62
     2
 10
-1064.05531530023
 20
23.1757890104163
 30
0.0
 11
-1064.05531530023
 21
50.7757894216883
 31
0.0
  0
LINE
  5
   433
  8
0
  6
CONTINUOUS
 62
     2
 10
-1065.49531471134
 20
23.1757890104163
 30
0.0
 11
-1065.49531471134
 21
50.7757894216883
 31
0.0
  0
LINE
  5
   434
  8
0
  6
CONTINUOUS
 62
     2
 10
-1066.93531412244
 20
23.1757890104163
 30
0.0
 11
-1066.93531412244
 21
50.7757894216883
 31
0.0
  0
LINE
  5
   435
  8
0
  6
CONTINUOUS
 62
     2
 10
-1068.37531505943
 20
23.1757890104163
 30
0.0
 11
-1068.37531505943
 21
50.7757894216883
 31
0.0
  0
LINE
  5
   436
  8
0
  6
CONTINUOUS
 62
     2
 10
-1069.81531447053
 20
23.1757890104163
 30
0.0
 11
-1069.81531447053
 21
50.7757894216883
 31
0.0
  0
LINE
  5
   437
  8
0
  6
CONTINUOUS
 62
     2
 10
-1071.25531540752
 20
23.1757890104163
 30
0.0
 11
-1071.25531540752
 21
50.7757894216883
 31
0.0
  0
LINE
  5
   438
  8
0
  6
CONTINUOUS
 62
     2
 10
-1072.69531481863
 20
23.1757890104163
 30
0.0
 11
-1072.69531481863
 21
50.7757894216883
 31
0.0
  0
LINE
  5
   439
  8
0
  6
CONTINUOUS
 62
     2
 10
-1074.13531422973
 20
23.1757890104163
 30
0.0
 11
-1074.13531422973
 21
50.7757894216883
 31
0.0
  0
LINE
  5
   43A
  8
0
  6
CONTINUOUS
 62
     2
 10
-1075.57531516672
 20
23.1757890104163
 30
0.0
 11
-1075.57531516672
 21
50.7757894216883
 31
0.0
  0
LINE
  5
   43B
  8
0
  6
CONTINUOUS
 62
     2
 10
-1034.29531424642
 20
23.1757890104163
 30
0.0
 11
-1034.69531425238
 21
23.1757890104163
 31
0.0
  0
LINE
  5
   43C
  8
0
  6
CONTINUOUS
 62
     2
 10
-1034.69531425238
 20
22.7757890044558
 30
0.0
 11
-1034.69531425238
 21
23.1757890104163
 31
0.0
  0
LINE
  5
   43D
  8
0
  6
CONTINUOUS
 62
     2
 10
-1034.69531425238
 20
23.1757890104163
 30
0.0
 11
-1103.51099870003
 21
23.1757890104163
 31
0.0
  0
LINE
  5
   43E
  8
0
  6
CONTINUOUS
 62
     2
 10
-1077.01531518817
 20
23.1757890104163
 30
0.0
 11
-1077.01531518817
 21
50.7757894216883
 31
0.0
  0
LINE
  5
   43F
  8
0
  6
CONTINUOUS
 62
     2
 10
-1078.45531520963
 20
23.1757890104163
 30
0.0
 11
-1078.45531520963
 21
50.7757894216883
 31
0.0
  0
LINE
  5
   440
  8
0
  6
CONTINUOUS
 62
     2
 10
-1079.89531523109
 20
23.1757890104163
 30
0.0
 11
-1079.89531523109
 21
50.7757894216883
 31
0.0
  0
LINE
  5
   441
  8
0
  6
CONTINUOUS
 62
     2
 10
-1081.33531525255
 20
23.1757890104163
 30
0.0
 11
-1081.33531525255
 21
49.8180602874147
 31
0.0
  0
LINE
  5
   442
  8
0
  6
CONTINUOUS
 62
     2
 10
-1082.77531527401
 20
23.1757890104163
 30
0.0
 11
-1082.77531527401
 21
48.4774487934476
 31
0.0
  0
LINE
  5
   443
  8
0
  6
CONTINUOUS
 62
     2
 10
-1084.21531529546
 20
23.1757890104163
 30
0.0
 11
-1084.21531529546
 21
47.1368372994805
 31
0.0
  0
LINE
  5
   444
  8
0
  6
CONTINUOUS
 62
     2
 10
-1085.65531531692
 20
23.1757890104163
 30
0.0
 11
-1085.65531531692
 21
45.7962258055135
 31
0.0
  0
LINE
  5
   445
  8
0
  6
CONTINUOUS
 62
     2
 10
-1087.09531533838
 20
23.1757890104163
 30
0.0
 11
-1087.09531533838
 21
44.4556143115464
 31
0.0
  0
LINE
  5
   446
  8
0
  6
CONTINUOUS
 62
     2
 10
-1088.53531535984
 20
23.1757890104163
 30
0.0
 11
-1088.53531535984
 21
43.1150028175794
 31
0.0
  0
LINE
  5
   447
  8
0
  6
CONTINUOUS
 62
     2
 10
-1089.97531538129
 20
23.1757890104163
 30
0.0
 11
-1089.97531538129
 21
41.7743913236123
 31
0.0
  0
LINE
  5
   448
  8
0
  6
CONTINUOUS
 62
     2
 10
-1091.41531540275
 20
23.1757890104163
 30
0.0
 11
-1091.41531540275
 21
40.4337798296452
 31
0.0
  0
LINE
  5
   449
  8
0
  6
CONTINUOUS
 62
     7
 10
-1034.69531425238
 20
50.7757894216883
 30
0.0
 11
-1080.3065832298
 21
50.7757894216883
 31
0.0
  0
ARC
  5
   44A
  8
0
  6
CONTINUOUS
 62
     7
 10
-1034.69531425238
 20
50.3757894157279
 30
0.0
 40
0.400000005960464
 50
359.999999948034
 51
449.999999948034
  0
INSERT
  5
   44B
  8
255
  6
CONTINUOUS
 62
     1
  2
TC_M4_CROCE____F
 10
-1097.29529540486
 20
30.77580735729
 30
0.0
 41
0.400000005960464
 42
0.400000005960464
 50
359.999999792138
 43
0.400000005960464
  0
LINE
  5
   44C
  8
0
  6
CONTINUOUS
 62
     2
 10
-1092.85531542421
 20
23.1757890104163
 30
0.0
 11
-1092.85531542421
 21
39.0931683356782
 31
0.0
  0
LINE
  5
   44D
  8
0
  6
CONTINUOUS
 62
     2
 10
-1094.29531544567
 20
23.1757890104163
 30
0.0
 11
-1094.29531544567
 21
37.7525568417111
 31
0.0
  0
LINE
  5
   44E
  8
0
  6
CONTINUOUS
 62
     2
 10
-1095.73531546712
 20
23.1757890104163
 30
0.0
 11
-1095.73531546712
 21
36.4119453477441
 31
0.0
  0
LINE
  5
   44F
  8
0
  6
CONTINUOUS
 62
     2
 10
-1097.17531548858
 20
23.1757890104163
 30
0.0
 11
-1097.17531548858
 21
29.1803121689599
 31
0.0
  0
LINE
  5
   450
  8
0
  6
CONTINUOUS
 62
     2
 10
-1098.61531551004
 20
23.1757890104163
 30
0.0
 11
-1098.61531551004
 21
29.8716243015879
 31
0.0
  0
LINE
  5
   451
  8
0
  6
CONTINUOUS
 62
     2
 10
-1100.0553155315
 20
23.1757890104163
 30
0.0
 11
-1100.0553155315
 21
31.2390497369835
 31
0.0
  0
LINE
  5
   452
  8
0
  6
CONTINUOUS
 62
     2
 10
-1101.49531555295
 20
23.1757890104163
 30
0.0
 11
-1101.49531555295
 21
27.8790496869155
 31
0.0
  0
LINE
  5
   453
  8
0
  6
CONTINUOUS
 62
     2
 10
-1097.17531548858
 20
32.3713025456199
 30
0.0
 11
-1097.17531548858
 21
35.071333853777
 31
0.0
  0
LINE
  5
   454
  8
0
  6
CONTINUOUS
 62
     7
 10
-1090.69529530651
 20
52.3758202731264
 30
0.0
 11
-1103.89529550321
 21
52.3758202731264
 31
0.0
  0
ARC
  5
   455
  8
0
  6
CONTINUOUS
 62
     7
 10
-1090.69529530651
 20
51.9758202671659
 30
0.0
 40
0.400000005960464
 50
359.999999948034
 51
449.999999948034
  0
ARC
  5
   456
  8
0
  6
CONTINUOUS
 62
     7
 10
-1103.89529550321
 20
51.9758202671659
 30
0.0
 40
0.400000005960464
 50
89.9999999480344
 51
179.999999948034
  0
LINE
  5
   457
  8
0
  6
CONTINUOUS
 62
     7
 10
-1092.76653213731
 20
39.1758238170114
 30
0.0
 11
-1102.49529548235
 21
39.1758238170114
 31
0.0
  0
LINE
  5
   458
  8
0
  6
CONTINUOUS
 62
     7
 10
-1092.76653213731
 20
39.1758238170114
 30
0.0
 11
-1102.09529547639
 21
39.1758238170114
 31
0.0
  0
LINE
  5
   459
  8
0
  6
CONTINUOUS
 62
     7
 10
-1102.09529547639
 20
32.375789147507
 30
0.0
 11
-1102.09529547639
 21
37.97582379913
 31
0.0
  0
LINE
  5
   45A
  8
0
  6
CONTINUOUS
 62
     7
 10
-1102.89529548831
 20
34.7758237514463
 30
0.0
 11
-1102.89529548831
 21
38.775823811051
 31
0.0
  0
ARC
  5
   45B
  8
0
  6
CONTINUOUS
 62
     7
 10
-1102.49529548235
 20
38.775823811051
 30
0.0
 40
0.400000005960464
 50
89.9999999480344
 51
179.999999948034
  0
LINE
  5
   45C
  8
0
  6
CONTINUOUS
 62
     7
 10
-1102.09529547639
 20
34.3758237454858
 30
0.0
 11
-1102.49529548235
 21
34.3758237454858
 31
0.0
  0
ARC
  5
   45D
  8
0
  6
CONTINUOUS
 62
     7
 10
-1102.49529548235
 20
34.7758237514463
 30
0.0
 40
0.400000005960464
 50
179.999999948034
 51
269.999999948034
  0
LINE
  5
   45E
  8
0
  6
CONTINUOUS
 62
     7
 10
-1040.89529456444
 20
-44.6241918162281
 30
0.0
 11
-1040.89529456444
 21
-40.4241917536432
 31
0.0
  0
LINE
  5
   45F
  8
0
  6
CONTINUOUS
 62
     7
 10
-1048.69529468066
 20
-44.6241918162281
 30
0.0
 11
-1048.69529468066
 21
-40.4241917536432
 31
0.0
  0
LINE
  5
   460
  8
0
  6
CONTINUOUS
 62
     7
 10
-1040.89529456444
 20
-40.4241917536432
 30
0.0
 11
-1048.69529468066
 21
-40.4241917536432
 31
0.0
  0
TEXT
  5
   461
  8
0
  6
CONTINUOUS
 62
     7
 10
-1046.07862797659
 20
-44.2741918098552
 30
0.0
 40
3.50000005215406
  1
N
 50
359.999999948034
 41
0.933333333333333
 72
     1
 11
-1044.79529462255
 21
-42.5241917849356
 31
0.0
 73
     2
  0
LINE
  5
   462
  8
0
  6
CONTINUOUS
 62
     5
 10
-1050.59532511264
 20
-87.6241848647907
 30
0.0
 11
-1050.59532511264
 21
-86.8241848528698
 31
0.0
  0
LINE
  5
   463
  8
0
  6
CONTINUOUS
 62
     5
 10
-1050.59532511264
 20
-85.2241848290279
 30
0.0
 11
-1052.24532513723
 21
-85.2241848290279
 31
0.0
  0
LINE
  5
   464
  8
0
  6
CONTINUOUS
 62
     5
 10
-1050.49532511115
 20
-87.6241848647907
 30
0.0
 11
-1056.49532520056
 21
-87.6241848647907
 31
0.0
  0
LINE
  5
   465
  8
0
  6
CONTINUOUS
 62
     5
 10
-1050.59532511264
 20
-86.0241848409489
 30
0.0
 11
-1051.39532512456
 21
-86.0241848409489
 31
0.0
  0
LINE
  5
   466
  8
0
  6
CONTINUOUS
 62
     5
 10
-1050.59532511264
 20
-86.8241848528698
 30
0.0
 11
-1051.39532512456
 21
-86.8241848528698
 31
0.0
  0
LINE
  5
   467
  8
0
  6
CONTINUOUS
 62
     5
 10
-1050.59532511264
 20
-86.0241848409489
 30
0.0
 11
-1050.59532511264
 21
-85.2241848290279
 31
0.0
  0
LINE
  5
   468
  8
0
  6
CONTINUOUS
 62
     5
 10
-1051.39532512456
 20
-86.8241848528698
 30
0.0
 11
-1051.39532512456
 21
-86.0241848409489
 31
0.0
  0
LINE
  5
   469
  8
0
  6
CONTINUOUS
 62
     5
 10
-1052.24532513723
 20
-86.0241848409489
 30
0.0
 11
-1052.24532513723
 21
-85.2241848290279
 31
0.0
  0
LINE
  5
   46A
  8
0
  6
CONTINUOUS
 62
     5
 10
-1052.24532513723
 20
-86.0241848409489
 30
0.0
 11
-1052.94532514766
 21
-86.0241848409489
 31
0.0
  0
LINE
  5
   46B
  8
0
  6
CONTINUOUS
 62
     5
 10
-1052.94532514766
 20
-86.0241848409489
 30
0.0
 11
-1052.94532514766
 21
-66.6241784483508
 31
0.0
  0
LINE
  5
   46C
  8
0
  6
CONTINUOUS
 62
     5
 10
-1038.19532492787
 20
-86.8241848528698
 30
0.0
 11
-1038.99532493979
 21
-86.8241848528698
 31
0.0
  0
LINE
  5
   46D
  8
0
  6
CONTINUOUS
 62
     5
 10
-1038.19532492787
 20
-86.0241848409489
 30
0.0
 11
-1038.99532493979
 21
-86.0241848409489
 31
0.0
  0
LINE
  5
   46E
  8
0
  6
CONTINUOUS
 62
     5
 10
-1038.19532492787
 20
-86.8241848528698
 30
0.0
 11
-1038.19532492787
 21
-86.0241848409489
 31
0.0
  0
LINE
  5
   46F
  8
0
  6
CONTINUOUS
 62
     5
 10
-1038.99532493979
 20
-86.0241848409489
 30
0.0
 11
-1038.99532493979
 21
-85.2241848290279
 31
0.0
  0
LINE
  5
   470
  8
0
  6
CONTINUOUS
 62
     5
 10
-1037.3453249152
 20
-85.2241848290279
 30
0.0
 11
-1038.99532493979
 21
-85.2241848290279
 31
0.0
  0
LINE
  5
   471
  8
0
  6
CONTINUOUS
 62
     5
 10
-1037.3453249152
 20
-86.0241848409489
 30
0.0
 11
-1037.3453249152
 21
-85.2241848290279
 31
0.0
  0
LINE
  5
   472
  8
0
  6
CONTINUOUS
 62
     5
 10
-1035.09531306718
 20
-86.0241848409489
 30
0.0
 11
-1037.3453249152
 21
-86.0241848409489
 31
0.0
  0
LINE
  5
   473
  8
0
  6
CONTINUOUS
 62
     5
 10
-1034.69531306122
 20
-87.6241848647907
 30
0.0
 11
-1039.09532494128
 21
-87.6241848647907
 31
0.0
  0
LINE
  5
   474
  8
0
  6
CONTINUOUS
 62
     5
 10
-1038.99532493979
 20
-87.6241848647907
 30
0.0
 11
-1038.99532493979
 21
-86.8241848528698
 31
0.0
  0
LINE
  5
   475
  8
0
  6
CONTINUOUS
 62
     5
 10
-1054.14532516554
 20
-86.0241848409489
 30
0.0
 11
-1054.84532517597
 21
-86.0241848409489
 31
0.0
  0
LINE
  5
   476
  8
0
  6
CONTINUOUS
 62
     5
 10
-1054.14532516554
 20
-86.0241848409489
 30
0.0
 11
-1054.14532516554
 21
-66.6241784483508
 31
0.0
  0
LINE
  5
   477
  8
0
  6
CONTINUOUS
 62
     5
 10
-1054.84532517597
 20
-86.0241848409489
 30
0.0
 11
-1054.84532517597
 21
-85.2241848290279
 31
0.0
  0
LINE
  5
   478
  8
0
  6
CONTINUOUS
 62
     5
 10
-1054.84532517597
 20
-85.2241848290279
 30
0.0
 11
-1056.49532520056
 21
-85.2241848290279
 31
0.0
  0
LINE
  5
   479
  8
0
  6
CONTINUOUS
 62
     5
 10
-1056.49532520056
 20
-86.0241848409489
 30
0.0
 11
-1056.49532520056
 21
-85.2241848290279
 31
0.0
  0
LINE
  5
   47A
  8
0
  6
CONTINUOUS
 62
     5
 10
-1055.69532518864
 20
-86.0241848409489
 30
0.0
 11
-1056.49532520056
 21
-86.0241848409489
 31
0.0
  0
LINE
  5
   47B
  8
0
  6
CONTINUOUS
 62
     5
 10
-1055.69532518864
 20
-86.8241848528698
 30
0.0
 11
-1055.69532518864
 21
-86.0241848409489
 31
0.0
  0
LINE
  5
   47C
  8
0
  6
CONTINUOUS
 62
     5
 10
-1055.69532518864
 20
-86.8241848528698
 30
0.0
 11
-1056.49532520056
 21
-86.8241848528698
 31
0.0
  0
LINE
  5
   47D
  8
0
  6
CONTINUOUS
 62
     5
 10
-1056.49532520056
 20
-87.6241848647907
 30
0.0
 11
-1056.49532520056
 21
-86.8241848528698
 31
0.0
  0
ARC
  5
   47E
  8
0
  6
CONTINUOUS
 62
     7
 10
-1034.69531306122
 20
-87.2241848588303
 30
0.0
 40
0.400000005960464
 50
269.999999948034
 51
359.999999948034
  0
LINE
  5
   47F
  8
0
  6
CONTINUOUS
 62
     7
 10
-1035.09531306718
 20
-86.0241848409489
 30
0.0
 11
-1035.09531306718
 21
-68.104178489478
 31
0.0
  0
LINE
  5
   480
  8
0
  6
CONTINUOUS
 62
   210
 10
-1054.14532516554
 20
-70.2241778131756
 30
0.0
 11
-1056.89531261646
 21
-70.2241778131756
 31
0.0
  0
LINE
  5
   481
  8
0
  6
CONTINUOUS
 62
     5
 10
-1068.89530020522
 20
-86.8241848528698
 30
0.0
 11
-1068.89530020522
 21
-86.0241848409489
 31
0.0
  0
LINE
  5
   482
  8
0
  6
CONTINUOUS
 62
     5
 10
-1068.09530019329
 20
-86.0241848409489
 30
0.0
 11
-1068.89530020522
 21
-86.0241848409489
 31
0.0
  0
LINE
  5
   483
  8
0
  6
CONTINUOUS
 62
     5
 10
-1068.09530019329
 20
-86.8241848528698
 30
0.0
 11
-1068.89530020522
 21
-86.8241848528698
 31
0.0
  0
LINE
  5
   484
  8
0
  6
CONTINUOUS
 62
     5
 10
-1068.09530019329
 20
-87.6241848647907
 30
0.0
 11
-1068.09530019329
 21
-86.8241848528698
 31
0.0
  0
LINE
  5
   485
  8
0
  6
CONTINUOUS
 62
     5
 10
-1068.09530019329
 20
-86.0241848409489
 30
0.0
 11
-1068.09530019329
 21
-85.2241848290279
 31
0.0
  0
LINE
  5
   486
  8
0
  6
CONTINUOUS
 62
     5
 10
-1068.09530019329
 20
-85.2241848290279
 30
0.0
 11
-1069.74530021788
 21
-85.2241848290279
 31
0.0
  0
LINE
  5
   487
  8
0
  6
CONTINUOUS
 62
     5
 10
-1069.74530021788
 20
-86.0241848409489
 30
0.0
 11
-1069.74530021788
 21
-85.2241848290279
 31
0.0
  0
LINE
  5
   488
  8
0
  6
CONTINUOUS
 62
     5
 10
-1069.74530021788
 20
-86.0241848409489
 30
0.0
 11
-1070.44530022831
 21
-86.0241848409489
 31
0.0
  0
LINE
  5
   489
  8
0
  6
CONTINUOUS
 62
     5
 10
-1070.44530022831
 20
-86.0241848409489
 30
0.0
 11
-1070.44530022831
 21
-80.0187218997088
 31
0.0
  0
LINE
  5
   48A
  8
0
  6
CONTINUOUS
 62
     5
 10
-1068.09530019329
 20
-87.6241848647907
 30
0.0
 11
-1073.15492803839
 21
-87.6241848647907
 31
0.0
  0
LINE
  5
   48B
  8
0
  6
CONTINUOUS
 62
     5
 10
-1071.64530024619
 20
-86.0241848409489
 30
0.0
 11
-1071.64530024619
 21
-85.1098572299526
 31
0.0
  0
LINE
  5
   48C
  8
0
  6
CONTINUOUS
 62
     5
 10
-1071.64530024619
 20
-86.0241848409489
 30
0.0
 11
-1072.10560944324
 21
-86.0241848409489
 31
0.0
  0
CIRCLE
  5
   48D
  8
0
  6
CONTINUOUS
 62
     3
 10
-1097.29529540486
 20
30.77580735729
 30
0.0
 40
1.60000002384186
  0
LINE
  5
   48E
  8
0
  6
CONTINUOUS
 62
     3
 10
-1097.52129540823
 20
31.0018073606576
 30
0.0
 11
-1098.21529541857
 21
31.0018073606576
 31
0.0
  0
LINE
  5
   48F
  8
0
  6
CONTINUOUS
 62
     3
 10
-1097.52129540823
 20
30.5498073539223
 30
0.0
 11
-1098.21529541857
 21
30.5498073539223
 31
0.0
  0
LINE
  5
   490
  8
0
  6
CONTINUOUS
 62
     3
 10
-1097.52129540823
 20
29.8558073435809
 30
0.0
 11
-1097.52129540823
 21
30.5498073539223
 31
0.0
  0
LINE
  5
   491
  8
0
  6
CONTINUOUS
 62
     3
 10
-1097.06929540149
 20
29.8558073435809
 30
0.0
 11
-1097.06929540149
 21
30.5498073539223
 31
0.0
  0
LINE
  5
   492
  8
0
  6
CONTINUOUS
 62
     3
 10
-1097.06929540149
 20
31.695807370999
 30
0.0
 11
-1097.52129540823
 21
31.695807370999
 31
0.0
  0
LINE
  5
   493
  8
0
  6
CONTINUOUS
 62
     3
 10
-1097.06929540149
 20
29.8558073435809
 30
0.0
 11
-1097.52129540823
 21
29.8558073435809
 31
0.0
  0
LINE
  5
   494
  8
0
  6
CONTINUOUS
 62
     3
 10
-1098.21529541857
 20
30.5498073539223
 30
0.0
 11
-1098.21529541857
 21
31.0018073606576
 31
0.0
  0
LINE
  5
   495
  8
0
  6
CONTINUOUS
 62
     3
 10
-1096.37529539115
 20
30.5498073539223
 30
0.0
 11
-1096.37529539115
 21
31.0018073606576
 31
0.0
  0
LINE
  5
   496
  8
0
  6
CONTINUOUS
 62
     3
 10
-1096.37529539115
 20
31.0018073606576
 30
0.0
 11
-1097.06929540149
 21
31.0018073606576
 31
0.0
  0
LINE
  5
   497
  8
0
  6
CONTINUOUS
 62
     3
 10
-1096.37529539115
 20
30.5498073539223
 30
0.0
 11
-1097.06929540149
 21
30.5498073539223
 31
0.0
  0
LINE
  5
   498
  8
0
  6
CONTINUOUS
 62
     3
 10
-1097.06929540149
 20
31.0018073606576
 30
0.0
 11
-1097.06929540149
 21
31.695807370999
 31
0.0
  0
LINE
  5
   499
  8
0
  6
CONTINUOUS
 62
     3
 10
-1097.52129540823
 20
31.0018073606576
 30
0.0
 11
-1097.52129540823
 21
31.695807370999
 31
0.0
  0
LINE
  5
   49A
  8
0
  6
DASHDOT
 62
     7
 10
-1097.29529540486
 20
28.3758073215271
 30
0.0
 11
-1097.29529540486
 21
33.1758073930527
 31
0.0
  0
LINE
  5
   49B
  8
0
  6
DASHDOT
 62
     7
 10
-1094.8952953691
 20
30.77580735729
 30
0.0
 11
-1099.69529544062
 21
30.77580735729
 31
0.0
  0
CIRCLE
  5
   49C
  8
0
  6
CONTINUOUS
 62
     3
 10
-1097.29529540486
 20
-68.1041845739201
 30
0.0
 40
1.60000002384186
  0
LINE
  5
   49D
  8
0
  6
CONTINUOUS
 62
     3
 10
-1097.52129540823
 20
-67.8781845705524
 30
0.0
 11
-1098.21529541857
 21
-67.8781845705524
 31
0.0
  0
LINE
  5
   49E
  8
0
  6
CONTINUOUS
 62
     3
 10
-1097.52129540823
 20
-68.3301845772877
 30
0.0
 11
-1098.21529541857
 21
-68.3301845772877
 31
0.0
  0
LINE
  5
   49F
  8
0
  6
CONTINUOUS
 62
     3
 10
-1097.52129540823
 20
-69.0241845876291
 30
0.0
 11
-1097.52129540823
 21
-68.3301845772877
 31
0.0
  0
LINE
  5
   4A0
  8
0
  6
CONTINUOUS
 62
     3
 10
-1097.06929540149
 20
-69.0241845876291
 30
0.0
 11
-1097.06929540149
 21
-68.3301845772877
 31
0.0
  0
LINE
  5
   4A1
  8
0
  6
CONTINUOUS
 62
     3
 10
-1097.06929540149
 20
-67.184184560211
 30
0.0
 11
-1097.52129540823
 21
-67.184184560211
 31
0.0
  0
LINE
  5
   4A2
  8
0
  6
CONTINUOUS
 62
     3
 10
-1097.06929540149
 20
-69.0241845876291
 30
0.0
 11
-1097.52129540823
 21
-69.0241845876291
 31
0.0
  0
LINE
  5
   4A3
  8
0
  6
CONTINUOUS
 62
     3
 10
-1098.21529541857
 20
-68.3301845772877
 30
0.0
 11
-1098.21529541857
 21
-67.8781845705524
 31
0.0
  0
LINE
  5
   4A4
  8
0
  6
CONTINUOUS
 62
     3
 10
-1096.37529539115
 20
-68.3301845772877
 30
0.0
 11
-1096.37529539115
 21
-67.8781845705524
 31
0.0
  0
LINE
  5
   4A5
  8
0
  6
CONTINUOUS
 62
     3
 10
-1096.37529539115
 20
-67.8781845705524
 30
0.0
 11
-1097.06929540149
 21
-67.8781845705524
 31
0.0
  0
LINE
  5
   4A6
  8
0
  6
CONTINUOUS
 62
     3
 10
-1096.37529539115
 20
-68.3301845772877
 30
0.0
 11
-1097.06929540149
 21
-68.3301845772877
 31
0.0
  0
LINE
  5
   4A7
  8
0
  6
CONTINUOUS
 62
     3
 10
-1097.06929540149
 20
-67.8781845705524
 30
0.0
 11
-1097.06929540149
 21
-67.184184560211
 31
0.0
  0
LINE
  5
   4A8
  8
0
  6
CONTINUOUS
 62
     3
 10
-1097.52129540823
 20
-67.8781845705524
 30
0.0
 11
-1097.52129540823
 21
-67.184184560211
 31
0.0
  0
LINE
  5
   4A9
  8
0
  6
DASHDOT
 62
     7
 10
-1097.29529540486
 20
-70.5041846096828
 30
0.0
 11
-1097.29529540486
 21
-65.7041845381573
 31
0.0
  0
LINE
  5
   4AA
  8
0
  6
DASHDOT
 62
     7
 10
-1094.8952953691
 20
-68.1041845739201
 30
0.0
 11
-1099.69529544062
 21
-68.1041845739201
 31
0.0
  0
CIRCLE
  5
   4AB
  8
0
  6
CONTINUOUS
 62
     3
 10
-1044.79529462255
 20
31.2557891308177
 30
0.0
 40
1.60000002384186
  0
LINE
  5
   4AC
  8
0
  6
CONTINUOUS
 62
     3
 10
-1045.02129462592
 20
31.4817891341853
 30
0.0
 11
-1045.71529463626
 21
31.4817891341853
 31
0.0
  0
LINE
  5
   4AD
  8
0
  6
CONTINUOUS
 62
     3
 10
-1045.02129462592
 20
31.02978912745
 30
0.0
 11
-1045.71529463626
 21
31.02978912745
 31
0.0
  0
LINE
  5
   4AE
  8
0
  6
CONTINUOUS
 62
     3
 10
-1045.02129462592
 20
30.3357891171086
 30
0.0
 11
-1045.02129462592
 21
31.02978912745
 31
0.0
  0
LINE
  5
   4AF
  8
0
  6
CONTINUOUS
 62
     3
 10
-1044.56929461918
 20
30.3357891171086
 30
0.0
 11
-1044.56929461918
 21
31.02978912745
 31
0.0
  0
LINE
  5
   4B0
  8
0
  6
CONTINUOUS
 62
     3
 10
-1044.56929461918
 20
32.1757891445267
 30
0.0
 11
-1045.02129462592
 21
32.1757891445267
 31
0.0
  0
LINE
  5
   4B1
  8
0
  6
CONTINUOUS
 62
     3
 10
-1044.56929461918
 20
30.3357891171086
 30
0.0
 11
-1045.02129462592
 21
30.3357891171086
 31
0.0
  0
LINE
  5
   4B2
  8
0
  6
CONTINUOUS
 62
     3
 10
-1045.71529463626
 20
31.02978912745
 30
0.0
 11
-1045.71529463626
 21
31.4817891341853
 31
0.0
  0
LINE
  5
   4B3
  8
0
  6
CONTINUOUS
 62
     3
 10
-1043.87529460884
 20
31.02978912745
 30
0.0
 11
-1043.87529460884
 21
31.4817891341853
 31
0.0
  0
LINE
  5
   4B4
  8
0
  6
CONTINUOUS
 62
     3
 10
-1043.87529460884
 20
31.4817891341853
 30
0.0
 11
-1044.56929461918
 21
31.4817891341853
 31
0.0
  0
LINE
  5
   4B5
  8
0
  6
CONTINUOUS
 62
     3
 10
-1043.87529460884
 20
31.02978912745
 30
0.0
 11
-1044.56929461918
 21
31.02978912745
 31
0.0
  0
LINE
  5
   4B6
  8
0
  6
CONTINUOUS
 62
     3
 10
-1044.56929461918
 20
31.4817891341853
 30
0.0
 11
-1044.56929461918
 21
32.1757891445267
 31
0.0
  0
LINE
  5
   4B7
  8
0
  6
CONTINUOUS
 62
     3
 10
-1045.02129462592
 20
31.4817891341853
 30
0.0
 11
-1045.02129462592
 21
32.1757891445267
 31
0.0
  0
LINE
  5
   4B8
  8
0
  6
DASHDOT
 62
     7
 10
-1044.79529462255
 20
28.8557890950549
 30
0.0
 11
-1044.79529462255
 21
33.6557891665804
 31
0.0
  0
LINE
  5
   4B9
  8
0
  6
DASHDOT
 62
     7
 10
-1042.39529458679
 20
31.2557891308177
 30
0.0
 11
-1047.19529465831
 21
31.2557891308177
 31
0.0
  0
LINE
  5
   4BA
  8
0
  6
DASHDOT
 62
     7
 10
-1041.04531331234
 20
52.3758202731264
 30
0.0
 11
-1041.04531331234
 21
57.9758203565729
 31
0.0
  0
LINE
  5
   4BB
  8
0
  6
DASHDOT
 62
     7
 10
-1038.24531327062
 20
55.1758203148496
 30
0.0
 11
-1043.84531335406
 21
55.1758203148496
 31
0.0
  0
LINE
  5
   4BC
  8
0
  6
DASHDOT
 62
     3
 10
-1062.29531269693
 20
-79.4242188786584
 30
0.0
 11
-1062.29531269693
 21
-72.6242187773305
 31
0.0
  0
LINE
  5
   4BD
  8
0
  6
CONTINUOUS
 62
     7
 10
-1052.07531738295
 20
-26.7841976300652
 30
0.0
 11
-1052.25531738563
 21
-26.7841976300652
 31
0.0
  0
LINE
  5
   4BE
  8
0
  6
CONTINUOUS
 62
     7
 10
-1052.45531738861
 20
-29.8641976759608
 30
0.0
 11
-1052.77531739338
 21
-29.8641976759608
 31
0.0
  0
LINE
  5
   4BF
  8
0
  6
CONTINUOUS
 62
     7
 10
-1055.33531743153
 20
-28.8241976604637
 30
0.0
 11
-1055.33531743153
 21
-28.6241976574835
 31
0.0
  0
LINE
  5
   4C0
  8
0
  6
CONTINUOUS
 62
     7
 10
-1053.25531740053
 20
-28.8241976604637
 30
0.0
 11
-1053.25531740053
 21
-28.6241976574835
 31
0.0
  0
ARC
  5
   4C1
  8
0
  6
CONTINUOUS
 62
     7
 10
-1054.29531741603
 20
-28.6241976574834
 30
0.0
 40
1.04000001549721
 50
359.999999948034
 51
539.999999948034
  0
ARC
  5
   4C2
  8
0
  6
CONTINUOUS
 62
     7
 10
-1054.29531741603
 20
-28.8241976604636
 30
0.0
 40
1.04000001549721
 50
179.999999948034
 51
359.999999948034
  0
ARC
  5
   4C3
  8
0
  6
CONTINUOUS
 62
     7
 10
-1054.29531741603
 20
-28.6241976574834
 30
0.0
 40
0.720000010728837
 50
359.999999948034
 51
539.999999948034
  0
ARC
  5
   4C4
  8
0
  6
CONTINUOUS
 62
     7
 10
-1054.29531741603
 20
-28.8241976604636
 30
0.0
 40
0.720000010728835
 50
179.999999948034
 51
359.999999948034
  0
LINE
  5
   4C5
  8
0
  6
CONTINUOUS
 62
     7
 10
-1055.01531742676
 20
-28.8241976604637
 30
0.0
 11
-1055.01531742676
 21
-28.6241976574835
 31
0.0
  0
LINE
  5
   4C6
  8
0
  6
CONTINUOUS
 62
     7
 10
-1053.5753174053
 20
-28.8241976604637
 30
0.0
 11
-1053.5753174053
 21
-28.6241976574835
 31
0.0
  0
LINE
  5
   4C7
  8
0
  6
CONTINUOUS
 62
     7
 10
-1053.15531739904
 20
-28.0641976491388
 30
0.0
 11
-1053.15531739904
 21
-27.7441976443705
 31
0.0
  0
LINE
  5
   4C8
  8
0
  6
CONTINUOUS
 62
     7
 10
-1052.77531739338
 20
-28.0641976491387
 30
0.0
 11
-1053.15531739904
 21
-28.0641976491387
 31
0.0
  0
LINE
  5
   4C9
  8
0
  6
CONTINUOUS
 62
     7
 10
-1052.07531738295
 20
-28.0641976491388
 30
0.0
 11
-1052.07531738295
 21
-27.7441976443705
 31
0.0
  0
LINE
  5
   4CA
  8
0
  6
CONTINUOUS
 62
     7
 10
-1052.77531739338
 20
-27.7441976443703
 30
0.0
 11
-1053.15531739904
 21
-27.7441976443703
 31
0.0
  0
LINE
  5
   4CB
  8
0
  6
CONTINUOUS
 62
     7
 10
-1052.77531739338
 20
-29.8641976759609
 30
0.0
 11
-1052.77531739338
 21
-28.0641976491388
 31
0.0
  0
LINE
  5
   4CC
  8
0
  6
CONTINUOUS
 62
     7
 10
-1052.45531738861
 20
-29.8641976759609
 30
0.0
 11
-1052.45531738861
 21
-28.0641976491388
 31
0.0
  0
LINE
  5
   4CD
  8
0
  6
CONTINUOUS
 62
     7
 10
-1052.07531738295
 20
-28.0641976491387
 30
0.0
 11
-1052.45531738861
 21
-28.0641976491387
 31
0.0
  0
LINE
  5
   4CE
  8
0
  6
CONTINUOUS
 62
     7
 10
-1052.07531738295
 20
-27.7441976443703
 30
0.0
 11
-1052.45531738861
 21
-27.7441976443703
 31
0.0
  0
LINE
  5
   4CF
  8
0
  6
CONTINUOUS
 62
     7
 10
-1052.77531739338
 20
-27.7441976443705
 30
0.0
 11
-1052.77531739338
 21
-27.3041976378139
 31
0.0
  0
LINE
  5
   4D0
  8
0
  6
CONTINUOUS
 62
     7
 10
-1052.45531738861
 20
-27.7441976443705
 30
0.0
 11
-1052.45531738861
 21
-27.3041976378139
 31
0.0
  0
ARC
  5
   4D1
  8
0
  6
CONTINUOUS
 62
     7
 10
-1052.25531738563
 20
-27.3041976378138
 30
0.0
 40
0.520000007748604
 50
449.999999948034
 51
539.999999948034
  0
ARC
  5
   4D2
  8
0
  6
CONTINUOUS
 62
     7
 10
-1052.25531738563
 20
-27.3041976378138
 30
0.0
 40
0.200000002980232
 50
449.999999948034
 51
539.999999948034
  0
LINE
  5
   4D3
  8
0
  6
CONTINUOUS
 62
     7
 10
-1052.07531738295
 20
-27.1041976348337
 30
0.0
 11
-1052.07531738295
 21
-26.7841976300653
 31
0.0
  0
LINE
  5
   4D4
  8
0
  6
CONTINUOUS
 62
     7
 10
-1052.07531738295
 20
-27.1041976348336
 30
0.0
 11
-1052.25531738563
 21
-27.1041976348336
 31
0.0
  0
LINE
  5
   4D5
  8
0
  6
CONTINUOUS
 62
     7
 10
-1050.79531736388
 20
-26.7841976300652
 30
0.0
 11
-1050.97531736656
 21
-26.7841976300652
 31
0.0
  0
LINE
  5
   4D6
  8
0
  6
CONTINUOUS
 62
     7
 10
-1051.17531736954
 20
-29.8641976759608
 30
0.0
 11
-1051.49531737431
 21
-29.8641976759608
 31
0.0
  0
LINE
  5
   4D7
  8
0
  6
CONTINUOUS
 62
     7
 10
-1051.87531737997
 20
-28.0641976491388
 30
0.0
 11
-1051.87531737997
 21
-27.7441976443705
 31
0.0
  0
LINE
  5
   4D8
  8
0
  6
CONTINUOUS
 62
     7
 10
-1051.49531737431
 20
-28.0641976491387
 30
0.0
 11
-1051.87531737997
 21
-28.0641976491387
 31
0.0
  0
LINE
  5
   4D9
  8
0
  6
CONTINUOUS
 62
     7
 10
-1050.79531736388
 20
-28.0641976491388
 30
0.0
 11
-1050.79531736388
 21
-27.7441976443705
 31
0.0
  0
LINE
  5
   4DA
  8
0
  6
CONTINUOUS
 62
     7
 10
-1051.49531737431
 20
-27.7441976443703
 30
0.0
 11
-1051.87531737997
 21
-27.7441976443703
 31
0.0
  0
LINE
  5
   4DB
  8
0
  6
CONTINUOUS
 62
     7
 10
-1051.49531737431
 20
-29.8641976759609
 30
0.0
 11
-1051.49531737431
 21
-28.0641976491388
 31
0.0
  0
LINE
  5
   4DC
  8
0
  6
CONTINUOUS
 62
     7
 10
-1051.17531736954
 20
-29.8641976759609
 30
0.0
 11
-1051.17531736954
 21
-28.0641976491388
 31
0.0
  0
LINE
  5
   4DD
  8
0
  6
CONTINUOUS
 62
     7
 10
-1050.79531736388
 20
-28.0641976491387
 30
0.0
 11
-1051.17531736954
 21
-28.0641976491387
 31
0.0
  0
LINE
  5
   4DE
  8
0
  6
CONTINUOUS
 62
     7
 10
-1050.79531736388
 20
-27.7441976443703
 30
0.0
 11
-1051.17531736954
 21
-27.7441976443703
 31
0.0
  0
LINE
  5
   4DF
  8
0
  6
CONTINUOUS
 62
     7
 10
-1051.49531737431
 20
-27.7441976443705
 30
0.0
 11
-1051.49531737431
 21
-27.3041976378139
 31
0.0
  0
LINE
  5
   4E0
  8
0
  6
CONTINUOUS
 62
     7
 10
-1051.17531736954
 20
-27.7441976443705
 30
0.0
 11
-1051.17531736954
 21
-27.3041976378139
 31
0.0
  0
ARC
  5
   4E1
  8
0
  6
CONTINUOUS
 62
     7
 10
-1050.97531736656
 20
-27.3041976378138
 30
0.0
 40
0.520000007748604
 50
449.999999948034
 51
539.999999948034
  0
ARC
  5
   4E2
  8
0
  6
CONTINUOUS
 62
     7
 10
-1050.97531736656
 20
-27.3041976378138
 30
0.0
 40
0.200000002980232
 50
449.999999948034
 51
539.999999948034
  0
LINE
  5
   4E3
  8
0
  6
CONTINUOUS
 62
     7
 10
-1050.79531736388
 20
-27.1041976348337
 30
0.0
 11
-1050.79531736388
 21
-26.7841976300653
 31
0.0
  0
LINE
  5
   4E4
  8
0
  6
CONTINUOUS
 62
     7
 10
-1050.79531736388
 20
-27.1041976348336
 30
0.0
 11
-1050.97531736656
 21
-27.1041976348336
 31
0.0
  0
LINE
  5
   4E5
  8
0
  6
CONTINUOUS
 62
     7
 10
-1052.615317391
 20
-16.0641974703248
 30
0.0
 11
-1052.93531739576
 21
-16.0641974703248
 31
0.0
  0
ARC
  5
   4E6
  8
0
  6
CONTINUOUS
 62
     7
 10
-1054.29531741603
 20
-14.8241974518473
 30
0.0
 40
1.04000001549721
 50
359.999999948034
 51
539.999999948034
  0
ARC
  5
   4E7
  8
0
  6
CONTINUOUS
 62
     7
 10
-1054.29531741603
 20
-14.8241974518473
 30
0.0
 40
0.720000010728837
 50
359.999999948034
 51
539.999999948034
  0
ARC
  5
   4E8
  8
0
  6
CONTINUOUS
 62
     7
 10
-1054.29531741603
 20
-15.0241974548276
 30
0.0
 40
1.04000001549721
 50
179.999999948034
 51
359.999999948034
  0
ARC
  5
   4E9
  8
0
  6
CONTINUOUS
 62
     7
 10
-1054.29531741603
 20
-15.0241974548276
 30
0.0
 40
0.720000010728835
 50
179.999999948034
 51
359.999999948034
  0
LINE
  5
   4EA
  8
0
  6
CONTINUOUS
 62
     7
 10
-1053.5753174053
 20
-15.0241974548277
 30
0.0
 11
-1053.5753174053
 21
-14.8241974518475
 31
0.0
  0
LINE
  5
   4EB
  8
0
  6
CONTINUOUS
 62
     7
 10
-1053.25531740053
 20
-15.0241974548277
 30
0.0
 11
-1053.25531740053
 21
-14.8241974518475
 31
0.0
  0
LINE
  5
   4EC
  8
0
  6
CONTINUOUS
 62
     7
 10
-1055.01531742676
 20
-15.0241974548277
 30
0.0
 11
-1055.01531742676
 21
-14.8241974518475
 31
0.0
  0
LINE
  5
   4ED
  8
0
  6
CONTINUOUS
 62
     7
 10
-1055.33531743153
 20
-15.0241974548277
 30
0.0
 11
-1055.33531743153
 21
-14.8241974518475
 31
0.0
  0
LINE
  5
   4EE
  8
0
  6
CONTINUOUS
 62
     7
 10
-1052.93531739576
 20
-16.0641974703249
 30
0.0
 11
-1052.93531739576
 21
-13.7841974363502
 31
0.0
  0
LINE
  5
   4EF
  8
0
  6
CONTINUOUS
 62
     7
 10
-1052.615317391
 20
-16.0641974703249
 30
0.0
 11
-1052.615317391
 21
-14.6641974494633
 31
0.0
  0
LINE
  5
   4F0
  8
0
  6
CONTINUOUS
 62
     7
 10
-1051.49531737431
 20
-16.0641974703249
 30
0.0
 11
-1051.49531737431
 21
-14.6641974494633
 31
0.0
  0
LINE
  5
   4F1
  8
0
  6
CONTINUOUS
 62
     7
 10
-1051.17531736954
 20
-16.0641974703249
 30
0.0
 11
-1051.17531736954
 21
-14.5841974482712
 31
0.0
  0
LINE
  5
   4F2
  8
0
  6
CONTINUOUS
 62
     7
 10
-1052.615317391
 20
-13.7841974363501
 30
0.0
 11
-1052.93531739576
 21
-13.7841974363501
 31
0.0
  0
ARC
  5
   4F3
  8
0
  6
CONTINUOUS
 62
     7
 10
-1052.05531738265
 20
-14.6641974494632
 30
0.0
 40
0.56000000834465
 50
359.999999948034
 51
539.999999948034
  0
LINE
  5
   4F4
  8
0
  6
CONTINUOUS
 62
     7
 10
-1052.615317391
 20
-14.1041974411186
 30
0.0
 11
-1052.615317391
 21
-13.7841974363502
 31
0.0
  0
ARC
  5
   4F5
  8
0
  6
CONTINUOUS
 62
     7
 10
-1051.97531738146
 20
-14.5841974482711
 30
0.0
 40
0.800000011920929
 50
359.999999948034
 51
503.13010230219
  0
LINE
  5
   4F6
  8
0
  6
CONTINUOUS
 62
     7
 10
-1051.17531736954
 20
-16.0641974703248
 30
0.0
 11
-1051.49531737431
 21
-16.0641974703248
 31
0.0
  0
INSERT
  5
   4F7
  8
0
  6
CONTINUOUS
 62
     7
  2
*HATCH351
 10
-1023.37530517578
 20
-61.7190284729004
 30
0.0
 41
0.400000005960464
 42
0.400000005960464
 50
89.9999999480344
 43
0.400000005960464
  0
INSERT
  5
   4F8
  8
0
  6
CONTINUOUS
 62
     7
  2
*HATCH352
 10
-1023.37530517578
 20
-61.7190284729004
 30
0.0
 41
0.400000005960464
 42
0.400000005960464
 50
89.9999999480344
 43
0.400000005960464
  0
INSERT
  5
   4F9
  8
0
  6
CONTINUOUS
 62
     7
  2
*HATCH353
 10
-1023.37530517578
 20
-61.7190284729004
 30
0.0
 41
0.400000005960464
 42
0.400000005960464
 50
89.9999999480344
 43
0.400000005960464
  0
LINE
  5
   4FA
  8
0
  6
DASHDOT
 62
     7
 10
-1101.04531420641
 20
52.9758202820671
 30
0.0
 11
-1101.04531420641
 21
57.3758203476322
 31
0.0
  0
LINE
  5
   4FB
  8
0
  6
DASHDOT
 62
     7
 10
-1098.84531417363
 20
55.1758203148496
 30
0.0
 11
-1103.24531423919
 21
55.1758203148496
 31
0.0
  0
INSERT
  5
   4FC
  8
0
  6
CONTINUOUS
 62
     7
  2
*UDIM1192
 10
0.0
 20
0.0
 30
0.0
  0
INSERT
  5
   4FD
  8
0
  6
CONTINUOUS
 62
     7
  2
*UDIM1193
 10
0.0
 20
0.0
 30
0.0
  0
INSERT
  5
   4FE
  8
0
  6
CONTINUOUS
 62
     7
  2
*UDIM1194
 10
0.0
 20
0.0
 30
0.0
  0
INSERT
  5
   4FF
  8
0
  6
CONTINUOUS
 62
     7
  2
*UDIM1195
 10
0.0
 20
0.0
 30
0.0
  0
LINE
  5
   500
  8
0
  6
DASHDOT
 62
     7
 10
-1097.29529540486
 20
41.4764963574974
 30
0.0
 11
-1097.29529540486
 21
57.836246953341
 31
0.0
  0
LINE
  5
   501
  8
0
  6
DASHDOT
 62
     7
 10
-1079.79529514409
 20
41.4764963574974
 30
0.0
 11
-1079.79529514409
 21
57.836246953341
 31
0.0
  0
LINE
  5
   502
  8
0
  6
DASHDOT
 62
     7
 10
-1062.29529488332
 20
-88.6045116773058
 30
0.0
 11
-1062.29529488332
 21
57.836246953341
 31
0.0
  0
LINE
  5
   503
  8
0
  6
DASHDOT
 62
     7
 10
-1044.79529462255
 20
41.4764963574974
 30
0.0
 11
-1044.79529462255
 21
57.836246953341
 31
0.0
  0
INSERT
  5
   504
  8
0
  6
CONTINUOUS
 62
     7
  2
*UDIM1196
 10
0.0
 20
0.0
 30
0.0
  0
INSERT
  5
   505
  8
0
  6
CONTINUOUS
 62
     7
  2
*UDIM1197
 10
0.0
 20
0.0
 30
0.0
  0
INSERT
  5
   506
  8
0
  6
CONTINUOUS
 62
     7
  2
*UDIM1198
 10
0.0
 20
0.0
 30
0.0
  0
INSERT
  5
   507
  8
0
  6
CONTINUOUS
 62
     7
  2
*UDIM1199
 10
0.0
 20
0.0
 30
0.0
  0
INSERT
  5
   508
  8
0
  6
CONTINUOUS
 62
     7
  2
*UDIM1200
 10
0.0
 20
0.0
 30
0.0
  0
INSERT
  5
   509
  8
0
  6
CONTINUOUS
 62
     7
  2
*UDIM1201
 10
0.0
 20
0.0
 30
0.0
  0
INSERT
  5
   50A
  8
0
  6
CONTINUOUS
 62
     7
  2
*UDIM1202
 10
0.0
 20
0.0
 30
0.0
  0
INSERT
  5
   50B
  8
0
  6
CONTINUOUS
 62
     7
  2
*UDIM1203
 10
0.0
 20
0.0
 30
0.0
  0
INSERT
  5
   50C
  8
0
  6
CONTINUOUS
 62
     7
  2
*UDIM1204
 10
0.0
 20
0.0
 30
0.0
  0
INSERT
  5
   50D
  8
0
  6
CONTINUOUS
 62
     7
  2
*UDIM1205
 10
0.0
 20
0.0
 30
0.0
  0
INSERT
  5
   50E
  8
0
  6
CONTINUOUS
 62
     7
  2
*UDIM1206
 10
0.0
 20
0.0
 30
0.0
  0
INSERT
  5
   50F
  8
0
  6
CONTINUOUS
 62
     7
  2
*UDIM1207
 10
0.0
 20
0.0
 30
0.0
  0
INSERT
  5
   510
  8
0
  6
CONTINUOUS
 62
     7
  2
*UDIM1208
 10
0.0
 20
0.0
 30
0.0
  0
INSERT
  5
   511
  8
0
  6
CONTINUOUS
 62
     7
  2
*UDIM1209
 10
0.0
 20
0.0
 30
0.0
  0
TEXT
  5
   512
  8
0
  6
CONTINUOUS
 62
     7
 10
-1120.53718201834
 20
-19.4663499606224
 30
0.0
 40
3.50000472515828
  1
X
 50
359.999999948034
 41
0.933333333333333
 72
     1
 11
-1119.25384695087
 21
-17.7163475992008
 31
0.0
 73
     2
  0
TEXT
  5
   513
  8
0
  6
CONTINUOUS
 62
     7
 10
-1025.22862212619
 20
-19.3056272626593
 30
0.0
 40
3.50000472515828
  1
X
 50
359.999999948034
 41
0.933333333333333
 72
     1
 11
-1023.94528705872
 21
-17.5556249012376
 31
0.0
 73
     2
  0
LINE
  5
   514
  8
0
  6
CONTINUOUS
 62
     7
 10
-1039.39531130963
 20
-79.6242188816386
 30
0.0
 11
-1039.39531130963
 21
-69.224178487094
 31
0.0
  0
LINE
  5
   515
  8
0
  6
CONTINUOUS
 62
     7
 10
-1050.19531147056
 20
-79.6242188816386
 30
0.0
 11
-1050.19531147056
 21
-69.224178487094
 31
0.0
  0
LINE
  5
   516
  8
0
  6
CONTINUOUS
 62
     7
 10
-1056.89531261646
 20
-79.6242188816386
 30
0.0
 11
-1056.89531261646
 21
-69.2241784870936
 31
0.0
  0
LINE
  5
   517
  8
0
  6
CONTINUOUS
 62
     7
 10
-1067.69531277739
 20
-79.6242188816386
 30
0.0
 11
-1067.69531277739
 21
-69.2241784870936
 31
0.0
  0
LINE
  5
   518
  8
0
  6
CONTINUOUS
 62
     7
 10
-1039.39531130963
 20
-79.6242188816386
 30
0.0
 11
-1050.19531147056
 21
-79.6242188816386
 31
0.0
  0
LINE
  5
   519
  8
0
  6
CONTINUOUS
 62
     7
 10
-1056.89531261646
 20
-79.6242188816386
 30
0.0
 11
-1067.69531277739
 21
-79.6242188816386
 31
0.0
  0
TEXT
  5
   51A
  8
0
  6
CONTINUOUS
 62
     7
 10
-1174.3200679045
 20
-146.505997715761
 30
0.0
 40
3.50000005215406
  1
- 1: VITI FI FISSAGGIO M5X20
 50
359.999999948034
 41
0.933333333333333
 72
     1
 11
-1128.93673389333
 21
-144.755997730617
 31
0.0
 73
     2
  0
TEXT
  5
   51B
  8
0
  6
CONTINUOUS
 62
     7
 10
-1174.32006811869
 20
-151.405997461518
 30
0.0
 40
3.50000005215406
  1
- 1: FIXING SCREW M5X20
 50
359.999999948034
 41
0.933333333333333
 72
     1
 11
-1137.10340089587
 21
-149.655997469008
 31
0.0
 73
     2
  0
LINE
  5
   51C
  8
0
  6
CONTINUOUS
 62
     7
 10
-1094.05549621025
 20
37.97582379913
 30
0.0
 11
-1102.09529547639
 21
37.97582379913
 31
0.0
  0
ARC
  5
   51D
  8
0
  6
CONTINUOUS
 62
     7
 10
-1033.44531319909
 20
60.7758203982961
 30
0.0
 40
0.400000005960464
 50
359.999999948034
 51
449.999999948034
  0
ARC
  5
   51E
  8
0
  6
CONTINUOUS
 62
     7
 10
-1108.64531431966
 20
60.7758203982961
 30
0.0
 40
0.400000005960464
 50
89.9999999480344
 51
179.999999948034
  0
ARC
  5
   51F
  8
0
  6
CONTINUOUS
 62
     7
 10
-1108.64531431966
 20
-98.4241819739687
 30
0.0
 40
0.400000005960464
 50
179.999999948034
 51
269.999999948034
  0
ARC
  5
   520
  8
0
  6
CONTINUOUS
 62
     7
 10
-1033.44531319909
 20
-98.4241819739687
 30
0.0
 40
0.400000005960464
 50
269.999999948034
 51
359.999999948034
  0
LINE
  5
   521
  8
0
  6
CONTINUOUS
 62
     2
 10
-1098.61531551004
 20
31.679990412992
 30
0.0
 11
-1098.61531551004
 21
33.7307223598099
 31
0.0
  0
LINE
  5
   522
  8
0
  6
CONTINUOUS
 62
     2
 10
-1043.89531438947
 20
32.5786782631199
 30
0.0
 11
-1043.89531438947
 21
50.7757894216883
 31
0.0
  0
LINE
  5
   523
  8
0
  6
CONTINUOUS
 62
     2
 10
-1045.33531380058
 20
32.7619031250609
 30
0.0
 11
-1045.33531380058
 21
50.7757894216883
 31
0.0
  0
LINE
  5
   524
  8
0
  6
CONTINUOUS
 62
     1
 10
-1097.91531415977
 20
-66.6292009062625
 30
0.0
 11
-1097.91531415977
 21
-60.0241844535187
 31
0.0
  0
LINE
  5
   525
  8
0
  6
CONTINUOUS
 62
     1
 10
-1096.47531413831
 20
-66.7302738057837
 30
0.0
 11
-1096.47531413831
 21
-60.0241844535187
 31
0.0
  0
LINE
  5
   526
  8
0
  6
CONTINUOUS
 62
     7
 10
-924.84931640327
 20
-90.7241971180189
 30
0.0
 11
-925.04931640625
 21
-90.7241971180189
 31
0.0
  0
LINE
  5
   527
  8
0
  6
CONTINUOUS
 62
     7
 10
-924.84931640327
 20
-94.9241971806037
 30
0.0
 11
-925.04931640625
 21
-94.9241971806037
 31
0.0
  0
LINE
  5
   528
  8
0
  6
CONTINUOUS
 62
     1
 10
-923.5293163836
 20
-92.584197145735
 30
0.0
 11
-923.5293163836
 21
-91.1241971239793
 31
0.0
  0
LINE
  5
   529
  8
0
  6
CONTINUOUS
 62
     1
 10
-924.84931640327
 20
-94.9241971806037
 30
0.0
 11
-924.84931640327
 21
-90.7241971180189
 31
0.0
  0
LINE
  5
   52A
  8
0
  6
CONTINUOUS
 62
     1
 10
-923.5293163836
 20
-94.5241971746433
 30
0.0
 11
-924.84931640327
 21
-94.5241971746433
 31
0.0
  0
LINE
  5
   52B
  8
0
  6
CONTINUOUS
 62
     1
 10
-923.5293163836
 20
-91.1241971239793
 30
0.0
 11
-924.84931640327
 21
-91.1241971239793
 31
0.0
  0
LINE
  5
   52C
  8
0
  6
CONTINUOUS
 62
     1
 10
-923.5293163836
 20
-93.0641971528876
 30
0.0
 11
-924.129316392541
 21
-93.0641971528876
 31
0.0
  0
LINE
  5
   52D
  8
0
  6
CONTINUOUS
 62
     1
 10
-923.5293163836
 20
-92.584197145735
 30
0.0
 11
-924.129316392541
 21
-92.584197145735
 31
0.0
  0
LINE
  5
   52E
  8
0
  6
CONTINUOUS
 62
     1
 10
-924.129316392541
 20
-93.0641971528876
 30
0.0
 11
-924.129316392541
 21
-92.584197145735
 31
0.0
  0
LINE
  5
   52F
  8
0
  6
CONTINUOUS
 62
     1
 10
-923.5293163836
 20
-94.5241971746433
 30
0.0
 11
-923.5293163836
 21
-93.0641971528876
 31
0.0
  0
LINE
  5
   530
  8
0
  6
CONTINUOUS
 62
     1
 10
-932.649316519499
 20
-93.8241971642124
 30
0.0
 11
-932.649316519499
 21
-91.8241971344101
 31
0.0
  0
LINE
  5
   531
  8
0
  6
CONTINUOUS
 62
     1
 10
-930.649316489697
 20
-91.8241971344101
 30
0.0
 11
-932.649316519499
 21
-91.8241971344101
 31
0.0
  0
LINE
  5
   532
  8
0
  6
CONTINUOUS
 62
     1
 10
-930.649316489697
 20
-93.8241971642124
 30
0.0
 11
-932.649316519499
 21
-93.8241971642124
 31
0.0
  0
LINE
  5
   533
  8
0
  6
CONTINUOUS
 62
     1
 10
-932.849316522479
 20
-93.6241971612322
 30
0.0
 11
-932.849316522479
 21
-92.0241971373904
 31
0.0
  0
LINE
  5
   534
  8
0
  6
CONTINUOUS
 62
     1
 10
-932.849316522479
 20
-92.0241971373904
 30
0.0
 11
-932.649316519499
 21
-91.8241971344101
 31
0.0
  0
LINE
  5
   535
  8
0
  6
CONTINUOUS
 62
     1
 10
-932.649316519499
 20
-93.8241971642124
 30
0.0
 11
-932.849316522479
 21
-93.6241971612322
 31
0.0
  0
LINE
  5
   536
  8
0
  6
CONTINUOUS
 62
     7
 10
-930.649316489697
 20
-92.0241971373904
 30
0.0
 11
-932.649316519499
 21
-92.0241971373904
 31
0.0
  0
LINE
  5
   537
  8
0
  6
CONTINUOUS
 62
     7
 10
-930.649316489697
 20
-93.6241971612322
 30
0.0
 11
-932.649316519499
 21
-93.6241971612322
 31
0.0
  0
LINE
  5
   538
  8
0
  6
DASHDOT
 62
     7
 10
-904.977531179976
 20
-75.2242340748626
 30
0.0
 11
-917.736435121338
 21
-75.2242340748626
 31
0.0
  0
LINE
  5
   539
  8
0
  6
CONTINUOUS
 62
     7
 10
-897.64932609574
 20
-79.6242341404277
 30
0.0
 11
-915.04932635502
 21
-79.6242341404277
 31
0.0
  0
LINE
  5
   53A
  8
0
  6
CONTINUOUS
 62
     7
 10
-902.606556595828
 20
-70.8242340092975
 30
0.0
 11
-911.449326301376
 21
-70.8242340092975
 31
0.0
  0
LINE
  5
   53B
  8
0
  6
CONTINUOUS
 62
     7
 10
-897.64932609574
 20
-79.6242341404277
 30
0.0
 11
-897.64932609574
 21
-72.9482409246093
 31
0.0
  0
LINE
  5
   53C
  8
0
  6
CONTINUOUS
 62
     1
 10
-915.04932635502
 20
-71.6242340212184
 30
0.0
 11
-915.449326360981
 21
-71.6242340212184
 31
0.0
  0
LINE
  5
   53D
  8
0
  6
CONTINUOUS
 62
     1
 10
-915.04932635502
 20
-78.8242341285068
 30
0.0
 11
-915.449326360981
 21
-78.8242341285068
 31
0.0
  0
LINE
  5
   53E
  8
0
  6
CONTINUOUS
 62
     1
 10
-919.449326420585
 20
-78.0242341165858
 30
0.0
 11
-919.449326420585
 21
-72.4242340331393
 31
0.0
  0
LINE
  5
   53F
  8
0
  6
CONTINUOUS
 62
     1
 10
-915.449326360981
 20
-78.8242341285068
 30
0.0
 11
-915.449326360981
 21
-71.6242340212184
 31
0.0
  0
LINE
  5
   540
  8
0
  6
CONTINUOUS
 62
     1
 10
-915.449326360981
 20
-72.0242340271789
 30
0.0
 11
-919.049326414625
 21
-72.0242340271789
 31
0.0
  0
LINE
  5
   541
  8
0
  6
CONTINUOUS
 62
     1
 10
-915.449326360981
 20
-78.4242341225463
 30
0.0
 11
-919.049326414625
 21
-78.4242341225463
 31
0.0
  0
ARC
  5
   542
  8
0
  6
CONTINUOUS
 62
     1
 10
-919.049326414625
 20
-72.4242340331393
 30
0.0
 40
0.400000005960464
 50
89.9999999480344
 51
179.999999948034
  0
ARC
  5
   543
  8
0
  6
CONTINUOUS
 62
     1
 10
-919.049326414625
 20
-78.0242341165858
 30
0.0
 40
0.400000005960464
 50
179.999999948034
 51
269.999999948034
  0
LINE
  5
   544
  8
0
  6
CONTINUOUS
 62
     7
 10
-924.249328601361
 20
-6.62420648493116
 30
0.0
 11
-924.249328601361
 21
-6.42421868898236
 31
0.0
  0
LINE
  5
   545
  8
0
  6
CONTINUOUS
 62
     7
 10
-924.249328601361
 20
-0.424218599575397
 30
0.0
 11
-924.249328601361
 21
7.57576931260246
 31
0.0
  0
LINE
  5
   546
  8
0
  6
CONTINUOUS
 62
     7
 10
-923.249316379428
 20
-6.42421868898236
 30
0.0
 11
-923.249316379428
 21
-0.424218599575397
 31
0.0
  0
LINE
  5
   547
  8
0
  6
CONTINUOUS
 62
     7
 10
-923.249316379428
 20
-6.42421868898236
 30
0.0
 11
-924.249328601361
 21
-6.42421868898236
 31
0.0
  0
LINE
  5
   548
  8
0
  6
CONTINUOUS
 62
     7
 10
-923.249316379428
 20
-0.424218599575397
 30
0.0
 11
-924.249328601361
 21
-0.424218599575397
 31
0.0
  0
LINE
  5
   549
  8
0
  6
CONTINUOUS
 62
     7
 10
-923.249316379428
 20
7.57576931260246
 30
0.0
 11
-923.249316379428
 21
13.5757694020094
 31
0.0
  0
LINE
  5
   54A
  8
0
  6
CONTINUOUS
 62
     7
 10
-923.249316379428
 20
7.57576931260246
 30
0.0
 11
-924.249328601361
 21
7.57576931260246
 31
0.0
  0
LINE
  5
   54B
  8
0
  6
CONTINUOUS
 62
     7
 10
-923.249316379428
 20
13.5757694020094
 30
0.0
 11
-924.249328601361
 21
13.5757694020094
 31
0.0
  0
LINE
  5
   54C
  8
0
  6
CONTINUOUS
 62
     7
 10
-896.849334296584
 20
-6.6242186919626
 30
0.0
 11
-896.849334296584
 21
15.3757694288315
 31
0.0
  0
LINE
  5
   54D
  8
0
  6
CONTINUOUS
 62
     2
 10
-923.649325720231
 20
32.3757879926984
 30
0.0
 11
-924.249316394329
 21
32.3757879926984
 31
0.0
  0
LINE
  5
   54E
  8
0
  6
CONTINUOUS
 62
     2
 10
-924.249325872781
 20
15.1757694258513
 30
0.0
 11
-924.249319951767
 21
23.421619158099
 31
0.0
  0
LINE
  5
   54F
  8
0
  6
CONTINUOUS
 62
     7
 10
-895.449328172207
 20
22.3757695331396
 30
0.0
 11
-896.849328193069
 21
22.3757695331396
 31
0.0
  0
LINE
  5
   550
  8
0
  6
CONTINUOUS
 62
     7
 10
-896.84933778433
 20
15.3757659411461
 30
0.0
 11
-896.849331680815
 21
22.3757660454542
 31
0.0
  0
LINE
  5
   551
  8
0
  6
CONTINUOUS
 62
     7
 10
-922.649328577519
 20
16.1757694407524
 30
0.0
 11
-924.249328601361
 21
16.1757694407524
 31
0.0
  0
LINE
  5
   552
  8
0
  6
CONTINUOUS
 62
     7
 10
-922.649327560413
 20
16.1757643547287
 30
0.0
 11
-922.649325516919
 21
16.9792990037649
 31
0.0
  0
LINE
  5
   553
  8
0
  6
CONTINUOUS
 62
     7
 10
-896.849334296584
 20
-10.4242126450713
 30
0.0
 11
-896.849334296584
 21
-6.62420648493116
 31
0.0
  0
LINE
  5
   554
  8
0
  6
CONTINUOUS
 62
     7
 10
-924.249324521631
 20
-34.824202833407
 30
0.0
 11
-924.249312314601
 21
-34.7065087875401
 31
0.0
  0
LINE
  5
   555
  8
0
  6
CONTINUOUS
 62
     7
 10
-924.24931309848
 20
-28.5418982117192
 30
0.0
 11
-924.249325305511
 21
-6.62420989683893
 31
0.0
  0
LINE
  5
   556
  8
0
  6
CONTINUOUS
 62
     7
 10
-895.849328178168
 20
-29.4242068246776
 30
0.0
 11
-923.049342011215
 21
-29.4242068246776
 31
0.0
  0
LINE
  5
   557
  8
0
  6
CONTINUOUS
 62
     7
 10
-895.849328178168
 20
-33.8242068902428
 30
0.0
 11
-923.049342011215
 21
-33.8242068902428
 31
0.0
  0
LINE
  5
   558
  8
0
  6
CONTINUOUS
 62
     7
 10
-920.956504953794
 20
-29.4242027569885
 30
0.0
 11
-924.249314920464
 21
-28.5418941733863
 31
0.0
  0
LINE
  5
   559
  8
0
  6
CONTINUOUS
 62
     7
 10
-924.249313074872
 20
-34.7065122074192
 30
0.0
 11
-920.956503032383
 21
-33.8242064627549
 31
0.0
  0
LINE
  5
   55A
  8
0
  6
CONTINUOUS
 62
     7
 10
-895.449334275723
 20
-28.2242068067962
 30
0.0
 11
-898.649334323406
 21
-28.2242068067962
 31
0.0
  0
LINE
  5
   55B
  8
0
  6
CONTINUOUS
 62
     7
 10
-898.649334323406
 20
-28.2242068067962
 30
0.0
 11
-898.649334323406
 21
-11.2242126569922
 31
0.0
  0
LINE
  5
   55C
  8
0
  6
CONTINUOUS
 62
     7
 10
-923.849316388369
 20
-31.42420685448
 30
0.0
 11
-923.849316388369
 21
-28.6490786392992
 31
0.0
  0
LINE
  5
   55D
  8
0
  6
CONTINUOUS
 62
     7
 10
-923.849322022369
 20
-34.5993310990775
 30
0.0
 11
-923.849315918858
 21
-34.2242029196596
 31
0.0
  0
LINE
  5
   55E
  8
0
  6
CONTINUOUS
 62
     2
 10
-924.249316394329
 20
-28.2242068067962
 30
0.0
 11
-925.04931640625
 21
-28.2242068067962
 31
0.0
  0
LINE
  5
   55F
  8
0
  6
CONTINUOUS
 62
     2
 10
-924.249316394329
 20
-26.0242067740137
 30
0.0
 11
-925.04931640625
 21
-26.0242067740137
 31
0.0
  0
LINE
  5
   560
  8
0
  6
CONTINUOUS
 62
     7
 10
-895.449342919722
 20
-34.2241912857256
 30
0.0
 11
-895.849336809128
 21
-33.8241973963192
 31
0.0
  0
LINE
  5
   561
  8
0
  6
CONTINUOUS
 62
     7
 10
-895.849333232777
 20
-29.424206263895
 30
0.0
 11
-895.449333240509
 21
-29.0242062716259
 31
0.0
  0
LINE
  5
   562
  8
0
  6
CONTINUOUS
 62
     7
 10
-896.849334296584
 20
-11.2242126569922
 30
0.0
 11
-896.849334296584
 21
-10.4242126450713
 31
0.0
  0
LINE
  5
   563
  8
0
  6
CONTINUOUS
 62
     2
 10
-923.449316382408
 20
-42.0241948054004
 30
0.0
 11
-925.04931640625
 21
-42.0241948054004
 31
0.0
  0
LINE
  5
   564
  8
0
  6
CONTINUOUS
 62
     7
 10
-924.249328601361
 20
-36.4242069289858
 30
0.0
 11
-924.249328601361
 21
-34.8242069051439
 31
0.0
  0
LINE
  5
   565
  8
0
  6
CONTINUOUS
 62
     7
 10
-895.449334275723
 20
-40.0241947755985
 30
0.0
 11
-899.449328231812
 21
-40.0241947755985
 31
0.0
  0
LINE
  5
   566
  8
0
  6
CONTINUOUS
 62
     7
 10
-899.449328231812
 20
-42.0241948054008
 30
0.0
 11
-899.449328231812
 21
-40.0241947755985
 31
0.0
  0
LINE
  5
   567
  8
0
  6
CONTINUOUS
 62
     7
 10
-924.249328601361
 20
-41.0241872221545
 30
0.0
 11
-924.249328601361
 21
-36.4242069289858
 31
0.0
  0
LINE
  5
   568
  8
0
  6
CONTINUOUS
 62
     2
 10
-924.249328601361
 20
15.1757694258513
 30
0.0
 11
-924.449316397309
 21
15.1757694258513
 31
0.0
  0
LINE
  5
   569
  8
0
  6
CONTINUOUS
 62
     7
 10
-924.249322497845
 20
-13.0242065802986
 30
0.0
 11
-924.449316397309
 21
-13.0242065802986
 31
0.0
  0
LINE
  5
   56A
  8
0
  6
CONTINUOUS
 62
     7
 10
-924.249316394329
 20
-25.8242052451545
 30
0.0
 11
-924.449316397309
 21
-25.8242052451545
 31
0.0
  0
LINE
  5
   56B
  8
0
  6
CONTINUOUS
 62
     7
 10
-923.849316388369
 20
-28.8242064342672
 30
0.0
 11
-924.449316397309
 21
-28.8242064342672
 31
0.0
  0
LINE
  5
   56C
  8
0
  6
CONTINUOUS
 62
     7
 10
-924.249328601361
 20
-35.2242008075887
 30
0.0
 11
-924.449316397309
 21
-35.2242008075887
 31
0.0
  0
LINE
  5
   56D
  8
0
  6
CONTINUOUS
 62
     2
 10
-924.449316397309
 20
-40.6641909647702
 30
0.0
 11
-924.449316397309
 21
-28.224212910312
 31
0.0
  0
LINE
  5
   56E
  8
0
  6
CONTINUOUS
 62
     2
 10
-924.449316397309
 20
-26.0242128775294
 30
0.0
 11
-924.449316397309
 21
15.1757633223356
 31
0.0
  0
LINE
  5
   56F
  8
0
  6
CONTINUOUS
 62
     7
 10
-923.849316388369
 20
7.57578762314961
 30
0.0
 11
-923.849316388369
 21
13.5757694020094
 31
0.0
  0
LINE
  5
   570
  8
0
  6
CONTINUOUS
 62
     7
 10
-923.849316388369
 20
-6.4241942749195
 30
0.0
 11
-923.849316388369
 21
-0.424200289028249
 31
0.0
  0
LINE
  5
   571
  8
0
  6
CONTINUOUS
 62
     7
 10
-923.849316388369
 20
-34.2241763786246
 30
0.0
 11
-923.849316388369
 21
-31.4241763369014
 31
0.0
  0
LINE
  5
   572
  8
0
  6
CONTINUOUS
 62
     2
 10
-924.289319518538
 20
-40.8241878435415
 30
0.0
 11
-924.449317077672
 21
-40.6641902844078
 31
0.0
  0
LINE
  5
   573
  8
0
  6
CONTINUOUS
 62
     2
 10
-924.249316394329
 20
21.5757695212187
 30
0.0
 11
-925.04931640625
 21
21.5757695212187
 31
0.0
  0
LINE
  5
   574
  8
0
  6
CONTINUOUS
 62
     2
 10
-924.249316394329
 20
25.9757695867838
 30
0.0
 11
-925.04931640625
 21
25.9757695867838
 31
0.0
  0
LINE
  5
   575
  8
0
  6
CONTINUOUS
 62
     2
 10
-924.249316394329
 20
24.900427773885
 30
0.0
 11
-925.04931640625
 21
24.900427773885
 31
0.0
  0
LINE
  5
   576
  8
0
  6
CONTINUOUS
 62
     2
 10
-924.249316394329
 20
23.421619158099
 30
0.0
 11
-925.04931640625
 21
23.421619158099
 31
0.0
  0
LINE
  5
   577
  8
0
  6
CONTINUOUS
 62
     7
 10
-896.64934039712
 20
-5.42423255202638
 30
0.0
 11
-896.64934039712
 21
16.3757860833661
 31
0.0
  0
LINE
  5
   578
  8
0
  6
CONTINUOUS
 62
     7
 10
-885.449358540779
 20
22.7757811764801
 30
0.0
 11
-885.449358540779
 21
32.3757813195312
 31
0.0
  0
LINE
  5
   579
  8
0
  6
CONTINUOUS
 62
     7
 10
-885.449328023195
 20
22.7757832109612
 30
0.0
 11
-885.649328026176
 21
22.7757832109612
 31
0.0
  0
LINE
  5
   57A
  8
0
  6
CONTINUOUS
 62
     7
 10
-885.649328026176
 20
22.5757832079809
 30
0.0
 11
-885.649328026176
 21
22.7757832109612
 31
0.0
  0
LINE
  5
   57B
  8
0
  6
CONTINUOUS
 62
     7
 10
-895.449328172207
 20
22.1757770985048
 30
0.0
 11
-895.449328172207
 21
22.5757832079809
 31
0.0
  0
LINE
  5
   57C
  8
0
  6
CONTINUOUS
 62
     7
 10
-895.449333625254
 20
31.2557755806659
 30
0.0
 11
-895.449327521738
 21
32.3757890246324
 31
0.0
  0
LINE
  5
   57D
  8
0
  6
CONTINUOUS
 62
     7
 10
-885.449324971442
 20
32.3757955610372
 30
0.0
 11
-912.549325554828
 21
32.3757955610372
 31
0.0
  0
LINE
  5
   57E
  8
0
  6
CONTINUOUS
 62
     7
 10
-886.449328038097
 20
22.5757832079809
 30
0.0
 11
-886.569329260588
 21
22.5757832079809
 31
0.0
  0
LINE
  5
   57F
  8
0
  6
CONTINUOUS
 62
     7
 10
-895.449328172207
 20
22.1757893055362
 30
0.0
 11
-896.649328190089
 21
22.1757893055362
 31
0.0
  0
LINE
  5
   580
  8
0
  6
CONTINUOUS
 62
     7
 10
-896.649328190089
 20
16.3757892191095
 30
0.0
 11
-896.649328190089
 21
22.1757893055362
 31
0.0
  0
LINE
  5
   581
  8
0
  6
CONTINUOUS
 62
     7
 10
-895.449346482754
 20
-39.6242055118398
 30
0.0
 11
-895.449346482754
 21
-36.7135609372179
 31
0.0
  0
LINE
  5
   582
  8
0
  6
CONTINUOUS
 62
     7
 10
-896.649334293604
 20
-10.2242172807771
 30
0.0
 11
-896.649334293604
 21
-5.42422941628299
 31
0.0
  0
LINE
  5
   583
  8
0
  6
CONTINUOUS
 62
     7
 10
-896.649334293604
 20
-11.2242295027097
 30
0.0
 11
-897.049334299565
 21
-11.2242295027097
 31
0.0
  0
LINE
  5
   584
  8
0
  6
CONTINUOUS
 62
     7
 10
-886.569341770034
 20
-40.8241933226813
 30
0.0
 11
-895.449346785169
 21
-40.8241933226813
 31
0.0
  0
LINE
  5
   585
  8
0
  6
CONTINUOUS
 62
     7
 10
-895.449346482754
 20
-40.8242055297212
 30
0.0
 11
-895.449346482754
 21
-39.6242055118398
 31
0.0
  0
LINE
  5
   586
  8
0
  6
CONTINUOUS
 62
     7
 10
-895.449340379239
 20
-36.7135609372179
 30
0.0
 11
-895.449340379239
 21
-33.9242017427898
 31
0.0
  0
LINE
  5
   587
  8
0
  6
CONTINUOUS
 62
     7
 10
-886.449346348644
 20
-42.0242116511183
 30
0.0
 11
-886.449346348644
 21
-40.8242116332369
 31
0.0
  0
LINE
  5
   588
  8
0
  6
CONTINUOUS
 62
     7
 10
-886.449346348644
 20
-40.8242116332369
 30
0.0
 11
-886.569341443778
 21
-40.8242116332369
 31
0.0
  0
LINE
  5
   589
  8
0
  6
CONTINUOUS
 62
     7
 10
-897.049334299565
 20
-11.2242295027097
 30
0.0
 11
-898.649334323406
 21
-11.2242295027097
 31
0.0
  0
LINE
  5
   58A
  8
0
  6
CONTINUOUS
 62
     7
 10
-896.649334293604
 20
-11.2242295027097
 30
0.0
 11
-896.649334293604
 21
-10.2242172807771
 31
0.0
  0
LINE
  5
   58B
  8
0
  6
CONTINUOUS
 62
     7
 10
-886.569343130961
 20
-33.9241932198649
 30
0.0
 11
-895.44934204258
 21
-33.9241932198649
 31
0.0
  0
LINE
  5
   58C
  8
0
  6
CONTINUOUS
 62
     7
 10
-886.569346072746
 20
-29.3241931513207
 30
0.0
 11
-895.449344984365
 21
-29.3241931513207
 31
0.0
  0
LINE
  5
   58D
  8
0
  6
CONTINUOUS
 62
     7
 10
-894.929730192567
 20
-39.3241986607057
 30
0.0
 11
-894.849346903182
 21
-39.0241986603771
 31
0.0
  0
LINE
  5
   58E
  8
0
  6
CONTINUOUS
 62
     7
 10
-895.149342741531
 20
-39.543818290162
 30
0.0
 11
-894.929732157059
 21
-39.3242015967141
 31
0.0
  0
LINE
  5
   58F
  8
0
  6
CONTINUOUS
 62
     7
 10
-895.449353396913
 20
-39.6241961375677
 30
0.0
 11
-895.149347301024
 21
-39.5438128420648
 31
0.0
  0
LINE
  5
   590
  8
0
  6
CONTINUOUS
 62
     7
 10
-895.149343958717
 20
-34.9045878717145
 30
0.0
 11
-895.449343960988
 21
-34.8241984732948
 31
0.0
  0
LINE
  5
   591
  8
0
  6
CONTINUOUS
 62
     7
 10
-894.929733883172
 20
-35.1242018179542
 30
0.0
 11
-895.1493444707
 21
-34.9045912304257
 31
0.0
  0
LINE
  5
   592
  8
0
  6
CONTINUOUS
 62
     7
 10
-894.849351055119
 20
-35.4242012662916
 30
0.0
 11
-894.929740453539
 21
-35.124201264021
 31
0.0
  0
LINE
  5
   593
  8
0
  6
CONTINUOUS
 62
     7
 10
-894.849349864642
 20
-39.0242031274069
 30
0.0
 11
-894.849343761126
 21
-35.4242030737627
 31
0.0
  0
LINE
  5
   594
  8
0
  6
CONTINUOUS
 62
     7
 10
-886.56934146762
 20
-40.8242116332369
 30
0.0
 11
-886.56934146762
 21
22.5757782028668
 31
0.0
  0
LINE
  5
   595
  8
0
  6
CONTINUOUS
 62
     7
 10
-886.569323157072
 20
31.2557882201356
 30
0.0
 11
-898.28672984556
 21
31.2557882201356
 31
0.0
  0
LINE
  5
   596
  8
0
  6
CONTINUOUS
 62
     7
 10
-886.569365881688
 20
22.5757804515945
 30
0.0
 11
-886.569365881688
 21
31.2557854637491
 31
0.0
  0
LINE
  5
   597
  8
0
  6
CONTINUOUS
 62
     7
 10
-895.449328172207
 20
22.5757893114967
 30
0.0
 11
-895.449328172207
 21
31.2557882201356
 31
0.0
  0
LINE
  5
   598
  8
0
  6
CONTINUOUS
 62
     7
 10
-880.049321839214
 20
3.27580123093568
 30
0.0
 11
-883.649321892858
 21
3.27580123093568
 31
0.0
  0
LINE
  5
   599
  8
0
  6
CONTINUOUS
 62
     7
 10
-880.049321839214
 20
-38.7241871878816
 30
0.0
 11
-883.649321892858
 21
-38.7241871878816
 31
0.0
  0
LINE
  5
   59A
  8
0
  6
CONTINUOUS
 62
     7
 10
-886.449321934581
 20
-45.2241872847392
 30
0.0
 11
-886.449321934581
 21
-40.8242116332369
 31
0.0
  0
LINE
  5
   59B
  8
0
  6
CONTINUOUS
 62
     7
 10
-884.449321904779
 20
-45.2241872847392
 30
0.0
 11
-884.449321904779
 21
-38.7241871878816
 31
0.0
  0
LINE
  5
   59C
  8
0
  6
CONTINUOUS
 62
     7
 10
-884.449321904779
 20
3.27580123093568
 30
0.0
 11
-884.449321904779
 21
22.5758015185281
 31
0.0
  0
LINE
  5
   59D
  8
0
  6
CONTINUOUS
 62
     7
 10
-884.449321904779
 20
22.5758015185281
 30
0.0
 11
-886.449321934581
 21
22.5758015185281
 31
0.0
  0
LINE
  5
   59E
  8
0
  6
CONTINUOUS
 62
     7
 10
-884.449321904779
 20
-45.2241872847392
 30
0.0
 11
-886.449321934581
 21
-45.2241872847392
 31
0.0
  0
LINE
  5
   59F
  8
0
  6
CONTINUOUS
 62
     7
 10
-883.649321892858
 20
-38.7241871878816
 30
0.0
 11
-883.649321892858
 21
3.27580123093568
 31
0.0
  0
LINE
  5
   5A0
  8
0
  6
CONTINUOUS
 62
     7
 10
-883.649321892858
 20
-38.7241871878816
 30
0.0
 11
-884.449321904779
 21
-38.7241871878816
 31
0.0
  0
LINE
  5
   5A1
  8
0
  6
CONTINUOUS
 62
     7
 10
-883.649321892858
 20
3.27580123093568
 30
0.0
 11
-884.449321904779
 21
3.27580123093568
 31
0.0
  0
LINE
  5
   5A2
  8
0
  6
CONTINUOUS
 62
     7
 10
-886.569350731712
 20
-29.1042176008285
 30
0.0
 11
-886.449349514785
 21
-29.0937195550822
 31
0.0
  0
LINE
  5
   5A3
  8
0
  6
CONTINUOUS
 62
     7
 10
-886.449328885956
 20
-34.154707848531
 30
0.0
 11
-886.569330106238
 21
-34.1442036992494
 31
0.0
  0
LINE
  5
   5A4
  8
0
  6
CONTINUOUS
 62
     7
 10
-895.449340379239
 20
-29.3242016742433
 30
0.0
 11
-895.449340379239
 21
-28.224217548998
 31
0.0
  0
LINE
  5
   5A5
  8
0
  6
CONTINUOUS
 62
     2
 10
-923.449316382408
 20
-41.0241872221545
 30
0.0
 11
-925.04931640625
 21
-41.0241872221545
 31
0.0
  0
LINE
  5
   5A6
  8
0
  6
CONTINUOUS
 62
     7
 10
-886.569317053556
 20
-41.0241872221545
 30
0.0
 11
-893.449322038889
 21
-41.0241872221545
 31
0.0
  0
LINE
  5
   5A7
  8
0
  6
CONTINUOUS
 62
     2
 10
-923.449316382408
 20
-42.0241872370557
 30
0.0
 11
-923.449316382408
 21
-41.0241872221545
 31
0.0
  0
LINE
  5
   5A8
  8
0
  6
CONTINUOUS
 62
     7
 10
-886.569320334369
 20
-58.0241935793482
 30
0.0
 11
-886.449321934611
 21
-58.0241921708667
 31
0.0
  0
LINE
  5
   5A9
  8
0
  6
CONTINUOUS
 62
     7
 10
-885.449315816164
 20
-59.6241936028318
 30
0.0
 11
-886.569317053556
 21
-59.6241936028318
 31
0.0
  0
LINE
  5
   5AA
  8
0
  6
CONTINUOUS
 62
     7
 10
-886.569317053556
 20
-58.0241874754742
 30
0.0
 11
-886.569317053556
 21
-41.0241872221545
 31
0.0
  0
LINE
  5
   5AB
  8
0
  6
CONTINUOUS
 62
     7
 10
-886.449321934581
 20
-45.6241872906998
 30
0.0
 11
-886.569317053556
 21
-45.6241872906998
 31
0.0
  0
LINE
  5
   5AC
  8
0
  6
CONTINUOUS
 62
     7
 10
-895.449326645467
 20
-41.0241872203503
 30
0.0
 11
-895.449320541951
 21
-40.2241872084111
 31
0.0
  0
LINE
  5
   5AD
  8
0
  6
CONTINUOUS
 62
     7
 10
-895.449315965176
 20
-40.2241872102336
 30
0.0
 11
-899.44931602478
 21
-40.2241872102336
 31
0.0
  0
LINE
  5
   5AE
  8
0
  6
CONTINUOUS
 62
     7
 10
-893.449322038889
 20
-41.0241872221545
 30
0.0
 11
-895.449322068691
 21
-41.0241872221545
 31
0.0
  0
LINE
  5
   5AF
  8
0
  6
CONTINUOUS
 62
     7
 10
-884.449321904779
 20
-45.4241872877194
 30
0.0
 11
-886.449321934581
 21
-45.4241872877194
 31
0.0
  0
LINE
  5
   5B0
  8
0
  6
CONTINUOUS
 62
     7
 10
-884.449321904779
 20
-59.4241874963357
 30
0.0
 11
-886.449321934581
 21
-59.4241874963357
 31
0.0
  0
LINE
  5
   5B1
  8
0
  6
CONTINUOUS
 62
     7
 10
-884.449321904779
 20
-59.4241874963357
 30
0.0
 11
-884.449321904779
 21
-45.4241872877194
 31
0.0
  0
LINE
  5
   5B2
  8
0
  6
CONTINUOUS
 62
     7
 10
-885.2493219167
 20
-59.4241874963357
 30
0.0
 11
-885.2493219167
 21
-45.4241872877194
 31
0.0
  0
LINE
  5
   5B3
  8
0
  6
CONTINUOUS
 62
     7
 10
-886.449321934581
 20
-59.4241874963357
 30
0.0
 11
-886.449321934581
 21
-45.4241872877194
 31
0.0
  0
ARC
  5
   5B4
  8
0
  6
CONTINUOUS
 62
     7
 10
-871.779300607776
 20
-26.5417395923742
 30
0.0
 40
0.399999924262788
 50
348.623573369035
 51
436.688788706936
  0
ARC
  5
   5B5
  8
0
  6
CONTINUOUS
 62
     7
 10
-872.257998374843
 20
-28.9208668150251
 30
0.0
 40
0.400000304059165
 50
260.593992196011
 51
348.623573369035
  0
LINE
  5
   5B6
  8
0
  6
CONTINUOUS
 62
     7
 10
-871.687204628526
 20
-26.1524864108149
 30
0.0
 11
-880.049321839214
 21
-24.1740379109563
 31
0.0
  0
LINE
  5
   5B7
  8
0
  6
CONTINUOUS
 62
     7
 10
-871.865857213096
 20
-28.9997684572278
 30
0.0
 11
-871.387159577463
 21
-26.6206412081314
 31
0.0
  0
LINE
  5
   5B8
  8
0
  6
CONTINUOUS
 62
     7
 10
-872.323370166692
 20
-29.3154889992025
 30
0.0
 11
-880.049321839214
 21
-28.0356336722101
 31
0.0
  0
LINE
  5
   5B9
  8
0
  6
CONTINUOUS
 62
     7
 10
-923.049342011215
 20
-33.8242068902428
 30
0.0
 11
-923.049342011215
 21
-29.4242068246776
 31
0.0
  0
LINE
  5
   5BA
  8
0
  6
CONTINUOUS
 62
     7
 10
-915.04932635502
 20
29.1757879450147
 30
0.0
 11
-917.049325621883
 21
29.1757879450147
 31
0.0
  0
LINE
  5
   5BB
  8
0
  6
CONTINUOUS
 62
     7
 10
-910.985381504585
 20
16.9792990037649
 30
0.0
 11
-909.77318269546
 21
19.6539570213175
 31
0.0
  0
LINE
  5
   5BC
  8
0
  6
CONTINUOUS
 62
     7
 10
-915.04932635502
 20
16.9792990037649
 30
0.0
 11
-915.04932635502
 21
23.1758083198038
 31
0.0
  0
LINE
  5
   5BD
  8
0
  6
CONTINUOUS
 62
     7
 10
-917.049325621883
 20
16.9792990037649
 30
0.0
 11
-917.049325621883
 21
23.1758083198038
 31
0.0
  0
LINE
  5
   5BE
  8
0
  6
CONTINUOUS
 62
     2
 10
-924.249318889894
 20
24.900427773885
 30
0.0
 11
-924.249312086004
 21
34.3758084866968
 31
0.0
  0
LINE
  5
   5BF
  8
0
  6
CONTINUOUS
 62
     7
 10
-909.627617141943
 20
20.3758082780805
 30
0.0
 11
-915.04932635502
 21
20.3758082780805
 31
0.0
  0
LINE
  5
   5C0
  8
0
  6
CONTINUOUS
 62
     7
 10
-910.352763351579
 20
18.7758082542387
 30
0.0
 11
-915.04932635502
 21
18.7758082542387
 31
0.0
  0
INSERT
  5
   5C1
  8
0
  6
CONTINUOUS
 62
     7
  2
*HATCH354
 10
-925.04931640625
 20
-61.7190437316895
 30
0.0
 41
0.400000005960464
 42
0.400000005960464
 50
89.9999999480344
 43
0.400000005960464
  0
LINE
  5
   5C2
  8
0
  6
CONTINUOUS
 62
     7
 10
-910.985381504585
 20
16.9792990037649
 30
0.0
 11
-924.197989524062
 21
16.9792990037649
 31
0.0
  0
LINE
  5
   5C3
  8
0
  6
CONTINUOUS
 62
     7
 10
-917.049325621883
 20
18.1757877811019
 30
0.0
 11
-919.049325651686
 21
18.1757877811019
 31
0.0
  0
LINE
  5
   5C4
  8
0
  6
CONTINUOUS
 62
     7
 10
-920.245814429022
 20
16.9792990037649
 30
0.0
 11
-919.049325651686
 21
18.1757877811018
 31
0.0
  0
INSERT
  5
   5C5
  8
0
  6
CONTINUOUS
 62
     7
  2
*HATCH355
 10
-925.04931640625
 20
-61.7190437316895
 30
0.0
 41
0.400000005960464
 42
0.400000005960464
 50
89.9999999480344
 43
0.400000005960464
  0
LINE
  5
   5C6
  8
0
  6
CONTINUOUS
 62
     7
 10
-899.449328231812
 20
-42.0241948054004
 30
0.0
 11
-923.449316382408
 21
-42.0241948054004
 31
0.0
  0
LINE
  5
   5C7
  8
0
  6
CONTINUOUS
 62
     7
 10
-880.049321839214
 20
-17.3242066443736
 30
0.0
 11
-880.049321839214
 21
3.27580123093568
 31
0.0
  0
LINE
  5
   5C8
  8
0
  6
CONTINUOUS
 62
     7
 10
-880.049321839214
 20
-38.7241871878816
 30
0.0
 11
-880.049321839214
 21
-17.7242066503341
 31
0.0
  0
LINE
  5
   5C9
  8
0
  6
CONTINUOUS
 62
     1
 10
-925.049295727513
 20
-47.3267934561931
 30
0.0
 11
-925.049295727513
 21
-47.2354482399882
 31
0.0
  0
LINE
  5
   5CA
  8
0
  6
DASHDOT
 62
     3
 10
-873.309148490391
 20
-17.7241990819887
 30
0.0
 11
-933.942103877126
 21
-17.7241990819887
 31
0.0
  0
LINE
  5
   5CB
  8
0
  6
CONTINUOUS
 62
     7
 10
-915.04932635502
 20
23.1758083198038
 30
0.0
 11
-917.049325621883
 21
23.1758083198038
 31
0.0
  0
LINE
  5
   5CC
  8
0
  6
CONTINUOUS
 62
     7
 10
-917.049325621883
 20
26.775808373448
 30
0.0
 11
-917.049325621883
 21
29.1757879450147
 31
0.0
  0
LINE
  5
   5CD
  8
0
  6
CONTINUOUS
 62
     7
 10
-901.703353509062
 20
19.6539570213175
 30
0.0
 11
-909.77318269546
 21
19.6539570213175
 31
0.0
  0
LINE
  5
   5CE
  8
0
  6
CONTINUOUS
 62
     7
 10
-901.703353509062
 20
19.6539570213175
 30
0.0
 11
-897.38286178004
 21
34.3250535987588
 31
0.0
  0
INSERT
  5
   5CF
  8
255
  6
CONTINUOUS
 62
     7
  2
TASSELLO_POST_
 10
-917.049325621883
 20
25.1758083496061
 30
0.0
 41
0.400000005960464
 42
0.400000005960464
 50
3.50835464724173E-15
 43
0.400000005960464
  0
LINE
  5
   5D0
  8
0
  6
CONTINUOUS
 62
     7
 10
-884.449358525877
 20
22.9758015244886
 30
0.0
 11
-884.449358525877
 21
50.7757741628993
 31
0.0
  0
LINE
  5
   5D1
  8
0
  6
CONTINUOUS
 62
     7
 10
-884.449321904779
 20
22.9758015244886
 30
0.0
 11
-884.849358531838
 21
22.9758015244886
 31
0.0
  0
LINE
  5
   5D2
  8
0
  6
CONTINUOUS
 62
     7
 10
-884.849358531838
 20
22.5758015185281
 30
0.0
 11
-884.849358531838
 21
22.9758015244886
 31
0.0
  0
LINE
  5
   5D3
  8
0
  6
DOT
 62
     7
 10
-915.04932635502
 20
29.1757879450147
 30
0.0
 11
-915.04932635502
 21
34.3758084866968
 31
0.0
  0
LINE
  5
   5D4
  8
0
  6
DASHDOT
 62
     7
 10
-922.543432121982
 20
24.3758015453502
 30
0.0
 11
-931.989840319355
 21
24.3758015453502
 31
0.0
  0
LINE
  5
   5D5
  8
0
  6
CONTINUOUS
 62
     7
 10
-925.04931640625
 20
61.1758051454675
 30
0.0
 11
-930.649316489697
 21
61.1758051454675
 31
0.0
  0
LINE
  5
   5D6
  8
0
  6
CONTINUOUS
 62
     7
 10
-925.04931640625
 20
-98.8241972387183
 30
0.0
 11
-930.649316489697
 21
-98.8241972387183
 31
0.0
  0
LINE
  5
   5D7
  8
0
  6
CONTINUOUS
 62
     7
 10
-930.649316489697
 20
56.1758050709617
 30
0.0
 11
-930.649316489697
 21
61.1758051454675
 31
0.0
  0
LINE
  5
   5D8
  8
0
  6
CONTINUOUS
 62
     7
 10
-884.449358525877
 20
50.7757741628993
 30
0.0
 11
-924.249300309846
 21
50.7757741628993
 31
0.0
  0
LINE
  5
   5D9
  8
0
  6
CONTINUOUS
 62
     7
 10
-897.38286178004
 20
34.3250535987588
 30
0.0
 11
-902.723012036474
 21
52.1452235152585
 31
0.0
  0
LINE
  5
   5DA
  8
0
  6
CONTINUOUS
 62
     7
 10
-901.593425382086
 20
48.3757741271366
 30
0.0
 11
-924.24930203319
 21
48.3757741271366
 31
0.0
  0
LINE
  5
   5DB
  8
0
  6
CONTINUOUS
 62
     7
 10
-925.04931640625
 20
29.1758046686304
 30
0.0
 11
-930.649316489697
 21
29.1758046686304
 31
0.0
  0
LINE
  5
   5DC
  8
0
  6
DOT
 62
     7
 10
-916.249326372902
 20
35.5758085045782
 30
0.0
 11
-919.049316316843
 21
35.5758085045782
 31
0.0
  0
LINE
  5
   5DD
  8
0
  6
CONTINUOUS
 62
     7
 10
-936.413974422072
 20
33.0498056479651
 30
0.0
 11
-936.852789080452
 21
40.4665812582216
 31
0.0
  0
LINE
  5
   5DE
  8
0
  6
CONTINUOUS
 62
     7
 10
-925.04931640625
 20
-98.8241972387183
 30
0.0
 11
-925.04931640625
 21
35.5758085045782
 31
0.0
  0
LINE
  5
   5DF
  8
0
  6
CONTINUOUS
 62
     1
 10
-912.249326313297
 20
21.5758082959619
 30
0.0
 11
-912.249326313297
 21
28.7758084032503
 31
0.0
  0
LINE
  5
   5E0
  8
0
  6
CONTINUOUS
 62
     7
 10
-915.04932635502
 20
27.1758083794084
 30
0.0
 11
-917.049325621883
 21
27.1758083794084
 31
0.0
  0
INSERT
  5
   5E1
  8
0
  6
CONTINUOUS
 62
     7
  2
*HATCH356
 10
-925.04931640625
 20
-61.7190437316895
 30
0.0
 41
0.400000005960464
 42
0.400000005960464
 50
89.9999999480344
 43
0.400000005960464
  0
INSERT
  5
   5E2
  8
0
  6
CONTINUOUS
 62
     7
  2
*HATCH357
 10
-925.04931640625
 20
-61.7190437316895
 30
0.0
 41
0.400000005960464
 42
0.400000005960464
 50
89.9999999480344
 43
0.400000005960464
  0
LINE
  5
   5E3
  8
0
  6
CONTINUOUS
 62
   210
 10
-917.049325621883
 20
33.3758084717956
 30
0.0
 11
-917.449325627844
 21
33.3758084717956
 31
0.0
  0
LINE
  5
   5E4
  8
0
  6
CONTINUOUS
 62
   210
 10
-916.649325189777
 20
32.9758066123596
 30
0.0
 11
-917.049325182047
 21
33.3758066046287
 31
0.0
  0
LINE
  5
   5E5
  8
0
  6
CONTINUOUS
 62
   210
 10
-916.649325615923
 20
32.3758084568945
 30
0.0
 11
-916.649325615923
 21
32.9758084658352
 31
0.0
  0
LINE
  5
   5E6
  8
0
  6
CONTINUOUS
 62
   210
 10
-916.649325615923
 20
32.3758084568945
 30
0.0
 11
-917.449325627844
 21
32.3758084568945
 31
0.0
  0
LINE
  5
   5E7
  8
0
  6
CONTINUOUS
 62
   210
 10
-917.449325627844
 20
29.7758084181514
 30
0.0
 11
-918.749326791624
 21
29.7758084181514
 31
0.0
  0
LINE
  5
   5E8
  8
0
  6
CONTINUOUS
 62
   210
 10
-917.449325627844
 20
29.7758084181514
 30
0.0
 11
-917.449325627844
 21
32.3758084568945
 31
0.0
  0
LINE
  5
   5E9
  8
0
  6
CONTINUOUS
 62
   210
 10
-923.04932571129
 20
21.1758082900015
 30
0.0
 11
-923.649325720231
 21
21.1758082900015
 31
0.0
  0
LINE
  5
   5EA
  8
0
  6
CONTINUOUS
 62
   210
 10
-917.449325627844
 20
33.3758084717956
 30
0.0
 11
-923.649325720231
 21
33.3758084717956
 31
0.0
  0
LINE
  5
   5EB
  8
0
  6
CONTINUOUS
 62
   210
 10
-923.649325720231
 20
21.1758082900015
 30
0.0
 11
-923.649325720231
 21
33.3758084717956
 31
0.0
  0
LINE
  5
   5EC
  8
0
  6
CONTINUOUS
 62
   210
 10
-917.449325627844
 20
32.3758084568945
 30
0.0
 11
-917.449325627844
 21
33.3758084717956
 31
0.0
  0
LINE
  5
   5ED
  8
0
  6
CONTINUOUS
 62
   210
 10
-923.049326277298
 20
21.175806449137
 30
0.0
 11
-917.449326093385
 21
32.3758068169626
 31
0.0
  0
LINE
  5
   5EE
  8
0
  6
CONTINUOUS
 62
   210
 10
-917.449325627844
 20
31.0958096585241
 30
0.0
 11
-917.849325633804
 21
31.0958096585241
 31
0.0
  0
LINE
  5
   5EF
  8
0
  6
CONTINUOUS
 62
   210
 10
-917.849325182646
 20
31.0958078387688
 30
0.0
 11
-918.009325037931
 21
31.2558054012837
 31
0.0
  0
LINE
  5
   5F0
  8
0
  6
CONTINUOUS
 62
   210
 10
-917.249325624863
 20
21.3758082929817
 30
0.0
 11
-917.249325624863
 21
28.9758084062305
 31
0.0
  0
LINE
  5
   5F1
  8
0
  6
CONTINUOUS
 62
   218
 10
-917.049325621883
 20
22.3758083078829
 30
0.0
 11
-917.049325621883
 21
27.9758083913294
 31
0.0
  0
LINE
  5
   5F2
  8
0
  6
CONTINUOUS
 62
   210
 10
-922.84932570831
 20
21.5758082959619
 30
0.0
 11
-923.649325720231
 21
21.5758082959619
 31
0.0
  0
LINE
  5
   5F3
  8
0
  6
CONTINUOUS
 62
   210
 10
-917.449325627844
 20
32.9758084658352
 30
0.0
 11
-923.649325720231
 21
32.9758084658352
 31
0.0
  0
LINE
  5
   5F4
  8
0
  6
CONTINUOUS
 62
   210
 10
-917.249325815598
 20
21.3758082929817
 30
0.0
 11
-922.949326663474
 21
21.3758082929817
 31
0.0
  0
LINE
  5
   5F5
  8
0
  6
CONTINUOUS
 62
   210
 10
-917.249325624863
 20
28.9758084062305
 30
0.0
 11
-919.149324508766
 21
28.9758084062305
 31
0.0
  0
LINE
  5
   5F6
  8
0
  6
CONTINUOUS
 62
   218
 10
-917.049325621883
 20
27.9758083913294
 30
0.0
 11
-917.249325624863
 21
27.9758083913294
 31
0.0
  0
LINE
  5
   5F7
  8
0
  6
CONTINUOUS
 62
   218
 10
-917.049325621883
 20
22.3758083078829
 30
0.0
 11
-917.249325624863
 21
22.3758083078829
 31
0.0
  0
LINE
  5
   5F8
  8
0
  6
CONTINUOUS
 62
   210
 10
-917.049325621883
 20
33.3758084717956
 30
0.0
 11
-917.449325627844
 21
33.3758084717956
 31
0.0
  0
LINE
  5
   5F9
  8
0
  6
CONTINUOUS
 62
   210
 10
-916.649325189777
 20
32.9758066123596
 30
0.0
 11
-917.049325182047
 21
33.3758066046287
 31
0.0
  0
LINE
  5
   5FA
  8
0
  6
CONTINUOUS
 62
   210
 10
-916.649325615923
 20
32.3758084568945
 30
0.0
 11
-916.649325615923
 21
32.9758084658352
 31
0.0
  0
LINE
  5
   5FB
  8
0
  6
CONTINUOUS
 62
   210
 10
-916.649325615923
 20
32.3758084568945
 30
0.0
 11
-917.449325627844
 21
32.3758084568945
 31
0.0
  0
LINE
  5
   5FC
  8
0
  6
CONTINUOUS
 62
   210
 10
-917.449325627844
 20
29.7758084181514
 30
0.0
 11
-918.749326410155
 21
29.7758084181514
 31
0.0
  0
LINE
  5
   5FD
  8
0
  6
CONTINUOUS
 62
   210
 10
-917.449325627844
 20
29.7758084181514
 30
0.0
 11
-917.449325627844
 21
32.3758084568945
 31
0.0
  0
LINE
  5
   5FE
  8
0
  6
CONTINUOUS
 62
   210
 10
-917.449325627844
 20
33.3758084717956
 30
0.0
 11
-923.649325720231
 21
33.3758084717956
 31
0.0
  0
LINE
  5
   5FF
  8
0
  6
CONTINUOUS
 62
   210
 10
-917.449325627844
 20
32.3758084568945
 30
0.0
 11
-917.449325627844
 21
33.3758084717956
 31
0.0
  0
LINE
  5
   600
  8
0
  6
CONTINUOUS
 62
   210
 10
-923.049326277298
 20
21.175806449137
 30
0.0
 11
-917.449326093385
 21
32.3758068169626
 31
0.0
  0
LINE
  5
   601
  8
0
  6
CONTINUOUS
 62
   210
 10
-917.449325627844
 20
31.0958096585241
 30
0.0
 11
-917.849325633804
 21
31.0958096585241
 31
0.0
  0
LINE
  5
   602
  8
0
  6
CONTINUOUS
 62
   210
 10
-917.849325193603
 20
31.095807845774
 30
0.0
 11
-918.009325048888
 21
31.2558054082889
 31
0.0
  0
LINE
  5
   603
  8
0
  6
CONTINUOUS
 62
   210
 10
-917.249325624863
 20
21.3758082929817
 30
0.0
 11
-917.249325624863
 21
28.9758084062305
 31
0.0
  0
LINE
  5
   604
  8
0
  6
CONTINUOUS
 62
   210
 10
-917.049325621883
 20
22.3758083078829
 30
0.0
 11
-917.049325621883
 21
27.9758083913294
 31
0.0
  0
LINE
  5
   605
  8
0
  6
CONTINUOUS
 62
   210
 10
-917.449325627844
 20
32.9758084658352
 30
0.0
 11
-923.649325720231
 21
32.9758084658352
 31
0.0
  0
LINE
  5
   606
  8
0
  6
CONTINUOUS
 62
   210
 10
-917.249325815598
 20
21.3758082929817
 30
0.0
 11
-922.949326663474
 21
21.3758082929817
 31
0.0
  0
LINE
  5
   607
  8
0
  6
CONTINUOUS
 62
   210
 10
-917.249325624863
 20
28.9758084062305
 30
0.0
 11
-919.149324508766
 21
28.9758084062305
 31
0.0
  0
LINE
  5
   608
  8
0
  6
CONTINUOUS
 62
   210
 10
-917.049325621883
 20
27.9758083913294
 30
0.0
 11
-917.249325624863
 21
27.9758083913294
 31
0.0
  0
LINE
  5
   609
  8
0
  6
CONTINUOUS
 62
   210
 10
-917.049325621883
 20
22.3758083078829
 30
0.0
 11
-917.249325624863
 21
22.3758083078829
 31
0.0
  0
LINE
  5
   60A
  8
0
  6
CONTINUOUS
 62
   210
 10
-923.649325720231
 20
21.1758082900015
 30
0.0
 11
-923.649325720231
 21
33.3758084717956
 31
0.0
  0
LINE
  5
   60B
  8
0
  6
CONTINUOUS
 62
   210
 10
-922.84932570831
 20
21.5758082959619
 30
0.0
 11
-923.649325720231
 21
21.5758082959619
 31
0.0
  0
LINE
  5
   60C
  8
0
  6
CONTINUOUS
 62
   210
 10
-923.04932571129
 20
21.1758082900015
 30
0.0
 11
-923.649325720231
 21
21.1758082900015
 31
0.0
  0
LINE
  5
   60D
  8
0
  6
CONTINUOUS
 62
     7
 10
-925.04931640625
 20
56.5758050769222
 30
0.0
 11
-930.649316489697
 21
56.5758050769222
 31
0.0
  0
LINE
  5
   60E
  8
0
  6
CONTINUOUS
 62
     7
 10
-925.04931640625
 20
53.7758050351989
 30
0.0
 11
-930.649316489697
 21
53.7758050351989
 31
0.0
  0
TEXT
  5
   60F
  8
0
  6
CONTINUOUS
 62
     2
 10
-958.226531983549
 20
-140.333007809698
 30
0.0
 40
2.50000001341104
  1
98-08-17
 50
359.999999948034
 41
1.0999999247392
 11
-958.226531982422
 21
-139.083007802992
 31
0.0
 73
     2
  0
TEXT
  5
   610
  8
0
  6
CONTINUOUS
 62
     2
 10
-958.22653198355
 20
-144.333007808477
 30
0.0
 40
2.50000001341104
  1
MAZZOLENI
 50
359.999999948034
 41
1.09800000173569
 11
-958.226531982422
 21
-143.083007801771
 31
0.0
 73
     2
  0
TEXT
  5
   611
  8
0
  6
CONTINUOUS
 62
     2
 10
-946.759796143706
 20
-157.018408771922
 30
0.0
 40
2.50000001341104
  1
N0006 99-04-15
 50
359.999999948034
 41
0.649999610972401
 11
-946.759796142578
 21
-155.768408765217
 31
0.0
 73
     2
  0
TEXT
  5
   612
  8
0
  6
CONTINUOUS
 62
     2
 10
-856.754801954645
 20
-168.601845681695
 30
0.0
 40
4.49999992400408
  1
605032/441
 50
359.999999948034
 41
1.09999994847509
 72
     1
 11
-832.829803466797
 21
-166.351845741272
 31
0.0
 73
     2
  0
TEXT
  5
   613
  8
0
  6
CONTINUOUS
 62
     2
 10
-841.871469812652
 20
-159.135095598472
 30
0.0
 40
2.50000001341104
  1
S5/U
 50
359.999999948034
 41
1.0999999247392
 72
     1
 11
-836.829803466797
 21
-157.885095596314
 31
0.0
 73
     2
  0
TEXT
  5
   614
  8
0
  6
CONTINUOUS
 62
     2
 10
-852.779802180541
 20
-142.684982260087
 30
0.0
 40
2.99999994933605
  1
ESECUZIONE
 50
359.999999948034
 41
1.09999992993143
 72
     1
 11
-836.829803466797
 21
-141.184982299805
 31
0.0
 73
     2
  0
TEXT
  5
   615
  8
0
  6
CONTINUOUS
 62
     2
 10
-859.379803985171
 20
-146.684982254134
 30
0.0
 40
2.99999994933605
  1
UNIFICATA ENEL
 50
359.999999948034
 41
1.10000004119343
 72
     1
 11
-836.829803466797
 21
-145.184982299805
 31
0.0
 73
     2
  0
TEXT
  5
   616
  8
0
  6
CONTINUOUS
 62
     2
 10
-869.27980418872
 20
-150.684982245205
 30
0.0
 40
2.99999994933605
  1
(DY 3102 LUGLIO '97)
 50
359.999999948034
 41
1.10000004119343
 72
     1
 11
-836.829803466797
 21
-149.184982299805
 31
0.0
 73
     2
  0
TEXT
  5
   617
  8
0
  6
CONTINUOUS
 62
     2
 10
-797.241815968687
 20
-169.907180789531
 30
0.0
 40
2.50000001341104
  1
1/1
 50
359.999999948034
 41
1.0999999247392
 72
     1
 11
-793.575149536133
 21
-168.657180786133
 31
0.0
 73
     2
  0
TEXT
  5
   618
  8
0
  6
CONTINUOUS
 62
     2
 10
-795.866816055387
 20
-152.973602299561
 30
0.0
 40
2.50000001341104
  1
IT
 50
359.999999948034
 41
1.0999999247392
 72
     1
 11
-793.575149536133
 21
-151.723602294922
 31
0.0
 73
     2
  0
LINE
  5
   619
  8
0
  6
DOT
 62
     7
 10
-925.04931640625
 20
34.575808489677
 30
0.0
 11
-930.649316489697
 21
34.575808489677
 31
0.0
  0
LINE
  5
   61A
  8
0
  6
CONTINUOUS
 62
     1
 10
-883.649358513957
 20
29.7686360244848
 30
0.0
 11
-883.649358513957
 21
32.7429117195724
 31
0.0
  0
ARC
  5
   61B
  8
0
  6
CONTINUOUS
 62
     1
 10
-886.409358555084
 20
31.2557738720286
 30
0.0
 40
3.20000004768372
 50
332.443301780824
 51
358.030069438986
  0
LINE
  5
   61C
  8
0
  6
CONTINUOUS
 62
     1
 10
-884.449358525878
 20
29.6986444692347
 30
0.0
 11
-883.572387419961
 21
29.775370182607
 31
0.0
  0
LINE
  5
   61D
  8
0
  6
CONTINUOUS
 62
     1
 10
-883.57238741996
 20
32.7361775614502
 30
0.0
 11
-884.449358525877
 21
32.8129032748225
 31
0.0
  0
LINE
  5
   61E
  8
0
  6
CONTINUOUS
 62
     1
 10
-884.449358525877
 20
29.6986444692347
 30
0.0
 11
-884.449358525877
 21
32.8129032748226
 31
0.0
  0
LINE
  5
   61F
  8
0
  6
DASHED
 62
     7
 10
-884.449358525877
 20
30.2557738571275
 30
0.0
 11
-884.449358525877
 21
32.2557738869298
 31
0.0
  0
LINE
  5
   620
  8
0
  6
CONTINUOUS
 62
     1
 10
-883.429358510678
 20
31.1457738703895
 30
0.0
 11
-883.429358510678
 21
31.3657738736678
 31
0.0
  0
LINE
  5
   621
  8
0
  6
CONTINUOUS
 62
     1
 10
-883.211249691268
 20
31.1457738703895
 30
0.0
 11
-883.429358510678
 21
31.1457738703895
 31
0.0
  0
LINE
  5
   622
  8
0
  6
CONTINUOUS
 62
     1
 10
-883.211249691268
 20
31.3657738736677
 30
0.0
 11
-883.429358510678
 21
31.3657738736677
 31
0.0
  0
ARC
  5
   623
  8
0
  6
CONTINUOUS
 62
     1
 10
-886.409358555084
 20
31.2557738720286
 30
0.0
 40
3.20000004768372
 50
361.969930457083
 51
387.556698115245
  0
LINE
  5
   624
  8
0
  6
DOT
 62
     7
 10
-912.649326319258
 20
21.7758082989422
 30
0.0
 11
-915.04932635502
 21
21.7758082989422
 31
0.0
  0
LINE
  5
   625
  8
0
  6
DOT
 62
     7
 10
-916.249326372902
 20
37.975808540341
 30
0.0
 11
-919.049316316843
 21
37.975808540341
 31
0.0
  0
LINE
  5
   626
  8
0
  6
CONTINUOUS
 62
     7
 10
-915.04932635502
 20
32.3757879926984
 30
0.0
 11
-917.449325627844
 21
32.3757879926984
 31
0.0
  0
LINE
  5
   627
  8
0
  6
DOT
 62
     7
 10
-919.049316316843
 20
34.575808489677
 30
0.0
 11
-919.049316316843
 21
38.9758085552421
 31
0.0
  0
LINE
  5
   628
  8
0
  6
DOT
 62
     7
 10
-919.049316316843
 20
38.9758085552421
 30
0.0
 11
-925.04931640625
 21
38.9758085552421
 31
0.0
  0
LINE
  5
   629
  8
0
  6
DOT
 62
     7
 10
-919.049316316843
 20
34.575808489677
 30
0.0
 11
-925.04931640625
 21
34.575808489677
 31
0.0
  0
LINE
  5
   62A
  8
0
  6
DOT
 62
     7
 10
-925.04931640625
 20
38.9758085552421
 30
0.0
 11
-930.649316489697
 21
38.9758085552421
 31
0.0
  0
LINE
  5
   62B
  8
0
  6
DOT
 62
     7
 10
-930.649316489697
 20
38.9758085552421
 30
0.0
 11
-936.847418500892
 21
38.9758085552421
 31
0.0
  0
LINE
  5
   62C
  8
0
  6
DOT
 62
     7
 10
-930.649316489697
 20
34.575808489677
 30
0.0
 11
-936.563425765734
 21
34.575808489677
 31
0.0
  0
LINE
  5
   62D
  8
0
  6
CONTINUOUS
 62
     7
 10
-925.04931640625
 20
35.5758085045782
 30
0.0
 11
-925.04931640625
 21
61.1758051454675
 31
0.0
  0
LINE
  5
   62E
  8
0
  6
CONTINUOUS
 62
     7
 10
-925.04931640625
 20
52.3758050143373
 30
0.0
 11
-930.649316489697
 21
52.3758050143373
 31
0.0
  0
LINE
  5
   62F
  8
0
  6
CONTINUOUS
 62
     7
 10
-884.449315801263
 20
-87.6242001235798
 30
0.0
 11
-884.449315801263
 21
-59.6241936028318
 31
0.0
  0
LINE
  5
   630
  8
0
  6
CONTINUOUS
 62
     7
 10
-884.449315801263
 20
-59.6241936028318
 30
0.0
 11
-885.569317038655
 21
-59.6241936028318
 31
0.0
  0
LINE
  5
   631
  8
0
  6
CONTINUOUS
 62
     7
 10
-885.569317038655
 20
-87.6242001235798
 30
0.0
 11
-885.569317038655
 21
-59.6241936028318
 31
0.0
  0
LINE
  5
   632
  8
0
  6
CONTINUOUS
 62
     7
 10
-925.049316406207
 20
-55.6241935428314
 30
0.0
 11
-924.249316775774
 21
-55.6241874393157
 31
0.0
  0
LINE
  5
   633
  8
0
  6
CONTINUOUS
 62
     7
 10
-924.249316775799
 20
-87.6242001235798
 30
0.0
 11
-924.249316775799
 21
-55.624193543227
 31
0.0
  0
LINE
  5
   634
  8
0
  6
CONTINUOUS
 62
   218
 10
-924.249316394329
 20
-59.9241936073022
 30
0.0
 11
-925.04931640625
 21
-59.9241936073022
 31
0.0
  0
LINE
  5
   635
  8
0
  6
CONTINUOUS
 62
   218
 10
-924.249316394329
 20
-63.4112301735453
 30
0.0
 11
-925.04931640625
 21
-63.4112301735453
 31
0.0
  0
LINE
  5
   636
  8
0
  6
CONTINUOUS
 62
   218
 10
-924.249316394329
 20
-62.4300347090952
 30
0.0
 11
-925.04931640625
 21
-62.4300347090952
 31
0.0
  0
LINE
  5
   637
  8
0
  6
CONTINUOUS
 62
   218
 10
-924.249316394329
 20
-59.9753044479075
 30
0.0
 11
-925.04931640625
 21
-59.9753044479075
 31
0.0
  0
LINE
  5
   638
  8
0
  6
DASHDOT
 62
     7
 10
-904.224270362465
 20
-62.0242338781673
 30
0.0
 11
-923.090117257254
 21
-62.0242338781673
 31
0.0
  0
LINE
  5
   639
  8
0
  6
CONTINUOUS
 62
     7
 10
-915.049325592081
 20
-66.0242134735759
 30
0.0
 11
-917.049325621883
 21
-66.0242134735759
 31
0.0
  0
LINE
  5
   63A
  8
0
  6
CONTINUOUS
 62
     7
 10
-917.049325621883
 20
-66.0242134735759
 30
0.0
 11
-917.049325621883
 21
-53.8277245323261
 31
0.0
  0
LINE
  5
   63B
  8
0
  6
CONTINUOUS
 62
     2
 10
-915.04932635502
 20
-59.9842338477689
 30
0.0
 11
-915.04932635502
 21
-53.8277245323261
 31
0.0
  0
LINE
  5
   63C
  8
0
  6
CONTINUOUS
 62
     7
 10
-908.704023610784
 20
-53.8277245323261
 30
0.0
 11
-928.692743994401
 21
-53.8277245323261
 31
0.0
  0
LINE
  5
   63D
  8
0
  6
CONTINUOUS
 62
     7
 10
-908.41549318271
 20
-57.8889606684844
 30
0.0
 11
-909.69417694248
 21
-53.2338831901069
 31
0.0
  0
LINE
  5
   63E
  8
0
  6
CONTINUOUS
 62
     7
 10
-886.569317053556
 20
-69.2241876423671
 30
0.0
 11
-911.449326301376
 21
-69.2241876423671
 31
0.0
  0
INSERT
  5
   63F
  8
0
  6
CONTINUOUS
 62
     7
  2
*HATCH358
 10
-925.04931640625
 20
-61.7190437316895
 30
0.0
 41
0.400000005960464
 42
0.400000005960464
 50
89.9999999480344
 43
0.400000005960464
  0
INSERT
  5
   640
  8
0
  6
CONTINUOUS
 62
     7
  2
*HATCH359
 10
-925.04931640625
 20
-61.7190437316895
 30
0.0
 41
0.400000005960464
 42
0.400000005960464
 50
89.9999999480344
 43
0.400000005960464
  0
LINE
  5
   641
  8
0
  6
CONTINUOUS
 62
     7
 10
-917.049325621883
 20
-56.0242337887603
 30
0.0
 11
-924.249316775799
 21
-56.0242337887603
 31
0.0
  0
LINE
  5
   642
  8
0
  6
CONTINUOUS
 62
     7
 10
-917.049325621883
 20
-54.4242337649184
 30
0.0
 11
-925.04931640625
 21
-54.4242337649184
 31
0.0
  0
LINE
  5
   643
  8
0
  6
CONTINUOUS
 62
     7
 10
-908.488209895368
 20
-57.2242338066417
 30
0.0
 11
-915.04932635502
 21
-57.2242338066417
 31
0.0
  0
INSERT
  5
   644
  8
0
  6
CONTINUOUS
 62
     7
  2
*HATCH360
 10
-925.04931640625
 20
-61.7190437316895
 30
0.0
 41
0.400000005960464
 42
0.400000005960464
 50
89.9999999480344
 43
0.400000005960464
  0
LINE
  5
   645
  8
0
  6
CONTINUOUS
 62
     7
 10
-908.927707208918
 20
-55.6242337827998
 30
0.0
 11
-915.04932635502
 21
-55.6242337827998
 31
0.0
  0
INSERT
  5
   646
  8
0
  6
CONTINUOUS
 62
     7
  2
*HATCH361
 10
-925.04931640625
 20
-61.7190437316895
 30
0.0
 41
0.400000005960464
 42
0.400000005960464
 50
89.9999999480344
 43
0.400000005960464
  0
LINE
  5
   647
  8
0
  6
CONTINUOUS
 62
     1
 10
-925.049295727513
 20
-47.3267934561931
 30
0.0
 11
-925.049295727513
 21
-47.2354482399882
 31
0.0
  0
LINE
  5
   648
  8
0
  6
CONTINUOUS
 62
     7
 10
-911.449326301376
 20
-59.9842338477689
 30
0.0
 11
-917.049325621883
 21
-59.9842338477689
 31
0.0
  0
LINE
  5
   649
  8
0
  6
CONTINUOUS
 62
     7
 10
-911.449326301376
 20
-64.0642339085656
 30
0.0
 11
-917.049325621883
 21
-64.0642339085656
 31
0.0
  0
INSERT
  5
   64A
  8
0
  6
CONTINUOUS
 62
     7
  2
TASSELLO_POST_
 10
-917.049325621883
 20
-62.0241929497752
 30
0.0
 41
0.400000005960464
 42
-0.400000005960464
 50
1.03931142803049E-7
 43
0.400000005960464
  0
LINE
  5
   64B
  8
0
  6
CONTINUOUS
 62
     7
 10
-915.049325592081
 20
-66.0242134735759
 30
0.0
 11
-915.049325592081
 21
-64.0642339085656
 31
0.0
  0
LINE
  5
   64C
  8
0
  6
CONTINUOUS
 62
     7
 10
-923.649325720231
 20
-69.2241876423671
 30
0.0
 11
-924.249316775799
 21
-69.2241876423671
 31
0.0
  0
LINE
  5
   64D
  8
0
  6
CONTINUOUS
 62
     7
 10
-915.04932635502
 20
-69.2241876423671
 30
0.0
 11
-916.649325615923
 21
-69.2241876423671
 31
0.0
  0
LINE
  5
   64E
  8
0
  6
CONTINUOUS
 62
     2
 10
-911.449326301376
 20
-58.0242338185626
 30
0.0
 11
-915.04932635502
 21
-58.0242338185626
 31
0.0
  0
LINE
  5
   64F
  8
0
  6
CONTINUOUS
 62
     7
 10
-891.049315899611
 20
-87.6242001235798
 30
0.0
 11
-891.049315899611
 21
-74.8475488021908
 31
0.0
  0
LINE
  5
   650
  8
0
  6
CONTINUOUS
 62
     7
 10
-883.025579107681
 20
-77.9080529526808
 30
0.0
 11
-902.547258180367
 21
-71.2870509104602
 31
0.0
  0
LINE
  5
   651
  8
0
  6
CONTINUOUS
 62
     7
 10
-891.849315911531
 20
-87.6242001235798
 30
0.0
 11
-891.849315911531
 21
-74.5762195946476
 31
0.0
  0
LINE
  5
   652
  8
0
  6
CONTINUOUS
 62
     2
 10
-911.449326301376
 20
-79.6242341404277
 30
0.0
 11
-911.449326301376
 21
-58.0242338185626
 31
0.0
  0
LINE
  5
   653
  8
0
  6
CONTINUOUS
 62
     2
 10
-915.04932635502
 20
-79.6242341404277
 30
0.0
 11
-915.04932635502
 21
-64.0642339085656
 31
0.0
  0
LINE
  5
   654
  8
0
  6
CONTINUOUS
 62
   210
 10
-917.049325621883
 20
-70.2241930719647
 30
0.0
 11
-917.449325627844
 21
-70.2241930719647
 31
0.0
  0
LINE
  5
   655
  8
0
  6
CONTINUOUS
 62
   210
 10
-917.049325182047
 20
-70.2241912047977
 30
0.0
 11
-916.649325189777
 21
-69.8241912125287
 31
0.0
  0
LINE
  5
   656
  8
0
  6
CONTINUOUS
 62
   210
 10
-916.649325615923
 20
-69.8241930660042
 30
0.0
 11
-916.649325615923
 21
-69.2241930570635
 31
0.0
  0
LINE
  5
   657
  8
0
  6
CONTINUOUS
 62
   210
 10
-916.649325615923
 20
-69.2241930570635
 30
0.0
 11
-917.449325627844
 21
-69.2241930570635
 31
0.0
  0
LINE
  5
   658
  8
0
  6
CONTINUOUS
 62
   210
 10
-917.449325627844
 20
-66.6241930183205
 30
0.0
 11
-918.749326791624
 21
-66.6241930183205
 31
0.0
  0
LINE
  5
   659
  8
0
  6
CONTINUOUS
 62
   210
 10
-917.449325627844
 20
-69.2241930570635
 30
0.0
 11
-917.449325627844
 21
-66.6241930183205
 31
0.0
  0
LINE
  5
   65A
  8
0
  6
CONTINUOUS
 62
   210
 10
-923.04932571129
 20
-58.0241928901705
 30
0.0
 11
-923.649325720231
 21
-58.0241928901705
 31
0.0
  0
LINE
  5
   65B
  8
0
  6
CONTINUOUS
 62
   210
 10
-917.449325627844
 20
-70.2241930719647
 30
0.0
 11
-923.649325720231
 21
-70.2241930719647
 31
0.0
  0
LINE
  5
   65C
  8
0
  6
CONTINUOUS
 62
   210
 10
-923.649325720231
 20
-70.2241930719647
 30
0.0
 11
-923.649325720231
 21
-58.0241928901705
 31
0.0
  0
LINE
  5
   65D
  8
0
  6
CONTINUOUS
 62
   210
 10
-917.449325627844
 20
-70.2241930719647
 30
0.0
 11
-917.449325627844
 21
-69.2241930570635
 31
0.0
  0
LINE
  5
   65E
  8
0
  6
CONTINUOUS
 62
   210
 10
-917.449326093385
 20
-69.2241914171317
 30
0.0
 11
-923.049326277298
 21
-58.0241910493061
 31
0.0
  0
LINE
  5
   65F
  8
0
  6
CONTINUOUS
 62
   210
 10
-917.449325627844
 20
-67.9441942586932
 30
0.0
 11
-917.849325633804
 21
-67.9441942586932
 31
0.0
  0
LINE
  5
   660
  8
0
  6
CONTINUOUS
 62
   210
 10
-918.009325037931
 20
-68.1041900014527
 30
0.0
 11
-917.849325182646
 21
-67.9441924389379
 31
0.0
  0
LINE
  5
   661
  8
0
  6
CONTINUOUS
 62
   210
 10
-917.249325624863
 20
-65.8241930063996
 30
0.0
 11
-917.249325624863
 21
-58.2241928931508
 31
0.0
  0
LINE
  5
   662
  8
0
  6
CONTINUOUS
 62
   218
 10
-917.049325621883
 20
-64.8241929914984
 30
0.0
 11
-917.049325621883
 21
-59.2241929080519
 31
0.0
  0
LINE
  5
   663
  8
0
  6
CONTINUOUS
 62
   210
 10
-922.84932570831
 20
-58.424192896131
 30
0.0
 11
-923.649325720231
 21
-58.424192896131
 31
0.0
  0
LINE
  5
   664
  8
0
  6
CONTINUOUS
 62
   210
 10
-917.449325627844
 20
-69.8241930660042
 30
0.0
 11
-923.649325720231
 21
-69.8241930660042
 31
0.0
  0
LINE
  5
   665
  8
0
  6
CONTINUOUS
 62
   210
 10
-917.249325815598
 20
-58.2241928931508
 30
0.0
 11
-922.949326663474
 21
-58.2241928931508
 31
0.0
  0
LINE
  5
   666
  8
0
  6
CONTINUOUS
 62
   210
 10
-917.249325624863
 20
-65.8241930063996
 30
0.0
 11
-919.149324508766
 21
-65.8241930063996
 31
0.0
  0
LINE
  5
   667
  8
0
  6
CONTINUOUS
 62
   218
 10
-917.049325621883
 20
-64.8241929914984
 30
0.0
 11
-917.249325624863
 21
-64.8241929914984
 31
0.0
  0
LINE
  5
   668
  8
0
  6
CONTINUOUS
 62
   218
 10
-917.049325621883
 20
-59.2241929080519
 30
0.0
 11
-917.249325624863
 21
-59.2241929080519
 31
0.0
  0
LINE
  5
   669
  8
0
  6
CONTINUOUS
 62
   210
 10
-917.049325621883
 20
-70.2241930719647
 30
0.0
 11
-917.449325627844
 21
-70.2241930719647
 31
0.0
  0
LINE
  5
   66A
  8
0
  6
CONTINUOUS
 62
   210
 10
-917.049325182047
 20
-70.2241912047977
 30
0.0
 11
-916.649325189777
 21
-69.8241912125287
 31
0.0
  0
LINE
  5
   66B
  8
0
  6
CONTINUOUS
 62
   210
 10
-916.649325615923
 20
-69.8241930660042
 30
0.0
 11
-916.649325615923
 21
-69.2241930570635
 31
0.0
  0
LINE
  5
   66C
  8
0
  6
CONTINUOUS
 62
   210
 10
-916.649325615923
 20
-69.2241930570635
 30
0.0
 11
-917.449325627844
 21
-69.2241930570635
 31
0.0
  0
LINE
  5
   66D
  8
0
  6
CONTINUOUS
 62
   210
 10
-917.449325627844
 20
-66.6241930183205
 30
0.0
 11
-918.749326410155
 21
-66.6241930183205
 31
0.0
  0
LINE
  5
   66E
  8
0
  6
CONTINUOUS
 62
   210
 10
-917.449325627844
 20
-69.2241930570635
 30
0.0
 11
-917.449325627844
 21
-66.6241930183205
 31
0.0
  0
LINE
  5
   66F
  8
0
  6
CONTINUOUS
 62
   210
 10
-917.449325627844
 20
-70.2241930719647
 30
0.0
 11
-923.649325720231
 21
-70.2241930719647
 31
0.0
  0
LINE
  5
   670
  8
0
  6
CONTINUOUS
 62
   210
 10
-917.449325627844
 20
-70.2241930719647
 30
0.0
 11
-917.449325627844
 21
-69.2241930570635
 31
0.0
  0
LINE
  5
   671
  8
0
  6
CONTINUOUS
 62
   210
 10
-917.449326093385
 20
-69.2241914171317
 30
0.0
 11
-923.049326277298
 21
-58.0241910493061
 31
0.0
  0
LINE
  5
   672
  8
0
  6
CONTINUOUS
 62
   210
 10
-917.449325627844
 20
-67.9441942586932
 30
0.0
 11
-917.849325633804
 21
-67.9441942586932
 31
0.0
  0
LINE
  5
   673
  8
0
  6
CONTINUOUS
 62
   210
 10
-918.009325048888
 20
-68.104190008458
 30
0.0
 11
-917.849325193603
 21
-67.9441924459431
 31
0.0
  0
LINE
  5
   674
  8
0
  6
CONTINUOUS
 62
   210
 10
-917.249325624863
 20
-65.8241930063996
 30
0.0
 11
-917.249325624863
 21
-58.2241928931508
 31
0.0
  0
LINE
  5
   675
  8
0
  6
CONTINUOUS
 62
   210
 10
-917.049325621883
 20
-64.8241929914984
 30
0.0
 11
-917.049325621883
 21
-59.2241929080519
 31
0.0
  0
LINE
  5
   676
  8
0
  6
CONTINUOUS
 62
   210
 10
-917.449325627844
 20
-69.8241930660042
 30
0.0
 11
-923.649325720231
 21
-69.8241930660042
 31
0.0
  0
LINE
  5
   677
  8
0
  6
CONTINUOUS
 62
   210
 10
-917.249325815598
 20
-58.2241928931508
 30
0.0
 11
-922.949326663474
 21
-58.2241928931508
 31
0.0
  0
LINE
  5
   678
  8
0
  6
CONTINUOUS
 62
   210
 10
-917.249325624863
 20
-65.8241930063996
 30
0.0
 11
-919.149324508766
 21
-65.8241930063996
 31
0.0
  0
LINE
  5
   679
  8
0
  6
CONTINUOUS
 62
   210
 10
-917.049325621883
 20
-64.8241929914984
 30
0.0
 11
-917.249325624863
 21
-64.8241929914984
 31
0.0
  0
LINE
  5
   67A
  8
0
  6
CONTINUOUS
 62
   210
 10
-917.049325621883
 20
-59.2241929080519
 30
0.0
 11
-917.249325624863
 21
-59.2241929080519
 31
0.0
  0
LINE
  5
   67B
  8
0
  6
CONTINUOUS
 62
   210
 10
-923.649325720231
 20
-70.2241930719647
 30
0.0
 11
-923.649325720231
 21
-58.0241928901705
 31
0.0
  0
LINE
  5
   67C
  8
0
  6
CONTINUOUS
 62
   210
 10
-922.84932570831
 20
-58.424192896131
 30
0.0
 11
-923.649325720231
 21
-58.424192896131
 31
0.0
  0
LINE
  5
   67D
  8
0
  6
CONTINUOUS
 62
   210
 10
-923.04932571129
 20
-58.0241928901705
 30
0.0
 11
-923.649325720231
 21
-58.0241928901705
 31
0.0
  0
LINE
  5
   67E
  8
0
  6
CONTINUOUS
 62
     1
 10
-883.649315789342
 20
-69.5913376802529
 30
0.0
 11
-883.649315789342
 21
-66.6170619851653
 31
0.0
  0
ARC
  5
   67F
  8
0
  6
CONTINUOUS
 62
     1
 10
-886.409315830469
 20
-68.1041998327091
 30
0.0
 40
3.20000004768372
 50
332.443301780824
 51
358.030069438986
  0
LINE
  5
   680
  8
0
  6
CONTINUOUS
 62
     1
 10
-884.449315801263
 20
-69.6613292355031
 30
0.0
 11
-883.572344695346
 21
-69.5846035221307
 31
0.0
  0
LINE
  5
   681
  8
0
  6
CONTINUOUS
 62
     1
 10
-883.572344695346
 20
-66.6237961432876
 30
0.0
 11
-884.449315801263
 21
-66.5470704299152
 31
0.0
  0
LINE
  5
   682
  8
0
  6
CONTINUOUS
 62
     1
 10
-884.449315801263
 20
-69.6613292355031
 30
0.0
 11
-884.449315801263
 21
-66.5470704299152
 31
0.0
  0
LINE
  5
   683
  8
0
  6
DASHED
 62
     7
 10
-884.449315801263
 20
-69.1041998476103
 30
0.0
 11
-884.449315801263
 21
-67.104199817808
 31
0.0
  0
LINE
  5
   684
  8
0
  6
DASHDOT
 62
     7
 10
-882.609315773845
 20
-68.1041998327091
 30
0.0
 11
-890.24931550622
 21
-68.1041998327091
 31
0.0
  0
LINE
  5
   685
  8
0
  6
CONTINUOUS
 62
     1
 10
-883.429315786064
 20
-68.2141998343482
 30
0.0
 11
-883.429315786064
 21
-67.99419983107
 31
0.0
  0
LINE
  5
   686
  8
0
  6
CONTINUOUS
 62
     1
 10
-883.211206966654
 20
-68.2141998343483
 30
0.0
 11
-883.429315786064
 21
-68.2141998343483
 31
0.0
  0
LINE
  5
   687
  8
0
  6
CONTINUOUS
 62
     1
 10
-883.211206966654
 20
-67.99419983107
 30
0.0
 11
-883.429315786064
 21
-67.99419983107
 31
0.0
  0
ARC
  5
   688
  8
0
  6
CONTINUOUS
 62
     1
 10
-886.409315830469
 20
-68.1041998327091
 30
0.0
 40
3.20000004768372
 50
361.969930457083
 51
387.556698115245
  0
INSERT
  5
   689
  8
0
  6
CONTINUOUS
 62
     7
  2
*HATCH362
 10
-925.04931640625
 20
-61.7190437316895
 30
0.0
 41
0.400000005960464
 42
0.400000005960464
 50
89.9999999480344
 43
0.400000005960464
  0
INSERT
  5
   68A
  8
0
  6
CONTINUOUS
 62
     7
  2
*HATCH363
 10
-925.04931640625
 20
-61.7190437316895
 30
0.0
 41
0.400000005960464
 42
0.400000005960464
 50
89.9999999480344
 43
0.400000005960464
  0
LINE
  5
   68B
  8
0
  6
DASHDOT
 62
     7
 10
-922.421985915692
 20
-61.2241997301892
 30
0.0
 11
-931.441759026773
 21
-61.2241997301892
 31
0.0
  0
INSERT
  5
   68C
  8
0
  6
CONTINUOUS
 62
     7
  2
*HATCH364
 10
-925.04931640625
 20
-61.7190437316895
 30
0.0
 41
0.400000005960464
 42
0.400000005960464
 50
89.9999999480344
 43
0.400000005960464
  0
LINE
  5
   68D
  8
0
  6
CONTINUOUS
 62
     7
 10
-884.449315801263
 20
-87.6242001235798
 30
0.0
 11
-924.249316775799
 21
-87.6242001235798
 31
0.0
  0
LINE
  5
   68E
  8
0
  6
CONTINUOUS
 62
     7
 10
-891.849315911531
 20
-85.224200087817
 30
0.0
 11
-924.249316775799
 21
-85.224200087817
 31
0.0
  0
LINE
  5
   68F
  8
0
  6
CONTINUOUS
 62
   210
 10
-917.049325621883
 20
-70.2241930719647
 30
0.0
 11
-917.449325627844
 21
-70.2241930719647
 31
0.0
  0
LINE
  5
   690
  8
0
  6
CONTINUOUS
 62
   210
 10
-917.049325182047
 20
-70.2241912047977
 30
0.0
 11
-916.649325189777
 21
-69.8241912125287
 31
0.0
  0
LINE
  5
   691
  8
0
  6
CONTINUOUS
 62
   210
 10
-916.649325615923
 20
-69.8241930660042
 30
0.0
 11
-916.649325615923
 21
-69.2241930570635
 31
0.0
  0
LINE
  5
   692
  8
0
  6
CONTINUOUS
 62
   210
 10
-916.649325615923
 20
-69.2241930570635
 30
0.0
 11
-917.449325627844
 21
-69.2241930570635
 31
0.0
  0
LINE
  5
   693
  8
0
  6
CONTINUOUS
 62
   210
 10
-917.449325627844
 20
-66.6241930183205
 30
0.0
 11
-918.749326791624
 21
-66.6241930183205
 31
0.0
  0
LINE
  5
   694
  8
0
  6
CONTINUOUS
 62
   210
 10
-917.449325627844
 20
-69.2241930570635
 30
0.0
 11
-917.449325627844
 21
-66.6241930183205
 31
0.0
  0
LINE
  5
   695
  8
0
  6
CONTINUOUS
 62
   210
 10
-923.04932571129
 20
-58.0241928901705
 30
0.0
 11
-923.649325720231
 21
-58.0241928901705
 31
0.0
  0
LINE
  5
   696
  8
0
  6
CONTINUOUS
 62
   210
 10
-917.449325627844
 20
-70.2241930719647
 30
0.0
 11
-923.649325720231
 21
-70.2241930719647
 31
0.0
  0
LINE
  5
   697
  8
0
  6
CONTINUOUS
 62
   210
 10
-923.649325720231
 20
-70.2241930719647
 30
0.0
 11
-923.649325720231
 21
-58.0241928901705
 31
0.0
  0
LINE
  5
   698
  8
0
  6
CONTINUOUS
 62
   210
 10
-917.449325627844
 20
-70.2241930719647
 30
0.0
 11
-917.449325627844
 21
-69.2241930570635
 31
0.0
  0
LINE
  5
   699
  8
0
  6
CONTINUOUS
 62
   210
 10
-917.449326093385
 20
-69.2241914171317
 30
0.0
 11
-923.049326277298
 21
-58.0241910493061
 31
0.0
  0
LINE
  5
   69A
  8
0
  6
CONTINUOUS
 62
   210
 10
-917.449325627844
 20
-67.9441942586932
 30
0.0
 11
-917.849325633804
 21
-67.9441942586932
 31
0.0
  0
LINE
  5
   69B
  8
0
  6
CONTINUOUS
 62
   210
 10
-918.009325037931
 20
-68.1041900014527
 30
0.0
 11
-917.849325182646
 21
-67.9441924389379
 31
0.0
  0
LINE
  5
   69C
  8
0
  6
CONTINUOUS
 62
   210
 10
-917.249325624863
 20
-65.8241930063996
 30
0.0
 11
-917.249325624863
 21
-58.2241928931508
 31
0.0
  0
LINE
  5
   69D
  8
0
  6
CONTINUOUS
 62
   218
 10
-917.049325621883
 20
-64.8241929914984
 30
0.0
 11
-917.049325621883
 21
-59.2241929080519
 31
0.0
  0
LINE
  5
   69E
  8
0
  6
CONTINUOUS
 62
   210
 10
-922.84932570831
 20
-58.424192896131
 30
0.0
 11
-923.649325720231
 21
-58.424192896131
 31
0.0
  0
LINE
  5
   69F
  8
0
  6
CONTINUOUS
 62
   210
 10
-917.449325627844
 20
-69.8241930660042
 30
0.0
 11
-923.649325720231
 21
-69.8241930660042
 31
0.0
  0
LINE
  5
   6A0
  8
0
  6
CONTINUOUS
 62
   210
 10
-917.249325815598
 20
-58.2241928931508
 30
0.0
 11
-922.949326663474
 21
-58.2241928931508
 31
0.0
  0
LINE
  5
   6A1
  8
0
  6
CONTINUOUS
 62
   210
 10
-917.249325624863
 20
-65.8241930063996
 30
0.0
 11
-919.149324508766
 21
-65.8241930063996
 31
0.0
  0
LINE
  5
   6A2
  8
0
  6
CONTINUOUS
 62
   218
 10
-917.049325621883
 20
-64.8241929914984
 30
0.0
 11
-917.249325624863
 21
-64.8241929914984
 31
0.0
  0
LINE
  5
   6A3
  8
0
  6
CONTINUOUS
 62
   218
 10
-917.049325621883
 20
-59.2241929080519
 30
0.0
 11
-917.249325624863
 21
-59.2241929080519
 31
0.0
  0
LINE
  5
   6A4
  8
0
  6
CONTINUOUS
 62
   210
 10
-917.049325621883
 20
-70.2241930719647
 30
0.0
 11
-917.449325627844
 21
-70.2241930719647
 31
0.0
  0
LINE
  5
   6A5
  8
0
  6
CONTINUOUS
 62
   210
 10
-917.049325182047
 20
-70.2241912047977
 30
0.0
 11
-916.649325189777
 21
-69.8241912125287
 31
0.0
  0
LINE
  5
   6A6
  8
0
  6
CONTINUOUS
 62
   210
 10
-916.649325615923
 20
-69.8241930660042
 30
0.0
 11
-916.649325615923
 21
-69.2241930570635
 31
0.0
  0
LINE
  5
   6A7
  8
0
  6
CONTINUOUS
 62
   210
 10
-916.649325615923
 20
-69.2241930570635
 30
0.0
 11
-917.449325627844
 21
-69.2241930570635
 31
0.0
  0
LINE
  5
   6A8
  8
0
  6
CONTINUOUS
 62
   210
 10
-917.449325627844
 20
-66.6241930183205
 30
0.0
 11
-918.749326410155
 21
-66.6241930183205
 31
0.0
  0
LINE
  5
   6A9
  8
0
  6
CONTINUOUS
 62
   210
 10
-917.449325627844
 20
-69.2241930570635
 30
0.0
 11
-917.449325627844
 21
-66.6241930183205
 31
0.0
  0
LINE
  5
   6AA
  8
0
  6
CONTINUOUS
 62
   210
 10
-917.449325627844
 20
-70.2241930719647
 30
0.0
 11
-923.649325720231
 21
-70.2241930719647
 31
0.0
  0
LINE
  5
   6AB
  8
0
  6
CONTINUOUS
 62
   210
 10
-917.449325627844
 20
-70.2241930719647
 30
0.0
 11
-917.449325627844
 21
-69.2241930570635
 31
0.0
  0
LINE
  5
   6AC
  8
0
  6
CONTINUOUS
 62
   210
 10
-917.449326093385
 20
-69.2241914171317
 30
0.0
 11
-923.049326277298
 21
-58.0241910493061
 31
0.0
  0
LINE
  5
   6AD
  8
0
  6
CONTINUOUS
 62
   210
 10
-917.449325627844
 20
-67.9441942586932
 30
0.0
 11
-917.849325633804
 21
-67.9441942586932
 31
0.0
  0
LINE
  5
   6AE
  8
0
  6
CONTINUOUS
 62
   210
 10
-918.009325048888
 20
-68.104190008458
 30
0.0
 11
-917.849325193603
 21
-67.9441924459431
 31
0.0
  0
LINE
  5
   6AF
  8
0
  6
CONTINUOUS
 62
   210
 10
-917.249325624863
 20
-65.8241930063996
 30
0.0
 11
-917.249325624863
 21
-58.2241928931508
 31
0.0
  0
LINE
  5
   6B0
  8
0
  6
CONTINUOUS
 62
   210
 10
-917.049325621883
 20
-64.8241929914984
 30
0.0
 11
-917.049325621883
 21
-59.2241929080519
 31
0.0
  0
LINE
  5
   6B1
  8
0
  6
CONTINUOUS
 62
   210
 10
-917.449325627844
 20
-69.8241930660042
 30
0.0
 11
-923.649325720231
 21
-69.8241930660042
 31
0.0
  0
LINE
  5
   6B2
  8
0
  6
CONTINUOUS
 62
   210
 10
-917.249325815598
 20
-58.2241928931508
 30
0.0
 11
-922.949326663474
 21
-58.2241928931508
 31
0.0
  0
LINE
  5
   6B3
  8
0
  6
CONTINUOUS
 62
   210
 10
-917.249325624863
 20
-65.8241930063996
 30
0.0
 11
-919.149324508766
 21
-65.8241930063996
 31
0.0
  0
LINE
  5
   6B4
  8
0
  6
CONTINUOUS
 62
   210
 10
-917.049325621883
 20
-64.8241929914984
 30
0.0
 11
-917.249325624863
 21
-64.8241929914984
 31
0.0
  0
LINE
  5
   6B5
  8
0
  6
CONTINUOUS
 62
   210
 10
-917.049325621883
 20
-59.2241929080519
 30
0.0
 11
-917.249325624863
 21
-59.2241929080519
 31
0.0
  0
LINE
  5
   6B6
  8
0
  6
CONTINUOUS
 62
   210
 10
-923.649325720231
 20
-70.2241930719647
 30
0.0
 11
-923.649325720231
 21
-58.0241928901705
 31
0.0
  0
LINE
  5
   6B7
  8
0
  6
CONTINUOUS
 62
   210
 10
-922.84932570831
 20
-58.424192896131
 30
0.0
 11
-923.649325720231
 21
-58.424192896131
 31
0.0
  0
LINE
  5
   6B8
  8
0
  6
CONTINUOUS
 62
   210
 10
-923.04932571129
 20
-58.0241928901705
 30
0.0
 11
-923.649325720231
 21
-58.0241928901705
 31
0.0
  0
LINE
  5
   6B9
  8
0
  6
CONTINUOUS
 62
     7
 10
-924.249308639316
 20
39.1758085582224
 30
0.0
 11
-924.249301386936
 21
49.2757741405476
 31
0.0
  0
LINE
  5
   6BA
  8
0
  6
CONTINUOUS
 62
     7
 10
-902.042928700043
 20
49.8757741494883
 30
0.0
 11
-924.449316397309
 21
49.8757741494883
 31
0.0
  0
LINE
  5
   6BB
  8
0
  6
CONTINUOUS
 62
     7
 10
-901.833160484997
 20
49.2757741405476
 30
0.0
 11
-924.449316397309
 21
49.2757741405476
 31
0.0
  0
LINE
  5
   6BC
  8
0
  6
CONTINUOUS
 62
     7
 10
-924.449316397309
 20
49.8757741494883
 30
0.0
 11
-924.449316397309
 21
52.7757741927016
 31
0.0
  0
LINE
  5
   6BD
  8
0
  6
CONTINUOUS
 62
     7
 10
-924.449316397309
 20
46.3757740973342
 30
0.0
 11
-924.449316397309
 21
49.2757741405476
 31
0.0
  0
LINE
  5
   6BE
  8
0
  6
CONTINUOUS
 62
     7
 10
-924.2493009561
 20
49.8757741494883
 30
0.0
 11
-924.249300309846
 21
50.7757741628993
 31
0.0
  0
ARC
  5
   6BF
  8
0
  6
DOT
 62
     7
 10
-916.249326372902
 20
34.3758084866968
 30
0.0
 40
1.20000001788139
 50
359.999999948034
 51
449.999999948034
  0
ARC
  5
   6C0
  8
0
  6
DOT
 62
     7
 10
-915.849326366941
 20
34.3758084866968
 30
0.0
 40
3.60000005364418
 50
359.999999948034
 51
449.999999948034
  0
LINE
  5
   6C1
  8
0
  6
CONTINUOUS
 62
     1
 10
-911.049326295416
 20
-65.6242339318115
 30
0.0
 11
-911.049326295416
 21
-58.4242338245231
 31
0.0
  0
LINE
  5
   6C2
  8
0
  6
CONTINUOUS
 62
     1
 10
-911.049326295416
 20
-58.4242338245231
 30
0.0
 11
-911.449326301376
 21
-58.4242338245231
 31
0.0
  0
LINE
  5
   6C3
  8
0
  6
CONTINUOUS
 62
     1
 10
-911.049326295416
 20
-65.6242339318115
 30
0.0
 11
-911.449326301376
 21
-65.6242339318115
 31
0.0
  0
LINE
  5
   6C4
  8
0
  6
CONTINUOUS
 62
     7
 10
-904.238156702401
 20
-58.0897941531146
 30
0.0
 11
-908.41549318271
 21
-57.8889606684844
 31
0.0
  0
LINE
  5
   6C5
  8
0
  6
CONTINUOUS
 62
     7
 10
-902.547258180367
 20
-71.2870509104602
 30
0.0
 11
-904.238156702401
 21
-58.0897941531146
 31
0.0
  0
TEXT
  5
   6C6
  8
0
  6
CONTINUOUS
 62
     2
 10
-958.226531983549
 20
-152.799757809715
 30
0.0
 40
2.50000001341104
  1
GIUPPONI
 50
359.999999948034
 41
1.09800000173569
 11
-958.226531982422
 21
-151.549757803009
 31
0.0
 73
     2
  0
TEXT
  5
   6C7
  8
0
  6
CONTINUOUS
 62
     2
 10
-958.226531983549
 20
-148.799757809698
 30
0.0
 40
2.50000001341104
  1
98-08-17
 50
359.999999948034
 41
1.0999999247392
 11
-958.226531982422
 21
-147.549757802992
 31
0.0
 73
     2
  0
LINE
  5
   6C8
  8
0
  6
DASHDOT
 62
     7
 10
-921.525124024114
 20
-92.8241971493113
 30
0.0
 11
-938.676925225425
 21
-92.8241971493113
 31
0.0
  0
LINE
  5
   6C9
  8
0
  6
CONTINUOUS
 62
     7
 10
-924.449316397309
 20
52.7757741927016
 30
0.0
 11
-925.04931640625
 21
52.7757741927016
 31
0.0
  0
LINE
  5
   6CA
  8
0
  6
CONTINUOUS
 62
     7
 10
-924.449316397309
 20
46.3757740973342
 30
0.0
 11
-925.04931640625
 21
46.3757740973342
 31
0.0
  0
LINE
  5
   6CB
  8
0
  6
CONTINUOUS
 62
     1
 10
-907.849326247732
 20
22.3758083078829
 30
0.0
 11
-907.849326247732
 21
27.9758083913294
 31
0.0
  0
LINE
  5
   6CC
  8
0
  6
CONTINUOUS
 62
     1
 10
-911.849326307337
 20
21.5758082959619
 30
0.0
 11
-911.849326307337
 21
28.7758084032503
 31
0.0
  0
LINE
  5
   6CD
  8
0
  6
CONTINUOUS
 62
     1
 10
-914.049326340119
 20
23.1758083198038
 30
0.0
 11
-914.049326340119
 21
27.1758083794084
 31
0.0
  0
LINE
  5
   6CE
  8
0
  6
CONTINUOUS
 62
     1
 10
-912.249326313297
 20
23.1758083198038
 30
0.0
 11
-917.049325621883
 21
23.1758083198038
 31
0.0
  0
LINE
  5
   6CF
  8
0
  6
CONTINUOUS
 62
     1
 10
-912.249326313297
 20
27.1758083794084
 30
0.0
 11
-917.049325621883
 21
27.1758083794084
 31
0.0
  0
LINE
  5
   6D0
  8
0
  6
CONTINUOUS
 62
     1
 10
-908.249326253693
 20
21.9758083019224
 30
0.0
 11
-911.849326307337
 21
21.9758083019224
 31
0.0
  0
LINE
  5
   6D1
  8
0
  6
CONTINUOUS
 62
     1
 10
-908.249326253693
 20
28.3758083972898
 30
0.0
 11
-911.849326307337
 21
28.3758083972898
 31
0.0
  0
LINE
  5
   6D2
  8
0
  6
CONTINUOUS
 62
     7
 10
-914.049326263093
 20
23.5438663252883
 30
0.0
 11
-917.049325621883
 21
23.5438663252883
 31
0.0
  0
LINE
  5
   6D3
  8
0
  6
CONTINUOUS
 62
     7
 10
-914.049326263093
 20
26.8077503739239
 30
0.0
 11
-917.049325621883
 21
26.8077503739239
 31
0.0
  0
LINE
  5
   6D4
  8
0
  6
DASHDOT
 62
     7
 10
-907.043465266192
 20
25.1758083496061
 30
0.0
 11
-920.239070273293
 21
25.1758083496061
 31
0.0
  0
ARC
  5
   6D5
  8
0
  6
CONTINUOUS
 62
     1
 10
-908.249326253693
 20
27.9758083913294
 30
0.0
 40
0.400000005960464
 50
359.999999948034
 51
449.999999948034
  0
ARC
  5
   6D6
  8
0
  6
CONTINUOUS
 62
     1
 10
-908.249326253693
 20
22.3758083078829
 30
0.0
 40
0.400000005960464
 50
269.999999948034
 51
359.999999948034
  0
LINE
  5
   6D7
  8
0
  6
CONTINUOUS
 62
     7
 10
-912.249326313297
 20
27.3758083823887
 30
0.0
 11
-915.04932635502
 21
27.3758083823887
 31
0.0
  0
LINE
  5
   6D8
  8
0
  6
CONTINUOUS
 62
     7
 10
-912.249326313297
 20
22.9758083168235
 30
0.0
 11
-915.04932635502
 21
22.9758083168235
 31
0.0
  0
LINE
  5
   6D9
  8
0
  6
CONTINUOUS
 62
     7
 10
-911.849326307337
 20
28.7758084032503
 30
0.0
 11
-912.249326313297
 21
28.7758084032503
 31
0.0
  0
LINE
  5
   6DA
  8
0
  6
CONTINUOUS
 62
     7
 10
-911.849326307337
 20
21.5758082959619
 30
0.0
 11
-912.249326313297
 21
21.5758082959619
 31
0.0
  0
LINE
  5
   6DB
  8
0
  6
CONTINUOUS
 62
     7
 10
-891.849315911531
 20
-86.0242000997379
 30
0.0
 11
-924.249316775799
 21
-86.0242000997379
 31
0.0
  0
LINE
  5
   6DC
  8
0
  6
CONTINUOUS
 62
     7
 10
-891.849315911531
 20
-86.8242001116589
 30
0.0
 11
-924.249316775799
 21
-86.8242001116589
 31
0.0
  0
INSERT
  5
   6DD
  8
0
  6
CONTINUOUS
 62
     7
  2
*UDIM1210
 10
0.0
 20
0.0
 30
0.0
  0
INSERT
  5
   6DE
  8
0
  6
CONTINUOUS
 62
     7
  2
*UDIM1211
 10
0.0
 20
0.0
 30
0.0
  0
LINE
  5
   6DF
  8
0
  6
CONTINUOUS
 62
     7
 10
-923.203012327643
 20
12.9715336107147
 30
0.0
 11
-933.765332733418
 21
17.5611133108433
 31
0.0
  0
LINE
  5
   6E0
  8
0
  6
DASHDOT
 62
     7
 10
-922.612904803297
 20
55.1758050560606
 30
0.0
 11
-934.023300145276
 21
55.1758050560606
 31
0.0
  0
INSERT
  5
   6E1
  8
0
  6
CONTINUOUS
 62
     7
  2
*HATCH365
 10
-925.04931640625
 20
-61.7190437316895
 30
0.0
 41
0.400000005960464
 42
0.400000005960464
 50
89.9999999480344
 43
0.400000005960464
  0
INSERT
  5
   6E2
  8
0
  6
CONTINUOUS
 62
     7
  2
*HATCH366
 10
-925.04931640625
 20
-61.7190437316895
 30
0.0
 41
0.400000005960464
 42
0.400000005960464
 50
89.9999999480344
 43
0.400000005960464
  0
INSERT
  5
   6E3
  8
0
  6
CONTINUOUS
 62
     7
  2
*HATCH367
 10
-925.04931640625
 20
-61.7190437316895
 30
0.0
 41
0.400000005960464
 42
0.400000005960464
 50
89.9999999480344
 43
0.400000005960464
  0
LINE
  5
   6E4
  8
0
  6
DOT
 62
     7
 10
-912.249326313297
 20
28.7758084032503
 30
0.0
 11
-912.249326313297
 21
34.3758084866968
 31
0.0
  0
LINE
  5
   6E5
  8
0
  6
CONTINUOUS
 62
     7
 10
-915.04932635502
 20
27.1758083794084
 30
0.0
 11
-915.04932635502
 21
29.1757879450147
 31
0.0
  0
POINT
  5
   6E6
  8
0
  6
CONTINUOUS
 62
     7
 10
-871.049315601587
 20
-17.7241990819887
 30
0.0
  0
ARC
  5
   6E7
  8
0
  6
CONTINUOUS
 62
     7
 10
-1093.73554027933
 20
-13.7222823951836
 30
0.0
 40
222.722181199795
 50
354.089136172163
 51
359.757269292276
  0
INSERT
  5
   6E8
  8
0
  6
CONTINUOUS
 62
     7
  2
*UDIM1212
 10
0.0
 20
0.0
 30
0.0
  0
INSERT
  5
   6E9
  8
0
  6
CONTINUOUS
 62
     7
  2
*UDIM1213
 10
0.0
 20
0.0
 30
0.0
  0
INSERT
  5
   6EA
  8
0
  6
CONTINUOUS
 62
     7
  2
*UDIM1214
 10
0.0
 20
0.0
 30
0.0
  0
INSERT
  5
   6EB
  8
0
  6
CONTINUOUS
 62
     7
  2
*UDIM1215
 10
0.0
 20
0.0
 30
0.0
  0
INSERT
  5
   6EC
  8
0
  6
CONTINUOUS
 62
     7
  2
*UDIM1216
 10
0.0
 20
0.0
 30
0.0
  0
LINE
  5
   6ED
  8
0
  6
CONTINUOUS
 62
     1
 10
-907.849326247732
 20
-64.2242339109498
 30
0.0
 11
-907.849326247732
 21
-59.8242338453847
 31
0.0
  0
LINE
  5
   6EE
  8
0
  6
CONTINUOUS
 62
     1
 10
-911.049326295416
 20
-64.6242339169103
 30
0.0
 11
-911.049326295416
 21
-59.4242338394243
 31
0.0
  0
LINE
  5
   6EF
  8
0
  6
CONTINUOUS
 62
     1
 10
-912.549326317767
 20
-63.8242339049894
 30
0.0
 11
-912.549326317767
 21
-60.2242338513452
 31
0.0
  0
LINE
  5
   6F0
  8
0
  6
CONTINUOUS
 62
     1
 10
-911.449326301376
 20
-63.8242339049894
 30
0.0
 11
-917.049325621883
 21
-63.8242339049894
 31
0.0
  0
LINE
  5
   6F1
  8
0
  6
CONTINUOUS
 62
     1
 10
-911.449326301376
 20
-60.2242338513452
 30
0.0
 11
-917.049325621883
 21
-60.2242338513452
 31
0.0
  0
LINE
  5
   6F2
  8
0
  6
CONTINUOUS
 62
     1
 10
-908.249326253693
 20
-64.6242339169103
 30
0.0
 11
-911.049326295416
 21
-64.6242339169103
 31
0.0
  0
LINE
  5
   6F3
  8
0
  6
CONTINUOUS
 62
     1
 10
-908.249326253693
 20
-59.4242338394243
 30
0.0
 11
-911.049326295416
 21
-59.4242338394243
 31
0.0
  0
LINE
  5
   6F4
  8
0
  6
CONTINUOUS
 62
     7
 10
-912.549326253579
 20
-63.517518900419
 30
0.0
 11
-917.049325621883
 21
-63.517518900419
 31
0.0
  0
LINE
  5
   6F5
  8
0
  6
CONTINUOUS
 62
     7
 10
-912.549326253579
 20
-60.5309488559156
 30
0.0
 11
-917.049325621883
 21
-60.5309488559156
 31
0.0
  0
LINE
  5
   6F6
  8
0
  6
DASHDOT
 62
     7
 10
-906.177531197857
 20
-62.0242338781673
 30
0.0
 11
-918.936435139219
 21
-62.0242338781673
 31
0.0
  0
ARC
  5
   6F7
  8
0
  6
CONTINUOUS
 62
     1
 10
-908.249326253693
 20
-59.8242338453847
 30
0.0
 40
0.400000005960464
 50
359.999999948034
 51
449.999999948034
  0
ARC
  5
   6F8
  8
0
  6
CONTINUOUS
 62
     1
 10
-908.249326253693
 20
-64.2242339109498
 30
0.0
 40
0.400000005960464
 50
269.999999948034
 51
359.999999948034
  0
INSERT
  5
   6F9
  8
0
  6
CONTINUOUS
 62
     7
  2
*HATCH368
 10
-925.04931640625
 20
-61.7190437316895
 30
0.0
 41
0.400000005960464
 42
0.400000005960464
 50
89.9999999480344
 43
0.400000005960464
  0
LINE
  5
   6FA
  8
0
  6
CONTINUOUS
 62
     7
 10
-916.544730506075
 20
-68.1753751842446
 30
0.0
 11
-909.232185233836
 21
-66.416661764339
 31
0.0
  0
INSERT
  5
   6FB
  8
0
  6
CONTINUOUS
 62
     7
  2
*HATCH369
 10
-925.04931640625
 20
-61.7190437316895
 30
0.0
 41
0.400000005960464
 42
0.400000005960464
 50
89.9999999480344
 43
0.400000005960464
  0
INSERT
  5
   6FC
  8
0
  6
CONTINUOUS
 62
     7
  2
*UDIM1217
 10
0.0
 20
0.0
 30
0.0
  0
INSERT
  5
   6FD
  8
0
  6
CONTINUOUS
 62
     7
  2
*UDIM1218
 10
0.0
 20
0.0
 30
0.0
  0
INSERT
  5
   6FE
  8
0
  6
CONTINUOUS
 62
     7
  2
*UDIM1219
 10
0.0
 20
0.0
 30
0.0
  0
INSERT
  5
   6FF
  8
0
  6
CONTINUOUS
 62
     7
  2
*UDIM1220
 10
0.0
 20
0.0
 30
0.0
  0
LINE
  5
   700
  8
0
  6
CONTINUOUS
 62
     1
 10
-923.5293163836
 20
53.4758050307286
 30
0.0
 11
-923.5293163836
 21
54.9358050524843
 31
0.0
  0
LINE
  5
   701
  8
0
  6
CONTINUOUS
 62
     1
 10
-923.5293163836
 20
54.9358050524843
 30
0.0
 11
-924.129316392541
 21
54.9358050524843
 31
0.0
  0
LINE
  5
   702
  8
0
  6
CONTINUOUS
 62
     1
 10
-923.5293163836
 20
55.4158050596368
 30
0.0
 11
-924.129316392541
 21
55.4158050596368
 31
0.0
  0
LINE
  5
   703
  8
0
  6
CONTINUOUS
 62
     1
 10
-923.5293163836
 20
55.4158050596368
 30
0.0
 11
-923.5293163836
 21
56.8758050813925
 31
0.0
  0
LINE
  5
   704
  8
0
  6
CONTINUOUS
 62
     1
 10
-923.5293163836
 20
56.8758050813925
 30
0.0
 11
-924.84931640327
 21
56.8758050813925
 31
0.0
  0
LINE
  5
   705
  8
0
  6
CONTINUOUS
 62
     1
 10
-924.129316392541
 20
54.9358050524843
 30
0.0
 11
-924.129316392541
 21
55.4158050596368
 31
0.0
  0
LINE
  5
   706
  8
0
  6
CONTINUOUS
 62
     1
 10
-924.84931640327
 20
53.0758050247681
 30
0.0
 11
-924.84931640327
 21
57.275805087353
 31
0.0
  0
LINE
  5
   707
  8
0
  6
CONTINUOUS
 62
     7
 10
-924.84931640327
 20
57.275805087353
 30
0.0
 11
-925.04931640625
 21
57.275805087353
 31
0.0
  0
LINE
  5
   708
  8
0
  6
CONTINUOUS
 62
     7
 10
-924.84931640327
 20
53.0758050247681
 30
0.0
 11
-925.04931640625
 21
53.0758050247681
 31
0.0
  0
LINE
  5
   709
  8
0
  6
CONTINUOUS
 62
     1
 10
-925.04931640625
 20
54.1758050411594
 30
0.0
 11
-932.649316519499
 21
54.1758050411594
 31
0.0
  0
LINE
  5
   70A
  8
0
  6
CONTINUOUS
 62
     7
 10
-925.04931640625
 20
54.3758050441396
 30
0.0
 11
-932.649316519499
 21
54.3758050441396
 31
0.0
  0
LINE
  5
   70B
  8
0
  6
CONTINUOUS
 62
     7
 10
-925.04931640625
 20
55.9758050679815
 30
0.0
 11
-932.649316519499
 21
55.9758050679815
 31
0.0
  0
LINE
  5
   70C
  8
0
  6
CONTINUOUS
 62
     1
 10
-925.04931640625
 20
56.1758050709617
 30
0.0
 11
-932.649316519499
 21
56.1758050709617
 31
0.0
  0
LINE
  5
   70D
  8
0
  6
CONTINUOUS
 62
     1
 10
-932.649316519499
 20
54.1758050411594
 30
0.0
 11
-932.649316519499
 21
56.1758050709617
 31
0.0
  0
LINE
  5
   70E
  8
0
  6
CONTINUOUS
 62
     1
 10
-932.849316522479
 20
54.3758050441396
 30
0.0
 11
-932.849316522479
 21
55.9758050679815
 31
0.0
  0
LINE
  5
   70F
  8
0
  6
CONTINUOUS
 62
     1
 10
-932.649316519499
 20
54.1758050411594
 30
0.0
 11
-932.849316522479
 21
54.3758050441396
 31
0.0
  0
LINE
  5
   710
  8
0
  6
CONTINUOUS
 62
     1
 10
-932.849316522479
 20
55.9758050679815
 30
0.0
 11
-932.649316519499
 21
56.1758050709617
 31
0.0
  0
LINE
  5
   711
  8
0
  6
CONTINUOUS
 62
     1
 10
-923.5293163836
 20
53.4758050307286
 30
0.0
 11
-924.84931640327
 21
53.4758050307286
 31
0.0
  0
LINE
  5
   712
  8
0
  6
CONTINUOUS
 62
     7
 10
-930.649316489697
 20
-98.8241972387183
 30
0.0
 11
-930.649316489697
 21
54.1758050411594
 31
0.0
  0
INSERT
  5
   713
  8
0
  6
CONTINUOUS
 62
     7
  2
*UDIM1221
 10
0.0
 20
0.0
 30
0.0
  0
INSERT
  5
   714
  8
0
  6
CONTINUOUS
 62
     7
  2
*UDIM1222
 10
0.0
 20
0.0
 30
0.0
  0
INSERT
  5
   715
  8
0
  6
CONTINUOUS
 62
     7
  2
*UDIM1223
 10
0.0
 20
0.0
 30
0.0
  0
INSERT
  5
   716
  8
0
  6
CONTINUOUS
 62
     7
  2
*UDIM1224
 10
0.0
 20
0.0
 30
0.0
  0
INSERT
  5
   717
  8
0
  6
CONTINUOUS
 62
     7
  2
*HATCH370
 10
-925.04931640625
 20
-61.7190437316895
 30
0.0
 41
0.400000005960464
 42
0.400000005960464
 50
89.9999999480344
 43
0.400000005960464
  0
ENDSEC
  0
EOF
