  0
SECTION
  2
HEADER
  9
$ACADVER
  1
AC1009
  9
$DWGCODEPAGE
  3
iso8859-1
  9
$INSBASE
 10
0.0
 20
0.0
 30
0.0
  9
$EXTMIN
 10
1.0E20
 20
1.0E20
  9
$EXTMAX
 10
-1.0E20
 20
-1.0E20
  9
$LIMMIN
 10
0.0
 20
0.0
  9
$LIMMAX
 10
12.0
 20
9.0
  9
$ORTHOMODE
 70
     0
  9
$REGENMODE
 70
     1
  9
$FILLMODE
 70
     1
  9
$QTEXTMODE
 70
     0
  9
$MIRRTEXT
 70
     1
  9
$DRAGMODE
 70
     2
  9
$LTSCALE
 40
15.0
  9
$OSMODE
 70
     0
  9
$ATTMODE
 70
     1
  9
$TEXTSIZE
 40
0.2
  9
$TRACEWID
 40
0.05
  9
$TEXTSTYLE
  7
STANDARD
  9
$CLAYER
  8
0
  9
$CELTYPE
  6
DASHED
  9
$CECOLOR
 62
   256
  9
$DIMSCALE
 40
1.0
  9
$DIMASZ
 40
0.18
  9
$DIMEXO
 40
0.0625
  9
$DIMDLI
 40
0.38
  9
$DIMRND
 40
0.0
  9
$DIMDLE
 40
0.0
  9
$DIMEXE
 40
0.18
  9
$DIMTP
 40
0.0
  9
$DIMTM
 40
0.0
  9
$DIMTXT
 40
0.18
  9
$DIMCEN
 40
0.09
  9
$DIMTSZ
 40
0.0
  9
$DIMTOL
 70
     0
  9
$DIMLIM
 70
     0
  9
$DIMTIH
 70
     1
  9
$DIMTOH
 70
     1
  9
$DIMSE1
 70
     0
  9
$DIMSE2
 70
     0
  9
$DIMTAD
 70
     0
  9
$DIMZIN
 70
     0
  9
$DIMBLK
  1

  9
$DIMASO
 70
     1
  9
$DIMSHO
 70
     1
  9
$DIMPOST
  1

  9
$DIMAPOST
  1

  9
$DIMALT
 70
     0
  9
$DIMALTD
 70
     2
  9
$DIMALTF
 40
25.4
  9
$DIMLFAC
 40
1.0
  9
$DIMTOFL
 70
     0
  9
$DIMTVP
 40
0.0
  9
$DIMTIX
 70
     0
  9
$DIMSOXD
 70
     0
  9
$DIMSAH
 70
     0
  9
$DIMBLK1
  1

  9
$DIMBLK2
  1

  9
$DIMSTYLE
  2
STANDARD
  9
$DIMCLRD
 70
     0
  9
$DIMCLRE
 70
     0
  9
$DIMCLRT
 70
     0
  9
$DIMTFAC
 40
1.0
  9
$DIMGAP
 40
0.09
  9
$LUNITS
 70
     2
  9
$LUPREC
 70
     4
  9
$AXISMODE
 70
     0
  9
$AXISUNIT
 10
0.0
 20
0.0
  9
$SKETCHINC
 40
0.1
  9
$FILLETRAD
 40
0.0
  9
$AUNITS
 70
     0
  9
$AUPREC
 70
     0
  9
$MENU
  1
acad
  9
$ELEVATION
 40
0.0
  9
$PELEVATION
 40
0.0
  9
$THICKNESS
 40
0.0
  9
$LIMCHECK
 70
     0
  9
$BLIPMODE
 70
     1
  9
$CHAMFERA
 40
0.0
  9
$CHAMFERB
 40
0.0
  9
$SKPOLY
 70
     0
  9
$TDCREATE
 40
0.000000000
  9
$TDUPDATE
 40
0.000000000
  9
$TDINDWG
 40
0.0
  9
$TDUSRTIMER
 40
0.0
  9
$USRTIMER
 70
     1
  9
$ANGBASE
 50
0.0
  9
$ANGDIR
 70
     0
  9
$PDMODE
 70
     0
  9
$PDSIZE
 40
0.0
  9
$PLINEWID
 40
0.0
  9
$COORDS
 70
     1
  9
$SPLFRAME
 70
     0
  9
$SPLINETYPE
 70
     6
  9
$SPLINESEGS
 70
     8
  9
$ATTDIA
 70
     0
  9
$ATTREQ
 70
     1
  9
$HANDLING
 70
     1
  9
$HANDSEED
  5
   3DF
  9
$SURFTAB1
 70
     6
  9
$SURFTAB2
 70
     6
  9
$SURFTYPE
 70
     6
  9
$SURFU
 70
     6
  9
$SURFV
 70
     6
  9
$UCSNAME
  2

  9
$UCSORG
 10
0.0
 20
0.0
 30
0.0
  9
$UCSXDIR
 10
1.0
 20
0.0
 30
0.0
  9
$UCSYDIR
 10
0.0
 20
1.0
 30
0.0
  9
$PUCSNAME
  2

  9
$PUCSORG
 10
0.0
 20
0.0
 30
0.0
  9
$PUCSXDIR
 10
1.0
 20
0.0
 30
0.0
  9
$PUCSYDIR
 10
0.0
 20
1.0
 30
0.0
  9
$USERI1
 70
     0
  9
$USERI2
 70
     0
  9
$USERI3
 70
     0
  9
$USERI4
 70
     0
  9
$USERI5
 70
     0
  9
$USERR1
 40
0.0
  9
$USERR2
 40
0.0
  9
$USERR3
 40
0.0
  9
$USERR4
 40
0.0
  9
$USERR5
 40
0.0
  9
$WORLDVIEW
 70
     1
  9
$SHADEDGE
 70
     3
  9
$SHADEDIF
 70
    70
  9
$TILEMODE
 70
     1
  9
$MAXACTVP
 70
    16
  9
$PINSBASE
 10
0.0
 20
0.0
 30
0.0
  9
$PLIMCHECK
 70
     0
  9
$PEXTMIN
 10
1.0E20
 20
1.0E20
 30
1.0E20
  9
$PEXTMAX
 10
-1.0E20
 20
-1.0E20
 30
-1.0E20
  9
$PLIMMIN
 10
0.0
 20
0.0
  9
$PLIMMAX
 10
12.0
 20
9.0
  9
$UNITMODE
 70
     0
  9
$VISRETAIN
 70
     0
  0
ENDSEC
  0
SECTION
  2
TABLES
  0
TABLE
  2
VPORT
 70
     1
  0
VPORT
  2
*ACTIVE
 70
     0
 10
0.0
 20
0.0
 11
1.0
 21
1.0
 12
6.801242
 22
4.5
 13
0.0
 23
0.0
 14
1.0
 24
1.0
 15
0.0
 25
0.0
 16
0.0
 26
0.0
 36
1.0
 17
0.0
 27
0.0
 37
0.0
 40
9.0
 41
1.511387
 42
50.0
 43
0.0
 44
0.0
 50
0.0
 51
0.0
 71
     0
 72
   100
 73
     1
 74
     1
 75
     0
 76
     0
 77
     0
 78
     0
  0
ENDTAB
  0
TABLE
  2
LTYPE
 70
    41
  0
LTYPE
  2
BYBLOCK
 70
     0
  3

 72
    65
 73
     0
 40
0.0
  0
LTYPE
  2
BYLAYER
 70
     0
  3

 72
    65
 73
     0
 40
0.0
  0
LTYPE
  2
CONTINUOUS
 70
     0
  3
Solid line
 72
    65
 73
     0
 40
0.0
  0
LTYPE
  2
BORDER
 70
    64
  3
__ __ . __ __ . __ __ . __ __ . __ __ . __ __ .
 72
    65
 73
     6
 40
1.75
 49
0.5
 49
-0.25
 49
0.5
 49
-0.25
 49
0.0
 49
-0.25
  0
LTYPE
  2
BORDER2
 70
    64
  3
__.__.__.__.__.__.__.__.__.__.__.__.__.__.__.__
 72
    65
 73
     6
 40
0.875
 49
0.25
 49
-0.125
 49
0.25
 49
-0.125
 49
0.0
 49
-0.125
  0
LTYPE
  2
BORDERX2
 70
    64
  3
____  ____  .  ____  ____  .  ____  ____  .  __
 72
    65
 73
     6
 40
3.5
 49
1.0
 49
-0.5
 49
1.0
 49
-0.5
 49
0.0
 49
-0.5
  0
LTYPE
  2
CENTER
 70
    64
  3
____ _ ____ _ ____ _ ____ _ ____ _ ____ _ ____
 72
    65
 73
     4
 40
2.0
 49
1.25
 49
-0.25
 49
0.25
 49
-0.25
  0
LTYPE
  2
CENTER2
 70
    64
  3
___ _ ___ _ ___ _ ___ _ ___ _ ___ _ ___ _ ___ _
 72
    65
 73
     4
 40
1.125
 49
0.75
 49
-0.125
 49
0.125
 49
-0.125
  0
LTYPE
  2
CENTERX2
 70
    64
  3
________  __  ________  __  ________  __  _____
 72
    65
 73
     4
 40
4.0
 49
2.5
 49
-0.5
 49
0.5
 49
-0.5
  0
LTYPE
  2
DASHDOT
 70
    64
  3
__ . __ . __ . __ . __ . __ . __ . __ . __ . __
 72
    65
 73
     4
 40
1.0
 49
0.5
 49
-0.25
 49
0.0
 49
-0.25
  0
LTYPE
  2
DASHDOT2
 70
    64
  3
_._._._._._._._._._._._._._._._._._._._._._._._
 72
    65
 73
     4
 40
0.5
 49
0.25
 49
-0.125
 49
0.0
 49
-0.125
  0
LTYPE
  2
DASHDOTX2
 70
    64
  3
____  .  ____  .  ____  .  ____  .  ____  .  __
 72
    65
 73
     4
 40
2.0
 49
1.0
 49
-0.5
 49
0.0
 49
-0.5
  0
LTYPE
  2
DASHED
 70
    64
  3
__ __ __ __ __ __ __ __ __ __ __ __ __ __ __ __
 72
    65
 73
     2
 40
0.75
 49
0.5
 49
-0.25
  0
LTYPE
  2
DASHED2
 70
    64
  3
_ _ _ _ _ _ _ _ _ _ _ _ _ _ _ _ _ _ _ _ _ _ _ _
 72
    65
 73
     2
 40
0.375
 49
0.25
 49
-0.125
  0
LTYPE
  2
DASHEDX2
 70
    64
  3
____  ____  ____  ____  ____  ____  ____  ____
 72
    65
 73
     2
 40
1.5
 49
1.0
 49
-0.5
  0
LTYPE
  2
DIVIDE
 70
    64
  3
____ . . ____ . . ____ . . ____ . . ____ . . __
 72
    65
 73
     6
 40
1.25
 49
0.5
 49
-0.25
 49
0.0
 49
-0.25
 49
0.0
 49
-0.25
  0
LTYPE
  2
DIVIDE2
 70
    64
  3
__..__..__..__..__..__..__..__..__..__..__..__.
 72
    65
 73
     6
 40
0.625
 49
0.25
 49
-0.125
 49
0.0
 49
-0.125
 49
0.0
 49
-0.125
  0
LTYPE
  2
DIVIDEX2
 70
    64
  3
________  .  .  ________  .  .  ________  .  .
 72
    65
 73
     6
 40
2.5
 49
1.0
 49
-0.5
 49
0.0
 49
-0.5
 49
0.0
 49
-0.5
  0
LTYPE
  2
DOT
 70
    64
  3
. . . . . . . . . . . . . . . . . . . . . . . .
 72
    65
 73
     2
 40
0.25
 49
0.0
 49
-0.25
  0
LTYPE
  2
DOT2
 70
    64
  3
...............................................
 72
    65
 73
     2
 40
0.125
 49
0.0
 49
-0.125
  0
LTYPE
  2
DOTX2
 70
    64
  3
.  .  .  .  .  .  .  .  .  .  .  .  .  .  .  .
 72
    65
 73
     2
 40
0.5
 49
0.0
 49
-0.5
  0
LTYPE
  2
HIDDEN
 70
    64
  3
__ __ __ __ __ __ __ __ __ __ __ __ __ __ __ __
 72
    65
 73
     2
 40
0.375
 49
0.25
 49
-0.125
  0
LTYPE
  2
HIDDEN2
 70
    64
  3
_ _ _ _ _ _ _ _ _ _ _ _ _ _ _ _ _ _ _ _ _ _ _ _
 72
    65
 73
     2
 40
0.1875
 49
0.125
 49
-0.0625
  0
LTYPE
  2
HIDDENX2
 70
    64
  3
____ ____ ____ ____ ____ ____ ____ ____ ____ __
 72
    65
 73
     2
 40
0.75
 49
0.5
 49
-0.25
  0
LTYPE
  2
PHANTOM
 70
    64
  3
______  __  __  ______  __  __  ______  __  __
 72
    65
 73
     6
 40
2.5
 49
1.25
 49
-0.25
 49
0.25
 49
-0.25
 49
0.25
 49
-0.25
  0
LTYPE
  2
PHANTOM2
 70
    64
  3
___ _ _ ___ _ _ ___ _ _ ___ _ _ ___ _ _ ___ _ _
 72
    65
 73
     6
 40
1.25
 49
0.625
 49
-0.125
 49
0.125
 49
-0.125
 49
0.125
 49
-0.125
  0
LTYPE
  2
PHANTOMX2
 70
    64
  3
____________    ____    ____    ____________
 72
    65
 73
     6
 40
5.0
 49
2.5
 49
-0.5
 49
0.5
 49
-0.5
 49
0.5
 49
-0.5
  0
LTYPE
  2
ACAD_ISO02W100
 70
    64
  3
__ __ __ __ __ __ __ __ __ __ __ __ __ __ __ __
 72
    65
 73
     2
 40
15.0
 49
12.0
 49
-3.0
  0
LTYPE
  2
ACAD_ISO03W100
 70
    64
  3
__    __    __    __    __    __    __    __
 72
    65
 73
     2
 40
30.0
 49
12.0
 49
-18.0
  0
LTYPE
  2
ACAD_ISO04W100
 70
    64
  3
____ . ____ . ____ . ____ . ____ . ____ . ____
 72
    65
 73
     4
 40
30.5
 49
24.0
 49
-3.0
 49
0.5
 49
-3.0
  0
LTYPE
  2
ACAD_ISO05W100
 70
    64
  3
____ .. ____ .. ____ .. ____ .. ____ .. ____ ..
 72
    65
 73
     6
 40
34.0
 49
24.0
 49
-3.0
 49
0.5
 49
-3.0
 49
0.5
 49
-3.0
  0
LTYPE
  2
ACAD_ISO06W100
 70
    64
  3
____ ... ____ ... ____ ... ____ ... ____ ... __
 72
    65
 73
     8
 40
37.5
 49
24.0
 49
-3.0
 49
0.5
 49
-3.0
 49
0.5
 49
-3.0
 49
0.5
 49
-3.0
  0
LTYPE
  2
ACAD_ISO07W100
 70
    64
  3
. . . . . . . . . . . . . . . . . . . . . . . .
 72
    65
 73
     2
 40
3.5
 49
0.5
 49
-3.0
  0
LTYPE
  2
ACAD_ISO08W100
 70
    64
  3
____ __ ____ __ ____ __ ____ ____ __ __ ____ __
 72
    65
 73
     4
 40
36.0
 49
24.0
 49
-3.0
 49
6.0
 49
-3.0
  0
LTYPE
  2
ACAD_ISO09W100
 70
    64
  3
____ __ __ ____ __ __ ____ __ __ ____ __ __ ___
 72
    65
 73
     6
 40
45.0
 49
24.0
 49
-3.0
 49
6.0
 49
-3.0
 49
6.0
 49
-3.0
  0
LTYPE
  2
ACAD_ISO10W100
 70
    64
  3
__ . __ . __ . __ . __ . __ . __ . __ . __ . __
 72
    65
 73
     4
 40
18.5
 49
12.0
 49
-3.0
 49
0.5
 49
-3.0
  0
LTYPE
  2
ACAD_ISO11W100
 70
    64
  3
__ __ . __ __ . __ __ . __ __ . __ __ . __ __ .
 72
    65
 73
     6
 40
33.5
 49
12.0
 49
-3.0
 49
12.0
 49
-3.0
 49
0.5
 49
-3.0
  0
LTYPE
  2
ACAD_ISO12W100
 70
    64
  3
__ . . __ . . __ . . __ . . __ . . __ . . __ .
 72
    65
 73
     6
 40
22.0
 49
12.0
 49
-3.0
 49
0.5
 49
-3.0
 49
0.5
 49
-3.0
  0
LTYPE
  2
ACAD_ISO13W100
 70
    64
  3
__ __ . . __ __ . . __ __ . . __ __ . . __ __ .
 72
    65
 73
     8
 40
37.0
 49
12.0
 49
-3.0
 49
12.0
 49
-3.0
 49
0.5
 49
-3.0
 49
0.5
 49
-3.0
  0
LTYPE
  2
ACAD_ISO14W100
 70
    64
  3
__ . . . __ . . . __ . . . __ . . . __ . . . __
 72
    65
 73
     8
 40
25.5
 49
12.0
 49
-3.0
 49
0.5
 49
-3.0
 49
0.5
 49
-3.0
 49
0.5
 49
-3.0
  0
LTYPE
  2
ACAD_ISO15W100
 70
    64
  3
__ __ . . . __ __ . . . __ __ . . . __ __ . . .
 72
    65
 73
    10
 40
40.5
 49
12.0
 49
-3.0
 49
12.0
 49
-3.0
 49
0.5
 49
-3.0
 49
0.5
 49
-3.0
 49
0.5
 49
-3.0
  0
ENDTAB
  0
TABLE
  2
STYLE
 70
     4
  0
STYLE
  2
STANDARD
 70
    64
 40
0.0
 41
1.0
 50
0.0
 71
     0
 42
0.2
  3
txt
  4

  0
STYLE
  2
TOLERANCE
 70
    64
 40
0.0
 41
1.0
 50
0.0
 71
     0
 42
0.2
  3
../igesfont/iges1003.shx
  4

  0
STYLE
  2
ROMANS
 70
    64
 40
0.0
 41
1.0
 50
0.0
 71
     0
 42
0.2
  3
romans.shx
  4

  0
STYLE
  2
ROMANC
 70
    64
 40
0.0
 41
1.0
 50
0.0
 71
     0
 42
0.2
  3
romanc.shx
  4

  0
ENDTAB
  0
TABLE
  2
DIMSTYLE
 70
     2
  0
DIMSTYLE
  2
UNNAMED
 70
     0
  3

  4

  5

  6

  7

 40
1.0
 41
0.18
 42
0.0625
 43
0.38
 44
0.18
 45
0.0
 46
0.0
 47
0.0
 48
0.0
140
0.18
141
0.09
142
0.0
143
25.4
144
1.0
145
0.0
146
1.0
147
0.09
 71
     0
 72
     0
 73
     1
 74
     1
 75
     0
 76
     0
 77
     0
 78
     0
170
     0
171
     2
172
     0
173
     0
174
     0
175
     0
176
     0
177
     0
178
     0
  0
DIMSTYLE
  2
STANDARD
 70
     0
  3

  4

  5

  6

  7

 40
1.0
 41
0.18
 42
0.0625
 43
0.38
 44
0.18
 45
0.0
 46
0.0
 47
0.0
 48
0.0
140
0.18
141
0.09
142
0.0
143
25.4
144
1.0
145
0.0
146
1.0
147
0.09
 71
     0
 72
     0
 73
     1
 74
     1
 75
     0
 76
     0
 77
     0
 78
     0
170
     0
171
     2
172
     0
173
     0
174
     0
175
     0
176
     0
177
     0
178
     0
  0
ENDTAB
  0
TABLE
  2
LAYER
 70
     2
  0
LAYER
  2
0
 70
     0
 62
     7
  6
CONTINUOUS
  0
LAYER
  2
255
 70
     0
 62
     7
  6
CONTINUOUS
  0
ENDTAB
  0
ENDSEC
  0
SECTION
  2
BLOCKS
  0
BLOCK
  5
     B
  8
0
  6
CONTINUOUS
 62
     7
  2
FRTESTR
 70
    64
 10
0.0
 20
0.0
 30
0.0
  3
FRTESTR
  0
LINE
  5
     C
  8
0
  6
CONTINUOUS
 62
     3
 10
175.338287353516
 20
49.2370338439941
 30
0.0
 11
175.338287353516
 21
53.7370376586914
 31
0.0
  0
LINE
  5
     D
  8
0
  6
CONTINUOUS
 62
     3
 10
167.338272094727
 20
181.237045288086
 30
0.0
 11
167.338272094727
 21
185.237060546875
 31
0.0
  0
LINE
  5
     E
  8
0
  6
DOT
 62
   130
 10
167.338136930918
 20
185.237045288086
 30
0.0
 11
197.838287353516
 21
185.237045288086
 31
0.0
  0
LINE
  5
     F
  8
0
  6
CONTINUOUS
 62
   130
 10
175.338195800781
 20
77.4869995117187
 30
0.0
 11
175.338195800781
 21
87.9869995117187
 31
0.0
  0
LINE
  5
    10
  8
0
  6
CONTINUOUS
 62
   130
 10
175.338195800781
 20
129.237014770508
 30
0.0
 11
175.338195800781
 21
153.237060546875
 31
0.0
  0
LINE
  5
    11
  8
0
  6
DOT
 62
   130
 10
167.338136930918
 20
40.4870300292969
 30
0.0
 11
197.838303130013
 21
40.4870300292969
 31
0.0
  0
LINE
  5
    12
  8
0
  6
CONTINUOUS
 62
     3
 10
175.338302612305
 20
164.737060546875
 30
0.0
 11
175.338302612305
 21
171.987060546875
 31
0.0
  0
LINE
  5
    13
  8
0
  6
DOT
 62
   130
 10
197.838307542746
 20
40.4870300292969
 30
0.0
 11
197.838307542746
 21
185.237045288088
 31
0.0
  0
LINE
  5
    14
  8
0
  6
DOT
 62
   130
 10
198.838287353516
 20
98.2369995117188
 30
0.0
 11
198.838287353516
 21
118.236999511719
 31
0.0
  0
LINE
  5
    15
  8
0
  6
CONTINUOUS
 62
   130
 10
174.338302612305
 20
87.9869995117187
 30
0.0
 11
174.338302612305
 21
123.237014770508
 31
0.0
  0
LINE
  5
    16
  8
0
  6
CONTINUOUS
 62
     3
 10
174.338302612305
 20
64.2370452880859
 30
0.0
 11
174.338302612305
 21
69.2370071411133
 31
0.0
  0
LINE
  5
    17
  8
0
  6
DOT
 62
   130
 10
197.838302612305
 20
118.236999511719
 30
0.0
 11
198.838287353516
 21
118.236999511719
 31
0.0
  0
LINE
  5
    18
  8
0
  6
DOT
 62
   130
 10
197.838287353516
 20
98.2369995117188
 30
0.0
 11
198.838287353516
 21
98.2369995117188
 31
0.0
  0
LINE
  5
    19
  8
0
  6
CONTINUOUS
 62
     5
 10
167.191853996356
 20
58.1335071470874
 30
0.0
 11
167.338307854537
 21
58.4870609258639
 31
0.0
  0
LINE
  5
    1A
  8
0
  6
CONTINUOUS
 62
     3
 10
163.838285814719
 20
72.4074177335751
 30
0.0
 11
164.191831948319
 21
72.5538639618185
 31
0.0
  0
LINE
  5
    1B
  8
0
  6
CONTINUOUS
 62
     3
 10
164.191854151671
 20
72.5538760126922
 30
0.0
 11
164.338308009852
 21
72.9074297914687
 31
0.0
  0
LINE
  5
    1C
  8
0
  6
CONTINUOUS
 62
     3
 10
164.191852759365
 20
84.260981163616
 30
0.0
 11
164.338306617545
 21
83.9074273848396
 31
0.0
  0
LINE
  5
    1D
  8
0
  6
CONTINUOUS
 62
   130
 10
174.338302612305
 20
69.2370071411133
 30
0.0
 11
174.338302612305
 21
77.4869995117187
 31
0.0
  0
CIRCLE
  5
    1E
  8
0
  6
CONTINUOUS
 62
   130
 10
184.338333544337
 20
82.7370112096181
 30
0.0
 40
5.24998094314796
  0
LINE
  5
    1F
  8
0
  6
DASHDOT
 62
     7
 10
184.338333544337
 20
74.4870302664702
 30
0.0
 11
184.338333544337
 21
90.9869921527661
 31
0.0
  0
LINE
  5
    20
  8
0
  6
DASHDOT
 62
     7
 10
176.088352601189
 20
82.7370112096182
 30
0.0
 11
192.588314487485
 21
82.7370112096182
 31
0.0
  0
LINE
  5
    21
  8
0
  6
DOT
 62
   130
 10
167.338136930918
 20
29.9868076623477
 30
0.0
 11
167.338136930918
 21
57.9868245183649
 31
0.0
  0
LINE
  5
    22
  8
0
  6
DOT
 62
   130
 10
167.338136930918
 20
162.986807484462
 30
0.0
 11
167.338136930918
 21
190.980505782465
 31
0.0
  0
LINE
  5
    23
  8
0
  6
CONTINUOUS
 62
     2
 10
175.33813789222
 20
75.7368076623477
 30
0.0
 11
210.83813789222
 21
75.7368076623477
 31
0.0
  0
LINE
  5
    24
  8
0
  6
CONTINUOUS
 62
     2
 10
175.33813789222
 20
90.7368076623477
 30
0.0
 11
210.83813789222
 21
90.7368076623477
 31
0.0
  0
LINE
  5
    25
  8
0
  6
CONTINUOUS
 62
     2
 10
210.83813789222
 20
74.7368076623478
 30
0.0
 11
210.83813789222
 21
91.7368076623477
 31
0.0
  0
LINE
  5
    26
  8
0
  6
CONTINUOUS
 62
     2
 10
175.33813789222
 20
75.7368076623477
 30
0.0
 11
175.33813789222
 21
90.7368076623477
 31
0.0
  0
LINE
  5
    27
  8
0
  6
CONTINUOUS
 62
     2
 10
210.83813789222
 20
91.7368076623477
 30
0.0
 11
210.83813789222
 21
190.980505782465
 31
0.0
  0
LINE
  5
    28
  8
0
  6
CONTINUOUS
 62
     2
 10
210.83813789222
 20
29.9868076623477
 30
0.0
 11
210.83813789222
 21
74.7368038476505
 31
0.0
  0
LINE
  5
    29
  8
0
  6
CONTINUOUS
 62
     2
 10
36.3381340775223
 20
29.9868076623477
 30
0.0
 11
210.83813789222
 21
29.9868076623477
 31
0.0
  0
LINE
  5
    2A
  8
0
  6
CONTINUOUS
 62
     2
 10
36.3381340775223
 20
29.9868076623477
 30
0.0
 11
36.3381340775223
 21
190.980505782465
 31
0.0
  0
LINE
  5
    2B
  8
0
  6
CONTINUOUS
 62
     2
 10
175.33813789222
 20
169.986807662348
 30
0.0
 11
175.33813789222
 21
170.986807662348
 31
0.0
  0
LINE
  5
    2C
  8
0
  6
CONTINUOUS
 62
     2
 10
45.3381340775223
 20
169.986807662348
 30
0.0
 11
45.3381340775223
 21
170.986807662348
 31
0.0
  0
LINE
  5
    2D
  8
0
  6
CONTINUOUS
 62
     2
 10
175.33813789222
 20
49.9868076623477
 30
0.0
 11
175.33813789222
 21
50.9868076623478
 31
0.0
  0
LINE
  5
    2E
  8
0
  6
CONTINUOUS
 62
     2
 10
46.3381340775223
 20
49.9868076623477
 30
0.0
 11
174.338134077522
 21
49.9868076623477
 31
0.0
  0
LINE
  5
    2F
  8
0
  6
CONTINUOUS
 62
     2
 10
45.3381340775223
 20
49.9868076623477
 30
0.0
 11
45.3381340775223
 21
50.9868076623477
 31
0.0
  0
LINE
  5
    30
  8
0
  6
CONTINUOUS
 62
     2
 10
174.33813789222
 20
29.9868076623477
 30
0.0
 11
174.33813789222
 21
49.9868076623477
 31
0.0
  0
LINE
  5
    31
  8
0
  6
CONTINUOUS
 62
     2
 10
175.33813789222
 20
170.986807662348
 30
0.0
 11
175.33813789222
 21
190.986807662348
 31
0.0
  0
LINE
  5
    32
  8
0
  6
CONTINUOUS
 62
     2
 10
175.33813789222
 20
50.9868076623478
 30
0.0
 11
175.33813789222
 21
74.7368076623478
 31
0.0
  0
LINE
  5
    33
  8
0
  6
CONTINUOUS
 62
     2
 10
175.33813789222
 20
91.7368076623477
 30
0.0
 11
175.33813789222
 21
169.986807662348
 31
0.0
  0
LINE
  5
    34
  8
0
  6
CONTINUOUS
 62
     2
 10
175.33813789222
 20
29.9868076623477
 30
0.0
 11
175.33813789222
 21
49.9868076623477
 31
0.0
  0
LINE
  5
    35
  8
0
  6
CONTINUOUS
 62
     2
 10
45.3381340775223
 20
170.986807662348
 30
0.0
 11
45.3381340775223
 21
190.986807662348
 31
0.0
  0
LINE
  5
    36
  8
0
  6
CONTINUOUS
 62
     2
 10
45.3381340775223
 20
50.9868076623477
 30
0.0
 11
45.3381340775223
 21
169.986807662348
 31
0.0
  0
LINE
  5
    37
  8
0
  6
CONTINUOUS
 62
     2
 10
45.3381340775223
 20
29.9868076623477
 30
0.0
 11
45.3381340775223
 21
49.9868076623477
 31
0.0
  0
LINE
  5
    38
  8
0
  6
CONTINUOUS
 62
     2
 10
46.3381340775223
 20
29.9868076623477
 30
0.0
 11
46.3381340775223
 21
49.9868076623477
 31
0.0
  0
LINE
  5
    39
  8
0
  6
CONTINUOUS
 62
     2
 10
175.33813789222
 20
74.7368076623477
 30
0.0
 11
210.83813789222
 21
74.7368076623477
 31
0.0
  0
LINE
  5
    3A
  8
0
  6
CONTINUOUS
 62
     2
 10
175.33813789222
 20
91.7368076623477
 30
0.0
 11
210.83813789222
 21
91.7368076623477
 31
0.0
  0
LINE
  5
    3B
  8
0
  6
CONTINUOUS
 62
     2
 10
175.388140943977
 20
90.7368076623477
 30
0.0
 11
175.388140943977
 21
91.7368076623477
 31
0.0
  0
LINE
  5
    3C
  8
0
  6
CONTINUOUS
 62
     2
 10
175.388140943977
 20
74.7368076623478
 30
0.0
 11
175.388140943977
 21
75.7368076623477
 31
0.0
  0
LINE
  5
    3D
  8
0
  6
CONTINUOUS
 62
     2
 10
46.3381340775223
 20
169.986807662348
 30
0.0
 11
174.338134077522
 21
169.986807662348
 31
0.0
  0
LINE
  5
    3E
  8
0
  6
CONTINUOUS
 62
     2
 10
46.3381340775223
 20
50.9868076623477
 30
0.0
 11
174.338134077522
 21
50.9868076623477
 31
0.0
  0
LINE
  5
    3F
  8
0
  6
CONTINUOUS
 62
     2
 10
174.33813789222
 20
50.9868076623478
 30
0.0
 11
174.33813789222
 21
169.986807662348
 31
0.0
  0
LINE
  5
    40
  8
0
  6
CONTINUOUS
 62
     2
 10
46.3381340775223
 20
50.9868076623477
 30
0.0
 11
46.3381340775223
 21
169.986807662348
 31
0.0
  0
LINE
  5
    41
  8
0
  6
CONTINUOUS
 62
     2
 10
167.338135984871
 20
162.986806538415
 30
0.0
 11
174.338132316581
 21
169.986802870125
 31
0.0
  0
LINE
  5
    42
  8
0
  6
CONTINUOUS
 62
     2
 10
46.3381356602671
 20
169.986809526682
 30
0.0
 11
62.338135984871
 21
162.457400151209
 31
0.0
  0
LINE
  5
    43
  8
0
  6
CONTINUOUS
 62
     2
 10
167.338135984871
 20
57.9868254644128
 30
0.0
 11
174.338155138938
 21
50.9868027700006
 31
0.0
  0
LINE
  5
    44
  8
0
  6
CONTINUOUS
 62
     2
 10
46.3381386778443
 20
50.986809283945
 30
0.0
 11
62.338135984871
 21
58.5162208973637
 31
0.0
  0
LINE
  5
    45
  8
0
  6
CONTINUOUS
 62
     2
 10
174.338076857063
 20
170.980505782465
 30
0.0
 11
174.338076857063
 21
190.980505782465
 31
0.0
  0
LINE
  5
    46
  8
0
  6
CONTINUOUS
 62
     2
 10
45.3381340775223
 20
170.980505782465
 30
0.0
 11
175.33813789222
 21
170.980505782465
 31
0.0
  0
LINE
  5
    47
  8
0
  6
CONTINUOUS
 62
     2
 10
36.3381340775223
 20
190.980505782465
 30
0.0
 11
45.3381340775223
 21
190.980505782465
 31
0.0
  0
LINE
  5
    48
  8
0
  6
CONTINUOUS
 62
     2
 10
115.343405041228
 20
190.980505782465
 30
0.0
 11
175.33813789222
 21
190.980505782465
 31
0.0
  0
ARC
  5
    49
  8
0
  6
CONTINUOUS
 62
     2
 10
110.338105467293
 20
195.127691142981
 30
0.0
 40
6.50016693934245
 50
219.643748317915
 51
320.356251682085
  0
LINE
  5
    4A
  8
0
  6
CONTINUOUS
 62
     2
 10
105.332805893357
 20
190.980505782465
 30
0.0
 11
115.343405041228
 21
190.980505782465
 31
0.0
  0
LINE
  5
    4B
  8
0
  6
CONTINUOUS
 62
     2
 10
46.3381340775223
 20
170.986807662348
 30
0.0
 11
46.3381340775223
 21
190.986807662348
 31
0.0
  0
LINE
  5
    4C
  8
0
  6
CONTINUOUS
 62
     2
 10
45.3381340775223
 20
190.980505782465
 30
0.0
 11
105.332805893357
 21
190.980505782465
 31
0.0
  0
LINE
  5
    4D
  8
0
  6
CONTINUOUS
 62
     2
 10
175.33813789222
 20
190.980505782465
 30
0.0
 11
210.83813789222
 21
190.980505782465
 31
0.0
  0
POINT
  5
    4E
  8
0
  6
CONTINUOUS
 62
     2
 10
114.838135984871
 20
110.486807662348
 30
0.0
  0
ENDBLK
  5
    4F
  8
0
  6
CONTINUOUS
 62
     7
  0
BLOCK
  5
    50
  8
0
  6
CONTINUOUS
 62
     7
  2
MIC_MOT
 70
    64
 10
0.0
 20
0.0
 30
0.0
  3
MIC_MOT
  0
LINE
  5
    51
  8
0
  6
CONTINUOUS
 62
     7
 10
-52.0
 20
52.5
 30
0.0
 11
52.0
 21
52.5
 31
0.0
  0
LINE
  5
    52
  8
0
  6
CONTINUOUS
 62
     7
 10
-52.0
 20
-52.5
 30
0.0
 11
52.0
 21
-52.5
 31
0.0
  0
LINE
  5
    53
  8
0
  6
CONTINUOUS
 62
     7
 10
-52.5
 20
-52.0
 30
0.0
 11
-52.5
 21
52.0
 31
0.0
  0
LINE
  5
    54
  8
0
  6
CONTINUOUS
 62
     7
 10
52.5
 20
-52.0
 30
0.0
 11
52.5
 21
52.0
 31
0.0
  0
ARC
  5
    55
  8
0
  6
CONTINUOUS
 62
     7
 10
-52.0
 20
52.0
 30
0.0
 40
0.5
 50
90.0
 51
180.0
  0
ARC
  5
    56
  8
0
  6
CONTINUOUS
 62
     7
 10
52.0
 20
52.0
 30
0.0
 40
0.5
 50
0.0
 51
90.0
  0
ARC
  5
    57
  8
0
  6
CONTINUOUS
 62
     7
 10
52.0
 20
-52.0
 30
0.0
 40
0.5
 50
270.0
 51
360.0
  0
ARC
  5
    58
  8
0
  6
CONTINUOUS
 62
     7
 10
-52.0
 20
-52.0
 30
0.0
 40
0.5
 50
180.0
 51
270.0
  0
LINE
  5
    59
  8
0
  6
CONTINUOUS
 62
     7
 10
-51.75
 20
51.75
 30
0.0
 11
51.75
 21
51.75
 31
0.0
  0
LINE
  5
    5A
  8
0
  6
CONTINUOUS
 62
     7
 10
-51.75
 20
-51.75
 30
0.0
 11
51.75
 21
-51.75
 31
0.0
  0
LINE
  5
    5B
  8
0
  6
CONTINUOUS
 62
     7
 10
-51.75
 20
-51.75
 30
0.0
 11
-51.75
 21
51.75
 31
0.0
  0
LINE
  5
    5C
  8
0
  6
CONTINUOUS
 62
     7
 10
51.75
 20
-51.75
 30
0.0
 11
51.75
 21
51.75
 31
0.0
  0
LINE
  5
    5D
  8
0
  6
CONTINUOUS
 62
     7
 10
-51.75
 20
40.5
 30
0.0
 11
51.75
 21
40.5
 31
0.0
  0
LINE
  5
    5E
  8
0
  6
CONTINUOUS
 62
     7
 10
-51.75
 20
50.5
 30
0.0
 11
51.75
 21
50.5
 31
0.0
  0
LINE
  5
    5F
  8
0
  6
CONTINUOUS
 62
     7
 10
18.0
 20
-51.75
 30
0.0
 11
18.0
 21
40.5
 31
0.0
  0
LINE
  5
    60
  8
0
  6
CONTINUOUS
 62
     7
 10
48.0
 20
-51.75
 30
0.0
 11
48.0
 21
40.5
 31
0.0
  0
LINE
  5
    61
  8
0
  6
CONTINUOUS
 62
     7
 10
17.0
 20
-51.75
 30
0.0
 11
17.0
 21
40.5
 31
0.0
  0
LINE
  5
    62
  8
0
  6
CONTINUOUS
 62
     7
 10
49.0
 20
-51.75
 30
0.0
 11
49.0
 21
40.5
 31
0.0
  0
CIRCLE
  5
    63
  8
0
  6
CONTINUOUS
 62
     7
 10
33.0
 20
22.0
 30
0.0
 40
10.75
  0
CIRCLE
  5
    64
  8
0
  6
CONTINUOUS
 62
     7
 10
33.0
 20
-27.3
 30
0.0
 40
10.75
  0
ARC
  5
    65
  8
0
  6
CONTINUOUS
 62
     7
 10
-20.25
 20
-23.0
 30
0.0
 40
5.25
 50
0.0
 51
180.0
  0
ARC
  5
    66
  8
0
  6
CONTINUOUS
 62
     7
 10
-20.25
 20
-33.0
 30
0.0
 40
5.25
 50
1.56165987539836
 51
360.0
  0
LINE
  5
    67
  8
0
  6
CONTINUOUS
 62
     7
 10
-15.0
 20
-33.0
 30
0.0
 11
-15.0
 21
-23.0
 31
0.0
  0
LINE
  5
    68
  8
0
  6
CONTINUOUS
 62
     7
 10
-25.5
 20
-33.0
 30
0.0
 11
-25.5
 21
-23.0
 31
0.0
  0
LINE
  5
    69
  8
0
  6
CONTINUOUS
 62
     7
 10
-25.4038820320221
 20
-32.0
 30
0.0
 11
-15.0961179679779
 21
-32.0
 31
0.0
  0
LINE
  5
    6A
  8
0
  6
CONTINUOUS
 62
     7
 10
-25.4038820320221
 20
-34.0
 30
0.0
 11
-15.0961179679779
 21
-34.0
 31
0.0
  0
LINE
  5
    6B
  8
0
  6
CONTINUOUS
 62
     7
 10
40.25
 20
8.75
 30
0.0
 11
42.75
 21
8.75
 31
0.0
  0
LINE
  5
    6C
  8
0
  6
CONTINUOUS
 62
     7
 10
40.25
 20
-8.75
 30
0.0
 11
42.75
 21
-8.75
 31
0.0
  0
LINE
  5
    6D
  8
0
  6
CONTINUOUS
 62
     7
 10
40.25
 20
-8.75
 30
0.0
 11
40.25
 21
8.75
 31
0.0
  0
LINE
  5
    6E
  8
0
  6
CONTINUOUS
 62
     7
 10
42.75
 20
-8.75
 30
0.0
 11
42.75
 21
8.75
 31
0.0
  0
LINE
  5
    6F
  8
0
  6
CONTINUOUS
 62
     1
 10
-32.25
 20
32.0
 30
0.0
 11
-32.25
 21
38.3600093632938
 31
0.0
  0
LINE
  5
    70
  8
0
  6
CONTINUOUS
 62
     1
 10
-32.25
 20
32.0
 30
0.0
 11
-25.75
 21
32.0
 31
0.0
  0
LINE
  5
    71
  8
0
  6
CONTINUOUS
 62
     1
 10
-25.75
 20
-6.87467277262665
 30
0.0
 11
-25.75
 21
32.0
 31
0.0
  0
ARC
  5
    72
  8
0
  6
CONTINUOUS
 62
     1
 10
-20.25
 20
17.0
 30
0.0
 40
23.0
 50
146.0
 51
256.164776385962
  0
ARC
  5
    73
  8
0
  6
CONTINUOUS
 62
     1
 10
-20.25
 20
17.0
 30
0.0
 40
24.5
 50
119.327168765378
 51
257.027121849249
  0
LINE
  5
    74
  8
0
  6
CONTINUOUS
 62
     1
 10
-40.5614205275985
 20
30.7002261350333
 30
0.0
 11
-39.317864168766
 21
29.8614367798272
 31
0.0
  0
LINE
  5
    75
  8
0
  6
CONTINUOUS
 62
     1
 10
-39.25
 20
17.0
 30
0.0
 11
-31.75
 21
24.5
 31
0.0
  0
LINE
  5
    76
  8
0
  6
CONTINUOUS
 62
     1
 10
-39.25
 20
17.0
 30
0.0
 11
-31.75
 21
9.49999999999999
 31
0.0
  0
LINE
  5
    77
  8
0
  6
CONTINUOUS
 62
     1
 10
-31.75
 20
9.5
 30
0.0
 11
-31.75
 21
24.5
 31
0.0
  0
ARC
  5
    78
  8
0
  6
CONTINUOUS
 62
     1
 10
-20.25
 20
17.0
 30
0.0
 40
22.5
 50
284.149004508935
 51
435.850995491065
  0
LINE
  5
    79
  8
0
  6
CONTINUOUS
 62
     1
 10
-14.75
 20
-4.81742422927143
 30
0.0
 11
-14.75
 21
38.8174242292714
 31
0.0
  0
LINE
  5
    7A
  8
0
  6
CONTINUOUS
 62
     1
 10
-14.75
 20
25.0
 30
0.0
 11
0.779740844813091
 21
25.0
 31
0.0
  0
LINE
  5
    7B
  8
0
  6
CONTINUOUS
 62
     1
 10
-14.75
 20
9.0
 30
0.0
 11
0.779740844813091
 21
9.0
 31
0.0
  0
LINE
  5
    7C
  8
0
  6
CONTINUOUS
 62
     1
 10
-15.25
 20
-4.9374109684803
 30
0.0
 11
-15.25
 21
38.9374109684803
 31
0.0
  0
LINE
  5
    7D
  8
0
  6
CONTINUOUS
 62
     1
 10
-24.25
 20
-11.0
 30
0.0
 11
-24.25
 21
38.2896688560438
 31
0.0
  0
ARC
  5
    7E
  8
0
  6
CONTINUOUS
 62
     1
 10
-20.25
 20
17.0
 30
0.0
 40
22.5
 50
77.1604115930958
 51
87.4526818174296
  0
LINE
  5
    7F
  8
0
  6
CONTINUOUS
 62
     1
 10
-19.25
 20
-5.47776679298902
 30
0.0
 11
-19.25
 21
39.477766792989
 31
0.0
  0
LINE
  5
    80
  8
0
  6
CONTINUOUS
 62
     1
 10
-21.25
 20
-11.0
 30
0.0
 11
-21.25
 21
39.477766792989
 31
0.0
  0
ARC
  5
    81
  8
0
  6
CONTINUOUS
 62
     1
 10
-20.25
 20
17.0
 30
0.0
 40
22.5
 50
92.5473181825704
 51
116.387799961243
  0
ARC
  5
    82
  8
0
  6
CONTINUOUS
 62
     1
 10
-20.25
 20
17.0
 30
0.0
 40
22.5
 50
259.759651678814
 51
267.45268181743
  0
LINE
  5
    83
  8
0
  6
CONTINUOUS
 62
     1
 10
-21.25
 20
35.5
 30
0.0
 11
-19.25
 21
35.5
 31
0.0
  0
LINE
  5
    84
  8
0
  6
CONTINUOUS
 62
     1
 10
-21.25
 20
-1.5
 30
0.0
 11
-19.25
 21
-1.5
 31
0.0
  0
LINE
  5
    85
  8
0
  6
CONTINUOUS
 62
     1
 10
-30.25
 20
34.0
 30
0.0
 11
-30.25
 21
37.1556443707464
 31
0.0
  0
LINE
  5
    86
  8
0
  6
CONTINUOUS
 62
     1
 10
-29.25
 20
33.0
 30
0.0
 11
-24.25
 21
33.0
 31
0.0
  0
ARC
  5
    87
  8
0
  6
CONTINUOUS
 62
     1
 10
-29.25
 20
34.0
 30
0.0
 40
1.0
 50
180.0
 51
270.0
  0
ARC
  5
    88
  8
0
  6
CONTINUOUS
 62
     1
 10
-23.25
 20
38.2896688560438
 30
0.0
 40
1.0
 50
98.0209328752446
 51
180.0
  0
LINE
  5
    89
  8
0
  6
CONTINUOUS
 62
     1
 10
-24.25
 20
-11.0
 30
0.0
 11
-21.25
 21
-11.0
 31
0.0
  0
ARC
  5
    8A
  8
0
  6
CONTINUOUS
 62
     1
 10
-20.25
 20
17.0
 30
0.0
 40
22.5
 50
272.54731818257
 51
282.839588406904
  0
CIRCLE
  5
    8B
  8
0
  6
CONTINUOUS
 62
     7
 10
-47.5
 20
17.0
 30
0.0
 40
2.5
  0
CIRCLE
  5
    8C
  8
0
  6
CONTINUOUS
 62
     7
 10
-47.5
 20
17.0
 30
0.0
 40
1.5
  0
LINE
  5
    8D
  8
0
  6
CONTINUOUS
 62
     7
 10
-21.25
 20
-14.25
 30
0.0
 11
-21.25
 21
-6.25
 31
0.0
  0
LINE
  5
    8E
  8
0
  6
CONTINUOUS
 62
     7
 10
-19.25
 20
-14.25
 30
0.0
 11
-19.25
 21
-6.25
 31
0.0
  0
LINE
  5
    8F
  8
0
  6
CONTINUOUS
 62
     7
 10
-21.25
 20
-6.25
 30
0.0
 11
-19.25
 21
-6.25
 31
0.0
  0
LINE
  5
    90
  8
0
  6
CONTINUOUS
 62
     7
 10
-21.25
 20
-14.25
 30
0.0
 11
-19.25
 21
-14.25
 31
0.0
  0
POINT
  5
    91
  8
0
  6
CONTINUOUS
 62
     7
 10
0.0
 20
0.0
 30
0.0
  0
ENDBLK
  5
    92
  8
0
  6
CONTINUOUS
 62
     7
  0
BLOCK
  5
    93
  8
0
  6
CONTINUOUS
 62
     7
  2
*UDIM308
 70
    65
 10
0.0
 20
0.0
 30
0.0
  3
*UDIM308
  0
TEXT
  5
    94
  8
0
  6
CONTINUOUS
 62
     7
 10
226.21499777219
 20
45.3162332605633
 30
0.0
 40
2.99999994933605
  1
140
 50
359.999999948034
 41
0.933333333333333
 72
     1
 11
230.11499770768
 21
46.8162332317138
 31
0.0
 73
     2
  0
LINE
  5
    95
  8
0
  6
CONTINUOUS
 62
     7
 10
258.390014073276
 20
51.9769267759238
 30
0.0
 11
258.390014073276
 21
42.3162332570457
 31
0.0
  0
LINE
  5
    96
  8
0
  6
CONTINUOUS
 62
     7
 10
202.389984497405
 20
51.9768809558775
 30
0.0
 11
202.389984497405
 21
42.3162332570457
 31
0.0
  0
LINE
  5
    97
  8
0
  6
CONTINUOUS
 62
     7
 10
258.390014073276
 20
44.3162332570457
 30
0.0
 11
202.389984497405
 21
44.3162332570457
 31
0.0
  0
LINE
  5
    98
  8
0
  6
CONTINUOUS
 62
     7
 10
255.435590796069
 20
43.7952888270941
 30
0.0
 11
258.390014073276
 21
44.3162332570457
 31
0.0
  0
LINE
  5
    99
  8
0
  6
CONTINUOUS
 62
     7
 10
258.390014073276
 20
44.3162332570457
 30
0.0
 11
255.435590796069
 21
44.8371776869974
 31
0.0
  0
LINE
  5
    9A
  8
0
  6
CONTINUOUS
 62
     7
 10
205.344407774612
 20
44.8371776869974
 30
0.0
 11
202.389984497405
 21
44.3162332570457
 31
0.0
  0
LINE
  5
    9B
  8
0
  6
CONTINUOUS
 62
     7
 10
202.389984497405
 20
44.3162332570457
 30
0.0
 11
205.344407774612
 21
43.7952888270941
 31
0.0
  0
ENDBLK
  5
    9C
  8
0
  6
CONTINUOUS
 62
     7
  0
BLOCK
  5
    9D
  8
0
  6
CONTINUOUS
 62
     7
  2
*UDIM309
 70
    65
 10
0.0
 20
0.0
 30
0.0
  3
*UDIM309
  0
TEXT
  5
    9E
  8
0
  6
CONTINUOUS
 62
     7
 10
251.415036268579
 20
35.4176735414881
 30
0.0
 40
2.99999994933605
  1
84
 50
359.999999948034
 41
0.933333333333333
 72
     1
 11
253.915036227712
 21
36.9176735139012
 31
0.0
 73
     2
  0
LINE
  5
    9F
  8
0
  6
CONTINUOUS
 62
     7
 10
270.990060437786
 20
80.6769619742045
 30
0.0
 11
270.990060437786
 21
32.4176735392332
 31
0.0
  0
LINE
  5
    A0
  8
0
  6
CONTINUOUS
 62
     7
 10
237.389999389648
 20
47.3633468615269
 30
0.0
 11
237.389999389648
 21
32.4176735392332
 31
0.0
  0
LINE
  5
    A1
  8
0
  6
CONTINUOUS
 62
     7
 10
270.990060437786
 20
34.4176735392332
 30
0.0
 11
237.389999389648
 21
34.4176735392332
 31
0.0
  0
LINE
  5
    A2
  8
0
  6
CONTINUOUS
 62
     7
 10
268.035637160579
 20
33.8967291092815
 30
0.0
 11
270.990060437786
 21
34.4176735392332
 31
0.0
  0
LINE
  5
    A3
  8
0
  6
CONTINUOUS
 62
     7
 10
270.990060437786
 20
34.4176735392332
 30
0.0
 11
268.035637160579
 21
34.9386179691849
 31
0.0
  0
LINE
  5
    A4
  8
0
  6
CONTINUOUS
 62
     7
 10
240.344422666855
 20
34.9386179691849
 30
0.0
 11
237.389999389648
 21
34.4176735392332
 31
0.0
  0
LINE
  5
    A5
  8
0
  6
CONTINUOUS
 62
     7
 10
237.389999389648
 20
34.4176735392332
 30
0.0
 11
240.344422666855
 21
33.8967291092815
 31
0.0
  0
ENDBLK
  5
    A6
  8
0
  6
CONTINUOUS
 62
     7
  0
BLOCK
  5
    A7
  8
0
  6
CONTINUOUS
 62
     7
  2
*UDIM310
 70
    65
 10
0.0
 20
0.0
 30
0.0
  3
*UDIM310
  0
TEXT
  5
    A8
  8
0
  6
CONTINUOUS
 62
     7
 10
253.814999664836
 20
171.161263821061
 30
0.0
 40
2.99999994933605
  1
96
 50
359.999999948034
 41
0.933333333333333
 72
     1
 11
256.314999623969
 21
172.661263793474
 31
0.0
 73
     2
  0
LINE
  5
    A9
  8
0
  6
CONTINUOUS
 62
     7
 10
275.790000724793
 20
119.774365035297
 30
0.0
 11
275.790000724793
 21
172.161263818806
 31
0.0
  0
LINE
  5
    AA
  8
0
  6
CONTINUOUS
 62
     7
 10
237.389999389648
 20
159.604627153058
 30
0.0
 11
237.389999389648
 21
172.161263818806
 31
0.0
  0
LINE
  5
    AB
  8
0
  6
CONTINUOUS
 62
     7
 10
275.790000724793
 20
170.161263818806
 30
0.0
 11
237.389999389648
 21
170.161263818806
 31
0.0
  0
LINE
  5
    AC
  8
0
  6
CONTINUOUS
 62
     7
 10
272.835577447586
 20
169.640319388855
 30
0.0
 11
275.790000724793
 21
170.161263818806
 31
0.0
  0
LINE
  5
    AD
  8
0
  6
CONTINUOUS
 62
     7
 10
275.790000724793
 20
170.161263818806
 30
0.0
 11
272.835577447586
 21
170.682208248758
 31
0.0
  0
LINE
  5
    AE
  8
0
  6
CONTINUOUS
 62
     7
 10
240.344422666855
 20
170.682208248758
 30
0.0
 11
237.389999389648
 21
170.161263818806
 31
0.0
  0
LINE
  5
    AF
  8
0
  6
CONTINUOUS
 62
     7
 10
237.389999389648
 20
170.161263818806
 30
0.0
 11
240.344422666855
 21
169.640319388855
 31
0.0
  0
ENDBLK
  5
    B0
  8
0
  6
CONTINUOUS
 62
     7
  0
BLOCK
  5
    B1
  8
0
  6
CONTINUOUS
 62
     7
  2
*UDIM311
 70
    65
 10
0.0
 20
0.0
 30
0.0
  3
*UDIM311
  0
TEXT
  5
    B2
  8
0
  6
CONTINUOUS
 62
     7
 10
216.11499916823
 20
171.161263823587
 30
0.0
 40
2.99999994933605
  1
78,5
 50
359.999999948034
 41
0.933333333333333
 72
     1
 11
221.414999080077
 21
172.661263793474
 31
0.0
 73
     2
  0
LINE
  5
    B3
  8
0
  6
CONTINUOUS
 62
     7
 10
205.989998158813
 20
119.774365035297
 30
0.0
 11
205.989998158813
 21
172.161263818806
 31
0.0
  0
LINE
  5
    B4
  8
0
  6
CONTINUOUS
 62
     7
 10
237.389999389648
 20
170.161263818806
 30
0.0
 11
205.989998158813
 21
170.161263818806
 31
0.0
  0
LINE
  5
    B5
  8
0
  6
CONTINUOUS
 62
     7
 10
234.435576112441
 20
169.640319388855
 30
0.0
 11
237.389999389648
 21
170.161263818806
 31
0.0
  0
LINE
  5
    B6
  8
0
  6
CONTINUOUS
 62
     7
 10
237.389999389648
 20
170.161263818806
 30
0.0
 11
234.435576112441
 21
170.682208248758
 31
0.0
  0
LINE
  5
    B7
  8
0
  6
CONTINUOUS
 62
     7
 10
208.94442143602
 20
170.682208248758
 30
0.0
 11
205.989998158813
 21
170.161263818806
 31
0.0
  0
LINE
  5
    B8
  8
0
  6
CONTINUOUS
 62
     7
 10
205.989998158813
 20
170.161263818806
 30
0.0
 11
208.94442143602
 21
169.640319388855
 31
0.0
  0
ENDBLK
  5
    B9
  8
0
  6
CONTINUOUS
 62
     7
  0
BLOCK
  5
    BA
  8
0
  6
CONTINUOUS
 62
     7
  2
*UDIM312
 70
    65
 10
0.0
 20
0.0
 30
0.0
  3
*UDIM312
  0
TEXT
  5
    BB
  8
0
  6
CONTINUOUS
 62
     7
 10
194.563707869301
 20
82.400624157417
 30
0.0
 40
2.99999994933605
  1
161
 50
89.9999999480344
 41
0.933333333333333
 72
     1
 11
193.063707898165
 21
86.3006240929125
 31
0.0
 73
     2
  0
LINE
  5
    BC
  8
0
  6
CONTINUOUS
 62
     7
 10
204.989998158813
 20
54.3768848276533
 30
0.0
 11
193.563707872833
 21
54.3768848276533
 31
0.0
  0
LINE
  5
    BD
  8
0
  6
CONTINUOUS
 62
     7
 10
208.589998212457
 20
118.774365035297
 30
0.0
 11
193.563707872833
 21
118.774365035297
 31
0.0
  0
LINE
  5
    BE
  8
0
  6
CONTINUOUS
 62
     7
 10
195.563707872833
 20
54.3768848276533
 30
0.0
 11
195.563707872833
 21
118.774365035297
 31
0.0
  0
LINE
  5
    BF
  8
0
  6
CONTINUOUS
 62
     7
 10
195.042763442882
 20
57.3313081048602
 30
0.0
 11
195.563707872833
 21
54.3768848276533
 31
0.0
  0
LINE
  5
    C0
  8
0
  6
CONTINUOUS
 62
     7
 10
195.563707872833
 20
54.3768848276533
 30
0.0
 11
196.084652302785
 21
57.3313081048602
 31
0.0
  0
LINE
  5
    C1
  8
0
  6
CONTINUOUS
 62
     7
 10
196.084652302785
 20
115.81994175809
 30
0.0
 11
195.563707872833
 21
118.774365035297
 31
0.0
  0
LINE
  5
    C2
  8
0
  6
CONTINUOUS
 62
     7
 10
195.563707872833
 20
118.774365035297
 30
0.0
 11
195.042763442882
 21
115.81994175809
 31
0.0
  0
ENDBLK
  5
    C3
  8
0
  6
CONTINUOUS
 62
     7
  0
BLOCK
  5
    C4
  8
0
  6
CONTINUOUS
 62
     7
  2
*UDIM313
 70
    65
 10
0.0
 20
0.0
 30
0.0
  3
*UDIM313
  0
TEXT
  5
    C5
  8
0
  6
CONTINUOUS
 62
     7
 10
233.214997875015
 20
164.148342575245
 30
0.0
 40
2.99999994933605
  1
105
 50
359.999999948034
 41
0.933333333333333
 72
     1
 11
237.114997810505
 21
165.648342546395
 31
0.0
 73
     2
  0
LINE
  5
    C6
  8
0
  6
CONTINUOUS
 62
     7
 10
258.390014073276
 20
156.976838268966
 30
0.0
 11
258.390014073276
 21
165.148342571727
 31
0.0
  0
LINE
  5
    C7
  8
0
  6
CONTINUOUS
 62
     7
 10
216.38998284339
 20
147.076881135702
 30
0.0
 11
216.38998284339
 21
165.148342571727
 31
0.0
  0
LINE
  5
    C8
  8
0
  6
CONTINUOUS
 62
     7
 10
258.390014073276
 20
163.148342571727
 30
0.0
 11
216.38998284339
 21
163.148342571727
 31
0.0
  0
LINE
  5
    C9
  8
0
  6
CONTINUOUS
 62
     7
 10
255.435590796069
 20
162.627398141776
 30
0.0
 11
258.390014073276
 21
163.148342571727
 31
0.0
  0
LINE
  5
    CA
  8
0
  6
CONTINUOUS
 62
     7
 10
258.390014073276
 20
163.148342571727
 30
0.0
 11
255.435590796069
 21
163.669287001679
 31
0.0
  0
LINE
  5
    CB
  8
0
  6
CONTINUOUS
 62
     7
 10
219.344406120597
 20
163.669287001679
 30
0.0
 11
216.38998284339
 21
163.148342571727
 31
0.0
  0
LINE
  5
    CC
  8
0
  6
CONTINUOUS
 62
     7
 10
216.38998284339
 20
163.148342571727
 30
0.0
 11
219.344406120597
 21
162.627398141776
 31
0.0
  0
ENDBLK
  5
    CD
  8
0
  6
CONTINUOUS
 62
     7
  0
BLOCK
  5
    CE
  8
0
  6
CONTINUOUS
 62
     7
  2
*UDIM314
 70
    65
 10
0.0
 20
0.0
 30
0.0
  3
*UDIM314
  0
TEXT
  5
    CF
  8
0
  6
CONTINUOUS
 62
     7
 10
221.833672135084
 20
-22.424042631841
 30
0.0
 40
3.00000002980232
  1
7
 50
311.113474416573
 41
0.933333333333334
 72
     1
 11
223.687093005255
 21
-22.266463614335
 31
0.0
 73
     2
  0
TEXT
  5
    D0
  8
0
  6
CONTINUOUS
 62
     7
 10
219.203462326795
 20
-19.4104075174322
 30
0.0
 40
3.00000002980232
  1
Ø
 50
311.113474416573
 41
1.2
 72
     1
 11
221.319904177711
 21
-19.5541920127586
 31
0.0
 73
     2
  0
LINE
  5
    D1
  8
0
  6
CONTINUOUS
 62
     7
 10
218.450053553594
 20
-20.0679599705595
 30
0.0
 11
230.253120017993
 21
-33.5916474814222
 31
0.0
  0
LINE
  5
    D2
  8
0
  6
CONTINUOUS
 62
     7
 10
223.32421069537
 20
-26.8334885984716
 30
0.0
 11
225.814640998193
 21
-28.5061382649532
 31
0.0
  0
LINE
  5
    D3
  8
0
  6
CONTINUOUS
 62
     7
 10
225.814640998193
 20
-28.5061382649532
 30
0.0
 11
224.494189962084
 21
-25.8123659914975
 31
0.0
  0
LINE
  5
    D4
  8
0
  6
CONTINUOUS
 62
     7
 10
229.455788083927
 20
-31.4972532838527
 30
0.0
 11
226.965357781104
 21
-29.824603617371
 31
0.0
  0
LINE
  5
    D5
  8
0
  6
CONTINUOUS
 62
     7
 10
226.965357781104
 20
-29.824603617371
 30
0.0
 11
228.285808817213
 21
-32.5183758908268
 31
0.0
  0
ENDBLK
  5
    D6
  8
0
  6
CONTINUOUS
 62
     7
  0
BLOCK
  5
    D7
  8
0
  6
CONTINUOUS
 62
     7
  2
*UDIM315
 70
    65
 10
0.0
 20
0.0
 30
0.0
  3
*UDIM315
  0
TEXT
  5
    D8
  8
0
  6
CONTINUOUS
 62
     7
 10
270.419598345361
 20
-71.3046018139095
 30
0.0
 40
3.00000002980232
  1
7
 50
328.565596231632
 41
0.933333333333334
 72
     1
 11
272.140443031037
 21
-70.5984193753543
 31
0.0
 73
     2
  0
TEXT
  5
    D9
  8
0
  6
CONTINUOUS
 62
     7
 10
267.006647120903
 20
-69.2185135660424
 30
0.0
 40
3.00000002980232
  1
Ø
 50
328.565596231632
 41
1.2
 72
     1
 11
269.068786929363
 21
-68.7209399536264
 31
0.0
 73
     2
  0
LINE
  5
    DA
  8
0
  6
CONTINUOUS
 62
     7
 10
252.627227315242
 20
-61.6014288512972
 30
0.0
 11
271.775199467855
 21
-73.3051881571494
 31
0.0
  0
LINE
  5
    DB
  8
0
  6
CONTINUOUS
 62
     7
 10
254.01598350485
 20
-63.3602868653841
 30
0.0
 11
256.893416314737
 21
-64.209039140544
 31
0.0
  0
LINE
  5
    DC
  8
0
  6
CONTINUOUS
 62
     7
 10
256.893416314737
 20
-64.209039140544
 30
0.0
 11
254.825862572945
 21
-62.0352816736673
 31
0.0
  0
LINE
  5
    DD
  8
0
  6
CONTINUOUS
 62
     7
 10
261.264015274446
 20
-65.9704550169401
 30
0.0
 11
258.38658246456
 21
-65.1217027417803
 31
0.0
  0
LINE
  5
    DE
  8
0
  6
CONTINUOUS
 62
     7
 10
258.38658246456
 20
-65.1217027417803
 30
0.0
 11
260.454136206352
 21
-67.2954602086569
 31
0.0
  0
ENDBLK
  5
    DF
  8
0
  6
CONTINUOUS
 62
     7
  0
BLOCK
  5
    E0
  8
0
  6
CONTINUOUS
 62
     7
  2
*UDIM316
 70
    65
 10
0.0
 20
0.0
 30
0.0
  3
*UDIM316
  0
TEXT
  5
    E1
  8
0
  6
CONTINUOUS
 62
     7
 10
279.171739580964
 20
-5.22734173321754
 30
0.0
 40
3.00000002980232
  1
8
 50
406.249477420785
 41
0.933333333333334
 72
     1
 11
278.848874704018
 21
-3.39546882824335
 31
0.0
 73
     2
  0
TEXT
  5
    E2
  8
0
  6
CONTINUOUS
 62
     7
 10
276.993452700934
 20
-7.5027683593414
 30
0.0
 40
3.00000002980232
  1
Ø
 50
406.249477420785
 41
0.933333333333334
 72
     1
 11
276.670587823988
 21
-5.67089545436722
 31
0.0
 73
     2
  0
TEXT
  5
    E3
  8
0
  6
CONTINUOUS
 62
     7
 10
265.410498559597
 20
-19.6022592226082
 30
0.0
 40
3.00000002980232
  1
3 fori
 50
406.249477420785
 41
0.933333333333333
 72
     1
 11
269.92827124038
 21
-12.7138826828837
 31
0.0
 73
     2
  0
LINE
  5
    E4
  8
0
  6
CONTINUOUS
 62
     7
 10
281.415440470861
 20
-4.32967451384741
 30
0.0
 11
256.948479747375
 21
-29.887728597971
 31
0.0
  0
LINE
  5
    E5
  8
0
  6
CONTINUOUS
 62
     7
 10
259.998252561952
 20
-25.9486197027641
 30
0.0
 11
258.331519031922
 21
-28.4430132843532
 31
0.0
  0
LINE
  5
    E6
  8
0
  6
CONTINUOUS
 62
     7
 10
258.331519031922
 20
-28.4430132843532
 30
0.0
 11
260.750868957447
 21
-26.6691063144529
 31
0.0
  0
LINE
  5
    E7
  8
0
  6
CONTINUOUS
 62
     7
 10
255.281746217345
 20
-32.3821221795601
 30
0.0
 11
256.948479747375
 21
-29.887728597971
 31
0.0
  0
LINE
  5
    E8
  8
0
  6
CONTINUOUS
 62
     7
 10
256.948479747375
 20
-29.887728597971
 30
0.0
 11
254.52912982185
 21
-31.6616355678714
 31
0.0
  0
ENDBLK
  5
    E9
  8
0
  6
CONTINUOUS
 62
     7
  0
BLOCK
  5
    EA
  8
0
  6
CONTINUOUS
 62
     7
  2
*UDIM317
 70
    65
 10
0.0
 20
0.0
 30
0.0
  3
*UDIM317
  0
TEXT
  5
    EB
  8
0
  6
CONTINUOUS
 62
     7
 10
239.243018549223
 20
2.22209552290735
 30
0.0
 40
3.00000002980232
  1
R min.200
 50
359.999999844103
 41
0.933333333333333
 72
     1
 11
251.543018675486
 21
3.72209550440311
 31
0.0
 73
     2
  0
LINE
  5
    EC
  8
0
  6
CONTINUOUS
 62
     7
 10
237.389999389648
 20
-20.287879780307
 30
0.0
 11
237.389999389648
 21
3.22209548950195
 31
0.0
  0
LINE
  5
    ED
  8
0
  6
CONTINUOUS
 62
     7
 10
265.570147214611
 20
-22.8102493429291
 30
0.0
 11
265.570147214611
 21
3.22209548950195
 31
0.0
  0
LINE
  5
    EE
  8
0
  6
CONTINUOUS
 62
     7
 10
237.389999389648
 20
1.22209548950195
 30
0.0
 11
265.570147214611
 21
1.22209548950195
 31
0.0
  0
LINE
  5
    EF
  8
0
  6
CONTINUOUS
 62
     7
 10
234.435576112441
 20
0.701151059550291
 30
0.0
 11
237.389999389648
 21
1.22209548950195
 31
0.0
  0
LINE
  5
    F0
  8
0
  6
CONTINUOUS
 62
     7
 10
237.389999389648
 20
1.22209548950195
 30
0.0
 11
234.435576112441
 21
1.74303991945362
 31
0.0
  0
LINE
  5
    F1
  8
0
  6
CONTINUOUS
 62
     7
 10
268.524570491818
 20
1.74303991945362
 30
0.0
 11
265.570147214611
 21
1.22209548950195
 31
0.0
  0
LINE
  5
    F2
  8
0
  6
CONTINUOUS
 62
     7
 10
265.570147214611
 20
1.22209548950195
 30
0.0
 11
268.524570491818
 21
0.701151059550291
 31
0.0
  0
ENDBLK
  5
    F3
  8
0
  6
CONTINUOUS
 62
     7
  0
BLOCK
  5
    F4
  8
0
  6
CONTINUOUS
 62
     7
  2
*UDIM318
 70
    65
 10
0.0
 20
0.0
 30
0.0
  3
*UDIM318
  0
TEXT
  5
    F5
  8
0
  6
CONTINUOUS
 62
     7
 10
273.582698803834
 20
-44.0153706303229
 30
0.0
 40
3.00000002980232
  1
27,25
 50
449.999999844103
 41
0.933333333333333
 72
     1
 11
272.08269880712
 21
-37.3153705596924
 31
0.0
 73
     2
  0
LINE
  5
    F6
  8
0
  6
CONTINUOUS
 62
     7
 10
266.382727689785
 20
-46.9153709411621
 30
0.0
 11
276.582698822022
 21
-46.9153709411621
 31
0.0
  0
LINE
  5
    F7
  8
0
  6
CONTINUOUS
 62
     7
 10
263.64530578909
 20
-53.7278709411621
 30
0.0
 11
276.582698822022
 21
-53.7278709411621
 31
0.0
  0
LINE
  5
    F8
  8
0
  6
CONTINUOUS
 62
     7
 10
274.582698822022
 20
-30.6153704931339
 30
0.0
 11
274.582698822022
 21
-53.7278709411621
 31
0.0
  0
LINE
  5
    F9
  8
0
  6
CONTINUOUS
 62
     7
 10
274.06175439207
 20
-43.9609476639551
 30
0.0
 11
274.582698822022
 21
-46.9153709411621
 31
0.0
  0
LINE
  5
    FA
  8
0
  6
CONTINUOUS
 62
     7
 10
274.582698822022
 20
-46.9153709411621
 30
0.0
 11
275.103643251973
 21
-43.9609476639551
 31
0.0
  0
LINE
  5
    FB
  8
0
  6
CONTINUOUS
 62
     7
 10
275.103643251973
 20
-56.6822942183691
 30
0.0
 11
274.582698822022
 21
-53.7278709411621
 31
0.0
  0
LINE
  5
    FC
  8
0
  6
CONTINUOUS
 62
     7
 10
274.582698822022
 20
-53.7278709411621
 30
0.0
 11
274.06175439207
 21
-56.6822942183691
 31
0.0
  0
ENDBLK
  5
    FD
  8
0
  6
CONTINUOUS
 62
     7
  0
BLOCK
  5
    FE
  8
0
  6
CONTINUOUS
 62
     7
  2
*UDIM319
 70
    65
 10
0.0
 20
0.0
 30
0.0
  3
*UDIM319
  0
TEXT
  5
    FF
  8
0
  6
CONTINUOUS
 62
     7
 10
278.73386382758
 20
-38.4821052462846
 30
0.0
 40
3.00000002980232
  1
=
 50
449.999999844103
 41
0.933333333333334
 72
     1
 11
277.233863815665
 21
-37.3821052312851
 31
0.0
 73
     2
  0
LINE
  5
   100
  8
0
  6
CONTINUOUS
 62
     7
 10
260.264999389648
 20
-29.1653709411621
 30
0.0
 11
281.733863830566
 21
-29.1653709411621
 31
0.0
  0
LINE
  5
   101
  8
0
  6
CONTINUOUS
 62
     7
 10
260.264999389648
 20
-46.9153709411621
 30
0.0
 11
281.733863830566
 21
-46.9153709411621
 31
0.0
  0
LINE
  5
   102
  8
0
  6
CONTINUOUS
 62
     7
 10
279.733863830566
 20
-29.1653709411621
 30
0.0
 11
279.733863830566
 21
-46.9153709411621
 31
0.0
  0
LINE
  5
   103
  8
0
  6
CONTINUOUS
 62
     7
 10
280.254808260518
 20
-32.1197942183691
 30
0.0
 11
279.733863830566
 21
-29.1653709411621
 31
0.0
  0
LINE
  5
   104
  8
0
  6
CONTINUOUS
 62
     7
 10
279.733863830566
 20
-29.1653709411621
 30
0.0
 11
279.212919400615
 21
-32.1197942183691
 31
0.0
  0
LINE
  5
   105
  8
0
  6
CONTINUOUS
 62
     7
 10
279.212919400615
 20
-43.9609476639551
 30
0.0
 11
279.733863830566
 21
-46.9153709411621
 31
0.0
  0
LINE
  5
   106
  8
0
  6
CONTINUOUS
 62
     7
 10
279.733863830566
 20
-46.9153709411621
 30
0.0
 11
280.254808260518
 21
-43.9609476639551
 31
0.0
  0
ENDBLK
  5
   107
  8
0
  6
CONTINUOUS
 62
     7
  0
BLOCK
  5
   108
  8
0
  6
CONTINUOUS
 62
     7
  2
*UDIM320
 70
    65
 10
0.0
 20
0.0
 30
0.0
  3
*UDIM320
  0
TEXT
  5
   109
  8
0
  6
CONTINUOUS
 62
     7
 10
278.73386382758
 20
-56.2321052462846
 30
0.0
 40
3.00000002980232
  1
=
 50
449.999999844103
 41
0.933333333333334
 72
     1
 11
277.233863815665
 21
-55.1321052312851
 31
0.0
 73
     2
  0
LINE
  5
   10A
  8
0
  6
CONTINUOUS
 62
     7
 10
260.264999389648
 20
-64.6653709411621
 30
0.0
 11
281.733863830566
 21
-64.6653709411621
 31
0.0
  0
LINE
  5
   10B
  8
0
  6
CONTINUOUS
 62
     7
 10
279.733863830566
 20
-46.9153709411621
 30
0.0
 11
279.733863830566
 21
-64.6653709411621
 31
0.0
  0
LINE
  5
   10C
  8
0
  6
CONTINUOUS
 62
     7
 10
280.254808260518
 20
-49.8697942183691
 30
0.0
 11
279.733863830566
 21
-46.9153709411621
 31
0.0
  0
LINE
  5
   10D
  8
0
  6
CONTINUOUS
 62
     7
 10
279.733863830566
 20
-46.9153709411621
 30
0.0
 11
279.212919400615
 21
-49.8697942183691
 31
0.0
  0
LINE
  5
   10E
  8
0
  6
CONTINUOUS
 62
     7
 10
279.212919400615
 20
-61.7109476639552
 30
0.0
 11
279.733863830566
 21
-64.6653709411621
 31
0.0
  0
LINE
  5
   10F
  8
0
  6
CONTINUOUS
 62
     7
 10
279.733863830566
 20
-64.6653709411621
 30
0.0
 11
280.254808260518
 21
-61.7109476639552
 31
0.0
  0
ENDBLK
  5
   110
  8
0
  6
CONTINUOUS
 62
     7
  0
BLOCK
  5
   111
  8
0
  6
CONTINUOUS
 62
     7
  2
*UDIM321
 70
    65
 10
0.0
 20
0.0
 30
0.0
  3
*UDIM321
  0
TEXT
  5
   112
  8
0
  6
CONTINUOUS
 62
     7
 10
209.427272786044
 20
-51.0903709899375
 30
0.0
 40
3.00000002980232
  1
126
 50
449.999999844103
 41
0.933333333333333
 72
     1
 11
207.92727278173
 21
-47.1903709471226
 31
0.0
 73
     2
  0
LINE
  5
   113
  8
0
  6
CONTINUOUS
 62
     7
 10
218.389999389648
 20
-31.1653709411621
 30
0.0
 11
208.427272796631
 21
-31.1653709411621
 31
0.0
  0
LINE
  5
   114
  8
0
  6
CONTINUOUS
 62
     7
 10
218.389999389648
 20
-62.6653709411621
 30
0.0
 11
208.427272796631
 21
-62.6653709411621
 31
0.0
  0
LINE
  5
   115
  8
0
  6
CONTINUOUS
 62
     7
 10
210.427272796631
 20
-31.1653709411621
 30
0.0
 11
210.427272796631
 21
-62.6653709411621
 31
0.0
  0
LINE
  5
   116
  8
0
  6
CONTINUOUS
 62
     7
 10
210.948217226583
 20
-34.1197942183691
 30
0.0
 11
210.427272796631
 21
-31.1653709411621
 31
0.0
  0
LINE
  5
   117
  8
0
  6
CONTINUOUS
 62
     7
 10
210.427272796631
 20
-31.1653709411621
 30
0.0
 11
209.906328366679
 21
-34.1197942183691
 31
0.0
  0
LINE
  5
   118
  8
0
  6
CONTINUOUS
 62
     7
 10
209.906328366679
 20
-59.7109476639551
 30
0.0
 11
210.427272796631
 21
-62.6653709411621
 31
0.0
  0
LINE
  5
   119
  8
0
  6
CONTINUOUS
 62
     7
 10
210.427272796631
 20
-62.6653709411621
 30
0.0
 11
210.948217226583
 21
-59.7109476639551
 31
0.0
  0
ENDBLK
  5
   11A
  8
0
  6
CONTINUOUS
 62
     7
  0
BLOCK
  5
   11B
  8
0
  6
CONTINUOUS
 62
     7
  2
*UDIM322
 70
    65
 10
0.0
 20
0.0
 30
0.0
  3
*UDIM322
  0
TEXT
  5
   11C
  8
0
  6
CONTINUOUS
 62
     7
 10
285.055747975253
 20
-51.0903709899375
 30
0.0
 40
3.00000002980232
  1
142
 50
449.999999844103
 41
0.933333333333333
 72
     1
 11
283.555747970939
 21
-47.1903709471226
 31
0.0
 73
     2
  0
LINE
  5
   11D
  8
0
  6
CONTINUOUS
 62
     7
 10
229.014999389648
 20
-29.1653709411621
 30
0.0
 11
288.05574798584
 21
-29.1653709411621
 31
0.0
  0
LINE
  5
   11E
  8
0
  6
CONTINUOUS
 62
     7
 10
260.264999389648
 20
-64.6653709411621
 30
0.0
 11
288.05574798584
 21
-64.6653709411621
 31
0.0
  0
LINE
  5
   11F
  8
0
  6
CONTINUOUS
 62
     7
 10
286.05574798584
 20
-29.1653709411621
 30
0.0
 11
286.05574798584
 21
-64.6653709411621
 31
0.0
  0
LINE
  5
   120
  8
0
  6
CONTINUOUS
 62
     7
 10
286.576692415792
 20
-32.1197942183691
 30
0.0
 11
286.05574798584
 21
-29.1653709411621
 31
0.0
  0
LINE
  5
   121
  8
0
  6
CONTINUOUS
 62
     7
 10
286.05574798584
 20
-29.1653709411621
 30
0.0
 11
285.534803555888
 21
-32.1197942183691
 31
0.0
  0
LINE
  5
   122
  8
0
  6
CONTINUOUS
 62
     7
 10
285.534803555888
 20
-61.7109476639552
 30
0.0
 11
286.05574798584
 21
-64.6653709411621
 31
0.0
  0
LINE
  5
   123
  8
0
  6
CONTINUOUS
 62
     7
 10
286.05574798584
 20
-64.6653709411621
 30
0.0
 11
286.576692415792
 21
-61.7109476639552
 31
0.0
  0
ENDBLK
  5
   124
  8
0
  6
CONTINUOUS
 62
     7
  0
BLOCK
  5
   125
  8
0
  6
CONTINUOUS
 62
     7
  2
*UDIM323
 70
    65
 10
0.0
 20
0.0
 30
0.0
  3
*UDIM323
  0
TEXT
  5
   126
  8
0
  6
CONTINUOUS
 62
     7
 10
244.40746878899
 20
-56.4176086774458
 30
0.0
 40
3.00000002980232
  1
16
 50
449.999999844103
 41
0.933333333333333
 72
     1
 11
242.907468780875
 21
-53.9176086485386
 31
0.0
 73
     2
  0
LINE
  5
   127
  8
0
  6
CONTINUOUS
 62
     7
 10
252.139999389648
 20
-51.7278709411621
 30
0.0
 11
243.407468795776
 21
-51.7278709411621
 31
0.0
  0
LINE
  5
   128
  8
0
  6
CONTINUOUS
 62
     7
 10
252.139999389648
 20
-55.7278709411621
 30
0.0
 11
243.407468795776
 21
-55.7278709411621
 31
0.0
  0
LINE
  5
   129
  8
0
  6
CONTINUOUS
 62
     7
 10
245.407468795776
 20
-51.4176086237033
 30
0.0
 11
245.407468795776
 21
-56.4176086733739
 31
0.0
  0
LINE
  5
   12A
  8
0
  6
CONTINUOUS
 62
     7
 10
244.886524365825
 20
-48.7734476639551
 30
0.0
 11
245.407468795776
 21
-51.7278709411621
 31
0.0
  0
LINE
  5
   12B
  8
0
  6
CONTINUOUS
 62
     7
 10
245.407468795776
 20
-51.7278709411621
 30
0.0
 11
245.928413225728
 21
-48.7734476639551
 31
0.0
  0
LINE
  5
   12C
  8
0
  6
CONTINUOUS
 62
     7
 10
245.928413225728
 20
-58.6822942183691
 30
0.0
 11
245.407468795776
 21
-55.7278709411621
 31
0.0
  0
LINE
  5
   12D
  8
0
  6
CONTINUOUS
 62
     7
 10
245.407468795776
 20
-55.7278709411621
 30
0.0
 11
244.886524365825
 21
-58.6822942183691
 31
0.0
  0
ENDBLK
  5
   12E
  8
0
  6
CONTINUOUS
 62
     7
  0
BLOCK
  5
   12F
  8
0
  6
CONTINUOUS
 62
     7
  2
*UDIM324
 70
    65
 10
0.0
 20
0.0
 30
0.0
  3
*UDIM324
  0
TEXT
  5
   130
  8
0
  6
CONTINUOUS
 62
     7
 10
246.364999354779
 20
-42.3667895726018
 30
0.0
 40
3.00000002980232
  1
94
 50
359.999999844103
 41
0.933333333333333
 72
     1
 11
248.864999383688
 21
-40.8667895644903
 31
0.0
 73
     2
  0
LINE
  5
   131
  8
0
  6
CONTINUOUS
 62
     7
 10
260.889999389648
 20
-52.8528709411621
 30
0.0
 11
260.889999389648
 21
-41.3667895793915
 31
0.0
  0
LINE
  5
   132
  8
0
  6
CONTINUOUS
 62
     7
 10
237.389999389648
 20
-43.3667895793915
 30
0.0
 11
260.889999389648
 21
-43.3667895793915
 31
0.0
  0
LINE
  5
   133
  8
0
  6
CONTINUOUS
 62
     7
 10
240.344422666855
 20
-42.8458451494398
 30
0.0
 11
237.389999389648
 21
-43.3667895793915
 31
0.0
  0
LINE
  5
   134
  8
0
  6
CONTINUOUS
 62
     7
 10
237.389999389648
 20
-43.3667895793915
 30
0.0
 11
240.344422666855
 21
-43.8877340093431
 31
0.0
  0
LINE
  5
   135
  8
0
  6
CONTINUOUS
 62
     7
 10
257.935576112442
 20
-43.8877340093431
 30
0.0
 11
260.889999389648
 21
-43.3667895793915
 31
0.0
  0
LINE
  5
   136
  8
0
  6
CONTINUOUS
 62
     7
 10
260.889999389648
 20
-43.3667895793915
 30
0.0
 11
257.935576112442
 21
-42.8458451494398
 31
0.0
  0
ENDBLK
  5
   137
  8
0
  6
CONTINUOUS
 62
     7
  0
BLOCK
  5
   138
  8
0
  6
CONTINUOUS
 62
     7
  2
*UDIM325
 70
    65
 10
0.0
 20
0.0
 30
0.0
  3
*UDIM325
  0
TEXT
  5
   139
  8
0
  6
CONTINUOUS
 62
     7
 10
237.839999311069
 20
-77.9735526932655
 30
0.0
 40
3.00000002980232
  1
125
 50
359.999999844103
 41
0.933333333333333
 72
     1
 11
241.739999353886
 21
-76.4735526889563
 31
0.0
 73
     2
  0
LINE
  5
   13A
  8
0
  6
CONTINUOUS
 62
     7
 10
226.389999389648
 20
-67.2903709411621
 30
0.0
 11
226.389999389648
 21
-80.9735527038574
 31
0.0
  0
LINE
  5
   13B
  8
0
  6
CONTINUOUS
 62
     7
 10
257.639999389648
 20
-67.2903709411621
 30
0.0
 11
257.639999389648
 21
-80.9735527038574
 31
0.0
  0
LINE
  5
   13C
  8
0
  6
CONTINUOUS
 62
     7
 10
226.389999389648
 20
-78.9735527038574
 30
0.0
 11
257.639999389648
 21
-78.9735527038574
 31
0.0
  0
LINE
  5
   13D
  8
0
  6
CONTINUOUS
 62
     7
 10
229.344422666855
 20
-78.4526082739058
 30
0.0
 11
226.389999389648
 21
-78.9735527038574
 31
0.0
  0
LINE
  5
   13E
  8
0
  6
CONTINUOUS
 62
     7
 10
226.389999389648
 20
-78.9735527038574
 30
0.0
 11
229.344422666855
 21
-79.4944971338091
 31
0.0
  0
LINE
  5
   13F
  8
0
  6
CONTINUOUS
 62
     7
 10
254.685576112442
 20
-79.4944971338091
 30
0.0
 11
257.639999389648
 21
-78.9735527038574
 31
0.0
  0
LINE
  5
   140
  8
0
  6
CONTINUOUS
 62
     7
 10
257.639999389648
 20
-78.9735527038574
 30
0.0
 11
254.685576112442
 21
-78.4526082739058
 31
0.0
  0
ENDBLK
  5
   141
  8
0
  6
CONTINUOUS
 62
     7
  0
BLOCK
  5
   142
  8
0
  6
CONTINUOUS
 62
     7
  2
*UDIM326
 70
    65
 10
0.0
 20
0.0
 30
0.0
  3
*UDIM326
  0
TEXT
  5
   143
  8
0
  6
CONTINUOUS
 62
     7
 10
244.739999354779
 20
-70.8702983788304
 30
0.0
 40
3.00000002980232
  1
81
 50
359.999999844103
 41
0.933333333333333
 72
     1
 11
247.239999383688
 21
-69.370298370719
 31
0.0
 73
     2
  0
LINE
  5
   144
  8
0
  6
CONTINUOUS
 62
     7
 10
237.389999389648
 20
-71.0605522587135
 30
0.0
 11
237.389999389648
 21
-73.8702983856201
 31
0.0
  0
LINE
  5
   145
  8
0
  6
CONTINUOUS
 62
     7
 10
257.639999389648
 20
-67.2903709411621
 30
0.0
 11
257.639999389648
 21
-73.8702983856201
 31
0.0
  0
LINE
  5
   146
  8
0
  6
CONTINUOUS
 62
     7
 10
237.389999389648
 20
-71.8702983856201
 30
0.0
 11
257.639999389648
 21
-71.8702983856201
 31
0.0
  0
LINE
  5
   147
  8
0
  6
CONTINUOUS
 62
     7
 10
240.344422666855
 20
-71.3493539556685
 30
0.0
 11
237.389999389648
 21
-71.8702983856201
 31
0.0
  0
LINE
  5
   148
  8
0
  6
CONTINUOUS
 62
     7
 10
237.389999389648
 20
-71.8702983856201
 30
0.0
 11
240.344422666855
 21
-72.3912428155718
 31
0.0
  0
LINE
  5
   149
  8
0
  6
CONTINUOUS
 62
     7
 10
254.685576112442
 20
-72.3912428155718
 30
0.0
 11
257.639999389648
 21
-71.8702983856201
 31
0.0
  0
LINE
  5
   14A
  8
0
  6
CONTINUOUS
 62
     7
 10
257.639999389648
 20
-71.8702983856201
 30
0.0
 11
254.685576112442
 21
-71.3493539556685
 31
0.0
  0
ENDBLK
  5
   14B
  8
0
  6
CONTINUOUS
 62
     7
  0
BLOCK
  5
   14C
  8
0
  6
CONTINUOUS
 62
     7
  2
*UDIM327
 70
    65
 10
0.0
 20
0.0
 30
0.0
  3
*UDIM327
  0
TEXT
  5
   14D
  8
0
  6
CONTINUOUS
 62
     7
 10
232.089999340871
 20
-9.85314558877328
 30
0.0
 40
3.00000002980232
  1
135
 50
359.999999844103
 41
0.933333333333333
 72
     1
 11
235.989999383688
 21
-8.35314558446407
 31
0.0
 73
     2
  0
LINE
  5
   14E
  8
0
  6
CONTINUOUS
 62
     7
 10
219.389999389648
 20
-30.1653709411621
 30
0.0
 11
219.389999389648
 21
-8.85314559936523
 31
0.0
  0
LINE
  5
   14F
  8
0
  6
CONTINUOUS
 62
     7
 10
253.139999389648
 20
-30.1653709411621
 30
0.0
 11
253.139999389648
 21
-8.85314559936523
 31
0.0
  0
LINE
  5
   150
  8
0
  6
CONTINUOUS
 62
     7
 10
219.389999389648
 20
-10.8531455993652
 30
0.0
 11
253.139999389648
 21
-10.8531455993652
 31
0.0
  0
LINE
  5
   151
  8
0
  6
CONTINUOUS
 62
     7
 10
222.344422666855
 20
-10.3322011694136
 30
0.0
 11
219.389999389648
 21
-10.8531455993652
 31
0.0
  0
LINE
  5
   152
  8
0
  6
CONTINUOUS
 62
     7
 10
219.389999389648
 20
-10.8531455993652
 30
0.0
 11
222.344422666855
 21
-11.3740900293169
 31
0.0
  0
LINE
  5
   153
  8
0
  6
CONTINUOUS
 62
     7
 10
250.185576112441
 20
-11.3740900293169
 30
0.0
 11
253.139999389648
 21
-10.8531455993652
 31
0.0
  0
LINE
  5
   154
  8
0
  6
CONTINUOUS
 62
     7
 10
253.139999389648
 20
-10.8531455993652
 30
0.0
 11
250.185576112441
 21
-10.3322011694136
 31
0.0
  0
ENDBLK
  5
   155
  8
0
  6
CONTINUOUS
 62
     7
  0
BLOCK
  5
   156
  8
0
  6
CONTINUOUS
 62
     7
  2
*UDIM328
 70
    65
 10
0.0
 20
0.0
 30
0.0
  3
*UDIM328
  0
TEXT
  5
   157
  8
0
  6
CONTINUOUS
 62
     7
 10
242.489999354779
 20
-18.919221871262
 30
0.0
 40
3.00000002980232
  1
63
 50
359.999999844103
 41
0.933333333333333
 72
     1
 11
244.989999383688
 21
-17.4192218631506
 31
0.0
 73
     2
  0
LINE
  5
   158
  8
0
  6
CONTINUOUS
 62
     7
 10
237.389999389648
 20
-20.287879780307
 30
0.0
 11
237.389999389648
 21
-17.9192218780518
 31
0.0
  0
LINE
  5
   159
  8
0
  6
CONTINUOUS
 62
     7
 10
253.139999389648
 20
-30.1653709411621
 30
0.0
 11
253.139999389648
 21
-17.9192218780518
 31
0.0
  0
LINE
  5
   15A
  8
0
  6
CONTINUOUS
 62
     7
 10
237.389999389648
 20
-19.9192218780518
 30
0.0
 11
253.139999389648
 21
-19.9192218780518
 31
0.0
  0
LINE
  5
   15B
  8
0
  6
CONTINUOUS
 62
     7
 10
240.344422666855
 20
-19.3982774481001
 30
0.0
 11
237.389999389648
 21
-19.9192218780518
 31
0.0
  0
LINE
  5
   15C
  8
0
  6
CONTINUOUS
 62
     7
 10
237.389999389648
 20
-19.9192218780518
 30
0.0
 11
240.344422666855
 21
-20.4401663080034
 31
0.0
  0
LINE
  5
   15D
  8
0
  6
CONTINUOUS
 62
     7
 10
250.185576112441
 20
-20.4401663080034
 30
0.0
 11
253.139999389648
 21
-19.9192218780518
 31
0.0
  0
LINE
  5
   15E
  8
0
  6
CONTINUOUS
 62
     7
 10
253.139999389648
 20
-19.9192218780518
 30
0.0
 11
250.185576112441
 21
-19.3982774481001
 31
0.0
  0
ENDBLK
  5
   15F
  8
0
  6
CONTINUOUS
 62
     7
  0
BLOCK
  5
   160
  8
0
  6
CONTINUOUS
 62
     7
  2
*HATCH69
 70
    65
 10
0.0
 20
0.0
 30
0.0
  3
*HATCH69
  0
LINE
  5
   161
  8
0
  6
CONTINUOUS
 62
    52
 10
186.882263183594
 20
118.999992370605
 30
0.0
 11
184.882263183594
 21
117.0
 31
0.0
  0
LINE
  5
   162
  8
0
  6
CONTINUOUS
 62
    52
 10
191.124908447266
 20
118.999992370605
 30
0.0
 11
189.124908447266
 21
117.0
 31
0.0
  0
LINE
  5
   163
  8
0
  6
CONTINUOUS
 62
    52
 10
195.367553710938
 20
118.999992370605
 30
0.0
 11
193.367553710938
 21
117.0
 31
0.0
  0
LINE
  5
   164
  8
0
  6
CONTINUOUS
 62
    52
 10
199.610198974609
 20
118.999992370605
 30
0.0
 11
197.610198974609
 21
117.0
 31
0.0
  0
LINE
  5
   165
  8
0
  6
CONTINUOUS
 62
    52
 10
203.852844238281
 20
118.999992370605
 30
0.0
 11
201.852844238281
 21
117.0
 31
0.0
  0
LINE
  5
   166
  8
0
  6
CONTINUOUS
 62
    52
 10
208.095489501953
 20
118.999992370605
 30
0.0
 11
206.095489501953
 21
117.0
 31
0.0
  0
LINE
  5
   167
  8
0
  6
CONTINUOUS
 62
    52
 10
212.338134765625
 20
118.999992370605
 30
0.0
 11
210.338134765625
 21
117.0
 31
0.0
  0
LINE
  5
   168
  8
0
  6
CONTINUOUS
 62
    52
 10
216.580780029297
 20
118.999992370605
 30
0.0
 11
214.580780029297
 21
117.0
 31
0.0
  0
LINE
  5
   169
  8
0
  6
CONTINUOUS
 62
    52
 10
220.823425292969
 20
118.999992370605
 30
0.0
 11
218.823425292969
 21
117.0
 31
0.0
  0
LINE
  5
   16A
  8
0
  6
CONTINUOUS
 62
    52
 10
225.066070556641
 20
118.999992370605
 30
0.0
 11
223.066070556641
 21
117.0
 31
0.0
  0
LINE
  5
   16B
  8
0
  6
CONTINUOUS
 62
    52
 10
229.308715820313
 20
118.999992370605
 30
0.0
 11
227.308715820313
 21
117.0
 31
0.0
  0
LINE
  5
   16C
  8
0
  6
CONTINUOUS
 62
    52
 10
233.551361083984
 20
118.999992370605
 30
0.0
 11
231.551361083984
 21
117.0
 31
0.0
  0
LINE
  5
   16D
  8
0
  6
CONTINUOUS
 62
    52
 10
237.794006347656
 20
118.999992370605
 30
0.0
 11
235.794006347656
 21
117.0
 31
0.0
  0
LINE
  5
   16E
  8
0
  6
CONTINUOUS
 62
    52
 10
242.036651611328
 20
118.999992370605
 30
0.0
 11
240.036651611328
 21
117.0
 31
0.0
  0
LINE
  5
   16F
  8
0
  6
CONTINUOUS
 62
    52
 10
245.253234863281
 20
117.973999023438
 30
0.0
 11
244.279235839844
 21
117.0
 31
0.0
  0
ENDBLK
  5
   170
  8
0
  6
CONTINUOUS
 62
     7
  0
BLOCK
  5
   171
  8
0
  6
CONTINUOUS
 62
     7
  2
*HATCH70
 70
    65
 10
0.0
 20
0.0
 30
0.0
  3
*HATCH70
  0
LINE
  5
   172
  8
0
  6
CONTINUOUS
 62
    52
 10
176.275650024414
 20
118.999992370605
 30
0.0
 11
174.275650024414
 21
116.999992370605
 31
0.0
  0
ENDBLK
  5
   173
  8
0
  6
CONTINUOUS
 62
     7
  0
BLOCK
  5
   174
  8
0
  6
CONTINUOUS
 62
     7
  2
*HATCH71
 70
    65
 10
0.0
 20
0.0
 30
0.0
  3
*HATCH71
  0
LINE
  5
   175
  8
0
  6
CONTINUOUS
 62
    52
 10
116.878684997559
 20
119.0
 30
0.0
 11
114.878684997559
 21
117.0
 31
0.0
  0
LINE
  5
   176
  8
0
  6
CONTINUOUS
 62
    52
 10
121.12133026123
 20
119.0
 30
0.0
 11
119.12133026123
 21
117.0
 31
0.0
  0
LINE
  5
   177
  8
0
  6
CONTINUOUS
 62
    52
 10
125.363975524902
 20
119.0
 30
0.0
 11
123.363975524902
 21
117.0
 31
0.0
  0
LINE
  5
   178
  8
0
  6
CONTINUOUS
 62
    52
 10
129.60661315918
 20
119.0
 30
0.0
 11
127.606620788574
 21
117.0
 31
0.0
  0
LINE
  5
   179
  8
0
  6
CONTINUOUS
 62
    52
 10
133.849258422852
 20
119.0
 30
0.0
 11
131.849258422852
 21
117.0
 31
0.0
  0
LINE
  5
   17A
  8
0
  6
CONTINUOUS
 62
    52
 10
138.091903686523
 20
119.0
 30
0.0
 11
136.091903686523
 21
117.0
 31
0.0
  0
LINE
  5
   17B
  8
0
  6
CONTINUOUS
 62
    52
 10
142.334548950195
 20
119.0
 30
0.0
 11
140.334548950195
 21
117.0
 31
0.0
  0
LINE
  5
   17C
  8
0
  6
CONTINUOUS
 62
    52
 10
146.577194213867
 20
119.0
 30
0.0
 11
144.577194213867
 21
117.0
 31
0.0
  0
LINE
  5
   17D
  8
0
  6
CONTINUOUS
 62
    52
 10
150.819839477539
 20
119.0
 30
0.0
 11
148.819839477539
 21
117.0
 31
0.0
  0
LINE
  5
   17E
  8
0
  6
CONTINUOUS
 62
    52
 10
155.062484741211
 20
119.0
 30
0.0
 11
153.062484741211
 21
117.0
 31
0.0
  0
LINE
  5
   17F
  8
0
  6
CONTINUOUS
 62
    52
 10
159.305130004883
 20
119.0
 30
0.0
 11
157.305130004883
 21
117.0
 31
0.0
  0
LINE
  5
   180
  8
0
  6
CONTINUOUS
 62
    52
 10
163.547775268555
 20
119.0
 30
0.0
 11
161.547775268555
 21
117.0
 31
0.0
  0
LINE
  5
   181
  8
0
  6
CONTINUOUS
 62
    52
 10
167.790420532227
 20
119.0
 30
0.0
 11
165.790420532227
 21
117.0
 31
0.0
  0
LINE
  5
   182
  8
0
  6
CONTINUOUS
 62
    52
 10
171.986923217773
 20
118.953903198242
 30
0.0
 11
170.033020019531
 21
117.0
 31
0.0
  0
ENDBLK
  5
   183
  8
0
  6
CONTINUOUS
 62
     7
  0
BLOCK
  5
   184
  8
0
  6
CONTINUOUS
 62
     7
  2
*HATCH72
 70
    65
 10
0.0
 20
0.0
 30
0.0
  3
*HATCH72
  0
LINE
  5
   185
  8
0
  6
CONTINUOUS
 62
    52
 10
93.5441589355469
 20
119.0
 30
0.0
 11
91.5441589355469
 21
117.0
 31
0.0
  0
LINE
  5
   186
  8
0
  6
CONTINUOUS
 62
    52
 10
97.7868041992188
 20
119.0
 30
0.0
 11
95.7868041992188
 21
117.0
 31
0.0
  0
LINE
  5
   187
  8
0
  6
CONTINUOUS
 62
    52
 10
102.029449462891
 20
119.0
 30
0.0
 11
100.029449462891
 21
117.0
 31
0.0
  0
LINE
  5
   188
  8
0
  6
CONTINUOUS
 62
    52
 10
106.272094726563
 20
119.0
 30
0.0
 11
104.272094726563
 21
117.0
 31
0.0
  0
ENDBLK
  5
   189
  8
0
  6
CONTINUOUS
 62
     7
  0
BLOCK
  5
   18A
  8
0
  6
CONTINUOUS
 62
     7
  2
*HATCH73
 70
    65
 10
0.0
 20
0.0
 30
0.0
  3
*HATCH73
  0
LINE
  5
   18B
  8
0
  6
CONTINUOUS
 62
    52
 10
51.1177520751953
 20
119.0
 30
0.0
 11
49.1177520751953
 21
116.999992370605
 31
0.0
  0
LINE
  5
   18C
  8
0
  6
CONTINUOUS
 62
    52
 10
55.3603897094727
 20
119.0
 30
0.0
 11
53.3603897094727
 21
116.999992370605
 31
0.0
  0
LINE
  5
   18D
  8
0
  6
CONTINUOUS
 62
    52
 10
59.60302734375
 20
119.0
 30
0.0
 11
57.60302734375
 21
116.999992370605
 31
0.0
  0
LINE
  5
   18E
  8
0
  6
CONTINUOUS
 62
    52
 10
63.8456649780273
 20
119.0
 30
0.0
 11
61.8456649780273
 21
116.999992370605
 31
0.0
  0
LINE
  5
   18F
  8
0
  6
CONTINUOUS
 62
    52
 10
68.0883102416992
 20
119.0
 30
0.0
 11
66.0883026123047
 21
116.999992370605
 31
0.0
  0
LINE
  5
   190
  8
0
  6
CONTINUOUS
 62
    52
 10
72.3309555053711
 20
119.0
 30
0.0
 11
70.3309478759766
 21
116.999992370605
 31
0.0
  0
LINE
  5
   191
  8
0
  6
CONTINUOUS
 62
    52
 10
75.7371292114258
 20
118.163528442383
 30
0.0
 11
74.5735931396484
 21
116.999992370605
 31
0.0
  0
ENDBLK
  5
   192
  8
0
  6
CONTINUOUS
 62
     7
  0
BLOCK
  5
   193
  8
0
  6
CONTINUOUS
 62
     7
  2
*HATCH74
 70
    65
 10
0.0
 20
0.0
 30
0.0
  3
*HATCH74
  0
LINE
  5
   194
  8
0
  6
CONTINUOUS
 62
    52
 10
44.753791809082
 20
119.0
 30
0.0
 11
42.753791809082
 21
116.999992370605
 31
0.0
  0
ENDBLK
  5
   195
  8
0
  6
CONTINUOUS
 62
     7
  0
BLOCK
  5
   196
  8
0
  6
CONTINUOUS
 62
     7
  2
*HATCH75
 70
    65
 10
0.0
 20
0.0
 30
0.0
  3
*HATCH75
  0
LINE
  5
   197
  8
0
  6
CONTINUOUS
 62
    52
 10
6.57002258300781
 20
118.999992370605
 30
0.0
 11
4.57002258300781
 21
117.0
 31
0.0
  0
LINE
  5
   198
  8
0
  6
CONTINUOUS
 62
    52
 10
10.8126640319824
 20
118.999992370605
 30
0.0
 11
8.81266403198242
 21
117.0
 31
0.0
  0
LINE
  5
   199
  8
0
  6
CONTINUOUS
 62
    52
 10
15.055305480957
 20
118.999992370605
 30
0.0
 11
13.055305480957
 21
117.0
 31
0.0
  0
LINE
  5
   19A
  8
0
  6
CONTINUOUS
 62
    52
 10
19.2979469299316
 20
118.999992370605
 30
0.0
 11
17.2979469299316
 21
117.0
 31
0.0
  0
LINE
  5
   19B
  8
0
  6
CONTINUOUS
 62
    52
 10
23.5405883789063
 20
118.999992370605
 30
0.0
 11
21.5405883789062
 21
117.0
 31
0.0
  0
LINE
  5
   19C
  8
0
  6
CONTINUOUS
 62
    52
 10
27.7832298278809
 20
118.999992370605
 30
0.0
 11
25.7832298278809
 21
117.0
 31
0.0
  0
LINE
  5
   19D
  8
0
  6
CONTINUOUS
 62
    52
 10
32.0258712768555
 20
118.999992370605
 30
0.0
 11
30.0258712768555
 21
117.0
 31
0.0
  0
LINE
  5
   19E
  8
0
  6
CONTINUOUS
 62
    52
 10
35.4869270324707
 20
118.218414306641
 30
0.0
 11
34.2685089111328
 21
117.0
 31
0.0
  0
ENDBLK
  5
   19F
  8
0
  6
CONTINUOUS
 62
     7
  0
BLOCK
  5
   1A0
  8
0
  6
CONTINUOUS
 62
     7
  2
*UDIM329
 70
    65
 10
0.0
 20
0.0
 30
0.0
  3
*UDIM329
  0
TEXT
  5
   1A1
  8
0
  6
CONTINUOUS
 62
     7
 10
116.571261679871
 20
20.3380489735611
 30
0.0
 40
2.99999994933605
  1
275
 50
359.999999948034
 41
0.933333333333333
 72
     1
 11
120.471261615361
 21
21.8380489447115
 31
0.0
 73
     2
  0
LINE
  5
   1A2
  8
0
  6
CONTINUOUS
 62
     7
 10
175.746260751149
 20
42.857053693713
 30
0.0
 11
175.746260751149
 21
17.3380489700435
 31
0.0
  0
LINE
  5
   1A3
  8
0
  6
CONTINUOUS
 62
     7
 10
65.7462623924017
 20
53.3768327563222
 30
0.0
 11
65.7462623924017
 21
17.3380489700435
 31
0.0
  0
LINE
  5
   1A4
  8
0
  6
CONTINUOUS
 62
     7
 10
175.746260751149
 20
19.3380489700435
 30
0.0
 11
65.7462623924017
 21
19.3380489700435
 31
0.0
  0
LINE
  5
   1A5
  8
0
  6
CONTINUOUS
 62
     7
 10
172.791837473942
 20
18.8171045400918
 30
0.0
 11
175.746260751149
 21
19.3380489700435
 31
0.0
  0
LINE
  5
   1A6
  8
0
  6
CONTINUOUS
 62
     7
 10
175.746260751149
 20
19.3380489700435
 30
0.0
 11
172.791837473942
 21
19.8589933999951
 31
0.0
  0
LINE
  5
   1A7
  8
0
  6
CONTINUOUS
 62
     7
 10
68.7006856696087
 20
19.8589933999951
 30
0.0
 11
65.7462623924017
 21
19.3380489700435
 31
0.0
  0
LINE
  5
   1A8
  8
0
  6
CONTINUOUS
 62
     7
 10
65.7462623924017
 20
19.3380489700435
 30
0.0
 11
68.7006856696087
 21
18.8171045400918
 31
0.0
  0
ENDBLK
  5
   1A9
  8
0
  6
CONTINUOUS
 62
     7
  0
BLOCK
  5
   1AA
  8
0
  6
CONTINUOUS
 62
     7
  2
*UDIM330
 70
    65
 10
0.0
 20
0.0
 30
0.0
  3
*UDIM330
  0
TEXT
  5
   1AB
  8
0
  6
CONTINUOUS
 62
     7
 10
114.871261672023
 20
30.4034101490213
 30
0.0
 40
2.99999994933605
  1
269,5
 50
359.999999948034
 41
0.933333333333333
 72
     1
 11
121.571261560227
 21
31.9034101176463
 31
0.0
 73
     2
  0
LINE
  5
   1AC
  8
0
  6
CONTINUOUS
 62
     7
 10
175.746260751149
 20
42.857053693713
 30
0.0
 11
175.746260751149
 21
27.4034101429783
 31
0.0
  0
LINE
  5
   1AD
  8
0
  6
CONTINUOUS
 62
     7
 10
67.9462624251843
 20
42.8724921803695
 30
0.0
 11
67.9462624251843
 21
27.4034101429783
 31
0.0
  0
LINE
  5
   1AE
  8
0
  6
CONTINUOUS
 62
     7
 10
175.746260751149
 20
29.4034101429783
 30
0.0
 11
67.9462624251843
 21
29.4034101429783
 31
0.0
  0
LINE
  5
   1AF
  8
0
  6
CONTINUOUS
 62
     7
 10
172.791837473942
 20
28.8824657130266
 30
0.0
 11
175.746260751149
 21
29.4034101429783
 31
0.0
  0
LINE
  5
   1B0
  8
0
  6
CONTINUOUS
 62
     7
 10
175.746260751149
 20
29.4034101429783
 30
0.0
 11
172.791837473942
 21
29.9243545729299
 31
0.0
  0
LINE
  5
   1B1
  8
0
  6
CONTINUOUS
 62
     7
 10
70.9006857023912
 20
29.9243545729299
 30
0.0
 11
67.9462624251843
 21
29.4034101429783
 31
0.0
  0
LINE
  5
   1B2
  8
0
  6
CONTINUOUS
 62
     7
 10
67.9462624251843
 20
29.4034101429783
 30
0.0
 11
70.9006857023912
 21
28.8824657130266
 31
0.0
  0
ENDBLK
  5
   1B3
  8
0
  6
CONTINUOUS
 62
     7
  0
BLOCK
  5
   1B4
  8
0
  6
CONTINUOUS
 62
     7
  2
*UDIM331
 70
    65
 10
0.0
 20
0.0
 30
0.0
  3
*UDIM331
  0
TEXT
  5
   1B5
  8
0
  6
CONTINUOUS
 62
     7
 10
61.3962608353179
 20
30.4034101439704
 30
0.0
 40
2.99999994933605
  1
2
 50
359.999999948034
 41
0.933333333333333
 72
     1
 11
62.496260818094
 21
31.9034101176463
 31
0.0
 73
     2
  0
LINE
  5
   1B6
  8
0
  6
CONTINUOUS
 62
     7
 10
67.1462624132633
 20
42.6380094182548
 30
0.0
 11
67.1462624132633
 21
27.4034101429783
 31
0.0
  0
LINE
  5
   1B7
  8
0
  6
CONTINUOUS
 62
     7
 10
67.9462624251843
 20
29.4034101429783
 30
0.0
 11
61.3962608366708
 21
29.4034101429783
 31
0.0
  0
LINE
  5
   1B8
  8
0
  6
CONTINUOUS
 62
     7
 10
70.9006857023912
 20
29.9243545729299
 30
0.0
 11
67.9462624251843
 21
29.4034101429783
 31
0.0
  0
LINE
  5
   1B9
  8
0
  6
CONTINUOUS
 62
     7
 10
67.9462624251843
 20
29.4034101429783
 30
0.0
 11
70.9006857023912
 21
28.8824657130266
 31
0.0
  0
LINE
  5
   1BA
  8
0
  6
CONTINUOUS
 62
     7
 10
64.1918391360564
 20
28.8824657130266
 30
0.0
 11
67.1462624132633
 21
29.4034101429783
 31
0.0
  0
LINE
  5
   1BB
  8
0
  6
CONTINUOUS
 62
     7
 10
67.1462624132633
 20
29.4034101429783
 30
0.0
 11
64.1918391360564
 21
29.9243545729299
 31
0.0
  0
ENDBLK
  5
   1BC
  8
0
  6
CONTINUOUS
 62
     7
  0
BLOCK
  5
   1BD
  8
0
  6
CONTINUOUS
 62
     7
  2
*UDIM332
 70
    65
 10
0.0
 20
0.0
 30
0.0
  3
*UDIM332
  0
TEXT
  5
   1BE
  8
0
  6
CONTINUOUS
 62
     7
 10
138.171246763998
 20
41.309970443904
 30
0.0
 40
2.99999994933605
  1
167
 50
359.999999948034
 41
0.933333333333333
 72
     1
 11
142.071246699487
 21
42.8099704150544
 31
0.0
 73
     2
  0
LINE
  5
   1BF
  8
0
  6
CONTINUOUS
 62
     7
 10
175.746260751149
 20
42.857053693713
 30
0.0
 11
175.746260751149
 21
38.3099704403864
 31
0.0
  0
LINE
  5
   1C0
  8
0
  6
CONTINUOUS
 62
     7
 10
108.946232179185
 20
79.6768466736685
 30
0.0
 11
108.946232179185
 21
38.3099704403864
 31
0.0
  0
LINE
  5
   1C1
  8
0
  6
CONTINUOUS
 62
     7
 10
175.746260751149
 20
40.3099704403864
 30
0.0
 11
108.946232179185
 21
40.3099704403864
 31
0.0
  0
LINE
  5
   1C2
  8
0
  6
CONTINUOUS
 62
     7
 10
172.791837473942
 20
39.7890260104347
 30
0.0
 11
175.746260751149
 21
40.3099704403864
 31
0.0
  0
LINE
  5
   1C3
  8
0
  6
CONTINUOUS
 62
     7
 10
175.746260751149
 20
40.3099704403864
 30
0.0
 11
172.791837473942
 21
40.830914870338
 31
0.0
  0
LINE
  5
   1C4
  8
0
  6
CONTINUOUS
 62
     7
 10
111.900655456392
 20
40.830914870338
 30
0.0
 11
108.946232179185
 21
40.3099704403864
 31
0.0
  0
LINE
  5
   1C5
  8
0
  6
CONTINUOUS
 62
     7
 10
108.946232179185
 20
40.3099704403864
 30
0.0
 11
111.900655456392
 21
39.7890260104347
 31
0.0
  0
ENDBLK
  5
   1C6
  8
0
  6
CONTINUOUS
 62
     7
  0
BLOCK
  5
   1C7
  8
0
  6
CONTINUOUS
 62
     7
  2
*UDIM333
 70
    65
 10
0.0
 20
0.0
 30
0.0
  3
*UDIM333
  0
TEXT
  5
   1C8
  8
0
  6
CONTINUOUS
 62
     7
 10
132.805733006259
 20
71.8018526385814
 30
0.0
 40
2.99999994933605
  1
1,75
 50
89.9999999480344
 41
0.933333333333333
 72
     1
 11
131.305733036391
 21
77.1018525504336
 31
0.0
 73
     2
  0
LINE
  5
   1C9
  8
0
  6
CONTINUOUS
 62
     7
 10
115.146239331643
 20
85.8768538261267
 30
0.0
 11
135.805733011059
 21
85.8768538261267
 31
0.0
  0
LINE
  5
   1CA
  8
0
  6
CONTINUOUS
 62
     7
 10
133.805733011059
 20
71.8018526399399
 30
0.0
 11
133.805733011059
 21
86.5768866419021
 31
0.0
  0
LINE
  5
   1CB
  8
0
  6
CONTINUOUS
 62
     7
 10
134.326677441011
 20
82.9224305489198
 30
0.0
 11
133.805733011059
 21
85.8768538261267
 31
0.0
  0
LINE
  5
   1CC
  8
0
  6
CONTINUOUS
 62
     7
 10
133.805733011059
 20
85.8768538261267
 30
0.0
 11
133.284788581107
 21
82.9224305489198
 31
0.0
  0
LINE
  5
   1CD
  8
0
  6
CONTINUOUS
 62
     7
 10
133.284788581107
 20
89.5313099191091
 30
0.0
 11
133.805733011059
 21
86.5768866419021
 31
0.0
  0
LINE
  5
   1CE
  8
0
  6
CONTINUOUS
 62
     7
 10
133.805733011059
 20
86.5768866419021
 30
0.0
 11
134.326677441011
 21
89.5313099191091
 31
0.0
  0
ENDBLK
  5
   1CF
  8
0
  6
CONTINUOUS
 62
     7
  0
BLOCK
  5
   1D0
  8
0
  6
CONTINUOUS
 62
     7
  2
*UDIM334
 70
    65
 10
0.0
 20
0.0
 30
0.0
  3
*UDIM334
  0
TEXT
  5
   1D1
  8
0
  6
CONTINUOUS
 62
     7
 10
117.932537857409
 20
79.1711205093666
 30
0.0
 40
2.99999994933605
  1
5,5
 50
318.152248114506
 41
0.933333333333333
 72
     1
 11
121.838457013574
 21
77.686602083824
 31
0.0
 73
     2
  0
TEXT
  5
   1D2
  8
0
  6
CONTINUOUS
 62
     7
 10
115.586039152427
 20
81.2726541204117
 30
0.0
 40
2.99999994933605
  1
Ø
 50
318.152248114506
 41
0.933333333333333
 72
     1
 11
117.406181687857
 21
81.6561655724646
 31
0.0
 73
     2
  0
LINE
  5
   1D3
  8
0
  6
CONTINUOUS
 62
     7
 10
123.07576205165
 20
73.2224027600529
 30
0.0
 11
108.126824470916
 21
86.6107309783259
 31
0.0
  0
LINE
  5
   1D4
  8
0
  6
CONTINUOUS
 62
     7
 10
112.314007101336
 20
83.5600026304017
 30
0.0
 11
109.765647500059
 21
85.142994526332
 31
0.0
  0
LINE
  5
   1D5
  8
0
  6
CONTINUOUS
 62
     7
 10
109.765647500059
 20
85.142994526332
 30
0.0
 11
111.618907261928
 21
82.7838785361704
 31
0.0
  0
LINE
  5
   1D6
  8
0
  6
CONTINUOUS
 62
     7
 10
105.57846486964
 20
88.1937228742561
 30
0.0
 11
108.126824470916
 21
86.6107309783259
 31
0.0
  0
LINE
  5
   1D7
  8
0
  6
CONTINUOUS
 62
     7
 10
108.126824470916
 20
86.6107309783259
 30
0.0
 11
106.273564709047
 21
88.9698469684875
 31
0.0
  0
ENDBLK
  5
   1D8
  8
0
  6
CONTINUOUS
 62
     7
  0
BLOCK
  5
   1D9
  8
0
  6
CONTINUOUS
 62
     7
  2
*UDIM335
 70
    65
 10
0.0
 20
0.0
 30
0.0
  3
*UDIM335
  0
TEXT
  5
   1DA
  8
0
  6
CONTINUOUS
 62
     7
 10
42.5598530616841
 20
82.4018866546251
 30
0.0
 40
2.99999994933605
  1
105
 50
89.9999999480344
 41
0.933333333333333
 72
     1
 11
41.0598530905484
 21
86.3018865901206
 31
0.0
 73
     2
  0
LINE
  5
   1DB
  8
0
  6
CONTINUOUS
 62
     7
 10
53.746262228489
 20
65.5768863289777
 30
0.0
 11
41.5598530652164
 21
65.5768863289777
 31
0.0
  0
LINE
  5
   1DC
  8
0
  6
CONTINUOUS
 62
     7
 10
53.746262228489
 20
107.576886954827
 30
0.0
 11
41.5598530652164
 21
107.576886954827
 31
0.0
  0
LINE
  5
   1DD
  8
0
  6
CONTINUOUS
 62
     7
 10
43.5598530652164
 20
65.5768863289777
 30
0.0
 11
43.5598530652164
 21
107.576886954827
 31
0.0
  0
LINE
  5
   1DE
  8
0
  6
CONTINUOUS
 62
     7
 10
43.0389086352648
 20
68.5313096061847
 30
0.0
 11
43.5598530652164
 21
65.5768863289777
 31
0.0
  0
LINE
  5
   1DF
  8
0
  6
CONTINUOUS
 62
     7
 10
43.5598530652164
 20
65.5768863289777
 30
0.0
 11
44.0807974951681
 21
68.5313096061847
 31
0.0
  0
LINE
  5
   1E0
  8
0
  6
CONTINUOUS
 62
     7
 10
44.0807974951681
 20
104.62246367762
 30
0.0
 11
43.5598530652164
 21
107.576886954827
 31
0.0
  0
LINE
  5
   1E1
  8
0
  6
CONTINUOUS
 62
     7
 10
43.5598530652164
 20
107.576886954827
 30
0.0
 11
43.0389086352648
 21
104.62246367762
 31
0.0
  0
ENDBLK
  5
   1E2
  8
0
  6
CONTINUOUS
 62
     7
  0
BLOCK
  5
   1E3
  8
0
  6
CONTINUOUS
 62
     7
  2
*UDIM336
 70
    65
 10
0.0
 20
0.0
 30
0.0
  3
*UDIM336
  0
TEXT
  5
   1E4
  8
0
  6
CONTINUOUS
 62
     7
 10
40.0098775935097
 20
161.304768604688
 30
0.0
 40
2.99999994933605
  1
27,5
 50
359.999999948034
 41
0.933333333333333
 72
     1
 11
45.3098775053563
 21
162.804768574576
 31
0.0
 73
     2
  0
LINE
  5
   1E5
  8
0
  6
CONTINUOUS
 62
     7
 10
65.7462623924017
 20
119.776832190078
 30
0.0
 11
65.7462623924017
 21
162.304768599908
 31
0.0
  0
LINE
  5
   1E6
  8
0
  6
CONTINUOUS
 62
     7
 10
54.7462622284889
 20
108.576886954827
 30
0.0
 11
54.7462622284889
 21
162.304768599908
 31
0.0
  0
LINE
  5
   1E7
  8
0
  6
CONTINUOUS
 62
     7
 10
65.7462623924017
 20
160.304768599908
 30
0.0
 11
40.0098775948626
 21
160.304768599908
 31
0.0
  0
LINE
  5
   1E8
  8
0
  6
CONTINUOUS
 62
     7
 10
68.7006856696087
 20
160.82571302986
 30
0.0
 11
65.7462623924017
 21
160.304768599908
 31
0.0
  0
LINE
  5
   1E9
  8
0
  6
CONTINUOUS
 62
     7
 10
65.7462623924017
 20
160.304768599908
 30
0.0
 11
68.7006856696087
 21
159.783824169956
 31
0.0
  0
LINE
  5
   1EA
  8
0
  6
CONTINUOUS
 62
     7
 10
51.791838951282
 20
159.783824169956
 30
0.0
 11
54.7462622284889
 21
160.304768599908
 31
0.0
  0
LINE
  5
   1EB
  8
0
  6
CONTINUOUS
 62
     7
 10
54.7462622284889
 20
160.304768599908
 30
0.0
 11
51.791838951282
 21
160.82571302986
 31
0.0
  0
ENDBLK
  5
   1EC
  8
0
  6
CONTINUOUS
 62
     7
  0
ENDSEC
  0
SECTION
  2
ENTITIES
  0
LINE
  5
   1ED
  8
0
  6
CONTINUOUS
 62
     3
 10
216.38998284339
 20
118.776885787288
 30
0.0
 11
216.38998284339
 21
146.076881135702
 31
0.0
  0
LINE
  5
   1EE
  8
0
  6
DASHDOT
 62
     7
 10
251.390016854144
 20
55.0767805752395
 30
0.0
 11
251.390016854144
 21
61.8768863532152
 31
0.0
  0
LINE
  5
   1EF
  8
0
  6
DASHDOT
 62
     7
 10
251.389995697738
 20
53.3168863025789
 30
0.0
 11
251.389995697738
 21
56.8368803728205
 31
0.0
  0
LINE
  5
   1F0
  8
0
  6
DASHDOT
 62
     7
 10
223.389992516476
 20
53.3168818819741
 30
0.0
 11
223.389992516476
 21
56.8368820957275
 31
0.0
  0
LINE
  5
   1F1
  8
0
  6
DASHDOT
 62
     7
 10
237.389999389648
 20
58.3284122623731
 30
0.0
 11
237.389999389648
 21
99.6465205459172
 31
0.0
  0
LINE
  5
   1F2
  8
0
  6
DASHDOT
 62
     7
 10
237.389999389648
 20
48.363346861527
 30
0.0
 11
237.389999389648
 21
158.604627153058
 31
0.0
  0
LINE
  5
   1F3
  8
0
  6
DASHDOT
 62
     7
 10
279.350189858339
 20
86.5768853074706
 30
0.0
 11
196.40870585186
 21
86.5768853074706
 31
0.0
  0
LINE
  5
   1F4
  8
0
  6
CONTINUOUS
 62
     3
 10
257.889992514754
 20
156.476883297305
 30
0.0
 11
216.891633106063
 21
156.476883297305
 31
0.0
  0
LINE
  5
   1F5
  8
0
  6
CONTINUOUS
 62
     3
 10
258.390014073276
 20
118.776885787288
 30
0.0
 11
258.390014073276
 21
146.076881135702
 31
0.0
  0
LINE
  5
   1F6
  8
0
  6
CONTINUOUS
 62
     3
 10
257.449993118549
 20
146.076881135702
 30
0.0
 11
257.449993118549
 21
156.352621820844
 31
0.0
  0
LINE
  5
   1F7
  8
0
  6
CONTINUOUS
 62
     3
 10
256.009993707443
 20
146.076881135702
 30
0.0
 11
256.009993707443
 21
156.352621820844
 31
0.0
  0
LINE
  5
   1F8
  8
0
  6
CONTINUOUS
 62
     3
 10
254.569994296337
 20
146.076881135702
 30
0.0
 11
254.569994296337
 21
156.352621820844
 31
0.0
  0
LINE
  5
   1F9
  8
0
  6
CONTINUOUS
 62
     3
 10
253.129994885231
 20
146.076881135702
 30
0.0
 11
253.129994885231
 21
156.352621820844
 31
0.0
  0
LINE
  5
   1FA
  8
0
  6
CONTINUOUS
 62
     3
 10
251.689992422367
 20
146.076881135702
 30
0.0
 11
251.689992422367
 21
156.352621820844
 31
0.0
  0
LINE
  5
   1FB
  8
0
  6
CONTINUOUS
 62
     3
 10
250.249993011261
 20
146.076881135702
 30
0.0
 11
250.249993011261
 21
156.352621820844
 31
0.0
  0
LINE
  5
   1FC
  8
0
  6
CONTINUOUS
 62
     3
 10
248.809993600155
 20
146.076881135702
 30
0.0
 11
248.809993600155
 21
156.352621820844
 31
0.0
  0
LINE
  5
   1FD
  8
0
  6
CONTINUOUS
 62
     3
 10
247.369994189049
 20
146.076881135702
 30
0.0
 11
247.369994189049
 21
156.352621820844
 31
0.0
  0
LINE
  5
   1FE
  8
0
  6
CONTINUOUS
 62
     3
 10
245.929994777943
 20
146.076881135702
 30
0.0
 11
245.929994777943
 21
156.352621820844
 31
0.0
  0
LINE
  5
   1FF
  8
0
  6
CONTINUOUS
 62
     3
 10
244.489992315079
 20
146.076881135702
 30
0.0
 11
244.489992315079
 21
156.352621820844
 31
0.0
  0
LINE
  5
   200
  8
0
  6
CONTINUOUS
 62
     3
 10
243.049992903973
 20
146.076881135702
 30
0.0
 11
243.049992903973
 21
156.352621820844
 31
0.0
  0
LINE
  5
   201
  8
0
  6
CONTINUOUS
 62
     3
 10
241.609993492867
 20
146.076881135702
 30
0.0
 11
241.609993492867
 21
156.352621820844
 31
0.0
  0
LINE
  5
   202
  8
0
  6
CONTINUOUS
 62
     3
 10
240.169994081761
 20
146.076881135702
 30
0.0
 11
240.169994081761
 21
156.352621820844
 31
0.0
  0
LINE
  5
   203
  8
0
  6
CONTINUOUS
 62
     3
 10
238.729993144776
 20
146.076881135702
 30
0.0
 11
238.729993144776
 21
156.352621820844
 31
0.0
  0
LINE
  5
   204
  8
0
  6
CONTINUOUS
 62
     3
 10
237.289993733669
 20
146.076881135702
 30
0.0
 11
237.289993733669
 21
156.352621820844
 31
0.0
  0
LINE
  5
   205
  8
0
  6
CONTINUOUS
 62
     3
 10
235.849994322563
 20
146.076881135702
 30
0.0
 11
235.849994322563
 21
156.352621820844
 31
0.0
  0
LINE
  5
   206
  8
0
  6
CONTINUOUS
 62
     3
 10
234.409993385578
 20
146.076881135702
 30
0.0
 11
234.409993385578
 21
156.352621820844
 31
0.0
  0
LINE
  5
   207
  8
0
  6
CONTINUOUS
 62
     3
 10
232.969993974472
 20
146.076881135702
 30
0.0
 11
232.969993974472
 21
156.352621820844
 31
0.0
  0
CIRCLE
  5
   208
  8
0
  6
CONTINUOUS
 62
     7
 10
259.720012939831
 20
116.254123499226
 30
0.0
 40
0.160000002384186
  0
LINE
  5
   209
  8
0
  6
CONTINUOUS
 62
     3
 10
258.390014073276
 20
146.076881135702
 30
0.0
 11
216.38998284339
 21
146.076881135702
 31
0.0
  0
LINE
  5
   20A
  8
0
  6
CONTINUOUS
 62
     3
 10
258.390014073276
 20
145.676881129742
 30
0.0
 11
216.38998284339
 21
145.676881129742
 31
0.0
  0
LINE
  5
   20B
  8
0
  6
CONTINUOUS
 62
     3
 10
258.390014073276
 20
140.676881055236
 30
0.0
 11
216.38998284339
 21
140.676881055236
 31
0.0
  0
LINE
  5
   20C
  8
0
  6
CONTINUOUS
 62
     3
 10
258.390014073276
 20
140.276881049275
 30
0.0
 11
216.38998284339
 21
140.276881049275
 31
0.0
  0
LINE
  5
   20D
  8
0
  6
CONTINUOUS
 62
     3
 10
257.990014067315
 20
145.676881129742
 30
0.0
 11
257.990014067315
 21
146.076881135702
 31
0.0
  0
LINE
  5
   20E
  8
0
  6
CONTINUOUS
 62
     3
 10
231.529994563366
 20
146.076881135702
 30
0.0
 11
231.529994563366
 21
156.476883297305
 31
0.0
  0
LINE
  5
   20F
  8
0
  6
CONTINUOUS
 62
     3
 10
230.08999515226
 20
146.076881135702
 30
0.0
 11
230.08999515226
 21
156.476883297305
 31
0.0
  0
LINE
  5
   210
  8
0
  6
CONTINUOUS
 62
     3
 10
228.649995741154
 20
146.076881135702
 30
0.0
 11
228.649995741154
 21
156.476883297305
 31
0.0
  0
LINE
  5
   211
  8
0
  6
CONTINUOUS
 62
     3
 10
227.209996330048
 20
146.076881135702
 30
0.0
 11
227.209996330048
 21
156.476883297305
 31
0.0
  0
LINE
  5
   212
  8
0
  6
CONTINUOUS
 62
     3
 10
258.390014073276
 20
146.076881135702
 30
0.0
 11
258.390014073276
 21
155.976838268966
 31
0.0
  0
LINE
  5
   213
  8
0
  6
CONTINUOUS
 62
     3
 10
232.969993974472
 20
52.6011432240457
 30
0.0
 11
232.969993974472
 21
54.3768863535322
 31
0.0
  0
LINE
  5
   214
  8
0
  6
CONTINUOUS
 62
     3
 10
234.409993385578
 20
52.6011432240457
 30
0.0
 11
234.409993385578
 21
54.3768863535322
 31
0.0
  0
LINE
  5
   215
  8
0
  6
CONTINUOUS
 62
     3
 10
235.849994322563
 20
52.6011432240457
 30
0.0
 11
235.849994322563
 21
54.3768863535322
 31
0.0
  0
LINE
  5
   216
  8
0
  6
CONTINUOUS
 62
     3
 10
237.289993733669
 20
52.6011432240457
 30
0.0
 11
237.289993733669
 21
54.3768863535322
 31
0.0
  0
LINE
  5
   217
  8
0
  6
CONTINUOUS
 62
     3
 10
238.729993144776
 20
52.6011432240457
 30
0.0
 11
238.729993144776
 21
54.3768863535322
 31
0.0
  0
LINE
  5
   218
  8
0
  6
CONTINUOUS
 62
     3
 10
240.169994081761
 20
52.6011432240457
 30
0.0
 11
240.169994081761
 21
54.3768863535322
 31
0.0
  0
LINE
  5
   219
  8
0
  6
CONTINUOUS
 62
     3
 10
241.609993492867
 20
52.6011432240457
 30
0.0
 11
241.609993492867
 21
54.3768863535322
 31
0.0
  0
LINE
  5
   21A
  8
0
  6
CONTINUOUS
 62
     3
 10
243.049992903973
 20
52.6011432240457
 30
0.0
 11
243.049992903973
 21
54.3768863535322
 31
0.0
  0
LINE
  5
   21B
  8
0
  6
CONTINUOUS
 62
     3
 10
244.489992315079
 20
52.6011432240457
 30
0.0
 11
244.489992315079
 21
54.3768863535322
 31
0.0
  0
LINE
  5
   21C
  8
0
  6
CONTINUOUS
 62
     3
 10
245.929994777943
 20
52.6011432240457
 30
0.0
 11
245.929994777943
 21
54.3768863535322
 31
0.0
  0
LINE
  5
   21D
  8
0
  6
CONTINUOUS
 62
     3
 10
247.369994189049
 20
52.6011432240457
 30
0.0
 11
247.369994189049
 21
54.3768863535322
 31
0.0
  0
LINE
  5
   21E
  8
0
  6
CONTINUOUS
 62
     3
 10
248.809993600155
 20
52.6011432240457
 30
0.0
 11
248.809993600155
 21
54.3768863535322
 31
0.0
  0
LINE
  5
   21F
  8
0
  6
CONTINUOUS
 62
     3
 10
250.249993011261
 20
52.6011432240457
 30
0.0
 11
250.249993011261
 21
54.3768863535322
 31
0.0
  0
LINE
  5
   220
  8
0
  6
CONTINUOUS
 62
     3
 10
251.689992422367
 20
52.6011432240457
 30
0.0
 11
251.689992422367
 21
54.3768863535322
 31
0.0
  0
LINE
  5
   221
  8
0
  6
CONTINUOUS
 62
     3
 10
253.129994885231
 20
52.6011432240457
 30
0.0
 11
253.129994885231
 21
54.3768863535322
 31
0.0
  0
LINE
  5
   222
  8
0
  6
CONTINUOUS
 62
     3
 10
254.569994296337
 20
52.6011432240457
 30
0.0
 11
254.569994296337
 21
54.3768863535322
 31
0.0
  0
LINE
  5
   223
  8
0
  6
CONTINUOUS
 62
     3
 10
256.009993707443
 20
52.6011432240457
 30
0.0
 11
256.009993707443
 21
54.3768863535322
 31
0.0
  0
LINE
  5
   224
  8
0
  6
CONTINUOUS
 62
     3
 10
257.449993118549
 20
52.6011432240457
 30
0.0
 11
257.449993118549
 21
54.3768863535322
 31
0.0
  0
LINE
  5
   225
  8
0
  6
CONTINUOUS
 62
     3
 10
258.390014073276
 20
52.9769267759238
 30
0.0
 11
258.390014073276
 21
54.3768863535322
 31
0.0
  0
LINE
  5
   226
  8
0
  6
CONTINUOUS
 62
     3
 10
257.889992514754
 20
52.4768817475847
 30
0.0
 11
216.891634424283
 21
52.4768817475847
 31
0.0
  0
ARC
  5
   227
  8
0
  6
CONTINUOUS
 62
     3
 10
257.88999296744
 20
155.976885403528
 30
0.0
 40
0.500000541867644
 50
360.000287654422
 51
449.999800478754
  0
ARC
  5
   228
  8
0
  6
CONTINUOUS
 62
     3
 10
216.890005811857
 20
155.976885403528
 30
0.0
 40
0.500000541867644
 50
449.813525640829
 51
539.999712241647
  0
LINE
  5
   229
  8
0
  6
CONTINUOUS
 62
     3
 10
216.389984706021
 20
146.076881135702
 30
0.0
 11
216.389984706021
 21
155.976838268966
 31
0.0
  0
LINE
  5
   22A
  8
0
  6
CONTINUOUS
 62
     3
 10
217.330005660747
 20
146.076881135702
 30
0.0
 11
217.330005660747
 21
156.352621820844
 31
0.0
  0
LINE
  5
   22B
  8
0
  6
CONTINUOUS
 62
     3
 10
218.770005071854
 20
146.076881135702
 30
0.0
 11
218.770005071854
 21
156.352621820844
 31
0.0
  0
LINE
  5
   22C
  8
0
  6
CONTINUOUS
 62
     3
 10
220.21000448296
 20
146.076881135702
 30
0.0
 11
220.21000448296
 21
156.352621820844
 31
0.0
  0
LINE
  5
   22D
  8
0
  6
CONTINUOUS
 62
     3
 10
221.650003894066
 20
146.076881135702
 30
0.0
 11
221.650003894066
 21
156.352621820844
 31
0.0
  0
LINE
  5
   22E
  8
0
  6
CONTINUOUS
 62
     3
 10
223.09000635693
 20
146.076881135702
 30
0.0
 11
223.09000635693
 21
156.352621820844
 31
0.0
  0
LINE
  5
   22F
  8
0
  6
CONTINUOUS
 62
     3
 10
224.530005768036
 20
146.076881135702
 30
0.0
 11
224.530005768036
 21
156.352621820844
 31
0.0
  0
LINE
  5
   230
  8
0
  6
CONTINUOUS
 62
     3
 10
225.970005179142
 20
146.076881135702
 30
0.0
 11
225.970005179142
 21
156.352621820844
 31
0.0
  0
ARC
  5
   231
  8
0
  6
CONTINUOUS
 62
     3
 10
257.889991652928
 20
52.9768809558775
 30
0.0
 40
0.500001856388509
 50
270.000350048231
 51
359.999561610556
  0
LINE
  5
   232
  8
0
  6
CONTINUOUS
 62
     3
 10
216.389984706021
 20
52.9769267759238
 30
0.0
 11
216.389984706021
 21
54.3768863535322
 31
0.0
  0
ARC
  5
   233
  8
0
  6
CONTINUOUS
 62
     3
 10
216.890007126369
 20
52.9768809558775
 30
0.0
 40
0.500001856388509
 50
180.000438285513
 51
270.186474189881
  0
LINE
  5
   234
  8
0
  6
CONTINUOUS
 62
     3
 10
217.330005660747
 20
52.6011432240457
 30
0.0
 11
217.330005660747
 21
54.3768863535322
 31
0.0
  0
LINE
  5
   235
  8
0
  6
CONTINUOUS
 62
     3
 10
218.770005071854
 20
52.6011432240457
 30
0.0
 11
218.770005071854
 21
54.3768863535322
 31
0.0
  0
LINE
  5
   236
  8
0
  6
CONTINUOUS
 62
     3
 10
220.21000448296
 20
52.6011432240457
 30
0.0
 11
220.21000448296
 21
54.3768863535322
 31
0.0
  0
LINE
  5
   237
  8
0
  6
CONTINUOUS
 62
     3
 10
221.650003894066
 20
52.6011432240457
 30
0.0
 11
221.650003894066
 21
54.3768863535322
 31
0.0
  0
LINE
  5
   238
  8
0
  6
CONTINUOUS
 62
     3
 10
223.09000635693
 20
52.6011432240457
 30
0.0
 11
223.09000635693
 21
54.3768863535322
 31
0.0
  0
LINE
  5
   239
  8
0
  6
CONTINUOUS
 62
     3
 10
224.530005768036
 20
52.6011432240457
 30
0.0
 11
224.530005768036
 21
54.3768863535322
 31
0.0
  0
LINE
  5
   23A
  8
0
  6
CONTINUOUS
 62
     3
 10
225.970005179142
 20
52.6011432240457
 30
0.0
 11
225.970005179142
 21
54.3768863535322
 31
0.0
  0
LINE
  5
   23B
  8
0
  6
CONTINUOUS
 62
     3
 10
227.410004590248
 20
52.6011432240457
 30
0.0
 11
227.410004590248
 21
54.3768863535322
 31
0.0
  0
LINE
  5
   23C
  8
0
  6
CONTINUOUS
 62
     3
 10
228.850004001354
 20
52.6011432240457
 30
0.0
 11
228.850004001354
 21
54.3768863535322
 31
0.0
  0
LINE
  5
   23D
  8
0
  6
CONTINUOUS
 62
     3
 10
230.290006464218
 20
52.6011432240457
 30
0.0
 11
230.290006464218
 21
54.3768863535322
 31
0.0
  0
LINE
  5
   23E
  8
0
  6
CONTINUOUS
 62
     3
 10
231.730005875324
 20
52.6011432240457
 30
0.0
 11
231.730005875324
 21
54.3768863535322
 31
0.0
  0
LINE
  5
   23F
  8
0
  6
CONTINUOUS
 62
     3
 10
216.789984711981
 20
145.676881129742
 30
0.0
 11
216.789984711981
 21
146.076881135702
 31
0.0
  0
INSERT
  5
   240
  8
255
  6
CONTINUOUS
 62
     7
  2
FRTESTR
 10
191.454744311211
 20
42.3821615839789
 30
0.0
 41
0.400000005960464
 42
0.400000005960464
 50
3.50835464724173E-15
 43
0.400000005960464
  0
INSERT
  5
   241
  8
255
  6
CONTINUOUS
 62
     7
  2
MIC_MOT
 10
237.389999389648
 20
86.5768853074706
 30
0.0
 41
0.400000005960464
 42
0.400000005960464
 50
3.50835464724173E-15
 43
0.400000005960464
  0
LINE
  5
   242
  8
0
  6
CONTINUOUS
 62
     3
 10
213.308689598367
 20
156.476883297305
 30
0.0
 11
202.891632897447
 21
156.476883297305
 31
0.0
  0
ARC
  5
   243
  8
0
  6
CONTINUOUS
 62
     3
 10
202.890005603241
 20
155.976885403528
 30
0.0
 40
0.500000541867644
 50
449.813525640829
 51
539.999712241647
  0
LINE
  5
   244
  8
0
  6
CONTINUOUS
 62
     3
 10
202.389984497405
 20
52.9768809558775
 30
0.0
 11
202.389984497405
 21
155.976838268966
 31
0.0
  0
ARC
  5
   245
  8
0
  6
CONTINUOUS
 62
     3
 10
202.890006917753
 20
52.9768809558775
 30
0.0
 40
0.500001856388509
 50
180.000438285513
 51
270.186474189881
  0
LINE
  5
   246
  8
0
  6
CONTINUOUS
 62
     3
 10
213.067261259131
 20
52.4768817475847
 30
0.0
 11
202.891634215667
 21
52.4768817475847
 31
0.0
  0
INSERT
  5
   247
  8
0
  6
CONTINUOUS
 62
     7
  2
*UDIM308
 10
0.0
 20
0.0
 30
0.0
  0
INSERT
  5
   248
  8
0
  6
CONTINUOUS
 62
     7
  2
*UDIM309
 10
0.0
 20
0.0
 30
0.0
  0
INSERT
  5
   249
  8
0
  6
CONTINUOUS
 62
     7
  2
*UDIM310
 10
0.0
 20
0.0
 30
0.0
  0
INSERT
  5
   24A
  8
0
  6
CONTINUOUS
 62
     7
  2
*UDIM311
 10
0.0
 20
0.0
 30
0.0
  0
INSERT
  5
   24B
  8
0
  6
CONTINUOUS
 62
     7
  2
*UDIM312
 10
0.0
 20
0.0
 30
0.0
  0
INSERT
  5
   24C
  8
0
  6
CONTINUOUS
 62
     7
  2
*UDIM313
 10
0.0
 20
0.0
 30
0.0
  0
TEXT
  5
   24D
  8
0
  6
CONTINUOUS
 62
     7
 10
198.63299192128
 20
78.1954791730011
 30
0.0
 40
2.99999994933605
  1
=    =
 50
89.9999999480344
 41
0.91666673368878
 72
     1
 11
197.132991953835
 21
86.1704796369166
 31
0.0
 73
     2
  0
TEXT
  5
   24E
  8
0
  6
CONTINUOUS
 62
     7
 10
236.537688732244
 20
173.370613647101
 30
0.0
 40
2.99999994933605
  1
Y
 50
359.999999948034
 41
0.916666607525612
 72
     2
 11
238.73768855045
 21
173.370613645117
 31
0.0
  0
TEXT
  5
   24F
  8
0
  6
CONTINUOUS
 62
     7
 10
279.524869200501
 20
84.6827755855415
 30
0.0
 40
2.99999994933605
  1
X
 50
359.999999948034
 41
0.916666607525612
 72
     2
 11
281.724869018707
 21
84.6827755835572
 31
0.0
  0
TEXT
  5
   250
  8
0
  6
CONTINUOUS
 62
     7
 10
185.812285406614
 20
85.1176234237473
 30
0.0
 40
2.99999994933605
  1
X
 50
359.999999948034
 41
0.916666607525612
 72
     2
 11
188.01228522482
 21
85.1176234217631
 31
0.0
  0
LINE
  5
   251
  8
0
  6
CONTINUOUS
 62
     7
 10
219.389999389648
 20
-62.6653709411621
 30
0.0
 11
253.139999389648
 21
-62.6653709411621
 31
0.0
  0
LINE
  5
   252
  8
0
  6
CONTINUOUS
 62
     7
 10
219.389999389648
 20
-31.1653709411621
 30
0.0
 11
253.139999389648
 21
-31.1653709411621
 31
0.0
  0
LINE
  5
   253
  8
0
  6
CONTINUOUS
 62
     7
 10
253.139999389648
 20
-31.1653709411621
 30
0.0
 11
253.139999389648
 21
-51.7278709411621
 31
0.0
  0
LINE
  5
   254
  8
0
  6
CONTINUOUS
 62
     7
 10
219.389999389648
 20
-31.1653709411621
 30
0.0
 11
219.389999389648
 21
-62.6653709411621
 31
0.0
  0
LINE
  5
   255
  8
0
  6
DASHDOT
 62
     7
 10
248.665012843053
 20
-53.7278709411621
 30
0.0
 11
262.64530578909
 21
-53.7278709411621
 31
0.0
  0
LINE
  5
   256
  8
0
  6
CONTINUOUS
 62
     7
 10
253.139999389648
 20
-51.7278709411621
 30
0.0
 11
258.889999389648
 21
-51.7278709411621
 31
0.0
  0
LINE
  5
   257
  8
0
  6
CONTINUOUS
 62
     7
 10
253.139999389648
 20
-55.7278709411621
 30
0.0
 11
258.889999389648
 21
-55.7278709411621
 31
0.0
  0
ARC
  5
   258
  8
0
  6
CONTINUOUS
 62
     7
 10
258.889999389648
 20
-53.7278709411621
 30
0.0
 40
2.0
 50
269.999999844103
 51
449.999999844103
  0
LINE
  5
   259
  8
0
  6
CONTINUOUS
 62
     7
 10
253.139999389648
 20
-55.7278709411621
 30
0.0
 11
253.139999389648
 21
-62.6653709411621
 31
0.0
  0
LINE
  5
   25A
  8
0
  6
DASHDOT
 62
     7
 10
237.389999389648
 20
-21.287879780307
 30
0.0
 11
237.389999389648
 21
-70.0605522587135
 31
0.0
  0
CIRCLE
  5
   25B
  8
0
  6
CONTINUOUS
 62
     7
 10
226.389999389648
 20
-29.1653709411621
 30
0.0
 40
0.875
  0
CIRCLE
  5
   25C
  8
0
  6
CONTINUOUS
 62
     7
 10
257.639999389648
 20
-29.1653709411621
 30
0.0
 40
1.0
  0
CIRCLE
  5
   25D
  8
0
  6
CONTINUOUS
 62
     7
 10
257.639999389648
 20
-46.9153709411621
 30
0.0
 40
1.0
  0
CIRCLE
  5
   25E
  8
0
  6
CONTINUOUS
 62
     7
 10
257.639999389648
 20
-64.6653709411621
 30
0.0
 40
0.875
  0
CIRCLE
  5
   25F
  8
0
  6
CONTINUOUS
 62
     7
 10
226.389999389648
 20
-64.6653709411621
 30
0.0
 40
1.0
  0
LINE
  5
   260
  8
0
  6
DASHDOT
 62
     7
 10
226.389999389648
 20
-27.5403709411621
 30
0.0
 11
226.389999389648
 21
-30.7903709411621
 31
0.0
  0
LINE
  5
   261
  8
0
  6
DASHDOT
 62
     7
 10
224.764999389648
 20
-29.1653709411621
 30
0.0
 11
228.014999389648
 21
-29.1653709411621
 31
0.0
  0
LINE
  5
   262
  8
0
  6
DASHDOT
 62
     7
 10
257.639999389648
 20
-27.5403709411621
 30
0.0
 11
257.639999389648
 21
-30.7903709411621
 31
0.0
  0
LINE
  5
   263
  8
0
  6
DASHDOT
 62
     7
 10
256.014999389648
 20
-29.1653709411621
 30
0.0
 11
259.264999389648
 21
-29.1653709411621
 31
0.0
  0
LINE
  5
   264
  8
0
  6
DASHDOT
 62
     7
 10
257.639999389648
 20
-45.2903709411621
 30
0.0
 11
257.639999389648
 21
-48.5403709411621
 31
0.0
  0
LINE
  5
   265
  8
0
  6
DASHDOT
 62
     7
 10
256.014999389648
 20
-46.9153709411621
 30
0.0
 11
259.264999389648
 21
-46.9153709411621
 31
0.0
  0
LINE
  5
   266
  8
0
  6
DASHDOT
 62
     7
 10
257.639999389648
 20
-63.0403709411621
 30
0.0
 11
257.639999389648
 21
-66.2903709411621
 31
0.0
  0
LINE
  5
   267
  8
0
  6
DASHDOT
 62
     7
 10
256.014999389648
 20
-64.6653709411621
 30
0.0
 11
259.264999389648
 21
-64.6653709411621
 31
0.0
  0
LINE
  5
   268
  8
0
  6
DASHDOT
 62
     7
 10
226.389999389648
 20
-63.0403709411621
 30
0.0
 11
226.389999389648
 21
-66.2903709411621
 31
0.0
  0
LINE
  5
   269
  8
0
  6
DASHDOT
 62
     7
 10
224.764999389648
 20
-64.6653709411621
 30
0.0
 11
228.014999389648
 21
-64.6653709411621
 31
0.0
  0
LINE
  5
   26A
  8
0
  6
CONTINUOUS
 62
     7
 10
213.465440312255
 20
-26.1653709411621
 30
0.0
 11
264.24573054604
 21
-26.1653709411621
 31
0.0
  0
LINE
  5
   26B
  8
0
  6
CONTINUOUS
 62
     7
 10
212.832028981367
 20
-67.6653709411621
 30
0.0
 11
264.24573054604
 21
-67.6653709411621
 31
0.0
  0
LINE
  5
   26C
  8
0
  6
CONTINUOUS
 62
     7
 10
214.389999389648
 20
-25.3353258935653
 30
0.0
 11
214.389999389648
 21
-69.1764387243408
 31
0.0
  0
POINT
  5
   26D
  8
0
  6
CONTINUOUS
 62
     7
 10
260.889999389648
 20
-53.8528709411621
 30
0.0
  0
LINE
  5
   26E
  8
0
  6
DASHDOT
 62
     7
 10
209.929274626505
 20
-46.9153709411621
 30
0.0
 11
265.382727689785
 21
-46.9153709411621
 31
0.0
  0
LINE
  5
   26F
  8
0
  6
CONTINUOUS
 62
     7
 10
264.24573054604
 20
-26.1653709411621
 30
0.0
 11
264.24573054604
 21
-67.6653709411621
 31
0.0
  0
LINE
  5
   270
  8
0
  6
CONTINUOUS
 62
     7
 10
266.894563883182
 20
-31.1287835253122
 30
0.0
 11
266.894563883182
 21
-38.3528744447898
 31
0.0
  0
LINE
  5
   271
  8
0
  6
CONTINUOUS
 62
     7
 10
264.24573054604
 20
-31.1287835253122
 30
0.0
 11
266.894563883182
 21
-31.1287835253122
 31
0.0
  0
LINE
  5
   272
  8
0
  6
CONTINUOUS
 62
     7
 10
264.24573054604
 20
-38.3528744447898
 30
0.0
 11
266.894563883182
 21
-38.3528744447898
 31
0.0
  0
LINE
  5
   273
  8
0
  6
CONTINUOUS
 62
     7
 10
266.894563883182
 20
-55.4778674375344
 30
0.0
 11
266.894563883182
 21
-62.701958357012
 31
0.0
  0
LINE
  5
   274
  8
0
  6
CONTINUOUS
 62
     7
 10
264.24573054604
 20
-62.701958357012
 30
0.0
 11
266.894563883182
 21
-62.701958357012
 31
0.0
  0
LINE
  5
   275
  8
0
  6
CONTINUOUS
 62
     7
 10
264.24573054604
 20
-55.4778674375344
 30
0.0
 11
266.894563883182
 21
-55.4778674375344
 31
0.0
  0
LINE
  5
   276
  8
0
  6
DASHDOT
 62
     7
 10
265.570147214611
 20
-23.8102493429291
 30
0.0
 11
265.570147214611
 21
-70.2664645046075
 31
0.0
  0
INSERT
  5
   277
  8
0
  6
CONTINUOUS
 62
     7
  2
*UDIM314
 10
0.0
 20
0.0
 30
0.0
  0
INSERT
  5
   278
  8
0
  6
CONTINUOUS
 62
     7
  2
*UDIM315
 10
0.0
 20
0.0
 30
0.0
  0
INSERT
  5
   279
  8
0
  6
CONTINUOUS
 62
     7
  2
*UDIM316
 10
0.0
 20
0.0
 30
0.0
  0
TEXT
  5
   27A
  8
0
  6
CONTINUOUS
 62
     1
 10
130.442901608612
 20
-186.930141516383
 30
0.0
 40
2.00000008940697
  1
SCARPELLINI
 50
359.999999844103
 41
0.749999861419206
 72
     2
 11
146.642899331715
 21
-186.93014156038
 31
0.0
  0
TEXT
  5
   27B
  8
0
  6
CONTINUOUS
 62
     1
 10
163.13688969986
 20
-193.480718883805
 30
0.0
 40
2.00000008940697
  1
M4504 98-11-17
 50
359.999999844103
 41
0.749999861419206
 72
     2
 11
183.836886792643
 21
-193.480718940024
 31
0.0
  0
TEXT
  5
   27C
  8
0
  6
CONTINUOUS
 62
     2
 10
36.1278398931637
 20
-104.901761029622
 30
0.0
 40
2.00000008940697
  1
 
 50
359.999999844103
 41
0.700000002980232
  0
TEXT
  5
   27D
  8
0
  6
CONTINUOUS
 62
     2
 10
36.127839964713
 20
-110.901760424959
 30
0.0
 40
2.00000008940697
  1
NOTE: FOR DRILLING TEMPLATES DIMENSION SEE
 50
359.999999844103
 41
0.999999971687795
  0
TEXT
  5
   27E
  8
0
  6
CONTINUOUS
 62
     2
 10
36.1278399289383
 20
-107.901761029622
 30
0.0
 40
2.00000008940697
  1
 
 50
359.999999844103
 41
0.700000002980232
  0
TEXT
  5
   27F
  8
0
  6
CONTINUOUS
 62
     2
 10
36.1278400004876
 20
-113.901760498162
 30
0.0
 40
2.00000008940697
  1
      THE RELEVANT DIMENSIONAL TABLES
 50
359.999999844103
 41
0.999999971687795
  0
TEXT
  5
   280
  8
0
  6
CONTINUOUS
 62
     2
 10
35.5349869224132
 20
-118.132764088111
 30
0.0
 40
2.00000008940697
  1
 
 50
359.999999844103
 41
0.700000002980232
  0
TEXT
  5
   281
  8
0
  6
CONTINUOUS
 62
     2
 10
35.5349869939625
 20
-124.132763424884
 30
0.0
 40
2.00000008940697
  1
NB; PER LE DIME DI FORATURA DEGLI INTERRUTTORI
 50
359.999999844103
 41
0.999999971687795
  0
TEXT
  5
   282
  8
0
  6
CONTINUOUS
 62
     2
 10
35.5349869581878
 20
-121.132764088111
 30
0.0
 40
2.00000008940697
  1
 
 50
359.999999844103
 41
0.700000002980232
  0
TEXT
  5
   283
  8
0
  6
CONTINUOUS
 62
     2
 10
35.5349870297371
 20
-127.132763439525
 30
0.0
 40
2.00000008940697
  1
    VEDERE LE RISPETTIVE TABELLE DIMENSIONALI
 50
359.999999844103
 41
0.999999971687795
  0
TEXT
  5
   284
  8
0
  6
CONTINUOUS
 62
     7
 10
288.675361718634
 20
-48.2609246910543
 30
0.0
 40
3.00000002980232
  1
X
 50
359.999999844103
 41
0.916666604744064
 72
     1
 11
289.775361657143
 21
-46.7609246791406
 31
0.0
 73
     2
  0
TEXT
  5
   285
  8
0
  6
CONTINUOUS
 62
     1
 10
138.296893405681
 20
-193.480722232976
 30
0.0
 40
2.00000008940697
  1
M4352 96-12-17
 50
359.999999844103
 41
0.749999861419206
 72
     2
 11
158.996890498464
 21
-193.480722289195
 31
0.0
  0
TEXT
  5
   286
  8
0
  6
CONTINUOUS
 62
     1
 10
130.442901620537
 20
-178.463390255275
 30
0.0
 40
2.00000008940697
  1
96-11-19 BARCELLA
 50
359.999999844103
 41
0.749999861419206
 72
     2
 11
155.642898083001
 21
-178.463390323715
 31
0.0
  0
TEXT
  5
   287
  8
0
  6
CONTINUOUS
 62
     1
 10
231.973709124863
 20
-204.689861207397
 30
0.0
 40
4.00000017881393
  1
605032/321
 50
359.999999844103
 41
0.937499973922969
 72
     2
 11
268.723709724635
 21
-204.689861307206
 31
0.0
  0
TEXT
  5
   288
  8
0
  6
CONTINUOUS
 62
     1
 10
250.059402479634
 20
-195.708278548917
 30
0.0
 40
3.00000002980232
  1
S3X-S4X
 50
359.999999844103
 41
0.916666604744064
 72
     2
 11
268.75940139781
 21
-195.708278599704
 31
0.0
  0
INSERT
  5
   289
  8
0
  6
CONTINUOUS
 62
     7
  2
*UDIM317
 10
0.0
 20
0.0
 30
0.0
  0
TEXT
  5
   28A
  8
0
  6
CONTINUOUS
 62
     7
 10
213.061390939577
 20
-57.4727799247652
 30
0.0
 40
3.00000002980232
  1
=     =
 50
449.999999844103
 41
0.916666604744064
 72
     2
 11
213.061390990341
 21
-38.7727810065895
 31
0.0
  0
INSERT
  5
   28B
  8
0
  6
CONTINUOUS
 62
     7
  2
*UDIM318
 10
0.0
 20
0.0
 30
0.0
  0
INSERT
  5
   28C
  8
0
  6
CONTINUOUS
 62
     7
  2
*UDIM319
 10
0.0
 20
0.0
 30
0.0
  0
INSERT
  5
   28D
  8
0
  6
CONTINUOUS
 62
     7
  2
*UDIM320
 10
0.0
 20
0.0
 30
0.0
  0
INSERT
  5
   28E
  8
0
  6
CONTINUOUS
 62
     7
  2
*UDIM321
 10
0.0
 20
0.0
 30
0.0
  0
INSERT
  5
   28F
  8
0
  6
CONTINUOUS
 62
     7
  2
*UDIM322
 10
0.0
 20
0.0
 30
0.0
  0
INSERT
  5
   290
  8
0
  6
CONTINUOUS
 62
     7
  2
*UDIM323
 10
0.0
 20
0.0
 30
0.0
  0
INSERT
  5
   291
  8
0
  6
CONTINUOUS
 62
     7
  2
*UDIM324
 10
0.0
 20
0.0
 30
0.0
  0
INSERT
  5
   292
  8
0
  6
CONTINUOUS
 62
     7
  2
*UDIM325
 10
0.0
 20
0.0
 30
0.0
  0
INSERT
  5
   293
  8
0
  6
CONTINUOUS
 62
     7
  2
*UDIM326
 10
0.0
 20
0.0
 30
0.0
  0
INSERT
  5
   294
  8
0
  6
CONTINUOUS
 62
     7
  2
*UDIM327
 10
0.0
 20
0.0
 30
0.0
  0
INSERT
  5
   295
  8
0
  6
CONTINUOUS
 62
     7
  2
*UDIM328
 10
0.0
 20
0.0
 30
0.0
  0
TEXT
  5
   296
  8
0
  6
CONTINUOUS
 62
     7
 10
236.611724605061
 20
-83.6474304890582
 30
0.0
 40
3.00000002980232
  1
Y
 50
359.999999844103
 41
0.916666604744064
 72
     2
 11
238.811724473931
 21
-83.6474304950331
 31
0.0
  0
TEXT
  5
   297
  8
0
  6
CONTINUOUS
 62
     7
 10
235.928096284367
 20
9.24654000044376
 30
0.0
 40
3.00000002980232
  1
Y
 50
359.999999844103
 41
0.916666604744064
 72
     2
 11
238.128096153237
 21
9.24653999446882
 31
0.0
  0
TEXT
  5
   298
  8
0
  6
CONTINUOUS
 62
     7
 10
191.933662523724
 20
-47.3810451722094
 30
0.0
 40
3.00000002980232
  1
X
 50
359.999999844103
 41
0.916666604744064
 72
     2
 11
194.133662392594
 21
-47.3810451781844
 31
0.0
  0
LINE
  5
   299
  8
0
  6
CONTINUOUS
 62
     7
 10
153.632767169127
 20
79.5377712557703
 30
0.0
 11
153.646238772637
 21
79.5467739408569
 31
0.0
  0
LINE
  5
   29A
  8
0
  6
CONTINUOUS
 62
   210
 10
174.946253701532
 20
75.4768765585823
 30
0.0
 11
174.146261251641
 21
75.4768796103113
 31
0.0
  0
LINE
  5
   29B
  8
0
  6
CONTINUOUS
 62
   210
 10
174.946255227411
 20
72.6768765168329
 30
0.0
 11
174.14626158284
 21
72.6768795685665
 31
0.0
  0
LINE
  5
   29C
  8
0
  6
CONTINUOUS
 62
   210
 10
175.146256393194
 20
53.8768861546341
 30
0.0
 11
175.146256393194
 21
63.8768863036457
 31
0.0
  0
LINE
  5
   29D
  8
0
  6
CONTINUOUS
 62
   210
 10
175.146256393194
 20
111.076887006981
 30
0.0
 11
175.146256393194
 21
121.076887155992
 31
0.0
  0
LINE
  5
   29E
  8
0
  6
CONTINUOUS
 62
     7
 10
170.746256327629
 20
54.5968873860661
 30
0.0
 11
155.946237796545
 21
54.5968873860661
 31
0.0
  0
LINE
  5
   29F
  8
0
  6
CONTINUOUS
 62
   210
 10
170.746256327629
 20
53.4768861486737
 30
0.0
 11
155.946237796545
 21
53.4768861486737
 31
0.0
  0
LINE
  5
   2A0
  8
0
  6
CONTINUOUS
 62
   210
 10
170.746256327629
 20
121.476887161953
 30
0.0
 11
155.946237796545
 21
121.476887161953
 31
0.0
  0
LINE
  5
   2A1
  8
0
  6
CONTINUOUS
 62
     3
 10
170.746256327629
 20
120.356892028076
 30
0.0
 11
155.946237796545
 21
120.356892028076
 31
0.0
  0
LINE
  5
   2A2
  8
0
  6
CONTINUOUS
 62
   210
 10
155.946237796545
 20
53.4768861486737
 30
0.0
 11
155.946237796545
 21
58.7768740206184
 31
0.0
  0
LINE
  5
   2A3
  8
0
  6
CONTINUOUS
 62
   210
 10
170.746256327629
 20
53.4768861486737
 30
0.0
 11
170.746256327629
 21
53.8768861546341
 31
0.0
  0
LINE
  5
   2A4
  8
0
  6
CONTINUOUS
 62
   210
 10
175.746260751149
 20
64.8768846768457
 30
0.0
 11
175.746254647633
 21
70.0768847543318
 31
0.0
  0
LINE
  5
   2A5
  8
0
  6
CONTINUOUS
 62
   210
 10
175.74625627871
 20
104.87688245307
 30
0.0
 11
175.746262382225
 21
110.076882530556
 31
0.0
  0
LINE
  5
   2A6
  8
0
  6
CONTINUOUS
 62
     2
 10
175.546256399155
 20
110.27688699506
 30
0.0
 11
174.946256390214
 21
110.27688699506
 31
0.0
  0
LINE
  5
   2A7
  8
0
  6
CONTINUOUS
 62
     2
 10
175.546256399155
 20
64.6768863155667
 30
0.0
 11
174.946256390214
 21
64.6768863155667
 31
0.0
  0
LINE
  5
   2A8
  8
0
  6
CONTINUOUS
 62
     2
 10
174.946256390214
 20
110.076886992079
 30
0.0
 11
174.946256390214
 21
110.27688699506
 31
0.0
  0
LINE
  5
   2A9
  8
0
  6
CONTINUOUS
 62
     2
 10
174.946256390214
 20
70.0769291206429
 30
0.0
 11
174.946256390214
 21
104.876886914593
 31
0.0
  0
LINE
  5
   2AA
  8
0
  6
CONTINUOUS
 62
     2
 10
174.946256390214
 20
64.6768863155667
 30
0.0
 11
174.946256390214
 21
64.8769168361255
 31
0.0
  0
LINE
  5
   2AB
  8
0
  6
CONTINUOUS
 62
     2
 10
175.546256399155
 20
64.6768863155667
 30
0.0
 11
175.546256399155
 21
64.8768802150312
 31
0.0
  0
LINE
  5
   2AC
  8
0
  6
CONTINUOUS
 62
     2
 10
175.546256399155
 20
70.0768802925172
 30
0.0
 11
175.546256399155
 21
104.876856397015
 31
0.0
  0
LINE
  5
   2AD
  8
0
  6
CONTINUOUS
 62
     2
 10
175.546256399155
 20
110.076856474501
 30
0.0
 11
175.546256399155
 21
110.27688699506
 31
0.0
  0
LINE
  5
   2AE
  8
0
  6
CONTINUOUS
 62
   210
 10
175.146256393194
 20
63.8768863036457
 30
0.0
 11
174.146260817339
 21
63.8768863036457
 31
0.0
  0
LINE
  5
   2AF
  8
0
  6
CONTINUOUS
 62
   210
 10
175.146256393194
 20
53.8768861546341
 30
0.0
 11
170.746256327629
 21
53.8768861546341
 31
0.0
  0
LINE
  5
   2B0
  8
0
  6
CONTINUOUS
 62
   210
 10
175.146256393194
 20
111.076887006981
 30
0.0
 11
174.146257040689
 21
111.076887006981
 31
0.0
  0
LINE
  5
   2B1
  8
0
  6
CONTINUOUS
 62
   210
 10
175.146256393194
 20
121.076887155992
 30
0.0
 11
172.346250247955
 21
121.076887155992
 31
0.0
  0
LINE
  5
   2B2
  8
0
  6
CONTINUOUS
 62
   210
 10
175.746262505651
 20
64.8768863185469
 30
0.0
 11
174.146262505463
 21
64.8768863185469
 31
0.0
  0
LINE
  5
   2B3
  8
0
  6
CONTINUOUS
 62
   210
 10
175.746256402135
 20
70.0768863960329
 30
0.0
 11
174.14626189038
 21
70.0768863960329
 31
0.0
  0
LINE
  5
   2B4
  8
0
  6
CONTINUOUS
 62
   210
 10
175.746262505651
 20
110.076886992079
 30
0.0
 11
174.146257158974
 21
110.076886992079
 31
0.0
  0
LINE
  5
   2B5
  8
0
  6
CONTINUOUS
 62
   210
 10
175.746256402135
 20
104.876886914593
 30
0.0
 11
174.146257774057
 21
104.876886914593
 31
0.0
  0
LINE
  5
   2B6
  8
0
  6
CONTINUOUS
 62
   210
 10
174.946256390214
 20
103.476886893732
 30
0.0
 11
174.146257939656
 21
103.476886893732
 31
0.0
  0
LINE
  5
   2B7
  8
0
  6
CONTINUOUS
 62
   210
 10
174.946256390214
 20
100.276886846048
 30
0.0
 11
174.146258318169
 21
100.276886846048
 31
0.0
  0
LINE
  5
   2B8
  8
0
  6
DASHDOT
 62
     7
 10
175.746262505651
 20
110.076886992079
 30
0.0
 11
175.746262505651
 21
130.08411797707
 31
0.0
  0
LINE
  5
   2B9
  8
0
  6
DASHDOT
 62
     7
 10
175.746256402135
 20
70.0768847543318
 30
0.0
 11
175.746256402135
 21
104.876886914593
 31
0.0
  0
LINE
  5
   2BA
  8
0
  6
DASHDOT
 62
     7
 10
175.746260751149
 20
43.857053693713
 30
0.0
 11
175.746260751149
 21
64.8768846768457
 31
0.0
  0
LINE
  5
   2BB
  8
0
  6
DASHDOT
 62
     7
 10
176.946256420016
 20
43.8185637643375
 30
0.0
 11
176.946256420016
 21
130.08411797707
 31
0.0
  0
LINE
  5
   2BC
  8
0
  6
CONTINUOUS
 62
     7
 10
181.386747899278
 20
130.08411797707
 30
0.0
 11
173.274995283401
 21
130.08411797707
 31
0.0
  0
LINE
  5
   2BD
  8
0
  6
CONTINUOUS
 62
     7
 10
179.116518945573
 20
43.776542749325
 30
0.0
 11
173.467444930278
 21
43.8859211407446
 31
0.0
  0
LINE
  5
   2BE
  8
0
  6
CONTINUOUS
 62
   210
 10
172.346250247955
 20
53.8768861546341
 30
0.0
 11
170.746256327629
 21
53.8768861546341
 31
0.0
  0
LINE
  5
   2BF
  8
0
  6
CONTINUOUS
 62
     7
 10
170.746256327629
 20
53.8768861546341
 30
0.0
 11
170.746256327629
 21
60.6767831802782
 31
0.0
  0
LINE
  5
   2C0
  8
0
  6
CONTINUOUS
 62
   210
 10
170.746256327629
 20
121.076887155992
 30
0.0
 11
170.746256327629
 21
121.476887161953
 31
0.0
  0
LINE
  5
   2C1
  8
0
  6
CONTINUOUS
 62
     3
 10
170.746256327629
 20
116.676880986911
 30
0.0
 11
170.746256327629
 21
121.076887155992
 31
0.0
  0
LINE
  5
   2C2
  8
0
  6
CONTINUOUS
 62
   210
 10
172.346250247955
 20
121.076887155992
 30
0.0
 11
170.746256327629
 21
121.076887155992
 31
0.0
  0
LINE
  5
   2C3
  8
0
  6
DASHDOT
 62
     7
 10
183.172082214655
 20
107.476886953336
 30
0.0
 11
171.769805982051
 21
107.476886953336
 31
0.0
  0
LINE
  5
   2C4
  8
0
  6
DASHDOT
 62
     7
 10
183.031730097385
 20
67.4768863572899
 30
0.0
 11
172.238593576484
 21
67.4768863572899
 31
0.0
  0
LINE
  5
   2C5
  8
0
  6
CONTINUOUS
 62
   130
 10
104.14628814073
 20
65.0768695405875
 30
0.0
 11
104.146267541364
 21
66.6768802455819
 31
0.0
  0
LINE
  5
   2C6
  8
0
  6
CONTINUOUS
 62
     3
 10
109.625747603542
 20
62.2768679708352
 30
0.0
 11
109.746267243399
 21
62.2768694967141
 31
0.0
  0
LINE
  5
   2C7
  8
0
  6
CONTINUOUS
 62
   130
 10
104.146267541428
 20
60.676870999954
 30
0.0
 11
104.146287377855
 21
62.2768649202801
 31
0.0
  0
LINE
  5
   2C8
  8
0
  6
CONTINUOUS
 62
   130
 10
156.746244078373
 20
60.6768237307642
 30
0.0
 11
155.946244066452
 21
60.6768740847689
 31
0.0
  0
LINE
  5
   2C9
  8
0
  6
CONTINUOUS
 62
   130
 10
153.946238921994
 20
60.6768715462337
 30
0.0
 11
106.146268727297
 21
60.6768715462337
 31
0.0
  0
LINE
  5
   2CA
  8
0
  6
CONTINUOUS
 62
   130
 10
174.146256378293
 20
116.676880986911
 30
0.0
 11
156.746237808466
 21
116.676880986911
 31
0.0
  0
LINE
  5
   2CB
  8
0
  6
CONTINUOUS
 62
   130
 10
174.14625637879
 20
60.676773340997
 30
0.0
 11
156.746243912479
 21
60.6768236950007
 31
0.0
  0
LINE
  5
   2CC
  8
0
  6
CONTINUOUS
 62
   130
 10
174.14625637835
 20
60.6767733409561
 30
0.0
 11
174.146262481866
 21
65.0768603816202
 31
0.0
  0
LINE
  5
   2CD
  8
0
  6
CONTINUOUS
 62
     3
 10
140.346261978149
 20
103.876886899692
 30
0.0
 11
104.146267542243
 21
103.876886899692
 31
0.0
  0
LINE
  5
   2CE
  8
0
  6
CONTINUOUS
 62
     3
 10
140.346261978149
 20
91.8768684103311
 30
0.0
 11
126.546254143119
 21
91.8768684103311
 31
0.0
  0
LINE
  5
   2CF
  8
0
  6
CONTINUOUS
 62
   130
 10
104.146287378669
 20
62.2768649175003
 30
0.0
 11
104.146288141608
 21
65.0768695368604
 31
0.0
  0
LINE
  5
   2D0
  8
0
  6
CONTINUOUS
 62
   130
 10
156.746237808466
 20
116.676880986911
 30
0.0
 11
104.146267542243
 21
116.676880986911
 31
0.0
  0
LINE
  5
   2D1
  8
0
  6
CONTINUOUS
 62
   130
 10
104.146267542243
 20
103.876886899692
 30
0.0
 11
104.146267542243
 21
116.676880986911
 31
0.0
  0
LINE
  5
   2D2
  8
0
  6
CONTINUOUS
 62
     3
 10
145.046237634255
 20
62.2768893315942
 30
0.0
 11
155.146243888272
 21
62.2769076421412
 31
0.0
  0
LINE
  5
   2D3
  8
0
  6
CONTINUOUS
 62
     3
 10
128.696261804562
 20
62.2768801762923
 30
0.0
 11
143.446237610291
 21
62.2768893315655
 31
0.0
  0
LINE
  5
   2D4
  8
0
  6
CONTINUOUS
 62
     3
 10
105.74631105364
 20
62.2768649175032
 30
0.0
 11
127.096262543654
 21
62.2768786504133
 31
0.0
  0
LINE
  5
   2D5
  8
0
  6
CONTINUOUS
 62
     3
 10
105.746314868337
 20
64.076869521962
 30
0.0
 11
127.096263306593
 21
64.0768832548726
 31
0.0
  0
LINE
  5
   2D6
  8
0
  6
CONTINUOUS
 62
     3
 10
128.696263330441
 20
64.0768847807514
 30
0.0
 11
143.446240662049
 21
64.0768939360248
 31
0.0
  0
LINE
  5
   2D7
  8
0
  6
CONTINUOUS
 62
     3
 10
145.046240685895
 20
64.0768954619034
 30
0.0
 11
155.146243888154
 21
64.0769015654192
 31
0.0
  0
LINE
  5
   2D8
  8
0
  6
CONTINUOUS
 62
     3
 10
105.746311053622
 20
62.2768649175555
 30
0.0
 11
105.746314105379
 21
64.0768695220144
 31
0.0
  0
LINE
  5
   2D9
  8
0
  6
CONTINUOUS
 62
     3
 10
155.146243888139
 20
62.2769076421089
 30
0.0
 11
155.146243888139
 21
64.0769015654153
 31
0.0
  0
LINE
  5
   2DA
  8
0
  6
CONTINUOUS
 62
     3
 10
145.046237634166
 20
62.2768893316235
 30
0.0
 11
145.046240685923
 21
64.076903091356
 31
0.0
  0
LINE
  5
   2DB
  8
0
  6
CONTINUOUS
 62
     3
 10
143.446237610321
 20
62.2768893316184
 30
0.0
 11
143.446240662079
 21
64.0769015654719
 31
0.0
  0
LINE
  5
   2DC
  8
0
  6
CONTINUOUS
 62
     3
 10
128.696261804556
 20
62.2768801763036
 30
0.0
 11
128.696263330435
 21
64.0768924101571
 31
0.0
  0
LINE
  5
   2DD
  8
0
  6
CONTINUOUS
 62
     3
 10
127.096262543653
 20
62.2768786504234
 30
0.0
 11
127.096264069532
 21
64.0768924101558
 31
0.0
  0
LINE
  5
   2DE
  8
0
  6
CONTINUOUS
 62
   130
 10
116.946267160773
 20
59.0768740250887
 30
0.0
 11
116.946267160773
 21
60.6768740489306
 31
0.0
  0
LINE
  5
   2DF
  8
0
  6
CONTINUOUS
 62
   130
 10
118.54626737535
 20
59.0768740250887
 30
0.0
 11
118.54626737535
 21
60.6768740489306
 31
0.0
  0
LINE
  5
   2E0
  8
0
  6
CONTINUOUS
 62
   130
 10
118.54626737535
 20
59.0768740250887
 30
0.0
 11
116.946267160773
 21
59.0768740250887
 31
0.0
  0
LINE
  5
   2E1
  8
0
  6
CONTINUOUS
 62
   130
 10
150.446268232167
 20
59.0768953873937
 30
0.0
 11
150.446268232167
 21
60.6768679454149
 31
0.0
  0
LINE
  5
   2E2
  8
0
  6
CONTINUOUS
 62
   130
 10
152.046268256009
 20
59.0768953873937
 30
0.0
 11
152.046268256009
 21
60.6768679454149
 31
0.0
  0
LINE
  5
   2E3
  8
0
  6
CONTINUOUS
 62
   130
 10
152.046268256009
 20
59.0768953873937
 30
0.0
 11
150.446268232167
 21
59.0768953873937
 31
0.0
  0
LINE
  5
   2E4
  8
0
  6
CONTINUOUS
 62
   130
 10
106.146267572045
 20
58.7768740206184
 30
0.0
 11
106.146267572045
 21
59.7768740355195
 31
0.0
  0
LINE
  5
   2E5
  8
0
  6
CONTINUOUS
 62
   130
 10
104.146267542243
 20
58.7768740206184
 30
0.0
 11
104.146267542243
 21
60.6768709971727
 31
0.0
  0
LINE
  5
   2E6
  8
0
  6
CONTINUOUS
 62
   130
 10
106.146267572045
 20
58.7768740206184
 30
0.0
 11
104.146267542243
 21
58.7768740206184
 31
0.0
  0
LINE
  5
   2E7
  8
0
  6
CONTINUOUS
 62
   130
 10
106.146267572045
 20
59.7768740355195
 30
0.0
 11
106.146267572045
 21
60.6768740489306
 31
0.0
  0
LINE
  5
   2E8
  8
0
  6
CONTINUOUS
 62
   130
 10
153.946231663227
 20
58.7768740206184
 30
0.0
 11
153.946231663227
 21
59.7768740355195
 31
0.0
  0
LINE
  5
   2E9
  8
0
  6
CONTINUOUS
 62
   130
 10
155.946231693029
 20
58.7768740206184
 30
0.0
 11
153.946231663227
 21
58.7768740206184
 31
0.0
  0
LINE
  5
   2EA
  8
0
  6
CONTINUOUS
 62
   130
 10
155.946231693879
 20
58.7768740212869
 30
0.0
 11
155.946243900911
 21
60.6768740495991
 31
0.0
  0
LINE
  5
   2EB
  8
0
  6
CONTINUOUS
 62
   130
 10
153.946231664128
 20
59.7768740363104
 30
0.0
 11
153.946237767644
 21
60.6768679462057
 31
0.0
  0
LINE
  5
   2EC
  8
0
  6
CONTINUOUS
 62
     3
 10
106.946264584579
 20
108.476893870402
 30
0.0
 11
105.746264540337
 21
109.676893914644
 31
0.0
  0
LINE
  5
   2ED
  8
0
  6
CONTINUOUS
 62
   130
 10
104.146267542243
 20
66.6768802418533
 30
0.0
 11
104.146267542243
 21
91.8768775656047
 31
0.0
  0
LINE
  5
   2EE
  8
0
  6
CONTINUOUS
 62
     3
 10
126.54625261724
 20
91.8768745138473
 30
0.0
 11
104.146267542243
 21
91.8768775656051
 31
0.0
  0
LINE
  5
   2EF
  8
0
  6
CONTINUOUS
 62
     3
 10
140.346261978149
 20
91.8768684103311
 30
0.0
 11
140.346261978149
 21
103.876886899692
 31
0.0
  0
LINE
  5
   2F0
  8
0
  6
CONTINUOUS
 62
     3
 10
110.346267253161
 20
103.676886896712
 30
0.0
 11
110.346267253161
 21
103.876886899692
 31
0.0
  0
LINE
  5
   2F1
  8
0
  6
CONTINUOUS
 62
     3
 10
145.046237634137
 20
111.376880907948
 30
0.0
 11
155.146243888154
 21
111.376887011463
 31
0.0
  0
LINE
  5
   2F2
  8
0
  6
CONTINUOUS
 62
     3
 10
145.046237634122
 20
108.476880864722
 30
0.0
 11
145.046237634122
 21
111.376880907935
 31
0.0
  0
LINE
  5
   2F3
  8
0
  6
CONTINUOUS
 62
     3
 10
145.046237634137
 20
108.476880864734
 30
0.0
 11
155.146243888154
 21
108.47688696825
 31
0.0
  0
LINE
  5
   2F4
  8
0
  6
CONTINUOUS
 62
     3
 10
155.146243888139
 20
108.476886968238
 30
0.0
 11
155.146243888139
 21
111.376887011451
 31
0.0
  0
LINE
  5
   2F5
  8
0
  6
CONTINUOUS
 62
     3
 10
127.096262543648
 20
108.476886968238
 30
0.0
 11
127.096262543648
 21
111.376887011451
 31
0.0
  0
LINE
  5
   2F6
  8
0
  6
CONTINUOUS
 62
     3
 10
143.44623761028
 20
108.476886968238
 30
0.0
 11
127.096261780709
 21
108.476886968238
 31
0.0
  0
LINE
  5
   2F7
  8
0
  6
CONTINUOUS
 62
     3
 10
143.44623761028
 20
108.476886968238
 30
0.0
 11
143.44623761028
 21
111.376887011451
 31
0.0
  0
LINE
  5
   2F8
  8
0
  6
CONTINUOUS
 62
     3
 10
143.44623761028
 20
111.376887011451
 30
0.0
 11
127.096261780709
 21
111.376887011451
 31
0.0
  0
LINE
  5
   2F9
  8
0
  6
CONTINUOUS
 62
     3
 10
125.496262519807
 20
108.476886968238
 30
0.0
 11
105.746268329024
 21
108.476886968238
 31
0.0
  0
LINE
  5
   2FA
  8
0
  6
CONTINUOUS
 62
     3
 10
125.496262519807
 20
108.476886968238
 30
0.0
 11
125.496262519807
 21
111.376887011451
 31
0.0
  0
LINE
  5
   2FB
  8
0
  6
CONTINUOUS
 62
     3
 10
125.496262519807
 20
111.376887011451
 30
0.0
 11
105.746268329024
 21
111.376887011451
 31
0.0
  0
LINE
  5
   2FC
  8
0
  6
CONTINUOUS
 62
     3
 10
105.746267566085
 20
108.476886968238
 30
0.0
 11
105.746267566085
 21
111.376887011451
 31
0.0
  0
LINE
  5
   2FD
  8
0
  6
CONTINUOUS
 62
     3
 10
109.74626724422
 20
62.2768694951357
 30
0.0
 11
109.74626724422
 21
64.0768786772313
 31
0.0
  0
LINE
  5
   2FE
  8
0
  6
CONTINUOUS
 62
     3
 10
111.346268412471
 20
62.2768694951357
 30
0.0
 11
111.346268412471
 21
64.0768802031103
 31
0.0
  0
LINE
  5
   2FF
  8
0
  6
CONTINUOUS
 62
     3
 10
105.746423968674
 20
62.2768542363499
 30
0.0
 11
105.746424731614
 21
64.0768695219613
 31
0.0
  0
LINE
  5
   300
  8
0
  6
CONTINUOUS
 62
   130
 10
104.146267542166
 20
60.676849635131
 30
0.0
 11
104.146269068045
 21
61.0768786327911
 31
0.0
  0
LINE
  5
   301
  8
0
  6
CONTINUOUS
 62
   130
 10
156.746240870002
 20
60.6768236970324
 30
0.0
 11
155.946243909839
 21
60.6768359040638
 31
0.0
  0
LINE
  5
   302
  8
0
  6
CONTINUOUS
 62
   130
 10
174.146262481809
 20
65.0768603815856
 30
0.0
 11
174.146256378293
 21
116.676879461033
 31
0.0
  0
LINE
  5
   303
  8
0
  6
CONTINUOUS
 62
     3
 10
145.067062829745
 20
62.2768817021671
 30
0.0
 11
145.067062829745
 21
64.0768954618995
 31
0.0
  0
LINE
  5
   304
  8
0
  6
CONTINUOUS
 62
     3
 10
143.445752380781
 20
62.2768633916199
 30
0.0
 11
143.445752380781
 21
64.0768939360206
 31
0.0
  0
LINE
  5
   305
  8
0
  6
CONTINUOUS
 62
     3
 10
134.546267995238
 20
103.676886896712
 30
0.0
 11
104.146267542243
 21
103.676886896712
 31
0.0
  0
LINE
  5
   306
  8
0
  6
CONTINUOUS
 62
     3
 10
134.546267995238
 20
91.8768684103311
 30
0.0
 11
134.546267995238
 21
103.676886896712
 31
0.0
  0
LINE
  5
   307
  8
0
  6
CONTINUOUS
 62
     7
 10
104.146267542243
 20
91.8768775656047
 30
0.0
 11
104.146267542243
 21
103.676886896712
 31
0.0
  0
LINE
  5
   308
  8
0
  6
CONTINUOUS
 62
     3
 10
106.946314886212
 20
62.2768755986552
 30
0.0
 11
106.946314123273
 21
64.0768771513563
 31
0.0
  0
LINE
  5
   309
  8
0
  6
CONTINUOUS
 62
     3
 10
155.146243888139
 20
109.076886977178
 30
0.0
 11
145.046243737638
 21
109.076886977178
 31
0.0
  0
LINE
  5
   30A
  8
0
  6
CONTINUOUS
 62
     3
 10
143.446240662038
 20
109.076886977178
 30
0.0
 11
127.096266358346
 21
109.076886977178
 31
0.0
  0
LINE
  5
   30B
  8
0
  6
CONTINUOUS
 62
     3
 10
125.496266334504
 20
109.076886977178
 30
0.0
 11
106.946267583966
 21
109.076886977178
 31
0.0
  0
LINE
  5
   30C
  8
0
  6
CONTINUOUS
 62
     3
 10
106.646269020449
 20
108.776893404745
 30
0.0
 11
106.94626903151
 21
109.076893415805
 31
0.0
  0
LINE
  5
   30D
  8
0
  6
CONTINUOUS
 62
     3
 10
106.946267583966
 20
109.076886977178
 30
0.0
 11
106.946267583966
 21
111.376887011451
 31
0.0
  0
LINE
  5
   30E
  8
0
  6
CONTINUOUS
 62
   210
 10
155.946237796545
 20
116.676880986911
 30
0.0
 11
155.946237796545
 21
121.476887161953
 31
0.0
  0
LINE
  5
   30F
  8
0
  6
CONTINUOUS
 62
     5
 10
65.7462639182807
 20
65.7749621986285
 30
0.0
 11
65.7462639182807
 21
102.776903667969
 31
0.0
  0
LINE
  5
   310
  8
0
  6
CONTINUOUS
 62
     5
 10
65.7462639182807
 20
106.776905253453
 30
0.0
 11
65.7462639182807
 21
107.378583729215
 31
0.0
  0
LINE
  5
   311
  8
0
  6
CONTINUOUS
 62
     5
 10
65.7461466621071
 20
65.7766628353229
 30
0.0
 11
65.7462611030223
 21
65.7774822323294
 31
0.0
  0
CIRCLE
  5
   312
  8
0
  6
CONTINUOUS
 62
   130
 10
165.946243793061
 20
107.476886816464
 30
0.0
 40
2.39999853346816
  0
CIRCLE
  5
   313
  8
0
  6
CONTINUOUS
 62
   130
 10
165.946233858572
 20
107.476876300314
 30
0.0
 40
1.30000163822766
  0
CIRCLE
  5
   314
  8
0
  6
CONTINUOUS
 62
   130
 10
165.946244296788
 20
67.4768755831646
 30
0.0
 40
2.40000417897742
  0
CIRCLE
  5
   315
  8
0
  6
CONTINUOUS
 62
   130
 10
165.946246358308
 20
67.4768802488745
 30
0.0
 40
1.30000044794303
  0
CIRCLE
  5
   316
  8
0
  6
CONTINUOUS
 62
   130
 10
108.946232179185
 20
85.8768538261267
 30
0.0
 40
4.0000071345768
  0
CIRCLE
  5
   317
  8
0
  6
CONTINUOUS
 62
   130
 10
108.946235985488
 20
85.8768627523289
 30
0.0
 40
1.09999900151747
  0
LINE
  5
   318
  8
0
  6
DASHDOT
 62
     7
 10
108.946232179185
 20
80.6768466736685
 30
0.0
 11
108.946232179185
 21
91.0768609785849
 31
0.0
  0
LINE
  5
   319
  8
0
  6
DASHDOT
 62
     7
 10
114.146239331643
 20
85.8768538261267
 30
0.0
 11
103.746225026726
 21
85.8768538261267
 31
0.0
  0
LINE
  5
   31A
  8
0
  6
DASHDOT
 62
     7
 10
165.946243793061
 20
103.876888265114
 30
0.0
 11
165.946243793061
 21
111.076885367813
 31
0.0
  0
LINE
  5
   31B
  8
0
  6
DASHDOT
 62
     7
 10
169.546242344411
 20
107.476886816464
 30
0.0
 11
162.346245241712
 21
107.476886816464
 31
0.0
  0
LINE
  5
   31C
  8
0
  6
DASHDOT
 62
     7
 10
165.946244296788
 20
63.8768713863058
 30
0.0
 11
165.946244296788
 21
71.0768797800235
 31
0.0
  0
LINE
  5
   31D
  8
0
  6
DASHDOT
 62
     7
 10
169.546248493647
 20
67.4768755831646
 30
0.0
 11
162.346240099929
 21
67.4768755831646
 31
0.0
  0
LINE
  5
   31E
  8
0
  6
CONTINUOUS
 62
     3
 10
71.146262472868
 20
73.0769139065571
 30
0.0
 11
71.146262472868
 21
78.2768346383389
 31
0.0
  0
LINE
  5
   31F
  8
0
  6
CONTINUOUS
 62
     1
 10
67.1462624132633
 20
54.3768327563222
 30
0.0
 11
67.1462624132633
 21
118.776833715957
 31
0.0
  0
LINE
  5
   320
  8
0
  6
CONTINUOUS
 62
     1
 10
67.1462624132633
 20
54.3768327563222
 30
0.0
 11
65.7462623924017
 21
54.3768327563222
 31
0.0
  0
LINE
  5
   321
  8
0
  6
CONTINUOUS
 62
     1
 10
65.7462623924017
 20
54.3768327563222
 30
0.0
 11
65.7462623924017
 21
72.2768345489319
 31
0.0
  0
LINE
  5
   322
  8
0
  6
CONTINUOUS
 62
     1
 10
65.7462623924017
 20
79.0768346502598
 30
0.0
 11
65.7462623924017
 21
118.776832190078
 31
0.0
  0
LINE
  5
   323
  8
0
  6
CONTINUOUS
 62
     1
 10
67.1462624132633
 20
118.776832190078
 30
0.0
 11
65.7462623924017
 21
118.776832190078
 31
0.0
  0
LINE
  5
   324
  8
0
  6
CONTINUOUS
 62
     1
 10
67.9462624251843
 20
87.7768347798999
 30
0.0
 11
67.9462624251843
 21
111.376832079809
 31
0.0
  0
LINE
  5
   325
  8
0
  6
CONTINUOUS
 62
     1
 10
67.9462624251843
 20
78.2768376900967
 30
0.0
 11
67.9462624251843
 21
85.376837795895
 31
0.0
  0
LINE
  5
   326
  8
0
  6
CONTINUOUS
 62
     1
 10
67.9462624251843
 20
61.7768328665908
 30
0.0
 11
67.9462624251843
 21
73.0768376126107
 31
0.0
  0
LINE
  5
   327
  8
0
  6
CONTINUOUS
 62
     3
 10
101.546262925863
 20
57.2077730450885
 30
0.0
 11
101.546262925863
 21
59.1458925808047
 31
0.0
  0
LINE
  5
   328
  8
0
  6
CONTINUOUS
 62
     3
 10
69.7462624520064
 20
114.007770839717
 30
0.0
 11
69.7462624520064
 21
115.945893427191
 31
0.0
  0
LINE
  5
   329
  8
0
  6
CONTINUOUS
 62
     3
 10
69.7462624520064
 20
85.6077734682815
 30
0.0
 11
69.7462624520064
 21
87.5458930039977
 31
0.0
  0
LINE
  5
   32A
  8
0
  6
CONTINUOUS
 62
     3
 10
66.1462623983622
 20
72.2768345489319
 30
0.0
 11
65.7462623924017
 21
72.2768345489319
 31
0.0
  0
LINE
  5
   32B
  8
0
  6
CONTINUOUS
 62
     3
 10
66.1462623983622
 20
72.2768345489319
 30
0.0
 11
66.1462623983622
 21
79.0768346502598
 31
0.0
  0
LINE
  5
   32C
  8
0
  6
CONTINUOUS
 62
     3
 10
66.1462623983622
 20
79.0768346502598
 30
0.0
 11
65.7462623924017
 21
79.0768346502598
 31
0.0
  0
LINE
  5
   32D
  8
0
  6
CONTINUOUS
 62
     3
 10
66.1462623983622
 20
71.0768345310505
 30
0.0
 11
66.1462623983622
 21
72.2768345489319
 31
0.0
  0
LINE
  5
   32E
  8
0
  6
CONTINUOUS
 62
     3
 10
66.1462623983622
 20
79.0768346502598
 30
0.0
 11
66.1462623983622
 21
80.2768346681412
 31
0.0
  0
LINE
  5
   32F
  8
0
  6
CONTINUOUS
 62
     3
 10
66.5462624043226
 20
71.0768345310505
 30
0.0
 11
66.1462623983622
 21
71.0768345310505
 31
0.0
  0
LINE
  5
   330
  8
0
  6
CONTINUOUS
 62
     3
 10
66.5462624043226
 20
71.0768345310505
 30
0.0
 11
66.5462624043226
 21
80.2768346681412
 31
0.0
  0
LINE
  5
   331
  8
0
  6
CONTINUOUS
 62
     3
 10
66.5462624043226
 20
80.2768346681412
 30
0.0
 11
66.1462623983622
 21
80.2768346681412
 31
0.0
  0
LINE
  5
   332
  8
0
  6
CONTINUOUS
 62
     3
 10
71.146262472868
 20
73.0769139065571
 30
0.0
 11
67.1462624132633
 21
73.0769139065571
 31
0.0
  0
LINE
  5
   333
  8
0
  6
CONTINUOUS
 62
     3
 10
71.146262472868
 20
78.2768346383389
 30
0.0
 11
67.1462624132633
 21
78.2768346383389
 31
0.0
  0
LINE
  5
   334
  8
0
  6
CONTINUOUS
 62
     1
 10
65.7462623924017
 20
72.2768345489319
 30
0.0
 11
65.7462623924017
 21
79.0768346502598
 31
0.0
  0
LINE
  5
   335
  8
0
  6
CONTINUOUS
 62
     3
 10
69.3462624460459
 20
56.9768327950652
 30
0.0
 11
67.1462624132633
 21
56.9768327950652
 31
0.0
  0
LINE
  5
   336
  8
0
  6
CONTINUOUS
 62
     3
 10
69.3462624460459
 20
59.376832830828
 30
0.0
 11
67.1462624132633
 21
59.376832830828
 31
0.0
  0
LINE
  5
   337
  8
0
  6
CONTINUOUS
 62
     1
 10
69.3462624460459
 20
59.2854876146231
 30
0.0
 11
69.3462624460459
 21
59.376832830828
 31
0.0
  0
LINE
  5
   338
  8
0
  6
CONTINUOUS
 62
     3
 10
69.3462624460459
 20
59.0253603524461
 30
0.0
 11
69.3462624460459
 21
59.2854876146231
 31
0.0
  0
LINE
  5
   339
  8
0
  6
CONTINUOUS
 62
     3
 10
69.3462624460459
 20
58.63605370602
 30
0.0
 11
69.3462624460459
 21
59.0253603524461
 31
0.0
  0
LINE
  5
   33A
  8
0
  6
CONTINUOUS
 62
     3
 10
69.3462624460459
 20
58.1768328129466
 30
0.0
 11
69.3462624460459
 21
58.63605370602
 31
0.0
  0
LINE
  5
   33B
  8
0
  6
CONTINUOUS
 62
     3
 10
69.3462624460459
 20
57.7176134457521
 30
0.0
 11
69.3462624460459
 21
58.1768328129466
 31
0.0
  0
LINE
  5
   33C
  8
0
  6
CONTINUOUS
 62
     3
 10
69.3462624460459
 20
57.3283052734471
 30
0.0
 11
69.3462624460459
 21
57.7176134457521
 31
0.0
  0
LINE
  5
   33D
  8
0
  6
CONTINUOUS
 62
     3
 10
69.3462624460459
 20
57.0681780112701
 30
0.0
 11
69.3462624460459
 21
57.3283052734471
 31
0.0
  0
LINE
  5
   33E
  8
0
  6
CONTINUOUS
 62
     3
 10
69.3462624460459
 20
56.9768327950652
 30
0.0
 11
69.3462624460459
 21
57.0681780112701
 31
0.0
  0
LINE
  5
   33F
  8
0
  6
CONTINUOUS
 62
     3
 10
69.346262925489
 20
56.9768324647039
 30
0.0
 11
69.7462629446211
 21
57.2077727019504
 31
0.0
  0
LINE
  5
   340
  8
0
  6
CONTINUOUS
 62
     3
 10
69.7462633132186
 20
59.1458918598937
 30
0.0
 11
69.3462632940865
 21
59.3768320971402
 31
0.0
  0
LINE
  5
   341
  8
0
  6
CONTINUOUS
 62
     3
 10
69.3462624460459
 20
113.776832115572
 30
0.0
 11
67.1462624132633
 21
113.776832115572
 31
0.0
  0
LINE
  5
   342
  8
0
  6
CONTINUOUS
 62
     3
 10
69.3462624460459
 20
116.176832151335
 30
0.0
 11
67.1462624132633
 21
116.176832151335
 31
0.0
  0
LINE
  5
   343
  8
0
  6
CONTINUOUS
 62
     3
 10
69.3462624460459
 20
116.08548693513
 30
0.0
 11
69.3462624460459
 21
116.176832151335
 31
0.0
  0
LINE
  5
   344
  8
0
  6
CONTINUOUS
 62
     3
 10
69.3462624460459
 20
115.825361198832
 30
0.0
 11
69.3462624460459
 21
116.08548693513
 31
0.0
  0
LINE
  5
   345
  8
0
  6
CONTINUOUS
 62
     3
 10
69.3462624460459
 20
115.436054552406
 30
0.0
 11
69.3462624460459
 21
115.825361198832
 31
0.0
  0
LINE
  5
   346
  8
0
  6
CONTINUOUS
 62
     3
 10
69.3462624460459
 20
114.976832133454
 30
0.0
 11
69.3462624460459
 21
115.436054552406
 31
0.0
  0
LINE
  5
   347
  8
0
  6
CONTINUOUS
 62
     3
 10
69.3462624460459
 20
114.517615818017
 30
0.0
 11
69.3462624460459
 21
114.976832133454
 31
0.0
  0
LINE
  5
   348
  8
0
  6
CONTINUOUS
 62
     3
 10
69.3462624460459
 20
114.128303068075
 30
0.0
 11
69.3462624460459
 21
114.517615818017
 31
0.0
  0
LINE
  5
   349
  8
0
  6
CONTINUOUS
 62
     3
 10
69.3462624460459
 20
113.868177331777
 30
0.0
 11
69.3462624460459
 21
114.128303068075
 31
0.0
  0
LINE
  5
   34A
  8
0
  6
CONTINUOUS
 62
     3
 10
69.3462624460459
 20
113.776832115572
 30
0.0
 11
69.3462624460459
 21
113.868177331777
 31
0.0
  0
LINE
  5
   34B
  8
0
  6
CONTINUOUS
 62
     3
 10
69.3462623734805
 20
113.776831257519
 30
0.0
 11
69.7462623926117
 21
114.007769984558
 31
0.0
  0
LINE
  5
   34C
  8
0
  6
CONTINUOUS
 62
     3
 10
69.7462630399439
 20
115.945892413659
 30
0.0
 11
69.3462630208127
 21
116.176831140699
 31
0.0
  0
LINE
  5
   34D
  8
0
  6
CONTINUOUS
 62
     3
 10
69.3462624460459
 20
85.3768347441371
 30
0.0
 11
67.1462624132633
 21
85.3768347441371
 31
0.0
  0
LINE
  5
   34E
  8
0
  6
CONTINUOUS
 62
     3
 10
69.3462624460459
 20
87.7768347798999
 30
0.0
 11
67.1462624132633
 21
87.7768347798999
 31
0.0
  0
LINE
  5
   34F
  8
0
  6
CONTINUOUS
 62
     3
 10
69.3462624460459
 20
87.685489563695
 30
0.0
 11
69.3462624460459
 21
87.7768347798999
 31
0.0
  0
LINE
  5
   350
  8
0
  6
CONTINUOUS
 62
     3
 10
69.3462624460459
 20
87.4253607756391
 30
0.0
 11
69.3462624460459
 21
87.685489563695
 31
0.0
  0
LINE
  5
   351
  8
0
  6
CONTINUOUS
 62
     3
 10
69.3462624460459
 20
87.036054129213
 30
0.0
 11
69.3462624460459
 21
87.4253607756391
 31
0.0
  0
LINE
  5
   352
  8
0
  6
CONTINUOUS
 62
     3
 10
69.3462624460459
 20
86.5768347620185
 30
0.0
 11
69.3462624460459
 21
87.036054129213
 31
0.0
  0
LINE
  5
   353
  8
0
  6
CONTINUOUS
 62
     3
 10
69.3462624460459
 20
86.1176123430662
 30
0.0
 11
69.3462624460459
 21
86.5768347620185
 31
0.0
  0
LINE
  5
   354
  8
0
  6
CONTINUOUS
 62
     3
 10
69.3462624460459
 20
85.7283056966401
 30
0.0
 11
69.3462624460459
 21
86.1176123430662
 31
0.0
  0
LINE
  5
   355
  8
0
  6
CONTINUOUS
 62
     3
 10
69.3462624460459
 20
85.4681769085842
 30
0.0
 11
69.3462624460459
 21
85.7283056966401
 31
0.0
  0
LINE
  5
   356
  8
0
  6
CONTINUOUS
 62
     3
 10
69.3462624460459
 20
85.3768347441371
 30
0.0
 11
69.3462624460459
 21
85.4681769085842
 31
0.0
  0
LINE
  5
   357
  8
0
  6
CONTINUOUS
 62
     3
 10
69.3462625004526
 20
85.3768342526208
 30
0.0
 11
69.7462625195838
 21
85.6077729796606
 31
0.0
  0
LINE
  5
   358
  8
0
  6
CONTINUOUS
 62
     3
 10
69.7462630918461
 20
87.5458921035222
 30
0.0
 11
69.3462630727153
 21
87.7768338785094
 31
0.0
  0
LINE
  5
   359
  8
0
  6
CONTINUOUS
 62
     7
 10
67.1462624132633
 20
118.776832190078
 30
0.0
 11
67.1462624132633
 21
140.611355069978
 31
0.0
  0
LINE
  5
   35A
  8
0
  6
CONTINUOUS
 62
     7
 10
67.9462624251843
 20
111.376832079809
 30
0.0
 11
67.9462624251843
 21
113.776832115572
 31
0.0
  0
LINE
  5
   35B
  8
0
  6
CONTINUOUS
 62
     7
 10
67.1462624132633
 20
43.6380094182548
 30
0.0
 11
67.1462624132633
 21
54.3768327563222
 31
0.0
  0
LINE
  5
   35C
  8
0
  6
CONTINUOUS
 62
     7
 10
67.9462624251843
 20
43.8724921803695
 30
0.0
 11
67.9462624251843
 21
56.9768327950652
 31
0.0
  0
LINE
  5
   35D
  8
0
  6
CONTINUOUS
 62
     3
 10
64.4086149392222
 20
42.8355955034496
 30
0.0
 11
70.5176119769996
 21
44.6261636007292
 31
0.0
  0
LINE
  5
   35E
  8
0
  6
CONTINUOUS
 62
     3
 10
64.6192700094904
 20
140.168023069317
 30
0.0
 11
70.6229395121338
 21
141.221298420658
 31
0.0
  0
LINE
  5
   35F
  8
0
  6
CONTINUOUS
 62
     7
 10
67.9462624251843
 20
116.376832154315
 30
0.0
 11
67.1462624132633
 21
116.376832154315
 31
0.0
  0
LINE
  5
   360
  8
0
  6
CONTINUOUS
 62
     7
 10
67.9462624251843
 20
113.576832112592
 30
0.0
 11
67.1462624132633
 21
113.576832112592
 31
0.0
  0
LINE
  5
   361
  8
0
  6
CONTINUOUS
 62
     7
 10
67.9462624251843
 20
78.4768346413191
 30
0.0
 11
67.1462624132633
 21
78.4768346413191
 31
0.0
  0
LINE
  5
   362
  8
0
  6
CONTINUOUS
 62
     7
 10
67.9462624251843
 20
85.1768347411569
 30
0.0
 11
67.1462624132633
 21
85.1768347411569
 31
0.0
  0
LINE
  5
   363
  8
0
  6
CONTINUOUS
 62
     7
 10
67.9462624251843
 20
87.9768347828801
 30
0.0
 11
67.1462624132633
 21
87.9768347828801
 31
0.0
  0
LINE
  5
   364
  8
0
  6
CONTINUOUS
 62
     7
 10
67.9462624251843
 20
72.8769139035769
 30
0.0
 11
67.1462624132633
 21
72.8769139035769
 31
0.0
  0
LINE
  5
   365
  8
0
  6
CONTINUOUS
 62
     7
 10
67.9462624251843
 20
116.176832151335
 30
0.0
 11
67.9462624251843
 21
140.751705949263
 31
0.0
  0
LINE
  5
   366
  8
0
  6
CONTINUOUS
 62
     7
 10
67.9462624251843
 20
59.376832830828
 30
0.0
 11
67.9462624251843
 21
61.7768328665908
 31
0.0
  0
LINE
  5
   367
  8
0
  6
CONTINUOUS
 62
     7
 10
67.9462624251843
 20
59.5768328338082
 30
0.0
 11
67.1462624132633
 21
59.5768328338082
 31
0.0
  0
LINE
  5
   368
  8
0
  6
CONTINUOUS
 62
     7
 10
67.9462624251843
 20
56.776832792085
 30
0.0
 11
67.1462624132633
 21
56.776832792085
 31
0.0
  0
INSERT
  5
   369
  8
0
  6
CONTINUOUS
 62
     7
  2
*HATCH69
 10
114.74626159668
 20
42.5820617675781
 30
0.0
 41
0.400000005960464
 42
0.400000005960464
 50
89.9999999480344
 43
0.400000005960464
  0
INSERT
  5
   36A
  8
0
  6
CONTINUOUS
 62
     7
  2
*HATCH70
 10
114.74626159668
 20
42.5820617675781
 30
0.0
 41
0.400000005960464
 42
0.400000005960464
 50
89.9999999480344
 43
0.400000005960464
  0
INSERT
  5
   36B
  8
0
  6
CONTINUOUS
 62
     7
  2
*HATCH71
 10
114.74626159668
 20
42.5820617675781
 30
0.0
 41
0.400000005960464
 42
0.400000005960464
 50
89.9999999480344
 43
0.400000005960464
  0
INSERT
  5
   36C
  8
0
  6
CONTINUOUS
 62
     7
  2
*HATCH72
 10
114.74626159668
 20
42.5820617675781
 30
0.0
 41
0.400000005960464
 42
0.400000005960464
 50
89.9999999480344
 43
0.400000005960464
  0
INSERT
  5
   36D
  8
0
  6
CONTINUOUS
 62
     7
  2
*HATCH73
 10
114.74626159668
 20
42.5820617675781
 30
0.0
 41
0.400000005960464
 42
0.400000005960464
 50
89.9999999480344
 43
0.400000005960464
  0
INSERT
  5
   36E
  8
0
  6
CONTINUOUS
 62
     7
  2
*HATCH74
 10
114.74626159668
 20
42.5820617675781
 30
0.0
 41
0.400000005960464
 42
0.400000005960464
 50
89.9999999480344
 43
0.400000005960464
  0
LINE
  5
   36F
  8
0
  6
DASHDOT
 62
     7
 10
149.017992553546
 20
86.5768866419021
 30
0.0
 11
51.9138738265118
 21
86.5768866419021
 31
0.0
  0
LINE
  5
   370
  8
0
  6
DOT
 62
     7
 10
54.7462622284889
 20
65.5768863289777
 30
0.0
 11
54.7462622284889
 21
107.576886954827
 31
0.0
  0
LINE
  5
   371
  8
0
  6
DOT
 62
     7
 10
65.7462623924017
 20
107.576886954827
 30
0.0
 11
54.7462622284889
 21
107.576886954827
 31
0.0
  0
LINE
  5
   372
  8
0
  6
DOT
 62
     7
 10
65.7462623924017
 20
65.5768863289777
 30
0.0
 11
54.7462622284889
 21
65.5768863289777
 31
0.0
  0
LINE
  5
   373
  8
0
  6
CONTINUOUS
 62
     7
 10
178.22625643909
 20
105.916886930091
 30
0.0
 11
178.22625643909
 21
109.036886976582
 31
0.0
  0
LINE
  5
   374
  8
0
  6
CONTINUOUS
 62
     7
 10
179.506256458163
 20
106.676886941415
 30
0.0
 11
179.506256458163
 21
108.276886965257
 31
0.0
  0
LINE
  5
   375
  8
0
  6
CONTINUOUS
 62
     7
 10
178.22625643909
 20
109.036886976582
 30
0.0
 11
176.946256420016
 21
109.036886976582
 31
0.0
  0
LINE
  5
   376
  8
0
  6
CONTINUOUS
 62
     7
 10
178.22625643909
 20
105.916886930091
 30
0.0
 11
176.946256420016
 21
105.916886930091
 31
0.0
  0
LINE
  5
   377
  8
0
  6
CONTINUOUS
 62
     7
 10
179.506256458163
 20
106.676886941415
 30
0.0
 11
176.946256420016
 21
106.676886941415
 31
0.0
  0
LINE
  5
   378
  8
0
  6
CONTINUOUS
 62
     7
 10
179.506256458163
 20
108.276886965257
 30
0.0
 11
176.946256420016
 21
108.276886965257
 31
0.0
  0
LINE
  5
   379
  8
0
  6
CONTINUOUS
 62
     7
 10
178.22625643909
 20
69.0368863805357
 30
0.0
 11
176.946256420016
 21
69.0368863805357
 31
0.0
  0
LINE
  5
   37A
  8
0
  6
CONTINUOUS
 62
     7
 10
179.506256458163
 20
68.2768863692108
 30
0.0
 11
176.946256420016
 21
68.2768863692108
 31
0.0
  0
LINE
  5
   37B
  8
0
  6
CONTINUOUS
 62
     7
 10
179.506256458163
 20
66.676886345369
 30
0.0
 11
176.946256420016
 21
66.676886345369
 31
0.0
  0
LINE
  5
   37C
  8
0
  6
CONTINUOUS
 62
     7
 10
178.22625643909
 20
65.9168863340441
 30
0.0
 11
176.946256420016
 21
65.9168863340441
 31
0.0
  0
LINE
  5
   37D
  8
0
  6
CONTINUOUS
 62
     7
 10
178.22625643909
 20
65.9168863340441
 30
0.0
 11
178.22625643909
 21
69.0368863805357
 31
0.0
  0
LINE
  5
   37E
  8
0
  6
CONTINUOUS
 62
     7
 10
179.506256458163
 20
66.676886345369
 30
0.0
 11
179.506256458163
 21
68.2768863692108
 31
0.0
  0
CIRCLE
  5
   37F
  8
0
  6
CONTINUOUS
 62
     7
 10
178.259758110225
 20
67.318906957179
 30
0.0
 40
8.00000011920929E-2
  0
LINE
  5
   380
  8
0
  6
CONTINUOUS
 62
     3
 10
155.146256095171
 20
54.5968919637029
 30
0.0
 11
126.346255666017
 21
54.5968919637029
 31
0.0
  0
LINE
  5
   381
  8
0
  6
CONTINUOUS
 62
     7
 10
155.146256095171
 20
116.676887090427
 30
0.0
 11
155.146256095171
 21
121.476881049461
 31
0.0
  0
LINE
  5
   382
  8
0
  6
CONTINUOUS
 62
     7
 10
155.946256107092
 20
117.208729139368
 30
0.0
 11
155.946256107092
 21
117.276874892336
 31
0.0
  0
LINE
  5
   383
  8
0
  6
CONTINUOUS
 62
     7
 10
153.546256452799
 20
58.2768911874206
 30
0.0
 11
153.546256452799
 21
60.676886255962
 31
0.0
  0
LINE
  5
   384
  8
0
  6
CONTINUOUS
 62
     7
 10
155.946256107092
 20
117.276874892336
 30
0.0
 11
155.146256095171
 21
117.276874892336
 31
0.0
  0
LINE
  5
   385
  8
0
  6
CONTINUOUS
 62
     3
 10
155.146256095171
 20
120.356892028076
 30
0.0
 11
117.466256753921
 21
120.356892028076
 31
0.0
  0
LINE
  5
   386
  8
0
  6
CONTINUOUS
 62
     3
 10
126.34625566554
 20
54.5968919637029
 30
0.0
 11
117.466256753921
 21
54.5968919637029
 31
0.0
  0
LINE
  5
   387
  8
0
  6
CONTINUOUS
 62
     3
 10
126.34625566554
 20
54.5968919637029
 30
0.0
 11
126.34625566554
 21
60.676886255962
 31
0.0
  0
LINE
  5
   388
  8
0
  6
CONTINUOUS
 62
     3
 10
126.346255666017
 20
116.676887090427
 30
0.0
 11
126.346255666017
 21
121.476887161953
 31
0.0
  0
LINE
  5
   389
  8
0
  6
CONTINUOUS
 62
   130
 10
155.146256095171
 20
154.236891312224
 30
0.0
 11
126.346255666017
 21
154.236891312224
 31
0.0
  0
LINE
  5
   38A
  8
0
  6
CONTINUOUS
 62
   130
 10
126.346255666017
 20
148.756892451269
 30
0.0
 11
126.346255666017
 21
154.476892620912
 31
0.0
  0
LINE
  5
   38B
  8
0
  6
CONTINUOUS
 62
   130
 10
126.346255666017
 20
120.476892114273
 30
0.0
 11
126.346255666017
 21
121.956995811685
 31
0.0
  0
LINE
  5
   38C
  8
0
  6
CONTINUOUS
 62
   130
 10
155.146256095171
 20
120.476892114273
 30
0.0
 11
155.146256095171
 21
156.476892650715
 31
0.0
  0
LINE
  5
   38D
  8
0
  6
CONTINUOUS
 62
   130
 10
155.146256095171
 20
141.756892346961
 30
0.0
 11
153.546256071329
 21
141.756892346961
 31
0.0
  0
LINE
  5
   38E
  8
0
  6
CONTINUOUS
 62
   130
 10
153.546256071329
 20
141.756892346961
 30
0.0
 11
153.546256071329
 21
150.676892564288
 31
0.0
  0
LINE
  5
   38F
  8
0
  6
CONTINUOUS
 62
   130
 10
127.746255686879
 20
145.956892409546
 30
0.0
 11
127.706256296635
 21
145.956892409546
 31
0.0
  0
LINE
  5
   390
  8
0
  6
CONTINUOUS
 62
   130
 10
127.746255686879
 20
148.756892451269
 30
0.0
 11
126.346255666017
 21
148.756892451269
 31
0.0
  0
LINE
  5
   391
  8
0
  6
CONTINUOUS
 62
   130
 10
127.746255686879
 20
121.956928673012
 30
0.0
 11
126.346255666017
 21
121.956928673012
 31
0.0
  0
LINE
  5
   392
  8
0
  6
CONTINUOUS
 62
   130
 10
127.746255686879
 20
124.756928714735
 30
0.0
 11
127.706256296635
 21
124.756928714735
 31
0.0
  0
LINE
  5
   393
  8
0
  6
CONTINUOUS
 62
   130
 10
127.746255686879
 20
121.956928673012
 30
0.0
 11
127.746255686879
 21
148.756892451269
 31
0.0
  0
LINE
  5
   394
  8
0
  6
CONTINUOUS
 62
   210
 10
126.346255666017
 20
154.236891312224
 30
0.0
 11
117.466256754398
 21
154.236891312224
 31
0.0
  0
LINE
  5
   395
  8
0
  6
CONTINUOUS
 62
   210
 10
126.346255666017
 20
121.956928673012
 30
0.0
 11
126.346255666017
 21
122.056892053408
 31
0.0
  0
LINE
  5
   396
  8
0
  6
CONTINUOUS
 62
   210
 10
126.346255666017
 20
148.656892449779
 30
0.0
 11
126.346255666017
 21
148.756892451269
 31
0.0
  0
LINE
  5
   397
  8
0
  6
CONTINUOUS
 62
   210
 10
117.466256754398
 20
124.856892095131
 30
0.0
 11
117.346255531907
 21
124.856892095131
 31
0.0
  0
LINE
  5
   398
  8
0
  6
CONTINUOUS
 62
   210
 10
117.466256754398
 20
121.856892050428
 30
0.0
 11
117.346255531907
 21
121.856892050428
 31
0.0
  0
LINE
  5
   399
  8
0
  6
CONTINUOUS
 62
   210
 10
117.466256754398
 20
121.356892042977
 30
0.0
 11
117.346255531907
 21
121.356892042977
 31
0.0
  0
LINE
  5
   39A
  8
0
  6
CONTINUOUS
 62
   210
 10
117.466256754398
 20
121.476892129174
 30
0.0
 11
117.466256754398
 21
154.236891312224
 31
0.0
  0
LINE
  5
   39B
  8
0
  6
CONTINUOUS
 62
   210
 10
127.506256293654
 20
122.056892053408
 30
0.0
 11
126.346255666017
 21
122.056892053408
 31
0.0
  0
LINE
  5
   39C
  8
0
  6
CONTINUOUS
 62
   210
 10
127.506255580873
 20
122.056893789617
 30
0.0
 11
127.647677094491
 21
122.115475333762
 31
0.0
  0
LINE
  5
   39D
  8
0
  6
CONTINUOUS
 62
   210
 10
127.647678212706
 20
122.115467605035
 30
0.0
 11
127.706256704876
 21
122.256886060583
 31
0.0
  0
LINE
  5
   39E
  8
0
  6
CONTINUOUS
 62
   210
 10
127.706256296635
 20
122.256892056388
 30
0.0
 11
127.706256296635
 21
124.456892089171
 31
0.0
  0
LINE
  5
   39F
  8
0
  6
CONTINUOUS
 62
   210
 10
127.706256296635
 20
146.256892414016
 30
0.0
 11
127.706256296635
 21
148.456892446799
 31
0.0
  0
LINE
  5
   3A0
  8
0
  6
CONTINUOUS
 62
   210
 10
127.706259664062
 20
148.456882949808
 30
0.0
 11
127.647681171892
 21
148.598301405355
 31
0.0
  0
LINE
  5
   3A1
  8
0
  6
CONTINUOUS
 62
   210
 10
127.647675631454
 20
148.598313913413
 30
0.0
 11
127.506254117836
 21
148.656895457558
 31
0.0
  0
LINE
  5
   3A2
  8
0
  6
CONTINUOUS
 62
   210
 10
127.506256293654
 20
148.656892449779
 30
0.0
 11
126.346255666017
 21
148.656892449779
 31
0.0
  0
LINE
  5
   3A3
  8
0
  6
CONTINUOUS
 62
   210
 10
127.706256296635
 20
124.456892089171
 30
0.0
 11
127.706256296635
 21
146.256892414016
 31
0.0
  0
LINE
  5
   3A4
  8
0
  6
CONTINUOUS
 62
     2
 10
117.346255531907
 20
116.676887090427
 30
0.0
 11
117.346255531907
 21
145.676892405373
 31
0.0
  0
LINE
  5
   3A5
  8
0
  6
CONTINUOUS
 62
     2
 10
115.346255502105
 20
116.676887090427
 30
0.0
 11
115.346255502105
 21
140.276892324907
 31
0.0
  0
LINE
  5
   3A6
  8
0
  6
CONTINUOUS
 62
     2
 10
115.346255502105
 20
140.676892330867
 30
0.0
 11
115.346255502105
 21
145.676892405373
 31
0.0
  0
LINE
  5
   3A7
  8
0
  6
CONTINUOUS
 62
     2
 10
117.346255531907
 20
145.676892405373
 30
0.0
 11
116.346255517006
 21
145.676892405373
 31
0.0
  0
LINE
  5
   3A8
  8
0
  6
CONTINUOUS
 62
     2
 10
115.746255508065
 20
140.676892330867
 30
0.0
 11
115.346255502105
 21
140.676892330867
 31
0.0
  0
LINE
  5
   3A9
  8
0
  6
CONTINUOUS
 62
     2
 10
115.746255508065
 20
140.276892324907
 30
0.0
 11
115.346255502105
 21
140.276892324907
 31
0.0
  0
LINE
  5
   3AA
  8
0
  6
CONTINUOUS
 62
     2
 10
115.746255508065
 20
140.276892324907
 30
0.0
 11
115.746255508065
 21
140.676892330867
 31
0.0
  0
LINE
  5
   3AB
  8
0
  6
CONTINUOUS
 62
     2
 10
117.146255528927
 20
116.676887090427
 30
0.0
 11
117.146255528927
 21
145.676892405373
 31
0.0
  0
LINE
  5
   3AC
  8
0
  6
CONTINUOUS
 62
   210
 10
117.346259471355
 20
126.004107485484
 30
0.0
 11
117.466257643319
 21
126.056890690344
 31
0.0
  0
LINE
  5
   3AD
  8
0
  6
CONTINUOUS
 62
   210
 10
117.466255108132
 20
144.65689428742
 30
0.0
 11
117.346253882678
 21
144.70967749022
 31
0.0
  0
LINE
  5
   3AE
  8
0
  6
CONTINUOUS
 62
     2
 10
116.346255517006
 20
145.676892405373
 30
0.0
 11
115.746255508065
 21
145.676892405373
 31
0.0
  0
LINE
  5
   3AF
  8
0
  6
CONTINUOUS
 62
   130
 10
155.146256095171
 20
120.476892114273
 30
0.0
 11
117.346255531907
 21
120.476892114273
 31
0.0
  0
LINE
  5
   3B0
  8
0
  6
CONTINUOUS
 62
     7
 10
115.346255502105
 20
146.076892411334
 30
0.0
 11
115.346255502105
 21
155.976892643264
 31
0.0
  0
ARC
  5
   3B1
  8
0
  6
CONTINUOUS
 62
     7
 10
115.846255509555
 20
155.976892643264
 30
0.0
 40
0.500000007450581
 50
89.9999999480344
 51
179.999999948034
  0
LINE
  5
   3B2
  8
0
  6
CONTINUOUS
 62
     7
 10
117.346255531907
 20
145.676892405373
 30
0.0
 11
117.346255531907
 21
154.476892620912
 31
0.0
  0
LINE
  5
   3B3
  8
0
  6
CONTINUOUS
 62
     7
 10
155.146256095171
 20
154.476892620912
 30
0.0
 11
117.346255531907
 21
154.476892620912
 31
0.0
  0
LINE
  5
   3B4
  8
0
  6
CONTINUOUS
 62
     7
 10
155.146256095171
 20
154.676892623893
 30
0.0
 11
117.146255528927
 21
154.676892623893
 31
0.0
  0
LINE
  5
   3B5
  8
0
  6
CONTINUOUS
 62
     7
 10
117.146255528927
 20
146.076892411334
 30
0.0
 11
117.146255528927
 21
154.676892623893
 31
0.0
  0
LINE
  5
   3B6
  8
0
  6
CONTINUOUS
 62
     7
 10
117.146255528927
 20
146.076892411334
 30
0.0
 11
115.746255508065
 21
146.076892411334
 31
0.0
  0
LINE
  5
   3B7
  8
0
  6
CONTINUOUS
 62
     7
 10
115.746255508065
 20
145.679389565685
 30
0.0
 11
115.746255508065
 21
146.076892411334
 31
0.0
  0
LINE
  5
   3B8
  8
0
  6
CONTINUOUS
 62
     7
 10
155.146256095171
 20
156.476892650715
 30
0.0
 11
115.846255509555
 21
156.476892650715
 31
0.0
  0
LINE
  5
   3B9
  8
0
  6
CONTINUOUS
 62
     7
 10
115.746255508065
 20
146.076892411334
 30
0.0
 11
115.346255502105
 21
146.076892411334
 31
0.0
  0
LINE
  5
   3BA
  8
0
  6
CONTINUOUS
 62
     2
 10
115.746255508065
 20
145.676892405373
 30
0.0
 11
115.346255502105
 21
145.676892405373
 31
0.0
  0
LINE
  5
   3BB
  8
0
  6
CONTINUOUS
 62
     2
 10
117.466256753921
 20
116.676887090427
 30
0.0
 11
117.466256753921
 21
120.356892028076
 31
0.0
  0
LINE
  5
   3BC
  8
0
  6
CONTINUOUS
 62
     7
 10
155.146256095171
 20
52.4768911009939
 30
0.0
 11
115.846255509555
 21
52.4768911009939
 31
0.0
  0
LINE
  5
   3BD
  8
0
  6
CONTINUOUS
 62
     7
 10
155.146256095171
 20
54.276891127816
 30
0.0
 11
117.146255528927
 21
54.276891127816
 31
0.0
  0
LINE
  5
   3BE
  8
0
  6
CONTINUOUS
 62
     7
 10
155.146256095171
 20
54.4768911307962
 30
0.0
 11
117.346255531907
 21
54.4768911307962
 31
0.0
  0
LINE
  5
   3BF
  8
0
  6
CONTINUOUS
 62
   210
 10
117.466256754398
 20
54.7168924394845
 30
0.0
 11
117.466256754398
 21
59.0768740250887
 31
0.0
  0
LINE
  5
   3C0
  8
0
  6
CONTINUOUS
 62
     7
 10
117.346255531907
 20
54.4768911307962
 30
0.0
 11
117.346255531907
 21
59.0768740250887
 31
0.0
  0
LINE
  5
   3C1
  8
0
  6
CONTINUOUS
 62
     7
 10
117.146255528927
 20
54.276891127816
 30
0.0
 11
117.146255528927
 21
59.0768740250887
 31
0.0
  0
LINE
  5
   3C2
  8
0
  6
CONTINUOUS
 62
     7
 10
115.346255502105
 20
52.9768911084445
 30
0.0
 11
115.346255502105
 21
60.676886255962
 31
0.0
  0
ARC
  5
   3C3
  8
0
  6
CONTINUOUS
 62
     7
 10
115.846255509555
 20
52.9768911084445
 30
0.0
 40
0.500000007450581
 50
179.999999948034
 51
269.999999948034
  0
LINE
  5
   3C4
  8
0
  6
CONTINUOUS
 62
     7
 10
155.146256095171
 20
52.4768911009939
 30
0.0
 11
155.146256095171
 21
58.7768740206184
 31
0.0
  0
LINE
  5
   3C5
  8
0
  6
CONTINUOUS
 62
   130
 10
155.146256095171
 20
150.676892564288
 30
0.0
 11
153.546256071329
 21
150.676892564288
 31
0.0
  0
LINE
  5
   3C6
  8
0
  6
CONTINUOUS
 62
     7
 10
155.146256095171
 20
58.2768911874206
 30
0.0
 11
153.546256452799
 21
58.2768911874206
 31
0.0
  0
LINE
  5
   3C7
  8
0
  6
CONTINUOUS
 62
     7
 10
155.946256107092
 20
116.676887090427
 30
0.0
 11
155.946256107092
 21
117.276874892336
 31
0.0
  0
LINE
  5
   3C8
  8
0
  6
CONTINUOUS
 62
     7
 10
155.946256107092
 20
57.7295351378243
 30
0.0
 11
155.146256095171
 21
57.7295351378243
 31
0.0
  0
LINE
  5
   3C9
  8
0
  6
CONTINUOUS
 62
   130
 10
155.946256107092
 20
151.276875398976
 30
0.0
 11
155.146256095171
 21
151.276875398976
 31
0.0
  0
LINE
  5
   3CA
  8
0
  6
CONTINUOUS
 62
   130
 10
155.946256107092
 20
147.329536472968
 30
0.0
 11
155.946256107092
 21
151.276875398976
 31
0.0
  0
LINE
  5
   3CB
  8
0
  6
CONTINUOUS
 62
   130
 10
155.946256107092
 20
147.329536472968
 30
0.0
 11
155.146256095171
 21
147.329536472968
 31
0.0
  0
LINE
  5
   3CC
  8
0
  6
CONTINUOUS
 62
     7
 10
118.551927989767
 20
160.304765190112
 30
0.0
 11
66.0405684337005
 21
160.304765190112
 31
0.0
  0
INSERT
  5
   3CD
  8
0
  6
CONTINUOUS
 62
     7
  2
*HATCH75
 10
114.74626159668
 20
42.5820617675781
 30
0.0
 41
0.400000005960464
 42
0.400000005960464
 50
89.9999999480344
 43
0.400000005960464
  0
LINE
  5
   3CE
  8
0
  6
CONTINUOUS
 62
     7
 10
104.146267542243
 20
107.576886954827
 30
0.0
 11
67.9462624251843
 21
107.576886954827
 31
0.0
  0
LINE
  5
   3CF
  8
0
  6
CONTINUOUS
 62
     7
 10
104.146267542243
 20
65.5768863289777
 30
0.0
 11
67.9462624251843
 21
65.5768863289777
 31
0.0
  0
LINE
  5
   3D0
  8
0
  6
CONTINUOUS
 62
     7
 10
65.7462364524599
 20
102.367986025621
 30
0.0
 11
64.946236440539
 21
102.367986025621
 31
0.0
  0
LINE
  5
   3D1
  8
0
  6
CONTINUOUS
 62
     7
 10
65.7462364524599
 20
84.3857723237205
 30
0.0
 11
64.946236440539
 21
84.3857723237205
 31
0.0
  0
LINE
  5
   3D2
  8
0
  6
CONTINUOUS
 62
     7
 10
64.946236440539
 20
84.3857723237205
 30
0.0
 11
64.946236440539
 21
102.367986025621
 31
0.0
  0
INSERT
  5
   3D3
  8
0
  6
CONTINUOUS
 62
     7
  2
*UDIM329
 10
0.0
 20
0.0
 30
0.0
  0
INSERT
  5
   3D4
  8
0
  6
CONTINUOUS
 62
     7
  2
*UDIM330
 10
0.0
 20
0.0
 30
0.0
  0
INSERT
  5
   3D5
  8
0
  6
CONTINUOUS
 62
     7
  2
*UDIM331
 10
0.0
 20
0.0
 30
0.0
  0
INSERT
  5
   3D6
  8
0
  6
CONTINUOUS
 62
     7
  2
*UDIM332
 10
0.0
 20
0.0
 30
0.0
  0
TEXT
  5
   3D7
  8
0
  6
CONTINUOUS
 62
     7
 10
35.407655615294
 20
85.0373389348654
 30
0.0
 40
2.99999994933605
  1
X
 50
359.999999948034
 41
0.91666673368878
 72
     1
 11
36.5076556926429
 21
86.5373389085413
 31
0.0
 73
     2
  0
INSERT
  5
   3D8
  8
0
  6
CONTINUOUS
 62
     7
  2
*UDIM333
 10
0.0
 20
0.0
 30
0.0
  0
INSERT
  5
   3D9
  8
0
  6
CONTINUOUS
 62
     7
  2
*UDIM334
 10
0.0
 20
0.0
 30
0.0
  0
TEXT
  5
   3DA
  8
0
  6
CONTINUOUS
 62
     7
 10
49.0956257978772
 20
78.3859743076723
 30
0.0
 40
2.99999994933605
  1
=    =
 50
89.9999999480344
 41
0.91666673368878
 72
     1
 11
47.5956258304323
 21
86.3609747715877
 31
0.0
 73
     2
  0
INSERT
  5
   3DB
  8
0
  6
CONTINUOUS
 62
     7
  2
*UDIM335
 10
0.0
 20
0.0
 30
0.0
  0
TEXT
  5
   3DC
  8
0
  6
CONTINUOUS
 62
     7
 10
67.5061111359089
 20
166.76673158364
 30
0.0
 40
2.50000001341104
  1
CORSA DI SEZIONAMENTO
 50
359.999999948034
 41
0.899999922823905
 72
     1
 11
90.9061092463769
 21
168.01673156924
 31
0.0
 73
     2
  0
TEXT
  5
   3DD
  8
0
  6
CONTINUOUS
 62
     7
 10
70.8811109182654
 20
162.266731580596
 30
0.0
 40
2.50000001341104
  1
ISOLATING DISTANCE
 50
359.999999948034
 41
0.899999922823905
 72
     1
 11
90.9061093000389
 21
163.51673156924
 31
0.0
 73
     2
  0
INSERT
  5
   3DE
  8
0
  6
CONTINUOUS
 62
     7
  2
*UDIM336
 10
0.0
 20
0.0
 30
0.0
  0
ENDSEC
  0
EOF
