  0
SECTION
  2
HEADER
  9
$ACADVER
  1
AC1009
999
I-DEAS 11 NX Not Encoded
  9
$EXTMIN
 10
0.0
 20
0.0
  9
$EXTMAX
 10
4.2E+002
 20
2.97E+002
  9
$TEXTSIZE
 40
1.25E-001
  9
$LTSCALE
 40
1.0
  9
$CLAYER
  8
1
  9
$CECOLOR
 62
1
  9
$DIMASZ
 40
1.25E-001
  9
$DIMEXO
 40
6.25E-002
  9
$DIMDLI
 40
2.5E-001
  9
$DIMEXE
 40
1.25E-001
  9
$DIMTP
 40
5.0E-003
  9
$DIMTM
 40
-5.0E-003
  9
$DIMTXT
 40
3.0
  9
$DIMLIM
 70
0
  9
$DIMTIH
 70
1
  9
$DIMTOH
 70
1
  9
$DIMSE1
 70
0
  9
$DIMSE2
 70
0
  9
$DIMTAD
 70
0
  9
$DIMASO
 70
1
  9
$DIMALT
 70
0
  9
$DIMALTD
 70
0
  9
$DIMTOFL
 70
1
  9
$DIMTIX
 70
0
  9
$DIMSAH
 70
0
  9
$DIMTFAC
 40
1.0
  9
$DIMGAP
 40
6.25E-002
  9
$LUNITS
 70
2
  9
$LUPREC
 70
3
  9
$FILLETRAD
 40
1.0E+001
  9
$AUNITS
 70
0
  9
$AUPREC
 70
1
  9
$CHAMFERA
 40
6.0
  9
$CHAMFERB
 40
6.0
  9
$ANGBASE
 50
0.0
  9
$ANGDIR
 70
0
  9
$PEXTMIN
 10
0.0
 20
0.0
 30
0.0
  9
$PEXTMAX
 10
4.2E+002
 20
2.97E+002
 30
0.0
  9
$PLIMMIN
 10
0.0
 20
0.0
  9
$PLIMMAX
 10
4.2E+002
 20
2.97E+002
  9
$PDMODE
 70
2
  9
$PDSIZE
 40
-1.0E-002
  9
$SPLINETYPE
 70
6
  9
$TILEMODE
 70
1
  0
ENDSEC
  0
SECTION
  2
TABLES
  0
TABLE
  2
VPORT
 70
2
  0
VPORT
  2
*Active
 70
0
 10
0.0
 20
0.0
 11
4.2E+002
 21
2.97E+002
 12
2.1E+002
 22
1.485E+002
 13
0.0
 23
0.0
 14
1.0
 24
1.0
 15
0.0
 25
0.0
 16
0.0
 26
0.0
 36
1.0
 17
0.0
 27
0.0
 37
0.0
 40
2.97E+002
 41
1.4141414
 42
5.0E+001
 43
0.0
 44
0.0
 50
0.0
 51
0.0
 71
0
 72
100
 73
1
 74
3
 75
0
 76
0
 77
0
 78
0
  0
ENDTAB
  0
TABLE
  2
LTYPE
 70
7
  0
LTYPE
  2
HIDDENNEW0
  3
_ 
 70
64
 72
65
 73
3
 40
4.5
 49
1.5
 49
-1.5
 49
1.5
  0
LTYPE
  2
HIDDENNEW1
  3
_ 
 70
64
 72
65
 73
3
 40
4.5
 49
1.5
 49
-1.5
 49
1.5
  0
LTYPE
  2
HIDDEN
  3
_ 
 70
64
 72
65
 73
3
 40
4.5
 49
1.5
 49
-1.5
 49
1.5
  0
LTYPE
  2
CENTERLINE
  3
_ 
 70
64
 72
65
 73
5
 40
3.0E+001
 49
1.2E+001
 49
-1.5
 49
3.0
 49
-1.5
 49
1.2E+001
  0
LTYPE
  2
PHANTOM
  3
_ 
 70
64
 72
65
 73
7
 40
2.95E+001
 49
9.5
 49
-1.5
 49
3.0
 49
-1.5
 49
3.0
 49
-1.5
 49
9.5
  0
LTYPE
  2
SHORT_DASH
  3
_ 
 70
64
 72
65
 73
3
 40
3.0
 49
7.5E-001
 49
-1.5
 49
7.5E-001
  0
LTYPE
  2
LONG_DASH
  3
_ 
 70
64
 72
65
 73
3
 40
9.0
 49
2.25
 49
-4.5
 49
2.25
  0
ENDTAB
  0
TABLE
  2
LAYER
 70
258
  0
LAYER
  2
1
 70
0
 62
7
  6
CONTINUOUS
  0
LAYER
  2
2
 70
0
 62
7
  6
CONTINUOUS
  0
LAYER
  2
Drafting_Hidden_Entities
 70
1
 62
7
  6
CONTINUOUS
  0
ENDTAB
  0
TABLE
  2
STYLE
 70
1
  0
STYLE
  2
STANDARD
 70
64
 40
0.0
 41
1.0
 50
0.0
 71
0
 42
1.0
  3
monotxt.shx
  4

  0
ENDTAB
  0
TABLE
  2
VIEW
 70
0
  0
ENDTAB
  0
TABLE
  2
DIMSTYLE
 70
0
  0
ENDTAB
  0
ENDSEC
  0
SECTION
  2
BLOCKS
  0
BLOCK
  2
_AH12
  3
_AH
 10
0.0
 20
0.0
 70
64
  0
LINE
  8
0
  6
CONTINUOUS
 62
0
 10
0.0
 20
0.0
 11
1.0
 21
0.0
  0
LINE
  8
0
  6
CONTINUOUS
 62
0
 10
0.0
 20
0.0
 11
-1.0
 21
0.0
  0
ENDBLK
  0
BLOCK
  2
_AH13
  3
_AH
 10
0.0
 20
0.0
 70
64
  0
SOLID
  8
0
  6
CONTINUOUS
 62
0
 10
0.0
 20
0.0
 11
-1.0
 21
1.66667E-001
 12
-1.0
 22
-1.66667E-001
 13
0.0
 23
0.0
  0
ENDBLK
  0
BLOCK
  2
_AH14
  3
_AH
 10
0.0
 20
0.0
 70
64
  0
ENDBLK
  0
BLOCK
  2
_AH15
  3
_AH
 10
0.0
 20
0.0
 70
64
  0
CIRCLE
  8
0
  6
CONTINUOUS
 62
0
 10
0.0
 20
0.0
 40
1.66667E-001
  0
LINE
  8
0
  6
CONTINUOUS
 62
0
 10
0.0
 20
0.0
 11
-1.0
 21
0.0
  0
ENDBLK
  0
BLOCK
  2
_AH16
  3
_AH
 10
0.0
 20
0.0
 70
64
  0
POLYLINE
  8
0
  6
CONTINUOUS
 62
0
 66
1
 40
2.0
 41
2.0
 70
0
  0
VERTEX
  8
0
 42
1.0
 10
8.3335E-002
 20
0.0
 70
0
  0
VERTEX
  8
0
 42
1.0
 10
-8.3335E-002
 20
0.0
 70
0
  0
VERTEX
  8
0
 42
0.0
 10
8.3335E-002
 20
0.0
 70
0
  0
SEQEND
  0
LINE
  8
0
  6
CONTINUOUS
 62
0
 10
0.0
 20
0.0
 11
-1.0
 21
0.0
  0
ENDBLK
  0
BLOCK
  2
_AH17
  3
_AH
 10
0.0
 20
0.0
 70
64
  0
LINE
  8
0
  6
CONTINUOUS
 62
0
 10
-1.66667E-001
 20
-1.66667E-001
 11
1.66667E-001
 21
-1.66667E-001
  0
LINE
  8
0
  6
CONTINUOUS
 62
0
 10
1.66667E-001
 20
-1.66667E-001
 11
1.66667E-001
 21
1.66667E-001
  0
LINE
  8
0
  6
CONTINUOUS
 62
0
 10
1.66667E-001
 20
1.66667E-001
 11
-1.66667E-001
 21
1.66667E-001
  0
LINE
  8
0
  6
CONTINUOUS
 62
0
 10
-1.66667E-001
 20
1.66667E-001
 11
-1.66667E-001
 21
-1.66667E-001
  0
LINE
  8
0
  6
CONTINUOUS
 62
0
 10
0.0
 20
0.0
 11
-1.0
 21
0.0
  0
ENDBLK
  0
BLOCK
  2
_AH18
  3
_AH
 10
0.0
 20
0.0
 70
64
  0
SOLID
  8
0
  6
CONTINUOUS
 62
0
 10
-1.66667E-001
 20
-1.66667E-001
 11
1.66667E-001
 21
-1.66667E-001
 12
-1.66667E-001
 22
1.66667E-001
 13
1.66667E-001
 23
1.66667E-001
  0
LINE
  8
0
  6
CONTINUOUS
 62
0
 10
0.0
 20
0.0
 11
-1.0
 21
0.0
  0
ENDBLK
  0
BLOCK
  2
_AH19
  3
_AH
 10
0.0
 20
0.0
 70
64
  0
LINE
  8
0
  6
CONTINUOUS
 62
0
 10
-5.0E-001
 20
-5.0E-001
 11
5.0E-001
 21
5.0E-001
  0
LINE
  8
0
  6
CONTINUOUS
 62
0
 10
0.0
 20
0.0
 11
-1.0
 21
0.0
  0
ENDBLK
  0
BLOCK
  2
_AH20
  3
_AH
 10
0.0
 20
0.0
 70
64
  0
POLYLINE
  8
0
  6
CONTINUOUS
 62
0
 66
1
 40
5.0E-001
 41
5.0E-001
 70
0
  0
VERTEX
  8
0
 42
4.1421356E-001
 10
-1.66667E-001
 20
-1.66667E-001
 70
0
  0
VERTEX
  8
0
 42
0.0
 10
0.0
 20
0.0
 70
0
  0
SEQEND
  0
POLYLINE
  8
0
  6
CONTINUOUS
 62
0
 66
1
 40
5.0E-001
 41
5.0E-001
 70
0
  0
VERTEX
  8
0
 42
4.1421356E-001
 10
1.66667E-001
 20
1.66667E-001
 70
0
  0
VERTEX
  8
0
 42
0.0
 10
0.0
 20
0.0
 70
0
  0
SEQEND
  0
LINE
  8
0
  6
CONTINUOUS
 62
0
 10
0.0
 20
0.0
 11
-1.0
 21
0.0
  0
ENDBLK
  0
BLOCK
  2
_AH21
  3
_AH
 10
0.0
 20
0.0
 70
64
  0
LINE
  8
0
  6
CONTINUOUS
 62
0
 10
0.0
 20
0.0
 11
-1.0
 21
-1.66667E-001
  0
LINE
  8
0
  6
CONTINUOUS
 62
0
 10
-1.0
 20
-1.66667E-001
 11
-1.0
 21
1.66667E-001
  0
LINE
  8
0
  6
CONTINUOUS
 62
0
 10
-1.0
 20
1.66667E-001
 11
0.0
 21
0.0
  0
ENDBLK
  0
BLOCK
  2
A3ENTRELEC
 10
0.0
 20
0.0
 70
0
  0
ATTDEF
  8
1
  6
CONTINUOUS
 62
3
 10
3.3961897E+002
 20
1.5886108E+001
 40
6.0
  1
 
 41
7.5E-001
  3
N_plan
  2
N_plan
 70
0
  0
ATTDEF
  8
1
  6
CONTINUOUS
 62
3
 10
2.9966303E+002
 20
2.0206857E+001
 40
3.5
  1
 
 41
7.0E-001
 72
1
 11
2.9353803E+002
 21
1.8456857E+001
  3
Pièce
  2
Pièce
 70
0
 73
2
 74
2
  0
ATTDEF
  8
1
  6
CONTINUOUS
 62
5
 10
2.6001229E+002
 20
2.158945E+001
 40
2.5
  1
 
 41
8.0E-001
  3
Appareil
  2
Appareil
 70
0
  0
ATTDEF
  8
1
  6
CONTINUOUS
 62
3
 10
3.6786361E+002
 20
3.3263586E+001
 40
8.5
  1
 
 41
6.5E-001
 72
1
 11
3.4852611E+002
 21
2.9013586E+001
  3
Echelle
  2
Echelle
 70
0
 73
2
 74
2
  0
ATTDEF
  8
1
  6
CONTINUOUS
 62
5
 10
3.5453235E+002
 20
3.8781313E+001
 40
2.5
  1
 
 41
5.0E-001
  3
Etabli
  2
Etabli
 70
0
  0
ATTDEF
  8
1
  6
CONTINUOUS
 62
5
 10
3.5451883E+002
 20
4.2897116E+001
 40
2.2
  1
 
 41
5.4E-001
  3
Contrôle
  2
Contrôle
 70
0
  0
ATTDEF
  8
1
  6
CONTINUOUS
 62
5
 10
3.5413326E+002
 20
4.6907672E+001
 40
2.2
  1
 
 41
5.5E-001
  3
Execution
  2
Execution
 70
0
  0
ATTDEF
  8
1
  6
CONTINUOUS
 62
1
 10
3.8742812E+002
 20
2.3814247E+001
 40
2.5
  1
1
 41
8.0E-001
 72
1
 11
3.7942812E+002
 21
2.3814247E+001
  3
Feuil.N%%d
  2
Feuil.N%%d
 70
0
  0
ATTDEF
  8
1
  6
CONTINUOUS
 62
1
 10
3.9952748E+002
 20
2.3776622E+001
 40
2.5
  1
 
 41
8.0E-001
 72
1
 11
3.9052748E+002
 21
2.3776622E+001
  3
Nb.feuil.
  2
Nb.feuil.
 70
0
  0
ATTDEF
  8
1
  6
CONTINUOUS
 62
1
 10
3.7747162E+002
 20
3.0962988E+001
 40
2.1
  1
 
 41
5.5E-001
  3
Projet (IDEAS)
  2
Projet(IDEAS)
 70
0
  0
ATTDEF
  8
1
  6
CONTINUOUS
 62
40
 10
4.1159734E+002
 20
1.526832E+001
 40
2.5
  1
A
 41
8.0E-001
 72
1
 11
3.9859734E+002
 21
1.526832E+001
  3
Indice general
  2
Indicegeneral
 70
0
  0
ATTDEF
  8
1
  6
CONTINUOUS
 62
1
 10
2.3305514E+002
 20
3.4807135E+001
 40
2.5
  1
A
 41
8.0E-001
 72
1
 11
2.2605514E+002
 21
3.4807135E+001
  3
Indice 1
  2
Indice1
 70
0
  0
ATTDEF
  8
1
  6
CONTINUOUS
 62
1
 10
2.3305514E+002
 20
3.8807135E+001
 40
2.5
  1
 
 41
8.0E-001
 72
1
 11
2.2605514E+002
 21
3.8807135E+001
  3
Indice2
  2
Indice2
 70
0
  0
ATTDEF
  8
1
  6
CONTINUOUS
 62
1
 10
2.3305514E+002
 20
4.2807135E+001
 40
2.5
  1
 
 41
8.0E-001
 72
1
 11
2.2605514E+002
 21
4.2807135E+001
  3
Indice3
  2
Indice3
 70
0
  0
ATTDEF
  8
1
  6
CONTINUOUS
 62
1
 10
2.3305514E+002
 20
4.6807135E+001
 40
2.5
  1
 
 41
8.0E-001
 72
1
 11
2.2605514E+002
 21
4.6807135E+001
  3
Indice4
  2
Indice4
 70
0
  0
ATTDEF
  8
1
  6
CONTINUOUS
 62
1
 10
2.312108E+002
 20
3.4807135E+001
 40
2.5
  1
 
 41
6.5E-001
  3
texte ind1
  2
texteind1
 70
0
  0
ATTDEF
  8
1
  6
CONTINUOUS
 62
1
 10
2.312108E+002
 20
3.8807135E+001
 40
2.5
  1
 
 41
6.5E-001
  3
texte ind2
  2
texteind2
 70
0
  0
ATTDEF
  8
1
  6
CONTINUOUS
 62
1
 10
2.312108E+002
 20
4.2807135E+001
 40
2.5
  1
 
 41
6.5E-001
  3
texte ind3
  2
texteind3
 70
0
  0
ATTDEF
  8
1
  6
CONTINUOUS
 62
1
 10
2.312108E+002
 20
4.6807135E+001
 40
2.5
  1
 
 41
6.5E-001
  3
texte ind4
  2
texteind4
 70
0
  0
ATTDEF
  8
1
  6
CONTINUOUS
 62
1
 10
3.0951469E+002
 20
3.4807135E+001
 40
2.5
  1
 
 41
6.0E-001
 72
1
 11
3.0351469E+002
 21
3.4807135E+001
  3
date ind1
  2
dateind1
 70
0
  0
ATTDEF
  8
1
  6
CONTINUOUS
 62
1
 10
3.0951469E+002
 20
3.8807135E+001
 40
2.5
  1
 
 41
6.0E-001
 72
1
 11
3.0351469E+002
 21
3.8807135E+001
  3
date ind2
  2
dateind2
 70
0
  0
ATTDEF
  8
1
  6
CONTINUOUS
 62
1
 10
3.0951469E+002
 20
4.2807135E+001
 40
2.5
  1
 
 41
6.0E-001
 72
1
 11
3.0351469E+002
 21
4.2807135E+001
  3
date ind3
  2
dateind3
 70
0
  0
ATTDEF
  8
1
  6
CONTINUOUS
 62
1
 10
3.0951469E+002
 20
4.6807135E+001
 40
2.5
  1
 
 41
6.0E-001
 72
1
 11
3.0351469E+002
 21
4.6807135E+001
  3
date ind4
  2
dateind4
 70
0
  0
ATTDEF
  8
1
  6
CONTINUOUS
 62
1
 10
3.211645E+002
 20
3.4807135E+001
 40
2.5
  1
 
 41
6.0E-001
 72
1
 11
3.166645E+002
 21
3.4807135E+001
  3
OE ind1
  2
OEind1
 70
0
  0
ATTDEF
  8
1
  6
CONTINUOUS
 62
1
 10
3.211645E+002
 20
3.8807135E+001
 40
2.5
  1
 
 41
6.0E-001
 72
1
 11
3.166645E+002
 21
3.8807135E+001
  3
OE ind2
  2
OEind2
 70
0
  0
ATTDEF
  8
1
  6
CONTINUOUS
 62
1
 10
3.211645E+002
 20
4.2807135E+001
 40
2.5
  1
 
 41
6.0E-001
 72
1
 11
3.166645E+002
 21
4.2807135E+001
  3
OEind3
  2
OEind3
 70
0
  0
ATTDEF
  8
1
  6
CONTINUOUS
 62
1
 10
3.211645E+002
 20
4.6807135E+001
 40
2.5
  1
 
 41
6.0E-001
 72
1
 11
3.166645E+002
 21
4.6807135E+001
  3
OEind4
  2
OEind4
 70
0
  0
ATTDEF
  8
1
  6
CONTINUOUS
 62
1
 10
3.3529948E+002
 20
3.4807135E+001
 40
2.5
  1
 
 41
7.0E-001
 72
1
 11
3.2654948E+002
 21
3.4807135E+001
  3
ecrit_ind1
  2
ecrit_ind1
 70
0
  0
ATTDEF
  8
1
  6
CONTINUOUS
 62
1
 10
3.3529948E+002
 20
3.8807135E+001
 40
2.5
  1
 
 41
7.0E-001
 72
1
 11
3.2654948E+002
 21
3.8807135E+001
  3
ecrit_ind2
  2
ecrit_ind2
 70
0
  0
ATTDEF
  8
1
  6
CONTINUOUS
 62
1
 10
3.3529948E+002
 20
4.2807135E+001
 40
2.5
  1
 
 41
7.0E-001
 72
1
 11
3.2654948E+002
 21
4.2807135E+001
  3
ecrit_ind3
  2
ecrit_ind3
 70
0
  0
ATTDEF
  8
1
  6
CONTINUOUS
 62
1
 10
3.3529948E+002
 20
4.6807135E+001
 40
2.5
  1
 
 41
7.0E-001
 72
1
 11
3.2654948E+002
 21
4.6807135E+001
  3
ecrit_ind4
  2
ecrit_ind4
 70
0
  0
ATTDEF
  8
1
  6
CONTINUOUS
 62
1
 10
3.4525522E+002
 20
3.4807135E+001
 40
2.5
  1
 
 41
7.0E-001
 72
1
 11
3.3475522E+002
 21
3.4807135E+001
  3
control_ind1
  2
control_ind1
 70
0
  0
ATTDEF
  8
1
  6
CONTINUOUS
 62
1
 10
3.4525522E+002
 20
3.8807135E+001
 40
2.5
  1
 
 41
7.0E-001
 72
1
 11
3.3475522E+002
 21
3.8807135E+001
  3
control_ind2
  2
control_ind2
 70
0
  0
ATTDEF
  8
1
  6
CONTINUOUS
 62
1
 10
3.4525522E+002
 20
4.2807135E+001
 40
2.5
  1
 
 41
7.0E-001
 72
1
 11
3.3475522E+002
 21
4.2807135E+001
  3
control_ind3
  2
control_ind3
 70
0
  0
ATTDEF
  8
1
  6
CONTINUOUS
 62
1
 10
3.4525522E+002
 20
4.6807135E+001
 40
2.5
  1
 
 41
7.0E-001
 72
1
 11
3.3475522E+002
 21
4.6807135E+001
  3
control_ind4
  2
control_ind4
 70
0
  0
ATTDEF
  8
1
  6
CONTINUOUS
 62
40
 10
2.7116932E+002
 20
2.6446619E+002
 40
3.0
  1
 
 41
7.0E-001
 72
1
 11
2.6801932E+002
 21
2.6296619E+002
  3
Pos
  2
Pos
 70
0
 73
2
 74
2
  0
ATTDEF
  8
1
  6
CONTINUOUS
 62
40
 10
2.7500288E+002
 20
2.6421539E+002
 40
2.5
  1
 
 41
7.5E-001
  3
Texte-1
  2
Texte-1
 70
0
  0
ATTDEF
  8
1
  6
CONTINUOUS
 62
40
 10
3.3622572E+002
 20
2.6421539E+002
 40
2.5
  1
 
 41
7.5E-001
  3
Numero_ident-1
  2
Numero_ident-1
 70
0
  0
ATTDEF
  8
1
  6
CONTINUOUS
 62
40
 10
2.7489641E+002
 20
2.5928519E+002
 40
2.5
  1
 
 41
7.5E-001
  3
Texte-2
  2
Texte-2
 70
0
  0
ATTDEF
  8
1
  6
CONTINUOUS
 62
40
 10
3.3607672E+002
 20
2.5891932E+002
 40
2.5
  1
 
 41
7.5E-001
  3
Numero_ident-2
  2
Numero_ident-2
 70
0
  0
ATTDEF
  8
1
  6
CONTINUOUS
 62
40
 10
5.5410405E+001
 20
2.7117194E+002
 40
3.0
  1
 
 41
1.4
 72
1
 11
5.3310405E+001
 21
2.6967194E+002
  3
f
  2
f
 70
0
 73
2
 74
2
  0
ATTDEF
  8
1
  6
CONTINUOUS
 62
40
 10
6.4886971E+001
 20
2.7118863E+002
 40
3.0
  1
 
 41
1.4
 72
1
 11
6.2786971E+001
 21
2.6968863E+002
  3
m
  2
m
 70
0
 73
2
 74
2
  0
ATTDEF
  8
1
  6
CONTINUOUS
 62
40
 10
7.4380531E+001
 20
2.7118698E+002
 40
3.0
  1
 
 41
1.4
 72
1
 11
7.2280531E+001
 21
2.6968698E+002
  3
c
  2
c
 70
0
 73
2
 74
2
  0
ATTDEF
  8
1
  6
CONTINUOUS
 62
40
 10
8.3855731E+001
 20
2.7117858E+002
 40
3.0
  1
 
 41
1.4
 72
1
 11
8.1755731E+001
 21
2.6967858E+002
  3
v
  2
v
 70
0
 73
2
 74
2
  0
ATTDEF
  8
1
  6
CONTINUOUS
 62
40
 10
1.3471797E+002
 20
2.7195796E+002
 40
2.9
  1
 
 41
1.3
 72
1
 11
1.2906297E+002
 21
2.7050796E+002
  3
130
  2
130
 70
0
 73
2
 74
2
  0
ATTDEF
  8
1
  6
CONTINUOUS
 62
40
 10
1.4770684E+002
 20
2.7193317E+002
 40
2.9
  1
 
 41
1.3
 72
1
 11
1.4205184E+002
 21
2.7048317E+002
  3
140
  2
140
 70
0
 73
2
 74
2
  0
POINT
  8
1
  6
CONTINUOUS
 62
1
 10
3.965E+002
 20
2.78E+002
  0
POLYLINE
  8
1
  6
CONTINUOUS
 62
3
 66
1
 40
7.0E-001
 41
7.0E-001
 70
0
  0
VERTEX
  8
1
 42
0.0
 10
1.95E+001
 20
2.78E+002
 70
0
  0
VERTEX
  8
1
 42
0.0
 10
1.95E+001
 20
1.5E+001
 70
0
  0
SEQEND
  0
POLYLINE
  8
1
  6
CONTINUOUS
 62
3
 66
1
 40
7.0E-001
 41
7.0E-001
 70
0
  0
VERTEX
  8
1
 42
0.0
 10
1.95E+001
 20
1.5E+001
 70
0
  0
VERTEX
  8
1
 42
0.0
 10
3.965E+002
 20
1.5E+001
 70
0
  0
SEQEND
  0
POLYLINE
  8
1
  6
CONTINUOUS
 62
3
 66
1
 40
7.0E-001
 41
7.0E-001
 70
0
  0
VERTEX
  8
1
 42
0.0
 10
3.965E+002
 20
1.5E+001
 70
0
  0
VERTEX
  8
1
 42
0.0
 10
3.965E+002
 20
2.78E+002
 70
0
  0
SEQEND
  0
POLYLINE
  8
1
  6
CONTINUOUS
 62
3
 66
1
 40
7.0E-001
 41
7.0E-001
 70
0
  0
VERTEX
  8
1
 42
0.0
 10
3.965E+002
 20
2.78E+002
 70
0
  0
VERTEX
  8
1
 42
0.0
 10
1.95E+001
 20
2.78E+002
 70
0
  0
SEQEND
  0
LINE
  8
1
  6
CONTINUOUS
 62
40
 10
8.65E+001
 20
2.78E+002
 11
8.65E+001
 21
2.66E+002
  0
POLYLINE
  8
1
  6
CONTINUOUS
 62
3
 66
1
 40
7.0E-001
 41
7.0E-001
 70
0
  0
VERTEX
  8
1
 42
0.0
 10
1.535E+002
 20
2.66E+002
 70
0
  0
VERTEX
  8
1
 42
0.0
 10
1.535E+002
 20
2.78E+002
 70
0
  0
SEQEND
  0
POLYLINE
  8
1
  6
CONTINUOUS
 62
3
 66
1
 40
7.0E-001
 41
7.0E-001
 70
0
  0
VERTEX
  8
1
 42
0.0
 10
1.535E+002
 20
2.66E+002
 70
0
  0
VERTEX
  8
1
 42
0.0
 10
1.95E+001
 20
2.66E+002
 70
0
  0
SEQEND
  0
LINE
  8
1
  6
CONTINUOUS
 62
40
 10
6.119113E+001
 20
2.7118273E+002
 11
6.419113E+001
 21
2.7118273E+002
  0
LINE
  8
1
  6
CONTINUOUS
 62
40
 10
6.419113E+001
 20
2.7118273E+002
 11
6.419113E+001
 21
2.6818273E+002
  0
LINE
  8
1
  6
CONTINUOUS
 62
40
 10
6.119113E+001
 20
2.6818273E+002
 11
6.419113E+001
 21
2.6818273E+002
  0
LINE
  8
1
  6
CONTINUOUS
 62
40
 10
6.119113E+001
 20
2.7118273E+002
 11
6.119113E+001
 21
2.6818273E+002
  0
LINE
  8
1
  6
CONTINUOUS
 62
40
 10
5.171513E+001
 20
2.7118273E+002
 11
5.471513E+001
 21
2.7118273E+002
  0
LINE
  8
1
  6
CONTINUOUS
 62
40
 10
5.471513E+001
 20
2.7118273E+002
 11
5.471513E+001
 21
2.6818273E+002
  0
LINE
  8
1
  6
CONTINUOUS
 62
40
 10
5.171513E+001
 20
2.6818273E+002
 11
5.471513E+001
 21
2.6818273E+002
  0
LINE
  8
1
  6
CONTINUOUS
 62
40
 10
5.171513E+001
 20
2.7118273E+002
 11
5.171513E+001
 21
2.6818273E+002
  0
LINE
  8
1
  6
CONTINUOUS
 62
40
 10
1.275E+002
 20
2.69E+002
 11
1.305E+002
 21
2.69E+002
  0
LINE
  8
1
  6
CONTINUOUS
 62
40
 10
1.305E+002
 20
2.72E+002
 11
1.305E+002
 21
2.69E+002
  0
LINE
  8
1
  6
CONTINUOUS
 62
40
 10
1.275E+002
 20
2.72E+002
 11
1.305E+002
 21
2.72E+002
  0
LINE
  8
1
  6
CONTINUOUS
 62
40
 10
1.275E+002
 20
2.72E+002
 11
1.275E+002
 21
2.69E+002
  0
LINE
  8
1
  6
CONTINUOUS
 62
40
 10
1.405E+002
 20
2.69E+002
 11
1.435E+002
 21
2.69E+002
  0
LINE
  8
1
  6
CONTINUOUS
 62
40
 10
1.435E+002
 20
2.72E+002
 11
1.435E+002
 21
2.69E+002
  0
LINE
  8
1
  6
CONTINUOUS
 62
40
 10
1.405E+002
 20
2.72E+002
 11
1.435E+002
 21
2.72E+002
  0
TEXT
  8
1
  6
CONTINUOUS
 62
40
 10
3.1542442E+001
 20
2.7305173E+002
 40
2.5
  1
Tolerances generales selon ISO 2768
 41
5.0E-001
  0
TEXT
  8
1
  6
CONTINUOUS
 62
40
 10
2.2529304E+001
 20
2.6829203E+002
 40
2.5
  1
Degre de precision   f      m       c       v
 41
5.0E-001
  0
TEXT
  8
1
  6
CONTINUOUS
 62
40
 10
8.9794943E+001
 20
2.736093E+002
 40
2.5
  1
Tolerances generales sur pieces moulees selon
 41
5.0E-001
  0
TEXT
  8
1
  6
CONTINUOUS
 62
40
 10
8.9794943E+001
 20
2.691093E+002
 40
2.5
  1
Din 16901 (FPTC 407364)   130       140   
 41
5.0E-001
  0
LINE
  8
1
  6
CONTINUOUS
 62
40
 10
7.066713E+001
 20
2.6818273E+002
 11
7.366713E+001
 21
2.6818273E+002
  0
LINE
  8
1
  6
CONTINUOUS
 62
40
 10
1.405E+002
 20
2.72E+002
 11
1.405E+002
 21
2.69E+002
  0
LINE
  8
1
  6
CONTINUOUS
 62
40
 10
1.95E+001
 20
2.78E+002
 11
2.1E+001
 21
2.8167156E+002
  0
LINE
  8
1
  6
CONTINUOUS
 62
40
 10
2.1E+001
 20
2.8167156E+002
 11
2.25E+001
 21
2.78E+002
  0
LINE
  8
1
  6
CONTINUOUS
 62
40
 10
2.155E+002
 20
2.78E+002
 11
2.17E+002
 21
2.8167156E+002
  0
LINE
  8
1
  6
CONTINUOUS
 62
40
 10
2.17E+002
 20
2.8167156E+002
 11
2.185E+002
 21
2.78E+002
  0
LINE
  8
1
  6
CONTINUOUS
 62
40
 10
1.95E+001
 20
1.5E+001
 11
2.1E+001
 21
1.1328442E+001
  0
LINE
  8
1
  6
CONTINUOUS
 62
40
 10
2.1E+001
 20
1.1328442E+001
 11
2.25E+001
 21
1.5E+001
  0
LINE
  8
1
  6
CONTINUOUS
 62
40
 10
2.155E+002
 20
1.5E+001
 11
2.17E+002
 21
1.1328442E+001
  0
LINE
  8
1
  6
CONTINUOUS
 62
40
 10
2.17E+002
 20
1.1328442E+001
 11
2.185E+002
 21
1.5E+001
  0
LINE
  8
1
  6
CONTINUOUS
 62
40
 10
7.366713E+001
 20
2.7118273E+002
 11
7.366713E+001
 21
2.6818273E+002
  0
LINE
  8
1
  6
CONTINUOUS
 62
40
 10
7.066713E+001
 20
2.7118273E+002
 11
7.366713E+001
 21
2.7118273E+002
  0
LINE
  8
1
  6
CONTINUOUS
 62
40
 10
7.066713E+001
 20
2.7118273E+002
 11
7.066713E+001
 21
2.6818273E+002
  0
LINE
  8
1
  6
CONTINUOUS
 62
40
 10
8.014313E+001
 20
2.6818273E+002
 11
8.314313E+001
 21
2.6818273E+002
  0
LINE
  8
1
  6
CONTINUOUS
 62
40
 10
8.314313E+001
 20
2.7118273E+002
 11
8.314313E+001
 21
2.6818273E+002
  0
LINE
  8
1
  6
CONTINUOUS
 62
40
 10
8.014313E+001
 20
2.7118273E+002
 11
8.314313E+001
 21
2.7118273E+002
  0
LINE
  8
1
  6
CONTINUOUS
 62
40
 10
3.25E+001
 20
6.9E+001
 11
3.25E+001
 21
1.5E+001
  0
LINE
  8
1
  6
CONTINUOUS
 62
40
 10
1.95E+001
 20
6.9E+001
 11
3.25E+001
 21
6.9E+001
  0
LINE
  8
1
  6
CONTINUOUS
 62
40
 10
1.95E+001
 20
5.8833333E+001
 11
1.7E+001
 21
5.8833333E+001
  0
LINE
  8
1
  6
CONTINUOUS
 62
40
 10
1.95E+001
 20
1.0266667E+002
 11
1.7E+001
 21
1.0266667E+002
  0
LINE
  8
1
  6
CONTINUOUS
 62
40
 10
1.95E+001
 20
1.465E+002
 11
1.7E+001
 21
1.465E+002
  0
LINE
  8
1
  6
CONTINUOUS
 62
40
 10
1.95E+001
 20
1.9033333E+002
 11
1.7E+001
 21
1.9033333E+002
  0
LINE
  8
1
  6
CONTINUOUS
 62
40
 10
1.95E+001
 20
2.3416667E+002
 11
1.7E+001
 21
2.3416667E+002
  0
TEXT
  8
1
  6
CONTINUOUS
 62
40
 10
1.7E+001
 20
3.6916667E+001
 40
2.0
  1
A
  0
TEXT
  8
1
  6
CONTINUOUS
 62
40
 10
1.7E+001
 20
8.075E+001
 40
2.0
  1
B
  0
TEXT
  8
1
  6
CONTINUOUS
 62
40
 10
1.7E+001
 20
1.2458333E+002
 40
2.0
  1
C
  0
TEXT
  8
1
  6
CONTINUOUS
 62
40
 10
1.7E+001
 20
1.6841667E+002
 40
2.0
  1
D
  0
TEXT
  8
1
  6
CONTINUOUS
 62
40
 10
1.7E+001
 20
2.1225E+002
 40
2.0
  1
E
  0
TEXT
  8
1
  6
CONTINUOUS
 62
40
 10
1.7E+001
 20
2.5608333E+002
 40
2.0
  1
F
  0
TEXT
  8
1
  6
CONTINUOUS
 62
40
 10
3.9764933E+002
 20
3.6799778E+001
 40
2.0
  1
A
  0
LINE
  8
1
  6
CONTINUOUS
 62
40
 10
4.005E+002
 20
5.8833333E+001
 11
3.965E+002
 21
5.8833333E+001
  0
TEXT
  8
1
  6
CONTINUOUS
 62
40
 10
3.9764933E+002
 20
8.0633111E+001
 40
2.0
  1
B
  0
LINE
  8
1
  6
CONTINUOUS
 62
40
 10
4.005E+002
 20
1.0266667E+002
 11
3.965E+002
 21
1.0266667E+002
  0
TEXT
  8
1
  6
CONTINUOUS
 62
40
 10
3.9764933E+002
 20
1.2446644E+002
 40
2.0
  1
C
  0
LINE
  8
1
  6
CONTINUOUS
 62
40
 10
4.005E+002
 20
1.465E+002
 11
3.965E+002
 21
1.465E+002
  0
TEXT
  8
1
  6
CONTINUOUS
 62
40
 10
3.9764933E+002
 20
1.6829978E+002
 40
2.0
  1
D
  0
LINE
  8
1
  6
CONTINUOUS
 62
40
 10
4.005E+002
 20
1.9033333E+002
 11
3.965E+002
 21
1.9033333E+002
  0
TEXT
  8
1
  6
CONTINUOUS
 62
40
 10
3.9764933E+002
 20
2.1213311E+002
 40
2.0
  1
E
  0
LINE
  8
1
  6
CONTINUOUS
 62
40
 10
4.005E+002
 20
2.3416667E+002
 11
3.965E+002
 21
2.3416667E+002
  0
TEXT
  8
1
  6
CONTINUOUS
 62
40
 10
3.9814933E+002
 20
2.5596644E+002
 40
2.0
  1
F
  0
LINE
  8
1
  6
CONTINUOUS
 62
40
 10
3.47625E+002
 20
1.5E+001
 11
3.47625E+002
 21
1.0E+001
  0
LINE
  8
1
  6
CONTINUOUS
 62
40
 10
3.47625E+002
 20
2.78E+002
 11
3.47625E+002
 21
2.83E+002
  0
LINE
  8
1
  6
CONTINUOUS
 62
40
 10
2.9875E+002
 20
1.5E+001
 11
2.9875E+002
 21
1.0E+001
  0
LINE
  8
1
  6
CONTINUOUS
 62
40
 10
2.9875E+002
 20
2.78E+002
 11
2.9875E+002
 21
2.83E+002
  0
LINE
  8
1
  6
CONTINUOUS
 62
40
 10
2.49875E+002
 20
1.5E+001
 11
2.49875E+002
 21
1.0E+001
  0
LINE
  8
1
  6
CONTINUOUS
 62
40
 10
2.49875E+002
 20
2.78E+002
 11
2.49875E+002
 21
2.83E+002
  0
LINE
  8
1
  6
CONTINUOUS
 62
40
 10
2.01E+002
 20
1.5E+001
 11
2.01E+002
 21
1.0E+001
  0
LINE
  8
1
  6
CONTINUOUS
 62
40
 10
2.01E+002
 20
2.78E+002
 11
2.01E+002
 21
2.83E+002
  0
LINE
  8
1
  6
CONTINUOUS
 62
40
 10
1.53125E+002
 20
1.5E+001
 11
1.53125E+002
 21
1.0E+001
  0
LINE
  8
1
  6
CONTINUOUS
 62
40
 10
1.53125E+002
 20
2.78E+002
 11
1.53125E+002
 21
2.83E+002
  0
LINE
  8
1
  6
CONTINUOUS
 62
40
 10
1.0425E+002
 20
1.5E+001
 11
1.0425E+002
 21
1.0E+001
  0
LINE
  8
1
  6
CONTINUOUS
 62
40
 10
1.0425E+002
 20
2.78E+002
 11
1.0425E+002
 21
2.83E+002
  0
LINE
  8
1
  6
CONTINUOUS
 62
40
 10
5.5375E+001
 20
1.5E+001
 11
5.5375E+001
 21
1.0E+001
  0
LINE
  8
1
  6
CONTINUOUS
 62
40
 10
5.5375E+001
 20
2.78E+002
 11
5.5375E+001
 21
2.83E+002
  0
TEXT
  8
1
  6
CONTINUOUS
 62
40
 10
3.720625E+002
 20
1.1249993E+001
 40
2.0
  1
1
  0
TEXT
  8
1
  6
CONTINUOUS
 62
40
 10
3.231875E+002
 20
1.1249993E+001
 40
2.0
  1
2
  0
TEXT
  8
1
  6
CONTINUOUS
 62
40
 10
2.743125E+002
 20
1.1249993E+001
 40
2.0
  1
3
  0
TEXT
  8
1
  6
CONTINUOUS
 62
40
 10
2.254375E+002
 20
1.1249993E+001
 40
2.0
  1
4
  0
TEXT
  8
1
  6
CONTINUOUS
 62
40
 10
1.775625E+002
 20
1.1249993E+001
 40
2.0
  1
5
  0
TEXT
  8
1
  6
CONTINUOUS
 62
40
 10
1.286875E+002
 20
1.1249993E+001
 40
2.0
  1
6
  0
TEXT
  8
1
  6
CONTINUOUS
 62
40
 10
7.98125E+001
 20
1.1249993E+001
 40
2.0
  1
7
  0
TEXT
  8
1
  6
CONTINUOUS
 62
40
 10
3.09375E+001
 20
1.1249993E+001
 40
2.0
  1
8
  0
TEXT
  8
1
  6
CONTINUOUS
 62
40
 10
3.720625E+002
 20
2.7924999E+002
 40
2.0
  1
1
  0
TEXT
  8
1
  6
CONTINUOUS
 62
40
 10
3.231875E+002
 20
2.7924999E+002
 40
2.0
  1
2
  0
TEXT
  8
1
  6
CONTINUOUS
 62
40
 10
2.743125E+002
 20
2.7924999E+002
 40
2.0
  1
3
  0
TEXT
  8
1
  6
CONTINUOUS
 62
40
 10
2.254375E+002
 20
2.7924999E+002
 40
2.0
  1
4
  0
TEXT
  8
1
  6
CONTINUOUS
 62
40
 10
1.775625E+002
 20
2.7924999E+002
 40
2.0
  1
5
  0
TEXT
  8
1
  6
CONTINUOUS
 62
40
 10
1.286875E+002
 20
2.7924999E+002
 40
2.0
  1
6
  0
TEXT
  8
1
  6
CONTINUOUS
 62
40
 10
7.98125E+001
 20
2.7924999E+002
 40
2.0
  1
7
  0
TEXT
  8
1
  6
CONTINUOUS
 62
40
 10
3.09375E+001
 20
2.7924999E+002
 40
2.0
  1
8
  0
LINE
  8
1
  6
CONTINUOUS
 62
40
 10
8.014313E+001
 20
2.7118273E+002
 11
8.014313E+001
 21
2.6818273E+002
  0
TEXT
  8
1
  6
CONTINUOUS
 62
40
 10
2.2394545E+001
 20
1.7473426E+001
 40
2.0
  1
Ce document, propriete exclusive de notre
 41
6.0E-001
 50
9.0E+001
  0
TEXT
  8
1
  6
CONTINUOUS
 62
40
 10
2.5394545E+001
 20
1.7473426E+001
 40
2.0
  1
Societe, est strictement confidentiel. Il
 41
6.0E-001
 50
9.0E+001
  0
TEXT
  8
1
  6
CONTINUOUS
 62
40
 10
2.8394545E+001
 20
1.7473426E+001
 40
2.0
  1
ne peut etre communique, copie ou
 41
6.0E-001
 50
9.0E+001
  0
TEXT
  8
1
  6
CONTINUOUS
 62
40
 10
3.1394545E+001
 20
1.7473426E+001
 40
2.0
  1
reproduit sans son autorisation ecrite.
 41
6.0E-001
 50
9.0E+001
  0
POINT
  8
1
  6
CONTINUOUS
 62
1
 10
3.965E+002
 20
2.78E+002
  0
POINT
  8
1
  6
CONTINUOUS
 62
1
 10
3.965E+002
 20
2.78E+002
  0
POINT
  8
1
  6
CONTINUOUS
 62
1
 10
3.965E+002
 20
2.78E+002
  0
POINT
  8
1
  6
CONTINUOUS
 62
1
 10
3.965E+002
 20
2.78E+002
  0
LINE
  8
1
  6
CONTINUOUS
 62
40
 10
3.3059748E+002
 20
3.0E+001
 11
3.3059748E+002
 21
5.0E+001
  0
LINE
  8
1
  6
CONTINUOUS
 62
40
 10
3.1044797E+002
 20
3.0E+001
 11
3.1044797E+002
 21
5.0E+001
  0
LINE
  8
1
  6
CONTINUOUS
 62
40
 10
2.9674161E+002
 20
3.0E+001
 11
2.9674161E+002
 21
5.0E+001
  0
LINE
  8
1
  6
CONTINUOUS
 62
40
 10
2.2949846E+002
 20
3.0E+001
 11
2.2949846E+002
 21
5.0E+001
  0
TEXT
  8
1
  6
CONTINUOUS
 62
5
 10
2.2930514E+002
 20
3.0807135E+001
 40
2.5
  1
Ind.
 41
6.5E-001
 72
1
 11
2.2605514E+002
 21
3.0807135E+001
  0
TEXT
  8
1
  6
CONTINUOUS
 62
5
 10
2.312108E+002
 20
3.0807135E+001
 40
2.3
  1
DESCRIPTION
 41
6.5E-001
  0
TEXT
  8
1
  6
CONTINUOUS
 62
5
 10
3.0650469E+002
 20
3.0807135E+001
 40
2.3
  1
DATE
 41
6.5E-001
 72
1
 11
3.0351469E+002
 21
3.0807135E+001
  0
TEXT
  8
1
  6
CONTINUOUS
 62
5
 10
3.20977E+002
 20
3.0807135E+001
 40
2.3
  1
N%%d OE
 41
7.5E-001
 72
1
 11
3.166645E+002
 21
3.0807135E+001
  0
TEXT
  8
1
  6
CONTINUOUS
 62
5
 10
3.3017948E+002
 20
3.0807135E+001
 40
2.2
  1
Auteur
 41
5.5E-001
 72
1
 11
3.2654948E+002
 21
3.0807135E+001
  0
TEXT
  8
1
  6
CONTINUOUS
 62
5
 10
3.3861644E+002
 20
3.0807135E+001
 40
2.3
  1
control
 41
5.0E-001
 72
1
 11
3.3459144E+002
 21
3.0807135E+001
  0
LINE
  8
1
  6
CONTINUOUS
 62
40
 10
3.2269496E+002
 20
3.0E+001
 11
3.2269496E+002
 21
5.0E+001
  0
LINE
  8
1
  6
CONTINUOUS
 62
40
 10
2.3317785E+002
 20
2.306E+001
 11
2.3325338E+002
 21
2.3135529E+001
  0
LINE
  8
1
  6
CONTINUOUS
 62
40
 10
2.3292329E+002
 20
2.306E+001
 11
2.3407832E+002
 21
2.4215029E+001
  0
LINE
  8
1
  6
CONTINUOUS
 62
40
 10
2.3266873E+002
 20
2.306E+001
 11
2.3415514E+002
 21
2.4546407E+001
  0
LINE
  8
1
  6
CONTINUOUS
 62
40
 10
2.3241418E+002
 20
2.306E+001
 11
2.3416531E+002
 21
2.4811139E+001
  0
LINE
  8
1
  6
CONTINUOUS
 62
40
 10
2.465E+002
 20
1.5E+001
 11
2.465E+002
 21
3.0E+001
  0
POLYLINE
  8
1
  6
CONTINUOUS
 62
3
 66
1
 40
7.0E-001
 41
7.0E-001
 70
0
  0
VERTEX
  8
1
 42
0.0
 10
3.385E+002
 20
1.5E+001
 70
0
  0
VERTEX
  8
1
 42
0.0
 10
3.385E+002
 20
5.0E+001
 70
0
  0
SEQEND
  0
POLYLINE
  8
1
  6
CONTINUOUS
 62
3
 66
1
 40
7.0E-001
 41
7.0E-001
 70
0
  0
VERTEX
  8
1
 42
0.0
 10
2.165E+002
 20
5.0E+001
 70
0
  0
VERTEX
  8
1
 42
0.0
 10
3.965E+002
 20
5.0E+001
 70
0
  0
SEQEND
  0
POLYLINE
  8
1
  6
CONTINUOUS
 62
3
 66
1
 40
7.0E-001
 41
7.0E-001
 70
0
  0
VERTEX
  8
1
 42
0.0
 10
2.225E+002
 20
3.0E+001
 70
0
  0
VERTEX
  8
1
 42
0.0
 10
2.225E+002
 20
5.0E+001
 70
0
  0
SEQEND
  0
TEXT
  8
1
  6
CONTINUOUS
 62
40
 10
3.4070979E+002
 20
3.8985167E+001
 40
2.0
  1
Etabli
 41
5.0E-001
  0
TEXT
  8
1
  6
CONTINUOUS
 62
40
 10
3.4057168E+002
 20
4.2991905E+001
 40
2.0
  1
Controle
 41
5.0E-001
  0
POLYLINE
  8
1
  6
CONTINUOUS
 62
3
 66
1
 40
7.0E-001
 41
7.0E-001
 70
0
  0
VERTEX
  8
1
 42
0.0
 10
3.5226341E+002
 20
3.8E+001
 70
0
  0
VERTEX
  8
1
 42
0.0
 10
3.5226341E+002
 20
4.9976829E+001
 70
0
  0
SEQEND
  0
POLYLINE
  8
1
  6
CONTINUOUS
 62
3
 66
1
 40
7.0E-001
 41
7.0E-001
 70
0
  0
VERTEX
  8
1
 42
0.0
 10
3.385E+002
 20
2.3E+001
 70
0
  0
VERTEX
  8
1
 42
0.0
 10
3.965E+002
 20
2.3E+001
 70
0
  0
SEQEND
  0
POLYLINE
  8
1
  6
CONTINUOUS
 62
3
 66
1
 40
7.0E-001
 41
7.0E-001
 70
0
  0
VERTEX
  8
1
 42
0.0
 10
2.165E+002
 20
3.0E+001
 70
0
  0
VERTEX
  8
1
 42
0.0
 10
3.385E+002
 20
3.0E+001
 70
0
  0
SEQEND
  0
POLYLINE
  8
1
  6
CONTINUOUS
 62
3
 66
1
 40
7.0E-001
 41
7.0E-001
 70
0
  0
VERTEX
  8
1
 42
0.0
 10
2.465E+002
 20
2.55E+001
 70
0
  0
VERTEX
  8
1
 42
0.0
 10
3.385E+002
 20
2.55E+001
 70
0
  0
SEQEND
  0
LINE
  8
1
  6
CONTINUOUS
 62
40
 10
2.225E+002
 20
3.4E+001
 11
3.385E+002
 21
3.4E+001
  0
POLYLINE
  8
1
  6
CONTINUOUS
 62
3
 66
1
 40
7.0E-001
 41
7.0E-001
 70
0
  0
VERTEX
  8
1
 42
0.0
 10
3.5906281E+002
 20
3.4E+001
 70
0
  0
VERTEX
  8
1
 42
0.0
 10
3.965E+002
 20
3.4E+001
 70
0
  0
SEQEND
  0
LINE
  8
1
  6
CONTINUOUS
 62
40
 10
2.225E+002
 20
3.8E+001
 11
3.385E+002
 21
3.8E+001
  0
LINE
  8
1
  6
CONTINUOUS
 62
40
 10
2.225E+002
 20
4.2E+001
 11
3.965E+002
 21
4.2E+001
  0
LINE
  8
1
  6
CONTINUOUS
 62
40
 10
2.225E+002
 20
4.6E+001
 11
3.965E+002
 21
4.6E+001
  0
TEXT
  8
1
  6
CONTINUOUS
 62
40
 10
3.5981161E+002
 20
3.5E+001
 40
2.0
  1
Issu de/Remplace
 41
5.0E-001
  0
TEXT
  8
1
  6
CONTINUOUS
 62
40
 10
3.4545827E+002
 20
3.490498E+001
 40
2.0
  1
Echelle
 41
5.0E-001
  0
LINE
  8
1
  6
CONTINUOUS
 62
40
 10
2.322869E+002
 20
2.3187279E+001
 11
2.341387E+002
 21
2.5039078E+001
  0
LINE
  8
1
  6
CONTINUOUS
 62
40
 10
2.322869E+002
 20
2.3441838E+001
 11
2.3408634E+002
 21
2.5241283E+001
  0
LINE
  8
1
  6
CONTINUOUS
 62
40
 10
2.322869E+002
 20
2.3696396E+001
 11
2.340137E+002
 21
2.5423199E+001
  0
LINE
  8
1
  6
CONTINUOUS
 62
40
 10
2.322869E+002
 20
2.3950955E+001
 11
2.3392379E+002
 21
2.5587847E+001
  0
LINE
  8
1
  6
CONTINUOUS
 62
40
 10
2.322869E+002
 20
2.4205513E+001
 11
2.3381833E+002
 21
2.5736949E+001
  0
LINE
  8
1
  6
CONTINUOUS
 62
40
 10
2.322869E+002
 20
2.4460071E+001
 11
2.3369823E+002
 21
2.5871407E+001
  0
LINE
  8
1
  6
CONTINUOUS
 62
40
 10
2.322869E+002
 20
2.471463E+001
 11
2.3356377E+002
 21
2.5991499E+001
  0
LINE
  8
1
  6
CONTINUOUS
 62
40
 10
2.322869E+002
 20
2.4969188E+001
 11
2.3341465E+002
 21
2.6096947E+001
  0
LINE
  8
1
  6
CONTINUOUS
 62
40
 10
2.322869E+002
 20
2.5223747E+001
 11
2.3325E+002
 21
2.6186849E+001
  0
LINE
  8
1
  6
CONTINUOUS
 62
40
 10
2.322869E+002
 20
2.5478305E+001
 11
2.3306807E+002
 21
2.6259481E+001
  0
LINE
  8
1
  6
CONTINUOUS
 62
40
 10
2.322869E+002
 20
2.5732864E+001
 11
2.3286585E+002
 21
2.6311822E+001
  0
LINE
  8
1
  6
CONTINUOUS
 62
40
 10
2.322869E+002
 20
2.5987422E+001
 11
2.326379E+002
 21
2.6338424E+001
  0
LINE
  8
1
  6
CONTINUOUS
 62
40
 10
2.322869E+002
 20
2.6241981E+001
 11
2.3238492E+002
 21
2.634E+001
  0
LINE
  8
1
  6
CONTINUOUS
 62
40
 10
2.339543E+002
 20
1.9232628E+001
 11
2.3427427E+002
 21
1.9552599E+001
  0
LINE
  8
1
  6
CONTINUOUS
 62
40
 10
2.3335195E+002
 20
1.8884837E+001
 11
2.3462206E+002
 21
2.0154949E+001
  0
LINE
  8
1
  6
CONTINUOUS
 62
40
 10
2.3299451E+002
 20
1.8781958E+001
 11
2.3472494E+002
 21
2.0512386E+001
  0
LINE
  8
1
  6
CONTINUOUS
 62
40
 10
2.3270216E+002
 20
1.8744162E+001
 11
2.3476273E+002
 21
2.0804741E+001
  0
LINE
  8
1
  6
CONTINUOUS
 62
40
 10
2.3244343E+002
 20
1.874E+001
 11
2.3476361E+002
 21
2.1060176E+001
  0
LINE
  8
1
  6
CONTINUOUS
 62
40
 10
2.322869E+002
 20
1.8838019E+001
 11
2.3473888E+002
 21
2.129E+001
  0
LINE
  8
1
  6
CONTINUOUS
 62
40
 10
2.322869E+002
 20
1.9092578E+001
 11
2.3469441E+002
 21
2.1500088E+001
  0
LINE
  8
1
  6
CONTINUOUS
 62
40
 10
2.322869E+002
 20
1.9347136E+001
 11
2.3463368E+002
 21
2.1693922E+001
  0
LINE
  8
1
  6
CONTINUOUS
 62
40
 10
2.322869E+002
 20
1.9601695E+001
 11
2.3455892E+002
 21
2.187372E+001
  0
LINE
  8
1
  6
CONTINUOUS
 62
40
 10
2.322869E+002
 20
1.9856253E+001
 11
2.3445064E+002
 21
2.202E+001
  0
LINE
  8
1
  6
CONTINUOUS
 62
40
 10
2.322869E+002
 20
2.0110812E+001
 11
2.3419608E+002
 21
2.202E+001
  0
LINE
  8
1
  6
CONTINUOUS
 62
40
 10
2.322869E+002
 20
2.036537E+001
 11
2.3394153E+002
 21
2.202E+001
  0
LINE
  8
1
  6
CONTINUOUS
 62
40
 10
2.322869E+002
 20
2.0619929E+001
 11
2.3368697E+002
 21
2.202E+001
  0
LINE
  8
1
  6
CONTINUOUS
 62
40
 10
2.322869E+002
 20
2.0874487E+001
 11
2.3343241E+002
 21
2.202E+001
  0
LINE
  8
1
  6
CONTINUOUS
 62
40
 10
2.322869E+002
 20
2.1129045E+001
 11
2.3317785E+002
 21
2.202E+001
  0
LINE
  8
1
  6
CONTINUOUS
 62
40
 10
2.322869E+002
 20
2.1383604E+001
 11
2.3292329E+002
 21
2.202E+001
  0
LINE
  8
1
  6
CONTINUOUS
 62
40
 10
2.322869E+002
 20
2.1638162E+001
 11
2.3266873E+002
 21
2.202E+001
  0
LINE
  8
1
  6
CONTINUOUS
 62
40
 10
2.322869E+002
 20
2.1892721E+001
 11
2.3241418E+002
 21
2.202E+001
  0
LINE
  8
1
  6
CONTINUOUS
 62
40
 10
2.4007384E+002
 20
1.9141429E+001
 11
2.4060547E+002
 21
1.9673058E+001
  0
LINE
  8
1
  6
CONTINUOUS
 62
40
 10
2.3954556E+002
 20
1.8867714E+001
 11
2.4087918E+002
 21
2.0201331E+001
  0
TEXT
  8
1
  6
CONTINUOUS
 62
40
 10
3.1417222E+002
 20
2.6933958E+001
 40
2.0
  1
Service responsable: B E
 41
4.5E-001
  0
TEXT
  8
1
  6
CONTINUOUS
 62
5
 10
2.2012086E+002
 20
3.7026996E+001
 40
2.0
  1
Modif.
 41
7.0E-001
 50
9.0E+001
  0
TEXT
  8
1
  6
CONTINUOUS
 62
5
 10
2.48E+002
 20
2.65E+001
 40
2.5
  1
ABB ENTRELEC Division Control
 41
7.0E-001
  0
TEXT
  8
1
  6
CONTINUOUS
 62
40
 10
2.4808745E+002
 20
2.2636846E+001
 40
2.0
  1
Titre
 41
7.5E-001
  0
POLYLINE
  8
1
  6
CONTINUOUS
 62
3
 66
1
 40
7.0E-001
 41
7.0E-001
 70
0
  0
VERTEX
  8
1
 42
0.0
 10
3.7349613E+002
 20
2.3E+001
 70
0
  0
VERTEX
  8
1
 42
0.0
 10
3.7349613E+002
 20
3.0E+001
 70
0
  0
SEQEND
  0
POLYLINE
  8
1
  6
CONTINUOUS
 62
3
 66
1
 40
7.0E-001
 41
7.0E-001
 70
0
  0
VERTEX
  8
1
 42
0.0
 10
3.8449613E+002
 20
2.3E+001
 70
0
  0
VERTEX
  8
1
 42
0.0
 10
3.8449613E+002
 20
3.0E+001
 70
0
  0
SEQEND
  0
LINE
  8
1
  6
CONTINUOUS
 62
40
 10
2.3919841E+002
 20
1.8775117E+001
 11
2.4097178E+002
 21
2.0548487E+001
  0
TEXT
  8
1
  6
CONTINUOUS
 62
40
 10
3.6361996E+002
 20
2.7301631E+001
 40
2.0
  1
Format
 41
5.5E-001
  0
TEXT
  8
1
  6
CONTINUOUS
 62
40
 10
3.645625E+002
 20
2.3448853E+001
 40
3.0
  1
A3
 41
7.5E-001
  0
LINE
  8
1
  6
CONTINUOUS
 62
40
 10
2.3891121E+002
 20
1.8742474E+001
 11
2.4100442E+002
 21
2.0835688E+001
  0
LINE
  8
1
  6
CONTINUOUS
 62
40
 10
2.3865418E+002
 20
1.874E+001
 11
2.4100193E+002
 21
2.1087754E+001
  0
LINE
  8
1
  6
CONTINUOUS
 62
40
 10
2.385269E+002
 20
1.8867279E+001
 11
2.4097469E+002
 21
2.1315071E+001
  0
LINE
  8
1
  6
CONTINUOUS
 62
40
 10
2.385269E+002
 20
1.9121838E+001
 11
2.409282E+002
 21
2.1523144E+001
  0
LINE
  8
1
  6
CONTINUOUS
 62
40
 10
2.385269E+002
 20
1.9376396E+001
 11
2.4086577E+002
 21
2.1715269E+001
  0
LINE
  8
1
  6
CONTINUOUS
 62
40
 10
2.385269E+002
 20
1.9630955E+001
 11
2.407895E+002
 21
2.189356E+001
  0
LINE
  8
1
  6
CONTINUOUS
 62
40
 10
2.385269E+002
 20
1.9885513E+001
 11
2.4066138E+002
 21
2.202E+001
  0
LINE
  8
1
  6
CONTINUOUS
 62
40
 10
2.385269E+002
 20
2.0140071E+001
 11
2.4040682E+002
 21
2.202E+001
  0
LINE
  8
1
  6
CONTINUOUS
 62
40
 10
2.385269E+002
 20
2.039463E+001
 11
2.4015227E+002
 21
2.202E+001
  0
LINE
  8
1
  6
CONTINUOUS
 62
40
 10
2.385269E+002
 20
2.0649188E+001
 11
2.3989771E+002
 21
2.202E+001
  0
LINE
  8
1
  6
CONTINUOUS
 62
40
 10
2.385269E+002
 20
2.0903747E+001
 11
2.3964315E+002
 21
2.202E+001
  0
LINE
  8
1
  6
CONTINUOUS
 62
40
 10
2.385269E+002
 20
2.1158305E+001
 11
2.3938859E+002
 21
2.202E+001
  0
LINE
  8
1
  6
CONTINUOUS
 62
40
 10
2.385269E+002
 20
2.1412864E+001
 11
2.3913403E+002
 21
2.202E+001
  0
LINE
  8
1
  6
CONTINUOUS
 62
40
 10
2.385269E+002
 20
2.1667422E+001
 11
2.3887947E+002
 21
2.202E+001
  0
LINE
  8
1
  6
CONTINUOUS
 62
40
 10
2.385269E+002
 20
2.1921981E+001
 11
2.3862492E+002
 21
2.202E+001
  0
LINE
  8
1
  6
CONTINUOUS
 62
40
 10
2.3944711E+002
 20
2.306E+001
 11
2.3949917E+002
 21
2.3112056E+001
  0
LINE
  8
1
  6
CONTINUOUS
 62
40
 10
2.3919255E+002
 20
2.306E+001
 11
2.4030153E+002
 21
2.416898E+001
  0
LINE
  8
1
  6
CONTINUOUS
 62
40
 10
2.3893799E+002
 20
2.306E+001
 11
2.4039066E+002
 21
2.4512671E+001
  0
LINE
  8
1
  6
CONTINUOUS
 62
40
 10
2.3868343E+002
 20
2.306E+001
 11
2.4040632E+002
 21
2.4782886E+001
  0
LINE
  8
1
  6
CONTINUOUS
 62
40
 10
2.385269E+002
 20
2.3158019E+001
 11
2.403832E+002
 21
2.5014327E+001
  0
LINE
  8
1
  6
CONTINUOUS
 62
40
 10
2.385269E+002
 20
2.3412578E+001
 11
2.4033347E+002
 21
2.5219148E+001
  0
LINE
  8
1
  6
CONTINUOUS
 62
40
 10
2.385269E+002
 20
2.3667136E+001
 11
2.4026297E+002
 21
2.540321E+001
  0
LINE
  8
1
  6
CONTINUOUS
 62
40
 10
2.385269E+002
 20
2.3921695E+001
 11
2.4017494E+002
 21
2.5569736E+001
  0
LINE
  8
1
  6
CONTINUOUS
 62
40
 10
2.385269E+002
 20
2.4176253E+001
 11
2.4007121E+002
 21
2.5720567E+001
  0
LINE
  8
1
  6
CONTINUOUS
 62
40
 10
2.385269E+002
 20
2.4430812E+001
 11
2.3995277E+002
 21
2.5856683E+001
  0
LINE
  8
1
  6
CONTINUOUS
 62
40
 10
2.385269E+002
 20
2.468537E+001
 11
2.3981996E+002
 21
2.597843E+001
  0
LINE
  8
1
  6
CONTINUOUS
 62
40
 10
2.293669E+002
 20
2.654E+001
 11
2.314469E+002
 21
2.654E+001
  0
LINE
  8
1
  6
CONTINUOUS
 62
40
 10
2.385269E+002
 20
2.4939929E+001
 11
2.3967256E+002
 21
2.6085594E+001
  0
LINE
  8
1
  6
CONTINUOUS
 62
40
 10
2.293669E+002
 20
1.854E+001
 11
2.314469E+002
 21
1.854E+001
  0
LINE
  8
1
  6
CONTINUOUS
 62
40
 10
2.385269E+002
 20
2.5194487E+001
 11
2.3950976E+002
 21
2.6177352E+001
  0
LINE
  8
1
  6
CONTINUOUS
 62
40
 10
2.385269E+002
 20
2.5449045E+001
 11
2.3932994E+002
 21
2.6252092E+001
  0
LINE
  8
1
  6
CONTINUOUS
 62
40
 10
2.385269E+002
 20
2.5703604E+001
 11
2.3913027E+002
 21
2.630698E+001
  0
LINE
  8
1
  6
CONTINUOUS
 62
40
 10
2.293669E+002
 20
2.654E+001
 11
2.293669E+002
 21
2.286E+001
  0
LINE
  8
1
  6
CONTINUOUS
 62
40
 10
2.385269E+002
 20
2.5958162E+001
 11
2.3890568E+002
 21
2.6336948E+001
  0
LINE
  8
1
  6
CONTINUOUS
 62
40
 10
2.385269E+002
 20
2.6212721E+001
 11
2.3865418E+002
 21
2.634E+001
  0
LINE
  8
1
  6
CONTINUOUS
 62
40
 10
2.236069E+002
 20
2.654E+001
 11
2.244869E+002
 21
2.654E+001
  0
LINE
  8
1
  6
CONTINUOUS
 62
40
 10
2.208069E+002
 20
1.854E+001
 11
2.228069E+002
 21
1.854E+001
  0
LINE
  8
1
  6
CONTINUOUS
 62
40
 10
2.268069E+002
 20
1.854E+001
 11
2.288069E+002
 21
1.854E+001
  0
LINE
  8
1
  6
CONTINUOUS
 62
40
 10
2.208069E+002
 20
1.854E+001
 11
2.220949E+002
 21
2.222E+001
  0
LINE
  8
1
  6
CONTINUOUS
 62
40
 10
2.288069E+002
 20
1.854E+001
 11
2.275189E+002
 21
2.222E+001
  0
LINE
  8
1
  6
CONTINUOUS
 62
40
 10
2.228069E+002
 20
1.854E+001
 11
2.233669E+002
 21
2.014E+001
  0
LINE
  8
1
  6
CONTINUOUS
 62
40
 10
2.268069E+002
 20
1.854E+001
 11
2.262469E+002
 21
2.014E+001
  0
LINE
  8
1
  6
CONTINUOUS
 62
40
 10
2.262469E+002
 20
2.014E+001
 11
2.251269E+002
 21
2.014E+001
  0
LINE
  8
1
  6
CONTINUOUS
 62
40
 10
2.275189E+002
 20
2.222E+001
 11
2.251269E+002
 21
2.222E+001
  0
LINE
  8
1
  6
CONTINUOUS
 62
40
 10
2.272949E+002
 20
2.286E+001
 11
2.251269E+002
 21
2.286E+001
  0
LINE
  8
1
  6
CONTINUOUS
 62
40
 10
2.244869E+002
 20
2.654E+001
 11
2.244869E+002
 21
2.286E+001
  0
LINE
  8
1
  6
CONTINUOUS
 62
40
 10
2.251269E+002
 20
2.654E+001
 11
2.251269E+002
 21
2.286E+001
  0
LINE
  8
1
  6
CONTINUOUS
 62
40
 10
2.244869E+002
 20
2.286E+001
 11
2.223189E+002
 21
2.286E+001
  0
LINE
  8
1
  6
CONTINUOUS
 62
40
 10
2.244869E+002
 20
2.222E+001
 11
2.220949E+002
 21
2.222E+001
  0
LINE
  8
1
  6
CONTINUOUS
 62
40
 10
2.251269E+002
 20
2.222E+001
 11
2.251269E+002
 21
2.014E+001
  0
LINE
  8
1
  6
CONTINUOUS
 62
40
 10
2.244869E+002
 20
2.222E+001
 11
2.244869E+002
 21
2.014E+001
  0
LINE
  8
1
  6
CONTINUOUS
 62
40
 10
2.272949E+002
 20
2.286E+001
 11
2.260069E+002
 21
2.654E+001
  0
LINE
  8
1
  6
CONTINUOUS
 62
40
 10
2.223189E+002
 20
2.286E+001
 11
2.236069E+002
 21
2.654E+001
  0
LINE
  8
1
  6
CONTINUOUS
 62
40
 10
2.251269E+002
 20
2.654E+001
 11
2.260069E+002
 21
2.654E+001
  0
LINE
  8
1
  6
CONTINUOUS
 62
40
 10
2.244869E+002
 20
2.014E+001
 11
2.233669E+002
 21
2.014E+001
  0
ARC
  8
1
  6
CONTINUOUS
 62
40
 10
2.325669E+002
 20
2.474E+001
 40
1.8
 50
2.9938468E+002
 51
4.5E+002
  0
ARC
  8
1
  6
CONTINUOUS
 62
40
 10
2.325669E+002
 20
2.094E+001
 40
2.4
 50
2.7E+002
 51
3.9223095E+002
  0
LINE
  8
1
  6
CONTINUOUS
 62
40
 10
2.293669E+002
 20
2.286E+001
 11
2.314469E+002
 21
2.286E+001
  0
LINE
  8
1
  6
CONTINUOUS
 62
40
 10
2.293669E+002
 20
2.222E+001
 11
2.314469E+002
 21
2.222E+001
  0
LINE
  8
1
  6
CONTINUOUS
 62
40
 10
2.320869E+002
 20
2.654E+001
 11
2.320869E+002
 21
2.286E+001
  0
LINE
  8
1
  6
CONTINUOUS
 62
40
 10
2.314469E+002
 20
2.654E+001
 11
2.314469E+002
 21
2.286E+001
  0
ARC
  8
1
  6
CONTINUOUS
 62
40
 10
2.325669E+002
 20
2.094E+001
 40
2.4
 50
5.3130102E+001
 51
6.8407484E+001
  0
LINE
  8
1
  6
CONTINUOUS
 62
40
 10
2.320869E+002
 20
2.654E+001
 11
2.325669E+002
 21
2.654E+001
  0
LINE
  8
1
  6
CONTINUOUS
 62
40
 10
2.320869E+002
 20
1.854E+001
 11
2.325669E+002
 21
1.854E+001
  0
LINE
  8
1
  6
CONTINUOUS
 62
40
 10
2.320869E+002
 20
2.222E+001
 11
2.320869E+002
 21
1.854E+001
  0
LINE
  8
1
  6
CONTINUOUS
 62
40
 10
2.314469E+002
 20
2.222E+001
 11
2.314469E+002
 21
1.854E+001
  0
LINE
  8
1
  6
CONTINUOUS
 62
40
 10
2.320869E+002
 20
2.286E+001
 11
2.340069E+002
 21
2.286E+001
  0
LINE
  8
1
  6
CONTINUOUS
 62
40
 10
2.320869E+002
 20
2.222E+001
 11
2.3459707E+002
 21
2.222E+001
  0
LINE
  8
1
  6
CONTINUOUS
 62
40
 10
2.293669E+002
 20
2.222E+001
 11
2.293669E+002
 21
1.854E+001
  0
LINE
  8
1
  6
CONTINUOUS
 62
40
 10
2.356069E+002
 20
1.854E+001
 11
2.376869E+002
 21
1.854E+001
  0
LINE
  8
1
  6
CONTINUOUS
 62
40
 10
2.376869E+002
 20
2.222E+001
 11
2.376869E+002
 21
1.854E+001
  0
LINE
  8
1
  6
CONTINUOUS
 62
40
 10
2.356069E+002
 20
2.222E+001
 11
2.376869E+002
 21
2.222E+001
  0
LINE
  8
1
  6
CONTINUOUS
 62
40
 10
2.356069E+002
 20
2.222E+001
 11
2.356069E+002
 21
1.854E+001
  0
LINE
  8
1
  6
CONTINUOUS
 62
40
 10
2.383269E+002
 20
1.854E+001
 11
2.388069E+002
 21
1.854E+001
  0
ARC
  8
1
  6
CONTINUOUS
 62
40
 10
2.388069E+002
 20
2.094E+001
 40
2.4
 50
2.7E+002
 51
3.9223095E+002
  0
LINE
  8
1
  6
CONTINUOUS
 62
40
 10
2.383269E+002
 20
2.222E+001
 11
2.4083707E+002
 21
2.222E+001
  0
LINE
  8
1
  6
CONTINUOUS
 62
40
 10
2.383269E+002
 20
2.222E+001
 11
2.383269E+002
 21
1.854E+001
  0
LINE
  8
1
  6
CONTINUOUS
 62
40
 10
2.383269E+002
 20
2.654E+001
 11
2.383269E+002
 21
2.286E+001
  0
LINE
  8
1
  6
CONTINUOUS
 62
40
 10
2.383269E+002
 20
2.654E+001
 11
2.388069E+002
 21
2.654E+001
  0
ARC
  8
1
  6
CONTINUOUS
 62
40
 10
2.388069E+002
 20
2.474E+001
 40
1.8
 50
2.9938468E+002
 51
4.5E+002
  0
ARC
  8
1
  6
CONTINUOUS
 62
40
 10
2.388069E+002
 20
2.094E+001
 40
2.4
 50
5.3130102E+001
 51
6.8407484E+001
  0
LINE
  8
1
  6
CONTINUOUS
 62
40
 10
2.383269E+002
 20
2.286E+001
 11
2.402469E+002
 21
2.286E+001
  0
LINE
  8
1
  6
CONTINUOUS
 62
40
 10
2.356069E+002
 20
2.286E+001
 11
2.376869E+002
 21
2.286E+001
  0
LINE
  8
1
  6
CONTINUOUS
 62
40
 10
2.376869E+002
 20
2.654E+001
 11
2.376869E+002
 21
2.286E+001
  0
LINE
  8
1
  6
CONTINUOUS
 62
40
 10
2.356069E+002
 20
2.654E+001
 11
2.376869E+002
 21
2.654E+001
  0
LINE
  8
1
  6
CONTINUOUS
 62
40
 10
2.356069E+002
 20
2.654E+001
 11
2.356069E+002
 21
2.286E+001
  0
LINE
  8
1
  6
CONTINUOUS
 62
40
 10
3.965E+002
 20
1.8E+001
 11
4.015E+002
 21
1.8E+001
  0
LINE
  8
1
  6
CONTINUOUS
 62
40
 10
2.322869E+002
 20
2.306E+001
 11
2.3328412E+002
 21
2.306E+001
  0
ARC
  8
1
  6
CONTINUOUS
 62
40
 10
2.334501E+002
 20
2.3171579E+001
 40
2.0E-001
 50
1.1938468E+002
 51
2.1391033E+002
  0
ARC
  8
1
  6
CONTINUOUS
 62
40
 10
2.325669E+002
 20
2.474E+001
 40
1.6
 50
2.9938468E+002
 51
4.5E+002
  0
LINE
  8
1
  6
CONTINUOUS
 62
40
 10
2.325669E+002
 20
2.634E+001
 11
2.322869E+002
 21
2.634E+001
  0
LINE
  8
1
  6
CONTINUOUS
 62
40
 10
2.322869E+002
 20
2.634E+001
 11
2.322869E+002
 21
2.306E+001
  0
LINE
  8
1
  6
CONTINUOUS
 62
40
 10
2.322869E+002
 20
2.202E+001
 11
2.322869E+002
 21
1.874E+001
  0
LINE
  8
1
  6
CONTINUOUS
 62
40
 10
2.322869E+002
 20
1.874E+001
 11
2.325669E+002
 21
1.874E+001
  0
ARC
  8
1
  6
CONTINUOUS
 62
40
 10
2.325669E+002
 20
2.094E+001
 40
2.2
 50
2.7E+002
 51
3.8940035E+002
  0
LINE
  8
1
  6
CONTINUOUS
 62
40
 10
2.3448356E+002
 20
2.202E+001
 11
2.322869E+002
 21
2.202E+001
  0
LINE
  8
1
  6
CONTINUOUS
 62
40
 10
2.385269E+002
 20
2.634E+001
 11
2.385269E+002
 21
2.306E+001
  0
LINE
  8
1
  6
CONTINUOUS
 62
40
 10
2.385269E+002
 20
2.306E+001
 11
2.3952412E+002
 21
2.306E+001
  0
ARC
  8
1
  6
CONTINUOUS
 62
40
 10
2.396901E+002
 20
2.3171579E+001
 40
2.0E-001
 50
1.1938468E+002
 51
2.1391033E+002
  0
ARC
  8
1
  6
CONTINUOUS
 62
40
 10
2.388069E+002
 20
2.474E+001
 40
1.6
 50
2.9938468E+002
 51
4.5E+002
  0
LINE
  8
1
  6
CONTINUOUS
 62
40
 10
2.388069E+002
 20
2.634E+001
 11
2.385269E+002
 21
2.634E+001
  0
LINE
  8
1
  6
CONTINUOUS
 62
40
 10
2.385269E+002
 20
2.202E+001
 11
2.4072356E+002
 21
2.202E+001
  0
ARC
  8
1
  6
CONTINUOUS
 62
40
 10
2.388069E+002
 20
2.094E+001
 40
2.2
 50
2.7E+002
 51
3.8940035E+002
  0
LINE
  8
1
  6
CONTINUOUS
 62
40
 10
2.388069E+002
 20
1.874E+001
 11
2.385269E+002
 21
1.874E+001
  0
LINE
  8
1
  6
CONTINUOUS
 62
40
 10
2.385269E+002
 20
1.874E+001
 11
2.385269E+002
 21
2.202E+001
  0
LINE
  8
1
  6
CONTINUOUS
 62
40
 10
2.243069E+002
 20
2.636E+001
 11
2.243069E+002
 21
2.304E+001
  0
LINE
  8
1
  6
CONTINUOUS
 62
40
 10
2.243069E+002
 20
2.304E+001
 11
2.225726E+002
 21
2.304E+001
  0
LINE
  8
1
  6
CONTINUOUS
 62
40
 10
2.225726E+002
 20
2.304E+001
 11
2.237346E+002
 21
2.636E+001
  0
LINE
  8
1
  6
CONTINUOUS
 62
40
 10
2.237346E+002
 20
2.636E+001
 11
2.243069E+002
 21
2.636E+001
  0
LINE
  8
1
  6
CONTINUOUS
 62
40
 10
2.241269E+002
 20
2.618E+001
 11
2.241269E+002
 21
2.322E+001
  0
LINE
  8
1
  6
CONTINUOUS
 62
40
 10
2.241269E+002
 20
2.322E+001
 11
2.2282631E+002
 21
2.322E+001
  0
LINE
  8
1
  6
CONTINUOUS
 62
40
 10
2.2282631E+002
 20
2.322E+001
 11
2.2386231E+002
 21
2.618E+001
  0
LINE
  8
1
  6
CONTINUOUS
 62
40
 10
2.2386231E+002
 20
2.618E+001
 11
2.241269E+002
 21
2.618E+001
  0
LINE
  8
1
  6
CONTINUOUS
 62
40
 10
2.239469E+002
 20
2.34E+001
 11
2.2308002E+002
 21
2.34E+001
  0
LINE
  8
1
  6
CONTINUOUS
 62
40
 10
2.2308002E+002
 20
2.34E+001
 11
2.239469E+002
 21
2.5876801E+001
  0
LINE
  8
1
  6
CONTINUOUS
 62
40
 10
2.239469E+002
 20
2.5876801E+001
 11
2.239469E+002
 21
2.34E+001
  0
LINE
  8
1
  6
CONTINUOUS
 62
40
 10
2.237669E+002
 20
2.358E+001
 11
2.2333372E+002
 21
2.358E+001
  0
LINE
  8
1
  6
CONTINUOUS
 62
40
 10
2.2333372E+002
 20
2.358E+001
 11
2.237669E+002
 21
2.4817639E+001
  0
LINE
  8
1
  6
CONTINUOUS
 62
40
 10
2.237669E+002
 20
2.4817639E+001
 11
2.237669E+002
 21
2.358E+001
  0
LINE
  8
1
  6
CONTINUOUS
 62
40
 10
2.2704119E+002
 20
2.304E+001
 11
2.253069E+002
 21
2.304E+001
  0
LINE
  8
1
  6
CONTINUOUS
 62
40
 10
2.253069E+002
 20
2.304E+001
 11
2.253069E+002
 21
2.636E+001
  0
LINE
  8
1
  6
CONTINUOUS
 62
40
 10
2.253069E+002
 20
2.636E+001
 11
2.2587919E+002
 21
2.636E+001
  0
LINE
  8
1
  6
CONTINUOUS
 62
40
 10
2.2587919E+002
 20
2.636E+001
 11
2.2704119E+002
 21
2.304E+001
  0
LINE
  8
1
  6
CONTINUOUS
 62
40
 10
2.2678748E+002
 20
2.322E+001
 11
2.254869E+002
 21
2.322E+001
  0
LINE
  8
1
  6
CONTINUOUS
 62
40
 10
2.254869E+002
 20
2.322E+001
 11
2.254869E+002
 21
2.618E+001
  0
LINE
  8
1
  6
CONTINUOUS
 62
40
 10
2.254869E+002
 20
2.618E+001
 11
2.2575148E+002
 21
2.618E+001
  0
LINE
  8
1
  6
CONTINUOUS
 62
40
 10
2.2575148E+002
 20
2.618E+001
 11
2.2678748E+002
 21
2.322E+001
  0
LINE
  8
1
  6
CONTINUOUS
 62
40
 10
2.2653378E+002
 20
2.34E+001
 11
2.256669E+002
 21
2.34E+001
  0
LINE
  8
1
  6
CONTINUOUS
 62
40
 10
2.256669E+002
 20
2.34E+001
 11
2.256669E+002
 21
2.5876801E+001
  0
LINE
  8
1
  6
CONTINUOUS
 62
40
 10
2.256669E+002
 20
2.5876801E+001
 11
2.2653378E+002
 21
2.34E+001
  0
LINE
  8
1
  6
CONTINUOUS
 62
40
 10
2.258469E+002
 20
2.358E+001
 11
2.258469E+002
 21
2.4817639E+001
  0
LINE
  8
1
  6
CONTINUOUS
 62
40
 10
2.258469E+002
 20
2.4817639E+001
 11
2.2628007E+002
 21
2.358E+001
  0
LINE
  8
1
  6
CONTINUOUS
 62
40
 10
2.2628007E+002
 20
2.358E+001
 11
2.258469E+002
 21
2.358E+001
  0
LINE
  8
1
  6
CONTINUOUS
 62
40
 10
2.2347467E+002
 20
2.368E+001
 11
2.236669E+002
 21
2.4229216E+001
  0
LINE
  8
1
  6
CONTINUOUS
 62
40
 10
2.236669E+002
 20
2.4229216E+001
 11
2.236669E+002
 21
2.368E+001
  0
LINE
  8
1
  6
CONTINUOUS
 62
40
 10
2.236669E+002
 20
2.368E+001
 11
2.2347467E+002
 21
2.368E+001
  0
LINE
  8
1
  6
CONTINUOUS
 62
40
 10
2.259469E+002
 20
2.368E+001
 11
2.259469E+002
 21
2.4229216E+001
  0
LINE
  8
1
  6
CONTINUOUS
 62
40
 10
2.259469E+002
 20
2.4229216E+001
 11
2.2613912E+002
 21
2.368E+001
  0
LINE
  8
1
  6
CONTINUOUS
 62
40
 10
2.2613912E+002
 20
2.368E+001
 11
2.259469E+002
 21
2.368E+001
  0
LINE
  8
1
  6
CONTINUOUS
 62
40
 10
2.243069E+002
 20
2.204E+001
 11
2.243069E+002
 21
2.032E+001
  0
LINE
  8
1
  6
CONTINUOUS
 62
40
 10
2.243069E+002
 20
2.032E+001
 11
2.2323919E+002
 21
2.032E+001
  0
LINE
  8
1
  6
CONTINUOUS
 62
40
 10
2.2323919E+002
 20
2.032E+001
 11
2.2267919E+002
 21
1.872E+001
  0
LINE
  8
1
  6
CONTINUOUS
 62
40
 10
2.2267919E+002
 20
1.872E+001
 11
2.210606E+002
 21
1.872E+001
  0
LINE
  8
1
  6
CONTINUOUS
 62
40
 10
2.210606E+002
 20
1.872E+001
 11
2.222226E+002
 21
2.204E+001
  0
LINE
  8
1
  6
CONTINUOUS
 62
40
 10
2.222226E+002
 20
2.204E+001
 11
2.243069E+002
 21
2.204E+001
  0
LINE
  8
1
  6
CONTINUOUS
 62
40
 10
2.241269E+002
 20
2.186E+001
 11
2.241269E+002
 21
2.05E+001
  0
LINE
  8
1
  6
CONTINUOUS
 62
40
 10
2.241269E+002
 20
2.05E+001
 11
2.2311148E+002
 21
2.05E+001
  0
LINE
  8
1
  6
CONTINUOUS
 62
40
 10
2.2311148E+002
 20
2.05E+001
 11
2.2255148E+002
 21
1.89E+001
  0
LINE
  8
1
  6
CONTINUOUS
 62
40
 10
2.2255148E+002
 20
1.89E+001
 11
2.2131431E+002
 21
1.89E+001
  0
LINE
  8
1
  6
CONTINUOUS
 62
40
 10
2.2131431E+002
 20
1.89E+001
 11
2.2235031E+002
 21
2.186E+001
  0
LINE
  8
1
  6
CONTINUOUS
 62
40
 10
2.2235031E+002
 20
2.186E+001
 11
2.241269E+002
 21
2.186E+001
  0
LINE
  8
1
  6
CONTINUOUS
 62
40
 10
2.239469E+002
 20
2.168E+001
 11
2.239469E+002
 21
2.068E+001
  0
LINE
  8
1
  6
CONTINUOUS
 62
40
 10
2.239469E+002
 20
2.068E+001
 11
2.2298378E+002
 21
2.068E+001
  0
LINE
  8
1
  6
CONTINUOUS
 62
40
 10
2.2298378E+002
 20
2.068E+001
 11
2.2242378E+002
 21
1.908E+001
  0
LINE
  8
1
  6
CONTINUOUS
 62
40
 10
2.2242378E+002
 20
1.908E+001
 11
2.2156802E+002
 21
1.908E+001
  0
LINE
  8
1
  6
CONTINUOUS
 62
40
 10
2.2156802E+002
 20
1.908E+001
 11
2.2247802E+002
 21
2.168E+001
  0
LINE
  8
1
  6
CONTINUOUS
 62
40
 10
2.2247802E+002
 20
2.168E+001
 11
2.239469E+002
 21
2.168E+001
  0
LINE
  8
1
  6
CONTINUOUS
 62
40
 10
2.2260572E+002
 20
2.15E+001
 11
2.237669E+002
 21
2.15E+001
  0
LINE
  8
1
  6
CONTINUOUS
 62
40
 10
2.237669E+002
 20
2.15E+001
 11
2.237669E+002
 21
2.086E+001
  0
LINE
  8
1
  6
CONTINUOUS
 62
40
 10
2.237669E+002
 20
2.086E+001
 11
2.2285607E+002
 21
2.086E+001
  0
LINE
  8
1
  6
CONTINUOUS
 62
40
 10
2.2285607E+002
 20
2.086E+001
 11
2.2229607E+002
 21
1.926E+001
  0
LINE
  8
1
  6
CONTINUOUS
 62
40
 10
2.2229607E+002
 20
1.926E+001
 11
2.2182172E+002
 21
1.926E+001
  0
LINE
  8
1
  6
CONTINUOUS
 62
40
 10
2.2182172E+002
 20
1.926E+001
 11
2.2260572E+002
 21
2.15E+001
  0
LINE
  8
1
  6
CONTINUOUS
 62
40
 10
2.235869E+002
 20
2.132E+001
 11
2.235869E+002
 21
2.104E+001
  0
LINE
  8
1
  6
CONTINUOUS
 62
40
 10
2.235869E+002
 20
2.104E+001
 11
2.2272836E+002
 21
2.104E+001
  0
LINE
  8
1
  6
CONTINUOUS
 62
40
 10
2.2272836E+002
 20
2.104E+001
 11
2.2216836E+002
 21
1.944E+001
  0
LINE
  8
1
  6
CONTINUOUS
 62
40
 10
2.2216836E+002
 20
1.944E+001
 11
2.2207543E+002
 21
1.944E+001
  0
LINE
  8
1
  6
CONTINUOUS
 62
40
 10
2.2207543E+002
 20
1.944E+001
 11
2.2273343E+002
 21
2.132E+001
  0
LINE
  8
1
  6
CONTINUOUS
 62
40
 10
2.2273343E+002
 20
2.132E+001
 11
2.235869E+002
 21
2.132E+001
  0
LINE
  8
1
  6
CONTINUOUS
 62
40
 10
2.253069E+002
 20
2.204E+001
 11
2.253069E+002
 21
2.032E+001
  0
LINE
  8
1
  6
CONTINUOUS
 62
40
 10
2.253069E+002
 20
2.032E+001
 11
2.263746E+002
 21
2.032E+001
  0
LINE
  8
1
  6
CONTINUOUS
 62
40
 10
2.263746E+002
 20
2.032E+001
 11
2.269346E+002
 21
1.872E+001
  0
LINE
  8
1
  6
CONTINUOUS
 62
40
 10
2.269346E+002
 20
1.872E+001
 11
2.2855319E+002
 21
1.872E+001
  0
LINE
  8
1
  6
CONTINUOUS
 62
40
 10
2.2855319E+002
 20
1.872E+001
 11
2.2739119E+002
 21
2.204E+001
  0
LINE
  8
1
  6
CONTINUOUS
 62
40
 10
2.2739119E+002
 20
2.204E+001
 11
2.253069E+002
 21
2.204E+001
  0
LINE
  8
1
  6
CONTINUOUS
 62
40
 10
2.2726348E+002
 20
2.186E+001
 11
2.254869E+002
 21
2.186E+001
  0
LINE
  8
1
  6
CONTINUOUS
 62
40
 10
2.254869E+002
 20
2.186E+001
 11
2.254869E+002
 21
2.05E+001
  0
LINE
  8
1
  6
CONTINUOUS
 62
40
 10
2.254869E+002
 20
2.05E+001
 11
2.2650231E+002
 21
2.05E+001
  0
LINE
  8
1
  6
CONTINUOUS
 62
40
 10
2.2650231E+002
 20
2.05E+001
 11
2.2706231E+002
 21
1.89E+001
  0
LINE
  8
1
  6
CONTINUOUS
 62
40
 10
2.2706231E+002
 20
1.89E+001
 11
2.2829948E+002
 21
1.89E+001
  0
LINE
  8
1
  6
CONTINUOUS
 62
40
 10
2.2829948E+002
 20
1.89E+001
 11
2.2726348E+002
 21
2.186E+001
  0
LINE
  8
1
  6
CONTINUOUS
 62
40
 10
2.256669E+002
 20
2.168E+001
 11
2.256669E+002
 21
2.068E+001
  0
LINE
  8
1
  6
CONTINUOUS
 62
40
 10
2.256669E+002
 20
2.068E+001
 11
2.2663002E+002
 21
2.068E+001
  0
LINE
  8
1
  6
CONTINUOUS
 62
40
 10
2.2663002E+002
 20
2.068E+001
 11
2.2719002E+002
 21
1.908E+001
  0
LINE
  8
1
  6
CONTINUOUS
 62
40
 10
2.2719002E+002
 20
1.908E+001
 11
2.2804578E+002
 21
1.908E+001
  0
LINE
  8
1
  6
CONTINUOUS
 62
40
 10
2.2804578E+002
 20
1.908E+001
 11
2.2713578E+002
 21
2.168E+001
  0
LINE
  8
1
  6
CONTINUOUS
 62
40
 10
2.2713578E+002
 20
2.168E+001
 11
2.256669E+002
 21
2.168E+001
  0
LINE
  8
1
  6
CONTINUOUS
 62
40
 10
2.2700807E+002
 20
2.15E+001
 11
2.258469E+002
 21
2.15E+001
  0
LINE
  8
1
  6
CONTINUOUS
 62
40
 10
2.258469E+002
 20
2.15E+001
 11
2.258469E+002
 21
2.086E+001
  0
LINE
  8
1
  6
CONTINUOUS
 62
40
 10
2.258469E+002
 20
2.086E+001
 11
2.2675772E+002
 21
2.086E+001
  0
LINE
  8
1
  6
CONTINUOUS
 62
40
 10
2.2675772E+002
 20
2.086E+001
 11
2.2731772E+002
 21
1.926E+001
  0
LINE
  8
1
  6
CONTINUOUS
 62
40
 10
2.2731772E+002
 20
1.926E+001
 11
2.2779207E+002
 21
1.926E+001
  0
LINE
  8
1
  6
CONTINUOUS
 62
40
 10
2.2779207E+002
 20
1.926E+001
 11
2.2700807E+002
 21
2.15E+001
  0
LINE
  8
1
  6
CONTINUOUS
 62
40
 10
2.2688036E+002
 20
2.132E+001
 11
2.260269E+002
 21
2.132E+001
  0
LINE
  8
1
  6
CONTINUOUS
 62
40
 10
2.260269E+002
 20
2.132E+001
 11
2.260269E+002
 21
2.104E+001
  0
LINE
  8
1
  6
CONTINUOUS
 62
40
 10
2.260269E+002
 20
2.104E+001
 11
2.2688543E+002
 21
2.104E+001
  0
LINE
  8
1
  6
CONTINUOUS
 62
40
 10
2.2688543E+002
 20
2.104E+001
 11
2.2744543E+002
 21
1.944E+001
  0
LINE
  8
1
  6
CONTINUOUS
 62
40
 10
2.2744543E+002
 20
1.944E+001
 11
2.2753836E+002
 21
1.944E+001
  0
LINE
  8
1
  6
CONTINUOUS
 62
40
 10
2.2753836E+002
 20
1.944E+001
 11
2.2688036E+002
 21
2.132E+001
  0
LINE
  8
1
  6
CONTINUOUS
 62
40
 10
2.2273343E+002
 20
2.118E+001
 11
2.235869E+002
 21
2.118E+001
  0
LINE
  8
1
  6
CONTINUOUS
 62
40
 10
2.2688036E+002
 20
2.118E+001
 11
2.260269E+002
 21
2.118E+001
  0
LINE
  8
1
  6
CONTINUOUS
 62
40
 10
2.295469E+002
 20
2.304E+001
 11
2.312669E+002
 21
2.304E+001
  0
LINE
  8
1
  6
CONTINUOUS
 62
40
 10
2.312669E+002
 20
2.304E+001
 11
2.312669E+002
 21
2.636E+001
  0
LINE
  8
1
  6
CONTINUOUS
 62
40
 10
2.312669E+002
 20
2.636E+001
 11
2.295469E+002
 21
2.636E+001
  0
LINE
  8
1
  6
CONTINUOUS
 62
40
 10
2.295469E+002
 20
2.636E+001
 11
2.295469E+002
 21
2.304E+001
  0
LINE
  8
1
  6
CONTINUOUS
 62
40
 10
2.297269E+002
 20
2.322E+001
 11
2.310869E+002
 21
2.322E+001
  0
LINE
  8
1
  6
CONTINUOUS
 62
40
 10
2.310869E+002
 20
2.322E+001
 11
2.310869E+002
 21
2.618E+001
  0
LINE
  8
1
  6
CONTINUOUS
 62
40
 10
2.310869E+002
 20
2.618E+001
 11
2.297269E+002
 21
2.618E+001
  0
LINE
  8
1
  6
CONTINUOUS
 62
40
 10
2.297269E+002
 20
2.618E+001
 11
2.297269E+002
 21
2.322E+001
  0
LINE
  8
1
  6
CONTINUOUS
 62
40
 10
2.309069E+002
 20
2.34E+001
 11
2.309069E+002
 21
2.6E+001
  0
LINE
  8
1
  6
CONTINUOUS
 62
40
 10
2.309069E+002
 20
2.6E+001
 11
2.299069E+002
 21
2.6E+001
  0
LINE
  8
1
  6
CONTINUOUS
 62
40
 10
2.299069E+002
 20
2.6E+001
 11
2.299069E+002
 21
2.34E+001
  0
LINE
  8
1
  6
CONTINUOUS
 62
40
 10
2.299069E+002
 20
2.34E+001
 11
2.309069E+002
 21
2.34E+001
  0
LINE
  8
1
  6
CONTINUOUS
 62
40
 10
2.300869E+002
 20
2.358E+001
 11
2.307269E+002
 21
2.358E+001
  0
LINE
  8
1
  6
CONTINUOUS
 62
40
 10
2.307269E+002
 20
2.358E+001
 11
2.307269E+002
 21
2.582E+001
  0
LINE
  8
1
  6
CONTINUOUS
 62
40
 10
2.307269E+002
 20
2.582E+001
 11
2.300869E+002
 21
2.582E+001
  0
LINE
  8
1
  6
CONTINUOUS
 62
40
 10
2.300869E+002
 20
2.582E+001
 11
2.300869E+002
 21
2.358E+001
  0
LINE
  8
1
  6
CONTINUOUS
 62
40
 10
2.302669E+002
 20
2.376E+001
 11
2.305469E+002
 21
2.376E+001
  0
LINE
  8
1
  6
CONTINUOUS
 62
40
 10
2.305469E+002
 20
2.376E+001
 11
2.305469E+002
 21
2.564E+001
  0
LINE
  8
1
  6
CONTINUOUS
 62
40
 10
2.305469E+002
 20
2.564E+001
 11
2.302669E+002
 21
2.564E+001
  0
LINE
  8
1
  6
CONTINUOUS
 62
40
 10
2.302669E+002
 20
2.564E+001
 11
2.302669E+002
 21
2.376E+001
  0
LINE
  8
1
  6
CONTINUOUS
 62
40
 10
2.295469E+002
 20
1.872E+001
 11
2.312669E+002
 21
1.872E+001
  0
LINE
  8
1
  6
CONTINUOUS
 62
40
 10
2.312669E+002
 20
1.872E+001
 11
2.312669E+002
 21
2.204E+001
  0
LINE
  8
1
  6
CONTINUOUS
 62
40
 10
2.312669E+002
 20
2.204E+001
 11
2.295469E+002
 21
2.204E+001
  0
LINE
  8
1
  6
CONTINUOUS
 62
40
 10
2.295469E+002
 20
2.204E+001
 11
2.295469E+002
 21
1.872E+001
  0
LINE
  8
1
  6
CONTINUOUS
 62
40
 10
2.310869E+002
 20
1.89E+001
 11
2.310869E+002
 21
2.186E+001
  0
LINE
  8
1
  6
CONTINUOUS
 62
40
 10
2.310869E+002
 20
2.186E+001
 11
2.297269E+002
 21
2.186E+001
  0
LINE
  8
1
  6
CONTINUOUS
 62
40
 10
2.297269E+002
 20
2.186E+001
 11
2.297269E+002
 21
1.89E+001
  0
LINE
  8
1
  6
CONTINUOUS
 62
40
 10
2.297269E+002
 20
1.89E+001
 11
2.310869E+002
 21
1.89E+001
  0
LINE
  8
1
  6
CONTINUOUS
 62
40
 10
2.299069E+002
 20
1.908E+001
 11
2.309069E+002
 21
1.908E+001
  0
LINE
  8
1
  6
CONTINUOUS
 62
40
 10
2.309069E+002
 20
1.908E+001
 11
2.309069E+002
 21
2.168E+001
  0
LINE
  8
1
  6
CONTINUOUS
 62
40
 10
2.309069E+002
 20
2.168E+001
 11
2.299069E+002
 21
2.168E+001
  0
LINE
  8
1
  6
CONTINUOUS
 62
40
 10
2.299069E+002
 20
2.168E+001
 11
2.299069E+002
 21
1.908E+001
  0
LINE
  8
1
  6
CONTINUOUS
 62
40
 10
2.300869E+002
 20
1.926E+001
 11
2.307269E+002
 21
1.926E+001
  0
LINE
  8
1
  6
CONTINUOUS
 62
40
 10
2.307269E+002
 20
1.926E+001
 11
2.307269E+002
 21
2.15E+001
  0
LINE
  8
1
  6
CONTINUOUS
 62
40
 10
2.307269E+002
 20
2.15E+001
 11
2.300869E+002
 21
2.15E+001
  0
LINE
  8
1
  6
CONTINUOUS
 62
40
 10
2.300869E+002
 20
2.15E+001
 11
2.300869E+002
 21
1.926E+001
  0
LINE
  8
1
  6
CONTINUOUS
 62
40
 10
2.305469E+002
 20
1.944E+001
 11
2.305469E+002
 21
2.132E+001
  0
LINE
  8
1
  6
CONTINUOUS
 62
40
 10
2.305469E+002
 20
2.132E+001
 11
2.302669E+002
 21
2.132E+001
  0
LINE
  8
1
  6
CONTINUOUS
 62
40
 10
2.302669E+002
 20
2.132E+001
 11
2.302669E+002
 21
1.944E+001
  0
LINE
  8
1
  6
CONTINUOUS
 62
40
 10
2.302669E+002
 20
1.944E+001
 11
2.305469E+002
 21
1.944E+001
  0
LINE
  8
1
  6
CONTINUOUS
 62
40
 10
2.303669E+002
 20
1.954E+001
 11
2.304469E+002
 21
1.954E+001
  0
LINE
  8
1
  6
CONTINUOUS
 62
40
 10
2.304469E+002
 20
1.954E+001
 11
2.304469E+002
 21
2.122E+001
  0
LINE
  8
1
  6
CONTINUOUS
 62
40
 10
2.304469E+002
 20
2.122E+001
 11
2.303669E+002
 21
2.122E+001
  0
LINE
  8
1
  6
CONTINUOUS
 62
40
 10
2.303669E+002
 20
2.122E+001
 11
2.303669E+002
 21
1.954E+001
  0
LINE
  8
1
  6
CONTINUOUS
 62
40
 10
2.304469E+002
 20
2.386E+001
 11
2.304469E+002
 21
2.554E+001
  0
LINE
  8
1
  6
CONTINUOUS
 62
40
 10
2.304469E+002
 20
2.554E+001
 11
2.303669E+002
 21
2.554E+001
  0
LINE
  8
1
  6
CONTINUOUS
 62
40
 10
2.303669E+002
 20
2.554E+001
 11
2.303669E+002
 21
2.386E+001
  0
LINE
  8
1
  6
CONTINUOUS
 62
40
 10
2.303669E+002
 20
2.386E+001
 11
2.304469E+002
 21
2.386E+001
  0
LINE
  8
1
  6
CONTINUOUS
 62
40
 10
2.375069E+002
 20
2.636E+001
 11
2.375069E+002
 21
2.304E+001
  0
LINE
  8
1
  6
CONTINUOUS
 62
40
 10
2.375069E+002
 20
2.304E+001
 11
2.357869E+002
 21
2.304E+001
  0
LINE
  8
1
  6
CONTINUOUS
 62
40
 10
2.357869E+002
 20
2.304E+001
 11
2.357869E+002
 21
2.636E+001
  0
LINE
  8
1
  6
CONTINUOUS
 62
40
 10
2.357869E+002
 20
2.636E+001
 11
2.375069E+002
 21
2.636E+001
  0
LINE
  8
1
  6
CONTINUOUS
 62
40
 10
2.373269E+002
 20
2.618E+001
 11
2.373269E+002
 21
2.322E+001
  0
LINE
  8
1
  6
CONTINUOUS
 62
40
 10
2.373269E+002
 20
2.322E+001
 11
2.359669E+002
 21
2.322E+001
  0
LINE
  8
1
  6
CONTINUOUS
 62
40
 10
2.359669E+002
 20
2.322E+001
 11
2.359669E+002
 21
2.618E+001
  0
LINE
  8
1
  6
CONTINUOUS
 62
40
 10
2.359669E+002
 20
2.618E+001
 11
2.373269E+002
 21
2.618E+001
  0
LINE
  8
1
  6
CONTINUOUS
 62
40
 10
2.371469E+002
 20
2.34E+001
 11
2.361469E+002
 21
2.34E+001
  0
LINE
  8
1
  6
CONTINUOUS
 62
40
 10
2.361469E+002
 20
2.34E+001
 11
2.361469E+002
 21
2.6E+001
  0
LINE
  8
1
  6
CONTINUOUS
 62
40
 10
2.361469E+002
 20
2.6E+001
 11
2.371469E+002
 21
2.6E+001
  0
LINE
  8
1
  6
CONTINUOUS
 62
40
 10
2.371469E+002
 20
2.6E+001
 11
2.371469E+002
 21
2.34E+001
  0
LINE
  8
1
  6
CONTINUOUS
 62
40
 10
2.369669E+002
 20
2.358E+001
 11
2.363269E+002
 21
2.358E+001
  0
LINE
  8
1
  6
CONTINUOUS
 62
40
 10
2.363269E+002
 20
2.358E+001
 11
2.363269E+002
 21
2.582E+001
  0
LINE
  8
1
  6
CONTINUOUS
 62
40
 10
2.363269E+002
 20
2.582E+001
 11
2.369669E+002
 21
2.582E+001
  0
LINE
  8
1
  6
CONTINUOUS
 62
40
 10
2.369669E+002
 20
2.582E+001
 11
2.369669E+002
 21
2.358E+001
  0
LINE
  8
1
  6
CONTINUOUS
 62
40
 10
2.367869E+002
 20
2.564E+001
 11
2.367869E+002
 21
2.376E+001
  0
LINE
  8
1
  6
CONTINUOUS
 62
40
 10
2.367869E+002
 20
2.376E+001
 11
2.365069E+002
 21
2.376E+001
  0
LINE
  8
1
  6
CONTINUOUS
 62
40
 10
2.365069E+002
 20
2.376E+001
 11
2.365069E+002
 21
2.564E+001
  0
LINE
  8
1
  6
CONTINUOUS
 62
40
 10
2.365069E+002
 20
2.564E+001
 11
2.367869E+002
 21
2.564E+001
  0
LINE
  8
1
  6
CONTINUOUS
 62
40
 10
2.357869E+002
 20
1.872E+001
 11
2.375069E+002
 21
1.872E+001
  0
LINE
  8
1
  6
CONTINUOUS
 62
40
 10
2.375069E+002
 20
1.872E+001
 11
2.375069E+002
 21
2.204E+001
  0
LINE
  8
1
  6
CONTINUOUS
 62
40
 10
2.375069E+002
 20
2.204E+001
 11
2.357869E+002
 21
2.204E+001
  0
LINE
  8
1
  6
CONTINUOUS
 62
40
 10
2.357869E+002
 20
2.204E+001
 11
2.357869E+002
 21
1.872E+001
  0
LINE
  8
1
  6
CONTINUOUS
 62
40
 10
2.373269E+002
 20
1.89E+001
 11
2.373269E+002
 21
2.186E+001
  0
LINE
  8
1
  6
CONTINUOUS
 62
40
 10
2.373269E+002
 20
2.186E+001
 11
2.359669E+002
 21
2.186E+001
  0
LINE
  8
1
  6
CONTINUOUS
 62
40
 10
2.359669E+002
 20
2.186E+001
 11
2.359669E+002
 21
1.89E+001
  0
LINE
  8
1
  6
CONTINUOUS
 62
40
 10
2.359669E+002
 20
1.89E+001
 11
2.373269E+002
 21
1.89E+001
  0
LINE
  8
1
  6
CONTINUOUS
 62
40
 10
2.361469E+002
 20
1.908E+001
 11
2.371469E+002
 21
1.908E+001
  0
LINE
  8
1
  6
CONTINUOUS
 62
40
 10
2.371469E+002
 20
1.908E+001
 11
2.371469E+002
 21
2.168E+001
  0
LINE
  8
1
  6
CONTINUOUS
 62
40
 10
2.371469E+002
 20
2.168E+001
 11
2.361469E+002
 21
2.168E+001
  0
LINE
  8
1
  6
CONTINUOUS
 62
40
 10
2.361469E+002
 20
2.168E+001
 11
2.361469E+002
 21
1.908E+001
  0
LINE
  8
1
  6
CONTINUOUS
 62
40
 10
2.369669E+002
 20
1.926E+001
 11
2.369669E+002
 21
2.15E+001
  0
LINE
  8
1
  6
CONTINUOUS
 62
40
 10
2.369669E+002
 20
2.15E+001
 11
2.363269E+002
 21
2.15E+001
  0
LINE
  8
1
  6
CONTINUOUS
 62
40
 10
2.363269E+002
 20
2.15E+001
 11
2.363269E+002
 21
1.926E+001
  0
LINE
  8
1
  6
CONTINUOUS
 62
40
 10
2.363269E+002
 20
1.926E+001
 11
2.369669E+002
 21
1.926E+001
  0
LINE
  8
1
  6
CONTINUOUS
 62
40
 10
2.367869E+002
 20
1.944E+001
 11
2.367869E+002
 21
2.132E+001
  0
LINE
  8
1
  6
CONTINUOUS
 62
40
 10
2.367869E+002
 20
2.132E+001
 11
2.365069E+002
 21
2.132E+001
  0
LINE
  8
1
  6
CONTINUOUS
 62
40
 10
2.365069E+002
 20
2.132E+001
 11
2.365069E+002
 21
1.944E+001
  0
LINE
  8
1
  6
CONTINUOUS
 62
40
 10
2.365069E+002
 20
1.944E+001
 11
2.367869E+002
 21
1.944E+001
  0
LINE
  8
1
  6
CONTINUOUS
 62
40
 10
2.366869E+002
 20
2.554E+001
 11
2.366869E+002
 21
2.386E+001
  0
LINE
  8
1
  6
CONTINUOUS
 62
40
 10
2.366869E+002
 20
2.386E+001
 11
2.366069E+002
 21
2.386E+001
  0
LINE
  8
1
  6
CONTINUOUS
 62
40
 10
2.366069E+002
 20
2.386E+001
 11
2.366069E+002
 21
2.554E+001
  0
LINE
  8
1
  6
CONTINUOUS
 62
40
 10
2.366069E+002
 20
2.554E+001
 11
2.366869E+002
 21
2.554E+001
  0
LINE
  8
1
  6
CONTINUOUS
 62
40
 10
2.366869E+002
 20
1.954E+001
 11
2.366869E+002
 21
2.122E+001
  0
LINE
  8
1
  6
CONTINUOUS
 62
40
 10
2.366869E+002
 20
2.122E+001
 11
2.366069E+002
 21
2.122E+001
  0
LINE
  8
1
  6
CONTINUOUS
 62
40
 10
2.366069E+002
 20
2.122E+001
 11
2.366069E+002
 21
1.954E+001
  0
LINE
  8
1
  6
CONTINUOUS
 62
40
 10
2.366069E+002
 20
1.954E+001
 11
2.366869E+002
 21
1.954E+001
  0
TEXT
  8
1
  6
CONTINUOUS
 62
40
 10
3.4051512E+002
 20
4.8176829E+001
 40
1.45
  1
Bon pour
 41
6.0E-001
  0
TEXT
  8
1
  6
CONTINUOUS
 62
40
 10
3.4051512E+002
 20
4.6436829E+001
 40
1.45
  1
execution
 41
6.0E-001
  0
TEXT
  8
1
  6
CONTINUOUS
 62
40
 10
3.6017142E+002
 20
3.1E+001
 40
2.0
  1
PROJET (IDEAS)
 41
4.5E-001
  0
ATTDEF
  8
1
  6
CONTINUOUS
 62
40
 10
3.7741153E+002
 20
3.4924724E+001
 40
2.2
  1
 
 41
5.4E-001
  3
Remplace
  2
Remplace
 70
0
  0
POLYLINE
  8
1
  6
CONTINUOUS
 62
3
 66
1
 40
7.0E-001
 41
7.0E-001
 70
0
  0
VERTEX
  8
1
 42
0.0
 10
3.7642148E+002
 20
3.0E+001
 70
0
  0
VERTEX
  8
1
 42
0.0
 10
3.7642148E+002
 20
3.8E+001
 70
0
  0
SEQEND
  0
POLYLINE
  8
1
  6
CONTINUOUS
 62
3
 66
1
 40
7.0E-001
 41
7.0E-001
 70
0
  0
VERTEX
  8
1
 42
0.0
 10
3.5906281E+002
 20
3.0E+001
 70
0
  0
VERTEX
  8
1
 42
0.0
 10
3.965E+002
 20
3.0E+001
 70
0
  0
SEQEND
  0
TEXT
  8
1
  6
CONTINUOUS
 62
40
 10
3.7512165E+002
 20
2.7301631E+001
 40
2.0
  1
Feuil.N%%d  Nb.feuil.
 41
5.5E-001
  0
POLYLINE
  8
1
  6
CONTINUOUS
 62
3
 66
1
 40
7.0E-001
 41
7.0E-001
 70
0
  0
VERTEX
  8
1
 42
0.0
 10
3.1117812E+002
 20
2.55E+001
 70
0
  0
VERTEX
  8
1
 42
0.0
 10
3.1117812E+002
 20
3.0E+001
 70
0
  0
SEQEND
  0
POLYLINE
  8
1
  6
CONTINUOUS
 62
3
 66
1
 40
7.0E-001
 41
7.0E-001
 70
0
  0
VERTEX
  8
1
 42
0.0
 10
3.5906281E+002
 20
3.8E+001
 70
0
  0
VERTEX
  8
1
 42
0.0
 10
3.5906281E+002
 20
2.3E+001
 70
0
  0
SEQEND
  0
POLYLINE
  8
1
  6
CONTINUOUS
 62
3
 66
1
 40
7.0E-001
 41
7.0E-001
 70
0
  0
VERTEX
  8
1
 42
0.0
 10
2.165E+002
 20
5.0E+001
 70
0
  0
VERTEX
  8
1
 42
0.0
 10
2.165E+002
 20
1.5E+001
 70
0
  0
SEQEND
  0
POLYLINE
  8
1
  6
CONTINUOUS
 62
3
 66
1
 40
7.0E-001
 41
7.0E-001
 70
0
  0
VERTEX
  8
1
 42
0.0
 10
3.385E+002
 20
3.8E+001
 70
0
  0
VERTEX
  8
1
 42
0.0
 10
3.965E+002
 20
3.8E+001
 70
0
  0
SEQEND
  0
LINE
  8
1
  6
CONTINUOUS
 62
40
 10
3.965E+002
 20
1.5E+001
 11
4.015E+002
 21
1.5E+001
  0
LINE
  8
1
  6
CONTINUOUS
 62
40
 10
4.015E+002
 20
1.8E+001
 11
4.015E+002
 21
1.5E+001
  0
POLYLINE
  8
1
  6
CONTINUOUS
 62
3
 66
1
 40
7.0E-001
 41
7.0E-001
 70
0
  0
VERTEX
  8
1
 42
0.0
 10
2.245E+002
 20
2.78E+002
 70
0
  0
VERTEX
  8
1
 42
0.0
 10
2.245E+002
 20
2.58E+002
 70
0
  0
SEQEND
  0
POINT
  8
1
  6
CONTINUOUS
 62
1
 10
3.965E+002
 20
2.78E+002
  0
POLYLINE
  8
1
  6
CONTINUOUS
 62
3
 66
1
 40
7.0E-001
 41
7.0E-001
 70
0
  0
VERTEX
  8
1
 42
0.0
 10
2.245E+002
 20
2.68E+002
 70
0
  0
VERTEX
  8
1
 42
0.0
 10
3.965E+002
 20
2.68E+002
 70
0
  0
SEQEND
  0
LINE
  8
1
  6
CONTINUOUS
 62
40
 10
2.565E+002
 20
2.58E+002
 11
3.965E+002
 21
2.58E+002
  0
LINE
  8
1
  6
SHORT_DASH
 62
40
 10
2.325E+002
 20
2.58E+002
 11
2.325E+002
 21
2.68E+002
  0
LINE
  8
1
  6
CONTINUOUS
 62
40
 10
2.405E+002
 20
2.58E+002
 11
2.405E+002
 21
2.68E+002
  0
LINE
  8
1
  6
SHORT_DASH
 62
40
 10
2.485E+002
 20
2.58E+002
 11
2.485E+002
 21
2.68E+002
  0
POLYLINE
  8
1
  6
CONTINUOUS
 62
3
 66
1
 40
7.0E-001
 41
7.0E-001
 70
0
  0
VERTEX
  8
1
 42
0.0
 10
2.565E+002
 20
2.58E+002
 70
0
  0
VERTEX
  8
1
 42
0.0
 10
2.565E+002
 20
2.78E+002
 70
0
  0
SEQEND
  0
POLYLINE
  8
1
  6
CONTINUOUS
 62
3
 66
1
 40
7.0E-001
 41
7.0E-001
 70
0
  0
VERTEX
  8
1
 42
0.0
 10
2.625E+002
 20
2.58E+002
 70
0
  0
VERTEX
  8
1
 42
0.0
 10
2.625E+002
 20
2.78E+002
 70
0
  0
SEQEND
  0
POLYLINE
  8
1
  6
CONTINUOUS
 62
3
 66
1
 40
7.0E-001
 41
7.0E-001
 70
0
  0
VERTEX
  8
1
 42
0.0
 10
2.645E+002
 20
2.58E+002
 70
0
  0
VERTEX
  8
1
 42
0.0
 10
2.645E+002
 20
2.78E+002
 70
0
  0
SEQEND
  0
POLYLINE
  8
1
  6
CONTINUOUS
 62
3
 66
1
 40
7.0E-001
 41
7.0E-001
 70
0
  0
VERTEX
  8
1
 42
0.0
 10
2.725E+002
 20
2.58E+002
 70
0
  0
VERTEX
  8
1
 42
0.0
 10
2.725E+002
 20
2.78E+002
 70
0
  0
SEQEND
  0
POLYLINE
  8
1
  6
CONTINUOUS
 62
3
 66
1
 40
7.0E-001
 41
7.0E-001
 70
0
  0
VERTEX
  8
1
 42
0.0
 10
3.335E+002
 20
2.58E+002
 70
0
  0
VERTEX
  8
1
 42
0.0
 10
3.335E+002
 20
2.78E+002
 70
0
  0
SEQEND
  0
POLYLINE
  8
1
  6
CONTINUOUS
 62
3
 66
1
 40
7.0E-001
 41
7.0E-001
 70
0
  0
VERTEX
  8
1
 42
0.0
 10
3.775E+002
 20
2.58E+002
 70
0
  0
VERTEX
  8
1
 42
0.0
 10
3.775E+002
 20
2.78E+002
 70
0
  0
SEQEND
  0
POLYLINE
  8
1
  6
CONTINUOUS
 62
3
 66
1
 40
7.0E-001
 41
7.0E-001
 70
0
  0
VERTEX
  8
1
 42
0.0
 10
3.835E+002
 20
2.58E+002
 70
0
  0
VERTEX
  8
1
 42
0.0
 10
3.835E+002
 20
2.78E+002
 70
0
  0
SEQEND
  0
TEXT
  8
1
  6
CONTINUOUS
 62
40
 10
2.6423057E+002
 20
2.7418204E+002
 40
2.5
  1
C
 41
5.0E-001
 72
1
 11
2.6360557E+002
 21
2.7293204E+002
 73
2
  0
LINE
  8
1
  6
CONTINUOUS
 62
40
 10
3.965E+002
 20
2.63E+002
 11
2.725E+002
 21
2.63E+002
  0
TEXT
  8
1
  6
CONTINUOUS
 62
40
 10
2.7221879E+002
 20
2.7408538E+002
 40
2.5
  1
Position
 41
3.6666667E-001
 72
1
 11
2.6855212E+002
 21
2.7283538E+002
 73
2
  0
TEXT
  8
1
  6
CONTINUOUS
 62
40
 10
2.7527337E+002
 20
2.7418204E+002
 40
2.5
  1
Texte
 41
6.0E-001
 11
2.7527337E+002
 21
2.7293204E+002
 73
2
  0
LINE
  8
1
  6
CONTINUOUS
 62
40
 10
2.625E+002
 20
2.63E+002
 11
2.565E+002
 21
2.63E+002
  0
LINE
  8
1
  6
CONTINUOUS
 62
40
 10
2.245E+002
 20
2.73E+002
 11
2.565E+002
 21
2.73E+002
  0
TEXT
  8
1
  6
CONTINUOUS
 62
40
 10
3.7305557E+002
 20
2.7418204E+002
 40
2.5
  1
Numero d'identification
 41
6.0E-001
 72
1
 11
3.5580557E+002
 21
2.7293204E+002
 73
2
  0
TEXT
  8
1
  6
CONTINUOUS
 62
40
 10
3.82E+002
 20
2.7425E+002
 40
2.5
  1
CD
 41
6.0E-001
 72
1
 11
3.805E+002
 21
2.73E+002
 73
2
  0
TEXT
  8
1
  6
CONTINUOUS
 62
40
 10
3.9437837E+002
 20
2.7640048E+002
 40
2.5
  1
 Masse
 41
6.0E-001
 72
1
 11
3.8987837E+002
 21
2.7515048E+002
 73
2
  0
TEXT
  8
1
  6
CONTINUOUS
 62
40
 10
2.540967E+002
 20
2.7683056E+002
 40
2.5
  1
Ligne de rub: Rubrique No
 41
4.5E-001
 72
1
 11
2.400342E+002
 21
2.7558056E+002
 73
2
  0
TEXT
  8
1
  6
CONTINUOUS
 62
40
 10
2.261934E+002
 20
2.6928512E+002
 40
2.5
  1
Ligne de pos: Quantite
 41
4.5E-001
  0
TEXT
  8
1
  6
CONTINUOUS
 62
40
 10
2.6093057E+002
 20
2.7418204E+002
 40
2.5
  1
U
 41
9.0E-001
 72
1
 11
2.5980557E+002
 21
2.7293204E+002
 73
2
  0
POINT
  8
1
  6
CONTINUOUS
 62
1
 10
2.565E+002
 20
2.58E+002
  0
TEXT
  8
1
  6
CONTINUOUS
 62
40
 10
3.9587837E+002
 20
2.7265048E+002
 40
2.5
  1
unitaire
 41
6.0E-001
 72
1
 11
3.8987837E+002
 21
2.7140048E+002
 73
2
  0
POINT
  8
1
  6
CONTINUOUS
 62
1
 10
2.565E+002
 20
2.58E+002
  0
POINT
  8
1
  6
CONTINUOUS
 62
1
 10
2.565E+002
 20
2.58E+002
  0
POINT
  8
Drafting_Hidden_Entities
  6
CONTINUOUS
 62
1
 10
0.0
 20
0.0
  0
ENDBLK
  0
BLOCK
  2
SE0
 10
0.0
 20
0.0
 70
0
  0
LINE
  8
2
  6
CENTERLINE
 62
7
 10
1.1554039E+001
 20
1.8851369E+002
 11
8.3790389
 21
1.8851369E+002
  0
LINE
  8
2
  6
CENTERLINE
 62
7
 10
9.9665389
 20
1.9010119E+002
 11
9.9665389
 21
1.8692619E+002
  0
LINE
  8
2
  6
CENTERLINE
 62
7
 10
1.3141539E+001
 20
1.8851369E+002
 11
1.5641539E+001
 21
1.8851369E+002
  0
LINE
  8
2
  6
CENTERLINE
 62
7
 10
9.9665389
 20
1.9168869E+002
 11
9.9665389
 21
1.9418869E+002
  0
LINE
  8
2
  6
CENTERLINE
 62
7
 10
6.7915389
 20
1.8851369E+002
 11
4.2915389
 21
1.8851369E+002
  0
LINE
  8
2
  6
CENTERLINE
 62
7
 10
9.9665389
 20
1.8533869E+002
 11
9.9665389
 21
1.8283869E+002
  0
ENDBLK
  0
BLOCK
  2
SE1
 10
0.0
 20
0.0
 70
0
  0
LINE
  8
2
  6
CENTERLINE
 62
7
 10
1.1554039E+001
 20
1.0851369E+002
 11
8.3790389
 21
1.0851369E+002
  0
LINE
  8
2
  6
CENTERLINE
 62
7
 10
9.9665389
 20
1.1010119E+002
 11
9.9665389
 21
1.0692619E+002
  0
LINE
  8
2
  6
CENTERLINE
 62
7
 10
1.3141539E+001
 20
1.0851369E+002
 11
1.5641539E+001
 21
1.0851369E+002
  0
LINE
  8
2
  6
CENTERLINE
 62
7
 10
9.9665389
 20
1.1168869E+002
 11
9.9665389
 21
1.1418869E+002
  0
LINE
  8
2
  6
CENTERLINE
 62
7
 10
6.7915389
 20
1.0851369E+002
 11
4.2915389
 21
1.0851369E+002
  0
LINE
  8
2
  6
CENTERLINE
 62
7
 10
9.9665389
 20
1.0533869E+002
 11
9.9665389
 21
1.0283869E+002
  0
ENDBLK
  0
BLOCK
  2
SE2
 10
0.0
 20
0.0
 70
0
  0
LINE
  8
2
  6
CENTERLINE
 62
7
 10
1.1554039E+001
 20
2.851369E+001
 11
8.3790389
 21
2.851369E+001
  0
LINE
  8
2
  6
CENTERLINE
 62
7
 10
9.9665389
 20
3.010119E+001
 11
9.9665389
 21
2.692619E+001
  0
LINE
  8
2
  6
CENTERLINE
 62
7
 10
1.3141539E+001
 20
2.851369E+001
 11
1.5641539E+001
 21
2.851369E+001
  0
LINE
  8
2
  6
CENTERLINE
 62
7
 10
9.9665389
 20
3.168869E+001
 11
9.9665389
 21
3.418869E+001
  0
LINE
  8
2
  6
CENTERLINE
 62
7
 10
6.7915389
 20
2.851369E+001
 11
4.2915389
 21
2.851369E+001
  0
LINE
  8
2
  6
CENTERLINE
 62
7
 10
9.9665389
 20
2.533869E+001
 11
9.9665389
 21
2.283869E+001
  0
ENDBLK
  0
BLOCK
  2
SE3
 10
0.0
 20
0.0
 70
0
  0
LINE
  8
2
  6
CENTERLINE
 62
7
 10
1.1554039E+001
 20
2.6851369E+002
 11
8.3790389
 21
2.6851369E+002
  0
LINE
  8
2
  6
CENTERLINE
 62
7
 10
9.9665389
 20
2.7010119E+002
 11
9.9665389
 21
2.6692619E+002
  0
LINE
  8
2
  6
CENTERLINE
 62
7
 10
1.3141539E+001
 20
2.6851369E+002
 11
1.5641539E+001
 21
2.6851369E+002
  0
LINE
  8
2
  6
CENTERLINE
 62
7
 10
9.9665389
 20
2.7168869E+002
 11
9.9665389
 21
2.7418869E+002
  0
LINE
  8
2
  6
CENTERLINE
 62
7
 10
6.7915389
 20
2.6851369E+002
 11
4.2915389
 21
2.6851369E+002
  0
LINE
  8
2
  6
CENTERLINE
 62
7
 10
9.9665389
 20
2.6533869E+002
 11
9.9665389
 21
2.6283869E+002
  0
ENDBLK
  0
BLOCK
  2
A3N
 10
0.0
 20
0.0
 70
0
  0
ATTDEF
  8
1
  6
CONTINUOUS
 62
5
 10
3.6549644E+002
 20
2.7E+001
 40
2.0
  1
FPEM123456P0001
 41
6.5E-001
 11
3.6549644E+002
 21
2.6E+001
  3
ANCIEN_ Plan
  2
ANCIEN_Plan
 70
0
 73
2
 74
2
  0
ATTDEF
  8
1
  6
CONTINUOUS
 62
5
 10
3.6549644E+002
 20
1.1E+001
 40
4.0
  1
FPEM470778P0001
 41
7.5E-001
 72
1
 11
3.5649644E+002
 21
9.0
  3
N°PLAN
  2
N°PLAN
 70
0
 73
2
 74
2
  0
ATTDEF
  8
1
  6
CONTINUOUS
 62
5
 10
3.6549644E+002
 20
2.3005401E+001
 40
2.0
  1
OEM-12345
 41
7.5E-001
 11
3.6549644E+002
 21
2.2005401E+001
  3
N°OEM
  2
N°OEM
 70
0
 73
2
 74
2
  0
ATTDEF
  8
1
  6
CONTINUOUS
 62
5
 10
2.929758E+002
 20
1.38E+001
 40
1.6
  1
PLAN D'ENSEMBLE
 41
9.0E-001
 72
1
 11
2.864958E+002
 21
1.3E+001
  3
TYPE_PLAN
  2
TYPE_PLAN
 70
0
 73
2
 74
2
  0
ATTDEF
  8
1
  6
CONTINUOUS
 62
5
 10
3.014958E+002
 20
1.025E+001
 40
2.5
  1
DWA, DYA9...16-30 sans relais
 41
7.5E-001
 72
1
 11
2.864958E+002
 21
9.0
  3
DESIGNATION_PLAN
  2
DESIGNATION_PLAN
 70
0
 73
2
 74
2
  0
ATTDEF
  8
1
  6
CONTINUOUS
 62
5
 10
3.898708E+002
 20
8.75
 40
2.5
  1
A
 41
7.5E-001
 72
1
 11
3.879958E+002
 21
7.5
  3
ID
  2
ID
 70
0
 73
2
 74
2
  0
ATTDEF
  8
1
  6
CONTINUOUS
 62
5
 10
3.5575484E+002
 20
1.6659209E+001
 40
2.75
  1
A4
 41
7.5E-001
 72
1
 11
3.5369234E+002
 21
1.5284209E+001
  3
A?
  2
A?
 70
0
 73
2
 74
2
  0
ATTDEF
  8
1
  6
CONTINUOUS
 62
5
 10
3.7155166E+002
 20
1.6659209E+001
 40
2.75
  1
1
 41
7.5E-001
 72
1
 11
3.6639541E+002
 21
1.5284209E+001
  3
Folio
  2
Folio
 70
0
 73
2
 74
2
  0
ATTDEF
  8
1
  6
CONTINUOUS
 62
5
 10
3.8530093E+002
 20
1.6659209E+001
 40
2.75
  1
1
 41
7.5E-001
 72
1
 11
3.7911343E+002
 21
1.5284209E+001
  3
Folios
  2
Folios
 70
0
 73
2
 74
2
  0
ATTDEF
  8
1
  6
CONTINUOUS
 62
5
 10
3.4833212E+002
 20
3.925E+001
 40
2.5
  1
 
 11
3.4833212E+002
 21
3.8E+001
  3
N°OE_Origine
  2
N°OE_Origine
 70
0
 73
2
 74
2
  0
ATTDEF
  8
1
  6
CONTINUOUS
 62
5
 10
3.4833212E+002
 20
3.5E+001
 40
2.0
  1
P.BLANCHET le 01.01.04
 41
7.5E-001
 11
3.4833212E+002
 21
3.4E+001
  3
CONTROLEUR_Origine
  2
CONTROLEUR_Origine
 70
0
 73
2
 74
2
  0
ATTDEF
  8
1
  6
CONTINUOUS
 62
5
 10
3.4833212E+002
 20
3.1E+001
 40
2.0
  1
C.ECOCHARD le 01.01.04
 41
7.5E-001
 11
3.4833212E+002
 21
3.0E+001
  3
DESSINATEUR_Origine
  2
DESSINATEUR_Origine
 70
0
 73
2
 74
2
  0
ATTDEF
  8
1
  6
CONTINUOUS
 62
5
 10
2.2580669E+002
 20
2.725E+001
 40
2.5
  1
A
 41
7.5E-001
 72
1
 11
2.2299419E+002
 21
2.6E+001
  3
ID1
  2
ID1
 70
0
 73
2
 74
2
  0
ATTDEF
  8
1
  6
CONTINUOUS
 62
5
 10
2.2580669E+002
 20
3.125E+001
 40
2.5
  1
 
 41
7.5E-001
 72
1
 11
2.2299419E+002
 21
3.0E+001
  3
ID2
  2
ID2
 70
0
 73
2
 74
2
  0
ATTDEF
  8
1
  6
CONTINUOUS
 62
5
 10
2.2580669E+002
 20
3.525E+001
 40
2.5
  1
 
 41
7.5E-001
 72
1
 11
2.2299419E+002
 21
3.4E+001
  3
ID3
  2
ID3
 70
0
 73
2
 74
2
  0
ATTDEF
  8
1
  6
CONTINUOUS
 62
5
 10
2.2580669E+002
 20
3.925E+001
 40
2.5
  1
 
 41
7.5E-001
 72
1
 11
2.2299419E+002
 21
3.8E+001
  3
ID4
  2
ID4
 70
0
 73
2
 74
2
  0
ATTDEF
  8
1
  6
CONTINUOUS
 62
5
 10
3.4424644E+002
 20
2.1551214E+001
 40
6.0
  1
1:4
 41
7.5E-001
 72
1
 11
3.3749644E+002
 21
1.8551214E+001
  3
Ech
  2
Ech
 70
0
 73
2
 74
2
  0
POLYLINE
  8
1
  6
CONTINUOUS
 62
7
 66
1
 40
5.0E-001
 41
5.0E-001
 70
0
  0
VERTEX
  8
1
 42
0.0
 10
1.0E+001
 20
2.72E+002
 70
0
  0
VERTEX
  8
1
 42
0.0
 10
1.0E+001
 20
4.0E+001
 70
0
  0
SEQEND
  0
POLYLINE
  8
1
  6
CONTINUOUS
 62
7
 66
1
 40
5.0E-001
 41
5.0E-001
 70
0
  0
VERTEX
  8
1
 42
0.0
 10
1.0E+001
 20
4.0E+001
 70
0
  0
VERTEX
  8
1
 42
0.0
 10
1.0065101E+001
 20
5.0
 70
0
  0
SEQEND
  0
POLYLINE
  8
1
  6
CONTINUOUS
 62
7
 66
1
 40
5.0E-001
 41
5.0E-001
 70
0
  0
VERTEX
  8
1
 42
0.0
 10
1.0065101E+001
 20
5.0
 70
0
  0
VERTEX
  8
1
 42
0.0
 10
3.9049515E+002
 20
5.0
 70
0
  0
SEQEND
  0
POLYLINE
  8
1
  6
CONTINUOUS
 62
7
 66
1
 40
5.0E-001
 41
5.0E-001
 70
0
  0
VERTEX
  8
1
 42
0.0
 10
3.9049515E+002
 20
1.0E+001
 70
0
  0
VERTEX
  8
1
 42
0.0
 10
3.9049515E+002
 20
5.0
 70
0
  0
SEQEND
  0
TEXT
  8
1
  6
CONTINUOUS
 62
7
 10
3.5670343E+002
 20
1.7697775E+001
 40
1.5
  1
Format
 41
6.5E-001
 72
1
 11
3.5377843E+002
 21
1.7697775E+001
  0
TEXT
  8
1
  6
CONTINUOUS
 62
7
 10
3.7175835E+002
 20
1.7697775E+001
 40
1.5
  1
Feuille n%%d
 41
6.5E-001
 72
1
 11
3.6688335E+002
 21
1.7697775E+001
  0
TEXT
  8
1
  6
CONTINUOUS
 62
7
 10
3.8447593E+002
 20
1.7697775E+001
 40
1.5
  1
Nb Feuilles
 41
6.5E-001
 72
1
 11
3.7911343E+002
 21
1.7697775E+001
  0
LINE
  8
1
  6
CONTINUOUS
 62
1
 10
0.0
 20
4.0E+001
 11
0.0
 21
4.1E+001
  0
TEXT
  8
1
  6
CONTINUOUS
 62
7
 10
3.6049644E+002
 20
2.3005401E+001
 40
2.0
  1
PROJET
 41
7.5E-001
 72
1
 11
3.5599644E+002
 21
2.2005401E+001
 73
2
  0
TEXT
  8
1
  6
CONTINUOUS
 62
7
 10
8.75
 20
6.0087564E+001
 40
1.25
  1
autorisation écrite.
 41
7.5E-001
 50
9.0E+001
 11
8.75
 21
5.9462564E+001
 73
2
  0
TEXT
  8
1
  6
CONTINUOUS
 62
7
 10
3.6399644E+002
 20
2.7E+001
 40
2.0
  1
Issu de/Remplace
 41
5.0E-001
 72
1
 11
3.5599644E+002
 21
2.6E+001
 73
2
  0
TEXT
  8
1
  6
CONTINUOUS
 62
7
 10
3.4668394E+002
 20
3.8875E+001
 40
1.75
  1
ORDRE EXECUTION
 41
7.0E-001
 72
1
 11
3.3749644E+002
 21
3.8E+001
 73
2
  0
TEXT
  8
1
  6
CONTINUOUS
 62
7
 10
3.4484644E+002
 20
3.4875E+001
 40
1.75
  1
CONTROLE PAR
 41
7.0E-001
 72
1
 11
3.3749644E+002
 21
3.4E+001
 73
2
  0
TEXT
  8
1
  6
CONTINUOUS
 62
7
 10
3.4423394E+002
 20
3.0875E+001
 40
1.75
  1
REALISE PAR
 41
7.0E-001
 72
1
 11
3.3749644E+002
 21
3.0E+001
 73
2
  0
LINE
  8
2
  6
CONTINUOUS
 62
7
 10
9.5000647E+001
 20
2.72E+002
 11
9.5000647E+001
 21
2.77E+002
  0
LINE
  8
2
  6
CONTINUOUS
 62
7
 10
4.7500323E+001
 20
2.72E+002
 11
4.7500323E+001
 21
2.77E+002
  0
LINE
  8
2
  6
CONTINUOUS
 62
7
 10
1.4250097E+002
 20
2.72E+002
 11
1.4250097E+002
 21
2.77E+002
  0
TEXT
  8
2
  6
CONTINUOUS
 62
7
 10
7.0162765E+001
 20
2.7829144E+002
 40
2.5
  1
H
 11
7.0162765E+001
 21
2.7579144E+002
 73
3
  0
TEXT
  8
2
  6
CONTINUOUS
 62
7
 10
2.2581586E+001
 20
2.7829144E+002
 40
2.5
  1
I
 11
2.2581586E+001
 21
2.7579144E+002
 73
3
  0
TEXT
  8
2
  6
CONTINUOUS
 62
7
 10
1.1758442E+002
 20
2.7829144E+002
 40
2.5
  1
G
 11
1.1758442E+002
 21
2.7579144E+002
 73
3
  0
TEXT
  8
2
  6
CONTINUOUS
 62
7
 10
1.6500049E+002
 20
2.7575E+002
 40
2.5
  1
F
 72
1
 11
1.6375049E+002
 21
2.745E+002
 73
2
  0
TEXT
  8
2
  6
CONTINUOUS
 62
7
 10
3.8679278E+002
 20
2.4625255E+002
 40
2.5
  1
4
 11
3.8679278E+002
 21
2.4375255E+002
 73
3
  0
LINE
  8
2
  6
CONTINUOUS
 62
7
 10
0.0
 20
2.77E+002
 11
0.0
 21
0.0
  0
LINE
  8
2
  6
CONTINUOUS
 62
7
 10
3.9049515E+002
 20
2.77E+002
 11
0.0
 21
2.77E+002
  0
LINE
  8
2
  6
CONTINUOUS
 62
7
 10
3.7273041E+002
 20
1.3E+001
 11
3.7273041E+002
 21
2.0010803E+001
  0
LINE
  8
2
  6
CONTINUOUS
 62
7
 10
3.6006041E+002
 20
1.3E+001
 11
3.6006041E+002
 21
2.0010803E+001
  0
POLYLINE
  8
1
  6
CONTINUOUS
 62
7
 66
1
 40
5.0E-001
 41
5.0E-001
 70
0
  0
VERTEX
  8
1
 42
0.0
 10
3.9049644E+002
 20
1.0E+001
 70
0
  0
VERTEX
  8
1
 42
0.0
 10
3.8549644E+002
 20
1.0E+001
 70
0
  0
SEQEND
  0
TEXT
  8
2
  6
CONTINUOUS
 62
7
 10
2.2483169E+002
 20
2.2875E+001
 40
1.75
  1
IND
 41
7.0E-001
 72
1
 11
2.2299419E+002
 21
2.2E+001
 73
2
  0
TEXT
  8
2
  6
CONTINUOUS
 62
7
 10
2.2644467E+002
 20
3.1E+001
 40
2.0
  1
Modifications
 41
6.5E-001
 50
9.0E+001
 72
1
 11
2.1799467E+002
 21
3.0E+001
 73
2
  0
LINE
  8
2
  6
CONTINUOUS
 62
7
 10
3.6449644E+002
 20
2.0010803E+001
 11
3.6449644E+002
 21
2.8E+001
  0
LINE
  8
2
  6
CONTINUOUS
 62
7
 10
3.8549644E+002
 20
2.0010803E+001
 11
3.4749644E+002
 21
2.0010803E+001
  0
LINE
  8
2
  6
CONTINUOUS
 62
7
 10
3.4749644E+002
 20
2.4E+001
 11
3.8549644E+002
 21
2.4E+001
  0
LINE
  8
2
  6
CONTINUOUS
 62
7
 10
3.4749644E+002
 20
1.3E+001
 11
3.4749644E+002
 21
4.0E+001
  0
POLYLINE
  8
1
  6
CONTINUOUS
 62
7
 66
1
 40
5.0E-001
 41
5.0E-001
 70
0
  0
VERTEX
  8
1
 42
0.0
 10
3.2749644E+002
 20
1.3E+001
 70
0
  0
VERTEX
  8
1
 42
0.0
 10
3.8549644E+002
 20
1.3E+001
 70
0
  0
SEQEND
  0
LINE
  8
2
  6
CONTINUOUS
 62
7
 10
2.4549515E+002
 20
1.6000915E+001
 11
3.2749644E+002
 21
1.6000915E+001
  0
LINE
  8
2
  6
CONTINUOUS
 62
7
 10
2.2549419E+002
 20
4.0E+001
 11
2.2549419E+002
 21
2.0E+001
  0
LINE
  8
2
  6
CONTINUOUS
 62
7
 10
2.2049419E+002
 20
4.0E+001
 11
2.2049419E+002
 21
2.0E+001
  0
LINE
  8
2
  6
CONTINUOUS
 62
7
 10
2.8749644E+002
 20
4.0E+001
 11
2.8749644E+002
 21
2.0E+001
  0
LINE
  8
2
  6
CONTINUOUS
 62
7
 10
3.8549644E+002
 20
3.2E+001
 11
2.2049419E+002
 21
3.2E+001
  0
LINE
  8
2
  6
CONTINUOUS
 62
7
 10
3.8549644E+002
 20
3.6E+001
 11
2.2049419E+002
 21
3.6E+001
  0
LINE
  8
2
  6
CONTINUOUS
 62
7
 10
2.2049419E+002
 20
2.8E+001
 11
3.8549644E+002
 21
2.8E+001
  0
LINE
  8
2
  6
CONTINUOUS
 62
7
 10
3.2749644E+002
 20
2.4E+001
 11
2.2049419E+002
 21
2.4E+001
  0
POLYLINE
  8
1
  6
CONTINUOUS
 62
7
 66
1
 40
5.0E-001
 41
5.0E-001
 70
0
  0
VERTEX
  8
1
 42
0.0
 10
3.2749644E+002
 20
5.0
 70
0
  0
VERTEX
  8
1
 42
0.0
 10
3.2749644E+002
 20
4.0E+001
 70
0
  0
SEQEND
  0
LINE
  8
2
  6
CONTINUOUS
 62
7
 10
3.2749644E+002
 20
2.0E+001
 11
2.1549515E+002
 21
2.0E+001
  0
LINE
  8
2
  6
CONTINUOUS
 62
7
 10
2.4549515E+002
 20
5.0
 11
2.4549515E+002
 21
2.0E+001
  0
POLYLINE
  8
1
  6
CONTINUOUS
 62
7
 66
1
 40
5.0E-001
 41
5.0E-001
 70
0
  0
VERTEX
  8
1
 42
0.0
 10
3.8549644E+002
 20
4.0E+001
 70
0
  0
VERTEX
  8
1
 42
0.0
 10
2.1549515E+002
 20
4.0E+001
 70
0
  0
SEQEND
  0
CIRCLE
  8
2
  6
CONTINUOUS
 62
7
 10
-6.124541
 20
1.8151881E+002
 40
2.5
  0
INSERT
  2
SE0
  8
2
 10
-1.609108E+001
 20
-6.9948784
  0
CIRCLE
  8
2
  6
CONTINUOUS
 62
7
 10
-6.124541
 20
1.0151881E+002
 40
2.5
  0
INSERT
  2
SE1
  8
2
 10
-1.609108E+001
 20
-6.9948784
  0
CIRCLE
  8
2
  6
CONTINUOUS
 62
7
 10
-6.124541
 20
2.1518811E+001
 40
2.5
  0
INSERT
  2
SE2
  8
2
 10
-1.609108E+001
 20
-6.9948784
  0
CIRCLE
  8
2
  6
CONTINUOUS
 62
7
 10
-6.124541
 20
2.6151881E+002
 40
2.5
  0
INSERT
  2
SE3
  8
2
 10
-1.609108E+001
 20
-6.9948784
  0
LINE
  8
2
  6
CONTINUOUS
 62
7
 10
0.0
 20
0.0
 11
3.9049515E+002
 21
0.0
  0
LINE
  8
2
  6
CONTINUOUS
 62
7
 10
-8.9879611
 20
1.3551881E+002
 11
-2.8976631
 21
1.3551881E+002
  0
LINE
  8
2
  6
CONTINUOUS
 62
7
 10
1.0E+001
 20
2.72E+002
 11
1.0E+001
 21
5.0
  0
POLYLINE
  8
1
  6
CONTINUOUS
 62
7
 66
1
 40
5.0E-001
 41
5.0E-001
 70
0
  0
VERTEX
  8
1
 42
0.0
 10
1.0E+001
 20
2.72E+002
 70
0
  0
VERTEX
  8
1
 42
0.0
 10
3.8549644E+002
 20
2.72E+002
 70
0
  0
SEQEND
  0
TEXT
  8
2
  6
CONTINUOUS
 62
7
 10
1.25
 20
6.7
 40
1.4
  1
We reserve all rights in this document and in the
 41
7.5E-001
 50
9.0E+001
 11
1.25
 21
6.0
 73
2
  0
TEXT
  8
2
  6
CONTINUOUS
 62
7
 10
3.75
 20
6.7
 40
1.4
  1
information contained therein. Reproduction, use
 41
7.5E-001
 50
9.0E+001
 11
3.75
 21
6.0
 73
2
  0
TEXT
  8
2
  6
CONTINUOUS
 62
7
 10
6.25
 20
6.7
 40
1.4
  1
or disclosure to third parties without express
 41
7.5E-001
 50
9.0E+001
 11
6.25
 21
6.0
 73
2
  0
TEXT
  8
2
  6
CONTINUOUS
 62
7
 10
8.75
 20
6.7
 40
1.4
  1
autority is strictly forbidden
 41
7.5E-001
 50
9.0E+001
 11
8.75
 21
6.0
 73
2
  0
TEXT
  8
2
  6
CONTINUOUS
 62
7
 10
1.25
 20
6.0162564E+001
 40
1.4
  1
Ce document, propriété exclusive de notre
 41
7.5E-001
 50
9.0E+001
 11
1.25
 21
5.9462564E+001
 73
2
  0
TEXT
  8
2
  6
CONTINUOUS
 62
7
 10
3.75
 20
6.0162564E+001
 40
1.4
  1
société, est strictement confidentiel. Il ne peut
 41
7.5E-001
 50
9.0E+001
 11
3.75
 21
5.9462564E+001
 73
2
  0
TEXT
  8
2
  6
CONTINUOUS
 62
7
 10
6.25
 20
6.0162564E+001
 40
1.4
  1
être communiqué, copié ou reproduit sans son
 41
7.5E-001
 50
9.0E+001
 11
6.25
 21
5.9462564E+001
 73
2
  0
LINE
  8
2
  6
CONTINUOUS
 62
7
 10
1.0E+001
 20
5.0
 11
0.0
 21
5.0
  0
LINE
  8
2
  6
CONTINUOUS
 62
7
 10
3.0749644E+002
 20
2.0E+001
 11
3.0749644E+002
 21
4.0E+001
  0
LINE
  8
2
  6
CONTINUOUS
 62
7
 10
2.9749644E+002
 20
1.6000915E+001
 11
2.9749644E+002
 21
4.0E+001
  0
LINE
  8
2
  6
CONTINUOUS
 62
7
 10
3.1449644E+002
 20
2.0E+001
 11
3.1449644E+002
 21
4.0E+001
  0
TEXT
  8
1
  6
CONTINUOUS
 62
7
 10
2.2649419E+002
 20
2.2875E+001
 40
1.75
  1
DESCRIPTION
 41
7.0E-001
 11
2.2649419E+002
 21
2.2E+001
 73
2
  0
TEXT
  8
1
  6
CONTINUOUS
 62
7
 10
2.9494644E+002
 20
2.2875E+001
 40
1.75
  1
DATE
 41
7.0E-001
 72
1
 11
2.9249644E+002
 21
2.2E+001
 73
2
  0
TEXT
  8
1
  6
CONTINUOUS
 62
7
 10
3.0494644E+002
 20
2.2875E+001
 40
1.75
  1
N°OE
 41
7.0E-001
 72
1
 11
3.0249644E+002
 21
2.2E+001
 73
2
  0
TEXT
  8
1
  6
CONTINUOUS
 62
7
 10
3.1362144E+002
 20
2.2875E+001
 40
1.75
  1
Auteur
 41
5.0E-001
 72
1
 11
3.1099644E+002
 21
2.2E+001
 73
2
  0
TEXT
  8
1
  6
CONTINUOUS
 62
7
 10
3.2554644E+002
 20
2.2875E+001
 40
1.75
  1
Controlé
 41
6.5E-001
 72
1
 11
3.2099644E+002
 21
2.2E+001
 73
2
  0
TEXT
  8
1
  6
CONTINUOUS
 62
7
 10
3.2689644E+002
 20
1.9000457E+001
 40
2.0
  1
Service responsable: OEM
 41
6.0E-001
 72
1
 11
3.1249644E+002
 21
1.8000457E+001
 73
2
  0
TEXT
  8
1
  6
CONTINUOUS
 62
7
 10
2.4649515E+002
 20
1.9250457E+001
 40
2.5
  1
ABB Entrelec
 41
7.5E-001
 11
2.4649515E+002
 21
1.8000457E+001
 73
2
  0
TEXT
  8
1
  6
CONTINUOUS
 62
7
 10
2.4649515E+002
 20
1.4686428E+001
 40
1.5
  1
Titre
 11
2.4649515E+002
 21
1.3936428E+001
 73
2
  0
TEXT
  8
1
  6
CONTINUOUS
 62
7
 10
3.4143394E+002
 20
2.675E+001
 40
1.5
  1
ECHELLE
 41
7.5E-001
 72
1
 11
3.3749644E+002
 21
2.6E+001
 73
2
  0
TEXT
  8
2
  6
CONTINUOUS
 62
7
 10
3.8710271E+002
 20
3.8454406E+001
 40
2.5
  1
1
 41
6.65E-001
 11
3.8710271E+002
 21
3.5954406E+001
 73
3
  0
TEXT
  8
2
  6
CONTINUOUS
 62
7
 10
3.8676438E+002
 20
1.0780311E+002
 40
2.5
  1
2
 11
3.8676438E+002
 21
1.0530311E+002
 73
3
  0
TEXT
  8
2
  6
CONTINUOUS
 62
7
 10
3.8687801E+002
 20
1.7698651E+002
 40
2.5
  1
3
 11
3.8687801E+002
 21
1.7448651E+002
 73
3
  0
LINE
  8
2
  6
CONTINUOUS
 62
7
 10
3.8549644E+002
 20
6.925E+001
 11
3.9049515E+002
 21
6.925E+001
  0
LINE
  8
2
  6
CONTINUOUS
 62
7
 10
3.8549644E+002
 20
2.0775E+002
 11
3.9049515E+002
 21
2.0775E+002
  0
LINE
  8
2
  6
CONTINUOUS
 62
7
 10
3.9049515E+002
 20
1.385E+002
 11
3.8549644E+002
 21
1.385E+002
  0
POLYLINE
  8
1
  6
CONTINUOUS
 62
7
 66
1
 40
5.0E-001
 41
5.0E-001
 70
0
  0
VERTEX
  8
1
 42
0.0
 10
3.8549644E+002
 20
5.0
 70
0
  0
VERTEX
  8
1
 42
0.0
 10
3.8549644E+002
 20
2.72E+002
 70
0
  0
SEQEND
  0
LINE
  8
1
  6
CONTINUOUS
 62
7
 10
2.2205175E+002
 20
1.25E+001
 11
2.2405715E+002
 21
1.25E+001
  0
LINE
  8
1
  6
CONTINUOUS
 62
7
 10
2.2205175E+002
 20
1.25E+001
 11
2.2324315E+002
 21
1.5904E+001
  0
LINE
  8
1
  6
CONTINUOUS
 62
7
 10
2.2324315E+002
 20
1.5904E+001
 11
2.2405715E+002
 21
1.5904E+001
  0
LINE
  8
1
  6
CONTINUOUS
 62
7
 10
2.2405715E+002
 20
1.25E+001
 11
2.2405715E+002
 21
1.5904E+001
  0
LINE
  8
1
  6
CONTINUOUS
 62
7
 10
2.2464915E+002
 20
1.25E+001
 11
2.2665455E+002
 21
1.25E+001
  0
LINE
  8
1
  6
CONTINUOUS
 62
7
 10
2.2546315E+002
 20
1.5904E+001
 11
2.2665455E+002
 21
1.25E+001
  0
LINE
  8
1
  6
CONTINUOUS
 62
7
 10
2.2464915E+002
 20
1.5904E+001
 11
2.2546315E+002
 21
1.5904E+001
  0
LINE
  8
1
  6
CONTINUOUS
 62
7
 10
2.2464915E+002
 20
1.25E+001
 11
2.2464915E+002
 21
1.5904E+001
  0
LINE
  8
1
  6
CONTINUOUS
 62
7
 10
2.2405715E+002
 20
9.984
 11
2.2405715E+002
 21
1.1908E+001
  0
LINE
  8
1
  6
CONTINUOUS
 62
7
 10
2.2302115E+002
 20
9.984
 11
2.2405715E+002
 21
9.984
  0
LINE
  8
1
  6
CONTINUOUS
 62
7
 10
2.2250315E+002
 20
8.504
 11
2.2302115E+002
 21
9.984
  0
LINE
  8
1
  6
CONTINUOUS
 62
7
 10
2.2065315E+002
 20
8.504
 11
2.2250315E+002
 21
8.504
  0
LINE
  8
1
  6
CONTINUOUS
 62
7
 10
2.2065315E+002
 20
8.504
 11
2.2184455E+002
 21
1.1908E+001
  0
LINE
  8
1
  6
CONTINUOUS
 62
7
 10
2.2184455E+002
 20
1.1908E+001
 11
2.2405715E+002
 21
1.1908E+001
  0
LINE
  8
1
  6
CONTINUOUS
 62
7
 10
2.2464915E+002
 20
1.1908E+001
 11
2.2686175E+002
 21
1.1908E+001
  0
LINE
  8
1
  6
CONTINUOUS
 62
7
 10
2.2686175E+002
 20
1.1908E+001
 11
2.2805315E+002
 21
8.504
  0
LINE
  8
1
  6
CONTINUOUS
 62
7
 10
2.2620315E+002
 20
8.504
 11
2.2805315E+002
 21
8.504
  0
LINE
  8
1
  6
CONTINUOUS
 62
7
 10
2.2620315E+002
 20
8.504
 11
2.2568515E+002
 21
9.984
  0
LINE
  8
1
  6
CONTINUOUS
 62
7
 10
2.2464915E+002
 20
9.984
 11
2.2568515E+002
 21
9.984
  0
LINE
  8
1
  6
CONTINUOUS
 62
7
 10
2.2464915E+002
 20
9.984
 11
2.2464915E+002
 21
1.1908E+001
  0
LINE
  8
1
  6
CONTINUOUS
 62
7
 10
2.2857115E+002
 20
1.25E+001
 11
2.3049515E+002
 21
1.25E+001
  0
LINE
  8
1
  6
CONTINUOUS
 62
7
 10
2.2857115E+002
 20
1.5904E+001
 11
2.2857115E+002
 21
1.25E+001
  0
LINE
  8
1
  6
CONTINUOUS
 62
7
 10
2.2857115E+002
 20
1.5904E+001
 11
2.3049515E+002
 21
1.5904E+001
  0
LINE
  8
1
  6
CONTINUOUS
 62
7
 10
2.3049515E+002
 20
1.5904E+001
 11
2.3049515E+002
 21
1.25E+001
  0
LINE
  8
1
  6
CONTINUOUS
 62
7
 10
2.3108715E+002
 20
1.25E+001
 11
2.3286315E+002
 21
1.25E+001
  0
ARC
  8
1
  6
CONTINUOUS
 62
7
 10
2.3153115E+002
 20
1.0724E+001
 40
2.22
 50
5.3130102E+001
 51
6.8407484E+001
  0
ARC
  8
1
  6
CONTINUOUS
 62
7
 10
2.3153115E+002
 20
1.4239E+001
 40
1.665
 50
2.9938468E+002
 51
4.5E+002
  0
LINE
  8
1
  6
CONTINUOUS
 62
7
 10
2.3108715E+002
 20
1.5904E+001
 11
2.3153115E+002
 21
1.5904E+001
  0
LINE
  8
1
  6
CONTINUOUS
 62
7
 10
2.3108715E+002
 20
1.5904E+001
 11
2.3108715E+002
 21
1.25E+001
  0
LINE
  8
1
  6
CONTINUOUS
 62
7
 10
2.3049515E+002
 20
1.1908E+001
 11
2.3049515E+002
 21
8.504
  0
LINE
  8
1
  6
CONTINUOUS
 62
7
 10
2.2857115E+002
 20
8.504
 11
2.3049515E+002
 21
8.504
  0
LINE
  8
1
  6
CONTINUOUS
 62
7
 10
2.2857115E+002
 20
1.1908E+001
 11
2.2857115E+002
 21
8.504
  0
LINE
  8
1
  6
CONTINUOUS
 62
7
 10
2.2857115E+002
 20
1.1908E+001
 11
2.3049515E+002
 21
1.1908E+001
  0
LINE
  8
1
  6
CONTINUOUS
 62
7
 10
2.3108715E+002
 20
1.1908E+001
 11
2.3340906E+002
 21
1.1908E+001
  0
ARC
  8
1
  6
CONTINUOUS
 62
7
 10
2.3153115E+002
 20
1.0724E+001
 40
2.22
 50
2.7E+002
 51
3.9223095E+002
  0
LINE
  8
1
  6
CONTINUOUS
 62
7
 10
2.3108715E+002
 20
8.504
 11
2.3153115E+002
 21
8.504
  0
LINE
  8
1
  6
CONTINUOUS
 62
7
 10
2.3108715E+002
 20
1.1908E+001
 11
2.3108715E+002
 21
8.504
  0
LINE
  8
1
  6
CONTINUOUS
 62
7
 10
2.3434315E+002
 20
1.25E+001
 11
2.3626715E+002
 21
1.25E+001
  0
LINE
  8
1
  6
CONTINUOUS
 62
7
 10
2.3434315E+002
 20
1.5904E+001
 11
2.3434315E+002
 21
1.25E+001
  0
LINE
  8
1
  6
CONTINUOUS
 62
7
 10
2.3434315E+002
 20
1.5904E+001
 11
2.3626715E+002
 21
1.5904E+001
  0
LINE
  8
1
  6
CONTINUOUS
 62
7
 10
2.3626715E+002
 20
1.5904E+001
 11
2.3626715E+002
 21
1.25E+001
  0
LINE
  8
1
  6
CONTINUOUS
 62
7
 10
2.3685915E+002
 20
1.5904E+001
 11
2.3685915E+002
 21
1.25E+001
  0
LINE
  8
1
  6
CONTINUOUS
 62
7
 10
2.3685915E+002
 20
1.5904E+001
 11
2.3730315E+002
 21
1.5904E+001
  0
ARC
  8
1
  6
CONTINUOUS
 62
7
 10
2.3730315E+002
 20
1.4239E+001
 40
1.665
 50
2.9938468E+002
 51
4.5E+002
  0
ARC
  8
1
  6
CONTINUOUS
 62
7
 10
2.3730315E+002
 20
1.0724E+001
 40
2.22
 50
5.3130102E+001
 51
6.8407484E+001
  0
LINE
  8
1
  6
CONTINUOUS
 62
7
 10
2.3685915E+002
 20
1.25E+001
 11
2.3863515E+002
 21
1.25E+001
  0
LINE
  8
1
  6
CONTINUOUS
 62
7
 10
2.3626715E+002
 20
1.1908E+001
 11
2.3626715E+002
 21
8.504
  0
LINE
  8
1
  6
CONTINUOUS
 62
7
 10
2.3434315E+002
 20
8.504
 11
2.3626715E+002
 21
8.504
  0
LINE
  8
1
  6
CONTINUOUS
 62
7
 10
2.3434315E+002
 20
1.1908E+001
 11
2.3434315E+002
 21
8.504
  0
LINE
  8
1
  6
CONTINUOUS
 62
7
 10
2.3434315E+002
 20
1.1908E+001
 11
2.3626715E+002
 21
1.1908E+001
  0
LINE
  8
1
  6
CONTINUOUS
 62
7
 10
2.3685915E+002
 20
1.1908E+001
 11
2.3918106E+002
 21
1.1908E+001
  0
ARC
  8
1
  6
CONTINUOUS
 62
7
 10
2.3730315E+002
 20
1.0724E+001
 40
2.22
 50
2.7E+002
 51
3.9223095E+002
  0
LINE
  8
1
  6
CONTINUOUS
 62
7
 10
2.3685915E+002
 20
8.504
 11
2.3730315E+002
 21
8.504
  0
LINE
  8
1
  6
CONTINUOUS
 62
7
 10
2.3685915E+002
 20
1.1908E+001
 11
2.3685915E+002
 21
8.504
  0
LINE
  8
1
  6
CONTINUOUS
 62
7
 10
1.0E+001
 20
5.8462564E+001
 11
0.0
 21
5.8462564E+001
  0
LINE
  8
1
  6
CONTINUOUS
 62
7
 10
0.0
 20
1.1192513E+002
 11
1.0E+001
 21
1.1192513E+002
  0
ATTDEF
  8
1
  6
CONTINUOUS
 62
5
 10
2.2649419E+002
 20
2.6875E+001
 40
1.75
  1
 
 41
7.5E-001
 11
2.2649419E+002
 21
2.6E+001
  3
DESC-1
  2
DESC-1
 70
0
 73
2
 74
2
  0
ATTDEF
  8
1
  6
CONTINUOUS
 62
5
 10
2.2649419E+002
 20
3.0875E+001
 40
1.75
  1
 
 41
7.5E-001
 11
2.2649419E+002
 21
3.0E+001
  3
DESC-2
  2
DESC-2
 70
0
 73
2
 74
2
  0
ATTDEF
  8
1
  6
CONTINUOUS
 62
5
 10
2.2649419E+002
 20
3.4875E+001
 40
1.75
  1
 
 41
7.5E-001
 11
2.2649419E+002
 21
3.4E+001
  3
DESC-3
  2
DESC-3
 70
0
 73
2
 74
2
  0
ATTDEF
  8
1
  6
CONTINUOUS
 62
5
 10
2.2649419E+002
 20
3.8875E+001
 40
1.75
  1
 
 41
7.5E-001
 11
2.2649419E+002
 21
3.8E+001
  3
DESC-4
  2
DESC-4
 70
0
 73
2
 74
2
  0
ATTDEF
  8
1
  6
CONTINUOUS
 62
5
 10
2.9519644E+002
 20
2.69E+001
 40
1.8
  1
01.01.04
 41
6.0E-001
 72
1
 11
2.9249644E+002
 21
2.6E+001
  3
DATE1
  2
DATE1
 70
0
 73
2
 74
2
  0
ATTDEF
  8
1
  6
CONTINUOUS
 62
5
 10
2.9519644E+002
 20
3.09E+001
 40
1.8
  1
 
 41
6.0E-001
 72
1
 11
2.9249644E+002
 21
3.0E+001
  3
DATE2
  2
DATE2
 70
0
 73
2
 74
2
  0
ATTDEF
  8
1
  6
CONTINUOUS
 62
5
 10
2.9519644E+002
 20
3.49E+001
 40
1.8
  1
 
 41
6.0E-001
 72
1
 11
2.9249644E+002
 21
3.4E+001
  3
DATE3
  2
DATE3
 70
0
 73
2
 74
2
  0
ATTDEF
  8
1
  6
CONTINUOUS
 62
5
 10
2.9519644E+002
 20
3.89E+001
 40
1.8
  1
 
 41
6.0E-001
 72
1
 11
2.9249644E+002
 21
3.8E+001
  3
DATE4
  2
DATE4
 70
0
 73
2
 74
2
  0
ATTDEF
  8
1
  6
CONTINUOUS
 62
5
 10
3.0452144E+002
 20
2.69E+001
 40
1.8
  1
12345
 41
7.5E-001
 72
1
 11
3.0249644E+002
 21
2.6E+001
  3
OE1
  2
OE1
 70
0
 73
2
 74
2
  0
ATTDEF
  8
1
  6
CONTINUOUS
 62
5
 10
3.0452144E+002
 20
3.09E+001
 40
1.8
  1
 
 41
7.5E-001
 72
1
 11
3.0249644E+002
 21
3.0E+001
  3
OE2
  2
OE2
 70
0
 73
2
 74
2
  0
ATTDEF
  8
1
  6
CONTINUOUS
 62
5
 10
3.0452144E+002
 20
3.49E+001
 40
1.8
  1
 
 41
7.5E-001
 72
1
 11
3.0249644E+002
 21
3.4E+001
  3
OE3
  2
OE3
 70
0
 73
2
 74
2
  0
ATTDEF
  8
1
  6
CONTINUOUS
 62
5
 10
3.0452144E+002
 20
3.89E+001
 40
1.8
  1
 
 41
7.5E-001
 72
1
 11
3.0249644E+002
 21
3.8E+001
  3
OE4
  2
OE4
 70
0
 73
2
 74
2
  0
ATTDEF
  8
1
  6
CONTINUOUS
 62
5
 10
3.1369644E+002
 20
2.69E+001
 40
1.8
  1
 
 41
7.5E-001
 72
1
 11
3.1099644E+002
 21
2.6E+001
  3
AUT1
  2
AUT1
 70
0
 73
2
 74
2
  0
ATTDEF
  8
1
  6
CONTINUOUS
 62
5
 10
3.1369644E+002
 20
3.09E+001
 40
1.8
  1
 
 41
7.5E-001
 72
1
 11
3.1099644E+002
 21
3.0E+001
  3
AUT2
  2
AUT2
 70
0
 73
2
 74
2
  0
ATTDEF
  8
1
  6
CONTINUOUS
 62
5
 10
3.1369644E+002
 20
3.49E+001
 40
1.8
  1
 
 41
7.5E-001
 72
1
 11
3.1099644E+002
 21
3.4E+001
  3
AUT3
  2
AUT3
 70
0
 73
2
 74
2
  0
ATTDEF
  8
1
  6
CONTINUOUS
 62
5
 10
3.1369644E+002
 20
3.89E+001
 40
1.8
  1
 
 41
7.5E-001
 72
1
 11
3.1099644E+002
 21
3.8E+001
  3
AUT4
  2
AUT4
 70
0
 73
2
 74
2
  0
ATTDEF
  8
1
  6
CONTINUOUS
 62
5
 10
3.1540529E+002
 20
2.69E+001
 40
1.8
  1
 
 41
7.5E-001
 11
3.1540529E+002
 21
2.6E+001
  3
CONT1
  2
CONT1
 70
0
 73
2
 74
2
  0
ATTDEF
  8
1
  6
CONTINUOUS
 62
5
 10
3.1540529E+002
 20
3.09E+001
 40
1.8
  1
 
 41
7.5E-001
 11
3.1540529E+002
 21
3.0E+001
  3
CONT2
  2
CONT2
 70
0
 73
2
 74
2
  0
ATTDEF
  8
1
  6
CONTINUOUS
 62
5
 10
3.1540529E+002
 20
3.49E+001
 40
1.8
  1
 
 41
7.5E-001
 11
3.1540529E+002
 21
3.4E+001
  3
CONT3
  2
CONT3
 70
0
 73
2
 74
2
  0
ATTDEF
  8
1
  6
CONTINUOUS
 62
5
 10
3.1540529E+002
 20
3.89E+001
 40
1.8
  1
 
 41
7.5E-001
 11
3.1540529E+002
 21
3.8E+001
  3
CONT4
  2
CONT4
 70
0
 73
2
 74
2
  0
LINE
  8
2
  6
CONTINUOUS
 62
7
 10
2.2749903E+002
 20
2.72E+002
 11
2.2749903E+002
 21
2.77E+002
  0
LINE
  8
1
  6
CONTINUOUS
 62
7
 10
1.85E+002
 20
2.77E+002
 11
1.85E+002
 21
2.72E+002
  0
LINE
  8
1
  6
CONTINUOUS
 62
7
 10
2.6999806E+002
 20
2.77E+002
 11
2.6999806E+002
 21
2.72E+002
  0
LINE
  8
1
  6
CONTINUOUS
 62
7
 10
3.5499612E+002
 20
2.77E+002
 11
3.5499612E+002
 21
2.72E+002
  0
LINE
  8
2
  6
CONTINUOUS
 62
7
 10
3.1249709E+002
 20
2.72E+002
 11
3.1249709E+002
 21
2.77E+002
  0
LINE
  8
2
  6
CONTINUOUS
 62
7
 10
3.9049515E+002
 20
0.0
 11
3.9049515E+002
 21
2.77E+002
  0
POLYLINE
  8
1
  6
CONTINUOUS
 62
7
 66
1
 40
5.0E-001
 41
5.0E-001
 70
0
  0
VERTEX
  8
1
 42
0.0
 10
2.1549515E+002
 20
4.0E+001
 70
0
  0
VERTEX
  8
1
 42
0.0
 10
2.1549515E+002
 20
5.0
 70
0
  0
SEQEND
  0
TEXT
  8
2
  6
CONTINUOUS
 62
7
 10
2.0983526E+002
 20
2.760248E+002
 40
2.5
  1
E
 72
1
 11
2.0858526E+002
 21
2.747748E+002
 73
2
  0
TEXT
  8
2
  6
CONTINUOUS
 62
7
 10
2.4999854E+002
 20
2.7575E+002
 40
2.5
  1
D
 72
1
 11
2.4874854E+002
 21
2.745E+002
 73
2
  0
TEXT
  8
2
  6
CONTINUOUS
 62
7
 10
2.9249757E+002
 20
2.7575E+002
 40
2.5
  1
C
 72
1
 11
2.9124757E+002
 21
2.745E+002
 73
2
  0
TEXT
  8
2
  6
CONTINUOUS
 62
7
 10
3.349966E+002
 20
2.7575E+002
 40
2.5
  1
B
 72
1
 11
3.337466E+002
 21
2.745E+002
 73
2
  0
TEXT
  8
2
  6
CONTINUOUS
 62
7
 10
3.7749563E+002
 20
2.7575E+002
 40
2.5
  1
A
 72
1
 11
3.7624563E+002
 21
2.745E+002
 73
2
  0
POINT
  8
Drafting_Hidden_Entities
  6
CONTINUOUS
 62
1
 10
0.0
 20
0.0
  0
ENDBLK
  0
BLOCK
  2
SCHEMA
 10
0.0
 20
0.0
 70
0
  0
LINE
  8
1
  6
CONTINUOUS
 62
7
 10
-2.6E+001
 20
-4.0955422E+001
 11
-2.4E+001
 21
-4.0955422E+001
  0
LINE
  8
1
  6
CONTINUOUS
 62
7
 10
-2.6E+001
 20
-4.5955422E+001
 11
-2.5E+001
 21
-3.9955422E+001
  0
LINE
  8
1
  6
CONTINUOUS
 62
7
 10
0.0
 20
-4.0955422E+001
 11
2.0
 21
-4.0955422E+001
  0
LINE
  8
1
  6
CONTINUOUS
 62
7
 10
0.0
 20
-4.5955422E+001
 11
1.0
 21
-3.9955422E+001
  0
LINE
  8
1
  6
CONTINUOUS
 62
7
 10
0.0
 20
-4.5955422E+001
 11
0.0
 21
-5.5E+001
  0
LINE
  8
1
  6
CONTINUOUS
 62
7
 10
-2.6E+001
 20
-4.5955422E+001
 11
-2.6E+001
 21
-5.5E+001
  0
LINE
  8
1
  6
CONTINUOUS
 62
7
 10
-2.9E+001
 20
-4.0198774E+001
 11
-2.65E+001
 21
-4.0198774E+001
  0
LINE
  8
1
  6
CONTINUOUS
 62
7
 10
2.882E+001
 20
8.7930833E+001
 11
2.882E+001
 21
8.4930833E+001
  0
LINE
  8
1
  6
CONTINUOUS
 62
7
 10
3.132E+001
 20
8.7930833E+001
 11
3.132E+001
 21
8.4930833E+001
  0
LINE
  8
1
  6
CONTINUOUS
 62
7
 10
-2.65E+001
 20
-3.7198774E+001
 11
-2.65E+001
 21
-4.0198774E+001
  0
LINE
  8
1
  6
CONTINUOUS
 62
7
 10
2.882E+001
 20
8.7930833E+001
 11
3.132E+001
 21
8.7930833E+001
  0
LINE
  8
1
  6
CONTINUOUS
 62
7
 10
2.882E+001
 20
8.4930833E+001
 11
3.132E+001
 21
8.4930833E+001
  0
LINE
  8
1
  6
CONTINUOUS
 62
7
 10
3.132E+001
 20
9.8756648E+001
 11
3.132E+001
 21
9.5756648E+001
  0
ARC
  8
1
  6
CONTINUOUS
 62
7
 10
9.0
 20
9.573785E+001
 40
1.25
 50
9.0E+001
 51
2.7E+002
  0
ARC
  8
1
  6
CONTINUOUS
 62
7
 10
4.0
 20
9.575E+001
 40
1.25
 50
9.0E+001
 51
2.7E+002
  0
ARC
  8
1
  6
CONTINUOUS
 62
7
 10
-1.0
 20
9.575E+001
 40
1.25
 50
9.0E+001
 51
2.7E+002
  0
ARC
  8
1
  6
CONTINUOUS
 62
7
 10
5.482E+001
 20
9.575E+001
 40
1.25
 50
9.0E+001
 51
2.7E+002
  0
ARC
  8
1
  6
CONTINUOUS
 62
7
 10
5.982E+001
 20
9.575E+001
 40
1.25
 50
9.0E+001
 51
2.7E+002
  0
ARC
  8
1
  6
CONTINUOUS
 62
7
 10
6.482E+001
 20
9.575E+001
 40
1.25
 50
9.0E+001
 51
2.7E+002
  0
LINE
  8
1
  6
CONTINUOUS
 62
7
 10
2.882E+001
 20
9.5756648E+001
 11
3.132E+001
 21
9.5756648E+001
  0
LINE
  8
1
  6
CONTINUOUS
 62
7
 10
2.882E+001
 20
9.8756648E+001
 11
3.132E+001
 21
9.8756648E+001
  0
LINE
  8
1
  6
CONTINUOUS
 62
7
 10
2.882E+001
 20
9.8756648E+001
 11
2.882E+001
 21
9.5756648E+001
  0
LINE
  8
1
  6
CONTINUOUS
 62
7
 10
2.682E+001
 20
9.9773869E+001
 11
2.232E+001
 21
9.9773869E+001
  0
LINE
  8
1
  6
CONTINUOUS
 62
7
 10
1.932E+001
 20
9.9773869E+001
 11
1.65E+001
 21
9.9773869E+001
  0
LINE
  8
1
  6
CONTINUOUS
 62
7
 10
2.132E+001
 20
9.9773869E+001
 11
2.032E+001
 21
9.9773869E+001
  0
LINE
  8
1
  6
CONTINUOUS
 62
7
 10
2.882E+001
 20
9.9773869E+001
 11
2.782E+001
 21
9.9773869E+001
  0
LINE
  8
1
  6
CONTINUOUS
 62
7
 10
3.0054253E+001
 20
9.975385E+001
 11
3.4323657E+001
 21
9.975385E+001
  0
LINE
  8
1
  6
CONTINUOUS
 62
7
 10
-2.9E+001
 20
-3.7198774E+001
 11
-2.65E+001
 21
-3.7198774E+001
  0
LINE
  8
1
  6
CONTINUOUS
 62
7
 10
-2.9E+001
 20
-3.7198774E+001
 11
-2.9E+001
 21
-4.0198774E+001
  0
LINE
  8
1
  6
CONTINUOUS
 62
7
 10
-2.9E+001
 20
-4.9024589E+001
 11
-2.65E+001
 21
-4.9024589E+001
  0
LINE
  8
1
  6
CONTINUOUS
 62
7
 10
-2.65E+001
 20
-4.6024589E+001
 11
-2.65E+001
 21
-4.9024589E+001
  0
LINE
  8
1
  6
CONTINUOUS
 62
7
 10
1.65E+001
 20
9.9773869E+001
 11
1.65E+001
 21
9.4559308E+001
  0
LINE
  8
1
  6
CONTINUOUS
 62
7
 10
1.65E+001
 20
9.3559308E+001
 11
1.65E+001
 21
9.2559308E+001
  0
LINE
  8
1
  6
CONTINUOUS
 62
7
 10
1.65E+001
 20
8.7059308E+001
 11
1.65E+001
 21
9.1559308E+001
  0
LINE
  8
1
  6
CONTINUOUS
 62
7
 10
1.65E+001
 20
8.6020019E+001
 11
1.65E+001
 21
8.3951075E+001
  0
LINE
  8
1
  6
CONTINUOUS
 62
7
 10
-2.9E+001
 20
-4.6024589E+001
 11
-2.65E+001
 21
-4.6024589E+001
  0
LINE
  8
1
  6
CONTINUOUS
 62
7
 10
-2.9E+001
 20
-4.6024589E+001
 11
-2.9E+001
 21
-4.9024589E+001
  0
LINE
  8
1
  6
CONTINUOUS
 62
7
 10
5.1E+001
 20
-4.6024589E+001
 11
5.1E+001
 21
-4.9024589E+001
  0
LINE
  8
1
  6
CONTINUOUS
 62
7
 10
5.1E+001
 20
-4.6024589E+001
 11
5.35E+001
 21
-4.6024589E+001
  0
LINE
  8
1
  6
CONTINUOUS
 62
7
 10
5.35E+001
 20
-4.6024589E+001
 11
5.35E+001
 21
-4.9024589E+001
  0
LINE
  8
1
  6
CONTINUOUS
 62
7
 10
2.932E+001
 20
7.6E+001
 11
3.482E+001
 21
7.6E+001
  0
LINE
  8
1
  6
CONTINUOUS
 62
7
 10
5.1E+001
 20
-4.9024589E+001
 11
5.35E+001
 21
-4.9024589E+001
  0
LINE
  8
1
  6
CONTINUOUS
 62
7
 10
5.1E+001
 20
-4.0198774E+001
 11
5.35E+001
 21
-4.0198774E+001
  0
LINE
  8
1
  6
CONTINUOUS
 62
7
 10
5.35E+001
 20
-3.7198774E+001
 11
5.35E+001
 21
-4.0198774E+001
  0
LINE
  8
1
  6
CONTINUOUS
 62
7
 10
5.1E+001
 20
-3.7198774E+001
 11
5.35E+001
 21
-3.7198774E+001
  0
LINE
  8
1
  6
CONTINUOUS
 62
7
 10
3.4323657E+001
 20
8.6059308E+001
 11
3.4323657E+001
 21
8.3931056E+001
  0
LINE
  8
1
  6
CONTINUOUS
 62
7
 10
3.4323657E+001
 20
9.1559308E+001
 11
3.4323657E+001
 21
8.7059308E+001
  0
LINE
  8
1
  6
CONTINUOUS
 62
7
 10
3.4323657E+001
 20
9.3559308E+001
 11
3.4323657E+001
 21
9.2559308E+001
  0
LINE
  8
1
  6
CONTINUOUS
 62
7
 10
3.4323657E+001
 20
9.975385E+001
 11
3.4323657E+001
 21
9.4559308E+001
  0
LINE
  8
1
  6
CONTINUOUS
 62
7
 10
5.1E+001
 20
-3.7198774E+001
 11
5.1E+001
 21
-4.0198774E+001
  0
LINE
  8
1
  6
HIDDEN
 62
7
 10
6.6505406E+001
 20
-4.3455422E+001
 11
5.4416667E+001
 21
-4.3455422E+001
  0
LINE
  8
1
  6
HIDDEN
 62
7
 10
8.25E+001
 20
-5.7E+001
 11
6.6505406E+001
 21
-4.3455422E+001
  0
LINE
  8
1
  6
HIDDEN
 62
7
 10
6.65E+001
 20
-5.7E+001
 11
8.2494594E+001
 21
-4.3455422E+001
  0
LINE
  8
1
  6
HIDDEN
 62
7
 10
8.2494594E+001
 20
-4.3455422E+001
 11
9.6416667E+001
 21
-4.3455422E+001
  0
LINE
  8
1
  6
CONTINUOUS
 62
7
 10
1.932E+001
 20
8.3951075E+001
 11
1.65E+001
 21
8.3951075E+001
  0
LINE
  8
1
  6
CONTINUOUS
 62
7
 10
2.132E+001
 20
8.3951075E+001
 11
2.032E+001
 21
8.3951075E+001
  0
LINE
  8
1
  6
CONTINUOUS
 62
7
 10
2.682E+001
 20
8.3951075E+001
 11
2.232E+001
 21
8.3951075E+001
  0
LINE
  8
1
  6
CONTINUOUS
 62
7
 10
2.882E+001
 20
8.3951075E+001
 11
2.782E+001
 21
8.3951075E+001
  0
LINE
  8
1
  6
CONTINUOUS
 62
7
 10
3.0054253E+001
 20
8.3931056E+001
 11
3.4323657E+001
 21
8.3931056E+001
  0
TEXT
  8
1
  6
CONTINUOUS
 62
7
 10
1.1E+002
 20
1.075E+002
 40
2.25
  1
(1)
 41
7.5E-001
  0
LINE
  8
1
  6
CONTINUOUS
 62
7
 10
3.0
 20
2.0E+001
 11
3.0
 21
1.9E+001
  0
LINE
  8
1
  6
CONTINUOUS
 62
7
 10
3.0
 20
2.0E+001
 11
5.0
 21
2.0E+001
  0
LINE
  8
1
  6
CONTINUOUS
 62
7
 10
3.0
 20
1.9E+001
 11
5.0
 21
1.9E+001
  0
LINE
  8
1
  6
CONTINUOUS
 62
7
 10
5.0
 20
1.9E+001
 11
5.0
 21
1.8E+001
  0
LINE
  8
1
  6
CONTINUOUS
 62
7
 10
5.0
 20
2.0E+001
 11
5.0
 21
2.1E+001
  0
TEXT
  8
1
  6
CONTINUOUS
 62
7
 10
5.5
 20
1.8631385E+001
 40
2.0
  1
FR1
 41
7.5E-001
  0
LINE
  8
1
  6
HIDDEN
 62
7
 10
-7.9070297
 20
1.948785E+001
 11
3.0
 21
1.948785E+001
  0
LINE
  8
1
  6
CONTINUOUS
 62
7
 10
1.3527259E+002
 20
-3.7265051E+001
 11
1.3827259E+002
 21
-3.7265051E+001
  0
LINE
  8
1
  6
CONTINUOUS
 62
7
 10
1.3527259E+002
 20
-3.7265051E+001
 11
1.3527259E+002
 21
-3.4765051E+001
  0
LINE
  8
1
  6
CONTINUOUS
 62
7
 10
1.3527259E+002
 20
-3.4765051E+001
 11
1.3827259E+002
 21
-3.4765051E+001
  0
LINE
  8
1
  6
CONTINUOUS
 62
7
 10
1.3827259E+002
 20
-3.7265051E+001
 11
1.3827259E+002
 21
-3.4765051E+001
  0
TEXT
  8
1
  6
CONTINUOUS
 62
7
 10
1.325E+001
 20
9.6E+001
 40
2.0
  1
13
 41
7.5E-001
 50
9.0E+001
  0
TEXT
  8
1
  6
CONTINUOUS
 62
7
 10
1.325E+001
 20
8.5E+001
 40
2.0
  1
14
 41
7.5E-001
 50
9.0E+001
  0
TEXT
  8
1
  6
CONTINUOUS
 62
7
 10
6.907E+001
 20
9.6E+001
 40
2.0
  1
13
 41
7.5E-001
 50
9.0E+001
  0
LINE
  8
1
  6
CONTINUOUS
 62
7
 10
6.982E+001
 20
9.45E+001
 11
6.982E+001
 21
1.0127387E+002
  0
LINE
  8
1
  6
CONTINUOUS
 62
7
 10
6.982E+001
 20
8.95E+001
 11
6.982E+001
 21
8.2451075E+001
  0
TEXT
  8
1
  6
CONTINUOUS
 62
7
 10
6.907E+001
 20
8.5E+001
 40
2.0
  1
14
 41
7.5E-001
 50
9.0E+001
  0
LINE
  8
1
  6
CONTINUOUS
 62
7
 10
-5.276E+001
 20
-2.8022169E+001
 11
-5.476E+001
 21
-2.3022169E+001
  0
LINE
  8
1
  6
CONTINUOUS
 62
7
 10
-5.276E+001
 20
-3.600215E+001
 11
-5.276E+001
 21
-2.8022169E+001
  0
LINE
  8
1
  6
HIDDEN
 62
7
 10
-5.376E+001
 20
-2.5522169E+001
 11
-5.876E+001
 21
-2.5522169E+001
  0
LINE
  8
1
  6
CONTINUOUS
 62
7
 10
-5.726E+001
 20
-2.3522169E+001
 11
-5.876E+001
 21
-2.3522169E+001
  0
TEXT
  8
1
  6
CONTINUOUS
 62
7
 10
-6.106E+001
 20
-2.6522169E+001
 40
2.0
  1
I
 41
7.5E-001
  0
LINE
  8
1
  6
CONTINUOUS
 62
7
 10
-5.876E+001
 20
-2.3522169E+001
 11
-5.876E+001
 21
-2.7522169E+001
  0
LINE
  8
1
  6
CONTINUOUS
 62
7
 10
-5.726E+001
 20
-2.7522169E+001
 11
-5.876E+001
 21
-2.7522169E+001
  0
LINE
  8
1
  6
CONTINUOUS
 62
7
 10
4.199986E+001
 20
-1.5532169E+001
 11
3.499986E+001
 21
-1.5532169E+001
  0
LINE
  8
1
  6
CONTINUOUS
 62
7
 10
-5.726E+001
 20
-5.522169
 11
-5.876E+001
 21
-5.522169
  0
LINE
  8
1
  6
CONTINUOUS
 62
7
 10
-5.876E+001
 20
-5.522169
 11
-5.876E+001
 21
-9.522169
  0
LINE
  8
1
  6
CONTINUOUS
 62
7
 10
-5.726E+001
 20
-9.522169
 11
-5.876E+001
 21
-9.522169
  0
LINE
  8
1
  6
HIDDEN
 62
7
 10
-5.376E+001
 20
-7.522169
 11
-5.876E+001
 21
-7.522169
  0
TEXT
  8
1
  6
CONTINUOUS
 62
7
 10
-5.781E+001
 20
-8.522169
 40
2.0
  1
II 
 41
7.5E-001
 72
1
 11
-6.006E+001
 21
-8.522169
  0
LINE
  8
1
  6
CONTINUOUS
 62
7
 10
-5.276E+001
 20
-1.0022169E+001
 11
-5.276E+001
 21
-2.3022169E+001
  0
LINE
  8
1
  6
CONTINUOUS
 62
7
 10
-5.276E+001
 20
-2.022169
 11
-5.276E+001
 21
-5.022169
  0
LINE
  8
1
  6
HIDDEN
 62
7
 10
-5.0054061
 20
-4.3455422E+001
 11
4.1666667E-001
 21
-4.3455422E+001
  0
LINE
  8
1
  6
CONTINUOUS
 62
7
 10
-5.276E+001
 20
-5.022169
 11
-5.076E+001
 21
-5.022169
  0
LINE
  8
1
  6
CONTINUOUS
 62
7
 10
-5.276E+001
 20
-1.0022169E+001
 11
-5.176E+001
 21
-4.022169
  0
LINE
  8
1
  6
CONTINUOUS
 62
7
 10
3.499986E+001
 20
-1.5532169E+001
 11
3.499986E+001
 21
-2.0532169E+001
  0
TEXT
  8
1
  6
CONTINUOUS
 62
7
 10
3.424986E+001
 20
-1.9532169E+001
 40
2.0
  1
67
 41
7.5E-001
 50
9.0E+001
  0
LINE
  8
1
  6
CONTINUOUS
 62
7
 10
3.499986E+001
 20
-2.5532169E+001
 11
3.299986E+001
 21
-2.0532169E+001
  0
LINE
  8
1
  6
CONTINUOUS
 62
7
 10
3.499986E+001
 20
-3.0532169E+001
 11
3.499986E+001
 21
-2.5532169E+001
  0
LINE
  8
1
  6
HIDDEN
 62
7
 10
-2.1E+001
 20
-5.7E+001
 11
-5.0054061
 21
-4.3455422E+001
  0
LINE
  8
1
  6
HIDDEN
 62
7
 10
-5.376E+001
 20
-7.522169
 11
-4.976E+001
 21
-7.522169
  0
LINE
  8
1
  6
CONTINUOUS
 62
7
 10
-6.3234293E+001
 20
1.284274E+002
 11
-6.15E+001
 21
1.284274E+002
  0
LINE
  8
1
  6
CONTINUOUS
 62
7
 10
-6.15E+001
 20
1.284274E+002
 11
-6.15E+001
 21
1.317474E+002
  0
LINE
  8
1
  6
CONTINUOUS
 62
7
 10
-6.15E+001
 20
1.317474E+002
 11
-6.2072293E+001
 21
1.317474E+002
  0
LINE
  8
1
  6
CONTINUOUS
 62
7
 10
-6.2072293E+001
 20
1.317474E+002
 11
-6.3234293E+001
 21
1.284274E+002
  0
LINE
  8
1
  6
CONTINUOUS
 62
7
 10
-6.2980587E+001
 20
1.286074E+002
 11
-6.168E+001
 21
1.286074E+002
  0
LINE
  8
1
  6
CONTINUOUS
 62
7
 10
-6.168E+001
 20
1.286074E+002
 11
-6.168E+001
 21
1.315674E+002
  0
LINE
  8
1
  6
CONTINUOUS
 62
7
 10
-6.168E+001
 20
1.315674E+002
 11
-6.1944587E+001
 21
1.315674E+002
  0
LINE
  8
1
  6
CONTINUOUS
 62
7
 10
-6.1944587E+001
 20
1.315674E+002
 11
-6.2980587E+001
 21
1.286074E+002
  0
LINE
  8
1
  6
CONTINUOUS
 62
7
 10
-6.272688E+001
 20
1.287874E+002
 11
-6.186E+001
 21
1.287874E+002
  0
LINE
  8
1
  6
CONTINUOUS
 62
7
 10
-6.186E+001
 20
1.287874E+002
 11
-6.186E+001
 21
1.312642E+002
  0
LINE
  8
1
  6
CONTINUOUS
 62
7
 10
-6.186E+001
 20
1.312642E+002
 11
-6.272688E+001
 21
1.287874E+002
  0
LINE
  8
1
  6
CONTINUOUS
 62
7
 10
-6.2473174E+001
 20
1.289674E+002
 11
-6.204E+001
 21
1.289674E+002
  0
LINE
  8
1
  6
CONTINUOUS
 62
7
 10
-6.204E+001
 20
1.289674E+002
 11
-6.204E+001
 21
1.3020504E+002
  0
LINE
  8
1
  6
CONTINUOUS
 62
7
 10
-6.204E+001
 20
1.3020504E+002
 11
-6.2473174E+001
 21
1.289674E+002
  0
LINE
  8
1
  6
CONTINUOUS
 62
7
 10
-6.2261752E+001
 20
1.291174E+002
 11
-6.219E+001
 21
1.291174E+002
  0
LINE
  8
1
  6
CONTINUOUS
 62
7
 10
-6.219E+001
 20
1.291174E+002
 11
-6.219E+001
 21
1.2932241E+002
  0
LINE
  8
1
  6
CONTINUOUS
 62
7
 10
-6.219E+001
 20
1.2932241E+002
 11
-6.2261752E+001
 21
1.291174E+002
  0
LINE
  8
1
  6
CONTINUOUS
 62
7
 10
-6.05E+001
 20
1.284274E+002
 11
-6.05E+001
 21
1.317474E+002
  0
LINE
  8
1
  6
CONTINUOUS
 62
7
 10
-6.05E+001
 20
1.317474E+002
 11
-5.9927707E+001
 21
1.317474E+002
  0
LINE
  8
1
  6
CONTINUOUS
 62
7
 10
-5.9927707E+001
 20
1.317474E+002
 11
-5.8765707E+001
 21
1.284274E+002
  0
LINE
  8
1
  6
CONTINUOUS
 62
7
 10
-5.8765707E+001
 20
1.284274E+002
 11
-6.05E+001
 21
1.284274E+002
  0
LINE
  8
1
  6
CONTINUOUS
 62
7
 10
-6.032E+001
 20
1.286074E+002
 11
-6.032E+001
 21
1.315674E+002
  0
LINE
  8
1
  6
CONTINUOUS
 62
7
 10
-6.032E+001
 20
1.315674E+002
 11
-6.0055413E+001
 21
1.315674E+002
  0
LINE
  8
1
  6
CONTINUOUS
 62
7
 10
-6.0055413E+001
 20
1.315674E+002
 11
-5.9019413E+001
 21
1.286074E+002
  0
LINE
  8
1
  6
CONTINUOUS
 62
7
 10
-5.9019413E+001
 20
1.286074E+002
 11
-6.032E+001
 21
1.286074E+002
  0
LINE
  8
1
  6
CONTINUOUS
 62
7
 10
-6.014E+001
 20
1.287874E+002
 11
-6.014E+001
 21
1.312642E+002
  0
LINE
  8
1
  6
CONTINUOUS
 62
7
 10
-6.014E+001
 20
1.312642E+002
 11
-5.927312E+001
 21
1.287874E+002
  0
LINE
  8
1
  6
CONTINUOUS
 62
7
 10
-5.927312E+001
 20
1.287874E+002
 11
-6.014E+001
 21
1.287874E+002
  0
LINE
  8
1
  6
CONTINUOUS
 62
7
 10
-5.996E+001
 20
1.289674E+002
 11
-5.996E+001
 21
1.3020504E+002
  0
LINE
  8
1
  6
CONTINUOUS
 62
7
 10
-5.996E+001
 20
1.3020504E+002
 11
-5.9526826E+001
 21
1.289674E+002
  0
LINE
  8
1
  6
CONTINUOUS
 62
7
 10
-5.9526826E+001
 20
1.289674E+002
 11
-5.996E+001
 21
1.289674E+002
  0
LINE
  8
1
  6
CONTINUOUS
 62
7
 10
-5.9738248E+001
 20
1.291174E+002
 11
-5.981E+001
 21
1.291174E+002
  0
LINE
  8
1
  6
CONTINUOUS
 62
7
 10
-5.981E+001
 20
1.291174E+002
 11
-5.981E+001
 21
1.2932241E+002
  0
LINE
  8
1
  6
CONTINUOUS
 62
7
 10
-5.981E+001
 20
1.2932241E+002
 11
-5.9738248E+001
 21
1.291174E+002
  0
LINE
  8
1
  6
CONTINUOUS
 62
7
 10
-6.4746293E+001
 20
1.241074E+002
 11
-6.3584293E+001
 21
1.274274E+002
  0
LINE
  8
1
  6
CONTINUOUS
 62
7
 10
-6.22E+001
 20
1.319274E+002
 11
-6.132E+001
 21
1.319274E+002
  0
LINE
  8
1
  6
CONTINUOUS
 62
7
 10
-6.3E+001
 20
1.239274E+002
 11
-6.5E+001
 21
1.239274E+002
  0
LINE
  8
1
  6
CONTINUOUS
 62
7
 10
-6.3584293E+001
 20
1.274274E+002
 11
-6.15E+001
 21
1.274274E+002
  0
LINE
  8
1
  6
CONTINUOUS
 62
7
 10
-6.5E+001
 20
1.239274E+002
 11
-6.3712E+001
 21
1.276074E+002
  0
LINE
  8
1
  6
CONTINUOUS
 62
7
 10
-5.98E+001
 20
1.319274E+002
 11
-5.8512E+001
 21
1.282474E+002
  0
LINE
  8
1
  6
CONTINUOUS
 62
7
 10
-5.956E+001
 20
1.255274E+002
 11
-5.9E+001
 21
1.239274E+002
  0
LINE
  8
1
  6
CONTINUOUS
 62
7
 10
-6.3E+001
 20
1.239274E+002
 11
-6.244E+001
 21
1.255274E+002
  0
LINE
  8
1
  6
CONTINUOUS
 62
7
 10
-5.644E+001
 20
1.239274E+002
 11
-5.436E+001
 21
1.239274E+002
  0
LINE
  8
1
  6
CONTINUOUS
 62
7
 10
-5.644E+001
 20
1.319274E+002
 11
-5.436E+001
 21
1.319274E+002
  0
LINE
  8
1
  6
CONTINUOUS
 62
7
 10
-6.244E+001
 20
1.255274E+002
 11
-6.132E+001
 21
1.255274E+002
  0
LINE
  8
1
  6
CONTINUOUS
 62
7
 10
-5.9E+001
 20
1.239274E+002
 11
-5.7E+001
 21
1.239274E+002
  0
LINE
  8
1
  6
CONTINUOUS
 62
7
 10
-6.3712E+001
 20
1.276074E+002
 11
-6.132E+001
 21
1.276074E+002
  0
LINE
  8
1
  6
CONTINUOUS
 62
7
 10
-6.3488E+001
 20
1.282474E+002
 11
-6.132E+001
 21
1.282474E+002
  0
LINE
  8
1
  6
CONTINUOUS
 62
7
 10
-6.132E+001
 20
1.255274E+002
 11
-6.132E+001
 21
1.276074E+002
  0
LINE
  8
1
  6
CONTINUOUS
 62
7
 10
-6.068E+001
 20
1.255274E+002
 11
-6.068E+001
 21
1.276074E+002
  0
LINE
  8
1
  6
CONTINUOUS
 62
7
 10
-6.068E+001
 20
1.255274E+002
 11
-5.956E+001
 21
1.255274E+002
  0
LINE
  8
1
  6
CONTINUOUS
 62
7
 10
-6.068E+001
 20
1.276074E+002
 11
-5.8288E+001
 21
1.276074E+002
  0
LINE
  8
1
  6
CONTINUOUS
 62
7
 10
-6.3488E+001
 20
1.282474E+002
 11
-6.22E+001
 21
1.319274E+002
  0
LINE
  8
1
  6
CONTINUOUS
 62
7
 10
-6.068E+001
 20
1.282474E+002
 11
-5.8512E+001
 21
1.282474E+002
  0
LINE
  8
1
  6
CONTINUOUS
 62
7
 10
-6.068E+001
 20
1.282474E+002
 11
-6.068E+001
 21
1.319274E+002
  0
LINE
  8
1
  6
CONTINUOUS
 62
7
 10
-6.132E+001
 20
1.282474E+002
 11
-6.132E+001
 21
1.319274E+002
  0
LINE
  8
1
  6
CONTINUOUS
 62
7
 10
-5.98E+001
 20
1.319274E+002
 11
-6.068E+001
 21
1.319274E+002
  0
LINE
  8
1
  6
CONTINUOUS
 62
7
 10
-5.8288E+001
 20
1.276074E+002
 11
-5.7E+001
 21
1.239274E+002
  0
LINE
  8
1
  6
CONTINUOUS
 62
7
 10
-5.644E+001
 20
1.239274E+002
 11
-5.644E+001
 21
1.276074E+002
  0
ARC
  8
1
  6
CONTINUOUS
 62
7
 10
-5.324E+001
 20
1.301274E+002
 40
1.8
 50
2.9938468E+002
 51
4.5E+002
  0
ARC
  8
1
  6
CONTINUOUS
 62
7
 10
-5.324E+001
 20
1.263274E+002
 40
2.4
 50
2.7E+002
 51
3.9223095E+002
  0
LINE
  8
1
  6
CONTINUOUS
 62
7
 10
-5.18E+001
 20
1.282474E+002
 11
-5.372E+001
 21
1.282474E+002
  0
LINE
  8
1
  6
CONTINUOUS
 62
7
 10
-5.1209828E+001
 20
1.276074E+002
 11
-5.372E+001
 21
1.276074E+002
  0
LINE
  8
1
  6
CONTINUOUS
 62
7
 10
-5.372E+001
 20
1.239274E+002
 11
-5.372E+001
 21
1.276074E+002
  0
LINE
  8
1
  6
CONTINUOUS
 62
7
 10
-5.436E+001
 20
1.239274E+002
 11
-5.436E+001
 21
1.276074E+002
  0
LINE
  8
1
  6
CONTINUOUS
 62
7
 10
-5.372E+001
 20
1.319274E+002
 11
-5.324E+001
 21
1.319274E+002
  0
LINE
  8
1
  6
CONTINUOUS
 62
7
 10
-5.436E+001
 20
1.282474E+002
 11
-5.644E+001
 21
1.282474E+002
  0
LINE
  8
1
  6
CONTINUOUS
 62
7
 10
-5.436E+001
 20
1.276074E+002
 11
-5.644E+001
 21
1.276074E+002
  0
LINE
  8
1
  6
CONTINUOUS
 62
7
 10
-5.372E+001
 20
1.239274E+002
 11
-5.324E+001
 21
1.239274E+002
  0
LINE
  8
1
  6
CONTINUOUS
 62
7
 10
-5.644E+001
 20
1.282474E+002
 11
-5.644E+001
 21
1.319274E+002
  0
LINE
  8
1
  6
CONTINUOUS
 62
7
 10
-5.436E+001
 20
1.282474E+002
 11
-5.436E+001
 21
1.319274E+002
  0
LINE
  8
1
  6
CONTINUOUS
 62
7
 10
-5.372E+001
 20
1.282474E+002
 11
-5.372E+001
 21
1.319274E+002
  0
ARC
  8
1
  6
CONTINUOUS
 62
7
 10
-5.324E+001
 20
1.263274E+002
 40
2.4
 50
5.3130102E+001
 51
6.8407484E+001
  0
LINE
  8
1
  6
CONTINUOUS
 62
7
 10
-5.02E+001
 20
1.239274E+002
 11
-5.02E+001
 21
1.276074E+002
  0
LINE
  8
1
  6
CONTINUOUS
 62
7
 10
-4.812E+001
 20
1.276074E+002
 11
-5.02E+001
 21
1.276074E+002
  0
LINE
  8
1
  6
CONTINUOUS
 62
7
 10
-4.812E+001
 20
1.239274E+002
 11
-4.812E+001
 21
1.276074E+002
  0
LINE
  8
1
  6
CONTINUOUS
 62
7
 10
-5.02E+001
 20
1.239274E+002
 11
-4.812E+001
 21
1.239274E+002
  0
LINE
  8
1
  6
CONTINUOUS
 62
7
 10
-4.748E+001
 20
1.239274E+002
 11
-4.748E+001
 21
1.276074E+002
  0
LINE
  8
1
  6
CONTINUOUS
 62
7
 10
-4.4969828E+001
 20
1.276074E+002
 11
-4.748E+001
 21
1.276074E+002
  0
ARC
  8
1
  6
CONTINUOUS
 62
7
 10
-4.7E+001
 20
1.263274E+002
 40
2.4
 50
2.7E+002
 51
3.9223095E+002
  0
LINE
  8
1
  6
CONTINUOUS
 62
7
 10
-4.748E+001
 20
1.239274E+002
 11
-4.7E+001
 21
1.239274E+002
  0
LINE
  8
1
  6
CONTINUOUS
 62
7
 10
-5.02E+001
 20
1.282474E+002
 11
-5.02E+001
 21
1.319274E+002
  0
LINE
  8
1
  6
CONTINUOUS
 62
7
 10
-5.02E+001
 20
1.319274E+002
 11
-4.812E+001
 21
1.319274E+002
  0
LINE
  8
1
  6
CONTINUOUS
 62
7
 10
-4.812E+001
 20
1.282474E+002
 11
-4.812E+001
 21
1.319274E+002
  0
LINE
  8
1
  6
CONTINUOUS
 62
7
 10
-4.812E+001
 20
1.282474E+002
 11
-5.02E+001
 21
1.282474E+002
  0
LINE
  8
1
  6
CONTINUOUS
 62
7
 10
-4.748E+001
 20
1.282474E+002
 11
-4.748E+001
 21
1.319274E+002
  0
LINE
  8
1
  6
CONTINUOUS
 62
7
 10
-4.748E+001
 20
1.319274E+002
 11
-4.7E+001
 21
1.319274E+002
  0
ARC
  8
1
  6
CONTINUOUS
 62
7
 10
-4.7E+001
 20
1.301274E+002
 40
1.8
 50
2.9938468E+002
 51
4.5E+002
  0
ARC
  8
1
  6
CONTINUOUS
 62
7
 10
-4.7E+001
 20
1.263274E+002
 40
2.4
 50
5.3130102E+001
 51
6.8407484E+001
  0
LINE
  8
1
  6
CONTINUOUS
 62
7
 10
-4.556E+001
 20
1.282474E+002
 11
-4.748E+001
 21
1.282474E+002
  0
LINE
  8
1
  6
CONTINUOUS
 62
7
 10
-6.15E+001
 20
1.274274E+002
 11
-6.15E+001
 21
1.257074E+002
  0
LINE
  8
1
  6
CONTINUOUS
 62
7
 10
-6.15E+001
 20
1.257074E+002
 11
-6.2567707E+001
 21
1.257074E+002
  0
LINE
  8
1
  6
CONTINUOUS
 62
7
 10
-6.2567707E+001
 20
1.257074E+002
 11
-6.3127707E+001
 21
1.241074E+002
  0
LINE
  8
1
  6
CONTINUOUS
 62
7
 10
-6.3127707E+001
 20
1.241074E+002
 11
-6.4746293E+001
 21
1.241074E+002
  0
LINE
  8
1
  6
CONTINUOUS
 62
7
 10
-6.4492587E+001
 20
1.242874E+002
 11
-6.3456587E+001
 21
1.272474E+002
  0
LINE
  8
1
  6
CONTINUOUS
 62
7
 10
-6.3456587E+001
 20
1.272474E+002
 11
-6.168E+001
 21
1.272474E+002
  0
LINE
  8
1
  6
CONTINUOUS
 62
7
 10
-6.168E+001
 20
1.272474E+002
 11
-6.168E+001
 21
1.258874E+002
  0
LINE
  8
1
  6
CONTINUOUS
 62
7
 10
-6.168E+001
 20
1.258874E+002
 11
-6.2695413E+001
 21
1.258874E+002
  0
LINE
  8
1
  6
HIDDEN
 62
7
 10
-5.376E+001
 20
-2.5522169E+001
 11
-4.976E+001
 21
-2.5522169E+001
  0
LINE
  8
1
  6
HIDDEN
 62
7
 10
-4.476E+001
 20
-7.522169
 11
-4.1343333E+001
 21
-7.522169
  0
LINE
  8
1
  6
CONTINUOUS
 62
7
 10
-6.2695413E+001
 20
1.258874E+002
 11
-6.3255413E+001
 21
1.242874E+002
  0
LINE
  8
1
  6
HIDDEN
 62
7
 10
-4.276E+001
 20
-2.5522169E+001
 11
-4.476E+001
 21
-2.5522169E+001
  0
LINE
  8
1
  6
HIDDEN
 62
7
 10
-5.0
 20
-5.7E+001
 11
-2.0994594E+001
 21
-4.3455422E+001
  0
LINE
  8
1
  6
HIDDEN
 62
7
 10
-4.476E+001
 20
-7.522169
 11
-4.976E+001
 21
-2.5522169E+001
  0
LINE
  8
1
  6
HIDDEN
 62
7
 10
-4.976E+001
 20
-7.522169
 11
-4.476E+001
 21
-2.5522169E+001
  0
LINE
  8
1
  6
CONTINUOUS
 62
7
 10
-4.176E+001
 20
1.199785E+001
 11
-3.476E+001
 21
1.199785E+001
  0
LINE
  8
1
  6
CONTINUOUS
 62
7
 10
-4.176E+001
 20
6.977831
 11
-4.176E+001
 21
1.199785E+001
  0
LINE
  8
1
  6
CONTINUOUS
 62
7
 10
-3.676E+001
 20
4.99785
 11
-3.676E+001
 21
5.99785
  0
LINE
  8
1
  6
CONTINUOUS
 62
7
 10
-3.676E+001
 20
6.99785
 11
-3.676E+001
 21
9.99785
  0
LINE
  8
1
  6
CONTINUOUS
 62
7
 10
-6.276E+001
 20
2.99785
 11
-6.276E+001
 21
3.99785
  0
LINE
  8
1
  6
CONTINUOUS
 62
7
 10
-6.276E+001
 20
4.99785
 11
-6.276E+001
 21
9.99785
  0
LINE
  8
1
  6
CONTINUOUS
 62
7
 10
-4.9090119E+001
 20
9.977831
 11
-4.9154491E+001
 21
9.977831
  0
LINE
  8
1
  6
CONTINUOUS
 62
7
 10
-5.026E+001
 20
9.99785
 11
-5.126E+001
 21
9.99785
  0
LINE
  8
1
  6
CONTINUOUS
 62
7
 10
-5.226E+001
 20
9.99785
 11
-5.726E+001
 21
9.99785
  0
LINE
  8
1
  6
CONTINUOUS
 62
7
 10
-5.826E+001
 20
9.99785
 11
-5.926E+001
 21
9.99785
  0
LINE
  8
1
  6
CONTINUOUS
 62
7
 10
-6.026E+001
 20
9.99785
 11
-6.276E+001
 21
9.99785
  0
LINE
  8
1
  6
HIDDEN
 62
7
 10
-2.0994594E+001
 20
-4.3455422E+001
 11
-2.5583333E+001
 21
-4.3455422E+001
  0
LINE
  8
1
  6
CONTINUOUS
 62
7
 10
-5.076E+001
 20
-3.000215E+001
 11
-5.176E+001
 21
-3.000215E+001
  0
LINE
  8
1
  6
CONTINUOUS
 62
7
 10
-5.326E+001
 20
-3.000215E+001
 11
-5.826E+001
 21
-3.000215E+001
  0
LINE
  8
1
  6
HIDDEN
 62
7
 10
3.399986E+001
 20
-2.3032169E+001
 11
2.899986E+001
 21
-2.3032169E+001
  0
LINE
  8
1
  6
CONTINUOUS
 62
7
 10
3.049986E+001
 20
-2.1032169E+001
 11
2.899986E+001
 21
-2.1032169E+001
  0
LINE
  8
1
  6
CONTINUOUS
 62
7
 10
2.3759895E+001
 20
9.373E+001
 11
2.7759895E+001
 21
9.373E+001
  0
LINE
  8
1
  6
CONTINUOUS
 62
7
 10
-5.926E+001
 20
-3.000215E+001
 11
-6.026E+001
 21
-3.000215E+001
  0
TEXT
  8
1
  6
CONTINUOUS
 62
7
 10
-3.5E+001
 20
-5.7868615E+001
 40
2.0
  1
KM1
 41
7.5E-001
  0
LINE
  8
1
  6
CONTINUOUS
 62
7
 10
-6.126E+001
 20
-3.000215E+001
 11
-6.27598E+001
 21
-3.0032174E+001
  0
LINE
  8
1
  6
CONTINUOUS
 62
7
 10
-6.3255413E+001
 20
1.242874E+002
 11
-6.4492587E+001
 21
1.242874E+002
  0
LINE
  8
1
  6
CONTINUOUS
 62
7
 10
-6.423888E+001
 20
1.244674E+002
 11
-6.332888E+001
 21
1.270674E+002
  0
LINE
  8
1
  6
CONTINUOUS
 62
7
 10
-6.332888E+001
 20
1.270674E+002
 11
-6.186E+001
 21
1.270674E+002
  0
LINE
  8
1
  6
CONTINUOUS
 62
7
 10
-6.186E+001
 20
1.270674E+002
 11
-6.186E+001
 21
1.260674E+002
  0
LINE
  8
1
  6
CONTINUOUS
 62
7
 10
-6.186E+001
 20
1.260674E+002
 11
-6.282312E+001
 21
1.260674E+002
  0
LINE
  8
1
  6
CONTINUOUS
 62
7
 10
-6.282312E+001
 20
1.260674E+002
 11
-6.338312E+001
 21
1.244674E+002
  0
LINE
  8
1
  6
CONTINUOUS
 62
7
 10
-6.338312E+001
 20
1.244674E+002
 11
-6.423888E+001
 21
1.244674E+002
  0
LINE
  8
1
  6
CONTINUOUS
 62
7
 10
-6.3985174E+001
 20
1.246474E+002
 11
-6.3201174E+001
 21
1.268874E+002
  0
LINE
  8
1
  6
CONTINUOUS
 62
7
 10
-6.3201174E+001
 20
1.268874E+002
 11
-6.204E+001
 21
1.268874E+002
  0
LINE
  8
1
  6
CONTINUOUS
 62
7
 10
-6.204E+001
 20
1.268874E+002
 11
-6.204E+001
 21
1.262474E+002
  0
LINE
  8
1
  6
CONTINUOUS
 62
7
 10
-6.204E+001
 20
1.262474E+002
 11
-6.2950826E+001
 21
1.262474E+002
  0
LINE
  8
1
  6
CONTINUOUS
 62
7
 10
-6.2950826E+001
 20
1.262474E+002
 11
-6.3510826E+001
 21
1.246474E+002
  0
LINE
  8
1
  6
CONTINUOUS
 62
7
 10
-6.3510826E+001
 20
1.246474E+002
 11
-6.3985174E+001
 21
1.246474E+002
  0
LINE
  8
1
  6
CONTINUOUS
 62
7
 10
-6.3731467E+001
 20
1.248274E+002
 11
-6.3073467E+001
 21
1.267074E+002
  0
LINE
  8
1
  6
CONTINUOUS
 62
7
 10
-6.3073467E+001
 20
1.267074E+002
 11
-6.222E+001
 21
1.267074E+002
  0
LINE
  8
1
  6
CONTINUOUS
 62
7
 10
-6.222E+001
 20
1.267074E+002
 11
-6.222E+001
 21
1.264274E+002
  0
LINE
  8
1
  6
CONTINUOUS
 62
7
 10
-6.222E+001
 20
1.264274E+002
 11
-6.3078533E+001
 21
1.264274E+002
  0
LINE
  8
1
  6
CONTINUOUS
 62
7
 10
-6.3078533E+001
 20
1.264274E+002
 11
-6.3638533E+001
 21
1.248274E+002
  0
TEXT
  8
1
  6
CONTINUOUS
 62
7
 10
4.75
 20
-5.7868615E+001
 40
2.0
  1
KM2
 41
7.5E-001
  0
LINE
  8
1
  6
CONTINUOUS
 62
7
 10
-4.176E+001
 20
-3.200215E+001
 11
-3.476E+001
 21
-3.200215E+001
  0
LINE
  8
1
  6
CONTINUOUS
 62
7
 10
-5.276E+001
 20
-3.600215E+001
 11
-3.476E+001
 21
-3.600215E+001
  0
LINE
  8
1
  6
CONTINUOUS
 62
7
 10
-4.176E+001
 20
-1.0022169E+001
 11
-4.076E+001
 21
-4.022169
  0
LINE
  8
1
  6
CONTINUOUS
 62
7
 10
-4.176E+001
 20
-5.022169
 11
-3.976E+001
 21
-5.022169
  0
LINE
  8
1
  6
CONTINUOUS
 62
7
 10
-5.276E+001
 20
-2.022169
 11
-4.176E+001
 21
-2.022169
  0
LINE
  8
1
  6
CONTINUOUS
 62
7
 10
2.899986E+001
 20
-2.1032169E+001
 11
2.899986E+001
 21
-2.5032169E+001
  0
LINE
  8
1
  6
CONTINUOUS
 62
7
 10
3.049986E+001
 20
-2.5032169E+001
 11
2.899986E+001
 21
-2.5032169E+001
  0
TEXT
  8
1
  6
CONTINUOUS
 62
7
 10
3.424986E+001
 20
-2.8532169E+001
 40
2.0
  1
68
 41
7.5E-001
 50
9.0E+001
  0
TEXT
  8
1
  6
CONTINUOUS
 62
7
 10
-7.5E-001
 20
-3.9955422E+001
 40
2.0
  1
01
 41
7.5E-001
 50
9.0E+001
  0
TEXT
  8
1
  6
CONTINUOUS
 62
7
 10
-7.5E-001
 20
-4.8955422E+001
 40
2.0
  1
02
 41
7.5E-001
 50
9.0E+001
  0
TEXT
  8
1
  6
CONTINUOUS
 62
7
 10
-2.675E+001
 20
-3.9955422E+001
 40
2.0
  1
01
 41
7.5E-001
 50
9.0E+001
  0
TEXT
  8
1
  6
CONTINUOUS
 62
7
 10
-2.675E+001
 20
-4.8955422E+001
 40
2.0
  1
02
 41
7.5E-001
 50
9.0E+001
  0
LINE
  8
1
  6
CONTINUOUS
 62
7
 10
-4.626E+001
 20
6.477831
 11
-4.776E+001
 21
6.477831
  0
TEXT
  8
1
  6
CONTINUOUS
 62
7
 10
-5.006E+001
 20
3.477831
 40
2.0
  1
O
 41
7.5E-001
  0
LINE
  8
1
  6
CONTINUOUS
 62
7
 10
-4.776E+001
 20
6.477831
 11
-4.776E+001
 21
2.477831
  0
LINE
  8
1
  6
HIDDEN
 62
7
 10
-4.126E+001
 20
4.477831
 11
-4.776E+001
 21
4.477831
  0
LINE
  8
1
  6
CONTINUOUS
 62
7
 10
-4.626E+001
 20
2.477831
 11
-4.776E+001
 21
2.477831
  0
LINE
  8
1
  6
SHORT_DASH
 62
7
 10
-3.3060564E+001
 20
-3.6E+001
 11
-2.6E+001
 21
-3.6E+001
  0
LINE
  8
1
  6
CONTINUOUS
 62
7
 10
2.3759895E+001
 20
9.373E+001
 11
2.5759895E+001
 21
9.0265898E+001
  0
LINE
  8
1
  6
CONTINUOUS
 62
7
 10
2.7759895E+001
 20
9.373E+001
 11
2.5759895E+001
 21
9.0265898E+001
  0
LINE
  8
1
  6
CONTINUOUS
 62
7
 10
3.182E+001
 20
9.45E+001
 11
3.182E+001
 21
1.0127387E+002
  0
LINE
  8
1
  6
CONTINUOUS
 62
7
 10
-4.176E+001
 20
1.977831
 11
-4.076E+001
 21
7.977831
  0
LINE
  8
1
  6
CONTINUOUS
 62
7
 10
-4.176E+001
 20
6.977831
 11
-3.976E+001
 21
6.977831
  0
LINE
  8
1
  6
CONTINUOUS
 62
7
 10
-4.176E+001
 20
-2.8022169E+001
 11
-4.376E+001
 21
-2.3022169E+001
  0
LINE
  8
1
  6
CONTINUOUS
 62
7
 10
-4.176E+001
 20
1.977831
 11
-4.176E+001
 21
-5.022169
  0
LINE
  8
1
  6
CONTINUOUS
 62
7
 10
-4.176E+001
 20
-1.0022169E+001
 11
-4.176E+001
 21
-2.3022169E+001
  0
LINE
  8
1
  6
CONTINUOUS
 62
7
 10
-4.176E+001
 20
-3.200215E+001
 11
-4.176E+001
 21
-2.8022169E+001
  0
LINE
  8
1
  6
CONTINUOUS
 62
7
 10
3.182E+001
 20
8.95E+001
 11
3.182E+001
 21
8.2451075E+001
  0
LINE
  8
1
  6
SHORT_DASH
 62
7
 10
-3.4893817E+001
 20
-3.2E+001
 11
0.0
 21
-3.2E+001
  0
LINE
  8
1
  6
CONTINUOUS
 62
7
 10
-6.3638533E+001
 20
1.248274E+002
 11
-6.3731467E+001
 21
1.248274E+002
  0
LINE
  8
1
  6
CONTINUOUS
 62
7
 10
-6.222E+001
 20
1.265774E+002
 11
-6.3078533E+001
 21
1.265774E+002
  0
LINE
  8
1
  6
CONTINUOUS
 62
7
 10
-5.8872293E+001
 20
1.241074E+002
 11
-5.7253707E+001
 21
1.241074E+002
  0
LINE
  8
1
  6
CONTINUOUS
 62
7
 10
-5.7253707E+001
 20
1.241074E+002
 11
-5.8415707E+001
 21
1.274274E+002
  0
LINE
  8
1
  6
CONTINUOUS
 62
7
 10
-5.8415707E+001
 20
1.274274E+002
 11
-6.05E+001
 21
1.274274E+002
  0
LINE
  8
1
  6
CONTINUOUS
 62
7
 10
-6.05E+001
 20
1.274274E+002
 11
-6.05E+001
 21
1.257074E+002
  0
LINE
  8
1
  6
CONTINUOUS
 62
7
 10
-6.05E+001
 20
1.257074E+002
 11
-5.9432293E+001
 21
1.257074E+002
  0
LINE
  8
1
  6
CONTINUOUS
 62
7
 10
-5.9432293E+001
 20
1.257074E+002
 11
-5.8872293E+001
 21
1.241074E+002
  0
LINE
  8
1
  6
CONTINUOUS
 62
7
 10
-5.8744587E+001
 20
1.242874E+002
 11
-5.7507413E+001
 21
1.242874E+002
  0
LINE
  8
1
  6
CONTINUOUS
 62
7
 10
-5.7507413E+001
 20
1.242874E+002
 11
-5.8543413E+001
 21
1.272474E+002
  0
LINE
  8
1
  6
CONTINUOUS
 62
7
 10
-5.8543413E+001
 20
1.272474E+002
 11
-6.032E+001
 21
1.272474E+002
  0
LINE
  8
1
  6
CONTINUOUS
 62
7
 10
-6.032E+001
 20
1.272474E+002
 11
-6.032E+001
 21
1.258874E+002
  0
LINE
  8
1
  6
CONTINUOUS
 62
7
 10
-6.032E+001
 20
1.258874E+002
 11
-5.9304587E+001
 21
1.258874E+002
  0
LINE
  8
1
  6
CONTINUOUS
 62
7
 10
-5.9304587E+001
 20
1.258874E+002
 11
-5.8744587E+001
 21
1.242874E+002
  0
LINE
  8
1
  6
CONTINUOUS
 62
7
 10
-5.776112E+001
 20
1.244674E+002
 11
-5.867112E+001
 21
1.270674E+002
  0
LINE
  8
1
  6
CONTINUOUS
 62
7
 10
-5.867112E+001
 20
1.270674E+002
 11
-6.014E+001
 21
1.270674E+002
  0
LINE
  8
1
  6
CONTINUOUS
 62
7
 10
-6.014E+001
 20
1.270674E+002
 11
-6.014E+001
 21
1.260674E+002
  0
LINE
  8
1
  6
CONTINUOUS
 62
7
 10
-6.014E+001
 20
1.260674E+002
 11
-5.917688E+001
 21
1.260674E+002
  0
LINE
  8
1
  6
CONTINUOUS
 62
7
 10
-5.917688E+001
 20
1.260674E+002
 11
-5.861688E+001
 21
1.244674E+002
  0
LINE
  8
1
  6
CONTINUOUS
 62
7
 10
-5.861688E+001
 20
1.244674E+002
 11
-5.776112E+001
 21
1.244674E+002
  0
LINE
  8
1
  6
CONTINUOUS
 62
7
 10
-5.8014826E+001
 20
1.246474E+002
 11
-5.8798826E+001
 21
1.268874E+002
  0
LINE
  8
1
  6
CONTINUOUS
 62
7
 10
-5.8798826E+001
 20
1.268874E+002
 11
-5.996E+001
 21
1.268874E+002
  0
LINE
  8
1
  6
CONTINUOUS
 62
7
 10
-5.996E+001
 20
1.268874E+002
 11
-5.996E+001
 21
1.262474E+002
  0
LINE
  8
1
  6
CONTINUOUS
 62
7
 10
-5.996E+001
 20
1.262474E+002
 11
-5.9049174E+001
 21
1.262474E+002
  0
LINE
  8
1
  6
CONTINUOUS
 62
7
 10
-5.9049174E+001
 20
1.262474E+002
 11
-5.8489174E+001
 21
1.246474E+002
  0
LINE
  8
1
  6
CONTINUOUS
 62
7
 10
-5.8489174E+001
 20
1.246474E+002
 11
-5.8014826E+001
 21
1.246474E+002
  0
LINE
  8
1
  6
CONTINUOUS
 62
7
 10
-5.8268533E+001
 20
1.248274E+002
 11
-5.8926533E+001
 21
1.267074E+002
  0
LINE
  8
1
  6
CONTINUOUS
 62
7
 10
-5.8926533E+001
 20
1.267074E+002
 11
-5.978E+001
 21
1.267074E+002
  0
LINE
  8
1
  6
CONTINUOUS
 62
7
 10
-5.978E+001
 20
1.267074E+002
 11
-5.978E+001
 21
1.264274E+002
  0
LINE
  8
1
  6
CONTINUOUS
 62
7
 10
-5.978E+001
 20
1.264274E+002
 11
-5.8921467E+001
 21
1.264274E+002
  0
LINE
  8
1
  6
CONTINUOUS
 62
7
 10
-5.8921467E+001
 20
1.264274E+002
 11
-5.8361467E+001
 21
1.248274E+002
  0
LINE
  8
1
  6
CONTINUOUS
 62
7
 10
-5.8361467E+001
 20
1.248274E+002
 11
-5.8268533E+001
 21
1.248274E+002
  0
LINE
  8
1
  6
CONTINUOUS
 62
7
 10
-5.978E+001
 20
1.265774E+002
 11
-5.8921467E+001
 21
1.265774E+002
  0
LINE
  8
1
  6
CONTINUOUS
 62
7
 10
-5.626E+001
 20
1.284274E+002
 11
-5.626E+001
 21
1.317474E+002
  0
LINE
  8
1
  6
CONTINUOUS
 62
7
 10
-5.626E+001
 20
1.317474E+002
 11
-5.454E+001
 21
1.317474E+002
  0
LINE
  8
1
  6
CONTINUOUS
 62
7
 10
-5.454E+001
 20
1.317474E+002
 11
-5.454E+001
 21
1.284274E+002
  0
LINE
  8
1
  6
CONTINUOUS
 62
7
 10
-5.454E+001
 20
1.284274E+002
 11
-5.626E+001
 21
1.284274E+002
  0
LINE
  8
1
  6
CONTINUOUS
 62
7
 10
-5.472E+001
 20
1.286074E+002
 11
-5.608E+001
 21
1.286074E+002
  0
LINE
  8
1
  6
CONTINUOUS
 62
7
 10
-5.608E+001
 20
1.286074E+002
 11
-5.608E+001
 21
1.315674E+002
  0
LINE
  8
1
  6
CONTINUOUS
 62
7
 10
-5.608E+001
 20
1.315674E+002
 11
-5.472E+001
 21
1.315674E+002
  0
LINE
  8
1
  6
CONTINUOUS
 62
7
 10
-5.472E+001
 20
1.315674E+002
 11
-5.472E+001
 21
1.286074E+002
  0
LINE
  8
1
  6
CONTINUOUS
 62
7
 10
-5.59E+001
 20
1.287874E+002
 11
-5.59E+001
 21
1.313874E+002
  0
LINE
  8
1
  6
CONTINUOUS
 62
7
 10
-5.59E+001
 20
1.313874E+002
 11
-5.49E+001
 21
1.313874E+002
  0
LINE
  8
1
  6
CONTINUOUS
 62
7
 10
-5.49E+001
 20
1.313874E+002
 11
-5.49E+001
 21
1.287874E+002
  0
LINE
  8
1
  6
CONTINUOUS
 62
7
 10
-5.49E+001
 20
1.287874E+002
 11
-5.59E+001
 21
1.287874E+002
  0
LINE
  8
1
  6
CONTINUOUS
 62
7
 10
-5.572E+001
 20
1.289674E+002
 11
-5.572E+001
 21
1.312074E+002
  0
LINE
  8
1
  6
CONTINUOUS
 62
7
 10
-5.572E+001
 20
1.312074E+002
 11
-5.508E+001
 21
1.312074E+002
  0
LINE
  8
1
  6
CONTINUOUS
 62
7
 10
-5.508E+001
 20
1.312074E+002
 11
-5.508E+001
 21
1.289674E+002
  0
LINE
  8
1
  6
CONTINUOUS
 62
7
 10
-5.508E+001
 20
1.289674E+002
 11
-5.572E+001
 21
1.289674E+002
  0
LINE
  8
1
  6
CONTINUOUS
 62
7
 10
-5.554E+001
 20
1.291474E+002
 11
-5.554E+001
 21
1.310274E+002
  0
LINE
  8
1
  6
CONTINUOUS
 62
7
 10
-5.554E+001
 20
1.310274E+002
 11
-5.526E+001
 21
1.310274E+002
  0
LINE
  8
1
  6
CONTINUOUS
 62
7
 10
-5.526E+001
 20
1.310274E+002
 11
-5.526E+001
 21
1.291474E+002
  0
LINE
  8
1
  6
CONTINUOUS
 62
7
 10
-5.526E+001
 20
1.291474E+002
 11
-5.554E+001
 21
1.291474E+002
  0
LINE
  8
1
  6
CONTINUOUS
 62
7
 10
-5.538E+001
 20
1.292674E+002
 11
-5.542E+001
 21
1.292674E+002
  0
LINE
  8
1
  6
CONTINUOUS
 62
7
 10
-5.542E+001
 20
1.292674E+002
 11
-5.542E+001
 21
1.309074E+002
  0
LINE
  8
1
  6
CONTINUOUS
 62
7
 10
-5.542E+001
 20
1.309074E+002
 11
-5.538E+001
 21
1.309074E+002
  0
LINE
  8
1
  6
CONTINUOUS
 62
7
 10
-5.538E+001
 20
1.309074E+002
 11
-5.538E+001
 21
1.292674E+002
  0
LINE
  8
1
  6
CONTINUOUS
 62
7
 10
-5.626E+001
 20
1.241074E+002
 11
-5.454E+001
 21
1.241074E+002
  0
LINE
  8
1
  6
CONTINUOUS
 62
7
 10
-5.454E+001
 20
1.241074E+002
 11
-5.454E+001
 21
1.274274E+002
  0
LINE
  8
1
  6
CONTINUOUS
 62
7
 10
-5.454E+001
 20
1.274274E+002
 11
-5.626E+001
 21
1.274274E+002
  0
LINE
  8
1
  6
CONTINUOUS
 62
7
 10
-5.626E+001
 20
1.274274E+002
 11
-5.626E+001
 21
1.241074E+002
  0
LINE
  8
1
  6
CONTINUOUS
 62
7
 10
-5.608E+001
 20
1.272474E+002
 11
-5.608E+001
 21
1.242874E+002
  0
LINE
  8
1
  6
CONTINUOUS
 62
7
 10
-5.608E+001
 20
1.242874E+002
 11
-5.472E+001
 21
1.242874E+002
  0
LINE
  8
1
  6
CONTINUOUS
 62
7
 10
-5.472E+001
 20
1.242874E+002
 11
-5.472E+001
 21
1.272474E+002
  0
LINE
  8
1
  6
CONTINUOUS
 62
7
 10
-5.472E+001
 20
1.272474E+002
 11
-5.608E+001
 21
1.272474E+002
  0
LINE
  8
1
  6
CONTINUOUS
 62
7
 10
-5.59E+001
 20
1.270674E+002
 11
-5.59E+001
 21
1.244674E+002
  0
LINE
  8
1
  6
CONTINUOUS
 62
7
 10
-5.59E+001
 20
1.244674E+002
 11
-5.49E+001
 21
1.244674E+002
  0
LINE
  8
1
  6
CONTINUOUS
 62
7
 10
-5.49E+001
 20
1.244674E+002
 11
-5.49E+001
 21
1.270674E+002
  0
LINE
  8
1
  6
CONTINUOUS
 62
7
 10
-5.49E+001
 20
1.270674E+002
 11
-5.59E+001
 21
1.270674E+002
  0
LINE
  8
1
  6
CONTINUOUS
 62
7
 10
-5.572E+001
 20
1.268874E+002
 11
-5.572E+001
 21
1.246474E+002
  0
LINE
  8
1
  6
CONTINUOUS
 62
7
 10
-5.572E+001
 20
1.246474E+002
 11
-5.508E+001
 21
1.246474E+002
  0
LINE
  8
1
  6
CONTINUOUS
 62
7
 10
-5.508E+001
 20
1.246474E+002
 11
-5.508E+001
 21
1.268874E+002
  0
LINE
  8
1
  6
CONTINUOUS
 62
7
 10
-5.508E+001
 20
1.268874E+002
 11
-5.572E+001
 21
1.268874E+002
  0
LINE
  8
1
  6
CONTINUOUS
 62
7
 10
-5.554E+001
 20
1.248274E+002
 11
-5.526E+001
 21
1.248274E+002
  0
LINE
  8
1
  6
CONTINUOUS
 62
7
 10
-5.526E+001
 20
1.248274E+002
 11
-5.526E+001
 21
1.267074E+002
  0
LINE
  8
1
  6
CONTINUOUS
 62
7
 10
-5.526E+001
 20
1.267074E+002
 11
-5.554E+001
 21
1.267074E+002
  0
LINE
  8
1
  6
CONTINUOUS
 62
7
 10
-5.554E+001
 20
1.267074E+002
 11
-5.554E+001
 21
1.248274E+002
  0
LINE
  8
1
  6
CONTINUOUS
 62
7
 10
-5.542E+001
 20
1.249474E+002
 11
-5.538E+001
 21
1.249474E+002
  0
LINE
  8
1
  6
CONTINUOUS
 62
7
 10
-5.538E+001
 20
1.249474E+002
 11
-5.538E+001
 21
1.265874E+002
  0
LINE
  8
1
  6
CONTINUOUS
 62
7
 10
-5.538E+001
 20
1.265874E+002
 11
-5.542E+001
 21
1.265874E+002
  0
LINE
  8
1
  6
CONTINUOUS
 62
7
 10
-5.542E+001
 20
1.265874E+002
 11
-5.542E+001
 21
1.249474E+002
  0
LINE
  8
1
  6
CONTINUOUS
 62
7
 10
-5.354E+001
 20
1.284274E+002
 11
-5.354E+001
 21
1.317474E+002
  0
LINE
  8
1
  6
CONTINUOUS
 62
7
 10
-5.354E+001
 20
1.317474E+002
 11
-5.324E+001
 21
1.317474E+002
  0
ARC
  8
1
  6
CONTINUOUS
 62
7
 10
-5.324E+001
 20
1.301274E+002
 40
1.62
 50
2.9938468E+002
 51
4.5E+002
  0
ARC
  8
1
  6
CONTINUOUS
 62
7
 10
-5.2356793E+001
 20
1.2855898E+002
 40
1.8E-001
 50
1.1938468E+002
 51
2.269698E+002
  0
LINE
  8
1
  6
CONTINUOUS
 62
7
 10
-5.2479622E+001
 20
1.284274E+002
 11
-5.354E+001
 21
1.284274E+002
  0
LINE
  8
1
  6
CONTINUOUS
 62
7
 10
-5.336E+001
 20
1.286074E+002
 11
-5.336E+001
 21
1.315674E+002
  0
LINE
  8
1
  6
CONTINUOUS
 62
7
 10
-5.336E+001
 20
1.315674E+002
 11
-5.324E+001
 21
1.315674E+002
  0
ARC
  8
1
  6
CONTINUOUS
 62
7
 10
-5.324E+001
 20
1.301274E+002
 40
1.44
 50
2.9938468E+002
 51
4.5E+002
  0
ARC
  8
1
  6
CONTINUOUS
 62
7
 10
-5.2356793E+001
 20
1.2855898E+002
 40
3.6E-001
 50
1.1938468E+002
 51
1.7227012E+002
  0
LINE
  8
1
  6
CONTINUOUS
 62
7
 10
-5.2713521E+001
 20
1.286074E+002
 11
-5.336E+001
 21
1.286074E+002
  0
LINE
  8
1
  6
CONTINUOUS
 62
7
 10
-5.318E+001
 20
1.287874E+002
 11
-5.318E+001
 21
1.3138597E+002
  0
ARC
  8
1
  6
CONTINUOUS
 62
7
 10
-5.324E+001
 20
1.301274E+002
 40
1.26
 50
2.9938468E+002
 51
4.472706E+002
  0
ARC
  8
1
  6
CONTINUOUS
 62
7
 10
-5.2356793E+001
 20
1.2855898E+002
 40
5.4E-001
 50
1.1938468E+002
 51
1.5497574E+002
  0
LINE
  8
1
  6
CONTINUOUS
 62
7
 10
-5.2846102E+001
 20
1.287874E+002
 11
-5.318E+001
 21
1.287874E+002
  0
LINE
  8
1
  6
CONTINUOUS
 62
7
 10
-5.3E+001
 20
1.289674E+002
 11
-5.3E+001
 21
1.311804E+002
  0
ARC
  8
1
  6
CONTINUOUS
 62
7
 10
-5.324E+001
 20
1.301274E+002
 40
1.08
 50
2.9938468E+002
 51
4.3716041E+002
  0
ARC
  8
1
  6
CONTINUOUS
 62
7
 10
-5.2356793E+001
 20
1.2855898E+002
 40
7.2E-001
 50
1.1938468E+002
 51
1.4544122E+002
  0
LINE
  8
1
  6
CONTINUOUS
 62
7
 10
-5.2949745E+001
 20
1.289674E+002
 11
-5.3E+001
 21
1.289674E+002
  0
LINE
  8
1
  6
CONTINUOUS
 62
7
 10
-5.282E+001
 20
1.2933063E+002
 11
-5.282E+001
 21
1.3092339E+002
  0
ARC
  8
1
  6
CONTINUOUS
 62
7
 10
-5.324E+001
 20
1.301274E+002
 40
9.0E-001
 50
2.9938468E+002
 51
4.2218186E+002
  0
ARC
  8
1
  6
CONTINUOUS
 62
7
 10
-5.2356793E+001
 20
1.2855898E+002
 40
9.0E-001
 50
1.1938468E+002
 51
1.2097573E+002
  0
LINE
  8
1
  6
CONTINUOUS
 62
7
 10
-5.27E+001
 20
1.2956455E+002
 11
-5.27E+001
 21
1.3069025E+002
  0
ARC
  8
1
  6
CONTINUOUS
 62
7
 10
-5.324E+001
 20
1.301274E+002
 40
7.8E-001
 50
3.1381306E+002
 51
4.0618694E+002
  0
LINE
  8
1
  6
CONTINUOUS
 62
7
 10
-5.354E+001
 20
1.241074E+002
 11
-5.354E+001
 21
1.274274E+002
  0
LINE
  8
1
  6
CONTINUOUS
 62
7
 10
-5.354E+001
 20
1.274274E+002
 11
-5.1311685E+001
 21
1.274274E+002
  0
ARC
  8
1
  6
CONTINUOUS
 62
7
 10
-5.324E+001
 20
1.263274E+002
 40
2.22
 50
2.7E+002
 51
3.8970243E+002
  0
LINE
  8
1
  6
CONTINUOUS
 62
7
 10
-5.324E+001
 20
1.241074E+002
 11
-5.354E+001
 21
1.241074E+002
  0
LINE
  8
1
  6
CONTINUOUS
 62
7
 10
-5.336E+001
 20
1.242874E+002
 11
-5.336E+001
 21
1.272474E+002
  0
LINE
  8
1
  6
CONTINUOUS
 62
7
 10
-5.336E+001
 20
1.272474E+002
 11
-5.1419231E+001
 21
1.272474E+002
  0
ARC
  8
1
  6
CONTINUOUS
 62
7
 10
-5.324E+001
 20
1.263274E+002
 40
2.04
 50
2.7E+002
 51
3.868066E+002
  0
LINE
  8
1
  6
CONTINUOUS
 62
7
 10
-5.324E+001
 20
1.242874E+002
 11
-5.336E+001
 21
1.242874E+002
  0
LINE
  8
1
  6
CONTINUOUS
 62
7
 10
-5.318E+001
 20
1.2446837E+002
 11
-5.318E+001
 21
1.270674E+002
  0
LINE
  8
1
  6
CONTINUOUS
 62
7
 10
-5.318E+001
 20
1.270674E+002
 11
-5.1533542E+001
 21
1.270674E+002
  0
ARC
  8
1
  6
CONTINUOUS
 62
7
 10
-5.324E+001
 20
1.263274E+002
 40
1.86
 50
2.7184857E+002
 51
3.8344381E+002
  0
LINE
  8
1
  6
CONTINUOUS
 62
7
 10
-5.3E+001
 20
1.2466463E+002
 11
-5.3E+001
 21
1.268874E+002
  0
LINE
  8
1
  6
CONTINUOUS
 62
7
 10
-5.3E+001
 20
1.268874E+002
 11
-5.1656081E+001
 21
1.268874E+002
  0
ARC
  8
1
  6
CONTINUOUS
 62
7
 10
-5.324E+001
 20
1.263274E+002
 40
1.68
 50
2.7821321E+002
 51
3.7947122E+002
  0
LINE
  8
1
  6
CONTINUOUS
 62
7
 10
-5.282E+001
 20
1.248874E+002
 11
-5.282E+001
 21
1.267074E+002
  0
LINE
  8
1
  6
CONTINUOUS
 62
7
 10
-5.282E+001
 20
1.267074E+002
 11
-5.1788931E+001
 21
1.267074E+002
  0
ARC
  8
1
  6
CONTINUOUS
 62
7
 10
-5.324E+001
 20
1.263274E+002
 40
1.5
 50
2.862602E+002
 51
3.7467485E+002
  0
LINE
  8
1
  6
CONTINUOUS
 62
7
 10
-5.264E+001
 20
1.2515165E+002
 11
-5.264E+001
 21
1.265274E+002
  0
LINE
  8
1
  6
CONTINUOUS
 62
7
 10
-5.264E+001
 20
1.265274E+002
 11
-5.1935239E+001
 21
1.265274E+002
  0
ARC
  8
1
  6
CONTINUOUS
 62
7
 10
-5.324E+001
 20
1.263274E+002
 40
1.32
 50
2.9703569E+002
 51
3.6871474E+002
  0
LINE
  8
1
  6
CONTINUOUS
 62
7
 10
-5.249E+001
 20
1.254294E+002
 11
-5.249E+001
 21
1.263774E+002
  0
LINE
  8
1
  6
CONTINUOUS
 62
7
 10
-5.249E+001
 20
1.263774E+002
 11
-5.2071069E+001
 21
1.263774E+002
  0
ARC
  8
1
  6
CONTINUOUS
 62
7
 10
-5.324E+001
 20
1.263274E+002
 40
1.17
 50
3.0986834E+002
 51
3.6244928E+002
  0
LINE
  8
1
  6
CONTINUOUS
 62
7
 10
-5.002E+001
 20
1.284274E+002
 11
-5.002E+001
 21
1.317474E+002
  0
LINE
  8
1
  6
CONTINUOUS
 62
7
 10
-5.002E+001
 20
1.317474E+002
 11
-4.83E+001
 21
1.317474E+002
  0
LINE
  8
1
  6
CONTINUOUS
 62
7
 10
-4.83E+001
 20
1.317474E+002
 11
-4.83E+001
 21
1.284274E+002
  0
LINE
  8
1
  6
CONTINUOUS
 62
7
 10
-4.83E+001
 20
1.284274E+002
 11
-5.002E+001
 21
1.284274E+002
  0
LINE
  8
1
  6
CONTINUOUS
 62
7
 10
-4.848E+001
 20
1.286074E+002
 11
-4.984E+001
 21
1.286074E+002
  0
LINE
  8
1
  6
CONTINUOUS
 62
7
 10
-4.984E+001
 20
1.286074E+002
 11
-4.984E+001
 21
1.315674E+002
  0
LINE
  8
1
  6
CONTINUOUS
 62
7
 10
-4.984E+001
 20
1.315674E+002
 11
-4.848E+001
 21
1.315674E+002
  0
LINE
  8
1
  6
CONTINUOUS
 62
7
 10
-4.848E+001
 20
1.315674E+002
 11
-4.848E+001
 21
1.286074E+002
  0
LINE
  8
1
  6
CONTINUOUS
 62
7
 10
-4.966E+001
 20
1.287874E+002
 11
-4.966E+001
 21
1.313874E+002
  0
LINE
  8
1
  6
CONTINUOUS
 62
7
 10
-4.966E+001
 20
1.313874E+002
 11
-4.866E+001
 21
1.313874E+002
  0
LINE
  8
1
  6
CONTINUOUS
 62
7
 10
-4.866E+001
 20
1.313874E+002
 11
-4.866E+001
 21
1.287874E+002
  0
LINE
  8
1
  6
CONTINUOUS
 62
7
 10
-4.866E+001
 20
1.287874E+002
 11
-4.966E+001
 21
1.287874E+002
  0
LINE
  8
1
  6
CONTINUOUS
 62
7
 10
-4.948E+001
 20
1.289674E+002
 11
-4.948E+001
 21
1.312074E+002
  0
LINE
  8
1
  6
CONTINUOUS
 62
7
 10
-4.948E+001
 20
1.312074E+002
 11
-4.884E+001
 21
1.312074E+002
  0
LINE
  8
1
  6
CONTINUOUS
 62
7
 10
-4.884E+001
 20
1.312074E+002
 11
-4.884E+001
 21
1.289674E+002
  0
LINE
  8
1
  6
CONTINUOUS
 62
7
 10
-4.884E+001
 20
1.289674E+002
 11
-4.948E+001
 21
1.289674E+002
  0
LINE
  8
1
  6
CONTINUOUS
 62
7
 10
-4.902E+001
 20
1.291474E+002
 11
-4.93E+001
 21
1.291474E+002
  0
LINE
  8
1
  6
CONTINUOUS
 62
7
 10
-4.93E+001
 20
1.291474E+002
 11
-4.93E+001
 21
1.310274E+002
  0
LINE
  8
1
  6
CONTINUOUS
 62
7
 10
-4.93E+001
 20
1.310274E+002
 11
-4.902E+001
 21
1.310274E+002
  0
LINE
  8
1
  6
CONTINUOUS
 62
7
 10
-4.902E+001
 20
1.310274E+002
 11
-4.902E+001
 21
1.291474E+002
  0
LINE
  8
1
  6
CONTINUOUS
 62
7
 10
-4.918E+001
 20
1.292674E+002
 11
-4.918E+001
 21
1.309074E+002
  0
LINE
  8
1
  6
CONTINUOUS
 62
7
 10
-4.918E+001
 20
1.309074E+002
 11
-4.914E+001
 21
1.309074E+002
  0
LINE
  8
1
  6
CONTINUOUS
 62
7
 10
-4.914E+001
 20
1.309074E+002
 11
-4.914E+001
 21
1.292674E+002
  0
LINE
  8
1
  6
CONTINUOUS
 62
7
 10
-4.914E+001
 20
1.292674E+002
 11
-4.918E+001
 21
1.292674E+002
  0
LINE
  8
1
  6
CONTINUOUS
 62
7
 10
-5.002E+001
 20
1.241074E+002
 11
-4.83E+001
 21
1.241074E+002
  0
LINE
  8
1
  6
CONTINUOUS
 62
7
 10
-4.83E+001
 20
1.241074E+002
 11
-4.83E+001
 21
1.274274E+002
  0
LINE
  8
1
  6
CONTINUOUS
 62
7
 10
-4.83E+001
 20
1.274274E+002
 11
-5.002E+001
 21
1.274274E+002
  0
LINE
  8
1
  6
CONTINUOUS
 62
7
 10
-5.002E+001
 20
1.274274E+002
 11
-5.002E+001
 21
1.241074E+002
  0
LINE
  8
1
  6
CONTINUOUS
 62
7
 10
-4.984E+001
 20
1.272474E+002
 11
-4.984E+001
 21
1.242874E+002
  0
LINE
  8
1
  6
CONTINUOUS
 62
7
 10
-4.984E+001
 20
1.242874E+002
 11
-4.848E+001
 21
1.242874E+002
  0
LINE
  8
1
  6
CONTINUOUS
 62
7
 10
-4.848E+001
 20
1.242874E+002
 11
-4.848E+001
 21
1.272474E+002
  0
LINE
  8
1
  6
CONTINUOUS
 62
7
 10
-4.848E+001
 20
1.272474E+002
 11
-4.984E+001
 21
1.272474E+002
  0
LINE
  8
1
  6
CONTINUOUS
 62
7
 10
-4.966E+001
 20
1.270674E+002
 11
-4.966E+001
 21
1.244674E+002
  0
LINE
  8
1
  6
CONTINUOUS
 62
7
 10
-4.966E+001
 20
1.244674E+002
 11
-4.866E+001
 21
1.244674E+002
  0
LINE
  8
1
  6
CONTINUOUS
 62
7
 10
-4.866E+001
 20
1.244674E+002
 11
-4.866E+001
 21
1.270674E+002
  0
LINE
  8
1
  6
CONTINUOUS
 62
7
 10
-4.866E+001
 20
1.270674E+002
 11
-4.966E+001
 21
1.270674E+002
  0
LINE
  8
1
  6
CONTINUOUS
 62
7
 10
-4.948E+001
 20
1.246474E+002
 11
-4.884E+001
 21
1.246474E+002
  0
LINE
  8
1
  6
CONTINUOUS
 62
7
 10
-4.884E+001
 20
1.246474E+002
 11
-4.884E+001
 21
1.268874E+002
  0
LINE
  8
1
  6
CONTINUOUS
 62
7
 10
-4.884E+001
 20
1.268874E+002
 11
-4.948E+001
 21
1.268874E+002
  0
LINE
  8
1
  6
CONTINUOUS
 62
7
 10
-4.948E+001
 20
1.268874E+002
 11
-4.948E+001
 21
1.246474E+002
  0
LINE
  8
1
  6
CONTINUOUS
 62
7
 10
-4.93E+001
 20
1.267074E+002
 11
-4.93E+001
 21
1.248274E+002
  0
LINE
  8
1
  6
CONTINUOUS
 62
7
 10
-4.93E+001
 20
1.248274E+002
 11
-4.902E+001
 21
1.248274E+002
  0
LINE
  8
1
  6
CONTINUOUS
 62
7
 10
-4.902E+001
 20
1.248274E+002
 11
-4.902E+001
 21
1.267074E+002
  0
LINE
  8
1
  6
CONTINUOUS
 62
7
 10
-4.902E+001
 20
1.267074E+002
 11
-4.93E+001
 21
1.267074E+002
  0
LINE
  8
1
  6
CONTINUOUS
 62
7
 10
-4.918E+001
 20
1.265874E+002
 11
-4.918E+001
 21
1.249474E+002
  0
LINE
  8
1
  6
CONTINUOUS
 62
7
 10
-4.918E+001
 20
1.249474E+002
 11
-4.914E+001
 21
1.249474E+002
  0
LINE
  8
1
  6
CONTINUOUS
 62
7
 10
-4.914E+001
 20
1.249474E+002
 11
-4.914E+001
 21
1.265874E+002
  0
LINE
  8
1
  6
CONTINUOUS
 62
7
 10
-4.914E+001
 20
1.265874E+002
 11
-4.918E+001
 21
1.265874E+002
  0
LINE
  8
1
  6
CONTINUOUS
 62
7
 10
-4.6239622E+001
 20
1.284274E+002
 11
-4.73E+001
 21
1.284274E+002
  0
LINE
  8
1
  6
CONTINUOUS
 62
7
 10
-4.73E+001
 20
1.284274E+002
 11
-4.73E+001
 21
1.317474E+002
  0
LINE
  8
1
  6
CONTINUOUS
 62
7
 10
-4.73E+001
 20
1.317474E+002
 11
-4.7E+001
 21
1.317474E+002
  0
ARC
  8
1
  6
CONTINUOUS
 62
7
 10
-4.7E+001
 20
1.301274E+002
 40
1.62
 50
2.9938468E+002
 51
4.5E+002
  0
ARC
  8
1
  6
CONTINUOUS
 62
7
 10
-4.6116793E+001
 20
1.2855898E+002
 40
1.8E-001
 50
1.1938468E+002
 51
2.269698E+002
  0
LINE
  8
1
  6
CONTINUOUS
 62
7
 10
-4.712E+001
 20
1.286074E+002
 11
-4.712E+001
 21
1.315674E+002
  0
LINE
  8
1
  6
CONTINUOUS
 62
7
 10
-4.712E+001
 20
1.315674E+002
 11
-4.7E+001
 21
1.315674E+002
  0
ARC
  8
1
  6
CONTINUOUS
 62
7
 10
-4.7E+001
 20
1.301274E+002
 40
1.44
 50
2.9938468E+002
 51
4.5E+002
  0
ARC
  8
1
  6
CONTINUOUS
 62
7
 10
-4.6116793E+001
 20
1.2855898E+002
 40
3.6E-001
 50
1.1938468E+002
 51
1.7227012E+002
  0
LINE
  8
1
  6
CONTINUOUS
 62
7
 10
-4.6473521E+001
 20
1.286074E+002
 11
-4.712E+001
 21
1.286074E+002
  0
LINE
  8
1
  6
CONTINUOUS
 62
7
 10
-4.6606102E+001
 20
1.287874E+002
 11
-4.694E+001
 21
1.287874E+002
  0
LINE
  8
1
  6
CONTINUOUS
 62
7
 10
-4.694E+001
 20
1.287874E+002
 11
-4.694E+001
 21
1.3138597E+002
  0
ARC
  8
1
  6
CONTINUOUS
 62
7
 10
-4.7E+001
 20
1.301274E+002
 40
1.26
 50
2.9938468E+002
 51
4.472706E+002
  0
ARC
  8
1
  6
CONTINUOUS
 62
7
 10
-4.6116793E+001
 20
1.2855898E+002
 40
5.4E-001
 50
1.1938468E+002
 51
1.5497574E+002
  0
LINE
  8
1
  6
CONTINUOUS
 62
7
 10
-4.676E+001
 20
1.289674E+002
 11
-4.676E+001
 21
1.311804E+002
  0
ARC
  8
1
  6
CONTINUOUS
 62
7
 10
-4.7E+001
 20
1.301274E+002
 40
1.08
 50
2.9938468E+002
 51
4.3716041E+002
  0
ARC
  8
1
  6
CONTINUOUS
 62
7
 10
-4.6116793E+001
 20
1.2855898E+002
 40
7.2E-001
 50
1.1938468E+002
 51
1.4544122E+002
  0
LINE
  8
1
  6
CONTINUOUS
 62
7
 10
-4.6709745E+001
 20
1.289674E+002
 11
-4.676E+001
 21
1.289674E+002
  0
LINE
  8
1
  6
CONTINUOUS
 62
7
 10
-4.658E+001
 20
1.2933063E+002
 11
-4.658E+001
 21
1.3092339E+002
  0
ARC
  8
1
  6
CONTINUOUS
 62
7
 10
-4.7E+001
 20
1.301274E+002
 40
9.0E-001
 50
2.9938468E+002
 51
4.2218186E+002
  0
ARC
  8
1
  6
CONTINUOUS
 62
7
 10
-4.6116793E+001
 20
1.2855898E+002
 40
9.0E-001
 50
1.1938468E+002
 51
1.2097573E+002
  0
LINE
  8
1
  6
CONTINUOUS
 62
7
 10
-4.646E+001
 20
1.2956455E+002
 11
-4.646E+001
 21
1.3069025E+002
  0
ARC
  8
1
  6
CONTINUOUS
 62
7
 10
-4.7E+001
 20
1.301274E+002
 40
7.8E-001
 50
3.1381306E+002
 51
4.0618694E+002
  0
LINE
  8
1
  6
CONTINUOUS
 62
7
 10
-4.73E+001
 20
1.241074E+002
 11
-4.73E+001
 21
1.274274E+002
  0
LINE
  8
1
  6
CONTINUOUS
 62
7
 10
-4.73E+001
 20
1.274274E+002
 11
-4.5071685E+001
 21
1.274274E+002
  0
ARC
  8
1
  6
CONTINUOUS
 62
7
 10
-4.7E+001
 20
1.263274E+002
 40
2.22
 50
2.7E+002
 51
3.8970243E+002
  0
LINE
  8
1
  6
CONTINUOUS
 62
7
 10
-4.7E+001
 20
1.241074E+002
 11
-4.73E+001
 21
1.241074E+002
  0
LINE
  8
1
  6
CONTINUOUS
 62
7
 10
-4.712E+001
 20
1.242874E+002
 11
-4.712E+001
 21
1.272474E+002
  0
LINE
  8
1
  6
CONTINUOUS
 62
7
 10
-4.712E+001
 20
1.272474E+002
 11
-4.5179231E+001
 21
1.272474E+002
  0
ARC
  8
1
  6
CONTINUOUS
 62
7
 10
-4.7E+001
 20
1.263274E+002
 40
2.04
 50
2.7E+002
 51
3.868066E+002
  0
LINE
  8
1
  6
CONTINUOUS
 62
7
 10
-4.7E+001
 20
1.242874E+002
 11
-4.712E+001
 21
1.242874E+002
  0
LINE
  8
1
  6
CONTINUOUS
 62
7
 10
-4.694E+001
 20
1.2446837E+002
 11
-4.694E+001
 21
1.270674E+002
  0
LINE
  8
1
  6
CONTINUOUS
 62
7
 10
-4.694E+001
 20
1.270674E+002
 11
-4.5293542E+001
 21
1.270674E+002
  0
ARC
  8
1
  6
CONTINUOUS
 62
7
 10
-4.7E+001
 20
1.263274E+002
 40
1.86
 50
2.7184857E+002
 51
3.8344381E+002
  0
LINE
  8
1
  6
CONTINUOUS
 62
7
 10
-4.676E+001
 20
1.2466463E+002
 11
-4.676E+001
 21
1.268874E+002
  0
LINE
  8
1
  6
CONTINUOUS
 62
7
 10
-4.676E+001
 20
1.268874E+002
 11
-4.5416081E+001
 21
1.268874E+002
  0
ARC
  8
1
  6
CONTINUOUS
 62
7
 10
-4.7E+001
 20
1.263274E+002
 40
1.68
 50
2.7821321E+002
 51
3.7947122E+002
  0
LINE
  8
1
  6
CONTINUOUS
 62
7
 10
-4.658E+001
 20
1.248874E+002
 11
-4.658E+001
 21
1.267074E+002
  0
LINE
  8
1
  6
CONTINUOUS
 62
7
 10
-4.658E+001
 20
1.267074E+002
 11
-4.5548931E+001
 21
1.267074E+002
  0
ARC
  8
1
  6
CONTINUOUS
 62
7
 10
-4.7E+001
 20
1.263274E+002
 40
1.5
 50
2.862602E+002
 51
3.7467485E+002
  0
LINE
  8
1
  6
CONTINUOUS
 62
7
 10
-4.64E+001
 20
1.2515165E+002
 11
-4.64E+001
 21
1.265274E+002
  0
LINE
  8
1
  6
CONTINUOUS
 62
7
 10
-4.64E+001
 20
1.265274E+002
 11
-4.5695239E+001
 21
1.265274E+002
  0
ARC
  8
1
  6
CONTINUOUS
 62
7
 10
-4.7E+001
 20
1.263274E+002
 40
1.32
 50
2.9703569E+002
 51
3.6871474E+002
  0
LINE
  8
1
  6
CONTINUOUS
 62
7
 10
-4.622E+001
 20
1.2549602E+002
 11
-4.622E+001
 21
1.263474E+002
  0
LINE
  8
1
  6
CONTINUOUS
 62
7
 10
-4.622E+001
 20
1.263474E+002
 11
-4.5860175E+001
 21
1.263474E+002
  0
ARC
  8
1
  6
CONTINUOUS
 62
7
 10
-4.7E+001
 20
1.263274E+002
 40
1.14
 50
3.1317355E+002
 51
3.6100524E+002
  0
LINE
  8
1
  6
CONTINUOUS
 62
7
 10
-5.238E+001
 20
1.262674E+002
 11
-5.2181699E+001
 21
1.262674E+002
  0
ARC
  8
1
  6
CONTINUOUS
 62
7
 10
-5.324E+001
 20
1.263274E+002
 40
1.06
 50
3.2422517E+002
 51
3.5675511E+002
  0
LINE
  8
1
  6
CONTINUOUS
 62
7
 10
-5.238E+001
 20
1.2570772E+002
 11
-5.238E+001
 21
1.262674E+002
  0
LINE
  8
1
  6
CONTINUOUS
 62
7
 10
-4.611E+001
 20
1.2580894E+002
 11
-4.611E+001
 21
1.262374E+002
  0
LINE
  8
1
  6
CONTINUOUS
 62
7
 10
-4.611E+001
 20
1.262374E+002
 11
-4.597394E+001
 21
1.262374E+002
  0
ARC
  8
1
  6
CONTINUOUS
 62
7
 10
-4.7E+001
 20
1.263274E+002
 40
1.03
 50
3.2977755E+002
 51
3.5498718E+002
  0
LINE
  8
1
  6
CENTERLINE
 62
7
 10
-2.3E+001
 20
1.19E+002
 11
-2.3E+001
 21
4.6E+001
  0
TEXT
  8
1
  6
CONTINUOUS
 62
7
 10
2.669986E+001
 20
-2.4032169E+001
 40
2.0
  1
I
 41
7.5E-001
  0
TEXT
  8
1
  6
CONTINUOUS
 62
7
 10
-3.7E+001
 20
1.24E+002
 40
4.0
  1
    A9...75       REVERSING STARTER         WENDESTARTER        DEMARREUR INVERSEUR   
 41
7.5E-001
  0
LINE
  8
1
  6
CONTINUOUS
 62
7
 10
4.199986E+001
 20
-3.0532169E+001
 11
3.499986E+001
 21
-3.0532169E+001
  0
LINE
  8
1
  6
CENTERLINE
 62
7
 10
-2.3E+001
 20
1.19E+002
 11
8.7E+001
 21
1.19E+002
  0
LINE
  8
1
  6
CENTERLINE
 62
7
 10
-2.3E+001
 20
4.6E+001
 11
8.7E+001
 21
4.6E+001
  0
LINE
  8
1
  6
CONTINUOUS
 62
7
 10
2.999986E+001
 20
-1.5532169E+001
 11
2.299986E+001
 21
-1.5532169E+001
  0
TEXT
  8
1
  6
CONTINUOUS
 62
7
 10
1.17E+002
 20
1.165E+002
 40
2.25
  1
Adjunction/Zusatz/Adjonction
 41
7.5E-001
  0
LINE
  8
1
  6
CONTINUOUS
 62
7
 10
2.299986E+001
 20
-1.5532169E+001
 11
2.299986E+001
 21
-2.0532169E+001
  0
LINE
  8
1
  6
HIDDEN
 62
7
 10
-4.276E+001
 20
-2.5522169E+001
 11
-4.476E+001
 21
-2.5522169E+001
  0
LINE
  8
1
  6
HIDDEN
 62
7
 10
-2.59656E+001
 20
1.948785E+001
 11
-1.190703E+001
 21
1.948785E+001
  0
TEXT
  8
1
  6
CONTINUOUS
 62
7
 10
1.17E+002
 20
1.075E+002
 40
2.25
  1
DR
 41
7.5E-001
  0
LINE
  8
1
  6
CONTINUOUS
 62
7
 10
3.182E+001
 20
8.95E+001
 11
3.282E+001
 21
9.55E+001
  0
TEXT
  8
1
  6
CONTINUOUS
 62
7
 10
2.224986E+001
 20
-1.9532169E+001
 40
2.0
  1
57
 41
7.5E-001
 50
9.0E+001
  0
LINE
  8
1
  6
CONTINUOUS
 62
7
 10
2.299986E+001
 20
-2.5532169E+001
 11
2.099986E+001
 21
-2.0532169E+001
  0
TEXT
  8
1
  6
CONTINUOUS
 62
7
 10
1.17E+002
 20
9.45E+001
 40
2.25
  1
DS
 41
7.5E-001
  0
TEXT
  8
1
  6
CONTINUOUS
 62
7
 10
1.23E+002
 20
8.55E+001
 40
2.25
  1
On KM1/Ein KM1/Marche KM1
 41
7.5E-001
  0
TEXT
  8
1
  6
CONTINUOUS
 62
7
 10
1.23E+002
 20
7.46E+001
 40
2.25
  1
Off/Aus/Arrêt
 41
7.5E-001
  0
TEXT
  8
1
  6
CONTINUOUS
 62
7
 10
1.17E+002
 20
7.96E+001
 40
2.25
  1
H2
 41
7.5E-001
  0
LINE
  8
1
  6
CONTINUOUS
 62
7
 10
2.299986E+001
 20
-3.0532169E+001
 11
2.299986E+001
 21
-2.5532169E+001
  0
LINE
  8
1
  6
CONTINUOUS
 62
7
 10
0.0
 20
1.698785E+001
 11
1.0
 21
2.298785E+001
  0
LINE
  8
1
  6
HIDDEN
 62
7
 10
2.199986E+001
 20
-2.3032169E+001
 11
1.699986E+001
 21
-2.3032169E+001
  0
LINE
  8
1
  6
CONTINUOUS
 62
7
 10
0.0
 20
2.198785E+001
 11
2.0
 21
2.198785E+001
  0
LINE
  8
1
  6
CONTINUOUS
 62
7
 10
0.0
 20
2.198785E+001
 11
0.0
 21
3.2E+001
  0
LINE
  8
1
  6
CONTINUOUS
 62
7
 10
1.849986E+001
 20
-2.1032169E+001
 11
1.699986E+001
 21
-2.1032169E+001
  0
LINE
  8
1
  6
CONTINUOUS
 62
7
 10
1.699986E+001
 20
-2.1032169E+001
 11
1.699986E+001
 21
-2.5032169E+001
  0
TEXT
  8
1
  6
CONTINUOUS
 62
7
 10
1.17E+002
 20
8.55E+001
 40
2.25
  1
H1
 41
7.5E-001
  0
TEXT
  8
1
  6
CONTINUOUS
 62
7
 10
1.17E+002
 20
7.46E+001
 40
2.25
  1
H3
 41
7.5E-001
  0
TEXT
  8
1
  6
CONTINUOUS
 62
7
 10
1.17E+002
 20
6.96E+001
 40
2.25
  1
H4
 41
7.5E-001
  0
TEXT
  8
1
  6
CONTINUOUS
 62
7
 10
1.17E+002
 20
6.35E+001
 40
2.25
  1
H9
 41
7.5E-001
  0
LINE
  8
1
  6
CONTINUOUS
 62
7
 10
0.0
 20
1.698785E+001
 11
0.0
 21
1.199785E+001
  0
TEXT
  8
1
  6
CONTINUOUS
 62
7
 10
1.23E+002
 20
7.96E+001
 40
2.25
  1
On KM2/Ein KM2/Marche KM2
 41
7.5E-001
  0
LINE
  8
1
  6
CONTINUOUS
 62
7
 10
-1.190703E+001
 20
2.148785E+001
 11
-7.9070297
 21
1.948785E+001
  0
LINE
  8
1
  6
CONTINUOUS
 62
7
 10
-1.190703E+001
 20
2.148785E+001
 11
-1.190703E+001
 21
1.948785E+001
  0
LINE
  8
1
  6
CONTINUOUS
 62
7
 10
-1.190703E+001
 20
1.948785E+001
 11
-7.9070297
 21
1.948785E+001
  0
LINE
  8
1
  6
CONTINUOUS
 62
7
 10
-2.490703E+001
 20
2.148785E+001
 11
-2.090703E+001
 21
1.948785E+001
  0
LINE
  8
1
  6
CONTINUOUS
 62
7
 10
-2.490703E+001
 20
2.148785E+001
 11
-2.490703E+001
 21
1.948785E+001
  0
LINE
  8
1
  6
CONTINUOUS
 62
7
 10
-2.490703E+001
 20
1.948785E+001
 11
-2.090703E+001
 21
1.948785E+001
  0
LINE
  8
1
  6
HIDDEN
 62
7
 10
-7.9070297
 20
2.048785E+001
 11
-7.9070297
 21
2.498785E+001
  0
LINE
  8
1
  6
HIDDEN
 62
7
 10
-7.9070297
 20
2.498785E+001
 11
-1.590703E+001
 21
2.498785E+001
  0
LINE
  8
1
  6
HIDDEN
 62
7
 10
-6.9070297
 20
2.048785E+001
 11
5.8333333E-001
 21
2.048785E+001
  0
LINE
  8
1
  6
HIDDEN
 62
7
 10
-6.9070297
 20
2.598785E+001
 11
-6.9070297
 21
2.048785E+001
  0
LINE
  8
1
  6
HIDDEN
 62
7
 10
-1.590703E+001
 20
2.598785E+001
 11
-6.9070297
 21
2.598785E+001
  0
LINE
  8
1
  6
CONTINUOUS
 62
7
 10
-1.590703E+001
 20
2.748785E+001
 11
-1.590703E+001
 21
2.348785E+001
  0
LINE
  8
1
  6
CONTINUOUS
 62
7
 10
-1.440703E+001
 20
2.348785E+001
 11
-1.590703E+001
 21
2.348785E+001
  0
LINE
  8
1
  6
CONTINUOUS
 62
7
 10
-1.440703E+001
 20
2.748785E+001
 11
-1.590703E+001
 21
2.748785E+001
  0
TEXT
  8
1
  6
CONTINUOUS
 62
7
 10
-1.990703E+001
 20
2.548785E+001
 40
2.0
  1
O
 41
7.5E-001
  0
TEXT
  8
1
  6
CONTINUOUS
 62
7
 10
-1.820703E+001
 20
2.348785E+001
 40
2.0
  1
R
 41
7.5E-001
  0
LINE
  8
1
  6
CONTINUOUS
 62
7
 10
-1.770703E+001
 20
2.688785E+001
 11
-1.930703E+001
 21
2.368785E+001
  0
LINE
  8
1
  6
HIDDEN
 62
7
 10
-2.090703E+001
 20
2.048785E+001
 11
-2.090703E+001
 21
2.498785E+001
  0
LINE
  8
1
  6
HIDDEN
 62
7
 10
-2.090703E+001
 20
2.498785E+001
 11
-2.890703E+001
 21
2.498785E+001
  0
LINE
  8
1
  6
CONTINUOUS
 62
7
 10
-2.740703E+001
 20
2.348785E+001
 11
-2.890703E+001
 21
2.348785E+001
  0
LINE
  8
1
  6
CONTINUOUS
 62
7
 10
-2.890703E+001
 20
2.748785E+001
 11
-2.890703E+001
 21
2.348785E+001
  0
LINE
  8
1
  6
CONTINUOUS
 62
7
 10
-2.740703E+001
 20
2.748785E+001
 11
-2.890703E+001
 21
2.748785E+001
  0
TEXT
  8
1
  6
CONTINUOUS
 62
7
 10
-3.120703E+001
 20
2.348785E+001
 40
2.0
  1
R
 41
7.5E-001
  0
LINE
  8
1
  6
HIDDEN
 62
7
 10
8.809297E+001
 20
1.948785E+001
 11
9.9E+001
 21
1.948785E+001
  0
LINE
  8
1
  6
CONTINUOUS
 62
7
 10
1.849986E+001
 20
-2.5032169E+001
 11
1.699986E+001
 21
-2.5032169E+001
  0
TEXT
  8
1
  6
CONTINUOUS
 62
7
 10
2.224986E+001
 20
-2.8532169E+001
 40
2.0
  1
58
 41
7.5E-001
 50
9.0E+001
  0
TEXT
  8
1
  6
CONTINUOUS
 62
7
 10
1.469986E+001
 20
-2.4032169E+001
 40
2.0
  1
I
 41
7.5E-001
  0
LINE
  8
1
  6
CONTINUOUS
 62
7
 10
2.999986E+001
 20
-3.0532169E+001
 11
2.299986E+001
 21
-3.0532169E+001
  0
LINE
  8
1
  6
CONTINUOUS
 62
7
 10
-4.176E+001
 20
-2.15E-003
 11
-3.476E+001
 21
-2.15E-003
  0
TEXT
  8
1
  6
CONTINUOUS
 62
7
 10
-6.2755239E+001
 20
3.5E+001
 40
2.25
  1
Remote control/Fernbetätigung/Commande à distance
 41
7.5E-001
  0
LINE
  8
1
  6
SHORT_DASH
 62
7
 10
-3.476E+001
 20
1.199785E+001
 11
0.0
 21
1.199785E+001
  0
TEXT
  8
1
  6
CONTINUOUS
 62
7
 10
3.424986E+001
 20
-1.4640642E+001
 40
2.0
  1
A30/40
 41
7.5E-001
 50
9.0E+001
  0
LINE
  8
1
  6
SHORT_DASH
 62
7
 10
-2.6E+001
 20
-2.15E-003
 11
-3.4E+001
 21
-2.15E-003
  0
TEXT
  8
1
  6
CONTINUOUS
 62
7
 10
4.624986E+001
 20
-1.4640642E+001
 40
2.0
  1
A50/63/75
 41
7.5E-001
 50
9.0E+001
  0
TEXT
  8
1
  6
CONTINUOUS
 62
7
 10
3.107E+001
 20
9.6E+001
 40
2.0
  1
01
 41
7.5E-001
 50
9.0E+001
  0
TEXT
  8
1
  6
CONTINUOUS
 62
7
 10
3.107E+001
 20
8.5E+001
 40
2.0
  1
02
 41
7.5E-001
 50
9.0E+001
  0
LINE
  8
1
  6
CONTINUOUS
 62
7
 10
5.4E+001
 20
-4.0955422E+001
 11
5.6E+001
 21
-4.0955422E+001
  0
LINE
  8
1
  6
CONTINUOUS
 62
7
 10
5.4E+001
 20
-4.5955422E+001
 11
5.5E+001
 21
-3.9955422E+001
  0
LINE
  8
1
  6
CONTINUOUS
 62
7
 10
-3.676E+001
 20
-3.00215
 11
-3.676E+001
 21
2.99785
  0
LINE
  8
1
  6
CONTINUOUS
 62
7
 10
9.6E+001
 20
-4.0955422E+001
 11
9.8E+001
 21
-4.0955422E+001
  0
LINE
  8
1
  6
CONTINUOUS
 62
7
 10
-3.676E+001
 20
-4.00215
 11
-3.676E+001
 21
-5.00215
  0
LINE
  8
1
  6
CONTINUOUS
 62
7
 10
-3.676E+001
 20
-6.00215
 11
-3.676E+001
 21
-1.100215E+001
  0
LINE
  8
1
  6
CONTINUOUS
 62
7
 10
3.182E+001
 20
9.45E+001
 11
3.382E+001
 21
9.45E+001
  0
LINE
  8
1
  6
CONTINUOUS
 62
7
 10
-3.676E+001
 20
-1.200215E+001
 11
-3.676E+001
 21
-1.300215E+001
  0
LINE
  8
1
  6
CONTINUOUS
 62
7
 10
9.6E+001
 20
-4.5955422E+001
 11
9.7E+001
 21
-3.9955422E+001
  0
LINE
  8
1
  6
CONTINUOUS
 62
7
 10
-3.676E+001
 20
-1.400215E+001
 11
-3.676E+001
 21
-1.900215E+001
  0
LINE
  8
1
  6
CONTINUOUS
 62
7
 10
-3.676E+001
 20
-2.200215E+001
 11
-3.676E+001
 21
-2.700215E+001
  0
LINE
  8
1
  6
CONTINUOUS
 62
7
 10
9.6E+001
 20
-4.5955422E+001
 11
9.6E+001
 21
-5.5E+001
  0
LINE
  8
1
  6
CONTINUOUS
 62
7
 10
5.4E+001
 20
-4.5955422E+001
 11
5.4E+001
 21
-5.5E+001
  0
TEXT
  8
1
  6
CONTINUOUS
 62
7
 10
1.0075E+002
 20
-5.7868615E+001
 40
2.0
  1
KM2
 41
7.5E-001
  0
LINE
  8
1
  6
HIDDEN
 62
7
 10
-7.0
 20
9.2E+001
 11
2.4759895E+001
 21
9.2E+001
  0
LINE
  8
1
  6
CONTINUOUS
 62
7
 10
-1.5E+001
 20
9.4E+001
 11
-1.5E+001
 21
9.0118615E+001
  0
LINE
  8
1
  6
CONTINUOUS
 62
7
 10
-7.0
 20
9.4E+001
 11
-7.0
 21
9.0118615E+001
  0
LINE
  8
1
  6
CONTINUOUS
 62
7
 10
-7.0
 20
9.4E+001
 11
-1.5E+001
 21
9.4E+001
  0
LINE
  8
1
  6
CONTINUOUS
 62
7
 10
-7.0
 20
9.0118615E+001
 11
-1.5E+001
 21
9.0118615E+001
  0
LINE
  8
1
  6
CONTINUOUS
 62
7
 10
-1.1E+001
 20
9.4E+001
 11
-1.1E+001
 21
9.9E+001
  0
LINE
  8
1
  6
CONTINUOUS
 62
7
 10
-1.1E+001
 20
9.0118615E+001
 11
-1.1E+001
 21
8.5E+001
  0
TEXT
  8
1
  6
CONTINUOUS
 62
7
 10
-2.0E+001
 20
9.275E+001
 40
2.0
  1
KM1
 41
7.5E-001
  0
TEXT
  8
1
  6
CONTINUOUS
 62
7
 10
-1.175E+001
 20
9.5E+001
 40
2.0
  1
A1
 41
7.5E-001
 50
9.0E+001
  0
TEXT
  8
1
  6
CONTINUOUS
 62
7
 10
-1.175E+001
 20
8.6E+001
 40
2.0
  1
A2
 41
7.5E-001
 50
9.0E+001
  0
LINE
  8
1
  6
CONTINUOUS
 62
7
 10
-1.0
 20
9.45E+001
 11
-1.0
 21
1.13E+002
  0
LINE
  8
1
  6
CONTINUOUS
 62
7
 10
-1.0
 20
8.95E+001
 11
-1.0
 21
7.2E+001
  0
TEXT
  8
1
  6
CONTINUOUS
 62
7
 10
9.525E+001
 20
-3.9955422E+001
 40
2.0
  1
01
 41
7.5E-001
 50
9.0E+001
  0
LINE
  8
1
  6
CONTINUOUS
 62
7
 10
-3.676E+001
 20
-2.800215E+001
 11
-3.676E+001
 21
-3.000215E+001
  0
LINE
  8
1
  6
CONTINUOUS
 62
7
 10
6.982E+001
 20
8.95E+001
 11
6.782E+001
 21
9.45E+001
  0
LINE
  8
1
  6
CONTINUOUS
 62
7
 10
-3.676E+001
 20
-2.000215E+001
 11
-3.676E+001
 21
-2.100215E+001
  0
LINE
  8
1
  6
CONTINUOUS
 62
7
 10
4.0
 20
9.45E+001
 11
4.0
 21
1.15E+002
  0
LINE
  8
1
  6
CONTINUOUS
 62
7
 10
4.0
 20
8.95E+001
 11
4.0
 21
7.4E+001
  0
LINE
  8
1
  6
HIDDEN
 62
7
 10
2.679532E+001
 20
9.2059308E+001
 11
4.082E+001
 21
9.2059308E+001
  0
LINE
  8
1
  6
CONTINUOUS
 62
7
 10
-4.126E+001
 20
-3.000215E+001
 11
-3.676E+001
 21
-3.000215E+001
  0
LINE
  8
1
  6
CONTINUOUS
 62
7
 10
9.0
 20
9.448785E+001
 11
9.0
 21
1.17E+002
  0
LINE
  8
1
  6
CONTINUOUS
 62
7
 10
9.0
 20
8.95E+001
 11
9.0
 21
7.6E+001
  0
TEXT
  8
1
  6
CONTINUOUS
 62
7
 10
9.525E+001
 20
-4.8955422E+001
 40
2.0
  1
02
 41
7.5E-001
 50
9.0E+001
  0
LINE
  8
1
  6
CONTINUOUS
 62
7
 10
-4.226E+001
 20
-3.000215E+001
 11
-4.326E+001
 21
-3.000215E+001
  0
LINE
  8
1
  6
CONTINUOUS
 62
7
 10
-1.0
 20
1.13E+002
 11
5.3665299E+001
 21
1.13E+002
  0
LINE
  8
1
  6
CONTINUOUS
 62
7
 10
1.4E+001
 20
9.45E+001
 11
1.4E+001
 21
1.0127387E+002
  0
LINE
  8
1
  6
CONTINUOUS
 62
7
 10
1.4E+001
 20
8.95E+001
 11
1.4E+001
 21
8.2451075E+001
  0
TEXT
  8
1
  6
CONTINUOUS
 62
7
 10
5.325E+001
 20
-3.9955422E+001
 40
2.0
  1
01
 41
7.5E-001
 50
9.0E+001
  0
TEXT
  8
1
  6
CONTINUOUS
 62
7
 10
5.325E+001
 20
-4.8955422E+001
 40
2.0
  1
02
 41
7.5E-001
 50
9.0E+001
  0
LINE
  8
1
  6
CONTINUOUS
 62
7
 10
1.982E+001
 20
9.45E+001
 11
2.182E+001
 21
9.45E+001
  0
LINE
  8
1
  6
CONTINUOUS
 62
7
 10
1.982E+001
 20
9.45E+001
 11
1.982E+001
 21
1.0127387E+002
  0
LINE
  8
1
  6
CONTINUOUS
 62
7
 10
5.4E+001
 20
-6.4E+001
 11
9.6E+001
 21
-6.4E+001
  0
LINE
  8
1
  6
CONTINUOUS
 62
7
 10
1.982E+001
 20
8.95E+001
 11
1.982E+001
 21
8.2451075E+001
  0
LINE
  8
1
  6
CONTINUOUS
 62
7
 10
7.254096E+001
 20
-5.527E+001
 11
7.454096E+001
 21
-5.8734102E+001
  0
LINE
  8
1
  6
HIDDEN
 62
7
 10
7.554096E+001
 20
-5.6940692E+001
 11
9.2E+001
 21
-5.6940692E+001
  0
LINE
  8
1
  6
CONTINUOUS
 62
7
 10
7.254096E+001
 20
-5.527E+001
 11
7.654096E+001
 21
-5.527E+001
  0
LINE
  8
1
  6
CONTINUOUS
 62
7
 10
1.982E+001
 20
8.95E+001
 11
2.082E+001
 21
9.55E+001
  0
LINE
  8
1
  6
CONTINUOUS
 62
7
 10
-4.976E+001
 20
-3.0022169E+001
 11
-4.426E+001
 21
-3.0022169E+001
  0
LINE
  8
1
  6
HIDDEN
 62
7
 10
6.0E+001
 20
-5.7E+001
 11
7.354096E+001
 21
-5.7E+001
  0
LINE
  8
1
  6
CONTINUOUS
 62
7
 10
1.4E+001
 20
8.95E+001
 11
1.2E+001
 21
9.45E+001
  0
LINE
  8
1
  6
CONTINUOUS
 62
7
 10
9.0
 20
8.95E+001
 11
7.0
 21
9.45E+001
  0
LINE
  8
1
  6
CONTINUOUS
 62
7
 10
4.0
 20
8.95E+001
 11
2.0
 21
9.45E+001
  0
LINE
  8
1
  6
CONTINUOUS
 62
7
 10
-1.0
 20
8.95E+001
 11
-3.0
 21
9.45E+001
  0
TEXT
  8
1
  6
CONTINUOUS
 62
7
 10
-1.75
 20
1.05E+002
 40
2.0
  1
1/L1
 41
7.5E-001
 50
9.0E+001
  0
TEXT
  8
1
  6
CONTINUOUS
 62
7
 10
3.25
 20
1.05E+002
 40
2.0
  1
3/L2
 41
7.5E-001
 50
9.0E+001
  0
TEXT
  8
1
  6
CONTINUOUS
 62
7
 10
8.25
 20
1.05E+002
 40
2.0
  1
5/L3
 41
7.5E-001
 50
9.0E+001
  0
TEXT
  8
1
  6
CONTINUOUS
 62
7
 10
1.907E+001
 20
9.6E+001
 40
2.0
  1
01
 41
7.5E-001
 50
9.0E+001
  0
TEXT
  8
1
  6
CONTINUOUS
 62
7
 10
-1.75
 20
8.1E+001
 40
2.0
  1
2/T1
 41
7.5E-001
 50
9.0E+001
  0
TEXT
  8
1
  6
CONTINUOUS
 62
7
 10
3.25
 20
8.1E+001
 40
2.0
  1
4/T2
 41
7.5E-001
 50
9.0E+001
  0
TEXT
  8
1
  6
CONTINUOUS
 62
7
 10
8.25
 20
8.1E+001
 40
2.0
  1
6/T3
 41
7.5E-001
 50
9.0E+001
  0
TEXT
  8
1
  6
CONTINUOUS
 62
7
 10
1.907E+001
 20
8.5E+001
 40
2.0
  1
02
 41
7.5E-001
 50
9.0E+001
  0
LINE
  8
1
  6
CONTINUOUS
 62
7
 10
9.0
 20
7.6E+001
 11
5.3728287E+001
 21
7.6E+001
  0
LINE
  8
1
  6
CONTINUOUS
 62
7
 10
4.0
 20
7.4E+001
 11
5.7608732E+001
 21
7.4E+001
  0
LINE
  8
1
  6
CONTINUOUS
 62
7
 10
-1.0
 20
7.2E+001
 11
6.1489176E+001
 21
7.2E+001
  0
LINE
  8
1
  6
CONTINUOUS
 62
7
 10
7.654096E+001
 20
-5.527E+001
 11
7.454096E+001
 21
-5.8734102E+001
  0
LINE
  8
1
  6
CONTINUOUS
 62
7
 10
5.4E+001
 20
-2.0532169E+001
 11
5.4E+001
 21
0.0
  0
LINE
  8
1
  6
CONTINUOUS
 62
7
 10
4.082E+001
 20
9.4E+001
 11
4.082E+001
 21
9.0118615E+001
  0
LINE
  8
1
  6
CONTINUOUS
 62
7
 10
4.882E+001
 20
9.4E+001
 11
4.882E+001
 21
9.0118615E+001
  0
LINE
  8
1
  6
CONTINUOUS
 62
7
 10
4.882E+001
 20
9.4E+001
 11
4.082E+001
 21
9.4E+001
  0
LINE
  8
1
  6
CONTINUOUS
 62
7
 10
4.882E+001
 20
9.0118615E+001
 11
4.082E+001
 21
9.0118615E+001
  0
LINE
  8
1
  6
CONTINUOUS
 62
7
 10
4.482E+001
 20
9.4E+001
 11
4.482E+001
 21
9.9E+001
  0
LINE
  8
1
  6
CONTINUOUS
 62
7
 10
4.482E+001
 20
9.0118615E+001
 11
4.482E+001
 21
8.5E+001
  0
TEXT
  8
1
  6
CONTINUOUS
 62
7
 10
3.582E+001
 20
9.275E+001
 40
2.0
  1
KM2
 41
7.5E-001
  0
TEXT
  8
1
  6
CONTINUOUS
 62
7
 10
4.407E+001
 20
9.5E+001
 40
2.0
  1
A1
 41
7.5E-001
 50
9.0E+001
  0
TEXT
  8
1
  6
CONTINUOUS
 62
7
 10
4.407E+001
 20
8.6E+001
 40
2.0
  1
A2
 41
7.5E-001
 50
9.0E+001
  0
LINE
  8
1
  6
CONTINUOUS
 62
7
 10
5.482E+001
 20
9.45E+001
 11
5.482E+001
 21
1.11E+002
  0
LINE
  8
1
  6
CONTINUOUS
 62
7
 10
5.482E+001
 20
8.95E+001
 11
5.482E+001
 21
6.025E+001
  0
LINE
  8
1
  6
CONTINUOUS
 62
7
 10
5.482E+001
 20
1.11E+002
 11
5.3665299E+001
 21
1.13E+002
  0
LINE
  8
1
  6
CONTINUOUS
 62
7
 10
5.982E+001
 20
9.45E+001
 11
5.982E+001
 21
1.1076228E+002
  0
LINE
  8
1
  6
CONTINUOUS
 62
7
 10
5.982E+001
 20
8.95E+001
 11
5.982E+001
 21
6.025E+001
  0
LINE
  8
1
  6
CONTINUOUS
 62
7
 10
5.982E+001
 20
1.11E+002
 11
5.982E+001
 21
1.1076228E+002
  0
LINE
  8
1
  6
CONTINUOUS
 62
7
 10
6.482E+001
 20
9.45E+001
 11
6.482E+001
 21
1.11E+002
  0
LINE
  8
1
  6
CONTINUOUS
 62
7
 10
6.482E+001
 20
8.95E+001
 11
6.482E+001
 21
6.025E+001
  0
LINE
  8
1
  6
CONTINUOUS
 62
7
 10
5.982E+001
 20
1.11E+002
 11
5.7510599E+001
 21
1.15E+002
  0
LINE
  8
1
  6
CONTINUOUS
 62
7
 10
-6.276E+001
 20
-2.200215E+001
 11
-6.276E+001
 21
-2.710318E+001
  0
TEXT
  8
1
  6
CONTINUOUS
 62
7
 10
5.325E+001
 20
-1.9E+001
 40
2.0
  1
13
 41
7.5E-001
 50
9.0E+001
  0
TEXT
  8
1
  6
CONTINUOUS
 62
7
 10
1.30233E+002
 20
3.5E+001
 40
2.25
  1
Adjunction/Zusatz/Adjonction
 41
7.5E-001
  0
TEXT
  8
1
  6
CONTINUOUS
 62
7
 10
4.75E+001
 20
-2.3368615E+001
 40
2.0
  1
KM1
 41
7.5E-001
  0
LINE
  8
1
  6
CONTINUOUS
 62
7
 10
5.4E+001
 20
-2.5E+001
 11
5.2E+001
 21
-2.0E+001
  0
TEXT
  8
1
  6
CONTINUOUS
 62
7
 10
5.325E+001
 20
-2.8E+001
 40
2.0
  1
14
 41
7.5E-001
 50
9.0E+001
  0
LINE
  8
1
  6
CONTINUOUS
 62
7
 10
6.482E+001
 20
8.95E+001
 11
6.282E+001
 21
9.45E+001
  0
LINE
  8
1
  6
CONTINUOUS
 62
7
 10
5.982E+001
 20
8.95E+001
 11
5.782E+001
 21
9.45E+001
  0
LINE
  8
1
  6
CONTINUOUS
 62
7
 10
5.482E+001
 20
8.95E+001
 11
5.282E+001
 21
9.45E+001
  0
TEXT
  8
1
  6
CONTINUOUS
 62
7
 10
5.407E+001
 20
1.05E+002
 40
2.0
  1
1/L1
 41
7.5E-001
 50
9.0E+001
  0
TEXT
  8
1
  6
CONTINUOUS
 62
7
 10
5.907E+001
 20
1.05E+002
 40
2.0
  1
3/L2
 41
7.5E-001
 50
9.0E+001
  0
TEXT
  8
1
  6
CONTINUOUS
 62
7
 10
6.407E+001
 20
1.05E+002
 40
2.0
  1
5/L3
 41
7.5E-001
 50
9.0E+001
  0
TEXT
  8
1
  6
CONTINUOUS
 62
7
 10
3.2678311E+001
 20
3.504E+001
 40
2.25
  1
Local control/Betätigung innerhalb/Commande locale
 41
7.5E-001
  0
TEXT
  8
1
  6
CONTINUOUS
 62
7
 10
5.407E+001
 20
8.1E+001
 40
2.0
  1
2/T1
 41
7.5E-001
 50
9.0E+001
  0
TEXT
  8
1
  6
CONTINUOUS
 62
7
 10
5.907E+001
 20
8.1E+001
 40
2.0
  1
4/T2
 41
7.5E-001
 50
9.0E+001
  0
TEXT
  8
1
  6
CONTINUOUS
 62
7
 10
6.407E+001
 20
8.1E+001
 40
2.0
  1
6/T3
 41
7.5E-001
 50
9.0E+001
  0
TEXT
  8
1
  6
CONTINUOUS
 62
7
 10
9.525E+001
 20
-1.9E+001
 40
2.0
  1
13
 41
7.5E-001
 50
9.0E+001
  0
LINE
  8
1
  6
CONTINUOUS
 62
7
 10
-6.276E+001
 20
-3.0022169E+001
 11
-6.276E+001
 21
-2.800215E+001
  0
LINE
  8
1
  6
CONTINUOUS
 62
7
 10
-4.9870762E+001
 20
3.2E+001
 11
1.019434E+001
 21
3.2E+001
  0
LINE
  8
1
  6
CONTINUOUS
 62
7
 10
-6.276E+001
 20
-2.000215E+001
 11
-6.276E+001
 21
-2.100215E+001
  0
LINE
  8
1
  6
CONTINUOUS
 62
7
 10
5.3728287E+001
 20
7.6E+001
 11
5.482E+001
 21
7.7950261E+001
  0
LINE
  8
1
  6
CONTINUOUS
 62
7
 10
-6.276E+001
 20
-1.900215E+001
 11
-6.276E+001
 21
-1.400215E+001
  0
LINE
  8
1
  6
CONTINUOUS
 62
7
 10
5.7608732E+001
 20
7.4E+001
 11
5.982E+001
 21
7.7950261E+001
  0
LINE
  8
1
  6
CONTINUOUS
 62
7
 10
6.1489176E+001
 20
7.2E+001
 11
6.482E+001
 21
7.7950261E+001
  0
LINE
  8
1
  6
HIDDEN
 62
7
 10
4.882E+001
 20
9.2E+001
 11
6.882E+001
 21
9.2E+001
  0
TEXT
  8
1
  6
CONTINUOUS
 62
7
 10
8.95E+001
 20
-2.3368615E+001
 40
2.0
  1
KM2
 41
7.5E-001
  0
LINE
  8
1
  6
CONTINUOUS
 62
7
 10
9.6E+001
 20
-2.5E+001
 11
9.4E+001
 21
-2.0E+001
  0
TEXT
  8
1
  6
CONTINUOUS
 62
7
 10
9.525E+001
 20
-2.8E+001
 40
2.0
  1
14
 41
7.5E-001
 50
9.0E+001
  0
LINE
  8
1
  6
CONTINUOUS
 62
7
 10
9.2E+001
 20
-5.9E+001
 11
1.0E+002
 21
-5.9E+001
  0
LINE
  8
1
  6
CONTINUOUS
 62
7
 10
5.0E+001
 20
-5.9E+001
 11
5.8E+001
 21
-5.9E+001
  0
LINE
  8
1
  6
CONTINUOUS
 62
7
 10
5.0E+001
 20
-5.5E+001
 11
5.8E+001
 21
-5.5E+001
  0
LINE
  8
1
  6
CONTINUOUS
 62
7
 10
9.2E+001
 20
-5.5E+001
 11
1.0E+002
 21
-5.5E+001
  0
LINE
  8
1
  6
CONTINUOUS
 62
7
 10
5.0E+001
 20
-5.5E+001
 11
5.0E+001
 21
-5.9E+001
  0
LINE
  8
1
  6
CONTINUOUS
 62
7
 10
5.8E+001
 20
-5.5E+001
 11
5.8E+001
 21
-5.9E+001
  0
LINE
  8
1
  6
CONTINUOUS
 62
7
 10
9.2E+001
 20
-5.5E+001
 11
9.2E+001
 21
-5.9E+001
  0
LINE
  8
1
  6
CONTINUOUS
 62
7
 10
1.0E+002
 20
-5.5E+001
 11
1.0E+002
 21
-5.9E+001
  0
LINE
  8
1
  6
CONTINUOUS
 62
7
 10
6.482E+001
 20
1.11E+002
 11
6.1355898E+001
 21
1.17E+002
  0
LINE
  8
1
  6
CONTINUOUS
 62
7
 10
9.6E+001
 20
-5.9E+001
 11
9.6E+001
 21
-6.4E+001
  0
LINE
  8
1
  6
CONTINUOUS
 62
7
 10
5.4E+001
 20
-5.9E+001
 11
5.4E+001
 21
-6.4E+001
  0
LINE
  8
1
  6
CONTINUOUS
 62
7
 10
9.0
 20
1.17E+002
 11
6.1355898E+001
 21
1.17E+002
  0
LINE
  8
1
  6
CONTINUOUS
 62
7
 10
5.4E+001
 20
-2.5E+001
 11
5.4E+001
 21
-4.0955422E+001
  0
LINE
  8
1
  6
CONTINUOUS
 62
7
 10
9.6E+001
 20
-2.5E+001
 11
9.6E+001
 21
-4.0955422E+001
  0
LINE
  8
1
  6
CENTERLINE
 62
7
 10
8.7E+001
 20
1.19E+002
 11
8.7E+001
 21
4.6E+001
  0
LINE
  8
1
  6
CONTINUOUS
 62
7
 10
-6.276E+001
 20
-1.200215E+001
 11
-6.276E+001
 21
-1.300215E+001
  0
TEXT
  8
1
  6
CONTINUOUS
 62
7
 10
9.525E+001
 20
-5.4E+001
 40
2.0
  1
A1
 41
7.5E-001
 50
9.0E+001
  0
TEXT
  8
1
  6
CONTINUOUS
 62
7
 10
9.525E+001
 20
-6.3E+001
 40
2.0
  1
A2
 41
7.5E-001
 50
9.0E+001
  0
LINE
  8
1
  6
CONTINUOUS
 62
7
 10
-6.276E+001
 20
-6.00215
 11
-6.276E+001
 21
-1.100215E+001
  0
LINE
  8
1
  6
SHORT_DASH
 62
7
 10
-5.884E+001
 20
2.9E+001
 11
-4.6753557E+001
 21
2.9E+001
  0
LINE
  8
1
  6
CONTINUOUS
 62
7
 10
-4.6753557E+001
 20
2.9E+001
 11
-4.6753557E+001
 21
3.2E+001
  0
TEXT
  8
1
  6
CONTINUOUS
 62
7
 10
5.325E+001
 20
-5.4E+001
 40
2.0
  1
A1
 41
7.5E-001
 50
9.0E+001
  0
TEXT
  8
1
  6
CONTINUOUS
 62
7
 10
5.325E+001
 20
-6.3E+001
 40
2.0
  1
A2
 41
7.5E-001
 50
9.0E+001
  0
TEXT
  8
1
  6
CONTINUOUS
 62
7
 10
4.5E+001
 20
-5.7868615E+001
 40
2.0
  1
KM1
 41
7.5E-001
  0
LINE
  8
1
  6
CONTINUOUS
 62
7
 10
3.3286443E+001
 20
-5.8E+001
 11
3.3286443E+001
 21
-6.4E+001
  0
LINE
  8
1
  6
CONTINUOUS
 62
7
 10
3.02E+001
 20
-6.4E+001
 11
5.4E+001
 21
-6.4E+001
  0
LINE
  8
1
  6
SHORT_DASH
 62
7
 10
2.12E+001
 20
-5.8E+001
 11
3.3286443E+001
 21
-5.8E+001
  0
LINE
  8
1
  6
SHORT_DASH
 62
7
 10
2.12E+001
 20
-6.1E+001
 11
3.3286443E+001
 21
-6.1E+001
  0
LINE
  8
1
  6
CONTINUOUS
 62
7
 10
-6.276E+001
 20
-4.00215
 11
-6.276E+001
 21
-5.00215
  0
LINE
  8
1
  6
CONTINUOUS
 62
7
 10
-4.9025747E+001
 20
9.977831
 11
-4.426E+001
 21
9.977831
  0
LINE
  8
1
  6
CONTINUOUS
 62
7
 10
8.399986E+001
 20
-1.5532169E+001
 11
7.699986E+001
 21
-1.5532169E+001
  0
LINE
  8
1
  6
CONTINUOUS
 62
7
 10
4.0
 20
1.15E+002
 11
5.7510599E+001
 21
1.15E+002
  0
LINE
  8
1
  6
SHORT_DASH
 62
7
 10
3.6E+001
 20
2.9E+001
 11
4.8086443E+001
 21
2.9E+001
  0
LINE
  8
1
  6
CONTINUOUS
 62
7
 10
4.8086443E+001
 20
2.9E+001
 11
4.8086443E+001
 21
3.2E+001
  0
LINE
  8
1
  6
CONTINUOUS
 62
7
 10
7.699986E+001
 20
-1.5532169E+001
 11
7.699986E+001
 21
-2.0532169E+001
  0
LINE
  8
1
  6
HIDDEN
 62
7
 10
6.482E+001
 20
1.1124641E+002
 11
6.482E+001
 21
1.21E+002
  0
LINE
  8
1
  6
HIDDEN
 62
7
 10
5.982E+001
 20
1.1124641E+002
 11
5.982E+001
 21
1.21E+002
  0
LINE
  8
1
  6
HIDDEN
 62
7
 10
5.482E+001
 20
1.1124641E+002
 11
5.482E+001
 21
1.21E+002
  0
TEXT
  8
1
  6
CONTINUOUS
 62
7
 10
7.624986E+001
 20
-1.9532169E+001
 40
2.0
  1
67
 41
7.5E-001
 50
9.0E+001
  0
LINE
  8
1
  6
CONTINUOUS
 62
7
 10
9.6E+001
 20
1.698785E+001
 11
9.7E+001
 21
2.298785E+001
  0
LINE
  8
1
  6
CONTINUOUS
 62
7
 10
9.6E+001
 20
2.198785E+001
 11
9.8E+001
 21
2.198785E+001
  0
LINE
  8
1
  6
SHORT_DASH
 62
7
 10
-5.884E+001
 20
-6.1E+001
 11
-4.6753557E+001
 21
-6.1E+001
  0
LINE
  8
1
  6
CONTINUOUS
 62
7
 10
8.409297E+001
 20
2.148785E+001
 11
8.809297E+001
 21
1.948785E+001
  0
LINE
  8
1
  6
CONTINUOUS
 62
7
 10
8.409297E+001
 20
2.148785E+001
 11
8.409297E+001
 21
1.948785E+001
  0
LINE
  8
1
  6
CONTINUOUS
 62
7
 10
8.309297E+001
 20
1.948785E+001
 11
8.809297E+001
 21
1.948785E+001
  0
LINE
  8
1
  6
HIDDEN
 62
7
 10
5.982E+001
 20
3.9E+001
 11
5.982E+001
 21
4.65E+001
  0
LINE
  8
1
  6
CONTINUOUS
 62
7
 10
7.699986E+001
 20
-3.0532169E+001
 11
7.699986E+001
 21
-2.5532169E+001
  0
LINE
  8
1
  6
SHORT_DASH
 62
7
 10
-5.884E+001
 20
-5.8E+001
 11
-4.6753557E+001
 21
-5.8E+001
  0
LINE
  8
1
  6
HIDDEN
 62
7
 10
7.599986E+001
 20
-2.3032169E+001
 11
7.099986E+001
 21
-2.3032169E+001
  0
LINE
  8
1
  6
CONTINUOUS
 62
7
 10
-4.6753557E+001
 20
-5.8E+001
 11
-4.6753557E+001
 21
-6.4E+001
  0
LINE
  8
1
  6
CONTINUOUS
 62
7
 10
7.249986E+001
 20
-2.1032169E+001
 11
7.099986E+001
 21
-2.1032169E+001
  0
LINE
  8
1
  6
HIDDEN
 62
7
 10
8.809297E+001
 20
2.048785E+001
 11
8.809297E+001
 21
2.498785E+001
  0
LINE
  8
1
  6
HIDDEN
 62
7
 10
8.809297E+001
 20
2.498785E+001
 11
8.009297E+001
 21
2.498785E+001
  0
LINE
  8
1
  6
HIDDEN
 62
7
 10
8.909297E+001
 20
2.048785E+001
 11
9.6583333E+001
 21
2.048785E+001
  0
LINE
  8
1
  6
HIDDEN
 62
7
 10
8.909297E+001
 20
2.598785E+001
 11
8.909297E+001
 21
2.048785E+001
  0
LINE
  8
1
  6
HIDDEN
 62
7
 10
8.009297E+001
 20
2.598785E+001
 11
8.909297E+001
 21
2.598785E+001
  0
LINE
  8
1
  6
CONTINUOUS
 62
7
 10
8.009297E+001
 20
2.748785E+001
 11
8.009297E+001
 21
2.348785E+001
  0
LINE
  8
1
  6
CONTINUOUS
 62
7
 10
8.159297E+001
 20
2.348785E+001
 11
8.009297E+001
 21
2.348785E+001
  0
LINE
  8
1
  6
CONTINUOUS
 62
7
 10
8.159297E+001
 20
2.748785E+001
 11
8.009297E+001
 21
2.748785E+001
  0
TEXT
  8
1
  6
CONTINUOUS
 62
7
 10
7.609297E+001
 20
2.548785E+001
 40
2.0
  1
O
 41
7.5E-001
  0
TEXT
  8
1
  6
CONTINUOUS
 62
7
 10
7.779297E+001
 20
2.348785E+001
 40
2.0
  1
R
 41
7.5E-001
  0
LINE
  8
1
  6
CONTINUOUS
 62
7
 10
-6.276E+001
 20
1.99785
 11
-6.276E+001
 21
-2.9249447
  0
LINE
  8
1
  6
CONTINUOUS
 62
7
 10
-4.326E+001
 20
9.99785
 11
-4.226E+001
 21
9.99785
  0
LINE
  8
1
  6
CONTINUOUS
 62
7
 10
-4.126E+001
 20
9.99785
 11
-3.676E+001
 21
9.99785
  0
LINE
  8
1
  6
CONTINUOUS
 62
7
 10
7.829297E+001
 20
2.688785E+001
 11
7.669297E+001
 21
2.368785E+001
  0
LINE
  8
1
  6
CONTINUOUS
 62
7
 10
7.099986E+001
 20
-2.1032169E+001
 11
7.099986E+001
 21
-2.5032169E+001
  0
LINE
  8
1
  6
CONTINUOUS
 62
7
 10
7.249986E+001
 20
-2.5032169E+001
 11
7.099986E+001
 21
-2.5032169E+001
  0
TEXT
  8
1
  6
CONTINUOUS
 62
7
 10
7.624986E+001
 20
-2.8532169E+001
 40
2.0
  1
68
 41
7.5E-001
 50
9.0E+001
  0
LINE
  8
1
  6
CONTINUOUS
 62
7
 10
8.399986E+001
 20
-3.0532169E+001
 11
7.699986E+001
 21
-3.0532169E+001
  0
LINE
  8
1
  6
CONTINUOUS
 62
7
 10
7.199986E+001
 20
-1.5532169E+001
 11
6.499986E+001
 21
-1.5532169E+001
  0
LINE
  8
1
  6
CONTINUOUS
 62
7
 10
6.499986E+001
 20
-1.5532169E+001
 11
6.499986E+001
 21
-2.0532169E+001
  0
LINE
  8
1
  6
CONTINUOUS
 62
7
 10
9.9E+001
 20
2.0E+001
 11
9.9E+001
 21
1.9E+001
  0
LINE
  8
1
  6
CONTINUOUS
 62
7
 10
9.9E+001
 20
2.0E+001
 11
1.01E+002
 21
2.0E+001
  0
LINE
  8
1
  6
CONTINUOUS
 62
7
 10
9.9E+001
 20
1.9E+001
 11
1.01E+002
 21
1.9E+001
  0
LINE
  8
1
  6
CONTINUOUS
 62
7
 10
1.01E+002
 20
1.9E+001
 11
1.01E+002
 21
1.8E+001
  0
LINE
  8
1
  6
CONTINUOUS
 62
7
 10
1.01E+002
 20
2.0E+001
 11
1.01E+002
 21
2.1E+001
  0
TEXT
  8
1
  6
CONTINUOUS
 62
7
 10
1.015E+002
 20
1.8631385E+001
 40
2.0
  1
FR1
 41
7.5E-001
  0
LINE
  8
1
  6
CONTINUOUS
 62
7
 10
-1.5000105E+001
 20
-5.527E+001
 11
-1.3000105E+001
 21
-5.8734102E+001
  0
TEXT
  8
1
  6
CONTINUOUS
 62
7
 10
6.424986E+001
 20
-1.9532169E+001
 40
2.0
  1
57
 41
7.5E-001
 50
9.0E+001
  0
LINE
  8
1
  6
CONTINUOUS
 62
7
 10
6.499986E+001
 20
-2.5532169E+001
 11
6.299986E+001
 21
-2.0532169E+001
  0
LINE
  8
1
  6
CONTINUOUS
 62
7
 10
6.499986E+001
 20
-3.0532169E+001
 11
6.499986E+001
 21
-2.5532169E+001
  0
TEXT
  8
1
  6
CONTINUOUS
 62
7
 10
9.525E+001
 20
2.298785E+001
 40
2.0
  1
95
 41
7.5E-001
 50
9.0E+001
  0
TEXT
  8
1
  6
CONTINUOUS
 62
7
 10
9.525E+001
 20
1.398785E+001
 40
2.0
  1
96
 41
7.5E-001
 50
9.0E+001
  0
LINE
  8
1
  6
CONTINUOUS
 62
7
 10
9.6E+001
 20
1.698785E+001
 11
9.6E+001
 21
-2.0532169E+001
  0
LINE
  8
1
  6
CONTINUOUS
 62
7
 10
9.6E+001
 20
2.198785E+001
 11
9.6E+001
 21
3.2E+001
  0
LINE
  8
1
  6
CONTINUOUS
 62
7
 10
4.4969238E+001
 20
3.2E+001
 11
1.095E+002
 21
3.2E+001
  0
LINE
  8
1
  6
CONTINUOUS
 62
7
 10
5.4E+001
 20
0.0
 11
9.6E+001
 21
0.0
  0
LINE
  8
1
  6
CONTINUOUS
 62
7
 10
4.699986E+001
 20
-1.5532169E+001
 11
4.699986E+001
 21
-2.0532169E+001
  0
TEXT
  8
1
  6
CONTINUOUS
 62
7
 10
4.624986E+001
 20
-1.9532169E+001
 40
2.0
  1
47
 41
7.5E-001
 50
9.0E+001
  0
LINE
  8
1
  6
HIDDEN
 62
7
 10
-1.146468E+001
 20
-5.6940692E+001
 11
-4.0
 21
-5.6940692E+001
  0
LINE
  8
1
  6
CONTINUOUS
 62
7
 10
4.699986E+001
 20
-2.5532169E+001
 11
4.499986E+001
 21
-2.0532169E+001
  0
LINE
  8
1
  6
CONTINUOUS
 62
7
 10
4.699986E+001
 20
-3.0532169E+001
 11
4.699986E+001
 21
-2.5532169E+001
  0
LINE
  8
1
  6
HIDDEN
 62
7
 10
4.599986E+001
 20
-2.3032169E+001
 11
4.099986E+001
 21
-2.3032169E+001
  0
LINE
  8
1
  6
CONTINUOUS
 62
7
 10
4.249986E+001
 20
-2.1032169E+001
 11
4.099986E+001
 21
-2.1032169E+001
  0
LINE
  8
1
  6
CONTINUOUS
 62
7
 10
4.099986E+001
 20
-2.1032169E+001
 11
4.099986E+001
 21
-2.5032169E+001
  0
LINE
  8
1
  6
CONTINUOUS
 62
7
 10
4.249986E+001
 20
-2.5032169E+001
 11
4.099986E+001
 21
-2.5032169E+001
  0
LINE
  8
1
  6
HIDDEN
 62
7
 10
6.399986E+001
 20
-2.3032169E+001
 11
5.899986E+001
 21
-2.3032169E+001
  0
TEXT
  8
1
  6
CONTINUOUS
 62
7
 10
4.624986E+001
 20
-2.8532169E+001
 40
2.0
  1
48
 41
7.5E-001
 50
9.0E+001
  0
TEXT
  8
1
  6
CONTINUOUS
 62
7
 10
3.869986E+001
 20
-2.4032169E+001
 40
2.0
  1
I
 41
7.5E-001
  0
LINE
  8
1
  6
CONTINUOUS
 62
7
 10
9.6E+001
 20
-1.5532169E+001
 11
8.9E+001
 21
-1.5532169E+001
  0
LINE
  8
1
  6
CONTINUOUS
 62
7
 10
9.6E+001
 20
-3.0532169E+001
 11
8.9E+001
 21
-3.0532169E+001
  0
LINE
  8
1
  6
CONTINUOUS
 62
7
 10
4.699986E+001
 20
-1.5532169E+001
 11
5.4E+001
 21
-1.5532169E+001
  0
LINE
  8
1
  6
CONTINUOUS
 62
7
 10
5.4E+001
 20
-3.0532169E+001
 11
4.699986E+001
 21
-3.0532169E+001
  0
TEXT
  8
1
  6
CONTINUOUS
 62
7
 10
8.395E+001
 20
-2.4032169E+001
 40
2.0
  1
II 
 41
7.5E-001
 72
1
 11
8.17E+001
 21
-2.4032169E+001
  0
LINE
  8
1
  6
CONTINUOUS
 62
7
 10
6.049986E+001
 20
-2.1032169E+001
 11
5.899986E+001
 21
-2.1032169E+001
  0
LINE
  8
1
  6
CONTINUOUS
 62
7
 10
5.899986E+001
 20
-2.1032169E+001
 11
5.899986E+001
 21
-2.5032169E+001
  0
LINE
  8
1
  6
CONTINUOUS
 62
7
 10
6.049986E+001
 20
-2.5032169E+001
 11
5.899986E+001
 21
-2.5032169E+001
  0
TEXT
  8
1
  6
CONTINUOUS
 62
7
 10
6.424986E+001
 20
-2.8532169E+001
 40
2.0
  1
58
 41
7.5E-001
 50
9.0E+001
  0
LINE
  8
1
  6
CONTINUOUS
 62
7
 10
7.199986E+001
 20
-3.0532169E+001
 11
6.499986E+001
 21
-3.0532169E+001
  0
TEXT
  8
1
  6
CONTINUOUS
 62
7
 10
7.624986E+001
 20
-1.4640642E+001
 40
2.0
  1
A30/40
 41
7.5E-001
 50
9.0E+001
  0
LINE
  8
1
  6
CONTINUOUS
 62
7
 10
7.699986E+001
 20
-2.5532169E+001
 11
7.499986E+001
 21
-2.0532169E+001
  0
TEXT
  8
1
  6
CONTINUOUS
 62
7
 10
8.824986E+001
 20
-1.4640642E+001
 40
2.0
  1
A50/63/75
 41
7.5E-001
 50
9.0E+001
  0
TEXT
  8
1
  6
CONTINUOUS
 62
7
 10
7.194986E+001
 20
-2.4032169E+001
 40
2.0
  1
II 
 41
7.5E-001
 72
1
 11
6.969986E+001
 21
-2.4032169E+001
  0
LINE
  8
1
  6
HIDDEN
 62
7
 10
1.676143E+001
 20
5.9E+001
 11
2.782E+001
 21
5.9E+001
  0
LINE
  8
1
  6
CONTINUOUS
 62
7
 10
5.132E+001
 20
6.15E+001
 11
6.632E+001
 21
6.15E+001
  0
LINE
  8
1
  6
CONTINUOUS
 62
7
 10
5.132E+001
 20
5.65E+001
 11
6.632E+001
 21
5.65E+001
  0
TEXT
  8
1
  6
CONTINUOUS
 62
7
 10
5.994986E+001
 20
-2.4032169E+001
 40
2.0
  1
II 
 41
7.5E-001
 72
1
 11
5.769986E+001
 21
-2.4032169E+001
  0
LINE
  8
1
  6
CONTINUOUS
 62
7
 10
5.132E+001
 20
6.15E+001
 11
5.132E+001
 21
5.65E+001
  0
LINE
  8
1
  6
CONTINUOUS
 62
7
 10
6.632E+001
 20
6.15E+001
 11
6.632E+001
 21
5.65E+001
  0
LINE
  8
1
  6
CONTINUOUS
 62
7
 10
5.232E+001
 20
6.025E+001
 11
5.482E+001
 21
6.025E+001
  0
LINE
  8
1
  6
CONTINUOUS
 62
7
 10
5.232E+001
 20
5.775E+001
 11
5.482E+001
 21
5.775E+001
  0
LINE
  8
1
  6
CONTINUOUS
 62
7
 10
5.732E+001
 20
6.025E+001
 11
5.982E+001
 21
6.025E+001
  0
LINE
  8
1
  6
CONTINUOUS
 62
7
 10
5.732E+001
 20
5.775E+001
 11
5.982E+001
 21
5.775E+001
  0
LINE
  8
1
  6
CONTINUOUS
 62
7
 10
5.232E+001
 20
6.025E+001
 11
5.232E+001
 21
5.775E+001
  0
LINE
  8
1
  6
CONTINUOUS
 62
7
 10
5.732E+001
 20
5.775E+001
 11
5.732E+001
 21
6.025E+001
  0
LINE
  8
1
  6
CONTINUOUS
 62
7
 10
6.232E+001
 20
6.025E+001
 11
6.232E+001
 21
5.775E+001
  0
LINE
  8
1
  6
CONTINUOUS
 62
7
 10
6.232E+001
 20
6.025E+001
 11
6.482E+001
 21
6.025E+001
  0
LINE
  8
1
  6
CONTINUOUS
 62
7
 10
6.232E+001
 20
5.775E+001
 11
6.482E+001
 21
5.775E+001
  0
LINE
  8
1
  6
CONTINUOUS
 62
7
 10
5.482E+001
 20
5.775E+001
 11
5.482E+001
 21
4.65E+001
  0
LINE
  8
1
  6
CONTINUOUS
 62
7
 10
6.482E+001
 20
5.775E+001
 11
6.482E+001
 21
4.65E+001
  0
LINE
  8
1
  6
HIDDEN
 62
7
 10
5.482E+001
 20
4.65E+001
 11
5.482E+001
 21
3.9E+001
  0
LINE
  8
1
  6
CONTINUOUS
 62
7
 10
5.982E+001
 20
4.65E+001
 11
5.982E+001
 21
5.775E+001
  0
LINE
  8
1
  6
HIDDEN
 62
7
 10
6.482E+001
 20
4.65E+001
 11
6.482E+001
 21
3.9E+001
  0
LINE
  8
1
  6
CONTINUOUS
 62
7
 10
-1.5000105E+001
 20
-5.527E+001
 11
-1.1000105E+001
 21
-5.527E+001
  0
LINE
  8
1
  6
CONTINUOUS
 62
7
 10
4.772703E+001
 20
6.15E+001
 11
4.772703E+001
 21
6.65E+001
  0
LINE
  8
1
  6
CONTINUOUS
 62
7
 10
4.772703E+001
 20
5.65E+001
 11
4.572703E+001
 21
6.15E+001
  0
LINE
  8
1
  6
CONTINUOUS
 62
7
 10
4.772703E+001
 20
5.65E+001
 11
4.772703E+001
 21
5.15E+001
  0
LINE
  8
1
  6
HIDDEN
 62
7
 10
-2.2E+001
 20
-5.7E+001
 11
-1.4000105E+001
 21
-5.7E+001
  0
LINE
  8
1
  6
CONTINUOUS
 62
7
 10
4.272703E+001
 20
5.65E+001
 11
4.372703E+001
 21
6.25E+001
  0
LINE
  8
1
  6
CONTINUOUS
 62
7
 10
4.272703E+001
 20
6.15E+001
 11
4.472703E+001
 21
6.15E+001
  0
LINE
  8
1
  6
CONTINUOUS
 62
7
 10
4.272703E+001
 20
6.15E+001
 11
4.272703E+001
 21
6.65E+001
  0
LINE
  8
1
  6
CONTINUOUS
 62
7
 10
-1.1000105E+001
 20
-5.527E+001
 11
-1.3000105E+001
 21
-5.8734102E+001
  0
LINE
  8
1
  6
CONTINUOUS
 62
7
 10
4.272703E+001
 20
5.65E+001
 11
4.272703E+001
 21
5.15E+001
  0
LINE
  8
1
  6
CONTINUOUS
 62
7
 10
3.082E+001
 20
6.1E+001
 11
3.482E+001
 21
5.9E+001
  0
LINE
  8
1
  6
CONTINUOUS
 62
7
 10
3.082E+001
 20
6.1E+001
 11
3.082E+001
 21
5.9E+001
  0
LINE
  8
1
  6
CONTINUOUS
 62
7
 10
3.082E+001
 20
5.9E+001
 11
3.482E+001
 21
5.9E+001
  0
LINE
  8
1
  6
CONTINUOUS
 62
7
 10
1.782E+001
 20
6.1E+001
 11
2.182E+001
 21
5.9E+001
  0
LINE
  8
1
  6
CONTINUOUS
 62
7
 10
1.782E+001
 20
6.1E+001
 11
1.782E+001
 21
5.9E+001
  0
LINE
  8
1
  6
CONTINUOUS
 62
7
 10
1.782E+001
 20
5.9E+001
 11
2.182E+001
 21
5.9E+001
  0
LINE
  8
1
  6
HIDDEN
 62
7
 10
3.482E+001
 20
6.0E+001
 11
3.482E+001
 21
6.45E+001
  0
LINE
  8
1
  6
HIDDEN
 62
7
 10
3.482E+001
 20
6.45E+001
 11
2.682E+001
 21
6.45E+001
  0
LINE
  8
1
  6
HIDDEN
 62
7
 10
3.582E+001
 20
6.0E+001
 11
4.3310363E+001
 21
6.0E+001
  0
LINE
  8
1
  6
HIDDEN
 62
7
 10
3.582E+001
 20
6.55E+001
 11
3.582E+001
 21
6.0E+001
  0
LINE
  8
1
  6
HIDDEN
 62
7
 10
2.682E+001
 20
6.55E+001
 11
3.582E+001
 21
6.55E+001
  0
LINE
  8
1
  6
CONTINUOUS
 62
7
 10
2.682E+001
 20
6.7E+001
 11
2.682E+001
 21
6.3E+001
  0
LINE
  8
1
  6
CONTINUOUS
 62
7
 10
2.832E+001
 20
6.3E+001
 11
2.682E+001
 21
6.3E+001
  0
LINE
  8
1
  6
CONTINUOUS
 62
7
 10
2.832E+001
 20
6.7E+001
 11
2.682E+001
 21
6.7E+001
  0
TEXT
  8
1
  6
CONTINUOUS
 62
7
 10
2.282E+001
 20
6.5E+001
 40
2.0
  1
O
 41
7.5E-001
  0
LINE
  8
1
  6
CONTINUOUS
 62
7
 10
-2.6E+001
 20
0.0
 11
0.0
 21
0.0
  0
TEXT
  8
1
  6
CONTINUOUS
 62
7
 10
2.452E+001
 20
6.3E+001
 40
2.0
  1
R
 41
7.5E-001
  0
LINE
  8
1
  6
CONTINUOUS
 62
7
 10
2.502E+001
 20
6.64E+001
 11
2.342E+001
 21
6.32E+001
  0
LINE
  8
1
  6
HIDDEN
 62
7
 10
2.182E+001
 20
6.0E+001
 11
2.182E+001
 21
6.45E+001
  0
LINE
  8
1
  6
HIDDEN
 62
7
 10
2.182E+001
 20
6.45E+001
 11
1.382E+001
 21
6.45E+001
  0
LINE
  8
1
  6
CONTINUOUS
 62
7
 10
1.532E+001
 20
6.3E+001
 11
1.382E+001
 21
6.3E+001
  0
LINE
  8
1
  6
CONTINUOUS
 62
7
 10
1.382E+001
 20
6.7E+001
 11
1.382E+001
 21
6.3E+001
  0
LINE
  8
1
  6
CONTINUOUS
 62
7
 10
1.532E+001
 20
6.7E+001
 11
1.382E+001
 21
6.7E+001
  0
TEXT
  8
1
  6
CONTINUOUS
 62
7
 10
1.152E+001
 20
6.3E+001
 40
2.0
  1
R
 41
7.5E-001
  0
LINE
  8
1
  6
CONTINUOUS
 62
7
 10
-2.6E+001
 20
-1.4E+001
 11
-2.6E+001
 21
0.0
  0
LINE
  8
1
  6
HIDDEN
 62
7
 10
3.0220339E+001
 20
5.9E+001
 11
5.232E+001
 21
5.9E+001
  0
TEXT
  8
1
  6
CONTINUOUS
 62
7
 10
6.682E+001
 20
5.75E+001
 40
2.0
  1
FR1
 41
7.5E-001
  0
TEXT
  8
1
  6
CONTINUOUS
 62
7
 10
-2.675E+001
 20
-1.3E+001
 40
2.0
  1
13
 41
7.5E-001
 50
9.0E+001
  0
TEXT
  8
1
  6
CONTINUOUS
 62
7
 10
-3.25E+001
 20
-1.7368615E+001
 40
2.0
  1
KM1
 41
7.5E-001
  0
LINE
  8
1
  6
CONTINUOUS
 62
7
 10
-2.6E+001
 20
-1.9E+001
 11
-2.8E+001
 21
-1.4E+001
  0
TEXT
  8
1
  6
CONTINUOUS
 62
7
 10
-2.675E+001
 20
-2.2E+001
 40
2.0
  1
14
 41
7.5E-001
 50
9.0E+001
  0
TEXT
  8
1
  6
CONTINUOUS
 62
7
 10
1.1E+002
 20
9.45E+001
 40
2.25
  1
(1)
 41
7.5E-001
  0
TEXT
  8
1
  6
CONTINUOUS
 62
7
 10
1.1E+002
 20
4.9931102E+001
 40
2.25
  1
(1)
 41
7.5E-001
  0
LINE
  8
1
  6
CONTINUOUS
 62
7
 10
0.0
 20
-1.4E+001
 11
0.0
 21
0.0
  0
TEXT
  8
1
  6
CONTINUOUS
 62
7
 10
-7.5E-001
 20
-1.3E+001
 40
2.0
  1
13
 41
7.5E-001
 50
9.0E+001
  0
TEXT
  8
1
  6
CONTINUOUS
 62
7
 10
-6.5
 20
-1.7368615E+001
 40
2.0
  1
KM2
 41
7.5E-001
  0
LINE
  8
1
  6
CONTINUOUS
 62
7
 10
0.0
 20
-1.9E+001
 11
-2.0
 21
-1.4E+001
  0
TEXT
  8
1
  6
CONTINUOUS
 62
7
 10
-7.5E-001
 20
-2.2E+001
 40
2.0
  1
14
 41
7.5E-001
 50
9.0E+001
  0
LINE
  8
1
  6
CONTINUOUS
 62
7
 10
8.9E+001
 20
-2.5532169E+001
 11
8.7E+001
 21
-2.0532169E+001
  0
LINE
  8
1
  6
CONTINUOUS
 62
7
 10
8.9E+001
 20
-1.5532169E+001
 11
8.9E+001
 21
-2.0532169E+001
  0
LINE
  8
1
  6
CONTINUOUS
 62
7
 10
8.9E+001
 20
-3.0532169E+001
 11
8.9E+001
 21
-2.5532169E+001
  0
LINE
  8
1
  6
CONTINUOUS
 62
7
 10
8.45E+001
 20
-2.1032169E+001
 11
8.3E+001
 21
-2.1032169E+001
  0
LINE
  8
1
  6
CONTINUOUS
 62
7
 10
8.3E+001
 20
-2.1032169E+001
 11
8.3E+001
 21
-2.5032169E+001
  0
LINE
  8
1
  6
CONTINUOUS
 62
7
 10
8.45E+001
 20
-2.5032169E+001
 11
8.3E+001
 21
-2.5032169E+001
  0
LINE
  8
1
  6
HIDDEN
 62
7
 10
8.8E+001
 20
-2.3032169E+001
 11
8.3E+001
 21
-2.3032169E+001
  0
TEXT
  8
1
  6
CONTINUOUS
 62
7
 10
1.23E+002
 20
6.96E+001
 40
2.25
  1
Under voltage/Unter Spannung/Mise sous tension
 41
7.5E-001
  0
TEXT
  8
1
  6
CONTINUOUS
 62
7
 10
1.23E+002
 20
6.25E+001
 40
2.25
  1
Tripping of relay/Relais ausgelöst/Déclenchement relais
 41
7.5E-001
  0
TEXT
  8
1
  6
CONTINUOUS
 62
7
 10
5.407E+001
 20
4.8452747E+001
 40
2.0
  1
2/T1
 41
7.5E-001
 50
9.0E+001
  0
TEXT
  8
1
  6
CONTINUOUS
 62
7
 10
5.907E+001
 20
4.8452747E+001
 40
2.0
  1
4/T2
 41
7.5E-001
 50
9.0E+001
  0
TEXT
  8
1
  6
CONTINUOUS
 62
7
 10
6.407E+001
 20
4.8452747E+001
 40
2.0
  1
6/T3
 41
7.5E-001
 50
9.0E+001
  0
TEXT
  8
1
  6
CONTINUOUS
 62
7
 10
8.825E+001
 20
-1.9532169E+001
 40
2.0
  1
47
 41
7.5E-001
 50
9.0E+001
  0
TEXT
  8
1
  6
CONTINUOUS
 62
7
 10
8.825E+001
 20
-2.8532169E+001
 40
2.0
  1
48
 41
7.5E-001
 50
9.0E+001
  0
LINE
  8
1
  6
CONTINUOUS
 62
7
 10
-4.984E+001
 20
-6.4E+001
 11
0.0
 21
-6.4E+001
  0
LINE
  8
1
  6
CONTINUOUS
 62
7
 10
-4.0
 20
-5.9E+001
 11
4.0
 21
-5.9E+001
  0
LINE
  8
1
  6
CONTINUOUS
 62
7
 10
-3.0E+001
 20
-5.9E+001
 11
-2.2E+001
 21
-5.9E+001
  0
LINE
  8
1
  6
CONTINUOUS
 62
7
 10
-3.0E+001
 20
-5.5E+001
 11
-2.2E+001
 21
-5.5E+001
  0
LINE
  8
1
  6
CONTINUOUS
 62
7
 10
-4.0
 20
-5.5E+001
 11
4.0
 21
-5.5E+001
  0
LINE
  8
1
  6
CONTINUOUS
 62
7
 10
-3.0E+001
 20
-5.5E+001
 11
-3.0E+001
 21
-5.9E+001
  0
LINE
  8
1
  6
CONTINUOUS
 62
7
 10
-2.2E+001
 20
-5.5E+001
 11
-2.2E+001
 21
-5.9E+001
  0
LINE
  8
1
  6
CONTINUOUS
 62
7
 10
-4.0
 20
-5.5E+001
 11
-4.0
 21
-5.9E+001
  0
LINE
  8
1
  6
CONTINUOUS
 62
7
 10
4.0
 20
-5.5E+001
 11
4.0
 21
-5.9E+001
  0
LINE
  8
1
  6
CONTINUOUS
 62
7
 10
0.0
 20
-5.9E+001
 11
0.0
 21
-6.4E+001
  0
LINE
  8
1
  6
CONTINUOUS
 62
7
 10
-2.6E+001
 20
-5.9E+001
 11
-2.6E+001
 21
-6.4E+001
  0
LINE
  8
1
  6
CONTINUOUS
 62
7
 10
-2.6E+001
 20
-1.9E+001
 11
-2.6E+001
 21
-4.0955422E+001
  0
LINE
  8
1
  6
CONTINUOUS
 62
7
 10
0.0
 20
-1.9E+001
 11
0.0
 21
-4.0955422E+001
  0
LINE
  8
1
  6
CONTINUOUS
 62
7
 10
1.33E+002
 20
-6.4E+001
 11
1.42E+002
 21
-6.4E+001
  0
TEXT
  8
1
  6
CONTINUOUS
 62
7
 10
1.368E+002
 20
-5.8368615E+001
 40
2.0
  1
H1
 41
7.5E-001
  0
LINE
  8
1
  6
CONTINUOUS
 62
7
 10
1.4341421E+002
 20
-5.6085786E+001
 11
1.4058579E+002
 21
-5.8914214E+001
  0
LINE
  8
1
  6
CONTINUOUS
 62
7
 10
1.4058579E+002
 20
-5.6085786E+001
 11
1.4341421E+002
 21
-5.8914214E+001
  0
LINE
  8
1
  6
CONTINUOUS
 62
7
 10
1.42E+002
 20
-5.55E+001
 11
1.42E+002
 21
-3.6E+001
  0
LINE
  8
1
  6
CONTINUOUS
 62
7
 10
1.42E+002
 20
-5.95E+001
 11
1.42E+002
 21
-6.4E+001
  0
TEXT
  8
1
  6
CONTINUOUS
 62
7
 10
1.295E+002
 20
-6.5E+001
 40
2.0
  1
A2
 41
7.5E-001
  0
LINE
  8
1
  6
CONTINUOUS
 62
7
 10
1.3904492E+002
 20
-3.6E+001
 11
1.42E+002
 21
-3.6E+001
  0
TEXT
  8
1
  6
CONTINUOUS
 62
7
 10
1.295E+002
 20
-3.7E+001
 40
2.0
  1
KM2:01
 41
7.5E-001
  0
TEXT
  8
1
  6
CONTINUOUS
 62
7
 10
1.4125E+002
 20
-5.5E+001
 40
2.0
  1
X1
 41
7.5E-001
 50
9.0E+001
  0
TEXT
  8
1
  6
CONTINUOUS
 62
7
 10
1.4125E+002
 20
-6.3E+001
 40
2.0
  1
X2
 41
7.5E-001
 50
9.0E+001
  0
CIRCLE
  8
1
  6
CONTINUOUS
 62
7
 10
1.42E+002
 20
-5.75E+001
 40
2.0
  0
LINE
  8
1
  6
CONTINUOUS
 62
7
 10
1.82E+002
 20
1.4E+001
 11
1.8E+002
 21
1.9E+001
  0
LINE
  8
1
  6
CONTINUOUS
 62
7
 10
1.82E+002
 20
1.9E+001
 11
1.82E+002
 21
3.2E+001
  0
TEXT
  8
1
  6
CONTINUOUS
 62
7
 10
-7.5E-001
 20
2.298785E+001
 40
2.0
  1
95
 41
7.5E-001
 50
9.0E+001
  0
TEXT
  8
1
  6
CONTINUOUS
 62
7
 10
-7.5E-001
 20
1.398785E+001
 40
2.0
  1
96
 41
7.5E-001
 50
9.0E+001
  0
TEXT
  8
1
  6
CONTINUOUS
 62
7
 10
4.197703E+001
 20
6.25E+001
 40
2.0
  1
95
 41
7.5E-001
 50
9.0E+001
  0
TEXT
  8
1
  6
CONTINUOUS
 62
7
 10
4.197703E+001
 20
5.35E+001
 40
2.0
  1
96
 41
7.5E-001
 50
9.0E+001
  0
TEXT
  8
1
  6
CONTINUOUS
 62
7
 10
4.697703E+001
 20
6.25E+001
 40
2.0
  1
97
 41
7.5E-001
 50
9.0E+001
  0
TEXT
  8
1
  6
CONTINUOUS
 62
7
 10
4.697703E+001
 20
5.35E+001
 40
2.0
  1
98
 41
7.5E-001
 50
9.0E+001
  0
TEXT
  8
1
  6
CONTINUOUS
 62
7
 10
1.8125E+002
 20
1.05E+001
 40
2.0
  1
98
 41
7.5E-001
 50
9.0E+001
  0
TEXT
  8
1
  6
CONTINUOUS
 62
7
 10
1.8125E+002
 20
2.0E+001
 40
2.0
  1
97
 41
7.5E-001
 50
9.0E+001
  0
LINE
  8
1
  6
CONTINUOUS
 62
7
 10
2.16E+002
 20
3.2E+001
 11
2.16E+002
 21
-5.55E+001
  0
LINE
  8
1
  6
CONTINUOUS
 62
7
 10
1.45E+002
 20
-6.4E+001
 11
1.54E+002
 21
-6.4E+001
  0
LINE
  8
1
  6
CONTINUOUS
 62
7
 10
1.85E+002
 20
3.2E+001
 11
2.06E+002
 21
3.2E+001
  0
CIRCLE
  8
1
  6
CONTINUOUS
 62
7
 10
2.16E+002
 20
-5.75E+001
 40
2.0
  0
LINE
  8
1
  6
CONTINUOUS
 62
7
 10
2.1458579E+002
 20
-5.6085786E+001
 11
2.1741421E+002
 21
-5.8914214E+001
  0
LINE
  8
1
  6
CONTINUOUS
 62
7
 10
2.1741421E+002
 20
-5.6085786E+001
 11
2.1458579E+002
 21
-5.8914214E+001
  0
LINE
  8
1
  6
CONTINUOUS
 62
7
 10
2.16E+002
 20
-5.95E+001
 11
2.16E+002
 21
-6.4E+001
  0
CIRCLE
  8
1
  6
CONTINUOUS
 62
7
 10
2.06E+002
 20
-5.75E+001
 40
2.0
  0
LINE
  8
1
  6
CONTINUOUS
 62
7
 10
2.0458579E+002
 20
-5.6085786E+001
 11
2.0741421E+002
 21
-5.8914214E+001
  0
LINE
  8
1
  6
CONTINUOUS
 62
7
 10
2.0741421E+002
 20
-5.6085786E+001
 11
2.0458579E+002
 21
-5.8914214E+001
  0
CIRCLE
  8
1
  6
CONTINUOUS
 62
7
 10
1.94E+002
 20
-5.75E+001
 40
2.0
  0
LINE
  8
1
  6
CONTINUOUS
 62
7
 10
1.9258579E+002
 20
-5.6085786E+001
 11
1.9541421E+002
 21
-5.8914214E+001
  0
LINE
  8
1
  6
CONTINUOUS
 62
7
 10
1.9541421E+002
 20
-5.6085786E+001
 11
1.9258579E+002
 21
-5.8914214E+001
  0
LINE
  8
1
  6
CONTINUOUS
 62
7
 10
2.06E+002
 20
-5.95E+001
 11
2.06E+002
 21
-6.4E+001
  0
LINE
  8
1
  6
CONTINUOUS
 62
7
 10
1.94E+002
 20
-5.95E+001
 11
1.94E+002
 21
-6.4E+001
  0
LINE
  8
1
  6
CONTINUOUS
 62
7
 10
2.09E+002
 20
-6.4E+001
 11
2.16E+002
 21
-6.4E+001
  0
LINE
  8
1
  6
CONTINUOUS
 62
7
 10
1.97E+002
 20
-6.4E+001
 11
2.06E+002
 21
-6.4E+001
  0
LINE
  8
1
  6
CONTINUOUS
 62
7
 10
2.06E+002
 20
-5.55E+001
 11
2.06E+002
 21
-3.2968296E+001
  0
LINE
  8
1
  6
CONTINUOUS
 62
7
 10
1.94E+002
 20
-5.55E+001
 11
1.94E+002
 21
1.2E+001
  0
LINE
  8
1
  6
CONTINUOUS
 62
7
 10
1.82E+002
 20
-5.6E+001
 11
1.82E+002
 21
-4.6955422E+001
  0
LINE
  8
1
  6
CONTINUOUS
 62
7
 10
1.78E+002
 20
-5.6E+001
 11
1.78E+002
 21
-5.9E+001
  0
TEXT
  8
1
  6
CONTINUOUS
 62
7
 10
1.748E+002
 20
-5.8368615E+001
 40
2.0
  1
DR
 41
7.5E-001
  0
LINE
  8
1
  6
CONTINUOUS
 62
7
 10
1.78E+002
 20
-5.6E+001
 11
1.86E+002
 21
-5.6E+001
  0
LINE
  8
1
  6
CONTINUOUS
 62
7
 10
1.78E+002
 20
-5.9E+001
 11
1.86E+002
 21
-5.9E+001
  0
LINE
  8
1
  6
CONTINUOUS
 62
7
 10
1.86E+002
 20
-5.6E+001
 11
1.86E+002
 21
-5.9E+001
  0
LINE
  8
1
  6
CONTINUOUS
 62
7
 10
1.82E+002
 20
-5.9E+001
 11
1.82E+002
 21
-6.4E+001
  0
TEXT
  8
1
  6
CONTINUOUS
 62
7
 10
1.888E+002
 20
-5.8368615E+001
 40
2.0
  1
H9
 41
7.5E-001
  0
TEXT
  8
1
  6
CONTINUOUS
 62
7
 10
2.0085956E+002
 20
-5.8368615E+001
 40
2.0
  1
H3
 41
7.5E-001
  0
TEXT
  8
1
  6
CONTINUOUS
 62
7
 10
2.1085956E+002
 20
-5.8368615E+001
 40
2.0
  1
H4
 41
7.5E-001
  0
LINE
  8
1
  6
CONTINUOUS
 62
7
 10
1.63E+002
 20
-5.6E+001
 11
1.63E+002
 21
-5.9E+001
  0
TEXT
  8
1
  6
CONTINUOUS
 62
7
 10
1.598E+002
 20
-5.8368615E+001
 40
2.0
  1
DS
 41
7.5E-001
  0
LINE
  8
1
  6
CONTINUOUS
 62
7
 10
1.63E+002
 20
-5.6E+001
 11
1.71E+002
 21
-5.6E+001
  0
LINE
  8
1
  6
CONTINUOUS
 62
7
 10
1.63E+002
 20
-5.9E+001
 11
1.71E+002
 21
-5.9E+001
  0
LINE
  8
1
  6
CONTINUOUS
 62
7
 10
1.71E+002
 20
-5.6E+001
 11
1.71E+002
 21
-5.9E+001
  0
LINE
  8
1
  6
CONTINUOUS
 62
7
 10
1.67E+002
 20
-5.9E+001
 11
1.67E+002
 21
-6.4E+001
  0
LINE
  8
1
  6
CONTINUOUS
 62
7
 10
1.67E+002
 20
-5.6E+001
 11
1.67E+002
 21
-4.6955422E+001
  0
TEXT
  8
1
  6
CONTINUOUS
 62
7
 10
1.488E+002
 20
-5.8368615E+001
 40
2.0
  1
H2
 41
7.5E-001
  0
LINE
  8
1
  6
CONTINUOUS
 62
7
 10
1.5541421E+002
 20
-5.6085786E+001
 11
1.5258579E+002
 21
-5.8914214E+001
  0
LINE
  8
1
  6
CONTINUOUS
 62
7
 10
1.5258579E+002
 20
-5.6085786E+001
 11
1.5541421E+002
 21
-5.8914214E+001
  0
CIRCLE
  8
1
  6
CONTINUOUS
 62
7
 10
1.54E+002
 20
-5.75E+001
 40
2.0
  0
LINE
  8
1
  6
CONTINUOUS
 62
7
 10
1.54E+002
 20
-5.55E+001
 11
1.54E+002
 21
-3.2E+001
  0
LINE
  8
1
  6
CONTINUOUS
 62
7
 10
1.54E+002
 20
-5.95E+001
 11
1.54E+002
 21
-6.4E+001
  0
LINE
  8
1
  6
CONTINUOUS
 62
7
 10
2.09E+002
 20
3.2E+001
 11
2.16E+002
 21
3.2E+001
  0
LINE
  8
1
  6
CONTINUOUS
 62
7
 10
2.06E+002
 20
-2.7968296E+001
 11
2.08E+002
 21
-2.7968296E+001
  0
LINE
  8
1
  6
CONTINUOUS
 62
7
 10
2.06E+002
 20
-3.2968296E+001
 11
2.07E+002
 21
-2.6968296E+001
  0
TEXT
  8
1
  6
CONTINUOUS
 62
7
 10
1.995E+002
 20
-3.1336911E+001
 40
2.0
  1
KM2
 41
7.5E-001
  0
TEXT
  8
1
  6
CONTINUOUS
 62
7
 10
2.0525E+002
 20
-2.6968296E+001
 40
2.0
  1
21
 41
7.5E-001
 50
9.0E+001
  0
TEXT
  8
1
  6
CONTINUOUS
 62
7
 10
2.0525E+002
 20
-3.5968296E+001
 40
2.0
  1
22
 41
7.5E-001
 50
9.0E+001
  0
LINE
  8
1
  6
CONTINUOUS
 62
7
 10
2.06E+002
 20
-1.3968296E+001
 11
2.08E+002
 21
-1.3968296E+001
  0
LINE
  8
1
  6
CONTINUOUS
 62
7
 10
2.06E+002
 20
-1.8968296E+001
 11
2.07E+002
 21
-1.2968296E+001
  0
TEXT
  8
1
  6
CONTINUOUS
 62
7
 10
2.0525E+002
 20
-1.2968296E+001
 40
2.0
  1
21
 41
7.5E-001
 50
9.0E+001
  0
TEXT
  8
1
  6
CONTINUOUS
 62
7
 10
2.0525E+002
 20
-2.1968296E+001
 40
2.0
  1
22
 41
7.5E-001
 50
9.0E+001
  0
TEXT
  8
1
  6
CONTINUOUS
 62
7
 10
1.995E+002
 20
-1.7336911E+001
 40
2.0
  1
KM1
 41
7.5E-001
  0
LINE
  8
1
  6
HIDDEN
 62
7
 10
1.81E+002
 20
1.65E+001
 11
1.85E+002
 21
1.65E+001
  0
LINE
  8
1
  6
CONTINUOUS
 62
7
 10
1.85E+002
 20
1.701215E+001
 11
1.87E+002
 21
1.701215E+001
  0
LINE
  8
1
  6
CONTINUOUS
 62
7
 10
1.85E+002
 20
1.601215E+001
 11
1.87E+002
 21
1.601215E+001
  0
LINE
  8
1
  6
CONTINUOUS
 62
7
 10
1.87E+002
 20
1.601215E+001
 11
1.87E+002
 21
1.501215E+001
  0
LINE
  8
1
  6
CONTINUOUS
 62
7
 10
1.85E+002
 20
1.701215E+001
 11
1.85E+002
 21
1.601215E+001
  0
TEXT
  8
1
  6
CONTINUOUS
 62
7
 10
1.875E+002
 20
1.5643535E+001
 40
2.0
  1
FR1
 41
7.5E-001
  0
LINE
  8
1
  6
CONTINUOUS
 62
7
 10
1.87E+002
 20
1.701215E+001
 11
1.87E+002
 21
1.801215E+001
  0
LINE
  8
1
  6
CONTINUOUS
 62
7
 10
1.915E+002
 20
1.2E+001
 11
1.94E+002
 21
1.2E+001
  0
TEXT
  8
1
  6
CONTINUOUS
 62
7
 10
1.88E+002
 20
1.1E+001
 40
2.0
  1
98
 41
7.5E-001
  0
LINE
  8
1
  6
CONTINUOUS
 62
7
 10
2.06E+002
 20
-1.3968296E+001
 11
2.06E+002
 21
3.2E+001
  0
LINE
  8
1
  6
CONTINUOUS
 62
7
 10
2.06E+002
 20
-2.7968296E+001
 11
2.06E+002
 21
-1.8968296E+001
  0
LINE
  8
1
  6
CONTINUOUS
 62
7
 10
1.82E+002
 20
3.2E+001
 11
1.425E+002
 21
3.2E+001
  0
LINE
  8
1
  6
CONTINUOUS
 62
7
 10
1.33E+002
 20
1.248785E+001
 11
1.67E+002
 21
1.248785E+001
  0
LINE
  8
1
  6
CONTINUOUS
 62
7
 10
1.67E+002
 20
-4.6955422E+001
 11
1.65E+002
 21
-4.1955422E+001
  0
LINE
  8
1
  6
CONTINUOUS
 62
7
 10
1.625E+002
 20
-4.2455422E+001
 11
1.61E+002
 21
-4.2455422E+001
  0
TEXT
  8
1
  6
CONTINUOUS
 62
7
 10
1.577E+002
 20
-4.5455422E+001
 40
2.0
  1
S1
 41
7.5E-001
  0
LINE
  8
1
  6
CONTINUOUS
 62
7
 10
1.61E+002
 20
-4.2455422E+001
 11
1.61E+002
 21
-4.6455422E+001
  0
LINE
  8
1
  6
CONTINUOUS
 62
7
 10
1.625E+002
 20
-4.6455422E+001
 11
1.61E+002
 21
-4.6455422E+001
  0
LINE
  8
1
  6
HIDDEN
 62
7
 10
1.66E+002
 20
-4.4455422E+001
 11
1.61E+002
 21
-4.4455422E+001
  0
LINE
  8
1
  6
CONTINUOUS
 62
7
 10
1.82E+002
 20
-4.6955422E+001
 11
1.8E+002
 21
-4.1955422E+001
  0
LINE
  8
1
  6
CONTINUOUS
 62
7
 10
1.775E+002
 20
-4.2455422E+001
 11
1.76E+002
 21
-4.2455422E+001
  0
TEXT
  8
1
  6
CONTINUOUS
 62
7
 10
1.727E+002
 20
-4.5455422E+001
 40
2.0
  1
S2
 41
7.5E-001
  0
LINE
  8
1
  6
CONTINUOUS
 62
7
 10
1.76E+002
 20
-4.2455422E+001
 11
1.76E+002
 21
-4.6455422E+001
  0
LINE
  8
1
  6
CONTINUOUS
 62
7
 10
1.775E+002
 20
-4.6455422E+001
 11
1.76E+002
 21
-4.6455422E+001
  0
LINE
  8
1
  6
HIDDEN
 62
7
 10
1.81E+002
 20
-4.4455422E+001
 11
1.76E+002
 21
-4.4455422E+001
  0
TEXT
  8
1
  6
CONTINUOUS
 62
7
 10
1.295E+002
 20
1.148785E+001
 40
2.0
  1
96
 41
7.5E-001
  0
LINE
  8
1
  6
SHORT_DASH
 62
7
 10
1.3345462E+002
 20
2.9E+001
 11
1.4554107E+002
 21
2.9E+001
  0
LINE
  8
1
  6
CONTINUOUS
 62
7
 10
1.4554107E+002
 20
2.9E+001
 11
1.4554107E+002
 21
3.2E+001
  0
LINE
  8
1
  6
CONTINUOUS
 62
7
 10
1.57E+002
 20
-6.4E+001
 11
1.67E+002
 21
-6.4E+001
  0
LINE
  8
1
  6
CONTINUOUS
 62
7
 10
1.7E+002
 20
-6.4E+001
 11
1.82E+002
 21
-6.4E+001
  0
LINE
  8
1
  6
CONTINUOUS
 62
7
 10
1.85E+002
 20
-6.4E+001
 11
1.94E+002
 21
-6.4E+001
  0
LINE
  8
1
  6
CONTINUOUS
 62
7
 10
1.5104492E+002
 20
-3.2E+001
 11
1.54E+002
 21
-3.2E+001
  0
TEXT
  8
1
  6
CONTINUOUS
 62
7
 10
1.415E+002
 20
-3.3E+001
 40
2.0
  1
KM1:01
 41
7.5E-001
  0
LINE
  8
1
  6
CONTINUOUS
 62
7
 10
1.57E+002
 20
-4.8955422E+001
 11
1.57E+002
 21
-4.7953051E+001
  0
LINE
  8
1
  6
CONTINUOUS
 62
7
 10
1.82E+002
 20
-4.2002574E+001
 11
1.82E+002
 21
1.4E+001
  0
LINE
  8
1
  6
CONTINUOUS
 62
7
 10
1.67E+002
 20
-4.2E+001
 11
1.67E+002
 21
1.248785E+001
  0
TEXT
  8
1
  6
CONTINUOUS
 62
7
 10
-7.5E-001
 20
-5.4E+001
 40
2.0
  1
A1
 41
7.5E-001
 50
9.0E+001
  0
TEXT
  8
1
  6
CONTINUOUS
 62
7
 10
-7.5E-001
 20
-6.3E+001
 40
2.0
  1
A2
 41
7.5E-001
 50
9.0E+001
  0
TEXT
  8
1
  6
CONTINUOUS
 62
7
 10
-2.675E+001
 20
-5.4E+001
 40
2.0
  1
A1
 41
7.5E-001
 50
9.0E+001
  0
TEXT
  8
1
  6
CONTINUOUS
 62
7
 10
-2.675E+001
 20
-6.3E+001
 40
2.0
  1
A2
 41
7.5E-001
 50
9.0E+001
  0
TEXT
  8
1
  6
CONTINUOUS
 62
7
 10
1.6625E+002
 20
-5.5E+001
 40
2.0
  1
E1
 41
7.5E-001
 50
9.0E+001
  0
TEXT
  8
1
  6
CONTINUOUS
 62
7
 10
1.6625E+002
 20
-6.3E+001
 40
2.0
  1
E2
 41
7.5E-001
 50
9.0E+001
  0
TEXT
  8
1
  6
CONTINUOUS
 62
7
 10
1.8125E+002
 20
-5.5E+001
 40
2.0
  1
E1
 41
7.5E-001
 50
9.0E+001
  0
TEXT
  8
1
  6
CONTINUOUS
 62
7
 10
1.8125E+002
 20
-6.3E+001
 40
2.0
  1
E2
 41
7.5E-001
 50
9.0E+001
  0
TEXT
  8
1
  6
CONTINUOUS
 62
7
 10
1.5325E+002
 20
-5.5E+001
 40
2.0
  1
X1
 41
7.5E-001
 50
9.0E+001
  0
TEXT
  8
1
  6
CONTINUOUS
 62
7
 10
1.5325E+002
 20
-6.3E+001
 40
2.0
  1
X2
 41
7.5E-001
 50
9.0E+001
  0
TEXT
  8
1
  6
CONTINUOUS
 62
7
 10
1.9325E+002
 20
-5.5E+001
 40
2.0
  1
X1
 41
7.5E-001
 50
9.0E+001
  0
TEXT
  8
1
  6
CONTINUOUS
 62
7
 10
1.9325E+002
 20
-6.3E+001
 40
2.0
  1
X2
 41
7.5E-001
 50
9.0E+001
  0
TEXT
  8
1
  6
CONTINUOUS
 62
7
 10
2.0525E+002
 20
-5.5E+001
 40
2.0
  1
X1
 41
7.5E-001
 50
9.0E+001
  0
TEXT
  8
1
  6
CONTINUOUS
 62
7
 10
2.0525E+002
 20
-6.3E+001
 40
2.0
  1
X2
 41
7.5E-001
 50
9.0E+001
  0
TEXT
  8
1
  6
CONTINUOUS
 62
7
 10
2.1525E+002
 20
-5.5E+001
 40
2.0
  1
X1
 41
7.5E-001
 50
9.0E+001
  0
TEXT
  8
1
  6
CONTINUOUS
 62
7
 10
2.1525E+002
 20
-6.3E+001
 40
2.0
  1
X2
 41
7.5E-001
 50
9.0E+001
  0
TEXT
  8
1
  6
CONTINUOUS
 62
7
 10
1.99E+002
 20
-6.8E+001
 40
2.0
  1
FPTS307768-A
 41
7.5E-001
  0
LINE
  8
1
  6
CONTINUOUS
 62
7
 10
1.57E+002
 20
-3.9955422E+001
 11
1.6195408E+002
 21
-3.9955422E+001
  0
LINE
  8
1
  6
CONTINUOUS
 62
7
 10
1.63E+002
 20
-3.9955422E+001
 11
1.640923E+002
 21
-3.9955422E+001
  0
LINE
  8
1
  6
CONTINUOUS
 62
7
 10
1.65E+002
 20
-3.9955422E+001
 11
1.69E+002
 21
-3.9955422E+001
  0
LINE
  8
1
  6
CONTINUOUS
 62
7
 10
1.57E+002
 20
-4.6955422E+001
 11
1.57E+002
 21
-4.1955422E+001
  0
LINE
  8
1
  6
CONTINUOUS
 62
7
 10
1.69E+002
 20
-3.9955422E+001
 11
1.69E+002
 21
-4.0955422E+001
  0
LINE
  8
1
  6
CONTINUOUS
 62
7
 10
1.69E+002
 20
-4.1955422E+001
 11
1.69E+002
 21
-4.6815021E+001
  0
LINE
  8
1
  6
CONTINUOUS
 62
7
 10
1.69E+002
 20
-4.8955422E+001
 11
1.64E+002
 21
-4.8955422E+001
  0
LINE
  8
1
  6
CONTINUOUS
 62
7
 10
1.69E+002
 20
-4.7955422E+001
 11
1.69E+002
 21
-4.8955422E+001
  0
LINE
  8
1
  6
CONTINUOUS
 62
7
 10
1.63E+002
 20
-4.8955422E+001
 11
1.62E+002
 21
-4.8955422E+001
  0
LINE
  8
1
  6
CONTINUOUS
 62
7
 10
1.61E+002
 20
-4.8955422E+001
 11
1.57E+002
 21
-4.8955422E+001
  0
LINE
  8
1
  6
CONTINUOUS
 62
7
 10
1.57E+002
 20
-4.0955422E+001
 11
1.57E+002
 21
-3.9955422E+001
  0
LINE
  8
1
  6
CONTINUOUS
 62
7
 10
1.84E+002
 20
-4.7955422E+001
 11
1.84E+002
 21
-4.8955422E+001
  0
LINE
  8
1
  6
CONTINUOUS
 62
7
 10
1.84E+002
 20
-4.8955422E+001
 11
1.79E+002
 21
-4.8955422E+001
  0
LINE
  8
1
  6
CONTINUOUS
 62
7
 10
1.84E+002
 20
-4.1955422E+001
 11
1.84E+002
 21
-4.6815021E+001
  0
LINE
  8
1
  6
CONTINUOUS
 62
7
 10
1.84E+002
 20
-3.9955422E+001
 11
1.84E+002
 21
-4.0955422E+001
  0
LINE
  8
1
  6
CONTINUOUS
 62
7
 10
1.8E+002
 20
-3.9955422E+001
 11
1.84E+002
 21
-3.9955422E+001
  0
LINE
  8
1
  6
CONTINUOUS
 62
7
 10
1.72E+002
 20
-3.9955422E+001
 11
1.7695408E+002
 21
-3.9955422E+001
  0
LINE
  8
1
  6
CONTINUOUS
 62
7
 10
1.72E+002
 20
-4.0955422E+001
 11
1.72E+002
 21
-3.9955422E+001
  0
LINE
  8
1
  6
CONTINUOUS
 62
7
 10
1.72E+002
 20
-4.6955422E+001
 11
1.72E+002
 21
-4.1955422E+001
  0
LINE
  8
1
  6
CONTINUOUS
 62
7
 10
1.72E+002
 20
-4.8955422E+001
 11
1.72E+002
 21
-4.7953051E+001
  0
LINE
  8
1
  6
CONTINUOUS
 62
7
 10
1.76E+002
 20
-4.8955422E+001
 11
1.72E+002
 21
-4.8955422E+001
  0
LINE
  8
1
  6
CONTINUOUS
 62
7
 10
1.78E+002
 20
-4.8955422E+001
 11
1.77E+002
 21
-4.8955422E+001
  0
LINE
  8
1
  6
CONTINUOUS
 62
7
 10
1.78E+002
 20
-3.9955422E+001
 11
1.790923E+002
 21
-3.9955422E+001
  0
INSERT
  2
*TX522
  8
1
 10
1.23E+002
 20
1.115E+002
  0
INSERT
  2
*TX523
  8
1
 10
1.23E+002
 20
9.85E+001
  0
INSERT
  2
*TX524
  8
1
 10
2.224986E+001
 20
-1.4640642E+001
  0
INSERT
  2
*TX525
  8
1
 10
-6.234E+001
 20
3.0975963E+001
  0
INSERT
  2
*TX526
  8
1
 10
1.77E+001
 20
-5.9024037E+001
  0
INSERT
  2
*TX527
  8
1
 10
-6.234E+001
 20
-5.9024037E+001
  0
INSERT
  2
*TX528
  8
1
 10
3.25E+001
 20
3.0975963E+001
  0
INSERT
  2
*TX529
  8
1
 10
6.424986E+001
 20
-1.4640642E+001
  0
INSERT
  2
*TX530
  8
1
 10
1.17E+002
 20
5.35E+001
  0
INSERT
  2
*TX531
  8
1
 10
1.2995462E+002
 20
3.0975963E+001
  0
POINT
  8
Drafting_Hidden_Entities
  6
CONTINUOUS
 62
1
 10
0.0
 20
0.0
  0
ENDBLK
  0
BLOCK
  2
*TX522
  3
*TX
 10
0.0
 20
0.0
 70
65
  0
TEXT
  8
1
  6
CONTINUOUS
 62
7
 10
0.0
 20
0.0
 40
2.25
  1
Magnetic coil for remote reset
 41
7.5E-001
  0
TEXT
  8
1
  6
CONTINUOUS
 62
7
 10
0.0
 20
-3.375
 40
2.25
  1
Fernrückstellspule
 41
7.5E-001
  0
TEXT
  8
1
  6
CONTINUOUS
 62
7
 10
0.0
 20
-6.75
 40
2.25
  1
Bobine pour réarmement à distance
 41
7.5E-001
  0
ENDBLK
  0
BLOCK
  2
*TX523
  3
*TX
 10
0.0
 20
0.0
 70
65
  0
TEXT
  8
1
  6
CONTINUOUS
 62
7
 10
0.0
 20
0.0
 40
2.25
  1
Magnetic coil for remote tripping
 41
7.5E-001
  0
TEXT
  8
1
  6
CONTINUOUS
 62
7
 10
0.0
 20
-3.375
 40
2.25
  1
Fernauslösespule
 41
7.5E-001
  0
TEXT
  8
1
  6
CONTINUOUS
 62
7
 10
0.0
 20
-6.75
 40
2.25
  1
Bobine pour déclenchement à distance
 41
7.5E-001
  0
ENDBLK
  0
BLOCK
  2
*TX524
  3
*TX
 10
0.0
 20
0.0
 70
65
  0
TEXT
  8
1
  6
CONTINUOUS
 62
7
 10
0.0
 20
0.0
 40
2.0
  1
A9/12/16
 41
7.5E-001
 50
9.0E+001
  0
TEXT
  8
1
  6
CONTINUOUS
 62
7
 10
3.0
 20
0.0
 40
2.0
  1
A26
 41
7.5E-001
 50
9.0E+001
  0
ENDBLK
  0
BLOCK
  2
*TX525
  3
*TX
 10
0.0
 20
0.0
 70
65
  0
TEXT
  8
1
  6
CONTINUOUS
 62
7
 10
0.0
 20
0.0
 40
2.0
  1
KM1:5/L3
 41
7.5E-001
  0
TEXT
  8
1
  6
CONTINUOUS
 62
7
 10
0.0
 20
-3.0
 40
2.0
  1
Us
 41
7.5E-001
  0
ENDBLK
  0
BLOCK
  2
*TX526
  3
*TX
 10
0.0
 20
0.0
 70
65
  0
TEXT
  8
1
  6
CONTINUOUS
 62
7
 10
0.0
 20
0.0
 40
2.0
  1
Us
 41
7.5E-001
  0
TEXT
  8
1
  6
CONTINUOUS
 62
7
 10
0.0
 20
-3.0
 40
2.0
  1
N
 41
7.5E-001
  0
TEXT
  8
1
  6
CONTINUOUS
 62
7
 10
0.0
 20
-6.0
 40
2.0
  1
KM1:3/L2
 41
7.5E-001
  0
ENDBLK
  0
BLOCK
  2
*TX527
  3
*TX
 10
0.0
 20
0.0
 70
65
  0
TEXT
  8
1
  6
CONTINUOUS
 62
7
 10
0.0
 20
0.0
 40
2.0
  1
Us
 41
7.5E-001
  0
TEXT
  8
1
  6
CONTINUOUS
 62
7
 10
0.0
 20
-3.0
 40
2.0
  1
N
 41
7.5E-001
  0
TEXT
  8
1
  6
CONTINUOUS
 62
7
 10
0.0
 20
-6.0
 40
2.0
  1
KM1:3/L2
 41
7.5E-001
  0
ENDBLK
  0
BLOCK
  2
*TX528
  3
*TX
 10
0.0
 20
0.0
 70
65
  0
TEXT
  8
1
  6
CONTINUOUS
 62
7
 10
0.0
 20
0.0
 40
2.0
  1
KM1:5/L3
 41
7.5E-001
  0
TEXT
  8
1
  6
CONTINUOUS
 62
7
 10
0.0
 20
-3.0
 40
2.0
  1
Us
 41
7.5E-001
  0
ENDBLK
  0
BLOCK
  2
*TX529
  3
*TX
 10
0.0
 20
0.0
 70
65
  0
TEXT
  8
1
  6
CONTINUOUS
 62
7
 10
0.0
 20
0.0
 40
2.0
  1
A9/12/16
 41
7.5E-001
 50
9.0E+001
  0
TEXT
  8
1
  6
CONTINUOUS
 62
7
 10
3.0
 20
0.0
 40
2.0
  1
A26
 41
7.5E-001
 50
9.0E+001
  0
ENDBLK
  0
BLOCK
  2
*TX530
  3
*TX
 10
0.0
 20
0.0
 70
65
  0
TEXT
  8
1
  6
CONTINUOUS
 62
7
 10
0.0
 20
0.0
 40
2.25
  1
Only for starters A9...30
 41
7.5E-001
  0
TEXT
  8
1
  6
CONTINUOUS
 62
7
 10
0.0
 20
-3.375
 40
2.25
  1
Nur für A9...30 Starters
 41
7.5E-001
  0
TEXT
  8
1
  6
CONTINUOUS
 62
7
 10
0.0
 20
-6.75
 40
2.25
  1
Uniquement pour démarreurs A9...30
 41
7.5E-001
  0
ENDBLK
  0
BLOCK
  2
*TX531
  3
*TX
 10
0.0
 20
0.0
 70
65
  0
TEXT
  8
1
  6
CONTINUOUS
 62
7
 10
0.0
 20
0.0
 40
2.0
  1
KM1:5/L3
 41
7.5E-001
  0
TEXT
  8
1
  6
CONTINUOUS
 62
7
 10
0.0
 20
-3.0
 40
2.0
  1
Us
 41
7.5E-001
  0
ENDBLK
  0
BLOCK
  2
*TX532
  3
*TX
 10
0.0
 20
0.0
 70
65
  0
TEXT
  8
1
  6
CONTINUOUS
 62
7
 10
0.0
 20
0.0
 40
2.25
  1
Magnetic coil for remote reset
 41
7.5E-001
  0
TEXT
  8
1
  6
CONTINUOUS
 62
7
 10
0.0
 20
-3.375
 40
2.25
  1
Fernrückstellspule
 41
7.5E-001
  0
TEXT
  8
1
  6
CONTINUOUS
 62
7
 10
0.0
 20
-6.75
 40
2.25
  1
Bobine pour réarmement à distance
 41
7.5E-001
  0
ENDBLK
  0
BLOCK
  2
*TX533
  3
*TX
 10
0.0
 20
0.0
 70
65
  0
TEXT
  8
1
  6
CONTINUOUS
 62
7
 10
0.0
 20
0.0
 40
2.25
  1
Magnetic coil for remote tripping
 41
7.5E-001
  0
TEXT
  8
1
  6
CONTINUOUS
 62
7
 10
0.0
 20
-3.375
 40
2.25
  1
Fernauslösespule
 41
7.5E-001
  0
TEXT
  8
1
  6
CONTINUOUS
 62
7
 10
0.0
 20
-6.75
 40
2.25
  1
Bobine pour déclenchement à distance
 41
7.5E-001
  0
ENDBLK
  0
BLOCK
  2
*TX534
  3
*TX
 10
0.0
 20
0.0
 70
65
  0
TEXT
  8
1
  6
CONTINUOUS
 62
7
 10
0.0
 20
0.0
 40
2.0
  1
KM2:5/L3
 41
7.5E-001
  0
TEXT
  8
1
  6
CONTINUOUS
 62
7
 10
0.0
 20
-3.0
 40
2.0
  1
Us
 41
7.5E-001
  0
ENDBLK
  0
BLOCK
  2
*TX535
  3
*TX
 10
0.0
 20
0.0
 70
65
  0
TEXT
  8
1
  6
CONTINUOUS
 62
7
 10
0.0
 20
0.0
 40
2.0
  1
Us
 41
7.5E-001
  0
TEXT
  8
1
  6
CONTINUOUS
 62
7
 10
0.0
 20
-3.0
 40
2.0
  1
N
 41
7.5E-001
  0
TEXT
  8
1
  6
CONTINUOUS
 62
7
 10
0.0
 20
-6.0
 40
2.0
  1
KM2:3/L2
 41
7.5E-001
  0
ENDBLK
  0
BLOCK
  2
*TX536
  3
*TX
 10
0.0
 20
0.0
 70
65
  0
TEXT
  8
1
  6
CONTINUOUS
 62
7
 10
0.0
 20
0.0
 40
2.0
  1
Us
 41
7.5E-001
  0
TEXT
  8
1
  6
CONTINUOUS
 62
7
 10
0.0
 20
-3.0
 40
2.0
  1
N
 41
7.5E-001
  0
TEXT
  8
1
  6
CONTINUOUS
 62
7
 10
0.0
 20
-6.0
 40
2.0
  1
KM2:3/L2
 41
7.5E-001
  0
ENDBLK
  0
BLOCK
  2
*TX537
  3
*TX
 10
0.0
 20
0.0
 70
65
  0
TEXT
  8
1
  6
CONTINUOUS
 62
7
 10
0.0
 20
0.0
 40
2.0
  1
KM2:5/L3
 41
7.5E-001
  0
TEXT
  8
1
  6
CONTINUOUS
 62
7
 10
0.0
 20
-3.0
 40
2.0
  1
Us
 41
7.5E-001
  0
ENDBLK
  0
BLOCK
  2
*TX538
  3
*TX
 10
0.0
 20
0.0
 70
65
  0
TEXT
  8
1
  6
CONTINUOUS
 62
7
 10
0.0
 20
0.0
 40
2.25
  1
Only for starters A9...30
 41
7.5E-001
  0
TEXT
  8
1
  6
CONTINUOUS
 62
7
 10
0.0
 20
-3.375
 40
2.25
  1
Nur für A9...30 Starters
 41
7.5E-001
  0
TEXT
  8
1
  6
CONTINUOUS
 62
7
 10
0.0
 20
-6.75
 40
2.25
  1
Uniquement pour démarreurs A9...30
 41
7.5E-001
  0
ENDBLK
  0
BLOCK
  2
*TX539
  3
*TX
 10
0.0
 20
0.0
 70
65
  0
TEXT
  8
1
  6
CONTINUOUS
 62
7
 10
0.0
 20
0.0
 40
2.0
  1
KM2:5/L3
 41
7.5E-001
  0
TEXT
  8
1
  6
CONTINUOUS
 62
7
 10
0.0
 20
-3.0
 40
2.0
  1
Us
 41
7.5E-001
  0
ENDBLK
  0
BLOCK
  2
_AH1
 70
0
 10
0.0
 20
0.0
  3
_AH1
  0
LINE
  8
0
  6
CONTINUOUS
 62
0
 10
-1.0
 20
1.66667E-001
 11
0.0
 21
0.0
  0
LINE
  8
0
  6
CONTINUOUS
 62
0
 10
0.0
 20
0.0
 11
-1.0
 21
-1.66667E-001
  0
LINE
  8
0
  6
CONTINUOUS
 62
0
 10
-1.0
 20
1.66667E-001
 11
-1.0
 21
-1.66667E-001
  0
LINE
  8
0
  6
CONTINUOUS
 62
0
 10
0.0
 20
0.0
 11
-1.0
 21
0.0
  0
ENDBLK
  0
BLOCK
  2
_AH2
 70
0
 10
0.0
 20
0.0
  3
_AH2
  0
LINE
  8
0
  6
CONTINUOUS
 62
0
 10
-1.0
 20
1.66667E-001
 11
0.0
 21
0.0
  0
LINE
  8
0
  6
CONTINUOUS
 62
0
 10
0.0
 20
0.0
 11
-1.0
 21
-1.66667E-001
  0
LINE
  8
0
  6
CONTINUOUS
 62
0
 10
0.0
 20
0.0
 11
-1.0
 21
0.0
  0
ENDBLK
  0
ENDSEC
  0
SECTION
  2
ENTITIES
  0
TEXT
  8
1
  6
CONTINUOUS
 62
7
 10
1.2587469E+002
 20
8.6427478E+001
 40
2.0
  1
KM1
 41
7.5E-001
  0
TEXT
  8
1
  6
CONTINUOUS
 62
7
 10
9.9874693E+001
 20
8.6427478E+001
 40
2.0
  1
KM2
 41
7.5E-001
  0
TEXT
  8
1
  6
CONTINUOUS
 62
7
 10
1.8459161E+002
 20
8.6427478E+001
 40
2.0
  1
KM2
 41
7.5E-001
  0
TEXT
  8
1
  6
CONTINUOUS
 62
7
 10
2.3919398E+002
 20
8.6219686E+001
 40
2.0
  1
KM1
 41
7.5E-001
  0
LINE
  8
1
  6
CONTINUOUS
 62
7
 10
1.3237469E+002
 20
8.4796093E+001
 11
1.3237469E+002
 21
7.5751515E+001
  0
LINE
  8
1
  6
CONTINUOUS
 62
7
 10
1.0637469E+002
 20
8.4796093E+001
 11
1.0637469E+002
 21
7.5751515E+001
  0
TEXT
  8
1
  6
CONTINUOUS
 62
7
 10
1.5126593E+002
 20
2.009151E+002
 40
2.0
  1
21
 41
7.5E-001
 50
9.0E+001
  0
TEXT
  8
1
  6
CONTINUOUS
 62
7
 10
1.5126593E+002
 20
1.899151E+002
 40
2.0
  1
22
 41
7.5E-001
 50
9.0E+001
  0
LINE
  8
1
  6
CONTINUOUS
 62
7
 10
1.5201593E+002
 20
1.994151E+002
 11
1.5201593E+002
 21
2.0618897E+002
  0
LINE
  8
1
  6
CONTINUOUS
 62
7
 10
1.5201593E+002
 20
1.944151E+002
 11
1.5201593E+002
 21
1.8736618E+002
  0
TEXT
  8
1
  6
CONTINUOUS
 62
7
 10
1.3162469E+002
 20
1.4473936E+002
 40
2.0
  1
14
 41
7.5E-001
 50
9.0E+001
  0
LINE
  8
1
  6
CONTINUOUS
 62
7
 10
1.3237469E+002
 20
1.4773936E+002
 11
1.3037469E+002
 21
1.5273936E+002
  0
ARC
  8
1
  6
CONTINUOUS
 62
7
 10
1.4201593E+002
 20
2.0065295E+002
 40
1.25
 50
9.0E+001
 51
2.7E+002
  0
ARC
  8
1
  6
CONTINUOUS
 62
7
 10
1.3701593E+002
 20
2.006651E+002
 40
1.25
 50
9.0E+001
 51
2.7E+002
  0
ARC
  8
1
  6
CONTINUOUS
 62
7
 10
1.3201593E+002
 20
2.006651E+002
 40
1.25
 50
9.0E+001
 51
2.7E+002
  0
ARC
  8
1
  6
CONTINUOUS
 62
7
 10
1.8783593E+002
 20
2.006651E+002
 40
1.25
 50
9.0E+001
 51
2.7E+002
  0
ARC
  8
1
  6
CONTINUOUS
 62
7
 10
1.9283593E+002
 20
2.006651E+002
 40
1.25
 50
9.0E+001
 51
2.7E+002
  0
ARC
  8
1
  6
CONTINUOUS
 62
7
 10
1.9783593E+002
 20
2.006651E+002
 40
1.25
 50
9.0E+001
 51
2.7E+002
  0
TEXT
  8
1
  6
CONTINUOUS
 62
7
 10
1.2587469E+002
 20
1.4937075E+002
 40
2.0
  1
Q1
 41
7.5E-001
  0
TEXT
  8
1
  6
CONTINUOUS
 62
7
 10
1.3162469E+002
 20
1.5373936E+002
 40
2.0
  1
13
 41
7.5E-001
 50
9.0E+001
  0
TEXT
  8
1
  6
CONTINUOUS
 62
7
 10
1.9034161E+002
 20
1.4473936E+002
 40
2.0
  1
14
 41
7.5E-001
 50
9.0E+001
  0
LINE
  8
1
  6
CONTINUOUS
 62
7
 10
1.9109161E+002
 20
1.4773936E+002
 11
1.8909161E+002
 21
1.5273936E+002
  0
TEXT
  8
1
  6
CONTINUOUS
 62
7
 10
1.8459161E+002
 20
1.4937075E+002
 40
2.0
  1
Q1
 41
7.5E-001
  0
TEXT
  8
1
  6
CONTINUOUS
 62
7
 10
1.9034161E+002
 20
1.5373936E+002
 40
2.0
  1
13
 41
7.5E-001
 50
9.0E+001
  0
TEXT
  8
1
  6
CONTINUOUS
 62
7
 10
2.0708593E+002
 20
2.009151E+002
 40
2.0
  1
21
 41
7.5E-001
 50
9.0E+001
  0
TEXT
  8
1
  6
CONTINUOUS
 62
7
 10
2.0708593E+002
 20
1.899151E+002
 40
2.0
  1
22
 41
7.5E-001
 50
9.0E+001
  0
LINE
  8
1
  6
CONTINUOUS
 62
7
 10
2.0783593E+002
 20
1.994151E+002
 11
2.0783593E+002
 21
2.0618897E+002
  0
LINE
  8
1
  6
CONTINUOUS
 62
7
 10
2.0783593E+002
 20
1.944151E+002
 11
2.0783593E+002
 21
1.8736618E+002
  0
LINE
  8
1
  6
CONTINUOUS
 62
7
 10
2.0783593E+002
 20
1.944151E+002
 11
2.0883593E+002
 21
2.004151E+002
  0
LINE
  8
1
  6
CONTINUOUS
 62
7
 10
2.0783593E+002
 20
1.994151E+002
 11
2.0983593E+002
 21
1.994151E+002
  0
LINE
  8
1
  6
CONTINUOUS
 62
7
 10
1.6751593E+002
 20
1.8365061E+002
 11
1.6201593E+002
 21
1.8365061E+002
  0
INSERT
  2
A3N
  8
1
 10
1.9E+001
 20
1.1E+001
 66
1
  0
ATTRIB
  8
1
  6
CONTINUOUS
 62
5
 10
3.8449644E+002
 20
3.8E+001
 40
2.0
  1
 
 41
6.5E-001
 11
3.8449644E+002
 21
3.7E+001
  2
ANCIEN_ Plan
 70
0
 73
2
 74
2
  0
ATTRIB
  8
1
  6
CONTINUOUS
 62
5
 10
3.9049644E+002
 20
2.2E+001
 40
4.0
  1
FPTS307900
 41
7.5E-001
 72
1
 11
3.7549644E+002
 21
2.0E+001
  2
N°PLAN
 70
0
 73
2
 74
2
  0
ATTRIB
  8
1
  6
CONTINUOUS
 62
5
 10
3.8449644E+002
 20
3.4005401E+001
 40
2.0
  1
 
 41
7.5E-001
 11
3.8449644E+002
 21
3.3005401E+001
  2
N°OEM
 70
0
 73
2
 74
2
  0
ATTRIB
  8
1
  6
CONTINUOUS
 62
5
 10
3.378958E+002
 20
2.48E+001
 40
1.6
  1
DEMAR. INVERSEUR A9...40 + VM (avec Dj. Mot.)
 41
9.0E-001
 72
1
 11
3.054958E+002
 21
2.4E+001
  2
TYPE_PLAN
 70
0
 73
2
 74
2
  0
ATTRIB
  8
1
  6
CONTINUOUS
 62
5
 10
3.439333E+002
 20
2.125E+001
 40
2.5
  1
A9...40 REVERSING STARTER + VM (with MMS)
 41
7.5E-001
 72
1
 11
3.054958E+002
 21
2.0E+001
  2
DESIGNATION_PLAN
 70
0
 73
2
 74
2
  0
ATTRIB
  8
1
  6
CONTINUOUS
 62
5
 10
4.079333E+002
 20
1.975E+001
 40
2.5
  1
A
 41
7.5E-001
 72
1
 11
4.069958E+002
 21
1.85E+001
  2
ID
 70
0
 73
2
 74
2
  0
ATTRIB
  8
1
  6
CONTINUOUS
 62
5
 10
3.7475484E+002
 20
2.7659209E+001
 40
2.75
  1
A3
 41
7.5E-001
 72
1
 11
3.7269234E+002
 21
2.6284209E+001
  2
A?
 70
0
 73
2
 74
2
  0
ATTRIB
  8
1
  6
CONTINUOUS
 62
5
 10
3.8642666E+002
 20
2.7659209E+001
 40
2.75
  1
1
 41
7.5E-001
 72
1
 11
3.8539541E+002
 21
2.6284209E+001
  2
Folio
 70
0
 73
2
 74
2
  0
ATTRIB
  8
1
  6
CONTINUOUS
 62
5
 10
3.9914468E+002
 20
2.7659209E+001
 40
2.75
  1
1
 41
7.5E-001
 72
1
 11
3.9811343E+002
 21
2.6284209E+001
  2
Folios
 70
0
 73
2
 74
2
  0
ATTRIB
  8
1
  6
CONTINUOUS
 62
5
 10
3.6733212E+002
 20
5.025E+001
 40
2.5
  1
EO-18636
 11
3.6733212E+002
 21
4.9E+001
  2
N°OE_Origine
 70
0
 73
2
 74
2
  0
ATTRIB
  8
1
  6
CONTINUOUS
 62
5
 10
3.6733212E+002
 20
4.6E+001
 40
2.0
  1
P.BLANCHET le 12.08.05
 41
7.5E-001
 11
3.6733212E+002
 21
4.5E+001
  2
CONTROLEUR_Origine
 70
0
 73
2
 74
2
  0
ATTRIB
  8
1
  6
CONTINUOUS
 62
5
 10
3.6733212E+002
 20
4.2E+001
 40
2.0
  1
C.ECOCHARD le 12.08.05
 41
7.5E-001
 11
3.6733212E+002
 21
4.1E+001
  2
DESSINATEUR_Origine
 70
0
 73
2
 74
2
  0
ATTRIB
  8
1
  6
CONTINUOUS
 62
5
 10
2.4293169E+002
 20
3.825E+001
 40
2.5
  1
A
 41
7.5E-001
 72
1
 11
2.4199419E+002
 21
3.7E+001
  2
ID1
 70
0
 73
2
 74
2
  0
ATTRIB
  8
1
  6
CONTINUOUS
 62
5
 10
2.4293169E+002
 20
4.225E+001
 40
2.5
  1
 
 41
7.5E-001
 72
1
 11
2.4199419E+002
 21
4.1E+001
  2
ID2
 70
0
 73
2
 74
2
  0
ATTRIB
  8
1
  6
CONTINUOUS
 62
5
 10
2.4293169E+002
 20
4.625E+001
 40
2.5
  1
 
 41
7.5E-001
 72
1
 11
2.4199419E+002
 21
4.5E+001
  2
ID3
 70
0
 73
2
 74
2
  0
ATTRIB
  8
1
  6
CONTINUOUS
 62
5
 10
2.4293169E+002
 20
5.025E+001
 40
2.5
  1
 
 41
7.5E-001
 72
1
 11
2.4199419E+002
 21
4.9E+001
  2
ID4
 70
0
 73
2
 74
2
  0
ATTRIB
  8
1
  6
CONTINUOUS
 62
5
 10
3.5874644E+002
 20
3.2551214E+001
 40
6.0
  1
 
 41
7.5E-001
 72
1
 11
3.5649644E+002
 21
2.9551214E+001
  2
Ech
 70
0
 73
2
 74
2
  0
ATTRIB
  8
1
  6
CONTINUOUS
 62
5
 10
2.4549419E+002
 20
3.7875E+001
 40
1.75
  1
Edition originale
 41
7.5E-001
 11
2.4549419E+002
 21
3.7E+001
  2
DESC-1
 70
0
 73
2
 74
2
  0
ATTRIB
  8
1
  6
CONTINUOUS
 62
5
 10
2.4549419E+002
 20
4.1875E+001
 40
1.75
  1
 
 41
7.5E-001
 11
2.4549419E+002
 21
4.1E+001
  2
DESC-2
 70
0
 73
2
 74
2
  0
ATTRIB
  8
1
  6
CONTINUOUS
 62
5
 10
2.4549419E+002
 20
4.5875E+001
 40
1.75
  1
 
 41
7.5E-001
 11
2.4549419E+002
 21
4.5E+001
  2
DESC-3
 70
0
 73
2
 74
2
  0
ATTRIB
  8
1
  6
CONTINUOUS
 62
5
 10
2.4549419E+002
 20
4.9875E+001
 40
1.75
  1
 
 41
7.5E-001
 11
2.4549419E+002
 21
4.9E+001
  2
DESC-4
 70
0
 73
2
 74
2
  0
ATTRIB
  8
1
  6
CONTINUOUS
 62
5
 10
3.1581644E+002
 20
3.79E+001
 40
1.8
  1
12.08.05
 41
6.0E-001
 72
1
 11
3.1149644E+002
 21
3.7E+001
  2
DATE1
 70
0
 73
2
 74
2
  0
ATTRIB
  8
1
  6
CONTINUOUS
 62
5
 10
3.1203644E+002
 20
4.19E+001
 40
1.8
  1
 
 41
6.0E-001
 72
1
 11
3.1149644E+002
 21
4.1E+001
  2
DATE2
 70
0
 73
2
 74
2
  0
ATTRIB
  8
1
  6
CONTINUOUS
 62
5
 10
3.1203644E+002
 20
4.59E+001
 40
1.8
  1
 
 41
6.0E-001
 72
1
 11
3.1149644E+002
 21
4.5E+001
  2
DATE3
 70
0
 73
2
 74
2
  0
ATTRIB
  8
1
  6
CONTINUOUS
 62
5
 10
3.1203644E+002
 20
4.99E+001
 40
1.8
  1
 
 41
6.0E-001
 72
1
 11
3.1149644E+002
 21
4.9E+001
  2
DATE4
 70
0
 73
2
 74
2
  0
ATTRIB
  8
1
  6
CONTINUOUS
 62
5
 10
3.2487144E+002
 20
3.79E+001
 40
1.8
  1
18636
 41
7.5E-001
 72
1
 11
3.2149644E+002
 21
3.7E+001
  2
OE1
 70
0
 73
2
 74
2
  0
ATTRIB
  8
1
  6
CONTINUOUS
 62
5
 10
3.2217144E+002
 20
4.19E+001
 40
1.8
  1
 
 41
7.5E-001
 72
1
 11
3.2149644E+002
 21
4.1E+001
  2
OE2
 70
0
 73
2
 74
2
  0
ATTRIB
  8
1
  6
CONTINUOUS
 62
5
 10
3.2217144E+002
 20
4.59E+001
 40
1.8
  1
 
 41
7.5E-001
 72
1
 11
3.2149644E+002
 21
4.5E+001
  2
OE3
 70
0
 73
2
 74
2
  0
ATTRIB
  8
1
  6
CONTINUOUS
 62
5
 10
3.2217144E+002
 20
4.99E+001
 40
1.8
  1
 
 41
7.5E-001
 72
1
 11
3.2149644E+002
 21
4.9E+001
  2
OE4
 70
0
 73
2
 74
2
  0
ATTRIB
  8
1
  6
CONTINUOUS
 62
5
 10
3.3134644E+002
 20
3.79E+001
 40
1.8
  1
CE
 41
7.5E-001
 72
1
 11
3.2999644E+002
 21
3.7E+001
  2
AUT1
 70
0
 73
2
 74
2
  0
ATTRIB
  8
1
  6
CONTINUOUS
 62
5
 10
3.3067144E+002
 20
4.19E+001
 40
1.8
  1
 
 41
7.5E-001
 72
1
 11
3.2999644E+002
 21
4.1E+001
  2
AUT2
 70
0
 73
2
 74
2
  0
ATTRIB
  8
1
  6
CONTINUOUS
 62
5
 10
3.3067144E+002
 20
4.59E+001
 40
1.8
  1
 
 41
7.5E-001
 72
1
 11
3.2999644E+002
 21
4.5E+001
  2
AUT3
 70
0
 73
2
 74
2
  0
ATTRIB
  8
1
  6
CONTINUOUS
 62
5
 10
3.3067144E+002
 20
4.99E+001
 40
1.8
  1
 
 41
7.5E-001
 72
1
 11
3.2999644E+002
 21
4.9E+001
  2
AUT4
 70
0
 73
2
 74
2
  0
ATTRIB
  8
1
  6
CONTINUOUS
 62
5
 10
3.3440529E+002
 20
3.79E+001
 40
1.8
  1
PB
 41
7.5E-001
 11
3.3440529E+002
 21
3.7E+001
  2
CONT1
 70
0
 73
2
 74
2
  0
ATTRIB
  8
1
  6
CONTINUOUS
 62
5
 10
3.3440529E+002
 20
4.19E+001
 40
1.8
  1
 
 41
7.5E-001
 11
3.3440529E+002
 21
4.1E+001
  2
CONT2
 70
0
 73
2
 74
2
  0
ATTRIB
  8
1
  6
CONTINUOUS
 62
5
 10
3.3440529E+002
 20
4.59E+001
 40
1.8
  1
 
 41
7.5E-001
 11
3.3440529E+002
 21
4.5E+001
  2
CONT3
 70
0
 73
2
 74
2
  0
ATTRIB
  8
1
  6
CONTINUOUS
 62
5
 10
3.3440529E+002
 20
4.99E+001
 40
1.8
  1
 
 41
7.5E-001
 11
3.3440529E+002
 21
4.9E+001
  2
CONT4
 70
0
 73
2
 74
2
  0
SEQEND
  0
TEXT
  8
1
  6
CONTINUOUS
 62
7
 10
2.4301593E+002
 20
2.4082392E+002
 40
2.25
  1
(1)
 41
7.5E-001
  0
TEXT
  8
1
  6
CONTINUOUS
 62
7
 10
1.4626593E+002
 20
2.009151E+002
 40
2.0
  1
13
 41
7.5E-001
 50
9.0E+001
  0
TEXT
  8
1
  6
CONTINUOUS
 62
7
 10
1.4626593E+002
 20
1.899151E+002
 40
2.0
  1
14
 41
7.5E-001
 50
9.0E+001
  0
TEXT
  8
1
  6
CONTINUOUS
 62
7
 10
2.0208593E+002
 20
2.009151E+002
 40
2.0
  1
13
 41
7.5E-001
 50
9.0E+001
  0
LINE
  8
1
  6
CONTINUOUS
 62
7
 10
2.0283593E+002
 20
1.994151E+002
 11
2.0283593E+002
 21
2.0618897E+002
  0
LINE
  8
1
  6
CONTINUOUS
 62
7
 10
2.0283593E+002
 20
1.944151E+002
 11
2.0283593E+002
 21
1.8736618E+002
  0
TEXT
  8
1
  6
CONTINUOUS
 62
7
 10
2.0208593E+002
 20
1.899151E+002
 40
2.0
  1
14
 41
7.5E-001
 50
9.0E+001
  0
LINE
  8
1
  6
CONTINUOUS
 62
7
 10
7.9614693E+001
 20
1.0272935E+002
 11
7.7614693E+001
 21
1.0772935E+002
  0
LINE
  8
1
  6
CONTINUOUS
 62
7
 10
7.9614693E+001
 20
9.4749365E+001
 11
7.9614693E+001
 21
1.0272935E+002
  0
LINE
  8
1
  6
HIDDEN
 62
7
 10
7.8614693E+001
 20
1.0522935E+002
 11
7.3614693E+001
 21
1.0522935E+002
  0
LINE
  8
1
  6
CONTINUOUS
 62
7
 10
7.5114693E+001
 20
1.0722935E+002
 11
7.3614693E+001
 21
1.0722935E+002
  0
TEXT
  8
1
  6
CONTINUOUS
 62
7
 10
7.1314693E+001
 20
1.0422935E+002
 40
2.0
  1
I
 41
7.5E-001
  0
LINE
  8
1
  6
CONTINUOUS
 62
7
 10
7.3614693E+001
 20
1.0722935E+002
 11
7.3614693E+001
 21
1.0322935E+002
  0
LINE
  8
1
  6
CONTINUOUS
 62
7
 10
7.5114693E+001
 20
1.0322935E+002
 11
7.3614693E+001
 21
1.0322935E+002
  0
LINE
  8
1
  6
CONTINUOUS
 62
7
 10
7.5114693E+001
 20
1.2522935E+002
 11
7.3614693E+001
 21
1.2522935E+002
  0
LINE
  8
1
  6
CONTINUOUS
 62
7
 10
7.3614693E+001
 20
1.2522935E+002
 11
7.3614693E+001
 21
1.2122935E+002
  0
LINE
  8
1
  6
CONTINUOUS
 62
7
 10
7.5114693E+001
 20
1.2122935E+002
 11
7.3614693E+001
 21
1.2122935E+002
  0
LINE
  8
1
  6
HIDDEN
 62
7
 10
7.8614693E+001
 20
1.2322935E+002
 11
7.3614693E+001
 21
1.2322935E+002
  0
TEXT
  8
1
  6
CONTINUOUS
 62
7
 10
7.4564693E+001
 20
1.2222935E+002
 40
2.0
  1
II 
 41
7.5E-001
 72
1
 11
7.2314693E+001
 21
1.2222935E+002
  0
LINE
  8
1
  6
CONTINUOUS
 62
7
 10
7.9614693E+001
 20
1.2072935E+002
 11
7.9614693E+001
 21
1.0772935E+002
  0
LINE
  8
1
  6
CONTINUOUS
 62
7
 10
7.9614693E+001
 20
1.2872935E+002
 11
7.9614693E+001
 21
1.2572935E+002
  0
LINE
  8
1
  6
CONTINUOUS
 62
7
 10
7.9614693E+001
 20
1.2572935E+002
 11
8.1614693E+001
 21
1.2572935E+002
  0
LINE
  8
1
  6
CONTINUOUS
 62
7
 10
7.9614693E+001
 20
1.2072935E+002
 11
8.0614693E+001
 21
1.2672935E+002
  0
LINE
  8
1
  6
HIDDEN
 62
7
 10
7.8614693E+001
 20
1.2322935E+002
 11
8.2614693E+001
 21
1.2322935E+002
  0
LINE
  8
1
  6
CONTINUOUS
 62
7
 10
1.9109161E+002
 20
1.4773936E+002
 11
1.9109161E+002
 21
1.3075152E+002
  0
LINE
  8
1
  6
HIDDEN
 62
7
 10
7.8614693E+001
 20
1.0522935E+002
 11
8.2614693E+001
 21
1.0522935E+002
  0
LINE
  8
1
  6
HIDDEN
 62
7
 10
8.7614693E+001
 20
1.2322935E+002
 11
9.103136E+001
 21
1.2322935E+002
  0
LINE
  8
1
  6
HIDDEN
 62
7
 10
8.9614693E+001
 20
1.0522935E+002
 11
8.7614693E+001
 21
1.0522935E+002
  0
LINE
  8
1
  6
HIDDEN
 62
7
 10
8.7614693E+001
 20
1.2322935E+002
 11
8.2614693E+001
 21
1.0522935E+002
  0
LINE
  8
1
  6
HIDDEN
 62
7
 10
8.2614693E+001
 20
1.2322935E+002
 11
8.7614693E+001
 21
1.0522935E+002
  0
LINE
  8
1
  6
CONTINUOUS
 62
7
 10
9.0614693E+001
 20
1.4274937E+002
 11
9.7614693E+001
 21
1.4274937E+002
  0
LINE
  8
1
  6
CONTINUOUS
 62
7
 10
9.0614693E+001
 20
1.3772935E+002
 11
9.0614693E+001
 21
1.4274937E+002
  0
LINE
  8
1
  6
CONTINUOUS
 62
7
 10
9.5614693E+001
 20
1.3574937E+002
 11
9.5614693E+001
 21
1.3674937E+002
  0
LINE
  8
1
  6
CONTINUOUS
 62
7
 10
9.5614693E+001
 20
1.3774937E+002
 11
9.5614693E+001
 21
1.4074937E+002
  0
LINE
  8
1
  6
CONTINUOUS
 62
7
 10
6.9614693E+001
 20
1.3374937E+002
 11
6.9614693E+001
 21
1.3474937E+002
  0
LINE
  8
1
  6
CONTINUOUS
 62
7
 10
6.9614693E+001
 20
1.3574937E+002
 11
6.9614693E+001
 21
1.4074937E+002
  0
LINE
  8
1
  6
CONTINUOUS
 62
7
 10
8.3284574E+001
 20
1.4072935E+002
 11
8.3220202E+001
 21
1.4072935E+002
  0
LINE
  8
1
  6
CONTINUOUS
 62
7
 10
8.2114693E+001
 20
1.4074937E+002
 11
8.1114693E+001
 21
1.4074937E+002
  0
LINE
  8
1
  6
CONTINUOUS
 62
7
 10
8.0114693E+001
 20
1.4074937E+002
 11
7.5114693E+001
 21
1.4074937E+002
  0
LINE
  8
1
  6
CONTINUOUS
 62
7
 10
7.4114693E+001
 20
1.4074937E+002
 11
7.3114693E+001
 21
1.4074937E+002
  0
LINE
  8
1
  6
CONTINUOUS
 62
7
 10
7.2114693E+001
 20
1.4074937E+002
 11
6.9614693E+001
 21
1.4074937E+002
  0
LINE
  8
1
  6
CONTINUOUS
 62
7
 10
8.1614693E+001
 20
1.0074937E+002
 11
8.0614693E+001
 21
1.0074937E+002
  0
LINE
  8
1
  6
CONTINUOUS
 62
7
 10
7.9114693E+001
 20
1.0074937E+002
 11
7.4114693E+001
 21
1.0074937E+002
  0
LINE
  8
1
  6
CONTINUOUS
 62
7
 10
7.3114693E+001
 20
1.0074937E+002
 11
7.2114693E+001
 21
1.0074937E+002
  0
TEXT
  8
1
  6
CONTINUOUS
 62
7
 10
9.7374693E+001
 20
7.28829E+001
 40
2.0
  1
KM1
 41
7.5E-001
  0
LINE
  8
1
  6
CONTINUOUS
 62
7
 10
7.1114693E+001
 20
1.0074937E+002
 11
6.9614893E+001
 21
1.0071934E+002
  0
TEXT
  8
1
  6
CONTINUOUS
 62
7
 10
1.3712469E+002
 20
7.28829E+001
 40
2.0
  1
KM2
 41
7.5E-001
  0
LINE
  8
1
  6
CONTINUOUS
 62
7
 10
9.0614693E+001
 20
9.8749365E+001
 11
9.7614693E+001
 21
9.8749365E+001
  0
LINE
  8
1
  6
CONTINUOUS
 62
7
 10
7.9614693E+001
 20
9.4749365E+001
 11
9.7614693E+001
 21
9.4749365E+001
  0
LINE
  8
1
  6
CONTINUOUS
 62
7
 10
9.0614693E+001
 20
1.2072935E+002
 11
9.1614693E+001
 21
1.2672935E+002
  0
LINE
  8
1
  6
CONTINUOUS
 62
7
 10
9.0614693E+001
 20
1.2572935E+002
 11
9.2614693E+001
 21
1.2572935E+002
  0
LINE
  8
1
  6
CONTINUOUS
 62
7
 10
7.9614693E+001
 20
1.2872935E+002
 11
9.0614693E+001
 21
1.2872935E+002
  0
LINE
  8
1
  6
CONTINUOUS
 62
7
 10
8.6114693E+001
 20
1.3722935E+002
 11
8.4614693E+001
 21
1.3722935E+002
  0
TEXT
  8
1
  6
CONTINUOUS
 62
7
 10
8.2314693E+001
 20
1.3422935E+002
 40
2.0
  1
O
 41
7.5E-001
  0
LINE
  8
1
  6
CONTINUOUS
 62
7
 10
8.4614693E+001
 20
1.3722935E+002
 11
8.4614693E+001
 21
1.3322935E+002
  0
LINE
  8
1
  6
HIDDEN
 62
7
 10
9.1114693E+001
 20
1.3522935E+002
 11
8.4614693E+001
 21
1.3522935E+002
  0
LINE
  8
1
  6
CONTINUOUS
 62
7
 10
8.6114693E+001
 20
1.3322935E+002
 11
8.4614693E+001
 21
1.3322935E+002
  0
LINE
  8
1
  6
SHORT_DASH
 62
7
 10
9.9314129E+001
 20
9.4751515E+001
 11
1.0637469E+002
 21
9.4751515E+001
  0
LINE
  8
1
  6
CONTINUOUS
 62
7
 10
9.0614693E+001
 20
1.3272935E+002
 11
9.1614693E+001
 21
1.3872935E+002
  0
LINE
  8
1
  6
CONTINUOUS
 62
7
 10
9.0614693E+001
 20
1.3772935E+002
 11
9.2614693E+001
 21
1.3772935E+002
  0
LINE
  8
1
  6
CONTINUOUS
 62
7
 10
9.0614693E+001
 20
1.0272935E+002
 11
8.8614693E+001
 21
1.0772935E+002
  0
LINE
  8
1
  6
CONTINUOUS
 62
7
 10
9.0614693E+001
 20
1.3272935E+002
 11
9.0614693E+001
 21
1.2572935E+002
  0
LINE
  8
1
  6
CONTINUOUS
 62
7
 10
9.0614693E+001
 20
1.2072935E+002
 11
9.0614693E+001
 21
1.0772935E+002
  0
LINE
  8
1
  6
CONTINUOUS
 62
7
 10
9.0614693E+001
 20
9.8749365E+001
 11
9.0614693E+001
 21
1.0272935E+002
  0
LINE
  8
1
  6
SHORT_DASH
 62
7
 10
9.7480876E+001
 20
9.8751515E+001
 11
1.3237469E+002
 21
9.8751515E+001
  0
LINE
  8
1
  6
CENTERLINE
 62
7
 10
1.0231984E+002
 20
2.5854096E+002
 11
1.0231984E+002
 21
1.7565618E+002
  0
TEXT
  8
1
  6
CONTINUOUS
 62
7
 10
7.8445211E+001
 20
2.7187843E+002
 40
4.0
  1
REVERSING STARTER / WENDESTARTER / DEMARREUR INVERSEUR   
 41
7.5E-001
  0
TEXT
  8
1
  6
CONTINUOUS
 62
7
 10
2.5001593E+002
 20
2.4982392E+002
 40
2.25
  1
Adjunction/Zusatz/Adjonction
 41
7.5E-001
  0
LINE
  8
1
  6
HIDDEN
 62
7
 10
8.9614693E+001
 20
1.0522935E+002
 11
8.7614693E+001
 21
1.0522935E+002
  0
TEXT
  8
1
  6
CONTINUOUS
 62
7
 10
2.5001593E+002
 20
2.4082392E+002
 40
2.25
  1
DR
 41
7.5E-001
  0
TEXT
  8
1
  6
CONTINUOUS
 62
7
 10
2.5001593E+002
 20
2.2782392E+002
 40
2.25
  1
DS
 41
7.5E-001
  0
TEXT
  8
1
  6
CONTINUOUS
 62
7
 10
2.5601593E+002
 20
2.1882392E+002
 40
2.25
  1
On KM1/Ein KM1/Marche KM1
 41
7.5E-001
  0
TEXT
  8
1
  6
CONTINUOUS
 62
7
 10
2.5601593E+002
 20
2.0792392E+002
 40
2.25
  1
Off/Aus/Arrêt
 41
7.5E-001
  0
TEXT
  8
1
  6
CONTINUOUS
 62
7
 10
2.5001593E+002
 20
2.1292392E+002
 40
2.25
  1
H2
 41
7.5E-001
  0
LINE
  8
1
  6
CONTINUOUS
 62
7
 10
1.3237469E+002
 20
1.5273936E+002
 11
1.3237469E+002
 21
1.6275152E+002
  0
TEXT
  8
1
  6
CONTINUOUS
 62
7
 10
2.5001593E+002
 20
2.1882392E+002
 40
2.25
  1
H1
 41
7.5E-001
  0
TEXT
  8
1
  6
CONTINUOUS
 62
7
 10
2.5001593E+002
 20
2.0792392E+002
 40
2.25
  1
H3
 41
7.5E-001
  0
TEXT
  8
1
  6
CONTINUOUS
 62
7
 10
2.5001593E+002
 20
2.0292392E+002
 40
2.25
  1
H4
 41
7.5E-001
  0
TEXT
  8
1
  6
CONTINUOUS
 62
7
 10
2.5001593E+002
 20
1.9682392E+002
 40
2.25
  1
H9
 41
7.5E-001
  0
LINE
  8
1
  6
CONTINUOUS
 62
7
 10
1.3237469E+002
 20
1.4773936E+002
 11
1.3237469E+002
 21
1.4274937E+002
  0
TEXT
  8
1
  6
CONTINUOUS
 62
7
 10
2.5601593E+002
 20
2.1292392E+002
 40
2.25
  1
On KM2/Ein KM2/Marche KM2
 41
7.5E-001
  0
LINE
  8
1
  6
CONTINUOUS
 62
7
 10
1.57429E+002
 20
1.986451E+002
 11
1.61429E+002
 21
1.986451E+002
  0
LINE
  8
1
  6
CONTINUOUS
 62
7
 10
1.57429E+002
 20
1.986451E+002
 11
1.59429E+002
 21
1.95181E+002
  0
LINE
  8
1
  6
CONTINUOUS
 62
7
 10
1.61429E+002
 20
1.986451E+002
 11
1.59429E+002
 21
1.95181E+002
  0
LINE
  8
1
  6
CONTINUOUS
 62
7
 10
1.5201593E+002
 20
1.944151E+002
 11
1.5301593E+002
 21
2.004151E+002
  0
LINE
  8
1
  6
CONTINUOUS
 62
7
 10
1.5201593E+002
 20
1.994151E+002
 11
1.5401593E+002
 21
1.994151E+002
  0
LINE
  8
1
  6
CONTINUOUS
 62
7
 10
9.0614693E+001
 20
1.3074937E+002
 11
9.7614693E+001
 21
1.3074937E+002
  0
TEXT
  8
1
  6
CONTINUOUS
 62
7
 10
6.9619454E+001
 20
1.6575152E+002
 40
2.25
  1
Remote control/Fernbetätigung/Commande à distance
 41
7.5E-001
  0
LINE
  8
1
  6
SHORT_DASH
 62
7
 10
9.7614693E+001
 20
1.4274937E+002
 11
1.3237469E+002
 21
1.4274937E+002
  0
LINE
  8
1
  6
SHORT_DASH
 62
7
 10
1.0637469E+002
 20
1.3074937E+002
 11
9.8374693E+001
 21
1.3074937E+002
  0
LINE
  8
1
  6
CONTINUOUS
 62
7
 10
9.5614693E+001
 20
1.2774937E+002
 11
9.5614693E+001
 21
1.3374937E+002
  0
LINE
  8
1
  6
CONTINUOUS
 62
7
 10
9.5614693E+001
 20
1.2674937E+002
 11
9.5614693E+001
 21
1.2574937E+002
  0
LINE
  8
1
  6
CONTINUOUS
 62
7
 10
9.5614693E+001
 20
1.2474937E+002
 11
9.5614693E+001
 21
1.1974937E+002
  0
LINE
  8
1
  6
CONTINUOUS
 62
7
 10
9.5614693E+001
 20
1.1874937E+002
 11
9.5614693E+001
 21
1.1774937E+002
  0
LINE
  8
1
  6
CONTINUOUS
 62
7
 10
9.5614693E+001
 20
1.1674937E+002
 11
9.5614693E+001
 21
1.1174937E+002
  0
LINE
  8
1
  6
CONTINUOUS
 62
7
 10
9.5614693E+001
 20
1.0874937E+002
 11
9.5614693E+001
 21
1.0374937E+002
  0
LINE
  8
1
  6
CONTINUOUS
 62
7
 10
2.4569398E+002
 20
8.4796093E+001
 11
2.4569398E+002
 21
7.5751515E+001
  0
LINE
  8
1
  6
CONTINUOUS
 62
7
 10
1.9109161E+002
 20
8.4796093E+001
 11
1.9109161E+002
 21
7.5751515E+001
  0
TEXT
  8
1
  6
CONTINUOUS
 62
7
 10
2.5044398E+002
 20
7.28829E+001
 40
2.0
  1
KM2
 41
7.5E-001
  0
LINE
  8
1
  6
SHORT_DASH
 62
7
 10
1.2601593E+002
 20
1.969151E+002
 11
1.7383593E+002
 21
1.969151E+002
  0
LINE
  8
1
  6
CONTINUOUS
 62
7
 10
1.1801593E+002
 20
1.989151E+002
 11
1.1801593E+002
 21
1.9503372E+002
  0
LINE
  8
1
  6
CONTINUOUS
 62
7
 10
1.2601593E+002
 20
1.989151E+002
 11
1.2601593E+002
 21
1.9503372E+002
  0
LINE
  8
1
  6
CONTINUOUS
 62
7
 10
1.2601593E+002
 20
1.989151E+002
 11
1.1801593E+002
 21
1.989151E+002
  0
LINE
  8
1
  6
CONTINUOUS
 62
7
 10
1.2601593E+002
 20
1.9503372E+002
 11
1.1801593E+002
 21
1.9503372E+002
  0
LINE
  8
1
  6
CONTINUOUS
 62
7
 10
1.2201593E+002
 20
1.989151E+002
 11
1.2201593E+002
 21
2.039151E+002
  0
LINE
  8
1
  6
CONTINUOUS
 62
7
 10
1.2201593E+002
 20
1.9503372E+002
 11
1.2201593E+002
 21
1.899151E+002
  0
TEXT
  8
1
  6
CONTINUOUS
 62
7
 10
1.1301593E+002
 20
1.976651E+002
 40
2.0
  1
KM1
 41
7.5E-001
  0
TEXT
  8
1
  6
CONTINUOUS
 62
7
 10
1.2126593E+002
 20
1.999151E+002
 40
2.0
  1
A1
 41
7.5E-001
 50
9.0E+001
  0
TEXT
  8
1
  6
CONTINUOUS
 62
7
 10
1.2126593E+002
 20
1.909151E+002
 40
2.0
  1
A2
 41
7.5E-001
 50
9.0E+001
  0
LINE
  8
1
  6
CONTINUOUS
 62
7
 10
1.3201593E+002
 20
1.994151E+002
 11
1.3201593E+002
 21
2.194151E+002
  0
LINE
  8
1
  6
CONTINUOUS
 62
7
 10
1.3201593E+002
 20
1.944151E+002
 11
1.3201593E+002
 21
1.774151E+002
  0
LINE
  8
1
  6
CONTINUOUS
 62
7
 10
9.5614693E+001
 20
1.0274937E+002
 11
9.5614693E+001
 21
1.0074937E+002
  0
LINE
  8
1
  6
CONTINUOUS
 62
7
 10
2.0283593E+002
 20
1.944151E+002
 11
2.0083593E+002
 21
1.994151E+002
  0
LINE
  8
1
  6
CONTINUOUS
 62
7
 10
9.5614693E+001
 20
1.1074937E+002
 11
9.5614693E+001
 21
1.0974937E+002
  0
LINE
  8
1
  6
CONTINUOUS
 62
7
 10
1.3701593E+002
 20
1.994151E+002
 11
1.3701593E+002
 21
2.2375687E+002
  0
LINE
  8
1
  6
CONTINUOUS
 62
7
 10
1.3701593E+002
 20
1.944151E+002
 11
1.3701593E+002
 21
1.774151E+002
  0
LINE
  8
1
  6
CONTINUOUS
 62
7
 10
9.1114693E+001
 20
1.0074937E+002
 11
9.5614693E+001
 21
1.0074937E+002
  0
LINE
  8
1
  6
CONTINUOUS
 62
7
 10
1.4201593E+002
 20
1.9940295E+002
 11
1.4201593E+002
 21
2.194151E+002
  0
LINE
  8
1
  6
CONTINUOUS
 62
7
 10
1.4201593E+002
 20
1.944151E+002
 11
1.4201593E+002
 21
1.774151E+002
  0
LINE
  8
1
  6
CONTINUOUS
 62
7
 10
9.0114693E+001
 20
1.0074937E+002
 11
8.9114693E+001
 21
1.0074937E+002
  0
LINE
  8
1
  6
CONTINUOUS
 62
7
 10
1.9783593E+002
 20
2.1270312E+002
 11
1.4317063E+002
 21
2.1270312E+002
  0
LINE
  8
1
  6
CONTINUOUS
 62
7
 10
1.4701593E+002
 20
1.994151E+002
 11
1.4701593E+002
 21
2.0618897E+002
  0
LINE
  8
1
  6
CONTINUOUS
 62
7
 10
1.4701593E+002
 20
1.944151E+002
 11
1.4701593E+002
 21
1.8736618E+002
  0
LINE
  8
1
  6
CONTINUOUS
 62
7
 10
1.0637469E+002
 20
8.9796093E+001
 11
1.0837469E+002
 21
8.9796093E+001
  0
LINE
  8
1
  6
CONTINUOUS
 62
7
 10
1.9109161E+002
 20
6.6751515E+001
 11
2.4569398E+002
 21
6.6751515E+001
  0
LINE
  8
1
  6
CONTINUOUS
 62
7
 10
1.0637469E+002
 20
8.4796093E+001
 11
1.0737469E+002
 21
9.0796093E+001
  0
LINE
  8
1
  6
CONTINUOUS
 62
7
 10
1.3237469E+002
 20
8.9796093E+001
 11
1.3437469E+002
 21
8.9796093E+001
  0
LINE
  8
1
  6
CONTINUOUS
 62
7
 10
1.3237469E+002
 20
8.4796093E+001
 11
1.3337469E+002
 21
9.0796093E+001
  0
LINE
  8
1
  6
CONTINUOUS
 62
7
 10
8.2614693E+001
 20
1.0072935E+002
 11
8.8114693E+001
 21
1.0072935E+002
  0
LINE
  8
1
  6
CONTINUOUS
 62
7
 10
1.4701593E+002
 20
1.944151E+002
 11
1.4501593E+002
 21
1.994151E+002
  0
LINE
  8
1
  6
CONTINUOUS
 62
7
 10
1.4201593E+002
 20
1.944151E+002
 11
1.4001593E+002
 21
1.994151E+002
  0
LINE
  8
1
  6
CONTINUOUS
 62
7
 10
1.3701593E+002
 20
1.944151E+002
 11
1.3501593E+002
 21
1.994151E+002
  0
LINE
  8
1
  6
CONTINUOUS
 62
7
 10
1.3201593E+002
 20
1.944151E+002
 11
1.3001593E+002
 21
1.994151E+002
  0
TEXT
  8
1
  6
CONTINUOUS
 62
7
 10
1.3126593E+002
 20
2.0470312E+002
 40
2.0
  1
1/L1
 41
7.5E-001
 50
9.0E+001
  0
TEXT
  8
1
  6
CONTINUOUS
 62
7
 10
1.3626593E+002
 20
2.0470312E+002
 40
2.0
  1
3/L2
 41
7.5E-001
 50
9.0E+001
  0
TEXT
  8
1
  6
CONTINUOUS
 62
7
 10
1.4126593E+002
 20
2.0470312E+002
 40
2.0
  1
5/L3
 41
7.5E-001
 50
9.0E+001
  0
TEXT
  8
1
  6
CONTINUOUS
 62
7
 10
1.3126593E+002
 20
1.859151E+002
 40
2.0
  1
2/T1
 41
7.5E-001
 50
9.0E+001
  0
TEXT
  8
1
  6
CONTINUOUS
 62
7
 10
1.3626593E+002
 20
1.859151E+002
 40
2.0
  1
4/T2
 41
7.5E-001
 50
9.0E+001
  0
TEXT
  8
1
  6
CONTINUOUS
 62
7
 10
1.4126593E+002
 20
1.859151E+002
 40
2.0
  1
6/T3
 41
7.5E-001
 50
9.0E+001
  0
LINE
  8
1
  6
CONTINUOUS
 62
7
 10
1.8783593E+002
 20
1.8365061E+002
 11
1.4310765E+002
 21
1.8365061E+002
  0
LINE
  8
1
  6
CONTINUOUS
 62
7
 10
1.9283593E+002
 20
1.8165061E+002
 11
1.392272E+002
 21
1.8165061E+002
  0
LINE
  8
1
  6
CONTINUOUS
 62
7
 10
1.9783593E+002
 20
1.7965061E+002
 11
1.3534676E+002
 21
1.7965061E+002
  0
LINE
  8
1
  6
CONTINUOUS
 62
7
 10
1.9109161E+002
 20
1.1021935E+002
 11
1.9109161E+002
 21
1.3075152E+002
  0
LINE
  8
1
  6
CONTINUOUS
 62
7
 10
1.7383593E+002
 20
1.989151E+002
 11
1.7383593E+002
 21
1.9503372E+002
  0
LINE
  8
1
  6
CONTINUOUS
 62
7
 10
1.8183593E+002
 20
1.989151E+002
 11
1.8183593E+002
 21
1.9503372E+002
  0
LINE
  8
1
  6
CONTINUOUS
 62
7
 10
1.8183593E+002
 20
1.989151E+002
 11
1.7383593E+002
 21
1.989151E+002
  0
LINE
  8
1
  6
CONTINUOUS
 62
7
 10
1.8183593E+002
 20
1.9503372E+002
 11
1.7383593E+002
 21
1.9503372E+002
  0
LINE
  8
1
  6
CONTINUOUS
 62
7
 10
1.7783593E+002
 20
1.989151E+002
 11
1.7783593E+002
 21
2.039151E+002
  0
LINE
  8
1
  6
CONTINUOUS
 62
7
 10
1.7783593E+002
 20
1.9503372E+002
 11
1.7783593E+002
 21
1.899151E+002
  0
TEXT
  8
1
  6
CONTINUOUS
 62
7
 10
1.6883593E+002
 20
1.976651E+002
 40
2.0
  1
KM2
 41
7.5E-001
  0
TEXT
  8
1
  6
CONTINUOUS
 62
7
 10
1.7708593E+002
 20
1.999151E+002
 40
2.0
  1
A1
 41
7.5E-001
 50
9.0E+001
  0
TEXT
  8
1
  6
CONTINUOUS
 62
7
 10
1.7708593E+002
 20
1.909151E+002
 40
2.0
  1
A2
 41
7.5E-001
 50
9.0E+001
  0
LINE
  8
1
  6
CONTINUOUS
 62
7
 10
1.8783593E+002
 20
1.994151E+002
 11
1.8783593E+002
 21
2.1670312E+002
  0
LINE
  8
1
  6
CONTINUOUS
 62
7
 10
1.8783593E+002
 20
1.944151E+002
 11
1.8783593E+002
 21
1.8365061E+002
  0
LINE
  8
1
  6
CONTINUOUS
 62
7
 10
1.4201593E+002
 20
2.1070312E+002
 11
1.4317063E+002
 21
2.1270312E+002
  0
LINE
  8
1
  6
CONTINUOUS
 62
7
 10
1.9283593E+002
 20
1.994151E+002
 11
1.9283593E+002
 21
2.1470312E+002
  0
LINE
  8
1
  6
CONTINUOUS
 62
7
 10
1.9283593E+002
 20
1.944151E+002
 11
1.9283593E+002
 21
1.8165061E+002
  0
LINE
  8
1
  6
CONTINUOUS
 62
7
 10
1.3701593E+002
 20
2.159151E+002
 11
1.3701593E+002
 21
2.1567738E+002
  0
LINE
  8
1
  6
CONTINUOUS
 62
7
 10
1.9783593E+002
 20
1.994151E+002
 11
1.9783593E+002
 21
2.1270312E+002
  0
LINE
  8
1
  6
CONTINUOUS
 62
7
 10
1.9783593E+002
 20
1.944151E+002
 11
1.9783593E+002
 21
1.7965061E+002
  0
LINE
  8
1
  6
CONTINUOUS
 62
7
 10
1.3701593E+002
 20
2.1070312E+002
 11
1.3932533E+002
 21
2.1470312E+002
  0
LINE
  8
1
  6
CONTINUOUS
 62
7
 10
6.9614693E+001
 20
1.0874937E+002
 11
6.9614693E+001
 21
1.0364833E+002
  0
TEXT
  8
1
  6
CONTINUOUS
 62
7
 10
1.9034161E+002
 20
1.1175152E+002
 40
2.0
  1
13
 41
7.5E-001
 50
9.0E+001
  0
TEXT
  8
1
  6
CONTINUOUS
 62
7
 10
2.626077E+002
 20
1.6575152E+002
 40
2.25
  1
Adjunction/Zusatz/Adjonction
 41
7.5E-001
  0
TEXT
  8
1
  6
CONTINUOUS
 62
7
 10
1.8459161E+002
 20
1.073829E+002
 40
2.0
  1
KM1
 41
7.5E-001
  0
LINE
  8
1
  6
CONTINUOUS
 62
7
 10
1.9109161E+002
 20
1.0575152E+002
 11
1.8909161E+002
 21
1.1075152E+002
  0
TEXT
  8
1
  6
CONTINUOUS
 62
7
 10
1.9034161E+002
 20
1.0275152E+002
 40
2.0
  1
14
 41
7.5E-001
 50
9.0E+001
  0
LINE
  8
1
  6
CONTINUOUS
 62
7
 10
1.9783593E+002
 20
1.944151E+002
 11
1.9583593E+002
 21
1.994151E+002
  0
LINE
  8
1
  6
CONTINUOUS
 62
7
 10
1.9283593E+002
 20
1.944151E+002
 11
1.9083593E+002
 21
1.994151E+002
  0
LINE
  8
1
  6
CONTINUOUS
 62
7
 10
1.8783593E+002
 20
1.944151E+002
 11
1.8583593E+002
 21
1.994151E+002
  0
TEXT
  8
1
  6
CONTINUOUS
 62
7
 10
1.8708593E+002
 20
2.0470312E+002
 40
2.0
  1
1/L1
 41
7.5E-001
 50
9.0E+001
  0
TEXT
  8
1
  6
CONTINUOUS
 62
7
 10
1.9208593E+002
 20
2.0470312E+002
 40
2.0
  1
3/L2
 41
7.5E-001
 50
9.0E+001
  0
TEXT
  8
1
  6
CONTINUOUS
 62
7
 10
1.9708593E+002
 20
2.0470312E+002
 40
2.0
  1
5/L3
 41
7.5E-001
 50
9.0E+001
  0
TEXT
  8
1
  6
CONTINUOUS
 62
7
 10
1.5496992E+002
 20
1.6579152E+002
 40
2.25
  1
Local control/Betätigung innerhalb/Commande locale
 41
7.5E-001
  0
TEXT
  8
1
  6
CONTINUOUS
 62
7
 10
1.8708593E+002
 20
1.859151E+002
 40
2.0
  1
2/T1
 41
7.5E-001
 50
9.0E+001
  0
TEXT
  8
1
  6
CONTINUOUS
 62
7
 10
1.9208593E+002
 20
1.859151E+002
 40
2.0
  1
4/T2
 41
7.5E-001
 50
9.0E+001
  0
TEXT
  8
1
  6
CONTINUOUS
 62
7
 10
1.9708593E+002
 20
1.859151E+002
 40
2.0
  1
6/T3
 41
7.5E-001
 50
9.0E+001
  0
TEXT
  8
1
  6
CONTINUOUS
 62
7
 10
2.4494398E+002
 20
1.1175152E+002
 40
2.0
  1
13
 41
7.5E-001
 50
9.0E+001
  0
LINE
  8
1
  6
CONTINUOUS
 62
7
 10
6.9614693E+001
 20
1.0072935E+002
 11
6.9614693E+001
 21
1.0274937E+002
  0
LINE
  8
1
  6
CONTINUOUS
 62
7
 10
8.2503931E+001
 20
1.6275152E+002
 11
1.4256903E+002
 21
1.6275152E+002
  0
LINE
  8
1
  6
CONTINUOUS
 62
7
 10
6.9614693E+001
 20
1.1074937E+002
 11
6.9614693E+001
 21
1.0974937E+002
  0
LINE
  8
1
  6
CONTINUOUS
 62
7
 10
1.4310765E+002
 20
1.8365061E+002
 11
1.4201593E+002
 21
1.8560087E+002
  0
LINE
  8
1
  6
CONTINUOUS
 62
7
 10
6.9614693E+001
 20
1.1174937E+002
 11
6.9614693E+001
 21
1.1674937E+002
  0
LINE
  8
1
  6
CONTINUOUS
 62
7
 10
1.392272E+002
 20
1.8165061E+002
 11
1.3701593E+002
 21
1.8560087E+002
  0
LINE
  8
1
  6
CONTINUOUS
 62
7
 10
1.3534676E+002
 20
1.7965061E+002
 11
1.3201593E+002
 21
1.8560087E+002
  0
LINE
  8
1
  6
SHORT_DASH
 62
7
 10
1.8183593E+002
 20
1.969151E+002
 11
2.082526E+002
 21
1.969151E+002
  0
TEXT
  8
1
  6
CONTINUOUS
 62
7
 10
2.3919398E+002
 20
1.073829E+002
 40
2.0
  1
KM2
 41
7.5E-001
  0
LINE
  8
1
  6
CONTINUOUS
 62
7
 10
2.4569398E+002
 20
1.0575152E+002
 11
2.4369398E+002
 21
1.1075152E+002
  0
TEXT
  8
1
  6
CONTINUOUS
 62
7
 10
2.4494398E+002
 20
1.0275152E+002
 40
2.0
  1
14
 41
7.5E-001
 50
9.0E+001
  0
LINE
  8
1
  6
CONTINUOUS
 62
7
 10
2.4169398E+002
 20
7.1751515E+001
 11
2.4969398E+002
 21
7.1751515E+001
  0
LINE
  8
1
  6
CONTINUOUS
 62
7
 10
1.8709161E+002
 20
7.1751515E+001
 11
1.9509161E+002
 21
7.1751515E+001
  0
LINE
  8
1
  6
CONTINUOUS
 62
7
 10
1.8709161E+002
 20
7.5751515E+001
 11
1.9509161E+002
 21
7.5751515E+001
  0
LINE
  8
1
  6
CONTINUOUS
 62
7
 10
2.4169398E+002
 20
7.5751515E+001
 11
2.4969398E+002
 21
7.5751515E+001
  0
LINE
  8
1
  6
CONTINUOUS
 62
7
 10
1.8709161E+002
 20
7.5751515E+001
 11
1.8709161E+002
 21
7.1751515E+001
  0
LINE
  8
1
  6
CONTINUOUS
 62
7
 10
1.9509161E+002
 20
7.5751515E+001
 11
1.9509161E+002
 21
7.1751515E+001
  0
LINE
  8
1
  6
CONTINUOUS
 62
7
 10
2.4169398E+002
 20
7.5751515E+001
 11
2.4169398E+002
 21
7.1751515E+001
  0
LINE
  8
1
  6
CONTINUOUS
 62
7
 10
2.4969398E+002
 20
7.5751515E+001
 11
2.4969398E+002
 21
7.1751515E+001
  0
LINE
  8
1
  6
CONTINUOUS
 62
7
 10
1.3201593E+002
 20
2.1070312E+002
 11
1.3548003E+002
 21
2.1670312E+002
  0
LINE
  8
1
  6
CONTINUOUS
 62
7
 10
2.4569398E+002
 20
7.1751515E+001
 11
2.4569398E+002
 21
6.6751515E+001
  0
LINE
  8
1
  6
CONTINUOUS
 62
7
 10
1.9109161E+002
 20
7.1751515E+001
 11
1.9109161E+002
 21
6.6751515E+001
  0
LINE
  8
1
  6
CONTINUOUS
 62
7
 10
1.8783593E+002
 20
2.1670312E+002
 11
1.3548003E+002
 21
2.1670312E+002
  0
LINE
  8
1
  6
CONTINUOUS
 62
7
 10
1.9109161E+002
 20
1.0575152E+002
 11
1.9109161E+002
 21
8.9796093E+001
  0
LINE
  8
1
  6
CONTINUOUS
 62
7
 10
2.4569398E+002
 20
1.0575152E+002
 11
2.4569398E+002
 21
8.9796093E+001
  0
LINE
  8
1
  6
CENTERLINE
 62
7
 10
2.1231984E+002
 20
2.5854096E+002
 11
2.1231984E+002
 21
1.7565618E+002
  0
LINE
  8
1
  6
CONTINUOUS
 62
7
 10
6.9614693E+001
 20
1.1874937E+002
 11
6.9614693E+001
 21
1.1774937E+002
  0
TEXT
  8
1
  6
CONTINUOUS
 62
7
 10
2.4494398E+002
 20
7.6751515E+001
 40
2.0
  1
A1
 41
7.5E-001
 50
9.0E+001
  0
TEXT
  8
1
  6
CONTINUOUS
 62
7
 10
2.4494398E+002
 20
6.7751515E+001
 40
2.0
  1
A2
 41
7.5E-001
 50
9.0E+001
  0
LINE
  8
1
  6
CONTINUOUS
 62
7
 10
6.9614693E+001
 20
1.2474937E+002
 11
6.9614693E+001
 21
1.1974937E+002
  0
LINE
  8
1
  6
SHORT_DASH
 62
7
 10
7.3534693E+001
 20
1.5975152E+002
 11
8.5621136E+001
 21
1.5975152E+002
  0
LINE
  8
1
  6
CONTINUOUS
 62
7
 10
8.5621136E+001
 20
1.5975152E+002
 11
8.5621136E+001
 21
1.6275152E+002
  0
TEXT
  8
1
  6
CONTINUOUS
 62
7
 10
1.9034161E+002
 20
7.6751515E+001
 40
2.0
  1
A1
 41
7.5E-001
 50
9.0E+001
  0
TEXT
  8
1
  6
CONTINUOUS
 62
7
 10
1.9034161E+002
 20
6.7751515E+001
 40
2.0
  1
A2
 41
7.5E-001
 50
9.0E+001
  0
TEXT
  8
1
  6
CONTINUOUS
 62
7
 10
1.8209161E+002
 20
7.28829E+001
 40
2.0
  1
KM1
 41
7.5E-001
  0
LINE
  8
1
  6
CONTINUOUS
 62
7
 10
1.7037805E+002
 20
7.2751515E+001
 11
1.7037805E+002
 21
6.6751515E+001
  0
LINE
  8
1
  6
CONTINUOUS
 62
7
 10
1.6729161E+002
 20
6.6751515E+001
 11
1.9109161E+002
 21
6.6751515E+001
  0
LINE
  8
1
  6
SHORT_DASH
 62
7
 10
1.5829161E+002
 20
7.2751515E+001
 11
1.7037805E+002
 21
7.2751515E+001
  0
LINE
  8
1
  6
SHORT_DASH
 62
7
 10
1.5829161E+002
 20
6.9751515E+001
 11
1.7037805E+002
 21
6.9751515E+001
  0
LINE
  8
1
  6
CONTINUOUS
 62
7
 10
6.9614693E+001
 20
1.2674937E+002
 11
6.9614693E+001
 21
1.2574937E+002
  0
LINE
  8
1
  6
CONTINUOUS
 62
7
 10
8.3348946E+001
 20
1.4072935E+002
 11
8.8114693E+001
 21
1.4072935E+002
  0
LINE
  8
1
  6
CONTINUOUS
 62
7
 10
1.9283593E+002
 20
2.1470312E+002
 11
1.3932533E+002
 21
2.1470312E+002
  0
LINE
  8
1
  6
SHORT_DASH
 62
7
 10
1.5829161E+002
 20
1.5975152E+002
 11
1.7037805E+002
 21
1.5975152E+002
  0
LINE
  8
1
  6
CONTINUOUS
 62
7
 10
1.7037805E+002
 20
1.5975152E+002
 11
1.7037805E+002
 21
1.6275152E+002
  0
TEXT
  8
1
  6
CONTINUOUS
 62
7
 10
1.3162469E+002
 20
9.0796093E+001
 40
2.0
  1
21
 41
7.5E-001
 50
9.0E+001
  0
LINE
  8
1
  6
SHORT_DASH
 62
7
 10
7.3534693E+001
 20
6.9751515E+001
 11
8.5621136E+001
 21
6.9751515E+001
  0
TEXT
  8
1
  6
CONTINUOUS
 62
7
 10
1.3162469E+002
 20
8.1796093E+001
 40
2.0
  1
22
 41
7.5E-001
 50
9.0E+001
  0
TEXT
  8
1
  6
CONTINUOUS
 62
7
 10
1.0562469E+002
 20
9.0796093E+001
 40
2.0
  1
21
 41
7.5E-001
 50
9.0E+001
  0
TEXT
  8
1
  6
CONTINUOUS
 62
7
 10
1.0562469E+002
 20
8.1796093E+001
 40
2.0
  1
22
 41
7.5E-001
 50
9.0E+001
  0
LINE
  8
1
  6
HIDDEN
 62
7
 10
1.3701593E+002
 20
1.699151E+002
 11
1.3701593E+002
 21
1.774151E+002
  0
LINE
  8
1
  6
SHORT_DASH
 62
7
 10
7.3534693E+001
 20
7.2751515E+001
 11
8.5621136E+001
 21
7.2751515E+001
  0
LINE
  8
1
  6
CONTINUOUS
 62
7
 10
8.5621136E+001
 20
7.2751515E+001
 11
8.5621136E+001
 21
6.6751515E+001
  0
LINE
  8
1
  6
CONTINUOUS
 62
7
 10
1.1737459E+002
 20
7.5481515E+001
 11
1.2137459E+002
 21
7.5481515E+001
  0
LINE
  8
1
  6
CONTINUOUS
 62
7
 10
1.1737459E+002
 20
7.5481515E+001
 11
1.1937459E+002
 21
7.2017413E+001
  0
LINE
  8
1
  6
HIDDEN
 62
7
 10
1.2091001E+002
 20
7.3810823E+001
 11
1.2837469E+002
 21
7.3810823E+001
  0
LINE
  8
1
  6
HIDDEN
 62
7
 10
1.1037469E+002
 20
7.3751515E+001
 11
1.1837459E+002
 21
7.3751515E+001
  0
LINE
  8
1
  6
CONTINUOUS
 62
7
 10
1.2137459E+002
 20
7.5481515E+001
 11
1.1937459E+002
 21
7.2017413E+001
  0
LINE
  8
1
  6
CONTINUOUS
 62
7
 10
1.1037469E+002
 20
7.5751515E+001
 11
1.1037469E+002
 21
7.1751515E+001
  0
LINE
  8
1
  6
CONTINUOUS
 62
7
 10
1.2837469E+002
 20
7.5751515E+001
 11
1.2837469E+002
 21
7.1751515E+001
  0
LINE
  8
1
  6
CONTINUOUS
 62
7
 10
6.9614693E+001
 20
1.3274937E+002
 11
6.9614693E+001
 21
1.2782657E+002
  0
LINE
  8
1
  6
CONTINUOUS
 62
7
 10
8.9114693E+001
 20
1.4074937E+002
 11
9.0114693E+001
 21
1.4074937E+002
  0
LINE
  8
1
  6
CONTINUOUS
 62
7
 10
9.1114693E+001
 20
1.4074937E+002
 11
9.5614693E+001
 21
1.4074937E+002
  0
TEXT
  8
1
  6
CONTINUOUS
 62
1
 10
7.8445211E+001
 20
2.6505711E+002
 40
3.0
  1
Protection by associated Manual Motor Starter
 41
7.5E-001
 51
1.5E+001
  0
LINE
  8
1
  6
CONTINUOUS
 62
7
 10
1.9109161E+002
 20
8.9796093E+001
 11
1.9309161E+002
 21
8.9796093E+001
  0
LINE
  8
1
  6
CONTINUOUS
 62
7
 10
2.4569398E+002
 20
1.3075152E+002
 11
2.4569398E+002
 21
1.1021935E+002
  0
LINE
  8
1
  6
CONTINUOUS
 62
7
 10
1.9109161E+002
 20
1.5273936E+002
 11
1.9109161E+002
 21
1.6275152E+002
  0
LINE
  8
1
  6
CONTINUOUS
 62
7
 10
1.6729161E+002
 20
1.6275152E+002
 11
2.49958E+002
 21
1.6275152E+002
  0
LINE
  8
1
  6
CONTINUOUS
 62
7
 10
1.9109161E+002
 20
1.3075152E+002
 11
2.4569398E+002
 21
1.3075152E+002
  0
LINE
  8
1
  6
CONTINUOUS
 62
7
 10
1.7136952E+002
 20
1.1521935E+002
 11
1.7136952E+002
 21
1.1021935E+002
  0
LINE
  8
1
  6
CONTINUOUS
 62
7
 10
1.9109161E+002
 20
8.4796093E+001
 11
1.9209161E+002
 21
9.0796093E+001
  0
LINE
  8
1
  6
CONTINUOUS
 62
7
 10
1.7136952E+002
 20
1.0521935E+002
 11
1.6936952E+002
 21
1.1021935E+002
  0
LINE
  8
1
  6
CONTINUOUS
 62
7
 10
1.7136952E+002
 20
1.0021935E+002
 11
1.7136952E+002
 21
1.0521935E+002
  0
LINE
  8
1
  6
HIDDEN
 62
7
 10
1.7036952E+002
 20
1.0771935E+002
 11
1.6536952E+002
 21
1.0771935E+002
  0
LINE
  8
1
  6
CONTINUOUS
 62
7
 10
1.6686952E+002
 20
1.0971935E+002
 11
1.6536952E+002
 21
1.0971935E+002
  0
LINE
  8
1
  6
CONTINUOUS
 62
7
 10
1.6536952E+002
 20
1.0971935E+002
 11
1.6536952E+002
 21
1.0571935E+002
  0
LINE
  8
1
  6
CONTINUOUS
 62
7
 10
1.6686952E+002
 20
1.0571935E+002
 11
1.6536952E+002
 21
1.0571935E+002
  0
TEXT
  8
1
  6
CONTINUOUS
 62
7
 10
1.6306952E+002
 20
1.0671935E+002
 40
2.0
  1
I
 41
7.5E-001
  0
LINE
  8
1
  6
SHORT_DASH
 62
7
 10
2.4569398E+002
 20
1.1521935E+002
 11
2.2609161E+002
 21
1.1521935E+002
  0
LINE
  8
1
  6
SHORT_DASH
 62
7
 10
2.4569398E+002
 20
1.0021935E+002
 11
2.2609161E+002
 21
1.0021935E+002
  0
LINE
  8
1
  6
SHORT_DASH
 62
7
 10
1.7136952E+002
 20
1.1521935E+002
 11
1.9109161E+002
 21
1.1521935E+002
  0
LINE
  8
1
  6
SHORT_DASH
 62
7
 10
1.9109161E+002
 20
1.0021935E+002
 11
1.7136952E+002
 21
1.0021935E+002
  0
TEXT
  8
1
  6
CONTINUOUS
 62
7
 10
2.2104161E+002
 20
1.0671935E+002
 40
2.0
  1
II 
 41
7.5E-001
 72
1
 11
2.1879161E+002
 21
1.0671935E+002
  0
LINE
  8
1
  6
CONTINUOUS
 62
7
 10
2.4572861E+002
 20
8.9796093E+001
 11
2.4772861E+002
 21
8.9796093E+001
  0
LINE
  8
1
  6
CONTINUOUS
 62
7
 10
2.4572861E+002
 20
8.4796093E+001
 11
2.4672861E+002
 21
9.0796093E+001
  0
TEXT
  8
1
  6
CONTINUOUS
 62
7
 10
2.4497861E+002
 20
9.0796093E+001
 40
2.0
  1
21
 41
7.5E-001
 50
9.0E+001
  0
TEXT
  8
1
  6
CONTINUOUS
 62
7
 10
2.4497861E+002
 20
8.1796093E+001
 40
2.0
  1
22
 41
7.5E-001
 50
9.0E+001
  0
LINE
  8
1
  6
CONTINUOUS
 62
7
 10
3.1437469E+002
 20
1.4975152E+002
 11
3.1637469E+002
 21
1.4975152E+002
  0
LINE
  8
1
  6
CONTINUOUS
 62
7
 10
3.1437469E+002
 20
1.4475152E+002
 11
3.1537469E+002
 21
1.5075152E+002
  0
TEXT
  8
1
  6
CONTINUOUS
 62
7
 10
3.1362469E+002
 20
1.4175152E+002
 40
2.0
  1
22
 41
7.5E-001
 50
9.0E+001
  0
TEXT
  8
1
  6
CONTINUOUS
 62
7
 10
3.0787469E+002
 20
1.463829E+002
 40
2.0
  1
Q1
 41
7.5E-001
  0
TEXT
  8
1
  6
CONTINUOUS
 62
7
 10
3.1362469E+002
 20
1.5075152E+002
 40
2.0
  1
21
 41
7.5E-001
 50
9.0E+001
  0
TEXT
  8
1
  6
CONTINUOUS
 62
7
 10
1.9034161E+002
 20
9.0796093E+001
 40
2.0
  1
21
 41
7.5E-001
 50
9.0E+001
  0
LINE
  8
1
  6
CENTERLINE
 62
7
 10
1.0231984E+002
 20
1.7565618E+002
 11
2.1231984E+002
 21
1.7565618E+002
  0
LINE
  8
1
  6
CENTERLINE
 62
7
 10
1.0231984E+002
 20
2.5854096E+002
 11
2.1231984E+002
 21
2.5854096E+002
  0
LINE
  8
1
  6
HIDDEN
 62
7
 10
1.3201593E+002
 20
2.5721322E+002
 11
1.3201593E+002
 21
2.6103202E+002
  0
LINE
  8
1
  6
HIDDEN
 62
7
 10
1.3701593E+002
 20
2.5721322E+002
 11
1.3701593E+002
 21
2.6094142E+002
  0
LINE
  8
1
  6
HIDDEN
 62
7
 10
1.4201593E+002
 20
2.5721322E+002
 11
1.4201593E+002
 21
2.6121323E+002
  0
TEXT
  8
1
  6
CONTINUOUS
 62
7
 10
1.9034161E+002
 20
8.1796093E+001
 40
2.0
  1
22
 41
7.5E-001
 50
9.0E+001
  0
LINE
  8
1
  6
HIDDEN
 62
7
 10
1.3201593E+002
 20
1.774151E+002
 11
1.3201593E+002
 21
1.699151E+002
  0
LINE
  8
1
  6
HIDDEN
 62
7
 10
1.4201593E+002
 20
1.774151E+002
 11
1.4201593E+002
 21
1.699151E+002
  0
LINE
  8
1
  6
HIDDEN
 62
7
 10
1.9509161E+002
 20
7.3751515E+001
 11
2.1616674E+002
 21
7.3751515E+001
  0
LINE
  8
1
  6
CONTINUOUS
 62
7
 10
2.1516674E+002
 20
7.5481515E+001
 11
2.1716674E+002
 21
7.2017413E+001
  0
LINE
  8
1
  6
CONTINUOUS
 62
7
 10
2.1516674E+002
 20
7.5481515E+001
 11
2.1916674E+002
 21
7.5481515E+001
  0
LINE
  8
1
  6
CONTINUOUS
 62
7
 10
2.1916674E+002
 20
7.5481515E+001
 11
2.1716674E+002
 21
7.2017413E+001
  0
LINE
  8
1
  6
HIDDEN
 62
7
 10
2.1816674E+002
 20
7.3810823E+001
 11
2.4172861E+002
 21
7.3810823E+001
  0
LINE
  8
1
  6
CONTINUOUS
 62
7
 10
2.7141961E+002
 20
9.4751515E+001
 11
2.7437469E+002
 21
9.4751515E+001
  0
TEXT
  8
1
  6
CONTINUOUS
 62
7
 10
2.6187469E+002
 20
9.3751515E+001
 40
2.0
  1
KM2:21
 41
7.5E-001
  0
TEXT
  8
1
  6
CONTINUOUS
 62
7
 10
2.7387469E+002
 20
9.7751515E+001
 40
2.0
  1
KM1:21
 41
7.5E-001
  0
LINE
  8
1
  6
CONTINUOUS
 62
7
 10
1.0637469E+002
 20
1.3075152E+002
 11
1.3237469E+002
 21
1.3075152E+002
  0
LINE
  8
1
  6
CONTINUOUS
 62
7
 10
1.0637469E+002
 20
1.1675152E+002
 11
1.0637469E+002
 21
1.3075152E+002
  0
TEXT
  8
1
  6
CONTINUOUS
 62
7
 10
1.0562469E+002
 20
1.1775152E+002
 40
2.0
  1
13
 41
7.5E-001
 50
9.0E+001
  0
TEXT
  8
1
  6
CONTINUOUS
 62
7
 10
9.9874693E+001
 20
1.133829E+002
 40
2.0
  1
KM1
 41
7.5E-001
  0
LINE
  8
1
  6
CONTINUOUS
 62
7
 10
1.0637469E+002
 20
1.1175152E+002
 11
1.0437469E+002
 21
1.1675152E+002
  0
TEXT
  8
1
  6
CONTINUOUS
 62
7
 10
1.0562469E+002
 20
1.0875152E+002
 40
2.0
  1
14
 41
7.5E-001
 50
9.0E+001
  0
TEXT
  8
1
  6
CONTINUOUS
 62
7
 10
2.4301593E+002
 20
2.2782392E+002
 40
2.25
  1
(1)
 41
7.5E-001
  0
TEXT
  8
1
  6
CONTINUOUS
 62
7
 10
2.4301593E+002
 20
1.8325502E+002
 40
2.25
  1
(1)
 41
7.5E-001
  0
LINE
  8
1
  6
CONTINUOUS
 62
7
 10
1.3237469E+002
 20
1.1675152E+002
 11
1.3237469E+002
 21
1.3075152E+002
  0
TEXT
  8
1
  6
CONTINUOUS
 62
7
 10
1.3162469E+002
 20
1.1775152E+002
 40
2.0
  1
13
 41
7.5E-001
 50
9.0E+001
  0
TEXT
  8
1
  6
CONTINUOUS
 62
7
 10
1.2587469E+002
 20
1.133829E+002
 40
2.0
  1
KM2
 41
7.5E-001
  0
LINE
  8
1
  6
CONTINUOUS
 62
7
 10
1.3237469E+002
 20
1.1175152E+002
 11
1.3037469E+002
 21
1.1675152E+002
  0
TEXT
  8
1
  6
CONTINUOUS
 62
7
 10
1.3162469E+002
 20
1.0875152E+002
 40
2.0
  1
14
 41
7.5E-001
 50
9.0E+001
  0
LINE
  8
1
  6
CONTINUOUS
 62
7
 10
2.2609161E+002
 20
1.0521935E+002
 11
2.2409161E+002
 21
1.1021935E+002
  0
LINE
  8
1
  6
CONTINUOUS
 62
7
 10
2.2609161E+002
 20
1.1521935E+002
 11
2.2609161E+002
 21
1.1021935E+002
  0
LINE
  8
1
  6
CONTINUOUS
 62
7
 10
2.2609161E+002
 20
1.0021935E+002
 11
2.2609161E+002
 21
1.0521935E+002
  0
LINE
  8
1
  6
CONTINUOUS
 62
7
 10
2.2159161E+002
 20
1.0971935E+002
 11
2.2009161E+002
 21
1.0971935E+002
  0
LINE
  8
1
  6
CONTINUOUS
 62
7
 10
2.2009161E+002
 20
1.0971935E+002
 11
2.2009161E+002
 21
1.0571935E+002
  0
LINE
  8
1
  6
CONTINUOUS
 62
7
 10
2.2159161E+002
 20
1.0571935E+002
 11
2.2009161E+002
 21
1.0571935E+002
  0
LINE
  8
1
  6
HIDDEN
 62
7
 10
2.2509161E+002
 20
1.0771935E+002
 11
2.2009161E+002
 21
1.0771935E+002
  0
TEXT
  8
1
  6
CONTINUOUS
 62
7
 10
2.5601593E+002
 20
2.0292392E+002
 40
2.25
  1
Under voltage/Unter Spannung/Mise sous tension
 41
7.5E-001
  0
TEXT
  8
1
  6
CONTINUOUS
 62
7
 10
2.5601593E+002
 20
1.9582392E+002
 40
2.25
  1
Tripping of relay/Relais ausgelöst/Déclenchement relais
 41
7.5E-001
  0
LINE
  8
1
  6
CONTINUOUS
 62
7
 10
8.2534693E+001
 20
6.6751515E+001
 11
1.3237469E+002
 21
6.6751515E+001
  0
LINE
  8
1
  6
CONTINUOUS
 62
7
 10
1.2837469E+002
 20
7.1751515E+001
 11
1.3637469E+002
 21
7.1751515E+001
  0
LINE
  8
1
  6
CONTINUOUS
 62
7
 10
1.0237469E+002
 20
7.1751515E+001
 11
1.1037469E+002
 21
7.1751515E+001
  0
LINE
  8
1
  6
CONTINUOUS
 62
7
 10
1.0237469E+002
 20
7.5751515E+001
 11
1.1037469E+002
 21
7.5751515E+001
  0
LINE
  8
1
  6
CONTINUOUS
 62
7
 10
1.2837469E+002
 20
7.5751515E+001
 11
1.3637469E+002
 21
7.5751515E+001
  0
LINE
  8
1
  6
CONTINUOUS
 62
7
 10
1.0237469E+002
 20
7.5751515E+001
 11
1.0237469E+002
 21
7.1751515E+001
  0
LINE
  8
1
  6
CONTINUOUS
 62
7
 10
1.1037469E+002
 20
7.5751515E+001
 11
1.1037469E+002
 21
7.1751515E+001
  0
LINE
  8
1
  6
CONTINUOUS
 62
7
 10
1.2837469E+002
 20
7.5751515E+001
 11
1.2837469E+002
 21
7.1751515E+001
  0
LINE
  8
1
  6
CONTINUOUS
 62
7
 10
1.3637469E+002
 20
7.5751515E+001
 11
1.3637469E+002
 21
7.1751515E+001
  0
LINE
  8
1
  6
CONTINUOUS
 62
7
 10
1.3237469E+002
 20
7.1751515E+001
 11
1.3237469E+002
 21
6.6751515E+001
  0
LINE
  8
1
  6
CONTINUOUS
 62
7
 10
1.0637469E+002
 20
7.1751515E+001
 11
1.0637469E+002
 21
6.6751515E+001
  0
LINE
  8
1
  6
CONTINUOUS
 62
7
 10
1.0637469E+002
 20
1.1175152E+002
 11
1.0637469E+002
 21
8.9796093E+001
  0
LINE
  8
1
  6
CONTINUOUS
 62
7
 10
1.3237469E+002
 20
1.1175152E+002
 11
1.3237469E+002
 21
8.9796093E+001
  0
LINE
  8
1
  6
CONTINUOUS
 62
7
 10
2.6537469E+002
 20
6.6751515E+001
 11
2.7437469E+002
 21
6.6751515E+001
  0
TEXT
  8
1
  6
CONTINUOUS
 62
7
 10
2.6917469E+002
 20
7.23829E+001
 40
2.0
  1
H1
 41
7.5E-001
  0
LINE
  8
1
  6
CONTINUOUS
 62
7
 10
2.7578891E+002
 20
7.4665729E+001
 11
2.7296048E+002
 21
7.1837301E+001
  0
LINE
  8
1
  6
CONTINUOUS
 62
7
 10
2.7296048E+002
 20
7.4665729E+001
 11
2.7578891E+002
 21
7.1837301E+001
  0
LINE
  8
1
  6
CONTINUOUS
 62
7
 10
2.7437469E+002
 20
7.5251515E+001
 11
2.7437469E+002
 21
9.4751515E+001
  0
LINE
  8
1
  6
CONTINUOUS
 62
7
 10
2.7437469E+002
 20
7.1251515E+001
 11
2.7437469E+002
 21
6.6751515E+001
  0
TEXT
  8
1
  6
CONTINUOUS
 62
7
 10
2.6187469E+002
 20
6.5751515E+001
 40
2.0
  1
A2
 41
7.5E-001
  0
TEXT
  8
1
  6
CONTINUOUS
 62
7
 10
2.7362469E+002
 20
7.5751515E+001
 40
2.0
  1
X1
 41
7.5E-001
 50
9.0E+001
  0
TEXT
  8
1
  6
CONTINUOUS
 62
7
 10
2.7362469E+002
 20
6.7751515E+001
 40
2.0
  1
X2
 41
7.5E-001
 50
9.0E+001
  0
CIRCLE
  8
1
  6
CONTINUOUS
 62
7
 10
2.7437469E+002
 20
7.3251515E+001
 40
2.0
  0
LINE
  8
1
  6
CONTINUOUS
 62
7
 10
3.1437469E+002
 20
1.4975152E+002
 11
3.1437469E+002
 21
1.6275152E+002
  0
LINE
  8
1
  6
CONTINUOUS
 62
7
 10
3.4837469E+002
 20
1.6275152E+002
 11
3.4837469E+002
 21
7.5251515E+001
  0
LINE
  8
1
  6
CONTINUOUS
 62
7
 10
2.7737469E+002
 20
6.6751515E+001
 11
2.8637469E+002
 21
6.6751515E+001
  0
LINE
  8
1
  6
CONTINUOUS
 62
7
 10
3.1737469E+002
 20
1.6275152E+002
 11
3.3837469E+002
 21
1.6275152E+002
  0
CIRCLE
  8
1
  6
CONTINUOUS
 62
7
 10
3.4837469E+002
 20
7.3251515E+001
 40
2.0
  0
LINE
  8
1
  6
CONTINUOUS
 62
7
 10
3.4696048E+002
 20
7.4665729E+001
 11
3.4978891E+002
 21
7.1837301E+001
  0
LINE
  8
1
  6
CONTINUOUS
 62
7
 10
3.4978891E+002
 20
7.4665729E+001
 11
3.4696048E+002
 21
7.1837301E+001
  0
LINE
  8
1
  6
CONTINUOUS
 62
7
 10
3.4837469E+002
 20
7.1251515E+001
 11
3.4837469E+002
 21
6.6751515E+001
  0
CIRCLE
  8
1
  6
CONTINUOUS
 62
7
 10
3.3837469E+002
 20
7.3251515E+001
 40
2.0
  0
LINE
  8
1
  6
CONTINUOUS
 62
7
 10
3.3696048E+002
 20
7.4665729E+001
 11
3.3978891E+002
 21
7.1837301E+001
  0
LINE
  8
1
  6
CONTINUOUS
 62
7
 10
3.3978891E+002
 20
7.4665729E+001
 11
3.3696048E+002
 21
7.1837301E+001
  0
CIRCLE
  8
1
  6
CONTINUOUS
 62
7
 10
3.2637469E+002
 20
7.3251515E+001
 40
2.0
  0
LINE
  8
1
  6
CONTINUOUS
 62
7
 10
3.2496048E+002
 20
7.4665729E+001
 11
3.2778891E+002
 21
7.1837301E+001
  0
LINE
  8
1
  6
CONTINUOUS
 62
7
 10
3.2778891E+002
 20
7.4665729E+001
 11
3.2496048E+002
 21
7.1837301E+001
  0
LINE
  8
1
  6
CONTINUOUS
 62
7
 10
3.3837469E+002
 20
7.1251515E+001
 11
3.3837469E+002
 21
6.6751515E+001
  0
LINE
  8
1
  6
CONTINUOUS
 62
7
 10
3.2637469E+002
 20
7.1251515E+001
 11
3.2637469E+002
 21
6.6751515E+001
  0
LINE
  8
1
  6
CONTINUOUS
 62
7
 10
3.4137469E+002
 20
6.6751515E+001
 11
3.4837469E+002
 21
6.6751515E+001
  0
LINE
  8
1
  6
CONTINUOUS
 62
7
 10
3.2937469E+002
 20
6.6751515E+001
 11
3.3837469E+002
 21
6.6751515E+001
  0
LINE
  8
1
  6
CONTINUOUS
 62
7
 10
3.3837469E+002
 20
7.5251515E+001
 11
3.3837469E+002
 21
9.7783219E+001
  0
LINE
  8
1
  6
CONTINUOUS
 62
7
 10
3.2637469E+002
 20
7.5251515E+001
 11
3.2637469E+002
 21
1.4275152E+002
  0
LINE
  8
1
  6
CONTINUOUS
 62
7
 10
3.1437469E+002
 20
7.4751515E+001
 11
3.1437469E+002
 21
8.3796093E+001
  0
LINE
  8
1
  6
CONTINUOUS
 62
7
 10
3.1037469E+002
 20
7.4751515E+001
 11
3.1037469E+002
 21
7.1751515E+001
  0
TEXT
  8
1
  6
CONTINUOUS
 62
7
 10
3.0717469E+002
 20
7.23829E+001
 40
2.0
  1
DR
 41
7.5E-001
  0
LINE
  8
1
  6
CONTINUOUS
 62
7
 10
3.1037469E+002
 20
7.4751515E+001
 11
3.1837469E+002
 21
7.4751515E+001
  0
LINE
  8
1
  6
CONTINUOUS
 62
7
 10
3.1037469E+002
 20
7.1751515E+001
 11
3.1837469E+002
 21
7.1751515E+001
  0
LINE
  8
1
  6
CONTINUOUS
 62
7
 10
3.1837469E+002
 20
7.4751515E+001
 11
3.1837469E+002
 21
7.1751515E+001
  0
LINE
  8
1
  6
CONTINUOUS
 62
7
 10
3.1437469E+002
 20
7.1751515E+001
 11
3.1437469E+002
 21
6.6751515E+001
  0
TEXT
  8
1
  6
CONTINUOUS
 62
7
 10
3.2117469E+002
 20
7.23829E+001
 40
2.0
  1
H9
 41
7.5E-001
  0
TEXT
  8
1
  6
CONTINUOUS
 62
7
 10
3.3323425E+002
 20
7.23829E+001
 40
2.0
  1
H3
 41
7.5E-001
  0
TEXT
  8
1
  6
CONTINUOUS
 62
7
 10
3.4323425E+002
 20
7.23829E+001
 40
2.0
  1
H4
 41
7.5E-001
  0
LINE
  8
1
  6
CONTINUOUS
 62
7
 10
2.9537469E+002
 20
7.4751515E+001
 11
2.9537469E+002
 21
7.1751515E+001
  0
TEXT
  8
1
  6
CONTINUOUS
 62
7
 10
2.9217469E+002
 20
7.23829E+001
 40
2.0
  1
DS
 41
7.5E-001
  0
LINE
  8
1
  6
CONTINUOUS
 62
7
 10
2.9537469E+002
 20
7.4751515E+001
 11
3.0337469E+002
 21
7.4751515E+001
  0
LINE
  8
1
  6
CONTINUOUS
 62
7
 10
2.9537469E+002
 20
7.1751515E+001
 11
3.0337469E+002
 21
7.1751515E+001
  0
LINE
  8
1
  6
CONTINUOUS
 62
7
 10
3.0337469E+002
 20
7.4751515E+001
 11
3.0337469E+002
 21
7.1751515E+001
  0
LINE
  8
1
  6
CONTINUOUS
 62
7
 10
2.9937469E+002
 20
7.1751515E+001
 11
2.9937469E+002
 21
6.6751515E+001
  0
LINE
  8
1
  6
CONTINUOUS
 62
7
 10
2.9937469E+002
 20
7.4751515E+001
 11
2.9937469E+002
 21
8.3796093E+001
  0
TEXT
  8
1
  6
CONTINUOUS
 62
7
 10
2.8117469E+002
 20
7.23829E+001
 40
2.0
  1
H2
 41
7.5E-001
  0
LINE
  8
1
  6
CONTINUOUS
 62
7
 10
2.8778891E+002
 20
7.4665729E+001
 11
2.8496048E+002
 21
7.1837301E+001
  0
LINE
  8
1
  6
CONTINUOUS
 62
7
 10
2.8496048E+002
 20
7.4665729E+001
 11
2.8778891E+002
 21
7.1837301E+001
  0
CIRCLE
  8
1
  6
CONTINUOUS
 62
7
 10
2.8637469E+002
 20
7.3251515E+001
 40
2.0
  0
LINE
  8
1
  6
CONTINUOUS
 62
7
 10
2.8637469E+002
 20
7.5251515E+001
 11
2.8637469E+002
 21
9.8751515E+001
  0
LINE
  8
1
  6
CONTINUOUS
 62
7
 10
2.8637469E+002
 20
7.1251515E+001
 11
2.8637469E+002
 21
6.6751515E+001
  0
LINE
  8
1
  6
CONTINUOUS
 62
7
 10
3.4137469E+002
 20
1.6275152E+002
 11
3.4837469E+002
 21
1.6275152E+002
  0
LINE
  8
1
  6
CONTINUOUS
 62
7
 10
3.3837469E+002
 20
1.0278322E+002
 11
3.4037469E+002
 21
1.0278322E+002
  0
LINE
  8
1
  6
CONTINUOUS
 62
7
 10
3.3837469E+002
 20
9.7783219E+001
 11
3.3937469E+002
 21
1.0378322E+002
  0
TEXT
  8
1
  6
CONTINUOUS
 62
7
 10
3.3187469E+002
 20
9.9414604E+001
 40
2.0
  1
KM2
 41
7.5E-001
  0
TEXT
  8
1
  6
CONTINUOUS
 62
7
 10
3.3762469E+002
 20
1.0378322E+002
 40
2.0
  1
31
 41
7.5E-001
 50
9.0E+001
  0
TEXT
  8
1
  6
CONTINUOUS
 62
7
 10
3.3762469E+002
 20
9.4783219E+001
 40
2.0
  1
32
 41
7.5E-001
 50
9.0E+001
  0
LINE
  8
1
  6
CONTINUOUS
 62
7
 10
3.3837469E+002
 20
1.1678322E+002
 11
3.4037469E+002
 21
1.1678322E+002
  0
LINE
  8
1
  6
CONTINUOUS
 62
7
 10
3.3837469E+002
 20
1.1178322E+002
 11
3.3937469E+002
 21
1.1778322E+002
  0
TEXT
  8
1
  6
CONTINUOUS
 62
7
 10
3.3762469E+002
 20
1.1778322E+002
 40
2.0
  1
31
 41
7.5E-001
 50
9.0E+001
  0
TEXT
  8
1
  6
CONTINUOUS
 62
7
 10
3.3762469E+002
 20
1.0878322E+002
 40
2.0
  1
32
 41
7.5E-001
 50
9.0E+001
  0
TEXT
  8
1
  6
CONTINUOUS
 62
7
 10
3.3187469E+002
 20
1.134146E+002
 40
2.0
  1
KM1
 41
7.5E-001
  0
LINE
  8
1
  6
CONTINUOUS
 62
7
 10
3.2387469E+002
 20
1.4275152E+002
 11
3.2637469E+002
 21
1.4275152E+002
  0
TEXT
  8
1
  6
CONTINUOUS
 62
7
 10
3.2037469E+002
 20
1.4175152E+002
 40
2.0
  1
22
 41
7.5E-001
  0
LINE
  8
1
  6
CONTINUOUS
 62
7
 10
3.3837469E+002
 20
1.1678322E+002
 11
3.3837469E+002
 21
1.6275152E+002
  0
LINE
  8
1
  6
CONTINUOUS
 62
7
 10
3.3837469E+002
 20
1.0278322E+002
 11
3.3837469E+002
 21
1.1178322E+002
  0
LINE
  8
1
  6
CONTINUOUS
 62
7
 10
3.1437469E+002
 20
1.6275152E+002
 11
2.7487469E+002
 21
1.6275152E+002
  0
LINE
  8
1
  6
CONTINUOUS
 62
7
 10
2.6537469E+002
 20
1.4323936E+002
 11
2.9937469E+002
 21
1.4323936E+002
  0
LINE
  8
1
  6
CONTINUOUS
 62
7
 10
2.9937469E+002
 20
8.3796093E+001
 11
2.9737469E+002
 21
8.8796093E+001
  0
LINE
  8
1
  6
CONTINUOUS
 62
7
 10
2.9487469E+002
 20
8.8296093E+001
 11
2.9337469E+002
 21
8.8296093E+001
  0
TEXT
  8
1
  6
CONTINUOUS
 62
7
 10
2.9007469E+002
 20
8.5296093E+001
 40
2.0
  1
S1
 41
7.5E-001
  0
LINE
  8
1
  6
CONTINUOUS
 62
7
 10
2.9337469E+002
 20
8.8296093E+001
 11
2.9337469E+002
 21
8.4296093E+001
  0
LINE
  8
1
  6
CONTINUOUS
 62
7
 10
2.9487469E+002
 20
8.4296093E+001
 11
2.9337469E+002
 21
8.4296093E+001
  0
LINE
  8
1
  6
HIDDEN
 62
7
 10
2.9837469E+002
 20
8.6296093E+001
 11
2.9337469E+002
 21
8.6296093E+001
  0
LINE
  8
1
  6
CONTINUOUS
 62
7
 10
3.1437469E+002
 20
8.3796093E+001
 11
3.1237469E+002
 21
8.8796093E+001
  0
LINE
  8
1
  6
CONTINUOUS
 62
7
 10
3.0987469E+002
 20
8.8296093E+001
 11
3.0837469E+002
 21
8.8296093E+001
  0
TEXT
  8
1
  6
CONTINUOUS
 62
7
 10
3.0507469E+002
 20
8.5296093E+001
 40
2.0
  1
S2
 41
7.5E-001
  0
LINE
  8
1
  6
CONTINUOUS
 62
7
 10
3.0837469E+002
 20
8.8296093E+001
 11
3.0837469E+002
 21
8.4296093E+001
  0
LINE
  8
1
  6
CONTINUOUS
 62
7
 10
3.0987469E+002
 20
8.4296093E+001
 11
3.0837469E+002
 21
8.4296093E+001
  0
LINE
  8
1
  6
HIDDEN
 62
7
 10
3.1337469E+002
 20
8.6296093E+001
 11
3.0837469E+002
 21
8.6296093E+001
  0
TEXT
  8
1
  6
CONTINUOUS
 62
7
 10
2.6187469E+002
 20
1.4223936E+002
 40
2.0
  1
14
 41
7.5E-001
  0
LINE
  8
1
  6
SHORT_DASH
 62
7
 10
2.6582932E+002
 20
1.5975152E+002
 11
2.7791576E+002
 21
1.5975152E+002
  0
LINE
  8
1
  6
CONTINUOUS
 62
7
 10
2.7791576E+002
 20
1.5975152E+002
 11
2.7791576E+002
 21
1.6275152E+002
  0
LINE
  8
1
  6
CONTINUOUS
 62
7
 10
2.8937469E+002
 20
6.6751515E+001
 11
2.9937469E+002
 21
6.6751515E+001
  0
LINE
  8
1
  6
CONTINUOUS
 62
7
 10
3.0237469E+002
 20
6.6751515E+001
 11
3.1437469E+002
 21
6.6751515E+001
  0
LINE
  8
1
  6
CONTINUOUS
 62
7
 10
3.1737469E+002
 20
6.6751515E+001
 11
3.2637469E+002
 21
6.6751515E+001
  0
LINE
  8
1
  6
CONTINUOUS
 62
7
 10
2.8341961E+002
 20
9.8751515E+001
 11
2.8637469E+002
 21
9.8751515E+001
  0
LINE
  8
1
  6
CONTINUOUS
 62
7
 10
2.8937469E+002
 20
8.1796093E+001
 11
2.8937469E+002
 21
8.2798464E+001
  0
LINE
  8
1
  6
CONTINUOUS
 62
7
 10
3.1437469E+002
 20
8.8748941E+001
 11
3.1437469E+002
 21
1.4475152E+002
  0
LINE
  8
1
  6
CONTINUOUS
 62
7
 10
2.9937469E+002
 20
8.8751515E+001
 11
2.9937469E+002
 21
1.4323936E+002
  0
TEXT
  8
1
  6
CONTINUOUS
 62
7
 10
1.3162469E+002
 20
7.6751515E+001
 40
2.0
  1
A1
 41
7.5E-001
 50
9.0E+001
  0
TEXT
  8
1
  6
CONTINUOUS
 62
7
 10
1.3162469E+002
 20
6.7751515E+001
 40
2.0
  1
A2
 41
7.5E-001
 50
9.0E+001
  0
TEXT
  8
1
  6
CONTINUOUS
 62
7
 10
1.0562469E+002
 20
7.6751515E+001
 40
2.0
  1
A1
 41
7.5E-001
 50
9.0E+001
  0
TEXT
  8
1
  6
CONTINUOUS
 62
7
 10
1.0562469E+002
 20
6.7751515E+001
 40
2.0
  1
A2
 41
7.5E-001
 50
9.0E+001
  0
TEXT
  8
1
  6
CONTINUOUS
 62
7
 10
2.9862469E+002
 20
7.5751515E+001
 40
2.0
  1
E1
 41
7.5E-001
 50
9.0E+001
  0
TEXT
  8
1
  6
CONTINUOUS
 62
7
 10
2.9862469E+002
 20
6.7751515E+001
 40
2.0
  1
E2
 41
7.5E-001
 50
9.0E+001
  0
TEXT
  8
1
  6
CONTINUOUS
 62
7
 10
3.1362469E+002
 20
7.5751515E+001
 40
2.0
  1
E1
 41
7.5E-001
 50
9.0E+001
  0
TEXT
  8
1
  6
CONTINUOUS
 62
7
 10
3.1362469E+002
 20
6.7751515E+001
 40
2.0
  1
E2
 41
7.5E-001
 50
9.0E+001
  0
TEXT
  8
1
  6
CONTINUOUS
 62
7
 10
2.8562469E+002
 20
7.5751515E+001
 40
2.0
  1
X1
 41
7.5E-001
 50
9.0E+001
  0
TEXT
  8
1
  6
CONTINUOUS
 62
7
 10
2.8562469E+002
 20
6.7751515E+001
 40
2.0
  1
X2
 41
7.5E-001
 50
9.0E+001
  0
TEXT
  8
1
  6
CONTINUOUS
 62
7
 10
3.2562469E+002
 20
7.5751515E+001
 40
2.0
  1
X1
 41
7.5E-001
 50
9.0E+001
  0
TEXT
  8
1
  6
CONTINUOUS
 62
7
 10
3.2562469E+002
 20
6.7751515E+001
 40
2.0
  1
X2
 41
7.5E-001
 50
9.0E+001
  0
TEXT
  8
1
  6
CONTINUOUS
 62
7
 10
3.3762469E+002
 20
7.5751515E+001
 40
2.0
  1
X1
 41
7.5E-001
 50
9.0E+001
  0
TEXT
  8
1
  6
CONTINUOUS
 62
7
 10
3.3762469E+002
 20
6.7751515E+001
 40
2.0
  1
X2
 41
7.5E-001
 50
9.0E+001
  0
TEXT
  8
1
  6
CONTINUOUS
 62
7
 10
3.4762469E+002
 20
7.5751515E+001
 40
2.0
  1
X1
 41
7.5E-001
 50
9.0E+001
  0
TEXT
  8
1
  6
CONTINUOUS
 62
7
 10
3.4762469E+002
 20
6.7751515E+001
 40
2.0
  1
X2
 41
7.5E-001
 50
9.0E+001
  0
LINE
  8
1
  6
CONTINUOUS
 62
7
 10
2.8937469E+002
 20
9.0796093E+001
 11
2.9432878E+002
 21
9.0796093E+001
  0
LINE
  8
1
  6
CONTINUOUS
 62
7
 10
2.9537469E+002
 20
9.0796093E+001
 11
2.96467E+002
 21
9.0796093E+001
  0
LINE
  8
1
  6
CONTINUOUS
 62
7
 10
2.9737469E+002
 20
9.0796093E+001
 11
3.0137469E+002
 21
9.0796093E+001
  0
LINE
  8
1
  6
CONTINUOUS
 62
7
 10
2.8937469E+002
 20
8.3796093E+001
 11
2.8937469E+002
 21
8.8796093E+001
  0
LINE
  8
1
  6
CONTINUOUS
 62
7
 10
3.0137469E+002
 20
9.0796093E+001
 11
3.0137469E+002
 21
8.9796093E+001
  0
LINE
  8
1
  6
CONTINUOUS
 62
7
 10
3.0137469E+002
 20
8.8796093E+001
 11
3.0137469E+002
 21
8.3936494E+001
  0
LINE
  8
1
  6
CONTINUOUS
 62
7
 10
3.0137469E+002
 20
8.1796093E+001
 11
2.9637469E+002
 21
8.1796093E+001
  0
LINE
  8
1
  6
CONTINUOUS
 62
7
 10
3.0137469E+002
 20
8.2796093E+001
 11
3.0137469E+002
 21
8.1796093E+001
  0
LINE
  8
1
  6
CONTINUOUS
 62
7
 10
2.9537469E+002
 20
8.1796093E+001
 11
2.9437469E+002
 21
8.1796093E+001
  0
LINE
  8
1
  6
CONTINUOUS
 62
7
 10
2.9337469E+002
 20
8.1796093E+001
 11
2.8937469E+002
 21
8.1796093E+001
  0
LINE
  8
1
  6
CONTINUOUS
 62
7
 10
2.8937469E+002
 20
8.9796093E+001
 11
2.8937469E+002
 21
9.0796093E+001
  0
LINE
  8
1
  6
CONTINUOUS
 62
7
 10
3.1637469E+002
 20
8.2796093E+001
 11
3.1637469E+002
 21
8.1796093E+001
  0
LINE
  8
1
  6
CONTINUOUS
 62
7
 10
3.1637469E+002
 20
8.1796093E+001
 11
3.1137469E+002
 21
8.1796093E+001
  0
LINE
  8
1
  6
CONTINUOUS
 62
7
 10
3.1637469E+002
 20
8.8796093E+001
 11
3.1637469E+002
 21
8.3936494E+001
  0
LINE
  8
1
  6
CONTINUOUS
 62
7
 10
3.1637469E+002
 20
9.0796093E+001
 11
3.1637469E+002
 21
8.9796093E+001
  0
LINE
  8
1
  6
CONTINUOUS
 62
7
 10
3.1237469E+002
 20
9.0796093E+001
 11
3.1637469E+002
 21
9.0796093E+001
  0
LINE
  8
1
  6
CONTINUOUS
 62
7
 10
3.0437469E+002
 20
9.0796093E+001
 11
3.0932878E+002
 21
9.0796093E+001
  0
LINE
  8
1
  6
CONTINUOUS
 62
7
 10
3.0437469E+002
 20
8.9796093E+001
 11
3.0437469E+002
 21
9.0796093E+001
  0
LINE
  8
1
  6
CONTINUOUS
 62
7
 10
3.0437469E+002
 20
8.3796093E+001
 11
3.0437469E+002
 21
8.8796093E+001
  0
LINE
  8
1
  6
CONTINUOUS
 62
7
 10
3.0437469E+002
 20
8.1796093E+001
 11
3.0437469E+002
 21
8.2798464E+001
  0
LINE
  8
1
  6
CONTINUOUS
 62
7
 10
3.0837469E+002
 20
8.1796093E+001
 11
3.0437469E+002
 21
8.1796093E+001
  0
LINE
  8
1
  6
CONTINUOUS
 62
7
 10
3.1037469E+002
 20
8.1796093E+001
 11
3.0937469E+002
 21
8.1796093E+001
  0
LINE
  8
1
  6
CONTINUOUS
 62
7
 10
3.1037469E+002
 20
9.0796093E+001
 11
3.11467E+002
 21
9.0796093E+001
  0
INSERT
  2
*TX532
  8
1
 10
2.5601593E+002
 20
2.4482392E+002
  0
INSERT
  2
*TX533
  8
1
 10
2.5601593E+002
 20
2.3182392E+002
  0
INSERT
  2
*TX534
  8
1
 10
7.0034693E+001
 20
1.6172748E+002
  0
INSERT
  2
*TX535
  8
1
 10
1.5479161E+002
 20
7.1727478E+001
  0
INSERT
  2
*TX536
  8
1
 10
7.0034693E+001
 20
7.1727478E+001
  0
INSERT
  2
*TX537
  8
1
 10
1.5479161E+002
 20
1.6172748E+002
  0
INSERT
  2
*TX538
  8
1
 10
2.5001593E+002
 20
1.8682392E+002
  0
INSERT
  2
*TX539
  8
1
 10
2.6232932E+002
 20
1.6172748E+002
  0
LINE
  8
1
  6
CONTINUOUS
 62
7
 10
1.4201593E+002
 20
2.3655717E+002
 11
1.4201593E+002
 21
2.3530717E+002
  0
LINE
  8
1
  6
CONTINUOUS
 62
7
 10
1.3701593E+002
 20
2.3655717E+002
 11
1.3701593E+002
 21
2.3530717E+002
  0
LINE
  8
1
  6
CONTINUOUS
 62
7
 10
1.3201593E+002
 20
2.3655717E+002
 11
1.3201593E+002
 21
2.3530717E+002
  0
LINE
  8
1
  6
CONTINUOUS
 62
7
 10
1.2851593E+002
 20
2.3155717E+002
 11
1.4326593E+002
 21
2.3155717E+002
  0
LINE
  8
1
  6
CONTINUOUS
 62
7
 10
1.3326593E+002
 20
2.3655717E+002
 11
1.3326593E+002
 21
2.2655717E+002
  0
LINE
  8
1
  6
CONTINUOUS
 62
7
 10
1.2851593E+002
 20
2.3655717E+002
 11
1.2851593E+002
 21
2.2655717E+002
  0
LINE
  8
1
  6
CONTINUOUS
 62
7
 10
1.2851593E+002
 20
2.2655717E+002
 11
1.4326593E+002
 21
2.2655717E+002
  0
LINE
  8
1
  6
CONTINUOUS
 62
7
 10
1.3701593E+002
 20
2.3155717E+002
 11
1.3701593E+002
 21
2.3280717E+002
  0
LINE
  8
1
  6
CONTINUOUS
 62
7
 10
1.2861944E+002
 20
2.3655717E+002
 11
1.4326593E+002
 21
2.3655717E+002
  0
LINE
  8
1
  6
CONTINUOUS
 62
7
 10
1.2276194E+002
 20
2.4405245E+002
 11
1.1876194E+002
 21
2.4405245E+002
  0
LINE
  8
1
  6
CONTINUOUS
 62
7
 10
1.3826593E+002
 20
2.3655717E+002
 11
1.3826593E+002
 21
2.2655717E+002
  0
TEXT
  8
1
  6
CONTINUOUS
 62
7
 10
1.2824668E+002
 20
2.276052E+002
 40
3.0
  1
I>
 41
7.5E-001
 51
1.0E+001
  0
TEXT
  8
1
  6
CONTINUOUS
 62
7
 10
1.3324668E+002
 20
2.276052E+002
 40
3.0
  1
I>
 41
7.5E-001
 51
1.0E+001
  0
LINE
  8
1
  6
CONTINUOUS
 62
7
 10
1.4326593E+002
 20
2.2655717E+002
 11
1.4326593E+002
 21
2.3655717E+002
  0
TEXT
  8
1
  6
CONTINUOUS
 62
7
 10
1.3824668E+002
 20
2.276052E+002
 40
3.0
  1
I>
 41
7.5E-001
 51
1.0E+001
  0
LINE
  8
1
  6
CONTINUOUS
 62
7
 10
1.4101593E+002
 20
2.4655245E+002
 11
1.4301593E+002
 21
2.4655245E+002
  0
LINE
  8
1
  6
SHORT_DASH
 62
7
 10
1.2076194E+002
 20
2.2905717E+002
 11
1.2851593E+002
 21
2.2905717E+002
  0
LINE
  8
1
  6
CONTINUOUS
 62
7
 10
1.4301593E+002
 20
2.5055245E+002
 11
1.4101593E+002
 21
2.4855245E+002
  0
LINE
  8
1
  6
CONTINUOUS
 62
7
 10
1.4101593E+002
 20
2.5055245E+002
 11
1.4301593E+002
 21
2.4855245E+002
  0
LINE
  8
1
  6
CONTINUOUS
 62
7
 10
1.3801593E+002
 20
2.5055245E+002
 11
1.3601593E+002
 21
2.4855245E+002
  0
LINE
  8
1
  6
CONTINUOUS
 62
7
 10
1.3601593E+002
 20
2.5055245E+002
 11
1.3801593E+002
 21
2.4855245E+002
  0
LINE
  8
1
  6
CONTINUOUS
 62
7
 10
1.3601593E+002
 20
2.4655245E+002
 11
1.3801593E+002
 21
2.4655245E+002
  0
LINE
  8
1
  6
CONTINUOUS
 62
7
 10
1.3301593E+002
 20
2.5055245E+002
 11
1.3101593E+002
 21
2.4855245E+002
  0
LINE
  8
1
  6
CONTINUOUS
 62
7
 10
1.3101593E+002
 20
2.5055245E+002
 11
1.3301593E+002
 21
2.4855245E+002
  0
LINE
  8
1
  6
CONTINUOUS
 62
7
 10
1.3101593E+002
 20
2.4655245E+002
 11
1.3301593E+002
 21
2.4655245E+002
  0
LINE
  8
1
  6
SHORT_DASH
 62
7
 10
1.2276194E+002
 20
2.4405245E+002
 11
1.524326E+002
 21
2.4405245E+002
  0
LINE
  8
1
  6
CONTINUOUS
 62
7
 10
1.3701593E+002
 20
2.4155245E+002
 11
1.3501593E+002
 21
2.4655245E+002
  0
LINE
  8
1
  6
CONTINUOUS
 62
7
 10
1.3201593E+002
 20
2.4155245E+002
 11
1.3001593E+002
 21
2.4655245E+002
  0
LINE
  8
1
  6
CONTINUOUS
 62
7
 10
1.1876194E+002
 20
2.4605245E+002
 11
1.2276194E+002
 21
2.4605245E+002
  0
LINE
  8
1
  6
CONTINUOUS
 62
7
 10
1.2076194E+002
 20
2.4605245E+002
 11
1.2076194E+002
 21
2.4205245E+002
  0
LINE
  8
1
  6
CONTINUOUS
 62
7
 10
1.1876194E+002
 20
2.4605245E+002
 11
1.1876194E+002
 21
2.4205245E+002
  0
LINE
  8
1
  6
CONTINUOUS
 62
7
 10
1.2276194E+002
 20
2.4605245E+002
 11
1.2276194E+002
 21
2.4205245E+002
  0
LINE
  8
1
  6
CONTINUOUS
 62
7
 10
1.1876194E+002
 20
2.4205245E+002
 11
1.2276194E+002
 21
2.4205245E+002
  0
LINE
  8
1
  6
SHORT_DASH
 62
7
 10
1.2076194E+002
 20
2.4105245E+002
 11
1.2076194E+002
 21
2.2905717E+002
  0
LINE
  8
1
  6
CONTINUOUS
 62
7
 10
1.1148595E+002
 20
2.4605245E+002
 11
1.0948595E+002
 21
2.4605245E+002
  0
LINE
  8
1
  6
CONTINUOUS
 62
7
 10
1.0948595E+002
 20
2.4205245E+002
 11
1.0748595E+002
 21
2.4205245E+002
  0
LINE
  8
1
  6
CONTINUOUS
 62
7
 10
1.0948595E+002
 20
2.4605245E+002
 11
1.0948595E+002
 21
2.4205245E+002
  0
LINE
  8
1
  6
SHORT_DASH
 62
7
 10
1.1876194E+002
 20
2.4405245E+002
 11
1.0948595E+002
 21
2.4405245E+002
  0
LINE
  8
1
  6
CONTINUOUS
 62
7
 10
1.3201593E+002
 20
2.4137574E+002
 11
1.3201593E+002
 21
2.3655717E+002
  0
LINE
  8
1
  6
CONTINUOUS
 62
7
 10
1.3701593E+002
 20
2.4155245E+002
 11
1.3701593E+002
 21
2.3655717E+002
  0
LINE
  8
1
  6
CONTINUOUS
 62
7
 10
1.4201593E+002
 20
2.4155245E+002
 11
1.4201593E+002
 21
2.3655717E+002
  0
LINE
  8
1
  6
CONTINUOUS
 62
7
 10
1.2951593E+002
 20
2.3530717E+002
 11
1.3201593E+002
 21
2.3530717E+002
  0
LINE
  8
1
  6
CONTINUOUS
 62
7
 10
1.2951593E+002
 20
2.3280717E+002
 11
1.3201593E+002
 21
2.3280717E+002
  0
LINE
  8
1
  6
CONTINUOUS
 62
7
 10
1.3451593E+002
 20
2.3530717E+002
 11
1.3701593E+002
 21
2.3530717E+002
  0
LINE
  8
1
  6
CONTINUOUS
 62
7
 10
1.3451593E+002
 20
2.3280717E+002
 11
1.3701593E+002
 21
2.3280717E+002
  0
LINE
  8
1
  6
CONTINUOUS
 62
7
 10
1.2951593E+002
 20
2.3530717E+002
 11
1.2951593E+002
 21
2.3280717E+002
  0
LINE
  8
1
  6
CONTINUOUS
 62
7
 10
1.3451593E+002
 20
2.3280717E+002
 11
1.3451593E+002
 21
2.3530717E+002
  0
LINE
  8
1
  6
CONTINUOUS
 62
7
 10
1.3951593E+002
 20
2.3530717E+002
 11
1.3951593E+002
 21
2.3280717E+002
  0
LINE
  8
1
  6
CONTINUOUS
 62
7
 10
1.3951593E+002
 20
2.3530717E+002
 11
1.4201593E+002
 21
2.3530717E+002
  0
LINE
  8
1
  6
CONTINUOUS
 62
7
 10
1.3951593E+002
 20
2.3280717E+002
 11
1.4201593E+002
 21
2.3280717E+002
  0
LINE
  8
1
  6
CONTINUOUS
 62
7
 10
1.3201593E+002
 20
2.3280717E+002
 11
1.3201593E+002
 21
2.3155717E+002
  0
LINE
  8
1
  6
CONTINUOUS
 62
7
 10
1.4201593E+002
 20
2.3280717E+002
 11
1.4201593E+002
 21
2.3155717E+002
  0
LINE
  8
1
  6
SHORT_DASH
 62
7
 10
1.2076194E+002
 20
2.3405717E+002
 11
1.2851593E+002
 21
2.3405717E+002
  0
LINE
  8
1
  6
CONTINUOUS
 62
7
 10
1.4201593E+002
 20
2.4155245E+002
 11
1.4001593E+002
 21
2.4655245E+002
  0
TEXT
  8
1
  6
CONTINUOUS
 62
7
 10
1.0448595E+002
 20
2.4480245E+002
 40
2.0
  1
Q1
 41
7.5E-001
  0
TEXT
  8
1
  6
CONTINUOUS
 62
7
 10
1.4626593E+002
 20
2.4805245E+002
 40
2.0
  1
13
 41
7.5E-001
 50
9.0E+001
  0
LINE
  8
1
  6
CONTINUOUS
 62
7
 10
1.4701593E+002
 20
2.4655245E+002
 11
1.4701593E+002
 21
2.5155245E+002
  0
LINE
  8
1
  6
CONTINUOUS
 62
7
 10
1.4701593E+002
 20
2.4155245E+002
 11
1.4501593E+002
 21
2.4655245E+002
  0
LINE
  8
1
  6
CONTINUOUS
 62
7
 10
1.4701593E+002
 20
2.4155245E+002
 11
1.4701593E+002
 21
2.3655245E+002
  0
TEXT
  8
1
  6
CONTINUOUS
 62
7
 10
1.4626593E+002
 20
2.3705245E+002
 40
2.0
  1
14
 41
7.5E-001
 50
9.0E+001
  0
TEXT
  8
1
  6
CONTINUOUS
 62
7
 10
1.5126593E+002
 20
2.4805245E+002
 40
2.0
  1
21
 41
7.5E-001
 50
9.0E+001
  0
LINE
  8
1
  6
CONTINUOUS
 62
7
 10
1.5201593E+002
 20
2.4655245E+002
 11
1.5201593E+002
 21
2.5155245E+002
  0
TEXT
  8
1
  6
CONTINUOUS
 62
7
 10
1.5126593E+002
 20
2.3705245E+002
 40
2.0
  1
22
 41
7.5E-001
 50
9.0E+001
  0
LINE
  8
1
  6
CONTINUOUS
 62
7
 10
1.5201593E+002
 20
2.4155245E+002
 11
1.5201593E+002
 21
2.3655245E+002
  0
LINE
  8
1
  6
CONTINUOUS
 62
7
 10
1.5201593E+002
 20
2.4655245E+002
 11
1.5401593E+002
 21
2.4655245E+002
  0
LINE
  8
1
  6
CONTINUOUS
 62
7
 10
1.5201593E+002
 20
2.4155245E+002
 11
1.5301593E+002
 21
2.4755245E+002
  0
LINE
  8
1
  6
CONTINUOUS
 62
7
 10
1.3701593E+002
 20
2.209151E+002
 11
1.3701593E+002
 21
2.2067738E+002
  0
TEXT
  8
1
  6
CONTINUOUS
 62
7
 10
1.3126593E+002
 20
2.1927304E+002
 40
2.0
  1
2/T1
 41
7.5E-001
 50
9.0E+001
  0
TEXT
  8
1
  6
CONTINUOUS
 62
7
 10
1.3626593E+002
 20
2.1927304E+002
 40
2.0
  1
4/T2
 41
7.5E-001
 50
9.0E+001
  0
TEXT
  8
1
  6
CONTINUOUS
 62
7
 10
1.4126593E+002
 20
2.1927304E+002
 40
2.0
  1
6/T3
 41
7.5E-001
 50
9.0E+001
  0
LINE
  8
1
  6
CONTINUOUS
 62
7
 10
1.3201593E+002
 20
2.194151E+002
 11
1.3201593E+002
 21
2.2655717E+002
  0
LINE
  8
1
  6
CONTINUOUS
 62
7
 10
1.3701593E+002
 20
2.194151E+002
 11
1.3701593E+002
 21
2.2655717E+002
  0
LINE
  8
1
  6
CONTINUOUS
 62
7
 10
1.4201593E+002
 20
2.194151E+002
 11
1.4201593E+002
 21
2.2655717E+002
  0
LINE
  8
1
  6
HIDDEN
 62
7
 10
1.4201593E+002
 20
2.4619946E+002
 11
1.4201593E+002
 21
2.5595306E+002
  0
LINE
  8
1
  6
HIDDEN
 62
7
 10
1.3701593E+002
 20
2.4619946E+002
 11
1.3701593E+002
 21
2.5595306E+002
  0
LINE
  8
1
  6
HIDDEN
 62
7
 10
1.3201593E+002
 20
2.4619946E+002
 11
1.3201593E+002
 21
2.5595306E+002
  0
LINE
  8
1
  6
CONTINUOUS
 62
7
 10
1.3201593E+002
 20
2.4655245E+002
 11
1.3201593E+002
 21
2.5721322E+002
  0
LINE
  8
1
  6
CONTINUOUS
 62
7
 10
1.3701593E+002
 20
2.4655245E+002
 11
1.3701593E+002
 21
2.5721322E+002
  0
LINE
  8
1
  6
CONTINUOUS
 62
7
 10
1.4201593E+002
 20
2.4655245E+002
 11
1.4201593E+002
 21
2.5721322E+002
  0
TEXT
  8
1
  6
CONTINUOUS
 62
7
 10
1.3126593E+002
 20
2.5203365E+002
 40
2.0
  1
1/L1
 41
7.5E-001
 50
9.0E+001
  0
TEXT
  8
1
  6
CONTINUOUS
 62
7
 10
1.3626593E+002
 20
2.5203365E+002
 40
2.0
  1
3/L2
 41
7.5E-001
 50
9.0E+001
  0
TEXT
  8
1
  6
CONTINUOUS
 62
7
 10
1.4126593E+002
 20
2.5203365E+002
 40
2.0
  1
5/L3
 41
7.5E-001
 50
9.0E+001
  0
ENDSEC
  0
EOF
