  0
SECTION
  2
HEADER
  9
$ACADVER
  1
AC1009
  9
$INSBASE
 10
0.0
 20
0.0
 30
0.0
  9
$EXTMIN
 10
-0.0128164049386896
 20
-0.0090630292066862
 30
-0.0015258207003583
  9
$EXTMAX
 10
392.00683688280031
 20
262.52160709668129
 30
0.0000000349246037
  9
$LIMMIN
 10
0.0
 20
0.0
  9
$LIMMAX
 10
420.0
 20
297.0
  9
$ORTHOMODE
 70
     1
  9
$REGENMODE
 70
     1
  9
$FILLMODE
 70
     1
  9
$QTEXTMODE
 70
     0
  9
$MIRRTEXT
 70
     1
  9
$DRAGMODE
 70
     2
  9
$LTSCALE
 40
4.0
  9
$OSMODE
 70
    37
  9
$ATTMODE
 70
     1
  9
$TEXTSIZE
 40
5.0
  9
$TRACEWID
 40
1.0
  9
$TEXTSTYLE
  7
T25
  9
$CLAYER
  8
TEXT25
  9
$CELTYPE
  6
BYLAYER
  9
$CECOLOR
 62
   256
  9
$DIMSCALE
 40
1.0
  9
$DIMASZ
 40
2.5
  9
$DIMEXO
 40
0.625
  9
$DIMDLI
 40
3.75
  9
$DIMRND
 40
0.0
  9
$DIMDLE
 40
0.0
  9
$DIMEXE
 40
1.25
  9
$DIMTP
 40
0.0
  9
$DIMTM
 40
0.0
  9
$DIMTXT
 40
2.5
  9
$DIMCEN
 40
2.5
  9
$DIMTSZ
 40
0.0
  9
$DIMTOL
 70
     0
  9
$DIMLIM
 70
     0
  9
$DIMTIH
 70
     0
  9
$DIMTOH
 70
     0
  9
$DIMSE1
 70
     0
  9
$DIMSE2
 70
     0
  9
$DIMTAD
 70
     1
  9
$DIMZIN
 70
     8
  9
$DIMBLK
  1

  9
$DIMASO
 70
     1
  9
$DIMSHO
 70
     1
  9
$DIMPOST
  1

  9
$DIMAPOST
  1

  9
$DIMALT
 70
     0
  9
$DIMALTD
 70
     3
  9
$DIMALTF
 40
0.03937007874016
  9
$DIMLFAC
 40
1.0
  9
$DIMTOFL
 70
     1
  9
$DIMTVP
 40
0.0
  9
$DIMTIX
 70
     0
  9
$DIMSOXD
 70
     0
  9
$DIMSAH
 70
     0
  9
$DIMBLK1
  1

  9
$DIMBLK2
  1

  9
$DIMSTYLE
  2
ISO-25
  9
$DIMCLRD
 70
     0
  9
$DIMCLRE
 70
     0
  9
$DIMCLRT
 70
     0
  9
$DIMTFAC
 40
1.0
  9
$DIMGAP
 40
0.625
  9
$LUNITS
 70
     2
  9
$LUPREC
 70
     4
  9
$SKETCHINC
 40
1.0
  9
$FILLETRAD
 40
0.5
  9
$AUNITS
 70
     0
  9
$AUPREC
 70
     0
  9
$MENU
  1
.
  9
$ELEVATION
 40
0.0
  9
$PELEVATION
 40
0.0
  9
$THICKNESS
 40
0.0
  9
$LIMCHECK
 70
     0
  9
$BLIPMODE
 70
     0
  9
$CHAMFERA
 40
10.0
  9
$CHAMFERB
 40
10.0
  9
$SKPOLY
 70
     0
  9
$TDCREATE
 40
2451507.4892950342
  9
$TDUPDATE
 40
2452438.6561556361
  9
$TDINDWG
 40
1.6515301273
  9
$TDUSRTIMER
 40
1.6515300116
  9
$USRTIMER
 70
     1
  9
$ANGBASE
 50
0.0
  9
$ANGDIR
 70
     0
  9
$PDMODE
 70
     0
  9
$PDSIZE
 40
0.0
  9
$PLINEWID
 40
0.0
  9
$COORDS
 70
     1
  9
$SPLFRAME
 70
     0
  9
$SPLINETYPE
 70
     6
  9
$SPLINESEGS
 70
     8
  9
$ATTDIA
 70
     0
  9
$ATTREQ
 70
     1
  9
$HANDLING
 70
     1
  9
$HANDSEED
  5
8C1
  9
$SURFTAB1
 70
     6
  9
$SURFTAB2
 70
     6
  9
$SURFTYPE
 70
     6
  9
$SURFU
 70
     6
  9
$SURFV
 70
     6
  9
$UCSNAME
  2

  9
$UCSORG
 10
0.0
 20
0.0
 30
0.0
  9
$UCSXDIR
 10
1.0
 20
0.0
 30
0.0
  9
$UCSYDIR
 10
0.0
 20
1.0
 30
0.0
  9
$PUCSNAME
  2

  9
$PUCSORG
 10
0.0
 20
0.0
 30
0.0
  9
$PUCSXDIR
 10
1.0
 20
0.0
 30
0.0
  9
$PUCSYDIR
 10
0.0
 20
1.0
 30
0.0
  9
$USERI1
 70
     0
  9
$USERI2
 70
     0
  9
$USERI3
 70
     0
  9
$USERI4
 70
     0
  9
$USERI5
 70
     0
  9
$USERR1
 40
0.0
  9
$USERR2
 40
0.0
  9
$USERR3
 40
0.0
  9
$USERR4
 40
0.0
  9
$USERR5
 40
0.0
  9
$WORLDVIEW
 70
     1
  9
$SHADEDGE
 70
     3
  9
$SHADEDIF
 70
    70
  9
$TILEMODE
 70
     1
  9
$MAXACTVP
 70
    64
  9
$PLIMCHECK
 70
     0
  9
$PEXTMIN
 10
1.0000000000000000E+020
 20
1.0000000000000000E+020
 30
1.0000000000000000E+020
  9
$PEXTMAX
 10
-1.0000000000000000E+020
 20
-1.0000000000000000E+020
 30
-1.0000000000000000E+020
  9
$PLIMMIN
 10
0.0
 20
0.0
  9
$PLIMMAX
 10
420.0
 20
297.0
  9
$UNITMODE
 70
     0
  9
$VISRETAIN
 70
     1
  9
$PLINEGEN
 70
     0
  9
$PSLTSCALE
 70
     1
  0
ENDSEC
  0
SECTION
  2
TABLES
  0
TABLE
  2
VPORT
 70
     2
  0
VPORT
  2
*ACTIVE
 70
     0
 10
0.0
 20
0.0
 11
1.0
 21
1.0
 12
195.99701023893081
 22
131.2562720337373
 13
0.0
 23
0.0
 14
0.5
 24
0.5
 15
10.0
 25
10.0
 16
0.0
 26
0.0
 36
1.0
 17
0.0
 27
0.0
 37
0.0
 40
265.26536460636601
 41
1.6504347826086949
 42
50.0
 43
0.0
 44
0.0
 50
0.0
 51
0.0
 71
     0
 72
   100
 73
     1
 74
     3
 75
     1
 76
     0
 77
     0
 78
     0
  0
ENDTAB
  0
TABLE
  2
LTYPE
 70
    11
  0
LTYPE
  2
CONTINUOUS
 70
     0
  3
Solid line
 72
    65
 73
     0
 40
0.0
  0
LTYPE
  2
DASHED
 70
     0
  3
__ __ __ __ __ __ __ __ __ __ __ __ __ __ __ __
 72
    65
 73
     2
 40
0.75
 49
0.5
 49
-0.25
  0
LTYPE
  2
CENTER
 70
     0
  3
____ _ ____ _ ____ _ ____ _ ____ _ ____ _ ____ 
 72
    65
 73
     4
 40
2.0
 49
1.25
 49
-0.25
 49
0.25
 49
-0.25
  0
LTYPE
  2
DASHDOT
 70
     0
  3
__ . __ . __ . __ . __ . __ . __ . __ . __ . __
 72
    65
 73
     4
 40
1.0
 49
0.5
 49
-0.25
 49
0.0
 49
-0.25
  0
LTYPE
  2
DOT
 70
     0
  3
. . . . . . . . . . . . . . . . . . . . . . . .
 72
    65
 73
     2
 40
0.25
 49
0.0
 49
-0.25
  0
LTYPE
  2
HIDDEN
 70
     0
  3
__ __ __ __ __ __ __ __ __ __ __ __ __ __ __ __
 72
    65
 73
     2
 40
0.375
 49
0.25
 49
-0.125
  0
LTYPE
  2
PHANTOM2
 70
     0
  3
___ _ _ ___ _ _ ___ _ _ ___ _ _ ___ _ _ ___ _ _
 72
    65
 73
     6
 40
1.25
 49
0.625
 49
-0.125
 49
0.125
 49
-0.125
 49
0.125
 49
-0.125
  0
LTYPE
  2
ASULTYPE
 70
     0
  3
Solid line
 72
    65
 73
     2
 40
3.0
 49
2.5
 49
0.5
  0
LTYPE
  2
ASVLTYPE
 70
     0
  3
__ __ __ __ __ __ __ __ __ __ __ __ __ __ __ __ __ __ __ __ __
 72
    65
 73
     2
 40
0.75
 49
0.5
 49
-0.25
  0
LTYPE
  2
GEN3
 70
     0
  3
-- -- -- -- -- -- -- -- -- -- -- -- -- -- --
 72
    65
 73
     2
 40
6.25
 49
4.75
 49
-1.5
  0
LTYPE
  2
GEN7
 70
     0
  3
____ . ____ . ____ . ____ . ____ . ____ . ____
 72
    65
 73
     4
 40
13.75
 49
9.75
 49
-1.5
 49
1.0
 49
-1.5
  0
ENDTAB
  0
TABLE
  2
LAYER
 70
    23
  0
LAYER
  2
0
 70
     0
 62
     7
  6
CONTINUOUS
  0
LAYER
  2
PAKSU
 70
     0
 62
     3
  6
CONTINUOUS
  0
LAYER
  2
RAAMI
 70
     0
 62
     4
  6
CONTINUOUS
  0
LAYER
  2
OHUT
 70
     0
 62
     6
  6
CONTINUOUS
  0
LAYER
  2
KESKI
 70
     0
 62
     2
  6
CONTINUOUS
  0
LAYER
  2
KATKO
 70
     0
 62
    13
  6
CENTER
  0
LAYER
  2
KATKO07
 70
     0
 62
     1
  6
DASHED
  0
LAYER
  2
PISTKATK
 70
     0
 62
     7
  6
DASHDOT
  0
LAYER
  2
MITTA
 70
     4
 62
     1
  6
CONTINUOUS
  0
LAYER
  2
APU
 70
     0
 62
     1
  6
DOT
  0
LAYER
  2
TEXT25
 70
     0
 62
     1
  6
CONTINUOUS
  0
LAYER
  2
TEXT35
 70
     0
 62
     5
  6
CONTINUOUS
  0
LAYER
  2
TEXT5
 70
     0
 62
    14
  6
CONTINUOUS
  0
LAYER
  2
TEXT7
 70
     0
 62
     3
  6
CONTINUOUS
  0
LAYER
  2
TEXT
 70
     0
 62
     1
  6
CONTINUOUS
  0
LAYER
  2
AM_TR
 70
     0
 62
     7
  6
CONTINUOUS
  0
LAYER
  2
AM_BM
 70
     0
 62
     7
  6
CONTINUOUS
  0
LAYER
  2
AM_BL
 70
     0
 62
     7
  6
CONTINUOUS
  0
LAYER
  2
AM_VIEWS
 70
     0
 62
    -7
  6
CONTINUOUS
  0
LAYER
  2
AM_PARDIM
 70
     0
 62
     3
  6
CONTINUOUS
  0
LAYER
  2
AM_REFDIM
 70
     0
 62
     4
  6
CONTINUOUS
  0
LAYER
  2
AM_VIS
 70
     0
 62
     7
  6
CONTINUOUS
  0
LAYER
  2
AM_HID
 70
     0
 62
     6
  6
GEN3
  0
ENDTAB
  0
TABLE
  2
STYLE
 70
     6
  0
STYLE
  2
STANDARD
 70
     0
 40
0.0
 41
1.0
 50
0.0
 71
     0
 42
2.0
  3
txt
  4

  0
STYLE
  2
ROMANS
 70
     0
 40
0.0
 41
1.0
 50
0.0
 71
     0
 42
2.5
  3
romans
  4

  0
STYLE
  2
T7
 70
     0
 40
7.0
 41
0.9
 50
0.0
 71
     0
 42
0.2
  3
ROMANS
  4

  0
STYLE
  2
T5
 70
     0
 40
5.0
 41
0.9
 50
0.0
 71
     0
 42
0.2
  3
ROMANS
  4

  0
STYLE
  2
T35
 70
     0
 40
3.5
 41
0.9
 50
0.0
 71
     0
 42
0.2
  3
ROMANS
  4

  0
STYLE
  2
T25
 70
     0
 40
5.0
 41
1.0
 50
0.0
 71
     0
 42
5.0
  3
norm.shx
  4

  0
ENDTAB
  0
TABLE
  2
VIEW
 70
     0
  0
ENDTAB
  0
TABLE
  2
UCS
 70
     0
  0
ENDTAB
  0
TABLE
  2
APPID
 70
    15
  0
APPID
  2
ACAD
 70
     0
  0
APPID
  2
GENIUS_GENCFG_13
 70
     0
  0
APPID
  2
GENIUS_GEVCFG0_13
 70
     0
  0
APPID
  2
GENIUS_GENCFG0_13
 70
     0
  0
APPID
  2
GENIUS_GENCFG1_13
 70
     0
  0
APPID
  2
GENIUS_GENCFG2_13
 70
     0
  0
APPID
  2
GENIUS_GENCFG3_13
 70
     0
  0
APPID
  2
GENIUS_GENCFG4_13
 70
     0
  0
APPID
  2
MCAD_NO_VIS
 70
     0
  0
APPID
  2
AD_DRAW
 70
     0
  0
APPID
  2
DESIGNERASSEMBLIES
 70
     0
  0
APPID
  2
ASURF_PCURVE_APPNAME
 70
     0
  0
APPID
  2
GENIUS_GE3CFG0_13
 70
     0
  0
APPID
  2
GENIUS_GENCFG5_13
 70
     0
  0
APPID
  2
CONTENTBLOCKICON
 70
     0
  0
ENDTAB
  0
TABLE
  2
DIMSTYLE
 70
     2
  0
DIMSTYLE
  2
ISO-25
 70
     0
  3

  4

  5

  6

  7

 40
1.0
 41
2.5
 42
0.625
 43
3.75
 44
1.25
 45
0.0
 46
0.0
 47
0.0
 48
0.0
140
2.5
141
2.5
142
0.0
143
0.03937007874016
144
1.0
145
0.0
146
1.0
147
0.625
 71
     0
 72
     0
 73
     0
 74
     0
 75
     0
 76
     0
 77
     1
 78
     8
170
     0
171
     3
172
     1
173
     0
174
     0
175
     0
176
     0
177
     0
178
     0
  0
DIMSTYLE
  2
STANDARD
 70
     0
  3

  4

  5

  6

  7

 40
1.0
 41
0.18
 42
0.0625
 43
0.38
 44
0.18
 45
0.0
 46
0.0
 47
0.0
 48
0.0
140
0.18
141
0.09
142
0.0
143
25.399999999999999
144
1.0
145
0.0
146
1.0
147
0.09
 71
     0
 72
     0
 73
     1
 74
     1
 75
     0
 76
     0
 77
     0
 78
     0
170
     0
171
     2
172
     0
173
     0
174
     0
175
     0
176
     0
177
     0
178
     0
  0
ENDTAB
  0
ENDSEC
  0
SECTION
  2
BLOCKS
  0
BLOCK
  8
0
  2
$MODEL_SPACE
 70
     0
 10
0.0
 20
0.0
 30
0.0
  3
$MODEL_SPACE
  1

  0
ENDBLK
  5
21
  8
0
  0
BLOCK
 67
     1
  8
0
  2
$PAPER_SPACE
 70
     0
 10
0.0
 20
0.0
 30
0.0
  3
$PAPER_SPACE
  1

  0
ENDBLK
  5
1D
 67
     1
  8
0
  0
BLOCK
  8
0
  2
LOGO
 70
     0
 10
0.0
 20
0.0
 30
0.0
  3
LOGO
  1

  0
LINE
  5
2C
  8
RAAMI
 10
0.9499999999999992
 20
10.5
 30
0.0
 11
2.6999999999999988
 21
10.5
 31
0.0
  0
LINE
  5
2D
  8
RAAMI
 10
6.1999999999999993
 20
10.5
 30
0.0
 11
7.9499999999999993
 21
10.5
 31
0.0
  0
LINE
  5
2E
  8
RAAMI
 10
3.3999999999999981
 20
17.5
 30
0.0
 11
2.2502499999999981
 21
14.214999999999989
 31
0.0
  0
LINE
  5
2F
  8
RAAMI
 10
3.1887866980971959
 20
11.9
 30
0.0
 11
4.2350000000000021
 21
11.9
 31
0.0
  0
LINE
  5
30
  8
RAAMI
 10
3.18878989496271
 20
11.8965425570363
 30
0.0
 11
2.6999999999999988
 21
10.5
 31
0.0
  0
LINE
  5
31
  8
RAAMI
 10
5.5
 20
17.5
 30
0.0
 11
6.64975
 21
14.214999999999989
 31
0.0
  0
LINE
  5
32
  8
RAAMI
 10
5.7110977032855557
 20
11.896863704898401
 30
0.0
 11
6.1999999999999993
 21
10.5
 31
0.0
  0
LINE
  5
33
  8
RAAMI
 10
5.5
 20
17.5
 30
0.0
 11
4.665
 21
17.5
 31
0.0
  0
LINE
  5
34
  8
RAAMI
 10
4.2350000000000021
 20
17.5
 30
0.0
 11
4.2350000000000021
 21
14.214999999999989
 31
0.0
  0
LINE
  5
35
  8
RAAMI
 10
4.665
 20
17.5
 30
0.0
 11
4.665
 21
14.214999999999989
 31
0.0
  0
LINE
  5
36
  8
RAAMI
 10
4.665
 20
11.9
 30
0.0
 11
5.7098933934267491
 21
11.9
 31
0.0
  0
LINE
  5
37
  8
RAAMI
 10
4.2350000000000021
 20
17.5
 30
0.0
 11
3.3999999999999981
 21
17.5
 31
0.0
  0
LINE
  5
38
  8
RAAMI
 10
2.2502499999999981
 20
14.214999999999989
 30
0.0
 11
4.2350000000000021
 21
14.214999999999989
 31
0.0
  0
LINE
  5
39
  8
RAAMI
 10
2.0997499999999998
 20
13.785
 30
0.0
 11
4.2350000000000021
 21
13.785
 31
0.0
  0
LINE
  5
3A
  8
RAAMI
 10
6.8002499999999992
 20
13.785
 30
0.0
 11
7.9499999999999993
 21
10.5
 31
0.0
  0
LINE
  5
3B
  8
RAAMI
 10
4.665
 20
14.214999999999989
 30
0.0
 11
6.64975
 21
14.214999999999989
 31
0.0
  0
LINE
  5
3C
  8
RAAMI
 10
4.665
 20
13.785
 30
0.0
 11
6.8002499999999992
 21
13.785
 31
0.0
  0
LINE
  5
3D
  8
RAAMI
 10
4.665
 20
13.785
 30
0.0
 11
4.665
 21
11.9
 31
0.0
  0
LINE
  5
3E
  8
RAAMI
 10
4.2350000000000021
 20
13.785
 30
0.0
 11
4.2350000000000021
 21
11.9
 31
0.0
  0
LINE
  5
3F
  8
RAAMI
 10
2.0997499999999998
 20
13.785
 30
0.0
 11
0.9499999999999992
 21
10.5
 31
0.0
  0
LINE
  5
40
  8
RAAMI
 10
8.4400000000000013
 20
10.5
 30
0.0
 11
8.4400000000000013
 21
13.785
 31
0.0
  0
LINE
  5
41
  8
RAAMI
 10
8.4400000000000013
 20
17.5
 30
0.0
 11
10.32499999999999
 21
17.5
 31
0.0
  0
LINE
  5
42
  8
RAAMI
 10
10.32499999999999
 20
17.5
 30
0.0
 11
10.32499999999999
 21
14.214999999999989
 31
0.0
  0
LINE
  5
43
  8
RAAMI
 10
10.32499999999999
 20
14.214999999999989
 30
0.0
 11
8.4400000000000013
 21
14.214999999999989
 31
0.0
  0
LINE
  5
44
  8
RAAMI
 10
8.4400000000000013
 20
13.785
 30
0.0
 11
10.32499999999999
 21
13.785
 31
0.0
  0
LINE
  5
45
  8
RAAMI
 10
10.32499999999999
 20
13.785
 30
0.0
 11
10.32499999999999
 21
10.5
 31
0.0
  0
LINE
  5
46
  8
RAAMI
 10
10.32499999999999
 20
10.5
 30
0.0
 11
8.4400000000000013
 21
10.5
 31
0.0
  0
LINE
  5
47
  8
RAAMI
 10
8.4400000000000013
 20
14.214999999999989
 30
0.0
 11
8.4400000000000013
 21
17.5
 31
0.0
  0
ARC
  5
48
  8
RAAMI
 10
11.24
 20
15.925000000000001
 30
0.0
 40
1.574999999999998
 50
298.45585933941169
 51
90.052436995563497
  0
LINE
  5
49
  8
RAAMI
 10
10.75499999999999
 20
17.499999340399661
 30
0.0
 11
11.238558563000881
 21
17.499999340399661
 31
0.0
  0
LINE
  5
4A
  8
RAAMI
 10
10.75499999999999
 20
17.5
 30
0.0
 11
10.75499999999999
 21
14.214999999999989
 31
0.0
  0
LINE
  5
4B
  8
RAAMI
 10
10.75499999999999
 20
14.214999999999989
 30
0.0
 11
12.582302126944599
 21
14.214999999999989
 31
0.0
  0
LINE
  5
4C
  8
RAAMI
 10
12.97371710495109
 20
13.785
 30
0.0
 11
10.75499999999999
 21
13.785
 31
0.0
  0
LINE
  5
4D
  8
RAAMI
 10
10.75499999999999
 20
13.785
 30
0.0
 11
10.75499999999999
 21
10.5
 31
0.0
  0
ARC
  5
4E
  8
RAAMI
 10
11.24
 20
12.6
 30
0.0
 40
2.0999999999999979
 50
269.9377244294032
 51
34.35270472657853
  0
LINE
  5
4F
  8
RAAMI
 10
10.75499999999999
 20
10.50000124045045
 30
0.0
 11
11.23771748157343
 21
10.50000124045045
 31
0.0
  0
ARC
  5
50
  8
RAAMI
 10
11.24
 20
12.6
 30
0.0
 40
2.0999999999999979
 50
50.268442740227627
 51
68.787999321869179
  0
INSERT
  5
51
  8
RAAMI
  2
*X2
 10
0.0
 20
0.0
 30
0.0
  0
INSERT
  5
52
  8
RAAMI
  2
*X3
 10
0.0
 20
0.0
 30
0.0
  0
INSERT
  5
53
  8
RAAMI
  2
*X4
 10
0.0
 20
0.0
 30
0.0
  0
INSERT
  5
54
  8
RAAMI
  2
*X5
 10
0.0
 20
0.0
 30
0.0
  0
INSERT
  5
55
  8
RAAMI
  2
*X6
 10
0.0
 20
0.0
 30
0.0
  0
INSERT
  5
56
  8
RAAMI
  2
*X7
 10
0.0
 20
0.0
 30
0.0
  0
INSERT
  5
57
  8
RAAMI
  2
*X8
 10
0.0
 20
0.0
 30
0.0
  0
INSERT
  5
58
  8
RAAMI
  2
*X9
 10
0.0
 20
0.0
 30
0.0
  0
INSERT
  5
59
  8
RAAMI
  2
*X9
 10
5.4599999999999973
 20
0.0
 30
0.0
  0
INSERT
  5
5A
  8
RAAMI
  2
*X8
 10
5.4599999999999973
 20
0.0
 30
0.0
  0
INSERT
  5
5B
  8
RAAMI
  2
*X7
 10
5.4599999999999973
 20
0.0
 30
0.0
  0
INSERT
  5
5C
  8
RAAMI
  2
*X6
 10
5.4599999999999973
 20
0.0
 30
0.0
  0
ARC
  5
5D
  8
RAAMI
 10
16.699999999999989
 20
12.6
 30
0.0
 40
2.0999999999999979
 50
50.268442740227627
 51
68.787999321869179
  0
LINE
  5
5E
  8
RAAMI
 10
16.214999999999989
 20
10.50000124045045
 30
0.0
 11
16.69771748157342
 21
10.50000124045045
 31
0.0
  0
ARC
  5
5F
  8
RAAMI
 10
16.699999999999989
 20
12.6
 30
0.0
 40
2.0999999999999979
 50
269.9377244294032
 51
34.35270472657853
  0
LINE
  5
60
  8
RAAMI
 10
16.214999999999989
 20
13.785
 30
0.0
 11
16.214999999999989
 21
10.5
 31
0.0
  0
LINE
  5
61
  8
RAAMI
 10
18.433717104951089
 20
13.785
 30
0.0
 11
16.214999999999989
 21
13.785
 31
0.0
  0
LINE
  5
62
  8
RAAMI
 10
16.214999999999989
 20
14.214999999999989
 30
0.0
 11
18.042302126944591
 21
14.214999999999989
 31
0.0
  0
LINE
  5
63
  8
RAAMI
 10
16.214999999999989
 20
17.5
 30
0.0
 11
16.214999999999989
 21
14.214999999999989
 31
0.0
  0
LINE
  5
64
  8
RAAMI
 10
16.214999999999989
 20
17.499999340399661
 30
0.0
 11
16.698558563000869
 21
17.499999340399661
 31
0.0
  0
ARC
  5
65
  8
RAAMI
 10
16.699999999999989
 20
15.925000000000001
 30
0.0
 40
1.574999999999998
 50
298.45585933941169
 51
90.052436995563497
  0
LINE
  5
66
  8
RAAMI
 10
13.89999999999999
 20
14.214999999999989
 30
0.0
 11
13.89999999999999
 21
17.5
 31
0.0
  0
LINE
  5
67
  8
RAAMI
 10
15.784999999999989
 20
10.5
 30
0.0
 11
13.89999999999999
 21
10.5
 31
0.0
  0
LINE
  5
68
  8
RAAMI
 10
15.784999999999989
 20
13.785
 30
0.0
 11
15.784999999999989
 21
10.5
 31
0.0
  0
LINE
  5
69
  8
RAAMI
 10
13.89999999999999
 20
13.785
 30
0.0
 11
15.784999999999989
 21
13.785
 31
0.0
  0
LINE
  5
6A
  8
RAAMI
 10
15.784999999999989
 20
14.214999999999989
 30
0.0
 11
13.89999999999999
 21
14.214999999999989
 31
0.0
  0
LINE
  5
6B
  8
RAAMI
 10
15.784999999999989
 20
17.5
 30
0.0
 11
15.784999999999989
 21
14.214999999999989
 31
0.0
  0
LINE
  5
6C
  8
RAAMI
 10
13.89999999999999
 20
17.5
 30
0.0
 11
15.784999999999989
 21
17.5
 31
0.0
  0
LINE
  5
6D
  8
RAAMI
 10
13.89999999999999
 20
10.5
 30
0.0
 11
13.89999999999999
 21
13.785
 31
0.0
  0
ENDBLK
  5
6F
  8
0
  0
BLOCK
  8
0
  2
*X2
 70
     1
 10
0.0
 20
0.0
 30
0.0
  3
*X2
  1

  0
LINE
  5
71
  8
0
 62
     0
 10
2.5850388412187519
 20
15.171539546339289
 30
0.0
 11
4.2350000000000021
 21
16.821500705120538
 31
0.0
  0
LINE
  5
72
  8
0
 62
     0
 10
2.6611888022696109
 20
15.38911086362746
 30
0.0
 11
4.2350000000000021
 21
16.962922061357851
 31
0.0
  0
LINE
  5
73
  8
0
 62
     0
 10
2.7373387633204711
 20
15.60668218091563
 30
0.0
 11
4.2350000000000021
 21
17.10434341759516
 31
0.0
  0
LINE
  5
74
  8
0
 62
     0
 10
2.81348872437133
 20
15.824253498203801
 30
0.0
 11
4.2350000000000021
 21
17.24576477383247
 31
0.0
  0
LINE
  5
75
  8
0
 62
     0
 10
2.889638685422188
 20
16.041824815491971
 30
0.0
 11
4.2350000000000021
 21
17.387186130069779
 31
0.0
  0
LINE
  5
76
  8
0
 62
     0
 10
2.965788646473047
 20
16.259396132780129
 30
0.0
 11
4.206392513692907
 21
17.5
 31
0.0
  0
LINE
  5
77
  8
0
 62
     0
 10
3.0419386075239059
 20
16.476967450068301
 30
0.0
 11
4.0649711574555969
 21
17.5
 31
0.0
  0
LINE
  5
78
  8
0
 62
     0
 10
3.1180885685747661
 20
16.69453876735648
 30
0.0
 11
3.9235498012182859
 21
17.5
 31
0.0
  0
LINE
  5
79
  8
0
 62
     0
 10
3.194238529625625
 20
16.912110084644642
 30
0.0
 11
3.7821284449809771
 21
17.5
 31
0.0
  0
LINE
  5
7A
  8
0
 62
     0
 10
3.2703884906764831
 20
17.12968140193281
 30
0.0
 11
3.6407070887436679
 21
17.5
 31
0.0
  0
LINE
  5
7B
  8
0
 62
     0
 10
3.3465384517273411
 20
17.347252719220979
 30
0.0
 11
3.4992857325063591
 21
17.5
 31
0.0
  0
LINE
  5
7C
  8
0
 62
     0
 10
2.5088888801678939
 20
14.95396822905113
 30
0.0
 11
4.2350000000000021
 21
16.68007934888324
 31
0.0
  0
LINE
  5
7D
  8
0
 62
     0
 10
2.432738919117035
 20
14.736396911762959
 30
0.0
 11
4.2350000000000021
 21
16.538657992645931
 31
0.0
  0
LINE
  5
7E
  8
0
 62
     0
 10
2.3565889580661761
 20
14.518825594474791
 30
0.0
 11
4.2350000000000021
 21
16.397236636408621
 31
0.0
  0
LINE
  5
7F
  8
0
 62
     0
 10
2.280438997015318
 20
14.30125427718662
 30
0.0
 11
4.2350000000000021
 21
16.255815280171309
 31
0.0
  0
LINE
  5
80
  8
0
 62
     0
 10
2.3356060760660009
 20
14.214999999999989
 30
0.0
 11
4.2350000000000021
 21
16.114393923933999
 31
0.0
  0
LINE
  5
81
  8
0
 62
     0
 10
2.4770274323033101
 20
14.214999999999989
 30
0.0
 11
4.2350000000000021
 21
15.97297256769669
 31
0.0
  0
LINE
  5
82
  8
0
 62
     0
 10
2.6184487885406189
 20
14.214999999999989
 30
0.0
 11
4.2350000000000021
 21
15.831551211459381
 31
0.0
  0
LINE
  5
83
  8
0
 62
     0
 10
2.7598701447779281
 20
14.214999999999989
 30
0.0
 11
4.2350000000000021
 21
15.69012985522207
 31
0.0
  0
LINE
  5
84
  8
0
 62
     0
 10
2.9012915010152391
 20
14.214999999999989
 30
0.0
 11
4.2350000000000021
 21
15.548708498984761
 31
0.0
  0
LINE
  5
85
  8
0
 62
     0
 10
3.042712857252547
 20
14.214999999999989
 30
0.0
 11
4.2350000000000021
 21
15.40728714274745
 31
0.0
  0
LINE
  5
86
  8
0
 62
     0
 10
3.184134213489858
 20
14.214999999999989
 30
0.0
 11
4.2350000000000021
 21
15.26586578651014
 31
0.0
  0
LINE
  5
87
  8
0
 62
     0
 10
3.3255555697271668
 20
14.214999999999989
 30
0.0
 11
4.2350000000000021
 21
15.124444430272829
 31
0.0
  0
LINE
  5
88
  8
0
 62
     0
 10
3.466976925964476
 20
14.214999999999989
 30
0.0
 11
4.2350000000000021
 21
14.98302307403552
 31
0.0
  0
LINE
  5
89
  8
0
 62
     0
 10
3.6083982822017862
 20
14.214999999999989
 30
0.0
 11
4.2350000000000021
 21
14.841601717798209
 31
0.0
  0
LINE
  5
8A
  8
0
 62
     0
 10
3.7498196384390949
 20
14.214999999999989
 30
0.0
 11
4.2350000000000021
 21
14.7001803615609
 31
0.0
  0
LINE
  5
8B
  8
0
 62
     0
 10
3.8912409946764051
 20
14.214999999999989
 30
0.0
 11
4.2350000000000021
 21
14.558759005323591
 31
0.0
  0
LINE
  5
8C
  8
0
 62
     0
 10
4.0326623509137152
 20
14.214999999999989
 30
0.0
 11
4.2350000000000021
 21
14.41733764908628
 31
0.0
  0
LINE
  5
8D
  8
0
 62
     0
 10
4.1740837071510226
 20
14.214999999999989
 30
0.0
 11
4.2350000000000021
 21
14.275916292848979
 31
0.0
  0
ENDBLK
  5
8F
  8
0
  0
BLOCK
  8
0
  2
*X3
 70
     1
 10
0.0
 20
0.0
 30
0.0
  3
*X3
  1

  0
LINE
  5
91
  8
0
 62
     0
 10
4.665
 20
14.847337649086279
 30
0.0
 11
5.9712457946813329
 21
16.153583443767619
 31
0.0
  0
LINE
  5
92
  8
0
 62
     0
 10
4.665
 20
14.98875900532359
 30
0.0
 11
5.9345809986198077
 21
16.258340003943399
 31
0.0
  0
LINE
  5
93
  8
0
 62
     0
 10
4.665
 20
15.1301803615609
 30
0.0
 11
5.8979162025582843
 21
16.363096564119189
 31
0.0
  0
LINE
  5
94
  8
0
 62
     0
 10
4.665
 20
15.271601717798211
 30
0.0
 11
5.8612514064967591
 21
16.467853124294969
 31
0.0
  0
LINE
  5
95
  8
0
 62
     0
 10
4.665
 20
15.41302307403552
 30
0.0
 11
5.824586610435234
 21
16.572609684470759
 31
0.0
  0
LINE
  5
96
  8
0
 62
     0
 10
4.665
 20
15.554444430272831
 30
0.0
 11
5.7879218143737088
 21
16.677366244646539
 31
0.0
  0
LINE
  5
97
  8
0
 62
     0
 10
4.665
 20
15.69586578651014
 30
0.0
 11
5.7512570183121854
 21
16.782122804822318
 31
0.0
  0
LINE
  5
98
  8
0
 62
     0
 10
4.665
 20
15.837287142747449
 30
0.0
 11
5.7145922222506602
 21
16.886879364998109
 31
0.0
  0
LINE
  5
99
  8
0
 62
     0
 10
4.665
 20
15.97870849898476
 30
0.0
 11
5.677927426189135
 21
16.991635925173892
 31
0.0
  0
LINE
  5
9A
  8
0
 62
     0
 10
4.665
 20
16.120129855222071
 30
0.0
 11
5.6412626301276099
 21
17.096392485349678
 31
0.0
  0
LINE
  5
9B
  8
0
 62
     0
 10
4.665
 20
16.261551211459381
 30
0.0
 11
5.6045978340660856
 21
17.201149045525462
 31
0.0
  0
LINE
  5
9C
  8
0
 62
     0
 10
4.665
 20
16.402972567696679
 30
0.0
 11
5.5679330380045622
 21
17.305905605701248
 31
0.0
  0
LINE
  5
9D
  8
0
 62
     0
 10
4.665
 20
16.544393923933988
 30
0.0
 11
5.531268241943037
 21
17.410662165877032
 31
0.0
  0
LINE
  5
9E
  8
0
 62
     0
 10
4.665
 20
16.685815280171312
 30
0.0
 11
5.47918471982869
 21
17.5
 31
0.0
  0
LINE
  5
9F
  8
0
 62
     0
 10
4.665
 20
16.827236636408621
 30
0.0
 11
5.3377633635913808
 21
17.5
 31
0.0
  0
LINE
  5
A0
  8
0
 62
     0
 10
4.665
 20
16.96865799264593
 30
0.0
 11
5.1963420073540716
 21
17.5
 31
0.0
  0
LINE
  5
A1
  8
0
 62
     0
 10
4.665
 20
17.110079348883239
 30
0.0
 11
5.0549206511167641
 21
17.5
 31
0.0
  0
LINE
  5
A2
  8
0
 62
     0
 10
4.665
 20
17.251500705120542
 30
0.0
 11
4.913499294879454
 21
17.5
 31
0.0
  0
LINE
  5
A3
  8
0
 62
     0
 10
4.665
 20
17.392922061357851
 30
0.0
 11
4.7720779386421448
 21
17.5
 31
0.0
  0
LINE
  5
A4
  8
0
 62
     0
 10
4.665
 20
14.70591629284897
 30
0.0
 11
6.007910590742858
 21
16.048826883591829
 31
0.0
  0
LINE
  5
A5
  8
0
 62
     0
 10
4.665
 20
14.564494936611659
 30
0.0
 11
6.0445753868043832
 21
15.944070323416041
 31
0.0
  0
LINE
  5
A6
  8
0
 62
     0
 10
4.665
 20
14.42307358037435
 30
0.0
 11
6.0812401828659066
 21
15.839313763240259
 31
0.0
  0
LINE
  5
A7
  8
0
 62
     0
 10
4.665
 20
14.281652224137041
 30
0.0
 11
6.1179049789274309
 21
15.734557203064471
 31
0.0
  0
LINE
  5
A8
  8
0
 62
     0
 10
4.7397691321002631
 20
14.214999999999989
 30
0.0
 11
6.1545697749889561
 21
15.629800642888689
 31
0.0
  0
LINE
  5
A9
  8
0
 62
     0
 10
4.8811904883375723
 20
14.214999999999989
 30
0.0
 11
6.1912345710504813
 21
15.52504408271291
 31
0.0
  0
LINE
  5
AA
  8
0
 62
     0
 10
5.0226118445748824
 20
14.214999999999989
 30
0.0
 11
6.2278993671120064
 21
15.420287522537119
 31
0.0
  0
LINE
  5
AB
  8
0
 62
     0
 10
5.1640332008121907
 20
14.214999999999989
 30
0.0
 11
6.2645641631735298
 21
15.31553096236134
 31
0.0
  0
LINE
  5
AC
  8
0
 62
     0
 10
5.3054545570495009
 20
14.214999999999989
 30
0.0
 11
6.301228959235055
 21
15.21077440218555
 31
0.0
  0
LINE
  5
AD
  8
0
 62
     0
 10
5.4468759132868101
 20
14.214999999999989
 30
0.0
 11
6.3378937552965802
 21
15.10601784200977
 31
0.0
  0
LINE
  5
AE
  8
0
 62
     0
 10
5.5882972695241202
 20
14.214999999999989
 30
0.0
 11
6.3745585513581036
 21
15.00126128183398
 31
0.0
  0
LINE
  5
AF
  8
0
 62
     0
 10
5.7297186257614303
 20
14.214999999999989
 30
0.0
 11
6.4112233474196287
 21
14.8965047216582
 31
0.0
  0
LINE
  5
B0
  8
0
 62
     0
 10
5.8711399819987387
 20
14.214999999999989
 30
0.0
 11
6.447888143481153
 21
14.79174816148241
 31
0.0
  0
LINE
  5
B1
  8
0
 62
     0
 10
6.012561338236047
 20
14.214999999999989
 30
0.0
 11
6.4845529395426791
 21
14.68699160130663
 31
0.0
  0
LINE
  5
B2
  8
0
 62
     0
 10
6.153982694473358
 20
14.214999999999989
 30
0.0
 11
6.5212177356042034
 21
14.58223504113084
 31
0.0
  0
LINE
  5
B3
  8
0
 62
     0
 10
6.2954040507106672
 20
14.214999999999989
 30
0.0
 11
6.5578825316657277
 21
14.47747848095506
 31
0.0
  0
LINE
  5
B4
  8
0
 62
     0
 10
6.4368254069479782
 20
14.214999999999989
 30
0.0
 11
6.5945473277272519
 21
14.37272192077927
 31
0.0
  0
LINE
  5
B5
  8
0
 62
     0
 10
6.5782467631852857
 20
14.214999999999989
 30
0.0
 11
6.631212123788778
 21
14.26796536060349
 31
0.0
  0
ENDBLK
  5
B7
  8
0
  0
BLOCK
  8
0
  2
*X4
 70
     1
 10
0.0
 20
0.0
 30
0.0
  3
*X4
  1

  0
LINE
  5
B9
  8
0
 62
     0
 10
1.024769132100263
 20
10.5
 30
0.0
 11
4.2350000000000021
 21
13.710230867899741
 31
0.0
  0
LINE
  5
BA
  8
0
 62
     0
 10
0.9858896591507163
 20
10.60254188328776
 30
0.0
 11
4.168347775862955
 21
13.785
 31
0.0
  0
LINE
  5
BB
  8
0
 62
     0
 10
1.0620396202015749
 20
10.82011320057593
 30
0.0
 11
4.026926419625644
 21
13.785
 31
0.0
  0
LINE
  5
BC
  8
0
 62
     0
 10
1.1381895812524341
 20
11.037684517864101
 30
0.0
 11
3.8855050633883348
 21
13.785
 31
0.0
  0
LINE
  5
BD
  8
0
 62
     0
 10
1.2143395423032941
 20
11.25525583515226
 30
0.0
 11
3.7440837071510251
 21
13.785
 31
0.0
  0
LINE
  5
BE
  8
0
 62
     0
 10
1.290489503354153
 20
11.472827152440431
 30
0.0
 11
3.6026623509137159
 21
13.785
 31
0.0
  0
LINE
  5
BF
  8
0
 62
     0
 10
1.3666394644050111
 20
11.690398469728599
 30
0.0
 11
3.4612409946764071
 21
13.785
 31
0.0
  0
LINE
  5
C0
  8
0
 62
     0
 10
1.4427894254558711
 20
11.90796978701677
 30
0.0
 11
3.3198196384390961
 21
13.785
 31
0.0
  0
LINE
  5
C1
  8
0
 62
     0
 10
1.51893938650673
 20
12.12554110430494
 30
0.0
 11
3.1783982822017882
 21
13.785
 31
0.0
  0
LINE
  5
C2
  8
0
 62
     0
 10
1.5950893475575889
 20
12.34311242159311
 30
0.0
 11
3.0369769259644772
 21
13.785
 31
0.0
  0
LINE
  5
C3
  8
0
 62
     0
 10
1.671239308608448
 20
12.560683738881281
 30
0.0
 11
2.895555569727168
 21
13.785
 31
0.0
  0
LINE
  5
C4
  8
0
 62
     0
 10
1.747389269659307
 20
12.77825505616944
 30
0.0
 11
2.7541342134898592
 21
13.785
 31
0.0
  0
LINE
  5
C5
  8
0
 62
     0
 10
1.8235392307101661
 20
12.995826373457611
 30
0.0
 11
2.6127128572525491
 21
13.785
 31
0.0
  0
LINE
  5
C6
  8
0
 62
     0
 10
1.899689191761025
 20
13.213397690745779
 30
0.0
 11
2.4712915010152399
 21
13.785
 31
0.0
  0
LINE
  5
C7
  8
0
 62
     0
 10
1.975839152811885
 20
13.43096900803395
 30
0.0
 11
2.3298701447779302
 21
13.785
 31
0.0
  0
LINE
  5
C8
  8
0
 62
     0
 10
2.0519891138627431
 20
13.64854032532212
 30
0.0
 11
2.188448788540621
 21
13.785
 31
0.0
  0
LINE
  5
C9
  8
0
 62
     0
 10
1.166190488337572
 20
10.5
 30
0.0
 11
4.2350000000000021
 21
13.56880951166243
 31
0.0
  0
LINE
  5
CA
  8
0
 62
     0
 10
1.3076118445748821
 20
10.5
 30
0.0
 11
4.2350000000000021
 21
13.42738815542512
 31
0.0
  0
LINE
  5
CB
  8
0
 62
     0
 10
1.4490332008121909
 20
10.5
 30
0.0
 11
4.2350000000000021
 21
13.285966799187809
 31
0.0
  0
LINE
  5
CC
  8
0
 62
     0
 10
1.5904545570495019
 20
10.5
 30
0.0
 11
4.2350000000000021
 21
13.1445454429505
 31
0.0
  0
LINE
  5
CD
  8
0
 62
     0
 10
1.7318759132868109
 20
10.5
 30
0.0
 11
4.2350000000000021
 21
13.003124086713189
 31
0.0
  0
LINE
  5
CE
  8
0
 62
     0
 10
1.8732972695241199
 20
10.5
 30
0.0
 11
3.1451476241023988
 21
11.77185035457827
 31
0.0
  0
LINE
  5
CF
  8
0
 62
     0
 10
3.2732972695241198
 20
11.9
 30
0.0
 11
4.2350000000000021
 21
12.86170273047588
 31
0.0
  0
LINE
  5
D0
  8
0
 62
     0
 10
2.01471862576143
 20
10.5
 30
0.0
 11
3.068997663051539
 21
11.554279037290099
 31
0.0
  0
LINE
  5
D1
  8
0
 62
     0
 10
3.4147186257614299
 20
11.9
 30
0.0
 11
4.2350000000000021
 21
12.720281374238571
 31
0.0
  0
LINE
  5
D2
  8
0
 62
     0
 10
2.1561399819987388
 20
10.5
 30
0.0
 11
2.9928477020006801
 21
11.336707720001939
 31
0.0
  0
LINE
  5
D3
  8
0
 62
     0
 10
3.5561399819987392
 20
11.9
 30
0.0
 11
4.2350000000000021
 21
12.57886001800126
 31
0.0
  0
LINE
  5
D4
  8
0
 62
     0
 10
2.297561338236048
 20
10.5
 30
0.0
 11
2.9166977409498198
 21
11.119136402713769
 31
0.0
  0
LINE
  5
D5
  8
0
 62
     0
 10
3.6975613382360479
 20
11.9
 30
0.0
 11
4.2350000000000021
 21
12.437438661763951
 31
0.0
  0
LINE
  5
D6
  8
0
 62
     0
 10
2.4389826944733581
 20
10.5
 30
0.0
 11
2.84054777989896
 21
10.901565085425601
 31
0.0
  0
LINE
  5
D7
  8
0
 62
     0
 10
3.838982694473358
 20
11.9
 30
0.0
 11
4.2350000000000021
 21
12.29601730552664
 31
0.0
  0
LINE
  5
D8
  8
0
 62
     0
 10
2.5804040507106669
 20
10.5
 30
0.0
 11
2.7643978188481011
 21
10.68399376813743
 31
0.0
  0
LINE
  5
D9
  8
0
 62
     0
 10
3.9804040507106668
 20
11.9
 30
0.0
 11
4.2350000000000021
 21
12.15459594928933
 31
0.0
  0
LINE
  5
DA
  8
0
 62
     0
 10
4.1218254069479769
 20
11.9
 30
0.0
 11
4.2350000000000021
 21
12.013174593052019
 31
0.0
  0
ENDBLK
  5
DC
  8
0
  0
BLOCK
  8
0
  2
*X5
 70
     1
 10
0.0
 20
0.0
 30
0.0
  3
*X5
  1

  0
LINE
  5
DE
  8
0
 62
     0
 10
5.8115581762923014
 20
11.60983378202199
 30
0.0
 11
7.107854472588599
 21
12.906130078318281
 31
0.0
  0
LINE
  5
DF
  8
0
 62
     0
 10
5.7748933802307771
 20
11.71459034219777
 30
0.0
 11
7.071189676527073
 21
13.010886638494069
 31
0.0
  0
LINE
  5
E0
  8
0
 62
     0
 10
5.7382285841692511
 20
11.81934690237356
 30
0.0
 11
7.0345248804655487
 21
13.115643198669851
 31
0.0
  0
LINE
  5
E1
  8
0
 62
     0
 10
5.677460325558382
 20
11.9
 30
0.0
 11
6.9978600844040244
 21
13.220399758845639
 31
0.0
  0
LINE
  5
E2
  8
0
 62
     0
 10
5.5360389693210728
 20
11.9
 30
0.0
 11
6.9611952883425001
 21
13.325156319021421
 31
0.0
  0
LINE
  5
E3
  8
0
 62
     0
 10
5.3946176130837626
 20
11.9
 30
0.0
 11
6.9245304922809741
 21
13.429912879197211
 31
0.0
  0
LINE
  5
E4
  8
0
 62
     0
 10
5.2531962568464543
 20
11.9
 30
0.0
 11
6.8878656962194498
 21
13.53466943937299
 31
0.0
  0
LINE
  5
E5
  8
0
 62
     0
 10
5.1117749006091442
 20
11.9
 30
0.0
 11
6.8512009001579246
 21
13.639425999548781
 31
0.0
  0
LINE
  5
E6
  8
0
 62
     0
 10
4.9703535443718341
 20
11.9
 30
0.0
 11
6.8145361040964012
 21
13.74418255972456
 31
0.0
  0
LINE
  5
E7
  8
0
 62
     0
 10
4.8289321881345257
 20
11.9
 30
0.0
 11
6.7139321881345246
 21
13.785
 31
0.0
  0
LINE
  5
E8
  8
0
 62
     0
 10
4.6875108318972156
 20
11.9
 30
0.0
 11
6.5725108318972136
 21
13.785
 31
0.0
  0
LINE
  5
E9
  8
0
 62
     0
 10
4.665
 20
12.01891052434009
 30
0.0
 11
6.4310894756599062
 21
13.785
 31
0.0
  0
LINE
  5
EA
  8
0
 62
     0
 10
4.665
 20
12.160331880577401
 30
0.0
 11
6.2896681194225961
 21
13.785
 31
0.0
  0
LINE
  5
EB
  8
0
 62
     0
 10
4.665
 20
12.30175323681471
 30
0.0
 11
6.148246763185286
 21
13.785
 31
0.0
  0
LINE
  5
EC
  8
0
 62
     0
 10
4.665
 20
12.443174593052021
 30
0.0
 11
6.0068254069479767
 21
13.785
 31
0.0
  0
LINE
  5
ED
  8
0
 62
     0
 10
4.665
 20
12.58459594928933
 30
0.0
 11
5.8654040507106666
 21
13.785
 31
0.0
  0
LINE
  5
EE
  8
0
 62
     0
 10
4.665
 20
12.726017305526639
 30
0.0
 11
5.7239826944733583
 21
13.785
 31
0.0
  0
LINE
  5
EF
  8
0
 62
     0
 10
4.665
 20
12.86743866176395
 30
0.0
 11
5.5825613382360482
 21
13.785
 31
0.0
  0
LINE
  5
F0
  8
0
 62
     0
 10
4.665
 20
13.008860018001259
 30
0.0
 11
5.4411399819987381
 21
13.785
 31
0.0
  0
LINE
  5
F1
  8
0
 62
     0
 10
4.665
 20
13.15028137423857
 30
0.0
 11
5.2997186257614288
 21
13.785
 31
0.0
  0
LINE
  5
F2
  8
0
 62
     0
 10
4.665
 20
13.29170273047588
 30
0.0
 11
5.1582972695241187
 21
13.785
 31
0.0
  0
LINE
  5
F3
  8
0
 62
     0
 10
4.665
 20
13.433124086713191
 30
0.0
 11
5.0168759132868104
 21
13.785
 31
0.0
  0
LINE
  5
F4
  8
0
 62
     0
 10
4.665
 20
13.574545442950489
 30
0.0
 11
4.875454557049502
 21
13.785
 31
0.0
  0
LINE
  5
F5
  8
0
 62
     0
 10
4.665
 20
13.715966799187809
 30
0.0
 11
4.734033200812191
 21
13.785
 31
0.0
  0
LINE
  5
F6
  8
0
 62
     0
 10
5.8482229723538257
 20
11.5050772218462
 30
0.0
 11
7.1445192686501233
 21
12.801373518142499
 31
0.0
  0
LINE
  5
F7
  8
0
 62
     0
 10
5.88488776841535
 20
11.40032066167042
 30
0.0
 11
7.1811840647116476
 21
12.696616957966709
 31
0.0
  0
LINE
  5
F8
  8
0
 62
     0
 10
5.9215525644768761
 20
11.29556410149463
 30
0.0
 11
7.2178488607731719
 21
12.59186039779093
 31
0.0
  0
LINE
  5
F9
  8
0
 62
     0
 10
5.9582173605384003
 20
11.190807541318851
 30
0.0
 11
7.2545136568346971
 21
12.487103837615139
 31
0.0
  0
LINE
  5
FA
  8
0
 62
     0
 10
5.9948821565999246
 20
11.08605098114306
 30
0.0
 11
7.2911784528962222
 21
12.38234727743936
 31
0.0
  0
LINE
  5
FB
  8
0
 62
     0
 10
6.0315469526614489
 20
10.981294420967281
 30
0.0
 11
7.3278432489577456
 21
12.27759071726358
 31
0.0
  0
LINE
  5
FC
  8
0
 62
     0
 10
6.0682117487229741
 20
10.87653786079149
 30
0.0
 11
7.3645080450192708
 21
12.17283415708779
 31
0.0
  0
LINE
  5
FD
  8
0
 62
     0
 10
6.1048765447844993
 20
10.771781300615711
 30
0.0
 11
7.4011728410807951
 21
12.06807759691201
 31
0.0
  0
LINE
  5
FE
  8
0
 62
     0
 10
6.1415413408460244
 20
10.667024740439921
 30
0.0
 11
7.4378376371423212
 21
11.96332103673622
 31
0.0
  0
LINE
  5
FF
  8
0
 62
     0
 10
6.1782061369075478
 20
10.562268180264139
 30
0.0
 11
7.4745024332038454
 21
11.85856447656044
 31
0.0
  0
LINE
  5
100
  8
0
 62
     0
 10
6.2573593128807152
 20
10.5
 30
0.0
 11
7.5111672292653697
 21
11.75380791638465
 31
0.0
  0
LINE
  5
101
  8
0
 62
     0
 10
6.3987806691180236
 20
10.5
 30
0.0
 11
7.547832025326894
 21
11.64905135620887
 31
0.0
  0
LINE
  5
102
  8
0
 62
     0
 10
6.5402020253553337
 20
10.5
 30
0.0
 11
7.5844968213884192
 21
11.54429479603308
 31
0.0
  0
LINE
  5
103
  8
0
 62
     0
 10
6.6816233815926429
 20
10.5
 30
0.0
 11
7.6211616174499444
 21
11.439538235857301
 31
0.0
  0
LINE
  5
104
  8
0
 62
     0
 10
6.823044737829953
 20
10.5
 30
0.0
 11
7.6578264135114678
 21
11.33478167568151
 31
0.0
  0
LINE
  5
105
  8
0
 62
     0
 10
6.9644660940672631
 20
10.5
 30
0.0
 11
7.6944912095729929
 21
11.230025115505731
 31
0.0
  0
LINE
  5
106
  8
0
 62
     0
 10
7.1058874503045724
 20
10.5
 30
0.0
 11
7.7311560056345181
 21
11.12526855532994
 31
0.0
  0
LINE
  5
107
  8
0
 62
     0
 10
7.2473088065418807
 20
10.5
 30
0.0
 11
7.7678208016960433
 21
11.020511995154161
 31
0.0
  0
LINE
  5
108
  8
0
 62
     0
 10
7.3887301627791908
 20
10.5
 30
0.0
 11
7.8044855977575667
 21
10.915755434978371
 31
0.0
  0
LINE
  5
109
  8
0
 62
     0
 10
7.5301515190165
 20
10.5
 30
0.0
 11
7.8411503938190918
 21
10.810998874802589
 31
0.0
  0
LINE
  5
10A
  8
0
 62
     0
 10
7.671572875253811
 20
10.5
 30
0.0
 11
7.877815189880617
 21
10.706242314626801
 31
0.0
  0
LINE
  5
10B
  8
0
 62
     0
 10
7.8129942314911203
 20
10.5
 30
0.0
 11
7.9144799859421413
 21
10.601485754451019
 31
0.0
  0
ENDBLK
  5
10D
  8
0
  0
BLOCK
  8
0
  2
*X6
 70
     1
 10
0.0
 20
0.0
 30
0.0
  3
*X6
  1

  0
LINE
  5
10F
  8
0
 62
     0
 10
8.4400000000000013
 20
14.80396103067892
 30
0.0
 11
10.324999999999999
 21
16.688961030678929
 31
0.0
  0
LINE
  5
110
  8
0
 62
     0
 10
8.4400000000000013
 20
14.94538238691624
 30
0.0
 11
10.324999999999999
 21
16.830382386916231
 31
0.0
  0
LINE
  5
111
  8
0
 62
     0
 10
8.4400000000000013
 20
15.08680374315354
 30
0.0
 11
10.324999999999999
 21
16.97180374315354
 31
0.0
  0
LINE
  5
112
  8
0
 62
     0
 10
8.4400000000000013
 20
15.22822509939086
 30
0.0
 11
10.324999999999999
 21
17.113225099390849
 31
0.0
  0
LINE
  5
113
  8
0
 62
     0
 10
8.4400000000000013
 20
15.36964645562816
 30
0.0
 11
10.324999999999999
 21
17.254646455628158
 31
0.0
  0
LINE
  5
114
  8
0
 62
     0
 10
8.4400000000000013
 20
15.51106781186547
 30
0.0
 11
10.324999999999999
 21
17.396067811865471
 31
0.0
  0
LINE
  5
115
  8
0
 62
     0
 10
8.4400000000000013
 20
15.652489168102781
 30
0.0
 11
10.28751083189721
 21
17.5
 31
0.0
  0
LINE
  5
116
  8
0
 62
     0
 10
8.4400000000000013
 20
15.79391052434009
 30
0.0
 11
10.146089475659901
 21
17.5
 31
0.0
  0
LINE
  5
117
  8
0
 62
     0
 10
8.4400000000000013
 20
15.935331880577399
 30
0.0
 11
10.00466811942259
 21
17.5
 31
0.0
  0
LINE
  5
118
  8
0
 62
     0
 10
8.4400000000000013
 20
16.07675323681471
 30
0.0
 11
9.8632467631852876
 21
17.5
 31
0.0
  0
LINE
  5
119
  8
0
 62
     0
 10
8.4400000000000013
 20
16.218174593052019
 30
0.0
 11
9.7218254069479801
 21
17.5
 31
0.0
  0
LINE
  5
11A
  8
0
 62
     0
 10
8.4400000000000013
 20
16.359595949289329
 30
0.0
 11
9.5804040507106691
 21
17.5
 31
0.0
  0
LINE
  5
11B
  8
0
 62
     0
 10
8.4400000000000013
 20
16.501017305526641
 30
0.0
 11
9.4389826944733581
 21
17.5
 31
0.0
  0
LINE
  5
11C
  8
0
 62
     0
 10
8.4400000000000013
 20
16.642438661763951
 30
0.0
 11
9.2975613382360471
 21
17.5
 31
0.0
  0
LINE
  5
11D
  8
0
 62
     0
 10
8.4400000000000013
 20
16.78386001800126
 30
0.0
 11
9.1561399819987415
 21
17.5
 31
0.0
  0
LINE
  5
11E
  8
0
 62
     0
 10
8.4400000000000013
 20
16.925281374238569
 30
0.0
 11
9.0147186257614322
 21
17.5
 31
0.0
  0
LINE
  5
11F
  8
0
 62
     0
 10
8.4400000000000013
 20
17.066702730475878
 30
0.0
 11
8.8732972695241212
 21
17.5
 31
0.0
  0
LINE
  5
120
  8
0
 62
     0
 10
8.4400000000000013
 20
17.208124086713191
 30
0.0
 11
8.731875913286812
 21
17.5
 31
0.0
  0
LINE
  5
121
  8
0
 62
     0
 10
8.4400000000000013
 20
17.3495454429505
 30
0.0
 11
8.5904545570495028
 21
17.5
 31
0.0
  0
LINE
  5
122
  8
0
 62
     0
 10
8.4400000000000013
 20
17.490966799187809
 30
0.0
 11
8.4490332008121936
 21
17.5
 31
0.0
  0
LINE
  5
123
  8
0
 62
     0
 10
8.4400000000000013
 20
14.66253967444162
 30
0.0
 11
10.324999999999999
 21
16.547539674441619
 31
0.0
  0
LINE
  5
124
  8
0
 62
     0
 10
8.4400000000000013
 20
14.52111831820431
 30
0.0
 11
10.324999999999999
 21
16.40611831820431
 31
0.0
  0
LINE
  5
125
  8
0
 62
     0
 10
8.4400000000000013
 20
14.379696961966999
 30
0.0
 11
10.324999999999999
 21
16.264696961967001
 31
0.0
  0
LINE
  5
126
  8
0
 62
     0
 10
8.4400000000000013
 20
14.23827560572969
 30
0.0
 11
10.324999999999999
 21
16.123275605729692
 31
0.0
  0
LINE
  5
127
  8
0
 62
     0
 10
8.5581457505076202
 20
14.214999999999989
 30
0.0
 11
10.324999999999999
 21
15.981854249492381
 31
0.0
  0
LINE
  5
128
  8
0
 62
     0
 10
8.6995671067449294
 20
14.214999999999989
 30
0.0
 11
10.324999999999999
 21
15.84043289325507
 31
0.0
  0
LINE
  5
129
  8
0
 62
     0
 10
8.8409884629822386
 20
14.214999999999989
 30
0.0
 11
10.324999999999999
 21
15.699011537017761
 31
0.0
  0
LINE
  5
12A
  8
0
 62
     0
 10
8.9824098192195478
 20
14.214999999999989
 30
0.0
 11
10.324999999999999
 21
15.55759018078045
 31
0.0
  0
LINE
  5
12B
  8
0
 62
     0
 10
9.1238311754568571
 20
14.214999999999989
 30
0.0
 11
10.324999999999999
 21
15.41616882454314
 31
0.0
  0
LINE
  5
12C
  8
0
 62
     0
 10
9.2652525316941681
 20
14.214999999999989
 30
0.0
 11
10.324999999999999
 21
15.274747468305829
 31
0.0
  0
LINE
  5
12D
  8
0
 62
     0
 10
9.4066738879314773
 20
14.214999999999989
 30
0.0
 11
10.324999999999999
 21
15.13332611206852
 31
0.0
  0
LINE
  5
12E
  8
0
 62
     0
 10
9.5480952441687865
 20
14.214999999999989
 30
0.0
 11
10.324999999999999
 21
14.991904755831211
 31
0.0
  0
LINE
  5
12F
  8
0
 62
     0
 10
9.6895166004060957
 20
14.214999999999989
 30
0.0
 11
10.324999999999999
 21
14.8504833995939
 31
0.0
  0
LINE
  5
130
  8
0
 62
     0
 10
9.8309379566434032
 20
14.214999999999989
 30
0.0
 11
10.324999999999999
 21
14.709062043356591
 31
0.0
  0
LINE
  5
131
  8
0
 62
     0
 10
9.9723593128807142
 20
14.214999999999989
 30
0.0
 11
10.324999999999999
 21
14.56764068711928
 31
0.0
  0
LINE
  5
132
  8
0
 62
     0
 10
10.11378066911802
 20
14.214999999999989
 30
0.0
 11
10.324999999999999
 21
14.42621933088197
 31
0.0
  0
LINE
  5
133
  8
0
 62
     0
 10
10.255202025355331
 20
14.214999999999989
 30
0.0
 11
10.324999999999999
 21
14.28479797464467
 31
0.0
  0
ENDBLK
  5
135
  8
0
  0
BLOCK
  8
0
  2
*X7
 70
     1
 10
0.0
 20
0.0
 30
0.0
  3
*X7
  1

  0
LINE
  5
137
  8
0
 62
     0
 10
8.4400000000000013
 20
11.12700576850888
 30
0.0
 11
10.324999999999999
 21
13.01200576850888
 31
0.0
  0
LINE
  5
138
  8
0
 62
     0
 10
8.4400000000000013
 20
11.268427124746189
 30
0.0
 11
10.324999999999999
 21
13.153427124746189
 31
0.0
  0
LINE
  5
139
  8
0
 62
     0
 10
8.4400000000000013
 20
11.4098484809835
 30
0.0
 11
10.324999999999999
 21
13.2948484809835
 31
0.0
  0
LINE
  5
13A
  8
0
 62
     0
 10
8.4400000000000013
 20
11.55126983722081
 30
0.0
 11
10.324999999999999
 21
13.436269837220809
 31
0.0
  0
LINE
  5
13B
  8
0
 62
     0
 10
8.4400000000000013
 20
11.692691193458121
 30
0.0
 11
10.324999999999999
 21
13.57769119345812
 31
0.0
  0
LINE
  5
13C
  8
0
 62
     0
 10
8.4400000000000013
 20
11.83411254969543
 30
0.0
 11
10.324999999999999
 21
13.71911254969543
 31
0.0
  0
LINE
  5
13D
  8
0
 62
     0
 10
8.4400000000000013
 20
11.975533905932741
 30
0.0
 11
10.249466094067261
 21
13.785
 31
0.0
  0
LINE
  5
13E
  8
0
 62
     0
 10
8.4400000000000013
 20
12.116955262170039
 30
0.0
 11
10.10804473782995
 21
13.785
 31
0.0
  0
LINE
  5
13F
  8
0
 62
     0
 10
8.4400000000000013
 20
12.258376618407359
 30
0.0
 11
9.9666233815926422
 21
13.785
 31
0.0
  0
LINE
  5
140
  8
0
 62
     0
 10
8.4400000000000013
 20
12.39979797464466
 30
0.0
 11
9.8252020253553312
 21
13.785
 31
0.0
  0
LINE
  5
141
  8
0
 62
     0
 10
8.4400000000000013
 20
12.541219330881971
 30
0.0
 11
9.6837806691180237
 21
13.785
 31
0.0
  0
LINE
  5
142
  8
0
 62
     0
 10
8.4400000000000013
 20
12.68264068711928
 30
0.0
 11
9.5423593128807145
 21
13.785
 31
0.0
  0
LINE
  5
143
  8
0
 62
     0
 10
8.4400000000000013
 20
12.824062043356591
 30
0.0
 11
9.4009379566434053
 21
13.785
 31
0.0
  0
LINE
  5
144
  8
0
 62
     0
 10
8.4400000000000013
 20
12.9654833995939
 30
0.0
 11
9.259516600406096
 21
13.785
 31
0.0
  0
LINE
  5
145
  8
0
 62
     0
 10
8.4400000000000013
 20
13.106904755831209
 30
0.0
 11
9.118095244168785
 21
13.785
 31
0.0
  0
LINE
  5
146
  8
0
 62
     0
 10
8.4400000000000013
 20
13.24832611206852
 30
0.0
 11
8.9766738879314776
 21
13.785
 31
0.0
  0
LINE
  5
147
  8
0
 62
     0
 10
8.4400000000000013
 20
13.38974746830583
 30
0.0
 11
8.8352525316941666
 21
13.785
 31
0.0
  0
LINE
  5
148
  8
0
 62
     0
 10
8.4400000000000013
 20
13.531168824543141
 30
0.0
 11
8.6938311754568574
 21
13.785
 31
0.0
  0
LINE
  5
149
  8
0
 62
     0
 10
8.4400000000000013
 20
13.67259018078045
 30
0.0
 11
8.5524098192195481
 21
13.785
 31
0.0
  0
LINE
  5
14A
  8
0
 62
     0
 10
8.4400000000000013
 20
10.985584412271569
 30
0.0
 11
10.324999999999999
 21
12.870584412271571
 31
0.0
  0
LINE
  5
14B
  8
0
 62
     0
 10
8.4400000000000013
 20
10.84416305603426
 30
0.0
 11
10.324999999999999
 21
12.72916305603426
 31
0.0
  0
LINE
  5
14C
  8
0
 62
     0
 10
8.4400000000000013
 20
10.702741699796951
 30
0.0
 11
10.324999999999999
 21
12.58774169979695
 31
0.0
  0
LINE
  5
14D
  8
0
 62
     0
 10
8.4400000000000013
 20
10.56132034355964
 30
0.0
 11
10.324999999999999
 21
12.446320343559639
 31
0.0
  0
LINE
  5
14E
  8
0
 62
     0
 10
8.5201010126776673
 20
10.5
 30
0.0
 11
10.324999999999999
 21
12.30489898732233
 31
0.0
  0
LINE
  5
14F
  8
0
 62
     0
 10
8.6615223689149765
 20
10.5
 30
0.0
 11
10.324999999999999
 21
12.163477631085019
 31
0.0
  0
LINE
  5
150
  8
0
 62
     0
 10
8.8029437251522857
 20
10.5
 30
0.0
 11
10.324999999999999
 21
12.02205627484771
 31
0.0
  0
LINE
  5
151
  8
0
 62
     0
 10
8.9443650813895932
 20
10.5
 30
0.0
 11
10.324999999999999
 21
11.880634918610401
 31
0.0
  0
LINE
  5
152
  8
0
 62
     0
 10
9.0857864376269042
 20
10.5
 30
0.0
 11
10.324999999999999
 21
11.73921356237309
 31
0.0
  0
LINE
  5
153
  8
0
 62
     0
 10
9.2272077938642134
 20
10.5
 30
0.0
 11
10.324999999999999
 21
11.597792206135781
 31
0.0
  0
LINE
  5
154
  8
0
 62
     0
 10
9.3686291501015244
 20
10.5
 30
0.0
 11
10.324999999999999
 21
11.45637084989847
 31
0.0
  0
LINE
  5
155
  8
0
 62
     0
 10
9.5100505063388336
 20
10.5
 30
0.0
 11
10.324999999999999
 21
11.31494949366116
 31
0.0
  0
LINE
  5
156
  8
0
 62
     0
 10
9.6514718625761429
 20
10.5
 30
0.0
 11
10.324999999999999
 21
11.173528137423849
 31
0.0
  0
LINE
  5
157
  8
0
 62
     0
 10
9.7928932188134521
 20
10.5
 30
0.0
 11
10.324999999999999
 21
11.032106781186551
 31
0.0
  0
LINE
  5
158
  8
0
 62
     0
 10
9.9343145750507613
 20
10.5
 30
0.0
 11
10.324999999999999
 21
10.89068542494924
 31
0.0
  0
LINE
  5
159
  8
0
 62
     0
 10
10.075735931288071
 20
10.5
 30
0.0
 11
10.324999999999999
 21
10.749264068711931
 31
0.0
  0
LINE
  5
15A
  8
0
 62
     0
 10
10.21715728752538
 20
10.5
 30
0.0
 11
10.324999999999999
 21
10.607842712474611
 31
0.0
  0
ENDBLK
  5
15C
  8
0
  0
BLOCK
  8
0
  2
*X8
 70
     1
 10
0.0
 20
0.0
 30
0.0
  3
*X8
  1

  0
LINE
  5
15E
  8
0
 62
     0
 10
10.75499999999999
 20
14.85621933088197
 30
0.0
 11
12.606651951193619
 21
16.70787128207559
 31
0.0
  0
LINE
  5
15F
  8
0
 62
     0
 10
10.75499999999999
 20
14.997640687119279
 30
0.0
 11
12.552688730876721
 21
16.795329417996001
 31
0.0
  0
LINE
  5
160
  8
0
 62
     0
 10
10.75499999999999
 20
15.13906204335659
 30
0.0
 11
12.49395055341158
 21
16.878012596768169
 31
0.0
  0
LINE
  5
161
  8
0
 62
     0
 10
10.75499999999999
 20
15.2804833995939
 30
0.0
 11
12.43059182218045
 21
16.956075221774359
 31
0.0
  0
LINE
  5
162
  8
0
 62
     0
 10
10.75499999999999
 20
15.421904755831211
 30
0.0
 11
12.362704050492461
 21
17.029608806323679
 31
0.0
  0
LINE
  5
163
  8
0
 62
     0
 10
10.75499999999999
 20
15.56332611206852
 30
0.0
 11
12.290321731415871
 21
17.09864784348439
 31
0.0
  0
LINE
  5
164
  8
0
 62
     0
 10
10.75499999999999
 20
15.704747468305831
 30
0.0
 11
12.21342448184601
 21
17.163171950151838
 31
0.0
  0
LINE
  5
165
  8
0
 62
     0
 10
10.75499999999999
 20
15.84616882454314
 30
0.0
 11
12.13193578000449
 21
17.22310460454764
 31
0.0
  0
LINE
  5
166
  8
0
 62
     0
 10
10.75499999999999
 20
15.987590180780449
 30
0.0
 11
12.045718109380029
 21
17.278308290160481
 31
0.0
  0
LINE
  5
167
  8
0
 62
     0
 10
10.75499999999999
 20
16.12901153701776
 30
0.0
 11
11.95456376436614
 21
17.3285753013839
 31
0.0
  0
LINE
  5
168
  8
0
 62
     0
 10
10.75499999999999
 20
16.270432893255069
 30
0.0
 11
11.858179799954581
 21
17.373612693209651
 31
0.0
  0
LINE
  5
169
  8
0
 62
     0
 10
10.75499999999999
 20
16.411854249492372
 30
0.0
 11
11.756164352832529
 21
17.413018602324911
 31
0.0
  0
LINE
  5
16A
  8
0
 62
     0
 10
10.75499999999999
 20
16.553275605729691
 30
0.0
 11
11.647969296643449
 21
17.446244902373142
 31
0.0
  0
LINE
  5
16B
  8
0
 62
     0
 10
10.75499999999999
 20
16.69469696196699
 30
0.0
 11
11.53283975161226
 21
17.47253671357926
 31
0.0
  0
LINE
  5
16C
  8
0
 62
     0
 10
10.75499999999999
 20
16.83611831820431
 30
0.0
 11
11.409711496309511
 21
17.49082981451382
 31
0.0
  0
LINE
  5
16D
  8
0
 62
     0
 10
10.75499999999999
 20
16.977539674441608
 30
0.0
 11
11.2770250730259
 21
17.49956474746751
 31
0.0
  0
LINE
  5
16E
  8
0
 62
     0
 10
10.75499999999999
 20
17.118961030678928
 30
0.0
 11
11.13603830972073
 21
17.499999340399661
 31
0.0
  0
LINE
  5
16F
  8
0
 62
     0
 10
10.75499999999999
 20
17.260382386916231
 30
0.0
 11
10.994616953483421
 21
17.499999340399661
 31
0.0
  0
LINE
  5
170
  8
0
 62
     0
 10
10.75499999999999
 20
17.40180374315354
 30
0.0
 11
10.85319559724611
 21
17.499999340399661
 31
0.0
  0
LINE
  5
171
  8
0
 62
     0
 10
10.75499999999999
 20
14.714797974644661
 30
0.0
 11
12.655612411288869
 21
16.61541038593354
 31
0.0
  0
LINE
  5
172
  8
0
 62
     0
 10
10.75499999999999
 20
14.57337661840735
 30
0.0
 11
12.699251980783631
 21
16.517628599190981
 31
0.0
  0
LINE
  5
173
  8
0
 62
     0
 10
10.75499999999999
 20
14.431955262170041
 30
0.0
 11
12.73713563115315
 21
16.414090893323191
 31
0.0
  0
LINE
  5
174
  8
0
 62
     0
 10
10.75499999999999
 20
14.29053390593273
 30
0.0
 11
12.768669326167331
 21
16.304203232100068
 31
0.0
  0
LINE
  5
175
  8
0
 62
     0
 10
10.82088745030457
 20
14.215
 30
0.0
 11
12.79303113012304
 21
16.187143679818458
 31
0.0
  0
LINE
  5
176
  8
0
 62
     0
 10
10.962308806541881
 20
14.215
 30
0.0
 11
12.809052621510171
 21
16.061743814968288
 31
0.0
  0
LINE
  5
177
  8
0
 62
     0
 10
11.10373016277919
 20
14.215
 30
0.0
 11
12.81499948851172
 21
15.92626932573253
 31
0.0
  0
LINE
  5
178
  8
0
 62
     0
 10
11.245151519016501
 20
14.215
 30
0.0
 11
12.808122251093319
 21
15.77797073207682
 31
0.0
  0
LINE
  5
179
  8
0
 62
     0
 10
11.38657287525381
 20
14.215
 30
0.0
 11
12.783588631445481
 21
15.612015756191671
 31
0.0
  0
LINE
  5
17A
  8
0
 62
     0
 10
11.52799423149111
 20
14.215
 30
0.0
 11
12.731254429283981
 21
15.41826019779286
 31
0.0
  0
LINE
  5
17B
  8
0
 62
     0
 10
11.66941558772843
 20
14.215
 30
0.0
 11
11.999808236352161
 21
14.54539264862373
 31
0.0
  0
LINE
  5
17C
  8
0
 62
     0
 10
12.00867663314944
 20
14.55426104542102
 30
0.0
 11
12.61960735137626
 21
15.16519176364783
 31
0.0
  0
LINE
  5
17D
  8
0
 62
     0
 10
11.810836943965731
 20
14.215
 30
0.0
 11
12.108037487788099
 21
14.51220054382236
 31
0.0
  0
LINE
  5
17E
  8
0
 62
     0
 10
11.95225830020304
 20
14.215
 30
0.0
 11
12.20328965915022
 21
14.466031358947181
 31
0.0
  0
LINE
  5
17F
  8
0
 62
     0
 10
12.093679656440351
 20
14.215
 30
0.0
 11
12.294643919212939
 21
14.415964262772579
 31
0.0
  0
LINE
  5
180
  8
0
 62
     0
 10
12.23510101267766
 20
14.215
 30
0.0
 11
12.382266506587831
 21
14.36216549391016
 31
0.0
  0
LINE
  5
181
  8
0
 62
     0
 10
12.376522368914969
 20
14.215
 30
0.0
 11
12.46628661553598
 21
14.30476424662101
 31
0.0
  0
LINE
  5
182
  8
0
 62
     0
 10
12.51794372515228
 20
14.215
 30
0.0
 11
12.54680174666866
 21
14.243858021516379
 31
0.0
  0
ENDBLK
  5
184
  8
0
  0
BLOCK
  8
0
  2
*X9
 70
     1
 10
0.0
 20
0.0
 30
0.0
  3
*X9
  1

  0
LINE
  5
186
  8
0
 62
     0
 10
10.75499999999999
 20
10.89642135623731
 30
0.0
 11
13.20345567881146
 21
13.344877035048761
 31
0.0
  0
LINE
  5
187
  8
0
 62
     0
 10
10.75499999999999
 20
11.03784271247461
 30
0.0
 11
13.162389701849291
 21
13.4452324143239
 31
0.0
  0
LINE
  5
188
  8
0
 62
     0
 10
10.75499999999999
 20
11.17926406871192
 30
0.0
 11
13.11715841360858
 21
13.54142248232051
 31
0.0
  0
LINE
  5
189
  8
0
 62
     0
 10
10.75499999999999
 20
11.320685424949231
 30
0.0
 11
13.06798435218605
 21
13.633669777135291
 31
0.0
  0
LINE
  5
18A
  8
0
 62
     0
 10
10.75499999999999
 20
11.46210678118654
 30
0.0
 11
13.015043382565789
 21
13.722150163752341
 31
0.0
  0
LINE
  5
18B
  8
0
 62
     0
 10
10.75499999999999
 20
11.603528137423851
 30
0.0
 11
12.936471862576139
 21
13.785
 31
0.0
  0
LINE
  5
18C
  8
0
 62
     0
 10
10.75499999999999
 20
11.74494949366116
 30
0.0
 11
12.79505050633883
 21
13.785
 31
0.0
  0
LINE
  5
18D
  8
0
 62
     0
 10
10.75499999999999
 20
11.886370849898469
 30
0.0
 11
12.653629150101519
 21
13.785
 31
0.0
  0
LINE
  5
18E
  8
0
 62
     0
 10
10.75499999999999
 20
12.02779220613578
 30
0.0
 11
12.51220779386421
 21
13.785
 31
0.0
  0
LINE
  5
18F
  8
0
 62
     0
 10
10.75499999999999
 20
12.169213562373089
 30
0.0
 11
12.370786437626901
 21
13.785
 31
0.0
  0
LINE
  5
190
  8
0
 62
     0
 10
10.75499999999999
 20
12.3106349186104
 30
0.0
 11
12.22936508138959
 21
13.785
 31
0.0
  0
LINE
  5
191
  8
0
 62
     0
 10
10.75499999999999
 20
12.45205627484771
 30
0.0
 11
12.087943725152281
 21
13.785
 31
0.0
  0
LINE
  5
192
  8
0
 62
     0
 10
10.75499999999999
 20
12.593477631085021
 30
0.0
 11
11.94652236891497
 21
13.785
 31
0.0
  0
LINE
  5
193
  8
0
 62
     0
 10
10.75499999999999
 20
12.73489898732233
 30
0.0
 11
11.80510101267766
 21
13.785
 31
0.0
  0
LINE
  5
194
  8
0
 62
     0
 10
10.75499999999999
 20
12.876320343559639
 30
0.0
 11
11.663679656440349
 21
13.785
 31
0.0
  0
LINE
  5
195
  8
0
 62
     0
 10
10.75499999999999
 20
13.01774169979695
 30
0.0
 11
11.52225830020304
 21
13.785
 31
0.0
  0
LINE
  5
196
  8
0
 62
     0
 10
10.75499999999999
 20
13.159163056034259
 30
0.0
 11
11.380836943965731
 21
13.785
 31
0.0
  0
LINE
  5
197
  8
0
 62
     0
 10
10.75499999999999
 20
13.30058441227157
 30
0.0
 11
11.23941558772842
 21
13.785
 31
0.0
  0
LINE
  5
198
  8
0
 62
     0
 10
10.75499999999999
 20
13.44200576850888
 30
0.0
 11
11.097994231491111
 21
13.785
 31
0.0
  0
LINE
  5
199
  8
0
 62
     0
 10
10.75499999999999
 20
13.583427124746191
 30
0.0
 11
10.95657287525381
 21
13.785
 31
0.0
  0
LINE
  5
19A
  8
0
 62
     0
 10
10.75499999999999
 20
13.7248484809835
 30
0.0
 11
10.815151519016499
 21
13.785
 31
0.0
  0
LINE
  5
19B
  8
0
 62
     0
 10
10.75499999999999
 20
10.75499999999999
 30
0.0
 11
13.240075755401939
 21
13.240075755401939
 31
0.0
  0
LINE
  5
19C
  8
0
 62
     0
 10
10.75499999999999
 20
10.61357864376269
 30
0.0
 11
13.271895082394099
 21
13.13047372615679
 31
0.0
  0
LINE
  5
19D
  8
0
 62
     0
 10
10.78284395292507
 20
10.50000124045045
 30
0.0
 11
13.29846094958801
 21
13.01561823711339
 31
0.0
  0
LINE
  5
19E
  8
0
 62
     0
 10
10.924265309162379
 20
10.50000124045045
 30
0.0
 11
13.319187396702601
 21
12.89492332799067
 31
0.0
  0
LINE
  5
19F
  8
0
 62
     0
 10
11.06568666539969
 20
10.50000124045045
 30
0.0
 11
13.333300102664319
 21
12.767614677715089
 31
0.0
  0
LINE
  5
1A0
  8
0
 62
     0
 10
11.207108021637
 20
10.50000124045045
 30
0.0
 11
13.339746332228669
 21
12.63263955104213
 31
0.0
  0
LINE
  5
1A1
  8
0
 62
     0
 10
11.351489740603171
 20
10.50296160317931
 30
0.0
 11
13.337038396820679
 21
12.48851025939682
 31
0.0
  0
LINE
  5
1A2
  8
0
 62
     0
 10
11.50699107720297
 20
10.517041583541801
 30
0.0
 11
13.32295841645819
 21
12.333008922797021
 31
0.0
  0
LINE
  5
1A3
  8
0
 62
     0
 10
11.677435573684759
 20
10.54606472378628
 30
0.0
 11
13.293935276213711
 21
12.16256442631523
 31
0.0
  0
LINE
  5
1A4
  8
0
 62
     0
 10
11.86929982173049
 20
10.59650761559471
 30
0.0
 11
13.243492384405281
 21
11.9707001782695
 31
0.0
  0
LINE
  5
1A5
  8
0
 62
     0
 10
12.097073973158301
 20
10.682860410785199
 30
0.0
 11
13.15713958921479
 21
11.74292602684169
 31
0.0
  0
LINE
  5
1A6
  8
0
 62
     0
 10
12.41538471448807
 20
10.85974979587767
 30
0.0
 11
12.980250204122321
 21
11.424615285511919
 31
0.0
  0
ENDBLK
  5
1A8
  8
0
  0
BLOCK
  8
0
  2
A$C4
 70
     0
 10
0.0
 20
0.0
 30
0.0
  3
A$C4
  1

  0
TEXT
  5
1AA
  8
RAAMI
 10
-0.2441931095487746
 20
5.2673594271254771
 30
0.0
 40
1.399999999999999
  1
PROJ
  7
ROMANS
  0
LINE
  5
1AB
  8
PISTKATK
  6
DASHDOT
 10
17.718000433552628
 20
3.1785155246459271
 30
0.0
 11
14.375424355772051
 21
3.1785155246459271
 31
0.0
  0
CIRCLE
  5
1AC
  8
RAAMI
 10
17.718000433552628
 20
3.1785155246459271
 30
0.0
 40
2.3436537871156058
  0
LINE
  5
1AD
  8
PISTKATK
  6
DASHDOT
 10
13.45279153821954
 20
3.1832370311318452
 30
0.0
 11
6.2161169275761656
 21
3.1832370311318452
 31
0.0
  0
LINE
  5
1AE
  8
RAAMI
 10
7.2990735606409771
 20
2.0289021840865331
 30
0.0
 11
12.30956819013314
 21
0.8745673370412134
 31
0.0
  0
LINE
  5
1AF
  8
RAAMI
 10
12.30956819013314
 20
5.4919067252224814
 30
0.0
 11
7.2990735606409771
 21
4.222138393472636
 31
0.0
  0
LINE
  5
1B0
  8
RAAMI
 10
7.2990735606409771
 20
4.222138393472636
 30
0.0
 11
7.2990735606409771
 21
2.0289021840865331
 31
0.0
  0
LINE
  5
1B1
  8
RAAMI
 10
12.30956819013314
 20
0.8745673370412134
 30
0.0
 11
12.30956819013314
 21
5.4919067252224814
 31
0.0
  0
LINE
  5
1B2
  8
PISTKATK
  6
DASHDOT
 10
17.718000433552628
 20
3.1785155246459271
 30
0.0
 11
17.718000433552628
 21
0.021462716470495
 31
0.0
  0
LINE
  5
1B3
  8
PISTKATK
  6
DASHDOT
 10
17.718000433552628
 20
3.1785155246459271
 30
0.0
 11
17.718000433552628
 21
6.3355683328213601
 31
0.0
  0
LINE
  5
1B4
  8
PISTKATK
  6
DASHDOT
 10
17.718000433552628
 20
3.1785155246459271
 30
0.0
 11
21.060576511333199
 21
3.1785155246459271
 31
0.0
  0
CIRCLE
  5
1B5
  8
RAAMI
 10
17.718000433552628
 20
3.1785155246459271
 30
0.0
 40
1.1146645383722451
  0
ENDBLK
  5
1B7
  8
0
  0
BLOCK
  8
0
  2
ABB3T
 70
     0
 10
0.0
 20
0.0
 30
0.0
  3
ABB3T
  1

  0
LINE
  5
1EF
  8
PAKSU
 10
0.0
 20
0.0
 30
0.0
 11
0.0
 21
262.5
 31
0.0
  0
LINE
  5
1F0
  8
PAKSU
 10
392.0
 20
262.5
 30
0.0
 11
392.0
 21
0.0
 31
0.0
  0
LINE
  5
1F1
  8
PAKSU
 10
0.0
 20
0.0
 30
0.0
 11
392.0
 21
0.0
 31
0.0
  0
TEXT
  5
1F2
  8
RAAMI
 10
42.0
 20
0.9523809523809526
 30
0.0
 40
2.5
  1
B
  7
ROMANS
  0
TEXT
  5
1F3
  8
RAAMI
 10
42.0
 20
5.354421058643247
 30
0.0
 40
2.5
  1
C
  7
ROMANS
  0
TEXT
  5
1F4
  8
RAAMI
 10
229.55338193795569
 20
1.5201476350649139
 30
0.0
 40
2.4300000000000002
  1
ABB Substation Automation Oy
 41
0.8
  7
ROMANS
  0
TEXT
  5
1F5
  8
RAAMI
 10
283.97425333656832
 20
7.0
 30
0.0
 40
1.399999999999999
  1
OSASTO DEPT.
  7
ROMANS
  0
TEXT
  5
1F6
  8
RAAMI
 10
210.0
 20
32.0
 30
0.0
 40
1.399999999999999
  1
TEKI  PREPARED
  7
ROMANS
  0
LINE
  5
1F7
  8
OHUT
 10
281.97425333656832
 20
9.5
 30
0.0
 11
281.97425333656832
 21
0.0
 31
0.0
  0
LINE
  5
1F8
  8
OHUT
 10
257.0
 20
9.5
 30
0.0
 11
257.0
 21
35.0
 31
0.0
  0
LINE
  5
1F9
  8
OHUT
 10
40.499999999999993
 20
4.5
 30
0.0
 11
209.0
 21
4.5
 31
0.0
  0
LINE
  5
1FA
  8
OHUT
 10
46.5
 20
0.0
 30
0.0
 11
46.5
 21
9.0
 31
0.0
  0
LINE
  5
1FB
  8
OHUT
 10
46.5
 20
9.0
 30
0.0
 11
209.0
 21
9.0
 31
0.0
  0
TEXT
  5
1FC
  8
RAAMI
 10
27.5
 20
2.2333333333333338
 30
0.0
 40
1.399999999999999
  1
REVISION
  7
ROMANS
  0
TEXT
  5
1FD
  8
RAAMI
 10
27.5
 20
4.5
 30
0.0
 40
1.399999999999999
  1
MUUTOS
  7
ROMANS
  0
LINE
  5
1FE
  8
OHUT
 10
282.0
 20
9.5
 30
0.0
 11
282.0
 21
18.0
 31
0.0
  0
LINE
  5
1FF
  8
RAAMI
 10
209.9499999999999
 20
1.5
 30
0.0
 11
211.6999999999999
 21
1.5
 31
0.0
  0
LINE
  5
200
  8
OHUT
 10
369.5
 20
18.0
 30
0.0
 11
369.5
 21
0.0
 31
0.0
  0
TEXT
  5
201
  8
RAAMI
 10
371.0
 20
7.0
 30
0.0
 40
1.399999999999999
  1
PAINOS  REVISION
  7
ROMANS
  0
TEXT
  5
202
  8
RAAMI
 10
309.0
 20
32.5
 30
0.0
 40
1.399999999999999
  1
NIMITYS  NAME
  7
ROMANS
  0
TEXT
  5
203
  8
RAAMI
 10
259.0
 20
15.5
 30
0.0
 40
1.399999999999999
  1
SUHDE  SCALE
  7
ROMANS
  0
TEXT
  5
204
  8
RAAMI
 10
259.0
 20
23.5
 30
0.0
 40
1.399999999999999
  1
TOLERANSSIT  TOLERANCES
  7
ROMANS
  0
TEXT
  5
205
  8
RAAMI
 10
259.0
 20
32.5
 30
0.0
 40
1.399999999999999
  1
LIITTYY  CONCERNING
  7
ROMANS
  0
LINE
  5
206
  8
OHUT
 10
307.0
 20
0.0
 30
0.0
 11
307.0
 21
35.0
 31
0.0
  0
TEXT
  5
207
  8
RAAMI
 10
209.74283472586629
 20
15.46666666666666
 30
0.0
 40
1.399999999999999
  1
HYVÄKSYI  APPROVED
  7
ROMANS
  0
TEXT
  5
208
  8
RAAMI
 10
210.0
 20
23.733333333333331
 30
0.0
 40
1.399999999999999
  1
TARKASTI  CHECKED
  7
ROMANS
  0
LINE
  5
209
  8
PAKSU
 10
209.0
 20
35.0
 30
0.0
 11
392.0
 21
35.0
 31
0.0
  0
LINE
  5
20A
  8
OHUT
 10
209.0
 20
26.5
 30
0.0
 11
307.0
 21
26.5
 31
0.0
  0
LINE
  5
20B
  8
OHUT
 10
209.0
 20
9.5
 30
0.0
 11
392.0
 21
9.5
 31
0.0
  0
LINE
  5
20C
  8
OHUT
 10
209.0
 20
18.0
 30
0.0
 11
392.0
 21
18.0
 31
0.0
  0
LINE
  5
20D
  8
PAKSU
 10
392.0
 20
0.0
 30
0.0
 11
392.0
 21
35.0
 31
0.0
  0
LINE
  5
20E
  8
PAKSU
 10
209.0
 20
0.0
 30
0.0
 11
209.0
 21
35.0
 31
0.0
  0
LINE
  5
20F
  8
PAKSU
 10
209.0
 20
0.0
 30
0.0
 11
392.0
 21
0.0
 31
0.0
  0
LINE
  5
210
  8
PAKSU
 10
0.0
 20
262.5
 30
0.0
 11
392.0
 21
262.5
 31
0.0
  0
TEXT
  5
211
  8
RAAMI
 10
309.0
 20
7.0
 30
0.0
 40
1.399999999999999
  1
PIIRUSTUS NO  DRAWING NO
  7
ROMANS
  0
INSERT
  5
212
  8
RAAMI
  2
LOGO
 10
209.0
 20
-9.0
 30
0.0
  0
TEXT
  5
213
  8
RAAMI
 10
283.55482520994389
 20
15.500966000653291
 30
0.0
 40
1.399999999999999
  1
PROJ
  7
ROMANS
  0
LINE
  5
214
  8
RAAMI
  6
DASHDOT
 10
301.51701875304531
 20
13.41212209817375
 30
0.0
 11
298.17444267526469
 21
13.41212209817375
 31
0.0
  0
CIRCLE
  5
215
  8
RAAMI
 10
301.51701875304531
 20
13.41212209817375
 30
0.0
 40
2.3436537871156058
  0
LINE
  5
216
  8
RAAMI
  6
DASHDOT
 10
297.2518098577122
 20
13.416843604659659
 30
0.0
 11
290.01513524706883
 21
13.416843604659659
 31
0.0
  0
LINE
  5
217
  8
RAAMI
 10
291.09809188013361
 20
12.26250875761435
 30
0.0
 11
296.10858650962581
 21
11.108173910569031
 31
0.0
  0
LINE
  5
218
  8
RAAMI
 10
296.10858650962581
 20
15.7255132987503
 30
0.0
 11
291.09809188013361
 21
14.455744967000459
 31
0.0
  0
LINE
  5
219
  8
RAAMI
 10
291.09809188013361
 20
14.455744967000459
 30
0.0
 11
291.09809188013361
 21
12.26250875761435
 31
0.0
  0
LINE
  5
21A
  8
RAAMI
 10
296.10858650962581
 20
11.108173910569031
 30
0.0
 11
296.10858650962581
 21
15.7255132987503
 31
0.0
  0
LINE
  5
21B
  8
RAAMI
  6
DASHDOT
 10
301.51701875304531
 20
13.41212209817375
 30
0.0
 11
301.51701875304531
 21
10.25506928999831
 31
0.0
  0
LINE
  5
21C
  8
RAAMI
  6
DASHDOT
 10
301.51701875304531
 20
13.41212209817375
 30
0.0
 11
301.51701875304531
 21
16.569174906349179
 31
0.0
  0
LINE
  5
21D
  8
RAAMI
  6
DASHDOT
 10
301.51701875304531
 20
13.41212209817375
 30
0.0
 11
304.85959483082593
 21
13.41212209817375
 31
0.0
  0
CIRCLE
  5
21E
  8
RAAMI
 10
301.51701875304531
 20
13.41212209817375
 30
0.0
 40
1.1146645383722451
  0
TEXT
  5
21F
  8
RAAMI
 10
371.0
 20
15.058467927016061
 30
0.0
 40
1.399999999999999
  1
LEHTI   SHEET
  7
ROMANS
  0
ENDBLK
  5
221
  8
0
  0
BLOCK
  8
0
  2
VT
 70
     0
 10
0.0
 20
0.0
 30
0.0
  3
VT
  1

  0
LINE
  5
381
  8
TEXT25
 10
-20.0
 20
0.0
 30
0.0
 11
0.0
 21
0.0
 31
0.0
  0
LINE
  5
382
  8
TEXT25
 10
-20.0
 20
9.0
 30
0.0
 11
0.0
 21
9.0
 31
0.0
  0
POLYLINE
  5
383
  8
TEXT25
 66
     1
 10
0.0
 20
0.0
 30
0.0
  0
VERTEX
  5
7CB
  8
TEXT25
 10
-26.0
 20
4.4999999999999707
 30
0.0
 42
1.0
  0
VERTEX
  5
7CC
  8
TEXT25
 10
-26.0
 20
8.9999999999999716
 30
0.0
 42
-0.9999999999999998
  0
SEQEND
  5
7CD
  8
TEXT25
  0
POLYLINE
  5
384
  8
TEXT25
 66
     1
 10
0.0
 20
0.0
 30
0.0
  0
VERTEX
  5
7CE
  8
TEXT25
 10
-26.0
 20
-0.0000000000000284
 30
0.0
 42
1.0
  0
VERTEX
  5
7CF
  8
TEXT25
 10
-26.0
 20
4.4999999999999707
 30
0.0
 42
-0.9999999999999998
  0
SEQEND
  5
7D0
  8
TEXT25
  0
LINE
  5
385
  8
TEXT25
 10
-26.0
 20
0.0
 30
0.0
 11
-32.0
 21
0.0
 31
0.0
  0
LINE
  5
386
  8
TEXT25
 10
-26.0
 20
9.0
 30
0.0
 11
-32.0
 21
9.0
 31
0.0
  0
LINE
  5
387
  8
TEXT25
 10
-23.0
 20
9.0
 30
0.0
 11
-23.0
 21
0.0
 31
0.0
  0
POLYLINE
  5
388
  8
TEXT25
 66
     1
 10
0.0
 20
0.0
 30
0.0
  0
VERTEX
  5
7D1
  8
TEXT25
 10
-20.0
 20
-0.0000000000000284
 30
0.0
 42
-1.0
  0
VERTEX
  5
7D2
  8
TEXT25
 10
-20.0
 20
4.4999999999999707
 30
0.0
 42
0.9999999999999998
  0
SEQEND
  5
7D3
  8
TEXT25
  0
POLYLINE
  5
389
  8
TEXT25
 66
     1
 10
0.0
 20
0.0
 30
0.0
  0
VERTEX
  5
7D4
  8
TEXT25
 10
-20.0
 20
4.4999999999999707
 30
0.0
 42
-1.0
  0
VERTEX
  5
7D5
  8
TEXT25
 10
-20.0
 20
8.9999999999999716
 30
0.0
 42
0.9999999999999998
  0
SEQEND
  5
7D6
  8
TEXT25
  0
ENDBLK
  5
369
  8
0
  0
BLOCK
  8
0
  2
CT
 70
     0
 10
0.0
 20
0.0
 30
0.0
  3
CT
  1

  0
LINE
  5
3A0
  8
TEXT25
 10
-20.0
 20
-9.0
 30
0.0
 11
0.0
 21
-9.0
 31
0.0
  0
POLYLINE
  5
3A1
  8
TEXT25
 66
     1
 10
0.0
 20
0.0
 30
0.0
  0
VERTEX
  5
7D8
  8
TEXT25
 10
-26.0
 20
-6.0
 30
0.0
 42
-0.9999999999999998
  0
VERTEX
  5
7D9
  8
TEXT25
 10
-26.0
 20
-9.0
 30
0.0
 42
1.0
  0
SEQEND
  5
7DA
  8
TEXT25
  0
POLYLINE
  5
3A2
  8
TEXT25
 66
     1
 10
0.0
 20
0.0
 30
0.0
  0
VERTEX
  5
7DB
  8
TEXT25
 10
-20.0
 20
-6.0
 30
0.0
 42
0.9999999999999998
  0
VERTEX
  5
7DC
  8
TEXT25
 10
-20.0
 20
-9.0
 30
0.0
 42
-1.0
  0
SEQEND
  5
7DD
  8
TEXT25
  0
LINE
  5
3A3
  8
TEXT25
 10
-26.0
 20
-9.0
 30
0.0
 11
-32.0
 21
-9.0
 31
0.0
  0
POLYLINE
  5
3A4
  8
TEXT25
 66
     1
 10
0.0
 20
0.0
 30
0.0
  0
VERTEX
  5
7DE
  8
TEXT25
 10
-26.0
 20
-3.0
 30
0.0
 42
-0.9999999999999998
  0
VERTEX
  5
7DF
  8
TEXT25
 10
-26.0
 20
-6.0
 30
0.0
 42
1.0
  0
SEQEND
  5
7E0
  8
TEXT25
  0
POLYLINE
  5
3A5
  8
TEXT25
 66
     1
 10
0.0
 20
0.0
 30
0.0
  0
VERTEX
  5
7E1
  8
TEXT25
 10
-26.0
 20
0.0
 30
0.0
 42
-0.9999999999999998
  0
VERTEX
  5
7E2
  8
TEXT25
 10
-26.0
 20
-3.0
 30
0.0
 42
1.0
  0
SEQEND
  5
7E3
  8
TEXT25
  0
LINE
  5
3A6
  8
TEXT25
 10
-26.0
 20
0.0
 30
0.0
 11
-32.0
 21
0.0
 31
0.0
  0
POLYLINE
  5
3A7
  8
TEXT25
 66
     1
 10
0.0
 20
0.0
 30
0.0
  0
VERTEX
  5
7E4
  8
TEXT25
 10
-20.0
 20
0.0
 30
0.0
 42
0.9999999999999998
  0
VERTEX
  5
7E5
  8
TEXT25
 10
-20.0
 20
-3.0
 30
0.0
 42
-1.0
  0
SEQEND
  5
7E6
  8
TEXT25
  0
LINE
  5
3A8
  8
TEXT25
 10
-20.0
 20
-3.0
 30
0.0
 11
-18.0
 21
-3.0
 31
0.0
  0
POLYLINE
  5
3A9
  8
TEXT25
 66
     1
 10
0.0
 20
0.0
 30
0.0
  0
VERTEX
  5
7E7
  8
TEXT25
 10
-20.0
 20
-3.0
 30
0.0
 42
0.9999999999999998
  0
VERTEX
  5
7E8
  8
TEXT25
 10
-20.0
 20
-6.0
 30
0.0
 42
-1.0
  0
SEQEND
  5
7E9
  8
TEXT25
  0
LINE
  5
3AA
  8
TEXT25
 10
-20.0
 20
0.0
 30
0.0
 11
-18.0
 21
0.0
 31
0.0
  0
LINE
  5
3AB
  8
TEXT25
 10
-13.5
 20
-3.0
 30
0.0
 11
0.0
 21
-3.0
 31
0.0
  0
LINE
  5
3AC
  8
TEXT25
 10
-13.5
 20
0.0
 30
0.0
 11
0.0
 21
0.0
 31
0.0
  0
TEXT
  5
3AD
  8
TEXT25
 10
-17.5
 20
-4.2380952380952399
 30
0.0
 40
2.0
  1
5A
 41
0.9
  7
T25
  0
TEXT
  5
3AE
  8
TEXT25
 10
-17.5
 20
-1.0
 30
0.0
 40
2.0
  1
1A
 41
0.9
  7
T25
  0
ENDBLK
  5
39F
  8
0
  0
BLOCK
  8
0
  2
SENS
 70
     0
 10
0.0
 20
0.0
 30
0.0
  3
SENS
  1

  0
LINE
  5
3F9
  8
TEXT25
 10
-8.0
 20
1.0
 30
0.0
 11
-25.0
 21
1.0
 31
0.0
  0
LINE
  5
3FA
  8
TEXT25
 10
-25.0
 20
4.0
 30
0.0
 11
-8.0
 21
4.0
 31
0.0
  0
LINE
  5
3FB
  8
TEXT25
 10
-34.0
 20
7.0
 30
0.0
 11
-25.0
 21
7.0
 31
0.0
  0
LINE
  5
3FC
  8
TEXT25
 10
-25.0
 20
-2.0
 30
0.0
 11
-34.0
 21
-2.0
 31
0.0
  0
POLYLINE
  5
3FD
  8
TEXT25
 66
     1
 10
0.0
 20
0.0
 30
0.0
 70
     1
  0
VERTEX
  5
7EB
  8
TEXT25
 10
-26.5
 20
6.0
 30
0.0
  0
VERTEX
  5
7EC
  8
TEXT25
 10
-26.5
 20
-1.0
 30
0.0
  0
VERTEX
  5
7ED
  8
TEXT25
 10
-33.0
 20
2.5
 30
0.0
  0
SEQEND
  5
7EE
  8
TEXT25
  0
TEXT
  5
3FE
  8
TEXT25
 10
-33.5
 20
-1.5
 30
0.0
 40
1.5
  1
DIFF
 41
0.9
  7
T25
  0
LINE
  5
3FF
  8
TEXT25
 10
-34.0
 20
-2.0
 30
0.0
 11
-34.0
 21
7.0
 31
0.0
  0
LINE
  5
400
  8
TEXT25
 10
-34.0
 20
2.5
 30
0.0
 11
-39.0
 21
2.5
 31
0.0
  0
LINE
  5
401
  8
TEXT25
 10
-40.0
 20
2.5
 30
0.0
 11
-38.0
 21
3.5
 31
0.0
  0
LINE
  5
402
  8
TEXT25
 10
-38.0
 20
3.5
 30
0.0
 11
-38.0
 21
1.5
 31
0.0
  0
LINE
  5
403
  8
TEXT25
 10
-38.0
 20
1.5
 30
0.0
 11
-40.0
 21
2.5
 31
0.0
  0
INSERT
  5
404
  8
TEXT25
  6
CONTINUOUS
  2
*U16
 10
0.0
 20
0.0
 30
0.0
1001
ACAD
1002
{
1000
R14_HATCH_DATA
1000
404
1011
1.0
1021
0.0
1031
0.0
1021
0.0
1031
0.0
1011
0.0
1021
0.0
1031
0.0
1021
1.0
1031
0.0
1011
0.0
1021
0.0
1031
0.0
1021
0.0
1031
1.0
1040
0.0
1010
0.0
1020
0.0
1030
1.0
1000
SOLID
1070
     1
1070
     0
1071
        1
1071
        1
1071
        3
1070
     1
1040
-40.0
1040
2.5
1040
-38.0
1040
3.5
1070
     1
1040
-38.0
1040
3.5
1040
-38.0
1040
1.5
1070
     1
1040
-38.0
1040
1.5
1040
-40.0
1040
2.5
1071
        0
1070
     0
1070
     1
1071
        1
1040
-194.0
1040
-114.0
1040
0.0
1002
}
  0
LINE
  5
405
  8
TEXT25
 10
-25.0
 20
7.0
 30
0.0
 11
-25.0
 21
-2.0
 31
0.0
  0
POLYLINE
  5
406
  8
TEXT25
 66
     1
 10
0.0
 20
0.0
 30
0.0
 70
     1
  0
VERTEX
  5
7F5
  8
TEXT25
 10
-8.0
 20
5.0
 30
0.0
  0
VERTEX
  5
7F6
  8
TEXT25
 10
0.0
 20
5.0
 30
0.0
  0
VERTEX
  5
7F7
  8
TEXT25
 10
0.0
 20
0.0
 30
0.0
  0
VERTEX
  5
7F8
  8
TEXT25
 10
-8.0
 20
0.0
 30
0.0
  0
SEQEND
  5
7F9
  8
TEXT25
  0
ENDBLK
  5
3F8
  8
0
  0
BLOCK
  8
0
  2
UFTRAFO
 70
     0
 10
0.0
 20
0.0
 30
0.0
  3
UFTRAFO
  1

  0
LINE
  5
700
  8
TEXT25
 10
11.750000196171349
 20
17.999999781705458
 30
0.0
 11
11.750000196171349
 21
6.5
 31
0.0
  0
POLYLINE
  5
701
  8
TEXT25
 66
     1
 10
0.0
 20
0.0
 30
0.0
  0
VERTEX
  5
86D
  8
TEXT25
 10
8.1500001961713338
 20
7.9999997817054691
 30
0.0
 42
1.0
  0
VERTEX
  5
86E
  8
TEXT25
 10
4.550000196171367
 20
7.9999997817054691
 30
0.0
 42
-0.9999999999999998
  0
SEQEND
  5
86F
  8
TEXT25
  0
POLYLINE
  5
702
  8
TEXT25
 66
     1
 10
0.0
 20
0.0
 30
0.0
  0
VERTEX
  5
870
  8
TEXT25
 10
0.9500001961713451
 20
7.9999997817054691
 30
0.0
 42
-1.0
  0
VERTEX
  5
871
  8
TEXT25
 10
4.550000196171367
 20
7.9999997817054691
 30
0.0
 42
0.9999999999999998
  0
SEQEND
  5
872
  8
TEXT25
  0
POLYLINE
  5
703
  8
TEXT25
 66
     1
 10
0.0
 20
0.0
 30
0.0
  0
VERTEX
  5
873
  8
TEXT25
 10
11.750000196171349
 20
7.9999997817054691
 30
0.0
 42
1.0
  0
VERTEX
  5
874
  8
TEXT25
 10
8.1500001961713338
 20
7.9999997817054691
 30
0.0
 42
-0.9999999999999998
  0
SEQEND
  5
875
  8
TEXT25
  0
POLYLINE
  5
704
  8
TEXT25
 66
     1
 10
0.0
 20
0.0
 30
0.0
  0
VERTEX
  5
876
  8
TEXT25
 10
25.15000019617133
 20
8.4999997817054691
 30
0.0
 42
1.0
  0
VERTEX
  5
877
  8
TEXT25
 10
21.550000196171371
 20
8.4999997817054691
 30
0.0
 42
-0.9999999999999998
  0
SEQEND
  5
878
  8
TEXT25
  0
POLYLINE
  5
705
  8
TEXT25
 66
     1
 10
0.0
 20
0.0
 30
0.0
  0
VERTEX
  5
879
  8
TEXT25
 10
28.75000019617136
 20
8.4999997817054691
 30
0.0
 42
1.0
  0
VERTEX
  5
87A
  8
TEXT25
 10
25.15000019617133
 20
8.4999997817054691
 30
0.0
 42
-0.9999999999999998
  0
SEQEND
  5
87B
  8
TEXT25
  0
POLYLINE
  5
706
  8
TEXT25
 66
     1
 10
0.0
 20
0.0
 30
0.0
  0
VERTEX
  5
87C
  8
TEXT25
 10
17.950000196171342
 20
8.4999997817054691
 30
0.0
 42
-1.0
  0
VERTEX
  5
87D
  8
TEXT25
 10
21.550000196171371
 20
8.4999997817054691
 30
0.0
 42
0.9999999999999998
  0
SEQEND
  5
87E
  8
TEXT25
  0
LINE
  5
707
  8
TEXT25
 10
10.750000196171349
 20
-14.0
 30
0.0
 11
12.250000196171349
 21
-14.0
 31
0.0
  0
LINE
  5
708
  8
TEXT25
 10
12.750000196171349
 20
-14.0
 30
0.0
 11
10.750000196171349
 21
-14.0
 31
0.0
  0
LINE
  5
709
  8
TEXT25
 10
12.250000196171349
 20
-14.5
 30
0.0
 11
11.250000196171349
 21
-14.5
 31
0.0
  0
LINE
  5
70A
  8
TEXT25
 10
11.750000196171349
 20
-1.0
 30
0.0
 11
0.0
 21
-2.5
 31
0.0
  0
LINE
  5
70B
  8
TEXT25
 10
11.750000196171349
 20
-6.0
 30
0.0
 11
0.0
 21
-7.5
 31
0.0
  0
POLYLINE
  5
70C
  8
TEXT25
 66
     1
 10
0.0
 20
0.0
 30
0.0
  0
VERTEX
  5
87F
  8
TEXT25
 10
8.1500001961713338
 20
-5.00000021829453
 30
0.0
 42
1.0
  0
VERTEX
  5
880
  8
TEXT25
 10
4.550000196171367
 20
-5.00000021829453
 30
0.0
 42
-0.9999999999999998
  0
SEQEND
  5
881
  8
TEXT25
  0
LINE
  5
70D
  8
TEXT25
 10
11.750000196171349
 20
-12.0
 30
0.0
 11
0.0
 21
-12.0
 31
0.0
  0
POLYLINE
  5
70E
  8
TEXT25
 66
     1
 10
0.0
 20
0.0
 30
0.0
  0
VERTEX
  5
882
  8
TEXT25
 10
8.1500001961713338
 20
-10.000000218294529
 30
0.0
 42
1.0
  0
VERTEX
  5
883
  8
TEXT25
 10
4.550000196171367
 20
-10.000000218294529
 30
0.0
 42
-0.9999999999999998
  0
SEQEND
  5
884
  8
TEXT25
  0
LINE
  5
70F
  8
TEXT25
 10
0.0
 20
-7.5
 30
0.0
 11
0.0
 21
-10.0
 31
0.0
  0
POLYLINE
  5
710
  8
TEXT25
 66
     1
 10
0.0
 20
0.0
 30
0.0
  0
VERTEX
  5
885
  8
TEXT25
 10
0.9500001961713451
 20
-10.000000218294529
 30
0.0
 42
-1.0
  0
VERTEX
  5
886
  8
TEXT25
 10
4.550000196171367
 20
-10.000000218294529
 30
0.0
 42
0.9999999999999998
  0
SEQEND
  5
887
  8
TEXT25
  0
LINE
  5
711
  8
TEXT25
 10
0.0
 20
-10.0
 30
0.0
 11
1.0
 21
-10.0
 31
0.0
  0
POLYLINE
  5
712
  8
TEXT25
 66
     1
 10
0.0
 20
0.0
 30
0.0
  0
VERTEX
  5
888
  8
TEXT25
 10
0.9500001961713451
 20
-5.00000021829453
 30
0.0
 42
-1.0
  0
VERTEX
  5
889
  8
TEXT25
 10
4.550000196171367
 20
-5.00000021829453
 30
0.0
 42
0.9999999999999998
  0
SEQEND
  5
88A
  8
TEXT25
  0
LINE
  5
713
  8
TEXT25
 10
0.0
 20
-5.0
 30
0.0
 11
1.0
 21
-5.0
 31
0.0
  0
LINE
  5
714
  8
TEXT25
 10
0.0
 20
-2.5
 30
0.0
 11
0.0
 21
-5.0
 31
0.0
  0
LINE
  5
715
  8
TEXT25
 10
13.250000196171349
 20
-13.5
 30
0.0
 11
10.250000196171349
 21
-13.5
 31
0.0
  0
POLYLINE
  5
716
  8
TEXT25
 66
     1
 10
0.0
 20
0.0
 30
0.0
  0
VERTEX
  5
88B
  8
TEXT25
 10
11.750000196171349
 20
-10.000000218294529
 30
0.0
 42
1.0
  0
VERTEX
  5
88C
  8
TEXT25
 10
8.1500001961713338
 20
-10.000000218294529
 30
0.0
 42
-0.9999999999999998
  0
SEQEND
  5
88D
  8
TEXT25
  0
LINE
  5
717
  8
TEXT25
 10
11.750000196171349
 20
-10.000000218294529
 30
0.0
 11
11.750000196171349
 21
-13.5
 31
0.0
  0
POLYLINE
  5
718
  8
TEXT25
 66
     1
 10
0.0
 20
0.0
 30
0.0
 70
     1
 40
0.5
 41
0.5
  0
VERTEX
  5
88E
  8
TEXT25
 10
11.500000196171349
 20
-12.0
 30
0.0
 42
1.0
  0
VERTEX
  5
88F
  8
TEXT25
 10
12.000000196171349
 20
-12.0
 30
0.0
 42
1.0
  0
SEQEND
  5
890
  8
TEXT25
  0
POLYLINE
  5
719
  8
TEXT25
 66
     1
 10
0.0
 20
0.0
 30
0.0
  0
VERTEX
  5
891
  8
TEXT25
 10
11.750000196171349
 20
-5.00000021829453
 30
0.0
 42
1.0
  0
VERTEX
  5
892
  8
TEXT25
 10
8.1500001961713338
 20
-5.00000021829453
 30
0.0
 42
-0.9999999999999998
  0
SEQEND
  5
893
  8
TEXT25
  0
LINE
  5
71A
  8
TEXT25
 10
11.750000196171349
 20
-5.00000021829453
 30
0.0
 11
11.750000196171349
 21
-6.0
 31
0.0
  0
POLYLINE
  5
71B
  8
TEXT25
 66
     1
 10
0.0
 20
0.0
 30
0.0
  0
VERTEX
  5
894
  8
TEXT25
 10
8.1500001961713338
 20
-0.0000002182945309
 30
0.0
 42
1.0
  0
VERTEX
  5
895
  8
TEXT25
 10
4.550000196171367
 20
-0.0000002182945309
 30
0.0
 42
-0.9999999999999998
  0
SEQEND
  5
896
  8
TEXT25
  0
POLYLINE
  5
71C
  8
TEXT25
 66
     1
 10
0.0
 20
0.0
 30
0.0
  0
VERTEX
  5
897
  8
TEXT25
 10
0.9500001961713451
 20
-0.0000002182945309
 30
0.0
 42
-1.0
  0
VERTEX
  5
898
  8
TEXT25
 10
4.550000196171367
 20
-0.0000002182945309
 30
0.0
 42
0.9999999999999998
  0
SEQEND
  5
899
  8
TEXT25
  0
LINE
  5
71D
  8
TEXT25
 10
1.0
 20
0.0
 30
0.0
 11
0.0
 21
0.0
 31
0.0
  0
LINE
  5
71E
  8
TEXT25
 10
0.9500001961713451
 20
7.9999997817054691
 30
0.0
 11
-0.5
 21
7.9999997817054691
 31
0.0
  0
POLYLINE
  5
71F
  8
TEXT25
 66
     1
 10
0.0
 20
0.0
 30
0.0
  0
VERTEX
  5
89A
  8
TEXT25
 10
11.750000196171349
 20
-0.0000002182945309
 30
0.0
 42
1.0
  0
VERTEX
  5
89B
  8
TEXT25
 10
8.1500001961713338
 20
-0.0000002182945309
 30
0.0
 42
-0.9999999999999998
  0
SEQEND
  5
89C
  8
TEXT25
  0
LINE
  5
720
  8
TEXT25
 10
11.750000196171349
 20
-0.0000002182945309
 30
0.0
 11
11.750000196171349
 21
-1.0
 31
0.0
  0
LINE
  5
721
  8
TEXT25
 10
13.250000196171349
 20
6.5
 30
0.0
 11
10.250000196171349
 21
6.5
 31
0.0
  0
LINE
  5
722
  8
TEXT25
 10
12.250000196171349
 20
5.5
 30
0.0
 11
11.250000196171349
 21
5.5
 31
0.0
  0
LINE
  5
723
  8
TEXT25
 10
12.750000196171349
 20
6.0
 30
0.0
 11
10.750000196171349
 21
6.0
 31
0.0
  0
LINE
  5
724
  8
TEXT25
 10
10.750000196171349
 20
6.0
 30
0.0
 11
12.250000196171349
 21
6.0
 31
0.0
  0
LINE
  5
725
  8
TEXT25
 10
17.950000196171342
 20
8.9999997817054691
 30
0.0
 11
17.950000196171342
 21
-2.5
 31
0.0
  0
LINE
  5
726
  8
TEXT25
 10
18.950000196171342
 20
-3.0
 30
0.0
 11
16.950000196171342
 21
-3.0
 31
0.0
  0
LINE
  5
727
  8
TEXT25
 10
19.450000196171342
 20
-2.5
 30
0.0
 11
16.450000196171342
 21
-2.5
 31
0.0
  0
LINE
  5
728
  8
TEXT25
 10
18.450000196171342
 20
-3.5
 30
0.0
 11
17.450000196171342
 21
-3.5
 31
0.0
  0
LINE
  5
729
  8
TEXT25
 10
16.950000196171342
 20
-3.0
 30
0.0
 11
18.450000196171342
 21
-3.0
 31
0.0
  0
POLYLINE
  5
72A
  8
TEXT25
 66
     1
 10
0.0
 20
0.0
 30
0.0
  0
VERTEX
  5
89D
  8
TEXT25
 10
25.15000019617133
 20
-1.00000021829453
 30
0.0
 42
1.0
  0
VERTEX
  5
89E
  8
TEXT25
 10
21.550000196171371
 20
-1.00000021829453
 30
0.0
 42
-0.9999999999999998
  0
SEQEND
  5
89F
  8
TEXT25
  0
POLYLINE
  5
72B
  8
TEXT25
 66
     1
 10
0.0
 20
0.0
 30
0.0
  0
VERTEX
  5
8A0
  8
TEXT25
 10
25.15000019617133
 20
3.9999997817054691
 30
0.0
 42
1.0
  0
VERTEX
  5
8A1
  8
TEXT25
 10
21.550000196171371
 20
3.9999997817054691
 30
0.0
 42
-0.9999999999999998
  0
SEQEND
  5
8A2
  8
TEXT25
  0
POLYLINE
  5
72C
  8
TEXT25
 66
     1
 10
0.0
 20
0.0
 30
0.0
  0
VERTEX
  5
8A3
  8
TEXT25
 10
17.950000196171342
 20
-1.00000021829453
 30
0.0
 42
-1.0
  0
VERTEX
  5
8A4
  8
TEXT25
 10
21.550000196171371
 20
-1.00000021829453
 30
0.0
 42
0.9999999999999998
  0
SEQEND
  5
8A5
  8
TEXT25
  0
POLYLINE
  5
72D
  8
TEXT25
 66
     1
 10
0.0
 20
0.0
 30
0.0
  0
VERTEX
  5
8A6
  8
TEXT25
 10
17.950000196171342
 20
3.9999997817054691
 30
0.0
 42
-1.0
  0
VERTEX
  5
8A7
  8
TEXT25
 10
21.550000196171371
 20
3.9999997817054691
 30
0.0
 42
0.9999999999999998
  0
SEQEND
  5
8A8
  8
TEXT25
  0
POLYLINE
  5
72E
  8
TEXT25
 66
     1
 10
0.0
 20
0.0
 30
0.0
  0
VERTEX
  5
8A9
  8
TEXT25
 10
28.75000019617136
 20
-1.00000021829453
 30
0.0
 42
1.0
  0
VERTEX
  5
8AA
  8
TEXT25
 10
25.15000019617133
 20
-1.00000021829453
 30
0.0
 42
-0.9999999999999998
  0
SEQEND
  5
8AB
  8
TEXT25
  0
LINE
  5
72F
  8
TEXT25
 10
28.75000019617136
 20
-1.00000021829453
 30
0.0
 11
31.0
 21
-1.00000021829453
 31
0.0
  0
POLYLINE
  5
730
  8
TEXT25
 66
     1
 10
0.0
 20
0.0
 30
0.0
  0
VERTEX
  5
8AC
  8
TEXT25
 10
28.75000019617136
 20
3.9999997817054691
 30
0.0
 42
1.0
  0
VERTEX
  5
8AD
  8
TEXT25
 10
25.15000019617133
 20
3.9999997817054691
 30
0.0
 42
-0.9999999999999998
  0
SEQEND
  5
8AE
  8
TEXT25
  0
LINE
  5
731
  8
TEXT25
 10
28.75000019617136
 20
8.4999997817054691
 30
0.0
 11
31.0
 21
8.4999997817054691
 31
0.0
  0
LINE
  5
732
  8
TEXT25
 10
28.75000019617136
 20
3.9999997817054691
 30
0.0
 11
31.0
 21
3.9999997817054691
 31
0.0
  0
POLYLINE
  5
733
  8
TEXT25
 66
     1
 10
0.0
 20
0.0
 30
0.0
  0
VERTEX
  5
8AF
  8
TEXT25
 10
8.1500001961713338
 20
12.99999978170546
 30
0.0
 42
1.0
  0
VERTEX
  5
8B0
  8
TEXT25
 10
4.550000196171367
 20
12.99999978170546
 30
0.0
 42
-0.9999999999999998
  0
SEQEND
  5
8B1
  8
TEXT25
  0
POLYLINE
  5
734
  8
TEXT25
 66
     1
 10
0.0
 20
0.0
 30
0.0
  0
VERTEX
  5
8B2
  8
TEXT25
 10
8.1500001961713338
 20
17.999999781705458
 30
0.0
 42
1.0
  0
VERTEX
  5
8B3
  8
TEXT25
 10
4.550000196171367
 20
17.999999781705458
 30
0.0
 42
-0.9999999999999998
  0
SEQEND
  5
8B4
  8
TEXT25
  0
POLYLINE
  5
735
  8
TEXT25
 66
     1
 10
0.0
 20
0.0
 30
0.0
  0
VERTEX
  5
8B5
  8
TEXT25
 10
0.9500001961713451
 20
12.99999978170546
 30
0.0
 42
-1.0
  0
VERTEX
  5
8B6
  8
TEXT25
 10
4.550000196171367
 20
12.99999978170546
 30
0.0
 42
0.9999999999999998
  0
SEQEND
  5
8B7
  8
TEXT25
  0
LINE
  5
736
  8
TEXT25
 10
0.9500001961713451
 20
12.99999978170546
 30
0.0
 11
-0.5
 21
12.99999978170546
 31
0.0
  0
POLYLINE
  5
737
  8
TEXT25
 66
     1
 10
0.0
 20
0.0
 30
0.0
  0
VERTEX
  5
8B8
  8
TEXT25
 10
0.9500001961713451
 20
17.999999781705458
 30
0.0
 42
-1.0
  0
VERTEX
  5
8B9
  8
TEXT25
 10
4.550000196171367
 20
17.999999781705458
 30
0.0
 42
0.9999999999999998
  0
SEQEND
  5
8BA
  8
TEXT25
  0
LINE
  5
738
  8
TEXT25
 10
0.9500001961713451
 20
17.999999781705458
 30
0.0
 11
-0.5
 21
17.999999781705458
 31
0.0
  0
POLYLINE
  5
739
  8
TEXT25
 66
     1
 10
0.0
 20
0.0
 30
0.0
  0
VERTEX
  5
8BB
  8
TEXT25
 10
11.750000196171349
 20
12.99999978170546
 30
0.0
 42
1.0
  0
VERTEX
  5
8BC
  8
TEXT25
 10
8.1500001961713338
 20
12.99999978170546
 30
0.0
 42
-0.9999999999999998
  0
SEQEND
  5
8BD
  8
TEXT25
  0
POLYLINE
  5
73A
  8
TEXT25
 66
     1
 10
0.0
 20
0.0
 30
0.0
  0
VERTEX
  5
8BE
  8
TEXT25
 10
11.750000196171349
 20
17.999999781705458
 30
0.0
 42
1.0
  0
VERTEX
  5
8BF
  8
TEXT25
 10
8.1500001961713338
 20
17.999999781705458
 30
0.0
 42
-0.9999999999999998
  0
SEQEND
  5
8C0
  8
TEXT25
  0
ENDBLK
  5
73C
  8
0
  0
BLOCK
  8
0
  2
*U16
 70
     1
 10
0.0
 20
0.0
 30
0.0
  3
*U16
  1

  0
SOLID
  5
7F0
  8
TEXT25
  6
CONTINUOUS
 10
38.666666666666657
 20
2.5
 30
0.0
 11
40.0
 21
2.5
 31
0.0
 12
38.0
 22
3.5
 32
0.0
 13
38.0
 23
3.5
 33
0.0
210
0.0
220
0.0
230
-1.0
  0
SOLID
  5
7F1
  8
TEXT25
  6
CONTINUOUS
 10
38.666666666666657
 20
2.5
 30
0.0
 11
38.0
 21
3.5
 31
0.0
 12
38.0
 22
1.5
 32
0.0
 13
38.0
 23
1.5
 33
0.0
210
0.0
220
0.0
230
-1.0
  0
SOLID
  5
7F2
  8
TEXT25
  6
CONTINUOUS
 10
38.666666666666657
 20
2.5
 30
0.0
 11
38.0
 21
1.5
 31
0.0
 12
40.0
 22
2.5
 32
0.0
 13
40.0
 23
2.5
 33
0.0
210
0.0
220
0.0
230
-1.0
  0
ENDBLK
  5
7F4
  8
0
  0
BLOCK
  8
0
  2
*U17
 70
     1
 10
0.0
 20
0.0
 30
0.0
  3
*U17
  1

  0
SOLID
  5
817
  8
MITTA
  6
CONTINUOUS
 10
-154.33333333333329
 20
103.0
 30
0.0
 11
-153.0
 21
103.0
 31
0.0
 12
-155.0
 22
104.0
 32
0.0
 13
-155.0
 23
104.0
 33
0.0
210
0.0
220
0.0
230
-1.0
  0
SOLID
  5
818
  8
MITTA
  6
CONTINUOUS
 10
-154.33333333333329
 20
103.0
 30
0.0
 11
-155.0
 21
104.0
 31
0.0
 12
-155.0
 22
102.0
 32
0.0
 13
-155.0
 23
102.0
 33
0.0
210
0.0
220
0.0
230
-1.0
  0
SOLID
  5
819
  8
MITTA
  6
CONTINUOUS
 10
-154.33333333333329
 20
103.0
 30
0.0
 11
-155.0
 21
102.0
 31
0.0
 12
-153.0
 22
103.0
 32
0.0
 13
-153.0
 23
103.0
 33
0.0
210
0.0
220
0.0
230
-1.0
  0
ENDBLK
  5
81B
  8
0
  0
BLOCK
  8
0
  2
*U18
 70
     1
 10
0.0
 20
0.0
 30
0.0
  3
*U18
  1

  0
SOLID
  5
821
  8
MITTA
  6
CONTINUOUS
 10
-154.33333333333329
 20
113.0
 30
0.0
 11
-153.0
 21
113.0
 31
0.0
 12
-155.0
 22
114.0
 32
0.0
 13
-155.0
 23
114.0
 33
0.0
210
0.0
220
0.0
230
-1.0
  0
SOLID
  5
822
  8
MITTA
  6
CONTINUOUS
 10
-154.33333333333329
 20
113.0
 30
0.0
 11
-155.0
 21
114.0
 31
0.0
 12
-155.0
 22
112.0
 32
0.0
 13
-155.0
 23
112.0
 33
0.0
210
0.0
220
0.0
230
-1.0
  0
SOLID
  5
823
  8
MITTA
  6
CONTINUOUS
 10
-154.33333333333329
 20
113.0
 30
0.0
 11
-155.0
 21
112.0
 31
0.0
 12
-153.0
 22
113.0
 32
0.0
 13
-153.0
 23
113.0
 33
0.0
210
0.0
220
0.0
230
-1.0
  0
ENDBLK
  5
825
  8
0
  0
BLOCK
  8
0
  2
*U19
 70
     1
 10
0.0
 20
0.0
 30
0.0
  3
*U19
  1

  0
SOLID
  5
82B
  8
MITTA
  6
CONTINUOUS
 10
-154.33333333333329
 20
123.0
 30
0.0
 11
-153.0
 21
123.0
 31
0.0
 12
-155.0
 22
124.0
 32
0.0
 13
-155.0
 23
124.0
 33
0.0
210
0.0
220
0.0
230
-1.0
  0
SOLID
  5
82C
  8
MITTA
  6
CONTINUOUS
 10
-154.33333333333329
 20
123.0
 30
0.0
 11
-155.0
 21
124.0
 31
0.0
 12
-155.0
 22
122.0
 32
0.0
 13
-155.0
 23
122.0
 33
0.0
210
0.0
220
0.0
230
-1.0
  0
SOLID
  5
82D
  8
MITTA
  6
CONTINUOUS
 10
-154.33333333333329
 20
123.0
 30
0.0
 11
-155.0
 21
122.0
 31
0.0
 12
-153.0
 22
123.0
 32
0.0
 13
-153.0
 23
123.0
 33
0.0
210
0.0
220
0.0
230
-1.0
  0
ENDBLK
  5
82F
  8
0
  0
BLOCK
  8
0
  2
*U20
 70
     1
 10
0.0
 20
0.0
 30
0.0
  3
*U20
  1

  0
SOLID
  5
835
  8
MITTA
  6
CONTINUOUS
 10
-154.33333333333329
 20
73.0
 30
0.0
 11
-153.0
 21
73.0
 31
0.0
 12
-155.0
 22
74.0
 32
0.0
 13
-155.0
 23
74.0
 33
0.0
210
0.0
220
0.0
230
-1.0
  0
SOLID
  5
836
  8
MITTA
  6
CONTINUOUS
 10
-154.33333333333329
 20
73.0
 30
0.0
 11
-155.0
 21
74.0
 31
0.0
 12
-155.0
 22
72.0
 32
0.0
 13
-155.0
 23
72.0
 33
0.0
210
0.0
220
0.0
230
-1.0
  0
SOLID
  5
837
  8
MITTA
  6
CONTINUOUS
 10
-154.33333333333329
 20
73.0
 30
0.0
 11
-155.0
 21
72.0
 31
0.0
 12
-153.0
 22
73.0
 32
0.0
 13
-153.0
 23
73.0
 33
0.0
210
0.0
220
0.0
230
-1.0
  0
ENDBLK
  5
839
  8
0
  0
BLOCK
  8
0
  2
*U21
 70
     1
 10
0.0
 20
0.0
 30
0.0
  3
*U21
  1

  0
SOLID
  5
83F
  8
MITTA
  6
CONTINUOUS
 10
-154.33333333333329
 20
83.0
 30
0.0
 11
-153.0
 21
83.0
 31
0.0
 12
-155.0
 22
84.0
 32
0.0
 13
-155.0
 23
84.0
 33
0.0
210
0.0
220
0.0
230
-1.0
  0
SOLID
  5
840
  8
MITTA
  6
CONTINUOUS
 10
-154.33333333333329
 20
83.0
 30
0.0
 11
-155.0
 21
84.0
 31
0.0
 12
-155.0
 22
82.0
 32
0.0
 13
-155.0
 23
82.0
 33
0.0
210
0.0
220
0.0
230
-1.0
  0
SOLID
  5
841
  8
MITTA
  6
CONTINUOUS
 10
-154.33333333333329
 20
83.0
 30
0.0
 11
-155.0
 21
82.0
 31
0.0
 12
-153.0
 22
83.0
 32
0.0
 13
-153.0
 23
83.0
 33
0.0
210
0.0
220
0.0
230
-1.0
  0
ENDBLK
  5
843
  8
0
  0
BLOCK
  8
0
  2
*U22
 70
     1
 10
0.0
 20
0.0
 30
0.0
  3
*U22
  1

  0
SOLID
  5
849
  8
MITTA
  6
CONTINUOUS
 10
-154.33333333333329
 20
93.0
 30
0.0
 11
-153.0
 21
93.0
 31
0.0
 12
-155.0
 22
94.0
 32
0.0
 13
-155.0
 23
94.0
 33
0.0
210
0.0
220
0.0
230
-1.0
  0
SOLID
  5
84A
  8
MITTA
  6
CONTINUOUS
 10
-154.33333333333329
 20
93.0
 30
0.0
 11
-155.0
 21
94.0
 31
0.0
 12
-155.0
 22
92.0
 32
0.0
 13
-155.0
 23
92.0
 33
0.0
210
0.0
220
0.0
230
-1.0
  0
SOLID
  5
84B
  8
MITTA
  6
CONTINUOUS
 10
-154.33333333333329
 20
93.0
 30
0.0
 11
-155.0
 21
92.0
 31
0.0
 12
-153.0
 22
93.0
 32
0.0
 13
-153.0
 23
93.0
 33
0.0
210
0.0
220
0.0
230
-1.0
  0
ENDBLK
  5
84D
  8
0
  0
BLOCK
  8
0
  2
*U23
 70
     1
 10
0.0
 20
0.0
 30
0.0
  3
*U23
  1

  0
SOLID
  5
853
  8
MITTA
  6
CONTINUOUS
 10
-154.33333333333329
 20
53.0
 30
0.0
 11
-153.0
 21
53.0
 31
0.0
 12
-155.0
 22
54.0
 32
0.0
 13
-155.0
 23
54.0
 33
0.0
210
0.0
220
0.0
230
-1.0
  0
SOLID
  5
854
  8
MITTA
  6
CONTINUOUS
 10
-154.33333333333329
 20
53.0
 30
0.0
 11
-155.0
 21
54.0
 31
0.0
 12
-155.0
 22
52.0
 32
0.0
 13
-155.0
 23
52.0
 33
0.0
210
0.0
220
0.0
230
-1.0
  0
SOLID
  5
855
  8
MITTA
  6
CONTINUOUS
 10
-154.33333333333329
 20
53.0
 30
0.0
 11
-155.0
 21
52.0
 31
0.0
 12
-153.0
 22
53.0
 32
0.0
 13
-153.0
 23
53.0
 33
0.0
210
0.0
220
0.0
230
-1.0
  0
ENDBLK
  5
857
  8
0
  0
BLOCK
  8
0
  2
*U24
 70
     1
 10
0.0
 20
0.0
 30
0.0
  3
*U24
  1

  0
SOLID
  5
85D
  8
MITTA
  6
CONTINUOUS
 10
-154.33333333333329
 20
43.0
 30
0.0
 11
-153.0
 21
43.0
 31
0.0
 12
-155.0
 22
44.0
 32
0.0
 13
-155.0
 23
44.0
 33
0.0
210
0.0
220
0.0
230
-1.0
  0
SOLID
  5
85E
  8
MITTA
  6
CONTINUOUS
 10
-154.33333333333329
 20
43.0
 30
0.0
 11
-155.0
 21
44.0
 31
0.0
 12
-155.0
 22
42.0
 32
0.0
 13
-155.0
 23
42.0
 33
0.0
210
0.0
220
0.0
230
-1.0
  0
SOLID
  5
85F
  8
MITTA
  6
CONTINUOUS
 10
-154.33333333333329
 20
43.0
 30
0.0
 11
-155.0
 21
42.0
 31
0.0
 12
-153.0
 22
43.0
 32
0.0
 13
-153.0
 23
43.0
 33
0.0
210
0.0
220
0.0
230
-1.0
  0
ENDBLK
  5
861
  8
0
  0
BLOCK
  8
0
  2
*U25
 70
     1
 10
0.0
 20
0.0
 30
0.0
  3
*U25
  1

  0
SOLID
  5
867
  8
MITTA
  6
CONTINUOUS
 10
-154.33333333333329
 20
63.0
 30
0.0
 11
-153.0
 21
63.0
 31
0.0
 12
-155.0
 22
64.0
 32
0.0
 13
-155.0
 23
64.0
 33
0.0
210
0.0
220
0.0
230
-1.0
  0
SOLID
  5
868
  8
MITTA
  6
CONTINUOUS
 10
-154.33333333333329
 20
63.0
 30
0.0
 11
-155.0
 21
64.0
 31
0.0
 12
-155.0
 22
62.0
 32
0.0
 13
-155.0
 23
62.0
 33
0.0
210
0.0
220
0.0
230
-1.0
  0
SOLID
  5
869
  8
MITTA
  6
CONTINUOUS
 10
-154.33333333333329
 20
63.0
 30
0.0
 11
-155.0
 21
62.0
 31
0.0
 12
-153.0
 22
63.0
 32
0.0
 13
-153.0
 23
63.0
 33
0.0
210
0.0
220
0.0
230
-1.0
  0
ENDBLK
  5
86B
  8
0
  0
ENDSEC
  0
SECTION
  2
ENTITIES
  0
INSERT
  5
223
  8
0
  2
ABB3T
 10
0.0
 20
0.0
 30
0.0
  0
INSERT
  5
38B
  8
MITTA
  2
VT
 10
192.5
 20
230.5
 30
0.0
  0
INSERT
  5
38C
  8
MITTA
  2
VT
 10
192.5
 20
181.0
 30
0.0
  0
INSERT
  5
38D
  8
MITTA
  2
VT
 10
192.5
 20
168.5
 30
0.0
  0
INSERT
  5
3B0
  8
MITTA
  2
CT
 10
192.5
 20
165.5
 30
0.0
  0
INSERT
  5
3B1
  8
MITTA
  2
CT
 10
192.5
 20
153.5
 30
0.0
  0
INSERT
  5
3B2
  8
MITTA
  2
CT
 10
192.5
 20
141.5
 30
0.0
  0
TEXT
  5
3C4
  8
MITTA
 10
185.5
 20
242.0
 30
0.0
 40
2.5
  1
X1.1
 41
0.9
  7
T25
  0
TEXT
  5
3C5
  8
MITTA
 10
188.0
 20
238.64075287028979
 30
0.0
 40
2.5
  1
27
 41
0.9
  7
T25
  0
TEXT
  5
3C6
  8
MITTA
 10
188.0
 20
229.6877079318968
 30
0.0
 40
2.5
  1
25
 41
0.9
  7
T25
  0
TEXT
  5
3C7
  8
MITTA
 10
188.0
 20
226.14008818624879
 30
0.0
 40
2.5
  1
24
 41
0.9
  7
T25
  0
TEXT
  5
3C8
  8
MITTA
 10
188.0
 20
217.03588063123181
 30
0.0
 40
2.5
  1
22
 41
0.9
  7
T25
  0
TEXT
  5
3C9
  8
MITTA
 10
188.0
 20
213.55415293985351
 30
0.0
 40
2.5
  1
21
 41
0.9
  7
T25
  0
TEXT
  5
3CA
  8
MITTA
 10
188.0
 20
204.49723174142059
 30
0.0
 40
2.5
  1
19
 41
0.9
  7
T25
  0
TEXT
  5
3CB
  8
MITTA
 10
188.0
 20
200.95891484461549
 30
0.0
 40
2.5
  1
18
 41
0.9
  7
T25
  0
TEXT
  5
3CC
  8
MITTA
 10
188.0
 20
192.11904761904759
 30
0.0
 40
2.5
  1
16
 41
0.9
  7
T25
  0
TEXT
  5
3CD
  8
MITTA
 10
188.0
 20
189.08073142027141
 30
0.0
 40
2.5
  1
15
 41
0.9
  7
T25
  0
TEXT
  5
3CF
  8
MITTA
 10
188.0
 20
179.9761904761906
 30
0.0
 40
2.5
  1
13
 41
0.9
  7
T25
  0
TEXT
  5
3D0
  8
MITTA
 10
188.0
 20
176.4285714285715
 30
0.0
 40
2.5
  1
12
 41
0.9
  7
T25
  0
TEXT
  5
3D2
  8
MITTA
 10
188.0
 20
167.8333333333334
 30
0.0
 40
2.5
  1
10
 41
0.9
  7
T25
  0
TEXT
  5
3D3
  8
MITTA
 10
189.49999999999989
 20
164.56865961482029
 30
0.0
 40
2.5
  1
9
 41
0.9
  7
T25
  0
TEXT
  5
3D4
  8
MITTA
 10
189.49999999999989
 20
161.41716500519021
 30
0.0
 40
2.5
  1
8
 41
0.9
  7
T25
  0
TEXT
  5
3D5
  8
MITTA
 10
189.92523126173469
 20
155.69047619047629
 30
0.0
 40
2.5
  1
7
 41
0.9
  7
T25
  0
TEXT
  5
3D6
  8
MITTA
 10
189.92523126173469
 20
152.4823923754191
 30
0.0
 40
2.5
  1
6
 41
0.9
  7
T25
  0
TEXT
  5
3D7
  8
MITTA
 10
189.92523126173469
 20
149.44407478058511
 30
0.0
 40
2.5
  1
5
 41
0.9
  7
T25
  0
TEXT
  5
3D8
  8
MITTA
 10
189.92523126173469
 20
144.04761904761921
 30
0.0
 40
2.5
  1
4
 41
0.9
  7
T25
  0
TEXT
  5
3D9
  8
MITTA
 10
189.92523126173469
 20
140.5000000000002
 30
0.0
 40
2.5
  1
3
 41
0.9
  7
T25
  0
TEXT
  5
3DA
  8
MITTA
 10
189.92523126173469
 20
137.5182730066509
 30
0.0
 40
2.5
  1
2
 41
0.9
  7
T25
  0
TEXT
  5
3DB
  8
MITTA
 10
189.92523126173469
 20
131.4047619047621
 30
0.0
 40
2.5
  1
1
 41
0.9
  7
T25
  0
LINE
  5
3E3
  8
MITTA
 10
169.5
 20
177.5
 30
0.0
 11
169.5
 21
168.5
 31
0.0
  0
LINE
  5
3E4
  8
MITTA
 10
169.5
 20
165.5
 30
0.0
 11
169.5
 21
156.49999999999989
 31
0.0
  0
LINE
  5
3E5
  8
MITTA
 10
169.5
 20
153.5
 30
0.0
 11
169.5
 21
144.5
 31
0.0
  0
LINE
  5
3E6
  8
MITTA
 10
169.5
 20
141.5
 30
0.0
 11
169.5
 21
132.49999999999989
 31
0.0
  0
TEXT
  5
3E7
  8
MITTA
 10
183.0
 20
124.5
 30
0.0
 40
2.5
  1
X2.1:1
 41
0.9
  7
T25
  0
LINE
  5
411
  8
MITTA
 10
160.49999999999989
 20
235.0
 30
0.0
 11
119.0
 21
235.0
 31
0.0
  0
LINE
  5
412
  8
MITTA
 10
160.49999999999989
 20
222.5
 30
0.0
 11
119.0
 21
222.5
 31
0.0
  0
LINE
  5
413
  8
MITTA
 10
160.49999999999989
 20
210.0
 30
0.0
 11
119.0
 21
210.0
 31
0.0
  0
LINE
  5
414
  8
MITTA
 10
160.49999999999989
 20
197.5
 30
0.0
 11
119.0
 21
197.5
 31
0.0
  0
LINE
  5
415
  8
MITTA
 10
160.49999999999989
 20
185.0
 30
0.0
 11
119.5
 21
185.0
 31
0.0
  0
LINE
  5
416
  8
MITTA
 10
160.49999999999989
 20
173.0
 30
0.0
 11
119.5
 21
173.0
 31
0.0
  0
LINE
  5
417
  8
MITTA
 10
160.49999999999989
 20
161.0
 30
0.0
 11
119.5
 21
161.0
 31
0.0
  0
LINE
  5
418
  8
MITTA
 10
160.49999999999989
 20
149.0
 30
0.0
 11
119.5
 21
149.0
 31
0.0
  0
LINE
  5
419
  8
MITTA
 10
160.49999999999989
 20
137.0
 30
0.0
 11
119.5
 21
137.0
 31
0.0
  0
LINE
  5
41A
  8
MITTA
 10
150.0
 20
137.0
 30
0.0
 11
150.0
 21
53.0
 31
0.0
  0
LINE
  5
41B
  8
MITTA
 10
150.0
 20
53.0
 30
0.0
 11
153.5
 21
53.0
 31
0.0
  0
LINE
  5
41C
  8
MITTA
 10
146.0
 20
149.0
 30
0.0
 11
146.0
 21
63.0
 31
0.0
  0
LINE
  5
41D
  8
MITTA
 10
142.0
 20
161.0
 30
0.0
 11
142.0
 21
73.0
 31
0.0
  0
LINE
  5
41E
  8
MITTA
 10
138.0
 20
173.0
 30
0.0
 11
138.0
 21
83.0
 31
0.0
  0
LINE
  5
41F
  8
MITTA
 10
134.0
 20
197.5
 30
0.0
 11
134.0
 21
93.0
 31
0.0
  0
LINE
  5
420
  8
MITTA
 10
130.0
 20
210.0
 30
0.0
 11
130.0
 21
103.0
 31
0.0
  0
LINE
  5
421
  8
MITTA
 10
126.0
 20
222.5
 30
0.0
 11
126.0
 21
113.0
 31
0.0
  0
LINE
  5
422
  8
MITTA
 10
122.0
 20
235.0
 30
0.0
 11
122.0
 21
123.0
 31
0.0
  0
LINE
  5
423
  8
MITTA
 10
153.0
 20
63.0
 30
0.0
 11
146.0
 21
63.0
 31
0.0
  0
LINE
  5
424
  8
MITTA
 10
153.0
 20
73.0
 30
0.0
 11
142.0
 21
73.0
 31
0.0
  0
LINE
  5
425
  8
MITTA
 10
153.0
 20
83.0
 30
0.0
 11
138.0
 21
83.0
 31
0.0
  0
LINE
  5
426
  8
MITTA
 10
153.0
 20
93.0
 30
0.0
 11
134.0
 21
93.0
 31
0.0
  0
LINE
  5
427
  8
MITTA
 10
153.0
 20
103.0
 30
0.0
 11
130.0
 21
103.0
 31
0.0
  0
LINE
  5
428
  8
MITTA
 10
153.0
 20
113.0
 30
0.0
 11
126.0
 21
113.0
 31
0.0
  0
LINE
  5
429
  8
MITTA
 10
153.0
 20
123.0
 30
0.0
 11
122.0
 21
123.0
 31
0.0
  0
POLYLINE
  5
42A
  8
MITTA
 66
     1
 10
0.0
 20
0.0
 30
0.0
 70
     1
 40
0.5
 41
0.5
  0
VERTEX
  5
7FA
  8
MITTA
 10
149.75
 20
137.0
 30
0.0
 42
1.0
  0
VERTEX
  5
7FB
  8
MITTA
 10
150.24999999999989
 20
137.0
 30
0.0
 42
1.0
  0
SEQEND
  5
7FC
  8
MITTA
  0
POLYLINE
  5
42B
  8
MITTA
 66
     1
 10
0.0
 20
0.0
 30
0.0
 70
     1
 40
0.5
 41
0.5
  0
VERTEX
  5
7FD
  8
MITTA
 10
145.75
 20
149.0
 30
0.0
 42
1.0
  0
VERTEX
  5
7FE
  8
MITTA
 10
146.25
 20
149.0
 30
0.0
 42
1.0
  0
SEQEND
  5
7FF
  8
MITTA
  0
POLYLINE
  5
42C
  8
MITTA
 66
     1
 10
0.0
 20
0.0
 30
0.0
 70
     1
 40
0.5
 41
0.5
  0
VERTEX
  5
800
  8
MITTA
 10
141.74999999999989
 20
161.0
 30
0.0
 42
1.0
  0
VERTEX
  5
801
  8
MITTA
 10
142.25
 20
161.0
 30
0.0
 42
1.0
  0
SEQEND
  5
802
  8
MITTA
  0
POLYLINE
  5
42D
  8
MITTA
 66
     1
 10
0.0
 20
0.0
 30
0.0
 70
     1
 40
0.5
 41
0.5
  0
VERTEX
  5
803
  8
MITTA
 10
137.74999999999989
 20
173.0
 30
0.0
 42
1.0
  0
VERTEX
  5
804
  8
MITTA
 10
138.25
 20
173.0
 30
0.0
 42
1.0
  0
SEQEND
  5
805
  8
MITTA
  0
POLYLINE
  5
42E
  8
MITTA
 66
     1
 10
0.0
 20
0.0
 30
0.0
 70
     1
 40
0.5
 41
0.5
  0
VERTEX
  5
806
  8
MITTA
 10
133.75
 20
197.5
 30
0.0
 42
1.0
  0
VERTEX
  5
807
  8
MITTA
 10
134.25
 20
197.5
 30
0.0
 42
1.0
  0
SEQEND
  5
808
  8
MITTA
  0
POLYLINE
  5
42F
  8
MITTA
 66
     1
 10
0.0
 20
0.0
 30
0.0
 70
     1
 40
0.5
 41
0.5
  0
VERTEX
  5
809
  8
MITTA
 10
129.75
 20
210.0
 30
0.0
 42
1.0
  0
VERTEX
  5
80A
  8
MITTA
 10
130.24999999999989
 20
210.0
 30
0.0
 42
1.0
  0
SEQEND
  5
80B
  8
MITTA
  0
POLYLINE
  5
430
  8
MITTA
 66
     1
 10
0.0
 20
0.0
 30
0.0
 70
     1
 40
0.5
 41
0.5
  0
VERTEX
  5
80C
  8
MITTA
 10
125.75
 20
222.5
 30
0.0
 42
1.0
  0
VERTEX
  5
80D
  8
MITTA
 10
126.2499999999999
 20
222.5
 30
0.0
 42
1.0
  0
SEQEND
  5
80E
  8
MITTA
  0
POLYLINE
  5
431
  8
MITTA
 66
     1
 10
0.0
 20
0.0
 30
0.0
 70
     1
 40
0.5
 41
0.5
  0
VERTEX
  5
80F
  8
MITTA
 10
121.75
 20
235.0
 30
0.0
 42
1.0
  0
VERTEX
  5
810
  8
MITTA
 10
122.2499999999999
 20
235.0
 30
0.0
 42
1.0
  0
SEQEND
  5
811
  8
MITTA
  0
TEXT
  5
433
  8
MITTA
 10
99.0
 20
233.49999999999989
 30
0.0
 40
2.5
  1
CH10, VT3
 41
0.9
  7
T25
  0
TEXT
  5
434
  8
MITTA
 10
99.0
 20
221.45238095238091
 30
0.0
 40
2.5
  1
CH9, CT6
 41
0.9
  7
T25
  0
TEXT
  5
435
  8
MITTA
 10
99.0
 20
208.9047619047619
 30
0.0
 40
2.5
  1
CH8, CT5
 41
0.9
  7
T25
  0
TEXT
  5
436
  8
MITTA
 10
99.0
 20
196.8571428571428
 30
0.0
 40
2.5
  1
CH7, CT4
 41
0.9
  7
T25
  0
TEXT
  5
437
  8
MITTA
 10
99.0
 20
183.8095238095238
 30
0.0
 40
2.5
  1
CH6, VT2
 41
0.9
  7
T25
  0
TEXT
  5
438
  8
MITTA
 10
99.0
 20
171.26190476190479
 30
0.0
 40
2.5
  1
CH5, VT1
 41
0.9
  7
T25
  0
TEXT
  5
439
  8
MITTA
 10
99.0
 20
159.71428571428569
 30
0.0
 40
2.5
  1
CH4, CT3
 41
0.9
  7
T25
  0
TEXT
  5
43A
  8
MITTA
 10
99.0
 20
147.66666666666671
 30
0.0
 40
2.5
  1
CH3, CT2
 41
0.9
  7
T25
  0
TEXT
  5
43B
  8
MITTA
 10
99.0
 20
136.11904761904771
 30
0.0
 40
2.5
  1
CH2, CT1
 41
0.9
  7
T25
  0
LINE
  5
43C
  8
MITTA
 10
153.0
 20
43.0
 30
0.0
 11
122.0
 21
43.0
 31
0.0
  0
TEXT
  5
43D
  8
MITTA
 10
92.5
 20
122.0
 30
0.0
 40
2.5
  1
CH10, SENSOR
 41
0.9
  7
T25
  0
TEXT
  5
43E
  8
MITTA
 10
95.0
 20
111.95238095238091
 30
0.0
 40
2.5
  1
CH9, SENSOR
 41
0.9
  7
T25
  0
TEXT
  5
43F
  8
MITTA
 10
95.0
 20
102.4047619047619
 30
0.0
 40
2.5
  1
CH8, SENSOR
 41
0.9
  7
T25
  0
TEXT
  5
440
  8
MITTA
 10
95.0
 20
91.857142857142847
 30
0.0
 40
2.5
  1
CH7, SENSOR
 41
0.9
  7
T25
  0
TEXT
  5
442
  8
MITTA
 10
95.0
 20
81.261904761904745
 30
0.0
 40
2.5
  1
CH5, SENSOR
 41
0.9
  7
T25
  0
TEXT
  5
443
  8
MITTA
 10
95.0
 20
71.214285714285694
 30
0.0
 40
2.5
  1
CH4, SENSOR
 41
0.9
  7
T25
  0
TEXT
  5
444
  8
MITTA
 10
95.0
 20
61.666666666666643
 30
0.0
 40
2.5
  1
CH3, SENSOR
 41
0.9
  7
T25
  0
TEXT
  5
445
  8
MITTA
 10
95.0
 20
51.619047619047592
 30
0.0
 40
2.5
  1
CH2, SENSOR
 41
0.9
  7
T25
  0
TEXT
  5
446
  8
MITTA
 10
95.0
 20
41.571428571428527
 30
0.0
 40
2.5
  1
CH1, SENSOR
 41
0.9
  7
T25
  0
LINE
  5
44C
  8
PISTKATK
 10
193.0
 20
247.5
 30
0.0
 11
72.5
 21
247.5
 31
0.0
  0
LINE
  5
44D
  8
PISTKATK
 10
72.5
 20
247.5
 30
0.0
 11
72.5
 21
37.0
 31
0.0
  0
LINE
  5
44E
  8
PISTKATK
 10
72.5
 20
37.0
 30
0.0
 11
193.0
 21
37.0
 31
0.0
  0
LINE
  5
44F
  8
PISTKATK
 10
193.0
 20
37.0
 30
0.0
 11
193.0
 21
247.5
 31
0.0
  0
TEXT
  5
450
  8
MITTA
 10
175.0
 20
233.49999999999989
 30
0.0
 40
2.5
  1
100V
 41
0.9
  7
T25
  0
TEXT
  5
452
  8
MITTA
 10
175.0
 20
184.0
 30
0.0
 40
2.5
  1
100V
 41
0.9
  7
T25
  0
TEXT
  5
453
  8
MITTA
 10
175.0
 20
171.5
 30
0.0
 40
2.5
  1
100V
 41
0.9
  7
T25
  0
TEXT
  5
51E
  8
TEXT25
 10
77.5
 20
247.5
 30
0.0
 40
2.5
  1
MIM6039,  TRANSFORMER AND SENSOR INPUT MODULE
 41
0.9
  7
T25
  0
TEXT
  5
521
  8
TEXT25
 10
308.49999999999989
 20
225.0
 30
0.0
 40
2.5
  1
MODULE
 41
0.9
  7
T25
  0
TEXT
  5
522
  8
TEXT25
 10
308.0
 20
220.45238095238091
 30
0.0
 40
2.5
  1
MIM4149
 41
0.9
  7
T25
  0
TEXT
  5
523
  8
TEXT25
 10
323.49999999999989
 20
225.0
 30
0.0
 40
2.5
  1
FRONT
 41
0.9
  7
T25
  0
TEXT
  5
524
  8
TEXT25
 10
349.0
 20
225.0
 30
0.0
 40
2.5
  1
REAR
 41
0.9
  7
T25
  0
TEXT
  5
525
  8
TEXT25
 10
323.49999999999989
 20
220.5
 30
0.0
 40
2.5
  1
S1,S2
 41
0.9
  7
T25
  0
TEXT
  5
526
  8
TEXT25
 10
338.5
 20
220.5
 30
0.0
 40
2.5
  1
X1.1 and X2.1 ... X2.9
 41
0.9
  7
T25
  0
TEXT
  5
527
  8
TEXT25
 10
337.5
 20
230.0
 30
0.0
 40
2.5
  1
POSITION
 41
0.9
  7
T25
  0
LINE
  5
528
  8
TEXT25
 10
306.0
 20
225.49999999999989
 30
0.0
 11
370.0
 21
225.49999999999989
 31
0.0
  0
LINE
  5
529
  8
TEXT25
 10
306.0
 20
220.5
 30
0.0
 11
370.0
 21
220.5
 31
0.0
  0
LINE
  5
52A
  8
TEXT25
 10
322.0
 20
230.5
 30
0.0
 11
370.0
 21
230.5
 31
0.0
  0
LINE
  5
52B
  8
TEXT25
 10
306.0
 20
235.49999999999989
 30
0.0
 11
370.0
 21
235.49999999999989
 31
0.0
  0
LINE
  5
52C
  8
TEXT25
 10
306.0
 20
220.5
 30
0.0
 11
306.0
 21
235.49999999999989
 31
0.0
  0
LINE
  5
52D
  8
TEXT25
 10
322.0
 20
220.5
 30
0.0
 11
322.0
 21
235.49999999999989
 31
0.0
  0
LINE
  5
52E
  8
TEXT25
 10
370.0
 20
220.5
 30
0.0
 11
370.0
 21
235.49999999999989
 31
0.0
  0
LINE
  5
52F
  8
TEXT25
 10
336.5
 20
220.5
 30
0.0
 11
336.5
 21
230.5
 31
0.0
  0
LINE
  5
538
  8
MITTA
 10
159.0
 20
107.4999999999999
 30
0.0
 11
168.0
 21
107.4999999999999
 31
0.0
  0
LINE
  5
539
  8
MITTA
 10
168.0
 20
98.500000000000014
 30
0.0
 11
159.0
 21
98.500000000000014
 31
0.0
  0
POLYLINE
  5
53A
  8
MITTA
 66
     1
 10
0.0
 20
0.0
 30
0.0
 70
     1
  0
VERTEX
  5
812
  8
MITTA
 10
166.5
 20
106.4999999999999
 30
0.0
  0
VERTEX
  5
813
  8
MITTA
 10
166.5
 20
99.500000000000014
 30
0.0
  0
VERTEX
  5
814
  8
MITTA
 10
160.0
 20
103.0
 30
0.0
  0
SEQEND
  5
815
  8
MITTA
  0
TEXT
  5
53B
  8
MITTA
 10
159.49999999999989
 20
99.0
 30
0.0
 40
1.5
  1
DIFF
 41
0.9
  7
T25
  0
LINE
  5
53C
  8
MITTA
 10
159.0
 20
98.500000000000014
 30
0.0
 11
159.0
 21
107.4999999999999
 31
0.0
  0
LINE
  5
53D
  8
MITTA
 10
159.0
 20
103.0
 30
0.0
 11
154.0
 21
103.0
 31
0.0
  0
LINE
  5
53E
  8
MITTA
 10
153.0
 20
103.0
 30
0.0
 11
155.0
 21
104.0
 31
0.0
  0
LINE
  5
53F
  8
MITTA
 10
155.0
 20
104.0
 30
0.0
 11
155.0
 21
102.0
 31
0.0
  0
LINE
  5
540
  8
MITTA
 10
155.0
 20
102.0
 30
0.0
 11
153.0
 21
103.0
 31
0.0
  0
INSERT
  5
541
  8
MITTA
  6
CONTINUOUS
  2
*U17
 10
0.0
 20
0.0
 30
0.0
1001
ACAD
1002
{
1000
R14_HATCH_DATA
1000
541
1011
1.0
1021
0.0
1031
0.0
1021
0.0
1031
0.0
1011
0.0
1021
0.0
1031
0.0
1021
1.0
1031
0.0
1011
0.0
1021
0.0
1031
0.0
1021
0.0
1031
1.0
1040
0.0
1010
0.0
1020
0.0
1030
1.0
1000
SOLID
1070
     1
1070
     0
1071
        1
1071
        1
1071
        3
1070
     1
1040
153.0
1040
103.0
1040
155.0
1040
104.0
1070
     1
1040
155.0
1040
104.0
1040
155.0
1040
102.0
1070
     1
1040
155.0
1040
102.0
1040
153.0
1040
103.0
1071
        0
1070
     0
1070
     1
1071
        1
1040
-1.0
1040
-13.5
1040
0.0
1002
}
  0
LINE
  5
542
  8
MITTA
 10
168.0
 20
107.4999999999999
 30
0.0
 11
168.0
 21
98.500000000000014
 31
0.0
  0
LINE
  5
546
  8
MITTA
 10
159.0
 20
117.5
 30
0.0
 11
168.0
 21
117.5
 31
0.0
  0
LINE
  5
547
  8
MITTA
 10
168.0
 20
108.4999999999999
 30
0.0
 11
159.0
 21
108.4999999999999
 31
0.0
  0
POLYLINE
  5
548
  8
MITTA
 66
     1
 10
0.0
 20
0.0
 30
0.0
 70
     1
  0
VERTEX
  5
81C
  8
MITTA
 10
166.5
 20
116.5
 30
0.0
  0
VERTEX
  5
81D
  8
MITTA
 10
166.5
 20
109.4999999999999
 30
0.0
  0
VERTEX
  5
81E
  8
MITTA
 10
160.0
 20
113.0
 30
0.0
  0
SEQEND
  5
81F
  8
MITTA
  0
TEXT
  5
549
  8
MITTA
 10
159.49999999999989
 20
109.0
 30
0.0
 40
1.5
  1
DIFF
 41
0.9
  7
T25
  0
LINE
  5
54A
  8
MITTA
 10
159.0
 20
108.4999999999999
 30
0.0
 11
159.0
 21
117.5
 31
0.0
  0
LINE
  5
54B
  8
MITTA
 10
159.0
 20
113.0
 30
0.0
 11
154.0
 21
113.0
 31
0.0
  0
LINE
  5
54C
  8
MITTA
 10
153.0
 20
113.0
 30
0.0
 11
155.0
 21
114.0
 31
0.0
  0
LINE
  5
54D
  8
MITTA
 10
155.0
 20
114.0
 30
0.0
 11
155.0
 21
112.0
 31
0.0
  0
LINE
  5
54E
  8
MITTA
 10
155.0
 20
112.0
 30
0.0
 11
153.0
 21
113.0
 31
0.0
  0
INSERT
  5
54F
  8
MITTA
  6
CONTINUOUS
  2
*U18
 10
0.0
 20
0.0
 30
0.0
1001
ACAD
1002
{
1000
R14_HATCH_DATA
1000
54F
1011
1.0
1021
0.0
1031
0.0
1021
0.0
1031
0.0
1011
0.0
1021
0.0
1031
0.0
1021
1.0
1031
0.0
1011
0.0
1021
0.0
1031
0.0
1021
0.0
1031
1.0
1040
0.0
1010
0.0
1020
0.0
1030
1.0
1000
SOLID
1070
     1
1070
     0
1071
        1
1071
        1
1071
        3
1070
     1
1040
153.0
1040
113.0
1040
155.0
1040
114.0
1070
     1
1040
155.0
1040
114.0
1040
155.0
1040
112.0
1070
     1
1040
155.0
1040
112.0
1040
153.0
1040
113.0
1071
        0
1070
     0
1070
     1
1071
        1
1040
-1.0
1040
-3.5
1040
0.0
1002
}
  0
LINE
  5
550
  8
MITTA
 10
168.0
 20
117.5
 30
0.0
 11
168.0
 21
108.4999999999999
 31
0.0
  0
LINE
  5
552
  8
MITTA
 10
193.0
 20
121.0
 30
0.0
 11
168.0
 21
121.0
 31
0.0
  0
LINE
  5
553
  8
MITTA
 10
168.0
 20
125.0
 30
0.0
 11
193.0
 21
125.0
 31
0.0
  0
LINE
  5
554
  8
MITTA
 10
159.0
 20
127.5
 30
0.0
 11
168.0
 21
127.5
 31
0.0
  0
LINE
  5
555
  8
MITTA
 10
168.0
 20
118.5
 30
0.0
 11
159.0
 21
118.5
 31
0.0
  0
POLYLINE
  5
556
  8
MITTA
 66
     1
 10
0.0
 20
0.0
 30
0.0
 70
     1
  0
VERTEX
  5
826
  8
MITTA
 10
166.5
 20
126.5
 30
0.0
  0
VERTEX
  5
827
  8
MITTA
 10
166.5
 20
119.5
 30
0.0
  0
VERTEX
  5
828
  8
MITTA
 10
160.0
 20
123.0
 30
0.0
  0
SEQEND
  5
829
  8
MITTA
  0
TEXT
  5
557
  8
MITTA
 10
159.49999999999989
 20
119.0
 30
0.0
 40
1.5
  1
DIFF
 41
0.9
  7
T25
  0
LINE
  5
558
  8
MITTA
 10
159.0
 20
118.5
 30
0.0
 11
159.0
 21
127.5
 31
0.0
  0
LINE
  5
559
  8
MITTA
 10
159.0
 20
123.0
 30
0.0
 11
154.0
 21
123.0
 31
0.0
  0
LINE
  5
55A
  8
MITTA
 10
153.0
 20
123.0
 30
0.0
 11
155.0
 21
124.0
 31
0.0
  0
LINE
  5
55B
  8
MITTA
 10
155.0
 20
124.0
 30
0.0
 11
155.0
 21
122.0
 31
0.0
  0
LINE
  5
55C
  8
MITTA
 10
155.0
 20
122.0
 30
0.0
 11
153.0
 21
123.0
 31
0.0
  0
INSERT
  5
55D
  8
MITTA
  6
CONTINUOUS
  2
*U19
 10
0.0
 20
0.0
 30
0.0
1001
ACAD
1002
{
1000
R14_HATCH_DATA
1000
55D
1011
1.0
1021
0.0
1031
0.0
1021
0.0
1031
0.0
1011
0.0
1021
0.0
1031
0.0
1021
1.0
1031
0.0
1011
0.0
1021
0.0
1031
0.0
1021
0.0
1031
1.0
1040
0.0
1010
0.0
1020
0.0
1030
1.0
1000
SOLID
1070
     1
1070
     0
1071
        1
1071
        1
1071
        3
1070
     1
1040
153.0
1040
123.0
1040
155.0
1040
124.0
1070
     1
1040
155.0
1040
124.0
1040
155.0
1040
122.0
1070
     1
1040
155.0
1040
122.0
1040
153.0
1040
123.0
1071
        0
1070
     0
1070
     1
1071
        1
1040
-1.0
1040
6.5
1040
0.0
1002
}
  0
LINE
  5
55E
  8
MITTA
 10
168.0
 20
127.5
 30
0.0
 11
168.0
 21
118.5
 31
0.0
  0
LINE
  5
562
  8
MITTA
 10
159.0
 20
77.5
 30
0.0
 11
168.0
 21
77.5
 31
0.0
  0
LINE
  5
563
  8
MITTA
 10
168.0
 20
68.5
 30
0.0
 11
159.0
 21
68.5
 31
0.0
  0
POLYLINE
  5
564
  8
MITTA
 66
     1
 10
0.0
 20
0.0
 30
0.0
 70
     1
  0
VERTEX
  5
830
  8
MITTA
 10
166.5
 20
76.5
 30
0.0
  0
VERTEX
  5
831
  8
MITTA
 10
166.5
 20
69.5
 30
0.0
  0
VERTEX
  5
832
  8
MITTA
 10
160.0
 20
73.0
 30
0.0
  0
SEQEND
  5
833
  8
MITTA
  0
TEXT
  5
565
  8
MITTA
 10
159.49999999999989
 20
69.0
 30
0.0
 40
1.5
  1
DIFF
 41
0.9
  7
T25
  0
LINE
  5
566
  8
MITTA
 10
159.0
 20
68.5
 30
0.0
 11
159.0
 21
77.5
 31
0.0
  0
LINE
  5
567
  8
MITTA
 10
159.0
 20
73.0
 30
0.0
 11
154.0
 21
73.0
 31
0.0
  0
LINE
  5
568
  8
MITTA
 10
153.0
 20
73.0
 30
0.0
 11
155.0
 21
74.0
 31
0.0
  0
LINE
  5
569
  8
MITTA
 10
155.0
 20
74.0
 30
0.0
 11
155.0
 21
72.0
 31
0.0
  0
LINE
  5
56A
  8
MITTA
 10
155.0
 20
72.0
 30
0.0
 11
153.0
 21
73.0
 31
0.0
  0
INSERT
  5
56B
  8
MITTA
  6
CONTINUOUS
  2
*U20
 10
0.0
 20
0.0
 30
0.0
1001
ACAD
1002
{
1000
R14_HATCH_DATA
1000
56B
1011
1.0
1021
0.0
1031
0.0
1021
0.0
1031
0.0
1011
0.0
1021
0.0
1031
0.0
1021
1.0
1031
0.0
1011
0.0
1021
0.0
1031
0.0
1021
0.0
1031
1.0
1040
0.0
1010
0.0
1020
0.0
1030
1.0
1000
SOLID
1070
     1
1070
     0
1071
        1
1071
        1
1071
        3
1070
     1
1040
153.0
1040
73.0
1040
155.0
1040
74.0
1070
     1
1040
155.0
1040
74.0
1040
155.0
1040
72.0
1070
     1
1040
155.0
1040
72.0
1040
153.0
1040
73.0
1071
        0
1070
     0
1070
     1
1071
        1
1040
-1.0
1040
-43.5
1040
0.0
1002
}
  0
LINE
  5
56C
  8
MITTA
 10
168.0
 20
77.5
 30
0.0
 11
168.0
 21
68.5
 31
0.0
  0
LINE
  5
570
  8
MITTA
 10
159.0
 20
87.5
 30
0.0
 11
168.0
 21
87.5
 31
0.0
  0
LINE
  5
571
  8
MITTA
 10
168.0
 20
78.5
 30
0.0
 11
159.0
 21
78.5
 31
0.0
  0
POLYLINE
  5
572
  8
MITTA
 66
     1
 10
0.0
 20
0.0
 30
0.0
 70
     1
  0
VERTEX
  5
83A
  8
MITTA
 10
166.5
 20
86.5
 30
0.0
  0
VERTEX
  5
83B
  8
MITTA
 10
166.5
 20
79.5
 30
0.0
  0
VERTEX
  5
83C
  8
MITTA
 10
160.0
 20
83.0
 30
0.0
  0
SEQEND
  5
83D
  8
MITTA
  0
TEXT
  5
573
  8
MITTA
 10
159.49999999999989
 20
79.0
 30
0.0
 40
1.5
  1
DIFF
 41
0.9
  7
T25
  0
LINE
  5
574
  8
MITTA
 10
159.0
 20
78.5
 30
0.0
 11
159.0
 21
87.5
 31
0.0
  0
LINE
  5
575
  8
MITTA
 10
159.0
 20
83.0
 30
0.0
 11
154.0
 21
83.0
 31
0.0
  0
LINE
  5
576
  8
MITTA
 10
153.0
 20
83.0
 30
0.0
 11
155.0
 21
84.0
 31
0.0
  0
LINE
  5
577
  8
MITTA
 10
155.0
 20
84.0
 30
0.0
 11
155.0
 21
82.0
 31
0.0
  0
LINE
  5
578
  8
MITTA
 10
155.0
 20
82.0
 30
0.0
 11
153.0
 21
83.0
 31
0.0
  0
INSERT
  5
579
  8
MITTA
  6
CONTINUOUS
  2
*U21
 10
0.0
 20
0.0
 30
0.0
1001
ACAD
1002
{
1000
R14_HATCH_DATA
1000
579
1011
1.0
1021
0.0
1031
0.0
1021
0.0
1031
0.0
1011
0.0
1021
0.0
1031
0.0
1021
1.0
1031
0.0
1011
0.0
1021
0.0
1031
0.0
1021
0.0
1031
1.0
1040
0.0
1010
0.0
1020
0.0
1030
1.0
1000
SOLID
1070
     1
1070
     0
1071
        1
1071
        1
1071
        3
1070
     1
1040
153.0
1040
83.0
1040
155.0
1040
84.0
1070
     1
1040
155.0
1040
84.0
1040
155.0
1040
82.0
1070
     1
1040
155.0
1040
82.0
1040
153.0
1040
83.0
1071
        0
1070
     0
1070
     1
1071
        1
1040
-1.0
1040
-33.5
1040
0.0
1002
}
  0
LINE
  5
57A
  8
MITTA
 10
168.0
 20
87.5
 30
0.0
 11
168.0
 21
78.5
 31
0.0
  0
LINE
  5
57E
  8
MITTA
 10
159.0
 20
97.5
 30
0.0
 11
168.0
 21
97.5
 31
0.0
  0
LINE
  5
57F
  8
MITTA
 10
168.0
 20
88.499999999999986
 30
0.0
 11
159.0
 21
88.499999999999986
 31
0.0
  0
POLYLINE
  5
580
  8
MITTA
 66
     1
 10
0.0
 20
0.0
 30
0.0
 70
     1
  0
VERTEX
  5
844
  8
MITTA
 10
166.5
 20
96.5
 30
0.0
  0
VERTEX
  5
845
  8
MITTA
 10
166.5
 20
89.500000000000014
 30
0.0
  0
VERTEX
  5
846
  8
MITTA
 10
160.0
 20
93.0
 30
0.0
  0
SEQEND
  5
847
  8
MITTA
  0
TEXT
  5
581
  8
MITTA
 10
159.49999999999989
 20
89.0
 30
0.0
 40
1.5
  1
DIFF
 41
0.9
  7
T25
  0
LINE
  5
582
  8
MITTA
 10
159.0
 20
88.499999999999986
 30
0.0
 11
159.0
 21
97.5
 31
0.0
  0
LINE
  5
583
  8
MITTA
 10
159.0
 20
93.0
 30
0.0
 11
154.0
 21
93.0
 31
0.0
  0
LINE
  5
584
  8
MITTA
 10
153.0
 20
93.0
 30
0.0
 11
155.0
 21
94.0
 31
0.0
  0
LINE
  5
585
  8
MITTA
 10
155.0
 20
94.0
 30
0.0
 11
155.0
 21
92.0
 31
0.0
  0
LINE
  5
586
  8
MITTA
 10
155.0
 20
92.0
 30
0.0
 11
153.0
 21
93.0
 31
0.0
  0
INSERT
  5
587
  8
MITTA
  6
CONTINUOUS
  2
*U22
 10
0.0
 20
0.0
 30
0.0
1001
ACAD
1002
{
1000
R14_HATCH_DATA
1000
587
1011
1.0
1021
0.0
1031
0.0
1021
0.0
1031
0.0
1011
0.0
1021
0.0
1031
0.0
1021
1.0
1031
0.0
1011
0.0
1021
0.0
1031
0.0
1021
0.0
1031
1.0
1040
0.0
1010
0.0
1020
0.0
1030
1.0
1000
SOLID
1070
     1
1070
     0
1071
        1
1071
        1
1071
        3
1070
     1
1040
153.0
1040
93.0
1040
155.0
1040
94.0
1070
     1
1040
155.0
1040
94.0
1040
155.0
1040
92.0
1070
     1
1040
155.0
1040
92.0
1040
153.0
1040
93.0
1071
        0
1070
     0
1070
     1
1071
        1
1040
-1.0
1040
-23.5
1040
0.0
1002
}
  0
LINE
  5
588
  8
MITTA
 10
168.0
 20
97.5
 30
0.0
 11
168.0
 21
88.499999999999986
 31
0.0
  0
LINE
  5
58C
  8
MITTA
 10
159.0
 20
57.5
 30
0.0
 11
168.0
 21
57.5
 31
0.0
  0
LINE
  5
58D
  8
MITTA
 10
168.0
 20
48.5
 30
0.0
 11
159.0
 21
48.5
 31
0.0
  0
POLYLINE
  5
58E
  8
MITTA
 66
     1
 10
0.0
 20
0.0
 30
0.0
 70
     1
  0
VERTEX
  5
84E
  8
MITTA
 10
166.5
 20
56.5
 30
0.0
  0
VERTEX
  5
84F
  8
MITTA
 10
166.5
 20
49.5
 30
0.0
  0
VERTEX
  5
850
  8
MITTA
 10
160.0
 20
53.0
 30
0.0
  0
SEQEND
  5
851
  8
MITTA
  0
TEXT
  5
58F
  8
MITTA
 10
159.49999999999989
 20
49.0
 30
0.0
 40
1.5
  1
DIFF
 41
0.9
  7
T25
  0
LINE
  5
590
  8
MITTA
 10
159.0
 20
48.5
 30
0.0
 11
159.0
 21
57.5
 31
0.0
  0
LINE
  5
591
  8
MITTA
 10
159.0
 20
53.0
 30
0.0
 11
154.0
 21
53.0
 31
0.0
  0
LINE
  5
592
  8
MITTA
 10
153.0
 20
53.0
 30
0.0
 11
155.0
 21
54.0
 31
0.0
  0
LINE
  5
593
  8
MITTA
 10
155.0
 20
54.0
 30
0.0
 11
155.0
 21
52.0
 31
0.0
  0
LINE
  5
594
  8
MITTA
 10
155.0
 20
52.0
 30
0.0
 11
153.0
 21
53.0
 31
0.0
  0
INSERT
  5
595
  8
MITTA
  6
CONTINUOUS
  2
*U23
 10
0.0
 20
0.0
 30
0.0
1001
ACAD
1002
{
1000
R14_HATCH_DATA
1000
595
1011
1.0
1021
0.0
1031
0.0
1021
0.0
1031
0.0
1011
0.0
1021
0.0
1031
0.0
1021
1.0
1031
0.0
1011
0.0
1021
0.0
1031
0.0
1021
0.0
1031
1.0
1040
0.0
1010
0.0
1020
0.0
1030
1.0
1000
SOLID
1070
     1
1070
     0
1071
        1
1071
        1
1071
        3
1070
     1
1040
153.0
1040
53.0
1040
155.0
1040
54.0
1070
     1
1040
155.0
1040
54.0
1040
155.0
1040
52.0
1070
     1
1040
155.0
1040
52.0
1040
153.0
1040
53.0
1071
        0
1070
     0
1070
     1
1071
        1
1040
-1.0
1040
-63.5
1040
0.0
1002
}
  0
LINE
  5
596
  8
MITTA
 10
168.0
 20
57.5
 30
0.0
 11
168.0
 21
48.5
 31
0.0
  0
LINE
  5
59A
  8
MITTA
 10
159.0
 20
47.5
 30
0.0
 11
168.0
 21
47.5
 31
0.0
  0
LINE
  5
59B
  8
MITTA
 10
168.0
 20
38.5
 30
0.0
 11
159.0
 21
38.5
 31
0.0
  0
POLYLINE
  5
59C
  8
MITTA
 66
     1
 10
0.0
 20
0.0
 30
0.0
 70
     1
  0
VERTEX
  5
858
  8
MITTA
 10
166.5
 20
46.5
 30
0.0
  0
VERTEX
  5
859
  8
MITTA
 10
166.5
 20
39.5
 30
0.0
  0
VERTEX
  5
85A
  8
MITTA
 10
160.0
 20
43.0
 30
0.0
  0
SEQEND
  5
85B
  8
MITTA
  0
TEXT
  5
59D
  8
MITTA
 10
159.49999999999989
 20
39.0
 30
0.0
 40
1.5
  1
DIFF
 41
0.9
  7
T25
  0
LINE
  5
59E
  8
MITTA
 10
159.0
 20
38.5
 30
0.0
 11
159.0
 21
47.5
 31
0.0
  0
LINE
  5
59F
  8
MITTA
 10
159.0
 20
43.0
 30
0.0
 11
154.0
 21
43.0
 31
0.0
  0
LINE
  5
5A0
  8
MITTA
 10
153.0
 20
43.0
 30
0.0
 11
155.0
 21
44.0
 31
0.0
  0
LINE
  5
5A1
  8
MITTA
 10
155.0
 20
44.0
 30
0.0
 11
155.0
 21
42.0
 31
0.0
  0
LINE
  5
5A2
  8
MITTA
 10
155.0
 20
42.0
 30
0.0
 11
153.0
 21
43.0
 31
0.0
  0
INSERT
  5
5A3
  8
MITTA
  6
CONTINUOUS
  2
*U24
 10
0.0
 20
0.0
 30
0.0
1001
ACAD
1002
{
1000
R14_HATCH_DATA
1000
5A3
1011
1.0
1021
0.0
1031
0.0
1021
0.0
1031
0.0
1011
0.0
1021
0.0
1031
0.0
1021
1.0
1031
0.0
1011
0.0
1021
0.0
1031
0.0
1021
0.0
1031
1.0
1040
0.0
1010
0.0
1020
0.0
1030
1.0
1000
SOLID
1070
     1
1070
     0
1071
        1
1071
        1
1071
        3
1070
     1
1040
153.0
1040
43.0
1040
155.0
1040
44.0
1070
     1
1040
155.0
1040
44.0
1040
155.0
1040
42.0
1070
     1
1040
155.0
1040
42.0
1040
153.0
1040
43.0
1071
        0
1070
     0
1070
     1
1071
        1
1040
-1.0
1040
-73.5
1040
0.0
1002
}
  0
LINE
  5
5A4
  8
MITTA
 10
168.0
 20
47.5
 30
0.0
 11
168.0
 21
38.5
 31
0.0
  0
LINE
  5
5A8
  8
MITTA
 10
159.0
 20
67.5
 30
0.0
 11
168.0
 21
67.5
 31
0.0
  0
LINE
  5
5A9
  8
MITTA
 10
168.0
 20
58.5
 30
0.0
 11
159.0
 21
58.5
 31
0.0
  0
POLYLINE
  5
5AA
  8
MITTA
 66
     1
 10
0.0
 20
0.0
 30
0.0
 70
     1
  0
VERTEX
  5
862
  8
MITTA
 10
166.5
 20
66.5
 30
0.0
  0
VERTEX
  5
863
  8
MITTA
 10
166.5
 20
59.5
 30
0.0
  0
VERTEX
  5
864
  8
MITTA
 10
160.0
 20
63.0
 30
0.0
  0
SEQEND
  5
865
  8
MITTA
  0
TEXT
  5
5AB
  8
MITTA
 10
159.49999999999989
 20
59.0
 30
0.0
 40
1.5
  1
DIFF
 41
0.9
  7
T25
  0
LINE
  5
5AC
  8
MITTA
 10
159.0
 20
58.5
 30
0.0
 11
159.0
 21
67.5
 31
0.0
  0
LINE
  5
5AD
  8
MITTA
 10
159.0
 20
63.0
 30
0.0
 11
154.0
 21
63.0
 31
0.0
  0
LINE
  5
5AE
  8
MITTA
 10
153.0
 20
63.0
 30
0.0
 11
155.0
 21
64.0
 31
0.0
  0
LINE
  5
5AF
  8
MITTA
 10
155.0
 20
64.0
 30
0.0
 11
155.0
 21
62.0
 31
0.0
  0
LINE
  5
5B0
  8
MITTA
 10
155.0
 20
62.0
 30
0.0
 11
153.0
 21
63.0
 31
0.0
  0
INSERT
  5
5B1
  8
MITTA
  6
CONTINUOUS
  2
*U25
 10
0.0
 20
0.0
 30
0.0
1001
ACAD
1002
{
1000
R14_HATCH_DATA
1000
5B1
1011
1.0
1021
0.0
1031
0.0
1021
0.0
1031
0.0
1011
0.0
1021
0.0
1031
0.0
1021
1.0
1031
0.0
1011
0.0
1021
0.0
1031
0.0
1021
0.0
1031
1.0
1040
0.0
1010
0.0
1020
0.0
1030
1.0
1000
SOLID
1070
     1
1070
     0
1071
        1
1071
        1
1071
        3
1070
     1
1040
153.0
1040
63.0
1040
155.0
1040
64.0
1070
     1
1040
155.0
1040
64.0
1040
155.0
1040
62.0
1070
     1
1040
155.0
1040
62.0
1040
153.0
1040
63.0
1071
        0
1070
     0
1070
     1
1071
        1
1040
-1.0
1040
-53.5
1040
0.0
1002
}
  0
LINE
  5
5B2
  8
MITTA
 10
168.0
 20
67.5
 30
0.0
 11
168.0
 21
58.5
 31
0.0
  0
TEXT
  5
5B4
  8
MITTA
 10
183.0
 20
120.0
 30
0.0
 40
2.5
  1
X2.1:2
 41
0.9
  7
T25
  0
LINE
  5
5B5
  8
MITTA
 10
168.0
 20
115.0
 30
0.0
 11
193.0
 21
115.0
 31
0.0
  0
LINE
  5
5B6
  8
MITTA
 10
193.0
 20
111.0
 30
0.0
 11
168.0
 21
111.0
 31
0.0
  0
TEXT
  5
5B7
  8
MITTA
 10
183.0
 20
110.0
 30
0.0
 40
2.5
  1
X2.2:2
 41
0.9
  7
T25
  0
TEXT
  5
5B8
  8
MITTA
 10
183.0
 20
114.5
 30
0.0
 40
2.5
  1
X2.2:1
 41
0.9
  7
T25
  0
LINE
  5
5B9
  8
MITTA
 10
168.0
 20
105.0
 30
0.0
 11
193.0
 21
105.0
 31
0.0
  0
LINE
  5
5BA
  8
MITTA
 10
193.0
 20
101.0
 30
0.0
 11
168.0
 21
101.0
 31
0.0
  0
TEXT
  5
5BB
  8
MITTA
 10
183.0
 20
100.0
 30
0.0
 40
2.5
  1
X2.3:2
 41
0.9
  7
T25
  0
TEXT
  5
5BC
  8
MITTA
 10
183.0
 20
104.4999999999999
 30
0.0
 40
2.5
  1
X2.3:1
 41
0.9
  7
T25
  0
LINE
  5
5BD
  8
MITTA
 10
168.0
 20
95.0
 30
0.0
 11
193.0
 21
95.0
 31
0.0
  0
LINE
  5
5BE
  8
MITTA
 10
193.0
 20
91.0
 30
0.0
 11
168.0
 21
91.0
 31
0.0
  0
TEXT
  5
5BF
  8
MITTA
 10
183.0
 20
90.0
 30
0.0
 40
2.5
  1
X2.4:2
 41
0.9
  7
T25
  0
TEXT
  5
5C0
  8
MITTA
 10
183.0
 20
94.500000000000014
 30
0.0
 40
2.5
  1
X2.4:1
 41
0.9
  7
T25
  0
LINE
  5
5C1
  8
MITTA
 10
168.0
 20
85.0
 30
0.0
 11
193.0
 21
85.0
 31
0.0
  0
LINE
  5
5C2
  8
MITTA
 10
193.0
 20
81.0
 30
0.0
 11
168.0
 21
81.0
 31
0.0
  0
TEXT
  5
5C3
  8
MITTA
 10
183.0
 20
80.0
 30
0.0
 40
2.5
  1
X2.5:2
 41
0.9
  7
T25
  0
TEXT
  5
5C4
  8
MITTA
 10
183.0
 20
84.500000000000014
 30
0.0
 40
2.5
  1
X2.5:1
 41
0.9
  7
T25
  0
LINE
  5
5C5
  8
MITTA
 10
168.0
 20
75.0
 30
0.0
 11
193.0
 21
75.0
 31
0.0
  0
LINE
  5
5C6
  8
MITTA
 10
193.0
 20
71.0
 30
0.0
 11
168.0
 21
71.0
 31
0.0
  0
TEXT
  5
5C7
  8
MITTA
 10
183.0
 20
70.0
 30
0.0
 40
2.5
  1
X2.6:2
 41
0.9
  7
T25
  0
TEXT
  5
5C8
  8
MITTA
 10
183.0
 20
74.5
 30
0.0
 40
2.5
  1
X2.6:1
 41
0.9
  7
T25
  0
LINE
  5
5C9
  8
MITTA
 10
168.0
 20
65.0
 30
0.0
 11
193.0
 21
65.0
 31
0.0
  0
LINE
  5
5CA
  8
MITTA
 10
193.0
 20
61.0
 30
0.0
 11
168.0
 21
61.0
 31
0.0
  0
TEXT
  5
5CB
  8
MITTA
 10
183.0
 20
60.0
 30
0.0
 40
2.5
  1
X2.7:2
 41
0.9
  7
T25
  0
TEXT
  5
5CC
  8
MITTA
 10
183.0
 20
64.5
 30
0.0
 40
2.5
  1
X2.7:1
 41
0.9
  7
T25
  0
LINE
  5
5CD
  8
MITTA
 10
168.0
 20
55.0
 30
0.0
 11
193.0
 21
55.0
 31
0.0
  0
LINE
  5
5CE
  8
MITTA
 10
193.0
 20
51.0
 30
0.0
 11
168.0
 21
51.0
 31
0.0
  0
TEXT
  5
5CF
  8
MITTA
 10
183.0
 20
50.0
 30
0.0
 40
2.5
  1
X2.8:2
 41
0.9
  7
T25
  0
TEXT
  5
5D0
  8
MITTA
 10
183.0
 20
54.5
 30
0.0
 40
2.5
  1
X2.8:1
 41
0.9
  7
T25
  0
LINE
  5
5D1
  8
MITTA
 10
168.0
 20
45.0
 30
0.0
 11
193.0
 21
45.0
 31
0.0
  0
LINE
  5
5D2
  8
MITTA
 10
193.0
 20
41.0
 30
0.0
 11
168.0
 21
41.0
 31
0.0
  0
TEXT
  5
5D3
  8
MITTA
 10
183.0
 20
40.0
 30
0.0
 40
2.5
  1
X2.9:2
 41
0.9
  7
T25
  0
TEXT
  5
5D4
  8
MITTA
 10
183.0
 20
44.5
 30
0.0
 40
2.5
  1
X2.9:1
 41
0.9
  7
T25
  0
TEXT
  5
67C
  8
TEXT25
 10
309.50000040170761
 20
26.500000199691719
 30
0.0
 40
3.5
  1
TERMINAL DIAGRAM
 41
0.9
  7
T25
  0
TEXT
  5
67D
  8
TEXT25
 10
309.50000040170761
 20
22.000000199691719
 30
0.0
 40
3.5
  1
MACHINE TERMINAL
 41
0.9
  7
T25
  0
TEXT
  5
67E
  8
TEXT25
 10
309.50000040170761
 20
17.500000199691719
 30
0.0
 40
3.5
  1
REM 54_ , MIM6039
 41
0.9
  7
T25
  0
TEXT
  5
682
  8
TEXT25
 10
310.0
 20
-1.5
 30
0.0
 40
5.0
  1
1MRS010245-AAA
  7
T25
  0
TEXT
  5
6A7
  8
TEXT25
 10
212.16249975885069
 20
27.24999972324758
 30
0.0
 40
2.5
  1
29-03-2001 S.Bjorklund
 41
0.9
  7
T25
  0
TEXT
  5
6A8
  8
TEXT25
 10
287.66249975885069
 20
-0.7500002767524167
 30
0.0
 40
3.5
  1
RSG
 41
0.9
  7
T25
  0
TEXT
  5
6AA
  8
TEXT25
 10
379.16249975885069
 20
-1.7500002767524161
 30
0.0
 40
5.0
  1
A
  7
T25
  0
TEXT
  5
6AB
  8
TEXT25
 10
375.6624997588508
 20
9.2499997232475835
 30
0.0
 40
2.5
  1
21 / 27
 41
0.9
  7
T25
  0
INSERT
  5
788
  8
MITTA
  2
CT
 10
192.5
 20
202.0
 30
0.0
  0
INSERT
  5
789
  8
MITTA
  2
CT
 10
192.5
 20
214.5
 30
0.0
  0
INSERT
  5
78A
  8
MITTA
  2
CT
 10
192.5
 20
227.0
 30
0.0
  0
TEXT
  5
78B
  8
MITTA
 10
188.0
 20
223.09008836877069
 30
0.0
 40
2.5
  1
23
 41
0.9
  7
T25
  0
TEXT
  5
78C
  8
MITTA
 10
188.0
 20
210.36804048088251
 30
0.0
 40
2.5
  1
20
 41
0.9
  7
T25
  0
TEXT
  5
78D
  8
MITTA
 10
188.0
 20
197.81449702432701
 30
0.0
 40
2.5
  1
17
 41
0.9
  7
T25
  0
LINE
  5
794
  8
MITTA
 10
169.5
 20
227.0
 30
0.0
 11
169.5
 21
218.0
 31
0.0
  0
LINE
  5
795
  8
MITTA
 10
169.5
 20
214.5
 30
0.0
 11
169.5
 21
205.5
 31
0.0
  0
LINE
  5
796
  8
MITTA
 10
169.5
 20
205.5
 30
0.0
 11
169.5
 21
202.0
 31
0.0
  0
LINE
  5
797
  8
MITTA
 10
169.5
 20
202.0
 30
0.0
 11
169.5
 21
193.0
 31
0.0
  0
TEXT
  5
7B2
  8
TEXT25
 10
212.16250041530131
 20
18.125000261199709
 30
0.0
 40
2.5
  1
T.Sonntag
 41
0.9
  7
T25
  0
TEXT
  5
7B3
  8
TEXT25
 10
212.16250041530131
 20
9.6250002611997161
 30
0.0
 40
2.5
  1
K.Latva-Rasku
 41
0.9
  7
T25
  0
ENDSEC
  0
EOF
