  0
SECTION
  2
HEADER
  9
$ACADVER
  1
AC1009
  9
$DWGCODEPAGE
  3
iso8859-1
  9
$INSBASE
 10
0.0
 20
0.0
 30
0.0
  9
$EXTMIN
 10
1.0E20
 20
1.0E20
  9
$EXTMAX
 10
-1.0E20
 20
-1.0E20
  9
$LIMMIN
 10
0.0
 20
0.0
  9
$LIMMAX
 10
12.0
 20
9.0
  9
$ORTHOMODE
 70
     0
  9
$REGENMODE
 70
     1
  9
$FILLMODE
 70
     1
  9
$QTEXTMODE
 70
     0
  9
$MIRRTEXT
 70
     1
  9
$DRAGMODE
 70
     2
  9
$LTSCALE
 40
15.0
  9
$OSMODE
 70
     0
  9
$ATTMODE
 70
     1
  9
$TEXTSIZE
 40
0.2
  9
$TRACEWID
 40
0.05
  9
$TEXTSTYLE
  7
STANDARD
  9
$CLAYER
  8
0
  9
$CELTYPE
  6
DASHED
  9
$CECOLOR
 62
   256
  9
$DIMSCALE
 40
1.0
  9
$DIMASZ
 40
0.18
  9
$DIMEXO
 40
0.0625
  9
$DIMDLI
 40
0.38
  9
$DIMRND
 40
0.0
  9
$DIMDLE
 40
0.0
  9
$DIMEXE
 40
0.18
  9
$DIMTP
 40
0.0
  9
$DIMTM
 40
0.0
  9
$DIMTXT
 40
0.18
  9
$DIMCEN
 40
0.09
  9
$DIMTSZ
 40
0.0
  9
$DIMTOL
 70
     0
  9
$DIMLIM
 70
     0
  9
$DIMTIH
 70
     1
  9
$DIMTOH
 70
     1
  9
$DIMSE1
 70
     0
  9
$DIMSE2
 70
     0
  9
$DIMTAD
 70
     0
  9
$DIMZIN
 70
     0
  9
$DIMBLK
  1

  9
$DIMASO
 70
     1
  9
$DIMSHO
 70
     1
  9
$DIMPOST
  1

  9
$DIMAPOST
  1

  9
$DIMALT
 70
     0
  9
$DIMALTD
 70
     2
  9
$DIMALTF
 40
25.4
  9
$DIMLFAC
 40
1.0
  9
$DIMTOFL
 70
     0
  9
$DIMTVP
 40
0.0
  9
$DIMTIX
 70
     0
  9
$DIMSOXD
 70
     0
  9
$DIMSAH
 70
     0
  9
$DIMBLK1
  1

  9
$DIMBLK2
  1

  9
$DIMSTYLE
  2
STANDARD
  9
$DIMCLRD
 70
     0
  9
$DIMCLRE
 70
     0
  9
$DIMCLRT
 70
     0
  9
$DIMTFAC
 40
1.0
  9
$DIMGAP
 40
0.09
  9
$LUNITS
 70
     2
  9
$LUPREC
 70
     4
  9
$AXISMODE
 70
     0
  9
$AXISUNIT
 10
0.0
 20
0.0
  9
$SKETCHINC
 40
0.1
  9
$FILLETRAD
 40
0.0
  9
$AUNITS
 70
     0
  9
$AUPREC
 70
     0
  9
$MENU
  1
acad
  9
$ELEVATION
 40
0.0
  9
$PELEVATION
 40
0.0
  9
$THICKNESS
 40
0.0
  9
$LIMCHECK
 70
     0
  9
$BLIPMODE
 70
     1
  9
$CHAMFERA
 40
0.0
  9
$CHAMFERB
 40
0.0
  9
$SKPOLY
 70
     0
  9
$TDCREATE
 40
0.000000000
  9
$TDUPDATE
 40
0.000000000
  9
$TDINDWG
 40
0.0
  9
$TDUSRTIMER
 40
0.0
  9
$USRTIMER
 70
     1
  9
$ANGBASE
 50
0.0
  9
$ANGDIR
 70
     0
  9
$PDMODE
 70
     0
  9
$PDSIZE
 40
0.0
  9
$PLINEWID
 40
0.0
  9
$COORDS
 70
     1
  9
$SPLFRAME
 70
     0
  9
$SPLINETYPE
 70
     6
  9
$SPLINESEGS
 70
     8
  9
$ATTDIA
 70
     0
  9
$ATTREQ
 70
     1
  9
$HANDLING
 70
     1
  9
$HANDSEED
  5
   705
  9
$SURFTAB1
 70
     6
  9
$SURFTAB2
 70
     6
  9
$SURFTYPE
 70
     6
  9
$SURFU
 70
     6
  9
$SURFV
 70
     6
  9
$UCSNAME
  2

  9
$UCSORG
 10
0.0
 20
0.0
 30
0.0
  9
$UCSXDIR
 10
1.0
 20
0.0
 30
0.0
  9
$UCSYDIR
 10
0.0
 20
1.0
 30
0.0
  9
$PUCSNAME
  2

  9
$PUCSORG
 10
0.0
 20
0.0
 30
0.0
  9
$PUCSXDIR
 10
1.0
 20
0.0
 30
0.0
  9
$PUCSYDIR
 10
0.0
 20
1.0
 30
0.0
  9
$USERI1
 70
     0
  9
$USERI2
 70
     0
  9
$USERI3
 70
     0
  9
$USERI4
 70
     0
  9
$USERI5
 70
     0
  9
$USERR1
 40
0.0
  9
$USERR2
 40
0.0
  9
$USERR3
 40
0.0
  9
$USERR4
 40
0.0
  9
$USERR5
 40
0.0
  9
$WORLDVIEW
 70
     1
  9
$SHADEDGE
 70
     3
  9
$SHADEDIF
 70
    70
  9
$TILEMODE
 70
     1
  9
$MAXACTVP
 70
    16
  9
$PINSBASE
 10
0.0
 20
0.0
 30
0.0
  9
$PLIMCHECK
 70
     0
  9
$PEXTMIN
 10
1.0E20
 20
1.0E20
 30
1.0E20
  9
$PEXTMAX
 10
-1.0E20
 20
-1.0E20
 30
-1.0E20
  9
$PLIMMIN
 10
0.0
 20
0.0
  9
$PLIMMAX
 10
12.0
 20
9.0
  9
$UNITMODE
 70
     0
  9
$VISRETAIN
 70
     0
  0
ENDSEC
  0
SECTION
  2
TABLES
  0
TABLE
  2
VPORT
 70
     1
  0
VPORT
  2
*ACTIVE
 70
     0
 10
0.0
 20
0.0
 11
1.0
 21
1.0
 12
6.801242
 22
4.5
 13
0.0
 23
0.0
 14
1.0
 24
1.0
 15
0.0
 25
0.0
 16
0.0
 26
0.0
 36
1.0
 17
0.0
 27
0.0
 37
0.0
 40
9.0
 41
1.511387
 42
50.0
 43
0.0
 44
0.0
 50
0.0
 51
0.0
 71
     0
 72
   100
 73
     1
 74
     1
 75
     0
 76
     0
 77
     0
 78
     0
  0
ENDTAB
  0
TABLE
  2
LTYPE
 70
    41
  0
LTYPE
  2
BYBLOCK
 70
     0
  3

 72
    65
 73
     0
 40
0.0
  0
LTYPE
  2
BYLAYER
 70
     0
  3

 72
    65
 73
     0
 40
0.0
  0
LTYPE
  2
CONTINUOUS
 70
     0
  3
Solid line
 72
    65
 73
     0
 40
0.0
  0
LTYPE
  2
BORDER
 70
    64
  3
__ __ . __ __ . __ __ . __ __ . __ __ . __ __ .
 72
    65
 73
     6
 40
1.75
 49
0.5
 49
-0.25
 49
0.5
 49
-0.25
 49
0.0
 49
-0.25
  0
LTYPE
  2
BORDER2
 70
    64
  3
__.__.__.__.__.__.__.__.__.__.__.__.__.__.__.__
 72
    65
 73
     6
 40
0.875
 49
0.25
 49
-0.125
 49
0.25
 49
-0.125
 49
0.0
 49
-0.125
  0
LTYPE
  2
BORDERX2
 70
    64
  3
____  ____  .  ____  ____  .  ____  ____  .  __
 72
    65
 73
     6
 40
3.5
 49
1.0
 49
-0.5
 49
1.0
 49
-0.5
 49
0.0
 49
-0.5
  0
LTYPE
  2
CENTER
 70
    64
  3
____ _ ____ _ ____ _ ____ _ ____ _ ____ _ ____
 72
    65
 73
     4
 40
2.0
 49
1.25
 49
-0.25
 49
0.25
 49
-0.25
  0
LTYPE
  2
CENTER2
 70
    64
  3
___ _ ___ _ ___ _ ___ _ ___ _ ___ _ ___ _ ___ _
 72
    65
 73
     4
 40
1.125
 49
0.75
 49
-0.125
 49
0.125
 49
-0.125
  0
LTYPE
  2
CENTERX2
 70
    64
  3
________  __  ________  __  ________  __  _____
 72
    65
 73
     4
 40
4.0
 49
2.5
 49
-0.5
 49
0.5
 49
-0.5
  0
LTYPE
  2
DASHDOT
 70
    64
  3
__ . __ . __ . __ . __ . __ . __ . __ . __ . __
 72
    65
 73
     4
 40
1.0
 49
0.5
 49
-0.25
 49
0.0
 49
-0.25
  0
LTYPE
  2
DASHDOT2
 70
    64
  3
_._._._._._._._._._._._._._._._._._._._._._._._
 72
    65
 73
     4
 40
0.5
 49
0.25
 49
-0.125
 49
0.0
 49
-0.125
  0
LTYPE
  2
DASHDOTX2
 70
    64
  3
____  .  ____  .  ____  .  ____  .  ____  .  __
 72
    65
 73
     4
 40
2.0
 49
1.0
 49
-0.5
 49
0.0
 49
-0.5
  0
LTYPE
  2
DASHED
 70
    64
  3
__ __ __ __ __ __ __ __ __ __ __ __ __ __ __ __
 72
    65
 73
     2
 40
0.75
 49
0.5
 49
-0.25
  0
LTYPE
  2
DASHED2
 70
    64
  3
_ _ _ _ _ _ _ _ _ _ _ _ _ _ _ _ _ _ _ _ _ _ _ _
 72
    65
 73
     2
 40
0.375
 49
0.25
 49
-0.125
  0
LTYPE
  2
DASHEDX2
 70
    64
  3
____  ____  ____  ____  ____  ____  ____  ____
 72
    65
 73
     2
 40
1.5
 49
1.0
 49
-0.5
  0
LTYPE
  2
DIVIDE
 70
    64
  3
____ . . ____ . . ____ . . ____ . . ____ . . __
 72
    65
 73
     6
 40
1.25
 49
0.5
 49
-0.25
 49
0.0
 49
-0.25
 49
0.0
 49
-0.25
  0
LTYPE
  2
DIVIDE2
 70
    64
  3
__..__..__..__..__..__..__..__..__..__..__..__.
 72
    65
 73
     6
 40
0.625
 49
0.25
 49
-0.125
 49
0.0
 49
-0.125
 49
0.0
 49
-0.125
  0
LTYPE
  2
DIVIDEX2
 70
    64
  3
________  .  .  ________  .  .  ________  .  .
 72
    65
 73
     6
 40
2.5
 49
1.0
 49
-0.5
 49
0.0
 49
-0.5
 49
0.0
 49
-0.5
  0
LTYPE
  2
DOT
 70
    64
  3
. . . . . . . . . . . . . . . . . . . . . . . .
 72
    65
 73
     2
 40
0.25
 49
0.0
 49
-0.25
  0
LTYPE
  2
DOT2
 70
    64
  3
...............................................
 72
    65
 73
     2
 40
0.125
 49
0.0
 49
-0.125
  0
LTYPE
  2
DOTX2
 70
    64
  3
.  .  .  .  .  .  .  .  .  .  .  .  .  .  .  .
 72
    65
 73
     2
 40
0.5
 49
0.0
 49
-0.5
  0
LTYPE
  2
HIDDEN
 70
    64
  3
__ __ __ __ __ __ __ __ __ __ __ __ __ __ __ __
 72
    65
 73
     2
 40
0.375
 49
0.25
 49
-0.125
  0
LTYPE
  2
HIDDEN2
 70
    64
  3
_ _ _ _ _ _ _ _ _ _ _ _ _ _ _ _ _ _ _ _ _ _ _ _
 72
    65
 73
     2
 40
0.1875
 49
0.125
 49
-0.0625
  0
LTYPE
  2
HIDDENX2
 70
    64
  3
____ ____ ____ ____ ____ ____ ____ ____ ____ __
 72
    65
 73
     2
 40
0.75
 49
0.5
 49
-0.25
  0
LTYPE
  2
PHANTOM
 70
    64
  3
______  __  __  ______  __  __  ______  __  __
 72
    65
 73
     6
 40
2.5
 49
1.25
 49
-0.25
 49
0.25
 49
-0.25
 49
0.25
 49
-0.25
  0
LTYPE
  2
PHANTOM2
 70
    64
  3
___ _ _ ___ _ _ ___ _ _ ___ _ _ ___ _ _ ___ _ _
 72
    65
 73
     6
 40
1.25
 49
0.625
 49
-0.125
 49
0.125
 49
-0.125
 49
0.125
 49
-0.125
  0
LTYPE
  2
PHANTOMX2
 70
    64
  3
____________    ____    ____    ____________
 72
    65
 73
     6
 40
5.0
 49
2.5
 49
-0.5
 49
0.5
 49
-0.5
 49
0.5
 49
-0.5
  0
LTYPE
  2
ACAD_ISO02W100
 70
    64
  3
__ __ __ __ __ __ __ __ __ __ __ __ __ __ __ __
 72
    65
 73
     2
 40
15.0
 49
12.0
 49
-3.0
  0
LTYPE
  2
ACAD_ISO03W100
 70
    64
  3
__    __    __    __    __    __    __    __
 72
    65
 73
     2
 40
30.0
 49
12.0
 49
-18.0
  0
LTYPE
  2
ACAD_ISO04W100
 70
    64
  3
____ . ____ . ____ . ____ . ____ . ____ . ____
 72
    65
 73
     4
 40
30.5
 49
24.0
 49
-3.0
 49
0.5
 49
-3.0
  0
LTYPE
  2
ACAD_ISO05W100
 70
    64
  3
____ .. ____ .. ____ .. ____ .. ____ .. ____ ..
 72
    65
 73
     6
 40
34.0
 49
24.0
 49
-3.0
 49
0.5
 49
-3.0
 49
0.5
 49
-3.0
  0
LTYPE
  2
ACAD_ISO06W100
 70
    64
  3
____ ... ____ ... ____ ... ____ ... ____ ... __
 72
    65
 73
     8
 40
37.5
 49
24.0
 49
-3.0
 49
0.5
 49
-3.0
 49
0.5
 49
-3.0
 49
0.5
 49
-3.0
  0
LTYPE
  2
ACAD_ISO07W100
 70
    64
  3
. . . . . . . . . . . . . . . . . . . . . . . .
 72
    65
 73
     2
 40
3.5
 49
0.5
 49
-3.0
  0
LTYPE
  2
ACAD_ISO08W100
 70
    64
  3
____ __ ____ __ ____ __ ____ ____ __ __ ____ __
 72
    65
 73
     4
 40
36.0
 49
24.0
 49
-3.0
 49
6.0
 49
-3.0
  0
LTYPE
  2
ACAD_ISO09W100
 70
    64
  3
____ __ __ ____ __ __ ____ __ __ ____ __ __ ___
 72
    65
 73
     6
 40
45.0
 49
24.0
 49
-3.0
 49
6.0
 49
-3.0
 49
6.0
 49
-3.0
  0
LTYPE
  2
ACAD_ISO10W100
 70
    64
  3
__ . __ . __ . __ . __ . __ . __ . __ . __ . __
 72
    65
 73
     4
 40
18.5
 49
12.0
 49
-3.0
 49
0.5
 49
-3.0
  0
LTYPE
  2
ACAD_ISO11W100
 70
    64
  3
__ __ . __ __ . __ __ . __ __ . __ __ . __ __ .
 72
    65
 73
     6
 40
33.5
 49
12.0
 49
-3.0
 49
12.0
 49
-3.0
 49
0.5
 49
-3.0
  0
LTYPE
  2
ACAD_ISO12W100
 70
    64
  3
__ . . __ . . __ . . __ . . __ . . __ . . __ .
 72
    65
 73
     6
 40
22.0
 49
12.0
 49
-3.0
 49
0.5
 49
-3.0
 49
0.5
 49
-3.0
  0
LTYPE
  2
ACAD_ISO13W100
 70
    64
  3
__ __ . . __ __ . . __ __ . . __ __ . . __ __ .
 72
    65
 73
     8
 40
37.0
 49
12.0
 49
-3.0
 49
12.0
 49
-3.0
 49
0.5
 49
-3.0
 49
0.5
 49
-3.0
  0
LTYPE
  2
ACAD_ISO14W100
 70
    64
  3
__ . . . __ . . . __ . . . __ . . . __ . . . __
 72
    65
 73
     8
 40
25.5
 49
12.0
 49
-3.0
 49
0.5
 49
-3.0
 49
0.5
 49
-3.0
 49
0.5
 49
-3.0
  0
LTYPE
  2
ACAD_ISO15W100
 70
    64
  3
__ __ . . . __ __ . . . __ __ . . . __ __ . . .
 72
    65
 73
    10
 40
40.5
 49
12.0
 49
-3.0
 49
12.0
 49
-3.0
 49
0.5
 49
-3.0
 49
0.5
 49
-3.0
 49
0.5
 49
-3.0
  0
ENDTAB
  0
TABLE
  2
STYLE
 70
     4
  0
STYLE
  2
STANDARD
 70
    64
 40
0.0
 41
1.0
 50
0.0
 71
     0
 42
0.2
  3
txt
  4

  0
STYLE
  2
TOLERANCE
 70
    64
 40
0.0
 41
1.0
 50
0.0
 71
     0
 42
0.2
  3
../igesfont/iges1003.shx
  4

  0
STYLE
  2
ROMANS
 70
    64
 40
0.0
 41
1.0
 50
0.0
 71
     0
 42
0.2
  3
romans.shx
  4

  0
STYLE
  2
ROMANC
 70
    64
 40
0.0
 41
1.0
 50
0.0
 71
     0
 42
0.2
  3
romanc.shx
  4

  0
ENDTAB
  0
TABLE
  2
DIMSTYLE
 70
     2
  0
DIMSTYLE
  2
UNNAMED
 70
     0
  3

  4

  5

  6

  7

 40
1.0
 41
0.18
 42
0.0625
 43
0.38
 44
0.18
 45
0.0
 46
0.0
 47
0.0
 48
0.0
140
0.18
141
0.09
142
0.0
143
25.4
144
1.0
145
0.0
146
1.0
147
0.09
 71
     0
 72
     0
 73
     1
 74
     1
 75
     0
 76
     0
 77
     0
 78
     0
170
     0
171
     2
172
     0
173
     0
174
     0
175
     0
176
     0
177
     0
178
     0
  0
DIMSTYLE
  2
STANDARD
 70
     0
  3

  4

  5

  6

  7

 40
1.0
 41
0.18
 42
0.0625
 43
0.38
 44
0.18
 45
0.0
 46
0.0
 47
0.0
 48
0.0
140
0.18
141
0.09
142
0.0
143
25.4
144
1.0
145
0.0
146
1.0
147
0.09
 71
     0
 72
     0
 73
     1
 74
     1
 75
     0
 76
     0
 77
     0
 78
     0
170
     0
171
     2
172
     0
173
     0
174
     0
175
     0
176
     0
177
     0
178
     0
  0
ENDTAB
  0
TABLE
  2
LAYER
 70
     2
  0
LAYER
  2
0
 70
     0
 62
     7
  6
CONTINUOUS
  0
LAYER
  2
255
 70
     0
 62
     7
  6
CONTINUOUS
  0
ENDTAB
  0
ENDSEC
  0
SECTION
  2
BLOCKS
  0
BLOCK
  5
     B
  8
0
  6
CONTINUOUS
 62
     7
  2
*UDIM508
 70
    65
 10
0.0
 20
0.0
 30
0.0
  3
*UDIM508
  0
TEXT
  5
     C
  8
0
  6
CONTINUOUS
 62
     7
 10
-355.517439554619
 20
7.070246589846
 30
0.0
 40
3.5
  1
4
 50
398.024208942372
 41
0.933333333333334
 72
     1
 11
-355.584483171486
 21
9.23933616795976
 31
0.0
 73
     2
  0
TEXT
  5
     D
  8
0
  6
CONTINUOUS
 62
     7
 10
-359.062317027113
 20
4.29827189569753
 30
0.0
 40
3.5
  1
R
 50
398.024208942372
 41
1.2
 72
     1
 11
-358.761743720441
 21
6.75482551557159
 31
0.0
 73
     2
  0
LINE
  5
     E
  8
0
  6
CONTINUOUS
 62
     7
 10
-344.462188415516
 20
13.176205558266
 30
0.0
 11
-357.830328269421
 21
2.72277079649848
 31
0.0
  0
LINE
  5
     F
  8
0
  6
CONTINUOUS
 62
     7
 10
-346.266620969823
 20
10.779536378559
 30
0.0
 11
-344.462188415516
 21
13.176205558266
 31
0.0
  0
LINE
  5
    10
  8
0
  6
CONTINUOUS
 62
     7
 10
-344.462188415516
 20
13.176205558266
 30
0.0
 11
-347.223207453911
 21
12.0028454815554
 31
0.0
  0
ENDBLK
  5
    11
  8
0
  6
CONTINUOUS
 62
     7
  0
BLOCK
  5
    12
  8
0
  6
CONTINUOUS
 62
     7
  2
*UDIM509
 70
    65
 10
0.0
 20
0.0
 30
0.0
  3
*UDIM509
  0
TEXT
  5
    13
  8
0
  6
CONTINUOUS
 62
     7
 10
-381.066743087827
 20
-51.6132793754662
 30
0.0
 40
3.00000002980232
  1
4
 50
394.831460017466
 41
0.933333333333334
 72
     1
 11
-381.02057033663
 21
-49.7537449859507
 31
0.0
 73
     2
  0
TEXT
  5
    14
  8
0
  6
CONTINUOUS
 62
     7
 10
-384.350085978372
 20
-53.8979368337148
 30
0.0
 40
3.00000002980232
  1
R
 50
394.831460017466
 41
1.2
 72
     1
 11
-383.975578936932
 21
-51.8099366983414
 31
0.0
 73
     2
  0
LINE
  5
    15
  8
0
  6
CONTINUOUS
 62
     7
 10
-391.070774681261
 20
-61.0109531788143
 30
0.0
 11
-378.118575769497
 21
-51.9983892028998
 31
0.0
  0
LINE
  5
    16
  8
0
  6
CONTINUOUS
 62
     7
 10
-389.135660088187
 20
-58.7185021953309
 30
0.0
 11
-391.070774681261
 21
-61.0109531788143
 31
0.0
  0
LINE
  5
    17
  8
0
  6
CONTINUOUS
 62
     7
 10
-391.070774681261
 20
-61.0109531788143
 30
0.0
 11
-388.248690777854
 21
-59.9931897278428
 31
0.0
  0
ENDBLK
  5
    18
  8
0
  6
CONTINUOUS
 62
     7
  0
BLOCK
  5
    19
  8
0
  6
CONTINUOUS
 62
     7
  2
*UDIM510
 70
    65
 10
0.0
 20
0.0
 30
0.0
  3
*UDIM510
  0
TEXT
  5
    1A
  8
0
  6
CONTINUOUS
 62
     7
 10
-355.749938992392
 20
-57.0147662929944
 30
0.0
 40
3.00000002980232
  1
72
 50
359.999999896069
 41
0.933333333333333
 72
     1
 11
-353.249938964844
 21
-55.5147662826155
 31
0.0
 73
     2
  0
LINE
  5
    1B
  8
0
  6
CONTINUOUS
 62
     7
 10
-344.249938964844
 20
-58.0147662975167
 30
0.0
 11
-362.249938964844
 21
-58.0147662975167
 31
0.0
  0
LINE
  5
    1C
  8
0
  6
CONTINUOUS
 62
     7
 10
-347.147716438054
 20
-58.7912234539353
 30
0.0
 11
-344.249938964844
 21
-58.0147662975167
 31
0.0
  0
LINE
  5
    1D
  8
0
  6
CONTINUOUS
 62
     7
 10
-344.249938964844
 20
-58.0147662975167
 30
0.0
 11
-347.147716438054
 21
-57.2383091410982
 31
0.0
  0
LINE
  5
    1E
  8
0
  6
CONTINUOUS
 62
     7
 10
-359.352161491633
 20
-57.2383091410982
 30
0.0
 11
-362.249938964844
 21
-58.0147662975167
 31
0.0
  0
LINE
  5
    1F
  8
0
  6
CONTINUOUS
 62
     7
 10
-362.249938964844
 20
-58.0147662975167
 30
0.0
 11
-359.352161491633
 21
-58.7912234539353
 31
0.0
  0
ENDBLK
  5
    20
  8
0
  6
CONTINUOUS
 62
     7
  0
BLOCK
  5
    21
  8
0
  6
CONTINUOUS
 62
     7
  2
*UDIM511
 70
    65
 10
0.0
 20
0.0
 30
0.0
  3
*UDIM511
  0
TEXT
  5
    22
  8
0
  6
CONTINUOUS
 62
     7
 10
-360.690593017868
 20
-17.3720669650526
 30
0.0
 40
3.00000002980232
  1
57,5
 50
359.999999896069
 41
0.933333333333333
 72
     1
 11
-355.390592962503
 21
-15.8720669597387
 31
0.0
 73
     2
  0
LINE
  5
    23
  8
0
  6
CONTINUOUS
 62
     7
 10
-347.874938964844
 20
-18.3720669746399
 30
0.0
 11
-362.249938964844
 21
-18.3720669746399
 31
0.0
  0
LINE
  5
    24
  8
0
  6
CONTINUOUS
 62
     7
 10
-344.920515687637
 20
-17.8511225446882
 30
0.0
 11
-347.874938964844
 21
-18.3720669746399
 31
0.0
  0
LINE
  5
    25
  8
0
  6
CONTINUOUS
 62
     7
 10
-347.874938964844
 20
-18.3720669746399
 30
0.0
 11
-344.920515687637
 21
-18.8930114045916
 31
0.0
  0
LINE
  5
    26
  8
0
  6
CONTINUOUS
 62
     7
 10
-365.204362242051
 20
-18.8930114045916
 30
0.0
 11
-362.249938964844
 21
-18.3720669746399
 31
0.0
  0
LINE
  5
    27
  8
0
  6
CONTINUOUS
 62
     7
 10
-362.249938964844
 20
-18.3720669746399
 30
0.0
 11
-365.204362242051
 21
-17.8511225446882
 31
0.0
  0
ENDBLK
  5
    28
  8
0
  6
CONTINUOUS
 62
     7
  0
BLOCK
  5
    29
  8
0
  6
CONTINUOUS
 62
     7
  2
*UDIM512
 70
    65
 10
0.0
 20
0.0
 30
0.0
  3
*UDIM512
  0
TEXT
  5
    2A
  8
0
  6
CONTINUOUS
 62
     7
 10
-379.56077317733
 20
-37.0358613425383
 30
0.0
 40
3.00000002980232
  1
6
 50
378.15626938813
 41
0.933333333333334
 72
     1
 11
-378.982956644982
 21
-35.2677753367994
 31
0.0
 73
     2
  0
TEXT
  5
    2B
  8
0
  6
CONTINUOUS
 62
     7
 10
-382.553935196213
 20
-38.0174321200658
 30
0.0
 40
3.00000002980232
  1
Ø
 50
378.15626938813
 41
0.933333333333334
 72
     1
 11
-381.976118663866
 21
-36.2493461143269
 31
0.0
 73
     2
  0
TEXT
  5
    2C
  8
0
  6
CONTINUOUS
 62
     7
 10
-376.947695203638
 20
-36.1789344558215
 30
0.0
 40
3.00000002980232
  1
 (M5)
 50
378.15626938813
 41
0.933333333333333
 72
     1
 11
-371.048701709595
 21
-32.6658337322704
 31
0.0
 73
     2
  0
LINE
  5
    2D
  8
0
  6
CONTINUOUS
 62
     7
 10
-363.903269133974
 20
-32.9535736732819
 30
0.0
 11
-388.58759658614
 21
-41.0484961456051
 31
0.0
  0
LINE
  5
    2E
  8
0
  6
CONTINUOUS
 62
     7
 10
-384.517289697322
 20
-39.1654476431864
 30
0.0
 11
-387.162281343548
 21
-40.5810814911137
 31
0.0
  0
LINE
  5
    2F
  8
0
  6
CONTINUOUS
 62
     7
 10
-387.162281343548
 20
-40.5810814911137
 30
0.0
 11
-384.192626949675
 21
-40.1554610252581
 31
0.0
  0
LINE
  5
    30
  8
0
  6
CONTINUOUS
 62
     7
 10
-391.232588232366
 20
-42.4641299935323
 30
0.0
 11
-388.58759658614
 21
-41.0484961456051
 31
0.0
  0
LINE
  5
    31
  8
0
  6
CONTINUOUS
 62
     7
 10
-388.58759658614
 20
-41.0484961456051
 30
0.0
 11
-391.557250980012
 21
-41.4741166114606
 31
0.0
  0
ENDBLK
  5
    32
  8
0
  6
CONTINUOUS
 62
     7
  0
BLOCK
  5
    33
  8
0
  6
CONTINUOUS
 62
     7
  2
*UDIM513
 70
    65
 10
0.0
 20
0.0
 30
0.0
  3
*UDIM513
  0
TEXT
  5
    34
  8
0
  6
CONTINUOUS
 62
     7
 10
-328.213184361209
 20
2.6602111481334
 30
0.0
 40
3.00000002980232
  1
65
 50
449.999999896069
 41
0.933333333333333
 72
     1
 11
-329.713184371591
 21
5.16021117568016
 31
0.0
 73
     2
  0
LINE
  5
    35
  8
0
  6
CONTINUOUS
 62
     7
 10
-344.249938964844
 20
13.5602111816406
 30
0.0
 11
-325.213184356689
 21
13.5602111816406
 31
0.0
  0
LINE
  5
    36
  8
0
  6
CONTINUOUS
 62
     7
 10
-344.249938964844
 20
-2.68978881835938
 30
0.0
 11
-325.213184356689
 21
-2.68978881835938
 31
0.0
  0
LINE
  5
    37
  8
0
  6
CONTINUOUS
 62
     7
 10
-327.213184356689
 20
13.5602111816406
 30
0.0
 11
-327.213184356689
 21
-2.68978881835938
 31
0.0
  0
LINE
  5
    38
  8
0
  6
CONTINUOUS
 62
     7
 10
-326.692239926738
 20
10.6057879044337
 30
0.0
 11
-327.213184356689
 21
13.5602111816406
 31
0.0
  0
LINE
  5
    39
  8
0
  6
CONTINUOUS
 62
     7
 10
-327.213184356689
 20
13.5602111816406
 30
0.0
 11
-327.734128786641
 21
10.6057879044337
 31
0.0
  0
LINE
  5
    3A
  8
0
  6
CONTINUOUS
 62
     7
 10
-327.734128786641
 20
0.264634458847585
 30
0.0
 11
-327.213184356689
 21
-2.68978881835938
 31
0.0
  0
LINE
  5
    3B
  8
0
  6
CONTINUOUS
 62
     7
 10
-327.213184356689
 20
-2.68978881835938
 30
0.0
 11
-326.692239926738
 21
0.264634458847585
 31
0.0
  0
ENDBLK
  5
    3C
  8
0
  6
CONTINUOUS
 62
     7
  0
BLOCK
  5
    3D
  8
0
  6
CONTINUOUS
 62
     7
  2
*UDIM514
 70
    65
 10
0.0
 20
0.0
 30
0.0
  3
*UDIM514
  0
TEXT
  5
    3E
  8
0
  6
CONTINUOUS
 62
     7
 10
-328.213184368801
 20
-20.0710388935899
 30
0.0
 40
3.00000002980232
  1
83,25
 50
449.999999896069
 41
0.933333333333333
 72
     1
 11
-329.713184371591
 21
-13.3710388243198
 31
0.0
 73
     2
  0
LINE
  5
    3F
  8
0
  6
CONTINUOUS
 62
     7
 10
-334.806708271655
 20
-23.5022888183594
 30
0.0
 11
-325.213184356689
 21
-23.5022888183594
 31
0.0
  0
LINE
  5
    40
  8
0
  6
CONTINUOUS
 62
     7
 10
-327.213184356689
 20
-2.68978881835938
 30
0.0
 11
-327.213184356689
 21
-23.5022888183594
 31
0.0
  0
LINE
  5
    41
  8
0
  6
CONTINUOUS
 62
     7
 10
-326.692239926738
 20
-5.64421209556634
 30
0.0
 11
-327.213184356689
 21
-2.68978881835938
 31
0.0
  0
LINE
  5
    42
  8
0
  6
CONTINUOUS
 62
     7
 10
-327.213184356689
 20
-2.68978881835938
 30
0.0
 11
-327.734128786641
 21
-5.64421209556634
 31
0.0
  0
LINE
  5
    43
  8
0
  6
CONTINUOUS
 62
     7
 10
-327.734128786641
 20
-20.5478655411524
 30
0.0
 11
-327.213184356689
 21
-23.5022888183594
 31
0.0
  0
LINE
  5
    44
  8
0
  6
CONTINUOUS
 62
     7
 10
-327.213184356689
 20
-23.5022888183594
 30
0.0
 11
-326.692239926738
 21
-20.5478655411524
 31
0.0
  0
ENDBLK
  5
    45
  8
0
  6
CONTINUOUS
 62
     7
  0
BLOCK
  5
    46
  8
0
  6
CONTINUOUS
 62
     7
  2
*UDIM515
 70
    65
 10
0.0
 20
0.0
 30
0.0
  3
*UDIM515
  0
TEXT
  5
    47
  8
0
  6
CONTINUOUS
 62
     7
 10
-328.213184368801
 20
-41.3210388935899
 30
0.0
 40
3.00000002980232
  1
86,75
 50
449.999999896069
 41
0.933333333333333
 72
     1
 11
-329.713184371591
 21
-34.6210388243198
 31
0.0
 73
     2
  0
LINE
  5
    48
  8
0
  6
CONTINUOUS
 62
     7
 10
-344.249938964844
 20
-45.1897888183594
 30
0.0
 11
-325.213184356689
 21
-45.1897888183594
 31
0.0
  0
LINE
  5
    49
  8
0
  6
CONTINUOUS
 62
     7
 10
-327.213184356689
 20
-23.5022888183594
 30
0.0
 11
-327.213184356689
 21
-45.1897888183594
 31
0.0
  0
LINE
  5
    4A
  8
0
  6
CONTINUOUS
 62
     7
 10
-326.692239926738
 20
-26.4567120955663
 30
0.0
 11
-327.213184356689
 21
-23.5022888183594
 31
0.0
  0
LINE
  5
    4B
  8
0
  6
CONTINUOUS
 62
     7
 10
-327.213184356689
 20
-23.5022888183594
 30
0.0
 11
-327.734128786641
 21
-26.4567120955663
 31
0.0
  0
LINE
  5
    4C
  8
0
  6
CONTINUOUS
 62
     7
 10
-327.734128786641
 20
-42.2353655411524
 30
0.0
 11
-327.213184356689
 21
-45.1897888183594
 31
0.0
  0
LINE
  5
    4D
  8
0
  6
CONTINUOUS
 62
     7
 10
-327.213184356689
 20
-45.1897888183594
 30
0.0
 11
-326.692239926738
 21
-42.2353655411524
 31
0.0
  0
ENDBLK
  5
    4E
  8
0
  6
CONTINUOUS
 62
     7
  0
BLOCK
  5
    4F
  8
0
  6
CONTINUOUS
 62
     7
  2
*UDIM516
 70
    65
 10
0.0
 20
0.0
 30
0.0
  3
*UDIM516
  0
TEXT
  5
    50
  8
0
  6
CONTINUOUS
 62
     7
 10
-328.213184361209
 20
-56.0897888518666
 30
0.0
 40
3.00000002980232
  1
65
 50
449.999999896069
 41
0.933333333333333
 72
     1
 11
-329.713184371591
 21
-53.5897888243198
 31
0.0
 73
     2
  0
LINE
  5
    51
  8
0
  6
CONTINUOUS
 62
     7
 10
-344.249938964844
 20
-61.4397888183594
 30
0.0
 11
-325.213184356689
 21
-61.4397888183594
 31
0.0
  0
LINE
  5
    52
  8
0
  6
CONTINUOUS
 62
     7
 10
-327.213184356689
 20
-45.1897888183594
 30
0.0
 11
-327.213184356689
 21
-61.4397888183594
 31
0.0
  0
LINE
  5
    53
  8
0
  6
CONTINUOUS
 62
     7
 10
-326.692239926738
 20
-48.1442120955663
 30
0.0
 11
-327.213184356689
 21
-45.1897888183594
 31
0.0
  0
LINE
  5
    54
  8
0
  6
CONTINUOUS
 62
     7
 10
-327.213184356689
 20
-45.1897888183594
 30
0.0
 11
-327.734128786641
 21
-48.1442120955663
 31
0.0
  0
LINE
  5
    55
  8
0
  6
CONTINUOUS
 62
     7
 10
-327.734128786641
 20
-58.4853655411524
 30
0.0
 11
-327.213184356689
 21
-61.4397888183594
 31
0.0
  0
LINE
  5
    56
  8
0
  6
CONTINUOUS
 62
     7
 10
-327.213184356689
 20
-61.4397888183594
 30
0.0
 11
-326.692239926738
 21
-58.4853655411524
 31
0.0
  0
ENDBLK
  5
    57
  8
0
  6
CONTINUOUS
 62
     7
  0
BLOCK
  5
    58
  8
0
  6
CONTINUOUS
 62
     7
  2
*UDIM517
 70
    65
 10
0.0
 20
0.0
 30
0.0
  3
*UDIM517
  0
TEXT
  5
    59
  8
0
  6
CONTINUOUS
 62
     7
 10
-371.924939012261
 20
-81.1801605154062
 30
0.0
 40
3.00000002980232
  1
188
 50
359.999999896069
 41
0.933333333333333
 72
     1
 11
-368.024938970804
 21
-79.6801605075598
 31
0.0
 73
     2
  0
LINE
  5
    5A
  8
0
  6
CONTINUOUS
 62
     7
 10
-344.249938964844
 20
-61.4397888183594
 30
0.0
 11
-344.249938964844
 21
-84.1801605224609
 31
0.0
  0
LINE
  5
    5B
  8
0
  6
CONTINUOUS
 62
     7
 10
-391.249938964844
 20
-61.4397888183594
 30
0.0
 11
-391.249938964844
 21
-84.1801605224609
 31
0.0
  0
LINE
  5
    5C
  8
0
  6
CONTINUOUS
 62
     7
 10
-344.249938964844
 20
-82.1801605224609
 30
0.0
 11
-391.249938964844
 21
-82.1801605224609
 31
0.0
  0
LINE
  5
    5D
  8
0
  6
CONTINUOUS
 62
     7
 10
-347.204362242051
 20
-82.7011049524126
 30
0.0
 11
-344.249938964844
 21
-82.1801605224609
 31
0.0
  0
LINE
  5
    5E
  8
0
  6
CONTINUOUS
 62
     7
 10
-344.249938964844
 20
-82.1801605224609
 30
0.0
 11
-347.204362242051
 21
-81.6592160925093
 31
0.0
  0
LINE
  5
    5F
  8
0
  6
CONTINUOUS
 62
     7
 10
-388.295515687637
 20
-81.6592160925093
 30
0.0
 11
-391.249938964844
 21
-82.1801605224609
 31
0.0
  0
LINE
  5
    60
  8
0
  6
CONTINUOUS
 62
     7
 10
-391.249938964844
 20
-82.1801605224609
 30
0.0
 11
-388.295515687637
 21
-82.7011049524126
 31
0.0
  0
ENDBLK
  5
    61
  8
0
  6
CONTINUOUS
 62
     7
  0
BLOCK
  5
    62
  8
0
  6
CONTINUOUS
 62
     5
  2
*UDIM518
 70
    65
 10
0.0
 20
0.0
 30
0.0
  3
*UDIM518
  0
TEXT
  5
    63
  8
0
  6
CONTINUOUS
 62
     5
 10
-400.712558758449
 20
-21.7086788929795
 30
0.0
 40
3.00000002980232
  1
65,75
 50
449.999999896069
 41
0.933333333333333
 72
     1
 11
-402.212558761239
 21
-15.0086788237095
 31
0.0
 73
     2
  0
LINE
  5
    64
  8
0
  6
CONTINUOUS
 62
     5
 10
-380.621151773799
 20
-7.06478881835938
 30
0.0
 11
-401.712558746338
 21
-7.06478881835938
 31
0.0
  0
LINE
  5
    65
  8
0
  6
CONTINUOUS
 62
     5
 10
-399.712558746338
 20
-7.06478881835938
 30
0.0
 11
-399.712558746338
 21
-23.5022888183594
 31
0.0
  0
LINE
  5
    66
  8
0
  6
CONTINUOUS
 62
     5
 10
-399.191614316386
 20
-10.0192120955663
 30
0.0
 11
-399.712558746338
 21
-7.06478881835938
 31
0.0
  0
LINE
  5
    67
  8
0
  6
CONTINUOUS
 62
     5
 10
-399.712558746338
 20
-7.06478881835938
 30
0.0
 11
-400.23350317629
 21
-10.0192120955663
 31
0.0
  0
LINE
  5
    68
  8
0
  6
CONTINUOUS
 62
     5
 10
-400.23350317629
 20
-20.5478655411524
 30
0.0
 11
-399.712558746338
 21
-23.5022888183594
 31
0.0
  0
LINE
  5
    69
  8
0
  6
CONTINUOUS
 62
     5
 10
-399.712558746338
 20
-23.5022888183594
 30
0.0
 11
-399.191614316386
 21
-20.5478655411524
 31
0.0
  0
ENDBLK
  5
    6A
  8
0
  6
CONTINUOUS
 62
     5
  0
BLOCK
  5
    6B
  8
0
  6
CONTINUOUS
 62
     7
  2
*UDIM519
 70
    65
 10
0.0
 20
0.0
 30
0.0
  3
*UDIM519
  0
TEXT
  5
    6C
  8
0
  6
CONTINUOUS
 62
     7
 10
-370.902672594519
 20
-74.7287063528085
 30
0.0
 40
3.00000002980232
  1
160
 50
359.999999896069
 41
0.933333333333333
 72
     1
 11
-367.002672553062
 21
-73.2287063449621
 31
0.0
 73
     2
  0
LINE
  5
    6D
  8
0
  6
CONTINUOUS
 62
     7
 10
-347.874938964844
 20
-46.6038370573083
 30
0.0
 11
-347.874938964844
 21
-77.7287063598633
 31
0.0
  0
LINE
  5
    6E
  8
0
  6
CONTINUOUS
 62
     7
 10
-387.874938964844
 20
-45.7754842815427
 30
0.0
 11
-387.874938964844
 21
-77.7287063598633
 31
0.0
  0
LINE
  5
    6F
  8
0
  6
CONTINUOUS
 62
     7
 10
-347.874938964844
 20
-75.7287063598633
 30
0.0
 11
-387.874938964844
 21
-75.7287063598633
 31
0.0
  0
LINE
  5
    70
  8
0
  6
CONTINUOUS
 62
     7
 10
-350.829362242051
 20
-76.249650789815
 30
0.0
 11
-347.874938964844
 21
-75.7287063598633
 31
0.0
  0
LINE
  5
    71
  8
0
  6
CONTINUOUS
 62
     7
 10
-347.874938964844
 20
-75.7287063598633
 30
0.0
 11
-350.829362242051
 21
-75.2077619299116
 31
0.0
  0
LINE
  5
    72
  8
0
  6
CONTINUOUS
 62
     7
 10
-384.920515687637
 20
-75.2077619299116
 30
0.0
 11
-387.874938964844
 21
-75.7287063598633
 31
0.0
  0
LINE
  5
    73
  8
0
  6
CONTINUOUS
 62
     7
 10
-387.874938964844
 20
-75.7287063598633
 30
0.0
 11
-384.920515687637
 21
-76.249650789815
 31
0.0
  0
ENDBLK
  5
    74
  8
0
  6
CONTINUOUS
 62
     7
  0
BLOCK
  5
    75
  8
0
  6
CONTINUOUS
 62
     7
  2
*UDIM520
 70
    65
 10
0.0
 20
0.0
 30
0.0
  3
*UDIM520
  0
TEXT
  5
    76
  8
0
  6
CONTINUOUS
 62
     7
 10
-407.107093818085
 20
-28.1147864718922
 30
0.0
 40
3.00000002980232
  1
135
 50
449.999999896069
 41
0.933333333333333
 72
     1
 11
-408.607093825936
 21
-24.2147864304377
 31
0.0
 73
     2
  0
LINE
  5
    77
  8
0
  6
CONTINUOUS
 62
     7
 10
-380.621151773799
 20
-7.06478808885536
 30
0.0
 11
-408.107093811035
 21
-7.06476803775005
 31
0.0
  0
LINE
  5
    78
  8
0
  6
CONTINUOUS
 62
     7
 10
-380.672923822285
 20
-40.8147880874266
 30
0.0
 11
-408.107093811035
 21
-40.8147680348925
 31
0.0
  0
LINE
  5
    79
  8
0
  6
CONTINUOUS
 62
     7
 10
-406.107093811035
 20
-7.0647694967581
 30
0.0
 11
-406.107093811035
 21
-40.8147694967581
 31
0.0
  0
LINE
  5
    7A
  8
0
  6
CONTINUOUS
 62
     7
 10
-405.586149381084
 20
-10.0191927739651
 30
0.0
 11
-406.107093811035
 21
-7.0647694967581
 31
0.0
  0
LINE
  5
    7B
  8
0
  6
CONTINUOUS
 62
     7
 10
-406.107093811035
 20
-7.0647694967581
 30
0.0
 11
-406.628038240987
 21
-10.0191927739651
 31
0.0
  0
LINE
  5
    7C
  8
0
  6
CONTINUOUS
 62
     7
 10
-406.628038240987
 20
-37.8603462195511
 30
0.0
 11
-406.107093811035
 21
-40.8147694967581
 31
0.0
  0
LINE
  5
    7D
  8
0
  6
CONTINUOUS
 62
     7
 10
-406.107093811035
 20
-40.8147694967581
 30
0.0
 11
-405.586149381084
 21
-37.8603462195511
 31
0.0
  0
ENDBLK
  5
    7E
  8
0
  6
CONTINUOUS
 62
     7
  0
BLOCK
  5
    7F
  8
0
  6
CONTINUOUS
 62
     7
  2
$1MOSTRA
 70
    64
 10
0.0
 20
0.0
 30
0.0
  3
$1MOSTRA
  0
LINE
  5
    80
  8
0
  6
CONTINUOUS
 62
     2
 10
175.338317871094
 20
34.312744140625
 30
0.0
 11
210.838317871094
 21
34.312744140625
 31
0.0
  0
LINE
  5
    81
  8
0
  6
CONTINUOUS
 62
     2
 10
175.338317871094
 20
49.312744140625
 30
0.0
 11
210.838317871094
 21
49.312744140625
 31
0.0
  0
LINE
  5
    82
  8
0
  6
CONTINUOUS
 62
     2
 10
210.838317871094
 20
33.312744140625
 30
0.0
 11
210.838317871094
 21
50.312744140625
 31
0.0
  0
LINE
  5
    83
  8
0
  6
CONTINUOUS
 62
     2
 10
175.338317871094
 20
34.312744140625
 30
0.0
 11
175.338317871094
 21
49.312744140625
 31
0.0
  0
LINE
  5
    84
  8
0
  6
CONTINUOUS
 62
     2
 10
210.838317871094
 20
50.312744140625
 30
0.0
 11
210.838317871094
 21
148.306442260742
 31
0.0
  0
LINE
  5
    85
  8
0
  6
CONTINUOUS
 62
     2
 10
210.838317871094
 20
-10.187255859375
 30
0.0
 11
210.838317871094
 21
33.3127403259278
 31
0.0
  0
LINE
  5
    86
  8
0
  6
CONTINUOUS
 62
     2
 10
37.5883140563965
 20
-11.437255859375
 30
0.0
 11
209.588317871094
 21
-11.437255859375
 31
0.0
  0
LINE
  5
    87
  8
0
  6
CONTINUOUS
 62
     2
 10
36.3383140563965
 20
-10.187255859375
 30
0.0
 11
36.3383140563965
 21
148.306442260742
 31
0.0
  0
LINE
  5
    88
  8
0
  6
CONTINUOUS
 62
     2
 10
175.338317871094
 20
128.562744140625
 30
0.0
 11
175.338317871094
 21
129.562744140625
 31
0.0
  0
LINE
  5
    89
  8
0
  6
CONTINUOUS
 62
     2
 10
45.3383140563965
 20
128.562744140625
 30
0.0
 11
45.3383140563965
 21
129.562744140625
 31
0.0
  0
LINE
  5
    8A
  8
0
  6
CONTINUOUS
 62
     2
 10
175.338317871094
 20
8.56274414062501
 30
0.0
 11
175.338317871094
 21
9.56274414062501
 31
0.0
  0
LINE
  5
    8B
  8
0
  6
CONTINUOUS
 62
     2
 10
46.3383140563965
 20
8.562744140625
 30
0.0
 11
174.338314056396
 21
8.56274414062501
 31
0.0
  0
LINE
  5
    8C
  8
0
  6
CONTINUOUS
 62
     2
 10
45.3383140563965
 20
8.562744140625
 30
0.0
 11
45.3383140563965
 21
9.562744140625
 31
0.0
  0
LINE
  5
    8D
  8
0
  6
CONTINUOUS
 62
     2
 10
174.338317871094
 20
-11.437255859375
 30
0.0
 11
174.338317871094
 21
8.56274414062501
 31
0.0
  0
LINE
  5
    8E
  8
0
  6
CONTINUOUS
 62
     2
 10
175.338317871094
 20
129.562744140625
 30
0.0
 11
175.338317871094
 21
149.562744140625
 31
0.0
  0
LINE
  5
    8F
  8
0
  6
CONTINUOUS
 62
     2
 10
175.338317871094
 20
9.56274414062501
 30
0.0
 11
175.338317871094
 21
33.312744140625
 31
0.0
  0
LINE
  5
    90
  8
0
  6
CONTINUOUS
 62
     2
 10
175.338317871094
 20
50.312744140625
 30
0.0
 11
175.338317871094
 21
128.562744140625
 31
0.0
  0
LINE
  5
    91
  8
0
  6
CONTINUOUS
 62
     2
 10
175.338317871094
 20
-11.437255859375
 30
0.0
 11
175.338317871094
 21
8.56274414062501
 31
0.0
  0
LINE
  5
    92
  8
0
  6
CONTINUOUS
 62
     2
 10
45.3383140563965
 20
129.562744140625
 30
0.0
 11
45.3383140563965
 21
149.562744140625
 31
0.0
  0
LINE
  5
    93
  8
0
  6
CONTINUOUS
 62
     2
 10
45.3383140563965
 20
9.562744140625
 30
0.0
 11
45.3383140563965
 21
128.562744140625
 31
0.0
  0
LINE
  5
    94
  8
0
  6
CONTINUOUS
 62
     2
 10
45.3383140563965
 20
-11.437255859375
 30
0.0
 11
45.3383140563965
 21
8.562744140625
 31
0.0
  0
LINE
  5
    95
  8
0
  6
CONTINUOUS
 62
     2
 10
46.3383140563965
 20
-11.437255859375
 30
0.0
 11
46.3383140563965
 21
8.562744140625
 31
0.0
  0
LINE
  5
    96
  8
0
  6
CONTINUOUS
 62
     2
 10
175.338317871094
 20
33.312744140625
 30
0.0
 11
210.838317871094
 21
33.312744140625
 31
0.0
  0
LINE
  5
    97
  8
0
  6
CONTINUOUS
 62
     2
 10
175.338317871094
 20
50.312744140625
 30
0.0
 11
210.838317871094
 21
50.312744140625
 31
0.0
  0
LINE
  5
    98
  8
0
  6
CONTINUOUS
 62
     2
 10
175.388320922852
 20
49.312744140625
 30
0.0
 11
175.388320922852
 21
50.312744140625
 31
0.0
  0
LINE
  5
    99
  8
0
  6
CONTINUOUS
 62
     2
 10
175.388320922852
 20
33.312744140625
 30
0.0
 11
175.388320922852
 21
34.312744140625
 31
0.0
  0
LINE
  5
    9A
  8
0
  6
CONTINUOUS
 62
     2
 10
46.3383140563965
 20
128.562744140625
 30
0.0
 11
174.338314056396
 21
128.562744140625
 31
0.0
  0
LINE
  5
    9B
  8
0
  6
CONTINUOUS
 62
     2
 10
46.3383140563965
 20
9.562744140625
 30
0.0
 11
174.338314056396
 21
9.56274414062501
 31
0.0
  0
LINE
  5
    9C
  8
0
  6
CONTINUOUS
 62
     2
 10
174.338317871094
 20
9.56274414062501
 30
0.0
 11
174.338317871094
 21
128.562744140625
 31
0.0
  0
LINE
  5
    9D
  8
0
  6
CONTINUOUS
 62
     2
 10
46.3383140563965
 20
9.562744140625
 30
0.0
 11
46.3383140563965
 21
128.562744140625
 31
0.0
  0
LINE
  5
    9E
  8
0
  6
CONTINUOUS
 62
     2
 10
167.338315963745
 20
121.562743016692
 30
0.0
 11
174.338312295455
 21
128.562739348402
 31
0.0
  0
LINE
  5
    9F
  8
0
  6
CONTINUOUS
 62
     2
 10
46.3383156391412
 20
128.562746004959
 30
0.0
 11
62.3383159637451
 21
121.033336629486
 31
0.0
  0
LINE
  5
    A0
  8
0
  6
CONTINUOUS
 62
     2
 10
167.338315963745
 20
16.5627619426901
 30
0.0
 11
174.338335117812
 21
9.56273924827786
 31
0.0
  0
LINE
  5
    A1
  8
0
  6
CONTINUOUS
 62
     2
 10
46.3383186567184
 20
9.56274576222224
 30
0.0
 11
62.3383159637451
 21
17.092157375641
 31
0.0
  0
LINE
  5
    A2
  8
0
  6
CONTINUOUS
 62
     2
 10
174.338256835938
 20
129.556442260742
 30
0.0
 11
174.338256835938
 21
149.556442260742
 31
0.0
  0
LINE
  5
    A3
  8
0
  6
CONTINUOUS
 62
     2
 10
45.3383140563965
 20
129.556442260742
 30
0.0
 11
175.338317871094
 21
129.556442260742
 31
0.0
  0
LINE
  5
    A4
  8
0
  6
CONTINUOUS
 62
     2
 10
37.5883140563965
 20
149.556442260742
 30
0.0
 11
45.3383140563965
 21
149.556442260742
 31
0.0
  0
LINE
  5
    A5
  8
0
  6
CONTINUOUS
 62
     2
 10
115.343585020102
 20
149.556442260742
 30
0.0
 11
175.338317871094
 21
149.556442260742
 31
0.0
  0
ARC
  5
    A6
  8
0
  6
CONTINUOUS
 62
     2
 10
110.338285446167
 20
153.703627621259
 30
0.0
 40
6.50016693934245
 50
219.643748317915
 51
320.356251682085
  0
LINE
  5
    A7
  8
0
  6
CONTINUOUS
 62
     2
 10
105.332985872232
 20
149.556442260742
 30
0.0
 11
115.343585020102
 21
149.556442260742
 31
0.0
  0
LINE
  5
    A8
  8
0
  6
CONTINUOUS
 62
     2
 10
46.3383140563965
 20
129.562744140625
 30
0.0
 11
46.3383140563965
 21
149.562744140625
 31
0.0
  0
LINE
  5
    A9
  8
0
  6
CONTINUOUS
 62
     2
 10
45.3383140563965
 20
149.556442260742
 30
0.0
 11
105.332985872232
 21
149.556442260742
 31
0.0
  0
LINE
  5
    AA
  8
0
  6
CONTINUOUS
 62
     2
 10
175.338317871094
 20
149.556442260742
 30
0.0
 11
209.588317871094
 21
149.556442260742
 31
0.0
  0
POINT
  5
    AB
  8
0
  6
CONTINUOUS
 62
     2
 10
114.838315963745
 20
69.062744140625
 30
0.0
  0
ARC
  5
    AC
  8
0
  6
CONTINUOUS
 62
     2
 10
37.5883140563965
 20
148.306442260742
 30
0.0
 40
1.25
 50
90.0
 51
180.0
  0
ARC
  5
    AD
  8
0
  6
CONTINUOUS
 62
     2
 10
37.5883140563965
 20
-10.187255859375
 30
0.0
 40
1.25
 50
180.0
 51
270.0
  0
ARC
  5
    AE
  8
0
  6
CONTINUOUS
 62
     2
 10
209.588317871094
 20
-10.187255859375
 30
0.0
 40
1.25
 50
270.0
 51
360.0
  0
ARC
  5
    AF
  8
0
  6
CONTINUOUS
 62
     2
 10
209.588317871094
 20
148.306442260742
 30
0.0
 40
1.25
 50
0.0
 51
90.0
  0
ENDBLK
  5
    B0
  8
0
  6
CONTINUOUS
 62
     7
  0
BLOCK
  5
    B1
  8
0
  6
CONTINUOUS
 62
     7
  2
TERM_400_FT_
 70
    64
 10
0.0
 20
0.0
 30
0.0
  3
TERM_400_FT_
  0
LINE
  5
    B2
  8
0
  6
DASHDOT
 62
     7
 10
-53.5499717146979
 20
246.443231191352
 30
0.0
 11
-53.5499717146979
 21
284.545618433223
 31
0.0
  0
LINE
  5
    B3
  8
0
  6
DASHDOT
 62
     7
 10
-97.2999687194824
 20
247.556784339915
 30
0.0
 11
-97.2999687194824
 21
284.545618433223
 31
0.0
  0
LINE
  5
    B4
  8
0
  6
DASHDOT
 62
     7
 10
-141.049964904786
 20
246.860813622064
 30
0.0
 11
-141.049964904786
 21
283.571266281189
 31
0.0
  0
LINE
  5
    B5
  8
0
  6
CONTINUOUS
 62
   130
 10
-84.7998886108399
 20
254.040756225586
 30
0.0
 11
-84.7998886108399
 21
257.237060546875
 31
0.0
  0
LINE
  5
    B6
  8
0
  6
CONTINUOUS
 62
   130
 10
-87.5498886108399
 20
257.237060546875
 30
0.0
 11
-84.7998886108399
 21
257.237060546875
 31
0.0
  0
LINE
  5
    B7
  8
0
  6
CONTINUOUS
 62
   130
 10
-87.5498886108399
 20
257.237060546875
 30
0.0
 11
-87.5498886108399
 21
282.237060546875
 31
0.0
  0
LINE
  5
    B8
  8
0
  6
CONTINUOUS
 62
   130
 10
-107.04988861084
 20
282.237060546875
 30
0.0
 11
-87.5498886108399
 21
282.237060546875
 31
0.0
  0
LINE
  5
    B9
  8
0
  6
CONTINUOUS
 62
   130
 10
-107.04988861084
 20
257.237060546875
 30
0.0
 11
-107.04988861084
 21
282.237060546875
 31
0.0
  0
LINE
  5
    BA
  8
0
  6
CONTINUOUS
 62
   130
 10
-109.79988861084
 20
257.237060546875
 30
0.0
 11
-107.04988861084
 21
257.237060546875
 31
0.0
  0
LINE
  5
    BB
  8
0
  6
CONTINUOUS
 62
   130
 10
-109.79988861084
 20
254.040756225586
 30
0.0
 11
-109.79988861084
 21
257.237060546875
 31
0.0
  0
LINE
  5
    BC
  8
0
  6
CONTINUOUS
 62
   130
 10
-84.7998886108399
 20
250.058898925781
 30
0.0
 11
-84.7998886108399
 21
251.980316162109
 31
0.0
  0
LINE
  5
    BD
  8
0
  6
CONTINUOUS
 62
   130
 10
-84.7998886108399
 20
248.406158447266
 30
0.0
 11
-84.7998886108399
 21
250.058898925781
 31
0.0
  0
LINE
  5
    BE
  8
0
  6
CONTINUOUS
 62
   130
 10
-84.7998886108399
 20
247.133590698242
 30
0.0
 11
-84.7998886108399
 21
248.406158447266
 31
0.0
  0
LINE
  5
    BF
  8
0
  6
CONTINUOUS
 62
   130
 10
-84.7998886108399
 20
243.237016575898
 30
0.0
 11
-84.7998886108399
 21
247.133590698242
 31
0.0
  0
LINE
  5
    C0
  8
0
  6
CONTINUOUS
 62
   130
 10
-84.7998886108399
 20
251.980316162109
 30
0.0
 11
-84.7998886108399
 21
254.040756225586
 31
0.0
  0
LINE
  5
    C1
  8
0
  6
CONTINUOUS
 62
   130
 10
-109.79988861084
 20
246.327056884766
 30
0.0
 11
-109.79988861084
 21
247.133590698242
 31
0.0
  0
LINE
  5
    C2
  8
0
  6
CONTINUOUS
 62
   130
 10
-109.79988861084
 20
250.058898925781
 30
0.0
 11
-109.79988861084
 21
251.980316162109
 31
0.0
  0
LINE
  5
    C3
  8
0
  6
CONTINUOUS
 62
   130
 10
-109.79988861084
 20
247.133590698242
 30
0.0
 11
-109.79988861084
 21
248.406158447266
 31
0.0
  0
LINE
  5
    C4
  8
0
  6
CONTINUOUS
 62
   130
 10
-109.79988861084
 20
251.980316162109
 30
0.0
 11
-109.79988861084
 21
254.040756225586
 31
0.0
  0
LINE
  5
    C5
  8
0
  6
CONTINUOUS
 62
   130
 10
-109.79988861084
 20
248.406158447266
 30
0.0
 11
-109.79988861084
 21
250.058898925781
 31
0.0
  0
LINE
  5
    C6
  8
0
  6
CONTINUOUS
 62
   130
 10
-109.79988861084
 20
243.237028223804
 30
0.0
 11
-109.79988861084
 21
246.327056884766
 31
0.0
  0
CIRCLE
  5
    C7
  8
0
  6
CONTINUOUS
 62
   130
 10
-97.2999386586023
 20
268.237135538299
 30
0.0
 40
5.09993111210575
  0
LINE
  5
    C8
  8
0
  6
CONTINUOUS
 62
   130
 10
-150.799884796143
 20
282.237046830361
 30
0.0
 11
-131.299884796143
 21
282.237046830361
 31
0.0
  0
LINE
  5
    C9
  8
0
  6
CONTINUOUS
 62
   130
 10
-150.799884796143
 20
257.237046830361
 30
0.0
 11
-150.799884796143
 21
282.237046830361
 31
0.0
  0
LINE
  5
    CA
  8
0
  6
CONTINUOUS
 62
   130
 10
-131.299884796143
 20
257.237046830361
 30
0.0
 11
-131.299884796143
 21
282.237046830361
 31
0.0
  0
CIRCLE
  5
    CB
  8
0
  6
CONTINUOUS
 62
   130
 10
-141.049934843906
 20
268.237121821785
 30
0.0
 40
5.09993111210575
  0
LINE
  5
    CC
  8
0
  6
CONTINUOUS
 62
   130
 10
-153.549884796143
 20
257.237046830361
 30
0.0
 11
-150.799884796143
 21
257.237046830361
 31
0.0
  0
LINE
  5
    CD
  8
0
  6
CONTINUOUS
 62
   130
 10
-131.299884796143
 20
257.237046830361
 30
0.0
 11
-128.549884796143
 21
257.237046830361
 31
0.0
  0
LINE
  5
    CE
  8
0
  6
CONTINUOUS
 62
   130
 10
-128.549884796143
 20
243.237030029297
 30
0.0
 11
-128.549884796143
 21
257.237046830361
 31
0.0
  0
LINE
  5
    CF
  8
0
  6
CONTINUOUS
 62
   130
 10
-153.549884796143
 20
243.237030029297
 30
0.0
 11
-153.549884796143
 21
257.237046830361
 31
0.0
  0
LINE
  5
    D0
  8
0
  6
CONTINUOUS
 62
   130
 10
-63.2998916060554
 20
282.237008820714
 30
0.0
 11
-43.7998916060554
 21
282.237008820714
 31
0.0
  0
CIRCLE
  5
    D1
  8
0
  6
CONTINUOUS
 62
   130
 10
-53.5499416538178
 20
268.237083812138
 30
0.0
 40
5.09993111210575
  0
LINE
  5
    D2
  8
0
  6
CONTINUOUS
 62
   130
 10
-63.2998916060554
 20
257.237008820714
 30
0.0
 11
-63.2998916060554
 21
282.237008820714
 31
0.0
  0
LINE
  5
    D3
  8
0
  6
CONTINUOUS
 62
   130
 10
-43.7998916060554
 20
257.237008820714
 30
0.0
 11
-43.7998916060554
 21
282.237008820714
 31
0.0
  0
LINE
  5
    D4
  8
0
  6
CONTINUOUS
 62
   130
 10
-41.0498916060554
 20
243.236992019649
 30
0.0
 11
-41.0498916060554
 21
257.237008820714
 31
0.0
  0
LINE
  5
    D5
  8
0
  6
CONTINUOUS
 62
   130
 10
-66.0498916060554
 20
243.236992019649
 30
0.0
 11
-66.0498916060554
 21
257.237008820714
 31
0.0
  0
LINE
  5
    D6
  8
0
  6
CONTINUOUS
 62
   130
 10
-66.0498916060554
 20
257.237008820714
 30
0.0
 11
-63.2998916060554
 21
257.237008820714
 31
0.0
  0
LINE
  5
    D7
  8
0
  6
CONTINUOUS
 62
   130
 10
-43.7998916060554
 20
257.237008820714
 30
0.0
 11
-41.0498916060554
 21
257.237008820714
 31
0.0
  0
LINE
  5
    D8
  8
0
  6
DASHDOT
 62
     7
 10
-61.6498727659236
 20
268.237083812138
 30
0.0
 11
-45.4500105417121
 21
268.237083812138
 31
0.0
  0
LINE
  5
    D9
  8
0
  6
DASHDOT
 62
     7
 10
-105.399869770708
 20
268.237135538299
 30
0.0
 11
-89.2000075464965
 21
268.237135538299
 31
0.0
  0
LINE
  5
    DA
  8
0
  6
DASHDOT
 62
     7
 10
-149.149865956011
 20
268.237121821785
 30
0.0
 11
-132.9500037318
 21
268.237121821785
 31
0.0
  0
POINT
  5
    DB
  8
0
  6
CONTINUOUS
 62
     7
 10
-97.2999687194824
 20
243.237022399888
 30
0.0
  0
LINE
  5
    DC
  8
0
  6
DASHDOT
 62
     7
 10
-192.899865956011
 20
268.237121821785
 30
0.0
 11
-176.7000037318
 21
268.237121821785
 31
0.0
  0
LINE
  5
    DD
  8
0
  6
CONTINUOUS
 62
   130
 10
-197.299884796143
 20
243.237030029297
 30
0.0
 11
-197.299884796143
 21
257.237046830361
 31
0.0
  0
LINE
  5
    DE
  8
0
  6
CONTINUOUS
 62
   130
 10
-172.299884796143
 20
243.237030029297
 30
0.0
 11
-172.299884796143
 21
257.237046830361
 31
0.0
  0
LINE
  5
    DF
  8
0
  6
CONTINUOUS
 62
   130
 10
-175.049884796143
 20
257.237046830361
 30
0.0
 11
-172.299884796143
 21
257.237046830361
 31
0.0
  0
LINE
  5
    E0
  8
0
  6
CONTINUOUS
 62
   130
 10
-197.299884796143
 20
257.237046830361
 30
0.0
 11
-194.549884796143
 21
257.237046830361
 31
0.0
  0
CIRCLE
  5
    E1
  8
0
  6
CONTINUOUS
 62
   130
 10
-184.799934843906
 20
268.237121821785
 30
0.0
 40
5.09993111210575
  0
LINE
  5
    E2
  8
0
  6
CONTINUOUS
 62
   130
 10
-175.049884796143
 20
257.237046830361
 30
0.0
 11
-175.049884796143
 21
282.237046830361
 31
0.0
  0
LINE
  5
    E3
  8
0
  6
CONTINUOUS
 62
   130
 10
-194.549884796143
 20
257.237046830361
 30
0.0
 11
-194.549884796143
 21
282.237046830361
 31
0.0
  0
LINE
  5
    E4
  8
0
  6
CONTINUOUS
 62
   130
 10
-194.549884796143
 20
282.237046830361
 30
0.0
 11
-175.049884796143
 21
282.237046830361
 31
0.0
  0
LINE
  5
    E5
  8
0
  6
DASHDOT
 62
     7
 10
-184.799964904786
 20
246.860813622064
 30
0.0
 11
-184.799964904786
 21
283.571266281189
 31
0.0
  0
ENDBLK
  5
    E6
  8
0
  6
CONTINUOUS
 62
     7
  0
BLOCK
  5
    E7
  8
0
  6
CONTINUOUS
 62
     7
  2
*UDIM521
 70
    65
 10
0.0
 20
0.0
 30
0.0
  3
*UDIM521
  0
TEXT
  5
    E8
  8
0
  6
CONTINUOUS
 62
     7
 10
-417.933627674557
 20
193.159684037922
 30
0.0
 40
2.99999997871263
  1
43,75
 50
359.999999948034
 41
0.933333333333333
 72
     1
 11
-411.233627720746
 21
194.659684021235
 31
0.0
 73
     2
  0
LINE
  5
    E9
  8
0
  6
CONTINUOUS
 62
     7
 10
-377.562435743504
 20
183.808578484308
 30
0.0
 11
-377.562435743504
 21
193.159684031879
 31
0.0
  0
LINE
  5
    EA
  8
0
  6
CONTINUOUS
 62
     7
 10
-392.874935482734
 20
183.808578484308
 30
0.0
 11
-392.874935482734
 21
193.159684031879
 31
0.0
  0
LINE
  5
    EB
  8
0
  6
CONTINUOUS
 62
     7
 10
-377.562435743504
 20
191.159684031879
 30
0.0
 11
-417.933627673204
 21
191.159684031879
 31
0.0
  0
LINE
  5
    EC
  8
0
  6
CONTINUOUS
 62
     7
 10
-380.460213216714
 20
190.383226875461
 30
0.0
 11
-377.562435743504
 21
191.159684031879
 31
0.0
  0
LINE
  5
    ED
  8
0
  6
CONTINUOUS
 62
     7
 10
-377.562435743504
 20
191.159684031879
 30
0.0
 11
-380.460213216714
 21
191.936141188298
 31
0.0
  0
LINE
  5
    EE
  8
0
  6
CONTINUOUS
 62
     7
 10
-389.977158009523
 20
191.936141188298
 30
0.0
 11
-392.874935482734
 21
191.159684031879
 31
0.0
  0
LINE
  5
    EF
  8
0
  6
CONTINUOUS
 62
     7
 10
-392.874935482734
 20
191.159684031879
 30
0.0
 11
-389.977158009523
 21
190.383226875461
 31
0.0
  0
ENDBLK
  5
    F0
  8
0
  6
CONTINUOUS
 62
     7
  0
BLOCK
  5
    F1
  8
0
  6
CONTINUOUS
 62
     7
  2
*UDIM522
 70
    65
 10
0.0
 20
0.0
 30
0.0
  3
*UDIM522
  0
TEXT
  5
    F2
  8
0
  6
CONTINUOUS
 62
     7
 10
-376.606186495272
 20
193.159684037922
 30
0.0
 40
2.99999997871263
  1
43,75
 50
359.999999948034
 41
0.933333333333333
 72
     1
 11
-369.906186541461
 21
194.659684021235
 31
0.0
 73
     2
  0
LINE
  5
    F3
  8
0
  6
CONTINUOUS
 62
     7
 10
-362.249937339418
 20
191.084916991014
 30
0.0
 11
-362.249937339418
 21
193.159684031879
 31
0.0
  0
LINE
  5
    F4
  8
0
  6
CONTINUOUS
 62
     7
 10
-362.249937339418
 20
191.159684031879
 30
0.0
 11
-377.562435743504
 21
191.159684031879
 31
0.0
  0
LINE
  5
    F5
  8
0
  6
CONTINUOUS
 62
     7
 10
-359.352159866207
 20
191.936141188298
 30
0.0
 11
-362.249937339418
 21
191.159684031879
 31
0.0
  0
LINE
  5
    F6
  8
0
  6
CONTINUOUS
 62
     7
 10
-362.249937339418
 20
191.159684031879
 30
0.0
 11
-359.352159866207
 21
190.383226875461
 31
0.0
  0
LINE
  5
    F7
  8
0
  6
CONTINUOUS
 62
     7
 10
-380.460213216714
 20
190.383226875461
 30
0.0
 11
-377.562435743504
 21
191.159684031879
 31
0.0
  0
LINE
  5
    F8
  8
0
  6
CONTINUOUS
 62
     7
 10
-377.562435743504
 20
191.159684031879
 30
0.0
 11
-380.460213216714
 21
191.936141188298
 31
0.0
  0
ENDBLK
  5
    F9
  8
0
  6
CONTINUOUS
 62
     7
  0
BLOCK
  5
    FA
  8
0
  6
CONTINUOUS
 62
     7
  2
*UDIM523
 70
    65
 10
0.0
 20
0.0
 30
0.0
  3
*UDIM523
  0
TEXT
  5
    FB
  8
0
  6
CONTINUOUS
 62
     7
 10
-335.757216062104
 20
193.159684037922
 30
0.0
 40
2.99999997871263
  1
43,75
 50
359.999999948034
 41
0.933333333333333
 72
     1
 11
-329.057216108293
 21
194.659684021235
 31
0.0
 73
     2
  0
LINE
  5
    FC
  8
0
  6
CONTINUOUS
 62
     7
 10
-346.937438648514
 20
184.149601731713
 30
0.0
 11
-346.937438648514
 21
193.159684031879
 31
0.0
  0
LINE
  5
    FD
  8
0
  6
CONTINUOUS
 62
     7
 10
-322.357216155835
 20
191.159684031879
 30
0.0
 11
-362.249937339418
 21
191.159684031879
 31
0.0
  0
LINE
  5
    FE
  8
0
  6
CONTINUOUS
 62
     7
 10
-349.835216121724
 20
190.383226875461
 30
0.0
 11
-346.937438648514
 21
191.159684031879
 31
0.0
  0
LINE
  5
    FF
  8
0
  6
CONTINUOUS
 62
     7
 10
-346.937438648514
 20
191.159684031879
 30
0.0
 11
-349.835216121724
 21
191.936141188298
 31
0.0
  0
LINE
  5
   100
  8
0
  6
CONTINUOUS
 62
     7
 10
-359.352159866207
 20
191.936141188298
 30
0.0
 11
-362.249937339418
 21
191.159684031879
 31
0.0
  0
LINE
  5
   101
  8
0
  6
CONTINUOUS
 62
     7
 10
-362.249937339418
 20
191.159684031879
 30
0.0
 11
-359.352159866207
 21
190.383226875461
 31
0.0
  0
ENDBLK
  5
   102
  8
0
  6
CONTINUOUS
 62
     7
  0
BLOCK
  5
   103
  8
0
  6
CONTINUOUS
 62
     7
  2
*UDIM524
 70
    65
 10
0.0
 20
0.0
 30
0.0
  3
*UDIM524
  0
TEXT
  5
   104
  8
0
  6
CONTINUOUS
 62
     7
 10
-366.425507596116
 20
202.531527040326
 30
0.0
 40
2.99999997871263
  1
105
 50
359.999999948034
 41
0.933333333333333
 72
     1
 11
-362.525507622437
 21
204.031527026164
 31
0.0
 73
     2
  0
LINE
  5
   105
  8
0
  6
CONTINUOUS
 62
     7
 10
-343.875493926993
 20
141.254125773986
 30
0.0
 11
-343.875493926993
 21
203.531527036808
 31
0.0
  0
LINE
  5
   106
  8
0
  6
CONTINUOUS
 62
     7
 10
-380.625513328304
 20
137.229105815369
 30
0.0
 11
-380.625513328304
 21
203.531527036808
 31
0.0
  0
LINE
  5
   107
  8
0
  6
CONTINUOUS
 62
     7
 10
-343.875493926993
 20
201.531527036808
 30
0.0
 11
-380.625513328304
 21
201.531527036808
 31
0.0
  0
LINE
  5
   108
  8
0
  6
CONTINUOUS
 62
     7
 10
-346.8299172042
 20
201.010582606856
 30
0.0
 11
-343.875493926993
 21
201.531527036808
 31
0.0
  0
LINE
  5
   109
  8
0
  6
CONTINUOUS
 62
     7
 10
-343.875493926993
 20
201.531527036808
 30
0.0
 11
-346.8299172042
 21
202.05247146676
 31
0.0
  0
LINE
  5
   10A
  8
0
  6
CONTINUOUS
 62
     7
 10
-377.671090051097
 20
202.05247146676
 30
0.0
 11
-380.625513328304
 21
201.531527036808
 31
0.0
  0
LINE
  5
   10B
  8
0
  6
CONTINUOUS
 62
     7
 10
-380.625513328304
 20
201.531527036808
 30
0.0
 11
-377.671090051097
 21
201.010582606856
 31
0.0
  0
ENDBLK
  5
   10C
  8
0
  6
CONTINUOUS
 62
     7
  0
BLOCK
  5
   10D
  8
0
  6
CONTINUOUS
 62
     7
  2
*UDIM525
 70
    65
 10
0.0
 20
0.0
 30
0.0
  3
*UDIM525
  0
TEXT
  5
   10E
  8
0
  6
CONTINUOUS
 62
     7
 10
-378.281177525204
 20
210.826405242048
 30
0.0
 40
2.99999997871263
  1
183,75
 50
359.999999948034
 41
0.933333333333333
 72
     1
 11
-370.181177581327
 21
212.326405224099
 31
0.0
 73
     2
  0
LINE
  5
   10F
  8
0
  6
CONTINUOUS
 62
     7
 10
-337.749926595092
 20
167.241597346813
 30
0.0
 11
-337.749926595092
 21
211.826405234743
 31
0.0
  0
LINE
  5
   110
  8
0
  6
CONTINUOUS
 62
     7
 10
-402.062420160754
 20
167.241597346813
 30
0.0
 11
-402.062420160754
 21
211.826405234743
 31
0.0
  0
LINE
  5
   111
  8
0
  6
CONTINUOUS
 62
     7
 10
-337.749926595092
 20
209.826405234743
 30
0.0
 11
-402.062420160754
 21
209.826405234743
 31
0.0
  0
LINE
  5
   112
  8
0
  6
CONTINUOUS
 62
     7
 10
-340.704349872299
 20
209.305460804791
 30
0.0
 11
-337.749926595092
 21
209.826405234743
 31
0.0
  0
LINE
  5
   113
  8
0
  6
CONTINUOUS
 62
     7
 10
-337.749926595092
 20
209.826405234743
 30
0.0
 11
-340.704349872299
 21
210.347349664694
 31
0.0
  0
LINE
  5
   114
  8
0
  6
CONTINUOUS
 62
     7
 10
-399.107996883547
 20
210.347349664694
 30
0.0
 11
-402.062420160754
 21
209.826405234743
 31
0.0
  0
LINE
  5
   115
  8
0
  6
CONTINUOUS
 62
     7
 10
-402.062420160754
 20
209.826405234743
 30
0.0
 11
-399.107996883547
 21
209.305460804791
 31
0.0
  0
ENDBLK
  5
   116
  8
0
  6
CONTINUOUS
 62
     7
  0
BLOCK
  5
   117
  8
0
  6
CONTINUOUS
 62
     7
  2
*UDIM526
 70
    65
 10
0.0
 20
0.0
 30
0.0
  3
*UDIM526
  0
TEXT
  5
   118
  8
0
  6
CONTINUOUS
 62
     7
 10
-349.437410594103
 20
54.0744376307396
 30
0.0
 40
2.99999997871263
  1
25
 50
359.999999948034
 41
0.933333333333333
 72
     1
 11
-346.937410610489
 21
55.574437617841
 31
0.0
 73
     2
  0
LINE
  5
   119
  8
0
  6
CONTINUOUS
 62
     7
 10
-342.562410684995
 20
68.2916422963061
 30
0.0
 11
-342.562410684995
 21
50.0744376284847
 31
0.0
  0
LINE
  5
   11A
  8
0
  6
CONTINUOUS
 62
     7
 10
-351.312410535984
 20
68.2916422963061
 30
0.0
 11
-351.312410535984
 21
50.0744376284847
 31
0.0
  0
LINE
  5
   11B
  8
0
  6
CONTINUOUS
 62
     7
 10
-337.562410684995
 20
52.0744376284847
 30
0.0
 11
-356.312410535984
 21
52.0744376284847
 31
0.0
  0
LINE
  5
   11C
  8
0
  6
CONTINUOUS
 62
     7
 10
-339.664633211785
 20
52.8508947849032
 30
0.0
 11
-342.562410684995
 21
52.0744376284847
 31
0.0
  0
LINE
  5
   11D
  8
0
  6
CONTINUOUS
 62
     7
 10
-342.562410684995
 20
52.0744376284847
 30
0.0
 11
-339.664633211785
 21
51.2979804720662
 31
0.0
  0
LINE
  5
   11E
  8
0
  6
CONTINUOUS
 62
     7
 10
-354.210188009194
 20
51.2979804720662
 30
0.0
 11
-351.312410535984
 21
52.0744376284847
 31
0.0
  0
LINE
  5
   11F
  8
0
  6
CONTINUOUS
 62
     7
 10
-351.312410535984
 20
52.0744376284847
 30
0.0
 11
-354.210188009194
 21
52.8508947849032
 31
0.0
  0
ENDBLK
  5
   120
  8
0
  6
CONTINUOUS
 62
     7
  0
BLOCK
  5
   121
  8
0
  6
CONTINUOUS
 62
     7
  2
*UDIM527
 70
    65
 10
0.0
 20
0.0
 30
0.0
  3
*UDIM527
  0
TEXT
  5
   122
  8
0
  6
CONTINUOUS
 62
     7
 10
-395.731525759086
 20
54.074437633265
 30
0.0
 40
2.99999997871263
  1
19,5
 50
359.999999948034
 41
0.933333333333333
 72
     1
 11
-390.431525795341
 21
55.574437617841
 31
0.0
 73
     2
  0
LINE
  5
   123
  8
0
  6
CONTINUOUS
 62
     7
 10
-374.149907763594
 20
59.5416291419413
 30
0.0
 11
-374.149907763594
 21
50.0744376284847
 31
0.0
  0
LINE
  5
   124
  8
0
  6
CONTINUOUS
 62
     7
 10
-380.974907647365
 20
59.5416291419413
 30
0.0
 11
-380.974907647365
 21
50.0744376284847
 31
0.0
  0
LINE
  5
   125
  8
0
  6
CONTINUOUS
 62
     7
 10
-369.149907763594
 20
52.0744376284847
 30
0.0
 11
-395.731525757733
 21
52.0744376284847
 31
0.0
  0
LINE
  5
   126
  8
0
  6
CONTINUOUS
 62
     7
 10
-371.252130290383
 20
52.8508947849032
 30
0.0
 11
-374.149907763594
 21
52.0744376284847
 31
0.0
  0
LINE
  5
   127
  8
0
  6
CONTINUOUS
 62
     7
 10
-374.149907763594
 20
52.0744376284847
 30
0.0
 11
-371.252130290383
 21
51.2979804720662
 31
0.0
  0
LINE
  5
   128
  8
0
  6
CONTINUOUS
 62
     7
 10
-383.872685120575
 20
51.2979804720662
 30
0.0
 11
-380.974907647365
 21
52.0744376284847
 31
0.0
  0
LINE
  5
   129
  8
0
  6
CONTINUOUS
 62
     7
 10
-380.974907647365
 20
52.0744376284847
 30
0.0
 11
-383.872685120575
 21
52.8508947849032
 31
0.0
  0
ENDBLK
  5
   12A
  8
0
  6
CONTINUOUS
 62
     7
  0
BLOCK
  5
   12B
  8
0
  6
CONTINUOUS
 62
     7
  2
*UDIM528
 70
    65
 10
0.0
 20
0.0
 30
0.0
  3
*UDIM528
  0
TEXT
  5
   12C
  8
0
  6
CONTINUOUS
 62
     7
 10
-409.633496700131
 20
55.8862361996664
 30
0.0
 40
2.99999997871263
  1
10,2
 50
395.641584035976
 41
0.933333333333333
 72
     1
 11
-406.200372456243
 21
60.1936318740221
 31
0.0
 73
     2
  0
TEXT
  5
   12D
  8
0
  6
CONTINUOUS
 62
     7
 10
-412.884208897468
 20
53.5553844154926
 30
0.0
 40
2.99999997871263
  1
Ø
 50
395.641584035976
 41
1.2
 72
     1
 11
-412.539261239465
 21
55.6484709042397
 31
0.0
 73
     2
  0
LINE
  5
   12E
  8
0
  6
CONTINUOUS
 62
     7
 10
-411.718782998684
 20
51.9300283068653
 30
0.0
 11
-387.360923982954
 21
69.395296099354
 31
0.0
  0
LINE
  5
   12F
  8
0
  6
CONTINUOUS
 62
     7
 10
-396.228044188458
 20
62.0818921195051
 30
0.0
 11
-394.325535669107
 21
64.4014742658829
 31
0.0
  0
LINE
  5
   130
  8
0
  6
CONTINUOUS
 62
     7
 10
-394.325535669107
 20
64.4014742658829
 30
0.0
 11
-397.13294746638
 21
63.3439115015359
 31
0.0
  0
LINE
  5
   131
  8
0
  6
CONTINUOUS
 62
     7
 10
-389.521805734393
 20
68.8013135034889
 30
0.0
 11
-391.424314253744
 21
66.481731357111
 31
0.0
  0
LINE
  5
   132
  8
0
  6
CONTINUOUS
 62
     7
 10
-391.424314253744
 20
66.481731357111
 30
0.0
 11
-388.616902456472
 21
67.539294121458
 31
0.0
  0
ENDBLK
  5
   133
  8
0
  6
CONTINUOUS
 62
     7
  0
BLOCK
  5
   134
  8
0
  6
CONTINUOUS
 62
     7
  2
*UDIM529
 70
    65
 10
0.0
 20
0.0
 30
0.0
  3
*UDIM529
  0
TEXT
  5
   135
  8
0
  6
CONTINUOUS
 62
     7
 10
-326.11112526823
 20
175.466588471982
 30
0.0
 40
2.99999997871263
  1
25
 50
89.9999999480344
 41
0.933333333333333
 72
     1
 11
-327.611125255322
 21
177.966588455601
 31
0.0
 73
     2
  0
LINE
  5
   136
  8
0
  6
CONTINUOUS
 62
     7
 10
-341.562410684995
 20
173.591588530107
 30
0.0
 11
-322.111125265966
 21
173.591588530107
 31
0.0
  0
LINE
  5
   137
  8
0
  6
CONTINUOUS
 62
     7
 10
-342.524910668604
 20
182.341588381095
 30
0.0
 11
-322.111125265966
 21
182.341588381095
 31
0.0
  0
LINE
  5
   138
  8
0
  6
CONTINUOUS
 62
     7
 10
-324.111125265966
 20
168.591588530107
 30
0.0
 11
-324.111125265966
 21
187.341588381095
 31
0.0
  0
LINE
  5
   139
  8
0
  6
CONTINUOUS
 62
     7
 10
-323.334668109547
 20
170.693811056896
 30
0.0
 11
-324.111125265966
 21
173.591588530107
 31
0.0
  0
LINE
  5
   13A
  8
0
  6
CONTINUOUS
 62
     7
 10
-324.111125265966
 20
173.591588530107
 30
0.0
 11
-324.887582422384
 21
170.693811056896
 31
0.0
  0
LINE
  5
   13B
  8
0
  6
CONTINUOUS
 62
     7
 10
-324.887582422384
 20
185.239365854306
 30
0.0
 11
-324.111125265966
 21
182.341588381095
 31
0.0
  0
LINE
  5
   13C
  8
0
  6
CONTINUOUS
 62
     7
 10
-324.111125265966
 20
182.341588381095
 30
0.0
 11
-323.334668109547
 21
185.239365854306
 31
0.0
  0
ENDBLK
  5
   13D
  8
0
  6
CONTINUOUS
 62
     7
  0
BLOCK
  5
   13E
  8
0
  6
CONTINUOUS
 62
     7
  2
*UDIM530
 70
    65
 10
0.0
 20
0.0
 30
0.0
  3
*UDIM530
  0
TEXT
  5
   13F
  8
0
  6
CONTINUOUS
 62
     7
 10
-429.052815110742
 20
141.647877105541
 30
0.0
 40
2.99999997871263
  1
158,25
 50
89.9999999480344
 41
0.933333333333333
 72
     1
 11
-430.552815092762
 21
149.747877049423
 31
0.0
 73
     2
  0
LINE
  5
   140
  8
0
  6
CONTINUOUS
 62
     7
 10
-405.423445845101
 20
122.054126083931
 30
0.0
 11
-429.052815103406
 21
122.054126083931
 31
0.0
  0
LINE
  5
   141
  8
0
  6
CONTINUOUS
 62
     7
 10
-396.709900802383
 20
177.441628014916
 30
0.0
 11
-429.052815103406
 21
177.441628014916
 31
0.0
  0
LINE
  5
   142
  8
0
  6
CONTINUOUS
 62
     7
 10
-427.052815103406
 20
122.054126083931
 30
0.0
 11
-427.052815103406
 21
177.441628014916
 31
0.0
  0
LINE
  5
   143
  8
0
  6
CONTINUOUS
 62
     7
 10
-427.829272259825
 20
124.951903557142
 30
0.0
 11
-427.052815103406
 21
122.054126083931
 31
0.0
  0
LINE
  5
   144
  8
0
  6
CONTINUOUS
 62
     7
 10
-427.052815103406
 20
122.054126083931
 30
0.0
 11
-426.276357946988
 21
124.951903557142
 31
0.0
  0
LINE
  5
   145
  8
0
  6
CONTINUOUS
 62
     7
 10
-426.276357946988
 20
174.543850541705
 30
0.0
 11
-427.052815103406
 21
177.441628014916
 31
0.0
  0
LINE
  5
   146
  8
0
  6
CONTINUOUS
 62
     7
 10
-427.052815103406
 20
177.441628014916
 30
0.0
 11
-427.829272259825
 21
174.543850541705
 31
0.0
  0
ENDBLK
  5
   147
  8
0
  6
CONTINUOUS
 62
     7
  0
BLOCK
  5
   148
  8
0
  6
CONTINUOUS
 62
     7
  2
*UDIM531
 70
    65
 10
0.0
 20
0.0
 30
0.0
  3
*UDIM531
  0
TEXT
  5
   149
  8
0
  6
CONTINUOUS
 62
     7
 10
-435.98320801755
 20
177.391614866075
 30
0.0
 40
2.99999997871263
  1
14
 50
89.9999999480344
 41
0.933333333333333
 72
     1
 11
-437.483208004643
 21
179.891614849694
 31
0.0
 73
     2
  0
LINE
  5
   14A
  8
0
  6
CONTINUOUS
 62
     7
 10
-396.709900802383
 20
177.441628014916
 30
0.0
 11
-435.983208015286
 21
177.441628014916
 31
0.0
  0
LINE
  5
   14B
  8
0
  6
CONTINUOUS
 62
     7
 10
-397.287407386595
 20
182.341601684471
 30
0.0
 11
-435.983208015286
 21
182.341601684471
 31
0.0
  0
LINE
  5
   14C
  8
0
  6
CONTINUOUS
 62
     7
 10
-433.983208015286
 20
177.391614867433
 30
0.0
 11
-433.983208015286
 21
187.341601684471
 31
0.0
  0
LINE
  5
   14D
  8
0
  6
CONTINUOUS
 62
     7
 10
-433.206750858868
 20
174.543850541705
 30
0.0
 11
-433.983208015286
 21
177.441628014916
 31
0.0
  0
LINE
  5
   14E
  8
0
  6
CONTINUOUS
 62
     7
 10
-433.983208015286
 20
177.441628014916
 30
0.0
 11
-434.759665171705
 21
174.543850541705
 31
0.0
  0
LINE
  5
   14F
  8
0
  6
CONTINUOUS
 62
     7
 10
-434.759665171705
 20
185.239379157682
 30
0.0
 11
-433.983208015286
 21
182.341601684471
 31
0.0
  0
LINE
  5
   150
  8
0
  6
CONTINUOUS
 62
     7
 10
-433.983208015286
 20
182.341601684471
 30
0.0
 11
-433.206750858868
 21
185.239379157682
 31
0.0
  0
ENDBLK
  5
   151
  8
0
  6
CONTINUOUS
 62
     7
  0
BLOCK
  5
   152
  8
0
  6
CONTINUOUS
 62
     7
  2
*UDIM532
 70
    65
 10
0.0
 20
0.0
 30
0.0
  3
*UDIM532
  0
TEXT
  5
   153
  8
0
  6
CONTINUOUS
 62
     7
 10
-435.983208018818
 20
117.541615439521
 30
0.0
 40
2.99999997871263
  1
320
 50
89.9999999480344
 41
0.933333333333333
 72
     1
 11
-437.483208004643
 21
121.441615413206
 31
0.0
 73
     2
  0
LINE
  5
   154
  8
0
  6
CONTINUOUS
 62
     7
 10
-396.709900802383
 20
65.441602811497
 30
0.0
 11
-435.983208015286
 21
65.441602811497
 31
0.0
  0
LINE
  5
   155
  8
0
  6
CONTINUOUS
 62
     7
 10
-433.983208015286
 20
65.441602811497
 30
0.0
 11
-433.983208015286
 21
177.441628014916
 31
0.0
  0
LINE
  5
   156
  8
0
  6
CONTINUOUS
 62
     7
 10
-434.759665171705
 20
68.3393802847075
 30
0.0
 11
-433.983208015286
 21
65.441602811497
 31
0.0
  0
LINE
  5
   157
  8
0
  6
CONTINUOUS
 62
     7
 10
-433.983208015286
 20
65.441602811497
 30
0.0
 11
-433.206750858868
 21
68.3393802847075
 31
0.0
  0
LINE
  5
   158
  8
0
  6
CONTINUOUS
 62
     7
 10
-433.206750858868
 20
174.543850541705
 30
0.0
 11
-433.983208015286
 21
177.441628014916
 31
0.0
  0
LINE
  5
   159
  8
0
  6
CONTINUOUS
 62
     7
 10
-433.983208015286
 20
177.441628014916
 30
0.0
 11
-434.759665171705
 21
174.543850541705
 31
0.0
  0
ENDBLK
  5
   15A
  8
0
  6
CONTINUOUS
 62
     7
  0
BLOCK
  5
   15B
  8
0
  6
CONTINUOUS
 62
     7
  2
*UDIM533
 70
    65
 10
0.0
 20
0.0
 30
0.0
  3
*UDIM533
  0
TEXT
  5
   15C
  8
0
  6
CONTINUOUS
 62
     7
 10
-435.98320801755
 20
60.4916159931
 30
0.0
 40
2.99999997871263
  1
14
 50
89.9999999480344
 41
0.933333333333333
 72
     1
 11
-437.483208004643
 21
62.9916159767191
 31
0.0
 73
     2
  0
LINE
  5
   15D
  8
0
  6
CONTINUOUS
 62
     7
 10
-397.287407386595
 20
60.5416291419413
 30
0.0
 11
-435.983208015286
 21
60.5416291419413
 31
0.0
  0
LINE
  5
   15E
  8
0
  6
CONTINUOUS
 62
     7
 10
-433.983208015286
 20
55.5416291419413
 30
0.0
 11
-433.983208015286
 21
65.4916159589797
 31
0.0
  0
LINE
  5
   15F
  8
0
  6
CONTINUOUS
 62
     7
 10
-433.206750858868
 20
57.6438516687308
 30
0.0
 11
-433.983208015286
 21
60.5416291419413
 31
0.0
  0
LINE
  5
   160
  8
0
  6
CONTINUOUS
 62
     7
 10
-433.983208015286
 20
60.5416291419413
 30
0.0
 11
-434.759665171705
 21
57.6438516687308
 31
0.0
  0
LINE
  5
   161
  8
0
  6
CONTINUOUS
 62
     7
 10
-434.759665171705
 20
68.3393802847075
 30
0.0
 11
-433.983208015286
 21
65.441602811497
 31
0.0
  0
LINE
  5
   162
  8
0
  6
CONTINUOUS
 62
     7
 10
-433.983208015286
 20
65.441602811497
 30
0.0
 11
-433.206750858868
 21
68.3393802847075
 31
0.0
  0
ENDBLK
  5
   163
  8
0
  6
CONTINUOUS
 62
     7
  0
BLOCK
  5
   164
  8
0
  6
CONTINUOUS
 62
     7
  2
*UDIM534
 70
    65
 10
0.0
 20
0.0
 30
0.0
  3
*UDIM534
  0
TEXT
  5
   165
  8
0
  6
CONTINUOUS
 62
     7
 10
-309.564316287615
 20
117.266616660139
 30
0.0
 40
2.99999997871263
  1
270
 50
89.9999999480344
 41
0.933333333333333
 72
     1
 11
-311.064316273439
 21
121.166616633824
 31
0.0
 73
     2
  0
LINE
  5
   166
  8
0
  6
CONTINUOUS
 62
     7
 10
-337.974924426094
 20
74.1916374601487
 30
0.0
 11
-306.564316284082
 21
74.1916374601487
 31
0.0
  0
LINE
  5
   167
  8
0
  6
CONTINUOUS
 62
     7
 10
-337.974913401474
 20
168.691593366264
 30
0.0
 11
-306.564316284082
 21
168.691593366264
 31
0.0
  0
LINE
  5
   168
  8
0
  6
CONTINUOUS
 62
     7
 10
-308.564316284082
 20
74.1916374601487
 30
0.0
 11
-308.564316284082
 21
168.691593366264
 31
0.0
  0
LINE
  5
   169
  8
0
  6
CONTINUOUS
 62
     7
 10
-309.085260714034
 20
77.1460607373557
 30
0.0
 11
-308.564316284082
 21
74.1916374601487
 31
0.0
  0
LINE
  5
   16A
  8
0
  6
CONTINUOUS
 62
     7
 10
-308.564316284082
 20
74.1916374601487
 30
0.0
 11
-308.043371854131
 21
77.1460607373557
 31
0.0
  0
LINE
  5
   16B
  8
0
  6
CONTINUOUS
 62
     7
 10
-308.043371854131
 20
165.737170089057
 30
0.0
 11
-308.564316284082
 21
168.691593366264
 31
0.0
  0
LINE
  5
   16C
  8
0
  6
CONTINUOUS
 62
     7
 10
-308.564316284082
 20
168.691593366264
 30
0.0
 11
-309.085260714034
 21
165.737170089057
 31
0.0
  0
ENDBLK
  5
   16D
  8
0
  6
CONTINUOUS
 62
     7
  0
BLOCK
  5
   16E
  8
0
  6
CONTINUOUS
 62
     7
  2
*UDIM535
 70
    65
 10
0.0
 20
0.0
 30
0.0
  3
*UDIM535
  0
TEXT
  5
   16F
  8
0
  6
CONTINUOUS
 62
     7
 10
-316.46179847376
 20
136.997861377342
 30
0.0
 40
2.99999997871263
  1
133,25
 50
89.9999999480344
 41
0.933333333333333
 72
     1
 11
-317.96179845578
 21
145.097861321225
 31
0.0
 73
     2
  0
LINE
  5
   170
  8
0
  6
CONTINUOUS
 62
     7
 10
-321.909766898215
 20
122.054126083931
 30
0.0
 11
-313.461798466424
 21
122.054126083931
 31
0.0
  0
LINE
  5
   171
  8
0
  6
CONTINUOUS
 62
     7
 10
-337.974913401474
 20
168.691593366264
 30
0.0
 11
-313.461798466424
 21
168.691593366264
 31
0.0
  0
LINE
  5
   172
  8
0
  6
CONTINUOUS
 62
     7
 10
-315.461798466424
 20
122.054126083931
 30
0.0
 11
-315.461798466424
 21
168.691593366264
 31
0.0
  0
LINE
  5
   173
  8
0
  6
CONTINUOUS
 62
     7
 10
-315.982742896375
 20
125.008549361138
 30
0.0
 11
-315.461798466424
 21
122.054126083931
 31
0.0
  0
LINE
  5
   174
  8
0
  6
CONTINUOUS
 62
     7
 10
-315.461798466424
 20
122.054126083931
 30
0.0
 11
-314.940854036472
 21
125.008549361138
 31
0.0
  0
LINE
  5
   175
  8
0
  6
CONTINUOUS
 62
     7
 10
-314.940854036472
 20
165.737170089057
 30
0.0
 11
-315.461798466424
 21
168.691593366264
 31
0.0
  0
LINE
  5
   176
  8
0
  6
CONTINUOUS
 62
     7
 10
-315.461798466424
 20
168.691593366264
 30
0.0
 11
-315.982742896375
 21
165.737170089057
 31
0.0
  0
ENDBLK
  5
   177
  8
0
  6
CONTINUOUS
 62
     7
  0
BLOCK
  5
   178
  8
0
  6
CONTINUOUS
 62
     7
  2
*UDIM536
 70
    65
 10
0.0
 20
0.0
 30
0.0
  3
*UDIM536
  0
TEXT
  5
   179
  8
0
  6
CONTINUOUS
 62
     7
 10
-409.146695268006
 20
117.878024501903
 30
0.0
 40
2.99999997871263
  1
161
 50
89.9999999480344
 41
0.933333333333333
 72
     1
 11
-410.64669525383
 21
121.778024475588
 31
0.0
 73
     2
  0
LINE
  5
   17A
  8
0
  6
CONTINUOUS
 62
     7
 10
-390.287437546544
 20
93.8791265637485
 30
0.0
 11
-410.146695264474
 21
93.8791265637485
 31
0.0
  0
LINE
  5
   17B
  8
0
  6
CONTINUOUS
 62
     7
 10
-342.074937032454
 20
150.226919946192
 30
0.0
 11
-410.146695264474
 21
150.226919946192
 31
0.0
  0
LINE
  5
   17C
  8
0
  6
CONTINUOUS
 62
     7
 10
-408.146695264474
 20
93.8791265637485
 30
0.0
 11
-408.146695264474
 21
150.226919946192
 31
0.0
  0
LINE
  5
   17D
  8
0
  6
CONTINUOUS
 62
     7
 10
-408.667639694426
 20
96.8335498409554
 30
0.0
 11
-408.146695264474
 21
93.8791265637485
 31
0.0
  0
LINE
  5
   17E
  8
0
  6
CONTINUOUS
 62
     7
 10
-408.146695264474
 20
93.8791265637485
 30
0.0
 11
-407.625750834522
 21
96.8335498409554
 31
0.0
  0
LINE
  5
   17F
  8
0
  6
CONTINUOUS
 62
     7
 10
-407.625750834522
 20
147.272496668985
 30
0.0
 11
-408.146695264474
 21
150.226919946192
 31
0.0
  0
LINE
  5
   180
  8
0
  6
CONTINUOUS
 62
     7
 10
-408.146695264474
 20
150.226919946192
 30
0.0
 11
-408.667639694426
 21
147.272496668985
 31
0.0
  0
ENDBLK
  5
   181
  8
0
  6
CONTINUOUS
 62
     7
  0
BLOCK
  5
   182
  8
0
  6
CONTINUOUS
 62
     7
  2
*UDIM537
 70
    65
 10
0.0
 20
0.0
 30
0.0
  3
*UDIM537
  0
TEXT
  5
   183
  8
0
  6
CONTINUOUS
 62
     7
 10
-348.224946381234
 20
37.4817612103941
 30
0.0
 40
2.99999997871263
  1
96
 50
359.999999948034
 41
0.933333333333333
 72
     1
 11
-345.724946397621
 21
38.9817611974955
 31
0.0
 73
     2
  0
LINE
  5
   184
  8
0
  6
CONTINUOUS
 62
     7
 10
-328.649937244051
 20
93.3166265562979
 30
0.0
 11
-328.649937244051
 21
34.4817612081392
 31
0.0
  0
LINE
  5
   185
  8
0
  6
CONTINUOUS
 62
     7
 10
-362.249937339418
 20
61.0620448251634
 30
0.0
 11
-362.249937339418
 21
34.4817612081392
 31
0.0
  0
LINE
  5
   186
  8
0
  6
CONTINUOUS
 62
     7
 10
-328.649937244051
 20
36.4817612081392
 30
0.0
 11
-362.249937339418
 21
36.4817612081392
 31
0.0
  0
LINE
  5
   187
  8
0
  6
CONTINUOUS
 62
     7
 10
-331.604360521258
 20
35.9608167781876
 30
0.0
 11
-328.649937244051
 21
36.4817612081392
 31
0.0
  0
LINE
  5
   188
  8
0
  6
CONTINUOUS
 62
     7
 10
-328.649937244051
 20
36.4817612081392
 30
0.0
 11
-331.604360521258
 21
37.0027056380909
 31
0.0
  0
LINE
  5
   189
  8
0
  6
CONTINUOUS
 62
     7
 10
-359.295514062211
 20
37.0027056380909
 30
0.0
 11
-362.249937339418
 21
36.4817612081392
 31
0.0
  0
LINE
  5
   18A
  8
0
  6
CONTINUOUS
 62
     7
 10
-362.249937339418
 20
36.4817612081392
 30
0.0
 11
-359.295514062211
 21
35.9608167781876
 31
0.0
  0
ENDBLK
  5
   18B
  8
0
  6
CONTINUOUS
 62
     7
  0
BLOCK
  5
   18C
  8
0
  6
CONTINUOUS
 62
     7
  2
*UDIM538
 70
    65
 10
0.0
 20
0.0
 30
0.0
  3
*UDIM538
  0
TEXT
  5
   18D
  8
0
  6
CONTINUOUS
 62
     7
 10
-381.562447322491
 20
37.4817612129195
 30
0.0
 40
2.99999997871263
  1
78,5
 50
359.999999948034
 41
0.933333333333333
 72
     1
 11
-376.262447358746
 21
38.9817611974955
 31
0.0
 73
     2
  0
LINE
  5
   18E
  8
0
  6
CONTINUOUS
 62
     7
 10
-389.724937539094
 20
93.3166265562979
 30
0.0
 11
-389.724937539094
 21
34.4817612081392
 31
0.0
  0
LINE
  5
   18F
  8
0
  6
CONTINUOUS
 62
     7
 10
-362.249937339418
 20
36.4817612081392
 30
0.0
 11
-389.724937539094
 21
36.4817612081392
 31
0.0
  0
LINE
  5
   190
  8
0
  6
CONTINUOUS
 62
     7
 10
-365.204360616625
 20
35.9608167781876
 30
0.0
 11
-362.249937339418
 21
36.4817612081392
 31
0.0
  0
LINE
  5
   191
  8
0
  6
CONTINUOUS
 62
     7
 10
-362.249937339418
 20
36.4817612081392
 30
0.0
 11
-365.204360616625
 21
37.0027056380909
 31
0.0
  0
LINE
  5
   192
  8
0
  6
CONTINUOUS
 62
     7
 10
-386.770514261887
 20
37.0027056380909
 30
0.0
 11
-389.724937539094
 21
36.4817612081392
 31
0.0
  0
LINE
  5
   193
  8
0
  6
CONTINUOUS
 62
     7
 10
-389.724937539094
 20
36.4817612081392
 30
0.0
 11
-386.770514261887
 21
35.9608167781876
 31
0.0
  0
ENDBLK
  5
   194
  8
0
  6
CONTINUOUS
 62
     7
  0
BLOCK
  5
   195
  8
0
  6
CONTINUOUS
 62
     7
  2
*UDIM539
 70
    65
 10
0.0
 20
0.0
 30
0.0
  3
*UDIM539
  0
TEXT
  5
   196
  8
0
  6
CONTINUOUS
 62
     7
 10
-415.207907326792
 20
136.035361402153
 30
0.0
 40
2.99999997871263
  1
127,75
 50
89.9999999480344
 41
0.933333333333333
 72
     1
 11
-416.707907308812
 21
144.135361346036
 31
0.0
 73
     2
  0
LINE
  5
   197
  8
0
  6
CONTINUOUS
 62
     7
 10
-405.423445845101
 20
122.054126083931
 30
0.0
 11
-416.207907319455
 21
122.054126083931
 31
0.0
  0
LINE
  5
   198
  8
0
  6
CONTINUOUS
 62
     7
 10
-402.537420169694
 20
166.766597337872
 30
0.0
 11
-416.207907319455
 21
166.766597337872
 31
0.0
  0
LINE
  5
   199
  8
0
  6
CONTINUOUS
 62
     7
 10
-414.207907319455
 20
122.054126083931
 30
0.0
 11
-414.207907319455
 21
166.766597337872
 31
0.0
  0
LINE
  5
   19A
  8
0
  6
CONTINUOUS
 62
     7
 10
-414.728851749407
 20
125.008549361138
 30
0.0
 11
-414.207907319455
 21
122.054126083931
 31
0.0
  0
LINE
  5
   19B
  8
0
  6
CONTINUOUS
 62
     7
 10
-414.207907319455
 20
122.054126083931
 30
0.0
 11
-413.686962889504
 21
125.008549361138
 31
0.0
  0
LINE
  5
   19C
  8
0
  6
CONTINUOUS
 62
     7
 10
-413.686962889504
 20
163.812174060665
 30
0.0
 11
-414.207907319455
 21
166.766597337872
 31
0.0
  0
LINE
  5
   19D
  8
0
  6
CONTINUOUS
 62
     7
 10
-414.207907319455
 20
166.766597337872
 30
0.0
 11
-414.728851749407
 21
163.812174060665
 31
0.0
  0
ENDBLK
  5
   19E
  8
0
  6
CONTINUOUS
 62
     7
  0
BLOCK
  5
   19F
  8
0
  6
CONTINUOUS
 62
     7
  2
*UDIM540
 70
    65
 10
0.0
 20
0.0
 30
0.0
  3
*UDIM540
  0
TEXT
  5
   1A0
  8
0
  6
CONTINUOUS
 62
     7
 10
-351.462432567564
 20
31.4464669749217
 30
0.0
 40
2.99999997871263
  1
101,5
 50
359.999999948034
 41
0.933333333333333
 72
     1
 11
-344.762432613753
 21
32.946466958235
 31
0.0
 73
     2
  0
LINE
  5
   1A1
  8
0
  6
CONTINUOUS
 62
     7
 10
-326.724923278093
 20
116.941607461947
 30
0.0
 11
-326.724923278093
 21
28.4464669688787
 31
0.0
  0
LINE
  5
   1A2
  8
0
  6
CONTINUOUS
 62
     7
 10
-362.249937339418
 20
61.0620448251634
 30
0.0
 11
-362.249937339418
 21
28.4464669688787
 31
0.0
  0
LINE
  5
   1A3
  8
0
  6
CONTINUOUS
 62
     7
 10
-326.724923278093
 20
30.4464669688787
 30
0.0
 11
-362.249937339418
 21
30.4464669688787
 31
0.0
  0
LINE
  5
   1A4
  8
0
  6
CONTINUOUS
 62
     7
 10
-329.6793465553
 20
29.925522538927
 30
0.0
 11
-326.724923278093
 21
30.4464669688787
 31
0.0
  0
LINE
  5
   1A5
  8
0
  6
CONTINUOUS
 62
     7
 10
-326.724923278093
 20
30.4464669688787
 30
0.0
 11
-329.6793465553
 21
30.9674113988303
 31
0.0
  0
LINE
  5
   1A6
  8
0
  6
CONTINUOUS
 62
     7
 10
-359.295514062211
 20
30.9674113988303
 30
0.0
 11
-362.249937339418
 21
30.4464669688787
 31
0.0
  0
LINE
  5
   1A7
  8
0
  6
CONTINUOUS
 62
     7
 10
-362.249937339418
 20
30.4464669688787
 30
0.0
 11
-359.295514062211
 21
29.925522538927
 31
0.0
  0
ENDBLK
  5
   1A8
  8
0
  6
CONTINUOUS
 62
     7
  0
BLOCK
  5
   1A9
  8
0
  6
CONTINUOUS
 62
     7
  2
*UDIM541
 70
    65
 10
0.0
 20
0.0
 30
0.0
  3
*UDIM541
  0
TEXT
  5
   1AA
  8
0
  6
CONTINUOUS
 62
     7
 10
-421.258331414286
 20
117.266616660139
 30
0.0
 40
2.99999997871263
  1
259
 50
89.9999999480344
 41
0.933333333333333
 72
     1
 11
-422.75833140011
 21
121.166616633824
 31
0.0
 73
     2
  0
LINE
  5
   1AB
  8
0
  6
CONTINUOUS
 62
     7
 10
-402.537436533417
 20
76.1166334885407
 30
0.0
 11
-422.258331410753
 21
76.1166334885407
 31
0.0
  0
LINE
  5
   1AC
  8
0
  6
CONTINUOUS
 62
     7
 10
-402.537420169694
 20
166.766597337872
 30
0.0
 11
-422.258331410753
 21
166.766597337872
 31
0.0
  0
LINE
  5
   1AD
  8
0
  6
CONTINUOUS
 62
     7
 10
-420.258331410753
 20
76.1166334885407
 30
0.0
 11
-420.258331410753
 21
166.766597337872
 31
0.0
  0
LINE
  5
   1AE
  8
0
  6
CONTINUOUS
 62
     7
 10
-420.779275840705
 20
79.0710567657477
 30
0.0
 11
-420.258331410753
 21
76.1166334885407
 31
0.0
  0
LINE
  5
   1AF
  8
0
  6
CONTINUOUS
 62
     7
 10
-420.258331410753
 20
76.1166334885407
 30
0.0
 11
-419.737386980802
 21
79.0710567657477
 31
0.0
  0
LINE
  5
   1B0
  8
0
  6
CONTINUOUS
 62
     7
 10
-419.737386980802
 20
163.812174060665
 30
0.0
 11
-420.258331410753
 21
166.766597337872
 31
0.0
  0
LINE
  5
   1B1
  8
0
  6
CONTINUOUS
 62
     7
 10
-420.258331410753
 20
166.766597337872
 30
0.0
 11
-420.779275840705
 21
163.812174060665
 31
0.0
  0
ENDBLK
  5
   1B2
  8
0
  6
CONTINUOUS
 62
     7
  0
BLOCK
  5
   1B3
  8
0
  6
CONTINUOUS
 62
     7
  2
*UDIM542
 70
    65
 10
0.0
 20
0.0
 30
0.0
  3
*UDIM542
  0
TEXT
  5
   1B4
  8
0
  6
CONTINUOUS
 62
     7
 10
-348.802518950786
 20
44.0575297599085
 30
0.0
 40
2.99999997871263
  1
70
 50
359.999999948034
 41
0.933333333333333
 72
     1
 11
-346.302518967172
 21
45.5575297470099
 31
0.0
 73
     2
  0
LINE
  5
   1B5
  8
0
  6
CONTINUOUS
 62
     7
 10
-337.749926595092
 20
155.966602824479
 30
0.0
 11
-337.749926595092
 21
41.0575297576536
 31
0.0
  0
LINE
  5
   1B6
  8
0
  6
CONTINUOUS
 62
     7
 10
-362.249937339418
 20
131.704505613286
 30
0.0
 11
-362.249937339418
 21
41.0575297576536
 31
0.0
  0
LINE
  5
   1B7
  8
0
  6
CONTINUOUS
 62
     7
 10
-337.749926595092
 20
43.0575297576536
 30
0.0
 11
-362.249937339418
 21
43.0575297576536
 31
0.0
  0
LINE
  5
   1B8
  8
0
  6
CONTINUOUS
 62
     7
 10
-340.704349872299
 20
42.5365853277019
 30
0.0
 11
-337.749926595092
 21
43.0575297576536
 31
0.0
  0
LINE
  5
   1B9
  8
0
  6
CONTINUOUS
 62
     7
 10
-337.749926595092
 20
43.0575297576536
 30
0.0
 11
-340.704349872299
 21
43.5784741876053
 31
0.0
  0
LINE
  5
   1BA
  8
0
  6
CONTINUOUS
 62
     7
 10
-359.295514062211
 20
43.5784741876052
 30
0.0
 11
-362.249937339418
 21
43.0575297576536
 31
0.0
  0
LINE
  5
   1BB
  8
0
  6
CONTINUOUS
 62
     7
 10
-362.249937339418
 20
43.0575297576536
 30
0.0
 11
-359.295514062211
 21
42.5365853277019
 31
0.0
  0
ENDBLK
  5
   1BC
  8
0
  6
CONTINUOUS
 62
     7
  0
BLOCK
  5
   1BD
  8
0
  6
CONTINUOUS
 62
     7
  2
*UDIM543
 70
    65
 10
0.0
 20
0.0
 30
0.0
  3
*UDIM543
  0
TEXT
  5
   1BE
  8
0
  6
CONTINUOUS
 62
     7
 10
-519.000930277598
 20
11.748005546604
 30
0.0
 40
3.50000458955765
  1
PART. Z
 50
359.999999844103
 41
0.933333333333333
 72
     1
 11
-507.917582405912
 21
13.4980078112817
 31
0.0
 73
     2
  0
LINE
  5
   1BF
  8
0
  6
CONTINUOUS
 62
     7
 10
-481.25032497229
 20
-4.81083476716125
 30
0.0
 11
-491.834234583698
 21
9.7480053247109
 31
0.0
  0
LINE
  5
   1C0
  8
0
  6
CONTINUOUS
 62
     7
 10
-519.000930317563
 20
9.7480056486705
 30
0.0
 11
-491.834234583698
 21
9.7480053247109
 31
0.0
  0
LINE
  5
   1C1
  8
0
  6
CONTINUOUS
 62
     7
 10
-483.582296798639
 20
-2.92353314815161
 30
0.0
 11
-481.25032497229
 21
-4.81083476716125
 31
0.0
  0
LINE
  5
   1C2
  8
0
  6
CONTINUOUS
 62
     7
 10
-481.25032497229
 20
-4.81083476716125
 30
0.0
 11
-482.326220964509
 21
-2.0103976916448
 31
0.0
  0
ENDBLK
  5
   1C3
  8
0
  6
CONTINUOUS
 62
     7
  0
BLOCK
  5
   1C4
  8
0
  6
CONTINUOUS
 62
     7
  2
*UDIM544
 70
    65
 10
0.0
 20
0.0
 30
0.0
  3
*UDIM544
  0
TEXT
  5
   1C5
  8
0
  6
CONTINUOUS
 62
     7
 10
-499.885897135074
 20
2.31820120038063
 30
0.0
 40
3.00000002980232
  1
7
 50
333.56307969654
 41
0.933333333333334
 72
     1
 11
-498.233111153254
 21
3.17160530573809
 31
0.0
 73
     2
  0
TEXT
  5
   1C6
  8
0
  6
CONTINUOUS
 62
     7
 10
-503.467597405722
 20
4.09905027025145
 30
0.0
 40
3.00000002980232
  1
Ø
 50
333.56307969654
 41
1.2
 72
     1
 11
-501.456641396382
 21
4.77436946730396
 31
0.0
 73
     2
  0
LINE
  5
   1C7
  8
0
  6
CONTINUOUS
 62
     7
 10
-503.912809667795
 20
3.20362520367773
 30
0.0
 11
-480.63976839097
 21
-8.36791086881533
 31
0.0
  0
LINE
  5
   1C8
  8
0
  6
CONTINUOUS
 62
     7
 10
-489.624318372946
 20
-4.76786121502898
 30
0.0
 11
-486.683887553473
 21
-5.3627280874404
 31
0.0
  0
LINE
  5
   1C9
  8
0
  6
CONTINUOUS
 62
     7
 10
-486.683887553473
 20
-5.3627280874404
 30
0.0
 11
-488.932941876073
 21
-3.37734282155598
 31
0.0
  0
LINE
  5
   1CA
  8
0
  6
CONTINUOUS
 62
     7
 10
-482.176462877054
 20
-6.73671642168977
 30
0.0
 11
-485.116893696528
 21
-6.14184954927835
 31
0.0
  0
LINE
  5
   1CB
  8
0
  6
CONTINUOUS
 62
     7
 10
-485.116893696528
 20
-6.14184954927835
 30
0.0
 11
-482.867839373927
 21
-8.12723481516277
 31
0.0
  0
ENDBLK
  5
   1CC
  8
0
  6
CONTINUOUS
 62
     7
  0
BLOCK
  5
   1CD
  8
0
  6
CONTINUOUS
 62
     7
  2
*UDIM545
 70
    65
 10
0.0
 20
0.0
 30
0.0
  3
*UDIM545
  0
TEXT
  5
   1CE
  8
0
  6
CONTINUOUS
 62
     7
 10
-437.980483380692
 20
-50.7290386485613
 30
0.0
 40
3.00000002980232
  1
7
 50
327.392664529154
 41
0.933333333333334
 72
     1
 11
-436.245543652658
 21
-50.0582300254548
 31
0.0
 73
     2
  0
TEXT
  5
   1CF
  8
0
  6
CONTINUOUS
 62
     7
 10
-441.350017060248
 20
-48.5735240880092
 30
0.0
 40
3.00000002980232
  1
Ø
 50
327.392664529154
 41
1.2
 72
     1
 11
-439.278123963949
 21
-48.118266922317
 31
0.0
 73
     2
  0
LINE
  5
   1D0
  8
0
  6
CONTINUOUS
 62
     7
 10
-459.599393180836
 20
-38.0863768324808
 30
0.0
 11
-436.666118486083
 21
-52.7569550777778
 31
0.0
  0
LINE
  5
   1D1
  8
0
  6
CONTINUOUS
 62
     7
 10
-458.246931965518
 20
-39.8732942701249
 30
0.0
 11
-455.387476112039
 21
-40.7807700119519
 31
0.0
  0
LINE
  5
   1D2
  8
0
  6
CONTINUOUS
 62
     7
 10
-455.387476112039
 20
-40.7807700119519
 30
0.0
 11
-457.410099618956
 21
-38.5651450100015
 31
0.0
  0
LINE
  5
   1D3
  8
0
  6
CONTINUOUS
 62
     7
 10
-451.053849284482
 20
-42.6312833665939
 30
0.0
 11
-453.913305137961
 21
-41.7238076247668
 31
0.0
  0
LINE
  5
   1D4
  8
0
  6
CONTINUOUS
 62
     7
 10
-453.913305137961
 20
-41.7238076247668
 30
0.0
 11
-451.890681631044
 21
-43.9394326267172
 31
0.0
  0
ENDBLK
  5
   1D5
  8
0
  6
CONTINUOUS
 62
     7
  0
BLOCK
  5
   1D6
  8
0
  6
CONTINUOUS
 62
     7
  2
*UDIM546
 70
    65
 10
0.0
 20
0.0
 30
0.0
  3
*UDIM546
  0
TEXT
  5
   1D7
  8
0
  6
CONTINUOUS
 62
     7
 10
-434.158796210561
 20
8.649833780882
 30
0.0
 40
3.00000002980232
  1
8
 50
392.812542019881
 41
0.933333333333334
 72
     1
 11
-434.047141700835
 21
10.506587221488
 31
0.0
 73
     2
  0
TEXT
  5
   1D8
  8
0
  6
CONTINUOUS
 62
     7
 10
-436.806207425854
 20
6.94287334791208
 30
0.0
 40
3.00000002980232
  1
Ø
 50
392.812542019881
 41
0.933333333333334
 72
     1
 11
-436.694552916128
 21
8.79962678851804
 31
0.0
 73
     2
  0
TEXT
  5
   1D9
  8
0
  6
CONTINUOUS
 62
     7
 10
-450.883711618353
 20
-2.13382106694803
 30
0.0
 40
3.00000002980232
  1
3 fori
 50
392.812542019881
 41
0.933333333333333
 72
     1
 11
-444.888921024453
 21
3.51617779000232
 31
0.0
 73
     2
  0
LINE
  5
   1DA
  8
0
  6
CONTINUOUS
 62
     7
 10
-431.767918383067
 20
9.00154862853194
 30
0.0
 11
-455.490838627205
 21
-6.29418101759326
 31
0.0
  0
LINE
  5
   1DB
  8
0
  6
CONTINUOUS
 62
     7
 10
-451.609199204626
 20
-3.17159098655964
 30
0.0
 11
-453.809942622796
 21
-5.21039661912549
 31
0.0
  0
LINE
  5
   1DC
  8
0
  6
CONTINUOUS
 62
     7
 10
-453.809942622796
 20
-5.21039661912549
 30
0.0
 11
-451.044607758975
 21
-4.04724439738448
 31
0.0
  0
LINE
  5
   1DD
  8
0
  6
CONTINUOUS
 62
     7
 10
-457.691582045374
 20
-8.33298665015911
 30
0.0
 11
-455.490838627205
 21
-6.29418101759326
 31
0.0
  0
LINE
  5
   1DE
  8
0
  6
CONTINUOUS
 62
     7
 10
-455.490838627205
 20
-6.29418101759326
 30
0.0
 11
-458.256173491025
 21
-7.45733323933427
 31
0.0
  0
ENDBLK
  5
   1DF
  8
0
  6
CONTINUOUS
 62
     7
  0
BLOCK
  5
   1E0
  8
0
  6
CONTINUOUS
 62
     7
  2
*UDIM547
 70
    65
 10
0.0
 20
0.0
 30
0.0
  3
*UDIM547
  0
TEXT
  5
   1E1
  8
0
  6
CONTINUOUS
 62
     7
 10
-472.906232197757
 20
-62.0828818940848
 30
0.0
 40
3.00000002980232
  1
R min.200
 50
359.999999844103
 41
0.933333333333333
 72
     1
 11
-460.606232071494
 21
-60.5828819125891
 31
0.0
 73
     2
  0
LINE
  5
   1E2
  8
0
  6
CONTINUOUS
 62
     7
 10
-474.900390625
 20
-47.6474701359108
 30
0.0
 11
-474.900390625
 21
-65.0828819274902
 31
0.0
  0
LINE
  5
   1E3
  8
0
  6
CONTINUOUS
 62
     7
 10
-446.258014660725
 20
-60.0831506267515
 30
0.0
 11
-446.258014660725
 21
-65.0828819274902
 31
0.0
  0
LINE
  5
   1E4
  8
0
  6
CONTINUOUS
 62
     7
 10
-474.900390625
 20
-63.0828819274902
 30
0.0
 11
-446.258014660725
 21
-63.0828819274902
 31
0.0
  0
LINE
  5
   1E5
  8
0
  6
CONTINUOUS
 62
     7
 10
-477.854813902207
 20
-63.6038263574419
 30
0.0
 11
-474.900390625
 21
-63.0828819274902
 31
0.0
  0
LINE
  5
   1E6
  8
0
  6
CONTINUOUS
 62
     7
 10
-474.900390625
 20
-63.0828819274902
 30
0.0
 11
-477.854813902207
 21
-62.5619374975386
 31
0.0
  0
LINE
  5
   1E7
  8
0
  6
CONTINUOUS
 62
     7
 10
-443.303591383518
 20
-62.5619374975386
 30
0.0
 11
-446.258014660725
 21
-63.0828819274902
 31
0.0
  0
LINE
  5
   1E8
  8
0
  6
CONTINUOUS
 62
     7
 10
-446.258014660725
 20
-63.0828819274902
 30
0.0
 11
-443.303591383518
 21
-63.6038263574419
 31
0.0
  0
ENDBLK
  5
   1E9
  8
0
  6
CONTINUOUS
 62
     7
  0
BLOCK
  5
   1EA
  8
0
  6
CONTINUOUS
 62
     7
  2
*UDIM548
 70
    65
 10
0.0
 20
0.0
 30
0.0
  3
*UDIM548
  0
TEXT
  5
   1EB
  8
0
  6
CONTINUOUS
 62
     7
 10
-512.440311446272
 20
-20.0147888810426
 30
0.0
 40
3.00000002980232
  1
72,5
 50
449.999999844103
 41
0.933333333333333
 72
     1
 11
-513.940311446786
 21
-14.7147888243198
 31
0.0
 73
     2
  0
LINE
  5
   1EC
  8
0
  6
CONTINUOUS
 62
     7
 10
-483.195390625
 20
-5.37728881835938
 30
0.0
 11
-513.440311431885
 21
-5.37728881835938
 31
0.0
  0
LINE
  5
   1ED
  8
0
  6
CONTINUOUS
 62
     7
 10
-503.361115388144
 20
-23.5022888183594
 30
0.0
 11
-513.440311431885
 21
-23.5022888183594
 31
0.0
  0
LINE
  5
   1EE
  8
0
  6
CONTINUOUS
 62
     7
 10
-511.440311431885
 20
-5.37728881835938
 30
0.0
 11
-511.440311431885
 21
-23.5022888183594
 31
0.0
  0
LINE
  5
   1EF
  8
0
  6
CONTINUOUS
 62
     7
 10
-510.919367001933
 20
-8.33171209556634
 30
0.0
 11
-511.440311431885
 21
-5.37728881835938
 31
0.0
  0
LINE
  5
   1F0
  8
0
  6
CONTINUOUS
 62
     7
 10
-511.440311431885
 20
-5.37728881835938
 30
0.0
 11
-511.961255861836
 21
-8.33171209556634
 31
0.0
  0
LINE
  5
   1F1
  8
0
  6
CONTINUOUS
 62
     7
 10
-511.961255861836
 20
-20.5478655411524
 30
0.0
 11
-511.440311431885
 21
-23.5022888183594
 31
0.0
  0
LINE
  5
   1F2
  8
0
  6
CONTINUOUS
 62
     7
 10
-511.440311431885
 20
-23.5022888183594
 30
0.0
 11
-510.919367001933
 21
-20.5478655411524
 31
0.0
  0
ENDBLK
  5
   1F3
  8
0
  6
CONTINUOUS
 62
     7
  0
BLOCK
  5
   1F4
  8
0
  6
CONTINUOUS
 62
     7
  2
*UDIM549
 70
    65
 10
0.0
 20
0.0
 30
0.0
  3
*UDIM549
  0
TEXT
  5
   1F5
  8
0
  6
CONTINUOUS
 62
     7
 10
-465.596371679605
 20
5.35526848518327
 30
0.0
 40
3.00000002980232
  1
45
 50
359.999999844103
 41
0.933333333333333
 72
     1
 11
-463.096371650696
 21
6.85526849329472
 31
0.0
 73
     2
  0
LINE
  5
   1F6
  8
0
  6
CONTINUOUS
 62
     7
 10
-480.525390625
 20
-2.70728881835937
 30
0.0
 11
-480.525390625
 21
6.35526847839355
 31
0.0
  0
LINE
  5
   1F7
  8
0
  6
CONTINUOUS
 62
     7
 10
-469.275390625
 20
-2.70728881835937
 30
0.0
 11
-469.275390625
 21
6.35526847839355
 31
0.0
  0
LINE
  5
   1F8
  8
0
  6
CONTINUOUS
 62
     7
 10
-480.525390625
 20
4.35526847839355
 30
0.0
 11
-460.596371625861
 21
4.35526847839355
 31
0.0
  0
LINE
  5
   1F9
  8
0
  6
CONTINUOUS
 62
     7
 10
-483.479813902207
 20
3.83432404844189
 30
0.0
 11
-480.525390625
 21
4.35526847839355
 31
0.0
  0
LINE
  5
   1FA
  8
0
  6
CONTINUOUS
 62
     7
 10
-480.525390625
 20
4.35526847839355
 30
0.0
 11
-483.479813902207
 21
4.87621290834522
 31
0.0
  0
LINE
  5
   1FB
  8
0
  6
CONTINUOUS
 62
     7
 10
-466.320967347793
 20
4.87621290834522
 30
0.0
 11
-469.275390625
 21
4.35526847839355
 31
0.0
  0
LINE
  5
   1FC
  8
0
  6
CONTINUOUS
 62
     7
 10
-469.275390625
 20
4.35526847839355
 30
0.0
 11
-466.320967347793
 21
3.83432404844189
 31
0.0
  0
ENDBLK
  5
   1FD
  8
0
  6
CONTINUOUS
 62
     7
  0
BLOCK
  5
   1FE
  8
0
  6
CONTINUOUS
 62
     7
  2
*UDIM550
 70
    65
 10
0.0
 20
0.0
 30
0.0
  3
*UDIM550
  0
TEXT
  5
   1FF
  8
0
  6
CONTINUOUS
 62
     7
 10
-436.608734149047
 20
-20.6022885075201
 30
0.0
 40
3.00000002980232
  1
27,25
 50
449.999999844103
 41
0.933333333333333
 72
     1
 11
-438.108734145761
 21
-13.9022884368896
 31
0.0
 73
     2
  0
LINE
  5
   200
  8
0
  6
CONTINUOUS
 62
     7
 10
-445.907662324863
 20
-23.5022888183594
 30
0.0
 11
-433.608734130859
 21
-23.5022888183594
 31
0.0
  0
LINE
  5
   201
  8
0
  6
CONTINUOUS
 62
     7
 10
-448.645084225558
 20
-30.3147888183594
 30
0.0
 11
-433.608734130859
 21
-30.3147888183594
 31
0.0
  0
LINE
  5
   202
  8
0
  6
CONTINUOUS
 62
     7
 10
-435.608734130859
 20
-7.20228837033113
 30
0.0
 11
-435.608734130859
 21
-30.3147888183594
 31
0.0
  0
LINE
  5
   203
  8
0
  6
CONTINUOUS
 62
     7
 10
-436.129678560811
 20
-20.5478655411524
 30
0.0
 11
-435.608734130859
 21
-23.5022888183594
 31
0.0
  0
LINE
  5
   204
  8
0
  6
CONTINUOUS
 62
     7
 10
-435.608734130859
 20
-23.5022888183594
 30
0.0
 11
-435.087789700908
 21
-20.5478655411524
 31
0.0
  0
LINE
  5
   205
  8
0
  6
CONTINUOUS
 62
     7
 10
-435.087789700908
 20
-33.2692120955663
 30
0.0
 11
-435.608734130859
 21
-30.3147888183594
 31
0.0
  0
LINE
  5
   206
  8
0
  6
CONTINUOUS
 62
     7
 10
-435.608734130859
 20
-30.3147888183594
 30
0.0
 11
-436.129678560811
 21
-33.2692120955663
 31
0.0
  0
ENDBLK
  5
   207
  8
0
  6
CONTINUOUS
 62
     7
  0
BLOCK
  5
   208
  8
0
  6
CONTINUOUS
 62
     7
  2
*UDIM551
 70
    65
 10
0.0
 20
0.0
 30
0.0
  3
*UDIM551
  0
TEXT
  5
   209
  8
0
  6
CONTINUOUS
 62
     7
 10
-431.191257479793
 20
-15.0690231234818
 30
0.0
 40
3.00000002980232
  1
=
 50
449.999999844103
 41
0.933333333333334
 72
     1
 11
-432.691257491708
 21
-13.9690231084824
 31
0.0
 73
     2
  0
LINE
  5
   20A
  8
0
  6
CONTINUOUS
 62
     7
 10
-452.025390625
 20
-5.75228881835938
 30
0.0
 11
-428.191257476807
 21
-5.75228881835938
 31
0.0
  0
LINE
  5
   20B
  8
0
  6
CONTINUOUS
 62
     7
 10
-452.025390625
 20
-23.5022888183594
 30
0.0
 11
-428.191257476807
 21
-23.5022888183594
 31
0.0
  0
LINE
  5
   20C
  8
0
  6
CONTINUOUS
 62
     7
 10
-430.191257476807
 20
-5.75228881835938
 30
0.0
 11
-430.191257476807
 21
-23.5022888183594
 31
0.0
  0
LINE
  5
   20D
  8
0
  6
CONTINUOUS
 62
     7
 10
-429.670313046855
 20
-8.70671209556634
 30
0.0
 11
-430.191257476807
 21
-5.75228881835938
 31
0.0
  0
LINE
  5
   20E
  8
0
  6
CONTINUOUS
 62
     7
 10
-430.191257476807
 20
-5.75228881835938
 30
0.0
 11
-430.712201906758
 21
-8.70671209556634
 31
0.0
  0
LINE
  5
   20F
  8
0
  6
CONTINUOUS
 62
     7
 10
-430.712201906758
 20
-20.5478655411524
 30
0.0
 11
-430.191257476807
 21
-23.5022888183594
 31
0.0
  0
LINE
  5
   210
  8
0
  6
CONTINUOUS
 62
     7
 10
-430.191257476807
 20
-23.5022888183594
 30
0.0
 11
-429.670313046855
 21
-20.5478655411524
 31
0.0
  0
ENDBLK
  5
   211
  8
0
  6
CONTINUOUS
 62
     7
  0
BLOCK
  5
   212
  8
0
  6
CONTINUOUS
 62
     7
  2
*UDIM552
 70
    65
 10
0.0
 20
0.0
 30
0.0
  3
*UDIM552
  0
TEXT
  5
   213
  8
0
  6
CONTINUOUS
 62
     7
 10
-431.191257479793
 20
-32.8190231234818
 30
0.0
 40
3.00000002980232
  1
=
 50
449.999999844103
 41
0.933333333333334
 72
     1
 11
-432.691257491708
 21
-31.7190231084824
 31
0.0
 73
     2
  0
LINE
  5
   214
  8
0
  6
CONTINUOUS
 62
     7
 10
-452.025390625
 20
-41.2522888183594
 30
0.0
 11
-428.191257476807
 21
-41.2522888183594
 31
0.0
  0
LINE
  5
   215
  8
0
  6
CONTINUOUS
 62
     7
 10
-430.191257476807
 20
-23.5022888183594
 30
0.0
 11
-430.191257476807
 21
-41.2522888183594
 31
0.0
  0
LINE
  5
   216
  8
0
  6
CONTINUOUS
 62
     7
 10
-429.670313046855
 20
-26.4567120955663
 30
0.0
 11
-430.191257476807
 21
-23.5022888183594
 31
0.0
  0
LINE
  5
   217
  8
0
  6
CONTINUOUS
 62
     7
 10
-430.191257476807
 20
-23.5022888183594
 30
0.0
 11
-430.712201906758
 21
-26.4567120955663
 31
0.0
  0
LINE
  5
   218
  8
0
  6
CONTINUOUS
 62
     7
 10
-430.712201906758
 20
-38.2978655411524
 30
0.0
 11
-430.191257476807
 21
-41.2522888183594
 31
0.0
  0
LINE
  5
   219
  8
0
  6
CONTINUOUS
 62
     7
 10
-430.191257476807
 20
-41.2522888183594
 30
0.0
 11
-429.670313046855
 21
-38.2978655411524
 31
0.0
  0
ENDBLK
  5
   21A
  8
0
  6
CONTINUOUS
 62
     7
  0
BLOCK
  5
   21B
  8
0
  6
CONTINUOUS
 62
     7
  2
*UDIM553
 70
    65
 10
0.0
 20
0.0
 30
0.0
  3
*UDIM553
  0
TEXT
  5
   21C
  8
0
  6
CONTINUOUS
 62
     7
 10
-505.043729792692
 20
-27.6772888671348
 30
0.0
 40
3.00000002980232
  1
126
 50
449.999999844103
 41
0.933333333333333
 72
     1
 11
-506.543729797006
 21
-23.7772888243198
 31
0.0
 73
     2
  0
LINE
  5
   21D
  8
0
  6
CONTINUOUS
 62
     7
 10
-493.900390625
 20
-7.75228881835938
 30
0.0
 11
-506.043729782105
 21
-7.75228881835938
 31
0.0
  0
LINE
  5
   21E
  8
0
  6
CONTINUOUS
 62
     7
 10
-493.900390625
 20
-39.2522888183594
 30
0.0
 11
-506.043729782105
 21
-39.2522888183594
 31
0.0
  0
LINE
  5
   21F
  8
0
  6
CONTINUOUS
 62
     7
 10
-504.043729782105
 20
-7.75228881835938
 30
0.0
 11
-504.043729782105
 21
-39.2522888183594
 31
0.0
  0
LINE
  5
   220
  8
0
  6
CONTINUOUS
 62
     7
 10
-503.522785352153
 20
-10.7067120955663
 30
0.0
 11
-504.043729782105
 21
-7.75228881835938
 31
0.0
  0
LINE
  5
   221
  8
0
  6
CONTINUOUS
 62
     7
 10
-504.043729782105
 20
-7.75228881835938
 30
0.0
 11
-504.564674212056
 21
-10.7067120955663
 31
0.0
  0
LINE
  5
   222
  8
0
  6
CONTINUOUS
 62
     7
 10
-504.564674212056
 20
-36.2978655411524
 30
0.0
 11
-504.043729782105
 21
-39.2522888183594
 31
0.0
  0
LINE
  5
   223
  8
0
  6
CONTINUOUS
 62
     7
 10
-504.043729782105
 20
-39.2522888183594
 30
0.0
 11
-503.522785352153
 21
-36.2978655411524
 31
0.0
  0
ENDBLK
  5
   224
  8
0
  6
CONTINUOUS
 62
     7
  0
BLOCK
  5
   225
  8
0
  6
CONTINUOUS
 62
     7
  2
*UDIM554
 70
    65
 10
0.0
 20
0.0
 30
0.0
  3
*UDIM554
  0
TEXT
  5
   226
  8
0
  6
CONTINUOUS
 62
     7
 10
-424.494243632413
 20
-27.6772888671348
 30
0.0
 40
3.00000002980232
  1
142
 50
449.999999844103
 41
0.933333333333333
 72
     1
 11
-425.994243636727
 21
-23.7772888243198
 31
0.0
 73
     2
  0
LINE
  5
   227
  8
0
  6
CONTINUOUS
 62
     7
 10
-483.275390625
 20
-5.75228881835938
 30
0.0
 11
-421.494243621826
 21
-5.75228881835938
 31
0.0
  0
LINE
  5
   228
  8
0
  6
CONTINUOUS
 62
     7
 10
-452.025390625
 20
-41.2522888183594
 30
0.0
 11
-421.494243621826
 21
-41.2522888183594
 31
0.0
  0
LINE
  5
   229
  8
0
  6
CONTINUOUS
 62
     7
 10
-423.494243621826
 20
-5.75228881835938
 30
0.0
 11
-423.494243621826
 21
-41.2522888183594
 31
0.0
  0
LINE
  5
   22A
  8
0
  6
CONTINUOUS
 62
     7
 10
-422.973299191875
 20
-8.70671209556634
 30
0.0
 11
-423.494243621826
 21
-5.75228881835938
 31
0.0
  0
LINE
  5
   22B
  8
0
  6
CONTINUOUS
 62
     7
 10
-423.494243621826
 20
-5.75228881835938
 30
0.0
 11
-424.015188051778
 21
-8.70671209556634
 31
0.0
  0
LINE
  5
   22C
  8
0
  6
CONTINUOUS
 62
     7
 10
-424.015188051778
 20
-38.2978655411524
 30
0.0
 11
-423.494243621826
 21
-41.2522888183594
 31
0.0
  0
LINE
  5
   22D
  8
0
  6
CONTINUOUS
 62
     7
 10
-423.494243621826
 20
-41.2522888183594
 30
0.0
 11
-422.973299191875
 21
-38.2978655411524
 31
0.0
  0
ENDBLK
  5
   22E
  8
0
  6
CONTINUOUS
 62
     7
  0
BLOCK
  5
   22F
  8
0
  6
CONTINUOUS
 62
     7
  2
*UDIM555
 70
    65
 10
0.0
 20
0.0
 30
0.0
  3
*UDIM555
  0
TEXT
  5
   230
  8
0
  6
CONTINUOUS
 62
     7
 10
-467.882921225659
 20
-33.0045265546431
 30
0.0
 40
3.00000002980232
  1
16
 50
449.999999844103
 41
0.933333333333333
 72
     1
 11
-469.382921233773
 21
-30.5045265257359
 31
0.0
 73
     2
  0
LINE
  5
   231
  8
0
  6
CONTINUOUS
 62
     7
 10
-460.150390625
 20
-28.3147888183594
 30
0.0
 11
-468.882921218872
 21
-28.3147888183594
 31
0.0
  0
LINE
  5
   232
  8
0
  6
CONTINUOUS
 62
     7
 10
-460.150390625
 20
-32.3147888183594
 30
0.0
 11
-468.882921218872
 21
-32.3147888183594
 31
0.0
  0
LINE
  5
   233
  8
0
  6
CONTINUOUS
 62
     7
 10
-466.882921218872
 20
-28.0045265009006
 30
0.0
 11
-466.882921218872
 21
-33.0045265505711
 31
0.0
  0
LINE
  5
   234
  8
0
  6
CONTINUOUS
 62
     7
 10
-467.403865648824
 20
-25.3603655411524
 30
0.0
 11
-466.882921218872
 21
-28.3147888183594
 31
0.0
  0
LINE
  5
   235
  8
0
  6
CONTINUOUS
 62
     7
 10
-466.882921218872
 20
-28.3147888183594
 30
0.0
 11
-466.36197678892
 21
-25.3603655411524
 31
0.0
  0
LINE
  5
   236
  8
0
  6
CONTINUOUS
 62
     7
 10
-466.36197678892
 20
-35.2692120955663
 30
0.0
 11
-466.882921218872
 21
-32.3147888183594
 31
0.0
  0
LINE
  5
   237
  8
0
  6
CONTINUOUS
 62
     7
 10
-466.882921218872
 20
-32.3147888183594
 30
0.0
 11
-467.403865648824
 21
-35.2692120955663
 31
0.0
  0
ENDBLK
  5
   238
  8
0
  6
CONTINUOUS
 62
     7
  0
BLOCK
  5
   239
  8
0
  6
CONTINUOUS
 62
     7
  2
*UDIM556
 70
    65
 10
0.0
 20
0.0
 30
0.0
  3
*UDIM556
  0
TEXT
  5
   23A
  8
0
  6
CONTINUOUS
 62
     7
 10
-465.92539065987
 20
-18.953707449799
 30
0.0
 40
3.00000002980232
  1
94
 50
359.999999844103
 41
0.933333333333333
 72
     1
 11
-463.425390630961
 21
-17.4537074416876
 31
0.0
 73
     2
  0
LINE
  5
   23B
  8
0
  6
CONTINUOUS
 62
     7
 10
-451.400390625
 20
-29.4397888183594
 30
0.0
 11
-451.400390625
 21
-17.9537074565887
 31
0.0
  0
LINE
  5
   23C
  8
0
  6
CONTINUOUS
 62
     7
 10
-474.900390625
 20
-19.9537074565887
 30
0.0
 11
-451.400390625
 21
-19.9537074565887
 31
0.0
  0
LINE
  5
   23D
  8
0
  6
CONTINUOUS
 62
     7
 10
-471.945967347793
 20
-19.4327630266371
 30
0.0
 11
-474.900390625
 21
-19.9537074565887
 31
0.0
  0
LINE
  5
   23E
  8
0
  6
CONTINUOUS
 62
     7
 10
-474.900390625
 20
-19.9537074565887
 30
0.0
 11
-471.945967347793
 21
-20.4746518865404
 31
0.0
  0
LINE
  5
   23F
  8
0
  6
CONTINUOUS
 62
     7
 10
-454.354813902207
 20
-20.4746518865404
 30
0.0
 11
-451.400390625
 21
-19.9537074565887
 31
0.0
  0
LINE
  5
   240
  8
0
  6
CONTINUOUS
 62
     7
 10
-451.400390625
 20
-19.9537074565887
 30
0.0
 11
-454.354813902207
 21
-19.4327630266371
 31
0.0
  0
ENDBLK
  5
   241
  8
0
  6
CONTINUOUS
 62
     7
  0
BLOCK
  5
   242
  8
0
  6
CONTINUOUS
 62
     7
  2
*UDIM557
 70
    65
 10
0.0
 20
0.0
 30
0.0
  3
*UDIM557
  0
TEXT
  5
   243
  8
0
  6
CONTINUOUS
 62
     7
 10
-474.45039070358
 20
-56.6195678605018
 30
0.0
 40
3.00000002980232
  1
125
 50
359.999999844103
 41
0.933333333333333
 72
     1
 11
-470.550390660763
 21
-55.1195678561926
 31
0.0
 73
     2
  0
LINE
  5
   244
  8
0
  6
CONTINUOUS
 62
     7
 10
-485.900390625
 20
-43.8772888183594
 30
0.0
 11
-485.900390625
 21
-59.6195678710938
 31
0.0
  0
LINE
  5
   245
  8
0
  6
CONTINUOUS
 62
     7
 10
-454.650390625
 20
-43.8772888183594
 30
0.0
 11
-454.650390625
 21
-59.6195678710938
 31
0.0
  0
LINE
  5
   246
  8
0
  6
CONTINUOUS
 62
     7
 10
-485.900390625
 20
-57.6195678710938
 30
0.0
 11
-454.650390625
 21
-57.6195678710938
 31
0.0
  0
LINE
  5
   247
  8
0
  6
CONTINUOUS
 62
     7
 10
-482.945967347793
 20
-57.0986234411421
 30
0.0
 11
-485.900390625
 21
-57.6195678710938
 31
0.0
  0
LINE
  5
   248
  8
0
  6
CONTINUOUS
 62
     7
 10
-485.900390625
 20
-57.6195678710938
 30
0.0
 11
-482.945967347793
 21
-58.1405123010454
 31
0.0
  0
LINE
  5
   249
  8
0
  6
CONTINUOUS
 62
     7
 10
-457.604813902207
 20
-58.1405123010454
 30
0.0
 11
-454.650390625
 21
-57.6195678710938
 31
0.0
  0
LINE
  5
   24A
  8
0
  6
CONTINUOUS
 62
     7
 10
-454.650390625
 20
-57.6195678710938
 30
0.0
 11
-457.604813902207
 21
-57.0986234411421
 31
0.0
  0
ENDBLK
  5
   24B
  8
0
  6
CONTINUOUS
 62
     7
  0
BLOCK
  5
   24C
  8
0
  6
CONTINUOUS
 62
     7
  2
*UDIM558
 70
    65
 10
0.0
 20
0.0
 30
0.0
  3
*UDIM558
  0
TEXT
  5
   24D
  8
0
  6
CONTINUOUS
 62
     7
 10
-467.55039065987
 20
-50.6394805840306
 30
0.0
 40
3.00000002980232
  1
81
 50
359.999999844103
 41
0.933333333333333
 72
     1
 11
-465.05039063096
 21
-49.1394805759192
 31
0.0
 73
     2
  0
LINE
  5
   24E
  8
0
  6
CONTINUOUS
 62
     7
 10
-474.900390625
 20
-47.6474701359108
 30
0.0
 11
-474.900390625
 21
-53.6394805908203
 31
0.0
  0
LINE
  5
   24F
  8
0
  6
CONTINUOUS
 62
     7
 10
-454.650390625
 20
-43.8772888183594
 30
0.0
 11
-454.650390625
 21
-53.6394805908203
 31
0.0
  0
LINE
  5
   250
  8
0
  6
CONTINUOUS
 62
     7
 10
-474.900390625
 20
-51.6394805908203
 30
0.0
 11
-454.650390625
 21
-51.6394805908203
 31
0.0
  0
LINE
  5
   251
  8
0
  6
CONTINUOUS
 62
     7
 10
-471.945967347793
 20
-51.1185361608687
 30
0.0
 11
-474.900390625
 21
-51.6394805908203
 31
0.0
  0
LINE
  5
   252
  8
0
  6
CONTINUOUS
 62
     7
 10
-474.900390625
 20
-51.6394805908203
 30
0.0
 11
-471.945967347793
 21
-52.160425020772
 31
0.0
  0
LINE
  5
   253
  8
0
  6
CONTINUOUS
 62
     7
 10
-457.604813902207
 20
-52.160425020772
 30
0.0
 11
-454.650390625
 21
-51.6394805908203
 31
0.0
  0
LINE
  5
   254
  8
0
  6
CONTINUOUS
 62
     7
 10
-454.650390625
 20
-51.6394805908203
 30
0.0
 11
-457.604813902207
 21
-51.1185361608687
 31
0.0
  0
ENDBLK
  5
   255
  8
0
  6
CONTINUOUS
 62
     7
  0
BLOCK
  5
   256
  8
0
  6
CONTINUOUS
 62
     7
  2
*UDIM559
 70
    65
 10
0.0
 20
0.0
 30
0.0
  3
*UDIM559
  0
TEXT
  5
   257
  8
0
  6
CONTINUOUS
 62
     7
 10
-480.200390673777
 20
20.1823387251916
 30
0.0
 40
3.00000002980232
  1
135
 50
359.999999844103
 41
0.933333333333333
 72
     1
 11
-476.300390630961
 21
21.6823387295008
 31
0.0
 73
     2
  0
LINE
  5
   258
  8
0
  6
CONTINUOUS
 62
     7
 10
-492.900390625
 20
-6.75228881835938
 30
0.0
 11
-492.900390625
 21
21.1823387145996
 31
0.0
  0
LINE
  5
   259
  8
0
  6
CONTINUOUS
 62
     7
 10
-459.150390625
 20
-6.75228881835938
 30
0.0
 11
-459.150390625
 21
21.1823387145996
 31
0.0
  0
LINE
  5
   25A
  8
0
  6
CONTINUOUS
 62
     7
 10
-492.900390625
 20
19.1823387145996
 30
0.0
 11
-459.150390625
 21
19.1823387145996
 31
0.0
  0
LINE
  5
   25B
  8
0
  6
CONTINUOUS
 62
     7
 10
-489.945967347793
 20
19.7032831445513
 30
0.0
 11
-492.900390625
 21
19.1823387145996
 31
0.0
  0
LINE
  5
   25C
  8
0
  6
CONTINUOUS
 62
     7
 10
-492.900390625
 20
19.1823387145996
 30
0.0
 11
-489.945967347793
 21
18.6613942846479
 31
0.0
  0
LINE
  5
   25D
  8
0
  6
CONTINUOUS
 62
     7
 10
-462.104813902207
 20
18.6613942846479
 30
0.0
 11
-459.150390625
 21
19.1823387145996
 31
0.0
  0
LINE
  5
   25E
  8
0
  6
CONTINUOUS
 62
     7
 10
-459.150390625
 20
19.1823387145996
 30
0.0
 11
-462.104813902207
 21
19.7032831445513
 31
0.0
  0
ENDBLK
  5
   25F
  8
0
  6
CONTINUOUS
 62
     7
  0
BLOCK
  5
   260
  8
0
  6
CONTINUOUS
 62
     7
  2
*UDIM560
 70
    65
 10
0.0
 20
0.0
 30
0.0
  3
*UDIM560
  0
TEXT
  5
   261
  8
0
  6
CONTINUOUS
 62
     7
 10
-469.800391136707
 20
12.7938766547389
 30
0.0
 40
3.00000002980232
  1
63
 50
359.999999844103
 41
0.933333333333333
 72
     1
 11
-467.300391107798
 21
14.2938766628504
 31
0.0
 73
     2
  0
LINE
  5
   262
  8
0
  6
CONTINUOUS
 62
     7
 10
-474.900390625
 20
3.12520234249573
 30
0.0
 11
-474.900390625
 21
13.7938766479492
 31
0.0
  0
LINE
  5
   263
  8
0
  6
CONTINUOUS
 62
     7
 10
-459.150390625
 20
-6.75228881835938
 30
0.0
 11
-459.150390625
 21
13.7938766479492
 31
0.0
  0
LINE
  5
   264
  8
0
  6
CONTINUOUS
 62
     7
 10
-474.900390625
 20
11.7938766479492
 30
0.0
 11
-459.150390625
 21
11.7938766479492
 31
0.0
  0
LINE
  5
   265
  8
0
  6
CONTINUOUS
 62
     7
 10
-471.945967347793
 20
12.3148210779009
 30
0.0
 11
-474.900390625
 21
11.7938766479492
 31
0.0
  0
LINE
  5
   266
  8
0
  6
CONTINUOUS
 62
     7
 10
-474.900390625
 20
11.7938766479492
 30
0.0
 11
-471.945967347793
 21
11.2729322179976
 31
0.0
  0
LINE
  5
   267
  8
0
  6
CONTINUOUS
 62
     7
 10
-462.104813902207
 20
11.2729322179976
 30
0.0
 11
-459.150390625
 21
11.7938766479492
 31
0.0
  0
LINE
  5
   268
  8
0
  6
CONTINUOUS
 62
     7
 10
-459.150390625
 20
11.7938766479492
 30
0.0
 11
-462.104813902207
 21
12.3148210779009
 31
0.0
  0
ENDBLK
  5
   269
  8
0
  6
CONTINUOUS
 62
     7
  0
BLOCK
  5
   26A
  8
0
  6
CONTINUOUS
 62
     7
  2
*HATCH99
 70
    65
 10
0.0
 20
0.0
 30
0.0
  3
*HATCH99
  0
LINE
  5
   26B
  8
0
  6
CONTINUOUS
 62
    52
 10
-11.7279224395752
 20
1.0
 30
0.0
 11
-11.9763488769531
 21
0.75157368183136
 31
0.0
  0
LINE
  5
   26C
  8
0
  6
CONTINUOUS
 62
    52
 10
-9.60660171508789
 20
1.0
 30
0.0
 11
-11.6066026687622
 21
-1.0
 31
0.0
  0
LINE
  5
   26D
  8
0
  6
CONTINUOUS
 62
    52
 10
-7.48528146743774
 20
1.0
 30
0.0
 11
-9.48528289794922
 21
-1.0
 31
0.0
  0
LINE
  5
   26E
  8
0
  6
CONTINUOUS
 62
    52
 10
-5.3639612197876
 20
1.0
 30
0.0
 11
-7.36396265029907
 21
-1.0
 31
0.0
  0
LINE
  5
   26F
  8
0
  6
CONTINUOUS
 62
    52
 10
-3.47947335243225
 20
0.763167560100555
 30
0.0
 11
-5.24264097213745
 21
-1.0
 31
0.0
  0
LINE
  5
   270
  8
0
  6
CONTINUOUS
 62
    52
 10
-2.51160907745361
 20
-0.390288293361664
 30
0.0
 11
-3.1213207244873
 21
-1.0
 31
0.0
  0
ENDBLK
  5
   271
  8
0
  6
CONTINUOUS
 62
     7
  0
BLOCK
  5
   272
  8
0
  6
CONTINUOUS
 62
     7
  2
*HATCH100
 70
    65
 10
0.0
 20
0.0
 30
0.0
  3
*HATCH100
  0
LINE
  5
   273
  8
0
  6
CONTINUOUS
 62
    52
 10
5.24264097213745
 20
1.0
 30
0.0
 11
3.24264073371887
 21
-1.0
 31
0.0
  0
LINE
  5
   274
  8
0
  6
CONTINUOUS
 62
    52
 10
7.3639612197876
 20
1.0
 30
0.0
 11
5.3639612197876
 21
-1.0
 31
0.0
  0
LINE
  5
   275
  8
0
  6
CONTINUOUS
 62
    52
 10
9.48528099060059
 20
1.0
 30
0.0
 11
7.4852819442749
 21
-1.0
 31
0.0
  0
ENDBLK
  5
   276
  8
0
  6
CONTINUOUS
 62
     7
  0
BLOCK
  5
   277
  8
0
  6
CONTINUOUS
 62
     7
  2
*UDIM561
 70
    65
 10
0.0
 20
0.0
 30
0.0
  3
*UDIM561
  0
TEXT
  5
   278
  8
0
  6
CONTINUOUS
 62
     7
 10
-524.027422185971
 20
-20.8965225947602
 30
0.0
 40
3.00000002980232
  1
80
 50
449.241125536518
 41
0.933333333333333
 72
     1
 11
-525.494179455906
 21
-18.3768751432358
 31
0.0
 73
     2
  0
TEXT
  5
   279
  8
0
  6
CONTINUOUS
 62
     7
 10
-524.561147220233
 20
-15.8890144233141
 30
0.0
 40
3.00000002980232
  1
°
 50
449.241125536518
 41
0.933333333333334
 72
     1
 11
-526.046446749394
 21
-14.7692441891072
 31
0.0
 73
     2
  0
LINE
  5
   27A
  8
0
  6
CONTINUOUS
 62
     7
 10
-541.089851552975
 20
-21.322981958711
 30
0.0
 11
-526.887884386744
 21
-33.2398473698869
 31
0.0
  0
LINE
  5
   27B
  8
0
  6
CONTINUOUS
 62
     7
 10
-541.089851552975
 20
-12.6810082146288
 30
0.0
 11
-526.887884386744
 21
-0.764142803452966
 31
0.0
  0
ARC
  5
   27C
  8
0
  6
CONTINUOUS
 62
     7
 10
-546.239403181282
 20
-17.0019950866699
 30
0.0
 40
23.2616136940404
 50
319.999999815233
 51
399.999999769042
  0
LINE
  5
   27D
  8
0
  6
CONTINUOUS
 62
     7
 10
-526.919973182362
 20
-29.3561959914799
 30
0.0
 11
-528.419973272982
 21
-31.9542721505138
 31
0.0
  0
LINE
  5
   27E
  8
0
  6
CONTINUOUS
 62
     7
 10
-528.419973272982
 20
-31.9542721505138
 30
0.0
 11
-526.121840010886
 21
-30.0259092412962
 31
0.0
  0
LINE
  5
   27F
  8
0
  6
CONTINUOUS
 62
     7
 10
-526.121840010886
 20
-3.97808093204365
 30
0.0
 11
-528.419973272982
 21
-2.04971802282605
 31
0.0
  0
LINE
  5
   280
  8
0
  6
CONTINUOUS
 62
     7
 10
-528.419973272982
 20
-2.04971802282605
 30
0.0
 11
-526.919973182362
 21
-4.64779418185995
 31
0.0
  0
ENDBLK
  5
   281
  8
0
  6
CONTINUOUS
 62
     7
  0
BLOCK
  5
   282
  8
0
  6
CONTINUOUS
 62
     7
  2
*UDIM562
 70
    65
 10
0.0
 20
0.0
 30
0.0
  3
*UDIM562
  0
TEXT
  5
   283
  8
0
  6
CONTINUOUS
 62
     7
 10
-559.508328444592
 20
-11.1169281294932
 30
0.0
 40
3.00000002980232
  1
Ø4
 50
449.999999844103
 41
0.933333333333333
 72
     1
 11
-561.008328452706
 21
-8.61692810058594
 31
0.0
 73
     2
  0
LINE
  5
   284
  8
0
  6
CONTINUOUS
 62
     7
 10
-544.855895996094
 20
-15.0019950866699
 30
0.0
 11
-560.508328437805
 21
-15.0019950866699
 31
0.0
  0
LINE
  5
   285
  8
0
  6
CONTINUOUS
 62
     7
 10
-544.855895996094
 20
-19.0019950866699
 30
0.0
 11
-560.508328437805
 21
-19.0019950866699
 31
0.0
  0
LINE
  5
   286
  8
0
  6
CONTINUOUS
 62
     7
 10
-558.508328437805
 20
-6.11692807575067
 30
0.0
 11
-558.508328437805
 21
-19.0019950866699
 31
0.0
  0
LINE
  5
   287
  8
0
  6
CONTINUOUS
 62
     7
 10
-559.029272867757
 20
-12.047571809463
 30
0.0
 11
-558.508328437805
 21
-15.0019950866699
 31
0.0
  0
LINE
  5
   288
  8
0
  6
CONTINUOUS
 62
     7
 10
-558.508328437805
 20
-15.0019950866699
 30
0.0
 11
-557.987384007854
 21
-12.047571809463
 31
0.0
  0
LINE
  5
   289
  8
0
  6
CONTINUOUS
 62
     7
 10
-557.987384007854
 20
-21.9564183638769
 30
0.0
 11
-558.508328437805
 21
-19.0019950866699
 31
0.0
  0
LINE
  5
   28A
  8
0
  6
CONTINUOUS
 62
     7
 10
-558.508328437805
 20
-19.0019950866699
 30
0.0
 11
-559.029272867757
 21
-21.9564183638769
 31
0.0
  0
ENDBLK
  5
   28B
  8
0
  6
CONTINUOUS
 62
     7
  0
BLOCK
  5
   28C
  8
0
  6
CONTINUOUS
 62
     7
  2
*HATCH101
 70
    65
 10
0.0
 20
0.0
 30
0.0
  3
*HATCH101
  0
LINE
  5
   28D
  8
0
  6
CONTINUOUS
 62
    52
 10
187.992431640625
 20
39.5
 30
0.0
 11
185.992431640625
 21
37.5
 31
0.0
  0
LINE
  5
   28E
  8
0
  6
CONTINUOUS
 62
    52
 10
192.235076904297
 20
39.5
 30
0.0
 11
190.235076904297
 21
37.5
 31
0.0
  0
LINE
  5
   28F
  8
0
  6
CONTINUOUS
 62
    52
 10
196.477722167969
 20
39.5
 30
0.0
 11
194.477722167969
 21
37.5
 31
0.0
  0
LINE
  5
   290
  8
0
  6
CONTINUOUS
 62
    52
 10
200.720367431641
 20
39.5
 30
0.0
 11
198.720367431641
 21
37.5
 31
0.0
  0
LINE
  5
   291
  8
0
  6
CONTINUOUS
 62
    52
 10
204.963012695313
 20
39.5
 30
0.0
 11
202.963012695313
 21
37.5
 31
0.0
  0
LINE
  5
   292
  8
0
  6
CONTINUOUS
 62
    52
 10
209.205657958984
 20
39.5
 30
0.0
 11
207.205657958984
 21
37.5
 31
0.0
  0
LINE
  5
   293
  8
0
  6
CONTINUOUS
 62
    52
 10
213.448303222656
 20
39.5
 30
0.0
 11
211.448303222656
 21
37.5
 31
0.0
  0
LINE
  5
   294
  8
0
  6
CONTINUOUS
 62
    52
 10
217.690948486328
 20
39.5
 30
0.0
 11
215.690948486328
 21
37.5
 31
0.0
  0
LINE
  5
   295
  8
0
  6
CONTINUOUS
 62
    52
 10
221.93359375
 20
39.5
 30
0.0
 11
219.93359375
 21
37.5
 31
0.0
  0
LINE
  5
   296
  8
0
  6
CONTINUOUS
 62
    52
 10
226.176239013672
 20
39.5
 30
0.0
 11
224.176239013672
 21
37.5
 31
0.0
  0
LINE
  5
   297
  8
0
  6
CONTINUOUS
 62
    52
 10
229.369522094727
 20
38.4506874084473
 30
0.0
 11
228.418838500977
 21
37.5
 31
0.0
  0
ENDBLK
  5
   298
  8
0
  6
CONTINUOUS
 62
     7
  0
BLOCK
  5
   299
  8
0
  6
CONTINUOUS
 62
     7
  2
*HATCH102
 70
    65
 10
0.0
 20
0.0
 30
0.0
  3
*HATCH102
  0
LINE
  5
   29A
  8
0
  6
CONTINUOUS
 62
    52
 10
115.867530822754
 20
39.4999961853027
 30
0.0
 11
113.867530822754
 21
37.4999961853027
 31
0.0
  0
LINE
  5
   29B
  8
0
  6
CONTINUOUS
 62
    52
 10
120.110176086426
 20
39.4999961853027
 30
0.0
 11
118.110176086426
 21
37.4999961853027
 31
0.0
  0
LINE
  5
   29C
  8
0
  6
CONTINUOUS
 62
    52
 10
124.352821350098
 20
39.4999961853027
 30
0.0
 11
122.352821350098
 21
37.4999961853027
 31
0.0
  0
LINE
  5
   29D
  8
0
  6
CONTINUOUS
 62
    52
 10
128.595458984375
 20
39.4999961853027
 30
0.0
 11
126.59546661377
 21
37.4999961853027
 31
0.0
  0
LINE
  5
   29E
  8
0
  6
CONTINUOUS
 62
    52
 10
132.838104248047
 20
39.4999961853027
 30
0.0
 11
130.838104248047
 21
37.4999961853027
 31
0.0
  0
LINE
  5
   29F
  8
0
  6
CONTINUOUS
 62
    52
 10
137.080749511719
 20
39.4999961853027
 30
0.0
 11
135.080749511719
 21
37.4999961853027
 31
0.0
  0
LINE
  5
   2A0
  8
0
  6
CONTINUOUS
 62
    52
 10
141.323394775391
 20
39.4999961853027
 30
0.0
 11
139.323394775391
 21
37.4999961853027
 31
0.0
  0
LINE
  5
   2A1
  8
0
  6
CONTINUOUS
 62
    52
 10
145.566040039063
 20
39.4999961853027
 30
0.0
 11
143.566040039063
 21
37.4999961853027
 31
0.0
  0
LINE
  5
   2A2
  8
0
  6
CONTINUOUS
 62
    52
 10
149.808685302734
 20
39.4999961853027
 30
0.0
 11
147.808685302734
 21
37.4999961853027
 31
0.0
  0
LINE
  5
   2A3
  8
0
  6
CONTINUOUS
 62
    52
 10
154.051330566406
 20
39.4999961853027
 30
0.0
 11
152.051330566406
 21
37.4999961853027
 31
0.0
  0
LINE
  5
   2A4
  8
0
  6
CONTINUOUS
 62
    52
 10
158.293975830078
 20
39.4999961853027
 30
0.0
 11
156.293975830078
 21
37.4999961853027
 31
0.0
  0
LINE
  5
   2A5
  8
0
  6
CONTINUOUS
 62
    52
 10
162.53662109375
 20
39.4999961853027
 30
0.0
 11
160.53662109375
 21
37.4999961853027
 31
0.0
  0
LINE
  5
   2A6
  8
0
  6
CONTINUOUS
 62
    52
 10
166.779266357422
 20
39.4999961853027
 30
0.0
 11
164.779266357422
 21
37.4999961853027
 31
0.0
  0
LINE
  5
   2A7
  8
0
  6
CONTINUOUS
 62
    52
 10
171.021911621094
 20
39.4999961853027
 30
0.0
 11
169.021911621094
 21
37.4999961853027
 31
0.0
  0
LINE
  5
   2A8
  8
0
  6
CONTINUOUS
 62
    52
 10
175.264556884766
 20
39.4999961853027
 30
0.0
 11
173.264556884766
 21
37.4999961853027
 31
0.0
  0
ENDBLK
  5
   2A9
  8
0
  6
CONTINUOUS
 62
     7
  0
BLOCK
  5
   2AA
  8
0
  6
CONTINUOUS
 62
     7
  2
*HATCH103
 70
    65
 10
0.0
 20
0.0
 30
0.0
  3
*HATCH103
  0
LINE
  5
   2AB
  8
0
  6
CONTINUOUS
 62
    52
 10
92.5330123901367
 20
39.4999961853027
 30
0.0
 11
90.5330123901367
 21
37.4999961853027
 31
0.0
  0
LINE
  5
   2AC
  8
0
  6
CONTINUOUS
 62
    52
 10
96.7756576538086
 20
39.4999961853027
 30
0.0
 11
94.7756576538086
 21
37.4999961853027
 31
0.0
  0
LINE
  5
   2AD
  8
0
  6
CONTINUOUS
 62
    52
 10
101.01830291748
 20
39.4999961853027
 30
0.0
 11
99.0183029174805
 21
37.4999961853027
 31
0.0
  0
LINE
  5
   2AE
  8
0
  6
CONTINUOUS
 62
    52
 10
105.260948181152
 20
39.4999961853027
 30
0.0
 11
103.260948181152
 21
37.4999961853027
 31
0.0
  0
ENDBLK
  5
   2AF
  8
0
  6
CONTINUOUS
 62
     7
  0
BLOCK
  5
   2B0
  8
0
  6
CONTINUOUS
 62
     7
  2
*HATCH104
 70
    65
 10
0.0
 20
0.0
 30
0.0
  3
*HATCH104
  0
LINE
  5
   2B1
  8
0
  6
CONTINUOUS
 62
    52
 10
45.8639602661133
 20
39.4999961853027
 30
0.0
 11
43.8639640808105
 21
37.5
 31
0.0
  0
LINE
  5
   2B2
  8
0
  6
CONTINUOUS
 62
    52
 10
50.1065979003906
 20
39.4999961853027
 30
0.0
 11
48.1066017150879
 21
37.5
 31
0.0
  0
LINE
  5
   2B3
  8
0
  6
CONTINUOUS
 62
    52
 10
54.349235534668
 20
39.4999961853027
 30
0.0
 11
52.3492393493652
 21
37.5
 31
0.0
  0
LINE
  5
   2B4
  8
0
  6
CONTINUOUS
 62
    52
 10
58.5918731689453
 20
39.4999961853027
 30
0.0
 11
56.5918769836426
 21
37.5
 31
0.0
  0
LINE
  5
   2B5
  8
0
  6
CONTINUOUS
 62
    52
 10
62.8345108032227
 20
39.4999961853027
 30
0.0
 11
60.8345146179199
 21
37.5
 31
0.0
  0
LINE
  5
   2B6
  8
0
  6
CONTINUOUS
 62
    52
 10
67.0771560668945
 20
39.4999961853027
 30
0.0
 11
65.0771560668945
 21
37.5
 31
0.0
  0
LINE
  5
   2B7
  8
0
  6
CONTINUOUS
 62
    52
 10
71.3198013305664
 20
39.4999961853027
 30
0.0
 11
69.3198013305664
 21
37.5
 31
0.0
  0
LINE
  5
   2B8
  8
0
  6
CONTINUOUS
 62
    52
 10
75.2370758056641
 20
39.1746253967285
 30
0.0
 11
73.5624465942383
 21
37.4999961853027
 31
0.0
  0
ENDBLK
  5
   2B9
  8
0
  6
CONTINUOUS
 62
     7
  0
BLOCK
  5
   2BA
  8
0
  6
CONTINUOUS
 62
     7
  2
*HATCH105
 70
    65
 10
0.0
 20
0.0
 30
0.0
  3
*HATCH105
  0
LINE
  5
   2BB
  8
0
  6
CONTINUOUS
 62
    52
 10
-34.7462120056152
 20
39.5
 30
0.0
 11
-36.7462120056152
 21
37.5
 31
0.0
  0
LINE
  5
   2BC
  8
0
  6
CONTINUOUS
 62
    52
 10
-30.5035724639893
 20
39.5
 30
0.0
 11
-32.5035743713379
 21
37.5
 31
0.0
  0
LINE
  5
   2BD
  8
0
  6
CONTINUOUS
 62
    52
 10
-26.2609310150147
 20
39.5
 30
0.0
 11
-28.2609329223633
 21
37.5
 31
0.0
  0
LINE
  5
   2BE
  8
0
  6
CONTINUOUS
 62
    52
 10
-22.01828956604
 20
39.5
 30
0.0
 11
-24.0182914733887
 21
37.5
 31
0.0
  0
LINE
  5
   2BF
  8
0
  6
CONTINUOUS
 62
    52
 10
-17.7756481170654
 20
39.5
 30
0.0
 11
-19.7756500244141
 21
37.5
 31
0.0
  0
LINE
  5
   2C0
  8
0
  6
CONTINUOUS
 62
    52
 10
-13.5330066680908
 20
39.5
 30
0.0
 11
-15.5330085754395
 21
37.5
 31
0.0
  0
LINE
  5
   2C1
  8
0
  6
CONTINUOUS
 62
    52
 10
-9.29036521911621
 20
39.5
 30
0.0
 11
-11.2903671264648
 21
37.5
 31
0.0
  0
LINE
  5
   2C2
  8
0
  6
CONTINUOUS
 62
    52
 10
-5.0477237701416
 20
39.5
 30
0.0
 11
-7.04772567749023
 21
37.5
 31
0.0
  0
LINE
  5
   2C3
  8
0
  6
CONTINUOUS
 62
    52
 10
-0.80508279800415
 20
39.5
 30
0.0
 11
-2.8050844669342
 21
37.5
 31
0.0
  0
LINE
  5
   2C4
  8
0
  6
CONTINUOUS
 62
    52
 10
3.4375581741333
 20
39.5
 30
0.0
 11
1.43755650520325
 21
37.5
 31
0.0
  0
LINE
  5
   2C5
  8
0
  6
CONTINUOUS
 62
    52
 10
7.68019962310791
 20
39.5
 30
0.0
 11
5.68019771575928
 21
37.5
 31
0.0
  0
LINE
  5
   2C6
  8
0
  6
CONTINUOUS
 62
    52
 10
11.9228410720825
 20
39.5
 30
0.0
 11
9.92283916473389
 21
37.5
 31
0.0
  0
LINE
  5
   2C7
  8
0
  6
CONTINUOUS
 62
    52
 10
16.1654815673828
 20
39.5
 30
0.0
 11
14.1654806137085
 21
37.5
 31
0.0
  0
LINE
  5
   2C8
  8
0
  6
CONTINUOUS
 62
    52
 10
20.4081230163574
 20
39.5
 30
0.0
 11
18.4081211090088
 21
37.5
 31
0.0
  0
LINE
  5
   2C9
  8
0
  6
CONTINUOUS
 62
    52
 10
24.650764465332
 20
39.5
 30
0.0
 11
22.6507625579834
 21
37.5
 31
0.0
  0
LINE
  5
   2CA
  8
0
  6
CONTINUOUS
 62
    52
 10
28.8934059143066
 20
39.5
 30
0.0
 11
26.893404006958
 21
37.5
 31
0.0
  0
LINE
  5
   2CB
  8
0
  6
CONTINUOUS
 62
    52
 10
33.1360473632813
 20
39.5
 30
0.0
 11
31.1360454559326
 21
37.5
 31
0.0
  0
LINE
  5
   2CC
  8
0
  6
CONTINUOUS
 62
    52
 10
35.486873626709
 20
37.6081924438477
 30
0.0
 11
35.3786811828613
 21
37.5
 31
0.0
  0
ENDBLK
  5
   2CD
  8
0
  6
CONTINUOUS
 62
     7
  0
BLOCK
  5
   2CE
  8
0
  6
CONTINUOUS
 62
     7
  2
*HATCH106
 70
    65
 10
0.0
 20
0.0
 30
0.0
  3
*HATCH106
  0
LINE
  5
   2CF
  8
0
  6
CONTINUOUS
 62
    52
 10
166.264526367187
 20
30.5000076293945
 30
0.0
 11
163.987060546875
 21
28.2225513458252
 31
0.0
  0
LINE
  5
   2D0
  8
0
  6
CONTINUOUS
 62
    52
 10
170.50715637207
 20
30.5000076293945
 30
0.0
 11
168.00715637207
 21
28.0000019073486
 31
0.0
  0
LINE
  5
   2D1
  8
0
  6
CONTINUOUS
 62
    52
 10
172.987060546875
 20
28.7372703552246
 30
0.0
 11
172.249786376953
 21
28.0000019073486
 31
0.0
  0
ENDBLK
  5
   2D2
  8
0
  6
CONTINUOUS
 62
     7
  0
BLOCK
  5
   2D3
  8
0
  6
CONTINUOUS
 62
     7
  2
$1DIAFR_POS_LT_
 70
    64
 10
0.0
 20
0.0
 30
0.0
  3
$1DIAFR_POS_LT_
  0
LINE
  5
   2D4
  8
0
  6
CONTINUOUS
 62
   212
 10
-67.5
 20
245.937057495117
 30
0.0
 11
-52.4999885559082
 21
257.236907958984
 31
0.0
  0
LINE
  5
   2D5
  8
0
  6
CONTINUOUS
 62
   212
 10
-69.5
 20
223.737045288086
 30
0.0
 11
-69.5
 21
242.237060546875
 31
0.0
  0
LINE
  5
   2D6
  8
0
  6
CONTINUOUS
 62
   212
 10
-66.9999915459389
 20
234.437118530274
 30
0.0
 11
-66.9999694824219
 21
223.737045286797
 31
0.0
  0
LINE
  5
   2D7
  8
0
  6
CONTINUOUS
 62
   212
 10
-69.5
 20
223.737045288086
 30
0.0
 11
-66.9999694824219
 21
223.737045288086
 31
0.0
  0
LINE
  5
   2D8
  8
0
  6
CONTINUOUS
 62
   212
 10
-69.5
 20
242.23706054467
 30
0.0
 11
-69.4999923706055
 21
244.937042234182
 31
0.0
  0
LINE
  5
   2D9
  8
0
  6
CONTINUOUS
 62
   212
 10
-68.4997425678887
 20
245.937107562901
 30
0.0
 11
-52.4997463825787
 21
245.937107562901
 31
0.0
  0
LINE
  5
   2DA
  8
0
  6
CONTINUOUS
 62
   212
 10
-52.4999809265137
 20
245.937057495117
 30
0.0
 11
-52.4999809265137
 21
246.737060546875
 31
0.0
  0
LINE
  5
   2DB
  8
0
  6
CONTINUOUS
 62
   212
 10
-50.0000686645508
 20
246.737060546845
 30
0.0
 11
-49.9999122628449
 21
234.437118530248
 31
0.0
  0
LINE
  5
   2DC
  8
0
  6
CONTINUOUS
 62
   212
 10
-52.4999809265137
 20
246.737060546875
 30
0.0
 11
-52.4999809265137
 21
257.236907958984
 31
0.0
  0
LINE
  5
   2DD
  8
0
  6
CONTINUOUS
 62
   212
 10
-52.4999809265137
 20
257.236907958985
 30
0.0
 11
-49.999984741211
 21
257.23666381836
 31
0.0
  0
LINE
  5
   2DE
  8
0
  6
CONTINUOUS
 62
   212
 10
-50.0000686645508
 20
246.737060548215
 30
0.0
 11
-49.999984741211
 21
257.23666381978
 31
0.0
  0
LINE
  5
   2DF
  8
0
  6
CONTINUOUS
 62
   212
 10
-66.9999915459389
 20
234.437118530273
 30
0.0
 11
-49.9999122628448
 21
234.437118530273
 31
0.0
  0
LINE
  5
   2E0
  8
0
  6
DASHDOT
 62
     7
 10
-73.8090871198216
 20
228.737057495117
 30
0.0
 11
-55.337192222057
 21
228.737057495117
 31
0.0
  0
LINE
  5
   2E1
  8
0
  6
CONTINUOUS
 62
     1
 10
-70.6941125496954
 20
225.935476594044
 30
0.0
 11
-70.6941125496954
 21
231.535476594044
 31
0.0
  0
ARC
  5
   2E2
  8
0
  6
CONTINUOUS
 62
     1
 10
-67.3
 20
228.735476594044
 30
0.0
 40
4.4
 50
140.478803641358
 51
219.521196358642
  0
LINE
  5
   2E3
  8
0
  6
CONTINUOUS
 62
     1
 10
-70.6941125496954
 20
225.935476594044
 30
0.0
 11
-69.5
 21
225.935476594044
 31
0.0
  0
LINE
  5
   2E4
  8
0
  6
CONTINUOUS
 62
     1
 10
-69.5
 20
225.935476594044
 30
0.0
 11
-69.5
 21
231.535476594044
 31
0.0
  0
LINE
  5
   2E5
  8
0
  6
CONTINUOUS
 62
     1
 10
-70.6941125496954
 20
231.535476594044
 30
0.0
 11
-69.5
 21
231.535476594044
 31
0.0
  0
ARC
  5
   2E6
  8
0
  6
CONTINUOUS
 62
   212
 10
-68.4999689263313
 20
244.937018791814
 30
0.0
 40
1.00002344454905
 50
90.0
 51
179.999838098122
  0
ENDBLK
  5
   2E7
  8
0
  6
CONTINUOUS
 62
     7
  0
BLOCK
  5
   2E8
  8
0
  6
CONTINUOUS
 62
     7
  2
TERM_400_LT_
 70
    64
 10
0.0
 20
0.0
 30
0.0
  3
TERM_400_LT_
  0
LINE
  5
   2E9
  8
0
  6
CONTINUOUS
 62
   130
 10
-12.5
 20
270.188751220703
 30
0.0
 11
-12.5
 21
271.843292236328
 31
0.0
  0
LINE
  5
   2EA
  8
0
  6
CONTINUOUS
 62
   130
 10
-12.5
 20
268.237060546875
 30
0.0
 11
-12.5
 21
270.188751220703
 31
0.0
  0
LINE
  5
   2EB
  8
0
  6
CONTINUOUS
 62
   130
 10
-12.5
 20
271.843292236328
 30
0.0
 11
-12.5
 21
272.948852539063
 31
0.0
  0
LINE
  5
   2EC
  8
0
  6
CONTINUOUS
 62
   130
 10
-12.5
 20
272.948852539063
 30
0.0
 11
-12.5
 21
273.337066650391
 31
0.0
  0
LINE
  5
   2ED
  8
0
  6
CONTINUOUS
 62
   130
 10
-12.5
 20
263.137054443359
 30
0.0
 11
-12.5
 21
263.525268554688
 31
0.0
  0
LINE
  5
   2EE
  8
0
  6
CONTINUOUS
 62
   130
 10
-12.5
 20
263.525268554688
 30
0.0
 11
-12.5
 21
264.630828857422
 31
0.0
  0
LINE
  5
   2EF
  8
0
  6
CONTINUOUS
 62
   130
 10
-12.5
 20
264.630828857422
 30
0.0
 11
-12.5
 21
266.285369873047
 31
0.0
  0
LINE
  5
   2F0
  8
0
  6
CONTINUOUS
 62
   130
 10
-12.5
 20
266.285369873047
 30
0.0
 11
-12.5
 21
268.237060546875
 31
0.0
  0
LINE
  5
   2F1
  8
0
  6
CONTINUOUS
 62
   130
 10
-18.5
 20
268.237060546875
 30
0.0
 11
-18.5
 21
270.188751220703
 31
0.0
  0
LINE
  5
   2F2
  8
0
  6
CONTINUOUS
 62
   130
 10
-18.5
 20
264.630828857422
 30
0.0
 11
-18.5
 21
266.285369873047
 31
0.0
  0
LINE
  5
   2F3
  8
0
  6
CONTINUOUS
 62
   130
 10
-18.5
 20
270.188751220703
 30
0.0
 11
-18.5
 21
271.843292236328
 31
0.0
  0
LINE
  5
   2F4
  8
0
  6
CONTINUOUS
 62
   130
 10
-18.5
 20
271.843292236328
 30
0.0
 11
-18.5
 21
272.948852539063
 31
0.0
  0
LINE
  5
   2F5
  8
0
  6
CONTINUOUS
 62
   130
 10
-18.5
 20
272.948852539063
 30
0.0
 11
-18.5
 21
273.337066650391
 31
0.0
  0
LINE
  5
   2F6
  8
0
  6
CONTINUOUS
 62
   130
 10
-18.5
 20
263.137054443359
 30
0.0
 11
-18.5
 21
263.525268554688
 31
0.0
  0
LINE
  5
   2F7
  8
0
  6
CONTINUOUS
 62
   130
 10
-18.5
 20
263.525268554688
 30
0.0
 11
-18.5
 21
264.630828857422
 31
0.0
  0
LINE
  5
   2F8
  8
0
  6
CONTINUOUS
 62
   130
 10
-18.5
 20
266.285369873047
 30
0.0
 11
-18.5
 21
268.237060546875
 31
0.0
  0
LINE
  5
   2F9
  8
0
  6
CONTINUOUS
 62
   130
 10
-12.5
 20
254.040756225586
 30
0.0
 11
-12.5
 21
263.137054443359
 31
0.0
  0
LINE
  5
   2FA
  8
0
  6
CONTINUOUS
 62
   130
 10
-39.6276134505609
 20
246.706911718197
 30
0.0
 11
-19.9697322845459
 21
252.112335205078
 31
0.0
  0
LINE
  5
   2FB
  8
0
  6
CONTINUOUS
 62
   130
 10
-18.5
 20
254.040756225586
 30
0.0
 11
-18.5
 21
263.137054443359
 31
0.0
  0
LINE
  5
   2FC
  8
0
  6
CONTINUOUS
 62
   130
 10
-29.6163374570825
 20
243.237060546875
 30
0.0
 11
-18.3789310455323
 21
246.327056884766
 31
0.0
  0
LINE
  5
   2FD
  8
0
  6
CONTINUOUS
 62
   130
 10
-18.5
 20
282.237060546875
 30
0.0
 11
-12.5
 21
282.237060546875
 31
0.0
  0
LINE
  5
   2FE
  8
0
  6
CONTINUOUS
 62
   130
 10
-12.5
 20
273.337066650391
 30
0.0
 11
-12.5
 21
282.237060546875
 31
0.0
  0
LINE
  5
   2FF
  8
0
  6
CONTINUOUS
 62
   130
 10
-18.5
 20
273.337066650391
 30
0.0
 11
-18.5
 21
282.237060546875
 31
0.0
  0
ARC
  5
   300
  8
0
  6
CONTINUOUS
 62
   130
 10
-20.4999773130108
 20
254.040753678998
 30
0.0
 40
1.99997731301166
 50
285.374913087062
 51
360.0
  0
ARC
  5
   301
  8
0
  6
CONTINUOUS
 62
   130
 10
-20.4999139628122
 20
254.040714279146
 30
0.0
 40
7.99990616987769
 50
285.374874568989
 51
360.0
  0
ARC
  5
   302
  8
0
  6
CONTINUOUS
 62
   130
 10
-37.4999949731402
 20
238.994998546714
 30
0.0
 40
8.00002282184024
 50
105.423501773071
 51
147.977230613379
  0
LINE
  5
   303
  8
0
  6
DASHDOT
 62
     7
 10
-25.200698728066
 20
268.237060546875
 30
0.0
 11
-6.91878895331445
 21
268.237060546875
 31
0.0
  0
LINE
  5
   304
  8
0
  6
CONTINUOUS
 62
   130
 10
-18.5
 20
257.237060546875
 30
0.0
 11
-12.5
 21
257.237060546875
 31
0.0
  0
POINT
  5
   305
  8
0
  6
CONTINUOUS
 62
     7
 10
-67.0
 20
219.237060546875
 30
0.0
  0
ENDBLK
  5
   306
  8
0
  6
CONTINUOUS
 62
     7
  0
BLOCK
  5
   307
  8
0
  6
CONTINUOUS
 62
     7
  2
*UDIM563
 70
    65
 10
0.0
 20
0.0
 30
0.0
  3
*UDIM563
  0
TEXT
  5
   308
  8
0
  6
CONTINUOUS
 62
     7
 10
-485.541045033896
 20
205.400409186491
 30
0.0
 40
3.50000002384186
  1
6
 50
359.999999948034
 41
0.933333333333333
 72
     1
 11
-484.257711690242
 21
207.150409197254
 31
0.0
 73
     2
  0
LINE
  5
   309
  8
0
  6
CONTINUOUS
 62
     7
 10
-474.957929572463
 20
183.341624294299
 30
0.0
 11
-474.957929572463
 21
205.400409185333
 31
0.0
  0
LINE
  5
   30A
  8
0
  6
CONTINUOUS
 62
     7
 10
-477.0579295367
 20
183.341624294299
 30
0.0
 11
-477.0579295367
 21
205.400409185333
 31
0.0
  0
LINE
  5
   30B
  8
0
  6
CONTINUOUS
 62
     7
 10
-474.957929572463
 20
203.400409185333
 30
0.0
 11
-485.541045032317
 21
203.400409185333
 31
0.0
  0
LINE
  5
   30C
  8
0
  6
CONTINUOUS
 62
     7
 10
-472.060152099252
 20
204.176866341752
 30
0.0
 11
-474.957929572463
 21
203.400409185333
 31
0.0
  0
LINE
  5
   30D
  8
0
  6
CONTINUOUS
 62
     7
 10
-474.957929572463
 20
203.400409185333
 30
0.0
 11
-472.060152099252
 21
202.623952028915
 31
0.0
  0
LINE
  5
   30E
  8
0
  6
CONTINUOUS
 62
     7
 10
-479.955707009911
 20
202.623952028915
 30
0.0
 11
-477.0579295367
 21
203.400409185333
 31
0.0
  0
LINE
  5
   30F
  8
0
  6
CONTINUOUS
 62
     7
 10
-477.0579295367
 20
203.400409185333
 30
0.0
 11
-479.955707009911
 21
204.176866341752
 31
0.0
  0
ENDBLK
  5
   310
  8
0
  6
CONTINUOUS
 62
     7
  0
BLOCK
  5
   311
  8
0
  6
CONTINUOUS
 62
     7
  2
*UDIM564
 70
    65
 10
0.0
 20
0.0
 30
0.0
  3
*UDIM564
  0
TEXT
  5
   312
  8
0
  6
CONTINUOUS
 62
     7
 10
-472.449587006955
 20
205.400409187964
 30
0.0
 40
3.50000002384186
  1
31
 50
359.999999948034
 41
0.933333333333333
 72
     1
 11
-469.532920318842
 21
207.150409197254
 31
0.0
 73
     2
  0
LINE
  5
   313
  8
0
  6
CONTINUOUS
 62
     7
 10
-464.107911065221
 20
177.329380066525
 30
0.0
 11
-464.107911065221
 21
205.400409185333
 31
0.0
  0
LINE
  5
   314
  8
0
  6
CONTINUOUS
 62
     7
 10
-464.107911065221
 20
203.400409185333
 30
0.0
 11
-474.957929572463
 21
203.400409185333
 31
0.0
  0
LINE
  5
   315
  8
0
  6
CONTINUOUS
 62
     7
 10
-467.005688538431
 20
202.623952028915
 30
0.0
 11
-464.107911065221
 21
203.400409185333
 31
0.0
  0
LINE
  5
   316
  8
0
  6
CONTINUOUS
 62
     7
 10
-464.107911065221
 20
203.400409185333
 30
0.0
 11
-467.005688538431
 21
204.176866341752
 31
0.0
  0
CIRCLE
  5
   317
  8
0
  6
CONTINUOUS
 62
     7
 10
-474.957929572463
 20
203.400409185333
 30
0.0
 40
0.500000000000001
  0
ENDBLK
  5
   318
  8
0
  6
CONTINUOUS
 62
     7
  0
BLOCK
  5
   319
  8
0
  6
CONTINUOUS
 62
     7
  2
*UDIM565
 70
    65
 10
0.0
 20
0.0
 30
0.0
  3
*UDIM565
  0
TEXT
  5
   31A
  8
0
  6
CONTINUOUS
 62
     7
 10
-453.506222257149
 20
205.400409186491
 30
0.0
 40
3.50000002384186
  1
3
 50
359.999999948034
 41
0.933333333333333
 72
     1
 11
-452.222888913496
 21
207.150409197254
 31
0.0
 73
     2
  0
TEXT
  5
   31B
  8
0
  6
CONTINUOUS
 62
     7
 10
-457.0728889413
 20
205.400409186491
 30
0.0
 40
3.50000002384186
  1
_
 50
359.999999948034
 41
0.933333333333333
 72
     1
 11
-455.789555597646
 21
207.150409197254
 31
0.0
 73
     2
  0
LINE
  5
   31C
  8
0
  6
CONTINUOUS
 62
     7
 10
-463.057911083102
 20
177.481553976977
 30
0.0
 11
-463.057911083102
 21
205.400409185333
 31
0.0
  0
LINE
  5
   31D
  8
0
  6
CONTINUOUS
 62
     7
 10
-450.93955557142
 20
203.400409185333
 30
0.0
 11
-464.107911065221
 21
203.400409185333
 31
0.0
  0
LINE
  5
   31E
  8
0
  6
CONTINUOUS
 62
     7
 10
-460.160133609892
 20
204.176866341752
 30
0.0
 11
-463.057911083102
 21
203.400409185333
 31
0.0
  0
LINE
  5
   31F
  8
0
  6
CONTINUOUS
 62
     7
 10
-463.057911083102
 20
203.400409185333
 30
0.0
 11
-460.160133609892
 21
202.623952028915
 31
0.0
  0
CIRCLE
  5
   320
  8
0
  6
CONTINUOUS
 62
     7
 10
-464.107911065221
 20
203.400409185333
 30
0.0
 40
0.500000000000001
  0
ENDBLK
  5
   321
  8
0
  6
CONTINUOUS
 62
     7
  0
BLOCK
  5
   322
  8
0
  6
CONTINUOUS
 62
     7
  2
*UDIM566
 70
    65
 10
0.0
 20
0.0
 30
0.0
  3
*UDIM566
  0
TEXT
  5
   323
  8
0
  6
CONTINUOUS
 62
     7
 10
-516.728493336855
 20
115.188037680043
 30
0.0
 40
2.99999997871263
  1
5,5
 50
306.27250751355
 41
0.933333333333333
 72
     1
 11
-513.211832020862
 21
112.93124948865
 31
0.0
 73
     2
  0
TEXT
  5
   324
  8
0
  6
CONTINUOUS
 62
     7
 10
-518.592116480312
 20
117.72760626658
 30
0.0
 40
2.99999997871263
  1
Ø
 50
306.27250751355
 41
0.933333333333333
 72
     1
 11
-516.732009068488
 21
117.728212380868
 31
0.0
 73
     2
  0
LINE
  5
   325
  8
0
  6
CONTINUOUS
 62
     7
 10
-512.92001971453
 20
108.307955715938
 30
0.0
 11
-523.127371930023
 21
122.217565699485
 31
0.0
  0
LINE
  5
   326
  8
0
  6
CONTINUOUS
 62
     7
 10
-519.820582867082
 20
118.591917068429
 30
0.0
 11
-521.988489457257
 21
120.665604850203
 31
0.0
  0
LINE
  5
   327
  8
0
  6
CONTINUOUS
 62
     7
 10
-521.988489457257
 20
120.665604850203
 30
0.0
 11
-520.660566436592
 21
117.975508113803
 31
0.0
  0
LINE
  5
   328
  8
0
  6
CONTINUOUS
 62
     7
 10
-525.295278520198
 20
124.291253481259
 30
0.0
 11
-523.127371930023
 21
122.217565699485
 31
0.0
  0
LINE
  5
   329
  8
0
  6
CONTINUOUS
 62
     7
 10
-523.127371930023
 20
122.217565699485
 30
0.0
 11
-524.455294950688
 21
124.907662435885
 31
0.0
  0
ENDBLK
  5
   32A
  8
0
  6
CONTINUOUS
 62
     7
  0
BLOCK
  5
   32B
  8
0
  6
CONTINUOUS
 62
     7
  2
*UDIM567
 70
    65
 10
0.0
 20
0.0
 30
0.0
  3
*UDIM567
  0
TEXT
  5
   32C
  8
0
  6
CONTINUOUS
 62
     7
 10
-542.909242918573
 20
197.633155427766
 30
0.0
 40
2.99999997871263
  1
27,5
 50
359.999999948034
 41
0.933333333333333
 72
     1
 11
-537.609242954828
 21
199.133155412342
 31
0.0
 73
     2
  0
LINE
  5
   32D
  8
0
  6
CONTINUOUS
 62
     7
 10
-532.532908564806
 20
151.229060754258
 30
0.0
 11
-532.532908564806
 21
198.633155422986
 31
0.0
  0
LINE
  5
   32E
  8
0
  6
CONTINUOUS
 62
     7
 10
-542.157908400893
 20
141.429125008064
 30
0.0
 11
-542.157908400893
 21
198.633155422986
 31
0.0
  0
LINE
  5
   32F
  8
0
  6
CONTINUOUS
 62
     7
 10
-532.309242992435
 20
196.633155422986
 30
0.0
 11
-542.90924291722
 21
196.633155422986
 31
0.0
  0
LINE
  5
   330
  8
0
  6
CONTINUOUS
 62
     7
 10
-529.578485287599
 20
197.154099852937
 30
0.0
 11
-532.532908564806
 21
196.633155422986
 31
0.0
  0
LINE
  5
   331
  8
0
  6
CONTINUOUS
 62
     7
 10
-532.532908564806
 20
196.633155422986
 30
0.0
 11
-529.578485287599
 21
196.112210993034
 31
0.0
  0
LINE
  5
   332
  8
0
  6
CONTINUOUS
 62
     7
 10
-545.1123316781
 20
196.112210993034
 30
0.0
 11
-542.157908400893
 21
196.633155422986
 31
0.0
  0
LINE
  5
   333
  8
0
  6
CONTINUOUS
 62
     7
 10
-542.157908400893
 20
196.633155422986
 30
0.0
 11
-545.1123316781
 21
197.154099852937
 31
0.0
  0
ENDBLK
  5
   334
  8
0
  6
CONTINUOUS
 62
     7
  0
BLOCK
  5
   335
  8
0
  6
CONTINUOUS
 62
     7
  2
*UDIM568
 70
    65
 10
0.0
 20
0.0
 30
0.0
  3
*UDIM568
  0
TEXT
  5
   336
  8
0
  6
CONTINUOUS
 62
     7
 10
-516.933325749421
 20
43.4635867501994
 30
0.0
 40
2.99999997871263
  1
195,5
 50
359.999999948034
 41
0.933333333333333
 72
     1
 11
-510.233325795609
 21
44.9635867335127
 31
0.0
 73
     2
  0
LINE
  5
   337
  8
0
  6
CONTINUOUS
 62
     7
 10
-464.107911065221
 20
63.8728382510523
 30
0.0
 11
-464.107911065221
 21
40.4635867441564
 31
0.0
  0
LINE
  5
   338
  8
0
  6
CONTINUOUS
 62
     7
 10
-532.532908564806
 20
92.8790597111769
 30
0.0
 11
-532.532908564806
 21
40.4635867441564
 31
0.0
  0
LINE
  5
   339
  8
0
  6
CONTINUOUS
 62
     7
 10
-464.107911065221
 20
42.4635867441564
 30
0.0
 11
-532.532908564806
 21
42.4635867441564
 31
0.0
  0
LINE
  5
   33A
  8
0
  6
CONTINUOUS
 62
     7
 10
-467.062334342428
 20
41.9426423142047
 30
0.0
 11
-464.107911065221
 21
42.4635867441564
 31
0.0
  0
LINE
  5
   33B
  8
0
  6
CONTINUOUS
 62
     7
 10
-464.107911065221
 20
42.4635867441564
 30
0.0
 11
-467.062334342428
 21
42.984531174108
 31
0.0
  0
LINE
  5
   33C
  8
0
  6
CONTINUOUS
 62
     7
 10
-529.578485287599
 20
42.984531174108
 30
0.0
 11
-532.532908564806
 21
42.4635867441564
 31
0.0
  0
LINE
  5
   33D
  8
0
  6
CONTINUOUS
 62
     7
 10
-532.532908564806
 20
42.4635867441564
 30
0.0
 11
-529.578485287599
 21
41.9426423142047
 31
0.0
  0
ENDBLK
  5
   33E
  8
0
  6
CONTINUOUS
 62
     7
  0
BLOCK
  5
   33F
  8
0
  6
CONTINUOUS
 62
     7
  2
*UDIM569
 70
    65
 10
0.0
 20
0.0
 30
0.0
  3
*UDIM569
  0
TEXT
  5
   340
  8
0
  6
CONTINUOUS
 62
     7
 10
-512.59070904675
 20
49.7426782850288
 30
0.0
 40
2.99999997871263
  1
190
 50
359.999999948034
 41
0.933333333333333
 72
     1
 11
-508.69070907307
 21
51.2426782708675
 31
0.0
 73
     2
  0
LINE
  5
   341
  8
0
  6
CONTINUOUS
 62
     7
 10
-464.107911065221
 20
63.8728382510523
 30
0.0
 11
-464.107911065221
 21
46.7426782815112
 31
0.0
  0
LINE
  5
   342
  8
0
  6
CONTINUOUS
 62
     7
 10
-530.607909932733
 20
69.0900112907712
 30
0.0
 11
-530.607909932733
 21
46.7426782815112
 31
0.0
  0
LINE
  5
   343
  8
0
  6
CONTINUOUS
 62
     7
 10
-464.107911065221
 20
48.7426782815112
 30
0.0
 11
-530.607909932733
 21
48.7426782815112
 31
0.0
  0
LINE
  5
   344
  8
0
  6
CONTINUOUS
 62
     7
 10
-467.062334342428
 20
48.2217338515595
 30
0.0
 11
-464.107911065221
 21
48.7426782815112
 31
0.0
  0
LINE
  5
   345
  8
0
  6
CONTINUOUS
 62
     7
 10
-464.107911065221
 20
48.7426782815112
 30
0.0
 11
-467.062334342428
 21
49.2636227114629
 31
0.0
  0
LINE
  5
   346
  8
0
  6
CONTINUOUS
 62
     7
 10
-527.653486655526
 20
49.2636227114629
 30
0.0
 11
-530.607909932733
 21
48.7426782815112
 31
0.0
  0
LINE
  5
   347
  8
0
  6
CONTINUOUS
 62
     7
 10
-530.607909932733
 20
48.7426782815112
 30
0.0
 11
-527.653486655526
 21
48.2217338515595
 31
0.0
  0
ENDBLK
  5
   348
  8
0
  6
CONTINUOUS
 62
     7
  0
BLOCK
  5
   349
  8
0
  6
CONTINUOUS
 62
     7
  2
*UDIM570
 70
    65
 10
0.0
 20
0.0
 30
0.0
  3
*UDIM570
  0
TEXT
  5
   34A
  8
0
  6
CONTINUOUS
 62
     7
 10
-527.035085766127
 20
49.7426782825033
 30
0.0
 40
2.99999997871263
  1
2
 50
359.999999948034
 41
0.933333333333333
 72
     1
 11
-525.93508577258
 21
51.2426782708675
 31
0.0
 73
     2
  0
LINE
  5
   34B
  8
0
  6
CONTINUOUS
 62
     7
 10
-531.307909920812
 20
68.9720337646905
 30
0.0
 11
-531.307909920812
 21
46.7426782815112
 31
0.0
  0
LINE
  5
   34C
  8
0
  6
CONTINUOUS
 62
     7
 10
-524.835085780385
 20
48.7426782815112
 30
0.0
 11
-531.307909920812
 21
48.7426782815112
 31
0.0
  0
LINE
  5
   34D
  8
0
  6
CONTINUOUS
 62
     7
 10
-527.653486655526
 20
49.2636227114629
 30
0.0
 11
-530.607909932733
 21
48.7426782815112
 31
0.0
  0
LINE
  5
   34E
  8
0
  6
CONTINUOUS
 62
     7
 10
-530.607909932733
 20
48.7426782815112
 30
0.0
 11
-527.653486655526
 21
48.2217338515595
 31
0.0
  0
LINE
  5
   34F
  8
0
  6
CONTINUOUS
 62
     7
 10
-534.262333198019
 20
48.2217338515595
 30
0.0
 11
-531.307909920812
 21
48.7426782815112
 31
0.0
  0
LINE
  5
   350
  8
0
  6
CONTINUOUS
 62
     7
 10
-531.307909920812
 20
48.7426782815112
 30
0.0
 11
-534.262333198019
 21
49.2636227114629
 31
0.0
  0
ENDBLK
  5
   351
  8
0
  6
CONTINUOUS
 62
     7
  0
BLOCK
  5
   352
  8
0
  6
CONTINUOUS
 62
     7
  2
*UDIM571
 70
    65
 10
0.0
 20
0.0
 30
0.0
  3
*UDIM571
  0
TEXT
  5
   353
  8
0
  6
CONTINUOUS
 62
     7
 10
-497.507920778423
 20
56.0694905399547
 30
0.0
 40
2.99999997871263
  1
167
 50
359.999999948034
 41
0.933333333333333
 72
     1
 11
-493.607920804743
 21
57.5694905257934
 31
0.0
 73
     2
  0
LINE
  5
   354
  8
0
  6
CONTINUOUS
 62
     7
 10
-464.107911065221
 20
63.8728382510523
 30
0.0
 11
-464.107911065221
 21
53.0694905364371
 31
0.0
  0
LINE
  5
   355
  8
0
  6
CONTINUOUS
 62
     7
 10
-522.55793373652
 20
116.591590417485
 30
0.0
 11
-522.55793373652
 21
53.0694905364371
 31
0.0
  0
LINE
  5
   356
  8
0
  6
CONTINUOUS
 62
     7
 10
-464.107911065221
 20
55.0694905364371
 30
0.0
 11
-522.55793373652
 21
55.0694905364371
 31
0.0
  0
LINE
  5
   357
  8
0
  6
CONTINUOUS
 62
     7
 10
-467.062334342428
 20
54.5485461064855
 30
0.0
 11
-464.107911065221
 21
55.0694905364371
 31
0.0
  0
LINE
  5
   358
  8
0
  6
CONTINUOUS
 62
     7
 10
-464.107911065221
 20
55.0694905364371
 30
0.0
 11
-467.062334342428
 21
55.5904349663888
 31
0.0
  0
LINE
  5
   359
  8
0
  6
CONTINUOUS
 62
     7
 10
-519.603510459314
 20
55.5904349663888
 30
0.0
 11
-522.55793373652
 21
55.0694905364371
 31
0.0
  0
LINE
  5
   35A
  8
0
  6
CONTINUOUS
 62
     7
 10
-522.55793373652
 20
55.0694905364371
 30
0.0
 11
-519.603510459314
 21
54.5485461064855
 31
0.0
  0
ENDBLK
  5
   35B
  8
0
  6
CONTINUOUS
 62
     7
  0
BLOCK
  5
   35C
  8
0
  6
CONTINUOUS
 62
     7
  2
*UDIM572
 70
    65
 10
0.0
 20
0.0
 30
0.0
  3
*UDIM572
  0
TEXT
  5
   35D
  8
0
  6
CONTINUOUS
 62
     7
 10
-550.047106018121
 20
117.879117785177
 30
0.0
 40
2.99999997871263
  1
105
 50
89.9999999480344
 41
0.933333333333333
 72
     1
 11
-551.547106003945
 21
121.779117758862
 31
0.0
 73
     2
  0
LINE
  5
   35E
  8
0
  6
CONTINUOUS
 62
     7
 10
-531.607908597589
 20
103.679108277041
 30
0.0
 11
-551.047106014589
 21
103.679108277041
 31
0.0
  0
LINE
  5
   35F
  8
0
  6
CONTINUOUS
 62
     7
 10
-531.607908597589
 20
140.429125008064
 30
0.0
 11
-551.047106014589
 21
140.429125008064
 31
0.0
  0
LINE
  5
   360
  8
0
  6
CONTINUOUS
 62
     7
 10
-549.047106014589
 20
103.679108277041
 30
0.0
 11
-549.047106014589
 21
140.429125008064
 31
0.0
  0
LINE
  5
   361
  8
0
  6
CONTINUOUS
 62
     7
 10
-549.568050444541
 20
106.633531554248
 30
0.0
 11
-549.047106014589
 21
103.679108277041
 31
0.0
  0
LINE
  5
   362
  8
0
  6
CONTINUOUS
 62
     7
 10
-549.047106014589
 20
103.679108277041
 30
0.0
 11
-548.526161584637
 21
106.633531554248
 31
0.0
  0
LINE
  5
   363
  8
0
  6
CONTINUOUS
 62
     7
 10
-548.526161584637
 20
137.474701730857
 30
0.0
 11
-549.047106014589
 21
140.429125008064
 31
0.0
  0
LINE
  5
   364
  8
0
  6
CONTINUOUS
 62
     7
 10
-549.047106014589
 20
140.429125008064
 30
0.0
 11
-549.568050444541
 21
137.474701730857
 31
0.0
  0
ENDBLK
  5
   365
  8
0
  6
CONTINUOUS
 62
     7
  0
BLOCK
  5
   366
  8
0
  6
CONTINUOUS
 62
     7
  2
*UDIM573
 70
    65
 10
0.0
 20
0.0
 30
0.0
  3
*UDIM573
  0
TEXT
  5
   367
  8
0
  6
CONTINUOUS
 62
     7
 10
-504.765528345095
 20
110.411036741068
 30
0.0
 40
2.99999997871263
  1
1,75
 50
89.9999999480344
 41
0.933333333333333
 72
     1
 11
-506.265528329651
 21
115.711036704819
 31
0.0
 73
     2
  0
LINE
  5
   368
  8
0
  6
CONTINUOUS
 62
     7
 10
-517.707936782749
 20
121.441587371257
 30
0.0
 11
-501.765528340295
 21
121.441587371257
 31
0.0
  0
LINE
  5
   369
  8
0
  6
CONTINUOUS
 62
     7
 10
-503.765528340295
 20
110.411036742427
 30
0.0
 11
-503.765528340295
 21
122.054125320989
 31
0.0
  0
LINE
  5
   36A
  8
0
  6
CONTINUOUS
 62
     7
 10
-503.244583910343
 20
118.48716409405
 30
0.0
 11
-503.765528340295
 21
121.441587371257
 31
0.0
  0
LINE
  5
   36B
  8
0
  6
CONTINUOUS
 62
     7
 10
-503.765528340295
 20
121.441587371257
 30
0.0
 11
-504.286472770247
 21
118.48716409405
 31
0.0
  0
LINE
  5
   36C
  8
0
  6
CONTINUOUS
 62
     7
 10
-504.286472770247
 20
125.008548598196
 30
0.0
 11
-503.765528340295
 21
122.054125320989
 31
0.0
  0
LINE
  5
   36D
  8
0
  6
CONTINUOUS
 62
     7
 10
-503.765528340295
 20
122.054125320989
 30
0.0
 11
-503.244583910343
 21
125.008548598196
 31
0.0
  0
ENDBLK
  5
   36E
  8
0
  6
CONTINUOUS
 62
     7
  0
ENDSEC
  0
SECTION
  2
ENTITIES
  0
LINE
  5
   36F
  8
0
  6
DASHDOT
 62
     7
 10
-362.249938964844
 20
18.625818599694
 30
0.0
 11
-362.249938964844
 21
-69.262315174265
 31
0.0
  0
LINE
  5
   370
  8
0
  6
CONTINUOUS
 62
     7
 10
-394.187438964844
 20
15.7296080321079
 30
0.0
 11
-394.187438964844
 21
-65.6897888183594
 31
0.0
  0
LINE
  5
   371
  8
0
  6
CONTINUOUS
 62
     7
 10
-341.562438964844
 20
15.7296080321079
 30
0.0
 11
-341.562438964844
 21
-65.6897888183594
 31
0.0
  0
LINE
  5
   372
  8
0
  6
CONTINUOUS
 62
     7
 10
-338.383162480497
 20
-65.6897888183594
 30
0.0
 11
-394.187438964844
 21
-65.6897888183594
 31
0.0
  0
LINE
  5
   373
  8
0
  6
DASHDOT
 62
     7
 10
-344.556958918126
 20
-7.06478881835938
 30
0.0
 11
-379.6211517738
 21
-7.06478881835938
 31
0.0
  0
LINE
  5
   374
  8
0
  6
DASHDOT
 62
     7
 10
-344.556958918126
 20
-40.8147888183594
 30
0.0
 11
-379.672923822285
 21
-40.8147888183594
 31
0.0
  0
LINE
  5
   375
  8
0
  6
DASHDOT
 62
     7
 10
-387.874938964844
 20
-3.31470211952505
 30
0.0
 11
-387.874938964844
 21
-44.7754842815427
 31
0.0
  0
LINE
  5
   376
  8
0
  6
DASHDOT
 62
     7
 10
-347.874938964844
 20
-4.08265417205774
 30
0.0
 11
-347.874938964844
 21
-45.6038370573083
 31
0.0
  0
CIRCLE
  5
   377
  8
0
  6
CONTINUOUS
 62
     7
 10
-387.874938964844
 20
-7.06478881835938
 30
0.0
 40
0.75
  0
CIRCLE
  5
   378
  8
0
  6
CONTINUOUS
 62
     7
 10
-347.874938964844
 20
-7.06478881835938
 30
0.0
 40
0.75
  0
CIRCLE
  5
   379
  8
0
  6
CONTINUOUS
 62
     7
 10
-387.874938964844
 20
-40.8147888183594
 30
0.0
 40
0.75
  0
CIRCLE
  5
   37A
  8
0
  6
CONTINUOUS
 62
     7
 10
-347.874938964844
 20
-40.8147888183594
 30
0.0
 40
0.75
  0
LINE
  5
   37B
  8
0
  6
CONTINUOUS
 62
     7
 10
-339.69136209216
 20
15.7296080321079
 30
0.0
 11
-394.187438964844
 21
15.7296080321079
 31
0.0
  0
LINE
  5
   37C
  8
0
  6
DASHDOT
 62
     7
 10
-335.806708271655
 20
-23.5022888183594
 30
0.0
 11
-401.892410902533
 21
-23.5022888183594
 31
0.0
  0
TEXT
  5
   37D
  8
0
  6
CONTINUOUS
 62
     1
 10
-455.522125475568
 20
-157.008383243569
 30
0.0
 40
2.00000008940697
  1
M 4329 96-09-24
 50
359.999999896069
 41
0.749999861419206
 72
     1
 11
-444.42212703242
 21
-156.008383218944
 31
0.0
 73
     2
  0
LINE
  5
   37E
  8
0
  6
CONTINUOUS
 62
     7
 10
-345.249938964844
 20
-45.1897888183594
 30
0.0
 11
-390.249938964844
 21
-45.1897888183594
 31
0.0
  0
LINE
  5
   37F
  8
0
  6
CONTINUOUS
 62
     7
 10
-391.249938964844
 20
-46.1897888183594
 30
0.0
 11
-391.249938964844
 21
-60.4397888183594
 31
0.0
  0
LINE
  5
   380
  8
0
  6
CONTINUOUS
 62
     7
 10
-344.249938964844
 20
-46.1897888183594
 30
0.0
 11
-344.249938964844
 21
-60.4397888183594
 31
0.0
  0
ARC
  5
   381
  8
0
  6
CONTINUOUS
 62
     7
 10
-345.249938964844
 20
-46.1897888183594
 30
0.0
 40
1.0
 50
359.999999896069
 51
449.999999896069
  0
ARC
  5
   382
  8
0
  6
CONTINUOUS
 62
     7
 10
-390.249938964844
 20
-46.1897888183594
 30
0.0
 40
1.0
 50
449.999999896069
 51
539.999999896069
  0
LINE
  5
   383
  8
0
  6
CONTINUOUS
 62
     7
 10
-345.249938964844
 20
-2.68978881835938
 30
0.0
 11
-390.249938964844
 21
-2.68978881835938
 31
0.0
  0
LINE
  5
   384
  8
0
  6
CONTINUOUS
 62
     7
 10
-345.249938964844
 20
13.5602111816406
 30
0.0
 11
-390.249938964844
 21
13.5602111816406
 31
0.0
  0
LINE
  5
   385
  8
0
  6
CONTINUOUS
 62
     7
 10
-344.249938964844
 20
12.5602111816406
 30
0.0
 11
-344.249938964844
 21
-1.68978881835938
 31
0.0
  0
LINE
  5
   386
  8
0
  6
CONTINUOUS
 62
     7
 10
-391.249938964844
 20
12.5602111816406
 30
0.0
 11
-391.249938964844
 21
-1.68978881835938
 31
0.0
  0
ARC
  5
   387
  8
0
  6
CONTINUOUS
 62
     7
 10
-390.249938964844
 20
12.5602111816406
 30
0.0
 40
1.0
 50
449.999999896069
 51
539.999999896069
  0
ARC
  5
   388
  8
0
  6
CONTINUOUS
 62
     7
 10
-390.249938964844
 20
-1.68978881835938
 30
0.0
 40
1.0
 50
179.999999896069
 51
269.999999896069
  0
ARC
  5
   389
  8
0
  6
CONTINUOUS
 62
     7
 10
-345.249938964844
 20
-1.68978881835938
 30
0.0
 40
1.0
 50
269.999999896069
 51
359.999999896069
  0
ARC
  5
   38A
  8
0
  6
CONTINUOUS
 62
     7
 10
-345.249938964844
 20
12.5602111816406
 30
0.0
 40
1.0
 50
359.999999896069
 51
449.999999896069
  0
LINE
  5
   38B
  8
0
  6
CONTINUOUS
 62
     7
 10
-345.249938964844
 20
-61.4397888183594
 30
0.0
 11
-390.249938964844
 21
-61.4397888183594
 31
0.0
  0
ARC
  5
   38C
  8
0
  6
CONTINUOUS
 62
     7
 10
-390.249938964844
 20
-60.4397888183594
 30
0.0
 40
1.0
 50
179.999999896069
 51
269.999999896069
  0
ARC
  5
   38D
  8
0
  6
CONTINUOUS
 62
     7
 10
-345.249938964844
 20
-60.4397888183594
 30
0.0
 40
1.0
 50
269.999999896069
 51
359.999999896069
  0
TEXT
  5
   38E
  8
0
  6
CONTINUOUS
 62
     1
 10
-349.354736330838
 20
-159.127700803629
 30
0.0
 40
3.00000002980232
  1
S5/630 (400A)
 50
359.999999896069
 41
0.916666604744064
 72
     2
 11
-314.154738363357
 21
-159.127700867303
 31
0.0
  0
INSERT
  5
   38F
  8
0
  6
CONTINUOUS
 62
     7
  2
*UDIM508
 10
0.0
 20
0.0
 30
0.0
  0
INSERT
  5
   390
  8
0
  6
CONTINUOUS
 62
     7
  2
*UDIM509
 10
0.0
 20
0.0
 30
0.0
  0
TEXT
  5
   391
  8
0
  6
CONTINUOUS
 62
     1
 10
-360.440429691118
 20
-168.109283592841
 30
0.0
 40
4.00000017881393
  1
601812/961
 50
359.999999896069
 41
0.937499973922969
 72
     2
 11
-323.690429091346
 21
-168.109283659318
 31
0.0
  0
INSERT
  5
   392
  8
0
  6
CONTINUOUS
 62
     7
  2
*UDIM510
 10
0.0
 20
0.0
 30
0.0
  0
TEXT
  5
   393
  8
0
  6
CONTINUOUS
 62
     1
 10
-430.682125475568
 20
-157.008383243569
 30
0.0
 40
2.00000008940697
  1
M 4504 98-11-17
 50
359.999999896069
 41
0.749999861419206
 72
     1
 11
-419.58212703242
 21
-156.008383218944
 31
0.0
 73
     2
  0
TEXT
  5
   394
  8
0
  6
CONTINUOUS
 62
     1
 10
-469.410064699075
 20
-150.943063810717
 30
0.0
 40
2.00000008940697
  1
SCARPELLINI
 50
359.999999896069
 41
0.749999861419206
 72
     2
 11
-453.210066975972
 21
-150.943063840021
 31
0.0
  0
INSERT
  5
   395
  8
0
  6
CONTINUOUS
 62
     7
  2
*UDIM511
 10
0.0
 20
0.0
 30
0.0
  0
INSERT
  5
   396
  8
0
  6
CONTINUOUS
 62
     7
  2
*UDIM512
 10
0.0
 20
0.0
 30
0.0
  0
INSERT
  5
   397
  8
0
  6
CONTINUOUS
 62
     7
  2
*UDIM513
 10
0.0
 20
0.0
 30
0.0
  0
INSERT
  5
   398
  8
0
  6
CONTINUOUS
 62
     7
  2
*UDIM514
 10
0.0
 20
0.0
 30
0.0
  0
INSERT
  5
   399
  8
0
  6
CONTINUOUS
 62
     7
  2
*UDIM515
 10
0.0
 20
0.0
 30
0.0
  0
INSERT
  5
   39A
  8
0
  6
CONTINUOUS
 62
     7
  2
*UDIM516
 10
0.0
 20
0.0
 30
0.0
  0
INSERT
  5
   39B
  8
0
  6
CONTINUOUS
 62
     7
  2
*UDIM517
 10
0.0
 20
0.0
 30
0.0
  0
TEXT
  5
   39C
  8
0
  6
CONTINUOUS
 62
     1
 10
-469.410064699075
 20
-142.476318423276
 30
0.0
 40
2.00000008940697
  1
96-11-29 M.COLLEONI
 50
359.999999896069
 41
0.749999861419206
 72
     2
 11
-441.210068656823
 21
-142.476318474288
 31
0.0
  0
INSERT
  5
   39D
  8
0
  6
CONTINUOUS
 62
     5
  2
*UDIM518
 10
0.0
 20
0.0
 30
0.0
  0
INSERT
  5
   39E
  8
0
  6
CONTINUOUS
 62
     7
  2
*UDIM519
 10
0.0
 20
0.0
 30
0.0
  0
INSERT
  5
   39F
  8
0
  6
CONTINUOUS
 62
     7
  2
*UDIM520
 10
0.0
 20
0.0
 30
0.0
  0
TEXT
  5
   3A0
  8
0
  6
CONTINUOUS
 62
     7
 10
-387.833478930326
 20
-21.8861494342456
 30
0.0
 40
3.00000002980232
  1
X
 50
359.999999896069
 41
0.916666604744064
 72
     2
 11
-385.633479061456
 21
-21.8861494382252
 31
0.0
  0
TEXT
  5
   3A1
  8
0
  6
CONTINUOUS
 62
     7
 10
-321.358909609647
 20
-27.2504264394412
 30
0.0
 40
3.00000002980232
  1
X
 50
359.999999896069
 41
0.916666604744064
 72
     2
 11
-319.158909740777
 21
-27.2504264434209
 31
0.0
  0
TEXT
  5
   3A2
  8
0
  6
CONTINUOUS
 62
     7
 10
-360.97775781426
 20
-71.4552955905567
 30
0.0
 40
3.00000002980232
  1
Y
 50
359.999999896069
 41
0.916666604744064
 72
     2
 11
-358.77775794539
 21
-71.4552955945363
 31
0.0
  0
TEXT
  5
   3A3
  8
0
  6
CONTINUOUS
 62
     1
 10
-370.889156054279
 20
-140.817428580931
 30
0.0
 40
2.00000008940697
  1
4POLE LOW VOLTAGE M.C.C.B SERIES ISOMAX
 50
359.999999896069
 41
0.749999861419206
 72
     1
 11
-341.789160132408
 21
-139.817428588867
 31
0.0
 73
     2
  0
TEXT
  5
   3A4
  8
0
  6
CONTINUOUS
 62
     1
 10
-368.639156369439
 20
-143.817428585001
 30
0.0
 40
2.00000008940697
  1
WITHDRAWABLE VERSION FRONT TERMINALS
 50
359.999999896069
 41
0.749999861419206
 72
     1
 11
-341.789160132408
 21
-142.817428588867
 31
0.0
 73
     2
  0
TEXT
  5
   3A5
  8
0
  6
CONTINUOUS
 62
     1
 10
-367.686764421633
 20
-148.887695316774
 30
0.0
 40
2.00000008940697
  1
INTERR.AUTOMATICO SERIE ISOMAX
 50
359.999999896069
 41
0.749999861419206
 72
     1
 11
-345.336767554283
 21
-147.8876953125
 31
0.0
 73
     2
  0
TEXT
  5
   3A6
  8
0
  6
CONTINUOUS
 62
     1
 10
-378.936762845835
 20
-151.887695296424
 30
0.0
 40
2.00000008940697
  1
TETRAP.ESECUZIONE ESTRAIBILE TERMIN.ANTERIORI
 50
359.999999896069
 41
0.749999861419206
 72
     1
 11
-345.336767554283
 21
-150.8876953125
 31
0.0
 73
     2
  0
LINE
  5
   3A7
  8
0
  6
CONTINUOUS
 62
     7
 10
-337.749926595092
 20
156.966602824479
 30
0.0
 11
-337.749926595092
 21
166.241597346813
 31
0.0
  0
LINE
  5
   3A8
  8
0
  6
CONTINUOUS
 62
     7
 10
-402.062420160754
 20
157.491620139855
 30
0.0
 11
-402.062420160754
 21
166.241597346813
 31
0.0
  0
LINE
  5
   3A9
  8
0
  6
CONTINUOUS
 62
     7
 10
-402.062436524477
 20
76.6416334796
 30
0.0
 11
-402.062436524477
 21
98.5166211233312
 31
0.0
  0
LINE
  5
   3AA
  8
0
  6
CONTINUOUS
 62
     1
 10
-402.062436661415
 20
98.5166211233313
 30
0.0
 11
-402.062436661415
 21
103.85411571272
 31
0.0
  0
LINE
  5
   3AB
  8
0
  6
CONTINUOUS
 62
     1
 10
-402.062436661415
 20
140.604115086871
 30
0.0
 11
-402.062436661415
 21
157.491620139855
 31
0.0
  0
LINE
  5
   3AC
  8
0
  6
CONTINUOUS
 62
     1
 10
-402.062436661415
 20
103.854121053296
 30
0.0
 11
-402.062436661415
 21
140.604120427447
 31
0.0
  0
LINE
  5
   3AD
  8
0
  6
DASHDOT
 62
     3
 10
-362.249937339418
 20
62.0620448251634
 30
0.0
 11
-362.249937339418
 21
132.974962058062
 31
0.0
  0
LINE
  5
   3AE
  8
0
  6
DASHDOT
 62
     3
 10
-362.249937339418
 20
132.704505613286
 30
0.0
 11
-362.249937339418
 21
190.084916991014
 31
0.0
  0
LINE
  5
   3AF
  8
0
  6
CONTINUOUS
 62
     7
 10
-389.724937539094
 20
97.8166331189919
 30
0.0
 11
-402.062436524477
 21
97.8166331189919
 31
0.0
  0
LINE
  5
   3B0
  8
0
  6
CONTINUOUS
 62
     1
 10
-395.499936773174
 20
103.85411571272
 30
0.0
 11
-402.062436661415
 21
103.85411571272
 31
0.0
  0
LINE
  5
   3B1
  8
0
  6
CONTINUOUS
 62
     2
 10
-338.274926586151
 20
166.766597337872
 30
0.0
 11
-401.537420169694
 21
166.766597337872
 31
0.0
  0
LINE
  5
   3B2
  8
0
  6
CONTINUOUS
 62
     2
 10
-400.548674866053
 20
98.5166211233312
 30
0.0
 11
-400.548674866053
 21
166.766597337872
 31
0.0
  0
LINE
  5
   3B3
  8
0
  6
CONTINUOUS
 62
     2
 10
-399.288678091856
 20
98.5166211233312
 30
0.0
 11
-399.288678091856
 21
166.766597337872
 31
0.0
  0
LINE
  5
   3B4
  8
0
  6
CONTINUOUS
 62
     2
 10
-398.028675977083
 20
98.5166211233312
 30
0.0
 11
-398.028675977083
 21
166.766597337872
 31
0.0
  0
LINE
  5
   3B5
  8
0
  6
CONTINUOUS
 62
     2
 10
-396.76867386231
 20
98.5166211233312
 30
0.0
 11
-396.76867386231
 21
166.766597337872
 31
0.0
  0
LINE
  5
   3B6
  8
0
  6
CONTINUOUS
 62
     2
 10
-395.508677088114
 20
98.5166211233312
 30
0.0
 11
-395.508677088114
 21
166.766597337872
 31
0.0
  0
LINE
  5
   3B7
  8
0
  6
CONTINUOUS
 62
     2
 10
-394.248674973341
 20
98.5166211233312
 30
0.0
 11
-394.248674973341
 21
166.766597337872
 31
0.0
  0
LINE
  5
   3B8
  8
0
  6
CONTINUOUS
 62
     2
 10
-337.749937756651
 20
156.966602824479
 30
0.0
 11
-401.668673778864
 21
156.966602824479
 31
0.0
  0
LINE
  5
   3B9
  8
0
  6
CONTINUOUS
 62
     2
 10
-338.143680201264
 20
86.2666279751121
 30
0.0
 11
-401.66867911944
 21
86.2666279751121
 31
0.0
  0
LINE
  5
   3BA
  8
0
  6
CONTINUOUS
 62
     2
 10
-338.274937610771
 20
76.1166334885407
 30
0.0
 11
-401.537436533417
 21
76.1166334885407
 31
0.0
  0
LINE
  5
   3BB
  8
0
  6
CONTINUOUS
 62
     2
 10
-400.548674866053
 20
76.1166334885407
 30
0.0
 11
-400.548674866053
 21
97.8166331189919
 31
0.0
  0
LINE
  5
   3BC
  8
0
  6
CONTINUOUS
 62
     2
 10
-401.668673780596
 20
85.9166280021482
 30
0.0
 11
-401.668679121171
 21
86.2666279751631
 31
0.0
  0
LINE
  5
   3BD
  8
0
  6
CONTINUOUS
 62
     2
 10
-338.143680201264
 20
85.9166280019332
 30
0.0
 11
-401.668673778864
 21
85.9166280019332
 31
0.0
  0
ARC
  5
   3BE
  8
0
  6
CONTINUOUS
 62
     7
 10
-401.537436533417
 20
76.6416334796
 30
0.0
 40
0.524999991059303
 50
179.999999948034
 51
269.999999948034
  0
LINE
  5
   3BF
  8
0
  6
CONTINUOUS
 62
     5
 10
-343.875485916129
 20
103.854110372146
 30
0.0
 11
-343.875493926993
 21
140.254125773986
 31
0.0
  0
LINE
  5
   3C0
  8
0
  6
CONTINUOUS
 62
     5
 10
-380.625513328304
 20
104.02912238546
 30
0.0
 11
-380.625513328304
 21
136.229105815369
 31
0.0
  0
LINE
  5
   3C1
  8
0
  6
CONTINUOUS
 62
     5
 10
-379.750518683781
 20
104.904101008254
 30
0.0
 11
-379.750518683781
 21
135.179100492674
 31
0.0
  0
LINE
  5
   3C2
  8
0
  6
DOT
 62
   130
 10
-328.474920098186
 20
148.391620294827
 30
0.0
 11
-337.749937756651
 21
148.391620294827
 31
0.0
  0
LINE
  5
   3C3
  8
0
  6
CONTINUOUS
 62
   130
 10
-327.074920268059
 20
99.3916157887163
 30
0.0
 11
-327.074925191403
 21
148.391620294827
 31
0.0
  0
LINE
  5
   3C4
  8
0
  6
CONTINUOUS
 62
   130
 10
-326.724923278093
 20
117.941607461947
 30
0.0
 11
-326.724922944307
 21
124.941607342738
 31
0.0
  0
LINE
  5
   3C5
  8
0
  6
DASHDOT
 62
     3
 10
-322.909766898215
 20
122.054126083931
 30
0.0
 11
-404.423445845101
 21
122.054126083931
 31
0.0
  0
INSERT
  5
   3C6
  8
255
  6
CONTINUOUS
 62
     7
  2
$1MOSTRA
 10
-402.443347242239
 20
97.8821660463583
 30
0.0
 41
0.349999994039536
 42
0.349999994039536
 50
359.999999792138
 43
0.349999994039536
  0
LINE
  5
   3C7
  8
0
  6
CONTINUOUS
 62
     3
 10
-338.624913407434
 20
166.766593399047
 30
0.0
 11
-338.624913407434
 21
168.341593372224
 31
0.0
  0
ARC
  5
   3C8
  8
0
  6
CONTINUOUS
 62
     3
 10
-338.974913401474
 20
168.341593372224
 30
0.0
 40
0.349999994039536
 50
359.999999948034
 51
449.999999948034
  0
LINE
  5
   3C9
  8
0
  6
CONTINUOUS
 62
     3
 10
-338.974913401474
 20
168.691593366264
 30
0.0
 11
-353.718578449048
 21
168.691593366264
 31
0.0
  0
LINE
  5
   3CA
  8
0
  6
CONTINUOUS
 62
     3
 10
-401.187398773625
 20
166.766593399047
 30
0.0
 11
-401.187398773625
 21
168.341593372224
 31
0.0
  0
ARC
  5
   3CB
  8
0
  6
CONTINUOUS
 62
     3
 10
-400.837398779586
 20
168.341593372224
 30
0.0
 40
0.349999994039536
 50
89.9999999480344
 51
179.999999948034
  0
LINE
  5
   3CC
  8
0
  6
CONTINUOUS
 62
     7
 10
-337.749937619712
 20
76.6416334796001
 30
0.0
 11
-337.749937619712
 21
93.8791265637485
 31
0.0
  0
LINE
  5
   3CD
  8
0
  6
CONTINUOUS
 62
     1
 10
-389.724937539094
 20
98.1666211501533
 30
0.0
 11
-402.062436524477
 21
98.1666211501533
 31
0.0
  0
LINE
  5
   3CE
  8
0
  6
DOT
 62
   130
 10
-337.749937756651
 20
93.8791265637485
 30
0.0
 11
-337.749937756651
 21
150.226919946192
 31
0.0
  0
LINE
  5
   3CF
  8
0
  6
CONTINUOUS
 62
     1
 10
-389.724937539094
 20
98.5166211233312
 30
0.0
 11
-402.062436524477
 21
98.5166211233312
 31
0.0
  0
LINE
  5
   3D0
  8
0
  6
CONTINUOUS
 62
     1
 10
-380.747433820062
 20
103.85411571272
 30
0.0
 11
-380.747433820062
 21
140.604115086871
 31
0.0
  0
LINE
  5
   3D1
  8
0
  6
CONTINUOUS
 62
     1
 10
-343.752440858774
 20
103.85411571272
 30
0.0
 11
-343.752440858774
 21
140.604115086871
 31
0.0
  0
LINE
  5
   3D2
  8
0
  6
CONTINUOUS
 62
     1
 10
-380.099937035434
 20
150.226919946192
 30
0.0
 11
-380.099937035434
 21
155.741620169657
 31
0.0
  0
LINE
  5
   3D3
  8
0
  6
CONTINUOUS
 62
     1
 10
-344.399937643402
 20
150.226919946192
 30
0.0
 11
-344.399937643402
 21
155.741620169657
 31
0.0
  0
LINE
  5
   3D4
  8
0
  6
CONTINUOUS
 62
     1
 10
-344.399937643402
 20
155.741620169657
 30
0.0
 11
-380.099937035434
 21
155.741620169657
 31
0.0
  0
LINE
  5
   3D5
  8
0
  6
CONTINUOUS
 62
     3
 10
-358.487437403493
 20
111.641615580099
 30
0.0
 11
-358.487437403493
 21
125.641610001105
 31
0.0
  0
LINE
  5
   3D6
  8
0
  6
CONTINUOUS
 62
     3
 10
-366.012437275343
 20
111.641615580099
 30
0.0
 11
-366.012437275343
 21
125.641610001105
 31
0.0
  0
LINE
  5
   3D7
  8
0
  6
CONTINUOUS
 62
     7
 10
-358.487437403493
 20
114.679370847838
 30
0.0
 11
-366.012437275343
 21
114.679370847838
 31
0.0
  0
LINE
  5
   3D8
  8
0
  6
CONTINUOUS
 62
     7
 10
-358.487437403493
 20
116.410513229937
 30
0.0
 11
-366.012437275343
 21
116.410513229937
 31
0.0
  0
LINE
  5
   3D9
  8
0
  6
CONTINUOUS
 62
     1
 10
-389.724937539094
 20
140.604120427447
 30
0.0
 11
-402.062436661415
 21
140.604120427447
 31
0.0
  0
LINE
  5
   3DA
  8
0
  6
CONTINUOUS
 62
     1
 10
-389.724937539094
 20
103.85411571272
 30
0.0
 11
-394.624936788075
 21
103.85411571272
 31
0.0
  0
LINE
  5
   3DB
  8
0
  6
CONTINUOUS
 62
     1
 10
-395.499936773174
 20
135.879115167337
 30
0.0
 11
-395.499936773174
 21
137.629115137535
 31
0.0
  0
LINE
  5
   3DC
  8
0
  6
CONTINUOUS
 62
     1
 10
-394.624936788075
 20
135.879115167337
 30
0.0
 11
-395.499936773174
 21
135.879115167337
 31
0.0
  0
LINE
  5
   3DD
  8
0
  6
CONTINUOUS
 62
     1
 10
-394.624936788075
 20
135.879115167337
 30
0.0
 11
-394.624936788075
 21
137.629115137535
 31
0.0
  0
LINE
  5
   3DE
  8
0
  6
CONTINUOUS
 62
     1
 10
-394.624936788075
 20
137.629115137535
 30
0.0
 11
-395.499936773174
 21
137.629115137535
 31
0.0
  0
LINE
  5
   3DF
  8
0
  6
CONTINUOUS
 62
     1
 10
-395.499936773174
 20
103.154120731431
 30
0.0
 11
-395.499936773174
 21
106.304115670996
 31
0.0
  0
LINE
  5
   3E0
  8
0
  6
CONTINUOUS
 62
     1
 10
-394.624936788075
 20
103.154120731431
 30
0.0
 11
-395.499936773174
 21
103.154120731431
 31
0.0
  0
LINE
  5
   3E1
  8
0
  6
CONTINUOUS
 62
     1
 10
-394.624936788075
 20
103.154120731431
 30
0.0
 11
-394.624936788075
 21
106.304115670996
 31
0.0
  0
LINE
  5
   3E2
  8
0
  6
CONTINUOUS
 62
     1
 10
-394.624936788075
 20
106.304115670996
 30
0.0
 11
-395.499936773174
 21
106.304115670996
 31
0.0
  0
LINE
  5
   3E3
  8
0
  6
CONTINUOUS
 62
     1
 10
-394.974936782115
 20
135.879115167337
 30
0.0
 11
-394.974936782115
 21
137.629115137535
 31
0.0
  0
LINE
  5
   3E4
  8
0
  6
CONTINUOUS
 62
     1
 10
-394.974931441539
 20
103.154120731431
 30
0.0
 11
-394.974931441539
 21
106.304115670996
 31
0.0
  0
LINE
  5
   3E5
  8
0
  6
DASHDOT
 62
     7
 10
-362.249925178918
 20
69.0816142968124
 30
0.0
 11
-362.249925178918
 21
74.0516269831345
 31
0.0
  0
LINE
  5
   3E6
  8
0
  6
DASHDOT
 62
     7
 10
-362.249925178918
 20
168.831603843278
 30
0.0
 11
-362.249925178918
 21
173.8016165296
 31
0.0
  0
LINE
  5
   3E7
  8
0
  6
CONTINUOUS
 62
     2
 10
-338.143680201264
 20
156.616602851301
 30
0.0
 11
-401.66867911944
 21
156.616602851301
 31
0.0
  0
LINE
  5
   3E8
  8
0
  6
CONTINUOUS
 62
     2
 10
-392.988678199144
 20
98.5166211233313
 30
0.0
 11
-392.988678199144
 21
166.766597337872
 31
0.0
  0
LINE
  5
   3E9
  8
0
  6
CONTINUOUS
 62
     2
 10
-391.728679088446
 20
98.5166211233313
 30
0.0
 11
-391.728679088446
 21
166.766597337872
 31
0.0
  0
LINE
  5
   3EA
  8
0
  6
CONTINUOUS
 62
     2
 10
-390.468678976389
 20
98.5166211233313
 30
0.0
 11
-390.468678976389
 21
166.766597337872
 31
0.0
  0
LINE
  5
   3EB
  8
0
  6
CONTINUOUS
 62
     2
 10
-389.208679198118
 20
150.226919946192
 30
0.0
 11
-389.208679198118
 21
166.766597337872
 31
0.0
  0
LINE
  5
   3EC
  8
0
  6
CONTINUOUS
 62
     2
 10
-387.948679086061
 20
150.226919946192
 30
0.0
 11
-387.948679086061
 21
166.766597337872
 31
0.0
  0
LINE
  5
   3ED
  8
0
  6
CONTINUOUS
 62
     2
 10
-386.688679391237
 20
150.226919946192
 30
0.0
 11
-386.688679391237
 21
166.766597337872
 31
0.0
  0
LINE
  5
   3EE
  8
0
  6
CONTINUOUS
 62
     2
 10
-385.42867952952
 20
150.226919946192
 30
0.0
 11
-385.42867952952
 21
166.766597337872
 31
0.0
  0
LINE
  5
   3EF
  8
0
  6
CONTINUOUS
 62
     2
 10
-384.168679417463
 20
150.226919946192
 30
0.0
 11
-384.168679417463
 21
166.766597337872
 31
0.0
  0
LINE
  5
   3F0
  8
0
  6
CONTINUOUS
 62
     2
 10
-382.908679639192
 20
150.226919946192
 30
0.0
 11
-382.908679639192
 21
166.766597337872
 31
0.0
  0
LINE
  5
   3F1
  8
0
  6
CONTINUOUS
 62
     2
 10
-381.648679527136
 20
150.226919946192
 30
0.0
 11
-381.648679527136
 21
166.766597337872
 31
0.0
  0
LINE
  5
   3F2
  8
0
  6
CONTINUOUS
 62
     2
 10
-380.388683754297
 20
156.966602824479
 30
0.0
 11
-380.388683754297
 21
166.766597337872
 31
0.0
  0
LINE
  5
   3F3
  8
0
  6
CONTINUOUS
 62
     2
 10
-379.128681639524
 20
156.966602824479
 30
0.0
 11
-379.128681639524
 21
166.766597337872
 31
0.0
  0
LINE
  5
   3F4
  8
0
  6
CONTINUOUS
 62
     2
 10
-377.868679524751
 20
156.966602824479
 30
0.0
 11
-377.868679524751
 21
166.766597337872
 31
0.0
  0
LINE
  5
   3F5
  8
0
  6
CONTINUOUS
 62
     2
 10
-376.608682750555
 20
156.966602824479
 30
0.0
 11
-376.608682750555
 21
166.766597337872
 31
0.0
  0
LINE
  5
   3F6
  8
0
  6
CONTINUOUS
 62
     2
 10
-375.348680635782
 20
156.966602824479
 30
0.0
 11
-375.348680635782
 21
166.766597337872
 31
0.0
  0
LINE
  5
   3F7
  8
0
  6
CONTINUOUS
 62
     2
 10
-374.088683861585
 20
156.966602824479
 30
0.0
 11
-374.088683861585
 21
166.766597337872
 31
0.0
  0
LINE
  5
   3F8
  8
0
  6
CONTINUOUS
 62
     2
 10
-372.828681746813
 20
156.966602824479
 30
0.0
 11
-372.828681746813
 21
166.766597337872
 31
0.0
  0
LINE
  5
   3F9
  8
0
  6
CONTINUOUS
 62
     2
 10
-371.56867963204
 20
156.966602824479
 30
0.0
 11
-371.56867963204
 21
166.766597337872
 31
0.0
  0
LINE
  5
   3FA
  8
0
  6
CONTINUOUS
 62
     2
 10
-370.308682857843
 20
156.966602824479
 30
0.0
 11
-370.308682857843
 21
166.766597337872
 31
0.0
  0
LINE
  5
   3FB
  8
0
  6
CONTINUOUS
 62
     2
 10
-369.04868074307
 20
156.966602824479
 30
0.0
 11
-369.04868074307
 21
166.766597337872
 31
0.0
  0
LINE
  5
   3FC
  8
0
  6
CONTINUOUS
 62
     2
 10
-367.788683968874
 20
156.966602824479
 30
0.0
 11
-367.788683968874
 21
166.766597337872
 31
0.0
  0
LINE
  5
   3FD
  8
0
  6
CONTINUOUS
 62
     2
 10
-366.528681854101
 20
156.966602824479
 30
0.0
 11
-366.528681854101
 21
166.766597337872
 31
0.0
  0
LINE
  5
   3FE
  8
0
  6
CONTINUOUS
 62
     2
 10
-365.268679739328
 20
156.966602824479
 30
0.0
 11
-365.268679739328
 21
166.766597337872
 31
0.0
  0
LINE
  5
   3FF
  8
0
  6
CONTINUOUS
 62
     2
 10
-364.008682965131
 20
156.966602824479
 30
0.0
 11
-364.008682965131
 21
166.766597337872
 31
0.0
  0
LINE
  5
   400
  8
0
  6
CONTINUOUS
 62
     2
 10
-362.748680850359
 20
156.966602824479
 30
0.0
 11
-362.748680850359
 21
166.766597337872
 31
0.0
  0
LINE
  5
   401
  8
0
  6
CONTINUOUS
 62
     2
 10
-361.488684076162
 20
156.966602824479
 30
0.0
 11
-361.488684076162
 21
166.766597337872
 31
0.0
  0
LINE
  5
   402
  8
0
  6
CONTINUOUS
 62
     2
 10
-360.228681961389
 20
156.966602824479
 30
0.0
 11
-360.228681961389
 21
166.766597337872
 31
0.0
  0
LINE
  5
   403
  8
0
  6
CONTINUOUS
 62
     2
 10
-358.968679846617
 20
156.966602824479
 30
0.0
 11
-358.968679846617
 21
166.766597337872
 31
0.0
  0
LINE
  5
   404
  8
0
  6
CONTINUOUS
 62
     2
 10
-357.70868307242
 20
156.966602824479
 30
0.0
 11
-357.70868307242
 21
166.766597337872
 31
0.0
  0
LINE
  5
   405
  8
0
  6
CONTINUOUS
 62
     2
 10
-356.448680957647
 20
156.966602824479
 30
0.0
 11
-356.448680957647
 21
166.766597337872
 31
0.0
  0
LINE
  5
   406
  8
0
  6
CONTINUOUS
 62
     2
 10
-355.18868418345
 20
156.966602824479
 30
0.0
 11
-355.18868418345
 21
166.766597337872
 31
0.0
  0
LINE
  5
   407
  8
0
  6
CONTINUOUS
 62
     2
 10
-353.928682068678
 20
156.966602824479
 30
0.0
 11
-353.928682068678
 21
166.766597337872
 31
0.0
  0
LINE
  5
   408
  8
0
  6
CONTINUOUS
 62
     2
 10
-352.668679953905
 20
156.966602824479
 30
0.0
 11
-352.668679953905
 21
166.766597337872
 31
0.0
  0
LINE
  5
   409
  8
0
  6
CONTINUOUS
 62
     2
 10
-351.408683179708
 20
156.966602824479
 30
0.0
 11
-351.408683179708
 21
166.766597337872
 31
0.0
  0
LINE
  5
   40A
  8
0
  6
CONTINUOUS
 62
     2
 10
-350.148681064935
 20
156.966602824479
 30
0.0
 11
-350.148681064935
 21
166.766597337872
 31
0.0
  0
LINE
  5
   40B
  8
0
  6
CONTINUOUS
 62
     2
 10
-348.888684290739
 20
156.966602824479
 30
0.0
 11
-348.888684290739
 21
166.766597337872
 31
0.0
  0
LINE
  5
   40C
  8
0
  6
CONTINUOUS
 62
     2
 10
-347.628682175966
 20
156.966602824479
 30
0.0
 11
-347.628682175966
 21
166.766597337872
 31
0.0
  0
LINE
  5
   40D
  8
0
  6
CONTINUOUS
 62
     2
 10
-346.368680061193
 20
156.966602824479
 30
0.0
 11
-346.368680061193
 21
166.766597337872
 31
0.0
  0
LINE
  5
   40E
  8
0
  6
CONTINUOUS
 62
     2
 10
-345.108683286997
 20
156.966602824479
 30
0.0
 11
-345.108683286997
 21
166.766597337872
 31
0.0
  0
LINE
  5
   40F
  8
0
  6
CONTINUOUS
 62
     2
 10
-342.588684398027
 20
150.226919946192
 30
0.0
 11
-342.588684398027
 21
166.766597337872
 31
0.0
  0
LINE
  5
   410
  8
0
  6
CONTINUOUS
 62
     2
 10
-341.328682283254
 20
150.226919946192
 30
0.0
 11
-341.328682283254
 21
166.766597337872
 31
0.0
  0
LINE
  5
   411
  8
0
  6
CONTINUOUS
 62
     2
 10
-340.068680168482
 20
150.226919946192
 30
0.0
 11
-340.068680168482
 21
166.766597337872
 31
0.0
  0
LINE
  5
   412
  8
0
  6
CONTINUOUS
 62
     2
 10
-338.808683394285
 20
150.226919946192
 30
0.0
 11
-338.808683394285
 21
166.766597337872
 31
0.0
  0
LINE
  5
   413
  8
0
  6
CONTINUOUS
 62
     2
 10
-401.668673778864
 20
156.966602824479
 30
0.0
 11
-402.062436661415
 21
156.966602824479
 31
0.0
  0
LINE
  5
   414
  8
0
  6
CONTINUOUS
 62
     2
 10
-401.668679121171
 20
156.616602850679
 30
0.0
 11
-401.668673780596
 21
156.966602823836
 31
0.0
  0
LINE
  5
   415
  8
0
  6
CONTINUOUS
 62
     2
 10
-337.793680207225
 20
156.966602824479
 30
0.0
 11
-338.143680201264
 21
156.966602824479
 31
0.0
  0
LINE
  5
   416
  8
0
  6
CONTINUOUS
 62
     2
 10
-338.143680201264
 20
156.616602851302
 30
0.0
 11
-338.143680201264
 21
156.966602824479
 31
0.0
  0
LINE
  5
   417
  8
0
  6
CONTINUOUS
 62
     2
 10
-399.288678091856
 20
76.1166334885408
 30
0.0
 11
-399.288678091856
 21
97.8166331189919
 31
0.0
  0
LINE
  5
   418
  8
0
  6
CONTINUOUS
 62
     2
 10
-398.028675977083
 20
76.1166334885408
 30
0.0
 11
-398.028675977083
 21
97.8166331189919
 31
0.0
  0
LINE
  5
   419
  8
0
  6
CONTINUOUS
 62
     2
 10
-396.76867386231
 20
76.1166334885408
 30
0.0
 11
-396.76867386231
 21
97.8166331189919
 31
0.0
  0
LINE
  5
   41A
  8
0
  6
CONTINUOUS
 62
     2
 10
-395.508677088114
 20
76.1166334885408
 30
0.0
 11
-395.508677088114
 21
97.8166331189919
 31
0.0
  0
LINE
  5
   41B
  8
0
  6
CONTINUOUS
 62
     2
 10
-394.248674973341
 20
76.1166334885408
 30
0.0
 11
-394.248674973341
 21
97.8166331189919
 31
0.0
  0
LINE
  5
   41C
  8
0
  6
CONTINUOUS
 62
     2
 10
-392.988678199144
 20
76.1166334885408
 30
0.0
 11
-392.988678199144
 21
97.8166331189919
 31
0.0
  0
LINE
  5
   41D
  8
0
  6
CONTINUOUS
 62
     2
 10
-391.728679088445
 20
76.1166334885408
 30
0.0
 11
-391.728679088445
 21
97.8166331189919
 31
0.0
  0
LINE
  5
   41E
  8
0
  6
CONTINUOUS
 62
     2
 10
-390.468678976389
 20
76.1166334885408
 30
0.0
 11
-390.468678976389
 21
97.8166331189919
 31
0.0
  0
LINE
  5
   41F
  8
0
  6
CONTINUOUS
 62
     2
 10
-389.208679198118
 20
76.1166334885408
 30
0.0
 11
-389.208679198118
 21
93.8791265637485
 31
0.0
  0
LINE
  5
   420
  8
0
  6
CONTINUOUS
 62
     2
 10
-387.948679086061
 20
76.1166334885408
 30
0.0
 11
-387.948679086061
 21
93.8791265637485
 31
0.0
  0
LINE
  5
   421
  8
0
  6
CONTINUOUS
 62
     2
 10
-386.688679391237
 20
76.1166334885408
 30
0.0
 11
-386.688679391237
 21
93.8791265637485
 31
0.0
  0
LINE
  5
   422
  8
0
  6
CONTINUOUS
 62
     2
 10
-385.42867952952
 20
76.1166334885408
 30
0.0
 11
-385.42867952952
 21
93.8791265637485
 31
0.0
  0
LINE
  5
   423
  8
0
  6
CONTINUOUS
 62
     2
 10
-384.168679417463
 20
76.1166334885408
 30
0.0
 11
-384.168679417463
 21
93.8791265637485
 31
0.0
  0
LINE
  5
   424
  8
0
  6
CONTINUOUS
 62
     2
 10
-382.908679639192
 20
76.1166334885408
 30
0.0
 11
-382.908679639192
 21
93.8791265637485
 31
0.0
  0
LINE
  5
   425
  8
0
  6
CONTINUOUS
 62
     2
 10
-381.648679527136
 20
76.1166334885408
 30
0.0
 11
-381.648679527136
 21
93.8791265637485
 31
0.0
  0
LINE
  5
   426
  8
0
  6
CONTINUOUS
 62
     2
 10
-380.388683754297
 20
76.1166334885408
 30
0.0
 11
-380.388683754297
 21
85.9166280019333
 31
0.0
  0
LINE
  5
   427
  8
0
  6
CONTINUOUS
 62
     2
 10
-379.128681639524
 20
76.1166334885408
 30
0.0
 11
-379.128681639524
 21
85.9166280019333
 31
0.0
  0
LINE
  5
   428
  8
0
  6
CONTINUOUS
 62
     2
 10
-377.868679524751
 20
76.1166334885407
 30
0.0
 11
-377.868679524751
 21
85.9166280019333
 31
0.0
  0
LINE
  5
   429
  8
0
  6
CONTINUOUS
 62
     2
 10
-376.608682750555
 20
76.1166334885408
 30
0.0
 11
-376.608682750555
 21
85.9166280019333
 31
0.0
  0
LINE
  5
   42A
  8
0
  6
CONTINUOUS
 62
     2
 10
-375.348680635782
 20
76.1166334885408
 30
0.0
 11
-375.348680635782
 21
85.9166280019333
 31
0.0
  0
LINE
  5
   42B
  8
0
  6
CONTINUOUS
 62
     2
 10
-374.088683861585
 20
76.1166334885408
 30
0.0
 11
-374.088683861585
 21
85.9166280019333
 31
0.0
  0
LINE
  5
   42C
  8
0
  6
CONTINUOUS
 62
     2
 10
-372.828681746812
 20
76.1166334885408
 30
0.0
 11
-372.828681746812
 21
85.9166280019333
 31
0.0
  0
LINE
  5
   42D
  8
0
  6
CONTINUOUS
 62
     2
 10
-371.56867963204
 20
76.1166334885407
 30
0.0
 11
-371.56867963204
 21
85.9166280019333
 31
0.0
  0
LINE
  5
   42E
  8
0
  6
CONTINUOUS
 62
     2
 10
-370.308682857843
 20
76.1166334885408
 30
0.0
 11
-370.308682857843
 21
85.9166280019333
 31
0.0
  0
LINE
  5
   42F
  8
0
  6
CONTINUOUS
 62
     2
 10
-369.04868074307
 20
76.1166334885408
 30
0.0
 11
-369.04868074307
 21
85.9166280019333
 31
0.0
  0
LINE
  5
   430
  8
0
  6
CONTINUOUS
 62
     2
 10
-367.788683968874
 20
76.1166334885408
 30
0.0
 11
-367.788683968874
 21
85.9166280019333
 31
0.0
  0
LINE
  5
   431
  8
0
  6
CONTINUOUS
 62
     2
 10
-366.528681854101
 20
76.1166334885408
 30
0.0
 11
-366.528681854101
 21
85.9166280019333
 31
0.0
  0
LINE
  5
   432
  8
0
  6
CONTINUOUS
 62
     2
 10
-365.268679739328
 20
76.1166334885407
 30
0.0
 11
-365.268679739328
 21
85.9166280019333
 31
0.0
  0
LINE
  5
   433
  8
0
  6
CONTINUOUS
 62
     2
 10
-364.008682965131
 20
76.1166334885408
 30
0.0
 11
-364.008682965131
 21
85.9166280019333
 31
0.0
  0
LINE
  5
   434
  8
0
  6
CONTINUOUS
 62
     2
 10
-362.748680850359
 20
76.1166334885408
 30
0.0
 11
-362.748680850359
 21
85.9166280019333
 31
0.0
  0
LINE
  5
   435
  8
0
  6
CONTINUOUS
 62
     2
 10
-361.488684076162
 20
76.1166334885408
 30
0.0
 11
-361.488684076162
 21
85.9166280019333
 31
0.0
  0
LINE
  5
   436
  8
0
  6
CONTINUOUS
 62
     2
 10
-360.228681961389
 20
76.1166334885408
 30
0.0
 11
-360.228681961389
 21
85.9166280019333
 31
0.0
  0
LINE
  5
   437
  8
0
  6
CONTINUOUS
 62
     2
 10
-358.968679846616
 20
76.1166334885408
 30
0.0
 11
-358.968679846616
 21
85.9166280019333
 31
0.0
  0
LINE
  5
   438
  8
0
  6
CONTINUOUS
 62
     2
 10
-357.70868307242
 20
76.1166334885407
 30
0.0
 11
-357.70868307242
 21
85.9166280019333
 31
0.0
  0
LINE
  5
   439
  8
0
  6
CONTINUOUS
 62
     2
 10
-356.448680957647
 20
76.1166334885407
 30
0.0
 11
-356.448680957647
 21
85.9166280019333
 31
0.0
  0
LINE
  5
   43A
  8
0
  6
CONTINUOUS
 62
     2
 10
-355.18868418345
 20
76.1166334885407
 30
0.0
 11
-355.18868418345
 21
85.9166280019333
 31
0.0
  0
LINE
  5
   43B
  8
0
  6
CONTINUOUS
 62
     2
 10
-353.928682068678
 20
76.1166334885407
 30
0.0
 11
-353.928682068678
 21
85.9166280019333
 31
0.0
  0
LINE
  5
   43C
  8
0
  6
CONTINUOUS
 62
     2
 10
-352.668679953905
 20
76.1166334885407
 30
0.0
 11
-352.668679953905
 21
85.9166280019333
 31
0.0
  0
LINE
  5
   43D
  8
0
  6
CONTINUOUS
 62
     2
 10
-351.408683179708
 20
76.1166334885407
 30
0.0
 11
-351.408683179708
 21
85.9166280019333
 31
0.0
  0
LINE
  5
   43E
  8
0
  6
CONTINUOUS
 62
     2
 10
-350.148681064935
 20
76.1166334885407
 30
0.0
 11
-350.148681064935
 21
85.9166280019333
 31
0.0
  0
LINE
  5
   43F
  8
0
  6
CONTINUOUS
 62
     2
 10
-348.888684290739
 20
76.1166334885407
 30
0.0
 11
-348.888684290739
 21
85.9166280019333
 31
0.0
  0
LINE
  5
   440
  8
0
  6
CONTINUOUS
 62
     2
 10
-347.628682175966
 20
76.1166334885407
 30
0.0
 11
-347.628682175966
 21
85.9166280019333
 31
0.0
  0
LINE
  5
   441
  8
0
  6
CONTINUOUS
 62
     2
 10
-346.368680061193
 20
76.1166334885407
 30
0.0
 11
-346.368680061193
 21
85.9166280019333
 31
0.0
  0
LINE
  5
   442
  8
0
  6
CONTINUOUS
 62
     2
 10
-345.108683286997
 20
76.1166334885407
 30
0.0
 11
-345.108683286997
 21
85.9166280019333
 31
0.0
  0
LINE
  5
   443
  8
0
  6
CONTINUOUS
 62
     2
 10
-343.848681172224
 20
76.1166334885407
 30
0.0
 11
-343.848681172224
 21
93.8791265637485
 31
0.0
  0
LINE
  5
   444
  8
0
  6
CONTINUOUS
 62
     2
 10
-342.588684398027
 20
76.1166334885407
 30
0.0
 11
-342.588684398027
 21
93.8791265637485
 31
0.0
  0
LINE
  5
   445
  8
0
  6
CONTINUOUS
 62
     2
 10
-341.328682283254
 20
76.1166334885407
 30
0.0
 11
-341.328682283254
 21
93.8791265637485
 31
0.0
  0
LINE
  5
   446
  8
0
  6
CONTINUOUS
 62
     2
 10
-340.068680168482
 20
76.1166334885407
 30
0.0
 11
-340.068680168482
 21
93.8791265637485
 31
0.0
  0
LINE
  5
   447
  8
0
  6
CONTINUOUS
 62
     2
 10
-338.808683394285
 20
76.1166334885407
 30
0.0
 11
-338.808683394285
 21
93.8791265637485
 31
0.0
  0
LINE
  5
   448
  8
0
  6
CONTINUOUS
 62
     2
 10
-401.668673778864
 20
85.9166280019332
 30
0.0
 11
-402.018673772903
 21
85.9166280019332
 31
0.0
  0
LINE
  5
   449
  8
0
  6
CONTINUOUS
 62
     2
 10
-337.793680207225
 20
85.9166280019332
 30
0.0
 11
-338.143680201264
 21
85.9166280019332
 31
0.0
  0
LINE
  5
   44A
  8
0
  6
CONTINUOUS
 62
     2
 10
-338.143680201264
 20
85.9166280019333
 30
0.0
 11
-338.143680201264
 21
86.2666279751113
 31
0.0
  0
ARC
  5
   44B
  8
0
  6
CONTINUOUS
 62
     7
 10
-401.537420169694
 20
166.241597346813
 30
0.0
 40
0.524999991059303
 50
89.9999999480344
 51
179.999999948034
  0
ARC
  5
   44C
  8
0
  6
CONTINUOUS
 62
     7
 10
-338.274926586151
 20
166.241597346813
 30
0.0
 40
0.524999991059303
 50
359.999999948034
 51
449.999999948034
  0
ARC
  5
   44D
  8
0
  6
CONTINUOUS
 62
     7
 10
-338.274937610771
 20
76.6416334796
 30
0.0
 40
0.524999991059303
 50
269.999999948034
 51
359.999999948034
  0
LINE
  5
   44E
  8
0
  6
CONTINUOUS
 62
     5
 10
-380.574259201371
 20
140.377875121739
 30
0.0
 11
-380.450512710791
 21
140.429139312346
 31
0.0
  0
LINE
  5
   44F
  8
0
  6
CONTINUOUS
 62
     5
 10
-380.625507683437
 20
140.254125116602
 30
0.0
 11
-380.574254174896
 21
140.377871607467
 31
0.0
  0
LINE
  5
   450
  8
0
  6
CONTINUOUS
 62
     5
 10
-380.625513328304
 20
103.854111707288
 30
0.0
 11
-380.625513328304
 21
104.02912238546
 31
0.0
  0
LINE
  5
   451
  8
0
  6
CONTINUOUS
 62
     5
 10
-380.625507987728
 20
136.229099139649
 30
0.0
 11
-380.625507987728
 21
140.254125773984
 31
0.0
  0
LINE
  5
   452
  8
0
  6
CONTINUOUS
 62
     5
 10
-380.574256174194
 20
103.730369299858
 30
0.0
 11
-380.625515023685
 21
103.854113120323
 31
0.0
  0
LINE
  5
   453
  8
0
  6
CONTINUOUS
 62
     5
 10
-380.450514952481
 20
103.679131586765
 30
0.0
 11
-380.497885862486
 21
103.698746187846
 31
0.0
  0
LINE
  5
   454
  8
0
  6
CONTINUOUS
 62
     5
 10
-380.49788691193
 20
103.698746606822
 30
0.0
 11
-380.574251811148
 21
103.730366821893
 31
0.0
  0
LINE
  5
   455
  8
0
  6
CONTINUOUS
 62
     5
 10
-344.050489918589
 20
103.679095806311
 30
0.0
 11
-354.725492407083
 21
103.679095806311
 31
0.0
  0
LINE
  5
   456
  8
0
  6
CONTINUOUS
 62
     5
 10
-380.275507993688
 20
103.679133072572
 30
0.0
 11
-380.45051867186
 21
103.679133072572
 31
0.0
  0
LINE
  5
   457
  8
0
  6
CONTINUOUS
 62
     5
 10
-344.050490190962
 20
103.679107922882
 30
0.0
 11
-343.926746371676
 21
103.73036543514
 31
0.0
  0
LINE
  5
   458
  8
0
  6
CONTINUOUS
 62
     5
 10
-343.926746393063
 20
103.730366072873
 30
0.0
 11
-343.875486210323
 21
103.854109894512
 31
0.0
  0
LINE
  5
   459
  8
0
  6
CONTINUOUS
 62
     5
 10
-343.875494821824
 20
140.254128377363
 30
0.0
 11
-343.926763016352
 21
140.377874863408
 31
0.0
  0
LINE
  5
   45A
  8
0
  6
CONTINUOUS
 62
     5
 10
-343.926760437616
 20
140.377869846893
 30
0.0
 11
-344.050502916611
 21
140.429123355504
 31
0.0
  0
LINE
  5
   45B
  8
0
  6
CONTINUOUS
 62
     5
 10
-344.050503270025
 20
140.42912111837
 30
0.0
 11
-380.450507990713
 21
140.42912111837
 31
0.0
  0
LINE
  5
   45C
  8
0
  6
CONTINUOUS
 62
     2
 10
-353.430512189259
 20
107.329800010219
 30
0.0
 11
-353.430512189259
 21
110.178377842567
 31
0.0
  0
LINE
  5
   45D
  8
0
  6
CONTINUOUS
 62
     2
 10
-352.941257041804
 20
106.767440300054
 30
0.0
 11
-353.430509878482
 21
107.329797627287
 31
0.0
  0
LINE
  5
   45E
  8
0
  6
CONTINUOUS
 62
     2
 10
-352.313624504226
 20
106.365258102898
 30
0.0
 11
-352.941257035318
 21
106.767440869047
 31
0.0
  0
LINE
  5
   45F
  8
0
  6
CONTINUOUS
 62
     2
 10
-351.598248174665
 20
106.155716794392
 30
0.0
 11
-352.313626331289
 21
106.365259634472
 31
0.0
  0
LINE
  5
   460
  8
0
  6
CONTINUOUS
 62
     2
 10
-350.852813716311
 20
106.155717083436
 30
0.0
 11
-351.598248655399
 21
106.155717083436
 31
0.0
  0
LINE
  5
   461
  8
0
  6
CONTINUOUS
 62
     2
 10
-350.85281657592
 20
106.155718552124
 30
0.0
 11
-350.137437050177
 21
106.365258733765
 31
0.0
  0
LINE
  5
   462
  8
0
  6
CONTINUOUS
 62
     2
 10
-350.137433055189
 20
106.365256337545
 30
0.0
 11
-349.509800524097
 21
106.767439103695
 31
0.0
  0
LINE
  5
   463
  8
0
  6
CONTINUOUS
 62
     2
 10
-349.509801529172
 20
106.767439797085
 30
0.0
 11
-349.020528671183
 21
107.329831841546
 31
0.0
  0
LINE
  5
   464
  8
0
  6
CONTINUOUS
 62
     2
 10
-349.020528820476
 20
107.329832055982
 30
0.0
 11
-349.020512798749
 21
110.178393866315
 31
0.0
  0
LINE
  5
   465
  8
0
  6
CONTINUOUS
 62
     2
 10
-349.020513645722
 20
110.178394891084
 30
0.0
 11
-349.509786496619
 21
110.740773586289
 31
0.0
  0
LINE
  5
   466
  8
0
  6
CONTINUOUS
 62
     2
 10
-349.509785846112
 20
110.740772708441
 30
0.0
 11
-350.137417038123
 21
111.142955466325
 31
0.0
  0
LINE
  5
   467
  8
0
  6
CONTINUOUS
 62
     2
 10
-350.137418489506
 20
111.142956491821
 30
0.0
 11
-350.852796680727
 21
111.352496654848
 31
0.0
  0
LINE
  5
   468
  8
0
  6
CONTINUOUS
 62
     2
 10
-350.852795024295
 20
111.352495483094
 30
0.0
 11
-351.598229963383
 21
111.352495483094
 31
0.0
  0
LINE
  5
   469
  8
0
  6
CONTINUOUS
 62
     2
 10
-352.313609394974
 20
111.142956104054
 30
0.0
 11
-351.598231203753
 21
111.352496267081
 31
0.0
  0
LINE
  5
   46A
  8
0
  6
CONTINUOUS
 62
     2
 10
-352.941239376548
 20
110.74077143113
 30
0.0
 11
-352.313606845456
 21
111.142954197279
 31
0.0
  0
LINE
  5
   46B
  8
0
  6
CONTINUOUS
 62
     2
 10
-353.430511075738
 20
110.178376420623
 30
0.0
 11
-352.941239539233
 21
110.740771123726
 31
0.0
  0
LINE
  5
   46C
  8
0
  6
CONTINUOUS
 62
     2
 10
-354.725492416107
 20
136.229104480327
 30
0.0
 11
-343.875493933371
 21
136.22912584263
 31
0.0
  0
LINE
  5
   46D
  8
0
  6
CONTINUOUS
 62
     2
 10
-343.875493926992
 20
139.729125782924
 30
0.0
 11
-380.625514663448
 21
139.729125782924
 31
0.0
  0
LINE
  5
   46E
  8
0
  6
CONTINUOUS
 62
     2
 10
-347.898946874656
 20
133.691580146155
 30
0.0
 11
-347.938910403959
 21
133.892492616689
 31
0.0
  0
LINE
  5
   46F
  8
0
  6
CONTINUOUS
 62
     2
 10
-347.938911677013
 20
133.892496371598
 30
0.0
 11
-348.052716684972
 21
134.062818021941
 31
0.0
  0
LINE
  5
   470
  8
0
  6
CONTINUOUS
 62
     2
 10
-348.052716829966
 20
134.062817988497
 30
0.0
 11
-348.223039816384
 21
134.17662032149
 31
0.0
  0
LINE
  5
   471
  8
0
  6
CONTINUOUS
 62
     2
 10
-348.223042225095
 20
134.176623004373
 30
0.0
 11
-348.423950694234
 21
134.216586533684
 31
0.0
  0
LINE
  5
   472
  8
0
  6
CONTINUOUS
 62
     2
 10
-348.624858021779
 20
134.176622546137
 30
0.0
 11
-348.423949552639
 21
134.216586075448
 31
0.0
  0
LINE
  5
   473
  8
0
  6
CONTINUOUS
 62
     2
 10
-348.795179310207
 20
134.06281781882
 30
0.0
 11
-348.624856323789
 21
134.176620151813
 31
0.0
  0
LINE
  5
   474
  8
0
  6
CONTINUOUS
 62
     2
 10
-348.908984243185
 20
133.892496225202
 30
0.0
 11
-348.795179235226
 21
134.062817875544
 31
0.0
  0
LINE
  5
   475
  8
0
  6
CONTINUOUS
 62
     2
 10
-348.948947390964
 20
133.691580374689
 30
0.0
 11
-348.908983861661
 21
133.892492845222
 31
0.0
  0
LINE
  5
   476
  8
0
  6
CONTINUOUS
 62
     2
 10
-348.94894774379
 20
132.641583179015
 30
0.0
 11
-348.94894774379
 21
133.691583161134
 31
0.0
  0
LINE
  5
   477
  8
0
  6
CONTINUOUS
 62
     2
 10
-348.908982686872
 20
132.44067110807
 30
0.0
 11
-348.948946217196
 21
132.641578235384
 31
0.0
  0
LINE
  5
   478
  8
0
  6
CONTINUOUS
 62
     2
 10
-348.795179594416
 20
132.270355114961
 30
0.0
 11
-348.908984602375
 21
132.440676765304
 31
0.0
  0
LINE
  5
   479
  8
0
  6
CONTINUOUS
 62
     2
 10
-348.6248533274
 20
132.156543013298
 30
0.0
 11
-348.795176315704
 21
132.270350690998
 31
0.0
  0
LINE
  5
   47A
  8
0
  6
CONTINUOUS
 62
     2
 10
-348.423950691827
 20
132.116586444935
 30
0.0
 11
-348.624859160966
 21
132.156549974246
 31
0.0
  0
LINE
  5
   47B
  8
0
  6
CONTINUOUS
 62
     2
 10
-348.423949555046
 20
132.116585986699
 30
0.0
 11
-348.223041085907
 21
132.156549516009
 31
0.0
  0
LINE
  5
   47C
  8
0
  6
CONTINUOUS
 62
     2
 10
-348.223038724428
 20
132.156543948535
 30
0.0
 11
-348.052715736125
 21
132.270351626235
 31
0.0
  0
LINE
  5
   47D
  8
0
  6
CONTINUOUS
 62
     2
 10
-348.052716325782
 20
132.270354968565
 30
0.0
 11
-347.938911317823
 21
132.440676618907
 31
0.0
  0
LINE
  5
   47E
  8
0
  6
CONTINUOUS
 62
     2
 10
-347.938910741402
 20
132.440671490955
 30
0.0
 11
-347.898947211078
 21
132.641578618269
 31
0.0
  0
LINE
  5
   47F
  8
0
  6
CONTINUOUS
 62
     2
 10
-347.898947761672
 20
132.641583179015
 30
0.0
 11
-347.898947761672
 21
133.691583161134
 31
0.0
  0
LINE
  5
   480
  8
0
  6
CONTINUOUS
 62
     2
 10
-347.900492523303
 20
125.116591318029
 30
0.0
 11
-348.950492505422
 21
125.116591318029
 31
0.0
  0
LINE
  5
   481
  8
0
  6
CONTINUOUS
 62
     2
 10
-348.950492505422
 20
115.666591478962
 30
0.0
 11
-348.950492505422
 21
125.116591318029
 31
0.0
  0
LINE
  5
   482
  8
0
  6
CONTINUOUS
 62
     2
 10
-347.900492523303
 20
115.666591478962
 30
0.0
 11
-348.950492505422
 21
115.666591478962
 31
0.0
  0
LINE
  5
   483
  8
0
  6
CONTINUOUS
 62
     2
 10
-347.900492523303
 20
115.666591478962
 30
0.0
 11
-347.900492523303
 21
125.116591318029
 31
0.0
  0
LINE
  5
   484
  8
0
  6
CONTINUOUS
 62
     5
 10
-355.425492395153
 20
104.904101008254
 30
0.0
 11
-355.425492395153
 21
135.179100492674
 31
0.0
  0
LINE
  5
   485
  8
0
  6
CONTINUOUS
 62
     2
 10
-354.725492407074
 20
136.229099139649
 30
0.0
 11
-379.400518689742
 21
136.229099139649
 31
0.0
  0
LINE
  5
   486
  8
0
  6
CONTINUOUS
 62
     5
 10
-355.775492389193
 20
135.529099151569
 30
0.0
 11
-379.400518689742
 21
135.529099151569
 31
0.0
  0
LINE
  5
   487
  8
0
  6
CONTINUOUS
 62
     5
 10
-355.425491254383
 20
135.179097599345
 30
0.0
 11
-355.775491236442
 21
135.529097581404
 31
0.0
  0
LINE
  5
   488
  8
0
  6
CONTINUOUS
 62
     5
 10
-379.750519128284
 20
135.179100000224
 30
0.0
 11
-379.648006770231
 21
135.426587636433
 31
0.0
  0
LINE
  5
   489
  8
0
  6
CONTINUOUS
 62
     5
 10
-379.648007158682
 20
135.42658724479
 30
0.0
 11
-379.400519522473
 21
135.529099602843
 31
0.0
  0
LINE
  5
   48A
  8
0
  6
CONTINUOUS
 62
     2
 10
-379.400518688012
 20
136.229099140149
 30
0.0
 11
-380.625513325551
 21
136.229104480725
 31
0.0
  0
LINE
  5
   48B
  8
0
  6
CONTINUOUS
 62
     5
 10
-355.075492402279
 20
103.679023590926
 30
0.0
 11
-380.275513335494
 21
103.679125061868
 31
0.0
  0
LINE
  5
   48C
  8
0
  6
CONTINUOUS
 62
     5
 10
-354.7254924132
 20
103.679018252529
 30
0.0
 11
-355.075492407234
 21
103.679023593105
 31
0.0
  0
LINE
  5
   48D
  8
0
  6
CONTINUOUS
 62
     5
 10
-355.528005012803
 20
104.656613692422
 30
0.0
 11
-355.425492654751
 21
104.904101328632
 31
0.0
  0
LINE
  5
   48E
  8
0
  6
CONTINUOUS
 62
     5
 10
-355.775492859295
 20
104.554101172056
 30
0.0
 11
-355.528005223085
 21
104.656613530109
 31
0.0
  0
LINE
  5
   48F
  8
0
  6
CONTINUOUS
 62
     5
 10
-355.775492389193
 20
104.554101014215
 30
0.0
 11
-379.400518689742
 21
104.554101014215
 31
0.0
  0
LINE
  5
   490
  8
0
  6
CONTINUOUS
 62
     5
 10
-379.400519803146
 20
104.554101473066
 30
0.0
 11
-379.648007439356
 21
104.656613831119
 31
0.0
  0
LINE
  5
   491
  8
0
  6
CONTINUOUS
 62
     5
 10
-379.648007048853
 20
104.656613995484
 30
0.0
 11
-379.750519406905
 21
104.904101631693
 31
0.0
  0
LINE
  5
   492
  8
0
  6
CONTINUOUS
 62
     5
 10
-366.013000225713
 20
111.091456135123
 30
0.0
 11
-366.013000225713
 21
125.713448760257
 31
0.0
  0
LINE
  5
   493
  8
0
  6
CONTINUOUS
 62
     5
 10
-358.488000353863
 20
111.091456135123
 30
0.0
 11
-358.488000353863
 21
125.713448760257
 31
0.0
  0
LINE
  5
   494
  8
0
  6
CONTINUOUS
 62
     2
 10
-345.625488556614
 20
113.101237747625
 30
0.0
 11
-346.325488544693
 21
113.101237747625
 31
0.0
  0
LINE
  5
   495
  8
0
  6
CONTINUOUS
 62
     2
 10
-346.44923261479
 20
113.04998186735
 30
0.0
 11
-346.325488796685
 21
113.101238046377
 31
0.0
  0
LINE
  5
   496
  8
0
  6
CONTINUOUS
 62
     2
 10
-346.500488657077
 20
112.926238272435
 30
0.0
 11
-346.449232478051
 21
113.04998209054
 31
0.0
  0
LINE
  5
   497
  8
0
  6
CONTINUOUS
 62
     2
 10
-346.500488541713
 20
109.07623781617
 30
0.0
 11
-346.500488541713
 21
112.926237750605
 31
0.0
  0
LINE
  5
   498
  8
0
  6
CONTINUOUS
 62
     2
 10
-346.449232688148
 20
108.952494580413
 30
0.0
 11
-346.500488867174
 21
109.076238398517
 31
0.0
  0
LINE
  5
   499
  8
0
  6
CONTINUOUS
 62
     2
 10
-346.325489007809
 20
108.901238204998
 30
0.0
 11
-346.449232825913
 21
108.952494384024
 31
0.0
  0
LINE
  5
   49A
  8
0
  6
CONTINUOUS
 62
     2
 10
-345.625488556614
 20
108.901237819151
 30
0.0
 11
-346.325488544693
 21
108.901237819151
 31
0.0
  0
LINE
  5
   49B
  8
0
  6
CONTINUOUS
 62
     2
 10
-345.100488565555
 20
108.901237819151
 30
0.0
 11
-345.625488556614
 21
108.901237819151
 31
0.0
  0
LINE
  5
   49C
  8
0
  6
CONTINUOUS
 62
     2
 10
-345.100488806328
 20
108.901238071252
 30
0.0
 11
-344.976744988223
 21
108.952494250279
 31
0.0
  0
LINE
  5
   49D
  8
0
  6
CONTINUOUS
 62
     2
 10
-344.976744859115
 20
108.952494445642
 30
0.0
 11
-344.925488680089
 21
109.076238263746
 31
0.0
  0
LINE
  5
   49E
  8
0
  6
CONTINUOUS
 62
     2
 10
-344.925488568535
 20
109.07623781617
 30
0.0
 11
-344.925488568535
 21
112.926237750605
 31
0.0
  0
LINE
  5
   49F
  8
0
  6
CONTINUOUS
 62
     2
 10
-344.925488890186
 20
112.926238407206
 30
0.0
 11
-344.976745069213
 21
113.049982225311
 31
0.0
  0
LINE
  5
   4A0
  8
0
  6
CONTINUOUS
 62
     2
 10
-344.976745199346
 20
113.049982001096
 30
0.0
 11
-345.100489017451
 21
113.101238180122
 31
0.0
  0
LINE
  5
   4A1
  8
0
  6
CONTINUOUS
 62
     2
 10
-345.100488565555
 20
113.101237747625
 30
0.0
 11
-345.625488556614
 21
113.101237747625
 31
0.0
  0
LINE
  5
   4A2
  8
0
  6
CONTINUOUS
 62
     5
 10
-355.425508416881
 20
126.779107311445
 30
0.0
 11
-355.425508416881
 21
127.129107305485
 31
0.0
  0
LINE
  5
   4A3
  8
0
  6
CONTINUOUS
 62
     2
 10
-355.425508416881
 20
127.129107305485
 30
0.0
 11
-379.750524024357
 21
127.129107305485
 31
0.0
  0
LINE
  5
   4A4
  8
0
  6
CONTINUOUS
 62
     2
 10
-355.425508416881
 20
126.779107311445
 30
0.0
 11
-379.750524024357
 21
126.779107311445
 31
0.0
  0
LINE
  5
   4A5
  8
0
  6
CONTINUOUS
 62
     5
 10
-355.425508416881
 20
109.629107603508
 30
0.0
 11
-355.425508416881
 21
109.979107597547
 31
0.0
  0
LINE
  5
   4A6
  8
0
  6
CONTINUOUS
 62
     2
 10
-355.425508416881
 20
109.979107597547
 30
0.0
 11
-379.750524024357
 21
109.979107597547
 31
0.0
  0
LINE
  5
   4A7
  8
0
  6
CONTINUOUS
 62
     2
 10
-355.425508416881
 20
109.629107603508
 30
0.0
 11
-379.750524024357
 21
109.629107603508
 31
0.0
  0
LINE
  5
   4A8
  8
0
  6
CONTINUOUS
 62
     2
 10
-366.013010906865
 20
122.579107382971
 30
0.0
 11
-379.750524024357
 21
122.579107382971
 31
0.0
  0
LINE
  5
   4A9
  8
0
  6
CONTINUOUS
 62
     2
 10
-366.013010906865
 20
122.229107388931
 30
0.0
 11
-379.750524024357
 21
122.229107388931
 31
0.0
  0
LINE
  5
   4AA
  8
0
  6
CONTINUOUS
 62
     2
 10
-366.013013577153
 20
114.529107520061
 30
0.0
 11
-379.750524024357
 21
114.529107520061
 31
0.0
  0
LINE
  5
   4AB
  8
0
  6
CONTINUOUS
 62
     2
 10
-366.013013577153
 20
114.179107526022
 30
0.0
 11
-379.750524024357
 21
114.179107526022
 31
0.0
  0
LINE
  5
   4AC
  8
0
  6
CONTINUOUS
 62
     5
 10
-355.425505746593
 20
122.229107388931
 30
0.0
 11
-355.425505746593
 21
122.579107382971
 31
0.0
  0
LINE
  5
   4AD
  8
0
  6
CONTINUOUS
 62
     2
 10
-355.425505746593
 20
122.579107382971
 30
0.0
 11
-358.488000353863
 21
122.579107382971
 31
0.0
  0
LINE
  5
   4AE
  8
0
  6
CONTINUOUS
 62
     2
 10
-355.425505746593
 20
122.229107388931
 30
0.0
 11
-358.488000353863
 21
122.229107388931
 31
0.0
  0
LINE
  5
   4AF
  8
0
  6
CONTINUOUS
 62
     5
 10
-355.425505746593
 20
114.179107526022
 30
0.0
 11
-355.425505746593
 21
114.529107520061
 31
0.0
  0
LINE
  5
   4B0
  8
0
  6
CONTINUOUS
 62
     2
 10
-355.425505746593
 20
114.529107520061
 30
0.0
 11
-358.488000353863
 21
114.529107520061
 31
0.0
  0
LINE
  5
   4B1
  8
0
  6
CONTINUOUS
 62
     2
 10
-355.425505746593
 20
114.179107526022
 30
0.0
 11
-358.488000353863
 21
114.179107526022
 31
0.0
  0
LINE
  5
   4B2
  8
0
  6
CONTINUOUS
 62
   130
 10
-327.074925191403
 20
148.391620294827
 30
0.0
 11
-327.424920428992
 21
148.391620294827
 31
0.0
  0
LINE
  5
   4B3
  8
0
  6
CONTINUOUS
 62
   130
 10
-327.424920428992
 20
148.391620294827
 30
0.0
 11
-328.474920077324
 21
148.391620294827
 31
0.0
  0
LINE
  5
   4B4
  8
0
  6
CONTINUOUS
 62
   130
 10
-327.074920101166
 20
97.7291171521719
 30
0.0
 11
-328.649937244051
 21
97.7291171521719
 31
0.0
  0
LINE
  5
   4B5
  8
0
  6
CONTINUOUS
 62
   130
 10
-327.074918678635
 20
97.729117152172
 30
0.0
 11
-327.074918678635
 21
99.3916144535718
 31
0.0
  0
LINE
  5
   4B6
  8
0
  6
DOT
 62
   130
 10
-328.649937244051
 20
97.7291171521719
 30
0.0
 11
-337.749937756651
 21
97.7291171521719
 31
0.0
  0
LINE
  5
   4B7
  8
0
  6
CONTINUOUS
 62
     5
 10
-355.075492431834
 20
103.679023596688
 30
0.0
 11
-380.45175237565
 21
103.679640433245
 31
0.0
  0
LINE
  5
   4B8
  8
0
  6
CONTINUOUS
 62
     5
 10
-380.497884808725
 20
103.698747392178
 30
0.0
 11
-380.497366772853
 21
103.699264092902
 31
0.0
  0
LINE
  5
   4B9
  8
0
  6
CONTINUOUS
 62
     5
 10
-380.497369716664
 20
140.409102044286
 30
0.0
 11
-380.497807643906
 21
140.409539971528
 31
0.0
  0
LINE
  5
   4BA
  8
0
  6
CONTINUOUS
 62
     5
 10
-380.45157079781
 20
140.428693201586
 30
0.0
 11
-362.669228189587
 21
140.429131128812
 31
0.0
  0
LINE
  5
   4BB
  8
0
  6
CONTINUOUS
 62
     5
 10
-358.488000353863
 20
125.559162187567
 30
0.0
 11
-366.013000225713
 21
125.559162187567
 31
0.0
  0
LINE
  5
   4BC
  8
0
  6
CONTINUOUS
 62
     5
 10
-358.488000353863
 20
125.713448760257
 30
0.0
 11
-366.013000225713
 21
125.713448760257
 31
0.0
  0
LINE
  5
   4BD
  8
0
  6
CONTINUOUS
 62
     5
 10
-358.488000353863
 20
111.091456135123
 30
0.0
 11
-366.013000225713
 21
111.091456135123
 31
0.0
  0
LINE
  5
   4BE
  8
0
  6
CONTINUOUS
 62
     5
 10
-358.488000353863
 20
111.325912765652
 30
0.0
 11
-366.013000225713
 21
111.325912765652
 31
0.0
  0
LINE
  5
   4BF
  8
0
  6
CONTINUOUS
 62
   130
 10
-326.724922944307
 20
124.941607342738
 30
0.0
 11
-327.074922020435
 21
124.941607342738
 31
0.0
  0
LINE
  5
   4C0
  8
0
  6
CONTINUOUS
 62
   130
 10
-326.724923278093
 20
117.941607461947
 30
0.0
 11
-327.074922437668
 21
117.941607461947
 31
0.0
  0
CIRCLE
  5
   4C1
  8
0
  6
CONTINUOUS
 62
   130
 10
-331.799919016631
 20
112.516605236607
 30
0.0
 40
1.83750095455715
  0
LINE
  5
   4C2
  8
0
  6
DASHDOT
 62
     7
 10
-331.799919016631
 20
109.629104299932
 30
0.0
 11
-331.799919016631
 21
115.404106173283
 31
0.0
  0
LINE
  5
   4C3
  8
0
  6
DASHDOT
 62
     7
 10
-328.912418079955
 20
112.516605236607
 30
0.0
 11
-334.687419953306
 21
112.516605236607
 31
0.0
  0
LINE
  5
   4C4
  8
0
  6
CONTINUOUS
 62
     1
 10
-337.749937756651
 20
150.226919946192
 30
0.0
 11
-337.749937756651
 21
156.966602824479
 31
0.0
  0
LINE
  5
   4C5
  8
0
  6
CONTINUOUS
 62
     3
 10
-338.624924432054
 20
74.5416374541882
 30
0.0
 11
-338.624924432054
 21
76.1166374273661
 31
0.0
  0
ARC
  5
   4C6
  8
0
  6
CONTINUOUS
 62
     3
 10
-338.974924426094
 20
74.5416374541882
 30
0.0
 40
0.349999994039536
 50
269.999999948034
 51
359.999999948034
  0
LINE
  5
   4C7
  8
0
  6
CONTINUOUS
 62
     3
 10
-338.974924426094
 20
74.1916374601487
 30
0.0
 11
-353.718578449048
 21
74.1916374601487
 31
0.0
  0
LINE
  5
   4C8
  8
0
  6
CONTINUOUS
 62
     3
 10
-401.187415137348
 20
74.5416374541882
 30
0.0
 11
-401.187415137348
 21
76.1166374273661
 31
0.0
  0
ARC
  5
   4C9
  8
0
  6
CONTINUOUS
 62
     3
 10
-400.837415143309
 20
74.5416374541882
 30
0.0
 40
0.349999994039536
 50
179.999999948034
 51
269.999999948034
  0
LINE
  5
   4CA
  8
0
  6
CONTINUOUS
 62
   212
 10
-397.249907370203
 20
173.591478826809
 30
0.0
 11
-400.985598227217
 21
173.591478826809
 31
0.0
  0
LINE
  5
   4CB
  8
0
  6
CONTINUOUS
 62
   212
 10
-381.937407630974
 20
168.76163463838
 30
0.0
 11
-382.943575281062
 21
168.76163463838
 31
0.0
  0
LINE
  5
   4CC
  8
0
  6
CONTINUOUS
 62
   212
 10
-366.624909226888
 20
168.761640322369
 30
0.0
 11
-367.63107821212
 21
168.761640322369
 31
0.0
  0
LINE
  5
   4CD
  8
0
  6
CONTINUOUS
 62
   212
 10
-351.312410535984
 20
168.761630213196
 30
0.0
 11
-352.31857847289
 21
168.761630213196
 31
0.0
  0
LINE
  5
   4CE
  8
0
  6
CONTINUOUS
 62
   212
 10
-337.399929072851
 20
168.761622546647
 30
0.0
 11
-337.399929072851
 21
172.191329824665
 31
0.0
  0
LINE
  5
   4CF
  8
0
  6
CONTINUOUS
 62
   212
 10
-337.399964244073
 20
163.266597005313
 30
0.0
 11
-337.399984271233
 21
165.611622600143
 31
0.0
  0
LINE
  5
   4D0
  8
0
  6
CONTINUOUS
 62
   212
 10
-402.412463804489
 20
169.286821017187
 30
0.0
 11
-402.412495847946
 21
169.534308653353
 31
0.0
  0
LINE
  5
   4D1
  8
0
  6
CONTINUOUS
 62
   212
 10
-402.412426420457
 20
168.761831706929
 30
0.0
 11
-402.412458463913
 21
172.191571028404
 31
0.0
  0
LINE
  5
   4D2
  8
0
  6
CONTINUOUS
 62
   212
 10
-402.412458463913
 20
163.266838211729
 30
0.0
 11
-402.412426420457
 21
165.611842444255
 31
0.0
  0
LINE
  5
   4D3
  8
0
  6
CONTINUOUS
 62
   212
 10
-337.749892050651
 20
162.366579142607
 30
0.0
 11
-337.506500726023
 21
162.730841094175
 31
0.0
  0
LINE
  5
   4D4
  8
0
  6
CONTINUOUS
 62
   212
 10
-337.506500726023
 20
162.730841094175
 30
0.0
 11
-337.399964244073
 21
163.266597005461
 31
0.0
  0
LINE
  5
   4D5
  8
0
  6
CONTINUOUS
 62
   212
 10
-337.399956233209
 20
165.611622600291
 30
0.0
 11
-337.749926595092
 21
165.611622600291
 31
0.0
  0
LINE
  5
   4D6
  8
0
  6
CONTINUOUS
 62
   212
 10
-337.399956233209
 20
165.611622599988
 30
0.0
 11
-337.399962241357
 21
168.761622546343
 31
0.0
  0
LINE
  5
   4D7
  8
0
  6
CONTINUOUS
 62
   212
 10
-338.274958421247
 20
166.766597337872
 30
0.0
 11
-338.274962226456
 21
168.761622546343
 31
0.0
  0
LINE
  5
   4D8
  8
0
  6
CONTINUOUS
 62
   212
 10
-402.062420160754
 20
165.61184244241
 30
0.0
 11
-402.412399717576
 21
165.61184244241
 31
0.0
  0
LINE
  5
   4D9
  8
0
  6
CONTINUOUS
 62
   212
 10
-402.412399717576
 20
165.611842443912
 30
0.0
 11
-402.412426420457
 21
168.761831709115
 31
0.0
  0
LINE
  5
   4DA
  8
0
  6
CONTINUOUS
 62
   212
 10
-401.537397774675
 20
166.766597337872
 30
0.0
 11
-401.537394391901
 21
168.76183174107
 31
0.0
  0
LINE
  5
   4DB
  8
0
  6
CONTINUOUS
 62
   212
 10
-367.63107821212
 20
168.691591409392
 30
0.0
 11
-367.63107821212
 21
169.916602232788
 31
0.0
  0
LINE
  5
   4DC
  8
0
  6
CONTINUOUS
 62
   212
 10
-367.63107821212
 20
169.916602232788
 30
0.0
 11
-372.181078134634
 21
169.916602232788
 31
0.0
  0
LINE
  5
   4DD
  8
0
  6
CONTINUOUS
 62
   212
 10
-372.181078134634
 20
168.691593529311
 30
0.0
 11
-372.181078134634
 21
169.916602232788
 31
0.0
  0
LINE
  5
   4DE
  8
0
  6
CONTINUOUS
 62
   212
 10
-352.31857847289
 20
168.691586231922
 30
0.0
 11
-352.31857847289
 21
169.916602232788
 31
0.0
  0
LINE
  5
   4DF
  8
0
  6
CONTINUOUS
 62
   212
 10
-352.31857847289
 20
169.916602232788
 30
0.0
 11
-356.868578395404
 21
169.916602232788
 31
0.0
  0
LINE
  5
   4E0
  8
0
  6
CONTINUOUS
 62
   212
 10
-356.868578395404
 20
168.691586394969
 30
0.0
 11
-356.868578395404
 21
169.916602232788
 31
0.0
  0
ARC
  5
   4E1
  8
0
  6
CONTINUOUS
 62
   212
 10
-401.011968893094
 20
172.190893746033
 30
0.0
 40
1.40080016718987
 50
448.921318525801
 51
540.00741831784
  0
ARC
  5
   4E2
  8
0
  6
CONTINUOUS
 62
   212
 10
-401.0124357042
 20
163.266834290559
 30
0.0
 40
1.39999216722727
 50
179.999839550052
 51
221.41264129944
  0
LINE
  5
   4E3
  8
0
  6
CONTINUOUS
 62
   212
 10
-397.249907370203
 20
168.76188748886
 30
0.0
 11
-401.537394391901
 21
168.76188748886
 31
0.0
  0
LINE
  5
   4E4
  8
0
  6
CONTINUOUS
 62
   212
 10
-387.493575203576
 20
168.691591572498
 30
0.0
 11
-387.493575203576
 21
169.916843437212
 31
0.0
  0
LINE
  5
   4E5
  8
0
  6
CONTINUOUS
 62
   212
 10
-382.943575281062
 20
169.916843437212
 30
0.0
 11
-387.493575203576
 21
169.916843437212
 31
0.0
  0
LINE
  5
   4E6
  8
0
  6
CONTINUOUS
 62
   212
 10
-382.943575281062
 20
168.691598543733
 30
0.0
 11
-382.943575281062
 21
169.916843437212
 31
0.0
  0
ARC
  5
   4E7
  8
0
  6
CONTINUOUS
 62
   212
 10
-338.800477074629
 20
172.190517919465
 30
0.0
 40
1.4009561828799
 50
359.999999948034
 51
450.022337125874
  0
LINE
  5
   4E8
  8
0
  6
CONTINUOUS
 62
   212
 10
-381.937407630974
 20
173.591478826809
 30
0.0
 11
-388.499907519215
 21
173.591478826809
 31
0.0
  0
LINE
  5
   4E9
  8
0
  6
CONTINUOUS
 62
   212
 10
-387.493575203576
 20
168.76188748886
 30
0.0
 11
-388.499907519215
 21
168.76188748886
 31
0.0
  0
LINE
  5
   4EA
  8
0
  6
CONTINUOUS
 62
   212
 10
-366.624909226888
 20
173.591478826809
 30
0.0
 11
-373.187407779985
 21
173.591478826809
 31
0.0
  0
LINE
  5
   4EB
  8
0
  6
CONTINUOUS
 62
   212
 10
-372.181078134634
 20
168.76163463838
 30
0.0
 11
-373.187407779985
 21
168.76163463838
 31
0.0
  0
LINE
  5
   4EC
  8
0
  6
CONTINUOUS
 62
   212
 10
-351.312410535984
 20
173.591478826809
 30
0.0
 11
-357.874909375899
 21
173.591478826809
 31
0.0
  0
LINE
  5
   4ED
  8
0
  6
CONTINUOUS
 62
   212
 10
-356.868578395404
 20
168.761640322369
 30
0.0
 11
-357.874909375899
 21
168.761640322369
 31
0.0
  0
LINE
  5
   4EE
  8
0
  6
CONTINUOUS
 62
   212
 10
-338.801023247608
 20
173.591478826809
 30
0.0
 11
-342.562410684995
 21
173.591478826809
 31
0.0
  0
LINE
  5
   4EF
  8
0
  6
CONTINUOUS
 62
   212
 10
-338.274962226456
 20
168.761630213196
 30
0.0
 11
-342.562410684995
 21
168.761630213196
 31
0.0
  0
LINE
  5
   4F0
  8
0
  6
CONTINUOUS
 62
   212
 10
-397.249907370203
 20
69.2917519996039
 30
0.0
 11
-400.985598227217
 21
69.2917519996039
 31
0.0
  0
LINE
  5
   4F1
  8
0
  6
CONTINUOUS
 62
   212
 10
-381.937407630974
 20
74.1215961880325
 30
0.0
 11
-382.943575281062
 21
74.1215961880325
 31
0.0
  0
LINE
  5
   4F2
  8
0
  6
CONTINUOUS
 62
   212
 10
-366.624909226888
 20
74.1215905040437
 30
0.0
 11
-367.63107821212
 21
74.1215905040437
 31
0.0
  0
LINE
  5
   4F3
  8
0
  6
CONTINUOUS
 62
   212
 10
-351.312410535984
 20
74.1216006132168
 30
0.0
 11
-352.31857847289
 21
74.1216006132168
 31
0.0
  0
LINE
  5
   4F4
  8
0
  6
CONTINUOUS
 62
   212
 10
-337.399929072851
 20
70.6919010017477
 30
0.0
 11
-337.399929072851
 21
74.121608279766
 31
0.0
  0
LINE
  5
   4F5
  8
0
  6
CONTINUOUS
 62
   212
 10
-337.399984271233
 20
77.2716082262698
 30
0.0
 11
-337.399964244073
 21
79.6166338210999
 31
0.0
  0
LINE
  5
   4F6
  8
0
  6
CONTINUOUS
 62
   212
 10
-402.412495847946
 20
73.3489221730597
 30
0.0
 11
-402.412463804489
 21
73.5964098092258
 31
0.0
  0
LINE
  5
   4F7
  8
0
  6
CONTINUOUS
 62
   212
 10
-402.412458463913
 20
70.6916597980088
 30
0.0
 11
-402.412426420457
 21
74.1213991194835
 31
0.0
  0
LINE
  5
   4F8
  8
0
  6
CONTINUOUS
 62
   212
 10
-402.412426420457
 20
77.2713883821575
 30
0.0
 11
-402.412458463913
 21
79.6163926146833
 31
0.0
  0
LINE
  5
   4F9
  8
0
  6
CONTINUOUS
 62
   212
 10
-337.506500726023
 20
80.1523897322381
 30
0.0
 11
-337.749892050651
 21
80.5166516838062
 31
0.0
  0
LINE
  5
   4FA
  8
0
  6
CONTINUOUS
 62
   212
 10
-337.399964244073
 20
79.6166338209518
 30
0.0
 11
-337.506500726023
 21
80.1523897322381
 31
0.0
  0
LINE
  5
   4FB
  8
0
  6
CONTINUOUS
 62
   212
 10
-337.399956233209
 20
77.2716082261217
 30
0.0
 11
-337.749937619712
 21
77.2716082261217
 31
0.0
  0
LINE
  5
   4FC
  8
0
  6
CONTINUOUS
 62
   212
 10
-337.399962241357
 20
74.1216082800693
 30
0.0
 11
-337.399956233209
 21
77.2716082264251
 31
0.0
  0
LINE
  5
   4FD
  8
0
  6
CONTINUOUS
 62
   212
 10
-338.274962226456
 20
74.1216082800693
 30
0.0
 11
-338.274958421247
 21
76.1166334885407
 31
0.0
  0
LINE
  5
   4FE
  8
0
  6
CONTINUOUS
 62
   212
 10
-402.062436524477
 20
77.2713883840023
 30
0.0
 11
-402.412399717576
 21
77.2713883840023
 31
0.0
  0
LINE
  5
   4FF
  8
0
  6
CONTINUOUS
 62
   212
 10
-402.412426420457
 20
74.1213991172976
 30
0.0
 11
-402.412399717576
 21
77.2713883825013
 31
0.0
  0
LINE
  5
   500
  8
0
  6
CONTINUOUS
 62
   212
 10
-401.537394391901
 20
74.1213990853424
 30
0.0
 11
-401.537397774675
 21
76.1166334885407
 31
0.0
  0
LINE
  5
   501
  8
0
  6
CONTINUOUS
 62
   212
 10
-367.63107821212
 20
72.9666285936246
 30
0.0
 11
-367.63107821212
 21
74.1916394170206
 31
0.0
  0
LINE
  5
   502
  8
0
  6
CONTINUOUS
 62
   212
 10
-372.181078134634
 20
72.9666285936246
 30
0.0
 11
-372.181078134634
 21
74.1916372971017
 31
0.0
  0
LINE
  5
   503
  8
0
  6
CONTINUOUS
 62
   212
 10
-352.31857847289
 20
72.9666285936246
 30
0.0
 11
-352.31857847289
 21
74.1916445944912
 31
0.0
  0
LINE
  5
   504
  8
0
  6
CONTINUOUS
 62
   212
 10
-356.868578395404
 20
72.9666285936246
 30
0.0
 11
-356.868578395404
 21
74.1916444314441
 31
0.0
  0
ARC
  5
   505
  8
0
  6
CONTINUOUS
 62
   212
 10
-401.011968893094
 20
70.6923370803798
 30
0.0
 40
1.40080016718987
 50
179.992581578229
 51
271.078681370268
  0
ARC
  5
   506
  8
0
  6
CONTINUOUS
 62
   212
 10
-401.0124357042
 20
79.6163965358539
 30
0.0
 40
1.39999216722727
 50
138.587358596629
 51
180.000160346017
  0
LINE
  5
   507
  8
0
  6
CONTINUOUS
 62
   212
 10
-397.249907370203
 20
74.1213433375523
 30
0.0
 11
-401.537394391901
 21
74.1213433375523
 31
0.0
  0
LINE
  5
   508
  8
0
  6
CONTINUOUS
 62
   212
 10
-387.493575203576
 20
72.9663873892008
 30
0.0
 11
-387.493575203576
 21
74.1916392539151
 31
0.0
  0
LINE
  5
   509
  8
0
  6
CONTINUOUS
 62
   212
 10
-382.943575281062
 20
72.9663873892008
 30
0.0
 11
-382.943575281062
 21
74.1916322826795
 31
0.0
  0
ARC
  5
   50A
  8
0
  6
CONTINUOUS
 62
   212
 10
-338.800477074629
 20
70.6927129069475
 30
0.0
 40
1.4009561828799
 50
269.977662770195
 51
359.999999948034
  0
LINE
  5
   50B
  8
0
  6
CONTINUOUS
 62
   212
 10
-387.493575203576
 20
74.1213433375523
 30
0.0
 11
-388.499907519215
 21
74.1213433375523
 31
0.0
  0
LINE
  5
   50C
  8
0
  6
CONTINUOUS
 62
   212
 10
-382.943575281062
 20
72.9663873892008
 30
0.0
 11
-387.493575203576
 21
72.9663873892008
 31
0.0
  0
LINE
  5
   50D
  8
0
  6
CONTINUOUS
 62
   212
 10
-381.937407630974
 20
69.2917519996039
 30
0.0
 11
-388.499907519215
 21
69.2917519996039
 31
0.0
  0
LINE
  5
   50E
  8
0
  6
CONTINUOUS
 62
   212
 10
-372.181078134634
 20
74.1215961880325
 30
0.0
 11
-373.187407779985
 21
74.1215961880325
 31
0.0
  0
LINE
  5
   50F
  8
0
  6
CONTINUOUS
 62
   212
 10
-366.624909226888
 20
69.2917519996039
 30
0.0
 11
-373.187407779985
 21
69.2917519996039
 31
0.0
  0
LINE
  5
   510
  8
0
  6
CONTINUOUS
 62
   212
 10
-367.63107821212
 20
72.9666285936245
 30
0.0
 11
-372.181078134634
 21
72.9666285936245
 31
0.0
  0
LINE
  5
   511
  8
0
  6
CONTINUOUS
 62
   212
 10
-356.868578395404
 20
74.1215905040437
 30
0.0
 11
-357.874909375899
 21
74.1215905040437
 31
0.0
  0
LINE
  5
   512
  8
0
  6
CONTINUOUS
 62
   212
 10
-351.312410535984
 20
69.2917519996039
 30
0.0
 11
-357.874909375899
 21
69.2917519996039
 31
0.0
  0
LINE
  5
   513
  8
0
  6
CONTINUOUS
 62
   212
 10
-352.31857847289
 20
72.9666285936245
 30
0.0
 11
-356.868578395404
 21
72.9666285936245
 31
0.0
  0
LINE
  5
   514
  8
0
  6
CONTINUOUS
 62
   212
 10
-338.801023247608
 20
69.2917519996039
 30
0.0
 11
-342.562410684995
 21
69.2917519996039
 31
0.0
  0
LINE
  5
   515
  8
0
  6
CONTINUOUS
 62
   212
 10
-338.274962226456
 20
74.1216006132168
 30
0.0
 11
-342.562410684995
 21
74.1216006132168
 31
0.0
  0
TEXT
  5
   516
  8
0
  6
CONTINUOUS
 62
     7
 10
-452.48986158819
 20
120.517488648642
 30
0.0
 40
2.99999997871263
  1
X
 50
359.999999948034
 41
0.91666663951344
 72
     1
 11
-451.389861618981
 21
122.017488637006
 31
0.0
 73
     2
  0
INSERT
  5
   517
  8
255
  6
CONTINUOUS
 62
     7
  2
TERM_400_FT_
 10
-328.194948867552
 20
83.5586369761088
 30
0.0
 41
0.349999994039536
 42
0.349999994039536
 50
3.50835464724173E-15
 43
0.349999994039536
  0
POINT
  5
   518
  8
0
  6
CONTINUOUS
 62
     7
 10
-362.249937339418
 20
168.691593366264
 30
0.0
  0
LINE
  5
   519
  8
0
  6
CONTINUOUS
 62
     3
 10
-353.718578449048
 20
166.766597337872
 30
0.0
 11
-353.718578449048
 21
168.691593366264
 31
0.0
  0
LINE
  5
   51A
  8
0
  6
CONTINUOUS
 62
     3
 10
-355.468578419246
 20
166.766597337872
 30
0.0
 11
-355.468578419246
 21
168.691593366264
 31
0.0
  0
LINE
  5
   51B
  8
0
  6
CONTINUOUS
 62
     3
 10
-369.031078188278
 20
166.766597337872
 30
0.0
 11
-369.031078188278
 21
168.691593366264
 31
0.0
  0
LINE
  5
   51C
  8
0
  6
CONTINUOUS
 62
     3
 10
-370.781078158476
 20
166.766597337872
 30
0.0
 11
-370.781078158476
 21
168.691593366264
 31
0.0
  0
LINE
  5
   51D
  8
0
  6
CONTINUOUS
 62
     3
 10
-355.468578419246
 20
168.691593366264
 30
0.0
 11
-369.031078188278
 21
168.691593366264
 31
0.0
  0
LINE
  5
   51E
  8
0
  6
CONTINUOUS
 62
     3
 10
-370.781078158476
 20
168.691593366264
 30
0.0
 11
-384.34357525722
 21
168.691593366264
 31
0.0
  0
LINE
  5
   51F
  8
0
  6
CONTINUOUS
 62
     3
 10
-384.34357525722
 20
166.766597337872
 30
0.0
 11
-384.34357525722
 21
168.691593366264
 31
0.0
  0
LINE
  5
   520
  8
0
  6
CONTINUOUS
 62
     3
 10
-386.093575227418
 20
166.766597337872
 30
0.0
 11
-386.093575227418
 21
168.691593366264
 31
0.0
  0
LINE
  5
   521
  8
0
  6
CONTINUOUS
 62
     3
 10
-386.093575227418
 20
168.691593366264
 30
0.0
 11
-400.837398779586
 21
168.691593366264
 31
0.0
  0
INSERT
  5
   522
  8
255
  6
CONTINUOUS
 62
     7
  2
TERM_400_FT_
 10
-328.194948867552
 20
159.324593850304
 30
0.0
 41
0.349999994039536
 42
-0.349999994039536
 50
1.03931142803049E-7
 43
0.349999994039536
  0
INSERT
  5
   523
  8
0
  6
CONTINUOUS
 62
     7
  2
*UDIM521
 10
0.0
 20
0.0
 30
0.0
  0
INSERT
  5
   524
  8
0
  6
CONTINUOUS
 62
     7
  2
*UDIM522
 10
0.0
 20
0.0
 30
0.0
  0
INSERT
  5
   525
  8
0
  6
CONTINUOUS
 62
     7
  2
*UDIM523
 10
0.0
 20
0.0
 30
0.0
  0
INSERT
  5
   526
  8
0
  6
CONTINUOUS
 62
     7
  2
*UDIM524
 10
0.0
 20
0.0
 30
0.0
  0
INSERT
  5
   527
  8
0
  6
CONTINUOUS
 62
     7
  2
*UDIM525
 10
0.0
 20
0.0
 30
0.0
  0
TEXT
  5
   528
  8
0
  6
CONTINUOUS
 62
     7
 10
-363.86895121955
 20
218.32179838004
 30
0.0
 40
2.99999997871263
  1
Y
 50
359.999999948034
 41
0.91666663951344
 72
     1
 11
-362.768951250341
 21
219.821798368404
 31
0.0
 73
     2
  0
INSERT
  5
   529
  8
0
  6
CONTINUOUS
 62
     7
  2
*UDIM526
 10
0.0
 20
0.0
 30
0.0
  0
INSERT
  5
   52A
  8
0
  6
CONTINUOUS
 62
     7
  2
*UDIM527
 10
0.0
 20
0.0
 30
0.0
  0
INSERT
  5
   52B
  8
0
  6
CONTINUOUS
 62
     7
  2
*UDIM528
 10
0.0
 20
0.0
 30
0.0
  0
TEXT
  5
   52C
  8
0
  6
CONTINUOUS
 62
     7
 10
-363.605943503691
 20
22.7113473252832
 30
0.0
 40
2.99999997871263
  1
Y
 50
359.999999948034
 41
0.91666663951344
 72
     2
 11
-361.405943567979
 21
22.7113473232989
 31
0.0
  0
INSERT
  5
   52D
  8
0
  6
CONTINUOUS
 62
     7
  2
*UDIM529
 10
0.0
 20
0.0
 30
0.0
  0
INSERT
  5
   52E
  8
0
  6
CONTINUOUS
 62
     7
  2
*UDIM530
 10
0.0
 20
0.0
 30
0.0
  0
INSERT
  5
   52F
  8
0
  6
CONTINUOUS
 62
     7
  2
*UDIM531
 10
0.0
 20
0.0
 30
0.0
  0
INSERT
  5
   530
  8
0
  6
CONTINUOUS
 62
     7
  2
*UDIM532
 10
0.0
 20
0.0
 30
0.0
  0
INSERT
  5
   531
  8
0
  6
CONTINUOUS
 62
     7
  2
*UDIM533
 10
0.0
 20
0.0
 30
0.0
  0
LINE
  5
   532
  8
0
  6
CONTINUOUS
 62
     3
 10
-353.718578449048
 20
74.1916374601487
 30
0.0
 11
-353.718578449048
 21
76.1166334885407
 31
0.0
  0
LINE
  5
   533
  8
0
  6
CONTINUOUS
 62
     3
 10
-355.468578419246
 20
74.1916374601487
 30
0.0
 11
-355.468578419246
 21
76.1166334885407
 31
0.0
  0
LINE
  5
   534
  8
0
  6
CONTINUOUS
 62
     3
 10
-369.031078188278
 20
74.1916374601487
 30
0.0
 11
-369.031078188278
 21
76.1166334885407
 31
0.0
  0
LINE
  5
   535
  8
0
  6
CONTINUOUS
 62
     3
 10
-370.781078158476
 20
74.1916374601487
 30
0.0
 11
-370.781078158476
 21
76.1166334885407
 31
0.0
  0
LINE
  5
   536
  8
0
  6
CONTINUOUS
 62
     3
 10
-384.34357525722
 20
74.1916374601487
 30
0.0
 11
-384.34357525722
 21
76.1166334885407
 31
0.0
  0
LINE
  5
   537
  8
0
  6
CONTINUOUS
 62
     3
 10
-386.093575227418
 20
74.1916374601487
 30
0.0
 11
-386.093575227418
 21
76.1166334885407
 31
0.0
  0
LINE
  5
   538
  8
0
  6
CONTINUOUS
 62
     3
 10
-355.468578419246
 20
74.1916374601487
 30
0.0
 11
-369.031078188278
 21
74.1916374601487
 31
0.0
  0
LINE
  5
   539
  8
0
  6
CONTINUOUS
 62
     3
 10
-370.781078158476
 20
74.1916374601487
 30
0.0
 11
-384.34357525722
 21
74.1916374601487
 31
0.0
  0
LINE
  5
   53A
  8
0
  6
CONTINUOUS
 62
     3
 10
-386.093575227418
 20
74.1916374601487
 30
0.0
 11
-400.837415143309
 21
74.1916374601487
 31
0.0
  0
INSERT
  5
   53B
  8
0
  6
CONTINUOUS
 62
     7
  2
*UDIM534
 10
0.0
 20
0.0
 30
0.0
  0
INSERT
  5
   53C
  8
0
  6
CONTINUOUS
 62
     7
  2
*UDIM535
 10
0.0
 20
0.0
 30
0.0
  0
TEXT
  5
   53D
  8
0
  6
CONTINUOUS
 62
     3
 10
-404.954835891265
 20
112.671995437193
 30
0.0
 40
2.99999997871263
  1
=     =
 50
89.9999999480344
 41
0.91666663951344
 72
     2
 11
-404.954835874328
 21
131.371994767066
 31
0.0
  0
INSERT
  5
   53E
  8
0
  6
CONTINUOUS
 62
     7
  2
*UDIM536
 10
0.0
 20
0.0
 30
0.0
  0
INSERT
  5
   53F
  8
0
  6
CONTINUOUS
 62
     7
  2
*UDIM537
 10
0.0
 20
0.0
 30
0.0
  0
INSERT
  5
   540
  8
0
  6
CONTINUOUS
 62
     7
  2
*UDIM538
 10
0.0
 20
0.0
 30
0.0
  0
INSERT
  5
   541
  8
0
  6
CONTINUOUS
 62
     7
  2
*UDIM539
 10
0.0
 20
0.0
 30
0.0
  0
INSERT
  5
   542
  8
0
  6
CONTINUOUS
 62
     7
  2
*UDIM540
 10
0.0
 20
0.0
 30
0.0
  0
INSERT
  5
   543
  8
0
  6
CONTINUOUS
 62
     7
  2
*UDIM541
 10
0.0
 20
0.0
 30
0.0
  0
INSERT
  5
   544
  8
0
  6
CONTINUOUS
 62
     7
  2
*UDIM542
 10
0.0
 20
0.0
 30
0.0
  0
LINE
  5
   545
  8
0
  6
CONTINUOUS
 62
     7
 10
-492.900390625
 20
-39.2522888183594
 30
0.0
 11
-459.150390625
 21
-39.2522888183594
 31
0.0
  0
LINE
  5
   546
  8
0
  6
CONTINUOUS
 62
     7
 10
-492.900390625
 20
-7.75228881835938
 30
0.0
 11
-459.150390625
 21
-7.75228881835938
 31
0.0
  0
LINE
  5
   547
  8
0
  6
CONTINUOUS
 62
     7
 10
-459.150390625
 20
-7.75228881835938
 30
0.0
 11
-459.150390625
 21
-28.3147888183594
 31
0.0
  0
LINE
  5
   548
  8
0
  6
CONTINUOUS
 62
     7
 10
-492.900390625
 20
-7.75228881835938
 30
0.0
 11
-492.900390625
 21
-39.2522888183594
 31
0.0
  0
LINE
  5
   549
  8
0
  6
DASHDOT
 62
     7
 10
-463.625377171595
 20
-30.3147888183594
 30
0.0
 11
-449.645084225558
 21
-30.3147888183594
 31
0.0
  0
LINE
  5
   54A
  8
0
  6
CONTINUOUS
 62
     7
 10
-459.150390625
 20
-28.3147888183594
 30
0.0
 11
-453.400390625
 21
-28.3147888183594
 31
0.0
  0
LINE
  5
   54B
  8
0
  6
CONTINUOUS
 62
     7
 10
-459.150390625
 20
-32.3147888183594
 30
0.0
 11
-453.400390625
 21
-32.3147888183594
 31
0.0
  0
ARC
  5
   54C
  8
0
  6
CONTINUOUS
 62
     7
 10
-453.400390625
 20
-30.3147888183594
 30
0.0
 40
2.0
 50
269.999999844103
 51
449.999999844103
  0
LINE
  5
   54D
  8
0
  6
CONTINUOUS
 62
     7
 10
-459.150390625
 20
-32.3147888183594
 30
0.0
 11
-459.150390625
 21
-39.2522888183594
 31
0.0
  0
LINE
  5
   54E
  8
0
  6
DASHDOT
 62
     7
 10
-474.900390625
 20
2.12520234249573
 30
0.0
 11
-474.900390625
 21
-46.6474701359108
 31
0.0
  0
CIRCLE
  5
   54F
  8
0
  6
CONTINUOUS
 62
     7
 10
-485.900390625
 20
-5.75228881835938
 30
0.0
 40
0.875
  0
CIRCLE
  5
   550
  8
0
  6
CONTINUOUS
 62
     7
 10
-454.650390625
 20
-5.75228881835938
 30
0.0
 40
1.0
  0
CIRCLE
  5
   551
  8
0
  6
CONTINUOUS
 62
     7
 10
-454.650390625
 20
-23.5022888183594
 30
0.0
 40
1.0
  0
CIRCLE
  5
   552
  8
0
  6
CONTINUOUS
 62
     7
 10
-454.650390625
 20
-41.2522888183594
 30
0.0
 40
0.875
  0
CIRCLE
  5
   553
  8
0
  6
CONTINUOUS
 62
     7
 10
-485.900390625
 20
-41.2522888183594
 30
0.0
 40
1.0
  0
LINE
  5
   554
  8
0
  6
DASHDOT
 62
     7
 10
-485.900390625
 20
-4.12728881835938
 30
0.0
 11
-485.900390625
 21
-7.37728881835938
 31
0.0
  0
LINE
  5
   555
  8
0
  6
DASHDOT
 62
     7
 10
-487.525390625
 20
-5.75228881835938
 30
0.0
 11
-484.275390625
 21
-5.75228881835938
 31
0.0
  0
LINE
  5
   556
  8
0
  6
DASHDOT
 62
     7
 10
-454.650390625
 20
-4.12728881835938
 30
0.0
 11
-454.650390625
 21
-7.37728881835938
 31
0.0
  0
LINE
  5
   557
  8
0
  6
DASHDOT
 62
     7
 10
-456.275390625
 20
-5.75228881835938
 30
0.0
 11
-453.025390625
 21
-5.75228881835938
 31
0.0
  0
LINE
  5
   558
  8
0
  6
DASHDOT
 62
     7
 10
-454.650390625
 20
-21.8772888183594
 30
0.0
 11
-454.650390625
 21
-25.1272888183594
 31
0.0
  0
LINE
  5
   559
  8
0
  6
DASHDOT
 62
     7
 10
-456.275390625
 20
-23.5022888183594
 30
0.0
 11
-453.025390625
 21
-23.5022888183594
 31
0.0
  0
LINE
  5
   55A
  8
0
  6
DASHDOT
 62
     7
 10
-454.650390625
 20
-39.6272888183594
 30
0.0
 11
-454.650390625
 21
-42.8772888183594
 31
0.0
  0
LINE
  5
   55B
  8
0
  6
DASHDOT
 62
     7
 10
-456.275390625
 20
-41.2522888183594
 30
0.0
 11
-453.025390625
 21
-41.2522888183594
 31
0.0
  0
LINE
  5
   55C
  8
0
  6
DASHDOT
 62
     7
 10
-485.900390625
 20
-39.6272888183594
 30
0.0
 11
-485.900390625
 21
-42.8772888183594
 31
0.0
  0
LINE
  5
   55D
  8
0
  6
DASHDOT
 62
     7
 10
-487.525390625
 20
-41.2522888183594
 30
0.0
 11
-484.275390625
 21
-41.2522888183594
 31
0.0
  0
LINE
  5
   55E
  8
0
  6
CONTINUOUS
 62
     7
 10
-498.824949702393
 20
-2.75228881835938
 30
0.0
 11
-449.23789122713
 21
-2.75228881835938
 31
0.0
  0
LINE
  5
   55F
  8
0
  6
CONTINUOUS
 62
     7
 10
-499.458361033281
 20
-44.2522888183594
 30
0.0
 11
-448.78545456221
 21
-44.2522888183594
 31
0.0
  0
LINE
  5
   560
  8
0
  6
CONTINUOUS
 62
     7
 10
-449.650390625
 20
-1.92224377076258
 30
0.0
 11
-449.650390625
 21
-45.1751889371417
 31
0.0
  0
LINE
  5
   561
  8
0
  6
CONTINUOUS
 62
     7
 10
-497.900390625
 20
-1.92224377076258
 30
0.0
 11
-497.900390625
 21
-45.763356601538
 31
0.0
  0
POINT
  5
   562
  8
0
  6
CONTINUOUS
 62
     7
 10
-451.400390625
 20
-30.4397888183594
 30
0.0
  0
LINE
  5
   563
  8
0
  6
DASHDOT
 62
     7
 10
-502.361115388144
 20
-23.5022888183594
 30
0.0
 11
-446.907662324863
 21
-23.5022888183594
 31
0.0
  0
CIRCLE
  5
   564
  8
0
  6
CONTINUOUS
 62
     7
 10
-469.275390625
 20
-5.37728881835938
 30
0.0
 40
0.5
  0
CIRCLE
  5
   565
  8
0
  6
CONTINUOUS
 62
     7
 10
-480.525390625
 20
-5.37728881835938
 30
0.0
 40
0.5
  0
CIRCLE
  5
   566
  8
0
  6
CONTINUOUS
 62
     7
 10
-469.275390625
 20
-5.37728881835938
 30
0.0
 40
0.92
  0
CIRCLE
  5
   567
  8
0
  6
CONTINUOUS
 62
     7
 10
-480.525390625
 20
-5.37728881835938
 30
0.0
 40
0.92
  0
LINE
  5
   568
  8
0
  6
DASHDOT
 62
     7
 10
-469.275390625
 20
-3.70728881835937
 30
0.0
 11
-469.275390625
 21
-7.04728881835937
 31
0.0
  0
LINE
  5
   569
  8
0
  6
DASHDOT
 62
     7
 10
-470.945390625
 20
-5.37728881835938
 30
0.0
 11
-467.605390625
 21
-5.37728881835938
 31
0.0
  0
LINE
  5
   56A
  8
0
  6
DASHDOT
 62
     7
 10
-480.525390625
 20
-3.70728881835937
 30
0.0
 11
-480.525390625
 21
-7.04728881835937
 31
0.0
  0
LINE
  5
   56B
  8
0
  6
DASHDOT
 62
     7
 10
-482.195390625
 20
-5.37728881835938
 30
0.0
 11
-478.855390625
 21
-5.37728881835938
 31
0.0
  0
LINE
  5
   56C
  8
0
  6
CONTINUOUS
 62
     7
 10
-447.55792705285
 20
-7.03665831126455
 30
0.0
 11
-447.55792705285
 21
-15.3360989686813
 31
0.0
  0
LINE
  5
   56D
  8
0
  6
CONTINUOUS
 62
     7
 10
-444.958102268599
 20
-7.03665831126455
 30
0.0
 11
-444.958102268599
 21
-15.3360989686813
 31
0.0
  0
LINE
  5
   56E
  8
0
  6
CONTINUOUS
 62
     7
 10
-447.55792705285
 20
-7.03665831126455
 30
0.0
 11
-444.958102268599
 21
-7.03665831126455
 31
0.0
  0
LINE
  5
   56F
  8
0
  6
CONTINUOUS
 62
     7
 10
-447.55792705285
 20
-15.3360989686813
 30
0.0
 11
-444.958102268599
 21
-15.3360989686813
 31
0.0
  0
LINE
  5
   570
  8
0
  6
CONTINUOUS
 62
     7
 10
-447.55792705285
 20
-39.9679193254542
 30
0.0
 11
-444.958102268599
 21
-39.9679193254542
 31
0.0
  0
LINE
  5
   571
  8
0
  6
CONTINUOUS
 62
     7
 10
-444.958102268599
 20
-31.6684786680374
 30
0.0
 11
-444.958102268599
 21
-39.9679193254542
 31
0.0
  0
LINE
  5
   572
  8
0
  6
CONTINUOUS
 62
     7
 10
-447.55792705285
 20
-31.6684786680374
 30
0.0
 11
-444.958102268599
 21
-31.6684786680374
 31
0.0
  0
LINE
  5
   573
  8
0
  6
CONTINUOUS
 62
     7
 10
-447.55792705285
 20
-31.6684786680374
 30
0.0
 11
-447.55792705285
 21
-39.9679193254542
 31
0.0
  0
LINE
  5
   574
  8
0
  6
DASHDOT
 62
     7
 10
-446.258014660725
 20
-2.63695483022435
 30
0.0
 11
-446.258014660725
 21
-59.0831506267515
 31
0.0
  0
INSERT
  5
   575
  8
0
  6
CONTINUOUS
 62
     7
  2
*UDIM543
 10
0.0
 20
0.0
 30
0.0
  0
INSERT
  5
   576
  8
0
  6
CONTINUOUS
 62
     7
  2
*UDIM544
 10
0.0
 20
0.0
 30
0.0
  0
INSERT
  5
   577
  8
0
  6
CONTINUOUS
 62
     7
  2
*UDIM545
 10
0.0
 20
0.0
 30
0.0
  0
INSERT
  5
   578
  8
0
  6
CONTINUOUS
 62
     7
  2
*UDIM546
 10
0.0
 20
0.0
 30
0.0
  0
INSERT
  5
   579
  8
0
  6
CONTINUOUS
 62
     7
  2
*UDIM547
 10
0.0
 20
0.0
 30
0.0
  0
INSERT
  5
   57A
  8
0
  6
CONTINUOUS
 62
     7
  2
*UDIM548
 10
0.0
 20
0.0
 30
0.0
  0
INSERT
  5
   57B
  8
0
  6
CONTINUOUS
 62
     7
  2
*UDIM549
 10
0.0
 20
0.0
 30
0.0
  0
TEXT
  5
   57C
  8
0
  6
CONTINUOUS
 62
     7
 10
-500.421519216673
 20
-32.6927544425874
 30
0.0
 40
3.00000002980232
  1
=     =
 50
449.999999844103
 41
0.916666604744064
 72
     2
 11
-500.421519165909
 21
-13.9927555244117
 31
0.0
  0
INSERT
  5
   57D
  8
0
  6
CONTINUOUS
 62
     7
  2
*UDIM550
 10
0.0
 20
0.0
 30
0.0
  0
INSERT
  5
   57E
  8
0
  6
CONTINUOUS
 62
     7
  2
*UDIM551
 10
0.0
 20
0.0
 30
0.0
  0
INSERT
  5
   57F
  8
0
  6
CONTINUOUS
 62
     7
  2
*UDIM552
 10
0.0
 20
0.0
 30
0.0
  0
INSERT
  5
   580
  8
0
  6
CONTINUOUS
 62
     7
  2
*UDIM553
 10
0.0
 20
0.0
 30
0.0
  0
INSERT
  5
   581
  8
0
  6
CONTINUOUS
 62
     7
  2
*UDIM554
 10
0.0
 20
0.0
 30
0.0
  0
INSERT
  5
   582
  8
0
  6
CONTINUOUS
 62
     7
  2
*UDIM555
 10
0.0
 20
0.0
 30
0.0
  0
INSERT
  5
   583
  8
0
  6
CONTINUOUS
 62
     7
  2
*UDIM556
 10
0.0
 20
0.0
 30
0.0
  0
INSERT
  5
   584
  8
0
  6
CONTINUOUS
 62
     7
  2
*UDIM557
 10
0.0
 20
0.0
 30
0.0
  0
INSERT
  5
   585
  8
0
  6
CONTINUOUS
 62
     7
  2
*UDIM558
 10
0.0
 20
0.0
 30
0.0
  0
INSERT
  5
   586
  8
0
  6
CONTINUOUS
 62
     7
  2
*UDIM559
 10
0.0
 20
0.0
 30
0.0
  0
INSERT
  5
   587
  8
0
  6
CONTINUOUS
 62
     7
  2
*UDIM560
 10
0.0
 20
0.0
 30
0.0
  0
TEXT
  5
   588
  8
0
  6
CONTINUOUS
 62
     7
 10
-475.706215272449
 20
-68.1325417256305
 30
0.0
 40
3.00000002980232
  1
Y
 50
359.999999844103
 41
0.916666604744064
 72
     2
 11
-473.50621540358
 21
-68.1325417316054
 31
0.0
  0
TEXT
  5
   589
  8
0
  6
CONTINUOUS
 62
     7
 10
-480.401817451023
 20
10.6907767558149
 30
0.0
 40
3.00000002980232
  1
Y
 50
359.999999844103
 41
0.916666604744064
 72
     2
 11
-478.201817582153
 21
10.6907767498399
 31
0.0
  0
TEXT
  5
   58A
  8
0
  6
CONTINUOUS
 62
     7
 10
-422.398532758259
 20
-24.2066115832278
 30
0.0
 40
3.00000002980232
  1
X
 50
359.999999844103
 41
0.916666604744064
 72
     2
 11
-420.198532889389
 21
-24.2066115892028
 31
0.0
  0
TEXT
  5
   58B
  8
0
  6
CONTINUOUS
 62
     7
 10
-517.564273725056
 20
-25.2695279812762
 30
0.0
 40
3.00000002980232
  1
X
 50
359.999999844103
 41
0.916666604744064
 72
     2
 11
-515.364273856186
 21
-25.2695279872512
 31
0.0
  0
LINE
  5
   58C
  8
0
  6
CONTINUOUS
 62
     7
 10
-541.855895996094
 20
-5.04373434356852
 30
0.0
 11
-541.855895996094
 21
-28.9602558297713
 31
0.0
  0
LINE
  5
   58D
  8
0
  6
CONTINUOUS
 62
     7
 10
-543.855895996094
 20
-5.04373434356852
 30
0.0
 11
-543.855895996094
 21
-28.9602558297713
 31
0.0
  0
LINE
  5
   58E
  8
0
  6
DASHDOT
 62
     7
 10
-547.058499098491
 20
-17.0019950866699
 30
0.0
 11
-538.632279906053
 21
-17.0019950866699
 31
0.0
  0
POINT
  5
   58F
  8
0
  6
CONTINUOUS
 62
     7
 10
-543.855895996094
 20
-15.0019950866699
 30
0.0
  0
POINT
  5
   590
  8
0
  6
CONTINUOUS
 62
     7
 10
-543.855895996094
 20
-19.0019950866699
 30
0.0
  0
LINE
  5
   591
  8
0
  6
CONTINUOUS
 62
     7
 10
-541.855895996094
 20
-13.3237958243154
 30
0.0
 11
-543.855895996094
 21
-15.0019950866699
 31
0.0
  0
LINE
  5
   592
  8
0
  6
CONTINUOUS
 62
     7
 10
-543.855895996094
 20
-19.0019950866699
 30
0.0
 11
-541.855895996094
 21
-20.6801943490245
 31
0.0
  0
LINE
  5
   593
  8
0
  6
CONTINUOUS
 62
     7
 10
-543.855895996094
 20
-26.5019950866699
 30
0.0
 11
-541.855895996094
 21
-26.5019950866699
 31
0.0
  0
CIRCLE
  5
   594
  8
0
  6
CONTINUOUS
 62
     7
 10
-542.855895996094
 20
-17.0019950866699
 30
0.0
 40
12.0
  0
LINE
  5
   595
  8
0
  6
CONTINUOUS
 62
     7
 10
-549.855888366699
 20
-21.5019950866699
 30
0.0
 11
-547.355888366699
 21
-21.5019950866699
 31
0.0
  0
LINE
  5
   596
  8
0
  6
CONTINUOUS
 62
     7
 10
-546.355888366699
 20
-12.5019950866699
 30
0.0
 11
-546.355888366699
 21
-20.5019950866699
 31
0.0
  0
LINE
  5
   597
  8
0
  6
CONTINUOUS
 62
     7
 10
-546.355888366699
 20
-12.5019950866699
 30
0.0
 11
-543.855895996094
 21
-12.5019950866699
 31
0.0
  0
LINE
  5
   598
  8
0
  6
CONTINUOUS
 62
     7
 10
-549.855888366699
 20
-24.0019950866699
 30
0.0
 11
-547.355888366699
 21
-24.0019950866699
 31
0.0
  0
LINE
  5
   599
  8
0
  6
CONTINUOUS
 62
     7
 10
-550.855888366699
 20
-25.0019950866699
 30
0.0
 11
-550.855888366699
 21
-25.9462738206011
 31
0.0
  0
ARC
  5
   59A
  8
0
  6
CONTINUOUS
 62
     7
 10
-547.355884219419
 20
-20.5019957580086
 30
0.0
 40
0.999996977799109
 50
629.999840735313
 51
720.000252836193
  0
ARC
  5
   59B
  8
0
  6
CONTINUOUS
 62
     7
 10
-549.855873713193
 20
-25.0020077729744
 30
0.0
 40
3.50001845311552
 50
450.000186734275
 51
513.408761128067
  0
ARC
  5
   59C
  8
0
  6
CONTINUOUS
 62
     7
 10
-549.855932614849
 20
-25.0019541918875
 30
0.0
 40
0.999949821243504
 50
449.997764042825
 51
540.001169660043
  0
ARC
  5
   59D
  8
0
  6
CONTINUOUS
 62
     7
 10
-547.355869014318
 20
-20.5020271336042
 30
0.0
 40
3.49997105594423
 50
629.999653243441
 51
720.000420168909
  0
INSERT
  5
   59E
  8
0
  6
CONTINUOUS
 62
     7
  2
*HATCH99
 10
-542.855895996094
 20
-17.0019950866699
 30
0.0
 50
269.999999844103
  0
INSERT
  5
   59F
  8
0
  6
CONTINUOUS
 62
     7
  2
*HATCH100
 10
-542.855895996094
 20
-17.0019950866699
 30
0.0
 50
269.999999844103
  0
TEXT
  5
   5A0
  8
0
  6
CONTINUOUS
 62
     7
 10
-555.243491738394
 20
-43.8500061634705
 30
0.0
 40
4.00000017881393
  1
PART. Z
 50
359.999999844103
 41
0.915624995566905
 72
     1
 11
-542.7909912467
 21
-41.8500061078831
 31
0.0
 73
     2
  0
INSERT
  5
   5A1
  8
0
  6
CONTINUOUS
 62
     7
  2
*UDIM561
 10
0.0
 20
0.0
 30
0.0
  0
INSERT
  5
   5A2
  8
0
  6
CONTINUOUS
 62
     7
  2
*UDIM562
 10
0.0
 20
0.0
 30
0.0
  0
LINE
  5
   5A3
  8
0
  6
DASHDOT
 62
     3
 10
-456.548341930366
 20
122.054125320989
 30
0.0
 11
-547.332221985153
 21
122.054125320989
 31
0.0
  0
LINE
  5
   5A4
  8
0
  6
CONTINUOUS
 62
     5
 10
-482.132926779985
 20
166.766608537811
 30
0.0
 11
-516.607920852303
 21
166.766608537811
 31
0.0
  0
LINE
  5
   5A5
  8
0
  6
CONTINUOUS
 62
     5
 10
-516.957920846343
 20
157.666620655661
 30
0.0
 11
-516.957920846343
 21
166.416608543771
 31
0.0
  0
ARC
  5
   5A6
  8
0
  6
CONTINUOUS
 62
     5
 10
-516.607920852303
 20
166.416608543771
 30
0.0
 40
0.349999994039536
 50
89.9999999480344
 51
179.999999948034
  0
LINE
  5
   5A7
  8
0
  6
CONTINUOUS
 62
     5
 10
-516.607920852303
 20
157.316620661622
 30
0.0
 11
-516.607920852303
 21
157.666620655661
 31
0.0
  0
LINE
  5
   5A8
  8
0
  6
CONTINUOUS
 62
     5
 10
-516.607920852303
 20
157.666620655661
 30
0.0
 11
-516.957920846343
 21
157.666620655661
 31
0.0
  0
LINE
  5
   5A9
  8
0
  6
CONTINUOUS
 62
     5
 10
-482.132926446199
 20
76.1166327256015
 30
0.0
 11
-516.607920852303
 21
76.1166327256015
 31
0.0
  0
LINE
  5
   5AA
  8
0
  6
CONTINUOUS
 62
     5
 10
-516.957920846343
 20
76.466632719641
 30
0.0
 11
-516.957920846343
 21
85.0416272330334
 31
0.0
  0
ARC
  5
   5AB
  8
0
  6
CONTINUOUS
 62
     5
 10
-516.607920852303
 20
76.466632719641
 30
0.0
 40
0.349999994039536
 50
179.999999948034
 51
269.999999948034
  0
LINE
  5
   5AC
  8
0
  6
CONTINUOUS
 62
     5
 10
-516.607920852303
 20
85.0416272330334
 30
0.0
 11
-516.957920846343
 21
85.0416272330334
 31
0.0
  0
LINE
  5
   5AD
  8
0
  6
CONTINUOUS
 62
     5
 10
-516.607920852303
 20
85.0416272330334
 30
0.0
 11
-516.607920852303
 21
85.3916272270729
 31
0.0
  0
LINE
  5
   5AE
  8
0
  6
CONTINUOUS
 62
     2
 10
-482.132894736366
 20
150.841592787284
 30
0.0
 11
-482.132894736366
 21
158.056711072614
 31
0.0
  0
LINE
  5
   5AF
  8
0
  6
CONTINUOUS
 62
     7
 10
-506.107915690541
 20
157.141592679996
 30
0.0
 11
-507.33291566968
 21
157.141592679996
 31
0.0
  0
LINE
  5
   5B0
  8
0
  6
CONTINUOUS
 62
     7
 10
-506.10787830626
 20
151.016589732579
 30
0.0
 11
-506.10787830626
 21
157.141589628271
 31
0.0
  0
LINE
  5
   5B1
  8
0
  6
CONTINUOUS
 62
     7
 10
-482.132916098833
 20
151.716592772383
 30
0.0
 11
-483.532916074991
 21
151.716592772383
 31
0.0
  0
LINE
  5
   5B2
  8
0
  6
CONTINUOUS
 62
     7
 10
-483.532916964959
 20
151.716588328617
 30
0.0
 11
-483.532950521623
 21
164.911608783012
 31
0.0
  0
LINE
  5
   5B3
  8
0
  6
CONTINUOUS
 62
     2
 10
-481.957926782965
 20
150.841592787284
 30
0.0
 11
-482.132916098833
 21
150.841592787284
 31
0.0
  0
LINE
  5
   5B4
  8
0
  6
CONTINUOUS
 62
     2
 10
-481.432926791906
 20
156.441592691916
 30
0.0
 11
-482.132926779985
 21
156.441592691916
 31
0.0
  0
LINE
  5
   5B5
  8
0
  6
CONTINUOUS
 62
     2
 10
-481.432926791906
 20
160.291592626351
 30
0.0
 11
-482.132926779985
 21
160.291592626351
 31
0.0
  0
LINE
  5
   5B6
  8
0
  6
CONTINUOUS
 62
     2
 10
-481.432926791906
 20
159.35066857011
 30
0.0
 11
-482.132926779985
 21
159.35066857011
 31
0.0
  0
LINE
  5
   5B7
  8
0
  6
CONTINUOUS
 62
     2
 10
-481.432926791906
 20
158.056711072614
 30
0.0
 11
-482.132926779985
 21
158.056711072614
 31
0.0
  0
LINE
  5
   5B8
  8
0
  6
CONTINUOUS
 62
     7
 10
-507.33291566968
 20
156.966599305278
 30
0.0
 11
-507.33291566968
 21
157.316604639893
 31
0.0
  0
LINE
  5
   5B9
  8
0
  6
CONTINUOUS
 62
     7
 10
-515.102914469242
 20
157.316604639893
 30
0.0
 11
-515.207915535569
 21
157.316604639893
 31
0.0
  0
LINE
  5
   5BA
  8
0
  6
CONTINUOUS
 62
     7
 10
-506.282915687561
 20
156.96660998643
 30
0.0
 11
-507.33291566968
 21
156.96660998643
 31
0.0
  0
LINE
  5
   5BB
  8
0
  6
CONTINUOUS
 62
     7
 10
-506.282915687561
 20
148.391603510159
 30
0.0
 11
-506.282915687561
 21
156.96660998643
 31
0.0
  0
LINE
  5
   5BC
  8
0
  6
CONTINUOUS
 62
     7
 10
-515.102903788089
 20
148.391603510159
 30
0.0
 11
-515.102903788089
 21
157.316600260419
 31
0.0
  0
LINE
  5
   5BD
  8
0
  6
CONTINUOUS
 62
     2
 10
-482.132894736366
 20
164.911608783012
 30
0.0
 11
-515.102919809818
 21
164.911608783012
 31
0.0
  0
LINE
  5
   5BE
  8
0
  6
CONTINUOUS
 62
     2
 10
-515.102882425781
 20
157.316602228055
 30
0.0
 11
-515.102882425781
 21
164.911606371174
 31
0.0
  0
LINE
  5
   5BF
  8
0
  6
CONTINUOUS
 62
     7
 10
-507.33291566968
 20
157.316609980469
 30
0.0
 11
-507.33291566968
 21
164.911608783012
 31
0.0
  0
LINE
  5
   5C0
  8
0
  6
CONTINUOUS
 62
     7
 10
-516.957920846343
 20
97.9916323530725
 30
0.0
 11
-516.957920846343
 21
99.3915963337602
 31
0.0
  0
LINE
  5
   5C1
  8
0
  6
CONTINUOUS
 62
     7
 10
-516.957920846343
 20
148.391603510159
 30
0.0
 11
-516.957920846343
 21
157.316620661622
 31
0.0
  0
LINE
  5
   5C2
  8
0
  6
CONTINUOUS
 62
     7
 10
-515.207920876145
 20
157.316620661622
 30
0.0
 11
-516.957920846343
 21
157.316620661622
 31
0.0
  0
LINE
  5
   5C3
  8
0
  6
CONTINUOUS
 62
     7
 10
-515.207920876145
 20
97.9916323530725
 30
0.0
 11
-516.957920846343
 21
97.9916323530725
 31
0.0
  0
LINE
  5
   5C4
  8
0
  6
CONTINUOUS
 62
   218
 10
-482.132926446199
 20
77.971632426982
 30
0.0
 11
-515.102919476032
 21
77.971632426982
 31
0.0
  0
LINE
  5
   5C5
  8
0
  6
CONTINUOUS
 62
   218
 10
-515.102922279394
 20
86.7916272029176
 30
0.0
 11
-515.20792087583
 21
86.7916284353389
 31
0.0
  0
LINE
  5
   5C6
  8
0
  6
CONTINUOUS
 62
   218
 10
-515.102925150394
 20
85.3916272270729
 30
0.0
 11
-516.607920852303
 21
85.3916272270729
 31
0.0
  0
LINE
  5
   5C7
  8
0
  6
CONTINUOUS
 62
   218
 10
-515.102925150394
 20
77.9716337621261
 30
0.0
 11
-515.102925150394
 21
86.7916325438071
 31
0.0
  0
LINE
  5
   5C8
  8
0
  6
CONTINUOUS
 62
   218
 10
-515.102925150394
 20
86.7916325438071
 30
0.0
 11
-515.102925150394
 21
97.991597692746
 31
0.0
  0
LINE
  5
   5C9
  8
0
  6
CONTINUOUS
 62
     7
 10
-515.102925150394
 20
97.6416323590328
 30
0.0
 11
-515.207920876145
 21
97.6416323590328
 31
0.0
  0
LINE
  5
   5CA
  8
0
  6
CONTINUOUS
 62
   218
 10
-481.432926791793
 20
88.8916271678146
 30
0.0
 11
-482.13292644607
 21
88.8916325083907
 31
0.0
  0
LINE
  5
   5CB
  8
0
  6
CONTINUOUS
 62
   218
 10
-482.132926446199
 20
76.1166327256015
 30
0.0
 11
-482.132926446199
 21
88.8916271674684
 31
0.0
  0
LINE
  5
   5CC
  8
0
  6
CONTINUOUS
 62
   218
 10
-481.432926791906
 20
85.1291272315433
 30
0.0
 11
-482.132926779985
 21
85.1291272315433
 31
0.0
  0
LINE
  5
   5CD
  8
0
  6
CONTINUOUS
 62
   218
 10
-481.432926791906
 20
82.0779703335072
 30
0.0
 11
-482.132926779985
 21
82.0779703335072
 31
0.0
  0
LINE
  5
   5CE
  8
0
  6
CONTINUOUS
 62
   218
 10
-481.432926791906
 20
82.9365163374867
 30
0.0
 11
-482.132926779985
 21
82.9365163374867
 31
0.0
  0
LINE
  5
   5CF
  8
0
  6
CONTINUOUS
 62
     7
 10
-515.207920876145
 20
97.8166323560527
 30
0.0
 11
-516.957920846343
 21
97.8166323560527
 31
0.0
  0
LINE
  5
   5D0
  8
0
  6
CONTINUOUS
 62
     7
 10
-515.207920876145
 20
85.5666325646689
 30
0.0
 11
-516.957920846343
 21
85.5666325646689
 31
0.0
  0
LINE
  5
   5D1
  8
0
  6
CONTINUOUS
 62
     7
 10
-516.957920846343
 20
85.5666325646689
 30
0.0
 11
-516.957920846343
 21
97.8166323560527
 31
0.0
  0
LINE
  5
   5D2
  8
0
  6
CONTINUOUS
 62
     7
 10
-516.257920858264
 20
85.5666325646689
 30
0.0
 11
-516.257920858264
 21
97.8166323560527
 31
0.0
  0
LINE
  5
   5D3
  8
0
  6
CONTINUOUS
 62
     7
 10
-515.207920876145
 20
85.5666325646689
 30
0.0
 11
-515.207920876145
 21
97.8166323560527
 31
0.0
  0
LINE
  5
   5D4
  8
0
  6
CONTINUOUS
 62
     2
 10
-482.132894736366
 20
159.35066857011
 30
0.0
 11
-482.132894736366
 21
166.766608537811
 31
0.0
  0
LINE
  5
   5D5
  8
0
  6
CONTINUOUS
 62
     7
 10
-481.432926791906
 20
156.441592691916
 30
0.0
 11
-481.432926791906
 21
160.291592626351
 31
0.0
  0
LINE
  5
   5D6
  8
0
  6
CONTINUOUS
 62
     7
 10
-481.432926791906
 20
82.0779703335067
 30
0.0
 11
-481.432926791906
 21
85.1291272315428
 31
0.0
  0
LINE
  5
   5D7
  8
0
  6
CONTINUOUS
 62
     7
 10
-464.8079110533
 20
109.891593484658
 30
0.0
 11
-465.507911827976
 21
109.891593484658
 31
0.0
  0
LINE
  5
   5D8
  8
0
  6
CONTINUOUS
 62
     7
 10
-464.8079110533
 20
112.341588102359
 30
0.0
 11
-465.507912117774
 21
112.341588102359
 31
0.0
  0
LINE
  5
   5D9
  8
0
  6
CONTINUOUS
 62
     7
 10
-481.432926791906
 20
77.9716154573141
 30
0.0
 11
-481.432926791906
 21
83.2915992782296
 31
0.0
  0
LINE
  5
   5DA
  8
0
  6
CONTINUOUS
 62
     3
 10
-464.282911062241
 20
100.791604320782
 30
0.0
 11
-464.8079110533
 21
100.791604320782
 31
0.0
  0
LINE
  5
   5DB
  8
0
  6
CONTINUOUS
 62
     3
 10
-464.282911062241
 20
94.8416044221103
 30
0.0
 11
-464.8079110533
 21
94.8416044221103
 31
0.0
  0
LINE
  5
   5DC
  8
0
  6
CONTINUOUS
 62
     3
 10
-464.282911062241
 20
90.9916044876754
 30
0.0
 11
-464.8079110533
 21
90.9916044876754
 31
0.0
  0
LINE
  5
   5DD
  8
0
  6
CONTINUOUS
 62
     3
 10
-464.282911062241
 20
151.891603450555
 30
0.0
 11
-464.8079110533
 21
151.891603450555
 31
0.0
  0
LINE
  5
   5DE
  8
0
  6
CONTINUOUS
 62
     3
 10
-464.282911062241
 20
148.04160351612
 30
0.0
 11
-464.8079110533
 21
148.04160351612
 31
0.0
  0
LINE
  5
   5DF
  8
0
  6
CONTINUOUS
 62
     3
 10
-464.282911062241
 20
142.091603617448
 30
0.0
 11
-464.8079110533
 21
142.091603617448
 31
0.0
  0
LINE
  5
   5E0
  8
0
  6
CONTINUOUS
 62
     3
 10
-464.8079110533
 20
147.691608862656
 30
0.0
 11
-464.8079110533
 21
151.891603450555
 31
0.0
  0
LINE
  5
   5E1
  8
0
  6
CONTINUOUS
 62
     3
 10
-464.8079110533
 20
100.441657732504
 30
0.0
 11
-464.8079110533
 21
142.441619633215
 31
0.0
  0
LINE
  5
   5E2
  8
0
  6
CONTINUOUS
 62
     3
 10
-464.8079110533
 20
90.9916044876754
 30
0.0
 11
-464.8079110533
 21
95.1916578219107
 31
0.0
  0
LINE
  5
   5E3
  8
0
  6
CONTINUOUS
 62
     3
 10
-464.282911062241
 20
90.9916044876754
 30
0.0
 11
-464.282911062241
 21
95.1916257784542
 31
0.0
  0
LINE
  5
   5E4
  8
0
  6
CONTINUOUS
 62
     3
 10
-464.282911062241
 20
100.441620348471
 30
0.0
 11
-464.282911062241
 21
142.441571568031
 31
0.0
  0
LINE
  5
   5E5
  8
0
  6
CONTINUOUS
 62
     3
 10
-464.282911062241
 20
147.691582159776
 30
0.0
 11
-464.282911062241
 21
151.891603450555
 31
0.0
  0
LINE
  5
   5E6
  8
0
  6
DASHDOT
 62
     7
 10
-464.107911065221
 20
100.441631029623
 30
0.0
 11
-464.107911065221
 21
142.441608952063
 31
0.0
  0
LINE
  5
   5E7
  8
0
  6
DASHDOT
 62
     7
 10
-464.107911065221
 20
64.8728382510523
 30
0.0
 11
-464.107911065221
 21
95.1916311190303
 31
0.0
  0
LINE
  5
   5E8
  8
0
  6
DASHDOT
 62
     7
 10
-464.107911065221
 20
147.691608862656
 30
0.0
 11
-464.107911065221
 21
176.329380066525
 31
0.0
  0
LINE
  5
   5E9
  8
0
  6
DASHDOT
 62
     7
 10
-463.057911083102
 20
66.2841038943275
 30
0.0
 11
-463.057911083102
 21
176.481553976977
 31
0.0
  0
LINE
  5
   5EA
  8
0
  6
CONTINUOUS
 62
     7
 10
-465.519088498138
 20
176.124861597986
 30
0.0
 11
-461.646209141476
 21
176.686148461271
 31
0.0
  0
LINE
  5
   5EB
  8
0
  6
CONTINUOUS
 62
     7
 10
-465.569347739361
 20
65.0477043097079
 30
0.0
 11
-461.820399523688
 21
66.8933403543468
 31
0.0
  0
LINE
  5
   5EC
  8
0
  6
DASHDOT
 62
     7
 10
-459.624900053442
 20
145.06660890736
 30
0.0
 11
-470.383227108749
 21
145.06660890736
 31
0.0
  0
LINE
  5
   5ED
  8
0
  6
DASHDOT
 62
     7
 10
-459.82230054987
 20
97.8166097120225
 30
0.0
 11
-471.17282909446
 21
97.8166097120225
 31
0.0
  0
LINE
  5
   5EE
  8
0
  6
CONTINUOUS
 62
   130
 10
-526.757886634046
 20
103.241592266026
 30
0.0
 11
-526.757904658491
 21
104.641601588192
 31
0.0
  0
LINE
  5
   5EF
  8
0
  6
CONTINUOUS
 62
   130
 10
-526.757904658434
 20
99.3915936659057
 30
0.0
 11
-526.757887301562
 21
100.791588301488
 31
0.0
  0
LINE
  5
   5F0
  8
0
  6
CONTINUOUS
 62
   130
 10
-480.732926658234
 20
99.391552305366
 30
0.0
 11
-481.432926646314
 21
99.3915963651187
 31
0.0
  0
LINE
  5
   5F1
  8
0
  6
CONTINUOUS
 62
   130
 10
-483.18293210268
 20
99.3915963337602
 30
0.0
 11
-525.007904687524
 21
99.3915963337602
 31
0.0
  0
LINE
  5
   5F2
  8
0
  6
CONTINUOUS
 62
   130
 10
-465.507916381955
 20
148.391603510159
 30
0.0
 11
-480.732932144403
 21
148.391603510159
 31
0.0
  0
LINE
  5
   5F3
  8
0
  6
CONTINUOUS
 62
   130
 10
-465.50791638152
 20
99.3915082143211
 30
0.0
 11
-480.732926803392
 21
99.391552274073
 31
0.0
  0
LINE
  5
   5F4
  8
0
  6
CONTINUOUS
 62
   130
 10
-465.507916381905
 20
99.3915082142853
 30
0.0
 11
-465.507911041329
 21
103.241584251929
 31
0.0
  0
LINE
  5
   5F5
  8
0
  6
CONTINUOUS
 62
     7
 10
-495.08291053772
 20
137.19160904147
 30
0.0
 11
-526.757904657722
 21
137.19160904147
 31
0.0
  0
LINE
  5
   5F6
  8
0
  6
CONTINUOUS
 62
     7
 10
-495.08291053772
 20
126.691590528268
 30
0.0
 11
-526.757904657722
 21
126.691590528268
 31
0.0
  0
LINE
  5
   5F7
  8
0
  6
CONTINUOUS
 62
   130
 10
-526.75788730085
 20
100.791588299055
 30
0.0
 11
-526.757886633278
 21
103.241592262764
 31
0.0
  0
LINE
  5
   5F8
  8
0
  6
CONTINUOUS
 62
   130
 10
-480.732932144403
 20
148.391603510159
 30
0.0
 11
-526.757904657722
 21
148.391603510159
 31
0.0
  0
LINE
  5
   5F9
  8
0
  6
CONTINUOUS
 62
   130
 10
-526.757904657722
 20
137.19160904147
 30
0.0
 11
-526.757904657722
 21
148.391603510159
 31
0.0
  0
LINE
  5
   5FA
  8
0
  6
CONTINUOUS
 62
     7
 10
-490.970431969943
 20
100.791609661387
 30
0.0
 11
-482.132926779869
 21
100.791625683115
 31
0.0
  0
LINE
  5
   5FB
  8
0
  6
CONTINUOUS
 62
     7
 10
-505.276660364112
 20
100.791601650498
 30
0.0
 11
-492.370431946208
 21
100.791609661362
 31
0.0
  0
LINE
  5
   5FC
  8
0
  6
CONTINUOUS
 62
     7
 10
-525.357866629954
 20
100.791589634202
 30
0.0
 11
-506.676659672703
 21
100.791601650498
 31
0.0
  0
LINE
  5
   5FD
  8
0
  6
CONTINUOUS
 62
     7
 10
-525.357863292095
 20
102.366592277668
 30
0.0
 11
-506.676659005131
 21
102.366604293964
 31
0.0
  0
LINE
  5
   5FE
  8
0
  6
CONTINUOUS
 62
     7
 10
-505.276659028968
 20
102.366605629108
 30
0.0
 11
-492.37042927592
 21
102.366613639972
 31
0.0
  0
LINE
  5
   5FF
  8
0
  6
CONTINUOUS
 62
     7
 10
-490.970429299759
 20
102.366614975116
 30
0.0
 11
-482.132926779972
 21
102.366620315692
 31
0.0
  0
LINE
  5
   600
  8
0
  6
CONTINUOUS
 62
     7
 10
-525.35786662997
 20
100.791589634248
 30
0.0
 11
-525.357863959682
 21
102.366592277714
 31
0.0
  0
LINE
  5
   601
  8
0
  6
CONTINUOUS
 62
     7
 10
-482.132926779985
 20
100.791625683087
 30
0.0
 11
-482.132926779985
 21
102.366620315689
 31
0.0
  0
LINE
  5
   602
  8
0
  6
CONTINUOUS
 62
     7
 10
-490.970431970021
 20
100.791609661413
 30
0.0
 11
-490.970429299733
 21
102.366622986031
 31
0.0
  0
LINE
  5
   603
  8
0
  6
CONTINUOUS
 62
     7
 10
-492.370431946182
 20
100.791609661408
 30
0.0
 11
-492.370429275894
 21
102.366621650882
 31
0.0
  0
LINE
  5
   604
  8
0
  6
CONTINUOUS
 62
     7
 10
-505.276660364117
 20
100.791601650508
 30
0.0
 11
-505.276659028973
 21
102.366613639982
 31
0.0
  0
LINE
  5
   605
  8
0
  6
CONTINUOUS
 62
     7
 10
-506.676659672704
 20
100.791601650507
 30
0.0
 11
-506.676658337559
 21
102.366612304837
 31
0.0
  0
LINE
  5
   606
  8
0
  6
CONTINUOUS
 62
   130
 10
-515.557905349135
 20
97.991597692746
 30
0.0
 11
-515.557905349135
 21
99.3915976689042
 31
0.0
  0
LINE
  5
   607
  8
0
  6
CONTINUOUS
 62
   130
 10
-514.157905206084
 20
97.991597692746
 30
0.0
 11
-514.157905206084
 21
99.3915976689042
 31
0.0
  0
LINE
  5
   608
  8
0
  6
CONTINUOUS
 62
   130
 10
-514.157905206084
 20
97.991597692746
 30
0.0
 11
-515.557905349135
 21
97.991597692746
 31
0.0
  0
LINE
  5
   609
  8
0
  6
CONTINUOUS
 62
   130
 10
-486.245405347645
 20
97.9916163847623
 30
0.0
 11
-486.245405347645
 21
99.3915909931841
 31
0.0
  0
LINE
  5
   60A
  8
0
  6
CONTINUOUS
 62
   130
 10
-484.845405371487
 20
97.9916163847623
 30
0.0
 11
-484.845405371487
 21
99.3915909931841
 31
0.0
  0
LINE
  5
   60B
  8
0
  6
CONTINUOUS
 62
   130
 10
-484.845405371487
 20
97.9916163847623
 30
0.0
 11
-486.245405347645
 21
97.9916163847623
 31
0.0
  0
LINE
  5
   60C
  8
0
  6
CONTINUOUS
 62
   130
 10
-525.007904687524
 20
97.7290963620724
 30
0.0
 11
-525.007904687524
 21
98.6040963471712
 31
0.0
  0
LINE
  5
   60D
  8
0
  6
CONTINUOUS
 62
   130
 10
-526.757904657722
 20
97.7290963620724
 30
0.0
 11
-526.757904657722
 21
99.3915936634721
 31
0.0
  0
LINE
  5
   60E
  8
0
  6
CONTINUOUS
 62
   130
 10
-525.007904687524
 20
97.7290963620724
 30
0.0
 11
-526.757904657722
 21
97.7290963620724
 31
0.0
  0
LINE
  5
   60F
  8
0
  6
CONTINUOUS
 62
   130
 10
-525.007904687524
 20
98.6040963471712
 30
0.0
 11
-525.007904687524
 21
99.3915963337602
 31
0.0
  0
LINE
  5
   610
  8
0
  6
CONTINUOUS
 62
   130
 10
-483.182937443256
 20
97.7290963620724
 30
0.0
 11
-483.182937443256
 21
98.6040963471712
 31
0.0
  0
LINE
  5
   611
  8
0
  6
CONTINUOUS
 62
   130
 10
-481.432937473058
 20
97.7290963620724
 30
0.0
 11
-483.182937443256
 21
97.7290963620724
 31
0.0
  0
LINE
  5
   612
  8
0
  6
CONTINUOUS
 62
   130
 10
-481.432937472314
 20
97.7290963626573
 30
0.0
 11
-481.432926791162
 21
99.3915963343451
 31
0.0
  0
LINE
  5
   613
  8
0
  6
CONTINUOUS
 62
   130
 10
-483.182937442467
 20
98.6040963478632
 30
0.0
 11
-483.182932101891
 21
99.3915909938761
 31
0.0
  0
LINE
  5
   614
  8
0
  6
CONTINUOUS
 62
     7
 10
-524.307907323908
 20
141.216615012317
 30
0.0
 11
-525.357907329092
 21
142.266615017501
 31
0.0
  0
LINE
  5
   615
  8
0
  6
CONTINUOUS
 62
   130
 10
-526.757904657722
 20
104.641601584929
 30
0.0
 11
-526.757904657722
 21
126.691598539132
 31
0.0
  0
LINE
  5
   616
  8
0
  6
CONTINUOUS
 62
     7
 10
-495.08291053772
 20
126.691590528268
 30
0.0
 11
-495.08291053772
 21
137.19160904147
 31
0.0
  0
LINE
  5
   617
  8
0
  6
CONTINUOUS
 62
     7
 10
-521.332905083895
 20
137.01660904445
 30
0.0
 11
-521.332905083895
 21
137.19160904147
 31
0.0
  0
LINE
  5
   618
  8
0
  6
CONTINUOUS
 62
     7
 10
-490.970431970047
 20
143.754103589146
 30
0.0
 11
-482.132926779972
 21
143.754108929723
 31
0.0
  0
LINE
  5
   619
  8
0
  6
CONTINUOUS
 62
     7
 10
-490.97043197006
 20
141.216603632349
 30
0.0
 11
-490.97043197006
 21
143.754103589135
 31
0.0
  0
LINE
  5
   61A
  8
0
  6
CONTINUOUS
 62
     7
 10
-490.970431970047
 20
141.216603632359
 30
0.0
 11
-482.132926779972
 21
141.216608972935
 31
0.0
  0
LINE
  5
   61B
  8
0
  6
CONTINUOUS
 62
     7
 10
-482.132926779985
 20
141.216608972925
 30
0.0
 11
-482.132926779985
 21
143.754108929711
 31
0.0
  0
LINE
  5
   61C
  8
0
  6
CONTINUOUS
 62
     7
 10
-506.676659672707
 20
141.216608972925
 30
0.0
 11
-506.676659672707
 21
143.754108929711
 31
0.0
  0
LINE
  5
   61D
  8
0
  6
CONTINUOUS
 62
     7
 10
-492.370431946218
 20
141.216608972925
 30
0.0
 11
-506.676660340279
 21
141.216608972925
 31
0.0
  0
LINE
  5
   61E
  8
0
  6
CONTINUOUS
 62
     7
 10
-492.370431946218
 20
141.216608972925
 30
0.0
 11
-492.370431946218
 21
143.754108929711
 31
0.0
  0
LINE
  5
   61F
  8
0
  6
CONTINUOUS
 62
     7
 10
-492.370431946218
 20
143.754108929711
 30
0.0
 11
-506.676660340279
 21
143.754108929711
 31
0.0
  0
LINE
  5
   620
  8
0
  6
CONTINUOUS
 62
     7
 10
-508.076659648866
 20
141.216608972925
 30
0.0
 11
-525.357904013991
 21
141.216608972925
 31
0.0
  0
LINE
  5
   621
  8
0
  6
CONTINUOUS
 62
     7
 10
-508.076659648866
 20
141.216608972925
 30
0.0
 11
-508.076659648866
 21
143.754108929711
 31
0.0
  0
LINE
  5
   622
  8
0
  6
CONTINUOUS
 62
     7
 10
-508.076659648866
 20
143.754108929711
 30
0.0
 11
-525.357904013991
 21
143.754108929711
 31
0.0
  0
LINE
  5
   623
  8
0
  6
CONTINUOUS
 62
     7
 10
-525.357904681564
 20
141.216608972925
 30
0.0
 11
-525.357904681564
 21
143.754108929711
 31
0.0
  0
LINE
  5
   624
  8
0
  6
CONTINUOUS
 62
     7
 10
-521.857905074954
 20
100.791592304486
 30
0.0
 11
-521.857905074954
 21
102.366602958816
 31
0.0
  0
LINE
  5
   625
  8
0
  6
CONTINUOUS
 62
     7
 10
-520.457904097438
 20
100.79159363963
 30
0.0
 11
-520.457904097438
 21
102.366602958816
 31
0.0
  0
LINE
  5
   626
  8
0
  6
CONTINUOUS
 62
     7
 10
-525.357767829302
 20
100.791581623337
 30
0.0
 11
-525.35776716173
 21
102.366592277667
 31
0.0
  0
LINE
  5
   627
  8
0
  6
CONTINUOUS
 62
   130
 10
-526.757904657789
 20
99.3915776419743
 30
0.0
 11
-526.757903322645
 21
99.7416030037502
 31
0.0
  0
LINE
  5
   628
  8
0
  6
CONTINUOUS
 62
   130
 10
-480.732929465559
 20
99.3915549461387
 30
0.0
 11
-481.43292678335
 21
99.3915656272909
 31
0.0
  0
LINE
  5
   629
  8
0
  6
CONTINUOUS
 62
   130
 10
-465.507911041379
 20
103.241584251899
 30
0.0
 11
-465.507916381955
 21
148.391604845304
 31
0.0
  0
LINE
  5
   62A
  8
0
  6
CONTINUOUS
 62
     7
 10
-490.952209924471
 20
100.791604320782
 30
0.0
 11
-490.952209924471
 21
102.366614975113
 31
0.0
  0
LINE
  5
   62B
  8
0
  6
CONTINUOUS
 62
     7
 10
-492.370856522016
 20
100.791588299054
 30
0.0
 11
-492.370856522016
 21
102.366613639968
 31
0.0
  0
LINE
  5
   62C
  8
0
  6
CONTINUOUS
 62
     7
 10
-500.157905110717
 20
137.01660904445
 30
0.0
 11
-526.757904657722
 21
137.01660904445
 31
0.0
  0
LINE
  5
   62D
  8
0
  6
CONTINUOUS
 62
     7
 10
-500.157905110717
 20
126.691590528268
 30
0.0
 11
-500.157905110717
 21
137.01660904445
 31
0.0
  0
LINE
  5
   62E
  8
0
  6
CONTINUOUS
 62
     7
 10
-526.757904657722
 20
126.691598539132
 30
0.0
 11
-526.757904657722
 21
137.01660904445
 31
0.0
  0
LINE
  5
   62F
  8
0
  6
CONTINUOUS
 62
   150
 10
-526.757891973854
 20
103.679108277041
 30
0.0
 11
-530.607908597589
 21
103.679108277041
 31
0.0
  0
LINE
  5
   630
  8
0
  6
CONTINUOUS
 62
   150
 10
-526.757904657722
 20
140.429125008064
 30
0.0
 11
-530.607908597589
 21
140.429125008064
 31
0.0
  0
LINE
  5
   631
  8
0
  6
CONTINUOUS
 62
   150
 10
-532.533010188329
 20
103.853917811383
 30
0.0
 11
-532.532910052524
 21
103.854642794598
 31
0.0
  0
LINE
  5
   632
  8
0
  6
CONTINUOUS
 62
     7
 10
-524.307863309981
 20
100.79159898021
 30
0.0
 11
-524.307863977553
 21
102.366601623676
 31
0.0
  0
LINE
  5
   633
  8
0
  6
CONTINUOUS
 62
     7
 10
-482.132926779985
 20
141.741608963984
 30
0.0
 11
-490.970426629483
 21
141.741608963984
 31
0.0
  0
LINE
  5
   634
  8
0
  6
CONTINUOUS
 62
     7
 10
-492.37042927593
 20
141.741608963984
 30
0.0
 11
-506.676656334847
 21
141.741608963984
 31
0.0
  0
LINE
  5
   635
  8
0
  6
CONTINUOUS
 62
     7
 10
-508.076656311006
 20
141.741608963984
 30
0.0
 11
-524.307904699445
 21
141.741608963984
 31
0.0
  0
LINE
  5
   636
  8
0
  6
CONTINUOUS
 62
     7
 10
-524.570403434141
 20
141.479114596485
 30
0.0
 11
-524.307903432845
 21
141.741614597781
 31
0.0
  0
LINE
  5
   637
  8
0
  6
CONTINUOUS
 62
     7
 10
-524.307904699445
 20
141.741608963984
 30
0.0
 11
-524.307904699445
 21
143.754108929711
 31
0.0
  0
CIRCLE
  5
   638
  8
0
  6
CONTINUOUS
 62
   130
 10
-522.55793373652
 20
121.441587371257
 30
0.0
 40
3.49999695973229
  0
CIRCLE
  5
   639
  8
0
  6
CONTINUOUS
 62
   130
 10
-522.55793069364
 20
121.441585274844
 30
0.0
 40
0.962501397983491
  0
CIRCLE
  5
   63A
  8
0
  6
CONTINUOUS
 62
   130
 10
-472.68291382513
 20
140.341581358766
 30
0.0
 40
2.10002360565626
  0
CIRCLE
  5
   63B
  8
0
  6
CONTINUOUS
 62
   130
 10
-472.682927469553
 20
140.341596949412
 30
0.0
 40
1.13750330518346
  0
CIRCLE
  5
   63C
  8
0
  6
CONTINUOUS
 62
   130
 10
-472.682928291283
 20
105.341599356915
 30
0.0
 40
2.10000079410038
  0
CIRCLE
  5
   63D
  8
0
  6
CONTINUOUS
 62
   130
 10
-472.682924895113
 20
105.34160233973
 30
0.0
 40
1.1375029235037
  0
LINE
  5
   63E
  8
0
  6
DASHDOT
 62
     7
 10
-472.68291382513
 20
137.89155775907
 30
0.0
 11
-472.68291382513
 21
142.791604958461
 31
0.0
  0
LINE
  5
   63F
  8
0
  6
DASHDOT
 62
     7
 10
-470.232890225435
 20
140.341581358766
 30
0.0
 11
-475.132937424826
 21
140.341581358766
 31
0.0
  0
LINE
  5
   640
  8
0
  6
DASHDOT
 62
     7
 10
-472.682928291283
 20
102.891598568775
 30
0.0
 11
-472.682928291283
 21
107.791600145055
 31
0.0
  0
LINE
  5
   641
  8
0
  6
DASHDOT
 62
     7
 10
-470.232927503143
 20
105.341599356915
 30
0.0
 11
-475.132929079423
 21
105.341599356915
 31
0.0
  0
LINE
  5
   642
  8
0
  6
CONTINUOUS
 62
     7
 10
-481.957926782965
 20
148.391603510159
 30
0.0
 11
-481.957926782965
 21
150.841592787284
 31
0.0
  0
LINE
  5
   643
  8
0
  6
CONTINUOUS
 62
     7
 10
-530.607909932733
 20
70.0900112907712
 30
0.0
 11
-530.607909932733
 21
96.1540603400059
 31
0.0
  0
LINE
  5
   644
  8
0
  6
CONTINUOUS
 62
     7
 10
-531.307909920812
 20
69.9720337646905
 30
0.0
 11
-531.307909920812
 21
103.679108277041
 31
0.0
  0
LINE
  5
   645
  8
0
  6
CONTINUOUS
 62
     7
 10
-533.126648270436
 20
69.6655048293605
 30
0.0
 11
-528.587496124323
 21
70.4305304719639
 31
0.0
  0
LINE
  5
   646
  8
0
  6
CONTINUOUS
 62
     7
 10
-528.995509800378
 20
163.304643484015
 30
0.0
 11
-532.157615789805
 21
164.171672545632
 31
0.0
  0
LINE
  5
   647
  8
0
  6
CONTINUOUS
 62
     7
 10
-531.307909920812
 20
140.429125008064
 30
0.0
 11
-531.307909920812
 21
163.938688678327
 31
0.0
  0
LINE
  5
   648
  8
0
  6
DASHDOT
 62
     7
 10
-522.55793373652
 20
117.591590417485
 30
0.0
 11
-522.55793373652
 21
125.291584325029
 31
0.0
  0
LINE
  5
   649
  8
0
  6
DASHDOT
 62
     7
 10
-518.707936782749
 20
121.441587371257
 30
0.0
 11
-526.407930690292
 21
121.441587371257
 31
0.0
  0
LINE
  5
   64A
  8
0
  6
CONTINUOUS
 62
     7
 10
-527.807908645272
 20
110.24163086273
 30
0.0
 11
-527.807908645272
 21
114.791558687467
 31
0.0
  0
LINE
  5
   64B
  8
0
  6
CONTINUOUS
 62
     1
 10
-531.307908585668
 20
93.8790597111769
 30
0.0
 11
-531.307908585668
 21
150.229058751542
 31
0.0
  0
LINE
  5
   64C
  8
0
  6
CONTINUOUS
 62
     1
 10
-531.307908585668
 20
93.8790597111769
 30
0.0
 11
-532.532908564806
 21
93.8790597111769
 31
0.0
  0
LINE
  5
   64D
  8
0
  6
CONTINUOUS
 62
     1
 10
-532.532908564806
 20
93.8790597111769
 30
0.0
 11
-532.532908564806
 21
109.541559444446
 31
0.0
  0
LINE
  5
   64E
  8
0
  6
CONTINUOUS
 62
     1
 10
-532.532908564806
 20
115.491558675546
 30
0.0
 11
-532.532908564806
 21
150.229060754258
 31
0.0
  0
LINE
  5
   64F
  8
0
  6
CONTINUOUS
 62
     1
 10
-531.307908585668
 20
150.229060754258
 30
0.0
 11
-532.532908564806
 21
150.229060754258
 31
0.0
  0
LINE
  5
   650
  8
0
  6
CONTINUOUS
 62
     1
 10
-530.607908597589
 20
123.104061216194
 30
0.0
 11
-530.607908597589
 21
145.854060828764
 31
0.0
  0
LINE
  5
   651
  8
0
  6
CONTINUOUS
 62
     1
 10
-530.607908597589
 20
114.791561357755
 30
0.0
 11
-530.607908597589
 21
121.004063922245
 31
0.0
  0
LINE
  5
   652
  8
0
  6
CONTINUOUS
 62
     7
 10
-529.032908624411
 20
96.3561330523239
 30
0.0
 11
-529.032908624411
 21
98.0519875919251
 31
0.0
  0
LINE
  5
   653
  8
0
  6
CONTINUOUS
 62
     7
 10
-529.032908624411
 20
146.056132205938
 30
0.0
 11
-529.032908624411
 21
147.751989415827
 31
0.0
  0
LINE
  5
   654
  8
0
  6
CONTINUOUS
 62
     7
 10
-529.032908624411
 20
121.206132629131
 30
0.0
 11
-529.032908624411
 21
122.901987168732
 31
0.0
  0
LINE
  5
   655
  8
0
  6
CONTINUOUS
 62
     1
 10
-532.182908570767
 20
109.541558776874
 30
0.0
 11
-532.532908564806
 21
109.541558776874
 31
0.0
  0
LINE
  5
   656
  8
0
  6
CONTINUOUS
 62
     1
 10
-532.182908570767
 20
115.491558675546
 30
0.0
 11
-532.532908564806
 21
115.491558675546
 31
0.0
  0
LINE
  5
   657
  8
0
  6
CONTINUOUS
 62
     3
 10
-532.532908564806
 20
109.891558770914
 30
0.0
 11
-532.532908564806
 21
115.141558681507
 31
0.0
  0
LINE
  5
   658
  8
0
  6
CONTINUOUS
 62
     7
 10
-532.182908570767
 20
109.891558770914
 30
0.0
 11
-532.532908564806
 21
109.891558770914
 31
0.0
  0
LINE
  5
   659
  8
0
  6
CONTINUOUS
 62
     7
 10
-532.182908570767
 20
108.491558794756
 30
0.0
 11
-532.182908570767
 21
109.891558770914
 31
0.0
  0
LINE
  5
   65A
  8
0
  6
CONTINUOUS
 62
     7
 10
-531.832908576727
 20
108.491558794756
 30
0.0
 11
-532.182908570767
 21
108.491558794756
 31
0.0
  0
LINE
  5
   65B
  8
0
  6
CONTINUOUS
 62
     7
 10
-531.832908576727
 20
108.491558794756
 30
0.0
 11
-531.832908576727
 21
116.541558657665
 31
0.0
  0
LINE
  5
   65C
  8
0
  6
CONTINUOUS
 62
     7
 10
-531.832908576727
 20
116.541558657665
 30
0.0
 11
-532.182908570767
 21
116.541558657665
 31
0.0
  0
LINE
  5
   65D
  8
0
  6
CONTINUOUS
 62
     7
 10
-532.182908570767
 20
115.141558681507
 30
0.0
 11
-532.182908570767
 21
116.541558657665
 31
0.0
  0
LINE
  5
   65E
  8
0
  6
CONTINUOUS
 62
     7
 10
-532.182908570767
 20
115.141558681507
 30
0.0
 11
-532.532908564806
 21
115.141558681507
 31
0.0
  0
LINE
  5
   65F
  8
0
  6
CONTINUOUS
 62
     7
 10
-527.807908645272
 20
110.24163086273
 30
0.0
 11
-531.307908585668
 21
110.24163086273
 31
0.0
  0
LINE
  5
   660
  8
0
  6
CONTINUOUS
 62
     7
 10
-527.807908645272
 20
114.791558687467
 30
0.0
 11
-531.307908585668
 21
114.791558687467
 31
0.0
  0
LINE
  5
   661
  8
0
  6
CONTINUOUS
 62
     1
 10
-532.532908564806
 20
109.541561447162
 30
0.0
 11
-532.532908564806
 21
109.891558770914
 31
0.0
  0
LINE
  5
   662
  8
0
  6
CONTINUOUS
 62
     1
 10
-532.532908564806
 20
115.141558681507
 30
0.0
 11
-532.532908564806
 21
115.491561345834
 31
0.0
  0
LINE
  5
   663
  8
0
  6
CONTINUOUS
 62
     7
 10
-529.38290861845
 20
96.1540603400059
 30
0.0
 11
-531.307908585668
 21
96.1540603400059
 31
0.0
  0
LINE
  5
   664
  8
0
  6
CONTINUOUS
 62
     7
 10
-529.38290861845
 20
98.2540603042431
 30
0.0
 11
-531.307908585668
 21
98.2540603042431
 31
0.0
  0
LINE
  5
   665
  8
0
  6
CONTINUOUS
 62
     7
 10
-529.38290861845
 20
98.17413457776
 30
0.0
 11
-529.38290861845
 21
98.2540603042431
 31
0.0
  0
LINE
  5
   666
  8
0
  6
CONTINUOUS
 62
     7
 10
-529.38290861845
 20
97.946523230623
 30
0.0
 11
-529.38290861845
 21
98.17413457776
 31
0.0
  0
LINE
  5
   667
  8
0
  6
CONTINUOUS
 62
     7
 10
-529.38290861845
 20
97.6058785907333
 30
0.0
 11
-529.38290861845
 21
97.946523230623
 31
0.0
  0
LINE
  5
   668
  8
0
  6
CONTINUOUS
 62
     7
 10
-529.38290861845
 20
97.2040603221245
 30
0.0
 11
-529.38290861845
 21
97.6058785907333
 31
0.0
  0
LINE
  5
   669
  8
0
  6
CONTINUOUS
 62
     7
 10
-529.38290861845
 20
96.8022433886598
 30
0.0
 11
-529.38290861845
 21
97.2040603221245
 31
0.0
  0
LINE
  5
   66A
  8
0
  6
CONTINUOUS
 62
     7
 10
-529.38290861845
 20
96.46159874877
 30
0.0
 11
-529.38290861845
 21
96.8022433886598
 31
0.0
  0
LINE
  5
   66B
  8
0
  6
CONTINUOUS
 62
     7
 10
-529.38290861845
 20
96.233987401633
 30
0.0
 11
-529.38290861845
 21
96.46159874877
 31
0.0
  0
LINE
  5
   66C
  8
0
  6
CONTINUOUS
 62
     7
 10
-529.38290861845
 20
96.1540603400059
 30
0.0
 11
-529.38290861845
 21
96.233987401633
 31
0.0
  0
LINE
  5
   66D
  8
0
  6
CONTINUOUS
 62
     7
 10
-529.382908198937
 20
96.1540600509404
 30
0.0
 11
-529.032908193373
 21
96.3561327520787
 31
0.0
  0
LINE
  5
   66E
  8
0
  6
CONTINUOUS
 62
     7
 10
-529.03290787085
 20
98.0519869611287
 30
0.0
 11
-529.382907876415
 21
98.254059662267
 31
0.0
  0
LINE
  5
   66F
  8
0
  6
CONTINUOUS
 62
     7
 10
-529.38290861845
 20
145.854060828764
 30
0.0
 11
-531.307908585668
 21
145.854060828764
 31
0.0
  0
LINE
  5
   670
  8
0
  6
CONTINUOUS
 62
     7
 10
-529.38290861845
 20
147.954060793001
 30
0.0
 11
-531.307908585668
 21
147.954060793001
 31
0.0
  0
LINE
  5
   671
  8
0
  6
CONTINUOUS
 62
     7
 10
-529.38290861845
 20
147.874133731374
 30
0.0
 11
-529.38290861845
 21
147.954060793001
 31
0.0
  0
LINE
  5
   672
  8
0
  6
CONTINUOUS
 62
     7
 10
-529.38290861845
 20
147.646523719381
 30
0.0
 11
-529.38290861845
 21
147.874133731374
 31
0.0
  0
LINE
  5
   673
  8
0
  6
CONTINUOUS
 62
     7
 10
-529.38290861845
 20
147.305875074059
 30
0.0
 11
-529.38290861845
 21
147.646523719381
 31
0.0
  0
LINE
  5
   674
  8
0
  6
CONTINUOUS
 62
     7
 10
-529.38290861845
 20
146.904060810883
 30
0.0
 11
-529.38290861845
 21
147.305875074059
 31
0.0
  0
LINE
  5
   675
  8
0
  6
CONTINUOUS
 62
     7
 10
-529.38290861845
 20
146.50224120713
 30
0.0
 11
-529.38290861845
 21
146.904060810883
 31
0.0
  0
LINE
  5
   676
  8
0
  6
CONTINUOUS
 62
     7
 10
-529.38290861845
 20
146.161597902384
 30
0.0
 11
-529.38290861845
 21
146.50224120713
 31
0.0
  0
LINE
  5
   677
  8
0
  6
CONTINUOUS
 62
     7
 10
-529.38290861845
 20
145.933987890391
 30
0.0
 11
-529.38290861845
 21
146.161597902384
 31
0.0
  0
LINE
  5
   678
  8
0
  6
CONTINUOUS
 62
     7
 10
-529.38290861845
 20
145.854060828764
 30
0.0
 11
-529.38290861845
 21
145.933987890391
 31
0.0
  0
LINE
  5
   679
  8
0
  6
CONTINUOUS
 62
     7
 10
-529.382908681945
 20
145.854060077967
 30
0.0
 11
-529.032908676381
 21
146.056131457675
 31
0.0
  0
LINE
  5
   67A
  8
0
  6
CONTINUOUS
 62
     7
 10
-529.032908109965
 20
147.751988528988
 30
0.0
 11
-529.382908115529
 21
147.954059908695
 31
0.0
  0
LINE
  5
   67B
  8
0
  6
CONTINUOUS
 62
     7
 10
-529.38290861845
 20
121.004061251957
 30
0.0
 11
-531.307908585668
 21
121.004061251957
 31
0.0
  0
LINE
  5
   67C
  8
0
  6
CONTINUOUS
 62
     7
 10
-529.38290861845
 20
123.104061216194
 30
0.0
 11
-531.307908585668
 21
123.104061216194
 31
0.0
  0
LINE
  5
   67D
  8
0
  6
CONTINUOUS
 62
     7
 10
-529.38290861845
 20
123.024134154567
 30
0.0
 11
-529.38290861845
 21
123.104061216194
 31
0.0
  0
LINE
  5
   67E
  8
0
  6
CONTINUOUS
 62
     7
 10
-529.38290861845
 20
122.796521472286
 30
0.0
 11
-529.38290861845
 21
123.024134154567
 31
0.0
  0
LINE
  5
   67F
  8
0
  6
CONTINUOUS
 62
     7
 10
-529.38290861845
 20
122.45587816754
 30
0.0
 11
-529.38290861845
 21
122.796521472286
 31
0.0
  0
LINE
  5
   680
  8
0
  6
CONTINUOUS
 62
     7
 10
-529.38290861845
 20
122.054061234076
 30
0.0
 11
-529.38290861845
 21
122.45587816754
 31
0.0
  0
LINE
  5
   681
  8
0
  6
CONTINUOUS
 62
     7
 10
-529.38290861845
 20
121.652241630323
 30
0.0
 11
-529.38290861845
 21
122.054061234076
 31
0.0
  0
LINE
  5
   682
  8
0
  6
CONTINUOUS
 62
     7
 10
-529.38290861845
 20
121.311598325577
 30
0.0
 11
-529.38290861845
 21
121.652241630323
 31
0.0
  0
LINE
  5
   683
  8
0
  6
CONTINUOUS
 62
     7
 10
-529.38290861845
 20
121.083985643296
 30
0.0
 11
-529.38290861845
 21
121.311598325577
 31
0.0
  0
LINE
  5
   684
  8
0
  6
CONTINUOUS
 62
     7
 10
-529.38290861845
 20
121.004061251957
 30
0.0
 11
-529.38290861845
 21
121.083985643296
 31
0.0
  0
LINE
  5
   685
  8
0
  6
CONTINUOUS
 62
     7
 10
-529.382908570844
 20
121.00406082188
 30
0.0
 11
-529.03290856528
 21
121.206132201588
 31
0.0
  0
LINE
  5
   686
  8
0
  6
CONTINUOUS
 62
     7
 10
-529.032908064551
 20
122.901986380816
 30
0.0
 11
-529.382908070115
 21
123.104060427478
 31
0.0
  0
LINE
  5
   687
  8
0
  6
CONTINUOUS
 62
     7
 10
-530.607909932733
 20
98.4290603012629
 30
0.0
 11
-531.307908585668
 21
98.4290603012629
 31
0.0
  0
LINE
  5
   688
  8
0
  6
CONTINUOUS
 62
     7
 10
-530.607909932733
 20
95.9790603429862
 30
0.0
 11
-531.307908585668
 21
95.9790603429862
 31
0.0
  0
LINE
  5
   689
  8
0
  6
CONTINUOUS
 62
     7
 10
-530.607909932733
 20
98.2540603042431
 30
0.0
 11
-530.607909932733
 21
110.241564105529
 31
0.0
  0
LINE
  5
   68A
  8
0
  6
CONTINUOUS
 62
     7
 10
-530.607908597589
 20
109.891630868691
 30
0.0
 11
-531.307908585668
 21
109.891630868691
 31
0.0
  0
LINE
  5
   68B
  8
0
  6
CONTINUOUS
 62
     7
 10
-530.607908597589
 20
115.141558681507
 30
0.0
 11
-531.307908585668
 21
115.141558681507
 31
0.0
  0
LINE
  5
   68C
  8
0
  6
CONTINUOUS
 62
     7
 10
-530.607908597589
 20
123.279061213214
 30
0.0
 11
-531.307908585668
 21
123.279061213214
 31
0.0
  0
LINE
  5
   68D
  8
0
  6
CONTINUOUS
 62
     7
 10
-530.607908597589
 20
120.829061254937
 30
0.0
 11
-531.307908585668
 21
120.829061254937
 31
0.0
  0
LINE
  5
   68E
  8
0
  6
CONTINUOUS
 62
     7
 10
-530.607909932733
 20
147.954060793001
 30
0.0
 11
-530.607909932733
 21
163.746753197725
 31
0.0
  0
LINE
  5
   68F
  8
0
  6
CONTINUOUS
 62
     7
 10
-530.607909932733
 20
148.129060790021
 30
0.0
 11
-531.307908585668
 21
148.129060790021
 31
0.0
  0
LINE
  5
   690
  8
0
  6
CONTINUOUS
 62
     7
 10
-530.607909932733
 20
145.679060831744
 30
0.0
 11
-531.307908585668
 21
145.679060831744
 31
0.0
  0
INSERT
  5
   691
  8
0
  6
CONTINUOUS
 62
     7
  2
*HATCH101
 10
-517.48291015625
 20
83.5586547851563
 30
0.0
 41
0.349999994039536
 42
0.349999994039536
 50
89.9999999480344
 43
0.349999994039536
  0
INSERT
  5
   692
  8
0
  6
CONTINUOUS
 62
     7
  2
*HATCH102
 10
-517.48291015625
 20
83.5586547851563
 30
0.0
 41
0.349999994039536
 42
0.349999994039536
 50
89.9999999480344
 43
0.349999994039536
  0
INSERT
  5
   693
  8
0
  6
CONTINUOUS
 62
     7
  2
*HATCH103
 10
-517.48291015625
 20
83.5586547851563
 30
0.0
 41
0.349999994039536
 42
0.349999994039536
 50
89.9999999480344
 43
0.349999994039536
  0
INSERT
  5
   694
  8
0
  6
CONTINUOUS
 62
     7
  2
*HATCH104
 10
-517.48291015625
 20
83.5586547851563
 30
0.0
 41
0.349999994039536
 42
0.349999994039536
 50
89.9999999480344
 43
0.349999994039536
  0
INSERT
  5
   695
  8
0
  6
CONTINUOUS
 62
     7
  2
*HATCH105
 10
-517.48291015625
 20
83.5586547851563
 30
0.0
 41
0.349999994039536
 42
0.349999994039536
 50
89.9999999480344
 43
0.349999994039536
  0
CIRCLE
  5
   696
  8
0
  6
CONTINUOUS
 62
     7
 10
-531.166725155606
 20
71.7675874008412
 30
0.0
 40
8.74999985098839E-2
  0
LINE
  5
   697
  8
0
  6
CONTINUOUS
 62
     3
 10
-529.38290861845
 20
140.429125008064
 30
0.0
 11
-529.38290861845
 21
142.879124966341
 31
0.0
  0
LINE
  5
   698
  8
0
  6
CONTINUOUS
 62
     3
 10
-528.682908630371
 20
140.429125008064
 30
0.0
 11
-528.682908630371
 21
142.879124966341
 31
0.0
  0
LINE
  5
   699
  8
0
  6
CONTINUOUS
 62
     3
 10
-528.682908630371
 20
142.879124966341
 30
0.0
 11
-529.38290861845
 21
142.879124966341
 31
0.0
  0
LINE
  5
   69A
  8
0
  6
CONTINUOUS
 62
     7
 10
-527.282910656929
 20
140.954124999123
 30
0.0
 11
-528.157912644744
 21
140.954124999123
 31
0.0
  0
LINE
  5
   69B
  8
0
  6
CONTINUOUS
 62
     7
 10
-527.282910656929
 20
140.954124999123
 30
0.0
 11
-527.282910656929
 21
144.629124936539
 31
0.0
  0
LINE
  5
   69C
  8
0
  6
CONTINUOUS
 62
     7
 10
-528.507912638783
 20
145.854124915677
 30
0.0
 11
-529.382912623882
 21
145.854124915677
 31
0.0
  0
LINE
  5
   69D
  8
0
  6
CONTINUOUS
 62
     7
 10
-529.732912617922
 20
147.954060793001
 30
0.0
 11
-529.732912617922
 21
149.004124862033
 31
0.0
  0
LINE
  5
   69E
  8
0
  6
CONTINUOUS
 62
     7
 10
-529.732912617922
 20
149.004124862033
 30
0.0
 11
-530.607909932733
 21
149.004124862033
 31
0.0
  0
LINE
  5
   69F
  8
0
  6
CONTINUOUS
 62
     7
 10
-528.507912638783
 20
144.979124930578
 30
0.0
 11
-529.382912623882
 21
144.979124930578
 31
0.0
  0
LINE
  5
   6A0
  8
0
  6
CONTINUOUS
 62
     7
 10
-528.157912644744
 20
140.954124999123
 30
0.0
 11
-528.157912644744
 21
144.629124936539
 31
0.0
  0
ARC
  5
   6A1
  8
0
  6
CONTINUOUS
 62
     7
 10
-528.507917767511
 20
144.629120496332
 30
0.0
 40
1.2250064377287
 50
360.000319242658
 51
449.999813057862
  0
ARC
  5
   6A2
  8
0
  6
CONTINUOUS
 62
     7
 10
-528.507897151931
 20
144.629139249712
 30
0.0
 40
0.349982431475061
 50
359.998830132094
 51
450.002235749312
  0
ARC
  5
   6A3
  8
0
  6
CONTINUOUS
 62
     7
 10
-529.382919397216
 20
146.20411369329
 30
0.0
 40
1.22498984871903
 50
196.604271282219
 51
270.000346548696
  0
LINE
  5
   6A4
  8
0
  6
CONTINUOUS
 62
     7
 10
-527.282910656929
 20
144.104124945479
 30
0.0
 11
-528.157912644744
 21
144.104124945479
 31
0.0
  0
INSERT
  5
   6A5
  8
0
  6
CONTINUOUS
 62
     7
  2
*HATCH106
 10
-517.48291015625
 20
83.5586547851563
 30
0.0
 41
0.349999994039536
 42
0.349999994039536
 50
89.9999999480344
 43
0.349999994039536
  0
LINE
  5
   6A6
  8
0
  6
DOT
 62
     3
 10
-542.157908400893
 20
103.679108277041
 30
0.0
 11
-542.157908400893
 21
140.429125008064
 31
0.0
  0
LINE
  5
   6A7
  8
0
  6
DOT
 62
     3
 10
-535.573014699722
 20
140.429125008064
 30
0.0
 11
-542.157908400893
 21
140.429125008064
 31
0.0
  0
LINE
  5
   6A8
  8
0
  6
DOT
 62
     3
 10
-536.307965155061
 20
103.679108277041
 30
0.0
 11
-542.157908400893
 21
103.679108277041
 31
0.0
  0
LINE
  5
   6A9
  8
0
  6
CONTINUOUS
 62
     3
 10
-461.657911106944
 20
143.666608931202
 30
0.0
 11
-461.657911106944
 21
146.466608883518
 31
0.0
  0
LINE
  5
   6AA
  8
0
  6
CONTINUOUS
 62
     3
 10
-460.257911130786
 20
144.191608922261
 30
0.0
 11
-460.257911130786
 21
145.941608892459
 31
0.0
  0
LINE
  5
   6AB
  8
0
  6
CONTINUOUS
 62
     3
 10
-461.657911106944
 20
146.466608883518
 30
0.0
 11
-463.057911083102
 21
146.466608883518
 31
0.0
  0
LINE
  5
   6AC
  8
0
  6
CONTINUOUS
 62
     3
 10
-461.657911106944
 20
143.666608931202
 30
0.0
 11
-463.057911083102
 21
143.666608931202
 31
0.0
  0
LINE
  5
   6AD
  8
0
  6
CONTINUOUS
 62
     3
 10
-460.257911130786
 20
145.941608892459
 30
0.0
 11
-463.057911083102
 21
145.941608892459
 31
0.0
  0
LINE
  5
   6AE
  8
0
  6
CONTINUOUS
 62
     3
 10
-460.257911130786
 20
144.191608922261
 30
0.0
 11
-463.057911083102
 21
144.191608922261
 31
0.0
  0
LINE
  5
   6AF
  8
0
  6
CONTINUOUS
 62
     3
 10
-461.657911106944
 20
99.2166096881806
 30
0.0
 11
-463.057911083102
 21
99.2166096881806
 31
0.0
  0
LINE
  5
   6B0
  8
0
  6
CONTINUOUS
 62
     3
 10
-460.257911130786
 20
98.6916096971213
 30
0.0
 11
-463.057911083102
 21
98.6916096971213
 31
0.0
  0
LINE
  5
   6B1
  8
0
  6
CONTINUOUS
 62
     3
 10
-460.257911130786
 20
96.9416097269236
 30
0.0
 11
-463.057911083102
 21
96.9416097269236
 31
0.0
  0
LINE
  5
   6B2
  8
0
  6
CONTINUOUS
 62
     3
 10
-461.657911106944
 20
96.4166097358643
 30
0.0
 11
-463.057911083102
 21
96.4166097358643
 31
0.0
  0
LINE
  5
   6B3
  8
0
  6
CONTINUOUS
 62
     3
 10
-461.657911106944
 20
96.4166097358643
 30
0.0
 11
-461.657911106944
 21
99.2166096881806
 31
0.0
  0
LINE
  5
   6B4
  8
0
  6
CONTINUOUS
 62
     3
 10
-460.257911130786
 20
96.9416097269236
 30
0.0
 11
-460.257911130786
 21
98.6916096971213
 31
0.0
  0
LINE
  5
   6B5
  8
0
  6
CONTINUOUS
 62
     3
 10
-463.057911083102
 20
173.94162443735
 30
0.0
 11
-464.107911065221
 21
173.94162443735
 31
0.0
  0
LINE
  5
   6B6
  8
0
  6
CONTINUOUS
 62
     3
 10
-463.057911083102
 20
151.19162482478
 30
0.0
 11
-464.107911065221
 21
151.19162482478
 31
0.0
  0
LINE
  5
   6B7
  8
0
  6
CONTINUOUS
 62
   210
 10
-481.432925998375
 20
86.7916372702295
 30
0.0
 11
-481.432925998375
 21
97.7290963620724
 31
0.0
  0
LINE
  5
   6B8
  8
0
  6
CONTINUOUS
 62
   210
 10
-481.432931438997
 20
148.391603510159
 30
0.0
 11
-481.432931438997
 21
150.84162483074
 31
0.0
  0
LINE
  5
   6B9
  8
0
  6
CONTINUOUS
 62
   210
 10
-468.482929682731
 20
90.9916285202678
 30
0.0
 11
-468.482929682731
 21
99.3915168237305
 31
0.0
  0
LINE
  5
   6BA
  8
0
  6
CONTINUOUS
 62
   210
 10
-468.482929682731
 20
148.391603510159
 30
0.0
 11
-468.482929682731
 21
151.891624812859
 31
0.0
  0
LINE
  5
   6BB
  8
0
  6
CONTINUOUS
 62
   210
 10
-464.807929745316
 20
109.891622857827
 30
0.0
 11
-465.507911827979
 21
109.891622857827
 31
0.0
  0
LINE
  5
   6BC
  8
0
  6
CONTINUOUS
 62
   210
 10
-464.807929745316
 20
112.341622816103
 30
0.0
 11
-465.507912117778
 21
112.341622816103
 31
0.0
  0
LINE
  5
   6BD
  8
0
  6
CONTINUOUS
 62
   210
 10
-464.807929745316
 20
109.891622857827
 30
0.0
 11
-464.807929745316
 21
112.341622816103
 31
0.0
  0
LINE
  5
   6BE
  8
0
  6
CONTINUOUS
 62
   210
 10
-464.107929757237
 20
142.441630314368
 30
0.0
 11
-464.107929757237
 21
147.691630224961
 31
0.0
  0
LINE
  5
   6BF
  8
0
  6
CONTINUOUS
 62
   210
 10
-464.107929757237
 20
95.1916324541743
 30
0.0
 11
-464.107929757237
 21
100.441632364767
 31
0.0
  0
LINE
  5
   6C0
  8
0
  6
CONTINUOUS
 62
   210
 10
-464.107929757237
 20
147.691630224961
 30
0.0
 11
-465.507916299158
 21
147.691630224961
 31
0.0
  0
LINE
  5
   6C1
  8
0
  6
CONTINUOUS
 62
   210
 10
-464.107929757237
 20
142.441630314368
 30
0.0
 11
-465.507915678161
 21
142.441630314368
 31
0.0
  0
LINE
  5
   6C2
  8
0
  6
CONTINUOUS
 62
   210
 10
-464.107929757237
 20
100.441632364767
 30
0.0
 11
-465.507914925241
 21
100.441632364767
 31
0.0
  0
LINE
  5
   6C3
  8
0
  6
CONTINUOUS
 62
   210
 10
-464.107929757237
 20
95.1916324541743
 30
0.0
 11
-468.482929682731
 21
95.1916324541743
 31
0.0
  0
LINE
  5
   6C4
  8
0
  6
DASHDOT
 62
   210
 10
-470.845429745915
 20
105.341632981118
 30
0.0
 11
-474.520429236793
 21
105.341632981118
 31
0.0
  0
LINE
  5
   6C5
  8
0
  6
DASHDOT
 62
   210
 10
-472.682926755144
 20
107.371159647607
 30
0.0
 11
-472.682926755144
 21
144.235084440945
 31
0.0
  0
LINE
  5
   6C6
  8
0
  6
DASHDOT
 62
   210
 10
-470.845423758685
 20
140.341633161021
 30
0.0
 11
-474.520429751604
 21
140.341633161021
 31
0.0
  0
LINE
  5
   6C7
  8
0
  6
DASHDOT
 62
   210
 10
-461.307551668544
 20
145.066630269664
 30
0.0
 11
-469.790506419448
 21
145.066630269664
 31
0.0
  0
LINE
  5
   6C8
  8
0
  6
DASHDOT
 62
   210
 10
-462.605963110009
 20
97.8166324094708
 30
0.0
 11
-471.132198242295
 21
97.8166324094708
 31
0.0
  0
LINE
  5
   6C9
  8
0
  6
CONTINUOUS
 62
   210
 10
-468.482929682731
 20
149.09163301201
 30
0.0
 11
-481.432925974768
 21
149.09163301201
 31
0.0
  0
LINE
  5
   6CA
  8
0
  6
CONTINUOUS
 62
   210
 10
-468.482929682731
 20
96.5916331301297
 30
0.0
 11
-481.432928038042
 21
96.5916331301297
 31
0.0
  0
LINE
  5
   6CB
  8
0
  6
CONTINUOUS
 62
   210
 10
-464.457924410701
 20
74.1916301415141
 30
0.0
 11
-481.432928775026
 21
74.1916301415141
 31
0.0
  0
LINE
  5
   6CC
  8
0
  6
CONTINUOUS
 62
   210
 10
-464.457924410701
 20
77.9716324804003
 30
0.0
 11
-481.432929462194
 21
77.9716324804003
 31
0.0
  0
LINE
  5
   6CD
  8
0
  6
CONTINUOUS
 62
   210
 10
-464.457924410701
 20
164.911628863591
 30
0.0
 11
-481.432929462194
 21
164.911628863591
 31
0.0
  0
LINE
  5
   6CE
  8
0
  6
CONTINUOUS
 62
   210
 10
-464.457924410701
 20
74.1916301415141
 30
0.0
 11
-464.457924410701
 21
90.9916285202678
 31
0.0
  0
LINE
  5
   6CF
  8
0
  6
CONTINUOUS
 62
   210
 10
-464.457924410701
 20
151.891624812859
 30
0.0
 11
-464.457924410701
 21
168.691624526757
 31
0.0
  0
LINE
  5
   6D0
  8
0
  6
CONTINUOUS
 62
   210
 10
-464.457924410701
 20
90.9916285202678
 30
0.0
 11
-468.482929682731
 21
90.9916285202678
 31
0.0
  0
LINE
  5
   6D1
  8
0
  6
CONTINUOUS
 62
   210
 10
-464.457924410701
 20
151.891624812859
 30
0.0
 11
-468.482929682731
 21
151.891624812859
 31
0.0
  0
LINE
  5
   6D2
  8
0
  6
CONTINUOUS
 62
   210
 10
-457.982929861545
 20
151.891624812859
 30
0.0
 11
-464.457927080989
 21
151.891624812859
 31
0.0
  0
LINE
  5
   6D3
  8
0
  6
CONTINUOUS
 62
   210
 10
-463.932921304223
 20
168.691624526757
 30
0.0
 11
-464.457927080989
 21
168.691624526757
 31
0.0
  0
LINE
  5
   6D4
  8
0
  6
CONTINUOUS
 62
   210
 10
-462.707929781079
 20
151.891624812859
 30
0.0
 11
-462.707929781079
 21
155.648346245464
 31
0.0
  0
LINE
  5
   6D5
  8
0
  6
CONTINUOUS
 62
   210
 10
-462.707958702269
 20
164.934897753586
 30
0.0
 11
-462.707958702269
 21
165.611639532822
 31
0.0
  0
LINE
  5
   6D6
  8
0
  6
CONTINUOUS
 62
   210
 10
-457.982929861545
 20
151.891624812859
 30
0.0
 11
-457.982929861545
 21
161.866613961834
 31
0.0
  0
LINE
  5
   6D7
  8
0
  6
CONTINUOUS
 62
   210
 10
-457.982929860615
 20
90.991618439927
 30
0.0
 11
-464.457927080714
 21
90.9916258499846
 31
0.0
  0
LINE
  5
   6D8
  8
0
  6
CONTINUOUS
 62
   210
 10
-463.93292130434
 20
74.1916260025467
 30
0.0
 11
-464.457927080684
 21
74.1916268036431
 31
0.0
  0
LINE
  5
   6D9
  8
0
  6
CONTINUOUS
 62
   210
 10
-462.707929781079
 20
77.2716017840088
 30
0.0
 11
-462.707929781079
 21
77.9483489038315
 31
0.0
  0
LINE
  5
   6DA
  8
0
  6
CONTINUOUS
 62
   210
 10
-462.707929781079
 20
87.2349000781563
 30
0.0
 11
-462.707929781079
 21
90.9916238472637
 31
0.0
  0
LINE
  5
   6DB
  8
0
  6
CONTINUOUS
 62
   210
 10
-457.982929861545
 20
81.016627354997
 30
0.0
 11
-457.982929861545
 21
90.991618439927
 31
0.0
  0
LINE
  5
   6DC
  8
0
  6
CONTINUOUS
 62
   210
 10
-457.982929861545
 20
155.648346245464
 30
0.0
 11
-462.707929781079
 21
155.648346245464
 31
0.0
  0
LINE
  5
   6DD
  8
0
  6
CONTINUOUS
 62
   210
 10
-457.982929861545
 20
164.934897753575
 30
0.0
 11
-462.707929781079
 21
164.934897753575
 31
0.0
  0
LINE
  5
   6DE
  8
0
  6
CONTINUOUS
 62
   210
 10
-457.982929861545
 20
77.9483489038315
 30
0.0
 11
-462.707929781079
 21
77.9483489038315
 31
0.0
  0
LINE
  5
   6DF
  8
0
  6
CONTINUOUS
 62
   210
 10
-457.982929861545
 20
87.2349000781563
 30
0.0
 11
-462.707929781079
 21
87.2349000781563
 31
0.0
  0
LINE
  5
   6E0
  8
0
  6
DASHDOT
 62
   210
 10
-456.340509278423
 20
160.291624669808
 30
0.0
 11
-483.105576296799
 21
160.291624669808
 31
0.0
  0
LINE
  5
   6E1
  8
0
  6
DASHDOT
 62
   210
 10
-456.003842203713
 20
82.5916198895985
 30
0.0
 11
-483.161688240187
 21
82.5916509693343
 31
0.0
  0
LINE
  5
   6E2
  8
0
  6
CONTINUOUS
 62
   210
 10
-464.457924410699
 20
168.691618956474
 30
0.0
 11
-481.432929462194
 21
168.691618956474
 31
0.0
  0
LINE
  5
   6E3
  8
0
  6
CONTINUOUS
 62
   210
 10
-480.732927805185
 20
150.84162483074
 30
0.0
 11
-481.43292837739
 21
150.84162483074
 31
0.0
  0
LINE
  5
   6E4
  8
0
  6
CONTINUOUS
 62
   210
 10
-480.732927805185
 20
156.091624741333
 30
0.0
 11
-481.43292837739
 21
156.091624741333
 31
0.0
  0
LINE
  5
   6E5
  8
0
  6
CONTINUOUS
 62
   210
 10
-480.732927805185
 20
150.84162483074
 30
0.0
 11
-480.732927805185
 21
156.091624741333
 31
0.0
  0
LINE
  5
   6E6
  8
0
  6
CONTINUOUS
 62
   210
 10
-480.732927721739
 20
164.911612841862
 30
0.0
 11
-480.732927721739
 21
168.691619186181
 31
0.0
  0
LINE
  5
   6E7
  8
0
  6
CONTINUOUS
 62
   210
 10
-480.732927721739
 20
92.0416371808225
 30
0.0
 11
-481.43292837739
 21
92.0416371808225
 31
0.0
  0
LINE
  5
   6E8
  8
0
  6
CONTINUOUS
 62
   210
 10
-480.732927721739
 20
86.7916372702295
 30
0.0
 11
-481.43292837739
 21
86.7916372702295
 31
0.0
  0
LINE
  5
   6E9
  8
0
  6
CONTINUOUS
 62
   210
 10
-480.732927638292
 20
74.1916354820902
 30
0.0
 11
-480.732927638292
 21
77.9716341493304
 31
0.0
  0
LINE
  5
   6EA
  8
0
  6
CONTINUOUS
 62
   210
 10
-480.732927721739
 20
86.7916369364435
 30
0.0
 11
-480.732927721739
 21
92.0416371808225
 31
0.0
  0
LINE
  5
   6EB
  8
0
  6
CONTINUOUS
 62
   210
 10
-481.432929462194
 20
150.84162483074
 30
0.0
 11
-481.432929462194
 21
168.691618956474
 31
0.0
  0
LINE
  5
   6EC
  8
0
  6
CONTINUOUS
 62
   210
 10
-481.432928775026
 20
74.1916301415141
 30
0.0
 11
-481.432928775026
 21
86.7916372702295
 31
0.0
  0
LINE
  5
   6ED
  8
0
  6
CONTINUOUS
 62
     3
 10
-463.057911083102
 20
91.6916278073859
 30
0.0
 11
-464.107911065221
 21
91.6916290090174
 31
0.0
  0
LINE
  5
   6EE
  8
0
  6
DASHDOT
 62
     7
 10
-462.412031724872
 20
160.291477805481
 30
0.0
 11
-471.031631639895
 21
160.291477805481
 31
0.0
  0
LINE
  5
   6EF
  8
0
  6
DASHDOT
 62
     7
 10
-462.412031724872
 20
82.5917635113492
 30
0.0
 11
-471.031631639895
 21
82.5917635113492
 31
0.0
  0
LINE
  5
   6F0
  8
0
  6
CONTINUOUS
 62
     3
 10
-463.057916290172
 20
68.9416281948072
 30
0.0
 11
-464.107916272291
 21
68.9416293964386
 31
0.0
  0
INSERT
  5
   6F1
  8
255
  6
CONTINUOUS
 62
     7
  2
$1DIAFR_POS_LT_
 10
-481.432929462194
 20
83.5586494445802
 30
0.0
 41
0.349999994039536
 42
-0.349999994039536
 50
180.000000207862
 43
0.349999994039536
  0
INSERT
  5
   6F2
  8
255
  6
CONTINUOUS
 62
     7
  2
$1DIAFR_POS_LT_
 10
-481.432929462194
 20
159.32459187225
 30
0.0
 41
0.349999994039536
 42
0.349999994039536
 50
179.999999896069
 43
0.349999994039536
  0
INSERT
  5
   6F3
  8
255
  6
CONTINUOUS
 62
     7
  2
TERM_400_LT_
 10
-481.432929462194
 20
83.5586547851563
 30
0.0
 41
0.349999994039536
 42
-0.349999994039536
 50
180.000000207862
 43
0.349999994039536
  0
POINT
  5
   6F4
  8
0
  6
CONTINUOUS
 62
     7
 10
-457.982929861545
 20
160.291624669808
 30
0.0
  0
INSERT
  5
   6F5
  8
255
  6
CONTINUOUS
 62
     7
  2
TERM_400_LT_
 10
-481.432929462194
 20
159.324594312831
 30
0.0
 41
0.349999994039536
 42
0.349999994039536
 50
179.999999896069
 43
0.349999994039536
  0
INSERT
  5
   6F6
  8
0
  6
CONTINUOUS
 62
     7
  2
*UDIM563
 10
0.0
 20
0.0
 30
0.0
  0
INSERT
  5
   6F7
  8
0
  6
CONTINUOUS
 62
     7
  2
*UDIM564
 10
0.0
 20
0.0
 30
0.0
  0
INSERT
  5
   6F8
  8
0
  6
CONTINUOUS
 62
     7
  2
*UDIM565
 10
0.0
 20
0.0
 30
0.0
  0
TEXT
  5
   6F9
  8
0
  6
CONTINUOUS
 62
     7
 10
-557.711011028772
 20
206.58126476024
 30
0.0
 40
2.4999999335834
  1
INSULATING DISTANCE
 50
359.999999948034
 41
0.899999947857856
 72
     1
 11
-536.561012818219
 21
207.831264707955
 31
0.0
 73
     2
  0
TEXT
  5
   6FA
  8
0
  6
CONTINUOUS
 62
     7
 10
-559.961010991631
 20
203.081264762269
 30
0.0
 40
2.4999999335834
  1
CORSA DI SEZIONAMENTO
 50
359.999999948034
 41
0.899999947857856
 72
     1
 11
-536.561012971209
 21
204.331264707955
 31
0.0
 73
     2
  0
INSERT
  5
   6FB
  8
0
  6
CONTINUOUS
 62
     7
  2
*UDIM566
 10
0.0
 20
0.0
 30
0.0
  0
INSERT
  5
   6FC
  8
0
  6
CONTINUOUS
 62
     7
  2
*UDIM567
 10
0.0
 20
0.0
 30
0.0
  0
INSERT
  5
   6FD
  8
0
  6
CONTINUOUS
 62
     7
  2
*UDIM568
 10
0.0
 20
0.0
 30
0.0
  0
INSERT
  5
   6FE
  8
0
  6
CONTINUOUS
 62
     7
  2
*UDIM569
 10
0.0
 20
0.0
 30
0.0
  0
INSERT
  5
   6FF
  8
0
  6
CONTINUOUS
 62
     7
  2
*UDIM570
 10
0.0
 20
0.0
 30
0.0
  0
TEXT
  5
   700
  8
0
  6
CONTINUOUS
 62
     7
 10
-558.726639488094
 20
120.930801972683
 30
0.0
 40
2.99999997871263
  1
X
 50
359.999999948034
 41
0.91666663951344
 72
     2
 11
-556.526639552382
 21
120.930801970699
 31
0.0
  0
INSERT
  5
   701
  8
0
  6
CONTINUOUS
 62
     7
  2
*UDIM571
 10
0.0
 20
0.0
 30
0.0
  0
TEXT
  5
   702
  8
0
  6
CONTINUOUS
 62
     5
 10
-546.527275364725
 20
111.020082121528
 30
0.0
 40
2.99999997871263
  1
=       =
 50
89.9999999480344
 41
0.91666663951344
 72
     2
 11
-546.527275342807
 21
135.220081249455
 31
0.0
  0
INSERT
  5
   703
  8
0
  6
CONTINUOUS
 62
     7
  2
*UDIM572
 10
0.0
 20
0.0
 30
0.0
  0
INSERT
  5
   704
  8
0
  6
CONTINUOUS
 62
     7
  2
*UDIM573
 10
0.0
 20
0.0
 30
0.0
  0
ENDSEC
  0
EOF
