  0
SECTION
  2
HEADER
  9
$ACADVER
  1
AC1009
  9
$INSBASE
 10
0.0
 20
0.0
 30
0.0
  9
$EXTMIN
 10
0.578269
 20
0.580464
 30
0.0
  9
$EXTMAX
 10
392.578269
 20
263.080464
 30
0.0
  9
$LIMMIN
 10
0.0
 20
0.0
  9
$LIMMAX
 10
12.0
 20
9.0
  9
$ORTHOMODE
 70
     1
  9
$REGENMODE
 70
     1
  9
$FILLMODE
 70
     1
  9
$QTEXTMODE
 70
     0
  9
$MIRRTEXT
 70
     1
  9
$DRAGMODE
 70
     2
  9
$LTSCALE
 40
5.0
  9
$OSMODE
 70
     0
  9
$ATTMODE
 70
     1
  9
$TEXTSIZE
 40
2.5
  9
$TRACEWID
 40
0.05
  9
$TEXTSTYLE
  7
ROMANS
  9
$CLAYER
  8
0
  9
$CELTYPE
  6
DASHED
  9
$CECOLOR
 62
   256
  9
$DIMSCALE
 40
1.0
  9
$DIMASZ
 40
0.18
  9
$DIMEXO
 40
0.0625
  9
$DIMDLI
 40
0.38
  9
$DIMRND
 40
0.0
  9
$DIMDLE
 40
0.0
  9
$DIMEXE
 40
0.18
  9
$DIMTP
 40
0.0
  9
$DIMTM
 40
0.0
  9
$DIMTXT
 40
0.18
  9
$DIMCEN
 40
0.09
  9
$DIMTSZ
 40
0.0
  9
$DIMTOL
 70
     0
  9
$DIMLIM
 70
     0
  9
$DIMTIH
 70
     1
  9
$DIMTOH
 70
     1
  9
$DIMSE1
 70
     0
  9
$DIMSE2
 70
     0
  9
$DIMTAD
 70
     0
  9
$DIMZIN
 70
     0
  9
$DIMBLK
  1

  9
$DIMASO
 70
     1
  9
$DIMSHO
 70
     1
  9
$DIMPOST
  1

  9
$DIMAPOST
  1

  9
$DIMALT
 70
     0
  9
$DIMALTD
 70
     2
  9
$DIMALTF
 40
25.4
  9
$DIMLFAC
 40
1.0
  9
$DIMTOFL
 70
     0
  9
$DIMTVP
 40
0.0
  9
$DIMTIX
 70
     0
  9
$DIMSOXD
 70
     0
  9
$DIMSAH
 70
     0
  9
$DIMBLK1
  1

  9
$DIMBLK2
  1

  9
$DIMSTYLE
  2
*UNNAMED
  9
$DIMCLRD
 70
     0
  9
$DIMCLRE
 70
     0
  9
$DIMCLRT
 70
     0
  9
$DIMTFAC
 40
1.0
  9
$DIMGAP
 40
0.09
  9
$LUNITS
 70
     2
  9
$LUPREC
 70
     4
  9
$SKETCHINC
 40
0.1
  9
$FILLETRAD
 40
0.0
  9
$AUNITS
 70
     0
  9
$AUPREC
 70
     0
  9
$MENU
  1
acad
  9
$ELEVATION
 40
0.0
  9
$PELEVATION
 40
0.0
  9
$THICKNESS
 40
0.0
  9
$LIMCHECK
 70
     0
  9
$BLIPMODE
 70
     1
  9
$CHAMFERA
 40
0.0
  9
$CHAMFERB
 40
0.0
  9
$SKPOLY
 70
     0
  9
$TDCREATE
 40
2449014.675518055
  9
$TDUPDATE
 40
2450016.691550000
  9
$TDINDWG
 40
0.1130809028
  9
$TDUSRTIMER
 40
0.1130809028
  9
$USRTIMER
 70
     1
  9
$ANGBASE
 50
0.0
  9
$ANGDIR
 70
     0
  9
$PDMODE
 70
     0
  9
$PDSIZE
 40
0.0
  9
$PLINEWID
 40
0.0
  9
$COORDS
 70
     2
  9
$SPLFRAME
 70
     0
  9
$SPLINETYPE
 70
     6
  9
$SPLINESEGS
 70
     8
  9
$ATTDIA
 70
     0
  9
$ATTREQ
 70
     1
  9
$HANDLING
 70
     0
  9
$HANDSEED
  5
0
  9
$SURFTAB1
 70
   250
  9
$SURFTAB2
 70
   250
  9
$SURFTYPE
 70
     6
  9
$SURFU
 70
     6
  9
$SURFV
 70
     6
  9
$UCSNAME
  2

  9
$UCSORG
 10
0.0
 20
0.0
 30
0.0
  9
$UCSXDIR
 10
1.0
 20
0.0
 30
0.0
  9
$UCSYDIR
 10
0.0
 20
1.0
 30
0.0
  9
$PUCSNAME
  2

  9
$PUCSORG
 10
0.0
 20
0.0
 30
0.0
  9
$PUCSXDIR
 10
1.0
 20
0.0
 30
0.0
  9
$PUCSYDIR
 10
0.0
 20
1.0
 30
0.0
  9
$USERI1
 70
     0
  9
$USERI2
 70
     0
  9
$USERI3
 70
     0
  9
$USERI4
 70
     0
  9
$USERI5
 70
     0
  9
$USERR1
 40
0.0
  9
$USERR2
 40
0.0
  9
$USERR3
 40
0.0
  9
$USERR4
 40
0.0
  9
$USERR5
 40
0.0
  9
$WORLDVIEW
 70
     1
  9
$SHADEDGE
 70
     3
  9
$SHADEDIF
 70
    70
  9
$TILEMODE
 70
     1
  9
$MAXACTVP
 70
    16
  9
$PINSBASE
 10
0.0
 20
0.0
 30
0.0
  9
$PLIMCHECK
 70
     0
  9
$PEXTMIN
 10
1.000000E+20
 20
1.000000E+20
 30
1.000000E+20
  9
$PEXTMAX
 10
-1.000000E+20
 20
-1.000000E+20
 30
-1.000000E+20
  9
$PLIMMIN
 10
0.0
 20
0.0
  9
$PLIMMAX
 10
12.0
 20
9.0
  9
$UNITMODE
 70
     0
  9
$VISRETAIN
 70
     0
  9
$PLINEGEN
 70
     0
  9
$PSLTSCALE
 70
     0
  9
$TREEDEPTH
 70
  3020
  9
$DWGCODEPAGE
  3
undefined
  0
ENDSEC
  0
SECTION
  2
TABLES
  0
TABLE
  2
VPORT
 70
     2
  0
VPORT
  2
*ACTIVE
 70
     0
 10
0.0
 20
0.0
 11
1.0
 21
1.0
 12
222.716394
 22
142.164033
 13
0.0
 23
0.0
 14
2.5
 24
2.5
 15
0.0
 25
0.0
 16
0.0
 26
0.0
 36
1.0
 17
0.0
 27
0.0
 37
0.0
 40
284.328065
 41
1.566616
 42
50.0
 43
0.0
 44
0.0
 50
0.0
 51
0.0
 71
     0
 72
   100
 73
     1
 74
     1
 75
     1
 76
     0
 77
     0
 78
     0
  0
ENDTAB
  0
TABLE
  2
LTYPE
 70
     4
  0
LTYPE
  2
CONTINUOUS
 70
    64
  3
Solid line
 72
    65
 73
     0
 40
0.0
  0
LTYPE
  2
DASHED
 70
    64
  3
__ __ __ __ __ __ __ __ __ __ __ __ __ __ __ __
 72
    65
 73
     2
 40
0.75
 49
0.5
 49
-0.25
  0
LTYPE
  2
CENTER
 70
    64
  3
____ _ ____ _ ____ _ ____ _ ____ _ ____ _ ____ 
 72
    65
 73
     4
 40
2.0
 49
1.25
 49
-0.25
 49
0.25
 49
-0.25
  0
LTYPE
  2
HIDDEN
 70
     0
  3
__ __ __ __ __ __ __ __ __ __ __ __ __ __ __ __
 72
    65
 73
     2
 40
0.375
 49
0.25
 49
-0.125
  0
ENDTAB
  0
TABLE
  2
LAYER
 70
    12
  0
LAYER
  2
0
 70
    64
 62
     7
  6
CONTINUOUS
  0
LAYER
  2
RAAMI
 70
    64
 62
    -4
  6
CONTINUOUS
  0
LAYER
  2
PAKSU
 70
    64
 62
    -3
  6
CONTINUOUS
  0
LAYER
  2
OHUT
 70
    64
 62
    -6
  6
CONTINUOUS
  0
LAYER
  2
SWEDEN
 70
    64
 62
    -7
  6
CONTINUOUS
  0
LAYER
  2
SWEDEN2
 70
    64
 62
    -5
  6
CONTINUOUS
  0
LAYER
  2
BASE
 70
    64
 62
    -7
  6
CONTINUOUS
  0
LAYER
  2
21
 70
    64
 62
    -2
  6
CONTINUOUS
  0
LAYER
  2
HEL035
 70
    64
 62
    -7
  6
CONTINUOUS
  0
LAYER
  2
MUO
 70
    64
 62
    -7
  6
CONTINUOUS
  0
LAYER
  2
1
 70
    64
 62
    -2
  6
CONTINUOUS
  0
LAYER
  2
BASE1
 70
    64
 62
    -1
  6
CONTINUOUS
  0
ENDTAB
  0
TABLE
  2
STYLE
 70
     3
  0
STYLE
  2
STANDARD
 70
    64
 40
0.0
 41
1.0
 50
0.0
 71
     0
 42
2.0
  3
txt
  4

  0
STYLE
  2
ROMANS
 70
    64
 40
0.0
 41
1.0
 50
0.0
 71
     0
 42
2.5
  3
romans
  4

  0
STYLE
  2
GREEKS
 70
    64
 40
0.0
 41
1.0
 50
0.0
 71
     0
 42
2.0
  3
TXT
  4

  0
ENDTAB
  0
TABLE
  2
VIEW
 70
     0
  0
ENDTAB
  0
TABLE
  2
UCS
 70
     0
  0
ENDTAB
  0
TABLE
  2
APPID
 70
     1
  0
APPID
  2
ACAD
 70
    64
  0
ENDTAB
  0
TABLE
  2
DIMSTYLE
 70
     0
  0
ENDTAB
  0
ENDSEC
  0
SECTION
  2
BLOCKS
  0
BLOCK
  8
0
  2
1
 70
    64
 10
0.0
 20
0.0
 30
0.0
  3
1
  0
ENDBLK
  8
0
  0
BLOCK
  8
0
  2
BLC27
 70
     0
 10
0.0
 20
0.0
 30
0.0
  3
BLC27
  0
INSERT
  8
SWEDEN2
  6
CENTER
  2
BLC26
 10
0.08063
 20
0.037985
 30
0.0
 41
1.006225
 42
1.006225
 43
1.006225
  0
ENDBLK
  8
0
  0
BLOCK
  8
0
  2
BLC26
 70
    64
 10
0.0
 20
0.0
 30
0.0
  3
BLC26
  0
ARC
  8
0
  6
CONTINUOUS
 10
-0.180576
 20
1.17922
 30
0.0
 40
1.196859
 50
90.0
 51
265.706237
  0
LINE
  8
0
  6
CONTINUOUS
 10
-0.186638
 20
-0.01092
 30
0.0
 11
0.458942
 21
-0.01092
 31
0.0
  0
LINE
  8
0
  6
CONTINUOUS
 10
-0.186638
 20
2.375671
 30
0.0
 11
0.45288
 21
2.375671
 31
0.0
  0
LINE
  8
0
  6
CONTINUOUS
 10
-0.185509
 20
-2.404629
 30
0.0
 11
0.460071
 21
-2.404629
 31
0.0
  0
ARC
  8
0
  6
CONTINUOUS
 10
-0.180576
 20
-1.207779
 30
0.0
 40
1.196859
 50
90.0
 51
270.0
  0
LINE
  8
0
  6
CONTINUOUS
 10
0.451525
 20
-2.404586
 30
0.0
 11
1.401805
 21
-2.404586
 31
0.0
  0
LINE
  8
0
  6
CONTINUOUS
 10
0.446785
 20
2.375674
 30
0.0
 11
1.418544
 21
2.375674
 31
0.0
  0
LINE
  8
0
  6
CONTINUOUS
 10
0.456627
 20
-0.010911
 30
0.0
 11
1.422749
 21
-0.010911
 31
0.0
  0
ENDBLK
  8
0
  0
BLOCK
  8
0
  2
BLC29
 70
    64
 10
0.0
 20
0.0
 30
0.0
  3
BLC29
  0
LINE
  8
0
  6
CONTINUOUS
 10
0.004865
 20
1.206889
 30
0.0
 11
2.350631
 21
-0.128465
 31
0.0
  0
LINE
  8
0
  6
CONTINUOUS
 10
2.350631
 20
-0.128465
 30
0.0
 11
0.004865
 21
-1.318384
 31
0.0
  0
ENDBLK
  8
0
  0
BLOCK
  8
0
  2
WKU130
 70
    64
 10
190.0
 20
250.0
 30
0.0
  3
WKU130
  0
ARC
  8
21
 10
191.083333
 20
249.916667
 30
0.0
 40
1.086534
 50
32.471192
 51
175.601295
  0
ARC
  8
21
 10
192.916667
 20
251.083333
 30
0.0
 40
1.086534
 50
212.471192
 51
355.601295
  0
ENDBLK
  8
0
  0
BLOCK
  8
0
  2
BLC38
 70
     0
 10
0.0
 20
0.0
 30
0.0
  3
BLC38
  0
LINE
  8
BASE
  6
CONTINUOUS
 10
5.0
 20
0.429605
 30
0.0
 11
5.0
 21
-2.5
 31
0.0
  0
LINE
  8
BASE
  6
CONTINUOUS
 10
0.0
 20
0.429605
 30
0.0
 11
0.0
 21
-2.5
 31
0.0
  0
LINE
  8
BASE
  6
CONTINUOUS
 10
5.0
 20
15.0
 30
0.0
 11
5.0
 21
9.752154
 31
0.0
  0
LINE
  8
BASE
  6
CONTINUOUS
 10
0.0
 20
15.0
 30
0.0
 11
0.0
 21
9.752154
 31
0.0
  0
INSERT
  8
HEL035
  2
WKU130
 10
2.806261
 20
1.002888
 30
0.0
 41
0.8
 42
0.8
 43
0.8
  0
LINE
  8
HEL035
 10
2.466311
 20
2.72844
 30
0.0
 11
6.466311
 21
2.72844
 31
0.0
  0
LINE
  8
HEL035
 10
-1.290099
 20
7.674464
 30
0.0
 11
2.709901
 21
7.674464
 31
0.0
  0
LINE
  8
MUO
 10
-2.204897
 20
1.386207
 30
0.0
 11
6.158613
 21
9.752154
 31
0.0
  0
LINE
  8
MUO
 10
-1.220605
 20
0.429605
 30
0.0
 11
7.119756
 21
8.767352
 31
0.0
  0
LINE
  8
MUO
 10
-2.204897
 20
0.429605
 30
0.0
 11
-2.204897
 21
9.752154
 31
0.0
  0
LINE
  8
MUO
 10
7.119756
 20
0.429605
 30
0.0
 11
-2.204897
 21
0.429605
 31
0.0
  0
LINE
  8
MUO
 10
7.119756
 20
9.752154
 30
0.0
 11
7.119756
 21
0.429605
 31
0.0
  0
LINE
  8
MUO
 10
-2.204897
 20
9.752154
 30
0.0
 11
7.119756
 21
9.752154
 31
0.0
  0
TEXT
  8
SWEDEN2
  6
CONTINUOUS
 10
-0.633266
 20
15.55315
 30
0.0
 40
2.0
  1
+
  0
TEXT
  8
SWEDEN2
  6
CONTINUOUS
 10
4.297086
 20
15.577719
 30
0.0
 40
2.0
  1
-
  0
ENDBLK
  8
0
  0
BLOCK
  8
0
  2
BLC15
 70
     0
 10
0.0
 20
0.0
 30
0.0
  3
BLC15
  0
LINE
  8
0
  6
CONTINUOUS
 10
0.142084
 20
3.490022
 30
0.0
 11
0.142084
 21
0.844365
 31
0.0
  0
LINE
  8
0
  6
CONTINUOUS
 10
-0.461611
 20
-0.937188
 30
0.0
 11
0.745779
 21
-0.937188
 31
0.0
  0
LINE
  8
0
  6
CONTINUOUS
 10
-0.894108
 20
-0.049675
 30
0.0
 11
1.169267
 21
-0.049675
 31
0.0
  0
LINE
  8
0
  6
CONTINUOUS
 10
-1.389679
 20
0.844365
 30
0.0
 11
1.673848
 21
0.844365
 31
0.0
  0
ENDBLK
  8
0
  0
BLOCK
  8
0
  2
BLC5
 70
     0
 10
0.0
 20
0.0
 30
0.0
  3
BLC5
  0
TEXT
  8
0
 10
-3.043704
 20
-6.645912
 30
0.0
 40
3.2
  1
PE
  0
LINE
  8
0
 10
-2.946392
 20
1.181176
 30
0.0
 11
2.135458
 21
1.181176
 31
0.0
  0
LINE
  8
0
 10
-0.48656
 20
2.238362
 30
0.0
 11
-0.48656
 21
6.930438
 31
0.0
  0
LINE
  8
0
 10
-1.973271
 20
0.065258
 30
0.0
 11
1.225411
 21
0.065258
 31
0.0
  0
LINE
  8
0
 10
2.685091
 20
2.238362
 30
0.0
 11
1.68494
 21
2.238362
 31
0.0
  0
LINE
  8
0
 10
-3.505035
 20
2.238362
 30
0.0
 11
2.649049
 21
2.238362
 31
0.0
  0
CIRCLE
  8
0
 10
-0.47755
 20
1.422632
 30
0.0
 40
3.804563
  0
ENDBLK
  8
0
  0
BLOCK
  8
0
  2
B155
 70
    64
 10
0.0
 20
0.0
 30
0.0
  3
B155
  0
LINE
  8
0
  6
CONTINUOUS
 10
0.0
 20
0.0
 30
0.0
 11
0.0
 21
-1.35427
 31
0.0
  0
LINE
  8
0
  6
CONTINUOUS
 10
-1.210228
 20
-1.35427
 30
0.0
 11
-0.015887
 21
-1.35427
 31
0.0
  0
LINE
  8
0
  6
CONTINUOUS
 10
-0.015887
 20
-1.35427
 30
0.0
 11
1.178454
 21
-1.35427
 31
0.0
  0
LINE
  8
0
  6
CONTINUOUS
 10
-0.831823
 20
-1.833881
 30
0.0
 11
0.752749
 21
-1.833881
 31
0.0
  0
LINE
  8
0
  6
CONTINUOUS
 10
-0.500718
 20
-2.322055
 30
0.0
 11
0.386169
 21
-2.322055
 31
0.0
  0
ENDBLK
  8
0
  0
BLOCK
  8
0
  2
ABBA3V
 70
     0
 10
0.0
 20
0.0
 30
0.0
  3
ABBA3V
  0
TEXT
  8
RAAMI
  6
DASHED
 10
292.217194
 20
11.813359
 30
0.0
 40
3.0
  1
A3
  7
GREEKS
  0
TEXT
  8
RAAMI
  6
DASHED
 10
351.818577
 20
15.69253
 30
0.0
 40
1.4
  1
LEHTI SHEET
  7
GREEKS
  0
LINE
  8
PAKSU
 10
0.237099
 20
262.737999
 30
0.0
 11
392.237099
 21
262.737999
 31
0.0
  0
LINE
  8
RAAMI
 10
18.237099
 20
0.237999
 30
0.0
 11
0.237099
 21
0.237999
 31
0.0
  0
LINE
  8
PAKSU
 10
209.237099
 20
0.237999
 30
0.0
 11
392.237099
 21
0.237999
 31
0.0
  0
LINE
  8
PAKSU
 10
209.237099
 20
0.237999
 30
0.0
 11
209.237099
 21
35.237999
 31
0.0
  0
LINE
  8
PAKSU
 10
392.237099
 20
0.237999
 30
0.0
 11
392.237099
 21
35.237999
 31
0.0
  0
LINE
  8
OHUT
 10
209.237099
 20
18.237999
 30
0.0
 11
392.237099
 21
18.237999
 31
0.0
  0
LINE
  8
OHUT
 10
209.237099
 20
9.737999
 30
0.0
 11
392.237099
 21
9.737999
 31
0.0
  0
LINE
  8
OHUT
 10
209.237099
 20
26.737999
 30
0.0
 11
307.237099
 21
26.737999
 31
0.0
  0
LINE
  8
PAKSU
 10
209.237099
 20
35.237999
 30
0.0
 11
392.237099
 21
35.237999
 31
0.0
  0
TEXT
  8
RAAMI
 10
210.237099
 20
23.971333
 30
0.0
 40
1.4
  1
TARKASTI  CHECKED
  7
ROMANS
  0
TEXT
  8
RAAMI
 10
209.979934
 20
15.704666
 30
0.0
 40
1.4
  1
HYVÄKSYI  APPROVED
  7
ROMANS
  0
LINE
  8
OHUT
 10
307.237099
 20
0.237999
 30
0.0
 11
307.237099
 21
35.237999
 31
0.0
  0
TEXT
  8
RAAMI
 10
259.237099
 20
32.737999
 30
0.0
 40
1.4
  1
LIITTYY  CONCERNING
  7
ROMANS
  0
TEXT
  8
RAAMI
 10
259.237099
 20
23.737999
 30
0.0
 40
1.4
  1
TOLERANSSIT  TOLERANCES
  7
ROMANS
  0
TEXT
  8
RAAMI
 10
259.237099
 20
15.737999
 30
0.0
 40
1.4
  1
SUHDE  SCALE
  7
ROMANS
  0
TEXT
  8
RAAMI
 10
309.237099
 20
32.737999
 30
0.0
 40
1.4
  1
NIMITYS  NAME
  7
ROMANS
  0
TEXT
  8
RAAMI
 10
309.237099
 20
15.737999
 30
0.0
 40
1.4
  1
KOODI  CODE
  7
ROMANS
  0
TEXT
  8
RAAMI
 10
309.237099
 20
7.237999
 30
0.0
 40
1.4
  1
PIIRUSTUS NO  DRAWING NR
  7
ROMANS
  0
LINE
  8
OHUT
 10
349.737099
 20
9.737999
 30
0.0
 11
349.737099
 21
18.237999
 31
0.0
  0
TEXT
  8
RAAMI
 10
371.237099
 20
7.237999
 30
0.0
 40
1.4
  1
PAINOS  REVISION
  7
ROMANS
  0
LINE
  8
OHUT
 10
369.737099
 20
9.737999
 30
0.0
 11
369.737099
 21
0.237999
 31
0.0
  0
LINE
  8
RAAMI
 10
210.187099
 20
1.737999
 30
0.0
 11
211.937099
 21
1.737999
 31
0.0
  0
LINE
  8
RAAMI
 10
215.437099
 20
1.737999
 30
0.0
 11
217.187099
 21
1.737999
 31
0.0
  0
LINE
  8
RAAMI
 10
212.637099
 20
8.737999
 30
0.0
 11
211.459571
 21
5.373634
 31
0.0
  0
LINE
  8
RAAMI
 10
212.425886
 20
3.137999
 30
0.0
 11
213.547099
 21
3.137999
 31
0.0
  0
LINE
  8
RAAMI
 10
212.425889
 20
3.134542
 30
0.0
 11
211.937099
 21
1.737999
 31
0.0
  0
LINE
  8
RAAMI
 10
214.737099
 20
8.737999
 30
0.0
 11
215.913452
 21
5.376991
 31
0.0
  0
LINE
  8
RAAMI
 10
214.948197
 20
3.134863
 30
0.0
 11
215.437099
 21
1.737999
 31
0.0
  0
LINE
  8
RAAMI
 10
214.737099
 20
8.737999
 30
0.0
 11
213.827099
 21
8.737999
 31
0.0
  0
LINE
  8
RAAMI
 10
213.547099
 20
8.737999
 30
0.0
 11
213.547099
 21
5.377999
 31
0.0
  0
LINE
  8
RAAMI
 10
213.827099
 20
8.737999
 30
0.0
 11
213.827099
 21
5.377999
 31
0.0
  0
LINE
  8
RAAMI
 10
213.827099
 20
3.137999
 30
0.0
 11
214.946992
 21
3.137999
 31
0.0
  0
LINE
  8
RAAMI
 10
213.547099
 20
8.737999
 30
0.0
 11
212.637099
 21
8.737999
 31
0.0
  0
LINE
  8
RAAMI
 10
211.45904
 20
5.377999
 30
0.0
 11
213.547099
 21
5.377999
 31
0.0
  0
LINE
  8
RAAMI
 10
211.360082
 20
5.097999
 30
0.0
 11
213.547099
 21
5.097999
 31
0.0
  0
LINE
  8
RAAMI
 10
216.011591
 20
5.096594
 30
0.0
 11
217.187099
 21
1.737999
 31
0.0
  0
LINE
  8
RAAMI
 10
213.827099
 20
5.377999
 30
0.0
 11
215.912213
 21
5.377999
 31
0.0
  0
LINE
  8
RAAMI
 10
213.827099
 20
5.097999
 30
0.0
 11
216.010356
 21
5.097999
 31
0.0
  0
LINE
  8
RAAMI
 10
213.827099
 20
5.097999
 30
0.0
 11
213.827099
 21
3.137999
 31
0.0
  0
LINE
  8
RAAMI
 10
213.547099
 20
5.097999
 30
0.0
 11
213.547099
 21
3.137999
 31
0.0
  0
LINE
  8
RAAMI
 10
211.356988
 20
5.080538
 30
0.0
 11
210.187099
 21
1.737999
 31
0.0
  0
INSERT
  8
RAAMI
  2
*X10
 10
210.187099
 20
1.737999
 30
0.0
 41
0.7
 42
0.7
 43
0.7
  0
INSERT
  8
RAAMI
  2
*X11
 10
210.187099
 20
1.737999
 30
0.0
 41
0.7
 42
0.7
 43
0.7
  0
INSERT
  8
RAAMI
  2
*X12
 10
210.187099
 20
1.737999
 30
0.0
 41
0.7
 42
0.7
 43
0.7
  0
INSERT
  8
RAAMI
  2
*X13
 10
210.187099
 20
1.737999
 30
0.0
 41
0.7
 42
0.7
 43
0.7
  0
LINE
  8
RAAMI
 10
217.677099
 20
1.737999
 30
0.0
 11
217.677099
 21
5.097999
 31
0.0
  0
LINE
  8
RAAMI
 10
217.677099
 20
8.737999
 30
0.0
 11
219.637099
 21
8.737999
 31
0.0
  0
LINE
  8
RAAMI
 10
219.637099
 20
8.737999
 30
0.0
 11
219.637099
 21
5.377999
 31
0.0
  0
LINE
  8
RAAMI
 10
219.637099
 20
5.377999
 30
0.0
 11
217.677099
 21
5.377999
 31
0.0
  0
LINE
  8
RAAMI
 10
217.677099
 20
5.097999
 30
0.0
 11
219.637099
 21
5.097999
 31
0.0
  0
LINE
  8
RAAMI
 10
219.637099
 20
5.097999
 30
0.0
 11
219.637099
 21
1.737999
 31
0.0
  0
LINE
  8
RAAMI
 10
219.637099
 20
1.737999
 30
0.0
 11
217.677099
 21
1.737999
 31
0.0
  0
LINE
  8
RAAMI
 10
217.677099
 20
5.377999
 30
0.0
 11
217.677099
 21
8.737999
 31
0.0
  0
ARC
  8
RAAMI
 10
220.477099
 20
7.162999
 30
0.0
 40
1.575
 50
298.455859
 51
90.052437
  0
LINE
  8
RAAMI
 10
219.917099
 20
8.737999
 30
0.0
 11
220.475658
 21
8.737999
 31
0.0
  0
LINE
  8
RAAMI
 10
219.917099
 20
8.737999
 30
0.0
 11
219.917099
 21
5.377999
 31
0.0
  0
LINE
  8
RAAMI
 10
219.917099
 20
5.377999
 30
0.0
 11
221.901542
 21
5.377999
 31
0.0
  0
LINE
  8
RAAMI
 10
222.157099
 20
5.097999
 30
0.0
 11
219.917099
 21
5.097999
 31
0.0
  0
LINE
  8
RAAMI
 10
219.917099
 20
5.097999
 30
0.0
 11
219.917099
 21
1.737999
 31
0.0
  0
ARC
  8
RAAMI
 10
220.477099
 20
3.837999
 30
0.0
 40
2.1
 50
269.937724
 51
37.056553
  0
LINE
  8
RAAMI
 10
219.917099
 20
1.737999
 30
0.0
 11
220.474817
 21
1.738
 31
0.0
  0
ARC
  8
RAAMI
 10
220.477099
 20
3.837999
 30
0.0
 40
2.1
 50
47.28622
 51
68.787999
  0
INSERT
  8
RAAMI
  2
*X14
 10
210.187099
 20
1.737999
 30
0.0
 41
0.7
 42
0.7
 43
0.7
  0
INSERT
  8
RAAMI
  2
*X15
 10
210.187099
 20
1.737999
 30
0.0
 41
0.7
 42
0.7
 43
0.7
  0
INSERT
  8
RAAMI
  2
*X16
 10
210.187099
 20
1.737999
 30
0.0
 41
0.7
 42
0.7
 43
0.7
  0
INSERT
  8
RAAMI
  2
*X17
 10
210.187099
 20
1.737999
 30
0.0
 41
0.7
 42
0.7
 43
0.7
  0
INSERT
  8
RAAMI
  2
*X17
 10
215.647099
 20
1.737999
 30
0.0
 41
0.7
 42
0.7
 43
0.7
  0
INSERT
  8
RAAMI
  2
*X16
 10
215.647099
 20
1.737999
 30
0.0
 41
0.7
 42
0.7
 43
0.7
  0
INSERT
  8
RAAMI
  2
*X15
 10
215.647099
 20
1.737999
 30
0.0
 41
0.7
 42
0.7
 43
0.7
  0
INSERT
  8
RAAMI
  2
*X14
 10
215.647099
 20
1.737999
 30
0.0
 41
0.7
 42
0.7
 43
0.7
  0
ARC
  8
RAAMI
 10
225.937099
 20
3.837999
 30
0.0
 40
2.1
 50
47.28622
 51
68.787999
  0
LINE
  8
RAAMI
 10
225.377099
 20
1.737999
 30
0.0
 11
225.934817
 21
1.738
 31
0.0
  0
ARC
  8
RAAMI
 10
225.937099
 20
3.837999
 30
0.0
 40
2.1
 50
269.937724
 51
37.056553
  0
LINE
  8
RAAMI
 10
225.377099
 20
5.097999
 30
0.0
 11
225.377099
 21
1.737999
 31
0.0
  0
LINE
  8
RAAMI
 10
227.617099
 20
5.097999
 30
0.0
 11
225.377099
 21
5.097999
 31
0.0
  0
LINE
  8
RAAMI
 10
225.377099
 20
5.377999
 30
0.0
 11
227.361542
 21
5.377999
 31
0.0
  0
LINE
  8
RAAMI
 10
225.377099
 20
8.737999
 30
0.0
 11
225.377099
 21
5.377999
 31
0.0
  0
LINE
  8
RAAMI
 10
225.377099
 20
8.737999
 30
0.0
 11
225.935658
 21
8.737999
 31
0.0
  0
ARC
  8
RAAMI
 10
225.937099
 20
7.162999
 30
0.0
 40
1.575
 50
298.455859
 51
90.052437
  0
LINE
  8
RAAMI
 10
223.137099
 20
5.377999
 30
0.0
 11
223.137099
 21
8.737999
 31
0.0
  0
LINE
  8
RAAMI
 10
225.097099
 20
1.737999
 30
0.0
 11
223.137099
 21
1.737999
 31
0.0
  0
LINE
  8
RAAMI
 10
225.097099
 20
5.097999
 30
0.0
 11
225.097099
 21
1.737999
 31
0.0
  0
LINE
  8
RAAMI
 10
223.137099
 20
5.097999
 30
0.0
 11
225.097099
 21
5.097999
 31
0.0
  0
LINE
  8
RAAMI
 10
225.097099
 20
5.377999
 30
0.0
 11
223.137099
 21
5.377999
 31
0.0
  0
LINE
  8
RAAMI
 10
225.097099
 20
8.737999
 30
0.0
 11
225.097099
 21
5.377999
 31
0.0
  0
LINE
  8
RAAMI
 10
223.137099
 20
8.737999
 30
0.0
 11
225.097099
 21
8.737999
 31
0.0
  0
LINE
  8
RAAMI
 10
223.137099
 20
1.737999
 30
0.0
 11
223.137099
 21
5.097999
 31
0.0
  0
TEXT
  8
RAAMI
 10
229.737099
 20
1.737999
 30
0.0
 40
3.0
  1
ABB 
 41
0.8
  7
ROMANS
  0
TEXT
  8
RAAMI
 10
237.737099
 20
1.737999
 30
0.0
 40
3.0
  1
Strömberg
 41
0.8
  7
ROMANS
  0
LINE
  8
OHUT
 10
282.237099
 20
9.737999
 30
0.0
 11
282.237099
 21
18.237999
 31
0.0
  0
TEXT
  8
RAAMI
 10
27.737099
 20
4.737999
 30
0.0
 40
1.4
  1
MUUTOS
  7
ROMANS
  0
TEXT
  8
RAAMI
 10
27.737099
 20
2.471333
 30
0.0
 40
1.4
  1
REVISION
  7
ROMANS
  0
LINE
  8
OHUT
 10
46.737099
 20
9.237999
 30
0.0
 11
209.237099
 21
9.237999
 31
0.0
  0
LINE
  8
OHUT
 10
46.737099
 20
0.237999
 30
0.0
 11
46.737099
 21
9.237999
 31
0.0
  0
LINE
  8
OHUT
 10
40.737099
 20
4.737999
 30
0.0
 11
209.237099
 21
4.737999
 31
0.0
  0
LINE
  8
OHUT
 10
257.237099
 20
9.737999
 30
0.0
 11
257.237099
 21
35.237999
 31
0.0
  0
LINE
  8
OHUT
 10
271.237099
 20
9.737999
 30
0.0
 11
271.237099
 21
0.237999
 31
0.0
  0
TEXT
  8
RAAMI
 10
210.237099
 20
32.237999
 30
0.0
 40
1.4
  1
TEKI  PREPARED
  7
ROMANS
  0
TEXT
  8
RAAMI
 10
273.237099
 20
7.237999
 30
0.0
 40
1.4
  1
VAST.OSASTO RESP.DEPT.
  7
ROMANS
  0
TEXT
  8
RAAMI
 10
257.407006
 20
1.741783
 30
0.0
 40
3.0
  1
Power
 41
0.8
  7
ROMANS
  0
TEXT
  8
RAAMI
 10
42.237099
 20
1.195292
 30
0.0
 40
2.5
  1
B
  7
ROMANS
  0
TEXT
  8
RAAMI
 10
42.237099
 20
5.587508
 30
0.0
 40
2.5
  1
C
  7
ROMANS
  0
LINE
  8
PAKSU
 10
0.237099
 20
0.237999
 30
0.0
 11
392.237099
 21
0.237999
 31
0.0
  0
LINE
  8
PAKSU
 10
392.237099
 20
262.737999
 30
0.0
 11
392.237099
 21
0.237999
 31
0.0
  0
LINE
  8
PAKSU
 10
0.237099
 20
0.237999
 30
0.0
 11
0.237099
 21
262.737999
 31
0.0
  0
ENDBLK
  8
0
  0
BLOCK
  8
0
  2
*X10
 70
    65
 10
0.0
 20
0.0
 30
0.0
  3
*X
  0
LINE
  8
0
 62
     0
 10
2.284499
 20
6.52714
 30
0.0
 11
4.8
 21
9.042641
 31
0.0
  0
LINE
  8
0
 62
     0
 10
2.379686
 20
6.799104
 30
0.0
 11
4.8
 21
9.219417
 31
0.0
  0
LINE
  8
0
 62
     0
 10
2.474874
 20
7.071068
 30
0.0
 11
4.8
 21
9.396194
 31
0.0
  0
LINE
  8
0
 62
     0
 10
2.570061
 20
7.343032
 30
0.0
 11
4.8
 21
9.572971
 31
0.0
  0
LINE
  8
0
 62
     0
 10
2.665249
 20
7.614996
 30
0.0
 11
4.8
 21
9.749747
 31
0.0
  0
LINE
  8
0
 62
     0
 10
2.760436
 20
7.88696
 30
0.0
 11
4.8
 21
9.926524
 31
0.0
  0
LINE
  8
0
 62
     0
 10
2.855624
 20
8.158924
 30
0.0
 11
4.696699
 21
10.0
 31
0.0
  0
LINE
  8
0
 62
     0
 10
2.950811
 20
8.430889
 30
0.0
 11
4.519922
 21
10.0
 31
0.0
  0
LINE
  8
0
 62
     0
 10
3.045998
 20
8.702853
 30
0.0
 11
4.343146
 21
10.0
 31
0.0
  0
LINE
  8
0
 62
     0
 10
3.141186
 20
8.974817
 30
0.0
 11
4.166369
 21
10.0
 31
0.0
  0
LINE
  8
0
 62
     0
 10
3.236373
 20
9.246781
 30
0.0
 11
3.989592
 21
10.0
 31
0.0
  0
LINE
  8
0
 62
     0
 10
3.331561
 20
9.518745
 30
0.0
 11
3.812816
 21
10.0
 31
0.0
  0
LINE
  8
0
 62
     0
 10
3.426748
 20
9.790709
 30
0.0
 11
3.636039
 21
10.0
 31
0.0
  0
LINE
  8
0
 62
     0
 10
2.189311
 20
6.255175
 30
0.0
 11
4.8
 21
8.865864
 31
0.0
  0
LINE
  8
0
 62
     0
 10
2.094124
 20
5.983211
 30
0.0
 11
4.8
 21
8.689087
 31
0.0
  0
LINE
  8
0
 62
     0
 10
1.998936
 20
5.711247
 30
0.0
 11
4.8
 21
8.512311
 31
0.0
  0
LINE
  8
0
 62
     0
 10
1.903749
 20
5.439283
 30
0.0
 11
4.8
 21
8.335534
 31
0.0
  0
LINE
  8
0
 62
     0
 10
1.841243
 20
5.2
 30
0.0
 11
4.8
 21
8.158757
 31
0.0
  0
LINE
  8
0
 62
     0
 10
2.018019
 20
5.2
 30
0.0
 11
4.8
 21
7.981981
 31
0.0
  0
LINE
  8
0
 62
     0
 10
2.194796
 20
5.2
 30
0.0
 11
4.8
 21
7.805204
 31
0.0
  0
LINE
  8
0
 62
     0
 10
2.371573
 20
5.2
 30
0.0
 11
4.8
 21
7.628427
 31
0.0
  0
LINE
  8
0
 62
     0
 10
2.54835
 20
5.2
 30
0.0
 11
4.8
 21
7.45165
 31
0.0
  0
LINE
  8
0
 62
     0
 10
2.725126
 20
5.2
 30
0.0
 11
4.8
 21
7.274874
 31
0.0
  0
LINE
  8
0
 62
     0
 10
2.901903
 20
5.2
 30
0.0
 11
4.8
 21
7.098097
 31
0.0
  0
LINE
  8
0
 62
     0
 10
3.07868
 20
5.2
 30
0.0
 11
4.8
 21
6.92132
 31
0.0
  0
LINE
  8
0
 62
     0
 10
3.255456
 20
5.2
 30
0.0
 11
4.8
 21
6.744544
 31
0.0
  0
LINE
  8
0
 62
     0
 10
3.432233
 20
5.2
 30
0.0
 11
4.8
 21
6.567767
 31
0.0
  0
LINE
  8
0
 62
     0
 10
3.60901
 20
5.2
 30
0.0
 11
4.8
 21
6.39099
 31
0.0
  0
LINE
  8
0
 62
     0
 10
3.785786
 20
5.2
 30
0.0
 11
4.8
 21
6.214214
 31
0.0
  0
LINE
  8
0
 62
     0
 10
3.962563
 20
5.2
 30
0.0
 11
4.8
 21
6.037437
 31
0.0
  0
LINE
  8
0
 62
     0
 10
4.13934
 20
5.2
 30
0.0
 11
4.8
 21
5.86066
 31
0.0
  0
LINE
  8
0
 62
     0
 10
4.316117
 20
5.2
 30
0.0
 11
4.8
 21
5.683883
 31
0.0
  0
LINE
  8
0
 62
     0
 10
4.492893
 20
5.2
 30
0.0
 11
4.8
 21
5.507107
 31
0.0
  0
LINE
  8
0
 62
     0
 10
4.66967
 20
5.2
 30
0.0
 11
4.8
 21
5.33033
 31
0.0
  0
ENDBLK
  8
0
  0
BLOCK
  8
0
  2
*X11
 70
    65
 10
0.0
 20
0.0
 30
0.0
  3
*X
  0
LINE
  8
0
 62
     0
 10
5.2
 20
6.083883
 30
0.0
 11
7.178252
 21
8.062136
 31
0.0
  0
LINE
  8
0
 62
     0
 10
5.2
 20
6.26066
 30
0.0
 11
7.132421
 21
8.193082
 31
0.0
  0
LINE
  8
0
 62
     0
 10
5.2
 20
6.437437
 30
0.0
 11
7.08659
 21
8.324027
 31
0.0
  0
LINE
  8
0
 62
     0
 10
5.2
 20
6.614214
 30
0.0
 11
7.040759
 21
8.454973
 31
0.0
  0
LINE
  8
0
 62
     0
 10
5.2
 20
6.79099
 30
0.0
 11
6.994928
 21
8.585919
 31
0.0
  0
LINE
  8
0
 62
     0
 10
5.2
 20
6.967767
 30
0.0
 11
6.949097
 21
8.716864
 31
0.0
  0
LINE
  8
0
 62
     0
 10
5.2
 20
7.144544
 30
0.0
 11
6.903266
 21
8.84781
 31
0.0
  0
LINE
  8
0
 62
     0
 10
5.2
 20
7.32132
 30
0.0
 11
6.857435
 21
8.978756
 31
0.0
  0
LINE
  8
0
 62
     0
 10
5.2
 20
7.498097
 30
0.0
 11
6.811604
 21
9.109702
 31
0.0
  0
LINE
  8
0
 62
     0
 10
5.2
 20
7.674874
 30
0.0
 11
6.765773
 21
9.240647
 31
0.0
  0
LINE
  8
0
 62
     0
 10
5.2
 20
7.85165
 30
0.0
 11
6.719942
 21
9.371593
 31
0.0
  0
LINE
  8
0
 62
     0
 10
5.2
 20
8.028427
 30
0.0
 11
6.674111
 21
9.502539
 31
0.0
  0
LINE
  8
0
 62
     0
 10
5.2
 20
8.205204
 30
0.0
 11
6.62828
 21
9.633484
 31
0.0
  0
LINE
  8
0
 62
     0
 10
5.2
 20
8.381981
 30
0.0
 11
6.582449
 21
9.76443
 31
0.0
  0
LINE
  8
0
 62
     0
 10
5.2
 20
8.558757
 30
0.0
 11
6.536619
 21
9.895376
 31
0.0
  0
LINE
  8
0
 62
     0
 10
5.2
 20
8.735534
 30
0.0
 11
6.464466
 21
10.0
 31
0.0
  0
LINE
  8
0
 62
     0
 10
5.2
 20
8.912311
 30
0.0
 11
6.287689
 21
10.0
 31
0.0
  0
LINE
  8
0
 62
     0
 10
5.2
 20
9.089087
 30
0.0
 11
6.110913
 21
10.0
 31
0.0
  0
LINE
  8
0
 62
     0
 10
5.2
 20
9.265864
 30
0.0
 11
5.934136
 21
10.0
 31
0.0
  0
LINE
  8
0
 62
     0
 10
5.2
 20
9.442641
 30
0.0
 11
5.757359
 21
10.0
 31
0.0
  0
LINE
  8
0
 62
     0
 10
5.2
 20
9.619417
 30
0.0
 11
5.580583
 21
10.0
 31
0.0
  0
LINE
  8
0
 62
     0
 10
5.2
 20
9.796194
 30
0.0
 11
5.403806
 21
10.0
 31
0.0
  0
LINE
  8
0
 62
     0
 10
5.2
 20
9.972971
 30
0.0
 11
5.227029
 21
10.0
 31
0.0
  0
LINE
  8
0
 62
     0
 10
5.2
 20
5.907107
 30
0.0
 11
7.224083
 21
7.93119
 31
0.0
  0
LINE
  8
0
 62
     0
 10
5.2
 20
5.73033
 30
0.0
 11
7.269914
 21
7.800245
 31
0.0
  0
LINE
  8
0
 62
     0
 10
5.2
 20
5.553553
 30
0.0
 11
7.315745
 21
7.669299
 31
0.0
  0
LINE
  8
0
 62
     0
 10
5.2
 20
5.376777
 30
0.0
 11
7.361576
 21
7.538353
 31
0.0
  0
LINE
  8
0
 62
     0
 10
5.2
 20
5.2
 30
0.0
 11
7.407407
 21
7.407407
 31
0.0
  0
LINE
  8
0
 62
     0
 10
5.376777
 20
5.2
 30
0.0
 11
7.453238
 21
7.276462
 31
0.0
  0
LINE
  8
0
 62
     0
 10
5.553553
 20
5.2
 30
0.0
 11
7.499069
 21
7.145516
 31
0.0
  0
LINE
  8
0
 62
     0
 10
5.73033
 20
5.2
 30
0.0
 11
7.5449
 21
7.01457
 31
0.0
  0
LINE
  8
0
 62
     0
 10
5.907107
 20
5.2
 30
0.0
 11
7.590731
 21
6.883625
 31
0.0
  0
LINE
  8
0
 62
     0
 10
6.083883
 20
5.2
 30
0.0
 11
7.636562
 21
6.752679
 31
0.0
  0
LINE
  8
0
 62
     0
 10
6.26066
 20
5.2
 30
0.0
 11
7.682393
 21
6.621733
 31
0.0
  0
LINE
  8
0
 62
     0
 10
6.437437
 20
5.2
 30
0.0
 11
7.728224
 21
6.490788
 31
0.0
  0
LINE
  8
0
 62
     0
 10
6.614214
 20
5.2
 30
0.0
 11
7.774055
 21
6.359842
 31
0.0
  0
LINE
  8
0
 62
     0
 10
6.79099
 20
5.2
 30
0.0
 11
7.819886
 21
6.228896
 31
0.0
  0
LINE
  8
0
 62
     0
 10
6.967767
 20
5.2
 30
0.0
 11
7.865717
 21
6.09795
 31
0.0
  0
LINE
  8
0
 62
     0
 10
7.144544
 20
5.2
 30
0.0
 11
7.911548
 21
5.967005
 31
0.0
  0
LINE
  8
0
 62
     0
 10
7.32132
 20
5.2
 30
0.0
 11
7.957379
 21
5.836059
 31
0.0
  0
LINE
  8
0
 62
     0
 10
7.498097
 20
5.2
 30
0.0
 11
8.00321
 21
5.705113
 31
0.0
  0
LINE
  8
0
 62
     0
 10
7.674874
 20
5.2
 30
0.0
 11
8.049041
 21
5.574168
 31
0.0
  0
LINE
  8
0
 62
     0
 10
7.85165
 20
5.2
 30
0.0
 11
8.094872
 21
5.443222
 31
0.0
  0
LINE
  8
0
 62
     0
 10
8.028427
 20
5.2
 30
0.0
 11
8.140703
 21
5.312276
 31
0.0
  0
ENDBLK
  8
0
  0
BLOCK
  8
0
  2
*X12
 70
    65
 10
0.0
 20
0.0
 30
0.0
  3
*X
  0
LINE
  8
0
 62
     0
 10
0.0
 20
0.0
 30
0.0
 11
4.8
 21
4.8
 31
0.0
  0
LINE
  8
0
 62
     0
 10
0.095187
 20
0.271964
 30
0.0
 11
4.623223
 21
4.8
 31
0.0
  0
LINE
  8
0
 62
     0
 10
0.190375
 20
0.543928
 30
0.0
 11
4.446447
 21
4.8
 31
0.0
  0
LINE
  8
0
 62
     0
 10
0.285562
 20
0.815892
 30
0.0
 11
4.26967
 21
4.8
 31
0.0
  0
LINE
  8
0
 62
     0
 10
0.38075
 20
1.087857
 30
0.0
 11
4.092893
 21
4.8
 31
0.0
  0
LINE
  8
0
 62
     0
 10
0.475937
 20
1.359821
 30
0.0
 11
3.916117
 21
4.8
 31
0.0
  0
LINE
  8
0
 62
     0
 10
0.571125
 20
1.631785
 30
0.0
 11
3.73934
 21
4.8
 31
0.0
  0
LINE
  8
0
 62
     0
 10
0.666312
 20
1.903749
 30
0.0
 11
3.562563
 21
4.8
 31
0.0
  0
LINE
  8
0
 62
     0
 10
0.7615
 20
2.175713
 30
0.0
 11
3.385786
 21
4.8
 31
0.0
  0
LINE
  8
0
 62
     0
 10
0.856687
 20
2.447677
 30
0.0
 11
3.20901
 21
4.8
 31
0.0
  0
LINE
  8
0
 62
     0
 10
0.951875
 20
2.719641
 30
0.0
 11
3.032233
 21
4.8
 31
0.0
  0
LINE
  8
0
 62
     0
 10
1.047062
 20
2.991606
 30
0.0
 11
2.855456
 21
4.8
 31
0.0
  0
LINE
  8
0
 62
     0
 10
1.142249
 20
3.26357
 30
0.0
 11
2.67868
 21
4.8
 31
0.0
  0
LINE
  8
0
 62
     0
 10
1.237437
 20
3.535534
 30
0.0
 11
2.501903
 21
4.8
 31
0.0
  0
LINE
  8
0
 62
     0
 10
1.332624
 20
3.807498
 30
0.0
 11
2.325126
 21
4.8
 31
0.0
  0
LINE
  8
0
 62
     0
 10
1.427812
 20
4.079462
 30
0.0
 11
2.14835
 21
4.8
 31
0.0
  0
LINE
  8
0
 62
     0
 10
1.522999
 20
4.351426
 30
0.0
 11
1.971573
 21
4.8
 31
0.0
  0
LINE
  8
0
 62
     0
 10
1.618187
 20
4.62339
 30
0.0
 11
1.794796
 21
4.8
 31
0.0
  0
LINE
  8
0
 62
     0
 10
0.176777
 20
0.0
 30
0.0
 11
4.8
 21
4.623223
 31
0.0
  0
LINE
  8
0
 62
     0
 10
0.353553
 20
0.0
 30
0.0
 11
4.8
 21
4.446447
 31
0.0
  0
LINE
  8
0
 62
     0
 10
0.53033
 20
0.0
 30
0.0
 11
4.8
 21
4.26967
 31
0.0
  0
LINE
  8
0
 62
     0
 10
0.707107
 20
0.0
 30
0.0
 11
4.8
 21
4.092893
 31
0.0
  0
LINE
  8
0
 62
     0
 10
0.883883
 20
0.0
 30
0.0
 11
4.8
 21
3.916117
 31
0.0
  0
LINE
  8
0
 62
     0
 10
1.06066
 20
0.0
 30
0.0
 11
4.8
 21
3.73934
 31
0.0
  0
LINE
  8
0
 62
     0
 10
1.237437
 20
0.0
 30
0.0
 11
3.179842
 21
1.942405
 31
0.0
  0
LINE
  8
0
 62
     0
 10
3.237437
 20
2.0
 30
0.0
 11
4.8
 21
3.562563
 31
0.0
  0
LINE
  8
0
 62
     0
 10
1.414214
 20
0.0
 30
0.0
 11
3.084654
 21
1.670441
 31
0.0
  0
LINE
  8
0
 62
     0
 10
3.414214
 20
2.0
 30
0.0
 11
4.8
 21
3.385786
 31
0.0
  0
LINE
  8
0
 62
     0
 10
1.59099
 20
0.0
 30
0.0
 11
2.989467
 21
1.398477
 31
0.0
  0
LINE
  8
0
 62
     0
 10
3.59099
 20
2.0
 30
0.0
 11
4.8
 21
3.20901
 31
0.0
  0
LINE
  8
0
 62
     0
 10
1.767767
 20
0.0
 30
0.0
 11
2.894279
 21
1.126512
 31
0.0
  0
LINE
  8
0
 62
     0
 10
3.767767
 20
2.0
 30
0.0
 11
4.8
 21
3.032233
 31
0.0
  0
LINE
  8
0
 62
     0
 10
1.944544
 20
0.0
 30
0.0
 11
2.799092
 21
0.854548
 31
0.0
  0
LINE
  8
0
 62
     0
 10
3.944544
 20
2.0
 30
0.0
 11
4.8
 21
2.855456
 31
0.0
  0
LINE
  8
0
 62
     0
 10
2.12132
 20
0.0
 30
0.0
 11
2.703904
 21
0.582584
 31
0.0
  0
LINE
  8
0
 62
     0
 10
4.12132
 20
2.0
 30
0.0
 11
4.8
 21
2.67868
 31
0.0
  0
LINE
  8
0
 62
     0
 10
2.298097
 20
0.0
 30
0.0
 11
2.608717
 21
0.31062
 31
0.0
  0
LINE
  8
0
 62
     0
 10
4.298097
 20
2.0
 30
0.0
 11
4.8
 21
2.501903
 31
0.0
  0
LINE
  8
0
 62
     0
 10
2.474874
 20
0.0
 30
0.0
 11
2.51353
 21
0.038656
 31
0.0
  0
LINE
  8
0
 62
     0
 10
4.474874
 20
2.0
 30
0.0
 11
4.8
 21
2.325126
 31
0.0
  0
LINE
  8
0
 62
     0
 10
4.65165
 20
2.0
 30
0.0
 11
4.8
 21
2.14835
 31
0.0
  0
ENDBLK
  8
0
  0
BLOCK
  8
0
  2
*X13
 70
    65
 10
0.0
 20
0.0
 30
0.0
  3
*X
  0
LINE
  8
0
 62
     0
 10
6.884654
 20
1.75813
 30
0.0
 11
8.736506
 21
3.609982
 31
0.0
  0
LINE
  8
0
 62
     0
 10
6.838823
 20
1.889076
 30
0.0
 11
8.690675
 21
3.740928
 31
0.0
  0
LINE
  8
0
 62
     0
 10
6.772971
 20
2.0
 30
0.0
 11
8.644844
 21
3.871874
 31
0.0
  0
LINE
  8
0
 62
     0
 10
6.596194
 20
2.0
 30
0.0
 11
8.599013
 21
4.002819
 31
0.0
  0
LINE
  8
0
 62
     0
 10
6.419417
 20
2.0
 30
0.0
 11
8.553182
 21
4.133765
 31
0.0
  0
LINE
  8
0
 62
     0
 10
6.242641
 20
2.0
 30
0.0
 11
8.507351
 21
4.264711
 31
0.0
  0
LINE
  8
0
 62
     0
 10
6.065864
 20
2.0
 30
0.0
 11
8.46152
 21
4.395656
 31
0.0
  0
LINE
  8
0
 62
     0
 10
5.889087
 20
2.0
 30
0.0
 11
8.415689
 21
4.526602
 31
0.0
  0
LINE
  8
0
 62
     0
 10
5.712311
 20
2.0
 30
0.0
 11
8.369858
 21
4.657548
 31
0.0
  0
LINE
  8
0
 62
     0
 10
5.535534
 20
2.0
 30
0.0
 11
8.324027
 21
4.788493
 31
0.0
  0
LINE
  8
0
 62
     0
 10
5.358757
 20
2.0
 30
0.0
 11
8.158757
 21
4.8
 31
0.0
  0
LINE
  8
0
 62
     0
 10
5.2
 20
2.018019
 30
0.0
 11
7.981981
 21
4.8
 31
0.0
  0
LINE
  8
0
 62
     0
 10
5.2
 20
2.194796
 30
0.0
 11
7.805204
 21
4.8
 31
0.0
  0
LINE
  8
0
 62
     0
 10
5.2
 20
2.371573
 30
0.0
 11
7.628427
 21
4.8
 31
0.0
  0
LINE
  8
0
 62
     0
 10
5.2
 20
2.54835
 30
0.0
 11
7.45165
 21
4.8
 31
0.0
  0
LINE
  8
0
 62
     0
 10
5.2
 20
2.725126
 30
0.0
 11
7.274874
 21
4.8
 31
0.0
  0
LINE
  8
0
 62
     0
 10
5.2
 20
2.901903
 30
0.0
 11
7.098097
 21
4.8
 31
0.0
  0
LINE
  8
0
 62
     0
 10
5.2
 20
3.07868
 30
0.0
 11
6.92132
 21
4.8
 31
0.0
  0
LINE
  8
0
 62
     0
 10
5.2
 20
3.255456
 30
0.0
 11
6.744544
 21
4.8
 31
0.0
  0
LINE
  8
0
 62
     0
 10
5.2
 20
3.432233
 30
0.0
 11
6.567767
 21
4.8
 31
0.0
  0
LINE
  8
0
 62
     0
 10
5.2
 20
3.60901
 30
0.0
 11
6.39099
 21
4.8
 31
0.0
  0
LINE
  8
0
 62
     0
 10
5.2
 20
3.785786
 30
0.0
 11
6.214214
 21
4.8
 31
0.0
  0
LINE
  8
0
 62
     0
 10
5.2
 20
3.962563
 30
0.0
 11
6.037437
 21
4.8
 31
0.0
  0
LINE
  8
0
 62
     0
 10
5.2
 20
4.13934
 30
0.0
 11
5.86066
 21
4.8
 31
0.0
  0
LINE
  8
0
 62
     0
 10
5.2
 20
4.316117
 30
0.0
 11
5.683883
 21
4.8
 31
0.0
  0
LINE
  8
0
 62
     0
 10
5.2
 20
4.492893
 30
0.0
 11
5.507107
 21
4.8
 31
0.0
  0
LINE
  8
0
 62
     0
 10
5.2
 20
4.66967
 30
0.0
 11
5.33033
 21
4.8
 31
0.0
  0
LINE
  8
0
 62
     0
 10
6.930485
 20
1.627185
 30
0.0
 11
8.782337
 21
3.479036
 31
0.0
  0
LINE
  8
0
 62
     0
 10
6.976316
 20
1.496239
 30
0.0
 11
8.828168
 21
3.348091
 31
0.0
  0
LINE
  8
0
 62
     0
 10
7.022147
 20
1.365293
 30
0.0
 11
8.873999
 21
3.217145
 31
0.0
  0
LINE
  8
0
 62
     0
 10
7.067978
 20
1.234347
 30
0.0
 11
8.91983
 21
3.086199
 31
0.0
  0
LINE
  8
0
 62
     0
 10
7.113809
 20
1.103402
 30
0.0
 11
8.965661
 21
2.955254
 31
0.0
  0
LINE
  8
0
 62
     0
 10
7.15964
 20
0.972456
 30
0.0
 11
9.011492
 21
2.824308
 31
0.0
  0
LINE
  8
0
 62
     0
 10
7.205471
 20
0.84151
 30
0.0
 11
9.057323
 21
2.693362
 31
0.0
  0
LINE
  8
0
 62
     0
 10
7.251302
 20
0.710565
 30
0.0
 11
9.103154
 21
2.562416
 31
0.0
  0
LINE
  8
0
 62
     0
 10
7.297133
 20
0.579619
 30
0.0
 11
9.148985
 21
2.431471
 31
0.0
  0
LINE
  8
0
 62
     0
 10
7.342964
 20
0.448673
 30
0.0
 11
9.194816
 21
2.300525
 31
0.0
  0
LINE
  8
0
 62
     0
 10
7.388795
 20
0.317728
 30
0.0
 11
9.240647
 21
2.169579
 31
0.0
  0
LINE
  8
0
 62
     0
 10
7.434626
 20
0.186782
 30
0.0
 11
9.286478
 21
2.038634
 31
0.0
  0
LINE
  8
0
 62
     0
 10
7.480457
 20
0.055836
 30
0.0
 11
9.332309
 21
1.907688
 31
0.0
  0
LINE
  8
0
 62
     0
 10
7.601398
 20
0.0
 30
0.0
 11
9.37814
 21
1.776742
 31
0.0
  0
LINE
  8
0
 62
     0
 10
7.778175
 20
0.0
 30
0.0
 11
9.423971
 21
1.645797
 31
0.0
  0
LINE
  8
0
 62
     0
 10
7.954951
 20
0.0
 30
0.0
 11
9.469802
 21
1.514851
 31
0.0
  0
LINE
  8
0
 62
     0
 10
8.131728
 20
0.0
 30
0.0
 11
9.515633
 21
1.383905
 31
0.0
  0
LINE
  8
0
 62
     0
 10
8.308505
 20
0.0
 30
0.0
 11
9.561464
 21
1.252959
 31
0.0
  0
LINE
  8
0
 62
     0
 10
8.485281
 20
0.0
 30
0.0
 11
9.607295
 21
1.122014
 31
0.0
  0
LINE
  8
0
 62
     0
 10
8.662058
 20
0.0
 30
0.0
 11
9.653126
 21
0.991068
 31
0.0
  0
LINE
  8
0
 62
     0
 10
8.838835
 20
0.0
 30
0.0
 11
9.698957
 21
0.860122
 31
0.0
  0
LINE
  8
0
 62
     0
 10
9.015611
 20
0.0
 30
0.0
 11
9.744788
 21
0.729177
 31
0.0
  0
LINE
  8
0
 62
     0
 10
9.192388
 20
0.0
 30
0.0
 11
9.790619
 21
0.598231
 31
0.0
  0
LINE
  8
0
 62
     0
 10
9.369165
 20
0.0
 30
0.0
 11
9.83645
 21
0.467285
 31
0.0
  0
LINE
  8
0
 62
     0
 10
9.545942
 20
0.0
 30
0.0
 11
9.882281
 21
0.33634
 31
0.0
  0
LINE
  8
0
 62
     0
 10
9.722718
 20
0.0
 30
0.0
 11
9.928112
 21
0.205394
 31
0.0
  0
LINE
  8
0
 62
     0
 10
9.899495
 20
0.0
 30
0.0
 11
9.973943
 21
0.074448
 31
0.0
  0
ENDBLK
  8
0
  0
BLOCK
  8
0
  2
*X14
 70
    65
 10
0.0
 20
0.0
 30
0.0
  3
*X
  0
LINE
  8
0
 62
     0
 10
10.7
 20
6.280583
 30
0.0
 11
13.5
 21
9.080583
 31
0.0
  0
LINE
  8
0
 62
     0
 10
10.7
 20
6.457359
 30
0.0
 11
13.5
 21
9.257359
 31
0.0
  0
LINE
  8
0
 62
     0
 10
10.7
 20
6.634136
 30
0.0
 11
13.5
 21
9.434136
 31
0.0
  0
LINE
  8
0
 62
     0
 10
10.7
 20
6.810913
 30
0.0
 11
13.5
 21
9.610913
 31
0.0
  0
LINE
  8
0
 62
     0
 10
10.7
 20
6.987689
 30
0.0
 11
13.5
 21
9.787689
 31
0.0
  0
LINE
  8
0
 62
     0
 10
10.7
 20
7.164466
 30
0.0
 11
13.5
 21
9.964466
 31
0.0
  0
LINE
  8
0
 62
     0
 10
10.7
 20
7.341243
 30
0.0
 11
13.358757
 21
10.0
 31
0.0
  0
LINE
  8
0
 62
     0
 10
10.7
 20
7.518019
 30
0.0
 11
13.181981
 21
10.0
 31
0.0
  0
LINE
  8
0
 62
     0
 10
10.7
 20
7.694796
 30
0.0
 11
13.005204
 21
10.0
 31
0.0
  0
LINE
  8
0
 62
     0
 10
10.7
 20
7.871573
 30
0.0
 11
12.828427
 21
10.0
 31
0.0
  0
LINE
  8
0
 62
     0
 10
10.7
 20
8.04835
 30
0.0
 11
12.65165
 21
10.0
 31
0.0
  0
LINE
  8
0
 62
     0
 10
10.7
 20
8.225126
 30
0.0
 11
12.474874
 21
10.0
 31
0.0
  0
LINE
  8
0
 62
     0
 10
10.7
 20
8.401903
 30
0.0
 11
12.298097
 21
10.0
 31
0.0
  0
LINE
  8
0
 62
     0
 10
10.7
 20
8.57868
 30
0.0
 11
12.12132
 21
10.0
 31
0.0
  0
LINE
  8
0
 62
     0
 10
10.7
 20
8.755456
 30
0.0
 11
11.944544
 21
10.0
 31
0.0
  0
LINE
  8
0
 62
     0
 10
10.7
 20
8.932233
 30
0.0
 11
11.767767
 21
10.0
 31
0.0
  0
LINE
  8
0
 62
     0
 10
10.7
 20
9.10901
 30
0.0
 11
11.59099
 21
10.0
 31
0.0
  0
LINE
  8
0
 62
     0
 10
10.7
 20
9.285786
 30
0.0
 11
11.414214
 21
10.0
 31
0.0
  0
LINE
  8
0
 62
     0
 10
10.7
 20
9.462563
 30
0.0
 11
11.237437
 21
10.0
 31
0.0
  0
LINE
  8
0
 62
     0
 10
10.7
 20
9.63934
 30
0.0
 11
11.06066
 21
10.0
 31
0.0
  0
LINE
  8
0
 62
     0
 10
10.7
 20
9.816117
 30
0.0
 11
10.883883
 21
10.0
 31
0.0
  0
LINE
  8
0
 62
     0
 10
10.7
 20
9.992893
 30
0.0
 11
10.707107
 21
10.0
 31
0.0
  0
LINE
  8
0
 62
     0
 10
10.7
 20
6.103806
 30
0.0
 11
13.5
 21
8.903806
 31
0.0
  0
LINE
  8
0
 62
     0
 10
10.7
 20
5.927029
 30
0.0
 11
13.5
 21
8.727029
 31
0.0
  0
LINE
  8
0
 62
     0
 10
10.7
 20
5.750253
 30
0.0
 11
13.5
 21
8.550253
 31
0.0
  0
LINE
  8
0
 62
     0
 10
10.7
 20
5.573476
 30
0.0
 11
13.5
 21
8.373476
 31
0.0
  0
LINE
  8
0
 62
     0
 10
10.7
 20
5.396699
 30
0.0
 11
13.5
 21
8.196699
 31
0.0
  0
LINE
  8
0
 62
     0
 10
10.7
 20
5.219922
 30
0.0
 11
13.5
 21
8.019922
 31
0.0
  0
LINE
  8
0
 62
     0
 10
10.856854
 20
5.2
 30
0.0
 11
13.5
 21
7.843146
 31
0.0
  0
LINE
  8
0
 62
     0
 10
11.033631
 20
5.2
 30
0.0
 11
13.5
 21
7.666369
 31
0.0
  0
LINE
  8
0
 62
     0
 10
11.210408
 20
5.2
 30
0.0
 11
13.5
 21
7.489592
 31
0.0
  0
LINE
  8
0
 62
     0
 10
11.387184
 20
5.2
 30
0.0
 11
13.5
 21
7.312816
 31
0.0
  0
LINE
  8
0
 62
     0
 10
11.563961
 20
5.2
 30
0.0
 11
13.5
 21
7.136039
 31
0.0
  0
LINE
  8
0
 62
     0
 10
11.740738
 20
5.2
 30
0.0
 11
13.5
 21
6.959262
 31
0.0
  0
LINE
  8
0
 62
     0
 10
11.917514
 20
5.2
 30
0.0
 11
13.5
 21
6.782486
 31
0.0
  0
LINE
  8
0
 62
     0
 10
12.094291
 20
5.2
 30
0.0
 11
13.5
 21
6.605709
 31
0.0
  0
LINE
  8
0
 62
     0
 10
12.271068
 20
5.2
 30
0.0
 11
13.5
 21
6.428932
 31
0.0
  0
LINE
  8
0
 62
     0
 10
12.447845
 20
5.2
 30
0.0
 11
13.5
 21
6.252155
 31
0.0
  0
LINE
  8
0
 62
     0
 10
12.624621
 20
5.2
 30
0.0
 11
13.5
 21
6.075379
 31
0.0
  0
LINE
  8
0
 62
     0
 10
12.801398
 20
5.2
 30
0.0
 11
13.5
 21
5.898602
 31
0.0
  0
LINE
  8
0
 62
     0
 10
12.978175
 20
5.2
 30
0.0
 11
13.5
 21
5.721825
 31
0.0
  0
LINE
  8
0
 62
     0
 10
13.154951
 20
5.2
 30
0.0
 11
13.5
 21
5.545049
 31
0.0
  0
LINE
  8
0
 62
     0
 10
13.331728
 20
5.2
 30
0.0
 11
13.5
 21
5.368272
 31
0.0
  0
ENDBLK
  8
0
  0
BLOCK
  8
0
  2
*X15
 70
    65
 10
0.0
 20
0.0
 30
0.0
  3
*X
  0
LINE
  8
0
 62
     0
 10
10.7
 20
1.154058
 30
0.0
 11
13.5
 21
3.954058
 31
0.0
  0
LINE
  8
0
 62
     0
 10
10.7
 20
1.330835
 30
0.0
 11
13.5
 21
4.130835
 31
0.0
  0
LINE
  8
0
 62
     0
 10
10.7
 20
1.507612
 30
0.0
 11
13.5
 21
4.307612
 31
0.0
  0
LINE
  8
0
 62
     0
 10
10.7
 20
1.684389
 30
0.0
 11
13.5
 21
4.484389
 31
0.0
  0
LINE
  8
0
 62
     0
 10
10.7
 20
1.861165
 30
0.0
 11
13.5
 21
4.661165
 31
0.0
  0
LINE
  8
0
 62
     0
 10
10.7
 20
2.037942
 30
0.0
 11
13.462058
 21
4.8
 31
0.0
  0
LINE
  8
0
 62
     0
 10
10.7
 20
2.214719
 30
0.0
 11
13.285281
 21
4.8
 31
0.0
  0
LINE
  8
0
 62
     0
 10
10.7
 20
2.391495
 30
0.0
 11
13.108505
 21
4.8
 31
0.0
  0
LINE
  8
0
 62
     0
 10
10.7
 20
2.568272
 30
0.0
 11
12.931728
 21
4.8
 31
0.0
  0
LINE
  8
0
 62
     0
 10
10.7
 20
2.745049
 30
0.0
 11
12.754951
 21
4.8
 31
0.0
  0
LINE
  8
0
 62
     0
 10
10.7
 20
2.921825
 30
0.0
 11
12.578175
 21
4.8
 31
0.0
  0
LINE
  8
0
 62
     0
 10
10.7
 20
3.098602
 30
0.0
 11
12.401398
 21
4.8
 31
0.0
  0
LINE
  8
0
 62
     0
 10
10.7
 20
3.275379
 30
0.0
 11
12.224621
 21
4.8
 31
0.0
  0
LINE
  8
0
 62
     0
 10
10.7
 20
3.452155
 30
0.0
 11
12.047845
 21
4.8
 31
0.0
  0
LINE
  8
0
 62
     0
 10
10.7
 20
3.628932
 30
0.0
 11
11.871068
 21
4.8
 31
0.0
  0
LINE
  8
0
 62
     0
 10
10.7
 20
3.805709
 30
0.0
 11
11.694291
 21
4.8
 31
0.0
  0
LINE
  8
0
 62
     0
 10
10.7
 20
3.982486
 30
0.0
 11
11.517514
 21
4.8
 31
0.0
  0
LINE
  8
0
 62
     0
 10
10.7
 20
4.159262
 30
0.0
 11
11.340738
 21
4.8
 31
0.0
  0
LINE
  8
0
 62
     0
 10
10.7
 20
4.336039
 30
0.0
 11
11.163961
 21
4.8
 31
0.0
  0
LINE
  8
0
 62
     0
 10
10.7
 20
4.512816
 30
0.0
 11
10.987184
 21
4.8
 31
0.0
  0
LINE
  8
0
 62
     0
 10
10.7
 20
4.689592
 30
0.0
 11
10.810408
 21
4.8
 31
0.0
  0
LINE
  8
0
 62
     0
 10
10.7
 20
0.977282
 30
0.0
 11
13.5
 21
3.777282
 31
0.0
  0
LINE
  8
0
 62
     0
 10
10.7
 20
0.800505
 30
0.0
 11
13.5
 21
3.600505
 31
0.0
  0
LINE
  8
0
 62
     0
 10
10.7
 20
0.623728
 30
0.0
 11
13.5
 21
3.423728
 31
0.0
  0
LINE
  8
0
 62
     0
 10
10.7
 20
0.446952
 30
0.0
 11
13.5
 21
3.246952
 31
0.0
  0
LINE
  8
0
 62
     0
 10
10.7
 20
0.270175
 30
0.0
 11
13.5
 21
3.070175
 31
0.0
  0
LINE
  8
0
 62
     0
 10
10.7
 20
0.093398
 30
0.0
 11
13.5
 21
2.893398
 31
0.0
  0
LINE
  8
0
 62
     0
 10
10.783378
 20
0.0
 30
0.0
 11
13.5
 21
2.716622
 31
0.0
  0
LINE
  8
0
 62
     0
 10
10.960155
 20
0.0
 30
0.0
 11
13.5
 21
2.539845
 31
0.0
  0
LINE
  8
0
 62
     0
 10
11.136932
 20
0.0
 30
0.0
 11
13.5
 21
2.363068
 31
0.0
  0
LINE
  8
0
 62
     0
 10
11.313708
 20
0.0
 30
0.0
 11
13.5
 21
2.186292
 31
0.0
  0
LINE
  8
0
 62
     0
 10
11.490485
 20
0.0
 30
0.0
 11
13.5
 21
2.009515
 31
0.0
  0
LINE
  8
0
 62
     0
 10
11.667262
 20
0.0
 30
0.0
 11
13.5
 21
1.832738
 31
0.0
  0
LINE
  8
0
 62
     0
 10
11.844039
 20
0.0
 30
0.0
 11
13.5
 21
1.655961
 31
0.0
  0
LINE
  8
0
 62
     0
 10
12.020815
 20
0.0
 30
0.0
 11
13.5
 21
1.479185
 31
0.0
  0
LINE
  8
0
 62
     0
 10
12.197592
 20
0.0
 30
0.0
 11
13.5
 21
1.302408
 31
0.0
  0
LINE
  8
0
 62
     0
 10
12.374369
 20
0.0
 30
0.0
 11
13.5
 21
1.125631
 31
0.0
  0
LINE
  8
0
 62
     0
 10
12.551145
 20
0.0
 30
0.0
 11
13.5
 21
0.948855
 31
0.0
  0
LINE
  8
0
 62
     0
 10
12.727922
 20
0.0
 30
0.0
 11
13.5
 21
0.772078
 31
0.0
  0
LINE
  8
0
 62
     0
 10
12.904699
 20
0.0
 30
0.0
 11
13.5
 21
0.595301
 31
0.0
  0
LINE
  8
0
 62
     0
 10
13.081475
 20
0.0
 30
0.0
 11
13.5
 21
0.418525
 31
0.0
  0
LINE
  8
0
 62
     0
 10
13.258252
 20
0.0
 30
0.0
 11
13.5
 21
0.241748
 31
0.0
  0
LINE
  8
0
 62
     0
 10
13.435029
 20
0.0
 30
0.0
 11
13.5
 21
0.064971
 31
0.0
  0
ENDBLK
  8
0
  0
BLOCK
  8
0
  2
*X16
 70
    65
 10
0.0
 20
0.0
 30
0.0
  3
*X
  0
LINE
  8
0
 62
     0
 10
13.9
 20
6.298602
 30
0.0
 11
16.582995
 21
8.981597
 31
0.0
  0
LINE
  8
0
 62
     0
 10
13.9
 20
6.475379
 30
0.0
 11
16.510503
 21
9.085882
 31
0.0
  0
LINE
  8
0
 62
     0
 10
13.9
 20
6.652155
 30
0.0
 11
16.432927
 21
9.185083
 31
0.0
  0
LINE
  8
0
 62
     0
 10
13.9
 20
6.828932
 30
0.0
 11
16.350372
 21
9.279304
 31
0.0
  0
LINE
  8
0
 62
     0
 10
13.9
 20
7.005709
 30
0.0
 11
16.262892
 21
9.368601
 31
0.0
  0
LINE
  8
0
 62
     0
 10
13.9
 20
7.182486
 30
0.0
 11
16.170495
 21
9.452981
 31
0.0
  0
LINE
  8
0
 62
     0
 10
13.9
 20
7.359262
 30
0.0
 11
16.073145
 21
9.532407
 31
0.0
  0
LINE
  8
0
 62
     0
 10
13.9
 20
7.536039
 30
0.0
 11
15.970755
 21
9.606794
 31
0.0
  0
LINE
  8
0
 62
     0
 10
13.9
 20
7.712816
 30
0.0
 11
15.863189
 21
9.676004
 31
0.0
  0
LINE
  8
0
 62
     0
 10
13.9
 20
7.889592
 30
0.0
 11
15.75025
 21
9.739843
 31
0.0
  0
LINE
  8
0
 62
     0
 10
13.9
 20
8.066369
 30
0.0
 11
15.631675
 21
9.798044
 31
0.0
  0
LINE
  8
0
 62
     0
 10
13.9
 20
8.243146
 30
0.0
 11
15.50711
 21
9.850256
 31
0.0
  0
LINE
  8
0
 62
     0
 10
13.9
 20
8.419922
 30
0.0
 11
15.376096
 21
9.896018
 31
0.0
  0
LINE
  8
0
 62
     0
 10
13.9
 20
8.596699
 30
0.0
 11
15.238027
 21
9.934726
 31
0.0
  0
LINE
  8
0
 62
     0
 10
13.9
 20
8.773476
 30
0.0
 11
15.092096
 21
9.965572
 31
0.0
  0
LINE
  8
0
 62
     0
 10
13.9
 20
8.950253
 30
0.0
 11
14.937209
 21
9.987461
 31
0.0
  0
LINE
  8
0
 62
     0
 10
13.9
 20
9.127029
 30
0.0
 11
14.771824
 21
9.998853
 31
0.0
  0
LINE
  8
0
 62
     0
 10
13.9
 20
9.303806
 30
0.0
 11
14.596193
 21
9.999999
 31
0.0
  0
LINE
  8
0
 62
     0
 10
13.9
 20
9.480583
 30
0.0
 11
14.419417
 21
9.999999
 31
0.0
  0
LINE
  8
0
 62
     0
 10
13.9
 20
9.657359
 30
0.0
 11
14.24264
 21
10.0
 31
0.0
  0
LINE
  8
0
 62
     0
 10
13.9
 20
9.834136
 30
0.0
 11
14.065864
 21
10.0
 31
0.0
  0
LINE
  8
0
 62
     0
 10
13.9
 20
6.121825
 30
0.0
 11
16.650245
 21
8.872071
 31
0.0
  0
LINE
  8
0
 62
     0
 10
13.9
 20
5.945049
 30
0.0
 11
16.712035
 21
8.757083
 31
0.0
  0
LINE
  8
0
 62
     0
 10
13.9
 20
5.768272
 30
0.0
 11
16.768067
 21
8.636339
 31
0.0
  0
LINE
  8
0
 62
     0
 10
13.9
 20
5.591495
 30
0.0
 11
16.817955
 21
8.509451
 31
0.0
  0
LINE
  8
0
 62
     0
 10
13.9
 20
5.414719
 30
0.0
 11
16.861189
 21
8.375908
 31
0.0
  0
LINE
  8
0
 62
     0
 10
13.9
 20
5.237942
 30
0.0
 11
16.897097
 21
8.235039
 31
0.0
  0
LINE
  8
0
 62
     0
 10
14.038835
 20
5.2
 30
0.0
 11
16.924779
 21
8.085944
 31
0.0
  0
LINE
  8
0
 62
     0
 10
14.215611
 20
5.2
 30
0.0
 11
16.942997
 21
7.927385
 31
0.0
  0
LINE
  8
0
 62
     0
 10
14.392388
 20
5.2
 30
0.0
 11
16.949987
 21
7.757599
 31
0.0
  0
LINE
  8
0
 62
     0
 10
14.569165
 20
5.2
 30
0.0
 11
16.943101
 21
7.573936
 31
0.0
  0
LINE
  8
0
 62
     0
 10
14.745942
 20
5.2
 30
0.0
 11
16.918037
 21
7.372095
 31
0.0
  0
LINE
  8
0
 62
     0
 10
14.922718
 20
5.2
 30
0.0
 11
16.866909
 21
7.144191
 31
0.0
  0
LINE
  8
0
 62
     0
 10
15.099495
 20
5.2
 30
0.0
 11
16.771715
 21
6.87222
 31
0.0
  0
LINE
  8
0
 62
     0
 10
15.276272
 20
5.2
 30
0.0
 11
15.847951
 21
5.77168
 31
0.0
  0
LINE
  8
0
 62
     0
 10
15.96673
 20
5.890458
 30
0.0
 11
16.559542
 21
6.48327
 31
0.0
  0
LINE
  8
0
 62
     0
 10
15.453048
 20
5.2
 30
0.0
 11
15.970661
 21
5.717613
 31
0.0
  0
LINE
  8
0
 62
     0
 10
15.629825
 20
5.2
 30
0.0
 11
16.088934
 21
5.659109
 31
0.0
  0
LINE
  8
0
 62
     0
 10
15.806602
 20
5.2
 30
0.0
 11
16.202964
 21
5.596363
 31
0.0
  0
LINE
  8
0
 62
     0
 10
15.983378
 20
5.2
 30
0.0
 11
16.312909
 21
5.529531
 31
0.0
  0
LINE
  8
0
 62
     0
 10
16.160155
 20
5.2
 30
0.0
 11
16.418895
 21
5.45874
 31
0.0
  0
LINE
  8
0
 62
     0
 10
16.336932
 20
5.2
 30
0.0
 11
16.521021
 21
5.384089
 31
0.0
  0
LINE
  8
0
 62
     0
 10
16.513708
 20
5.2
 30
0.0
 11
16.619363
 21
5.305655
 31
0.0
  0
LINE
  8
0
 62
     0
 10
16.690485
 20
5.2
 30
0.0
 11
16.713975
 21
5.22349
 31
0.0
  0
ENDBLK
  8
0
  0
BLOCK
  8
0
  2
*X17
 70
    65
 10
0.0
 20
0.0
 30
0.0
  3
*X
  0
LINE
  8
0
 62
     0
 10
13.9
 20
0.818525
 30
0.0
 11
17.39645
 21
4.314974
 31
0.0
  0
LINE
  8
0
 62
     0
 10
13.9
 20
0.995301
 30
0.0
 11
17.336354
 21
4.431655
 31
0.0
  0
LINE
  8
0
 62
     0
 10
13.9
 20
1.172078
 30
0.0
 11
17.272078
 21
4.544156
 31
0.0
  0
LINE
  8
0
 62
     0
 10
13.9
 20
1.348855
 30
0.0
 11
17.203766
 21
4.652621
 31
0.0
  0
LINE
  8
0
 62
     0
 10
13.9
 20
1.525631
 30
0.0
 11
17.131535
 21
4.757167
 31
0.0
  0
LINE
  8
0
 62
     0
 10
13.9
 20
1.702408
 30
0.0
 11
16.997592
 21
4.8
 31
0.0
  0
LINE
  8
0
 62
     0
 10
13.9
 20
1.879185
 30
0.0
 11
16.820815
 21
4.8
 31
0.0
  0
LINE
  8
0
 62
     0
 10
13.9
 20
2.055961
 30
0.0
 11
16.644039
 21
4.8
 31
0.0
  0
LINE
  8
0
 62
     0
 10
13.9
 20
2.232738
 30
0.0
 11
16.467262
 21
4.8
 31
0.0
  0
LINE
  8
0
 62
     0
 10
13.9
 20
2.409515
 30
0.0
 11
16.290485
 21
4.8
 31
0.0
  0
LINE
  8
0
 62
     0
 10
13.9
 20
2.586292
 30
0.0
 11
16.113708
 21
4.8
 31
0.0
  0
LINE
  8
0
 62
     0
 10
13.9
 20
2.763068
 30
0.0
 11
15.936932
 21
4.8
 31
0.0
  0
LINE
  8
0
 62
     0
 10
13.9
 20
2.939845
 30
0.0
 11
15.760155
 21
4.8
 31
0.0
  0
LINE
  8
0
 62
     0
 10
13.9
 20
3.116622
 30
0.0
 11
15.583378
 21
4.8
 31
0.0
  0
LINE
  8
0
 62
     0
 10
13.9
 20
3.293398
 30
0.0
 11
15.406602
 21
4.8
 31
0.0
  0
LINE
  8
0
 62
     0
 10
13.9
 20
3.470175
 30
0.0
 11
15.229825
 21
4.8
 31
0.0
  0
LINE
  8
0
 62
     0
 10
13.9
 20
3.646952
 30
0.0
 11
15.053048
 21
4.8
 31
0.0
  0
LINE
  8
0
 62
     0
 10
13.9
 20
3.823728
 30
0.0
 11
14.876272
 21
4.8
 31
0.0
  0
LINE
  8
0
 62
     0
 10
13.9
 20
4.000505
 30
0.0
 11
14.699495
 21
4.8
 31
0.0
  0
LINE
  8
0
 62
     0
 10
13.9
 20
4.177282
 30
0.0
 11
14.522718
 21
4.8
 31
0.0
  0
LINE
  8
0
 62
     0
 10
13.9
 20
4.354058
 30
0.0
 11
14.345942
 21
4.8
 31
0.0
  0
LINE
  8
0
 62
     0
 10
13.9
 20
4.530835
 30
0.0
 11
14.169165
 21
4.8
 31
0.0
  0
LINE
  8
0
 62
     0
 10
13.9
 20
4.707612
 30
0.0
 11
13.992388
 21
4.8
 31
0.0
  0
LINE
  8
0
 62
     0
 10
13.9
 20
0.641748
 30
0.0
 11
17.452185
 21
4.193933
 31
0.0
  0
LINE
  8
0
 62
     0
 10
13.9
 20
0.464971
 30
0.0
 11
17.503339
 21
4.068311
 31
0.0
  0
LINE
  8
0
 62
     0
 10
13.9
 20
0.288194
 30
0.0
 11
17.549642
 21
3.937837
 31
0.0
  0
LINE
  8
0
 62
     0
 10
13.9
 20
0.111418
 30
0.0
 11
17.590762
 21
3.80218
 31
0.0
  0
LINE
  8
0
 62
     0
 10
13.965359
 20
0.0
 30
0.0
 11
17.62629
 21
3.660931
 31
0.0
  0
LINE
  8
0
 62
     0
 10
14.142136
 20
0.000001
 30
0.0
 11
17.655713
 21
3.513577
 31
0.0
  0
LINE
  8
0
 62
     0
 10
14.318913
 20
0.000001
 30
0.0
 11
17.678385
 21
3.359473
 31
0.0
  0
LINE
  8
0
 62
     0
 10
14.49569
 20
0.000001
 30
0.0
 11
17.693473
 21
3.197784
 31
0.0
  0
LINE
  8
0
 62
     0
 10
14.672467
 20
0.000002
 30
0.0
 11
17.699875
 21
3.027409
 31
0.0
  0
LINE
  8
0
 62
     0
 10
14.853154
 20
0.003912
 30
0.0
 11
17.696088
 21
2.846846
 31
0.0
  0
LINE
  8
0
 62
     0
 10
15.046044
 20
0.020025
 30
0.0
 11
17.679975
 21
2.653956
 31
0.0
  0
LINE
  8
0
 62
     0
 10
15.254483
 20
0.051687
 30
0.0
 11
17.648313
 21
2.445517
 31
0.0
  0
LINE
  8
0
 62
     0
 10
15.483762
 20
0.10419
 30
0.0
 11
17.59581
 21
2.216238
 31
0.0
  0
LINE
  8
0
 62
     0
 10
15.743786
 20
0.187437
 30
0.0
 11
17.512563
 21
1.956214
 31
0.0
  0
LINE
  8
0
 62
     0
 10
16.058176
 20
0.32505
 30
0.0
 11
17.37495
 21
1.641824
 31
0.0
  0
LINE
  8
0
 62
     0
 10
16.54193
 20
0.632028
 30
0.0
 11
17.067972
 21
1.15807
 31
0.0
  0
ENDBLK
  8
0
  0
BLOCK
  8
0
  2
BLC28
 70
     0
 10
0.0
 20
0.0
 30
0.0
  3
BLC28
  0
LINE
  8
0
  6
CONTINUOUS
 10
0.484576
 20
2.400948
 30
0.0
 11
1.456712
 21
2.400948
 31
0.0
  0
LINE
  8
0
  6
CONTINUOUS
 10
0.474673
 20
4.802388
 30
0.0
 11
1.452481
 21
4.802388
 31
0.0
  0
LINE
  8
0
  6
CONTINUOUS
 10
0.479442
 20
-0.007627
 30
0.0
 11
1.435637
 21
-0.007627
 31
0.0
  0
ARC
  8
0
  6
CONTINUOUS
 10
-0.156593
 20
1.19663
 30
0.0
 40
1.204309
 50
90.0
 51
270.0
  0
LINE
  8
0
  6
CONTINUOUS
 10
-0.161557
 20
-0.007671
 30
0.0
 11
0.488041
 21
-0.007671
 31
0.0
  0
LINE
  8
0
  6
CONTINUOUS
 10
-0.162693
 20
4.802386
 30
0.0
 11
0.480806
 21
4.802386
 31
0.0
  0
LINE
  8
0
  6
CONTINUOUS
 10
-0.162693
 20
2.400939
 30
0.0
 11
0.486905
 21
2.400939
 31
0.0
  0
ARC
  8
0
  6
CONTINUOUS
 10
-0.156593
 20
3.598487
 30
0.0
 40
1.204309
 50
90.0
 51
265.706237
  0
LINE
  8
0
  6
CONTINUOUS
 10
0.484576
 20
-2.362961
 30
0.0
 11
1.456712
 21
-2.362961
 31
0.0
  0
LINE
  8
0
  6
CONTINUOUS
 10
0.479442
 20
-4.771537
 30
0.0
 11
1.435637
 21
-4.771537
 31
0.0
  0
ARC
  8
0
  6
CONTINUOUS
 10
-0.156593
 20
-3.567279
 30
0.0
 40
1.204309
 50
90.0
 51
270.0
  0
LINE
  8
0
  6
CONTINUOUS
 10
-0.161557
 20
-4.77158
 30
0.0
 11
0.488041
 21
-4.77158
 31
0.0
  0
LINE
  8
0
  6
CONTINUOUS
 10
-0.162693
 20
-2.36297
 30
0.0
 11
0.486905
 21
-2.36297
 31
0.0
  0
ARC
  8
0
  6
CONTINUOUS
 10
-0.156593
 20
-1.165422
 30
0.0
 40
1.204309
 50
101.28465
 51
265.706237
  0
ENDBLK
  8
0
  0
BLOCK
  8
0
  2
B101
 70
    64
 10
0.0
 20
0.0
 30
0.0
  3
B101
  0
LINE
  8
BASE
  6
CONTINUOUS
 10
0.0
 20
15.0
 30
0.0
 11
0.0
 21
0.0
 31
0.0
  0
LINE
  8
BASE
  6
CONTINUOUS
 10
-5.0
 20
15.0
 30
0.0
 11
5.0
 21
15.0
 31
0.0
  0
LINE
  8
BASE
  6
CONTINUOUS
 10
5.0
 20
15.0
 30
0.0
 11
7.5
 21
17.5
 31
0.0
  0
LINE
  8
BASE
  6
CONTINUOUS
 10
0.0
 20
15.0
 30
0.0
 11
2.5
 21
17.5
 31
0.0
  0
LINE
  8
BASE
  6
CONTINUOUS
 10
-5.0
 20
15.0
 30
0.0
 11
-2.5
 21
17.5
 31
0.0
  0
ENDBLK
  8
0
  0
ENDSEC
  0
SECTION
  2
ENTITIES
  0
INSERT
  8
0
  2
1
 10
65.405438
 20
98.713066
 30
0.0
  0
INSERT
  8
0
  2
1
 10
72.541652
 20
49.71056
 30
0.0
  0
INSERT
  8
0
  2
1
 10
85.390443
 20
73.497234
 30
0.0
  0
LINE
  8
0
  6
CENTER
 62
   249
 10
297.5
 20
258.75
 30
0.0
 11
297.5
 21
55.0
 31
0.0
  0
LINE
  8
0
  6
CENTER
 62
   249
 10
82.5
 20
55.0
 30
0.0
 11
297.5
 21
55.0
 31
0.0
  0
LINE
  8
0
  6
CENTER
 62
   249
 10
297.5
 20
258.75
 30
0.0
 11
82.5
 21
258.75
 31
0.0
  0
LINE
  8
0
  6
CENTER
 62
   249
 10
82.5
 20
258.75
 30
0.0
 11
82.5
 21
55.0
 31
0.0
  0
TEXT
  8
0
  6
DASHED
 62
   249
 10
380.0
 20
2.5
 30
0.0
 40
2.5
  1
C
  7
ROMANS
  0
TEXT
  8
0
  6
DASHED
 62
   249
 10
370.0
 20
12.5
 30
0.0
 40
2.0
  1
1
  7
ROMANS
  0
LINE
  8
0
  6
CONTINUOUS
 62
   249
 10
180.0
 20
250.0
 30
0.0
 11
180.0
 21
110.0
 31
0.0
  0
LINE
  8
0
  6
CONTINUOUS
 62
   249
 10
200.0
 20
250.0
 30
0.0
 11
200.0
 21
110.0
 31
0.0
  0
LINE
  8
0
  6
CONTINUOUS
 62
   249
 10
180.0
 20
250.0
 30
0.0
 11
200.0
 21
250.0
 31
0.0
  0
CIRCLE
  8
0
  6
CONTINUOUS
 62
   249
 10
219.375
 20
245.625
 30
0.0
 40
1.875
  0
LINE
  8
0
  6
CONTINUOUS
 62
   249
 10
218.049175
 20
246.950825
 30
0.0
 11
220.700825
 21
244.299175
 31
0.0
  0
LINE
  8
0
  6
CONTINUOUS
 62
   249
 10
218.049175
 20
244.299175
 30
0.0
 11
220.700825
 21
246.950825
 31
0.0
  0
CIRCLE
  8
0
  6
CONTINUOUS
 62
   249
 10
197.5
 20
243.75
 30
0.0
 40
0.9375
  0
CIRCLE
  8
0
  6
CONTINUOUS
 62
   249
 10
197.5
 20
247.5
 30
0.0
 40
0.9375
  0
LINE
  8
0
  6
CONTINUOUS
 62
   249
 10
205.0
 20
250.0
 30
0.0
 11
205.0
 21
241.25
 31
0.0
  0
LINE
  8
0
  6
CONTINUOUS
 62
   249
 10
205.0
 20
241.25
 30
0.0
 11
222.5
 21
241.25
 31
0.0
  0
LINE
  8
0
  6
CONTINUOUS
 62
   249
 10
222.5
 20
241.25
 30
0.0
 11
222.5
 21
250.0
 31
0.0
  0
LINE
  8
0
  6
CONTINUOUS
 62
   249
 10
222.5
 20
250.0
 30
0.0
 11
205.0
 21
250.0
 31
0.0
  0
LINE
  8
0
  6
CONTINUOUS
 62
   249
 10
205.0
 20
247.5
 30
0.0
 11
198.4375
 21
247.5
 31
0.0
  0
LINE
  8
0
  6
CONTINUOUS
 62
   249
 10
205.0
 20
243.75
 30
0.0
 11
198.4375
 21
243.75
 31
0.0
  0
TEXT
  8
0
  6
CONTINUOUS
 62
   249
 10
206.25
 20
246.875
 30
0.0
 40
1.5
  1
A
  7
ROMANS
  0
TEXT
  8
0
  6
CONTINUOUS
 62
   249
 10
206.25
 20
243.125
 30
0.0
 40
1.5
  1
B
  7
ROMANS
  0
TEXT
  8
0
  6
CONTINUOUS
 62
   249
 10
206.25
 20
234.375
 30
0.0
 40
1.5
  1
B
  7
ROMANS
  0
TEXT
  8
0
  6
CONTINUOUS
 62
   249
 10
206.25
 20
238.125
 30
0.0
 40
1.5
  1
A
  7
ROMANS
  0
LINE
  8
0
  6
CONTINUOUS
 62
   249
 10
205.0
 20
235.0
 30
0.0
 11
198.4375
 21
235.0
 31
0.0
  0
LINE
  8
0
  6
CONTINUOUS
 62
   249
 10
205.0
 20
238.75
 30
0.0
 11
198.4375
 21
238.75
 31
0.0
  0
LINE
  8
0
  6
CONTINUOUS
 62
   249
 10
222.5
 20
241.25
 30
0.0
 11
205.0
 21
241.25
 31
0.0
  0
LINE
  8
0
  6
CONTINUOUS
 62
   249
 10
222.5
 20
232.5
 30
0.0
 11
222.5
 21
241.25
 31
0.0
  0
LINE
  8
0
  6
CONTINUOUS
 62
   249
 10
205.0
 20
232.5
 30
0.0
 11
222.5
 21
232.5
 31
0.0
  0
LINE
  8
0
  6
CONTINUOUS
 62
   249
 10
205.0
 20
241.25
 30
0.0
 11
205.0
 21
232.5
 31
0.0
  0
LINE
  8
0
  6
CONTINUOUS
 62
   249
 10
218.049175
 20
235.549175
 30
0.0
 11
220.700825
 21
238.200825
 31
0.0
  0
LINE
  8
0
  6
CONTINUOUS
 62
   249
 10
218.049175
 20
238.200825
 30
0.0
 11
220.700825
 21
235.549175
 31
0.0
  0
CIRCLE
  8
0
  6
CONTINUOUS
 62
   249
 10
219.375
 20
236.875
 30
0.0
 40
1.875
  0
CIRCLE
  8
0
  6
CONTINUOUS
 62
   249
 10
197.5
 20
235.0
 30
0.0
 40
0.9375
  0
CIRCLE
  8
0
  6
CONTINUOUS
 62
   249
 10
197.5
 20
238.75
 30
0.0
 40
0.9375
  0
TEXT
  8
0
  6
CONTINUOUS
 62
   249
 10
206.25
 20
225.625
 30
0.0
 40
1.5
  1
B
  7
ROMANS
  0
TEXT
  8
0
  6
CONTINUOUS
 62
   249
 10
206.25
 20
229.375
 30
0.0
 40
1.5
  1
A
  7
ROMANS
  0
LINE
  8
0
  6
CONTINUOUS
 62
   249
 10
205.0
 20
226.25
 30
0.0
 11
198.4375
 21
226.25
 31
0.0
  0
LINE
  8
0
  6
CONTINUOUS
 62
   249
 10
205.0
 20
230.0
 30
0.0
 11
198.4375
 21
230.0
 31
0.0
  0
LINE
  8
0
  6
CONTINUOUS
 62
   249
 10
222.5
 20
232.5
 30
0.0
 11
205.0
 21
232.5
 31
0.0
  0
LINE
  8
0
  6
CONTINUOUS
 62
   249
 10
222.5
 20
223.75
 30
0.0
 11
222.5
 21
232.5
 31
0.0
  0
LINE
  8
0
  6
CONTINUOUS
 62
   249
 10
205.0
 20
223.75
 30
0.0
 11
222.5
 21
223.75
 31
0.0
  0
LINE
  8
0
  6
CONTINUOUS
 62
   249
 10
205.0
 20
232.5
 30
0.0
 11
205.0
 21
223.75
 31
0.0
  0
LINE
  8
0
  6
CONTINUOUS
 62
   249
 10
218.049175
 20
226.799175
 30
0.0
 11
220.700825
 21
229.450825
 31
0.0
  0
LINE
  8
0
  6
CONTINUOUS
 62
   249
 10
218.049175
 20
229.450825
 30
0.0
 11
220.700825
 21
226.799175
 31
0.0
  0
CIRCLE
  8
0
  6
CONTINUOUS
 62
   249
 10
219.375
 20
228.125
 30
0.0
 40
1.875
  0
CIRCLE
  8
0
  6
CONTINUOUS
 62
   249
 10
197.5
 20
226.25
 30
0.0
 40
0.9375
  0
CIRCLE
  8
0
  6
CONTINUOUS
 62
   249
 10
197.5
 20
230.0
 30
0.0
 40
0.9375
  0
TEXT
  8
0
  6
CONTINUOUS
 62
   249
 10
206.25
 20
216.875
 30
0.0
 40
1.5
  1
B
  7
ROMANS
  0
TEXT
  8
0
  6
CONTINUOUS
 62
   249
 10
206.25
 20
220.625
 30
0.0
 40
1.5
  1
A
  7
ROMANS
  0
LINE
  8
0
  6
CONTINUOUS
 62
   249
 10
205.0
 20
217.5
 30
0.0
 11
198.4375
 21
217.5
 31
0.0
  0
LINE
  8
0
  6
CONTINUOUS
 62
   249
 10
205.0
 20
221.25
 30
0.0
 11
198.4375
 21
221.25
 31
0.0
  0
LINE
  8
0
  6
CONTINUOUS
 62
   249
 10
222.5
 20
223.75
 30
0.0
 11
205.0
 21
223.75
 31
0.0
  0
LINE
  8
0
  6
CONTINUOUS
 62
   249
 10
222.5
 20
215.0
 30
0.0
 11
222.5
 21
223.75
 31
0.0
  0
LINE
  8
0
  6
CONTINUOUS
 62
   249
 10
205.0
 20
215.0
 30
0.0
 11
222.5
 21
215.0
 31
0.0
  0
LINE
  8
0
  6
CONTINUOUS
 62
   249
 10
205.0
 20
223.75
 30
0.0
 11
205.0
 21
215.0
 31
0.0
  0
LINE
  8
0
  6
CONTINUOUS
 62
   249
 10
218.049175
 20
218.049175
 30
0.0
 11
220.700825
 21
220.700825
 31
0.0
  0
LINE
  8
0
  6
CONTINUOUS
 62
   249
 10
218.049175
 20
220.700825
 30
0.0
 11
220.700825
 21
218.049175
 31
0.0
  0
CIRCLE
  8
0
  6
CONTINUOUS
 62
   249
 10
219.375
 20
219.375
 30
0.0
 40
1.875
  0
CIRCLE
  8
0
  6
CONTINUOUS
 62
   249
 10
197.5
 20
217.5
 30
0.0
 40
0.9375
  0
CIRCLE
  8
0
  6
CONTINUOUS
 62
   249
 10
197.5
 20
221.25
 30
0.0
 40
0.9375
  0
TEXT
  8
0
  6
CONTINUOUS
 62
   249
 10
206.25
 20
208.125
 30
0.0
 40
1.5
  1
B
  7
ROMANS
  0
TEXT
  8
0
  6
CONTINUOUS
 62
   249
 10
206.25
 20
211.875
 30
0.0
 40
1.5
  1
A
  7
ROMANS
  0
LINE
  8
0
  6
CONTINUOUS
 62
   249
 10
205.0
 20
208.75
 30
0.0
 11
198.4375
 21
208.75
 31
0.0
  0
LINE
  8
0
  6
CONTINUOUS
 62
   249
 10
205.0
 20
212.5
 30
0.0
 11
198.4375
 21
212.5
 31
0.0
  0
LINE
  8
0
  6
CONTINUOUS
 62
   249
 10
222.5
 20
215.0
 30
0.0
 11
205.0
 21
215.0
 31
0.0
  0
LINE
  8
0
  6
CONTINUOUS
 62
   249
 10
222.5
 20
206.25
 30
0.0
 11
222.5
 21
215.0
 31
0.0
  0
LINE
  8
0
  6
CONTINUOUS
 62
   249
 10
205.0
 20
206.25
 30
0.0
 11
222.5
 21
206.25
 31
0.0
  0
LINE
  8
0
  6
CONTINUOUS
 62
   249
 10
205.0
 20
215.0
 30
0.0
 11
205.0
 21
206.25
 31
0.0
  0
LINE
  8
0
  6
CONTINUOUS
 62
   249
 10
218.049175
 20
209.299175
 30
0.0
 11
220.700825
 21
211.950825
 31
0.0
  0
LINE
  8
0
  6
CONTINUOUS
 62
   249
 10
218.049175
 20
211.950825
 30
0.0
 11
220.700825
 21
209.299175
 31
0.0
  0
CIRCLE
  8
0
  6
CONTINUOUS
 62
   249
 10
219.375
 20
210.625
 30
0.0
 40
1.875
  0
CIRCLE
  8
0
  6
CONTINUOUS
 62
   249
 10
197.5
 20
208.75
 30
0.0
 40
0.9375
  0
CIRCLE
  8
0
  6
CONTINUOUS
 62
   249
 10
197.5
 20
212.5
 30
0.0
 40
0.9375
  0
TEXT
  8
0
  6
CONTINUOUS
 62
   249
 10
206.25
 20
199.375
 30
0.0
 40
1.5
  1
B
  7
ROMANS
  0
TEXT
  8
0
  6
CONTINUOUS
 62
   249
 10
206.25
 20
203.125
 30
0.0
 40
1.5
  1
A
  7
ROMANS
  0
LINE
  8
0
  6
CONTINUOUS
 62
   249
 10
205.0
 20
200.0
 30
0.0
 11
198.4375
 21
200.0
 31
0.0
  0
LINE
  8
0
  6
CONTINUOUS
 62
   249
 10
205.0
 20
203.75
 30
0.0
 11
198.4375
 21
203.75
 31
0.0
  0
LINE
  8
0
  6
CONTINUOUS
 62
   249
 10
222.5
 20
206.25
 30
0.0
 11
205.0
 21
206.25
 31
0.0
  0
LINE
  8
0
  6
CONTINUOUS
 62
   249
 10
222.5
 20
197.5
 30
0.0
 11
222.5
 21
206.25
 31
0.0
  0
LINE
  8
0
  6
CONTINUOUS
 62
   249
 10
205.0
 20
197.5
 30
0.0
 11
222.5
 21
197.5
 31
0.0
  0
LINE
  8
0
  6
CONTINUOUS
 62
   249
 10
205.0
 20
206.25
 30
0.0
 11
205.0
 21
197.5
 31
0.0
  0
LINE
  8
0
  6
CONTINUOUS
 62
   249
 10
218.049175
 20
200.549175
 30
0.0
 11
220.700825
 21
203.200825
 31
0.0
  0
LINE
  8
0
  6
CONTINUOUS
 62
   249
 10
218.049175
 20
203.200825
 30
0.0
 11
220.700825
 21
200.549175
 31
0.0
  0
CIRCLE
  8
0
  6
CONTINUOUS
 62
   249
 10
219.375
 20
201.875
 30
0.0
 40
1.875
  0
CIRCLE
  8
0
  6
CONTINUOUS
 62
   249
 10
197.5
 20
200.0
 30
0.0
 40
0.9375
  0
CIRCLE
  8
0
  6
CONTINUOUS
 62
   249
 10
197.5
 20
203.75
 30
0.0
 40
0.9375
  0
TEXT
  8
0
  6
CONTINUOUS
 62
   249
 10
206.25
 20
190.625
 30
0.0
 40
1.5
  1
B
  7
ROMANS
  0
TEXT
  8
0
  6
CONTINUOUS
 62
   249
 10
206.25
 20
194.375
 30
0.0
 40
1.5
  1
A
  7
ROMANS
  0
LINE
  8
0
  6
CONTINUOUS
 62
   249
 10
205.0
 20
191.25
 30
0.0
 11
198.4375
 21
191.25
 31
0.0
  0
LINE
  8
0
  6
CONTINUOUS
 62
   249
 10
205.0
 20
195.0
 30
0.0
 11
198.4375
 21
195.0
 31
0.0
  0
LINE
  8
0
  6
CONTINUOUS
 62
   249
 10
222.5
 20
197.5
 30
0.0
 11
205.0
 21
197.5
 31
0.0
  0
LINE
  8
0
  6
CONTINUOUS
 62
   249
 10
222.5
 20
188.75
 30
0.0
 11
222.5
 21
197.5
 31
0.0
  0
LINE
  8
0
  6
CONTINUOUS
 62
   249
 10
205.0
 20
188.75
 30
0.0
 11
222.5
 21
188.75
 31
0.0
  0
LINE
  8
0
  6
CONTINUOUS
 62
   249
 10
205.0
 20
197.5
 30
0.0
 11
205.0
 21
188.75
 31
0.0
  0
LINE
  8
0
  6
CONTINUOUS
 62
   249
 10
218.049175
 20
191.799175
 30
0.0
 11
220.700825
 21
194.450825
 31
0.0
  0
LINE
  8
0
  6
CONTINUOUS
 62
   249
 10
218.049175
 20
194.450825
 30
0.0
 11
220.700825
 21
191.799175
 31
0.0
  0
CIRCLE
  8
0
  6
CONTINUOUS
 62
   249
 10
219.375
 20
193.125
 30
0.0
 40
1.875
  0
CIRCLE
  8
0
  6
CONTINUOUS
 62
   249
 10
197.5
 20
191.25
 30
0.0
 40
0.9375
  0
CIRCLE
  8
0
  6
CONTINUOUS
 62
   249
 10
197.5
 20
195.0
 30
0.0
 40
0.9375
  0
TEXT
  8
0
  6
CONTINUOUS
 62
   249
 10
206.25
 20
181.875
 30
0.0
 40
1.5
  1
B
  7
ROMANS
  0
TEXT
  8
0
  6
CONTINUOUS
 62
   249
 10
206.25
 20
185.625
 30
0.0
 40
1.5
  1
A
  7
ROMANS
  0
LINE
  8
0
  6
CONTINUOUS
 62
   249
 10
205.0
 20
182.5
 30
0.0
 11
198.4375
 21
182.5
 31
0.0
  0
LINE
  8
0
  6
CONTINUOUS
 62
   249
 10
205.0
 20
186.25
 30
0.0
 11
198.4375
 21
186.25
 31
0.0
  0
LINE
  8
0
  6
CONTINUOUS
 62
   249
 10
222.5
 20
188.75
 30
0.0
 11
205.0
 21
188.75
 31
0.0
  0
LINE
  8
0
  6
CONTINUOUS
 62
   249
 10
222.5
 20
180.0
 30
0.0
 11
222.5
 21
188.75
 31
0.0
  0
LINE
  8
0
  6
CONTINUOUS
 62
   249
 10
205.0
 20
180.0
 30
0.0
 11
222.5
 21
180.0
 31
0.0
  0
LINE
  8
0
  6
CONTINUOUS
 62
   249
 10
205.0
 20
188.75
 30
0.0
 11
205.0
 21
180.0
 31
0.0
  0
LINE
  8
0
  6
CONTINUOUS
 62
   249
 10
218.049175
 20
183.049175
 30
0.0
 11
220.700825
 21
185.700825
 31
0.0
  0
LINE
  8
0
  6
CONTINUOUS
 62
   249
 10
218.049175
 20
185.700825
 30
0.0
 11
220.700825
 21
183.049175
 31
0.0
  0
CIRCLE
  8
0
  6
CONTINUOUS
 62
   249
 10
219.375
 20
184.375
 30
0.0
 40
1.875
  0
CIRCLE
  8
0
  6
CONTINUOUS
 62
   249
 10
197.5
 20
182.5
 30
0.0
 40
0.9375
  0
CIRCLE
  8
0
  6
CONTINUOUS
 62
   249
 10
197.5
 20
186.25
 30
0.0
 40
0.9375
  0
TEXT
  8
0
  6
CONTINUOUS
 62
   249
 10
206.25
 20
173.125
 30
0.0
 40
1.5
  1
B
  7
ROMANS
  0
TEXT
  8
0
  6
CONTINUOUS
 62
   249
 10
206.25
 20
176.875
 30
0.0
 40
1.5
  1
A
  7
ROMANS
  0
LINE
  8
0
  6
CONTINUOUS
 62
   249
 10
205.0
 20
173.75
 30
0.0
 11
198.4375
 21
173.75
 31
0.0
  0
LINE
  8
0
  6
CONTINUOUS
 62
   249
 10
205.0
 20
177.5
 30
0.0
 11
198.4375
 21
177.5
 31
0.0
  0
LINE
  8
0
  6
CONTINUOUS
 62
   249
 10
222.5
 20
180.0
 30
0.0
 11
205.0
 21
180.0
 31
0.0
  0
LINE
  8
0
  6
CONTINUOUS
 62
   249
 10
222.5
 20
171.25
 30
0.0
 11
222.5
 21
180.0
 31
0.0
  0
LINE
  8
0
  6
CONTINUOUS
 62
   249
 10
205.0
 20
171.25
 30
0.0
 11
222.5
 21
171.25
 31
0.0
  0
LINE
  8
0
  6
CONTINUOUS
 62
   249
 10
205.0
 20
180.0
 30
0.0
 11
205.0
 21
171.25
 31
0.0
  0
LINE
  8
0
  6
CONTINUOUS
 62
   249
 10
218.049175
 20
174.299175
 30
0.0
 11
220.700825
 21
176.950825
 31
0.0
  0
LINE
  8
0
  6
CONTINUOUS
 62
   249
 10
218.049175
 20
176.950825
 30
0.0
 11
220.700825
 21
174.299175
 31
0.0
  0
CIRCLE
  8
0
  6
CONTINUOUS
 62
   249
 10
219.375
 20
175.625
 30
0.0
 40
1.875
  0
CIRCLE
  8
0
  6
CONTINUOUS
 62
   249
 10
197.5
 20
173.75
 30
0.0
 40
0.9375
  0
CIRCLE
  8
0
  6
CONTINUOUS
 62
   249
 10
197.5
 20
177.5
 30
0.0
 40
0.9375
  0
TEXT
  8
0
  6
CONTINUOUS
 62
   249
 10
206.25
 20
164.375
 30
0.0
 40
1.5
  1
B
  7
ROMANS
  0
TEXT
  8
0
  6
CONTINUOUS
 62
   249
 10
206.25
 20
168.125
 30
0.0
 40
1.5
  1
A
  7
ROMANS
  0
LINE
  8
0
  6
CONTINUOUS
 62
   249
 10
205.0
 20
165.0
 30
0.0
 11
198.4375
 21
165.0
 31
0.0
  0
LINE
  8
0
  6
CONTINUOUS
 62
   249
 10
205.0
 20
168.75
 30
0.0
 11
198.4375
 21
168.75
 31
0.0
  0
LINE
  8
0
  6
CONTINUOUS
 62
   249
 10
222.5
 20
171.25
 30
0.0
 11
205.0
 21
171.25
 31
0.0
  0
LINE
  8
0
  6
CONTINUOUS
 62
   249
 10
222.5
 20
162.5
 30
0.0
 11
222.5
 21
171.25
 31
0.0
  0
LINE
  8
0
  6
CONTINUOUS
 62
   249
 10
205.0
 20
162.5
 30
0.0
 11
222.5
 21
162.5
 31
0.0
  0
LINE
  8
0
  6
CONTINUOUS
 62
   249
 10
205.0
 20
171.25
 30
0.0
 11
205.0
 21
162.5
 31
0.0
  0
LINE
  8
0
  6
CONTINUOUS
 62
   249
 10
218.049175
 20
165.549175
 30
0.0
 11
220.700825
 21
168.200825
 31
0.0
  0
LINE
  8
0
  6
CONTINUOUS
 62
   249
 10
218.049175
 20
168.200825
 30
0.0
 11
220.700825
 21
165.549175
 31
0.0
  0
CIRCLE
  8
0
  6
CONTINUOUS
 62
   249
 10
219.375
 20
166.875
 30
0.0
 40
1.875
  0
CIRCLE
  8
0
  6
CONTINUOUS
 62
   249
 10
197.5
 20
165.0
 30
0.0
 40
0.9375
  0
CIRCLE
  8
0
  6
CONTINUOUS
 62
   249
 10
197.5
 20
168.75
 30
0.0
 40
0.9375
  0
TEXT
  8
0
  6
CONTINUOUS
 62
   249
 10
206.25
 20
155.625
 30
0.0
 40
1.5
  1
B
  7
ROMANS
  0
TEXT
  8
0
  6
CONTINUOUS
 62
   249
 10
206.25
 20
159.375
 30
0.0
 40
1.5
  1
A
  7
ROMANS
  0
LINE
  8
0
  6
CONTINUOUS
 62
   249
 10
205.0
 20
156.25
 30
0.0
 11
198.4375
 21
156.25
 31
0.0
  0
LINE
  8
0
  6
CONTINUOUS
 62
   249
 10
205.0
 20
160.0
 30
0.0
 11
198.4375
 21
160.0
 31
0.0
  0
LINE
  8
0
  6
CONTINUOUS
 62
   249
 10
222.5
 20
162.5
 30
0.0
 11
205.0
 21
162.5
 31
0.0
  0
LINE
  8
0
  6
CONTINUOUS
 62
   249
 10
222.5
 20
153.75
 30
0.0
 11
222.5
 21
162.5
 31
0.0
  0
LINE
  8
0
  6
CONTINUOUS
 62
   249
 10
205.0
 20
153.75
 30
0.0
 11
222.5
 21
153.75
 31
0.0
  0
LINE
  8
0
  6
CONTINUOUS
 62
   249
 10
205.0
 20
162.5
 30
0.0
 11
205.0
 21
153.75
 31
0.0
  0
LINE
  8
0
  6
CONTINUOUS
 62
   249
 10
218.049175
 20
156.799175
 30
0.0
 11
220.700825
 21
159.450825
 31
0.0
  0
LINE
  8
0
  6
CONTINUOUS
 62
   249
 10
218.049175
 20
159.450825
 30
0.0
 11
220.700825
 21
156.799175
 31
0.0
  0
CIRCLE
  8
0
  6
CONTINUOUS
 62
   249
 10
219.375
 20
158.125
 30
0.0
 40
1.875
  0
CIRCLE
  8
0
  6
CONTINUOUS
 62
   249
 10
197.5
 20
156.25
 30
0.0
 40
0.9375
  0
CIRCLE
  8
0
  6
CONTINUOUS
 62
   249
 10
197.5
 20
160.0
 30
0.0
 40
0.9375
  0
TEXT
  8
0
  6
CONTINUOUS
 62
   249
 10
206.25
 20
146.875
 30
0.0
 40
1.5
  1
B
  7
ROMANS
  0
TEXT
  8
0
  6
CONTINUOUS
 62
   249
 10
206.25
 20
150.625
 30
0.0
 40
1.5
  1
A
  7
ROMANS
  0
LINE
  8
0
  6
CONTINUOUS
 62
   249
 10
205.0
 20
147.5
 30
0.0
 11
198.4375
 21
147.5
 31
0.0
  0
LINE
  8
0
  6
CONTINUOUS
 62
   249
 10
205.0
 20
151.25
 30
0.0
 11
198.4375
 21
151.25
 31
0.0
  0
LINE
  8
0
  6
CONTINUOUS
 62
   249
 10
222.5
 20
153.75
 30
0.0
 11
205.0
 21
153.75
 31
0.0
  0
LINE
  8
0
  6
CONTINUOUS
 62
   249
 10
222.5
 20
145.0
 30
0.0
 11
222.5
 21
153.75
 31
0.0
  0
LINE
  8
0
  6
CONTINUOUS
 62
   249
 10
205.0
 20
145.0
 30
0.0
 11
222.5
 21
145.0
 31
0.0
  0
LINE
  8
0
  6
CONTINUOUS
 62
   249
 10
205.0
 20
153.75
 30
0.0
 11
205.0
 21
145.0
 31
0.0
  0
LINE
  8
0
  6
CONTINUOUS
 62
   249
 10
218.049175
 20
148.049175
 30
0.0
 11
220.700825
 21
150.700825
 31
0.0
  0
LINE
  8
0
  6
CONTINUOUS
 62
   249
 10
218.049175
 20
150.700825
 30
0.0
 11
220.700825
 21
148.049175
 31
0.0
  0
CIRCLE
  8
0
  6
CONTINUOUS
 62
   249
 10
219.375
 20
149.375
 30
0.0
 40
1.875
  0
CIRCLE
  8
0
  6
CONTINUOUS
 62
   249
 10
197.5
 20
147.5
 30
0.0
 40
0.9375
  0
CIRCLE
  8
0
  6
CONTINUOUS
 62
   249
 10
197.5
 20
151.25
 30
0.0
 40
0.9375
  0
TEXT
  8
0
  6
CONTINUOUS
 62
   249
 10
206.25
 20
138.125
 30
0.0
 40
1.5
  1
B
  7
ROMANS
  0
TEXT
  8
0
  6
CONTINUOUS
 62
   249
 10
206.25
 20
141.875
 30
0.0
 40
1.5
  1
A
  7
ROMANS
  0
LINE
  8
0
  6
CONTINUOUS
 62
   249
 10
205.0
 20
138.75
 30
0.0
 11
198.4375
 21
138.75
 31
0.0
  0
LINE
  8
0
  6
CONTINUOUS
 62
   249
 10
205.0
 20
142.5
 30
0.0
 11
198.4375
 21
142.5
 31
0.0
  0
LINE
  8
0
  6
CONTINUOUS
 62
   249
 10
222.5
 20
145.0
 30
0.0
 11
205.0
 21
145.0
 31
0.0
  0
LINE
  8
0
  6
CONTINUOUS
 62
   249
 10
222.5
 20
136.25
 30
0.0
 11
222.5
 21
145.0
 31
0.0
  0
LINE
  8
0
  6
CONTINUOUS
 62
   249
 10
205.0
 20
136.25
 30
0.0
 11
222.5
 21
136.25
 31
0.0
  0
LINE
  8
0
  6
CONTINUOUS
 62
   249
 10
205.0
 20
145.0
 30
0.0
 11
205.0
 21
136.25
 31
0.0
  0
LINE
  8
0
  6
CONTINUOUS
 62
   249
 10
218.049175
 20
139.299175
 30
0.0
 11
220.700825
 21
141.950825
 31
0.0
  0
LINE
  8
0
  6
CONTINUOUS
 62
   249
 10
218.049175
 20
141.950825
 30
0.0
 11
220.700825
 21
139.299175
 31
0.0
  0
CIRCLE
  8
0
  6
CONTINUOUS
 62
   249
 10
219.375
 20
140.625
 30
0.0
 40
1.875
  0
CIRCLE
  8
0
  6
CONTINUOUS
 62
   249
 10
197.5
 20
138.75
 30
0.0
 40
0.9375
  0
CIRCLE
  8
0
  6
CONTINUOUS
 62
   249
 10
197.5
 20
142.5
 30
0.0
 40
0.9375
  0
TEXT
  8
0
  6
CONTINUOUS
 62
   249
 10
206.25
 20
129.375
 30
0.0
 40
1.5
  1
B
  7
ROMANS
  0
TEXT
  8
0
  6
CONTINUOUS
 62
   249
 10
206.25
 20
133.125
 30
0.0
 40
1.5
  1
A
  7
ROMANS
  0
LINE
  8
0
  6
CONTINUOUS
 62
   249
 10
205.0
 20
130.0
 30
0.0
 11
198.4375
 21
130.0
 31
0.0
  0
LINE
  8
0
  6
CONTINUOUS
 62
   249
 10
205.0
 20
133.75
 30
0.0
 11
198.4375
 21
133.75
 31
0.0
  0
LINE
  8
0
  6
CONTINUOUS
 62
   249
 10
222.5
 20
136.25
 30
0.0
 11
205.0
 21
136.25
 31
0.0
  0
LINE
  8
0
  6
CONTINUOUS
 62
   249
 10
222.5
 20
127.5
 30
0.0
 11
222.5
 21
136.25
 31
0.0
  0
LINE
  8
0
  6
CONTINUOUS
 62
   249
 10
205.0
 20
127.5
 30
0.0
 11
222.5
 21
127.5
 31
0.0
  0
LINE
  8
0
  6
CONTINUOUS
 62
   249
 10
205.0
 20
136.25
 30
0.0
 11
205.0
 21
127.5
 31
0.0
  0
LINE
  8
0
  6
CONTINUOUS
 62
   249
 10
218.049175
 20
130.549175
 30
0.0
 11
220.700825
 21
133.200825
 31
0.0
  0
LINE
  8
0
  6
CONTINUOUS
 62
   249
 10
218.049175
 20
133.200825
 30
0.0
 11
220.700825
 21
130.549175
 31
0.0
  0
CIRCLE
  8
0
  6
CONTINUOUS
 62
   249
 10
219.375
 20
131.875
 30
0.0
 40
1.875
  0
CIRCLE
  8
0
  6
CONTINUOUS
 62
   249
 10
197.5
 20
130.0
 30
0.0
 40
0.9375
  0
CIRCLE
  8
0
  6
CONTINUOUS
 62
   249
 10
197.5
 20
133.75
 30
0.0
 40
0.9375
  0
TEXT
  8
0
  6
CONTINUOUS
 62
   249
 10
206.25
 20
120.625
 30
0.0
 40
1.5
  1
B
  7
ROMANS
  0
TEXT
  8
0
  6
CONTINUOUS
 62
   249
 10
206.25
 20
124.375
 30
0.0
 40
1.5
  1
A
  7
ROMANS
  0
LINE
  8
0
  6
CONTINUOUS
 62
   249
 10
205.0
 20
121.25
 30
0.0
 11
198.4375
 21
121.25
 31
0.0
  0
LINE
  8
0
  6
CONTINUOUS
 62
   249
 10
205.0
 20
125.0
 30
0.0
 11
198.4375
 21
125.0
 31
0.0
  0
LINE
  8
0
  6
CONTINUOUS
 62
   249
 10
222.5
 20
127.5
 30
0.0
 11
205.0
 21
127.5
 31
0.0
  0
LINE
  8
0
  6
CONTINUOUS
 62
   249
 10
222.5
 20
118.75
 30
0.0
 11
222.5
 21
127.5
 31
0.0
  0
LINE
  8
0
  6
CONTINUOUS
 62
   249
 10
205.0
 20
118.75
 30
0.0
 11
222.5
 21
118.75
 31
0.0
  0
LINE
  8
0
  6
CONTINUOUS
 62
   249
 10
205.0
 20
127.5
 30
0.0
 11
205.0
 21
118.75
 31
0.0
  0
LINE
  8
0
  6
CONTINUOUS
 62
   249
 10
218.049175
 20
121.799175
 30
0.0
 11
220.700825
 21
124.450825
 31
0.0
  0
LINE
  8
0
  6
CONTINUOUS
 62
   249
 10
218.049175
 20
124.450825
 30
0.0
 11
220.700825
 21
121.799175
 31
0.0
  0
CIRCLE
  8
0
  6
CONTINUOUS
 62
   249
 10
219.375
 20
123.125
 30
0.0
 40
1.875
  0
CIRCLE
  8
0
  6
CONTINUOUS
 62
   249
 10
197.5
 20
121.25
 30
0.0
 40
0.9375
  0
CIRCLE
  8
0
  6
CONTINUOUS
 62
   249
 10
197.5
 20
125.0
 30
0.0
 40
0.9375
  0
TEXT
  8
0
  6
CONTINUOUS
 62
   249
 10
206.25
 20
111.875
 30
0.0
 40
1.5
  1
B
  7
ROMANS
  0
TEXT
  8
0
  6
CONTINUOUS
 62
   249
 10
206.25
 20
115.625
 30
0.0
 40
1.5
  1
A
  7
ROMANS
  0
LINE
  8
0
  6
CONTINUOUS
 62
   249
 10
205.0
 20
112.5
 30
0.0
 11
198.4375
 21
112.5
 31
0.0
  0
LINE
  8
0
  6
CONTINUOUS
 62
   249
 10
205.0
 20
116.25
 30
0.0
 11
198.4375
 21
116.25
 31
0.0
  0
LINE
  8
0
  6
CONTINUOUS
 62
   249
 10
222.5
 20
118.75
 30
0.0
 11
205.0
 21
118.75
 31
0.0
  0
LINE
  8
0
  6
CONTINUOUS
 62
   249
 10
222.5
 20
110.0
 30
0.0
 11
222.5
 21
118.75
 31
0.0
  0
LINE
  8
0
  6
CONTINUOUS
 62
   249
 10
205.0
 20
110.0
 30
0.0
 11
222.5
 21
110.0
 31
0.0
  0
LINE
  8
0
  6
CONTINUOUS
 62
   249
 10
205.0
 20
118.75
 30
0.0
 11
205.0
 21
110.0
 31
0.0
  0
LINE
  8
0
  6
CONTINUOUS
 62
   249
 10
218.049175
 20
113.049175
 30
0.0
 11
220.700825
 21
115.700825
 31
0.0
  0
LINE
  8
0
  6
CONTINUOUS
 62
   249
 10
218.049175
 20
115.700825
 30
0.0
 11
220.700825
 21
113.049175
 31
0.0
  0
CIRCLE
  8
0
  6
CONTINUOUS
 62
   249
 10
219.375
 20
114.375
 30
0.0
 40
1.875
  0
CIRCLE
  8
0
  6
CONTINUOUS
 62
   249
 10
197.5
 20
112.5
 30
0.0
 40
0.9375
  0
CIRCLE
  8
0
  6
CONTINUOUS
 62
   249
 10
197.5
 20
116.25
 30
0.0
 40
0.9375
  0
LINE
  8
0
  6
CONTINUOUS
 62
   249
 10
200.0
 20
110.0
 30
0.0
 11
180.0
 21
110.0
 31
0.0
  0
LINE
  8
0
  6
CONTINUOUS
 62
   249
 10
180.0
 20
110.0
 30
0.0
 11
180.0
 21
110.0
 31
0.0
  0
LINE
  8
0
  6
CONTINUOUS
 62
   249
 10
180.0
 20
110.0
 30
0.0
 11
180.0
 21
102.5
 31
0.0
  0
LINE
  8
0
  6
CONTINUOUS
 62
   249
 10
180.0
 20
105.0
 30
0.0
 11
200.0
 21
105.0
 31
0.0
  0
LINE
  8
0
  6
CONTINUOUS
 62
   249
 10
200.0
 20
102.5
 30
0.0
 11
200.0
 21
110.0
 31
0.0
  0
LINE
  8
0
  6
CONTINUOUS
 62
   249
 10
200.0
 20
102.5
 30
0.0
 11
200.0
 21
95.0
 31
0.0
  0
LINE
  8
0
  6
CONTINUOUS
 62
   249
 10
200.0
 20
100.0
 30
0.0
 11
180.0
 21
100.0
 31
0.0
  0
LINE
  8
0
  6
CONTINUOUS
 62
   249
 10
180.0
 20
95.0
 30
0.0
 11
180.0
 21
102.5
 31
0.0
  0
LINE
  8
0
  6
CONTINUOUS
 62
   249
 10
180.0
 20
95.0
 30
0.0
 11
180.0
 21
90.0
 31
0.0
  0
LINE
  8
0
  6
CONTINUOUS
 62
   249
 10
180.0
 20
95.0
 30
0.0
 11
200.0
 21
95.0
 31
0.0
  0
LINE
  8
0
  6
CONTINUOUS
 62
   249
 10
200.0
 20
90.0
 30
0.0
 11
200.0
 21
95.0
 31
0.0
  0
LINE
  8
0
  6
CONTINUOUS
 62
   249
 10
180.0
 20
90.0
 30
0.0
 11
200.0
 21
90.0
 31
0.0
  0
LINE
  8
0
  6
CONTINUOUS
 62
   249
 10
297.5
 20
245.0
 30
0.0
 11
260.0
 21
245.0
 31
0.0
  0
LINE
  8
0
  6
CONTINUOUS
 62
   249
 10
260.0
 20
242.5
 30
0.0
 11
260.0
 21
247.5
 31
0.0
  0
LINE
  8
0
  6
CONTINUOUS
 62
   249
 10
260.0
 20
247.5
 30
0.0
 11
248.75
 21
247.5
 31
0.0
  0
LINE
  8
0
  6
CONTINUOUS
 62
   249
 10
248.75
 20
247.5
 30
0.0
 11
248.75
 21
242.5
 31
0.0
  0
LINE
  8
0
  6
CONTINUOUS
 62
   249
 10
255.0
 20
247.5
 30
0.0
 11
252.5
 21
243.75
 31
0.0
  0
LINE
  8
0
  6
CONTINUOUS
 62
   249
 10
256.875
 20
247.5
 30
0.0
 11
254.375
 21
243.75
 31
0.0
  0
LINE
  8
0
  6
CONTINUOUS
 62
   249
 10
260.0
 20
242.5
 30
0.0
 11
248.75
 21
242.5
 31
0.0
  0
TEXT
  8
0
  6
CONTINUOUS
 62
   249
 10
290.0
 20
241.25
 30
0.0
 40
2.0
  1
49
  7
ROMANS
  0
TEXT
  8
0
  6
CONTINUOUS
 62
   249
 10
290.0
 20
236.415959
 30
0.0
 40
2.0
  1
50
  7
ROMANS
  0
TEXT
  8
0
  6
CONTINUOUS
 62
   249
 10
290.0
 20
231.575348
 30
0.0
 40
2.0
  1
51
  7
ROMANS
  0
TEXT
  8
0
  6
CONTINUOUS
 62
   249
 10
290.0
 20
226.558219
 30
0.0
 40
2.0
  1
52
  7
ROMANS
  0
TEXT
  8
0
  6
CONTINUOUS
 62
   249
 10
290.0
 20
221.487037
 30
0.0
 40
2.0
  1
53
  7
ROMANS
  0
TEXT
  8
0
  6
CONTINUOUS
 62
   249
 10
290.0
 20
216.41261
 30
0.0
 40
2.0
  1
54
  7
ROMANS
  0
TEXT
  8
0
  6
CONTINUOUS
 62
   249
 10
290.0
 20
211.592136
 30
0.0
 40
2.0
  1
55
  7
ROMANS
  0
TEXT
  8
0
  6
CONTINUOUS
 62
   249
 10
290.0
 20
206.544549
 30
0.0
 40
2.0
  1
56
  7
ROMANS
  0
TEXT
  8
0
  6
CONTINUOUS
 62
   249
 10
290.0
 20
201.463339
 30
0.0
 40
2.0
  1
57
  7
ROMANS
  0
TEXT
  8
0
  6
CONTINUOUS
 62
   249
 10
290.0
 20
196.529308
 30
0.0
 40
2.0
  1
58
  7
ROMANS
  0
TEXT
  8
0
  6
CONTINUOUS
 62
   249
 10
290.0
 20
191.327758
 30
0.0
 40
2.0
  1
59
  7
ROMANS
  0
TEXT
  8
0
  6
CONTINUOUS
 62
   249
 10
290.0
 20
186.885115
 30
0.0
 40
2.0
  1
60
  7
ROMANS
  0
TEXT
  8
0
  6
CONTINUOUS
 62
   249
 10
290.0
 20
181.693593
 30
0.0
 40
2.0
  1
61
  7
ROMANS
  0
TEXT
  8
0
  6
CONTINUOUS
 62
   249
 10
290.0
 20
176.378487
 30
0.0
 40
2.0
  1
62
  7
ROMANS
  0
TEXT
  8
0
  6
CONTINUOUS
 62
   249
 10
290.0
 20
171.547984
 30
0.0
 40
2.0
  1
63
  7
ROMANS
  0
TEXT
  8
0
  6
CONTINUOUS
 62
   249
 10
290.0
 20
166.232878
 30
0.0
 40
2.0
  1
64
  7
ROMANS
  0
TEXT
  8
0
  6
CONTINUOUS
 62
   249
 10
290.0
 20
161.42597
 30
0.0
 40
2.0
  1
65
  7
ROMANS
  0
TEXT
  8
0
  6
CONTINUOUS
 62
   249
 10
290.0
 20
156.595467
 30
0.0
 40
2.0
  1
66
  7
ROMANS
  0
TEXT
  8
0
  6
CONTINUOUS
 62
   249
 10
290.0
 20
151.534314
 30
0.0
 40
2.0
  1
67
  7
ROMANS
  0
TEXT
  8
0
  6
CONTINUOUS
 62
   249
 10
290.0
 20
146.34633
 30
0.0
 40
2.0
  1
68
  7
ROMANS
  0
TEXT
  8
0
  6
CONTINUOUS
 62
   249
 10
290.0
 20
141.639412
 30
0.0
 40
2.0
  1
69
  7
ROMANS
  0
TEXT
  8
0
  6
CONTINUOUS
 62
   249
 10
290.0
 20
136.324306
 30
0.0
 40
2.0
  1
70
  7
ROMANS
  0
TEXT
  8
0
  6
CONTINUOUS
 62
   249
 10
290.0
 20
131.390275
 30
0.0
 40
2.0
  1
71
  7
ROMANS
  0
TEXT
  8
0
  6
CONTINUOUS
 62
   249
 10
290.0
 20
126.185481
 30
0.0
 40
2.0
  1
72
  7
ROMANS
  0
TEXT
  8
0
  6
CONTINUOUS
 62
   249
 10
290.0
 20
121.25145
 30
0.0
 40
2.0
  1
18
  7
ROMANS
  0
TEXT
  8
0
  6
CONTINUOUS
 62
   249
 10
290.0
 20
116.530965
 30
0.0
 40
2.0
  1
17
  7
ROMANS
  0
TEXT
  8
0
  6
CONTINUOUS
 62
   249
 10
290.0
 20
111.322632
 30
0.0
 40
2.0
  1
16
  7
ROMANS
  0
LINE
  8
0
  6
CONTINUOUS
 62
   249
 10
260.0
 20
237.5
 30
0.0
 11
248.75
 21
237.5
 31
0.0
  0
LINE
  8
0
  6
CONTINUOUS
 62
   249
 10
256.875
 20
242.5
 30
0.0
 11
254.375
 21
238.75
 31
0.0
  0
LINE
  8
0
  6
CONTINUOUS
 62
   249
 10
255.0
 20
242.5
 30
0.0
 11
252.5
 21
238.75
 31
0.0
  0
LINE
  8
0
  6
CONTINUOUS
 62
   249
 10
248.75
 20
242.5
 30
0.0
 11
248.75
 21
237.5
 31
0.0
  0
LINE
  8
0
  6
CONTINUOUS
 62
   249
 10
260.0
 20
242.5
 30
0.0
 11
248.75
 21
242.5
 31
0.0
  0
LINE
  8
0
  6
CONTINUOUS
 62
   249
 10
260.0
 20
237.5
 30
0.0
 11
260.0
 21
242.5
 31
0.0
  0
LINE
  8
0
  6
CONTINUOUS
 62
   249
 10
297.5
 20
240.0
 30
0.0
 11
260.0
 21
240.0
 31
0.0
  0
LINE
  8
0
  6
CONTINUOUS
 62
   249
 10
260.0
 20
232.5
 30
0.0
 11
248.75
 21
232.5
 31
0.0
  0
LINE
  8
0
  6
CONTINUOUS
 62
   249
 10
256.875
 20
237.5
 30
0.0
 11
254.375
 21
233.75
 31
0.0
  0
LINE
  8
0
  6
CONTINUOUS
 62
   249
 10
255.0
 20
237.5
 30
0.0
 11
252.5
 21
233.75
 31
0.0
  0
LINE
  8
0
  6
CONTINUOUS
 62
   249
 10
248.75
 20
237.5
 30
0.0
 11
248.75
 21
232.5
 31
0.0
  0
LINE
  8
0
  6
CONTINUOUS
 62
   249
 10
260.0
 20
237.5
 30
0.0
 11
248.75
 21
237.5
 31
0.0
  0
LINE
  8
0
  6
CONTINUOUS
 62
   249
 10
260.0
 20
232.5
 30
0.0
 11
260.0
 21
237.5
 31
0.0
  0
LINE
  8
0
  6
CONTINUOUS
 62
   249
 10
297.5
 20
235.0
 30
0.0
 11
260.0
 21
235.0
 31
0.0
  0
LINE
  8
0
  6
CONTINUOUS
 62
   249
 10
260.0
 20
227.5
 30
0.0
 11
248.75
 21
227.5
 31
0.0
  0
LINE
  8
0
  6
CONTINUOUS
 62
   249
 10
256.875
 20
232.5
 30
0.0
 11
254.375
 21
228.75
 31
0.0
  0
LINE
  8
0
  6
CONTINUOUS
 62
   249
 10
255.0
 20
232.5
 30
0.0
 11
252.5
 21
228.75
 31
0.0
  0
LINE
  8
0
  6
CONTINUOUS
 62
   249
 10
248.75
 20
232.5
 30
0.0
 11
248.75
 21
227.5
 31
0.0
  0
LINE
  8
0
  6
CONTINUOUS
 62
   249
 10
260.0
 20
232.5
 30
0.0
 11
248.75
 21
232.5
 31
0.0
  0
LINE
  8
0
  6
CONTINUOUS
 62
   249
 10
260.0
 20
227.5
 30
0.0
 11
260.0
 21
232.5
 31
0.0
  0
LINE
  8
0
  6
CONTINUOUS
 62
   249
 10
297.5
 20
230.0
 30
0.0
 11
260.0
 21
230.0
 31
0.0
  0
LINE
  8
0
  6
CONTINUOUS
 62
   249
 10
260.0
 20
222.5
 30
0.0
 11
248.75
 21
222.5
 31
0.0
  0
LINE
  8
0
  6
CONTINUOUS
 62
   249
 10
256.875
 20
227.5
 30
0.0
 11
254.375
 21
223.75
 31
0.0
  0
LINE
  8
0
  6
CONTINUOUS
 62
   249
 10
255.0
 20
227.5
 30
0.0
 11
252.5
 21
223.75
 31
0.0
  0
LINE
  8
0
  6
CONTINUOUS
 62
   249
 10
248.75
 20
227.5
 30
0.0
 11
248.75
 21
222.5
 31
0.0
  0
LINE
  8
0
  6
CONTINUOUS
 62
   249
 10
260.0
 20
227.5
 30
0.0
 11
248.75
 21
227.5
 31
0.0
  0
LINE
  8
0
  6
CONTINUOUS
 62
   249
 10
260.0
 20
222.5
 30
0.0
 11
260.0
 21
227.5
 31
0.0
  0
LINE
  8
0
  6
CONTINUOUS
 62
   249
 10
297.5
 20
225.0
 30
0.0
 11
260.0
 21
225.0
 31
0.0
  0
LINE
  8
0
  6
CONTINUOUS
 62
   249
 10
260.0
 20
217.5
 30
0.0
 11
248.75
 21
217.5
 31
0.0
  0
LINE
  8
0
  6
CONTINUOUS
 62
   249
 10
256.875
 20
222.5
 30
0.0
 11
254.375
 21
218.75
 31
0.0
  0
LINE
  8
0
  6
CONTINUOUS
 62
   249
 10
255.0
 20
222.5
 30
0.0
 11
252.5
 21
218.75
 31
0.0
  0
LINE
  8
0
  6
CONTINUOUS
 62
   249
 10
248.75
 20
222.5
 30
0.0
 11
248.75
 21
217.5
 31
0.0
  0
LINE
  8
0
  6
CONTINUOUS
 62
   249
 10
260.0
 20
222.5
 30
0.0
 11
248.75
 21
222.5
 31
0.0
  0
LINE
  8
0
  6
CONTINUOUS
 62
   249
 10
260.0
 20
217.5
 30
0.0
 11
260.0
 21
222.5
 31
0.0
  0
LINE
  8
0
  6
CONTINUOUS
 62
   249
 10
297.5
 20
220.0
 30
0.0
 11
260.0
 21
220.0
 31
0.0
  0
LINE
  8
0
  6
CONTINUOUS
 62
   249
 10
260.0
 20
212.5
 30
0.0
 11
248.75
 21
212.5
 31
0.0
  0
LINE
  8
0
  6
CONTINUOUS
 62
   249
 10
256.875
 20
217.5
 30
0.0
 11
254.375
 21
213.75
 31
0.0
  0
LINE
  8
0
  6
CONTINUOUS
 62
   249
 10
255.0
 20
217.5
 30
0.0
 11
252.5
 21
213.75
 31
0.0
  0
LINE
  8
0
  6
CONTINUOUS
 62
   249
 10
248.75
 20
217.5
 30
0.0
 11
248.75
 21
212.5
 31
0.0
  0
LINE
  8
0
  6
CONTINUOUS
 62
   249
 10
260.0
 20
217.5
 30
0.0
 11
248.75
 21
217.5
 31
0.0
  0
LINE
  8
0
  6
CONTINUOUS
 62
   249
 10
260.0
 20
212.5
 30
0.0
 11
260.0
 21
217.5
 31
0.0
  0
LINE
  8
0
  6
CONTINUOUS
 62
   249
 10
297.5
 20
215.0
 30
0.0
 11
260.0
 21
215.0
 31
0.0
  0
LINE
  8
0
  6
CONTINUOUS
 62
   249
 10
260.0
 20
207.5
 30
0.0
 11
248.75
 21
207.5
 31
0.0
  0
LINE
  8
0
  6
CONTINUOUS
 62
   249
 10
256.875
 20
212.5
 30
0.0
 11
254.375
 21
208.75
 31
0.0
  0
LINE
  8
0
  6
CONTINUOUS
 62
   249
 10
255.0
 20
212.5
 30
0.0
 11
252.5
 21
208.75
 31
0.0
  0
LINE
  8
0
  6
CONTINUOUS
 62
   249
 10
248.75
 20
212.5
 30
0.0
 11
248.75
 21
207.5
 31
0.0
  0
LINE
  8
0
  6
CONTINUOUS
 62
   249
 10
260.0
 20
212.5
 30
0.0
 11
248.75
 21
212.5
 31
0.0
  0
LINE
  8
0
  6
CONTINUOUS
 62
   249
 10
260.0
 20
207.5
 30
0.0
 11
260.0
 21
212.5
 31
0.0
  0
LINE
  8
0
  6
CONTINUOUS
 62
   249
 10
297.5
 20
210.0
 30
0.0
 11
260.0
 21
210.0
 31
0.0
  0
LINE
  8
0
  6
CONTINUOUS
 62
   249
 10
248.75
 20
207.5
 30
0.0
 11
248.75
 21
202.5
 31
0.0
  0
LINE
  8
0
  6
CONTINUOUS
 62
   249
 10
260.0
 20
207.5
 30
0.0
 11
248.75
 21
207.5
 31
0.0
  0
LINE
  8
0
  6
CONTINUOUS
 62
   249
 10
260.0
 20
202.5
 30
0.0
 11
260.0
 21
207.5
 31
0.0
  0
LINE
  8
0
  6
CONTINUOUS
 62
   249
 10
297.5
 20
205.0
 30
0.0
 11
260.0
 21
205.0
 31
0.0
  0
LINE
  8
0
  6
CONTINUOUS
 62
   249
 10
248.75
 20
202.5
 30
0.0
 11
248.75
 21
197.5
 31
0.0
  0
LINE
  8
0
  6
CONTINUOUS
 62
   249
 10
260.0
 20
197.5
 30
0.0
 11
260.0
 21
202.5
 31
0.0
  0
LINE
  8
0
  6
CONTINUOUS
 62
   249
 10
297.5
 20
200.0
 30
0.0
 11
260.0
 21
200.0
 31
0.0
  0
LINE
  8
0
  6
CONTINUOUS
 62
   249
 10
248.75
 20
197.5
 30
0.0
 11
248.75
 21
192.5
 31
0.0
  0
LINE
  8
0
  6
CONTINUOUS
 62
   249
 10
260.0
 20
192.5
 30
0.0
 11
260.0
 21
197.5
 31
0.0
  0
LINE
  8
0
  6
CONTINUOUS
 62
   249
 10
297.5
 20
195.0
 30
0.0
 11
260.0
 21
195.0
 31
0.0
  0
LINE
  8
0
  6
CONTINUOUS
 62
   249
 10
248.75
 20
192.5
 30
0.0
 11
248.75
 21
187.5
 31
0.0
  0
LINE
  8
0
  6
CONTINUOUS
 62
   249
 10
260.0
 20
187.5
 30
0.0
 11
260.0
 21
192.5
 31
0.0
  0
LINE
  8
0
  6
CONTINUOUS
 62
   249
 10
297.5
 20
190.0
 30
0.0
 11
260.0
 21
190.0
 31
0.0
  0
LINE
  8
0
  6
CONTINUOUS
 62
   249
 10
248.75
 20
187.5
 30
0.0
 11
248.75
 21
182.5
 31
0.0
  0
LINE
  8
0
  6
CONTINUOUS
 62
   249
 10
260.0
 20
182.5
 30
0.0
 11
260.0
 21
187.5
 31
0.0
  0
LINE
  8
0
  6
CONTINUOUS
 62
   249
 10
297.5
 20
185.0
 30
0.0
 11
260.0
 21
185.0
 31
0.0
  0
LINE
  8
0
  6
CONTINUOUS
 62
   249
 10
260.0
 20
177.5
 30
0.0
 11
248.75
 21
177.5
 31
0.0
  0
LINE
  8
0
  6
CONTINUOUS
 62
   249
 10
248.75
 20
182.5
 30
0.0
 11
248.75
 21
177.5
 31
0.0
  0
LINE
  8
0
  6
CONTINUOUS
 62
   249
 10
260.0
 20
177.5
 30
0.0
 11
260.0
 21
182.5
 31
0.0
  0
LINE
  8
0
  6
CONTINUOUS
 62
   249
 10
297.5
 20
180.0
 30
0.0
 11
260.0
 21
180.0
 31
0.0
  0
LINE
  8
0
  6
CONTINUOUS
 62
   249
 10
260.0
 20
172.5
 30
0.0
 11
248.75
 21
172.5
 31
0.0
  0
LINE
  8
0
  6
CONTINUOUS
 62
   249
 10
256.875
 20
177.5
 30
0.0
 11
254.375
 21
173.75
 31
0.0
  0
LINE
  8
0
  6
CONTINUOUS
 62
   249
 10
255.0
 20
177.5
 30
0.0
 11
252.5
 21
173.75
 31
0.0
  0
LINE
  8
0
  6
CONTINUOUS
 62
   249
 10
248.75
 20
177.5
 30
0.0
 11
248.75
 21
172.5
 31
0.0
  0
LINE
  8
0
  6
CONTINUOUS
 62
   249
 10
260.0
 20
177.5
 30
0.0
 11
248.75
 21
177.5
 31
0.0
  0
LINE
  8
0
  6
CONTINUOUS
 62
   249
 10
260.0
 20
172.5
 30
0.0
 11
260.0
 21
177.5
 31
0.0
  0
LINE
  8
0
  6
CONTINUOUS
 62
   249
 10
297.5
 20
175.0
 30
0.0
 11
260.0
 21
175.0
 31
0.0
  0
LINE
  8
0
  6
CONTINUOUS
 62
   249
 10
260.0
 20
167.5
 30
0.0
 11
248.75
 21
167.5
 31
0.0
  0
LINE
  8
0
  6
CONTINUOUS
 62
   249
 10
256.875
 20
172.5
 30
0.0
 11
254.375
 21
168.75
 31
0.0
  0
LINE
  8
0
  6
CONTINUOUS
 62
   249
 10
255.0
 20
172.5
 30
0.0
 11
252.5
 21
168.75
 31
0.0
  0
LINE
  8
0
  6
CONTINUOUS
 62
   249
 10
248.75
 20
172.5
 30
0.0
 11
248.75
 21
167.5
 31
0.0
  0
LINE
  8
0
  6
CONTINUOUS
 62
   249
 10
260.0
 20
172.5
 30
0.0
 11
248.75
 21
172.5
 31
0.0
  0
LINE
  8
0
  6
CONTINUOUS
 62
   249
 10
260.0
 20
167.5
 30
0.0
 11
260.0
 21
172.5
 31
0.0
  0
LINE
  8
0
  6
CONTINUOUS
 62
   249
 10
297.5
 20
170.0
 30
0.0
 11
260.0
 21
170.0
 31
0.0
  0
LINE
  8
0
  6
CONTINUOUS
 62
   249
 10
260.0
 20
162.5
 30
0.0
 11
248.75
 21
162.5
 31
0.0
  0
LINE
  8
0
  6
CONTINUOUS
 62
   249
 10
256.875
 20
167.5
 30
0.0
 11
254.375
 21
163.75
 31
0.0
  0
LINE
  8
0
  6
CONTINUOUS
 62
   249
 10
255.0
 20
167.5
 30
0.0
 11
252.5
 21
163.75
 31
0.0
  0
LINE
  8
0
  6
CONTINUOUS
 62
   249
 10
248.75
 20
167.5
 30
0.0
 11
248.75
 21
162.5
 31
0.0
  0
LINE
  8
0
  6
CONTINUOUS
 62
   249
 10
260.0
 20
167.5
 30
0.0
 11
248.75
 21
167.5
 31
0.0
  0
LINE
  8
0
  6
CONTINUOUS
 62
   249
 10
260.0
 20
162.5
 30
0.0
 11
260.0
 21
167.5
 31
0.0
  0
LINE
  8
0
  6
CONTINUOUS
 62
   249
 10
297.5
 20
165.0
 30
0.0
 11
260.0
 21
165.0
 31
0.0
  0
LINE
  8
0
  6
CONTINUOUS
 62
   249
 10
260.0
 20
157.5
 30
0.0
 11
248.75
 21
157.5
 31
0.0
  0
LINE
  8
0
  6
CONTINUOUS
 62
   249
 10
256.875
 20
162.5
 30
0.0
 11
254.375
 21
158.75
 31
0.0
  0
LINE
  8
0
  6
CONTINUOUS
 62
   249
 10
255.0
 20
162.5
 30
0.0
 11
252.5
 21
158.75
 31
0.0
  0
LINE
  8
0
  6
CONTINUOUS
 62
   249
 10
248.75
 20
162.5
 30
0.0
 11
248.75
 21
157.5
 31
0.0
  0
LINE
  8
0
  6
CONTINUOUS
 62
   249
 10
260.0
 20
162.5
 30
0.0
 11
248.75
 21
162.5
 31
0.0
  0
LINE
  8
0
  6
CONTINUOUS
 62
   249
 10
260.0
 20
157.5
 30
0.0
 11
260.0
 21
162.5
 31
0.0
  0
LINE
  8
0
  6
CONTINUOUS
 62
   249
 10
297.5
 20
160.0
 30
0.0
 11
260.0
 21
160.0
 31
0.0
  0
LINE
  8
0
  6
CONTINUOUS
 62
   249
 10
260.0
 20
152.5
 30
0.0
 11
248.75
 21
152.5
 31
0.0
  0
LINE
  8
0
  6
CONTINUOUS
 62
   249
 10
256.875
 20
157.5
 30
0.0
 11
254.375
 21
153.75
 31
0.0
  0
LINE
  8
0
  6
CONTINUOUS
 62
   249
 10
255.0
 20
157.5
 30
0.0
 11
252.5
 21
153.75
 31
0.0
  0
LINE
  8
0
  6
CONTINUOUS
 62
   249
 10
248.75
 20
157.5
 30
0.0
 11
248.75
 21
152.5
 31
0.0
  0
LINE
  8
0
  6
CONTINUOUS
 62
   249
 10
260.0
 20
157.5
 30
0.0
 11
248.75
 21
157.5
 31
0.0
  0
LINE
  8
0
  6
CONTINUOUS
 62
   249
 10
260.0
 20
152.5
 30
0.0
 11
260.0
 21
157.5
 31
0.0
  0
LINE
  8
0
  6
CONTINUOUS
 62
   249
 10
297.5
 20
155.0
 30
0.0
 11
260.0
 21
155.0
 31
0.0
  0
LINE
  8
0
  6
CONTINUOUS
 62
   249
 10
260.0
 20
147.5
 30
0.0
 11
248.75
 21
147.5
 31
0.0
  0
LINE
  8
0
  6
CONTINUOUS
 62
   249
 10
256.875
 20
152.5
 30
0.0
 11
254.375
 21
148.75
 31
0.0
  0
LINE
  8
0
  6
CONTINUOUS
 62
   249
 10
255.0
 20
152.5
 30
0.0
 11
252.5
 21
148.75
 31
0.0
  0
LINE
  8
0
  6
CONTINUOUS
 62
   249
 10
248.75
 20
152.5
 30
0.0
 11
248.75
 21
147.5
 31
0.0
  0
LINE
  8
0
  6
CONTINUOUS
 62
   249
 10
260.0
 20
152.5
 30
0.0
 11
248.75
 21
152.5
 31
0.0
  0
LINE
  8
0
  6
CONTINUOUS
 62
   249
 10
260.0
 20
147.5
 30
0.0
 11
260.0
 21
152.5
 31
0.0
  0
LINE
  8
0
  6
CONTINUOUS
 62
   249
 10
297.5
 20
150.0
 30
0.0
 11
260.0
 21
150.0
 31
0.0
  0
LINE
  8
0
  6
CONTINUOUS
 62
   249
 10
248.75
 20
147.5
 30
0.0
 11
248.75
 21
142.5
 31
0.0
  0
LINE
  8
0
  6
CONTINUOUS
 62
   249
 10
260.0
 20
147.5
 30
0.0
 11
248.75
 21
147.5
 31
0.0
  0
LINE
  8
0
  6
CONTINUOUS
 62
   249
 10
260.0
 20
142.5
 30
0.0
 11
260.0
 21
147.5
 31
0.0
  0
LINE
  8
0
  6
CONTINUOUS
 62
   249
 10
297.5
 20
145.0
 30
0.0
 11
260.0
 21
145.0
 31
0.0
  0
LINE
  8
0
  6
CONTINUOUS
 62
   249
 10
248.75
 20
142.5
 30
0.0
 11
248.75
 21
137.5
 31
0.0
  0
LINE
  8
0
  6
CONTINUOUS
 62
   249
 10
260.0
 20
137.5
 30
0.0
 11
260.0
 21
142.5
 31
0.0
  0
LINE
  8
0
  6
CONTINUOUS
 62
   249
 10
297.5
 20
140.0
 30
0.0
 11
260.0
 21
140.0
 31
0.0
  0
LINE
  8
0
  6
CONTINUOUS
 62
   249
 10
248.75
 20
137.5
 30
0.0
 11
248.75
 21
132.5
 31
0.0
  0
LINE
  8
0
  6
CONTINUOUS
 62
   249
 10
260.0
 20
132.5
 30
0.0
 11
260.0
 21
137.5
 31
0.0
  0
LINE
  8
0
  6
CONTINUOUS
 62
   249
 10
297.5
 20
135.0
 30
0.0
 11
260.0
 21
135.0
 31
0.0
  0
LINE
  8
0
  6
CONTINUOUS
 62
   249
 10
248.75
 20
132.5
 30
0.0
 11
248.75
 21
127.5
 31
0.0
  0
LINE
  8
0
  6
CONTINUOUS
 62
   249
 10
260.0
 20
127.5
 30
0.0
 11
260.0
 21
132.5
 31
0.0
  0
LINE
  8
0
  6
CONTINUOUS
 62
   249
 10
297.5
 20
130.0
 30
0.0
 11
260.0
 21
130.0
 31
0.0
  0
LINE
  8
0
  6
CONTINUOUS
 62
   249
 10
260.0
 20
122.5
 30
0.0
 11
248.75
 21
122.5
 31
0.0
  0
LINE
  8
0
  6
CONTINUOUS
 62
   249
 10
248.75
 20
127.5
 30
0.0
 11
248.75
 21
122.5
 31
0.0
  0
LINE
  8
0
  6
CONTINUOUS
 62
   249
 10
297.5
 20
125.0
 30
0.0
 11
260.0
 21
125.0
 31
0.0
  0
LINE
  8
0
  6
CONTINUOUS
 62
   249
 10
260.0
 20
122.5
 30
0.0
 11
260.0
 21
127.5
 31
0.0
  0
LINE
  8
0
  6
CONTINUOUS
 62
   249
 10
260.0
 20
117.5
 30
0.0
 11
248.75
 21
117.5
 31
0.0
  0
LINE
  8
0
  6
CONTINUOUS
 62
   249
 10
255.0
 20
122.5
 30
0.0
 11
252.5
 21
118.75
 31
0.0
  0
LINE
  8
0
  6
CONTINUOUS
 62
   249
 10
256.875
 20
122.5
 30
0.0
 11
254.375
 21
118.75
 31
0.0
  0
LINE
  8
0
  6
CONTINUOUS
 62
   249
 10
248.75
 20
122.5
 30
0.0
 11
248.75
 21
117.5
 31
0.0
  0
LINE
  8
0
  6
CONTINUOUS
 62
   249
 10
297.5
 20
120.0
 30
0.0
 11
260.0
 21
120.0
 31
0.0
  0
LINE
  8
0
  6
CONTINUOUS
 62
   249
 10
260.0
 20
117.5
 30
0.0
 11
260.0
 21
122.5
 31
0.0
  0
LINE
  8
0
  6
CONTINUOUS
 62
   249
 10
260.0
 20
112.5
 30
0.0
 11
248.75
 21
112.5
 31
0.0
  0
LINE
  8
0
  6
CONTINUOUS
 62
   249
 10
255.0
 20
117.5
 30
0.0
 11
252.5
 21
113.75
 31
0.0
  0
LINE
  8
0
  6
CONTINUOUS
 62
   249
 10
256.875
 20
117.5
 30
0.0
 11
254.375
 21
113.75
 31
0.0
  0
LINE
  8
0
  6
CONTINUOUS
 62
   249
 10
248.75
 20
117.5
 30
0.0
 11
248.75
 21
112.5
 31
0.0
  0
LINE
  8
0
  6
CONTINUOUS
 62
   249
 10
297.5
 20
115.0
 30
0.0
 11
260.0
 21
115.0
 31
0.0
  0
LINE
  8
0
  6
CONTINUOUS
 62
   249
 10
260.0
 20
112.5
 30
0.0
 11
260.0
 21
117.5
 31
0.0
  0
LINE
  8
0
  6
CONTINUOUS
 62
   249
 10
260.0
 20
182.5
 30
0.0
 11
248.75
 21
182.5
 31
0.0
  0
LINE
  8
0
  6
CONTINUOUS
 62
   249
 10
255.0
 20
182.5
 30
0.0
 11
252.5
 21
178.75
 31
0.0
  0
LINE
  8
0
  6
CONTINUOUS
 62
   249
 10
256.875
 20
182.5
 30
0.0
 11
254.375
 21
178.75
 31
0.0
  0
LINE
  8
0
  6
CONTINUOUS
 62
   249
 10
260.0
 20
187.5
 30
0.0
 11
248.75
 21
187.5
 31
0.0
  0
LINE
  8
0
  6
CONTINUOUS
 62
   249
 10
255.0
 20
187.5
 30
0.0
 11
252.5
 21
183.75
 31
0.0
  0
LINE
  8
0
  6
CONTINUOUS
 62
   249
 10
256.875
 20
187.5
 30
0.0
 11
254.375
 21
183.75
 31
0.0
  0
TEXT
  8
0
  6
CONTINUOUS
 62
   249
 10
250.0
 20
196.538411
 30
0.0
 40
2.0
  1
+48V
  7
GREEKS
  0
TEXT
  8
0
  6
CONTINUOUS
 62
   249
 10
250.0
 20
134.368217
 30
0.0
 40
2.0
  1
+48V
  7
GREEKS
  0
TEXT
  8
0
  6
CONTINUOUS
 62
   249
 10
265.686262
 20
241.586108
 30
0.0
 40
2.0
  1
CH 1
  7
ROMANS
  0
TEXT
  8
0
  6
CONTINUOUS
 62
   249
 10
265.686262
 20
236.873765
 30
0.0
 40
2.0
  1
CH 2
  7
ROMANS
  0
TEXT
  8
0
  6
CONTINUOUS
 62
   249
 10
265.686262
 20
231.796857
 30
0.0
 40
2.0
  1
CH 3
  7
ROMANS
  0
TEXT
  8
0
  6
CONTINUOUS
 62
   249
 10
265.686262
 20
226.727874
 30
0.0
 40
2.0
  1
CH 4
  7
ROMANS
  0
TEXT
  8
0
  6
CONTINUOUS
 62
   249
 10
265.686262
 20
221.658891
 30
0.0
 40
2.0
  1
CH 5
  7
ROMANS
  0
TEXT
  8
0
  6
CONTINUOUS
 62
   249
 10
265.686262
 20
216.249118
 30
0.0
 40
2.0
  1
CH 6
  7
ROMANS
  0
TEXT
  8
0
  6
CONTINUOUS
 62
   249
 10
265.686262
 20
211.52885
 30
0.0
 40
2.0
  1
CH 7
  7
ROMANS
  0
TEXT
  8
0
  6
CONTINUOUS
 62
   249
 10
265.686262
 20
206.451942
 30
0.0
 40
2.0
  1
CH 8
  7
ROMANS
  0
TEXT
  8
0
  6
CONTINUOUS
 62
   249
 10
265.686262
 20
181.617159
 30
0.0
 40
2.0
  1
CH 9
  7
ROMANS
  0
TEXT
  8
0
  6
CONTINUOUS
 62
   249
 10
265.686262
 20
176.896891
 30
0.0
 40
2.0
  1
CH 10
  7
ROMANS
  0
TEXT
  8
0
  6
CONTINUOUS
 62
   249
 10
265.686262
 20
171.827908
 30
0.0
 40
2.0
  1
CH 11
  7
ROMANS
  0
TEXT
  8
0
  6
CONTINUOUS
 62
   249
 10
265.686262
 20
166.41021
 30
0.0
 40
2.0
  1
CH 12
  7
ROMANS
  0
TEXT
  8
0
  6
CONTINUOUS
 62
   249
 10
265.686262
 20
161.689942
 30
0.0
 40
2.0
  1
CH 13
  7
ROMANS
  0
TEXT
  8
0
  6
CONTINUOUS
 62
   249
 10
265.686262
 20
156.628884
 30
0.0
 40
2.0
  1
CH 14
  7
ROMANS
  0
TEXT
  8
0
  6
CONTINUOUS
 62
   249
 10
265.686262
 20
151.551976
 30
0.0
 40
2.0
  1
CH 15
  7
ROMANS
  0
TEXT
  8
0
  6
CONTINUOUS
 62
   249
 10
265.686262
 20
146.490918
 30
0.0
 40
2.0
  1
CH 16
  7
ROMANS
  0
TEXT
  8
0
  6
CONTINUOUS
 62
   249
 10
265.686262
 20
116.797901
 30
0.0
 40
2.0
  1
AUD. RESET
  7
ROMANS
  0
TEXT
  8
0
  6
CONTINUOUS
 62
   249
 10
265.686262
 20
111.031488
 30
0.0
 40
2.0
  1
RESET
  7
ROMANS
  0
LINE
  8
0
  6
CONTINUOUS
 62
   249
 10
175.0
 20
232.5
 30
0.0
 11
157.5
 21
232.5
 31
0.0
  0
LINE
  8
0
  6
CONTINUOUS
 62
   249
 10
157.5
 20
241.25
 30
0.0
 11
157.5
 21
232.5
 31
0.0
  0
LINE
  8
0
  6
CONTINUOUS
 62
   249
 10
157.5
 20
250.0
 30
0.0
 11
157.5
 21
241.25
 31
0.0
  0
LINE
  8
0
  6
CONTINUOUS
 62
   249
 10
175.0
 20
250.0
 30
0.0
 11
157.5
 21
250.0
 31
0.0
  0
LINE
  8
0
  6
CONTINUOUS
 62
   249
 10
175.0
 20
241.25
 30
0.0
 11
157.5
 21
241.25
 31
0.0
  0
LINE
  8
0
  6
CONTINUOUS
 62
   249
 10
175.0
 20
241.25
 30
0.0
 11
175.0
 21
250.0
 31
0.0
  0
LINE
  8
0
  6
CONTINUOUS
 62
   249
 10
175.0
 20
232.5
 30
0.0
 11
175.0
 21
241.25
 31
0.0
  0
CIRCLE
  8
0
  6
CONTINUOUS
 62
   249
 10
182.5
 20
245.625
 30
0.0
 40
0.9375
  0
CIRCLE
  8
0
  6
CONTINUOUS
 62
   249
 10
182.5
 20
236.875
 30
0.0
 40
0.9375
  0
LINE
  8
0
  6
CONTINUOUS
 62
   249
 10
175.0
 20
245.625
 30
0.0
 11
181.5625
 21
245.625
 31
0.0
  0
LINE
  8
0
  6
CONTINUOUS
 62
   249
 10
175.0
 20
236.875
 30
0.0
 11
181.5625
 21
236.875
 31
0.0
  0
TEXT
  8
0
  6
CONTINUOUS
 62
   249
 10
185.938012
 20
106.561832
 30
0.0
 40
1.5
  1
RESET
  7
GREEKS
  0
TEXT
  8
0
  6
CONTINUOUS
 62
   249
 10
187.624199
 20
101.813465
 30
0.0
 40
1.5
  1
I/O
  7
GREEKS
  0
TEXT
  8
0
  6
CONTINUOUS
 62
   249
 10
184.061988
 20
96.870994
 30
0.0
 40
1.5
  1
AUD.ALARM
  7
GREEKS
  0
TEXT
  8
0
  6
CONTINUOUS
 62
   249
 10
186.496352
 20
91.859015
 30
0.0
 40
1.5
  1
FAULT
  7
GREEKS
  0
LINE
  8
0
  6
CONTINUOUS
 62
   249
 10
202.5
 20
55.0
 30
0.0
 11
202.5
 21
85.0
 31
0.0
  0
LINE
  8
0
  6
CONTINUOUS
 62
   249
 10
202.5
 20
85.0
 30
0.0
 11
137.5
 21
85.0
 31
0.0
  0
LINE
  8
0
  6
CONTINUOUS
 62
   249
 10
148.240939
 20
77.5
 30
0.0
 11
197.5
 21
77.5
 31
0.0
  0
LINE
  8
0
  6
CONTINUOUS
 62
   249
 10
197.5
 20
77.5
 30
0.0
 11
197.5
 21
55.0
 31
0.0
  0
LINE
  8
0
  6
CONTINUOUS
 62
   249
 10
192.5
 20
55.0
 30
0.0
 11
192.5
 21
70.0
 31
0.0
  0
LINE
  8
0
  6
CONTINUOUS
 62
   249
 10
192.5
 20
70.0
 30
0.0
 11
160.740939
 21
70.0
 31
0.0
  0
LINE
  8
0
  6
CONTINUOUS
 62
   249
 10
187.5
 20
55.0
 30
0.0
 11
187.5
 21
62.5
 31
0.0
  0
LINE
  8
0
  6
CONTINUOUS
 62
   249
 10
187.5
 20
62.5
 30
0.0
 11
173.240939
 21
62.5
 31
0.0
  0
LINE
  8
0
  6
CONTINUOUS
 62
   249
 10
95.0
 20
88.5
 30
0.0
 11
94.0
 21
87.5
 31
0.0
  0
LINE
  8
0
  6
CONTINUOUS
 62
   249
 10
95.0
 20
115.5
 30
0.0
 11
94.0
 21
116.5
 31
0.0
  0
LINE
  8
0
  6
CONTINUOUS
 62
   249
 10
95.0
 20
115.5
 30
0.0
 11
95.0
 21
88.5
 31
0.0
  0
LINE
  8
0
  6
CONTINUOUS
 62
   249
 10
245.0
 20
245.5
 30
0.0
 11
245.0
 21
208.5
 31
0.0
  0
LINE
  8
0
  6
CONTINUOUS
 62
   249
 10
245.0
 20
245.5
 30
0.0
 11
246.0
 21
246.5
 31
0.0
  0
LINE
  8
0
  6
CONTINUOUS
 62
   249
 10
245.0
 20
208.5
 30
0.0
 11
246.0
 21
207.5
 31
0.0
  0
LINE
  8
0
  6
CONTINUOUS
 62
   249
 10
82.5
 20
110.0
 30
0.0
 11
92.5
 21
110.0
 31
0.0
  0
LINE
  8
0
  6
CONTINUOUS
 62
   249
 10
82.5
 20
105.0
 30
0.0
 11
92.5
 21
105.0
 31
0.0
  0
LINE
  8
0
  6
CONTINUOUS
 62
   249
 10
82.5
 20
100.0
 30
0.0
 11
92.5
 21
100.0
 31
0.0
  0
LINE
  8
0
  6
CONTINUOUS
 62
   249
 10
82.5
 20
95.0
 30
0.0
 11
92.5
 21
95.0
 31
0.0
  0
LINE
  8
0
  6
CONTINUOUS
 62
   249
 10
82.5
 20
90.0
 30
0.0
 11
92.5
 21
90.0
 31
0.0
  0
LINE
  8
0
  6
CONTINUOUS
 62
   249
 10
82.5
 20
115.0
 30
0.0
 11
92.5
 21
115.0
 31
0.0
  0
LINE
  8
0
  6
CONTINUOUS
 62
   249
 10
180.0
 20
102.5
 30
0.0
 11
95.0
 21
102.5
 31
0.0
  0
LINE
  8
0
  6
CONTINUOUS
 62
   249
 10
133.240939
 20
85.0
 30
0.0
 11
137.5
 21
85.0
 31
0.0
  0
LINE
  8
0
  6
CONTINUOUS
 62
   249
 10
118.0
 20
85.0
 30
0.0
 11
127.5
 21
85.0
 31
0.0
  0
LINE
  8
0
  6
CONTINUOUS
 62
   249
 10
131.853436
 20
84.638137
 30
0.0
 11
126.756076
 21
81.785297
 31
0.0
  0
LINE
  8
0
  6
CONTINUOUS
 62
   249
 10
127.5
 20
80.0
 30
0.0
 11
118.240939
 21
80.0
 31
0.0
  0
LINE
  8
0
  6
CONTINUOUS
 62
   249
 10
127.5
 20
80.0
 30
0.0
 11
127.5
 21
82.5
 31
0.0
  0
CIRCLE
  8
0
  6
CONTINUOUS
 62
   249
 10
132.5
 20
85.0
 30
0.0
 40
0.740939
  0
LINE
  8
0
  6
CONTINUOUS
 62
   249
 10
142.5
 20
72.5
 30
0.0
 11
142.5
 21
75.0
 31
0.0
  0
LINE
  8
0
  6
CONTINUOUS
 62
   249
 10
146.853436
 20
77.138137
 30
0.0
 11
141.756076
 21
74.285297
 31
0.0
  0
CIRCLE
  8
0
  6
CONTINUOUS
 62
   249
 10
147.5
 20
77.5
 30
0.0
 40
0.740939
  0
LINE
  8
0
  6
CONTINUOUS
 62
   249
 10
142.5
 20
72.5
 30
0.0
 11
133.240939
 21
72.5
 31
0.0
  0
LINE
  8
0
  6
CONTINUOUS
 62
   249
 10
133.0
 20
77.5
 30
0.0
 11
142.5
 21
77.5
 31
0.0
  0
LINE
  8
0
  6
CONTINUOUS
 62
   249
 10
155.0
 20
65.0
 30
0.0
 11
155.0
 21
67.5
 31
0.0
  0
LINE
  8
0
  6
CONTINUOUS
 62
   249
 10
159.353436
 20
69.638137
 30
0.0
 11
154.256076
 21
66.785297
 31
0.0
  0
CIRCLE
  8
0
  6
CONTINUOUS
 62
   249
 10
160.0
 20
70.0
 30
0.0
 40
0.740939
  0
LINE
  8
0
  6
CONTINUOUS
 62
   249
 10
155.0
 20
65.0
 30
0.0
 11
145.740939
 21
65.0
 31
0.0
  0
LINE
  8
0
  6
CONTINUOUS
 62
   249
 10
145.740939
 20
70.0
 30
0.0
 11
155.0
 21
70.0
 31
0.0
  0
LINE
  8
0
  6
CONTINUOUS
 62
   249
 10
167.5
 20
57.5
 30
0.0
 11
167.5
 21
60.0
 31
0.0
  0
LINE
  8
0
  6
CONTINUOUS
 62
   249
 10
171.853436
 20
62.138137
 30
0.0
 11
166.756076
 21
59.285297
 31
0.0
  0
CIRCLE
  8
0
  6
CONTINUOUS
 62
   249
 10
172.5
 20
62.5
 30
0.0
 40
0.740939
  0
LINE
  8
0
  6
CONTINUOUS
 62
   249
 10
167.5
 20
57.5
 30
0.0
 11
158.240939
 21
57.5
 31
0.0
  0
LINE
  8
0
  6
CONTINUOUS
 62
   249
 10
158.0
 20
62.5
 30
0.0
 11
167.5
 21
62.5
 31
0.0
  0
CIRCLE
  8
0
  6
CONTINUOUS
 62
   249
 10
117.5
 20
80.0
 30
0.0
 40
0.740939
  0
CIRCLE
  8
0
  6
CONTINUOUS
 62
   249
 10
132.5
 20
72.5
 30
0.0
 40
0.740939
  0
CIRCLE
  8
0
  6
CONTINUOUS
 62
   249
 10
145.0
 20
70.0
 30
0.0
 40
0.740939
  0
CIRCLE
  8
0
  6
CONTINUOUS
 62
   249
 10
157.5
 20
57.5
 30
0.0
 40
0.740939
  0
LINE
  8
0
  6
CONTINUOUS
 62
   249
 10
117.0
 20
82.5
 30
0.0
 11
82.5
 21
82.5
 31
0.0
  0
LINE
  8
0
  6
CONTINUOUS
 62
   249
 10
132.0
 20
75.0
 30
0.0
 11
82.5
 21
75.0
 31
0.0
  0
LINE
  8
0
  6
CONTINUOUS
 62
   249
 10
144.5
 20
67.5
 30
0.0
 11
82.5
 21
67.5
 31
0.0
  0
LINE
  8
0
  6
CONTINUOUS
 62
   249
 10
157.0
 20
60.0
 30
0.0
 11
82.5
 21
60.0
 31
0.0
  0
ARC
  8
0
  6
CONTINUOUS
 62
   249
 10
118.0
 20
83.75
 30
0.0
 40
1.25
 50
270.0
 51
90.0
  0
ARC
  8
0
  6
CONTINUOUS
 62
   249
 10
133.0
 20
76.25
 30
0.0
 40
1.25
 50
270.0
 51
90.0
  0
ARC
  8
0
  6
CONTINUOUS
 62
   249
 10
145.5
 20
66.25
 30
0.0
 40
1.25
 50
270.0
 51
90.0
  0
ARC
  8
0
  6
CONTINUOUS
 62
   249
 10
158.0
 20
61.25
 30
0.0
 40
1.25
 50
270.0
 51
90.0
  0
TEXT
  8
0
  6
CONTINUOUS
 62
   249
 10
85.0
 20
111.809987
 30
0.0
 40
2.0
  1
1
  7
ROMANS
  0
TEXT
  8
0
  6
CONTINUOUS
 62
   249
 10
85.0
 20
106.81551
 30
0.0
 40
2.0
  1
2
  7
ROMANS
  0
TEXT
  8
0
  6
CONTINUOUS
 62
   249
 10
85.0
 20
101.814644
 30
0.0
 40
2.0
  1
3
  7
ROMANS
  0
TEXT
  8
0
  6
CONTINUOUS
 62
   249
 10
84.568674
 20
96.539051
 30
0.0
 40
2.0
  1
13
  7
ROMANS
  0
TEXT
  8
0
  6
CONTINUOUS
 62
   249
 10
84.568674
 20
91.825691
 30
0.0
 40
2.0
  1
14
  7
ROMANS
  0
TEXT
  8
0
  6
CONTINUOUS
 62
   249
 10
84.568674
 20
86.824826
 30
0.0
 40
2.0
  1
15
  7
ROMANS
  0
TEXT
  8
0
  6
CONTINUOUS
 62
   249
 10
85.0
 20
78.923349
 30
0.0
 40
2.0
  1
6
  7
ROMANS
  0
TEXT
  8
0
  6
CONTINUOUS
 62
   249
 10
85.0
 20
71.705496
 30
0.0
 40
2.0
  1
8
  7
ROMANS
  0
TEXT
  8
0
  6
CONTINUOUS
 62
   249
 10
84.664524
 20
64.494032
 30
0.0
 40
2.0
  1
10
  7
ROMANS
  0
TEXT
  8
0
  6
CONTINUOUS
 62
   249
 10
84.664524
 20
57.00784
 30
0.0
 40
2.0
  1
12
  7
ROMANS
  0
INSERT
  8
0
  6
CONTINUOUS
 62
   249
  2
BLC29
 10
171.446141
 20
102.371535
 30
0.0
 41
-1.0
 50
180.0
  0
CIRCLE
  8
0
  6
CONTINUOUS
 62
   249
 10
178.821745
 20
92.489492
 30
0.0
 40
1.178255
  0
LINE
  8
0
  6
CONTINUOUS
 62
   249
 10
180.0
 20
97.5
 30
0.0
 11
170.0
 21
97.5
 31
0.0
  0
LINE
  8
0
  6
CONTINUOUS
 62
   249
 10
170.0
 20
97.5
 30
0.0
 11
170.0
 21
87.5
 31
0.0
  0
LINE
  8
0
  6
CONTINUOUS
 62
   249
 10
177.643536
 20
92.5
 30
0.0
 11
157.5
 21
92.5
 31
0.0
  0
LINE
  8
0
  6
CONTINUOUS
 62
   249
 10
157.5
 20
92.5
 30
0.0
 11
157.5
 21
87.5
 31
0.0
  0
LINE
  8
0
  6
DASHED
 62
   249
 10
170.0
 20
87.5
 30
0.0
 11
170.0
 21
61.100824
 31
0.0
  0
LINE
  8
0
  6
DASHED
 62
   249
 10
157.5
 20
87.5
 30
0.0
 11
157.5
 21
68.600824
 31
0.0
  0
LINE
  8
0
  6
DASHED
 62
   249
 10
145.0
 20
87.5
 30
0.0
 11
145.0
 21
76.100824
 31
0.0
  0
LINE
  8
0
  6
DASHED
 62
   249
 10
130.0
 20
87.5
 30
0.0
 11
130.0
 21
83.600824
 31
0.0
  0
LINE
  8
0
  6
CONTINUOUS
 62
   249
 10
157.5
 20
245.625
 30
0.0
 11
130.0
 21
245.625
 31
0.0
  0
LINE
  8
0
  6
CONTINUOUS
 62
   249
 10
130.0
 20
245.625
 30
0.0
 11
130.0
 21
87.5
 31
0.0
  0
LINE
  8
0
  6
CONTINUOUS
 62
   249
 10
157.5
 20
236.875
 30
0.0
 11
145.0
 21
236.875
 31
0.0
  0
LINE
  8
0
  6
CONTINUOUS
 62
   249
 10
145.0
 20
236.875
 30
0.0
 11
145.0
 21
87.5
 31
0.0
  0
LINE
  8
0
  6
CONTINUOUS
 62
   249
 10
245.0
 20
148.5
 30
0.0
 11
246.0
 21
147.5
 31
0.0
  0
LINE
  8
0
  6
CONTINUOUS
 62
   249
 10
245.0
 20
185.5
 30
0.0
 11
246.0
 21
186.5
 31
0.0
  0
LINE
  8
0
  6
CONTINUOUS
 62
   249
 10
245.0
 20
185.5
 30
0.0
 11
245.0
 21
148.5
 31
0.0
  0
LINE
  8
0
  6
CONTINUOUS
 62
   249
 10
245.0
 20
227.5
 30
0.0
 11
225.0
 21
227.5
 31
0.0
  0
LINE
  8
0
  6
CONTINUOUS
 62
   249
 10
245.0
 20
167.5
 30
0.0
 11
225.0
 21
167.5
 31
0.0
  0
LINE
  8
0
  6
CONTINUOUS
 62
   249
 10
225.0
 20
111.0
 30
0.0
 11
224.0
 21
110.0
 31
0.0
  0
LINE
  8
0
  6
CONTINUOUS
 62
   249
 10
225.0
 20
248.0
 30
0.0
 11
224.0
 21
249.0
 31
0.0
  0
LINE
  8
0
  6
CONTINUOUS
 62
   249
 10
225.0
 20
248.0
 30
0.0
 11
225.0
 21
111.0
 31
0.0
  0
LINE
  8
0
  6
CONTINUOUS
 62
   249
 10
248.75
 20
197.5
 30
0.0
 11
237.5
 21
197.5
 31
0.0
  0
LINE
  8
0
  6
CONTINUOUS
 62
   249
 10
237.5
 20
197.5
 30
0.0
 11
237.5
 21
111.064116
 31
0.0
  0
LINE
  8
0
  6
CONTINUOUS
 62
   249
 10
237.5
 20
104.072204
 30
0.0
 11
237.5
 21
102.5
 31
0.0
  0
LINE
  8
0
  6
CONTINUOUS
 62
   249
 10
237.5
 20
102.5
 30
0.0
 11
260.0
 21
102.5
 31
0.0
  0
LINE
  8
0
  6
CONTINUOUS
 62
   249
 10
248.75
 20
132.5
 30
0.0
 11
237.5
 21
132.5
 31
0.0
  0
LINE
  8
0
  6
CONTINUOUS
 62
   249
 10
245.0
 20
121.636502
 30
0.0
 11
246.0
 21
122.636502
 31
0.0
  0
LINE
  8
0
  6
CONTINUOUS
 62
   249
 10
245.0
 20
113.675152
 30
0.0
 11
246.0
 21
112.675152
 31
0.0
  0
LINE
  8
0
  6
CONTINUOUS
 62
   249
 10
245.0
 20
113.675152
 30
0.0
 11
245.0
 21
121.636502
 31
0.0
  0
LINE
  8
0
  6
CONTINUOUS
 62
   249
 10
200.0
 20
107.5
 30
0.0
 11
227.5
 21
107.5
 31
0.0
  0
LINE
  8
0
  6
CONTINUOUS
 62
   249
 10
227.5
 20
107.5
 30
0.0
 11
227.5
 21
117.5
 31
0.0
  0
LINE
  8
0
  6
CONTINUOUS
 62
   249
 10
227.5
 20
117.5
 30
0.0
 11
245.0
 21
117.5
 31
0.0
  0
LINE
  8
0
  6
CONTINUOUS
 62
   249
 10
265.0
 20
90.429605
 30
0.0
 11
265.0
 21
87.5
 31
0.0
  0
LINE
  8
0
  6
CONTINUOUS
 62
   249
 10
260.0
 20
90.429605
 30
0.0
 11
260.0
 21
85.0
 31
0.0
  0
LINE
  8
0
  6
CONTINUOUS
 62
   249
 10
265.0
 20
105.0
 30
0.0
 11
265.0
 21
99.752154
 31
0.0
  0
LINE
  8
0
  6
CONTINUOUS
 62
   249
 10
262.5
 20
105.0
 30
0.0
 11
262.5
 21
99.752154
 31
0.0
  0
LINE
  8
0
 62
   249
 10
262.466311
 20
92.72844
 30
0.0
 11
266.466311
 21
92.72844
 31
0.0
  0
LINE
  8
0
 62
   249
 10
258.709901
 20
97.674464
 30
0.0
 11
262.709901
 21
97.674464
 31
0.0
  0
LINE
  8
0
 62
   249
 10
257.795103
 20
91.386207
 30
0.0
 11
266.158613
 21
99.752154
 31
0.0
  0
LINE
  8
0
 62
   249
 10
258.779395
 20
90.429605
 30
0.0
 11
267.119756
 21
98.767352
 31
0.0
  0
LINE
  8
0
 62
   249
 10
257.795103
 20
90.429605
 30
0.0
 11
257.795103
 21
99.752154
 31
0.0
  0
LINE
  8
0
 62
   249
 10
267.119756
 20
90.429605
 30
0.0
 11
257.795103
 21
90.429605
 31
0.0
  0
LINE
  8
0
 62
   249
 10
267.119756
 20
99.752154
 30
0.0
 11
267.119756
 21
90.429605
 31
0.0
  0
LINE
  8
0
 62
   249
 10
257.795103
 20
99.752154
 30
0.0
 11
267.119756
 21
99.752154
 31
0.0
  0
TEXT
  8
0
  6
CONTINUOUS
 62
   249
 10
264.366734
 20
105.55315
 30
0.0
 40
2.0
  1
+
  0
TEXT
  8
0
  6
CONTINUOUS
 62
   249
 10
261.797086
 20
105.577719
 30
0.0
 40
2.0
  1
-
  0
ARC
  8
0
 62
   249
 10
263.672927
 20
90.936221
 30
0.0
 40
0.869227
 50
32.471192
 51
175.601295
  0
ARC
  8
0
 62
   249
 10
265.139595
 20
91.869554
 30
0.0
 40
0.869227
 50
212.471192
 51
355.601295
  0
LINE
  8
0
 62
   249
 10
240.964817
 20
104.072204
 30
0.0
 11
233.971327
 21
104.072204
 31
0.0
  0
LINE
  8
0
 62
   249
 10
233.971327
 20
104.072204
 30
0.0
 11
233.971327
 21
111.064116
 31
0.0
  0
LINE
  8
0
 62
   249
 10
234.709547
 20
104.072204
 30
0.0
 11
240.964817
 21
110.325514
 31
0.0
  0
LINE
  8
0
 62
   249
 10
233.971327
 20
104.789655
 30
0.0
 11
240.243959
 21
111.064116
 31
0.0
  0
LINE
  8
0
 62
   249
 10
234.657426
 20
109.505848
 30
0.0
 11
237.657426
 21
109.505848
 31
0.0
  0
LINE
  8
0
 62
   249
 10
233.971327
 20
111.064116
 30
0.0
 11
240.964817
 21
111.064116
 31
0.0
  0
LINE
  8
0
 62
   249
 10
240.964817
 20
111.064116
 30
0.0
 11
240.964817
 21
104.072204
 31
0.0
  0
LINE
  8
0
 62
   249
 10
237.474734
 20
105.79633
 30
0.0
 11
240.474734
 21
105.79633
 31
0.0
  0
LINE
  8
0
  6
CONTINUOUS
 62
   249
 10
260.0
 20
99.752154
 30
0.0
 11
260.0
 21
102.5
 31
0.0
  0
LINE
  8
0
  6
CONTINUOUS
 62
   249
 10
253.75
 20
72.5
 30
0.0
 11
253.75
 21
80.0
 31
0.0
  0
LINE
  8
0
  6
CONTINUOUS
 62
   249
 10
253.75
 20
80.0
 30
0.0
 11
246.25
 21
80.0
 31
0.0
  0
LINE
  8
0
  6
CONTINUOUS
 62
   249
 10
246.25
 20
80.0
 30
0.0
 11
246.25
 21
72.5
 31
0.0
  0
LINE
  8
0
  6
CONTINUOUS
 62
   249
 10
246.25
 20
72.5
 30
0.0
 11
253.75
 21
72.5
 31
0.0
  0
LINE
  8
0
  6
CONTINUOUS
 62
   249
 10
248.75
 20
77.5
 30
0.0
 11
251.5625
 21
77.5
 31
0.0
  0
LINE
  8
0
  6
CONTINUOUS
 62
   249
 10
251.5625
 20
77.5
 30
0.0
 11
248.4375
 21
77.5
 31
0.0
  0
LINE
  8
0
  6
CONTINUOUS
 62
   249
 10
250.0
 20
77.5
 30
0.0
 11
250.0
 21
78.75
 31
0.0
  0
LINE
  8
0
  6
CONTINUOUS
 62
   249
 10
250.0
 20
77.5
 30
0.0
 11
248.125
 21
75.0
 31
0.0
  0
LINE
  8
0
  6
CONTINUOUS
 62
   249
 10
248.125
 20
75.0
 30
0.0
 11
251.875
 21
75.0
 31
0.0
  0
LINE
  8
0
  6
CONTINUOUS
 62
   249
 10
251.875
 20
75.0
 30
0.0
 11
250.0
 21
77.5
 31
0.0
  0
LINE
  8
0
  6
CONTINUOUS
 62
   249
 10
250.0
 20
75.0
 30
0.0
 11
250.0
 21
73.75
 31
0.0
  0
LINE
  8
0
  6
CONTINUOUS
 62
   249
 10
247.5
 20
80.0
 30
0.0
 11
247.5
 21
83.125
 31
0.0
  0
LINE
  8
0
  6
CONTINUOUS
 62
   249
 10
252.5
 20
80.0
 30
0.0
 11
252.5
 21
83.125
 31
0.0
  0
LINE
  8
0
  6
CONTINUOUS
 62
   249
 10
247.5
 20
72.5
 30
0.0
 11
247.5
 21
55.0
 31
0.0
  0
LINE
  8
0
  6
CONTINUOUS
 62
   249
 10
252.5
 20
72.5
 30
0.0
 11
252.5
 21
55.0
 31
0.0
  0
LINE
  8
0
  6
CONTINUOUS
 62
   249
 10
252.5
 20
83.125
 30
0.0
 11
252.5
 21
87.5
 31
0.0
  0
LINE
  8
0
  6
CONTINUOUS
 62
   249
 10
252.5
 20
87.5
 30
0.0
 11
277.5
 21
87.5
 31
0.0
  0
LINE
  8
0
  6
CONTINUOUS
 62
   249
 10
272.5
 20
85.0
 30
0.0
 11
247.5
 21
85.0
 31
0.0
  0
LINE
  8
0
  6
CONTINUOUS
 62
   249
 10
247.5
 20
85.0
 30
0.0
 11
247.5
 21
83.125
 31
0.0
  0
TEXT
  8
0
  6
CONTINUOUS
 62
   249
 10
190.491232
 20
56.293823
 30
0.0
 40
2.0
  1
11
 50
90.0
  7
ROMANS
  0
TEXT
  8
0
  6
CONTINUOUS
 62
   249
 10
195.513924
 20
57.5
 30
0.0
 40
2.0
  1
9
 50
90.0
  7
ROMANS
  0
TEXT
  8
0
  6
CONTINUOUS
 62
   249
 10
200.788223
 20
57.5
 30
0.0
 40
2.0
  1
7
 50
90.0
  7
ROMANS
  0
TEXT
  8
0
  6
CONTINUOUS
 62
   249
 10
205.57129
 20
57.5
 30
0.0
 40
2.0
  1
5
 50
90.0
  7
ROMANS
  0
TEXT
  8
0
  6
CONTINUOUS
 62
   249
 10
250.976919
 20
57.5
 30
0.0
 40
2.0
  1
20
 50
90.0
  7
ROMANS
  0
TEXT
  8
0
  6
CONTINUOUS
 62
   249
 10
255.799878
 20
57.5
 30
0.0
 40
2.0
  1
21
 50
90.0
  7
ROMANS
  0
TEXT
  8
0
  6
CONTINUOUS
 62
   249
 10
265.820733
 20
57.5
 30
0.0
 40
2.0
  1
22
 50
90.0
  7
ROMANS
  0
TEXT
  8
0
  6
CONTINUOUS
 62
   249
 10
275.935602
 20
57.5
 30
0.0
 40
2.0
  1
23
 50
90.0
  7
ROMANS
  0
TEXT
  8
0
  6
CONTINUOUS
 62
   249
 10
280.810654
 20
57.5
 30
0.0
 40
2.0
  1
24
 50
90.0
  7
ROMANS
  0
LINE
  8
0
  6
CONTINUOUS
 62
   249
 10
82.5
 20
90.0
 30
0.0
 11
77.5
 21
90.0
 31
0.0
  0
LINE
  8
0
  6
CONTINUOUS
 62
   249
 10
82.5
 20
95.0
 30
0.0
 11
77.5
 21
95.0
 31
0.0
  0
LINE
  8
0
  6
CONTINUOUS
 62
   249
 10
82.5
 20
100.0
 30
0.0
 11
77.5
 21
100.0
 31
0.0
  0
LINE
  8
0
  6
CONTINUOUS
 62
   249
 10
82.5
 20
105.0
 30
0.0
 11
77.5
 21
105.0
 31
0.0
  0
LINE
  8
0
  6
CONTINUOUS
 62
   249
 10
82.5
 20
110.0
 30
0.0
 11
77.5
 21
110.0
 31
0.0
  0
LINE
  8
0
  6
CONTINUOUS
 62
   249
 10
82.5
 20
115.0
 30
0.0
 11
77.5
 21
115.0
 31
0.0
  0
LINE
  8
0
  6
CONTINUOUS
 62
   249
 10
75.0
 20
115.5
 30
0.0
 11
76.0
 21
116.5
 31
0.0
  0
LINE
  8
0
  6
CONTINUOUS
 62
   249
 10
75.0
 20
115.5
 30
0.0
 11
75.0
 21
88.5
 31
0.0
  0
LINE
  8
0
  6
CONTINUOUS
 62
   249
 10
75.0
 20
88.5
 30
0.0
 11
76.0
 21
87.5
 31
0.0
  0
TEXT
  8
0
  6
CONTINUOUS
 62
   249
 10
42.5
 20
105.0
 30
0.0
 40
2.0
  1
I/O-MODULE RX/TX
  7
ROMANS
  0
TEXT
  8
0
  6
CONTINUOUS
 62
   249
 10
42.5
 20
101.666667
 30
0.0
 40
2.0
  1
IN/UTGÅNGSMODUL
  7
ROMANS
  0
TEXT
  8
0
  6
CONTINUOUS
 62
   249
 10
40.758768
 20
82.083333
 30
0.0
 40
2.0
  1
GROUP ALARM 1
  7
ROMANS
  0
TEXT
  8
0
  6
CONTINUOUS
 62
   249
 10
40.770749
 20
73.75
 30
0.0
 40
2.0
  1
GROUP ALARM 2
  7
ROMANS
  0
TEXT
  8
0
  6
CONTINUOUS
 62
   249
 10
41.25
 20
66.666667
 30
0.0
 40
2.0
  1
INTERNAL FAULT
  7
ROMANS
  0
TEXT
  8
0
  6
CONTINUOUS
 62
   249
 10
41.25
 20
63.333333
 30
0.0
 40
2.0
  1
INTERNT FEL
  7
ROMANS
  0
TEXT
  8
0
  6
CONTINUOUS
 62
   249
 10
31.25
 20
58.75
 30
0.0
 40
2.0
  1
AUD.ALARM/AKUST.LARM
  7
ROMANS
  0
LINE
  8
0
  6
DASHED
 62
   249
 10
82.5
 20
82.5
 30
0.0
 11
70.0
 21
82.5
 31
0.0
  0
LINE
  8
0
  6
DASHED
 62
   249
 10
82.5
 20
75.0
 30
0.0
 11
70.0
 21
75.0
 31
0.0
  0
LINE
  8
0
  6
DASHED
 62
   249
 10
82.5
 20
67.5
 30
0.0
 11
70.0
 21
67.5
 31
0.0
  0
LINE
  8
0
  6
DASHED
 62
   249
 10
82.5
 20
60.0
 30
0.0
 11
70.0
 21
60.0
 31
0.0
  0
LINE
  8
0
  6
DASHED
 62
   249
 10
187.5
 20
55.0
 30
0.0
 11
187.5
 21
46.25
 31
0.0
  0
LINE
  8
0
  6
DASHED
 62
   249
 10
192.5
 20
55.0
 30
0.0
 11
192.5
 21
46.25
 31
0.0
  0
LINE
  8
0
  6
DASHED
 62
   249
 10
197.5
 20
55.0
 30
0.0
 11
197.5
 21
46.25
 31
0.0
  0
LINE
  8
0
  6
DASHED
 62
   249
 10
202.5
 20
55.0
 30
0.0
 11
202.5
 21
46.25
 31
0.0
  0
LINE
  8
0
  6
DASHED
 62
   249
 10
262.5
 20
55.0
 30
0.0
 11
262.5
 21
46.25
 31
0.0
  0
LINE
  8
0
  6
DASHED
 62
   249
 10
252.5
 20
55.0
 30
0.0
 11
252.5
 21
46.25
 31
0.0
  0
LINE
  8
0
  6
DASHED
 62
   249
 10
252.5
 20
55.0
 30
0.0
 11
252.5
 21
46.25
 31
0.0
  0
LINE
  8
0
  6
DASHED
 62
   249
 10
247.5
 20
55.0
 30
0.0
 11
247.5
 21
46.25
 31
0.0
  0
LINE
  8
0
  6
CONTINUOUS
 62
   249
 10
272.5
 20
85.0
 30
0.0
 11
272.5
 21
83.125
 31
0.0
  0
LINE
  8
0
  6
CONTINUOUS
 62
   249
 10
277.5
 20
83.125
 30
0.0
 11
277.5
 21
87.5
 31
0.0
  0
LINE
  8
0
  6
CONTINUOUS
 62
   249
 10
277.5
 20
72.5
 30
0.0
 11
277.5
 21
55.0
 31
0.0
  0
LINE
  8
0
  6
CONTINUOUS
 62
   249
 10
272.5
 20
72.5
 30
0.0
 11
272.5
 21
55.0
 31
0.0
  0
LINE
  8
0
  6
CONTINUOUS
 62
   249
 10
277.5
 20
80.0
 30
0.0
 11
277.5
 21
83.125
 31
0.0
  0
LINE
  8
0
  6
CONTINUOUS
 62
   249
 10
272.5
 20
80.0
 30
0.0
 11
272.5
 21
83.125
 31
0.0
  0
LINE
  8
0
  6
CONTINUOUS
 62
   249
 10
275.0
 20
75.0
 30
0.0
 11
275.0
 21
73.75
 31
0.0
  0
LINE
  8
0
  6
CONTINUOUS
 62
   249
 10
276.875
 20
75.0
 30
0.0
 11
275.0
 21
77.5
 31
0.0
  0
LINE
  8
0
  6
CONTINUOUS
 62
   249
 10
273.125
 20
75.0
 30
0.0
 11
276.875
 21
75.0
 31
0.0
  0
LINE
  8
0
  6
CONTINUOUS
 62
   249
 10
275.0
 20
77.5
 30
0.0
 11
273.125
 21
75.0
 31
0.0
  0
LINE
  8
0
  6
CONTINUOUS
 62
   249
 10
275.0
 20
77.5
 30
0.0
 11
275.0
 21
78.75
 31
0.0
  0
LINE
  8
0
  6
CONTINUOUS
 62
   249
 10
276.5625
 20
77.5
 30
0.0
 11
273.4375
 21
77.5
 31
0.0
  0
LINE
  8
0
  6
CONTINUOUS
 62
   249
 10
273.75
 20
77.5
 30
0.0
 11
276.5625
 21
77.5
 31
0.0
  0
LINE
  8
0
  6
CONTINUOUS
 62
   249
 10
271.25
 20
72.5
 30
0.0
 11
278.75
 21
72.5
 31
0.0
  0
LINE
  8
0
  6
CONTINUOUS
 62
   249
 10
271.25
 20
80.0
 30
0.0
 11
271.25
 21
72.5
 31
0.0
  0
LINE
  8
0
  6
CONTINUOUS
 62
   249
 10
278.75
 20
80.0
 30
0.0
 11
271.25
 21
80.0
 31
0.0
  0
LINE
  8
0
  6
CONTINUOUS
 62
   249
 10
278.75
 20
72.5
 30
0.0
 11
278.75
 21
80.0
 31
0.0
  0
LINE
  8
0
  6
DASHED
 62
   249
 10
277.5
 20
55.0
 30
0.0
 11
277.5
 21
46.25
 31
0.0
  0
LINE
  8
0
  6
DASHED
 62
   249
 10
272.5
 20
55.0
 30
0.0
 11
272.5
 21
46.25
 31
0.0
  0
TEXT
  8
0
  6
CONTINUOUS
 62
   249
 10
251.866734
 20
41.80315
 30
0.0
 40
2.0
  1
+
  0
TEXT
  8
0
  6
CONTINUOUS
 62
   249
 10
248.506878
 20
42.118155
 30
0.0
 40
2.0
  1
-
 50
90.0
  0
TEXT
  8
0
  6
CONTINUOUS
 62
   249
 10
276.866734
 20
41.80315
 30
0.0
 40
2.0
  1
+
  0
TEXT
  8
0
  6
CONTINUOUS
 62
   249
 10
273.506878
 20
42.118155
 30
0.0
 40
2.0
  1
-
 50
90.0
  0
LINE
  8
0
  6
DASHED
 62
   249
 10
246.25
 20
40.0
 30
0.0
 11
248.75
 21
40.0
 31
0.0
  0
LINE
  8
0
  6
DASHED
 62
   249
 10
248.75
 20
40.0
 30
0.0
 11
246.25
 21
38.75
 31
0.0
  0
LINE
  8
0
  6
DASHED
 62
   249
 10
246.25
 20
38.75
 30
0.0
 11
248.75
 21
38.75
 31
0.0
  0
LINE
  8
0
  6
DASHED
 62
   249
 10
250.710843
 20
38.75
 30
0.0
 11
253.210843
 21
38.75
 31
0.0
  0
LINE
  8
0
  6
DASHED
 62
   249
 10
253.210843
 20
38.75
 30
0.0
 11
253.210843
 21
40.0
 31
0.0
  0
LINE
  8
0
  6
DASHED
 62
   249
 10
278.210843
 20
38.75
 30
0.0
 11
278.210843
 21
40.0
 31
0.0
  0
LINE
  8
0
  6
DASHED
 62
   249
 10
275.710843
 20
38.75
 30
0.0
 11
278.210843
 21
38.75
 31
0.0
  0
LINE
  8
0
  6
DASHED
 62
   249
 10
271.25
 20
38.75
 30
0.0
 11
273.75
 21
38.75
 31
0.0
  0
LINE
  8
0
  6
DASHED
 62
   249
 10
273.75
 20
40.0
 30
0.0
 11
271.25
 21
38.75
 31
0.0
  0
LINE
  8
0
  6
DASHED
 62
   249
 10
271.25
 20
40.0
 30
0.0
 11
273.75
 21
40.0
 31
0.0
  0
LINE
  8
0
  6
DASHED
 62
   249
 10
297.5
 20
245.0
 30
0.0
 11
320.0
 21
245.0
 31
0.0
  0
LINE
  8
0
  6
DASHED
 62
   249
 10
297.5
 20
240.0
 30
0.0
 11
320.0
 21
240.0
 31
0.0
  0
LINE
  8
0
  6
DASHED
 62
   249
 10
297.5
 20
235.0
 30
0.0
 11
320.0
 21
235.0
 31
0.0
  0
LINE
  8
0
  6
DASHED
 62
   249
 10
297.5
 20
230.0
 30
0.0
 11
320.0
 21
230.0
 31
0.0
  0
LINE
  8
0
  6
DASHED
 62
   249
 10
297.5
 20
225.0
 30
0.0
 11
320.0
 21
225.0
 31
0.0
  0
LINE
  8
0
  6
DASHED
 62
   249
 10
297.5
 20
220.0
 30
0.0
 11
320.0
 21
220.0
 31
0.0
  0
LINE
  8
0
  6
DASHED
 62
   249
 10
297.5
 20
215.0
 30
0.0
 11
320.0
 21
215.0
 31
0.0
  0
LINE
  8
0
  6
DASHED
 62
   249
 10
297.5
 20
205.0
 30
0.0
 11
333.75
 21
205.0
 31
0.0
  0
LINE
  8
0
  6
DASHED
 62
   249
 10
297.5
 20
200.0
 30
0.0
 11
333.75
 21
200.0
 31
0.0
  0
LINE
  8
0
  6
DASHED
 62
   249
 10
297.5
 20
195.0
 30
0.0
 11
320.0
 21
195.0
 31
0.0
  0
LINE
  8
0
  6
DASHED
 62
   249
 10
297.5
 20
190.0
 30
0.0
 11
333.75
 21
190.0
 31
0.0
  0
LINE
  8
0
  6
DASHED
 62
   249
 10
297.5
 20
185.0
 30
0.0
 11
320.0
 21
185.0
 31
0.0
  0
LINE
  8
0
  6
DASHED
 62
   249
 10
297.5
 20
180.0
 30
0.0
 11
320.0
 21
180.0
 31
0.0
  0
LINE
  8
0
  6
DASHED
 62
   249
 10
297.5
 20
175.0
 30
0.0
 11
320.0
 21
175.0
 31
0.0
  0
LINE
  8
0
  6
DASHED
 62
   249
 10
297.5
 20
170.0
 30
0.0
 11
320.0
 21
170.0
 31
0.0
  0
LINE
  8
0
  6
DASHED
 62
   249
 10
297.5
 20
165.0
 30
0.0
 11
320.0
 21
165.0
 31
0.0
  0
LINE
  8
0
  6
DASHED
 62
   249
 10
297.5
 20
160.0
 30
0.0
 11
320.0
 21
160.0
 31
0.0
  0
LINE
  8
0
  6
DASHED
 62
   249
 10
297.5
 20
145.0
 30
0.0
 11
333.75
 21
145.0
 31
0.0
  0
LINE
  8
0
  6
DASHED
 62
   249
 10
297.5
 20
140.0
 30
0.0
 11
333.75
 21
140.0
 31
0.0
  0
LINE
  8
0
  6
DASHED
 62
   249
 10
297.5
 20
135.0
 30
0.0
 11
333.75
 21
135.0
 31
0.0
  0
LINE
  8
0
  6
DASHED
 62
   249
 10
297.5
 20
130.0
 30
0.0
 11
320.0
 21
130.0
 31
0.0
  0
LINE
  8
0
  6
DASHED
 62
   249
 10
297.5
 20
125.0
 30
0.0
 11
320.0
 21
125.0
 31
0.0
  0
LINE
  8
0
  6
DASHED
 62
   249
 10
297.5
 20
120.0
 30
0.0
 11
320.0
 21
120.0
 31
0.0
  0
LINE
  8
0
  6
DASHED
 62
   249
 10
297.5
 20
115.0
 30
0.0
 11
320.0
 21
115.0
 31
0.0
  0
LINE
  8
0
  6
CONTINUOUS
 62
   249
 10
328.75
 20
245.0
 30
0.0
 11
333.75
 21
245.0
 31
0.0
  0
LINE
  8
0
  6
CONTINUOUS
 62
   249
 10
318.75
 20
245.0
 30
0.0
 11
323.75
 21
245.0
 31
0.0
  0
LINE
  8
0
  6
CONTINUOUS
 62
   249
 10
328.75
 20
245.0
 30
0.0
 11
323.006076
 21
241.785297
 31
0.0
  0
LINE
  8
0
  6
CONTINUOUS
 62
   249
 10
318.75
 20
240.0
 30
0.0
 11
323.75
 21
240.0
 31
0.0
  0
LINE
  8
0
  6
CONTINUOUS
 62
   249
 10
328.75
 20
240.0
 30
0.0
 11
323.006076
 21
236.785297
 31
0.0
  0
LINE
  8
0
  6
CONTINUOUS
 62
   249
 10
328.75
 20
240.0
 30
0.0
 11
333.75
 21
240.0
 31
0.0
  0
LINE
  8
0
  6
CONTINUOUS
 62
   249
 10
318.75
 20
235.0
 30
0.0
 11
323.75
 21
235.0
 31
0.0
  0
LINE
  8
0
  6
CONTINUOUS
 62
   249
 10
328.75
 20
235.0
 30
0.0
 11
323.006076
 21
231.785297
 31
0.0
  0
LINE
  8
0
  6
CONTINUOUS
 62
   249
 10
328.75
 20
235.0
 30
0.0
 11
333.75
 21
235.0
 31
0.0
  0
LINE
  8
0
  6
CONTINUOUS
 62
   249
 10
318.75
 20
230.0
 30
0.0
 11
323.75
 21
230.0
 31
0.0
  0
LINE
  8
0
  6
CONTINUOUS
 62
   249
 10
328.75
 20
230.0
 30
0.0
 11
323.006076
 21
226.785297
 31
0.0
  0
LINE
  8
0
  6
CONTINUOUS
 62
   249
 10
328.75
 20
230.0
 30
0.0
 11
333.75
 21
230.0
 31
0.0
  0
LINE
  8
0
  6
CONTINUOUS
 62
   249
 10
318.75
 20
225.0
 30
0.0
 11
323.75
 21
225.0
 31
0.0
  0
LINE
  8
0
  6
CONTINUOUS
 62
   249
 10
328.75
 20
225.0
 30
0.0
 11
323.006076
 21
221.785297
 31
0.0
  0
LINE
  8
0
  6
CONTINUOUS
 62
   249
 10
328.75
 20
225.0
 30
0.0
 11
333.75
 21
225.0
 31
0.0
  0
LINE
  8
0
  6
CONTINUOUS
 62
   249
 10
318.75
 20
220.0
 30
0.0
 11
323.75
 21
220.0
 31
0.0
  0
LINE
  8
0
  6
CONTINUOUS
 62
   249
 10
328.75
 20
220.0
 30
0.0
 11
323.006076
 21
216.785297
 31
0.0
  0
LINE
  8
0
  6
CONTINUOUS
 62
   249
 10
328.75
 20
220.0
 30
0.0
 11
333.75
 21
220.0
 31
0.0
  0
LINE
  8
0
  6
CONTINUOUS
 62
   249
 10
318.75
 20
215.0
 30
0.0
 11
323.75
 21
215.0
 31
0.0
  0
LINE
  8
0
  6
CONTINUOUS
 62
   249
 10
328.75
 20
215.0
 30
0.0
 11
323.006076
 21
211.785297
 31
0.0
  0
LINE
  8
0
  6
CONTINUOUS
 62
   249
 10
328.75
 20
215.0
 30
0.0
 11
333.75
 21
215.0
 31
0.0
  0
LINE
  8
0
  6
DASHED
 62
   249
 10
320.0
 20
195.0
 30
0.0
 11
333.75
 21
195.0
 31
0.0
  0
LINE
  8
0
  6
DASHED
 62
   249
 10
333.75
 20
190.0
 30
0.0
 11
333.75
 21
245.0
 31
0.0
  0
LINE
  8
0
  6
CONTINUOUS
 62
   249
 10
328.75
 20
185.0
 30
0.0
 11
333.75
 21
185.0
 31
0.0
  0
LINE
  8
0
  6
CONTINUOUS
 62
   249
 10
328.75
 20
185.0
 30
0.0
 11
323.006076
 21
181.785297
 31
0.0
  0
LINE
  8
0
  6
CONTINUOUS
 62
   249
 10
318.75
 20
185.0
 30
0.0
 11
323.75
 21
185.0
 31
0.0
  0
LINE
  8
0
  6
CONTINUOUS
 62
   249
 10
328.75
 20
180.0
 30
0.0
 11
333.75
 21
180.0
 31
0.0
  0
LINE
  8
0
  6
CONTINUOUS
 62
   249
 10
328.75
 20
180.0
 30
0.0
 11
323.006076
 21
176.785297
 31
0.0
  0
LINE
  8
0
  6
CONTINUOUS
 62
   249
 10
318.75
 20
180.0
 30
0.0
 11
323.75
 21
180.0
 31
0.0
  0
LINE
  8
0
  6
CONTINUOUS
 62
   249
 10
328.75
 20
175.0
 30
0.0
 11
333.75
 21
175.0
 31
0.0
  0
LINE
  8
0
  6
CONTINUOUS
 62
   249
 10
328.75
 20
175.0
 30
0.0
 11
323.006076
 21
171.785297
 31
0.0
  0
LINE
  8
0
  6
CONTINUOUS
 62
   249
 10
318.75
 20
175.0
 30
0.0
 11
323.75
 21
175.0
 31
0.0
  0
LINE
  8
0
  6
CONTINUOUS
 62
   249
 10
328.75
 20
170.0
 30
0.0
 11
333.75
 21
170.0
 31
0.0
  0
LINE
  8
0
  6
CONTINUOUS
 62
   249
 10
328.75
 20
170.0
 30
0.0
 11
323.006076
 21
166.785297
 31
0.0
  0
LINE
  8
0
  6
CONTINUOUS
 62
   249
 10
318.75
 20
170.0
 30
0.0
 11
323.75
 21
170.0
 31
0.0
  0
LINE
  8
0
  6
CONTINUOUS
 62
   249
 10
328.75
 20
165.0
 30
0.0
 11
333.75
 21
165.0
 31
0.0
  0
LINE
  8
0
  6
CONTINUOUS
 62
   249
 10
328.75
 20
165.0
 30
0.0
 11
323.006076
 21
161.785297
 31
0.0
  0
LINE
  8
0
  6
CONTINUOUS
 62
   249
 10
318.75
 20
165.0
 30
0.0
 11
323.75
 21
165.0
 31
0.0
  0
LINE
  8
0
  6
CONTINUOUS
 62
   249
 10
328.75
 20
160.0
 30
0.0
 11
333.75
 21
160.0
 31
0.0
  0
LINE
  8
0
  6
CONTINUOUS
 62
   249
 10
328.75
 20
160.0
 30
0.0
 11
323.006076
 21
156.785297
 31
0.0
  0
LINE
  8
0
  6
CONTINUOUS
 62
   249
 10
318.75
 20
160.0
 30
0.0
 11
323.75
 21
160.0
 31
0.0
  0
LINE
  8
0
  6
DASHED
 62
   249
 10
333.75
 20
185.0
 30
0.0
 11
333.75
 21
130.0
 31
0.0
  0
LINE
  8
0
  6
DASHED
 62
   249
 10
333.75
 20
130.0
 30
0.0
 11
320.0
 21
130.0
 31
0.0
  0
LINE
  8
0
  6
CONTINUOUS
 62
   249
 10
328.75
 20
120.0
 30
0.0
 11
323.006076
 21
116.785297
 31
0.0
  0
LINE
  8
0
  6
CONTINUOUS
 62
   249
 10
328.75
 20
120.0
 30
0.0
 11
333.75
 21
120.0
 31
0.0
  0
LINE
  8
0
  6
CONTINUOUS
 62
   249
 10
318.75
 20
120.0
 30
0.0
 11
323.75
 21
120.0
 31
0.0
  0
LINE
  8
0
  6
CONTINUOUS
 62
   249
 10
328.75
 20
115.0
 30
0.0
 11
323.006076
 21
111.785297
 31
0.0
  0
LINE
  8
0
  6
CONTINUOUS
 62
   249
 10
328.75
 20
115.0
 30
0.0
 11
333.75
 21
115.0
 31
0.0
  0
LINE
  8
0
  6
CONTINUOUS
 62
   249
 10
318.75
 20
115.0
 30
0.0
 11
323.75
 21
115.0
 31
0.0
  0
LINE
  8
0
  6
DASHED
 62
   249
 10
333.75
 20
115.0
 30
0.0
 11
333.75
 21
125.0
 31
0.0
  0
LINE
  8
0
  6
DASHED
 62
   249
 10
333.75
 20
125.0
 30
0.0
 11
320.0
 21
125.0
 31
0.0
  0
TEXT
  8
0
  6
DASHED
 62
   249
 10
306.25
 20
256.25
 30
0.0
 40
2.0
  1
FIELD CONTACTS CH 1 ... 16
  7
ROMANS
  0
TEXT
  8
0
  6
DASHED
 62
   249
 10
306.25
 20
252.916667
 30
0.0
 40
2.0
  1
SIGNALKONTAKTER CH 1 ... 16
  7
ROMANS
  0
LINE
  8
0
  6
CONTINUOUS
 62
   249
 10
343.75
 20
100.0
 30
0.0
 11
367.5
 21
100.0
 31
0.0
  0
LINE
  8
0
  6
CONTINUOUS
 62
   249
 10
367.5
 20
100.0
 30
0.0
 11
367.5
 21
81.25
 31
0.0
  0
LINE
  8
0
  6
CONTINUOUS
 62
   249
 10
367.5
 20
81.25
 30
0.0
 11
343.75
 21
81.25
 31
0.0
  0
LINE
  8
0
  6
CONTINUOUS
 62
   249
 10
343.75
 20
81.25
 30
0.0
 11
343.75
 21
100.0
 31
0.0
  0
TEXT
  8
0
  6
CONTINUOUS
 62
   249
 10
368.75
 20
91.25
 30
0.0
 40
2.0
  1
4S
  7
ROMANS
  0
TEXT
  8
0
  6
CONTINUOUS
 62
   249
 10
165.0
 20
245.0
 30
0.0
 40
2.0
  1
1
  7
ROMANS
  0
TEXT
  8
0
  6
CONTINUOUS
 62
   249
 10
165.0
 20
235.416667
 30
0.0
 40
2.0
  1
2
  7
ROMANS
  0
TEXT
  8
0
  6
CONTINUOUS
 62
   249
 10
153.75
 20
255.0
 30
0.0
 40
2.0
  1
GROUP ALARMS
  7
ROMANS
  0
TEXT
  8
0
  6
CONTINUOUS
 62
   249
 10
153.75
 20
251.666667
 30
0.0
 40
2.0
  1
GRUPPLARM
  7
ROMANS
  0
TEXT
  8
0
  6
CONTINUOUS
 62
   249
 10
180.0
 20
255.0
 30
0.0
 40
2.0
  1
GROUPING
  7
ROMANS
  0
TEXT
  8
0
  6
CONTINUOUS
 62
   249
 10
180.0
 20
251.666667
 30
0.0
 40
2.0
  1
GRUPPERING
  7
ROMANS
  0
TEXT
  8
0
  6
CONTINUOUS
 62
   249
 10
205.0
 20
255.0
 30
0.0
 40
2.0
  1
ALARM CHANNELS
  7
ROMANS
  0
TEXT
  8
0
  6
CONTINUOUS
 62
   249
 10
205.0
 20
251.666667
 30
0.0
 40
2.0
  1
LARMKANALER
  7
ROMANS
  0
TEXT
  8
0
  6
CONTINUOUS
 62
   249
 10
106.25
 20
103.75
 30
0.0
 40
2.0
  1
SPA-BUS
  7
ROMANS
  0
TEXT
  8
0
  6
CONTINUOUS
 62
   249
 10
121.25
 20
81.25
 30
0.0
 40
2.0
  1
W1
  7
ROMANS
  0
TEXT
  8
0
  6
CONTINUOUS
 62
   249
 10
136.25
 20
73.75
 30
0.0
 40
2.0
  1
W2
  7
ROMANS
  0
TEXT
  8
0
  6
CONTINUOUS
 62
   249
 10
148.75
 20
66.25
 30
0.0
 40
2.0
  1
W3
  7
ROMANS
  0
TEXT
  8
0
  6
CONTINUOUS
 62
   249
 10
161.25
 20
58.75
 30
0.0
 40
2.0
  1
W4
  7
ROMANS
  0
TEXT
  8
0
  6
CONTINUOUS
 62
   249
 10
212.5
 20
244.6356
 30
0.0
 40
2.0
  1
1
  7
ROMANS
  0
TEXT
  8
0
  6
CONTINUOUS
 62
   249
 10
212.5
 20
235.947211
 30
0.0
 40
2.0
  1
2
  7
ROMANS
  0
TEXT
  8
0
  6
CONTINUOUS
 62
   249
 10
212.5
 20
227.270205
 30
0.0
 40
2.0
  1
3
  7
ROMANS
  0
TEXT
  8
0
  6
CONTINUOUS
 62
   249
 10
212.5
 20
218.563128
 30
0.0
 40
2.0
  1
4
  7
ROMANS
  0
TEXT
  8
0
  6
CONTINUOUS
 62
   249
 10
212.5
 20
209.886123
 30
0.0
 40
2.0
  1
5
  7
ROMANS
  0
TEXT
  8
0
  6
CONTINUOUS
 62
   249
 10
212.5
 20
200.833333
 30
0.0
 40
2.0
  1
6
  7
ROMANS
  0
TEXT
  8
0
  6
CONTINUOUS
 62
   249
 10
212.5
 20
192.333856
 30
0.0
 40
2.0
  1
7
  7
ROMANS
  0
TEXT
  8
0
  6
CONTINUOUS
 62
   249
 10
212.5
 20
183.458595
 30
0.0
 40
2.0
  1
8
  7
ROMANS
  0
TEXT
  8
0
  6
CONTINUOUS
 62
   249
 10
212.5
 20
174.583333
 30
0.0
 40
2.0
  1
9
  7
ROMANS
  0
TEXT
  8
0
  6
CONTINUOUS
 62
   249
 10
212.5
 20
166.072472
 30
0.0
 40
2.0
  1
10
  7
ROMANS
  0
TEXT
  8
0
  6
CONTINUOUS
 62
   249
 10
212.5
 20
157.386123
 30
0.0
 40
2.0
  1
11
  7
ROMANS
  0
TEXT
  8
0
  6
CONTINUOUS
 62
   249
 10
212.5
 20
148.333333
 30
0.0
 40
2.0
  1
12
  7
ROMANS
  0
TEXT
  8
0
  6
CONTINUOUS
 62
   249
 10
212.5
 20
139.6356
 30
0.0
 40
2.0
  1
13
  7
ROMANS
  0
TEXT
  8
0
  6
CONTINUOUS
 62
   249
 10
212.5
 20
130.416667
 30
0.0
 40
2.0
  1
14
  7
ROMANS
  0
TEXT
  8
0
  6
CONTINUOUS
 62
   249
 10
212.5
 20
122.083333
 30
0.0
 40
2.0
  1
15
  7
ROMANS
  0
TEXT
  8
0
  6
CONTINUOUS
 62
   249
 10
212.5
 20
113.394944
 30
0.0
 40
2.0
  1
16
  7
ROMANS
  0
TEXT
  8
0
  6
CONTINUOUS
 62
   249
 10
41.866709
 20
29.166667
 30
0.0
 40
2.0
  1
KONTAKTFUNKTIONERNA KAN ÄNDRAS MED BYGLARNA W1...W4
  7
ROMANS
  0
CIRCLE
  8
0
  6
CONTINUOUS
 62
   249
 10
262.5
 20
41.25
 30
0.0
 40
2.34375
  0
LINE
  8
0
  6
CONTINUOUS
 62
   249
 10
175.0
 20
223.75
 30
0.0
 11
157.5
 21
223.75
 31
0.0
  0
LINE
  8
0
  6
CONTINUOUS
 62
   249
 10
157.5
 20
232.5
 30
0.0
 11
157.5
 21
223.75
 31
0.0
  0
LINE
  8
0
  6
CONTINUOUS
 62
   249
 10
175.0
 20
228.125
 30
0.0
 11
181.5625
 21
228.125
 31
0.0
  0
LINE
  8
0
  6
CONTINUOUS
 62
   249
 10
175.0
 20
223.75
 30
0.0
 11
175.0
 21
232.5
 31
0.0
  0
CIRCLE
  8
0
  6
CONTINUOUS
 62
   249
 10
182.5
 20
228.125
 30
0.0
 40
0.9375
  0
LINE
  8
0
  6
CONTINUOUS
 62
   249
 10
175.0
 20
215.0
 30
0.0
 11
157.5
 21
215.0
 31
0.0
  0
LINE
  8
0
  6
CONTINUOUS
 62
   249
 10
157.5
 20
223.75
 30
0.0
 11
157.5
 21
215.0
 31
0.0
  0
LINE
  8
0
  6
CONTINUOUS
 62
   249
 10
175.0
 20
219.375
 30
0.0
 11
181.5625
 21
219.375
 31
0.0
  0
LINE
  8
0
  6
CONTINUOUS
 62
   249
 10
175.0
 20
215.0
 30
0.0
 11
175.0
 21
223.75
 31
0.0
  0
CIRCLE
  8
0
  6
CONTINUOUS
 62
   249
 10
182.5
 20
219.375
 30
0.0
 40
0.9375
  0
LINE
  8
0
  6
CONTINUOUS
 62
   249
 10
175.0
 20
206.25
 30
0.0
 11
157.5
 21
206.25
 31
0.0
  0
LINE
  8
0
  6
CONTINUOUS
 62
   249
 10
157.5
 20
215.0
 30
0.0
 11
157.5
 21
206.25
 31
0.0
  0
LINE
  8
0
  6
CONTINUOUS
 62
   249
 10
175.0
 20
210.625
 30
0.0
 11
181.5625
 21
210.625
 31
0.0
  0
LINE
  8
0
  6
CONTINUOUS
 62
   249
 10
175.0
 20
206.25
 30
0.0
 11
175.0
 21
215.0
 31
0.0
  0
CIRCLE
  8
0
  6
CONTINUOUS
 62
   249
 10
182.5
 20
210.625
 30
0.0
 40
0.9375
  0
LINE
  8
0
  6
CONTINUOUS
 62
   249
 10
175.0
 20
197.5
 30
0.0
 11
157.5
 21
197.5
 31
0.0
  0
LINE
  8
0
  6
CONTINUOUS
 62
   249
 10
157.5
 20
206.25
 30
0.0
 11
157.5
 21
197.5
 31
0.0
  0
LINE
  8
0
  6
CONTINUOUS
 62
   249
 10
175.0
 20
201.875
 30
0.0
 11
181.5625
 21
201.875
 31
0.0
  0
LINE
  8
0
  6
CONTINUOUS
 62
   249
 10
175.0
 20
197.5
 30
0.0
 11
175.0
 21
206.25
 31
0.0
  0
CIRCLE
  8
0
  6
CONTINUOUS
 62
   249
 10
182.5
 20
201.875
 30
0.0
 40
0.9375
  0
LINE
  8
0
  6
CONTINUOUS
 62
   249
 10
175.0
 20
188.75
 30
0.0
 11
157.5
 21
188.75
 31
0.0
  0
LINE
  8
0
  6
CONTINUOUS
 62
   249
 10
157.5
 20
197.5
 30
0.0
 11
157.5
 21
188.75
 31
0.0
  0
LINE
  8
0
  6
CONTINUOUS
 62
   249
 10
175.0
 20
193.125
 30
0.0
 11
181.5625
 21
193.125
 31
0.0
  0
LINE
  8
0
  6
CONTINUOUS
 62
   249
 10
175.0
 20
188.75
 30
0.0
 11
175.0
 21
197.5
 31
0.0
  0
CIRCLE
  8
0
  6
CONTINUOUS
 62
   249
 10
182.5
 20
193.125
 30
0.0
 40
0.9375
  0
LINE
  8
0
  6
CONTINUOUS
 62
   249
 10
175.0
 20
180.0
 30
0.0
 11
157.5
 21
180.0
 31
0.0
  0
LINE
  8
0
  6
CONTINUOUS
 62
   249
 10
157.5
 20
188.75
 30
0.0
 11
157.5
 21
180.0
 31
0.0
  0
LINE
  8
0
  6
CONTINUOUS
 62
   249
 10
175.0
 20
184.375
 30
0.0
 11
181.5625
 21
184.375
 31
0.0
  0
LINE
  8
0
  6
CONTINUOUS
 62
   249
 10
175.0
 20
180.0
 30
0.0
 11
175.0
 21
188.75
 31
0.0
  0
CIRCLE
  8
0
  6
CONTINUOUS
 62
   249
 10
182.5
 20
184.375
 30
0.0
 40
0.9375
  0
LINE
  8
0
  6
CONTINUOUS
 62
   249
 10
175.0
 20
171.25
 30
0.0
 11
157.5
 21
171.25
 31
0.0
  0
LINE
  8
0
  6
CONTINUOUS
 62
   249
 10
157.5
 20
180.0
 30
0.0
 11
157.5
 21
171.25
 31
0.0
  0
LINE
  8
0
  6
CONTINUOUS
 62
   249
 10
175.0
 20
175.625
 30
0.0
 11
181.5625
 21
175.625
 31
0.0
  0
LINE
  8
0
  6
CONTINUOUS
 62
   249
 10
175.0
 20
171.25
 30
0.0
 11
175.0
 21
180.0
 31
0.0
  0
CIRCLE
  8
0
  6
CONTINUOUS
 62
   249
 10
182.5
 20
175.625
 30
0.0
 40
0.9375
  0
LINE
  8
0
  6
CONTINUOUS
 62
   249
 10
175.0
 20
162.5
 30
0.0
 11
157.5
 21
162.5
 31
0.0
  0
LINE
  8
0
  6
CONTINUOUS
 62
   249
 10
157.5
 20
171.25
 30
0.0
 11
157.5
 21
162.5
 31
0.0
  0
LINE
  8
0
  6
CONTINUOUS
 62
   249
 10
175.0
 20
166.875
 30
0.0
 11
181.5625
 21
166.875
 31
0.0
  0
LINE
  8
0
  6
CONTINUOUS
 62
   249
 10
175.0
 20
162.5
 30
0.0
 11
175.0
 21
171.25
 31
0.0
  0
CIRCLE
  8
0
  6
CONTINUOUS
 62
   249
 10
182.5
 20
166.875
 30
0.0
 40
0.9375
  0
LINE
  8
0
  6
CONTINUOUS
 62
   249
 10
175.0
 20
153.75
 30
0.0
 11
157.5
 21
153.75
 31
0.0
  0
LINE
  8
0
  6
CONTINUOUS
 62
   249
 10
157.5
 20
162.5
 30
0.0
 11
157.5
 21
153.75
 31
0.0
  0
LINE
  8
0
  6
CONTINUOUS
 62
   249
 10
175.0
 20
158.125
 30
0.0
 11
181.5625
 21
158.125
 31
0.0
  0
LINE
  8
0
  6
CONTINUOUS
 62
   249
 10
175.0
 20
153.75
 30
0.0
 11
175.0
 21
162.5
 31
0.0
  0
CIRCLE
  8
0
  6
CONTINUOUS
 62
   249
 10
182.5
 20
158.125
 30
0.0
 40
0.9375
  0
LINE
  8
0
  6
CONTINUOUS
 62
   249
 10
175.0
 20
145.0
 30
0.0
 11
157.5
 21
145.0
 31
0.0
  0
LINE
  8
0
  6
CONTINUOUS
 62
   249
 10
157.5
 20
153.75
 30
0.0
 11
157.5
 21
145.0
 31
0.0
  0
LINE
  8
0
  6
CONTINUOUS
 62
   249
 10
175.0
 20
149.375
 30
0.0
 11
181.5625
 21
149.375
 31
0.0
  0
LINE
  8
0
  6
CONTINUOUS
 62
   249
 10
175.0
 20
145.0
 30
0.0
 11
175.0
 21
153.75
 31
0.0
  0
CIRCLE
  8
0
  6
CONTINUOUS
 62
   249
 10
182.5
 20
149.375
 30
0.0
 40
0.9375
  0
LINE
  8
0
  6
CONTINUOUS
 62
   249
 10
175.0
 20
136.25
 30
0.0
 11
157.5
 21
136.25
 31
0.0
  0
LINE
  8
0
  6
CONTINUOUS
 62
   249
 10
157.5
 20
145.0
 30
0.0
 11
157.5
 21
136.25
 31
0.0
  0
LINE
  8
0
  6
CONTINUOUS
 62
   249
 10
175.0
 20
140.625
 30
0.0
 11
181.5625
 21
140.625
 31
0.0
  0
LINE
  8
0
  6
CONTINUOUS
 62
   249
 10
175.0
 20
136.25
 30
0.0
 11
175.0
 21
145.0
 31
0.0
  0
CIRCLE
  8
0
  6
CONTINUOUS
 62
   249
 10
182.5
 20
140.625
 30
0.0
 40
0.9375
  0
LINE
  8
0
  6
CONTINUOUS
 62
   249
 10
175.0
 20
127.5
 30
0.0
 11
157.5
 21
127.5
 31
0.0
  0
LINE
  8
0
  6
CONTINUOUS
 62
   249
 10
157.5
 20
136.25
 30
0.0
 11
157.5
 21
127.5
 31
0.0
  0
LINE
  8
0
  6
CONTINUOUS
 62
   249
 10
175.0
 20
131.875
 30
0.0
 11
181.5625
 21
131.875
 31
0.0
  0
LINE
  8
0
  6
CONTINUOUS
 62
   249
 10
175.0
 20
127.5
 30
0.0
 11
175.0
 21
136.25
 31
0.0
  0
CIRCLE
  8
0
  6
CONTINUOUS
 62
   249
 10
182.5
 20
131.875
 30
0.0
 40
0.9375
  0
LINE
  8
0
  6
CONTINUOUS
 62
   249
 10
175.0
 20
118.75
 30
0.0
 11
157.5
 21
118.75
 31
0.0
  0
LINE
  8
0
  6
CONTINUOUS
 62
   249
 10
157.5
 20
127.5
 30
0.0
 11
157.5
 21
118.75
 31
0.0
  0
LINE
  8
0
  6
CONTINUOUS
 62
   249
 10
175.0
 20
123.125
 30
0.0
 11
181.5625
 21
123.125
 31
0.0
  0
LINE
  8
0
  6
CONTINUOUS
 62
   249
 10
175.0
 20
118.75
 30
0.0
 11
175.0
 21
127.5
 31
0.0
  0
CIRCLE
  8
0
  6
CONTINUOUS
 62
   249
 10
182.5
 20
123.125
 30
0.0
 40
0.9375
  0
LINE
  8
0
  6
CONTINUOUS
 62
   249
 10
175.0
 20
110.0
 30
0.0
 11
157.5
 21
110.0
 31
0.0
  0
LINE
  8
0
  6
CONTINUOUS
 62
   249
 10
175.0
 20
110.0
 30
0.0
 11
175.0
 21
118.75
 31
0.0
  0
LINE
  8
0
  6
CONTINUOUS
 62
   249
 10
157.5
 20
118.75
 30
0.0
 11
157.5
 21
110.0
 31
0.0
  0
LINE
  8
0
  6
CONTINUOUS
 62
   249
 10
175.0
 20
114.375
 30
0.0
 11
181.5625
 21
114.375
 31
0.0
  0
CIRCLE
  8
0
  6
CONTINUOUS
 62
   249
 10
182.5
 20
114.375
 30
0.0
 40
0.9375
  0
TEXT
  8
0
  6
CONTINUOUS
 62
   249
 10
165.0
 20
226.805797
 30
0.0
 40
2.0
  1
3
  7
ROMANS
  0
TEXT
  8
0
  6
CONTINUOUS
 62
   249
 10
165.0
 20
218.621723
 30
0.0
 40
2.0
  1
4
  7
ROMANS
  0
TEXT
  8
0
  6
CONTINUOUS
 62
   249
 10
165.0
 20
209.752123
 30
0.0
 40
2.0
  1
5
  7
ROMANS
  0
TEXT
  8
0
  6
CONTINUOUS
 62
   249
 10
165.0
 20
201.220947
 30
0.0
 40
2.0
  1
6
  7
ROMANS
  0
TEXT
  8
0
  6
CONTINUOUS
 62
   249
 10
165.0
 20
192.34267
 30
0.0
 40
2.0
  1
7
  7
ROMANS
  0
TEXT
  8
0
  6
CONTINUOUS
 62
   249
 10
165.0
 20
183.464392
 30
0.0
 40
2.0
  1
8
  7
ROMANS
  0
TEXT
  8
0
  6
CONTINUOUS
 62
   249
 10
165.0
 20
174.941894
 30
0.0
 40
2.0
  1
9
  7
ROMANS
  0
TEXT
  8
0
  6
CONTINUOUS
 62
   249
 10
165.0
 20
166.402041
 30
0.0
 40
2.0
  1
10
  7
ROMANS
  0
TEXT
  8
0
  6
CONTINUOUS
 62
   249
 10
165.0
 20
157.185339
 30
0.0
 40
2.0
  1
11
  7
ROMANS
  0
TEXT
  8
0
  6
CONTINUOUS
 62
   249
 10
165.0
 20
148.654163
 30
0.0
 40
2.0
  1
12
  7
ROMANS
  0
TEXT
  8
0
  6
CONTINUOUS
 62
   249
 10
165.0
 20
139.784564
 30
0.0
 40
2.0
  1
13
  7
ROMANS
  0
TEXT
  8
0
  6
CONTINUOUS
 62
   249
 10
165.0
 20
130.897609
 30
0.0
 40
2.0
  1
14
  7
ROMANS
  0
TEXT
  8
0
  6
CONTINUOUS
 62
   249
 10
165.0
 20
122.028009
 30
0.0
 40
2.0
  1
15
  7
ROMANS
  0
TEXT
  8
0
  6
CONTINUOUS
 62
   249
 10
165.0
 20
113.587741
 30
0.0
 40
2.0
  1
16
  7
ROMANS
  0
LINE
  8
0
  6
CONTINUOUS
 62
   249
 10
155.0
 20
230.0
 30
0.0
 11
150.9375
 21
230.0
 31
0.0
  0
LINE
  8
0
  6
CONTINUOUS
 62
   249
 10
157.5
 20
226.25
 30
0.0
 11
150.9375
 21
226.25
 31
0.0
  0
LINE
  8
0
  6
CONTINUOUS
 62
   249
 10
157.5
 20
219.375
 30
0.0
 11
150.9375
 21
219.375
 31
0.0
  0
LINE
  8
0
  6
CONTINUOUS
 62
   249
 10
157.5
 20
210.625
 30
0.0
 11
150.9375
 21
210.625
 31
0.0
  0
LINE
  8
0
  6
CONTINUOUS
 62
   249
 10
157.5
 20
201.875
 30
0.0
 11
150.9375
 21
201.875
 31
0.0
  0
LINE
  8
0
  6
CONTINUOUS
 62
   249
 10
157.5
 20
193.125
 30
0.0
 11
150.9375
 21
193.125
 31
0.0
  0
LINE
  8
0
  6
CONTINUOUS
 62
   249
 10
157.5
 20
184.375
 30
0.0
 11
150.9375
 21
184.375
 31
0.0
  0
LINE
  8
0
  6
CONTINUOUS
 62
   249
 10
157.5
 20
175.625
 30
0.0
 11
150.9375
 21
175.625
 31
0.0
  0
LINE
  8
0
  6
CONTINUOUS
 62
   249
 10
157.5
 20
166.875
 30
0.0
 11
150.9375
 21
166.875
 31
0.0
  0
LINE
  8
0
  6
CONTINUOUS
 62
   249
 10
157.5
 20
158.125
 30
0.0
 11
150.9375
 21
158.125
 31
0.0
  0
LINE
  8
0
  6
CONTINUOUS
 62
   249
 10
157.5
 20
149.375
 30
0.0
 11
150.9375
 21
149.375
 31
0.0
  0
LINE
  8
0
  6
CONTINUOUS
 62
   249
 10
157.5
 20
140.625
 30
0.0
 11
150.9375
 21
140.625
 31
0.0
  0
LINE
  8
0
  6
CONTINUOUS
 62
   249
 10
157.5
 20
131.875
 30
0.0
 11
150.9375
 21
131.875
 31
0.0
  0
LINE
  8
0
  6
CONTINUOUS
 62
   249
 10
157.5
 20
123.125
 30
0.0
 11
150.9375
 21
123.125
 31
0.0
  0
LINE
  8
0
  6
CONTINUOUS
 62
   249
 10
157.5
 20
114.375
 30
0.0
 11
150.9375
 21
114.375
 31
0.0
  0
LINE
  8
0
  6
CONTINUOUS
 62
   249
 10
148.75
 20
114.125
 30
0.0
 11
149.75
 21
113.125
 31
0.0
  0
LINE
  8
0
  6
CONTINUOUS
 62
   249
 10
148.75
 20
233.625
 30
0.0
 11
148.75
 21
114.125
 31
0.0
  0
LINE
  8
0
  6
CONTINUOUS
 62
   249
 10
148.75
 20
233.625
 30
0.0
 11
149.75
 21
234.625
 31
0.0
  0
LINE
  8
0
  6
CONTINUOUS
 62
   249
 10
155.0
 20
230.0
 30
0.0
 11
155.0
 21
236.875
 31
0.0
  0
LINE
  8
0
  6
CONTINUOUS
 62
   249
 10
152.5
 20
233.125
 30
0.0
 11
150.9375
 21
233.125
 31
0.0
  0
LINE
  8
0
  6
CONTINUOUS
 62
   249
 10
152.5
 20
233.125
 30
0.0
 11
152.5
 21
245.625
 31
0.0
  0
LINE
  8
0
  6
CONTINUOUS
 62
   249
 10
82.5
 20
245.0
 30
0.0
 11
95.0
 21
245.0
 31
0.0
  0
LINE
  8
0
  6
CONTINUOUS
 62
   249
 10
82.5
 20
240.0
 30
0.0
 11
105.0
 21
240.0
 31
0.0
  0
LINE
  8
0
  6
CONTINUOUS
 62
   249
 10
99.353436
 20
244.638137
 30
0.0
 11
94.256076
 21
241.785297
 31
0.0
  0
CIRCLE
  8
0
  6
CONTINUOUS
 62
   249
 10
100.0
 20
245.0
 30
0.0
 40
0.740939
  0
CIRCLE
  8
0
  6
CONTINUOUS
 62
   249
 10
100.0
 20
235.0
 30
0.0
 40
0.740939
  0
LINE
  8
0
  6
CONTINUOUS
 62
   249
 10
99.353436
 20
234.638137
 30
0.0
 11
94.256076
 21
231.785297
 31
0.0
  0
LINE
  8
0
  6
CONTINUOUS
 62
   249
 10
82.5
 20
235.0
 30
0.0
 11
95.0
 21
235.0
 31
0.0
  0
LINE
  8
0
  6
CONTINUOUS
 62
   249
 10
102.5
 20
245.0
 30
0.0
 11
105.0
 21
245.0
 31
0.0
  0
LINE
  8
0
  6
CONTINUOUS
 62
   249
 10
105.0
 20
245.0
 30
0.0
 11
105.0
 21
235.0
 31
0.0
  0
LINE
  8
0
  6
CONTINUOUS
 62
   249
 10
105.0
 20
235.0
 30
0.0
 11
102.5
 21
235.0
 31
0.0
  0
LINE
  8
0
  6
DASHED
 62
   249
 10
97.5
 20
243.600824
 30
0.0
 11
97.5
 21
247.5
 31
0.0
  0
LINE
  8
0
  6
DASHED
 62
   249
 10
97.5
 20
247.5
 30
0.0
 11
105.0
 21
247.5
 31
0.0
  0
LINE
  8
0
  6
DASHED
 62
   249
 10
97.5
 20
237.5
 30
0.0
 11
105.0
 21
237.5
 31
0.0
  0
LINE
  8
0
  6
DASHED
 62
   249
 10
97.5
 20
233.600824
 30
0.0
 11
97.5
 21
237.5
 31
0.0
  0
LINE
  8
0
  6
CONTINUOUS
 62
   249
 10
105.0
 20
247.5
 30
0.0
 11
110.0
 21
247.5
 31
0.0
  0
LINE
  8
0
  6
CONTINUOUS
 62
   249
 10
105.0
 20
237.5
 30
0.0
 11
110.0
 21
237.5
 31
0.0
  0
LINE
  8
0
  6
CONTINUOUS
 62
   249
 10
105.0
 20
222.5
 30
0.0
 11
110.0
 21
222.5
 31
0.0
  0
LINE
  8
0
  6
CONTINUOUS
 62
   249
 10
105.0
 20
232.5
 30
0.0
 11
110.0
 21
232.5
 31
0.0
  0
LINE
  8
0
  6
DASHED
 62
   249
 10
97.5
 20
218.600824
 30
0.0
 11
97.5
 21
222.5
 31
0.0
  0
LINE
  8
0
  6
DASHED
 62
   249
 10
97.5
 20
222.5
 30
0.0
 11
105.0
 21
222.5
 31
0.0
  0
LINE
  8
0
  6
DASHED
 62
   249
 10
97.5
 20
232.5
 30
0.0
 11
105.0
 21
232.5
 31
0.0
  0
LINE
  8
0
  6
DASHED
 62
   249
 10
97.5
 20
228.600824
 30
0.0
 11
97.5
 21
232.5
 31
0.0
  0
LINE
  8
0
  6
CONTINUOUS
 62
   249
 10
105.0
 20
220.0
 30
0.0
 11
102.5
 21
220.0
 31
0.0
  0
LINE
  8
0
  6
CONTINUOUS
 62
   249
 10
105.0
 20
230.0
 30
0.0
 11
105.0
 21
220.0
 31
0.0
  0
LINE
  8
0
  6
CONTINUOUS
 62
   249
 10
102.5
 20
230.0
 30
0.0
 11
105.0
 21
230.0
 31
0.0
  0
LINE
  8
0
  6
CONTINUOUS
 62
   249
 10
82.5
 20
220.0
 30
0.0
 11
95.0
 21
220.0
 31
0.0
  0
LINE
  8
0
  6
CONTINUOUS
 62
   249
 10
99.353436
 20
219.638137
 30
0.0
 11
94.256076
 21
216.785297
 31
0.0
  0
CIRCLE
  8
0
  6
CONTINUOUS
 62
   249
 10
100.0
 20
220.0
 30
0.0
 40
0.740939
  0
CIRCLE
  8
0
  6
CONTINUOUS
 62
   249
 10
100.0
 20
230.0
 30
0.0
 40
0.740939
  0
LINE
  8
0
  6
CONTINUOUS
 62
   249
 10
99.353436
 20
229.638137
 30
0.0
 11
94.256076
 21
226.785297
 31
0.0
  0
LINE
  8
0
  6
CONTINUOUS
 62
   249
 10
82.5
 20
225.0
 30
0.0
 11
105.0
 21
225.0
 31
0.0
  0
LINE
  8
0
  6
CONTINUOUS
 62
   249
 10
82.5
 20
230.0
 30
0.0
 11
95.0
 21
230.0
 31
0.0
  0
LINE
  8
0
  6
CONTINUOUS
 62
   249
 10
105.0
 20
207.5
 30
0.0
 11
110.0
 21
207.5
 31
0.0
  0
LINE
  8
0
  6
CONTINUOUS
 62
   249
 10
105.0
 20
217.5
 30
0.0
 11
110.0
 21
217.5
 31
0.0
  0
LINE
  8
0
  6
DASHED
 62
   249
 10
97.5
 20
203.600824
 30
0.0
 11
97.5
 21
207.5
 31
0.0
  0
LINE
  8
0
  6
DASHED
 62
   249
 10
97.5
 20
207.5
 30
0.0
 11
105.0
 21
207.5
 31
0.0
  0
LINE
  8
0
  6
DASHED
 62
   249
 10
97.5
 20
217.5
 30
0.0
 11
105.0
 21
217.5
 31
0.0
  0
LINE
  8
0
  6
DASHED
 62
   249
 10
97.5
 20
213.600824
 30
0.0
 11
97.5
 21
217.5
 31
0.0
  0
LINE
  8
0
  6
CONTINUOUS
 62
   249
 10
105.0
 20
205.0
 30
0.0
 11
102.5
 21
205.0
 31
0.0
  0
LINE
  8
0
  6
CONTINUOUS
 62
   249
 10
105.0
 20
215.0
 30
0.0
 11
105.0
 21
205.0
 31
0.0
  0
LINE
  8
0
  6
CONTINUOUS
 62
   249
 10
102.5
 20
215.0
 30
0.0
 11
105.0
 21
215.0
 31
0.0
  0
LINE
  8
0
  6
CONTINUOUS
 62
   249
 10
82.5
 20
205.0
 30
0.0
 11
95.0
 21
205.0
 31
0.0
  0
LINE
  8
0
  6
CONTINUOUS
 62
   249
 10
99.353436
 20
204.638137
 30
0.0
 11
94.256076
 21
201.785297
 31
0.0
  0
CIRCLE
  8
0
  6
CONTINUOUS
 62
   249
 10
100.0
 20
205.0
 30
0.0
 40
0.740939
  0
CIRCLE
  8
0
  6
CONTINUOUS
 62
   249
 10
100.0
 20
215.0
 30
0.0
 40
0.740939
  0
LINE
  8
0
  6
CONTINUOUS
 62
   249
 10
99.353436
 20
214.638137
 30
0.0
 11
94.256076
 21
211.785297
 31
0.0
  0
LINE
  8
0
  6
CONTINUOUS
 62
   249
 10
82.5
 20
210.0
 30
0.0
 11
105.0
 21
210.0
 31
0.0
  0
LINE
  8
0
  6
CONTINUOUS
 62
   249
 10
82.5
 20
215.0
 30
0.0
 11
95.0
 21
215.0
 31
0.0
  0
LINE
  8
0
  6
CONTINUOUS
 62
   249
 10
105.0
 20
192.5
 30
0.0
 11
110.0
 21
192.5
 31
0.0
  0
LINE
  8
0
  6
CONTINUOUS
 62
   249
 10
105.0
 20
202.5
 30
0.0
 11
110.0
 21
202.5
 31
0.0
  0
LINE
  8
0
  6
DASHED
 62
   249
 10
97.5
 20
188.600824
 30
0.0
 11
97.5
 21
192.5
 31
0.0
  0
LINE
  8
0
  6
DASHED
 62
   249
 10
97.5
 20
192.5
 30
0.0
 11
105.0
 21
192.5
 31
0.0
  0
LINE
  8
0
  6
DASHED
 62
   249
 10
97.5
 20
202.5
 30
0.0
 11
105.0
 21
202.5
 31
0.0
  0
LINE
  8
0
  6
DASHED
 62
   249
 10
97.5
 20
198.600824
 30
0.0
 11
97.5
 21
202.5
 31
0.0
  0
LINE
  8
0
  6
CONTINUOUS
 62
   249
 10
105.0
 20
190.0
 30
0.0
 11
102.5
 21
190.0
 31
0.0
  0
LINE
  8
0
  6
CONTINUOUS
 62
   249
 10
105.0
 20
200.0
 30
0.0
 11
105.0
 21
190.0
 31
0.0
  0
LINE
  8
0
  6
CONTINUOUS
 62
   249
 10
102.5
 20
200.0
 30
0.0
 11
105.0
 21
200.0
 31
0.0
  0
LINE
  8
0
  6
CONTINUOUS
 62
   249
 10
82.5
 20
190.0
 30
0.0
 11
95.0
 21
190.0
 31
0.0
  0
LINE
  8
0
  6
CONTINUOUS
 62
   249
 10
99.353436
 20
189.638137
 30
0.0
 11
94.256076
 21
186.785297
 31
0.0
  0
CIRCLE
  8
0
  6
CONTINUOUS
 62
   249
 10
100.0
 20
190.0
 30
0.0
 40
0.740939
  0
CIRCLE
  8
0
  6
CONTINUOUS
 62
   249
 10
100.0
 20
200.0
 30
0.0
 40
0.740939
  0
LINE
  8
0
  6
CONTINUOUS
 62
   249
 10
99.353436
 20
199.638137
 30
0.0
 11
94.256076
 21
196.785297
 31
0.0
  0
LINE
  8
0
  6
CONTINUOUS
 62
   249
 10
82.5
 20
195.0
 30
0.0
 11
105.0
 21
195.0
 31
0.0
  0
LINE
  8
0
  6
CONTINUOUS
 62
   249
 10
82.5
 20
200.0
 30
0.0
 11
95.0
 21
200.0
 31
0.0
  0
LINE
  8
0
  6
CONTINUOUS
 62
   249
 10
105.0
 20
177.5
 30
0.0
 11
110.0
 21
177.5
 31
0.0
  0
LINE
  8
0
  6
CONTINUOUS
 62
   249
 10
105.0
 20
187.5
 30
0.0
 11
110.0
 21
187.5
 31
0.0
  0
LINE
  8
0
  6
DASHED
 62
   249
 10
97.5
 20
173.600824
 30
0.0
 11
97.5
 21
177.5
 31
0.0
  0
LINE
  8
0
  6
DASHED
 62
   249
 10
97.5
 20
177.5
 30
0.0
 11
105.0
 21
177.5
 31
0.0
  0
LINE
  8
0
  6
DASHED
 62
   249
 10
97.5
 20
187.5
 30
0.0
 11
105.0
 21
187.5
 31
0.0
  0
LINE
  8
0
  6
DASHED
 62
   249
 10
97.5
 20
183.600824
 30
0.0
 11
97.5
 21
187.5
 31
0.0
  0
LINE
  8
0
  6
CONTINUOUS
 62
   249
 10
105.0
 20
175.0
 30
0.0
 11
102.5
 21
175.0
 31
0.0
  0
LINE
  8
0
  6
CONTINUOUS
 62
   249
 10
105.0
 20
185.0
 30
0.0
 11
105.0
 21
175.0
 31
0.0
  0
LINE
  8
0
  6
CONTINUOUS
 62
   249
 10
102.5
 20
185.0
 30
0.0
 11
105.0
 21
185.0
 31
0.0
  0
LINE
  8
0
  6
CONTINUOUS
 62
   249
 10
82.5
 20
175.0
 30
0.0
 11
95.0
 21
175.0
 31
0.0
  0
LINE
  8
0
  6
CONTINUOUS
 62
   249
 10
99.353436
 20
174.638137
 30
0.0
 11
94.256076
 21
171.785297
 31
0.0
  0
CIRCLE
  8
0
  6
CONTINUOUS
 62
   249
 10
100.0
 20
175.0
 30
0.0
 40
0.740939
  0
CIRCLE
  8
0
  6
CONTINUOUS
 62
   249
 10
100.0
 20
185.0
 30
0.0
 40
0.740939
  0
LINE
  8
0
  6
CONTINUOUS
 62
   249
 10
99.353436
 20
184.638137
 30
0.0
 11
94.256076
 21
181.785297
 31
0.0
  0
LINE
  8
0
  6
CONTINUOUS
 62
   249
 10
82.5
 20
180.0
 30
0.0
 11
105.0
 21
180.0
 31
0.0
  0
LINE
  8
0
  6
CONTINUOUS
 62
   249
 10
82.5
 20
185.0
 30
0.0
 11
95.0
 21
185.0
 31
0.0
  0
LINE
  8
0
  6
CONTINUOUS
 62
   249
 10
105.0
 20
162.5
 30
0.0
 11
110.0
 21
162.5
 31
0.0
  0
LINE
  8
0
  6
CONTINUOUS
 62
   249
 10
105.0
 20
172.5
 30
0.0
 11
110.0
 21
172.5
 31
0.0
  0
LINE
  8
0
  6
DASHED
 62
   249
 10
97.5
 20
158.600824
 30
0.0
 11
97.5
 21
162.5
 31
0.0
  0
LINE
  8
0
  6
DASHED
 62
   249
 10
97.5
 20
162.5
 30
0.0
 11
105.0
 21
162.5
 31
0.0
  0
LINE
  8
0
  6
DASHED
 62
   249
 10
97.5
 20
172.5
 30
0.0
 11
105.0
 21
172.5
 31
0.0
  0
LINE
  8
0
  6
DASHED
 62
   249
 10
97.5
 20
168.600824
 30
0.0
 11
97.5
 21
172.5
 31
0.0
  0
LINE
  8
0
  6
CONTINUOUS
 62
   249
 10
105.0
 20
160.0
 30
0.0
 11
102.5
 21
160.0
 31
0.0
  0
LINE
  8
0
  6
CONTINUOUS
 62
   249
 10
105.0
 20
170.0
 30
0.0
 11
105.0
 21
160.0
 31
0.0
  0
LINE
  8
0
  6
CONTINUOUS
 62
   249
 10
102.5
 20
170.0
 30
0.0
 11
105.0
 21
170.0
 31
0.0
  0
LINE
  8
0
  6
CONTINUOUS
 62
   249
 10
82.5
 20
160.0
 30
0.0
 11
95.0
 21
160.0
 31
0.0
  0
LINE
  8
0
  6
CONTINUOUS
 62
   249
 10
99.353436
 20
159.638137
 30
0.0
 11
94.256076
 21
156.785297
 31
0.0
  0
CIRCLE
  8
0
  6
CONTINUOUS
 62
   249
 10
100.0
 20
160.0
 30
0.0
 40
0.740939
  0
CIRCLE
  8
0
  6
CONTINUOUS
 62
   249
 10
100.0
 20
170.0
 30
0.0
 40
0.740939
  0
LINE
  8
0
  6
CONTINUOUS
 62
   249
 10
99.353436
 20
169.638137
 30
0.0
 11
94.256076
 21
166.785297
 31
0.0
  0
LINE
  8
0
  6
CONTINUOUS
 62
   249
 10
82.5
 20
165.0
 30
0.0
 11
105.0
 21
165.0
 31
0.0
  0
LINE
  8
0
  6
CONTINUOUS
 62
   249
 10
82.5
 20
170.0
 30
0.0
 11
95.0
 21
170.0
 31
0.0
  0
LINE
  8
0
  6
CONTINUOUS
 62
   249
 10
105.0
 20
147.5
 30
0.0
 11
110.0
 21
147.5
 31
0.0
  0
LINE
  8
0
  6
CONTINUOUS
 62
   249
 10
105.0
 20
157.5
 30
0.0
 11
110.0
 21
157.5
 31
0.0
  0
LINE
  8
0
  6
DASHED
 62
   249
 10
97.5
 20
143.600824
 30
0.0
 11
97.5
 21
147.5
 31
0.0
  0
LINE
  8
0
  6
DASHED
 62
   249
 10
97.5
 20
147.5
 30
0.0
 11
105.0
 21
147.5
 31
0.0
  0
LINE
  8
0
  6
DASHED
 62
   249
 10
97.5
 20
157.5
 30
0.0
 11
105.0
 21
157.5
 31
0.0
  0
LINE
  8
0
  6
DASHED
 62
   249
 10
97.5
 20
153.600824
 30
0.0
 11
97.5
 21
157.5
 31
0.0
  0
LINE
  8
0
  6
CONTINUOUS
 62
   249
 10
105.0
 20
145.0
 30
0.0
 11
102.5
 21
145.0
 31
0.0
  0
LINE
  8
0
  6
CONTINUOUS
 62
   249
 10
105.0
 20
155.0
 30
0.0
 11
105.0
 21
145.0
 31
0.0
  0
LINE
  8
0
  6
CONTINUOUS
 62
   249
 10
102.5
 20
155.0
 30
0.0
 11
105.0
 21
155.0
 31
0.0
  0
LINE
  8
0
  6
CONTINUOUS
 62
   249
 10
82.5
 20
145.0
 30
0.0
 11
95.0
 21
145.0
 31
0.0
  0
LINE
  8
0
  6
CONTINUOUS
 62
   249
 10
99.353436
 20
144.638137
 30
0.0
 11
94.256076
 21
141.785297
 31
0.0
  0
CIRCLE
  8
0
  6
CONTINUOUS
 62
   249
 10
100.0
 20
145.0
 30
0.0
 40
0.740939
  0
CIRCLE
  8
0
  6
CONTINUOUS
 62
   249
 10
100.0
 20
155.0
 30
0.0
 40
0.740939
  0
LINE
  8
0
  6
CONTINUOUS
 62
   249
 10
99.353436
 20
154.638137
 30
0.0
 11
94.256076
 21
151.785297
 31
0.0
  0
LINE
  8
0
  6
CONTINUOUS
 62
   249
 10
82.5
 20
150.0
 30
0.0
 11
105.0
 21
150.0
 31
0.0
  0
LINE
  8
0
  6
CONTINUOUS
 62
   249
 10
82.5
 20
155.0
 30
0.0
 11
95.0
 21
155.0
 31
0.0
  0
LINE
  8
0
  6
CONTINUOUS
 62
   249
 10
105.0
 20
132.5
 30
0.0
 11
110.0
 21
132.5
 31
0.0
  0
LINE
  8
0
  6
CONTINUOUS
 62
   249
 10
105.0
 20
142.5
 30
0.0
 11
110.0
 21
142.5
 31
0.0
  0
LINE
  8
0
  6
DASHED
 62
   249
 10
97.5
 20
128.600824
 30
0.0
 11
97.5
 21
132.5
 31
0.0
  0
LINE
  8
0
  6
DASHED
 62
   249
 10
97.5
 20
132.5
 30
0.0
 11
105.0
 21
132.5
 31
0.0
  0
LINE
  8
0
  6
DASHED
 62
   249
 10
97.5
 20
142.5
 30
0.0
 11
105.0
 21
142.5
 31
0.0
  0
LINE
  8
0
  6
DASHED
 62
   249
 10
97.5
 20
138.600824
 30
0.0
 11
97.5
 21
142.5
 31
0.0
  0
LINE
  8
0
  6
CONTINUOUS
 62
   249
 10
105.0
 20
130.0
 30
0.0
 11
102.5
 21
130.0
 31
0.0
  0
LINE
  8
0
  6
CONTINUOUS
 62
   249
 10
105.0
 20
140.0
 30
0.0
 11
105.0
 21
130.0
 31
0.0
  0
LINE
  8
0
  6
CONTINUOUS
 62
   249
 10
102.5
 20
140.0
 30
0.0
 11
105.0
 21
140.0
 31
0.0
  0
LINE
  8
0
  6
CONTINUOUS
 62
   249
 10
82.5
 20
130.0
 30
0.0
 11
95.0
 21
130.0
 31
0.0
  0
LINE
  8
0
  6
CONTINUOUS
 62
   249
 10
99.353436
 20
129.638137
 30
0.0
 11
94.256076
 21
126.785297
 31
0.0
  0
CIRCLE
  8
0
  6
CONTINUOUS
 62
   249
 10
100.0
 20
130.0
 30
0.0
 40
0.740939
  0
CIRCLE
  8
0
  6
CONTINUOUS
 62
   249
 10
100.0
 20
140.0
 30
0.0
 40
0.740939
  0
LINE
  8
0
  6
CONTINUOUS
 62
   249
 10
99.353436
 20
139.638137
 30
0.0
 11
94.256076
 21
136.785297
 31
0.0
  0
LINE
  8
0
  6
CONTINUOUS
 62
   249
 10
82.5
 20
135.0
 30
0.0
 11
105.0
 21
135.0
 31
0.0
  0
LINE
  8
0
  6
CONTINUOUS
 62
   249
 10
82.5
 20
140.0
 30
0.0
 11
95.0
 21
140.0
 31
0.0
  0
TEXT
  8
0
  6
CONTINUOUS
 62
   249
 10
85.0
 20
241.476051
 30
0.0
 40
2.0
  1
73
  7
ROMANS
  0
TEXT
  8
0
  6
CONTINUOUS
 62
   249
 10
85.0
 20
236.303081
 30
0.0
 40
2.0
  1
74
  7
ROMANS
  0
TEXT
  8
0
  6
CONTINUOUS
 62
   249
 10
85.0
 20
231.537954
 30
0.0
 40
2.0
  1
75
  7
ROMANS
  0
TEXT
  8
0
  6
CONTINUOUS
 62
   249
 10
85.0
 20
226.564567
 30
0.0
 40
2.0
  1
76
  7
ROMANS
  0
TEXT
  8
0
  6
CONTINUOUS
 62
   249
 10
85.0
 20
221.382919
 30
0.0
 40
2.0
  1
77
  7
ROMANS
  0
TEXT
  8
0
  6
CONTINUOUS
 62
   249
 10
85.0
 20
216.409532
 30
0.0
 40
2.0
  1
78
  7
ROMANS
  0
TEXT
  8
0
  6
CONTINUOUS
 62
   249
 10
85.0
 20
211.436145
 30
0.0
 40
2.0
  1
79
  7
ROMANS
  0
TEXT
  8
0
  6
CONTINUOUS
 62
   249
 10
85.0
 20
206.471435
 30
0.0
 40
2.0
  1
80
  7
ROMANS
  0
TEXT
  8
0
  6
CONTINUOUS
 62
   249
 10
85.0
 20
201.697631
 30
0.0
 40
2.0
  1
81
  7
ROMANS
  0
TEXT
  8
0
  6
CONTINUOUS
 62
   249
 10
85.0
 20
196.732921
 30
0.0
 40
2.0
  1
82
  7
ROMANS
  0
TEXT
  8
0
  6
CONTINUOUS
 62
   249
 10
85.0
 20
191.551273
 30
0.0
 40
2.0
  1
83
  7
ROMANS
  0
TEXT
  8
0
  6
CONTINUOUS
 62
   249
 10
85.0
 20
186.577886
 30
0.0
 40
2.0
  1
84
  7
ROMANS
  0
TEXT
  8
0
  6
CONTINUOUS
 62
   249
 10
85.0
 20
181.604499
 30
0.0
 40
2.0
  1
85
  7
ROMANS
  0
TEXT
  8
0
  6
CONTINUOUS
 62
   249
 10
85.0
 20
176.631112
 30
0.0
 40
2.0
  1
86
  7
ROMANS
  0
TEXT
  8
0
  6
CONTINUOUS
 62
   249
 10
85.0
 20
171.666402
 30
0.0
 40
2.0
  1
87
  7
ROMANS
  0
TEXT
  8
0
  6
CONTINUOUS
 62
   249
 10
85.0
 20
166.484754
 30
0.0
 40
2.0
  1
88
  7
ROMANS
  0
TEXT
  8
0
  6
CONTINUOUS
 62
   249
 10
85.0
 20
161.719628
 30
0.0
 40
2.0
  1
89
  7
ROMANS
  0
TEXT
  8
0
  6
CONTINUOUS
 62
   249
 10
85.0
 20
156.53798
 30
0.0
 40
2.0
  1
90
  7
ROMANS
  0
TEXT
  8
0
  6
CONTINUOUS
 62
   249
 10
85.0
 20
151.57327
 30
0.0
 40
2.0
  1
91
  7
ROMANS
  0
TEXT
  8
0
  6
CONTINUOUS
 62
   249
 10
85.0
 20
146.4003
 30
0.0
 40
2.0
  1
92
  7
ROMANS
  0
TEXT
  8
0
  6
CONTINUOUS
 62
   249
 10
85.0
 20
141.426913
 30
0.0
 40
2.0
  1
93
  7
ROMANS
  0
TEXT
  8
0
  6
CONTINUOUS
 62
   249
 10
85.0
 20
136.453526
 30
0.0
 40
2.0
  1
94
  7
ROMANS
  0
TEXT
  8
0
  6
CONTINUOUS
 62
   249
 10
85.0
 20
131.480138
 30
0.0
 40
2.0
  1
95
  7
ROMANS
  0
TEXT
  8
0
  6
CONTINUOUS
 62
   249
 10
85.0
 20
126.506751
 30
0.0
 40
2.0
  1
96
  7
ROMANS
  0
LINE
  8
0
  6
CONTINUOUS
 62
   249
 10
112.5
 20
248.0
 30
0.0
 11
112.5
 21
131.0
 31
0.0
  0
LINE
  8
0
  6
CONTINUOUS
 62
   249
 10
112.5
 20
131.0
 30
0.0
 11
111.5
 21
130.0
 31
0.0
  0
LINE
  8
0
  6
CONTINUOUS
 62
   249
 10
112.5
 20
248.0
 30
0.0
 11
111.5
 21
249.0
 31
0.0
  0
LINE
  8
0
  6
CONTINUOUS
 62
   249
 10
125.0
 20
187.5
 30
0.0
 11
125.0
 21
87.5
 31
0.0
  0
LINE
  8
0
  6
CONTINUOUS
 62
   249
 10
125.0
 20
87.5
 30
0.0
 11
231.25
 21
87.5
 31
0.0
  0
LINE
  8
0
  6
CONTINUOUS
 62
   249
 10
231.25
 20
87.5
 30
0.0
 11
231.25
 21
155.625
 31
0.0
  0
LINE
  8
0
  6
CONTINUOUS
 62
   249
 10
233.75
 20
167.5
 30
0.0
 11
233.75
 21
157.5
 31
0.0
  0
LINE
  8
0
  6
CONTINUOUS
 62
   249
 10
228.75
 20
157.5
 30
0.0
 11
228.75
 21
227.5
 31
0.0
  0
LINE
  8
0
  6
CONTINUOUS
 62
   249
 10
234.114372
 20
155.625
 30
0.0
 11
228.363498
 21
155.625
 31
0.0
  0
LINE
  8
0
  6
CONTINUOUS
 62
   249
 10
228.363498
 20
155.625
 30
0.0
 11
227.363498
 21
156.625
 31
0.0
  0
LINE
  8
0
  6
CONTINUOUS
 62
   249
 10
234.114372
 20
155.625
 30
0.0
 11
235.114372
 21
156.625
 31
0.0
  0
LINE
  8
0
  6
CONTINUOUS
 62
   249
 10
119.430564
 20
187.096539
 30
0.0
 11
119.430564
 21
188.076539
 31
0.0
  0
LINE
  8
0
  6
CONTINUOUS
 62
   249
 10
119.430564
 20
188.076539
 30
0.0
 11
116.000564
 21
188.076539
 31
0.0
  0
LINE
  8
0
  6
CONTINUOUS
 62
   249
 10
116.000564
 20
188.076539
 30
0.0
 11
116.000564
 21
187.096539
 31
0.0
  0
LINE
  8
0
  6
CONTINUOUS
 62
   249
 10
116.000564
 20
187.096539
 30
0.0
 11
119.430564
 21
187.096539
 31
0.0
  0
LINE
  8
0
  6
CONTINUOUS
 62
   249
 10
116.25
 20
187.586539
 30
0.0
 11
112.5
 21
187.586539
 31
0.0
  0
ARC
  8
0
  6
CONTINUOUS
 62
   249
 10
118.75
 20
187.586539
 30
0.0
 40
2.5
 50
270.0
 51
90.0
  0
LINE
  8
0
  6
CONTINUOUS
 62
   249
 10
121.25
 20
187.5
 30
0.0
 11
125.0
 21
187.5
 31
0.0
  0
LINE
  8
0
  6
CONTINUOUS
 62
   249
 10
123.75
 20
172.5
 30
0.0
 11
126.25
 21
170.0
 31
0.0
  0
ARC
  8
0
  6
CONTINUOUS
 62
   249
 10
118.75
 20
195.086539
 30
0.0
 40
2.5
 50
270.0
 51
90.0
  0
LINE
  8
0
  6
CONTINUOUS
 62
   249
 10
121.25
 20
195.0
 30
0.0
 11
148.75
 21
195.0
 31
0.0
  0
LINE
  8
0
  6
CONTINUOUS
 62
   249
 10
135.0
 20
193.75
 30
0.0
 11
137.5
 21
196.25
 31
0.0
  0
TEXT
  8
0
  6
CONTINUOUS
 62
   249
 10
138.75
 20
197.5
 30
0.0
 40
2.0
  1
16
  7
ROMANS
  0
TEXT
  8
0
  6
CONTINUOUS
 62
   249
 10
123.75
 20
173.75
 30
0.0
 40
2.0
  1
16
 50
90.0
  7
ROMANS
  0
TEXT
  8
0
  6
CONTINUOUS
 62
   249
 10
117.5
 20
201.25
 30
0.0
 40
2.0
  1
1)
  7
ROMANS
  0
TEXT
  8
0
  6
CONTINUOUS
 62
   249
 10
112.5
 20
87.5
 30
0.0
 40
2.0
  1
2)
  7
ROMANS
  0
TEXT
  8
0
  6
CONTINUOUS
 62
   249
 10
87.5
 20
255.0
 30
0.0
 40
2.0
  1
RS 10017-AA
  7
ROMANS
  0
TEXT
  8
0
  6
CONTINUOUS
 62
   249
 10
36.547558
 20
42.5
 30
0.0
 40
2.0
  1
1) ALTERNATIVELY SIGNAL FOLLOWING OR GROUP ALARM FUNCTION
  7
ROMANS
  0
TEXT
  8
0
  6
CONTINUOUS
 62
   249
 10
42.070923
 20
39.166667
 30
0.0
 40
2.0
  1
ALTERNATIV SIGNALFÖLJANDE- ELLER GRUPPLARMS FUNKTION
  7
ROMANS
  0
TEXT
  8
0
  6
CONTINUOUS
 62
   249
 10
36.511614
 20
32.5
 30
0.0
 40
2.0
  1
2) THE CONTACT FUNCTIONS CAN BE CHANGED WITH THE JUMPERS W1...W4
  7
ROMANS
  0
LINE
  8
0
  6
DASHED
 62
   249
 10
82.5
 20
245.0
 30
0.0
 11
62.5
 21
245.0
 31
0.0
  0
LINE
  8
0
  6
DASHED
 62
   249
 10
82.5
 20
240.0
 30
0.0
 11
62.5
 21
240.0
 31
0.0
  0
LINE
  8
0
  6
DASHED
 62
   249
 10
82.5
 20
235.0
 30
0.0
 11
62.5
 21
235.0
 31
0.0
  0
LINE
  8
0
  6
DASHED
 62
   249
 10
82.5
 20
230.0
 30
0.0
 11
62.5
 21
230.0
 31
0.0
  0
LINE
  8
0
  6
DASHED
 62
   249
 10
82.5
 20
225.0
 30
0.0
 11
62.5
 21
225.0
 31
0.0
  0
LINE
  8
0
  6
DASHED
 62
   249
 10
82.5
 20
220.0
 30
0.0
 11
62.5
 21
220.0
 31
0.0
  0
LINE
  8
0
  6
DASHED
 62
   249
 10
82.5
 20
215.0
 30
0.0
 11
62.5
 21
215.0
 31
0.0
  0
LINE
  8
0
  6
DASHED
 62
   249
 10
82.5
 20
210.0
 30
0.0
 11
62.5
 21
210.0
 31
0.0
  0
LINE
  8
0
  6
DASHED
 62
   249
 10
82.5
 20
205.0
 30
0.0
 11
62.5
 21
205.0
 31
0.0
  0
LINE
  8
0
  6
DASHED
 62
   249
 10
82.5
 20
200.0
 30
0.0
 11
62.5
 21
200.0
 31
0.0
  0
LINE
  8
0
  6
DASHED
 62
   249
 10
82.5
 20
195.0
 30
0.0
 11
62.5
 21
195.0
 31
0.0
  0
LINE
  8
0
  6
DASHED
 62
   249
 10
82.5
 20
190.0
 30
0.0
 11
62.5
 21
190.0
 31
0.0
  0
LINE
  8
0
  6
DASHED
 62
   249
 10
82.5
 20
185.0
 30
0.0
 11
62.5
 21
185.0
 31
0.0
  0
LINE
  8
0
  6
DASHED
 62
   249
 10
82.5
 20
180.0
 30
0.0
 11
62.5
 21
180.0
 31
0.0
  0
LINE
  8
0
  6
DASHED
 62
   249
 10
82.5
 20
175.0
 30
0.0
 11
62.5
 21
175.0
 31
0.0
  0
LINE
  8
0
  6
DASHED
 62
   249
 10
82.5
 20
170.0
 30
0.0
 11
62.5
 21
170.0
 31
0.0
  0
LINE
  8
0
  6
DASHED
 62
   249
 10
82.5
 20
165.0
 30
0.0
 11
62.5
 21
165.0
 31
0.0
  0
LINE
  8
0
  6
DASHED
 62
   249
 10
82.5
 20
160.0
 30
0.0
 11
62.5
 21
160.0
 31
0.0
  0
LINE
  8
0
  6
DASHED
 62
   249
 10
82.5
 20
155.0
 30
0.0
 11
62.5
 21
155.0
 31
0.0
  0
LINE
  8
0
  6
DASHED
 62
   249
 10
82.5
 20
150.0
 30
0.0
 11
62.5
 21
150.0
 31
0.0
  0
LINE
  8
0
  6
DASHED
 62
   249
 10
82.5
 20
145.0
 30
0.0
 11
62.5
 21
145.0
 31
0.0
  0
LINE
  8
0
  6
DASHED
 62
   249
 10
82.5
 20
140.0
 30
0.0
 11
62.5
 21
140.0
 31
0.0
  0
LINE
  8
0
  6
DASHED
 62
   249
 10
82.5
 20
135.0
 30
0.0
 11
62.5
 21
135.0
 31
0.0
  0
LINE
  8
0
  6
DASHED
 62
   249
 10
82.5
 20
130.0
 30
0.0
 11
62.5
 21
130.0
 31
0.0
  0
TEXT
  8
0
  6
DASHED
 62
   249
 10
47.1875
 20
239.0625
 30
0.0
 40
2.0
  1
COM.
  7
ROMANS
  0
TEXT
  8
0
  6
DASHED
 62
   249
 10
47.1875
 20
224.0625
 30
0.0
 40
2.0
  1
COM.
  7
ROMANS
  0
TEXT
  8
0
  6
DASHED
 62
   249
 10
47.1875
 20
209.0625
 30
0.0
 40
2.0
  1
COM.
  7
ROMANS
  0
TEXT
  8
0
  6
DASHED
 62
   249
 10
47.1875
 20
194.0625
 30
0.0
 40
2.0
  1
COM.
  7
ROMANS
  0
TEXT
  8
0
  6
DASHED
 62
   249
 10
47.1875
 20
179.0625
 30
0.0
 40
2.0
  1
COM.
  7
ROMANS
  0
TEXT
  8
0
  6
DASHED
 62
   249
 10
47.1875
 20
164.0625
 30
0.0
 40
2.0
  1
COM.
  7
ROMANS
  0
TEXT
  8
0
  6
DASHED
 62
   249
 10
47.1875
 20
149.0625
 30
0.0
 40
2.0
  1
COM.
  7
ROMANS
  0
TEXT
  8
0
  6
DASHED
 62
   249
 10
47.1875
 20
134.0625
 30
0.0
 40
2.0
  1
COM.
  7
ROMANS
  0
TEXT
  8
0
  6
DASHED
 62
   249
 10
47.1875
 20
244.0625
 30
0.0
 40
2.0
  1
RELAY
  7
ROMANS
  0
TEXT
  8
0
  6
DASHED
 62
   249
 10
47.1875
 20
233.854167
 30
0.0
 40
2.0
  1
RELAY
  7
ROMANS
  0
TEXT
  8
0
  6
DASHED
 62
   249
 10
47.1875
 20
229.0625
 30
0.0
 40
2.0
  1
RELAY
  7
ROMANS
  0
TEXT
  8
0
  6
DASHED
 62
   249
 10
47.1875
 20
218.854167
 30
0.0
 40
2.0
  1
RELAY
  7
ROMANS
  0
TEXT
  8
0
  6
DASHED
 62
   249
 10
47.1875
 20
214.0625
 30
0.0
 40
2.0
  1
RELAY
  7
ROMANS
  0
TEXT
  8
0
  6
DASHED
 62
   249
 10
47.1875
 20
203.854167
 30
0.0
 40
2.0
  1
RELAY
  7
ROMANS
  0
TEXT
  8
0
  6
DASHED
 62
   249
 10
47.1875
 20
199.0625
 30
0.0
 40
2.0
  1
RELAY
  7
ROMANS
  0
TEXT
  8
0
  6
DASHED
 62
   249
 10
47.1875
 20
188.854167
 30
0.0
 40
2.0
  1
RELAY
  7
ROMANS
  0
TEXT
  8
0
  6
DASHED
 62
   249
 10
47.1875
 20
184.0625
 30
0.0
 40
2.0
  1
RELAY
  7
ROMANS
  0
TEXT
  8
0
  6
DASHED
 62
   249
 10
47.1875
 20
173.854167
 30
0.0
 40
2.0
  1
RELAY
  7
ROMANS
  0
TEXT
  8
0
  6
DASHED
 62
   249
 10
47.1875
 20
169.0625
 30
0.0
 40
2.0
  1
RELAY
  7
ROMANS
  0
TEXT
  8
0
  6
DASHED
 62
   249
 10
47.1875
 20
158.854167
 30
0.0
 40
2.0
  1
RELAY
  7
ROMANS
  0
TEXT
  8
0
  6
DASHED
 62
   249
 10
47.1875
 20
154.0625
 30
0.0
 40
2.0
  1
RELAY
  7
ROMANS
  0
TEXT
  8
0
  6
DASHED
 62
   249
 10
47.1875
 20
143.854167
 30
0.0
 40
2.0
  1
RELAY
  7
ROMANS
  0
TEXT
  8
0
  6
DASHED
 62
   249
 10
47.1875
 20
139.0625
 30
0.0
 40
2.0
  1
RELAY
  7
ROMANS
  0
TEXT
  8
0
  6
DASHED
 62
   249
 10
47.1875
 20
128.854167
 30
0.0
 40
2.0
  1
RELAY
  7
ROMANS
  0
TEXT
  8
0
  6
DASHED
 62
   249
 10
58.125
 20
244.0625
 30
0.0
 40
2.0
  1
1
  7
ROMANS
  0
TEXT
  8
0
  6
DASHED
 62
   249
 10
58.125
 20
233.854167
 30
0.0
 40
2.0
  1
2
  7
ROMANS
  0
TEXT
  8
0
  6
DASHED
 62
   249
 10
58.125
 20
228.958333
 30
0.0
 40
2.0
  1
3
  7
ROMANS
  0
TEXT
  8
0
  6
DASHED
 62
   249
 10
58.125
 20
219.0625
 30
0.0
 40
2.0
  1
4
  7
ROMANS
  0
TEXT
  8
0
  6
DASHED
 62
   249
 10
58.125
 20
214.166667
 30
0.0
 40
2.0
  1
5
  7
ROMANS
  0
TEXT
  8
0
  6
DASHED
 62
   249
 10
58.125
 20
203.958333
 30
0.0
 40
2.0
  1
6
  7
ROMANS
  0
TEXT
  8
0
  6
DASHED
 62
   249
 10
58.125
 20
199.0625
 30
0.0
 40
2.0
  1
7
  7
ROMANS
  0
TEXT
  8
0
  6
DASHED
 62
   249
 10
58.125
 20
188.854167
 30
0.0
 40
2.0
  1
8
  7
ROMANS
  0
TEXT
  8
0
  6
DASHED
 62
   249
 10
58.125
 20
184.270833
 30
0.0
 40
2.0
  1
9
  7
ROMANS
  0
TEXT
  8
0
  6
DASHED
 62
   249
 10
58.125
 20
173.75
 30
0.0
 40
2.0
  1
10
  7
ROMANS
  0
TEXT
  8
0
  6
DASHED
 62
   249
 10
58.125
 20
169.166667
 30
0.0
 40
2.0
  1
11
  7
ROMANS
  0
TEXT
  8
0
  6
DASHED
 62
   249
 10
58.125
 20
158.645833
 30
0.0
 40
2.0
  1
12
  7
ROMANS
  0
TEXT
  8
0
  6
DASHED
 62
   249
 10
58.125
 20
154.0625
 30
0.0
 40
2.0
  1
13
  7
ROMANS
  0
TEXT
  8
0
  6
DASHED
 62
   249
 10
58.125
 20
143.854167
 30
0.0
 40
2.0
  1
14
  7
ROMANS
  0
TEXT
  8
0
  6
DASHED
 62
   249
 10
58.125
 20
139.270833
 30
0.0
 40
2.0
  1
15
  7
ROMANS
  0
TEXT
  8
0
  6
DASHED
 62
   249
 10
58.125
 20
128.75
 30
0.0
 40
2.0
  1
16
  7
ROMANS
  0
TEXT
  8
0
  6
DASHED
 62
   249
 10
353.111506
 20
101.279549
 30
0.0
 40
2.0
  1
28C
  7
ROMANS
  0
TEXT
  8
0
  6
DASHED
 62
   249
 10
346.965702
 20
96.752577
 30
0.0
 40
2.0
  1
SACO 16D3
  7
ROMANS
  0
TEXT
  8
0
  6
DASHED
 62
   249
 10
213.847684
 20
28.553424
 30
0.0
 40
2.0
  1
1993-01-25 HJ / RITU
  7
ROMANS
  0
TEXT
  8
0
  6
DASHED
 62
   249
 10
317.5
 20
27.5
 30
0.0
 40
2.0
  1
CIRCUIT DIAGRAM / KRETSSCHEMA
  7
ROMANS
  0
TEXT
  8
0
  6
DASHED
 62
   249
 10
317.5
 20
24.166667
 30
0.0
 40
2.0
  1
ANNUNCIATOR UNIT / LARMENHET
  7
ROMANS
  0
TEXT
  8
0
  6
DASHED
 62
   249
 10
317.5
 20
20.833333
 30
0.0
 40
2.0
  1
SACO 16D3
  7
ROMANS
  0
TEXT
  8
0
  6
DASHED
 62
   249
 10
317.5
 20
2.5
 30
0.0
 40
2.5
  1
RS 10017-AA
  7
ROMANS
  0
TEXT
  8
0
  6
DASHED
 62
   249
 10
52.365148
 20
1.811337
 30
0.0
 40
2.0
  1
REDRAWN WITH AUTOCAD 1993-05-10  KM / RITU Power
  7
ROMANS
  0
LINE
  8
0
  6
CONTINUOUS
 62
   249
 10
318.75
 20
210.0
 30
0.0
 11
323.75
 21
210.0
 31
0.0
  0
LINE
  8
0
  6
CONTINUOUS
 62
   249
 10
328.75
 20
210.0
 30
0.0
 11
323.006076
 21
206.785297
 31
0.0
  0
LINE
  8
0
  6
CONTINUOUS
 62
   249
 10
328.75
 20
210.0
 30
0.0
 11
333.75
 21
210.0
 31
0.0
  0
LINE
  8
0
  6
DASHED
 62
   249
 10
297.5
 20
210.0
 30
0.0
 11
320.0
 21
210.0
 31
0.0
  0
LINE
  8
0
  6
CONTINUOUS
 62
   249
 10
318.75
 20
150.0
 30
0.0
 11
323.75
 21
150.0
 31
0.0
  0
LINE
  8
0
  6
CONTINUOUS
 62
   249
 10
328.75
 20
150.0
 30
0.0
 11
323.006076
 21
146.785297
 31
0.0
  0
LINE
  8
0
  6
CONTINUOUS
 62
   249
 10
328.75
 20
150.0
 30
0.0
 11
333.75
 21
150.0
 31
0.0
  0
LINE
  8
0
  6
CONTINUOUS
 62
   249
 10
328.75
 20
155.0
 30
0.0
 11
323.006076
 21
151.785297
 31
0.0
  0
LINE
  8
0
  6
CONTINUOUS
 62
   249
 10
318.75
 20
155.0
 30
0.0
 11
323.75
 21
155.0
 31
0.0
  0
LINE
  8
0
  6
CONTINUOUS
 62
   249
 10
328.75
 20
155.0
 30
0.0
 11
333.75
 21
155.0
 31
0.0
  0
LINE
  8
0
  6
DASHED
 62
   249
 10
297.5
 20
155.0
 30
0.0
 11
320.0
 21
155.0
 31
0.0
  0
LINE
  8
0
  6
DASHED
 62
   249
 10
297.5
 20
150.0
 30
0.0
 11
320.0
 21
150.0
 31
0.0
  0
TEXT
  8
0
  6
DASHED
 62
   249
 10
52.365148
 20
6.393074
 30
0.0
 40
2.0
  1
FIELD CONTACTS ORDER HAS BEEN CHANGED 1995-10-25  JR / AD-ELECTRONICS
  7
ROMANS
  0
TEXT
  8
0
  6
DASHED
 62
   249
 10
292.558364
 20
12.155824
 30
0.0
 40
3.0
  1
A3
  7
GREEKS
  0
TEXT
  8
0
  6
DASHED
 62
   249
 10
352.159746
 20
16.034995
 30
0.0
 40
1.4
  1
LEHTI SHEET
  7
GREEKS
  0
LINE
  8
0
 62
   249
 10
0.578269
 20
263.080464
 30
0.0
 11
392.578269
 21
263.080464
 31
0.0
  0
LINE
  8
0
 62
   249
 10
18.578269
 20
0.580464
 30
0.0
 11
0.578269
 21
0.580464
 31
0.0
  0
LINE
  8
0
 62
   249
 10
209.578269
 20
0.580464
 30
0.0
 11
392.578269
 21
0.580464
 31
0.0
  0
LINE
  8
0
 62
   249
 10
209.578269
 20
0.580464
 30
0.0
 11
209.578269
 21
35.580464
 31
0.0
  0
LINE
  8
0
 62
   249
 10
392.578269
 20
0.580464
 30
0.0
 11
392.578269
 21
35.580464
 31
0.0
  0
LINE
  8
0
 62
   249
 10
209.578269
 20
18.580464
 30
0.0
 11
392.578269
 21
18.580464
 31
0.0
  0
LINE
  8
0
 62
   249
 10
209.578269
 20
10.080464
 30
0.0
 11
392.578269
 21
10.080464
 31
0.0
  0
LINE
  8
0
 62
   249
 10
209.578269
 20
27.080464
 30
0.0
 11
307.578269
 21
27.080464
 31
0.0
  0
LINE
  8
0
 62
   249
 10
209.578269
 20
35.580464
 30
0.0
 11
392.578269
 21
35.580464
 31
0.0
  0
TEXT
  8
0
 62
   249
 10
210.578269
 20
24.313797
 30
0.0
 40
1.4
  1
TARKASTI  CHECKED
  7
ROMANS
  0
TEXT
  8
0
 62
   249
 10
210.321103
 20
16.047131
 30
0.0
 40
1.4
  1
HYVÄKSYI  APPROVED
  7
ROMANS
  0
LINE
  8
0
 62
   249
 10
307.578269
 20
0.580464
 30
0.0
 11
307.578269
 21
35.580464
 31
0.0
  0
TEXT
  8
0
 62
   249
 10
259.578269
 20
33.080464
 30
0.0
 40
1.4
  1
LIITTYY  CONCERNING
  7
ROMANS
  0
TEXT
  8
0
 62
   249
 10
259.578269
 20
24.080464
 30
0.0
 40
1.4
  1
TOLERANSSIT  TOLERANCES
  7
ROMANS
  0
TEXT
  8
0
 62
   249
 10
259.578269
 20
16.080464
 30
0.0
 40
1.4
  1
SUHDE  SCALE
  7
ROMANS
  0
TEXT
  8
0
 62
   249
 10
309.578269
 20
33.080464
 30
0.0
 40
1.4
  1
NIMITYS  NAME
  7
ROMANS
  0
TEXT
  8
0
 62
   249
 10
309.578269
 20
16.080464
 30
0.0
 40
1.4
  1
KOODI  CODE
  7
ROMANS
  0
TEXT
  8
0
 62
   249
 10
309.578269
 20
7.580464
 30
0.0
 40
1.4
  1
PIIRUSTUS NO  DRAWING NR
  7
ROMANS
  0
LINE
  8
0
 62
   249
 10
350.078269
 20
10.080464
 30
0.0
 11
350.078269
 21
18.580464
 31
0.0
  0
TEXT
  8
0
 62
   249
 10
371.578269
 20
7.580464
 30
0.0
 40
1.4
  1
PAINOS  REVISION
  7
ROMANS
  0
LINE
  8
0
 62
   249
 10
370.078269
 20
10.080464
 30
0.0
 11
370.078269
 21
0.580464
 31
0.0
  0
LINE
  8
0
 62
   249
 10
210.528269
 20
2.080464
 30
0.0
 11
212.278269
 21
2.080464
 31
0.0
  0
LINE
  8
0
 62
   249
 10
215.778269
 20
2.080464
 30
0.0
 11
217.528269
 21
2.080464
 31
0.0
  0
LINE
  8
0
 62
   249
 10
212.978269
 20
9.080464
 30
0.0
 11
211.800741
 21
5.716099
 31
0.0
  0
LINE
  8
0
 62
   249
 10
212.767055
 20
3.480464
 30
0.0
 11
213.888269
 21
3.480464
 31
0.0
  0
LINE
  8
0
 62
   249
 10
212.767058
 20
3.477007
 30
0.0
 11
212.278269
 21
2.080464
 31
0.0
  0
LINE
  8
0
 62
   249
 10
215.078269
 20
9.080464
 30
0.0
 11
216.254621
 21
5.719456
 31
0.0
  0
LINE
  8
0
 62
   249
 10
215.289366
 20
3.477328
 30
0.0
 11
215.778269
 21
2.080464
 31
0.0
  0
LINE
  8
0
 62
   249
 10
215.078269
 20
9.080464
 30
0.0
 11
214.168269
 21
9.080464
 31
0.0
  0
LINE
  8
0
 62
   249
 10
213.888269
 20
9.080464
 30
0.0
 11
213.888269
 21
5.720464
 31
0.0
  0
LINE
  8
0
 62
   249
 10
214.168269
 20
9.080464
 30
0.0
 11
214.168269
 21
5.720464
 31
0.0
  0
LINE
  8
0
 62
   249
 10
214.168269
 20
3.480464
 30
0.0
 11
215.288162
 21
3.480464
 31
0.0
  0
LINE
  8
0
 62
   249
 10
213.888269
 20
9.080464
 30
0.0
 11
212.978269
 21
9.080464
 31
0.0
  0
LINE
  8
0
 62
   249
 10
211.800209
 20
5.720464
 30
0.0
 11
213.888269
 21
5.720464
 31
0.0
  0
LINE
  8
0
 62
   249
 10
211.701251
 20
5.440464
 30
0.0
 11
213.888269
 21
5.440464
 31
0.0
  0
LINE
  8
0
 62
   249
 10
216.35276
 20
5.439058
 30
0.0
 11
217.528269
 21
2.080464
 31
0.0
  0
LINE
  8
0
 62
   249
 10
214.168269
 20
5.720464
 30
0.0
 11
216.253382
 21
5.720464
 31
0.0
  0
LINE
  8
0
 62
   249
 10
214.168269
 20
5.440464
 30
0.0
 11
216.351525
 21
5.440464
 31
0.0
  0
LINE
  8
0
 62
   249
 10
214.168269
 20
5.440464
 30
0.0
 11
214.168269
 21
3.480464
 31
0.0
  0
LINE
  8
0
 62
   249
 10
213.888269
 20
5.440464
 30
0.0
 11
213.888269
 21
3.480464
 31
0.0
  0
LINE
  8
0
 62
   249
 10
211.698157
 20
5.423003
 30
0.0
 11
210.528269
 21
2.080464
 31
0.0
  0
LINE
  8
0
 62
   249
 10
218.018269
 20
2.080464
 30
0.0
 11
218.018269
 21
5.440464
 31
0.0
  0
LINE
  8
0
 62
   249
 10
218.018269
 20
9.080464
 30
0.0
 11
219.978269
 21
9.080464
 31
0.0
  0
LINE
  8
0
 62
   249
 10
219.978269
 20
9.080464
 30
0.0
 11
219.978269
 21
5.720464
 31
0.0
  0
LINE
  8
0
 62
   249
 10
219.978269
 20
5.720464
 30
0.0
 11
218.018269
 21
5.720464
 31
0.0
  0
LINE
  8
0
 62
   249
 10
218.018269
 20
5.440464
 30
0.0
 11
219.978269
 21
5.440464
 31
0.0
  0
LINE
  8
0
 62
   249
 10
219.978269
 20
5.440464
 30
0.0
 11
219.978269
 21
2.080464
 31
0.0
  0
LINE
  8
0
 62
   249
 10
219.978269
 20
2.080464
 30
0.0
 11
218.018269
 21
2.080464
 31
0.0
  0
LINE
  8
0
 62
   249
 10
218.018269
 20
5.720464
 30
0.0
 11
218.018269
 21
9.080464
 31
0.0
  0
ARC
  8
0
 62
   249
 10
220.818269
 20
7.505464
 30
0.0
 40
1.575
 50
298.455859
 51
90.052437
  0
LINE
  8
0
 62
   249
 10
220.258269
 20
9.080464
 30
0.0
 11
220.816827
 21
9.080463
 31
0.0
  0
LINE
  8
0
 62
   249
 10
220.258269
 20
9.080464
 30
0.0
 11
220.258269
 21
5.720464
 31
0.0
  0
LINE
  8
0
 62
   249
 10
220.258269
 20
5.720464
 30
0.0
 11
222.242711
 21
5.720464
 31
0.0
  0
LINE
  8
0
 62
   249
 10
222.498269
 20
5.440464
 30
0.0
 11
220.258269
 21
5.440464
 31
0.0
  0
LINE
  8
0
 62
   249
 10
220.258269
 20
5.440464
 30
0.0
 11
220.258269
 21
2.080464
 31
0.0
  0
ARC
  8
0
 62
   249
 10
220.818269
 20
4.180464
 30
0.0
 40
2.1
 50
269.937724
 51
37.056553
  0
LINE
  8
0
 62
   249
 10
220.258269
 20
2.080464
 30
0.0
 11
220.815986
 21
2.080465
 31
0.0
  0
ARC
  8
0
 62
   249
 10
220.818269
 20
4.180464
 30
0.0
 40
2.1
 50
47.28622
 51
68.787999
  0
ARC
  8
0
 62
   249
 10
226.278269
 20
4.180464
 30
0.0
 40
2.1
 50
47.28622
 51
68.787999
  0
LINE
  8
0
 62
   249
 10
225.718269
 20
2.080464
 30
0.0
 11
226.275986
 21
2.080465
 31
0.0
  0
ARC
  8
0
 62
   249
 10
226.278269
 20
4.180464
 30
0.0
 40
2.1
 50
269.937724
 51
37.056553
  0
LINE
  8
0
 62
   249
 10
225.718269
 20
5.440464
 30
0.0
 11
225.718269
 21
2.080464
 31
0.0
  0
LINE
  8
0
 62
   249
 10
227.958269
 20
5.440464
 30
0.0
 11
225.718269
 21
5.440464
 31
0.0
  0
LINE
  8
0
 62
   249
 10
225.718269
 20
5.720464
 30
0.0
 11
227.702711
 21
5.720464
 31
0.0
  0
LINE
  8
0
 62
   249
 10
225.718269
 20
9.080464
 30
0.0
 11
225.718269
 21
5.720464
 31
0.0
  0
LINE
  8
0
 62
   249
 10
225.718269
 20
9.080464
 30
0.0
 11
226.276827
 21
9.080463
 31
0.0
  0
ARC
  8
0
 62
   249
 10
226.278269
 20
7.505464
 30
0.0
 40
1.575
 50
298.455859
 51
90.052437
  0
LINE
  8
0
 62
   249
 10
223.478269
 20
5.720464
 30
0.0
 11
223.478269
 21
9.080464
 31
0.0
  0
LINE
  8
0
 62
   249
 10
225.438269
 20
2.080464
 30
0.0
 11
223.478269
 21
2.080464
 31
0.0
  0
LINE
  8
0
 62
   249
 10
225.438269
 20
5.440464
 30
0.0
 11
225.438269
 21
2.080464
 31
0.0
  0
LINE
  8
0
 62
   249
 10
223.478269
 20
5.440464
 30
0.0
 11
225.438269
 21
5.440464
 31
0.0
  0
LINE
  8
0
 62
   249
 10
225.438269
 20
5.720464
 30
0.0
 11
223.478269
 21
5.720464
 31
0.0
  0
LINE
  8
0
 62
   249
 10
225.438269
 20
9.080464
 30
0.0
 11
225.438269
 21
5.720464
 31
0.0
  0
LINE
  8
0
 62
   249
 10
223.478269
 20
9.080464
 30
0.0
 11
225.438269
 21
9.080464
 31
0.0
  0
LINE
  8
0
 62
   249
 10
223.478269
 20
2.080464
 30
0.0
 11
223.478269
 21
5.440464
 31
0.0
  0
TEXT
  8
0
 62
   249
 10
230.078269
 20
2.080464
 30
0.0
 40
3.0
  1
ABB 
 41
0.8
  7
ROMANS
  0
TEXT
  8
0
 62
   249
 10
238.078269
 20
2.080464
 30
0.0
 40
3.0
  1
Transmit Oy
 41
0.8
  7
ROMANS
  0
LINE
  8
0
 62
   249
 10
282.578269
 20
10.080464
 30
0.0
 11
282.578269
 21
18.580464
 31
0.0
  0
TEXT
  8
0
 62
   249
 10
28.078269
 20
5.080464
 30
0.0
 40
1.4
  1
MUUTOS
  7
ROMANS
  0
TEXT
  8
0
 62
   249
 10
28.078269
 20
2.813797
 30
0.0
 40
1.4
  1
REVISION
  7
ROMANS
  0
LINE
  8
0
 62
   249
 10
47.078269
 20
9.580464
 30
0.0
 11
209.578269
 21
9.580464
 31
0.0
  0
LINE
  8
0
 62
   249
 10
47.078269
 20
0.580464
 30
0.0
 11
47.078269
 21
9.580464
 31
0.0
  0
LINE
  8
0
 62
   249
 10
41.078269
 20
5.080464
 30
0.0
 11
209.578269
 21
5.080464
 31
0.0
  0
LINE
  8
0
 62
   249
 10
257.578269
 20
10.080464
 30
0.0
 11
257.578269
 21
35.580464
 31
0.0
  0
LINE
  8
0
 62
   249
 10
271.578269
 20
10.080464
 30
0.0
 11
271.578269
 21
0.580464
 31
0.0
  0
TEXT
  8
0
 62
   249
 10
210.578269
 20
32.580464
 30
0.0
 40
1.4
  1
TEKI  PREPARED
  7
ROMANS
  0
TEXT
  8
0
 62
   249
 10
273.578269
 20
7.580464
 30
0.0
 40
1.4
  1
VAST.OSASTO RESP.DEPT.
  7
ROMANS
  0
TEXT
  8
0
 62
   249
 10
42.578269
 20
1.537757
 30
0.0
 40
2.5
  1
B
  7
ROMANS
  0
TEXT
  8
0
 62
   249
 10
42.578269
 20
5.929973
 30
0.0
 40
2.5
  1
C
  7
ROMANS
  0
LINE
  8
0
 62
   249
 10
0.578269
 20
0.580464
 30
0.0
 11
392.578269
 21
0.580464
 31
0.0
  0
LINE
  8
0
 62
   249
 10
392.578269
 20
263.080464
 30
0.0
 11
392.578269
 21
0.580464
 31
0.0
  0
LINE
  8
0
 62
   249
 10
0.578269
 20
0.580464
 30
0.0
 11
0.578269
 21
263.080464
 31
0.0
  0
ARC
  8
0
  6
CONTINUOUS
 62
   249
 10
117.5
 20
85.0
 30
0.0
 40
0.5
 50
180.0
 51
0.0
  0
ARC
  8
0
  6
CONTINUOUS
 62
   249
 10
117.5
 20
85.0
 30
0.0
 40
0.5
 50
0.0
 51
180.0
  0
ARC
  8
0
  6
CONTINUOUS
 62
   249
 10
117.5
 20
82.5
 30
0.0
 40
0.5
 50
180.0
 51
0.0
  0
ARC
  8
0
  6
CONTINUOUS
 62
   249
 10
117.5
 20
82.5
 30
0.0
 40
0.5
 50
0.0
 51
180.0
  0
ARC
  8
0
  6
CONTINUOUS
 62
   249
 10
132.5
 20
75.0
 30
0.0
 40
0.5
 50
180.0
 51
0.0
  0
ARC
  8
0
  6
CONTINUOUS
 62
   249
 10
132.5
 20
75.0
 30
0.0
 40
0.5
 50
0.0
 51
180.0
  0
ARC
  8
0
  6
CONTINUOUS
 62
   249
 10
132.5
 20
77.5
 30
0.0
 40
0.5
 50
180.0
 51
0.0
  0
ARC
  8
0
  6
CONTINUOUS
 62
   249
 10
132.5
 20
77.5
 30
0.0
 40
0.5
 50
0.0
 51
180.0
  0
ARC
  8
0
  6
CONTINUOUS
 62
   249
 10
145.0
 20
65.0
 30
0.0
 40
0.5
 50
180.0
 51
0.0
  0
ARC
  8
0
  6
CONTINUOUS
 62
   249
 10
145.0
 20
65.0
 30
0.0
 40
0.5
 50
0.0
 51
180.0
  0
ARC
  8
0
  6
CONTINUOUS
 62
   249
 10
145.0
 20
67.5
 30
0.0
 40
0.5
 50
180.0
 51
0.0
  0
ARC
  8
0
  6
CONTINUOUS
 62
   249
 10
145.0
 20
67.5
 30
0.0
 40
0.5
 50
0.0
 51
180.0
  0
ARC
  8
0
  6
CONTINUOUS
 62
   249
 10
157.5
 20
60.0
 30
0.0
 40
0.5
 50
180.0
 51
0.0
  0
ARC
  8
0
  6
CONTINUOUS
 62
   249
 10
157.5
 20
60.0
 30
0.0
 40
0.5
 50
0.0
 51
180.0
  0
ARC
  8
0
  6
CONTINUOUS
 62
   249
 10
157.5
 20
62.5
 30
0.0
 40
0.5
 50
180.0
 51
0.0
  0
ARC
  8
0
  6
CONTINUOUS
 62
   249
 10
157.5
 20
62.5
 30
0.0
 40
0.5
 50
0.0
 51
180.0
  0
LINE
  8
0
  6
CONTINUOUS
 62
   249
 10
168.548993
 20
101.164646
 30
0.0
 11
166.203228
 21
102.5
 31
0.0
  0
LINE
  8
0
  6
CONTINUOUS
 62
   249
 10
166.203228
 20
102.5
 30
0.0
 11
168.548993
 21
103.689919
 31
0.0
  0
ARC
  8
0
  6
CONTINUOUS
 62
   249
 10
105.0
 20
135.0
 30
0.0
 40
0.5
 50
180.0
 51
0.0
  0
ARC
  8
0
  6
CONTINUOUS
 62
   249
 10
105.0
 20
135.0
 30
0.0
 40
0.5
 50
0.0
 51
180.0
  0
ARC
  8
0
  6
CONTINUOUS
 62
   249
 10
105.0
 20
150.0
 30
0.0
 40
0.5
 50
180.0
 51
0.0
  0
ARC
  8
0
  6
CONTINUOUS
 62
   249
 10
105.0
 20
150.0
 30
0.0
 40
0.5
 50
0.0
 51
180.0
  0
ARC
  8
0
  6
CONTINUOUS
 62
   249
 10
105.0
 20
165.0
 30
0.0
 40
0.5
 50
180.0
 51
0.0
  0
ARC
  8
0
  6
CONTINUOUS
 62
   249
 10
105.0
 20
165.0
 30
0.0
 40
0.5
 50
0.0
 51
180.0
  0
ARC
  8
0
  6
CONTINUOUS
 62
   249
 10
105.0
 20
180.0
 30
0.0
 40
0.5
 50
180.0
 51
0.0
  0
ARC
  8
0
  6
CONTINUOUS
 62
   249
 10
105.0
 20
180.0
 30
0.0
 40
0.5
 50
0.0
 51
180.0
  0
ARC
  8
0
  6
CONTINUOUS
 62
   249
 10
105.0
 20
195.0
 30
0.0
 40
0.5
 50
180.0
 51
0.0
  0
ARC
  8
0
  6
CONTINUOUS
 62
   249
 10
105.0
 20
195.0
 30
0.0
 40
0.5
 50
0.0
 51
180.0
  0
ARC
  8
0
  6
CONTINUOUS
 62
   249
 10
105.0
 20
210.0
 30
0.0
 40
0.5
 50
180.0
 51
0.0
  0
ARC
  8
0
  6
CONTINUOUS
 62
   249
 10
105.0
 20
210.0
 30
0.0
 40
0.5
 50
0.0
 51
180.0
  0
3DFACE
  8
0
  6
CONTINUOUS
 62
   249
 10
119.430564
 20
188.076539
 30
0.0
 11
119.416844
 21
188.076539
 31
0.0
 12
119.416844
 22
187.096539
 32
0.0
 13
119.430564
 23
187.096539
 33
0.0
  0
3DFACE
  8
0
  6
CONTINUOUS
 62
   249
 10
119.416844
 20
188.076539
 30
0.0
 11
119.403124
 21
188.076539
 31
0.0
 12
119.403124
 22
187.096539
 32
0.0
 13
119.416844
 23
187.096539
 33
0.0
  0
3DFACE
  8
0
  6
CONTINUOUS
 62
   249
 10
119.403124
 20
188.076539
 30
0.0
 11
119.389404
 21
188.076539
 31
0.0
 12
119.389404
 22
187.096539
 32
0.0
 13
119.403124
 23
187.096539
 33
0.0
  0
3DFACE
  8
0
  6
CONTINUOUS
 62
   249
 10
119.389404
 20
188.076539
 30
0.0
 11
119.375684
 21
188.076539
 31
0.0
 12
119.375684
 22
187.096539
 32
0.0
 13
119.389404
 23
187.096539
 33
0.0
  0
3DFACE
  8
0
  6
CONTINUOUS
 62
   249
 10
119.375684
 20
188.076539
 30
0.0
 11
119.361964
 21
188.076539
 31
0.0
 12
119.361964
 22
187.096539
 32
0.0
 13
119.375684
 23
187.096539
 33
0.0
  0
3DFACE
  8
0
  6
CONTINUOUS
 62
   249
 10
119.361964
 20
188.076539
 30
0.0
 11
119.348244
 21
188.076539
 31
0.0
 12
119.348244
 22
187.096539
 32
0.0
 13
119.361964
 23
187.096539
 33
0.0
  0
3DFACE
  8
0
  6
CONTINUOUS
 62
   249
 10
119.348244
 20
188.076539
 30
0.0
 11
119.334524
 21
188.076539
 31
0.0
 12
119.334524
 22
187.096539
 32
0.0
 13
119.348244
 23
187.096539
 33
0.0
  0
3DFACE
  8
0
  6
CONTINUOUS
 62
   249
 10
119.334524
 20
188.076539
 30
0.0
 11
119.320804
 21
188.076539
 31
0.0
 12
119.320804
 22
187.096539
 32
0.0
 13
119.334524
 23
187.096539
 33
0.0
  0
3DFACE
  8
0
  6
CONTINUOUS
 62
   249
 10
119.320804
 20
188.076539
 30
0.0
 11
119.307084
 21
188.076539
 31
0.0
 12
119.307084
 22
187.096539
 32
0.0
 13
119.320804
 23
187.096539
 33
0.0
  0
3DFACE
  8
0
  6
CONTINUOUS
 62
   249
 10
119.307084
 20
188.076539
 30
0.0
 11
119.293364
 21
188.076539
 31
0.0
 12
119.293364
 22
187.096539
 32
0.0
 13
119.307084
 23
187.096539
 33
0.0
  0
3DFACE
  8
0
  6
CONTINUOUS
 62
   249
 10
119.293364
 20
188.076539
 30
0.0
 11
119.279644
 21
188.076539
 31
0.0
 12
119.279644
 22
187.096539
 32
0.0
 13
119.293364
 23
187.096539
 33
0.0
  0
3DFACE
  8
0
  6
CONTINUOUS
 62
   249
 10
119.279644
 20
188.076539
 30
0.0
 11
119.265924
 21
188.076539
 31
0.0
 12
119.265924
 22
187.096539
 32
0.0
 13
119.279644
 23
187.096539
 33
0.0
  0
3DFACE
  8
0
  6
CONTINUOUS
 62
   249
 10
119.265924
 20
188.076539
 30
0.0
 11
119.252204
 21
188.076539
 31
0.0
 12
119.252204
 22
187.096539
 32
0.0
 13
119.265924
 23
187.096539
 33
0.0
  0
3DFACE
  8
0
  6
CONTINUOUS
 62
   249
 10
119.252204
 20
188.076539
 30
0.0
 11
119.238484
 21
188.076539
 31
0.0
 12
119.238484
 22
187.096539
 32
0.0
 13
119.252204
 23
187.096539
 33
0.0
  0
3DFACE
  8
0
  6
CONTINUOUS
 62
   249
 10
119.238484
 20
188.076539
 30
0.0
 11
119.224764
 21
188.076539
 31
0.0
 12
119.224764
 22
187.096539
 32
0.0
 13
119.238484
 23
187.096539
 33
0.0
  0
3DFACE
  8
0
  6
CONTINUOUS
 62
   249
 10
119.224764
 20
188.076539
 30
0.0
 11
119.211044
 21
188.076539
 31
0.0
 12
119.211044
 22
187.096539
 32
0.0
 13
119.224764
 23
187.096539
 33
0.0
  0
3DFACE
  8
0
  6
CONTINUOUS
 62
   249
 10
119.211044
 20
188.076539
 30
0.0
 11
119.197324
 21
188.076539
 31
0.0
 12
119.197324
 22
187.096539
 32
0.0
 13
119.211044
 23
187.096539
 33
0.0
  0
3DFACE
  8
0
  6
CONTINUOUS
 62
   249
 10
119.197324
 20
188.076539
 30
0.0
 11
119.183604
 21
188.076539
 31
0.0
 12
119.183604
 22
187.096539
 32
0.0
 13
119.197324
 23
187.096539
 33
0.0
  0
3DFACE
  8
0
  6
CONTINUOUS
 62
   249
 10
119.183604
 20
188.076539
 30
0.0
 11
119.169884
 21
188.076539
 31
0.0
 12
119.169884
 22
187.096539
 32
0.0
 13
119.183604
 23
187.096539
 33
0.0
  0
3DFACE
  8
0
  6
CONTINUOUS
 62
   249
 10
119.169884
 20
188.076539
 30
0.0
 11
119.156164
 21
188.076539
 31
0.0
 12
119.156164
 22
187.096539
 32
0.0
 13
119.169884
 23
187.096539
 33
0.0
  0
3DFACE
  8
0
  6
CONTINUOUS
 62
   249
 10
119.156164
 20
188.076539
 30
0.0
 11
119.142444
 21
188.076539
 31
0.0
 12
119.142444
 22
187.096539
 32
0.0
 13
119.156164
 23
187.096539
 33
0.0
  0
3DFACE
  8
0
  6
CONTINUOUS
 62
   249
 10
119.142444
 20
188.076539
 30
0.0
 11
119.128724
 21
188.076539
 31
0.0
 12
119.128724
 22
187.096539
 32
0.0
 13
119.142444
 23
187.096539
 33
0.0
  0
3DFACE
  8
0
  6
CONTINUOUS
 62
   249
 10
119.128724
 20
188.076539
 30
0.0
 11
119.115004
 21
188.076539
 31
0.0
 12
119.115004
 22
187.096539
 32
0.0
 13
119.128724
 23
187.096539
 33
0.0
  0
3DFACE
  8
0
  6
CONTINUOUS
 62
   249
 10
119.115004
 20
188.076539
 30
0.0
 11
119.101284
 21
188.076539
 31
0.0
 12
119.101284
 22
187.096539
 32
0.0
 13
119.115004
 23
187.096539
 33
0.0
  0
3DFACE
  8
0
  6
CONTINUOUS
 62
   249
 10
119.101284
 20
188.076539
 30
0.0
 11
119.087564
 21
188.076539
 31
0.0
 12
119.087564
 22
187.096539
 32
0.0
 13
119.101284
 23
187.096539
 33
0.0
  0
3DFACE
  8
0
  6
CONTINUOUS
 62
   249
 10
119.087564
 20
188.076539
 30
0.0
 11
119.073844
 21
188.076539
 31
0.0
 12
119.073844
 22
187.096539
 32
0.0
 13
119.087564
 23
187.096539
 33
0.0
  0
3DFACE
  8
0
  6
CONTINUOUS
 62
   249
 10
119.073844
 20
188.076539
 30
0.0
 11
119.060124
 21
188.076539
 31
0.0
 12
119.060124
 22
187.096539
 32
0.0
 13
119.073844
 23
187.096539
 33
0.0
  0
3DFACE
  8
0
  6
CONTINUOUS
 62
   249
 10
119.060124
 20
188.076539
 30
0.0
 11
119.046404
 21
188.076539
 31
0.0
 12
119.046404
 22
187.096539
 32
0.0
 13
119.060124
 23
187.096539
 33
0.0
  0
3DFACE
  8
0
  6
CONTINUOUS
 62
   249
 10
119.046404
 20
188.076539
 30
0.0
 11
119.032684
 21
188.076539
 31
0.0
 12
119.032684
 22
187.096539
 32
0.0
 13
119.046404
 23
187.096539
 33
0.0
  0
3DFACE
  8
0
  6
CONTINUOUS
 62
   249
 10
119.032684
 20
188.076539
 30
0.0
 11
119.018964
 21
188.076539
 31
0.0
 12
119.018964
 22
187.096539
 32
0.0
 13
119.032684
 23
187.096539
 33
0.0
  0
3DFACE
  8
0
  6
CONTINUOUS
 62
   249
 10
119.018964
 20
188.076539
 30
0.0
 11
119.005244
 21
188.076539
 31
0.0
 12
119.005244
 22
187.096539
 32
0.0
 13
119.018964
 23
187.096539
 33
0.0
  0
3DFACE
  8
0
  6
CONTINUOUS
 62
   249
 10
119.005244
 20
188.076539
 30
0.0
 11
118.991524
 21
188.076539
 31
0.0
 12
118.991524
 22
187.096539
 32
0.0
 13
119.005244
 23
187.096539
 33
0.0
  0
3DFACE
  8
0
  6
CONTINUOUS
 62
   249
 10
118.991524
 20
188.076539
 30
0.0
 11
118.977804
 21
188.076539
 31
0.0
 12
118.977804
 22
187.096539
 32
0.0
 13
118.991524
 23
187.096539
 33
0.0
  0
3DFACE
  8
0
  6
CONTINUOUS
 62
   249
 10
118.977804
 20
188.076539
 30
0.0
 11
118.964084
 21
188.076539
 31
0.0
 12
118.964084
 22
187.096539
 32
0.0
 13
118.977804
 23
187.096539
 33
0.0
  0
3DFACE
  8
0
  6
CONTINUOUS
 62
   249
 10
118.964084
 20
188.076539
 30
0.0
 11
118.950364
 21
188.076539
 31
0.0
 12
118.950364
 22
187.096539
 32
0.0
 13
118.964084
 23
187.096539
 33
0.0
  0
3DFACE
  8
0
  6
CONTINUOUS
 62
   249
 10
118.950364
 20
188.076539
 30
0.0
 11
118.936644
 21
188.076539
 31
0.0
 12
118.936644
 22
187.096539
 32
0.0
 13
118.950364
 23
187.096539
 33
0.0
  0
3DFACE
  8
0
  6
CONTINUOUS
 62
   249
 10
118.936644
 20
188.076539
 30
0.0
 11
118.922924
 21
188.076539
 31
0.0
 12
118.922924
 22
187.096539
 32
0.0
 13
118.936644
 23
187.096539
 33
0.0
  0
3DFACE
  8
0
  6
CONTINUOUS
 62
   249
 10
118.922924
 20
188.076539
 30
0.0
 11
118.909204
 21
188.076539
 31
0.0
 12
118.909204
 22
187.096539
 32
0.0
 13
118.922924
 23
187.096539
 33
0.0
  0
3DFACE
  8
0
  6
CONTINUOUS
 62
   249
 10
118.909204
 20
188.076539
 30
0.0
 11
118.895484
 21
188.076539
 31
0.0
 12
118.895484
 22
187.096539
 32
0.0
 13
118.909204
 23
187.096539
 33
0.0
  0
3DFACE
  8
0
  6
CONTINUOUS
 62
   249
 10
118.895484
 20
188.076539
 30
0.0
 11
118.881764
 21
188.076539
 31
0.0
 12
118.881764
 22
187.096539
 32
0.0
 13
118.895484
 23
187.096539
 33
0.0
  0
3DFACE
  8
0
  6
CONTINUOUS
 62
   249
 10
118.881764
 20
188.076539
 30
0.0
 11
118.868044
 21
188.076539
 31
0.0
 12
118.868044
 22
187.096539
 32
0.0
 13
118.881764
 23
187.096539
 33
0.0
  0
3DFACE
  8
0
  6
CONTINUOUS
 62
   249
 10
118.868044
 20
188.076539
 30
0.0
 11
118.854324
 21
188.076539
 31
0.0
 12
118.854324
 22
187.096539
 32
0.0
 13
118.868044
 23
187.096539
 33
0.0
  0
3DFACE
  8
0
  6
CONTINUOUS
 62
   249
 10
118.854324
 20
188.076539
 30
0.0
 11
118.840604
 21
188.076539
 31
0.0
 12
118.840604
 22
187.096539
 32
0.0
 13
118.854324
 23
187.096539
 33
0.0
  0
3DFACE
  8
0
  6
CONTINUOUS
 62
   249
 10
118.840604
 20
188.076539
 30
0.0
 11
118.826884
 21
188.076539
 31
0.0
 12
118.826884
 22
187.096539
 32
0.0
 13
118.840604
 23
187.096539
 33
0.0
  0
3DFACE
  8
0
  6
CONTINUOUS
 62
   249
 10
118.826884
 20
188.076539
 30
0.0
 11
118.813164
 21
188.076539
 31
0.0
 12
118.813164
 22
187.096539
 32
0.0
 13
118.826884
 23
187.096539
 33
0.0
  0
3DFACE
  8
0
  6
CONTINUOUS
 62
   249
 10
118.813164
 20
188.076539
 30
0.0
 11
118.799444
 21
188.076539
 31
0.0
 12
118.799444
 22
187.096539
 32
0.0
 13
118.813164
 23
187.096539
 33
0.0
  0
3DFACE
  8
0
  6
CONTINUOUS
 62
   249
 10
118.799444
 20
188.076539
 30
0.0
 11
118.785724
 21
188.076539
 31
0.0
 12
118.785724
 22
187.096539
 32
0.0
 13
118.799444
 23
187.096539
 33
0.0
  0
3DFACE
  8
0
  6
CONTINUOUS
 62
   249
 10
118.785724
 20
188.076539
 30
0.0
 11
118.772004
 21
188.076539
 31
0.0
 12
118.772004
 22
187.096539
 32
0.0
 13
118.785724
 23
187.096539
 33
0.0
  0
3DFACE
  8
0
  6
CONTINUOUS
 62
   249
 10
118.772004
 20
188.076539
 30
0.0
 11
118.758284
 21
188.076539
 31
0.0
 12
118.758284
 22
187.096539
 32
0.0
 13
118.772004
 23
187.096539
 33
0.0
  0
3DFACE
  8
0
  6
CONTINUOUS
 62
   249
 10
118.758284
 20
188.076539
 30
0.0
 11
118.744564
 21
188.076539
 31
0.0
 12
118.744564
 22
187.096539
 32
0.0
 13
118.758284
 23
187.096539
 33
0.0
  0
3DFACE
  8
0
  6
CONTINUOUS
 62
   249
 10
118.744564
 20
188.076539
 30
0.0
 11
118.730844
 21
188.076539
 31
0.0
 12
118.730844
 22
187.096539
 32
0.0
 13
118.744564
 23
187.096539
 33
0.0
  0
3DFACE
  8
0
  6
CONTINUOUS
 62
   249
 10
118.730844
 20
188.076539
 30
0.0
 11
118.717124
 21
188.076539
 31
0.0
 12
118.717124
 22
187.096539
 32
0.0
 13
118.730844
 23
187.096539
 33
0.0
  0
3DFACE
  8
0
  6
CONTINUOUS
 62
   249
 10
118.717124
 20
188.076539
 30
0.0
 11
118.703404
 21
188.076539
 31
0.0
 12
118.703404
 22
187.096539
 32
0.0
 13
118.717124
 23
187.096539
 33
0.0
  0
3DFACE
  8
0
  6
CONTINUOUS
 62
   249
 10
118.703404
 20
188.076539
 30
0.0
 11
118.689684
 21
188.076539
 31
0.0
 12
118.689684
 22
187.096539
 32
0.0
 13
118.703404
 23
187.096539
 33
0.0
  0
3DFACE
  8
0
  6
CONTINUOUS
 62
   249
 10
118.689684
 20
188.076539
 30
0.0
 11
118.675964
 21
188.076539
 31
0.0
 12
118.675964
 22
187.096539
 32
0.0
 13
118.689684
 23
187.096539
 33
0.0
  0
3DFACE
  8
0
  6
CONTINUOUS
 62
   249
 10
118.675964
 20
188.076539
 30
0.0
 11
118.662244
 21
188.076539
 31
0.0
 12
118.662244
 22
187.096539
 32
0.0
 13
118.675964
 23
187.096539
 33
0.0
  0
3DFACE
  8
0
  6
CONTINUOUS
 62
   249
 10
118.662244
 20
188.076539
 30
0.0
 11
118.648524
 21
188.076539
 31
0.0
 12
118.648524
 22
187.096539
 32
0.0
 13
118.662244
 23
187.096539
 33
0.0
  0
3DFACE
  8
0
  6
CONTINUOUS
 62
   249
 10
118.648524
 20
188.076539
 30
0.0
 11
118.634804
 21
188.076539
 31
0.0
 12
118.634804
 22
187.096539
 32
0.0
 13
118.648524
 23
187.096539
 33
0.0
  0
3DFACE
  8
0
  6
CONTINUOUS
 62
   249
 10
118.634804
 20
188.076539
 30
0.0
 11
118.621084
 21
188.076539
 31
0.0
 12
118.621084
 22
187.096539
 32
0.0
 13
118.634804
 23
187.096539
 33
0.0
  0
3DFACE
  8
0
  6
CONTINUOUS
 62
   249
 10
118.621084
 20
188.076539
 30
0.0
 11
118.607364
 21
188.076539
 31
0.0
 12
118.607364
 22
187.096539
 32
0.0
 13
118.621084
 23
187.096539
 33
0.0
  0
3DFACE
  8
0
  6
CONTINUOUS
 62
   249
 10
118.607364
 20
188.076539
 30
0.0
 11
118.593644
 21
188.076539
 31
0.0
 12
118.593644
 22
187.096539
 32
0.0
 13
118.607364
 23
187.096539
 33
0.0
  0
3DFACE
  8
0
  6
CONTINUOUS
 62
   249
 10
118.593644
 20
188.076539
 30
0.0
 11
118.579924
 21
188.076539
 31
0.0
 12
118.579924
 22
187.096539
 32
0.0
 13
118.593644
 23
187.096539
 33
0.0
  0
3DFACE
  8
0
  6
CONTINUOUS
 62
   249
 10
118.579924
 20
188.076539
 30
0.0
 11
118.566204
 21
188.076539
 31
0.0
 12
118.566204
 22
187.096539
 32
0.0
 13
118.579924
 23
187.096539
 33
0.0
  0
3DFACE
  8
0
  6
CONTINUOUS
 62
   249
 10
118.566204
 20
188.076539
 30
0.0
 11
118.552484
 21
188.076539
 31
0.0
 12
118.552484
 22
187.096539
 32
0.0
 13
118.566204
 23
187.096539
 33
0.0
  0
3DFACE
  8
0
  6
CONTINUOUS
 62
   249
 10
118.552484
 20
188.076539
 30
0.0
 11
118.538764
 21
188.076539
 31
0.0
 12
118.538764
 22
187.096539
 32
0.0
 13
118.552484
 23
187.096539
 33
0.0
  0
3DFACE
  8
0
  6
CONTINUOUS
 62
   249
 10
118.538764
 20
188.076539
 30
0.0
 11
118.525044
 21
188.076539
 31
0.0
 12
118.525044
 22
187.096539
 32
0.0
 13
118.538764
 23
187.096539
 33
0.0
  0
3DFACE
  8
0
  6
CONTINUOUS
 62
   249
 10
118.525044
 20
188.076539
 30
0.0
 11
118.511324
 21
188.076539
 31
0.0
 12
118.511324
 22
187.096539
 32
0.0
 13
118.525044
 23
187.096539
 33
0.0
  0
3DFACE
  8
0
  6
CONTINUOUS
 62
   249
 10
118.511324
 20
188.076539
 30
0.0
 11
118.497604
 21
188.076539
 31
0.0
 12
118.497604
 22
187.096539
 32
0.0
 13
118.511324
 23
187.096539
 33
0.0
  0
3DFACE
  8
0
  6
CONTINUOUS
 62
   249
 10
118.497604
 20
188.076539
 30
0.0
 11
118.483884
 21
188.076539
 31
0.0
 12
118.483884
 22
187.096539
 32
0.0
 13
118.497604
 23
187.096539
 33
0.0
  0
3DFACE
  8
0
  6
CONTINUOUS
 62
   249
 10
118.483884
 20
188.076539
 30
0.0
 11
118.470164
 21
188.076539
 31
0.0
 12
118.470164
 22
187.096539
 32
0.0
 13
118.483884
 23
187.096539
 33
0.0
  0
3DFACE
  8
0
  6
CONTINUOUS
 62
   249
 10
118.470164
 20
188.076539
 30
0.0
 11
118.456444
 21
188.076539
 31
0.0
 12
118.456444
 22
187.096539
 32
0.0
 13
118.470164
 23
187.096539
 33
0.0
  0
3DFACE
  8
0
  6
CONTINUOUS
 62
   249
 10
118.456444
 20
188.076539
 30
0.0
 11
118.442724
 21
188.076539
 31
0.0
 12
118.442724
 22
187.096539
 32
0.0
 13
118.456444
 23
187.096539
 33
0.0
  0
3DFACE
  8
0
  6
CONTINUOUS
 62
   249
 10
118.442724
 20
188.076539
 30
0.0
 11
118.429004
 21
188.076539
 31
0.0
 12
118.429004
 22
187.096539
 32
0.0
 13
118.442724
 23
187.096539
 33
0.0
  0
3DFACE
  8
0
  6
CONTINUOUS
 62
   249
 10
118.429004
 20
188.076539
 30
0.0
 11
118.415284
 21
188.076539
 31
0.0
 12
118.415284
 22
187.096539
 32
0.0
 13
118.429004
 23
187.096539
 33
0.0
  0
3DFACE
  8
0
  6
CONTINUOUS
 62
   249
 10
118.415284
 20
188.076539
 30
0.0
 11
118.401564
 21
188.076539
 31
0.0
 12
118.401564
 22
187.096539
 32
0.0
 13
118.415284
 23
187.096539
 33
0.0
  0
3DFACE
  8
0
  6
CONTINUOUS
 62
   249
 10
118.401564
 20
188.076539
 30
0.0
 11
118.387844
 21
188.076539
 31
0.0
 12
118.387844
 22
187.096539
 32
0.0
 13
118.401564
 23
187.096539
 33
0.0
  0
3DFACE
  8
0
  6
CONTINUOUS
 62
   249
 10
118.387844
 20
188.076539
 30
0.0
 11
118.374124
 21
188.076539
 31
0.0
 12
118.374124
 22
187.096539
 32
0.0
 13
118.387844
 23
187.096539
 33
0.0
  0
3DFACE
  8
0
  6
CONTINUOUS
 62
   249
 10
118.374124
 20
188.076539
 30
0.0
 11
118.360404
 21
188.076539
 31
0.0
 12
118.360404
 22
187.096539
 32
0.0
 13
118.374124
 23
187.096539
 33
0.0
  0
3DFACE
  8
0
  6
CONTINUOUS
 62
   249
 10
118.360404
 20
188.076539
 30
0.0
 11
118.346684
 21
188.076539
 31
0.0
 12
118.346684
 22
187.096539
 32
0.0
 13
118.360404
 23
187.096539
 33
0.0
  0
3DFACE
  8
0
  6
CONTINUOUS
 62
   249
 10
118.346684
 20
188.076539
 30
0.0
 11
118.332964
 21
188.076539
 31
0.0
 12
118.332964
 22
187.096539
 32
0.0
 13
118.346684
 23
187.096539
 33
0.0
  0
3DFACE
  8
0
  6
CONTINUOUS
 62
   249
 10
118.332964
 20
188.076539
 30
0.0
 11
118.319244
 21
188.076539
 31
0.0
 12
118.319244
 22
187.096539
 32
0.0
 13
118.332964
 23
187.096539
 33
0.0
  0
3DFACE
  8
0
  6
CONTINUOUS
 62
   249
 10
118.319244
 20
188.076539
 30
0.0
 11
118.305524
 21
188.076539
 31
0.0
 12
118.305524
 22
187.096539
 32
0.0
 13
118.319244
 23
187.096539
 33
0.0
  0
3DFACE
  8
0
  6
CONTINUOUS
 62
   249
 10
118.305524
 20
188.076539
 30
0.0
 11
118.291804
 21
188.076539
 31
0.0
 12
118.291804
 22
187.096539
 32
0.0
 13
118.305524
 23
187.096539
 33
0.0
  0
3DFACE
  8
0
  6
CONTINUOUS
 62
   249
 10
118.291804
 20
188.076539
 30
0.0
 11
118.278084
 21
188.076539
 31
0.0
 12
118.278084
 22
187.096539
 32
0.0
 13
118.291804
 23
187.096539
 33
0.0
  0
3DFACE
  8
0
  6
CONTINUOUS
 62
   249
 10
118.278084
 20
188.076539
 30
0.0
 11
118.264364
 21
188.076539
 31
0.0
 12
118.264364
 22
187.096539
 32
0.0
 13
118.278084
 23
187.096539
 33
0.0
  0
3DFACE
  8
0
  6
CONTINUOUS
 62
   249
 10
118.264364
 20
188.076539
 30
0.0
 11
118.250644
 21
188.076539
 31
0.0
 12
118.250644
 22
187.096539
 32
0.0
 13
118.264364
 23
187.096539
 33
0.0
  0
3DFACE
  8
0
  6
CONTINUOUS
 62
   249
 10
118.250644
 20
188.076539
 30
0.0
 11
118.236924
 21
188.076539
 31
0.0
 12
118.236924
 22
187.096539
 32
0.0
 13
118.250644
 23
187.096539
 33
0.0
  0
3DFACE
  8
0
  6
CONTINUOUS
 62
   249
 10
118.236924
 20
188.076539
 30
0.0
 11
118.223204
 21
188.076539
 31
0.0
 12
118.223204
 22
187.096539
 32
0.0
 13
118.236924
 23
187.096539
 33
0.0
  0
3DFACE
  8
0
  6
CONTINUOUS
 62
   249
 10
118.223204
 20
188.076539
 30
0.0
 11
118.209484
 21
188.076539
 31
0.0
 12
118.209484
 22
187.096539
 32
0.0
 13
118.223204
 23
187.096539
 33
0.0
  0
3DFACE
  8
0
  6
CONTINUOUS
 62
   249
 10
118.209484
 20
188.076539
 30
0.0
 11
118.195764
 21
188.076539
 31
0.0
 12
118.195764
 22
187.096539
 32
0.0
 13
118.209484
 23
187.096539
 33
0.0
  0
3DFACE
  8
0
  6
CONTINUOUS
 62
   249
 10
118.195764
 20
188.076539
 30
0.0
 11
118.182044
 21
188.076539
 31
0.0
 12
118.182044
 22
187.096539
 32
0.0
 13
118.195764
 23
187.096539
 33
0.0
  0
3DFACE
  8
0
  6
CONTINUOUS
 62
   249
 10
118.182044
 20
188.076539
 30
0.0
 11
118.168324
 21
188.076539
 31
0.0
 12
118.168324
 22
187.096539
 32
0.0
 13
118.182044
 23
187.096539
 33
0.0
  0
3DFACE
  8
0
  6
CONTINUOUS
 62
   249
 10
118.168324
 20
188.076539
 30
0.0
 11
118.154604
 21
188.076539
 31
0.0
 12
118.154604
 22
187.096539
 32
0.0
 13
118.168324
 23
187.096539
 33
0.0
  0
3DFACE
  8
0
  6
CONTINUOUS
 62
   249
 10
118.154604
 20
188.076539
 30
0.0
 11
118.140884
 21
188.076539
 31
0.0
 12
118.140884
 22
187.096539
 32
0.0
 13
118.154604
 23
187.096539
 33
0.0
  0
3DFACE
  8
0
  6
CONTINUOUS
 62
   249
 10
118.140884
 20
188.076539
 30
0.0
 11
118.127164
 21
188.076539
 31
0.0
 12
118.127164
 22
187.096539
 32
0.0
 13
118.140884
 23
187.096539
 33
0.0
  0
3DFACE
  8
0
  6
CONTINUOUS
 62
   249
 10
118.127164
 20
188.076539
 30
0.0
 11
118.113444
 21
188.076539
 31
0.0
 12
118.113444
 22
187.096539
 32
0.0
 13
118.127164
 23
187.096539
 33
0.0
  0
3DFACE
  8
0
  6
CONTINUOUS
 62
   249
 10
118.113444
 20
188.076539
 30
0.0
 11
118.099724
 21
188.076539
 31
0.0
 12
118.099724
 22
187.096539
 32
0.0
 13
118.113444
 23
187.096539
 33
0.0
  0
3DFACE
  8
0
  6
CONTINUOUS
 62
   249
 10
118.099724
 20
188.076539
 30
0.0
 11
118.086004
 21
188.076539
 31
0.0
 12
118.086004
 22
187.096539
 32
0.0
 13
118.099724
 23
187.096539
 33
0.0
  0
3DFACE
  8
0
  6
CONTINUOUS
 62
   249
 10
118.086004
 20
188.076539
 30
0.0
 11
118.072284
 21
188.076539
 31
0.0
 12
118.072284
 22
187.096539
 32
0.0
 13
118.086004
 23
187.096539
 33
0.0
  0
3DFACE
  8
0
  6
CONTINUOUS
 62
   249
 10
118.072284
 20
188.076539
 30
0.0
 11
118.058564
 21
188.076539
 31
0.0
 12
118.058564
 22
187.096539
 32
0.0
 13
118.072284
 23
187.096539
 33
0.0
  0
3DFACE
  8
0
  6
CONTINUOUS
 62
   249
 10
118.058564
 20
188.076539
 30
0.0
 11
118.044844
 21
188.076539
 31
0.0
 12
118.044844
 22
187.096539
 32
0.0
 13
118.058564
 23
187.096539
 33
0.0
  0
3DFACE
  8
0
  6
CONTINUOUS
 62
   249
 10
118.044844
 20
188.076539
 30
0.0
 11
118.031124
 21
188.076539
 31
0.0
 12
118.031124
 22
187.096539
 32
0.0
 13
118.044844
 23
187.096539
 33
0.0
  0
3DFACE
  8
0
  6
CONTINUOUS
 62
   249
 10
118.031124
 20
188.076539
 30
0.0
 11
118.017404
 21
188.076539
 31
0.0
 12
118.017404
 22
187.096539
 32
0.0
 13
118.031124
 23
187.096539
 33
0.0
  0
3DFACE
  8
0
  6
CONTINUOUS
 62
   249
 10
118.017404
 20
188.076539
 30
0.0
 11
118.003684
 21
188.076539
 31
0.0
 12
118.003684
 22
187.096539
 32
0.0
 13
118.017404
 23
187.096539
 33
0.0
  0
3DFACE
  8
0
  6
CONTINUOUS
 62
   249
 10
118.003684
 20
188.076539
 30
0.0
 11
117.989964
 21
188.076539
 31
0.0
 12
117.989964
 22
187.096539
 32
0.0
 13
118.003684
 23
187.096539
 33
0.0
  0
3DFACE
  8
0
  6
CONTINUOUS
 62
   249
 10
117.989964
 20
188.076539
 30
0.0
 11
117.976244
 21
188.076539
 31
0.0
 12
117.976244
 22
187.096539
 32
0.0
 13
117.989964
 23
187.096539
 33
0.0
  0
3DFACE
  8
0
  6
CONTINUOUS
 62
   249
 10
117.976244
 20
188.076539
 30
0.0
 11
117.962524
 21
188.076539
 31
0.0
 12
117.962524
 22
187.096539
 32
0.0
 13
117.976244
 23
187.096539
 33
0.0
  0
3DFACE
  8
0
  6
CONTINUOUS
 62
   249
 10
117.962524
 20
188.076539
 30
0.0
 11
117.948804
 21
188.076539
 31
0.0
 12
117.948804
 22
187.096539
 32
0.0
 13
117.962524
 23
187.096539
 33
0.0
  0
3DFACE
  8
0
  6
CONTINUOUS
 62
   249
 10
117.948804
 20
188.076539
 30
0.0
 11
117.935084
 21
188.076539
 31
0.0
 12
117.935084
 22
187.096539
 32
0.0
 13
117.948804
 23
187.096539
 33
0.0
  0
3DFACE
  8
0
  6
CONTINUOUS
 62
   249
 10
117.935084
 20
188.076539
 30
0.0
 11
117.921364
 21
188.076539
 31
0.0
 12
117.921364
 22
187.096539
 32
0.0
 13
117.935084
 23
187.096539
 33
0.0
  0
3DFACE
  8
0
  6
CONTINUOUS
 62
   249
 10
117.921364
 20
188.076539
 30
0.0
 11
117.907644
 21
188.076539
 31
0.0
 12
117.907644
 22
187.096539
 32
0.0
 13
117.921364
 23
187.096539
 33
0.0
  0
3DFACE
  8
0
  6
CONTINUOUS
 62
   249
 10
117.907644
 20
188.076539
 30
0.0
 11
117.893924
 21
188.076539
 31
0.0
 12
117.893924
 22
187.096539
 32
0.0
 13
117.907644
 23
187.096539
 33
0.0
  0
3DFACE
  8
0
  6
CONTINUOUS
 62
   249
 10
117.893924
 20
188.076539
 30
0.0
 11
117.880204
 21
188.076539
 31
0.0
 12
117.880204
 22
187.096539
 32
0.0
 13
117.893924
 23
187.096539
 33
0.0
  0
3DFACE
  8
0
  6
CONTINUOUS
 62
   249
 10
117.880204
 20
188.076539
 30
0.0
 11
117.866484
 21
188.076539
 31
0.0
 12
117.866484
 22
187.096539
 32
0.0
 13
117.880204
 23
187.096539
 33
0.0
  0
3DFACE
  8
0
  6
CONTINUOUS
 62
   249
 10
117.866484
 20
188.076539
 30
0.0
 11
117.852764
 21
188.076539
 31
0.0
 12
117.852764
 22
187.096539
 32
0.0
 13
117.866484
 23
187.096539
 33
0.0
  0
3DFACE
  8
0
  6
CONTINUOUS
 62
   249
 10
117.852764
 20
188.076539
 30
0.0
 11
117.839044
 21
188.076539
 31
0.0
 12
117.839044
 22
187.096539
 32
0.0
 13
117.852764
 23
187.096539
 33
0.0
  0
3DFACE
  8
0
  6
CONTINUOUS
 62
   249
 10
117.839044
 20
188.076539
 30
0.0
 11
117.825324
 21
188.076539
 31
0.0
 12
117.825324
 22
187.096539
 32
0.0
 13
117.839044
 23
187.096539
 33
0.0
  0
3DFACE
  8
0
  6
CONTINUOUS
 62
   249
 10
117.825324
 20
188.076539
 30
0.0
 11
117.811604
 21
188.076539
 31
0.0
 12
117.811604
 22
187.096539
 32
0.0
 13
117.825324
 23
187.096539
 33
0.0
  0
3DFACE
  8
0
  6
CONTINUOUS
 62
   249
 10
117.811604
 20
188.076539
 30
0.0
 11
117.797884
 21
188.076539
 31
0.0
 12
117.797884
 22
187.096539
 32
0.0
 13
117.811604
 23
187.096539
 33
0.0
  0
3DFACE
  8
0
  6
CONTINUOUS
 62
   249
 10
117.797884
 20
188.076539
 30
0.0
 11
117.784164
 21
188.076539
 31
0.0
 12
117.784164
 22
187.096539
 32
0.0
 13
117.797884
 23
187.096539
 33
0.0
  0
3DFACE
  8
0
  6
CONTINUOUS
 62
   249
 10
117.784164
 20
188.076539
 30
0.0
 11
117.770444
 21
188.076539
 31
0.0
 12
117.770444
 22
187.096539
 32
0.0
 13
117.784164
 23
187.096539
 33
0.0
  0
3DFACE
  8
0
  6
CONTINUOUS
 62
   249
 10
117.770444
 20
188.076539
 30
0.0
 11
117.756724
 21
188.076539
 31
0.0
 12
117.756724
 22
187.096539
 32
0.0
 13
117.770444
 23
187.096539
 33
0.0
  0
3DFACE
  8
0
  6
CONTINUOUS
 62
   249
 10
117.756724
 20
188.076539
 30
0.0
 11
117.743004
 21
188.076539
 31
0.0
 12
117.743004
 22
187.096539
 32
0.0
 13
117.756724
 23
187.096539
 33
0.0
  0
3DFACE
  8
0
  6
CONTINUOUS
 62
   249
 10
117.743004
 20
188.076539
 30
0.0
 11
117.729284
 21
188.076539
 31
0.0
 12
117.729284
 22
187.096539
 32
0.0
 13
117.743004
 23
187.096539
 33
0.0
  0
3DFACE
  8
0
  6
CONTINUOUS
 62
   249
 10
117.729284
 20
188.076539
 30
0.0
 11
117.715564
 21
188.076539
 31
0.0
 12
117.715564
 22
187.096539
 32
0.0
 13
117.729284
 23
187.096539
 33
0.0
  0
3DFACE
  8
0
  6
CONTINUOUS
 62
   249
 10
117.715564
 20
188.076539
 30
0.0
 11
117.701844
 21
188.076539
 31
0.0
 12
117.701844
 22
187.096539
 32
0.0
 13
117.715564
 23
187.096539
 33
0.0
  0
3DFACE
  8
0
  6
CONTINUOUS
 62
   249
 10
117.701844
 20
188.076539
 30
0.0
 11
117.688124
 21
188.076539
 31
0.0
 12
117.688124
 22
187.096539
 32
0.0
 13
117.701844
 23
187.096539
 33
0.0
  0
3DFACE
  8
0
  6
CONTINUOUS
 62
   249
 10
117.688124
 20
188.076539
 30
0.0
 11
117.674404
 21
188.076539
 31
0.0
 12
117.674404
 22
187.096539
 32
0.0
 13
117.688124
 23
187.096539
 33
0.0
  0
3DFACE
  8
0
  6
CONTINUOUS
 62
   249
 10
117.674404
 20
188.076539
 30
0.0
 11
117.660684
 21
188.076539
 31
0.0
 12
117.660684
 22
187.096539
 32
0.0
 13
117.674404
 23
187.096539
 33
0.0
  0
3DFACE
  8
0
  6
CONTINUOUS
 62
   249
 10
117.660684
 20
188.076539
 30
0.0
 11
117.646964
 21
188.076539
 31
0.0
 12
117.646964
 22
187.096539
 32
0.0
 13
117.660684
 23
187.096539
 33
0.0
  0
3DFACE
  8
0
  6
CONTINUOUS
 62
   249
 10
117.646964
 20
188.076539
 30
0.0
 11
117.633244
 21
188.076539
 31
0.0
 12
117.633244
 22
187.096539
 32
0.0
 13
117.646964
 23
187.096539
 33
0.0
  0
3DFACE
  8
0
  6
CONTINUOUS
 62
   249
 10
117.633244
 20
188.076539
 30
0.0
 11
117.619524
 21
188.076539
 31
0.0
 12
117.619524
 22
187.096539
 32
0.0
 13
117.633244
 23
187.096539
 33
0.0
  0
3DFACE
  8
0
  6
CONTINUOUS
 62
   249
 10
117.619524
 20
188.076539
 30
0.0
 11
117.605804
 21
188.076539
 31
0.0
 12
117.605804
 22
187.096539
 32
0.0
 13
117.619524
 23
187.096539
 33
0.0
  0
3DFACE
  8
0
  6
CONTINUOUS
 62
   249
 10
117.605804
 20
188.076539
 30
0.0
 11
117.592084
 21
188.076539
 31
0.0
 12
117.592084
 22
187.096539
 32
0.0
 13
117.605804
 23
187.096539
 33
0.0
  0
3DFACE
  8
0
  6
CONTINUOUS
 62
   249
 10
117.592084
 20
188.076539
 30
0.0
 11
117.578364
 21
188.076539
 31
0.0
 12
117.578364
 22
187.096539
 32
0.0
 13
117.592084
 23
187.096539
 33
0.0
  0
3DFACE
  8
0
  6
CONTINUOUS
 62
   249
 10
117.578364
 20
188.076539
 30
0.0
 11
117.564644
 21
188.076539
 31
0.0
 12
117.564644
 22
187.096539
 32
0.0
 13
117.578364
 23
187.096539
 33
0.0
  0
3DFACE
  8
0
  6
CONTINUOUS
 62
   249
 10
117.564644
 20
188.076539
 30
0.0
 11
117.550924
 21
188.076539
 31
0.0
 12
117.550924
 22
187.096539
 32
0.0
 13
117.564644
 23
187.096539
 33
0.0
  0
3DFACE
  8
0
  6
CONTINUOUS
 62
   249
 10
117.550924
 20
188.076539
 30
0.0
 11
117.537204
 21
188.076539
 31
0.0
 12
117.537204
 22
187.096539
 32
0.0
 13
117.550924
 23
187.096539
 33
0.0
  0
3DFACE
  8
0
  6
CONTINUOUS
 62
   249
 10
117.537204
 20
188.076539
 30
0.0
 11
117.523484
 21
188.076539
 31
0.0
 12
117.523484
 22
187.096539
 32
0.0
 13
117.537204
 23
187.096539
 33
0.0
  0
3DFACE
  8
0
  6
CONTINUOUS
 62
   249
 10
117.523484
 20
188.076539
 30
0.0
 11
117.509764
 21
188.076539
 31
0.0
 12
117.509764
 22
187.096539
 32
0.0
 13
117.523484
 23
187.096539
 33
0.0
  0
3DFACE
  8
0
  6
CONTINUOUS
 62
   249
 10
117.509764
 20
188.076539
 30
0.0
 11
117.496044
 21
188.076539
 31
0.0
 12
117.496044
 22
187.096539
 32
0.0
 13
117.509764
 23
187.096539
 33
0.0
  0
3DFACE
  8
0
  6
CONTINUOUS
 62
   249
 10
117.496044
 20
188.076539
 30
0.0
 11
117.482324
 21
188.076539
 31
0.0
 12
117.482324
 22
187.096539
 32
0.0
 13
117.496044
 23
187.096539
 33
0.0
  0
3DFACE
  8
0
  6
CONTINUOUS
 62
   249
 10
117.482324
 20
188.076539
 30
0.0
 11
117.468604
 21
188.076539
 31
0.0
 12
117.468604
 22
187.096539
 32
0.0
 13
117.482324
 23
187.096539
 33
0.0
  0
3DFACE
  8
0
  6
CONTINUOUS
 62
   249
 10
117.468604
 20
188.076539
 30
0.0
 11
117.454884
 21
188.076539
 31
0.0
 12
117.454884
 22
187.096539
 32
0.0
 13
117.468604
 23
187.096539
 33
0.0
  0
3DFACE
  8
0
  6
CONTINUOUS
 62
   249
 10
117.454884
 20
188.076539
 30
0.0
 11
117.441164
 21
188.076539
 31
0.0
 12
117.441164
 22
187.096539
 32
0.0
 13
117.454884
 23
187.096539
 33
0.0
  0
3DFACE
  8
0
  6
CONTINUOUS
 62
   249
 10
117.441164
 20
188.076539
 30
0.0
 11
117.427444
 21
188.076539
 31
0.0
 12
117.427444
 22
187.096539
 32
0.0
 13
117.441164
 23
187.096539
 33
0.0
  0
3DFACE
  8
0
  6
CONTINUOUS
 62
   249
 10
117.427444
 20
188.076539
 30
0.0
 11
117.413724
 21
188.076539
 31
0.0
 12
117.413724
 22
187.096539
 32
0.0
 13
117.427444
 23
187.096539
 33
0.0
  0
3DFACE
  8
0
  6
CONTINUOUS
 62
   249
 10
117.413724
 20
188.076539
 30
0.0
 11
117.400004
 21
188.076539
 31
0.0
 12
117.400004
 22
187.096539
 32
0.0
 13
117.413724
 23
187.096539
 33
0.0
  0
3DFACE
  8
0
  6
CONTINUOUS
 62
   249
 10
117.400004
 20
188.076539
 30
0.0
 11
117.386284
 21
188.076539
 31
0.0
 12
117.386284
 22
187.096539
 32
0.0
 13
117.400004
 23
187.096539
 33
0.0
  0
3DFACE
  8
0
  6
CONTINUOUS
 62
   249
 10
117.386284
 20
188.076539
 30
0.0
 11
117.372564
 21
188.076539
 31
0.0
 12
117.372564
 22
187.096539
 32
0.0
 13
117.386284
 23
187.096539
 33
0.0
  0
3DFACE
  8
0
  6
CONTINUOUS
 62
   249
 10
117.372564
 20
188.076539
 30
0.0
 11
117.358844
 21
188.076539
 31
0.0
 12
117.358844
 22
187.096539
 32
0.0
 13
117.372564
 23
187.096539
 33
0.0
  0
3DFACE
  8
0
  6
CONTINUOUS
 62
   249
 10
117.358844
 20
188.076539
 30
0.0
 11
117.345124
 21
188.076539
 31
0.0
 12
117.345124
 22
187.096539
 32
0.0
 13
117.358844
 23
187.096539
 33
0.0
  0
3DFACE
  8
0
  6
CONTINUOUS
 62
   249
 10
117.345124
 20
188.076539
 30
0.0
 11
117.331404
 21
188.076539
 31
0.0
 12
117.331404
 22
187.096539
 32
0.0
 13
117.345124
 23
187.096539
 33
0.0
  0
3DFACE
  8
0
  6
CONTINUOUS
 62
   249
 10
117.331404
 20
188.076539
 30
0.0
 11
117.317684
 21
188.076539
 31
0.0
 12
117.317684
 22
187.096539
 32
0.0
 13
117.331404
 23
187.096539
 33
0.0
  0
3DFACE
  8
0
  6
CONTINUOUS
 62
   249
 10
117.317684
 20
188.076539
 30
0.0
 11
117.303964
 21
188.076539
 31
0.0
 12
117.303964
 22
187.096539
 32
0.0
 13
117.317684
 23
187.096539
 33
0.0
  0
3DFACE
  8
0
  6
CONTINUOUS
 62
   249
 10
117.303964
 20
188.076539
 30
0.0
 11
117.290244
 21
188.076539
 31
0.0
 12
117.290244
 22
187.096539
 32
0.0
 13
117.303964
 23
187.096539
 33
0.0
  0
3DFACE
  8
0
  6
CONTINUOUS
 62
   249
 10
117.290244
 20
188.076539
 30
0.0
 11
117.276524
 21
188.076539
 31
0.0
 12
117.276524
 22
187.096539
 32
0.0
 13
117.290244
 23
187.096539
 33
0.0
  0
3DFACE
  8
0
  6
CONTINUOUS
 62
   249
 10
117.276524
 20
188.076539
 30
0.0
 11
117.262804
 21
188.076539
 31
0.0
 12
117.262804
 22
187.096539
 32
0.0
 13
117.276524
 23
187.096539
 33
0.0
  0
3DFACE
  8
0
  6
CONTINUOUS
 62
   249
 10
117.262804
 20
188.076539
 30
0.0
 11
117.249084
 21
188.076539
 31
0.0
 12
117.249084
 22
187.096539
 32
0.0
 13
117.262804
 23
187.096539
 33
0.0
  0
3DFACE
  8
0
  6
CONTINUOUS
 62
   249
 10
117.249084
 20
188.076539
 30
0.0
 11
117.235364
 21
188.076539
 31
0.0
 12
117.235364
 22
187.096539
 32
0.0
 13
117.249084
 23
187.096539
 33
0.0
  0
3DFACE
  8
0
  6
CONTINUOUS
 62
   249
 10
117.235364
 20
188.076539
 30
0.0
 11
117.221644
 21
188.076539
 31
0.0
 12
117.221644
 22
187.096539
 32
0.0
 13
117.235364
 23
187.096539
 33
0.0
  0
3DFACE
  8
0
  6
CONTINUOUS
 62
   249
 10
117.221644
 20
188.076539
 30
0.0
 11
117.207924
 21
188.076539
 31
0.0
 12
117.207924
 22
187.096539
 32
0.0
 13
117.221644
 23
187.096539
 33
0.0
  0
3DFACE
  8
0
  6
CONTINUOUS
 62
   249
 10
117.207924
 20
188.076539
 30
0.0
 11
117.194204
 21
188.076539
 31
0.0
 12
117.194204
 22
187.096539
 32
0.0
 13
117.207924
 23
187.096539
 33
0.0
  0
3DFACE
  8
0
  6
CONTINUOUS
 62
   249
 10
117.194204
 20
188.076539
 30
0.0
 11
117.180484
 21
188.076539
 31
0.0
 12
117.180484
 22
187.096539
 32
0.0
 13
117.194204
 23
187.096539
 33
0.0
  0
3DFACE
  8
0
  6
CONTINUOUS
 62
   249
 10
117.180484
 20
188.076539
 30
0.0
 11
117.166764
 21
188.076539
 31
0.0
 12
117.166764
 22
187.096539
 32
0.0
 13
117.180484
 23
187.096539
 33
0.0
  0
3DFACE
  8
0
  6
CONTINUOUS
 62
   249
 10
117.166764
 20
188.076539
 30
0.0
 11
117.153044
 21
188.076539
 31
0.0
 12
117.153044
 22
187.096539
 32
0.0
 13
117.166764
 23
187.096539
 33
0.0
  0
3DFACE
  8
0
  6
CONTINUOUS
 62
   249
 10
117.153044
 20
188.076539
 30
0.0
 11
117.139324
 21
188.076539
 31
0.0
 12
117.139324
 22
187.096539
 32
0.0
 13
117.153044
 23
187.096539
 33
0.0
  0
3DFACE
  8
0
  6
CONTINUOUS
 62
   249
 10
117.139324
 20
188.076539
 30
0.0
 11
117.125604
 21
188.076539
 31
0.0
 12
117.125604
 22
187.096539
 32
0.0
 13
117.139324
 23
187.096539
 33
0.0
  0
3DFACE
  8
0
  6
CONTINUOUS
 62
   249
 10
117.125604
 20
188.076539
 30
0.0
 11
117.111884
 21
188.076539
 31
0.0
 12
117.111884
 22
187.096539
 32
0.0
 13
117.125604
 23
187.096539
 33
0.0
  0
3DFACE
  8
0
  6
CONTINUOUS
 62
   249
 10
117.111884
 20
188.076539
 30
0.0
 11
117.098164
 21
188.076539
 31
0.0
 12
117.098164
 22
187.096539
 32
0.0
 13
117.111884
 23
187.096539
 33
0.0
  0
3DFACE
  8
0
  6
CONTINUOUS
 62
   249
 10
117.098164
 20
188.076539
 30
0.0
 11
117.084444
 21
188.076539
 31
0.0
 12
117.084444
 22
187.096539
 32
0.0
 13
117.098164
 23
187.096539
 33
0.0
  0
3DFACE
  8
0
  6
CONTINUOUS
 62
   249
 10
117.084444
 20
188.076539
 30
0.0
 11
117.070724
 21
188.076539
 31
0.0
 12
117.070724
 22
187.096539
 32
0.0
 13
117.084444
 23
187.096539
 33
0.0
  0
3DFACE
  8
0
  6
CONTINUOUS
 62
   249
 10
117.070724
 20
188.076539
 30
0.0
 11
117.057004
 21
188.076539
 31
0.0
 12
117.057004
 22
187.096539
 32
0.0
 13
117.070724
 23
187.096539
 33
0.0
  0
3DFACE
  8
0
  6
CONTINUOUS
 62
   249
 10
117.057004
 20
188.076539
 30
0.0
 11
117.043284
 21
188.076539
 31
0.0
 12
117.043284
 22
187.096539
 32
0.0
 13
117.057004
 23
187.096539
 33
0.0
  0
3DFACE
  8
0
  6
CONTINUOUS
 62
   249
 10
117.043284
 20
188.076539
 30
0.0
 11
117.029564
 21
188.076539
 31
0.0
 12
117.029564
 22
187.096539
 32
0.0
 13
117.043284
 23
187.096539
 33
0.0
  0
3DFACE
  8
0
  6
CONTINUOUS
 62
   249
 10
117.029564
 20
188.076539
 30
0.0
 11
117.015844
 21
188.076539
 31
0.0
 12
117.015844
 22
187.096539
 32
0.0
 13
117.029564
 23
187.096539
 33
0.0
  0
3DFACE
  8
0
  6
CONTINUOUS
 62
   249
 10
117.015844
 20
188.076539
 30
0.0
 11
117.002124
 21
188.076539
 31
0.0
 12
117.002124
 22
187.096539
 32
0.0
 13
117.015844
 23
187.096539
 33
0.0
  0
3DFACE
  8
0
  6
CONTINUOUS
 62
   249
 10
117.002124
 20
188.076539
 30
0.0
 11
116.988404
 21
188.076539
 31
0.0
 12
116.988404
 22
187.096539
 32
0.0
 13
117.002124
 23
187.096539
 33
0.0
  0
3DFACE
  8
0
  6
CONTINUOUS
 62
   249
 10
116.988404
 20
188.076539
 30
0.0
 11
116.974684
 21
188.076539
 31
0.0
 12
116.974684
 22
187.096539
 32
0.0
 13
116.988404
 23
187.096539
 33
0.0
  0
3DFACE
  8
0
  6
CONTINUOUS
 62
   249
 10
116.974684
 20
188.076539
 30
0.0
 11
116.960964
 21
188.076539
 31
0.0
 12
116.960964
 22
187.096539
 32
0.0
 13
116.974684
 23
187.096539
 33
0.0
  0
3DFACE
  8
0
  6
CONTINUOUS
 62
   249
 10
116.960964
 20
188.076539
 30
0.0
 11
116.947244
 21
188.076539
 31
0.0
 12
116.947244
 22
187.096539
 32
0.0
 13
116.960964
 23
187.096539
 33
0.0
  0
3DFACE
  8
0
  6
CONTINUOUS
 62
   249
 10
116.947244
 20
188.076539
 30
0.0
 11
116.933524
 21
188.076539
 31
0.0
 12
116.933524
 22
187.096539
 32
0.0
 13
116.947244
 23
187.096539
 33
0.0
  0
3DFACE
  8
0
  6
CONTINUOUS
 62
   249
 10
116.933524
 20
188.076539
 30
0.0
 11
116.919804
 21
188.076539
 31
0.0
 12
116.919804
 22
187.096539
 32
0.0
 13
116.933524
 23
187.096539
 33
0.0
  0
3DFACE
  8
0
  6
CONTINUOUS
 62
   249
 10
116.919804
 20
188.076539
 30
0.0
 11
116.906084
 21
188.076539
 31
0.0
 12
116.906084
 22
187.096539
 32
0.0
 13
116.919804
 23
187.096539
 33
0.0
  0
3DFACE
  8
0
  6
CONTINUOUS
 62
   249
 10
116.906084
 20
188.076539
 30
0.0
 11
116.892364
 21
188.076539
 31
0.0
 12
116.892364
 22
187.096539
 32
0.0
 13
116.906084
 23
187.096539
 33
0.0
  0
3DFACE
  8
0
  6
CONTINUOUS
 62
   249
 10
116.892364
 20
188.076539
 30
0.0
 11
116.878644
 21
188.076539
 31
0.0
 12
116.878644
 22
187.096539
 32
0.0
 13
116.892364
 23
187.096539
 33
0.0
  0
3DFACE
  8
0
  6
CONTINUOUS
 62
   249
 10
116.878644
 20
188.076539
 30
0.0
 11
116.864924
 21
188.076539
 31
0.0
 12
116.864924
 22
187.096539
 32
0.0
 13
116.878644
 23
187.096539
 33
0.0
  0
3DFACE
  8
0
  6
CONTINUOUS
 62
   249
 10
116.864924
 20
188.076539
 30
0.0
 11
116.851204
 21
188.076539
 31
0.0
 12
116.851204
 22
187.096539
 32
0.0
 13
116.864924
 23
187.096539
 33
0.0
  0
3DFACE
  8
0
  6
CONTINUOUS
 62
   249
 10
116.851204
 20
188.076539
 30
0.0
 11
116.837484
 21
188.076539
 31
0.0
 12
116.837484
 22
187.096539
 32
0.0
 13
116.851204
 23
187.096539
 33
0.0
  0
3DFACE
  8
0
  6
CONTINUOUS
 62
   249
 10
116.837484
 20
188.076539
 30
0.0
 11
116.823764
 21
188.076539
 31
0.0
 12
116.823764
 22
187.096539
 32
0.0
 13
116.837484
 23
187.096539
 33
0.0
  0
3DFACE
  8
0
  6
CONTINUOUS
 62
   249
 10
116.823764
 20
188.076539
 30
0.0
 11
116.810044
 21
188.076539
 31
0.0
 12
116.810044
 22
187.096539
 32
0.0
 13
116.823764
 23
187.096539
 33
0.0
  0
3DFACE
  8
0
  6
CONTINUOUS
 62
   249
 10
116.810044
 20
188.076539
 30
0.0
 11
116.796324
 21
188.076539
 31
0.0
 12
116.796324
 22
187.096539
 32
0.0
 13
116.810044
 23
187.096539
 33
0.0
  0
3DFACE
  8
0
  6
CONTINUOUS
 62
   249
 10
116.796324
 20
188.076539
 30
0.0
 11
116.782604
 21
188.076539
 31
0.0
 12
116.782604
 22
187.096539
 32
0.0
 13
116.796324
 23
187.096539
 33
0.0
  0
3DFACE
  8
0
  6
CONTINUOUS
 62
   249
 10
116.782604
 20
188.076539
 30
0.0
 11
116.768884
 21
188.076539
 31
0.0
 12
116.768884
 22
187.096539
 32
0.0
 13
116.782604
 23
187.096539
 33
0.0
  0
3DFACE
  8
0
  6
CONTINUOUS
 62
   249
 10
116.768884
 20
188.076539
 30
0.0
 11
116.755164
 21
188.076539
 31
0.0
 12
116.755164
 22
187.096539
 32
0.0
 13
116.768884
 23
187.096539
 33
0.0
  0
3DFACE
  8
0
  6
CONTINUOUS
 62
   249
 10
116.755164
 20
188.076539
 30
0.0
 11
116.741444
 21
188.076539
 31
0.0
 12
116.741444
 22
187.096539
 32
0.0
 13
116.755164
 23
187.096539
 33
0.0
  0
3DFACE
  8
0
  6
CONTINUOUS
 62
   249
 10
116.741444
 20
188.076539
 30
0.0
 11
116.727724
 21
188.076539
 31
0.0
 12
116.727724
 22
187.096539
 32
0.0
 13
116.741444
 23
187.096539
 33
0.0
  0
3DFACE
  8
0
  6
CONTINUOUS
 62
   249
 10
116.727724
 20
188.076539
 30
0.0
 11
116.714004
 21
188.076539
 31
0.0
 12
116.714004
 22
187.096539
 32
0.0
 13
116.727724
 23
187.096539
 33
0.0
  0
3DFACE
  8
0
  6
CONTINUOUS
 62
   249
 10
116.714004
 20
188.076539
 30
0.0
 11
116.700284
 21
188.076539
 31
0.0
 12
116.700284
 22
187.096539
 32
0.0
 13
116.714004
 23
187.096539
 33
0.0
  0
3DFACE
  8
0
  6
CONTINUOUS
 62
   249
 10
116.700284
 20
188.076539
 30
0.0
 11
116.686564
 21
188.076539
 31
0.0
 12
116.686564
 22
187.096539
 32
0.0
 13
116.700284
 23
187.096539
 33
0.0
  0
3DFACE
  8
0
  6
CONTINUOUS
 62
   249
 10
116.686564
 20
188.076539
 30
0.0
 11
116.672844
 21
188.076539
 31
0.0
 12
116.672844
 22
187.096539
 32
0.0
 13
116.686564
 23
187.096539
 33
0.0
  0
3DFACE
  8
0
  6
CONTINUOUS
 62
   249
 10
116.672844
 20
188.076539
 30
0.0
 11
116.659124
 21
188.076539
 31
0.0
 12
116.659124
 22
187.096539
 32
0.0
 13
116.672844
 23
187.096539
 33
0.0
  0
3DFACE
  8
0
  6
CONTINUOUS
 62
   249
 10
116.659124
 20
188.076539
 30
0.0
 11
116.645404
 21
188.076539
 31
0.0
 12
116.645404
 22
187.096539
 32
0.0
 13
116.659124
 23
187.096539
 33
0.0
  0
3DFACE
  8
0
  6
CONTINUOUS
 62
   249
 10
116.645404
 20
188.076539
 30
0.0
 11
116.631684
 21
188.076539
 31
0.0
 12
116.631684
 22
187.096539
 32
0.0
 13
116.645404
 23
187.096539
 33
0.0
  0
3DFACE
  8
0
  6
CONTINUOUS
 62
   249
 10
116.631684
 20
188.076539
 30
0.0
 11
116.617964
 21
188.076539
 31
0.0
 12
116.617964
 22
187.096539
 32
0.0
 13
116.631684
 23
187.096539
 33
0.0
  0
3DFACE
  8
0
  6
CONTINUOUS
 62
   249
 10
116.617964
 20
188.076539
 30
0.0
 11
116.604244
 21
188.076539
 31
0.0
 12
116.604244
 22
187.096539
 32
0.0
 13
116.617964
 23
187.096539
 33
0.0
  0
3DFACE
  8
0
  6
CONTINUOUS
 62
   249
 10
116.604244
 20
188.076539
 30
0.0
 11
116.590524
 21
188.076539
 31
0.0
 12
116.590524
 22
187.096539
 32
0.0
 13
116.604244
 23
187.096539
 33
0.0
  0
3DFACE
  8
0
  6
CONTINUOUS
 62
   249
 10
116.590524
 20
188.076539
 30
0.0
 11
116.576804
 21
188.076539
 31
0.0
 12
116.576804
 22
187.096539
 32
0.0
 13
116.590524
 23
187.096539
 33
0.0
  0
3DFACE
  8
0
  6
CONTINUOUS
 62
   249
 10
116.576804
 20
188.076539
 30
0.0
 11
116.563084
 21
188.076539
 31
0.0
 12
116.563084
 22
187.096539
 32
0.0
 13
116.576804
 23
187.096539
 33
0.0
  0
3DFACE
  8
0
  6
CONTINUOUS
 62
   249
 10
116.563084
 20
188.076539
 30
0.0
 11
116.549364
 21
188.076539
 31
0.0
 12
116.549364
 22
187.096539
 32
0.0
 13
116.563084
 23
187.096539
 33
0.0
  0
3DFACE
  8
0
  6
CONTINUOUS
 62
   249
 10
116.549364
 20
188.076539
 30
0.0
 11
116.535644
 21
188.076539
 31
0.0
 12
116.535644
 22
187.096539
 32
0.0
 13
116.549364
 23
187.096539
 33
0.0
  0
3DFACE
  8
0
  6
CONTINUOUS
 62
   249
 10
116.535644
 20
188.076539
 30
0.0
 11
116.521924
 21
188.076539
 31
0.0
 12
116.521924
 22
187.096539
 32
0.0
 13
116.535644
 23
187.096539
 33
0.0
  0
3DFACE
  8
0
  6
CONTINUOUS
 62
   249
 10
116.521924
 20
188.076539
 30
0.0
 11
116.508204
 21
188.076539
 31
0.0
 12
116.508204
 22
187.096539
 32
0.0
 13
116.521924
 23
187.096539
 33
0.0
  0
3DFACE
  8
0
  6
CONTINUOUS
 62
   249
 10
116.508204
 20
188.076539
 30
0.0
 11
116.494484
 21
188.076539
 31
0.0
 12
116.494484
 22
187.096539
 32
0.0
 13
116.508204
 23
187.096539
 33
0.0
  0
3DFACE
  8
0
  6
CONTINUOUS
 62
   249
 10
116.494484
 20
188.076539
 30
0.0
 11
116.480764
 21
188.076539
 31
0.0
 12
116.480764
 22
187.096539
 32
0.0
 13
116.494484
 23
187.096539
 33
0.0
  0
3DFACE
  8
0
  6
CONTINUOUS
 62
   249
 10
116.480764
 20
188.076539
 30
0.0
 11
116.467044
 21
188.076539
 31
0.0
 12
116.467044
 22
187.096539
 32
0.0
 13
116.480764
 23
187.096539
 33
0.0
  0
3DFACE
  8
0
  6
CONTINUOUS
 62
   249
 10
116.467044
 20
188.076539
 30
0.0
 11
116.453324
 21
188.076539
 31
0.0
 12
116.453324
 22
187.096539
 32
0.0
 13
116.467044
 23
187.096539
 33
0.0
  0
3DFACE
  8
0
  6
CONTINUOUS
 62
   249
 10
116.453324
 20
188.076539
 30
0.0
 11
116.439604
 21
188.076539
 31
0.0
 12
116.439604
 22
187.096539
 32
0.0
 13
116.453324
 23
187.096539
 33
0.0
  0
3DFACE
  8
0
  6
CONTINUOUS
 62
   249
 10
116.439604
 20
188.076539
 30
0.0
 11
116.425884
 21
188.076539
 31
0.0
 12
116.425884
 22
187.096539
 32
0.0
 13
116.439604
 23
187.096539
 33
0.0
  0
3DFACE
  8
0
  6
CONTINUOUS
 62
   249
 10
116.425884
 20
188.076539
 30
0.0
 11
116.412164
 21
188.076539
 31
0.0
 12
116.412164
 22
187.096539
 32
0.0
 13
116.425884
 23
187.096539
 33
0.0
  0
3DFACE
  8
0
  6
CONTINUOUS
 62
   249
 10
116.412164
 20
188.076539
 30
0.0
 11
116.398444
 21
188.076539
 31
0.0
 12
116.398444
 22
187.096539
 32
0.0
 13
116.412164
 23
187.096539
 33
0.0
  0
3DFACE
  8
0
  6
CONTINUOUS
 62
   249
 10
116.398444
 20
188.076539
 30
0.0
 11
116.384724
 21
188.076539
 31
0.0
 12
116.384724
 22
187.096539
 32
0.0
 13
116.398444
 23
187.096539
 33
0.0
  0
3DFACE
  8
0
  6
CONTINUOUS
 62
   249
 10
116.384724
 20
188.076539
 30
0.0
 11
116.371004
 21
188.076539
 31
0.0
 12
116.371004
 22
187.096539
 32
0.0
 13
116.384724
 23
187.096539
 33
0.0
  0
3DFACE
  8
0
  6
CONTINUOUS
 62
   249
 10
116.371004
 20
188.076539
 30
0.0
 11
116.357284
 21
188.076539
 31
0.0
 12
116.357284
 22
187.096539
 32
0.0
 13
116.371004
 23
187.096539
 33
0.0
  0
3DFACE
  8
0
  6
CONTINUOUS
 62
   249
 10
116.357284
 20
188.076539
 30
0.0
 11
116.343564
 21
188.076539
 31
0.0
 12
116.343564
 22
187.096539
 32
0.0
 13
116.357284
 23
187.096539
 33
0.0
  0
3DFACE
  8
0
  6
CONTINUOUS
 62
   249
 10
116.343564
 20
188.076539
 30
0.0
 11
116.329844
 21
188.076539
 31
0.0
 12
116.329844
 22
187.096539
 32
0.0
 13
116.343564
 23
187.096539
 33
0.0
  0
3DFACE
  8
0
  6
CONTINUOUS
 62
   249
 10
116.329844
 20
188.076539
 30
0.0
 11
116.316124
 21
188.076539
 31
0.0
 12
116.316124
 22
187.096539
 32
0.0
 13
116.329844
 23
187.096539
 33
0.0
  0
3DFACE
  8
0
  6
CONTINUOUS
 62
   249
 10
116.316124
 20
188.076539
 30
0.0
 11
116.302404
 21
188.076539
 31
0.0
 12
116.302404
 22
187.096539
 32
0.0
 13
116.316124
 23
187.096539
 33
0.0
  0
3DFACE
  8
0
  6
CONTINUOUS
 62
   249
 10
116.302404
 20
188.076539
 30
0.0
 11
116.288684
 21
188.076539
 31
0.0
 12
116.288684
 22
187.096539
 32
0.0
 13
116.302404
 23
187.096539
 33
0.0
  0
3DFACE
  8
0
  6
CONTINUOUS
 62
   249
 10
116.288684
 20
188.076539
 30
0.0
 11
116.274964
 21
188.076539
 31
0.0
 12
116.274964
 22
187.096539
 32
0.0
 13
116.288684
 23
187.096539
 33
0.0
  0
3DFACE
  8
0
  6
CONTINUOUS
 62
   249
 10
116.274964
 20
188.076539
 30
0.0
 11
116.261244
 21
188.076539
 31
0.0
 12
116.261244
 22
187.096539
 32
0.0
 13
116.274964
 23
187.096539
 33
0.0
  0
3DFACE
  8
0
  6
CONTINUOUS
 62
   249
 10
116.261244
 20
188.076539
 30
0.0
 11
116.247524
 21
188.076539
 31
0.0
 12
116.247524
 22
187.096539
 32
0.0
 13
116.261244
 23
187.096539
 33
0.0
  0
3DFACE
  8
0
  6
CONTINUOUS
 62
   249
 10
116.247524
 20
188.076539
 30
0.0
 11
116.233804
 21
188.076539
 31
0.0
 12
116.233804
 22
187.096539
 32
0.0
 13
116.247524
 23
187.096539
 33
0.0
  0
3DFACE
  8
0
  6
CONTINUOUS
 62
   249
 10
116.233804
 20
188.076539
 30
0.0
 11
116.220084
 21
188.076539
 31
0.0
 12
116.220084
 22
187.096539
 32
0.0
 13
116.233804
 23
187.096539
 33
0.0
  0
3DFACE
  8
0
  6
CONTINUOUS
 62
   249
 10
116.220084
 20
188.076539
 30
0.0
 11
116.206364
 21
188.076539
 31
0.0
 12
116.206364
 22
187.096539
 32
0.0
 13
116.220084
 23
187.096539
 33
0.0
  0
3DFACE
  8
0
  6
CONTINUOUS
 62
   249
 10
116.206364
 20
188.076539
 30
0.0
 11
116.192644
 21
188.076539
 31
0.0
 12
116.192644
 22
187.096539
 32
0.0
 13
116.206364
 23
187.096539
 33
0.0
  0
3DFACE
  8
0
  6
CONTINUOUS
 62
   249
 10
116.192644
 20
188.076539
 30
0.0
 11
116.178924
 21
188.076539
 31
0.0
 12
116.178924
 22
187.096539
 32
0.0
 13
116.192644
 23
187.096539
 33
0.0
  0
3DFACE
  8
0
  6
CONTINUOUS
 62
   249
 10
116.178924
 20
188.076539
 30
0.0
 11
116.165204
 21
188.076539
 31
0.0
 12
116.165204
 22
187.096539
 32
0.0
 13
116.178924
 23
187.096539
 33
0.0
  0
3DFACE
  8
0
  6
CONTINUOUS
 62
   249
 10
116.165204
 20
188.076539
 30
0.0
 11
116.151484
 21
188.076539
 31
0.0
 12
116.151484
 22
187.096539
 32
0.0
 13
116.165204
 23
187.096539
 33
0.0
  0
3DFACE
  8
0
  6
CONTINUOUS
 62
   249
 10
116.151484
 20
188.076539
 30
0.0
 11
116.137764
 21
188.076539
 31
0.0
 12
116.137764
 22
187.096539
 32
0.0
 13
116.151484
 23
187.096539
 33
0.0
  0
3DFACE
  8
0
  6
CONTINUOUS
 62
   249
 10
116.137764
 20
188.076539
 30
0.0
 11
116.124044
 21
188.076539
 31
0.0
 12
116.124044
 22
187.096539
 32
0.0
 13
116.137764
 23
187.096539
 33
0.0
  0
3DFACE
  8
0
  6
CONTINUOUS
 62
   249
 10
116.124044
 20
188.076539
 30
0.0
 11
116.110324
 21
188.076539
 31
0.0
 12
116.110324
 22
187.096539
 32
0.0
 13
116.124044
 23
187.096539
 33
0.0
  0
3DFACE
  8
0
  6
CONTINUOUS
 62
   249
 10
116.110324
 20
188.076539
 30
0.0
 11
116.096604
 21
188.076539
 31
0.0
 12
116.096604
 22
187.096539
 32
0.0
 13
116.110324
 23
187.096539
 33
0.0
  0
3DFACE
  8
0
  6
CONTINUOUS
 62
   249
 10
116.096604
 20
188.076539
 30
0.0
 11
116.082884
 21
188.076539
 31
0.0
 12
116.082884
 22
187.096539
 32
0.0
 13
116.096604
 23
187.096539
 33
0.0
  0
3DFACE
  8
0
  6
CONTINUOUS
 62
   249
 10
116.082884
 20
188.076539
 30
0.0
 11
116.069164
 21
188.076539
 31
0.0
 12
116.069164
 22
187.096539
 32
0.0
 13
116.082884
 23
187.096539
 33
0.0
  0
3DFACE
  8
0
  6
CONTINUOUS
 62
   249
 10
116.069164
 20
188.076539
 30
0.0
 11
116.055444
 21
188.076539
 31
0.0
 12
116.055444
 22
187.096539
 32
0.0
 13
116.069164
 23
187.096539
 33
0.0
  0
3DFACE
  8
0
  6
CONTINUOUS
 62
   249
 10
116.055444
 20
188.076539
 30
0.0
 11
116.041724
 21
188.076539
 31
0.0
 12
116.041724
 22
187.096539
 32
0.0
 13
116.055444
 23
187.096539
 33
0.0
  0
3DFACE
  8
0
  6
CONTINUOUS
 62
   249
 10
116.041724
 20
188.076539
 30
0.0
 11
116.028004
 21
188.076539
 31
0.0
 12
116.028004
 22
187.096539
 32
0.0
 13
116.041724
 23
187.096539
 33
0.0
  0
3DFACE
  8
0
  6
CONTINUOUS
 62
   249
 10
116.028004
 20
188.076539
 30
0.0
 11
116.014284
 21
188.076539
 31
0.0
 12
116.014284
 22
187.096539
 32
0.0
 13
116.028004
 23
187.096539
 33
0.0
  0
3DFACE
  8
0
  6
CONTINUOUS
 62
   249
 10
116.014284
 20
188.076539
 30
0.0
 11
116.000564
 21
188.076539
 31
0.0
 12
116.000564
 22
187.096539
 32
0.0
 13
116.014284
 23
187.096539
 33
0.0
  0
ARC
  8
0
  6
CONTINUOUS
 62
   249
 10
105.0
 20
225.0
 30
0.0
 40
0.5
 50
180.0
 51
0.0
  0
ARC
  8
0
  6
CONTINUOUS
 62
   249
 10
105.0
 20
225.0
 30
0.0
 40
0.5
 50
0.0
 51
180.0
  0
ARC
  8
0
  6
CONTINUOUS
 62
   249
 10
105.0
 20
240.0
 30
0.0
 40
0.5
 50
180.0
 51
0.0
  0
ARC
  8
0
  6
CONTINUOUS
 62
   249
 10
105.0
 20
240.0
 30
0.0
 40
0.5
 50
0.0
 51
180.0
  0
ARC
  8
0
  6
CONTINUOUS
 62
   249
 10
155.0
 20
236.875
 30
0.0
 40
0.5
 50
180.0
 51
0.0
  0
ARC
  8
0
  6
CONTINUOUS
 62
   249
 10
155.0
 20
236.875
 30
0.0
 40
0.5
 50
0.0
 51
180.0
  0
ARC
  8
0
  6
CONTINUOUS
 62
   249
 10
152.5
 20
245.625
 30
0.0
 40
0.5
 50
180.0
 51
0.0
  0
ARC
  8
0
  6
CONTINUOUS
 62
   249
 10
152.5
 20
245.625
 30
0.0
 40
0.5
 50
0.0
 51
180.0
  0
LINE
  8
0
 62
   249
 10
223.478269
 20
6.476872
 30
0.0
 11
225.438269
 21
8.436872
 31
0.0
  0
LINE
  8
0
 62
   249
 10
223.478269
 20
6.600615
 30
0.0
 11
225.438269
 21
8.560615
 31
0.0
  0
LINE
  8
0
 62
   249
 10
223.478269
 20
6.724359
 30
0.0
 11
225.438269
 21
8.684359
 31
0.0
  0
LINE
  8
0
 62
   249
 10
223.478269
 20
6.848103
 30
0.0
 11
225.438269
 21
8.808103
 31
0.0
  0
LINE
  8
0
 62
   249
 10
223.478269
 20
6.971847
 30
0.0
 11
225.438269
 21
8.931847
 31
0.0
  0
LINE
  8
0
 62
   249
 10
223.478269
 20
7.09559
 30
0.0
 11
225.438269
 21
9.05559
 31
0.0
  0
LINE
  8
0
 62
   249
 10
223.478269
 20
7.219334
 30
0.0
 11
225.339399
 21
9.080464
 31
0.0
  0
LINE
  8
0
 62
   249
 10
223.478269
 20
7.343078
 30
0.0
 11
225.215655
 21
9.080464
 31
0.0
  0
LINE
  8
0
 62
   249
 10
223.478269
 20
7.466821
 30
0.0
 11
225.091911
 21
9.080464
 31
0.0
  0
LINE
  8
0
 62
   249
 10
223.478269
 20
7.590565
 30
0.0
 11
224.968167
 21
9.080464
 31
0.0
  0
LINE
  8
0
 62
   249
 10
223.478269
 20
7.714309
 30
0.0
 11
224.844424
 21
9.080464
 31
0.0
  0
LINE
  8
0
 62
   249
 10
223.478269
 20
7.838052
 30
0.0
 11
224.72068
 21
9.080464
 31
0.0
  0
LINE
  8
0
 62
   249
 10
223.478269
 20
7.961796
 30
0.0
 11
224.596936
 21
9.080464
 31
0.0
  0
LINE
  8
0
 62
   249
 10
223.478269
 20
8.08554
 30
0.0
 11
224.473193
 21
9.080464
 31
0.0
  0
LINE
  8
0
 62
   249
 10
223.478269
 20
8.209283
 30
0.0
 11
224.349449
 21
9.080464
 31
0.0
  0
LINE
  8
0
 62
   249
 10
223.478269
 20
8.333027
 30
0.0
 11
224.225705
 21
9.080464
 31
0.0
  0
LINE
  8
0
 62
   249
 10
223.478269
 20
8.456771
 30
0.0
 11
224.101962
 21
9.080464
 31
0.0
  0
LINE
  8
0
 62
   249
 10
223.478269
 20
8.580514
 30
0.0
 11
223.978218
 21
9.080464
 31
0.0
  0
LINE
  8
0
 62
   249
 10
223.478269
 20
8.704258
 30
0.0
 11
223.854474
 21
9.080464
 31
0.0
  0
LINE
  8
0
 62
   249
 10
223.478269
 20
8.828002
 30
0.0
 11
223.730731
 21
9.080464
 31
0.0
  0
LINE
  8
0
 62
   249
 10
223.478269
 20
8.951746
 30
0.0
 11
223.606987
 21
9.080464
 31
0.0
  0
LINE
  8
0
 62
   249
 10
223.478269
 20
9.075489
 30
0.0
 11
223.483243
 21
9.080464
 31
0.0
  0
LINE
  8
0
 62
   249
 10
223.478269
 20
6.353128
 30
0.0
 11
225.438269
 21
8.313128
 31
0.0
  0
LINE
  8
0
 62
   249
 10
223.478269
 20
6.229384
 30
0.0
 11
225.438269
 21
8.189384
 31
0.0
  0
LINE
  8
0
 62
   249
 10
223.478269
 20
6.105641
 30
0.0
 11
225.438269
 21
8.065641
 31
0.0
  0
LINE
  8
0
 62
   249
 10
223.478269
 20
5.981897
 30
0.0
 11
225.438269
 21
7.941897
 31
0.0
  0
LINE
  8
0
 62
   249
 10
223.478269
 20
5.858153
 30
0.0
 11
225.438269
 21
7.818153
 31
0.0
  0
LINE
  8
0
 62
   249
 10
223.478269
 20
5.73441
 30
0.0
 11
225.438269
 21
7.69441
 31
0.0
  0
LINE
  8
0
 62
   249
 10
223.588066
 20
5.720464
 30
0.0
 11
225.438269
 21
7.570666
 31
0.0
  0
LINE
  8
0
 62
   249
 10
223.71181
 20
5.720464
 30
0.0
 11
225.438269
 21
7.446922
 31
0.0
  0
LINE
  8
0
 62
   249
 10
223.835554
 20
5.720464
 30
0.0
 11
225.438269
 21
7.323179
 31
0.0
  0
LINE
  8
0
 62
   249
 10
223.959298
 20
5.720464
 30
0.0
 11
225.438269
 21
7.199435
 31
0.0
  0
LINE
  8
0
 62
   249
 10
224.083041
 20
5.720464
 30
0.0
 11
225.438269
 21
7.075691
 31
0.0
  0
LINE
  8
0
 62
   249
 10
224.206785
 20
5.720464
 30
0.0
 11
225.438269
 21
6.951948
 31
0.0
  0
LINE
  8
0
 62
   249
 10
224.330529
 20
5.720464
 30
0.0
 11
225.438269
 21
6.828204
 31
0.0
  0
LINE
  8
0
 62
   249
 10
224.454272
 20
5.720464
 30
0.0
 11
225.438269
 21
6.70446
 31
0.0
  0
LINE
  8
0
 62
   249
 10
224.578016
 20
5.720464
 30
0.0
 11
225.438269
 21
6.580716
 31
0.0
  0
LINE
  8
0
 62
   249
 10
224.70176
 20
5.720464
 30
0.0
 11
225.438269
 21
6.456973
 31
0.0
  0
LINE
  8
0
 62
   249
 10
224.825503
 20
5.720464
 30
0.0
 11
225.438269
 21
6.333229
 31
0.0
  0
LINE
  8
0
 62
   249
 10
224.949247
 20
5.720464
 30
0.0
 11
225.438269
 21
6.209485
 31
0.0
  0
LINE
  8
0
 62
   249
 10
225.072991
 20
5.720464
 30
0.0
 11
225.438269
 21
6.085742
 31
0.0
  0
LINE
  8
0
 62
   249
 10
225.196734
 20
5.720464
 30
0.0
 11
225.438269
 21
5.961998
 31
0.0
  0
LINE
  8
0
 62
   249
 10
225.320478
 20
5.720464
 30
0.0
 11
225.438269
 21
5.838254
 31
0.0
  0
LINE
  8
0
 62
   249
 10
225.718269
 20
6.489485
 30
0.0
 11
227.596365
 21
8.367582
 31
0.0
  0
LINE
  8
0
 62
   249
 10
225.718269
 20
6.613229
 30
0.0
 11
227.54562
 21
8.440581
 31
0.0
  0
LINE
  8
0
 62
   249
 10
225.718269
 20
6.736973
 30
0.0
 11
227.491318
 21
8.510022
 31
0.0
  0
LINE
  8
0
 62
   249
 10
225.718269
 20
6.860716
 30
0.0
 11
227.433529
 21
8.575977
 31
0.0
  0
LINE
  8
0
 62
   249
 10
225.718269
 20
6.98446
 30
0.0
 11
227.372293
 21
8.638485
 31
0.0
  0
LINE
  8
0
 62
   249
 10
225.718269
 20
7.108204
 30
0.0
 11
227.307615
 21
8.697551
 31
0.0
  0
LINE
  8
0
 62
   249
 10
225.718269
 20
7.231948
 30
0.0
 11
227.23947
 21
8.753149
 31
0.0
  0
LINE
  8
0
 62
   249
 10
225.718269
 20
7.355691
 30
0.0
 11
227.167797
 21
8.805219
 31
0.0
  0
LINE
  8
0
 62
   249
 10
225.718269
 20
7.479435
 30
0.0
 11
227.092501
 21
8.853667
 31
0.0
  0
LINE
  8
0
 62
   249
 10
225.718269
 20
7.603179
 30
0.0
 11
227.013444
 21
8.898354
 31
0.0
  0
LINE
  8
0
 62
   249
 10
225.718269
 20
7.726922
 30
0.0
 11
226.930441
 21
8.939094
 31
0.0
  0
LINE
  8
0
 62
   249
 10
225.718269
 20
7.850666
 30
0.0
 11
226.843245
 21
8.975643
 31
0.0
  0
LINE
  8
0
 62
   249
 10
225.718269
 20
7.97441
 30
0.0
 11
226.751536
 21
9.007677
 31
0.0
  0
LINE
  8
0
 62
   249
 10
225.718269
 20
8.098153
 30
0.0
 11
226.654887
 21
9.034772
 31
0.0
  0
LINE
  8
0
 62
   249
 10
225.718269
 20
8.221897
 30
0.0
 11
226.552736
 21
9.056365
 31
0.0
  0
LINE
  8
0
 62
   249
 10
225.718269
 20
8.345641
 30
0.0
 11
226.444314
 21
9.071687
 31
0.0
  0
LINE
  8
0
 62
   249
 10
225.718269
 20
8.469384
 30
0.0
 11
226.328545
 21
9.079661
 31
0.0
  0
LINE
  8
0
 62
   249
 10
225.718269
 20
8.593128
 30
0.0
 11
226.205604
 21
9.080463
 31
0.0
  0
LINE
  8
0
 62
   249
 10
225.718269
 20
8.716872
 30
0.0
 11
226.08186
 21
9.080464
 31
0.0
  0
LINE
  8
0
 62
   249
 10
225.718269
 20
8.840615
 30
0.0
 11
225.958117
 21
9.080464
 31
0.0
  0
LINE
  8
0
 62
   249
 10
225.718269
 20
8.964359
 30
0.0
 11
225.834373
 21
9.080464
 31
0.0
  0
LINE
  8
0
 62
   249
 10
225.718269
 20
6.365742
 30
0.0
 11
227.64344
 21
8.290914
 31
0.0
  0
LINE
  8
0
 62
   249
 10
225.718269
 20
6.241998
 30
0.0
 11
227.686693
 21
8.210422
 31
0.0
  0
LINE
  8
0
 62
   249
 10
225.718269
 20
6.118254
 30
0.0
 11
227.725916
 21
8.125902
 31
0.0
  0
LINE
  8
0
 62
   249
 10
225.718269
 20
5.994511
 30
0.0
 11
227.760837
 21
8.037079
 31
0.0
  0
LINE
  8
0
 62
   249
 10
225.718269
 20
5.870767
 30
0.0
 11
227.791101
 21
7.9436
 31
0.0
  0
LINE
  8
0
 62
   249
 10
225.718269
 20
5.747023
 30
0.0
 11
227.816237
 21
7.844991
 31
0.0
  0
LINE
  8
0
 62
   249
 10
225.815453
 20
5.720464
 30
0.0
 11
227.835614
 21
7.740625
 31
0.0
  0
LINE
  8
0
 62
   249
 10
225.939197
 20
5.720464
 30
0.0
 11
227.848366
 21
7.629634
 31
0.0
  0
LINE
  8
0
 62
   249
 10
226.06294
 20
5.720464
 30
0.0
 11
227.85326
 21
7.510783
 31
0.0
  0
LINE
  8
0
 62
   249
 10
226.186684
 20
5.720464
 30
0.0
 11
227.848439
 21
7.382219
 31
0.0
  0
LINE
  8
0
 62
   249
 10
226.310428
 20
5.720464
 30
0.0
 11
227.830894
 21
7.240931
 31
0.0
  0
LINE
  8
0
 62
   249
 10
226.434171
 20
5.720464
 30
0.0
 11
227.795105
 21
7.081398
 31
0.0
  0
LINE
  8
0
 62
   249
 10
226.557915
 20
5.720464
 30
0.0
 11
227.728469
 21
6.891018
 31
0.0
  0
LINE
  8
0
 62
   249
 10
226.681659
 20
5.720464
 30
0.0
 11
227.081834
 21
6.12064
 31
0.0
  0
LINE
  8
0
 62
   249
 10
227.164979
 20
6.203785
 30
0.0
 11
227.579948
 21
6.618753
 31
0.0
  0
LINE
  8
0
 62
   249
 10
226.805402
 20
5.720464
 30
0.0
 11
227.167731
 21
6.082793
 31
0.0
  0
LINE
  8
0
 62
   249
 10
226.929146
 20
5.720464
 30
0.0
 11
227.250522
 21
6.04184
 31
0.0
  0
LINE
  8
0
 62
   249
 10
227.05289
 20
5.720464
 30
0.0
 11
227.330343
 21
5.997918
 31
0.0
  0
LINE
  8
0
 62
   249
 10
227.176633
 20
5.720464
 30
0.0
 11
227.407305
 21
5.951135
 31
0.0
  0
LINE
  8
0
 62
   249
 10
227.300377
 20
5.720464
 30
0.0
 11
227.481495
 21
5.901582
 31
0.0
  0
LINE
  8
0
 62
   249
 10
227.424121
 20
5.720464
 30
0.0
 11
227.552983
 21
5.849326
 31
0.0
  0
LINE
  8
0
 62
   249
 10
227.547864
 20
5.720464
 30
0.0
 11
227.621823
 21
5.794422
 31
0.0
  0
LINE
  8
0
 62
   249
 10
227.671608
 20
5.720464
 30
0.0
 11
227.688051
 21
5.736907
 31
0.0
  0
LINE
  8
0
 62
   249
 10
220.258269
 20
6.489485
 30
0.0
 11
222.136365
 21
8.367582
 31
0.0
  0
LINE
  8
0
 62
   249
 10
220.258269
 20
6.613229
 30
0.0
 11
222.08562
 21
8.440581
 31
0.0
  0
LINE
  8
0
 62
   249
 10
220.258269
 20
6.736973
 30
0.0
 11
222.031318
 21
8.510022
 31
0.0
  0
LINE
  8
0
 62
   249
 10
220.258269
 20
6.860716
 30
0.0
 11
221.973529
 21
8.575977
 31
0.0
  0
LINE
  8
0
 62
   249
 10
220.258269
 20
6.98446
 30
0.0
 11
221.912293
 21
8.638485
 31
0.0
  0
LINE
  8
0
 62
   249
 10
220.258269
 20
7.108204
 30
0.0
 11
221.847615
 21
8.697551
 31
0.0
  0
LINE
  8
0
 62
   249
 10
220.258269
 20
7.231948
 30
0.0
 11
221.77947
 21
8.753149
 31
0.0
  0
LINE
  8
0
 62
   249
 10
220.258269
 20
7.355691
 30
0.0
 11
221.707797
 21
8.805219
 31
0.0
  0
LINE
  8
0
 62
   249
 10
220.258269
 20
7.479435
 30
0.0
 11
221.632501
 21
8.853667
 31
0.0
  0
LINE
  8
0
 62
   249
 10
220.258269
 20
7.603179
 30
0.0
 11
221.553444
 21
8.898354
 31
0.0
  0
LINE
  8
0
 62
   249
 10
220.258269
 20
7.726922
 30
0.0
 11
221.470441
 21
8.939094
 31
0.0
  0
LINE
  8
0
 62
   249
 10
220.258269
 20
7.850666
 30
0.0
 11
221.383245
 21
8.975643
 31
0.0
  0
LINE
  8
0
 62
   249
 10
220.258269
 20
7.97441
 30
0.0
 11
221.291536
 21
9.007677
 31
0.0
  0
LINE
  8
0
 62
   249
 10
220.258269
 20
8.098153
 30
0.0
 11
221.194887
 21
9.034772
 31
0.0
  0
LINE
  8
0
 62
   249
 10
220.258269
 20
8.221897
 30
0.0
 11
221.092736
 21
9.056365
 31
0.0
  0
LINE
  8
0
 62
   249
 10
220.258269
 20
8.345641
 30
0.0
 11
220.984314
 21
9.071687
 31
0.0
  0
LINE
  8
0
 62
   249
 10
220.258269
 20
8.469384
 30
0.0
 11
220.868545
 21
9.079661
 31
0.0
  0
LINE
  8
0
 62
   249
 10
220.258269
 20
8.593128
 30
0.0
 11
220.745604
 21
9.080463
 31
0.0
  0
LINE
  8
0
 62
   249
 10
220.258269
 20
8.716872
 30
0.0
 11
220.62186
 21
9.080464
 31
0.0
  0
LINE
  8
0
 62
   249
 10
220.258269
 20
8.840615
 30
0.0
 11
220.498117
 21
9.080464
 31
0.0
  0
LINE
  8
0
 62
   249
 10
220.258269
 20
8.964359
 30
0.0
 11
220.374373
 21
9.080464
 31
0.0
  0
LINE
  8
0
 62
   249
 10
220.258269
 20
6.365742
 30
0.0
 11
222.18344
 21
8.290914
 31
0.0
  0
LINE
  8
0
 62
   249
 10
220.258269
 20
6.241998
 30
0.0
 11
222.226693
 21
8.210422
 31
0.0
  0
LINE
  8
0
 62
   249
 10
220.258269
 20
6.118254
 30
0.0
 11
222.265916
 21
8.125902
 31
0.0
  0
LINE
  8
0
 62
   249
 10
220.258269
 20
5.994511
 30
0.0
 11
222.300837
 21
8.037079
 31
0.0
  0
LINE
  8
0
 62
   249
 10
220.258269
 20
5.870767
 30
0.0
 11
222.331101
 21
7.9436
 31
0.0
  0
LINE
  8
0
 62
   249
 10
220.258269
 20
5.747023
 30
0.0
 11
222.356237
 21
7.844991
 31
0.0
  0
LINE
  8
0
 62
   249
 10
220.355453
 20
5.720464
 30
0.0
 11
222.375614
 21
7.740625
 31
0.0
  0
LINE
  8
0
 62
   249
 10
220.479197
 20
5.720464
 30
0.0
 11
222.388366
 21
7.629634
 31
0.0
  0
LINE
  8
0
 62
   249
 10
220.60294
 20
5.720464
 30
0.0
 11
222.39326
 21
7.510783
 31
0.0
  0
LINE
  8
0
 62
   249
 10
220.726684
 20
5.720464
 30
0.0
 11
222.388439
 21
7.382219
 31
0.0
  0
LINE
  8
0
 62
   249
 10
220.850428
 20
5.720464
 30
0.0
 11
222.370894
 21
7.240931
 31
0.0
  0
LINE
  8
0
 62
   249
 10
220.974171
 20
5.720464
 30
0.0
 11
222.335105
 21
7.081398
 31
0.0
  0
LINE
  8
0
 62
   249
 10
221.097915
 20
5.720464
 30
0.0
 11
222.268469
 21
6.891018
 31
0.0
  0
LINE
  8
0
 62
   249
 10
221.221659
 20
5.720464
 30
0.0
 11
221.621834
 21
6.12064
 31
0.0
  0
LINE
  8
0
 62
   249
 10
221.704979
 20
6.203785
 30
0.0
 11
222.119948
 21
6.618753
 31
0.0
  0
LINE
  8
0
 62
   249
 10
221.345402
 20
5.720464
 30
0.0
 11
221.707731
 21
6.082793
 31
0.0
  0
LINE
  8
0
 62
   249
 10
221.469146
 20
5.720464
 30
0.0
 11
221.790522
 21
6.04184
 31
0.0
  0
LINE
  8
0
 62
   249
 10
221.59289
 20
5.720464
 30
0.0
 11
221.870343
 21
5.997918
 31
0.0
  0
LINE
  8
0
 62
   249
 10
221.716633
 20
5.720464
 30
0.0
 11
221.947305
 21
5.951135
 31
0.0
  0
LINE
  8
0
 62
   249
 10
221.840377
 20
5.720464
 30
0.0
 11
222.021495
 21
5.901582
 31
0.0
  0
LINE
  8
0
 62
   249
 10
221.964121
 20
5.720464
 30
0.0
 11
222.092983
 21
5.849326
 31
0.0
  0
LINE
  8
0
 62
   249
 10
222.087864
 20
5.720464
 30
0.0
 11
222.161823
 21
5.794422
 31
0.0
  0
LINE
  8
0
 62
   249
 10
222.211608
 20
5.720464
 30
0.0
 11
222.228051
 21
5.736907
 31
0.0
  0
LINE
  8
0
 62
   249
 10
218.018269
 20
6.476872
 30
0.0
 11
219.978269
 21
8.436872
 31
0.0
  0
LINE
  8
0
 62
   249
 10
218.018269
 20
6.600615
 30
0.0
 11
219.978269
 21
8.560615
 31
0.0
  0
LINE
  8
0
 62
   249
 10
218.018269
 20
6.724359
 30
0.0
 11
219.978269
 21
8.684359
 31
0.0
  0
LINE
  8
0
 62
   249
 10
218.018269
 20
6.848103
 30
0.0
 11
219.978269
 21
8.808103
 31
0.0
  0
LINE
  8
0
 62
   249
 10
218.018269
 20
6.971847
 30
0.0
 11
219.978269
 21
8.931847
 31
0.0
  0
LINE
  8
0
 62
   249
 10
218.018269
 20
7.09559
 30
0.0
 11
219.978269
 21
9.05559
 31
0.0
  0
LINE
  8
0
 62
   249
 10
218.018269
 20
7.219334
 30
0.0
 11
219.879399
 21
9.080464
 31
0.0
  0
LINE
  8
0
 62
   249
 10
218.018269
 20
7.343078
 30
0.0
 11
219.755655
 21
9.080464
 31
0.0
  0
LINE
  8
0
 62
   249
 10
218.018269
 20
7.466821
 30
0.0
 11
219.631911
 21
9.080464
 31
0.0
  0
LINE
  8
0
 62
   249
 10
218.018269
 20
7.590565
 30
0.0
 11
219.508167
 21
9.080464
 31
0.0
  0
LINE
  8
0
 62
   249
 10
218.018269
 20
7.714309
 30
0.0
 11
219.384424
 21
9.080464
 31
0.0
  0
LINE
  8
0
 62
   249
 10
218.018269
 20
7.838052
 30
0.0
 11
219.26068
 21
9.080464
 31
0.0
  0
LINE
  8
0
 62
   249
 10
218.018269
 20
7.961796
 30
0.0
 11
219.136936
 21
9.080464
 31
0.0
  0
LINE
  8
0
 62
   249
 10
218.018269
 20
8.08554
 30
0.0
 11
219.013193
 21
9.080464
 31
0.0
  0
LINE
  8
0
 62
   249
 10
218.018269
 20
8.209283
 30
0.0
 11
218.889449
 21
9.080464
 31
0.0
  0
LINE
  8
0
 62
   249
 10
218.018269
 20
8.333027
 30
0.0
 11
218.765705
 21
9.080464
 31
0.0
  0
LINE
  8
0
 62
   249
 10
218.018269
 20
8.456771
 30
0.0
 11
218.641962
 21
9.080464
 31
0.0
  0
LINE
  8
0
 62
   249
 10
218.018269
 20
8.580514
 30
0.0
 11
218.518218
 21
9.080464
 31
0.0
  0
LINE
  8
0
 62
   249
 10
218.018269
 20
8.704258
 30
0.0
 11
218.394474
 21
9.080464
 31
0.0
  0
LINE
  8
0
 62
   249
 10
218.018269
 20
8.828002
 30
0.0
 11
218.270731
 21
9.080464
 31
0.0
  0
LINE
  8
0
 62
   249
 10
218.018269
 20
8.951746
 30
0.0
 11
218.146987
 21
9.080464
 31
0.0
  0
LINE
  8
0
 62
   249
 10
218.018269
 20
9.075489
 30
0.0
 11
218.023243
 21
9.080464
 31
0.0
  0
LINE
  8
0
 62
   249
 10
218.018269
 20
6.353128
 30
0.0
 11
219.978269
 21
8.313128
 31
0.0
  0
LINE
  8
0
 62
   249
 10
218.018269
 20
6.229384
 30
0.0
 11
219.978269
 21
8.189384
 31
0.0
  0
LINE
  8
0
 62
   249
 10
218.018269
 20
6.105641
 30
0.0
 11
219.978269
 21
8.065641
 31
0.0
  0
LINE
  8
0
 62
   249
 10
218.018269
 20
5.981897
 30
0.0
 11
219.978269
 21
7.941897
 31
0.0
  0
LINE
  8
0
 62
   249
 10
218.018269
 20
5.858153
 30
0.0
 11
219.978269
 21
7.818153
 31
0.0
  0
LINE
  8
0
 62
   249
 10
218.018269
 20
5.73441
 30
0.0
 11
219.978269
 21
7.69441
 31
0.0
  0
LINE
  8
0
 62
   249
 10
218.128066
 20
5.720464
 30
0.0
 11
219.978269
 21
7.570666
 31
0.0
  0
LINE
  8
0
 62
   249
 10
218.25181
 20
5.720464
 30
0.0
 11
219.978269
 21
7.446922
 31
0.0
  0
LINE
  8
0
 62
   249
 10
218.375554
 20
5.720464
 30
0.0
 11
219.978269
 21
7.323179
 31
0.0
  0
LINE
  8
0
 62
   249
 10
218.499298
 20
5.720464
 30
0.0
 11
219.978269
 21
7.199435
 31
0.0
  0
LINE
  8
0
 62
   249
 10
218.623041
 20
5.720464
 30
0.0
 11
219.978269
 21
7.075691
 31
0.0
  0
LINE
  8
0
 62
   249
 10
218.746785
 20
5.720464
 30
0.0
 11
219.978269
 21
6.951948
 31
0.0
  0
LINE
  8
0
 62
   249
 10
218.870529
 20
5.720464
 30
0.0
 11
219.978269
 21
6.828204
 31
0.0
  0
LINE
  8
0
 62
   249
 10
218.994272
 20
5.720464
 30
0.0
 11
219.978269
 21
6.70446
 31
0.0
  0
LINE
  8
0
 62
   249
 10
219.118016
 20
5.720464
 30
0.0
 11
219.978269
 21
6.580716
 31
0.0
  0
LINE
  8
0
 62
   249
 10
219.24176
 20
5.720464
 30
0.0
 11
219.978269
 21
6.456973
 31
0.0
  0
LINE
  8
0
 62
   249
 10
219.365503
 20
5.720464
 30
0.0
 11
219.978269
 21
6.333229
 31
0.0
  0
LINE
  8
0
 62
   249
 10
219.489247
 20
5.720464
 30
0.0
 11
219.978269
 21
6.209485
 31
0.0
  0
LINE
  8
0
 62
   249
 10
219.612991
 20
5.720464
 30
0.0
 11
219.978269
 21
6.085742
 31
0.0
  0
LINE
  8
0
 62
   249
 10
219.736734
 20
5.720464
 30
0.0
 11
219.978269
 21
5.961998
 31
0.0
  0
LINE
  8
0
 62
   249
 10
219.860478
 20
5.720464
 30
0.0
 11
219.978269
 21
5.838254
 31
0.0
  0
LINE
  8
0
 62
   249
 10
214.168269
 20
6.339182
 30
0.0
 11
215.553045
 21
7.723959
 31
0.0
  0
LINE
  8
0
 62
   249
 10
214.168269
 20
6.462926
 30
0.0
 11
215.520964
 21
7.815621
 31
0.0
  0
LINE
  8
0
 62
   249
 10
214.168269
 20
6.58667
 30
0.0
 11
215.488882
 21
7.907283
 31
0.0
  0
LINE
  8
0
 62
   249
 10
214.168269
 20
6.710413
 30
0.0
 11
215.4568
 21
7.998945
 31
0.0
  0
LINE
  8
0
 62
   249
 10
214.168269
 20
6.834157
 30
0.0
 11
215.424718
 21
8.090607
 31
0.0
  0
LINE
  8
0
 62
   249
 10
214.168269
 20
6.957901
 30
0.0
 11
215.392637
 21
8.182269
 31
0.0
  0
LINE
  8
0
 62
   249
 10
214.168269
 20
7.081645
 30
0.0
 11
215.360555
 21
8.273931
 31
0.0
  0
LINE
  8
0
 62
   249
 10
214.168269
 20
7.205388
 30
0.0
 11
215.328473
 21
8.365593
 31
0.0
  0
LINE
  8
0
 62
   249
 10
214.168269
 20
7.329132
 30
0.0
 11
215.296392
 21
8.457255
 31
0.0
  0
LINE
  8
0
 62
   249
 10
214.168269
 20
7.452876
 30
0.0
 11
215.26431
 21
8.548917
 31
0.0
  0
LINE
  8
0
 62
   249
 10
214.168269
 20
7.576619
 30
0.0
 11
215.232228
 21
8.640579
 31
0.0
  0
LINE
  8
0
 62
   249
 10
214.168269
 20
7.700363
 30
0.0
 11
215.200147
 21
8.732241
 31
0.0
  0
LINE
  8
0
 62
   249
 10
214.168269
 20
7.824107
 30
0.0
 11
215.168065
 21
8.823903
 31
0.0
  0
LINE
  8
0
 62
   249
 10
214.168269
 20
7.94785
 30
0.0
 11
215.135983
 21
8.915565
 31
0.0
  0
LINE
  8
0
 62
   249
 10
214.168269
 20
8.071594
 30
0.0
 11
215.103901
 21
9.007227
 31
0.0
  0
LINE
  8
0
 62
   249
 10
214.168269
 20
8.195338
 30
0.0
 11
215.053395
 21
9.080464
 31
0.0
  0
LINE
  8
0
 62
   249
 10
214.168269
 20
8.319081
 30
0.0
 11
214.929651
 21
9.080464
 31
0.0
  0
LINE
  8
0
 62
   249
 10
214.168269
 20
8.442825
 30
0.0
 11
214.805907
 21
9.080464
 31
0.0
  0
LINE
  8
0
 62
   249
 10
214.168269
 20
8.566569
 30
0.0
 11
214.682164
 21
9.080464
 31
0.0
  0
LINE
  8
0
 62
   249
 10
214.168269
 20
8.690312
 30
0.0
 11
214.55842
 21
9.080464
 31
0.0
  0
LINE
  8
0
 62
   249
 10
214.168269
 20
8.814056
 30
0.0
 11
214.434676
 21
9.080464
 31
0.0
  0
LINE
  8
0
 62
   249
 10
214.168269
 20
8.9378
 30
0.0
 11
214.310933
 21
9.080464
 31
0.0
  0
LINE
  8
0
 62
   249
 10
214.168269
 20
9.061543
 30
0.0
 11
214.187189
 21
9.080464
 31
0.0
  0
LINE
  8
0
 62
   249
 10
214.168269
 20
6.215439
 30
0.0
 11
215.585127
 21
7.632297
 31
0.0
  0
LINE
  8
0
 62
   249
 10
214.168269
 20
6.091695
 30
0.0
 11
215.617209
 21
7.540635
 31
0.0
  0
LINE
  8
0
 62
   249
 10
214.168269
 20
5.967951
 30
0.0
 11
215.64929
 21
7.448973
 31
0.0
  0
LINE
  8
0
 62
   249
 10
214.168269
 20
5.844208
 30
0.0
 11
215.681372
 21
7.357311
 31
0.0
  0
LINE
  8
0
 62
   249
 10
214.168269
 20
5.720464
 30
0.0
 11
215.713454
 21
7.265649
 31
0.0
  0
LINE
  8
0
 62
   249
 10
214.292012
 20
5.720464
 30
0.0
 11
215.745535
 21
7.173987
 31
0.0
  0
LINE
  8
0
 62
   249
 10
214.415756
 20
5.720464
 30
0.0
 11
215.777617
 21
7.082325
 31
0.0
  0
LINE
  8
0
 62
   249
 10
214.5395
 20
5.720464
 30
0.0
 11
215.809699
 21
6.990663
 31
0.0
  0
LINE
  8
0
 62
   249
 10
214.663243
 20
5.720464
 30
0.0
 11
215.84178
 21
6.899001
 31
0.0
  0
LINE
  8
0
 62
   249
 10
214.786987
 20
5.720464
 30
0.0
 11
215.873862
 21
6.807339
 31
0.0
  0
LINE
  8
0
 62
   249
 10
214.910731
 20
5.720464
 30
0.0
 11
215.905944
 21
6.715677
 31
0.0
  0
LINE
  8
0
 62
   249
 10
215.034474
 20
5.720464
 30
0.0
 11
215.938026
 21
6.624015
 31
0.0
  0
LINE
  8
0
 62
   249
 10
215.158218
 20
5.720464
 30
0.0
 11
215.970107
 21
6.532353
 31
0.0
  0
LINE
  8
0
 62
   249
 10
215.281962
 20
5.720464
 30
0.0
 11
216.002189
 21
6.440691
 31
0.0
  0
LINE
  8
0
 62
   249
 10
215.405705
 20
5.720464
 30
0.0
 11
216.034271
 21
6.349029
 31
0.0
  0
LINE
  8
0
 62
   249
 10
215.529449
 20
5.720464
 30
0.0
 11
216.066352
 21
6.257367
 31
0.0
  0
LINE
  8
0
 62
   249
 10
215.653193
 20
5.720464
 30
0.0
 11
216.098434
 21
6.165705
 31
0.0
  0
LINE
  8
0
 62
   249
 10
215.776936
 20
5.720464
 30
0.0
 11
216.130516
 21
6.074043
 31
0.0
  0
LINE
  8
0
 62
   249
 10
215.90068
 20
5.720464
 30
0.0
 11
216.162597
 21
5.982381
 31
0.0
  0
LINE
  8
0
 62
   249
 10
216.024424
 20
5.720464
 30
0.0
 11
216.194679
 21
5.890719
 31
0.0
  0
LINE
  8
0
 62
   249
 10
216.148167
 20
5.720464
 30
0.0
 11
216.226761
 21
5.799057
 31
0.0
  0
LINE
  8
0
 62
   249
 10
212.127418
 20
6.649462
 30
0.0
 11
213.888269
 21
8.410312
 31
0.0
  0
LINE
  8
0
 62
   249
 10
212.194049
 20
6.839837
 30
0.0
 11
213.888269
 21
8.534056
 31
0.0
  0
LINE
  8
0
 62
   249
 10
212.26068
 20
7.030211
 30
0.0
 11
213.888269
 21
8.6578
 31
0.0
  0
LINE
  8
0
 62
   249
 10
212.327311
 20
7.220586
 30
0.0
 11
213.888269
 21
8.781543
 31
0.0
  0
LINE
  8
0
 62
   249
 10
212.393943
 20
7.410961
 30
0.0
 11
213.888269
 21
8.905287
 31
0.0
  0
LINE
  8
0
 62
   249
 10
212.460574
 20
7.601336
 30
0.0
 11
213.888269
 21
9.029031
 31
0.0
  0
LINE
  8
0
 62
   249
 10
212.527205
 20
7.791711
 30
0.0
 11
213.815958
 21
9.080464
 31
0.0
  0
LINE
  8
0
 62
   249
 10
212.593836
 20
7.982086
 30
0.0
 11
213.692214
 21
9.080464
 31
0.0
  0
LINE
  8
0
 62
   249
 10
212.660467
 20
8.172461
 30
0.0
 11
213.568471
 21
9.080464
 31
0.0
  0
LINE
  8
0
 62
   249
 10
212.727099
 20
8.362836
 30
0.0
 11
213.444727
 21
9.080464
 31
0.0
  0
LINE
  8
0
 62
   249
 10
212.79373
 20
8.553211
 30
0.0
 11
213.320983
 21
9.080464
 31
0.0
  0
LINE
  8
0
 62
   249
 10
212.860361
 20
8.743586
 30
0.0
 11
213.197239
 21
9.080464
 31
0.0
  0
LINE
  8
0
 62
   249
 10
212.926992
 20
8.93396
 30
0.0
 11
213.073496
 21
9.080464
 31
0.0
  0
LINE
  8
0
 62
   249
 10
212.060786
 20
6.459087
 30
0.0
 11
213.888269
 21
8.286569
 31
0.0
  0
LINE
  8
0
 62
   249
 10
211.994155
 20
6.268712
 30
0.0
 11
213.888269
 21
8.162825
 31
0.0
  0
LINE
  8
0
 62
   249
 10
211.927524
 20
6.078337
 30
0.0
 11
213.888269
 21
8.039081
 31
0.0
  0
LINE
  8
0
 62
   249
 10
211.860893
 20
5.887962
 30
0.0
 11
213.888269
 21
7.915338
 31
0.0
  0
LINE
  8
0
 62
   249
 10
211.817138
 20
5.720464
 30
0.0
 11
213.888269
 21
7.791594
 31
0.0
  0
LINE
  8
0
 62
   249
 10
211.940882
 20
5.720464
 30
0.0
 11
213.888269
 21
7.66785
 31
0.0
  0
LINE
  8
0
 62
   249
 10
212.064626
 20
5.720464
 30
0.0
 11
213.888269
 21
7.544107
 31
0.0
  0
LINE
  8
0
 62
   249
 10
212.18837
 20
5.720464
 30
0.0
 11
213.888269
 21
7.420363
 31
0.0
  0
LINE
  8
0
 62
   249
 10
212.312113
 20
5.720464
 30
0.0
 11
213.888269
 21
7.296619
 31
0.0
  0
LINE
  8
0
 62
   249
 10
212.435857
 20
5.720464
 30
0.0
 11
213.888269
 21
7.172876
 31
0.0
  0
LINE
  8
0
 62
   249
 10
212.559601
 20
5.720464
 30
0.0
 11
213.888269
 21
7.049132
 31
0.0
  0
LINE
  8
0
 62
   249
 10
212.683344
 20
5.720464
 30
0.0
 11
213.888269
 21
6.925388
 31
0.0
  0
LINE
  8
0
 62
   249
 10
212.807088
 20
5.720464
 30
0.0
 11
213.888269
 21
6.801645
 31
0.0
  0
LINE
  8
0
 62
   249
 10
212.930832
 20
5.720464
 30
0.0
 11
213.888269
 21
6.677901
 31
0.0
  0
LINE
  8
0
 62
   249
 10
213.054575
 20
5.720464
 30
0.0
 11
213.888269
 21
6.554157
 31
0.0
  0
LINE
  8
0
 62
   249
 10
213.178319
 20
5.720464
 30
0.0
 11
213.888269
 21
6.430413
 31
0.0
  0
LINE
  8
0
 62
   249
 10
213.302063
 20
5.720464
 30
0.0
 11
213.888269
 21
6.30667
 31
0.0
  0
LINE
  8
0
 62
   249
 10
213.425806
 20
5.720464
 30
0.0
 11
213.888269
 21
6.182926
 31
0.0
  0
LINE
  8
0
 62
   249
 10
213.54955
 20
5.720464
 30
0.0
 11
213.888269
 21
6.059182
 31
0.0
  0
LINE
  8
0
 62
   249
 10
213.673294
 20
5.720464
 30
0.0
 11
213.888269
 21
5.935439
 31
0.0
  0
LINE
  8
0
 62
   249
 10
213.797037
 20
5.720464
 30
0.0
 11
213.888269
 21
5.811695
 31
0.0
  0
LINE
  8
0
 62
   249
 10
225.718269
 20
2.653431
 30
0.0
 11
228.165783
 21
5.100946
 31
0.0
  0
LINE
  8
0
 62
   249
 10
225.718269
 20
2.777175
 30
0.0
 11
228.123716
 21
5.182623
 31
0.0
  0
LINE
  8
0
 62
   249
 10
225.718269
 20
2.900919
 30
0.0
 11
228.078723
 21
5.261373
 31
0.0
  0
LINE
  8
0
 62
   249
 10
225.718269
 20
3.024662
 30
0.0
 11
228.030905
 21
5.337298
 31
0.0
  0
LINE
  8
0
 62
   249
 10
225.718269
 20
3.148406
 30
0.0
 11
227.980343
 21
5.410481
 31
0.0
  0
LINE
  8
0
 62
   249
 10
225.718269
 20
3.27215
 30
0.0
 11
227.886583
 21
5.440464
 31
0.0
  0
LINE
  8
0
 62
   249
 10
225.718269
 20
3.395893
 30
0.0
 11
227.762839
 21
5.440464
 31
0.0
  0
LINE
  8
0
 62
   249
 10
225.718269
 20
3.519637
 30
0.0
 11
227.639096
 21
5.440464
 31
0.0
  0
LINE
  8
0
 62
   249
 10
225.718269
 20
3.643381
 30
0.0
 11
227.515352
 21
5.440464
 31
0.0
  0
LINE
  8
0
 62
   249
 10
225.718269
 20
3.767124
 30
0.0
 11
227.391608
 21
5.440464
 31
0.0
  0
LINE
  8
0
 62
   249
 10
225.718269
 20
3.890868
 30
0.0
 11
227.267864
 21
5.440464
 31
0.0
  0
LINE
  8
0
 62
   249
 10
225.718269
 20
4.014612
 30
0.0
 11
227.144121
 21
5.440464
 31
0.0
  0
LINE
  8
0
 62
   249
 10
225.718269
 20
4.138355
 30
0.0
 11
227.020377
 21
5.440464
 31
0.0
  0
LINE
  8
0
 62
   249
 10
225.718269
 20
4.262099
 30
0.0
 11
226.896633
 21
5.440464
 31
0.0
  0
LINE
  8
0
 62
   249
 10
225.718269
 20
4.385843
 30
0.0
 11
226.77289
 21
5.440464
 31
0.0
  0
LINE
  8
0
 62
   249
 10
225.718269
 20
4.509586
 30
0.0
 11
226.649146
 21
5.440464
 31
0.0
  0
LINE
  8
0
 62
   249
 10
225.718269
 20
4.63333
 30
0.0
 11
226.525402
 21
5.440464
 31
0.0
  0
LINE
  8
0
 62
   249
 10
225.718269
 20
4.757074
 30
0.0
 11
226.401659
 21
5.440464
 31
0.0
  0
LINE
  8
0
 62
   249
 10
225.718269
 20
4.880817
 30
0.0
 11
226.277915
 21
5.440464
 31
0.0
  0
LINE
  8
0
 62
   249
 10
225.718269
 20
5.004561
 30
0.0
 11
226.154171
 21
5.440464
 31
0.0
  0
LINE
  8
0
 62
   249
 10
225.718269
 20
5.128305
 30
0.0
 11
226.030428
 21
5.440464
 31
0.0
  0
LINE
  8
0
 62
   249
 10
225.718269
 20
5.252049
 30
0.0
 11
225.906684
 21
5.440464
 31
0.0
  0
LINE
  8
0
 62
   249
 10
225.718269
 20
5.375792
 30
0.0
 11
225.78294
 21
5.440464
 31
0.0
  0
LINE
  8
0
 62
   249
 10
225.718269
 20
2.529687
 30
0.0
 11
228.204798
 21
5.016217
 31
0.0
  0
LINE
  8
0
 62
   249
 10
225.718269
 20
2.405944
 30
0.0
 11
228.240606
 21
4.928281
 31
0.0
  0
LINE
  8
0
 62
   249
 10
225.718269
 20
2.2822
 30
0.0
 11
228.273018
 21
4.83695
 31
0.0
  0
LINE
  8
0
 62
   249
 10
225.718269
 20
2.158456
 30
0.0
 11
228.301802
 21
4.74199
 31
0.0
  0
LINE
  8
0
 62
   249
 10
225.76402
 20
2.080464
 30
0.0
 11
228.326671
 21
4.643115
 31
0.0
  0
LINE
  8
0
 62
   249
 10
225.887764
 20
2.080464
 30
0.0
 11
228.347268
 21
4.539968
 31
0.0
  0
LINE
  8
0
 62
   249
 10
226.011508
 20
2.080465
 30
0.0
 11
228.363138
 21
4.432095
 31
0.0
  0
LINE
  8
0
 62
   249
 10
226.135252
 20
2.080465
 30
0.0
 11
228.3737
 21
4.318913
 31
0.0
  0
LINE
  8
0
 62
   249
 10
226.258996
 20
2.080465
 30
0.0
 11
228.378181
 21
4.19965
 31
0.0
  0
LINE
  8
0
 62
   249
 10
226.385477
 20
2.083202
 30
0.0
 11
228.37553
 21
4.073256
 31
0.0
  0
LINE
  8
0
 62
   249
 10
226.520499
 20
2.094481
 30
0.0
 11
228.364251
 21
3.938233
 31
0.0
  0
LINE
  8
0
 62
   249
 10
226.666407
 20
2.116645
 30
0.0
 11
228.342088
 21
3.792326
 31
0.0
  0
LINE
  8
0
 62
   249
 10
226.826902
 20
2.153397
 30
0.0
 11
228.305336
 21
3.63183
 31
0.0
  0
LINE
  8
0
 62
   249
 10
227.008919
 20
2.21167
 30
0.0
 11
228.247063
 21
3.449814
 31
0.0
  0
LINE
  8
0
 62
   249
 10
227.228991
 20
2.307999
 30
0.0
 11
228.150734
 21
3.229741
 31
0.0
  0
LINE
  8
0
 62
   249
 10
227.56762
 20
2.522883
 30
0.0
 11
227.935849
 21
2.891113
 31
0.0
  0
LINE
  8
0
 62
   249
 10
210.528269
 20
2.080464
 30
0.0
 11
213.888269
 21
5.440464
 31
0.0
  0
LINE
  8
0
 62
   249
 10
210.5949
 20
2.270839
 30
0.0
 11
213.764525
 21
5.440464
 31
0.0
  0
LINE
  8
0
 62
   249
 10
210.661531
 20
2.461214
 30
0.0
 11
213.640781
 21
5.440464
 31
0.0
  0
LINE
  8
0
 62
   249
 10
210.728162
 20
2.651589
 30
0.0
 11
213.517037
 21
5.440464
 31
0.0
  0
LINE
  8
0
 62
   249
 10
210.794793
 20
2.841964
 30
0.0
 11
213.393294
 21
5.440464
 31
0.0
  0
LINE
  8
0
 62
   249
 10
210.861425
 20
3.032338
 30
0.0
 11
213.26955
 21
5.440464
 31
0.0
  0
LINE
  8
0
 62
   249
 10
210.928056
 20
3.222713
 30
0.0
 11
213.145806
 21
5.440464
 31
0.0
  0
LINE
  8
0
 62
   249
 10
210.994687
 20
3.413088
 30
0.0
 11
213.022063
 21
5.440464
 31
0.0
  0
LINE
  8
0
 62
   249
 10
211.061318
 20
3.603463
 30
0.0
 11
212.898319
 21
5.440464
 31
0.0
  0
LINE
  8
0
 62
   249
 10
211.127949
 20
3.793838
 30
0.0
 11
212.774575
 21
5.440464
 31
0.0
  0
LINE
  8
0
 62
   249
 10
211.194581
 20
3.984213
 30
0.0
 11
212.650832
 21
5.440464
 31
0.0
  0
LINE
  8
0
 62
   249
 10
211.261212
 20
4.174588
 30
0.0
 11
212.527088
 21
5.440464
 31
0.0
  0
LINE
  8
0
 62
   249
 10
211.327843
 20
4.364963
 30
0.0
 11
212.403344
 21
5.440464
 31
0.0
  0
LINE
  8
0
 62
   249
 10
211.394474
 20
4.555338
 30
0.0
 11
212.279601
 21
5.440464
 31
0.0
  0
LINE
  8
0
 62
   249
 10
211.461106
 20
4.745713
 30
0.0
 11
212.155857
 21
5.440464
 31
0.0
  0
LINE
  8
0
 62
   249
 10
211.527737
 20
4.936087
 30
0.0
 11
212.032113
 21
5.440464
 31
0.0
  0
LINE
  8
0
 62
   249
 10
211.594368
 20
5.126462
 30
0.0
 11
211.90837
 21
5.440464
 31
0.0
  0
LINE
  8
0
 62
   249
 10
211.660999
 20
5.316837
 30
0.0
 11
211.784626
 21
5.440464
 31
0.0
  0
LINE
  8
0
 62
   249
 10
210.652012
 20
2.080464
 30
0.0
 11
213.888269
 21
5.31672
 31
0.0
  0
LINE
  8
0
 62
   249
 10
210.775756
 20
2.080464
 30
0.0
 11
213.888269
 21
5.192977
 31
0.0
  0
LINE
  8
0
 62
   249
 10
210.8995
 20
2.080464
 30
0.0
 11
213.888269
 21
5.069233
 31
0.0
  0
LINE
  8
0
 62
   249
 10
211.023243
 20
2.080464
 30
0.0
 11
213.888269
 21
4.945489
 31
0.0
  0
LINE
  8
0
 62
   249
 10
211.146987
 20
2.080464
 30
0.0
 11
213.888269
 21
4.821746
 31
0.0
  0
LINE
  8
0
 62
   249
 10
211.270731
 20
2.080464
 30
0.0
 11
213.888269
 21
4.698002
 31
0.0
  0
LINE
  8
0
 62
   249
 10
211.394474
 20
2.080464
 30
0.0
 11
212.754158
 21
3.440147
 31
0.0
  0
LINE
  8
0
 62
   249
 10
212.794474
 20
3.480464
 30
0.0
 11
213.888269
 21
4.574258
 31
0.0
  0
LINE
  8
0
 62
   249
 10
211.518218
 20
2.080464
 30
0.0
 11
212.687526
 21
3.249772
 31
0.0
  0
LINE
  8
0
 62
   249
 10
212.918218
 20
3.480464
 30
0.0
 11
213.888269
 21
4.450514
 31
0.0
  0
LINE
  8
0
 62
   249
 10
211.641962
 20
2.080464
 30
0.0
 11
212.620895
 21
3.059398
 31
0.0
  0
LINE
  8
0
 62
   249
 10
213.041962
 20
3.480464
 30
0.0
 11
213.888269
 21
4.326771
 31
0.0
  0
LINE
  8
0
 62
   249
 10
211.765705
 20
2.080464
 30
0.0
 11
212.554264
 21
2.869023
 31
0.0
  0
LINE
  8
0
 62
   249
 10
213.165705
 20
3.480464
 30
0.0
 11
213.888269
 21
4.203027
 31
0.0
  0
LINE
  8
0
 62
   249
 10
211.889449
 20
2.080464
 30
0.0
 11
212.487633
 21
2.678648
 31
0.0
  0
LINE
  8
0
 62
   249
 10
213.289449
 20
3.480464
 30
0.0
 11
213.888269
 21
4.079283
 31
0.0
  0
LINE
  8
0
 62
   249
 10
212.013193
 20
2.080464
 30
0.0
 11
212.421002
 21
2.488273
 31
0.0
  0
LINE
  8
0
 62
   249
 10
213.413193
 20
3.480464
 30
0.0
 11
213.888269
 21
3.95554
 31
0.0
  0
LINE
  8
0
 62
   249
 10
212.136936
 20
2.080464
 30
0.0
 11
212.35437
 21
2.297898
 31
0.0
  0
LINE
  8
0
 62
   249
 10
213.536936
 20
3.480464
 30
0.0
 11
213.888269
 21
3.831796
 31
0.0
  0
LINE
  8
0
 62
   249
 10
212.26068
 20
2.080464
 30
0.0
 11
212.287739
 21
2.107523
 31
0.0
  0
LINE
  8
0
 62
   249
 10
213.66068
 20
3.480464
 30
0.0
 11
213.888269
 21
3.708052
 31
0.0
  0
LINE
  8
0
 62
   249
 10
213.784424
 20
3.480464
 30
0.0
 11
213.888269
 21
3.584309
 31
0.0
  0
LINE
  8
0
 62
   249
 10
218.018269
 20
2.888305
 30
0.0
 11
219.978269
 21
4.848305
 31
0.0
  0
LINE
  8
0
 62
   249
 10
218.018269
 20
3.012049
 30
0.0
 11
219.978269
 21
4.972049
 31
0.0
  0
LINE
  8
0
 62
   249
 10
218.018269
 20
3.135792
 30
0.0
 11
219.978269
 21
5.095792
 31
0.0
  0
LINE
  8
0
 62
   249
 10
218.018269
 20
3.259536
 30
0.0
 11
219.978269
 21
5.219536
 31
0.0
  0
LINE
  8
0
 62
   249
 10
218.018269
 20
3.38328
 30
0.0
 11
219.978269
 21
5.34328
 31
0.0
  0
LINE
  8
0
 62
   249
 10
218.018269
 20
3.507023
 30
0.0
 11
219.951709
 21
5.440464
 31
0.0
  0
LINE
  8
0
 62
   249
 10
218.018269
 20
3.630767
 30
0.0
 11
219.827965
 21
5.440464
 31
0.0
  0
LINE
  8
0
 62
   249
 10
218.018269
 20
3.754511
 30
0.0
 11
219.704222
 21
5.440464
 31
0.0
  0
LINE
  8
0
 62
   249
 10
218.018269
 20
3.878254
 30
0.0
 11
219.580478
 21
5.440464
 31
0.0
  0
LINE
  8
0
 62
   249
 10
218.018269
 20
4.001998
 30
0.0
 11
219.456734
 21
5.440464
 31
0.0
  0
LINE
  8
0
 62
   249
 10
218.018269
 20
4.125742
 30
0.0
 11
219.332991
 21
5.440464
 31
0.0
  0
LINE
  8
0
 62
   249
 10
218.018269
 20
4.249485
 30
0.0
 11
219.209247
 21
5.440464
 31
0.0
  0
LINE
  8
0
 62
   249
 10
218.018269
 20
4.373229
 30
0.0
 11
219.085503
 21
5.440464
 31
0.0
  0
LINE
  8
0
 62
   249
 10
218.018269
 20
4.496973
 30
0.0
 11
218.96176
 21
5.440464
 31
0.0
  0
LINE
  8
0
 62
   249
 10
218.018269
 20
4.620716
 30
0.0
 11
218.838016
 21
5.440464
 31
0.0
  0
LINE
  8
0
 62
   249
 10
218.018269
 20
4.74446
 30
0.0
 11
218.714272
 21
5.440464
 31
0.0
  0
LINE
  8
0
 62
   249
 10
218.018269
 20
4.868204
 30
0.0
 11
218.590529
 21
5.440464
 31
0.0
  0
LINE
  8
0
 62
   249
 10
218.018269
 20
4.991948
 30
0.0
 11
218.466785
 21
5.440464
 31
0.0
  0
LINE
  8
0
 62
   249
 10
218.018269
 20
5.115691
 30
0.0
 11
218.343041
 21
5.440464
 31
0.0
  0
LINE
  8
0
 62
   249
 10
218.018269
 20
5.239435
 30
0.0
 11
218.219298
 21
5.440464
 31
0.0
  0
LINE
  8
0
 62
   249
 10
218.018269
 20
5.363179
 30
0.0
 11
218.095554
 21
5.440464
 31
0.0
  0
LINE
  8
0
 62
   249
 10
218.018269
 20
2.764561
 30
0.0
 11
219.978269
 21
4.724561
 31
0.0
  0
LINE
  8
0
 62
   249
 10
218.018269
 20
2.640817
 30
0.0
 11
219.978269
 21
4.600817
 31
0.0
  0
LINE
  8
0
 62
   249
 10
218.018269
 20
2.517074
 30
0.0
 11
219.978269
 21
4.477074
 31
0.0
  0
LINE
  8
0
 62
   249
 10
218.018269
 20
2.39333
 30
0.0
 11
219.978269
 21
4.35333
 31
0.0
  0
LINE
  8
0
 62
   249
 10
218.018269
 20
2.269586
 30
0.0
 11
219.978269
 21
4.229586
 31
0.0
  0
LINE
  8
0
 62
   249
 10
218.018269
 20
2.145843
 30
0.0
 11
219.978269
 21
4.105843
 31
0.0
  0
LINE
  8
0
 62
   249
 10
218.076633
 20
2.080464
 30
0.0
 11
219.978269
 21
3.982099
 31
0.0
  0
LINE
  8
0
 62
   249
 10
218.200377
 20
2.080464
 30
0.0
 11
219.978269
 21
3.858355
 31
0.0
  0
LINE
  8
0
 62
   249
 10
218.324121
 20
2.080464
 30
0.0
 11
219.978269
 21
3.734612
 31
0.0
  0
LINE
  8
0
 62
   249
 10
218.447864
 20
2.080464
 30
0.0
 11
219.978269
 21
3.610868
 31
0.0
  0
LINE
  8
0
 62
   249
 10
218.571608
 20
2.080464
 30
0.0
 11
219.978269
 21
3.487124
 31
0.0
  0
LINE
  8
0
 62
   249
 10
218.695352
 20
2.080464
 30
0.0
 11
219.978269
 21
3.363381
 31
0.0
  0
LINE
  8
0
 62
   249
 10
218.819096
 20
2.080464
 30
0.0
 11
219.978269
 21
3.239637
 31
0.0
  0
LINE
  8
0
 62
   249
 10
218.942839
 20
2.080464
 30
0.0
 11
219.978269
 21
3.115893
 31
0.0
  0
LINE
  8
0
 62
   249
 10
219.066583
 20
2.080464
 30
0.0
 11
219.978269
 21
2.99215
 31
0.0
  0
LINE
  8
0
 62
   249
 10
219.190327
 20
2.080464
 30
0.0
 11
219.978269
 21
2.868406
 31
0.0
  0
LINE
  8
0
 62
   249
 10
219.31407
 20
2.080464
 30
0.0
 11
219.978269
 21
2.744662
 31
0.0
  0
LINE
  8
0
 62
   249
 10
219.437814
 20
2.080464
 30
0.0
 11
219.978269
 21
2.620919
 31
0.0
  0
LINE
  8
0
 62
   249
 10
219.561558
 20
2.080464
 30
0.0
 11
219.978269
 21
2.497175
 31
0.0
  0
LINE
  8
0
 62
   249
 10
219.685301
 20
2.080464
 30
0.0
 11
219.978269
 21
2.373431
 31
0.0
  0
LINE
  8
0
 62
   249
 10
219.809045
 20
2.080464
 30
0.0
 11
219.978269
 21
2.249687
 31
0.0
  0
LINE
  8
0
 62
   249
 10
219.932789
 20
2.080464
 30
0.0
 11
219.978269
 21
2.125944
 31
0.0
  0
LINE
  8
0
 62
   249
 10
215.347527
 20
3.311155
 30
0.0
 11
216.643823
 21
4.607451
 31
0.0
  0
LINE
  8
0
 62
   249
 10
215.315445
 20
3.402817
 30
0.0
 11
216.611741
 21
4.699113
 31
0.0
  0
LINE
  8
0
 62
   249
 10
215.269348
 20
3.480464
 30
0.0
 11
216.57966
 21
4.790775
 31
0.0
  0
LINE
  8
0
 62
   249
 10
215.145604
 20
3.480464
 30
0.0
 11
216.547578
 21
4.882437
 31
0.0
  0
LINE
  8
0
 62
   249
 10
215.021861
 20
3.480464
 30
0.0
 11
216.515496
 21
4.974099
 31
0.0
  0
LINE
  8
0
 62
   249
 10
214.898117
 20
3.480464
 30
0.0
 11
216.483414
 21
5.065761
 31
0.0
  0
LINE
  8
0
 62
   249
 10
214.774373
 20
3.480464
 30
0.0
 11
216.451333
 21
5.157423
 31
0.0
  0
LINE
  8
0
 62
   249
 10
214.65063
 20
3.480464
 30
0.0
 11
216.419251
 21
5.249085
 31
0.0
  0
LINE
  8
0
 62
   249
 10
214.526886
 20
3.480464
 30
0.0
 11
216.387169
 21
5.340747
 31
0.0
  0
LINE
  8
0
 62
   249
 10
214.403142
 20
3.480464
 30
0.0
 11
216.355088
 21
5.432409
 31
0.0
  0
LINE
  8
0
 62
   249
 10
214.279399
 20
3.480464
 30
0.0
 11
216.239399
 21
5.440464
 31
0.0
  0
LINE
  8
0
 62
   249
 10
214.168269
 20
3.493078
 30
0.0
 11
216.115655
 21
5.440464
 31
0.0
  0
LINE
  8
0
 62
   249
 10
214.168269
 20
3.616821
 30
0.0
 11
215.991911
 21
5.440464
 31
0.0
  0
LINE
  8
0
 62
   249
 10
214.168269
 20
3.740565
 30
0.0
 11
215.868167
 21
5.440464
 31
0.0
  0
LINE
  8
0
 62
   249
 10
214.168269
 20
3.864309
 30
0.0
 11
215.744424
 21
5.440464
 31
0.0
  0
LINE
  8
0
 62
   249
 10
214.168269
 20
3.988052
 30
0.0
 11
215.62068
 21
5.440464
 31
0.0
  0
LINE
  8
0
 62
   249
 10
214.168269
 20
4.111796
 30
0.0
 11
215.496936
 21
5.440464
 31
0.0
  0
LINE
  8
0
 62
   249
 10
214.168269
 20
4.23554
 30
0.0
 11
215.373193
 21
5.440464
 31
0.0
  0
LINE
  8
0
 62
   249
 10
214.168269
 20
4.359283
 30
0.0
 11
215.249449
 21
5.440464
 31
0.0
  0
LINE
  8
0
 62
   249
 10
214.168269
 20
4.483027
 30
0.0
 11
215.125705
 21
5.440464
 31
0.0
  0
LINE
  8
0
 62
   249
 10
214.168269
 20
4.606771
 30
0.0
 11
215.001962
 21
5.440464
 31
0.0
  0
LINE
  8
0
 62
   249
 10
214.168269
 20
4.730514
 30
0.0
 11
214.878218
 21
5.440464
 31
0.0
  0
LINE
  8
0
 62
   249
 10
214.168269
 20
4.854258
 30
0.0
 11
214.754474
 21
5.440464
 31
0.0
  0
LINE
  8
0
 62
   249
 10
214.168269
 20
4.978002
 30
0.0
 11
214.630731
 21
5.440464
 31
0.0
  0
LINE
  8
0
 62
   249
 10
214.168269
 20
5.101746
 30
0.0
 11
214.506987
 21
5.440464
 31
0.0
  0
LINE
  8
0
 62
   249
 10
214.168269
 20
5.225489
 30
0.0
 11
214.383243
 21
5.440464
 31
0.0
  0
LINE
  8
0
 62
   249
 10
214.168269
 20
5.349233
 30
0.0
 11
214.2595
 21
5.440464
 31
0.0
  0
LINE
  8
0
 62
   249
 10
215.379608
 20
3.219493
 30
0.0
 11
216.675905
 21
4.515789
 31
0.0
  0
LINE
  8
0
 62
   249
 10
215.41169
 20
3.127831
 30
0.0
 11
216.707986
 21
4.424127
 31
0.0
  0
LINE
  8
0
 62
   249
 10
215.443772
 20
3.036169
 30
0.0
 11
216.740068
 21
4.332465
 31
0.0
  0
LINE
  8
0
 62
   249
 10
215.475853
 20
2.944507
 30
0.0
 11
216.77215
 21
4.240803
 31
0.0
  0
LINE
  8
0
 62
   249
 10
215.507935
 20
2.852845
 30
0.0
 11
216.804231
 21
4.149141
 31
0.0
  0
LINE
  8
0
 62
   249
 10
215.540017
 20
2.761183
 30
0.0
 11
216.836313
 21
4.057479
 31
0.0
  0
LINE
  8
0
 62
   249
 10
215.572098
 20
2.669521
 30
0.0
 11
216.868395
 21
3.965817
 31
0.0
  0
LINE
  8
0
 62
   249
 10
215.60418
 20
2.577859
 30
0.0
 11
216.900476
 21
3.874156
 31
0.0
  0
LINE
  8
0
 62
   249
 10
215.636262
 20
2.486197
 30
0.0
 11
216.932558
 21
3.782494
 31
0.0
  0
LINE
  8
0
 62
   249
 10
215.668344
 20
2.394535
 30
0.0
 11
216.96464
 21
3.690832
 31
0.0
  0
LINE
  8
0
 62
   249
 10
215.700425
 20
2.302873
 30
0.0
 11
216.996722
 21
3.59917
 31
0.0
  0
LINE
  8
0
 62
   249
 10
215.732507
 20
2.211211
 30
0.0
 11
217.028803
 21
3.507508
 31
0.0
  0
LINE
  8
0
 62
   249
 10
215.764589
 20
2.119549
 30
0.0
 11
217.060885
 21
3.415846
 31
0.0
  0
LINE
  8
0
 62
   249
 10
215.849247
 20
2.080464
 30
0.0
 11
217.092967
 21
3.324184
 31
0.0
  0
LINE
  8
0
 62
   249
 10
215.972991
 20
2.080464
 30
0.0
 11
217.125048
 21
3.232522
 31
0.0
  0
LINE
  8
0
 62
   249
 10
216.096734
 20
2.080464
 30
0.0
 11
217.15713
 21
3.14086
 31
0.0
  0
LINE
  8
0
 62
   249
 10
216.220478
 20
2.080464
 30
0.0
 11
217.189212
 21
3.049198
 31
0.0
  0
LINE
  8
0
 62
   249
 10
216.344222
 20
2.080464
 30
0.0
 11
217.221293
 21
2.957536
 31
0.0
  0
LINE
  8
0
 62
   249
 10
216.467965
 20
2.080464
 30
0.0
 11
217.253375
 21
2.865874
 31
0.0
  0
LINE
  8
0
 62
   249
 10
216.591709
 20
2.080464
 30
0.0
 11
217.285457
 21
2.774212
 31
0.0
  0
LINE
  8
0
 62
   249
 10
216.715453
 20
2.080464
 30
0.0
 11
217.317539
 21
2.68255
 31
0.0
  0
LINE
  8
0
 62
   249
 10
216.839197
 20
2.080464
 30
0.0
 11
217.34962
 21
2.590888
 31
0.0
  0
LINE
  8
0
 62
   249
 10
216.96294
 20
2.080464
 30
0.0
 11
217.381702
 21
2.499226
 31
0.0
  0
LINE
  8
0
 62
   249
 10
217.086684
 20
2.080464
 30
0.0
 11
217.413784
 21
2.407564
 31
0.0
  0
LINE
  8
0
 62
   249
 10
217.210428
 20
2.080464
 30
0.0
 11
217.445865
 21
2.315902
 31
0.0
  0
LINE
  8
0
 62
   249
 10
217.334171
 20
2.080464
 30
0.0
 11
217.477947
 21
2.22424
 31
0.0
  0
LINE
  8
0
 62
   249
 10
217.457915
 20
2.080464
 30
0.0
 11
217.510029
 21
2.132578
 31
0.0
  0
LINE
  8
0
 62
   249
 10
223.478269
 20
2.888305
 30
0.0
 11
225.438269
 21
4.848305
 31
0.0
  0
LINE
  8
0
 62
   249
 10
223.478269
 20
3.012049
 30
0.0
 11
225.438269
 21
4.972049
 31
0.0
  0
LINE
  8
0
 62
   249
 10
223.478269
 20
3.135792
 30
0.0
 11
225.438269
 21
5.095792
 31
0.0
  0
LINE
  8
0
 62
   249
 10
223.478269
 20
3.259536
 30
0.0
 11
225.438269
 21
5.219536
 31
0.0
  0
LINE
  8
0
 62
   249
 10
223.478269
 20
3.38328
 30
0.0
 11
225.438269
 21
5.34328
 31
0.0
  0
LINE
  8
0
 62
   249
 10
223.478269
 20
3.507023
 30
0.0
 11
225.411709
 21
5.440464
 31
0.0
  0
LINE
  8
0
 62
   249
 10
223.478269
 20
3.630767
 30
0.0
 11
225.287965
 21
5.440464
 31
0.0
  0
LINE
  8
0
 62
   249
 10
223.478269
 20
3.754511
 30
0.0
 11
225.164222
 21
5.440464
 31
0.0
  0
LINE
  8
0
 62
   249
 10
223.478269
 20
3.878254
 30
0.0
 11
225.040478
 21
5.440464
 31
0.0
  0
LINE
  8
0
 62
   249
 10
223.478269
 20
4.001998
 30
0.0
 11
224.916734
 21
5.440464
 31
0.0
  0
LINE
  8
0
 62
   249
 10
223.478269
 20
4.125742
 30
0.0
 11
224.792991
 21
5.440464
 31
0.0
  0
LINE
  8
0
 62
   249
 10
223.478269
 20
4.249485
 30
0.0
 11
224.669247
 21
5.440464
 31
0.0
  0
LINE
  8
0
 62
   249
 10
223.478269
 20
4.373229
 30
0.0
 11
224.545503
 21
5.440464
 31
0.0
  0
LINE
  8
0
 62
   249
 10
223.478269
 20
4.496973
 30
0.0
 11
224.42176
 21
5.440464
 31
0.0
  0
LINE
  8
0
 62
   249
 10
223.478269
 20
4.620716
 30
0.0
 11
224.298016
 21
5.440464
 31
0.0
  0
LINE
  8
0
 62
   249
 10
223.478269
 20
4.74446
 30
0.0
 11
224.174272
 21
5.440464
 31
0.0
  0
LINE
  8
0
 62
   249
 10
223.478269
 20
4.868204
 30
0.0
 11
224.050529
 21
5.440464
 31
0.0
  0
LINE
  8
0
 62
   249
 10
223.478269
 20
4.991948
 30
0.0
 11
223.926785
 21
5.440464
 31
0.0
  0
LINE
  8
0
 62
   249
 10
223.478269
 20
5.115691
 30
0.0
 11
223.803041
 21
5.440464
 31
0.0
  0
LINE
  8
0
 62
   249
 10
223.478269
 20
5.239435
 30
0.0
 11
223.679298
 21
5.440464
 31
0.0
  0
LINE
  8
0
 62
   249
 10
223.478269
 20
5.363179
 30
0.0
 11
223.555554
 21
5.440464
 31
0.0
  0
LINE
  8
0
 62
   249
 10
223.478269
 20
2.764561
 30
0.0
 11
225.438269
 21
4.724561
 31
0.0
  0
LINE
  8
0
 62
   249
 10
223.478269
 20
2.640817
 30
0.0
 11
225.438269
 21
4.600817
 31
0.0
  0
LINE
  8
0
 62
   249
 10
223.478269
 20
2.517074
 30
0.0
 11
225.438269
 21
4.477074
 31
0.0
  0
LINE
  8
0
 62
   249
 10
223.478269
 20
2.39333
 30
0.0
 11
225.438269
 21
4.35333
 31
0.0
  0
LINE
  8
0
 62
   249
 10
223.478269
 20
2.269586
 30
0.0
 11
225.438269
 21
4.229586
 31
0.0
  0
LINE
  8
0
 62
   249
 10
223.478269
 20
2.145843
 30
0.0
 11
225.438269
 21
4.105843
 31
0.0
  0
LINE
  8
0
 62
   249
 10
223.536633
 20
2.080464
 30
0.0
 11
225.438269
 21
3.982099
 31
0.0
  0
LINE
  8
0
 62
   249
 10
223.660377
 20
2.080464
 30
0.0
 11
225.438269
 21
3.858355
 31
0.0
  0
LINE
  8
0
 62
   249
 10
223.784121
 20
2.080464
 30
0.0
 11
225.438269
 21
3.734612
 31
0.0
  0
LINE
  8
0
 62
   249
 10
223.907864
 20
2.080464
 30
0.0
 11
225.438269
 21
3.610868
 31
0.0
  0
LINE
  8
0
 62
   249
 10
224.031608
 20
2.080464
 30
0.0
 11
225.438269
 21
3.487124
 31
0.0
  0
LINE
  8
0
 62
   249
 10
224.155352
 20
2.080464
 30
0.0
 11
225.438269
 21
3.363381
 31
0.0
  0
LINE
  8
0
 62
   249
 10
224.279096
 20
2.080464
 30
0.0
 11
225.438269
 21
3.239637
 31
0.0
  0
LINE
  8
0
 62
   249
 10
224.402839
 20
2.080464
 30
0.0
 11
225.438269
 21
3.115893
 31
0.0
  0
LINE
  8
0
 62
   249
 10
224.526583
 20
2.080464
 30
0.0
 11
225.438269
 21
2.99215
 31
0.0
  0
LINE
  8
0
 62
   249
 10
224.650327
 20
2.080464
 30
0.0
 11
225.438269
 21
2.868406
 31
0.0
  0
LINE
  8
0
 62
   249
 10
224.77407
 20
2.080464
 30
0.0
 11
225.438269
 21
2.744662
 31
0.0
  0
LINE
  8
0
 62
   249
 10
224.897814
 20
2.080464
 30
0.0
 11
225.438269
 21
2.620919
 31
0.0
  0
LINE
  8
0
 62
   249
 10
225.021558
 20
2.080464
 30
0.0
 11
225.438269
 21
2.497175
 31
0.0
  0
LINE
  8
0
 62
   249
 10
225.145301
 20
2.080464
 30
0.0
 11
225.438269
 21
2.373431
 31
0.0
  0
LINE
  8
0
 62
   249
 10
225.269045
 20
2.080464
 30
0.0
 11
225.438269
 21
2.249687
 31
0.0
  0
LINE
  8
0
 62
   249
 10
225.392789
 20
2.080464
 30
0.0
 11
225.438269
 21
2.125944
 31
0.0
  0
LINE
  8
0
 62
   249
 10
220.258269
 20
2.653431
 30
0.0
 11
222.705783
 21
5.100946
 31
0.0
  0
LINE
  8
0
 62
   249
 10
220.258269
 20
2.777175
 30
0.0
 11
222.663716
 21
5.182623
 31
0.0
  0
LINE
  8
0
 62
   249
 10
220.258269
 20
2.900919
 30
0.0
 11
222.618723
 21
5.261373
 31
0.0
  0
LINE
  8
0
 62
   249
 10
220.258269
 20
3.024662
 30
0.0
 11
222.570905
 21
5.337298
 31
0.0
  0
LINE
  8
0
 62
   249
 10
220.258269
 20
3.148406
 30
0.0
 11
222.520343
 21
5.410481
 31
0.0
  0
LINE
  8
0
 62
   249
 10
220.258269
 20
3.27215
 30
0.0
 11
222.426583
 21
5.440464
 31
0.0
  0
LINE
  8
0
 62
   249
 10
220.258269
 20
3.395893
 30
0.0
 11
222.302839
 21
5.440464
 31
0.0
  0
LINE
  8
0
 62
   249
 10
220.258269
 20
3.519637
 30
0.0
 11
222.179096
 21
5.440464
 31
0.0
  0
LINE
  8
0
 62
   249
 10
220.258269
 20
3.643381
 30
0.0
 11
222.055352
 21
5.440464
 31
0.0
  0
LINE
  8
0
 62
   249
 10
220.258269
 20
3.767124
 30
0.0
 11
221.931608
 21
5.440464
 31
0.0
  0
LINE
  8
0
 62
   249
 10
220.258269
 20
3.890868
 30
0.0
 11
221.807864
 21
5.440464
 31
0.0
  0
LINE
  8
0
 62
   249
 10
220.258269
 20
4.014612
 30
0.0
 11
221.684121
 21
5.440464
 31
0.0
  0
LINE
  8
0
 62
   249
 10
220.258269
 20
4.138355
 30
0.0
 11
221.560377
 21
5.440464
 31
0.0
  0
LINE
  8
0
 62
   249
 10
220.258269
 20
4.262099
 30
0.0
 11
221.436633
 21
5.440464
 31
0.0
  0
LINE
  8
0
 62
   249
 10
220.258269
 20
4.385843
 30
0.0
 11
221.31289
 21
5.440464
 31
0.0
  0
LINE
  8
0
 62
   249
 10
220.258269
 20
4.509586
 30
0.0
 11
221.189146
 21
5.440464
 31
0.0
  0
LINE
  8
0
 62
   249
 10
220.258269
 20
4.63333
 30
0.0
 11
221.065402
 21
5.440464
 31
0.0
  0
LINE
  8
0
 62
   249
 10
220.258269
 20
4.757074
 30
0.0
 11
220.941659
 21
5.440464
 31
0.0
  0
LINE
  8
0
 62
   249
 10
220.258269
 20
4.880817
 30
0.0
 11
220.817915
 21
5.440464
 31
0.0
  0
LINE
  8
0
 62
   249
 10
220.258269
 20
5.004561
 30
0.0
 11
220.694171
 21
5.440464
 31
0.0
  0
LINE
  8
0
 62
   249
 10
220.258269
 20
5.128305
 30
0.0
 11
220.570428
 21
5.440464
 31
0.0
  0
LINE
  8
0
 62
   249
 10
220.258269
 20
5.252049
 30
0.0
 11
220.446684
 21
5.440464
 31
0.0
  0
LINE
  8
0
 62
   249
 10
220.258269
 20
5.375792
 30
0.0
 11
220.32294
 21
5.440464
 31
0.0
  0
LINE
  8
0
 62
   249
 10
220.258269
 20
2.529687
 30
0.0
 11
222.744798
 21
5.016217
 31
0.0
  0
LINE
  8
0
 62
   249
 10
220.258269
 20
2.405944
 30
0.0
 11
222.780606
 21
4.928281
 31
0.0
  0
LINE
  8
0
 62
   249
 10
220.258269
 20
2.2822
 30
0.0
 11
222.813018
 21
4.83695
 31
0.0
  0
LINE
  8
0
 62
   249
 10
220.258269
 20
2.158456
 30
0.0
 11
222.841802
 21
4.74199
 31
0.0
  0
LINE
  8
0
 62
   249
 10
220.30402
 20
2.080464
 30
0.0
 11
222.866671
 21
4.643115
 31
0.0
  0
LINE
  8
0
 62
   249
 10
220.427764
 20
2.080464
 30
0.0
 11
222.887268
 21
4.539968
 31
0.0
  0
LINE
  8
0
 62
   249
 10
220.551508
 20
2.080465
 30
0.0
 11
222.903138
 21
4.432095
 31
0.0
  0
LINE
  8
0
 62
   249
 10
220.675252
 20
2.080465
 30
0.0
 11
222.9137
 21
4.318913
 31
0.0
  0
LINE
  8
0
 62
   249
 10
220.798996
 20
2.080465
 30
0.0
 11
222.918181
 21
4.19965
 31
0.0
  0
LINE
  8
0
 62
   249
 10
220.925477
 20
2.083202
 30
0.0
 11
222.91553
 21
4.073256
 31
0.0
  0
LINE
  8
0
 62
   249
 10
221.060499
 20
2.094481
 30
0.0
 11
222.904251
 21
3.938233
 31
0.0
  0
LINE
  8
0
 62
   249
 10
221.206407
 20
2.116645
 30
0.0
 11
222.882088
 21
3.792326
 31
0.0
  0
LINE
  8
0
 62
   249
 10
221.366902
 20
2.153397
 30
0.0
 11
222.845336
 21
3.63183
 31
0.0
  0
LINE
  8
0
 62
   249
 10
221.548919
 20
2.21167
 30
0.0
 11
222.787063
 21
3.449814
 31
0.0
  0
LINE
  8
0
 62
   249
 10
221.768991
 20
2.307999
 30
0.0
 11
222.690734
 21
3.229741
 31
0.0
  0
LINE
  8
0
 62
   249
 10
222.10762
 20
2.522883
 30
0.0
 11
222.475849
 21
2.891113
 31
0.0
  0
LINE
  8
0
  6
CONTINUOUS
 62
   249
 10
262.5
 20
42.8125
 30
0.0
 11
262.5
 21
41.119662
 31
0.0
  0
LINE
  8
0
  6
CONTINUOUS
 62
   249
 10
260.987215
 20
41.119662
 30
0.0
 11
262.480142
 21
41.119662
 31
0.0
  0
LINE
  8
0
  6
CONTINUOUS
 62
   249
 10
262.480142
 20
41.119662
 30
0.0
 11
263.973068
 21
41.119662
 31
0.0
  0
LINE
  8
0
  6
CONTINUOUS
 62
   249
 10
261.460222
 20
40.520149
 30
0.0
 11
263.440936
 21
40.520149
 31
0.0
  0
LINE
  8
0
  6
CONTINUOUS
 62
   249
 10
261.874102
 20
39.909931
 30
0.0
 11
262.982711
 21
39.909931
 31
0.0
  0
LINE
  8
0
  6
CONTINUOUS
 62
   249
 10
262.5
 20
70.0
 30
0.0
 11
262.5
 21
55.0
 31
0.0
  0
LINE
  8
0
  6
CONTINUOUS
 62
   249
 10
257.5
 20
70.0
 30
0.0
 11
267.5
 21
70.0
 31
0.0
  0
LINE
  8
0
  6
CONTINUOUS
 62
   249
 10
267.5
 20
70.0
 30
0.0
 11
270.0
 21
72.5
 31
0.0
  0
LINE
  8
0
  6
CONTINUOUS
 62
   249
 10
262.5
 20
70.0
 30
0.0
 11
265.0
 21
72.5
 31
0.0
  0
LINE
  8
0
  6
CONTINUOUS
 62
   249
 10
257.5
 20
70.0
 30
0.0
 11
260.0
 21
72.5
 31
0.0
  0
LINE
  8
0
  6
CONTINUOUS
 62
   249
 10
243.548993
 20
116.164646
 30
0.0
 11
241.203228
 21
117.5
 31
0.0
  0
LINE
  8
0
  6
CONTINUOUS
 62
   249
 10
241.203228
 20
117.5
 30
0.0
 11
243.548993
 21
118.689919
 31
0.0
  0
ARC
  8
0
  6
CONTINUOUS
 62
   249
 10
265.0
 20
87.5
 30
0.0
 40
0.5
 50
180.0
 51
0.0
  0
ARC
  8
0
  6
CONTINUOUS
 62
   249
 10
265.0
 20
87.5
 30
0.0
 40
0.5
 50
0.0
 51
180.0
  0
ARC
  8
0
  6
CONTINUOUS
 62
   249
 10
260.0
 20
85.0
 30
0.0
 40
0.5
 50
180.0
 51
0.0
  0
ARC
  8
0
  6
CONTINUOUS
 62
   249
 10
260.0
 20
85.0
 30
0.0
 40
0.5
 50
0.0
 51
180.0
  0
ARC
  8
0
  6
DASHED
 62
   249
 10
333.75
 20
120.0
 30
0.0
 40
0.5
 50
180.0
 51
0.0
  0
ARC
  8
0
  6
DASHED
 62
   249
 10
333.75
 20
120.0
 30
0.0
 40
0.5
 50
0.0
 51
180.0
  0
ARC
  8
0
  6
CONTINUOUS
 62
   249
 10
237.5
 20
132.5
 30
0.0
 40
0.5
 50
180.0
 51
0.0
  0
ARC
  8
0
  6
CONTINUOUS
 62
   249
 10
237.5
 20
132.5
 30
0.0
 40
0.5
 50
0.0
 51
180.0
  0
LINE
  8
0
  6
CONTINUOUS
 62
   249
 10
243.548993
 20
166.164646
 30
0.0
 11
241.203228
 21
167.5
 31
0.0
  0
LINE
  8
0
  6
CONTINUOUS
 62
   249
 10
241.203228
 20
167.5
 30
0.0
 11
243.548993
 21
168.689919
 31
0.0
  0
ARC
  8
0
  6
CONTINUOUS
 62
   249
 10
233.75
 20
167.5
 30
0.0
 40
0.5
 50
180.0
 51
0.0
  0
ARC
  8
0
  6
CONTINUOUS
 62
   249
 10
233.75
 20
167.5
 30
0.0
 40
0.5
 50
0.0
 51
180.0
  0
LINE
  8
0
  6
CONTINUOUS
 62
   249
 10
243.548993
 20
226.164646
 30
0.0
 11
241.203228
 21
227.5
 31
0.0
  0
LINE
  8
0
  6
CONTINUOUS
 62
   249
 10
241.203228
 20
227.5
 30
0.0
 11
243.548993
 21
228.689919
 31
0.0
  0
ARC
  8
0
  6
CONTINUOUS
 62
   249
 10
228.75
 20
227.5
 30
0.0
 40
0.5
 50
180.0
 51
0.0
  0
ARC
  8
0
  6
CONTINUOUS
 62
   249
 10
228.75
 20
227.5
 30
0.0
 40
0.5
 50
0.0
 51
180.0
  0
ARC
  8
0
  6
DASHED
 62
   249
 10
333.75
 20
135.0
 30
0.0
 40
0.5
 50
180.0
 51
0.0
  0
ARC
  8
0
  6
DASHED
 62
   249
 10
333.75
 20
135.0
 30
0.0
 40
0.5
 50
0.0
 51
180.0
  0
ARC
  8
0
  6
DASHED
 62
   249
 10
333.75
 20
140.0
 30
0.0
 40
0.5
 50
180.0
 51
0.0
  0
ARC
  8
0
  6
DASHED
 62
   249
 10
333.75
 20
140.0
 30
0.0
 40
0.5
 50
0.0
 51
180.0
  0
ARC
  8
0
  6
DASHED
 62
   249
 10
333.75
 20
145.0
 30
0.0
 40
0.5
 50
180.0
 51
0.0
  0
ARC
  8
0
  6
DASHED
 62
   249
 10
333.75
 20
145.0
 30
0.0
 40
0.5
 50
0.0
 51
180.0
  0
ARC
  8
0
  6
DASHED
 62
   249
 10
333.75
 20
150.0
 30
0.0
 40
0.5
 50
180.0
 51
0.0
  0
ARC
  8
0
  6
DASHED
 62
   249
 10
333.75
 20
150.0
 30
0.0
 40
0.5
 50
0.0
 51
180.0
  0
ARC
  8
0
  6
DASHED
 62
   249
 10
333.75
 20
155.0
 30
0.0
 40
0.5
 50
180.0
 51
0.0
  0
ARC
  8
0
  6
DASHED
 62
   249
 10
333.75
 20
155.0
 30
0.0
 40
0.5
 50
0.0
 51
180.0
  0
ARC
  8
0
  6
DASHED
 62
   249
 10
333.75
 20
160.0
 30
0.0
 40
0.5
 50
180.0
 51
0.0
  0
ARC
  8
0
  6
DASHED
 62
   249
 10
333.75
 20
160.0
 30
0.0
 40
0.5
 50
0.0
 51
180.0
  0
ARC
  8
0
  6
DASHED
 62
   249
 10
333.75
 20
165.0
 30
0.0
 40
0.5
 50
180.0
 51
0.0
  0
ARC
  8
0
  6
DASHED
 62
   249
 10
333.75
 20
165.0
 30
0.0
 40
0.5
 50
0.0
 51
180.0
  0
ARC
  8
0
  6
DASHED
 62
   249
 10
333.75
 20
170.0
 30
0.0
 40
0.5
 50
180.0
 51
0.0
  0
ARC
  8
0
  6
DASHED
 62
   249
 10
333.75
 20
170.0
 30
0.0
 40
0.5
 50
0.0
 51
180.0
  0
ARC
  8
0
  6
DASHED
 62
   249
 10
333.75
 20
175.0
 30
0.0
 40
0.5
 50
180.0
 51
0.0
  0
ARC
  8
0
  6
DASHED
 62
   249
 10
333.75
 20
175.0
 30
0.0
 40
0.5
 50
0.0
 51
180.0
  0
ARC
  8
0
  6
DASHED
 62
   249
 10
333.75
 20
180.0
 30
0.0
 40
0.5
 50
180.0
 51
0.0
  0
ARC
  8
0
  6
DASHED
 62
   249
 10
333.75
 20
180.0
 30
0.0
 40
0.5
 50
0.0
 51
180.0
  0
ARC
  8
0
  6
DASHED
 62
   249
 10
333.75
 20
195.0
 30
0.0
 40
0.5
 50
180.0
 51
0.0
  0
ARC
  8
0
  6
DASHED
 62
   249
 10
333.75
 20
195.0
 30
0.0
 40
0.5
 50
0.0
 51
180.0
  0
ARC
  8
0
  6
DASHED
 62
   249
 10
333.75
 20
210.0
 30
0.0
 40
0.5
 50
180.0
 51
0.0
  0
ARC
  8
0
  6
DASHED
 62
   249
 10
333.75
 20
210.0
 30
0.0
 40
0.5
 50
0.0
 51
180.0
  0
ARC
  8
0
  6
DASHED
 62
   249
 10
333.75
 20
205.0
 30
0.0
 40
0.5
 50
180.0
 51
0.0
  0
ARC
  8
0
  6
DASHED
 62
   249
 10
333.75
 20
205.0
 30
0.0
 40
0.5
 50
0.0
 51
180.0
  0
ARC
  8
0
  6
DASHED
 62
   249
 10
333.75
 20
200.0
 30
0.0
 40
0.5
 50
180.0
 51
0.0
  0
ARC
  8
0
  6
DASHED
 62
   249
 10
333.75
 20
200.0
 30
0.0
 40
0.5
 50
0.0
 51
180.0
  0
ARC
  8
0
  6
DASHED
 62
   249
 10
333.75
 20
235.0
 30
0.0
 40
0.5
 50
180.0
 51
0.0
  0
ARC
  8
0
  6
DASHED
 62
   249
 10
333.75
 20
235.0
 30
0.0
 40
0.5
 50
0.0
 51
180.0
  0
ARC
  8
0
  6
DASHED
 62
   249
 10
333.75
 20
230.0
 30
0.0
 40
0.5
 50
180.0
 51
0.0
  0
ARC
  8
0
  6
DASHED
 62
   249
 10
333.75
 20
230.0
 30
0.0
 40
0.5
 50
0.0
 51
180.0
  0
ARC
  8
0
  6
DASHED
 62
   249
 10
333.75
 20
225.0
 30
0.0
 40
0.5
 50
180.0
 51
0.0
  0
ARC
  8
0
  6
DASHED
 62
   249
 10
333.75
 20
225.0
 30
0.0
 40
0.5
 50
0.0
 51
180.0
  0
ARC
  8
0
  6
DASHED
 62
   249
 10
333.75
 20
220.0
 30
0.0
 40
0.5
 50
180.0
 51
0.0
  0
ARC
  8
0
  6
DASHED
 62
   249
 10
333.75
 20
220.0
 30
0.0
 40
0.5
 50
0.0
 51
180.0
  0
ARC
  8
0
  6
DASHED
 62
   249
 10
333.75
 20
215.0
 30
0.0
 40
0.5
 50
180.0
 51
0.0
  0
ARC
  8
0
  6
DASHED
 62
   249
 10
333.75
 20
215.0
 30
0.0
 40
0.5
 50
0.0
 51
180.0
  0
ARC
  8
0
  6
DASHED
 62
   249
 10
333.75
 20
240.0
 30
0.0
 40
0.5
 50
180.0
 51
0.0
  0
ARC
  8
0
  6
DASHED
 62
   249
 10
333.75
 20
240.0
 30
0.0
 40
0.5
 50
0.0
 51
180.0
  0
ENDSEC
  0
EOF
