  0
SECTION
  2
HEADER
  9
$ACADVER
  1
AC1009
  9
$DWGCODEPAGE
  3
iso8859-1
  9
$INSBASE
 10
0.0
 20
0.0
 30
0.0
  9
$EXTMIN
 10
1.0E20
 20
1.0E20
  9
$EXTMAX
 10
-1.0E20
 20
-1.0E20
  9
$LIMMIN
 10
0.0
 20
0.0
  9
$LIMMAX
 10
12.0
 20
9.0
  9
$ORTHOMODE
 70
     0
  9
$REGENMODE
 70
     1
  9
$FILLMODE
 70
     1
  9
$QTEXTMODE
 70
     0
  9
$MIRRTEXT
 70
     1
  9
$DRAGMODE
 70
     2
  9
$LTSCALE
 40
15.0
  9
$OSMODE
 70
     0
  9
$ATTMODE
 70
     1
  9
$TEXTSIZE
 40
0.2
  9
$TRACEWID
 40
0.05
  9
$TEXTSTYLE
  7
STANDARD
  9
$CLAYER
  8
0
  9
$CELTYPE
  6
DASHED
  9
$CECOLOR
 62
   256
  9
$DIMSCALE
 40
1.0
  9
$DIMASZ
 40
0.18
  9
$DIMEXO
 40
0.0625
  9
$DIMDLI
 40
0.38
  9
$DIMRND
 40
0.0
  9
$DIMDLE
 40
0.0
  9
$DIMEXE
 40
0.18
  9
$DIMTP
 40
0.0
  9
$DIMTM
 40
0.0
  9
$DIMTXT
 40
0.18
  9
$DIMCEN
 40
0.09
  9
$DIMTSZ
 40
0.0
  9
$DIMTOL
 70
     0
  9
$DIMLIM
 70
     0
  9
$DIMTIH
 70
     1
  9
$DIMTOH
 70
     1
  9
$DIMSE1
 70
     0
  9
$DIMSE2
 70
     0
  9
$DIMTAD
 70
     0
  9
$DIMZIN
 70
     0
  9
$DIMBLK
  1

  9
$DIMASO
 70
     1
  9
$DIMSHO
 70
     1
  9
$DIMPOST
  1

  9
$DIMAPOST
  1

  9
$DIMALT
 70
     0
  9
$DIMALTD
 70
     2
  9
$DIMALTF
 40
25.4
  9
$DIMLFAC
 40
1.0
  9
$DIMTOFL
 70
     0
  9
$DIMTVP
 40
0.0
  9
$DIMTIX
 70
     0
  9
$DIMSOXD
 70
     0
  9
$DIMSAH
 70
     0
  9
$DIMBLK1
  1

  9
$DIMBLK2
  1

  9
$DIMSTYLE
  2
STANDARD
  9
$DIMCLRD
 70
     0
  9
$DIMCLRE
 70
     0
  9
$DIMCLRT
 70
     0
  9
$DIMTFAC
 40
1.0
  9
$DIMGAP
 40
0.09
  9
$LUNITS
 70
     2
  9
$LUPREC
 70
     4
  9
$AXISMODE
 70
     0
  9
$AXISUNIT
 10
0.0
 20
0.0
  9
$SKETCHINC
 40
0.1
  9
$FILLETRAD
 40
0.0
  9
$AUNITS
 70
     0
  9
$AUPREC
 70
     0
  9
$MENU
  1
acad
  9
$ELEVATION
 40
0.0
  9
$PELEVATION
 40
0.0
  9
$THICKNESS
 40
0.0
  9
$LIMCHECK
 70
     0
  9
$BLIPMODE
 70
     1
  9
$CHAMFERA
 40
0.0
  9
$CHAMFERB
 40
0.0
  9
$SKPOLY
 70
     0
  9
$TDCREATE
 40
0.000000000
  9
$TDUPDATE
 40
0.000000000
  9
$TDINDWG
 40
0.0
  9
$TDUSRTIMER
 40
0.0
  9
$USRTIMER
 70
     1
  9
$ANGBASE
 50
0.0
  9
$ANGDIR
 70
     0
  9
$PDMODE
 70
     0
  9
$PDSIZE
 40
0.0
  9
$PLINEWID
 40
0.0
  9
$COORDS
 70
     1
  9
$SPLFRAME
 70
     0
  9
$SPLINETYPE
 70
     6
  9
$SPLINESEGS
 70
     8
  9
$ATTDIA
 70
     0
  9
$ATTREQ
 70
     1
  9
$HANDLING
 70
     1
  9
$HANDSEED
  5
   6FD
  9
$SURFTAB1
 70
     6
  9
$SURFTAB2
 70
     6
  9
$SURFTYPE
 70
     6
  9
$SURFU
 70
     6
  9
$SURFV
 70
     6
  9
$UCSNAME
  2

  9
$UCSORG
 10
0.0
 20
0.0
 30
0.0
  9
$UCSXDIR
 10
1.0
 20
0.0
 30
0.0
  9
$UCSYDIR
 10
0.0
 20
1.0
 30
0.0
  9
$PUCSNAME
  2

  9
$PUCSORG
 10
0.0
 20
0.0
 30
0.0
  9
$PUCSXDIR
 10
1.0
 20
0.0
 30
0.0
  9
$PUCSYDIR
 10
0.0
 20
1.0
 30
0.0
  9
$USERI1
 70
     0
  9
$USERI2
 70
     0
  9
$USERI3
 70
     0
  9
$USERI4
 70
     0
  9
$USERI5
 70
     0
  9
$USERR1
 40
0.0
  9
$USERR2
 40
0.0
  9
$USERR3
 40
0.0
  9
$USERR4
 40
0.0
  9
$USERR5
 40
0.0
  9
$WORLDVIEW
 70
     1
  9
$SHADEDGE
 70
     3
  9
$SHADEDIF
 70
    70
  9
$TILEMODE
 70
     1
  9
$MAXACTVP
 70
    16
  9
$PINSBASE
 10
0.0
 20
0.0
 30
0.0
  9
$PLIMCHECK
 70
     0
  9
$PEXTMIN
 10
1.0E20
 20
1.0E20
 30
1.0E20
  9
$PEXTMAX
 10
-1.0E20
 20
-1.0E20
 30
-1.0E20
  9
$PLIMMIN
 10
0.0
 20
0.0
  9
$PLIMMAX
 10
12.0
 20
9.0
  9
$UNITMODE
 70
     0
  9
$VISRETAIN
 70
     0
  0
ENDSEC
  0
SECTION
  2
TABLES
  0
TABLE
  2
VPORT
 70
     1
  0
VPORT
  2
*ACTIVE
 70
     0
 10
0.0
 20
0.0
 11
1.0
 21
1.0
 12
6.801242
 22
4.5
 13
0.0
 23
0.0
 14
1.0
 24
1.0
 15
0.0
 25
0.0
 16
0.0
 26
0.0
 36
1.0
 17
0.0
 27
0.0
 37
0.0
 40
9.0
 41
1.511387
 42
50.0
 43
0.0
 44
0.0
 50
0.0
 51
0.0
 71
     0
 72
   100
 73
     1
 74
     1
 75
     0
 76
     0
 77
     0
 78
     0
  0
ENDTAB
  0
TABLE
  2
LTYPE
 70
    41
  0
LTYPE
  2
BYBLOCK
 70
     0
  3

 72
    65
 73
     0
 40
0.0
  0
LTYPE
  2
BYLAYER
 70
     0
  3

 72
    65
 73
     0
 40
0.0
  0
LTYPE
  2
CONTINUOUS
 70
     0
  3
Solid line
 72
    65
 73
     0
 40
0.0
  0
LTYPE
  2
BORDER
 70
    64
  3
__ __ . __ __ . __ __ . __ __ . __ __ . __ __ .
 72
    65
 73
     6
 40
1.75
 49
0.5
 49
-0.25
 49
0.5
 49
-0.25
 49
0.0
 49
-0.25
  0
LTYPE
  2
BORDER2
 70
    64
  3
__.__.__.__.__.__.__.__.__.__.__.__.__.__.__.__
 72
    65
 73
     6
 40
0.875
 49
0.25
 49
-0.125
 49
0.25
 49
-0.125
 49
0.0
 49
-0.125
  0
LTYPE
  2
BORDERX2
 70
    64
  3
____  ____  .  ____  ____  .  ____  ____  .  __
 72
    65
 73
     6
 40
3.5
 49
1.0
 49
-0.5
 49
1.0
 49
-0.5
 49
0.0
 49
-0.5
  0
LTYPE
  2
CENTER
 70
    64
  3
____ _ ____ _ ____ _ ____ _ ____ _ ____ _ ____
 72
    65
 73
     4
 40
2.0
 49
1.25
 49
-0.25
 49
0.25
 49
-0.25
  0
LTYPE
  2
CENTER2
 70
    64
  3
___ _ ___ _ ___ _ ___ _ ___ _ ___ _ ___ _ ___ _
 72
    65
 73
     4
 40
1.125
 49
0.75
 49
-0.125
 49
0.125
 49
-0.125
  0
LTYPE
  2
CENTERX2
 70
    64
  3
________  __  ________  __  ________  __  _____
 72
    65
 73
     4
 40
4.0
 49
2.5
 49
-0.5
 49
0.5
 49
-0.5
  0
LTYPE
  2
DASHDOT
 70
    64
  3
__ . __ . __ . __ . __ . __ . __ . __ . __ . __
 72
    65
 73
     4
 40
1.0
 49
0.5
 49
-0.25
 49
0.0
 49
-0.25
  0
LTYPE
  2
DASHDOT2
 70
    64
  3
_._._._._._._._._._._._._._._._._._._._._._._._
 72
    65
 73
     4
 40
0.5
 49
0.25
 49
-0.125
 49
0.0
 49
-0.125
  0
LTYPE
  2
DASHDOTX2
 70
    64
  3
____  .  ____  .  ____  .  ____  .  ____  .  __
 72
    65
 73
     4
 40
2.0
 49
1.0
 49
-0.5
 49
0.0
 49
-0.5
  0
LTYPE
  2
DASHED
 70
    64
  3
__ __ __ __ __ __ __ __ __ __ __ __ __ __ __ __
 72
    65
 73
     2
 40
0.75
 49
0.5
 49
-0.25
  0
LTYPE
  2
DASHED2
 70
    64
  3
_ _ _ _ _ _ _ _ _ _ _ _ _ _ _ _ _ _ _ _ _ _ _ _
 72
    65
 73
     2
 40
0.375
 49
0.25
 49
-0.125
  0
LTYPE
  2
DASHEDX2
 70
    64
  3
____  ____  ____  ____  ____  ____  ____  ____
 72
    65
 73
     2
 40
1.5
 49
1.0
 49
-0.5
  0
LTYPE
  2
DIVIDE
 70
    64
  3
____ . . ____ . . ____ . . ____ . . ____ . . __
 72
    65
 73
     6
 40
1.25
 49
0.5
 49
-0.25
 49
0.0
 49
-0.25
 49
0.0
 49
-0.25
  0
LTYPE
  2
DIVIDE2
 70
    64
  3
__..__..__..__..__..__..__..__..__..__..__..__.
 72
    65
 73
     6
 40
0.625
 49
0.25
 49
-0.125
 49
0.0
 49
-0.125
 49
0.0
 49
-0.125
  0
LTYPE
  2
DIVIDEX2
 70
    64
  3
________  .  .  ________  .  .  ________  .  .
 72
    65
 73
     6
 40
2.5
 49
1.0
 49
-0.5
 49
0.0
 49
-0.5
 49
0.0
 49
-0.5
  0
LTYPE
  2
DOT
 70
    64
  3
. . . . . . . . . . . . . . . . . . . . . . . .
 72
    65
 73
     2
 40
0.25
 49
0.0
 49
-0.25
  0
LTYPE
  2
DOT2
 70
    64
  3
...............................................
 72
    65
 73
     2
 40
0.125
 49
0.0
 49
-0.125
  0
LTYPE
  2
DOTX2
 70
    64
  3
.  .  .  .  .  .  .  .  .  .  .  .  .  .  .  .
 72
    65
 73
     2
 40
0.5
 49
0.0
 49
-0.5
  0
LTYPE
  2
HIDDEN
 70
    64
  3
__ __ __ __ __ __ __ __ __ __ __ __ __ __ __ __
 72
    65
 73
     2
 40
0.375
 49
0.25
 49
-0.125
  0
LTYPE
  2
HIDDEN2
 70
    64
  3
_ _ _ _ _ _ _ _ _ _ _ _ _ _ _ _ _ _ _ _ _ _ _ _
 72
    65
 73
     2
 40
0.1875
 49
0.125
 49
-0.0625
  0
LTYPE
  2
HIDDENX2
 70
    64
  3
____ ____ ____ ____ ____ ____ ____ ____ ____ __
 72
    65
 73
     2
 40
0.75
 49
0.5
 49
-0.25
  0
LTYPE
  2
PHANTOM
 70
    64
  3
______  __  __  ______  __  __  ______  __  __
 72
    65
 73
     6
 40
2.5
 49
1.25
 49
-0.25
 49
0.25
 49
-0.25
 49
0.25
 49
-0.25
  0
LTYPE
  2
PHANTOM2
 70
    64
  3
___ _ _ ___ _ _ ___ _ _ ___ _ _ ___ _ _ ___ _ _
 72
    65
 73
     6
 40
1.25
 49
0.625
 49
-0.125
 49
0.125
 49
-0.125
 49
0.125
 49
-0.125
  0
LTYPE
  2
PHANTOMX2
 70
    64
  3
____________    ____    ____    ____________
 72
    65
 73
     6
 40
5.0
 49
2.5
 49
-0.5
 49
0.5
 49
-0.5
 49
0.5
 49
-0.5
  0
LTYPE
  2
ACAD_ISO02W100
 70
    64
  3
__ __ __ __ __ __ __ __ __ __ __ __ __ __ __ __
 72
    65
 73
     2
 40
15.0
 49
12.0
 49
-3.0
  0
LTYPE
  2
ACAD_ISO03W100
 70
    64
  3
__    __    __    __    __    __    __    __
 72
    65
 73
     2
 40
30.0
 49
12.0
 49
-18.0
  0
LTYPE
  2
ACAD_ISO04W100
 70
    64
  3
____ . ____ . ____ . ____ . ____ . ____ . ____
 72
    65
 73
     4
 40
30.5
 49
24.0
 49
-3.0
 49
0.5
 49
-3.0
  0
LTYPE
  2
ACAD_ISO05W100
 70
    64
  3
____ .. ____ .. ____ .. ____ .. ____ .. ____ ..
 72
    65
 73
     6
 40
34.0
 49
24.0
 49
-3.0
 49
0.5
 49
-3.0
 49
0.5
 49
-3.0
  0
LTYPE
  2
ACAD_ISO06W100
 70
    64
  3
____ ... ____ ... ____ ... ____ ... ____ ... __
 72
    65
 73
     8
 40
37.5
 49
24.0
 49
-3.0
 49
0.5
 49
-3.0
 49
0.5
 49
-3.0
 49
0.5
 49
-3.0
  0
LTYPE
  2
ACAD_ISO07W100
 70
    64
  3
. . . . . . . . . . . . . . . . . . . . . . . .
 72
    65
 73
     2
 40
3.5
 49
0.5
 49
-3.0
  0
LTYPE
  2
ACAD_ISO08W100
 70
    64
  3
____ __ ____ __ ____ __ ____ ____ __ __ ____ __
 72
    65
 73
     4
 40
36.0
 49
24.0
 49
-3.0
 49
6.0
 49
-3.0
  0
LTYPE
  2
ACAD_ISO09W100
 70
    64
  3
____ __ __ ____ __ __ ____ __ __ ____ __ __ ___
 72
    65
 73
     6
 40
45.0
 49
24.0
 49
-3.0
 49
6.0
 49
-3.0
 49
6.0
 49
-3.0
  0
LTYPE
  2
ACAD_ISO10W100
 70
    64
  3
__ . __ . __ . __ . __ . __ . __ . __ . __ . __
 72
    65
 73
     4
 40
18.5
 49
12.0
 49
-3.0
 49
0.5
 49
-3.0
  0
LTYPE
  2
ACAD_ISO11W100
 70
    64
  3
__ __ . __ __ . __ __ . __ __ . __ __ . __ __ .
 72
    65
 73
     6
 40
33.5
 49
12.0
 49
-3.0
 49
12.0
 49
-3.0
 49
0.5
 49
-3.0
  0
LTYPE
  2
ACAD_ISO12W100
 70
    64
  3
__ . . __ . . __ . . __ . . __ . . __ . . __ .
 72
    65
 73
     6
 40
22.0
 49
12.0
 49
-3.0
 49
0.5
 49
-3.0
 49
0.5
 49
-3.0
  0
LTYPE
  2
ACAD_ISO13W100
 70
    64
  3
__ __ . . __ __ . . __ __ . . __ __ . . __ __ .
 72
    65
 73
     8
 40
37.0
 49
12.0
 49
-3.0
 49
12.0
 49
-3.0
 49
0.5
 49
-3.0
 49
0.5
 49
-3.0
  0
LTYPE
  2
ACAD_ISO14W100
 70
    64
  3
__ . . . __ . . . __ . . . __ . . . __ . . . __
 72
    65
 73
     8
 40
25.5
 49
12.0
 49
-3.0
 49
0.5
 49
-3.0
 49
0.5
 49
-3.0
 49
0.5
 49
-3.0
  0
LTYPE
  2
ACAD_ISO15W100
 70
    64
  3
__ __ . . . __ __ . . . __ __ . . . __ __ . . .
 72
    65
 73
    10
 40
40.5
 49
12.0
 49
-3.0
 49
12.0
 49
-3.0
 49
0.5
 49
-3.0
 49
0.5
 49
-3.0
 49
0.5
 49
-3.0
  0
ENDTAB
  0
TABLE
  2
STYLE
 70
     4
  0
STYLE
  2
STANDARD
 70
    64
 40
0.0
 41
1.0
 50
0.0
 71
     0
 42
0.2
  3
txt
  4

  0
STYLE
  2
TOLERANCE
 70
    64
 40
0.0
 41
1.0
 50
0.0
 71
     0
 42
0.2
  3
../igesfont/iges1003.shx
  4

  0
STYLE
  2
ROMANS
 70
    64
 40
0.0
 41
1.0
 50
0.0
 71
     0
 42
0.2
  3
romans.shx
  4

  0
STYLE
  2
ROMANC
 70
    64
 40
0.0
 41
1.0
 50
0.0
 71
     0
 42
0.2
  3
romanc.shx
  4

  0
ENDTAB
  0
TABLE
  2
DIMSTYLE
 70
     2
  0
DIMSTYLE
  2
UNNAMED
 70
     0
  3

  4

  5

  6

  7

 40
1.0
 41
0.18
 42
0.0625
 43
0.38
 44
0.18
 45
0.0
 46
0.0
 47
0.0
 48
0.0
140
0.18
141
0.09
142
0.0
143
25.4
144
1.0
145
0.0
146
1.0
147
0.09
 71
     0
 72
     0
 73
     1
 74
     1
 75
     0
 76
     0
 77
     0
 78
     0
170
     0
171
     2
172
     0
173
     0
174
     0
175
     0
176
     0
177
     0
178
     0
  0
DIMSTYLE
  2
STANDARD
 70
     0
  3

  4

  5

  6

  7

 40
1.0
 41
0.18
 42
0.0625
 43
0.38
 44
0.18
 45
0.0
 46
0.0
 47
0.0
 48
0.0
140
0.18
141
0.09
142
0.0
143
25.4
144
1.0
145
0.0
146
1.0
147
0.09
 71
     0
 72
     0
 73
     1
 74
     1
 75
     0
 76
     0
 77
     0
 78
     0
170
     0
171
     2
172
     0
173
     0
174
     0
175
     0
176
     0
177
     0
178
     0
  0
ENDTAB
  0
TABLE
  2
LAYER
 70
     2
  0
LAYER
  2
0
 70
     0
 62
     7
  6
CONTINUOUS
  0
LAYER
  2
255
 70
     0
 62
     7
  6
CONTINUOUS
  0
ENDTAB
  0
ENDSEC
  0
SECTION
  2
BLOCKS
  0
BLOCK
  5
     B
  8
0
  6
CONTINUOUS
 62
     7
  2
*UDIM364
 70
    65
 10
0.0
 20
0.0
 30
0.0
  3
*UDIM364
  0
TEXT
  5
     C
  8
0
  6
CONTINUOUS
 62
     7
 10
-548.022147043279
 20
-79.5821204681149
 30
0.0
 40
3.00000002980232
  1
17,5
 50
359.999999896069
 41
0.933333333333333
 72
     1
 11
-542.722146987915
 21
-78.0821204628009
 31
0.0
 73
     2
  0
LINE
  5
     D
  8
0
  6
CONTINUOUS
 62
     7
 10
-550.947143554688
 20
-91.0929846566908
 30
0.0
 11
-550.947143554688
 21
-78.5821204777021
 31
0.0
  0
LINE
  5
     E
  8
0
  6
CONTINUOUS
 62
     7
 10
-555.322143554688
 20
-82.6326318427216
 30
0.0
 11
-555.322143554688
 21
-78.5821204777021
 31
0.0
  0
LINE
  5
     F
  8
0
  6
CONTINUOUS
 62
     7
 10
-537.422146935264
 20
-80.5821204777021
 30
0.0
 11
-555.322143554688
 21
-80.5821204777021
 31
0.0
  0
LINE
  5
    10
  8
0
  6
CONTINUOUS
 62
     7
 10
-547.992720277481
 20
-80.0611760477505
 30
0.0
 11
-550.947143554688
 21
-80.5821204777021
 31
0.0
  0
LINE
  5
    11
  8
0
  6
CONTINUOUS
 62
     7
 10
-550.947143554688
 20
-80.5821204777021
 30
0.0
 11
-547.992720277481
 21
-81.1030649076538
 31
0.0
  0
LINE
  5
    12
  8
0
  6
CONTINUOUS
 62
     7
 10
-558.276566831895
 20
-81.1030649076538
 30
0.0
 11
-555.322143554688
 21
-80.5821204777021
 31
0.0
  0
LINE
  5
    13
  8
0
  6
CONTINUOUS
 62
     7
 10
-555.322143554688
 20
-80.5821204777021
 30
0.0
 11
-558.276566831895
 21
-80.0611760477505
 31
0.0
  0
ENDBLK
  5
    14
  8
0
  6
CONTINUOUS
 62
     7
  0
BLOCK
  5
    15
  8
0
  6
CONTINUOUS
 62
     7
  2
*UDIM365
 70
    65
 10
0.0
 20
0.0
 30
0.0
  3
*UDIM365
  0
TEXT
  5
    16
  8
0
  6
CONTINUOUS
 62
     7
 10
-552.397143228582
 20
-143.526822328759
 30
0.0
 40
3.00000002980232
  1
52,5
 50
359.999999896069
 41
0.933333333333333
 72
     1
 11
-547.097143173218
 21
-142.026822323445
 31
0.0
 73
     2
  0
LINE
  5
    17
  8
0
  6
CONTINUOUS
 62
     7
 10
-568.447143554688
 20
-135.306620051391
 30
0.0
 11
-568.447143554688
 21
-146.526822338346
 31
0.0
  0
LINE
  5
    18
  8
0
  6
CONTINUOUS
 62
     7
 10
-541.797143120567
 20
-144.526822338346
 30
0.0
 11
-568.447143554688
 21
-144.526822338346
 31
0.0
  0
LINE
  5
    19
  8
0
  6
CONTINUOUS
 62
     7
 10
-552.367720277481
 20
-144.005877908395
 30
0.0
 11
-555.322143554688
 21
-144.526822338346
 31
0.0
  0
LINE
  5
    1A
  8
0
  6
CONTINUOUS
 62
     7
 10
-555.322143554688
 20
-144.526822338346
 30
0.0
 11
-552.367720277481
 21
-145.047766768298
 31
0.0
  0
LINE
  5
    1B
  8
0
  6
CONTINUOUS
 62
     7
 10
-571.401566831894
 20
-145.047766768298
 30
0.0
 11
-568.447143554688
 21
-144.526822338346
 31
0.0
  0
LINE
  5
    1C
  8
0
  6
CONTINUOUS
 62
     7
 10
-568.447143554688
 20
-144.526822338346
 30
0.0
 11
-571.401566831894
 21
-144.005877908395
 31
0.0
  0
ENDBLK
  5
    1D
  8
0
  6
CONTINUOUS
 62
     7
  0
BLOCK
  5
    1E
  8
0
  6
CONTINUOUS
 62
     5
  2
*UDIM366
 70
    65
 10
0.0
 20
0.0
 30
0.0
  3
*UDIM366
  0
TEXT
  5
    1F
  8
0
  6
CONTINUOUS
 62
     5
 10
-535.884582994659
 20
-127.084868298482
 30
0.0
 40
3.00000002980232
  1
5,5
 50
365.67977395558
 41
0.933333333333333
 72
     1
 11
-532.152182455655
 21
-125.206255362472
 31
0.0
 73
     2
  0
TEXT
  5
    20
  8
0
  6
CONTINUOUS
 62
     5
 10
-539.019118295611
 20
-127.396619015674
 30
0.0
 40
3.00000002980232
  1
Ø
 50
365.67977395558
 41
0.933333333333334
 72
     1
 11
-538.072971377293
 21
-125.795117820639
 31
0.0
 73
     2
  0
TEXT
  5
    21
  8
0
  6
CONTINUOUS
 62
     5
 10
-527.575576657115
 20
-126.258481478796
 30
0.0
 40
3.00000002980232
  1
 - M5
 50
365.67977395558
 41
0.933333333333333
 72
     1
 11
-521.056922497426
 21
-124.102756801811
 31
0.0
 73
     2
  0
LINE
  5
    22
  8
0
  6
CONTINUOUS
 62
     5
 10
-514.142394419742
 20
-125.927394417699
 30
0.0
 11
-551.631268320704
 21
-129.65591619603
 31
0.0
  0
LINE
  5
    23
  8
0
  6
CONTINUOUS
 62
     5
 10
-547.374657127681
 20
-128.709052867061
 30
0.0
 11
-550.263018788671
 21
-129.519834536392
 31
0.0
  0
LINE
  5
    24
  8
0
  6
CONTINUOUS
 62
     5
 10
-550.263018788671
 20
-129.519834536392
 30
0.0
 11
-547.271542971162
 21
-129.745826645238
 31
0.0
  0
LINE
  5
    25
  8
0
  6
CONTINUOUS
 62
     5
 10
-554.519629981694
 20
-130.466697865361
 30
0.0
 11
-551.631268320704
 21
-129.65591619603
 31
0.0
  0
LINE
  5
    26
  8
0
  6
CONTINUOUS
 62
     5
 10
-551.631268320704
 20
-129.65591619603
 30
0.0
 11
-554.622744138213
 21
-129.429924087184
 31
0.0
  0
ENDBLK
  5
    27
  8
0
  6
CONTINUOUS
 62
     5
  0
BLOCK
  5
    28
  8
0
  6
CONTINUOUS
 62
     5
  2
*UDIM367
 70
    65
 10
0.0
 20
0.0
 30
0.0
  3
*UDIM367
  0
TEXT
  5
    29
  8
0
  6
CONTINUOUS
 62
     5
 10
-589.718467719452
 20
-116.387875413626
 30
0.0
 40
3.00000002980232
  1
139
 50
449.999999896069
 41
0.933333333333333
 72
     1
 11
-591.218467727304
 21
-112.487875372171
 31
0.0
 73
     2
  0
LINE
  5
    2A
  8
0
  6
CONTINUOUS
 62
     5
 10
-571.384643554688
 20
-94.8378753662109
 30
0.0
 11
-590.718467712402
 21
-94.8378753662109
 31
0.0
  0
LINE
  5
    2B
  8
0
  6
CONTINUOUS
 62
     5
 10
-571.384643554688
 20
-129.587875366211
 30
0.0
 11
-590.718467712402
 21
-129.587875366211
 31
0.0
  0
LINE
  5
    2C
  8
0
  6
CONTINUOUS
 62
     5
 10
-588.718467712402
 20
-94.8378753662109
 30
0.0
 11
-588.718467712402
 21
-129.587875366211
 31
0.0
  0
LINE
  5
    2D
  8
0
  6
CONTINUOUS
 62
     5
 10
-588.197523282451
 20
-97.7922986434179
 30
0.0
 11
-588.718467712402
 21
-94.8378753662109
 31
0.0
  0
LINE
  5
    2E
  8
0
  6
CONTINUOUS
 62
     5
 10
-588.718467712402
 20
-94.8378753662109
 30
0.0
 11
-589.239412142354
 21
-97.7922986434179
 31
0.0
  0
LINE
  5
    2F
  8
0
  6
CONTINUOUS
 62
     5
 10
-589.239412142354
 20
-126.633452089004
 30
0.0
 11
-588.718467712402
 21
-129.587875366211
 31
0.0
  0
LINE
  5
    30
  8
0
  6
CONTINUOUS
 62
     5
 10
-588.718467712402
 20
-129.587875366211
 30
0.0
 11
-588.197523282451
 21
-126.633452089004
 31
0.0
  0
ENDBLK
  5
    31
  8
0
  6
CONTINUOUS
 62
     5
  0
BLOCK
  5
    32
  8
0
  6
CONTINUOUS
 62
     5
  2
*UDIM368
 70
    65
 10
0.0
 20
0.0
 30
0.0
  3
*UDIM368
  0
TEXT
  5
    33
  8
0
  6
CONTINUOUS
 62
     5
 10
-533.444946301174
 20
-110.001613280902
 30
0.0
 40
3.00000002980232
  1
71,75
 50
449.999999896069
 41
0.933333333333333
 72
     1
 11
-534.944946303964
 21
-103.301613211632
 31
0.0
 73
     2
  0
LINE
  5
    34
  8
0
  6
CONTINUOUS
 62
     5
 10
-565.509643554688
 20
-94.8378753662109
 30
0.0
 11
-530.444946289063
 21
-94.8378753662109
 31
0.0
  0
LINE
  5
    35
  8
0
  6
CONTINUOUS
 62
     5
 10
-532.444946289063
 20
-94.8378753662109
 30
0.0
 11
-532.444946289063
 21
-112.775375366211
 31
0.0
  0
LINE
  5
    36
  8
0
  6
CONTINUOUS
 62
     5
 10
-531.924001859111
 20
-97.7922986434179
 30
0.0
 11
-532.444946289063
 21
-94.8378753662109
 31
0.0
  0
LINE
  5
    37
  8
0
  6
CONTINUOUS
 62
     5
 10
-532.444946289063
 20
-94.8378753662109
 30
0.0
 11
-532.965890719014
 21
-97.7922986434179
 31
0.0
  0
LINE
  5
    38
  8
0
  6
CONTINUOUS
 62
     5
 10
-532.965890719014
 20
-109.820952089004
 30
0.0
 11
-532.444946289063
 21
-112.775375366211
 31
0.0
  0
LINE
  5
    39
  8
0
  6
CONTINUOUS
 62
     5
 10
-532.444946289063
 20
-112.775375366211
 30
0.0
 11
-531.924001859111
 21
-109.820952089004
 31
0.0
  0
ENDBLK
  5
    3A
  8
0
  6
CONTINUOUS
 62
     5
  0
BLOCK
  5
    3B
  8
0
  6
CONTINUOUS
 62
     7
  2
MOSTRINA
 70
    64
 10
0.0
 20
0.0
 30
0.0
  3
MOSTRINA
  0
LINE
  5
    3C
  8
0
  6
CONTINUOUS
 62
     3
 10
173.338256835938
 20
30.7306251525879
 30
0.0
 11
173.338256835938
 21
189.230621337891
 31
0.0
  0
LINE
  5
    3D
  8
0
  6
CONTINUOUS
 62
     3
 10
57.5882568359375
 20
29.4806251525879
 30
0.0
 11
172.088256835938
 21
29.4806251525879
 31
0.0
  0
LINE
  5
    3E
  8
0
  6
CONTINUOUS
 62
     3
 10
56.3382568359375
 20
30.7306251525879
 30
0.0
 11
56.3382568359375
 21
189.230621337891
 31
0.0
  0
LINE
  5
    3F
  8
0
  6
CONTINUOUS
 62
     3
 10
57.5882568359375
 20
190.480621337891
 30
0.0
 11
172.088256835938
 21
190.480621337891
 31
0.0
  0
LINE
  5
    40
  8
0
  6
CONTINUOUS
 62
     3
 10
167.838256835938
 20
56.9806251525879
 30
0.0
 11
167.838256835938
 21
162.980625152588
 31
0.0
  0
LINE
  5
    41
  8
0
  6
CONTINUOUS
 62
     3
 10
61.8382568359375
 20
56.9806251525879
 30
0.0
 11
167.838256835938
 21
56.9806251525879
 31
0.0
  0
LINE
  5
    42
  8
0
  6
CONTINUOUS
 62
     3
 10
61.8382568359375
 20
56.9806251525879
 30
0.0
 11
61.8382568359375
 21
162.980625152588
 31
0.0
  0
LINE
  5
    43
  8
0
  6
CONTINUOUS
 62
     3
 10
61.8382568359375
 20
162.980621337891
 30
0.0
 11
167.838256835938
 21
162.980621337891
 31
0.0
  0
LINE
  5
    44
  8
0
  6
CONTINUOUS
 62
     3
 10
168.838256835938
 20
48.4806251525879
 30
0.0
 11
168.838256835938
 21
49.4806251525879
 31
0.0
  0
LINE
  5
    45
  8
0
  6
CONTINUOUS
 62
     3
 10
61.8382568359375
 20
50.4806251525879
 30
0.0
 11
167.838256835938
 21
50.4806251525879
 31
0.0
  0
LINE
  5
    46
  8
0
  6
CONTINUOUS
 62
     3
 10
60.8382568359375
 20
48.4806251525879
 30
0.0
 11
60.8382568359375
 21
49.4806251525879
 31
0.0
  0
LINE
  5
    47
  8
0
  6
CONTINUOUS
 62
     3
 10
61.8382568359375
 20
49.4806251525879
 30
0.0
 11
167.838256835938
 21
49.4806251525879
 31
0.0
  0
LINE
  5
    48
  8
0
  6
CONTINUOUS
 62
     3
 10
60.8382568359375
 20
29.4806251525879
 30
0.0
 11
60.8382568359375
 21
48.4806251525879
 31
0.0
  0
LINE
  5
    49
  8
0
  6
CONTINUOUS
 62
     3
 10
60.8382568359375
 20
49.4806213378906
 30
0.0
 11
60.8382568359375
 21
190.480621337891
 31
0.0
  0
LINE
  5
    4A
  8
0
  6
CONTINUOUS
 62
     3
 10
61.8382568359375
 20
29.4806251525879
 30
0.0
 11
61.8382568359375
 21
49.4806251525879
 31
0.0
  0
LINE
  5
    4B
  8
0
  6
CONTINUOUS
 62
     3
 10
61.8382568359375
 20
162.980621337891
 30
0.0
 11
61.8382568359375
 21
169.480621337891
 31
0.0
  0
LINE
  5
    4C
  8
0
  6
CONTINUOUS
 62
     3
 10
61.8382568359375
 20
50.4806251525879
 30
0.0
 11
61.8382568359375
 21
56.9806251525879
 31
0.0
  0
LINE
  5
    4D
  8
0
  6
CONTINUOUS
 62
     3
 10
168.838256835938
 20
29.4806251525879
 30
0.0
 11
168.838256835938
 21
48.4806251525879
 31
0.0
  0
LINE
  5
    4E
  8
0
  6
CONTINUOUS
 62
     3
 10
168.838256835938
 20
49.4806251525879
 30
0.0
 11
168.838256835938
 21
190.480621337891
 31
0.0
  0
LINE
  5
    4F
  8
0
  6
CONTINUOUS
 62
     3
 10
167.838256835938
 20
50.4806251525879
 30
0.0
 11
167.838256835938
 21
56.9806251525879
 31
0.0
  0
LINE
  5
    50
  8
0
  6
CONTINUOUS
 62
     3
 10
167.838256835938
 20
162.980621337891
 30
0.0
 11
167.838256835938
 21
169.480621337891
 31
0.0
  0
LINE
  5
    51
  8
0
  6
CONTINUOUS
 62
     3
 10
167.838256835938
 20
29.4806251525879
 30
0.0
 11
167.838256835938
 21
49.4806251525879
 31
0.0
  0
LINE
  5
    52
  8
0
  6
CONTINUOUS
 62
     3
 10
60.8382568359375
 20
170.480621337891
 30
0.0
 11
168.838256835938
 21
170.480621337891
 31
0.0
  0
LINE
  5
    53
  8
0
  6
CONTINUOUS
 62
     3
 10
61.8382568359375
 20
169.480621337891
 30
0.0
 11
167.838256835938
 21
169.480621337891
 31
0.0
  0
ARC
  5
    54
  8
0
  6
CONTINUOUS
 62
     3
 10
57.5882568359375
 20
30.7306251525879
 30
0.0
 40
1.25
 50
180.0
 51
270.0
  0
ARC
  5
    55
  8
0
  6
CONTINUOUS
 62
     3
 10
172.088256835938
 20
30.7306251525879
 30
0.0
 40
1.25
 50
270.0
 51
360.0
  0
ARC
  5
    56
  8
0
  6
CONTINUOUS
 62
     3
 10
172.088256835938
 20
189.230621337891
 30
0.0
 40
1.25
 50
0.0
 51
90.0
  0
ARC
  5
    57
  8
0
  6
CONTINUOUS
 62
     3
 10
57.5882568359375
 20
189.230621337891
 30
0.0
 40
1.25
 50
90.0
 51
180.0
  0
LINE
  5
    58
  8
0
  6
DOT
 62
     3
 10
60.3382577409677
 20
179.7306252571
 30
0.0
 11
60.8382568359375
 21
179.7306252571
 31
0.0
  0
LINE
  5
    59
  8
0
  6
DOT
 62
     3
 10
60.3382577409676
 20
181.2306252571
 30
0.0
 11
60.8382568359375
 21
181.2306252571
 31
0.0
  0
LINE
  5
    5A
  8
0
  6
CONTINUOUS
 62
     3
 10
168.338257745313
 20
179.730625257273
 30
0.0
 11
168.838256835938
 21
179.730625257273
 31
0.0
  0
LINE
  5
    5B
  8
0
  6
CONTINUOUS
 62
     3
 10
168.338257745314
 20
181.230625257273
 30
0.0
 11
168.838256835938
 21
181.230625257273
 31
0.0
  0
ARC
  5
    5C
  8
0
  6
DOT
 62
     3
 10
60.3382577401871
 20
180.480625257147
 30
0.0
 40
0.749999999345164
 50
90.0
 51
270.0
  0
ARC
  5
    5D
  8
0
  6
CONTINUOUS
 62
     3
 10
61.338257740822
 20
180.480625256974
 30
0.0
 40
0.750000000009701
 50
270.0
 51
450.0
  0
LINE
  5
    5E
  8
0
  6
CONTINUOUS
 62
     3
 10
60.8382568359375
 20
181.2306252571
 30
0.0
 11
61.3382577409688
 21
181.2306252571
 31
0.0
  0
LINE
  5
    5F
  8
0
  6
CONTINUOUS
 62
     3
 10
60.8382568359375
 20
179.7306252571
 30
0.0
 11
61.3382577409689
 21
179.7306252571
 31
0.0
  0
ARC
  5
    60
  8
0
  6
CONTINUOUS
 62
     3
 10
168.338257745503
 20
180.480625256952
 30
0.0
 40
0.750000000048506
 50
90.0000000038822
 51
269.999999996024
  0
ARC
  5
    61
  8
0
  6
DOT
 62
     3
 10
169.338257745421
 20
180.480625256965
 30
0.0
 40
0.750000000029104
 50
270.000000002449
 51
449.999999997486
  0
LINE
  5
    62
  8
0
  6
DOT
 62
     3
 10
168.838256835938
 20
181.230625257273
 30
0.0
 11
169.338257745315
 21
181.230625257273
 31
0.0
  0
LINE
  5
    63
  8
0
  6
DOT
 62
     3
 10
168.838256835938
 20
179.730625257273
 30
0.0
 11
169.338257745315
 21
179.730625257273
 31
0.0
  0
POINT
  5
    64
  8
0
  6
CONTINUOUS
 62
     3
 10
114.838256835938
 20
109.980621337891
 30
0.0
  0
ENDBLK
  5
    65
  8
0
  6
CONTINUOUS
 62
     7
  0
BLOCK
  5
    66
  8
0
  6
CONTINUOUS
 62
     7
  2
*UDIM369
 70
    65
 10
0.0
 20
0.0
 30
0.0
  3
*UDIM369
  0
TEXT
  5
    67
  8
0
  6
CONTINUOUS
 62
     7
 10
-502.698196414665
 20
79.5488807217603
 30
0.0
 40
3.00000002980232
  1
155
 50
89.9999999480344
 41
0.933333333333333
 72
     1
 11
-504.198196426034
 21
83.4488807618619
 31
0.0
 73
     2
  0
LINE
  5
    68
  8
0
  6
CONTINUOUS
 62
     7
 10
-528.697155700952
 20
44.9738807678222
 30
0.0
 11
-499.698196411133
 21
44.9738807678222
 31
0.0
  0
LINE
  5
    69
  8
0
  6
CONTINUOUS
 62
     7
 10
-562.572164282575
 20
122.473880767822
 30
0.0
 11
-499.698196411133
 21
122.473880767822
 31
0.0
  0
LINE
  5
    6A
  8
0
  6
CONTINUOUS
 62
     7
 10
-501.698196411133
 20
44.9738807678222
 30
0.0
 11
-501.698196411133
 21
122.473880767822
 31
0.0
  0
LINE
  5
    6B
  8
0
  6
CONTINUOUS
 62
     7
 10
-502.219140841084
 20
47.9283040450292
 30
0.0
 11
-501.698196411133
 21
44.9738807678222
 31
0.0
  0
LINE
  5
    6C
  8
0
  6
CONTINUOUS
 62
     7
 10
-501.698196411133
 20
44.9738807678222
 30
0.0
 11
-501.177251981181
 21
47.9283040450292
 31
0.0
  0
LINE
  5
    6D
  8
0
  6
CONTINUOUS
 62
     7
 10
-501.177251981181
 20
119.519457490615
 30
0.0
 11
-501.698196411133
 21
122.473880767822
 31
0.0
  0
LINE
  5
    6E
  8
0
  6
CONTINUOUS
 62
     7
 10
-501.698196411133
 20
122.473880767822
 30
0.0
 11
-502.219140841084
 21
119.519457490615
 31
0.0
  0
ENDBLK
  5
    6F
  8
0
  6
CONTINUOUS
 62
     7
  0
BLOCK
  5
    70
  8
0
  6
CONTINUOUS
 62
     7
  2
*UDIM370
 70
    65
 10
0.0
 20
0.0
 30
0.0
  3
*UDIM370
  0
TEXT
  5
    71
  8
0
  6
CONTINUOUS
 62
     7
 10
-559.49714739739
 20
-60.5187340972255
 30
0.0
 40
3.00000002980232
  1
105
 50
359.999999948034
 41
0.933333333333333
 72
     1
 11
-555.597147357294
 21
-59.0187340858419
 31
0.0
 73
     2
  0
LINE
  5
    72
  8
0
  6
CONTINUOUS
 62
     7
 10
-529.072154354886
 20
5.84887695312307
 30
0.0
 11
-529.072154354886
 21
-63.5187341007431
 31
0.0
  0
LINE
  5
    73
  8
0
  6
CONTINUOUS
 62
     7
 10
-581.572146725478
 20
5.84887695312307
 30
0.0
 11
-581.572146725478
 21
-63.5187341007431
 31
0.0
  0
LINE
  5
    74
  8
0
  6
CONTINUOUS
 62
     7
 10
-529.072154354886
 20
-61.5187341007431
 30
0.0
 11
-581.572146725478
 21
-61.5187341007431
 31
0.0
  0
LINE
  5
    75
  8
0
  6
CONTINUOUS
 62
     7
 10
-532.026577632093
 20
-62.0396785306947
 30
0.0
 11
-529.072154354886
 21
-61.5187341007431
 31
0.0
  0
LINE
  5
    76
  8
0
  6
CONTINUOUS
 62
     7
 10
-529.072154354886
 20
-61.5187341007431
 30
0.0
 11
-532.026577632093
 21
-60.9977896707914
 31
0.0
  0
LINE
  5
    77
  8
0
  6
CONTINUOUS
 62
     7
 10
-578.617723448271
 20
-60.9977896707914
 30
0.0
 11
-581.572146725478
 21
-61.5187341007431
 31
0.0
  0
LINE
  5
    78
  8
0
  6
CONTINUOUS
 62
     7
 10
-581.572146725478
 20
-61.5187341007431
 30
0.0
 11
-578.617723448271
 21
-62.0396785306947
 31
0.0
  0
ENDBLK
  5
    79
  8
0
  6
CONTINUOUS
 62
     7
  0
BLOCK
  5
    7A
  8
0
  6
CONTINUOUS
 62
     7
  2
*UDIM371
 70
    65
 10
0.0
 20
0.0
 30
0.0
  3
*UDIM371
  0
TEXT
  5
    7B
  8
0
  6
CONTINUOUS
 62
     7
 10
-547.772139766384
 20
-54.3812385684749
 30
0.0
 40
3.00000002980232
  1
52,5
 50
359.999999948034
 41
0.933333333333333
 72
     1
 11
-542.472139712381
 21
-52.8812385583541
 31
0.0
 73
     2
  0
LINE
  5
    7C
  8
0
  6
CONTINUOUS
 62
     7
 10
-529.072154671066
 20
5.84887695312312
 30
0.0
 11
-529.072174663168
 21
-57.3812385732552
 31
0.0
  0
LINE
  5
    7D
  8
0
  6
CONTINUOUS
 62
     7
 10
-555.322147041408
 20
14.063720370103
 30
0.0
 11
-555.32216961202
 21
-57.3812385732552
 31
0.0
  0
LINE
  5
    7E
  8
0
  6
CONTINUOUS
 62
     7
 10
-529.072174030808
 20
-55.3812385732552
 30
0.0
 11
-555.322168980188
 21
-55.3812385732552
 31
0.0
  0
LINE
  5
    7F
  8
0
  6
CONTINUOUS
 62
     7
 10
-532.026597308015
 20
-55.9021830032069
 30
0.0
 11
-529.072174030808
 21
-55.3812385732552
 31
0.0
  0
LINE
  5
    80
  8
0
  6
CONTINUOUS
 62
     7
 10
-529.072174030808
 20
-55.3812385732552
 30
0.0
 11
-532.026597308015
 21
-54.8602941433036
 31
0.0
  0
LINE
  5
    81
  8
0
  6
CONTINUOUS
 62
     7
 10
-552.367745702981
 20
-54.8602941433036
 30
0.0
 11
-555.322168980188
 21
-55.3812385732552
 31
0.0
  0
LINE
  5
    82
  8
0
  6
CONTINUOUS
 62
     7
 10
-555.322168980188
 20
-55.3812385732552
 30
0.0
 11
-552.367745702981
 21
-55.9021830032069
 31
0.0
  0
ENDBLK
  5
    83
  8
0
  6
CONTINUOUS
 62
     7
  0
BLOCK
  5
    84
  8
0
  6
CONTINUOUS
 62
     7
  2
*UDIM372
 70
    65
 10
0.0
 20
0.0
 30
0.0
  3
*UDIM372
  0
TEXT
  5
    85
  8
0
  6
CONTINUOUS
 62
     7
 10
-568.247158857992
 20
-66.4181960437687
 30
0.0
 40
3.00000002980232
  1
140
 50
359.999999948034
 41
0.933333333333333
 72
     1
 11
-564.347158817896
 21
-64.9181960323851
 31
0.0
 73
     2
  0
LINE
  5
    86
  8
0
  6
CONTINUOUS
 62
     7
 10
-529.072154779935
 20
5.84887695312316
 30
0.0
 11
-529.072186772089
 21
-69.4181960472861
 31
0.0
  0
LINE
  5
    87
  8
0
  6
CONTINUOUS
 62
     7
 10
-599.072167405637
 20
-40.8761192560195
 30
0.0
 11
-599.072178493623
 21
-69.4181960472861
 31
0.0
  0
LINE
  5
    88
  8
0
  6
CONTINUOUS
 62
     7
 10
-529.072185921992
 20
-67.4181960472863
 30
0.0
 11
-599.072177716666
 21
-67.4181960472863
 31
0.0
  0
LINE
  5
    89
  8
0
  6
CONTINUOUS
 62
     7
 10
-532.026609199199
 20
-67.9391404772379
 30
0.0
 11
-529.072185921992
 21
-67.4181960472863
 31
0.0
  0
LINE
  5
    8A
  8
0
  6
CONTINUOUS
 62
     7
 10
-529.072185921992
 20
-67.4181960472863
 30
0.0
 11
-532.026609199199
 21
-66.8972516173346
 31
0.0
  0
LINE
  5
    8B
  8
0
  6
CONTINUOUS
 62
     7
 10
-596.117754439459
 20
-66.8972516173346
 30
0.0
 11
-599.072177716666
 21
-67.4181960472863
 31
0.0
  0
LINE
  5
    8C
  8
0
  6
CONTINUOUS
 62
     7
 10
-599.072177716666
 20
-67.4181960472863
 30
0.0
 11
-596.117754439459
 21
-67.9391404772379
 31
0.0
  0
ENDBLK
  5
    8D
  8
0
  6
CONTINUOUS
 62
     7
  0
BLOCK
  5
    8E
  8
0
  6
CONTINUOUS
 62
     7
  2
*UDIM373
 70
    65
 10
0.0
 20
0.0
 30
0.0
  3
*UDIM373
  0
TEXT
  5
    8F
  8
0
  6
CONTINUOUS
 62
     7
 10
-549.347147405896
 20
-48.5442309808024
 30
0.0
 40
3.00000002980232
  1
35
 50
359.999999948034
 41
0.933333333333333
 72
     1
 11
-546.847147379708
 21
-47.0442309681561
 31
0.0
 73
     2
  0
LINE
  5
    90
  8
0
  6
CONTINUOUS
 62
     7
 10
-537.822152176077
 20
-42.4761135540812
 30
0.0
 11
-537.822157389579
 21
-51.5442309830569
 31
0.0
  0
LINE
  5
    91
  8
0
  6
CONTINUOUS
 62
     7
 10
-537.822156239726
 20
-49.5442309830572
 30
0.0
 11
-555.322140295909
 21
-49.5442309830572
 31
0.0
  0
LINE
  5
    92
  8
0
  6
CONTINUOUS
 62
     7
 10
-540.776579516933
 20
-50.0651754130089
 30
0.0
 11
-537.822156239726
 21
-49.5442309830572
 31
0.0
  0
LINE
  5
    93
  8
0
  6
CONTINUOUS
 62
     7
 10
-537.822156239726
 20
-49.5442309830572
 30
0.0
 11
-540.776579516933
 21
-49.0232865531056
 31
0.0
  0
LINE
  5
    94
  8
0
  6
CONTINUOUS
 62
     7
 10
-552.367717018702
 20
-49.0232865531056
 30
0.0
 11
-555.322140295909
 21
-49.5442309830572
 31
0.0
  0
LINE
  5
    95
  8
0
  6
CONTINUOUS
 62
     7
 10
-555.322140295909
 20
-49.5442309830572
 30
0.0
 11
-552.367717018702
 21
-50.0651754130089
 31
0.0
  0
ENDBLK
  5
    96
  8
0
  6
CONTINUOUS
 62
     7
  0
BLOCK
  5
    97
  8
0
  6
CONTINUOUS
 62
     7
  2
*UDIM374
 70
    65
 10
0.0
 20
0.0
 30
0.0
  3
*UDIM374
  0
TEXT
  5
    98
  8
0
  6
CONTINUOUS
 62
     7
 10
-566.847147404865
 20
-48.5442309808024
 30
0.0
 40
3.00000002980232
  1
35
 50
359.999999948034
 41
0.933333333333333
 72
     1
 11
-564.347147378677
 21
-47.0442309681561
 31
0.0
 73
     2
  0
LINE
  5
    99
  8
0
  6
CONTINUOUS
 62
     7
 10
-572.822155874904
 20
-42.4761190798369
 30
0.0
 11
-572.822163299119
 21
-51.5442309830566
 31
0.0
  0
LINE
  5
    9A
  8
0
  6
CONTINUOUS
 62
     7
 10
-555.322140295909
 20
-49.5442309830572
 30
0.0
 11
-572.822161661685
 21
-49.5442309830572
 31
0.0
  0
LINE
  5
    9B
  8
0
  6
CONTINUOUS
 62
     7
 10
-558.276563573116
 20
-50.0651754130089
 30
0.0
 11
-555.322140295909
 21
-49.5442309830572
 31
0.0
  0
LINE
  5
    9C
  8
0
  6
CONTINUOUS
 62
     7
 10
-555.322140295909
 20
-49.5442309830572
 30
0.0
 11
-558.276563573116
 21
-49.0232865531056
 31
0.0
  0
LINE
  5
    9D
  8
0
  6
CONTINUOUS
 62
     7
 10
-569.867738384478
 20
-49.0232865531056
 30
0.0
 11
-572.822161661685
 21
-49.5442309830572
 31
0.0
  0
LINE
  5
    9E
  8
0
  6
CONTINUOUS
 62
     7
 10
-572.822161661685
 20
-49.5442309830572
 30
0.0
 11
-569.867738384478
 21
-50.0651754130089
 31
0.0
  0
ENDBLK
  5
    9F
  8
0
  6
CONTINUOUS
 62
     7
  0
BLOCK
  5
    A0
  8
0
  6
CONTINUOUS
 62
     7
  2
*UDIM375
 70
    65
 10
0.0
 20
0.0
 30
0.0
  3
*UDIM375
  0
TEXT
  5
    A1
  8
0
  6
CONTINUOUS
 62
     7
 10
-584.347151196872
 20
-48.5442309808024
 30
0.0
 40
3.00000002980232
  1
35
 50
359.999999948034
 41
0.933333333333333
 72
     1
 11
-581.847151170684
 21
-47.0442309681561
 31
0.0
 73
     2
  0
LINE
  5
    A2
  8
0
  6
CONTINUOUS
 62
     7
 10
-590.322154276885
 20
-40.276115973808
 30
0.0
 11
-590.322164616236
 21
-51.5442309830564
 31
0.0
  0
LINE
  5
    A3
  8
0
  6
CONTINUOUS
 62
     7
 10
-572.822161661685
 20
-49.5442309830572
 30
0.0
 11
-590.322162781085
 21
-49.5442309830572
 31
0.0
  0
LINE
  5
    A4
  8
0
  6
CONTINUOUS
 62
     7
 10
-575.776584938892
 20
-50.0651754130089
 30
0.0
 11
-572.822161661685
 21
-49.5442309830572
 31
0.0
  0
LINE
  5
    A5
  8
0
  6
CONTINUOUS
 62
     7
 10
-572.822161661685
 20
-49.5442309830572
 30
0.0
 11
-575.776584938892
 21
-49.0232865531056
 31
0.0
  0
LINE
  5
    A6
  8
0
  6
CONTINUOUS
 62
     7
 10
-587.367739503878
 20
-49.0232865531056
 30
0.0
 11
-590.322162781085
 21
-49.5442309830572
 31
0.0
  0
LINE
  5
    A7
  8
0
  6
CONTINUOUS
 62
     7
 10
-590.322162781085
 20
-49.5442309830572
 30
0.0
 11
-587.367739503878
 21
-50.0651754130089
 31
0.0
  0
ENDBLK
  5
    A8
  8
0
  6
CONTINUOUS
 62
     7
  0
BLOCK
  5
    A9
  8
0
  6
CONTINUOUS
 62
     7
  2
*UDIM376
 70
    65
 10
0.0
 20
0.0
 30
0.0
  3
*UDIM376
  0
TEXT
  5
    AA
  8
0
  6
CONTINUOUS
 62
     7
 10
-502.698196414665
 20
-2.95111927823976
 30
0.0
 40
3.00000002980232
  1
175
 50
89.9999999480344
 41
0.933333333333333
 72
     1
 11
-504.198196426034
 21
0.94888076186183
 31
0.0
 73
     2
  0
LINE
  5
    AB
  8
0
  6
CONTINUOUS
 62
     7
 10
-531.072146725492
 20
-42.5261192321777
 30
0.0
 11
-499.698196411133
 21
-42.5261192321777
 31
0.0
  0
LINE
  5
    AC
  8
0
  6
CONTINUOUS
 62
     7
 10
-528.697155700952
 20
44.9738807678222
 30
0.0
 11
-499.698196411133
 21
44.9738807678222
 31
0.0
  0
LINE
  5
    AD
  8
0
  6
CONTINUOUS
 62
     7
 10
-501.698196411133
 20
-42.5261192321777
 30
0.0
 11
-501.698196411133
 21
44.9738807678222
 31
0.0
  0
LINE
  5
    AE
  8
0
  6
CONTINUOUS
 62
     7
 10
-502.219140841084
 20
-39.5716959549707
 30
0.0
 11
-501.698196411133
 21
-42.5261192321777
 31
0.0
  0
LINE
  5
    AF
  8
0
  6
CONTINUOUS
 62
     7
 10
-501.698196411133
 20
-42.5261192321777
 30
0.0
 11
-501.177251981181
 21
-39.5716959549707
 31
0.0
  0
LINE
  5
    B0
  8
0
  6
CONTINUOUS
 62
     7
 10
-501.177251981181
 20
42.0194574906153
 30
0.0
 11
-501.698196411133
 21
44.9738807678222
 31
0.0
  0
LINE
  5
    B1
  8
0
  6
CONTINUOUS
 62
     7
 10
-501.698196411133
 20
44.9738807678222
 30
0.0
 11
-502.219140841084
 21
42.0194574906153
 31
0.0
  0
ENDBLK
  5
    B2
  8
0
  6
CONTINUOUS
 62
     7
  0
BLOCK
  5
    B3
  8
0
  6
CONTINUOUS
 62
     7
  2
*UDIM377
 70
    65
 10
0.0
 20
0.0
 30
0.0
  3
*UDIM377
  0
TEXT
  5
    B4
  8
0
  6
CONTINUOUS
 62
     7
 10
-559.4971435827
 20
105.836183222623
 30
0.0
 40
3.00000002980232
  1
117
 50
359.999999948034
 41
0.933333333333333
 72
     1
 11
-555.597143542604
 21
107.336183234007
 31
0.0
 73
     2
  0
LINE
  5
    B5
  8
0
  6
CONTINUOUS
 62
     7
 10
-526.072146725492
 20
40.7238845825176
 30
0.0
 11
-526.072146725492
 21
106.836183219106
 31
0.0
  0
LINE
  5
    B6
  8
0
  6
CONTINUOUS
 62
     7
 10
-584.572146725492
 20
40.7238845825176
 30
0.0
 11
-584.572146725492
 21
106.836183219106
 31
0.0
  0
LINE
  5
    B7
  8
0
  6
CONTINUOUS
 62
     7
 10
-526.072146725492
 20
104.836183219106
 30
0.0
 11
-584.572146725492
 21
104.836183219106
 31
0.0
  0
LINE
  5
    B8
  8
0
  6
CONTINUOUS
 62
     7
 10
-529.026570002699
 20
104.315238789154
 30
0.0
 11
-526.072146725492
 21
104.836183219106
 31
0.0
  0
LINE
  5
    B9
  8
0
  6
CONTINUOUS
 62
     7
 10
-526.072146725492
 20
104.836183219106
 30
0.0
 11
-529.026570002699
 21
105.357127649057
 31
0.0
  0
LINE
  5
    BA
  8
0
  6
CONTINUOUS
 62
     7
 10
-581.617723448285
 20
105.357127649057
 30
0.0
 11
-584.572146725492
 21
104.836183219106
 31
0.0
  0
LINE
  5
    BB
  8
0
  6
CONTINUOUS
 62
     7
 10
-584.572146725492
 20
104.836183219106
 30
0.0
 11
-581.617723448285
 21
104.315238789154
 31
0.0
  0
ENDBLK
  5
    BC
  8
0
  6
CONTINUOUS
 62
     7
  0
BLOCK
  5
    BD
  8
0
  6
CONTINUOUS
 62
     7
  2
*UDIM378
 70
    65
 10
0.0
 20
0.0
 30
0.0
  3
*UDIM378
  0
TEXT
  5
    BE
  8
0
  6
CONTINUOUS
 62
     7
 10
-510.129005526517
 20
-4.07611164884719
 30
0.0
 40
3.00000002980232
  1
161
 50
89.9999999480344
 41
0.933333333333333
 72
     1
 11
-511.629005537885
 21
-0.1761116087456
 31
0.0
 73
     2
  0
LINE
  5
    BF
  8
0
  6
CONTINUOUS
 62
     7
 10
-525.697146725492
 20
-40.1511135101338
 30
0.0
 11
-507.129005522984
 21
-40.1511135101338
 31
0.0
  0
LINE
  5
    C0
  8
0
  6
CONTINUOUS
 62
     7
 10
-525.697146725492
 20
40.3488845825176
 30
0.0
 11
-507.129005522984
 21
40.3488845825176
 31
0.0
  0
LINE
  5
    C1
  8
0
  6
CONTINUOUS
 62
     7
 10
-509.129005522984
 20
-40.1511135101338
 30
0.0
 11
-509.129005522984
 21
40.3488845825176
 31
0.0
  0
LINE
  5
    C2
  8
0
  6
CONTINUOUS
 62
     7
 10
-509.649949952936
 20
-37.1966902329268
 30
0.0
 11
-509.129005522984
 21
-40.1511135101338
 31
0.0
  0
LINE
  5
    C3
  8
0
  6
CONTINUOUS
 62
     7
 10
-509.129005522984
 20
-40.1511135101338
 30
0.0
 11
-508.608061093033
 21
-37.1966902329268
 31
0.0
  0
LINE
  5
    C4
  8
0
  6
CONTINUOUS
 62
     7
 10
-508.608061093033
 20
37.3944613053106
 30
0.0
 11
-509.129005522984
 21
40.3488845825176
 31
0.0
  0
LINE
  5
    C5
  8
0
  6
CONTINUOUS
 62
     7
 10
-509.129005522984
 20
40.3488845825176
 30
0.0
 11
-509.649949952936
 21
37.3944613053106
 31
0.0
  0
ENDBLK
  5
    C6
  8
0
  6
CONTINUOUS
 62
     7
  0
BLOCK
  5
    C7
  8
0
  6
CONTINUOUS
 62
     7
  2
*UDIM379
 70
    65
 10
0.0
 20
0.0
 30
0.0
  3
*UDIM379
  0
TEXT
  5
    C8
  8
0
  6
CONTINUOUS
 62
     7
 10
-517.45775102002
 20
15.5613806939437
 30
0.0
 40
3.00000002980232
  1
89,75
 50
89.9999999480344
 41
0.933333333333333
 72
     1
 11
-518.957751028853
 21
22.2613807618608
 31
0.0
 73
     2
  0
LINE
  5
    C9
  8
0
  6
CONTINUOUS
 62
     7
 10
-521.191831326145
 20
9.88845825175986E-2
 30
0.0
 11
-514.457751013952
 21
9.88845825175986E-2
 31
0.0
  0
LINE
  5
    CA
  8
0
  6
CONTINUOUS
 62
     7
 10
-528.697155700952
 20
44.9738807678222
 30
0.0
 11
-514.457751013952
 21
44.9738807678222
 31
0.0
  0
LINE
  5
    CB
  8
0
  6
CONTINUOUS
 62
     7
 10
-516.457751013952
 20
9.88845825175986E-2
 30
0.0
 11
-516.457751013952
 21
44.9738807678222
 31
0.0
  0
LINE
  5
    CC
  8
0
  6
CONTINUOUS
 62
     7
 10
-516.978695443904
 20
3.05330785972456
 30
0.0
 11
-516.457751013952
 21
9.88845825175986E-2
 31
0.0
  0
LINE
  5
    CD
  8
0
  6
CONTINUOUS
 62
     7
 10
-516.457751013952
 20
9.88845825175986E-2
 30
0.0
 11
-515.936806584001
 21
3.05330785972456
 31
0.0
  0
LINE
  5
    CE
  8
0
  6
CONTINUOUS
 62
     7
 10
-515.936806584001
 20
42.0194574906153
 30
0.0
 11
-516.457751013952
 21
44.9738807678222
 31
0.0
  0
LINE
  5
    CF
  8
0
  6
CONTINUOUS
 62
     7
 10
-516.457751013952
 20
44.9738807678222
 30
0.0
 11
-516.978695443904
 21
42.0194574906153
 31
0.0
  0
ENDBLK
  5
    D0
  8
0
  6
CONTINUOUS
 62
     7
  0
BLOCK
  5
    D1
  8
0
  6
CONTINUOUS
 62
     7
  2
*UDIM380
 70
    65
 10
0.0
 20
0.0
 30
0.0
  3
*UDIM380
  0
TEXT
  5
    D2
  8
0
  6
CONTINUOUS
 62
     7
 10
-561.927111240304
 20
111.187219366071
 30
0.0
 40
3.00000002980232
  1
165
 50
359.999999948034
 41
0.933333333333333
 72
     1
 11
-558.027111200208
 21
112.687219377455
 31
0.0
 73
     2
  0
LINE
  5
    D3
  8
0
  6
CONTINUOUS
 62
     7
 10
-522.82229152097
 20
74.2238726615906
 30
0.0
 11
-522.82229152097
 21
112.187219362554
 31
0.0
  0
LINE
  5
    D4
  8
0
  6
CONTINUOUS
 62
     7
 10
-605.322291520927
 20
74.2237887382508
 30
0.0
 11
-605.322291520927
 21
112.187219362554
 31
0.0
  0
LINE
  5
    D5
  8
0
  6
CONTINUOUS
 62
     7
 10
-522.82229152097
 20
110.187219362554
 30
0.0
 11
-605.322291520927
 21
110.187219362554
 31
0.0
  0
LINE
  5
    D6
  8
0
  6
CONTINUOUS
 62
     7
 10
-525.72006899418
 20
109.410762206135
 30
0.0
 11
-522.82229152097
 21
110.187219362554
 31
0.0
  0
LINE
  5
    D7
  8
0
  6
CONTINUOUS
 62
     7
 10
-522.82229152097
 20
110.187219362554
 30
0.0
 11
-525.72006899418
 21
110.963676518972
 31
0.0
  0
LINE
  5
    D8
  8
0
  6
CONTINUOUS
 62
     7
 10
-602.424514047716
 20
110.963676518972
 30
0.0
 11
-605.322291520927
 21
110.187219362554
 31
0.0
  0
LINE
  5
    D9
  8
0
  6
CONTINUOUS
 62
     7
 10
-605.322291520927
 20
110.187219362554
 30
0.0
 11
-602.424514047716
 21
109.410762206135
 31
0.0
  0
ENDBLK
  5
    DA
  8
0
  6
CONTINUOUS
 62
     7
  0
BLOCK
  5
    DB
  8
0
  6
CONTINUOUS
 62
     7
  2
*UDIM381
 70
    65
 10
0.0
 20
0.0
 30
0.0
  3
*UDIM381
  0
TEXT
  5
    DC
  8
0
  6
CONTINUOUS
 62
     7
 10
-600.322291547127
 20
82.0961298293779
 30
0.0
 40
3.00000002980232
  1
30
 50
359.999999948034
 41
0.933333333333333
 72
     1
 11
-597.822291520938
 21
83.5961298420242
 31
0.0
 73
     2
  0
LINE
  5
    DD
  8
0
  6
CONTINUOUS
 62
     7
 10
-590.32229152095
 20
74.2238192558289
 30
0.0
 11
-590.32229152095
 21
83.096129827123
 31
0.0
  0
LINE
  5
    DE
  8
0
  6
CONTINUOUS
 62
     7
 10
-605.322291520927
 20
74.2237887382508
 30
0.0
 11
-605.322291520927
 21
83.096129827123
 31
0.0
  0
LINE
  5
    DF
  8
0
  6
CONTINUOUS
 62
     7
 10
-590.32229152095
 20
81.096129827123
 30
0.0
 11
-605.322291520927
 21
81.096129827123
 31
0.0
  0
LINE
  5
    E0
  8
0
  6
CONTINUOUS
 62
     7
 10
-593.220068994161
 20
80.3196726707045
 30
0.0
 11
-590.32229152095
 21
81.096129827123
 31
0.0
  0
LINE
  5
    E1
  8
0
  6
CONTINUOUS
 62
     7
 10
-590.32229152095
 20
81.096129827123
 30
0.0
 11
-593.220068994161
 21
81.8725869835415
 31
0.0
  0
LINE
  5
    E2
  8
0
  6
CONTINUOUS
 62
     7
 10
-602.424514047716
 20
81.8725869835415
 30
0.0
 11
-605.322291520927
 21
81.096129827123
 31
0.0
  0
LINE
  5
    E3
  8
0
  6
CONTINUOUS
 62
     7
 10
-605.322291520927
 20
81.096129827123
 30
0.0
 11
-602.424514047716
 21
80.3196726707045
 31
0.0
  0
ENDBLK
  5
    E4
  8
0
  6
CONTINUOUS
 62
     7
  0
BLOCK
  5
    E5
  8
0
  6
CONTINUOUS
 62
     7
  2
*UDIM382
 70
    65
 10
0.0
 20
0.0
 30
0.0
  3
*UDIM382
  0
TEXT
  5
    E6
  8
0
  6
CONTINUOUS
 62
     7
 10
-613.929265708781
 20
63.2367235134417
 30
0.0
 40
3.00000002980232
  1
8,5
 50
376.529704829164
 41
0.933333333333333
 72
     1
 11
-610.61721208113
 21
65.7843304522109
 31
0.0
 73
     2
  0
TEXT
  5
    E7
  8
0
  6
CONTINUOUS
 62
     7
 10
-617.763955172069
 20
62.0986738842238
 30
0.0
 40
3.00000002980232
  1
Ø
 50
376.529704829164
 41
1.2
 72
     1
 11
-616.752715229091
 21
63.9634510470859
 31
0.0
 73
     2
  0
LINE
  5
    E8
  8
0
  6
CONTINUOUS
 62
     7
 10
-617.479442765722
 20
61.1400015244785
 30
0.0
 11
-590.991744661422
 21
69.0009548650887
 31
0.0
  0
LINE
  5
    E9
  8
0
  6
CONTINUOUS
 62
     7
 10
-602.416571351123
 20
64.8003935015605
 30
0.0
 11
-599.859463878199
 21
66.3692151523275
 31
0.0
  0
LINE
  5
    EA
  8
0
  6
CONTINUOUS
 62
     7
 10
-599.859463878199
 20
66.3692151523275
 30
0.0
 11
-602.858394736509
 21
66.2891295289141
 31
0.0
  0
LINE
  5
    EB
  8
0
  6
CONTINUOUS
 62
     7
 10
-593.227998982665
 20
69.1472144925256
 30
0.0
 11
-595.785106455589
 21
67.5783928417586
 31
0.0
  0
LINE
  5
    EC
  8
0
  6
CONTINUOUS
 62
     7
 10
-595.785106455589
 20
67.5783928417586
 30
0.0
 11
-592.786175597279
 21
67.658478465172
 31
0.0
  0
ENDBLK
  5
    ED
  8
0
  6
CONTINUOUS
 62
     7
  0
BLOCK
  5
    EE
  8
0
  6
CONTINUOUS
 62
     7
  2
*UDIM383
 70
    65
 10
0.0
 20
0.0
 30
0.0
  3
*UDIM383
  0
TEXT
  5
    EF
  8
0
  6
CONTINUOUS
 62
     7
 10
-510.129005527785
 20
53.7988766606971
 30
0.0
 40
3.00000002980232
  1
56,5
 50
89.9999999480344
 41
0.933333333333333
 72
     1
 11
-511.629005537885
 21
59.0988767147065
 31
0.0
 73
     2
  0
LINE
  5
    F0
  8
0
  6
CONTINUOUS
 62
     7
 10
-528.697155700952
 20
44.9738807678222
 30
0.0
 11
-507.129005522984
 21
44.9738807678222
 31
0.0
  0
LINE
  5
    F1
  8
0
  6
CONTINUOUS
 62
     7
 10
-521.822291520969
 20
73.2238726615906
 30
0.0
 11
-507.129005522984
 21
73.2238726615906
 31
0.0
  0
LINE
  5
    F2
  8
0
  6
CONTINUOUS
 62
     7
 10
-509.129005522984
 20
44.9738807678222
 30
0.0
 11
-509.129005522984
 21
73.2238726615906
 31
0.0
  0
LINE
  5
    F3
  8
0
  6
CONTINUOUS
 62
     7
 10
-509.905462679403
 20
47.8716582410328
 30
0.0
 11
-509.129005522984
 21
44.9738807678222
 31
0.0
  0
LINE
  5
    F4
  8
0
  6
CONTINUOUS
 62
     7
 10
-509.129005522984
 20
44.9738807678222
 30
0.0
 11
-508.352548366566
 21
47.8716582410328
 31
0.0
  0
LINE
  5
    F5
  8
0
  6
CONTINUOUS
 62
     7
 10
-508.352548366566
 20
70.3260951883801
 30
0.0
 11
-509.129005522984
 21
73.2238726615906
 31
0.0
  0
LINE
  5
    F6
  8
0
  6
CONTINUOUS
 62
     7
 10
-509.129005522984
 20
73.2238726615906
 30
0.0
 11
-509.905462679403
 21
70.3260951883801
 31
0.0
  0
ENDBLK
  5
    F7
  8
0
  6
CONTINUOUS
 62
     7
  0
BLOCK
  5
    F8
  8
0
  6
CONTINUOUS
 62
     7
  2
*UDIM384
 70
    65
 10
0.0
 20
0.0
 30
0.0
  3
*UDIM384
  0
TEXT
  5
    F9
  8
0
  6
CONTINUOUS
 62
     7
 10
-593.051218163381
 20
99.0821020670998
 30
0.0
 40
3.00000002980232
  1
45
 50
359.999999948034
 41
0.933333333333333
 72
     1
 11
-590.551218137193
 21
100.582102079746
 31
0.0
 73
     2
  0
LINE
  5
    FA
  8
0
  6
CONTINUOUS
 62
     7
 10
-575.322285392466
 20
70.5988265236685
 30
0.0
 11
-575.322285392466
 21
100.082102064845
 31
0.0
  0
LINE
  5
    FB
  8
0
  6
CONTINUOUS
 62
     7
 10
-597.822285166894
 20
70.5988039436192
 30
0.0
 11
-597.822285166894
 21
100.082102064845
 31
0.0
  0
LINE
  5
    FC
  8
0
  6
CONTINUOUS
 62
     7
 10
-575.322285392466
 20
98.0821020648449
 30
0.0
 11
-597.822285166894
 21
98.0821020648449
 31
0.0
  0
LINE
  5
    FD
  8
0
  6
CONTINUOUS
 62
     7
 10
-578.220062865676
 20
97.3056449084264
 30
0.0
 11
-575.322285392466
 21
98.0821020648449
 31
0.0
  0
LINE
  5
    FE
  8
0
  6
CONTINUOUS
 62
     7
 10
-575.322285392466
 20
98.0821020648449
 30
0.0
 11
-578.220062865676
 21
98.8585592212634
 31
0.0
  0
LINE
  5
    FF
  8
0
  6
CONTINUOUS
 62
     7
 10
-594.924507693683
 20
98.8585592212634
 30
0.0
 11
-597.822285166894
 21
98.0821020648449
 31
0.0
  0
LINE
  5
   100
  8
0
  6
CONTINUOUS
 62
     7
 10
-597.822285166894
 20
98.0821020648449
 30
0.0
 11
-594.924507693683
 21
97.3056449084264
 31
0.0
  0
ENDBLK
  5
   101
  8
0
  6
CONTINUOUS
 62
     7
  0
BLOCK
  5
   102
  8
0
  6
CONTINUOUS
 62
     7
  2
*UDIM385
 70
    65
 10
0.0
 20
0.0
 30
0.0
  3
*UDIM385
  0
TEXT
  5
   103
  8
0
  6
CONTINUOUS
 62
     7
 10
-570.333599696077
 20
99.0821020670998
 30
0.0
 40
3.00000002980232
  1
45
 50
359.999999948034
 41
0.933333333333333
 72
     1
 11
-567.833599669889
 21
100.582102079746
 31
0.0
 73
     2
  0
LINE
  5
   104
  8
0
  6
CONTINUOUS
 62
     7
 10
-552.822285163133
 20
70.598849647662
 30
0.0
 11
-552.822285163133
 21
100.082102064845
 31
0.0
  0
LINE
  5
   105
  8
0
  6
CONTINUOUS
 62
     7
 10
-552.822285163133
 20
98.0821020648449
 30
0.0
 11
-575.322285392466
 21
98.0821020648449
 31
0.0
  0
LINE
  5
   106
  8
0
  6
CONTINUOUS
 62
     7
 10
-555.720062636343
 20
97.3056449084264
 30
0.0
 11
-552.822285163133
 21
98.0821020648449
 31
0.0
  0
LINE
  5
   107
  8
0
  6
CONTINUOUS
 62
     7
 10
-552.822285163133
 20
98.0821020648449
 30
0.0
 11
-555.720062636343
 21
98.8585592212634
 31
0.0
  0
LINE
  5
   108
  8
0
  6
CONTINUOUS
 62
     7
 10
-572.424507919255
 20
98.8585592212634
 30
0.0
 11
-575.322285392466
 21
98.0821020648449
 31
0.0
  0
LINE
  5
   109
  8
0
  6
CONTINUOUS
 62
     7
 10
-575.322285392466
 20
98.0821020648449
 30
0.0
 11
-572.424507919255
 21
97.3056449084264
 31
0.0
  0
ENDBLK
  5
   10A
  8
0
  6
CONTINUOUS
 62
     7
  0
BLOCK
  5
   10B
  8
0
  6
CONTINUOUS
 62
     7
  2
*UDIM386
 70
    65
 10
0.0
 20
0.0
 30
0.0
  3
*UDIM386
  0
TEXT
  5
   10C
  8
0
  6
CONTINUOUS
 62
     7
 10
-547.959283127483
 20
99.0821020670998
 30
0.0
 40
3.00000002980232
  1
45
 50
359.999999948034
 41
0.933333333333333
 72
     1
 11
-545.459283101295
 21
100.582102079746
 31
0.0
 73
     2
  0
LINE
  5
   10D
  8
0
  6
CONTINUOUS
 62
     7
 10
-530.322285163145
 20
70.5988724917816
 30
0.0
 11
-530.322285163145
 21
100.082102064845
 31
0.0
  0
LINE
  5
   10E
  8
0
  6
CONTINUOUS
 62
     7
 10
-530.322285163145
 20
98.0821020648449
 30
0.0
 11
-552.822285163133
 21
98.0821020648449
 31
0.0
  0
LINE
  5
   10F
  8
0
  6
CONTINUOUS
 62
     7
 10
-533.220062636355
 20
97.3056449084264
 30
0.0
 11
-530.322285163145
 21
98.0821020648449
 31
0.0
  0
LINE
  5
   110
  8
0
  6
CONTINUOUS
 62
     7
 10
-530.322285163145
 20
98.0821020648449
 30
0.0
 11
-533.220062636355
 21
98.8585592212634
 31
0.0
  0
LINE
  5
   111
  8
0
  6
CONTINUOUS
 62
     7
 10
-549.924507689922
 20
98.8585592212634
 30
0.0
 11
-552.822285163133
 21
98.0821020648449
 31
0.0
  0
LINE
  5
   112
  8
0
  6
CONTINUOUS
 62
     7
 10
-552.822285163133
 20
98.0821020648449
 30
0.0
 11
-549.924507689922
 21
97.3056449084264
 31
0.0
  0
ENDBLK
  5
   113
  8
0
  6
CONTINUOUS
 62
     7
  0
BLOCK
  5
   114
  8
0
  6
CONTINUOUS
 62
     7
  2
*UDIM387
 70
    65
 10
0.0
 20
0.0
 30
0.0
  3
*UDIM387
  0
TEXT
  5
   115
  8
0
  6
CONTINUOUS
 62
     7
 10
-548.835996168995
 20
78.0948750958905
 30
0.0
 40
3.00000002980232
  1
5
 50
359.999999948034
 41
0.933333333333334
 72
     1
 11
-547.735996156715
 21
79.5948751097995
 31
0.0
 73
     2
  0
LINE
  5
   116
  8
0
  6
CONTINUOUS
 62
     7
 10
-552.822285163133
 20
70.598849647662
 30
0.0
 11
-552.822285163133
 21
79.0948750948984
 31
0.0
  0
LINE
  5
   117
  8
0
  6
CONTINUOUS
 62
     7
 10
-546.635996145787
 20
77.0948750948984
 30
0.0
 11
-560.322146725492
 21
77.0948750948984
 31
0.0
  0
LINE
  5
   118
  8
0
  6
CONTINUOUS
 62
     7
 10
-549.924507689922
 20
77.8713322513169
 30
0.0
 11
-552.822285163133
 21
77.0948750948984
 31
0.0
  0
LINE
  5
   119
  8
0
  6
CONTINUOUS
 62
     7
 10
-552.822285163133
 20
77.0948750948984
 30
0.0
 11
-549.924507689922
 21
76.3184179384799
 31
0.0
  0
LINE
  5
   11A
  8
0
  6
CONTINUOUS
 62
     7
 10
-558.219924198702
 20
76.3184179384799
 30
0.0
 11
-555.322146725492
 21
77.0948750948984
 31
0.0
  0
LINE
  5
   11B
  8
0
  6
CONTINUOUS
 62
     7
 10
-555.322146725492
 20
77.0948750948984
 30
0.0
 11
-558.219924198702
 21
77.8713322513169
 31
0.0
  0
ENDBLK
  5
   11C
  8
0
  6
CONTINUOUS
 62
     7
  0
BLOCK
  5
   11D
  8
0
  6
CONTINUOUS
 62
     7
  2
*UDIM388
 70
    65
 10
0.0
 20
0.0
 30
0.0
  3
*UDIM388
  0
TEXT
  5
   11E
  8
0
  6
CONTINUOUS
 62
     7
 10
-538.58895819997
 20
91.6098341666349
 30
0.0
 40
3.00000002980232
  1
65
 50
359.999999948034
 41
0.933333333333333
 72
     1
 11
-536.088958173782
 21
93.1098341792812
 31
0.0
 73
     2
  0
LINE
  5
   11F
  8
0
  6
CONTINUOUS
 62
     7
 10
-522.822281348451
 20
64.2238802909903
 30
0.0
 11
-522.822281348451
 21
92.60983416438
 31
0.0
  0
LINE
  5
   120
  8
0
  6
CONTINUOUS
 62
     7
 10
-555.322146725492
 20
82.2826997471151
 30
0.0
 11
-555.322146725492
 21
92.60983416438
 31
0.0
  0
LINE
  5
   121
  8
0
  6
CONTINUOUS
 62
     7
 10
-522.822281348451
 20
90.60983416438
 30
0.0
 11
-555.322146725492
 21
90.60983416438
 31
0.0
  0
LINE
  5
   122
  8
0
  6
CONTINUOUS
 62
     7
 10
-525.720058821662
 20
89.8333770079615
 30
0.0
 11
-522.822281348451
 21
90.60983416438
 31
0.0
  0
LINE
  5
   123
  8
0
  6
CONTINUOUS
 62
     7
 10
-522.822281348451
 20
90.60983416438
 30
0.0
 11
-525.720058821662
 21
91.3862913207985
 31
0.0
  0
LINE
  5
   124
  8
0
  6
CONTINUOUS
 62
     7
 10
-552.424369252281
 20
91.3862913207985
 30
0.0
 11
-555.322146725492
 21
90.60983416438
 31
0.0
  0
LINE
  5
   125
  8
0
  6
CONTINUOUS
 62
     7
 10
-555.322146725492
 20
90.60983416438
 30
0.0
 11
-552.424369252281
 21
89.8333770079615
 31
0.0
  0
ENDBLK
  5
   126
  8
0
  6
CONTINUOUS
 62
     7
  0
BLOCK
  5
   127
  8
0
  6
CONTINUOUS
 62
     5
  2
*UDIM389
 70
    65
 10
0.0
 20
0.0
 30
0.0
  3
*UDIM389
  0
TEXT
  5
   128
  8
0
  6
CONTINUOUS
 62
     5
 10
-611.441170221675
 20
14.9363806939437
 30
0.0
 40
3.00000002980232
  1
87,25
 50
89.9999999480344
 41
0.933333333333333
 72
     1
 11
-612.941170230508
 21
21.6363807618608
 31
0.0
 73
     2
  0
LINE
  5
   129
  8
0
  6
CONTINUOUS
 62
     5
 10
-604.93165482394
 20
9.88845825175986E-2
 30
0.0
 11
-612.441170215607
 21
9.88845825175986E-2
 31
0.0
  0
LINE
  5
   12A
  8
0
  6
CONTINUOUS
 62
     5
 10
-581.697164282575
 20
43.7238807678222
 30
0.0
 11
-612.441170215607
 21
43.7238807678222
 31
0.0
  0
LINE
  5
   12B
  8
0
  6
CONTINUOUS
 62
     5
 10
-610.441170215607
 20
9.88845825175986E-2
 30
0.0
 11
-610.441170215607
 21
43.7238807678222
 31
0.0
  0
LINE
  5
   12C
  8
0
  6
CONTINUOUS
 62
     5
 10
-610.962114645558
 20
3.05330785972456
 30
0.0
 11
-610.441170215607
 21
9.88845825175986E-2
 31
0.0
  0
LINE
  5
   12D
  8
0
  6
CONTINUOUS
 62
     5
 10
-610.441170215607
 20
9.88845825175986E-2
 30
0.0
 11
-609.920225785655
 21
3.05330785972456
 31
0.0
  0
LINE
  5
   12E
  8
0
  6
CONTINUOUS
 62
     5
 10
-609.920225785655
 20
40.7694574906153
 30
0.0
 11
-610.441170215607
 21
43.7238807678222
 31
0.0
  0
LINE
  5
   12F
  8
0
  6
CONTINUOUS
 62
     5
 10
-610.441170215607
 20
43.7238807678222
 30
0.0
 11
-610.962114645558
 21
40.7694574906153
 31
0.0
  0
ENDBLK
  5
   130
  8
0
  6
CONTINUOUS
 62
     5
  0
BLOCK
  5
   131
  8
0
  6
CONTINUOUS
 62
     7
  2
*UDIM390
 70
    65
 10
0.0
 20
0.0
 30
0.0
  3
*UDIM390
  0
TEXT
  5
   132
  8
0
  6
CONTINUOUS
 62
     7
 10
-620.618716243461
 20
-2.95112690763441
 30
0.0
 40
3.00000002980232
  1
170
 50
89.9999999480344
 41
0.933333333333333
 72
     1
 11
-622.11871625483
 21
0.948873132467185
 31
0.0
 73
     2
  0
LINE
  5
   133
  8
0
  6
CONTINUOUS
 62
     7
 10
-598.32216139509
 20
-41.2761192321779
 30
0.0
 11
-621.618716239929
 21
-41.2761192321779
 31
0.0
  0
LINE
  5
   134
  8
0
  6
CONTINUOUS
 62
     7
 10
-598.32216139509
 20
43.7238807678222
 30
0.0
 11
-621.618716239929
 21
43.7238807678222
 31
0.0
  0
LINE
  5
   135
  8
0
  6
CONTINUOUS
 62
     7
 10
-619.618716239929
 20
-41.2761192321779
 30
0.0
 11
-619.618716239929
 21
43.7238807678222
 31
0.0
  0
LINE
  5
   136
  8
0
  6
CONTINUOUS
 62
     7
 10
-620.139660669881
 20
-38.3216959549709
 30
0.0
 11
-619.618716239929
 21
-41.2761192321779
 31
0.0
  0
LINE
  5
   137
  8
0
  6
CONTINUOUS
 62
     7
 10
-619.618716239929
 20
-41.2761192321779
 30
0.0
 11
-619.097771809978
 21
-38.3216959549709
 31
0.0
  0
LINE
  5
   138
  8
0
  6
CONTINUOUS
 62
     7
 10
-619.097771809978
 20
40.7694574906153
 30
0.0
 11
-619.618716239929
 21
43.7238807678222
 31
0.0
  0
LINE
  5
   139
  8
0
  6
CONTINUOUS
 62
     7
 10
-619.618716239929
 20
43.7238807678222
 30
0.0
 11
-620.139660669881
 21
40.7694574906153
 31
0.0
  0
ENDBLK
  5
   13A
  8
0
  6
CONTINUOUS
 62
     7
  0
BLOCK
  5
   13B
  8
0
  6
CONTINUOUS
 62
     7
  2
*UDIM391
 70
    65
 10
0.0
 20
0.0
 30
0.0
  3
*UDIM391
  0
TEXT
  5
   13C
  8
0
  6
CONTINUOUS
 62
     7
 10
-319.565751004992
 20
43.8003278227481
 30
0.0
 40
3.00000002980232
  1
7
 50
398.558282972087
 41
0.933333333333334
 72
     1
 11
-319.640544653039
 21
45.6589310560811
 31
0.0
 73
     2
  0
TEXT
  5
   13D
  8
0
  6
CONTINUOUS
 62
     7
 10
-322.028970719092
 20
41.8369000286449
 30
0.0
 40
3.00000002980232
  1
Ø
 50
398.558282972087
 41
0.933333333333334
 72
     1
 11
-322.103764367138
 21
43.6955032619779
 31
0.0
 73
     2
  0
LINE
  5
   13E
  8
0
  6
CONTINUOUS
 62
     7
 10
-307.134772547938
 20
52.4302232679094
 30
0.0
 11
-321.405660305184
 21
41.0549255189016
 31
0.0
  0
LINE
  5
   13F
  8
0
  6
CONTINUOUS
 62
     7
 10
-305.149198939196
 20
54.6791113140936
 30
0.0
 11
-307.134772547938
 21
52.4302232679094
 31
0.0
  0
LINE
  5
   140
  8
0
  6
CONTINUOUS
 62
     7
 10
-307.134772547938
 20
52.4302232679094
 30
0.0
 11
-304.499778767943
 21
53.8643807834521
 31
0.0
  0
LINE
  5
   141
  8
0
  6
CONTINUOUS
 62
     7
 10
-310.488801549085
 20
49.0905420062189
 30
0.0
 11
-308.503227940344
 21
51.3394300524031
 31
0.0
  0
LINE
  5
   142
  8
0
  6
CONTINUOUS
 62
     7
 10
-308.503227940344
 20
51.3394300524031
 30
0.0
 11
-311.138221720339
 21
49.9052725368604
 31
0.0
  0
ENDBLK
  5
   143
  8
0
  6
CONTINUOUS
 62
     7
  0
BLOCK
  5
   144
  8
0
  6
CONTINUOUS
 62
     7
  2
*UDIM392
 70
    65
 10
0.0
 20
0.0
 30
0.0
  3
*UDIM392
  0
TEXT
  5
   145
  8
0
  6
CONTINUOUS
 62
     7
 10
-330.113801966764
 20
65.4598266113808
 30
0.0
 40
3.00000002980232
  1
142
 50
449.999999844103
 41
0.933333333333333
 72
     1
 11
-331.613801971078
 21
69.3598266541958
 31
0.0
 73
     2
  0
LINE
  5
   146
  8
0
  6
CONTINUOUS
 62
     7
 10
-290.944000244141
 20
87.3848266601563
 30
0.0
 11
-331.113801956177
 21
87.3848266601563
 31
0.0
  0
LINE
  5
   147
  8
0
  6
CONTINUOUS
 62
     7
 10
-290.944000244141
 20
51.8848266601563
 30
0.0
 11
-331.113801956177
 21
51.8848266601563
 31
0.0
  0
LINE
  5
   148
  8
0
  6
CONTINUOUS
 62
     7
 10
-329.113801956177
 20
87.3848266601563
 30
0.0
 11
-329.113801956177
 21
51.8848266601563
 31
0.0
  0
LINE
  5
   149
  8
0
  6
CONTINUOUS
 62
     7
 10
-328.592857526225
 20
84.4304033829493
 30
0.0
 11
-329.113801956177
 21
87.3848266601563
 31
0.0
  0
LINE
  5
   14A
  8
0
  6
CONTINUOUS
 62
     7
 10
-329.113801956177
 20
87.3848266601563
 30
0.0
 11
-329.634746386128
 21
84.4304033829493
 31
0.0
  0
LINE
  5
   14B
  8
0
  6
CONTINUOUS
 62
     7
 10
-329.634746386128
 20
54.8392499373632
 30
0.0
 11
-329.113801956177
 21
51.8848266601563
 31
0.0
  0
LINE
  5
   14C
  8
0
  6
CONTINUOUS
 62
     7
 10
-329.113801956177
 20
51.8848266601563
 30
0.0
 11
-328.592857526225
 21
54.8392499373632
 31
0.0
  0
ENDBLK
  5
   14D
  8
0
  6
CONTINUOUS
 62
     7
  0
BLOCK
  5
   14E
  8
0
  6
CONTINUOUS
 62
     7
  2
*UDIM393
 70
    65
 10
0.0
 20
0.0
 30
0.0
  3
*UDIM393
  0
TEXT
  5
   14F
  8
0
  6
CONTINUOUS
 62
     7
 10
-322.530115138151
 20
65.4598266113808
 30
0.0
 40
3.00000002980232
  1
112
 50
449.999999844103
 41
0.933333333333333
 72
     1
 11
-324.030115142465
 21
69.3598266541958
 31
0.0
 73
     2
  0
LINE
  5
   150
  8
0
  6
CONTINUOUS
 62
     7
 10
-312.819000244141
 20
83.6348266601563
 30
0.0
 11
-323.530115127563
 21
83.6348266601563
 31
0.0
  0
LINE
  5
   151
  8
0
  6
CONTINUOUS
 62
     7
 10
-312.819000244141
 20
55.6348266601563
 30
0.0
 11
-323.530115127563
 21
55.6348266601563
 31
0.0
  0
LINE
  5
   152
  8
0
  6
CONTINUOUS
 62
     7
 10
-321.530115127564
 20
83.6348266601563
 30
0.0
 11
-321.530115127564
 21
55.6348266601563
 31
0.0
  0
LINE
  5
   153
  8
0
  6
CONTINUOUS
 62
     7
 10
-321.009170697612
 20
80.6804033829493
 30
0.0
 11
-321.530115127564
 21
83.6348266601563
 31
0.0
  0
LINE
  5
   154
  8
0
  6
CONTINUOUS
 62
     7
 10
-321.530115127564
 20
83.6348266601563
 30
0.0
 11
-322.051059557515
 21
80.6804033829493
 31
0.0
  0
LINE
  5
   155
  8
0
  6
CONTINUOUS
 62
     7
 10
-322.051059557515
 20
58.5892499373632
 30
0.0
 11
-321.530115127564
 21
55.6348266601563
 31
0.0
  0
LINE
  5
   156
  8
0
  6
CONTINUOUS
 62
     7
 10
-321.530115127564
 20
55.6348266601563
 30
0.0
 11
-321.009170697612
 21
58.5892499373632
 31
0.0
  0
ENDBLK
  5
   157
  8
0
  6
CONTINUOUS
 62
     7
  0
BLOCK
  5
   158
  8
0
  6
CONTINUOUS
 62
     7
  2
*UDIM394
 70
    65
 10
0.0
 20
0.0
 30
0.0
  3
*UDIM394
  0
TEXT
  5
   159
  8
0
  6
CONTINUOUS
 62
     7
 10
-301.994000292918
 20
103.046298991305
 30
0.0
 40
3.00000002980232
  1
112
 50
359.999999844103
 41
0.933333333333333
 72
     1
 11
-298.094000250101
 21
104.546298995614
 31
0.0
 73
     2
  0
LINE
  5
   15A
  8
0
  6
CONTINUOUS
 62
     7
 10
-311.819000244141
 20
84.6348266601563
 30
0.0
 11
-311.819000244141
 21
104.046298980713
 31
0.0
  0
LINE
  5
   15B
  8
0
  6
CONTINUOUS
 62
     7
 10
-283.819000244141
 20
84.6348266601563
 30
0.0
 11
-283.819000244141
 21
104.046298980713
 31
0.0
  0
LINE
  5
   15C
  8
0
  6
CONTINUOUS
 62
     7
 10
-311.819000244141
 20
102.046298980713
 30
0.0
 11
-283.819000244141
 21
102.046298980713
 31
0.0
  0
LINE
  5
   15D
  8
0
  6
CONTINUOUS
 62
     7
 10
-308.864576966934
 20
102.567243410665
 30
0.0
 11
-311.819000244141
 21
102.046298980713
 31
0.0
  0
LINE
  5
   15E
  8
0
  6
CONTINUOUS
 62
     7
 10
-311.819000244141
 20
102.046298980713
 30
0.0
 11
-308.864576966934
 21
101.525354550761
 31
0.0
  0
LINE
  5
   15F
  8
0
  6
CONTINUOUS
 62
     7
 10
-286.773423521348
 20
101.525354550761
 30
0.0
 11
-283.819000244141
 21
102.046298980713
 31
0.0
  0
LINE
  5
   160
  8
0
  6
CONTINUOUS
 62
     7
 10
-283.819000244141
 20
102.046298980713
 30
0.0
 11
-286.773423521348
 21
102.567243410665
 31
0.0
  0
ENDBLK
  5
   161
  8
0
  6
CONTINUOUS
 62
     7
  0
BLOCK
  5
   162
  8
0
  6
CONTINUOUS
 62
     7
  2
*UDIM395
 70
    65
 10
0.0
 20
0.0
 30
0.0
  3
*UDIM395
  0
TEXT
  5
   163
  8
0
  6
CONTINUOUS
 62
     7
 10
-300.59400027901
 20
96.3881282874294
 30
0.0
 40
3.00000002980232
  1
80
 50
359.999999844103
 41
0.933333333333333
 72
     1
 11
-298.094000250101
 21
97.8881282955408
 31
0.0
 73
     2
  0
LINE
  5
   164
  8
0
  6
CONTINUOUS
 62
     7
 10
-307.819000244141
 20
89.4473266601563
 30
0.0
 11
-307.819000244141
 21
97.3881282806397
 31
0.0
  0
LINE
  5
   165
  8
0
  6
CONTINUOUS
 62
     7
 10
-287.819000244141
 20
89.4473266601563
 30
0.0
 11
-287.819000244141
 21
97.3881282806397
 31
0.0
  0
LINE
  5
   166
  8
0
  6
CONTINUOUS
 62
     7
 10
-307.819000244141
 20
95.3881282806397
 30
0.0
 11
-287.819000244141
 21
95.3881282806397
 31
0.0
  0
LINE
  5
   167
  8
0
  6
CONTINUOUS
 62
     7
 10
-304.864576966934
 20
95.9090727105913
 30
0.0
 11
-307.819000244141
 21
95.3881282806397
 31
0.0
  0
LINE
  5
   168
  8
0
  6
CONTINUOUS
 62
     7
 10
-307.819000244141
 20
95.3881282806397
 30
0.0
 11
-304.864576966934
 21
94.867183850688
 31
0.0
  0
LINE
  5
   169
  8
0
  6
CONTINUOUS
 62
     7
 10
-290.773423521348
 20
94.867183850688
 30
0.0
 11
-287.819000244141
 21
95.3881282806397
 31
0.0
  0
LINE
  5
   16A
  8
0
  6
CONTINUOUS
 62
     7
 10
-287.819000244141
 20
95.3881282806397
 30
0.0
 11
-290.773423521348
 21
95.9090727105913
 31
0.0
  0
ENDBLK
  5
   16B
  8
0
  6
CONTINUOUS
 62
     7
  0
BLOCK
  5
   16C
  8
0
  6
CONTINUOUS
 62
     7
  2
*HATCH262
 70
    65
 10
0.0
 20
0.0
 30
0.0
  3
*HATCH262
  0
LINE
  5
   16D
  8
0
  6
CONTINUOUS
 62
   210
 10
23.0000019073486
 20
76.7020874023438
 30
0.0
 11
25.7020854949951
 21
74.0
 31
0.0
  0
LINE
  5
   16E
  8
0
  6
CONTINUOUS
 62
   210
 10
24.194730758667
 20
79.75
 30
0.0
 11
28.0000019073486
 21
75.9447250366211
 31
0.0
  0
ENDBLK
  5
   16F
  8
0
  6
CONTINUOUS
 62
     7
  0
BLOCK
  5
   170
  8
0
  6
CONTINUOUS
 62
     7
  2
*HATCH263
 70
    65
 10
0.0
 20
0.0
 30
0.0
  3
*HATCH263
  0
LINE
  5
   171
  8
0
  6
CONTINUOUS
 62
   210
 10
22.9999980926514
 20
91.5513381958008
 30
0.0
 11
26.3013362884521
 21
88.25
 31
0.0
  0
LINE
  5
   172
  8
0
  6
CONTINUOUS
 62
   210
 10
22.9999942779541
 20
95.7939910888672
 30
0.0
 11
28.0000019073486
 21
90.7939758300781
 31
0.0
  0
LINE
  5
   173
  8
0
  6
CONTINUOUS
 62
   210
 10
22.9999904632568
 20
100.036636352539
 30
0.0
 11
28.0000019073486
 21
95.03662109375
 31
0.0
  0
LINE
  5
   174
  8
0
  6
CONTINUOUS
 62
   210
 10
22.9999866485596
 20
104.279281616211
 30
0.0
 11
28.0000019073486
 21
99.2792663574219
 31
0.0
  0
LINE
  5
   175
  8
0
  6
CONTINUOUS
 62
   210
 10
23.3986186981201
 20
108.12329864502
 30
0.0
 11
28.0000019073486
 21
103.521903991699
 31
0.0
  0
LINE
  5
   176
  8
0
  6
CONTINUOUS
 62
   210
 10
25.0352230072022
 20
110.729331970215
 30
0.0
 11
28.5697040557861
 21
107.194847106934
 31
0.0
  0
LINE
  5
   177
  8
0
  6
CONTINUOUS
 62
   210
 10
27.5920448303223
 20
112.415153503418
 30
0.0
 11
31.3544807434082
 21
108.652709960937
 31
0.0
  0
LINE
  5
   178
  8
0
  6
CONTINUOUS
 62
   210
 10
30.4854621887207
 20
113.764381408691
 30
0.0
 11
34.2478981018066
 21
110.001937866211
 31
0.0
  0
LINE
  5
   179
  8
0
  6
CONTINUOUS
 62
   210
 10
33.3788795471191
 20
115.113609313965
 30
0.0
 11
37.1413154602051
 21
111.351165771484
 31
0.0
  0
LINE
  5
   17A
  8
0
  6
CONTINUOUS
 62
   210
 10
36.2722969055176
 20
116.462837219238
 30
0.0
 11
40.0347328186035
 21
112.700393676758
 31
0.0
  0
LINE
  5
   17B
  8
0
  6
CONTINUOUS
 62
   210
 10
39.165714263916
 20
117.812065124512
 30
0.0
 11
42.928150177002
 21
114.049621582031
 31
0.0
  0
LINE
  5
   17C
  8
0
  6
CONTINUOUS
 62
   210
 10
42.0123329162598
 20
119.208061218262
 30
0.0
 11
45.5996932983398
 21
115.620697021484
 31
0.0
  0
LINE
  5
   17D
  8
0
  6
CONTINUOUS
 62
   210
 10
43.0000038146973
 20
122.463035583496
 30
0.0
 11
47.3902053833008
 21
118.072830200195
 31
0.0
  0
LINE
  5
   17E
  8
0
  6
CONTINUOUS
 62
   210
 10
43.0000038146973
 20
126.705680847168
 30
0.0
 11
48.0000038146973
 21
121.705673217773
 31
0.0
  0
LINE
  5
   17F
  8
0
  6
CONTINUOUS
 62
   210
 10
43.0000038146973
 20
130.948318481445
 30
0.0
 11
48.0000038146973
 21
125.948318481445
 31
0.0
  0
LINE
  5
   180
  8
0
  6
CONTINUOUS
 62
   210
 10
43.0000038146973
 20
135.190963745117
 30
0.0
 11
48.0000038146973
 21
130.190963745117
 31
0.0
  0
LINE
  5
   181
  8
0
  6
CONTINUOUS
 62
   210
 10
43.0000038146973
 20
139.433609008789
 30
0.0
 11
48.0000038146973
 21
134.433609008789
 31
0.0
  0
LINE
  5
   182
  8
0
  6
CONTINUOUS
 62
   210
 10
46.9262466430664
 20
139.75
 30
0.0
 11
48.0000038146973
 21
138.676239013672
 31
0.0
  0
ENDBLK
  5
   183
  8
0
  6
CONTINUOUS
 62
     7
  0
BLOCK
  5
   184
  8
0
  6
CONTINUOUS
 62
     7
  2
*HATCH264
 70
    65
 10
0.0
 20
0.0
 30
0.0
  3
*HATCH264
  0
LINE
  5
   185
  8
0
  6
CONTINUOUS
 62
   210
 10
43.0000038146973
 20
152.161544799805
 30
0.0
 11
46.9115333557129
 21
148.25
 31
0.0
  0
LINE
  5
   186
  8
0
  6
CONTINUOUS
 62
   210
 10
43.0000038146973
 20
156.404174804688
 30
0.0
 11
48.0000038146973
 21
151.404174804688
 31
0.0
  0
LINE
  5
   187
  8
0
  6
CONTINUOUS
 62
   210
 10
47.1468353271484
 20
156.499984741211
 30
0.0
 11
48.0000038146973
 21
155.646820068359
 31
0.0
  0
ENDBLK
  5
   188
  8
0
  6
CONTINUOUS
 62
     7
  0
BLOCK
  5
   189
  8
0
  6
CONTINUOUS
 62
     7
  2
*UDIM396
 70
    65
 10
0.0
 20
0.0
 30
0.0
  3
*UDIM396
  0
TEXT
  5
   18A
  8
0
  6
CONTINUOUS
 62
     7
 10
-436.102568651239
 20
81.6994962328294
 30
0.0
 40
3.00000002980232
  1
45
 41
0.933333333333333
 72
     1
 11
-433.602568626404
 21
83.1994962477306
 31
0.0
 73
     2
  0
LINE
  5
   18B
  8
0
  6
CONTINUOUS
 62
     7
 10
-444.852568626404
 20
49.7380328634215
 30
0.0
 11
-444.852568626404
 21
82.6994962328294
 31
0.0
  0
LINE
  5
   18C
  8
0
  6
CONTINUOUS
 62
     7
 10
-422.352568626404
 20
70.0988802909852
 30
0.0
 11
-422.352568626404
 21
82.6994962328294
 31
0.0
  0
LINE
  5
   18D
  8
0
  6
CONTINUOUS
 62
     7
 10
-444.852568626404
 20
80.6994962328294
 30
0.0
 11
-422.352568626404
 21
80.6994962328294
 31
0.0
  0
LINE
  5
   18E
  8
0
  6
CONTINUOUS
 62
     7
 10
-441.954791153193
 20
81.475953389248
 30
0.0
 11
-444.852568626404
 21
80.6994962328294
 31
0.0
  0
LINE
  5
   18F
  8
0
  6
CONTINUOUS
 62
     7
 10
-444.852568626404
 20
80.6994962328294
 30
0.0
 11
-441.954791153193
 21
79.9230390764109
 31
0.0
  0
LINE
  5
   190
  8
0
  6
CONTINUOUS
 62
     7
 10
-425.250346099614
 20
79.9230390764109
 30
0.0
 11
-422.352568626404
 21
80.6994962328294
 31
0.0
  0
LINE
  5
   191
  8
0
  6
CONTINUOUS
 62
     7
 10
-422.352568626404
 20
80.6994962328294
 30
0.0
 11
-425.250346099614
 21
81.475953389248
 31
0.0
  0
ENDBLK
  5
   192
  8
0
  6
CONTINUOUS
 62
     7
  0
BLOCK
  5
   193
  8
0
  6
CONTINUOUS
 62
     7
  2
*UDIM397
 70
    65
 10
0.0
 20
0.0
 30
0.0
  3
*UDIM397
  0
TEXT
  5
   194
  8
0
  6
CONTINUOUS
 62
     7
 10
-415.860530482729
 20
81.6994962328294
 30
0.0
 40
3.00000002980232
  1
5
 41
0.933333333333334
 72
     1
 11
-414.760530471802
 21
83.1994962477306
 31
0.0
 73
     2
  0
LINE
  5
   195
  8
0
  6
CONTINUOUS
 62
     7
 10
-419.85256767273
 20
70.0988802909852
 30
0.0
 11
-419.85256767273
 21
82.6994962328294
 31
0.0
  0
LINE
  5
   196
  8
0
  6
CONTINUOUS
 62
     7
 10
-422.352568626404
 20
80.6994962328294
 30
0.0
 11
-413.660530460874
 21
80.6994962328294
 31
0.0
  0
LINE
  5
   197
  8
0
  6
CONTINUOUS
 62
     7
 10
-425.250346099614
 20
79.9230390764109
 30
0.0
 11
-422.352568626404
 21
80.6994962328294
 31
0.0
  0
LINE
  5
   198
  8
0
  6
CONTINUOUS
 62
     7
 10
-422.352568626404
 20
80.6994962328294
 30
0.0
 11
-425.250346099614
 21
81.475953389248
 31
0.0
  0
LINE
  5
   199
  8
0
  6
CONTINUOUS
 62
     7
 10
-416.954790199519
 20
81.475953389248
 30
0.0
 11
-419.85256767273
 21
80.6994962328294
 31
0.0
  0
LINE
  5
   19A
  8
0
  6
CONTINUOUS
 62
     7
 10
-419.85256767273
 20
80.6994962328294
 30
0.0
 11
-416.954790199519
 21
79.9230390764109
 31
0.0
  0
ENDBLK
  5
   19B
  8
0
  6
CONTINUOUS
 62
     7
  0
BLOCK
  5
   19C
  8
0
  6
CONTINUOUS
 62
     7
  2
*UDIM398
 70
    65
 10
0.0
 20
0.0
 30
0.0
  3
*UDIM398
  0
TEXT
  5
   19D
  8
0
  6
CONTINUOUS
 62
     7
 10
-422.571184533834
 20
88.6401608047121
 30
0.0
 40
3.00000002980232
  1
101
 41
0.933333333333333
 72
     1
 11
-418.671184495092
 21
90.1401608196133
 31
0.0
 73
     2
  0
LINE
  5
   19E
  8
0
  6
CONTINUOUS
 62
     7
 10
-444.602568164468
 20
87.6401608047121
 30
0.0
 11
-394.102568164468
 21
87.6401608047121
 31
0.0
  0
LINE
  5
   19F
  8
0
  6
CONTINUOUS
 62
     7
 10
-441.704790691257
 20
88.4166179611307
 30
0.0
 11
-444.602568164468
 21
87.6401608047121
 31
0.0
  0
LINE
  5
   1A0
  8
0
  6
CONTINUOUS
 62
     7
 10
-444.602568164468
 20
87.6401608047121
 30
0.0
 11
-441.704790691257
 21
86.8637036482936
 31
0.0
  0
LINE
  5
   1A1
  8
0
  6
CONTINUOUS
 62
     7
 10
-397.000345637678
 20
86.8637036482936
 30
0.0
 11
-394.102568164468
 21
87.6401608047121
 31
0.0
  0
LINE
  5
   1A2
  8
0
  6
CONTINUOUS
 62
     7
 10
-394.102568164468
 20
87.6401608047121
 30
0.0
 11
-397.000345637678
 21
88.4166179611307
 31
0.0
  0
ENDBLK
  5
   1A3
  8
0
  6
CONTINUOUS
 62
     7
  0
BLOCK
  5
   1A4
  8
0
  6
CONTINUOUS
 62
     7
  2
*UDIM399
 70
    65
 10
0.0
 20
0.0
 30
0.0
  3
*UDIM399
  0
TEXT
  5
   1A5
  8
0
  6
CONTINUOUS
 62
     7
 10
-465.609051916214
 20
49.4738802661517
 30
0.0
 40
3.00000002980232
  1
60
 50
90.0
 41
0.933333333333333
 72
     1
 11
-467.109051931119
 21
51.9738802909851
 31
0.0
 73
     2
  0
LINE
  5
   1A6
  8
0
  6
CONTINUOUS
 62
     7
 10
-438.516082739388
 20
36.9738802909851
 30
0.0
 11
-466.609051916217
 21
36.9738802909851
 31
0.0
  0
LINE
  5
   1A7
  8
0
  6
CONTINUOUS
 62
     7
 10
-424.352568626404
 20
66.9738802909851
 30
0.0
 11
-466.609051916217
 21
66.9738802909851
 31
0.0
  0
LINE
  5
   1A8
  8
0
  6
CONTINUOUS
 62
     7
 10
-464.609051916217
 20
36.9738802909851
 30
0.0
 11
-464.609051916217
 21
66.9738802909851
 31
0.0
  0
LINE
  5
   1A9
  8
0
  6
CONTINUOUS
 62
     7
 10
-465.385509072636
 20
39.8716577641956
 30
0.0
 11
-464.609051916217
 21
36.9738802909851
 31
0.0
  0
LINE
  5
   1AA
  8
0
  6
CONTINUOUS
 62
     7
 10
-464.609051916217
 20
36.9738802909851
 30
0.0
 11
-463.832594759799
 21
39.8716577641956
 31
0.0
  0
LINE
  5
   1AB
  8
0
  6
CONTINUOUS
 62
     7
 10
-463.832594759799
 20
64.0761028177746
 30
0.0
 11
-464.609051916217
 21
66.9738802909851
 31
0.0
  0
LINE
  5
   1AC
  8
0
  6
CONTINUOUS
 62
     7
 10
-464.609051916217
 20
66.9738802909851
 30
0.0
 11
-465.385509072636
 21
64.0761028177746
 31
0.0
  0
ENDBLK
  5
   1AD
  8
0
  6
CONTINUOUS
 62
     7
  0
BLOCK
  5
   1AE
  8
0
  6
CONTINUOUS
 62
     7
  2
*UDIM400
 70
    65
 10
0.0
 20
0.0
 30
0.0
  3
*UDIM400
  0
TEXT
  5
   1AF
  8
0
  6
CONTINUOUS
 62
     7
 10
-465.609051916211
 20
76.7129980514466
 30
0.0
 40
3.00000002980232
  1
12,5
 50
90.0
 41
0.933333333333333
 72
     1
 11
-467.109051931119
 21
82.0129981040955
 31
0.0
 73
     2
  0
LINE
  5
   1B0
  8
0
  6
CONTINUOUS
 62
     7
 10
-423.352568626404
 20
73.2238726615906
 30
0.0
 11
-466.609051916217
 21
73.2238726615906
 31
0.0
  0
LINE
  5
   1B1
  8
0
  6
CONTINUOUS
 62
     7
 10
-464.609051916217
 20
66.9738802909851
 30
0.0
 11
-464.609051916217
 21
87.3129981567463
 31
0.0
  0
LINE
  5
   1B2
  8
0
  6
CONTINUOUS
 62
     7
 10
-463.832594759799
 20
64.0761028177746
 30
0.0
 11
-464.609051916217
 21
66.9738802909851
 31
0.0
  0
LINE
  5
   1B3
  8
0
  6
CONTINUOUS
 62
     7
 10
-464.609051916217
 20
66.9738802909851
 30
0.0
 11
-465.385509072636
 21
64.0761028177746
 31
0.0
  0
LINE
  5
   1B4
  8
0
  6
CONTINUOUS
 62
     7
 10
-465.385509072636
 20
76.1216501348012
 30
0.0
 11
-464.609051916217
 21
73.2238726615906
 31
0.0
  0
LINE
  5
   1B5
  8
0
  6
CONTINUOUS
 62
     7
 10
-464.609051916217
 20
73.2238726615906
 30
0.0
 11
-463.832594759799
 21
76.1216501348012
 31
0.0
  0
ENDBLK
  5
   1B6
  8
0
  6
CONTINUOUS
 62
     7
  0
BLOCK
  5
   1B7
  8
0
  6
CONTINUOUS
 62
     7
  2
*HATCH265
 70
    65
 10
0.0
 20
0.0
 30
0.0
  3
*HATCH265
  0
LINE
  5
   1B8
  8
0
  6
CONTINUOUS
 62
   210
 10
9.1102123260498
 20
71.5
 30
0.0
 11
13.0000019073486
 21
67.6102066040039
 31
0.0
  0
ENDBLK
  5
   1B9
  8
0
  6
CONTINUOUS
 62
     7
  0
BLOCK
  5
   1BA
  8
0
  6
CONTINUOUS
 62
     7
  2
*HATCH266
 70
    65
 10
0.0
 20
0.0
 30
0.0
  3
*HATCH266
  0
LINE
  5
   1BB
  8
0
  6
CONTINUOUS
 62
   210
 10
14.1969509124756
 20
-46.0167922973633
 30
0.0
 11
17.1801414489746
 21
-48.9999885559082
 31
0.0
  0
ENDBLK
  5
   1BC
  8
0
  6
CONTINUOUS
 62
     7
  0
BLOCK
  5
   1BD
  8
0
  6
CONTINUOUS
 62
     7
  2
*HATCH267
 70
    65
 10
0.0
 20
0.0
 30
0.0
  3
*HATCH267
  0
LINE
  5
   1BE
  8
0
  6
CONTINUOUS
 62
   210
 10
20.7441368103027
 20
-45.0167922973633
 30
0.0
 11
18.0000019073486
 21
-47.7609252929688
 31
0.0
  0
LINE
  5
   1BF
  8
0
  6
CONTINUOUS
 62
   210
 10
21.0
 20
-49.0035667419434
 30
0.0
 11
18.0000019073486
 21
-52.0035667419434
 31
0.0
  0
LINE
  5
   1C0
  8
0
  6
CONTINUOUS
 62
   210
 10
21.0
 20
-53.246208190918
 30
0.0
 11
19.3462104797363
 21
-54.9000015258789
 31
0.0
  0
ENDBLK
  5
   1C1
  8
0
  6
CONTINUOUS
 62
     7
  0
BLOCK
  5
   1C2
  8
0
  6
CONTINUOUS
 62
     7
  2
*HATCH268
 70
    65
 10
0.0
 20
0.0
 30
0.0
  3
*HATCH268
  0
LINE
  5
   1C3
  8
0
  6
CONTINUOUS
 62
   210
 10
21.7528133392334
 20
-63.0999984741211
 30
0.0
 11
18.0000019073486
 21
-66.8528137207031
 31
0.0
  0
LINE
  5
   1C4
  8
0
  6
CONTINUOUS
 62
   210
 10
23.0
 20
-66.0954513549805
 30
0.0
 11
21.0954647064209
 21
-67.9999847412109
 31
0.0
  0
ENDBLK
  5
   1C5
  8
0
  6
CONTINUOUS
 62
     7
  0
BLOCK
  5
   1C6
  8
0
  6
CONTINUOUS
 62
     7
  2
*HATCH269
 70
    65
 10
0.0
 20
0.0
 30
0.0
  3
*HATCH269
  0
LINE
  5
   1C7
  8
0
  6
CONTINUOUS
 62
   210
 10
23.0
 20
-47.0035705566406
 30
0.0
 11
21.0000019073486
 21
-49.0035705566406
 31
0.0
  0
LINE
  5
   1C8
  8
0
  6
CONTINUOUS
 62
   210
 10
23.0
 20
-51.246208190918
 30
0.0
 11
21.0000019073486
 21
-53.246208190918
 31
0.0
  0
ENDBLK
  5
   1C9
  8
0
  6
CONTINUOUS
 62
     7
  0
BLOCK
  5
   1CA
  8
0
  6
CONTINUOUS
 62
     7
  2
*HATCH270
 70
    65
 10
0.0
 20
0.0
 30
0.0
  3
*HATCH270
  0
LINE
  5
   1CB
  8
0
  6
CONTINUOUS
 62
   210
 10
23.5807666778564
 20
74.0
 30
0.0
 11
26.0807647705078
 21
71.5
 31
0.0
  0
LINE
  5
   1CC
  8
0
  6
CONTINUOUS
 62
   210
 10
27.8234043121338
 20
74.0
 30
0.0
 11
30.3234024047852
 21
71.5
 31
0.0
  0
LINE
  5
   1CD
  8
0
  6
CONTINUOUS
 62
   210
 10
32.0660438537598
 20
74.0
 30
0.0
 11
34.5660400390625
 21
71.5
 31
0.0
  0
ENDBLK
  5
   1CE
  8
0
  6
CONTINUOUS
 62
     7
  0
BLOCK
  5
   1CF
  8
0
  6
CONTINUOUS
 62
     7
  2
*HATCH271
 70
    65
 10
0.0
 20
0.0
 30
0.0
  3
*HATCH271
  0
LINE
  5
   1D0
  8
0
  6
CONTINUOUS
 62
    52
 10
107.001167297363
 20
-64.8257827758789
 30
0.0
 11
105.001167297363
 21
-66.8257751464844
 31
0.0
  0
LINE
  5
   1D1
  8
0
  6
CONTINUOUS
 62
    52
 10
107.001167297363
 20
-69.0684280395508
 30
0.0
 11
105.001167297363
 21
-71.0684204101563
 31
0.0
  0
LINE
  5
   1D2
  8
0
  6
CONTINUOUS
 62
    52
 10
107.001167297363
 20
-73.3110733032227
 30
0.0
 11
105.001167297363
 21
-75.3110656738281
 31
0.0
  0
LINE
  5
   1D3
  8
0
  6
CONTINUOUS
 62
    52
 10
107.001167297363
 20
-77.5537185668945
 30
0.0
 11
105.001167297363
 21
-79.5537109375
 31
0.0
  0
LINE
  5
   1D4
  8
0
  6
CONTINUOUS
 62
    52
 10
107.001167297363
 20
-81.7963638305664
 30
0.0
 11
105.001167297363
 21
-83.7963562011719
 31
0.0
  0
LINE
  5
   1D5
  8
0
  6
CONTINUOUS
 62
    52
 10
107.001167297363
 20
-86.0390090942383
 30
0.0
 11
105.001167297363
 21
-88.0390014648438
 31
0.0
  0
LINE
  5
   1D6
  8
0
  6
CONTINUOUS
 62
    52
 10
107.001167297363
 20
-90.2816543579102
 30
0.0
 11
105.001167297363
 21
-92.2816467285156
 31
0.0
  0
LINE
  5
   1D7
  8
0
  6
CONTINUOUS
 62
    52
 10
107.001167297363
 20
-94.524299621582
 30
0.0
 11
105.001167297363
 21
-96.5242919921875
 31
0.0
  0
LINE
  5
   1D8
  8
0
  6
CONTINUOUS
 62
    52
 10
107.001167297363
 20
-98.7669448852539
 30
0.0
 11
105.001167297363
 21
-100.766937255859
 31
0.0
  0
LINE
  5
   1D9
  8
0
  6
CONTINUOUS
 62
    52
 10
107.001167297363
 20
-103.009590148926
 30
0.0
 11
105.001167297363
 21
-105.009582519531
 31
0.0
  0
LINE
  5
   1DA
  8
0
  6
CONTINUOUS
 62
    52
 10
107.001167297363
 20
-107.252235412598
 30
0.0
 11
105.001167297363
 21
-109.252227783203
 31
0.0
  0
LINE
  5
   1DB
  8
0
  6
CONTINUOUS
 62
    52
 10
107.001167297363
 20
-111.49488067627
 30
0.0
 11
105.001167297363
 21
-113.494873046875
 31
0.0
  0
LINE
  5
   1DC
  8
0
  6
CONTINUOUS
 62
    52
 10
107.001167297363
 20
-115.737464904785
 30
0.0
 11
105.269889831543
 21
-117.46875
 31
0.0
  0
ENDBLK
  5
   1DD
  8
0
  6
CONTINUOUS
 62
     7
  0
BLOCK
  5
   1DE
  8
0
  6
CONTINUOUS
 62
     7
  2
*HATCH272
 70
    65
 10
0.0
 20
0.0
 30
0.0
  3
*HATCH272
  0
LINE
  5
   1DF
  8
0
  6
CONTINUOUS
 62
    52
 10
107.001167297363
 20
-47.8552169799805
 30
0.0
 11
105.001167297363
 21
-49.8552169799805
 31
0.0
  0
LINE
  5
   1E0
  8
0
  6
CONTINUOUS
 62
    52
 10
107.001167297363
 20
-52.0978546142578
 30
0.0
 11
105.001167297363
 21
-54.0978546142578
 31
0.0
  0
LINE
  5
   1E1
  8
0
  6
CONTINUOUS
 62
    52
 10
107.001167297363
 20
-56.3404998779297
 30
0.0
 11
106.091667175293
 21
-57.25
 31
0.0
  0
ENDBLK
  5
   1E2
  8
0
  6
CONTINUOUS
 62
     7
  0
BLOCK
  5
   1E3
  8
0
  6
CONTINUOUS
 62
     7
  2
*HATCH273
 70
    65
 10
0.0
 20
0.0
 30
0.0
  3
*HATCH273
  0
LINE
  5
   1E4
  8
0
  6
CONTINUOUS
 62
    52
 10
107.001167297363
 20
77.3026809692383
 30
0.0
 11
105.001167297363
 21
75.3026809692383
 31
0.0
  0
LINE
  5
   1E5
  8
0
  6
CONTINUOUS
 62
    52
 10
107.001167297363
 20
73.0600357055664
 30
0.0
 11
105.001167297363
 21
71.0600357055664
 31
0.0
  0
LINE
  5
   1E6
  8
0
  6
CONTINUOUS
 62
    52
 10
107.001167297363
 20
68.8173904418945
 30
0.0
 11
105.001167297363
 21
66.8173904418945
 31
0.0
  0
ENDBLK
  5
   1E7
  8
0
  6
CONTINUOUS
 62
     7
  0
BLOCK
  5
   1E8
  8
0
  6
CONTINUOUS
 62
     7
  2
*HATCH274
 70
    65
 10
0.0
 20
0.0
 30
0.0
  3
*HATCH274
  0
LINE
  5
   1E9
  8
0
  6
CONTINUOUS
 62
    52
 10
107.001167297363
 20
162.155487060547
 30
0.0
 11
105.001167297363
 21
160.155487060547
 31
0.0
  0
LINE
  5
   1EA
  8
0
  6
CONTINUOUS
 62
    52
 10
107.001167297363
 20
157.912841796875
 30
0.0
 11
105.001167297363
 21
155.912841796875
 31
0.0
  0
LINE
  5
   1EB
  8
0
  6
CONTINUOUS
 62
    52
 10
107.001167297363
 20
153.670196533203
 30
0.0
 11
105.001167297363
 21
151.670196533203
 31
0.0
  0
LINE
  5
   1EC
  8
0
  6
CONTINUOUS
 62
    52
 10
107.001167297363
 20
149.427551269531
 30
0.0
 11
105.001167297363
 21
147.427551269531
 31
0.0
  0
LINE
  5
   1ED
  8
0
  6
CONTINUOUS
 62
    52
 10
107.001167297363
 20
145.184906005859
 30
0.0
 11
105.001167297363
 21
143.184906005859
 31
0.0
  0
LINE
  5
   1EE
  8
0
  6
CONTINUOUS
 62
    52
 10
107.001167297363
 20
140.942260742188
 30
0.0
 11
105.001167297363
 21
138.942260742188
 31
0.0
  0
LINE
  5
   1EF
  8
0
  6
CONTINUOUS
 62
    52
 10
107.001167297363
 20
136.699615478516
 30
0.0
 11
105.001167297363
 21
134.699615478516
 31
0.0
  0
LINE
  5
   1F0
  8
0
  6
CONTINUOUS
 62
    52
 10
107.001167297363
 20
132.456970214844
 30
0.0
 11
105.001167297363
 21
130.456970214844
 31
0.0
  0
LINE
  5
   1F1
  8
0
  6
CONTINUOUS
 62
    52
 10
107.001167297363
 20
128.214324951172
 30
0.0
 11
105.001167297363
 21
126.214324951172
 31
0.0
  0
LINE
  5
   1F2
  8
0
  6
CONTINUOUS
 62
    52
 10
107.001167297363
 20
123.9716796875
 30
0.0
 11
105.001167297363
 21
121.9716796875
 31
0.0
  0
LINE
  5
   1F3
  8
0
  6
CONTINUOUS
 62
    52
 10
107.001167297363
 20
119.729034423828
 30
0.0
 11
105.001167297363
 21
117.729034423828
 31
0.0
  0
LINE
  5
   1F4
  8
0
  6
CONTINUOUS
 62
    52
 10
107.001167297363
 20
115.486389160156
 30
0.0
 11
105.001167297363
 21
113.486389160156
 31
0.0
  0
LINE
  5
   1F5
  8
0
  6
CONTINUOUS
 62
    52
 10
107.001167297363
 20
111.243743896484
 30
0.0
 11
105.001167297363
 21
109.243743896484
 31
0.0
  0
LINE
  5
   1F6
  8
0
  6
CONTINUOUS
 62
    52
 10
107.001167297363
 20
107.001098632813
 30
0.0
 11
105.001167297363
 21
105.001098632813
 31
0.0
  0
LINE
  5
   1F7
  8
0
  6
CONTINUOUS
 62
    52
 10
107.001167297363
 20
102.758453369141
 30
0.0
 11
105.001167297363
 21
100.758453369141
 31
0.0
  0
LINE
  5
   1F8
  8
0
  6
CONTINUOUS
 62
    52
 10
107.001167297363
 20
98.5158081054688
 30
0.0
 11
105.001167297363
 21
96.5158081054688
 31
0.0
  0
LINE
  5
   1F9
  8
0
  6
CONTINUOUS
 62
    52
 10
107.001167297363
 20
94.2731628417969
 30
0.0
 11
105.001167297363
 21
92.2731628417969
 31
0.0
  0
LINE
  5
   1FA
  8
0
  6
CONTINUOUS
 62
    52
 10
107.001167297363
 20
90.030517578125
 30
0.0
 11
105.001167297363
 21
88.030517578125
 31
0.0
  0
LINE
  5
   1FB
  8
0
  6
CONTINUOUS
 62
    52
 10
107.001167297363
 20
85.787956237793
 30
0.0
 11
105.963203430176
 21
84.7499923706055
 31
0.0
  0
ENDBLK
  5
   1FC
  8
0
  6
CONTINUOUS
 62
     7
  0
BLOCK
  5
   1FD
  8
0
  6
CONTINUOUS
 62
     7
  2
*HATCH275
 70
    65
 10
0.0
 20
0.0
 30
0.0
  3
*HATCH275
  0
LINE
  5
   1FE
  8
0
  6
CONTINUOUS
 62
   210
 10
24.8035449981689
 20
-46.0167922973633
 30
0.0
 11
27.786735534668
 21
-48.9999885559082
 31
0.0
  0
LINE
  5
   1FF
  8
0
  6
CONTINUOUS
 62
   210
 10
29.0461826324463
 20
-46.0167922973633
 30
0.0
 11
32.0293731689453
 21
-48.9999885559082
 31
0.0
  0
LINE
  5
   200
  8
0
  6
CONTINUOUS
 62
   210
 10
33.2888221740723
 20
-46.0167922973633
 30
0.0
 11
36.2720108032227
 21
-48.9999885559082
 31
0.0
  0
LINE
  5
   201
  8
0
  6
CONTINUOUS
 62
   210
 10
37.5314598083496
 20
-46.0167922973633
 30
0.0
 11
40.5146484375
 21
-48.9999885559082
 31
0.0
  0
LINE
  5
   202
  8
0
  6
CONTINUOUS
 62
   210
 10
41.774097442627
 20
-46.0167922973633
 30
0.0
 11
44.7572860717773
 21
-48.9999885559082
 31
0.0
  0
LINE
  5
   203
  8
0
  6
CONTINUOUS
 62
   210
 10
46.0167350769043
 20
-46.0167922973633
 30
0.0
 11
46.9614868164062
 21
-46.9615440368652
 31
0.0
  0
ENDBLK
  5
   204
  8
0
  6
CONTINUOUS
 62
     7
  0
BLOCK
  5
   205
  8
0
  6
CONTINUOUS
 62
     2
  2
*HATCH276
 70
    65
 10
0.0
 20
0.0
 30
0.0
  3
*HATCH276
  0
LINE
  5
   206
  8
0
  6
CONTINUOUS
 62
   210
 10
20.8751125335693
 20
93.0
 30
0.0
 11
18.0000019073486
 21
90.124885559082
 31
0.0
  0
LINE
  5
   207
  8
0
  6
CONTINUOUS
 62
   210
 10
22.0000019073486
 20
89.8822479248047
 30
0.0
 11
20.3177528381348
 21
88.1999969482422
 31
0.0
  0
ENDBLK
  5
   208
  8
0
  6
CONTINUOUS
 62
     2
  0
BLOCK
  5
   209
  8
0
  6
CONTINUOUS
 62
     2
  2
*HATCH277
 70
    65
 10
0.0
 20
0.0
 30
0.0
  3
*HATCH277
  0
LINE
  5
   20A
  8
0
  6
CONTINUOUS
 62
   210
 10
20.4030342102051
 20
79.8000030517578
 30
0.0
 11
18.0000019073486
 21
77.3969650268555
 31
0.0
  0
LINE
  5
   20B
  8
0
  6
CONTINUOUS
 62
   210
 10
22.0000019073486
 20
77.1543273925781
 30
0.0
 11
13.2129669189453
 21
68.3672943115234
 31
0.0
  0
LINE
  5
   20C
  8
0
  6
CONTINUOUS
 62
   210
 10
22.9864101409912
 20
73.8980941772461
 30
0.0
 11
16.5227603912354
 21
67.4344482421875
 31
0.0
  0
ENDBLK
  5
   20D
  8
0
  6
CONTINUOUS
 62
     2
  0
BLOCK
  5
   20E
  8
0
  6
CONTINUOUS
 62
     5
  2
*UDIM401
 70
    65
 10
0.0
 20
0.0
 30
0.0
  3
*UDIM401
  0
TEXT
  5
   20F
  8
0
  6
CONTINUOUS
 62
     5
 10
-465.609051916209
 20
11.561380218468
 30
0.0
 40
3.00000002980232
  1
73,75
 50
90.0
 41
0.933333333333333
 72
     1
 11
-467.109051931119
 21
18.2613802850246
 31
0.0
 73
     2
  0
LINE
  5
   210
  8
0
  6
CONTINUOUS
 62
     5
 10
-456.191918552744
 20
0.098880290985103
 30
0.0
 11
-466.609051916217
 21
0.098880290985103
 31
0.0
  0
LINE
  5
   211
  8
0
  6
CONTINUOUS
 62
     5
 10
-438.516082739388
 20
36.9738802909851
 30
0.0
 11
-466.609051916217
 21
36.9738802909851
 31
0.0
  0
LINE
  5
   212
  8
0
  6
CONTINUOUS
 62
     5
 10
-464.609051916217
 20
0.098880290985103
 30
0.0
 11
-464.609051916217
 21
36.9738802909851
 31
0.0
  0
LINE
  5
   213
  8
0
  6
CONTINUOUS
 62
     5
 10
-465.129996346169
 20
3.05330356819207
 30
0.0
 11
-464.609051916217
 21
0.098880290985103
 31
0.0
  0
LINE
  5
   214
  8
0
  6
CONTINUOUS
 62
     5
 10
-464.609051916217
 20
0.098880290985103
 30
0.0
 11
-464.088107486266
 21
3.05330356819207
 31
0.0
  0
LINE
  5
   215
  8
0
  6
CONTINUOUS
 62
     5
 10
-464.088107486266
 20
34.0194570137781
 30
0.0
 11
-464.609051916217
 21
36.9738802909851
 31
0.0
  0
LINE
  5
   216
  8
0
  6
CONTINUOUS
 62
     5
 10
-464.609051916217
 20
36.9738802909851
 30
0.0
 11
-465.129996346169
 21
34.0194570137781
 31
0.0
  0
ENDBLK
  5
   217
  8
0
  6
CONTINUOUS
 62
     5
  0
BLOCK
  5
   218
  8
0
  6
CONTINUOUS
 62
     7
  2
*UDIM402
 70
    65
 10
0.0
 20
0.0
 30
0.0
  3
*UDIM402
  0
TEXT
  5
   219
  8
0
  6
CONTINUOUS
 62
     7
 10
-474.21999491243
 20
-2.95111950651041
 30
0.0
 40
3.00000002980232
  1
143
 50
90.0
 41
0.933333333333333
 72
     1
 11
-475.719994927336
 21
0.948880532230723
 31
0.0
 73
     2
  0
LINE
  5
   21A
  8
0
  6
CONTINUOUS
 62
     7
 10
-438.516082739388
 20
-34.5261193288685
 30
0.0
 11
-475.219994912435
 21
-34.5261053760101
 31
0.0
  0
LINE
  5
   21B
  8
0
  6
CONTINUOUS
 62
     7
 10
-438.516082739388
 20
36.973880744369
 30
0.0
 11
-475.219994912435
 21
36.9738973853336
 31
0.0
  0
LINE
  5
   21C
  8
0
  6
CONTINUOUS
 62
     7
 10
-473.219994912435
 20
-34.5261061363028
 30
0.0
 11
-473.219994912435
 21
36.9738964785657
 31
0.0
  0
LINE
  5
   21D
  8
0
  6
CONTINUOUS
 62
     7
 10
-473.740939342387
 20
-31.5716828590958
 30
0.0
 11
-473.219994912435
 21
-34.5261061363028
 31
0.0
  0
LINE
  5
   21E
  8
0
  6
CONTINUOUS
 62
     7
 10
-473.219994912435
 20
-34.5261061363028
 30
0.0
 11
-472.699050482483
 21
-31.5716828590958
 31
0.0
  0
LINE
  5
   21F
  8
0
  6
CONTINUOUS
 62
     7
 10
-472.699050482483
 20
34.0194732013588
 30
0.0
 11
-473.219994912435
 21
36.9738964785657
 31
0.0
  0
LINE
  5
   220
  8
0
  6
CONTINUOUS
 62
     7
 10
-473.219994912435
 20
36.9738964785657
 30
0.0
 11
-473.740939342387
 21
34.0194732013588
 31
0.0
  0
ENDBLK
  5
   221
  8
0
  6
CONTINUOUS
 62
     7
  0
BLOCK
  5
   222
  8
0
  6
CONTINUOUS
 62
     2
  2
*UDIM403
 70
    65
 10
0.0
 20
0.0
 30
0.0
  3
*UDIM403
  0
TEXT
  5
   223
  8
0
  6
CONTINUOUS
 62
     2
 10
-459.215291023253
 20
-42.276119815308
 30
0.0
 40
3.00000002980232
  1
8
 50
90.0
 41
0.933333333333334
 72
     1
 11
-460.715291038156
 21
-41.1761198043823
 31
0.0
 73
     2
  0
TEXT
  5
   224
  8
0
  6
CONTINUOUS
 62
     2
 10
-459.215291023253
 20
-45.0261198490839
 30
0.0
 40
3.00000002980232
  1
M
 50
90.0
 41
0.933333333333334
 72
     1
 11
-460.715291038156
 21
-43.9261198381583
 31
0.0
 73
     2
  0
LINE
  5
   225
  8
0
  6
CONTINUOUS
 62
     2
 10
-435.852568626406
 20
-36.5261197090149
 30
0.0
 11
-460.215291023254
 21
-36.5261197090149
 31
0.0
  0
LINE
  5
   226
  8
0
  6
CONTINUOUS
 62
     2
 10
-435.852568626406
 20
-32.5261197090149
 30
0.0
 11
-460.215291023254
 21
-32.5261197090149
 31
0.0
  0
LINE
  5
   227
  8
0
  6
CONTINUOUS
 62
     2
 10
-458.215291023254
 20
-45.0261198490858
 30
0.0
 11
-458.215291023254
 21
-32.5261197090149
 31
0.0
  0
LINE
  5
   228
  8
0
  6
CONTINUOUS
 62
     2
 10
-457.694346593303
 20
-39.4805429862219
 30
0.0
 11
-458.215291023254
 21
-36.5261197090149
 31
0.0
  0
LINE
  5
   229
  8
0
  6
CONTINUOUS
 62
     2
 10
-458.215291023254
 20
-36.5261197090149
 30
0.0
 11
-458.736235453206
 21
-39.4805429862219
 31
0.0
  0
LINE
  5
   22A
  8
0
  6
CONTINUOUS
 62
     2
 10
-458.736235453206
 20
-29.5716964318079
 30
0.0
 11
-458.215291023254
 21
-32.5261197090149
 31
0.0
  0
LINE
  5
   22B
  8
0
  6
CONTINUOUS
 62
     2
 10
-458.215291023254
 20
-32.5261197090149
 30
0.0
 11
-457.694346593303
 21
-29.5716964318079
 31
0.0
  0
ENDBLK
  5
   22C
  8
0
  6
CONTINUOUS
 62
     2
  0
BLOCK
  5
   22D
  8
0
  6
CONTINUOUS
 62
     7
  2
*UDIM404
 70
    65
 10
0.0
 20
0.0
 30
0.0
  3
*UDIM404
  0
TEXT
  5
   22E
  8
0
  6
CONTINUOUS
 62
     7
 10
-440.602568494281
 20
-59.5792851448059
 30
0.0
 40
3.00000002980232
  1
5
 41
0.933333333333334
 72
     1
 11
-439.502568483354
 21
-58.0792851299048
 31
0.0
 73
     2
  0
LINE
  5
   22F
  8
0
  6
CONTINUOUS
 62
     7
 10
-434.852568626406
 20
-40.0261134999882
 30
0.0
 11
-434.852568626406
 21
-62.5792851448059
 31
0.0
  0
LINE
  5
   230
  8
0
  6
CONTINUOUS
 62
     7
 10
-432.352569103241
 20
-40.0261134999883
 30
0.0
 11
-432.352569103241
 21
-62.5792851448059
 31
0.0
  0
LINE
  5
   231
  8
0
  6
CONTINUOUS
 62
     7
 10
-440.602568494281
 20
-60.5792851448059
 30
0.0
 11
-432.352569103241
 21
-60.5792851448059
 31
0.0
  0
LINE
  5
   232
  8
0
  6
CONTINUOUS
 62
     7
 10
-437.806991903613
 20
-61.1002295747576
 30
0.0
 11
-434.852568626406
 21
-60.5792851448059
 31
0.0
  0
LINE
  5
   233
  8
0
  6
CONTINUOUS
 62
     7
 10
-434.852568626406
 20
-60.5792851448059
 30
0.0
 11
-437.806991903613
 21
-60.0583407148542
 31
0.0
  0
LINE
  5
   234
  8
0
  6
CONTINUOUS
 62
     7
 10
-429.398145826034
 20
-60.0583407148542
 30
0.0
 11
-432.352569103241
 21
-60.5792851448059
 31
0.0
  0
LINE
  5
   235
  8
0
  6
CONTINUOUS
 62
     7
 10
-432.352569103241
 20
-60.5792851448059
 30
0.0
 11
-429.398145826034
 21
-61.1002295747576
 31
0.0
  0
ENDBLK
  5
   236
  8
0
  6
CONTINUOUS
 62
     7
  0
BLOCK
  5
   237
  8
0
  6
CONTINUOUS
 62
     7
  2
*UDIM405
 70
    65
 10
0.0
 20
0.0
 30
0.0
  3
*UDIM405
  0
TEXT
  5
   238
  8
0
  6
CONTINUOUS
 62
     7
 10
-414.447235928973
 20
-59.5792851448059
 30
0.0
 40
3.00000002980232
  1
5
 41
0.933333333333334
 72
     1
 11
-413.347235918045
 21
-58.0792851299048
 31
0.0
 73
     2
  0
TEXT
  5
   239
  8
0
  6
CONTINUOUS
 62
     7
 10
-425.597236046195
 20
-59.5792851448059
 30
0.0
 40
3.00000002980232
  1
min.
 41
0.933333333333333
 72
     1
 11
-420.297235993544
 21
-58.0792851299048
 31
0.0
 73
     2
  0
LINE
  5
   23A
  8
0
  6
CONTINUOUS
 62
     7
 10
-429.852568626404
 20
-40.0261197090149
 30
0.0
 11
-429.852568626404
 21
-62.5792851448059
 31
0.0
  0
LINE
  5
   23B
  8
0
  6
CONTINUOUS
 62
     7
 10
-432.352569103241
 20
-60.5792851448059
 30
0.0
 11
-412.247235907118
 21
-60.5792851448059
 31
0.0
  0
LINE
  5
   23C
  8
0
  6
CONTINUOUS
 62
     7
 10
-435.306992380448
 20
-61.1002295747576
 30
0.0
 11
-432.352569103241
 21
-60.5792851448059
 31
0.0
  0
LINE
  5
   23D
  8
0
  6
CONTINUOUS
 62
     7
 10
-432.352569103241
 20
-60.5792851448059
 30
0.0
 11
-435.306992380448
 21
-60.0583407148542
 31
0.0
  0
LINE
  5
   23E
  8
0
  6
CONTINUOUS
 62
     7
 10
-426.898145349197
 20
-60.0583407148542
 30
0.0
 11
-429.852568626404
 21
-60.5792851448059
 31
0.0
  0
LINE
  5
   23F
  8
0
  6
CONTINUOUS
 62
     7
 10
-429.852568626404
 20
-60.5792851448059
 30
0.0
 11
-426.898145349197
 21
-61.1002295747576
 31
0.0
  0
ENDBLK
  5
   240
  8
0
  6
CONTINUOUS
 62
     7
  0
BLOCK
  5
   241
  8
0
  6
CONTINUOUS
 62
     7
  2
*UDIM406
 70
    65
 10
0.0
 20
0.0
 30
0.0
  3
*UDIM406
  0
TEXT
  5
   242
  8
0
  6
CONTINUOUS
 62
     7
 10
-453.377568269771
 20
-53.5503697395325
 30
0.0
 40
3.00000002980232
  1
20
 41
0.933333333333333
 72
     1
 11
-450.877568244935
 21
-52.0503697246313
 31
0.0
 73
     2
  0
LINE
  5
   243
  8
0
  6
CONTINUOUS
 62
     7
 10
-444.852568626404
 20
-47.6908460254813
 30
0.0
 11
-444.852568626404
 21
-56.5503697395325
 31
0.0
  0
LINE
  5
   244
  8
0
  6
CONTINUOUS
 62
     7
 10
-434.852568626406
 20
-40.0261134999882
 30
0.0
 11
-434.852568626406
 21
-56.5503697395325
 31
0.0
  0
LINE
  5
   245
  8
0
  6
CONTINUOUS
 62
     7
 10
-453.377568269771
 20
-54.5503697395325
 30
0.0
 11
-434.852568626406
 21
-54.5503697395325
 31
0.0
  0
LINE
  5
   246
  8
0
  6
CONTINUOUS
 62
     7
 10
-441.898145349197
 20
-54.0294253095808
 30
0.0
 11
-444.852568626404
 21
-54.5503697395325
 31
0.0
  0
LINE
  5
   247
  8
0
  6
CONTINUOUS
 62
     7
 10
-444.852568626404
 20
-54.5503697395325
 30
0.0
 11
-441.898145349197
 21
-55.0713141694841
 31
0.0
  0
LINE
  5
   248
  8
0
  6
CONTINUOUS
 62
     7
 10
-437.806991903613
 20
-55.0713141694841
 30
0.0
 11
-434.852568626406
 21
-54.5503697395325
 31
0.0
  0
LINE
  5
   249
  8
0
  6
CONTINUOUS
 62
     7
 10
-434.852568626406
 20
-54.5503697395325
 30
0.0
 11
-437.806991903613
 21
-54.0294253095808
 31
0.0
  0
ENDBLK
  5
   24A
  8
0
  6
CONTINUOUS
 62
     7
  0
BLOCK
  5
   24B
  8
0
  6
CONTINUOUS
 62
     7
  2
*UDIM407
 70
    65
 10
0.0
 20
0.0
 30
0.0
  3
*UDIM407
  0
TEXT
  5
   24C
  8
0
  6
CONTINUOUS
 62
     7
 10
-422.277275899314
 20
-83.5163006782532
 30
0.0
 40
3.00000002980232
  1
107
 41
0.933333333333333
 72
     1
 11
-418.377275860571
 21
-82.016300663352
 31
0.0
 73
     2
  0
LINE
  5
   24D
  8
0
  6
CONTINUOUS
 62
     7
 10
-444.852568626404
 20
-47.6908460254813
 30
0.0
 11
-444.852568626404
 21
-86.5163006782532
 31
0.0
  0
LINE
  5
   24E
  8
0
  6
CONTINUOUS
 62
     7
 10
-391.35198439412
 20
-64.8571814937112
 30
0.0
 11
-391.35198439412
 21
-86.5163006782532
 31
0.0
  0
LINE
  5
   24F
  8
0
  6
CONTINUOUS
 62
     7
 10
-444.852568626404
 20
-84.5163006782532
 30
0.0
 11
-391.35198439412
 21
-84.5163006782532
 31
0.0
  0
LINE
  5
   250
  8
0
  6
CONTINUOUS
 62
     7
 10
-441.898145349197
 20
-83.9953562483015
 30
0.0
 11
-444.852568626404
 21
-84.5163006782532
 31
0.0
  0
LINE
  5
   251
  8
0
  6
CONTINUOUS
 62
     7
 10
-444.852568626404
 20
-84.5163006782532
 30
0.0
 11
-441.898145349197
 21
-85.0372451082048
 31
0.0
  0
LINE
  5
   252
  8
0
  6
CONTINUOUS
 62
     7
 10
-394.306407671327
 20
-85.0372451082048
 30
0.0
 11
-391.35198439412
 21
-84.5163006782532
 31
0.0
  0
LINE
  5
   253
  8
0
  6
CONTINUOUS
 62
     7
 10
-391.35198439412
 20
-84.5163006782532
 30
0.0
 11
-394.306407671327
 21
-83.9953562483015
 31
0.0
  0
ENDBLK
  5
   254
  8
0
  6
CONTINUOUS
 62
     7
  0
BLOCK
  5
   255
  8
0
  6
CONTINUOUS
 62
     7
  2
*UDIM408
 70
    65
 10
0.0
 20
0.0
 30
0.0
  3
*UDIM408
  0
TEXT
  5
   256
  8
0
  6
CONTINUOUS
 62
     7
 10
-387.351985930927
 20
-83.5163006782532
 30
0.0
 40
3.00000002980232
  1
2
 41
0.933333333333334
 72
     1
 11
-386.251985919999
 21
-82.016300663352
 31
0.0
 73
     2
  0
LINE
  5
   257
  8
0
  6
CONTINUOUS
 62
     7
 10
-390.35198439412
 20
-64.1375553254869
 30
0.0
 11
-390.35198439412
 21
-86.5163006782532
 31
0.0
  0
LINE
  5
   258
  8
0
  6
CONTINUOUS
 62
     7
 10
-391.35198439412
 20
-84.5163006782532
 30
0.0
 11
-385.151985909071
 21
-84.5163006782532
 31
0.0
  0
LINE
  5
   259
  8
0
  6
CONTINUOUS
 62
     7
 10
-394.306407671327
 20
-85.0372451082048
 30
0.0
 11
-391.35198439412
 21
-84.5163006782532
 31
0.0
  0
LINE
  5
   25A
  8
0
  6
CONTINUOUS
 62
     7
 10
-391.35198439412
 20
-84.5163006782532
 30
0.0
 11
-394.306407671327
 21
-83.9953562483015
 31
0.0
  0
LINE
  5
   25B
  8
0
  6
CONTINUOUS
 62
     7
 10
-387.397561116913
 20
-83.9953562483015
 30
0.0
 11
-390.35198439412
 21
-84.5163006782532
 31
0.0
  0
LINE
  5
   25C
  8
0
  6
CONTINUOUS
 62
     7
 10
-390.35198439412
 20
-84.5163006782532
 30
0.0
 11
-387.397561116913
 21
-85.0372451082048
 31
0.0
  0
ENDBLK
  5
   25D
  8
0
  6
CONTINUOUS
 62
     7
  0
BLOCK
  5
   25E
  8
0
  6
CONTINUOUS
 62
     7
  2
*UDIM409
 70
    65
 10
0.0
 20
0.0
 30
0.0
  3
*UDIM409
  0
TEXT
  5
   25F
  8
0
  6
CONTINUOUS
 62
     7
 10
-369.114654541011
 20
-4.07611557381318
 30
0.0
 40
3.00000002980232
  1
105
 50
90.0
 41
0.933333333333333
 72
     1
 11
-370.614654555917
 21
-0.176115535072045
 31
0.0
 73
     2
  0
LINE
  5
   260
  8
0
  6
CONTINUOUS
 62
     7
 10
-390.35198439412
 20
-26.1511200217514
 30
0.0
 11
-366.114654541016
 21
-26.1511276302487
 31
0.0
  0
LINE
  5
   261
  8
0
  6
CONTINUOUS
 62
     7
 10
-390.35198439412
 20
26.3488799770686
 30
0.0
 11
-366.114654541016
 21
26.3488723685713
 31
0.0
  0
LINE
  5
   262
  8
0
  6
CONTINUOUS
 62
     7
 10
-368.114654541016
 20
-26.1511270024157
 30
0.0
 11
-368.114654541016
 21
26.3488729964043
 31
0.0
  0
LINE
  5
   263
  8
0
  6
CONTINUOUS
 62
     7
 10
-368.635598970967
 20
-23.1967037252087
 30
0.0
 11
-368.114654541016
 21
-26.1511270024157
 31
0.0
  0
LINE
  5
   264
  8
0
  6
CONTINUOUS
 62
     7
 10
-368.114654541016
 20
-26.1511270024157
 30
0.0
 11
-367.593710111064
 21
-23.1967037252087
 31
0.0
  0
LINE
  5
   265
  8
0
  6
CONTINUOUS
 62
     7
 10
-367.593710111064
 20
23.3944497191973
 30
0.0
 11
-368.114654541016
 21
26.3488729964043
 31
0.0
  0
LINE
  5
   266
  8
0
  6
CONTINUOUS
 62
     7
 10
-368.114654541016
 20
26.3488729964043
 30
0.0
 11
-368.635598970967
 21
23.3944497191973
 31
0.0
  0
ENDBLK
  5
   267
  8
0
  6
CONTINUOUS
 62
     7
  0
BLOCK
  5
   268
  8
0
  6
CONTINUOUS
 62
     7
  2
*UDIM410
 70
    65
 10
0.0
 20
0.0
 30
0.0
  3
*UDIM410
  0
TEXT
  5
   269
  8
0
  6
CONTINUOUS
 62
     7
 10
-426.452571559648
 20
-66.7602200508118
 30
0.0
 40
3.00000002980232
  1
101,5
 41
0.933333333333333
 72
     1
 11
-419.752571493089
 21
-65.2602200359106
 31
0.0
 73
     2
  0
LINE
  5
   26A
  8
0
  6
CONTINUOUS
 62
     7
 10
-444.852568626404
 20
-47.6908460254813
 30
0.0
 11
-444.852568626404
 21
-69.7602200508118
 31
0.0
  0
LINE
  5
   26B
  8
0
  6
CONTINUOUS
 62
     7
 10
-394.102569102645
 20
25.3488802909851
 30
0.0
 11
-394.102569102645
 21
-69.7602200508118
 31
0.0
  0
LINE
  5
   26C
  8
0
  6
CONTINUOUS
 62
     7
 10
-444.852568626404
 20
-67.7602200508118
 30
0.0
 11
-394.102569102645
 21
-67.7602200508118
 31
0.0
  0
LINE
  5
   26D
  8
0
  6
CONTINUOUS
 62
     7
 10
-441.898145349197
 20
-67.2392756208601
 30
0.0
 11
-444.852568626404
 21
-67.7602200508118
 31
0.0
  0
LINE
  5
   26E
  8
0
  6
CONTINUOUS
 62
     7
 10
-444.852568626404
 20
-67.7602200508118
 30
0.0
 11
-441.898145349197
 21
-68.2811644807634
 31
0.0
  0
LINE
  5
   26F
  8
0
  6
CONTINUOUS
 62
     7
 10
-397.056992379852
 20
-68.2811644807634
 30
0.0
 11
-394.102569102645
 21
-67.7602200508118
 31
0.0
  0
LINE
  5
   270
  8
0
  6
CONTINUOUS
 62
     7
 10
-394.102569102645
 20
-67.7602200508118
 30
0.0
 11
-397.056992379852
 21
-67.2392756208601
 31
0.0
  0
ENDBLK
  5
   271
  8
0
  6
CONTINUOUS
 62
     7
  0
BLOCK
  5
   272
  8
0
  6
CONTINUOUS
 62
     7
  2
*UDIM411
 70
    65
 10
0.0
 20
0.0
 30
0.0
  3
*UDIM411
  0
TEXT
  5
   273
  8
0
  6
CONTINUOUS
 62
     7
 10
-425.952243487786
 20
-75.267475605011
 30
0.0
 40
3.00000002980232
  1
103,5
 41
0.933333333333333
 72
     1
 11
-419.252243421227
 21
-73.7674755901098
 31
0.0
 73
     2
  0
LINE
  5
   274
  8
0
  6
CONTINUOUS
 62
     7
 10
-444.852568626404
 20
-47.6908460254813
 30
0.0
 11
-444.852568626404
 21
-78.267475605011
 31
0.0
  0
LINE
  5
   275
  8
0
  6
CONTINUOUS
 62
     7
 10
-393.101913435758
 20
-27.1511197071874
 30
0.0
 11
-393.101913435758
 21
-78.267475605011
 31
0.0
  0
LINE
  5
   276
  8
0
  6
CONTINUOUS
 62
     7
 10
-444.852568626404
 20
-76.267475605011
 30
0.0
 11
-393.101913435758
 21
-76.267475605011
 31
0.0
  0
LINE
  5
   277
  8
0
  6
CONTINUOUS
 62
     7
 10
-441.898145349197
 20
-75.7465311750593
 30
0.0
 11
-444.852568626404
 21
-76.267475605011
 31
0.0
  0
LINE
  5
   278
  8
0
  6
CONTINUOUS
 62
     7
 10
-444.852568626404
 20
-76.267475605011
 30
0.0
 11
-441.898145349197
 21
-76.7884200349627
 31
0.0
  0
LINE
  5
   279
  8
0
  6
CONTINUOUS
 62
     7
 10
-396.056336712965
 20
-76.7884200349627
 30
0.0
 11
-393.101913435758
 21
-76.267475605011
 31
0.0
  0
LINE
  5
   27A
  8
0
  6
CONTINUOUS
 62
     7
 10
-393.101913435758
 20
-76.267475605011
 30
0.0
 11
-396.056336712965
 21
-75.7465311750593
 31
0.0
  0
ENDBLK
  5
   27B
  8
0
  6
CONTINUOUS
 62
     7
  0
BLOCK
  5
   27C
  8
0
  6
CONTINUOUS
 62
     7
  2
*UDIM412
 70
    65
 10
0.0
 20
0.0
 30
0.0
  3
*UDIM412
  0
TEXT
  5
   27D
  8
0
  6
CONTINUOUS
 62
     7
 10
-452.102567779025
 20
-89.9643979072571
 30
0.0
 40
3.00000002980232
  1
3
 41
0.933333333333334
 72
     1
 11
-451.002567768097
 21
-88.4643978923559
 31
0.0
 73
     2
  0
TEXT
  5
   27E
  8
0
  6
CONTINUOUS
 62
     7
 10
-454.8525678128
 20
-89.9643979072571
 30
0.0
 40
3.00000002980232
  1
_
 41
0.933333333333334
 72
     1
 11
-453.752567801873
 21
-88.4643978923559
 31
0.0
 73
     2
  0
LINE
  5
   27F
  8
0
  6
CONTINUOUS
 62
     7
 10
-446.352568626404
 20
-47.6908460254813
 30
0.0
 11
-446.352568626404
 21
-92.9643979072571
 31
0.0
  0
LINE
  5
   280
  8
0
  6
CONTINUOUS
 62
     7
 10
-444.852568626404
 20
-47.6908460254813
 30
0.0
 11
-444.852568626404
 21
-92.9643979072571
 31
0.0
  0
LINE
  5
   281
  8
0
  6
CONTINUOUS
 62
     7
 10
-454.8525678128
 20
-90.9643979072571
 30
0.0
 11
-444.852568626404
 21
-90.9643979072571
 31
0.0
  0
LINE
  5
   282
  8
0
  6
CONTINUOUS
 62
     7
 10
-449.306991903611
 20
-91.4853423372088
 30
0.0
 11
-446.352568626404
 21
-90.9643979072571
 31
0.0
  0
LINE
  5
   283
  8
0
  6
CONTINUOUS
 62
     7
 10
-446.352568626404
 20
-90.9643979072571
 30
0.0
 11
-449.306991903611
 21
-90.4434534773054
 31
0.0
  0
LINE
  5
   284
  8
0
  6
CONTINUOUS
 62
     7
 10
-441.898145349197
 20
-90.4434534773054
 30
0.0
 11
-444.852568626404
 21
-90.9643979072571
 31
0.0
  0
LINE
  5
   285
  8
0
  6
CONTINUOUS
 62
     7
 10
-444.852568626404
 20
-90.9643979072571
 30
0.0
 11
-441.898145349197
 21
-91.4853423372088
 31
0.0
  0
ENDBLK
  5
   286
  8
0
  6
CONTINUOUS
 62
     7
  0
BLOCK
  5
   287
  8
0
  6
CONTINUOUS
 62
     7
  2
*UDIM413
 70
    65
 10
0.0
 20
0.0
 30
0.0
  3
*UDIM413
  0
TEXT
  5
   288
  8
0
  6
CONTINUOUS
 62
     7
 10
-415.266302901893
 20
-89.9643979072571
 30
0.0
 40
3.00000002980232
  1
135
 41
0.933333333333333
 72
     1
 11
-411.36630286315
 21
-88.4643978923559
 31
0.0
 73
     2
  0
LINE
  5
   289
  8
0
  6
CONTINUOUS
 62
     7
 10
-377.330034882602
 20
-6.02611970901491
 30
0.0
 11
-377.330034882602
 21
-92.9643979072571
 31
0.0
  0
LINE
  5
   28A
  8
0
  6
CONTINUOUS
 62
     7
 10
-444.852568626404
 20
-90.9643979072571
 30
0.0
 11
-377.330034882602
 21
-90.9643979072571
 31
0.0
  0
LINE
  5
   28B
  8
0
  6
CONTINUOUS
 62
     7
 10
-441.898145349197
 20
-90.4434534773054
 30
0.0
 11
-444.852568626404
 21
-90.9643979072571
 31
0.0
  0
LINE
  5
   28C
  8
0
  6
CONTINUOUS
 62
     7
 10
-444.852568626404
 20
-90.9643979072571
 30
0.0
 11
-441.898145349197
 21
-91.4853423372088
 31
0.0
  0
LINE
  5
   28D
  8
0
  6
CONTINUOUS
 62
     7
 10
-380.284458159809
 20
-91.4853423372088
 30
0.0
 11
-377.330034882602
 21
-90.9643979072571
 31
0.0
  0
LINE
  5
   28E
  8
0
  6
CONTINUOUS
 62
     7
 10
-377.330034882602
 20
-90.9643979072571
 30
0.0
 11
-380.284458159809
 21
-90.4434534773054
 31
0.0
  0
ENDBLK
  5
   28F
  8
0
  6
CONTINUOUS
 62
     7
  0
BLOCK
  5
   290
  8
0
  6
CONTINUOUS
 62
     7
  2
*UDIM414
 70
    65
 10
0.0
 20
0.0
 30
0.0
  3
*UDIM414
  0
TEXT
  5
   291
  8
0
  6
CONTINUOUS
 62
     7
 10
-466.678405761716
 20
-43.0511193869535
 30
0.0
 40
3.00000002980232
  1
10
 50
90.0
 41
0.933333333333333
 72
     1
 11
-468.17840577662
 21
-40.5511193621201
 31
0.0
 73
     2
  0
LINE
  5
   292
  8
0
  6
CONTINUOUS
 62
     7
 10
-438.516082739388
 20
-34.5261193950984
 30
0.0
 11
-467.678405761719
 21
-34.5261102405646
 31
0.0
  0
LINE
  5
   293
  8
0
  6
CONTINUOUS
 62
     7
 10
-444.852568626404
 20
-29.5261130566266
 30
0.0
 11
-467.678405761719
 21
-29.5261029365267
 31
0.0
  0
LINE
  5
   294
  8
0
  6
CONTINUOUS
 62
     7
 10
-465.678405761719
 20
-43.0511193869554
 30
0.0
 11
-465.678405761719
 21
-29.5261038232499
 31
0.0
  0
LINE
  5
   295
  8
0
  6
CONTINUOUS
 62
     7
 10
-465.157461331767
 20
-37.4805341456045
 30
0.0
 11
-465.678405761719
 21
-34.5261108683976
 31
0.0
  0
LINE
  5
   296
  8
0
  6
CONTINUOUS
 62
     7
 10
-465.678405761719
 20
-34.5261108683976
 30
0.0
 11
-466.19935019167
 21
-37.4805341456045
 31
0.0
  0
LINE
  5
   297
  8
0
  6
CONTINUOUS
 62
     7
 10
-466.19935019167
 20
-26.571680546043
 30
0.0
 11
-465.678405761719
 21
-29.5261038232499
 31
0.0
  0
LINE
  5
   298
  8
0
  6
CONTINUOUS
 62
     7
 10
-465.678405761719
 20
-29.5261038232499
 30
0.0
 11
-465.157461331767
 21
-26.571680546043
 31
0.0
  0
ENDBLK
  5
   299
  8
0
  6
CONTINUOUS
 62
     7
  0
BLOCK
  5
   29A
  8
0
  6
CONTINUOUS
 62
     7
  2
*UDIM415
 70
    65
 10
0.0
 20
0.0
 30
0.0
  3
*UDIM415
  0
TEXT
  5
   29B
  8
0
  6
CONTINUOUS
 62
     7
 10
-379.989982604977
 20
31.6169748930243
 30
0.0
 40
3.00000002980232
  1
10
 50
90.0
 41
0.933333333333333
 72
     1
 11
-381.489982619882
 21
34.1169749178576
 31
0.0
 73
     2
  0
LINE
  5
   29C
  8
0
  6
CONTINUOUS
 62
     7
 10
-425.402922385204
 20
31.9738799770686
 30
0.0
 11
-376.989982604981
 21
31.9738647794493
 31
0.0
  0
LINE
  5
   29D
  8
0
  6
CONTINUOUS
 62
     7
 10
-428.18625917509
 20
36.9738799770686
 30
0.0
 11
-376.989982604981
 21
36.973863905714
 31
0.0
  0
LINE
  5
   29E
  8
0
  6
CONTINUOUS
 62
     7
 10
-378.98998260498
 20
31.6169748930224
 30
0.0
 11
-378.98998260498
 21
36.973864533547
 31
0.0
  0
LINE
  5
   29F
  8
0
  6
CONTINUOUS
 62
     7
 10
-378.469038175029
 20
29.0194421300753
 30
0.0
 11
-378.98998260498
 21
31.9738654072823
 31
0.0
  0
LINE
  5
   2A0
  8
0
  6
CONTINUOUS
 62
     7
 10
-378.98998260498
 20
31.9738654072823
 30
0.0
 11
-379.510927034932
 21
29.0194421300753
 31
0.0
  0
LINE
  5
   2A1
  8
0
  6
CONTINUOUS
 62
     7
 10
-379.510927034932
 20
39.928287810754
 30
0.0
 11
-378.98998260498
 21
36.973864533547
 31
0.0
  0
LINE
  5
   2A2
  8
0
  6
CONTINUOUS
 62
     7
 10
-378.98998260498
 20
36.973864533547
 30
0.0
 11
-378.469038175029
 21
39.928287810754
 31
0.0
  0
ENDBLK
  5
   2A3
  8
0
  6
CONTINUOUS
 62
     7
  0
ENDSEC
  0
SECTION
  2
ENTITIES
  0
LINE
  5
   2A4
  8
0
  6
DASHDOT
 62
     7
 10
-555.322143554688
 20
-83.6326318427216
 30
0.0
 11
-555.322143554688
 21
-144.35328901798
 31
0.0
  0
LINE
  5
   2A5
  8
0
  6
DASHDOT
 62
     7
 10
-526.771108937016
 20
-112.775375366211
 30
0.0
 11
-582.115916928398
 21
-112.775375366211
 31
0.0
  0
LINE
  5
   2A6
  8
0
  6
DASHDOT
 62
     7
 10
-550.947143554688
 20
-92.0929846566908
 30
0.0
 11
-550.947143554688
 21
-134.042234025955
 31
0.0
  0
LINE
  5
   2A7
  8
0
  6
CONTINUOUS
 62
     3
 10
-543.447143554688
 20
-85.0426906450498
 30
0.0
 11
-543.447143554688
 21
-140.651884661868
 31
0.0
  0
LINE
  5
   2A8
  8
0
  6
CONTINUOUS
 62
     3
 10
-540.166667559134
 20
-137.650375366211
 30
0.0
 11
-577.32747800271
 21
-137.650375366211
 31
0.0
  0
LINE
  5
   2A9
  8
0
  6
DASHDOT
 62
     7
 10
-596.302155298013
 20
-112.775375366211
 30
0.0
 11
-605.479701022716
 21
-112.775375366211
 31
0.0
  0
LINE
  5
   2AA
  8
0
  6
DASHDOT
 62
     7
 10
-568.447143554688
 20
-92.4454993572729
 30
0.0
 11
-568.447143554688
 21
-134.306620051391
 31
0.0
  0
LINE
  5
   2AB
  8
0
  6
CONTINUOUS
 62
     3
 10
-575.947143554688
 20
-84.9468359408543
 30
0.0
 11
-575.947143554688
 21
-140.626921291781
 31
0.0
  0
LINE
  5
   2AC
  8
0
  6
CONTINUOUS
 62
     3
 10
-542.494186785082
 20
-86.3827120673825
 30
0.0
 11
-577.593380989105
 21
-86.3827120673825
 31
0.0
  0
CIRCLE
  5
   2AD
  8
0
  6
CONTINUOUS
 62
     5
 10
-568.447143554688
 20
-94.8378753662109
 30
0.0
 40
0.6875
  0
CIRCLE
  5
   2AE
  8
0
  6
CONTINUOUS
 62
     5
 10
-550.947143554688
 20
-94.8378753662109
 30
0.0
 40
0.6875
  0
CIRCLE
  5
   2AF
  8
0
  6
CONTINUOUS
 62
     5
 10
-550.947143554688
 20
-129.587875366211
 30
0.0
 40
0.6875
  0
CIRCLE
  5
   2B0
  8
0
  6
CONTINUOUS
 62
     5
 10
-568.447143554688
 20
-129.587875366211
 30
0.0
 40
0.6875
  0
LINE
  5
   2B1
  8
0
  6
DASHDOT
 62
     5
 10
-550.947143554688
 20
-92.9003753662109
 30
0.0
 11
-550.947143554688
 21
-96.775375366211
 31
0.0
  0
LINE
  5
   2B2
  8
0
  6
DASHDOT
 62
     5
 10
-549.009643554688
 20
-94.8378753662109
 30
0.0
 11
-552.884643554688
 21
-94.8378753662109
 31
0.0
  0
LINE
  5
   2B3
  8
0
  6
DASHDOT
 62
     5
 10
-568.447143554688
 20
-92.9003753662109
 30
0.0
 11
-568.447143554688
 21
-96.775375366211
 31
0.0
  0
LINE
  5
   2B4
  8
0
  6
DASHDOT
 62
     5
 10
-566.509643554688
 20
-94.8378753662109
 30
0.0
 11
-570.384643554688
 21
-94.8378753662109
 31
0.0
  0
LINE
  5
   2B5
  8
0
  6
DASHDOT
 62
     5
 10
-568.447143554688
 20
-127.650375366211
 30
0.0
 11
-568.447143554688
 21
-131.525375366211
 31
0.0
  0
LINE
  5
   2B6
  8
0
  6
DASHDOT
 62
     5
 10
-566.509643554688
 20
-129.587875366211
 30
0.0
 11
-570.384643554688
 21
-129.587875366211
 31
0.0
  0
LINE
  5
   2B7
  8
0
  6
DASHDOT
 62
     5
 10
-550.947143554688
 20
-127.650375366211
 30
0.0
 11
-550.947143554688
 21
-131.525375366211
 31
0.0
  0
LINE
  5
   2B8
  8
0
  6
DASHDOT
 62
     5
 10
-549.009643554688
 20
-129.587875366211
 30
0.0
 11
-552.884643554688
 21
-129.587875366211
 31
0.0
  0
INSERT
  5
   2B9
  8
0
  6
CONTINUOUS
 62
     7
  2
*UDIM364
 10
0.0
 20
0.0
 30
0.0
  0
TEXT
  5
   2BA
  8
0
  6
CONTINUOUS
 62
     7
 10
-559.082441505707
 20
-76.9803416605735
 30
0.0
 40
3.00000002980232
  1
Y
 50
359.999999896069
 41
0.916666604744064
 72
     2
 11
-556.882441636837
 21
-76.9803416645531
 31
0.0
  0
INSERT
  5
   2BB
  8
0
  6
CONTINUOUS
 62
     7
  2
*UDIM365
 10
0.0
 20
0.0
 30
0.0
  0
TEXT
  5
   2BC
  8
0
  6
CONTINUOUS
 62
     7
 10
-558.391710094268
 20
-149.449016140802
 30
0.0
 40
3.00000002980232
  1
Y
 50
359.999999896069
 41
0.916666604744064
 72
     2
 11
-556.191710225399
 21
-149.449016144782
 31
0.0
  0
INSERT
  5
   2BD
  8
0
  6
CONTINUOUS
 62
     5
  2
*UDIM366
 10
0.0
 20
0.0
 30
0.0
  0
INSERT
  5
   2BE
  8
0
  6
CONTINUOUS
 62
     5
  2
*UDIM367
 10
0.0
 20
0.0
 30
0.0
  0
INSERT
  5
   2BF
  8
0
  6
CONTINUOUS
 62
     5
  2
*UDIM368
 10
0.0
 20
0.0
 30
0.0
  0
TEXT
  5
   2C0
  8
0
  6
CONTINUOUS
 62
     7
 10
-609.207275393338
 20
-114.010499028362
 30
0.0
 40
3.00000002980232
  1
X
 50
359.999999896069
 41
0.916666604744064
 72
     2
 11
-607.007275524469
 21
-114.010499032341
 31
0.0
  0
TEXT
  5
   2C1
  8
0
  6
CONTINUOUS
 62
     7
 10
-521.571517947049
 20
-115.186322716869
 30
0.0
 40
3.00000002980232
  1
X
 50
359.999999896069
 41
0.916666604744064
 72
     2
 11
-519.37151807818
 21
-115.186322720849
 31
0.0
  0
LINE
  5
   2C2
  8
0
  6
CONTINUOUS
 62
     7
 10
-579.856242902716
 20
43.7238807678222
 30
0.0
 11
-580.697164282575
 21
43.7238807678222
 31
0.0
  0
LINE
  5
   2C3
  8
0
  6
CONTINUOUS
 62
     7
 10
-597.82216139509
 20
42.3238792419433
 30
0.0
 11
-597.82216139509
 21
43.2238807678223
 31
0.0
  0
LINE
  5
   2C4
  8
0
  6
CONTINUOUS
 62
     7
 10
-597.82216139509
 20
42.3238792419433
 30
0.0
 11
-599.07216139509
 21
42.3238792419433
 31
0.0
  0
LINE
  5
   2C5
  8
0
  6
CONTINUOUS
 62
     7
 10
-599.072167017159
 20
-39.8761192560195
 30
0.0
 11
-599.072167017159
 21
42.3238792419435
 31
0.0
  0
LINE
  5
   2C6
  8
0
  6
CONTINUOUS
 62
     7
 10
-597.82216139509
 20
-39.8761192560196
 30
0.0
 11
-599.07216139509
 21
-39.8761192560196
 31
0.0
  0
LINE
  5
   2C7
  8
0
  6
CONTINUOUS
 62
     7
 10
-597.82216139509
 20
-40.7761192321777
 30
0.0
 11
-597.82216139509
 21
-39.8761192560196
 31
0.0
  0
LINE
  5
   2C8
  8
0
  6
CONTINUOUS
 62
     7
 10
-564.947164282574
 20
-41.2761192321779
 30
0.0
 11
-580.697164282575
 21
-41.2761192321779
 31
0.0
  0
LINE
  5
   2C9
  8
0
  6
CONTINUOUS
 62
     7
 10
-547.447129168409
 20
-41.2761192321777
 30
0.0
 11
-563.197164282575
 21
-41.2761192321777
 31
0.0
  0
LINE
  5
   2CA
  8
0
  6
CONTINUOUS
 62
     7
 10
-530.82216139509
 20
-41.2761192321784
 30
0.0
 11
-545.697129168409
 21
-41.2761192321784
 31
0.0
  0
LINE
  5
   2CB
  8
0
  6
CONTINUOUS
 62
     7
 10
-530.32216139509
 20
-40.7761192321777
 30
0.0
 11
-530.32216139509
 21
-40.1511135101338
 31
0.0
  0
LINE
  5
   2CC
  8
0
  6
CONTINUOUS
 62
     7
 10
-594.44716139509
 20
31.5988807678223
 30
0.0
 11
-594.44716139509
 21
33.7238807678223
 31
0.0
  0
LINE
  5
   2CD
  8
0
  6
CONTINUOUS
 62
     7
 10
-596.322161156671
 20
35.5988807678223
 30
0.0
 11
-597.822161633509
 21
35.5988807678223
 31
0.0
  0
LINE
  5
   2CE
  8
0
  6
CONTINUOUS
 62
     7
 10
-597.822164358926
 20
35.5988807678224
 30
0.0
 11
-597.822164358926
 21
42.3238792419434
 31
0.0
  0
LINE
  5
   2CF
  8
0
  6
CONTINUOUS
 62
     7
 10
-594.44716139509
 20
-31.2761192321777
 30
0.0
 11
-594.44716139509
 21
-29.2761192321777
 31
0.0
  0
LINE
  5
   2D0
  8
0
  6
CONTINUOUS
 62
     7
 10
-584.572146725492
 20
-29.2761192321777
 30
0.0
 11
-594.44716139509
 21
-29.2761192321777
 31
0.0
  0
LINE
  5
   2D1
  8
0
  6
CONTINUOUS
 62
     7
 10
-596.322160679834
 20
-33.1511192321777
 30
0.0
 11
-597.822161871927
 21
-33.1511192321777
 31
0.0
  0
LINE
  5
   2D2
  8
0
  6
CONTINUOUS
 62
     7
 10
-597.822161295823
 20
-39.8761192560196
 30
0.0
 11
-597.822161295823
 21
-33.151119351387
 31
0.0
  0
LINE
  5
   2D3
  8
0
  6
CONTINUOUS
 62
     7
 10
-538.07216139509
 20
-29.2761192321777
 30
0.0
 11
-538.07216139509
 21
-28.0261192321777
 31
0.0
  0
CIRCLE
  5
   2D4
  8
0
  6
CONTINUOUS
 62
     7
 10
-596.322158389914
 20
33.723884001948
 30
0.0
 40
0.875002904842779
  0
ARC
  5
   2D5
  8
0
  6
CONTINUOUS
 62
     7
 10
-596.322147348206
 20
33.7238373054086
 30
0.0
 40
1.87496000544276
 50
269.999551104867
 51
450.000408982336
  0
ARC
  5
   2D6
  8
0
  6
CONTINUOUS
 62
     7
 10
-597.322160119622
 20
43.2238813339872
 30
0.0
 40
0.500001995564727
 50
90.0000472185487
 51
180.000478784316
  0
CIRCLE
  5
   2D7
  8
0
  6
CONTINUOUS
 62
     7
 10
-596.322161311703
 20
-31.2761182263744
 30
0.0
 40
0.874999581588754
  0
CIRCLE
  5
   2D8
  8
0
  6
DOT
 62
     7
 10
-572.822153359309
 20
-35.0261175284942
 30
0.0
 40
2.74999844531425
  0
CIRCLE
  5
   2D9
  8
0
  6
DOT
 62
     7
 10
-564.07215535317
 20
-33.5261181626501
 30
0.0
 40
2.24999899340852
  0
CIRCLE
  5
   2DA
  8
0
  6
DOT
 62
     7
 10
-555.322157801832
 20
-35.0261198430761
 30
0.0
 40
2.7499985235645
  0
ARC
  5
   2DB
  8
0
  6
CONTINUOUS
 62
     7
 10
-597.322161274456
 20
-40.7761191803358
 30
0.0
 40
0.500000053060852
 50
180.000006024791
 51
269.999989483217
  0
CIRCLE
  5
   2DC
  8
0
  6
DOT
 62
     7
 10
-546.572153958068
 20
-33.5261308503841
 30
0.0
 40
2.24998966947475
  0
CIRCLE
  5
   2DD
  8
0
  6
DOT
 62
     7
 10
-537.822125155643
 20
-35.0261796981323
 30
0.0
 40
2.7500660479039
  0
ARC
  5
   2DE
  8
0
  6
CONTINUOUS
 62
     7
 10
-530.822157391399
 20
-40.7761236534676
 30
0.0
 40
0.49999520193586
 50
269.999767510228
 51
360.00047760375
  0
LINE
  5
   2DF
  8
0
  6
DASHDOT
 62
     7
 10
-596.322147348206
 20
30.3488772999658
 30
0.0
 11
-596.322147348206
 21
37.0987973108513
 31
0.0
  0
LINE
  5
   2E0
  8
0
  6
DASHDOT
 62
     7
 10
-592.947187342764
 20
33.7238373054086
 30
0.0
 11
-599.697107353649
 21
33.7238373054086
 31
0.0
  0
LINE
  5
   2E1
  8
0
  6
DASHDOT
 62
     7
 10
-572.822153359309
 20
-39.2761159738084
 30
0.0
 11
-572.822153359309
 21
-30.7761190831799
 31
0.0
  0
LINE
  5
   2E2
  8
0
  6
DASHDOT
 62
     7
 10
-568.572154913995
 20
-35.0261175284942
 30
0.0
 11
-577.072151804624
 21
-35.0261175284942
 31
0.0
  0
LINE
  5
   2E3
  8
0
  6
DASHDOT
 62
     7
 10
-564.07215535317
 20
-42.4897058826551
 30
0.0
 11
-564.07215535317
 21
-29.7761191692416
 31
0.0
  0
LINE
  5
   2E4
  8
0
  6
DASHDOT
 62
     7
 10
-560.322156359762
 20
-33.5261181626501
 30
0.0
 11
-567.822154346579
 21
-33.5261181626501
 31
0.0
  0
LINE
  5
   2E5
  8
0
  6
DASHDOT
 62
     7
 10
-551.072159278268
 20
-35.0261198430761
 30
0.0
 11
-559.572156325397
 21
-35.0261198430761
 31
0.0
  0
LINE
  5
   2E6
  8
0
  6
DASHDOT
 62
     7
 10
-537.822125155643
 20
-39.2762457460362
 30
0.0
 11
-537.822125155643
 21
-30.7761136502284
 31
0.0
  0
LINE
  5
   2E7
  8
0
  6
DASHDOT
 62
     7
 10
-533.572059107739
 20
-35.0261796981323
 30
0.0
 11
-542.072191203547
 21
-35.0261796981323
 31
0.0
  0
LINE
  5
   2E8
  8
0
  6
DASHDOT
 62
     7
 10
-537.82215160115
 20
-41.4761135540814
 30
0.0
 11
-537.82215160115
 21
-37.0761210318443
 31
0.0
  0
LINE
  5
   2E9
  8
0
  6
DASHDOT
 62
     7
 10
-572.822155056188
 20
-41.4761190798372
 30
0.0
 11
-572.822155056188
 21
-37.0761188782105
 31
0.0
  0
CIRCLE
  5
   2EA
  8
0
  6
CONTINUOUS
 62
     7
 10
-596.322162312394
 20
-31.2761205152503
 30
0.0
 40
1.87500067183884
  0
LINE
  5
   2EB
  8
0
  6
DASHDOT
 62
     7
 10
-596.322162312394
 20
-34.6511211870891
 30
0.0
 11
-596.322162312394
 21
-27.9011198434114
 31
0.0
  0
LINE
  5
   2EC
  8
0
  6
DASHDOT
 62
     7
 10
-592.947161640555
 20
-31.2761205152503
 30
0.0
 11
-599.697162984233
 21
-31.2761205152503
 31
0.0
  0
LINE
  5
   2ED
  8
0
  6
CONTINUOUS
 62
     7
 10
-584.572146725492
 20
-28.9011077880879
 30
0.0
 11
-598.572146725492
 21
-28.9011077880879
 31
0.0
  0
LINE
  5
   2EE
  8
0
  6
CONTINUOUS
 62
     3
 10
-529.322154354886
 20
26.3488845825176
 30
0.0
 11
-581.322146725492
 21
26.3488845825176
 31
0.0
  0
LINE
  5
   2EF
  8
0
  6
CONTINUOUS
 62
     3
 10
-529.322154354886
 20
-26.1511077880876
 30
0.0
 11
-536.072154325084
 21
-26.1511077880876
 31
0.0
  0
LINE
  5
   2F0
  8
0
  6
CONTINUOUS
 62
     3
 10
-541.822154354886
 20
-26.1511077880881
 30
0.0
 11
-554.097507303252
 21
-26.1511077880881
 31
0.0
  0
LINE
  5
   2F1
  8
0
  6
CONTINUOUS
 62
     3
 10
-574.572146725492
 20
-26.1511077881014
 30
0.0
 11
-581.322146725492
 21
-26.1511077881014
 31
0.0
  0
LINE
  5
   2F2
  8
0
  6
CONTINUOUS
 62
     7
 10
-598.572146725492
 20
-28.9011077880879
 30
0.0
 11
-598.572146725492
 21
-28.4011077880879
 31
0.0
  0
LINE
  5
   2F3
  8
0
  6
CONTINUOUS
 62
     7
 10
-584.572146725492
 20
-28.4011077514081
 30
0.0
 11
-599.072167017159
 21
-28.4011077514081
 31
0.0
  0
LINE
  5
   2F4
  8
0
  6
CONTINUOUS
 62
     3
 10
-568.822146725492
 20
-26.1511077880893
 30
0.0
 11
-574.572146725492
 21
-26.1511077880893
 31
0.0
  0
LINE
  5
   2F5
  8
0
  6
CONTINUOUS
 62
     3
 10
-536.072154354886
 20
-26.1511077880876
 30
0.0
 11
-541.822154354886
 21
-26.1511077880876
 31
0.0
  0
ARC
  5
   2F6
  8
0
  6
CONTINUOUS
 62
     3
 10
-581.322146725492
 20
-25.9011077881014
 30
0.0
 40
0.25
 50
179.999999948034
 51
269.999999948034
  0
ARC
  5
   2F7
  8
0
  6
CONTINUOUS
 62
     3
 10
-581.322146725492
 20
26.0988845825176
 30
0.0
 40
0.25
 50
449.999999948034
 51
539.999999948034
  0
ARC
  5
   2F8
  8
0
  6
CONTINUOUS
 62
     3
 10
-529.322154354886
 20
26.0988845825176
 30
0.0
 40
0.25
 50
359.999999948034
 51
449.999999948034
  0
ARC
  5
   2F9
  8
0
  6
CONTINUOUS
 62
     3
 10
-529.322154354886
 20
-25.9011077880876
 30
0.0
 40
0.25
 50
269.999999948034
 51
359.999999948034
  0
LINE
  5
   2FA
  8
0
  6
DASHDOT
 62
     7
 10
-555.322146725492
 20
19.325545618053
 30
0.0
 11
-555.322146725492
 21
33.7806706529326
 31
0.0
  0
LINE
  5
   2FB
  8
0
  6
CONTINUOUS
 62
     3
 10
-556.546871851399
 20
-26.1511077880881
 30
0.0
 11
-568.822146725492
 21
-26.1511077880881
 31
0.0
  0
LINE
  5
   2FC
  8
0
  6
CONTINUOUS
 62
     7
 10
-569.072154354886
 20
-26.1511154174824
 30
0.0
 11
-574.072146725492
 21
-26.1511154174824
 31
0.0
  0
LINE
  5
   2FD
  8
0
  6
CONTINUOUS
 62
     7
 10
-536.572161984281
 20
-26.1511154174824
 30
0.0
 11
-541.572161984281
 21
-26.1511154174824
 31
0.0
  0
LINE
  5
   2FE
  8
0
  6
CONTINUOUS
 62
     7
 10
-529.072146725492
 20
-25.9011154174824
 30
0.0
 11
-529.072146725492
 21
-16.9011230468769
 31
0.0
  0
LINE
  5
   2FF
  8
0
  6
CONTINUOUS
 62
     7
 10
-581.572146725492
 20
-25.9011154174824
 30
0.0
 11
-581.572146725492
 21
-16.9011230468769
 31
0.0
  0
LINE
  5
   300
  8
0
  6
CONTINUOUS
 62
     7
 10
-529.322146725492
 20
26.3488845825176
 30
0.0
 11
-581.322146725478
 21
26.3488845825176
 31
0.0
  0
LINE
  5
   301
  8
0
  6
CONTINUOUS
 62
     7
 10
-574.072146725492
 20
-26.1511154174824
 30
0.0
 11
-581.322146725492
 21
-26.1511154174824
 31
0.0
  0
LINE
  5
   302
  8
0
  6
CONTINUOUS
 62
     7
 10
-541.572161984281
 20
-26.1511154174824
 30
0.0
 11
-569.072154354886
 21
-26.1511154174824
 31
0.0
  0
LINE
  5
   303
  8
0
  6
CONTINUOUS
 62
     7
 10
-529.322146725492
 20
-26.1511154174824
 30
0.0
 11
-536.572161984281
 21
-26.1511154174824
 31
0.0
  0
LINE
  5
   304
  8
0
  6
CONTINUOUS
 62
     7
 10
-549.947146725492
 20
-15.0261230468769
 30
0.0
 11
-549.947146725492
 21
4.97386932372854
 31
0.0
  0
LINE
  5
   305
  8
0
  6
CONTINUOUS
 62
     7
 10
-560.697146725492
 20
-15.0261230468769
 30
0.0
 11
-560.697146725492
 21
4.97386932372854
 31
0.0
  0
LINE
  5
   306
  8
0
  6
CONTINUOUS
 62
     7
 10
-529.072146725492
 20
20.3488693237285
 30
0.0
 11
-581.572146725492
 21
20.3488693237285
 31
0.0
  0
LINE
  5
   307
  8
0
  6
CONTINUOUS
 62
     7
 10
-529.072146725492
 20
25.3488693237285
 30
0.0
 11
-581.572146725492
 21
25.3488693237285
 31
0.0
  0
LINE
  5
   308
  8
0
  6
CONTINUOUS
 62
     7
 10
-549.947146725492
 20
4.84163665771291
 30
0.0
 11
-560.697146725492
 21
4.84163665771291
 31
0.0
  0
LINE
  5
   309
  8
0
  6
CONTINUOUS
 62
     7
 10
-549.947146725492
 20
4.97386932372854
 30
0.0
 11
-560.697146725492
 21
4.97386932372854
 31
0.0
  0
LINE
  5
   30A
  8
0
  6
CONTINUOUS
 62
     7
 10
-549.947146725492
 20
-15.0261230468769
 30
0.0
 11
-560.697146725492
 21
-15.0261230468769
 31
0.0
  0
LINE
  5
   30B
  8
0
  6
CONTINUOUS
 62
     7
 10
-549.947146725492
 20
-14.8938751220722
 30
0.0
 11
-560.697146725492
 21
-14.8938751220722
 31
0.0
  0
LINE
  5
   30C
  8
0
  6
DASHDOT
 62
     7
 10
-555.322146725492
 20
-72.3344143360723
 30
0.0
 11
-555.322146725492
 21
15.4500867263626
 31
0.0
  0
LINE
  5
   30D
  8
0
  6
DASHDOT
 62
     7
 10
-555.322146725492
 20
15.063720370103
 30
0.0
 11
-555.322146725492
 21
81.2826997471151
 31
0.0
  0
LINE
  5
   30E
  8
0
  6
CONTINUOUS
 62
     7
 10
-529.072154354886
 20
-16.4011230468769
 30
0.0
 11
-529.072154354886
 21
-10.4011270234962
 31
0.0
  0
LINE
  5
   30F
  8
0
  6
CONTINUOUS
 62
     7
 10
-529.072154354886
 20
6.84887695312307
 30
0.0
 11
-529.072154354886
 21
26.5988845825176
 31
0.0
  0
LINE
  5
   310
  8
0
  6
CONTINUOUS
 62
     7
 10
-529.072154354886
 20
-9.90112702349616
 30
0.0
 11
-529.072154354886
 21
-0.151123046876933
 31
0.0
  0
LINE
  5
   311
  8
0
  6
CONTINUOUS
 62
     7
 10
-529.072154354886
 20
0.348876953123067
 30
0.0
 11
-529.072154354886
 21
6.34887695312307
 31
0.0
  0
LINE
  5
   312
  8
0
  6
CONTINUOUS
 62
     7
 10
-581.572146725494
 20
-16.4011230468769
 30
0.0
 11
-581.572146725494
 21
-10.4011230468758
 31
0.0
  0
LINE
  5
   313
  8
0
  6
CONTINUOUS
 62
     7
 10
-581.572146725503
 20
-9.90112304687582
 30
0.0
 11
-581.572146725503
 21
-0.151123046876933
 31
0.0
  0
LINE
  5
   314
  8
0
  6
CONTINUOUS
 62
     7
 10
-581.572146725489
 20
0.348876953123067
 30
0.0
 11
-581.572146725489
 21
6.34887695312307
 31
0.0
  0
LINE
  5
   315
  8
0
  6
CONTINUOUS
 62
     7
 10
-581.572146725478
 20
6.84887695312307
 30
0.0
 11
-581.572146725478
 21
26.0988845825176
 31
0.0
  0
LINE
  5
   316
  8
0
  6
CONTINUOUS
 62
     7
 10
-560.697150712354
 20
-10.4011134291648
 30
0.0
 11
-581.072146755294
 21
-10.4011134291648
 31
0.0
  0
LINE
  5
   317
  8
0
  6
CONTINUOUS
 62
     7
 10
-529.072154354886
 20
-10.4011174057879
 30
0.0
 11
-529.572154354886
 21
-10.4011174057879
 31
0.0
  0
LINE
  5
   318
  8
0
  6
CONTINUOUS
 62
     7
 10
-560.697160491898
 20
-9.90111342916187
 30
0.0
 11
-581.072146755294
 21
-9.90111342916187
 31
0.0
  0
LINE
  5
   319
  8
0
  6
CONTINUOUS
 62
     7
 10
-529.072154354886
 20
-9.90111740578799
 30
0.0
 11
-529.572154354886
 21
-9.90111740578799
 31
0.0
  0
LINE
  5
   31A
  8
0
  6
CONTINUOUS
 62
     7
 10
-581.072146755294
 20
-10.4011230468769
 30
0.0
 11
-581.072146755294
 21
-9.90112304687693
 31
0.0
  0
LINE
  5
   31B
  8
0
  6
CONTINUOUS
 62
     7
 10
-529.572154354886
 20
-10.4011230468769
 30
0.0
 11
-529.572154354886
 21
-9.90112304687693
 31
0.0
  0
LINE
  5
   31C
  8
0
  6
CONTINUOUS
 62
     7
 10
-529.072146725492
 20
-16.9011230468769
 30
0.0
 11
-529.572154354886
 21
-16.9011230468769
 31
0.0
  0
LINE
  5
   31D
  8
0
  6
CONTINUOUS
 62
     7
 10
-529.072154354886
 20
-16.4011230468769
 30
0.0
 11
-529.572154354886
 21
-16.4011230468769
 31
0.0
  0
LINE
  5
   31E
  8
0
  6
CONTINUOUS
 62
     7
 10
-581.072146755294
 20
-16.9011230468769
 30
0.0
 11
-581.072146755294
 21
-16.4011230468769
 31
0.0
  0
LINE
  5
   31F
  8
0
  6
CONTINUOUS
 62
     7
 10
-529.572154354886
 20
-16.9011230468769
 30
0.0
 11
-529.572154354886
 21
-16.4011230468769
 31
0.0
  0
LINE
  5
   320
  8
0
  6
CONTINUOUS
 62
     7
 10
-529.072154354886
 20
6.34887695312307
 30
0.0
 11
-529.572154354886
 21
6.34887695312307
 31
0.0
  0
LINE
  5
   321
  8
0
  6
CONTINUOUS
 62
     7
 10
-529.072154354886
 20
6.84887695312307
 30
0.0
 11
-529.572154354886
 21
6.84887695312307
 31
0.0
  0
LINE
  5
   322
  8
0
  6
CONTINUOUS
 62
     7
 10
-581.072146755294
 20
6.34887695312307
 30
0.0
 11
-581.072146755294
 21
6.84887695312307
 31
0.0
  0
LINE
  5
   323
  8
0
  6
CONTINUOUS
 62
     7
 10
-529.572154354886
 20
6.34887695312307
 30
0.0
 11
-529.572154354886
 21
6.84887695312307
 31
0.0
  0
LINE
  5
   324
  8
0
  6
CONTINUOUS
 62
     7
 10
-560.697150689201
 20
-0.151123046876933
 30
0.0
 11
-581.072146755294
 21
-0.151123046876933
 31
0.0
  0
LINE
  5
   325
  8
0
  6
CONTINUOUS
 62
     7
 10
-529.072154354886
 20
-0.151123046876933
 30
0.0
 11
-529.572154354886
 21
-0.151123046876933
 31
0.0
  0
LINE
  5
   326
  8
0
  6
CONTINUOUS
 62
     7
 10
-560.697146725492
 20
0.348876953123067
 30
0.0
 11
-581.072146755294
 21
0.348876953123067
 31
0.0
  0
LINE
  5
   327
  8
0
  6
CONTINUOUS
 62
     7
 10
-529.072154354886
 20
0.348876953123067
 30
0.0
 11
-529.572154354886
 21
0.348876953123067
 31
0.0
  0
LINE
  5
   328
  8
0
  6
CONTINUOUS
 62
     7
 10
-581.072146755294
 20
-0.151123046876933
 30
0.0
 11
-581.072146755294
 21
0.348876953123067
 31
0.0
  0
LINE
  5
   329
  8
0
  6
CONTINUOUS
 62
     7
 10
-529.572154354886
 20
-0.151123046876933
 30
0.0
 11
-529.572154354886
 21
0.348876953123067
 31
0.0
  0
ARC
  5
   32A
  8
0
  6
CONTINUOUS
 62
     7
 10
-581.322146725492
 20
-25.9011154174824
 30
0.0
 40
0.25
 50
179.999999948034
 51
269.999999948034
  0
ARC
  5
   32B
  8
0
  6
CONTINUOUS
 62
     7
 10
-529.322146725492
 20
-25.9011154174824
 30
0.0
 40
0.25
 50
269.999999948034
 51
359.999999948034
  0
ARC
  5
   32C
  8
0
  6
CONTINUOUS
 62
     7
 10
-529.322146725492
 20
26.0988845825176
 30
0.0
 40
0.25
 50
359.999999948034
 51
449.999999948034
  0
ARC
  5
   32D
  8
0
  6
CONTINUOUS
 62
     7
 10
-581.322146725478
 20
26.0988845825176
 30
0.0
 40
0.25
 50
449.999999948034
 51
539.999999948034
  0
LINE
  5
   32E
  8
0
  6
CONTINUOUS
 62
     7
 10
-566.572146725492
 20
5.59887695312307
 30
0.0
 11
-567.322146725492
 21
5.59887695312307
 31
0.0
  0
LINE
  5
   32F
  8
0
  6
CONTINUOUS
 62
     7
 10
-566.572146725492
 20
1.09887695312307
 30
0.0
 11
-567.322146725492
 21
1.09887695312307
 31
0.0
  0
CIRCLE
  5
   330
  8
0
  6
CONTINUOUS
 62
     7
 10
-566.947146725492
 20
-13.4011230468769
 30
0.0
 40
2.25
  0
CIRCLE
  5
   331
  8
0
  6
CONTINUOUS
 62
     7
 10
-566.947146725492
 20
-13.4011230468769
 30
0.0
 40
1.5
  0
LINE
  5
   332
  8
0
  6
CONTINUOUS
 62
     7
 10
-567.322146725492
 20
1.09887695312307
 30
0.0
 11
-567.322146725492
 21
5.59887695312307
 31
0.0
  0
LINE
  5
   333
  8
0
  6
CONTINUOUS
 62
     7
 10
-566.572146725492
 20
1.09887695312307
 30
0.0
 11
-566.572146725492
 21
5.59887695312307
 31
0.0
  0
LINE
  5
   334
  8
0
  6
CONTINUOUS
 62
     7
 10
-562.072146725492
 20
-16.4011230468769
 30
0.0
 11
-562.072146725492
 21
-10.4011159022942
 31
0.0
  0
LINE
  5
   335
  8
0
  6
CONTINUOUS
 62
     7
 10
-548.572146725492
 20
-16.4011230468769
 30
0.0
 11
-548.572146725492
 21
-10.4011198789173
 31
0.0
  0
LINE
  5
   336
  8
0
  6
CONTINUOUS
 62
     7
 10
-548.572146725492
 20
0.348876953123067
 30
0.0
 11
-548.572146725492
 21
6.34887695312307
 31
0.0
  0
LINE
  5
   337
  8
0
  6
CONTINUOUS
 62
     7
 10
-562.072146725492
 20
0.348876953123067
 30
0.0
 11
-562.072146725492
 21
6.34887695312307
 31
0.0
  0
LINE
  5
   338
  8
0
  6
CONTINUOUS
 62
     7
 10
-542.547151608304
 20
-11.4761230468769
 30
0.0
 11
-542.772151608304
 21
-11.4761230468769
 31
0.0
  0
LINE
  5
   339
  8
0
  6
CONTINUOUS
 62
     7
 10
-543.022151608304
 20
-15.3261230468769
 30
0.0
 11
-543.422151608304
 21
-15.3261230468769
 31
0.0
  0
LINE
  5
   33A
  8
0
  6
CONTINUOUS
 62
     7
 10
-546.622151608304
 20
-14.0261230468769
 30
0.0
 11
-546.622151608304
 21
-13.7761230468769
 31
0.0
  0
LINE
  5
   33B
  8
0
  6
CONTINUOUS
 62
     7
 10
-544.022151608304
 20
-14.0261230468769
 30
0.0
 11
-544.022151608304
 21
-13.7761230468769
 31
0.0
  0
ARC
  5
   33C
  8
0
  6
CONTINUOUS
 62
     7
 10
-545.322151608304
 20
-13.7761230468769
 30
0.0
 40
1.3
 50
359.999999948034
 51
539.999999948034
  0
ARC
  5
   33D
  8
0
  6
CONTINUOUS
 62
     7
 10
-545.322151608304
 20
-14.0261230468769
 30
0.0
 40
1.3
 50
179.999999948034
 51
359.999999948034
  0
ARC
  5
   33E
  8
0
  6
CONTINUOUS
 62
     7
 10
-545.322151608304
 20
-13.7761230468769
 30
0.0
 40
0.900000000000001
 50
359.999999948034
 51
539.999999948034
  0
ARC
  5
   33F
  8
0
  6
CONTINUOUS
 62
     7
 10
-545.322151608304
 20
-14.0261230468769
 30
0.0
 40
0.899999999999999
 50
179.999999948034
 51
359.999999948034
  0
LINE
  5
   340
  8
0
  6
CONTINUOUS
 62
     7
 10
-546.222151608304
 20
-14.0261230468769
 30
0.0
 11
-546.222151608304
 21
-13.7761230468769
 31
0.0
  0
LINE
  5
   341
  8
0
  6
CONTINUOUS
 62
     7
 10
-544.422151608304
 20
-14.0261230468769
 30
0.0
 11
-544.422151608304
 21
-13.7761230468769
 31
0.0
  0
LINE
  5
   342
  8
0
  6
CONTINUOUS
 62
     7
 10
-543.897151608304
 20
-13.0761230468769
 30
0.0
 11
-543.897151608304
 21
-12.6761230468769
 31
0.0
  0
LINE
  5
   343
  8
0
  6
CONTINUOUS
 62
     7
 10
-543.422151608304
 20
-13.0761230468769
 30
0.0
 11
-543.897151608304
 21
-13.0761230468769
 31
0.0
  0
LINE
  5
   344
  8
0
  6
CONTINUOUS
 62
     7
 10
-542.547151608304
 20
-13.0761230468769
 30
0.0
 11
-542.547151608304
 21
-12.6761230468769
 31
0.0
  0
LINE
  5
   345
  8
0
  6
CONTINUOUS
 62
     7
 10
-543.422151608304
 20
-12.6761230468769
 30
0.0
 11
-543.897151608304
 21
-12.6761230468769
 31
0.0
  0
LINE
  5
   346
  8
0
  6
CONTINUOUS
 62
     7
 10
-543.422151608304
 20
-15.3261230468769
 30
0.0
 11
-543.422151608304
 21
-13.0761230468769
 31
0.0
  0
LINE
  5
   347
  8
0
  6
CONTINUOUS
 62
     7
 10
-543.022151608304
 20
-15.3261230468769
 30
0.0
 11
-543.022151608304
 21
-13.0761230468769
 31
0.0
  0
LINE
  5
   348
  8
0
  6
CONTINUOUS
 62
     7
 10
-542.547151608304
 20
-13.0761230468769
 30
0.0
 11
-543.022151608304
 21
-13.0761230468769
 31
0.0
  0
LINE
  5
   349
  8
0
  6
CONTINUOUS
 62
     7
 10
-542.547151608304
 20
-12.6761230468769
 30
0.0
 11
-543.022151608304
 21
-12.6761230468769
 31
0.0
  0
LINE
  5
   34A
  8
0
  6
CONTINUOUS
 62
     7
 10
-543.422151608304
 20
-12.6761230468769
 30
0.0
 11
-543.422151608304
 21
-12.1261230468769
 31
0.0
  0
LINE
  5
   34B
  8
0
  6
CONTINUOUS
 62
     7
 10
-543.022151608304
 20
-12.6761230468769
 30
0.0
 11
-543.022151608304
 21
-12.1261230468769
 31
0.0
  0
ARC
  5
   34C
  8
0
  6
CONTINUOUS
 62
     7
 10
-542.772151608304
 20
-12.1261230468769
 30
0.0
 40
0.65
 50
449.999999948034
 51
539.999999948034
  0
ARC
  5
   34D
  8
0
  6
CONTINUOUS
 62
     7
 10
-542.772151608304
 20
-12.1261230468769
 30
0.0
 40
0.25
 50
449.999999948034
 51
539.999999948034
  0
LINE
  5
   34E
  8
0
  6
CONTINUOUS
 62
     7
 10
-542.547151608304
 20
-11.8761230468769
 30
0.0
 11
-542.547151608304
 21
-11.4761230468769
 31
0.0
  0
LINE
  5
   34F
  8
0
  6
CONTINUOUS
 62
     7
 10
-542.547151608304
 20
-11.8761230468769
 30
0.0
 11
-542.772151608304
 21
-11.8761230468769
 31
0.0
  0
LINE
  5
   350
  8
0
  6
CONTINUOUS
 62
     7
 10
-540.947151608304
 20
-11.4761230468769
 30
0.0
 11
-541.172151608304
 21
-11.4761230468769
 31
0.0
  0
LINE
  5
   351
  8
0
  6
CONTINUOUS
 62
     7
 10
-541.422151608304
 20
-15.3261230468769
 30
0.0
 11
-541.822151608304
 21
-15.3261230468769
 31
0.0
  0
LINE
  5
   352
  8
0
  6
CONTINUOUS
 62
     7
 10
-542.297151608304
 20
-13.0761230468769
 30
0.0
 11
-542.297151608304
 21
-12.6761230468769
 31
0.0
  0
LINE
  5
   353
  8
0
  6
CONTINUOUS
 62
     7
 10
-541.822151608304
 20
-13.0761230468769
 30
0.0
 11
-542.297151608304
 21
-13.0761230468769
 31
0.0
  0
LINE
  5
   354
  8
0
  6
CONTINUOUS
 62
     7
 10
-540.947151608304
 20
-13.0761230468769
 30
0.0
 11
-540.947151608304
 21
-12.6761230468769
 31
0.0
  0
LINE
  5
   355
  8
0
  6
CONTINUOUS
 62
     7
 10
-541.822151608304
 20
-12.6761230468769
 30
0.0
 11
-542.297151608304
 21
-12.6761230468769
 31
0.0
  0
LINE
  5
   356
  8
0
  6
CONTINUOUS
 62
     7
 10
-541.822151608304
 20
-15.3261230468769
 30
0.0
 11
-541.822151608304
 21
-13.0761230468769
 31
0.0
  0
LINE
  5
   357
  8
0
  6
CONTINUOUS
 62
     7
 10
-541.422151608304
 20
-15.3261230468769
 30
0.0
 11
-541.422151608304
 21
-13.0761230468769
 31
0.0
  0
LINE
  5
   358
  8
0
  6
CONTINUOUS
 62
     7
 10
-540.947151608304
 20
-13.0761230468769
 30
0.0
 11
-541.422151608304
 21
-13.0761230468769
 31
0.0
  0
LINE
  5
   359
  8
0
  6
CONTINUOUS
 62
     7
 10
-540.947151608304
 20
-12.6761230468769
 30
0.0
 11
-541.422151608304
 21
-12.6761230468769
 31
0.0
  0
LINE
  5
   35A
  8
0
  6
CONTINUOUS
 62
     7
 10
-541.822151608304
 20
-12.6761230468769
 30
0.0
 11
-541.822151608304
 21
-12.1261230468769
 31
0.0
  0
LINE
  5
   35B
  8
0
  6
CONTINUOUS
 62
     7
 10
-541.422151608304
 20
-12.6761230468769
 30
0.0
 11
-541.422151608304
 21
-12.1261230468769
 31
0.0
  0
ARC
  5
   35C
  8
0
  6
CONTINUOUS
 62
     7
 10
-541.172151608304
 20
-12.1261230468769
 30
0.0
 40
0.65
 50
449.999999948034
 51
539.999999948034
  0
ARC
  5
   35D
  8
0
  6
CONTINUOUS
 62
     7
 10
-541.172151608304
 20
-12.1261230468769
 30
0.0
 40
0.25
 50
449.999999948034
 51
539.999999948034
  0
LINE
  5
   35E
  8
0
  6
CONTINUOUS
 62
     7
 10
-540.947151608304
 20
-11.8761230468769
 30
0.0
 11
-540.947151608304
 21
-11.4761230468769
 31
0.0
  0
LINE
  5
   35F
  8
0
  6
CONTINUOUS
 62
     7
 10
-540.947151608304
 20
-11.8761230468769
 30
0.0
 11
-541.172151608304
 21
-11.8761230468769
 31
0.0
  0
LINE
  5
   360
  8
0
  6
CONTINUOUS
 62
     7
 10
-543.222151608304
 20
1.92387695312307
 30
0.0
 11
-543.622151608304
 21
1.92387695312307
 31
0.0
  0
ARC
  5
   361
  8
0
  6
CONTINUOUS
 62
     7
 10
-545.322151608304
 20
3.47387695312307
 30
0.0
 40
1.3
 50
359.999999948034
 51
539.999999948034
  0
ARC
  5
   362
  8
0
  6
CONTINUOUS
 62
     7
 10
-545.322151608304
 20
3.47387695312307
 30
0.0
 40
0.900000000000001
 50
359.999999948034
 51
539.999999948034
  0
ARC
  5
   363
  8
0
  6
CONTINUOUS
 62
     7
 10
-545.322151608304
 20
3.22387695312307
 30
0.0
 40
1.3
 50
179.999999948034
 51
359.999999948034
  0
ARC
  5
   364
  8
0
  6
CONTINUOUS
 62
     7
 10
-545.322151608304
 20
3.22387695312307
 30
0.0
 40
0.899999999999999
 50
179.999999948034
 51
359.999999948034
  0
LINE
  5
   365
  8
0
  6
CONTINUOUS
 62
     7
 10
-544.422151608304
 20
3.22387695312309
 30
0.0
 11
-544.422151608304
 21
3.47387695312309
 31
0.0
  0
LINE
  5
   366
  8
0
  6
CONTINUOUS
 62
     7
 10
-544.022151608304
 20
3.22387695312309
 30
0.0
 11
-544.022151608304
 21
3.47387695312309
 31
0.0
  0
LINE
  5
   367
  8
0
  6
CONTINUOUS
 62
     7
 10
-546.222151608304
 20
3.22387695312308
 30
0.0
 11
-546.222151608304
 21
3.47387695312308
 31
0.0
  0
LINE
  5
   368
  8
0
  6
CONTINUOUS
 62
     7
 10
-546.622151608304
 20
3.22387695312309
 30
0.0
 11
-546.622151608304
 21
3.47387695312309
 31
0.0
  0
LINE
  5
   369
  8
0
  6
CONTINUOUS
 62
     7
 10
-543.622151608304
 20
1.92387695312309
 30
0.0
 11
-543.622151608304
 21
4.77387695312309
 31
0.0
  0
LINE
  5
   36A
  8
0
  6
CONTINUOUS
 62
     7
 10
-543.222151608304
 20
1.92387695312309
 30
0.0
 11
-543.222151608304
 21
3.67387695312309
 31
0.0
  0
LINE
  5
   36B
  8
0
  6
CONTINUOUS
 62
     7
 10
-541.822151608304
 20
1.92387695312309
 30
0.0
 11
-541.822151608304
 21
3.67387695312309
 31
0.0
  0
LINE
  5
   36C
  8
0
  6
CONTINUOUS
 62
     7
 10
-541.422151608304
 20
1.92387695312309
 30
0.0
 11
-541.422151608304
 21
3.77387695312309
 31
0.0
  0
LINE
  5
   36D
  8
0
  6
CONTINUOUS
 62
     7
 10
-543.222151608304
 20
4.77387695312306
 30
0.0
 11
-543.622151608304
 21
4.77387695312306
 31
0.0
  0
ARC
  5
   36E
  8
0
  6
CONTINUOUS
 62
     7
 10
-542.522151608304
 20
3.67387695312306
 30
0.0
 40
0.699999999999999
 50
359.999999948034
 51
539.999999948034
  0
LINE
  5
   36F
  8
0
  6
CONTINUOUS
 62
     7
 10
-543.222151608304
 20
4.3738769531231
 30
0.0
 11
-543.222151608304
 21
4.77387695312309
 31
0.0
  0
ARC
  5
   370
  8
0
  6
CONTINUOUS
 62
     7
 10
-542.422151608304
 20
3.77387695312306
 30
0.0
 40
1.0
 50
359.999999948034
 51
503.13010230219
  0
LINE
  5
   371
  8
0
  6
CONTINUOUS
 62
     7
 10
-541.422151608304
 20
1.92387695312307
 30
0.0
 11
-541.822151608304
 21
1.92387695312307
 31
0.0
  0
LINE
  5
   372
  8
0
  6
CONTINUOUS
 62
     7
 10
-545.697129168409
 20
-41.2761192321777
 30
0.0
 11
-545.697129168409
 21
-40.1511135101338
 31
0.0
  0
LINE
  5
   373
  8
0
  6
CONTINUOUS
 62
     7
 10
-547.447129168409
 20
-41.2761192321777
 30
0.0
 11
-547.447129168409
 21
-40.1511135101338
 31
0.0
  0
LINE
  5
   374
  8
0
  6
CONTINUOUS
 62
     7
 10
-563.197164282575
 20
-41.2761192321777
 30
0.0
 11
-563.197164282575
 21
-40.1511135101338
 31
0.0
  0
LINE
  5
   375
  8
0
  6
CONTINUOUS
 62
     7
 10
-564.947164282574
 20
-41.2761192321777
 30
0.0
 11
-564.947164282574
 21
-40.1511135101338
 31
0.0
  0
LINE
  5
   376
  8
0
  6
CONTINUOUS
 62
     7
 10
-581.072146755294
 20
6.84887695312307
 30
0.0
 11
-581.572146725478
 21
6.84887695312307
 31
0.0
  0
LINE
  5
   377
  8
0
  6
CONTINUOUS
 62
     7
 10
-581.072146755294
 20
6.34887695312307
 30
0.0
 11
-581.572146725489
 21
6.34887695312307
 31
0.0
  0
LINE
  5
   378
  8
0
  6
CONTINUOUS
 62
     7
 10
-581.072146755294
 20
0.348876953123067
 30
0.0
 11
-581.572146725489
 21
0.348876953123067
 31
0.0
  0
LINE
  5
   379
  8
0
  6
CONTINUOUS
 62
     7
 10
-581.072146755294
 20
-0.151123046876933
 30
0.0
 11
-581.572146725503
 21
-0.151123046876933
 31
0.0
  0
LINE
  5
   37A
  8
0
  6
CONTINUOUS
 62
     7
 10
-581.072146755294
 20
-9.90111342916187
 30
0.0
 11
-581.572146725503
 21
-9.90111342916187
 31
0.0
  0
LINE
  5
   37B
  8
0
  6
CONTINUOUS
 62
     7
 10
-581.072146755294
 20
-10.4011134291648
 30
0.0
 11
-581.572146725494
 21
-10.4011134291648
 31
0.0
  0
LINE
  5
   37C
  8
0
  6
CONTINUOUS
 62
     7
 10
-581.072146755294
 20
-16.4011230468769
 30
0.0
 11
-581.572146725494
 21
-16.4011230468769
 31
0.0
  0
LINE
  5
   37D
  8
0
  6
CONTINUOUS
 62
     7
 10
-581.072146755294
 20
-16.9011230468769
 30
0.0
 11
-581.572146725492
 21
-16.9011230468769
 31
0.0
  0
LINE
  5
   37E
  8
0
  6
CONTINUOUS
 62
     7
 10
-529.572154354886
 20
6.84887695312307
 30
0.0
 11
-581.072146755294
 21
6.84887695312307
 31
0.0
  0
LINE
  5
   37F
  8
0
  6
CONTINUOUS
 62
     7
 10
-529.572154354886
 20
6.34887695312307
 30
0.0
 11
-581.072146755294
 21
6.34887695312307
 31
0.0
  0
LINE
  5
   380
  8
0
  6
CONTINUOUS
 62
     7
 10
-529.572154354886
 20
0.348876953123067
 30
0.0
 11
-549.947146725492
 21
0.348876953123067
 31
0.0
  0
LINE
  5
   381
  8
0
  6
CONTINUOUS
 62
     7
 10
-529.572154354886
 20
-0.151123046876933
 30
0.0
 11
-549.947146725492
 21
-0.151123046876933
 31
0.0
  0
LINE
  5
   382
  8
0
  6
CONTINUOUS
 62
     7
 10
-529.572154354886
 20
-9.90111740578799
 30
0.0
 11
-549.947148217871
 21
-9.90111740578799
 31
0.0
  0
LINE
  5
   383
  8
0
  6
CONTINUOUS
 62
     7
 10
-529.572154354886
 20
-10.4011174057879
 30
0.0
 11
-549.947148401066
 21
-10.4011174057879
 31
0.0
  0
LINE
  5
   384
  8
0
  6
CONTINUOUS
 62
     7
 10
-529.572154354886
 20
-16.4011230468769
 30
0.0
 11
-581.072146755294
 21
-16.4011230468769
 31
0.0
  0
LINE
  5
   385
  8
0
  6
CONTINUOUS
 62
     7
 10
-529.572154354886
 20
-16.9011230468769
 30
0.0
 11
-581.072146755294
 21
-16.9011230468769
 31
0.0
  0
LINE
  5
   386
  8
0
  6
CONTINUOUS
 62
     7
 10
-549.947146725492
 20
-7.96346269216724
 30
0.0
 11
-560.697146725492
 21
-7.96346269216724
 31
0.0
  0
LINE
  5
   387
  8
0
  6
CONTINUOUS
 62
     7
 10
-549.947146725492
 20
-11.0216954449757
 30
0.0
 11
-560.697146725492
 21
-11.0216954449757
 31
0.0
  0
LINE
  5
   388
  8
0
  6
CONTINUOUS
 62
     7
 10
-549.947146725492
 20
-13.9956047580815
 30
0.0
 11
-560.697146725492
 21
-13.9956047580815
 31
0.0
  0
LINE
  5
   389
  8
0
  6
CONTINUOUS
 62
     7
 10
-549.947146725492
 20
-14.3969783219407
 30
0.0
 11
-560.697146725492
 21
-14.3969783219407
 31
0.0
  0
ARC
  5
   38A
  8
0
  6
CONTINUOUS
 62
     7
 10
-596.322114512556
 20
33.7238521955123
 30
0.0
 40
1.87505277579048
 50
90.0014244293144
 51
269.998569947076
  0
LINE
  5
   38B
  8
0
  6
CONTINUOUS
 62
     7
 10
-582.447164282575
 20
43.7238807678222
 30
0.0
 11
-597.32216139509
 21
43.7238807678222
 31
0.0
  0
LINE
  5
   38C
  8
0
  6
CONTINUOUS
 62
     7
 10
-581.372540479541
 20
40.4738807678223
 30
0.0
 11
-582.822164282575
 21
40.4738807678223
 31
0.0
  0
CIRCLE
  5
   38D
  8
0
  6
CONTINUOUS
 62
     7
 10
-590.32216170068
 20
37.4738762170381
 30
0.0
 40
2.75000069115123
  0
CIRCLE
  5
   38E
  8
0
  6
CONTINUOUS
 62
     7
 10
-590.322164087869
 20
41.7238854261904
 30
0.0
 40
0.700002264523652
  0
LINE
  5
   38F
  8
0
  6
CONTINUOUS
 62
     7
 10
-582.447164282575
 20
42.2238807678223
 30
0.0
 11
-582.447164282575
 21
43.7238807678222
 31
0.0
  0
LINE
  5
   390
  8
0
  6
CONTINUOUS
 62
     7
 10
-580.697164282575
 20
42.2238807678223
 30
0.0
 11
-580.697164282575
 21
43.7238807678222
 31
0.0
  0
LINE
  5
   391
  8
0
  6
CONTINUOUS
 62
     7
 10
-582.822164282575
 20
40.4738807678223
 30
0.0
 11
-582.822164282575
 21
42.2238807678223
 31
0.0
  0
LINE
  5
   392
  8
0
  6
CONTINUOUS
 62
     7
 10
-580.322164282575
 20
41.5604064397926
 30
0.0
 11
-580.322164282575
 21
42.2238807678223
 31
0.0
  0
LINE
  5
   393
  8
0
  6
CONTINUOUS
 62
     7
 10
-580.322164282575
 20
42.2238807678223
 30
0.0
 11
-580.697164282575
 21
42.2238807678223
 31
0.0
  0
LINE
  5
   394
  8
0
  6
CONTINUOUS
 62
     7
 10
-582.447164282575
 20
42.2238807678223
 30
0.0
 11
-582.822164282575
 21
42.2238807678223
 31
0.0
  0
LINE
  5
   395
  8
0
  6
CONTINUOUS
 62
     7
 10
-582.447164282575
 20
-41.2761192321779
 30
0.0
 11
-597.32216139509
 21
-41.2761192321779
 31
0.0
  0
CIRCLE
  5
   396
  8
0
  6
CONTINUOUS
 62
     7
 10
-590.322153359309
 20
-35.0261175284942
 30
0.0
 40
2.74999844531425
  0
CIRCLE
  5
   397
  8
0
  6
CONTINUOUS
 62
     7
 10
-590.322155056188
 20
-39.2761189790239
 30
0.0
 40
0.700000100813335
  0
CIRCLE
  5
   398
  8
0
  6
DOT
 62
     7
 10
-581.57215535317
 20
-33.5261181626501
 30
0.0
 40
2.24999899340852
  0
LINE
  5
   399
  8
0
  6
DASHDOT
 62
     7
 10
-590.322153359309
 20
-39.2761159738084
 30
0.0
 11
-590.322153359309
 21
-30.7761190831799
 31
0.0
  0
LINE
  5
   39A
  8
0
  6
DASHDOT
 62
     7
 10
-590.322155056188
 20
-41.4761190798372
 30
0.0
 11
-590.322155056188
 21
-37.0761188782105
 31
0.0
  0
LINE
  5
   39B
  8
0
  6
CONTINUOUS
 62
     7
 10
-580.697164282575
 20
-41.2761192321777
 30
0.0
 11
-580.697164282575
 21
-40.1511135101338
 31
0.0
  0
LINE
  5
   39C
  8
0
  6
CONTINUOUS
 62
     7
 10
-582.447164282575
 20
-41.2761192321777
 30
0.0
 11
-582.447164282575
 21
-40.1511135101338
 31
0.0
  0
LINE
  5
   39D
  8
0
  6
DASHDOT
 62
     7
 10
-590.322164087869
 20
36.0238831616668
 30
0.0
 11
-590.322164087869
 21
47.4238876907141
 31
0.0
  0
LINE
  5
   39E
  8
0
  6
DASHDOT
 62
     7
 10
-584.622161823346
 20
41.7238854261904
 30
0.0
 11
-596.022166352393
 21
41.7238854261904
 31
0.0
  0
LINE
  5
   39F
  8
0
  6
DASHDOT
 62
     7
 10
-590.32216170068
 20
32.4366366949088
 30
0.0
 11
-590.32216170068
 21
45.2238769081893
 31
0.0
  0
LINE
  5
   3A0
  8
0
  6
DASHDOT
 62
     7
 10
-585.147840211856
 20
37.4738762170381
 30
0.0
 11
-594.912849888483
 21
37.4738762170381
 31
0.0
  0
LINE
  5
   3A1
  8
0
  6
DASHDOT
 62
     7
 10
-582.572154913995
 20
-35.0261175284942
 30
0.0
 11
-598.072151804624
 21
-35.0261175284942
 31
0.0
  0
LINE
  5
   3A2
  8
0
  6
DASHDOT
 62
     7
 10
-584.622154955374
 20
-39.2761189790239
 30
0.0
 11
-596.022155157001
 21
-39.2761189790239
 31
0.0
  0
LINE
  5
   3A3
  8
0
  6
DASHDOT
 62
     7
 10
-574.322156359762
 20
-33.5261181626501
 30
0.0
 11
-588.822154346579
 21
-33.5261181626501
 31
0.0
  0
LINE
  5
   3A4
  8
0
  6
CONTINUOUS
 62
     7
 10
-585.172146725478
 20
-28.4011077514081
 30
0.0
 11
-585.172146725478
 21
31.5988807678223
 31
0.0
  0
LINE
  5
   3A5
  8
0
  6
CONTINUOUS
 62
     7
 10
-586.972146725478
 20
-28.4011077514081
 30
0.0
 11
-586.972146725478
 21
31.5988807678223
 31
0.0
  0
LINE
  5
   3A6
  8
0
  6
CONTINUOUS
 62
     7
 10
-588.772146725478
 20
-28.4011077514081
 30
0.0
 11
-588.772146725478
 21
31.5988807678223
 31
0.0
  0
LINE
  5
   3A7
  8
0
  6
CONTINUOUS
 62
     7
 10
-590.572146725478
 20
-28.4011077514081
 30
0.0
 11
-590.572146725478
 21
31.5988807678223
 31
0.0
  0
LINE
  5
   3A8
  8
0
  6
CONTINUOUS
 62
     7
 10
-592.372146725478
 20
-28.4011077514081
 30
0.0
 11
-592.372146725478
 21
31.5988807678223
 31
0.0
  0
LINE
  5
   3A9
  8
0
  6
CONTINUOUS
 62
     7
 10
-594.172146725478
 20
-28.4011077514081
 30
0.0
 11
-594.172146725478
 21
31.5988807678223
 31
0.0
  0
LINE
  5
   3AA
  8
0
  6
CONTINUOUS
 62
     7
 10
-595.972146725478
 20
-28.4011077514081
 30
0.0
 11
-595.972146725478
 21
31.5988807678223
 31
0.0
  0
LINE
  5
   3AB
  8
0
  6
CONTINUOUS
 62
     7
 10
-597.772146725478
 20
-28.4011077514081
 30
0.0
 11
-597.772146725478
 21
31.5988807678223
 31
0.0
  0
LINE
  5
   3AC
  8
0
  6
CONTINUOUS
 62
     7
 10
-581.322146725478
 20
26.3488845825176
 30
0.0
 11
-599.072167017159
 21
26.3488845825176
 31
0.0
  0
LINE
  5
   3AD
  8
0
  6
CONTINUOUS
 62
     7
 10
-584.572146725492
 20
-26.1511154174824
 30
0.0
 11
-599.072167017159
 21
-26.1511154174824
 31
0.0
  0
LINE
  5
   3AE
  8
0
  6
DASHDOT
 62
     5
 10
-522.191831326145
 20
9.88845825175986E-2
 30
0.0
 11
-603.931654823939
 21
9.88845825175986E-2
 31
0.0
  0
LINE
  5
   3AF
  8
0
  6
CONTINUOUS
 62
     7
 10
-532.072146725492
 20
-42.5261192321777
 30
0.0
 11
-532.072146725492
 21
-41.2761192321784
 31
0.0
  0
LINE
  5
   3B0
  8
0
  6
CONTINUOUS
 62
     7
 10
-596.072167017159
 20
-42.5261192321777
 30
0.0
 11
-596.072167017159
 21
-41.2761192321779
 31
0.0
  0
LINE
  5
   3B1
  8
0
  6
CONTINUOUS
 62
     7
 10
-532.072146725492
 20
-42.5261192321777
 30
0.0
 11
-596.072167017159
 21
-42.5261192321777
 31
0.0
  0
LINE
  5
   3B2
  8
0
  6
CONTINUOUS
 62
     1
 10
-561.322164282575
 20
44.9738807678222
 30
0.0
 11
-561.322164282575
 21
46.4738807678223
 31
0.0
  0
LINE
  5
   3B3
  8
0
  6
CONTINUOUS
 62
     1
 10
-564.822164282575
 20
46.4738807678223
 30
0.0
 11
-566.822164282575
 21
46.4738807678223
 31
0.0
  0
LINE
  5
   3B4
  8
0
  6
CONTINUOUS
 62
     1
 10
-561.322164282575
 20
46.4738807678223
 30
0.0
 11
-563.322164282575
 21
46.4738807678223
 31
0.0
  0
LINE
  5
   3B5
  8
0
  6
CONTINUOUS
 62
     1
 10
-566.822164282575
 20
44.9738807678222
 30
0.0
 11
-566.822164282575
 21
46.4738807678223
 31
0.0
  0
LINE
  5
   3B6
  8
0
  6
CONTINUOUS
 62
     1
 10
-561.322164282575
 20
45.4738807678223
 30
0.0
 11
-566.822164282575
 21
45.4738807678223
 31
0.0
  0
LINE
  5
   3B7
  8
0
  6
CONTINUOUS
 62
     1
 10
-584.322164282575
 20
43.7238807678222
 30
0.0
 11
-584.322164282575
 21
46.4738807678223
 31
0.0
  0
LINE
  5
   3B8
  8
0
  6
CONTINUOUS
 62
     1
 10
-582.322164282575
 20
42.3238805532455
 30
0.0
 11
-582.697164282575
 21
42.3238805532455
 31
0.0
  0
LINE
  5
   3B9
  8
0
  6
CONTINUOUS
 62
     1
 10
-582.697164282575
 20
40.7238805294037
 30
0.0
 11
-582.697164282575
 21
42.3238805532455
 31
0.0
  0
LINE
  5
   3BA
  8
0
  6
CONTINUOUS
 62
     1
 10
-580.447164282575
 20
40.7238805294037
 30
0.0
 11
-582.697164282575
 21
40.7238805294037
 31
0.0
  0
LINE
  5
   3BB
  8
0
  6
CONTINUOUS
 62
     1
 10
-580.447164282575
 20
40.7238805294037
 30
0.0
 11
-580.447164282575
 21
42.3238805532455
 31
0.0
  0
LINE
  5
   3BC
  8
0
  6
CONTINUOUS
 62
     1
 10
-580.447164282575
 20
42.3238805532455
 30
0.0
 11
-580.822164282575
 21
42.3238805532455
 31
0.0
  0
LINE
  5
   3BD
  8
0
  6
CONTINUOUS
 62
     1
 10
-580.822164282575
 20
42.3238804340362
 30
0.0
 11
-580.822164282575
 21
44.9738805294037
 31
0.0
  0
LINE
  5
   3BE
  8
0
  6
CONTINUOUS
 62
     1
 10
-582.322164282575
 20
42.3238805532455
 30
0.0
 11
-582.322164282575
 21
44.9738805294037
 31
0.0
  0
LINE
  5
   3BF
  8
0
  6
CONTINUOUS
 62
     1
 10
-582.322164282575
 20
41.8238805532455
 30
0.0
 11
-582.322164282575
 21
42.3238805532455
 31
0.0
  0
LINE
  5
   3C0
  8
0
  6
CONTINUOUS
 62
     1
 10
-580.822164282575
 20
41.8238805532455
 30
0.0
 11
-580.822164282575
 21
42.3238805532455
 31
0.0
  0
LINE
  5
   3C1
  8
0
  6
CONTINUOUS
 62
     1
 10
-582.322164282575
 20
41.8238805532455
 30
0.0
 11
-582.697164282575
 21
41.8238805532455
 31
0.0
  0
LINE
  5
   3C2
  8
0
  6
CONTINUOUS
 62
     1
 10
-580.447164282575
 20
41.8238805532455
 30
0.0
 11
-580.822164282575
 21
41.8238805532455
 31
0.0
  0
LINE
  5
   3C3
  8
0
  6
CONTINUOUS
 62
     1
 10
-579.856242902716
 20
43.7238807678222
 30
0.0
 11
-580.822164282575
 21
43.7238807678222
 31
0.0
  0
LINE
  5
   3C4
  8
0
  6
CONTINUOUS
 62
     1
 10
-582.322164282575
 20
43.7238807678222
 30
0.0
 11
-584.322164282575
 21
43.7238807678222
 31
0.0
  0
INSERT
  5
   3C5
  8
255
  6
CONTINUOUS
 62
     7
  2
MOSTRINA
 10
-612.741275143461
 20
-54.8914260864277
 30
0.0
 41
0.5
 42
0.5
 50
3.50835464724173E-15
 43
0.5
  0
LINE
  5
   3C6
  8
0
  6
CONTINUOUS
 62
     3
 10
-529.697155700952
 20
44.9738807678222
 30
0.0
 11
-579.424263934634
 21
44.9738807678222
 31
0.0
  0
LINE
  5
   3C7
  8
0
  6
CONTINUOUS
 62
     3
 10
-529.072128762113
 20
40.3488845825176
 30
0.0
 11
-529.072128762113
 21
44.3488807678295
 31
0.0
  0
LINE
  5
   3C8
  8
0
  6
CONTINUOUS
 62
     3
 10
-529.255212648758
 20
44.7908243822658
 30
0.0
 11
-529.69715295922
 21
44.9738840779303
 31
0.0
  0
LINE
  5
   3C9
  8
0
  6
CONTINUOUS
 62
     3
 10
-529.072154467081
 20
44.3488865483073
 30
0.0
 11
-529.255214162746
 21
44.7908268587696
 31
0.0
  0
LINE
  5
   3CA
  8
0
  6
CONTINUOUS
 62
     3
 10
-531.147152649194
 20
40.3488845825176
 30
0.0
 11
-531.147152649194
 21
44.8185539245605
 31
0.0
  0
LINE
  5
   3CB
  8
0
  6
CONTINUOUS
 62
     3
 10
-532.947155700952
 20
40.3488845825176
 30
0.0
 11
-532.947155700952
 21
44.8185539245605
 31
0.0
  0
LINE
  5
   3CC
  8
0
  6
CONTINUOUS
 62
     3
 10
-534.747154938012
 20
40.3488845825176
 30
0.0
 11
-534.747154938012
 21
44.8185539245605
 31
0.0
  0
LINE
  5
   3CD
  8
0
  6
CONTINUOUS
 62
     3
 10
-536.547154175073
 20
40.3488845825176
 30
0.0
 11
-536.547154175073
 21
44.8185539245605
 31
0.0
  0
LINE
  5
   3CE
  8
0
  6
CONTINUOUS
 62
     3
 10
-538.347153412133
 20
40.3488845825176
 30
0.0
 11
-538.347153412133
 21
44.8185539245605
 31
0.0
  0
LINE
  5
   3CF
  8
0
  6
CONTINUOUS
 62
     3
 10
-540.147152649194
 20
40.3488845825176
 30
0.0
 11
-540.147152649194
 21
44.8185539245605
 31
0.0
  0
LINE
  5
   3D0
  8
0
  6
CONTINUOUS
 62
     3
 10
-541.947155700952
 20
40.3488845825176
 30
0.0
 11
-541.947155700952
 21
44.8185539245605
 31
0.0
  0
LINE
  5
   3D1
  8
0
  6
CONTINUOUS
 62
     3
 10
-543.747154938012
 20
40.3488845825176
 30
0.0
 11
-543.747154938012
 21
44.8185539245605
 31
0.0
  0
LINE
  5
   3D2
  8
0
  6
CONTINUOUS
 62
     3
 10
-545.547154175073
 20
40.3488845825176
 30
0.0
 11
-545.547154175073
 21
44.8185539245605
 31
0.0
  0
LINE
  5
   3D3
  8
0
  6
CONTINUOUS
 62
     3
 10
-547.347153412133
 20
40.3488845825176
 30
0.0
 11
-547.347153412133
 21
44.8185539245605
 31
0.0
  0
LINE
  5
   3D4
  8
0
  6
CONTINUOUS
 62
     3
 10
-549.147152649194
 20
40.3488845825176
 30
0.0
 11
-549.147152649194
 21
44.8185539245605
 31
0.0
  0
LINE
  5
   3D5
  8
0
  6
CONTINUOUS
 62
     3
 10
-550.947153793603
 20
40.3488845825176
 30
0.0
 11
-550.947153793603
 21
44.8185539245605
 31
0.0
  0
LINE
  5
   3D6
  8
0
  6
CONTINUOUS
 62
     3
 10
-552.747153030663
 20
40.3488845825176
 30
0.0
 11
-552.747153030663
 21
44.8185539245605
 31
0.0
  0
LINE
  5
   3D7
  8
0
  6
CONTINUOUS
 62
     3
 10
-554.547154175073
 20
40.3488845825176
 30
0.0
 11
-554.547154175073
 21
44.8185539245605
 31
0.0
  0
LINE
  5
   3D8
  8
0
  6
CONTINUOUS
 62
     3
 10
-556.347153412133
 20
40.3488845825176
 30
0.0
 11
-556.347153412133
 21
44.8185539245605
 31
0.0
  0
LINE
  5
   3D9
  8
0
  6
CONTINUOUS
 62
     3
 10
-558.147154556542
 20
40.3488845825176
 30
0.0
 11
-558.147154556542
 21
44.8185539245605
 31
0.0
  0
LINE
  5
   3DA
  8
0
  6
CONTINUOUS
 62
     3
 10
-559.947153793603
 20
40.3488845825176
 30
0.0
 11
-559.947153793603
 21
44.8185539245605
 31
0.0
  0
LINE
  5
   3DB
  8
0
  6
CONTINUOUS
 62
     3
 10
-570.847153412133
 20
40.3488845825176
 30
0.0
 11
-570.847153412133
 21
44.8185539245605
 31
0.0
  0
LINE
  5
   3DC
  8
0
  6
CONTINUOUS
 62
     3
 10
-585.347153412133
 20
32.2238807678223
 30
0.0
 11
-585.347153412133
 21
34.8697035054205
 31
0.0
  0
LINE
  5
   3DD
  8
0
  6
CONTINUOUS
 62
     3
 10
-587.147153602868
 20
32.2238807678223
 30
0.0
 11
-587.147153602868
 21
33.6282370865851
 31
0.0
  0
LINE
  5
   3DE
  8
0
  6
CONTINUOUS
 62
     3
 10
-569.047154175073
 20
40.3488845825176
 30
0.0
 11
-569.047154175073
 21
44.8185539245605
 31
0.0
  0
LINE
  5
   3DF
  8
0
  6
CONTINUOUS
 62
     3
 10
-567.247153030663
 20
40.3488845825176
 30
0.0
 11
-567.247153030663
 21
44.8185539245605
 31
0.0
  0
LINE
  5
   3E0
  8
0
  6
CONTINUOUS
 62
     3
 10
-565.447153793603
 20
40.3488845825176
 30
0.0
 11
-565.447153793603
 21
44.8185539245605
 31
0.0
  0
LINE
  5
   3E1
  8
0
  6
CONTINUOUS
 62
     3
 10
-563.647153793603
 20
40.3488845825176
 30
0.0
 11
-563.647153793603
 21
44.8185539245605
 31
0.0
  0
LINE
  5
   3E2
  8
0
  6
CONTINUOUS
 62
     3
 10
-561.847153793603
 20
40.3488845825176
 30
0.0
 11
-561.847153793603
 21
44.8185539245605
 31
0.0
  0
LINE
  5
   3E3
  8
0
  6
CONTINUOUS
 62
     3
 10
-572.647153412133
 20
40.3488845825176
 30
0.0
 11
-572.647153412133
 21
44.8185539245605
 31
0.0
  0
LINE
  5
   3E4
  8
0
  6
CONTINUOUS
 62
     3
 10
-574.447153412133
 20
40.3488845825176
 30
0.0
 11
-574.447153412133
 21
44.8185539245605
 31
0.0
  0
LINE
  5
   3E5
  8
0
  6
CONTINUOUS
 62
     3
 10
-576.247153412133
 20
40.3488845825176
 30
0.0
 11
-576.247153412133
 21
44.8185539245605
 31
0.0
  0
LINE
  5
   3E6
  8
0
  6
CONTINUOUS
 62
     3
 10
-578.047153412133
 20
40.3488845825176
 30
0.0
 11
-578.047153412133
 21
44.8185539245605
 31
0.0
  0
LINE
  5
   3E7
  8
0
  6
CONTINUOUS
 62
     3
 10
-579.847153412133
 20
40.3488845825176
 30
0.0
 11
-579.847153412133
 21
41.9473450116512
 31
0.0
  0
POLYLINE
  5
   3E8
  8
0
  6
CONTINUOUS
 62
     3
 66
     1
 10
0.0
 20
0.0
 30
0.0
  0
VERTEX
  5
   3E9
  8
0
  6
CONTINUOUS
 10
-578.760540345815
 20
45.4011655981589
 30
0.0
 40
0.0
 41
0.0
  0
VERTEX
  5
   3EA
  8
0
  6
CONTINUOUS
 10
-578.808232890544
 20
45.3811100287443
 30
0.0
 40
0.0
 41
0.0
  0
VERTEX
  5
   3EB
  8
0
  6
CONTINUOUS
 10
-578.855645872314
 20
45.3598817715909
 30
0.0
 40
0.0
 41
0.0
  0
VERTEX
  5
   3EC
  8
0
  6
CONTINUOUS
 10
-578.902774684622
 20
45.3374802228507
 30
0.0
 40
0.0
 41
0.0
  0
VERTEX
  5
   3ED
  8
0
  6
CONTINUOUS
 10
-578.949607350559
 20
45.3139038125193
 30
0.0
 40
0.0
 41
0.0
  0
VERTEX
  5
   3EE
  8
0
  6
CONTINUOUS
 10
-578.99612083761
 20
45.2891495213575
 30
0.0
 40
0.0
 41
0.0
  0
VERTEX
  5
   3EF
  8
0
  6
CONTINUOUS
 10
-579.042277372451
 20
45.2632123978129
 30
0.0
 40
0.0
 41
0.0
  0
VERTEX
  5
   3F0
  8
0
  6
CONTINUOUS
 10
-579.088020755745
 20
45.2360850749415
 30
0.0
 40
0.0
 41
0.0
  0
VERTEX
  5
   3F1
  8
0
  6
CONTINUOUS
 10
-579.133272676939
 20
45.2077572873299
 30
0.0
 40
0.0
 41
0.0
  0
VERTEX
  5
   3F2
  8
0
  6
CONTINUOUS
 10
-579.177929029064
 20
45.1782153880165
 30
0.0
 40
0.0
 41
0.0
  0
VERTEX
  5
   3F3
  8
0
  6
CONTINUOUS
 10
-579.221856223534
 20
45.1474418654133
 30
0.0
 40
0.0
 41
0.0
  0
VERTEX
  5
   3F4
  8
0
  6
CONTINUOUS
 10
-579.259351427306
 20
45.1196498199727
 30
0.0
 40
0.0
 41
0.0
  0
VERTEX
  5
   3F5
  8
0
  6
CONTINUOUS
 10
-579.296039323383
 20
45.0908922121224
 30
0.0
 40
0.0
 41
0.0
  0
VERTEX
  5
   3F6
  8
0
  6
CONTINUOUS
 10
-579.331777687529
 20
45.0611511707229
 30
0.0
 40
0.0
 41
0.0
  0
VERTEX
  5
   3F7
  8
0
  6
CONTINUOUS
 10
-579.366420439956
 20
45.0304095551637
 30
0.0
 40
0.0
 41
0.0
  0
VERTEX
  5
   3F8
  8
0
  6
CONTINUOUS
 10
-579.399826274285
 20
44.998652704467
 30
0.0
 40
0.0
 41
0.0
  0
VERTEX
  5
   3F9
  8
0
  6
CONTINUOUS
 10
-579.431867286497
 20
44.965870186391
 30
0.0
 40
0.0
 41
0.0
  0
VERTEX
  5
   3FA
  8
0
  6
CONTINUOUS
 10
-579.46243760389
 20
44.9320575465331
 30
0.0
 40
0.0
 41
0.0
  0
VERTEX
  5
   3FB
  8
0
  6
CONTINUOUS
 10
-579.491462014034
 20
44.8972180574341
 30
0.0
 40
0.0
 41
0.0
  0
VERTEX
  5
   3FC
  8
0
  6
CONTINUOUS
 10
-579.518904593725
 20
44.8613644676806
 30
0.0
 40
0.0
 41
0.0
  0
VERTEX
  5
   3FD
  8
0
  6
CONTINUOUS
 10
-579.544777337938
 20
44.8245207510095
 30
0.0
 40
0.0
 41
0.0
  0
VERTEX
  5
   3FE
  8
0
  6
CONTINUOUS
 10
-579.569445312658
 20
44.7862437228051
 30
0.0
 40
0.0
 41
0.0
  0
VERTEX
  5
   3FF
  8
0
  6
CONTINUOUS
 10
-579.592706711111
 20
44.7470420593406
 30
0.0
 40
0.0
 41
0.0
  0
VERTEX
  5
   400
  8
0
  6
CONTINUOUS
 10
-579.614744476038
 20
44.7069810122048
 30
0.0
 40
0.0
 41
0.0
  0
VERTEX
  5
   401
  8
0
  6
CONTINUOUS
 10
-579.635773953059
 20
44.6661356972869
 30
0.0
 40
0.0
 41
0.0
  0
VERTEX
  5
   402
  8
0
  6
CONTINUOUS
 10
-579.675723121134
 20
44.5824252130941
 30
0.0
 40
0.0
 41
0.0
  0
VERTEX
  5
   403
  8
0
  6
CONTINUOUS
 10
-579.752369482911
 20
44.4093364610623
 30
0.0
 40
0.0
 41
0.0
  0
VERTEX
  5
   404
  8
0
  6
CONTINUOUS
 10
-579.793328717535
 20
44.313080753622
 30
0.0
 40
0.0
 41
0.0
  0
VERTEX
  5
   405
  8
0
  6
CONTINUOUS
 10
-579.812931851053
 20
44.2647220467969
 30
0.0
 40
0.0
 41
0.0
  0
VERTEX
  5
   406
  8
0
  6
CONTINUOUS
 10
-579.831397889726
 20
44.2162693092904
 30
0.0
 40
0.0
 41
0.0
  0
VERTEX
  5
   407
  8
0
  6
CONTINUOUS
 10
-579.848231409273
 20
44.1677540792348
 30
0.0
 40
0.0
 41
0.0
  0
VERTEX
  5
   408
  8
0
  6
CONTINUOUS
 10
-579.862912768222
 20
44.1192002785236
 30
0.0
 40
0.0
 41
0.0
  0
VERTEX
  5
   409
  8
0
  6
CONTINUOUS
 10
-579.874931823611
 20
44.0706267762189
 30
0.0
 40
0.0
 41
0.0
  0
VERTEX
  5
   40A
  8
0
  6
CONTINUOUS
 10
-579.883821646691
 20
44.0220499519594
 30
0.0
 40
0.0
 41
0.0
  0
VERTEX
  5
   40B
  8
0
  6
CONTINUOUS
 10
-579.889192238633
 20
43.9734862593675
 30
0.0
 40
0.0
 41
0.0
  0
VERTEX
  5
   40C
  8
0
  6
CONTINUOUS
 10
-579.890764246227
 20
43.9249547894569
 30
0.0
 40
0.0
 41
0.0
  0
VERTEX
  5
   40D
  8
0
  6
CONTINUOUS
 10
-579.890058356475
 20
43.900328146677
 30
0.0
 40
0.0
 41
0.0
  0
VERTEX
  5
   40E
  8
0
  6
CONTINUOUS
 10
-579.888333711177
 20
43.8757197934642
 30
0.0
 40
0.0
 41
0.0
  0
VERTEX
  5
   40F
  8
0
  6
CONTINUOUS
 10
-579.881876449423
 20
43.826575253988
 30
0.0
 40
0.0
 41
0.0
  0
VERTEX
  5
   410
  8
0
  6
CONTINUOUS
 10
-579.871584740498
 20
43.7775581773593
 30
0.0
 40
0.0
 41
0.0
  0
VERTEX
  5
   411
  8
0
  6
CONTINUOUS
 10
-579.857784356166
 20
43.7287070524548
 30
0.0
 40
0.0
 41
0.0
  0
VERTEX
  5
   412
  8
0
  6
CONTINUOUS
 10
-579.840906546855
 20
43.6800584604218
 30
0.0
 40
0.0
 41
0.0
  0
VERTEX
  5
   413
  8
0
  6
CONTINUOUS
 10
-579.821460028107
 20
43.6316436844038
 30
0.0
 40
0.0
 41
0.0
  0
VERTEX
  5
   414
  8
0
  6
CONTINUOUS
 10
-579.800002967012
 20
43.5834853192662
 30
0.0
 40
0.0
 41
0.0
  0
VERTEX
  5
   415
  8
0
  6
CONTINUOUS
 10
-579.777114968648
 20
43.5355938813218
 30
0.0
 40
0.0
 41
0.0
  0
VERTEX
  5
   416
  8
0
  6
CONTINUOUS
 10
-579.673161140121
 20
43.3279804761296
 30
0.0
 40
0.0
 41
0.0
  0
VERTEX
  5
   417
  8
0
  6
CONTINUOUS
 10
-579.646908015057
 20
43.27175327274
 30
0.0
 40
0.0
 41
0.0
  0
VERTEX
  5
   418
  8
0
  6
CONTINUOUS
 10
-579.622399145326
 20
43.2153392593111
 30
0.0
 40
0.0
 41
0.0
  0
VERTEX
  5
   419
  8
0
  6
CONTINUOUS
 10
-579.599889933264
 20
43.158551701937
 30
0.0
 40
0.0
 41
0.0
  0
VERTEX
  5
   41A
  8
0
  6
CONTINUOUS
 10
-579.579550653075
 20
43.1012124610798
 30
0.0
 40
0.0
 41
0.0
  0
VERTEX
  5
   41B
  8
0
  6
CONTINUOUS
 10
-579.561491320355
 20
43.0431671986366
 30
0.0
 40
0.0
 41
0.0
  0
VERTEX
  5
   41C
  8
0
  6
CONTINUOUS
 10
-579.545786561625
 20
42.9843005850071
 30
0.0
 40
0.0
 41
0.0
  0
VERTEX
  5
   41D
  8
0
  6
CONTINUOUS
 10
-579.532500483867
 20
42.9245515061604
 30
0.0
 40
0.0
 41
0.0
  0
VERTEX
  5
   41E
  8
0
  6
CONTINUOUS
 10
-579.521711544052
 20
42.8639282707024
 30
0.0
 40
0.0
 41
0.0
  0
VERTEX
  5
   41F
  8
0
  6
CONTINUOUS
 10
-579.51356968877
 20
42.8028188864877
 30
0.0
 40
0.0
 41
0.0
  0
VERTEX
  5
   420
  8
0
  6
CONTINUOUS
 10
-579.508185967569
 20
42.7411166572571
 30
0.0
 40
0.0
 41
0.0
  0
VERTEX
  5
   421
  8
0
  6
CONTINUOUS
 10
-579.505773339703
 20
42.6790803432631
 30
0.0
 40
0.0
 41
0.0
  0
VERTEX
  5
   422
  8
0
  6
CONTINUOUS
 10
-579.506571153077
 20
42.6170262953175
 30
0.0
 40
0.0
 41
0.0
  0
VERTEX
  5
   423
  8
0
  6
CONTINUOUS
 10
-579.510826902872
 20
42.5553082801049
 30
0.0
 40
0.0
 41
0.0
  0
VERTEX
  5
   424
  8
0
  6
CONTINUOUS
 10
-579.51877799017
 20
42.4942973054968
 30
0.0
 40
0.0
 41
0.0
  0
VERTEX
  5
   425
  8
0
  6
CONTINUOUS
 10
-579.524206224029
 20
42.4641726479023
 30
0.0
 40
0.0
 41
0.0
  0
VERTEX
  5
   426
  8
0
  6
CONTINUOUS
 10
-579.530633480584
 20
42.4343614458658
 30
0.0
 40
0.0
 41
0.0
  0
VERTEX
  5
   427
  8
0
  6
CONTINUOUS
 10
-579.538078472894
 20
42.4049059404153
 30
0.0
 40
0.0
 41
0.0
  0
VERTEX
  5
   428
  8
0
  6
CONTINUOUS
 10
-579.546555862879
 20
42.3758456673993
 30
0.0
 40
0.0
 41
0.0
  0
VERTEX
  5
   429
  8
0
  6
CONTINUOUS
 10
-579.556075691278
 20
42.3472168270278
 30
0.0
 40
0.0
 41
0.0
  0
VERTEX
  5
   42A
  8
0
  6
CONTINUOUS
 10
-579.566642807603
 20
42.3190516534135
 30
0.0
 40
0.0
 41
0.0
  0
VERTEX
  5
   42B
  8
0
  6
CONTINUOUS
 10
-579.578256300102
 20
42.2913777841129
 30
0.0
 40
0.0
 41
0.0
  0
VERTEX
  5
   42C
  8
0
  6
CONTINUOUS
 10
-579.59090892571
 20
42.2642176296674
 30
0.0
 40
0.0
 41
0.0
  0
VERTEX
  5
   42D
  8
0
  6
CONTINUOUS
 10
-579.606026083204
 20
42.2349246283649
 30
0.0
 40
0.0
 41
0.0
  0
VERTEX
  5
   42E
  8
0
  6
CONTINUOUS
 10
-579.622356951664
 20
42.2062878193463
 30
0.0
 40
0.0
 41
0.0
  0
VERTEX
  5
   42F
  8
0
  6
CONTINUOUS
 10
-579.639862658548
 20
42.1783117591067
 30
0.0
 40
0.0
 41
0.0
  0
VERTEX
  5
   430
  8
0
  6
CONTINUOUS
 10
-579.65849540339
 20
42.1509928806193
 30
0.0
 40
0.0
 41
0.0
  0
VERTEX
  5
   431
  8
0
  6
CONTINUOUS
 10
-579.678199485802
 20
42.1243202006284
 30
0.0
 40
0.0
 41
0.0
  0
VERTEX
  5
   432
  8
0
  6
CONTINUOUS
 10
-579.69891233347
 20
42.0982760269439
 30
0.0
 40
0.0
 41
0.0
  0
VERTEX
  5
   433
  8
0
  6
CONTINUOUS
 10
-579.720565530165
 20
42.072836665734
 30
0.0
 40
0.0
 41
0.0
  0
VERTEX
  5
   434
  8
0
  6
CONTINUOUS
 10
-579.743085843734
 20
42.0479731288196
 30
0.0
 40
0.0
 41
0.0
  0
VERTEX
  5
   435
  8
0
  6
CONTINUOUS
 10
-579.790416981319
 20
41.9998353471852
 30
0.0
 40
0.0
 41
0.0
  0
VERTEX
  5
   436
  8
0
  6
CONTINUOUS
 10
-579.840262634723
 20
41.953551766816
 30
0.0
 40
0.0
 41
0.0
  0
VERTEX
  5
   437
  8
0
  6
CONTINUOUS
 10
-579.891968429865
 20
41.9087720297222
 30
0.0
 40
0.0
 41
0.0
  0
VERTEX
  5
   438
  8
0
  6
CONTINUOUS
 10
-579.944901626144
 20
41.865128968546
 30
0.0
 40
0.0
 41
0.0
  0
VERTEX
  5
   439
  8
0
  6
CONTINUOUS
 10
-580.1377840362
 20
41.7121019917593
 30
0.0
 40
0.0
 41
0.0
  0
VERTEX
  5
   43A
  8
0
  6
CONTINUOUS
 10
-580.222034977658
 20
41.6439864012694
 30
0.0
 40
0.0
 41
0.0
  0
VERTEX
  5
   43B
  8
0
  6
CONTINUOUS
 10
-580.304861506397
 20
41.5750324246072
 30
0.0
 40
0.0
 41
0.0
  0
VERTEX
  5
   43C
  8
0
  6
CONTINUOUS
 10
-580.386536068468
 20
41.5050214295457
 30
0.0
 40
0.0
 41
0.0
  0
VERTEX
  5
   43D
  8
0
  6
CONTINUOUS
 10
-580.467409093376
 20
41.4338490497723
 30
0.0
 40
0.0
 41
0.0
  0
VERTEX
  5
   43E
  8
0
  6
CONTINUOUS
 10
-580.559357188363
 20
41.3506029747192
 30
0.0
 40
0.0
 41
0.0
  0
VERTEX
  5
   43F
  8
0
  6
CONTINUOUS
 10
-580.649930621285
 20
41.2653805151295
 30
0.0
 40
0.0
 41
0.0
  0
VERTEX
  5
   440
  8
0
  6
CONTINUOUS
 10
-580.73825295933
 20
41.1778548849827
 30
0.0
 40
0.0
 41
0.0
  0
VERTEX
  5
   441
  8
0
  6
CONTINUOUS
 10
-580.781309173767
 20
41.1331654304868
 30
0.0
 40
0.0
 41
0.0
  0
VERTEX
  5
   442
  8
0
  6
CONTINUOUS
 10
-580.82354772457
 20
41.0878622653248
 30
0.0
 40
0.0
 41
0.0
  0
VERTEX
  5
   443
  8
0
  6
CONTINUOUS
 10
-580.90565917721
 20
40.9955989659392
 30
0.0
 40
0.0
 41
0.0
  0
VERTEX
  5
   444
  8
0
  6
CONTINUOUS
 10
-581.040229516581
 20
40.8371871910185
 30
0.0
 40
0.0
 41
0.0
  0
VERTEX
  5
   445
  8
0
  6
CONTINUOUS
 10
-581.108512538014
 20
40.7582912630598
 30
0.0
 40
0.0
 41
0.0
  0
VERTEX
  5
   446
  8
0
  6
CONTINUOUS
 10
-581.178994580176
 20
40.6804101969716
 30
0.0
 40
0.0
 41
0.0
  0
VERTEX
  5
   447
  8
0
  6
CONTINUOUS
 10
-581.298254886653
 20
40.5546691248013
 30
0.0
 40
0.0
 41
0.0
  0
VERTEX
  5
   448
  8
0
  6
CONTINUOUS
 10
-581.344226044701
 20
40.5053906580096
 30
0.0
 40
0.0
 41
0.0
  0
VERTEX
  5
   449
  8
0
  6
CONTINUOUS
 10
-581.388475474463
 20
40.4550525131828
 30
0.0
 40
0.0
 41
0.0
  0
VERTEX
  5
   44A
  8
0
  6
CONTINUOUS
 10
-581.429851887537
 20
40.4030336668285
 30
0.0
 40
0.0
 41
0.0
  0
VERTEX
  5
   44B
  8
0
  6
CONTINUOUS
 10
-581.449123426338
 20
40.3762138684176
 30
0.0
 40
0.0
 41
0.0
  0
VERTEX
  5
   44C
  8
0
  6
CONTINUOUS
 10
-581.467294728162
 20
40.3487729753974
 30
0.0
 40
0.0
 41
0.0
  0
SEQEND
  5
   44D
  8
0
  6
CONTINUOUS
 62
     3
  0
POLYLINE
  5
   44E
  8
0
  6
CONTINUOUS
 62
     3
 66
     1
 10
0.0
 20
0.0
 30
0.0
  0
VERTEX
  5
   44F
  8
0
  6
CONTINUOUS
 10
-584.572145141696
 20
38.1140301388219
 30
0.0
 40
0.0
 41
0.0
  0
VERTEX
  5
   450
  8
0
  6
CONTINUOUS
 10
-584.590077941355
 20
38.0822930088168
 30
0.0
 40
0.0
 41
0.0
  0
VERTEX
  5
   451
  8
0
  6
CONTINUOUS
 10
-584.605963270128
 20
38.0516127551639
 30
0.0
 40
0.0
 41
0.0
  0
VERTEX
  5
   452
  8
0
  6
CONTINUOUS
 10
-584.620817893543
 20
38.020355333142
 30
0.0
 40
0.0
 41
0.0
  0
VERTEX
  5
   453
  8
0
  6
CONTINUOUS
 10
-584.634701104764
 20
37.9885498810284
 30
0.0
 40
0.0
 41
0.0
  0
VERTEX
  5
   454
  8
0
  6
CONTINUOUS
 10
-584.65986460287
 20
37.9234442843409
 30
0.0
 40
0.0
 41
0.0
  0
VERTEX
  5
   455
  8
0
  6
CONTINUOUS
 10
-584.682190098566
 20
37.8566463868063
 30
0.0
 40
0.0
 41
0.0
  0
VERTEX
  5
   456
  8
0
  6
CONTINUOUS
 10
-584.702540550099
 20
37.7885667105153
 30
0.0
 40
0.0
 41
0.0
  0
VERTEX
  5
   457
  8
0
  6
CONTINUOUS
 10
-584.76061124596
 20
37.5809686957309
 30
0.0
 40
0.0
 41
0.0
  0
VERTEX
  5
   458
  8
0
  6
CONTINUOUS
 10
-584.781458022265
 20
37.5119440662609
 30
0.0
 40
0.0
 41
0.0
  0
VERTEX
  5
   459
  8
0
  6
CONTINUOUS
 10
-584.803778343938
 20
37.4434667074999
 30
0.0
 40
0.0
 41
0.0
  0
VERTEX
  5
   45A
  8
0
  6
CONTINUOUS
 10
-584.838377141425
 20
37.345914630932
 30
0.0
 40
0.0
 41
0.0
  0
VERTEX
  5
   45B
  8
0
  6
CONTINUOUS
 10
-584.909490955728
 20
37.1533757844808
 30
0.0
 40
0.0
 41
0.0
  0
VERTEX
  5
   45C
  8
0
  6
CONTINUOUS
 10
-584.925707367318
 20
37.1052252515834
 30
0.0
 40
0.0
 41
0.0
  0
VERTEX
  5
   45D
  8
0
  6
CONTINUOUS
 10
-584.940590731749
 20
37.0568525026971
 30
0.0
 40
0.0
 41
0.0
  0
VERTEX
  5
   45E
  8
0
  6
CONTINUOUS
 10
-584.953843847863
 20
37.0081634547691
 30
0.0
 40
0.0
 41
0.0
  0
VERTEX
  5
   45F
  8
0
  6
CONTINUOUS
 10
-584.96523890114
 20
36.9590850358946
 30
0.0
 40
0.0
 41
0.0
  0
VERTEX
  5
   460
  8
0
  6
CONTINUOUS
 10
-584.974990073602
 20
36.907487031512
 30
0.0
 40
0.0
 41
0.0
  0
VERTEX
  5
   461
  8
0
  6
CONTINUOUS
 10
-584.982546365926
 20
36.8554082392487
 30
0.0
 40
0.0
 41
0.0
  0
VERTEX
  5
   462
  8
0
  6
CONTINUOUS
 10
-584.98799105439
 20
36.8028742222168
 30
0.0
 40
0.0
 41
0.0
  0
VERTEX
  5
   463
  8
0
  6
CONTINUOUS
 10
-584.991501099526
 20
36.7499390702068
 30
0.0
 40
0.0
 41
0.0
  0
VERTEX
  5
   464
  8
0
  6
CONTINUOUS
 10
-584.993325943053
 20
36.6966776380338
 30
0.0
 40
0.0
 41
0.0
  0
VERTEX
  5
   465
  8
0
  6
CONTINUOUS
 10
-584.993766304829
 20
36.6431777838832
 30
0.0
 40
0.0
 41
0.0
  0
VERTEX
  5
   466
  8
0
  6
CONTINUOUS
 10
-584.991825634878
 20
36.5358326893139
 30
0.0
 40
0.0
 41
0.0
  0
VERTEX
  5
   467
  8
0
  6
CONTINUOUS
 10
-584.985731951924
 20
36.3406090026662
 30
0.0
 40
0.0
 41
0.0
  0
VERTEX
  5
   468
  8
0
  6
CONTINUOUS
 10
-584.984213962855
 20
36.2529679168601
 30
0.0
 40
0.0
 41
0.0
  0
VERTEX
  5
   469
  8
0
  6
CONTINUOUS
 10
-584.984061757735
 20
36.1654981080136
 30
0.0
 40
0.0
 41
0.0
  0
VERTEX
  5
   46A
  8
0
  6
CONTINUOUS
 10
-584.985391225032
 20
36.0779996425238
 30
0.0
 40
0.0
 41
0.0
  0
VERTEX
  5
   46B
  8
0
  6
CONTINUOUS
 10
-584.988304695026
 20
35.9903216926839
 30
0.0
 40
0.0
 41
0.0
  0
VERTEX
  5
   46C
  8
0
  6
CONTINUOUS
 10
-584.994838205656
 20
35.8773855064693
 30
0.0
 40
0.0
 41
0.0
  0
VERTEX
  5
   46D
  8
0
  6
CONTINUOUS
 10
-584.999618681306
 20
35.8209411035295
 30
0.0
 40
0.0
 41
0.0
  0
VERTEX
  5
   46E
  8
0
  6
CONTINUOUS
 10
-585.005674980156
 20
35.7646416302995
 30
0.0
 40
0.0
 41
0.0
  0
VERTEX
  5
   46F
  8
0
  6
CONTINUOUS
 10
-585.013230422969
 20
35.70860717211
 30
0.0
 40
0.0
 41
0.0
  0
VERTEX
  5
   470
  8
0
  6
CONTINUOUS
 10
-585.022509420958
 20
35.6529663592891
 30
0.0
 40
0.0
 41
0.0
  0
VERTEX
  5
   471
  8
0
  6
CONTINUOUS
 10
-585.033722842142
 20
35.5978479992382
 30
0.0
 40
0.0
 41
0.0
  0
VERTEX
  5
   472
  8
0
  6
CONTINUOUS
 10
-585.0470533777
 20
35.5433727085083
 30
0.0
 40
0.0
 41
0.0
  0
VERTEX
  5
   473
  8
0
  6
CONTINUOUS
 10
-585.062640908323
 20
35.4896445448762
 30
0.0
 40
0.0
 41
0.0
  0
VERTEX
  5
   474
  8
0
  6
CONTINUOUS
 10
-585.08056787057
 20
35.4367426394208
 30
0.0
 40
0.0
 41
0.0
  0
VERTEX
  5
   475
  8
0
  6
CONTINUOUS
 10
-585.097560863893
 20
35.3926928636967
 30
0.0
 40
0.0
 41
0.0
  0
VERTEX
  5
   476
  8
0
  6
CONTINUOUS
 10
-585.116197189565
 20
35.349273982464
 30
0.0
 40
0.0
 41
0.0
  0
VERTEX
  5
   477
  8
0
  6
CONTINUOUS
 10
-585.136402050811
 20
35.3064753958011
 30
0.0
 40
0.0
 41
0.0
  0
VERTEX
  5
   478
  8
0
  6
CONTINUOUS
 10
-585.158071394116
 20
35.2642731474668
 30
0.0
 40
0.0
 41
0.0
  0
VERTEX
  5
   479
  8
0
  6
CONTINUOUS
 10
-585.1810794393
 20
35.2226338932846
 30
0.0
 40
0.0
 41
0.0
  0
VERTEX
  5
   47A
  8
0
  6
CONTINUOUS
 10
-585.205286209588
 20
35.1815188695277
 30
0.0
 40
0.0
 41
0.0
  0
VERTEX
  5
   47B
  8
0
  6
CONTINUOUS
 10
-585.230545061681
 20
35.1408878613029
 30
0.0
 40
0.0
 41
0.0
  0
VERTEX
  5
   47C
  8
0
  6
CONTINUOUS
 10
-585.256710215827
 20
35.1007031709356
 30
0.0
 40
0.0
 41
0.0
  0
VERTEX
  5
   47D
  8
0
  6
CONTINUOUS
 10
-585.31122580943
 20
35.0215583494734
 30
0.0
 40
0.0
 41
0.0
  0
VERTEX
  5
   47E
  8
0
  6
CONTINUOUS
 10
-585.367900873957
 20
34.9440689178721
 30
0.0
 40
0.0
 41
0.0
  0
VERTEX
  5
   47F
  8
0
  6
CONTINUOUS
 10
-585.42632881085
 20
34.8682605740177
 30
0.0
 40
0.0
 41
0.0
  0
VERTEX
  5
   480
  8
0
  6
CONTINUOUS
 10
-585.486354111444
 20
34.794352279634
 30
0.0
 40
0.0
 41
0.0
  0
VERTEX
  5
   481
  8
0
  6
CONTINUOUS
 10
-585.54795819476
 20
34.7224794358802
 30
0.0
 40
0.0
 41
0.0
  0
VERTEX
  5
   482
  8
0
  6
CONTINUOUS
 10
-585.611081129947
 20
34.6525056472977
 30
0.0
 40
0.0
 41
0.0
  0
VERTEX
  5
   483
  8
0
  6
CONTINUOUS
 10
-585.791194774055
 20
34.4615640245401
 30
0.0
 40
0.0
 41
0.0
  0
VERTEX
  5
   484
  8
0
  6
CONTINUOUS
 10
-585.851232180788
 20
34.3962486582299
 30
0.0
 40
0.0
 41
0.0
  0
VERTEX
  5
   485
  8
0
  6
CONTINUOUS
 10
-585.966585940699
 20
34.2672249692644
 30
0.0
 40
0.0
 41
0.0
  0
VERTEX
  5
   486
  8
0
  6
CONTINUOUS
 10
-586.02325378635
 20
34.206226983831
 30
0.0
 40
0.0
 41
0.0
  0
VERTEX
  5
   487
  8
0
  6
CONTINUOUS
 10
-586.052331228637
 20
34.1769190756376
 30
0.0
 40
0.0
 41
0.0
  0
VERTEX
  5
   488
  8
0
  6
CONTINUOUS
 10
-586.082108401331
 20
34.1487867986286
 30
0.0
 40
0.0
 41
0.0
  0
VERTEX
  5
   489
  8
0
  6
CONTINUOUS
 10
-586.112729864325
 20
34.1220992101578
 30
0.0
 40
0.0
 41
0.0
  0
VERTEX
  5
   48A
  8
0
  6
CONTINUOUS
 10
-586.144322790721
 20
34.0970919356622
 30
0.0
 40
0.0
 41
0.0
  0
VERTEX
  5
   48B
  8
0
  6
CONTINUOUS
 10
-586.176988129966
 20
34.0739507245789
 30
0.0
 40
0.0
 41
0.0
  0
VERTEX
  5
   48C
  8
0
  6
CONTINUOUS
 10
-586.210791770982
 20
34.0527950062627
 30
0.0
 40
0.0
 41
0.0
  0
VERTEX
  5
   48D
  8
0
  6
CONTINUOUS
 10
-586.254645281654
 20
34.0292050421767
 30
0.0
 40
0.0
 41
0.0
  0
VERTEX
  5
   48E
  8
0
  6
CONTINUOUS
 10
-586.300242459756
 20
34.0086357263293
 30
0.0
 40
0.0
 41
0.0
  0
VERTEX
  5
   48F
  8
0
  6
CONTINUOUS
 10
-586.347413807944
 20
33.9907604225087
 30
0.0
 40
0.0
 41
0.0
  0
VERTEX
  5
   490
  8
0
  6
CONTINUOUS
 10
-586.395905137877
 20
33.9750955658071
 30
0.0
 40
0.0
 41
0.0
  0
VERTEX
  5
   491
  8
0
  6
CONTINUOUS
 10
-586.445399420693
 20
33.9610429693057
 30
0.0
 40
0.0
 41
0.0
  0
VERTEX
  5
   492
  8
0
  6
CONTINUOUS
 10
-586.596245950223
 20
33.9217459820124
 30
0.0
 40
0.0
 41
0.0
  0
VERTEX
  5
   493
  8
0
  6
CONTINUOUS
 10
-586.646089712536
 20
33.9073488508444
 30
0.0
 40
0.0
 41
0.0
  0
VERTEX
  5
   494
  8
0
  6
CONTINUOUS
 10
-586.695173442588
 20
33.8913344490609
 30
0.0
 40
0.0
 41
0.0
  0
VERTEX
  5
   495
  8
0
  6
CONTINUOUS
 10
-586.741167855723
 20
33.8741447198087
 30
0.0
 40
0.0
 41
0.0
  0
VERTEX
  5
   496
  8
0
  6
CONTINUOUS
 10
-586.786116872281
 20
33.8549064352661
 30
0.0
 40
0.0
 41
0.0
  0
VERTEX
  5
   497
  8
0
  6
CONTINUOUS
 10
-586.829952505538
 20
33.8335462265828
 30
0.0
 40
0.0
 41
0.0
  0
VERTEX
  5
   498
  8
0
  6
CONTINUOUS
 10
-586.872666067299
 20
33.8101046097307
 30
0.0
 40
0.0
 41
0.0
  0
VERTEX
  5
   499
  8
0
  6
CONTINUOUS
 10
-586.914300186626
 20
33.7847171243815
 30
0.0
 40
0.0
 41
0.0
  0
VERTEX
  5
   49A
  8
0
  6
CONTINUOUS
 10
-586.954940828577
 20
33.7575954727849
 30
0.0
 40
0.0
 41
0.0
  0
VERTEX
  5
   49B
  8
0
  6
CONTINUOUS
 10
-586.994709312934
 20
33.7290086586465
 30
0.0
 40
0.0
 41
0.0
  0
VERTEX
  5
   49C
  8
0
  6
CONTINUOUS
 10
-587.033754332936
 20
33.6992641260061
 30
0.0
 40
0.0
 41
0.0
  0
VERTEX
  5
   49D
  8
0
  6
CONTINUOUS
 10
-587.110357732535
 20
33.6376107163153
 30
0.0
 40
0.0
 41
0.0
  0
VERTEX
  5
   49E
  8
0
  6
CONTINUOUS
 10
-587.227813685816
 20
33.5414214578906
 30
0.0
 40
0.0
 41
0.0
  0
VERTEX
  5
   49F
  8
0
  6
CONTINUOUS
 10
-587.287380885214
 20
33.4948285814583
 30
0.0
 40
0.0
 41
0.0
  0
VERTEX
  5
   4A0
  8
0
  6
CONTINUOUS
 10
-587.348110692958
 20
33.4499506074667
 30
0.0
 40
0.0
 41
0.0
  0
VERTEX
  5
   4A1
  8
0
  6
CONTINUOUS
 10
-587.410213053053
 20
33.4069527774558
 30
0.0
 40
0.0
 41
0.0
  0
VERTEX
  5
   4A2
  8
0
  6
CONTINUOUS
 10
-587.458921641578
 20
33.3750479408415
 30
0.0
 40
0.0
 41
0.0
  0
VERTEX
  5
   4A3
  8
0
  6
CONTINUOUS
 10
-587.508273936848
 20
33.3439549005034
 30
0.0
 40
0.0
 41
0.0
  0
VERTEX
  5
   4A4
  8
0
  6
CONTINUOUS
 10
-587.607942569324
 20
33.2829301478337
 30
0.0
 40
0.0
 41
0.0
  0
VERTEX
  5
   4A5
  8
0
  6
CONTINUOUS
 10
-587.706902831749
 20
33.2209386130393
 30
0.0
 40
0.0
 41
0.0
  0
VERTEX
  5
   4A6
  8
0
  6
CONTINUOUS
 10
-587.755380160693
 20
33.1886677413216
 30
0.0
 40
0.0
 41
0.0
  0
VERTEX
  5
   4A7
  8
0
  6
CONTINUOUS
 10
-587.802883389342
 20
33.1551711471581
 30
0.0
 40
0.0
 41
0.0
  0
VERTEX
  5
   4A8
  8
0
  6
CONTINUOUS
 10
-587.849289330379
 20
33.1202956833413
 30
0.0
 40
0.0
 41
0.0
  0
VERTEX
  5
   4A9
  8
0
  6
CONTINUOUS
 10
-587.894594724658
 20
33.084031663052
 30
0.0
 40
0.0
 41
0.0
  0
VERTEX
  5
   4AA
  8
0
  6
CONTINUOUS
 10
-587.954241138084
 20
33.0332433724032
 30
0.0
 40
0.0
 41
0.0
  0
VERTEX
  5
   4AB
  8
0
  6
CONTINUOUS
 10
-588.071846818327
 20
32.9291381621931
 30
0.0
 40
0.0
 41
0.0
  0
VERTEX
  5
   4AC
  8
0
  6
CONTINUOUS
 10
-588.132044045274
 20
32.8784803224505
 30
0.0
 40
0.0
 41
0.0
  0
VERTEX
  5
   4AD
  8
0
  6
CONTINUOUS
 10
-588.194450045176
 20
32.8303079303063
 30
0.0
 40
0.0
 41
0.0
  0
VERTEX
  5
   4AE
  8
0
  6
CONTINUOUS
 10
-588.245167959212
 20
32.7946699604163
 30
0.0
 40
0.0
 41
0.0
  0
VERTEX
  5
   4AF
  8
0
  6
CONTINUOUS
 10
-588.297387299331
 20
32.760821298603
 30
0.0
 40
0.0
 41
0.0
  0
VERTEX
  5
   4B0
  8
0
  6
CONTINUOUS
 10
-588.350758561371
 20
32.7284111565451
 30
0.0
 40
0.0
 41
0.0
  0
VERTEX
  5
   4B1
  8
0
  6
CONTINUOUS
 10
-588.458678011014
 20
32.6655170303436
 30
0.0
 40
0.0
 41
0.0
  0
VERTEX
  5
   4B2
  8
0
  6
CONTINUOUS
 10
-588.511812641597
 20
32.6335365206976
 30
0.0
 40
0.0
 41
0.0
  0
VERTEX
  5
   4B3
  8
0
  6
CONTINUOUS
 10
-588.563382929967
 20
32.600129012608
 30
0.0
 40
0.0
 41
0.0
  0
VERTEX
  5
   4B4
  8
0
  6
CONTINUOUS
 10
-588.612657372985
 20
32.564531367309
 30
0.0
 40
0.0
 41
0.0
  0
VERTEX
  5
   4B5
  8
0
  6
CONTINUOUS
 10
-588.636228117441
 20
32.5457007766913
 30
0.0
 40
0.0
 41
0.0
  0
VERTEX
  5
   4B6
  8
0
  6
CONTINUOUS
 10
-588.658994342572
 20
32.5260892751538
 30
0.0
 40
0.0
 41
0.0
  0
VERTEX
  5
   4B7
  8
0
  6
CONTINUOUS
 10
-588.680898981002
 20
32.5056425402158
 30
0.0
 40
0.0
 41
0.0
  0
VERTEX
  5
   4B8
  8
0
  6
CONTINUOUS
 10
-588.701897510667
 20
32.4843210220169
 30
0.0
 40
0.0
 41
0.0
  0
VERTEX
  5
   4B9
  8
0
  6
CONTINUOUS
 10
-588.726181086022
 20
32.4571688693795
 30
0.0
 40
0.0
 41
0.0
  0
VERTEX
  5
   4BA
  8
0
  6
CONTINUOUS
 10
-588.749055162361
 20
32.4286833663243
 30
0.0
 40
0.0
 41
0.0
  0
VERTEX
  5
   4BB
  8
0
  6
CONTINUOUS
 10
-588.770525954962
 20
32.3988943982966
 30
0.0
 40
0.0
 41
0.0
  0
VERTEX
  5
   4BC
  8
0
  6
CONTINUOUS
 10
-588.790625846249
 20
32.3678621892186
 30
0.0
 40
0.0
 41
0.0
  0
VERTEX
  5
   4BD
  8
0
  6
CONTINUOUS
 10
-588.809408929917
 20
32.3356719199309
 30
0.0
 40
0.0
 41
0.0
  0
VERTEX
  5
   4BE
  8
0
  6
CONTINUOUS
 10
-588.826946555052
 20
32.302428346633
 30
0.0
 40
0.0
 41
0.0
  0
VERTEX
  5
   4BF
  8
0
  6
CONTINUOUS
 10
-588.843322870259
 20
32.2682504193251
 30
0.0
 40
0.0
 41
0.0
  0
VERTEX
  5
   4C0
  8
0
  6
CONTINUOUS
 10
-588.858630367786
 20
32.233265900249
 30
0.0
 40
0.0
 41
0.0
  0
VERTEX
  5
   4C1
  8
0
  6
CONTINUOUS
 10
-588.872965427649
 20
32.197605982329
 30
0.0
 40
0.0
 41
0.0
  0
VERTEX
  5
   4C2
  8
0
  6
CONTINUOUS
 10
-588.886423861755
 20
32.1613999076135
 30
0.0
 40
0.0
 41
0.0
  0
VERTEX
  5
   4C3
  8
0
  6
CONTINUOUS
 10
-588.909181809398
 20
32.0937949093981
 30
0.0
 40
0.0
 41
0.0
  0
VERTEX
  5
   4C4
  8
0
  6
CONTINUOUS
 10
-588.929766581701
 20
32.0254046254959
 30
0.0
 40
0.0
 41
0.0
  0
VERTEX
  5
   4C5
  8
0
  6
CONTINUOUS
 10
-588.94857112235
 20
31.9567560556697
 30
0.0
 40
0.0
 41
0.0
  0
VERTEX
  5
   4C6
  8
0
  6
CONTINUOUS
 10
-588.965901656425
 20
31.8882598962865
 30
0.0
 40
0.0
 41
0.0
  0
VERTEX
  5
   4C7
  8
0
  6
CONTINUOUS
 10
-588.996997051093
 20
31.7528733048838
 30
0.0
 40
0.0
 41
0.0
  0
VERTEX
  5
   4C8
  8
0
  6
CONTINUOUS
 10
-589.024180107593
 20
31.6207567954351
 30
0.0
 40
0.0
 41
0.0
  0
VERTEX
  5
   4C9
  8
0
  6
CONTINUOUS
 10
-589.047884418957
 20
31.4924918849202
 30
0.0
 40
0.0
 41
0.0
  0
SEQEND
  5
   4CA
  8
0
  6
CONTINUOUS
 62
     3
  0
LINE
  5
   4CB
  8
0
  6
CONTINUOUS
 62
     3
 10
-584.572146725492
 20
32.2238807678223
 30
0.0
 11
-588.862604149501
 21
32.2238807678223
 31
0.0
  0
LINE
  5
   4CC
  8
0
  6
CONTINUOUS
 62
     3
 10
-584.572146725492
 20
31.5988807678223
 30
0.0
 11
-599.072167017159
 21
31.5988807678223
 31
0.0
  0
LINE
  5
   4CD
  8
0
  6
DASHDOT
 62
     7
 10
-546.572153958068
 20
-37.2761205198588
 30
0.0
 11
-546.572153958068
 21
-29.7761411809093
 31
0.0
  0
LINE
  5
   4CE
  8
0
  6
DASHDOT
 62
     7
 10
-542.822164288593
 20
-33.5261308503841
 30
0.0
 11
-550.322143627543
 21
-33.5261308503841
 31
0.0
  0
LINE
  5
   4CF
  8
0
  6
CONTINUOUS
 62
     1
 10
-563.572164282575
 20
122.473880767822
 30
0.0
 11
-564.572164282575
 21
122.473880767822
 31
0.0
  0
INSERT
  5
   4D0
  8
0
  6
CONTINUOUS
 62
     7
  2
*UDIM369
 10
0.0
 20
0.0
 30
0.0
  0
LINE
  5
   4D1
  8
0
  6
CONTINUOUS
 62
     1
 10
-564.822164282575
 20
46.4738807678223
 30
0.0
 11
-564.572164282575
 21
122.473880767822
 31
0.0
  0
LINE
  5
   4D2
  8
0
  6
CONTINUOUS
 62
     1
 10
-563.322164282575
 20
46.4738807678222
 30
0.0
 11
-563.572164282575
 21
122.473880767822
 31
0.0
  0
LINE
  5
   4D3
  8
0
  6
DASHDOT
 62
     7
 10
-597.822285166894
 20
64.3488040504669
 30
0.0
 11
-597.822285166894
 21
69.5988039436192
 31
0.0
  0
LINE
  5
   4D4
  8
0
  6
DASHDOT
 62
     7
 10
-595.197285220318
 20
66.9738039970431
 30
0.0
 11
-600.44728511347
 21
66.9738039970431
 31
0.0
  0
LINE
  5
   4D5
  8
0
  6
DASHDOT
 62
     7
 10
-575.322285392466
 20
64.3488272467844
 30
0.0
 11
-575.322285392466
 21
69.5988265236685
 31
0.0
  0
LINE
  5
   4D6
  8
0
  6
DASHDOT
 62
     7
 10
-572.697285754024
 20
66.9738268852264
 30
0.0
 11
-577.947285030908
 21
66.9738268852264
 31
0.0
  0
LINE
  5
   4D7
  8
0
  6
DASHDOT
 62
     7
 10
-552.822285163133
 20
64.3488498991585
 30
0.0
 11
-552.822285163133
 21
69.598849647662
 31
0.0
  0
LINE
  5
   4D8
  8
0
  6
DASHDOT
 62
     7
 10
-550.197285288881
 20
66.9738497734103
 30
0.0
 11
-555.447285037385
 21
66.9738497734103
 31
0.0
  0
LINE
  5
   4D9
  8
0
  6
DASHDOT
 62
     7
 10
-530.322285163145
 20
64.3488728314061
 30
0.0
 11
-530.322285163145
 21
69.5988724917816
 31
0.0
  0
LINE
  5
   4DA
  8
0
  6
DASHDOT
 62
     7
 10
-527.697285332957
 20
66.9738726615939
 30
0.0
 11
-532.947284993332
 21
66.9738726615939
 31
0.0
  0
INSERT
  5
   4DB
  8
0
  6
CONTINUOUS
 62
     7
  2
*UDIM370
 10
0.0
 20
0.0
 30
0.0
  0
INSERT
  5
   4DC
  8
0
  6
CONTINUOUS
 62
     7
  2
*UDIM371
 10
0.0
 20
0.0
 30
0.0
  0
INSERT
  5
   4DD
  8
0
  6
CONTINUOUS
 62
     7
  2
*UDIM372
 10
0.0
 20
0.0
 30
0.0
  0
INSERT
  5
   4DE
  8
0
  6
CONTINUOUS
 62
     7
  2
*UDIM373
 10
0.0
 20
0.0
 30
0.0
  0
INSERT
  5
   4DF
  8
0
  6
CONTINUOUS
 62
     7
  2
*UDIM374
 10
0.0
 20
0.0
 30
0.0
  0
INSERT
  5
   4E0
  8
0
  6
CONTINUOUS
 62
     7
  2
*UDIM375
 10
0.0
 20
0.0
 30
0.0
  0
TEXT
  5
   4E1
  8
0
  6
CONTINUOUS
 62
     7
 10
-572.119324843943
 20
-64.3724396142834
 30
0.0
 40
3.00000002980232
  1
=          =
 50
359.999999948034
 41
0.916666604744064
 72
     2
 11
-539.669326718012
 21
-64.3724396435516
 31
0.0
  0
LINE
  5
   4E2
  8
0
  6
CONTINUOUS
 62
     7
 10
-590.322281348416
 20
63.2238116264395
 30
0.0
 11
-590.32229152095
 21
73.2238192558289
 31
0.0
  0
LINE
  5
   4E3
  8
0
  6
CONTINUOUS
 62
     7
 10
-585.322269293981
 20
53.2488220759576
 30
0.0
 11
-590.322281348416
 21
63.2238116264395
 31
0.0
  0
LINE
  5
   4E4
  8
0
  6
CONTINUOUS
 62
     7
 10
-585.32225960471
 20
43.7238807678223
 30
0.0
 11
-585.322269293981
 21
53.2488220759577
 31
0.0
  0
LINE
  5
   4E5
  8
0
  6
CONTINUOUS
 62
     7
 10
-595.32225865104
 20
43.7238807678223
 30
0.0
 11
-595.322268340299
 21
53.2488092111037
 31
0.0
  0
LINE
  5
   4E6
  8
0
  6
CONTINUOUS
 62
     7
 10
-595.322268340299
 20
53.2488092111036
 30
0.0
 11
-605.322281348409
 21
63.2237963676505
 31
0.0
  0
CIRCLE
  5
   4E7
  8
0
  6
CONTINUOUS
 62
     7
 10
-597.822285166894
 20
66.9738039970431
 30
0.0
 40
2.12499994657612
  0
LINE
  5
   4E8
  8
0
  6
CONTINUOUS
 62
     7
 10
-605.322281348408
 20
63.2237963676505
 30
0.0
 11
-605.322291520927
 21
73.2237887382508
 31
0.0
  0
LINE
  5
   4E9
  8
0
  6
CONTINUOUS
 62
     7
 10
-582.82228134842
 20
63.2238192558341
 30
0.0
 11
-582.822291520938
 21
73.2238116264344
 31
0.0
  0
LINE
  5
   4EA
  8
0
  6
CONTINUOUS
 62
     7
 10
-582.822291547703
 20
73.2238116264344
 30
0.0
 11
-567.822291548393
 21
73.2238268852234
 31
0.0
  0
CIRCLE
  5
   4EB
  8
0
  6
CONTINUOUS
 62
     7
 10
-575.322285392466
 20
66.9738268852264
 30
0.0
 40
2.12499963844207
  0
LINE
  5
   4EC
  8
0
  6
CONTINUOUS
 62
     7
 10
-577.822271201332
 20
53.2488286523505
 30
0.0
 11
-582.82228134842
 21
63.2238192558341
 31
0.0
  0
LINE
  5
   4ED
  8
0
  6
CONTINUOUS
 62
     7
 10
-577.82226278362
 20
44.9738807678223
 30
0.0
 11
-577.822271201332
 21
53.2488286523505
 31
0.0
  0
LINE
  5
   4EE
  8
0
  6
CONTINUOUS
 62
     7
 10
-567.822262783615
 20
44.9738807678222
 30
0.0
 11
-567.822291520946
 21
73.2238268852235
 31
0.0
  0
LINE
  5
   4EF
  8
0
  6
CONTINUOUS
 62
     7
 10
-560.322291548738
 20
73.223834514618
 30
0.0
 11
-545.322291549427
 21
73.223849773407
 31
0.0
  0
LINE
  5
   4F0
  8
0
  6
CONTINUOUS
 62
     7
 10
-545.322281348439
 20
63.2238574028067
 30
0.0
 11
-545.322291520958
 21
73.223849773407
 31
0.0
  0
LINE
  5
   4F1
  8
0
  6
CONTINUOUS
 62
     7
 10
-550.322271201347
 20
53.2488566267971
 30
0.0
 11
-545.322281348439
 21
63.2238574028067
 31
0.0
  0
CIRCLE
  5
   4F2
  8
0
  6
CONTINUOUS
 62
     7
 10
-552.822285163133
 20
66.9738497734103
 30
0.0
 40
2.12499987425176
  0
LINE
  5
   4F3
  8
0
  6
CONTINUOUS
 62
     7
 10
-550.322262783606
 20
44.9738807678222
 30
0.0
 11
-550.322271201347
 21
53.2488566267971
 31
0.0
  0
LINE
  5
   4F4
  8
0
  6
CONTINUOUS
 62
     7
 10
-560.322262783611
 20
44.9738807678222
 30
0.0
 11
-560.32229152095
 21
73.223834514618
 31
0.0
  0
LINE
  5
   4F5
  8
0
  6
CONTINUOUS
 62
     7
 10
-542.822266598299
 20
44.9738807678222
 30
0.0
 11
-542.82227501604
 21
53.24885664587
 31
0.0
  0
LINE
  5
   4F6
  8
0
  6
CONTINUOUS
 62
     7
 10
-532.822262783597
 20
44.9738807678223
 30
0.0
 11
-532.822271201356
 21
53.2488744287177
 31
0.0
  0
LINE
  5
   4F7
  8
0
  6
CONTINUOUS
 62
     7
 10
-542.82227501604
 20
53.24885664587
 30
0.0
 11
-537.822281348443
 21
63.2238650322012
 31
0.0
  0
LINE
  5
   4F8
  8
0
  6
CONTINUOUS
 62
     7
 10
-537.822281348443
 20
63.2238650322012
 30
0.0
 11
-537.822291520977
 21
73.2238726615906
 31
0.0
  0
LINE
  5
   4F9
  8
0
  6
CONTINUOUS
 62
     7
 10
-522.82229152097
 20
73.2238726615906
 30
0.0
 11
-537.822291520977
 21
73.2238726615906
 31
0.0
  0
LINE
  5
   4FA
  8
0
  6
CONTINUOUS
 62
     7
 10
-522.822281348451
 20
63.2238802909903
 30
0.0
 11
-522.82229152097
 21
73.2238726615906
 31
0.0
  0
LINE
  5
   4FB
  8
0
  6
CONTINUOUS
 62
     7
 10
-532.822271201356
 20
53.2488744287177
 30
0.0
 11
-522.822281348451
 21
63.2238802909903
 31
0.0
  0
CIRCLE
  5
   4FC
  8
0
  6
CONTINUOUS
 62
     7
 10
-530.322285163145
 20
66.9738726615939
 30
0.0
 40
2.1249998301877
  0
LINE
  5
   4FD
  8
0
  6
CONTINUOUS
 62
     7
 10
-605.322291525362
 20
73.2237887382508
 30
0.0
 11
-590.322291525722
 21
73.2238192558289
 31
0.0
  0
INSERT
  5
   4FE
  8
0
  6
CONTINUOUS
 62
     7
  2
*UDIM376
 10
0.0
 20
0.0
 30
0.0
  0
INSERT
  5
   4FF
  8
0
  6
CONTINUOUS
 62
     7
  2
*UDIM377
 10
0.0
 20
0.0
 30
0.0
  0
TEXT
  5
   500
  8
0
  6
CONTINUOUS
 62
     7
 10
-556.420939068594
 20
81.2827007840309
 30
0.0
 40
3.00000002980232
  1
Y
 50
359.999999948034
 41
0.916666604744064
 72
     2
 11
-554.220939199725
 21
81.2827007820466
 31
0.0
  0
INSERT
  5
   501
  8
0
  6
CONTINUOUS
 62
     7
  2
*UDIM378
 10
0.0
 20
0.0
 30
0.0
  0
INSERT
  5
   502
  8
0
  6
CONTINUOUS
 62
     7
  2
*UDIM379
 10
0.0
 20
0.0
 30
0.0
  0
LINE
  5
   503
  8
0
  6
CONTINUOUS
 62
     1
 10
-543.822164282575
 20
44.9738807678222
 30
0.0
 11
-543.822164282575
 21
46.4738807678223
 31
0.0
  0
LINE
  5
   504
  8
0
  6
CONTINUOUS
 62
     1
 10
-547.322164282575
 20
46.4738807678223
 30
0.0
 11
-549.322164282574
 21
46.4738807678223
 31
0.0
  0
LINE
  5
   505
  8
0
  6
CONTINUOUS
 62
     1
 10
-543.822164282575
 20
46.4738807678223
 30
0.0
 11
-545.822164282575
 21
46.4738807678223
 31
0.0
  0
LINE
  5
   506
  8
0
  6
CONTINUOUS
 62
     1
 10
-549.322164282574
 20
44.9738807678222
 30
0.0
 11
-549.322164282574
 21
46.4738807678223
 31
0.0
  0
LINE
  5
   507
  8
0
  6
CONTINUOUS
 62
     1
 10
-543.822164282575
 20
44.9738807678222
 30
0.0
 11
-549.322164282574
 21
44.9738807678222
 31
0.0
  0
LINE
  5
   508
  8
0
  6
CONTINUOUS
 62
     1
 10
-543.822164282575
 20
45.4738807678223
 30
0.0
 11
-549.322164282574
 21
45.4738807678223
 31
0.0
  0
LINE
  5
   509
  8
0
  6
CONTINUOUS
 62
     1
 10
-545.822164282575
 20
46.4738807678222
 30
0.0
 11
-545.822164282575
 21
52.5654182971304
 31
0.0
  0
LINE
  5
   50A
  8
0
  6
DASHDOT
 62
     7
 10
-546.572164282574
 20
43.4114897736066
 30
0.0
 11
-546.572164282574
 21
51.8327354596144
 31
0.0
  0
LINE
  5
   50B
  8
0
  6
CONTINUOUS
 62
     1
 10
-545.822164282575
 20
52.5654182971304
 30
0.0
 11
-540.722585466535
 21
61.2347014916431
 31
0.0
  0
LINE
  5
   50C
  8
0
  6
CONTINUOUS
 62
     1
 10
-547.322164282575
 20
52.9738807678223
 30
0.0
 11
-542.237265950731
 21
61.6182071414832
 31
0.0
  0
LINE
  5
   50D
  8
0
  6
CONTINUOUS
 62
     1
 10
-547.322164282575
 20
46.4738807678223
 30
0.0
 11
-547.322164282575
 21
52.9738807678223
 31
0.0
  0
LINE
  5
   50E
  8
0
  6
CONTINUOUS
 62
     1
 10
-542.237265950731
 20
61.6182071414844
 30
0.0
 11
-542.108057580375
 21
122.473880767823
 31
0.0
  0
LINE
  5
   50F
  8
0
  6
CONTINUOUS
 62
     1
 10
-540.722585466535
 20
61.234701491644
 30
0.0
 11
-540.996049623795
 21
122.473880767823
 31
0.0
  0
LINE
  5
   510
  8
0
  6
CONTINUOUS
 62
     1
 10
-584.322164282575
 20
44.9738807678222
 30
0.0
 11
-584.322164282575
 21
46.4738807678223
 31
0.0
  0
LINE
  5
   511
  8
0
  6
CONTINUOUS
 62
     1
 10
-578.822164282575
 20
46.4738807678223
 30
0.0
 11
-580.822164282575
 21
46.4738807678223
 31
0.0
  0
LINE
  5
   512
  8
0
  6
CONTINUOUS
 62
     1
 10
-582.322164282575
 20
46.4738807678223
 30
0.0
 11
-584.322164282575
 21
46.4738807678223
 31
0.0
  0
LINE
  5
   513
  8
0
  6
CONTINUOUS
 62
     1
 10
-578.822164282575
 20
44.9738807678222
 30
0.0
 11
-578.822164282575
 21
46.4738807678223
 31
0.0
  0
LINE
  5
   514
  8
0
  6
CONTINUOUS
 62
     1
 10
-578.822164282575
 20
44.9738807678222
 30
0.0
 11
-584.322164282575
 21
44.9738807678222
 31
0.0
  0
LINE
  5
   515
  8
0
  6
CONTINUOUS
 62
     1
 10
-578.822164282575
 20
45.4738807678223
 30
0.0
 11
-584.322164282575
 21
45.4738807678223
 31
0.0
  0
LINE
  5
   516
  8
0
  6
CONTINUOUS
 62
     1
 10
-582.322164282575
 20
46.4738807678222
 30
0.0
 11
-582.322164282575
 21
52.5654182971304
 31
0.0
  0
LINE
  5
   517
  8
0
  6
DASHDOT
 62
     7
 10
-581.572164282575
 20
43.4114897736066
 30
0.0
 11
-581.572164282575
 21
51.8327354596144
 31
0.0
  0
LINE
  5
   518
  8
0
  6
CONTINUOUS
 62
     1
 10
-582.322164282575
 20
52.5654182971304
 30
0.0
 11
-587.421743098614
 21
61.2347014916431
 31
0.0
  0
LINE
  5
   519
  8
0
  6
CONTINUOUS
 62
     1
 10
-580.822164282575
 20
52.9738807678223
 30
0.0
 11
-585.907062614418
 21
61.6182071414832
 31
0.0
  0
LINE
  5
   51A
  8
0
  6
CONTINUOUS
 62
     1
 10
-580.822164282575
 20
46.4738807678223
 30
0.0
 11
-580.822164282575
 21
52.9738807678223
 31
0.0
  0
LINE
  5
   51B
  8
0
  6
CONTINUOUS
 62
     1
 10
-585.907062614418
 20
61.6182071414844
 30
0.0
 11
-586.036270984774
 21
122.473880767823
 31
0.0
  0
LINE
  5
   51C
  8
0
  6
CONTINUOUS
 62
     1
 10
-587.421743098614
 20
61.234701491644
 30
0.0
 11
-587.148278941354
 21
122.473880767822
 31
0.0
  0
LINE
  5
   51D
  8
0
  6
CONTINUOUS
 62
     1
 10
-541.321944471801
 20
103.97388890279
 30
0.0
 11
-540.915253809352
 21
104.380579565239
 31
0.0
  0
LINE
  5
   51E
  8
0
  6
CONTINUOUS
 62
     1
 10
-540.911605354838
 20
103.563549785826
 30
0.0
 11
-541.321944471801
 21
103.97388890279
 31
0.0
  0
LINE
  5
   51F
  8
0
  6
CONTINUOUS
 62
     1
 10
-542.148560911027
 20
103.397272463564
 30
0.0
 11
-541.571944471801
 21
103.97388890279
 31
0.0
  0
LINE
  5
   520
  8
0
  6
CONTINUOUS
 62
     1
 10
-541.571944471801
 20
103.97388890279
 30
0.0
 11
-542.146117562184
 21
104.548061993172
 31
0.0
  0
LINE
  5
   521
  8
0
  6
CONTINUOUS
 62
     1
 10
-541.571935570841
 20
95.2238889027898
 30
0.0
 11
-542.164656125407
 21
95.8166094573555
 31
0.0
  0
LINE
  5
   522
  8
0
  6
CONTINUOUS
 62
     1
 10
-542.167178401538
 20
94.6286460720927
 30
0.0
 11
-541.571935570841
 21
95.2238889027897
 31
0.0
  0
LINE
  5
   523
  8
0
  6
CONTINUOUS
 62
     1
 10
-540.872356919266
 20
94.7743102512149
 30
0.0
 11
-541.321935570841
 21
95.2238889027898
 31
0.0
  0
LINE
  5
   524
  8
0
  6
CONTINUOUS
 62
     1
 10
-541.321935570841
 20
95.2238889027897
 30
0.0
 11
-540.876354264859
 21
95.6694702087717
 31
0.0
  0
LINE
  5
   525
  8
0
  6
CONTINUOUS
 62
     1
 10
-586.822392994308
 20
95.2238889027898
 30
0.0
 11
-587.26797430029
 21
95.6694702087717
 31
0.0
  0
LINE
  5
   526
  8
0
  6
CONTINUOUS
 62
     1
 10
-587.271971645883
 20
94.7743102512149
 30
0.0
 11
-586.822392994308
 21
95.2238889027898
 31
0.0
  0
LINE
  5
   527
  8
0
  6
CONTINUOUS
 62
     1
 10
-585.977150163611
 20
94.6286460720927
 30
0.0
 11
-586.572392994308
 21
95.2238889027897
 31
0.0
  0
LINE
  5
   528
  8
0
  6
CONTINUOUS
 62
     1
 10
-586.572392994308
 20
95.2238889027898
 30
0.0
 11
-585.979672439742
 21
95.8166094573556
 31
0.0
  0
LINE
  5
   529
  8
0
  6
CONTINUOUS
 62
     1
 10
-586.572384093348
 20
103.97388890279
 30
0.0
 11
-585.998211002965
 21
104.548061993172
 31
0.0
  0
LINE
  5
   52A
  8
0
  6
CONTINUOUS
 62
     1
 10
-585.995767654122
 20
103.397272463564
 30
0.0
 11
-586.572384093348
 21
103.97388890279
 31
0.0
  0
LINE
  5
   52B
  8
0
  6
CONTINUOUS
 62
     1
 10
-587.232723210311
 20
103.563549785826
 30
0.0
 11
-586.822384093348
 21
103.97388890279
 31
0.0
  0
LINE
  5
   52C
  8
0
  6
CONTINUOUS
 62
     1
 10
-586.822384093348
 20
103.97388890279
 30
0.0
 11
-587.229074755797
 21
104.380579565239
 31
0.0
  0
LINE
  5
   52D
  8
0
  6
CONTINUOUS
 62
     1
 10
-586.036270984774
 20
122.473880767822
 30
0.0
 11
-587.148278941354
 21
122.473880767822
 31
0.0
  0
LINE
  5
   52E
  8
0
  6
CONTINUOUS
 62
     1
 10
-540.996049623795
 20
122.473880767822
 30
0.0
 11
-542.108057580375
 21
122.473880767822
 31
0.0
  0
INSERT
  5
   52F
  8
0
  6
CONTINUOUS
 62
     7
  2
*UDIM380
 10
0.0
 20
0.0
 30
0.0
  0
INSERT
  5
   530
  8
0
  6
CONTINUOUS
 62
     7
  2
*UDIM381
 10
0.0
 20
0.0
 30
0.0
  0
INSERT
  5
   531
  8
0
  6
CONTINUOUS
 62
     7
  2
*UDIM382
 10
0.0
 20
0.0
 30
0.0
  0
INSERT
  5
   532
  8
0
  6
CONTINUOUS
 62
     7
  2
*UDIM383
 10
0.0
 20
0.0
 30
0.0
  0
INSERT
  5
   533
  8
0
  6
CONTINUOUS
 62
     7
  2
*UDIM384
 10
0.0
 20
0.0
 30
0.0
  0
INSERT
  5
   534
  8
0
  6
CONTINUOUS
 62
     7
  2
*UDIM385
 10
0.0
 20
0.0
 30
0.0
  0
INSERT
  5
   535
  8
0
  6
CONTINUOUS
 62
     7
  2
*UDIM386
 10
0.0
 20
0.0
 30
0.0
  0
LINE
  5
   536
  8
0
  6
CONTINUOUS
 62
     7
 10
-533.930994349898
 20
53.2238726615906
 30
0.0
 11
-541.75230238359
 21
53.2238726615906
 31
0.0
  0
LINE
  5
   537
  8
0
  6
CONTINUOUS
 62
     7
 10
-533.87128970842
 20
48.4738726615906
 30
0.0
 11
-541.75230238359
 21
48.4738726615906
 31
0.0
  0
LINE
  5
   538
  8
0
  6
CONTINUOUS
 62
     7
 10
-551.430994349898
 20
53.2238726615906
 30
0.0
 11
-559.25230238359
 21
53.2238726615906
 31
0.0
  0
LINE
  5
   539
  8
0
  6
CONTINUOUS
 62
     7
 10
-551.37128970842
 20
48.4738726615906
 30
0.0
 11
-559.25230238359
 21
48.4738726615906
 31
0.0
  0
LINE
  5
   53A
  8
0
  6
CONTINUOUS
 62
     7
 10
-568.930994349898
 20
53.2238726615906
 30
0.0
 11
-576.75230238359
 21
53.2238726615906
 31
0.0
  0
LINE
  5
   53B
  8
0
  6
CONTINUOUS
 62
     7
 10
-568.87128970842
 20
48.4738726615906
 30
0.0
 11
-576.75230238359
 21
48.4738726615906
 31
0.0
  0
LINE
  5
   53C
  8
0
  6
CONTINUOUS
 62
     7
 10
-586.430994349898
 20
53.2238726615906
 30
0.0
 11
-594.25230238359
 21
53.2238726615906
 31
0.0
  0
LINE
  5
   53D
  8
0
  6
CONTINUOUS
 62
     7
 10
-586.37128970842
 20
48.4738726615906
 30
0.0
 11
-594.25230238359
 21
48.4738726615906
 31
0.0
  0
INSERT
  5
   53E
  8
0
  6
CONTINUOUS
 62
     7
  2
*UDIM387
 10
0.0
 20
0.0
 30
0.0
  0
INSERT
  5
   53F
  8
0
  6
CONTINUOUS
 62
     7
  2
*UDIM388
 10
0.0
 20
0.0
 30
0.0
  0
TEXT
  5
   540
  8
0
  6
CONTINUOUS
 62
     7
 10
-497.50424950854
 20
-1.00236127833508
 30
0.0
 40
3.00000002980232
  1
X
 50
359.999999948034
 41
0.916666604744064
 72
     2
 11
-495.30424963967
 21
-1.00236128031936
 31
0.0
  0
INSERT
  5
   541
  8
0
  6
CONTINUOUS
 62
     5
  2
*UDIM389
 10
0.0
 20
0.0
 30
0.0
  0
INSERT
  5
   542
  8
0
  6
CONTINUOUS
 62
     7
  2
*UDIM390
 10
0.0
 20
0.0
 30
0.0
  0
TEXT
  5
   543
  8
0
  6
CONTINUOUS
 62
     7
 10
-630.852159817385
 20
-0.510820741264643
 30
0.0
 40
3.00000002980232
  1
X
 50
359.999999948034
 41
0.916666604744064
 72
     2
 11
-628.652159948515
 21
-0.510820743248923
 31
0.0
  0
LINE
  5
   544
  8
0
  6
CONTINUOUS
 62
     7
 10
-311.819000244141
 20
83.6348266601563
 30
0.0
 11
-311.819000244141
 21
55.6348266601563
 31
0.0
  0
LINE
  5
   545
  8
0
  6
CONTINUOUS
 62
     7
 10
-283.819000244141
 20
83.6348266601563
 30
0.0
 11
-283.819000244141
 21
55.6348266601563
 31
0.0
  0
LINE
  5
   546
  8
0
  6
DASHDOT
 62
     7
 10
-318.798516483659
 20
69.6348266601563
 30
0.0
 11
-265.407530883592
 21
69.6348266601563
 31
0.0
  0
LINE
  5
   547
  8
0
  6
DASHDOT
 62
     7
 10
-297.819000244141
 20
101.54379432891
 30
0.0
 11
-297.819000244141
 21
40.4068029747086
 31
0.0
  0
LINE
  5
   548
  8
0
  6
CONTINUOUS
 62
     3
 10
-315.783495913555
 20
89.1721269574475
 30
0.0
 11
-279.98012664357
 21
89.1721269574475
 31
0.0
  0
LINE
  5
   549
  8
0
  6
CONTINUOUS
 62
     3
 10
-315.783495913555
 20
47.9668458326923
 30
0.0
 11
-279.98012664357
 21
47.9668458326923
 31
0.0
  0
LINE
  5
   54A
  8
0
  6
CONTINUOUS
 62
     3
 10
-279.98012664357
 20
89.1721269574475
 30
0.0
 11
-279.98012664357
 21
47.9668458326923
 31
0.0
  0
LINE
  5
   54B
  8
0
  6
CONTINUOUS
 62
     3
 10
-315.783495913555
 20
89.1721269574475
 30
0.0
 11
-315.783495913555
 21
47.9668458326923
 31
0.0
  0
LINE
  5
   54C
  8
0
  6
DASHDOT
 62
     7
 10
-287.819000244141
 20
88.4473266601563
 30
0.0
 11
-287.819000244141
 21
85.1973266601563
 31
0.0
  0
LINE
  5
   54D
  8
0
  6
DASHDOT
 62
     7
 10
-307.819000244141
 20
88.4473266601563
 30
0.0
 11
-307.819000244141
 21
85.1973266601563
 31
0.0
  0
LINE
  5
   54E
  8
0
  6
CONTINUOUS
 62
     5
 10
-311.819000244141
 20
83.6348266601563
 30
0.0
 11
-283.819000244141
 21
83.6348266601563
 31
0.0
  0
LINE
  5
   54F
  8
0
  6
CONTINUOUS
 62
     5
 10
-311.819000244141
 20
55.6348266601563
 30
0.0
 11
-283.819000244141
 21
55.6348266601563
 31
0.0
  0
CIRCLE
  5
   550
  8
0
  6
CONTINUOUS
 62
     5
 10
-287.819000244141
 20
87.3848266601563
 30
0.0
 40
0.875
  0
CIRCLE
  5
   551
  8
0
  6
CONTINUOUS
 62
     5
 10
-307.819000244141
 20
87.3848266601563
 30
0.0
 40
0.875
  0
CIRCLE
  5
   552
  8
0
  6
CONTINUOUS
 62
     5
 10
-287.819000244141
 20
51.8848266601563
 30
0.0
 40
0.875
  0
CIRCLE
  5
   553
  8
0
  6
CONTINUOUS
 62
     5
 10
-307.819000244141
 20
51.8848266601563
 30
0.0
 40
0.875
  0
LINE
  5
   554
  8
0
  6
DASHDOT
 62
     5
 10
-287.819000244141
 20
89.5098266601562
 30
0.0
 11
-287.819000244141
 21
85.2598266601563
 31
0.0
  0
LINE
  5
   555
  8
0
  6
DASHDOT
 62
     5
 10
-289.944000244141
 20
87.3848266601563
 30
0.0
 11
-285.694000244141
 21
87.3848266601563
 31
0.0
  0
LINE
  5
   556
  8
0
  6
DASHDOT
 62
     5
 10
-307.819000244141
 20
89.5098266601562
 30
0.0
 11
-307.819000244141
 21
85.2598266601563
 31
0.0
  0
LINE
  5
   557
  8
0
  6
DASHDOT
 62
     5
 10
-309.944000244141
 20
87.3848266601563
 30
0.0
 11
-305.694000244141
 21
87.3848266601563
 31
0.0
  0
LINE
  5
   558
  8
0
  6
DASHDOT
 62
     5
 10
-307.819000244141
 20
54.0098266601563
 30
0.0
 11
-307.819000244141
 21
49.7598266601563
 31
0.0
  0
LINE
  5
   559
  8
0
  6
DASHDOT
 62
     5
 10
-309.944000244141
 20
51.8848266601563
 30
0.0
 11
-305.694000244141
 21
51.8848266601563
 31
0.0
  0
LINE
  5
   55A
  8
0
  6
DASHDOT
 62
     5
 10
-287.819000244141
 20
54.0098266601563
 30
0.0
 11
-287.819000244141
 21
49.7598266601563
 31
0.0
  0
LINE
  5
   55B
  8
0
  6
DASHDOT
 62
     5
 10
-289.944000244141
 20
51.8848266601563
 30
0.0
 11
-285.694000244141
 21
51.8848266601563
 31
0.0
  0
TEXT
  5
   55C
  8
0
  6
CONTINUOUS
 62
     7
 10
-299.1106110903
 20
35.9018157252633
 30
0.0
 40
3.00000002980232
  1
Y
 50
359.999999844103
 41
0.916666604744064
 72
     2
 11
-296.91061122143
 21
35.9018157192883
 31
0.0
  0
INSERT
  5
   55D
  8
0
  6
CONTINUOUS
 62
     7
  2
*UDIM391
 10
0.0
 20
0.0
 30
0.0
  0
TEXT
  5
   55E
  8
0
  6
CONTINUOUS
 62
     5
 10
-317.596882881261
 20
58.3728518331101
 30
0.0
 40
3.00000002980232
  1
=      =
 50
449.999999844103
 41
0.916666604744064
 72
     2
 11
-317.596882823032
 21
79.8228505928368
 31
0.0
  0
TEXT
  5
   55F
  8
0
  6
CONTINUOUS
 62
     5
 10
-325.30910593424
 20
58.3728518331101
 30
0.0
 40
3.00000002980232
  1
=      =
 50
449.999999844103
 41
0.916666604744064
 72
     2
 11
-325.309105876011
 21
79.8228505928368
 31
0.0
  0
INSERT
  5
   560
  8
0
  6
CONTINUOUS
 62
     7
  2
*UDIM392
 10
0.0
 20
0.0
 30
0.0
  0
INSERT
  5
   561
  8
0
  6
CONTINUOUS
 62
     7
  2
*UDIM393
 10
0.0
 20
0.0
 30
0.0
  0
INSERT
  5
   562
  8
0
  6
CONTINUOUS
 62
     7
  2
*UDIM394
 10
0.0
 20
0.0
 30
0.0
  0
INSERT
  5
   563
  8
0
  6
CONTINUOUS
 62
     7
  2
*UDIM395
 10
0.0
 20
0.0
 30
0.0
  0
TEXT
  5
   564
  8
0
  6
CONTINUOUS
 62
     7
 10
-299.061491618656
 20
110.086353232866
 30
0.0
 40
3.00000002980232
  1
Y
 50
359.999999844103
 41
0.916666604744064
 72
     2
 11
-296.861491749786
 21
110.086353226891
 31
0.0
  0
TEXT
  5
   565
  8
0
  6
CONTINUOUS
 62
     7
 10
-256.474326978229
 20
68.3785679841092
 30
0.0
 40
3.00000002980232
  1
X
 50
359.999999844103
 41
0.916666604744064
 72
     2
 11
-254.27432710936
 21
68.3785679781343
 31
0.0
  0
TEXT
  5
   566
  8
0
  6
CONTINUOUS
 62
     7
 10
-342.025535474323
 20
68.1273162865689
 30
0.0
 40
3.00000002980232
  1
X
 50
359.999999844103
 41
0.916666604744064
 72
     2
 11
-339.825535605453
 21
68.127316280594
 31
0.0
  0
TEXT
  5
   567
  8
0
  6
CONTINUOUS
 62
     1
 10
-316.994283029437
 20
-123.068557783961
 30
0.0
 40
2.00000008940697
  1
4POLE LOW VOLTAGE M.C.C.B SERIES ISOMAX
 41
0.749999861419206
 72
     1
 11
-287.894287109375
 21
-122.068557739258
 31
0.0
 73
     2
  0
TEXT
  5
   568
  8
0
  6
CONTINUOUS
 62
     1
 10
-320.744282504171
 20
-126.068557783961
 30
0.0
 40
2.00000008940697
  1
FIXED VERSION FRONT+EXTENDED FRONT TERMINALS
 41
0.749999861419206
 72
     1
 11
-287.894287109375
 21
-125.068557739258
 31
0.0
 73
     2
  0
TEXT
  5
   569
  8
0
  6
CONTINUOUS
 62
     1
 10
-305.695556640625
 20
-149.36041277647
 30
0.0
 40
4.00000017881393
  1
605032/351
 41
0.937499973922969
 72
     2
 11
-268.945556040853
 21
-149.36041277647
 31
0.0
  0
LINE
  5
   56A
  8
0
  6
CONTINUOUS
 62
     7
 10
-430.331732749939
 20
51.0531344413758
 30
0.0
 11
-422.929949760437
 21
54.5046420097351
 31
0.0
  0
LINE
  5
   56B
  8
0
  6
CONTINUOUS
 62
     7
 10
-422.929949760437
 20
54.5046420097353
 30
0.0
 11
-422.509177207947
 21
54.8736529350282
 31
0.0
  0
LINE
  5
   56C
  8
0
  6
CONTINUOUS
 62
     7
 10
-422.352568626404
 20
55.4109530448914
 30
0.0
 11
-422.352568626404
 21
58.605182170868
 31
0.0
  0
LINE
  5
   56D
  8
0
  6
CONTINUOUS
 62
     7
 10
-422.352568626404
 20
64.8488802909852
 30
0.0
 11
-422.352568626404
 21
69.0988802909852
 31
0.0
  0
LINE
  5
   56E
  8
0
  6
CONTINUOUS
 62
     7
 10
-422.352568626404
 20
69.0988802909852
 30
0.0
 11
-422.352568626404
 21
73.2238726615906
 31
0.0
  0
LINE
  5
   56F
  8
0
  6
CONTINUOUS
 62
     7
 10
-422.352568626404
 20
73.2238726615906
 30
0.0
 11
-419.85256767273
 21
73.2238726615906
 31
0.0
  0
LINE
  5
   570
  8
0
  6
CONTINUOUS
 62
     7
 10
-419.85256767273
 20
69.0988802909852
 30
0.0
 11
-419.85256767273
 21
73.2238726615906
 31
0.0
  0
LINE
  5
   571
  8
0
  6
CONTINUOUS
 62
     7
 10
-422.352568626404
 20
69.0988802909852
 30
0.0
 11
-419.85256767273
 21
69.0988802909852
 31
0.0
  0
LINE
  5
   572
  8
0
  6
CONTINUOUS
 62
     7
 10
-422.352568626404
 20
64.8488802909852
 30
0.0
 11
-419.85256767273
 21
64.8488802909852
 31
0.0
  0
LINE
  5
   573
  8
0
  6
CONTINUOUS
 62
     7
 10
-419.85256767273
 20
58.605182170868
 30
0.0
 11
-419.85256767273
 21
64.8488802909852
 31
0.0
  0
LINE
  5
   574
  8
0
  6
CONTINUOUS
 62
     7
 10
-422.352568626404
 20
58.605182170868
 30
0.0
 11
-422.352568626404
 21
64.8488802909852
 31
0.0
  0
LINE
  5
   575
  8
0
  6
CONTINUOUS
 62
     7
 10
-419.85256767273
 20
64.8488802909852
 30
0.0
 11
-419.85256767273
 21
69.0988802909852
 31
0.0
  0
LINE
  5
   576
  8
0
  6
CONTINUOUS
 62
     7
 10
-419.85256767273
 20
55.4109530448914
 30
0.0
 11
-419.85256767273
 21
58.605182170868
 31
0.0
  0
LINE
  5
   577
  8
0
  6
CONTINUOUS
 62
     7
 10
-422.509177207947
 20
54.8736529350282
 30
0.0
 11
-422.352568626404
 21
55.4109530448915
 31
0.0
  0
ARC
  5
   578
  8
0
  6
CONTINUOUS
 62
     7
 10
-423.35258385482
 20
55.4109572682998
 30
0.0
 40
3.50001618209298
 50
295.000173925889
 51
359.999930860147
  0
LINE
  5
   579
  8
0
  6
CONTINUOUS
 62
     7
 10
-429.275196025845
 20
48.7873596142436
 30
0.0
 11
-421.873404502869
 21
52.2388720512391
 31
0.0
  0
LINE
  5
   57A
  8
0
  6
CONTINUOUS
 62
     7
 10
-429.852568626404
 20
39.0988802909852
 30
0.0
 11
-429.852568626404
 21
47.8810661300199
 31
0.0
  0
ARC
  5
   57B
  8
0
  6
CONTINUOUS
 62
     7
 10
-428.85258438883
 20
47.8810661300199
 30
0.0
 40
0.999984237584987
 50
115.000002325622
 51
180.0
  0
ARC
  5
   57C
  8
0
  6
CONTINUOUS
 62
     7
 10
-428.852545812382
 20
47.8810339262865
 30
0.0
 40
3.50003081044566
 50
115.000180631326
 51
179.999555538035
  0
LINE
  5
   57D
  8
0
  6
CONTINUOUS
 62
     7
 10
-432.352568626404
 20
39.0988802909852
 30
0.0
 11
-432.352568626404
 21
47.881061077118
 31
0.0
  0
LINE
  5
   57E
  8
0
  6
CONTINUOUS
 62
     7
 10
-432.352568626404
 20
39.0988802909852
 30
0.0
 11
-429.852568626404
 21
39.0988802909852
 31
0.0
  0
LINE
  5
   57F
  8
0
  6
CONTINUOUS
 62
     7
 10
-432.352568626404
 20
34.8488802909852
 30
0.0
 11
-429.852568626404
 21
34.8488802909852
 31
0.0
  0
LINE
  5
   580
  8
0
  6
CONTINUOUS
 62
     7
 10
-432.352568626404
 20
31.9738802909852
 30
0.0
 11
-432.352568626404
 21
34.8488802909852
 31
0.0
  0
LINE
  5
   581
  8
0
  6
CONTINUOUS
 62
     7
 10
-432.352568626404
 20
31.9738802909852
 30
0.0
 11
-429.852568626404
 21
31.9738802909852
 31
0.0
  0
LINE
  5
   582
  8
0
  6
CONTINUOUS
 62
     7
 10
-429.852568626404
 20
31.9738802909852
 30
0.0
 11
-429.852568626404
 21
34.8488802909852
 31
0.0
  0
LINE
  5
   583
  8
0
  6
CONTINUOUS
 62
     7
 10
-432.852568626404
 20
41.9738802909852
 30
0.0
 11
-432.352568626404
 21
41.9738802909852
 31
0.0
  0
LINE
  5
   584
  8
0
  6
CONTINUOUS
 62
     7
 10
-432.852568626404
 20
33.9738802909852
 30
0.0
 11
-432.352568626404
 21
33.9738802909852
 31
0.0
  0
LINE
  5
   585
  8
0
  6
DASHDOT
 62
     7
 10
-433.352568626404
 20
36.9738802909851
 30
0.0
 11
-428.852568626404
 21
36.9738802909851
 31
0.0
  0
LINE
  5
   586
  8
0
  6
DASHDOT
 62
     7
 10
-423.352568626404
 20
66.9738802909851
 30
0.0
 11
-418.852567672729
 21
66.9738802909851
 31
0.0
  0
INSERT
  5
   587
  8
0
  6
CONTINUOUS
 62
     7
  2
*HATCH262
 10
-443.852569580078
 20
-5.02611970901489
 30
0.0
 41
0.5
 42
0.5
 43
0.5
  0
INSERT
  5
   588
  8
0
  6
CONTINUOUS
 62
     7
  2
*HATCH263
 10
-443.852569580078
 20
-5.02611970901489
 30
0.0
 41
0.5
 42
0.5
 43
0.5
  0
INSERT
  5
   589
  8
0
  6
CONTINUOUS
 62
     7
  2
*HATCH264
 10
-443.852569580078
 20
-5.02611970901489
 30
0.0
 41
0.5
 42
0.5
 43
0.5
  0
INSERT
  5
   58A
  8
0
  6
CONTINUOUS
 62
     7
  2
*UDIM396
 10
0.0
 20
0.0
 30
0.0
  0
INSERT
  5
   58B
  8
0
  6
CONTINUOUS
 62
     7
  2
*UDIM397
 10
0.0
 20
0.0
 30
0.0
  0
INSERT
  5
   58C
  8
0
  6
CONTINUOUS
 62
     7
  2
*UDIM398
 10
0.0
 20
0.0
 30
0.0
  0
INSERT
  5
   58D
  8
0
  6
CONTINUOUS
 62
     7
  2
*UDIM399
 10
0.0
 20
0.0
 30
0.0
  0
INSERT
  5
   58E
  8
0
  6
CONTINUOUS
 62
     7
  2
*UDIM400
 10
0.0
 20
0.0
 30
0.0
  0
TEXT
  5
   58F
  8
0
  6
CONTINUOUS
 62
     1
 10
-373.993267205459
 20
-138.39885936859
 30
0.0
 40
2.00000008940697
  1
N0035 00-03-15
 41
0.749999861419206
 72
     2
 11
-353.293270112676
 21
-138.39885936859
 31
0.0
  0
TEXT
  5
   590
  8
0
  6
CONTINUOUS
 62
     1
 10
-287.609863150116
 20
-140.378826431626
 30
0.0
 40
3.00000002980232
  1
S3
 41
0.916666604744064
 72
     2
 11
-282.659863439695
 21
-140.378826431626
 31
0.0
  0
TEXT
  5
   591
  8
0
  6
CONTINUOUS
 62
     1
 10
-312.941891504083
 20
-130.138821182847
 30
0.0
 40
2.00000008940697
  1
INTERR.AUTOMATICO SERIE ISOMAX
 41
0.749999861419206
 72
     1
 11
-290.591894638542
 21
-129.138821138144
 31
0.0
 73
     2
  0
TEXT
  5
   592
  8
0
  6
CONTINUOUS
 62
     1
 10
-327.191889245804
 20
-133.138821182847
 30
0.0
 40
2.00000008940697
  1
TETRAP.ESECUZIONE FISSA TERMINALI ANT.E ANT.PROL.
 41
0.749999861419206
 72
     1
 11
-290.591894376274
 21
-132.138821138144
 31
0.0
 73
     2
  0
LINE
  5
   593
  8
0
  6
CONTINUOUS
 62
     3
 10
-418.996517038895
 20
-39.8761124610901
 30
0.0
 11
-407.852568626404
 21
-39.8761124610901
 31
0.0
  0
LINE
  5
   594
  8
0
  6
CONTINUOUS
 62
     7
 10
-443.852568626404
 20
-41.2761134999878
 30
0.0
 11
-443.852568626404
 21
-21.1290035146362
 31
0.0
  0
LINE
  5
   595
  8
0
  6
CONTINUOUS
 62
     7
 10
-443.852568626404
 20
-21.1290173530579
 30
0.0
 11
-443.852568626404
 21
43.7238726503709
 31
0.0
  0
LINE
  5
   596
  8
0
  6
DASHDOT
 62
     7
 10
-444.852568626404
 20
-46.6908460254813
 30
0.0
 11
-444.852568626404
 21
48.7380328634215
 31
0.0
  0
LINE
  5
   597
  8
0
  6
CONTINUOUS
 62
     7
 10
-444.852568626404
 20
38.3886828422546
 30
0.0
 11
-444.852568626404
 21
38.473865032196
 31
0.0
  0
LINE
  5
   598
  8
0
  6
CONTINUOUS
 62
     7
 10
-409.60258007037
 20
12.3488791188639
 30
0.0
 11
-409.602570386881
 21
8.22386726544157
 31
0.0
  0
LINE
  5
   599
  8
0
  6
CONTINUOUS
 62
     7
 10
-408.352598237572
 20
35.4738768069475
 30
0.0
 11
-407.999036845147
 21
35.6203230123607
 31
0.0
  0
LINE
  5
   59A
  8
0
  6
CONTINUOUS
 62
     7
 10
-407.99903047359
 20
35.6203124493214
 30
0.0
 11
-407.852584256712
 21
35.9738661985464
 31
0.0
  0
LINE
  5
   59B
  8
0
  6
CONTINUOUS
 62
     7
 10
-409.602576800699
 20
31.9738797484405
 30
0.0
 11
-409.602569171305
 21
35.4738797487205
 31
0.0
  0
LINE
  5
   59C
  8
0
  6
CONTINUOUS
 62
     7
 10
-409.602568626404
 20
35.4738802909851
 30
0.0
 11
-408.352583885193
 21
35.4738802909851
 31
0.0
  0
LINE
  5
   59D
  8
0
  6
CONTINUOUS
 62
     7
 10
-409.602576255798
 20
12.3488802909851
 30
0.0
 11
-409.602576255798
 21
31.9738802909851
 31
0.0
  0
LINE
  5
   59E
  8
0
  6
CONTINUOUS
 62
     7
 10
-411.852568626404
 20
-13.0261197090149
 30
0.0
 11
-411.852568626404
 21
7.22388029098511
 31
0.0
  0
LINE
  5
   59F
  8
0
  6
CONTINUOUS
 62
     7
 10
-411.852553645299
 20
7.22390782955756
 30
0.0
 11
-411.718581488035
 21
7.72390781586376
 31
0.0
  0
LINE
  5
   5A0
  8
0
  6
CONTINUOUS
 62
     7
 10
-411.718564454288
 20
7.72392684340108
 30
0.0
 11
-411.352544270281
 21
8.08995464822243
 31
0.0
  0
LINE
  5
   5A1
  8
0
  6
CONTINUOUS
 62
     7
 10
-411.352596018904
 20
8.08989510823612
 30
0.0
 11
-410.852588416325
 21
8.22386726544157
 31
0.0
  0
LINE
  5
   5A2
  8
0
  6
CONTINUOUS
 62
     7
 10
-411.852568626404
 20
-13.0261197090149
 30
0.0
 11
-407.852568626404
 21
-13.0261197090149
 31
0.0
  0
LINE
  5
   5A3
  8
0
  6
CONTINUOUS
 62
     7
 10
-408.352628096487
 20
-20.0261261028392
 30
0.0
 11
-407.852589969977
 21
-20.5261260849959
 31
0.0
  0
LINE
  5
   5A4
  8
0
  6
CONTINUOUS
 62
     7
 10
-408.35261633563
 20
-14.5261144058953
 30
0.0
 11
-407.85257058022
 21
-14.0261144240494
 31
0.0
  0
LINE
  5
   5A5
  8
0
  6
CONTINUOUS
 62
     7
 10
-439.7365261436
 20
-14.5261324803917
 30
0.0
 11
-408.352622640182
 21
-14.5261172216035
 31
0.0
  0
LINE
  5
   5A6
  8
0
  6
CONTINUOUS
 62
     7
 10
-439.736549377441
 20
-20.0261197090149
 30
0.0
 11
-408.352615356445
 21
-20.0261197090149
 31
0.0
  0
LINE
  5
   5A7
  8
0
  6
CONTINUOUS
 62
     7
 10
-441.602570886465
 20
-14.0261340313586
 30
0.0
 11
-439.736528378161
 21
-14.52614165994
 31
0.0
  0
LINE
  5
   5A8
  8
0
  6
CONTINUOUS
 62
     7
 10
-443.352570908539
 20
-13.5572216305399
 30
0.0
 11
-441.602554714724
 21
-14.0261394226681
 31
0.0
  0
LINE
  5
   5A9
  8
0
  6
CONTINUOUS
 62
     7
 10
-443.852568070725
 20
-21.1290017723488
 30
0.0
 11
-439.736548368732
 21
-20.0261194040788
 31
0.0
  0
LINE
  5
   5AA
  8
0
  6
CONTINUOUS
 62
     7
 10
-443.852562125902
 20
-12.3789679119378
 30
0.0
 11
-443.352563583073
 21
-12.2449957546692
 31
0.0
  0
LINE
  5
   5AB
  8
0
  6
CONTINUOUS
 62
     7
 10
-443.852568626404
 20
-24.2761273384094
 30
0.0
 11
-441.852569103241
 21
-24.2761273384094
 31
0.0
  0
LINE
  5
   5AC
  8
0
  6
CONTINUOUS
 62
     7
 10
-441.852569103241
 20
-28.0345163192923
 30
0.0
 11
-441.852569103241
 21
-24.2761273384094
 31
0.0
  0
LINE
  5
   5AD
  8
0
  6
CONTINUOUS
 62
     7
 10
-443.352568626404
 20
-20.9950375556946
 30
0.0
 11
-443.352568626404
 21
1.22387266159057
 31
0.0
  0
LINE
  5
   5AE
  8
0
  6
CONTINUOUS
 62
     7
 10
-441.602568626404
 20
-14.0261197090149
 30
0.0
 11
-441.602568626404
 21
-1.5261197090149
 31
0.0
  0
LINE
  5
   5AF
  8
0
  6
CONTINUOUS
 62
     7
 10
-443.852569103241
 20
1.22387266159057
 30
0.0
 11
-442.352569580078
 21
1.22387266159057
 31
0.0
  0
LINE
  5
   5B0
  8
0
  6
CONTINUOUS
 62
     7
 10
-442.352564428933
 20
1.22386770502768
 30
0.0
 11
-441.977563495437
 21
1.12338858708452
 31
0.0
  0
LINE
  5
   5B1
  8
0
  6
CONTINUOUS
 62
     7
 10
-442.352564428933
 20
1.22386770502768
 30
0.0
 11
-441.977563495437
 21
1.12338858708452
 31
0.0
  0
LINE
  5
   5B2
  8
0
  6
CONTINUOUS
 62
     7
 10
-441.977567009489
 20
1.12338606170617
 30
0.0
 11
-441.703048047646
 21
0.848865202358548
 31
0.0
  0
LINE
  5
   5B3
  8
0
  6
CONTINUOUS
 62
     7
 10
-441.703056675128
 20
0.848858603734259
 30
0.0
 11
-441.602576122489
 21
0.473858604925648
 31
0.0
  0
LINE
  5
   5B4
  8
0
  6
CONTINUOUS
 62
     7
 10
-441.602559566498
 20
-1.52612656354393
 30
0.0
 11
-441.602559566498
 21
0.473865807061538
 31
0.0
  0
LINE
  5
   5B5
  8
0
  6
CONTINUOUS
 62
     7
 10
-441.703045730228
 20
-1.90113051211398
 30
0.0
 11
-441.655434500698
 21
-1.72344191617145
 31
0.0
  0
LINE
  5
   5B6
  8
0
  6
CONTINUOUS
 62
     7
 10
-441.655435417857
 20
-1.72344675911322
 30
0.0
 11
-441.602566099195
 21
-1.52612773161055
 31
0.0
  0
LINE
  5
   5B7
  8
0
  6
CONTINUOUS
 62
     7
 10
-441.977568780895
 20
-2.1756662184171
 30
0.0
 11
-441.703049355842
 21
-1.9011453586642
 31
0.0
  0
LINE
  5
   5B8
  8
0
  6
CONTINUOUS
 62
     7
 10
-442.352575052535
 20
-2.27613772702965
 30
0.0
 11
-441.977575057712
 21
-2.17565861679556
 31
0.0
  0
LINE
  5
   5B9
  8
0
  6
CONTINUOUS
 62
     7
 10
-443.352568626404
 20
-2.27612733840943
 30
0.0
 11
-442.352569103241
 21
-2.27612733840943
 31
0.0
  0
LINE
  5
   5BA
  8
0
  6
CONTINUOUS
 62
     7
 10
-444.852568626404
 20
-36.0261268615723
 30
0.0
 11
-443.852568626404
 21
-36.0261268615723
 31
0.0
  0
LINE
  5
   5BB
  8
0
  6
CONTINUOUS
 62
     7
 10
-444.852568626404
 20
38.473865032196
 30
0.0
 11
-443.852568626404
 21
38.473865032196
 31
0.0
  0
LINE
  5
   5BC
  8
0
  6
CONTINUOUS
 62
     7
 10
-444.852568626404
 20
33.5396914482117
 30
0.0
 11
-443.852568626404
 21
33.5396914482117
 31
0.0
  0
LINE
  5
   5BD
  8
0
  6
CONTINUOUS
 62
     7
 10
-441.602580391035
 20
-19.7761254056403
 30
0.0
 11
-440.20306195325
 21
-20.1511253766213
 31
0.0
  0
LINE
  5
   5BE
  8
0
  6
CONTINUOUS
 62
     7
 10
-441.602585315704
 20
-19.7761206388424
 30
0.0
 11
-441.602585315704
 21
-14.7761206388424
 31
0.0
  0
LINE
  5
   5BF
  8
0
  6
CONTINUOUS
 62
     7
 10
-441.602585169438
 20
-14.7761273259687
 30
0.0
 11
-440.203054813899
 21
-14.4011273293174
 31
0.0
  0
LINE
  5
   5C0
  8
0
  6
CONTINUOUS
 62
     7
 10
-444.852568626404
 20
-31.133816242218
 30
0.0
 11
-443.852568626404
 21
-31.133816242218
 31
0.0
  0
LINE
  5
   5C1
  8
0
  6
CONTINUOUS
 62
     7
 10
-444.852568626404
 20
-31.0261273384094
 30
0.0
 11
-443.852568626404
 21
-31.0261273384094
 31
0.0
  0
LINE
  5
   5C2
  8
0
  6
CONTINUOUS
 62
     7
 10
-441.703044036516
 20
-2.16577664092946
 30
0.0
 11
-441.602563966987
 21
-1.72343961954305
 31
0.0
  0
LINE
  5
   5C3
  8
0
  6
CONTINUOUS
 62
     7
 10
-441.655438423157
 20
-1.72343873977661
 30
0.0
 11
-441.602569580078
 21
-1.72343873977661
 31
0.0
  0
LINE
  5
   5C4
  8
0
  6
CONTINUOUS
 62
     7
 10
-441.669557014517
 20
-8.77613249094971
 30
0.0
 11
-441.602570935412
 21
-8.72640409936978
 31
0.0
  0
LINE
  5
   5C5
  8
0
  6
CONTINUOUS
 62
     7
 10
-441.703047030453
 20
-8.75128585285259
 30
0.0
 11
-441.669552560384
 21
-8.77615004774956
 31
0.0
  0
LINE
  5
   5C6
  8
0
  6
CONTINUOUS
 62
     7
 10
-441.703049659729
 20
-3.77611970901489
 30
0.0
 11
-441.602569103241
 21
-3.77611970901489
 31
0.0
  0
LINE
  5
   5C7
  8
0
  6
CONTINUOUS
 62
     7
 10
-441.703052393173
 20
-6.80101302432592
 30
0.0
 11
-441.669557923104
 21
-6.77614882942894
 31
0.0
  0
LINE
  5
   5C8
  8
0
  6
CONTINUOUS
 62
     7
 10
-441.669553082559
 20
-6.7761359730333
 30
0.0
 11
-441.602567003455
 21
-6.82586436461323
 31
0.0
  0
LINE
  5
   5C9
  8
0
  6
CONTINUOUS
 62
     7
 10
-441.703052487954
 20
-2.61019778232447
 30
0.0
 11
-441.648465618424
 21
-2.91508364309555
 31
0.0
  0
LINE
  5
   5CA
  8
0
  6
CONTINUOUS
 62
     7
 10
-441.648463171473
 20
-2.91508010918483
 30
0.0
 11
-441.60256950338
 21
-3.77611828435499
 31
0.0
  0
LINE
  5
   5CB
  8
0
  6
CONTINUOUS
 62
     7
 10
-441.960731768308
 20
-8.70001682863208
 30
0.0
 11
-441.703051834815
 21
-8.75127109548653
 31
0.0
  0
LINE
  5
   5CC
  8
0
  6
CONTINUOUS
 62
     7
 10
-441.97756988936
 20
-8.6887604543753
 30
0.0
 11
-441.960730385224
 21
-8.7000138105659
 31
0.0
  0
LINE
  5
   5CD
  8
0
  6
CONTINUOUS
 62
     7
 10
-441.977577300919
 20
-6.86350683546857
 30
0.0
 11
-441.960736843688
 21
-6.85225347904572
 31
0.0
  0
LINE
  5
   5CE
  8
0
  6
CONTINUOUS
 62
     7
 10
-441.960733546562
 20
-6.85225587496863
 30
0.0
 11
-441.70305456617
 21
-6.80100161609052
 31
0.0
  0
LINE
  5
   5CF
  8
0
  6
CONTINUOUS
 62
     7
 10
-441.977569103241
 20
-3.77611970901489
 30
0.0
 11
-441.703049659729
 21
-3.77611970901489
 31
0.0
  0
LINE
  5
   5D0
  8
0
  6
CONTINUOUS
 62
     7
 10
-442.352571337606
 20
-8.6216286945758
 30
0.0
 11
-441.97757134631
 21
-8.68876735098153
 31
0.0
  0
LINE
  5
   5D1
  8
0
  6
CONTINUOUS
 62
     7
 10
-442.352571917895
 20
-6.93064387079868
 30
0.0
 11
-441.977571926598
 21
-6.86350521439296
 31
0.0
  0
LINE
  5
   5D2
  8
0
  6
CONTINUOUS
 62
     7
 10
-442.352569103241
 20
-3.77611970901489
 30
0.0
 11
-441.977569103241
 21
-3.77611970901489
 31
0.0
  0
LINE
  5
   5D3
  8
0
  6
CONTINUOUS
 62
     7
 10
-443.352568626404
 20
-6.9306378364563
 30
0.0
 11
-442.352569103241
 21
-6.9306378364563
 31
0.0
  0
LINE
  5
   5D4
  8
0
  6
CONTINUOUS
 62
     7
 10
-443.352568626404
 20
-3.77611970901489
 30
0.0
 11
-442.352569103241
 21
-3.77611970901489
 31
0.0
  0
LINE
  5
   5D5
  8
0
  6
CONTINUOUS
 62
     7
 10
-443.352568626404
 20
-8.62161684036255
 30
0.0
 11
-442.352569103241
 21
-8.62161684036255
 31
0.0
  0
LINE
  5
   5D6
  8
0
  6
CONTINUOUS
 62
     3
 10
-429.227568626404
 20
43.7238802909851
 30
0.0
 11
-395.352568625808
 21
43.7238802909851
 31
0.0
  0
LINE
  5
   5D7
  8
0
  6
CONTINUOUS
 62
     3
 10
-411.193010062192
 20
42.3238863945007
 30
0.0
 11
-396.752570151686
 21
42.3238863945007
 31
0.0
  0
LINE
  5
   5D8
  8
0
  6
CONTINUOUS
 62
     3
 10
-407.852568625808
 20
-39.8761124610901
 30
0.0
 11
-396.752570151686
 21
-39.8761124610901
 31
0.0
  0
LINE
  5
   5D9
  8
0
  6
CONTINUOUS
 62
     3
 10
-407.852568625808
 20
-41.2761120796204
 30
0.0
 11
-395.352568625808
 21
-41.2761120796204
 31
0.0
  0
LINE
  5
   5DA
  8
0
  6
CONTINUOUS
 62
     3
 10
-407.852568625808
 20
-41.2761120796204
 30
0.0
 11
-407.852568625808
 21
-20.1511197090149
 31
0.0
  0
LINE
  5
   5DB
  8
0
  6
CONTINUOUS
 62
     3
 10
-407.852568625806
 20
-14.4011273384094
 30
0.0
 11
-407.852568625806
 21
-13.0260891914368
 31
0.0
  0
LINE
  5
   5DC
  8
0
  6
CONTINUOUS
 62
     3
 10
-407.852568626404
 20
35.9739039335873
 30
0.0
 11
-407.852568626404
 21
43.7238802909851
 31
0.0
  0
LINE
  5
   5DD
  8
0
  6
CONTINUOUS
 62
     3
 10
-393.102568625808
 20
7.69831418991089
 30
0.0
 11
-393.102568625808
 21
12.4737200736999
 31
0.0
  0
LINE
  5
   5DE
  8
0
  6
CONTINUOUS
 62
     3
 10
-393.10259569025
 20
-17.7509082988919
 30
0.0
 11
-393.102572802068
 21
-21.0262679295449
 31
0.0
  0
LINE
  5
   5DF
  8
0
  6
CONTINUOUS
 62
     3
 10
-395.352568625808
 20
31.5988802909851
 30
0.0
 11
-395.352568625808
 21
43.7238802909851
 31
0.0
  0
LINE
  5
   5E0
  8
0
  6
CONTINUOUS
 62
     3
 10
-396.752570151686
 20
35.5988879203796
 30
0.0
 11
-395.352568625808
 21
35.5988879203796
 31
0.0
  0
LINE
  5
   5E1
  8
0
  6
CONTINUOUS
 62
     3
 10
-395.352568625808
 20
-41.2761120796204
 30
0.0
 11
-395.352568625808
 21
-28.9011111940658
 31
0.0
  0
LINE
  5
   5E2
  8
0
  6
CONTINUOUS
 62
     3
 10
-396.752570151686
 20
-33.1511120796204
 30
0.0
 11
-395.352568625808
 21
-33.1511120796204
 31
0.0
  0
LINE
  5
   5E3
  8
0
  6
CONTINUOUS
 62
     3
 10
-396.752570151686
 20
-39.8761105537415
 30
0.0
 11
-396.752570151686
 21
-28.9011108125956
 31
0.0
  0
LINE
  5
   5E4
  8
0
  6
CONTINUOUS
 62
     3
 10
-407.852570155214
 20
-14.4011197090149
 30
0.0
 11
-396.752571681093
 21
-14.4011197090149
 31
0.0
  0
LINE
  5
   5E5
  8
0
  6
CONTINUOUS
 62
     3
 10
-407.85256981001
 20
-20.1511197090149
 30
0.0
 11
-396.752571335889
 21
-20.1511197090149
 31
0.0
  0
LINE
  5
   5E6
  8
0
  6
CONTINUOUS
 62
     1
 10
-396.752570151686
 20
31.5988802909851
 30
0.0
 11
-394.102569102645
 21
31.5988802909851
 31
0.0
  0
LINE
  5
   5E7
  8
0
  6
CONTINUOUS
 62
     1
 10
-395.602568625808
 20
-28.9011116027832
 30
0.0
 11
-395.352568625808
 21
-28.9011116027832
 31
0.0
  0
LINE
  5
   5E8
  8
0
  6
CONTINUOUS
 62
     1
 10
-396.752570151686
 20
-28.9011108125956
 30
0.0
 11
-394.102569102645
 21
-28.9011115346637
 31
0.0
  0
LINE
  5
   5E9
  8
0
  6
CONTINUOUS
 62
     2
 10
-388.60191346556
 20
-25.9011192321777
 30
0.0
 11
-388.60191346556
 21
-24.9011206626892
 31
0.0
  0
LINE
  5
   5EA
  8
0
  6
CONTINUOUS
 62
     2
 10
-393.101913435758
 20
-26.1511197071874
 30
0.0
 11
-393.101913435758
 21
26.3488802928126
 31
0.0
  0
LINE
  5
   5EB
  8
0
  6
CONTINUOUS
 62
     2
 10
-394.102569102645
 20
26.3488802909851
 30
0.0
 11
-391.35198439412
 21
26.3488802909851
 31
0.0
  0
LINE
  5
   5EC
  8
0
  6
CONTINUOUS
 62
     2
 10
-394.102569102645
 20
-26.1511197078349
 30
0.0
 11
-391.35198439412
 21
-26.1511197078349
 31
0.0
  0
LINE
  5
   5ED
  8
0
  6
CONTINUOUS
 62
     2
 10
-388.601941903575
 20
-16.9011277457996
 30
0.0
 11
-388.601913770183
 21
-25.9011201163514
 31
0.0
  0
LINE
  5
   5EE
  8
0
  6
CONTINUOUS
 62
     2
 10
-388.60201079956
 20
-10.4011275167844
 30
0.0
 11
-388.60194356552
 21
-16.4011275166911
 31
0.0
  0
LINE
  5
   5EF
  8
0
  6
CONTINUOUS
 62
     2
 10
-388.601914896072
 20
-9.90111994132026
 30
0.0
 11
-388.601914896072
 21
-0.15112757071479
 31
0.0
  0
LINE
  5
   5F0
  8
0
  6
CONTINUOUS
 62
     2
 10
-388.602014396113
 20
-9.90113272044918
 30
0.0
 11
-388.601987693233
 21
-0.151132719828334
 31
0.0
  0
LINE
  5
   5F1
  8
0
  6
CONTINUOUS
 62
     2
 10
-388.602092675671
 20
6.34887103911085
 30
0.0
 11
-388.601988725228
 21
0.348871039171244
 31
0.0
  0
LINE
  5
   5F2
  8
0
  6
CONTINUOUS
 62
     7
 10
-410.852588416325
 20
8.22386726544157
 30
0.0
 11
-409.602572440976
 21
8.22386726544157
 31
0.0
  0
LINE
  5
   5F3
  8
0
  6
CONTINUOUS
 62
     7
 10
-394.102569102645
 20
26.3488802909851
 30
0.0
 11
-394.102569102645
 21
31.5988802909851
 31
0.0
  0
LINE
  5
   5F4
  8
0
  6
CONTINUOUS
 62
     7
 10
-394.102569102645
 20
-28.9011115346636
 30
0.0
 11
-394.102569102645
 21
-26.1511197078349
 31
0.0
  0
LINE
  5
   5F5
  8
0
  6
CONTINUOUS
 62
     3
 10
-396.752570151686
 20
31.5988802909851
 30
0.0
 11
-396.752570151686
 21
42.3238863945007
 31
0.0
  0
LINE
  5
   5F6
  8
0
  6
CONTINUOUS
 62
     3
 10
-396.752570151686
 20
-28.9011108125956
 30
0.0
 11
-396.752570151686
 21
31.5988802909851
 31
0.0
  0
ARC
  5
   5F7
  8
0
  6
CONTINUOUS
 62
     7
 10
-378.264548721731
 20
-10.9230605343009
 30
0.0
 40
0.499999897877905
 50
348.623601768641
 51
436.688817106542
  0
ARC
  5
   5F8
  8
0
  6
CONTINUOUS
 62
     7
 10
-378.862919450278
 20
-13.8969698143499
 30
0.0
 40
0.50000037262337
 50
260.594020595617
 51
348.623601768641
  0
LINE
  5
   5F9
  8
0
  6
DASHDOT
 62
     7
 10
-395.922600613787
 20
-8.93547974079147
 30
0.0
 11
-370.864254884797
 21
-13.9773875108317
 31
0.0
  0
LINE
  5
   5FA
  8
0
  6
CONTINUOUS
 62
     7
 10
-388.602009089283
 20
-7.9634545571998
 30
0.0
 11
-378.149428990117
 21
-10.4364940076456
 31
0.0
  0
LINE
  5
   5FB
  8
0
  6
CONTINUOUS
 62
     7
 10
-378.372742956601
 20
-13.9955966231141
 30
0.0
 11
-377.774372392347
 21
-11.0216873100083
 31
0.0
  0
LINE
  5
   5FC
  8
0
  6
CONTINUOUS
 62
     7
 10
-388.601984025613
 20
-12.7904481560007
 30
0.0
 11
-378.944633944818
 21
-14.3902475776504
 31
0.0
  0
LINE
  5
   5FD
  8
0
  6
DASHDOT
 62
     7
 10
-446.352568626404
 20
-46.6908460254813
 30
0.0
 11
-446.352568626404
 21
48.7380328634215
 31
0.0
  0
LINE
  5
   5FE
  8
0
  6
CONTINUOUS
 62
     7
 10
-432.852568626404
 20
31.9738802909851
 30
0.0
 11
-426.402922385204
 21
31.9738802909851
 31
0.0
  0
LINE
  5
   5FF
  8
0
  6
CONTINUOUS
 62
     7
 10
-432.6875045934
 20
30.7238802909851
 30
0.0
 11
-426.110812401008
 21
30.7238802909851
 31
0.0
  0
LINE
  5
   600
  8
0
  6
CONTINUOUS
 62
     7
 10
-439.352568626404
 20
28.6911029097815
 30
0.0
 11
-439.352568626404
 21
30.7238802909851
 31
0.0
  0
LINE
  5
   601
  8
0
  6
CONTINUOUS
 62
     7
 10
-437.352568626404
 20
28.6911029097815
 30
0.0
 11
-437.352568626404
 21
30.7238802909851
 31
0.0
  0
LINE
  5
   602
  8
0
  6
CONTINUOUS
 62
     7
 10
-432.352568626404
 20
30.7238802909851
 30
0.0
 11
-432.352568626404
 21
31.9738802909851
 31
0.0
  0
LINE
  5
   603
  8
0
  6
CONTINUOUS
 62
     7
 10
-439.352568626404
 20
30.7238802909851
 30
0.0
 11
-436.12834520995
 21
30.7238802909851
 31
0.0
  0
LINE
  5
   604
  8
0
  6
CONTINUOUS
 62
     3
 10
-447.466989189385
 20
28.6911029097815
 30
0.0
 11
-426.110812401008
 21
28.6911029097815
 31
0.0
  0
LINE
  5
   605
  8
0
  6
CONTINUOUS
 62
     7
 10
-434.852568626404
 20
41.4738802909851
 30
0.0
 11
-432.352568626404
 21
41.4738802909851
 31
0.0
  0
LINE
  5
   606
  8
0
  6
CONTINUOUS
 62
     7
 10
-435.141177286489
 20
28.1911029097815
 30
0.0
 11
-433.102933590496
 21
30.1881646138103
 31
0.0
  0
LINE
  5
   607
  8
0
  6
CONTINUOUS
 62
     7
 10
-436.602204122912
 20
30.2595954512417
 30
0.0
 11
-434.852568705861
 21
31.9738803934362
 31
0.0
  0
LINE
  5
   608
  8
0
  6
CONTINUOUS
 62
     7
 10
-434.852568626404
 20
31.9738802909851
 30
0.0
 11
-434.852568626404
 21
34.8738802909851
 31
0.0
  0
ARC
  5
   609
  8
0
  6
CONTINUOUS
 62
     7
 10
-434.852569028637
 20
28.4738810896209
 30
0.0
 40
2.49999952145068
 50
134.415297555408
 51
180.0
  0
ARC
  5
   60A
  8
0
  6
CONTINUOUS
 62
     7
 10
-434.852568626404
 20
31.973879384182
 30
0.0
 40
2.5
 50
314.415292725986
 51
360.0
  0
LINE
  5
   60B
  8
0
  6
DASHDOT
 62
     7
 10
-437.516082739388
 20
36.9738802909851
 30
0.0
 11
-429.18625917509
 21
36.9738802909851
 31
0.0
  0
INSERT
  5
   60C
  8
0
  6
CONTINUOUS
 62
     7
  2
*HATCH265
 10
-443.852569580078
 20
-5.02611970901489
 30
0.0
 41
0.5
 42
0.5
 43
0.5
  0
LINE
  5
   60D
  8
0
  6
CONTINUOUS
 62
     7
 10
-443.852568626404
 20
-29.5261134999882
 30
0.0
 11
-434.852568626404
 21
-29.5261134999882
 31
0.0
  0
LINE
  5
   60E
  8
0
  6
CONTINUOUS
 62
     7
 10
-436.852568626404
 20
-29.5261134999882
 30
0.0
 11
-436.852568626404
 21
-28.0345163192923
 31
0.0
  0
LINE
  5
   60F
  8
0
  6
CONTINUOUS
 62
     7
 10
-434.852568626404
 20
-29.5261134999882
 30
0.0
 11
-434.852568626404
 21
-28.0345163192923
 31
0.0
  0
LINE
  5
   610
  8
0
  6
CONTINUOUS
 62
     7
 10
-431.852568626404
 20
-29.5261134999882
 30
0.0
 11
-431.852568626404
 21
-28.0345163192923
 31
0.0
  0
LINE
  5
   611
  8
0
  6
CONTINUOUS
 62
     7
 10
-431.852568626404
 20
-29.5261134999882
 30
0.0
 11
-420.248533042254
 21
-29.5261134999882
 31
0.0
  0
LINE
  5
   612
  8
0
  6
CONTINUOUS
 62
     3
 10
-444.546479882488
 20
-28.0345163192923
 30
0.0
 11
-420.42896818508
 21
-28.0345163192923
 31
0.0
  0
LINE
  5
   613
  8
0
  6
CONTINUOUS
 62
     7
 10
-434.852568626404
 20
-39.0261134999882
 30
0.0
 11
-433.352569103241
 21
-39.0261134999882
 31
0.0
  0
LINE
  5
   614
  8
0
  6
CONTINUOUS
 62
     7
 10
-433.352569103241
 20
-39.0261134999884
 30
0.0
 11
-433.352569103241
 21
-36.5261197090149
 31
0.0
  0
LINE
  5
   615
  8
0
  6
CONTINUOUS
 62
     7
 10
-434.852568626406
 20
-39.0261134999882
 30
0.0
 11
-434.852568626406
 21
-28.0345163192923
 31
0.0
  0
LINE
  5
   616
  8
0
  6
CONTINUOUS
 62
     7
 10
-433.352569103241
 20
-39.0261134999883
 30
0.0
 11
-432.352569103241
 21
-39.0261134999883
 31
0.0
  0
LINE
  5
   617
  8
0
  6
CONTINUOUS
 62
     7
 10
-433.352569103241
 20
-28.5261134999883
 30
0.0
 11
-432.352569103241
 21
-28.5261134999883
 31
0.0
  0
LINE
  5
   618
  8
0
  6
DASHDOT
 62
     7
 10
-437.516082739388
 20
-34.5261197090149
 30
0.0
 11
-426.806496552572
 21
-34.5261197090149
 31
0.0
  0
INSERT
  5
   619
  8
0
  6
CONTINUOUS
 62
     7
  2
*HATCH266
 10
-443.852569580078
 20
-5.02611970901489
 30
0.0
 41
0.5
 42
0.5
 43
0.5
  0
LINE
  5
   61A
  8
0
  6
CONTINUOUS
 62
     7
 10
-434.852568626406
 20
-32.4761197090149
 30
0.0
 11
-432.352569103241
 21
-32.4761197090149
 31
0.0
  0
LINE
  5
   61B
  8
0
  6
CONTINUOUS
 62
     7
 10
-434.852568626406
 20
-36.5761197090149
 30
0.0
 11
-432.352569103241
 21
-36.5761197090149
 31
0.0
  0
INSERT
  5
   61C
  8
0
  6
CONTINUOUS
 62
     7
  2
*HATCH267
 10
-443.852569580078
 20
-5.02611970901489
 30
0.0
 41
0.5
 42
0.5
 43
0.5
  0
INSERT
  5
   61D
  8
0
  6
CONTINUOUS
 62
     7
  2
*HATCH268
 10
-443.852569580078
 20
-5.02611970901489
 30
0.0
 41
0.5
 42
0.5
 43
0.5
  0
INSERT
  5
   61E
  8
0
  6
CONTINUOUS
 62
     7
  2
*HATCH269
 10
-443.852569580078
 20
-5.02611970901489
 30
0.0
 41
0.5
 42
0.5
 43
0.5
  0
ARC
  5
   61F
  8
0
  6
DASHDOT
 62
     7
 10
-415.352169682356
 20
-5.0261197090149
 30
0.0
 40
38.0221347997541
 50
337.492314756863
 51
360.0
  0
LINE
  5
   620
  8
0
  6
DASHDOT
 62
     7
 10
-377.330034882602
 20
-5.02611970901491
 30
0.0
 11
-377.330034882602
 21
-2.15101989164619
 31
0.0
  0
LINE
  5
   621
  8
0
  6
CONTINUOUS
 62
     7
 10
-434.852568626404
 20
39.0738802909851
 30
0.0
 11
-432.852568626404
 21
39.0738802909851
 31
0.0
  0
LINE
  5
   622
  8
0
  6
CONTINUOUS
 62
     7
 10
-434.852568626404
 20
34.8738802909851
 30
0.0
 11
-432.852568626404
 21
34.8738802909851
 31
0.0
  0
INSERT
  5
   623
  8
0
  6
CONTINUOUS
 62
     7
  2
*HATCH270
 10
-443.852569580078
 20
-5.02611970901489
 30
0.0
 41
0.5
 42
0.5
 43
0.5
  0
LINE
  5
   624
  8
0
  6
CONTINUOUS
 62
     7
 10
-443.852568626404
 20
43.7238726503709
 30
0.0
 11
-443.102568626404
 21
43.7238726503709
 31
0.0
  0
LINE
  5
   625
  8
0
  6
CONTINUOUS
 62
     1
 10
-391.35198439412
 20
-27.4011197090149
 30
0.0
 11
-391.35198439412
 21
-26.4011197090149
 31
0.0
  0
LINE
  5
   626
  8
0
  6
CONTINUOUS
 62
     1
 10
-391.35198439412
 20
-27.4011197090149
 30
0.0
 11
-390.35198439412
 21
-27.4011197090149
 31
0.0
  0
LINE
  5
   627
  8
0
  6
CONTINUOUS
 62
     1
 10
-391.35198439412
 20
26.5988783836365
 30
0.0
 11
-391.35198439412
 21
27.5988783836365
 31
0.0
  0
LINE
  5
   628
  8
0
  6
CONTINUOUS
 62
     1
 10
-391.35198439412
 20
27.5988783836365
 30
0.0
 11
-390.35198439412
 21
27.5988783836365
 31
0.0
  0
LINE
  5
   629
  8
0
  6
CONTINUOUS
 62
     1
 10
-391.35198439412
 20
-26.4011197090149
 30
0.0
 11
-391.35198439412
 21
26.5988802909851
 31
0.0
  0
LINE
  5
   62A
  8
0
  6
CONTINUOUS
 62
     1
 10
-393.601984304713
 20
34.3875517845154
 30
0.0
 11
-393.601984304713
 21
36.8102049827576
 31
0.0
  0
LINE
  5
   62B
  8
0
  6
CONTINUOUS
 62
     1
 10
-393.601984304713
 20
-36.6124444007874
 30
0.0
 11
-393.601984304713
 21
-34.1897950172424
 31
0.0
  0
LINE
  5
   62C
  8
0
  6
CONTINUOUS
 62
     1
 10
-390.35198439412
 20
-40.6511216163635
 30
0.0
 11
-390.35198439412
 21
40.8488783836365
 31
0.0
  0
LINE
  5
   62D
  8
0
  6
CONTINUOUS
 62
     1
 10
-390.35198439412
 20
-40.6511197090149
 30
0.0
 11
-388.60198439412
 21
-40.6511197090149
 31
0.0
  0
LINE
  5
   62E
  8
0
  6
CONTINUOUS
 62
     1
 10
-388.60198439412
 20
-40.6511197090149
 30
0.0
 11
-388.60198439412
 21
40.8488802909851
 31
0.0
  0
LINE
  5
   62F
  8
0
  6
CONTINUOUS
 62
     1
 10
-390.35198439412
 20
40.8488783836365
 30
0.0
 11
-389.60198439412
 21
40.8488783836365
 31
0.0
  0
LINE
  5
   630
  8
0
  6
CONTINUOUS
 62
     1
 10
-389.10198439412
 20
40.8488783836365
 30
0.0
 11
-388.60198439412
 21
40.8488783836365
 31
0.0
  0
LINE
  5
   631
  8
0
  6
CONTINUOUS
 62
     1
 10
-393.101984345269
 20
34.0988783836365
 30
0.0
 11
-390.35198439412
 21
34.0988783836365
 31
0.0
  0
LINE
  5
   632
  8
0
  6
CONTINUOUS
 62
     1
 10
-393.101984287109
 20
37.0988783836365
 30
0.0
 11
-390.35198439412
 21
37.0988783836365
 31
0.0
  0
LINE
  5
   633
  8
0
  6
CONTINUOUS
 62
     1
 10
-393.601983924166
 20
34.3875506396039
 30
0.0
 11
-393.101983907703
 21
34.0988772351057
 31
0.0
  0
LINE
  5
   634
  8
0
  6
CONTINUOUS
 62
     1
 10
-393.101984440244
 20
34.0988783836365
 30
0.0
 11
-393.101984440244
 21
34.2130599021912
 31
0.0
  0
LINE
  5
   635
  8
0
  6
CONTINUOUS
 62
     1
 10
-393.101984345269
 20
34.0988783836365
 30
0.0
 11
-393.101984345269
 21
34.5382170677185
 31
0.0
  0
LINE
  5
   636
  8
0
  6
CONTINUOUS
 62
     1
 10
-393.101984322963
 20
34.5382170677185
 30
0.0
 11
-393.101984322963
 21
35.0248579978943
 31
0.0
  0
LINE
  5
   637
  8
0
  6
CONTINUOUS
 62
     1
 10
-393.101984310563
 20
35.0248579978943
 30
0.0
 11
-393.101984310563
 21
35.5988783836365
 31
0.0
  0
LINE
  5
   638
  8
0
  6
CONTINUOUS
 62
     1
 10
-393.101984299667
 20
35.5988783836365
 30
0.0
 11
-393.101984299667
 21
36.1729063987732
 31
0.0
  0
LINE
  5
   639
  8
0
  6
CONTINUOUS
 62
     1
 10
-393.101984287109
 20
36.1729063987732
 30
0.0
 11
-393.101984287109
 21
37.0988783836365
 31
0.0
  0
LINE
  5
   63A
  8
0
  6
CONTINUOUS
 62
     1
 10
-393.101984264274
 20
36.6595396995544
 30
0.0
 11
-393.101984264274
 21
36.9846968650818
 31
0.0
  0
LINE
  5
   63B
  8
0
  6
CONTINUOUS
 62
     1
 10
-393.601984733303
 20
36.8102037918885
 30
0.0
 11
-393.10198471684
 21
37.0988771963868
 31
0.0
  0
LINE
  5
   63C
  8
0
  6
CONTINUOUS
 62
     1
 10
-393.101984166345
 20
36.9846968650817
 30
0.0
 11
-393.101984166345
 21
37.0988783836364
 31
0.0
  0
LINE
  5
   63D
  8
0
  6
CONTINUOUS
 62
     1
 10
-393.10198330301
 20
-33.9011197090149
 30
0.0
 11
-390.35198439412
 21
-33.9011197090149
 31
0.0
  0
LINE
  5
   63E
  8
0
  6
CONTINUOUS
 62
     1
 10
-393.101985144789
 20
-36.9011197090149
 30
0.0
 11
-390.35198439412
 21
-36.9011197090149
 31
0.0
  0
LINE
  5
   63F
  8
0
  6
CONTINUOUS
 62
     1
 10
-393.101984257141
 20
-34.0153012275696
 30
0.0
 11
-393.101984257141
 21
-33.9011197090149
 31
0.0
  0
LINE
  5
   640
  8
0
  6
CONTINUOUS
 62
     1
 10
-393.601984559791
 20
-34.1897957173683
 30
0.0
 11
-393.101984543326
 21
-33.9011204251118
 31
0.0
  0
LINE
  5
   641
  8
0
  6
CONTINUOUS
 62
     1
 10
-393.101984279405
 20
-34.3404603004456
 30
0.0
 11
-393.101984279405
 21
-34.0153012275696
 31
0.0
  0
LINE
  5
   642
  8
0
  6
CONTINUOUS
 62
     1
 10
-393.10198428444
 20
-34.8270936012268
 30
0.0
 11
-393.10198428444
 21
-34.3404603004456
 31
0.0
  0
LINE
  5
   643
  8
0
  6
CONTINUOUS
 62
     1
 10
-393.101984287253
 20
-35.4011197090149
 30
0.0
 11
-393.101984287253
 21
-34.8270936012268
 31
0.0
  0
LINE
  5
   644
  8
0
  6
CONTINUOUS
 62
     1
 10
-393.101984289662
 20
-35.9751439094544
 30
0.0
 11
-393.101984289662
 21
-35.4011197090149
 31
0.0
  0
LINE
  5
   645
  8
0
  6
CONTINUOUS
 62
     1
 10
-393.101984292238
 20
-36.4617791175842
 30
0.0
 11
-393.101984292238
 21
-35.9751439094543
 31
0.0
  0
LINE
  5
   646
  8
0
  6
CONTINUOUS
 62
     1
 10
-393.101984296847
 20
-36.7869381904602
 30
0.0
 11
-393.101984296847
 21
-36.4617791175842
 31
0.0
  0
LINE
  5
   647
  8
0
  6
CONTINUOUS
 62
     1
 10
-393.101984316134
 20
-36.9011197090149
 30
0.0
 11
-393.101984316134
 21
-36.7869381904602
 31
0.0
  0
LINE
  5
   648
  8
0
  6
CONTINUOUS
 62
     1
 10
-393.601984098209
 20
-36.6124450305079
 30
0.0
 11
-393.101984081744
 21
-36.9011203227644
 31
0.0
  0
LINE
  5
   649
  8
0
  6
CONTINUOUS
 62
     1
 10
-389.60198439412
 20
40.8488783836365
 30
0.0
 11
-389.10198439412
 21
40.8488783836365
 31
0.0
  0
LINE
  5
   64A
  8
0
  6
CONTINUOUS
 62
     7
 10
-390.35198439412
 20
40.8488783836365
 30
0.0
 11
-390.35198439412
 21
76.2531740008605
 31
0.0
  0
LINE
  5
   64B
  8
0
  6
CONTINUOUS
 62
     7
 10
-391.35198439412
 20
26.5988802909851
 30
0.0
 11
-391.35198439412
 21
34.0988783836365
 31
0.0
  0
LINE
  5
   64C
  8
0
  6
CONTINUOUS
 62
     7
 10
-390.35198439412
 20
-63.1375553254869
 30
0.0
 11
-390.35198439412
 21
-40.6511197090149
 31
0.0
  0
LINE
  5
   64D
  8
0
  6
CONTINUOUS
 62
     7
 10
-391.35198439412
 20
-63.8571814937112
 30
0.0
 11
-391.35198439412
 21
-36.9011197090149
 31
0.0
  0
LINE
  5
   64E
  8
0
  6
CONTINUOUS
 62
     3
 10
-393.237065346917
 20
-65.2137350765648
 30
0.0
 11
-388.375105079149
 21
-61.7149412390124
 31
0.0
  0
LINE
  5
   64F
  8
0
  6
CONTINUOUS
 62
     3
 10
-393.736893037995
 20
77.873301215023
 30
0.0
 11
-388.420543960156
 21
75.3287238786213
 31
0.0
  0
LINE
  5
   650
  8
0
  6
CONTINUOUS
 62
     7
 10
-391.35198439412
 20
37.3488783836365
 30
0.0
 11
-390.35198439412
 21
37.3488783836365
 31
0.0
  0
LINE
  5
   651
  8
0
  6
CONTINUOUS
 62
     7
 10
-391.35198439412
 20
33.8488783836365
 30
0.0
 11
-390.35198439412
 21
33.8488783836365
 31
0.0
  0
LINE
  5
   652
  8
0
  6
CONTINUOUS
 62
     7
 10
-391.35198439412
 20
28.0988783836365
 30
0.0
 11
-390.35198439412
 21
28.0988783836365
 31
0.0
  0
LINE
  5
   653
  8
0
  6
CONTINUOUS
 62
     7
 10
-391.35198439412
 20
-27.9011197090149
 30
0.0
 11
-390.35198439412
 21
-27.9011197090149
 31
0.0
  0
LINE
  5
   654
  8
0
  6
CONTINUOUS
 62
     7
 10
-391.35198439412
 20
-33.6511197090149
 30
0.0
 11
-390.35198439412
 21
-33.6511197090149
 31
0.0
  0
LINE
  5
   655
  8
0
  6
CONTINUOUS
 62
     7
 10
-391.35198439412
 20
-37.1511197090149
 30
0.0
 11
-390.35198439412
 21
-37.1511197090149
 31
0.0
  0
LINE
  5
   656
  8
0
  6
CONTINUOUS
 62
     7
 10
-391.35198439412
 20
-33.9011197090149
 30
0.0
 11
-391.35198439412
 21
-27.4011197090149
 31
0.0
  0
LINE
  5
   657
  8
0
  6
CONTINUOUS
 62
     7
 10
-391.35198439412
 20
37.0988783836365
 30
0.0
 11
-391.35198439412
 21
76.7318064794929
 31
0.0
  0
INSERT
  5
   658
  8
0
  6
CONTINUOUS
 62
     7
  2
*HATCH271
 10
-443.852569580078
 20
-5.02611970901489
 30
0.0
 41
0.5
 42
0.5
 43
0.5
  0
INSERT
  5
   659
  8
0
  6
CONTINUOUS
 62
     7
  2
*HATCH272
 10
-443.852569580078
 20
-5.02611970901489
 30
0.0
 41
0.5
 42
0.5
 43
0.5
  0
INSERT
  5
   65A
  8
0
  6
CONTINUOUS
 62
     7
  2
*HATCH273
 10
-443.852569580078
 20
-5.02611970901489
 30
0.0
 41
0.5
 42
0.5
 43
0.5
  0
INSERT
  5
   65B
  8
0
  6
CONTINUOUS
 62
     7
  2
*HATCH274
 10
-443.852569580078
 20
-5.02611970901489
 30
0.0
 41
0.5
 42
0.5
 43
0.5
  0
LINE
  5
   65C
  8
0
  6
DASHDOT
 62
     7
 10
-455.191918552744
 20
0.098880290985103
 30
0.0
 11
-374.249244420765
 21
0.098880290985103
 31
0.0
  0
LINE
  5
   65D
  8
0
  6
DASHDOT
 62
     7
 10
-500.202806477301
 20
0.098880290985103
 30
0.0
 11
-485.86493190802
 21
0.098880290985103
 31
0.0
  0
LINE
  5
   65E
  8
0
  6
CONTINUOUS
 62
     3
 10
-420.42896818508
 20
-28.0345163192923
 30
0.0
 11
-418.650180060825
 21
-42.7391648131376
 31
0.0
  0
INSERT
  5
   65F
  8
0
  6
CONTINUOUS
 62
     7
  2
*HATCH275
 10
-443.852569580078
 20
-5.02611970901489
 30
0.0
 41
0.5
 42
0.5
 43
0.5
  0
LINE
  5
   660
  8
0
  6
CONTINUOUS
 62
     7
 10
-443.852568626404
 20
-41.2761134999882
 30
0.0
 11
-443.102568626406
 21
-41.2761134999882
 31
0.0
  0
LINE
  5
   661
  8
0
  6
CONTINUOUS
 62
     3
 10
-411.771832893455
 20
31.6030809110999
 30
0.0
 11
-411.035034126577
 21
45.249875462836
 31
0.0
  0
LINE
  5
   662
  8
0
  6
CONTINUOUS
 62
     3
 10
-426.110812401008
 20
31.6030809110999
 30
0.0
 11
-411.771832893455
 21
31.6030809110999
 31
0.0
  0
LINE
  5
   663
  8
0
  6
CONTINUOUS
 62
     3
 10
-426.110812401008
 20
28.6911029097815
 30
0.0
 11
-426.110812401008
 21
31.6030809110999
 31
0.0
  0
LINE
  5
   664
  8
0
  6
CONTINUOUS
 62
     7
 10
-432.352569103241
 20
-39.0261134999883
 30
0.0
 11
-432.352569103241
 21
-36.5261197090149
 31
0.0
  0
LINE
  5
   665
  8
0
  6
CONTINUOUS
 62
     2
 10
-432.852568626404
 20
39.0988802909851
 30
0.0
 11
-429.352568626404
 21
39.0988802909851
 31
0.0
  0
LINE
  5
   666
  8
0
  6
CONTINUOUS
 62
     2
 10
-432.352568626404
 20
34.8488802909851
 30
0.0
 11
-429.352568626404
 21
34.8488802909851
 31
0.0
  0
LINE
  5
   667
  8
0
  6
CONTINUOUS
 62
     7
 10
-434.852568626404
 20
40.2238800525665
 30
0.0
 11
-434.852568626404
 21
41.4738802909851
 31
0.0
  0
LINE
  5
   668
  8
0
  6
CONTINUOUS
 62
     2
 10
-433.852568626404
 20
43.7238796138702
 30
0.0
 11
-433.852568626404
 21
44.4738796138702
 31
0.0
  0
LINE
  5
   669
  8
0
  6
CONTINUOUS
 62
     2
 10
-435.352568626404
 20
43.7238796138225
 30
0.0
 11
-433.852568626404
 21
43.7238796138225
 31
0.0
  0
LINE
  5
   66A
  8
0
  6
CONTINUOUS
 62
     2
 10
-435.352568626404
 20
44.9738795757294
 30
0.0
 11
-434.352568626404
 21
44.9738795757294
 31
0.0
  0
LINE
  5
   66B
  8
0
  6
CONTINUOUS
 62
     2
 10
-443.102568626404
 20
31.9738793373108
 30
0.0
 11
-442.352568626404
 21
31.9738793373108
 31
0.0
  0
LINE
  5
   66C
  8
0
  6
CONTINUOUS
 62
     2
 10
-443.102568626404
 20
44.9738795757294
 30
0.0
 11
-435.352568626404
 21
44.9738795757294
 31
0.0
  0
LINE
  5
   66D
  8
0
  6
CONTINUOUS
 62
     2
 10
-443.102568626404
 20
31.9738795757294
 30
0.0
 11
-443.102568626404
 21
44.9738795757294
 31
0.0
  0
LINE
  5
   66E
  8
0
  6
CONTINUOUS
 62
     2
 10
-435.352568626404
 20
43.7238796138537
 30
0.0
 11
-435.352568626404
 21
44.9738796138537
 31
0.0
  0
LINE
  5
   66F
  8
0
  6
CONTINUOUS
 62
     2
 10
-435.645462036133
 20
42.1238796710968
 30
0.0
 11
-435.352568626404
 21
42.1238796710968
 31
0.0
  0
LINE
  5
   670
  8
0
  6
CONTINUOUS
 62
     2
 10
-435.352568626404
 20
41.2238800525665
 30
0.0
 11
-435.352568626404
 21
43.7238795757294
 31
0.0
  0
LINE
  5
   671
  8
0
  6
CONTINUOUS
 62
     2
 10
-436.186611175537
 20
42.3238795995712
 30
0.0
 11
-435.845461845398
 21
42.3238795995712
 31
0.0
  0
LINE
  5
   672
  8
0
  6
CONTINUOUS
 62
     2
 10
-435.845461496872
 20
42.3238794277569
 30
0.0
 11
-435.645461689164
 21
42.1238795020376
 31
0.0
  0
LINE
  5
   673
  8
0
  6
CONTINUOUS
 62
     2
 10
-442.352568605877
 20
31.9738794891149
 30
0.0
 11
-435.352568668323
 21
43.7238792096065
 31
0.0
  0
LINE
  5
   674
  8
0
  6
CONTINUOUS
 62
     2
 10
-435.102568626404
 20
32.7238802909851
 30
0.0
 11
-435.102568626404
 21
41.2238802909851
 31
0.0
  0
LINE
  5
   675
  8
0
  6
CONTINUOUS
 62
     2
 10
-434.352568266561
 20
44.9738794975025
 30
0.0
 11
-433.852568283675
 21
44.4738795567637
 31
0.0
  0
LINE
  5
   676
  8
0
  6
CONTINUOUS
 62
   210
 10
-434.852568626404
 20
33.7238802909851
 30
0.0
 11
-434.852568626404
 21
40.2238802909851
 31
0.0
  0
LINE
  5
   677
  8
0
  6
CONTINUOUS
 62
     1
 10
-394.102568164468
 20
45.4738798141479
 30
0.0
 11
-394.102568164468
 21
46.4738798141479
 31
0.0
  0
LINE
  5
   678
  8
0
  6
CONTINUOUS
 62
     1
 10
-444.602568164468
 20
46.4738798141479
 30
0.0
 11
-432.352568626404
 21
46.4738798141479
 31
0.0
  0
LINE
  5
   679
  8
0
  6
CONTINUOUS
 62
     1
 10
-444.602568164468
 20
45.4738798141479
 30
0.0
 11
-444.602568164468
 21
46.4738798141479
 31
0.0
  0
LINE
  5
   67A
  8
0
  6
CONTINUOUS
 62
     1
 10
-444.102568149567
 20
44.9738798141479
 30
0.0
 11
-443.102568626404
 21
44.9738798141479
 31
0.0
  0
LINE
  5
   67B
  8
0
  6
CONTINUOUS
 62
     1
 10
-434.352568626404
 20
44.9738798141479
 30
0.0
 11
-432.352568626404
 21
44.9738798141479
 31
0.0
  0
LINE
  5
   67C
  8
0
  6
CONTINUOUS
 62
     1
 10
-434.477568626404
 20
42.3238795995712
 30
0.0
 11
-432.352568626404
 21
42.3238795995712
 31
0.0
  0
LINE
  5
   67D
  8
0
  6
CONTINUOUS
 62
     1
 10
-434.977568626404
 20
40.7238795757294
 30
0.0
 11
-434.852568626404
 21
40.7238795757294
 31
0.0
  0
LINE
  5
   67E
  8
0
  6
CONTINUOUS
 62
     1
 10
-429.227568626404
 20
40.7238795757294
 30
0.0
 11
-429.227568626404
 21
44.9738795757294
 31
0.0
  0
LINE
  5
   67F
  8
0
  6
CONTINUOUS
 62
     1
 10
-434.977568626404
 20
40.7238796502352
 30
0.0
 11
-434.977568626404
 21
43.7238796502352
 31
0.0
  0
LINE
  5
   680
  8
0
  6
CONTINUOUS
 62
     1
 10
-444.602568164468
 20
46.4738798141479
 30
0.0
 11
-444.602568164468
 21
122.473888902796
 31
0.0
  0
LINE
  5
   681
  8
0
  6
CONTINUOUS
 62
     1
 10
-394.102568164468
 20
46.4738798141479
 30
0.0
 11
-394.102568164468
 21
122.473888902796
 31
0.0
  0
LINE
  5
   682
  8
0
  6
CONTINUOUS
 62
     1
 10
-429.72756885274
 20
42.3238795995712
 30
0.0
 11
-429.227569030942
 21
41.8238797777736
 31
0.0
  0
LINE
  5
   683
  8
0
  6
CONTINUOUS
 62
     1
 10
-434.977568850815
 20
41.8238795681238
 30
0.0
 11
-434.477568867929
 21
42.3238795510095
 31
0.0
  0
LINE
  5
   684
  8
0
  6
CONTINUOUS
 62
     1
 10
-394.602568797696
 20
44.9738795745482
 30
0.0
 11
-394.10256881481
 21
45.4738795574339
 31
0.0
  0
LINE
  5
   685
  8
0
  6
CONTINUOUS
 62
     1
 10
-444.602568143075
 20
45.4738797670837
 30
0.0
 11
-444.102568160189
 21
44.973879784198
 31
0.0
  0
LINE
  5
   686
  8
0
  6
CONTINUOUS
 62
     2
 10
-443.102568626404
 20
44.473879635334
 30
0.0
 11
-435.352568626404
 21
44.473879635334
 31
0.0
  0
LINE
  5
   687
  8
0
  6
CONTINUOUS
 62
     2
 10
-443.102568626404
 20
32.4738793373108
 30
0.0
 11
-442.054696321487
 21
32.4738793373108
 31
0.0
  0
LINE
  5
   688
  8
0
  6
CONTINUOUS
 62
     2
 10
-441.905759572983
 20
32.7238802909851
 30
0.0
 11
-435.102568387985
 21
32.7238802909851
 31
0.0
  0
LINE
  5
   689
  8
0
  6
CONTINUOUS
 62
     2
 10
-436.841930389404
 20
41.2238800525665
 30
0.0
 11
-435.102568626404
 21
41.2238800525665
 31
0.0
  0
LINE
  5
   68A
  8
0
  6
CONTINUOUS
 62
   210
 10
-435.102568626404
 20
40.2238800525665
 30
0.0
 11
-434.852568626404
 21
40.2238800525665
 31
0.0
  0
LINE
  5
   68B
  8
0
  6
CONTINUOUS
 62
   210
 10
-435.102568626404
 20
33.7238802909851
 30
0.0
 11
-434.852568626404
 21
33.7238802909851
 31
0.0
  0
LINE
  5
   68C
  8
0
  6
CONTINUOUS
 62
     1
 10
-429.352568626404
 20
40.7238795757294
 30
0.0
 11
-429.227568626404
 21
40.7238795757294
 31
0.0
  0
INSERT
  5
   68D
  8
0
  6
CONTINUOUS
 62
     2
  2
*HATCH276
 10
-443.852569580078
 20
-5.02611970901489
 30
0.0
 41
0.5
 42
0.5
 43
0.5
  0
INSERT
  5
   68E
  8
0
  6
CONTINUOUS
 62
     2
  2
*HATCH277
 10
-443.852569580078
 20
-5.02611970901489
 30
0.0
 41
0.5
 42
0.5
 43
0.5
  0
LINE
  5
   68F
  8
0
  6
CONTINUOUS
 62
     1
 10
-429.852568626404
 20
46.4738798141479
 30
0.0
 11
-394.102568164468
 21
46.4738798141479
 31
0.0
  0
LINE
  5
   690
  8
0
  6
CONTINUOUS
 62
     1
 10
-429.852568626404
 20
44.9738798141479
 30
0.0
 11
-394.602568558096
 21
44.9738798141479
 31
0.0
  0
LINE
  5
   691
  8
0
  6
CONTINUOUS
 62
     2
 10
-394.102568625808
 20
32.0988802909851
 30
0.0
 11
-394.102568625808
 21
44.3488802909851
 31
0.0
  0
ARC
  5
   692
  8
0
  6
CONTINUOUS
 62
     2
 10
-394.727568625808
 20
44.3488802909851
 30
0.0
 40
0.625
 50
0.0
 51
90.0
  0
LINE
  5
   693
  8
0
  6
CONTINUOUS
 62
     2
 10
-394.602568625807
 20
32.0988802909851
 30
0.0
 11
-394.102568625808
 21
32.0988802909851
 31
0.0
  0
LINE
  5
   694
  8
0
  6
CONTINUOUS
 62
     2
 10
-394.602568625807
 20
31.5988802909851
 30
0.0
 11
-394.602568625807
 21
32.0988802909851
 31
0.0
  0
LINE
  5
   695
  8
0
  6
CONTINUOUS
 62
     7
 10
-429.352568626404
 20
32.4738802909851
 30
0.0
 11
-429.352568626404
 21
41.4738802909851
 31
0.0
  0
LINE
  5
   696
  8
0
  6
CONTINUOUS
 62
     7
 10
-429.852568626404
 20
41.4738802909851
 30
0.0
 11
-429.352568626404
 21
41.4738802909851
 31
0.0
  0
LINE
  5
   697
  8
0
  6
CONTINUOUS
 62
     7
 10
-429.852568626404
 20
32.4738802909851
 30
0.0
 11
-429.352568626404
 21
32.4738802909851
 31
0.0
  0
LINE
  5
   698
  8
0
  6
CONTINUOUS
 62
     2
 10
-433.852568626406
 20
-42.0261190319
 30
0.0
 11
-433.852568626406
 21
-41.2761190319
 31
0.0
  0
LINE
  5
   699
  8
0
  6
CONTINUOUS
 62
     2
 10
-435.352568626406
 20
-41.2761190318523
 30
0.0
 11
-433.852568626406
 21
-41.2761190318523
 31
0.0
  0
LINE
  5
   69A
  8
0
  6
CONTINUOUS
 62
     2
 10
-435.352568626406
 20
-42.5261189937592
 30
0.0
 11
-434.352568626406
 21
-42.5261189937592
 31
0.0
  0
LINE
  5
   69B
  8
0
  6
CONTINUOUS
 62
     2
 10
-443.102568626406
 20
-29.5261187553406
 30
0.0
 11
-442.352568626406
 21
-29.5261187553406
 31
0.0
  0
LINE
  5
   69C
  8
0
  6
CONTINUOUS
 62
     2
 10
-443.102568626406
 20
-42.5261189937592
 30
0.0
 11
-435.352568626406
 21
-42.5261189937592
 31
0.0
  0
LINE
  5
   69D
  8
0
  6
CONTINUOUS
 62
     2
 10
-443.102568626406
 20
-42.5261189937592
 30
0.0
 11
-443.102568626406
 21
-29.5261189937592
 31
0.0
  0
LINE
  5
   69E
  8
0
  6
CONTINUOUS
 62
     2
 10
-435.352568626406
 20
-42.5261190318835
 30
0.0
 11
-435.352568626406
 21
-41.2761190318835
 31
0.0
  0
LINE
  5
   69F
  8
0
  6
CONTINUOUS
 62
     2
 10
-435.645462036135
 20
-39.6761190891266
 30
0.0
 11
-435.352568626406
 21
-39.6761190891266
 31
0.0
  0
LINE
  5
   6A0
  8
0
  6
CONTINUOUS
 62
     2
 10
-435.352568626406
 20
-41.2761189937592
 30
0.0
 11
-435.352568626406
 21
-38.7761194705963
 31
0.0
  0
LINE
  5
   6A1
  8
0
  6
CONTINUOUS
 62
     2
 10
-436.18661117554
 20
-39.876119017601
 30
0.0
 11
-435.8454618454
 21
-39.876119017601
 31
0.0
  0
LINE
  5
   6A2
  8
0
  6
CONTINUOUS
 62
     2
 10
-435.845461496875
 20
-39.8761188457867
 30
0.0
 11
-435.645461689167
 21
-39.6761189200674
 31
0.0
  0
LINE
  5
   6A3
  8
0
  6
CONTINUOUS
 62
     2
 10
-442.35256860588
 20
-29.5261189071447
 30
0.0
 11
-435.352568668325
 21
-41.2761186276363
 31
0.0
  0
LINE
  5
   6A4
  8
0
  6
CONTINUOUS
 62
     2
 10
-435.102568626406
 20
-38.7761197090149
 30
0.0
 11
-435.102568626406
 21
-30.2761197090149
 31
0.0
  0
LINE
  5
   6A5
  8
0
  6
CONTINUOUS
 62
     2
 10
-434.352568266563
 20
-42.5261189155323
 30
0.0
 11
-433.852568283677
 21
-42.0261189747935
 31
0.0
  0
LINE
  5
   6A6
  8
0
  6
CONTINUOUS
 62
   210
 10
-434.852568626406
 20
-37.7761197090149
 30
0.0
 11
-434.852568626406
 21
-31.2761197090149
 31
0.0
  0
LINE
  5
   6A7
  8
0
  6
CONTINUOUS
 62
     2
 10
-443.102568626406
 20
-42.0261190533638
 30
0.0
 11
-435.352568626406
 21
-42.0261190533638
 31
0.0
  0
LINE
  5
   6A8
  8
0
  6
CONTINUOUS
 62
     2
 10
-443.102568626406
 20
-30.0261187553406
 30
0.0
 11
-442.05469632149
 21
-30.0261187553406
 31
0.0
  0
LINE
  5
   6A9
  8
0
  6
CONTINUOUS
 62
     2
 10
-441.905759572985
 20
-30.2761197090149
 30
0.0
 11
-435.102568387988
 21
-30.2761197090149
 31
0.0
  0
LINE
  5
   6AA
  8
0
  6
CONTINUOUS
 62
     2
 10
-436.841930389407
 20
-38.7761194705963
 30
0.0
 11
-435.102568626406
 21
-38.7761194705963
 31
0.0
  0
LINE
  5
   6AB
  8
0
  6
CONTINUOUS
 62
   210
 10
-435.102568626406
 20
-37.7761194705963
 30
0.0
 11
-434.852568626406
 21
-37.7761194705963
 31
0.0
  0
LINE
  5
   6AC
  8
0
  6
CONTINUOUS
 62
   210
 10
-435.102568626406
 20
-31.2761197090149
 30
0.0
 11
-434.852568626406
 21
-31.2761197090149
 31
0.0
  0
LINE
  5
   6AD
  8
0
  6
CONTINUOUS
 62
     7
 10
-435.352568626406
 20
-41.2761134999882
 30
0.0
 11
-407.852568626404
 21
-41.2761134999882
 31
0.0
  0
LINE
  5
   6AE
  8
0
  6
CONTINUOUS
 62
     7
 10
-429.852568626404
 20
-39.0261197090149
 30
0.0
 11
-429.352568626404
 21
-39.0261197090149
 31
0.0
  0
LINE
  5
   6AF
  8
0
  6
CONTINUOUS
 62
     7
 10
-429.352568626404
 20
-39.0261197090149
 30
0.0
 11
-429.352568626404
 21
-30.0261197090149
 31
0.0
  0
LINE
  5
   6B0
  8
0
  6
CONTINUOUS
 62
     7
 10
-429.852568626404
 20
-30.0261197090149
 30
0.0
 11
-429.352568626404
 21
-30.0261197090149
 31
0.0
  0
LINE
  5
   6B1
  8
0
  6
CONTINUOUS
 62
     7
 10
-429.852568626404
 20
-39.0261197090149
 30
0.0
 11
-429.852568626404
 21
-30.0261197090149
 31
0.0
  0
LINE
  5
   6B2
  8
0
  6
CONTINUOUS
 62
     7
 10
-432.352569103241
 20
-32.5261197090149
 30
0.0
 11
-432.352569103241
 21
-28.5261134999883
 31
0.0
  0
LINE
  5
   6B3
  8
0
  6
CONTINUOUS
 62
     7
 10
-433.352569103241
 20
-32.5261197090149
 30
0.0
 11
-433.352569103241
 21
-28.0345163192923
 31
0.0
  0
LINE
  5
   6B4
  8
0
  6
CONTINUOUS
 62
     1
 10
-429.152568626404
 20
-38.1211197090149
 30
0.0
 11
-429.152568626404
 21
-30.9311197090149
 31
0.0
  0
ARC
  5
   6B5
  8
0
  6
CONTINUOUS
 62
     1
 10
-427.975736436848
 20
-37.2223697090149
 30
0.0
 40
1.37316781044413
 50
319.1176078909
 51
400.8823921091
  0
ARC
  5
   6B6
  8
0
  6
CONTINUOUS
 62
     1
 10
-427.975736436848
 20
-31.8298697090149
 30
0.0
 40
1.37316781044413
 50
319.1176078909
 51
400.8823921091
  0
LINE
  5
   6B7
  8
0
  6
CONTINUOUS
 62
     1
 10
-429.152568626404
 20
-36.3236197090149
 30
0.0
 11
-426.910970869673
 21
-36.3236197090149
 31
0.0
  0
ARC
  5
   6B8
  8
0
  6
CONTINUOUS
 62
     1
 10
-431.995068626404
 20
-34.5261197090149
 30
0.0
 40
5.3925
 50
340.528779365509
 51
379.471220634491
  0
LINE
  5
   6B9
  8
0
  6
CONTINUOUS
 62
     1
 10
-429.152568626404
 20
-32.7286197090149
 30
0.0
 11
-426.910970869673
 21
-32.7286197090149
 31
0.0
  0
LINE
  5
   6BA
  8
0
  6
CONTINUOUS
 62
     1
 10
-429.152568626404
 20
-38.1211197090149
 30
0.0
 11
-426.937546534595
 21
-38.1211197090149
 31
0.0
  0
LINE
  5
   6BB
  8
0
  6
CONTINUOUS
 62
     1
 10
-429.152568626404
 20
-30.9311197090149
 30
0.0
 11
-426.937546534595
 21
-30.9311197090149
 31
0.0
  0
LINE
  5
   6BC
  8
0
  6
CONTINUOUS
 62
     1
 10
-429.352568626404
 20
-37.5761197090149
 30
0.0
 11
-429.152568626404
 21
-37.5761197090149
 31
0.0
  0
LINE
  5
   6BD
  8
0
  6
CONTINUOUS
 62
     1
 10
-429.352568626404
 20
-31.4761197090149
 30
0.0
 11
-429.152568626404
 21
-31.4761197090149
 31
0.0
  0
LINE
  5
   6BE
  8
0
  6
CONTINUOUS
 62
     7
 10
-434.852568626406
 20
-36.1427259590149
 30
0.0
 11
-430.602568626404
 21
-36.1427259590149
 31
0.0
  0
LINE
  5
   6BF
  8
0
  6
CONTINUOUS
 62
     7
 10
-434.852568626406
 20
-32.9095134590149
 30
0.0
 11
-430.602568626404
 21
-32.9095134590149
 31
0.0
  0
LINE
  5
   6C0
  8
0
  6
CONTINUOUS
 62
     1
 10
-434.852568626406
 20
-32.5261197090149
 30
0.0
 11
-429.852568626404
 21
-32.5261197090149
 31
0.0
  0
LINE
  5
   6C1
  8
0
  6
CONTINUOUS
 62
     1
 10
-434.852568626406
 20
-36.5261197090149
 30
0.0
 11
-429.852568626404
 21
-36.5261197090149
 31
0.0
  0
LINE
  5
   6C2
  8
0
  6
CONTINUOUS
 62
     1
 10
-430.602568626404
 20
-36.5261197090149
 30
0.0
 11
-430.602568626404
 21
-32.5261197090149
 31
0.0
  0
LINE
  5
   6C3
  8
0
  6
CONTINUOUS
 62
     1
 10
-429.352568626404
 20
-37.5761197090149
 30
0.0
 11
-429.352568626404
 21
-31.4761197090149
 31
0.0
  0
LINE
  5
   6C4
  8
0
  6
CONTINUOUS
 62
     1
 10
-426.602568626404
 20
-37.2223697090149
 30
0.0
 11
-426.602568626404
 21
-31.8298697090149
 31
0.0
  0
LINE
  5
   6C5
  8
0
  6
DASHDOT
 62
     7
 10
-436.352568626404
 20
-34.5261197090149
 30
0.0
 11
-424.602568626404
 21
-34.5261197090149
 31
0.0
  0
LINE
  5
   6C6
  8
0
  6
CONTINUOUS
 62
     1
 10
-429.152568626404
 20
33.3788802909851
 30
0.0
 11
-429.152568626404
 21
40.5688802909851
 31
0.0
  0
ARC
  5
   6C7
  8
0
  6
CONTINUOUS
 62
     1
 10
-427.975736436848
 20
34.2776302909851
 30
0.0
 40
1.37316781044413
 50
319.1176078909
 51
400.8823921091
  0
ARC
  5
   6C8
  8
0
  6
CONTINUOUS
 62
     1
 10
-427.975736436848
 20
39.6701302909851
 30
0.0
 40
1.37316781044413
 50
319.1176078909
 51
400.8823921091
  0
LINE
  5
   6C9
  8
0
  6
CONTINUOUS
 62
     1
 10
-429.152568626404
 20
35.1763802909851
 30
0.0
 11
-426.910970869673
 21
35.1763802909851
 31
0.0
  0
ARC
  5
   6CA
  8
0
  6
CONTINUOUS
 62
     1
 10
-431.995068626404
 20
36.9738802909851
 30
0.0
 40
5.3925
 50
340.528779365509
 51
379.471220634491
  0
LINE
  5
   6CB
  8
0
  6
CONTINUOUS
 62
     1
 10
-429.152568626404
 20
38.7713802909851
 30
0.0
 11
-426.910970869673
 21
38.7713802909851
 31
0.0
  0
LINE
  5
   6CC
  8
0
  6
CONTINUOUS
 62
     1
 10
-429.152568626404
 20
33.3788802909851
 30
0.0
 11
-426.937546534595
 21
33.3788802909851
 31
0.0
  0
LINE
  5
   6CD
  8
0
  6
CONTINUOUS
 62
     1
 10
-429.152568626404
 20
40.5688802909851
 30
0.0
 11
-426.937546534595
 21
40.5688802909851
 31
0.0
  0
LINE
  5
   6CE
  8
0
  6
CONTINUOUS
 62
     1
 10
-429.352568626404
 20
33.9238802909851
 30
0.0
 11
-429.152568626404
 21
33.9238802909851
 31
0.0
  0
LINE
  5
   6CF
  8
0
  6
CONTINUOUS
 62
     1
 10
-429.352568626404
 20
40.0238802909851
 30
0.0
 11
-429.152568626404
 21
40.0238802909851
 31
0.0
  0
LINE
  5
   6D0
  8
0
  6
CONTINUOUS
 62
     7
 10
-434.852568626404
 20
35.3572740409851
 30
0.0
 11
-430.602568626404
 21
35.3572740409851
 31
0.0
  0
LINE
  5
   6D1
  8
0
  6
CONTINUOUS
 62
     7
 10
-434.852568626404
 20
38.5904865409851
 30
0.0
 11
-430.602568626404
 21
38.5904865409851
 31
0.0
  0
LINE
  5
   6D2
  8
0
  6
CONTINUOUS
 62
     1
 10
-434.852568626404
 20
38.9738802909851
 30
0.0
 11
-429.352568626404
 21
38.9738802909851
 31
0.0
  0
LINE
  5
   6D3
  8
0
  6
CONTINUOUS
 62
     1
 10
-434.852568626404
 20
34.9738802909851
 30
0.0
 11
-429.352568626404
 21
34.9738802909851
 31
0.0
  0
LINE
  5
   6D4
  8
0
  6
CONTINUOUS
 62
     1
 10
-430.602568626404
 20
34.9738802909851
 30
0.0
 11
-430.602568626404
 21
38.9738802909851
 31
0.0
  0
LINE
  5
   6D5
  8
0
  6
CONTINUOUS
 62
     1
 10
-429.352568626404
 20
33.9238802909851
 30
0.0
 11
-429.352568626404
 21
40.0238802909851
 31
0.0
  0
LINE
  5
   6D6
  8
0
  6
CONTINUOUS
 62
     1
 10
-426.602568626404
 20
34.2776302909851
 30
0.0
 11
-426.602568626404
 21
39.6701302909851
 31
0.0
  0
LINE
  5
   6D7
  8
0
  6
DASHDOT
 62
     7
 10
-436.352568626404
 20
36.9738802909851
 30
0.0
 11
-424.602568626404
 21
36.9738802909851
 31
0.0
  0
LINE
  5
   6D8
  8
0
  6
CONTINUOUS
 62
     2
 10
-432.852568626404
 20
38.9738802909851
 30
0.0
 11
-432.852568626404
 21
41.9738802909852
 31
0.0
  0
LINE
  5
   6D9
  8
0
  6
CONTINUOUS
 62
     2
 10
-432.852568626404
 20
31.9738802909851
 30
0.0
 11
-432.852568626404
 21
34.9738802909851
 31
0.0
  0
LINE
  5
   6DA
  8
0
  6
DASHDOT
 62
     7
 10
-454.219950365372
 20
35.9738802909851
 30
0.0
 11
-442.489797474497
 21
35.9738802909851
 31
0.0
  0
LINE
  5
   6DB
  8
0
  6
CONTINUOUS
 62
     7
 10
-448.352568626404
 20
33.9738802909851
 30
0.0
 11
-448.352568626404
 21
37.9738802909851
 31
0.0
  0
LINE
  5
   6DC
  8
0
  6
CONTINUOUS
 62
     7
 10
-448.352568626404
 20
33.9738802909851
 30
0.0
 11
-446.352568626404
 21
33.9738802909851
 31
0.0
  0
LINE
  5
   6DD
  8
0
  6
CONTINUOUS
 62
     7
 10
-448.352568626404
 20
37.9738802909851
 30
0.0
 11
-446.352568626404
 21
37.9738802909851
 31
0.0
  0
LINE
  5
   6DE
  8
0
  6
CONTINUOUS
 62
     7
 10
-450.352568626404
 20
34.7238802909851
 30
0.0
 11
-450.352568626404
 21
37.2238802909851
 31
0.0
  0
LINE
  5
   6DF
  8
0
  6
CONTINUOUS
 62
     7
 10
-450.352568626404
 20
37.2238802909851
 30
0.0
 11
-446.352568626404
 21
37.2238802909851
 31
0.0
  0
LINE
  5
   6E0
  8
0
  6
CONTINUOUS
 62
     7
 10
-450.352568626404
 20
34.7238802909851
 30
0.0
 11
-446.352568626404
 21
34.7238802909851
 31
0.0
  0
LINE
  5
   6E1
  8
0
  6
CONTINUOUS
 62
     7
 10
-448.352568626404
 20
-31.5261197090149
 30
0.0
 11
-446.352568626404
 21
-31.5261197090149
 31
0.0
  0
LINE
  5
   6E2
  8
0
  6
CONTINUOUS
 62
     7
 10
-450.352568626404
 20
-32.2761197090149
 30
0.0
 11
-446.352568626404
 21
-32.2761197090149
 31
0.0
  0
LINE
  5
   6E3
  8
0
  6
DASHDOT
 62
     7
 10
-454.219950365372
 20
-33.5261197090149
 30
0.0
 11
-442.489797474497
 21
-33.5261197090149
 31
0.0
  0
LINE
  5
   6E4
  8
0
  6
CONTINUOUS
 62
     7
 10
-450.352568626404
 20
-34.7761197090149
 30
0.0
 11
-446.352568626404
 21
-34.7761197090149
 31
0.0
  0
LINE
  5
   6E5
  8
0
  6
CONTINUOUS
 62
     7
 10
-448.352568626404
 20
-35.5261197090149
 30
0.0
 11
-446.352568626404
 21
-35.5261197090149
 31
0.0
  0
LINE
  5
   6E6
  8
0
  6
CONTINUOUS
 62
     7
 10
-448.352568626404
 20
-35.5261197090149
 30
0.0
 11
-448.352568626404
 21
-31.5261197090149
 31
0.0
  0
LINE
  5
   6E7
  8
0
  6
CONTINUOUS
 62
     7
 10
-450.352568626404
 20
-34.7761197090149
 30
0.0
 11
-450.352568626404
 21
-32.2761197090149
 31
0.0
  0
LINE
  5
   6E8
  8
0
  6
CONTINUOUS
 62
     1
 10
-444.602568164468
 20
122.473888902796
 30
0.0
 11
-394.102568164468
 21
122.473888902796
 31
0.0
  0
LINE
  5
   6E9
  8
0
  6
DOT
 62
     7
 10
-444.602568164468
 20
103.97388890279
 30
0.0
 11
-394.102568164468
 21
103.97388890279
 31
0.0
  0
LINE
  5
   6EA
  8
0
  6
DOT
 62
     7
 10
-444.602568164468
 20
95.2238889027897
 30
0.0
 11
-394.102568164468
 21
95.2238889027897
 31
0.0
  0
INSERT
  5
   6EB
  8
0
  6
CONTINUOUS
 62
     5
  2
*UDIM401
 10
0.0
 20
0.0
 30
0.0
  0
INSERT
  5
   6EC
  8
0
  6
CONTINUOUS
 62
     7
  2
*UDIM402
 10
0.0
 20
0.0
 30
0.0
  0
LINE
  5
   6ED
  8
0
  6
CONTINUOUS
 62
     1
 10
-429.852568626404
 20
42.3238795995712
 30
0.0
 11
-429.72756885274
 21
42.3238795995712
 31
0.0
  0
INSERT
  5
   6EE
  8
0
  6
CONTINUOUS
 62
     2
  2
*UDIM403
 10
0.0
 20
0.0
 30
0.0
  0
INSERT
  5
   6EF
  8
0
  6
CONTINUOUS
 62
     7
  2
*UDIM404
 10
0.0
 20
0.0
 30
0.0
  0
INSERT
  5
   6F0
  8
0
  6
CONTINUOUS
 62
     7
  2
*UDIM405
 10
0.0
 20
0.0
 30
0.0
  0
INSERT
  5
   6F1
  8
0
  6
CONTINUOUS
 62
     7
  2
*UDIM406
 10
0.0
 20
0.0
 30
0.0
  0
TEXT
  5
   6F2
  8
0
  6
CONTINUOUS
 62
     5
 10
-364.379075363136
 20
-15.8017486249408
 30
0.0
 40
3.00000002980232
  1
=          =
 50
90.0
 41
0.916666604744064
 72
     2
 11
-364.379075363177
 21
16.6482495009899
 31
0.0
  0
INSERT
  5
   6F3
  8
0
  6
CONTINUOUS
 62
     7
  2
*UDIM407
 10
0.0
 20
0.0
 30
0.0
  0
INSERT
  5
   6F4
  8
0
  6
CONTINUOUS
 62
     7
  2
*UDIM408
 10
0.0
 20
0.0
 30
0.0
  0
TEXT
  5
   6F5
  8
0
  6
CONTINUOUS
 62
     7
 10
-361.151519596577
 20
-1.30468171218957
 30
0.0
 40
3.00000002980232
  1
X
 41
0.916666604744064
 72
     2
 11
-358.951519727707
 21
-1.30468171218957
 31
0.0
  0
INSERT
  5
   6F6
  8
0
  6
CONTINUOUS
 62
     7
  2
*UDIM409
 10
0.0
 20
0.0
 30
0.0
  0
INSERT
  5
   6F7
  8
0
  6
CONTINUOUS
 62
     7
  2
*UDIM410
 10
0.0
 20
0.0
 30
0.0
  0
INSERT
  5
   6F8
  8
0
  6
CONTINUOUS
 62
     7
  2
*UDIM411
 10
0.0
 20
0.0
 30
0.0
  0
INSERT
  5
   6F9
  8
0
  6
CONTINUOUS
 62
     7
  2
*UDIM412
 10
0.0
 20
0.0
 30
0.0
  0
INSERT
  5
   6FA
  8
0
  6
CONTINUOUS
 62
     7
  2
*UDIM413
 10
0.0
 20
0.0
 30
0.0
  0
INSERT
  5
   6FB
  8
0
  6
CONTINUOUS
 62
     7
  2
*UDIM414
 10
0.0
 20
0.0
 30
0.0
  0
INSERT
  5
   6FC
  8
0
  6
CONTINUOUS
 62
     7
  2
*UDIM415
 10
0.0
 20
0.0
 30
0.0
  0
ENDSEC
  0
EOF
