  0
SECTION
  2
HEADER
  9
$ACADVER
  1
AC1006
  9
$EXTMIN
 10
-5.303606
 20
-3.883197
  9
$EXTMAX
 10
5.700602
 20
3.873827
  9
$LTSCALE
 40
0.000394
  9
$PDMODE
 70
    35
  9
$PDSIZE
 40
0.000315
  0
ENDSEC
  0
SECTION
  2
TABLES
  0
TABLE
  2
LTYPE
 70
     9
  0
LTYPE
  2
CONTINUOUS
 70
    64
  3
Solid line
 72
    65
 73
     0
 40
0.000000
  0
LTYPE
  2
DASHED
 70
    64
  3
__ __ __ __ __ __ __ __ __ __ __ __ __ __ __
 72
    65
 73
     2
 40
0.000003
 49
0.000002
 49
-0.000001
  0
LTYPE
  2
HIDDEN
 70
    64
  3
 _ _ _ _ _ _ _ _ _ _ _ _ _ _ _ _ _ _ _ _ _ _
 72
    65
 73
     2
 40
0.000001
 49
0.000001
 49
-0.000000
  0
LTYPE
  2
CENTER
 70
    64
  3
____ _ ____ _ ____ _ ____ _ ____ _ ____ _ ____
 72
    65
 73
     4
 40
0.000008
 49
0.000005
 49
-0.000001
 49
0.000001
 49
-0.000001
  0
LTYPE
  2
PHANTOM
 70
    64
  3
_____ _ _ _____ _ _ _____ _ _ _____ _ _ ____
 72
    65
 73
     6
 40
0.000010
 49
0.000005
 49
-0.000001
 49
0.000001
 49
-0.000001
 49
0.000001
 49
-0.000001
  0
LTYPE
  2
DOT
 70
    64
  3
...............................................
 72
    65
 73
     2
 40
0.000001
 49
0.000000
 49
-0.000001
  0
LTYPE
  2
DASHDOT
 70
    64
  3
__ . __ . __ . __ . __ . __ . __ . __ . __ . __
 72
    65
 73
     4
 40
0.000004
 49
0.000002
 49
-0.000001
 49
0.000000
 49
-0.000001
  0
LTYPE
  2
BORDER
 70
    64
  3
__ __ . __ __ . __ __ . __ __ . __ __ . __ __
 72
    65
 73
     6
 40
0.000007
 49
0.000002
 49
-0.000001
 49
0.000002
 49
-0.000001
 49
0.000000
 49
-0.000001
  0
LTYPE
  2
DIVIDE
 70
    64
  3
__ . . __ . . __ . . __ . . __ . . __ . . __
 72
    65
 73
     6
 40
0.000005
 49
0.000002
 49
-0.000001
 49
0.000000
 49
-0.000001
 49
0.000000
 49
-0.000001
  0
LTYPE
  2
DOTDOT
 70
    64
  3
 . .  . .  . .  . .  . .  . . 
 72
    65
 73
     5
 40
0.000002
 49
-0.000001
 49
0.000000
 49
-0.000001
 49
0.000000
 49
-0.000001
  0
ENDTAB
  0
TABLE
  2
STYLE
 70
     2
  0
STYLE
 70
     0
  2
SN0
 40
0.000000
 41
0.000004
 50
0.000000
 71
     0
 42
0.000000
  3
Arial
  0
STYLE
 70
    68
  2
SV0
 40
0.000000
 41
0.000004
 50
0.000000
 71
     0
 42
0.000000
  3
Arial
  0
ENDTAB
  0
TABLE
  2
LAYER
 70
     5
  0
LAYER
  2
FOREGROUND
 70
    64
 62
     7
  6
CONTINUOUS
  0
LAYER
  2
BACKGROUND
 70
    65
 62
    -7
  6
CONTINUOUS
  0
LAYER
  2
LIVELLO_1
 70
    64
 62
     7
  6
CONTINUOUS
  0
LAYER
  2
0
 70
    64
 62
     7
  6
CONTINUOUS
  0
LAYER
  2
255
 70
    64
 62
     7
  6
CONTINUOUS
  0
ENDTAB
  0
ENDSEC
  0
SECTION
  2
ENTITIES
  0
POLYLINE
  8
0
 62
     1
  6
CONTINUOUS
 66
     1
 40
0.003150
 41
0.003150
  0
VERTEX
  8
0
 62
     1
  6
CONTINUOUS
 10
0.486807
 20
1.467492
  0
VERTEX
  8
0
 62
     1
  6
CONTINUOUS
 10
0.486807
 20
1.474776
  0
SEQEND
  8
0
  0
POLYLINE
  8
0
 62
     1
  6
CONTINUOUS
 66
     1
 40
0.003150
 41
0.003150
  0
VERTEX
  8
0
 62
     1
  6
CONTINUOUS
 10
0.486807
 20
1.693248
  0
VERTEX
  8
0
 62
     1
  6
CONTINUOUS
 10
0.486807
 20
1.984539
  0
SEQEND
  8
0
  0
POLYLINE
  8
0
 62
     1
  6
CONTINUOUS
 66
     1
 40
0.003150
 41
0.003150
  0
VERTEX
  8
0
 62
     1
  6
CONTINUOUS
 10
0.523217
 20
1.474776
  0
VERTEX
  8
0
 62
     1
  6
CONTINUOUS
 10
0.523217
 20
1.693248
  0
SEQEND
  8
0
  0
POLYLINE
  8
0
 62
     1
  6
CONTINUOUS
 66
     1
 40
0.003150
 41
0.003150
  0
VERTEX
  8
0
 62
     1
  6
CONTINUOUS
 10
0.523217
 20
1.474776
  0
VERTEX
  8
0
 62
     1
  6
CONTINUOUS
 10
0.486807
 20
1.474776
  0
SEQEND
  8
0
  0
POLYLINE
  8
0
 62
     1
  6
CONTINUOUS
 66
     1
 40
0.003150
 41
0.003150
  0
VERTEX
  8
0
 62
     1
  6
CONTINUOUS
 10
0.523217
 20
1.693248
  0
VERTEX
  8
0
 62
     1
  6
CONTINUOUS
 10
0.486807
 20
1.693248
  0
SEQEND
  8
0
  0
POLYLINE
  8
0
 62
     1
  6
CONTINUOUS
 66
     1
 40
0.003150
 41
0.003150
  0
VERTEX
  8
0
 62
     1
  6
CONTINUOUS
 10
0.523217
 20
1.984539
  0
VERTEX
  8
0
 62
     1
  6
CONTINUOUS
 10
0.523217
 20
2.203004
  0
SEQEND
  8
0
  0
POLYLINE
  8
0
 62
     1
  6
CONTINUOUS
 66
     1
 40
0.003150
 41
0.003150
  0
VERTEX
  8
0
 62
     1
  6
CONTINUOUS
 10
0.523217
 20
1.984539
  0
VERTEX
  8
0
 62
     1
  6
CONTINUOUS
 10
0.486807
 20
1.984539
  0
SEQEND
  8
0
  0
POLYLINE
  8
0
 62
     1
  6
CONTINUOUS
 66
     1
 40
0.003150
 41
0.003150
  0
VERTEX
  8
0
 62
     1
  6
CONTINUOUS
 10
0.523217
 20
2.203004
  0
VERTEX
  8
0
 62
     1
  6
CONTINUOUS
 10
0.486807
 20
2.203004
  0
SEQEND
  8
0
  0
POLYLINE
  8
0
 62
     1
  6
CONTINUOUS
 66
     1
 40
0.003150
 41
0.003150
  0
VERTEX
  8
0
 62
     1
  6
CONTINUOUS
 10
1.484476
 20
1.467492
  0
VERTEX
  8
0
 62
     1
  6
CONTINUOUS
 10
1.484476
 20
2.268547
  0
SEQEND
  8
0
  0
POLYLINE
  8
0
 62
     1
  6
CONTINUOUS
 66
     1
 40
0.003150
 41
0.003150
  0
VERTEX
  8
0
 62
     1
  6
CONTINUOUS
 10
0.486807
 20
2.261264
  0
VERTEX
  8
0
 62
     1
  6
CONTINUOUS
 10
0.486807
 20
2.561508
  0
SEQEND
  8
0
  0
POLYLINE
  8
0
 62
     1
  6
CONTINUOUS
 66
     1
 40
0.003150
 41
0.003150
  0
VERTEX
  8
0
 62
     1
  6
CONTINUOUS
 10
1.535453
 20
2.523429
  0
VERTEX
  8
0
 62
     1
  6
CONTINUOUS
 10
1.484476
 20
2.523429
  0
SEQEND
  8
0
  0
POLYLINE
  8
0
 62
     1
  6
CONTINUOUS
 66
     1
 40
0.003150
 41
0.003150
  0
VERTEX
  8
0
 62
     1
  6
CONTINUOUS
 10
1.484476
 20
2.268547
  0
VERTEX
  8
0
 62
     1
  6
CONTINUOUS
 10
1.484476
 20
2.523429
  0
SEQEND
  8
0
  0
POLYLINE
  8
0
 62
     1
  6
CONTINUOUS
 66
     1
 40
0.003150
 41
0.003150
  0
VERTEX
  8
0
 62
     1
  6
CONTINUOUS
 10
0.545059
 20
2.297673
  0
VERTEX
  8
0
 62
     1
  6
CONTINUOUS
 10
0.486807
 20
2.297673
  0
SEQEND
  8
0
  0
POLYLINE
  8
0
 62
     1
  6
CONTINUOUS
 66
     1
 40
0.003150
 41
0.003150
  0
VERTEX
  8
0
 62
     1
  6
CONTINUOUS
 10
0.545059
 20
2.297673
  0
VERTEX
  8
0
 62
     1
  6
CONTINUOUS
 10
0.545059
 20
2.326933
  0
SEQEND
  8
0
  0
POLYLINE
  8
0
 62
     1
  6
CONTINUOUS
 66
     1
 40
0.003150
 41
0.003150
  0
VERTEX
  8
0
 62
     1
  6
CONTINUOUS
 10
1.484476
 20
1.329130
  0
VERTEX
  8
0
 62
     1
  6
CONTINUOUS
 10
1.484476
 20
1.467492
  0
SEQEND
  8
0
  0
POLYLINE
  8
0
 62
     1
  6
CONTINUOUS
 66
     1
 40
0.003150
 41
0.003150
  0
VERTEX
  8
0
 62
     1
  6
CONTINUOUS
 10
0.486807
 20
0.440689
  0
VERTEX
  8
0
 62
     1
  6
CONTINUOUS
 10
0.486807
 20
0.444972
  0
SEQEND
  8
0
  0
POLYLINE
  8
0
 62
     1
  6
CONTINUOUS
 66
     1
 40
0.003150
 41
0.003150
  0
VERTEX
  8
0
 62
     1
  6
CONTINUOUS
 10
0.486807
 20
0.669437
  0
VERTEX
  8
0
 62
     1
  6
CONTINUOUS
 10
0.486807
 20
1.467492
  0
SEQEND
  8
0
  0
POLYLINE
  8
0
 62
     1
  6
CONTINUOUS
 66
     1
 40
0.003150
 41
0.003150
  0
VERTEX
  8
0
 62
     1
  6
CONTINUOUS
 10
1.520894
 20
0.637311
  0
VERTEX
  8
0
 62
     1
  6
CONTINUOUS
 10
0.530500
 20
0.637311
  0
SEQEND
  8
0
  0
POLYLINE
  8
0
 62
     1
  6
CONTINUOUS
 66
     1
 40
0.003150
 41
0.003150
  0
VERTEX
  8
0
 62
     1
  6
CONTINUOUS
 10
1.520894
 20
0.477098
  0
VERTEX
  8
0
 62
     1
  6
CONTINUOUS
 10
0.530500
 20
0.477098
  0
SEQEND
  8
0
  0
POLYLINE
  8
0
 62
     1
  6
CONTINUOUS
 66
     1
 40
0.003150
 41
0.003150
  0
VERTEX
  8
0
 62
     1
  6
CONTINUOUS
 10
0.606697
 20
0.637311
  0
VERTEX
  8
0
 62
     1
  6
CONTINUOUS
 10
0.486807
 20
0.669437
  0
SEQEND
  8
0
  0
POLYLINE
  8
0
 62
     1
  6
CONTINUOUS
 66
     1
 40
0.003150
 41
0.003150
  0
VERTEX
  8
0
 62
     1
  6
CONTINUOUS
 10
0.486807
 20
0.444972
  0
VERTEX
  8
0
 62
     1
  6
CONTINUOUS
 10
0.606697
 20
0.477098
  0
SEQEND
  8
0
  0
POLYLINE
  8
0
 62
     1
  6
CONTINUOUS
 66
     1
 40
0.003150
 41
0.003150
  0
VERTEX
  8
0
 62
     1
  6
CONTINUOUS
 10
1.535453
 20
0.681004
  0
VERTEX
  8
0
 62
     1
  6
CONTINUOUS
 10
1.418941
 20
0.681004
  0
SEQEND
  8
0
  0
POLYLINE
  8
0
 62
     1
  6
CONTINUOUS
 66
     1
 40
0.003150
 41
0.003150
  0
VERTEX
  8
0
 62
     1
  6
CONTINUOUS
 10
1.418941
 20
0.681004
  0
VERTEX
  8
0
 62
     1
  6
CONTINUOUS
 10
1.418941
 20
1.300004
  0
SEQEND
  8
0
  0
POLYLINE
  8
0
 62
     1
  6
CONTINUOUS
 66
     1
 40
0.003150
 41
0.003150
  0
VERTEX
  8
0
 62
     1
  6
CONTINUOUS
 10
0.501366
 20
0.564492
  0
VERTEX
  8
0
 62
     1
  6
CONTINUOUS
 10
0.501366
 20
0.665539
  0
SEQEND
  8
0
  0
POLYLINE
  8
0
 62
     1
  6
CONTINUOUS
 66
     1
 40
0.003150
 41
0.003150
  0
VERTEX
  8
0
 62
     1
  6
CONTINUOUS
 10
0.501366
 20
0.448878
  0
VERTEX
  8
0
 62
     1
  6
CONTINUOUS
 10
0.501366
 20
0.462539
  0
SEQEND
  8
0
  0
POLYLINE
  8
0
 62
     1
  6
CONTINUOUS
 66
     1
 40
0.003150
 41
0.003150
  0
VERTEX
  8
0
 62
     1
  6
CONTINUOUS
 10
0.486807
 20
0.681004
  0
VERTEX
  8
0
 62
     1
  6
CONTINUOUS
 10
0.457673
 20
0.681004
  0
SEQEND
  8
0
  0
POLYLINE
  8
0
 62
     1
  6
CONTINUOUS
 66
     1
 40
0.003150
 41
0.003150
  0
VERTEX
  8
0
 62
     1
  6
CONTINUOUS
 10
0.486807
 20
0.761114
  0
VERTEX
  8
0
 62
     1
  6
CONTINUOUS
 10
0.457673
 20
0.761114
  0
SEQEND
  8
0
  0
POLYLINE
  8
0
 62
     1
  6
CONTINUOUS
 66
     1
 40
0.003150
 41
0.003150
  0
VERTEX
  8
0
 62
     1
  6
CONTINUOUS
 10
1.535453
 20
0.462539
  0
VERTEX
  8
0
 62
     1
  6
CONTINUOUS
 10
1.520894
 20
0.477106
  0
SEQEND
  8
0
  0
POLYLINE
  8
0
 62
     1
  6
CONTINUOUS
 66
     1
 40
0.003150
 41
0.003150
  0
VERTEX
  8
0
 62
     1
  6
CONTINUOUS
 10
1.520894
 20
0.637311
  0
VERTEX
  8
0
 62
     1
  6
CONTINUOUS
 10
1.535453
 20
0.651878
  0
SEQEND
  8
0
  0
POLYLINE
  8
0
 62
     1
  6
CONTINUOUS
 66
     1
 40
0.003150
 41
0.003150
  0
VERTEX
  8
0
 62
     1
  6
CONTINUOUS
 10
1.484476
 20
1.300004
  0
VERTEX
  8
0
 62
     1
  6
CONTINUOUS
 10
1.484476
 20
1.329130
  0
SEQEND
  8
0
  0
POLYLINE
  8
0
 62
     1
  6
CONTINUOUS
 66
     1
 40
0.003150
 41
0.003150
  0
VERTEX
  8
0
 62
     1
  6
CONTINUOUS
 10
0.515933
 20
0.178531
  0
VERTEX
  8
0
 62
     1
  6
CONTINUOUS
 10
0.457673
 20
0.178531
  0
SEQEND
  8
0
  0
POLYLINE
  8
0
 62
     1
  6
CONTINUOUS
 66
     1
 40
0.003150
 41
0.003150
  0
VERTEX
  8
0
 62
     1
  6
CONTINUOUS
 10
0.486807
 20
0.382429
  0
VERTEX
  8
0
 62
     1
  6
CONTINUOUS
 10
0.486807
 20
0.440689
  0
SEQEND
  8
0
  0
POLYLINE
  8
0
 62
     1
  6
CONTINUOUS
 66
     1
 40
0.003150
 41
0.003150
  0
VERTEX
  8
0
 62
     1
  6
CONTINUOUS
 10
1.535453
 20
0.251350
  0
VERTEX
  8
0
 62
     1
  6
CONTINUOUS
 10
1.389807
 20
0.251350
  0
SEQEND
  8
0
  0
POLYLINE
  8
0
 62
     1
  6
CONTINUOUS
 66
     1
 40
0.003150
 41
0.003150
  0
VERTEX
  8
0
 62
     1
  6
CONTINUOUS
 10
1.389807
 20
0.178531
  0
VERTEX
  8
0
 62
     1
  6
CONTINUOUS
 10
1.389807
 20
0.251350
  0
SEQEND
  8
0
  0
POLYLINE
  8
0
 62
     1
  6
CONTINUOUS
 66
     1
 40
0.003150
 41
0.003150
  0
VERTEX
  8
0
 62
     1
  6
CONTINUOUS
 10
0.486807
 20
0.214941
  0
VERTEX
  8
0
 62
     1
  6
CONTINUOUS
 10
0.486807
 20
0.382429
  0
SEQEND
  8
0
  0
POLYLINE
  8
0
 62
     1
  6
CONTINUOUS
 66
     1
 40
0.003150
 41
0.003150
  0
VERTEX
  8
0
 62
     1
  6
CONTINUOUS
 10
0.486807
 20
2.261264
  0
VERTEX
  8
0
 62
     1
  6
CONTINUOUS
 10
0.479524
 20
2.261264
  0
SEQEND
  8
0
  0
POLYLINE
  8
0
 62
     1
  6
CONTINUOUS
 66
     1
 40
0.003150
 41
0.003150
  0
VERTEX
  8
0
 62
     1
  6
CONTINUOUS
 10
0.486807
 20
1.234461
  0
VERTEX
  8
0
 62
     1
  6
CONTINUOUS
 10
0.479524
 20
1.234461
  0
SEQEND
  8
0
  0
POLYLINE
  8
0
 62
     1
  6
CONTINUOUS
 66
     1
 40
0.003150
 41
0.003150
  0
VERTEX
  8
0
 62
     1
  6
CONTINUOUS
 10
0.486807
 20
0.768398
  0
VERTEX
  8
0
 62
     1
  6
CONTINUOUS
 10
0.479524
 20
0.768398
  0
SEQEND
  8
0
  0
POLYLINE
  8
0
 62
     1
  6
CONTINUOUS
 66
     1
 40
0.003150
 41
0.003150
  0
VERTEX
  8
0
 62
     1
  6
CONTINUOUS
 10
0.501366
 20
0.659161
  0
VERTEX
  8
0
 62
     1
  6
CONTINUOUS
 10
0.479524
 20
0.659161
  0
SEQEND
  8
0
  0
POLYLINE
  8
0
 62
     1
  6
CONTINUOUS
 66
     1
 40
0.003150
 41
0.003150
  0
VERTEX
  8
0
 62
     1
  6
CONTINUOUS
 10
0.486807
 20
0.426130
  0
VERTEX
  8
0
 62
     1
  6
CONTINUOUS
 10
0.479524
 20
0.426130
  0
SEQEND
  8
0
  0
POLYLINE
  8
0
 62
     1
  6
CONTINUOUS
 66
     1
 40
0.003150
 41
0.003150
  0
VERTEX
  8
0
 62
     1
  6
CONTINUOUS
 10
0.479524
 20
0.228051
  0
VERTEX
  8
0
 62
     1
  6
CONTINUOUS
 10
0.479524
 20
0.681004
  0
SEQEND
  8
0
  0
POLYLINE
  8
0
 62
     1
  6
CONTINUOUS
 66
     1
 40
0.003150
 41
0.003150
  0
VERTEX
  8
0
 62
     1
  6
CONTINUOUS
 10
0.479524
 20
0.761114
  0
VERTEX
  8
0
 62
     1
  6
CONTINUOUS
 10
0.479524
 20
2.261264
  0
SEQEND
  8
0
  0
POLYLINE
  8
0
 62
     1
  6
CONTINUOUS
 66
     1
 40
0.003150
 41
0.003150
  0
VERTEX
  8
0
 62
     1
  6
CONTINUOUS
 10
0.501366
 20
1.984539
  0
VERTEX
  8
0
 62
     1
  6
CONTINUOUS
 10
0.501366
 20
2.203004
  0
SEQEND
  8
0
  0
POLYLINE
  8
0
 62
     1
  6
CONTINUOUS
 66
     1
 40
0.003150
 41
0.003150
  0
VERTEX
  8
0
 62
     1
  6
CONTINUOUS
 10
0.501366
 20
1.474776
  0
VERTEX
  8
0
 62
     1
  6
CONTINUOUS
 10
0.501366
 20
1.693248
  0
SEQEND
  8
0
  0
POLYLINE
  8
0
 62
     1
  6
CONTINUOUS
 66
     1
 40
0.003150
 41
0.003150
  0
VERTEX
  8
0
 62
     1
  6
CONTINUOUS
 10
0.501366
 20
0.462539
  0
VERTEX
  8
0
 62
     1
  6
CONTINUOUS
 10
0.501366
 20
0.564492
  0
SEQEND
  8
0
  0
POLYLINE
  8
0
 62
     1
  6
CONTINUOUS
 66
     1
 40
0.003150
 41
0.003150
  0
VERTEX
  8
0
 62
     1
  6
CONTINUOUS
 10
0.485350
 20
0.222224
  0
VERTEX
  8
0
 62
     1
  6
CONTINUOUS
 10
0.479524
 20
0.228051
  0
SEQEND
  8
0
  0
POLYLINE
  8
0
 62
     1
  6
CONTINUOUS
 66
     1
 40
0.003150
 41
0.003150
  0
VERTEX
  8
0
 62
     1
  6
CONTINUOUS
 10
0.486807
 20
2.615350
  0
VERTEX
  8
0
 62
     1
  6
CONTINUOUS
 10
0.457673
 20
2.615350
  0
SEQEND
  8
0
  0
POLYLINE
  8
0
 62
     1
  6
CONTINUOUS
 66
     1
 40
0.003150
 41
0.003150
  0
VERTEX
  8
0
 62
     1
  6
CONTINUOUS
 10
0.486807
 20
2.561508
  0
VERTEX
  8
0
 62
     1
  6
CONTINUOUS
 10
0.457673
 20
2.561508
  0
SEQEND
  8
0
  0
POLYLINE
  8
0
 62
     1
  6
CONTINUOUS
 66
     1
 40
0.003150
 41
0.003150
  0
VERTEX
  8
0
 62
     1
  6
CONTINUOUS
 10
1.491760
 20
1.511185
  0
VERTEX
  8
0
 62
     1
  6
CONTINUOUS
 10
1.491760
 20
2.304957
  0
SEQEND
  8
0
  0
POLYLINE
  8
0
 62
     1
  6
CONTINUOUS
 66
     1
 40
0.003150
 41
0.003150
  0
VERTEX
  8
0
 62
     1
  6
CONTINUOUS
 10
1.899571
 20
2.537996
  0
VERTEX
  8
0
 62
     1
  6
CONTINUOUS
 10
1.899571
 20
2.887539
  0
SEQEND
  8
0
  0
POLYLINE
  8
0
 62
     1
  6
CONTINUOUS
 66
     1
 40
0.003150
 41
0.003150
  0
VERTEX
  8
0
 62
     1
  6
CONTINUOUS
 10
1.899571
 20
2.537996
  0
VERTEX
  8
0
 62
     1
  6
CONTINUOUS
 10
1.892287
 20
2.537996
  0
SEQEND
  8
0
  0
POLYLINE
  8
0
 62
     1
  6
CONTINUOUS
 66
     1
 40
0.003150
 41
0.003150
  0
VERTEX
  8
0
 62
     1
  6
CONTINUOUS
 10
1.892287
 20
2.530713
  0
VERTEX
  8
0
 62
     1
  6
CONTINUOUS
 10
1.892287
 20
2.537996
  0
SEQEND
  8
0
  0
POLYLINE
  8
0
 62
     1
  6
CONTINUOUS
 66
     1
 40
0.003150
 41
0.003150
  0
VERTEX
  8
0
 62
     1
  6
CONTINUOUS
 10
1.535453
 20
2.516146
  0
VERTEX
  8
0
 62
     1
  6
CONTINUOUS
 10
1.535453
 20
2.530713
  0
SEQEND
  8
0
  0
POLYLINE
  8
0
 62
     1
  6
CONTINUOUS
 66
     1
 40
0.003150
 41
0.003150
  0
VERTEX
  8
0
 62
     1
  6
CONTINUOUS
 10
1.535453
 20
2.846760
  0
VERTEX
  8
0
 62
     1
  6
CONTINUOUS
 10
1.535453
 20
2.887539
  0
SEQEND
  8
0
  0
POLYLINE
  8
0
 62
     1
  6
CONTINUOUS
 66
     1
 40
0.003150
 41
0.003150
  0
VERTEX
  8
0
 62
     1
  6
CONTINUOUS
 10
1.899571
 20
2.887547
  0
VERTEX
  8
0
 62
     1
  6
CONTINUOUS
 10
1.535453
 20
2.887547
  0
SEQEND
  8
0
  0
POLYLINE
  8
0
 62
     1
  6
CONTINUOUS
 66
     1
 40
0.003150
 41
0.003150
  0
VERTEX
  8
0
 62
     1
  6
CONTINUOUS
 10
1.863161
 20
2.530713
  0
VERTEX
  8
0
 62
     1
  6
CONTINUOUS
 10
1.858791
 20
2.530713
  0
SEQEND
  8
0
  0
POLYLINE
  8
0
 62
     1
  6
CONTINUOUS
 66
     1
 40
0.003150
 41
0.003150
  0
VERTEX
  8
0
 62
     1
  6
CONTINUOUS
 10
1.535453
 20
2.516146
  0
VERTEX
  8
0
 62
     1
  6
CONTINUOUS
 10
1.491760
 20
2.516146
  0
SEQEND
  8
0
  0
POLYLINE
  8
0
 62
     1
  6
CONTINUOUS
 66
     1
 40
0.003150
 41
0.003150
  0
VERTEX
  8
0
 62
     1
  6
CONTINUOUS
 10
1.491760
 20
2.304957
  0
VERTEX
  8
0
 62
     1
  6
CONTINUOUS
 10
1.491760
 20
2.516146
  0
SEQEND
  8
0
  0
POLYLINE
  8
0
 62
     1
  6
CONTINUOUS
 66
     1
 40
0.003150
 41
0.003150
  0
VERTEX
  8
0
 62
     1
  6
CONTINUOUS
 10
1.535453
 20
0.265917
  0
VERTEX
  8
0
 62
     1
  6
CONTINUOUS
 10
1.535453
 20
0.371894
  0
SEQEND
  8
0
  0
POLYLINE
  8
0
 62
     1
  6
CONTINUOUS
 66
     1
 40
0.003150
 41
0.003150
  0
VERTEX
  8
0
 62
     1
  6
CONTINUOUS
 10
1.491760
 20
1.336413
  0
VERTEX
  8
0
 62
     1
  6
CONTINUOUS
 10
1.491760
 20
1.511185
  0
SEQEND
  8
0
  0
POLYLINE
  8
0
 62
     1
  6
CONTINUOUS
 66
     1
 40
0.003150
 41
0.003150
  0
VERTEX
  8
0
 62
     1
  6
CONTINUOUS
 10
1.491760
 20
1.300004
  0
VERTEX
  8
0
 62
     1
  6
CONTINUOUS
 10
1.477193
 20
1.300004
  0
SEQEND
  8
0
  0
POLYLINE
  8
0
 62
     1
  6
CONTINUOUS
 66
     1
 40
0.003150
 41
0.003150
  0
VERTEX
  8
0
 62
     1
  6
CONTINUOUS
 10
1.858791
 20
0.222224
  0
VERTEX
  8
0
 62
     1
  6
CONTINUOUS
 10
1.535453
 20
0.222224
  0
SEQEND
  8
0
  0
POLYLINE
  8
0
 62
     1
  6
CONTINUOUS
 66
     1
 40
0.003150
 41
0.003150
  0
VERTEX
  8
0
 62
     1
  6
CONTINUOUS
 10
1.535453
 20
0.222224
  0
VERTEX
  8
0
 62
     1
  6
CONTINUOUS
 10
1.535453
 20
0.265917
  0
SEQEND
  8
0
  0
POLYLINE
  8
0
 62
     1
  6
CONTINUOUS
 66
     1
 40
0.003150
 41
0.003150
  0
VERTEX
  8
0
 62
     1
  6
CONTINUOUS
 10
1.535453
 20
0.371894
  0
VERTEX
  8
0
 62
     1
  6
CONTINUOUS
 10
1.535453
 20
0.473461
  0
SEQEND
  8
0
  0
POLYLINE
  8
0
 62
     1
  6
CONTINUOUS
 66
     1
 40
0.003150
 41
0.003150
  0
VERTEX
  8
0
 62
     1
  6
CONTINUOUS
 10
1.863161
 20
0.178531
  0
VERTEX
  8
0
 62
     1
  6
CONTINUOUS
 10
1.863161
 20
0.222224
  0
SEQEND
  8
0
  0
POLYLINE
  8
0
 62
     1
  6
CONTINUOUS
 66
     1
 40
0.003150
 41
0.003150
  0
VERTEX
  8
0
 62
     1
  6
CONTINUOUS
 10
1.863161
 20
0.222224
  0
VERTEX
  8
0
 62
     1
  6
CONTINUOUS
 10
1.858791
 20
0.222224
  0
SEQEND
  8
0
  0
POLYLINE
  8
0
 62
     1
  6
CONTINUOUS
 66
     1
 40
0.003150
 41
0.003150
  0
VERTEX
  8
0
 62
     1
  6
CONTINUOUS
 10
1.477193
 20
1.300004
  0
VERTEX
  8
0
 62
     1
  6
CONTINUOUS
 10
1.418941
 20
1.300004
  0
SEQEND
  8
0
  0
POLYLINE
  8
0
 62
     1
  6
CONTINUOUS
 66
     1
 40
0.003150
 41
0.003150
  0
VERTEX
  8
0
 62
     1
  6
CONTINUOUS
 10
1.491760
 20
1.300004
  0
VERTEX
  8
0
 62
     1
  6
CONTINUOUS
 10
1.491760
 20
1.336413
  0
SEQEND
  8
0
  0
POLYLINE
  8
0
 62
     1
  6
CONTINUOUS
 66
     1
 40
0.003150
 41
0.003150
  0
VERTEX
  8
0
 62
     1
  6
CONTINUOUS
 10
1.858791
 20
0.473461
  0
VERTEX
  8
0
 62
     1
  6
CONTINUOUS
 10
1.535453
 20
0.473461
  0
SEQEND
  8
0
  0
POLYLINE
  8
0
 62
     1
  6
CONTINUOUS
 66
     1
 40
0.003150
 41
0.003150
  0
VERTEX
  8
0
 62
     1
  6
CONTINUOUS
 10
1.858791
 20
0.640957
  0
VERTEX
  8
0
 62
     1
  6
CONTINUOUS
 10
1.535453
 20
0.640957
  0
SEQEND
  8
0
  0
POLYLINE
  8
0
 62
     1
  6
CONTINUOUS
 66
     1
 40
0.003150
 41
0.003150
  0
VERTEX
  8
0
 62
     1
  6
CONTINUOUS
 10
1.554374
 20
0.276839
  0
VERTEX
  8
0
 62
     1
  6
CONTINUOUS
 10
1.557303
 20
0.287760
  0
SEQEND
  8
0
  0
POLYLINE
  8
0
 62
     1
  6
CONTINUOUS
 66
     1
 40
0.003150
 41
0.003150
  0
VERTEX
  8
0
 62
     1
  6
CONTINUOUS
 10
1.546374
 20
0.268846
  0
VERTEX
  8
0
 62
     1
  6
CONTINUOUS
 10
1.554374
 20
0.276839
  0
SEQEND
  8
0
  0
POLYLINE
  8
0
 62
     1
  6
CONTINUOUS
 66
     1
 40
0.003150
 41
0.003150
  0
VERTEX
  8
0
 62
     1
  6
CONTINUOUS
 10
1.535453
 20
0.265917
  0
VERTEX
  8
0
 62
     1
  6
CONTINUOUS
 10
1.546374
 20
0.268846
  0
SEQEND
  8
0
  0
POLYLINE
  8
0
 62
     1
  6
CONTINUOUS
 66
     1
 40
0.003150
 41
0.003150
  0
VERTEX
  8
0
 62
     1
  6
CONTINUOUS
 10
1.546374
 20
0.437768
  0
VERTEX
  8
0
 62
     1
  6
CONTINUOUS
 10
1.535453
 20
0.440689
  0
SEQEND
  8
0
  0
POLYLINE
  8
0
 62
     1
  6
CONTINUOUS
 66
     1
 40
0.003150
 41
0.003150
  0
VERTEX
  8
0
 62
     1
  6
CONTINUOUS
 10
1.554374
 20
0.429768
  0
VERTEX
  8
0
 62
     1
  6
CONTINUOUS
 10
1.546374
 20
0.437760
  0
SEQEND
  8
0
  0
POLYLINE
  8
0
 62
     1
  6
CONTINUOUS
 66
     1
 40
0.003150
 41
0.003150
  0
VERTEX
  8
0
 62
     1
  6
CONTINUOUS
 10
1.557303
 20
0.418846
  0
VERTEX
  8
0
 62
     1
  6
CONTINUOUS
 10
1.554374
 20
0.429768
  0
SEQEND
  8
0
  0
POLYLINE
  8
0
 62
     1
  6
CONTINUOUS
 66
     1
 40
0.003150
 41
0.003150
  0
VERTEX
  8
0
 62
     1
  6
CONTINUOUS
 10
1.557303
 20
0.287760
  0
VERTEX
  8
0
 62
     1
  6
CONTINUOUS
 10
1.557303
 20
0.418846
  0
SEQEND
  8
0
  0
POLYLINE
  8
0
 62
     1
  6
CONTINUOUS
 66
     1
 40
0.003150
 41
0.003150
  0
VERTEX
  8
0
 62
     1
  6
CONTINUOUS
 10
1.858791
 20
0.222224
  0
VERTEX
  8
0
 62
     1
  6
CONTINUOUS
 10
1.858791
 20
2.530713
  0
SEQEND
  8
0
  0
POLYLINE
  8
0
 62
     1
  6
CONTINUOUS
 66
     1
 40
0.003150
 41
0.003150
  0
VERTEX
  8
0
 62
     1
  6
CONTINUOUS
 10
1.858791
 20
2.846760
  0
VERTEX
  8
0
 62
     1
  6
CONTINUOUS
 10
0.969768
 20
2.846760
  0
SEQEND
  8
0
  0
POLYLINE
  8
0
 62
     1
  6
CONTINUOUS
 66
     1
 40
0.003150
 41
0.003150
  0
VERTEX
  8
0
 62
     1
  6
CONTINUOUS
 10
1.858791
 20
2.530713
  0
VERTEX
  8
0
 62
     1
  6
CONTINUOUS
 10
1.858791
 20
2.846760
  0
SEQEND
  8
0
  0
POLYLINE
  8
0
 62
     1
  6
CONTINUOUS
 66
     1
 40
0.003150
 41
0.003150
  0
VERTEX
  8
0
 62
     1
  6
CONTINUOUS
 10
1.535453
 20
2.530713
  0
VERTEX
  8
0
 62
     1
  6
CONTINUOUS
 10
1.535453
 20
2.846760
  0
SEQEND
  8
0
  0
POLYLINE
  8
0
 62
     1
  6
CONTINUOUS
 66
     1
 40
0.003150
 41
0.003150
  0
VERTEX
  8
0
 62
     1
  6
CONTINUOUS
 10
1.863161
 20
0.062012
  0
VERTEX
  8
0
 62
     1
  6
CONTINUOUS
 10
1.863161
 20
0.222224
  0
SEQEND
  8
0
  0
POLYLINE
  8
0
 62
     1
  6
CONTINUOUS
 66
     1
 40
0.003150
 41
0.003150
  0
VERTEX
  8
0
 62
     1
  6
CONTINUOUS
 10
1.935980
 20
0.062012
  0
VERTEX
  8
0
 62
     1
  6
CONTINUOUS
 10
1.935980
 20
0.298689
  0
SEQEND
  8
0
  0
POLYLINE
  8
0
 62
     1
  6
CONTINUOUS
 66
     1
 40
0.003150
 41
0.003150
  0
VERTEX
  8
0
 62
     1
  6
CONTINUOUS
 10
1.935980
 20
1.827972
  0
VERTEX
  8
0
 62
     1
  6
CONTINUOUS
 10
1.935980
 20
2.530713
  0
SEQEND
  8
0
  0
POLYLINE
  8
0
 62
     1
  6
CONTINUOUS
 66
     1
 40
0.003150
 41
0.003150
  0
VERTEX
  8
0
 62
     1
  6
CONTINUOUS
 10
1.935980
 20
2.530713
  0
VERTEX
  8
0
 62
     1
  6
CONTINUOUS
 10
1.863161
 20
2.530713
  0
SEQEND
  8
0
  0
POLYLINE
  8
0
 62
     1
  6
CONTINUOUS
 66
     1
 40
0.003150
 41
0.003150
  0
VERTEX
  8
0
 62
     1
  6
CONTINUOUS
 10
1.935980
 20
0.062012
  0
VERTEX
  8
0
 62
     1
  6
CONTINUOUS
 10
1.863161
 20
0.062012
  0
SEQEND
  8
0
  0
POLYLINE
  8
0
 62
     1
  6
CONTINUOUS
 66
     1
 40
0.003150
 41
0.003150
  0
VERTEX
  8
0
 62
     1
  6
CONTINUOUS
 10
1.965114
 20
0.298689
  0
VERTEX
  8
0
 62
     1
  6
CONTINUOUS
 10
1.935980
 20
0.298689
  0
SEQEND
  8
0
  0
POLYLINE
  8
0
 62
     1
  6
CONTINUOUS
 66
     1
 40
0.003150
 41
0.003150
  0
VERTEX
  8
0
 62
     1
  6
CONTINUOUS
 10
1.965114
 20
1.827972
  0
VERTEX
  8
0
 62
     1
  6
CONTINUOUS
 10
1.935980
 20
1.827972
  0
SEQEND
  8
0
  0
POLYLINE
  8
0
 62
     1
  6
CONTINUOUS
 66
     1
 40
0.003150
 41
0.003150
  0
VERTEX
  8
0
 62
     1
  6
CONTINUOUS
 10
1.858791
 20
0.648965
  0
VERTEX
  8
0
 62
     1
  6
CONTINUOUS
 10
1.863161
 20
0.649343
  0
SEQEND
  8
0
  0
POLYLINE
  8
0
 62
     1
  6
CONTINUOUS
 66
     1
 40
0.003150
 41
0.003150
  0
VERTEX
  8
0
 62
     1
  6
CONTINUOUS
 10
1.863161
 20
0.465067
  0
VERTEX
  8
0
 62
     1
  6
CONTINUOUS
 10
1.858791
 20
0.465453
  0
SEQEND
  8
0
  0
POLYLINE
  8
0
 62
     1
  6
CONTINUOUS
 66
     1
 40
0.003150
 41
0.003150
  0
VERTEX
  8
0
 62
     1
  6
CONTINUOUS
 10
1.535453
 20
0.640957
  0
VERTEX
  8
0
 62
     1
  6
CONTINUOUS
 10
1.535453
 20
0.681004
  0
SEQEND
  8
0
  0
POLYLINE
  8
0
 62
     1
  6
CONTINUOUS
 66
     1
 40
0.003150
 41
0.003150
  0
VERTEX
  8
0
 62
     1
  6
CONTINUOUS
 10
1.858791
 20
-0.771075
  0
VERTEX
  8
0
 62
     1
  6
CONTINUOUS
 10
0.486807
 20
-0.771075
  0
SEQEND
  8
0
  0
POLYLINE
  8
0
 62
     1
  6
CONTINUOUS
 66
     1
 40
0.003150
 41
0.003150
  0
VERTEX
  8
0
 62
     1
  6
CONTINUOUS
 10
0.515933
 20
0.214941
  0
VERTEX
  8
0
 62
     1
  6
CONTINUOUS
 10
0.457673
 20
0.214941
  0
SEQEND
  8
0
  0
POLYLINE
  8
0
 62
     1
  6
CONTINUOUS
 66
     1
 40
0.003150
 41
0.003150
  0
VERTEX
  8
0
 62
     1
  6
CONTINUOUS
 10
1.858791
 20
0.214941
  0
VERTEX
  8
0
 62
     1
  6
CONTINUOUS
 10
1.608280
 20
0.214941
  0
SEQEND
  8
0
  0
POLYLINE
  8
0
 62
     1
  6
CONTINUOUS
 66
     1
 40
0.003150
 41
0.003150
  0
VERTEX
  8
0
 62
     1
  6
CONTINUOUS
 10
1.899571
 20
-0.811854
  0
VERTEX
  8
0
 62
     1
  6
CONTINUOUS
 10
1.899571
 20
-0.462303
  0
SEQEND
  8
0
  0
POLYLINE
  8
0
 62
     1
  6
CONTINUOUS
 66
     1
 40
0.003150
 41
0.003150
  0
VERTEX
  8
0
 62
     1
  6
CONTINUOUS
 10
0.515933
 20
0.178531
  0
VERTEX
  8
0
 62
     1
  6
CONTINUOUS
 10
0.515933
 20
0.214941
  0
SEQEND
  8
0
  0
POLYLINE
  8
0
 62
     1
  6
CONTINUOUS
 66
     1
 40
0.003150
 41
0.003150
  0
VERTEX
  8
0
 62
     1
  6
CONTINUOUS
 10
1.858791
 20
-0.404051
  0
VERTEX
  8
0
 62
     1
  6
CONTINUOUS
 10
1.863161
 20
-0.404051
  0
SEQEND
  8
0
  0
POLYLINE
  8
0
 62
     1
  6
CONTINUOUS
 66
     1
 40
0.003150
 41
0.003150
  0
VERTEX
  8
0
 62
     1
  6
CONTINUOUS
 10
1.899571
 20
-0.462303
  0
VERTEX
  8
0
 62
     1
  6
CONTINUOUS
 10
1.858791
 20
-0.462303
  0
SEQEND
  8
0
  0
POLYLINE
  8
0
 62
     1
  6
CONTINUOUS
 66
     1
 40
0.003150
 41
0.003150
  0
VERTEX
  8
0
 62
     1
  6
CONTINUOUS
 10
1.858791
 20
-0.771075
  0
VERTEX
  8
0
 62
     1
  6
CONTINUOUS
 10
1.858791
 20
-0.404051
  0
SEQEND
  8
0
  0
POLYLINE
  8
0
 62
     1
  6
CONTINUOUS
 66
     1
 40
0.003150
 41
0.003150
  0
VERTEX
  8
0
 62
     1
  6
CONTINUOUS
 10
1.858791
 20
-0.404051
  0
VERTEX
  8
0
 62
     1
  6
CONTINUOUS
 10
1.858791
 20
0.214941
  0
SEQEND
  8
0
  0
POLYLINE
  8
0
 62
     1
  6
CONTINUOUS
 66
     1
 40
0.003150
 41
0.003150
  0
VERTEX
  8
0
 62
     1
  6
CONTINUOUS
 10
1.863161
 20
0.047445
  0
VERTEX
  8
0
 62
     1
  6
CONTINUOUS
 10
1.858791
 20
0.047445
  0
SEQEND
  8
0
  0
POLYLINE
  8
0
 62
     1
  6
CONTINUOUS
 66
     1
 40
0.003150
 41
0.003150
  0
VERTEX
  8
0
 62
     1
  6
CONTINUOUS
 10
0.457673
 20
-0.316657
  0
VERTEX
  8
0
 62
     1
  6
CONTINUOUS
 10
0.486807
 20
-0.316657
  0
SEQEND
  8
0
  0
POLYLINE
  8
0
 62
     1
  6
CONTINUOUS
 66
     1
 40
0.003150
 41
0.003150
  0
VERTEX
  8
0
 62
     1
  6
CONTINUOUS
 10
0.486807
 20
-0.848272
  0
VERTEX
  8
0
 62
     1
  6
CONTINUOUS
 10
0.486807
 20
-0.316657
  0
SEQEND
  8
0
  0
POLYLINE
  8
0
 62
     1
  6
CONTINUOUS
 66
     1
 40
0.003150
 41
0.003150
  0
VERTEX
  8
0
 62
     1
  6
CONTINUOUS
 10
2.411602
 20
0.739421
  0
VERTEX
  8
0
 62
     1
  6
CONTINUOUS
 10
2.411753
 20
0.740333
  0
VERTEX
  8
0
 62
     1
  6
CONTINUOUS
 10
2.411851
 20
0.741310
  0
VERTEX
  8
0
 62
     1
  6
CONTINUOUS
 10
2.411886
 20
0.742264
  0
SEQEND
  8
0
  0
POLYLINE
  8
0
 62
     1
  6
CONTINUOUS
 66
     1
 40
0.003150
 41
0.003150
  0
VERTEX
  8
0
 62
     1
  6
CONTINUOUS
 10
2.411886
 20
0.742264
  0
VERTEX
  8
0
 62
     1
  6
CONTINUOUS
 10
2.410423
 20
0.748575
  0
VERTEX
  8
0
 62
     1
  6
CONTINUOUS
 10
2.406470
 20
0.753559
  0
VERTEX
  8
0
 62
     1
  6
CONTINUOUS
 10
2.400681
 20
0.756421
  0
SEQEND
  8
0
  0
POLYLINE
  8
0
 62
     1
  6
CONTINUOUS
 66
     1
 40
0.003150
 41
0.003150
  0
VERTEX
  8
0
 62
     1
  6
CONTINUOUS
 10
2.411602
 20
0.739421
  0
VERTEX
  8
0
 62
     1
  6
CONTINUOUS
 10
2.411753
 20
0.740333
  0
VERTEX
  8
0
 62
     1
  6
CONTINUOUS
 10
2.411851
 20
0.741310
  0
VERTEX
  8
0
 62
     1
  6
CONTINUOUS
 10
2.411886
 20
0.742264
  0
SEQEND
  8
0
  0
POLYLINE
  8
0
 62
     1
  6
CONTINUOUS
 66
     1
 40
0.003150
 41
0.003150
  0
VERTEX
  8
0
 62
     1
  6
CONTINUOUS
 10
2.411886
 20
0.742264
  0
VERTEX
  8
0
 62
     1
  6
CONTINUOUS
 10
2.410423
 20
0.748575
  0
VERTEX
  8
0
 62
     1
  6
CONTINUOUS
 10
2.406470
 20
0.753559
  0
VERTEX
  8
0
 62
     1
  6
CONTINUOUS
 10
2.400681
 20
0.756421
  0
SEQEND
  8
0
  0
POLYLINE
  8
0
 62
     1
  6
CONTINUOUS
 66
     1
 40
0.003150
 41
0.003150
  0
VERTEX
  8
0
 62
     1
  6
CONTINUOUS
 10
2.377508
 20
0.641256
  0
VERTEX
  8
0
 62
     1
  6
CONTINUOUS
 10
2.378263
 20
0.641159
  0
VERTEX
  8
0
 62
     1
  6
CONTINUOUS
 10
2.379097
 20
0.641101
  0
VERTEX
  8
0
 62
     1
  6
CONTINUOUS
 10
2.379894
 20
0.641083
  0
SEQEND
  8
0
  0
POLYLINE
  8
0
 62
     1
  6
CONTINUOUS
 66
     1
 40
0.003150
 41
0.003150
  0
VERTEX
  8
0
 62
     1
  6
CONTINUOUS
 10
2.379894
 20
0.641083
  0
VERTEX
  8
0
 62
     1
  6
CONTINUOUS
 10
2.386363
 20
0.642629
  0
VERTEX
  8
0
 62
     1
  6
CONTINUOUS
 10
2.391417
 20
0.646780
  0
VERTEX
  8
0
 62
     1
  6
CONTINUOUS
 10
2.394169
 20
0.652799
  0
SEQEND
  8
0
  0
POLYLINE
  8
0
 62
     1
  6
CONTINUOUS
 66
     1
 40
0.003150
 41
0.003150
  0
VERTEX
  8
0
 62
     1
  6
CONTINUOUS
 10
2.377508
 20
0.641256
  0
VERTEX
  8
0
 62
     1
  6
CONTINUOUS
 10
2.378263
 20
0.641159
  0
VERTEX
  8
0
 62
     1
  6
CONTINUOUS
 10
2.379097
 20
0.641101
  0
VERTEX
  8
0
 62
     1
  6
CONTINUOUS
 10
2.379894
 20
0.641083
  0
SEQEND
  8
0
  0
POLYLINE
  8
0
 62
     1
  6
CONTINUOUS
 66
     1
 40
0.003150
 41
0.003150
  0
VERTEX
  8
0
 62
     1
  6
CONTINUOUS
 10
2.379894
 20
0.641083
  0
VERTEX
  8
0
 62
     1
  6
CONTINUOUS
 10
2.386363
 20
0.642629
  0
VERTEX
  8
0
 62
     1
  6
CONTINUOUS
 10
2.391417
 20
0.646780
  0
VERTEX
  8
0
 62
     1
  6
CONTINUOUS
 10
2.394169
 20
0.652799
  0
SEQEND
  8
0
  0
POLYLINE
  8
0
 62
     1
  6
CONTINUOUS
 66
     1
 40
0.003150
 41
0.003150
  0
VERTEX
  8
0
 62
     1
  6
CONTINUOUS
 10
1.535453
 20
0.214941
  0
VERTEX
  8
0
 62
     1
  6
CONTINUOUS
 10
1.535453
 20
0.244067
  0
SEQEND
  8
0
  0
POLYLINE
  8
0
 62
     1
  6
CONTINUOUS
 66
     1
 40
0.003150
 41
0.003150
  0
VERTEX
  8
0
 62
     1
  6
CONTINUOUS
 10
1.535453
 20
0.244067
  0
VERTEX
  8
0
 62
     1
  6
CONTINUOUS
 10
1.389807
 20
0.244067
  0
SEQEND
  8
0
  0
POLYLINE
  8
0
 62
     1
  6
CONTINUOUS
 66
     1
 40
0.003150
 41
0.003150
  0
VERTEX
  8
0
 62
     1
  6
CONTINUOUS
 10
1.608280
 20
0.214941
  0
VERTEX
  8
0
 62
     1
  6
CONTINUOUS
 10
1.535453
 20
0.214941
  0
SEQEND
  8
0
  0
POLYLINE
  8
0
 62
     1
  6
CONTINUOUS
 66
     1
 40
0.003150
 41
0.003150
  0
VERTEX
  8
0
 62
     1
  6
CONTINUOUS
 10
1.935980
 20
0.054728
  0
VERTEX
  8
0
 62
     1
  6
CONTINUOUS
 10
1.863161
 20
0.054728
  0
SEQEND
  8
0
  0
POLYLINE
  8
0
 62
     1
  6
CONTINUOUS
 66
     1
 40
0.003150
 41
0.003150
  0
VERTEX
  8
0
 62
     1
  6
CONTINUOUS
 10
1.935980
 20
-0.455020
  0
VERTEX
  8
0
 62
     1
  6
CONTINUOUS
 10
1.863161
 20
-0.455020
  0
SEQEND
  8
0
  0
POLYLINE
  8
0
 62
     1
  6
CONTINUOUS
 66
     1
 40
0.003150
 41
0.003150
  0
VERTEX
  8
0
 62
     1
  6
CONTINUOUS
 10
1.935980
 20
-0.455020
  0
VERTEX
  8
0
 62
     1
  6
CONTINUOUS
 10
1.935980
 20
0.054728
  0
SEQEND
  8
0
  0
POLYLINE
  8
0
 62
     1
  6
CONTINUOUS
 66
     1
 40
0.003150
 41
0.003150
  0
VERTEX
  8
0
 62
     1
  6
CONTINUOUS
 10
1.906854
 20
-0.455020
  0
VERTEX
  8
0
 62
     1
  6
CONTINUOUS
 10
1.906854
 20
0.054728
  0
SEQEND
  8
0
  0
POLYLINE
  8
0
 62
     1
  6
CONTINUOUS
 66
     1
 40
0.003150
 41
0.003150
  0
VERTEX
  8
0
 62
     1
  6
CONTINUOUS
 10
1.863161
 20
-0.455020
  0
VERTEX
  8
0
 62
     1
  6
CONTINUOUS
 10
1.863161
 20
0.054728
  0
SEQEND
  8
0
  0
POLYLINE
  8
0
 62
     1
  6
CONTINUOUS
 66
     1
 40
0.003150
 41
0.003150
  0
VERTEX
  8
0
 62
     1
  6
CONTINUOUS
 10
2.612878
 20
0.653295
  0
VERTEX
  8
0
 62
     1
  6
CONTINUOUS
 10
1.882949
 20
0.800161
  0
SEQEND
  8
0
  0
POLYLINE
  8
0
 62
     1
  6
CONTINUOUS
 66
     1
 40
0.003150
 41
0.003150
  0
VERTEX
  8
0
 62
     1
  6
CONTINUOUS
 10
2.400673
 20
0.756445
  0
VERTEX
  8
0
 62
     1
  6
CONTINUOUS
 10
2.096193
 20
0.828476
  0
SEQEND
  8
0
  0
POLYLINE
  8
0
 62
     1
  6
CONTINUOUS
 66
     1
 40
0.003150
 41
0.003150
  0
VERTEX
  8
0
 62
     1
  6
CONTINUOUS
 10
2.394161
 20
0.652768
  0
VERTEX
  8
0
 62
     1
  6
CONTINUOUS
 10
2.411594
 20
0.739398
  0
SEQEND
  8
0
  0
POLYLINE
  8
0
 62
     1
  6
CONTINUOUS
 66
     1
 40
0.003150
 41
0.003150
  0
VERTEX
  8
0
 62
     1
  6
CONTINUOUS
 10
2.377508
 20
0.641272
  0
VERTEX
  8
0
 62
     1
  6
CONTINUOUS
 10
2.096193
 20
0.687870
  0
SEQEND
  8
0
  0
POLYLINE
  8
0
 62
     1
  6
CONTINUOUS
 66
     1
 40
0.003150
 41
0.003150
  0
VERTEX
  8
0
 62
     1
  6
CONTINUOUS
 10
0.530500
 20
0.477098
  0
VERTEX
  8
0
 62
     1
  6
CONTINUOUS
 10
0.530500
 20
0.637311
  0
SEQEND
  8
0
  0
POLYLINE
  8
0
 62
     1
  6
CONTINUOUS
 66
     1
 40
0.003150
 41
0.003150
  0
VERTEX
  8
0
 62
     1
  6
CONTINUOUS
 10
0.807224
 20
2.771028
  0
VERTEX
  8
0
 62
     1
  6
CONTINUOUS
 10
0.748965
 20
2.771028
  0
SEQEND
  8
0
  0
POLYLINE
  8
0
 62
     1
  6
CONTINUOUS
 66
     1
 40
0.003150
 41
0.003150
  0
VERTEX
  8
0
 62
     1
  6
CONTINUOUS
 10
1.050508
 20
2.625382
  0
VERTEX
  8
0
 62
     1
  6
CONTINUOUS
 10
0.640760
 20
2.625382
  0
SEQEND
  8
0
  0
POLYLINE
  8
0
 62
     1
  6
CONTINUOUS
 66
     1
 40
0.003150
 41
0.003150
  0
VERTEX
  8
0
 62
     1
  6
CONTINUOUS
 10
0.821791
 20
2.326933
  0
VERTEX
  8
0
 62
     1
  6
CONTINUOUS
 10
0.821791
 20
2.771028
  0
SEQEND
  8
0
  0
POLYLINE
  8
0
 62
     1
  6
CONTINUOUS
 66
     1
 40
0.003150
 41
0.003150
  0
VERTEX
  8
0
 62
     1
  6
CONTINUOUS
 10
0.748965
 20
2.326933
  0
VERTEX
  8
0
 62
     1
  6
CONTINUOUS
 10
0.748965
 20
2.771028
  0
SEQEND
  8
0
  0
POLYLINE
  8
0
 62
     1
  6
CONTINUOUS
 66
     1
 40
0.003150
 41
0.003150
  0
VERTEX
  8
0
 62
     1
  6
CONTINUOUS
 10
0.486807
 20
2.615350
  0
VERTEX
  8
0
 62
     1
  6
CONTINUOUS
 10
0.486807
 20
2.887539
  0
SEQEND
  8
0
  0
POLYLINE
  8
0
 62
     1
  6
CONTINUOUS
 66
     1
 40
0.003150
 41
0.003150
  0
VERTEX
  8
0
 62
     1
  6
CONTINUOUS
 10
0.969768
 20
2.450602
  0
VERTEX
  8
0
 62
     1
  6
CONTINUOUS
 10
0.821791
 20
2.450602
  0
SEQEND
  8
0
  0
POLYLINE
  8
0
 62
     1
  6
CONTINUOUS
 66
     1
 40
0.003150
 41
0.003150
  0
VERTEX
  8
0
 62
     1
  6
CONTINUOUS
 10
0.969768
 20
2.392350
  0
VERTEX
  8
0
 62
     1
  6
CONTINUOUS
 10
0.821791
 20
2.392350
  0
SEQEND
  8
0
  0
POLYLINE
  8
0
 62
     1
  6
CONTINUOUS
 66
     1
 40
0.003150
 41
0.003150
  0
VERTEX
  8
0
 62
     1
  6
CONTINUOUS
 10
2.303406
 20
0.412185
  0
VERTEX
  8
0
 62
     1
  6
CONTINUOUS
 10
2.339421
 20
0.489920
  0
VERTEX
  8
0
 62
     1
  6
CONTINUOUS
 10
2.369427
 20
0.571140
  0
VERTEX
  8
0
 62
     1
  6
CONTINUOUS
 10
2.393182
 20
0.655003
  0
VERTEX
  8
0
 62
     1
  6
CONTINUOUS
 10
2.410447
 20
0.740669
  0
VERTEX
  8
0
 62
     1
  6
CONTINUOUS
 10
2.420982
 20
0.827296
  0
VERTEX
  8
0
 62
     1
  6
CONTINUOUS
 10
2.424547
 20
0.914043
  0
SEQEND
  8
0
  0
POLYLINE
  8
0
 62
     1
  6
CONTINUOUS
 66
     1
 40
0.003150
 41
0.003150
  0
VERTEX
  8
0
 62
     1
  6
CONTINUOUS
 10
2.424547
 20
0.914043
  0
VERTEX
  8
0
 62
     1
  6
CONTINUOUS
 10
2.419883
 20
1.009359
  0
VERTEX
  8
0
 62
     1
  6
CONTINUOUS
 10
2.406700
 20
1.105485
  0
VERTEX
  8
0
 62
     1
  6
CONTINUOUS
 10
2.386216
 20
1.199989
  0
VERTEX
  8
0
 62
     1
  6
CONTINUOUS
 10
2.359650
 20
1.290437
  0
SEQEND
  8
0
  0
POLYLINE
  8
0
 62
     1
  6
CONTINUOUS
 66
     1
 40
0.003150
 41
0.003150
  0
VERTEX
  8
0
 62
     1
  6
CONTINUOUS
 10
2.303406
 20
0.412185
  0
VERTEX
  8
0
 62
     1
  6
CONTINUOUS
 10
2.339421
 20
0.489920
  0
VERTEX
  8
0
 62
     1
  6
CONTINUOUS
 10
2.369427
 20
0.571140
  0
VERTEX
  8
0
 62
     1
  6
CONTINUOUS
 10
2.393182
 20
0.655003
  0
VERTEX
  8
0
 62
     1
  6
CONTINUOUS
 10
2.410447
 20
0.740669
  0
VERTEX
  8
0
 62
     1
  6
CONTINUOUS
 10
2.420982
 20
0.827296
  0
VERTEX
  8
0
 62
     1
  6
CONTINUOUS
 10
2.424547
 20
0.914043
  0
SEQEND
  8
0
  0
POLYLINE
  8
0
 62
     1
  6
CONTINUOUS
 66
     1
 40
0.003150
 41
0.003150
  0
VERTEX
  8
0
 62
     1
  6
CONTINUOUS
 10
2.424547
 20
0.914043
  0
VERTEX
  8
0
 62
     1
  6
CONTINUOUS
 10
2.419883
 20
1.009359
  0
VERTEX
  8
0
 62
     1
  6
CONTINUOUS
 10
2.406700
 20
1.105485
  0
VERTEX
  8
0
 62
     1
  6
CONTINUOUS
 10
2.386216
 20
1.199989
  0
VERTEX
  8
0
 62
     1
  6
CONTINUOUS
 10
2.359650
 20
1.290437
  0
SEQEND
  8
0
  0
POLYLINE
  8
0
 62
     1
  6
CONTINUOUS
 66
     1
 40
0.003150
 41
0.003150
  0
VERTEX
  8
0
 62
     1
  6
CONTINUOUS
 10
1.535453
 20
2.887539
  0
VERTEX
  8
0
 62
     1
  6
CONTINUOUS
 10
0.486807
 20
2.887539
  0
SEQEND
  8
0
  0
POLYLINE
  8
0
 62
     1
  6
CONTINUOUS
 66
     1
 40
0.003150
 41
0.003150
  0
VERTEX
  8
0
 62
     1
  6
CONTINUOUS
 10
2.424539
 20
0.914043
  0
VERTEX
  8
0
 62
     1
  6
CONTINUOUS
 10
2.424539
 20
1.545406
  0
SEQEND
  8
0
  0
POLYLINE
  8
0
 62
     1
  6
CONTINUOUS
 66
     1
 40
0.003150
 41
0.003150
  0
VERTEX
  8
0
 62
     1
  6
CONTINUOUS
 10
0.969768
 20
2.326933
  0
VERTEX
  8
0
 62
     1
  6
CONTINUOUS
 10
0.422602
 20
2.326933
  0
SEQEND
  8
0
  0
POLYLINE
  8
0
 62
     1
  6
CONTINUOUS
 66
     1
 40
0.003150
 41
0.003150
  0
VERTEX
  8
0
 62
     1
  6
CONTINUOUS
 10
0.748965
 20
2.370500
  0
VERTEX
  8
0
 62
     1
  6
CONTINUOUS
 10
0.676146
 20
2.370500
  0
SEQEND
  8
0
  0
POLYLINE
  8
0
 62
     1
  6
CONTINUOUS
 66
     1
 40
0.003150
 41
0.003150
  0
VERTEX
  8
0
 62
     1
  6
CONTINUOUS
 10
0.632579
 20
2.326933
  0
VERTEX
  8
0
 62
     1
  6
CONTINUOUS
 10
0.676146
 20
2.370500
  0
SEQEND
  8
0
  0
POLYLINE
  8
0
 62
     1
  6
CONTINUOUS
 66
     1
 40
0.003150
 41
0.003150
  0
VERTEX
  8
0
 62
     1
  6
CONTINUOUS
 10
0.657177
 20
2.351531
  0
VERTEX
  8
0
 62
     1
  6
CONTINUOUS
 10
0.681768
 20
2.326933
  0
SEQEND
  8
0
  0
POLYLINE
  8
0
 62
     1
  6
CONTINUOUS
 66
     1
 40
0.003150
 41
0.003150
  0
VERTEX
  8
0
 62
     1
  6
CONTINUOUS
 10
0.699996
 20
2.370500
  0
VERTEX
  8
0
 62
     1
  6
CONTINUOUS
 10
0.743563
 20
2.326933
  0
SEQEND
  8
0
  0
POLYLINE
  8
0
 62
     1
  6
CONTINUOUS
 66
     1
 40
0.003150
 41
0.003150
  0
VERTEX
  8
0
 62
     1
  6
CONTINUOUS
 10
1.899571
 20
-0.811854
  0
VERTEX
  8
0
 62
     1
  6
CONTINUOUS
 10
0.486807
 20
-0.811854
  0
SEQEND
  8
0
  0
POLYLINE
  8
0
 62
     1
  6
CONTINUOUS
 66
     1
 40
0.003150
 41
0.003150
  0
VERTEX
  8
0
 62
     1
  6
CONTINUOUS
 10
1.389807
 20
0.178531
  0
VERTEX
  8
0
 62
     1
  6
CONTINUOUS
 10
0.515933
 20
0.178531
  0
SEQEND
  8
0
  0
POLYLINE
  8
0
 62
     1
  6
CONTINUOUS
 66
     1
 40
0.003150
 41
0.003150
  0
VERTEX
  8
0
 62
     1
  6
CONTINUOUS
 10
3.233839
 20
1.063327
  0
VERTEX
  8
0
 62
     1
  6
CONTINUOUS
 10
3.091453
 20
1.063327
  0
SEQEND
  8
0
  0
POLYLINE
  8
0
 62
     1
  6
CONTINUOUS
 66
     1
 40
0.003150
 41
0.003150
  0
VERTEX
  8
0
 62
     1
  6
CONTINUOUS
 10
2.560256
 20
1.063327
  0
VERTEX
  8
0
 62
     1
  6
CONTINUOUS
 10
-0.072232
 20
1.063327
  0
SEQEND
  8
0
  0
POLYLINE
  8
0
 62
     1
  6
CONTINUOUS
 66
     1
 40
0.003150
 41
0.003150
  0
VERTEX
  8
0
 62
     1
  6
CONTINUOUS
 10
1.935988
 20
2.905752
  0
VERTEX
  8
0
 62
     1
  6
CONTINUOUS
 10
1.933496
 20
2.914927
  0
VERTEX
  8
0
 62
     1
  6
CONTINUOUS
 10
1.926958
 20
2.921464
  0
VERTEX
  8
0
 62
     1
  6
CONTINUOUS
 10
1.917783
 20
2.923957
  0
SEQEND
  8
0
  0
POLYLINE
  8
0
 62
     1
  6
CONTINUOUS
 66
     1
 40
0.003150
 41
0.003150
  0
VERTEX
  8
0
 62
     1
  6
CONTINUOUS
 10
1.935988
 20
2.905752
  0
VERTEX
  8
0
 62
     1
  6
CONTINUOUS
 10
1.933496
 20
2.914927
  0
VERTEX
  8
0
 62
     1
  6
CONTINUOUS
 10
1.926958
 20
2.921464
  0
VERTEX
  8
0
 62
     1
  6
CONTINUOUS
 10
1.917783
 20
2.923957
  0
SEQEND
  8
0
  0
POLYLINE
  8
0
 62
     1
  6
CONTINUOUS
 66
     1
 40
0.003150
 41
0.003150
  0
VERTEX
  8
0
 62
     1
  6
CONTINUOUS
 10
0.821791
 20
2.698201
  0
VERTEX
  8
0
 62
     1
  6
CONTINUOUS
 10
0.748965
 20
2.698201
  0
SEQEND
  8
0
  0
POLYLINE
  8
0
 62
     1
  6
CONTINUOUS
 66
     1
 40
0.003150
 41
0.003150
  0
VERTEX
  8
0
 62
     1
  6
CONTINUOUS
 10
0.821791
 20
2.552555
  0
VERTEX
  8
0
 62
     1
  6
CONTINUOUS
 10
0.748965
 20
2.552555
  0
SEQEND
  8
0
  0
POLYLINE
  8
0
 62
     1
  6
CONTINUOUS
 66
     1
 40
0.003150
 41
0.003150
  0
VERTEX
  8
0
 62
     1
  6
CONTINUOUS
 10
1.917776
 20
2.923957
  0
VERTEX
  8
0
 62
     1
  6
CONTINUOUS
 10
0.969768
 20
2.923957
  0
SEQEND
  8
0
  0
POLYLINE
  8
0
 62
     1
  6
CONTINUOUS
 66
     1
 40
0.003150
 41
0.003150
  0
VERTEX
  8
0
 62
     1
  6
CONTINUOUS
 10
1.935980
 20
2.545280
  0
VERTEX
  8
0
 62
     1
  6
CONTINUOUS
 10
1.935980
 20
2.905752
  0
SEQEND
  8
0
  0
POLYLINE
  8
0
 62
     1
  6
CONTINUOUS
 66
     1
 40
0.003150
 41
0.003150
  0
VERTEX
  8
0
 62
     1
  6
CONTINUOUS
 10
1.935980
 20
2.545280
  0
VERTEX
  8
0
 62
     1
  6
CONTINUOUS
 10
1.921413
 20
2.545280
  0
SEQEND
  8
0
  0
POLYLINE
  8
0
 62
     1
  6
CONTINUOUS
 66
     1
 40
0.003150
 41
0.003150
  0
VERTEX
  8
0
 62
     1
  6
CONTINUOUS
 10
1.921413
 20
2.530713
  0
VERTEX
  8
0
 62
     1
  6
CONTINUOUS
 10
1.921413
 20
2.545280
  0
SEQEND
  8
0
  0
POLYLINE
  8
0
 62
     1
  6
CONTINUOUS
 66
     1
 40
0.003150
 41
0.003150
  0
VERTEX
  8
0
 62
     1
  6
CONTINUOUS
 10
0.821791
 20
2.771028
  0
VERTEX
  8
0
 62
     1
  6
CONTINUOUS
 10
0.807224
 20
2.771028
  0
SEQEND
  8
0
  0
POLYLINE
  8
0
 62
     1
  6
CONTINUOUS
 66
     1
 40
0.003150
 41
0.003150
  0
VERTEX
  8
0
 62
     1
  6
CONTINUOUS
 10
0.969768
 20
2.326933
  0
VERTEX
  8
0
 62
     1
  6
CONTINUOUS
 10
0.969768
 20
3.005327
  0
SEQEND
  8
0
  0
POLYLINE
  8
0
 62
     1
  6
CONTINUOUS
 66
     1
 40
0.003150
 41
0.003150
  0
VERTEX
  8
0
 62
     1
  6
CONTINUOUS
 10
0.821791
 20
2.434083
  0
VERTEX
  8
0
 62
     1
  6
CONTINUOUS
 10
0.863524
 20
2.392350
  0
SEQEND
  8
0
  0
POLYLINE
  8
0
 62
     1
  6
CONTINUOUS
 66
     1
 40
0.003150
 41
0.003150
  0
VERTEX
  8
0
 62
     1
  6
CONTINUOUS
 10
0.867059
 20
2.450602
  0
VERTEX
  8
0
 62
     1
  6
CONTINUOUS
 10
0.925319
 20
2.392350
  0
SEQEND
  8
0
  0
POLYLINE
  8
0
 62
     1
  6
CONTINUOUS
 66
     1
 40
0.003150
 41
0.003150
  0
VERTEX
  8
0
 62
     1
  6
CONTINUOUS
 10
0.928854
 20
2.450602
  0
VERTEX
  8
0
 62
     1
  6
CONTINUOUS
 10
0.969768
 20
2.409689
  0
SEQEND
  8
0
  0
POLYLINE
  8
0
 62
     1
  6
CONTINUOUS
 66
     1
 40
0.003150
 41
0.003150
  0
VERTEX
  8
0
 62
     1
  6
CONTINUOUS
 10
0.789713
 20
2.326933
  0
VERTEX
  8
0
 62
     1
  6
CONTINUOUS
 10
0.821791
 20
2.359012
  0
SEQEND
  8
0
  0
POLYLINE
  8
0
 62
     1
  6
CONTINUOUS
 66
     1
 40
0.003150
 41
0.003150
  0
VERTEX
  8
0
 62
     1
  6
CONTINUOUS
 10
0.748965
 20
2.347980
  0
VERTEX
  8
0
 62
     1
  6
CONTINUOUS
 10
0.821791
 20
2.420799
  0
SEQEND
  8
0
  0
POLYLINE
  8
0
 62
     1
  6
CONTINUOUS
 66
     1
 40
0.003150
 41
0.003150
  0
VERTEX
  8
0
 62
     1
  6
CONTINUOUS
 10
0.748965
 20
2.409768
  0
VERTEX
  8
0
 62
     1
  6
CONTINUOUS
 10
0.821791
 20
2.482594
  0
SEQEND
  8
0
  0
POLYLINE
  8
0
 62
     1
  6
CONTINUOUS
 66
     1
 40
0.003150
 41
0.003150
  0
VERTEX
  8
0
 62
     1
  6
CONTINUOUS
 10
0.748965
 20
2.471563
  0
VERTEX
  8
0
 62
     1
  6
CONTINUOUS
 10
0.821791
 20
2.544390
  0
SEQEND
  8
0
  0
POLYLINE
  8
0
 62
     1
  6
CONTINUOUS
 66
     1
 40
0.003150
 41
0.003150
  0
VERTEX
  8
0
 62
     1
  6
CONTINUOUS
 10
0.748965
 20
2.533358
  0
VERTEX
  8
0
 62
     1
  6
CONTINUOUS
 10
0.768169
 20
2.552555
  0
SEQEND
  8
0
  0
POLYLINE
  8
0
 62
     1
  6
CONTINUOUS
 66
     1
 40
0.003150
 41
0.003150
  0
VERTEX
  8
0
 62
     1
  6
CONTINUOUS
 10
0.790232
 20
2.698201
  0
VERTEX
  8
0
 62
     1
  6
CONTINUOUS
 10
0.821791
 20
2.729760
  0
SEQEND
  8
0
  0
POLYLINE
  8
0
 62
     1
  6
CONTINUOUS
 66
     1
 40
0.003150
 41
0.003150
  0
VERTEX
  8
0
 62
     1
  6
CONTINUOUS
 10
0.748965
 20
2.718728
  0
VERTEX
  8
0
 62
     1
  6
CONTINUOUS
 10
0.801264
 20
2.771028
  0
SEQEND
  8
0
  0
POLYLINE
  8
0
 62
     1
  6
CONTINUOUS
 66
     1
 40
0.003150
 41
0.003150
  0
VERTEX
  8
0
 62
     1
  6
CONTINUOUS
 10
1.917783
 20
-0.848256
  0
VERTEX
  8
0
 62
     1
  6
CONTINUOUS
 10
1.926958
 20
-0.845764
  0
VERTEX
  8
0
 62
     1
  6
CONTINUOUS
 10
1.933496
 20
-0.839226
  0
VERTEX
  8
0
 62
     1
  6
CONTINUOUS
 10
1.935988
 20
-0.830051
  0
SEQEND
  8
0
  0
POLYLINE
  8
0
 62
     1
  6
CONTINUOUS
 66
     1
 40
0.003150
 41
0.003150
  0
VERTEX
  8
0
 62
     1
  6
CONTINUOUS
 10
1.917783
 20
-0.848256
  0
VERTEX
  8
0
 62
     1
  6
CONTINUOUS
 10
1.926958
 20
-0.845764
  0
VERTEX
  8
0
 62
     1
  6
CONTINUOUS
 10
1.933496
 20
-0.839226
  0
VERTEX
  8
0
 62
     1
  6
CONTINUOUS
 10
1.935988
 20
-0.830051
  0
SEQEND
  8
0
  0
POLYLINE
  8
0
 62
     1
  6
CONTINUOUS
 66
     1
 40
0.003150
 41
0.003150
  0
VERTEX
  8
0
 62
     1
  6
CONTINUOUS
 10
1.917776
 20
-0.848272
  0
VERTEX
  8
0
 62
     1
  6
CONTINUOUS
 10
0.486807
 20
-0.848272
  0
SEQEND
  8
0
  0
POLYLINE
  8
0
 62
     1
  6
CONTINUOUS
 66
     1
 40
0.003150
 41
0.003150
  0
VERTEX
  8
0
 62
     1
  6
CONTINUOUS
 10
1.935980
 20
-0.830059
  0
VERTEX
  8
0
 62
     1
  6
CONTINUOUS
 10
1.935980
 20
-0.469587
  0
SEQEND
  8
0
  0
POLYLINE
  8
0
 62
     1
  6
CONTINUOUS
 66
     1
 40
0.003150
 41
0.003150
  0
VERTEX
  8
0
 62
     1
  6
CONTINUOUS
 10
1.935980
 20
-0.469587
  0
VERTEX
  8
0
 62
     1
  6
CONTINUOUS
 10
1.921413
 20
-0.469587
  0
SEQEND
  8
0
  0
POLYLINE
  8
0
 62
     1
  6
CONTINUOUS
 66
     1
 40
0.003150
 41
0.003150
  0
VERTEX
  8
0
 62
     1
  6
CONTINUOUS
 10
1.921413
 20
-0.469587
  0
VERTEX
  8
0
 62
     1
  6
CONTINUOUS
 10
1.921413
 20
-0.455028
  0
SEQEND
  8
0
  0
POLYLINE
  8
0
 62
     1
  6
CONTINUOUS
 66
     1
 40
0.003150
 41
0.003150
  0
VERTEX
  8
0
 62
     1
  6
CONTINUOUS
 10
0.672209
 20
2.596248
  0
VERTEX
  8
0
 62
     1
  6
CONTINUOUS
 10
0.195295
 20
2.596248
  0
SEQEND
  8
0
  0
POLYLINE
  8
0
 62
     1
  6
CONTINUOUS
 66
     1
 40
0.003150
 41
0.003150
  0
VERTEX
  8
0
 62
     1
  6
CONTINUOUS
 10
0.672209
 20
-0.520563
  0
VERTEX
  8
0
 62
     1
  6
CONTINUOUS
 10
0.201681
 20
-0.520563
  0
SEQEND
  8
0
  0
POLYLINE
  8
0
 62
     1
  6
CONTINUOUS
 66
     1
 40
0.003150
 41
0.003150
  0
VERTEX
  8
0
 62
     1
  6
CONTINUOUS
 10
2.321972
 20
0.914043
  0
VERTEX
  8
0
 62
     1
  6
CONTINUOUS
 10
-0.026650
 20
0.914043
  0
SEQEND
  8
0
  0
POLYLINE
  8
0
 62
     1
  6
CONTINUOUS
 66
     1
 40
0.003150
 41
0.003150
  0
VERTEX
  8
0
 62
     1
  6
CONTINUOUS
 10
0.486807
 20
1.234461
  0
VERTEX
  8
0
 62
     1
  6
CONTINUOUS
 10
0.479524
 20
1.234461
  0
SEQEND
  8
0
  0
POLYLINE
  8
0
 62
     1
  6
CONTINUOUS
 66
     1
 40
0.003150
 41
0.003150
  0
VERTEX
  8
0
 62
     1
  6
CONTINUOUS
 10
0.457673
 20
2.516146
  0
VERTEX
  8
0
 62
     1
  6
CONTINUOUS
 10
0.457673
 20
2.676358
  0
SEQEND
  8
0
  0
POLYLINE
  8
0
 62
     1
  6
CONTINUOUS
 66
     1
 40
0.003150
 41
0.003150
  0
VERTEX
  8
0
 62
     1
  6
CONTINUOUS
 10
0.457673
 20
0.681004
  0
VERTEX
  8
0
 62
     1
  6
CONTINUOUS
 10
0.457673
 20
0.761114
  0
SEQEND
  8
0
  0
POLYLINE
  8
0
 62
     1
  6
CONTINUOUS
 66
     1
 40
0.003150
 41
0.003150
  0
VERTEX
  8
0
 62
     1
  6
CONTINUOUS
 10
0.457673
 20
-0.316657
  0
VERTEX
  8
0
 62
     1
  6
CONTINUOUS
 10
0.457673
 20
0.178531
  0
SEQEND
  8
0
  0
POLYLINE
  8
0
 62
     1
  6
CONTINUOUS
 66
     1
 40
0.003150
 41
0.003150
  0
VERTEX
  8
0
 62
     1
  6
CONTINUOUS
 10
0.457673
 20
-0.600673
  0
VERTEX
  8
0
 62
     1
  6
CONTINUOUS
 10
0.457673
 20
-0.440461
  0
SEQEND
  8
0
  0
POLYLINE
  8
0
 62
     1
  6
CONTINUOUS
 66
     1
 40
0.003150
 41
0.003150
  0
VERTEX
  8
0
 62
     1
  6
CONTINUOUS
 10
0.486799
 20
2.676358
  0
VERTEX
  8
0
 62
     1
  6
CONTINUOUS
 10
0.457673
 20
2.676358
  0
SEQEND
  8
0
  0
POLYLINE
  8
0
 62
     1
  6
CONTINUOUS
 66
     1
 40
0.003150
 41
0.003150
  0
VERTEX
  8
0
 62
     1
  6
CONTINUOUS
 10
0.486799
 20
2.516146
  0
VERTEX
  8
0
 62
     1
  6
CONTINUOUS
 10
0.457673
 20
2.516146
  0
SEQEND
  8
0
  0
POLYLINE
  8
0
 62
     1
  6
CONTINUOUS
 66
     1
 40
0.003150
 41
0.003150
  0
VERTEX
  8
0
 62
     1
  6
CONTINUOUS
 10
0.486807
 20
-0.440461
  0
VERTEX
  8
0
 62
     1
  6
CONTINUOUS
 10
0.457673
 20
-0.440461
  0
SEQEND
  8
0
  0
POLYLINE
  8
0
 62
     1
  6
CONTINUOUS
 66
     1
 40
0.003150
 41
0.003150
  0
VERTEX
  8
0
 62
     1
  6
CONTINUOUS
 10
0.486807
 20
-0.600673
  0
VERTEX
  8
0
 62
     1
  6
CONTINUOUS
 10
0.457673
 20
-0.600673
  0
SEQEND
  8
0
  0
POLYLINE
  8
0
 62
     1
  6
CONTINUOUS
 66
     1
 40
0.003150
 41
0.003150
  0
VERTEX
  8
0
 62
     1
  6
CONTINUOUS
 10
0.428555
 20
2.654516
  0
VERTEX
  8
0
 62
     1
  6
CONTINUOUS
 10
0.432223
 20
2.655511
  0
VERTEX
  8
0
 62
     1
  6
CONTINUOUS
 10
0.434835
 20
2.658124
  0
VERTEX
  8
0
 62
     1
  6
CONTINUOUS
 10
0.435831
 20
2.661791
  0
SEQEND
  8
0
  0
POLYLINE
  8
0
 62
     1
  6
CONTINUOUS
 66
     1
 40
0.003150
 41
0.003150
  0
VERTEX
  8
0
 62
     1
  6
CONTINUOUS
 10
0.428555
 20
2.654516
  0
VERTEX
  8
0
 62
     1
  6
CONTINUOUS
 10
0.432223
 20
2.655511
  0
VERTEX
  8
0
 62
     1
  6
CONTINUOUS
 10
0.434835
 20
2.658124
  0
VERTEX
  8
0
 62
     1
  6
CONTINUOUS
 10
0.435831
 20
2.661791
  0
SEQEND
  8
0
  0
POLYLINE
  8
0
 62
     1
  6
CONTINUOUS
 66
     1
 40
0.003150
 41
0.003150
  0
VERTEX
  8
0
 62
     1
  6
CONTINUOUS
 10
0.435831
 20
2.530713
  0
VERTEX
  8
0
 62
     1
  6
CONTINUOUS
 10
0.434835
 20
2.534380
  0
VERTEX
  8
0
 62
     1
  6
CONTINUOUS
 10
0.432223
 20
2.536993
  0
VERTEX
  8
0
 62
     1
  6
CONTINUOUS
 10
0.428555
 20
2.537988
  0
SEQEND
  8
0
  0
POLYLINE
  8
0
 62
     1
  6
CONTINUOUS
 66
     1
 40
0.003150
 41
0.003150
  0
VERTEX
  8
0
 62
     1
  6
CONTINUOUS
 10
0.435831
 20
2.530713
  0
VERTEX
  8
0
 62
     1
  6
CONTINUOUS
 10
0.434835
 20
2.534380
  0
VERTEX
  8
0
 62
     1
  6
CONTINUOUS
 10
0.432223
 20
2.536993
  0
VERTEX
  8
0
 62
     1
  6
CONTINUOUS
 10
0.428555
 20
2.537988
  0
SEQEND
  8
0
  0
POLYLINE
  8
0
 62
     1
  6
CONTINUOUS
 66
     1
 40
0.003150
 41
0.003150
  0
VERTEX
  8
0
 62
     1
  6
CONTINUOUS
 10
0.355728
 20
1.547594
  0
VERTEX
  8
0
 62
     1
  6
CONTINUOUS
 10
0.330038
 20
1.540618
  0
VERTEX
  8
0
 62
     1
  6
CONTINUOUS
 10
0.311736
 20
1.522316
  0
VERTEX
  8
0
 62
     1
  6
CONTINUOUS
 10
0.304760
 20
1.496626
  0
SEQEND
  8
0
  0
POLYLINE
  8
0
 62
     1
  6
CONTINUOUS
 66
     1
 40
0.003150
 41
0.003150
  0
VERTEX
  8
0
 62
     1
  6
CONTINUOUS
 10
0.355728
 20
1.547594
  0
VERTEX
  8
0
 62
     1
  6
CONTINUOUS
 10
0.330038
 20
1.540618
  0
VERTEX
  8
0
 62
     1
  6
CONTINUOUS
 10
0.311736
 20
1.522316
  0
VERTEX
  8
0
 62
     1
  6
CONTINUOUS
 10
0.304760
 20
1.496626
  0
SEQEND
  8
0
  0
POLYLINE
  8
0
 62
     1
  6
CONTINUOUS
 66
     1
 40
0.003150
 41
0.003150
  0
VERTEX
  8
0
 62
     1
  6
CONTINUOUS
 10
0.304760
 20
0.324177
  0
VERTEX
  8
0
 62
     1
  6
CONTINUOUS
 10
0.306493
 20
0.311176
  0
VERTEX
  8
0
 62
     1
  6
CONTINUOUS
 10
0.311457
 20
0.299016
  0
VERTEX
  8
0
 62
     1
  6
CONTINUOUS
 10
0.319295
 20
0.288539
  0
SEQEND
  8
0
  0
POLYLINE
  8
0
 62
     1
  6
CONTINUOUS
 66
     1
 40
0.003150
 41
0.003150
  0
VERTEX
  8
0
 62
     1
  6
CONTINUOUS
 10
0.304760
 20
0.324177
  0
VERTEX
  8
0
 62
     1
  6
CONTINUOUS
 10
0.306493
 20
0.311176
  0
VERTEX
  8
0
 62
     1
  6
CONTINUOUS
 10
0.311457
 20
0.299016
  0
VERTEX
  8
0
 62
     1
  6
CONTINUOUS
 10
0.319295
 20
0.288539
  0
SEQEND
  8
0
  0
POLYLINE
  8
0
 62
     1
  6
CONTINUOUS
 66
     1
 40
0.003150
 41
0.003150
  0
VERTEX
  8
0
 62
     1
  6
CONTINUOUS
 10
0.319295
 20
0.288539
  0
VERTEX
  8
0
 62
     1
  6
CONTINUOUS
 10
0.329890
 20
0.280316
  0
VERTEX
  8
0
 62
     1
  6
CONTINUOUS
 10
0.342346
 20
0.275059
  0
VERTEX
  8
0
 62
     1
  6
CONTINUOUS
 10
0.355728
 20
0.273209
  0
SEQEND
  8
0
  0
POLYLINE
  8
0
 62
     1
  6
CONTINUOUS
 66
     1
 40
0.003150
 41
0.003150
  0
VERTEX
  8
0
 62
     1
  6
CONTINUOUS
 10
0.319295
 20
0.288539
  0
VERTEX
  8
0
 62
     1
  6
CONTINUOUS
 10
0.329890
 20
0.280316
  0
VERTEX
  8
0
 62
     1
  6
CONTINUOUS
 10
0.342346
 20
0.275059
  0
VERTEX
  8
0
 62
     1
  6
CONTINUOUS
 10
0.355728
 20
0.273209
  0
SEQEND
  8
0
  0
POLYLINE
  8
0
 62
     1
  6
CONTINUOUS
 66
     1
 40
0.003150
 41
0.003150
  0
VERTEX
  8
0
 62
     1
  6
CONTINUOUS
 10
0.428555
 20
-0.462295
  0
VERTEX
  8
0
 62
     1
  6
CONTINUOUS
 10
0.432223
 20
-0.461300
  0
VERTEX
  8
0
 62
     1
  6
CONTINUOUS
 10
0.434835
 20
-0.458687
  0
VERTEX
  8
0
 62
     1
  6
CONTINUOUS
 10
0.435831
 20
-0.455020
  0
SEQEND
  8
0
  0
POLYLINE
  8
0
 62
     1
  6
CONTINUOUS
 66
     1
 40
0.003150
 41
0.003150
  0
VERTEX
  8
0
 62
     1
  6
CONTINUOUS
 10
0.428555
 20
-0.462295
  0
VERTEX
  8
0
 62
     1
  6
CONTINUOUS
 10
0.432223
 20
-0.461300
  0
VERTEX
  8
0
 62
     1
  6
CONTINUOUS
 10
0.434835
 20
-0.458687
  0
VERTEX
  8
0
 62
     1
  6
CONTINUOUS
 10
0.435831
 20
-0.455020
  0
SEQEND
  8
0
  0
POLYLINE
  8
0
 62
     1
  6
CONTINUOUS
 66
     1
 40
0.003150
 41
0.003150
  0
VERTEX
  8
0
 62
     1
  6
CONTINUOUS
 10
0.435831
 20
-0.586098
  0
VERTEX
  8
0
 62
     1
  6
CONTINUOUS
 10
0.434835
 20
-0.582431
  0
VERTEX
  8
0
 62
     1
  6
CONTINUOUS
 10
0.432223
 20
-0.579818
  0
VERTEX
  8
0
 62
     1
  6
CONTINUOUS
 10
0.428555
 20
-0.578823
  0
SEQEND
  8
0
  0
POLYLINE
  8
0
 62
     1
  6
CONTINUOUS
 66
     1
 40
0.003150
 41
0.003150
  0
VERTEX
  8
0
 62
     1
  6
CONTINUOUS
 10
0.435831
 20
-0.586098
  0
VERTEX
  8
0
 62
     1
  6
CONTINUOUS
 10
0.434835
 20
-0.582431
  0
VERTEX
  8
0
 62
     1
  6
CONTINUOUS
 10
0.432223
 20
-0.579818
  0
VERTEX
  8
0
 62
     1
  6
CONTINUOUS
 10
0.428555
 20
-0.578823
  0
SEQEND
  8
0
  0
POLYLINE
  8
0
 62
     1
  6
CONTINUOUS
 66
     1
 40
0.003150
 41
0.003150
  0
VERTEX
  8
0
 62
     1
  6
CONTINUOUS
 10
0.457673
 20
2.698201
  0
VERTEX
  8
0
 62
     1
  6
CONTINUOUS
 10
0.435831
 20
2.698201
  0
SEQEND
  8
0
  0
POLYLINE
  8
0
 62
     1
  6
CONTINUOUS
 66
     1
 40
0.003150
 41
0.003150
  0
VERTEX
  8
0
 62
     1
  6
CONTINUOUS
 10
0.457673
 20
-0.622516
  0
VERTEX
  8
0
 62
     1
  6
CONTINUOUS
 10
0.457673
 20
2.698201
  0
SEQEND
  8
0
  0
POLYLINE
  8
0
 62
     1
  6
CONTINUOUS
 66
     1
 40
0.003150
 41
0.003150
  0
VERTEX
  8
0
 62
     1
  6
CONTINUOUS
 10
0.435831
 20
1.547602
  0
VERTEX
  8
0
 62
     1
  6
CONTINUOUS
 10
0.435831
 20
2.698201
  0
SEQEND
  8
0
  0
POLYLINE
  8
0
 62
     1
  6
CONTINUOUS
 66
     1
 40
0.003150
 41
0.003150
  0
VERTEX
  8
0
 62
     1
  6
CONTINUOUS
 10
0.428547
 20
2.654508
  0
VERTEX
  8
0
 62
     1
  6
CONTINUOUS
 10
0.413980
 20
2.654508
  0
SEQEND
  8
0
  0
POLYLINE
  8
0
 62
     1
  6
CONTINUOUS
 66
     1
 40
0.003150
 41
0.003150
  0
VERTEX
  8
0
 62
     1
  6
CONTINUOUS
 10
0.413980
 20
2.537996
  0
VERTEX
  8
0
 62
     1
  6
CONTINUOUS
 10
0.413980
 20
2.654508
  0
SEQEND
  8
0
  0
POLYLINE
  8
0
 62
     1
  6
CONTINUOUS
 66
     1
 40
0.003150
 41
0.003150
  0
VERTEX
  8
0
 62
     1
  6
CONTINUOUS
 10
0.428547
 20
2.537996
  0
VERTEX
  8
0
 62
     1
  6
CONTINUOUS
 10
0.413980
 20
2.537996
  0
SEQEND
  8
0
  0
POLYLINE
  8
0
 62
     1
  6
CONTINUOUS
 66
     1
 40
0.003150
 41
0.003150
  0
VERTEX
  8
0
 62
     1
  6
CONTINUOUS
 10
0.457673
 20
1.547602
  0
VERTEX
  8
0
 62
     1
  6
CONTINUOUS
 10
0.355720
 20
1.547602
  0
SEQEND
  8
0
  0
POLYLINE
  8
0
 62
     1
  6
CONTINUOUS
 66
     1
 40
0.003150
 41
0.003150
  0
VERTEX
  8
0
 62
     1
  6
CONTINUOUS
 10
0.343492
 20
1.387390
  0
VERTEX
  8
0
 62
     1
  6
CONTINUOUS
 10
0.363004
 20
1.460217
  0
SEQEND
  8
0
  0
POLYLINE
  8
0
 62
     1
  6
CONTINUOUS
 66
     1
 40
0.003150
 41
0.003150
  0
VERTEX
  8
0
 62
     1
  6
CONTINUOUS
 10
0.343492
 20
1.387390
  0
VERTEX
  8
0
 62
     1
  6
CONTINUOUS
 10
0.304744
 20
1.387390
  0
SEQEND
  8
0
  0
POLYLINE
  8
0
 62
     1
  6
CONTINUOUS
 66
     1
 40
0.003150
 41
0.003150
  0
VERTEX
  8
0
 62
     1
  6
CONTINUOUS
 10
0.304744
 20
1.387390
  0
VERTEX
  8
0
 62
     1
  6
CONTINUOUS
 10
0.304744
 20
1.496626
  0
SEQEND
  8
0
  0
POLYLINE
  8
0
 62
     1
  6
CONTINUOUS
 66
     1
 40
0.003150
 41
0.003150
  0
VERTEX
  8
0
 62
     1
  6
CONTINUOUS
 10
0.406697
 20
0.360587
  0
VERTEX
  8
0
 62
     1
  6
CONTINUOUS
 10
0.406697
 20
1.460217
  0
SEQEND
  8
0
  0
POLYLINE
  8
0
 62
     1
  6
CONTINUOUS
 66
     1
 40
0.003150
 41
0.003150
  0
VERTEX
  8
0
 62
     1
  6
CONTINUOUS
 10
0.406697
 20
1.460217
  0
VERTEX
  8
0
 62
     1
  6
CONTINUOUS
 10
0.363004
 20
1.460217
  0
SEQEND
  8
0
  0
POLYLINE
  8
0
 62
     1
  6
CONTINUOUS
 66
     1
 40
0.003150
 41
0.003150
  0
VERTEX
  8
0
 62
     1
  6
CONTINUOUS
 10
0.406697
 20
0.360587
  0
VERTEX
  8
0
 62
     1
  6
CONTINUOUS
 10
0.363004
 20
0.360587
  0
SEQEND
  8
0
  0
POLYLINE
  8
0
 62
     1
  6
CONTINUOUS
 66
     1
 40
0.003150
 41
0.003150
  0
VERTEX
  8
0
 62
     1
  6
CONTINUOUS
 10
0.304744
 20
0.344972
  0
VERTEX
  8
0
 62
     1
  6
CONTINUOUS
 10
0.363004
 20
0.360587
  0
SEQEND
  8
0
  0
POLYLINE
  8
0
 62
     1
  6
CONTINUOUS
 66
     1
 40
0.003150
 41
0.003150
  0
VERTEX
  8
0
 62
     1
  6
CONTINUOUS
 10
0.304744
 20
0.324177
  0
VERTEX
  8
0
 62
     1
  6
CONTINUOUS
 10
0.304744
 20
0.344972
  0
SEQEND
  8
0
  0
POLYLINE
  8
0
 62
     1
  6
CONTINUOUS
 66
     1
 40
0.003150
 41
0.003150
  0
VERTEX
  8
0
 62
     1
  6
CONTINUOUS
 10
0.457673
 20
0.273201
  0
VERTEX
  8
0
 62
     1
  6
CONTINUOUS
 10
0.355720
 20
0.273201
  0
SEQEND
  8
0
  0
POLYLINE
  8
0
 62
     1
  6
CONTINUOUS
 66
     1
 40
0.003150
 41
0.003150
  0
VERTEX
  8
0
 62
     1
  6
CONTINUOUS
 10
0.413980
 20
0.273201
  0
VERTEX
  8
0
 62
     1
  6
CONTINUOUS
 10
0.319311
 20
0.273201
  0
SEQEND
  8
0
  0
POLYLINE
  8
0
 62
     1
  6
CONTINUOUS
 66
     1
 40
0.003150
 41
0.003150
  0
VERTEX
  8
0
 62
     1
  6
CONTINUOUS
 10
0.319311
 20
0.273201
  0
VERTEX
  8
0
 62
     1
  6
CONTINUOUS
 10
0.319311
 20
0.288500
  0
SEQEND
  8
0
  0
POLYLINE
  8
0
 62
     1
  6
CONTINUOUS
 66
     1
 40
0.003150
 41
0.003150
  0
VERTEX
  8
0
 62
     1
  6
CONTINUOUS
 10
0.428547
 20
-0.462303
  0
VERTEX
  8
0
 62
     1
  6
CONTINUOUS
 10
0.413980
 20
-0.462303
  0
SEQEND
  8
0
  0
POLYLINE
  8
0
 62
     1
  6
CONTINUOUS
 66
     1
 40
0.003150
 41
0.003150
  0
VERTEX
  8
0
 62
     1
  6
CONTINUOUS
 10
0.413980
 20
-0.578823
  0
VERTEX
  8
0
 62
     1
  6
CONTINUOUS
 10
0.413980
 20
-0.462303
  0
SEQEND
  8
0
  0
POLYLINE
  8
0
 62
     1
  6
CONTINUOUS
 66
     1
 40
0.003150
 41
0.003150
  0
VERTEX
  8
0
 62
     1
  6
CONTINUOUS
 10
0.428547
 20
-0.578823
  0
VERTEX
  8
0
 62
     1
  6
CONTINUOUS
 10
0.413980
 20
-0.578823
  0
SEQEND
  8
0
  0
POLYLINE
  8
0
 62
     1
  6
CONTINUOUS
 66
     1
 40
0.003150
 41
0.003150
  0
VERTEX
  8
0
 62
     1
  6
CONTINUOUS
 10
0.319319
 20
1.234461
  0
VERTEX
  8
0
 62
     1
  6
CONTINUOUS
 10
0.363367
 20
1.246420
  0
VERTEX
  8
0
 62
     1
  6
CONTINUOUS
 10
0.394746
 20
1.277798
  0
VERTEX
  8
0
 62
     1
  6
CONTINUOUS
 10
0.406705
 20
1.321846
  0
SEQEND
  8
0
  0
POLYLINE
  8
0
 62
     1
  6
CONTINUOUS
 66
     1
 40
0.003150
 41
0.003150
  0
VERTEX
  8
0
 62
     1
  6
CONTINUOUS
 10
0.319319
 20
1.234461
  0
VERTEX
  8
0
 62
     1
  6
CONTINUOUS
 10
0.363367
 20
1.246420
  0
VERTEX
  8
0
 62
     1
  6
CONTINUOUS
 10
0.394746
 20
1.277798
  0
VERTEX
  8
0
 62
     1
  6
CONTINUOUS
 10
0.406705
 20
1.321846
  0
SEQEND
  8
0
  0
POLYLINE
  8
0
 62
     1
  6
CONTINUOUS
 66
     1
 40
0.003150
 41
0.003150
  0
VERTEX
  8
0
 62
     1
  6
CONTINUOUS
 10
0.319319
 20
1.278154
  0
VERTEX
  8
0
 62
     1
  6
CONTINUOUS
 10
0.341341
 20
1.284134
  0
VERTEX
  8
0
 62
     1
  6
CONTINUOUS
 10
0.357031
 20
1.299824
  0
VERTEX
  8
0
 62
     1
  6
CONTINUOUS
 10
0.363012
 20
1.321846
  0
SEQEND
  8
0
  0
POLYLINE
  8
0
 62
     1
  6
CONTINUOUS
 66
     1
 40
0.003150
 41
0.003150
  0
VERTEX
  8
0
 62
     1
  6
CONTINUOUS
 10
0.319319
 20
1.278154
  0
VERTEX
  8
0
 62
     1
  6
CONTINUOUS
 10
0.341341
 20
1.284134
  0
VERTEX
  8
0
 62
     1
  6
CONTINUOUS
 10
0.357031
 20
1.299824
  0
VERTEX
  8
0
 62
     1
  6
CONTINUOUS
 10
0.363012
 20
1.321846
  0
SEQEND
  8
0
  0
POLYLINE
  8
0
 62
     1
  6
CONTINUOUS
 66
     1
 40
0.003150
 41
0.003150
  0
VERTEX
  8
0
 62
     1
  6
CONTINUOUS
 10
0.406705
 20
0.506232
  0
VERTEX
  8
0
 62
     1
  6
CONTINUOUS
 10
0.394746
 20
0.550281
  0
VERTEX
  8
0
 62
     1
  6
CONTINUOUS
 10
0.363367
 20
0.581659
  0
VERTEX
  8
0
 62
     1
  6
CONTINUOUS
 10
0.319319
 20
0.593618
  0
SEQEND
  8
0
  0
POLYLINE
  8
0
 62
     1
  6
CONTINUOUS
 66
     1
 40
0.003150
 41
0.003150
  0
VERTEX
  8
0
 62
     1
  6
CONTINUOUS
 10
0.406705
 20
0.506232
  0
VERTEX
  8
0
 62
     1
  6
CONTINUOUS
 10
0.394746
 20
0.550281
  0
VERTEX
  8
0
 62
     1
  6
CONTINUOUS
 10
0.363367
 20
0.581659
  0
VERTEX
  8
0
 62
     1
  6
CONTINUOUS
 10
0.319319
 20
0.593618
  0
SEQEND
  8
0
  0
POLYLINE
  8
0
 62
     1
  6
CONTINUOUS
 66
     1
 40
0.003150
 41
0.003150
  0
VERTEX
  8
0
 62
     1
  6
CONTINUOUS
 10
0.363012
 20
0.506232
  0
VERTEX
  8
0
 62
     1
  6
CONTINUOUS
 10
0.357031
 20
0.528255
  0
VERTEX
  8
0
 62
     1
  6
CONTINUOUS
 10
0.341341
 20
0.543945
  0
VERTEX
  8
0
 62
     1
  6
CONTINUOUS
 10
0.319319
 20
0.549925
  0
SEQEND
  8
0
  0
POLYLINE
  8
0
 62
     1
  6
CONTINUOUS
 66
     1
 40
0.003150
 41
0.003150
  0
VERTEX
  8
0
 62
     1
  6
CONTINUOUS
 10
0.363012
 20
0.506232
  0
VERTEX
  8
0
 62
     1
  6
CONTINUOUS
 10
0.357031
 20
0.528255
  0
VERTEX
  8
0
 62
     1
  6
CONTINUOUS
 10
0.341341
 20
0.543945
  0
VERTEX
  8
0
 62
     1
  6
CONTINUOUS
 10
0.319319
 20
0.549925
  0
SEQEND
  8
0
  0
POLYLINE
  8
0
 62
     1
  6
CONTINUOUS
 66
     1
 40
0.003150
 41
0.003150
  0
VERTEX
  8
0
 62
     1
  6
CONTINUOUS
 10
0.406697
 20
1.460217
  0
VERTEX
  8
0
 62
     1
  6
CONTINUOUS
 10
0.363004
 20
1.460217
  0
SEQEND
  8
0
  0
POLYLINE
  8
0
 62
     1
  6
CONTINUOUS
 66
     1
 40
0.003150
 41
0.003150
  0
VERTEX
  8
0
 62
     1
  6
CONTINUOUS
 10
0.406697
 20
0.367870
  0
VERTEX
  8
0
 62
     1
  6
CONTINUOUS
 10
0.363004
 20
0.367870
  0
SEQEND
  8
0
  0
POLYLINE
  8
0
 62
     1
  6
CONTINUOUS
 66
     1
 40
0.003150
 41
0.003150
  0
VERTEX
  8
0
 62
     1
  6
CONTINUOUS
 10
0.363004
 20
1.321846
  0
VERTEX
  8
0
 62
     1
  6
CONTINUOUS
 10
0.363004
 20
1.460217
  0
SEQEND
  8
0
  0
POLYLINE
  8
0
 62
     1
  6
CONTINUOUS
 66
     1
 40
0.003150
 41
0.003150
  0
VERTEX
  8
0
 62
     1
  6
CONTINUOUS
 10
0.319311
 20
1.234461
  0
VERTEX
  8
0
 62
     1
  6
CONTINUOUS
 10
0.129972
 20
1.234461
  0
SEQEND
  8
0
  0
POLYLINE
  8
0
 62
     1
  6
CONTINUOUS
 66
     1
 40
0.003150
 41
0.003150
  0
VERTEX
  8
0
 62
     1
  6
CONTINUOUS
 10
0.319311
 20
1.278154
  0
VERTEX
  8
0
 62
     1
  6
CONTINUOUS
 10
0.129972
 20
1.278154
  0
SEQEND
  8
0
  0
POLYLINE
  8
0
 62
     1
  6
CONTINUOUS
 66
     1
 40
0.003150
 41
0.003150
  0
VERTEX
  8
0
 62
     1
  6
CONTINUOUS
 10
0.319311
 20
0.593618
  0
VERTEX
  8
0
 62
     1
  6
CONTINUOUS
 10
0.129972
 20
0.593618
  0
SEQEND
  8
0
  0
POLYLINE
  8
0
 62
     1
  6
CONTINUOUS
 66
     1
 40
0.003150
 41
0.003150
  0
VERTEX
  8
0
 62
     1
  6
CONTINUOUS
 10
0.363004
 20
0.367870
  0
VERTEX
  8
0
 62
     1
  6
CONTINUOUS
 10
0.363004
 20
0.506232
  0
SEQEND
  8
0
  0
POLYLINE
  8
0
 62
     1
  6
CONTINUOUS
 66
     1
 40
0.003150
 41
0.003150
  0
VERTEX
  8
0
 62
     1
  6
CONTINUOUS
 10
0.319311
 20
0.549925
  0
VERTEX
  8
0
 62
     1
  6
CONTINUOUS
 10
0.129972
 20
0.549925
  0
SEQEND
  8
0
  0
POLYLINE
  8
0
 62
     1
  6
CONTINUOUS
 66
     1
 40
0.003150
 41
0.003150
  0
VERTEX
  8
0
 62
     1
  6
CONTINUOUS
 10
0.406697
 20
1.321846
  0
VERTEX
  8
0
 62
     1
  6
CONTINUOUS
 10
0.406697
 20
1.460217
  0
SEQEND
  8
0
  0
POLYLINE
  8
0
 62
     1
  6
CONTINUOUS
 66
     1
 40
0.003150
 41
0.003150
  0
VERTEX
  8
0
 62
     1
  6
CONTINUOUS
 10
0.406697
 20
0.367870
  0
VERTEX
  8
0
 62
     1
  6
CONTINUOUS
 10
0.406697
 20
0.506232
  0
SEQEND
  8
0
  0
POLYLINE
  8
0
 62
     1
  6
CONTINUOUS
 66
     1
 40
0.003150
 41
0.003150
  0
VERTEX
  8
0
 62
     1
  6
CONTINUOUS
 10
0.457673
 20
-0.622516
  0
VERTEX
  8
0
 62
     1
  6
CONTINUOUS
 10
0.435831
 20
-0.622516
  0
SEQEND
  8
0
  0
POLYLINE
  8
0
 62
     1
  6
CONTINUOUS
 66
     1
 40
0.003150
 41
0.003150
  0
VERTEX
  8
0
 62
     1
  6
CONTINUOUS
 10
0.435831
 20
-0.622516
  0
VERTEX
  8
0
 62
     1
  6
CONTINUOUS
 10
0.435831
 20
0.273201
  0
SEQEND
  8
0
  0
POLYLINE
  8
0
 62
     1
  6
CONTINUOUS
 66
     1
 40
0.003150
 41
0.003150
  0
VERTEX
  8
0
 62
     1
  6
CONTINUOUS
 10
0.326594
 20
2.559839
  0
VERTEX
  8
0
 62
     1
  6
CONTINUOUS
 10
0.326594
 20
2.632665
  0
SEQEND
  8
0
  0
POLYLINE
  8
0
 62
     1
  6
CONTINUOUS
 66
     1
 40
0.003150
 41
0.003150
  0
VERTEX
  8
0
 62
     1
  6
CONTINUOUS
 10
0.413980
 20
2.632665
  0
VERTEX
  8
0
 62
     1
  6
CONTINUOUS
 10
0.326594
 20
2.632665
  0
SEQEND
  8
0
  0
POLYLINE
  8
0
 62
     1
  6
CONTINUOUS
 66
     1
 40
0.003150
 41
0.003150
  0
VERTEX
  8
0
 62
     1
  6
CONTINUOUS
 10
0.413980
 20
2.559839
  0
VERTEX
  8
0
 62
     1
  6
CONTINUOUS
 10
0.326594
 20
2.559839
  0
SEQEND
  8
0
  0
POLYLINE
  8
0
 62
     1
  6
CONTINUOUS
 66
     1
 40
0.003150
 41
0.003150
  0
VERTEX
  8
0
 62
     1
  6
CONTINUOUS
 10
0.413980
 20
2.625516
  0
VERTEX
  8
0
 62
     1
  6
CONTINUOUS
 10
0.326594
 20
2.625516
  0
SEQEND
  8
0
  0
POLYLINE
  8
0
 62
     1
  6
CONTINUOUS
 66
     1
 40
0.003150
 41
0.003150
  0
VERTEX
  8
0
 62
     1
  6
CONTINUOUS
 10
0.413980
 20
2.566988
  0
VERTEX
  8
0
 62
     1
  6
CONTINUOUS
 10
0.326594
 20
2.566988
  0
SEQEND
  8
0
  0
POLYLINE
  8
0
 62
     1
  6
CONTINUOUS
 66
     1
 40
0.003150
 41
0.003150
  0
VERTEX
  8
0
 62
     1
  6
CONTINUOUS
 10
0.413980
 20
-0.484154
  0
VERTEX
  8
0
 62
     1
  6
CONTINUOUS
 10
0.326594
 20
-0.484154
  0
SEQEND
  8
0
  0
POLYLINE
  8
0
 62
     1
  6
CONTINUOUS
 66
     1
 40
0.003150
 41
0.003150
  0
VERTEX
  8
0
 62
     1
  6
CONTINUOUS
 10
0.413980
 20
-0.491303
  0
VERTEX
  8
0
 62
     1
  6
CONTINUOUS
 10
0.326594
 20
-0.491303
  0
SEQEND
  8
0
  0
POLYLINE
  8
0
 62
     1
  6
CONTINUOUS
 66
     1
 40
0.003150
 41
0.003150
  0
VERTEX
  8
0
 62
     1
  6
CONTINUOUS
 10
0.413980
 20
-0.549831
  0
VERTEX
  8
0
 62
     1
  6
CONTINUOUS
 10
0.326594
 20
-0.549831
  0
SEQEND
  8
0
  0
POLYLINE
  8
0
 62
     1
  6
CONTINUOUS
 66
     1
 40
0.003150
 41
0.003150
  0
VERTEX
  8
0
 62
     1
  6
CONTINUOUS
 10
0.435831
 20
-0.242350
  0
VERTEX
  8
0
 62
     1
  6
CONTINUOUS
 10
0.428957
 20
-0.239177
  0
VERTEX
  8
0
 62
     1
  6
CONTINUOUS
 10
0.421550
 20
-0.237217
  0
VERTEX
  8
0
 62
     1
  6
CONTINUOUS
 10
0.413988
 20
-0.236547
  0
SEQEND
  8
0
  0
POLYLINE
  8
0
 62
     1
  6
CONTINUOUS
 66
     1
 40
0.003150
 41
0.003150
  0
VERTEX
  8
0
 62
     1
  6
CONTINUOUS
 10
0.435831
 20
-0.242350
  0
VERTEX
  8
0
 62
     1
  6
CONTINUOUS
 10
0.428957
 20
-0.239177
  0
VERTEX
  8
0
 62
     1
  6
CONTINUOUS
 10
0.421550
 20
-0.237217
  0
VERTEX
  8
0
 62
     1
  6
CONTINUOUS
 10
0.413988
 20
-0.236547
  0
SEQEND
  8
0
  0
POLYLINE
  8
0
 62
     1
  6
CONTINUOUS
 66
     1
 40
0.003150
 41
0.003150
  0
VERTEX
  8
0
 62
     1
  6
CONTINUOUS
 10
0.435831
 20
-0.280240
  0
VERTEX
  8
0
 62
     1
  6
CONTINUOUS
 10
0.432841
 20
-0.269230
  0
VERTEX
  8
0
 62
     1
  6
CONTINUOUS
 10
0.424998
 20
-0.261387
  0
VERTEX
  8
0
 62
     1
  6
CONTINUOUS
 10
0.413988
 20
-0.258398
  0
SEQEND
  8
0
  0
POLYLINE
  8
0
 62
     1
  6
CONTINUOUS
 66
     1
 40
0.003150
 41
0.003150
  0
VERTEX
  8
0
 62
     1
  6
CONTINUOUS
 10
0.435831
 20
-0.280240
  0
VERTEX
  8
0
 62
     1
  6
CONTINUOUS
 10
0.432841
 20
-0.269230
  0
VERTEX
  8
0
 62
     1
  6
CONTINUOUS
 10
0.424998
 20
-0.261387
  0
VERTEX
  8
0
 62
     1
  6
CONTINUOUS
 10
0.413988
 20
-0.258398
  0
SEQEND
  8
0
  0
POLYLINE
  8
0
 62
     1
  6
CONTINUOUS
 66
     1
 40
0.003150
 41
0.003150
  0
VERTEX
  8
0
 62
     1
  6
CONTINUOUS
 10
0.413980
 20
-0.556972
  0
VERTEX
  8
0
 62
     1
  6
CONTINUOUS
 10
0.326594
 20
-0.556972
  0
SEQEND
  8
0
  0
POLYLINE
  8
0
 62
     1
  6
CONTINUOUS
 66
     1
 40
0.003150
 41
0.003150
  0
VERTEX
  8
0
 62
     1
  6
CONTINUOUS
 10
0.326594
 20
-0.556972
  0
VERTEX
  8
0
 62
     1
  6
CONTINUOUS
 10
0.326594
 20
-0.484154
  0
SEQEND
  8
0
  0
POLYLINE
  8
0
 62
     1
  6
CONTINUOUS
 66
     1
 40
0.003150
 41
0.003150
  0
VERTEX
  8
0
 62
     1
  6
CONTINUOUS
 10
0.413980
 20
-0.236555
  0
VERTEX
  8
0
 62
     1
  6
CONTINUOUS
 10
0.319311
 20
-0.236555
  0
SEQEND
  8
0
  0
POLYLINE
  8
0
 62
     1
  6
CONTINUOUS
 66
     1
 40
0.003150
 41
0.003150
  0
VERTEX
  8
0
 62
     1
  6
CONTINUOUS
 10
0.413980
 20
-0.258398
  0
VERTEX
  8
0
 62
     1
  6
CONTINUOUS
 10
0.319311
 20
-0.258398
  0
SEQEND
  8
0
  0
POLYLINE
  8
0
 62
     1
  6
CONTINUOUS
 66
     1
 40
0.003150
 41
0.003150
  0
VERTEX
  8
0
 62
     1
  6
CONTINUOUS
 10
0.319311
 20
-0.258398
  0
VERTEX
  8
0
 62
     1
  6
CONTINUOUS
 10
0.319311
 20
-0.236555
  0
SEQEND
  8
0
  0
POLYLINE
  8
0
 62
     1
  6
CONTINUOUS
 66
     1
 40
0.003150
 41
0.003150
  0
VERTEX
  8
0
 62
     1
  6
CONTINUOUS
 10
0.042594
 20
0.637311
  0
VERTEX
  8
0
 62
     1
  6
CONTINUOUS
 10
0.054554
 20
0.593263
  0
VERTEX
  8
0
 62
     1
  6
CONTINUOUS
 10
0.085932
 20
0.561884
  0
VERTEX
  8
0
 62
     1
  6
CONTINUOUS
 10
0.129980
 20
0.549925
  0
SEQEND
  8
0
  0
POLYLINE
  8
0
 62
     1
  6
CONTINUOUS
 66
     1
 40
0.003150
 41
0.003150
  0
VERTEX
  8
0
 62
     1
  6
CONTINUOUS
 10
0.042594
 20
0.637311
  0
VERTEX
  8
0
 62
     1
  6
CONTINUOUS
 10
0.054554
 20
0.593263
  0
VERTEX
  8
0
 62
     1
  6
CONTINUOUS
 10
0.085932
 20
0.561884
  0
VERTEX
  8
0
 62
     1
  6
CONTINUOUS
 10
0.129980
 20
0.549925
  0
SEQEND
  8
0
  0
POLYLINE
  8
0
 62
     1
  6
CONTINUOUS
 66
     1
 40
0.003150
 41
0.003150
  0
VERTEX
  8
0
 62
     1
  6
CONTINUOUS
 10
0.086287
 20
0.637311
  0
VERTEX
  8
0
 62
     1
  6
CONTINUOUS
 10
0.092268
 20
0.615289
  0
VERTEX
  8
0
 62
     1
  6
CONTINUOUS
 10
0.107958
 20
0.599599
  0
VERTEX
  8
0
 62
     1
  6
CONTINUOUS
 10
0.129980
 20
0.593618
  0
SEQEND
  8
0
  0
POLYLINE
  8
0
 62
     1
  6
CONTINUOUS
 66
     1
 40
0.003150
 41
0.003150
  0
VERTEX
  8
0
 62
     1
  6
CONTINUOUS
 10
0.086287
 20
0.637311
  0
VERTEX
  8
0
 62
     1
  6
CONTINUOUS
 10
0.092268
 20
0.615289
  0
VERTEX
  8
0
 62
     1
  6
CONTINUOUS
 10
0.107958
 20
0.599599
  0
VERTEX
  8
0
 62
     1
  6
CONTINUOUS
 10
0.129980
 20
0.593618
  0
SEQEND
  8
0
  0
POLYLINE
  8
0
 62
     1
  6
CONTINUOUS
 66
     1
 40
0.003150
 41
0.003150
  0
VERTEX
  8
0
 62
     1
  6
CONTINUOUS
 10
0.371681
 20
0.360587
  0
VERTEX
  8
0
 62
     1
  6
CONTINUOUS
 10
0.342091
 20
0.385421
  0
SEQEND
  8
0
  0
POLYLINE
  8
0
 62
     1
  6
CONTINUOUS
 66
     1
 40
0.003150
 41
0.003150
  0
VERTEX
  8
0
 62
     1
  6
CONTINUOUS
 10
0.343823
 20
0.355445
  0
VERTEX
  8
0
 62
     1
  6
CONTINUOUS
 10
0.328043
 20
0.368689
  0
SEQEND
  8
0
  0
POLYLINE
  8
0
 62
     1
  6
CONTINUOUS
 66
     1
 40
0.003150
 41
0.003150
  0
VERTEX
  8
0
 62
     1
  6
CONTINUOUS
 10
0.380484
 20
-0.956917
  0
VERTEX
  8
0
 62
     1
  6
CONTINUOUS
 10
0.380484
 20
-0.556972
  0
SEQEND
  8
0
  0
POLYLINE
  8
0
 62
     1
  6
CONTINUOUS
 66
     1
 40
0.003150
 41
0.003150
  0
VERTEX
  8
0
 62
     1
  6
CONTINUOUS
 10
0.402327
 20
-0.956917
  0
VERTEX
  8
0
 62
     1
  6
CONTINUOUS
 10
0.402327
 20
-0.556972
  0
SEQEND
  8
0
  0
POLYLINE
  8
0
 62
     1
  6
CONTINUOUS
 66
     1
 40
0.003150
 41
0.003150
  0
VERTEX
  8
0
 62
     1
  6
CONTINUOUS
 10
0.328043
 20
0.368689
  0
VERTEX
  8
0
 62
     1
  6
CONTINUOUS
 10
0.342091
 20
0.385421
  0
SEQEND
  8
0
  0
POLYLINE
  8
0
 62
     1
  6
CONTINUOUS
 66
     1
 40
0.003150
 41
0.003150
  0
VERTEX
  8
0
 62
     1
  6
CONTINUOUS
 10
0.402327
 20
-0.956917
  0
VERTEX
  8
0
 62
     1
  6
CONTINUOUS
 10
0.380484
 20
-0.956917
  0
SEQEND
  8
0
  0
POLYLINE
  8
0
 62
     1
  6
CONTINUOUS
 66
     1
 40
0.003150
 41
0.003150
  0
VERTEX
  8
0
 62
     1
  6
CONTINUOUS
 10
0.129980
 20
1.234461
  0
VERTEX
  8
0
 62
     1
  6
CONTINUOUS
 10
0.107958
 20
1.228480
  0
VERTEX
  8
0
 62
     1
  6
CONTINUOUS
 10
0.092268
 20
1.212790
  0
VERTEX
  8
0
 62
     1
  6
CONTINUOUS
 10
0.086287
 20
1.190768
  0
SEQEND
  8
0
  0
POLYLINE
  8
0
 62
     1
  6
CONTINUOUS
 66
     1
 40
0.003150
 41
0.003150
  0
VERTEX
  8
0
 62
     1
  6
CONTINUOUS
 10
0.129980
 20
1.234461
  0
VERTEX
  8
0
 62
     1
  6
CONTINUOUS
 10
0.107958
 20
1.228480
  0
VERTEX
  8
0
 62
     1
  6
CONTINUOUS
 10
0.092268
 20
1.212790
  0
VERTEX
  8
0
 62
     1
  6
CONTINUOUS
 10
0.086287
 20
1.190768
  0
SEQEND
  8
0
  0
POLYLINE
  8
0
 62
     1
  6
CONTINUOUS
 66
     1
 40
0.003150
 41
0.003150
  0
VERTEX
  8
0
 62
     1
  6
CONTINUOUS
 10
0.129980
 20
1.278154
  0
VERTEX
  8
0
 62
     1
  6
CONTINUOUS
 10
0.085932
 20
1.266194
  0
VERTEX
  8
0
 62
     1
  6
CONTINUOUS
 10
0.054554
 20
1.234816
  0
VERTEX
  8
0
 62
     1
  6
CONTINUOUS
 10
0.042594
 20
1.190768
  0
SEQEND
  8
0
  0
POLYLINE
  8
0
 62
     1
  6
CONTINUOUS
 66
     1
 40
0.003150
 41
0.003150
  0
VERTEX
  8
0
 62
     1
  6
CONTINUOUS
 10
0.129980
 20
1.278154
  0
VERTEX
  8
0
 62
     1
  6
CONTINUOUS
 10
0.085932
 20
1.266194
  0
VERTEX
  8
0
 62
     1
  6
CONTINUOUS
 10
0.054554
 20
1.234816
  0
VERTEX
  8
0
 62
     1
  6
CONTINUOUS
 10
0.042594
 20
1.190768
  0
SEQEND
  8
0
  0
POLYLINE
  8
0
 62
     1
  6
CONTINUOUS
 66
     1
 40
0.003150
 41
0.003150
  0
VERTEX
  8
0
 62
     1
  6
CONTINUOUS
 10
0.086280
 20
0.637311
  0
VERTEX
  8
0
 62
     1
  6
CONTINUOUS
 10
0.086280
 20
1.190768
  0
SEQEND
  8
0
  0
POLYLINE
  8
0
 62
     1
  6
CONTINUOUS
 66
     1
 40
0.003150
 41
0.003150
  0
VERTEX
  8
0
 62
     1
  6
CONTINUOUS
 10
0.042587
 20
0.637311
  0
VERTEX
  8
0
 62
     1
  6
CONTINUOUS
 10
0.042587
 20
1.190768
  0
SEQEND
  8
0
  0
POLYLINE
  8
0
 62
     1
  6
CONTINUOUS
 66
     1
 40
0.003150
 41
0.003150
  0
VERTEX
  8
0
 62
     1
  6
CONTINUOUS
 10
0.402327
 20
-0.484154
  0
VERTEX
  8
0
 62
     1
  6
CONTINUOUS
 10
0.402327
 20
-0.258398
  0
SEQEND
  8
0
  0
POLYLINE
  8
0
 62
     1
  6
CONTINUOUS
 66
     1
 40
0.003150
 41
0.003150
  0
VERTEX
  8
0
 62
     1
  6
CONTINUOUS
 10
0.380484
 20
-0.484154
  0
VERTEX
  8
0
 62
     1
  6
CONTINUOUS
 10
0.380484
 20
-0.258398
  0
SEQEND
  8
0
  0
POLYLINE
  8
0
 62
     1
  6
CONTINUOUS
 66
     1
 40
0.003150
 41
0.003150
  0
VERTEX
  8
0
 62
     1
  6
CONTINUOUS
 10
0.402327
 20
-0.236555
  0
VERTEX
  8
0
 62
     1
  6
CONTINUOUS
 10
0.402327
 20
0.273201
  0
SEQEND
  8
0
  0
POLYLINE
  8
0
 62
     1
  6
CONTINUOUS
 66
     1
 40
0.003150
 41
0.003150
  0
VERTEX
  8
0
 62
     1
  6
CONTINUOUS
 10
0.380484
 20
-0.236555
  0
VERTEX
  8
0
 62
     1
  6
CONTINUOUS
 10
0.380484
 20
0.273201
  0
SEQEND
  8
0
  0
TEXT
  8
0
 62
     1
 10
1.450945
 20
-3.536189
 40
0.066074
  1
M 3076 95-01-16
 50
359.820084
 41
1.000000
  7
SN0
 71
     0
 72
     5
 11
2.062776
 21
-3.538138
  0
TEXT
  8
0
 62
     1
 10
2.212185
 20
-1.115957
 40
0.098858
  1
4,5
 50
359.820084
 41
1.000000
  7
SN0
 71
     0
 72
     5
 11
2.378898
 21
-1.116488
  0
POLYLINE
  8
0
 62
     1
  6
CONTINUOUS
 66
     1
 40
0.003150
 41
0.003150
  0
VERTEX
  8
0
 62
     1
  6
CONTINUOUS
 10
0.380484
 20
-0.080713
  0
VERTEX
  8
0
 62
     1
  6
CONTINUOUS
 10
0.352807
 20
-0.080713
  0
SEQEND
  8
0
  0
POLYLINE
  8
0
 62
     1
  6
CONTINUOUS
 66
     1
 40
0.003150
 41
0.003150
  0
VERTEX
  8
0
 62
     1
  6
CONTINUOUS
 10
0.430004
 20
-0.080713
  0
VERTEX
  8
0
 62
     1
  6
CONTINUOUS
 10
0.402327
 20
-0.080713
  0
SEQEND
  8
0
  0
POLYLINE
  8
0
 62
     1
  6
CONTINUOUS
 66
     1
 40
0.003150
 41
0.003150
  0
VERTEX
  8
0
 62
     1
  6
CONTINUOUS
 10
0.352807
 20
-0.236555
  0
VERTEX
  8
0
 62
     1
  6
CONTINUOUS
 10
0.352807
 20
-0.080713
  0
SEQEND
  8
0
  0
POLYLINE
  8
0
 62
     1
  6
CONTINUOUS
 66
     1
 40
0.003150
 41
0.003150
  0
VERTEX
  8
0
 62
     1
  6
CONTINUOUS
 10
0.430004
 20
-0.236555
  0
VERTEX
  8
0
 62
     1
  6
CONTINUOUS
 10
0.430004
 20
-0.080713
  0
SEQEND
  8
0
  0
POLYLINE
  8
0
 62
     1
  6
CONTINUOUS
 66
     1
 40
0.003150
 41
0.003150
  0
VERTEX
  8
0
 62
     1
  6
CONTINUOUS
 10
2.096193
 20
0.560846
  0
VERTEX
  8
0
 62
     1
  6
CONTINUOUS
 10
2.096193
 20
-1.246807
  0
SEQEND
  8
0
  0
POLYLINE
  8
0
 62
     1
  6
CONTINUOUS
 66
     1
 40
0.003150
 41
0.003150
  0
VERTEX
  8
0
 62
     1
  6
CONTINUOUS
 10
2.030650
 20
0.276839
  0
VERTEX
  8
0
 62
     1
  6
CONTINUOUS
 10
2.030650
 20
-1.246807
  0
SEQEND
  8
0
  0
POLYLINE
  8
0
 62
     1
  6
CONTINUOUS
 66
     1
 40
0.003150
 41
0.003150
  0
VERTEX
  8
0
 62
     1
  6
CONTINUOUS
 10
2.409335
 20
-1.188555
  0
VERTEX
  8
0
 62
     1
  6
CONTINUOUS
 10
2.030650
 20
-1.188555
  0
SEQEND
  8
0
  0
POLYLINE
  8
0
 62
     1
  6
CONTINUOUS
 66
     1
 40
0.003150
 41
0.003150
  0
VERTEX
  8
0
 62
     1
  6
CONTINUOUS
 10
2.182256
 20
-1.173374
  0
VERTEX
  8
0
 62
     1
  6
CONTINUOUS
 10
2.096193
 20
-1.188555
  0
SEQEND
  8
0
  0
POLYLINE
  8
0
 62
     1
  6
CONTINUOUS
 66
     1
 40
0.003150
 41
0.003150
  0
VERTEX
  8
0
 62
     1
  6
CONTINUOUS
 10
2.096193
 20
-1.188555
  0
VERTEX
  8
0
 62
     1
  6
CONTINUOUS
 10
2.182256
 20
-1.203728
  0
SEQEND
  8
0
  0
POLYLINE
  8
0
 62
     1
  6
CONTINUOUS
 66
     1
 40
0.003150
 41
0.003150
  0
VERTEX
  8
0
 62
     1
  6
CONTINUOUS
 10
1.944594
 20
-1.203728
  0
VERTEX
  8
0
 62
     1
  6
CONTINUOUS
 10
2.030650
 20
-1.188555
  0
SEQEND
  8
0
  0
POLYLINE
  8
0
 62
     1
  6
CONTINUOUS
 66
     1
 40
0.003150
 41
0.003150
  0
VERTEX
  8
0
 62
     1
  6
CONTINUOUS
 10
2.030650
 20
-1.188555
  0
VERTEX
  8
0
 62
     1
  6
CONTINUOUS
 10
1.944594
 20
-1.173374
  0
SEQEND
  8
0
  0
TEXT
  8
0
 62
     1
 10
1.135902
 20
-1.116004
 40
0.098858
  1
108
 50
359.820084
 41
1.000000
  7
SN0
 71
     0
 72
     5
 11
1.335627
 21
-1.116640
  0
POLYLINE
  8
0
 62
     1
  6
CONTINUOUS
 66
     1
 40
0.003150
 41
0.003150
  0
VERTEX
  8
0
 62
     1
  6
CONTINUOUS
 10
0.457673
 20
-0.651650
  0
VERTEX
  8
0
 62
     1
  6
CONTINUOUS
 10
0.457673
 20
-1.246807
  0
SEQEND
  8
0
  0
POLYLINE
  8
0
 62
     1
  6
CONTINUOUS
 66
     1
 40
0.003150
 41
0.003150
  0
VERTEX
  8
0
 62
     1
  6
CONTINUOUS
 10
2.030650
 20
-1.188555
  0
VERTEX
  8
0
 62
     1
  6
CONTINUOUS
 10
0.457673
 20
-1.188555
  0
SEQEND
  8
0
  0
POLYLINE
  8
0
 62
     1
  6
CONTINUOUS
 66
     1
 40
0.003150
 41
0.003150
  0
VERTEX
  8
0
 62
     1
  6
CONTINUOUS
 10
1.944594
 20
-1.203728
  0
VERTEX
  8
0
 62
     1
  6
CONTINUOUS
 10
2.030650
 20
-1.188555
  0
SEQEND
  8
0
  0
POLYLINE
  8
0
 62
     1
  6
CONTINUOUS
 66
     1
 40
0.003150
 41
0.003150
  0
VERTEX
  8
0
 62
     1
  6
CONTINUOUS
 10
2.030650
 20
-1.188555
  0
VERTEX
  8
0
 62
     1
  6
CONTINUOUS
 10
1.944594
 20
-1.173374
  0
SEQEND
  8
0
  0
POLYLINE
  8
0
 62
     1
  6
CONTINUOUS
 66
     1
 40
0.003150
 41
0.003150
  0
VERTEX
  8
0
 62
     1
  6
CONTINUOUS
 10
0.543736
 20
-1.173374
  0
VERTEX
  8
0
 62
     1
  6
CONTINUOUS
 10
0.457673
 20
-1.188555
  0
SEQEND
  8
0
  0
POLYLINE
  8
0
 62
     1
  6
CONTINUOUS
 66
     1
 40
0.003150
 41
0.003150
  0
VERTEX
  8
0
 62
     1
  6
CONTINUOUS
 10
0.457673
 20
-1.188555
  0
VERTEX
  8
0
 62
     1
  6
CONTINUOUS
 10
0.543736
 20
-1.203728
  0
SEQEND
  8
0
  0
TEXT
  8
0
 62
     1
 10
1.332846
 20
-1.404705
 40
0.098858
  1
135
 50
359.820084
 41
1.000000
  7
SN0
 71
     0
 72
     5
 11
1.532572
 21
-1.405341
  0
POLYLINE
  8
0
 62
     1
  6
CONTINUOUS
 66
     1
 40
0.003150
 41
0.003150
  0
VERTEX
  8
0
 62
     1
  6
CONTINUOUS
 10
2.424539
 20
0.884909
  0
VERTEX
  8
0
 62
     1
  6
CONTINUOUS
 10
2.424539
 20
-1.535508
  0
SEQEND
  8
0
  0
POLYLINE
  8
0
 62
     1
  6
CONTINUOUS
 66
     1
 40
0.003150
 41
0.003150
  0
VERTEX
  8
0
 62
     1
  6
CONTINUOUS
 10
0.457673
 20
-0.651650
  0
VERTEX
  8
0
 62
     1
  6
CONTINUOUS
 10
0.457673
 20
-1.535508
  0
SEQEND
  8
0
  0
POLYLINE
  8
0
 62
     1
  6
CONTINUOUS
 66
     1
 40
0.003150
 41
0.003150
  0
VERTEX
  8
0
 62
     1
  6
CONTINUOUS
 10
2.424539
 20
-1.477256
  0
VERTEX
  8
0
 62
     1
  6
CONTINUOUS
 10
0.457673
 20
-1.477256
  0
SEQEND
  8
0
  0
POLYLINE
  8
0
 62
     1
  6
CONTINUOUS
 66
     1
 40
0.003150
 41
0.003150
  0
VERTEX
  8
0
 62
     1
  6
CONTINUOUS
 10
2.338476
 20
-1.492429
  0
VERTEX
  8
0
 62
     1
  6
CONTINUOUS
 10
2.424539
 20
-1.477256
  0
SEQEND
  8
0
  0
POLYLINE
  8
0
 62
     1
  6
CONTINUOUS
 66
     1
 40
0.003150
 41
0.003150
  0
VERTEX
  8
0
 62
     1
  6
CONTINUOUS
 10
2.424539
 20
-1.477256
  0
VERTEX
  8
0
 62
     1
  6
CONTINUOUS
 10
2.338476
 20
-1.462075
  0
SEQEND
  8
0
  0
POLYLINE
  8
0
 62
     1
  6
CONTINUOUS
 66
     1
 40
0.003150
 41
0.003150
  0
VERTEX
  8
0
 62
     1
  6
CONTINUOUS
 10
0.543736
 20
-1.462075
  0
VERTEX
  8
0
 62
     1
  6
CONTINUOUS
 10
0.457673
 20
-1.477256
  0
SEQEND
  8
0
  0
POLYLINE
  8
0
 62
     1
  6
CONTINUOUS
 66
     1
 40
0.003150
 41
0.003150
  0
VERTEX
  8
0
 62
     1
  6
CONTINUOUS
 10
0.457673
 20
-1.477256
  0
VERTEX
  8
0
 62
     1
  6
CONTINUOUS
 10
0.543736
 20
-1.492429
  0
SEQEND
  8
0
  0
TEXT
  8
0
 62
     1
 10
0.907795
 20
3.267260
 40
0.098858
  1
5
 50
359.820084
 41
1.000000
  7
SN0
 71
     0
 72
     5
 11
0.974370
 21
3.267048
  0
POLYLINE
  8
0
 62
     1
  6
CONTINUOUS
 66
     1
 40
0.003150
 41
0.003150
  0
VERTEX
  8
0
 62
     1
  6
CONTINUOUS
 10
0.821791
 20
2.800154
  0
VERTEX
  8
0
 62
     1
  6
CONTINUOUS
 10
0.821791
 20
3.252783
  0
SEQEND
  8
0
  0
POLYLINE
  8
0
 62
     1
  6
CONTINUOUS
 66
     1
 40
0.003150
 41
0.003150
  0
VERTEX
  8
0
 62
     1
  6
CONTINUOUS
 10
0.748965
 20
2.800154
  0
VERTEX
  8
0
 62
     1
  6
CONTINUOUS
 10
0.748965
 20
3.252783
  0
SEQEND
  8
0
  0
POLYLINE
  8
0
 62
     1
  6
CONTINUOUS
 66
     1
 40
0.003150
 41
0.003150
  0
VERTEX
  8
0
 62
     1
  6
CONTINUOUS
 10
0.973264
 20
3.194524
  0
VERTEX
  8
0
 62
     1
  6
CONTINUOUS
 10
0.748965
 20
3.194524
  0
SEQEND
  8
0
  0
POLYLINE
  8
0
 62
     1
  6
CONTINUOUS
 66
     1
 40
0.003150
 41
0.003150
  0
VERTEX
  8
0
 62
     1
  6
CONTINUOUS
 10
0.907846
 20
3.209705
  0
VERTEX
  8
0
 62
     1
  6
CONTINUOUS
 10
0.821791
 20
3.194524
  0
SEQEND
  8
0
  0
POLYLINE
  8
0
 62
     1
  6
CONTINUOUS
 66
     1
 40
0.003150
 41
0.003150
  0
VERTEX
  8
0
 62
     1
  6
CONTINUOUS
 10
0.821791
 20
3.194524
  0
VERTEX
  8
0
 62
     1
  6
CONTINUOUS
 10
0.907846
 20
3.179350
  0
SEQEND
  8
0
  0
POLYLINE
  8
0
 62
     1
  6
CONTINUOUS
 66
     1
 40
0.003150
 41
0.003150
  0
VERTEX
  8
0
 62
     1
  6
CONTINUOUS
 10
0.662909
 20
3.179350
  0
VERTEX
  8
0
 62
     1
  6
CONTINUOUS
 10
0.748965
 20
3.194524
  0
SEQEND
  8
0
  0
POLYLINE
  8
0
 62
     1
  6
CONTINUOUS
 66
     1
 40
0.003150
 41
0.003150
  0
VERTEX
  8
0
 62
     1
  6
CONTINUOUS
 10
0.748965
 20
3.194524
  0
VERTEX
  8
0
 62
     1
  6
CONTINUOUS
 10
0.662909
 20
3.209705
  0
SEQEND
  8
0
  0
TEXT
  8
0
 62
     1
 10
0.215339
 20
3.267169
 40
0.098858
  1
20
 50
359.820084
 41
1.000000
  7
SN0
 71
     0
 72
     5
 11
0.348489
 21
3.266745
  0
POLYLINE
  8
0
 62
     1
  6
CONTINUOUS
 66
     1
 40
0.003150
 41
0.003150
  0
VERTEX
  8
0
 62
     1
  6
CONTINUOUS
 10
0.457673
 20
2.727335
  0
VERTEX
  8
0
 62
     1
  6
CONTINUOUS
 10
0.457673
 20
3.252783
  0
SEQEND
  8
0
  0
POLYLINE
  8
0
 62
     1
  6
CONTINUOUS
 66
     1
 40
0.003150
 41
0.003150
  0
VERTEX
  8
0
 62
     1
  6
CONTINUOUS
 10
0.748965
 20
3.194524
  0
VERTEX
  8
0
 62
     1
  6
CONTINUOUS
 10
0.209350
 20
3.194524
  0
SEQEND
  8
0
  0
POLYLINE
  8
0
 62
     1
  6
CONTINUOUS
 66
     1
 40
0.003150
 41
0.003150
  0
VERTEX
  8
0
 62
     1
  6
CONTINUOUS
 10
0.662909
 20
3.179350
  0
VERTEX
  8
0
 62
     1
  6
CONTINUOUS
 10
0.748965
 20
3.194524
  0
SEQEND
  8
0
  0
POLYLINE
  8
0
 62
     1
  6
CONTINUOUS
 66
     1
 40
0.003150
 41
0.003150
  0
VERTEX
  8
0
 62
     1
  6
CONTINUOUS
 10
0.748965
 20
3.194524
  0
VERTEX
  8
0
 62
     1
  6
CONTINUOUS
 10
0.662909
 20
3.209705
  0
SEQEND
  8
0
  0
POLYLINE
  8
0
 62
     1
  6
CONTINUOUS
 66
     1
 40
0.003150
 41
0.003150
  0
VERTEX
  8
0
 62
     1
  6
CONTINUOUS
 10
0.543736
 20
3.209705
  0
VERTEX
  8
0
 62
     1
  6
CONTINUOUS
 10
0.457673
 20
3.194524
  0
SEQEND
  8
0
  0
POLYLINE
  8
0
 62
     1
  6
CONTINUOUS
 66
     1
 40
0.003150
 41
0.003150
  0
VERTEX
  8
0
 62
     1
  6
CONTINUOUS
 10
0.457673
 20
3.194524
  0
VERTEX
  8
0
 62
     1
  6
CONTINUOUS
 10
0.543736
 20
3.179350
  0
SEQEND
  8
0
  0
TEXT
  8
0
 62
     1
 10
2.782689
 20
0.896205
 40
0.098858
  1
45
 50
90.000647
 41
1.000000
  7
SN0
 71
     0
 72
     5
 11
2.782689
 21
1.029356
  0
POLYLINE
  8
0
 62
     1
  6
CONTINUOUS
 66
     1
 40
0.003150
 41
0.003150
  0
VERTEX
  8
0
 62
     1
  6
CONTINUOUS
 10
2.121681
 20
0.586335
  0
VERTEX
  8
0
 62
     1
  6
CONTINUOUS
 10
2.913776
 20
0.586335
  0
SEQEND
  8
0
  0
POLYLINE
  8
0
 62
     1
  6
CONTINUOUS
 66
     1
 40
0.003150
 41
0.003150
  0
VERTEX
  8
0
 62
     1
  6
CONTINUOUS
 10
2.121681
 20
1.241744
  0
VERTEX
  8
0
 62
     1
  6
CONTINUOUS
 10
2.913776
 20
1.241744
  0
SEQEND
  8
0
  0
POLYLINE
  8
0
 62
     1
  6
CONTINUOUS
 66
     1
 40
0.003150
 41
0.003150
  0
VERTEX
  8
0
 62
     1
  6
CONTINUOUS
 10
2.855516
 20
0.586335
  0
VERTEX
  8
0
 62
     1
  6
CONTINUOUS
 10
2.855516
 20
1.241744
  0
SEQEND
  8
0
  0
POLYLINE
  8
0
 62
     1
  6
CONTINUOUS
 66
     1
 40
0.003150
 41
0.003150
  0
VERTEX
  8
0
 62
     1
  6
CONTINUOUS
 10
2.840343
 20
0.672398
  0
VERTEX
  8
0
 62
     1
  6
CONTINUOUS
 10
2.855516
 20
0.586335
  0
SEQEND
  8
0
  0
POLYLINE
  8
0
 62
     1
  6
CONTINUOUS
 66
     1
 40
0.003150
 41
0.003150
  0
VERTEX
  8
0
 62
     1
  6
CONTINUOUS
 10
2.855516
 20
0.586335
  0
VERTEX
  8
0
 62
     1
  6
CONTINUOUS
 10
2.870689
 20
0.672398
  0
SEQEND
  8
0
  0
POLYLINE
  8
0
 62
     1
  6
CONTINUOUS
 66
     1
 40
0.003150
 41
0.003150
  0
VERTEX
  8
0
 62
     1
  6
CONTINUOUS
 10
2.870689
 20
1.155681
  0
VERTEX
  8
0
 62
     1
  6
CONTINUOUS
 10
2.855516
 20
1.241744
  0
SEQEND
  8
0
  0
POLYLINE
  8
0
 62
     1
  6
CONTINUOUS
 66
     1
 40
0.003150
 41
0.003150
  0
VERTEX
  8
0
 62
     1
  6
CONTINUOUS
 10
2.855516
 20
1.241744
  0
VERTEX
  8
0
 62
     1
  6
CONTINUOUS
 10
2.840343
 20
1.155681
  0
SEQEND
  8
0
  0
TEXT
  8
0
 62
     1
 10
2.563055
 20
1.505776
 40
0.098858
  1
22,5
 50
90.000647
 41
1.000000
  7
SN0
 71
     0
 72
     5
 11
2.563055
 21
1.739065
  0
POLYLINE
  8
0
 62
     1
  6
CONTINUOUS
 66
     1
 40
0.003150
 41
0.003150
  0
VERTEX
  8
0
 62
     1
  6
CONTINUOUS
 10
2.351106
 20
0.914043
  0
VERTEX
  8
0
 62
     1
  6
CONTINUOUS
 10
2.694138
 20
0.914043
  0
SEQEND
  8
0
  0
POLYLINE
  8
0
 62
     1
  6
CONTINUOUS
 66
     1
 40
0.003150
 41
0.003150
  0
VERTEX
  8
0
 62
     1
  6
CONTINUOUS
 10
2.121681
 20
1.241744
  0
VERTEX
  8
0
 62
     1
  6
CONTINUOUS
 10
2.694138
 20
1.241744
  0
SEQEND
  8
0
  0
POLYLINE
  8
0
 62
     1
  6
CONTINUOUS
 66
     1
 40
0.003150
 41
0.003150
  0
VERTEX
  8
0
 62
     1
  6
CONTINUOUS
 10
2.635886
 20
0.914043
  0
VERTEX
  8
0
 62
     1
  6
CONTINUOUS
 10
2.635886
 20
1.677106
  0
SEQEND
  8
0
  0
POLYLINE
  8
0
 62
     1
  6
CONTINUOUS
 66
     1
 40
0.003150
 41
0.003150
  0
VERTEX
  8
0
 62
     1
  6
CONTINUOUS
 10
2.651059
 20
0.827980
  0
VERTEX
  8
0
 62
     1
  6
CONTINUOUS
 10
2.635886
 20
0.914043
  0
SEQEND
  8
0
  0
POLYLINE
  8
0
 62
     1
  6
CONTINUOUS
 66
     1
 40
0.003150
 41
0.003150
  0
VERTEX
  8
0
 62
     1
  6
CONTINUOUS
 10
2.635886
 20
0.914043
  0
VERTEX
  8
0
 62
     1
  6
CONTINUOUS
 10
2.620705
 20
0.827980
  0
SEQEND
  8
0
  0
POLYLINE
  8
0
 62
     1
  6
CONTINUOUS
 66
     1
 40
0.003150
 41
0.003150
  0
VERTEX
  8
0
 62
     1
  6
CONTINUOUS
 10
2.620705
 20
1.327807
  0
VERTEX
  8
0
 62
     1
  6
CONTINUOUS
 10
2.635886
 20
1.241744
  0
SEQEND
  8
0
  0
POLYLINE
  8
0
 62
     1
  6
CONTINUOUS
 66
     1
 40
0.003150
 41
0.003150
  0
VERTEX
  8
0
 62
     1
  6
CONTINUOUS
 10
2.635886
 20
1.241744
  0
VERTEX
  8
0
 62
     1
  6
CONTINUOUS
 10
2.651059
 20
1.327807
  0
SEQEND
  8
0
  0
TEXT
  8
0
 62
     1
 10
-0.239339
 20
0.596520
 40
0.098858
  1
10,25
 50
90.000647
 41
1.000000
  7
SN0
 71
     0
 72
     5
 11
-0.239339
 21
0.896384
  0
POLYLINE
  8
0
 62
     1
  6
CONTINUOUS
 66
     1
 40
0.003150
 41
0.003150
  0
VERTEX
  8
0
 62
     1
  6
CONTINUOUS
 10
-0.055783
 20
0.914043
  0
VERTEX
  8
0
 62
     1
  6
CONTINUOUS
 10
-0.224768
 20
0.914043
  0
SEQEND
  8
0
  0
POLYLINE
  8
0
 62
     1
  6
CONTINUOUS
 66
     1
 40
0.003150
 41
0.003150
  0
VERTEX
  8
0
 62
     1
  6
CONTINUOUS
 10
-0.101366
 20
1.063327
  0
VERTEX
  8
0
 62
     1
  6
CONTINUOUS
 10
-0.224768
 20
1.063327
  0
SEQEND
  8
0
  0
POLYLINE
  8
0
 62
     1
  6
CONTINUOUS
 66
     1
 40
0.003150
 41
0.003150
  0
VERTEX
  8
0
 62
     1
  6
CONTINUOUS
 10
-0.166516
 20
0.423217
  0
VERTEX
  8
0
 62
     1
  6
CONTINUOUS
 10
-0.166516
 20
1.063327
  0
SEQEND
  8
0
  0
POLYLINE
  8
0
 62
     1
  6
CONTINUOUS
 66
     1
 40
0.003150
 41
0.003150
  0
VERTEX
  8
0
 62
     1
  6
CONTINUOUS
 10
-0.151335
 20
0.827980
  0
VERTEX
  8
0
 62
     1
  6
CONTINUOUS
 10
-0.166516
 20
0.914043
  0
SEQEND
  8
0
  0
POLYLINE
  8
0
 62
     1
  6
CONTINUOUS
 66
     1
 40
0.003150
 41
0.003150
  0
VERTEX
  8
0
 62
     1
  6
CONTINUOUS
 10
-0.166516
 20
0.914043
  0
VERTEX
  8
0
 62
     1
  6
CONTINUOUS
 10
-0.181689
 20
0.827980
  0
SEQEND
  8
0
  0
POLYLINE
  8
0
 62
     1
  6
CONTINUOUS
 66
     1
 40
0.003150
 41
0.003150
  0
VERTEX
  8
0
 62
     1
  6
CONTINUOUS
 10
-0.181689
 20
1.149390
  0
VERTEX
  8
0
 62
     1
  6
CONTINUOUS
 10
-0.166516
 20
1.063327
  0
SEQEND
  8
0
  0
POLYLINE
  8
0
 62
     1
  6
CONTINUOUS
 66
     1
 40
0.003150
 41
0.003150
  0
VERTEX
  8
0
 62
     1
  6
CONTINUOUS
 10
-0.166516
 20
1.063327
  0
VERTEX
  8
0
 62
     1
  6
CONTINUOUS
 10
-0.151335
 20
1.149390
  0
SEQEND
  8
0
  0
TEXT
  8
0
 62
     1
 10
1.220260
 20
-3.121531
 40
0.066074
  1
93-11-15 BARCELLA
 50
359.820084
 41
1.000000
  7
SN0
 71
     0
 72
     5
 11
1.982297
 21
-3.123960
  0
TEXT
  8
0
 62
     1
 10
2.943130
 20
1.060669
 40
0.098858
  1
X
 50
359.820084
 41
1.000000
  7
SN0
 71
     0
 72
     5
 11
3.022910
 21
1.060415
  0
TEXT
  8
0
 62
     1
 10
4.431630
 20
-3.879665
 40
0.132651
  1
601812/451
 50
359.820084
 41
1.000000
  7
SN0
 71
     0
 72
     5
 11
5.278399
 21
-3.882363
  0
TEXT
  8
0
 62
     1
 10
4.731689
 20
-3.615957
 40
0.098858
  1
S5
 50
359.820084
 41
1.000000
  7
SN0
 71
     0
 72
     5
 11
4.878044
 21
-3.616423
  0
TEXT
  8
0
 62
     1
 10
3.803902
 20
-3.055378
 40
0.066074
  1
3/4POLE LOW VOLTAGE M.C.C.B SERIES ISOMAX
 50
359.820084
 41
1.000000
  7
SN0
 71
     0
 72
     5
 11
5.715323
 21
-3.061468
  0
TEXT
  8
0
 62
     1
 10
3.938319
 20
-3.142394
 40
0.066074
  1
FIXED VERSION DIN CHANNEL ASSEMBLY
 50
359.820084
 41
1.000000
  7
SN0
 71
     0
 72
     5
 11
5.577387
 21
-3.147616
  0
TEXT
  8
0
 62
     1
 10
3.925555
 20
-3.289807
 40
0.066074
  1
INTERR.AUTOMATICO SERIE ISOMAX
 50
359.820084
 41
1.000000
  7
SN0
 71
     0
 72
     5
 11
5.381405
 21
-3.294446
  0
TEXT
  8
0
 62
     1
 10
3.597406
 20
-3.378091
 40
0.066074
  1
TRIP./TETRAP. ESECUZIONE FISSA SU PROFILATO DIN
 50
359.820084
 41
1.000000
  7
SN0
 71
     0
 72
     5
 11
5.735512
 21
-3.384903
  0
POLYLINE
  8
0
 62
     1
  6
CONTINUOUS
 66
     1
 40
0.003150
 41
0.003150
  0
VERTEX
  8
0
 62
     1
  6
CONTINUOUS
 10
-3.249602
 20
2.537996
  0
VERTEX
  8
0
 62
     1
  6
CONTINUOUS
 10
-3.837650
 20
2.537996
  0
SEQEND
  8
0
  0
POLYLINE
  8
0
 62
     1
  6
CONTINUOUS
 66
     1
 40
0.003150
 41
0.003150
  0
VERTEX
  8
0
 62
     1
  6
CONTINUOUS
 10
-2.612398
 20
2.537996
  0
VERTEX
  8
0
 62
     1
  6
CONTINUOUS
 10
-3.096673
 20
2.537996
  0
SEQEND
  8
0
  0
POLYLINE
  8
0
 62
     1
  6
CONTINUOUS
 66
     1
 40
0.003150
 41
0.003150
  0
VERTEX
  8
0
 62
     1
  6
CONTINUOUS
 10
-1.835012
 20
-0.771075
  0
VERTEX
  8
0
 62
     1
  6
CONTINUOUS
 10
-1.835012
 20
0.305972
  0
SEQEND
  8
0
  0
POLYLINE
  8
0
 62
     1
  6
CONTINUOUS
 66
     1
 40
0.003150
 41
0.003150
  0
VERTEX
  8
0
 62
     1
  6
CONTINUOUS
 10
-3.874059
 20
-0.476870
  0
VERTEX
  8
0
 62
     1
  6
CONTINUOUS
 10
-3.874059
 20
0.305972
  0
SEQEND
  8
0
  0
POLYLINE
  8
0
 62
     1
  6
CONTINUOUS
 66
     1
 40
0.003150
 41
0.003150
  0
VERTEX
  8
0
 62
     1
  6
CONTINUOUS
 10
-2.854539
 20
-1.232862
  0
VERTEX
  8
0
 62
     1
  6
CONTINUOUS
 10
-2.854539
 20
3.513579
  0
SEQEND
  8
0
  0
POLYLINE
  8
0
 62
     1
  6
CONTINUOUS
 66
     1
 40
0.003150
 41
0.003150
  0
VERTEX
  8
0
 62
     1
  6
CONTINUOUS
 10
-1.842287
 20
0.305972
  0
VERTEX
  8
0
 62
     1
  6
CONTINUOUS
 10
-1.838620
 20
0.306968
  0
VERTEX
  8
0
 62
     1
  6
CONTINUOUS
 10
-1.836007
 20
0.309580
  0
VERTEX
  8
0
 62
     1
  6
CONTINUOUS
 10
-1.835012
 20
0.313248
  0
SEQEND
  8
0
  0
POLYLINE
  8
0
 62
     1
  6
CONTINUOUS
 66
     1
 40
0.003150
 41
0.003150
  0
VERTEX
  8
0
 62
     1
  6
CONTINUOUS
 10
-1.842287
 20
0.305972
  0
VERTEX
  8
0
 62
     1
  6
CONTINUOUS
 10
-1.838620
 20
0.306968
  0
VERTEX
  8
0
 62
     1
  6
CONTINUOUS
 10
-1.836007
 20
0.309580
  0
VERTEX
  8
0
 62
     1
  6
CONTINUOUS
 10
-1.835012
 20
0.313248
  0
SEQEND
  8
0
  0
POLYLINE
  8
0
 62
     1
  6
CONTINUOUS
 66
     1
 40
0.003150
 41
0.003150
  0
VERTEX
  8
0
 62
     1
  6
CONTINUOUS
 10
-1.849579
 20
0.069295
  0
VERTEX
  8
0
 62
     1
  6
CONTINUOUS
 10
-3.859492
 20
0.069295
  0
SEQEND
  8
0
  0
POLYLINE
  8
0
 62
     1
  6
CONTINUOUS
 66
     1
 40
0.003150
 41
0.003150
  0
VERTEX
  8
0
 62
     1
  6
CONTINUOUS
 10
-2.628783
 20
0.083854
  0
VERTEX
  8
0
 62
     1
  6
CONTINUOUS
 10
-2.628783
 20
0.185807
  0
SEQEND
  8
0
  0
POLYLINE
  8
0
 62
     1
  6
CONTINUOUS
 66
     1
 40
0.003150
 41
0.003150
  0
VERTEX
  8
0
 62
     1
  6
CONTINUOUS
 10
-2.439445
 20
0.083854
  0
VERTEX
  8
0
 62
     1
  6
CONTINUOUS
 10
-2.439445
 20
0.185807
  0
SEQEND
  8
0
  0
POLYLINE
  8
0
 62
     1
  6
CONTINUOUS
 66
     1
 40
0.003150
 41
0.003150
  0
VERTEX
  8
0
 62
     1
  6
CONTINUOUS
 10
-2.439445
 20
0.185807
  0
VERTEX
  8
0
 62
     1
  6
CONTINUOUS
 10
-2.628783
 20
0.185807
  0
SEQEND
  8
0
  0
POLYLINE
  8
0
 62
     1
  6
CONTINUOUS
 66
     1
 40
0.003150
 41
0.003150
  0
VERTEX
  8
0
 62
     1
  6
CONTINUOUS
 10
-1.835012
 20
0.083854
  0
VERTEX
  8
0
 62
     1
  6
CONTINUOUS
 10
-2.439445
 20
0.083854
  0
SEQEND
  8
0
  0
POLYLINE
  8
0
 62
     1
  6
CONTINUOUS
 66
     1
 40
0.003150
 41
0.003150
  0
VERTEX
  8
0
 62
     1
  6
CONTINUOUS
 10
-2.439445
 20
0.083854
  0
VERTEX
  8
0
 62
     1
  6
CONTINUOUS
 10
-2.628783
 20
0.083854
  0
SEQEND
  8
0
  0
POLYLINE
  8
0
 62
     1
  6
CONTINUOUS
 66
     1
 40
0.003150
 41
0.003150
  0
VERTEX
  8
0
 62
     1
  6
CONTINUOUS
 10
-2.628783
 20
0.083854
  0
VERTEX
  8
0
 62
     1
  6
CONTINUOUS
 10
-3.874059
 20
0.083854
  0
SEQEND
  8
0
  0
POLYLINE
  8
0
 62
     1
  6
CONTINUOUS
 66
     1
 40
0.003150
 41
0.003150
  0
VERTEX
  8
0
 62
     1
  6
CONTINUOUS
 10
-1.849579
 20
0.069295
  0
VERTEX
  8
0
 62
     1
  6
CONTINUOUS
 10
-1.849579
 20
0.083854
  0
SEQEND
  8
0
  0
POLYLINE
  8
0
 62
     1
  6
CONTINUOUS
 66
     1
 40
0.003150
 41
0.003150
  0
VERTEX
  8
0
 62
     1
  6
CONTINUOUS
 10
-3.859492
 20
0.069295
  0
VERTEX
  8
0
 62
     1
  6
CONTINUOUS
 10
-3.859492
 20
0.083854
  0
SEQEND
  8
0
  0
POLYLINE
  8
0
 62
     1
  6
CONTINUOUS
 66
     1
 40
0.003150
 41
0.003150
  0
VERTEX
  8
0
 62
     1
  6
CONTINUOUS
 10
-2.447854
 20
0.083854
  0
VERTEX
  8
0
 62
     1
  6
CONTINUOUS
 10
-2.447854
 20
0.177398
  0
SEQEND
  8
0
  0
POLYLINE
  8
0
 62
     1
  6
CONTINUOUS
 66
     1
 40
0.003150
 41
0.003150
  0
VERTEX
  8
0
 62
     1
  6
CONTINUOUS
 10
-2.620374
 20
0.083854
  0
VERTEX
  8
0
 62
     1
  6
CONTINUOUS
 10
-2.620374
 20
0.177398
  0
SEQEND
  8
0
  0
POLYLINE
  8
0
 62
     1
  6
CONTINUOUS
 66
     1
 40
0.003150
 41
0.003150
  0
VERTEX
  8
0
 62
     1
  6
CONTINUOUS
 10
-2.620374
 20
0.177398
  0
VERTEX
  8
0
 62
     1
  6
CONTINUOUS
 10
-2.628783
 20
0.185807
  0
SEQEND
  8
0
  0
POLYLINE
  8
0
 62
     1
  6
CONTINUOUS
 66
     1
 40
0.003150
 41
0.003150
  0
VERTEX
  8
0
 62
     1
  6
CONTINUOUS
 10
-2.447854
 20
0.177398
  0
VERTEX
  8
0
 62
     1
  6
CONTINUOUS
 10
-2.620374
 20
0.177398
  0
SEQEND
  8
0
  0
POLYLINE
  8
0
 62
     1
  6
CONTINUOUS
 66
     1
 40
0.003150
 41
0.003150
  0
VERTEX
  8
0
 62
     1
  6
CONTINUOUS
 10
-2.447854
 20
0.177398
  0
VERTEX
  8
0
 62
     1
  6
CONTINUOUS
 10
-2.439445
 20
0.185807
  0
SEQEND
  8
0
  0
POLYLINE
  8
0
 62
     1
  6
CONTINUOUS
 66
     1
 40
0.003150
 41
0.003150
  0
VERTEX
  8
0
 62
     1
  6
CONTINUOUS
 10
-2.697965
 20
0.641075
  0
VERTEX
  8
0
 62
     1
  6
CONTINUOUS
 10
-2.697965
 20
0.828476
  0
SEQEND
  8
0
  0
POLYLINE
  8
0
 62
     1
  6
CONTINUOUS
 66
     1
 40
0.003150
 41
0.003150
  0
VERTEX
  8
0
 62
     1
  6
CONTINUOUS
 10
-3.011106
 20
0.641075
  0
VERTEX
  8
0
 62
     1
  6
CONTINUOUS
 10
-3.011106
 20
0.828476
  0
SEQEND
  8
0
  0
POLYLINE
  8
0
 62
     1
  6
CONTINUOUS
 66
     1
 40
0.003150
 41
0.003150
  0
VERTEX
  8
0
 62
     1
  6
CONTINUOUS
 10
-1.835012
 20
0.054728
  0
VERTEX
  8
0
 62
     1
  6
CONTINUOUS
 10
-3.874059
 20
0.054728
  0
SEQEND
  8
0
  0
POLYLINE
  8
0
 62
     1
  6
CONTINUOUS
 66
     1
 40
0.003150
 41
0.003150
  0
VERTEX
  8
0
 62
     1
  6
CONTINUOUS
 10
-2.535933
 20
-0.455020
  0
VERTEX
  8
0
 62
     1
  6
CONTINUOUS
 10
-3.874059
 20
-0.455020
  0
SEQEND
  8
0
  0
POLYLINE
  8
0
 62
     1
  6
CONTINUOUS
 66
     1
 40
0.003150
 41
0.003150
  0
VERTEX
  8
0
 62
     1
  6
CONTINUOUS
 10
-2.697965
 20
0.756445
  0
VERTEX
  8
0
 62
     1
  6
CONTINUOUS
 10
-3.011106
 20
0.756445
  0
SEQEND
  8
0
  0
POLYLINE
  8
0
 62
     1
  6
CONTINUOUS
 66
     1
 40
0.003150
 41
0.003150
  0
VERTEX
  8
0
 62
     1
  6
CONTINUOUS
 10
-2.697965
 20
0.828476
  0
VERTEX
  8
0
 62
     1
  6
CONTINUOUS
 10
-3.011106
 20
0.828476
  0
SEQEND
  8
0
  0
POLYLINE
  8
0
 62
     1
  6
CONTINUOUS
 66
     1
 40
0.003150
 41
0.003150
  0
VERTEX
  8
0
 62
     1
  6
CONTINUOUS
 10
-2.697965
 20
0.641075
  0
VERTEX
  8
0
 62
     1
  6
CONTINUOUS
 10
-3.011106
 20
0.641075
  0
SEQEND
  8
0
  0
POLYLINE
  8
0
 62
     1
  6
CONTINUOUS
 66
     1
 40
0.003150
 41
0.003150
  0
VERTEX
  8
0
 62
     1
  6
CONTINUOUS
 10
-1.559201
 20
1.063327
  0
VERTEX
  8
0
 62
     1
  6
CONTINUOUS
 10
-4.650201
 20
1.063327
  0
SEQEND
  8
0
  0
POLYLINE
  8
0
 62
     1
  6
CONTINUOUS
 66
     1
 40
0.003150
 41
0.003150
  0
VERTEX
  8
0
 62
     1
  6
CONTINUOUS
 10
-1.835012
 20
1.820689
  0
VERTEX
  8
0
 62
     1
  6
CONTINUOUS
 10
-1.835012
 20
2.846760
  0
SEQEND
  8
0
  0
POLYLINE
  8
0
 62
     1
  6
CONTINUOUS
 66
     1
 40
0.003150
 41
0.003150
  0
VERTEX
  8
0
 62
     1
  6
CONTINUOUS
 10
-3.874059
 20
1.820689
  0
VERTEX
  8
0
 62
     1
  6
CONTINUOUS
 10
-3.874059
 20
2.552555
  0
SEQEND
  8
0
  0
POLYLINE
  8
0
 62
     1
  6
CONTINUOUS
 66
     1
 40
0.003150
 41
0.003150
  0
VERTEX
  8
0
 62
     1
  6
CONTINUOUS
 10
-2.535933
 20
2.465169
  0
VERTEX
  8
0
 62
     1
  6
CONTINUOUS
 10
-3.597335
 20
2.465169
  0
SEQEND
  8
0
  0
POLYLINE
  8
0
 62
     1
  6
CONTINUOUS
 66
     1
 40
0.003150
 41
0.003150
  0
VERTEX
  8
0
 62
     1
  6
CONTINUOUS
 10
-2.111744
 20
1.827972
  0
VERTEX
  8
0
 62
     1
  6
CONTINUOUS
 10
-2.111744
 20
2.421476
  0
SEQEND
  8
0
  0
POLYLINE
  8
0
 62
     1
  6
CONTINUOUS
 66
     1
 40
0.003150
 41
0.003150
  0
VERTEX
  8
0
 62
     1
  6
CONTINUOUS
 10
-3.597335
 20
1.827972
  0
VERTEX
  8
0
 62
     1
  6
CONTINUOUS
 10
-3.597335
 20
2.465169
  0
SEQEND
  8
0
  0
POLYLINE
  8
0
 62
     1
  6
CONTINUOUS
 66
     1
 40
0.003150
 41
0.003150
  0
VERTEX
  8
0
 62
     1
  6
CONTINUOUS
 10
-2.535933
 20
2.537996
  0
VERTEX
  8
0
 62
     1
  6
CONTINUOUS
 10
-3.859492
 20
2.537996
  0
SEQEND
  8
0
  0
POLYLINE
  8
0
 62
     1
  6
CONTINUOUS
 66
     1
 40
0.003150
 41
0.003150
  0
VERTEX
  8
0
 62
     1
  6
CONTINUOUS
 10
-1.869972
 20
-0.345791
  0
VERTEX
  8
0
 62
     1
  6
CONTINUOUS
 10
-1.869972
 20
0.054728
  0
SEQEND
  8
0
  0
POLYLINE
  8
0
 62
     1
  6
CONTINUOUS
 66
     1
 40
0.003150
 41
0.003150
  0
VERTEX
  8
0
 62
     1
  6
CONTINUOUS
 10
-1.922406
 20
-0.345791
  0
VERTEX
  8
0
 62
     1
  6
CONTINUOUS
 10
-1.922406
 20
0.054728
  0
SEQEND
  8
0
  0
POLYLINE
  8
0
 62
     1
  6
CONTINUOUS
 66
     1
 40
0.003150
 41
0.003150
  0
VERTEX
  8
0
 62
     1
  6
CONTINUOUS
 10
-1.974839
 20
-0.345791
  0
VERTEX
  8
0
 62
     1
  6
CONTINUOUS
 10
-1.974839
 20
0.054728
  0
SEQEND
  8
0
  0
POLYLINE
  8
0
 62
     1
  6
CONTINUOUS
 66
     1
 40
0.003150
 41
0.003150
  0
VERTEX
  8
0
 62
     1
  6
CONTINUOUS
 10
-2.027272
 20
-0.345791
  0
VERTEX
  8
0
 62
     1
  6
CONTINUOUS
 10
-2.027272
 20
0.054728
  0
SEQEND
  8
0
  0
POLYLINE
  8
0
 62
     1
  6
CONTINUOUS
 66
     1
 40
0.003150
 41
0.003150
  0
VERTEX
  8
0
 62
     1
  6
CONTINUOUS
 10
-2.079697
 20
-0.345791
  0
VERTEX
  8
0
 62
     1
  6
CONTINUOUS
 10
-2.079697
 20
0.054728
  0
SEQEND
  8
0
  0
POLYLINE
  8
0
 62
     1
  6
CONTINUOUS
 66
     1
 40
0.003150
 41
0.003150
  0
VERTEX
  8
0
 62
     1
  6
CONTINUOUS
 10
-2.551594
 20
2.552555
  0
VERTEX
  8
0
 62
     1
  6
CONTINUOUS
 10
-2.551594
 20
2.919429
  0
SEQEND
  8
0
  0
POLYLINE
  8
0
 62
     1
  6
CONTINUOUS
 66
     1
 40
0.003150
 41
0.003150
  0
VERTEX
  8
0
 62
     1
  6
CONTINUOUS
 10
-2.604028
 20
2.552555
  0
VERTEX
  8
0
 62
     1
  6
CONTINUOUS
 10
-2.604028
 20
2.919429
  0
SEQEND
  8
0
  0
POLYLINE
  8
0
 62
     1
  6
CONTINUOUS
 66
     1
 40
0.003150
 41
0.003150
  0
VERTEX
  8
0
 62
     1
  6
CONTINUOUS
 10
-2.656461
 20
2.552555
  0
VERTEX
  8
0
 62
     1
  6
CONTINUOUS
 10
-2.656461
 20
2.919429
  0
SEQEND
  8
0
  0
POLYLINE
  8
0
 62
     1
  6
CONTINUOUS
 66
     1
 40
0.003150
 41
0.003150
  0
VERTEX
  8
0
 62
     1
  6
CONTINUOUS
 10
-2.708894
 20
2.552555
  0
VERTEX
  8
0
 62
     1
  6
CONTINUOUS
 10
-2.708894
 20
2.919429
  0
SEQEND
  8
0
  0
POLYLINE
  8
0
 62
     1
  6
CONTINUOUS
 66
     1
 40
0.003150
 41
0.003150
  0
VERTEX
  8
0
 62
     1
  6
CONTINUOUS
 10
-2.761327
 20
2.552555
  0
VERTEX
  8
0
 62
     1
  6
CONTINUOUS
 10
-2.761327
 20
2.919429
  0
SEQEND
  8
0
  0
POLYLINE
  8
0
 62
     1
  6
CONTINUOUS
 66
     1
 40
0.003150
 41
0.003150
  0
VERTEX
  8
0
 62
     1
  6
CONTINUOUS
 10
-2.813760
 20
2.552555
  0
VERTEX
  8
0
 62
     1
  6
CONTINUOUS
 10
-2.813760
 20
2.919429
  0
SEQEND
  8
0
  0
POLYLINE
  8
0
 62
     1
  6
CONTINUOUS
 66
     1
 40
0.003150
 41
0.003150
  0
VERTEX
  8
0
 62
     1
  6
CONTINUOUS
 10
-2.535933
 20
2.552555
  0
VERTEX
  8
0
 62
     1
  6
CONTINUOUS
 10
-3.859492
 20
2.552555
  0
SEQEND
  8
0
  0
POLYLINE
  8
0
 62
     1
  6
CONTINUOUS
 66
     1
 40
0.003150
 41
0.003150
  0
VERTEX
  8
0
 62
     1
  6
CONTINUOUS
 10
-2.535933
 20
2.923957
  0
VERTEX
  8
0
 62
     1
  6
CONTINUOUS
 10
-3.866516
 20
2.923957
  0
SEQEND
  8
0
  0
POLYLINE
  8
0
 62
     1
  6
CONTINUOUS
 66
     1
 40
0.003150
 41
0.003150
  0
VERTEX
  8
0
 62
     1
  6
CONTINUOUS
 10
-3.874059
 20
2.905752
  0
VERTEX
  8
0
 62
     1
  6
CONTINUOUS
 10
-3.866516
 20
2.923957
  0
SEQEND
  8
0
  0
POLYLINE
  8
0
 62
     1
  6
CONTINUOUS
 66
     1
 40
0.003150
 41
0.003150
  0
VERTEX
  8
0
 62
     1
  6
CONTINUOUS
 10
-3.874059
 20
2.552555
  0
VERTEX
  8
0
 62
     1
  6
CONTINUOUS
 10
-3.874059
 20
2.905752
  0
SEQEND
  8
0
  0
POLYLINE
  8
0
 62
     1
  6
CONTINUOUS
 66
     1
 40
0.003150
 41
0.003150
  0
VERTEX
  8
0
 62
     1
  6
CONTINUOUS
 10
-3.859492
 20
2.552555
  0
VERTEX
  8
0
 62
     1
  6
CONTINUOUS
 10
-3.874059
 20
2.552555
  0
SEQEND
  8
0
  0
POLYLINE
  8
0
 62
     1
  6
CONTINUOUS
 66
     1
 40
0.003150
 41
0.003150
  0
VERTEX
  8
0
 62
     1
  6
CONTINUOUS
 10
-3.859492
 20
2.537996
  0
VERTEX
  8
0
 62
     1
  6
CONTINUOUS
 10
-3.859492
 20
2.552555
  0
SEQEND
  8
0
  0
POLYLINE
  8
0
 62
     1
  6
CONTINUOUS
 66
     1
 40
0.003150
 41
0.003150
  0
VERTEX
  8
0
 62
     1
  6
CONTINUOUS
 10
-2.535933
 20
-0.462303
  0
VERTEX
  8
0
 62
     1
  6
CONTINUOUS
 10
-3.859492
 20
-0.462303
  0
SEQEND
  8
0
  0
POLYLINE
  8
0
 62
     1
  6
CONTINUOUS
 66
     1
 40
0.003150
 41
0.003150
  0
VERTEX
  8
0
 62
     1
  6
CONTINUOUS
 10
-2.551594
 20
-0.843744
  0
VERTEX
  8
0
 62
     1
  6
CONTINUOUS
 10
-2.551594
 20
-0.476870
  0
SEQEND
  8
0
  0
POLYLINE
  8
0
 62
     1
  6
CONTINUOUS
 66
     1
 40
0.003150
 41
0.003150
  0
VERTEX
  8
0
 62
     1
  6
CONTINUOUS
 10
-2.604028
 20
-0.843744
  0
VERTEX
  8
0
 62
     1
  6
CONTINUOUS
 10
-2.604028
 20
-0.476870
  0
SEQEND
  8
0
  0
POLYLINE
  8
0
 62
     1
  6
CONTINUOUS
 66
     1
 40
0.003150
 41
0.003150
  0
VERTEX
  8
0
 62
     1
  6
CONTINUOUS
 10
-2.656461
 20
-0.843744
  0
VERTEX
  8
0
 62
     1
  6
CONTINUOUS
 10
-2.656461
 20
-0.476870
  0
SEQEND
  8
0
  0
POLYLINE
  8
0
 62
     1
  6
CONTINUOUS
 66
     1
 40
0.003150
 41
0.003150
  0
VERTEX
  8
0
 62
     1
  6
CONTINUOUS
 10
-2.708894
 20
-0.843744
  0
VERTEX
  8
0
 62
     1
  6
CONTINUOUS
 10
-2.708894
 20
-0.476870
  0
SEQEND
  8
0
  0
POLYLINE
  8
0
 62
     1
  6
CONTINUOUS
 66
     1
 40
0.003150
 41
0.003150
  0
VERTEX
  8
0
 62
     1
  6
CONTINUOUS
 10
-2.761327
 20
-0.843744
  0
VERTEX
  8
0
 62
     1
  6
CONTINUOUS
 10
-2.761327
 20
-0.476870
  0
SEQEND
  8
0
  0
POLYLINE
  8
0
 62
     1
  6
CONTINUOUS
 66
     1
 40
0.003150
 41
0.003150
  0
VERTEX
  8
0
 62
     1
  6
CONTINUOUS
 10
-2.813760
 20
-0.843744
  0
VERTEX
  8
0
 62
     1
  6
CONTINUOUS
 10
-2.813760
 20
-0.476870
  0
SEQEND
  8
0
  0
POLYLINE
  8
0
 62
     1
  6
CONTINUOUS
 66
     1
 40
0.003150
 41
0.003150
  0
VERTEX
  8
0
 62
     1
  6
CONTINUOUS
 10
-2.535933
 20
-0.476870
  0
VERTEX
  8
0
 62
     1
  6
CONTINUOUS
 10
-3.859492
 20
-0.476870
  0
SEQEND
  8
0
  0
POLYLINE
  8
0
 62
     1
  6
CONTINUOUS
 66
     1
 40
0.003150
 41
0.003150
  0
VERTEX
  8
0
 62
     1
  6
CONTINUOUS
 10
-2.535933
 20
-0.848272
  0
VERTEX
  8
0
 62
     1
  6
CONTINUOUS
 10
-3.866516
 20
-0.848272
  0
SEQEND
  8
0
  0
POLYLINE
  8
0
 62
     1
  6
CONTINUOUS
 66
     1
 40
0.003150
 41
0.003150
  0
VERTEX
  8
0
 62
     1
  6
CONTINUOUS
 10
-3.866516
 20
-0.848272
  0
VERTEX
  8
0
 62
     1
  6
CONTINUOUS
 10
-3.874059
 20
-0.830059
  0
SEQEND
  8
0
  0
POLYLINE
  8
0
 62
     1
  6
CONTINUOUS
 66
     1
 40
0.003150
 41
0.003150
  0
VERTEX
  8
0
 62
     1
  6
CONTINUOUS
 10
-3.874059
 20
-0.830059
  0
VERTEX
  8
0
 62
     1
  6
CONTINUOUS
 10
-3.874059
 20
-0.476870
  0
SEQEND
  8
0
  0
POLYLINE
  8
0
 62
     1
  6
CONTINUOUS
 66
     1
 40
0.003150
 41
0.003150
  0
VERTEX
  8
0
 62
     1
  6
CONTINUOUS
 10
-3.859492
 20
-0.476870
  0
VERTEX
  8
0
 62
     1
  6
CONTINUOUS
 10
-3.874059
 20
-0.476870
  0
SEQEND
  8
0
  0
POLYLINE
  8
0
 62
     1
  6
CONTINUOUS
 66
     1
 40
0.003150
 41
0.003150
  0
VERTEX
  8
0
 62
     1
  6
CONTINUOUS
 10
-3.859492
 20
-0.476870
  0
VERTEX
  8
0
 62
     1
  6
CONTINUOUS
 10
-3.859492
 20
-0.462303
  0
SEQEND
  8
0
  0
POLYLINE
  8
0
 62
     1
  6
CONTINUOUS
 66
     1
 40
0.003150
 41
0.003150
  0
VERTEX
  8
0
 62
     1
  6
CONTINUOUS
 10
-2.344783
 20
1.798839
  0
VERTEX
  8
0
 62
     1
  6
CONTINUOUS
 10
-2.399793
 20
1.766764
  0
VERTEX
  8
0
 62
     1
  6
CONTINUOUS
 10
-2.399795
 20
1.707142
  0
VERTEX
  8
0
 62
     1
  6
CONTINUOUS
 10
-2.344783
 20
1.675067
  0
VERTEX
  8
0
 62
     1
  6
CONTINUOUS
 10
-2.289777
 20
1.707131
  0
VERTEX
  8
0
 62
     1
  6
CONTINUOUS
 10
-2.289772
 20
1.766751
  0
VERTEX
  8
0
 62
     1
  6
CONTINUOUS
 10
-2.344776
 20
1.798831
  0
VERTEX
  8
0
 62
     1
  6
CONTINUOUS
 10
-2.344778
 20
1.798833
  0
VERTEX
  8
0
 62
     1
  6
CONTINUOUS
 10
-2.344781
 20
1.798837
  0
VERTEX
  8
0
 62
     1
  6
CONTINUOUS
 10
-2.344783
 20
1.798839
  0
SEQEND
  8
0
  0
POLYLINE
  8
0
 62
     1
  6
CONTINUOUS
 66
     1
 40
0.003150
 41
0.003150
  0
VERTEX
  8
0
 62
     1
  6
CONTINUOUS
 10
-3.364295
 20
1.798839
  0
VERTEX
  8
0
 62
     1
  6
CONTINUOUS
 10
-3.419310
 20
1.766760
  0
VERTEX
  8
0
 62
     1
  6
CONTINUOUS
 10
-3.419312
 20
1.707130
  0
VERTEX
  8
0
 62
     1
  6
CONTINUOUS
 10
-3.364295
 20
1.675051
  0
VERTEX
  8
0
 62
     1
  6
CONTINUOUS
 10
-3.309278
 20
1.707119
  0
VERTEX
  8
0
 62
     1
  6
CONTINUOUS
 10
-3.309273
 20
1.766747
  0
VERTEX
  8
0
 62
     1
  6
CONTINUOUS
 10
-3.364287
 20
1.798831
  0
VERTEX
  8
0
 62
     1
  6
CONTINUOUS
 10
-3.364289
 20
1.798833
  0
VERTEX
  8
0
 62
     1
  6
CONTINUOUS
 10
-3.364293
 20
1.798837
  0
VERTEX
  8
0
 62
     1
  6
CONTINUOUS
 10
-3.364295
 20
1.798839
  0
SEQEND
  8
0
  0
POLYLINE
  8
0
 62
     1
  6
CONTINUOUS
 66
     1
 40
0.003150
 41
0.003150
  0
VERTEX
  8
0
 62
     1
  6
CONTINUOUS
 10
-3.866768
 20
1.827965
  0
VERTEX
  8
0
 62
     1
  6
CONTINUOUS
 10
-3.870435
 20
1.826969
  0
VERTEX
  8
0
 62
     1
  6
CONTINUOUS
 10
-3.873048
 20
1.824357
  0
VERTEX
  8
0
 62
     1
  6
CONTINUOUS
 10
-3.874043
 20
1.820689
  0
SEQEND
  8
0
  0
POLYLINE
  8
0
 62
     1
  6
CONTINUOUS
 66
     1
 40
0.003150
 41
0.003150
  0
VERTEX
  8
0
 62
     1
  6
CONTINUOUS
 10
-3.866768
 20
1.827965
  0
VERTEX
  8
0
 62
     1
  6
CONTINUOUS
 10
-3.870435
 20
1.826969
  0
VERTEX
  8
0
 62
     1
  6
CONTINUOUS
 10
-3.873048
 20
1.824357
  0
VERTEX
  8
0
 62
     1
  6
CONTINUOUS
 10
-3.874043
 20
1.820689
  0
SEQEND
  8
0
  0
POLYLINE
  8
0
 62
     1
  6
CONTINUOUS
 66
     1
 40
0.003150
 41
0.003150
  0
VERTEX
  8
0
 62
     1
  6
CONTINUOUS
 10
-1.835012
 20
1.820689
  0
VERTEX
  8
0
 62
     1
  6
CONTINUOUS
 10
-1.836007
 20
1.824357
  0
VERTEX
  8
0
 62
     1
  6
CONTINUOUS
 10
-1.838620
 20
1.826969
  0
VERTEX
  8
0
 62
     1
  6
CONTINUOUS
 10
-1.842287
 20
1.827965
  0
SEQEND
  8
0
  0
POLYLINE
  8
0
 62
     1
  6
CONTINUOUS
 66
     1
 40
0.003150
 41
0.003150
  0
VERTEX
  8
0
 62
     1
  6
CONTINUOUS
 10
-1.835012
 20
1.820689
  0
VERTEX
  8
0
 62
     1
  6
CONTINUOUS
 10
-1.836007
 20
1.824357
  0
VERTEX
  8
0
 62
     1
  6
CONTINUOUS
 10
-1.838620
 20
1.826969
  0
VERTEX
  8
0
 62
     1
  6
CONTINUOUS
 10
-1.842287
 20
1.827965
  0
SEQEND
  8
0
  0
POLYLINE
  8
0
 62
     1
  6
CONTINUOUS
 66
     1
 40
0.003150
 41
0.003150
  0
VERTEX
  8
0
 62
     1
  6
CONTINUOUS
 10
-1.842287
 20
0.298697
  0
VERTEX
  8
0
 62
     1
  6
CONTINUOUS
 10
-1.838620
 20
0.299692
  0
VERTEX
  8
0
 62
     1
  6
CONTINUOUS
 10
-1.836007
 20
0.302305
  0
VERTEX
  8
0
 62
     1
  6
CONTINUOUS
 10
-1.835012
 20
0.305972
  0
SEQEND
  8
0
  0
POLYLINE
  8
0
 62
     1
  6
CONTINUOUS
 66
     1
 40
0.003150
 41
0.003150
  0
VERTEX
  8
0
 62
     1
  6
CONTINUOUS
 10
-1.842287
 20
0.298697
  0
VERTEX
  8
0
 62
     1
  6
CONTINUOUS
 10
-1.838620
 20
0.299692
  0
VERTEX
  8
0
 62
     1
  6
CONTINUOUS
 10
-1.836007
 20
0.302305
  0
VERTEX
  8
0
 62
     1
  6
CONTINUOUS
 10
-1.835012
 20
0.305972
  0
SEQEND
  8
0
  0
POLYLINE
  8
0
 62
     1
  6
CONTINUOUS
 66
     1
 40
0.003150
 41
0.003150
  0
VERTEX
  8
0
 62
     1
  6
CONTINUOUS
 10
-3.874043
 20
0.305972
  0
VERTEX
  8
0
 62
     1
  6
CONTINUOUS
 10
-3.873048
 20
0.302305
  0
VERTEX
  8
0
 62
     1
  6
CONTINUOUS
 10
-3.870435
 20
0.299692
  0
VERTEX
  8
0
 62
     1
  6
CONTINUOUS
 10
-3.866768
 20
0.298697
  0
SEQEND
  8
0
  0
POLYLINE
  8
0
 62
     1
  6
CONTINUOUS
 66
     1
 40
0.003150
 41
0.003150
  0
VERTEX
  8
0
 62
     1
  6
CONTINUOUS
 10
-3.874043
 20
0.305972
  0
VERTEX
  8
0
 62
     1
  6
CONTINUOUS
 10
-3.873048
 20
0.302305
  0
VERTEX
  8
0
 62
     1
  6
CONTINUOUS
 10
-3.870435
 20
0.299692
  0
VERTEX
  8
0
 62
     1
  6
CONTINUOUS
 10
-3.866768
 20
0.298697
  0
SEQEND
  8
0
  0
POLYLINE
  8
0
 62
     1
  6
CONTINUOUS
 66
     1
 40
0.003150
 41
0.003150
  0
VERTEX
  8
0
 62
     1
  6
CONTINUOUS
 10
-1.835012
 20
1.241744
  0
VERTEX
  8
0
 62
     1
  6
CONTINUOUS
 10
-3.874059
 20
1.241744
  0
SEQEND
  8
0
  0
POLYLINE
  8
0
 62
     1
  6
CONTINUOUS
 66
     1
 40
0.003150
 41
0.003150
  0
VERTEX
  8
0
 62
     1
  6
CONTINUOUS
 10
-1.842295
 20
1.827972
  0
VERTEX
  8
0
 62
     1
  6
CONTINUOUS
 10
-3.866776
 20
1.827972
  0
SEQEND
  8
0
  0
POLYLINE
  8
0
 62
     1
  6
CONTINUOUS
 66
     1
 40
0.003150
 41
0.003150
  0
VERTEX
  8
0
 62
     1
  6
CONTINUOUS
 10
-1.842295
 20
0.298689
  0
VERTEX
  8
0
 62
     1
  6
CONTINUOUS
 10
-3.866776
 20
0.298689
  0
SEQEND
  8
0
  0
POLYLINE
  8
0
 62
     1
  6
CONTINUOUS
 66
     1
 40
0.003150
 41
0.003150
  0
VERTEX
  8
0
 62
     1
  6
CONTINUOUS
 10
-1.835012
 20
0.586335
  0
VERTEX
  8
0
 62
     1
  6
CONTINUOUS
 10
-3.874059
 20
0.586335
  0
SEQEND
  8
0
  0
POLYLINE
  8
0
 62
     1
  6
CONTINUOUS
 66
     1
 40
0.003150
 41
0.003150
  0
VERTEX
  8
0
 62
     1
  6
CONTINUOUS
 10
-3.874059
 20
0.305972
  0
VERTEX
  8
0
 62
     1
  6
CONTINUOUS
 10
-3.874059
 20
1.820689
  0
SEQEND
  8
0
  0
POLYLINE
  8
0
 62
     1
  6
CONTINUOUS
 66
     1
 40
0.003150
 41
0.003150
  0
VERTEX
  8
0
 62
     1
  6
CONTINUOUS
 10
-1.835012
 20
0.305972
  0
VERTEX
  8
0
 62
     1
  6
CONTINUOUS
 10
-1.835012
 20
1.820689
  0
SEQEND
  8
0
  0
POLYLINE
  8
0
 62
     1
  6
CONTINUOUS
 66
     1
 40
0.003150
 41
0.003150
  0
VERTEX
  8
0
 62
     1
  6
CONTINUOUS
 10
-2.697965
 20
0.630028
  0
VERTEX
  8
0
 62
     1
  6
CONTINUOUS
 10
-2.697965
 20
1.198051
  0
SEQEND
  8
0
  0
POLYLINE
  8
0
 62
     1
  6
CONTINUOUS
 66
     1
 40
0.003150
 41
0.003150
  0
VERTEX
  8
0
 62
     1
  6
CONTINUOUS
 10
-3.011106
 20
0.630028
  0
VERTEX
  8
0
 62
     1
  6
CONTINUOUS
 10
-3.011106
 20
1.198051
  0
SEQEND
  8
0
  0
POLYLINE
  8
0
 62
     1
  6
CONTINUOUS
 66
     1
 40
0.003150
 41
0.003150
  0
VERTEX
  8
0
 62
     1
  6
CONTINUOUS
 10
-2.705248
 20
0.622752
  0
VERTEX
  8
0
 62
     1
  6
CONTINUOUS
 10
-3.003823
 20
0.622752
  0
SEQEND
  8
0
  0
POLYLINE
  8
0
 62
     1
  6
CONTINUOUS
 66
     1
 40
0.003150
 41
0.003150
  0
VERTEX
  8
0
 62
     1
  6
CONTINUOUS
 10
-2.705248
 20
0.630555
  0
VERTEX
  8
0
 62
     1
  6
CONTINUOUS
 10
-3.003823
 20
0.630555
  0
SEQEND
  8
0
  0
POLYLINE
  8
0
 62
     1
  6
CONTINUOUS
 66
     1
 40
0.003150
 41
0.003150
  0
VERTEX
  8
0
 62
     1
  6
CONTINUOUS
 10
-2.705248
 20
1.200193
  0
VERTEX
  8
0
 62
     1
  6
CONTINUOUS
 10
-3.003823
 20
1.200193
  0
SEQEND
  8
0
  0
POLYLINE
  8
0
 62
     1
  6
CONTINUOUS
 66
     1
 40
0.003150
 41
0.003150
  0
VERTEX
  8
0
 62
     1
  6
CONTINUOUS
 10
-2.705248
 20
1.205335
  0
VERTEX
  8
0
 62
     1
  6
CONTINUOUS
 10
-3.003823
 20
1.205335
  0
SEQEND
  8
0
  0
POLYLINE
  8
0
 62
     1
  6
CONTINUOUS
 66
     1
 40
0.003150
 41
0.003150
  0
VERTEX
  8
0
 62
     1
  6
CONTINUOUS
 10
-2.079697
 20
1.139791
  0
VERTEX
  8
0
 62
     1
  6
CONTINUOUS
 10
-2.697965
 20
1.139791
  0
SEQEND
  8
0
  0
POLYLINE
  8
0
 62
     1
  6
CONTINUOUS
 66
     1
 40
0.003150
 41
0.003150
  0
VERTEX
  8
0
 62
     1
  6
CONTINUOUS
 10
-2.079697
 20
1.125224
  0
VERTEX
  8
0
 62
     1
  6
CONTINUOUS
 10
-2.697965
 20
1.125224
  0
SEQEND
  8
0
  0
POLYLINE
  8
0
 62
     1
  6
CONTINUOUS
 66
     1
 40
0.003150
 41
0.003150
  0
VERTEX
  8
0
 62
     1
  6
CONTINUOUS
 10
-2.079697
 20
0.688287
  0
VERTEX
  8
0
 62
     1
  6
CONTINUOUS
 10
-2.697965
 20
0.688287
  0
SEQEND
  8
0
  0
POLYLINE
  8
0
 62
     1
  6
CONTINUOUS
 66
     1
 40
0.003150
 41
0.003150
  0
VERTEX
  8
0
 62
     1
  6
CONTINUOUS
 10
-2.079697
 20
0.702854
  0
VERTEX
  8
0
 62
     1
  6
CONTINUOUS
 10
-2.697965
 20
0.702854
  0
SEQEND
  8
0
  0
POLYLINE
  8
0
 62
     1
  6
CONTINUOUS
 66
     1
 40
0.003150
 41
0.003150
  0
VERTEX
  8
0
 62
     1
  6
CONTINUOUS
 10
-3.011106
 20
1.139791
  0
VERTEX
  8
0
 62
     1
  6
CONTINUOUS
 10
-3.629374
 20
1.139791
  0
SEQEND
  8
0
  0
POLYLINE
  8
0
 62
     1
  6
CONTINUOUS
 66
     1
 40
0.003150
 41
0.003150
  0
VERTEX
  8
0
 62
     1
  6
CONTINUOUS
 10
-3.011106
 20
1.125224
  0
VERTEX
  8
0
 62
     1
  6
CONTINUOUS
 10
-3.629374
 20
1.125224
  0
SEQEND
  8
0
  0
POLYLINE
  8
0
 62
     1
  6
CONTINUOUS
 66
     1
 40
0.003150
 41
0.003150
  0
VERTEX
  8
0
 62
     1
  6
CONTINUOUS
 10
-3.011106
 20
0.702854
  0
VERTEX
  8
0
 62
     1
  6
CONTINUOUS
 10
-3.629374
 20
0.702854
  0
SEQEND
  8
0
  0
POLYLINE
  8
0
 62
     1
  6
CONTINUOUS
 66
     1
 40
0.003150
 41
0.003150
  0
VERTEX
  8
0
 62
     1
  6
CONTINUOUS
 10
-3.011106
 20
0.688287
  0
VERTEX
  8
0
 62
     1
  6
CONTINUOUS
 10
-3.629374
 20
0.688287
  0
SEQEND
  8
0
  0
POLYLINE
  8
0
 62
     1
  6
CONTINUOUS
 66
     1
 40
0.003150
 41
0.003150
  0
VERTEX
  8
0
 62
     1
  6
CONTINUOUS
 10
-2.344783
 20
1.641839
  0
VERTEX
  8
0
 62
     1
  6
CONTINUOUS
 10
-2.344783
 20
1.813406
  0
SEQEND
  8
0
  0
POLYLINE
  8
0
 62
     1
  6
CONTINUOUS
 66
     1
 40
0.003150
 41
0.003150
  0
VERTEX
  8
0
 62
     1
  6
CONTINUOUS
 10
-2.254295
 20
1.736949
  0
VERTEX
  8
0
 62
     1
  6
CONTINUOUS
 10
-2.447665
 20
1.736949
  0
SEQEND
  8
0
  0
POLYLINE
  8
0
 62
     1
  6
CONTINUOUS
 66
     1
 40
0.003150
 41
0.003150
  0
VERTEX
  8
0
 62
     1
  6
CONTINUOUS
 10
-3.364295
 20
1.642776
  0
VERTEX
  8
0
 62
     1
  6
CONTINUOUS
 10
-3.364295
 20
1.813406
  0
SEQEND
  8
0
  0
POLYLINE
  8
0
 62
     1
  6
CONTINUOUS
 66
     1
 40
0.003150
 41
0.003150
  0
VERTEX
  8
0
 62
     1
  6
CONTINUOUS
 10
-3.268996
 20
1.736941
  0
VERTEX
  8
0
 62
     1
  6
CONTINUOUS
 10
-3.456264
 20
1.736941
  0
SEQEND
  8
0
  0
POLYLINE
  8
0
 62
     1
  6
CONTINUOUS
 66
     1
 40
0.003150
 41
0.003150
  0
VERTEX
  8
0
 62
     1
  6
CONTINUOUS
 10
-2.697965
 20
1.192917
  0
VERTEX
  8
0
 62
     1
  6
CONTINUOUS
 10
-2.698960
 20
1.196585
  0
VERTEX
  8
0
 62
     1
  6
CONTINUOUS
 10
-2.701573
 20
1.199197
  0
VERTEX
  8
0
 62
     1
  6
CONTINUOUS
 10
-2.705240
 20
1.200193
  0
SEQEND
  8
0
  0
POLYLINE
  8
0
 62
     1
  6
CONTINUOUS
 66
     1
 40
0.003150
 41
0.003150
  0
VERTEX
  8
0
 62
     1
  6
CONTINUOUS
 10
-2.697965
 20
1.192917
  0
VERTEX
  8
0
 62
     1
  6
CONTINUOUS
 10
-2.698960
 20
1.196585
  0
VERTEX
  8
0
 62
     1
  6
CONTINUOUS
 10
-2.701573
 20
1.199197
  0
VERTEX
  8
0
 62
     1
  6
CONTINUOUS
 10
-2.705240
 20
1.200193
  0
SEQEND
  8
0
  0
POLYLINE
  8
0
 62
     1
  6
CONTINUOUS
 66
     1
 40
0.003150
 41
0.003150
  0
VERTEX
  8
0
 62
     1
  6
CONTINUOUS
 10
-3.003815
 20
1.200193
  0
VERTEX
  8
0
 62
     1
  6
CONTINUOUS
 10
-3.007483
 20
1.199197
  0
VERTEX
  8
0
 62
     1
  6
CONTINUOUS
 10
-3.010095
 20
1.196585
  0
VERTEX
  8
0
 62
     1
  6
CONTINUOUS
 10
-3.011091
 20
1.192917
  0
SEQEND
  8
0
  0
POLYLINE
  8
0
 62
     1
  6
CONTINUOUS
 66
     1
 40
0.003150
 41
0.003150
  0
VERTEX
  8
0
 62
     1
  6
CONTINUOUS
 10
-3.003815
 20
1.200193
  0
VERTEX
  8
0
 62
     1
  6
CONTINUOUS
 10
-3.007483
 20
1.199197
  0
VERTEX
  8
0
 62
     1
  6
CONTINUOUS
 10
-3.010095
 20
1.196585
  0
VERTEX
  8
0
 62
     1
  6
CONTINUOUS
 10
-3.011091
 20
1.192917
  0
SEQEND
  8
0
  0
POLYLINE
  8
0
 62
     1
  6
CONTINUOUS
 66
     1
 40
0.003150
 41
0.003150
  0
VERTEX
  8
0
 62
     1
  6
CONTINUOUS
 10
-2.705240
 20
0.630563
  0
VERTEX
  8
0
 62
     1
  6
CONTINUOUS
 10
-2.701573
 20
0.631559
  0
VERTEX
  8
0
 62
     1
  6
CONTINUOUS
 10
-2.698960
 20
0.634171
  0
VERTEX
  8
0
 62
     1
  6
CONTINUOUS
 10
-2.697965
 20
0.637839
  0
SEQEND
  8
0
  0
POLYLINE
  8
0
 62
     1
  6
CONTINUOUS
 66
     1
 40
0.003150
 41
0.003150
  0
VERTEX
  8
0
 62
     1
  6
CONTINUOUS
 10
-2.705240
 20
0.630563
  0
VERTEX
  8
0
 62
     1
  6
CONTINUOUS
 10
-2.701573
 20
0.631559
  0
VERTEX
  8
0
 62
     1
  6
CONTINUOUS
 10
-2.698960
 20
0.634171
  0
VERTEX
  8
0
 62
     1
  6
CONTINUOUS
 10
-2.697965
 20
0.637839
  0
SEQEND
  8
0
  0
POLYLINE
  8
0
 62
     1
  6
CONTINUOUS
 66
     1
 40
0.003150
 41
0.003150
  0
VERTEX
  8
0
 62
     1
  6
CONTINUOUS
 10
-3.011091
 20
0.637839
  0
VERTEX
  8
0
 62
     1
  6
CONTINUOUS
 10
-3.010095
 20
0.634171
  0
VERTEX
  8
0
 62
     1
  6
CONTINUOUS
 10
-3.007483
 20
0.631559
  0
VERTEX
  8
0
 62
     1
  6
CONTINUOUS
 10
-3.003815
 20
0.630563
  0
SEQEND
  8
0
  0
POLYLINE
  8
0
 62
     1
  6
CONTINUOUS
 66
     1
 40
0.003150
 41
0.003150
  0
VERTEX
  8
0
 62
     1
  6
CONTINUOUS
 10
-3.011091
 20
0.637839
  0
VERTEX
  8
0
 62
     1
  6
CONTINUOUS
 10
-3.010095
 20
0.634171
  0
VERTEX
  8
0
 62
     1
  6
CONTINUOUS
 10
-3.007483
 20
0.631559
  0
VERTEX
  8
0
 62
     1
  6
CONTINUOUS
 10
-3.003815
 20
0.630563
  0
SEQEND
  8
0
  0
POLYLINE
  8
0
 62
     1
  6
CONTINUOUS
 66
     1
 40
0.003150
 41
0.003150
  0
VERTEX
  8
0
 62
     1
  6
CONTINUOUS
 10
-2.705240
 20
0.622752
  0
VERTEX
  8
0
 62
     1
  6
CONTINUOUS
 10
-2.701573
 20
0.623748
  0
VERTEX
  8
0
 62
     1
  6
CONTINUOUS
 10
-2.698960
 20
0.626360
  0
VERTEX
  8
0
 62
     1
  6
CONTINUOUS
 10
-2.697965
 20
0.630028
  0
SEQEND
  8
0
  0
POLYLINE
  8
0
 62
     1
  6
CONTINUOUS
 66
     1
 40
0.003150
 41
0.003150
  0
VERTEX
  8
0
 62
     1
  6
CONTINUOUS
 10
-2.705240
 20
0.622752
  0
VERTEX
  8
0
 62
     1
  6
CONTINUOUS
 10
-2.701573
 20
0.623748
  0
VERTEX
  8
0
 62
     1
  6
CONTINUOUS
 10
-2.698960
 20
0.626360
  0
VERTEX
  8
0
 62
     1
  6
CONTINUOUS
 10
-2.697965
 20
0.630028
  0
SEQEND
  8
0
  0
POLYLINE
  8
0
 62
     1
  6
CONTINUOUS
 66
     1
 40
0.003150
 41
0.003150
  0
VERTEX
  8
0
 62
     1
  6
CONTINUOUS
 10
-3.011091
 20
0.630028
  0
VERTEX
  8
0
 62
     1
  6
CONTINUOUS
 10
-3.010095
 20
0.626360
  0
VERTEX
  8
0
 62
     1
  6
CONTINUOUS
 10
-3.007483
 20
0.623748
  0
VERTEX
  8
0
 62
     1
  6
CONTINUOUS
 10
-3.003815
 20
0.622752
  0
SEQEND
  8
0
  0
POLYLINE
  8
0
 62
     1
  6
CONTINUOUS
 66
     1
 40
0.003150
 41
0.003150
  0
VERTEX
  8
0
 62
     1
  6
CONTINUOUS
 10
-3.011091
 20
0.630028
  0
VERTEX
  8
0
 62
     1
  6
CONTINUOUS
 10
-3.010095
 20
0.626360
  0
VERTEX
  8
0
 62
     1
  6
CONTINUOUS
 10
-3.007483
 20
0.623748
  0
VERTEX
  8
0
 62
     1
  6
CONTINUOUS
 10
-3.003815
 20
0.622752
  0
SEQEND
  8
0
  0
POLYLINE
  8
0
 62
     1
  6
CONTINUOUS
 66
     1
 40
0.003150
 41
0.003150
  0
VERTEX
  8
0
 62
     1
  6
CONTINUOUS
 10
-3.003815
 20
1.205327
  0
VERTEX
  8
0
 62
     1
  6
CONTINUOUS
 10
-3.007483
 20
1.204331
  0
VERTEX
  8
0
 62
     1
  6
CONTINUOUS
 10
-3.010095
 20
1.201719
  0
VERTEX
  8
0
 62
     1
  6
CONTINUOUS
 10
-3.011091
 20
1.198051
  0
SEQEND
  8
0
  0
POLYLINE
  8
0
 62
     1
  6
CONTINUOUS
 66
     1
 40
0.003150
 41
0.003150
  0
VERTEX
  8
0
 62
     1
  6
CONTINUOUS
 10
-3.003815
 20
1.205327
  0
VERTEX
  8
0
 62
     1
  6
CONTINUOUS
 10
-3.007483
 20
1.204331
  0
VERTEX
  8
0
 62
     1
  6
CONTINUOUS
 10
-3.010095
 20
1.201719
  0
VERTEX
  8
0
 62
     1
  6
CONTINUOUS
 10
-3.011091
 20
1.198051
  0
SEQEND
  8
0
  0
POLYLINE
  8
0
 62
     1
  6
CONTINUOUS
 66
     1
 40
0.003150
 41
0.003150
  0
VERTEX
  8
0
 62
     1
  6
CONTINUOUS
 10
-2.697965
 20
1.198051
  0
VERTEX
  8
0
 62
     1
  6
CONTINUOUS
 10
-2.698960
 20
1.201719
  0
VERTEX
  8
0
 62
     1
  6
CONTINUOUS
 10
-2.701573
 20
1.204331
  0
VERTEX
  8
0
 62
     1
  6
CONTINUOUS
 10
-2.705240
 20
1.205327
  0
SEQEND
  8
0
  0
POLYLINE
  8
0
 62
     1
  6
CONTINUOUS
 66
     1
 40
0.003150
 41
0.003150
  0
VERTEX
  8
0
 62
     1
  6
CONTINUOUS
 10
-2.697965
 20
1.198051
  0
VERTEX
  8
0
 62
     1
  6
CONTINUOUS
 10
-2.698960
 20
1.201719
  0
VERTEX
  8
0
 62
     1
  6
CONTINUOUS
 10
-2.701573
 20
1.204331
  0
VERTEX
  8
0
 62
     1
  6
CONTINUOUS
 10
-2.705240
 20
1.205327
  0
SEQEND
  8
0
  0
POLYLINE
  8
0
 62
     1
  6
CONTINUOUS
 66
     1
 40
0.003150
 41
0.003150
  0
VERTEX
  8
0
 62
     1
  6
CONTINUOUS
 10
-2.330201
 20
0.673720
  0
VERTEX
  8
0
 62
     1
  6
CONTINUOUS
 10
-2.333868
 20
0.672725
  0
VERTEX
  8
0
 62
     1
  6
CONTINUOUS
 10
-2.336481
 20
0.670112
  0
VERTEX
  8
0
 62
     1
  6
CONTINUOUS
 10
-2.337476
 20
0.666445
  0
SEQEND
  8
0
  0
POLYLINE
  8
0
 62
     1
  6
CONTINUOUS
 66
     1
 40
0.003150
 41
0.003150
  0
VERTEX
  8
0
 62
     1
  6
CONTINUOUS
 10
-2.330201
 20
0.673720
  0
VERTEX
  8
0
 62
     1
  6
CONTINUOUS
 10
-2.333868
 20
0.672725
  0
VERTEX
  8
0
 62
     1
  6
CONTINUOUS
 10
-2.336481
 20
0.670112
  0
VERTEX
  8
0
 62
     1
  6
CONTINUOUS
 10
-2.337476
 20
0.666445
  0
SEQEND
  8
0
  0
POLYLINE
  8
0
 62
     1
  6
CONTINUOUS
 66
     1
 40
0.003150
 41
0.003150
  0
VERTEX
  8
0
 62
     1
  6
CONTINUOUS
 10
-2.162720
 20
0.666445
  0
VERTEX
  8
0
 62
     1
  6
CONTINUOUS
 10
-2.163716
 20
0.670112
  0
VERTEX
  8
0
 62
     1
  6
CONTINUOUS
 10
-2.166329
 20
0.672725
  0
VERTEX
  8
0
 62
     1
  6
CONTINUOUS
 10
-2.169996
 20
0.673720
  0
SEQEND
  8
0
  0
POLYLINE
  8
0
 62
     1
  6
CONTINUOUS
 66
     1
 40
0.003150
 41
0.003150
  0
VERTEX
  8
0
 62
     1
  6
CONTINUOUS
 10
-2.162720
 20
0.666445
  0
VERTEX
  8
0
 62
     1
  6
CONTINUOUS
 10
-2.163716
 20
0.670112
  0
VERTEX
  8
0
 62
     1
  6
CONTINUOUS
 10
-2.166329
 20
0.672725
  0
VERTEX
  8
0
 62
     1
  6
CONTINUOUS
 10
-2.169996
 20
0.673720
  0
SEQEND
  8
0
  0
POLYLINE
  8
0
 62
     1
  6
CONTINUOUS
 66
     1
 40
0.003150
 41
0.003150
  0
VERTEX
  8
0
 62
     1
  6
CONTINUOUS
 10
-2.169996
 20
0.600917
  0
VERTEX
  8
0
 62
     1
  6
CONTINUOUS
 10
-2.166329
 20
0.601913
  0
VERTEX
  8
0
 62
     1
  6
CONTINUOUS
 10
-2.163716
 20
0.604525
  0
VERTEX
  8
0
 62
     1
  6
CONTINUOUS
 10
-2.162720
 20
0.608193
  0
SEQEND
  8
0
  0
POLYLINE
  8
0
 62
     1
  6
CONTINUOUS
 66
     1
 40
0.003150
 41
0.003150
  0
VERTEX
  8
0
 62
     1
  6
CONTINUOUS
 10
-2.169996
 20
0.600917
  0
VERTEX
  8
0
 62
     1
  6
CONTINUOUS
 10
-2.166329
 20
0.601913
  0
VERTEX
  8
0
 62
     1
  6
CONTINUOUS
 10
-2.163716
 20
0.604525
  0
VERTEX
  8
0
 62
     1
  6
CONTINUOUS
 10
-2.162720
 20
0.608193
  0
SEQEND
  8
0
  0
POLYLINE
  8
0
 62
     1
  6
CONTINUOUS
 66
     1
 40
0.003150
 41
0.003150
  0
VERTEX
  8
0
 62
     1
  6
CONTINUOUS
 10
-2.337476
 20
0.608193
  0
VERTEX
  8
0
 62
     1
  6
CONTINUOUS
 10
-2.336481
 20
0.604525
  0
VERTEX
  8
0
 62
     1
  6
CONTINUOUS
 10
-2.333868
 20
0.601913
  0
VERTEX
  8
0
 62
     1
  6
CONTINUOUS
 10
-2.330201
 20
0.600917
  0
SEQEND
  8
0
  0
POLYLINE
  8
0
 62
     1
  6
CONTINUOUS
 66
     1
 40
0.003150
 41
0.003150
  0
VERTEX
  8
0
 62
     1
  6
CONTINUOUS
 10
-2.337476
 20
0.608193
  0
VERTEX
  8
0
 62
     1
  6
CONTINUOUS
 10
-2.336481
 20
0.604525
  0
VERTEX
  8
0
 62
     1
  6
CONTINUOUS
 10
-2.333868
 20
0.601913
  0
VERTEX
  8
0
 62
     1
  6
CONTINUOUS
 10
-2.330201
 20
0.600917
  0
SEQEND
  8
0
  0
POLYLINE
  8
0
 62
     1
  6
CONTINUOUS
 66
     1
 40
0.003150
 41
0.003150
  0
VERTEX
  8
0
 62
     1
  6
CONTINUOUS
 10
-3.043878
 20
0.586335
  0
VERTEX
  8
0
 62
     1
  6
CONTINUOUS
 10
-3.043878
 20
0.688287
  0
SEQEND
  8
0
  0
POLYLINE
  8
0
 62
     1
  6
CONTINUOUS
 66
     1
 40
0.003150
 41
0.003150
  0
VERTEX
  8
0
 62
     1
  6
CONTINUOUS
 10
-3.058445
 20
1.139791
  0
VERTEX
  8
0
 62
     1
  6
CONTINUOUS
 10
-3.058445
 20
1.241744
  0
SEQEND
  8
0
  0
POLYLINE
  8
0
 62
     1
  6
CONTINUOUS
 66
     1
 40
0.003150
 41
0.003150
  0
VERTEX
  8
0
 62
     1
  6
CONTINUOUS
 10
-2.665201
 20
0.586335
  0
VERTEX
  8
0
 62
     1
  6
CONTINUOUS
 10
-2.665201
 20
0.688287
  0
SEQEND
  8
0
  0
POLYLINE
  8
0
 62
     1
  6
CONTINUOUS
 66
     1
 40
0.003150
 41
0.003150
  0
VERTEX
  8
0
 62
     1
  6
CONTINUOUS
 10
-2.650634
 20
1.139791
  0
VERTEX
  8
0
 62
     1
  6
CONTINUOUS
 10
-2.650634
 20
1.241744
  0
SEQEND
  8
0
  0
POLYLINE
  8
0
 62
     1
  6
CONTINUOUS
 66
     1
 40
0.003150
 41
0.003150
  0
VERTEX
  8
0
 62
     1
  6
CONTINUOUS
 10
-3.043878
 20
1.139791
  0
VERTEX
  8
0
 62
     1
  6
CONTINUOUS
 10
-3.043878
 20
1.241744
  0
SEQEND
  8
0
  0
POLYLINE
  8
0
 62
     1
  6
CONTINUOUS
 66
     1
 40
0.003150
 41
0.003150
  0
VERTEX
  8
0
 62
     1
  6
CONTINUOUS
 10
-2.665201
 20
1.139791
  0
VERTEX
  8
0
 62
     1
  6
CONTINUOUS
 10
-2.665201
 20
1.241744
  0
SEQEND
  8
0
  0
POLYLINE
  8
0
 62
     1
  6
CONTINUOUS
 66
     1
 40
0.003150
 41
0.003150
  0
VERTEX
  8
0
 62
     1
  6
CONTINUOUS
 10
-2.079697
 20
1.154358
  0
VERTEX
  8
0
 62
     1
  6
CONTINUOUS
 10
-2.650634
 20
1.154358
  0
SEQEND
  8
0
  0
POLYLINE
  8
0
 62
     1
  6
CONTINUOUS
 66
     1
 40
0.003150
 41
0.003150
  0
VERTEX
  8
0
 62
     1
  6
CONTINUOUS
 10
-3.058445
 20
1.154358
  0
VERTEX
  8
0
 62
     1
  6
CONTINUOUS
 10
-3.629374
 20
1.154358
  0
SEQEND
  8
0
  0
POLYLINE
  8
0
 62
     1
  6
CONTINUOUS
 66
     1
 40
0.003150
 41
0.003150
  0
VERTEX
  8
0
 62
     1
  6
CONTINUOUS
 10
-2.170004
 20
0.673728
  0
VERTEX
  8
0
 62
     1
  6
CONTINUOUS
 10
-2.330209
 20
0.673728
  0
SEQEND
  8
0
  0
POLYLINE
  8
0
 62
     1
  6
CONTINUOUS
 66
     1
 40
0.003150
 41
0.003150
  0
VERTEX
  8
0
 62
     1
  6
CONTINUOUS
 10
-2.170004
 20
0.600909
  0
VERTEX
  8
0
 62
     1
  6
CONTINUOUS
 10
-2.330209
 20
0.600909
  0
SEQEND
  8
0
  0
POLYLINE
  8
0
 62
     1
  6
CONTINUOUS
 66
     1
 40
0.003150
 41
0.003150
  0
VERTEX
  8
0
 62
     1
  6
CONTINUOUS
 10
-2.162720
 20
0.608193
  0
VERTEX
  8
0
 62
     1
  6
CONTINUOUS
 10
-2.162720
 20
0.666445
  0
SEQEND
  8
0
  0
POLYLINE
  8
0
 62
     1
  6
CONTINUOUS
 66
     1
 40
0.003150
 41
0.003150
  0
VERTEX
  8
0
 62
     1
  6
CONTINUOUS
 10
-2.337492
 20
0.608193
  0
VERTEX
  8
0
 62
     1
  6
CONTINUOUS
 10
-2.337492
 20
0.666445
  0
SEQEND
  8
0
  0
POLYLINE
  8
0
 62
     1
  6
CONTINUOUS
 66
     1
 40
0.003150
 41
0.003150
  0
VERTEX
  8
0
 62
     1
  6
CONTINUOUS
 10
-2.079697
 20
0.083854
  0
VERTEX
  8
0
 62
     1
  6
CONTINUOUS
 10
-2.079697
 20
2.421476
  0
SEQEND
  8
0
  0
POLYLINE
  8
0
 62
     1
  6
CONTINUOUS
 66
     1
 40
0.003150
 41
0.003150
  0
VERTEX
  8
0
 62
     1
  6
CONTINUOUS
 10
-2.027272
 20
0.083854
  0
VERTEX
  8
0
 62
     1
  6
CONTINUOUS
 10
-2.027272
 20
2.421476
  0
SEQEND
  8
0
  0
POLYLINE
  8
0
 62
     1
  6
CONTINUOUS
 66
     1
 40
0.003150
 41
0.003150
  0
VERTEX
  8
0
 62
     1
  6
CONTINUOUS
 10
-1.974839
 20
0.083854
  0
VERTEX
  8
0
 62
     1
  6
CONTINUOUS
 10
-1.974839
 20
2.421476
  0
SEQEND
  8
0
  0
POLYLINE
  8
0
 62
     1
  6
CONTINUOUS
 66
     1
 40
0.003150
 41
0.003150
  0
VERTEX
  8
0
 62
     1
  6
CONTINUOUS
 10
-1.922406
 20
0.083854
  0
VERTEX
  8
0
 62
     1
  6
CONTINUOUS
 10
-1.922406
 20
2.421476
  0
SEQEND
  8
0
  0
POLYLINE
  8
0
 62
     1
  6
CONTINUOUS
 66
     1
 40
0.003150
 41
0.003150
  0
VERTEX
  8
0
 62
     1
  6
CONTINUOUS
 10
-1.869972
 20
0.083854
  0
VERTEX
  8
0
 62
     1
  6
CONTINUOUS
 10
-1.869972
 20
2.421476
  0
SEQEND
  8
0
  0
POLYLINE
  8
0
 62
     1
  6
CONTINUOUS
 66
     1
 40
0.003150
 41
0.003150
  0
VERTEX
  8
0
 62
     1
  6
CONTINUOUS
 10
-3.839106
 20
-0.455020
  0
VERTEX
  8
0
 62
     1
  6
CONTINUOUS
 10
-3.839106
 20
0.054728
  0
SEQEND
  8
0
  0
POLYLINE
  8
0
 62
     1
  6
CONTINUOUS
 66
     1
 40
0.003150
 41
0.003150
  0
VERTEX
  8
0
 62
     1
  6
CONTINUOUS
 10
-3.786673
 20
-0.455020
  0
VERTEX
  8
0
 62
     1
  6
CONTINUOUS
 10
-3.786673
 20
0.054728
  0
SEQEND
  8
0
  0
POLYLINE
  8
0
 62
     1
  6
CONTINUOUS
 66
     1
 40
0.003150
 41
0.003150
  0
VERTEX
  8
0
 62
     1
  6
CONTINUOUS
 10
-3.734240
 20
-0.455020
  0
VERTEX
  8
0
 62
     1
  6
CONTINUOUS
 10
-3.734240
 20
0.054728
  0
SEQEND
  8
0
  0
POLYLINE
  8
0
 62
     1
  6
CONTINUOUS
 66
     1
 40
0.003150
 41
0.003150
  0
VERTEX
  8
0
 62
     1
  6
CONTINUOUS
 10
-3.681807
 20
-0.455020
  0
VERTEX
  8
0
 62
     1
  6
CONTINUOUS
 10
-3.681807
 20
0.054728
  0
SEQEND
  8
0
  0
POLYLINE
  8
0
 62
     1
  6
CONTINUOUS
 66
     1
 40
0.003150
 41
0.003150
  0
VERTEX
  8
0
 62
     1
  6
CONTINUOUS
 10
-3.629374
 20
-0.455020
  0
VERTEX
  8
0
 62
     1
  6
CONTINUOUS
 10
-3.629374
 20
0.054728
  0
SEQEND
  8
0
  0
POLYLINE
  8
0
 62
     1
  6
CONTINUOUS
 66
     1
 40
0.003150
 41
0.003150
  0
VERTEX
  8
0
 62
     1
  6
CONTINUOUS
 10
-3.576941
 20
2.552555
  0
VERTEX
  8
0
 62
     1
  6
CONTINUOUS
 10
-3.576941
 20
2.919429
  0
SEQEND
  8
0
  0
POLYLINE
  8
0
 62
     1
  6
CONTINUOUS
 66
     1
 40
0.003150
 41
0.003150
  0
VERTEX
  8
0
 62
     1
  6
CONTINUOUS
 10
-3.524508
 20
2.552555
  0
VERTEX
  8
0
 62
     1
  6
CONTINUOUS
 10
-3.524508
 20
2.919429
  0
SEQEND
  8
0
  0
POLYLINE
  8
0
 62
     1
  6
CONTINUOUS
 66
     1
 40
0.003150
 41
0.003150
  0
VERTEX
  8
0
 62
     1
  6
CONTINUOUS
 10
-3.472075
 20
2.552555
  0
VERTEX
  8
0
 62
     1
  6
CONTINUOUS
 10
-3.472075
 20
2.919429
  0
SEQEND
  8
0
  0
POLYLINE
  8
0
 62
     1
  6
CONTINUOUS
 66
     1
 40
0.003150
 41
0.003150
  0
VERTEX
  8
0
 62
     1
  6
CONTINUOUS
 10
-3.419642
 20
2.552555
  0
VERTEX
  8
0
 62
     1
  6
CONTINUOUS
 10
-3.419642
 20
2.919429
  0
SEQEND
  8
0
  0
POLYLINE
  8
0
 62
     1
  6
CONTINUOUS
 66
     1
 40
0.003150
 41
0.003150
  0
VERTEX
  8
0
 62
     1
  6
CONTINUOUS
 10
-3.367209
 20
2.552555
  0
VERTEX
  8
0
 62
     1
  6
CONTINUOUS
 10
-3.367209
 20
2.919429
  0
SEQEND
  8
0
  0
POLYLINE
  8
0
 62
     1
  6
CONTINUOUS
 66
     1
 40
0.003150
 41
0.003150
  0
VERTEX
  8
0
 62
     1
  6
CONTINUOUS
 10
-3.314776
 20
2.552555
  0
VERTEX
  8
0
 62
     1
  6
CONTINUOUS
 10
-3.314776
 20
2.919429
  0
SEQEND
  8
0
  0
POLYLINE
  8
0
 62
     1
  6
CONTINUOUS
 66
     1
 40
0.003150
 41
0.003150
  0
VERTEX
  8
0
 62
     1
  6
CONTINUOUS
 10
-3.262343
 20
2.552555
  0
VERTEX
  8
0
 62
     1
  6
CONTINUOUS
 10
-3.262343
 20
2.919429
  0
SEQEND
  8
0
  0
POLYLINE
  8
0
 62
     1
  6
CONTINUOUS
 66
     1
 40
0.003150
 41
0.003150
  0
VERTEX
  8
0
 62
     1
  6
CONTINUOUS
 10
-3.209917
 20
2.552555
  0
VERTEX
  8
0
 62
     1
  6
CONTINUOUS
 10
-3.209917
 20
2.919429
  0
SEQEND
  8
0
  0
POLYLINE
  8
0
 62
     1
  6
CONTINUOUS
 66
     1
 40
0.003150
 41
0.003150
  0
VERTEX
  8
0
 62
     1
  6
CONTINUOUS
 10
-3.157484
 20
2.552555
  0
VERTEX
  8
0
 62
     1
  6
CONTINUOUS
 10
-3.157484
 20
2.919429
  0
SEQEND
  8
0
  0
POLYLINE
  8
0
 62
     1
  6
CONTINUOUS
 66
     1
 40
0.003150
 41
0.003150
  0
VERTEX
  8
0
 62
     1
  6
CONTINUOUS
 10
-3.105051
 20
2.552555
  0
VERTEX
  8
0
 62
     1
  6
CONTINUOUS
 10
-3.105051
 20
2.919429
  0
SEQEND
  8
0
  0
POLYLINE
  8
0
 62
     1
  6
CONTINUOUS
 66
     1
 40
0.003150
 41
0.003150
  0
VERTEX
  8
0
 62
     1
  6
CONTINUOUS
 10
-3.052618
 20
2.552555
  0
VERTEX
  8
0
 62
     1
  6
CONTINUOUS
 10
-3.052618
 20
2.919429
  0
SEQEND
  8
0
  0
POLYLINE
  8
0
 62
     1
  6
CONTINUOUS
 66
     1
 40
0.003150
 41
0.003150
  0
VERTEX
  8
0
 62
     1
  6
CONTINUOUS
 10
-3.000185
 20
2.552555
  0
VERTEX
  8
0
 62
     1
  6
CONTINUOUS
 10
-3.000185
 20
2.919429
  0
SEQEND
  8
0
  0
POLYLINE
  8
0
 62
     1
  6
CONTINUOUS
 66
     1
 40
0.003150
 41
0.003150
  0
VERTEX
  8
0
 62
     1
  6
CONTINUOUS
 10
-2.947752
 20
2.552555
  0
VERTEX
  8
0
 62
     1
  6
CONTINUOUS
 10
-2.947752
 20
2.919429
  0
SEQEND
  8
0
  0
POLYLINE
  8
0
 62
     1
  6
CONTINUOUS
 66
     1
 40
0.003150
 41
0.003150
  0
VERTEX
  8
0
 62
     1
  6
CONTINUOUS
 10
-2.895319
 20
2.552555
  0
VERTEX
  8
0
 62
     1
  6
CONTINUOUS
 10
-2.895319
 20
2.919429
  0
SEQEND
  8
0
  0
POLYLINE
  8
0
 62
     1
  6
CONTINUOUS
 66
     1
 40
0.003150
 41
0.003150
  0
VERTEX
  8
0
 62
     1
  6
CONTINUOUS
 10
-2.854539
 20
2.537996
  0
VERTEX
  8
0
 62
     1
  6
CONTINUOUS
 10
-2.854539
 20
2.923957
  0
SEQEND
  8
0
  0
POLYLINE
  8
0
 62
     1
  6
CONTINUOUS
 66
     1
 40
0.003150
 41
0.003150
  0
VERTEX
  8
0
 62
     1
  6
CONTINUOUS
 10
-3.839106
 20
-0.843744
  0
VERTEX
  8
0
 62
     1
  6
CONTINUOUS
 10
-3.839106
 20
-0.476870
  0
SEQEND
  8
0
  0
POLYLINE
  8
0
 62
     1
  6
CONTINUOUS
 66
     1
 40
0.003150
 41
0.003150
  0
VERTEX
  8
0
 62
     1
  6
CONTINUOUS
 10
-3.786673
 20
-0.843744
  0
VERTEX
  8
0
 62
     1
  6
CONTINUOUS
 10
-3.786673
 20
-0.476870
  0
SEQEND
  8
0
  0
POLYLINE
  8
0
 62
     1
  6
CONTINUOUS
 66
     1
 40
0.003150
 41
0.003150
  0
VERTEX
  8
0
 62
     1
  6
CONTINUOUS
 10
-3.734240
 20
-0.843744
  0
VERTEX
  8
0
 62
     1
  6
CONTINUOUS
 10
-3.734240
 20
-0.476870
  0
SEQEND
  8
0
  0
POLYLINE
  8
0
 62
     1
  6
CONTINUOUS
 66
     1
 40
0.003150
 41
0.003150
  0
VERTEX
  8
0
 62
     1
  6
CONTINUOUS
 10
-3.681807
 20
-0.843744
  0
VERTEX
  8
0
 62
     1
  6
CONTINUOUS
 10
-3.681807
 20
-0.476870
  0
SEQEND
  8
0
  0
POLYLINE
  8
0
 62
     1
  6
CONTINUOUS
 66
     1
 40
0.003150
 41
0.003150
  0
VERTEX
  8
0
 62
     1
  6
CONTINUOUS
 10
-3.629374
 20
-0.843744
  0
VERTEX
  8
0
 62
     1
  6
CONTINUOUS
 10
-3.629374
 20
-0.476870
  0
SEQEND
  8
0
  0
POLYLINE
  8
0
 62
     1
  6
CONTINUOUS
 66
     1
 40
0.003150
 41
0.003150
  0
VERTEX
  8
0
 62
     1
  6
CONTINUOUS
 10
-3.576941
 20
-0.843744
  0
VERTEX
  8
0
 62
     1
  6
CONTINUOUS
 10
-3.576941
 20
-0.476870
  0
SEQEND
  8
0
  0
POLYLINE
  8
0
 62
     1
  6
CONTINUOUS
 66
     1
 40
0.003150
 41
0.003150
  0
VERTEX
  8
0
 62
     1
  6
CONTINUOUS
 10
-3.524508
 20
-0.843744
  0
VERTEX
  8
0
 62
     1
  6
CONTINUOUS
 10
-3.524508
 20
-0.476870
  0
SEQEND
  8
0
  0
POLYLINE
  8
0
 62
     1
  6
CONTINUOUS
 66
     1
 40
0.003150
 41
0.003150
  0
VERTEX
  8
0
 62
     1
  6
CONTINUOUS
 10
-3.472075
 20
-0.843744
  0
VERTEX
  8
0
 62
     1
  6
CONTINUOUS
 10
-3.472075
 20
-0.476870
  0
SEQEND
  8
0
  0
POLYLINE
  8
0
 62
     1
  6
CONTINUOUS
 66
     1
 40
0.003150
 41
0.003150
  0
VERTEX
  8
0
 62
     1
  6
CONTINUOUS
 10
-3.419642
 20
-0.843744
  0
VERTEX
  8
0
 62
     1
  6
CONTINUOUS
 10
-3.419642
 20
-0.476870
  0
SEQEND
  8
0
  0
POLYLINE
  8
0
 62
     1
  6
CONTINUOUS
 66
     1
 40
0.003150
 41
0.003150
  0
VERTEX
  8
0
 62
     1
  6
CONTINUOUS
 10
-3.367209
 20
-0.843744
  0
VERTEX
  8
0
 62
     1
  6
CONTINUOUS
 10
-3.367209
 20
-0.476870
  0
SEQEND
  8
0
  0
POLYLINE
  8
0
 62
     1
  6
CONTINUOUS
 66
     1
 40
0.003150
 41
0.003150
  0
VERTEX
  8
0
 62
     1
  6
CONTINUOUS
 10
-3.314776
 20
-0.843744
  0
VERTEX
  8
0
 62
     1
  6
CONTINUOUS
 10
-3.314776
 20
-0.476870
  0
SEQEND
  8
0
  0
POLYLINE
  8
0
 62
     1
  6
CONTINUOUS
 66
     1
 40
0.003150
 41
0.003150
  0
VERTEX
  8
0
 62
     1
  6
CONTINUOUS
 10
-3.262343
 20
-0.843744
  0
VERTEX
  8
0
 62
     1
  6
CONTINUOUS
 10
-3.262343
 20
-0.476870
  0
SEQEND
  8
0
  0
POLYLINE
  8
0
 62
     1
  6
CONTINUOUS
 66
     1
 40
0.003150
 41
0.003150
  0
VERTEX
  8
0
 62
     1
  6
CONTINUOUS
 10
-3.209917
 20
-0.843744
  0
VERTEX
  8
0
 62
     1
  6
CONTINUOUS
 10
-3.209917
 20
-0.476870
  0
SEQEND
  8
0
  0
POLYLINE
  8
0
 62
     1
  6
CONTINUOUS
 66
     1
 40
0.003150
 41
0.003150
  0
VERTEX
  8
0
 62
     1
  6
CONTINUOUS
 10
-3.157484
 20
-0.843744
  0
VERTEX
  8
0
 62
     1
  6
CONTINUOUS
 10
-3.157484
 20
-0.476870
  0
SEQEND
  8
0
  0
POLYLINE
  8
0
 62
     1
  6
CONTINUOUS
 66
     1
 40
0.003150
 41
0.003150
  0
VERTEX
  8
0
 62
     1
  6
CONTINUOUS
 10
-3.105051
 20
-0.843744
  0
VERTEX
  8
0
 62
     1
  6
CONTINUOUS
 10
-3.105051
 20
-0.476870
  0
SEQEND
  8
0
  0
POLYLINE
  8
0
 62
     1
  6
CONTINUOUS
 66
     1
 40
0.003150
 41
0.003150
  0
VERTEX
  8
0
 62
     1
  6
CONTINUOUS
 10
-3.052618
 20
-0.843744
  0
VERTEX
  8
0
 62
     1
  6
CONTINUOUS
 10
-3.052618
 20
-0.476870
  0
SEQEND
  8
0
  0
POLYLINE
  8
0
 62
     1
  6
CONTINUOUS
 66
     1
 40
0.003150
 41
0.003150
  0
VERTEX
  8
0
 62
     1
  6
CONTINUOUS
 10
-3.000185
 20
-0.843744
  0
VERTEX
  8
0
 62
     1
  6
CONTINUOUS
 10
-3.000185
 20
-0.476870
  0
SEQEND
  8
0
  0
POLYLINE
  8
0
 62
     1
  6
CONTINUOUS
 66
     1
 40
0.003150
 41
0.003150
  0
VERTEX
  8
0
 62
     1
  6
CONTINUOUS
 10
-2.947752
 20
-0.843744
  0
VERTEX
  8
0
 62
     1
  6
CONTINUOUS
 10
-2.947752
 20
-0.476870
  0
SEQEND
  8
0
  0
POLYLINE
  8
0
 62
     1
  6
CONTINUOUS
 66
     1
 40
0.003150
 41
0.003150
  0
VERTEX
  8
0
 62
     1
  6
CONTINUOUS
 10
-2.895319
 20
-0.843744
  0
VERTEX
  8
0
 62
     1
  6
CONTINUOUS
 10
-2.895319
 20
-0.476870
  0
SEQEND
  8
0
  0
POLYLINE
  8
0
 62
     1
  6
CONTINUOUS
 66
     1
 40
0.003150
 41
0.003150
  0
VERTEX
  8
0
 62
     1
  6
CONTINUOUS
 10
-2.344783
 20
1.795201
  0
VERTEX
  8
0
 62
     1
  6
CONTINUOUS
 10
-2.396559
 20
1.765010
  0
VERTEX
  8
0
 62
     1
  6
CONTINUOUS
 10
-2.396561
 20
1.708895
  0
VERTEX
  8
0
 62
     1
  6
CONTINUOUS
 10
-2.344783
 20
1.678705
  0
VERTEX
  8
0
 62
     1
  6
CONTINUOUS
 10
-2.293011
 20
1.708886
  0
VERTEX
  8
0
 62
     1
  6
CONTINUOUS
 10
-2.293005
 20
1.765001
  0
VERTEX
  8
0
 62
     1
  6
CONTINUOUS
 10
-2.344776
 20
1.795193
  0
VERTEX
  8
0
 62
     1
  6
CONTINUOUS
 10
-2.344778
 20
1.795195
  0
VERTEX
  8
0
 62
     1
  6
CONTINUOUS
 10
-2.344781
 20
1.795199
  0
VERTEX
  8
0
 62
     1
  6
CONTINUOUS
 10
-2.344783
 20
1.795201
  0
SEQEND
  8
0
  0
POLYLINE
  8
0
 62
     1
  6
CONTINUOUS
 66
     1
 40
0.003150
 41
0.003150
  0
VERTEX
  8
0
 62
     1
  6
CONTINUOUS
 10
-2.854539
 20
-0.848272
  0
VERTEX
  8
0
 62
     1
  6
CONTINUOUS
 10
-2.854539
 20
-0.476870
  0
SEQEND
  8
0
  0
POLYLINE
  8
0
 62
     1
  6
CONTINUOUS
 66
     1
 40
0.003150
 41
0.003150
  0
VERTEX
  8
0
 62
     1
  6
CONTINUOUS
 10
-3.364295
 20
1.795201
  0
VERTEX
  8
0
 62
     1
  6
CONTINUOUS
 10
-3.416071
 20
1.765010
  0
VERTEX
  8
0
 62
     1
  6
CONTINUOUS
 10
-3.416073
 20
1.708895
  0
VERTEX
  8
0
 62
     1
  6
CONTINUOUS
 10
-3.364295
 20
1.678705
  0
VERTEX
  8
0
 62
     1
  6
CONTINUOUS
 10
-3.312522
 20
1.708886
  0
VERTEX
  8
0
 62
     1
  6
CONTINUOUS
 10
-3.312517
 20
1.765001
  0
VERTEX
  8
0
 62
     1
  6
CONTINUOUS
 10
-3.364287
 20
1.795193
  0
VERTEX
  8
0
 62
     1
  6
CONTINUOUS
 10
-3.364289
 20
1.795195
  0
VERTEX
  8
0
 62
     1
  6
CONTINUOUS
 10
-3.364293
 20
1.795199
  0
VERTEX
  8
0
 62
     1
  6
CONTINUOUS
 10
-3.364295
 20
1.795201
  0
SEQEND
  8
0
  0
POLYLINE
  8
0
 62
     1
  6
CONTINUOUS
 66
     1
 40
0.003150
 41
0.003150
  0
VERTEX
  8
0
 62
     1
  6
CONTINUOUS
 10
-2.353012
 20
1.745177
  0
VERTEX
  8
0
 62
     1
  6
CONTINUOUS
 10
-2.378280
 20
1.745177
  0
SEQEND
  8
0
  0
POLYLINE
  8
0
 62
     1
  6
CONTINUOUS
 66
     1
 40
0.003150
 41
0.003150
  0
VERTEX
  8
0
 62
     1
  6
CONTINUOUS
 10
-2.353012
 20
1.728720
  0
VERTEX
  8
0
 62
     1
  6
CONTINUOUS
 10
-2.378280
 20
1.728720
  0
SEQEND
  8
0
  0
POLYLINE
  8
0
 62
     1
  6
CONTINUOUS
 66
     1
 40
0.003150
 41
0.003150
  0
VERTEX
  8
0
 62
     1
  6
CONTINUOUS
 10
-2.353012
 20
1.703445
  0
VERTEX
  8
0
 62
     1
  6
CONTINUOUS
 10
-2.353012
 20
1.728720
  0
SEQEND
  8
0
  0
POLYLINE
  8
0
 62
     1
  6
CONTINUOUS
 66
     1
 40
0.003150
 41
0.003150
  0
VERTEX
  8
0
 62
     1
  6
CONTINUOUS
 10
-2.336555
 20
1.703445
  0
VERTEX
  8
0
 62
     1
  6
CONTINUOUS
 10
-2.336555
 20
1.728720
  0
SEQEND
  8
0
  0
POLYLINE
  8
0
 62
     1
  6
CONTINUOUS
 66
     1
 40
0.003150
 41
0.003150
  0
VERTEX
  8
0
 62
     1
  6
CONTINUOUS
 10
-2.336555
 20
1.770445
  0
VERTEX
  8
0
 62
     1
  6
CONTINUOUS
 10
-2.353012
 20
1.770445
  0
SEQEND
  8
0
  0
POLYLINE
  8
0
 62
     1
  6
CONTINUOUS
 66
     1
 40
0.003150
 41
0.003150
  0
VERTEX
  8
0
 62
     1
  6
CONTINUOUS
 10
-2.336555
 20
1.703445
  0
VERTEX
  8
0
 62
     1
  6
CONTINUOUS
 10
-2.353012
 20
1.703445
  0
SEQEND
  8
0
  0
POLYLINE
  8
0
 62
     1
  6
CONTINUOUS
 66
     1
 40
0.003150
 41
0.003150
  0
VERTEX
  8
0
 62
     1
  6
CONTINUOUS
 10
-2.378280
 20
1.728720
  0
VERTEX
  8
0
 62
     1
  6
CONTINUOUS
 10
-2.378280
 20
1.745177
  0
SEQEND
  8
0
  0
POLYLINE
  8
0
 62
     1
  6
CONTINUOUS
 66
     1
 40
0.003150
 41
0.003150
  0
VERTEX
  8
0
 62
     1
  6
CONTINUOUS
 10
-2.311287
 20
1.728720
  0
VERTEX
  8
0
 62
     1
  6
CONTINUOUS
 10
-2.311287
 20
1.745177
  0
SEQEND
  8
0
  0
POLYLINE
  8
0
 62
     1
  6
CONTINUOUS
 66
     1
 40
0.003150
 41
0.003150
  0
VERTEX
  8
0
 62
     1
  6
CONTINUOUS
 10
-2.311287
 20
1.745177
  0
VERTEX
  8
0
 62
     1
  6
CONTINUOUS
 10
-2.336555
 20
1.745177
  0
SEQEND
  8
0
  0
POLYLINE
  8
0
 62
     1
  6
CONTINUOUS
 66
     1
 40
0.003150
 41
0.003150
  0
VERTEX
  8
0
 62
     1
  6
CONTINUOUS
 10
-2.311287
 20
1.728720
  0
VERTEX
  8
0
 62
     1
  6
CONTINUOUS
 10
-2.336555
 20
1.728720
  0
SEQEND
  8
0
  0
POLYLINE
  8
0
 62
     1
  6
CONTINUOUS
 66
     1
 40
0.003150
 41
0.003150
  0
VERTEX
  8
0
 62
     1
  6
CONTINUOUS
 10
-2.336555
 20
1.745177
  0
VERTEX
  8
0
 62
     1
  6
CONTINUOUS
 10
-2.336555
 20
1.770445
  0
SEQEND
  8
0
  0
POLYLINE
  8
0
 62
     1
  6
CONTINUOUS
 66
     1
 40
0.003150
 41
0.003150
  0
VERTEX
  8
0
 62
     1
  6
CONTINUOUS
 10
-2.353012
 20
1.745177
  0
VERTEX
  8
0
 62
     1
  6
CONTINUOUS
 10
-2.353012
 20
1.770445
  0
SEQEND
  8
0
  0
POLYLINE
  8
0
 62
     1
  6
CONTINUOUS
 66
     1
 40
0.003150
 41
0.003150
  0
VERTEX
  8
0
 62
     1
  6
CONTINUOUS
 10
-3.330791
 20
1.745177
  0
VERTEX
  8
0
 62
     1
  6
CONTINUOUS
 10
-3.356059
 20
1.745177
  0
SEQEND
  8
0
  0
POLYLINE
  8
0
 62
     1
  6
CONTINUOUS
 66
     1
 40
0.003150
 41
0.003150
  0
VERTEX
  8
0
 62
     1
  6
CONTINUOUS
 10
-3.330791
 20
1.728720
  0
VERTEX
  8
0
 62
     1
  6
CONTINUOUS
 10
-3.356059
 20
1.728720
  0
SEQEND
  8
0
  0
POLYLINE
  8
0
 62
     1
  6
CONTINUOUS
 66
     1
 40
0.003150
 41
0.003150
  0
VERTEX
  8
0
 62
     1
  6
CONTINUOUS
 10
-3.356059
 20
1.703445
  0
VERTEX
  8
0
 62
     1
  6
CONTINUOUS
 10
-3.356059
 20
1.728720
  0
SEQEND
  8
0
  0
POLYLINE
  8
0
 62
     1
  6
CONTINUOUS
 66
     1
 40
0.003150
 41
0.003150
  0
VERTEX
  8
0
 62
     1
  6
CONTINUOUS
 10
-3.372524
 20
1.703445
  0
VERTEX
  8
0
 62
     1
  6
CONTINUOUS
 10
-3.372524
 20
1.728720
  0
SEQEND
  8
0
  0
POLYLINE
  8
0
 62
     1
  6
CONTINUOUS
 66
     1
 40
0.003150
 41
0.003150
  0
VERTEX
  8
0
 62
     1
  6
CONTINUOUS
 10
-3.356059
 20
1.770445
  0
VERTEX
  8
0
 62
     1
  6
CONTINUOUS
 10
-3.372524
 20
1.770445
  0
SEQEND
  8
0
  0
POLYLINE
  8
0
 62
     1
  6
CONTINUOUS
 66
     1
 40
0.003150
 41
0.003150
  0
VERTEX
  8
0
 62
     1
  6
CONTINUOUS
 10
-3.356059
 20
1.703445
  0
VERTEX
  8
0
 62
     1
  6
CONTINUOUS
 10
-3.372524
 20
1.703445
  0
SEQEND
  8
0
  0
POLYLINE
  8
0
 62
     1
  6
CONTINUOUS
 66
     1
 40
0.003150
 41
0.003150
  0
VERTEX
  8
0
 62
     1
  6
CONTINUOUS
 10
-3.330791
 20
1.728720
  0
VERTEX
  8
0
 62
     1
  6
CONTINUOUS
 10
-3.330791
 20
1.745177
  0
SEQEND
  8
0
  0
POLYLINE
  8
0
 62
     1
  6
CONTINUOUS
 66
     1
 40
0.003150
 41
0.003150
  0
VERTEX
  8
0
 62
     1
  6
CONTINUOUS
 10
-3.397791
 20
1.728720
  0
VERTEX
  8
0
 62
     1
  6
CONTINUOUS
 10
-3.397791
 20
1.745177
  0
SEQEND
  8
0
  0
POLYLINE
  8
0
 62
     1
  6
CONTINUOUS
 66
     1
 40
0.003150
 41
0.003150
  0
VERTEX
  8
0
 62
     1
  6
CONTINUOUS
 10
-3.372524
 20
1.745177
  0
VERTEX
  8
0
 62
     1
  6
CONTINUOUS
 10
-3.397791
 20
1.745177
  0
SEQEND
  8
0
  0
POLYLINE
  8
0
 62
     1
  6
CONTINUOUS
 66
     1
 40
0.003150
 41
0.003150
  0
VERTEX
  8
0
 62
     1
  6
CONTINUOUS
 10
-3.372524
 20
1.728720
  0
VERTEX
  8
0
 62
     1
  6
CONTINUOUS
 10
-3.397791
 20
1.728720
  0
SEQEND
  8
0
  0
POLYLINE
  8
0
 62
     1
  6
CONTINUOUS
 66
     1
 40
0.003150
 41
0.003150
  0
VERTEX
  8
0
 62
     1
  6
CONTINUOUS
 10
-3.372524
 20
1.745177
  0
VERTEX
  8
0
 62
     1
  6
CONTINUOUS
 10
-3.372524
 20
1.770445
  0
SEQEND
  8
0
  0
POLYLINE
  8
0
 62
     1
  6
CONTINUOUS
 66
     1
 40
0.003150
 41
0.003150
  0
VERTEX
  8
0
 62
     1
  6
CONTINUOUS
 10
-3.356059
 20
1.745177
  0
VERTEX
  8
0
 62
     1
  6
CONTINUOUS
 10
-3.356059
 20
1.770445
  0
SEQEND
  8
0
  0
POLYLINE
  8
0
 62
     1
  6
CONTINUOUS
 66
     1
 40
0.003150
 41
0.003150
  0
VERTEX
  8
0
 62
     1
  6
CONTINUOUS
 10
-4.511264
 20
2.905752
  0
VERTEX
  8
0
 62
     1
  6
CONTINUOUS
 10
-4.503720
 20
2.923957
  0
SEQEND
  8
0
  0
POLYLINE
  8
0
 62
     1
  6
CONTINUOUS
 66
     1
 40
0.003150
 41
0.003150
  0
VERTEX
  8
0
 62
     1
  6
CONTINUOUS
 10
-3.946886
 20
2.923957
  0
VERTEX
  8
0
 62
     1
  6
CONTINUOUS
 10
-4.503720
 20
2.923957
  0
SEQEND
  8
0
  0
POLYLINE
  8
0
 62
     1
  6
CONTINUOUS
 66
     1
 40
0.003150
 41
0.003150
  0
VERTEX
  8
0
 62
     1
  6
CONTINUOUS
 10
-4.511264
 20
2.552555
  0
VERTEX
  8
0
 62
     1
  6
CONTINUOUS
 10
-4.511264
 20
2.905752
  0
SEQEND
  8
0
  0
POLYLINE
  8
0
 62
     1
  6
CONTINUOUS
 66
     1
 40
0.003150
 41
0.003150
  0
VERTEX
  8
0
 62
     1
  6
CONTINUOUS
 10
-4.496697
 20
2.552555
  0
VERTEX
  8
0
 62
     1
  6
CONTINUOUS
 10
-4.511264
 20
2.552555
  0
SEQEND
  8
0
  0
POLYLINE
  8
0
 62
     1
  6
CONTINUOUS
 66
     1
 40
0.003150
 41
0.003150
  0
VERTEX
  8
0
 62
     1
  6
CONTINUOUS
 10
-4.496697
 20
2.537996
  0
VERTEX
  8
0
 62
     1
  6
CONTINUOUS
 10
-4.496697
 20
2.552555
  0
SEQEND
  8
0
  0
POLYLINE
  8
0
 62
     1
  6
CONTINUOUS
 66
     1
 40
0.003150
 41
0.003150
  0
VERTEX
  8
0
 62
     1
  6
CONTINUOUS
 10
-3.946886
 20
2.537996
  0
VERTEX
  8
0
 62
     1
  6
CONTINUOUS
 10
-4.496697
 20
2.537996
  0
SEQEND
  8
0
  0
POLYLINE
  8
0
 62
     1
  6
CONTINUOUS
 66
     1
 40
0.003150
 41
0.003150
  0
VERTEX
  8
0
 62
     1
  6
CONTINUOUS
 10
-3.946886
 20
2.552555
  0
VERTEX
  8
0
 62
     1
  6
CONTINUOUS
 10
-4.496697
 20
2.552555
  0
SEQEND
  8
0
  0
POLYLINE
  8
0
 62
     1
  6
CONTINUOUS
 66
     1
 40
0.003150
 41
0.003150
  0
VERTEX
  8
0
 62
     1
  6
CONTINUOUS
 10
-4.503972
 20
1.827965
  0
VERTEX
  8
0
 62
     1
  6
CONTINUOUS
 10
-4.507640
 20
1.826969
  0
VERTEX
  8
0
 62
     1
  6
CONTINUOUS
 10
-4.510252
 20
1.824357
  0
VERTEX
  8
0
 62
     1
  6
CONTINUOUS
 10
-4.511248
 20
1.820689
  0
SEQEND
  8
0
  0
POLYLINE
  8
0
 62
     1
  6
CONTINUOUS
 66
     1
 40
0.003150
 41
0.003150
  0
VERTEX
  8
0
 62
     1
  6
CONTINUOUS
 10
-4.503972
 20
1.827965
  0
VERTEX
  8
0
 62
     1
  6
CONTINUOUS
 10
-4.507640
 20
1.826969
  0
VERTEX
  8
0
 62
     1
  6
CONTINUOUS
 10
-4.510252
 20
1.824357
  0
VERTEX
  8
0
 62
     1
  6
CONTINUOUS
 10
-4.511248
 20
1.820689
  0
SEQEND
  8
0
  0
POLYLINE
  8
0
 62
     1
  6
CONTINUOUS
 66
     1
 40
0.003150
 41
0.003150
  0
VERTEX
  8
0
 62
     1
  6
CONTINUOUS
 10
-4.511248
 20
0.305972
  0
VERTEX
  8
0
 62
     1
  6
CONTINUOUS
 10
-4.510252
 20
0.302305
  0
VERTEX
  8
0
 62
     1
  6
CONTINUOUS
 10
-4.507640
 20
0.299692
  0
VERTEX
  8
0
 62
     1
  6
CONTINUOUS
 10
-4.503972
 20
0.298697
  0
SEQEND
  8
0
  0
POLYLINE
  8
0
 62
     1
  6
CONTINUOUS
 66
     1
 40
0.003150
 41
0.003150
  0
VERTEX
  8
0
 62
     1
  6
CONTINUOUS
 10
-4.511248
 20
0.305972
  0
VERTEX
  8
0
 62
     1
  6
CONTINUOUS
 10
-4.510252
 20
0.302305
  0
VERTEX
  8
0
 62
     1
  6
CONTINUOUS
 10
-4.507640
 20
0.299692
  0
VERTEX
  8
0
 62
     1
  6
CONTINUOUS
 10
-4.503972
 20
0.298697
  0
SEQEND
  8
0
  0
POLYLINE
  8
0
 62
     1
  6
CONTINUOUS
 66
     1
 40
0.003150
 41
0.003150
  0
VERTEX
  8
0
 62
     1
  6
CONTINUOUS
 10
-3.946886
 20
1.827972
  0
VERTEX
  8
0
 62
     1
  6
CONTINUOUS
 10
-4.503980
 20
1.827972
  0
SEQEND
  8
0
  0
POLYLINE
  8
0
 62
     1
  6
CONTINUOUS
 66
     1
 40
0.003150
 41
0.003150
  0
VERTEX
  8
0
 62
     1
  6
CONTINUOUS
 10
-3.946886
 20
1.241744
  0
VERTEX
  8
0
 62
     1
  6
CONTINUOUS
 10
-4.511264
 20
1.241744
  0
SEQEND
  8
0
  0
POLYLINE
  8
0
 62
     1
  6
CONTINUOUS
 66
     1
 40
0.003150
 41
0.003150
  0
VERTEX
  8
0
 62
     1
  6
CONTINUOUS
 10
-3.946886
 20
0.586335
  0
VERTEX
  8
0
 62
     1
  6
CONTINUOUS
 10
-4.511264
 20
0.586335
  0
SEQEND
  8
0
  0
POLYLINE
  8
0
 62
     1
  6
CONTINUOUS
 66
     1
 40
0.003150
 41
0.003150
  0
VERTEX
  8
0
 62
     1
  6
CONTINUOUS
 10
-3.946886
 20
0.298689
  0
VERTEX
  8
0
 62
     1
  6
CONTINUOUS
 10
-4.503980
 20
0.298689
  0
SEQEND
  8
0
  0
POLYLINE
  8
0
 62
     1
  6
CONTINUOUS
 66
     1
 40
0.003150
 41
0.003150
  0
VERTEX
  8
0
 62
     1
  6
CONTINUOUS
 10
-3.946886
 20
0.083854
  0
VERTEX
  8
0
 62
     1
  6
CONTINUOUS
 10
-4.511264
 20
0.083854
  0
SEQEND
  8
0
  0
POLYLINE
  8
0
 62
     1
  6
CONTINUOUS
 66
     1
 40
0.003150
 41
0.003150
  0
VERTEX
  8
0
 62
     1
  6
CONTINUOUS
 10
-4.496697
 20
0.069295
  0
VERTEX
  8
0
 62
     1
  6
CONTINUOUS
 10
-4.496697
 20
0.083854
  0
SEQEND
  8
0
  0
POLYLINE
  8
0
 62
     1
  6
CONTINUOUS
 66
     1
 40
0.003150
 41
0.003150
  0
VERTEX
  8
0
 62
     1
  6
CONTINUOUS
 10
-3.946886
 20
0.069295
  0
VERTEX
  8
0
 62
     1
  6
CONTINUOUS
 10
-4.496697
 20
0.069295
  0
SEQEND
  8
0
  0
POLYLINE
  8
0
 62
     1
  6
CONTINUOUS
 66
     1
 40
0.003150
 41
0.003150
  0
VERTEX
  8
0
 62
     1
  6
CONTINUOUS
 10
-3.946886
 20
0.054728
  0
VERTEX
  8
0
 62
     1
  6
CONTINUOUS
 10
-4.511264
 20
0.054728
  0
SEQEND
  8
0
  0
POLYLINE
  8
0
 62
     1
  6
CONTINUOUS
 66
     1
 40
0.003150
 41
0.003150
  0
VERTEX
  8
0
 62
     1
  6
CONTINUOUS
 10
-3.946886
 20
-0.455020
  0
VERTEX
  8
0
 62
     1
  6
CONTINUOUS
 10
-4.511264
 20
-0.455020
  0
SEQEND
  8
0
  0
POLYLINE
  8
0
 62
     1
  6
CONTINUOUS
 66
     1
 40
0.003150
 41
0.003150
  0
VERTEX
  8
0
 62
     1
  6
CONTINUOUS
 10
-3.946886
 20
-0.462303
  0
VERTEX
  8
0
 62
     1
  6
CONTINUOUS
 10
-4.496697
 20
-0.462303
  0
SEQEND
  8
0
  0
POLYLINE
  8
0
 62
     1
  6
CONTINUOUS
 66
     1
 40
0.003150
 41
0.003150
  0
VERTEX
  8
0
 62
     1
  6
CONTINUOUS
 10
-4.496697
 20
-0.476870
  0
VERTEX
  8
0
 62
     1
  6
CONTINUOUS
 10
-4.496697
 20
-0.462303
  0
SEQEND
  8
0
  0
POLYLINE
  8
0
 62
     1
  6
CONTINUOUS
 66
     1
 40
0.003150
 41
0.003150
  0
VERTEX
  8
0
 62
     1
  6
CONTINUOUS
 10
-4.496697
 20
-0.476870
  0
VERTEX
  8
0
 62
     1
  6
CONTINUOUS
 10
-4.511264
 20
-0.476870
  0
SEQEND
  8
0
  0
POLYLINE
  8
0
 62
     1
  6
CONTINUOUS
 66
     1
 40
0.003150
 41
0.003150
  0
VERTEX
  8
0
 62
     1
  6
CONTINUOUS
 10
-3.946886
 20
-0.476870
  0
VERTEX
  8
0
 62
     1
  6
CONTINUOUS
 10
-4.496697
 20
-0.476870
  0
SEQEND
  8
0
  0
POLYLINE
  8
0
 62
     1
  6
CONTINUOUS
 66
     1
 40
0.003150
 41
0.003150
  0
VERTEX
  8
0
 62
     1
  6
CONTINUOUS
 10
-4.511264
 20
-0.830059
  0
VERTEX
  8
0
 62
     1
  6
CONTINUOUS
 10
-4.511264
 20
-0.476870
  0
SEQEND
  8
0
  0
POLYLINE
  8
0
 62
     1
  6
CONTINUOUS
 66
     1
 40
0.003150
 41
0.003150
  0
VERTEX
  8
0
 62
     1
  6
CONTINUOUS
 10
-4.503720
 20
-0.848272
  0
VERTEX
  8
0
 62
     1
  6
CONTINUOUS
 10
-4.511264
 20
-0.830059
  0
SEQEND
  8
0
  0
POLYLINE
  8
0
 62
     1
  6
CONTINUOUS
 66
     1
 40
0.003150
 41
0.003150
  0
VERTEX
  8
0
 62
     1
  6
CONTINUOUS
 10
-3.946886
 20
-0.848272
  0
VERTEX
  8
0
 62
     1
  6
CONTINUOUS
 10
-4.503720
 20
-0.848272
  0
SEQEND
  8
0
  0
POLYLINE
  8
0
 62
     1
  6
CONTINUOUS
 66
     1
 40
0.003150
 41
0.003150
  0
VERTEX
  8
0
 62
     1
  6
CONTINUOUS
 10
-4.511264
 20
1.820689
  0
VERTEX
  8
0
 62
     1
  6
CONTINUOUS
 10
-4.511264
 20
2.552555
  0
SEQEND
  8
0
  0
POLYLINE
  8
0
 62
     1
  6
CONTINUOUS
 66
     1
 40
0.003150
 41
0.003150
  0
VERTEX
  8
0
 62
     1
  6
CONTINUOUS
 10
-4.511264
 20
0.305972
  0
VERTEX
  8
0
 62
     1
  6
CONTINUOUS
 10
-4.511264
 20
1.820689
  0
SEQEND
  8
0
  0
POLYLINE
  8
0
 62
     1
  6
CONTINUOUS
 66
     1
 40
0.003150
 41
0.003150
  0
VERTEX
  8
0
 62
     1
  6
CONTINUOUS
 10
-4.511264
 20
-0.476870
  0
VERTEX
  8
0
 62
     1
  6
CONTINUOUS
 10
-4.511264
 20
0.305972
  0
SEQEND
  8
0
  0
POLYLINE
  8
0
 62
     1
  6
CONTINUOUS
 66
     1
 40
0.003150
 41
0.003150
  0
VERTEX
  8
0
 62
     1
  6
CONTINUOUS
 10
-3.629374
 20
2.552555
  0
VERTEX
  8
0
 62
     1
  6
CONTINUOUS
 10
-3.629374
 20
2.919429
  0
SEQEND
  8
0
  0
POLYLINE
  8
0
 62
     1
  6
CONTINUOUS
 66
     1
 40
0.003150
 41
0.003150
  0
VERTEX
  8
0
 62
     1
  6
CONTINUOUS
 10
-3.681807
 20
2.552555
  0
VERTEX
  8
0
 62
     1
  6
CONTINUOUS
 10
-3.681807
 20
2.919429
  0
SEQEND
  8
0
  0
POLYLINE
  8
0
 62
     1
  6
CONTINUOUS
 66
     1
 40
0.003150
 41
0.003150
  0
VERTEX
  8
0
 62
     1
  6
CONTINUOUS
 10
-3.734240
 20
2.552555
  0
VERTEX
  8
0
 62
     1
  6
CONTINUOUS
 10
-3.734240
 20
2.919429
  0
SEQEND
  8
0
  0
POLYLINE
  8
0
 62
     1
  6
CONTINUOUS
 66
     1
 40
0.003150
 41
0.003150
  0
VERTEX
  8
0
 62
     1
  6
CONTINUOUS
 10
-3.786673
 20
2.552555
  0
VERTEX
  8
0
 62
     1
  6
CONTINUOUS
 10
-3.786673
 20
2.919429
  0
SEQEND
  8
0
  0
POLYLINE
  8
0
 62
     1
  6
CONTINUOUS
 66
     1
 40
0.003150
 41
0.003150
  0
VERTEX
  8
0
 62
     1
  6
CONTINUOUS
 10
-3.839106
 20
2.552555
  0
VERTEX
  8
0
 62
     1
  6
CONTINUOUS
 10
-3.839106
 20
2.919429
  0
SEQEND
  8
0
  0
POLYLINE
  8
0
 62
     1
  6
CONTINUOUS
 66
     1
 40
0.003150
 41
0.003150
  0
VERTEX
  8
0
 62
     1
  6
CONTINUOUS
 10
-3.629374
 20
0.083854
  0
VERTEX
  8
0
 62
     1
  6
CONTINUOUS
 10
-3.629374
 20
2.537996
  0
SEQEND
  8
0
  0
POLYLINE
  8
0
 62
     1
  6
CONTINUOUS
 66
     1
 40
0.003150
 41
0.003150
  0
VERTEX
  8
0
 62
     1
  6
CONTINUOUS
 10
-3.681807
 20
0.083854
  0
VERTEX
  8
0
 62
     1
  6
CONTINUOUS
 10
-3.681807
 20
2.537996
  0
SEQEND
  8
0
  0
POLYLINE
  8
0
 62
     1
  6
CONTINUOUS
 66
     1
 40
0.003150
 41
0.003150
  0
VERTEX
  8
0
 62
     1
  6
CONTINUOUS
 10
-3.734240
 20
0.083854
  0
VERTEX
  8
0
 62
     1
  6
CONTINUOUS
 10
-3.734240
 20
2.537996
  0
SEQEND
  8
0
  0
POLYLINE
  8
0
 62
     1
  6
CONTINUOUS
 66
     1
 40
0.003150
 41
0.003150
  0
VERTEX
  8
0
 62
     1
  6
CONTINUOUS
 10
-3.786673
 20
0.083854
  0
VERTEX
  8
0
 62
     1
  6
CONTINUOUS
 10
-3.786673
 20
2.537996
  0
SEQEND
  8
0
  0
POLYLINE
  8
0
 62
     1
  6
CONTINUOUS
 66
     1
 40
0.003150
 41
0.003150
  0
VERTEX
  8
0
 62
     1
  6
CONTINUOUS
 10
-3.839106
 20
0.083854
  0
VERTEX
  8
0
 62
     1
  6
CONTINUOUS
 10
-3.839106
 20
2.537996
  0
SEQEND
  8
0
  0
POLYLINE
  8
0
 62
     1
  6
CONTINUOUS
 66
     1
 40
0.003150
 41
0.003150
  0
VERTEX
  8
0
 62
     1
  6
CONTINUOUS
 10
-4.476303
 20
2.552555
  0
VERTEX
  8
0
 62
     1
  6
CONTINUOUS
 10
-4.476303
 20
2.919429
  0
SEQEND
  8
0
  0
POLYLINE
  8
0
 62
     1
  6
CONTINUOUS
 66
     1
 40
0.003150
 41
0.003150
  0
VERTEX
  8
0
 62
     1
  6
CONTINUOUS
 10
-4.423870
 20
2.552555
  0
VERTEX
  8
0
 62
     1
  6
CONTINUOUS
 10
-4.423870
 20
2.919429
  0
SEQEND
  8
0
  0
POLYLINE
  8
0
 62
     1
  6
CONTINUOUS
 66
     1
 40
0.003150
 41
0.003150
  0
VERTEX
  8
0
 62
     1
  6
CONTINUOUS
 10
-4.371437
 20
2.552555
  0
VERTEX
  8
0
 62
     1
  6
CONTINUOUS
 10
-4.371437
 20
2.919429
  0
SEQEND
  8
0
  0
POLYLINE
  8
0
 62
     1
  6
CONTINUOUS
 66
     1
 40
0.003150
 41
0.003150
  0
VERTEX
  8
0
 62
     1
  6
CONTINUOUS
 10
-4.319004
 20
2.552555
  0
VERTEX
  8
0
 62
     1
  6
CONTINUOUS
 10
-4.319004
 20
2.919429
  0
SEQEND
  8
0
  0
POLYLINE
  8
0
 62
     1
  6
CONTINUOUS
 66
     1
 40
0.003150
 41
0.003150
  0
VERTEX
  8
0
 62
     1
  6
CONTINUOUS
 10
-4.266579
 20
2.552555
  0
VERTEX
  8
0
 62
     1
  6
CONTINUOUS
 10
-4.266579
 20
2.919429
  0
SEQEND
  8
0
  0
POLYLINE
  8
0
 62
     1
  6
CONTINUOUS
 66
     1
 40
0.003150
 41
0.003150
  0
VERTEX
  8
0
 62
     1
  6
CONTINUOUS
 10
-4.214146
 20
2.552555
  0
VERTEX
  8
0
 62
     1
  6
CONTINUOUS
 10
-4.214146
 20
2.919429
  0
SEQEND
  8
0
  0
POLYLINE
  8
0
 62
     1
  6
CONTINUOUS
 66
     1
 40
0.003150
 41
0.003150
  0
VERTEX
  8
0
 62
     1
  6
CONTINUOUS
 10
-4.161713
 20
2.552555
  0
VERTEX
  8
0
 62
     1
  6
CONTINUOUS
 10
-4.161713
 20
2.919429
  0
SEQEND
  8
0
  0
POLYLINE
  8
0
 62
     1
  6
CONTINUOUS
 66
     1
 40
0.003150
 41
0.003150
  0
VERTEX
  8
0
 62
     1
  6
CONTINUOUS
 10
-4.109280
 20
2.552555
  0
VERTEX
  8
0
 62
     1
  6
CONTINUOUS
 10
-4.109280
 20
2.919429
  0
SEQEND
  8
0
  0
POLYLINE
  8
0
 62
     1
  6
CONTINUOUS
 66
     1
 40
0.003150
 41
0.003150
  0
VERTEX
  8
0
 62
     1
  6
CONTINUOUS
 10
-4.056846
 20
2.552555
  0
VERTEX
  8
0
 62
     1
  6
CONTINUOUS
 10
-4.056846
 20
2.919429
  0
SEQEND
  8
0
  0
POLYLINE
  8
0
 62
     1
  6
CONTINUOUS
 66
     1
 40
0.003150
 41
0.003150
  0
VERTEX
  8
0
 62
     1
  6
CONTINUOUS
 10
-4.004413
 20
2.552555
  0
VERTEX
  8
0
 62
     1
  6
CONTINUOUS
 10
-4.004413
 20
2.919429
  0
SEQEND
  8
0
  0
POLYLINE
  8
0
 62
     1
  6
CONTINUOUS
 66
     1
 40
0.003150
 41
0.003150
  0
VERTEX
  8
0
 62
     1
  6
CONTINUOUS
 10
-3.951980
 20
2.552555
  0
VERTEX
  8
0
 62
     1
  6
CONTINUOUS
 10
-3.951980
 20
2.919429
  0
SEQEND
  8
0
  0
POLYLINE
  8
0
 62
     1
  6
CONTINUOUS
 66
     1
 40
0.003150
 41
0.003150
  0
VERTEX
  8
0
 62
     1
  6
CONTINUOUS
 10
-4.476303
 20
0.083854
  0
VERTEX
  8
0
 62
     1
  6
CONTINUOUS
 10
-4.476303
 20
2.537996
  0
SEQEND
  8
0
  0
POLYLINE
  8
0
 62
     1
  6
CONTINUOUS
 66
     1
 40
0.003150
 41
0.003150
  0
VERTEX
  8
0
 62
     1
  6
CONTINUOUS
 10
-4.423870
 20
0.083854
  0
VERTEX
  8
0
 62
     1
  6
CONTINUOUS
 10
-4.423870
 20
2.537996
  0
SEQEND
  8
0
  0
POLYLINE
  8
0
 62
     1
  6
CONTINUOUS
 66
     1
 40
0.003150
 41
0.003150
  0
VERTEX
  8
0
 62
     1
  6
CONTINUOUS
 10
-4.371437
 20
0.083854
  0
VERTEX
  8
0
 62
     1
  6
CONTINUOUS
 10
-4.371437
 20
2.537996
  0
SEQEND
  8
0
  0
POLYLINE
  8
0
 62
     1
  6
CONTINUOUS
 66
     1
 40
0.003150
 41
0.003150
  0
VERTEX
  8
0
 62
     1
  6
CONTINUOUS
 10
-4.319004
 20
0.083854
  0
VERTEX
  8
0
 62
     1
  6
CONTINUOUS
 10
-4.319004
 20
2.537996
  0
SEQEND
  8
0
  0
POLYLINE
  8
0
 62
     1
  6
CONTINUOUS
 66
     1
 40
0.003150
 41
0.003150
  0
VERTEX
  8
0
 62
     1
  6
CONTINUOUS
 10
-4.266579
 20
0.083854
  0
VERTEX
  8
0
 62
     1
  6
CONTINUOUS
 10
-4.266579
 20
2.537996
  0
SEQEND
  8
0
  0
POLYLINE
  8
0
 62
     1
  6
CONTINUOUS
 66
     1
 40
0.003150
 41
0.003150
  0
VERTEX
  8
0
 62
     1
  6
CONTINUOUS
 10
-4.476303
 20
-0.455020
  0
VERTEX
  8
0
 62
     1
  6
CONTINUOUS
 10
-4.476303
 20
0.054728
  0
SEQEND
  8
0
  0
POLYLINE
  8
0
 62
     1
  6
CONTINUOUS
 66
     1
 40
0.003150
 41
0.003150
  0
VERTEX
  8
0
 62
     1
  6
CONTINUOUS
 10
-4.423870
 20
-0.455020
  0
VERTEX
  8
0
 62
     1
  6
CONTINUOUS
 10
-4.423870
 20
0.054728
  0
SEQEND
  8
0
  0
POLYLINE
  8
0
 62
     1
  6
CONTINUOUS
 66
     1
 40
0.003150
 41
0.003150
  0
VERTEX
  8
0
 62
     1
  6
CONTINUOUS
 10
-4.371437
 20
-0.455020
  0
VERTEX
  8
0
 62
     1
  6
CONTINUOUS
 10
-4.371437
 20
0.054728
  0
SEQEND
  8
0
  0
POLYLINE
  8
0
 62
     1
  6
CONTINUOUS
 66
     1
 40
0.003150
 41
0.003150
  0
VERTEX
  8
0
 62
     1
  6
CONTINUOUS
 10
-4.319004
 20
-0.455020
  0
VERTEX
  8
0
 62
     1
  6
CONTINUOUS
 10
-4.319004
 20
0.054728
  0
SEQEND
  8
0
  0
POLYLINE
  8
0
 62
     1
  6
CONTINUOUS
 66
     1
 40
0.003150
 41
0.003150
  0
VERTEX
  8
0
 62
     1
  6
CONTINUOUS
 10
-4.266579
 20
-0.455020
  0
VERTEX
  8
0
 62
     1
  6
CONTINUOUS
 10
-4.266579
 20
0.054728
  0
SEQEND
  8
0
  0
POLYLINE
  8
0
 62
     1
  6
CONTINUOUS
 66
     1
 40
0.003150
 41
0.003150
  0
VERTEX
  8
0
 62
     1
  6
CONTINUOUS
 10
-4.476303
 20
-0.843744
  0
VERTEX
  8
0
 62
     1
  6
CONTINUOUS
 10
-4.476303
 20
-0.476870
  0
SEQEND
  8
0
  0
POLYLINE
  8
0
 62
     1
  6
CONTINUOUS
 66
     1
 40
0.003150
 41
0.003150
  0
VERTEX
  8
0
 62
     1
  6
CONTINUOUS
 10
-4.423870
 20
-0.843744
  0
VERTEX
  8
0
 62
     1
  6
CONTINUOUS
 10
-4.423870
 20
-0.476870
  0
SEQEND
  8
0
  0
POLYLINE
  8
0
 62
     1
  6
CONTINUOUS
 66
     1
 40
0.003150
 41
0.003150
  0
VERTEX
  8
0
 62
     1
  6
CONTINUOUS
 10
-4.371437
 20
-0.843744
  0
VERTEX
  8
0
 62
     1
  6
CONTINUOUS
 10
-4.371437
 20
-0.476870
  0
SEQEND
  8
0
  0
POLYLINE
  8
0
 62
     1
  6
CONTINUOUS
 66
     1
 40
0.003150
 41
0.003150
  0
VERTEX
  8
0
 62
     1
  6
CONTINUOUS
 10
-4.319004
 20
-0.843744
  0
VERTEX
  8
0
 62
     1
  6
CONTINUOUS
 10
-4.319004
 20
-0.476870
  0
SEQEND
  8
0
  0
POLYLINE
  8
0
 62
     1
  6
CONTINUOUS
 66
     1
 40
0.003150
 41
0.003150
  0
VERTEX
  8
0
 62
     1
  6
CONTINUOUS
 10
-4.266579
 20
-0.843744
  0
VERTEX
  8
0
 62
     1
  6
CONTINUOUS
 10
-4.266579
 20
-0.476870
  0
SEQEND
  8
0
  0
POLYLINE
  8
0
 62
     1
  6
CONTINUOUS
 66
     1
 40
0.003150
 41
0.003150
  0
VERTEX
  8
0
 62
     1
  6
CONTINUOUS
 10
-4.214146
 20
-0.843744
  0
VERTEX
  8
0
 62
     1
  6
CONTINUOUS
 10
-4.214146
 20
-0.476870
  0
SEQEND
  8
0
  0
POLYLINE
  8
0
 62
     1
  6
CONTINUOUS
 66
     1
 40
0.003150
 41
0.003150
  0
VERTEX
  8
0
 62
     1
  6
CONTINUOUS
 10
-4.161713
 20
-0.843744
  0
VERTEX
  8
0
 62
     1
  6
CONTINUOUS
 10
-4.161713
 20
-0.476870
  0
SEQEND
  8
0
  0
POLYLINE
  8
0
 62
     1
  6
CONTINUOUS
 66
     1
 40
0.003150
 41
0.003150
  0
VERTEX
  8
0
 62
     1
  6
CONTINUOUS
 10
-4.109280
 20
-0.843744
  0
VERTEX
  8
0
 62
     1
  6
CONTINUOUS
 10
-4.109280
 20
-0.476870
  0
SEQEND
  8
0
  0
POLYLINE
  8
0
 62
     1
  6
CONTINUOUS
 66
     1
 40
0.003150
 41
0.003150
  0
VERTEX
  8
0
 62
     1
  6
CONTINUOUS
 10
-4.056846
 20
-0.843744
  0
VERTEX
  8
0
 62
     1
  6
CONTINUOUS
 10
-4.056846
 20
-0.476870
  0
SEQEND
  8
0
  0
POLYLINE
  8
0
 62
     1
  6
CONTINUOUS
 66
     1
 40
0.003150
 41
0.003150
  0
VERTEX
  8
0
 62
     1
  6
CONTINUOUS
 10
-4.004413
 20
-0.843744
  0
VERTEX
  8
0
 62
     1
  6
CONTINUOUS
 10
-4.004413
 20
-0.476870
  0
SEQEND
  8
0
  0
POLYLINE
  8
0
 62
     1
  6
CONTINUOUS
 66
     1
 40
0.003150
 41
0.003150
  0
VERTEX
  8
0
 62
     1
  6
CONTINUOUS
 10
-3.951980
 20
-0.843744
  0
VERTEX
  8
0
 62
     1
  6
CONTINUOUS
 10
-3.951980
 20
-0.476870
  0
SEQEND
  8
0
  0
POLYLINE
  8
0
 62
     1
  6
CONTINUOUS
 66
     1
 40
0.003150
 41
0.003150
  0
VERTEX
  8
0
 62
     1
  6
CONTINUOUS
 10
-4.214146
 20
0.083854
  0
VERTEX
  8
0
 62
     1
  6
CONTINUOUS
 10
-4.214146
 20
2.537996
  0
SEQEND
  8
0
  0
POLYLINE
  8
0
 62
     1
  6
CONTINUOUS
 66
     1
 40
0.003150
 41
0.003150
  0
VERTEX
  8
0
 62
     1
  6
CONTINUOUS
 10
-4.161713
 20
0.083854
  0
VERTEX
  8
0
 62
     1
  6
CONTINUOUS
 10
-4.161713
 20
2.537996
  0
SEQEND
  8
0
  0
POLYLINE
  8
0
 62
     1
  6
CONTINUOUS
 66
     1
 40
0.003150
 41
0.003150
  0
VERTEX
  8
0
 62
     1
  6
CONTINUOUS
 10
-4.109280
 20
0.083854
  0
VERTEX
  8
0
 62
     1
  6
CONTINUOUS
 10
-4.109280
 20
2.537996
  0
SEQEND
  8
0
  0
POLYLINE
  8
0
 62
     1
  6
CONTINUOUS
 66
     1
 40
0.003150
 41
0.003150
  0
VERTEX
  8
0
 62
     1
  6
CONTINUOUS
 10
-4.056846
 20
0.083854
  0
VERTEX
  8
0
 62
     1
  6
CONTINUOUS
 10
-4.056846
 20
2.537996
  0
SEQEND
  8
0
  0
POLYLINE
  8
0
 62
     1
  6
CONTINUOUS
 66
     1
 40
0.003150
 41
0.003150
  0
VERTEX
  8
0
 62
     1
  6
CONTINUOUS
 10
-4.004413
 20
0.083854
  0
VERTEX
  8
0
 62
     1
  6
CONTINUOUS
 10
-4.004413
 20
2.537996
  0
SEQEND
  8
0
  0
POLYLINE
  8
0
 62
     1
  6
CONTINUOUS
 66
     1
 40
0.003150
 41
0.003150
  0
VERTEX
  8
0
 62
     1
  6
CONTINUOUS
 10
-3.951980
 20
0.083854
  0
VERTEX
  8
0
 62
     1
  6
CONTINUOUS
 10
-3.951980
 20
2.537996
  0
SEQEND
  8
0
  0
POLYLINE
  8
0
 62
     1
  6
CONTINUOUS
 66
     1
 40
0.003150
 41
0.003150
  0
VERTEX
  8
0
 62
     1
  6
CONTINUOUS
 10
-4.214146
 20
-0.455020
  0
VERTEX
  8
0
 62
     1
  6
CONTINUOUS
 10
-4.214146
 20
0.054728
  0
SEQEND
  8
0
  0
POLYLINE
  8
0
 62
     1
  6
CONTINUOUS
 66
     1
 40
0.003150
 41
0.003150
  0
VERTEX
  8
0
 62
     1
  6
CONTINUOUS
 10
-4.161713
 20
-0.455020
  0
VERTEX
  8
0
 62
     1
  6
CONTINUOUS
 10
-4.161713
 20
0.054728
  0
SEQEND
  8
0
  0
POLYLINE
  8
0
 62
     1
  6
CONTINUOUS
 66
     1
 40
0.003150
 41
0.003150
  0
VERTEX
  8
0
 62
     1
  6
CONTINUOUS
 10
-4.109280
 20
-0.455020
  0
VERTEX
  8
0
 62
     1
  6
CONTINUOUS
 10
-4.109280
 20
0.054728
  0
SEQEND
  8
0
  0
POLYLINE
  8
0
 62
     1
  6
CONTINUOUS
 66
     1
 40
0.003150
 41
0.003150
  0
VERTEX
  8
0
 62
     1
  6
CONTINUOUS
 10
-4.056846
 20
-0.455020
  0
VERTEX
  8
0
 62
     1
  6
CONTINUOUS
 10
-4.056846
 20
0.054728
  0
SEQEND
  8
0
  0
POLYLINE
  8
0
 62
     1
  6
CONTINUOUS
 66
     1
 40
0.003150
 41
0.003150
  0
VERTEX
  8
0
 62
     1
  6
CONTINUOUS
 10
-4.004413
 20
-0.455020
  0
VERTEX
  8
0
 62
     1
  6
CONTINUOUS
 10
-4.004413
 20
0.054728
  0
SEQEND
  8
0
  0
POLYLINE
  8
0
 62
     1
  6
CONTINUOUS
 66
     1
 40
0.003150
 41
0.003150
  0
VERTEX
  8
0
 62
     1
  6
CONTINUOUS
 10
-3.951980
 20
-0.455020
  0
VERTEX
  8
0
 62
     1
  6
CONTINUOUS
 10
-3.951980
 20
0.054728
  0
SEQEND
  8
0
  0
POLYLINE
  8
0
 62
     1
  6
CONTINUOUS
 66
     1
 40
0.003150
 41
0.003150
  0
VERTEX
  8
0
 62
     1
  6
CONTINUOUS
 10
-1.871421
 20
2.872980
  0
VERTEX
  8
0
 62
     1
  6
CONTINUOUS
 10
-1.873415
 20
2.880317
  0
VERTEX
  8
0
 62
     1
  6
CONTINUOUS
 10
-1.878643
 20
2.885546
  0
VERTEX
  8
0
 62
     1
  6
CONTINUOUS
 10
-1.885980
 20
2.887539
  0
SEQEND
  8
0
  0
POLYLINE
  8
0
 62
     1
  6
CONTINUOUS
 66
     1
 40
0.003150
 41
0.003150
  0
VERTEX
  8
0
 62
     1
  6
CONTINUOUS
 10
-1.871421
 20
2.872980
  0
VERTEX
  8
0
 62
     1
  6
CONTINUOUS
 10
-1.873415
 20
2.880317
  0
VERTEX
  8
0
 62
     1
  6
CONTINUOUS
 10
-1.878643
 20
2.885546
  0
VERTEX
  8
0
 62
     1
  6
CONTINUOUS
 10
-1.885980
 20
2.887539
  0
SEQEND
  8
0
  0
POLYLINE
  8
0
 62
     1
  6
CONTINUOUS
 66
     1
 40
0.003150
 41
0.003150
  0
VERTEX
  8
0
 62
     1
  6
CONTINUOUS
 10
-2.217335
 20
2.698201
  0
VERTEX
  8
0
 62
     1
  6
CONTINUOUS
 10
-2.271946
 20
2.675466
  0
VERTEX
  8
0
 62
     1
  6
CONTINUOUS
 10
-2.290150
 20
2.625386
  0
VERTEX
  8
0
 62
     1
  6
CONTINUOUS
 10
-2.271946
 20
2.575306
  0
VERTEX
  8
0
 62
     1
  6
CONTINUOUS
 10
-2.217335
 20
2.552571
  0
VERTEX
  8
0
 62
     1
  6
CONTINUOUS
 10
-2.162726
 20
2.575297
  0
VERTEX
  8
0
 62
     1
  6
CONTINUOUS
 10
-2.144519
 20
2.625373
  0
VERTEX
  8
0
 62
     1
  6
CONTINUOUS
 10
-2.162718
 20
2.675454
  0
VERTEX
  8
0
 62
     1
  6
CONTINUOUS
 10
-2.217327
 20
2.698193
  0
VERTEX
  8
0
 62
     1
  6
CONTINUOUS
 10
-2.217329
 20
2.698195
  0
VERTEX
  8
0
 62
     1
  6
CONTINUOUS
 10
-2.217333
 20
2.698199
  0
VERTEX
  8
0
 62
     1
  6
CONTINUOUS
 10
-2.217335
 20
2.698201
  0
SEQEND
  8
0
  0
POLYLINE
  8
0
 62
     1
  6
CONTINUOUS
 66
     1
 40
0.003150
 41
0.003150
  0
VERTEX
  8
0
 62
     1
  6
CONTINUOUS
 10
-2.535933
 20
2.421476
  0
VERTEX
  8
0
 62
     1
  6
CONTINUOUS
 10
-2.535933
 20
2.959720
  0
SEQEND
  8
0
  0
POLYLINE
  8
0
 62
     1
  6
CONTINUOUS
 66
     1
 40
0.003150
 41
0.003150
  0
VERTEX
  8
0
 62
     1
  6
CONTINUOUS
 10
-1.762248
 20
2.421476
  0
VERTEX
  8
0
 62
     1
  6
CONTINUOUS
 10
-2.535933
 20
2.421476
  0
SEQEND
  8
0
  0
POLYLINE
  8
0
 62
     1
  6
CONTINUOUS
 66
     1
 40
0.003150
 41
0.003150
  0
VERTEX
  8
0
 62
     1
  6
CONTINUOUS
 10
-1.885988
 20
2.887547
  0
VERTEX
  8
0
 62
     1
  6
CONTINUOUS
 10
-1.991587
 20
2.887547
  0
SEQEND
  8
0
  0
POLYLINE
  8
0
 62
     1
  6
CONTINUOUS
 66
     1
 40
0.003150
 41
0.003150
  0
VERTEX
  8
0
 62
     1
  6
CONTINUOUS
 10
-1.835012
 20
2.846760
  0
VERTEX
  8
0
 62
     1
  6
CONTINUOUS
 10
-1.871429
 20
2.846760
  0
SEQEND
  8
0
  0
POLYLINE
  8
0
 62
     1
  6
CONTINUOUS
 66
     1
 40
0.003150
 41
0.003150
  0
VERTEX
  8
0
 62
     1
  6
CONTINUOUS
 10
-1.871429
 20
2.846760
  0
VERTEX
  8
0
 62
     1
  6
CONTINUOUS
 10
-1.871429
 20
2.872980
  0
SEQEND
  8
0
  0
POLYLINE
  8
0
 62
     1
  6
CONTINUOUS
 66
     1
 40
0.003150
 41
0.003150
  0
VERTEX
  8
0
 62
     1
  6
CONTINUOUS
 10
-2.217335
 20
2.377106
  0
VERTEX
  8
0
 62
     1
  6
CONTINUOUS
 10
-2.217335
 20
2.957547
  0
SEQEND
  8
0
  0
POLYLINE
  8
0
 62
     1
  6
CONTINUOUS
 66
     1
 40
0.003150
 41
0.003150
  0
VERTEX
  8
0
 62
     1
  6
CONTINUOUS
 10
-1.926004
 20
2.625382
  0
VERTEX
  8
0
 62
     1
  6
CONTINUOUS
 10
-2.477791
 20
2.625382
  0
SEQEND
  8
0
  0
POLYLINE
  8
0
 62
     1
  6
CONTINUOUS
 66
     1
 40
0.003150
 41
0.003150
  0
VERTEX
  8
0
 62
     1
  6
CONTINUOUS
 10
-1.991587
 20
2.450602
  0
VERTEX
  8
0
 62
     1
  6
CONTINUOUS
 10
-2.443091
 20
2.450602
  0
SEQEND
  8
0
  0
POLYLINE
  8
0
 62
     1
  6
CONTINUOUS
 66
     1
 40
0.003150
 41
0.003150
  0
VERTEX
  8
0
 62
     1
  6
CONTINUOUS
 10
-1.991587
 20
2.450602
  0
VERTEX
  8
0
 62
     1
  6
CONTINUOUS
 10
-1.991587
 20
2.887547
  0
SEQEND
  8
0
  0
POLYLINE
  8
0
 62
     1
  6
CONTINUOUS
 66
     1
 40
0.003150
 41
0.003150
  0
VERTEX
  8
0
 62
     1
  6
CONTINUOUS
 10
-2.443091
 20
2.450602
  0
VERTEX
  8
0
 62
     1
  6
CONTINUOUS
 10
-2.443091
 20
2.887547
  0
SEQEND
  8
0
  0
POLYLINE
  8
0
 62
     1
  6
CONTINUOUS
 66
     1
 40
0.003150
 41
0.003150
  0
VERTEX
  8
0
 62
     1
  6
CONTINUOUS
 10
-2.443091
 20
2.887547
  0
VERTEX
  8
0
 62
     1
  6
CONTINUOUS
 10
-2.535933
 20
2.887547
  0
SEQEND
  8
0
  0
POLYLINE
  8
0
 62
     1
  6
CONTINUOUS
 66
     1
 40
0.003150
 41
0.003150
  0
VERTEX
  8
0
 62
     1
  6
CONTINUOUS
 10
-2.075335
 20
2.767382
  0
VERTEX
  8
0
 62
     1
  6
CONTINUOUS
 10
-2.089894
 20
2.767382
  0
SEQEND
  8
0
  0
POLYLINE
  8
0
 62
     1
  6
CONTINUOUS
 66
     1
 40
0.003150
 41
0.003150
  0
VERTEX
  8
0
 62
     1
  6
CONTINUOUS
 10
-2.075335
 20
2.483374
  0
VERTEX
  8
0
 62
     1
  6
CONTINUOUS
 10
-2.089894
 20
2.483374
  0
SEQEND
  8
0
  0
POLYLINE
  8
0
 62
     1
  6
CONTINUOUS
 66
     1
 40
0.003150
 41
0.003150
  0
VERTEX
  8
0
 62
     1
  6
CONTINUOUS
 10
-2.089894
 20
2.483374
  0
VERTEX
  8
0
 62
     1
  6
CONTINUOUS
 10
-2.089894
 20
2.767382
  0
SEQEND
  8
0
  0
POLYLINE
  8
0
 62
     1
  6
CONTINUOUS
 66
     1
 40
0.003150
 41
0.003150
  0
VERTEX
  8
0
 62
     1
  6
CONTINUOUS
 10
-2.344776
 20
2.483374
  0
VERTEX
  8
0
 62
     1
  6
CONTINUOUS
 10
-2.344776
 20
2.767382
  0
SEQEND
  8
0
  0
POLYLINE
  8
0
 62
     1
  6
CONTINUOUS
 66
     1
 40
0.003150
 41
0.003150
  0
VERTEX
  8
0
 62
     1
  6
CONTINUOUS
 10
-2.075335
 20
2.829287
  0
VERTEX
  8
0
 62
     1
  6
CONTINUOUS
 10
-2.359343
 20
2.829287
  0
SEQEND
  8
0
  0
POLYLINE
  8
0
 62
     1
  6
CONTINUOUS
 66
     1
 40
0.003150
 41
0.003150
  0
VERTEX
  8
0
 62
     1
  6
CONTINUOUS
 10
-2.075335
 20
2.450602
  0
VERTEX
  8
0
 62
     1
  6
CONTINUOUS
 10
-2.075335
 20
2.483374
  0
SEQEND
  8
0
  0
POLYLINE
  8
0
 62
     1
  6
CONTINUOUS
 66
     1
 40
0.003150
 41
0.003150
  0
VERTEX
  8
0
 62
     1
  6
CONTINUOUS
 10
-2.075335
 20
2.767382
  0
VERTEX
  8
0
 62
     1
  6
CONTINUOUS
 10
-2.075335
 20
2.829287
  0
SEQEND
  8
0
  0
POLYLINE
  8
0
 62
     1
  6
CONTINUOUS
 66
     1
 40
0.003150
 41
0.003150
  0
VERTEX
  8
0
 62
     1
  6
CONTINUOUS
 10
-2.359343
 20
2.767382
  0
VERTEX
  8
0
 62
     1
  6
CONTINUOUS
 10
-2.359343
 20
2.829287
  0
SEQEND
  8
0
  0
POLYLINE
  8
0
 62
     1
  6
CONTINUOUS
 66
     1
 40
0.003150
 41
0.003150
  0
VERTEX
  8
0
 62
     1
  6
CONTINUOUS
 10
-2.359343
 20
2.450602
  0
VERTEX
  8
0
 62
     1
  6
CONTINUOUS
 10
-2.359343
 20
2.483374
  0
SEQEND
  8
0
  0
POLYLINE
  8
0
 62
     1
  6
CONTINUOUS
 66
     1
 40
0.003150
 41
0.003150
  0
VERTEX
  8
0
 62
     1
  6
CONTINUOUS
 10
-2.344776
 20
2.767382
  0
VERTEX
  8
0
 62
     1
  6
CONTINUOUS
 10
-2.359343
 20
2.767382
  0
SEQEND
  8
0
  0
POLYLINE
  8
0
 62
     1
  6
CONTINUOUS
 66
     1
 40
0.003150
 41
0.003150
  0
VERTEX
  8
0
 62
     1
  6
CONTINUOUS
 10
-2.344776
 20
2.483374
  0
VERTEX
  8
0
 62
     1
  6
CONTINUOUS
 10
-2.359343
 20
2.483374
  0
SEQEND
  8
0
  0
POLYLINE
  8
0
 62
     1
  6
CONTINUOUS
 66
     1
 40
0.003150
 41
0.003150
  0
VERTEX
  8
0
 62
     1
  6
CONTINUOUS
 10
-2.535933
 20
2.475508
  0
VERTEX
  8
0
 62
     1
  6
CONTINUOUS
 10
-2.481902
 20
2.421476
  0
SEQEND
  8
0
  0
POLYLINE
  8
0
 62
     1
  6
CONTINUOUS
 66
     1
 40
0.003150
 41
0.003150
  0
VERTEX
  8
0
 62
     1
  6
CONTINUOUS
 10
-2.535933
 20
2.537303
  0
VERTEX
  8
0
 62
     1
  6
CONTINUOUS
 10
-2.420114
 20
2.421476
  0
SEQEND
  8
0
  0
POLYLINE
  8
0
 62
     1
  6
CONTINUOUS
 66
     1
 40
0.003150
 41
0.003150
  0
VERTEX
  8
0
 62
     1
  6
CONTINUOUS
 10
-2.418343
 20
2.450602
  0
VERTEX
  8
0
 62
     1
  6
CONTINUOUS
 10
-2.389217
 20
2.421476
  0
SEQEND
  8
0
  0
POLYLINE
  8
0
 62
     1
  6
CONTINUOUS
 66
     1
 40
0.003150
 41
0.003150
  0
VERTEX
  8
0
 62
     1
  6
CONTINUOUS
 10
-2.387445
 20
2.450602
  0
VERTEX
  8
0
 62
     1
  6
CONTINUOUS
 10
-2.358319
 20
2.421476
  0
SEQEND
  8
0
  0
POLYLINE
  8
0
 62
     1
  6
CONTINUOUS
 66
     1
 40
0.003150
 41
0.003150
  0
VERTEX
  8
0
 62
     1
  6
CONTINUOUS
 10
-2.356555
 20
2.450602
  0
VERTEX
  8
0
 62
     1
  6
CONTINUOUS
 10
-2.327421
 20
2.421476
  0
SEQEND
  8
0
  0
POLYLINE
  8
0
 62
     1
  6
CONTINUOUS
 66
     1
 40
0.003150
 41
0.003150
  0
VERTEX
  8
0
 62
     1
  6
CONTINUOUS
 10
-2.325657
 20
2.450602
  0
VERTEX
  8
0
 62
     1
  6
CONTINUOUS
 10
-2.296524
 20
2.421476
  0
SEQEND
  8
0
  0
POLYLINE
  8
0
 62
     1
  6
CONTINUOUS
 66
     1
 40
0.003150
 41
0.003150
  0
VERTEX
  8
0
 62
     1
  6
CONTINUOUS
 10
-2.294760
 20
2.450602
  0
VERTEX
  8
0
 62
     1
  6
CONTINUOUS
 10
-2.265634
 20
2.421476
  0
SEQEND
  8
0
  0
POLYLINE
  8
0
 62
     1
  6
CONTINUOUS
 66
     1
 40
0.003150
 41
0.003150
  0
VERTEX
  8
0
 62
     1
  6
CONTINUOUS
 10
-2.263862
 20
2.450602
  0
VERTEX
  8
0
 62
     1
  6
CONTINUOUS
 10
-2.234736
 20
2.421476
  0
SEQEND
  8
0
  0
POLYLINE
  8
0
 62
     1
  6
CONTINUOUS
 66
     1
 40
0.003150
 41
0.003150
  0
VERTEX
  8
0
 62
     1
  6
CONTINUOUS
 10
-2.232965
 20
2.450602
  0
VERTEX
  8
0
 62
     1
  6
CONTINUOUS
 10
-2.203839
 20
2.421476
  0
SEQEND
  8
0
  0
POLYLINE
  8
0
 62
     1
  6
CONTINUOUS
 66
     1
 40
0.003150
 41
0.003150
  0
VERTEX
  8
0
 62
     1
  6
CONTINUOUS
 10
-2.202075
 20
2.450602
  0
VERTEX
  8
0
 62
     1
  6
CONTINUOUS
 10
-2.172941
 20
2.421476
  0
SEQEND
  8
0
  0
POLYLINE
  8
0
 62
     1
  6
CONTINUOUS
 66
     1
 40
0.003150
 41
0.003150
  0
VERTEX
  8
0
 62
     1
  6
CONTINUOUS
 10
-2.171177
 20
2.450602
  0
VERTEX
  8
0
 62
     1
  6
CONTINUOUS
 10
-2.142043
 20
2.421476
  0
SEQEND
  8
0
  0
POLYLINE
  8
0
 62
     1
  6
CONTINUOUS
 66
     1
 40
0.003150
 41
0.003150
  0
VERTEX
  8
0
 62
     1
  6
CONTINUOUS
 10
-2.140280
 20
2.450602
  0
VERTEX
  8
0
 62
     1
  6
CONTINUOUS
 10
-2.111154
 20
2.421476
  0
SEQEND
  8
0
  0
POLYLINE
  8
0
 62
     1
  6
CONTINUOUS
 66
     1
 40
0.003150
 41
0.003150
  0
VERTEX
  8
0
 62
     1
  6
CONTINUOUS
 10
-2.109382
 20
2.450602
  0
VERTEX
  8
0
 62
     1
  6
CONTINUOUS
 10
-2.080256
 20
2.421476
  0
SEQEND
  8
0
  0
POLYLINE
  8
0
 62
     1
  6
CONTINUOUS
 66
     1
 40
0.003150
 41
0.003150
  0
VERTEX
  8
0
 62
     1
  6
CONTINUOUS
 10
-2.078484
 20
2.450602
  0
VERTEX
  8
0
 62
     1
  6
CONTINUOUS
 10
-2.049358
 20
2.421476
  0
SEQEND
  8
0
  0
POLYLINE
  8
0
 62
     1
  6
CONTINUOUS
 66
     1
 40
0.003150
 41
0.003150
  0
VERTEX
  8
0
 62
     1
  6
CONTINUOUS
 10
-2.047594
 20
2.450602
  0
VERTEX
  8
0
 62
     1
  6
CONTINUOUS
 10
-2.018461
 20
2.421476
  0
SEQEND
  8
0
  0
POLYLINE
  8
0
 62
     1
  6
CONTINUOUS
 66
     1
 40
0.003150
 41
0.003150
  0
VERTEX
  8
0
 62
     1
  6
CONTINUOUS
 10
-2.016697
 20
2.450602
  0
VERTEX
  8
0
 62
     1
  6
CONTINUOUS
 10
-1.987563
 20
2.421476
  0
SEQEND
  8
0
  0
POLYLINE
  8
0
 62
     1
  6
CONTINUOUS
 66
     1
 40
0.003150
 41
0.003150
  0
VERTEX
  8
0
 62
     1
  6
CONTINUOUS
 10
-1.991587
 20
2.487287
  0
VERTEX
  8
0
 62
     1
  6
CONTINUOUS
 10
-1.925776
 20
2.421476
  0
SEQEND
  8
0
  0
POLYLINE
  8
0
 62
     1
  6
CONTINUOUS
 66
     1
 40
0.003150
 41
0.003150
  0
VERTEX
  8
0
 62
     1
  6
CONTINUOUS
 10
-1.991587
 20
2.549083
  0
VERTEX
  8
0
 62
     1
  6
CONTINUOUS
 10
-1.863980
 20
2.421476
  0
SEQEND
  8
0
  0
POLYLINE
  8
0
 62
     1
  6
CONTINUOUS
 66
     1
 40
0.003150
 41
0.003150
  0
VERTEX
  8
0
 62
     1
  6
CONTINUOUS
 10
-1.991587
 20
2.610870
  0
VERTEX
  8
0
 62
     1
  6
CONTINUOUS
 10
-1.835012
 20
2.454303
  0
SEQEND
  8
0
  0
POLYLINE
  8
0
 62
     1
  6
CONTINUOUS
 66
     1
 40
0.003150
 41
0.003150
  0
VERTEX
  8
0
 62
     1
  6
CONTINUOUS
 10
-1.991587
 20
2.672665
  0
VERTEX
  8
0
 62
     1
  6
CONTINUOUS
 10
-1.835012
 20
2.516098
  0
SEQEND
  8
0
  0
POLYLINE
  8
0
 62
     1
  6
CONTINUOUS
 66
     1
 40
0.003150
 41
0.003150
  0
VERTEX
  8
0
 62
     1
  6
CONTINUOUS
 10
-1.991587
 20
2.734461
  0
VERTEX
  8
0
 62
     1
  6
CONTINUOUS
 10
-1.835012
 20
2.577886
  0
SEQEND
  8
0
  0
POLYLINE
  8
0
 62
     1
  6
CONTINUOUS
 66
     1
 40
0.003150
 41
0.003150
  0
VERTEX
  8
0
 62
     1
  6
CONTINUOUS
 10
-1.991587
 20
2.796248
  0
VERTEX
  8
0
 62
     1
  6
CONTINUOUS
 10
-1.835012
 20
2.639681
  0
SEQEND
  8
0
  0
POLYLINE
  8
0
 62
     1
  6
CONTINUOUS
 66
     1
 40
0.003150
 41
0.003150
  0
VERTEX
  8
0
 62
     1
  6
CONTINUOUS
 10
-1.991587
 20
2.858043
  0
VERTEX
  8
0
 62
     1
  6
CONTINUOUS
 10
-1.835012
 20
2.701476
  0
SEQEND
  8
0
  0
POLYLINE
  8
0
 62
     1
  6
CONTINUOUS
 66
     1
 40
0.003150
 41
0.003150
  0
VERTEX
  8
0
 62
     1
  6
CONTINUOUS
 10
-1.959295
 20
2.887547
  0
VERTEX
  8
0
 62
     1
  6
CONTINUOUS
 10
-1.835012
 20
2.763264
  0
SEQEND
  8
0
  0
POLYLINE
  8
0
 62
     1
  6
CONTINUOUS
 66
     1
 40
0.003150
 41
0.003150
  0
VERTEX
  8
0
 62
     1
  6
CONTINUOUS
 10
-1.897500
 20
2.887547
  0
VERTEX
  8
0
 62
     1
  6
CONTINUOUS
 10
-1.871429
 20
2.861469
  0
SEQEND
  8
0
  0
POLYLINE
  8
0
 62
     1
  6
CONTINUOUS
 66
     1
 40
0.003150
 41
0.003150
  0
VERTEX
  8
0
 62
     1
  6
CONTINUOUS
 10
-1.885980
 20
-0.811846
  0
VERTEX
  8
0
 62
     1
  6
CONTINUOUS
 10
-1.878643
 20
-0.809853
  0
VERTEX
  8
0
 62
     1
  6
CONTINUOUS
 10
-1.873415
 20
-0.804625
  0
VERTEX
  8
0
 62
     1
  6
CONTINUOUS
 10
-1.871421
 20
-0.797287
  0
SEQEND
  8
0
  0
POLYLINE
  8
0
 62
     1
  6
CONTINUOUS
 66
     1
 40
0.003150
 41
0.003150
  0
VERTEX
  8
0
 62
     1
  6
CONTINUOUS
 10
-1.885980
 20
-0.811846
  0
VERTEX
  8
0
 62
     1
  6
CONTINUOUS
 10
-1.878643
 20
-0.809853
  0
VERTEX
  8
0
 62
     1
  6
CONTINUOUS
 10
-1.873415
 20
-0.804625
  0
VERTEX
  8
0
 62
     1
  6
CONTINUOUS
 10
-1.871421
 20
-0.797287
  0
SEQEND
  8
0
  0
POLYLINE
  8
0
 62
     1
  6
CONTINUOUS
 66
     1
 40
0.003150
 41
0.003150
  0
VERTEX
  8
0
 62
     1
  6
CONTINUOUS
 10
-2.217335
 20
-0.476878
  0
VERTEX
  8
0
 62
     1
  6
CONTINUOUS
 10
-2.271946
 20
-0.499613
  0
VERTEX
  8
0
 62
     1
  6
CONTINUOUS
 10
-2.290150
 20
-0.549693
  0
VERTEX
  8
0
 62
     1
  6
CONTINUOUS
 10
-2.271946
 20
-0.599773
  0
VERTEX
  8
0
 62
     1
  6
CONTINUOUS
 10
-2.217335
 20
-0.622508
  0
VERTEX
  8
0
 62
     1
  6
CONTINUOUS
 10
-2.162726
 20
-0.599782
  0
VERTEX
  8
0
 62
     1
  6
CONTINUOUS
 10
-2.144519
 20
-0.549706
  0
VERTEX
  8
0
 62
     1
  6
CONTINUOUS
 10
-2.162718
 20
-0.499625
  0
VERTEX
  8
0
 62
     1
  6
CONTINUOUS
 10
-2.217327
 20
-0.476886
  0
VERTEX
  8
0
 62
     1
  6
CONTINUOUS
 10
-2.217329
 20
-0.476884
  0
VERTEX
  8
0
 62
     1
  6
CONTINUOUS
 10
-2.217333
 20
-0.476880
  0
VERTEX
  8
0
 62
     1
  6
CONTINUOUS
 10
-2.217335
 20
-0.476878
  0
SEQEND
  8
0
  0
POLYLINE
  8
0
 62
     1
  6
CONTINUOUS
 66
     1
 40
0.003150
 41
0.003150
  0
VERTEX
  8
0
 62
     1
  6
CONTINUOUS
 10
-1.762248
 20
-0.345791
  0
VERTEX
  8
0
 62
     1
  6
CONTINUOUS
 10
-2.535933
 20
-0.345791
  0
SEQEND
  8
0
  0
POLYLINE
  8
0
 62
     1
  6
CONTINUOUS
 66
     1
 40
0.003150
 41
0.003150
  0
VERTEX
  8
0
 62
     1
  6
CONTINUOUS
 10
-2.535933
 20
-0.884028
  0
VERTEX
  8
0
 62
     1
  6
CONTINUOUS
 10
-2.535933
 20
-0.345791
  0
SEQEND
  8
0
  0
POLYLINE
  8
0
 62
     1
  6
CONTINUOUS
 66
     1
 40
0.003150
 41
0.003150
  0
VERTEX
  8
0
 62
     1
  6
CONTINUOUS
 10
-2.443091
 20
-0.811854
  0
VERTEX
  8
0
 62
     1
  6
CONTINUOUS
 10
-2.535933
 20
-0.811854
  0
SEQEND
  8
0
  0
POLYLINE
  8
0
 62
     1
  6
CONTINUOUS
 66
     1
 40
0.003150
 41
0.003150
  0
VERTEX
  8
0
 62
     1
  6
CONTINUOUS
 10
-2.443091
 20
-0.811854
  0
VERTEX
  8
0
 62
     1
  6
CONTINUOUS
 10
-2.443091
 20
-0.374917
  0
SEQEND
  8
0
  0
POLYLINE
  8
0
 62
     1
  6
CONTINUOUS
 66
     1
 40
0.003150
 41
0.003150
  0
VERTEX
  8
0
 62
     1
  6
CONTINUOUS
 10
-1.991587
 20
-0.374917
  0
VERTEX
  8
0
 62
     1
  6
CONTINUOUS
 10
-2.443091
 20
-0.374917
  0
SEQEND
  8
0
  0
POLYLINE
  8
0
 62
     1
  6
CONTINUOUS
 66
     1
 40
0.003150
 41
0.003150
  0
VERTEX
  8
0
 62
     1
  6
CONTINUOUS
 10
-1.991587
 20
-0.811854
  0
VERTEX
  8
0
 62
     1
  6
CONTINUOUS
 10
-1.991587
 20
-0.374917
  0
SEQEND
  8
0
  0
POLYLINE
  8
0
 62
     1
  6
CONTINUOUS
 66
     1
 40
0.003150
 41
0.003150
  0
VERTEX
  8
0
 62
     1
  6
CONTINUOUS
 10
-1.885988
 20
-0.811854
  0
VERTEX
  8
0
 62
     1
  6
CONTINUOUS
 10
-1.991587
 20
-0.811854
  0
SEQEND
  8
0
  0
POLYLINE
  8
0
 62
     1
  6
CONTINUOUS
 66
     1
 40
0.003150
 41
0.003150
  0
VERTEX
  8
0
 62
     1
  6
CONTINUOUS
 10
-1.871429
 20
-0.797295
  0
VERTEX
  8
0
 62
     1
  6
CONTINUOUS
 10
-1.871429
 20
-0.771075
  0
SEQEND
  8
0
  0
POLYLINE
  8
0
 62
     1
  6
CONTINUOUS
 66
     1
 40
0.003150
 41
0.003150
  0
VERTEX
  8
0
 62
     1
  6
CONTINUOUS
 10
-1.835012
 20
-0.771075
  0
VERTEX
  8
0
 62
     1
  6
CONTINUOUS
 10
-1.871429
 20
-0.771075
  0
SEQEND
  8
0
  0
POLYLINE
  8
0
 62
     1
  6
CONTINUOUS
 66
     1
 40
0.003150
 41
0.003150
  0
VERTEX
  8
0
 62
     1
  6
CONTINUOUS
 10
-2.075335
 20
-0.753594
  0
VERTEX
  8
0
 62
     1
  6
CONTINUOUS
 10
-2.359343
 20
-0.753594
  0
SEQEND
  8
0
  0
POLYLINE
  8
0
 62
     1
  6
CONTINUOUS
 66
     1
 40
0.003150
 41
0.003150
  0
VERTEX
  8
0
 62
     1
  6
CONTINUOUS
 10
-2.359343
 20
-0.753594
  0
VERTEX
  8
0
 62
     1
  6
CONTINUOUS
 10
-2.359343
 20
-0.691697
  0
SEQEND
  8
0
  0
POLYLINE
  8
0
 62
     1
  6
CONTINUOUS
 66
     1
 40
0.003150
 41
0.003150
  0
VERTEX
  8
0
 62
     1
  6
CONTINUOUS
 10
-2.344776
 20
-0.691697
  0
VERTEX
  8
0
 62
     1
  6
CONTINUOUS
 10
-2.359343
 20
-0.691697
  0
SEQEND
  8
0
  0
POLYLINE
  8
0
 62
     1
  6
CONTINUOUS
 66
     1
 40
0.003150
 41
0.003150
  0
VERTEX
  8
0
 62
     1
  6
CONTINUOUS
 10
-2.344776
 20
-0.691697
  0
VERTEX
  8
0
 62
     1
  6
CONTINUOUS
 10
-2.344776
 20
-0.407689
  0
SEQEND
  8
0
  0
POLYLINE
  8
0
 62
     1
  6
CONTINUOUS
 66
     1
 40
0.003150
 41
0.003150
  0
VERTEX
  8
0
 62
     1
  6
CONTINUOUS
 10
-2.344776
 20
-0.407689
  0
VERTEX
  8
0
 62
     1
  6
CONTINUOUS
 10
-2.359343
 20
-0.407689
  0
SEQEND
  8
0
  0
POLYLINE
  8
0
 62
     1
  6
CONTINUOUS
 66
     1
 40
0.003150
 41
0.003150
  0
VERTEX
  8
0
 62
     1
  6
CONTINUOUS
 10
-2.359343
 20
-0.407689
  0
VERTEX
  8
0
 62
     1
  6
CONTINUOUS
 10
-2.359343
 20
-0.374917
  0
SEQEND
  8
0
  0
POLYLINE
  8
0
 62
     1
  6
CONTINUOUS
 66
     1
 40
0.003150
 41
0.003150
  0
VERTEX
  8
0
 62
     1
  6
CONTINUOUS
 10
-2.075335
 20
-0.407689
  0
VERTEX
  8
0
 62
     1
  6
CONTINUOUS
 10
-2.075335
 20
-0.374917
  0
SEQEND
  8
0
  0
POLYLINE
  8
0
 62
     1
  6
CONTINUOUS
 66
     1
 40
0.003150
 41
0.003150
  0
VERTEX
  8
0
 62
     1
  6
CONTINUOUS
 10
-2.075335
 20
-0.407689
  0
VERTEX
  8
0
 62
     1
  6
CONTINUOUS
 10
-2.089894
 20
-0.407689
  0
SEQEND
  8
0
  0
POLYLINE
  8
0
 62
     1
  6
CONTINUOUS
 66
     1
 40
0.003150
 41
0.003150
  0
VERTEX
  8
0
 62
     1
  6
CONTINUOUS
 10
-2.089894
 20
-0.691697
  0
VERTEX
  8
0
 62
     1
  6
CONTINUOUS
 10
-2.089894
 20
-0.407689
  0
SEQEND
  8
0
  0
POLYLINE
  8
0
 62
     1
  6
CONTINUOUS
 66
     1
 40
0.003150
 41
0.003150
  0
VERTEX
  8
0
 62
     1
  6
CONTINUOUS
 10
-2.075335
 20
-0.691697
  0
VERTEX
  8
0
 62
     1
  6
CONTINUOUS
 10
-2.089894
 20
-0.691697
  0
SEQEND
  8
0
  0
POLYLINE
  8
0
 62
     1
  6
CONTINUOUS
 66
     1
 40
0.003150
 41
0.003150
  0
VERTEX
  8
0
 62
     1
  6
CONTINUOUS
 10
-2.075335
 20
-0.753594
  0
VERTEX
  8
0
 62
     1
  6
CONTINUOUS
 10
-2.075335
 20
-0.691697
  0
SEQEND
  8
0
  0
POLYLINE
  8
0
 62
     1
  6
CONTINUOUS
 66
     1
 40
0.003150
 41
0.003150
  0
VERTEX
  8
0
 62
     1
  6
CONTINUOUS
 10
-2.217335
 20
-0.881854
  0
VERTEX
  8
0
 62
     1
  6
CONTINUOUS
 10
-2.217335
 20
-0.301421
  0
SEQEND
  8
0
  0
POLYLINE
  8
0
 62
     1
  6
CONTINUOUS
 66
     1
 40
0.003150
 41
0.003150
  0
VERTEX
  8
0
 62
     1
  6
CONTINUOUS
 10
-1.926004
 20
-0.549697
  0
VERTEX
  8
0
 62
     1
  6
CONTINUOUS
 10
-2.477791
 20
-0.549697
  0
SEQEND
  8
0
  0
POLYLINE
  8
0
 62
     1
  6
CONTINUOUS
 66
     1
 40
0.003150
 41
0.003150
  0
VERTEX
  8
0
 62
     1
  6
CONTINUOUS
 10
-2.535933
 20
-0.768587
  0
VERTEX
  8
0
 62
     1
  6
CONTINUOUS
 10
-2.492665
 20
-0.811854
  0
SEQEND
  8
0
  0
POLYLINE
  8
0
 62
     1
  6
CONTINUOUS
 66
     1
 40
0.003150
 41
0.003150
  0
VERTEX
  8
0
 62
     1
  6
CONTINUOUS
 10
-2.535933
 20
-0.706791
  0
VERTEX
  8
0
 62
     1
  6
CONTINUOUS
 10
-2.443091
 20
-0.799642
  0
SEQEND
  8
0
  0
POLYLINE
  8
0
 62
     1
  6
CONTINUOUS
 66
     1
 40
0.003150
 41
0.003150
  0
VERTEX
  8
0
 62
     1
  6
CONTINUOUS
 10
-2.535933
 20
-0.644996
  0
VERTEX
  8
0
 62
     1
  6
CONTINUOUS
 10
-2.443091
 20
-0.737846
  0
SEQEND
  8
0
  0
POLYLINE
  8
0
 62
     1
  6
CONTINUOUS
 66
     1
 40
0.003150
 41
0.003150
  0
VERTEX
  8
0
 62
     1
  6
CONTINUOUS
 10
-2.535933
 20
-0.583209
  0
VERTEX
  8
0
 62
     1
  6
CONTINUOUS
 10
-2.443091
 20
-0.676051
  0
SEQEND
  8
0
  0
POLYLINE
  8
0
 62
     1
  6
CONTINUOUS
 66
     1
 40
0.003150
 41
0.003150
  0
VERTEX
  8
0
 62
     1
  6
CONTINUOUS
 10
-2.535933
 20
-0.521413
  0
VERTEX
  8
0
 62
     1
  6
CONTINUOUS
 10
-2.443091
 20
-0.614264
  0
SEQEND
  8
0
  0
POLYLINE
  8
0
 62
     1
  6
CONTINUOUS
 66
     1
 40
0.003150
 41
0.003150
  0
VERTEX
  8
0
 62
     1
  6
CONTINUOUS
 10
-2.535933
 20
-0.459618
  0
VERTEX
  8
0
 62
     1
  6
CONTINUOUS
 10
-2.443091
 20
-0.552469
  0
SEQEND
  8
0
  0
POLYLINE
  8
0
 62
     1
  6
CONTINUOUS
 66
     1
 40
0.003150
 41
0.003150
  0
VERTEX
  8
0
 62
     1
  6
CONTINUOUS
 10
-2.535933
 20
-0.397831
  0
VERTEX
  8
0
 62
     1
  6
CONTINUOUS
 10
-2.443091
 20
-0.490681
  0
SEQEND
  8
0
  0
POLYLINE
  8
0
 62
     1
  6
CONTINUOUS
 66
     1
 40
0.003150
 41
0.003150
  0
VERTEX
  8
0
 62
     1
  6
CONTINUOUS
 10
-2.526185
 20
-0.345791
  0
VERTEX
  8
0
 62
     1
  6
CONTINUOUS
 10
-2.443091
 20
-0.428886
  0
SEQEND
  8
0
  0
POLYLINE
  8
0
 62
     1
  6
CONTINUOUS
 66
     1
 40
0.003150
 41
0.003150
  0
VERTEX
  8
0
 62
     1
  6
CONTINUOUS
 10
-2.464390
 20
-0.345791
  0
VERTEX
  8
0
 62
     1
  6
CONTINUOUS
 10
-2.435264
 20
-0.374917
  0
SEQEND
  8
0
  0
POLYLINE
  8
0
 62
     1
  6
CONTINUOUS
 66
     1
 40
0.003150
 41
0.003150
  0
VERTEX
  8
0
 62
     1
  6
CONTINUOUS
 10
-1.991587
 20
-0.787697
  0
VERTEX
  8
0
 62
     1
  6
CONTINUOUS
 10
-1.967429
 20
-0.811854
  0
SEQEND
  8
0
  0
POLYLINE
  8
0
 62
     1
  6
CONTINUOUS
 66
     1
 40
0.003150
 41
0.003150
  0
VERTEX
  8
0
 62
     1
  6
CONTINUOUS
 10
-1.991587
 20
-0.756807
  0
VERTEX
  8
0
 62
     1
  6
CONTINUOUS
 10
-1.936531
 20
-0.811854
  0
SEQEND
  8
0
  0
POLYLINE
  8
0
 62
     1
  6
CONTINUOUS
 66
     1
 40
0.003150
 41
0.003150
  0
VERTEX
  8
0
 62
     1
  6
CONTINUOUS
 10
-1.991587
 20
-0.725909
  0
VERTEX
  8
0
 62
     1
  6
CONTINUOUS
 10
-1.905634
 20
-0.811854
  0
SEQEND
  8
0
  0
POLYLINE
  8
0
 62
     1
  6
CONTINUOUS
 66
     1
 40
0.003150
 41
0.003150
  0
VERTEX
  8
0
 62
     1
  6
CONTINUOUS
 10
-1.991587
 20
-0.695012
  0
VERTEX
  8
0
 62
     1
  6
CONTINUOUS
 10
-1.877697
 20
-0.808894
  0
SEQEND
  8
0
  0
POLYLINE
  8
0
 62
     1
  6
CONTINUOUS
 66
     1
 40
0.003150
 41
0.003150
  0
VERTEX
  8
0
 62
     1
  6
CONTINUOUS
 10
-1.991587
 20
-0.664114
  0
VERTEX
  8
0
 62
     1
  6
CONTINUOUS
 10
-1.871429
 20
-0.784272
  0
SEQEND
  8
0
  0
POLYLINE
  8
0
 62
     1
  6
CONTINUOUS
 66
     1
 40
0.003150
 41
0.003150
  0
VERTEX
  8
0
 62
     1
  6
CONTINUOUS
 10
-1.991587
 20
-0.633217
  0
VERTEX
  8
0
 62
     1
  6
CONTINUOUS
 10
-1.853728
 20
-0.771075
  0
SEQEND
  8
0
  0
POLYLINE
  8
0
 62
     1
  6
CONTINUOUS
 66
     1
 40
0.003150
 41
0.003150
  0
VERTEX
  8
0
 62
     1
  6
CONTINUOUS
 10
-1.991587
 20
-0.602319
  0
VERTEX
  8
0
 62
     1
  6
CONTINUOUS
 10
-1.835012
 20
-0.758894
  0
SEQEND
  8
0
  0
POLYLINE
  8
0
 62
     1
  6
CONTINUOUS
 66
     1
 40
0.003150
 41
0.003150
  0
VERTEX
  8
0
 62
     1
  6
CONTINUOUS
 10
-1.991587
 20
-0.571429
  0
VERTEX
  8
0
 62
     1
  6
CONTINUOUS
 10
-1.835012
 20
-0.727996
  0
SEQEND
  8
0
  0
POLYLINE
  8
0
 62
     1
  6
CONTINUOUS
 66
     1
 40
0.003150
 41
0.003150
  0
VERTEX
  8
0
 62
     1
  6
CONTINUOUS
 10
-1.991587
 20
-0.540531
  0
VERTEX
  8
0
 62
     1
  6
CONTINUOUS
 10
-1.835012
 20
-0.697098
  0
SEQEND
  8
0
  0
POLYLINE
  8
0
 62
     1
  6
CONTINUOUS
 66
     1
 40
0.003150
 41
0.003150
  0
VERTEX
  8
0
 62
     1
  6
CONTINUOUS
 10
-1.991587
 20
-0.509634
  0
VERTEX
  8
0
 62
     1
  6
CONTINUOUS
 10
-1.835012
 20
-0.666201
  0
SEQEND
  8
0
  0
POLYLINE
  8
0
 62
     1
  6
CONTINUOUS
 66
     1
 40
0.003150
 41
0.003150
  0
VERTEX
  8
0
 62
     1
  6
CONTINUOUS
 10
-1.991587
 20
-0.478736
  0
VERTEX
  8
0
 62
     1
  6
CONTINUOUS
 10
-1.835012
 20
-0.635311
  0
SEQEND
  8
0
  0
POLYLINE
  8
0
 62
     1
  6
CONTINUOUS
 66
     1
 40
0.003150
 41
0.003150
  0
VERTEX
  8
0
 62
     1
  6
CONTINUOUS
 10
-1.991587
 20
-0.447839
  0
VERTEX
  8
0
 62
     1
  6
CONTINUOUS
 10
-1.835012
 20
-0.604413
  0
SEQEND
  8
0
  0
POLYLINE
  8
0
 62
     1
  6
CONTINUOUS
 66
     1
 40
0.003150
 41
0.003150
  0
VERTEX
  8
0
 62
     1
  6
CONTINUOUS
 10
-1.991587
 20
-0.416949
  0
VERTEX
  8
0
 62
     1
  6
CONTINUOUS
 10
-1.835012
 20
-0.573516
  0
SEQEND
  8
0
  0
POLYLINE
  8
0
 62
     1
  6
CONTINUOUS
 66
     1
 40
0.003150
 41
0.003150
  0
VERTEX
  8
0
 62
     1
  6
CONTINUOUS
 10
-1.991587
 20
-0.386051
  0
VERTEX
  8
0
 62
     1
  6
CONTINUOUS
 10
-1.835012
 20
-0.542618
  0
SEQEND
  8
0
  0
POLYLINE
  8
0
 62
     1
  6
CONTINUOUS
 66
     1
 40
0.003150
 41
0.003150
  0
VERTEX
  8
0
 62
     1
  6
CONTINUOUS
 10
-1.970051
 20
-0.345791
  0
VERTEX
  8
0
 62
     1
  6
CONTINUOUS
 10
-1.835012
 20
-0.480823
  0
SEQEND
  8
0
  0
POLYLINE
  8
0
 62
     1
  6
CONTINUOUS
 66
     1
 40
0.003150
 41
0.003150
  0
VERTEX
  8
0
 62
     1
  6
CONTINUOUS
 10
-1.908264
 20
-0.345791
  0
VERTEX
  8
0
 62
     1
  6
CONTINUOUS
 10
-1.835012
 20
-0.419035
  0
SEQEND
  8
0
  0
POLYLINE
  8
0
 62
     1
  6
CONTINUOUS
 66
     1
 40
0.003150
 41
0.003150
  0
VERTEX
  8
0
 62
     1
  6
CONTINUOUS
 10
-1.846469
 20
-0.345791
  0
VERTEX
  8
0
 62
     1
  6
CONTINUOUS
 10
-1.835012
 20
-0.357240
  0
SEQEND
  8
0
  0
POLYLINE
  8
0
 62
     1
  6
CONTINUOUS
 66
     1
 40
0.003150
 41
0.003150
  0
VERTEX
  8
0
 62
     1
  6
CONTINUOUS
 10
-2.649035
 20
1.027909
  0
VERTEX
  8
0
 62
     1
  6
CONTINUOUS
 10
-2.645267
 20
1.014030
  0
VERTEX
  8
0
 62
     1
  6
CONTINUOUS
 10
-2.635379
 20
1.004143
  0
VERTEX
  8
0
 62
     1
  6
CONTINUOUS
 10
-2.621500
 20
1.000374
  0
SEQEND
  8
0
  0
POLYLINE
  8
0
 62
     1
  6
CONTINUOUS
 66
     1
 40
0.003150
 41
0.003150
  0
VERTEX
  8
0
 62
     1
  6
CONTINUOUS
 10
-2.621500
 20
1.000374
  0
VERTEX
  8
0
 62
     1
  6
CONTINUOUS
 10
-2.607621
 20
1.004143
  0
VERTEX
  8
0
 62
     1
  6
CONTINUOUS
 10
-2.597733
 20
1.014030
  0
VERTEX
  8
0
 62
     1
  6
CONTINUOUS
 10
-2.593965
 20
1.027909
  0
SEQEND
  8
0
  0
POLYLINE
  8
0
 62
     1
  6
CONTINUOUS
 66
     1
 40
0.003150
 41
0.003150
  0
VERTEX
  8
0
 62
     1
  6
CONTINUOUS
 10
-2.649035
 20
1.027909
  0
VERTEX
  8
0
 62
     1
  6
CONTINUOUS
 10
-2.645267
 20
1.014030
  0
VERTEX
  8
0
 62
     1
  6
CONTINUOUS
 10
-2.635379
 20
1.004143
  0
VERTEX
  8
0
 62
     1
  6
CONTINUOUS
 10
-2.621500
 20
1.000374
  0
SEQEND
  8
0
  0
POLYLINE
  8
0
 62
     1
  6
CONTINUOUS
 66
     1
 40
0.003150
 41
0.003150
  0
VERTEX
  8
0
 62
     1
  6
CONTINUOUS
 10
-2.621500
 20
1.000374
  0
VERTEX
  8
0
 62
     1
  6
CONTINUOUS
 10
-2.607621
 20
1.004143
  0
VERTEX
  8
0
 62
     1
  6
CONTINUOUS
 10
-2.597733
 20
1.014030
  0
VERTEX
  8
0
 62
     1
  6
CONTINUOUS
 10
-2.593965
 20
1.027909
  0
SEQEND
  8
0
  0
POLYLINE
  8
0
 62
     1
  6
CONTINUOUS
 66
     1
 40
0.003150
 41
0.003150
  0
VERTEX
  8
0
 62
     1
  6
CONTINUOUS
 10
-3.491736
 20
2.377106
  0
VERTEX
  8
0
 62
     1
  6
CONTINUOUS
 10
-3.491736
 20
2.957547
  0
SEQEND
  8
0
  0
POLYLINE
  8
0
 62
     1
  6
CONTINUOUS
 66
     1
 40
0.003150
 41
0.003150
  0
VERTEX
  8
0
 62
     1
  6
CONTINUOUS
 10
-3.231280
 20
2.625382
  0
VERTEX
  8
0
 62
     1
  6
CONTINUOUS
 10
-3.783067
 20
2.625382
  0
SEQEND
  8
0
  0
POLYLINE
  8
0
 62
     1
  6
CONTINUOUS
 66
     1
 40
0.003150
 41
0.003150
  0
VERTEX
  8
0
 62
     1
  6
CONTINUOUS
 10
-3.231280
 20
-0.549697
  0
VERTEX
  8
0
 62
     1
  6
CONTINUOUS
 10
-3.783067
 20
-0.549697
  0
SEQEND
  8
0
  0
POLYLINE
  8
0
 62
     1
  6
CONTINUOUS
 66
     1
 40
0.003150
 41
0.003150
  0
VERTEX
  8
0
 62
     1
  6
CONTINUOUS
 10
-3.491736
 20
-0.881854
  0
VERTEX
  8
0
 62
     1
  6
CONTINUOUS
 10
-3.491736
 20
-0.301421
  0
SEQEND
  8
0
  0
POLYLINE
  8
0
 62
     1
  6
CONTINUOUS
 66
     1
 40
0.003150
 41
0.003150
  0
VERTEX
  8
0
 62
     1
  6
CONTINUOUS
 10
-2.563209
 20
2.625382
  0
VERTEX
  8
0
 62
     1
  6
CONTINUOUS
 10
-3.114996
 20
2.625382
  0
SEQEND
  8
0
  0
POLYLINE
  8
0
 62
     1
  6
CONTINUOUS
 66
     1
 40
0.003150
 41
0.003150
  0
VERTEX
  8
0
 62
     1
  6
CONTINUOUS
 10
-3.868476
 20
2.625382
  0
VERTEX
  8
0
 62
     1
  6
CONTINUOUS
 10
-4.420272
 20
2.625382
  0
SEQEND
  8
0
  0
POLYLINE
  8
0
 62
     1
  6
CONTINUOUS
 66
     1
 40
0.003150
 41
0.003150
  0
VERTEX
  8
0
 62
     1
  6
CONTINUOUS
 10
-4.128941
 20
2.377106
  0
VERTEX
  8
0
 62
     1
  6
CONTINUOUS
 10
-4.128941
 20
2.957547
  0
SEQEND
  8
0
  0
POLYLINE
  8
0
 62
     1
  6
CONTINUOUS
 66
     1
 40
0.003150
 41
0.003150
  0
VERTEX
  8
0
 62
     1
  6
CONTINUOUS
 10
-2.563209
 20
-0.549697
  0
VERTEX
  8
0
 62
     1
  6
CONTINUOUS
 10
-3.114996
 20
-0.549697
  0
SEQEND
  8
0
  0
POLYLINE
  8
0
 62
     1
  6
CONTINUOUS
 66
     1
 40
0.003150
 41
0.003150
  0
VERTEX
  8
0
 62
     1
  6
CONTINUOUS
 10
-4.128941
 20
-0.881854
  0
VERTEX
  8
0
 62
     1
  6
CONTINUOUS
 10
-4.128941
 20
-0.301421
  0
SEQEND
  8
0
  0
POLYLINE
  8
0
 62
     1
  6
CONTINUOUS
 66
     1
 40
0.003150
 41
0.003150
  0
VERTEX
  8
0
 62
     1
  6
CONTINUOUS
 10
-3.868476
 20
-0.549697
  0
VERTEX
  8
0
 62
     1
  6
CONTINUOUS
 10
-4.420272
 20
-0.549697
  0
SEQEND
  8
0
  0
POLYLINE
  8
0
 62
     1
  6
CONTINUOUS
 66
     1
 40
0.003150
 41
0.003150
  0
VERTEX
  8
0
 62
     1
  6
CONTINUOUS
 10
-2.593965
 20
0.789579
  0
VERTEX
  8
0
 62
     1
  6
CONTINUOUS
 10
-2.597733
 20
0.803458
  0
VERTEX
  8
0
 62
     1
  6
CONTINUOUS
 10
-2.607621
 20
0.813345
  0
VERTEX
  8
0
 62
     1
  6
CONTINUOUS
 10
-2.621500
 20
0.817114
  0
SEQEND
  8
0
  0
POLYLINE
  8
0
 62
     1
  6
CONTINUOUS
 66
     1
 40
0.003150
 41
0.003150
  0
VERTEX
  8
0
 62
     1
  6
CONTINUOUS
 10
-2.621500
 20
0.817114
  0
VERTEX
  8
0
 62
     1
  6
CONTINUOUS
 10
-2.635379
 20
0.813345
  0
VERTEX
  8
0
 62
     1
  6
CONTINUOUS
 10
-2.645267
 20
0.803458
  0
VERTEX
  8
0
 62
     1
  6
CONTINUOUS
 10
-2.649035
 20
0.789579
  0
SEQEND
  8
0
  0
POLYLINE
  8
0
 62
     1
  6
CONTINUOUS
 66
     1
 40
0.003150
 41
0.003150
  0
VERTEX
  8
0
 62
     1
  6
CONTINUOUS
 10
-2.593965
 20
0.789579
  0
VERTEX
  8
0
 62
     1
  6
CONTINUOUS
 10
-2.597733
 20
0.803458
  0
VERTEX
  8
0
 62
     1
  6
CONTINUOUS
 10
-2.607621
 20
0.813345
  0
VERTEX
  8
0
 62
     1
  6
CONTINUOUS
 10
-2.621500
 20
0.817114
  0
SEQEND
  8
0
  0
POLYLINE
  8
0
 62
     1
  6
CONTINUOUS
 66
     1
 40
0.003150
 41
0.003150
  0
VERTEX
  8
0
 62
     1
  6
CONTINUOUS
 10
-2.621500
 20
0.817114
  0
VERTEX
  8
0
 62
     1
  6
CONTINUOUS
 10
-2.635379
 20
0.813345
  0
VERTEX
  8
0
 62
     1
  6
CONTINUOUS
 10
-2.645267
 20
0.803458
  0
VERTEX
  8
0
 62
     1
  6
CONTINUOUS
 10
-2.649035
 20
0.789579
  0
SEQEND
  8
0
  0
POLYLINE
  8
0
 62
     1
  6
CONTINUOUS
 66
     1
 40
0.003150
 41
0.003150
  0
VERTEX
  8
0
 62
     1
  6
CONTINUOUS
 10
-2.649035
 20
0.784280
  0
VERTEX
  8
0
 62
     1
  6
CONTINUOUS
 10
-2.645267
 20
0.770401
  0
VERTEX
  8
0
 62
     1
  6
CONTINUOUS
 10
-2.635379
 20
0.760513
  0
VERTEX
  8
0
 62
     1
  6
CONTINUOUS
 10
-2.621500
 20
0.756744
  0
SEQEND
  8
0
  0
POLYLINE
  8
0
 62
     1
  6
CONTINUOUS
 66
     1
 40
0.003150
 41
0.003150
  0
VERTEX
  8
0
 62
     1
  6
CONTINUOUS
 10
-2.621500
 20
0.756744
  0
VERTEX
  8
0
 62
     1
  6
CONTINUOUS
 10
-2.607621
 20
0.760513
  0
VERTEX
  8
0
 62
     1
  6
CONTINUOUS
 10
-2.597733
 20
0.770401
  0
VERTEX
  8
0
 62
     1
  6
CONTINUOUS
 10
-2.593965
 20
0.784280
  0
SEQEND
  8
0
  0
POLYLINE
  8
0
 62
     1
  6
CONTINUOUS
 66
     1
 40
0.003150
 41
0.003150
  0
VERTEX
  8
0
 62
     1
  6
CONTINUOUS
 10
-2.649035
 20
0.784280
  0
VERTEX
  8
0
 62
     1
  6
CONTINUOUS
 10
-2.645267
 20
0.770401
  0
VERTEX
  8
0
 62
     1
  6
CONTINUOUS
 10
-2.635379
 20
0.760513
  0
VERTEX
  8
0
 62
     1
  6
CONTINUOUS
 10
-2.621500
 20
0.756744
  0
SEQEND
  8
0
  0
POLYLINE
  8
0
 62
     1
  6
CONTINUOUS
 66
     1
 40
0.003150
 41
0.003150
  0
VERTEX
  8
0
 62
     1
  6
CONTINUOUS
 10
-2.621500
 20
0.756744
  0
VERTEX
  8
0
 62
     1
  6
CONTINUOUS
 10
-2.607621
 20
0.760513
  0
VERTEX
  8
0
 62
     1
  6
CONTINUOUS
 10
-2.597733
 20
0.770401
  0
VERTEX
  8
0
 62
     1
  6
CONTINUOUS
 10
-2.593965
 20
0.784280
  0
SEQEND
  8
0
  0
POLYLINE
  8
0
 62
     1
  6
CONTINUOUS
 66
     1
 40
0.003150
 41
0.003150
  0
VERTEX
  8
0
 62
     1
  6
CONTINUOUS
 10
-2.602437
 20
0.789579
  0
VERTEX
  8
0
 62
     1
  6
CONTINUOUS
 10
-2.605047
 20
0.799186
  0
VERTEX
  8
0
 62
     1
  6
CONTINUOUS
 10
-2.611893
 20
0.806032
  0
VERTEX
  8
0
 62
     1
  6
CONTINUOUS
 10
-2.621500
 20
0.808642
  0
SEQEND
  8
0
  0
POLYLINE
  8
0
 62
     1
  6
CONTINUOUS
 66
     1
 40
0.003150
 41
0.003150
  0
VERTEX
  8
0
 62
     1
  6
CONTINUOUS
 10
-2.621500
 20
0.808642
  0
VERTEX
  8
0
 62
     1
  6
CONTINUOUS
 10
-2.631107
 20
0.806032
  0
VERTEX
  8
0
 62
     1
  6
CONTINUOUS
 10
-2.637953
 20
0.799186
  0
VERTEX
  8
0
 62
     1
  6
CONTINUOUS
 10
-2.640563
 20
0.789579
  0
SEQEND
  8
0
  0
POLYLINE
  8
0
 62
     1
  6
CONTINUOUS
 66
     1
 40
0.003150
 41
0.003150
  0
VERTEX
  8
0
 62
     1
  6
CONTINUOUS
 10
-2.602437
 20
0.789579
  0
VERTEX
  8
0
 62
     1
  6
CONTINUOUS
 10
-2.605047
 20
0.799186
  0
VERTEX
  8
0
 62
     1
  6
CONTINUOUS
 10
-2.611893
 20
0.806032
  0
VERTEX
  8
0
 62
     1
  6
CONTINUOUS
 10
-2.621500
 20
0.808642
  0
SEQEND
  8
0
  0
POLYLINE
  8
0
 62
     1
  6
CONTINUOUS
 66
     1
 40
0.003150
 41
0.003150
  0
VERTEX
  8
0
 62
     1
  6
CONTINUOUS
 10
-2.621500
 20
0.808642
  0
VERTEX
  8
0
 62
     1
  6
CONTINUOUS
 10
-2.631107
 20
0.806032
  0
VERTEX
  8
0
 62
     1
  6
CONTINUOUS
 10
-2.637953
 20
0.799186
  0
VERTEX
  8
0
 62
     1
  6
CONTINUOUS
 10
-2.640563
 20
0.789579
  0
SEQEND
  8
0
  0
POLYLINE
  8
0
 62
     1
  6
CONTINUOUS
 66
     1
 40
0.003150
 41
0.003150
  0
VERTEX
  8
0
 62
     1
  6
CONTINUOUS
 10
-2.640563
 20
0.784280
  0
VERTEX
  8
0
 62
     1
  6
CONTINUOUS
 10
-2.637953
 20
0.774672
  0
VERTEX
  8
0
 62
     1
  6
CONTINUOUS
 10
-2.631107
 20
0.767826
  0
VERTEX
  8
0
 62
     1
  6
CONTINUOUS
 10
-2.621500
 20
0.765217
  0
SEQEND
  8
0
  0
POLYLINE
  8
0
 62
     1
  6
CONTINUOUS
 66
     1
 40
0.003150
 41
0.003150
  0
VERTEX
  8
0
 62
     1
  6
CONTINUOUS
 10
-2.621500
 20
0.765217
  0
VERTEX
  8
0
 62
     1
  6
CONTINUOUS
 10
-2.611893
 20
0.767826
  0
VERTEX
  8
0
 62
     1
  6
CONTINUOUS
 10
-2.605047
 20
0.774672
  0
VERTEX
  8
0
 62
     1
  6
CONTINUOUS
 10
-2.602437
 20
0.784280
  0
SEQEND
  8
0
  0
POLYLINE
  8
0
 62
     1
  6
CONTINUOUS
 66
     1
 40
0.003150
 41
0.003150
  0
VERTEX
  8
0
 62
     1
  6
CONTINUOUS
 10
-2.640563
 20
0.784280
  0
VERTEX
  8
0
 62
     1
  6
CONTINUOUS
 10
-2.637953
 20
0.774672
  0
VERTEX
  8
0
 62
     1
  6
CONTINUOUS
 10
-2.631107
 20
0.767826
  0
VERTEX
  8
0
 62
     1
  6
CONTINUOUS
 10
-2.621500
 20
0.765217
  0
SEQEND
  8
0
  0
POLYLINE
  8
0
 62
     1
  6
CONTINUOUS
 66
     1
 40
0.003150
 41
0.003150
  0
VERTEX
  8
0
 62
     1
  6
CONTINUOUS
 10
-2.621500
 20
0.765217
  0
VERTEX
  8
0
 62
     1
  6
CONTINUOUS
 10
-2.611893
 20
0.767826
  0
VERTEX
  8
0
 62
     1
  6
CONTINUOUS
 10
-2.605047
 20
0.774672
  0
VERTEX
  8
0
 62
     1
  6
CONTINUOUS
 10
-2.602437
 20
0.784280
  0
SEQEND
  8
0
  0
POLYLINE
  8
0
 62
     1
  6
CONTINUOUS
 66
     1
 40
0.003150
 41
0.003150
  0
VERTEX
  8
0
 62
     1
  6
CONTINUOUS
 10
-2.566020
 20
0.838295
  0
VERTEX
  8
0
 62
     1
  6
CONTINUOUS
 10
-2.572958
 20
0.836412
  0
VERTEX
  8
0
 62
     1
  6
CONTINUOUS
 10
-2.577900
 20
0.831470
  0
VERTEX
  8
0
 62
     1
  6
CONTINUOUS
 10
-2.579783
 20
0.824531
  0
SEQEND
  8
0
  0
POLYLINE
  8
0
 62
     1
  6
CONTINUOUS
 66
     1
 40
0.003150
 41
0.003150
  0
VERTEX
  8
0
 62
     1
  6
CONTINUOUS
 10
-2.566020
 20
0.838295
  0
VERTEX
  8
0
 62
     1
  6
CONTINUOUS
 10
-2.572958
 20
0.836412
  0
VERTEX
  8
0
 62
     1
  6
CONTINUOUS
 10
-2.577900
 20
0.831470
  0
VERTEX
  8
0
 62
     1
  6
CONTINUOUS
 10
-2.579783
 20
0.824531
  0
SEQEND
  8
0
  0
POLYLINE
  8
0
 62
     1
  6
CONTINUOUS
 66
     1
 40
0.003150
 41
0.003150
  0
VERTEX
  8
0
 62
     1
  6
CONTINUOUS
 10
-2.566020
 20
0.829823
  0
VERTEX
  8
0
 62
     1
  6
CONTINUOUS
 10
-2.568686
 20
0.829098
  0
VERTEX
  8
0
 62
     1
  6
CONTINUOUS
 10
-2.570587
 20
0.827198
  0
VERTEX
  8
0
 62
     1
  6
CONTINUOUS
 10
-2.571311
 20
0.824531
  0
SEQEND
  8
0
  0
POLYLINE
  8
0
 62
     1
  6
CONTINUOUS
 66
     1
 40
0.003150
 41
0.003150
  0
VERTEX
  8
0
 62
     1
  6
CONTINUOUS
 10
-2.566020
 20
0.829823
  0
VERTEX
  8
0
 62
     1
  6
CONTINUOUS
 10
-2.568686
 20
0.829098
  0
VERTEX
  8
0
 62
     1
  6
CONTINUOUS
 10
-2.570587
 20
0.827198
  0
VERTEX
  8
0
 62
     1
  6
CONTINUOUS
 10
-2.571311
 20
0.824531
  0
SEQEND
  8
0
  0
POLYLINE
  8
0
 62
     1
  6
CONTINUOUS
 66
     1
 40
0.003150
 41
0.003150
  0
VERTEX
  8
0
 62
     1
  6
CONTINUOUS
 10
-2.530665
 20
0.838295
  0
VERTEX
  8
0
 62
     1
  6
CONTINUOUS
 10
-2.537604
 20
0.836412
  0
VERTEX
  8
0
 62
     1
  6
CONTINUOUS
 10
-2.542546
 20
0.831470
  0
VERTEX
  8
0
 62
     1
  6
CONTINUOUS
 10
-2.544429
 20
0.824531
  0
SEQEND
  8
0
  0
POLYLINE
  8
0
 62
     1
  6
CONTINUOUS
 66
     1
 40
0.003150
 41
0.003150
  0
VERTEX
  8
0
 62
     1
  6
CONTINUOUS
 10
-2.530665
 20
0.838295
  0
VERTEX
  8
0
 62
     1
  6
CONTINUOUS
 10
-2.537604
 20
0.836412
  0
VERTEX
  8
0
 62
     1
  6
CONTINUOUS
 10
-2.542546
 20
0.831470
  0
VERTEX
  8
0
 62
     1
  6
CONTINUOUS
 10
-2.544429
 20
0.824531
  0
SEQEND
  8
0
  0
POLYLINE
  8
0
 62
     1
  6
CONTINUOUS
 66
     1
 40
0.003150
 41
0.003150
  0
VERTEX
  8
0
 62
     1
  6
CONTINUOUS
 10
-2.530665
 20
0.829823
  0
VERTEX
  8
0
 62
     1
  6
CONTINUOUS
 10
-2.533332
 20
0.829098
  0
VERTEX
  8
0
 62
     1
  6
CONTINUOUS
 10
-2.535232
 20
0.827198
  0
VERTEX
  8
0
 62
     1
  6
CONTINUOUS
 10
-2.535957
 20
0.824531
  0
SEQEND
  8
0
  0
POLYLINE
  8
0
 62
     1
  6
CONTINUOUS
 66
     1
 40
0.003150
 41
0.003150
  0
VERTEX
  8
0
 62
     1
  6
CONTINUOUS
 10
-2.530665
 20
0.829823
  0
VERTEX
  8
0
 62
     1
  6
CONTINUOUS
 10
-2.533332
 20
0.829098
  0
VERTEX
  8
0
 62
     1
  6
CONTINUOUS
 10
-2.535232
 20
0.827198
  0
VERTEX
  8
0
 62
     1
  6
CONTINUOUS
 10
-2.535957
 20
0.824531
  0
SEQEND
  8
0
  0
POLYLINE
  8
0
 62
     1
  6
CONTINUOUS
 66
     1
 40
0.003150
 41
0.003150
  0
VERTEX
  8
0
 62
     1
  6
CONTINUOUS
 10
-2.593965
 20
1.033209
  0
VERTEX
  8
0
 62
     1
  6
CONTINUOUS
 10
-2.597733
 20
1.047088
  0
VERTEX
  8
0
 62
     1
  6
CONTINUOUS
 10
-2.607621
 20
1.056975
  0
VERTEX
  8
0
 62
     1
  6
CONTINUOUS
 10
-2.621500
 20
1.060744
  0
SEQEND
  8
0
  0
POLYLINE
  8
0
 62
     1
  6
CONTINUOUS
 66
     1
 40
0.003150
 41
0.003150
  0
VERTEX
  8
0
 62
     1
  6
CONTINUOUS
 10
-2.621500
 20
1.060744
  0
VERTEX
  8
0
 62
     1
  6
CONTINUOUS
 10
-2.635379
 20
1.056975
  0
VERTEX
  8
0
 62
     1
  6
CONTINUOUS
 10
-2.645267
 20
1.047088
  0
VERTEX
  8
0
 62
     1
  6
CONTINUOUS
 10
-2.649035
 20
1.033209
  0
SEQEND
  8
0
  0
POLYLINE
  8
0
 62
     1
  6
CONTINUOUS
 66
     1
 40
0.003150
 41
0.003150
  0
VERTEX
  8
0
 62
     1
  6
CONTINUOUS
 10
-2.593965
 20
1.033209
  0
VERTEX
  8
0
 62
     1
  6
CONTINUOUS
 10
-2.597733
 20
1.047088
  0
VERTEX
  8
0
 62
     1
  6
CONTINUOUS
 10
-2.607621
 20
1.056975
  0
VERTEX
  8
0
 62
     1
  6
CONTINUOUS
 10
-2.621500
 20
1.060744
  0
SEQEND
  8
0
  0
POLYLINE
  8
0
 62
     1
  6
CONTINUOUS
 66
     1
 40
0.003150
 41
0.003150
  0
VERTEX
  8
0
 62
     1
  6
CONTINUOUS
 10
-2.621500
 20
1.060744
  0
VERTEX
  8
0
 62
     1
  6
CONTINUOUS
 10
-2.635379
 20
1.056975
  0
VERTEX
  8
0
 62
     1
  6
CONTINUOUS
 10
-2.645267
 20
1.047088
  0
VERTEX
  8
0
 62
     1
  6
CONTINUOUS
 10
-2.649035
 20
1.033209
  0
SEQEND
  8
0
  0
POLYLINE
  8
0
 62
     1
  6
CONTINUOUS
 66
     1
 40
0.003150
 41
0.003150
  0
VERTEX
  8
0
 62
     1
  6
CONTINUOUS
 10
-2.602437
 20
1.033209
  0
VERTEX
  8
0
 62
     1
  6
CONTINUOUS
 10
-2.605047
 20
1.042816
  0
VERTEX
  8
0
 62
     1
  6
CONTINUOUS
 10
-2.611893
 20
1.049662
  0
VERTEX
  8
0
 62
     1
  6
CONTINUOUS
 10
-2.621500
 20
1.052272
  0
SEQEND
  8
0
  0
POLYLINE
  8
0
 62
     1
  6
CONTINUOUS
 66
     1
 40
0.003150
 41
0.003150
  0
VERTEX
  8
0
 62
     1
  6
CONTINUOUS
 10
-2.621500
 20
1.052272
  0
VERTEX
  8
0
 62
     1
  6
CONTINUOUS
 10
-2.631107
 20
1.049662
  0
VERTEX
  8
0
 62
     1
  6
CONTINUOUS
 10
-2.637953
 20
1.042816
  0
VERTEX
  8
0
 62
     1
  6
CONTINUOUS
 10
-2.640563
 20
1.033209
  0
SEQEND
  8
0
  0
POLYLINE
  8
0
 62
     1
  6
CONTINUOUS
 66
     1
 40
0.003150
 41
0.003150
  0
VERTEX
  8
0
 62
     1
  6
CONTINUOUS
 10
-2.602437
 20
1.033209
  0
VERTEX
  8
0
 62
     1
  6
CONTINUOUS
 10
-2.605047
 20
1.042816
  0
VERTEX
  8
0
 62
     1
  6
CONTINUOUS
 10
-2.611893
 20
1.049662
  0
VERTEX
  8
0
 62
     1
  6
CONTINUOUS
 10
-2.621500
 20
1.052272
  0
SEQEND
  8
0
  0
POLYLINE
  8
0
 62
     1
  6
CONTINUOUS
 66
     1
 40
0.003150
 41
0.003150
  0
VERTEX
  8
0
 62
     1
  6
CONTINUOUS
 10
-2.621500
 20
1.052272
  0
VERTEX
  8
0
 62
     1
  6
CONTINUOUS
 10
-2.631107
 20
1.049662
  0
VERTEX
  8
0
 62
     1
  6
CONTINUOUS
 10
-2.637953
 20
1.042816
  0
VERTEX
  8
0
 62
     1
  6
CONTINUOUS
 10
-2.640563
 20
1.033209
  0
SEQEND
  8
0
  0
POLYLINE
  8
0
 62
     1
  6
CONTINUOUS
 66
     1
 40
0.003150
 41
0.003150
  0
VERTEX
  8
0
 62
     1
  6
CONTINUOUS
 10
-2.640563
 20
1.027909
  0
VERTEX
  8
0
 62
     1
  6
CONTINUOUS
 10
-2.637953
 20
1.018302
  0
VERTEX
  8
0
 62
     1
  6
CONTINUOUS
 10
-2.631107
 20
1.011456
  0
VERTEX
  8
0
 62
     1
  6
CONTINUOUS
 10
-2.621500
 20
1.008846
  0
SEQEND
  8
0
  0
POLYLINE
  8
0
 62
     1
  6
CONTINUOUS
 66
     1
 40
0.003150
 41
0.003150
  0
VERTEX
  8
0
 62
     1
  6
CONTINUOUS
 10
-2.621500
 20
1.008846
  0
VERTEX
  8
0
 62
     1
  6
CONTINUOUS
 10
-2.611893
 20
1.011456
  0
VERTEX
  8
0
 62
     1
  6
CONTINUOUS
 10
-2.605047
 20
1.018302
  0
VERTEX
  8
0
 62
     1
  6
CONTINUOUS
 10
-2.602437
 20
1.027909
  0
SEQEND
  8
0
  0
POLYLINE
  8
0
 62
     1
  6
CONTINUOUS
 66
     1
 40
0.003150
 41
0.003150
  0
VERTEX
  8
0
 62
     1
  6
CONTINUOUS
 10
-2.640563
 20
1.027909
  0
VERTEX
  8
0
 62
     1
  6
CONTINUOUS
 10
-2.637953
 20
1.018302
  0
VERTEX
  8
0
 62
     1
  6
CONTINUOUS
 10
-2.631107
 20
1.011456
  0
VERTEX
  8
0
 62
     1
  6
CONTINUOUS
 10
-2.621500
 20
1.008846
  0
SEQEND
  8
0
  0
POLYLINE
  8
0
 62
     1
  6
CONTINUOUS
 66
     1
 40
0.003150
 41
0.003150
  0
VERTEX
  8
0
 62
     1
  6
CONTINUOUS
 10
-2.621500
 20
1.008846
  0
VERTEX
  8
0
 62
     1
  6
CONTINUOUS
 10
-2.611893
 20
1.011456
  0
VERTEX
  8
0
 62
     1
  6
CONTINUOUS
 10
-2.605047
 20
1.018302
  0
VERTEX
  8
0
 62
     1
  6
CONTINUOUS
 10
-2.602437
 20
1.027909
  0
SEQEND
  8
0
  0
POLYLINE
  8
0
 62
     1
  6
CONTINUOUS
 66
     1
 40
0.003150
 41
0.003150
  0
VERTEX
  8
0
 62
     1
  6
CONTINUOUS
 10
-2.545894
 20
1.037445
  0
VERTEX
  8
0
 62
     1
  6
CONTINUOUS
 10
-2.547923
 20
1.044918
  0
VERTEX
  8
0
 62
     1
  6
CONTINUOUS
 10
-2.553247
 20
1.050242
  0
VERTEX
  8
0
 62
     1
  6
CONTINUOUS
 10
-2.560720
 20
1.052272
  0
SEQEND
  8
0
  0
POLYLINE
  8
0
 62
     1
  6
CONTINUOUS
 66
     1
 40
0.003150
 41
0.003150
  0
VERTEX
  8
0
 62
     1
  6
CONTINUOUS
 10
-2.560720
 20
1.052272
  0
VERTEX
  8
0
 62
     1
  6
CONTINUOUS
 10
-2.568193
 20
1.050242
  0
VERTEX
  8
0
 62
     1
  6
CONTINUOUS
 10
-2.573518
 20
1.044918
  0
VERTEX
  8
0
 62
     1
  6
CONTINUOUS
 10
-2.575547
 20
1.037445
  0
SEQEND
  8
0
  0
POLYLINE
  8
0
 62
     1
  6
CONTINUOUS
 66
     1
 40
0.003150
 41
0.003150
  0
VERTEX
  8
0
 62
     1
  6
CONTINUOUS
 10
-2.545894
 20
1.037445
  0
VERTEX
  8
0
 62
     1
  6
CONTINUOUS
 10
-2.547923
 20
1.044918
  0
VERTEX
  8
0
 62
     1
  6
CONTINUOUS
 10
-2.553247
 20
1.050242
  0
VERTEX
  8
0
 62
     1
  6
CONTINUOUS
 10
-2.560720
 20
1.052272
  0
SEQEND
  8
0
  0
POLYLINE
  8
0
 62
     1
  6
CONTINUOUS
 66
     1
 40
0.003150
 41
0.003150
  0
VERTEX
  8
0
 62
     1
  6
CONTINUOUS
 10
-2.560720
 20
1.052272
  0
VERTEX
  8
0
 62
     1
  6
CONTINUOUS
 10
-2.568193
 20
1.050242
  0
VERTEX
  8
0
 62
     1
  6
CONTINUOUS
 10
-2.573518
 20
1.044918
  0
VERTEX
  8
0
 62
     1
  6
CONTINUOUS
 10
-2.575547
 20
1.037445
  0
SEQEND
  8
0
  0
POLYLINE
  8
0
 62
     1
  6
CONTINUOUS
 66
     1
 40
0.003150
 41
0.003150
  0
VERTEX
  8
0
 62
     1
  6
CONTINUOUS
 10
-2.537421
 20
1.039563
  0
VERTEX
  8
0
 62
     1
  6
CONTINUOUS
 10
-2.540319
 20
1.050241
  0
VERTEX
  8
0
 62
     1
  6
CONTINUOUS
 10
-2.547925
 20
1.057846
  0
VERTEX
  8
0
 62
     1
  6
CONTINUOUS
 10
-2.558602
 20
1.060744
  0
SEQEND
  8
0
  0
POLYLINE
  8
0
 62
     1
  6
CONTINUOUS
 66
     1
 40
0.003150
 41
0.003150
  0
VERTEX
  8
0
 62
     1
  6
CONTINUOUS
 10
-2.558602
 20
1.060744
  0
VERTEX
  8
0
 62
     1
  6
CONTINUOUS
 10
-2.565061
 20
1.059733
  0
VERTEX
  8
0
 62
     1
  6
CONTINUOUS
 10
-2.570874
 20
1.056847
  0
VERTEX
  8
0
 62
     1
  6
CONTINUOUS
 10
-2.575563
 20
1.052303
  0
SEQEND
  8
0
  0
POLYLINE
  8
0
 62
     1
  6
CONTINUOUS
 66
     1
 40
0.003150
 41
0.003150
  0
VERTEX
  8
0
 62
     1
  6
CONTINUOUS
 10
-2.537421
 20
1.039563
  0
VERTEX
  8
0
 62
     1
  6
CONTINUOUS
 10
-2.540319
 20
1.050241
  0
VERTEX
  8
0
 62
     1
  6
CONTINUOUS
 10
-2.547925
 20
1.057846
  0
VERTEX
  8
0
 62
     1
  6
CONTINUOUS
 10
-2.558602
 20
1.060744
  0
SEQEND
  8
0
  0
POLYLINE
  8
0
 62
     1
  6
CONTINUOUS
 66
     1
 40
0.003150
 41
0.003150
  0
VERTEX
  8
0
 62
     1
  6
CONTINUOUS
 10
-2.558602
 20
1.060744
  0
VERTEX
  8
0
 62
     1
  6
CONTINUOUS
 10
-2.565061
 20
1.059733
  0
VERTEX
  8
0
 62
     1
  6
CONTINUOUS
 10
-2.570874
 20
1.056847
  0
VERTEX
  8
0
 62
     1
  6
CONTINUOUS
 10
-2.575563
 20
1.052303
  0
SEQEND
  8
0
  0
POLYLINE
  8
0
 62
     1
  6
CONTINUOUS
 66
     1
 40
0.003150
 41
0.003150
  0
VERTEX
  8
0
 62
     1
  6
CONTINUOUS
 10
-3.120343
 20
0.840122
  0
VERTEX
  8
0
 62
     1
  6
CONTINUOUS
 10
-3.158203
 20
0.818043
  0
VERTEX
  8
0
 62
     1
  6
CONTINUOUS
 10
-3.158204
 20
0.777007
  0
VERTEX
  8
0
 62
     1
  6
CONTINUOUS
 10
-3.120343
 20
0.754933
  0
VERTEX
  8
0
 62
     1
  6
CONTINUOUS
 10
-3.082480
 20
0.777001
  0
VERTEX
  8
0
 62
     1
  6
CONTINUOUS
 10
-3.082475
 20
0.818035
  0
VERTEX
  8
0
 62
     1
  6
CONTINUOUS
 10
-3.120335
 20
0.840114
  0
VERTEX
  8
0
 62
     1
  6
CONTINUOUS
 10
-3.120337
 20
0.840116
  0
VERTEX
  8
0
 62
     1
  6
CONTINUOUS
 10
-3.120340
 20
0.840120
  0
VERTEX
  8
0
 62
     1
  6
CONTINUOUS
 10
-3.120343
 20
0.840122
  0
SEQEND
  8
0
  0
POLYLINE
  8
0
 62
     1
  6
CONTINUOUS
 66
     1
 40
0.003150
 41
0.003150
  0
VERTEX
  8
0
 62
     1
  6
CONTINUOUS
 10
-3.120343
 20
0.825555
  0
VERTEX
  8
0
 62
     1
  6
CONTINUOUS
 10
-3.145256
 20
0.811026
  0
VERTEX
  8
0
 62
     1
  6
CONTINUOUS
 10
-3.145256
 20
0.784024
  0
VERTEX
  8
0
 62
     1
  6
CONTINUOUS
 10
-3.120343
 20
0.769500
  0
VERTEX
  8
0
 62
     1
  6
CONTINUOUS
 10
-3.095427
 20
0.784019
  0
VERTEX
  8
0
 62
     1
  6
CONTINUOUS
 10
-3.095426
 20
0.811018
  0
VERTEX
  8
0
 62
     1
  6
CONTINUOUS
 10
-3.120343
 20
0.825547
  0
VERTEX
  8
0
 62
     1
  6
CONTINUOUS
 10
-3.120343
 20
0.825549
  0
VERTEX
  8
0
 62
     1
  6
CONTINUOUS
 10
-3.120343
 20
0.825553
  0
VERTEX
  8
0
 62
     1
  6
CONTINUOUS
 10
-3.120343
 20
0.825555
  0
SEQEND
  8
0
  0
POLYLINE
  8
0
 62
     1
  6
CONTINUOUS
 66
     1
 40
0.003150
 41
0.003150
  0
VERTEX
  8
0
 62
     1
  6
CONTINUOUS
 10
-2.561256
 20
0.838303
  0
VERTEX
  8
0
 62
     1
  6
CONTINUOUS
 10
-2.566028
 20
0.838303
  0
SEQEND
  8
0
  0
POLYLINE
  8
0
 62
     1
  6
CONTINUOUS
 66
     1
 40
0.003150
 41
0.003150
  0
VERTEX
  8
0
 62
     1
  6
CONTINUOUS
 10
-2.571319
 20
0.756744
  0
VERTEX
  8
0
 62
     1
  6
CONTINUOUS
 10
-2.579799
 20
0.756744
  0
SEQEND
  8
0
  0
POLYLINE
  8
0
 62
     1
  6
CONTINUOUS
 66
     1
 40
0.003150
 41
0.003150
  0
VERTEX
  8
0
 62
     1
  6
CONTINUOUS
 10
-2.649043
 20
0.784280
  0
VERTEX
  8
0
 62
     1
  6
CONTINUOUS
 10
-2.649043
 20
0.789579
  0
SEQEND
  8
0
  0
POLYLINE
  8
0
 62
     1
  6
CONTINUOUS
 66
     1
 40
0.003150
 41
0.003150
  0
VERTEX
  8
0
 62
     1
  6
CONTINUOUS
 10
-2.593965
 20
0.784280
  0
VERTEX
  8
0
 62
     1
  6
CONTINUOUS
 10
-2.593965
 20
0.789579
  0
SEQEND
  8
0
  0
POLYLINE
  8
0
 62
     1
  6
CONTINUOUS
 66
     1
 40
0.003150
 41
0.003150
  0
VERTEX
  8
0
 62
     1
  6
CONTINUOUS
 10
-2.640571
 20
0.784280
  0
VERTEX
  8
0
 62
     1
  6
CONTINUOUS
 10
-2.640571
 20
0.789579
  0
SEQEND
  8
0
  0
POLYLINE
  8
0
 62
     1
  6
CONTINUOUS
 66
     1
 40
0.003150
 41
0.003150
  0
VERTEX
  8
0
 62
     1
  6
CONTINUOUS
 10
-2.602437
 20
0.784280
  0
VERTEX
  8
0
 62
     1
  6
CONTINUOUS
 10
-2.602437
 20
0.789579
  0
SEQEND
  8
0
  0
POLYLINE
  8
0
 62
     1
  6
CONTINUOUS
 66
     1
 40
0.003150
 41
0.003150
  0
VERTEX
  8
0
 62
     1
  6
CONTINUOUS
 10
-2.589862
 20
0.804406
  0
VERTEX
  8
0
 62
     1
  6
CONTINUOUS
 10
-2.589862
 20
0.812886
  0
SEQEND
  8
0
  0
POLYLINE
  8
0
 62
     1
  6
CONTINUOUS
 66
     1
 40
0.003150
 41
0.003150
  0
VERTEX
  8
0
 62
     1
  6
CONTINUOUS
 10
-2.579799
 20
0.804406
  0
VERTEX
  8
0
 62
     1
  6
CONTINUOUS
 10
-2.589862
 20
0.804406
  0
SEQEND
  8
0
  0
POLYLINE
  8
0
 62
     1
  6
CONTINUOUS
 66
     1
 40
0.003150
 41
0.003150
  0
VERTEX
  8
0
 62
     1
  6
CONTINUOUS
 10
-2.561256
 20
0.804406
  0
VERTEX
  8
0
 62
     1
  6
CONTINUOUS
 10
-2.561256
 20
0.812886
  0
SEQEND
  8
0
  0
POLYLINE
  8
0
 62
     1
  6
CONTINUOUS
 66
     1
 40
0.003150
 41
0.003150
  0
VERTEX
  8
0
 62
     1
  6
CONTINUOUS
 10
-2.579799
 20
0.812886
  0
VERTEX
  8
0
 62
     1
  6
CONTINUOUS
 10
-2.589862
 20
0.812886
  0
SEQEND
  8
0
  0
POLYLINE
  8
0
 62
     1
  6
CONTINUOUS
 66
     1
 40
0.003150
 41
0.003150
  0
VERTEX
  8
0
 62
     1
  6
CONTINUOUS
 10
-2.579799
 20
0.756744
  0
VERTEX
  8
0
 62
     1
  6
CONTINUOUS
 10
-2.579799
 20
0.804406
  0
SEQEND
  8
0
  0
POLYLINE
  8
0
 62
     1
  6
CONTINUOUS
 66
     1
 40
0.003150
 41
0.003150
  0
VERTEX
  8
0
 62
     1
  6
CONTINUOUS
 10
-2.571319
 20
0.756744
  0
VERTEX
  8
0
 62
     1
  6
CONTINUOUS
 10
-2.571319
 20
0.804406
  0
SEQEND
  8
0
  0
POLYLINE
  8
0
 62
     1
  6
CONTINUOUS
 66
     1
 40
0.003150
 41
0.003150
  0
VERTEX
  8
0
 62
     1
  6
CONTINUOUS
 10
-2.561256
 20
0.804406
  0
VERTEX
  8
0
 62
     1
  6
CONTINUOUS
 10
-2.571319
 20
0.804406
  0
SEQEND
  8
0
  0
POLYLINE
  8
0
 62
     1
  6
CONTINUOUS
 66
     1
 40
0.003150
 41
0.003150
  0
VERTEX
  8
0
 62
     1
  6
CONTINUOUS
 10
-2.561256
 20
0.812886
  0
VERTEX
  8
0
 62
     1
  6
CONTINUOUS
 10
-2.571319
 20
0.812886
  0
SEQEND
  8
0
  0
POLYLINE
  8
0
 62
     1
  6
CONTINUOUS
 66
     1
 40
0.003150
 41
0.003150
  0
VERTEX
  8
0
 62
     1
  6
CONTINUOUS
 10
-2.579799
 20
0.812886
  0
VERTEX
  8
0
 62
     1
  6
CONTINUOUS
 10
-2.579799
 20
0.824531
  0
SEQEND
  8
0
  0
POLYLINE
  8
0
 62
     1
  6
CONTINUOUS
 66
     1
 40
0.003150
 41
0.003150
  0
VERTEX
  8
0
 62
     1
  6
CONTINUOUS
 10
-2.571319
 20
0.812886
  0
VERTEX
  8
0
 62
     1
  6
CONTINUOUS
 10
-2.571319
 20
0.824531
  0
SEQEND
  8
0
  0
POLYLINE
  8
0
 62
     1
  6
CONTINUOUS
 66
     1
 40
0.003150
 41
0.003150
  0
VERTEX
  8
0
 62
     1
  6
CONTINUOUS
 10
-2.561256
 20
0.829831
  0
VERTEX
  8
0
 62
     1
  6
CONTINUOUS
 10
-2.561256
 20
0.838303
  0
SEQEND
  8
0
  0
POLYLINE
  8
0
 62
     1
  6
CONTINUOUS
 66
     1
 40
0.003150
 41
0.003150
  0
VERTEX
  8
0
 62
     1
  6
CONTINUOUS
 10
-2.561256
 20
0.829831
  0
VERTEX
  8
0
 62
     1
  6
CONTINUOUS
 10
-2.566028
 20
0.829831
  0
SEQEND
  8
0
  0
POLYLINE
  8
0
 62
     1
  6
CONTINUOUS
 66
     1
 40
0.003150
 41
0.003150
  0
VERTEX
  8
0
 62
     1
  6
CONTINUOUS
 10
-2.525909
 20
0.838303
  0
VERTEX
  8
0
 62
     1
  6
CONTINUOUS
 10
-2.530673
 20
0.838303
  0
SEQEND
  8
0
  0
POLYLINE
  8
0
 62
     1
  6
CONTINUOUS
 66
     1
 40
0.003150
 41
0.003150
  0
VERTEX
  8
0
 62
     1
  6
CONTINUOUS
 10
-2.535972
 20
0.756744
  0
VERTEX
  8
0
 62
     1
  6
CONTINUOUS
 10
-2.544445
 20
0.756744
  0
SEQEND
  8
0
  0
POLYLINE
  8
0
 62
     1
  6
CONTINUOUS
 66
     1
 40
0.003150
 41
0.003150
  0
VERTEX
  8
0
 62
     1
  6
CONTINUOUS
 10
-2.554508
 20
0.804406
  0
VERTEX
  8
0
 62
     1
  6
CONTINUOUS
 10
-2.554508
 20
0.812886
  0
SEQEND
  8
0
  0
POLYLINE
  8
0
 62
     1
  6
CONTINUOUS
 66
     1
 40
0.003150
 41
0.003150
  0
VERTEX
  8
0
 62
     1
  6
CONTINUOUS
 10
-2.544445
 20
0.804406
  0
VERTEX
  8
0
 62
     1
  6
CONTINUOUS
 10
-2.554508
 20
0.804406
  0
SEQEND
  8
0
  0
POLYLINE
  8
0
 62
     1
  6
CONTINUOUS
 66
     1
 40
0.003150
 41
0.003150
  0
VERTEX
  8
0
 62
     1
  6
CONTINUOUS
 10
-2.525909
 20
0.804406
  0
VERTEX
  8
0
 62
     1
  6
CONTINUOUS
 10
-2.525909
 20
0.812886
  0
SEQEND
  8
0
  0
POLYLINE
  8
0
 62
     1
  6
CONTINUOUS
 66
     1
 40
0.003150
 41
0.003150
  0
VERTEX
  8
0
 62
     1
  6
CONTINUOUS
 10
-2.544445
 20
0.812886
  0
VERTEX
  8
0
 62
     1
  6
CONTINUOUS
 10
-2.554508
 20
0.812886
  0
SEQEND
  8
0
  0
POLYLINE
  8
0
 62
     1
  6
CONTINUOUS
 66
     1
 40
0.003150
 41
0.003150
  0
VERTEX
  8
0
 62
     1
  6
CONTINUOUS
 10
-2.544445
 20
0.756744
  0
VERTEX
  8
0
 62
     1
  6
CONTINUOUS
 10
-2.544445
 20
0.804406
  0
SEQEND
  8
0
  0
POLYLINE
  8
0
 62
     1
  6
CONTINUOUS
 66
     1
 40
0.003150
 41
0.003150
  0
VERTEX
  8
0
 62
     1
  6
CONTINUOUS
 10
-2.535972
 20
0.756744
  0
VERTEX
  8
0
 62
     1
  6
CONTINUOUS
 10
-2.535972
 20
0.804406
  0
SEQEND
  8
0
  0
POLYLINE
  8
0
 62
     1
  6
CONTINUOUS
 66
     1
 40
0.003150
 41
0.003150
  0
VERTEX
  8
0
 62
     1
  6
CONTINUOUS
 10
-2.525909
 20
0.804406
  0
VERTEX
  8
0
 62
     1
  6
CONTINUOUS
 10
-2.535972
 20
0.804406
  0
SEQEND
  8
0
  0
POLYLINE
  8
0
 62
     1
  6
CONTINUOUS
 66
     1
 40
0.003150
 41
0.003150
  0
VERTEX
  8
0
 62
     1
  6
CONTINUOUS
 10
-2.525909
 20
0.812886
  0
VERTEX
  8
0
 62
     1
  6
CONTINUOUS
 10
-2.535972
 20
0.812886
  0
SEQEND
  8
0
  0
POLYLINE
  8
0
 62
     1
  6
CONTINUOUS
 66
     1
 40
0.003150
 41
0.003150
  0
VERTEX
  8
0
 62
     1
  6
CONTINUOUS
 10
-2.544445
 20
0.812886
  0
VERTEX
  8
0
 62
     1
  6
CONTINUOUS
 10
-2.544445
 20
0.824531
  0
SEQEND
  8
0
  0
POLYLINE
  8
0
 62
     1
  6
CONTINUOUS
 66
     1
 40
0.003150
 41
0.003150
  0
VERTEX
  8
0
 62
     1
  6
CONTINUOUS
 10
-2.535972
 20
0.812886
  0
VERTEX
  8
0
 62
     1
  6
CONTINUOUS
 10
-2.535972
 20
0.824531
  0
SEQEND
  8
0
  0
POLYLINE
  8
0
 62
     1
  6
CONTINUOUS
 66
     1
 40
0.003150
 41
0.003150
  0
VERTEX
  8
0
 62
     1
  6
CONTINUOUS
 10
-2.525909
 20
0.829831
  0
VERTEX
  8
0
 62
     1
  6
CONTINUOUS
 10
-2.525909
 20
0.838303
  0
SEQEND
  8
0
  0
POLYLINE
  8
0
 62
     1
  6
CONTINUOUS
 66
     1
 40
0.003150
 41
0.003150
  0
VERTEX
  8
0
 62
     1
  6
CONTINUOUS
 10
-2.525909
 20
0.829831
  0
VERTEX
  8
0
 62
     1
  6
CONTINUOUS
 10
-2.530673
 20
0.829831
  0
SEQEND
  8
0
  0
POLYLINE
  8
0
 62
     1
  6
CONTINUOUS
 66
     1
 40
0.003150
 41
0.003150
  0
VERTEX
  8
0
 62
     1
  6
CONTINUOUS
 10
-2.575563
 20
1.000366
  0
VERTEX
  8
0
 62
     1
  6
CONTINUOUS
 10
-2.584035
 20
1.000366
  0
SEQEND
  8
0
  0
POLYLINE
  8
0
 62
     1
  6
CONTINUOUS
 66
     1
 40
0.003150
 41
0.003150
  0
VERTEX
  8
0
 62
     1
  6
CONTINUOUS
 10
-2.602437
 20
1.027909
  0
VERTEX
  8
0
 62
     1
  6
CONTINUOUS
 10
-2.602437
 20
1.033209
  0
SEQEND
  8
0
  0
POLYLINE
  8
0
 62
     1
  6
CONTINUOUS
 66
     1
 40
0.003150
 41
0.003150
  0
VERTEX
  8
0
 62
     1
  6
CONTINUOUS
 10
-2.593965
 20
1.027909
  0
VERTEX
  8
0
 62
     1
  6
CONTINUOUS
 10
-2.593965
 20
1.033209
  0
SEQEND
  8
0
  0
POLYLINE
  8
0
 62
     1
  6
CONTINUOUS
 66
     1
 40
0.003150
 41
0.003150
  0
VERTEX
  8
0
 62
     1
  6
CONTINUOUS
 10
-2.640571
 20
1.027909
  0
VERTEX
  8
0
 62
     1
  6
CONTINUOUS
 10
-2.640571
 20
1.033209
  0
SEQEND
  8
0
  0
POLYLINE
  8
0
 62
     1
  6
CONTINUOUS
 66
     1
 40
0.003150
 41
0.003150
  0
VERTEX
  8
0
 62
     1
  6
CONTINUOUS
 10
-2.649043
 20
1.027909
  0
VERTEX
  8
0
 62
     1
  6
CONTINUOUS
 10
-2.649043
 20
1.033209
  0
SEQEND
  8
0
  0
POLYLINE
  8
0
 62
     1
  6
CONTINUOUS
 66
     1
 40
0.003150
 41
0.003150
  0
VERTEX
  8
0
 62
     1
  6
CONTINUOUS
 10
-2.584035
 20
1.000366
  0
VERTEX
  8
0
 62
     1
  6
CONTINUOUS
 10
-2.584035
 20
1.060744
  0
SEQEND
  8
0
  0
POLYLINE
  8
0
 62
     1
  6
CONTINUOUS
 66
     1
 40
0.003150
 41
0.003150
  0
VERTEX
  8
0
 62
     1
  6
CONTINUOUS
 10
-2.575563
 20
1.000366
  0
VERTEX
  8
0
 62
     1
  6
CONTINUOUS
 10
-2.575563
 20
1.037445
  0
SEQEND
  8
0
  0
POLYLINE
  8
0
 62
     1
  6
CONTINUOUS
 66
     1
 40
0.003150
 41
0.003150
  0
VERTEX
  8
0
 62
     1
  6
CONTINUOUS
 10
-2.545902
 20
1.000366
  0
VERTEX
  8
0
 62
     1
  6
CONTINUOUS
 10
-2.545902
 20
1.037445
  0
SEQEND
  8
0
  0
POLYLINE
  8
0
 62
     1
  6
CONTINUOUS
 66
     1
 40
0.003150
 41
0.003150
  0
VERTEX
  8
0
 62
     1
  6
CONTINUOUS
 10
-2.537429
 20
1.000366
  0
VERTEX
  8
0
 62
     1
  6
CONTINUOUS
 10
-2.537429
 20
1.039563
  0
SEQEND
  8
0
  0
POLYLINE
  8
0
 62
     1
  6
CONTINUOUS
 66
     1
 40
0.003150
 41
0.003150
  0
VERTEX
  8
0
 62
     1
  6
CONTINUOUS
 10
-2.575563
 20
1.060744
  0
VERTEX
  8
0
 62
     1
  6
CONTINUOUS
 10
-2.584035
 20
1.060744
  0
SEQEND
  8
0
  0
POLYLINE
  8
0
 62
     1
  6
CONTINUOUS
 66
     1
 40
0.003150
 41
0.003150
  0
VERTEX
  8
0
 62
     1
  6
CONTINUOUS
 10
-2.575563
 20
1.052272
  0
VERTEX
  8
0
 62
     1
  6
CONTINUOUS
 10
-2.575563
 20
1.060744
  0
SEQEND
  8
0
  0
POLYLINE
  8
0
 62
     1
  6
CONTINUOUS
 66
     1
 40
0.003150
 41
0.003150
  0
VERTEX
  8
0
 62
     1
  6
CONTINUOUS
 10
-2.537429
 20
1.000366
  0
VERTEX
  8
0
 62
     1
  6
CONTINUOUS
 10
-2.545902
 20
1.000366
  0
SEQEND
  8
0
  0
POLYLINE
  8
0
 62
     1
  6
CONTINUOUS
 66
     1
 40
0.003150
 41
0.003150
  0
VERTEX
  8
0
 62
     1
  6
CONTINUOUS
 10
-3.113059
 20
1.073161
  0
VERTEX
  8
0
 62
     1
  6
CONTINUOUS
 10
-3.127626
 20
1.073161
  0
SEQEND
  8
0
  0
POLYLINE
  8
0
 62
     1
  6
CONTINUOUS
 66
     1
 40
0.003150
 41
0.003150
  0
VERTEX
  8
0
 62
     1
  6
CONTINUOUS
 10
-3.113059
 20
0.987957
  0
VERTEX
  8
0
 62
     1
  6
CONTINUOUS
 10
-3.127626
 20
0.987957
  0
SEQEND
  8
0
  0
POLYLINE
  8
0
 62
     1
  6
CONTINUOUS
 66
     1
 40
0.003150
 41
0.003150
  0
VERTEX
  8
0
 62
     1
  6
CONTINUOUS
 10
-3.113059
 20
0.987957
  0
VERTEX
  8
0
 62
     1
  6
CONTINUOUS
 10
-3.113059
 20
1.073161
  0
SEQEND
  8
0
  0
POLYLINE
  8
0
 62
     1
  6
CONTINUOUS
 66
     1
 40
0.003150
 41
0.003150
  0
VERTEX
  8
0
 62
     1
  6
CONTINUOUS
 10
-3.127626
 20
0.987957
  0
VERTEX
  8
0
 62
     1
  6
CONTINUOUS
 10
-3.127626
 20
1.073161
  0
SEQEND
  8
0
  0
POLYLINE
  8
0
 62
     1
  6
CONTINUOUS
 66
     1
 40
0.003150
 41
0.003150
  0
VERTEX
  8
0
 62
     1
  6
CONTINUOUS
 10
-2.927350
 20
-0.884091
  0
VERTEX
  8
0
 62
     1
  6
CONTINUOUS
 10
-2.925357
 20
-0.891428
  0
VERTEX
  8
0
 62
     1
  6
CONTINUOUS
 10
-2.920128
 20
-0.896656
  0
VERTEX
  8
0
 62
     1
  6
CONTINUOUS
 10
-2.912791
 20
-0.898650
  0
SEQEND
  8
0
  0
POLYLINE
  8
0
 62
     1
  6
CONTINUOUS
 66
     1
 40
0.003150
 41
0.003150
  0
VERTEX
  8
0
 62
     1
  6
CONTINUOUS
 10
-2.927350
 20
-0.884091
  0
VERTEX
  8
0
 62
     1
  6
CONTINUOUS
 10
-2.925357
 20
-0.891428
  0
VERTEX
  8
0
 62
     1
  6
CONTINUOUS
 10
-2.920128
 20
-0.896656
  0
VERTEX
  8
0
 62
     1
  6
CONTINUOUS
 10
-2.912791
 20
-0.898650
  0
SEQEND
  8
0
  0
POLYLINE
  8
0
 62
     1
  6
CONTINUOUS
 66
     1
 40
0.003150
 41
0.003150
  0
VERTEX
  8
0
 62
     1
  6
CONTINUOUS
 10
-2.796272
 20
-0.898650
  0
VERTEX
  8
0
 62
     1
  6
CONTINUOUS
 10
-2.788935
 20
-0.896656
  0
VERTEX
  8
0
 62
     1
  6
CONTINUOUS
 10
-2.783706
 20
-0.891428
  0
VERTEX
  8
0
 62
     1
  6
CONTINUOUS
 10
-2.781713
 20
-0.884091
  0
SEQEND
  8
0
  0
POLYLINE
  8
0
 62
     1
  6
CONTINUOUS
 66
     1
 40
0.003150
 41
0.003150
  0
VERTEX
  8
0
 62
     1
  6
CONTINUOUS
 10
-2.796272
 20
-0.898650
  0
VERTEX
  8
0
 62
     1
  6
CONTINUOUS
 10
-2.788935
 20
-0.896656
  0
VERTEX
  8
0
 62
     1
  6
CONTINUOUS
 10
-2.783706
 20
-0.891428
  0
VERTEX
  8
0
 62
     1
  6
CONTINUOUS
 10
-2.781713
 20
-0.884091
  0
SEQEND
  8
0
  0
POLYLINE
  8
0
 62
     1
  6
CONTINUOUS
 66
     1
 40
0.003150
 41
0.003150
  0
VERTEX
  8
0
 62
     1
  6
CONTINUOUS
 10
-2.752579
 20
-0.956909
  0
VERTEX
  8
0
 62
     1
  6
CONTINUOUS
 10
-2.730556
 20
-0.950929
  0
VERTEX
  8
0
 62
     1
  6
CONTINUOUS
 10
-2.714866
 20
-0.935239
  0
VERTEX
  8
0
 62
     1
  6
CONTINUOUS
 10
-2.708886
 20
-0.913217
  0
SEQEND
  8
0
  0
POLYLINE
  8
0
 62
     1
  6
CONTINUOUS
 66
     1
 40
0.003150
 41
0.003150
  0
VERTEX
  8
0
 62
     1
  6
CONTINUOUS
 10
-2.752579
 20
-0.956909
  0
VERTEX
  8
0
 62
     1
  6
CONTINUOUS
 10
-2.730556
 20
-0.950929
  0
VERTEX
  8
0
 62
     1
  6
CONTINUOUS
 10
-2.714866
 20
-0.935239
  0
VERTEX
  8
0
 62
     1
  6
CONTINUOUS
 10
-2.708886
 20
-0.913217
  0
SEQEND
  8
0
  0
POLYLINE
  8
0
 62
     1
  6
CONTINUOUS
 66
     1
 40
0.003150
 41
0.003150
  0
VERTEX
  8
0
 62
     1
  6
CONTINUOUS
 10
-3.000177
 20
-0.913217
  0
VERTEX
  8
0
 62
     1
  6
CONTINUOUS
 10
-2.994197
 20
-0.935239
  0
VERTEX
  8
0
 62
     1
  6
CONTINUOUS
 10
-2.978507
 20
-0.950929
  0
VERTEX
  8
0
 62
     1
  6
CONTINUOUS
 10
-2.956484
 20
-0.956909
  0
SEQEND
  8
0
  0
POLYLINE
  8
0
 62
     1
  6
CONTINUOUS
 66
     1
 40
0.003150
 41
0.003150
  0
VERTEX
  8
0
 62
     1
  6
CONTINUOUS
 10
-3.000177
 20
-0.913217
  0
VERTEX
  8
0
 62
     1
  6
CONTINUOUS
 10
-2.994197
 20
-0.935239
  0
VERTEX
  8
0
 62
     1
  6
CONTINUOUS
 10
-2.978507
 20
-0.950929
  0
VERTEX
  8
0
 62
     1
  6
CONTINUOUS
 10
-2.956484
 20
-0.956909
  0
SEQEND
  8
0
  0
POLYLINE
  8
0
 62
     1
  6
CONTINUOUS
 66
     1
 40
0.003150
 41
0.003150
  0
VERTEX
  8
0
 62
     1
  6
CONTINUOUS
 10
-3.564547
 20
-0.884091
  0
VERTEX
  8
0
 62
     1
  6
CONTINUOUS
 10
-3.562554
 20
-0.891428
  0
VERTEX
  8
0
 62
     1
  6
CONTINUOUS
 10
-3.557325
 20
-0.896656
  0
VERTEX
  8
0
 62
     1
  6
CONTINUOUS
 10
-3.549988
 20
-0.898650
  0
SEQEND
  8
0
  0
POLYLINE
  8
0
 62
     1
  6
CONTINUOUS
 66
     1
 40
0.003150
 41
0.003150
  0
VERTEX
  8
0
 62
     1
  6
CONTINUOUS
 10
-3.564547
 20
-0.884091
  0
VERTEX
  8
0
 62
     1
  6
CONTINUOUS
 10
-3.562554
 20
-0.891428
  0
VERTEX
  8
0
 62
     1
  6
CONTINUOUS
 10
-3.557325
 20
-0.896656
  0
VERTEX
  8
0
 62
     1
  6
CONTINUOUS
 10
-3.549988
 20
-0.898650
  0
SEQEND
  8
0
  0
POLYLINE
  8
0
 62
     1
  6
CONTINUOUS
 66
     1
 40
0.003150
 41
0.003150
  0
VERTEX
  8
0
 62
     1
  6
CONTINUOUS
 10
-3.433469
 20
-0.898650
  0
VERTEX
  8
0
 62
     1
  6
CONTINUOUS
 10
-3.426131
 20
-0.896656
  0
VERTEX
  8
0
 62
     1
  6
CONTINUOUS
 10
-3.420903
 20
-0.891428
  0
VERTEX
  8
0
 62
     1
  6
CONTINUOUS
 10
-3.418909
 20
-0.884091
  0
SEQEND
  8
0
  0
POLYLINE
  8
0
 62
     1
  6
CONTINUOUS
 66
     1
 40
0.003150
 41
0.003150
  0
VERTEX
  8
0
 62
     1
  6
CONTINUOUS
 10
-3.433469
 20
-0.898650
  0
VERTEX
  8
0
 62
     1
  6
CONTINUOUS
 10
-3.426131
 20
-0.896656
  0
VERTEX
  8
0
 62
     1
  6
CONTINUOUS
 10
-3.420903
 20
-0.891428
  0
VERTEX
  8
0
 62
     1
  6
CONTINUOUS
 10
-3.418909
 20
-0.884091
  0
SEQEND
  8
0
  0
POLYLINE
  8
0
 62
     1
  6
CONTINUOUS
 66
     1
 40
0.003150
 41
0.003150
  0
VERTEX
  8
0
 62
     1
  6
CONTINUOUS
 10
-3.389776
 20
-0.956909
  0
VERTEX
  8
0
 62
     1
  6
CONTINUOUS
 10
-3.367753
 20
-0.950929
  0
VERTEX
  8
0
 62
     1
  6
CONTINUOUS
 10
-3.352063
 20
-0.935239
  0
VERTEX
  8
0
 62
     1
  6
CONTINUOUS
 10
-3.346083
 20
-0.913217
  0
SEQEND
  8
0
  0
POLYLINE
  8
0
 62
     1
  6
CONTINUOUS
 66
     1
 40
0.003150
 41
0.003150
  0
VERTEX
  8
0
 62
     1
  6
CONTINUOUS
 10
-3.389776
 20
-0.956909
  0
VERTEX
  8
0
 62
     1
  6
CONTINUOUS
 10
-3.367753
 20
-0.950929
  0
VERTEX
  8
0
 62
     1
  6
CONTINUOUS
 10
-3.352063
 20
-0.935239
  0
VERTEX
  8
0
 62
     1
  6
CONTINUOUS
 10
-3.346083
 20
-0.913217
  0
SEQEND
  8
0
  0
POLYLINE
  8
0
 62
     1
  6
CONTINUOUS
 66
     1
 40
0.003150
 41
0.003150
  0
VERTEX
  8
0
 62
     1
  6
CONTINUOUS
 10
-3.637374
 20
-0.913217
  0
VERTEX
  8
0
 62
     1
  6
CONTINUOUS
 10
-3.631394
 20
-0.935239
  0
VERTEX
  8
0
 62
     1
  6
CONTINUOUS
 10
-3.615704
 20
-0.950929
  0
VERTEX
  8
0
 62
     1
  6
CONTINUOUS
 10
-3.593681
 20
-0.956909
  0
SEQEND
  8
0
  0
POLYLINE
  8
0
 62
     1
  6
CONTINUOUS
 66
     1
 40
0.003150
 41
0.003150
  0
VERTEX
  8
0
 62
     1
  6
CONTINUOUS
 10
-3.637374
 20
-0.913217
  0
VERTEX
  8
0
 62
     1
  6
CONTINUOUS
 10
-3.631394
 20
-0.935239
  0
VERTEX
  8
0
 62
     1
  6
CONTINUOUS
 10
-3.615704
 20
-0.950929
  0
VERTEX
  8
0
 62
     1
  6
CONTINUOUS
 10
-3.593681
 20
-0.956909
  0
SEQEND
  8
0
  0
POLYLINE
  8
0
 62
     1
  6
CONTINUOUS
 66
     1
 40
0.003150
 41
0.003150
  0
VERTEX
  8
0
 62
     1
  6
CONTINUOUS
 10
-2.752587
 20
-0.956917
  0
VERTEX
  8
0
 62
     1
  6
CONTINUOUS
 10
-2.956492
 20
-0.956917
  0
SEQEND
  8
0
  0
POLYLINE
  8
0
 62
     1
  6
CONTINUOUS
 66
     1
 40
0.003150
 41
0.003150
  0
VERTEX
  8
0
 62
     1
  6
CONTINUOUS
 10
-2.708894
 20
-0.913224
  0
VERTEX
  8
0
 62
     1
  6
CONTINUOUS
 10
-2.708894
 20
-0.848272
  0
SEQEND
  8
0
  0
POLYLINE
  8
0
 62
     1
  6
CONTINUOUS
 66
     1
 40
0.003150
 41
0.003150
  0
VERTEX
  8
0
 62
     1
  6
CONTINUOUS
 10
-3.000185
 20
-0.913224
  0
VERTEX
  8
0
 62
     1
  6
CONTINUOUS
 10
-3.000185
 20
-0.848272
  0
SEQEND
  8
0
  0
POLYLINE
  8
0
 62
     1
  6
CONTINUOUS
 66
     1
 40
0.003150
 41
0.003150
  0
VERTEX
  8
0
 62
     1
  6
CONTINUOUS
 10
-2.796280
 20
-0.898657
  0
VERTEX
  8
0
 62
     1
  6
CONTINUOUS
 10
-2.912799
 20
-0.898657
  0
SEQEND
  8
0
  0
POLYLINE
  8
0
 62
     1
  6
CONTINUOUS
 66
     1
 40
0.003150
 41
0.003150
  0
VERTEX
  8
0
 62
     1
  6
CONTINUOUS
 10
-2.781713
 20
-0.884098
  0
VERTEX
  8
0
 62
     1
  6
CONTINUOUS
 10
-2.781713
 20
-0.848272
  0
SEQEND
  8
0
  0
POLYLINE
  8
0
 62
     1
  6
CONTINUOUS
 66
     1
 40
0.003150
 41
0.003150
  0
VERTEX
  8
0
 62
     1
  6
CONTINUOUS
 10
-2.927358
 20
-0.884098
  0
VERTEX
  8
0
 62
     1
  6
CONTINUOUS
 10
-2.927358
 20
-0.848272
  0
SEQEND
  8
0
  0
POLYLINE
  8
0
 62
     1
  6
CONTINUOUS
 66
     1
 40
0.003150
 41
0.003150
  0
VERTEX
  8
0
 62
     1
  6
CONTINUOUS
 10
-3.564563
 20
-0.884098
  0
VERTEX
  8
0
 62
     1
  6
CONTINUOUS
 10
-3.564563
 20
-0.848272
  0
SEQEND
  8
0
  0
POLYLINE
  8
0
 62
     1
  6
CONTINUOUS
 66
     1
 40
0.003150
 41
0.003150
  0
VERTEX
  8
0
 62
     1
  6
CONTINUOUS
 10
-3.433476
 20
-0.898657
  0
VERTEX
  8
0
 62
     1
  6
CONTINUOUS
 10
-3.549996
 20
-0.898657
  0
SEQEND
  8
0
  0
POLYLINE
  8
0
 62
     1
  6
CONTINUOUS
 66
     1
 40
0.003150
 41
0.003150
  0
VERTEX
  8
0
 62
     1
  6
CONTINUOUS
 10
-3.418917
 20
-0.884098
  0
VERTEX
  8
0
 62
     1
  6
CONTINUOUS
 10
-3.418917
 20
-0.848272
  0
SEQEND
  8
0
  0
POLYLINE
  8
0
 62
     1
  6
CONTINUOUS
 66
     1
 40
0.003150
 41
0.003150
  0
VERTEX
  8
0
 62
     1
  6
CONTINUOUS
 10
-3.346091
 20
-0.913224
  0
VERTEX
  8
0
 62
     1
  6
CONTINUOUS
 10
-3.346091
 20
-0.848272
  0
SEQEND
  8
0
  0
POLYLINE
  8
0
 62
     1
  6
CONTINUOUS
 66
     1
 40
0.003150
 41
0.003150
  0
VERTEX
  8
0
 62
     1
  6
CONTINUOUS
 10
-3.389783
 20
-0.956917
  0
VERTEX
  8
0
 62
     1
  6
CONTINUOUS
 10
-3.593689
 20
-0.956917
  0
SEQEND
  8
0
  0
POLYLINE
  8
0
 62
     1
  6
CONTINUOUS
 66
     1
 40
0.003150
 41
0.003150
  0
VERTEX
  8
0
 62
     1
  6
CONTINUOUS
 10
-3.637382
 20
-0.913224
  0
VERTEX
  8
0
 62
     1
  6
CONTINUOUS
 10
-3.637382
 20
-0.848272
  0
SEQEND
  8
0
  0
POLYLINE
  8
0
 62
     1
  6
CONTINUOUS
 66
     1
 40
0.003150
 41
0.003150
  0
VERTEX
  8
0
 62
     1
  6
CONTINUOUS
 10
-4.511264
 20
1.460217
  0
VERTEX
  8
0
 62
     1
  6
CONTINUOUS
 10
-4.689429
 20
1.460217
  0
SEQEND
  8
0
  0
POLYLINE
  8
0
 62
     1
  6
CONTINUOUS
 66
     1
 40
0.003150
 41
0.003150
  0
VERTEX
  8
0
 62
     1
  6
CONTINUOUS
 10
-1.702650
 20
1.460217
  0
VERTEX
  8
0
 62
     1
  6
CONTINUOUS
 10
-1.835012
 20
1.460217
  0
SEQEND
  8
0
  0
POLYLINE
  8
0
 62
     1
  6
CONTINUOUS
 66
     1
 40
0.003150
 41
0.003150
  0
VERTEX
  8
0
 62
     1
  6
CONTINUOUS
 10
-4.511264
 20
0.367870
  0
VERTEX
  8
0
 62
     1
  6
CONTINUOUS
 10
-4.689429
 20
0.367870
  0
SEQEND
  8
0
  0
POLYLINE
  8
0
 62
     1
  6
CONTINUOUS
 66
     1
 40
0.003150
 41
0.003150
  0
VERTEX
  8
0
 62
     1
  6
CONTINUOUS
 10
-1.702650
 20
0.367870
  0
VERTEX
  8
0
 62
     1
  6
CONTINUOUS
 10
-1.835012
 20
0.367870
  0
SEQEND
  8
0
  0
POLYLINE
  8
0
 62
     1
  6
CONTINUOUS
 66
     1
 40
0.003150
 41
0.003150
  0
VERTEX
  8
0
 62
     1
  6
CONTINUOUS
 10
-4.511264
 20
1.234461
  0
VERTEX
  8
0
 62
     1
  6
CONTINUOUS
 10
-4.689429
 20
1.234461
  0
SEQEND
  8
0
  0
POLYLINE
  8
0
 62
     1
  6
CONTINUOUS
 66
     1
 40
0.003150
 41
0.003150
  0
VERTEX
  8
0
 62
     1
  6
CONTINUOUS
 10
-1.702650
 20
1.234461
  0
VERTEX
  8
0
 62
     1
  6
CONTINUOUS
 10
-1.835012
 20
1.234461
  0
SEQEND
  8
0
  0
POLYLINE
  8
0
 62
     1
  6
CONTINUOUS
 66
     1
 40
0.003150
 41
0.003150
  0
VERTEX
  8
0
 62
     1
  6
CONTINUOUS
 10
-4.511264
 20
0.593618
  0
VERTEX
  8
0
 62
     1
  6
CONTINUOUS
 10
-4.689429
 20
0.593618
  0
SEQEND
  8
0
  0
POLYLINE
  8
0
 62
     1
  6
CONTINUOUS
 66
     1
 40
0.003150
 41
0.003150
  0
VERTEX
  8
0
 62
     1
  6
CONTINUOUS
 10
-1.702650
 20
0.593618
  0
VERTEX
  8
0
 62
     1
  6
CONTINUOUS
 10
-1.835012
 20
0.593618
  0
SEQEND
  8
0
  0
TEXT
  8
0
 62
     1
 10
-0.853909
 20
1.015087
 40
0.098858
  1
254
 50
90.000647
 41
1.000000
  7
SN0
 71
     0
 72
     5
 11
-0.853909
 21
1.214813
  0
POLYLINE
  8
0
 62
     1
  6
CONTINUOUS
 66
     1
 40
0.003150
 41
0.003150
  0
VERTEX
  8
0
 62
     1
  6
CONTINUOUS
 10
-4.689429
 20
0.367870
  0
VERTEX
  8
0
 62
     1
  6
CONTINUOUS
 10
-4.689429
 20
1.460217
  0
SEQEND
  8
0
  0
POLYLINE
  8
0
 62
     1
  6
CONTINUOUS
 66
     1
 40
0.003150
 41
0.003150
  0
VERTEX
  8
0
 62
     1
  6
CONTINUOUS
 10
-1.702650
 20
0.367870
  0
VERTEX
  8
0
 62
     1
  6
CONTINUOUS
 10
-1.702650
 20
1.460217
  0
SEQEND
  8
0
  0
POLYLINE
  8
0
 62
     1
  6
CONTINUOUS
 66
     1
 40
0.003150
 41
0.003150
  0
VERTEX
  8
0
 62
     1
  6
CONTINUOUS
 10
-1.856862
 20
-0.811854
  0
VERTEX
  8
0
 62
     1
  6
CONTINUOUS
 10
-0.722823
 20
-0.811854
  0
SEQEND
  8
0
  0
POLYLINE
  8
0
 62
     1
  6
CONTINUOUS
 66
     1
 40
0.003150
 41
0.003150
  0
VERTEX
  8
0
 62
     1
  6
CONTINUOUS
 10
-1.856862
 20
2.887547
  0
VERTEX
  8
0
 62
     1
  6
CONTINUOUS
 10
-0.722823
 20
2.887547
  0
SEQEND
  8
0
  0
POLYLINE
  8
0
 62
     1
  6
CONTINUOUS
 66
     1
 40
0.003150
 41
0.003150
  0
VERTEX
  8
0
 62
     1
  6
CONTINUOUS
 10
-0.781083
 20
-0.811854
  0
VERTEX
  8
0
 62
     1
  6
CONTINUOUS
 10
-0.781083
 20
2.887547
  0
SEQEND
  8
0
  0
POLYLINE
  8
0
 62
     1
  6
CONTINUOUS
 66
     1
 40
0.003150
 41
0.003150
  0
VERTEX
  8
0
 62
     1
  6
CONTINUOUS
 10
-0.796256
 20
-0.725799
  0
VERTEX
  8
0
 62
     1
  6
CONTINUOUS
 10
-0.781083
 20
-0.811854
  0
SEQEND
  8
0
  0
POLYLINE
  8
0
 62
     1
  6
CONTINUOUS
 66
     1
 40
0.003150
 41
0.003150
  0
VERTEX
  8
0
 62
     1
  6
CONTINUOUS
 10
-0.781083
 20
-0.811854
  0
VERTEX
  8
0
 62
     1
  6
CONTINUOUS
 10
-0.765909
 20
-0.725799
  0
SEQEND
  8
0
  0
POLYLINE
  8
0
 62
     1
  6
CONTINUOUS
 66
     1
 40
0.003150
 41
0.003150
  0
VERTEX
  8
0
 62
     1
  6
CONTINUOUS
 10
-0.765909
 20
2.801484
  0
VERTEX
  8
0
 62
     1
  6
CONTINUOUS
 10
-0.781083
 20
2.887547
  0
SEQEND
  8
0
  0
POLYLINE
  8
0
 62
     1
  6
CONTINUOUS
 66
     1
 40
0.003150
 41
0.003150
  0
VERTEX
  8
0
 62
     1
  6
CONTINUOUS
 10
-0.781083
 20
2.887547
  0
VERTEX
  8
0
 62
     1
  6
CONTINUOUS
 10
-0.796256
 20
2.801484
  0
SEQEND
  8
0
  0
TEXT
  8
0
 62
     1
 10
-1.075685
 20
1.940646
 40
0.098858
  1
125,25
 50
90.000647
 41
1.000000
  7
SN0
 71
     0
 72
     5
 11
-1.075685
 21
2.307086
  0
POLYLINE
  8
0
 62
     1
  6
CONTINUOUS
 66
     1
 40
0.003150
 41
0.003150
  0
VERTEX
  8
0
 62
     1
  6
CONTINUOUS
 10
-1.530067
 20
1.063327
  0
VERTEX
  8
0
 62
     1
  6
CONTINUOUS
 10
-0.944602
 20
1.063327
  0
SEQEND
  8
0
  0
POLYLINE
  8
0
 62
     1
  6
CONTINUOUS
 66
     1
 40
0.003150
 41
0.003150
  0
VERTEX
  8
0
 62
     1
  6
CONTINUOUS
 10
-1.856862
 20
2.887547
  0
VERTEX
  8
0
 62
     1
  6
CONTINUOUS
 10
-0.944602
 20
2.887547
  0
SEQEND
  8
0
  0
POLYLINE
  8
0
 62
     1
  6
CONTINUOUS
 66
     1
 40
0.003150
 41
0.003150
  0
VERTEX
  8
0
 62
     1
  6
CONTINUOUS
 10
-1.002862
 20
1.063327
  0
VERTEX
  8
0
 62
     1
  6
CONTINUOUS
 10
-1.002862
 20
2.887547
  0
SEQEND
  8
0
  0
POLYLINE
  8
0
 62
     1
  6
CONTINUOUS
 66
     1
 40
0.003150
 41
0.003150
  0
VERTEX
  8
0
 62
     1
  6
CONTINUOUS
 10
-1.018035
 20
1.149390
  0
VERTEX
  8
0
 62
     1
  6
CONTINUOUS
 10
-1.002862
 20
1.063327
  0
SEQEND
  8
0
  0
POLYLINE
  8
0
 62
     1
  6
CONTINUOUS
 66
     1
 40
0.003150
 41
0.003150
  0
VERTEX
  8
0
 62
     1
  6
CONTINUOUS
 10
-1.002862
 20
1.063327
  0
VERTEX
  8
0
 62
     1
  6
CONTINUOUS
 10
-0.987689
 20
1.149390
  0
SEQEND
  8
0
  0
POLYLINE
  8
0
 62
     1
  6
CONTINUOUS
 66
     1
 40
0.003150
 41
0.003150
  0
VERTEX
  8
0
 62
     1
  6
CONTINUOUS
 10
-0.987689
 20
2.801484
  0
VERTEX
  8
0
 62
     1
  6
CONTINUOUS
 10
-1.002862
 20
2.887547
  0
SEQEND
  8
0
  0
POLYLINE
  8
0
 62
     1
  6
CONTINUOUS
 66
     1
 40
0.003150
 41
0.003150
  0
VERTEX
  8
0
 62
     1
  6
CONTINUOUS
 10
-1.002862
 20
2.887547
  0
VERTEX
  8
0
 62
     1
  6
CONTINUOUS
 10
-1.018035
 20
2.801484
  0
SEQEND
  8
0
  0
TEXT
  8
0
 62
     1
 10
-1.313378
 20
0.866894
 40
0.098858
  1
218
 50
90.000647
 41
1.000000
  7
SN0
 71
     0
 72
     5
 11
-1.313378
 21
1.066620
  0
POLYLINE
  8
0
 62
     1
  6
CONTINUOUS
 66
     1
 40
0.003150
 41
0.003150
  0
VERTEX
  8
0
 62
     1
  6
CONTINUOUS
 10
-1.896878
 20
-0.549697
  0
VERTEX
  8
0
 62
     1
  6
CONTINUOUS
 10
-1.182295
 20
-0.549697
  0
SEQEND
  8
0
  0
POLYLINE
  8
0
 62
     1
  6
CONTINUOUS
 66
     1
 40
0.003150
 41
0.003150
  0
VERTEX
  8
0
 62
     1
  6
CONTINUOUS
 10
-1.896878
 20
2.625382
  0
VERTEX
  8
0
 62
     1
  6
CONTINUOUS
 10
-1.182295
 20
2.625382
  0
SEQEND
  8
0
  0
POLYLINE
  8
0
 62
     1
  6
CONTINUOUS
 66
     1
 40
0.003150
 41
0.003150
  0
VERTEX
  8
0
 62
     1
  6
CONTINUOUS
 10
-1.240555
 20
-0.549697
  0
VERTEX
  8
0
 62
     1
  6
CONTINUOUS
 10
-1.240555
 20
2.625382
  0
SEQEND
  8
0
  0
POLYLINE
  8
0
 62
     1
  6
CONTINUOUS
 66
     1
 40
0.003150
 41
0.003150
  0
VERTEX
  8
0
 62
     1
  6
CONTINUOUS
 10
-1.255728
 20
-0.463634
  0
VERTEX
  8
0
 62
     1
  6
CONTINUOUS
 10
-1.240555
 20
-0.549697
  0
SEQEND
  8
0
  0
POLYLINE
  8
0
 62
     1
  6
CONTINUOUS
 66
     1
 40
0.003150
 41
0.003150
  0
VERTEX
  8
0
 62
     1
  6
CONTINUOUS
 10
-1.240555
 20
-0.549697
  0
VERTEX
  8
0
 62
     1
  6
CONTINUOUS
 10
-1.225382
 20
-0.463634
  0
SEQEND
  8
0
  0
POLYLINE
  8
0
 62
     1
  6
CONTINUOUS
 66
     1
 40
0.003150
 41
0.003150
  0
VERTEX
  8
0
 62
     1
  6
CONTINUOUS
 10
-1.225382
 20
2.539319
  0
VERTEX
  8
0
 62
     1
  6
CONTINUOUS
 10
-1.240555
 20
2.625382
  0
SEQEND
  8
0
  0
POLYLINE
  8
0
 62
     1
  6
CONTINUOUS
 66
     1
 40
0.003150
 41
0.003150
  0
VERTEX
  8
0
 62
     1
  6
CONTINUOUS
 10
-1.240555
 20
2.625382
  0
VERTEX
  8
0
 62
     1
  6
CONTINUOUS
 10
-1.255728
 20
2.539319
  0
SEQEND
  8
0
  0
TEXT
  8
0
 62
     1
 10
-1.545768
 20
1.809567
 40
0.098858
  1
107,25
 50
90.000647
 41
1.000000
  7
SN0
 71
     0
 72
     5
 11
-1.545768
 21
2.176007
  0
POLYLINE
  8
0
 62
     1
  6
CONTINUOUS
 66
     1
 40
0.003150
 41
0.003150
  0
VERTEX
  8
0
 62
     1
  6
CONTINUOUS
 10
-1.530067
 20
1.063327
  0
VERTEX
  8
0
 62
     1
  6
CONTINUOUS
 10
-1.414681
 20
1.063327
  0
SEQEND
  8
0
  0
POLYLINE
  8
0
 62
     1
  6
CONTINUOUS
 66
     1
 40
0.003150
 41
0.003150
  0
VERTEX
  8
0
 62
     1
  6
CONTINUOUS
 10
-1.896878
 20
2.625382
  0
VERTEX
  8
0
 62
     1
  6
CONTINUOUS
 10
-1.414681
 20
2.625382
  0
SEQEND
  8
0
  0
POLYLINE
  8
0
 62
     1
  6
CONTINUOUS
 66
     1
 40
0.003150
 41
0.003150
  0
VERTEX
  8
0
 62
     1
  6
CONTINUOUS
 10
-1.472941
 20
1.063327
  0
VERTEX
  8
0
 62
     1
  6
CONTINUOUS
 10
-1.472941
 20
2.625382
  0
SEQEND
  8
0
  0
POLYLINE
  8
0
 62
     1
  6
CONTINUOUS
 66
     1
 40
0.003150
 41
0.003150
  0
VERTEX
  8
0
 62
     1
  6
CONTINUOUS
 10
-1.488114
 20
1.149390
  0
VERTEX
  8
0
 62
     1
  6
CONTINUOUS
 10
-1.472941
 20
1.063327
  0
SEQEND
  8
0
  0
POLYLINE
  8
0
 62
     1
  6
CONTINUOUS
 66
     1
 40
0.003150
 41
0.003150
  0
VERTEX
  8
0
 62
     1
  6
CONTINUOUS
 10
-1.472941
 20
1.063327
  0
VERTEX
  8
0
 62
     1
  6
CONTINUOUS
 10
-1.457768
 20
1.149390
  0
SEQEND
  8
0
  0
POLYLINE
  8
0
 62
     1
  6
CONTINUOUS
 66
     1
 40
0.003150
 41
0.003150
  0
VERTEX
  8
0
 62
     1
  6
CONTINUOUS
 10
-1.457768
 20
2.539319
  0
VERTEX
  8
0
 62
     1
  6
CONTINUOUS
 10
-1.472941
 20
2.625382
  0
SEQEND
  8
0
  0
POLYLINE
  8
0
 62
     1
  6
CONTINUOUS
 66
     1
 40
0.003150
 41
0.003150
  0
VERTEX
  8
0
 62
     1
  6
CONTINUOUS
 10
-1.472941
 20
2.625382
  0
VERTEX
  8
0
 62
     1
  6
CONTINUOUS
 10
-1.488114
 20
2.539319
  0
SEQEND
  8
0
  0
TEXT
  8
0
 62
     1
 10
-1.700693
 20
2.511531
 40
0.098858
  1
12
 50
90.000647
 41
1.000000
  7
SN0
 71
     0
 72
     5
 11
-1.700693
 21
2.644682
  0
POLYLINE
  8
0
 62
     1
  6
CONTINUOUS
 66
     1
 40
0.003150
 41
0.003150
  0
VERTEX
  8
0
 62
     1
  6
CONTINUOUS
 10
-1.962453
 20
2.450602
  0
VERTEX
  8
0
 62
     1
  6
CONTINUOUS
 10
-1.569610
 20
2.450602
  0
SEQEND
  8
0
  0
POLYLINE
  8
0
 62
     1
  6
CONTINUOUS
 66
     1
 40
0.003150
 41
0.003150
  0
VERTEX
  8
0
 62
     1
  6
CONTINUOUS
 10
-1.896878
 20
2.625382
  0
VERTEX
  8
0
 62
     1
  6
CONTINUOUS
 10
-1.569610
 20
2.625382
  0
SEQEND
  8
0
  0
POLYLINE
  8
0
 62
     1
  6
CONTINUOUS
 66
     1
 40
0.003150
 41
0.003150
  0
VERTEX
  8
0
 62
     1
  6
CONTINUOUS
 10
-1.627870
 20
2.448531
  0
VERTEX
  8
0
 62
     1
  6
CONTINUOUS
 10
-1.627870
 20
2.625382
  0
SEQEND
  8
0
  0
POLYLINE
  8
0
 62
     1
  6
CONTINUOUS
 66
     1
 40
0.003150
 41
0.003150
  0
VERTEX
  8
0
 62
     1
  6
CONTINUOUS
 10
-1.612689
 20
2.364547
  0
VERTEX
  8
0
 62
     1
  6
CONTINUOUS
 10
-1.627870
 20
2.450602
  0
SEQEND
  8
0
  0
POLYLINE
  8
0
 62
     1
  6
CONTINUOUS
 66
     1
 40
0.003150
 41
0.003150
  0
VERTEX
  8
0
 62
     1
  6
CONTINUOUS
 10
-1.627870
 20
2.450602
  0
VERTEX
  8
0
 62
     1
  6
CONTINUOUS
 10
-1.643043
 20
2.364547
  0
SEQEND
  8
0
  0
POLYLINE
  8
0
 62
     1
  6
CONTINUOUS
 66
     1
 40
0.003150
 41
0.003150
  0
VERTEX
  8
0
 62
     1
  6
CONTINUOUS
 10
-1.643043
 20
2.711437
  0
VERTEX
  8
0
 62
     1
  6
CONTINUOUS
 10
-1.627870
 20
2.625382
  0
SEQEND
  8
0
  0
POLYLINE
  8
0
 62
     1
  6
CONTINUOUS
 66
     1
 40
0.003150
 41
0.003150
  0
VERTEX
  8
0
 62
     1
  6
CONTINUOUS
 10
-1.627870
 20
2.625382
  0
VERTEX
  8
0
 62
     1
  6
CONTINUOUS
 10
-1.612689
 20
2.711437
  0
SEQEND
  8
0
  0
TEXT
  8
0
 62
     1
 10
-2.419614
 20
3.572425
 40
0.098858
  1
70
 50
359.820084
 41
1.000000
  7
SN0
 71
     0
 72
     5
 11
-2.286464
 21
3.572001
  0
POLYLINE
  8
0
 62
     1
  6
CONTINUOUS
 66
     1
 40
0.003150
 41
0.003150
  0
VERTEX
  8
0
 62
     1
  6
CONTINUOUS
 10
-1.835012
 20
2.875894
  0
VERTEX
  8
0
 62
     1
  6
CONTINUOUS
 10
-1.835012
 20
3.558043
  0
SEQEND
  8
0
  0
POLYLINE
  8
0
 62
     1
  6
CONTINUOUS
 66
     1
 40
0.003150
 41
0.003150
  0
VERTEX
  8
0
 62
     1
  6
CONTINUOUS
 10
-1.835012
 20
3.499783
  0
VERTEX
  8
0
 62
     1
  6
CONTINUOUS
 10
-2.854539
 20
3.499783
  0
SEQEND
  8
0
  0
POLYLINE
  8
0
 62
     1
  6
CONTINUOUS
 66
     1
 40
0.003150
 41
0.003150
  0
VERTEX
  8
0
 62
     1
  6
CONTINUOUS
 10
-1.921075
 20
3.484610
  0
VERTEX
  8
0
 62
     1
  6
CONTINUOUS
 10
-1.835012
 20
3.499783
  0
SEQEND
  8
0
  0
POLYLINE
  8
0
 62
     1
  6
CONTINUOUS
 66
     1
 40
0.003150
 41
0.003150
  0
VERTEX
  8
0
 62
     1
  6
CONTINUOUS
 10
-1.835012
 20
3.499783
  0
VERTEX
  8
0
 62
     1
  6
CONTINUOUS
 10
-1.921075
 20
3.514957
  0
SEQEND
  8
0
  0
POLYLINE
  8
0
 62
     1
  6
CONTINUOUS
 66
     1
 40
0.003150
 41
0.003150
  0
VERTEX
  8
0
 62
     1
  6
CONTINUOUS
 10
-2.768476
 20
3.514957
  0
VERTEX
  8
0
 62
     1
  6
CONTINUOUS
 10
-2.854539
 20
3.499783
  0
SEQEND
  8
0
  0
POLYLINE
  8
0
 62
     1
  6
CONTINUOUS
 66
     1
 40
0.003150
 41
0.003150
  0
VERTEX
  8
0
 62
     1
  6
CONTINUOUS
 10
-2.854539
 20
3.499783
  0
VERTEX
  8
0
 62
     1
  6
CONTINUOUS
 10
-2.768476
 20
3.484610
  0
SEQEND
  8
0
  0
TEXT
  8
0
 62
     1
 10
-2.694311
 20
3.329201
 40
0.098858
  1
43,75
 50
359.820084
 41
1.000000
  7
SN0
 71
     0
 72
     5
 11
-2.394448
 21
3.328245
  0
POLYLINE
  8
0
 62
     1
  6
CONTINUOUS
 66
     1
 40
0.003150
 41
0.003150
  0
VERTEX
  8
0
 62
     1
  6
CONTINUOUS
 10
-2.217335
 20
2.986673
  0
VERTEX
  8
0
 62
     1
  6
CONTINUOUS
 10
-2.217335
 20
3.315043
  0
SEQEND
  8
0
  0
POLYLINE
  8
0
 62
     1
  6
CONTINUOUS
 66
     1
 40
0.003150
 41
0.003150
  0
VERTEX
  8
0
 62
     1
  6
CONTINUOUS
 10
-2.217335
 20
3.256783
  0
VERTEX
  8
0
 62
     1
  6
CONTINUOUS
 10
-2.854539
 20
3.256783
  0
SEQEND
  8
0
  0
POLYLINE
  8
0
 62
     1
  6
CONTINUOUS
 66
     1
 40
0.003150
 41
0.003150
  0
VERTEX
  8
0
 62
     1
  6
CONTINUOUS
 10
-2.303398
 20
3.241610
  0
VERTEX
  8
0
 62
     1
  6
CONTINUOUS
 10
-2.217335
 20
3.256783
  0
SEQEND
  8
0
  0
POLYLINE
  8
0
 62
     1
  6
CONTINUOUS
 66
     1
 40
0.003150
 41
0.003150
  0
VERTEX
  8
0
 62
     1
  6
CONTINUOUS
 10
-2.217335
 20
3.256783
  0
VERTEX
  8
0
 62
     1
  6
CONTINUOUS
 10
-2.303398
 20
3.271957
  0
SEQEND
  8
0
  0
POLYLINE
  8
0
 62
     1
  6
CONTINUOUS
 66
     1
 40
0.003150
 41
0.003150
  0
VERTEX
  8
0
 62
     1
  6
CONTINUOUS
 10
-2.768476
 20
3.271957
  0
VERTEX
  8
0
 62
     1
  6
CONTINUOUS
 10
-2.854539
 20
3.256783
  0
SEQEND
  8
0
  0
POLYLINE
  8
0
 62
     1
  6
CONTINUOUS
 66
     1
 40
0.003150
 41
0.003150
  0
VERTEX
  8
0
 62
     1
  6
CONTINUOUS
 10
-2.854539
 20
3.256783
  0
VERTEX
  8
0
 62
     1
  6
CONTINUOUS
 10
-2.768476
 20
3.241610
  0
SEQEND
  8
0
  0
TEXT
  8
0
 62
     1
 10
-3.331512
 20
3.329201
 40
0.098858
  1
43,75
 50
359.820084
 41
1.000000
  7
SN0
 71
     0
 72
     5
 11
-3.031649
 21
3.328245
  0
POLYLINE
  8
0
 62
     1
  6
CONTINUOUS
 66
     1
 40
0.003150
 41
0.003150
  0
VERTEX
  8
0
 62
     1
  6
CONTINUOUS
 10
-3.491736
 20
2.986673
  0
VERTEX
  8
0
 62
     1
  6
CONTINUOUS
 10
-3.491736
 20
3.315043
  0
SEQEND
  8
0
  0
POLYLINE
  8
0
 62
     1
  6
CONTINUOUS
 66
     1
 40
0.003150
 41
0.003150
  0
VERTEX
  8
0
 62
     1
  6
CONTINUOUS
 10
-2.854539
 20
3.256783
  0
VERTEX
  8
0
 62
     1
  6
CONTINUOUS
 10
-3.491736
 20
3.256783
  0
SEQEND
  8
0
  0
POLYLINE
  8
0
 62
     1
  6
CONTINUOUS
 66
     1
 40
0.003150
 41
0.003150
  0
VERTEX
  8
0
 62
     1
  6
CONTINUOUS
 10
-2.940594
 20
3.241610
  0
VERTEX
  8
0
 62
     1
  6
CONTINUOUS
 10
-2.854539
 20
3.256783
  0
SEQEND
  8
0
  0
POLYLINE
  8
0
 62
     1
  6
CONTINUOUS
 66
     1
 40
0.003150
 41
0.003150
  0
VERTEX
  8
0
 62
     1
  6
CONTINUOUS
 10
-2.854539
 20
3.256783
  0
VERTEX
  8
0
 62
     1
  6
CONTINUOUS
 10
-2.940594
 20
3.271957
  0
SEQEND
  8
0
  0
POLYLINE
  8
0
 62
     1
  6
CONTINUOUS
 66
     1
 40
0.003150
 41
0.003150
  0
VERTEX
  8
0
 62
     1
  6
CONTINUOUS
 10
-3.405681
 20
3.271957
  0
VERTEX
  8
0
 62
     1
  6
CONTINUOUS
 10
-3.491736
 20
3.256783
  0
SEQEND
  8
0
  0
POLYLINE
  8
0
 62
     1
  6
CONTINUOUS
 66
     1
 40
0.003150
 41
0.003150
  0
VERTEX
  8
0
 62
     1
  6
CONTINUOUS
 10
-3.491736
 20
3.256783
  0
VERTEX
  8
0
 62
     1
  6
CONTINUOUS
 10
-3.405681
 20
3.241610
  0
SEQEND
  8
0
  0
TEXT
  8
0
 62
     1
 10
-3.968713
 20
3.329201
 40
0.098858
  1
43,75
 50
359.820084
 41
1.000000
  7
SN0
 71
     0
 72
     5
 11
-3.668849
 21
3.328245
  0
POLYLINE
  8
0
 62
     1
  6
CONTINUOUS
 66
     1
 40
0.003150
 41
0.003150
  0
VERTEX
  8
0
 62
     1
  6
CONTINUOUS
 10
-4.128941
 20
2.986673
  0
VERTEX
  8
0
 62
     1
  6
CONTINUOUS
 10
-4.128941
 20
3.315043
  0
SEQEND
  8
0
  0
POLYLINE
  8
0
 62
     1
  6
CONTINUOUS
 66
     1
 40
0.003150
 41
0.003150
  0
VERTEX
  8
0
 62
     1
  6
CONTINUOUS
 10
-3.491736
 20
3.256783
  0
VERTEX
  8
0
 62
     1
  6
CONTINUOUS
 10
-4.128941
 20
3.256783
  0
SEQEND
  8
0
  0
POLYLINE
  8
0
 62
     1
  6
CONTINUOUS
 66
     1
 40
0.003150
 41
0.003150
  0
VERTEX
  8
0
 62
     1
  6
CONTINUOUS
 10
-3.577799
 20
3.241610
  0
VERTEX
  8
0
 62
     1
  6
CONTINUOUS
 10
-3.491736
 20
3.256783
  0
SEQEND
  8
0
  0
POLYLINE
  8
0
 62
     1
  6
CONTINUOUS
 66
     1
 40
0.003150
 41
0.003150
  0
VERTEX
  8
0
 62
     1
  6
CONTINUOUS
 10
-3.491736
 20
3.256783
  0
VERTEX
  8
0
 62
     1
  6
CONTINUOUS
 10
-3.577799
 20
3.271957
  0
SEQEND
  8
0
  0
POLYLINE
  8
0
 62
     1
  6
CONTINUOUS
 66
     1
 40
0.003150
 41
0.003150
  0
VERTEX
  8
0
 62
     1
  6
CONTINUOUS
 10
-4.042878
 20
3.271957
  0
VERTEX
  8
0
 62
     1
  6
CONTINUOUS
 10
-4.128941
 20
3.256783
  0
SEQEND
  8
0
  0
POLYLINE
  8
0
 62
     1
  6
CONTINUOUS
 66
     1
 40
0.003150
 41
0.003150
  0
VERTEX
  8
0
 62
     1
  6
CONTINUOUS
 10
-4.128941
 20
3.256783
  0
VERTEX
  8
0
 62
     1
  6
CONTINUOUS
 10
-4.042878
 20
3.241610
  0
SEQEND
  8
0
  0
TEXT
  8
0
 62
     1
 10
-1.642453
 20
3.166937
 40
0.098858
  1
19,5
 50
359.820084
 41
1.000000
  7
SN0
 71
     0
 72
     5
 11
-1.409165
 21
3.166194
  0
POLYLINE
  8
0
 62
     1
  6
CONTINUOUS
 66
     1
 40
0.003150
 41
0.003150
  0
VERTEX
  8
0
 62
     1
  6
CONTINUOUS
 10
-2.075335
 20
2.512508
  0
VERTEX
  8
0
 62
     1
  6
CONTINUOUS
 10
-2.075335
 20
3.152689
  0
SEQEND
  8
0
  0
POLYLINE
  8
0
 62
     1
  6
CONTINUOUS
 66
     1
 40
0.003150
 41
0.003150
  0
VERTEX
  8
0
 62
     1
  6
CONTINUOUS
 10
-2.359343
 20
2.512508
  0
VERTEX
  8
0
 62
     1
  6
CONTINUOUS
 10
-2.359343
 20
3.152689
  0
SEQEND
  8
0
  0
POLYLINE
  8
0
 62
     1
  6
CONTINUOUS
 66
     1
 40
0.003150
 41
0.003150
  0
VERTEX
  8
0
 62
     1
  6
CONTINUOUS
 10
-1.371114
 20
3.094429
  0
VERTEX
  8
0
 62
     1
  6
CONTINUOUS
 10
-2.359343
 20
3.094429
  0
SEQEND
  8
0
  0
POLYLINE
  8
0
 62
     1
  6
CONTINUOUS
 66
     1
 40
0.003150
 41
0.003150
  0
VERTEX
  8
0
 62
     1
  6
CONTINUOUS
 10
-1.989272
 20
3.109602
  0
VERTEX
  8
0
 62
     1
  6
CONTINUOUS
 10
-2.075335
 20
3.094429
  0
SEQEND
  8
0
  0
POLYLINE
  8
0
 62
     1
  6
CONTINUOUS
 66
     1
 40
0.003150
 41
0.003150
  0
VERTEX
  8
0
 62
     1
  6
CONTINUOUS
 10
-2.075335
 20
3.094429
  0
VERTEX
  8
0
 62
     1
  6
CONTINUOUS
 10
-1.989272
 20
3.079256
  0
SEQEND
  8
0
  0
POLYLINE
  8
0
 62
     1
  6
CONTINUOUS
 66
     1
 40
0.003150
 41
0.003150
  0
VERTEX
  8
0
 62
     1
  6
CONTINUOUS
 10
-2.445398
 20
3.079256
  0
VERTEX
  8
0
 62
     1
  6
CONTINUOUS
 10
-2.359343
 20
3.094429
  0
SEQEND
  8
0
  0
POLYLINE
  8
0
 62
     1
  6
CONTINUOUS
 66
     1
 40
0.003150
 41
0.003150
  0
VERTEX
  8
0
 62
     1
  6
CONTINUOUS
 10
-2.359343
 20
3.094429
  0
VERTEX
  8
0
 62
     1
  6
CONTINUOUS
 10
-2.445398
 20
3.109602
  0
SEQEND
  8
0
  0
TEXT
  8
0
 62
     1
 10
-3.364929
 20
-1.543606
 40
0.098858
  1
183,75
 50
359.820084
 41
1.000000
  7
SN0
 71
     0
 72
     5
 11
-2.998491
 21
-1.544774
  0
POLYLINE
  8
0
 62
     1
  6
CONTINUOUS
 66
     1
 40
0.003150
 41
0.003150
  0
VERTEX
  8
0
 62
     1
  6
CONTINUOUS
 10
-1.835012
 20
-0.800209
  0
VERTEX
  8
0
 62
     1
  6
CONTINUOUS
 10
-1.835012
 20
-1.674185
  0
SEQEND
  8
0
  0
POLYLINE
  8
0
 62
     1
  6
CONTINUOUS
 66
     1
 40
0.003150
 41
0.003150
  0
VERTEX
  8
0
 62
     1
  6
CONTINUOUS
 10
-4.511264
 20
-0.859193
  0
VERTEX
  8
0
 62
     1
  6
CONTINUOUS
 10
-4.511264
 20
-1.674185
  0
SEQEND
  8
0
  0
POLYLINE
  8
0
 62
     1
  6
CONTINUOUS
 66
     1
 40
0.003150
 41
0.003150
  0
VERTEX
  8
0
 62
     1
  6
CONTINUOUS
 10
-1.835012
 20
-1.615925
  0
VERTEX
  8
0
 62
     1
  6
CONTINUOUS
 10
-4.511264
 20
-1.615925
  0
SEQEND
  8
0
  0
POLYLINE
  8
0
 62
     1
  6
CONTINUOUS
 66
     1
 40
0.003150
 41
0.003150
  0
VERTEX
  8
0
 62
     1
  6
CONTINUOUS
 10
-1.921075
 20
-1.631106
  0
VERTEX
  8
0
 62
     1
  6
CONTINUOUS
 10
-1.835012
 20
-1.615925
  0
SEQEND
  8
0
  0
POLYLINE
  8
0
 62
     1
  6
CONTINUOUS
 66
     1
 40
0.003150
 41
0.003150
  0
VERTEX
  8
0
 62
     1
  6
CONTINUOUS
 10
-1.835012
 20
-1.615925
  0
VERTEX
  8
0
 62
     1
  6
CONTINUOUS
 10
-1.921075
 20
-1.600752
  0
SEQEND
  8
0
  0
POLYLINE
  8
0
 62
     1
  6
CONTINUOUS
 66
     1
 40
0.003150
 41
0.003150
  0
VERTEX
  8
0
 62
     1
  6
CONTINUOUS
 10
-4.425201
 20
-1.600752
  0
VERTEX
  8
0
 62
     1
  6
CONTINUOUS
 10
-4.511264
 20
-1.615925
  0
SEQEND
  8
0
  0
POLYLINE
  8
0
 62
     1
  6
CONTINUOUS
 66
     1
 40
0.003150
 41
0.003150
  0
VERTEX
  8
0
 62
     1
  6
CONTINUOUS
 10
-4.511264
 20
-1.615925
  0
VERTEX
  8
0
 62
     1
  6
CONTINUOUS
 10
-4.425201
 20
-1.631106
  0
SEQEND
  8
0
  0
TEXT
  8
0
 62
     1
 10
-2.962795
 20
-1.346008
 40
0.098858
  1
140
 50
359.820084
 41
1.000000
  7
SN0
 71
     0
 72
     5
 11
-2.763070
 21
-1.346644
  0
POLYLINE
  8
0
 62
     1
  6
CONTINUOUS
 66
     1
 40
0.003150
 41
0.003150
  0
VERTEX
  8
0
 62
     1
  6
CONTINUOUS
 10
-1.835012
 20
-0.800209
  0
VERTEX
  8
0
 62
     1
  6
CONTINUOUS
 10
-1.835012
 20
-1.476815
  0
SEQEND
  8
0
  0
POLYLINE
  8
0
 62
     1
  6
CONTINUOUS
 66
     1
 40
0.003150
 41
0.003150
  0
VERTEX
  8
0
 62
     1
  6
CONTINUOUS
 10
-3.874059
 20
-0.859193
  0
VERTEX
  8
0
 62
     1
  6
CONTINUOUS
 10
-3.874059
 20
-1.476815
  0
SEQEND
  8
0
  0
POLYLINE
  8
0
 62
     1
  6
CONTINUOUS
 66
     1
 40
0.003150
 41
0.003150
  0
VERTEX
  8
0
 62
     1
  6
CONTINUOUS
 10
-1.835012
 20
-1.418555
  0
VERTEX
  8
0
 62
     1
  6
CONTINUOUS
 10
-3.874059
 20
-1.418555
  0
SEQEND
  8
0
  0
POLYLINE
  8
0
 62
     1
  6
CONTINUOUS
 66
     1
 40
0.003150
 41
0.003150
  0
VERTEX
  8
0
 62
     1
  6
CONTINUOUS
 10
-1.921075
 20
-1.433736
  0
VERTEX
  8
0
 62
     1
  6
CONTINUOUS
 10
-1.835012
 20
-1.418555
  0
SEQEND
  8
0
  0
POLYLINE
  8
0
 62
     1
  6
CONTINUOUS
 66
     1
 40
0.003150
 41
0.003150
  0
VERTEX
  8
0
 62
     1
  6
CONTINUOUS
 10
-1.835012
 20
-1.418555
  0
VERTEX
  8
0
 62
     1
  6
CONTINUOUS
 10
-1.921075
 20
-1.403382
  0
SEQEND
  8
0
  0
POLYLINE
  8
0
 62
     1
  6
CONTINUOUS
 66
     1
 40
0.003150
 41
0.003150
  0
VERTEX
  8
0
 62
     1
  6
CONTINUOUS
 10
-3.787996
 20
-1.403382
  0
VERTEX
  8
0
 62
     1
  6
CONTINUOUS
 10
-3.874059
 20
-1.418555
  0
SEQEND
  8
0
  0
POLYLINE
  8
0
 62
     1
  6
CONTINUOUS
 66
     1
 40
0.003150
 41
0.003150
  0
VERTEX
  8
0
 62
     1
  6
CONTINUOUS
 10
-3.874059
 20
-1.418555
  0
VERTEX
  8
0
 62
     1
  6
CONTINUOUS
 10
-3.787996
 20
-1.433736
  0
SEQEND
  8
0
  0
TEXT
  8
0
 62
     1
 10
-2.292173
 20
-1.190992
 40
0.098858
  1
31
 50
359.820084
 41
1.000000
  7
SN0
 71
     0
 72
     5
 11
-2.159023
 21
-1.191416
  0
POLYLINE
  8
0
 62
     1
  6
CONTINUOUS
 66
     1
 40
0.003150
 41
0.003150
  0
VERTEX
  8
0
 62
     1
  6
CONTINUOUS
 10
-1.991587
 20
-0.840988
  0
VERTEX
  8
0
 62
     1
  6
CONTINUOUS
 10
-1.991587
 20
-1.321894
  0
SEQEND
  8
0
  0
POLYLINE
  8
0
 62
     1
  6
CONTINUOUS
 66
     1
 40
0.003150
 41
0.003150
  0
VERTEX
  8
0
 62
     1
  6
CONTINUOUS
 10
-2.443091
 20
-0.840988
  0
VERTEX
  8
0
 62
     1
  6
CONTINUOUS
 10
-2.443091
 20
-1.321894
  0
SEQEND
  8
0
  0
POLYLINE
  8
0
 62
     1
  6
CONTINUOUS
 66
     1
 40
0.003150
 41
0.003150
  0
VERTEX
  8
0
 62
     1
  6
CONTINUOUS
 10
-1.991587
 20
-1.263634
  0
VERTEX
  8
0
 62
     1
  6
CONTINUOUS
 10
-2.443091
 20
-1.263634
  0
SEQEND
  8
0
  0
POLYLINE
  8
0
 62
     1
  6
CONTINUOUS
 66
     1
 40
0.003150
 41
0.003150
  0
VERTEX
  8
0
 62
     1
  6
CONTINUOUS
 10
-2.077642
 20
-1.278807
  0
VERTEX
  8
0
 62
     1
  6
CONTINUOUS
 10
-1.991587
 20
-1.263634
  0
SEQEND
  8
0
  0
POLYLINE
  8
0
 62
     1
  6
CONTINUOUS
 66
     1
 40
0.003150
 41
0.003150
  0
VERTEX
  8
0
 62
     1
  6
CONTINUOUS
 10
-1.991587
 20
-1.263634
  0
VERTEX
  8
0
 62
     1
  6
CONTINUOUS
 10
-2.077642
 20
-1.248461
  0
SEQEND
  8
0
  0
POLYLINE
  8
0
 62
     1
  6
CONTINUOUS
 66
     1
 40
0.003150
 41
0.003150
  0
VERTEX
  8
0
 62
     1
  6
CONTINUOUS
 10
-2.357028
 20
-1.248461
  0
VERTEX
  8
0
 62
     1
  6
CONTINUOUS
 10
-2.443091
 20
-1.263634
  0
SEQEND
  8
0
  0
POLYLINE
  8
0
 62
     1
  6
CONTINUOUS
 66
     1
 40
0.003150
 41
0.003150
  0
VERTEX
  8
0
 62
     1
  6
CONTINUOUS
 10
-2.443091
 20
-1.263634
  0
VERTEX
  8
0
 62
     1
  6
CONTINUOUS
 10
-2.357028
 20
-1.278807
  0
SEQEND
  8
0
  0
TEXT
  8
0
 62
     1
 10
-1.619961
 20
-0.993622
 40
0.098858
  1
10
 50
359.820084
 41
1.000000
  7
SN0
 71
     0
 72
     5
 11
-1.486810
 21
-0.994046
  0
TEXT
  8
0
 62
     1
 10
-1.732425
 20
-0.993543
 40
0.098858
  1
Ø
 50
359.820084
 41
1.000000
  7
SN0
 71
     0
 72
     5
 11
-1.638890
 21
-0.993841
  0
TEXT
  8
0
 62
     1
 10
-1.432374
 20
-0.993791
 40
0.098858
  1
 C11
 50
359.820084
 41
1.000000
  7
SN0
 71
     0
 72
     5
 11
-1.179279
 21
-0.994598
  0
POLYLINE
  8
0
 62
     1
  6
CONTINUOUS
 66
     1
 40
0.003150
 41
0.003150
  0
VERTEX
  8
0
 62
     1
  6
CONTINUOUS
 10
-2.144516
 20
-0.578823
  0
VERTEX
  8
0
 62
     1
  6
CONTINUOUS
 10
-2.144516
 20
-1.124524
  0
SEQEND
  8
0
  0
POLYLINE
  8
0
 62
     1
  6
CONTINUOUS
 66
     1
 40
0.003150
 41
0.003150
  0
VERTEX
  8
0
 62
     1
  6
CONTINUOUS
 10
-2.290161
 20
-0.578823
  0
VERTEX
  8
0
 62
     1
  6
CONTINUOUS
 10
-2.290161
 20
-1.124524
  0
SEQEND
  8
0
  0
POLYLINE
  8
0
 62
     1
  6
CONTINUOUS
 66
     1
 40
0.003150
 41
0.003150
  0
VERTEX
  8
0
 62
     1
  6
CONTINUOUS
 10
-1.155516
 20
-1.066264
  0
VERTEX
  8
0
 62
     1
  6
CONTINUOUS
 10
-2.290161
 20
-1.066264
  0
SEQEND
  8
0
  0
POLYLINE
  8
0
 62
     1
  6
CONTINUOUS
 66
     1
 40
0.003150
 41
0.003150
  0
VERTEX
  8
0
 62
     1
  6
CONTINUOUS
 10
-2.058453
 20
-1.051091
  0
VERTEX
  8
0
 62
     1
  6
CONTINUOUS
 10
-2.144516
 20
-1.066264
  0
SEQEND
  8
0
  0
POLYLINE
  8
0
 62
     1
  6
CONTINUOUS
 66
     1
 40
0.003150
 41
0.003150
  0
VERTEX
  8
0
 62
     1
  6
CONTINUOUS
 10
-2.144516
 20
-1.066264
  0
VERTEX
  8
0
 62
     1
  6
CONTINUOUS
 10
-2.058453
 20
-1.081437
  0
SEQEND
  8
0
  0
POLYLINE
  8
0
 62
     1
  6
CONTINUOUS
 66
     1
 40
0.003150
 41
0.003150
  0
VERTEX
  8
0
 62
     1
  6
CONTINUOUS
 10
-2.376217
 20
-1.081437
  0
VERTEX
  8
0
 62
     1
  6
CONTINUOUS
 10
-2.290161
 20
-1.066264
  0
SEQEND
  8
0
  0
POLYLINE
  8
0
 62
     1
  6
CONTINUOUS
 66
     1
 40
0.003150
 41
0.003150
  0
VERTEX
  8
0
 62
     1
  6
CONTINUOUS
 10
-2.290161
 20
-1.066264
  0
VERTEX
  8
0
 62
     1
  6
CONTINUOUS
 10
-2.376217
 20
-1.051091
  0
SEQEND
  8
0
  0
TEXT
  8
0
 62
     1
 10
-5.075059
 20
1.015087
 40
0.098858
  1
259
 50
90.000647
 41
1.000000
  7
SN0
 71
     0
 72
     5
 11
-5.075059
 21
1.214813
  0
POLYLINE
  8
0
 62
     1
  6
CONTINUOUS
 66
     1
 40
0.003150
 41
0.003150
  0
VERTEX
  8
0
 62
     1
  6
CONTINUOUS
 10
-4.532846
 20
-0.848272
  0
VERTEX
  8
0
 62
     1
  6
CONTINUOUS
 10
-5.060492
 20
-0.848272
  0
SEQEND
  8
0
  0
POLYLINE
  8
0
 62
     1
  6
CONTINUOUS
 66
     1
 40
0.003150
 41
0.003150
  0
VERTEX
  8
0
 62
     1
  6
CONTINUOUS
 10
-4.532846
 20
2.923957
  0
VERTEX
  8
0
 62
     1
  6
CONTINUOUS
 10
-5.060492
 20
2.923957
  0
SEQEND
  8
0
  0
POLYLINE
  8
0
 62
     1
  6
CONTINUOUS
 66
     1
 40
0.003150
 41
0.003150
  0
VERTEX
  8
0
 62
     1
  6
CONTINUOUS
 10
-5.002232
 20
-0.848272
  0
VERTEX
  8
0
 62
     1
  6
CONTINUOUS
 10
-5.002232
 20
2.923957
  0
SEQEND
  8
0
  0
POLYLINE
  8
0
 62
     1
  6
CONTINUOUS
 66
     1
 40
0.003150
 41
0.003150
  0
VERTEX
  8
0
 62
     1
  6
CONTINUOUS
 10
-5.017406
 20
-0.762209
  0
VERTEX
  8
0
 62
     1
  6
CONTINUOUS
 10
-5.002232
 20
-0.848272
  0
SEQEND
  8
0
  0
POLYLINE
  8
0
 62
     1
  6
CONTINUOUS
 66
     1
 40
0.003150
 41
0.003150
  0
VERTEX
  8
0
 62
     1
  6
CONTINUOUS
 10
-5.002232
 20
-0.848272
  0
VERTEX
  8
0
 62
     1
  6
CONTINUOUS
 10
-4.987059
 20
-0.762209
  0
SEQEND
  8
0
  0
POLYLINE
  8
0
 62
     1
  6
CONTINUOUS
 66
     1
 40
0.003150
 41
0.003150
  0
VERTEX
  8
0
 62
     1
  6
CONTINUOUS
 10
-4.987059
 20
2.837894
  0
VERTEX
  8
0
 62
     1
  6
CONTINUOUS
 10
-5.002232
 20
2.923957
  0
SEQEND
  8
0
  0
POLYLINE
  8
0
 62
     1
  6
CONTINUOUS
 66
     1
 40
0.003150
 41
0.003150
  0
VERTEX
  8
0
 62
     1
  6
CONTINUOUS
 10
-5.002232
 20
2.923957
  0
VERTEX
  8
0
 62
     1
  6
CONTINUOUS
 10
-5.017406
 20
2.837894
  0
SEQEND
  8
0
  0
TEXT
  8
0
 62
     1
 10
-4.868949
 20
1.958854
 40
0.098858
  1
127,75
 50
90.000647
 41
1.000000
  7
SN0
 71
     0
 72
     5
 11
-4.868949
 21
2.325294
  0
POLYLINE
  8
0
 62
     1
  6
CONTINUOUS
 66
     1
 40
0.003150
 41
0.003150
  0
VERTEX
  8
0
 62
     1
  6
CONTINUOUS
 10
-4.679327
 20
1.063327
  0
VERTEX
  8
0
 62
     1
  6
CONTINUOUS
 10
-4.854382
 20
1.063327
  0
SEQEND
  8
0
  0
POLYLINE
  8
0
 62
     1
  6
CONTINUOUS
 66
     1
 40
0.003150
 41
0.003150
  0
VERTEX
  8
0
 62
     1
  6
CONTINUOUS
 10
-4.532846
 20
2.923957
  0
VERTEX
  8
0
 62
     1
  6
CONTINUOUS
 10
-4.854382
 20
2.923957
  0
SEQEND
  8
0
  0
POLYLINE
  8
0
 62
     1
  6
CONTINUOUS
 66
     1
 40
0.003150
 41
0.003150
  0
VERTEX
  8
0
 62
     1
  6
CONTINUOUS
 10
-4.796122
 20
1.063327
  0
VERTEX
  8
0
 62
     1
  6
CONTINUOUS
 10
-4.796122
 20
2.923957
  0
SEQEND
  8
0
  0
POLYLINE
  8
0
 62
     1
  6
CONTINUOUS
 66
     1
 40
0.003150
 41
0.003150
  0
VERTEX
  8
0
 62
     1
  6
CONTINUOUS
 10
-4.811295
 20
1.149390
  0
VERTEX
  8
0
 62
     1
  6
CONTINUOUS
 10
-4.796122
 20
1.063327
  0
SEQEND
  8
0
  0
POLYLINE
  8
0
 62
     1
  6
CONTINUOUS
 66
     1
 40
0.003150
 41
0.003150
  0
VERTEX
  8
0
 62
     1
  6
CONTINUOUS
 10
-4.796122
 20
1.063327
  0
VERTEX
  8
0
 62
     1
  6
CONTINUOUS
 10
-4.780949
 20
1.149390
  0
SEQEND
  8
0
  0
POLYLINE
  8
0
 62
     1
  6
CONTINUOUS
 66
     1
 40
0.003150
 41
0.003150
  0
VERTEX
  8
0
 62
     1
  6
CONTINUOUS
 10
-4.780949
 20
2.837894
  0
VERTEX
  8
0
 62
     1
  6
CONTINUOUS
 10
-4.796122
 20
2.923957
  0
SEQEND
  8
0
  0
POLYLINE
  8
0
 62
     1
  6
CONTINUOUS
 66
     1
 40
0.003150
 41
0.003150
  0
VERTEX
  8
0
 62
     1
  6
CONTINUOUS
 10
-4.796122
 20
2.923957
  0
VERTEX
  8
0
 62
     1
  6
CONTINUOUS
 10
-4.811295
 20
2.837894
  0
SEQEND
  8
0
  0
TEXT
  8
0
 62
     1
 10
-2.881760
 20
-1.798606
 40
0.098858
  1
Y
 50
359.820084
 41
1.000000
  7
SN0
 71
     0
 72
     5
 11
-2.801980
 21
-1.798860
  0
TEXT
  8
0
 62
     1
 10
-0.609756
 20
1.060150
 40
0.098858
  1
X
 50
359.820084
 41
1.000000
  7
SN0
 71
     0
 72
     5
 11
-0.529976
 21
1.059895
  0
TEXT
  8
0
 62
     1
 10
-5.301024
 20
1.059091
 40
0.098858
  1
X
 50
359.820084
 41
1.000000
  7
SN0
 71
     0
 72
     5
 11
-5.221244
 21
1.058836
  0
TEXT
  8
0
 62
     1
 10
-2.892024
 20
3.786209
 40
0.098858
  1
Y
 50
359.820084
 41
1.000000
  7
SN0
 71
     0
 72
     5
 11
-2.812244
 21
3.785954
  0
POLYLINE
  8
255
 62
     1
  6
CONTINUOUS
 66
     1
 40
0.003150
 41
0.003150
  0
VERTEX
  8
255
 62
     1
  6
CONTINUOUS
 10
2.096193
 20
1.238106
  0
VERTEX
  8
255
 62
     1
  6
CONTINUOUS
 10
2.095694
 20
1.239938
  0
VERTEX
  8
255
 62
     1
  6
CONTINUOUS
 10
2.094387
 20
1.241245
  0
VERTEX
  8
255
 62
     1
  6
CONTINUOUS
 10
2.092555
 20
1.241744
  0
SEQEND
  8
0
  0
POLYLINE
  8
255
 62
     1
  6
CONTINUOUS
 66
     1
 40
0.003150
 41
0.003150
  0
VERTEX
  8
255
 62
     1
  6
CONTINUOUS
 10
2.096193
 20
1.238106
  0
VERTEX
  8
255
 62
     1
  6
CONTINUOUS
 10
2.095694
 20
1.239938
  0
VERTEX
  8
255
 62
     1
  6
CONTINUOUS
 10
2.094387
 20
1.241245
  0
VERTEX
  8
255
 62
     1
  6
CONTINUOUS
 10
2.092555
 20
1.241744
  0
SEQEND
  8
0
  0
POLYLINE
  8
255
 62
     1
  6
CONTINUOUS
 66
     1
 40
0.003150
 41
0.003150
  0
VERTEX
  8
255
 62
     1
  6
CONTINUOUS
 10
2.092555
 20
0.586343
  0
VERTEX
  8
255
 62
     1
  6
CONTINUOUS
 10
2.094387
 20
0.586841
  0
VERTEX
  8
255
 62
     1
  6
CONTINUOUS
 10
2.095694
 20
0.588148
  0
VERTEX
  8
255
 62
     1
  6
CONTINUOUS
 10
2.096193
 20
0.589980
  0
SEQEND
  8
0
  0
POLYLINE
  8
255
 62
     1
  6
CONTINUOUS
 66
     1
 40
0.003150
 41
0.003150
  0
VERTEX
  8
255
 62
     1
  6
CONTINUOUS
 10
2.092555
 20
0.586343
  0
VERTEX
  8
255
 62
     1
  6
CONTINUOUS
 10
2.094387
 20
0.586841
  0
VERTEX
  8
255
 62
     1
  6
CONTINUOUS
 10
2.095694
 20
0.588148
  0
VERTEX
  8
255
 62
     1
  6
CONTINUOUS
 10
2.096193
 20
0.589980
  0
SEQEND
  8
0
  0
POLYLINE
  8
255
 62
     1
  6
CONTINUOUS
 66
     1
 40
0.003150
 41
0.003150
  0
VERTEX
  8
255
 62
     1
  6
CONTINUOUS
 10
2.030650
 20
1.820689
  0
VERTEX
  8
255
 62
     1
  6
CONTINUOUS
 10
2.029654
 20
1.824357
  0
VERTEX
  8
255
 62
     1
  6
CONTINUOUS
 10
2.027042
 20
1.826969
  0
VERTEX
  8
255
 62
     1
  6
CONTINUOUS
 10
2.023374
 20
1.827965
  0
SEQEND
  8
0
  0
POLYLINE
  8
255
 62
     1
  6
CONTINUOUS
 66
     1
 40
0.003150
 41
0.003150
  0
VERTEX
  8
255
 62
     1
  6
CONTINUOUS
 10
2.030650
 20
1.820689
  0
VERTEX
  8
255
 62
     1
  6
CONTINUOUS
 10
2.029654
 20
1.824357
  0
VERTEX
  8
255
 62
     1
  6
CONTINUOUS
 10
2.027042
 20
1.826969
  0
VERTEX
  8
255
 62
     1
  6
CONTINUOUS
 10
2.023374
 20
1.827965
  0
SEQEND
  8
0
  0
POLYLINE
  8
255
 62
     1
  6
CONTINUOUS
 66
     1
 40
0.003150
 41
0.003150
  0
VERTEX
  8
255
 62
     1
  6
CONTINUOUS
 10
2.023374
 20
0.298689
  0
VERTEX
  8
255
 62
     1
  6
CONTINUOUS
 10
2.027042
 20
0.299685
  0
VERTEX
  8
255
 62
     1
  6
CONTINUOUS
 10
2.029654
 20
0.302297
  0
VERTEX
  8
255
 62
     1
  6
CONTINUOUS
 10
2.030650
 20
0.305965
  0
SEQEND
  8
0
  0
POLYLINE
  8
255
 62
     1
  6
CONTINUOUS
 66
     1
 40
0.003150
 41
0.003150
  0
VERTEX
  8
255
 62
     1
  6
CONTINUOUS
 10
2.023374
 20
0.298689
  0
VERTEX
  8
255
 62
     1
  6
CONTINUOUS
 10
2.027042
 20
0.299685
  0
VERTEX
  8
255
 62
     1
  6
CONTINUOUS
 10
2.029654
 20
0.302297
  0
VERTEX
  8
255
 62
     1
  6
CONTINUOUS
 10
2.030650
 20
0.305965
  0
SEQEND
  8
0
  0
POLYLINE
  8
255
 62
     1
  6
CONTINUOUS
 66
     1
 40
0.003150
 41
0.003150
  0
VERTEX
  8
255
 62
     1
  6
CONTINUOUS
 10
2.030650
 20
1.241744
  0
VERTEX
  8
255
 62
     1
  6
CONTINUOUS
 10
2.030650
 20
1.820689
  0
SEQEND
  8
0
  0
POLYLINE
  8
255
 62
     1
  6
CONTINUOUS
 66
     1
 40
0.003150
 41
0.003150
  0
VERTEX
  8
255
 62
     1
  6
CONTINUOUS
 10
1.965114
 20
1.827972
  0
VERTEX
  8
255
 62
     1
  6
CONTINUOUS
 10
2.023366
 20
1.827972
  0
SEQEND
  8
0
  0
POLYLINE
  8
255
 62
     1
  6
CONTINUOUS
 66
     1
 40
0.003150
 41
0.003150
  0
VERTEX
  8
255
 62
     1
  6
CONTINUOUS
 10
1.965114
 20
0.298689
  0
VERTEX
  8
255
 62
     1
  6
CONTINUOUS
 10
1.965114
 20
1.827972
  0
SEQEND
  8
0
  0
POLYLINE
  8
255
 62
     1
  6
CONTINUOUS
 66
     1
 40
0.003150
 41
0.003150
  0
VERTEX
  8
255
 62
     1
  6
CONTINUOUS
 10
1.965114
 20
0.298689
  0
VERTEX
  8
255
 62
     1
  6
CONTINUOUS
 10
2.023366
 20
0.298689
  0
SEQEND
  8
0
  0
POLYLINE
  8
255
 62
     1
  6
CONTINUOUS
 66
     1
 40
0.003150
 41
0.003150
  0
VERTEX
  8
255
 62
     1
  6
CONTINUOUS
 10
2.030650
 20
0.305965
  0
VERTEX
  8
255
 62
     1
  6
CONTINUOUS
 10
2.030650
 20
0.586335
  0
SEQEND
  8
0
  0
POLYLINE
  8
255
 62
     1
  6
CONTINUOUS
 66
     1
 40
0.003150
 41
0.003150
  0
VERTEX
  8
255
 62
     1
  6
CONTINUOUS
 10
2.096193
 20
0.589980
  0
VERTEX
  8
255
 62
     1
  6
CONTINUOUS
 10
2.096193
 20
1.238106
  0
SEQEND
  8
0
  0
POLYLINE
  8
255
 62
     1
  6
CONTINUOUS
 66
     1
 40
0.003150
 41
0.003150
  0
VERTEX
  8
255
 62
     1
  6
CONTINUOUS
 10
2.030650
 20
1.241744
  0
VERTEX
  8
255
 62
     1
  6
CONTINUOUS
 10
2.092547
 20
1.241744
  0
SEQEND
  8
0
  0
POLYLINE
  8
255
 62
     1
  6
CONTINUOUS
 66
     1
 40
0.003150
 41
0.003150
  0
VERTEX
  8
255
 62
     1
  6
CONTINUOUS
 10
2.030650
 20
0.586335
  0
VERTEX
  8
255
 62
     1
  6
CONTINUOUS
 10
2.092547
 20
0.586335
  0
SEQEND
  8
0
  0
ENDSEC
  0
EOF
