  0
SECTION
  2
HEADER
  9
$ACADVER
  1
AC1009
  9
$INSBASE
 10
0.0
 20
0.0
 30
0.0
  9
$EXTMIN
 10
0.577972
 20
0.580166
 30
0.0
  9
$EXTMAX
 10
392.577972
 20
263.080166
 30
0.0
  9
$LIMMIN
 10
0.0
 20
0.0
  9
$LIMMAX
 10
12.0
 20
9.0
  9
$ORTHOMODE
 70
     1
  9
$REGENMODE
 70
     1
  9
$FILLMODE
 70
     1
  9
$QTEXTMODE
 70
     0
  9
$MIRRTEXT
 70
     1
  9
$DRAGMODE
 70
     2
  9
$LTSCALE
 40
5.0
  9
$OSMODE
 70
     0
  9
$ATTMODE
 70
     1
  9
$TEXTSIZE
 40
2.0
  9
$TRACEWID
 40
0.05
  9
$TEXTSTYLE
  7
ROMANS
  9
$CLAYER
  8
0
  9
$CELTYPE
  6
CONTINUOUS
  9
$CECOLOR
 62
   256
  9
$DIMSCALE
 40
1.0
  9
$DIMASZ
 40
0.18
  9
$DIMEXO
 40
0.0625
  9
$DIMDLI
 40
0.38
  9
$DIMRND
 40
0.0
  9
$DIMDLE
 40
0.0
  9
$DIMEXE
 40
0.18
  9
$DIMTP
 40
0.0
  9
$DIMTM
 40
0.0
  9
$DIMTXT
 40
0.18
  9
$DIMCEN
 40
0.09
  9
$DIMTSZ
 40
0.0
  9
$DIMTOL
 70
     0
  9
$DIMLIM
 70
     0
  9
$DIMTIH
 70
     1
  9
$DIMTOH
 70
     1
  9
$DIMSE1
 70
     0
  9
$DIMSE2
 70
     0
  9
$DIMTAD
 70
     0
  9
$DIMZIN
 70
     0
  9
$DIMBLK
  1

  9
$DIMASO
 70
     1
  9
$DIMSHO
 70
     1
  9
$DIMPOST
  1

  9
$DIMAPOST
  1

  9
$DIMALT
 70
     0
  9
$DIMALTD
 70
     2
  9
$DIMALTF
 40
25.4
  9
$DIMLFAC
 40
1.0
  9
$DIMTOFL
 70
     0
  9
$DIMTVP
 40
0.0
  9
$DIMTIX
 70
     0
  9
$DIMSOXD
 70
     0
  9
$DIMSAH
 70
     0
  9
$DIMBLK1
  1

  9
$DIMBLK2
  1

  9
$DIMSTYLE
  2
*UNNAMED
  9
$DIMCLRD
 70
     0
  9
$DIMCLRE
 70
     0
  9
$DIMCLRT
 70
     0
  9
$DIMTFAC
 40
1.0
  9
$DIMGAP
 40
0.09
  9
$LUNITS
 70
     2
  9
$LUPREC
 70
     4
  9
$SKETCHINC
 40
0.1
  9
$FILLETRAD
 40
0.0
  9
$AUNITS
 70
     0
  9
$AUPREC
 70
     0
  9
$MENU
  1
acad
  9
$ELEVATION
 40
0.0
  9
$PELEVATION
 40
0.0
  9
$THICKNESS
 40
0.0
  9
$LIMCHECK
 70
     0
  9
$BLIPMODE
 70
     1
  9
$CHAMFERA
 40
0.0
  9
$CHAMFERB
 40
0.0
  9
$SKPOLY
 70
     0
  9
$TDCREATE
 40
2449017.531081134
  9
$TDUPDATE
 40
2449162.335866203
  9
$TDINDWG
 40
0.0716295139
  9
$TDUSRTIMER
 40
0.0716295139
  9
$USRTIMER
 70
     1
  9
$ANGBASE
 50
0.0
  9
$ANGDIR
 70
     0
  9
$PDMODE
 70
     0
  9
$PDSIZE
 40
0.0
  9
$PLINEWID
 40
0.0
  9
$COORDS
 70
     2
  9
$SPLFRAME
 70
     0
  9
$SPLINETYPE
 70
     6
  9
$SPLINESEGS
 70
     8
  9
$ATTDIA
 70
     0
  9
$ATTREQ
 70
     1
  9
$HANDLING
 70
     0
  9
$HANDSEED
  5
0
  9
$SURFTAB1
 70
   250
  9
$SURFTAB2
 70
   250
  9
$SURFTYPE
 70
     6
  9
$SURFU
 70
     6
  9
$SURFV
 70
     6
  9
$UCSNAME
  2

  9
$UCSORG
 10
0.0
 20
0.0
 30
0.0
  9
$UCSXDIR
 10
1.0
 20
0.0
 30
0.0
  9
$UCSYDIR
 10
0.0
 20
1.0
 30
0.0
  9
$PUCSNAME
  2

  9
$PUCSORG
 10
0.0
 20
0.0
 30
0.0
  9
$PUCSXDIR
 10
1.0
 20
0.0
 30
0.0
  9
$PUCSYDIR
 10
0.0
 20
1.0
 30
0.0
  9
$USERI1
 70
     0
  9
$USERI2
 70
     0
  9
$USERI3
 70
     0
  9
$USERI4
 70
     0
  9
$USERI5
 70
     0
  9
$USERR1
 40
0.0
  9
$USERR2
 40
0.0
  9
$USERR3
 40
0.0
  9
$USERR4
 40
0.0
  9
$USERR5
 40
0.0
  9
$WORLDVIEW
 70
     1
  9
$SHADEDGE
 70
     3
  9
$SHADEDIF
 70
    70
  9
$TILEMODE
 70
     1
  9
$MAXACTVP
 70
    16
  9
$PINSBASE
 10
0.0
 20
0.0
 30
0.0
  9
$PLIMCHECK
 70
     0
  9
$PEXTMIN
 10
1.000000E+20
 20
1.000000E+20
 30
1.000000E+20
  9
$PEXTMAX
 10
-1.000000E+20
 20
-1.000000E+20
 30
-1.000000E+20
  9
$PLIMMIN
 10
0.0
 20
0.0
  9
$PLIMMAX
 10
12.0
 20
9.0
  9
$UNITMODE
 70
     0
  9
$VISRETAIN
 70
     0
  9
$PLINEGEN
 70
     0
  9
$PSLTSCALE
 70
     0
  9
$TREEDEPTH
 70
  3020
  9
$DWGCODEPAGE
  3
undefined
  0
ENDSEC
  0
SECTION
  2
TABLES
  0
TABLE
  2
VPORT
 70
     2
  0
VPORT
  2
*ACTIVE
 70
     0
 10
0.0
 20
0.0
 11
1.0
 21
1.0
 12
222.716226
 22
142.163925
 13
0.0
 23
0.0
 14
2.5
 24
2.5
 15
0.0
 25
0.0
 16
0.0
 26
0.0
 36
1.0
 17
0.0
 27
0.0
 37
0.0
 40
284.32785
 41
1.566616
 42
50.0
 43
0.0
 44
0.0
 50
0.0
 51
0.0
 71
     0
 72
   100
 73
     1
 74
     1
 75
     1
 76
     0
 77
     0
 78
     0
  0
ENDTAB
  0
TABLE
  2
LTYPE
 70
     7
  0
LTYPE
  2
CONTINUOUS
 70
    64
  3
Solid line
 72
    65
 73
     0
 40
0.0
  0
LTYPE
  2
DASHED
 70
    64
  3
__ __ __ __ __ __ __ __ __ __ __ __ __ __ __ __
 72
    65
 73
     2
 40
0.75
 49
0.5
 49
-0.25
  0
LTYPE
  2
CENTER
 70
    64
  3
____ _ ____ _ ____ _ ____ _ ____ _ ____ _ ____ 
 72
    65
 73
     4
 40
2.0
 49
1.25
 49
-0.25
 49
0.25
 49
-0.25
  0
LTYPE
  2
HIDDEN
 70
    64
  3
__ __ __ __ __ __ __ __ __ __ __ __ __ __ __ __
 72
    65
 73
     2
 40
0.375
 49
0.25
 49
-0.125
  0
LTYPE
  2
DOT
 70
     0
  3
. . . . . . . . . . . . . . . . . . . . . . . .
 72
    65
 73
     2
 40
0.25
 49
0.0
 49
-0.25
  0
LTYPE
  2
DASHDOT
 70
     0
  3
__ . __ . __ . __ . __ . __ . __ . __ . __ . __
 72
    65
 73
     4
 40
1.0
 49
0.5
 49
-0.25
 49
0.0
 49
-0.25
  0
LTYPE
  2
PHANTOM
 70
     0
  3
______  __  __  ______  __  __  ______  __  __ 
 72
    65
 73
     6
 40
2.5
 49
1.25
 49
-0.25
 49
0.25
 49
-0.25
 49
0.25
 49
-0.25
  0
ENDTAB
  0
TABLE
  2
LAYER
 70
    13
  0
LAYER
  2
0
 70
    64
 62
     7
  6
CONTINUOUS
  0
LAYER
  2
RAAMI
 70
    64
 62
    -4
  6
CONTINUOUS
  0
LAYER
  2
PAKSU
 70
    64
 62
    -3
  6
CONTINUOUS
  0
LAYER
  2
OHUT
 70
    64
 62
    -6
  6
CONTINUOUS
  0
LAYER
  2
SWEDEN
 70
    64
 62
    -7
  6
CONTINUOUS
  0
LAYER
  2
SWEDEN2
 70
    64
 62
    -5
  6
CONTINUOUS
  0
LAYER
  2
BASE
 70
    64
 62
    -7
  6
CONTINUOUS
  0
LAYER
  2
21
 70
    64
 62
    -2
  6
CONTINUOUS
  0
LAYER
  2
HEL035
 70
    64
 62
    -7
  6
CONTINUOUS
  0
LAYER
  2
MUO
 70
    64
 62
    -7
  6
CONTINUOUS
  0
LAYER
  2
1
 70
    64
 62
    -2
  6
CONTINUOUS
  0
LAYER
  2
BASE1
 70
    64
 62
    -1
  6
CONTINUOUS
  0
LAYER
  2
TEKS
 70
    64
 62
    -5
  6
CONTINUOUS
  0
ENDTAB
  0
TABLE
  2
STYLE
 70
     7
  0
STYLE
  2
STANDARD
 70
    64
 40
0.0
 41
1.0
 50
0.0
 71
     0
 42
2.5
  3
txt
  4

  0
STYLE
  2
ROMANS
 70
    64
 40
0.0
 41
1.0
 50
0.0
 71
     0
 42
2.0
  3
romans
  4

  0
STYLE
  2
GREEKC
 70
    64
 40
0.0
 41
1.0
 50
0.0
 71
     0
 42
1.5
  3
GREEKC
  4

  0
STYLE
  2
GREEKS
 70
    64
 40
0.0
 41
1.0
 50
0.0
 71
     0
 42
2.0
  3
TXT
  4

  0
STYLE
  2
MONOTXT
 70
    64
 40
0.0
 41
1.0
 50
0.0
 71
     0
 42
2.0
  3
monotxt
  4

  0
STYLE
  2
ROMANT
 70
     0
 40
0.0
 41
1.0
 50
0.0
 71
     0
 42
2.5
  3
romant
  4

  0
STYLE
  2
STAND
 70
    64
 40
0.0
 41
1.0
 50
0.0
 71
     0
 42
2.0
  3
TXT
  4

  0
ENDTAB
  0
TABLE
  2
VIEW
 70
     0
  0
ENDTAB
  0
TABLE
  2
UCS
 70
     0
  0
ENDTAB
  0
TABLE
  2
APPID
 70
     1
  0
APPID
  2
ACAD
 70
    64
  0
ENDTAB
  0
TABLE
  2
DIMSTYLE
 70
     0
  0
ENDTAB
  0
ENDSEC
  0
SECTION
  2
BLOCKS
  0
BLOCK
  8
0
  2
1
 70
    64
 10
0.0
 20
0.0
 30
0.0
  3
1
  0
ENDBLK
  8
0
  0
BLOCK
  8
0
  2
BLC26
 70
     0
 10
0.0
 20
0.0
 30
0.0
  3
BLC26
  0
ARC
  8
0
  6
CONTINUOUS
 10
-0.180576
 20
1.17922
 30
0.0
 40
1.196859
 50
90.0
 51
265.706237
  0
LINE
  8
0
  6
CONTINUOUS
 10
-0.186638
 20
-0.01092
 30
0.0
 11
0.458942
 21
-0.01092
 31
0.0
  0
LINE
  8
0
  6
CONTINUOUS
 10
-0.186638
 20
2.375671
 30
0.0
 11
0.45288
 21
2.375671
 31
0.0
  0
LINE
  8
0
  6
CONTINUOUS
 10
-0.185509
 20
-2.404629
 30
0.0
 11
0.460071
 21
-2.404629
 31
0.0
  0
ARC
  8
0
  6
CONTINUOUS
 10
-0.180576
 20
-1.207779
 30
0.0
 40
1.196859
 50
90.0
 51
270.0
  0
LINE
  8
0
  6
CONTINUOUS
 10
0.451525
 20
-2.404586
 30
0.0
 11
1.401805
 21
-2.404586
 31
0.0
  0
LINE
  8
0
  6
CONTINUOUS
 10
0.446785
 20
2.375674
 30
0.0
 11
1.418544
 21
2.375674
 31
0.0
  0
LINE
  8
0
  6
CONTINUOUS
 10
0.456627
 20
-0.010911
 30
0.0
 11
1.422749
 21
-0.010911
 31
0.0
  0
ENDBLK
  8
0
  0
BLOCK
  8
0
  2
BLC29
 70
    64
 10
0.0
 20
0.0
 30
0.0
  3
BLC29
  0
LINE
  8
0
  6
CONTINUOUS
 10
0.004865
 20
1.206889
 30
0.0
 11
2.350631
 21
-0.128465
 31
0.0
  0
LINE
  8
0
  6
CONTINUOUS
 10
2.350631
 20
-0.128465
 30
0.0
 11
0.004865
 21
-1.318384
 31
0.0
  0
ENDBLK
  8
0
  0
BLOCK
  8
0
  2
BLC43
 70
    64
 10
0.0
 20
0.0
 30
0.0
  3
BLC43
  0
TEXT
  8
SWEDEN2
  6
CONTINUOUS
 10
-0.646672
 20
-0.986365
 30
0.0
 40
2.0
  1
+
  0
ENDBLK
  8
0
  0
BLOCK
  8
0
  2
BLC42
 70
    64
 10
0.0
 20
0.0
 30
0.0
  3
BLC42
  0
TEXT
  8
SWEDEN2
  6
CONTINUOUS
 10
-0.655237
 20
-0.99442
 30
0.0
 40
2.0
  1
-
  0
ENDBLK
  8
0
  0
BLOCK
  8
0
  2
B155
 70
     0
 10
0.0
 20
0.0
 30
0.0
  3
B155
  0
LINE
  8
0
  6
CONTINUOUS
 10
0.0
 20
0.0
 30
0.0
 11
0.0
 21
-1.35427
 31
0.0
  0
LINE
  8
0
  6
CONTINUOUS
 10
-1.210228
 20
-1.35427
 30
0.0
 11
-0.015887
 21
-1.35427
 31
0.0
  0
LINE
  8
0
  6
CONTINUOUS
 10
-0.015887
 20
-1.35427
 30
0.0
 11
1.178454
 21
-1.35427
 31
0.0
  0
LINE
  8
0
  6
CONTINUOUS
 10
-0.831823
 20
-1.833881
 30
0.0
 11
0.752749
 21
-1.833881
 31
0.0
  0
LINE
  8
0
  6
CONTINUOUS
 10
-0.500718
 20
-2.322055
 30
0.0
 11
0.386169
 21
-2.322055
 31
0.0
  0
ENDBLK
  8
0
  0
BLOCK
  8
0
  2
ABBA3SX
 70
    64
 10
0.0
 20
0.0
 30
0.0
  3
ABBA3SX
  0
TEXT
  8
RAAMI
  6
DASHED
 10
354.190282
 20
15.793111
 30
0.0
 40
1.4
  1
LEHTI SHEET
  7
STAND
  0
LINE
  8
PAKSU
 10
0.236802
 20
0.237701
 30
0.0
 11
0.236802
 21
262.737701
 31
0.0
  0
LINE
  8
PAKSU
 10
392.236802
 20
262.737701
 30
0.0
 11
392.236802
 21
0.237701
 31
0.0
  0
LINE
  8
PAKSU
 10
0.236802
 20
0.237701
 30
0.0
 11
392.236802
 21
0.237701
 31
0.0
  0
TEXT
  8
RAAMI
 10
42.236802
 20
5.587211
 30
0.0
 40
2.5
  1
C
  7
ROMANS
  0
TEXT
  8
RAAMI
 10
42.236802
 20
1.194994
 30
0.0
 40
2.5
  1
B
  7
ROMANS
  0
TEXT
  8
RAAMI
 10
257.406709
 20
1.741485
 30
0.0
 40
3.0
  1
Power
 41
0.8
  7
ROMANS
  0
TEXT
  8
RAAMI
 10
273.236802
 20
7.237701
 30
0.0
 40
1.4
  1
VAST.OSASTO RESP.DEPT.
  7
ROMANS
  0
TEXT
  8
RAAMI
 10
210.236802
 20
32.237701
 30
0.0
 40
1.4
  1
TEKI  PREPARED
  7
ROMANS
  0
LINE
  8
OHUT
 10
271.236802
 20
9.737701
 30
0.0
 11
271.236802
 21
0.237701
 31
0.0
  0
LINE
  8
OHUT
 10
257.236802
 20
9.737701
 30
0.0
 11
257.236802
 21
35.237701
 31
0.0
  0
LINE
  8
OHUT
 10
40.736802
 20
4.737701
 30
0.0
 11
209.236802
 21
4.737701
 31
0.0
  0
LINE
  8
OHUT
 10
46.736802
 20
0.237701
 30
0.0
 11
46.736802
 21
9.237701
 31
0.0
  0
LINE
  8
OHUT
 10
46.736802
 20
9.237701
 30
0.0
 11
209.236802
 21
9.237701
 31
0.0
  0
TEXT
  8
RAAMI
 10
27.736802
 20
2.471035
 30
0.0
 40
1.4
  1
REVISION
  7
ROMANS
  0
TEXT
  8
RAAMI
 10
27.736802
 20
4.737701
 30
0.0
 40
1.4
  1
MUUTOS
  7
ROMANS
  0
LINE
  8
OHUT
 10
282.236802
 20
9.737701
 30
0.0
 11
282.236802
 21
18.237701
 31
0.0
  0
TEXT
  8
RAAMI
 10
237.736802
 20
1.737701
 30
0.0
 40
3.0
  1
Strömberg
 41
0.8
  7
ROMANS
  0
TEXT
  8
RAAMI
 10
229.736802
 20
1.737701
 30
0.0
 40
3.0
  1
ABB 
 41
0.8
  7
ROMANS
  0
LINE
  8
RAAMI
 10
223.136802
 20
1.737701
 30
0.0
 11
223.136802
 21
5.097701
 31
0.0
  0
LINE
  8
RAAMI
 10
223.136802
 20
8.737701
 30
0.0
 11
225.096802
 21
8.737701
 31
0.0
  0
LINE
  8
RAAMI
 10
225.096802
 20
8.737701
 30
0.0
 11
225.096802
 21
5.377701
 31
0.0
  0
LINE
  8
RAAMI
 10
225.096802
 20
5.377701
 30
0.0
 11
223.136802
 21
5.377701
 31
0.0
  0
LINE
  8
RAAMI
 10
223.136802
 20
5.097701
 30
0.0
 11
225.096802
 21
5.097701
 31
0.0
  0
LINE
  8
RAAMI
 10
225.096802
 20
5.097701
 30
0.0
 11
225.096802
 21
1.737701
 31
0.0
  0
LINE
  8
RAAMI
 10
225.096802
 20
1.737701
 30
0.0
 11
223.136802
 21
1.737701
 31
0.0
  0
LINE
  8
RAAMI
 10
223.136802
 20
5.377701
 30
0.0
 11
223.136802
 21
8.737701
 31
0.0
  0
ARC
  8
RAAMI
 10
225.936802
 20
7.162701
 30
0.0
 40
1.575
 50
298.455859
 51
90.052437
  0
LINE
  8
RAAMI
 10
225.376802
 20
8.737701
 30
0.0
 11
225.935361
 21
8.737701
 31
0.0
  0
LINE
  8
RAAMI
 10
225.376802
 20
8.737701
 30
0.0
 11
225.376802
 21
5.377701
 31
0.0
  0
LINE
  8
RAAMI
 10
225.376802
 20
5.377701
 30
0.0
 11
227.361245
 21
5.377701
 31
0.0
  0
LINE
  8
RAAMI
 10
227.616802
 20
5.097701
 30
0.0
 11
225.376802
 21
5.097701
 31
0.0
  0
LINE
  8
RAAMI
 10
225.376802
 20
5.097701
 30
0.0
 11
225.376802
 21
1.737701
 31
0.0
  0
ARC
  8
RAAMI
 10
225.936802
 20
3.837701
 30
0.0
 40
2.1
 50
269.937724
 51
37.056553
  0
LINE
  8
RAAMI
 10
225.376802
 20
1.737701
 30
0.0
 11
225.93452
 21
1.737703
 31
0.0
  0
ARC
  8
RAAMI
 10
225.936802
 20
3.837701
 30
0.0
 40
2.1
 50
47.28622
 51
68.787999
  0
INSERT
  8
RAAMI
  2
*X11
 10
215.646802
 20
1.737701
 30
0.0
 41
0.7
 42
0.7
 43
0.7
  0
INSERT
  8
RAAMI
  2
*X12
 10
215.646802
 20
1.737701
 30
0.0
 41
0.7
 42
0.7
 43
0.7
  0
INSERT
  8
RAAMI
  2
*X13
 10
215.646802
 20
1.737701
 30
0.0
 41
0.7
 42
0.7
 43
0.7
  0
INSERT
  8
RAAMI
  2
*X14
 10
215.646802
 20
1.737701
 30
0.0
 41
0.7
 42
0.7
 43
0.7
  0
INSERT
  8
RAAMI
  2
*X14
 10
210.186802
 20
1.737701
 30
0.0
 41
0.7
 42
0.7
 43
0.7
  0
INSERT
  8
RAAMI
  2
*X13
 10
210.186802
 20
1.737701
 30
0.0
 41
0.7
 42
0.7
 43
0.7
  0
INSERT
  8
RAAMI
  2
*X12
 10
210.186802
 20
1.737701
 30
0.0
 41
0.7
 42
0.7
 43
0.7
  0
INSERT
  8
RAAMI
  2
*X11
 10
210.186802
 20
1.737701
 30
0.0
 41
0.7
 42
0.7
 43
0.7
  0
ARC
  8
RAAMI
 10
220.476802
 20
3.837701
 30
0.0
 40
2.1
 50
47.28622
 51
68.787999
  0
LINE
  8
RAAMI
 10
219.916802
 20
1.737701
 30
0.0
 11
220.47452
 21
1.737703
 31
0.0
  0
ARC
  8
RAAMI
 10
220.476802
 20
3.837701
 30
0.0
 40
2.1
 50
269.937724
 51
37.056553
  0
LINE
  8
RAAMI
 10
219.916802
 20
5.097701
 30
0.0
 11
219.916802
 21
1.737701
 31
0.0
  0
LINE
  8
RAAMI
 10
222.156802
 20
5.097701
 30
0.0
 11
219.916802
 21
5.097701
 31
0.0
  0
LINE
  8
RAAMI
 10
219.916802
 20
5.377701
 30
0.0
 11
221.901245
 21
5.377701
 31
0.0
  0
LINE
  8
RAAMI
 10
219.916802
 20
8.737701
 30
0.0
 11
219.916802
 21
5.377701
 31
0.0
  0
LINE
  8
RAAMI
 10
219.916802
 20
8.737701
 30
0.0
 11
220.475361
 21
8.737701
 31
0.0
  0
ARC
  8
RAAMI
 10
220.476802
 20
7.162701
 30
0.0
 40
1.575
 50
298.455859
 51
90.052437
  0
LINE
  8
RAAMI
 10
217.676802
 20
5.377701
 30
0.0
 11
217.676802
 21
8.737701
 31
0.0
  0
LINE
  8
RAAMI
 10
219.636802
 20
1.737701
 30
0.0
 11
217.676802
 21
1.737701
 31
0.0
  0
LINE
  8
RAAMI
 10
219.636802
 20
5.097701
 30
0.0
 11
219.636802
 21
1.737701
 31
0.0
  0
LINE
  8
RAAMI
 10
217.676802
 20
5.097701
 30
0.0
 11
219.636802
 21
5.097701
 31
0.0
  0
LINE
  8
RAAMI
 10
219.636802
 20
5.377701
 30
0.0
 11
217.676802
 21
5.377701
 31
0.0
  0
LINE
  8
RAAMI
 10
219.636802
 20
8.737701
 30
0.0
 11
219.636802
 21
5.377701
 31
0.0
  0
LINE
  8
RAAMI
 10
217.676802
 20
8.737701
 30
0.0
 11
219.636802
 21
8.737701
 31
0.0
  0
LINE
  8
RAAMI
 10
217.676802
 20
1.737701
 30
0.0
 11
217.676802
 21
5.097701
 31
0.0
  0
INSERT
  8
RAAMI
  2
*X10
 10
210.186802
 20
1.737701
 30
0.0
 41
0.7
 42
0.7
 43
0.7
  0
INSERT
  8
RAAMI
  2
*X9
 10
210.186802
 20
1.737701
 30
0.0
 41
0.7
 42
0.7
 43
0.7
  0
INSERT
  8
RAAMI
  2
*X8
 10
210.186802
 20
1.737701
 30
0.0
 41
0.7
 42
0.7
 43
0.7
  0
INSERT
  8
RAAMI
  2
*X7
 10
210.186802
 20
1.737701
 30
0.0
 41
0.7
 42
0.7
 43
0.7
  0
LINE
  8
RAAMI
 10
211.356691
 20
5.08024
 30
0.0
 11
210.186802
 21
1.737701
 31
0.0
  0
LINE
  8
RAAMI
 10
213.546802
 20
5.097701
 30
0.0
 11
213.546802
 21
3.137701
 31
0.0
  0
LINE
  8
RAAMI
 10
213.826802
 20
5.097701
 30
0.0
 11
213.826802
 21
3.137701
 31
0.0
  0
LINE
  8
RAAMI
 10
213.826802
 20
5.097701
 30
0.0
 11
216.010059
 21
5.097701
 31
0.0
  0
LINE
  8
RAAMI
 10
213.826802
 20
5.377701
 30
0.0
 11
215.911916
 21
5.377701
 31
0.0
  0
LINE
  8
RAAMI
 10
216.011294
 20
5.096296
 30
0.0
 11
217.186802
 21
1.737701
 31
0.0
  0
LINE
  8
RAAMI
 10
211.359785
 20
5.097701
 30
0.0
 11
213.546802
 21
5.097701
 31
0.0
  0
LINE
  8
RAAMI
 10
211.458743
 20
5.377701
 30
0.0
 11
213.546802
 21
5.377701
 31
0.0
  0
LINE
  8
RAAMI
 10
213.546802
 20
8.737701
 30
0.0
 11
212.636802
 21
8.737701
 31
0.0
  0
LINE
  8
RAAMI
 10
213.826802
 20
3.137701
 30
0.0
 11
214.946696
 21
3.137701
 31
0.0
  0
LINE
  8
RAAMI
 10
213.826802
 20
8.737701
 30
0.0
 11
213.826802
 21
5.377701
 31
0.0
  0
LINE
  8
RAAMI
 10
213.546802
 20
8.737701
 30
0.0
 11
213.546802
 21
5.377701
 31
0.0
  0
LINE
  8
RAAMI
 10
214.736802
 20
8.737701
 30
0.0
 11
213.826802
 21
8.737701
 31
0.0
  0
LINE
  8
RAAMI
 10
214.9479
 20
3.134565
 30
0.0
 11
215.436802
 21
1.737701
 31
0.0
  0
LINE
  8
RAAMI
 10
214.736802
 20
8.737701
 30
0.0
 11
215.913155
 21
5.376693
 31
0.0
  0
LINE
  8
RAAMI
 10
212.425592
 20
3.134244
 30
0.0
 11
211.936802
 21
1.737701
 31
0.0
  0
LINE
  8
RAAMI
 10
212.425589
 20
3.137701
 30
0.0
 11
213.546802
 21
3.137701
 31
0.0
  0
LINE
  8
RAAMI
 10
212.636802
 20
8.737701
 30
0.0
 11
211.459274
 21
5.373336
 31
0.0
  0
LINE
  8
RAAMI
 10
215.436802
 20
1.737701
 30
0.0
 11
217.186802
 21
1.737701
 31
0.0
  0
LINE
  8
RAAMI
 10
210.186802
 20
1.737701
 30
0.0
 11
211.936802
 21
1.737701
 31
0.0
  0
LINE
  8
OHUT
 10
369.736802
 20
9.737701
 30
0.0
 11
369.736802
 21
0.237701
 31
0.0
  0
TEXT
  8
RAAMI
 10
371.236802
 20
7.237701
 30
0.0
 40
1.4
  1
PAINOS  REVISION
  7
ROMANS
  0
LINE
  8
OHUT
 10
349.736802
 20
9.737701
 30
0.0
 11
349.736802
 21
18.237701
 31
0.0
  0
TEXT
  8
RAAMI
 10
309.236802
 20
7.237701
 30
0.0
 40
1.4
  1
PIIRUSTUS NO  DRAWING NR
  7
ROMANS
  0
TEXT
  8
RAAMI
 10
309.236802
 20
15.737701
 30
0.0
 40
1.4
  1
KOODI  CODE
  7
ROMANS
  0
TEXT
  8
RAAMI
 10
309.236802
 20
32.737701
 30
0.0
 40
1.4
  1
NIMITYS  NAME
  7
ROMANS
  0
TEXT
  8
RAAMI
 10
259.236802
 20
15.737701
 30
0.0
 40
1.4
  1
SUHDE  SCALE
  7
ROMANS
  0
TEXT
  8
RAAMI
 10
259.236802
 20
23.737701
 30
0.0
 40
1.4
  1
TOLERANSSIT  TOLERANCES
  7
ROMANS
  0
TEXT
  8
RAAMI
 10
259.236802
 20
32.737701
 30
0.0
 40
1.4
  1
LIITTYY  CONCERNING
  7
ROMANS
  0
LINE
  8
OHUT
 10
307.236802
 20
0.237701
 30
0.0
 11
307.236802
 21
35.237701
 31
0.0
  0
TEXT
  8
RAAMI
 10
209.979637
 20
15.704368
 30
0.0
 40
1.4
  1
HYVÄKSYI  APPROVED
  7
ROMANS
  0
TEXT
  8
RAAMI
 10
210.236802
 20
23.971035
 30
0.0
 40
1.4
  1
TARKASTI  CHECKED
  7
ROMANS
  0
LINE
  8
PAKSU
 10
209.236802
 20
35.237701
 30
0.0
 11
392.236802
 21
35.237701
 31
0.0
  0
LINE
  8
OHUT
 10
209.236802
 20
26.737701
 30
0.0
 11
307.236802
 21
26.737701
 31
0.0
  0
LINE
  8
OHUT
 10
209.236802
 20
9.737701
 30
0.0
 11
392.236802
 21
9.737701
 31
0.0
  0
LINE
  8
OHUT
 10
209.236802
 20
18.237701
 30
0.0
 11
392.236802
 21
18.237701
 31
0.0
  0
LINE
  8
PAKSU
 10
392.236802
 20
0.237701
 30
0.0
 11
392.236802
 21
35.237701
 31
0.0
  0
LINE
  8
PAKSU
 10
209.236802
 20
0.237701
 30
0.0
 11
209.236802
 21
35.237701
 31
0.0
  0
LINE
  8
PAKSU
 10
209.236802
 20
0.237701
 30
0.0
 11
392.236802
 21
0.237701
 31
0.0
  0
LINE
  8
RAAMI
 10
18.236802
 20
0.237701
 30
0.0
 11
0.236802
 21
0.237701
 31
0.0
  0
LINE
  8
PAKSU
 10
0.236802
 20
262.737701
 30
0.0
 11
392.236802
 21
262.737701
 31
0.0
  0
TEXT
  8
RAAMI
  6
DASHED
 10
292.216898
 20
11.813061
 30
0.0
 40
3.0
  1
A3
  7
GREEKS
  0
ENDBLK
  8
0
  0
BLOCK
  8
0
  2
*X7
 70
    65
 10
0.0
 20
0.0
 30
0.0
  3
*X
  0
LINE
  8
0
 62
     0
 10
2.284499
 20
6.52714
 30
0.0
 11
4.8
 21
9.042641
 31
0.0
  0
LINE
  8
0
 62
     0
 10
2.379686
 20
6.799104
 30
0.0
 11
4.8
 21
9.219417
 31
0.0
  0
LINE
  8
0
 62
     0
 10
2.474874
 20
7.071068
 30
0.0
 11
4.8
 21
9.396194
 31
0.0
  0
LINE
  8
0
 62
     0
 10
2.570061
 20
7.343032
 30
0.0
 11
4.8
 21
9.572971
 31
0.0
  0
LINE
  8
0
 62
     0
 10
2.665249
 20
7.614996
 30
0.0
 11
4.8
 21
9.749747
 31
0.0
  0
LINE
  8
0
 62
     0
 10
2.760436
 20
7.88696
 30
0.0
 11
4.8
 21
9.926524
 31
0.0
  0
LINE
  8
0
 62
     0
 10
2.855624
 20
8.158924
 30
0.0
 11
4.696699
 21
10.0
 31
0.0
  0
LINE
  8
0
 62
     0
 10
2.950811
 20
8.430889
 30
0.0
 11
4.519922
 21
10.0
 31
0.0
  0
LINE
  8
0
 62
     0
 10
3.045998
 20
8.702853
 30
0.0
 11
4.343146
 21
10.0
 31
0.0
  0
LINE
  8
0
 62
     0
 10
3.141186
 20
8.974817
 30
0.0
 11
4.166369
 21
10.0
 31
0.0
  0
LINE
  8
0
 62
     0
 10
3.236373
 20
9.246781
 30
0.0
 11
3.989592
 21
10.0
 31
0.0
  0
LINE
  8
0
 62
     0
 10
3.331561
 20
9.518745
 30
0.0
 11
3.812816
 21
10.0
 31
0.0
  0
LINE
  8
0
 62
     0
 10
3.426748
 20
9.790709
 30
0.0
 11
3.636039
 21
10.0
 31
0.0
  0
LINE
  8
0
 62
     0
 10
2.189311
 20
6.255175
 30
0.0
 11
4.8
 21
8.865864
 31
0.0
  0
LINE
  8
0
 62
     0
 10
2.094124
 20
5.983211
 30
0.0
 11
4.8
 21
8.689087
 31
0.0
  0
LINE
  8
0
 62
     0
 10
1.998936
 20
5.711247
 30
0.0
 11
4.8
 21
8.512311
 31
0.0
  0
LINE
  8
0
 62
     0
 10
1.903749
 20
5.439283
 30
0.0
 11
4.8
 21
8.335534
 31
0.0
  0
LINE
  8
0
 62
     0
 10
1.841243
 20
5.2
 30
0.0
 11
4.8
 21
8.158757
 31
0.0
  0
LINE
  8
0
 62
     0
 10
2.018019
 20
5.2
 30
0.0
 11
4.8
 21
7.981981
 31
0.0
  0
LINE
  8
0
 62
     0
 10
2.194796
 20
5.2
 30
0.0
 11
4.8
 21
7.805204
 31
0.0
  0
LINE
  8
0
 62
     0
 10
2.371573
 20
5.2
 30
0.0
 11
4.8
 21
7.628427
 31
0.0
  0
LINE
  8
0
 62
     0
 10
2.54835
 20
5.2
 30
0.0
 11
4.8
 21
7.45165
 31
0.0
  0
LINE
  8
0
 62
     0
 10
2.725126
 20
5.2
 30
0.0
 11
4.8
 21
7.274874
 31
0.0
  0
LINE
  8
0
 62
     0
 10
2.901903
 20
5.2
 30
0.0
 11
4.8
 21
7.098097
 31
0.0
  0
LINE
  8
0
 62
     0
 10
3.07868
 20
5.2
 30
0.0
 11
4.8
 21
6.92132
 31
0.0
  0
LINE
  8
0
 62
     0
 10
3.255456
 20
5.2
 30
0.0
 11
4.8
 21
6.744544
 31
0.0
  0
LINE
  8
0
 62
     0
 10
3.432233
 20
5.2
 30
0.0
 11
4.8
 21
6.567767
 31
0.0
  0
LINE
  8
0
 62
     0
 10
3.60901
 20
5.2
 30
0.0
 11
4.8
 21
6.39099
 31
0.0
  0
LINE
  8
0
 62
     0
 10
3.785786
 20
5.2
 30
0.0
 11
4.8
 21
6.214214
 31
0.0
  0
LINE
  8
0
 62
     0
 10
3.962563
 20
5.2
 30
0.0
 11
4.8
 21
6.037437
 31
0.0
  0
LINE
  8
0
 62
     0
 10
4.13934
 20
5.2
 30
0.0
 11
4.8
 21
5.86066
 31
0.0
  0
LINE
  8
0
 62
     0
 10
4.316117
 20
5.2
 30
0.0
 11
4.8
 21
5.683883
 31
0.0
  0
LINE
  8
0
 62
     0
 10
4.492893
 20
5.2
 30
0.0
 11
4.8
 21
5.507107
 31
0.0
  0
LINE
  8
0
 62
     0
 10
4.66967
 20
5.2
 30
0.0
 11
4.8
 21
5.33033
 31
0.0
  0
ENDBLK
  8
0
  0
BLOCK
  8
0
  2
*X8
 70
    65
 10
0.0
 20
0.0
 30
0.0
  3
*X
  0
LINE
  8
0
 62
     0
 10
5.2
 20
6.083883
 30
0.0
 11
7.178252
 21
8.062136
 31
0.0
  0
LINE
  8
0
 62
     0
 10
5.2
 20
6.26066
 30
0.0
 11
7.132421
 21
8.193082
 31
0.0
  0
LINE
  8
0
 62
     0
 10
5.2
 20
6.437437
 30
0.0
 11
7.08659
 21
8.324027
 31
0.0
  0
LINE
  8
0
 62
     0
 10
5.2
 20
6.614214
 30
0.0
 11
7.040759
 21
8.454973
 31
0.0
  0
LINE
  8
0
 62
     0
 10
5.2
 20
6.79099
 30
0.0
 11
6.994928
 21
8.585919
 31
0.0
  0
LINE
  8
0
 62
     0
 10
5.2
 20
6.967767
 30
0.0
 11
6.949097
 21
8.716864
 31
0.0
  0
LINE
  8
0
 62
     0
 10
5.2
 20
7.144544
 30
0.0
 11
6.903266
 21
8.84781
 31
0.0
  0
LINE
  8
0
 62
     0
 10
5.2
 20
7.32132
 30
0.0
 11
6.857435
 21
8.978756
 31
0.0
  0
LINE
  8
0
 62
     0
 10
5.2
 20
7.498097
 30
0.0
 11
6.811604
 21
9.109702
 31
0.0
  0
LINE
  8
0
 62
     0
 10
5.2
 20
7.674874
 30
0.0
 11
6.765773
 21
9.240647
 31
0.0
  0
LINE
  8
0
 62
     0
 10
5.2
 20
7.85165
 30
0.0
 11
6.719942
 21
9.371593
 31
0.0
  0
LINE
  8
0
 62
     0
 10
5.2
 20
8.028427
 30
0.0
 11
6.674111
 21
9.502539
 31
0.0
  0
LINE
  8
0
 62
     0
 10
5.2
 20
8.205204
 30
0.0
 11
6.62828
 21
9.633484
 31
0.0
  0
LINE
  8
0
 62
     0
 10
5.2
 20
8.381981
 30
0.0
 11
6.582449
 21
9.76443
 31
0.0
  0
LINE
  8
0
 62
     0
 10
5.2
 20
8.558757
 30
0.0
 11
6.536619
 21
9.895376
 31
0.0
  0
LINE
  8
0
 62
     0
 10
5.2
 20
8.735534
 30
0.0
 11
6.464466
 21
10.0
 31
0.0
  0
LINE
  8
0
 62
     0
 10
5.2
 20
8.912311
 30
0.0
 11
6.287689
 21
10.0
 31
0.0
  0
LINE
  8
0
 62
     0
 10
5.2
 20
9.089087
 30
0.0
 11
6.110913
 21
10.0
 31
0.0
  0
LINE
  8
0
 62
     0
 10
5.2
 20
9.265864
 30
0.0
 11
5.934136
 21
10.0
 31
0.0
  0
LINE
  8
0
 62
     0
 10
5.2
 20
9.442641
 30
0.0
 11
5.757359
 21
10.0
 31
0.0
  0
LINE
  8
0
 62
     0
 10
5.2
 20
9.619417
 30
0.0
 11
5.580583
 21
10.0
 31
0.0
  0
LINE
  8
0
 62
     0
 10
5.2
 20
9.796194
 30
0.0
 11
5.403806
 21
10.0
 31
0.0
  0
LINE
  8
0
 62
     0
 10
5.2
 20
9.972971
 30
0.0
 11
5.227029
 21
10.0
 31
0.0
  0
LINE
  8
0
 62
     0
 10
5.2
 20
5.907107
 30
0.0
 11
7.224083
 21
7.93119
 31
0.0
  0
LINE
  8
0
 62
     0
 10
5.2
 20
5.73033
 30
0.0
 11
7.269914
 21
7.800245
 31
0.0
  0
LINE
  8
0
 62
     0
 10
5.2
 20
5.553553
 30
0.0
 11
7.315745
 21
7.669299
 31
0.0
  0
LINE
  8
0
 62
     0
 10
5.2
 20
5.376777
 30
0.0
 11
7.361576
 21
7.538353
 31
0.0
  0
LINE
  8
0
 62
     0
 10
5.2
 20
5.2
 30
0.0
 11
7.407407
 21
7.407407
 31
0.0
  0
LINE
  8
0
 62
     0
 10
5.376777
 20
5.2
 30
0.0
 11
7.453238
 21
7.276462
 31
0.0
  0
LINE
  8
0
 62
     0
 10
5.553553
 20
5.2
 30
0.0
 11
7.499069
 21
7.145516
 31
0.0
  0
LINE
  8
0
 62
     0
 10
5.73033
 20
5.2
 30
0.0
 11
7.5449
 21
7.01457
 31
0.0
  0
LINE
  8
0
 62
     0
 10
5.907107
 20
5.2
 30
0.0
 11
7.590731
 21
6.883625
 31
0.0
  0
LINE
  8
0
 62
     0
 10
6.083883
 20
5.2
 30
0.0
 11
7.636562
 21
6.752679
 31
0.0
  0
LINE
  8
0
 62
     0
 10
6.26066
 20
5.2
 30
0.0
 11
7.682393
 21
6.621733
 31
0.0
  0
LINE
  8
0
 62
     0
 10
6.437437
 20
5.2
 30
0.0
 11
7.728224
 21
6.490788
 31
0.0
  0
LINE
  8
0
 62
     0
 10
6.614214
 20
5.2
 30
0.0
 11
7.774055
 21
6.359842
 31
0.0
  0
LINE
  8
0
 62
     0
 10
6.79099
 20
5.2
 30
0.0
 11
7.819886
 21
6.228896
 31
0.0
  0
LINE
  8
0
 62
     0
 10
6.967767
 20
5.2
 30
0.0
 11
7.865717
 21
6.09795
 31
0.0
  0
LINE
  8
0
 62
     0
 10
7.144544
 20
5.2
 30
0.0
 11
7.911548
 21
5.967005
 31
0.0
  0
LINE
  8
0
 62
     0
 10
7.32132
 20
5.2
 30
0.0
 11
7.957379
 21
5.836059
 31
0.0
  0
LINE
  8
0
 62
     0
 10
7.498097
 20
5.2
 30
0.0
 11
8.00321
 21
5.705113
 31
0.0
  0
LINE
  8
0
 62
     0
 10
7.674874
 20
5.2
 30
0.0
 11
8.049041
 21
5.574168
 31
0.0
  0
LINE
  8
0
 62
     0
 10
7.85165
 20
5.2
 30
0.0
 11
8.094872
 21
5.443222
 31
0.0
  0
LINE
  8
0
 62
     0
 10
8.028427
 20
5.2
 30
0.0
 11
8.140703
 21
5.312276
 31
0.0
  0
ENDBLK
  8
0
  0
BLOCK
  8
0
  2
*X9
 70
    65
 10
0.0
 20
0.0
 30
0.0
  3
*X
  0
LINE
  8
0
 62
     0
 10
0.0
 20
0.0
 30
0.0
 11
4.8
 21
4.8
 31
0.0
  0
LINE
  8
0
 62
     0
 10
0.095187
 20
0.271964
 30
0.0
 11
4.623223
 21
4.8
 31
0.0
  0
LINE
  8
0
 62
     0
 10
0.190375
 20
0.543928
 30
0.0
 11
4.446447
 21
4.8
 31
0.0
  0
LINE
  8
0
 62
     0
 10
0.285562
 20
0.815892
 30
0.0
 11
4.26967
 21
4.8
 31
0.0
  0
LINE
  8
0
 62
     0
 10
0.38075
 20
1.087857
 30
0.0
 11
4.092893
 21
4.8
 31
0.0
  0
LINE
  8
0
 62
     0
 10
0.475937
 20
1.359821
 30
0.0
 11
3.916117
 21
4.8
 31
0.0
  0
LINE
  8
0
 62
     0
 10
0.571125
 20
1.631785
 30
0.0
 11
3.73934
 21
4.8
 31
0.0
  0
LINE
  8
0
 62
     0
 10
0.666312
 20
1.903749
 30
0.0
 11
3.562563
 21
4.8
 31
0.0
  0
LINE
  8
0
 62
     0
 10
0.7615
 20
2.175713
 30
0.0
 11
3.385786
 21
4.8
 31
0.0
  0
LINE
  8
0
 62
     0
 10
0.856687
 20
2.447677
 30
0.0
 11
3.20901
 21
4.8
 31
0.0
  0
LINE
  8
0
 62
     0
 10
0.951875
 20
2.719641
 30
0.0
 11
3.032233
 21
4.8
 31
0.0
  0
LINE
  8
0
 62
     0
 10
1.047062
 20
2.991606
 30
0.0
 11
2.855456
 21
4.8
 31
0.0
  0
LINE
  8
0
 62
     0
 10
1.142249
 20
3.26357
 30
0.0
 11
2.67868
 21
4.8
 31
0.0
  0
LINE
  8
0
 62
     0
 10
1.237437
 20
3.535534
 30
0.0
 11
2.501903
 21
4.8
 31
0.0
  0
LINE
  8
0
 62
     0
 10
1.332624
 20
3.807498
 30
0.0
 11
2.325126
 21
4.8
 31
0.0
  0
LINE
  8
0
 62
     0
 10
1.427812
 20
4.079462
 30
0.0
 11
2.14835
 21
4.8
 31
0.0
  0
LINE
  8
0
 62
     0
 10
1.522999
 20
4.351426
 30
0.0
 11
1.971573
 21
4.8
 31
0.0
  0
LINE
  8
0
 62
     0
 10
1.618187
 20
4.62339
 30
0.0
 11
1.794796
 21
4.8
 31
0.0
  0
LINE
  8
0
 62
     0
 10
0.176777
 20
0.0
 30
0.0
 11
4.8
 21
4.623223
 31
0.0
  0
LINE
  8
0
 62
     0
 10
0.353553
 20
0.0
 30
0.0
 11
4.8
 21
4.446447
 31
0.0
  0
LINE
  8
0
 62
     0
 10
0.53033
 20
0.0
 30
0.0
 11
4.8
 21
4.26967
 31
0.0
  0
LINE
  8
0
 62
     0
 10
0.707107
 20
0.0
 30
0.0
 11
4.8
 21
4.092893
 31
0.0
  0
LINE
  8
0
 62
     0
 10
0.883883
 20
0.0
 30
0.0
 11
4.8
 21
3.916117
 31
0.0
  0
LINE
  8
0
 62
     0
 10
1.06066
 20
0.0
 30
0.0
 11
4.8
 21
3.73934
 31
0.0
  0
LINE
  8
0
 62
     0
 10
1.237437
 20
0.0
 30
0.0
 11
3.179842
 21
1.942405
 31
0.0
  0
LINE
  8
0
 62
     0
 10
3.237437
 20
2.0
 30
0.0
 11
4.8
 21
3.562563
 31
0.0
  0
LINE
  8
0
 62
     0
 10
1.414214
 20
0.0
 30
0.0
 11
3.084654
 21
1.670441
 31
0.0
  0
LINE
  8
0
 62
     0
 10
3.414214
 20
2.0
 30
0.0
 11
4.8
 21
3.385786
 31
0.0
  0
LINE
  8
0
 62
     0
 10
1.59099
 20
0.0
 30
0.0
 11
2.989467
 21
1.398477
 31
0.0
  0
LINE
  8
0
 62
     0
 10
3.59099
 20
2.0
 30
0.0
 11
4.8
 21
3.20901
 31
0.0
  0
LINE
  8
0
 62
     0
 10
1.767767
 20
0.0
 30
0.0
 11
2.894279
 21
1.126512
 31
0.0
  0
LINE
  8
0
 62
     0
 10
3.767767
 20
2.0
 30
0.0
 11
4.8
 21
3.032233
 31
0.0
  0
LINE
  8
0
 62
     0
 10
1.944544
 20
0.0
 30
0.0
 11
2.799092
 21
0.854548
 31
0.0
  0
LINE
  8
0
 62
     0
 10
3.944544
 20
2.0
 30
0.0
 11
4.8
 21
2.855456
 31
0.0
  0
LINE
  8
0
 62
     0
 10
2.12132
 20
0.0
 30
0.0
 11
2.703904
 21
0.582584
 31
0.0
  0
LINE
  8
0
 62
     0
 10
4.12132
 20
2.0
 30
0.0
 11
4.8
 21
2.67868
 31
0.0
  0
LINE
  8
0
 62
     0
 10
2.298097
 20
0.0
 30
0.0
 11
2.608717
 21
0.31062
 31
0.0
  0
LINE
  8
0
 62
     0
 10
4.298097
 20
2.0
 30
0.0
 11
4.8
 21
2.501903
 31
0.0
  0
LINE
  8
0
 62
     0
 10
2.474874
 20
0.0
 30
0.0
 11
2.51353
 21
0.038656
 31
0.0
  0
LINE
  8
0
 62
     0
 10
4.474874
 20
2.0
 30
0.0
 11
4.8
 21
2.325126
 31
0.0
  0
LINE
  8
0
 62
     0
 10
4.65165
 20
2.0
 30
0.0
 11
4.8
 21
2.14835
 31
0.0
  0
ENDBLK
  8
0
  0
BLOCK
  8
0
  2
*X10
 70
    65
 10
0.0
 20
0.0
 30
0.0
  3
*X
  0
LINE
  8
0
 62
     0
 10
6.884654
 20
1.75813
 30
0.0
 11
8.736506
 21
3.609982
 31
0.0
  0
LINE
  8
0
 62
     0
 10
6.838823
 20
1.889076
 30
0.0
 11
8.690675
 21
3.740928
 31
0.0
  0
LINE
  8
0
 62
     0
 10
6.772971
 20
2.0
 30
0.0
 11
8.644844
 21
3.871874
 31
0.0
  0
LINE
  8
0
 62
     0
 10
6.596194
 20
2.0
 30
0.0
 11
8.599013
 21
4.002819
 31
0.0
  0
LINE
  8
0
 62
     0
 10
6.419417
 20
2.0
 30
0.0
 11
8.553182
 21
4.133765
 31
0.0
  0
LINE
  8
0
 62
     0
 10
6.242641
 20
2.0
 30
0.0
 11
8.507351
 21
4.264711
 31
0.0
  0
LINE
  8
0
 62
     0
 10
6.065864
 20
2.0
 30
0.0
 11
8.46152
 21
4.395656
 31
0.0
  0
LINE
  8
0
 62
     0
 10
5.889087
 20
2.0
 30
0.0
 11
8.415689
 21
4.526602
 31
0.0
  0
LINE
  8
0
 62
     0
 10
5.712311
 20
2.0
 30
0.0
 11
8.369858
 21
4.657548
 31
0.0
  0
LINE
  8
0
 62
     0
 10
5.535534
 20
2.0
 30
0.0
 11
8.324027
 21
4.788493
 31
0.0
  0
LINE
  8
0
 62
     0
 10
5.358757
 20
2.0
 30
0.0
 11
8.158757
 21
4.8
 31
0.0
  0
LINE
  8
0
 62
     0
 10
5.2
 20
2.018019
 30
0.0
 11
7.981981
 21
4.8
 31
0.0
  0
LINE
  8
0
 62
     0
 10
5.2
 20
2.194796
 30
0.0
 11
7.805204
 21
4.8
 31
0.0
  0
LINE
  8
0
 62
     0
 10
5.2
 20
2.371573
 30
0.0
 11
7.628427
 21
4.8
 31
0.0
  0
LINE
  8
0
 62
     0
 10
5.2
 20
2.54835
 30
0.0
 11
7.45165
 21
4.8
 31
0.0
  0
LINE
  8
0
 62
     0
 10
5.2
 20
2.725126
 30
0.0
 11
7.274874
 21
4.8
 31
0.0
  0
LINE
  8
0
 62
     0
 10
5.2
 20
2.901903
 30
0.0
 11
7.098097
 21
4.8
 31
0.0
  0
LINE
  8
0
 62
     0
 10
5.2
 20
3.07868
 30
0.0
 11
6.92132
 21
4.8
 31
0.0
  0
LINE
  8
0
 62
     0
 10
5.2
 20
3.255456
 30
0.0
 11
6.744544
 21
4.8
 31
0.0
  0
LINE
  8
0
 62
     0
 10
5.2
 20
3.432233
 30
0.0
 11
6.567767
 21
4.8
 31
0.0
  0
LINE
  8
0
 62
     0
 10
5.2
 20
3.60901
 30
0.0
 11
6.39099
 21
4.8
 31
0.0
  0
LINE
  8
0
 62
     0
 10
5.2
 20
3.785786
 30
0.0
 11
6.214214
 21
4.8
 31
0.0
  0
LINE
  8
0
 62
     0
 10
5.2
 20
3.962563
 30
0.0
 11
6.037437
 21
4.8
 31
0.0
  0
LINE
  8
0
 62
     0
 10
5.2
 20
4.13934
 30
0.0
 11
5.86066
 21
4.8
 31
0.0
  0
LINE
  8
0
 62
     0
 10
5.2
 20
4.316117
 30
0.0
 11
5.683883
 21
4.8
 31
0.0
  0
LINE
  8
0
 62
     0
 10
5.2
 20
4.492893
 30
0.0
 11
5.507107
 21
4.8
 31
0.0
  0
LINE
  8
0
 62
     0
 10
5.2
 20
4.66967
 30
0.0
 11
5.33033
 21
4.8
 31
0.0
  0
LINE
  8
0
 62
     0
 10
6.930485
 20
1.627185
 30
0.0
 11
8.782337
 21
3.479036
 31
0.0
  0
LINE
  8
0
 62
     0
 10
6.976316
 20
1.496239
 30
0.0
 11
8.828168
 21
3.348091
 31
0.0
  0
LINE
  8
0
 62
     0
 10
7.022147
 20
1.365293
 30
0.0
 11
8.873999
 21
3.217145
 31
0.0
  0
LINE
  8
0
 62
     0
 10
7.067978
 20
1.234347
 30
0.0
 11
8.91983
 21
3.086199
 31
0.0
  0
LINE
  8
0
 62
     0
 10
7.113809
 20
1.103402
 30
0.0
 11
8.965661
 21
2.955254
 31
0.0
  0
LINE
  8
0
 62
     0
 10
7.15964
 20
0.972456
 30
0.0
 11
9.011492
 21
2.824308
 31
0.0
  0
LINE
  8
0
 62
     0
 10
7.205471
 20
0.84151
 30
0.0
 11
9.057323
 21
2.693362
 31
0.0
  0
LINE
  8
0
 62
     0
 10
7.251302
 20
0.710565
 30
0.0
 11
9.103154
 21
2.562416
 31
0.0
  0
LINE
  8
0
 62
     0
 10
7.297133
 20
0.579619
 30
0.0
 11
9.148985
 21
2.431471
 31
0.0
  0
LINE
  8
0
 62
     0
 10
7.342964
 20
0.448673
 30
0.0
 11
9.194816
 21
2.300525
 31
0.0
  0
LINE
  8
0
 62
     0
 10
7.388795
 20
0.317728
 30
0.0
 11
9.240647
 21
2.169579
 31
0.0
  0
LINE
  8
0
 62
     0
 10
7.434626
 20
0.186782
 30
0.0
 11
9.286478
 21
2.038634
 31
0.0
  0
LINE
  8
0
 62
     0
 10
7.480457
 20
0.055836
 30
0.0
 11
9.332309
 21
1.907688
 31
0.0
  0
LINE
  8
0
 62
     0
 10
7.601398
 20
0.0
 30
0.0
 11
9.37814
 21
1.776742
 31
0.0
  0
LINE
  8
0
 62
     0
 10
7.778175
 20
0.0
 30
0.0
 11
9.423971
 21
1.645797
 31
0.0
  0
LINE
  8
0
 62
     0
 10
7.954951
 20
0.0
 30
0.0
 11
9.469802
 21
1.514851
 31
0.0
  0
LINE
  8
0
 62
     0
 10
8.131728
 20
0.0
 30
0.0
 11
9.515633
 21
1.383905
 31
0.0
  0
LINE
  8
0
 62
     0
 10
8.308505
 20
0.0
 30
0.0
 11
9.561464
 21
1.252959
 31
0.0
  0
LINE
  8
0
 62
     0
 10
8.485281
 20
0.0
 30
0.0
 11
9.607295
 21
1.122014
 31
0.0
  0
LINE
  8
0
 62
     0
 10
8.662058
 20
0.0
 30
0.0
 11
9.653126
 21
0.991068
 31
0.0
  0
LINE
  8
0
 62
     0
 10
8.838835
 20
0.0
 30
0.0
 11
9.698957
 21
0.860122
 31
0.0
  0
LINE
  8
0
 62
     0
 10
9.015611
 20
0.0
 30
0.0
 11
9.744788
 21
0.729177
 31
0.0
  0
LINE
  8
0
 62
     0
 10
9.192388
 20
0.0
 30
0.0
 11
9.790619
 21
0.598231
 31
0.0
  0
LINE
  8
0
 62
     0
 10
9.369165
 20
0.0
 30
0.0
 11
9.83645
 21
0.467285
 31
0.0
  0
LINE
  8
0
 62
     0
 10
9.545942
 20
0.0
 30
0.0
 11
9.882281
 21
0.33634
 31
0.0
  0
LINE
  8
0
 62
     0
 10
9.722718
 20
0.0
 30
0.0
 11
9.928112
 21
0.205394
 31
0.0
  0
LINE
  8
0
 62
     0
 10
9.899495
 20
0.0
 30
0.0
 11
9.973943
 21
0.074448
 31
0.0
  0
ENDBLK
  8
0
  0
BLOCK
  8
0
  2
*X11
 70
    65
 10
0.0
 20
0.0
 30
0.0
  3
*X
  0
LINE
  8
0
 62
     0
 10
10.7
 20
6.280583
 30
0.0
 11
13.5
 21
9.080583
 31
0.0
  0
LINE
  8
0
 62
     0
 10
10.7
 20
6.457359
 30
0.0
 11
13.5
 21
9.257359
 31
0.0
  0
LINE
  8
0
 62
     0
 10
10.7
 20
6.634136
 30
0.0
 11
13.5
 21
9.434136
 31
0.0
  0
LINE
  8
0
 62
     0
 10
10.7
 20
6.810913
 30
0.0
 11
13.5
 21
9.610913
 31
0.0
  0
LINE
  8
0
 62
     0
 10
10.7
 20
6.987689
 30
0.0
 11
13.5
 21
9.787689
 31
0.0
  0
LINE
  8
0
 62
     0
 10
10.7
 20
7.164466
 30
0.0
 11
13.5
 21
9.964466
 31
0.0
  0
LINE
  8
0
 62
     0
 10
10.7
 20
7.341243
 30
0.0
 11
13.358757
 21
10.0
 31
0.0
  0
LINE
  8
0
 62
     0
 10
10.7
 20
7.518019
 30
0.0
 11
13.181981
 21
10.0
 31
0.0
  0
LINE
  8
0
 62
     0
 10
10.7
 20
7.694796
 30
0.0
 11
13.005204
 21
10.0
 31
0.0
  0
LINE
  8
0
 62
     0
 10
10.7
 20
7.871573
 30
0.0
 11
12.828427
 21
10.0
 31
0.0
  0
LINE
  8
0
 62
     0
 10
10.7
 20
8.04835
 30
0.0
 11
12.65165
 21
10.0
 31
0.0
  0
LINE
  8
0
 62
     0
 10
10.7
 20
8.225126
 30
0.0
 11
12.474874
 21
10.0
 31
0.0
  0
LINE
  8
0
 62
     0
 10
10.7
 20
8.401903
 30
0.0
 11
12.298097
 21
10.0
 31
0.0
  0
LINE
  8
0
 62
     0
 10
10.7
 20
8.57868
 30
0.0
 11
12.12132
 21
10.0
 31
0.0
  0
LINE
  8
0
 62
     0
 10
10.7
 20
8.755456
 30
0.0
 11
11.944544
 21
10.0
 31
0.0
  0
LINE
  8
0
 62
     0
 10
10.7
 20
8.932233
 30
0.0
 11
11.767767
 21
10.0
 31
0.0
  0
LINE
  8
0
 62
     0
 10
10.7
 20
9.10901
 30
0.0
 11
11.59099
 21
10.0
 31
0.0
  0
LINE
  8
0
 62
     0
 10
10.7
 20
9.285786
 30
0.0
 11
11.414214
 21
10.0
 31
0.0
  0
LINE
  8
0
 62
     0
 10
10.7
 20
9.462563
 30
0.0
 11
11.237437
 21
10.0
 31
0.0
  0
LINE
  8
0
 62
     0
 10
10.7
 20
9.63934
 30
0.0
 11
11.06066
 21
10.0
 31
0.0
  0
LINE
  8
0
 62
     0
 10
10.7
 20
9.816117
 30
0.0
 11
10.883883
 21
10.0
 31
0.0
  0
LINE
  8
0
 62
     0
 10
10.7
 20
9.992893
 30
0.0
 11
10.707107
 21
10.0
 31
0.0
  0
LINE
  8
0
 62
     0
 10
10.7
 20
6.103806
 30
0.0
 11
13.5
 21
8.903806
 31
0.0
  0
LINE
  8
0
 62
     0
 10
10.7
 20
5.927029
 30
0.0
 11
13.5
 21
8.727029
 31
0.0
  0
LINE
  8
0
 62
     0
 10
10.7
 20
5.750253
 30
0.0
 11
13.5
 21
8.550253
 31
0.0
  0
LINE
  8
0
 62
     0
 10
10.7
 20
5.573476
 30
0.0
 11
13.5
 21
8.373476
 31
0.0
  0
LINE
  8
0
 62
     0
 10
10.7
 20
5.396699
 30
0.0
 11
13.5
 21
8.196699
 31
0.0
  0
LINE
  8
0
 62
     0
 10
10.7
 20
5.219922
 30
0.0
 11
13.5
 21
8.019922
 31
0.0
  0
LINE
  8
0
 62
     0
 10
10.856854
 20
5.2
 30
0.0
 11
13.5
 21
7.843146
 31
0.0
  0
LINE
  8
0
 62
     0
 10
11.033631
 20
5.2
 30
0.0
 11
13.5
 21
7.666369
 31
0.0
  0
LINE
  8
0
 62
     0
 10
11.210408
 20
5.2
 30
0.0
 11
13.5
 21
7.489592
 31
0.0
  0
LINE
  8
0
 62
     0
 10
11.387184
 20
5.2
 30
0.0
 11
13.5
 21
7.312816
 31
0.0
  0
LINE
  8
0
 62
     0
 10
11.563961
 20
5.2
 30
0.0
 11
13.5
 21
7.136039
 31
0.0
  0
LINE
  8
0
 62
     0
 10
11.740738
 20
5.2
 30
0.0
 11
13.5
 21
6.959262
 31
0.0
  0
LINE
  8
0
 62
     0
 10
11.917514
 20
5.2
 30
0.0
 11
13.5
 21
6.782486
 31
0.0
  0
LINE
  8
0
 62
     0
 10
12.094291
 20
5.2
 30
0.0
 11
13.5
 21
6.605709
 31
0.0
  0
LINE
  8
0
 62
     0
 10
12.271068
 20
5.2
 30
0.0
 11
13.5
 21
6.428932
 31
0.0
  0
LINE
  8
0
 62
     0
 10
12.447845
 20
5.2
 30
0.0
 11
13.5
 21
6.252155
 31
0.0
  0
LINE
  8
0
 62
     0
 10
12.624621
 20
5.2
 30
0.0
 11
13.5
 21
6.075379
 31
0.0
  0
LINE
  8
0
 62
     0
 10
12.801398
 20
5.2
 30
0.0
 11
13.5
 21
5.898602
 31
0.0
  0
LINE
  8
0
 62
     0
 10
12.978175
 20
5.2
 30
0.0
 11
13.5
 21
5.721825
 31
0.0
  0
LINE
  8
0
 62
     0
 10
13.154951
 20
5.2
 30
0.0
 11
13.5
 21
5.545049
 31
0.0
  0
LINE
  8
0
 62
     0
 10
13.331728
 20
5.2
 30
0.0
 11
13.5
 21
5.368272
 31
0.0
  0
ENDBLK
  8
0
  0
BLOCK
  8
0
  2
*X12
 70
    65
 10
0.0
 20
0.0
 30
0.0
  3
*X
  0
LINE
  8
0
 62
     0
 10
10.7
 20
1.154058
 30
0.0
 11
13.5
 21
3.954058
 31
0.0
  0
LINE
  8
0
 62
     0
 10
10.7
 20
1.330835
 30
0.0
 11
13.5
 21
4.130835
 31
0.0
  0
LINE
  8
0
 62
     0
 10
10.7
 20
1.507612
 30
0.0
 11
13.5
 21
4.307612
 31
0.0
  0
LINE
  8
0
 62
     0
 10
10.7
 20
1.684389
 30
0.0
 11
13.5
 21
4.484389
 31
0.0
  0
LINE
  8
0
 62
     0
 10
10.7
 20
1.861165
 30
0.0
 11
13.5
 21
4.661165
 31
0.0
  0
LINE
  8
0
 62
     0
 10
10.7
 20
2.037942
 30
0.0
 11
13.462058
 21
4.8
 31
0.0
  0
LINE
  8
0
 62
     0
 10
10.7
 20
2.214719
 30
0.0
 11
13.285281
 21
4.8
 31
0.0
  0
LINE
  8
0
 62
     0
 10
10.7
 20
2.391495
 30
0.0
 11
13.108505
 21
4.8
 31
0.0
  0
LINE
  8
0
 62
     0
 10
10.7
 20
2.568272
 30
0.0
 11
12.931728
 21
4.8
 31
0.0
  0
LINE
  8
0
 62
     0
 10
10.7
 20
2.745049
 30
0.0
 11
12.754951
 21
4.8
 31
0.0
  0
LINE
  8
0
 62
     0
 10
10.7
 20
2.921825
 30
0.0
 11
12.578175
 21
4.8
 31
0.0
  0
LINE
  8
0
 62
     0
 10
10.7
 20
3.098602
 30
0.0
 11
12.401398
 21
4.8
 31
0.0
  0
LINE
  8
0
 62
     0
 10
10.7
 20
3.275379
 30
0.0
 11
12.224621
 21
4.8
 31
0.0
  0
LINE
  8
0
 62
     0
 10
10.7
 20
3.452155
 30
0.0
 11
12.047845
 21
4.8
 31
0.0
  0
LINE
  8
0
 62
     0
 10
10.7
 20
3.628932
 30
0.0
 11
11.871068
 21
4.8
 31
0.0
  0
LINE
  8
0
 62
     0
 10
10.7
 20
3.805709
 30
0.0
 11
11.694291
 21
4.8
 31
0.0
  0
LINE
  8
0
 62
     0
 10
10.7
 20
3.982486
 30
0.0
 11
11.517514
 21
4.8
 31
0.0
  0
LINE
  8
0
 62
     0
 10
10.7
 20
4.159262
 30
0.0
 11
11.340738
 21
4.8
 31
0.0
  0
LINE
  8
0
 62
     0
 10
10.7
 20
4.336039
 30
0.0
 11
11.163961
 21
4.8
 31
0.0
  0
LINE
  8
0
 62
     0
 10
10.7
 20
4.512816
 30
0.0
 11
10.987184
 21
4.8
 31
0.0
  0
LINE
  8
0
 62
     0
 10
10.7
 20
4.689592
 30
0.0
 11
10.810408
 21
4.8
 31
0.0
  0
LINE
  8
0
 62
     0
 10
10.7
 20
0.977282
 30
0.0
 11
13.5
 21
3.777282
 31
0.0
  0
LINE
  8
0
 62
     0
 10
10.7
 20
0.800505
 30
0.0
 11
13.5
 21
3.600505
 31
0.0
  0
LINE
  8
0
 62
     0
 10
10.7
 20
0.623728
 30
0.0
 11
13.5
 21
3.423728
 31
0.0
  0
LINE
  8
0
 62
     0
 10
10.7
 20
0.446952
 30
0.0
 11
13.5
 21
3.246952
 31
0.0
  0
LINE
  8
0
 62
     0
 10
10.7
 20
0.270175
 30
0.0
 11
13.5
 21
3.070175
 31
0.0
  0
LINE
  8
0
 62
     0
 10
10.7
 20
0.093398
 30
0.0
 11
13.5
 21
2.893398
 31
0.0
  0
LINE
  8
0
 62
     0
 10
10.783378
 20
0.0
 30
0.0
 11
13.5
 21
2.716622
 31
0.0
  0
LINE
  8
0
 62
     0
 10
10.960155
 20
0.0
 30
0.0
 11
13.5
 21
2.539845
 31
0.0
  0
LINE
  8
0
 62
     0
 10
11.136932
 20
0.0
 30
0.0
 11
13.5
 21
2.363068
 31
0.0
  0
LINE
  8
0
 62
     0
 10
11.313708
 20
0.0
 30
0.0
 11
13.5
 21
2.186292
 31
0.0
  0
LINE
  8
0
 62
     0
 10
11.490485
 20
0.0
 30
0.0
 11
13.5
 21
2.009515
 31
0.0
  0
LINE
  8
0
 62
     0
 10
11.667262
 20
0.0
 30
0.0
 11
13.5
 21
1.832738
 31
0.0
  0
LINE
  8
0
 62
     0
 10
11.844039
 20
0.0
 30
0.0
 11
13.5
 21
1.655961
 31
0.0
  0
LINE
  8
0
 62
     0
 10
12.020815
 20
0.0
 30
0.0
 11
13.5
 21
1.479185
 31
0.0
  0
LINE
  8
0
 62
     0
 10
12.197592
 20
0.0
 30
0.0
 11
13.5
 21
1.302408
 31
0.0
  0
LINE
  8
0
 62
     0
 10
12.374369
 20
0.0
 30
0.0
 11
13.5
 21
1.125631
 31
0.0
  0
LINE
  8
0
 62
     0
 10
12.551145
 20
0.0
 30
0.0
 11
13.5
 21
0.948855
 31
0.0
  0
LINE
  8
0
 62
     0
 10
12.727922
 20
0.0
 30
0.0
 11
13.5
 21
0.772078
 31
0.0
  0
LINE
  8
0
 62
     0
 10
12.904699
 20
0.0
 30
0.0
 11
13.5
 21
0.595301
 31
0.0
  0
LINE
  8
0
 62
     0
 10
13.081475
 20
0.0
 30
0.0
 11
13.5
 21
0.418525
 31
0.0
  0
LINE
  8
0
 62
     0
 10
13.258252
 20
0.0
 30
0.0
 11
13.5
 21
0.241748
 31
0.0
  0
LINE
  8
0
 62
     0
 10
13.435029
 20
0.0
 30
0.0
 11
13.5
 21
0.064971
 31
0.0
  0
ENDBLK
  8
0
  0
BLOCK
  8
0
  2
*X13
 70
    65
 10
0.0
 20
0.0
 30
0.0
  3
*X
  0
LINE
  8
0
 62
     0
 10
13.9
 20
6.298602
 30
0.0
 11
16.582995
 21
8.981597
 31
0.0
  0
LINE
  8
0
 62
     0
 10
13.9
 20
6.475379
 30
0.0
 11
16.510503
 21
9.085882
 31
0.0
  0
LINE
  8
0
 62
     0
 10
13.9
 20
6.652155
 30
0.0
 11
16.432927
 21
9.185083
 31
0.0
  0
LINE
  8
0
 62
     0
 10
13.9
 20
6.828932
 30
0.0
 11
16.350372
 21
9.279304
 31
0.0
  0
LINE
  8
0
 62
     0
 10
13.9
 20
7.005709
 30
0.0
 11
16.262892
 21
9.368601
 31
0.0
  0
LINE
  8
0
 62
     0
 10
13.9
 20
7.182486
 30
0.0
 11
16.170495
 21
9.452981
 31
0.0
  0
LINE
  8
0
 62
     0
 10
13.9
 20
7.359262
 30
0.0
 11
16.073145
 21
9.532407
 31
0.0
  0
LINE
  8
0
 62
     0
 10
13.9
 20
7.536039
 30
0.0
 11
15.970755
 21
9.606794
 31
0.0
  0
LINE
  8
0
 62
     0
 10
13.9
 20
7.712816
 30
0.0
 11
15.863189
 21
9.676004
 31
0.0
  0
LINE
  8
0
 62
     0
 10
13.9
 20
7.889592
 30
0.0
 11
15.75025
 21
9.739843
 31
0.0
  0
LINE
  8
0
 62
     0
 10
13.9
 20
8.066369
 30
0.0
 11
15.631675
 21
9.798044
 31
0.0
  0
LINE
  8
0
 62
     0
 10
13.9
 20
8.243146
 30
0.0
 11
15.50711
 21
9.850256
 31
0.0
  0
LINE
  8
0
 62
     0
 10
13.9
 20
8.419922
 30
0.0
 11
15.376096
 21
9.896018
 31
0.0
  0
LINE
  8
0
 62
     0
 10
13.9
 20
8.596699
 30
0.0
 11
15.238027
 21
9.934726
 31
0.0
  0
LINE
  8
0
 62
     0
 10
13.9
 20
8.773476
 30
0.0
 11
15.092096
 21
9.965572
 31
0.0
  0
LINE
  8
0
 62
     0
 10
13.9
 20
8.950253
 30
0.0
 11
14.937209
 21
9.987461
 31
0.0
  0
LINE
  8
0
 62
     0
 10
13.9
 20
9.127029
 30
0.0
 11
14.771824
 21
9.998853
 31
0.0
  0
LINE
  8
0
 62
     0
 10
13.9
 20
9.303806
 30
0.0
 11
14.596193
 21
9.999999
 31
0.0
  0
LINE
  8
0
 62
     0
 10
13.9
 20
9.480583
 30
0.0
 11
14.419417
 21
9.999999
 31
0.0
  0
LINE
  8
0
 62
     0
 10
13.9
 20
9.657359
 30
0.0
 11
14.24264
 21
10.0
 31
0.0
  0
LINE
  8
0
 62
     0
 10
13.9
 20
9.834136
 30
0.0
 11
14.065864
 21
10.0
 31
0.0
  0
LINE
  8
0
 62
     0
 10
13.9
 20
6.121825
 30
0.0
 11
16.650245
 21
8.872071
 31
0.0
  0
LINE
  8
0
 62
     0
 10
13.9
 20
5.945049
 30
0.0
 11
16.712035
 21
8.757083
 31
0.0
  0
LINE
  8
0
 62
     0
 10
13.9
 20
5.768272
 30
0.0
 11
16.768067
 21
8.636339
 31
0.0
  0
LINE
  8
0
 62
     0
 10
13.9
 20
5.591495
 30
0.0
 11
16.817955
 21
8.509451
 31
0.0
  0
LINE
  8
0
 62
     0
 10
13.9
 20
5.414719
 30
0.0
 11
16.861189
 21
8.375908
 31
0.0
  0
LINE
  8
0
 62
     0
 10
13.9
 20
5.237942
 30
0.0
 11
16.897097
 21
8.235039
 31
0.0
  0
LINE
  8
0
 62
     0
 10
14.038835
 20
5.2
 30
0.0
 11
16.924779
 21
8.085944
 31
0.0
  0
LINE
  8
0
 62
     0
 10
14.215611
 20
5.2
 30
0.0
 11
16.942997
 21
7.927385
 31
0.0
  0
LINE
  8
0
 62
     0
 10
14.392388
 20
5.2
 30
0.0
 11
16.949987
 21
7.757599
 31
0.0
  0
LINE
  8
0
 62
     0
 10
14.569165
 20
5.2
 30
0.0
 11
16.943101
 21
7.573936
 31
0.0
  0
LINE
  8
0
 62
     0
 10
14.745942
 20
5.2
 30
0.0
 11
16.918037
 21
7.372095
 31
0.0
  0
LINE
  8
0
 62
     0
 10
14.922718
 20
5.2
 30
0.0
 11
16.866909
 21
7.144191
 31
0.0
  0
LINE
  8
0
 62
     0
 10
15.099495
 20
5.2
 30
0.0
 11
16.771715
 21
6.87222
 31
0.0
  0
LINE
  8
0
 62
     0
 10
15.276272
 20
5.2
 30
0.0
 11
15.847951
 21
5.77168
 31
0.0
  0
LINE
  8
0
 62
     0
 10
15.96673
 20
5.890458
 30
0.0
 11
16.559542
 21
6.48327
 31
0.0
  0
LINE
  8
0
 62
     0
 10
15.453048
 20
5.2
 30
0.0
 11
15.970661
 21
5.717613
 31
0.0
  0
LINE
  8
0
 62
     0
 10
15.629825
 20
5.2
 30
0.0
 11
16.088934
 21
5.659109
 31
0.0
  0
LINE
  8
0
 62
     0
 10
15.806602
 20
5.2
 30
0.0
 11
16.202964
 21
5.596363
 31
0.0
  0
LINE
  8
0
 62
     0
 10
15.983378
 20
5.2
 30
0.0
 11
16.312909
 21
5.529531
 31
0.0
  0
LINE
  8
0
 62
     0
 10
16.160155
 20
5.2
 30
0.0
 11
16.418895
 21
5.45874
 31
0.0
  0
LINE
  8
0
 62
     0
 10
16.336932
 20
5.2
 30
0.0
 11
16.521021
 21
5.384089
 31
0.0
  0
LINE
  8
0
 62
     0
 10
16.513708
 20
5.2
 30
0.0
 11
16.619363
 21
5.305655
 31
0.0
  0
LINE
  8
0
 62
     0
 10
16.690485
 20
5.2
 30
0.0
 11
16.713975
 21
5.22349
 31
0.0
  0
ENDBLK
  8
0
  0
BLOCK
  8
0
  2
*X14
 70
    65
 10
0.0
 20
0.0
 30
0.0
  3
*X
  0
LINE
  8
0
 62
     0
 10
13.9
 20
0.818525
 30
0.0
 11
17.39645
 21
4.314974
 31
0.0
  0
LINE
  8
0
 62
     0
 10
13.9
 20
0.995301
 30
0.0
 11
17.336354
 21
4.431655
 31
0.0
  0
LINE
  8
0
 62
     0
 10
13.9
 20
1.172078
 30
0.0
 11
17.272078
 21
4.544156
 31
0.0
  0
LINE
  8
0
 62
     0
 10
13.9
 20
1.348855
 30
0.0
 11
17.203766
 21
4.652621
 31
0.0
  0
LINE
  8
0
 62
     0
 10
13.9
 20
1.525631
 30
0.0
 11
17.131535
 21
4.757167
 31
0.0
  0
LINE
  8
0
 62
     0
 10
13.9
 20
1.702408
 30
0.0
 11
16.997592
 21
4.8
 31
0.0
  0
LINE
  8
0
 62
     0
 10
13.9
 20
1.879185
 30
0.0
 11
16.820815
 21
4.8
 31
0.0
  0
LINE
  8
0
 62
     0
 10
13.9
 20
2.055961
 30
0.0
 11
16.644039
 21
4.8
 31
0.0
  0
LINE
  8
0
 62
     0
 10
13.9
 20
2.232738
 30
0.0
 11
16.467262
 21
4.8
 31
0.0
  0
LINE
  8
0
 62
     0
 10
13.9
 20
2.409515
 30
0.0
 11
16.290485
 21
4.8
 31
0.0
  0
LINE
  8
0
 62
     0
 10
13.9
 20
2.586292
 30
0.0
 11
16.113708
 21
4.8
 31
0.0
  0
LINE
  8
0
 62
     0
 10
13.9
 20
2.763068
 30
0.0
 11
15.936932
 21
4.8
 31
0.0
  0
LINE
  8
0
 62
     0
 10
13.9
 20
2.939845
 30
0.0
 11
15.760155
 21
4.8
 31
0.0
  0
LINE
  8
0
 62
     0
 10
13.9
 20
3.116622
 30
0.0
 11
15.583378
 21
4.8
 31
0.0
  0
LINE
  8
0
 62
     0
 10
13.9
 20
3.293398
 30
0.0
 11
15.406602
 21
4.8
 31
0.0
  0
LINE
  8
0
 62
     0
 10
13.9
 20
3.470175
 30
0.0
 11
15.229825
 21
4.8
 31
0.0
  0
LINE
  8
0
 62
     0
 10
13.9
 20
3.646952
 30
0.0
 11
15.053048
 21
4.8
 31
0.0
  0
LINE
  8
0
 62
     0
 10
13.9
 20
3.823728
 30
0.0
 11
14.876272
 21
4.8
 31
0.0
  0
LINE
  8
0
 62
     0
 10
13.9
 20
4.000505
 30
0.0
 11
14.699495
 21
4.8
 31
0.0
  0
LINE
  8
0
 62
     0
 10
13.9
 20
4.177282
 30
0.0
 11
14.522718
 21
4.8
 31
0.0
  0
LINE
  8
0
 62
     0
 10
13.9
 20
4.354058
 30
0.0
 11
14.345942
 21
4.8
 31
0.0
  0
LINE
  8
0
 62
     0
 10
13.9
 20
4.530835
 30
0.0
 11
14.169165
 21
4.8
 31
0.0
  0
LINE
  8
0
 62
     0
 10
13.9
 20
4.707612
 30
0.0
 11
13.992388
 21
4.8
 31
0.0
  0
LINE
  8
0
 62
     0
 10
13.9
 20
0.641748
 30
0.0
 11
17.452185
 21
4.193933
 31
0.0
  0
LINE
  8
0
 62
     0
 10
13.9
 20
0.464971
 30
0.0
 11
17.503339
 21
4.068311
 31
0.0
  0
LINE
  8
0
 62
     0
 10
13.9
 20
0.288194
 30
0.0
 11
17.549642
 21
3.937837
 31
0.0
  0
LINE
  8
0
 62
     0
 10
13.9
 20
0.111418
 30
0.0
 11
17.590762
 21
3.80218
 31
0.0
  0
LINE
  8
0
 62
     0
 10
13.965359
 20
0.0
 30
0.0
 11
17.62629
 21
3.660931
 31
0.0
  0
LINE
  8
0
 62
     0
 10
14.142136
 20
0.000001
 30
0.0
 11
17.655713
 21
3.513577
 31
0.0
  0
LINE
  8
0
 62
     0
 10
14.318913
 20
0.000001
 30
0.0
 11
17.678385
 21
3.359473
 31
0.0
  0
LINE
  8
0
 62
     0
 10
14.49569
 20
0.000001
 30
0.0
 11
17.693473
 21
3.197784
 31
0.0
  0
LINE
  8
0
 62
     0
 10
14.672467
 20
0.000002
 30
0.0
 11
17.699875
 21
3.027409
 31
0.0
  0
LINE
  8
0
 62
     0
 10
14.853154
 20
0.003912
 30
0.0
 11
17.696088
 21
2.846846
 31
0.0
  0
LINE
  8
0
 62
     0
 10
15.046044
 20
0.020025
 30
0.0
 11
17.679975
 21
2.653956
 31
0.0
  0
LINE
  8
0
 62
     0
 10
15.254483
 20
0.051687
 30
0.0
 11
17.648313
 21
2.445517
 31
0.0
  0
LINE
  8
0
 62
     0
 10
15.483762
 20
0.10419
 30
0.0
 11
17.59581
 21
2.216238
 31
0.0
  0
LINE
  8
0
 62
     0
 10
15.743786
 20
0.187437
 30
0.0
 11
17.512563
 21
1.956214
 31
0.0
  0
LINE
  8
0
 62
     0
 10
16.058176
 20
0.32505
 30
0.0
 11
17.37495
 21
1.641824
 31
0.0
  0
LINE
  8
0
 62
     0
 10
16.54193
 20
0.632028
 30
0.0
 11
17.067972
 21
1.15807
 31
0.0
  0
ENDBLK
  8
0
  0
BLOCK
  8
0
  2
B96
 70
    64
 10
0.0
 20
0.0
 30
0.0
  3
B96
  0
LINE
  8
0
  6
CONTINUOUS
 10
1.819436
 20
0.403461
 30
0.0
 11
1.819436
 21
-0.576539
 31
0.0
  0
LINE
  8
0
  6
CONTINUOUS
 10
1.819436
 20
-0.576539
 30
0.0
 11
5.249436
 21
-0.576539
 31
0.0
  0
LINE
  8
0
  6
CONTINUOUS
 10
5.249436
 20
-0.576539
 30
0.0
 11
5.249436
 21
0.403461
 31
0.0
  0
LINE
  8
0
  6
CONTINUOUS
 10
5.249436
 20
0.403461
 30
0.0
 11
1.819436
 21
0.403461
 31
0.0
  0
POLYLINE
  8
0
  6
CONTINUOUS
 66
     1
 10
0.0
 20
0.0
 30
0.0
 70
    16
 71
     2
 72
   251
  0
VERTEX
  8
0
  6
CONTINUOUS
 10
1.819436
 20
-0.576539
 30
0.0
 70
    64
  0
VERTEX
  8
0
  6
CONTINUOUS
 10
1.833156
 20
-0.576539
 30
0.0
 70
    64
  0
VERTEX
  8
0
  6
CONTINUOUS
 10
1.846876
 20
-0.576539
 30
0.0
 70
    64
  0
VERTEX
  8
0
  6
CONTINUOUS
 10
1.860596
 20
-0.576539
 30
0.0
 70
    64
  0
VERTEX
  8
0
  6
CONTINUOUS
 10
1.874316
 20
-0.576539
 30
0.0
 70
    64
  0
VERTEX
  8
0
  6
CONTINUOUS
 10
1.888036
 20
-0.576539
 30
0.0
 70
    64
  0
VERTEX
  8
0
  6
CONTINUOUS
 10
1.901756
 20
-0.576539
 30
0.0
 70
    64
  0
VERTEX
  8
0
  6
CONTINUOUS
 10
1.915476
 20
-0.576539
 30
0.0
 70
    64
  0
VERTEX
  8
0
  6
CONTINUOUS
 10
1.929196
 20
-0.576539
 30
0.0
 70
    64
  0
VERTEX
  8
0
  6
CONTINUOUS
 10
1.942916
 20
-0.576539
 30
0.0
 70
    64
  0
VERTEX
  8
0
  6
CONTINUOUS
 10
1.956636
 20
-0.576539
 30
0.0
 70
    64
  0
VERTEX
  8
0
  6
CONTINUOUS
 10
1.970356
 20
-0.576539
 30
0.0
 70
    64
  0
VERTEX
  8
0
  6
CONTINUOUS
 10
1.984076
 20
-0.576539
 30
0.0
 70
    64
  0
VERTEX
  8
0
  6
CONTINUOUS
 10
1.997796
 20
-0.576539
 30
0.0
 70
    64
  0
VERTEX
  8
0
  6
CONTINUOUS
 10
2.011516
 20
-0.576539
 30
0.0
 70
    64
  0
VERTEX
  8
0
  6
CONTINUOUS
 10
2.025236
 20
-0.576539
 30
0.0
 70
    64
  0
VERTEX
  8
0
  6
CONTINUOUS
 10
2.038956
 20
-0.576539
 30
0.0
 70
    64
  0
VERTEX
  8
0
  6
CONTINUOUS
 10
2.052676
 20
-0.576539
 30
0.0
 70
    64
  0
VERTEX
  8
0
  6
CONTINUOUS
 10
2.066396
 20
-0.576539
 30
0.0
 70
    64
  0
VERTEX
  8
0
  6
CONTINUOUS
 10
2.080116
 20
-0.576539
 30
0.0
 70
    64
  0
VERTEX
  8
0
  6
CONTINUOUS
 10
2.093836
 20
-0.576539
 30
0.0
 70
    64
  0
VERTEX
  8
0
  6
CONTINUOUS
 10
2.107556
 20
-0.576539
 30
0.0
 70
    64
  0
VERTEX
  8
0
  6
CONTINUOUS
 10
2.121276
 20
-0.576539
 30
0.0
 70
    64
  0
VERTEX
  8
0
  6
CONTINUOUS
 10
2.134996
 20
-0.576539
 30
0.0
 70
    64
  0
VERTEX
  8
0
  6
CONTINUOUS
 10
2.148716
 20
-0.576539
 30
0.0
 70
    64
  0
VERTEX
  8
0
  6
CONTINUOUS
 10
2.162436
 20
-0.576539
 30
0.0
 70
    64
  0
VERTEX
  8
0
  6
CONTINUOUS
 10
2.176156
 20
-0.576539
 30
0.0
 70
    64
  0
VERTEX
  8
0
  6
CONTINUOUS
 10
2.189876
 20
-0.576539
 30
0.0
 70
    64
  0
VERTEX
  8
0
  6
CONTINUOUS
 10
2.203596
 20
-0.576539
 30
0.0
 70
    64
  0
VERTEX
  8
0
  6
CONTINUOUS
 10
2.217316
 20
-0.576539
 30
0.0
 70
    64
  0
VERTEX
  8
0
  6
CONTINUOUS
 10
2.231036
 20
-0.576539
 30
0.0
 70
    64
  0
VERTEX
  8
0
  6
CONTINUOUS
 10
2.244756
 20
-0.576539
 30
0.0
 70
    64
  0
VERTEX
  8
0
  6
CONTINUOUS
 10
2.258476
 20
-0.576539
 30
0.0
 70
    64
  0
VERTEX
  8
0
  6
CONTINUOUS
 10
2.272196
 20
-0.576539
 30
0.0
 70
    64
  0
VERTEX
  8
0
  6
CONTINUOUS
 10
2.285916
 20
-0.576539
 30
0.0
 70
    64
  0
VERTEX
  8
0
  6
CONTINUOUS
 10
2.299636
 20
-0.576539
 30
0.0
 70
    64
  0
VERTEX
  8
0
  6
CONTINUOUS
 10
2.313356
 20
-0.576539
 30
0.0
 70
    64
  0
VERTEX
  8
0
  6
CONTINUOUS
 10
2.327076
 20
-0.576539
 30
0.0
 70
    64
  0
VERTEX
  8
0
  6
CONTINUOUS
 10
2.340796
 20
-0.576539
 30
0.0
 70
    64
  0
VERTEX
  8
0
  6
CONTINUOUS
 10
2.354516
 20
-0.576539
 30
0.0
 70
    64
  0
VERTEX
  8
0
  6
CONTINUOUS
 10
2.368236
 20
-0.576539
 30
0.0
 70
    64
  0
VERTEX
  8
0
  6
CONTINUOUS
 10
2.381956
 20
-0.576539
 30
0.0
 70
    64
  0
VERTEX
  8
0
  6
CONTINUOUS
 10
2.395676
 20
-0.576539
 30
0.0
 70
    64
  0
VERTEX
  8
0
  6
CONTINUOUS
 10
2.409396
 20
-0.576539
 30
0.0
 70
    64
  0
VERTEX
  8
0
  6
CONTINUOUS
 10
2.423116
 20
-0.576539
 30
0.0
 70
    64
  0
VERTEX
  8
0
  6
CONTINUOUS
 10
2.436836
 20
-0.576539
 30
0.0
 70
    64
  0
VERTEX
  8
0
  6
CONTINUOUS
 10
2.450556
 20
-0.576539
 30
0.0
 70
    64
  0
VERTEX
  8
0
  6
CONTINUOUS
 10
2.464276
 20
-0.576539
 30
0.0
 70
    64
  0
VERTEX
  8
0
  6
CONTINUOUS
 10
2.477996
 20
-0.576539
 30
0.0
 70
    64
  0
VERTEX
  8
0
  6
CONTINUOUS
 10
2.491716
 20
-0.576539
 30
0.0
 70
    64
  0
VERTEX
  8
0
  6
CONTINUOUS
 10
2.505436
 20
-0.576539
 30
0.0
 70
    64
  0
VERTEX
  8
0
  6
CONTINUOUS
 10
2.519156
 20
-0.576539
 30
0.0
 70
    64
  0
VERTEX
  8
0
  6
CONTINUOUS
 10
2.532876
 20
-0.576539
 30
0.0
 70
    64
  0
VERTEX
  8
0
  6
CONTINUOUS
 10
2.546596
 20
-0.576539
 30
0.0
 70
    64
  0
VERTEX
  8
0
  6
CONTINUOUS
 10
2.560316
 20
-0.576539
 30
0.0
 70
    64
  0
VERTEX
  8
0
  6
CONTINUOUS
 10
2.574036
 20
-0.576539
 30
0.0
 70
    64
  0
VERTEX
  8
0
  6
CONTINUOUS
 10
2.587756
 20
-0.576539
 30
0.0
 70
    64
  0
VERTEX
  8
0
  6
CONTINUOUS
 10
2.601476
 20
-0.576539
 30
0.0
 70
    64
  0
VERTEX
  8
0
  6
CONTINUOUS
 10
2.615196
 20
-0.576539
 30
0.0
 70
    64
  0
VERTEX
  8
0
  6
CONTINUOUS
 10
2.628916
 20
-0.576539
 30
0.0
 70
    64
  0
VERTEX
  8
0
  6
CONTINUOUS
 10
2.642636
 20
-0.576539
 30
0.0
 70
    64
  0
VERTEX
  8
0
  6
CONTINUOUS
 10
2.656356
 20
-0.576539
 30
0.0
 70
    64
  0
VERTEX
  8
0
  6
CONTINUOUS
 10
2.670076
 20
-0.576539
 30
0.0
 70
    64
  0
VERTEX
  8
0
  6
CONTINUOUS
 10
2.683796
 20
-0.576539
 30
0.0
 70
    64
  0
VERTEX
  8
0
  6
CONTINUOUS
 10
2.697516
 20
-0.576539
 30
0.0
 70
    64
  0
VERTEX
  8
0
  6
CONTINUOUS
 10
2.711236
 20
-0.576539
 30
0.0
 70
    64
  0
VERTEX
  8
0
  6
CONTINUOUS
 10
2.724956
 20
-0.576539
 30
0.0
 70
    64
  0
VERTEX
  8
0
  6
CONTINUOUS
 10
2.738676
 20
-0.576539
 30
0.0
 70
    64
  0
VERTEX
  8
0
  6
CONTINUOUS
 10
2.752396
 20
-0.576539
 30
0.0
 70
    64
  0
VERTEX
  8
0
  6
CONTINUOUS
 10
2.766116
 20
-0.576539
 30
0.0
 70
    64
  0
VERTEX
  8
0
  6
CONTINUOUS
 10
2.779836
 20
-0.576539
 30
0.0
 70
    64
  0
VERTEX
  8
0
  6
CONTINUOUS
 10
2.793556
 20
-0.576539
 30
0.0
 70
    64
  0
VERTEX
  8
0
  6
CONTINUOUS
 10
2.807276
 20
-0.576539
 30
0.0
 70
    64
  0
VERTEX
  8
0
  6
CONTINUOUS
 10
2.820996
 20
-0.576539
 30
0.0
 70
    64
  0
VERTEX
  8
0
  6
CONTINUOUS
 10
2.834716
 20
-0.576539
 30
0.0
 70
    64
  0
VERTEX
  8
0
  6
CONTINUOUS
 10
2.848436
 20
-0.576539
 30
0.0
 70
    64
  0
VERTEX
  8
0
  6
CONTINUOUS
 10
2.862156
 20
-0.576539
 30
0.0
 70
    64
  0
VERTEX
  8
0
  6
CONTINUOUS
 10
2.875876
 20
-0.576539
 30
0.0
 70
    64
  0
VERTEX
  8
0
  6
CONTINUOUS
 10
2.889596
 20
-0.576539
 30
0.0
 70
    64
  0
VERTEX
  8
0
  6
CONTINUOUS
 10
2.903316
 20
-0.576539
 30
0.0
 70
    64
  0
VERTEX
  8
0
  6
CONTINUOUS
 10
2.917036
 20
-0.576539
 30
0.0
 70
    64
  0
VERTEX
  8
0
  6
CONTINUOUS
 10
2.930756
 20
-0.576539
 30
0.0
 70
    64
  0
VERTEX
  8
0
  6
CONTINUOUS
 10
2.944476
 20
-0.576539
 30
0.0
 70
    64
  0
VERTEX
  8
0
  6
CONTINUOUS
 10
2.958196
 20
-0.576539
 30
0.0
 70
    64
  0
VERTEX
  8
0
  6
CONTINUOUS
 10
2.971916
 20
-0.576539
 30
0.0
 70
    64
  0
VERTEX
  8
0
  6
CONTINUOUS
 10
2.985636
 20
-0.576539
 30
0.0
 70
    64
  0
VERTEX
  8
0
  6
CONTINUOUS
 10
2.999356
 20
-0.576539
 30
0.0
 70
    64
  0
VERTEX
  8
0
  6
CONTINUOUS
 10
3.013076
 20
-0.576539
 30
0.0
 70
    64
  0
VERTEX
  8
0
  6
CONTINUOUS
 10
3.026796
 20
-0.576539
 30
0.0
 70
    64
  0
VERTEX
  8
0
  6
CONTINUOUS
 10
3.040516
 20
-0.576539
 30
0.0
 70
    64
  0
VERTEX
  8
0
  6
CONTINUOUS
 10
3.054236
 20
-0.576539
 30
0.0
 70
    64
  0
VERTEX
  8
0
  6
CONTINUOUS
 10
3.067956
 20
-0.576539
 30
0.0
 70
    64
  0
VERTEX
  8
0
  6
CONTINUOUS
 10
3.081676
 20
-0.576539
 30
0.0
 70
    64
  0
VERTEX
  8
0
  6
CONTINUOUS
 10
3.095396
 20
-0.576539
 30
0.0
 70
    64
  0
VERTEX
  8
0
  6
CONTINUOUS
 10
3.109116
 20
-0.576539
 30
0.0
 70
    64
  0
VERTEX
  8
0
  6
CONTINUOUS
 10
3.122836
 20
-0.576539
 30
0.0
 70
    64
  0
VERTEX
  8
0
  6
CONTINUOUS
 10
3.136556
 20
-0.576539
 30
0.0
 70
    64
  0
VERTEX
  8
0
  6
CONTINUOUS
 10
3.150276
 20
-0.576539
 30
0.0
 70
    64
  0
VERTEX
  8
0
  6
CONTINUOUS
 10
3.163996
 20
-0.576539
 30
0.0
 70
    64
  0
VERTEX
  8
0
  6
CONTINUOUS
 10
3.177716
 20
-0.576539
 30
0.0
 70
    64
  0
VERTEX
  8
0
  6
CONTINUOUS
 10
3.191436
 20
-0.576539
 30
0.0
 70
    64
  0
VERTEX
  8
0
  6
CONTINUOUS
 10
3.205156
 20
-0.576539
 30
0.0
 70
    64
  0
VERTEX
  8
0
  6
CONTINUOUS
 10
3.218876
 20
-0.576539
 30
0.0
 70
    64
  0
VERTEX
  8
0
  6
CONTINUOUS
 10
3.232596
 20
-0.576539
 30
0.0
 70
    64
  0
VERTEX
  8
0
  6
CONTINUOUS
 10
3.246316
 20
-0.576539
 30
0.0
 70
    64
  0
VERTEX
  8
0
  6
CONTINUOUS
 10
3.260036
 20
-0.576539
 30
0.0
 70
    64
  0
VERTEX
  8
0
  6
CONTINUOUS
 10
3.273756
 20
-0.576539
 30
0.0
 70
    64
  0
VERTEX
  8
0
  6
CONTINUOUS
 10
3.287476
 20
-0.576539
 30
0.0
 70
    64
  0
VERTEX
  8
0
  6
CONTINUOUS
 10
3.301196
 20
-0.576539
 30
0.0
 70
    64
  0
VERTEX
  8
0
  6
CONTINUOUS
 10
3.314916
 20
-0.576539
 30
0.0
 70
    64
  0
VERTEX
  8
0
  6
CONTINUOUS
 10
3.328636
 20
-0.576539
 30
0.0
 70
    64
  0
VERTEX
  8
0
  6
CONTINUOUS
 10
3.342356
 20
-0.576539
 30
0.0
 70
    64
  0
VERTEX
  8
0
  6
CONTINUOUS
 10
3.356076
 20
-0.576539
 30
0.0
 70
    64
  0
VERTEX
  8
0
  6
CONTINUOUS
 10
3.369796
 20
-0.576539
 30
0.0
 70
    64
  0
VERTEX
  8
0
  6
CONTINUOUS
 10
3.383516
 20
-0.576539
 30
0.0
 70
    64
  0
VERTEX
  8
0
  6
CONTINUOUS
 10
3.397236
 20
-0.576539
 30
0.0
 70
    64
  0
VERTEX
  8
0
  6
CONTINUOUS
 10
3.410956
 20
-0.576539
 30
0.0
 70
    64
  0
VERTEX
  8
0
  6
CONTINUOUS
 10
3.424676
 20
-0.576539
 30
0.0
 70
    64
  0
VERTEX
  8
0
  6
CONTINUOUS
 10
3.438396
 20
-0.576539
 30
0.0
 70
    64
  0
VERTEX
  8
0
  6
CONTINUOUS
 10
3.452116
 20
-0.576539
 30
0.0
 70
    64
  0
VERTEX
  8
0
  6
CONTINUOUS
 10
3.465836
 20
-0.576539
 30
0.0
 70
    64
  0
VERTEX
  8
0
  6
CONTINUOUS
 10
3.479556
 20
-0.576539
 30
0.0
 70
    64
  0
VERTEX
  8
0
  6
CONTINUOUS
 10
3.493276
 20
-0.576539
 30
0.0
 70
    64
  0
VERTEX
  8
0
  6
CONTINUOUS
 10
3.506996
 20
-0.576539
 30
0.0
 70
    64
  0
VERTEX
  8
0
  6
CONTINUOUS
 10
3.520716
 20
-0.576539
 30
0.0
 70
    64
  0
VERTEX
  8
0
  6
CONTINUOUS
 10
3.534436
 20
-0.576539
 30
0.0
 70
    64
  0
VERTEX
  8
0
  6
CONTINUOUS
 10
3.548156
 20
-0.576539
 30
0.0
 70
    64
  0
VERTEX
  8
0
  6
CONTINUOUS
 10
3.561876
 20
-0.576539
 30
0.0
 70
    64
  0
VERTEX
  8
0
  6
CONTINUOUS
 10
3.575596
 20
-0.576539
 30
0.0
 70
    64
  0
VERTEX
  8
0
  6
CONTINUOUS
 10
3.589316
 20
-0.576539
 30
0.0
 70
    64
  0
VERTEX
  8
0
  6
CONTINUOUS
 10
3.603036
 20
-0.576539
 30
0.0
 70
    64
  0
VERTEX
  8
0
  6
CONTINUOUS
 10
3.616756
 20
-0.576539
 30
0.0
 70
    64
  0
VERTEX
  8
0
  6
CONTINUOUS
 10
3.630476
 20
-0.576539
 30
0.0
 70
    64
  0
VERTEX
  8
0
  6
CONTINUOUS
 10
3.644196
 20
-0.576539
 30
0.0
 70
    64
  0
VERTEX
  8
0
  6
CONTINUOUS
 10
3.657916
 20
-0.576539
 30
0.0
 70
    64
  0
VERTEX
  8
0
  6
CONTINUOUS
 10
3.671636
 20
-0.576539
 30
0.0
 70
    64
  0
VERTEX
  8
0
  6
CONTINUOUS
 10
3.685356
 20
-0.576539
 30
0.0
 70
    64
  0
VERTEX
  8
0
  6
CONTINUOUS
 10
3.699076
 20
-0.576539
 30
0.0
 70
    64
  0
VERTEX
  8
0
  6
CONTINUOUS
 10
3.712796
 20
-0.576539
 30
0.0
 70
    64
  0
VERTEX
  8
0
  6
CONTINUOUS
 10
3.726516
 20
-0.576539
 30
0.0
 70
    64
  0
VERTEX
  8
0
  6
CONTINUOUS
 10
3.740236
 20
-0.576539
 30
0.0
 70
    64
  0
VERTEX
  8
0
  6
CONTINUOUS
 10
3.753956
 20
-0.576539
 30
0.0
 70
    64
  0
VERTEX
  8
0
  6
CONTINUOUS
 10
3.767676
 20
-0.576539
 30
0.0
 70
    64
  0
VERTEX
  8
0
  6
CONTINUOUS
 10
3.781396
 20
-0.576539
 30
0.0
 70
    64
  0
VERTEX
  8
0
  6
CONTINUOUS
 10
3.795116
 20
-0.576539
 30
0.0
 70
    64
  0
VERTEX
  8
0
  6
CONTINUOUS
 10
3.808836
 20
-0.576539
 30
0.0
 70
    64
  0
VERTEX
  8
0
  6
CONTINUOUS
 10
3.822556
 20
-0.576539
 30
0.0
 70
    64
  0
VERTEX
  8
0
  6
CONTINUOUS
 10
3.836276
 20
-0.576539
 30
0.0
 70
    64
  0
VERTEX
  8
0
  6
CONTINUOUS
 10
3.849996
 20
-0.576539
 30
0.0
 70
    64
  0
VERTEX
  8
0
  6
CONTINUOUS
 10
3.863716
 20
-0.576539
 30
0.0
 70
    64
  0
VERTEX
  8
0
  6
CONTINUOUS
 10
3.877436
 20
-0.576539
 30
0.0
 70
    64
  0
VERTEX
  8
0
  6
CONTINUOUS
 10
3.891156
 20
-0.576539
 30
0.0
 70
    64
  0
VERTEX
  8
0
  6
CONTINUOUS
 10
3.904876
 20
-0.576539
 30
0.0
 70
    64
  0
VERTEX
  8
0
  6
CONTINUOUS
 10
3.918596
 20
-0.576539
 30
0.0
 70
    64
  0
VERTEX
  8
0
  6
CONTINUOUS
 10
3.932316
 20
-0.576539
 30
0.0
 70
    64
  0
VERTEX
  8
0
  6
CONTINUOUS
 10
3.946036
 20
-0.576539
 30
0.0
 70
    64
  0
VERTEX
  8
0
  6
CONTINUOUS
 10
3.959756
 20
-0.576539
 30
0.0
 70
    64
  0
VERTEX
  8
0
  6
CONTINUOUS
 10
3.973476
 20
-0.576539
 30
0.0
 70
    64
  0
VERTEX
  8
0
  6
CONTINUOUS
 10
3.987196
 20
-0.576539
 30
0.0
 70
    64
  0
VERTEX
  8
0
  6
CONTINUOUS
 10
4.000916
 20
-0.576539
 30
0.0
 70
    64
  0
VERTEX
  8
0
  6
CONTINUOUS
 10
4.014636
 20
-0.576539
 30
0.0
 70
    64
  0
VERTEX
  8
0
  6
CONTINUOUS
 10
4.028356
 20
-0.576539
 30
0.0
 70
    64
  0
VERTEX
  8
0
  6
CONTINUOUS
 10
4.042076
 20
-0.576539
 30
0.0
 70
    64
  0
VERTEX
  8
0
  6
CONTINUOUS
 10
4.055796
 20
-0.576539
 30
0.0
 70
    64
  0
VERTEX
  8
0
  6
CONTINUOUS
 10
4.069516
 20
-0.576539
 30
0.0
 70
    64
  0
VERTEX
  8
0
  6
CONTINUOUS
 10
4.083236
 20
-0.576539
 30
0.0
 70
    64
  0
VERTEX
  8
0
  6
CONTINUOUS
 10
4.096956
 20
-0.576539
 30
0.0
 70
    64
  0
VERTEX
  8
0
  6
CONTINUOUS
 10
4.110676
 20
-0.576539
 30
0.0
 70
    64
  0
VERTEX
  8
0
  6
CONTINUOUS
 10
4.124396
 20
-0.576539
 30
0.0
 70
    64
  0
VERTEX
  8
0
  6
CONTINUOUS
 10
4.138116
 20
-0.576539
 30
0.0
 70
    64
  0
VERTEX
  8
0
  6
CONTINUOUS
 10
4.151836
 20
-0.576539
 30
0.0
 70
    64
  0
VERTEX
  8
0
  6
CONTINUOUS
 10
4.165556
 20
-0.576539
 30
0.0
 70
    64
  0
VERTEX
  8
0
  6
CONTINUOUS
 10
4.179276
 20
-0.576539
 30
0.0
 70
    64
  0
VERTEX
  8
0
  6
CONTINUOUS
 10
4.192996
 20
-0.576539
 30
0.0
 70
    64
  0
VERTEX
  8
0
  6
CONTINUOUS
 10
4.206716
 20
-0.576539
 30
0.0
 70
    64
  0
VERTEX
  8
0
  6
CONTINUOUS
 10
4.220436
 20
-0.576539
 30
0.0
 70
    64
  0
VERTEX
  8
0
  6
CONTINUOUS
 10
4.234156
 20
-0.576539
 30
0.0
 70
    64
  0
VERTEX
  8
0
  6
CONTINUOUS
 10
4.247876
 20
-0.576539
 30
0.0
 70
    64
  0
VERTEX
  8
0
  6
CONTINUOUS
 10
4.261596
 20
-0.576539
 30
0.0
 70
    64
  0
VERTEX
  8
0
  6
CONTINUOUS
 10
4.275316
 20
-0.576539
 30
0.0
 70
    64
  0
VERTEX
  8
0
  6
CONTINUOUS
 10
4.289036
 20
-0.576539
 30
0.0
 70
    64
  0
VERTEX
  8
0
  6
CONTINUOUS
 10
4.302756
 20
-0.576539
 30
0.0
 70
    64
  0
VERTEX
  8
0
  6
CONTINUOUS
 10
4.316476
 20
-0.576539
 30
0.0
 70
    64
  0
VERTEX
  8
0
  6
CONTINUOUS
 10
4.330196
 20
-0.576539
 30
0.0
 70
    64
  0
VERTEX
  8
0
  6
CONTINUOUS
 10
4.343916
 20
-0.576539
 30
0.0
 70
    64
  0
VERTEX
  8
0
  6
CONTINUOUS
 10
4.357636
 20
-0.576539
 30
0.0
 70
    64
  0
VERTEX
  8
0
  6
CONTINUOUS
 10
4.371356
 20
-0.576539
 30
0.0
 70
    64
  0
VERTEX
  8
0
  6
CONTINUOUS
 10
4.385076
 20
-0.576539
 30
0.0
 70
    64
  0
VERTEX
  8
0
  6
CONTINUOUS
 10
4.398796
 20
-0.576539
 30
0.0
 70
    64
  0
VERTEX
  8
0
  6
CONTINUOUS
 10
4.412516
 20
-0.576539
 30
0.0
 70
    64
  0
VERTEX
  8
0
  6
CONTINUOUS
 10
4.426236
 20
-0.576539
 30
0.0
 70
    64
  0
VERTEX
  8
0
  6
CONTINUOUS
 10
4.439956
 20
-0.576539
 30
0.0
 70
    64
  0
VERTEX
  8
0
  6
CONTINUOUS
 10
4.453676
 20
-0.576539
 30
0.0
 70
    64
  0
VERTEX
  8
0
  6
CONTINUOUS
 10
4.467396
 20
-0.576539
 30
0.0
 70
    64
  0
VERTEX
  8
0
  6
CONTINUOUS
 10
4.481116
 20
-0.576539
 30
0.0
 70
    64
  0
VERTEX
  8
0
  6
CONTINUOUS
 10
4.494836
 20
-0.576539
 30
0.0
 70
    64
  0
VERTEX
  8
0
  6
CONTINUOUS
 10
4.508556
 20
-0.576539
 30
0.0
 70
    64
  0
VERTEX
  8
0
  6
CONTINUOUS
 10
4.522276
 20
-0.576539
 30
0.0
 70
    64
  0
VERTEX
  8
0
  6
CONTINUOUS
 10
4.535996
 20
-0.576539
 30
0.0
 70
    64
  0
VERTEX
  8
0
  6
CONTINUOUS
 10
4.549716
 20
-0.576539
 30
0.0
 70
    64
  0
VERTEX
  8
0
  6
CONTINUOUS
 10
4.563436
 20
-0.576539
 30
0.0
 70
    64
  0
VERTEX
  8
0
  6
CONTINUOUS
 10
4.577156
 20
-0.576539
 30
0.0
 70
    64
  0
VERTEX
  8
0
  6
CONTINUOUS
 10
4.590876
 20
-0.576539
 30
0.0
 70
    64
  0
VERTEX
  8
0
  6
CONTINUOUS
 10
4.604596
 20
-0.576539
 30
0.0
 70
    64
  0
VERTEX
  8
0
  6
CONTINUOUS
 10
4.618316
 20
-0.576539
 30
0.0
 70
    64
  0
VERTEX
  8
0
  6
CONTINUOUS
 10
4.632036
 20
-0.576539
 30
0.0
 70
    64
  0
VERTEX
  8
0
  6
CONTINUOUS
 10
4.645756
 20
-0.576539
 30
0.0
 70
    64
  0
VERTEX
  8
0
  6
CONTINUOUS
 10
4.659476
 20
-0.576539
 30
0.0
 70
    64
  0
VERTEX
  8
0
  6
CONTINUOUS
 10
4.673196
 20
-0.576539
 30
0.0
 70
    64
  0
VERTEX
  8
0
  6
CONTINUOUS
 10
4.686916
 20
-0.576539
 30
0.0
 70
    64
  0
VERTEX
  8
0
  6
CONTINUOUS
 10
4.700636
 20
-0.576539
 30
0.0
 70
    64
  0
VERTEX
  8
0
  6
CONTINUOUS
 10
4.714356
 20
-0.576539
 30
0.0
 70
    64
  0
VERTEX
  8
0
  6
CONTINUOUS
 10
4.728076
 20
-0.576539
 30
0.0
 70
    64
  0
VERTEX
  8
0
  6
CONTINUOUS
 10
4.741796
 20
-0.576539
 30
0.0
 70
    64
  0
VERTEX
  8
0
  6
CONTINUOUS
 10
4.755516
 20
-0.576539
 30
0.0
 70
    64
  0
VERTEX
  8
0
  6
CONTINUOUS
 10
4.769236
 20
-0.576539
 30
0.0
 70
    64
  0
VERTEX
  8
0
  6
CONTINUOUS
 10
4.782956
 20
-0.576539
 30
0.0
 70
    64
  0
VERTEX
  8
0
  6
CONTINUOUS
 10
4.796676
 20
-0.576539
 30
0.0
 70
    64
  0
VERTEX
  8
0
  6
CONTINUOUS
 10
4.810396
 20
-0.576539
 30
0.0
 70
    64
  0
VERTEX
  8
0
  6
CONTINUOUS
 10
4.824116
 20
-0.576539
 30
0.0
 70
    64
  0
VERTEX
  8
0
  6
CONTINUOUS
 10
4.837836
 20
-0.576539
 30
0.0
 70
    64
  0
VERTEX
  8
0
  6
CONTINUOUS
 10
4.851556
 20
-0.576539
 30
0.0
 70
    64
  0
VERTEX
  8
0
  6
CONTINUOUS
 10
4.865276
 20
-0.576539
 30
0.0
 70
    64
  0
VERTEX
  8
0
  6
CONTINUOUS
 10
4.878996
 20
-0.576539
 30
0.0
 70
    64
  0
VERTEX
  8
0
  6
CONTINUOUS
 10
4.892716
 20
-0.576539
 30
0.0
 70
    64
  0
VERTEX
  8
0
  6
CONTINUOUS
 10
4.906436
 20
-0.576539
 30
0.0
 70
    64
  0
VERTEX
  8
0
  6
CONTINUOUS
 10
4.920156
 20
-0.576539
 30
0.0
 70
    64
  0
VERTEX
  8
0
  6
CONTINUOUS
 10
4.933876
 20
-0.576539
 30
0.0
 70
    64
  0
VERTEX
  8
0
  6
CONTINUOUS
 10
4.947596
 20
-0.576539
 30
0.0
 70
    64
  0
VERTEX
  8
0
  6
CONTINUOUS
 10
4.961316
 20
-0.576539
 30
0.0
 70
    64
  0
VERTEX
  8
0
  6
CONTINUOUS
 10
4.975036
 20
-0.576539
 30
0.0
 70
    64
  0
VERTEX
  8
0
  6
CONTINUOUS
 10
4.988756
 20
-0.576539
 30
0.0
 70
    64
  0
VERTEX
  8
0
  6
CONTINUOUS
 10
5.002476
 20
-0.576539
 30
0.0
 70
    64
  0
VERTEX
  8
0
  6
CONTINUOUS
 10
5.016196
 20
-0.576539
 30
0.0
 70
    64
  0
VERTEX
  8
0
  6
CONTINUOUS
 10
5.029916
 20
-0.576539
 30
0.0
 70
    64
  0
VERTEX
  8
0
  6
CONTINUOUS
 10
5.043636
 20
-0.576539
 30
0.0
 70
    64
  0
VERTEX
  8
0
  6
CONTINUOUS
 10
5.057356
 20
-0.576539
 30
0.0
 70
    64
  0
VERTEX
  8
0
  6
CONTINUOUS
 10
5.071076
 20
-0.576539
 30
0.0
 70
    64
  0
VERTEX
  8
0
  6
CONTINUOUS
 10
5.084796
 20
-0.576539
 30
0.0
 70
    64
  0
VERTEX
  8
0
  6
CONTINUOUS
 10
5.098516
 20
-0.576539
 30
0.0
 70
    64
  0
VERTEX
  8
0
  6
CONTINUOUS
 10
5.112236
 20
-0.576539
 30
0.0
 70
    64
  0
VERTEX
  8
0
  6
CONTINUOUS
 10
5.125956
 20
-0.576539
 30
0.0
 70
    64
  0
VERTEX
  8
0
  6
CONTINUOUS
 10
5.139676
 20
-0.576539
 30
0.0
 70
    64
  0
VERTEX
  8
0
  6
CONTINUOUS
 10
5.153396
 20
-0.576539
 30
0.0
 70
    64
  0
VERTEX
  8
0
  6
CONTINUOUS
 10
5.167116
 20
-0.576539
 30
0.0
 70
    64
  0
VERTEX
  8
0
  6
CONTINUOUS
 10
5.180836
 20
-0.576539
 30
0.0
 70
    64
  0
VERTEX
  8
0
  6
CONTINUOUS
 10
5.194556
 20
-0.576539
 30
0.0
 70
    64
  0
VERTEX
  8
0
  6
CONTINUOUS
 10
5.208276
 20
-0.576539
 30
0.0
 70
    64
  0
VERTEX
  8
0
  6
CONTINUOUS
 10
5.221996
 20
-0.576539
 30
0.0
 70
    64
  0
VERTEX
  8
0
  6
CONTINUOUS
 10
5.235716
 20
-0.576539
 30
0.0
 70
    64
  0
VERTEX
  8
0
  6
CONTINUOUS
 10
5.249436
 20
-0.576539
 30
0.0
 70
    64
  0
VERTEX
  8
0
  6
CONTINUOUS
 10
1.819436
 20
0.403461
 30
0.0
 70
    64
  0
VERTEX
  8
0
  6
CONTINUOUS
 10
1.833156
 20
0.403461
 30
0.0
 70
    64
  0
VERTEX
  8
0
  6
CONTINUOUS
 10
1.846876
 20
0.403461
 30
0.0
 70
    64
  0
VERTEX
  8
0
  6
CONTINUOUS
 10
1.860596
 20
0.403461
 30
0.0
 70
    64
  0
VERTEX
  8
0
  6
CONTINUOUS
 10
1.874316
 20
0.403461
 30
0.0
 70
    64
  0
VERTEX
  8
0
  6
CONTINUOUS
 10
1.888036
 20
0.403461
 30
0.0
 70
    64
  0
VERTEX
  8
0
  6
CONTINUOUS
 10
1.901756
 20
0.403461
 30
0.0
 70
    64
  0
VERTEX
  8
0
  6
CONTINUOUS
 10
1.915476
 20
0.403461
 30
0.0
 70
    64
  0
VERTEX
  8
0
  6
CONTINUOUS
 10
1.929196
 20
0.403461
 30
0.0
 70
    64
  0
VERTEX
  8
0
  6
CONTINUOUS
 10
1.942916
 20
0.403461
 30
0.0
 70
    64
  0
VERTEX
  8
0
  6
CONTINUOUS
 10
1.956636
 20
0.403461
 30
0.0
 70
    64
  0
VERTEX
  8
0
  6
CONTINUOUS
 10
1.970356
 20
0.403461
 30
0.0
 70
    64
  0
VERTEX
  8
0
  6
CONTINUOUS
 10
1.984076
 20
0.403461
 30
0.0
 70
    64
  0
VERTEX
  8
0
  6
CONTINUOUS
 10
1.997796
 20
0.403461
 30
0.0
 70
    64
  0
VERTEX
  8
0
  6
CONTINUOUS
 10
2.011516
 20
0.403461
 30
0.0
 70
    64
  0
VERTEX
  8
0
  6
CONTINUOUS
 10
2.025236
 20
0.403461
 30
0.0
 70
    64
  0
VERTEX
  8
0
  6
CONTINUOUS
 10
2.038956
 20
0.403461
 30
0.0
 70
    64
  0
VERTEX
  8
0
  6
CONTINUOUS
 10
2.052676
 20
0.403461
 30
0.0
 70
    64
  0
VERTEX
  8
0
  6
CONTINUOUS
 10
2.066396
 20
0.403461
 30
0.0
 70
    64
  0
VERTEX
  8
0
  6
CONTINUOUS
 10
2.080116
 20
0.403461
 30
0.0
 70
    64
  0
VERTEX
  8
0
  6
CONTINUOUS
 10
2.093836
 20
0.403461
 30
0.0
 70
    64
  0
VERTEX
  8
0
  6
CONTINUOUS
 10
2.107556
 20
0.403461
 30
0.0
 70
    64
  0
VERTEX
  8
0
  6
CONTINUOUS
 10
2.121276
 20
0.403461
 30
0.0
 70
    64
  0
VERTEX
  8
0
  6
CONTINUOUS
 10
2.134996
 20
0.403461
 30
0.0
 70
    64
  0
VERTEX
  8
0
  6
CONTINUOUS
 10
2.148716
 20
0.403461
 30
0.0
 70
    64
  0
VERTEX
  8
0
  6
CONTINUOUS
 10
2.162436
 20
0.403461
 30
0.0
 70
    64
  0
VERTEX
  8
0
  6
CONTINUOUS
 10
2.176156
 20
0.403461
 30
0.0
 70
    64
  0
VERTEX
  8
0
  6
CONTINUOUS
 10
2.189876
 20
0.403461
 30
0.0
 70
    64
  0
VERTEX
  8
0
  6
CONTINUOUS
 10
2.203596
 20
0.403461
 30
0.0
 70
    64
  0
VERTEX
  8
0
  6
CONTINUOUS
 10
2.217316
 20
0.403461
 30
0.0
 70
    64
  0
VERTEX
  8
0
  6
CONTINUOUS
 10
2.231036
 20
0.403461
 30
0.0
 70
    64
  0
VERTEX
  8
0
  6
CONTINUOUS
 10
2.244756
 20
0.403461
 30
0.0
 70
    64
  0
VERTEX
  8
0
  6
CONTINUOUS
 10
2.258476
 20
0.403461
 30
0.0
 70
    64
  0
VERTEX
  8
0
  6
CONTINUOUS
 10
2.272196
 20
0.403461
 30
0.0
 70
    64
  0
VERTEX
  8
0
  6
CONTINUOUS
 10
2.285916
 20
0.403461
 30
0.0
 70
    64
  0
VERTEX
  8
0
  6
CONTINUOUS
 10
2.299636
 20
0.403461
 30
0.0
 70
    64
  0
VERTEX
  8
0
  6
CONTINUOUS
 10
2.313356
 20
0.403461
 30
0.0
 70
    64
  0
VERTEX
  8
0
  6
CONTINUOUS
 10
2.327076
 20
0.403461
 30
0.0
 70
    64
  0
VERTEX
  8
0
  6
CONTINUOUS
 10
2.340796
 20
0.403461
 30
0.0
 70
    64
  0
VERTEX
  8
0
  6
CONTINUOUS
 10
2.354516
 20
0.403461
 30
0.0
 70
    64
  0
VERTEX
  8
0
  6
CONTINUOUS
 10
2.368236
 20
0.403461
 30
0.0
 70
    64
  0
VERTEX
  8
0
  6
CONTINUOUS
 10
2.381956
 20
0.403461
 30
0.0
 70
    64
  0
VERTEX
  8
0
  6
CONTINUOUS
 10
2.395676
 20
0.403461
 30
0.0
 70
    64
  0
VERTEX
  8
0
  6
CONTINUOUS
 10
2.409396
 20
0.403461
 30
0.0
 70
    64
  0
VERTEX
  8
0
  6
CONTINUOUS
 10
2.423116
 20
0.403461
 30
0.0
 70
    64
  0
VERTEX
  8
0
  6
CONTINUOUS
 10
2.436836
 20
0.403461
 30
0.0
 70
    64
  0
VERTEX
  8
0
  6
CONTINUOUS
 10
2.450556
 20
0.403461
 30
0.0
 70
    64
  0
VERTEX
  8
0
  6
CONTINUOUS
 10
2.464276
 20
0.403461
 30
0.0
 70
    64
  0
VERTEX
  8
0
  6
CONTINUOUS
 10
2.477996
 20
0.403461
 30
0.0
 70
    64
  0
VERTEX
  8
0
  6
CONTINUOUS
 10
2.491716
 20
0.403461
 30
0.0
 70
    64
  0
VERTEX
  8
0
  6
CONTINUOUS
 10
2.505436
 20
0.403461
 30
0.0
 70
    64
  0
VERTEX
  8
0
  6
CONTINUOUS
 10
2.519156
 20
0.403461
 30
0.0
 70
    64
  0
VERTEX
  8
0
  6
CONTINUOUS
 10
2.532876
 20
0.403461
 30
0.0
 70
    64
  0
VERTEX
  8
0
  6
CONTINUOUS
 10
2.546596
 20
0.403461
 30
0.0
 70
    64
  0
VERTEX
  8
0
  6
CONTINUOUS
 10
2.560316
 20
0.403461
 30
0.0
 70
    64
  0
VERTEX
  8
0
  6
CONTINUOUS
 10
2.574036
 20
0.403461
 30
0.0
 70
    64
  0
VERTEX
  8
0
  6
CONTINUOUS
 10
2.587756
 20
0.403461
 30
0.0
 70
    64
  0
VERTEX
  8
0
  6
CONTINUOUS
 10
2.601476
 20
0.403461
 30
0.0
 70
    64
  0
VERTEX
  8
0
  6
CONTINUOUS
 10
2.615196
 20
0.403461
 30
0.0
 70
    64
  0
VERTEX
  8
0
  6
CONTINUOUS
 10
2.628916
 20
0.403461
 30
0.0
 70
    64
  0
VERTEX
  8
0
  6
CONTINUOUS
 10
2.642636
 20
0.403461
 30
0.0
 70
    64
  0
VERTEX
  8
0
  6
CONTINUOUS
 10
2.656356
 20
0.403461
 30
0.0
 70
    64
  0
VERTEX
  8
0
  6
CONTINUOUS
 10
2.670076
 20
0.403461
 30
0.0
 70
    64
  0
VERTEX
  8
0
  6
CONTINUOUS
 10
2.683796
 20
0.403461
 30
0.0
 70
    64
  0
VERTEX
  8
0
  6
CONTINUOUS
 10
2.697516
 20
0.403461
 30
0.0
 70
    64
  0
VERTEX
  8
0
  6
CONTINUOUS
 10
2.711236
 20
0.403461
 30
0.0
 70
    64
  0
VERTEX
  8
0
  6
CONTINUOUS
 10
2.724956
 20
0.403461
 30
0.0
 70
    64
  0
VERTEX
  8
0
  6
CONTINUOUS
 10
2.738676
 20
0.403461
 30
0.0
 70
    64
  0
VERTEX
  8
0
  6
CONTINUOUS
 10
2.752396
 20
0.403461
 30
0.0
 70
    64
  0
VERTEX
  8
0
  6
CONTINUOUS
 10
2.766116
 20
0.403461
 30
0.0
 70
    64
  0
VERTEX
  8
0
  6
CONTINUOUS
 10
2.779836
 20
0.403461
 30
0.0
 70
    64
  0
VERTEX
  8
0
  6
CONTINUOUS
 10
2.793556
 20
0.403461
 30
0.0
 70
    64
  0
VERTEX
  8
0
  6
CONTINUOUS
 10
2.807276
 20
0.403461
 30
0.0
 70
    64
  0
VERTEX
  8
0
  6
CONTINUOUS
 10
2.820996
 20
0.403461
 30
0.0
 70
    64
  0
VERTEX
  8
0
  6
CONTINUOUS
 10
2.834716
 20
0.403461
 30
0.0
 70
    64
  0
VERTEX
  8
0
  6
CONTINUOUS
 10
2.848436
 20
0.403461
 30
0.0
 70
    64
  0
VERTEX
  8
0
  6
CONTINUOUS
 10
2.862156
 20
0.403461
 30
0.0
 70
    64
  0
VERTEX
  8
0
  6
CONTINUOUS
 10
2.875876
 20
0.403461
 30
0.0
 70
    64
  0
VERTEX
  8
0
  6
CONTINUOUS
 10
2.889596
 20
0.403461
 30
0.0
 70
    64
  0
VERTEX
  8
0
  6
CONTINUOUS
 10
2.903316
 20
0.403461
 30
0.0
 70
    64
  0
VERTEX
  8
0
  6
CONTINUOUS
 10
2.917036
 20
0.403461
 30
0.0
 70
    64
  0
VERTEX
  8
0
  6
CONTINUOUS
 10
2.930756
 20
0.403461
 30
0.0
 70
    64
  0
VERTEX
  8
0
  6
CONTINUOUS
 10
2.944476
 20
0.403461
 30
0.0
 70
    64
  0
VERTEX
  8
0
  6
CONTINUOUS
 10
2.958196
 20
0.403461
 30
0.0
 70
    64
  0
VERTEX
  8
0
  6
CONTINUOUS
 10
2.971916
 20
0.403461
 30
0.0
 70
    64
  0
VERTEX
  8
0
  6
CONTINUOUS
 10
2.985636
 20
0.403461
 30
0.0
 70
    64
  0
VERTEX
  8
0
  6
CONTINUOUS
 10
2.999356
 20
0.403461
 30
0.0
 70
    64
  0
VERTEX
  8
0
  6
CONTINUOUS
 10
3.013076
 20
0.403461
 30
0.0
 70
    64
  0
VERTEX
  8
0
  6
CONTINUOUS
 10
3.026796
 20
0.403461
 30
0.0
 70
    64
  0
VERTEX
  8
0
  6
CONTINUOUS
 10
3.040516
 20
0.403461
 30
0.0
 70
    64
  0
VERTEX
  8
0
  6
CONTINUOUS
 10
3.054236
 20
0.403461
 30
0.0
 70
    64
  0
VERTEX
  8
0
  6
CONTINUOUS
 10
3.067956
 20
0.403461
 30
0.0
 70
    64
  0
VERTEX
  8
0
  6
CONTINUOUS
 10
3.081676
 20
0.403461
 30
0.0
 70
    64
  0
VERTEX
  8
0
  6
CONTINUOUS
 10
3.095396
 20
0.403461
 30
0.0
 70
    64
  0
VERTEX
  8
0
  6
CONTINUOUS
 10
3.109116
 20
0.403461
 30
0.0
 70
    64
  0
VERTEX
  8
0
  6
CONTINUOUS
 10
3.122836
 20
0.403461
 30
0.0
 70
    64
  0
VERTEX
  8
0
  6
CONTINUOUS
 10
3.136556
 20
0.403461
 30
0.0
 70
    64
  0
VERTEX
  8
0
  6
CONTINUOUS
 10
3.150276
 20
0.403461
 30
0.0
 70
    64
  0
VERTEX
  8
0
  6
CONTINUOUS
 10
3.163996
 20
0.403461
 30
0.0
 70
    64
  0
VERTEX
  8
0
  6
CONTINUOUS
 10
3.177716
 20
0.403461
 30
0.0
 70
    64
  0
VERTEX
  8
0
  6
CONTINUOUS
 10
3.191436
 20
0.403461
 30
0.0
 70
    64
  0
VERTEX
  8
0
  6
CONTINUOUS
 10
3.205156
 20
0.403461
 30
0.0
 70
    64
  0
VERTEX
  8
0
  6
CONTINUOUS
 10
3.218876
 20
0.403461
 30
0.0
 70
    64
  0
VERTEX
  8
0
  6
CONTINUOUS
 10
3.232596
 20
0.403461
 30
0.0
 70
    64
  0
VERTEX
  8
0
  6
CONTINUOUS
 10
3.246316
 20
0.403461
 30
0.0
 70
    64
  0
VERTEX
  8
0
  6
CONTINUOUS
 10
3.260036
 20
0.403461
 30
0.0
 70
    64
  0
VERTEX
  8
0
  6
CONTINUOUS
 10
3.273756
 20
0.403461
 30
0.0
 70
    64
  0
VERTEX
  8
0
  6
CONTINUOUS
 10
3.287476
 20
0.403461
 30
0.0
 70
    64
  0
VERTEX
  8
0
  6
CONTINUOUS
 10
3.301196
 20
0.403461
 30
0.0
 70
    64
  0
VERTEX
  8
0
  6
CONTINUOUS
 10
3.314916
 20
0.403461
 30
0.0
 70
    64
  0
VERTEX
  8
0
  6
CONTINUOUS
 10
3.328636
 20
0.403461
 30
0.0
 70
    64
  0
VERTEX
  8
0
  6
CONTINUOUS
 10
3.342356
 20
0.403461
 30
0.0
 70
    64
  0
VERTEX
  8
0
  6
CONTINUOUS
 10
3.356076
 20
0.403461
 30
0.0
 70
    64
  0
VERTEX
  8
0
  6
CONTINUOUS
 10
3.369796
 20
0.403461
 30
0.0
 70
    64
  0
VERTEX
  8
0
  6
CONTINUOUS
 10
3.383516
 20
0.403461
 30
0.0
 70
    64
  0
VERTEX
  8
0
  6
CONTINUOUS
 10
3.397236
 20
0.403461
 30
0.0
 70
    64
  0
VERTEX
  8
0
  6
CONTINUOUS
 10
3.410956
 20
0.403461
 30
0.0
 70
    64
  0
VERTEX
  8
0
  6
CONTINUOUS
 10
3.424676
 20
0.403461
 30
0.0
 70
    64
  0
VERTEX
  8
0
  6
CONTINUOUS
 10
3.438396
 20
0.403461
 30
0.0
 70
    64
  0
VERTEX
  8
0
  6
CONTINUOUS
 10
3.452116
 20
0.403461
 30
0.0
 70
    64
  0
VERTEX
  8
0
  6
CONTINUOUS
 10
3.465836
 20
0.403461
 30
0.0
 70
    64
  0
VERTEX
  8
0
  6
CONTINUOUS
 10
3.479556
 20
0.403461
 30
0.0
 70
    64
  0
VERTEX
  8
0
  6
CONTINUOUS
 10
3.493276
 20
0.403461
 30
0.0
 70
    64
  0
VERTEX
  8
0
  6
CONTINUOUS
 10
3.506996
 20
0.403461
 30
0.0
 70
    64
  0
VERTEX
  8
0
  6
CONTINUOUS
 10
3.520716
 20
0.403461
 30
0.0
 70
    64
  0
VERTEX
  8
0
  6
CONTINUOUS
 10
3.534436
 20
0.403461
 30
0.0
 70
    64
  0
VERTEX
  8
0
  6
CONTINUOUS
 10
3.548156
 20
0.403461
 30
0.0
 70
    64
  0
VERTEX
  8
0
  6
CONTINUOUS
 10
3.561876
 20
0.403461
 30
0.0
 70
    64
  0
VERTEX
  8
0
  6
CONTINUOUS
 10
3.575596
 20
0.403461
 30
0.0
 70
    64
  0
VERTEX
  8
0
  6
CONTINUOUS
 10
3.589316
 20
0.403461
 30
0.0
 70
    64
  0
VERTEX
  8
0
  6
CONTINUOUS
 10
3.603036
 20
0.403461
 30
0.0
 70
    64
  0
VERTEX
  8
0
  6
CONTINUOUS
 10
3.616756
 20
0.403461
 30
0.0
 70
    64
  0
VERTEX
  8
0
  6
CONTINUOUS
 10
3.630476
 20
0.403461
 30
0.0
 70
    64
  0
VERTEX
  8
0
  6
CONTINUOUS
 10
3.644196
 20
0.403461
 30
0.0
 70
    64
  0
VERTEX
  8
0
  6
CONTINUOUS
 10
3.657916
 20
0.403461
 30
0.0
 70
    64
  0
VERTEX
  8
0
  6
CONTINUOUS
 10
3.671636
 20
0.403461
 30
0.0
 70
    64
  0
VERTEX
  8
0
  6
CONTINUOUS
 10
3.685356
 20
0.403461
 30
0.0
 70
    64
  0
VERTEX
  8
0
  6
CONTINUOUS
 10
3.699076
 20
0.403461
 30
0.0
 70
    64
  0
VERTEX
  8
0
  6
CONTINUOUS
 10
3.712796
 20
0.403461
 30
0.0
 70
    64
  0
VERTEX
  8
0
  6
CONTINUOUS
 10
3.726516
 20
0.403461
 30
0.0
 70
    64
  0
VERTEX
  8
0
  6
CONTINUOUS
 10
3.740236
 20
0.403461
 30
0.0
 70
    64
  0
VERTEX
  8
0
  6
CONTINUOUS
 10
3.753956
 20
0.403461
 30
0.0
 70
    64
  0
VERTEX
  8
0
  6
CONTINUOUS
 10
3.767676
 20
0.403461
 30
0.0
 70
    64
  0
VERTEX
  8
0
  6
CONTINUOUS
 10
3.781396
 20
0.403461
 30
0.0
 70
    64
  0
VERTEX
  8
0
  6
CONTINUOUS
 10
3.795116
 20
0.403461
 30
0.0
 70
    64
  0
VERTEX
  8
0
  6
CONTINUOUS
 10
3.808836
 20
0.403461
 30
0.0
 70
    64
  0
VERTEX
  8
0
  6
CONTINUOUS
 10
3.822556
 20
0.403461
 30
0.0
 70
    64
  0
VERTEX
  8
0
  6
CONTINUOUS
 10
3.836276
 20
0.403461
 30
0.0
 70
    64
  0
VERTEX
  8
0
  6
CONTINUOUS
 10
3.849996
 20
0.403461
 30
0.0
 70
    64
  0
VERTEX
  8
0
  6
CONTINUOUS
 10
3.863716
 20
0.403461
 30
0.0
 70
    64
  0
VERTEX
  8
0
  6
CONTINUOUS
 10
3.877436
 20
0.403461
 30
0.0
 70
    64
  0
VERTEX
  8
0
  6
CONTINUOUS
 10
3.891156
 20
0.403461
 30
0.0
 70
    64
  0
VERTEX
  8
0
  6
CONTINUOUS
 10
3.904876
 20
0.403461
 30
0.0
 70
    64
  0
VERTEX
  8
0
  6
CONTINUOUS
 10
3.918596
 20
0.403461
 30
0.0
 70
    64
  0
VERTEX
  8
0
  6
CONTINUOUS
 10
3.932316
 20
0.403461
 30
0.0
 70
    64
  0
VERTEX
  8
0
  6
CONTINUOUS
 10
3.946036
 20
0.403461
 30
0.0
 70
    64
  0
VERTEX
  8
0
  6
CONTINUOUS
 10
3.959756
 20
0.403461
 30
0.0
 70
    64
  0
VERTEX
  8
0
  6
CONTINUOUS
 10
3.973476
 20
0.403461
 30
0.0
 70
    64
  0
VERTEX
  8
0
  6
CONTINUOUS
 10
3.987196
 20
0.403461
 30
0.0
 70
    64
  0
VERTEX
  8
0
  6
CONTINUOUS
 10
4.000916
 20
0.403461
 30
0.0
 70
    64
  0
VERTEX
  8
0
  6
CONTINUOUS
 10
4.014636
 20
0.403461
 30
0.0
 70
    64
  0
VERTEX
  8
0
  6
CONTINUOUS
 10
4.028356
 20
0.403461
 30
0.0
 70
    64
  0
VERTEX
  8
0
  6
CONTINUOUS
 10
4.042076
 20
0.403461
 30
0.0
 70
    64
  0
VERTEX
  8
0
  6
CONTINUOUS
 10
4.055796
 20
0.403461
 30
0.0
 70
    64
  0
VERTEX
  8
0
  6
CONTINUOUS
 10
4.069516
 20
0.403461
 30
0.0
 70
    64
  0
VERTEX
  8
0
  6
CONTINUOUS
 10
4.083236
 20
0.403461
 30
0.0
 70
    64
  0
VERTEX
  8
0
  6
CONTINUOUS
 10
4.096956
 20
0.403461
 30
0.0
 70
    64
  0
VERTEX
  8
0
  6
CONTINUOUS
 10
4.110676
 20
0.403461
 30
0.0
 70
    64
  0
VERTEX
  8
0
  6
CONTINUOUS
 10
4.124396
 20
0.403461
 30
0.0
 70
    64
  0
VERTEX
  8
0
  6
CONTINUOUS
 10
4.138116
 20
0.403461
 30
0.0
 70
    64
  0
VERTEX
  8
0
  6
CONTINUOUS
 10
4.151836
 20
0.403461
 30
0.0
 70
    64
  0
VERTEX
  8
0
  6
CONTINUOUS
 10
4.165556
 20
0.403461
 30
0.0
 70
    64
  0
VERTEX
  8
0
  6
CONTINUOUS
 10
4.179276
 20
0.403461
 30
0.0
 70
    64
  0
VERTEX
  8
0
  6
CONTINUOUS
 10
4.192996
 20
0.403461
 30
0.0
 70
    64
  0
VERTEX
  8
0
  6
CONTINUOUS
 10
4.206716
 20
0.403461
 30
0.0
 70
    64
  0
VERTEX
  8
0
  6
CONTINUOUS
 10
4.220436
 20
0.403461
 30
0.0
 70
    64
  0
VERTEX
  8
0
  6
CONTINUOUS
 10
4.234156
 20
0.403461
 30
0.0
 70
    64
  0
VERTEX
  8
0
  6
CONTINUOUS
 10
4.247876
 20
0.403461
 30
0.0
 70
    64
  0
VERTEX
  8
0
  6
CONTINUOUS
 10
4.261596
 20
0.403461
 30
0.0
 70
    64
  0
VERTEX
  8
0
  6
CONTINUOUS
 10
4.275316
 20
0.403461
 30
0.0
 70
    64
  0
VERTEX
  8
0
  6
CONTINUOUS
 10
4.289036
 20
0.403461
 30
0.0
 70
    64
  0
VERTEX
  8
0
  6
CONTINUOUS
 10
4.302756
 20
0.403461
 30
0.0
 70
    64
  0
VERTEX
  8
0
  6
CONTINUOUS
 10
4.316476
 20
0.403461
 30
0.0
 70
    64
  0
VERTEX
  8
0
  6
CONTINUOUS
 10
4.330196
 20
0.403461
 30
0.0
 70
    64
  0
VERTEX
  8
0
  6
CONTINUOUS
 10
4.343916
 20
0.403461
 30
0.0
 70
    64
  0
VERTEX
  8
0
  6
CONTINUOUS
 10
4.357636
 20
0.403461
 30
0.0
 70
    64
  0
VERTEX
  8
0
  6
CONTINUOUS
 10
4.371356
 20
0.403461
 30
0.0
 70
    64
  0
VERTEX
  8
0
  6
CONTINUOUS
 10
4.385076
 20
0.403461
 30
0.0
 70
    64
  0
VERTEX
  8
0
  6
CONTINUOUS
 10
4.398796
 20
0.403461
 30
0.0
 70
    64
  0
VERTEX
  8
0
  6
CONTINUOUS
 10
4.412516
 20
0.403461
 30
0.0
 70
    64
  0
VERTEX
  8
0
  6
CONTINUOUS
 10
4.426236
 20
0.403461
 30
0.0
 70
    64
  0
VERTEX
  8
0
  6
CONTINUOUS
 10
4.439956
 20
0.403461
 30
0.0
 70
    64
  0
VERTEX
  8
0
  6
CONTINUOUS
 10
4.453676
 20
0.403461
 30
0.0
 70
    64
  0
VERTEX
  8
0
  6
CONTINUOUS
 10
4.467396
 20
0.403461
 30
0.0
 70
    64
  0
VERTEX
  8
0
  6
CONTINUOUS
 10
4.481116
 20
0.403461
 30
0.0
 70
    64
  0
VERTEX
  8
0
  6
CONTINUOUS
 10
4.494836
 20
0.403461
 30
0.0
 70
    64
  0
VERTEX
  8
0
  6
CONTINUOUS
 10
4.508556
 20
0.403461
 30
0.0
 70
    64
  0
VERTEX
  8
0
  6
CONTINUOUS
 10
4.522276
 20
0.403461
 30
0.0
 70
    64
  0
VERTEX
  8
0
  6
CONTINUOUS
 10
4.535996
 20
0.403461
 30
0.0
 70
    64
  0
VERTEX
  8
0
  6
CONTINUOUS
 10
4.549716
 20
0.403461
 30
0.0
 70
    64
  0
VERTEX
  8
0
  6
CONTINUOUS
 10
4.563436
 20
0.403461
 30
0.0
 70
    64
  0
VERTEX
  8
0
  6
CONTINUOUS
 10
4.577156
 20
0.403461
 30
0.0
 70
    64
  0
VERTEX
  8
0
  6
CONTINUOUS
 10
4.590876
 20
0.403461
 30
0.0
 70
    64
  0
VERTEX
  8
0
  6
CONTINUOUS
 10
4.604596
 20
0.403461
 30
0.0
 70
    64
  0
VERTEX
  8
0
  6
CONTINUOUS
 10
4.618316
 20
0.403461
 30
0.0
 70
    64
  0
VERTEX
  8
0
  6
CONTINUOUS
 10
4.632036
 20
0.403461
 30
0.0
 70
    64
  0
VERTEX
  8
0
  6
CONTINUOUS
 10
4.645756
 20
0.403461
 30
0.0
 70
    64
  0
VERTEX
  8
0
  6
CONTINUOUS
 10
4.659476
 20
0.403461
 30
0.0
 70
    64
  0
VERTEX
  8
0
  6
CONTINUOUS
 10
4.673196
 20
0.403461
 30
0.0
 70
    64
  0
VERTEX
  8
0
  6
CONTINUOUS
 10
4.686916
 20
0.403461
 30
0.0
 70
    64
  0
VERTEX
  8
0
  6
CONTINUOUS
 10
4.700636
 20
0.403461
 30
0.0
 70
    64
  0
VERTEX
  8
0
  6
CONTINUOUS
 10
4.714356
 20
0.403461
 30
0.0
 70
    64
  0
VERTEX
  8
0
  6
CONTINUOUS
 10
4.728076
 20
0.403461
 30
0.0
 70
    64
  0
VERTEX
  8
0
  6
CONTINUOUS
 10
4.741796
 20
0.403461
 30
0.0
 70
    64
  0
VERTEX
  8
0
  6
CONTINUOUS
 10
4.755516
 20
0.403461
 30
0.0
 70
    64
  0
VERTEX
  8
0
  6
CONTINUOUS
 10
4.769236
 20
0.403461
 30
0.0
 70
    64
  0
VERTEX
  8
0
  6
CONTINUOUS
 10
4.782956
 20
0.403461
 30
0.0
 70
    64
  0
VERTEX
  8
0
  6
CONTINUOUS
 10
4.796676
 20
0.403461
 30
0.0
 70
    64
  0
VERTEX
  8
0
  6
CONTINUOUS
 10
4.810396
 20
0.403461
 30
0.0
 70
    64
  0
VERTEX
  8
0
  6
CONTINUOUS
 10
4.824116
 20
0.403461
 30
0.0
 70
    64
  0
VERTEX
  8
0
  6
CONTINUOUS
 10
4.837836
 20
0.403461
 30
0.0
 70
    64
  0
VERTEX
  8
0
  6
CONTINUOUS
 10
4.851556
 20
0.403461
 30
0.0
 70
    64
  0
VERTEX
  8
0
  6
CONTINUOUS
 10
4.865276
 20
0.403461
 30
0.0
 70
    64
  0
VERTEX
  8
0
  6
CONTINUOUS
 10
4.878996
 20
0.403461
 30
0.0
 70
    64
  0
VERTEX
  8
0
  6
CONTINUOUS
 10
4.892716
 20
0.403461
 30
0.0
 70
    64
  0
VERTEX
  8
0
  6
CONTINUOUS
 10
4.906436
 20
0.403461
 30
0.0
 70
    64
  0
VERTEX
  8
0
  6
CONTINUOUS
 10
4.920156
 20
0.403461
 30
0.0
 70
    64
  0
VERTEX
  8
0
  6
CONTINUOUS
 10
4.933876
 20
0.403461
 30
0.0
 70
    64
  0
VERTEX
  8
0
  6
CONTINUOUS
 10
4.947596
 20
0.403461
 30
0.0
 70
    64
  0
VERTEX
  8
0
  6
CONTINUOUS
 10
4.961316
 20
0.403461
 30
0.0
 70
    64
  0
VERTEX
  8
0
  6
CONTINUOUS
 10
4.975036
 20
0.403461
 30
0.0
 70
    64
  0
VERTEX
  8
0
  6
CONTINUOUS
 10
4.988756
 20
0.403461
 30
0.0
 70
    64
  0
VERTEX
  8
0
  6
CONTINUOUS
 10
5.002476
 20
0.403461
 30
0.0
 70
    64
  0
VERTEX
  8
0
  6
CONTINUOUS
 10
5.016196
 20
0.403461
 30
0.0
 70
    64
  0
VERTEX
  8
0
  6
CONTINUOUS
 10
5.029916
 20
0.403461
 30
0.0
 70
    64
  0
VERTEX
  8
0
  6
CONTINUOUS
 10
5.043636
 20
0.403461
 30
0.0
 70
    64
  0
VERTEX
  8
0
  6
CONTINUOUS
 10
5.057356
 20
0.403461
 30
0.0
 70
    64
  0
VERTEX
  8
0
  6
CONTINUOUS
 10
5.071076
 20
0.403461
 30
0.0
 70
    64
  0
VERTEX
  8
0
  6
CONTINUOUS
 10
5.084796
 20
0.403461
 30
0.0
 70
    64
  0
VERTEX
  8
0
  6
CONTINUOUS
 10
5.098516
 20
0.403461
 30
0.0
 70
    64
  0
VERTEX
  8
0
  6
CONTINUOUS
 10
5.112236
 20
0.403461
 30
0.0
 70
    64
  0
VERTEX
  8
0
  6
CONTINUOUS
 10
5.125956
 20
0.403461
 30
0.0
 70
    64
  0
VERTEX
  8
0
  6
CONTINUOUS
 10
5.139676
 20
0.403461
 30
0.0
 70
    64
  0
VERTEX
  8
0
  6
CONTINUOUS
 10
5.153396
 20
0.403461
 30
0.0
 70
    64
  0
VERTEX
  8
0
  6
CONTINUOUS
 10
5.167116
 20
0.403461
 30
0.0
 70
    64
  0
VERTEX
  8
0
  6
CONTINUOUS
 10
5.180836
 20
0.403461
 30
0.0
 70
    64
  0
VERTEX
  8
0
  6
CONTINUOUS
 10
5.194556
 20
0.403461
 30
0.0
 70
    64
  0
VERTEX
  8
0
  6
CONTINUOUS
 10
5.208276
 20
0.403461
 30
0.0
 70
    64
  0
VERTEX
  8
0
  6
CONTINUOUS
 10
5.221996
 20
0.403461
 30
0.0
 70
    64
  0
VERTEX
  8
0
  6
CONTINUOUS
 10
5.235716
 20
0.403461
 30
0.0
 70
    64
  0
VERTEX
  8
0
  6
CONTINUOUS
 10
5.249436
 20
0.403461
 30
0.0
 70
    64
  0
SEQEND
  8
0
  6
CONTINUOUS
  0
LINE
  8
0
  6
DASHED
 10
5.0
 20
-0.086539
 30
0.0
 11
15.0
 21
-0.086539
 31
0.0
  0
ARC
  8
0
  6
CONTINUOUS
 10
2.5
 20
-0.086539
 30
0.0
 40
2.5
 50
90.0
 51
270.0
  0
ENDBLK
  8
0
  0
BLOCK
  8
0
  2
MAA
 70
    64
 10
0.0
 20
0.0
 30
0.0
  3
MAA
  0
LINE
  8
0
  6
CONTINUOUS
 10
-0.500718
 20
-2.587966
 30
0.0
 11
0.386169
 21
-2.587966
 31
0.0
  0
LINE
  8
0
  6
CONTINUOUS
 10
-0.831823
 20
-1.976333
 30
0.0
 11
0.752749
 21
-1.976333
 31
0.0
  0
LINE
  8
0
  6
CONTINUOUS
 10
-0.015887
 20
-1.35427
 30
0.0
 11
1.178454
 21
-1.35427
 31
0.0
  0
LINE
  8
0
  6
CONTINUOUS
 10
-1.210228
 20
-1.35427
 30
0.0
 11
-0.015887
 21
-1.35427
 31
0.0
  0
LINE
  8
0
  6
CONTINUOUS
 10
0.0
 20
0.0
 30
0.0
 11
0.0
 21
-1.35427
 31
0.0
  0
ENDBLK
  8
0
  0
BLOCK
  8
0
  2
B506
 70
    64
 10
0.0
 20
0.0
 30
0.0
  3
B506
  0
INSERT
  8
BASE
  6
CONTINUOUS
  2
BLC29
 10
1.994594
 20
-0.128476
 30
0.0
 50
180.0
  0
ENDBLK
  8
0
  0
ENDSEC
  0
SECTION
  2
ENTITIES
  0
INSERT
  8
0
  2
1
 10
65.405438
 20
98.713066
 30
0.0
  0
INSERT
  8
0
  2
1
 10
72.541652
 20
49.71056
 30
0.0
  0
INSERT
  8
0
  2
1
 10
85.390443
 20
73.497234
 30
0.0
  0
LINE
  8
0
  6
CENTER
 62
   249
 10
260.0
 20
207.5
 30
0.0
 11
260.0
 21
100.0
 31
0.0
  0
LINE
  8
0
  6
CENTER
 62
   249
 10
260.0
 20
100.0
 30
0.0
 11
260.0
 21
50.0
 31
0.0
  0
LINE
  8
0
  6
CONTINUOUS
 62
   249
 10
210.450615
 20
199.709828
 30
0.0
 11
210.450615
 21
112.5
 31
0.0
  0
LINE
  8
0
  6
CONTINUOUS
 62
   249
 10
210.450615
 20
227.5
 30
0.0
 11
210.450615
 21
199.68832
 31
0.0
  0
LINE
  8
0
  6
CENTER
 62
   249
 10
260.0
 20
230.0
 30
0.0
 11
260.0
 21
207.5
 31
0.0
  0
LINE
  8
0
  6
CONTINUOUS
 62
   249
 10
200.0
 20
122.5
 30
0.0
 11
200.0
 21
227.5
 31
0.0
  0
LINE
  8
0
  6
CONTINUOUS
 62
   249
 10
180.0
 20
212.5
 30
0.0
 11
180.0
 21
197.5
 31
0.0
  0
LINE
  8
0
  6
CONTINUOUS
 62
   249
 10
180.0
 20
212.5
 30
0.0
 11
180.0
 21
227.5
 31
0.0
  0
LINE
  8
0
  6
CONTINUOUS
 62
   249
 10
180.0
 20
197.5
 30
0.0
 11
180.0
 21
122.5
 31
0.0
  0
LINE
  8
0
  6
CENTER
 62
   249
 10
40.0
 20
255.0
 30
0.0
 11
40.0
 21
50.0
 31
0.0
  0
LINE
  8
0
  6
CONTINUOUS
 62
   249
 10
61.853436
 20
144.638137
 30
0.0
 11
56.756076
 21
141.785297
 31
0.0
  0
LINE
  8
0
  6
CONTINUOUS
 62
   249
 10
84.353436
 20
134.638137
 30
0.0
 11
79.256076
 21
131.785297
 31
0.0
  0
LINE
  8
0
  6
CONTINUOUS
 62
   249
 10
85.740939
 20
135.0
 30
0.0
 11
87.5
 21
135.0
 31
0.0
  0
LINE
  8
0
  6
CONTINUOUS
 62
   249
 10
80.0
 20
135.0
 30
0.0
 11
40.0
 21
135.0
 31
0.0
  0
LINE
  8
0
  6
DASHED
 62
   249
 10
60.0
 20
150.0
 30
0.0
 11
60.0
 21
143.600824
 31
0.0
  0
LINE
  8
0
  6
DASHED
 62
   249
 10
82.5
 20
147.5
 30
0.0
 11
82.5
 21
133.600824
 31
0.0
  0
LINE
  8
0
  6
DASHED
 62
   249
 10
100.0
 20
147.5
 30
0.0
 11
100.0
 21
118.600824
 31
0.0
  0
LINE
  8
0
  6
DASHED
 62
   249
 10
117.5
 20
147.5
 30
0.0
 11
117.5
 21
103.600824
 31
0.0
  0
LINE
  8
0
  6
DASHED
 62
   249
 10
132.5
 20
125.0
 30
0.0
 11
132.5
 21
88.600824
 31
0.0
  0
TEXT
  8
0
  6
DASHED
 62
   249
 10
55.697373
 20
145.903492
 30
0.0
 40
2.0
  1
A
  7
ROMANS
  0
TEXT
  8
0
  6
DASHED
 62
   249
 10
79.143373
 20
136.274588
 30
0.0
 40
2.0
  1
B
  7
ROMANS
  0
TEXT
  8
0
  6
DASHED
 62
   249
 10
96.055109
 20
120.634364
 30
0.0
 40
2.0
  1
C
  7
ROMANS
  0
TEXT
  8
0
  6
DASHED
 62
   249
 10
113.484014
 20
105.755752
 30
0.0
 40
2.0
  1
D
  7
ROMANS
  0
TEXT
  8
0
  6
DASHED
 62
   249
 10
128.171573
 20
90.864654
 30
0.0
 40
2.0
  1
E
  7
ROMANS
  0
LINE
  8
0
  6
CENTER
 62
   249
 10
40.0
 20
50.0
 30
0.0
 11
260.0
 21
50.0
 31
0.0
  0
LINE
  8
0
  6
CENTER
 62
   249
 10
260.0
 20
230.0
 30
0.0
 11
260.0
 21
255.0
 31
0.0
  0
LINE
  8
0
  6
CENTER
 62
   249
 10
260.0
 20
255.0
 30
0.0
 11
40.0
 21
255.0
 31
0.0
  0
LINE
  8
0
  6
CONTINUOUS
 62
   249
 10
25.0
 20
120.0
 30
0.0
 11
25.0
 21
109.999655
 31
0.0
  0
LINE
  8
0
  6
CONTINUOUS
 62
   249
 10
25.0
 20
120.0
 30
0.0
 11
26.0
 21
121.0
 31
0.0
  0
LINE
  8
0
  6
CONTINUOUS
 62
   249
 10
25.0
 20
109.999655
 30
0.0
 11
26.0
 21
108.999655
 31
0.0
  0
TEXT
  8
0
  6
CONTINUOUS
 62
   249
 10
20.0
 20
141.777191
 30
0.0
 40
2.0
  1
4)
  7
ROMANS
  0
LINE
  8
0
  6
CONTINUOUS
 62
   249
 10
180.0
 20
160.0
 30
0.0
 11
210.450615
 21
160.0
 31
0.0
  0
LINE
  8
0
  6
CONTINUOUS
 62
   249
 10
132.5
 20
187.5
 30
0.0
 11
132.5
 21
125.0
 31
0.0
  0
TEXT
  8
0
 62
   249
 10
350.447956
 20
88.338465
 30
0.0
 40
2.0
  1
TERMINALS / UTTAG
  7
ROMANS
 11
350.447956
 21
87.671798
 31
0.0
 73
     1
  0
LINE
  8
0
 62
   249
 10
358.50882
 20
58.564865
 30
0.0
 11
388.50882
 21
58.564865
 31
0.0
  0
LINE
  8
0
 62
   249
 10
373.789728
 20
87.671798
 30
0.0
 11
373.789728
 21
41.519587
 31
0.0
  0
LINE
  8
0
 62
   249
 10
358.50882
 20
87.671798
 30
0.0
 11
358.50882
 21
41.519587
 31
0.0
  0
LINE
  8
0
 62
   249
 10
344.50882
 20
87.671798
 30
0.0
 11
388.50882
 21
87.671798
 31
0.0
  0
LINE
  8
0
 62
   249
 10
388.50882
 20
41.519587
 30
0.0
 11
388.50882
 21
93.671798
 31
0.0
  0
LINE
  8
0
 62
   249
 10
344.50882
 20
93.671798
 30
0.0
 11
344.50882
 21
41.519587
 31
0.0
  0
LINE
  8
0
  6
CONTINUOUS
 62
   249
 10
344.50882
 20
41.519587
 30
0.0
 11
388.50882
 21
41.519587
 31
0.0
  0
LINE
  8
0
  6
CONTINUOUS
 62
   249
 10
199.245375
 20
219.210612
 30
0.0
 11
199.245375
 21
217.422481
 31
0.0
  0
LINE
  8
0
  6
CONTINUOUS
 62
   249
 10
193.845856
 20
217.197731
 30
0.0
 11
196.721966
 21
220.026289
 31
0.0
  0
ARC
  8
0
  6
HIDDEN
 62
   249
 10
198.156579
 20
222.293878
 30
0.0
 40
4.998196
 50
206.402922
 51
282.21115
  0
LINE
  8
0
  6
CONTINUOUS
 62
   249
 10
196.291263
 20
220.563496
 30
0.0
 11
197.19194
 21
219.439747
 31
0.0
  0
LINE
  8
0
  6
CONTINUOUS
 62
   249
 10
191.461711
 20
218.365333
 30
0.0
 11
199.249916
 21
218.365333
 31
0.0
  0
LINE
  8
0
  6
CONTINUOUS
 62
   249
 10
191.430679
 20
219.210612
 30
0.0
 11
191.430679
 21
217.422481
 31
0.0
  0
LINE
  8
0
  6
HIDDEN
 62
   249
 10
180.0
 20
175.0
 30
0.0
 11
200.0
 21
175.0
 31
0.0
  0
LINE
  8
0
  6
HIDDEN
 62
   249
 10
180.0
 20
170.0
 30
0.0
 11
200.0
 21
170.0
 31
0.0
  0
LINE
  8
0
  6
HIDDEN
 62
   249
 10
180.0
 20
185.0
 30
0.0
 11
200.0
 21
185.0
 31
0.0
  0
LINE
  8
0
  6
CONTINUOUS
 62
   249
 10
186.941403
 20
188.677597
 30
0.0
 11
189.287169
 21
187.342244
 31
0.0
  0
LINE
  8
0
  6
CONTINUOUS
 62
   249
 10
189.287169
 20
187.342244
 30
0.0
 11
186.941403
 21
186.152325
 31
0.0
  0
LINE
  8
0
  6
HIDDEN
 62
   249
 10
182.5
 20
210.0
 30
0.0
 11
200.0
 21
210.0
 31
0.0
  0
TEXT
  8
0
  6
CONTINUOUS
 62
   249
 10
183.770128
 20
204.8404
 30
0.0
 40
2.5
  1
I
 11
183.770128
 21
204.007066
 31
0.0
 73
     1
  0
LINE
  8
0
  6
CONTINUOUS
 62
   249
 10
189.577068
 20
206.043003
 30
0.0
 11
187.231302
 21
204.853084
 31
0.0
  0
LINE
  8
0
  6
CONTINUOUS
 62
   249
 10
187.231302
 20
207.378357
 30
0.0
 11
189.577068
 21
206.043003
 31
0.0
  0
LINE
  8
0
  6
CONTINUOUS
 62
   249
 10
187.678827
 20
206.043003
 30
0.0
 11
185.333062
 21
204.853084
 31
0.0
  0
LINE
  8
0
  6
CONTINUOUS
 62
   249
 10
185.333062
 20
207.378357
 30
0.0
 11
187.678827
 21
206.043003
 31
0.0
  0
LINE
  8
0
  6
CONTINUOUS
 62
   249
 10
199.245829
 20
206.615882
 30
0.0
 11
199.245829
 21
204.82775
 31
0.0
  0
LINE
  8
0
  6
CONTINUOUS
 62
   249
 10
193.84631
 20
204.603
 30
0.0
 11
196.72242
 21
207.431559
 31
0.0
  0
LINE
  8
0
  6
CONTINUOUS
 62
   249
 10
196.291717
 20
207.968766
 30
0.0
 11
197.192394
 21
206.845017
 31
0.0
  0
LINE
  8
0
  6
CONTINUOUS
 62
   249
 10
191.462165
 20
205.770603
 30
0.0
 11
199.25037
 21
205.770603
 31
0.0
  0
LINE
  8
0
  6
CONTINUOUS
 62
   249
 10
191.431134
 20
206.615882
 30
0.0
 11
191.431134
 21
204.82775
 31
0.0
  0
LINE
  8
0
  6
HIDDEN
 62
   249
 10
182.5
 20
215.0
 30
0.0
 11
200.0
 21
215.0
 31
0.0
  0
LINE
  8
0
  6
CONTINUOUS
 62
   249
 10
185.333062
 20
213.730934
 30
0.0
 11
187.678827
 21
212.395581
 31
0.0
  0
LINE
  8
0
  6
CONTINUOUS
 62
   249
 10
187.678827
 20
212.395581
 30
0.0
 11
185.333062
 21
211.205662
 31
0.0
  0
LINE
  8
0
  6
CONTINUOUS
 62
   249
 10
187.231302
 20
213.730934
 30
0.0
 11
189.577068
 21
212.395581
 31
0.0
  0
LINE
  8
0
  6
CONTINUOUS
 62
   249
 10
189.577068
 20
212.395581
 30
0.0
 11
187.231302
 21
211.205662
 31
0.0
  0
TEXT
  8
0
  6
CONTINUOUS
 62
   249
 10
183.770128
 20
211.192977
 30
0.0
 40
2.5
  1
I
 11
183.770128
 21
210.359644
 31
0.0
 73
     1
  0
LINE
  8
0
  6
HIDDEN
 62
   249
 10
182.5
 20
222.5
 30
0.0
 11
200.0
 21
222.5
 31
0.0
  0
TEXT
  8
0
  6
CONTINUOUS
 62
   249
 10
183.770128
 20
217.252437
 30
0.0
 40
2.5
  1
I
 11
183.770128
 21
216.419104
 31
0.0
 73
     1
  0
LINE
  8
0
  6
CONTINUOUS
 62
   249
 10
188.906117
 20
218.455041
 30
0.0
 11
186.560351
 21
217.265121
 31
0.0
  0
LINE
  8
0
  6
CONTINUOUS
 62
   249
 10
186.560351
 20
219.790394
 30
0.0
 11
188.906117
 21
218.455041
 31
0.0
  0
LINE
  8
0
  6
CONTINUOUS
 62
   249
 10
180.0
 20
227.5
 30
0.0
 11
210.450615
 21
227.5
 31
0.0
  0
LINE
  8
0
  6
CONTINUOUS
 62
   249
 10
186.560351
 20
225.779314
 30
0.0
 11
188.906117
 21
224.44396
 31
0.0
  0
LINE
  8
0
  6
CONTINUOUS
 62
   249
 10
188.906117
 20
224.44396
 30
0.0
 11
186.560351
 21
223.254041
 31
0.0
  0
TEXT
  8
0
  6
CONTINUOUS
 62
   249
 10
183.770128
 20
223.241357
 30
0.0
 40
2.5
  1
I
 11
183.770128
 21
222.408023
 31
0.0
 73
     1
  0
TEXT
  8
0
  6
CONTINUOUS
 62
   249
 10
205.0
 20
222.5
 30
0.0
 40
2.5
  1
U1
  7
MONOTXT
  0
LINE
  8
0
  6
CONTINUOUS
 62
   249
 10
208.262126
 20
209.090072
 30
0.0
 11
210.079543
 21
208.055487
 31
0.0
  0
LINE
  8
0
  6
CONTINUOUS
 62
   249
 10
210.079543
 20
208.055487
 30
0.0
 11
208.262126
 21
207.133579
 31
0.0
  0
LINE
  8
0
  6
CONTINUOUS
 62
   249
 10
52.798812
 20
227.5
 30
0.0
 11
47.5
 21
227.5
 31
0.0
  0
LINE
  8
0
  6
CONTINUOUS
 62
   249
 10
52.798812
 20
232.5
 30
0.0
 11
40.0
 21
232.5
 31
0.0
  0
LINE
  8
0
 62
   249
 10
52.798812
 20
234.089925
 30
0.0
 11
52.798812
 21
225.9
 31
0.0
  0
LINE
  8
0
 62
   249
 10
57.004853
 20
234.09384
 30
0.0
 11
55.09105
 21
231.815018
 31
0.0
  0
LINE
  8
0
 62
   249
 10
58.496971
 20
234.09384
 30
0.0
 11
56.642636
 21
231.815018
 31
0.0
  0
LINE
  8
0
 62
   249
 10
60.221556
 20
234.089925
 30
0.0
 11
52.798812
 21
234.089925
 31
0.0
  0
LINE
  8
0
 62
   249
 10
60.221556
 20
225.9
 30
0.0
 11
60.221556
 21
234.089925
 31
0.0
  0
LINE
  8
0
  6
CONTINUOUS
 62
   249
 10
60.221556
 20
230.0
 30
0.0
 11
65.0
 21
230.0
 31
0.0
  0
LINE
  8
0
  6
CONTINUOUS
 62
   249
 10
60.221556
 20
222.5
 30
0.0
 11
167.5
 21
222.5
 31
0.0
  0
LINE
  8
0
 62
   249
 10
60.221556
 20
218.704212
 30
0.0
 11
60.221556
 21
226.589925
 31
0.0
  0
LINE
  8
0
 62
   249
 10
60.221556
 20
226.204212
 30
0.0
 11
52.798812
 21
226.204212
 31
0.0
  0
LINE
  8
0
 62
   249
 10
58.496971
 20
226.208127
 30
0.0
 11
56.642636
 21
223.929305
 31
0.0
  0
LINE
  8
0
 62
   249
 10
57.004853
 20
226.208127
 30
0.0
 11
55.09105
 21
223.929305
 31
0.0
  0
LINE
  8
0
 62
   249
 10
52.798812
 20
226.589925
 30
0.0
 11
52.798812
 21
218.704212
 31
0.0
  0
LINE
  8
0
  6
CONTINUOUS
 62
   249
 10
52.798812
 20
225.0
 30
0.0
 11
40.0
 21
225.0
 31
0.0
  0
LINE
  8
0
  6
CONTINUOUS
 62
   249
 10
52.798812
 20
220.0
 30
0.0
 11
47.5
 21
220.0
 31
0.0
  0
LINE
  8
0
 62
   249
 10
60.221556
 20
218.704212
 30
0.0
 11
52.798812
 21
218.704212
 31
0.0
  0
LINE
  8
0
 62
   249
 10
245.0
 20
150.0
 30
0.0
 11
243.480133
 21
150.0
 31
0.0
  0
ARC
  8
0
 62
   249
 10
245.065849
 20
151.25
 30
0.0
 40
1.251733
 50
266.984476
 51
93.015524
  0
LINE
  8
0
 62
   249
 10
245.0
 20
152.5
 30
0.0
 11
243.480133
 21
152.5
 31
0.0
  0
LINE
  8
0
 62
   249
 10
245.0
 20
155.0
 30
0.0
 11
243.480133
 21
155.0
 31
0.0
  0
ARC
  8
0
 62
   249
 10
245.065849
 20
153.75
 30
0.0
 40
1.251733
 50
266.984476
 51
93.015524
  0
LINE
  8
0
 62
   249
 10
250.0
 20
147.5
 30
0.0
 11
252.5
 21
147.5
 31
0.0
  0
ARC
  8
0
 62
   249
 10
249.934151
 20
148.75
 30
0.0
 40
1.251733
 50
86.984476
 51
273.015524
  0
ARC
  8
0
 62
   249
 10
249.934151
 20
151.25
 30
0.0
 40
1.251733
 50
86.984476
 51
273.015524
  0
LINE
  8
0
 62
   249
 10
250.0
 20
150.0
 30
0.0
 11
252.5
 21
150.0
 31
0.0
  0
LINE
  8
0
 62
   249
 10
250.0
 20
152.5
 30
0.0
 11
252.5
 21
152.5
 31
0.0
  0
LINE
  8
0
 62
   249
 10
252.5
 20
152.5
 30
0.0
 11
255.0
 21
152.5
 31
0.0
  0
LINE
  8
0
 62
   249
 10
252.5
 20
147.5
 30
0.0
 11
260.0
 21
147.5
 31
0.0
  0
LINE
  8
0
 62
   249
 10
252.5
 20
152.5
 30
0.0
 11
260.0
 21
152.5
 31
0.0
  0
LINE
  8
0
 62
   249
 10
252.5
 20
157.5
 30
0.0
 11
260.0
 21
157.5
 31
0.0
  0
LINE
  8
0
 62
   249
 10
250.0
 20
157.5
 30
0.0
 11
252.5
 21
157.5
 31
0.0
  0
LINE
  8
0
 62
   249
 10
250.0
 20
155.0
 30
0.0
 11
252.5
 21
155.0
 31
0.0
  0
ARC
  8
0
 62
   249
 10
249.934151
 20
156.25
 30
0.0
 40
1.251733
 50
86.984476
 51
273.015524
  0
ARC
  8
0
 62
   249
 10
249.934151
 20
153.75
 30
0.0
 40
1.251733
 50
86.984476
 51
273.015524
  0
LINE
  8
0
 62
   249
 10
250.0
 20
152.5
 30
0.0
 11
252.5
 21
152.5
 31
0.0
  0
LINE
  8
0
 62
   249
 10
245.0
 20
190.0
 30
0.0
 11
243.480133
 21
190.0
 31
0.0
  0
ARC
  8
0
 62
   249
 10
245.065849
 20
191.25
 30
0.0
 40
1.251733
 50
266.984476
 51
93.015524
  0
LINE
  8
0
 62
   249
 10
245.0
 20
192.5
 30
0.0
 11
243.480133
 21
192.5
 31
0.0
  0
LINE
  8
0
 62
   249
 10
245.0
 20
195.0
 30
0.0
 11
243.480133
 21
195.0
 31
0.0
  0
ARC
  8
0
 62
   249
 10
245.065849
 20
193.75
 30
0.0
 40
1.251733
 50
266.984476
 51
93.015524
  0
LINE
  8
0
 62
   249
 10
250.0
 20
187.5
 30
0.0
 11
252.5
 21
187.5
 31
0.0
  0
ARC
  8
0
 62
   249
 10
249.934151
 20
188.75
 30
0.0
 40
1.251733
 50
86.984476
 51
273.015524
  0
ARC
  8
0
 62
   249
 10
249.934151
 20
191.25
 30
0.0
 40
1.251733
 50
86.984476
 51
273.015524
  0
LINE
  8
0
 62
   249
 10
250.0
 20
190.0
 30
0.0
 11
252.5
 21
190.0
 31
0.0
  0
LINE
  8
0
 62
   249
 10
250.0
 20
192.5
 30
0.0
 11
252.5
 21
192.5
 31
0.0
  0
LINE
  8
0
 62
   249
 10
252.5
 20
192.5
 30
0.0
 11
255.0
 21
192.5
 31
0.0
  0
LINE
  8
0
 62
   249
 10
252.5
 20
187.5
 30
0.0
 11
260.0
 21
187.5
 31
0.0
  0
LINE
  8
0
 62
   249
 10
252.5
 20
192.5
 30
0.0
 11
260.0
 21
192.5
 31
0.0
  0
LINE
  8
0
 62
   249
 10
252.5
 20
197.5
 30
0.0
 11
260.0
 21
197.5
 31
0.0
  0
LINE
  8
0
 62
   249
 10
250.0
 20
197.5
 30
0.0
 11
252.5
 21
197.5
 31
0.0
  0
LINE
  8
0
 62
   249
 10
250.0
 20
195.0
 30
0.0
 11
252.5
 21
195.0
 31
0.0
  0
ARC
  8
0
 62
   249
 10
249.934151
 20
196.25
 30
0.0
 40
1.251733
 50
86.984476
 51
273.015524
  0
ARC
  8
0
 62
   249
 10
249.934151
 20
193.75
 30
0.0
 40
1.251733
 50
86.984476
 51
273.015524
  0
LINE
  8
0
 62
   249
 10
250.0
 20
192.5
 30
0.0
 11
252.5
 21
192.5
 31
0.0
  0
LINE
  8
0
 62
   249
 10
245.0
 20
210.0
 30
0.0
 11
243.480133
 21
210.0
 31
0.0
  0
ARC
  8
0
 62
   249
 10
245.065849
 20
211.25
 30
0.0
 40
1.251733
 50
266.984476
 51
93.015524
  0
LINE
  8
0
 62
   249
 10
245.0
 20
212.5
 30
0.0
 11
243.480133
 21
212.5
 31
0.0
  0
LINE
  8
0
 62
   249
 10
245.0
 20
215.0
 30
0.0
 11
243.480133
 21
215.0
 31
0.0
  0
ARC
  8
0
 62
   249
 10
245.065849
 20
213.75
 30
0.0
 40
1.251733
 50
266.984476
 51
93.015524
  0
LINE
  8
0
 62
   249
 10
250.0
 20
207.5
 30
0.0
 11
252.5
 21
207.5
 31
0.0
  0
ARC
  8
0
 62
   249
 10
249.934151
 20
208.75
 30
0.0
 40
1.251733
 50
86.984476
 51
273.015524
  0
ARC
  8
0
 62
   249
 10
249.934151
 20
211.25
 30
0.0
 40
1.251733
 50
86.984476
 51
273.015524
  0
LINE
  8
0
 62
   249
 10
250.0
 20
210.0
 30
0.0
 11
252.5
 21
210.0
 31
0.0
  0
LINE
  8
0
 62
   249
 10
250.0
 20
212.5
 30
0.0
 11
252.5
 21
212.5
 31
0.0
  0
LINE
  8
0
 62
   249
 10
252.5
 20
212.5
 30
0.0
 11
255.0
 21
212.5
 31
0.0
  0
LINE
  8
0
 62
   249
 10
252.5
 20
207.5
 30
0.0
 11
260.0
 21
207.5
 31
0.0
  0
LINE
  8
0
 62
   249
 10
252.5
 20
212.5
 30
0.0
 11
260.0
 21
212.5
 31
0.0
  0
LINE
  8
0
 62
   249
 10
252.5
 20
217.5
 30
0.0
 11
260.0
 21
217.5
 31
0.0
  0
LINE
  8
0
 62
   249
 10
250.0
 20
217.5
 30
0.0
 11
252.5
 21
217.5
 31
0.0
  0
LINE
  8
0
 62
   249
 10
250.0
 20
215.0
 30
0.0
 11
252.5
 21
215.0
 31
0.0
  0
ARC
  8
0
 62
   249
 10
249.934151
 20
216.25
 30
0.0
 40
1.251733
 50
86.984476
 51
273.015524
  0
ARC
  8
0
 62
   249
 10
249.934151
 20
213.75
 30
0.0
 40
1.251733
 50
86.984476
 51
273.015524
  0
LINE
  8
0
 62
   249
 10
250.0
 20
212.5
 30
0.0
 11
252.5
 21
212.5
 31
0.0
  0
LINE
  8
0
 62
   249
 10
245.0
 20
230.0
 30
0.0
 11
243.480133
 21
230.0
 31
0.0
  0
ARC
  8
0
 62
   249
 10
245.065849
 20
231.25
 30
0.0
 40
1.251733
 50
266.984476
 51
93.015524
  0
LINE
  8
0
 62
   249
 10
245.0
 20
232.5
 30
0.0
 11
243.480133
 21
232.5
 31
0.0
  0
LINE
  8
0
 62
   249
 10
245.0
 20
235.0
 30
0.0
 11
243.480133
 21
235.0
 31
0.0
  0
ARC
  8
0
 62
   249
 10
245.065849
 20
233.75
 30
0.0
 40
1.251733
 50
266.984476
 51
93.015524
  0
LINE
  8
0
 62
   249
 10
250.0
 20
227.5
 30
0.0
 11
252.5
 21
227.5
 31
0.0
  0
ARC
  8
0
 62
   249
 10
249.934151
 20
228.75
 30
0.0
 40
1.251733
 50
86.984476
 51
273.015524
  0
ARC
  8
0
 62
   249
 10
249.934151
 20
231.25
 30
0.0
 40
1.251733
 50
86.984476
 51
273.015524
  0
LINE
  8
0
 62
   249
 10
250.0
 20
230.0
 30
0.0
 11
252.5
 21
230.0
 31
0.0
  0
LINE
  8
0
 62
   249
 10
250.0
 20
232.5
 30
0.0
 11
252.5
 21
232.5
 31
0.0
  0
LINE
  8
0
 62
   249
 10
252.5
 20
232.5
 30
0.0
 11
255.0
 21
232.5
 31
0.0
  0
LINE
  8
0
 62
   249
 10
252.5
 20
227.5
 30
0.0
 11
260.0
 21
227.5
 31
0.0
  0
LINE
  8
0
 62
   249
 10
252.5
 20
232.5
 30
0.0
 11
255.0
 21
232.5
 31
0.0
  0
LINE
  8
0
 62
   249
 10
252.5
 20
237.5
 30
0.0
 11
255.0
 21
237.5
 31
0.0
  0
LINE
  8
0
 62
   249
 10
250.0
 20
237.5
 30
0.0
 11
260.0
 21
237.5
 31
0.0
  0
LINE
  8
0
 62
   249
 10
250.0
 20
235.0
 30
0.0
 11
252.5
 21
235.0
 31
0.0
  0
ARC
  8
0
 62
   249
 10
249.934151
 20
236.25
 30
0.0
 40
1.251733
 50
86.984476
 51
273.015524
  0
ARC
  8
0
 62
   249
 10
249.934151
 20
233.75
 30
0.0
 40
1.251733
 50
86.984476
 51
273.015524
  0
LINE
  8
0
 62
   249
 10
250.0
 20
232.5
 30
0.0
 11
260.0
 21
232.5
 31
0.0
  0
TEXT
  8
0
  6
CONTINUOUS
 62
   249
 10
256.332442
 20
234.217174
 30
0.0
 40
2.0
  1
3
  7
ROMANS
  0
TEXT
  8
0
  6
CONTINUOUS
 62
   249
 10
256.332442
 20
229.252826
 30
0.0
 40
2.0
  1
2
  7
ROMANS
  0
TEXT
  8
0
  6
CONTINUOUS
 62
   249
 10
256.674968
 20
224.299498
 30
0.0
 40
2.0
  1
1
  7
ROMANS
  0
TEXT
  8
0
  6
CONTINUOUS
 62
   249
 10
256.500179
 20
194.160098
 30
0.0
 40
2.0
  1
9
  7
ROMANS
  0
TEXT
  8
0
  6
CONTINUOUS
 62
   249
 10
256.500179
 20
189.559422
 30
0.0
 40
2.0
  1
8
  7
ROMANS
  0
TEXT
  8
0
  6
CONTINUOUS
 62
   249
 10
256.500179
 20
184.055075
 30
0.0
 40
2.0
  1
7
  7
ROMANS
  0
LINE
  8
0
  6
HIDDEN
 62
   249
 10
260.0
 20
242.5
 30
0.0
 11
255.0
 21
242.5
 31
0.0
  0
LINE
  8
0
  6
HIDDEN
 62
   249
 10
255.0
 20
242.5
 30
0.0
 11
255.0
 21
142.5
 31
0.0
  0
LINE
  8
0
  6
HIDDEN
 62
   249
 10
255.0
 20
72.5
 30
0.0
 11
260.0
 21
72.5
 31
0.0
  0
TEXT
  8
0
  6
HIDDEN
 62
   249
 10
255.929881
 20
238.686149
 30
0.0
 40
2.0
  1
X0
  7
ROMANS
  0
LINE
  8
0
  6
CONTINUOUS
 62
   249
 10
240.0
 20
162.5
 30
0.0
 11
232.5
 21
162.5
 31
0.0
  0
LINE
  8
0
  6
DASHED
 62
   249
 10
40.0
 20
232.5
 30
0.0
 11
32.5
 21
232.5
 31
0.0
  0
LINE
  8
0
  6
DASHED
 62
   249
 10
40.0
 20
225.0
 30
0.0
 11
32.5
 21
225.0
 31
0.0
  0
LINE
  8
0
  6
DASHED
 62
   249
 10
40.0
 20
220.0
 30
0.0
 11
32.5
 21
220.0
 31
0.0
  0
LINE
  8
0
  6
CONTINUOUS
 62
   249
 10
22.5
 20
219.999655
 30
0.0
 11
23.5
 21
218.999655
 31
0.0
  0
LINE
  8
0
  6
CONTINUOUS
 62
   249
 10
22.5
 20
232.5
 30
0.0
 11
23.5
 21
233.5
 31
0.0
  0
LINE
  8
0
  6
CONTINUOUS
 62
   249
 10
22.5
 20
232.5
 30
0.0
 11
22.5
 21
219.999655
 31
0.0
  0
LINE
  8
0
  6
DASHED
 62
   249
 10
40.0
 20
120.0
 30
0.0
 11
27.5
 21
120.0
 31
0.0
  0
LINE
  8
0
  6
DASHED
 62
   249
 10
40.0
 20
110.0
 30
0.0
 11
27.5
 21
110.0
 31
0.0
  0
LINE
  8
0
  6
DASHED
 62
   249
 10
40.0
 20
105.0
 30
0.0
 11
27.5
 21
105.0
 31
0.0
  0
LINE
  8
0
  6
DASHED
 62
   249
 10
40.0
 20
95.0
 30
0.0
 11
27.5
 21
95.0
 31
0.0
  0
LINE
  8
0
  6
DASHED
 62
   249
 10
40.0
 20
90.0
 30
0.0
 11
27.5
 21
90.0
 31
0.0
  0
LINE
  8
0
  6
CONTINUOUS
 62
   249
 10
25.0
 20
105.0
 30
0.0
 11
26.0
 21
106.0
 31
0.0
  0
LINE
  8
0
  6
CONTINUOUS
 62
   249
 10
25.0
 20
79.999655
 30
0.0
 11
26.0
 21
78.999655
 31
0.0
  0
LINE
  8
0
  6
CONTINUOUS
 62
   249
 10
25.0
 20
105.0
 30
0.0
 11
25.0
 21
79.999655
 31
0.0
  0
LINE
  8
0
  6
CONTINUOUS
 62
   249
 10
355.727984
 20
155.0
 30
0.0
 11
355.727984
 21
247.5
 31
0.0
  0
LINE
  8
0
  6
CONTINUOUS
 62
   249
 10
375.727984
 20
187.5
 30
0.0
 11
355.727984
 21
187.5
 31
0.0
  0
LINE
  8
0
  6
CONTINUOUS
 62
   249
 10
375.727984
 20
247.5
 30
0.0
 11
375.727984
 21
155.0
 31
0.0
  0
LINE
  8
0
  6
CONTINUOUS
 62
   249
 10
355.727984
 20
247.5
 30
0.0
 11
375.727984
 21
247.5
 31
0.0
  0
LINE
  8
0
  6
CONTINUOUS
 62
   249
 10
355.727984
 20
215.0
 30
0.0
 11
375.727984
 21
215.0
 31
0.0
  0
LINE
  8
0
  6
CONTINUOUS
 62
   249
 10
361.32826
 20
225.552173
 30
0.0
 11
361.32826
 21
223.764041
 31
0.0
  0
LINE
  8
0
  6
CONTINUOUS
 62
   249
 10
361.359291
 20
224.706894
 30
0.0
 11
369.147496
 21
224.706894
 31
0.0
  0
LINE
  8
0
  6
CONTINUOUS
 62
   249
 10
363.743436
 20
223.539291
 30
0.0
 11
366.619546
 21
226.36785
 31
0.0
  0
LINE
  8
0
  6
CONTINUOUS
 62
   249
 10
366.188843
 20
226.905057
 30
0.0
 11
367.08952
 21
225.781308
 31
0.0
  0
LINE
  8
0
  6
CONTINUOUS
 62
   249
 10
369.142955
 20
225.552173
 30
0.0
 11
369.142955
 21
223.764041
 31
0.0
  0
LINE
  8
0
  6
CONTINUOUS
 62
   249
 10
371.05558
 20
232.00956
 30
0.0
 11
368.709814
 21
230.819641
 31
0.0
  0
LINE
  8
0
  6
CONTINUOUS
 62
   249
 10
368.709814
 20
233.344914
 30
0.0
 11
371.05558
 21
232.00956
 31
0.0
  0
LINE
  8
0
  6
CONTINUOUS
 62
   249
 10
366.821088
 20
233.344914
 30
0.0
 11
369.166854
 21
232.00956
 31
0.0
  0
LINE
  8
0
  6
CONTINUOUS
 62
   249
 10
369.166854
 20
232.00956
 30
0.0
 11
366.821088
 21
230.819641
 31
0.0
  0
LINE
  8
0
  6
CONTINUOUS
 62
   249
 10
369.142955
 20
237.706143
 30
0.0
 11
369.142955
 21
235.918012
 31
0.0
  0
LINE
  8
0
  6
CONTINUOUS
 62
   249
 10
363.743436
 20
235.693262
 30
0.0
 11
366.619546
 21
238.521821
 31
0.0
  0
ARC
  8
0
  6
HIDDEN
 62
   249
 10
368.054159
 20
240.789409
 30
0.0
 40
4.998196
 50
206.402922
 51
282.21115
  0
LINE
  8
0
  6
CONTINUOUS
 62
   249
 10
366.188843
 20
239.059027
 30
0.0
 11
367.08952
 21
237.935278
 31
0.0
  0
LINE
  8
0
  6
CONTINUOUS
 62
   249
 10
361.359291
 20
236.860865
 30
0.0
 11
369.147496
 21
236.860865
 31
0.0
  0
LINE
  8
0
  6
CONTINUOUS
 62
   249
 10
361.32826
 20
237.706143
 30
0.0
 11
361.32826
 21
235.918012
 31
0.0
  0
LINE
  8
0
  6
CONTINUOUS
 62
   249
 10
368.924329
 20
244.4814
 30
0.0
 11
366.578563
 21
243.291481
 31
0.0
  0
LINE
  8
0
  6
CONTINUOUS
 62
   249
 10
366.578563
 20
245.816754
 30
0.0
 11
368.924329
 21
244.4814
 31
0.0
  0
TEXT
  8
0
  6
CONTINUOUS
 62
   249
 10
361.074498
 20
83.820117
 30
0.0
 40
2.0
  1
In=1A
  7
ROMANS
  0
TEXT
  8
0
  6
CONTINUOUS
 62
   249
 10
347.801776
 20
69.637557
 30
0.0
 40
2.0
  1
L3
  7
ROMANS
  0
TEXT
  8
0
  6
CONTINUOUS
 62
   249
 10
362.23092
 20
69.565595
 30
0.0
 40
2.0
  1
7-9
  7
ROMANS
  0
TEXT
  8
0
  6
CONTINUOUS
 62
   249
 10
377.370919
 20
69.565595
 30
0.0
 40
2.0
  1
7-8
  7
ROMANS
  0
TEXT
  8
0
  6
CONTINUOUS
 62
   249
 10
203.537884
 20
180.244195
 30
0.0
 40
2.5
  1
U
  7
GREEKS
  0
TEXT
  8
0
  6
CONTINUOUS
 62
   249
 10
255.402713
 20
154.794439
 30
0.0
 40
2.0
  1
30
  7
ROMANS
  0
TEXT
  8
0
  6
CONTINUOUS
 62
   249
 10
255.402713
 20
149.745957
 30
0.0
 40
2.0
  1
29
  7
ROMANS
  0
TEXT
  8
0
  6
CONTINUOUS
 62
   249
 10
255.402713
 20
144.697475
 30
0.0
 40
2.0
  1
28
  7
ROMANS
  0
LINE
  8
0
 62
   249
 10
358.50882
 20
83.171798
 30
0.0
 11
388.50882
 21
83.171798
 31
0.0
  0
TEXT
  8
0
  6
DASHED
 62
   249
 10
376.077552
 20
83.820117
 30
0.0
 40
2.0
  1
In=5A
  7
ROMANS
  0
TEXT
  8
0
  6
DASHED
 62
   249
 10
347.801776
 20
77.869116
 30
0.0
 40
2.0
  1
L1            
  7
ROMANS
  0
TEXT
  8
0
  6
DASHED
 62
   249
 10
362.168513
 20
77.869116
 30
0.0
 40
2.0
  1
1-3
  7
ROMANS
  0
TEXT
  8
0
  6
DASHED
 62
   249
 10
377.323728
 20
77.869116
 30
0.0
 40
2.0
  1
1-2
  7
ROMANS
  0
TEXT
  8
0
  6
CONTINUOUS
 62
   249
 10
359.206231
 20
59.594715
 30
0.0
 40
2.0
  1
Un=100V
  7
ROMANS
  0
TEXT
  8
0
  6
CONTINUOUS
 62
   249
 10
374.156524
 20
59.594715
 30
0.0
 40
2.0
  1
Un=110V
  7
ROMANS
  0
TEXT
  8
0
  6
CONTINUOUS
 62
   249
 10
360.774264
 20
54.50507
 30
0.0
 40
2.0
  1
28-29
  7
ROMANS
  0
TEXT
  8
0
  6
CONTINUOUS
 62
   249
 10
376.196031
 20
54.50507
 30
0.0
 40
2.0
  1
28-30
  7
ROMANS
  0
LINE
  8
0
  6
CONTINUOUS
 62
   249
 10
47.5
 20
220.0
 30
0.0
 11
40.0
 21
220.0
 31
0.0
  0
LINE
  8
0
  6
CONTINUOUS
 62
   249
 10
47.5
 20
227.5
 30
0.0
 11
47.5
 21
220.0
 31
0.0
  0
LINE
  8
0
  6
CONTINUOUS
 62
   249
 10
180.0
 20
190.0
 30
0.0
 11
210.450615
 21
190.0
 31
0.0
  0
LINE
  8
0
  6
CONTINUOUS
 62
   249
 10
189.900936
 20
179.960055
 30
0.0
 11
192.400936
 21
179.960055
 31
0.0
  0
LINE
  8
0
  6
CONTINUOUS
 62
   249
 10
189.900936
 20
179.960055
 30
0.0
 11
187.676489
 21
179.399413
 31
0.0
  0
LINE
  8
0
  6
CONTINUOUS
 62
   249
 10
184.900936
 20
179.960055
 30
0.0
 11
187.400936
 21
179.960055
 31
0.0
  0
TEXT
  8
0
  6
HIDDEN
 62
   249
 10
181.080478
 20
179.226807
 30
0.0
 40
1.5
  1
EN
  0
TEXT
  8
0
  6
HIDDEN
 62
   249
 10
181.080478
 20
182.167847
 30
0.0
 40
1.5
  1
EN
  0
LINE
  8
0
  6
CONTINUOUS
 62
   249
 10
184.900936
 20
182.901095
 30
0.0
 11
187.400936
 21
182.901095
 31
0.0
  0
LINE
  8
0
  6
CONTINUOUS
 62
   249
 10
189.900936
 20
182.901095
 30
0.0
 11
187.676489
 21
182.340453
 31
0.0
  0
LINE
  8
0
  6
CONTINUOUS
 62
   249
 10
189.900936
 20
182.901095
 30
0.0
 11
192.400936
 21
182.901095
 31
0.0
  0
LINE
  8
0
  6
CONTINUOUS
 62
   249
 10
178.01273
 20
179.971652
 30
0.0
 11
170.0
 21
179.971652
 31
0.0
  0
LINE
  8
0
  6
CONTINUOUS
 62
   249
 10
178.01273
 20
183.000813
 30
0.0
 11
167.5
 21
183.000813
 31
0.0
  0
CIRCLE
  8
0
  6
CONTINUOUS
 62
   249
 10
179.012659
 20
182.994509
 30
0.0
 40
1.0
  0
CIRCLE
  8
0
  6
CONTINUOUS
 62
   249
 10
179.012659
 20
179.965349
 30
0.0
 40
1.0
  0
LINE
  8
0
  6
CONTINUOUS
 62
   249
 10
191.431134
 20
177.590902
 30
0.0
 11
191.431134
 21
175.80277
 31
0.0
  0
LINE
  8
0
  6
CONTINUOUS
 62
   249
 10
191.462165
 20
176.745623
 30
0.0
 11
199.25037
 21
176.745623
 31
0.0
  0
LINE
  8
0
  6
CONTINUOUS
 62
   249
 10
196.291717
 20
178.943786
 30
0.0
 11
197.192394
 21
177.820037
 31
0.0
  0
LINE
  8
0
  6
CONTINUOUS
 62
   249
 10
193.84631
 20
175.578021
 30
0.0
 11
196.72242
 21
178.406579
 31
0.0
  0
LINE
  8
0
  6
CONTINUOUS
 62
   249
 10
199.245829
 20
177.590902
 30
0.0
 11
199.245829
 21
175.80277
 31
0.0
  0
LINE
  8
0
  6
CONTINUOUS
 62
   249
 10
186.955194
 20
173.561795
 30
0.0
 11
189.300959
 21
172.226442
 31
0.0
  0
LINE
  8
0
  6
CONTINUOUS
 62
   249
 10
189.300959
 20
172.226442
 30
0.0
 11
186.955194
 21
171.036523
 31
0.0
  0
LINE
  8
0
  6
CONTINUOUS
 62
   249
 10
188.673715
 20
173.561795
 30
0.0
 11
191.019481
 21
172.226442
 31
0.0
  0
LINE
  8
0
  6
CONTINUOUS
 62
   249
 10
191.019481
 20
172.226442
 30
0.0
 11
188.673715
 21
171.036523
 31
0.0
  0
LINE
  8
0
  6
CONTINUOUS
 62
   249
 10
189.900936
 20
167.901095
 30
0.0
 11
192.400936
 21
167.901095
 31
0.0
  0
LINE
  8
0
  6
CONTINUOUS
 62
   249
 10
189.900936
 20
167.901095
 30
0.0
 11
187.676489
 21
167.340453
 31
0.0
  0
LINE
  8
0
  6
CONTINUOUS
 62
   249
 10
184.900936
 20
167.901095
 30
0.0
 11
187.400936
 21
167.901095
 31
0.0
  0
TEXT
  8
0
  6
HIDDEN
 62
   249
 10
181.080478
 20
167.167847
 30
0.0
 40
1.5
  1
EN
  0
TEXT
  8
0
  6
HIDDEN
 62
   249
 10
181.080478
 20
164.226807
 30
0.0
 40
1.5
  1
EN
  0
LINE
  8
0
  6
CONTINUOUS
 62
   249
 10
184.900936
 20
164.960055
 30
0.0
 11
187.400936
 21
164.960055
 31
0.0
  0
LINE
  8
0
  6
CONTINUOUS
 62
   249
 10
189.900936
 20
164.960055
 30
0.0
 11
187.676489
 21
164.399413
 31
0.0
  0
LINE
  8
0
  6
CONTINUOUS
 62
   249
 10
189.900936
 20
164.960055
 30
0.0
 11
192.400936
 21
164.960055
 31
0.0
  0
LINE
  8
0
  6
CONTINUOUS
 62
   249
 10
178.01273
 20
168.000813
 30
0.0
 11
167.5
 21
168.000813
 31
0.0
  0
CIRCLE
  8
0
  6
CONTINUOUS
 62
   249
 10
179.012659
 20
167.994509
 30
0.0
 40
1.0
  0
LINE
  8
0
  6
CONTINUOUS
 62
   249
 10
199.245829
 20
162.489158
 30
0.0
 11
199.245829
 21
160.701026
 31
0.0
  0
LINE
  8
0
  6
CONTINUOUS
 62
   249
 10
193.84631
 20
160.476276
 30
0.0
 11
196.72242
 21
163.304835
 31
0.0
  0
LINE
  8
0
  6
CONTINUOUS
 62
   249
 10
196.291717
 20
163.842042
 30
0.0
 11
197.192394
 21
162.718293
 31
0.0
  0
LINE
  8
0
  6
CONTINUOUS
 62
   249
 10
191.462165
 20
161.643879
 30
0.0
 11
199.25037
 21
161.643879
 31
0.0
  0
LINE
  8
0
  6
CONTINUOUS
 62
   249
 10
191.431134
 20
162.489158
 30
0.0
 11
191.431134
 21
160.701026
 31
0.0
  0
TEXT
  8
0
  6
CONTINUOUS
 62
   249
 10
205.0
 20
185.775586
 30
0.0
 40
2.5
  1
U2
  7
MONOTXT
  0
TEXT
  8
0
  6
CONTINUOUS
 62
   249
 10
205.001359
 20
155.658649
 30
0.0
 40
2.5
  1
U3
  7
GREEKS
  0
ARC
  8
0
 62
   249
 10
249.934151
 20
123.75
 30
0.0
 40
1.251733
 50
86.984476
 51
273.015524
  0
ARC
  8
0
 62
   249
 10
249.934151
 20
126.25
 30
0.0
 40
1.251733
 50
86.984476
 51
273.015524
  0
LINE
  8
0
 62
   249
 10
250.0
 20
125.0
 30
0.0
 11
252.5
 21
125.0
 31
0.0
  0
LINE
  8
0
 62
   249
 10
252.5
 20
127.5
 30
0.0
 11
255.0
 21
127.5
 31
0.0
  0
LINE
  8
0
 62
   249
 10
252.5
 20
122.5
 30
0.0
 11
255.0
 21
122.5
 31
0.0
  0
LINE
  8
0
 62
   249
 10
252.5
 20
122.5
 30
0.0
 11
255.0
 21
122.5
 31
0.0
  0
LINE
  8
0
 62
   249
 10
250.0
 20
122.5
 30
0.0
 11
260.0
 21
122.5
 31
0.0
  0
LINE
  8
0
 62
   249
 10
250.0
 20
120.0
 30
0.0
 11
252.5
 21
120.0
 31
0.0
  0
ARC
  8
0
 62
   249
 10
249.934151
 20
121.25
 30
0.0
 40
1.251733
 50
86.984476
 51
273.015524
  0
ARC
  8
0
 62
   249
 10
249.934151
 20
118.75
 30
0.0
 40
1.251733
 50
86.984476
 51
273.015524
  0
LINE
  8
0
 62
   249
 10
250.0
 20
117.5
 30
0.0
 11
252.5
 21
117.5
 31
0.0
  0
ARC
  8
0
 62
   249
 10
245.065849
 20
123.75
 30
0.0
 40
1.251733
 50
266.984476
 51
93.015524
  0
LINE
  8
0
 62
   249
 10
245.0
 20
125.0
 30
0.0
 11
243.480133
 21
125.0
 31
0.0
  0
LINE
  8
0
 62
   249
 10
245.0
 20
122.5
 30
0.0
 11
243.480133
 21
122.5
 31
0.0
  0
ARC
  8
0
 62
   249
 10
245.065849
 20
121.25
 30
0.0
 40
1.251733
 50
266.984476
 51
93.015524
  0
LINE
  8
0
 62
   249
 10
245.0
 20
120.0
 30
0.0
 11
243.480133
 21
120.0
 31
0.0
  0
LINE
  8
0
 62
   249
 10
250.0
 20
102.5
 30
0.0
 11
252.5
 21
102.5
 31
0.0
  0
ARC
  8
0
 62
   249
 10
249.934151
 20
103.75
 30
0.0
 40
1.251733
 50
86.984476
 51
273.015524
  0
ARC
  8
0
 62
   249
 10
249.934151
 20
106.25
 30
0.0
 40
1.251733
 50
86.984476
 51
273.015524
  0
LINE
  8
0
 62
   249
 10
250.0
 20
105.0
 30
0.0
 11
252.5
 21
105.0
 31
0.0
  0
LINE
  8
0
 62
   249
 10
252.5
 20
102.5
 30
0.0
 11
255.0
 21
102.5
 31
0.0
  0
LINE
  8
0
 62
   249
 10
250.0
 20
102.5
 30
0.0
 11
260.0
 21
102.5
 31
0.0
  0
LINE
  8
0
 62
   249
 10
250.0
 20
100.0
 30
0.0
 11
252.5
 21
100.0
 31
0.0
  0
ARC
  8
0
 62
   249
 10
249.934151
 20
101.25
 30
0.0
 40
1.251733
 50
86.984476
 51
273.015524
  0
ARC
  8
0
 62
   249
 10
249.934151
 20
98.75
 30
0.0
 40
1.251733
 50
86.984476
 51
273.015524
  0
LINE
  8
0
 62
   249
 10
250.0
 20
97.5
 30
0.0
 11
252.5
 21
97.5
 31
0.0
  0
ARC
  8
0
 62
   249
 10
245.065849
 20
103.75
 30
0.0
 40
1.251733
 50
266.984476
 51
93.015524
  0
LINE
  8
0
 62
   249
 10
245.0
 20
105.0
 30
0.0
 11
243.480133
 21
105.0
 31
0.0
  0
LINE
  8
0
 62
   249
 10
245.0
 20
102.5
 30
0.0
 11
243.480133
 21
102.5
 31
0.0
  0
ARC
  8
0
 62
   249
 10
245.065849
 20
101.25
 30
0.0
 40
1.251733
 50
266.984476
 51
93.015524
  0
LINE
  8
0
 62
   249
 10
245.0
 20
100.0
 30
0.0
 11
243.480133
 21
100.0
 31
0.0
  0
LINE
  8
0
 62
   249
 10
250.0
 20
82.5
 30
0.0
 11
252.5
 21
82.5
 31
0.0
  0
ARC
  8
0
 62
   249
 10
249.934151
 20
83.75
 30
0.0
 40
1.251733
 50
86.984476
 51
273.015524
  0
ARC
  8
0
 62
   249
 10
249.934151
 20
86.25
 30
0.0
 40
1.251733
 50
86.984476
 51
273.015524
  0
LINE
  8
0
 62
   249
 10
250.0
 20
85.0
 30
0.0
 11
252.5
 21
85.0
 31
0.0
  0
LINE
  8
0
 62
   249
 10
252.5
 20
82.5
 30
0.0
 11
255.0
 21
82.5
 31
0.0
  0
LINE
  8
0
 62
   249
 10
250.0
 20
82.5
 30
0.0
 11
260.0
 21
82.5
 31
0.0
  0
LINE
  8
0
 62
   249
 10
250.0
 20
80.0
 30
0.0
 11
252.5
 21
80.0
 31
0.0
  0
ARC
  8
0
 62
   249
 10
249.934151
 20
81.25
 30
0.0
 40
1.251733
 50
86.984476
 51
273.015524
  0
ARC
  8
0
 62
   249
 10
249.934151
 20
78.75
 30
0.0
 40
1.251733
 50
86.984476
 51
273.015524
  0
LINE
  8
0
 62
   249
 10
250.0
 20
77.5
 30
0.0
 11
252.5
 21
77.5
 31
0.0
  0
ARC
  8
0
 62
   249
 10
245.065849
 20
83.75
 30
0.0
 40
1.251733
 50
266.984476
 51
93.015524
  0
LINE
  8
0
 62
   249
 10
245.0
 20
85.0
 30
0.0
 11
243.480133
 21
85.0
 31
0.0
  0
LINE
  8
0
 62
   249
 10
245.0
 20
82.5
 30
0.0
 11
243.480133
 21
82.5
 31
0.0
  0
ARC
  8
0
 62
   249
 10
245.065849
 20
81.25
 30
0.0
 40
1.251733
 50
266.984476
 51
93.015524
  0
LINE
  8
0
 62
   249
 10
245.0
 20
80.0
 30
0.0
 11
243.480133
 21
80.0
 31
0.0
  0
LINE
  8
0
 62
   249
 10
250.0
 20
127.5
 30
0.0
 11
260.0
 21
127.5
 31
0.0
  0
LINE
  8
0
 62
   249
 10
252.5
 20
117.5
 30
0.0
 11
260.0
 21
117.5
 31
0.0
  0
LINE
  8
0
 62
   249
 10
250.0
 20
87.5
 30
0.0
 11
260.0
 21
87.5
 31
0.0
  0
LINE
  8
0
 62
   249
 10
252.5
 20
77.5
 30
0.0
 11
260.0
 21
77.5
 31
0.0
  0
LINE
  8
0
 62
   249
 10
252.5
 20
97.5
 30
0.0
 11
260.0
 21
97.5
 31
0.0
  0
LINE
  8
0
 62
   249
 10
250.0
 20
107.5
 30
0.0
 11
260.0
 21
107.5
 31
0.0
  0
TEXT
  8
0
  6
HIDDEN
 62
   249
 10
256.482866
 20
214.558591
 30
0.0
 40
2.0
  1
6
  7
ROMANS
  0
TEXT
  8
0
  6
HIDDEN
 62
   249
 10
256.482866
 20
209.506897
 30
0.0
 40
2.0
  1
5
  7
ROMANS
  0
TEXT
  8
0
  6
HIDDEN
 62
   249
 10
256.482866
 20
204.444189
 30
0.0
 40
2.0
  1
4
  7
ROMANS
  0
TEXT
  8
0
  6
HIDDEN
 62
   249
 10
255.38827
 20
124.62166
 30
0.0
 40
2.0
  1
15
  7
ROMANS
  0
TEXT
  8
0
  6
HIDDEN
 62
   249
 10
255.38827
 20
119.51489
 30
0.0
 40
2.0
  1
14
  7
ROMANS
  0
TEXT
  8
0
  6
HIDDEN
 62
   249
 10
255.38827
 20
114.507257
 30
0.0
 40
2.0
  1
13
  7
ROMANS
  0
TEXT
  8
0
  6
HIDDEN
 62
   249
 10
255.244495
 20
104.388508
 30
0.0
 40
2.0
  1
18
  7
ROMANS
  0
TEXT
  8
0
  6
HIDDEN
 62
   249
 10
255.244495
 20
99.39189
 30
0.0
 40
2.0
  1
17
  7
ROMANS
  0
TEXT
  8
0
  6
HIDDEN
 62
   249
 10
255.244495
 20
94.384257
 30
0.0
 40
2.0
  1
16
  7
ROMANS
  0
TEXT
  8
0
  6
HIDDEN
 62
   249
 10
255.556007
 20
84.518951
 30
0.0
 40
2.0
  1
21
  7
ROMANS
  0
TEXT
  8
0
  6
HIDDEN
 62
   249
 10
255.556007
 20
79.357106
 30
0.0
 40
2.0
  1
20
  7
ROMANS
  0
TEXT
  8
0
  6
HIDDEN
 62
   249
 10
255.556007
 20
74.360488
 30
0.0
 40
2.0
  1
19
  7
ROMANS
  0
LINE
  8
0
  6
CONTINUOUS
 62
   249
 10
240.0
 20
150.0
 30
0.0
 11
241.0
 21
149.0
 31
0.0
  0
LINE
  8
0
  6
CONTINUOUS
 62
   249
 10
240.0
 20
175.0
 30
0.0
 11
241.0
 21
176.0
 31
0.0
  0
LINE
  8
0
  6
CONTINUOUS
 62
   249
 10
240.0
 20
175.0
 30
0.0
 11
240.0
 21
150.0
 31
0.0
  0
TEXT
  8
0
  6
CONTINUOUS
 62
   249
 10
49.136438
 20
166.7654
 30
0.0
 40
2.0
  1
SGR
 50
90.0
  7
ROMANS
  0
LINE
  8
0
  6
CONTINUOUS
 62
   249
 10
52.5
 20
170.0
 30
0.0
 11
52.5
 21
180.0
 31
0.0
  0
LINE
  8
0
  6
CONTINUOUS
 62
   249
 10
52.5
 20
165.0
 30
0.0
 11
50.785914
 21
170.086297
 31
0.0
  0
LINE
  8
0
  6
CONTINUOUS
 62
   249
 10
52.5
 20
160.0
 30
0.0
 11
52.5
 21
165.0
 31
0.0
  0
TEXT
  8
0
  6
CONTINUOUS
 62
   249
 10
61.182478
 20
156.464455
 30
0.0
 40
2.5
  1
1
 11
61.182478
 21
155.631122
 31
0.0
 73
     1
  0
LINE
  8
0
  6
CONTINUOUS
 62
   249
 10
56.748617
 20
159.124549
 30
0.0
 11
59.094382
 21
157.789195
 31
0.0
  0
LINE
  8
0
  6
CONTINUOUS
 62
   249
 10
56.740575
 20
155.799262
 30
0.0
 11
59.124035
 21
156.987454
 31
0.0
  0
LINE
  8
0
  6
CONTINUOUS
 62
   249
 10
59.094382
 20
157.789195
 30
0.0
 11
56.748617
 21
156.599276
 31
0.0
  0
LINE
  8
0
  6
CONTINUOUS
 62
   249
 10
60.0
 20
155.0
 30
0.0
 11
60.0
 21
150.0
 31
0.0
  0
LINE
  8
0
  6
CONTINUOUS
 62
   249
 10
70.0
 20
160.0
 30
0.0
 11
50.0
 21
160.0
 31
0.0
  0
LINE
  8
0
  6
CONTINUOUS
 62
   249
 10
70.0
 20
160.0
 30
0.0
 11
70.0
 21
155.0
 31
0.0
  0
LINE
  8
0
  6
CONTINUOUS
 62
   249
 10
57.5
 20
160.0
 30
0.0
 11
57.5
 21
206.168365
 31
0.0
  0
LINE
  8
0
  6
CONTINUOUS
 62
   249
 10
50.0
 20
155.0
 30
0.0
 11
70.0
 21
155.0
 31
0.0
  0
LINE
  8
0
  6
CONTINUOUS
 62
   249
 10
50.0
 20
160.0
 30
0.0
 11
50.0
 21
155.0
 31
0.0
  0
LINE
  8
0
  6
CONTINUOUS
 62
   249
 10
75.0
 20
160.0
 30
0.0
 11
90.0
 21
160.0
 31
0.0
  0
LINE
  8
0
  6
CONTINUOUS
 62
   249
 10
90.0
 20
160.0
 30
0.0
 11
90.0
 21
155.0
 31
0.0
  0
LINE
  8
0
  6
CONTINUOUS
 62
   249
 10
90.0
 20
155.0
 30
0.0
 11
75.0
 21
155.0
 31
0.0
  0
LINE
  8
0
  6
CONTINUOUS
 62
   249
 10
75.0
 20
155.0
 30
0.0
 11
75.0
 21
160.0
 31
0.0
  0
LINE
  8
0
  6
CONTINUOUS
 62
   249
 10
81.650831
 20
157.789195
 30
0.0
 11
79.305066
 21
156.599276
 31
0.0
  0
LINE
  8
0
  6
CONTINUOUS
 62
   249
 10
79.297024
 20
155.799262
 30
0.0
 11
81.680484
 21
156.987454
 31
0.0
  0
LINE
  8
0
  6
CONTINUOUS
 62
   249
 10
79.305066
 20
159.124549
 30
0.0
 11
81.650831
 21
157.789195
 31
0.0
  0
TEXT
  8
0
  6
CONTINUOUS
 62
   249
 10
83.738927
 20
156.464455
 30
0.0
 40
2.5
  1
1
 11
83.738927
 21
155.631122
 31
0.0
 73
     1
  0
TEXT
  8
0
  6
CONTINUOUS
 62
   249
 10
101.507071
 20
156.464455
 30
0.0
 40
2.5
  1
1
 11
101.507071
 21
155.631122
 31
0.0
 73
     1
  0
LINE
  8
0
  6
CONTINUOUS
 62
   249
 10
97.07321
 20
159.124549
 30
0.0
 11
99.418975
 21
157.789195
 31
0.0
  0
LINE
  8
0
  6
CONTINUOUS
 62
   249
 10
97.065168
 20
155.799262
 30
0.0
 11
99.448628
 21
156.987454
 31
0.0
  0
LINE
  8
0
  6
CONTINUOUS
 62
   249
 10
99.418975
 20
157.789195
 30
0.0
 11
97.07321
 21
156.599276
 31
0.0
  0
LINE
  8
0
  6
CONTINUOUS
 62
   249
 10
92.5
 20
155.0
 30
0.0
 11
92.5
 21
160.0
 31
0.0
  0
LINE
  8
0
  6
CONTINUOUS
 62
   249
 10
107.5
 20
155.0
 30
0.0
 11
92.5
 21
155.0
 31
0.0
  0
LINE
  8
0
  6
CONTINUOUS
 62
   249
 10
107.5
 20
160.0
 30
0.0
 11
107.5
 21
155.0
 31
0.0
  0
LINE
  8
0
  6
CONTINUOUS
 62
   249
 10
92.5
 20
160.0
 30
0.0
 11
107.5
 21
160.0
 31
0.0
  0
LINE
  8
0
  6
CONTINUOUS
 62
   249
 10
110.0
 20
160.0
 30
0.0
 11
125.0
 21
160.0
 31
0.0
  0
LINE
  8
0
  6
CONTINUOUS
 62
   249
 10
125.0
 20
160.0
 30
0.0
 11
125.0
 21
155.0
 31
0.0
  0
LINE
  8
0
  6
CONTINUOUS
 62
   249
 10
125.0
 20
155.0
 30
0.0
 11
110.0
 21
155.0
 31
0.0
  0
LINE
  8
0
  6
CONTINUOUS
 62
   249
 10
110.0
 20
155.0
 30
0.0
 11
110.0
 21
160.0
 31
0.0
  0
LINE
  8
0
  6
CONTINUOUS
 62
   249
 10
116.707396
 20
157.789195
 30
0.0
 11
114.36163
 21
156.599276
 31
0.0
  0
LINE
  8
0
  6
CONTINUOUS
 62
   249
 10
114.353589
 20
155.799262
 30
0.0
 11
116.737049
 21
156.987454
 31
0.0
  0
LINE
  8
0
  6
CONTINUOUS
 62
   249
 10
114.36163
 20
159.124549
 30
0.0
 11
116.707396
 21
157.789195
 31
0.0
  0
TEXT
  8
0
  6
CONTINUOUS
 62
   249
 10
118.795492
 20
156.464455
 30
0.0
 40
2.5
  1
1
 11
118.795492
 21
155.631122
 31
0.0
 73
     1
  0
TEXT
  8
0
  6
CONTINUOUS
 62
   249
 10
118.805499
 20
167.495896
 30
0.0
 40
2.0
  1
5
  7
ROMANS
  0
LINE
  8
0
  6
CONTINUOUS
 62
   249
 10
117.5
 20
170.0
 30
0.0
 11
117.5
 21
172.5
 31
0.0
  0
LINE
  8
0
  6
CONTINUOUS
 62
   249
 10
117.5
 20
165.0
 30
0.0
 11
115.785914
 21
170.086297
 31
0.0
  0
LINE
  8
0
  6
CONTINUOUS
 62
   249
 10
117.5
 20
160.0
 30
0.0
 11
117.5
 21
165.0
 31
0.0
  0
LINE
  8
0
  6
CONTINUOUS
 62
   249
 10
112.5
 20
160.0
 30
0.0
 11
112.5
 21
165.0
 31
0.0
  0
LINE
  8
0
  6
CONTINUOUS
 62
   249
 10
112.5
 20
165.0
 30
0.0
 11
110.785914
 21
170.086297
 31
0.0
  0
LINE
  8
0
  6
CONTINUOUS
 62
   249
 10
112.5
 20
170.0
 30
0.0
 11
112.5
 21
172.5
 31
0.0
  0
LINE
  8
0
  6
CONTINUOUS
 62
   249
 10
105.0
 20
160.0
 30
0.0
 11
105.0
 21
165.0
 31
0.0
  0
LINE
  8
0
  6
CONTINUOUS
 62
   249
 10
105.0
 20
165.0
 30
0.0
 11
103.285914
 21
170.086297
 31
0.0
  0
LINE
  8
0
  6
CONTINUOUS
 62
   249
 10
105.0
 20
170.0
 30
0.0
 11
105.0
 21
182.5
 31
0.0
  0
LINE
  8
0
  6
CONTINUOUS
 62
   249
 10
82.5
 20
170.0
 30
0.0
 11
82.5
 21
182.5
 31
0.0
  0
LINE
  8
0
  6
CONTINUOUS
 62
   249
 10
82.5
 20
165.0
 30
0.0
 11
80.785914
 21
170.086297
 31
0.0
  0
LINE
  8
0
  6
CONTINUOUS
 62
   249
 10
82.5
 20
160.0
 30
0.0
 11
82.5
 21
165.0
 31
0.0
  0
LINE
  8
0
  6
CONTINUOUS
 62
   249
 10
77.5
 20
160.0
 30
0.0
 11
77.5
 21
165.0
 31
0.0
  0
LINE
  8
0
  6
CONTINUOUS
 62
   249
 10
77.5
 20
165.0
 30
0.0
 11
75.785914
 21
170.086297
 31
0.0
  0
TEXT
  8
0
  6
CONTINUOUS
 62
   249
 10
53.049319
 20
167.5
 30
0.0
 40
2.0
  1
3
  7
ROMANS
  0
TEXT
  8
0
  6
CONTINUOUS
 62
   249
 10
78.098159
 20
167.5
 30
0.0
 40
2.0
  1
2
  7
ROMANS
  0
TEXT
  8
0
  6
CONTINUOUS
 62
   249
 10
83.199971
 20
167.5
 30
0.0
 40
2.0
  1
7
  7
ROMANS
  0
TEXT
  8
0
  6
CONTINUOUS
 62
   249
 10
105.7578
 20
167.5
 30
0.0
 40
2.0
  1
8
  7
ROMANS
  0
TEXT
  8
0
  6
CONTINUOUS
 62
   249
 10
113.455229
 20
167.5
 30
0.0
 40
2.0
  1
1
  7
ROMANS
  0
LINE
  8
0
  6
CONTINUOUS
 62
   249
 10
57.5
 20
145.0
 30
0.0
 11
40.0
 21
145.0
 31
0.0
  0
LINE
  8
0
  6
CONTINUOUS
 62
   249
 10
65.0
 20
145.0
 30
0.0
 11
65.0
 21
140.0
 31
0.0
  0
LINE
  8
0
  6
CONTINUOUS
 62
   249
 10
65.0
 20
140.0
 30
0.0
 11
40.0
 21
140.0
 31
0.0
  0
LINE
  8
0
  6
CONTINUOUS
 62
   249
 10
63.240939
 20
145.0
 30
0.0
 11
65.0
 21
145.0
 31
0.0
  0
LINE
  8
0
  6
CONTINUOUS
 62
   249
 10
87.5
 20
135.0
 30
0.0
 11
87.5
 21
130.0
 31
0.0
  0
LINE
  8
0
  6
CONTINUOUS
 62
   249
 10
87.5
 20
130.0
 30
0.0
 11
40.0
 21
130.0
 31
0.0
  0
LINE
  8
0
  6
CONTINUOUS
 62
   249
 10
82.5
 20
147.5
 30
0.0
 11
82.5
 21
155.0
 31
0.0
  0
LINE
  8
0
  6
CONTINUOUS
 62
   249
 10
100.0
 20
147.5
 30
0.0
 11
100.0
 21
155.0
 31
0.0
  0
LINE
  8
0
  6
CONTINUOUS
 62
   249
 10
117.5
 20
147.5
 30
0.0
 11
117.5
 21
155.0
 31
0.0
  0
LINE
  8
0
  6
CONTINUOUS
 62
   249
 10
112.5
 20
172.5
 30
0.0
 11
112.5
 21
225.0
 31
0.0
  0
LINE
  8
0
  6
CONTINUOUS
 62
   249
 10
112.5
 20
225.0
 30
0.0
 11
180.0
 21
225.0
 31
0.0
  0
LINE
  8
0
  6
CONTINUOUS
 62
   249
 10
122.5
 20
160.0
 30
0.0
 11
122.5
 21
165.0
 31
0.0
  0
LINE
  8
0
  6
CONTINUOUS
 62
   249
 10
127.5
 20
212.5
 30
0.0
 11
180.0
 21
212.5
 31
0.0
  0
LINE
  8
0
  6
CONTINUOUS
 62
   249
 10
65.0
 20
230.0
 30
0.0
 11
170.0
 21
230.0
 31
0.0
  0
LINE
  8
0
  6
CONTINUOUS
 62
   249
 10
170.0
 20
230.0
 30
0.0
 11
170.0
 21
152.601504
 31
0.0
  0
LINE
  8
0
  6
CONTINUOUS
 62
   249
 10
167.5
 20
222.5
 30
0.0
 11
167.5
 21
168.000813
 31
0.0
  0
LINE
  8
0
  6
CONTINUOUS
 62
   249
 10
40.0
 20
120.0
 30
0.0
 11
97.5
 21
120.0
 31
0.0
  0
LINE
  8
0
  6
CONTINUOUS
 62
   249
 10
97.5
 20
115.0
 30
0.0
 11
40.0
 21
115.0
 31
0.0
  0
LINE
  8
0
  6
CONTINUOUS
 62
   249
 10
97.5
 20
115.0
 30
0.0
 11
97.5
 21
117.5
 31
0.0
  0
LINE
  8
0
  6
CONTINUOUS
 62
   249
 10
103.240939
 20
120.0
 30
0.0
 11
105.0
 21
120.0
 31
0.0
  0
LINE
  8
0
  6
CONTINUOUS
 62
   249
 10
101.853436
 20
119.638137
 30
0.0
 11
96.756076
 21
116.785297
 31
0.0
  0
LINE
  8
0
  6
CONTINUOUS
 62
   249
 10
119.353436
 20
104.638137
 30
0.0
 11
114.256076
 21
101.785297
 31
0.0
  0
LINE
  8
0
  6
CONTINUOUS
 62
   249
 10
120.740939
 20
105.0
 30
0.0
 11
122.5
 21
105.0
 31
0.0
  0
LINE
  8
0
  6
CONTINUOUS
 62
   249
 10
115.0
 20
100.0
 30
0.0
 11
115.0
 21
102.5
 31
0.0
  0
LINE
  8
0
  6
CONTINUOUS
 62
   249
 10
115.0
 20
100.0
 30
0.0
 11
40.0
 21
100.0
 31
0.0
  0
LINE
  8
0
  6
CONTINUOUS
 62
   249
 10
40.0
 20
105.0
 30
0.0
 11
115.0
 21
105.0
 31
0.0
  0
LINE
  8
0
  6
CONTINUOUS
 62
   249
 10
40.0
 20
90.0
 30
0.0
 11
130.0
 21
90.0
 31
0.0
  0
LINE
  8
0
  6
CONTINUOUS
 62
   249
 10
130.0
 20
85.0
 30
0.0
 11
40.0
 21
85.0
 31
0.0
  0
LINE
  8
0
  6
CONTINUOUS
 62
   249
 10
130.0
 20
85.0
 30
0.0
 11
130.0
 21
87.5
 31
0.0
  0
LINE
  8
0
  6
CONTINUOUS
 62
   249
 10
135.740939
 20
90.0
 30
0.0
 11
137.5
 21
90.0
 31
0.0
  0
LINE
  8
0
  6
CONTINUOUS
 62
   249
 10
134.353436
 20
89.638137
 30
0.0
 11
129.256076
 21
86.785297
 31
0.0
  0
LINE
  8
0
  6
CONTINUOUS
 62
   249
 10
105.0
 20
120.0
 30
0.0
 11
105.0
 21
110.0
 31
0.0
  0
LINE
  8
0
  6
CONTINUOUS
 62
   249
 10
105.0
 20
110.0
 30
0.0
 11
40.0
 21
110.0
 31
0.0
  0
LINE
  8
0
  6
CONTINUOUS
 62
   249
 10
122.5
 20
105.0
 30
0.0
 11
122.5
 21
95.0
 31
0.0
  0
LINE
  8
0
  6
CONTINUOUS
 62
   249
 10
122.5
 20
95.0
 30
0.0
 11
40.0
 21
95.0
 31
0.0
  0
LINE
  8
0
  6
CONTINUOUS
 62
   249
 10
137.5
 20
90.0
 30
0.0
 11
137.5
 21
80.0
 31
0.0
  0
LINE
  8
0
  6
CONTINUOUS
 62
   249
 10
137.5
 20
80.0
 30
0.0
 11
40.0
 21
80.0
 31
0.0
  0
LINE
  8
0
  6
CONTINUOUS
 62
   249
 10
180.0
 20
206.168365
 30
0.0
 11
57.5
 21
206.168365
 31
0.0
  0
LINE
  8
0
  6
CONTINUOUS
 62
   249
 10
180.0
 20
217.165835
 30
0.0
 11
77.5
 21
217.165835
 31
0.0
  0
LINE
  8
0
  6
CONTINUOUS
 62
   249
 10
157.5
 20
202.5
 30
0.0
 11
157.5
 21
157.5
 31
0.0
  0
LINE
  8
0
  6
CONTINUOUS
 62
   249
 10
152.5
 20
138.998058
 30
0.0
 11
152.5
 21
172.5
 31
0.0
  0
LINE
  8
0
  6
CONTINUOUS
 62
   249
 10
100.0
 20
175.0
 30
0.0
 11
100.0
 21
160.0
 31
0.0
  0
LINE
  8
0
  6
CONTINUOUS
 62
   249
 10
155.0
 20
145.0
 30
0.0
 11
155.0
 21
200.0
 31
0.0
  0
LINE
  8
0
  6
CONTINUOUS
 62
   249
 10
162.5
 20
161.168039
 30
0.0
 11
162.5
 21
175.0
 31
0.0
  0
LINE
  8
0
  6
HIDDEN
 62
   249
 10
40.0
 20
237.5
 30
0.0
 11
45.0
 21
237.5
 31
0.0
  0
LINE
  8
0
  6
HIDDEN
 62
   249
 10
45.0
 20
237.5
 30
0.0
 11
45.0
 21
215.0
 31
0.0
  0
LINE
  8
0
  6
HIDDEN
 62
   249
 10
45.0
 20
215.0
 30
0.0
 11
40.0
 21
215.0
 31
0.0
  0
TEXT
  8
0
  6
HIDDEN
 62
   249
 10
40.423869
 20
234.246473
 30
0.0
 40
2.0
  1
X2
  7
ROMANS
  0
TEXT
  8
0
  6
HIDDEN
 62
   249
 10
40.319482
 20
229.833058
 30
0.0
 40
2.0
  1
12
  7
ROMANS
  0
TEXT
  8
0
  6
HIDDEN
 62
   249
 10
40.319482
 20
222.449416
 30
0.0
 40
2.0
  1
10
  7
ROMANS
  0
TEXT
  8
0
  6
HIDDEN
 62
   249
 10
40.319482
 20
217.309022
 30
0.0
 40
2.0
  1
11
  7
ROMANS
  0
LINE
  8
0
  6
HIDDEN
 62
   249
 10
40.0
 20
150.0
 30
0.0
 11
45.0
 21
150.0
 31
0.0
  0
LINE
  8
0
  6
HIDDEN
 62
   249
 10
45.0
 20
150.0
 30
0.0
 11
45.0
 21
125.711798
 31
0.0
  0
LINE
  8
0
  6
HIDDEN
 62
   249
 10
45.0
 20
125.711798
 30
0.0
 11
40.0
 21
125.711798
 31
0.0
  0
LINE
  8
0
  6
HIDDEN
 62
   249
 10
40.0
 20
75.0
 30
0.0
 11
45.0
 21
75.0
 31
0.0
  0
LINE
  8
0
  6
HIDDEN
 62
   249
 10
45.0
 20
75.0
 30
0.0
 11
45.0
 21
124.47351
 31
0.0
  0
LINE
  8
0
  6
HIDDEN
 62
   249
 10
45.0
 20
124.47351
 30
0.0
 11
40.0
 21
124.47351
 31
0.0
  0
TEXT
  8
0
  6
HIDDEN
 62
   249
 10
41.1717
 20
146.129257
 30
0.0
 40
2.0
  1
X1
  7
ROMANS
  0
TEXT
  8
0
  6
HIDDEN
 62
   249
 10
41.603026
 20
142.410394
 30
0.0
 40
2.0
  1
4
  7
ROMANS
  0
TEXT
  8
0
  6
HIDDEN
 62
   249
 10
41.603026
 20
137.402761
 30
0.0
 40
2.0
  1
3
  7
ROMANS
  0
TEXT
  8
0
  6
HIDDEN
 62
   249
 10
41.603026
 20
132.11975
 30
0.0
 40
2.0
  1
7
  7
ROMANS
  0
TEXT
  8
0
  6
HIDDEN
 62
   249
 10
41.603026
 20
127.310389
 30
0.0
 40
2.0
  1
6
  7
ROMANS
  0
TEXT
  8
0
  6
HIDDEN
 62
   249
 10
40.745853
 20
121.476621
 30
0.0
 40
2.0
  1
X2
  7
ROMANS
  0
TEXT
  8
0
  6
HIDDEN
 62
   249
 10
41.603026
 20
117.273092
 30
0.0
 40
2.0
  1
3
  7
ROMANS
  0
TEXT
  8
0
  6
HIDDEN
 62
   249
 10
41.603026
 20
112.342565
 30
0.0
 40
2.0
  1
1
  7
ROMANS
  0
TEXT
  8
0
  6
HIDDEN
 62
   249
 10
41.603026
 20
107.125644
 30
0.0
 40
2.0
  1
2
  7
ROMANS
  0
TEXT
  8
0
  6
HIDDEN
 62
   249
 10
41.603026
 20
102.195117
 30
0.0
 40
2.0
  1
6
  7
ROMANS
  0
TEXT
  8
0
  6
HIDDEN
 62
   249
 10
41.603026
 20
97.418802
 30
0.0
 40
2.0
  1
4
  7
ROMANS
  0
TEXT
  8
0
  6
HIDDEN
 62
   249
 10
41.603026
 20
92.190866
 30
0.0
 40
2.0
  1
5
  7
ROMANS
  0
TEXT
  8
0
  6
HIDDEN
 62
   249
 10
41.603026
 20
87.260338
 30
0.0
 40
2.0
  1
9
  7
ROMANS
  0
TEXT
  8
0
  6
HIDDEN
 62
   249
 10
41.603026
 20
82.186614
 30
0.0
 40
2.0
  1
7
  7
ROMANS
  0
TEXT
  8
0
  6
HIDDEN
 62
   249
 10
41.603026
 20
77.256087
 30
0.0
 40
2.0
  1
8
  7
ROMANS
  0
TEXT
  8
0
  6
HIDDEN
 62
   249
 10
17.455888
 20
243.739977
 30
0.0
 40
2.0
  1
2)
  7
ROMANS
  0
LINE
  8
0
  6
DASHED
 62
   249
 10
40.0
 20
145.0
 30
0.0
 11
27.5
 21
145.0
 31
0.0
  0
LINE
  8
0
  6
DASHED
 62
   249
 10
40.0
 20
140.0
 30
0.0
 11
27.5
 21
140.0
 31
0.0
  0
LINE
  8
0
  6
DASHED
 62
   249
 10
40.0
 20
130.0
 30
0.0
 11
27.5
 21
130.0
 31
0.0
  0
LINE
  8
0
  6
DASHED
 62
   249
 10
40.0
 20
135.0
 30
0.0
 11
27.5
 21
135.0
 31
0.0
  0
LINE
  8
0
  6
CONTINUOUS
 62
   249
 10
25.0
 20
145.0
 30
0.0
 11
26.0
 21
146.0
 31
0.0
  0
LINE
  8
0
  6
CONTINUOUS
 62
   249
 10
25.0
 20
139.999655
 30
0.0
 11
26.0
 21
138.999655
 31
0.0
  0
LINE
  8
0
  6
CONTINUOUS
 62
   249
 10
25.0
 20
145.0
 30
0.0
 11
25.0
 21
140.0
 31
0.0
  0
LINE
  8
0
  6
DASHED
 62
   249
 10
40.0
 20
80.0
 30
0.0
 11
27.5
 21
80.0
 31
0.0
  0
TEXT
  8
0
  6
CONTINUOUS
 62
   249
 10
347.801776
 20
73.813619
 30
0.0
 40
2.0
  1
L2
  7
ROMANS
  0
TEXT
  8
0
  6
CONTINUOUS
 62
   249
 10
362.246136
 20
73.82464
 30
0.0
 40
2.0
  1
4-6
  7
ROMANS
  0
TEXT
  8
0
  6
CONTINUOUS
 62
   249
 10
377.340486
 20
73.82464
 30
0.0
 40
2.0
  1
4-5
  7
ROMANS
  0
LINE
  8
0
 62
   249
 10
388.50882
 20
93.671798
 30
0.0
 11
344.50882
 21
93.671798
 31
0.0
  0
TEXT
  8
0
  6
HIDDEN
 62
   249
 10
347.869344
 20
54.533631
 30
0.0
 40
2.0
  1
Uo
  7
ROMANS
  0
TEXT
  8
0
  6
HIDDEN
 62
   249
 10
347.838606
 20
50.444869
 30
0.0
 40
2.0
  1
U12
  7
ROMANS
  0
TEXT
  8
0
  6
HIDDEN
 62
   249
 10
347.838606
 20
46.372315
 30
0.0
 40
2.0
  1
U23
  7
ROMANS
  0
TEXT
  8
0
  6
HIDDEN
 62
   249
 10
347.838606
 20
42.462756
 30
0.0
 40
2.0
  1
U31
  7
ROMANS
  0
LINE
  8
0
  6
CONTINUOUS
 62
   249
 10
358.50882
 20
63.060985
 30
0.0
 11
388.493873
 21
63.060985
 31
0.0
  0
TEXT
  8
0
  6
CONTINUOUS
 62
   249
 10
360.815824
 20
50.44301
 30
0.0
 40
2.0
  1
13-14
  7
ROMANS
  0
TEXT
  8
0
  6
CONTINUOUS
 62
   249
 10
360.815824
 20
46.360291
 30
0.0
 40
2.0
  1
16-17
  7
ROMANS
  0
TEXT
  8
0
  6
CONTINUOUS
 62
   249
 10
360.815824
 20
42.48696
 30
0.0
 40
2.0
  1
19-20
  7
ROMANS
  0
TEXT
  8
0
  6
CONTINUOUS
 62
   249
 10
376.290577
 20
50.420969
 30
0.0
 40
2.0
  1
13-15
  7
ROMANS
  0
TEXT
  8
0
  6
CONTINUOUS
 62
   249
 10
376.290577
 20
46.349271
 30
0.0
 40
2.0
  1
16-18
  7
ROMANS
  0
TEXT
  8
0
  6
CONTINUOUS
 62
   249
 10
376.290577
 20
42.49798
 30
0.0
 40
2.0
  1
19-21
  7
ROMANS
  0
TEXT
  8
0
  6
CONTINUOUS
 62
   249
 10
337.684361
 20
92.284112
 30
0.0
 40
2.0
  1
1)
  7
ROMANS
  0
LINE
  8
0
 62
   249
 10
60.221556
 20
241.204212
 30
0.0
 11
52.798812
 21
241.204212
 31
0.0
  0
LINE
  8
0
  6
CONTINUOUS
 62
   249
 10
60.221556
 20
245.0
 30
0.0
 11
65.0
 21
245.0
 31
0.0
  0
LINE
  8
0
 62
   249
 10
60.221556
 20
241.204212
 30
0.0
 11
60.221556
 21
249.089925
 31
0.0
  0
LINE
  8
0
 62
   249
 10
60.221556
 20
249.089925
 30
0.0
 11
52.798812
 21
249.089925
 31
0.0
  0
LINE
  8
0
 62
   249
 10
58.496971
 20
249.067786
 30
0.0
 11
56.642636
 21
246.788964
 31
0.0
  0
LINE
  8
0
 62
   249
 10
57.004853
 20
249.067786
 30
0.0
 11
55.09105
 21
246.788964
 31
0.0
  0
LINE
  8
0
 62
   249
 10
52.798812
 20
249.089925
 30
0.0
 11
52.798812
 21
241.204212
 31
0.0
  0
LINE
  8
0
  6
CONTINUOUS
 62
   249
 10
52.798812
 20
242.5
 30
0.0
 11
40.0
 21
242.5
 31
0.0
  0
LINE
  8
0
  6
CONTINUOUS
 62
   249
 10
52.798812
 20
247.5
 30
0.0
 11
40.0
 21
247.5
 31
0.0
  0
LINE
  8
0
  6
HIDDEN
 62
   249
 10
40.0
 20
252.5
 30
0.0
 11
45.0
 21
252.5
 31
0.0
  0
LINE
  8
0
  6
HIDDEN
 62
   249
 10
40.0
 20
238.848482
 30
0.0
 11
45.0
 21
238.848482
 31
0.0
  0
LINE
  8
0
  6
HIDDEN
 62
   249
 10
45.0
 20
252.5
 30
0.0
 11
45.0
 21
238.848482
 31
0.0
  0
TEXT
  8
0
  6
CONTINUOUS
 62
   249
 10
40.643272
 20
249.098074
 30
0.0
 40
2.0
  1
X1
  7
ROMANS
  0
TEXT
  8
0
  6
CONTINUOUS
 62
   249
 10
40.28667
 20
244.752652
 30
0.0
 40
2.0
  1
12
  7
ROMANS
  0
TEXT
  8
0
  6
CONTINUOUS
 62
   249
 10
40.28667
 20
239.901185
 30
0.0
 40
2.0
  1
11
  7
ROMANS
  0
LINE
  8
0
  6
HIDDEN
 62
   249
 10
182.5
 20
202.5
 30
0.0
 11
200.0
 21
202.5
 31
0.0
  0
LINE
  8
0
  6
HIDDEN
 62
   249
 10
182.5
 20
197.5
 30
0.0
 11
200.0
 21
197.5
 31
0.0
  0
LINE
  8
0
  6
CONTINUOUS
 62
   249
 10
185.333062
 20
201.232238
 30
0.0
 11
187.678827
 21
199.896885
 31
0.0
  0
LINE
  8
0
  6
CONTINUOUS
 62
   249
 10
187.678827
 20
199.896885
 30
0.0
 11
185.333062
 21
198.706966
 31
0.0
  0
LINE
  8
0
  6
CONTINUOUS
 62
   249
 10
187.135452
 20
201.232238
 30
0.0
 11
189.481217
 21
199.896885
 31
0.0
  0
LINE
  8
0
  6
CONTINUOUS
 62
   249
 10
189.481217
 20
199.896885
 30
0.0
 11
187.135452
 21
198.706966
 31
0.0
  0
TEXT
  8
0
  6
CONTINUOUS
 62
   249
 10
183.770128
 20
198.694281
 30
0.0
 40
2.5
  1
I
 11
183.770128
 21
197.860948
 31
0.0
 73
     1
  0
LINE
  8
0
  6
CONTINUOUS
 62
   249
 10
191.384084
 20
199.896885
 30
0.0
 11
189.038319
 21
198.706966
 31
0.0
  0
LINE
  8
0
  6
CONTINUOUS
 62
   249
 10
189.038319
 20
201.232238
 30
0.0
 11
191.384084
 21
199.896885
 31
0.0
  0
LINE
  8
0
  6
CONTINUOUS
 62
   249
 10
189.038319
 20
194.757133
 30
0.0
 11
191.384084
 21
193.421779
 31
0.0
  0
LINE
  8
0
  6
CONTINUOUS
 62
   249
 10
191.384084
 20
193.421779
 30
0.0
 11
189.038319
 21
192.23186
 31
0.0
  0
TEXT
  8
0
  6
CONTINUOUS
 62
   249
 10
183.770128
 20
192.219176
 30
0.0
 40
2.5
  1
I
 11
183.770128
 21
191.385842
 31
0.0
 73
     1
  0
LINE
  8
0
  6
CONTINUOUS
 62
   249
 10
189.481217
 20
193.421779
 30
0.0
 11
187.135452
 21
192.23186
 31
0.0
  0
LINE
  8
0
  6
CONTINUOUS
 62
   249
 10
187.135452
 20
194.757133
 30
0.0
 11
189.481217
 21
193.421779
 31
0.0
  0
LINE
  8
0
  6
CONTINUOUS
 62
   249
 10
187.678827
 20
193.421779
 30
0.0
 11
185.333062
 21
192.23186
 31
0.0
  0
LINE
  8
0
  6
CONTINUOUS
 62
   249
 10
185.333062
 20
194.757133
 30
0.0
 11
187.678827
 21
193.421779
 31
0.0
  0
LINE
  8
0
  6
CONTINUOUS
 62
   249
 10
192.102084
 20
193.994658
 30
0.0
 11
192.102084
 21
192.206526
 31
0.0
  0
LINE
  8
0
  6
CONTINUOUS
 62
   249
 10
192.102084
 20
193.149379
 30
0.0
 11
199.25037
 21
193.149379
 31
0.0
  0
LINE
  8
0
  6
CONTINUOUS
 62
   249
 10
196.675117
 20
195.347542
 30
0.0
 11
197.575794
 21
194.223793
 31
0.0
  0
LINE
  8
0
  6
CONTINUOUS
 62
   249
 10
194.22971
 20
191.981776
 30
0.0
 11
197.105821
 21
194.810335
 31
0.0
  0
LINE
  8
0
  6
CONTINUOUS
 62
   249
 10
199.245829
 20
193.994658
 30
0.0
 11
199.245829
 21
192.206526
 31
0.0
  0
LINE
  8
0
  6
CONTINUOUS
 62
   249
 10
182.5
 20
227.5
 30
0.0
 11
182.5
 21
190.0
 31
0.0
  0
TEXT
  8
0
  6
CONTINUOUS
 62
   249
 10
181.991916
 20
190.787092
 30
0.0
 40
1.5
  1
PROGRAMMING: SEE SHEET 3
 50
90.0
  7
ROMANS
  0
TEXT
  8
0
  6
CONTINUOUS
 62
   249
 10
182.005063
 20
171.346592
 30
0.0
 40
2.5
  1
I
 11
182.005063
 21
170.513259
 31
0.0
 73
     1
  0
TEXT
  8
0
  6
CONTINUOUS
 62
   249
 10
182.005063
 20
175.765761
 30
0.0
 40
2.5
  1
I
 11
182.005063
 21
174.932428
 31
0.0
 73
     1
  0
LINE
  8
0
  6
CONTINUOUS
 62
   249
 10
189.287169
 20
176.762687
 30
0.0
 11
186.941403
 21
175.572768
 31
0.0
  0
LINE
  8
0
  6
CONTINUOUS
 62
   249
 10
186.941403
 20
178.098041
 30
0.0
 11
189.287169
 21
176.762687
 31
0.0
  0
TEXT
  8
0
  6
CONTINUOUS
 62
   249
 10
182.005063
 20
186.268175
 30
0.0
 40
2.5
  1
I
 11
182.005063
 21
185.434842
 31
0.0
 73
     1
  0
CIRCLE
  8
0
  6
CONTINUOUS
 62
   249
 10
179.012659
 20
165.021725
 30
0.0
 40
1.0
  0
LINE
  8
0
  6
CONTINUOUS
 62
   249
 10
178.01273
 20
165.019111
 30
0.0
 11
170.0
 21
165.019111
 31
0.0
  0
TEXT
  8
0
  6
CONTINUOUS
 62
   249
 10
182.005063
 20
160.733974
 30
0.0
 40
2.5
  1
I
 11
182.005063
 21
159.900641
 31
0.0
 73
     1
  0
LINE
  8
0
  6
CONTINUOUS
 62
   249
 10
191.034697
 20
161.613824
 30
0.0
 11
188.688931
 21
160.423905
 31
0.0
  0
LINE
  8
0
  6
CONTINUOUS
 62
   249
 10
188.688931
 20
162.949178
 30
0.0
 11
191.034697
 21
161.613824
 31
0.0
  0
LINE
  8
0
  6
CONTINUOUS
 62
   249
 10
189.316175
 20
161.613824
 30
0.0
 11
186.97041
 21
160.423905
 31
0.0
  0
LINE
  8
0
  6
CONTINUOUS
 62
   249
 10
186.97041
 20
162.949178
 30
0.0
 11
189.316175
 21
161.613824
 31
0.0
  0
TEXT
  8
0
  6
CONTINUOUS
 62
   249
 10
183.770128
 20
155.741357
 30
0.0
 40
2.5
  1
I
 11
183.770128
 21
154.908023
 31
0.0
 73
     1
  0
LINE
  8
0
  6
CONTINUOUS
 62
   249
 10
188.906117
 20
156.94396
 30
0.0
 11
186.560351
 21
155.754041
 31
0.0
  0
LINE
  8
0
  6
CONTINUOUS
 62
   249
 10
186.560351
 20
158.279314
 30
0.0
 11
188.906117
 21
156.94396
 31
0.0
  0
LINE
  8
0
  6
CONTINUOUS
 62
   249
 10
186.560351
 20
152.290394
 30
0.0
 11
188.906117
 21
150.955041
 31
0.0
  0
LINE
  8
0
  6
CONTINUOUS
 62
   249
 10
188.906117
 20
150.955041
 30
0.0
 11
186.560351
 21
149.765121
 31
0.0
  0
TEXT
  8
0
  6
CONTINUOUS
 62
   249
 10
183.770128
 20
149.752437
 30
0.0
 40
2.5
  1
I
 11
183.770128
 21
148.919104
 31
0.0
 73
     1
  0
TEXT
  8
0
  6
CONTINUOUS
 62
   249
 10
183.770128
 20
143.692977
 30
0.0
 40
2.5
  1
I
 11
183.770128
 21
142.859644
 31
0.0
 73
     1
  0
LINE
  8
0
  6
CONTINUOUS
 62
   249
 10
189.493199
 20
144.895581
 30
0.0
 11
187.147433
 21
143.705662
 31
0.0
  0
LINE
  8
0
  6
CONTINUOUS
 62
   249
 10
187.147433
 20
146.230934
 30
0.0
 11
189.493199
 21
144.895581
 31
0.0
  0
LINE
  8
0
  6
CONTINUOUS
 62
   249
 10
187.678827
 20
144.895581
 30
0.0
 11
185.333062
 21
143.705662
 31
0.0
  0
LINE
  8
0
  6
CONTINUOUS
 62
   249
 10
185.333062
 20
146.230934
 30
0.0
 11
187.678827
 21
144.895581
 31
0.0
  0
LINE
  8
0
  6
CONTINUOUS
 62
   249
 10
191.431134
 20
139.115882
 30
0.0
 11
191.431134
 21
137.32775
 31
0.0
  0
LINE
  8
0
  6
CONTINUOUS
 62
   249
 10
191.462165
 20
138.270603
 30
0.0
 11
199.25037
 21
138.270603
 31
0.0
  0
LINE
  8
0
  6
CONTINUOUS
 62
   249
 10
196.291717
 20
140.468766
 30
0.0
 11
197.192394
 21
139.345017
 31
0.0
  0
LINE
  8
0
  6
CONTINUOUS
 62
   249
 10
193.84631
 20
137.103
 30
0.0
 11
196.72242
 21
139.931559
 31
0.0
  0
LINE
  8
0
  6
CONTINUOUS
 62
   249
 10
199.245829
 20
139.115882
 30
0.0
 11
199.245829
 21
137.32775
 31
0.0
  0
LINE
  8
0
  6
CONTINUOUS
 62
   249
 10
185.333062
 20
139.878357
 30
0.0
 11
187.678827
 21
138.543003
 31
0.0
  0
LINE
  8
0
  6
CONTINUOUS
 62
   249
 10
187.678827
 20
138.543003
 30
0.0
 11
185.333062
 21
137.353084
 31
0.0
  0
LINE
  8
0
  6
CONTINUOUS
 62
   249
 10
187.147433
 20
139.878357
 30
0.0
 11
189.493199
 21
138.543003
 31
0.0
  0
LINE
  8
0
  6
CONTINUOUS
 62
   249
 10
189.493199
 20
138.543003
 30
0.0
 11
187.147433
 21
137.353084
 31
0.0
  0
TEXT
  8
0
  6
CONTINUOUS
 62
   249
 10
183.770128
 20
137.3404
 30
0.0
 40
2.5
  1
I
 11
183.770128
 21
136.507066
 31
0.0
 73
     1
  0
LINE
  8
0
  6
CONTINUOUS
 62
   249
 10
191.430679
 20
151.710612
 30
0.0
 11
191.430679
 21
149.922481
 31
0.0
  0
LINE
  8
0
  6
CONTINUOUS
 62
   249
 10
191.461711
 20
150.865333
 30
0.0
 11
199.249916
 21
150.865333
 31
0.0
  0
LINE
  8
0
  6
CONTINUOUS
 62
   249
 10
196.291263
 20
153.063496
 30
0.0
 11
197.19194
 21
151.939747
 31
0.0
  0
ARC
  8
0
  6
HIDDEN
 62
   249
 10
198.156579
 20
154.793878
 30
0.0
 40
4.998196
 50
206.402922
 51
282.21115
  0
LINE
  8
0
  6
CONTINUOUS
 62
   249
 10
193.845856
 20
149.697731
 30
0.0
 11
196.721966
 21
152.526289
 31
0.0
  0
LINE
  8
0
  6
CONTINUOUS
 62
   249
 10
199.245375
 20
151.710612
 30
0.0
 11
199.245375
 21
149.922481
 31
0.0
  0
LINE
  8
0
  6
CONTINUOUS
 62
   249
 10
182.5
 20
160.0
 30
0.0
 11
182.5
 21
122.5
 31
0.0
  0
LINE
  8
0
  6
HIDDEN
 62
   249
 10
182.5
 20
130.0
 30
0.0
 11
200.0
 21
130.0
 31
0.0
  0
LINE
  8
0
  6
HIDDEN
 62
   249
 10
182.5
 20
135.0
 30
0.0
 11
200.0
 21
135.0
 31
0.0
  0
LINE
  8
0
  6
HIDDEN
 62
   249
 10
182.5
 20
142.5
 30
0.0
 11
200.0
 21
142.5
 31
0.0
  0
LINE
  8
0
  6
HIDDEN
 62
   249
 10
182.5
 20
147.5
 30
0.0
 11
200.0
 21
147.5
 31
0.0
  0
LINE
  8
0
  6
HIDDEN
 62
   249
 10
182.5
 20
155.0
 30
0.0
 11
200.0
 21
155.0
 31
0.0
  0
LINE
  8
0
  6
CONTINUOUS
 62
   249
 10
180.0
 20
122.5
 30
0.0
 11
210.450615
 21
122.5
 31
0.0
  0
TEXT
  8
0
  6
CONTINUOUS
 62
   249
 10
181.990245
 20
123.288729
 30
0.0
 40
1.5
  1
PROGRAMMING: SEE SHEET 4
 50
90.0
  7
ROMANS
  0
TEXT
  8
0
  6
CONTINUOUS
 62
   249
 10
200.396803
 20
207.09134
 30
0.0
 40
2.0
  1
2
  7
GREEKS
  0
LINE
  8
0
  6
CONTINUOUS
 62
   249
 10
201.724689
 20
173.214764
 30
0.0
 11
209.268276
 21
173.214764
 31
0.0
  0
TEXT
  8
0
  6
CONTINUOUS
 62
   249
 10
204.296619
 20
175.776781
 30
0.0
 40
2.5
  1
I
 11
204.296619
 21
174.943448
 31
0.0
 73
     1
  0
TEXT
  8
0
  6
CONTINUOUS
 62
   249
 10
204.72661
 20
168.025469
 30
0.0
 40
1.5
  1
f
  7
GREEKC
  0
TEXT
  8
0
  6
CONTINUOUS
 62
   249
 10
200.471568
 20
167.510459
 30
0.0
 40
1.5
  1
SIN
  7
GREEKS
  0
TEXT
  8
0
  6
CONTINUOUS
 62
   249
 10
200.471568
 20
163.357643
 30
0.0
 40
1.5
  1
COS
  7
GREEKS
  0
TEXT
  8
0
  6
CONTINUOUS
 62
   249
 10
204.72661
 20
163.864059
 30
0.0
 40
1.5
  1
f
  7
GREEKC
  0
TEXT
  8
0
  6
HIDDEN
 62
   249
 10
207.367691
 20
163.362921
 30
0.0
 40
1.5
  1
EN
  0
TEXT
  8
0
  6
HIDDEN
 62
   249
 10
207.367691
 20
167.499914
 30
0.0
 40
1.5
  1
EN
  0
LINE
  8
0
  6
CONTINUOUS
 62
   249
 10
201.724689
 20
202.586908
 30
0.0
 11
209.268276
 21
202.586908
 31
0.0
  0
LINE
  8
0
  6
CONTINUOUS
 62
   249
 10
201.724689
 20
138.817126
 30
0.0
 11
209.268276
 21
138.817126
 31
0.0
  0
LINE
  8
0
  6
CONTINUOUS
 62
   249
 10
180.0
 20
152.601504
 30
0.0
 11
170.0
 21
152.601504
 31
0.0
  0
LINE
  8
0
  6
CONTINUOUS
 62
   249
 10
180.0
 20
220.0
 30
0.0
 11
170.0
 21
220.0
 31
0.0
  0
LINE
  8
0
  6
CONTINUOUS
 62
   249
 10
77.5
 20
170.0
 30
0.0
 11
77.5
 21
217.165835
 31
0.0
  0
LINE
  8
0
  6
CONTINUOUS
 62
   249
 10
52.5
 20
180.0
 30
0.0
 11
165.0
 21
180.0
 31
0.0
  0
LINE
  8
0
  6
CONTINUOUS
 62
   249
 10
165.0
 20
180.0
 30
0.0
 11
165.0
 21
176.398487
 31
0.0
  0
LINE
  8
0
  6
CONTINUOUS
 62
   249
 10
165.0
 20
176.398487
 30
0.0
 11
180.0
 21
176.398487
 31
0.0
  0
LINE
  8
0
  6
CONTINUOUS
 62
   249
 10
160.0
 20
185.0
 30
0.0
 11
160.0
 21
148.887472
 31
0.0
  0
LINE
  8
0
  6
CONTINUOUS
 62
   249
 10
67.5
 20
160.0
 30
0.0
 11
67.5
 21
175.0
 31
0.0
  0
LINE
  8
0
  6
CONTINUOUS
 62
   249
 10
67.5
 20
175.0
 30
0.0
 11
162.5
 21
175.0
 31
0.0
  0
LINE
  8
0
  6
CONTINUOUS
 62
   249
 10
62.5
 20
172.5
 30
0.0
 11
102.5
 21
172.5
 31
0.0
  0
LINE
  8
0
  6
CONTINUOUS
 62
   249
 10
45.0
 20
152.28824
 30
0.0
 11
45.0
 21
182.5
 31
0.0
  0
LINE
  8
0
  6
CONTINUOUS
 62
   249
 10
45.0
 20
182.5
 30
0.0
 11
105.0
 21
182.5
 31
0.0
  0
LINE
  8
0
  6
CONTINUOUS
 62
   249
 10
60.0
 20
152.28824
 30
0.0
 11
45.0
 21
152.28824
 31
0.0
  0
LINE
  8
0
  6
CONTINUOUS
 62
   249
 10
95.0
 20
160.0
 30
0.0
 11
95.0
 21
180.0
 31
0.0
  0
LINE
  8
0
  6
CONTINUOUS
 62
   249
 10
180.0
 20
138.998058
 30
0.0
 11
152.5
 21
138.998058
 31
0.0
  0
LINE
  8
0
  6
CONTINUOUS
 62
   249
 10
180.0
 20
145.0
 30
0.0
 11
155.0
 21
145.0
 31
0.0
  0
LINE
  8
0
  6
CONTINUOUS
 62
   249
 10
180.0
 20
148.887472
 30
0.0
 11
160.0
 21
148.887472
 31
0.0
  0
LINE
  8
0
  6
CONTINUOUS
 62
   249
 10
180.0
 20
157.5
 30
0.0
 11
157.5
 21
157.5
 31
0.0
  0
LINE
  8
0
  6
CONTINUOUS
 62
   249
 10
180.0
 20
161.168039
 30
0.0
 11
162.5
 21
161.168039
 31
0.0
  0
LINE
  8
0
  6
CONTINUOUS
 62
   249
 10
180.0
 20
187.5
 30
0.0
 11
132.5
 21
187.5
 31
0.0
  0
LINE
  8
0
  6
CONTINUOUS
 62
   249
 10
113.75
 20
192.877204
 30
0.0
 11
121.25
 21
192.877204
 31
0.0
  0
LINE
  8
0
  6
CONTINUOUS
 62
   249
 10
121.25
 20
192.877204
 30
0.0
 11
121.25
 21
197.877204
 31
0.0
  0
LINE
  8
0
  6
CONTINUOUS
 62
   249
 10
121.25
 20
197.877204
 30
0.0
 11
113.75
 21
197.877204
 31
0.0
  0
LINE
  8
0
  6
CONTINUOUS
 62
   249
 10
113.75
 20
197.877204
 30
0.0
 11
113.75
 21
192.877204
 31
0.0
  0
TEXT
  8
0
  6
CONTINUOUS
 62
   249
 10
119.245812
 20
194.432409
 30
0.0
 40
2.5
  1
1
 11
119.245812
 21
193.599076
 31
0.0
 73
     1
  0
LINE
  8
0
  6
CONTINUOUS
 62
   249
 10
114.81195
 20
197.092502
 30
0.0
 11
117.157716
 21
195.757149
 31
0.0
  0
LINE
  8
0
  6
CONTINUOUS
 62
   249
 10
114.803908
 20
193.619698
 30
0.0
 11
117.187369
 21
194.80789
 31
0.0
  0
LINE
  8
0
  6
CONTINUOUS
 62
   249
 10
117.157716
 20
195.757149
 30
0.0
 11
114.81195
 21
194.56723
 31
0.0
  0
LINE
  8
0
  6
CONTINUOUS
 62
   249
 10
117.5
 20
172.5
 30
0.0
 11
117.5
 21
192.877204
 31
0.0
  0
LINE
  8
0
  6
CONTINUOUS
 62
   249
 10
102.5
 20
172.5
 30
0.0
 11
152.5
 21
172.5
 31
0.0
  0
TEXT
  8
0
  6
CONTINUOUS
 62
   249
 10
174.842601
 20
225.521445
 30
0.0
 40
1.5
  1
SS1
  7
ROMANS
  0
TEXT
  8
0
  6
CONTINUOUS
 62
   249
 10
174.842601
 20
217.656162
 30
0.0
 40
1.5
  1
TS1
  7
ROMANS
  0
TEXT
  8
0
  6
CONTINUOUS
 62
   249
 10
174.842601
 20
213.129465
 30
0.0
 40
1.5
  1
SS2
  7
ROMANS
  0
TEXT
  8
0
  6
CONTINUOUS
 62
   249
 10
174.842601
 20
206.668574
 30
0.0
 40
1.5
  1
TS2
  7
ROMANS
  0
TEXT
  8
0
  6
CONTINUOUS
 62
   249
 10
174.842601
 20
188.146044
 30
0.0
 40
1.5
  1
SS1
  7
ROMANS
  0
TEXT
  8
0
  6
CONTINUOUS
 62
   249
 10
174.842601
 20
177.068319
 30
0.0
 40
1.5
  1
TS1
  7
ROMANS
  0
TEXT
  8
0
  6
CONTINUOUS
 62
   249
 10
174.842601
 20
161.934831
 30
0.0
 40
1.5
  1
TS2
  7
ROMANS
  0
TEXT
  8
0
  6
CONTINUOUS
 62
   249
 10
174.842601
 20
158.240677
 30
0.0
 40
1.5
  1
SS1
  7
ROMANS
  0
TEXT
  8
0
  6
CONTINUOUS
 62
   249
 10
174.842601
 20
149.55967
 30
0.0
 40
1.5
  1
TS1
  7
ROMANS
  0
TEXT
  8
0
  6
CONTINUOUS
 62
   249
 10
174.842601
 20
145.747783
 30
0.0
 40
1.5
  1
SS2
  7
ROMANS
  0
TEXT
  8
0
  6
CONTINUOUS
 62
   249
 10
174.842601
 20
139.69055
 30
0.0
 40
1.5
  1
TS2
  7
ROMANS
  0
ARC
  8
0
 62
   249
 10
249.934151
 20
173.75
 30
0.0
 40
1.251733
 50
86.984476
 51
273.015524
  0
LINE
  8
0
 62
   249
 10
250.0
 20
172.5
 30
0.0
 11
252.5
 21
172.5
 31
0.0
  0
ARC
  8
0
 62
   249
 10
249.934151
 20
176.25
 30
0.0
 40
1.251733
 50
86.984476
 51
273.015524
  0
LINE
  8
0
 62
   249
 10
250.0
 20
175.0
 30
0.0
 11
252.5
 21
175.0
 31
0.0
  0
LINE
  8
0
 62
   249
 10
250.0
 20
177.5
 30
0.0
 11
252.5
 21
177.5
 31
0.0
  0
LINE
  8
0
 62
   249
 10
252.5
 20
172.5
 30
0.0
 11
255.0
 21
172.5
 31
0.0
  0
LINE
  8
0
 62
   249
 10
250.0
 20
172.5
 30
0.0
 11
252.5
 21
172.5
 31
0.0
  0
LINE
  8
0
 62
   249
 10
250.0
 20
170.0
 30
0.0
 11
252.5
 21
170.0
 31
0.0
  0
ARC
  8
0
 62
   249
 10
249.934151
 20
171.25
 30
0.0
 40
1.251733
 50
86.984476
 51
273.015524
  0
ARC
  8
0
 62
   249
 10
249.934151
 20
168.75
 30
0.0
 40
1.251733
 50
86.984476
 51
273.015524
  0
LINE
  8
0
 62
   249
 10
250.0
 20
167.5
 30
0.0
 11
252.5
 21
167.5
 31
0.0
  0
ARC
  8
0
 62
   249
 10
245.065849
 20
173.75
 30
0.0
 40
1.251733
 50
266.984476
 51
93.015524
  0
LINE
  8
0
 62
   249
 10
245.0
 20
175.0
 30
0.0
 11
243.480133
 21
175.0
 31
0.0
  0
LINE
  8
0
 62
   249
 10
245.0
 20
172.5
 30
0.0
 11
243.480133
 21
172.5
 31
0.0
  0
ARC
  8
0
 62
   249
 10
245.065849
 20
171.25
 30
0.0
 40
1.251733
 50
266.984476
 51
93.015524
  0
LINE
  8
0
 62
   249
 10
245.0
 20
170.0
 30
0.0
 11
243.480133
 21
170.0
 31
0.0
  0
LINE
  8
0
 62
   249
 10
252.5
 20
167.5
 30
0.0
 11
260.0
 21
167.5
 31
0.0
  0
LINE
  8
0
 62
   249
 10
252.5
 20
172.5
 30
0.0
 11
260.0
 21
172.5
 31
0.0
  0
LINE
  8
0
 62
   249
 10
252.5
 20
177.5
 30
0.0
 11
260.0
 21
177.5
 31
0.0
  0
TEXT
  8
0
  6
CONTINUOUS
 62
   249
 10
255.368498
 20
174.60337
 30
0.0
 40
2.0
  1
27
  7
ROMANS
  0
TEXT
  8
0
  6
CONTINUOUS
 62
   249
 10
255.368498
 20
169.705888
 30
0.0
 40
2.0
  1
26
  7
ROMANS
  0
TEXT
  8
0
  6
CONTINUOUS
 62
   249
 10
255.368498
 20
164.68724
 30
0.0
 40
2.0
  1
25
  7
ROMANS
  0
LINE
  8
0
  6
CONTINUOUS
 62
   249
 10
240.0
 20
235.0
 30
0.0
 11
241.0
 21
236.0
 31
0.0
  0
LINE
  8
0
  6
CONTINUOUS
 62
   249
 10
240.0
 20
210.0
 30
0.0
 11
241.0
 21
209.0
 31
0.0
  0
LINE
  8
0
  6
CONTINUOUS
 62
   249
 10
240.0
 20
235.0
 30
0.0
 11
240.0
 21
210.0
 31
0.0
  0
LINE
  8
0
  6
CONTINUOUS
 62
   249
 10
237.5
 20
235.0
 30
0.0
 11
238.5
 21
236.0
 31
0.0
  0
LINE
  8
0
  6
CONTINUOUS
 62
   249
 10
237.5
 20
230.0
 30
0.0
 11
238.5
 21
229.0
 31
0.0
  0
LINE
  8
0
  6
CONTINUOUS
 62
   249
 10
237.5
 20
235.0
 30
0.0
 11
237.5
 21
230.0
 31
0.0
  0
LINE
  8
0
  6
CONTINUOUS
 62
   249
 10
240.0
 20
222.5
 30
0.0
 11
230.0
 21
222.5
 31
0.0
  0
LINE
  8
0
  6
CONTINUOUS
 62
   249
 10
240.0
 20
195.0
 30
0.0
 11
240.0
 21
190.0
 31
0.0
  0
LINE
  8
0
  6
CONTINUOUS
 62
   249
 10
240.0
 20
190.0
 30
0.0
 11
241.0
 21
189.0
 31
0.0
  0
LINE
  8
0
  6
CONTINUOUS
 62
   249
 10
240.0
 20
195.0
 30
0.0
 11
241.0
 21
196.0
 31
0.0
  0
LINE
  8
0
  6
CONTINUOUS
 62
   249
 10
237.5
 20
232.5
 30
0.0
 11
227.5
 21
232.5
 31
0.0
  0
LINE
  8
0
  6
CONTINUOUS
 62
   249
 10
240.0
 20
192.5
 30
0.0
 11
222.5
 21
192.5
 31
0.0
  0
LINE
  8
0
  6
CONTINUOUS
 62
   249
 10
222.5
 20
192.5
 30
0.0
 11
222.5
 21
232.5
 31
0.0
  0
LINE
  8
0
  6
CONTINUOUS
 62
   249
 10
222.5
 20
232.5
 30
0.0
 11
227.5
 21
232.5
 31
0.0
  0
LINE
  8
0
  6
CONTINUOUS
 62
   249
 10
240.0
 20
125.0
 30
0.0
 11
241.0
 21
126.0
 31
0.0
  0
LINE
  8
0
  6
CONTINUOUS
 62
   249
 10
240.0
 20
100.0
 30
0.0
 11
241.0
 21
99.0
 31
0.0
  0
LINE
  8
0
  6
CONTINUOUS
 62
   249
 10
240.0
 20
125.0
 30
0.0
 11
240.0
 21
100.0
 31
0.0
  0
LINE
  8
0
  6
CONTINUOUS
 62
   249
 10
237.5
 20
105.0
 30
0.0
 11
238.5
 21
106.0
 31
0.0
  0
LINE
  8
0
  6
CONTINUOUS
 62
   249
 10
237.5
 20
80.0
 30
0.0
 11
238.5
 21
79.0
 31
0.0
  0
LINE
  8
0
  6
CONTINUOUS
 62
   249
 10
237.5
 20
105.0
 30
0.0
 11
237.5
 21
80.0
 31
0.0
  0
LINE
  8
0
  6
CONTINUOUS
 62
   249
 10
210.450615
 20
179.560179
 30
0.0
 11
222.5
 21
179.560179
 31
0.0
  0
LINE
  8
0
  6
CONTINUOUS
 62
   249
 10
222.5
 20
179.560179
 30
0.0
 11
222.5
 21
162.5
 31
0.0
  0
LINE
  8
0
  6
CONTINUOUS
 62
   249
 10
222.5
 20
162.5
 30
0.0
 11
232.5
 21
162.5
 31
0.0
  0
CIRCLE
  8
0
  6
CONTINUOUS
 62
   249
 10
211.450323
 20
168.483421
 30
0.0
 40
1.0
  0
LINE
  8
0
  6
CONTINUOUS
 62
   249
 10
65.0
 20
245.0
 30
0.0
 11
215.0
 21
245.0
 31
0.0
  0
LINE
  8
0
  6
CONTINUOUS
 62
   249
 10
215.0
 20
245.0
 30
0.0
 11
215.0
 21
164.043906
 31
0.0
  0
LINE
  8
0
  6
CONTINUOUS
 62
   249
 10
210.450615
 20
164.043906
 30
0.0
 11
215.0
 21
164.043906
 31
0.0
  0
LINE
  8
0
  6
CONTINUOUS
 62
   249
 10
212.450316
 20
168.479447
 30
0.0
 11
215.0
 21
168.479447
 31
0.0
  0
LINE
  8
0
  6
CONTINUOUS
 62
   249
 10
230.0
 20
222.5
 30
0.0
 11
225.0
 21
222.5
 31
0.0
  0
LINE
  8
0
  6
CONTINUOUS
 62
   249
 10
225.0
 20
222.5
 30
0.0
 11
225.0
 21
145.0
 31
0.0
  0
LINE
  8
0
  6
CONTINUOUS
 62
   249
 10
225.0
 20
145.0
 30
0.0
 11
210.450615
 21
145.0
 31
0.0
  0
LINE
  8
0
  6
CONTINUOUS
 62
   249
 10
210.450615
 20
205.0
 30
0.0
 11
227.5
 21
205.0
 31
0.0
  0
LINE
  8
0
  6
CONTINUOUS
 62
   249
 10
227.5
 20
205.0
 30
0.0
 11
227.5
 21
112.5
 31
0.0
  0
LINE
  8
0
  6
CONTINUOUS
 62
   249
 10
227.5
 20
112.5
 30
0.0
 11
240.0
 21
112.5
 31
0.0
  0
LINE
  8
0
  6
CONTINUOUS
 62
   249
 10
210.450615
 20
210.0
 30
0.0
 11
222.5
 21
210.0
 31
0.0
  0
LINE
  8
0
  6
CONTINUOUS
 62
   249
 10
210.450615
 20
140.0
 30
0.0
 11
220.0
 21
140.0
 31
0.0
  0
LINE
  8
0
  6
CONTINUOUS
 62
   249
 10
220.0
 20
140.0
 30
0.0
 11
220.0
 21
92.5
 31
0.0
  0
LINE
  8
0
  6
CONTINUOUS
 62
   249
 10
220.0
 20
92.5
 30
0.0
 11
237.5
 21
92.5
 31
0.0
  0
TEXT
  8
0
  6
CONTINUOUS
 62
   249
 10
65.0
 20
242.5
 30
0.0
 40
1.5
  1
BACTRL
  7
ROMANS
  0
TEXT
  8
0
  6
CONTINUOUS
 62
   249
 10
65.0
 20
227.5
 30
0.0
 40
1.5
  1
BS1
  7
ROMANS
  0
TEXT
  8
0
  6
CONTINUOUS
 62
   249
 10
65.0
 20
220.0
 30
0.0
 40
1.5
  1
BS2
  7
ROMANS
  0
LINE
  8
0
  6
DASHED
 62
   249
 10
40.0
 20
247.5
 30
0.0
 11
32.5
 21
247.5
 31
0.0
  0
LINE
  8
0
  6
DASHED
 62
   249
 10
40.0
 20
242.5
 30
0.0
 11
32.5
 21
242.5
 31
0.0
  0
LINE
  8
0
  6
CONTINUOUS
 62
   249
 10
22.5
 20
247.5
 30
0.0
 11
23.5
 21
248.5
 31
0.0
  0
LINE
  8
0
  6
CONTINUOUS
 62
   249
 10
22.5
 20
242.499655
 30
0.0
 11
23.5
 21
241.499655
 31
0.0
  0
LINE
  8
0
  6
CONTINUOUS
 62
   249
 10
22.5
 20
247.5
 30
0.0
 11
22.5
 21
242.5
 31
0.0
  0
TEXT
  8
0
  6
CONTINUOUS
 62
   249
 10
17.440672
 20
225.567384
 30
0.0
 40
2.0
  1
3)
  7
ROMANS
  0
TEXT
  8
0
  6
CONTINUOUS
 62
   249
 10
17.993014
 20
131.673819
 30
0.0
 40
2.0
  1
5a)
  7
ROMANS
  0
TEXT
  8
0
  6
CONTINUOUS
 62
   249
 10
17.993014
 20
114.091145
 30
0.0
 40
2.0
  1
5b)
  7
ROMANS
  0
TEXT
  8
0
  6
CONTINUOUS
 62
   249
 10
17.993014
 20
92.937871
 30
0.0
 40
2.0
  1
5c)
  7
ROMANS
  0
TEXT
  8
0
  6
CONTINUOUS
 62
   249
 10
347.68943
 20
65.047644
 30
0.0
 40
2.5
  1
I
 11
347.68943
 21
64.21431
 31
0.0
 73
     1
  0
LINE
  8
0
  6
CONTINUOUS
 62
   249
 10
361.221603
 20
240.474187
 30
0.0
 11
368.765189
 21
240.474187
 31
0.0
  0
TEXT
  8
0
  6
DASHED
 62
   249
 10
362.133208
 20
243.289445
 30
0.0
 40
2.0
  1
2
  7
GREEKS
  0
TEXT
  8
0
  6
DASHED
 62
   249
 10
364.383505
 20
243.276511
 30
0.0
 40
2.5
  1
I
  7
GREEKS
  0
TEXT
  8
0
  6
DASHED
 62
   249
 10
364.383505
 20
230.845531
 30
0.0
 40
2.5
  1
I
  7
GREEKS
  0
TEXT
  8
0
  6
DASHED
 62
   249
 10
362.133208
 20
230.858466
 30
0.0
 40
2.0
  1
2
  7
GREEKS
  0
LINE
  8
0
  6
CONTINUOUS
 62
   249
 10
361.221603
 20
228.337859
 30
0.0
 11
368.765189
 21
228.337859
 31
0.0
  0
TEXT
  8
0
  6
DASHED
 62
   249
 10
362.133208
 20
219.878826
 30
0.0
 40
2.0
  1
2
  7
GREEKS
  0
TEXT
  8
0
  6
DASHED
 62
   249
 10
364.383505
 20
219.865891
 30
0.0
 40
2.5
  1
I
  7
GREEKS
  0
LINE
  8
0
  6
CONTINUOUS
 62
   249
 10
369.166854
 20
221.029919
 30
0.0
 11
366.821088
 21
219.84
 31
0.0
  0
LINE
  8
0
  6
CONTINUOUS
 62
   249
 10
366.821088
 20
222.365273
 30
0.0
 11
369.166854
 21
221.029919
 31
0.0
  0
LINE
  8
0
  6
CONTINUOUS
 62
   249
 10
368.709814
 20
222.365273
 30
0.0
 11
371.05558
 21
221.029919
 31
0.0
  0
LINE
  8
0
  6
CONTINUOUS
 62
   249
 10
371.05558
 20
221.029919
 30
0.0
 11
368.709814
 21
219.84
 31
0.0
  0
LINE
  8
0
  6
CONTINUOUS
 62
   249
 10
372.893859
 20
221.029919
 30
0.0
 11
370.548094
 21
219.84
 31
0.0
  0
LINE
  8
0
  6
CONTINUOUS
 62
   249
 10
370.548094
 20
222.365273
 30
0.0
 11
372.893859
 21
221.029919
 31
0.0
  0
LINE
  8
0
  6
CONTINUOUS
 62
   249
 10
369.142955
 20
217.512174
 30
0.0
 11
369.142955
 21
215.724043
 31
0.0
  0
LINE
  8
0
  6
CONTINUOUS
 62
   249
 10
366.188843
 20
218.865059
 30
0.0
 11
367.08952
 21
217.74131
 31
0.0
  0
LINE
  8
0
  6
CONTINUOUS
 62
   249
 10
363.743436
 20
215.499293
 30
0.0
 11
366.619546
 21
218.327852
 31
0.0
  0
LINE
  8
0
  6
CONTINUOUS
 62
   249
 10
361.359291
 20
216.666896
 30
0.0
 11
369.147496
 21
216.666896
 31
0.0
  0
LINE
  8
0
  6
CONTINUOUS
 62
   249
 10
361.32826
 20
217.512174
 30
0.0
 11
361.32826
 21
215.724043
 31
0.0
  0
LINE
  8
0
  6
CONTINUOUS
 62
   249
 10
366.672272
 20
212.103633
 30
0.0
 11
369.018038
 21
210.76828
 31
0.0
  0
LINE
  8
0
  6
CONTINUOUS
 62
   249
 10
369.018038
 20
210.76828
 30
0.0
 11
366.672272
 21
209.578361
 31
0.0
  0
TEXT
  8
0
  6
CONTINUOUS
 62
   249
 10
362.148225
 20
209.88843
 30
0.0
 40
2.5
  1
I
 11
362.148225
 21
209.055097
 31
0.0
 73
     1
  0
LINE
  8
0
  6
CONTINUOUS
 62
   249
 10
361.32826
 20
207.241188
 30
0.0
 11
361.32826
 21
205.453057
 31
0.0
  0
LINE
  8
0
  6
CONTINUOUS
 62
   249
 10
361.359291
 20
206.39591
 30
0.0
 11
369.147496
 21
206.39591
 31
0.0
  0
LINE
  8
0
  6
CONTINUOUS
 62
   249
 10
363.743436
 20
205.228307
 30
0.0
 11
366.619546
 21
208.056866
 31
0.0
  0
LINE
  8
0
  6
CONTINUOUS
 62
   249
 10
366.188843
 20
208.594072
 30
0.0
 11
367.08952
 21
207.470323
 31
0.0
  0
LINE
  8
0
  6
CONTINUOUS
 62
   249
 10
369.142955
 20
207.241188
 30
0.0
 11
369.142955
 21
205.453057
 31
0.0
  0
LINE
  8
0
  6
CONTINUOUS
 62
   249
 10
361.221603
 20
202.594271
 30
0.0
 11
368.765189
 21
202.594271
 31
0.0
  0
TEXT
  8
0
  6
CONTINUOUS
 62
   249
 10
362.148225
 20
197.358267
 30
0.0
 40
2.5
  1
I
 11
362.148225
 21
196.524934
 31
0.0
 73
     1
  0
LINE
  8
0
  6
CONTINUOUS
 62
   249
 10
369.142955
 20
194.060824
 30
0.0
 11
369.142955
 21
192.272692
 31
0.0
  0
LINE
  8
0
  6
CONTINUOUS
 62
   249
 10
366.188843
 20
195.413708
 30
0.0
 11
367.08952
 21
194.289959
 31
0.0
  0
LINE
  8
0
  6
CONTINUOUS
 62
   249
 10
363.743436
 20
192.047943
 30
0.0
 11
366.619546
 21
194.876501
 31
0.0
  0
LINE
  8
0
  6
CONTINUOUS
 62
   249
 10
361.359291
 20
193.215545
 30
0.0
 11
369.147496
 21
193.215545
 31
0.0
  0
LINE
  8
0
  6
CONTINUOUS
 62
   249
 10
361.32826
 20
194.060824
 30
0.0
 11
361.32826
 21
192.272692
 31
0.0
  0
LINE
  8
0
  6
CONTINUOUS
 62
   249
 10
361.221603
 20
189.435947
 30
0.0
 11
368.765189
 21
189.435947
 31
0.0
  0
LINE
  8
0
  6
CONTINUOUS
 62
   249
 10
361.32826
 20
157.512174
 30
0.0
 11
361.32826
 21
155.724043
 31
0.0
  0
LINE
  8
0
  6
CONTINUOUS
 62
   249
 10
361.359291
 20
156.666896
 30
0.0
 11
369.147496
 21
156.666896
 31
0.0
  0
LINE
  8
0
  6
CONTINUOUS
 62
   249
 10
363.743436
 20
155.499293
 30
0.0
 11
366.619546
 21
158.327852
 31
0.0
  0
LINE
  8
0
  6
CONTINUOUS
 62
   249
 10
366.188843
 20
158.865059
 30
0.0
 11
367.08952
 21
157.74131
 31
0.0
  0
LINE
  8
0
  6
CONTINUOUS
 62
   249
 10
369.142955
 20
157.512174
 30
0.0
 11
369.142955
 21
155.724043
 31
0.0
  0
LINE
  8
0
  6
CONTINUOUS
 62
   249
 10
361.221603
 20
168.337859
 30
0.0
 11
368.765189
 21
168.337859
 31
0.0
  0
TEXT
  8
0
  6
DASHED
 62
   249
 10
364.383505
 20
183.276511
 30
0.0
 40
2.5
  1
I
  7
GREEKS
  0
TEXT
  8
0
  6
DASHED
 62
   249
 10
362.133208
 20
183.289445
 30
0.0
 40
2.0
  1
2
  7
GREEKS
  0
LINE
  8
0
  6
CONTINUOUS
 62
   249
 10
361.221603
 20
180.474187
 30
0.0
 11
368.765189
 21
180.474187
 31
0.0
  0
LINE
  8
0
  6
CONTINUOUS
 62
   249
 10
366.578563
 20
185.816754
 30
0.0
 11
368.924329
 21
184.4814
 31
0.0
  0
LINE
  8
0
  6
CONTINUOUS
 62
   249
 10
368.924329
 20
184.4814
 30
0.0
 11
366.578563
 21
183.291481
 31
0.0
  0
LINE
  8
0
  6
CONTINUOUS
 62
   249
 10
361.32826
 20
177.706143
 30
0.0
 11
361.32826
 21
175.918012
 31
0.0
  0
LINE
  8
0
  6
CONTINUOUS
 62
   249
 10
361.359291
 20
176.860865
 30
0.0
 11
369.147496
 21
176.860865
 31
0.0
  0
LINE
  8
0
  6
CONTINUOUS
 62
   249
 10
366.188843
 20
179.059027
 30
0.0
 11
367.08952
 21
177.935278
 31
0.0
  0
ARC
  8
0
  6
HIDDEN
 62
   249
 10
368.054159
 20
180.789409
 30
0.0
 40
4.998196
 50
206.402922
 51
282.21115
  0
LINE
  8
0
  6
CONTINUOUS
 62
   249
 10
363.743436
 20
175.693262
 30
0.0
 11
366.619546
 21
178.521821
 31
0.0
  0
LINE
  8
0
  6
CONTINUOUS
 62
   249
 10
369.142955
 20
177.706143
 30
0.0
 11
369.142955
 21
175.918012
 31
0.0
  0
LINE
  8
0
  6
CONTINUOUS
 62
   249
 10
369.142955
 20
165.552173
 30
0.0
 11
369.142955
 21
163.764041
 31
0.0
  0
LINE
  8
0
  6
CONTINUOUS
 62
   249
 10
366.188843
 20
166.905057
 30
0.0
 11
367.08952
 21
165.781308
 31
0.0
  0
LINE
  8
0
  6
CONTINUOUS
 62
   249
 10
363.743436
 20
163.539291
 30
0.0
 11
366.619546
 21
166.36785
 31
0.0
  0
LINE
  8
0
  6
CONTINUOUS
 62
   249
 10
361.359291
 20
164.706894
 30
0.0
 11
369.147496
 21
164.706894
 31
0.0
  0
LINE
  8
0
  6
CONTINUOUS
 62
   249
 10
361.32826
 20
165.552173
 30
0.0
 11
361.32826
 21
163.764041
 31
0.0
  0
LINE
  8
0
  6
CONTINUOUS
 62
   249
 10
355.727984
 20
155.0
 30
0.0
 11
375.727984
 21
155.0
 31
0.0
  0
TEXT
  8
0
  6
DASHED
 62
   249
 10
351.620768
 20
148.465966
 30
0.0
 40
2.0
  1
FEEDER TERMINAL
  7
ROMANS
  0
TEXT
  8
0
  6
DASHED
 62
   249
 10
351.620768
 20
145.132633
 30
0.0
 40
2.0
  1
LEDNINGSTERMINAL
  7
ROMANS
  0
TEXT
  8
0
  6
DASHED
 62
   249
 10
360.070236
 20
65.460528
 30
0.0
 40
2.0
  1
25-27
  7
ROMANS
  0
TEXT
  8
0
  6
DASHED
 62
   249
 10
375.514557
 20
65.460528
 30
0.0
 40
2.0
  1
25-26
  7
ROMANS
  0
TEXT
  8
0
  6
CONTINUOUS
 62
   249
 10
40.233624
 20
34.23715
 30
0.0
 40
2.014518
  1
f
  7
GREEKC
  0
TEXT
  8
0
  6
DASHED
 62
   249
 10
7.506752
 20
43.57156
 30
0.0
 40
2.0
  1
2) OPERATING CHARACTERISTICS
  7
ROMANS
  0
TEXT
  8
0
  6
DASHED
 62
   249
 10
8.834111
 20
40.238227
 30
0.0
 40
2.0
  1
  SIN  OR COS  /
  7
ROMANS
  0
TEXT
  8
0
  6
DASHED
 62
   249
 10
8.834111
 20
36.904894
 30
0.0
 40
2.0
  1
  FUNKTIONSKARAKTERISTIKEN
  7
ROMANS
  0
TEXT
  8
0
  6
DASHED
 62
   249
 10
8.834111
 20
33.57156
 30
0.0
 40
2.0
  1
  SIN  ELLER COS
  7
ROMANS
  0
TEXT
  8
0
  6
CONTINUOUS
 62
   249
 10
18.19712
 20
34.23715
 30
0.0
 40
2.014518
  1
f
  7
GREEKC
  0
TEXT
  8
0
  6
CONTINUOUS
 62
   249
 10
18.19712
 20
40.924066
 30
0.0
 40
2.014518
  1
f
  7
GREEKC
  0
TEXT
  8
0
  6
CONTINUOUS
 62
   249
 10
34.195904
 20
40.924066
 30
0.0
 40
2.014518
  1
f
  7
GREEKC
  0
TEXT
  8
0
  6
DASHED
 62
   249
 10
7.516681
 20
28.829126
 30
0.0
 40
2.0
  1
3) BLOCKING INPUT /
  7
ROMANS
  0
TEXT
  8
0
  6
DASHED
 62
   249
 10
8.84404
 20
25.495793
 30
0.0
 40
2.0
  1
  BLOCKERING IN
  7
ROMANS
  0
TEXT
  8
0
  6
DASHED
 62
   249
 10
7.563668
 20
21.193023
 30
0.0
 40
2.0
  1
4) TRIP 1 /
  7
ROMANS
  0
TEXT
  8
0
  6
DASHED
 62
   249
 10
8.84404
 20
17.859689
 30
0.0
 40
2.0
  1
  UTLÖSNING 1
  7
ROMANS
  0
TEXT
  8
0
  6
DASHED
 62
   249
 10
67.888728
 20
43.522005
 30
0.0
 40
2.0
  1
5a) TRIP 2 OR ALARM OUTPUT /
  7
ROMANS
  0
TEXT
  8
0
  6
DASHED
 62
   249
 10
69.227743
 20
40.188672
 30
0.0
 40
2.0
  1
   UTLÖSNING 2 ELLER SIGNALUTGÅNG
  7
ROMANS
  0
TEXT
  8
0
  6
DASHED
 62
   249
 10
67.888728
 20
34.355339
 30
0.0
 40
2.0
  1
5b) ALARM OUTPUT /
  7
ROMANS
  0
TEXT
  8
0
  6
DASHED
 62
   249
 10
69.227743
 20
31.022005
 30
0.0
 40
2.0
  1
   SIGNALUTGÅNG
  7
ROMANS
  0
TEXT
  8
0
  6
DASHED
 62
   249
 10
67.888728
 20
24.831147
 30
0.0
 40
2.0
  1
5c) START, BLOCKING ETC.
  7
ROMANS
  0
TEXT
  8
0
  6
DASHED
 62
   249
 10
69.227743
 20
21.497814
 30
0.0
 40
2.0
  1
   START, BLOCKERING MM.
  7
ROMANS
  0
LINE
  8
0
  6
CONTINUOUS
 62
   249
 10
265.0
 20
157.8468
 30
0.0
 11
265.0
 21
152.16187
 31
0.0
  0
LINE
  8
0
  6
CONTINUOUS
 62
   249
 10
265.0
 20
152.16187
 30
0.0
 11
264.0
 21
151.16187
 31
0.0
  0
LINE
  8
0
  6
CONTINUOUS
 62
   249
 10
265.0
 20
157.8468
 30
0.0
 11
264.0
 21
158.8468
 31
0.0
  0
LINE
  8
0
  6
CONTINUOUS
 62
   249
 10
265.0
 20
177.8468
 30
0.0
 11
264.0
 21
178.8468
 31
0.0
  0
LINE
  8
0
  6
CONTINUOUS
 62
   249
 10
265.0
 20
172.16187
 30
0.0
 11
264.0
 21
171.16187
 31
0.0
  0
LINE
  8
0
  6
CONTINUOUS
 62
   249
 10
265.0
 20
177.8468
 30
0.0
 11
265.0
 21
172.16187
 31
0.0
  0
LINE
  8
0
  6
CONTINUOUS
 62
   249
 10
265.0
 20
197.8468
 30
0.0
 11
265.0
 21
192.16187
 31
0.0
  0
LINE
  8
0
  6
CONTINUOUS
 62
   249
 10
265.0
 20
192.16187
 30
0.0
 11
264.0
 21
191.16187
 31
0.0
  0
LINE
  8
0
  6
CONTINUOUS
 62
   249
 10
265.0
 20
197.8468
 30
0.0
 11
264.0
 21
198.8468
 31
0.0
  0
LINE
  8
0
  6
CONTINUOUS
 62
   249
 10
265.0
 20
217.8468
 30
0.0
 11
264.0
 21
218.8468
 31
0.0
  0
LINE
  8
0
  6
CONTINUOUS
 62
   249
 10
265.0
 20
212.16187
 30
0.0
 11
264.0
 21
211.16187
 31
0.0
  0
LINE
  8
0
  6
CONTINUOUS
 62
   249
 10
265.0
 20
217.8468
 30
0.0
 11
265.0
 21
212.16187
 31
0.0
  0
LINE
  8
0
  6
CONTINUOUS
 62
   249
 10
265.0
 20
237.8468
 30
0.0
 11
265.0
 21
232.16187
 31
0.0
  0
LINE
  8
0
  6
CONTINUOUS
 62
   249
 10
265.0
 20
232.16187
 30
0.0
 11
264.0
 21
231.16187
 31
0.0
  0
LINE
  8
0
  6
CONTINUOUS
 62
   249
 10
265.0
 20
237.8468
 30
0.0
 11
264.0
 21
238.8468
 31
0.0
  0
LINE
  8
0
  6
DASHED
 62
   249
 10
265.0
 20
157.5
 30
0.0
 11
282.5
 21
157.5
 31
0.0
  0
LINE
  8
0
  6
DASHED
 62
   249
 10
282.5
 20
197.5
 30
0.0
 11
265.0
 21
197.5
 31
0.0
  0
LINE
  8
0
  6
DASHED
 62
   249
 10
282.5
 20
217.5
 30
0.0
 11
265.0
 21
217.5
 31
0.0
  0
LINE
  8
0
  6
DASHED
 62
   249
 10
282.5
 20
237.5
 30
0.0
 11
265.0
 21
237.5
 31
0.0
  0
LINE
  8
0
  6
DASHED
 62
   249
 10
265.0
 20
177.5
 30
0.0
 11
282.5
 21
177.5
 31
0.0
  0
LINE
  8
0
  6
DASHED
 62
   249
 10
260.0
 20
147.5
 30
0.0
 11
282.5
 21
147.5
 31
0.0
  0
LINE
  8
0
  6
CONTINUOUS
 62
   249
 10
260.0
 20
152.5
 30
0.0
 11
262.5
 21
152.5
 31
0.0
  0
LINE
  8
0
  6
CONTINUOUS
 62
   249
 10
260.0
 20
157.5
 30
0.0
 11
262.5
 21
157.5
 31
0.0
  0
LINE
  8
0
  6
DASHED
 62
   249
 10
260.0
 20
167.5
 30
0.0
 11
282.5
 21
167.5
 31
0.0
  0
LINE
  8
0
  6
CONTINUOUS
 62
   249
 10
260.0
 20
172.5
 30
0.0
 11
262.5
 21
172.5
 31
0.0
  0
LINE
  8
0
  6
CONTINUOUS
 62
   249
 10
260.0
 20
177.5
 30
0.0
 11
262.5
 21
177.5
 31
0.0
  0
LINE
  8
0
  6
DASHED
 62
   249
 10
260.0
 20
187.5
 30
0.0
 11
282.5
 21
187.5
 31
0.0
  0
LINE
  8
0
  6
CONTINUOUS
 62
   249
 10
260.0
 20
192.5
 30
0.0
 11
262.5
 21
192.5
 31
0.0
  0
LINE
  8
0
  6
CONTINUOUS
 62
   249
 10
260.0
 20
197.5
 30
0.0
 11
262.5
 21
197.5
 31
0.0
  0
LINE
  8
0
  6
DASHED
 62
   249
 10
260.0
 20
207.5
 30
0.0
 11
282.5
 21
207.5
 31
0.0
  0
LINE
  8
0
  6
CONTINUOUS
 62
   249
 10
260.0
 20
212.5
 30
0.0
 11
262.5
 21
212.5
 31
0.0
  0
LINE
  8
0
  6
CONTINUOUS
 62
   249
 10
260.0
 20
217.5
 30
0.0
 11
262.5
 21
217.5
 31
0.0
  0
LINE
  8
0
  6
DASHED
 62
   249
 10
260.0
 20
227.5
 30
0.0
 11
282.5
 21
227.5
 31
0.0
  0
LINE
  8
0
  6
CONTINUOUS
 62
   249
 10
260.0
 20
232.5
 30
0.0
 11
262.5
 21
232.5
 31
0.0
  0
LINE
  8
0
  6
CONTINUOUS
 62
   249
 10
260.0
 20
237.5
 30
0.0
 11
262.5
 21
237.5
 31
0.0
  0
LINE
  8
0
  6
CONTINUOUS
 62
   249
 10
265.0
 20
122.16187
 30
0.0
 11
264.0
 21
121.16187
 31
0.0
  0
LINE
  8
0
  6
CONTINUOUS
 62
   249
 10
265.0
 20
127.8468
 30
0.0
 11
265.0
 21
122.16187
 31
0.0
  0
LINE
  8
0
  6
CONTINUOUS
 62
   249
 10
265.0
 20
127.8468
 30
0.0
 11
264.0
 21
128.8468
 31
0.0
  0
LINE
  8
0
  6
CONTINUOUS
 62
   249
 10
260.0
 20
127.5
 30
0.0
 11
262.5
 21
127.5
 31
0.0
  0
LINE
  8
0
  6
CONTINUOUS
 62
   249
 10
260.0
 20
122.5
 30
0.0
 11
262.5
 21
122.5
 31
0.0
  0
LINE
  8
0
  6
CONTINUOUS
 62
   249
 10
260.0
 20
102.5
 30
0.0
 11
262.5
 21
102.5
 31
0.0
  0
LINE
  8
0
  6
CONTINUOUS
 62
   249
 10
260.0
 20
107.5
 30
0.0
 11
262.5
 21
107.5
 31
0.0
  0
LINE
  8
0
  6
CONTINUOUS
 62
   249
 10
265.0
 20
107.8468
 30
0.0
 11
264.0
 21
108.8468
 31
0.0
  0
LINE
  8
0
  6
CONTINUOUS
 62
   249
 10
265.0
 20
107.8468
 30
0.0
 11
265.0
 21
102.16187
 31
0.0
  0
LINE
  8
0
  6
CONTINUOUS
 62
   249
 10
265.0
 20
102.16187
 30
0.0
 11
264.0
 21
101.16187
 31
0.0
  0
LINE
  8
0
  6
CONTINUOUS
 62
   249
 10
260.0
 20
82.5
 30
0.0
 11
262.5
 21
82.5
 31
0.0
  0
LINE
  8
0
  6
CONTINUOUS
 62
   249
 10
260.0
 20
87.5
 30
0.0
 11
262.5
 21
87.5
 31
0.0
  0
LINE
  8
0
  6
CONTINUOUS
 62
   249
 10
265.0
 20
87.8468
 30
0.0
 11
264.0
 21
88.8468
 31
0.0
  0
LINE
  8
0
  6
CONTINUOUS
 62
   249
 10
265.0
 20
87.8468
 30
0.0
 11
265.0
 21
82.16187
 31
0.0
  0
LINE
  8
0
  6
CONTINUOUS
 62
   249
 10
265.0
 20
82.16187
 30
0.0
 11
264.0
 21
81.16187
 31
0.0
  0
TEXT
  8
0
  6
DASHED
 62
   249
 10
265.363959
 20
238.294779
 30
0.0
 40
2.0
  1
1)
  7
ROMANS
  0
TEXT
  8
0
  6
DASHED
 62
   249
 10
265.363959
 20
218.294779
 30
0.0
 40
2.0
  1
1)
  7
ROMANS
  0
TEXT
  8
0
  6
DASHED
 62
   249
 10
265.363959
 20
198.294779
 30
0.0
 40
2.0
  1
1)
  7
ROMANS
  0
TEXT
  8
0
  6
DASHED
 62
   249
 10
265.363959
 20
178.294779
 30
0.0
 40
2.0
  1
1)
  7
ROMANS
  0
TEXT
  8
0
  6
DASHED
 62
   249
 10
265.363959
 20
158.294779
 30
0.0
 40
2.0
  1
1)
  7
ROMANS
  0
TEXT
  8
0
  6
DASHED
 62
   249
 10
265.363959
 20
128.294779
 30
0.0
 40
2.0
  1
1)
  7
ROMANS
  0
TEXT
  8
0
  6
DASHED
 62
   249
 10
265.363959
 20
108.294779
 30
0.0
 40
2.0
  1
1)
  7
ROMANS
  0
TEXT
  8
0
  6
DASHED
 62
   249
 10
265.363959
 20
88.294779
 30
0.0
 40
2.0
  1
1)
  7
ROMANS
  0
TEXT
  8
0
  6
DASHED
 62
   249
 10
317.5
 20
27.5
 30
0.0
 40
2.0
  1
CIRCUIT DIAGRAM / KRETSSCHEMA
  7
ROMANS
  0
TEXT
  8
0
  6
DASHED
 62
   249
 10
370.307098
 20
11.986662
 30
0.0
 40
2.0
  1
1
  7
ROMANS
  0
TEXT
  8
0
  6
CONTINUOUS
 62
   249
 10
202.381462
 20
207.078099
 30
0.0
 40
2.0
  1
I
  7
GREEKS
  0
LINE
  8
0
  6
CONTINUOUS
 62
   249
 10
208.262126
 20
209.090072
 30
0.0
 11
210.079543
 21
208.055487
 31
0.0
  0
TEXT
  8
0
  6
CONTINUOUS
 62
   249
 10
203.218347
 20
205.373672
 30
0.0
 40
1.3
  1
L1,L3
  7
ROMANS
  0
TEXT
  8
0
  6
CONTINUOUS
 62
   249
 10
200.396803
 20
207.09134
 30
0.0
 40
2.0
  1
2
  7
GREEKS
  0
TEXT
  8
0
  6
CONTINUOUS
 62
   249
 10
202.381462
 20
207.078099
 30
0.0
 40
2.0
  1
I
  7
GREEKS
  0
LINE
  8
0
  6
CONTINUOUS
 62
   249
 10
210.079543
 20
208.055487
 30
0.0
 11
208.262126
 21
207.133579
 31
0.0
  0
LINE
  8
0
  6
CONTINUOUS
 62
   249
 10
210.079543
 20
145.757326
 30
0.0
 11
208.262126
 21
144.835419
 31
0.0
  0
TEXT
  8
0
  6
CONTINUOUS
 62
   249
 10
202.381462
 20
144.779939
 30
0.0
 40
2.0
  1
I
  7
GREEKS
  0
TEXT
  8
0
  6
CONTINUOUS
 62
   249
 10
200.396803
 20
144.79318
 30
0.0
 40
2.0
  1
2
  7
GREEKS
  0
LINE
  8
0
  6
CONTINUOUS
 62
   249
 10
208.262126
 20
146.791912
 30
0.0
 11
210.079543
 21
145.757326
 31
0.0
  0
TEXT
  8
0
  6
CONTINUOUS
 62
   249
 10
202.381462
 20
144.779939
 30
0.0
 40
2.0
  1
I
  7
GREEKS
  0
TEXT
  8
0
  6
CONTINUOUS
 62
   249
 10
200.396803
 20
144.79318
 30
0.0
 40
2.0
  1
2
  7
GREEKS
  0
LINE
  8
0
  6
CONTINUOUS
 62
   249
 10
210.079543
 20
145.757326
 30
0.0
 11
208.262126
 21
144.835419
 31
0.0
  0
LINE
  8
0
  6
CONTINUOUS
 62
   249
 10
208.262126
 20
146.791912
 30
0.0
 11
210.079543
 21
145.757326
 31
0.0
  0
TEXT
  8
0
  6
CONTINUOUS
 62
   249
 10
203.142266
 20
142.809807
 30
0.0
 40
1.3
  1
L1,L2
  7
ROMANS
  0
TEXT
  8
0
  6
CONTINUOUS
 62
   249
 10
212.560522
 20
28.10378
 30
0.0
 40
2.0
  1
1993-01-29  JR / RITU
  7
ROMANS
  0
TEXT
  8
0
  6
CONTINUOUS
 62
   249
 10
317.5
 20
24.166667
 30
0.0
 40
2.0
  1
SPAC 538 C / E239
  7
ROMANS
  0
TEXT
  8
0
  6
CONTINUOUS
 62
   249
 10
322.5
 20
2.5
 30
0.0
 40
2.5
  1
RS 10190-AA
  7
ROMANS
  0
TEXT
  8
0
  6
CONTINUOUS
 62
   249
 10
380.0
 20
2.5
 30
0.0
 40
2.5
  1
B
  7
ROMANS
  0
LINE
  8
0
  6
CONTINUOUS
 62
   249
 10
122.5
 20
165.0
 30
0.0
 11
127.5
 21
165.0
 31
0.0
  0
LINE
  8
0
  6
CONTINUOUS
 62
   249
 10
127.5
 20
165.0
 30
0.0
 11
127.5
 21
212.5
 31
0.0
  0
LINE
  8
0
  6
CONTINUOUS
 62
   249
 10
87.5
 20
160.0
 30
0.0
 11
87.5
 21
185.0
 31
0.0
  0
LINE
  8
0
  6
CONTINUOUS
 62
   249
 10
87.5
 20
185.0
 30
0.0
 11
160.0
 21
185.0
 31
0.0
  0
LINE
  8
0
  6
CONTINUOUS
 62
   249
 10
62.5
 20
160.0
 30
0.0
 11
62.5
 21
165.0
 31
0.0
  0
LINE
  8
0
  6
CONTINUOUS
 62
   249
 10
62.5
 20
165.0
 30
0.0
 11
60.785914
 21
170.086297
 31
0.0
  0
TEXT
  8
0
  6
CONTINUOUS
 62
   249
 10
63.098159
 20
167.5
 30
0.0
 40
2.0
  1
6
  7
ROMANS
  0
LINE
  8
0
  6
CONTINUOUS
 62
   249
 10
62.5
 20
172.5
 30
0.0
 11
62.5
 21
170.0
 31
0.0
  0
LINE
  8
0
  6
CONTINUOUS
 62
   249
 10
118.718005
 20
200.0
 30
0.0
 11
155.0
 21
200.0
 31
0.0
  0
LINE
  8
0
  6
CONTINUOUS
 62
   249
 10
116.218005
 20
202.5
 30
0.0
 11
157.5
 21
202.5
 31
0.0
  0
LINE
  8
0
  6
CONTINUOUS
 62
   249
 10
118.718005
 20
197.877204
 30
0.0
 11
118.718005
 21
200.0
 31
0.0
  0
LINE
  8
0
  6
CONTINUOUS
 62
   249
 10
116.218005
 20
197.877204
 30
0.0
 11
116.218005
 21
202.5
 31
0.0
  0
LINE
  8
0
  6
CONTINUOUS
 62
   249
 10
210.450615
 20
200.0
 30
0.0
 11
220.0
 21
200.0
 31
0.0
  0
LINE
  8
0
  6
CONTINUOUS
 62
   249
 10
220.0
 20
200.0
 30
0.0
 11
220.0
 21
150.0
 31
0.0
  0
LINE
  8
0
  6
CONTINUOUS
 62
   249
 10
220.0
 20
150.0
 30
0.0
 11
210.450615
 21
150.0
 31
0.0
  0
TEXT
  8
0
  6
HIDDEN
 62
   249
 10
255.929881
 20
128.686149
 30
0.0
 40
2.0
  1
X0
  7
ROMANS
  0
LINE
  8
0
  6
HIDDEN
 62
   249
 10
260.0
 20
132.5
 30
0.0
 11
255.0
 21
132.5
 31
0.0
  0
LINE
  8
0
  6
HIDDEN
 62
   249
 10
260.0
 20
142.5
 30
0.0
 11
255.0
 21
142.5
 31
0.0
  0
LINE
  8
0
  6
HIDDEN
 62
   249
 10
255.0
 20
132.5
 30
0.0
 11
255.0
 21
72.5
 31
0.0
  0
TEXT
  8
0
  6
CONTINUOUS
 62
   249
 10
277.5
 20
136.567043
 30
0.0
 40
2.0
  1
6)
  7
ROMANS
  0
TEXT
  8
0
  6
CONTINUOUS
 62
   249
 10
233.107305
 20
133.079353
 30
0.0
 40
2.0
  1
SERIAL PORT
  7
ROMANS
  0
TEXT
  8
0
  6
CONTINUOUS
 62
   249
 10
249.611796
 20
139.712024
 30
0.0
 40
2.0
  1
9
  7
ROMANS
  0
LINE
  8
0
  6
CONTINUOUS
 62
   249
 10
247.995525
 20
136.359579
 30
0.0
 11
250.276367
 21
138.640421
 31
0.0
  0
LINE
  8
0
  6
CONTINUOUS
 62
   249
 10
220.0
 20
155.0
 30
0.0
 11
230.0
 21
155.0
 31
0.0
  0
LINE
  8
0
  6
CONTINUOUS
 62
   249
 10
230.0
 20
155.0
 30
0.0
 11
230.0
 21
137.5
 31
0.0
  0
LINE
  8
0
  6
CONTINUOUS
 62
   249
 10
230.0
 20
137.5
 30
0.0
 11
260.0
 21
137.5
 31
0.0
  0
INSERT
  8
0
  6
CONTINUOUS
 62
   249
  2
BLC29
 10
238.06021
 20
137.371524
 30
0.0
 41
-1.0
 50
180.0
  0
TEXT
  8
0
  6
CONTINUOUS
 62
   249
 10
140.0
 20
43.623795
 30
0.0
 40
2.0
  1
6) BUS CONNECTION, TTL-LEVEL
  7
ROMANS
  0
TEXT
  8
0
  6
CONTINUOUS
 62
   249
 10
141.317939
 20
40.290462
 30
0.0
 40
2.0
  1
  BUSSANSLUTNING, TTL-NIVÅ
  7
ROMANS
  0
LINE
  8
0
  6
CONTINUOUS
 62
   249
 10
199.245829
 20
126.344657
 30
0.0
 11
199.245829
 21
124.556525
 31
0.0
  0
LINE
  8
0
  6
CONTINUOUS
 62
   249
 10
194.22971
 20
124.331776
 30
0.0
 11
197.105821
 21
127.160334
 31
0.0
  0
LINE
  8
0
  6
CONTINUOUS
 62
   249
 10
196.675117
 20
127.697541
 30
0.0
 11
197.575794
 21
126.573792
 31
0.0
  0
LINE
  8
0
  6
CONTINUOUS
 62
   249
 10
192.102084
 20
125.499378
 30
0.0
 11
199.25037
 21
125.499378
 31
0.0
  0
LINE
  8
0
  6
CONTINUOUS
 62
   249
 10
192.102084
 20
126.344657
 30
0.0
 11
192.102084
 21
124.556525
 31
0.0
  0
LINE
  8
0
  6
CONTINUOUS
 62
   249
 10
185.333062
 20
127.107132
 30
0.0
 11
187.678827
 21
125.771779
 31
0.0
  0
LINE
  8
0
  6
CONTINUOUS
 62
   249
 10
187.678827
 20
125.771779
 30
0.0
 11
185.333062
 21
124.58186
 31
0.0
  0
LINE
  8
0
  6
CONTINUOUS
 62
   249
 10
187.135452
 20
127.107132
 30
0.0
 11
189.481217
 21
125.771779
 31
0.0
  0
LINE
  8
0
  6
CONTINUOUS
 62
   249
 10
189.481217
 20
125.771779
 30
0.0
 11
187.135452
 21
124.58186
 31
0.0
  0
TEXT
  8
0
  6
CONTINUOUS
 62
   249
 10
183.770128
 20
124.569175
 30
0.0
 40
2.5
  1
I
 11
183.770128
 21
123.735842
 31
0.0
 73
     1
  0
LINE
  8
0
  6
CONTINUOUS
 62
   249
 10
191.384084
 20
125.771779
 30
0.0
 11
189.038319
 21
124.58186
 31
0.0
  0
LINE
  8
0
  6
CONTINUOUS
 62
   249
 10
189.038319
 20
127.107132
 30
0.0
 11
191.384084
 21
125.771779
 31
0.0
  0
LINE
  8
0
  6
CONTINUOUS
 62
   249
 10
189.038319
 20
133.762796
 30
0.0
 11
191.384084
 21
132.427442
 31
0.0
  0
LINE
  8
0
  6
CONTINUOUS
 62
   249
 10
191.384084
 20
132.427442
 30
0.0
 11
189.038319
 21
131.237523
 31
0.0
  0
TEXT
  8
0
  6
CONTINUOUS
 62
   249
 10
183.770128
 20
131.224838
 30
0.0
 40
2.5
  1
I
 11
183.770128
 21
130.391505
 31
0.0
 73
     1
  0
LINE
  8
0
  6
CONTINUOUS
 62
   249
 10
189.481217
 20
132.427442
 30
0.0
 11
187.135452
 21
131.237523
 31
0.0
  0
LINE
  8
0
  6
CONTINUOUS
 62
   249
 10
187.135452
 20
133.762796
 30
0.0
 11
189.481217
 21
132.427442
 31
0.0
  0
LINE
  8
0
  6
CONTINUOUS
 62
   249
 10
187.678827
 20
132.427442
 30
0.0
 11
185.333062
 21
131.237523
 31
0.0
  0
LINE
  8
0
  6
CONTINUOUS
 62
   249
 10
185.333062
 20
133.762796
 30
0.0
 11
187.678827
 21
132.427442
 31
0.0
  0
LINE
  8
0
  6
CONTINUOUS
 62
   249
 10
369.166854
 20
198.412135
 30
0.0
 11
366.821088
 21
197.222216
 31
0.0
  0
LINE
  8
0
  6
CONTINUOUS
 62
   249
 10
366.821088
 20
199.747488
 30
0.0
 11
369.166854
 21
198.412135
 31
0.0
  0
LINE
  8
0
  6
CONTINUOUS
 62
   249
 10
368.709814
 20
199.747488
 30
0.0
 11
371.05558
 21
198.412135
 31
0.0
  0
LINE
  8
0
  6
CONTINUOUS
 62
   249
 10
371.05558
 20
198.412135
 30
0.0
 11
368.709814
 21
197.222216
 31
0.0
  0
LINE
  8
0
  6
CONTINUOUS
 62
   249
 10
370.548094
 20
162.132626
 30
0.0
 11
372.893859
 21
160.797273
 31
0.0
  0
LINE
  8
0
  6
CONTINUOUS
 62
   249
 10
372.893859
 20
160.797273
 30
0.0
 11
370.548094
 21
159.607354
 31
0.0
  0
LINE
  8
0
  6
CONTINUOUS
 62
   249
 10
371.05558
 20
160.797273
 30
0.0
 11
368.709814
 21
159.607354
 31
0.0
  0
LINE
  8
0
  6
CONTINUOUS
 62
   249
 10
368.709814
 20
162.132626
 30
0.0
 11
371.05558
 21
160.797273
 31
0.0
  0
LINE
  8
0
  6
CONTINUOUS
 62
   249
 10
366.821088
 20
162.132626
 30
0.0
 11
369.166854
 21
160.797273
 31
0.0
  0
LINE
  8
0
  6
CONTINUOUS
 62
   249
 10
369.166854
 20
160.797273
 30
0.0
 11
366.821088
 21
159.607354
 31
0.0
  0
TEXT
  8
0
  6
DASHED
 62
   249
 10
364.383505
 20
159.633244
 30
0.0
 40
2.5
  1
I
  7
GREEKS
  0
TEXT
  8
0
  6
DASHED
 62
   249
 10
362.133208
 20
159.646179
 30
0.0
 40
2.0
  1
2
  7
GREEKS
  0
TEXT
  8
0
  6
DASHED
 62
   249
 10
362.133208
 20
171.175334
 30
0.0
 40
2.0
  1
2
  7
GREEKS
  0
TEXT
  8
0
  6
DASHED
 62
   249
 10
364.383505
 20
171.162399
 30
0.0
 40
2.5
  1
I
  7
GREEKS
  0
LINE
  8
0
  6
CONTINUOUS
 62
   249
 10
369.166854
 20
172.326427
 30
0.0
 11
366.821088
 21
171.136508
 31
0.0
  0
LINE
  8
0
  6
CONTINUOUS
 62
   249
 10
366.821088
 20
173.661781
 30
0.0
 11
369.166854
 21
172.326427
 31
0.0
  0
LINE
  8
0
  6
CONTINUOUS
 62
   249
 10
368.709814
 20
173.661781
 30
0.0
 11
371.05558
 21
172.326427
 31
0.0
  0
LINE
  8
0
  6
CONTINUOUS
 62
   249
 10
371.05558
 20
172.326427
 30
0.0
 11
368.709814
 21
171.136508
 31
0.0
  0
LINE
  8
0
  6
DASHED
 62
   249
 10
260.0
 20
117.5
 30
0.0
 11
282.5
 21
117.5
 31
0.0
  0
LINE
  8
0
  6
DASHED
 62
   249
 10
265.0
 20
127.5
 30
0.0
 11
282.5
 21
127.5
 31
0.0
  0
LINE
  8
0
  6
DASHED
 62
   249
 10
260.0
 20
97.5
 30
0.0
 11
282.5
 21
97.5
 31
0.0
  0
LINE
  8
0
  6
DASHED
 62
   249
 10
265.0
 20
107.5
 30
0.0
 11
282.5
 21
107.5
 31
0.0
  0
LINE
  8
0
  6
DASHED
 62
   249
 10
260.0
 20
77.5
 30
0.0
 11
282.5
 21
77.5
 31
0.0
  0
LINE
  8
0
  6
DASHED
 62
   249
 10
265.0
 20
87.5
 30
0.0
 11
282.5
 21
87.5
 31
0.0
  0
LINE
  8
0
  6
DASHED
 62
   249
 10
312.5
 20
222.5
 30
0.0
 11
312.5
 21
102.5
 31
0.0
  0
LINE
  8
0
  6
DASHED
 62
   249
 10
312.5
 20
237.5
 30
0.0
 11
312.5
 21
230.541623
 31
0.0
  0
CIRCLE
  8
0
  6
CONTINUOUS
 62
   249
 10
312.5
 20
228.041623
 30
0.0
 40
2.5
  0
CIRCLE
  8
0
  6
CONTINUOUS
 62
   249
 10
312.5
 20
225.0
 30
0.0
 40
2.5
  0
LINE
  8
0
  6
DASHED
 62
   249
 10
312.5
 20
102.5
 30
0.0
 11
287.5
 21
102.5
 31
0.0
  0
LINE
  8
0
  6
CONTINUOUS
 62
   249
 10
287.5
 20
77.5
 30
0.0
 11
286.5
 21
76.5
 31
0.0
  0
LINE
  8
0
  6
CONTINUOUS
 62
   249
 10
287.5
 20
77.5
 30
0.0
 11
287.5
 21
107.5
 31
0.0
  0
LINE
  8
0
  6
CONTINUOUS
 62
   249
 10
287.5
 20
107.5
 30
0.0
 11
287.5
 21
127.5
 31
0.0
  0
LINE
  8
0
  6
CONTINUOUS
 62
   249
 10
287.5
 20
127.5
 30
0.0
 11
286.5
 21
128.5
 31
0.0
  0
LINE
  8
0
  6
DASHED
 62
   249
 10
287.5
 20
202.5
 30
0.0
 11
295.0
 21
202.5
 31
0.0
  0
CIRCLE
  8
0
  6
CONTINUOUS
 62
   249
 10
297.5
 20
202.5
 30
0.0
 40
2.5
  0
LINE
  8
0
  6
DASHED
 62
   249
 10
305.0
 20
152.5
 30
0.0
 11
287.5
 21
152.5
 31
0.0
  0
LINE
  8
0
  6
DASHED
 62
   249
 10
297.5
 20
237.5
 30
0.0
 11
297.5
 21
177.5
 31
0.0
  0
LINE
  8
0
  6
DASHED
 62
   249
 10
305.0
 20
237.5
 30
0.0
 11
305.0
 21
230.541623
 31
0.0
  0
LINE
  8
0
  6
DASHED
 62
   249
 10
292.5
 20
237.5
 30
0.0
 11
325.0
 21
237.5
 31
0.0
  0
CIRCLE
  8
0
  6
CONTINUOUS
 62
   249
 10
305.0
 20
228.041623
 30
0.0
 40
2.5
  0
LINE
  8
0
  6
CONTINUOUS
 62
   249
 10
287.5
 20
157.5
 30
0.0
 11
287.5
 21
147.5
 31
0.0
  0
LINE
  8
0
  6
CONTINUOUS
 62
   249
 10
287.5
 20
157.5
 30
0.0
 11
286.5
 21
158.5
 31
0.0
  0
LINE
  8
0
  6
CONTINUOUS
 62
   249
 10
287.5
 20
147.5
 30
0.0
 11
286.5
 21
146.5
 31
0.0
  0
LINE
  8
0
  6
DASHED
 62
   249
 10
305.0
 20
222.5
 30
0.0
 11
305.0
 21
152.5
 31
0.0
  0
CIRCLE
  8
0
  6
CONTINUOUS
 62
   249
 10
305.0
 20
225.0
 30
0.0
 40
2.5
  0
LINE
  8
0
  6
CONTINUOUS
 62
   249
 10
287.5
 20
237.5
 30
0.0
 11
286.5
 21
238.5
 31
0.0
  0
LINE
  8
0
  6
CONTINUOUS
 62
   249
 10
287.5
 20
217.5
 30
0.0
 11
287.5
 21
237.5
 31
0.0
  0
LINE
  8
0
  6
CONTINUOUS
 62
   249
 10
287.5
 20
167.5
 30
0.0
 11
287.5
 21
217.5
 31
0.0
  0
LINE
  8
0
  6
CONTINUOUS
 62
   249
 10
287.5
 20
167.5
 30
0.0
 11
286.5
 21
166.5
 31
0.0
  0
TEXT
  8
0
  6
CONTINUOUS
 62
   249
 10
275.0
 20
233.554176
 30
0.0
 40
2.0
  1
L1
  7
ROMANS
  0
TEXT
  8
0
  6
CONTINUOUS
 62
   249
 10
275.0
 20
213.535774
 30
0.0
 40
2.0
  1
L2
  7
ROMANS
  0
TEXT
  8
0
  6
CONTINUOUS
 62
   249
 10
275.0
 20
193.493137
 30
0.0
 40
2.0
  1
L3
  7
ROMANS
  0
TEXT
  8
0
  6
CONTINUOUS
 62
   249
 10
275.0
 20
123.283699
 30
0.0
 40
2.0
  1
U12
  7
ROMANS
  0
TEXT
  8
0
  6
CONTINUOUS
 62
   249
 10
275.0
 20
103.81056
 30
0.0
 40
2.0
  1
U23
  7
ROMANS
  0
TEXT
  8
0
  6
CONTINUOUS
 62
   249
 10
275.0
 20
83.561935
 30
0.0
 40
2.0
  1
U31
  7
ROMANS
  0
TEXT
  8
0
  6
CONTINUOUS
 62
   249
 10
275.0
 20
223.554176
 30
0.0
 40
2.0
  1
L1
  7
ROMANS
  0
TEXT
  8
0
  6
CONTINUOUS
 62
   249
 10
275.0
 20
203.535774
 30
0.0
 40
2.0
  1
L2
  7
ROMANS
  0
TEXT
  8
0
  6
CONTINUOUS
 62
   249
 10
275.0
 20
183.493137
 30
0.0
 40
2.0
  1
L3
  7
ROMANS
  0
TEXT
  8
0
  6
CONTINUOUS
 62
   249
 10
275.0
 20
93.81056
 30
0.0
 40
2.0
  1
U23
  7
ROMANS
  0
TEXT
  8
0
  6
CONTINUOUS
 62
   249
 10
275.0
 20
73.561935
 30
0.0
 40
2.0
  1
U31
  7
ROMANS
  0
TEXT
  8
0
  6
CONTINUOUS
 62
   249
 10
275.0
 20
113.283699
 30
0.0
 40
2.0
  1
U12
  7
ROMANS
  0
TEXT
  8
0
  6
CONTINUOUS
 62
   249
 10
275.003515
 20
173.048897
 30
0.0
 40
2.5
  1
I
 11
275.003515
 21
172.215563
 31
0.0
 73
     1
  0
TEXT
  8
0
  6
HIDDEN
 62
   249
 10
274.982667
 20
153.568326
 30
0.0
 40
2.0
  1
Uo
  7
ROMANS
  0
TEXT
  8
0
  6
CONTINUOUS
 62
   249
 10
275.003515
 20
163.048897
 30
0.0
 40
2.5
  1
I
 11
275.003515
 21
162.215563
 31
0.0
 73
     1
  0
TEXT
  8
0
  6
HIDDEN
 62
   249
 10
274.982667
 20
143.568326
 30
0.0
 40
2.0
  1
Uo
  7
ROMANS
  0
CIRCLE
  8
0
  6
CONTINUOUS
 62
   249
 10
120.0
 20
105.0
 30
0.0
 40
0.740939
  0
CIRCLE
  8
0
  6
CONTINUOUS
 62
   249
 10
102.5
 20
120.0
 30
0.0
 40
0.740939
  0
CIRCLE
  8
0
  6
CONTINUOUS
 62
   249
 10
85.0
 20
135.0
 30
0.0
 40
0.740939
  0
CIRCLE
  8
0
  6
CONTINUOUS
 62
   249
 10
135.0
 20
90.0
 30
0.0
 40
0.740939
  0
CIRCLE
  8
0
  6
CONTINUOUS
 62
   249
 10
62.5
 20
145.0
 30
0.0
 40
0.740939
  0
TEXT
  8
0
  6
CONTINUOUS
 62
   249
 10
348.229337
 20
108.489461
 30
0.0
 40
2.0
  1
SPAC 538 C / E239
  7
ROMANS
  0
TEXT
  8
0
  6
CONTINUOUS
 62
   249
 10
386.273036
 20
114.586093
 30
0.0
 40
1.8
  1
132,5 mm
 50
90.0
  7
ROMANS
  0
TEXT
  8
0
  6
CONTINUOUS
 62
   249
 10
352.841927
 20
127.932329
 30
0.0
 40
1.8
  1
482,6 mm (19")
  7
ROMANS
  0
LINE
  8
0
  6
CONTINUOUS
 62
   249
 10
382.10677
 20
125.989461
 30
0.0
 11
347.10677
 21
125.989461
 31
0.0
  0
LINE
  8
0
  6
CONTINUOUS
 62
   249
 10
382.10677
 20
113.489461
 30
0.0
 11
382.10677
 21
125.989461
 31
0.0
  0
LINE
  8
0
  6
CONTINUOUS
 62
   249
 10
347.10677
 20
113.489461
 30
0.0
 11
382.10677
 21
113.489461
 31
0.0
  0
LINE
  8
0
  6
CONTINUOUS
 62
   249
 10
347.10677
 20
125.989461
 30
0.0
 11
347.10677
 21
113.489461
 31
0.0
  0
LINE
  8
0
  6
CONTINUOUS
 62
   249
 10
25.0
 20
135.0
 30
0.0
 11
25.0
 21
130.0
 31
0.0
  0
LINE
  8
0
  6
CONTINUOUS
 62
   249
 10
25.0
 20
129.999655
 30
0.0
 11
26.0
 21
128.999655
 31
0.0
  0
LINE
  8
0
  6
CONTINUOUS
 62
   249
 10
25.0
 20
135.0
 30
0.0
 11
26.0
 21
136.0
 31
0.0
  0
LINE
  8
0
  6
CONTINUOUS
 62
   249
 10
210.450615
 20
161.768888
 30
0.0
 11
220.0
 21
161.768888
 31
0.0
  0
LINE
  8
0
  6
CONTINUOUS
 62
   249
 10
180.0
 20
122.5
 30
0.0
 11
180.0
 21
117.5
 31
0.0
  0
LINE
  8
0
  6
CONTINUOUS
 62
   249
 10
180.0
 20
117.5
 30
0.0
 11
180.0
 21
112.5
 31
0.0
  0
LINE
  8
0
  6
CONTINUOUS
 62
   249
 10
180.0
 20
112.5
 30
0.0
 11
210.450615
 21
112.5
 31
0.0
  0
LINE
  8
0
  6
CONTINUOUS
 62
   249
 10
210.450615
 20
117.5
 30
0.0
 11
180.0
 21
117.5
 31
0.0
  0
TEXT
  8
0
  6
CONTINUOUS
 62
   249
 10
185.463917
 20
118.574113
 30
0.0
 40
2.0
  1
SERIAL I/O
  0
TEXT
  8
0
  6
CONTINUOUS
 62
   249
 10
192.05361
 20
114.174606
 30
0.0
 40
2.0
  1
IRF
  0
LINE
  8
0
  6
CONTINUOUS
 62
   249
 10
210.450615
 20
119.797644
 30
0.0
 11
215.0
 21
119.797644
 31
0.0
  0
LINE
  8
0
  6
CONTINUOUS
 62
   249
 10
215.0
 20
119.797644
 30
0.0
 11
215.0
 21
105.0
 31
0.0
  0
LINE
  8
0
  6
CONTINUOUS
 62
   249
 10
215.0
 20
105.0
 30
0.0
 11
215.0
 21
62.5
 31
0.0
  0
LINE
  8
0
  6
CONTINUOUS
 62
   249
 10
215.0
 20
62.5
 30
0.0
 11
260.0
 21
62.5
 31
0.0
  0
TEXT
  8
0
  6
HIDDEN
 62
   249
 10
41.603026
 20
52.256087
 30
0.0
 40
2.0
  1
9
  7
ROMANS
  0
TEXT
  8
0
  6
HIDDEN
 62
   249
 10
40.380937
 20
57.186614
 30
0.0
 40
2.0
  1
10
  7
ROMANS
  0
TEXT
  8
0
  6
HIDDEN
 62
   249
 10
41.603026
 20
62.260338
 30
0.0
 40
2.0
  1
8
  7
ROMANS
  0
LINE
  8
0
  6
HIDDEN
 62
   249
 10
45.0
 20
69.47351
 30
0.0
 11
40.0
 21
69.47351
 31
0.0
  0
TEXT
  8
0
  6
HIDDEN
 62
   249
 10
40.745853
 20
66.476621
 30
0.0
 40
2.0
  1
X1
  7
ROMANS
  0
LINE
  8
0
  6
HIDDEN
 62
   249
 10
45.0
 20
50.634599
 30
0.0
 11
45.0
 21
69.47351
 31
0.0
  0
LINE
  8
0
  6
CONTINUOUS
 62
   249
 10
40.0
 20
65.0
 30
0.0
 11
45.0
 21
65.0
 31
0.0
  0
LINE
  8
0
  6
CONTINUOUS
 62
   249
 10
40.0
 20
60.0
 30
0.0
 11
45.0
 21
60.0
 31
0.0
  0
LINE
  8
0
  6
CONTINUOUS
 62
   249
 10
40.0
 20
55.0
 30
0.0
 11
45.0
 21
55.0
 31
0.0
  0
LINE
  8
0
  6
CONTINUOUS
 62
   249
 10
149.353436
 20
64.638137
 30
0.0
 11
144.256076
 21
61.785297
 31
0.0
  0
CIRCLE
  8
0
  6
CONTINUOUS
 62
   249
 10
150.0
 20
65.0
 30
0.0
 40
0.740939
  0
LINE
  8
0
  6
CONTINUOUS
 62
   249
 10
152.5
 20
65.0
 30
0.0
 11
152.5
 21
55.0
 31
0.0
  0
LINE
  8
0
  6
CONTINUOUS
 62
   249
 10
150.740939
 20
65.0
 30
0.0
 11
152.5
 21
65.0
 31
0.0
  0
LINE
  8
0
  6
CONTINUOUS
 62
   249
 10
45.0
 20
65.0
 30
0.0
 11
145.075677
 21
65.0
 31
0.0
  0
LINE
  8
0
  6
CONTINUOUS
 62
   249
 10
145.0
 20
60.0
 30
0.0
 11
145.0
 21
62.5
 31
0.0
  0
LINE
  8
0
  6
CONTINUOUS
 62
   249
 10
45.0
 20
60.0
 30
0.0
 11
145.0
 21
60.0
 31
0.0
  0
TEXT
  8
0
  6
CONTINUOUS
 62
   249
 10
146.753053
 20
56.269424
 30
0.0
 40
2.0
  1
IRF
  7
ROMANS
  0
LINE
  8
0
  6
DASHED
 62
   249
 10
147.5
 20
63.600824
 30
0.0
 11
147.5
 21
115.0
 31
0.0
  0
LINE
  8
0
  6
CONTINUOUS
 62
   249
 10
147.5
 20
115.0
 30
0.0
 11
180.0
 21
115.0
 31
0.0
  0
LINE
  8
0
  6
CONTINUOUS
 62
   249
 10
261.819436
 20
62.903461
 30
0.0
 11
261.819436
 21
61.923461
 31
0.0
  0
LINE
  8
0
  6
CONTINUOUS
 62
   249
 10
261.819436
 20
61.923461
 30
0.0
 11
265.249436
 21
61.923461
 31
0.0
  0
LINE
  8
0
  6
CONTINUOUS
 62
   249
 10
265.249436
 20
61.923461
 30
0.0
 11
265.249436
 21
62.903461
 31
0.0
  0
LINE
  8
0
  6
CONTINUOUS
 62
   249
 10
265.249436
 20
62.903461
 30
0.0
 11
261.819436
 21
62.903461
 31
0.0
  0
LINE
  8
0
  6
DASHED
 62
   249
 10
265.0
 20
62.413461
 30
0.0
 11
275.0
 21
62.413461
 31
0.0
  0
ARC
  8
0
  6
CONTINUOUS
 62
   249
 10
262.5
 20
62.413461
 30
0.0
 40
2.5
 50
90.0
 51
270.0
  0
TEXT
  8
0
  6
CONTINUOUS
 62
   249
 10
235.0
 20
57.5
 30
0.0
 40
2.0
  1
SERIAL PORT
  7
ROMANS
  0
TEXT
  8
0
  6
CONTINUOUS
 62
   249
 10
251.876974
 20
61.562827
 30
0.0
 40
2.0
  1
/
  7
ROMANS
  0
TEXT
  8
0
  6
HIDDEN
 62
   249
 10
255.86752
 20
63.834648
 30
0.0
 40
2.0
  1
9
  7
ROMANS
  0
TEXT
  8
0
  6
HIDDEN
 62
   249
 10
277.230107
 20
61.474361
 30
0.0
 40
2.0
  1
8)
  7
ROMANS
  0
TEXT
  8
0
  6
CONTINUOUS
 62
   249
 10
140.0
 20
33.623795
 30
0.0
 40
2.0
  1
7) INTERNAL RELAY FAULT /
  7
ROMANS
  0
TEXT
  8
0
  6
CONTINUOUS
 62
   249
 10
145.320088
 20
30.290462
 30
0.0
 40
2.0
  1
INTERNT RELÄFEL
  7
ROMANS
  0
TEXT
  8
0
  6
CONTINUOUS
 62
   249
 10
140.0
 20
23.623795
 30
0.0
 40
2.0
  1
8) BUS CONNECTION MODULE /
  7
ROMANS
  0
TEXT
  8
0
  6
CONTINUOUS
 62
   249
 10
145.320088
 20
20.290462
 30
0.0
 40
2.0
  1
BUSSANSLUTNINGSMODUL
  7
ROMANS
  0
TEXT
  8
0
  6
CONTINUOUS
 62
   249
 10
52.29221
 20
1.496873
 30
0.0
 40
2.0
  1
SERIAL I/O AND IRF ADDITION TO UNITS U1,U2,U3 1993-06-22 KM / RITU Power
  7
ROMANS
  0
LINE
  8
0
  6
CONTINUOUS
 62
   249
 10
45.0
 20
55.0
 30
0.0
 11
152.5
 21
55.0
 31
0.0
  0
LINE
  8
0
  6
HIDDEN
 62
   249
 10
45.0
 20
50.634599
 30
0.0
 11
40.0
 21
50.634599
 31
0.0
  0
LINE
  8
0
  6
DASHED
 62
   249
 10
40.0
 20
55.0
 30
0.0
 11
27.5
 21
55.0
 31
0.0
  0
TEXT
  8
0
  6
CONTINUOUS
 62
   249
 10
17.993014
 20
56.495657
 30
0.0
 40
2.0
  1
7)
  7
ROMANS
  0
LINE
  8
0
  6
DASHED
 62
   249
 10
40.0
 20
60.0
 30
0.0
 11
27.5
 21
60.0
 31
0.0
  0
TEXT
  8
0
  6
DASHED
 62
   249
 10
354.531451
 20
16.135576
 30
0.0
 40
1.4
  1
LEHTI SHEET
  7
STAND
  0
LINE
  8
0
 62
   249
 10
0.577972
 20
0.580166
 30
0.0
 11
0.577972
 21
263.080166
 31
0.0
  0
LINE
  8
0
 62
   249
 10
392.577972
 20
263.080166
 30
0.0
 11
392.577972
 21
0.580166
 31
0.0
  0
LINE
  8
0
 62
   249
 10
0.577972
 20
0.580166
 30
0.0
 11
392.577972
 21
0.580166
 31
0.0
  0
TEXT
  8
0
 62
   249
 10
42.577972
 20
5.929675
 30
0.0
 40
2.5
  1
C
  7
ROMANS
  0
TEXT
  8
0
 62
   249
 10
42.577972
 20
1.537459
 30
0.0
 40
2.5
  1
B
  7
ROMANS
  0
TEXT
  8
0
 62
   249
 10
257.747879
 20
2.08395
 30
0.0
 40
3.0
  1
Power
 41
0.8
  7
ROMANS
  0
TEXT
  8
0
 62
   249
 10
273.577972
 20
7.580166
 30
0.0
 40
1.4
  1
VAST.OSASTO RESP.DEPT.
  7
ROMANS
  0
TEXT
  8
0
 62
   249
 10
210.577972
 20
32.580166
 30
0.0
 40
1.4
  1
TEKI  PREPARED
  7
ROMANS
  0
LINE
  8
0
 62
   249
 10
271.577972
 20
10.080166
 30
0.0
 11
271.577972
 21
0.580166
 31
0.0
  0
LINE
  8
0
 62
   249
 10
257.577972
 20
10.080166
 30
0.0
 11
257.577972
 21
35.580166
 31
0.0
  0
LINE
  8
0
 62
   249
 10
41.077972
 20
5.080166
 30
0.0
 11
209.577972
 21
5.080166
 31
0.0
  0
LINE
  8
0
 62
   249
 10
47.077972
 20
0.580166
 30
0.0
 11
47.077972
 21
9.580166
 31
0.0
  0
LINE
  8
0
 62
   249
 10
47.077972
 20
9.580166
 30
0.0
 11
209.577972
 21
9.580166
 31
0.0
  0
TEXT
  8
0
 62
   249
 10
28.077972
 20
2.813499
 30
0.0
 40
1.4
  1
REVISION
  7
ROMANS
  0
TEXT
  8
0
 62
   249
 10
28.077972
 20
5.080166
 30
0.0
 40
1.4
  1
MUUTOS
  7
ROMANS
  0
LINE
  8
0
 62
   249
 10
282.577972
 20
10.080166
 30
0.0
 11
282.577972
 21
18.580166
 31
0.0
  0
TEXT
  8
0
 62
   249
 10
238.077972
 20
2.080166
 30
0.0
 40
3.0
  1
Strömberg
 41
0.8
  7
ROMANS
  0
TEXT
  8
0
 62
   249
 10
230.077972
 20
2.080166
 30
0.0
 40
3.0
  1
ABB 
 41
0.8
  7
ROMANS
  0
LINE
  8
0
 62
   249
 10
223.477972
 20
2.080166
 30
0.0
 11
223.477972
 21
5.440166
 31
0.0
  0
LINE
  8
0
 62
   249
 10
223.477972
 20
9.080166
 30
0.0
 11
225.437972
 21
9.080166
 31
0.0
  0
LINE
  8
0
 62
   249
 10
225.437972
 20
9.080166
 30
0.0
 11
225.437972
 21
5.720166
 31
0.0
  0
LINE
  8
0
 62
   249
 10
225.437972
 20
5.720166
 30
0.0
 11
223.477972
 21
5.720166
 31
0.0
  0
LINE
  8
0
 62
   249
 10
223.477972
 20
5.440166
 30
0.0
 11
225.437972
 21
5.440166
 31
0.0
  0
LINE
  8
0
 62
   249
 10
225.437972
 20
5.440166
 30
0.0
 11
225.437972
 21
2.080166
 31
0.0
  0
LINE
  8
0
 62
   249
 10
225.437972
 20
2.080166
 30
0.0
 11
223.477972
 21
2.080166
 31
0.0
  0
LINE
  8
0
 62
   249
 10
223.477972
 20
5.720166
 30
0.0
 11
223.477972
 21
9.080166
 31
0.0
  0
ARC
  8
0
 62
   249
 10
226.277972
 20
7.505166
 30
0.0
 40
1.575
 50
298.455859
 51
90.052437
  0
LINE
  8
0
 62
   249
 10
225.717972
 20
9.080166
 30
0.0
 11
226.27653
 21
9.080165
 31
0.0
  0
LINE
  8
0
 62
   249
 10
225.717972
 20
9.080166
 30
0.0
 11
225.717972
 21
5.720166
 31
0.0
  0
LINE
  8
0
 62
   249
 10
225.717972
 20
5.720166
 30
0.0
 11
227.702415
 21
5.720166
 31
0.0
  0
LINE
  8
0
 62
   249
 10
227.957972
 20
5.440166
 30
0.0
 11
225.717972
 21
5.440166
 31
0.0
  0
LINE
  8
0
 62
   249
 10
225.717972
 20
5.440166
 30
0.0
 11
225.717972
 21
2.080166
 31
0.0
  0
ARC
  8
0
 62
   249
 10
226.277972
 20
4.180166
 30
0.0
 40
2.1
 50
269.937724
 51
37.056553
  0
LINE
  8
0
 62
   249
 10
225.717972
 20
2.080166
 30
0.0
 11
226.275689
 21
2.080167
 31
0.0
  0
ARC
  8
0
 62
   249
 10
226.277972
 20
4.180166
 30
0.0
 40
2.1
 50
47.28622
 51
68.787999
  0
INSERT
  8
0
 62
   249
  2
*X11
 10
215.987972
 20
2.080166
 30
0.0
 41
0.7
 42
0.7
 43
0.7
  0
INSERT
  8
0
 62
   249
  2
*X12
 10
215.987972
 20
2.080166
 30
0.0
 41
0.7
 42
0.7
 43
0.7
  0
INSERT
  8
0
 62
   249
  2
*X13
 10
215.987972
 20
2.080166
 30
0.0
 41
0.7
 42
0.7
 43
0.7
  0
INSERT
  8
0
 62
   249
  2
*X14
 10
215.987972
 20
2.080166
 30
0.0
 41
0.7
 42
0.7
 43
0.7
  0
INSERT
  8
0
 62
   249
  2
*X14
 10
210.527972
 20
2.080166
 30
0.0
 41
0.7
 42
0.7
 43
0.7
  0
INSERT
  8
0
 62
   249
  2
*X13
 10
210.527972
 20
2.080166
 30
0.0
 41
0.7
 42
0.7
 43
0.7
  0
INSERT
  8
0
 62
   249
  2
*X12
 10
210.527972
 20
2.080166
 30
0.0
 41
0.7
 42
0.7
 43
0.7
  0
INSERT
  8
0
 62
   249
  2
*X11
 10
210.527972
 20
2.080166
 30
0.0
 41
0.7
 42
0.7
 43
0.7
  0
ARC
  8
0
 62
   249
 10
220.817972
 20
4.180166
 30
0.0
 40
2.1
 50
47.28622
 51
68.787999
  0
LINE
  8
0
 62
   249
 10
220.257972
 20
2.080166
 30
0.0
 11
220.815689
 21
2.080167
 31
0.0
  0
ARC
  8
0
 62
   249
 10
220.817972
 20
4.180166
 30
0.0
 40
2.1
 50
269.937724
 51
37.056553
  0
LINE
  8
0
 62
   249
 10
220.257972
 20
5.440166
 30
0.0
 11
220.257972
 21
2.080166
 31
0.0
  0
LINE
  8
0
 62
   249
 10
222.497972
 20
5.440166
 30
0.0
 11
220.257972
 21
5.440166
 31
0.0
  0
LINE
  8
0
 62
   249
 10
220.257972
 20
5.720166
 30
0.0
 11
222.242415
 21
5.720166
 31
0.0
  0
LINE
  8
0
 62
   249
 10
220.257972
 20
9.080166
 30
0.0
 11
220.257972
 21
5.720166
 31
0.0
  0
LINE
  8
0
 62
   249
 10
220.257972
 20
9.080166
 30
0.0
 11
220.81653
 21
9.080165
 31
0.0
  0
ARC
  8
0
 62
   249
 10
220.817972
 20
7.505166
 30
0.0
 40
1.575
 50
298.455859
 51
90.052437
  0
LINE
  8
0
 62
   249
 10
218.017972
 20
5.720166
 30
0.0
 11
218.017972
 21
9.080166
 31
0.0
  0
LINE
  8
0
 62
   249
 10
219.977972
 20
2.080166
 30
0.0
 11
218.017972
 21
2.080166
 31
0.0
  0
LINE
  8
0
 62
   249
 10
219.977972
 20
5.440166
 30
0.0
 11
219.977972
 21
2.080166
 31
0.0
  0
LINE
  8
0
 62
   249
 10
218.017972
 20
5.440166
 30
0.0
 11
219.977972
 21
5.440166
 31
0.0
  0
LINE
  8
0
 62
   249
 10
219.977972
 20
5.720166
 30
0.0
 11
218.017972
 21
5.720166
 31
0.0
  0
LINE
  8
0
 62
   249
 10
219.977972
 20
9.080166
 30
0.0
 11
219.977972
 21
5.720166
 31
0.0
  0
LINE
  8
0
 62
   249
 10
218.017972
 20
9.080166
 30
0.0
 11
219.977972
 21
9.080166
 31
0.0
  0
LINE
  8
0
 62
   249
 10
218.017972
 20
2.080166
 30
0.0
 11
218.017972
 21
5.440166
 31
0.0
  0
INSERT
  8
0
 62
   249
  2
*X10
 10
210.527972
 20
2.080166
 30
0.0
 41
0.7
 42
0.7
 43
0.7
  0
INSERT
  8
0
 62
   249
  2
*X9
 10
210.527972
 20
2.080166
 30
0.0
 41
0.7
 42
0.7
 43
0.7
  0
INSERT
  8
0
 62
   249
  2
*X8
 10
210.527972
 20
2.080166
 30
0.0
 41
0.7
 42
0.7
 43
0.7
  0
INSERT
  8
0
 62
   249
  2
*X7
 10
210.527972
 20
2.080166
 30
0.0
 41
0.7
 42
0.7
 43
0.7
  0
LINE
  8
0
 62
   249
 10
211.69786
 20
5.422705
 30
0.0
 11
210.527972
 21
2.080166
 31
0.0
  0
LINE
  8
0
 62
   249
 10
213.887972
 20
5.440166
 30
0.0
 11
213.887972
 21
3.480166
 31
0.0
  0
LINE
  8
0
 62
   249
 10
214.167972
 20
5.440166
 30
0.0
 11
214.167972
 21
3.480166
 31
0.0
  0
LINE
  8
0
 62
   249
 10
214.167972
 20
5.440166
 30
0.0
 11
216.351228
 21
5.440166
 31
0.0
  0
LINE
  8
0
 62
   249
 10
214.167972
 20
5.720166
 30
0.0
 11
216.253085
 21
5.720166
 31
0.0
  0
LINE
  8
0
 62
   249
 10
216.352464
 20
5.438761
 30
0.0
 11
217.527972
 21
2.080166
 31
0.0
  0
LINE
  8
0
 62
   249
 10
211.700954
 20
5.440166
 30
0.0
 11
213.887972
 21
5.440166
 31
0.0
  0
LINE
  8
0
 62
   249
 10
211.799912
 20
5.720166
 30
0.0
 11
213.887972
 21
5.720166
 31
0.0
  0
LINE
  8
0
 62
   249
 10
213.887972
 20
9.080166
 30
0.0
 11
212.977972
 21
9.080166
 31
0.0
  0
LINE
  8
0
 62
   249
 10
214.167972
 20
3.480166
 30
0.0
 11
215.287865
 21
3.480166
 31
0.0
  0
LINE
  8
0
 62
   249
 10
214.167972
 20
9.080166
 30
0.0
 11
214.167972
 21
5.720166
 31
0.0
  0
LINE
  8
0
 62
   249
 10
213.887972
 20
9.080166
 30
0.0
 11
213.887972
 21
5.720166
 31
0.0
  0
LINE
  8
0
 62
   249
 10
215.077972
 20
9.080166
 30
0.0
 11
214.167972
 21
9.080166
 31
0.0
  0
LINE
  8
0
 62
   249
 10
215.289069
 20
3.47703
 30
0.0
 11
215.777972
 21
2.080166
 31
0.0
  0
LINE
  8
0
 62
   249
 10
215.077972
 20
9.080166
 30
0.0
 11
216.254325
 21
5.719158
 31
0.0
  0
LINE
  8
0
 62
   249
 10
212.766762
 20
3.476709
 30
0.0
 11
212.277972
 21
2.080166
 31
0.0
  0
LINE
  8
0
 62
   249
 10
212.766758
 20
3.480166
 30
0.0
 11
213.887972
 21
3.480166
 31
0.0
  0
LINE
  8
0
 62
   249
 10
212.977972
 20
9.080166
 30
0.0
 11
211.800444
 21
5.715801
 31
0.0
  0
LINE
  8
0
 62
   249
 10
215.777972
 20
2.080166
 30
0.0
 11
217.527972
 21
2.080166
 31
0.0
  0
LINE
  8
0
 62
   249
 10
210.527972
 20
2.080166
 30
0.0
 11
212.277972
 21
2.080166
 31
0.0
  0
LINE
  8
0
 62
   249
 10
370.077972
 20
10.080166
 30
0.0
 11
370.077972
 21
0.580166
 31
0.0
  0
TEXT
  8
0
 62
   249
 10
371.577972
 20
7.580166
 30
0.0
 40
1.4
  1
PAINOS  REVISION
  7
ROMANS
  0
LINE
  8
0
 62
   249
 10
350.077972
 20
10.080166
 30
0.0
 11
350.077972
 21
18.580166
 31
0.0
  0
TEXT
  8
0
 62
   249
 10
309.577972
 20
7.580166
 30
0.0
 40
1.4
  1
PIIRUSTUS NO  DRAWING NR
  7
ROMANS
  0
TEXT
  8
0
 62
   249
 10
309.577972
 20
16.080166
 30
0.0
 40
1.4
  1
KOODI  CODE
  7
ROMANS
  0
TEXT
  8
0
 62
   249
 10
309.577972
 20
33.080166
 30
0.0
 40
1.4
  1
NIMITYS  NAME
  7
ROMANS
  0
TEXT
  8
0
 62
   249
 10
259.577972
 20
16.080166
 30
0.0
 40
1.4
  1
SUHDE  SCALE
  7
ROMANS
  0
TEXT
  8
0
 62
   249
 10
259.577972
 20
24.080166
 30
0.0
 40
1.4
  1
TOLERANSSIT  TOLERANCES
  7
ROMANS
  0
TEXT
  8
0
 62
   249
 10
259.577972
 20
33.080166
 30
0.0
 40
1.4
  1
LIITTYY  CONCERNING
  7
ROMANS
  0
LINE
  8
0
 62
   249
 10
307.577972
 20
0.580166
 30
0.0
 11
307.577972
 21
35.580166
 31
0.0
  0
TEXT
  8
0
 62
   249
 10
210.320806
 20
16.046833
 30
0.0
 40
1.4
  1
HYVÄKSYI  APPROVED
  7
ROMANS
  0
TEXT
  8
0
 62
   249
 10
210.577972
 20
24.313499
 30
0.0
 40
1.4
  1
TARKASTI  CHECKED
  7
ROMANS
  0
LINE
  8
0
 62
   249
 10
209.577972
 20
35.580166
 30
0.0
 11
392.577972
 21
35.580166
 31
0.0
  0
LINE
  8
0
 62
   249
 10
209.577972
 20
27.080166
 30
0.0
 11
307.577972
 21
27.080166
 31
0.0
  0
LINE
  8
0
 62
   249
 10
209.577972
 20
10.080166
 30
0.0
 11
392.577972
 21
10.080166
 31
0.0
  0
LINE
  8
0
 62
   249
 10
209.577972
 20
18.580166
 30
0.0
 11
392.577972
 21
18.580166
 31
0.0
  0
LINE
  8
0
 62
   249
 10
392.577972
 20
0.580166
 30
0.0
 11
392.577972
 21
35.580166
 31
0.0
  0
LINE
  8
0
 62
   249
 10
209.577972
 20
0.580166
 30
0.0
 11
209.577972
 21
35.580166
 31
0.0
  0
LINE
  8
0
 62
   249
 10
209.577972
 20
0.580166
 30
0.0
 11
392.577972
 21
0.580166
 31
0.0
  0
LINE
  8
0
 62
   249
 10
18.577972
 20
0.580166
 30
0.0
 11
0.577972
 21
0.580166
 31
0.0
  0
LINE
  8
0
 62
   249
 10
0.577972
 20
263.080166
 30
0.0
 11
392.577972
 21
263.080166
 31
0.0
  0
TEXT
  8
0
  6
DASHED
 62
   249
 10
292.558067
 20
12.155526
 30
0.0
 40
3.0
  1
A3
  7
GREEKS
  0
INSERT
  8
0
  6
CONTINUOUS
 62
   249
  2
BLC29
 10
175.213663
 20
114.871524
 30
0.0
 50
180.0
  0
ARC
  8
0
  6
CONTINUOUS
 62
   249
 10
60.0
 20
152.28824
 30
0.0
 40
0.5
 50
180.0
 51
0.0
  0
ARC
  8
0
  6
CONTINUOUS
 62
   249
 10
60.0
 20
152.28824
 30
0.0
 40
0.5
 50
0.0
 51
180.0
  0
TEXT
  8
0
  6
CONTINUOUS
 62
   249
 10
26.844763
 20
219.00558
 30
0.0
 40
2.0
  1
-
  0
TEXT
  8
0
  6
CONTINUOUS
 62
   249
 10
26.853328
 20
224.013635
 30
0.0
 40
2.0
  1
+
  0
TEXT
  8
0
  6
CONTINUOUS
 62
   249
 10
26.853328
 20
231.513635
 30
0.0
 40
2.0
  1
+
  0
TEXT
  8
0
  6
CONTINUOUS
 62
   249
 10
26.844763
 20
241.50558
 30
0.0
 40
2.0
  1
-
  0
TEXT
  8
0
  6
CONTINUOUS
 62
   249
 10
26.853328
 20
246.513635
 30
0.0
 40
2.0
  1
+
  0
ARC
  8
0
  6
CONTINUOUS
 62
   249
 10
47.5
 20
220.0
 30
0.0
 40
0.5
 50
180.0
 51
0.0
  0
ARC
  8
0
  6
CONTINUOUS
 62
   249
 10
47.5
 20
220.0
 30
0.0
 40
0.5
 50
0.0
 51
180.0
  0
ARC
  8
0
  6
CONTINUOUS
 62
   249
 10
82.5
 20
182.5
 30
0.0
 40
0.5
 50
180.0
 51
0.0
  0
ARC
  8
0
  6
CONTINUOUS
 62
   249
 10
82.5
 20
182.5
 30
0.0
 40
0.5
 50
0.0
 51
180.0
  0
ARC
  8
0
  6
CONTINUOUS
 62
   249
 10
95.0
 20
180.0
 30
0.0
 40
0.5
 50
180.0
 51
0.0
  0
ARC
  8
0
  6
CONTINUOUS
 62
   249
 10
95.0
 20
180.0
 30
0.0
 40
0.5
 50
0.0
 51
180.0
  0
ARC
  8
0
  6
CONTINUOUS
 62
   249
 10
100.0
 20
175.0
 30
0.0
 40
0.5
 50
180.0
 51
0.0
  0
ARC
  8
0
  6
CONTINUOUS
 62
   249
 10
100.0
 20
175.0
 30
0.0
 40
0.5
 50
0.0
 51
180.0
  0
LINE
  8
0
  6
CONTINUOUS
 62
   249
 10
184.292249
 20
170.515727
 30
0.0
 11
185.179135
 21
170.515727
 31
0.0
  0
LINE
  8
0
  6
CONTINUOUS
 62
   249
 10
183.961144
 20
171.12736
 30
0.0
 11
185.545715
 21
171.12736
 31
0.0
  0
LINE
  8
0
  6
CONTINUOUS
 62
   249
 10
184.77708
 20
171.749422
 30
0.0
 11
185.971421
 21
171.749422
 31
0.0
  0
LINE
  8
0
  6
CONTINUOUS
 62
   249
 10
183.582739
 20
171.749422
 30
0.0
 11
184.77708
 21
171.749422
 31
0.0
  0
LINE
  8
0
  6
CONTINUOUS
 62
   249
 10
184.792967
 20
173.103692
 30
0.0
 11
184.792967
 21
171.749422
 31
0.0
  0
LINE
  8
0
  6
CONTINUOUS
 62
   249
 10
173.924362
 20
137.662693
 30
0.0
 11
171.578597
 21
138.998046
 31
0.0
  0
LINE
  8
0
  6
CONTINUOUS
 62
   249
 10
171.578597
 20
138.998046
 30
0.0
 11
173.924362
 21
140.187966
 31
0.0
  0
LINE
  8
0
  6
CONTINUOUS
 62
   249
 10
173.924362
 20
147.552107
 30
0.0
 11
171.578597
 21
148.88746
 31
0.0
  0
LINE
  8
0
  6
CONTINUOUS
 62
   249
 10
171.578597
 20
148.88746
 30
0.0
 11
173.924362
 21
150.07738
 31
0.0
  0
LINE
  8
0
  6
CONTINUOUS
 62
   249
 10
173.924362
 20
143.664635
 30
0.0
 11
171.578597
 21
144.999989
 31
0.0
  0
LINE
  8
0
  6
CONTINUOUS
 62
   249
 10
171.578597
 20
144.999989
 30
0.0
 11
173.924362
 21
146.189908
 31
0.0
  0
LINE
  8
0
  6
CONTINUOUS
 62
   249
 10
173.924362
 20
159.832673
 30
0.0
 11
171.578597
 21
161.168027
 31
0.0
  0
LINE
  8
0
  6
CONTINUOUS
 62
   249
 10
171.578597
 20
161.168027
 30
0.0
 11
173.924362
 21
162.357946
 31
0.0
  0
LINE
  8
0
  6
CONTINUOUS
 62
   249
 10
173.924362
 20
156.164635
 30
0.0
 11
171.578597
 21
157.499989
 31
0.0
  0
LINE
  8
0
  6
CONTINUOUS
 62
   249
 10
171.578597
 20
157.499989
 30
0.0
 11
173.924362
 21
158.689908
 31
0.0
  0
ARC
  8
0
  6
CONTINUOUS
 62
   249
 10
170.0
 20
165.019111
 30
0.0
 40
0.5
 50
180.0
 51
0.0
  0
ARC
  8
0
  6
CONTINUOUS
 62
   249
 10
170.0
 20
165.019111
 30
0.0
 40
0.5
 50
0.0
 51
180.0
  0
LINE
  8
0
  6
CONTINUOUS
 62
   249
 10
184.292249
 20
160.406408
 30
0.0
 11
185.179135
 21
160.406408
 31
0.0
  0
LINE
  8
0
  6
CONTINUOUS
 62
   249
 10
183.961144
 20
161.018041
 30
0.0
 11
185.545715
 21
161.018041
 31
0.0
  0
LINE
  8
0
  6
CONTINUOUS
 62
   249
 10
184.77708
 20
161.640103
 30
0.0
 11
185.971421
 21
161.640103
 31
0.0
  0
LINE
  8
0
  6
CONTINUOUS
 62
   249
 10
183.582739
 20
161.640103
 30
0.0
 11
184.77708
 21
161.640103
 31
0.0
  0
LINE
  8
0
  6
CONTINUOUS
 62
   249
 10
184.792967
 20
162.994373
 30
0.0
 11
184.792967
 21
161.640103
 31
0.0
  0
ARC
  8
0
  6
CONTINUOUS
 62
   249
 10
167.5
 20
183.000813
 30
0.0
 40
0.5
 50
180.0
 51
0.0
  0
ARC
  8
0
  6
CONTINUOUS
 62
   249
 10
167.5
 20
183.000813
 30
0.0
 40
0.5
 50
0.0
 51
180.0
  0
LINE
  8
0
  6
CONTINUOUS
 62
   249
 10
173.924362
 20
175.063601
 30
0.0
 11
171.578597
 21
176.398954
 31
0.0
  0
LINE
  8
0
  6
CONTINUOUS
 62
   249
 10
171.578597
 20
176.398954
 30
0.0
 11
173.924362
 21
177.588874
 31
0.0
  0
ARC
  8
0
  6
CONTINUOUS
 62
   249
 10
170.0
 20
179.971652
 30
0.0
 40
0.5
 50
180.0
 51
0.0
  0
ARC
  8
0
  6
CONTINUOUS
 62
   249
 10
170.0
 20
179.971652
 30
0.0
 40
0.5
 50
0.0
 51
180.0
  0
LINE
  8
0
  6
CONTINUOUS
 62
   249
 10
173.924362
 20
186.164635
 30
0.0
 11
171.578597
 21
187.499989
 31
0.0
  0
LINE
  8
0
  6
CONTINUOUS
 62
   249
 10
171.578597
 20
187.499989
 30
0.0
 11
173.924362
 21
188.689908
 31
0.0
  0
LINE
  8
0
  6
CONTINUOUS
 62
   249
 10
184.292249
 20
175.496627
 30
0.0
 11
185.179135
 21
175.496627
 31
0.0
  0
LINE
  8
0
  6
CONTINUOUS
 62
   249
 10
183.961144
 20
176.10826
 30
0.0
 11
185.545715
 21
176.10826
 31
0.0
  0
LINE
  8
0
  6
CONTINUOUS
 62
   249
 10
184.77708
 20
176.730323
 30
0.0
 11
185.971421
 21
176.730323
 31
0.0
  0
LINE
  8
0
  6
CONTINUOUS
 62
   249
 10
183.582739
 20
176.730323
 30
0.0
 11
184.77708
 21
176.730323
 31
0.0
  0
LINE
  8
0
  6
CONTINUOUS
 62
   249
 10
184.792967
 20
178.084593
 30
0.0
 11
184.792967
 21
176.730323
 31
0.0
  0
LINE
  8
0
  6
CONTINUOUS
 62
   249
 10
184.292249
 20
185.536526
 30
0.0
 11
185.179135
 21
185.536526
 31
0.0
  0
LINE
  8
0
  6
CONTINUOUS
 62
   249
 10
183.961144
 20
186.148159
 30
0.0
 11
185.545715
 21
186.148159
 31
0.0
  0
LINE
  8
0
  6
CONTINUOUS
 62
   249
 10
184.77708
 20
186.770221
 30
0.0
 11
185.971421
 21
186.770221
 31
0.0
  0
LINE
  8
0
  6
CONTINUOUS
 62
   249
 10
183.582739
 20
186.770221
 30
0.0
 11
184.77708
 21
186.770221
 31
0.0
  0
LINE
  8
0
  6
CONTINUOUS
 62
   249
 10
184.792967
 20
188.124492
 30
0.0
 11
184.792967
 21
186.770221
 31
0.0
  0
LINE
  8
0
  6
CONTINUOUS
 62
   249
 10
173.924362
 20
204.833016
 30
0.0
 11
171.578597
 21
206.16837
 31
0.0
  0
LINE
  8
0
  6
CONTINUOUS
 62
   249
 10
171.578597
 20
206.16837
 30
0.0
 11
173.924362
 21
207.358289
 31
0.0
  0
LINE
  8
0
  6
CONTINUOUS
 62
   249
 10
173.924362
 20
211.164635
 30
0.0
 11
171.578597
 21
212.499989
 31
0.0
  0
LINE
  8
0
  6
CONTINUOUS
 62
   249
 10
171.578597
 20
212.499989
 30
0.0
 11
173.924362
 21
213.689908
 31
0.0
  0
LINE
  8
0
  6
CONTINUOUS
 62
   249
 10
173.924362
 20
223.664635
 30
0.0
 11
171.578597
 21
224.999989
 31
0.0
  0
LINE
  8
0
  6
CONTINUOUS
 62
   249
 10
171.578597
 20
224.999989
 30
0.0
 11
173.924362
 21
226.189908
 31
0.0
  0
LINE
  8
0
  6
CONTINUOUS
 62
   249
 10
173.924362
 20
215.831255
 30
0.0
 11
171.578597
 21
217.166609
 31
0.0
  0
LINE
  8
0
  6
CONTINUOUS
 62
   249
 10
171.578597
 20
217.166609
 30
0.0
 11
173.924362
 21
218.356528
 31
0.0
  0
ARC
  8
0
  6
CONTINUOUS
 62
   249
 10
170.0
 20
220.0
 30
0.0
 40
0.5
 50
180.0
 51
0.0
  0
ARC
  8
0
  6
CONTINUOUS
 62
   249
 10
170.0
 20
220.0
 30
0.0
 40
0.5
 50
0.0
 51
180.0
  0
INSERT
  8
0
  6
CONTINUOUS
 62
   249
  2
BLC29
 10
240.129601
 20
62.371524
 30
0.0
 50
180.0
  0
INSERT
  8
0
  6
CONTINUOUS
 62
   249
  2
BLC29
 10
245.058285
 20
62.628476
 30
0.0
  0
LINE
  8
0
  6
CONTINUOUS
 62
   249
 10
232.38991
 20
91.166103
 30
0.0
 11
230.044144
 21
92.501457
 31
0.0
  0
LINE
  8
0
  6
CONTINUOUS
 62
   249
 10
230.044144
 20
92.501457
 30
0.0
 11
232.38991
 21
93.691376
 31
0.0
  0
LINE
  8
0
  6
CONTINUOUS
 62
   249
 10
231.989729
 20
111.164635
 30
0.0
 11
229.643963
 21
112.499989
 31
0.0
  0
LINE
  8
0
  6
CONTINUOUS
 62
   249
 10
229.643963
 20
112.499989
 30
0.0
 11
231.989729
 21
113.689908
 31
0.0
  0
3DFACE
  8
0
  6
CONTINUOUS
 62
   249
 10
261.819436
 20
61.923461
 30
0.0
 11
261.833156
 21
61.923461
 31
0.0
 12
261.833156
 22
62.903461
 32
0.0
 13
261.819436
 23
62.903461
 33
0.0
  0
3DFACE
  8
0
  6
CONTINUOUS
 62
   249
 10
261.833156
 20
61.923461
 30
0.0
 11
261.846876
 21
61.923461
 31
0.0
 12
261.846876
 22
62.903461
 32
0.0
 13
261.833156
 23
62.903461
 33
0.0
  0
3DFACE
  8
0
  6
CONTINUOUS
 62
   249
 10
261.846876
 20
61.923461
 30
0.0
 11
261.860596
 21
61.923461
 31
0.0
 12
261.860596
 22
62.903461
 32
0.0
 13
261.846876
 23
62.903461
 33
0.0
  0
3DFACE
  8
0
  6
CONTINUOUS
 62
   249
 10
261.860596
 20
61.923461
 30
0.0
 11
261.874316
 21
61.923461
 31
0.0
 12
261.874316
 22
62.903461
 32
0.0
 13
261.860596
 23
62.903461
 33
0.0
  0
3DFACE
  8
0
  6
CONTINUOUS
 62
   249
 10
261.874316
 20
61.923461
 30
0.0
 11
261.888036
 21
61.923461
 31
0.0
 12
261.888036
 22
62.903461
 32
0.0
 13
261.874316
 23
62.903461
 33
0.0
  0
3DFACE
  8
0
  6
CONTINUOUS
 62
   249
 10
261.888036
 20
61.923461
 30
0.0
 11
261.901756
 21
61.923461
 31
0.0
 12
261.901756
 22
62.903461
 32
0.0
 13
261.888036
 23
62.903461
 33
0.0
  0
3DFACE
  8
0
  6
CONTINUOUS
 62
   249
 10
261.901756
 20
61.923461
 30
0.0
 11
261.915476
 21
61.923461
 31
0.0
 12
261.915476
 22
62.903461
 32
0.0
 13
261.901756
 23
62.903461
 33
0.0
  0
3DFACE
  8
0
  6
CONTINUOUS
 62
   249
 10
261.915476
 20
61.923461
 30
0.0
 11
261.929196
 21
61.923461
 31
0.0
 12
261.929196
 22
62.903461
 32
0.0
 13
261.915476
 23
62.903461
 33
0.0
  0
3DFACE
  8
0
  6
CONTINUOUS
 62
   249
 10
261.929196
 20
61.923461
 30
0.0
 11
261.942916
 21
61.923461
 31
0.0
 12
261.942916
 22
62.903461
 32
0.0
 13
261.929196
 23
62.903461
 33
0.0
  0
3DFACE
  8
0
  6
CONTINUOUS
 62
   249
 10
261.942916
 20
61.923461
 30
0.0
 11
261.956636
 21
61.923461
 31
0.0
 12
261.956636
 22
62.903461
 32
0.0
 13
261.942916
 23
62.903461
 33
0.0
  0
3DFACE
  8
0
  6
CONTINUOUS
 62
   249
 10
261.956636
 20
61.923461
 30
0.0
 11
261.970356
 21
61.923461
 31
0.0
 12
261.970356
 22
62.903461
 32
0.0
 13
261.956636
 23
62.903461
 33
0.0
  0
3DFACE
  8
0
  6
CONTINUOUS
 62
   249
 10
261.970356
 20
61.923461
 30
0.0
 11
261.984076
 21
61.923461
 31
0.0
 12
261.984076
 22
62.903461
 32
0.0
 13
261.970356
 23
62.903461
 33
0.0
  0
3DFACE
  8
0
  6
CONTINUOUS
 62
   249
 10
261.984076
 20
61.923461
 30
0.0
 11
261.997796
 21
61.923461
 31
0.0
 12
261.997796
 22
62.903461
 32
0.0
 13
261.984076
 23
62.903461
 33
0.0
  0
3DFACE
  8
0
  6
CONTINUOUS
 62
   249
 10
261.997796
 20
61.923461
 30
0.0
 11
262.011516
 21
61.923461
 31
0.0
 12
262.011516
 22
62.903461
 32
0.0
 13
261.997796
 23
62.903461
 33
0.0
  0
3DFACE
  8
0
  6
CONTINUOUS
 62
   249
 10
262.011516
 20
61.923461
 30
0.0
 11
262.025236
 21
61.923461
 31
0.0
 12
262.025236
 22
62.903461
 32
0.0
 13
262.011516
 23
62.903461
 33
0.0
  0
3DFACE
  8
0
  6
CONTINUOUS
 62
   249
 10
262.025236
 20
61.923461
 30
0.0
 11
262.038956
 21
61.923461
 31
0.0
 12
262.038956
 22
62.903461
 32
0.0
 13
262.025236
 23
62.903461
 33
0.0
  0
3DFACE
  8
0
  6
CONTINUOUS
 62
   249
 10
262.038956
 20
61.923461
 30
0.0
 11
262.052676
 21
61.923461
 31
0.0
 12
262.052676
 22
62.903461
 32
0.0
 13
262.038956
 23
62.903461
 33
0.0
  0
3DFACE
  8
0
  6
CONTINUOUS
 62
   249
 10
262.052676
 20
61.923461
 30
0.0
 11
262.066396
 21
61.923461
 31
0.0
 12
262.066396
 22
62.903461
 32
0.0
 13
262.052676
 23
62.903461
 33
0.0
  0
3DFACE
  8
0
  6
CONTINUOUS
 62
   249
 10
262.066396
 20
61.923461
 30
0.0
 11
262.080116
 21
61.923461
 31
0.0
 12
262.080116
 22
62.903461
 32
0.0
 13
262.066396
 23
62.903461
 33
0.0
  0
3DFACE
  8
0
  6
CONTINUOUS
 62
   249
 10
262.080116
 20
61.923461
 30
0.0
 11
262.093836
 21
61.923461
 31
0.0
 12
262.093836
 22
62.903461
 32
0.0
 13
262.080116
 23
62.903461
 33
0.0
  0
3DFACE
  8
0
  6
CONTINUOUS
 62
   249
 10
262.093836
 20
61.923461
 30
0.0
 11
262.107556
 21
61.923461
 31
0.0
 12
262.107556
 22
62.903461
 32
0.0
 13
262.093836
 23
62.903461
 33
0.0
  0
3DFACE
  8
0
  6
CONTINUOUS
 62
   249
 10
262.107556
 20
61.923461
 30
0.0
 11
262.121276
 21
61.923461
 31
0.0
 12
262.121276
 22
62.903461
 32
0.0
 13
262.107556
 23
62.903461
 33
0.0
  0
3DFACE
  8
0
  6
CONTINUOUS
 62
   249
 10
262.121276
 20
61.923461
 30
0.0
 11
262.134996
 21
61.923461
 31
0.0
 12
262.134996
 22
62.903461
 32
0.0
 13
262.121276
 23
62.903461
 33
0.0
  0
3DFACE
  8
0
  6
CONTINUOUS
 62
   249
 10
262.134996
 20
61.923461
 30
0.0
 11
262.148716
 21
61.923461
 31
0.0
 12
262.148716
 22
62.903461
 32
0.0
 13
262.134996
 23
62.903461
 33
0.0
  0
3DFACE
  8
0
  6
CONTINUOUS
 62
   249
 10
262.148716
 20
61.923461
 30
0.0
 11
262.162436
 21
61.923461
 31
0.0
 12
262.162436
 22
62.903461
 32
0.0
 13
262.148716
 23
62.903461
 33
0.0
  0
3DFACE
  8
0
  6
CONTINUOUS
 62
   249
 10
262.162436
 20
61.923461
 30
0.0
 11
262.176156
 21
61.923461
 31
0.0
 12
262.176156
 22
62.903461
 32
0.0
 13
262.162436
 23
62.903461
 33
0.0
  0
3DFACE
  8
0
  6
CONTINUOUS
 62
   249
 10
262.176156
 20
61.923461
 30
0.0
 11
262.189876
 21
61.923461
 31
0.0
 12
262.189876
 22
62.903461
 32
0.0
 13
262.176156
 23
62.903461
 33
0.0
  0
3DFACE
  8
0
  6
CONTINUOUS
 62
   249
 10
262.189876
 20
61.923461
 30
0.0
 11
262.203596
 21
61.923461
 31
0.0
 12
262.203596
 22
62.903461
 32
0.0
 13
262.189876
 23
62.903461
 33
0.0
  0
3DFACE
  8
0
  6
CONTINUOUS
 62
   249
 10
262.203596
 20
61.923461
 30
0.0
 11
262.217316
 21
61.923461
 31
0.0
 12
262.217316
 22
62.903461
 32
0.0
 13
262.203596
 23
62.903461
 33
0.0
  0
3DFACE
  8
0
  6
CONTINUOUS
 62
   249
 10
262.217316
 20
61.923461
 30
0.0
 11
262.231036
 21
61.923461
 31
0.0
 12
262.231036
 22
62.903461
 32
0.0
 13
262.217316
 23
62.903461
 33
0.0
  0
3DFACE
  8
0
  6
CONTINUOUS
 62
   249
 10
262.231036
 20
61.923461
 30
0.0
 11
262.244756
 21
61.923461
 31
0.0
 12
262.244756
 22
62.903461
 32
0.0
 13
262.231036
 23
62.903461
 33
0.0
  0
3DFACE
  8
0
  6
CONTINUOUS
 62
   249
 10
262.244756
 20
61.923461
 30
0.0
 11
262.258476
 21
61.923461
 31
0.0
 12
262.258476
 22
62.903461
 32
0.0
 13
262.244756
 23
62.903461
 33
0.0
  0
3DFACE
  8
0
  6
CONTINUOUS
 62
   249
 10
262.258476
 20
61.923461
 30
0.0
 11
262.272196
 21
61.923461
 31
0.0
 12
262.272196
 22
62.903461
 32
0.0
 13
262.258476
 23
62.903461
 33
0.0
  0
3DFACE
  8
0
  6
CONTINUOUS
 62
   249
 10
262.272196
 20
61.923461
 30
0.0
 11
262.285916
 21
61.923461
 31
0.0
 12
262.285916
 22
62.903461
 32
0.0
 13
262.272196
 23
62.903461
 33
0.0
  0
3DFACE
  8
0
  6
CONTINUOUS
 62
   249
 10
262.285916
 20
61.923461
 30
0.0
 11
262.299636
 21
61.923461
 31
0.0
 12
262.299636
 22
62.903461
 32
0.0
 13
262.285916
 23
62.903461
 33
0.0
  0
3DFACE
  8
0
  6
CONTINUOUS
 62
   249
 10
262.299636
 20
61.923461
 30
0.0
 11
262.313356
 21
61.923461
 31
0.0
 12
262.313356
 22
62.903461
 32
0.0
 13
262.299636
 23
62.903461
 33
0.0
  0
3DFACE
  8
0
  6
CONTINUOUS
 62
   249
 10
262.313356
 20
61.923461
 30
0.0
 11
262.327076
 21
61.923461
 31
0.0
 12
262.327076
 22
62.903461
 32
0.0
 13
262.313356
 23
62.903461
 33
0.0
  0
3DFACE
  8
0
  6
CONTINUOUS
 62
   249
 10
262.327076
 20
61.923461
 30
0.0
 11
262.340796
 21
61.923461
 31
0.0
 12
262.340796
 22
62.903461
 32
0.0
 13
262.327076
 23
62.903461
 33
0.0
  0
3DFACE
  8
0
  6
CONTINUOUS
 62
   249
 10
262.340796
 20
61.923461
 30
0.0
 11
262.354516
 21
61.923461
 31
0.0
 12
262.354516
 22
62.903461
 32
0.0
 13
262.340796
 23
62.903461
 33
0.0
  0
3DFACE
  8
0
  6
CONTINUOUS
 62
   249
 10
262.354516
 20
61.923461
 30
0.0
 11
262.368236
 21
61.923461
 31
0.0
 12
262.368236
 22
62.903461
 32
0.0
 13
262.354516
 23
62.903461
 33
0.0
  0
3DFACE
  8
0
  6
CONTINUOUS
 62
   249
 10
262.368236
 20
61.923461
 30
0.0
 11
262.381956
 21
61.923461
 31
0.0
 12
262.381956
 22
62.903461
 32
0.0
 13
262.368236
 23
62.903461
 33
0.0
  0
3DFACE
  8
0
  6
CONTINUOUS
 62
   249
 10
262.381956
 20
61.923461
 30
0.0
 11
262.395676
 21
61.923461
 31
0.0
 12
262.395676
 22
62.903461
 32
0.0
 13
262.381956
 23
62.903461
 33
0.0
  0
3DFACE
  8
0
  6
CONTINUOUS
 62
   249
 10
262.395676
 20
61.923461
 30
0.0
 11
262.409396
 21
61.923461
 31
0.0
 12
262.409396
 22
62.903461
 32
0.0
 13
262.395676
 23
62.903461
 33
0.0
  0
3DFACE
  8
0
  6
CONTINUOUS
 62
   249
 10
262.409396
 20
61.923461
 30
0.0
 11
262.423116
 21
61.923461
 31
0.0
 12
262.423116
 22
62.903461
 32
0.0
 13
262.409396
 23
62.903461
 33
0.0
  0
3DFACE
  8
0
  6
CONTINUOUS
 62
   249
 10
262.423116
 20
61.923461
 30
0.0
 11
262.436836
 21
61.923461
 31
0.0
 12
262.436836
 22
62.903461
 32
0.0
 13
262.423116
 23
62.903461
 33
0.0
  0
3DFACE
  8
0
  6
CONTINUOUS
 62
   249
 10
262.436836
 20
61.923461
 30
0.0
 11
262.450556
 21
61.923461
 31
0.0
 12
262.450556
 22
62.903461
 32
0.0
 13
262.436836
 23
62.903461
 33
0.0
  0
3DFACE
  8
0
  6
CONTINUOUS
 62
   249
 10
262.450556
 20
61.923461
 30
0.0
 11
262.464276
 21
61.923461
 31
0.0
 12
262.464276
 22
62.903461
 32
0.0
 13
262.450556
 23
62.903461
 33
0.0
  0
3DFACE
  8
0
  6
CONTINUOUS
 62
   249
 10
262.464276
 20
61.923461
 30
0.0
 11
262.477996
 21
61.923461
 31
0.0
 12
262.477996
 22
62.903461
 32
0.0
 13
262.464276
 23
62.903461
 33
0.0
  0
3DFACE
  8
0
  6
CONTINUOUS
 62
   249
 10
262.477996
 20
61.923461
 30
0.0
 11
262.491716
 21
61.923461
 31
0.0
 12
262.491716
 22
62.903461
 32
0.0
 13
262.477996
 23
62.903461
 33
0.0
  0
3DFACE
  8
0
  6
CONTINUOUS
 62
   249
 10
262.491716
 20
61.923461
 30
0.0
 11
262.505436
 21
61.923461
 31
0.0
 12
262.505436
 22
62.903461
 32
0.0
 13
262.491716
 23
62.903461
 33
0.0
  0
3DFACE
  8
0
  6
CONTINUOUS
 62
   249
 10
262.505436
 20
61.923461
 30
0.0
 11
262.519156
 21
61.923461
 31
0.0
 12
262.519156
 22
62.903461
 32
0.0
 13
262.505436
 23
62.903461
 33
0.0
  0
3DFACE
  8
0
  6
CONTINUOUS
 62
   249
 10
262.519156
 20
61.923461
 30
0.0
 11
262.532876
 21
61.923461
 31
0.0
 12
262.532876
 22
62.903461
 32
0.0
 13
262.519156
 23
62.903461
 33
0.0
  0
3DFACE
  8
0
  6
CONTINUOUS
 62
   249
 10
262.532876
 20
61.923461
 30
0.0
 11
262.546596
 21
61.923461
 31
0.0
 12
262.546596
 22
62.903461
 32
0.0
 13
262.532876
 23
62.903461
 33
0.0
  0
3DFACE
  8
0
  6
CONTINUOUS
 62
   249
 10
262.546596
 20
61.923461
 30
0.0
 11
262.560316
 21
61.923461
 31
0.0
 12
262.560316
 22
62.903461
 32
0.0
 13
262.546596
 23
62.903461
 33
0.0
  0
3DFACE
  8
0
  6
CONTINUOUS
 62
   249
 10
262.560316
 20
61.923461
 30
0.0
 11
262.574036
 21
61.923461
 31
0.0
 12
262.574036
 22
62.903461
 32
0.0
 13
262.560316
 23
62.903461
 33
0.0
  0
3DFACE
  8
0
  6
CONTINUOUS
 62
   249
 10
262.574036
 20
61.923461
 30
0.0
 11
262.587756
 21
61.923461
 31
0.0
 12
262.587756
 22
62.903461
 32
0.0
 13
262.574036
 23
62.903461
 33
0.0
  0
3DFACE
  8
0
  6
CONTINUOUS
 62
   249
 10
262.587756
 20
61.923461
 30
0.0
 11
262.601476
 21
61.923461
 31
0.0
 12
262.601476
 22
62.903461
 32
0.0
 13
262.587756
 23
62.903461
 33
0.0
  0
3DFACE
  8
0
  6
CONTINUOUS
 62
   249
 10
262.601476
 20
61.923461
 30
0.0
 11
262.615196
 21
61.923461
 31
0.0
 12
262.615196
 22
62.903461
 32
0.0
 13
262.601476
 23
62.903461
 33
0.0
  0
3DFACE
  8
0
  6
CONTINUOUS
 62
   249
 10
262.615196
 20
61.923461
 30
0.0
 11
262.628916
 21
61.923461
 31
0.0
 12
262.628916
 22
62.903461
 32
0.0
 13
262.615196
 23
62.903461
 33
0.0
  0
3DFACE
  8
0
  6
CONTINUOUS
 62
   249
 10
262.628916
 20
61.923461
 30
0.0
 11
262.642636
 21
61.923461
 31
0.0
 12
262.642636
 22
62.903461
 32
0.0
 13
262.628916
 23
62.903461
 33
0.0
  0
3DFACE
  8
0
  6
CONTINUOUS
 62
   249
 10
262.642636
 20
61.923461
 30
0.0
 11
262.656356
 21
61.923461
 31
0.0
 12
262.656356
 22
62.903461
 32
0.0
 13
262.642636
 23
62.903461
 33
0.0
  0
3DFACE
  8
0
  6
CONTINUOUS
 62
   249
 10
262.656356
 20
61.923461
 30
0.0
 11
262.670076
 21
61.923461
 31
0.0
 12
262.670076
 22
62.903461
 32
0.0
 13
262.656356
 23
62.903461
 33
0.0
  0
3DFACE
  8
0
  6
CONTINUOUS
 62
   249
 10
262.670076
 20
61.923461
 30
0.0
 11
262.683796
 21
61.923461
 31
0.0
 12
262.683796
 22
62.903461
 32
0.0
 13
262.670076
 23
62.903461
 33
0.0
  0
3DFACE
  8
0
  6
CONTINUOUS
 62
   249
 10
262.683796
 20
61.923461
 30
0.0
 11
262.697516
 21
61.923461
 31
0.0
 12
262.697516
 22
62.903461
 32
0.0
 13
262.683796
 23
62.903461
 33
0.0
  0
3DFACE
  8
0
  6
CONTINUOUS
 62
   249
 10
262.697516
 20
61.923461
 30
0.0
 11
262.711236
 21
61.923461
 31
0.0
 12
262.711236
 22
62.903461
 32
0.0
 13
262.697516
 23
62.903461
 33
0.0
  0
3DFACE
  8
0
  6
CONTINUOUS
 62
   249
 10
262.711236
 20
61.923461
 30
0.0
 11
262.724956
 21
61.923461
 31
0.0
 12
262.724956
 22
62.903461
 32
0.0
 13
262.711236
 23
62.903461
 33
0.0
  0
3DFACE
  8
0
  6
CONTINUOUS
 62
   249
 10
262.724956
 20
61.923461
 30
0.0
 11
262.738676
 21
61.923461
 31
0.0
 12
262.738676
 22
62.903461
 32
0.0
 13
262.724956
 23
62.903461
 33
0.0
  0
3DFACE
  8
0
  6
CONTINUOUS
 62
   249
 10
262.738676
 20
61.923461
 30
0.0
 11
262.752396
 21
61.923461
 31
0.0
 12
262.752396
 22
62.903461
 32
0.0
 13
262.738676
 23
62.903461
 33
0.0
  0
3DFACE
  8
0
  6
CONTINUOUS
 62
   249
 10
262.752396
 20
61.923461
 30
0.0
 11
262.766116
 21
61.923461
 31
0.0
 12
262.766116
 22
62.903461
 32
0.0
 13
262.752396
 23
62.903461
 33
0.0
  0
3DFACE
  8
0
  6
CONTINUOUS
 62
   249
 10
262.766116
 20
61.923461
 30
0.0
 11
262.779836
 21
61.923461
 31
0.0
 12
262.779836
 22
62.903461
 32
0.0
 13
262.766116
 23
62.903461
 33
0.0
  0
3DFACE
  8
0
  6
CONTINUOUS
 62
   249
 10
262.779836
 20
61.923461
 30
0.0
 11
262.793556
 21
61.923461
 31
0.0
 12
262.793556
 22
62.903461
 32
0.0
 13
262.779836
 23
62.903461
 33
0.0
  0
3DFACE
  8
0
  6
CONTINUOUS
 62
   249
 10
262.793556
 20
61.923461
 30
0.0
 11
262.807276
 21
61.923461
 31
0.0
 12
262.807276
 22
62.903461
 32
0.0
 13
262.793556
 23
62.903461
 33
0.0
  0
3DFACE
  8
0
  6
CONTINUOUS
 62
   249
 10
262.807276
 20
61.923461
 30
0.0
 11
262.820996
 21
61.923461
 31
0.0
 12
262.820996
 22
62.903461
 32
0.0
 13
262.807276
 23
62.903461
 33
0.0
  0
3DFACE
  8
0
  6
CONTINUOUS
 62
   249
 10
262.820996
 20
61.923461
 30
0.0
 11
262.834716
 21
61.923461
 31
0.0
 12
262.834716
 22
62.903461
 32
0.0
 13
262.820996
 23
62.903461
 33
0.0
  0
3DFACE
  8
0
  6
CONTINUOUS
 62
   249
 10
262.834716
 20
61.923461
 30
0.0
 11
262.848436
 21
61.923461
 31
0.0
 12
262.848436
 22
62.903461
 32
0.0
 13
262.834716
 23
62.903461
 33
0.0
  0
3DFACE
  8
0
  6
CONTINUOUS
 62
   249
 10
262.848436
 20
61.923461
 30
0.0
 11
262.862156
 21
61.923461
 31
0.0
 12
262.862156
 22
62.903461
 32
0.0
 13
262.848436
 23
62.903461
 33
0.0
  0
3DFACE
  8
0
  6
CONTINUOUS
 62
   249
 10
262.862156
 20
61.923461
 30
0.0
 11
262.875876
 21
61.923461
 31
0.0
 12
262.875876
 22
62.903461
 32
0.0
 13
262.862156
 23
62.903461
 33
0.0
  0
3DFACE
  8
0
  6
CONTINUOUS
 62
   249
 10
262.875876
 20
61.923461
 30
0.0
 11
262.889596
 21
61.923461
 31
0.0
 12
262.889596
 22
62.903461
 32
0.0
 13
262.875876
 23
62.903461
 33
0.0
  0
3DFACE
  8
0
  6
CONTINUOUS
 62
   249
 10
262.889596
 20
61.923461
 30
0.0
 11
262.903316
 21
61.923461
 31
0.0
 12
262.903316
 22
62.903461
 32
0.0
 13
262.889596
 23
62.903461
 33
0.0
  0
3DFACE
  8
0
  6
CONTINUOUS
 62
   249
 10
262.903316
 20
61.923461
 30
0.0
 11
262.917036
 21
61.923461
 31
0.0
 12
262.917036
 22
62.903461
 32
0.0
 13
262.903316
 23
62.903461
 33
0.0
  0
3DFACE
  8
0
  6
CONTINUOUS
 62
   249
 10
262.917036
 20
61.923461
 30
0.0
 11
262.930756
 21
61.923461
 31
0.0
 12
262.930756
 22
62.903461
 32
0.0
 13
262.917036
 23
62.903461
 33
0.0
  0
3DFACE
  8
0
  6
CONTINUOUS
 62
   249
 10
262.930756
 20
61.923461
 30
0.0
 11
262.944476
 21
61.923461
 31
0.0
 12
262.944476
 22
62.903461
 32
0.0
 13
262.930756
 23
62.903461
 33
0.0
  0
3DFACE
  8
0
  6
CONTINUOUS
 62
   249
 10
262.944476
 20
61.923461
 30
0.0
 11
262.958196
 21
61.923461
 31
0.0
 12
262.958196
 22
62.903461
 32
0.0
 13
262.944476
 23
62.903461
 33
0.0
  0
3DFACE
  8
0
  6
CONTINUOUS
 62
   249
 10
262.958196
 20
61.923461
 30
0.0
 11
262.971916
 21
61.923461
 31
0.0
 12
262.971916
 22
62.903461
 32
0.0
 13
262.958196
 23
62.903461
 33
0.0
  0
3DFACE
  8
0
  6
CONTINUOUS
 62
   249
 10
262.971916
 20
61.923461
 30
0.0
 11
262.985636
 21
61.923461
 31
0.0
 12
262.985636
 22
62.903461
 32
0.0
 13
262.971916
 23
62.903461
 33
0.0
  0
3DFACE
  8
0
  6
CONTINUOUS
 62
   249
 10
262.985636
 20
61.923461
 30
0.0
 11
262.999356
 21
61.923461
 31
0.0
 12
262.999356
 22
62.903461
 32
0.0
 13
262.985636
 23
62.903461
 33
0.0
  0
3DFACE
  8
0
  6
CONTINUOUS
 62
   249
 10
262.999356
 20
61.923461
 30
0.0
 11
263.013076
 21
61.923461
 31
0.0
 12
263.013076
 22
62.903461
 32
0.0
 13
262.999356
 23
62.903461
 33
0.0
  0
3DFACE
  8
0
  6
CONTINUOUS
 62
   249
 10
263.013076
 20
61.923461
 30
0.0
 11
263.026796
 21
61.923461
 31
0.0
 12
263.026796
 22
62.903461
 32
0.0
 13
263.013076
 23
62.903461
 33
0.0
  0
3DFACE
  8
0
  6
CONTINUOUS
 62
   249
 10
263.026796
 20
61.923461
 30
0.0
 11
263.040516
 21
61.923461
 31
0.0
 12
263.040516
 22
62.903461
 32
0.0
 13
263.026796
 23
62.903461
 33
0.0
  0
3DFACE
  8
0
  6
CONTINUOUS
 62
   249
 10
263.040516
 20
61.923461
 30
0.0
 11
263.054236
 21
61.923461
 31
0.0
 12
263.054236
 22
62.903461
 32
0.0
 13
263.040516
 23
62.903461
 33
0.0
  0
3DFACE
  8
0
  6
CONTINUOUS
 62
   249
 10
263.054236
 20
61.923461
 30
0.0
 11
263.067956
 21
61.923461
 31
0.0
 12
263.067956
 22
62.903461
 32
0.0
 13
263.054236
 23
62.903461
 33
0.0
  0
3DFACE
  8
0
  6
CONTINUOUS
 62
   249
 10
263.067956
 20
61.923461
 30
0.0
 11
263.081676
 21
61.923461
 31
0.0
 12
263.081676
 22
62.903461
 32
0.0
 13
263.067956
 23
62.903461
 33
0.0
  0
3DFACE
  8
0
  6
CONTINUOUS
 62
   249
 10
263.081676
 20
61.923461
 30
0.0
 11
263.095396
 21
61.923461
 31
0.0
 12
263.095396
 22
62.903461
 32
0.0
 13
263.081676
 23
62.903461
 33
0.0
  0
3DFACE
  8
0
  6
CONTINUOUS
 62
   249
 10
263.095396
 20
61.923461
 30
0.0
 11
263.109116
 21
61.923461
 31
0.0
 12
263.109116
 22
62.903461
 32
0.0
 13
263.095396
 23
62.903461
 33
0.0
  0
3DFACE
  8
0
  6
CONTINUOUS
 62
   249
 10
263.109116
 20
61.923461
 30
0.0
 11
263.122836
 21
61.923461
 31
0.0
 12
263.122836
 22
62.903461
 32
0.0
 13
263.109116
 23
62.903461
 33
0.0
  0
3DFACE
  8
0
  6
CONTINUOUS
 62
   249
 10
263.122836
 20
61.923461
 30
0.0
 11
263.136556
 21
61.923461
 31
0.0
 12
263.136556
 22
62.903461
 32
0.0
 13
263.122836
 23
62.903461
 33
0.0
  0
3DFACE
  8
0
  6
CONTINUOUS
 62
   249
 10
263.136556
 20
61.923461
 30
0.0
 11
263.150276
 21
61.923461
 31
0.0
 12
263.150276
 22
62.903461
 32
0.0
 13
263.136556
 23
62.903461
 33
0.0
  0
3DFACE
  8
0
  6
CONTINUOUS
 62
   249
 10
263.150276
 20
61.923461
 30
0.0
 11
263.163996
 21
61.923461
 31
0.0
 12
263.163996
 22
62.903461
 32
0.0
 13
263.150276
 23
62.903461
 33
0.0
  0
3DFACE
  8
0
  6
CONTINUOUS
 62
   249
 10
263.163996
 20
61.923461
 30
0.0
 11
263.177716
 21
61.923461
 31
0.0
 12
263.177716
 22
62.903461
 32
0.0
 13
263.163996
 23
62.903461
 33
0.0
  0
3DFACE
  8
0
  6
CONTINUOUS
 62
   249
 10
263.177716
 20
61.923461
 30
0.0
 11
263.191436
 21
61.923461
 31
0.0
 12
263.191436
 22
62.903461
 32
0.0
 13
263.177716
 23
62.903461
 33
0.0
  0
3DFACE
  8
0
  6
CONTINUOUS
 62
   249
 10
263.191436
 20
61.923461
 30
0.0
 11
263.205156
 21
61.923461
 31
0.0
 12
263.205156
 22
62.903461
 32
0.0
 13
263.191436
 23
62.903461
 33
0.0
  0
3DFACE
  8
0
  6
CONTINUOUS
 62
   249
 10
263.205156
 20
61.923461
 30
0.0
 11
263.218876
 21
61.923461
 31
0.0
 12
263.218876
 22
62.903461
 32
0.0
 13
263.205156
 23
62.903461
 33
0.0
  0
3DFACE
  8
0
  6
CONTINUOUS
 62
   249
 10
263.218876
 20
61.923461
 30
0.0
 11
263.232596
 21
61.923461
 31
0.0
 12
263.232596
 22
62.903461
 32
0.0
 13
263.218876
 23
62.903461
 33
0.0
  0
3DFACE
  8
0
  6
CONTINUOUS
 62
   249
 10
263.232596
 20
61.923461
 30
0.0
 11
263.246316
 21
61.923461
 31
0.0
 12
263.246316
 22
62.903461
 32
0.0
 13
263.232596
 23
62.903461
 33
0.0
  0
3DFACE
  8
0
  6
CONTINUOUS
 62
   249
 10
263.246316
 20
61.923461
 30
0.0
 11
263.260036
 21
61.923461
 31
0.0
 12
263.260036
 22
62.903461
 32
0.0
 13
263.246316
 23
62.903461
 33
0.0
  0
3DFACE
  8
0
  6
CONTINUOUS
 62
   249
 10
263.260036
 20
61.923461
 30
0.0
 11
263.273756
 21
61.923461
 31
0.0
 12
263.273756
 22
62.903461
 32
0.0
 13
263.260036
 23
62.903461
 33
0.0
  0
3DFACE
  8
0
  6
CONTINUOUS
 62
   249
 10
263.273756
 20
61.923461
 30
0.0
 11
263.287476
 21
61.923461
 31
0.0
 12
263.287476
 22
62.903461
 32
0.0
 13
263.273756
 23
62.903461
 33
0.0
  0
3DFACE
  8
0
  6
CONTINUOUS
 62
   249
 10
263.287476
 20
61.923461
 30
0.0
 11
263.301196
 21
61.923461
 31
0.0
 12
263.301196
 22
62.903461
 32
0.0
 13
263.287476
 23
62.903461
 33
0.0
  0
3DFACE
  8
0
  6
CONTINUOUS
 62
   249
 10
263.301196
 20
61.923461
 30
0.0
 11
263.314916
 21
61.923461
 31
0.0
 12
263.314916
 22
62.903461
 32
0.0
 13
263.301196
 23
62.903461
 33
0.0
  0
3DFACE
  8
0
  6
CONTINUOUS
 62
   249
 10
263.314916
 20
61.923461
 30
0.0
 11
263.328636
 21
61.923461
 31
0.0
 12
263.328636
 22
62.903461
 32
0.0
 13
263.314916
 23
62.903461
 33
0.0
  0
3DFACE
  8
0
  6
CONTINUOUS
 62
   249
 10
263.328636
 20
61.923461
 30
0.0
 11
263.342356
 21
61.923461
 31
0.0
 12
263.342356
 22
62.903461
 32
0.0
 13
263.328636
 23
62.903461
 33
0.0
  0
3DFACE
  8
0
  6
CONTINUOUS
 62
   249
 10
263.342356
 20
61.923461
 30
0.0
 11
263.356076
 21
61.923461
 31
0.0
 12
263.356076
 22
62.903461
 32
0.0
 13
263.342356
 23
62.903461
 33
0.0
  0
3DFACE
  8
0
  6
CONTINUOUS
 62
   249
 10
263.356076
 20
61.923461
 30
0.0
 11
263.369796
 21
61.923461
 31
0.0
 12
263.369796
 22
62.903461
 32
0.0
 13
263.356076
 23
62.903461
 33
0.0
  0
3DFACE
  8
0
  6
CONTINUOUS
 62
   249
 10
263.369796
 20
61.923461
 30
0.0
 11
263.383516
 21
61.923461
 31
0.0
 12
263.383516
 22
62.903461
 32
0.0
 13
263.369796
 23
62.903461
 33
0.0
  0
3DFACE
  8
0
  6
CONTINUOUS
 62
   249
 10
263.383516
 20
61.923461
 30
0.0
 11
263.397236
 21
61.923461
 31
0.0
 12
263.397236
 22
62.903461
 32
0.0
 13
263.383516
 23
62.903461
 33
0.0
  0
3DFACE
  8
0
  6
CONTINUOUS
 62
   249
 10
263.397236
 20
61.923461
 30
0.0
 11
263.410956
 21
61.923461
 31
0.0
 12
263.410956
 22
62.903461
 32
0.0
 13
263.397236
 23
62.903461
 33
0.0
  0
3DFACE
  8
0
  6
CONTINUOUS
 62
   249
 10
263.410956
 20
61.923461
 30
0.0
 11
263.424676
 21
61.923461
 31
0.0
 12
263.424676
 22
62.903461
 32
0.0
 13
263.410956
 23
62.903461
 33
0.0
  0
3DFACE
  8
0
  6
CONTINUOUS
 62
   249
 10
263.424676
 20
61.923461
 30
0.0
 11
263.438396
 21
61.923461
 31
0.0
 12
263.438396
 22
62.903461
 32
0.0
 13
263.424676
 23
62.903461
 33
0.0
  0
3DFACE
  8
0
  6
CONTINUOUS
 62
   249
 10
263.438396
 20
61.923461
 30
0.0
 11
263.452116
 21
61.923461
 31
0.0
 12
263.452116
 22
62.903461
 32
0.0
 13
263.438396
 23
62.903461
 33
0.0
  0
3DFACE
  8
0
  6
CONTINUOUS
 62
   249
 10
263.452116
 20
61.923461
 30
0.0
 11
263.465836
 21
61.923461
 31
0.0
 12
263.465836
 22
62.903461
 32
0.0
 13
263.452116
 23
62.903461
 33
0.0
  0
3DFACE
  8
0
  6
CONTINUOUS
 62
   249
 10
263.465836
 20
61.923461
 30
0.0
 11
263.479556
 21
61.923461
 31
0.0
 12
263.479556
 22
62.903461
 32
0.0
 13
263.465836
 23
62.903461
 33
0.0
  0
3DFACE
  8
0
  6
CONTINUOUS
 62
   249
 10
263.479556
 20
61.923461
 30
0.0
 11
263.493276
 21
61.923461
 31
0.0
 12
263.493276
 22
62.903461
 32
0.0
 13
263.479556
 23
62.903461
 33
0.0
  0
3DFACE
  8
0
  6
CONTINUOUS
 62
   249
 10
263.493276
 20
61.923461
 30
0.0
 11
263.506996
 21
61.923461
 31
0.0
 12
263.506996
 22
62.903461
 32
0.0
 13
263.493276
 23
62.903461
 33
0.0
  0
3DFACE
  8
0
  6
CONTINUOUS
 62
   249
 10
263.506996
 20
61.923461
 30
0.0
 11
263.520716
 21
61.923461
 31
0.0
 12
263.520716
 22
62.903461
 32
0.0
 13
263.506996
 23
62.903461
 33
0.0
  0
3DFACE
  8
0
  6
CONTINUOUS
 62
   249
 10
263.520716
 20
61.923461
 30
0.0
 11
263.534436
 21
61.923461
 31
0.0
 12
263.534436
 22
62.903461
 32
0.0
 13
263.520716
 23
62.903461
 33
0.0
  0
3DFACE
  8
0
  6
CONTINUOUS
 62
   249
 10
263.534436
 20
61.923461
 30
0.0
 11
263.548156
 21
61.923461
 31
0.0
 12
263.548156
 22
62.903461
 32
0.0
 13
263.534436
 23
62.903461
 33
0.0
  0
3DFACE
  8
0
  6
CONTINUOUS
 62
   249
 10
263.548156
 20
61.923461
 30
0.0
 11
263.561876
 21
61.923461
 31
0.0
 12
263.561876
 22
62.903461
 32
0.0
 13
263.548156
 23
62.903461
 33
0.0
  0
3DFACE
  8
0
  6
CONTINUOUS
 62
   249
 10
263.561876
 20
61.923461
 30
0.0
 11
263.575596
 21
61.923461
 31
0.0
 12
263.575596
 22
62.903461
 32
0.0
 13
263.561876
 23
62.903461
 33
0.0
  0
3DFACE
  8
0
  6
CONTINUOUS
 62
   249
 10
263.575596
 20
61.923461
 30
0.0
 11
263.589316
 21
61.923461
 31
0.0
 12
263.589316
 22
62.903461
 32
0.0
 13
263.575596
 23
62.903461
 33
0.0
  0
3DFACE
  8
0
  6
CONTINUOUS
 62
   249
 10
263.589316
 20
61.923461
 30
0.0
 11
263.603036
 21
61.923461
 31
0.0
 12
263.603036
 22
62.903461
 32
0.0
 13
263.589316
 23
62.903461
 33
0.0
  0
3DFACE
  8
0
  6
CONTINUOUS
 62
   249
 10
263.603036
 20
61.923461
 30
0.0
 11
263.616756
 21
61.923461
 31
0.0
 12
263.616756
 22
62.903461
 32
0.0
 13
263.603036
 23
62.903461
 33
0.0
  0
3DFACE
  8
0
  6
CONTINUOUS
 62
   249
 10
263.616756
 20
61.923461
 30
0.0
 11
263.630476
 21
61.923461
 31
0.0
 12
263.630476
 22
62.903461
 32
0.0
 13
263.616756
 23
62.903461
 33
0.0
  0
3DFACE
  8
0
  6
CONTINUOUS
 62
   249
 10
263.630476
 20
61.923461
 30
0.0
 11
263.644196
 21
61.923461
 31
0.0
 12
263.644196
 22
62.903461
 32
0.0
 13
263.630476
 23
62.903461
 33
0.0
  0
3DFACE
  8
0
  6
CONTINUOUS
 62
   249
 10
263.644196
 20
61.923461
 30
0.0
 11
263.657916
 21
61.923461
 31
0.0
 12
263.657916
 22
62.903461
 32
0.0
 13
263.644196
 23
62.903461
 33
0.0
  0
3DFACE
  8
0
  6
CONTINUOUS
 62
   249
 10
263.657916
 20
61.923461
 30
0.0
 11
263.671636
 21
61.923461
 31
0.0
 12
263.671636
 22
62.903461
 32
0.0
 13
263.657916
 23
62.903461
 33
0.0
  0
3DFACE
  8
0
  6
CONTINUOUS
 62
   249
 10
263.671636
 20
61.923461
 30
0.0
 11
263.685356
 21
61.923461
 31
0.0
 12
263.685356
 22
62.903461
 32
0.0
 13
263.671636
 23
62.903461
 33
0.0
  0
3DFACE
  8
0
  6
CONTINUOUS
 62
   249
 10
263.685356
 20
61.923461
 30
0.0
 11
263.699076
 21
61.923461
 31
0.0
 12
263.699076
 22
62.903461
 32
0.0
 13
263.685356
 23
62.903461
 33
0.0
  0
3DFACE
  8
0
  6
CONTINUOUS
 62
   249
 10
263.699076
 20
61.923461
 30
0.0
 11
263.712796
 21
61.923461
 31
0.0
 12
263.712796
 22
62.903461
 32
0.0
 13
263.699076
 23
62.903461
 33
0.0
  0
3DFACE
  8
0
  6
CONTINUOUS
 62
   249
 10
263.712796
 20
61.923461
 30
0.0
 11
263.726516
 21
61.923461
 31
0.0
 12
263.726516
 22
62.903461
 32
0.0
 13
263.712796
 23
62.903461
 33
0.0
  0
3DFACE
  8
0
  6
CONTINUOUS
 62
   249
 10
263.726516
 20
61.923461
 30
0.0
 11
263.740236
 21
61.923461
 31
0.0
 12
263.740236
 22
62.903461
 32
0.0
 13
263.726516
 23
62.903461
 33
0.0
  0
3DFACE
  8
0
  6
CONTINUOUS
 62
   249
 10
263.740236
 20
61.923461
 30
0.0
 11
263.753956
 21
61.923461
 31
0.0
 12
263.753956
 22
62.903461
 32
0.0
 13
263.740236
 23
62.903461
 33
0.0
  0
3DFACE
  8
0
  6
CONTINUOUS
 62
   249
 10
263.753956
 20
61.923461
 30
0.0
 11
263.767676
 21
61.923461
 31
0.0
 12
263.767676
 22
62.903461
 32
0.0
 13
263.753956
 23
62.903461
 33
0.0
  0
3DFACE
  8
0
  6
CONTINUOUS
 62
   249
 10
263.767676
 20
61.923461
 30
0.0
 11
263.781396
 21
61.923461
 31
0.0
 12
263.781396
 22
62.903461
 32
0.0
 13
263.767676
 23
62.903461
 33
0.0
  0
3DFACE
  8
0
  6
CONTINUOUS
 62
   249
 10
263.781396
 20
61.923461
 30
0.0
 11
263.795116
 21
61.923461
 31
0.0
 12
263.795116
 22
62.903461
 32
0.0
 13
263.781396
 23
62.903461
 33
0.0
  0
3DFACE
  8
0
  6
CONTINUOUS
 62
   249
 10
263.795116
 20
61.923461
 30
0.0
 11
263.808836
 21
61.923461
 31
0.0
 12
263.808836
 22
62.903461
 32
0.0
 13
263.795116
 23
62.903461
 33
0.0
  0
3DFACE
  8
0
  6
CONTINUOUS
 62
   249
 10
263.808836
 20
61.923461
 30
0.0
 11
263.822556
 21
61.923461
 31
0.0
 12
263.822556
 22
62.903461
 32
0.0
 13
263.808836
 23
62.903461
 33
0.0
  0
3DFACE
  8
0
  6
CONTINUOUS
 62
   249
 10
263.822556
 20
61.923461
 30
0.0
 11
263.836276
 21
61.923461
 31
0.0
 12
263.836276
 22
62.903461
 32
0.0
 13
263.822556
 23
62.903461
 33
0.0
  0
3DFACE
  8
0
  6
CONTINUOUS
 62
   249
 10
263.836276
 20
61.923461
 30
0.0
 11
263.849996
 21
61.923461
 31
0.0
 12
263.849996
 22
62.903461
 32
0.0
 13
263.836276
 23
62.903461
 33
0.0
  0
3DFACE
  8
0
  6
CONTINUOUS
 62
   249
 10
263.849996
 20
61.923461
 30
0.0
 11
263.863716
 21
61.923461
 31
0.0
 12
263.863716
 22
62.903461
 32
0.0
 13
263.849996
 23
62.903461
 33
0.0
  0
3DFACE
  8
0
  6
CONTINUOUS
 62
   249
 10
263.863716
 20
61.923461
 30
0.0
 11
263.877436
 21
61.923461
 31
0.0
 12
263.877436
 22
62.903461
 32
0.0
 13
263.863716
 23
62.903461
 33
0.0
  0
3DFACE
  8
0
  6
CONTINUOUS
 62
   249
 10
263.877436
 20
61.923461
 30
0.0
 11
263.891156
 21
61.923461
 31
0.0
 12
263.891156
 22
62.903461
 32
0.0
 13
263.877436
 23
62.903461
 33
0.0
  0
3DFACE
  8
0
  6
CONTINUOUS
 62
   249
 10
263.891156
 20
61.923461
 30
0.0
 11
263.904876
 21
61.923461
 31
0.0
 12
263.904876
 22
62.903461
 32
0.0
 13
263.891156
 23
62.903461
 33
0.0
  0
3DFACE
  8
0
  6
CONTINUOUS
 62
   249
 10
263.904876
 20
61.923461
 30
0.0
 11
263.918596
 21
61.923461
 31
0.0
 12
263.918596
 22
62.903461
 32
0.0
 13
263.904876
 23
62.903461
 33
0.0
  0
3DFACE
  8
0
  6
CONTINUOUS
 62
   249
 10
263.918596
 20
61.923461
 30
0.0
 11
263.932316
 21
61.923461
 31
0.0
 12
263.932316
 22
62.903461
 32
0.0
 13
263.918596
 23
62.903461
 33
0.0
  0
3DFACE
  8
0
  6
CONTINUOUS
 62
   249
 10
263.932316
 20
61.923461
 30
0.0
 11
263.946036
 21
61.923461
 31
0.0
 12
263.946036
 22
62.903461
 32
0.0
 13
263.932316
 23
62.903461
 33
0.0
  0
3DFACE
  8
0
  6
CONTINUOUS
 62
   249
 10
263.946036
 20
61.923461
 30
0.0
 11
263.959756
 21
61.923461
 31
0.0
 12
263.959756
 22
62.903461
 32
0.0
 13
263.946036
 23
62.903461
 33
0.0
  0
3DFACE
  8
0
  6
CONTINUOUS
 62
   249
 10
263.959756
 20
61.923461
 30
0.0
 11
263.973476
 21
61.923461
 31
0.0
 12
263.973476
 22
62.903461
 32
0.0
 13
263.959756
 23
62.903461
 33
0.0
  0
3DFACE
  8
0
  6
CONTINUOUS
 62
   249
 10
263.973476
 20
61.923461
 30
0.0
 11
263.987196
 21
61.923461
 31
0.0
 12
263.987196
 22
62.903461
 32
0.0
 13
263.973476
 23
62.903461
 33
0.0
  0
3DFACE
  8
0
  6
CONTINUOUS
 62
   249
 10
263.987196
 20
61.923461
 30
0.0
 11
264.000916
 21
61.923461
 31
0.0
 12
264.000916
 22
62.903461
 32
0.0
 13
263.987196
 23
62.903461
 33
0.0
  0
3DFACE
  8
0
  6
CONTINUOUS
 62
   249
 10
264.000916
 20
61.923461
 30
0.0
 11
264.014636
 21
61.923461
 31
0.0
 12
264.014636
 22
62.903461
 32
0.0
 13
264.000916
 23
62.903461
 33
0.0
  0
3DFACE
  8
0
  6
CONTINUOUS
 62
   249
 10
264.014636
 20
61.923461
 30
0.0
 11
264.028356
 21
61.923461
 31
0.0
 12
264.028356
 22
62.903461
 32
0.0
 13
264.014636
 23
62.903461
 33
0.0
  0
3DFACE
  8
0
  6
CONTINUOUS
 62
   249
 10
264.028356
 20
61.923461
 30
0.0
 11
264.042076
 21
61.923461
 31
0.0
 12
264.042076
 22
62.903461
 32
0.0
 13
264.028356
 23
62.903461
 33
0.0
  0
3DFACE
  8
0
  6
CONTINUOUS
 62
   249
 10
264.042076
 20
61.923461
 30
0.0
 11
264.055796
 21
61.923461
 31
0.0
 12
264.055796
 22
62.903461
 32
0.0
 13
264.042076
 23
62.903461
 33
0.0
  0
3DFACE
  8
0
  6
CONTINUOUS
 62
   249
 10
264.055796
 20
61.923461
 30
0.0
 11
264.069516
 21
61.923461
 31
0.0
 12
264.069516
 22
62.903461
 32
0.0
 13
264.055796
 23
62.903461
 33
0.0
  0
3DFACE
  8
0
  6
CONTINUOUS
 62
   249
 10
264.069516
 20
61.923461
 30
0.0
 11
264.083236
 21
61.923461
 31
0.0
 12
264.083236
 22
62.903461
 32
0.0
 13
264.069516
 23
62.903461
 33
0.0
  0
3DFACE
  8
0
  6
CONTINUOUS
 62
   249
 10
264.083236
 20
61.923461
 30
0.0
 11
264.096956
 21
61.923461
 31
0.0
 12
264.096956
 22
62.903461
 32
0.0
 13
264.083236
 23
62.903461
 33
0.0
  0
3DFACE
  8
0
  6
CONTINUOUS
 62
   249
 10
264.096956
 20
61.923461
 30
0.0
 11
264.110676
 21
61.923461
 31
0.0
 12
264.110676
 22
62.903461
 32
0.0
 13
264.096956
 23
62.903461
 33
0.0
  0
3DFACE
  8
0
  6
CONTINUOUS
 62
   249
 10
264.110676
 20
61.923461
 30
0.0
 11
264.124396
 21
61.923461
 31
0.0
 12
264.124396
 22
62.903461
 32
0.0
 13
264.110676
 23
62.903461
 33
0.0
  0
3DFACE
  8
0
  6
CONTINUOUS
 62
   249
 10
264.124396
 20
61.923461
 30
0.0
 11
264.138116
 21
61.923461
 31
0.0
 12
264.138116
 22
62.903461
 32
0.0
 13
264.124396
 23
62.903461
 33
0.0
  0
3DFACE
  8
0
  6
CONTINUOUS
 62
   249
 10
264.138116
 20
61.923461
 30
0.0
 11
264.151836
 21
61.923461
 31
0.0
 12
264.151836
 22
62.903461
 32
0.0
 13
264.138116
 23
62.903461
 33
0.0
  0
3DFACE
  8
0
  6
CONTINUOUS
 62
   249
 10
264.151836
 20
61.923461
 30
0.0
 11
264.165556
 21
61.923461
 31
0.0
 12
264.165556
 22
62.903461
 32
0.0
 13
264.151836
 23
62.903461
 33
0.0
  0
3DFACE
  8
0
  6
CONTINUOUS
 62
   249
 10
264.165556
 20
61.923461
 30
0.0
 11
264.179276
 21
61.923461
 31
0.0
 12
264.179276
 22
62.903461
 32
0.0
 13
264.165556
 23
62.903461
 33
0.0
  0
3DFACE
  8
0
  6
CONTINUOUS
 62
   249
 10
264.179276
 20
61.923461
 30
0.0
 11
264.192996
 21
61.923461
 31
0.0
 12
264.192996
 22
62.903461
 32
0.0
 13
264.179276
 23
62.903461
 33
0.0
  0
3DFACE
  8
0
  6
CONTINUOUS
 62
   249
 10
264.192996
 20
61.923461
 30
0.0
 11
264.206716
 21
61.923461
 31
0.0
 12
264.206716
 22
62.903461
 32
0.0
 13
264.192996
 23
62.903461
 33
0.0
  0
3DFACE
  8
0
  6
CONTINUOUS
 62
   249
 10
264.206716
 20
61.923461
 30
0.0
 11
264.220436
 21
61.923461
 31
0.0
 12
264.220436
 22
62.903461
 32
0.0
 13
264.206716
 23
62.903461
 33
0.0
  0
3DFACE
  8
0
  6
CONTINUOUS
 62
   249
 10
264.220436
 20
61.923461
 30
0.0
 11
264.234156
 21
61.923461
 31
0.0
 12
264.234156
 22
62.903461
 32
0.0
 13
264.220436
 23
62.903461
 33
0.0
  0
3DFACE
  8
0
  6
CONTINUOUS
 62
   249
 10
264.234156
 20
61.923461
 30
0.0
 11
264.247876
 21
61.923461
 31
0.0
 12
264.247876
 22
62.903461
 32
0.0
 13
264.234156
 23
62.903461
 33
0.0
  0
3DFACE
  8
0
  6
CONTINUOUS
 62
   249
 10
264.247876
 20
61.923461
 30
0.0
 11
264.261596
 21
61.923461
 31
0.0
 12
264.261596
 22
62.903461
 32
0.0
 13
264.247876
 23
62.903461
 33
0.0
  0
3DFACE
  8
0
  6
CONTINUOUS
 62
   249
 10
264.261596
 20
61.923461
 30
0.0
 11
264.275316
 21
61.923461
 31
0.0
 12
264.275316
 22
62.903461
 32
0.0
 13
264.261596
 23
62.903461
 33
0.0
  0
3DFACE
  8
0
  6
CONTINUOUS
 62
   249
 10
264.275316
 20
61.923461
 30
0.0
 11
264.289036
 21
61.923461
 31
0.0
 12
264.289036
 22
62.903461
 32
0.0
 13
264.275316
 23
62.903461
 33
0.0
  0
3DFACE
  8
0
  6
CONTINUOUS
 62
   249
 10
264.289036
 20
61.923461
 30
0.0
 11
264.302756
 21
61.923461
 31
0.0
 12
264.302756
 22
62.903461
 32
0.0
 13
264.289036
 23
62.903461
 33
0.0
  0
3DFACE
  8
0
  6
CONTINUOUS
 62
   249
 10
264.302756
 20
61.923461
 30
0.0
 11
264.316476
 21
61.923461
 31
0.0
 12
264.316476
 22
62.903461
 32
0.0
 13
264.302756
 23
62.903461
 33
0.0
  0
3DFACE
  8
0
  6
CONTINUOUS
 62
   249
 10
264.316476
 20
61.923461
 30
0.0
 11
264.330196
 21
61.923461
 31
0.0
 12
264.330196
 22
62.903461
 32
0.0
 13
264.316476
 23
62.903461
 33
0.0
  0
3DFACE
  8
0
  6
CONTINUOUS
 62
   249
 10
264.330196
 20
61.923461
 30
0.0
 11
264.343916
 21
61.923461
 31
0.0
 12
264.343916
 22
62.903461
 32
0.0
 13
264.330196
 23
62.903461
 33
0.0
  0
3DFACE
  8
0
  6
CONTINUOUS
 62
   249
 10
264.343916
 20
61.923461
 30
0.0
 11
264.357636
 21
61.923461
 31
0.0
 12
264.357636
 22
62.903461
 32
0.0
 13
264.343916
 23
62.903461
 33
0.0
  0
3DFACE
  8
0
  6
CONTINUOUS
 62
   249
 10
264.357636
 20
61.923461
 30
0.0
 11
264.371356
 21
61.923461
 31
0.0
 12
264.371356
 22
62.903461
 32
0.0
 13
264.357636
 23
62.903461
 33
0.0
  0
3DFACE
  8
0
  6
CONTINUOUS
 62
   249
 10
264.371356
 20
61.923461
 30
0.0
 11
264.385076
 21
61.923461
 31
0.0
 12
264.385076
 22
62.903461
 32
0.0
 13
264.371356
 23
62.903461
 33
0.0
  0
3DFACE
  8
0
  6
CONTINUOUS
 62
   249
 10
264.385076
 20
61.923461
 30
0.0
 11
264.398796
 21
61.923461
 31
0.0
 12
264.398796
 22
62.903461
 32
0.0
 13
264.385076
 23
62.903461
 33
0.0
  0
3DFACE
  8
0
  6
CONTINUOUS
 62
   249
 10
264.398796
 20
61.923461
 30
0.0
 11
264.412516
 21
61.923461
 31
0.0
 12
264.412516
 22
62.903461
 32
0.0
 13
264.398796
 23
62.903461
 33
0.0
  0
3DFACE
  8
0
  6
CONTINUOUS
 62
   249
 10
264.412516
 20
61.923461
 30
0.0
 11
264.426236
 21
61.923461
 31
0.0
 12
264.426236
 22
62.903461
 32
0.0
 13
264.412516
 23
62.903461
 33
0.0
  0
3DFACE
  8
0
  6
CONTINUOUS
 62
   249
 10
264.426236
 20
61.923461
 30
0.0
 11
264.439956
 21
61.923461
 31
0.0
 12
264.439956
 22
62.903461
 32
0.0
 13
264.426236
 23
62.903461
 33
0.0
  0
3DFACE
  8
0
  6
CONTINUOUS
 62
   249
 10
264.439956
 20
61.923461
 30
0.0
 11
264.453676
 21
61.923461
 31
0.0
 12
264.453676
 22
62.903461
 32
0.0
 13
264.439956
 23
62.903461
 33
0.0
  0
3DFACE
  8
0
  6
CONTINUOUS
 62
   249
 10
264.453676
 20
61.923461
 30
0.0
 11
264.467396
 21
61.923461
 31
0.0
 12
264.467396
 22
62.903461
 32
0.0
 13
264.453676
 23
62.903461
 33
0.0
  0
3DFACE
  8
0
  6
CONTINUOUS
 62
   249
 10
264.467396
 20
61.923461
 30
0.0
 11
264.481116
 21
61.923461
 31
0.0
 12
264.481116
 22
62.903461
 32
0.0
 13
264.467396
 23
62.903461
 33
0.0
  0
3DFACE
  8
0
  6
CONTINUOUS
 62
   249
 10
264.481116
 20
61.923461
 30
0.0
 11
264.494836
 21
61.923461
 31
0.0
 12
264.494836
 22
62.903461
 32
0.0
 13
264.481116
 23
62.903461
 33
0.0
  0
3DFACE
  8
0
  6
CONTINUOUS
 62
   249
 10
264.494836
 20
61.923461
 30
0.0
 11
264.508556
 21
61.923461
 31
0.0
 12
264.508556
 22
62.903461
 32
0.0
 13
264.494836
 23
62.903461
 33
0.0
  0
3DFACE
  8
0
  6
CONTINUOUS
 62
   249
 10
264.508556
 20
61.923461
 30
0.0
 11
264.522276
 21
61.923461
 31
0.0
 12
264.522276
 22
62.903461
 32
0.0
 13
264.508556
 23
62.903461
 33
0.0
  0
3DFACE
  8
0
  6
CONTINUOUS
 62
   249
 10
264.522276
 20
61.923461
 30
0.0
 11
264.535996
 21
61.923461
 31
0.0
 12
264.535996
 22
62.903461
 32
0.0
 13
264.522276
 23
62.903461
 33
0.0
  0
3DFACE
  8
0
  6
CONTINUOUS
 62
   249
 10
264.535996
 20
61.923461
 30
0.0
 11
264.549716
 21
61.923461
 31
0.0
 12
264.549716
 22
62.903461
 32
0.0
 13
264.535996
 23
62.903461
 33
0.0
  0
3DFACE
  8
0
  6
CONTINUOUS
 62
   249
 10
264.549716
 20
61.923461
 30
0.0
 11
264.563436
 21
61.923461
 31
0.0
 12
264.563436
 22
62.903461
 32
0.0
 13
264.549716
 23
62.903461
 33
0.0
  0
3DFACE
  8
0
  6
CONTINUOUS
 62
   249
 10
264.563436
 20
61.923461
 30
0.0
 11
264.577156
 21
61.923461
 31
0.0
 12
264.577156
 22
62.903461
 32
0.0
 13
264.563436
 23
62.903461
 33
0.0
  0
3DFACE
  8
0
  6
CONTINUOUS
 62
   249
 10
264.577156
 20
61.923461
 30
0.0
 11
264.590876
 21
61.923461
 31
0.0
 12
264.590876
 22
62.903461
 32
0.0
 13
264.577156
 23
62.903461
 33
0.0
  0
3DFACE
  8
0
  6
CONTINUOUS
 62
   249
 10
264.590876
 20
61.923461
 30
0.0
 11
264.604596
 21
61.923461
 31
0.0
 12
264.604596
 22
62.903461
 32
0.0
 13
264.590876
 23
62.903461
 33
0.0
  0
3DFACE
  8
0
  6
CONTINUOUS
 62
   249
 10
264.604596
 20
61.923461
 30
0.0
 11
264.618316
 21
61.923461
 31
0.0
 12
264.618316
 22
62.903461
 32
0.0
 13
264.604596
 23
62.903461
 33
0.0
  0
3DFACE
  8
0
  6
CONTINUOUS
 62
   249
 10
264.618316
 20
61.923461
 30
0.0
 11
264.632036
 21
61.923461
 31
0.0
 12
264.632036
 22
62.903461
 32
0.0
 13
264.618316
 23
62.903461
 33
0.0
  0
3DFACE
  8
0
  6
CONTINUOUS
 62
   249
 10
264.632036
 20
61.923461
 30
0.0
 11
264.645756
 21
61.923461
 31
0.0
 12
264.645756
 22
62.903461
 32
0.0
 13
264.632036
 23
62.903461
 33
0.0
  0
3DFACE
  8
0
  6
CONTINUOUS
 62
   249
 10
264.645756
 20
61.923461
 30
0.0
 11
264.659476
 21
61.923461
 31
0.0
 12
264.659476
 22
62.903461
 32
0.0
 13
264.645756
 23
62.903461
 33
0.0
  0
3DFACE
  8
0
  6
CONTINUOUS
 62
   249
 10
264.659476
 20
61.923461
 30
0.0
 11
264.673196
 21
61.923461
 31
0.0
 12
264.673196
 22
62.903461
 32
0.0
 13
264.659476
 23
62.903461
 33
0.0
  0
3DFACE
  8
0
  6
CONTINUOUS
 62
   249
 10
264.673196
 20
61.923461
 30
0.0
 11
264.686916
 21
61.923461
 31
0.0
 12
264.686916
 22
62.903461
 32
0.0
 13
264.673196
 23
62.903461
 33
0.0
  0
3DFACE
  8
0
  6
CONTINUOUS
 62
   249
 10
264.686916
 20
61.923461
 30
0.0
 11
264.700636
 21
61.923461
 31
0.0
 12
264.700636
 22
62.903461
 32
0.0
 13
264.686916
 23
62.903461
 33
0.0
  0
3DFACE
  8
0
  6
CONTINUOUS
 62
   249
 10
264.700636
 20
61.923461
 30
0.0
 11
264.714356
 21
61.923461
 31
0.0
 12
264.714356
 22
62.903461
 32
0.0
 13
264.700636
 23
62.903461
 33
0.0
  0
3DFACE
  8
0
  6
CONTINUOUS
 62
   249
 10
264.714356
 20
61.923461
 30
0.0
 11
264.728076
 21
61.923461
 31
0.0
 12
264.728076
 22
62.903461
 32
0.0
 13
264.714356
 23
62.903461
 33
0.0
  0
3DFACE
  8
0
  6
CONTINUOUS
 62
   249
 10
264.728076
 20
61.923461
 30
0.0
 11
264.741796
 21
61.923461
 31
0.0
 12
264.741796
 22
62.903461
 32
0.0
 13
264.728076
 23
62.903461
 33
0.0
  0
3DFACE
  8
0
  6
CONTINUOUS
 62
   249
 10
264.741796
 20
61.923461
 30
0.0
 11
264.755516
 21
61.923461
 31
0.0
 12
264.755516
 22
62.903461
 32
0.0
 13
264.741796
 23
62.903461
 33
0.0
  0
3DFACE
  8
0
  6
CONTINUOUS
 62
   249
 10
264.755516
 20
61.923461
 30
0.0
 11
264.769236
 21
61.923461
 31
0.0
 12
264.769236
 22
62.903461
 32
0.0
 13
264.755516
 23
62.903461
 33
0.0
  0
3DFACE
  8
0
  6
CONTINUOUS
 62
   249
 10
264.769236
 20
61.923461
 30
0.0
 11
264.782956
 21
61.923461
 31
0.0
 12
264.782956
 22
62.903461
 32
0.0
 13
264.769236
 23
62.903461
 33
0.0
  0
3DFACE
  8
0
  6
CONTINUOUS
 62
   249
 10
264.782956
 20
61.923461
 30
0.0
 11
264.796676
 21
61.923461
 31
0.0
 12
264.796676
 22
62.903461
 32
0.0
 13
264.782956
 23
62.903461
 33
0.0
  0
3DFACE
  8
0
  6
CONTINUOUS
 62
   249
 10
264.796676
 20
61.923461
 30
0.0
 11
264.810396
 21
61.923461
 31
0.0
 12
264.810396
 22
62.903461
 32
0.0
 13
264.796676
 23
62.903461
 33
0.0
  0
3DFACE
  8
0
  6
CONTINUOUS
 62
   249
 10
264.810396
 20
61.923461
 30
0.0
 11
264.824116
 21
61.923461
 31
0.0
 12
264.824116
 22
62.903461
 32
0.0
 13
264.810396
 23
62.903461
 33
0.0
  0
3DFACE
  8
0
  6
CONTINUOUS
 62
   249
 10
264.824116
 20
61.923461
 30
0.0
 11
264.837836
 21
61.923461
 31
0.0
 12
264.837836
 22
62.903461
 32
0.0
 13
264.824116
 23
62.903461
 33
0.0
  0
3DFACE
  8
0
  6
CONTINUOUS
 62
   249
 10
264.837836
 20
61.923461
 30
0.0
 11
264.851556
 21
61.923461
 31
0.0
 12
264.851556
 22
62.903461
 32
0.0
 13
264.837836
 23
62.903461
 33
0.0
  0
3DFACE
  8
0
  6
CONTINUOUS
 62
   249
 10
264.851556
 20
61.923461
 30
0.0
 11
264.865276
 21
61.923461
 31
0.0
 12
264.865276
 22
62.903461
 32
0.0
 13
264.851556
 23
62.903461
 33
0.0
  0
3DFACE
  8
0
  6
CONTINUOUS
 62
   249
 10
264.865276
 20
61.923461
 30
0.0
 11
264.878996
 21
61.923461
 31
0.0
 12
264.878996
 22
62.903461
 32
0.0
 13
264.865276
 23
62.903461
 33
0.0
  0
3DFACE
  8
0
  6
CONTINUOUS
 62
   249
 10
264.878996
 20
61.923461
 30
0.0
 11
264.892716
 21
61.923461
 31
0.0
 12
264.892716
 22
62.903461
 32
0.0
 13
264.878996
 23
62.903461
 33
0.0
  0
3DFACE
  8
0
  6
CONTINUOUS
 62
   249
 10
264.892716
 20
61.923461
 30
0.0
 11
264.906436
 21
61.923461
 31
0.0
 12
264.906436
 22
62.903461
 32
0.0
 13
264.892716
 23
62.903461
 33
0.0
  0
3DFACE
  8
0
  6
CONTINUOUS
 62
   249
 10
264.906436
 20
61.923461
 30
0.0
 11
264.920156
 21
61.923461
 31
0.0
 12
264.920156
 22
62.903461
 32
0.0
 13
264.906436
 23
62.903461
 33
0.0
  0
3DFACE
  8
0
  6
CONTINUOUS
 62
   249
 10
264.920156
 20
61.923461
 30
0.0
 11
264.933876
 21
61.923461
 31
0.0
 12
264.933876
 22
62.903461
 32
0.0
 13
264.920156
 23
62.903461
 33
0.0
  0
3DFACE
  8
0
  6
CONTINUOUS
 62
   249
 10
264.933876
 20
61.923461
 30
0.0
 11
264.947596
 21
61.923461
 31
0.0
 12
264.947596
 22
62.903461
 32
0.0
 13
264.933876
 23
62.903461
 33
0.0
  0
3DFACE
  8
0
  6
CONTINUOUS
 62
   249
 10
264.947596
 20
61.923461
 30
0.0
 11
264.961316
 21
61.923461
 31
0.0
 12
264.961316
 22
62.903461
 32
0.0
 13
264.947596
 23
62.903461
 33
0.0
  0
3DFACE
  8
0
  6
CONTINUOUS
 62
   249
 10
264.961316
 20
61.923461
 30
0.0
 11
264.975036
 21
61.923461
 31
0.0
 12
264.975036
 22
62.903461
 32
0.0
 13
264.961316
 23
62.903461
 33
0.0
  0
3DFACE
  8
0
  6
CONTINUOUS
 62
   249
 10
264.975036
 20
61.923461
 30
0.0
 11
264.988756
 21
61.923461
 31
0.0
 12
264.988756
 22
62.903461
 32
0.0
 13
264.975036
 23
62.903461
 33
0.0
  0
3DFACE
  8
0
  6
CONTINUOUS
 62
   249
 10
264.988756
 20
61.923461
 30
0.0
 11
265.002476
 21
61.923461
 31
0.0
 12
265.002476
 22
62.903461
 32
0.0
 13
264.988756
 23
62.903461
 33
0.0
  0
3DFACE
  8
0
  6
CONTINUOUS
 62
   249
 10
265.002476
 20
61.923461
 30
0.0
 11
265.016196
 21
61.923461
 31
0.0
 12
265.016196
 22
62.903461
 32
0.0
 13
265.002476
 23
62.903461
 33
0.0
  0
3DFACE
  8
0
  6
CONTINUOUS
 62
   249
 10
265.016196
 20
61.923461
 30
0.0
 11
265.029916
 21
61.923461
 31
0.0
 12
265.029916
 22
62.903461
 32
0.0
 13
265.016196
 23
62.903461
 33
0.0
  0
3DFACE
  8
0
  6
CONTINUOUS
 62
   249
 10
265.029916
 20
61.923461
 30
0.0
 11
265.043636
 21
61.923461
 31
0.0
 12
265.043636
 22
62.903461
 32
0.0
 13
265.029916
 23
62.903461
 33
0.0
  0
3DFACE
  8
0
  6
CONTINUOUS
 62
   249
 10
265.043636
 20
61.923461
 30
0.0
 11
265.057356
 21
61.923461
 31
0.0
 12
265.057356
 22
62.903461
 32
0.0
 13
265.043636
 23
62.903461
 33
0.0
  0
3DFACE
  8
0
  6
CONTINUOUS
 62
   249
 10
265.057356
 20
61.923461
 30
0.0
 11
265.071076
 21
61.923461
 31
0.0
 12
265.071076
 22
62.903461
 32
0.0
 13
265.057356
 23
62.903461
 33
0.0
  0
3DFACE
  8
0
  6
CONTINUOUS
 62
   249
 10
265.071076
 20
61.923461
 30
0.0
 11
265.084796
 21
61.923461
 31
0.0
 12
265.084796
 22
62.903461
 32
0.0
 13
265.071076
 23
62.903461
 33
0.0
  0
3DFACE
  8
0
  6
CONTINUOUS
 62
   249
 10
265.084796
 20
61.923461
 30
0.0
 11
265.098516
 21
61.923461
 31
0.0
 12
265.098516
 22
62.903461
 32
0.0
 13
265.084796
 23
62.903461
 33
0.0
  0
3DFACE
  8
0
  6
CONTINUOUS
 62
   249
 10
265.098516
 20
61.923461
 30
0.0
 11
265.112236
 21
61.923461
 31
0.0
 12
265.112236
 22
62.903461
 32
0.0
 13
265.098516
 23
62.903461
 33
0.0
  0
3DFACE
  8
0
  6
CONTINUOUS
 62
   249
 10
265.112236
 20
61.923461
 30
0.0
 11
265.125956
 21
61.923461
 31
0.0
 12
265.125956
 22
62.903461
 32
0.0
 13
265.112236
 23
62.903461
 33
0.0
  0
3DFACE
  8
0
  6
CONTINUOUS
 62
   249
 10
265.125956
 20
61.923461
 30
0.0
 11
265.139676
 21
61.923461
 31
0.0
 12
265.139676
 22
62.903461
 32
0.0
 13
265.125956
 23
62.903461
 33
0.0
  0
3DFACE
  8
0
  6
CONTINUOUS
 62
   249
 10
265.139676
 20
61.923461
 30
0.0
 11
265.153396
 21
61.923461
 31
0.0
 12
265.153396
 22
62.903461
 32
0.0
 13
265.139676
 23
62.903461
 33
0.0
  0
3DFACE
  8
0
  6
CONTINUOUS
 62
   249
 10
265.153396
 20
61.923461
 30
0.0
 11
265.167116
 21
61.923461
 31
0.0
 12
265.167116
 22
62.903461
 32
0.0
 13
265.153396
 23
62.903461
 33
0.0
  0
3DFACE
  8
0
  6
CONTINUOUS
 62
   249
 10
265.167116
 20
61.923461
 30
0.0
 11
265.180836
 21
61.923461
 31
0.0
 12
265.180836
 22
62.903461
 32
0.0
 13
265.167116
 23
62.903461
 33
0.0
  0
3DFACE
  8
0
  6
CONTINUOUS
 62
   249
 10
265.180836
 20
61.923461
 30
0.0
 11
265.194556
 21
61.923461
 31
0.0
 12
265.194556
 22
62.903461
 32
0.0
 13
265.180836
 23
62.903461
 33
0.0
  0
3DFACE
  8
0
  6
CONTINUOUS
 62
   249
 10
265.194556
 20
61.923461
 30
0.0
 11
265.208276
 21
61.923461
 31
0.0
 12
265.208276
 22
62.903461
 32
0.0
 13
265.194556
 23
62.903461
 33
0.0
  0
3DFACE
  8
0
  6
CONTINUOUS
 62
   249
 10
265.208276
 20
61.923461
 30
0.0
 11
265.221996
 21
61.923461
 31
0.0
 12
265.221996
 22
62.903461
 32
0.0
 13
265.208276
 23
62.903461
 33
0.0
  0
3DFACE
  8
0
  6
CONTINUOUS
 62
   249
 10
265.221996
 20
61.923461
 30
0.0
 11
265.235716
 21
61.923461
 31
0.0
 12
265.235716
 22
62.903461
 32
0.0
 13
265.221996
 23
62.903461
 33
0.0
  0
3DFACE
  8
0
  6
CONTINUOUS
 62
   249
 10
265.235716
 20
61.923461
 30
0.0
 11
265.249436
 21
61.923461
 31
0.0
 12
265.249436
 22
62.903461
 32
0.0
 13
265.235716
 23
62.903461
 33
0.0
  0
LINE
  8
0
  6
CONTINUOUS
 62
   249
 10
350.352234
 20
64.286055
 30
0.0
 11
351.239121
 21
64.286055
 31
0.0
  0
LINE
  8
0
  6
CONTINUOUS
 62
   249
 10
350.021129
 20
64.897688
 30
0.0
 11
351.6057
 21
64.897688
 31
0.0
  0
LINE
  8
0
  6
CONTINUOUS
 62
   249
 10
350.837065
 20
65.51975
 30
0.0
 11
352.031406
 21
65.51975
 31
0.0
  0
LINE
  8
0
  6
CONTINUOUS
 62
   249
 10
349.642724
 20
65.51975
 30
0.0
 11
350.837065
 21
65.51975
 31
0.0
  0
LINE
  8
0
  6
CONTINUOUS
 62
   249
 10
350.852952
 20
66.874021
 30
0.0
 11
350.852952
 21
65.51975
 31
0.0
  0
LINE
  8
0
  6
CONTINUOUS
 62
   249
 10
207.347595
 20
173.925586
 30
0.0
 11
208.596268
 21
173.214764
 31
0.0
  0
LINE
  8
0
  6
CONTINUOUS
 62
   249
 10
208.596268
 20
173.214764
 30
0.0
 11
207.347595
 21
172.581359
 31
0.0
  0
LINE
  8
0
  6
CONTINUOUS
 62
   249
 10
203.72323
 20
172.490627
 30
0.0
 11
202.474557
 21
173.201449
 31
0.0
  0
LINE
  8
0
  6
CONTINUOUS
 62
   249
 10
202.474557
 20
173.201449
 30
0.0
 11
203.72323
 21
173.834854
 31
0.0
  0
LINE
  8
0
  6
CONTINUOUS
 62
   249
 10
203.72323
 20
138.092989
 30
0.0
 11
202.474557
 21
138.803811
 31
0.0
  0
LINE
  8
0
  6
CONTINUOUS
 62
   249
 10
202.474557
 20
138.803811
 30
0.0
 11
203.72323
 21
139.437216
 31
0.0
  0
LINE
  8
0
  6
CONTINUOUS
 62
   249
 10
207.347595
 20
139.527947
 30
0.0
 11
208.596268
 21
138.817126
 31
0.0
  0
LINE
  8
0
  6
CONTINUOUS
 62
   249
 10
208.596268
 20
138.817126
 30
0.0
 11
207.347595
 21
138.183721
 31
0.0
  0
ARC
  8
0
  6
CONTINUOUS
 62
   249
 10
220.0
 20
161.768888
 30
0.0
 40
0.5
 50
180.0
 51
0.0
  0
ARC
  8
0
  6
CONTINUOUS
 62
   249
 10
220.0
 20
161.768888
 30
0.0
 40
0.5
 50
0.0
 51
180.0
  0
ARC
  8
0
  6
CONTINUOUS
 62
   249
 10
220.0
 20
155.0
 30
0.0
 40
0.5
 50
180.0
 51
0.0
  0
ARC
  8
0
  6
CONTINUOUS
 62
   249
 10
220.0
 20
155.0
 30
0.0
 40
0.5
 50
0.0
 51
180.0
  0
ARC
  8
0
  6
CONTINUOUS
 62
   249
 10
215.0
 20
168.479447
 30
0.0
 40
0.5
 50
180.0
 51
0.0
  0
ARC
  8
0
  6
CONTINUOUS
 62
   249
 10
215.0
 20
168.479447
 30
0.0
 40
0.5
 50
0.0
 51
180.0
  0
LINE
  8
0
  6
CONTINUOUS
 62
   249
 10
235.428695
 20
136.164635
 30
0.0
 11
233.082929
 21
137.499989
 31
0.0
  0
LINE
  8
0
  6
CONTINUOUS
 62
   249
 10
233.082929
 20
137.499989
 30
0.0
 11
235.428695
 21
138.689908
 31
0.0
  0
LINE
  8
0
  6
CONTINUOUS
 62
   249
 10
231.989729
 20
161.164635
 30
0.0
 11
229.643963
 21
162.499989
 31
0.0
  0
LINE
  8
0
  6
CONTINUOUS
 62
   249
 10
229.643963
 20
162.499989
 30
0.0
 11
231.989729
 21
163.689908
 31
0.0
  0
LINE
  8
0
  6
CONTINUOUS
 62
   249
 10
206.601355
 20
174.92391
 30
0.0
 11
207.488242
 21
174.92391
 31
0.0
  0
LINE
  8
0
  6
CONTINUOUS
 62
   249
 10
206.270251
 20
175.535544
 30
0.0
 11
207.854822
 21
175.535544
 31
0.0
  0
LINE
  8
0
  6
CONTINUOUS
 62
   249
 10
207.086187
 20
176.157606
 30
0.0
 11
208.280528
 21
176.157606
 31
0.0
  0
LINE
  8
0
  6
CONTINUOUS
 62
   249
 10
205.891846
 20
176.157606
 30
0.0
 11
207.086187
 21
176.157606
 31
0.0
  0
LINE
  8
0
  6
CONTINUOUS
 62
   249
 10
207.102073
 20
177.511876
 30
0.0
 11
207.102073
 21
176.157606
 31
0.0
  0
LINE
  8
0
  6
CONTINUOUS
 62
   249
 10
206.601355
 20
179.540355
 30
0.0
 11
207.488242
 21
179.540355
 31
0.0
  0
LINE
  8
0
  6
CONTINUOUS
 62
   249
 10
206.270251
 20
180.151988
 30
0.0
 11
207.854822
 21
180.151988
 31
0.0
  0
LINE
  8
0
  6
CONTINUOUS
 62
   249
 10
207.086187
 20
180.77405
 30
0.0
 11
208.280528
 21
180.77405
 31
0.0
  0
LINE
  8
0
  6
CONTINUOUS
 62
   249
 10
205.891846
 20
180.77405
 30
0.0
 11
207.086187
 21
180.77405
 31
0.0
  0
LINE
  8
0
  6
CONTINUOUS
 62
   249
 10
207.102073
 20
182.128321
 30
0.0
 11
207.102073
 21
180.77405
 31
0.0
  0
LINE
  8
0
  6
CONTINUOUS
 62
   249
 10
203.72323
 20
201.862772
 30
0.0
 11
202.474557
 21
202.573593
 31
0.0
  0
LINE
  8
0
  6
CONTINUOUS
 62
   249
 10
202.474557
 20
202.573593
 30
0.0
 11
203.72323
 21
203.206998
 31
0.0
  0
LINE
  8
0
  6
CONTINUOUS
 62
   249
 10
207.347595
 20
203.29773
 30
0.0
 11
208.596268
 21
202.586908
 31
0.0
  0
LINE
  8
0
  6
CONTINUOUS
 62
   249
 10
208.596268
 20
202.586908
 30
0.0
 11
207.347595
 21
201.953503
 31
0.0
  0
ARC
  8
0
  6
CONTINUOUS
 62
   249
 10
222.5
 20
210.0
 30
0.0
 40
0.5
 50
180.0
 51
0.0
  0
ARC
  8
0
  6
CONTINUOUS
 62
   249
 10
222.5
 20
210.0
 30
0.0
 40
0.5
 50
0.0
 51
180.0
  0
LINE
  8
0
  6
CONTINUOUS
 62
   249
 10
231.989729
 20
191.164635
 30
0.0
 11
229.643963
 21
192.499989
 31
0.0
  0
LINE
  8
0
  6
CONTINUOUS
 62
   249
 10
229.643963
 20
192.499989
 30
0.0
 11
231.989729
 21
193.689908
 31
0.0
  0
LINE
  8
0
  6
CONTINUOUS
 62
   249
 10
277.686172
 20
172.164412
 30
0.0
 11
278.573059
 21
172.164412
 31
0.0
  0
LINE
  8
0
  6
CONTINUOUS
 62
   249
 10
277.355067
 20
172.776045
 30
0.0
 11
278.939639
 21
172.776045
 31
0.0
  0
LINE
  8
0
  6
CONTINUOUS
 62
   249
 10
278.171003
 20
173.398108
 30
0.0
 11
279.365344
 21
173.398108
 31
0.0
  0
LINE
  8
0
  6
CONTINUOUS
 62
   249
 10
276.976662
 20
173.398108
 30
0.0
 11
278.171003
 21
173.398108
 31
0.0
  0
LINE
  8
0
  6
CONTINUOUS
 62
   249
 10
278.18689
 20
174.752378
 30
0.0
 11
278.18689
 21
173.398108
 31
0.0
  0
LINE
  8
0
  6
CONTINUOUS
 62
   249
 10
261.819436
 20
137.99
 30
0.0
 11
261.819436
 21
137.01
 31
0.0
  0
LINE
  8
0
  6
CONTINUOUS
 62
   249
 10
261.819436
 20
137.01
 30
0.0
 11
265.249436
 21
137.01
 31
0.0
  0
LINE
  8
0
  6
CONTINUOUS
 62
   249
 10
265.249436
 20
137.01
 30
0.0
 11
265.249436
 21
137.99
 31
0.0
  0
LINE
  8
0
  6
CONTINUOUS
 62
   249
 10
265.249436
 20
137.99
 30
0.0
 11
261.819436
 21
137.99
 31
0.0
  0
POLYLINE
  8
0
  6
CONTINUOUS
 62
   249
 66
     1
 10
0.0
 20
0.0
 30
0.0
 70
    16
 71
     2
 72
   251
  0
VERTEX
  8
0
  6
CONTINUOUS
 62
   249
 10
261.819436
 20
137.01
 30
0.0
 70
    64
  0
VERTEX
  8
0
  6
CONTINUOUS
 62
   249
 10
261.833156
 20
137.01
 30
0.0
 70
    64
  0
VERTEX
  8
0
  6
CONTINUOUS
 62
   249
 10
261.846876
 20
137.01
 30
0.0
 70
    64
  0
VERTEX
  8
0
  6
CONTINUOUS
 62
   249
 10
261.860596
 20
137.01
 30
0.0
 70
    64
  0
VERTEX
  8
0
  6
CONTINUOUS
 62
   249
 10
261.874316
 20
137.01
 30
0.0
 70
    64
  0
VERTEX
  8
0
  6
CONTINUOUS
 62
   249
 10
261.888036
 20
137.01
 30
0.0
 70
    64
  0
VERTEX
  8
0
  6
CONTINUOUS
 62
   249
 10
261.901756
 20
137.01
 30
0.0
 70
    64
  0
VERTEX
  8
0
  6
CONTINUOUS
 62
   249
 10
261.915476
 20
137.01
 30
0.0
 70
    64
  0
VERTEX
  8
0
  6
CONTINUOUS
 62
   249
 10
261.929196
 20
137.01
 30
0.0
 70
    64
  0
VERTEX
  8
0
  6
CONTINUOUS
 62
   249
 10
261.942916
 20
137.01
 30
0.0
 70
    64
  0
VERTEX
  8
0
  6
CONTINUOUS
 62
   249
 10
261.956636
 20
137.01
 30
0.0
 70
    64
  0
VERTEX
  8
0
  6
CONTINUOUS
 62
   249
 10
261.970356
 20
137.01
 30
0.0
 70
    64
  0
VERTEX
  8
0
  6
CONTINUOUS
 62
   249
 10
261.984076
 20
137.01
 30
0.0
 70
    64
  0
VERTEX
  8
0
  6
CONTINUOUS
 62
   249
 10
261.997796
 20
137.01
 30
0.0
 70
    64
  0
VERTEX
  8
0
  6
CONTINUOUS
 62
   249
 10
262.011516
 20
137.01
 30
0.0
 70
    64
  0
VERTEX
  8
0
  6
CONTINUOUS
 62
   249
 10
262.025236
 20
137.01
 30
0.0
 70
    64
  0
VERTEX
  8
0
  6
CONTINUOUS
 62
   249
 10
262.038956
 20
137.01
 30
0.0
 70
    64
  0
VERTEX
  8
0
  6
CONTINUOUS
 62
   249
 10
262.052676
 20
137.01
 30
0.0
 70
    64
  0
VERTEX
  8
0
  6
CONTINUOUS
 62
   249
 10
262.066396
 20
137.01
 30
0.0
 70
    64
  0
VERTEX
  8
0
  6
CONTINUOUS
 62
   249
 10
262.080116
 20
137.01
 30
0.0
 70
    64
  0
VERTEX
  8
0
  6
CONTINUOUS
 62
   249
 10
262.093836
 20
137.01
 30
0.0
 70
    64
  0
VERTEX
  8
0
  6
CONTINUOUS
 62
   249
 10
262.107556
 20
137.01
 30
0.0
 70
    64
  0
VERTEX
  8
0
  6
CONTINUOUS
 62
   249
 10
262.121276
 20
137.01
 30
0.0
 70
    64
  0
VERTEX
  8
0
  6
CONTINUOUS
 62
   249
 10
262.134996
 20
137.01
 30
0.0
 70
    64
  0
VERTEX
  8
0
  6
CONTINUOUS
 62
   249
 10
262.148716
 20
137.01
 30
0.0
 70
    64
  0
VERTEX
  8
0
  6
CONTINUOUS
 62
   249
 10
262.162436
 20
137.01
 30
0.0
 70
    64
  0
VERTEX
  8
0
  6
CONTINUOUS
 62
   249
 10
262.176156
 20
137.01
 30
0.0
 70
    64
  0
VERTEX
  8
0
  6
CONTINUOUS
 62
   249
 10
262.189876
 20
137.01
 30
0.0
 70
    64
  0
VERTEX
  8
0
  6
CONTINUOUS
 62
   249
 10
262.203596
 20
137.01
 30
0.0
 70
    64
  0
VERTEX
  8
0
  6
CONTINUOUS
 62
   249
 10
262.217316
 20
137.01
 30
0.0
 70
    64
  0
VERTEX
  8
0
  6
CONTINUOUS
 62
   249
 10
262.231036
 20
137.01
 30
0.0
 70
    64
  0
VERTEX
  8
0
  6
CONTINUOUS
 62
   249
 10
262.244756
 20
137.01
 30
0.0
 70
    64
  0
VERTEX
  8
0
  6
CONTINUOUS
 62
   249
 10
262.258476
 20
137.01
 30
0.0
 70
    64
  0
VERTEX
  8
0
  6
CONTINUOUS
 62
   249
 10
262.272196
 20
137.01
 30
0.0
 70
    64
  0
VERTEX
  8
0
  6
CONTINUOUS
 62
   249
 10
262.285916
 20
137.01
 30
0.0
 70
    64
  0
VERTEX
  8
0
  6
CONTINUOUS
 62
   249
 10
262.299636
 20
137.01
 30
0.0
 70
    64
  0
VERTEX
  8
0
  6
CONTINUOUS
 62
   249
 10
262.313356
 20
137.01
 30
0.0
 70
    64
  0
VERTEX
  8
0
  6
CONTINUOUS
 62
   249
 10
262.327076
 20
137.01
 30
0.0
 70
    64
  0
VERTEX
  8
0
  6
CONTINUOUS
 62
   249
 10
262.340796
 20
137.01
 30
0.0
 70
    64
  0
VERTEX
  8
0
  6
CONTINUOUS
 62
   249
 10
262.354516
 20
137.01
 30
0.0
 70
    64
  0
VERTEX
  8
0
  6
CONTINUOUS
 62
   249
 10
262.368236
 20
137.01
 30
0.0
 70
    64
  0
VERTEX
  8
0
  6
CONTINUOUS
 62
   249
 10
262.381956
 20
137.01
 30
0.0
 70
    64
  0
VERTEX
  8
0
  6
CONTINUOUS
 62
   249
 10
262.395676
 20
137.01
 30
0.0
 70
    64
  0
VERTEX
  8
0
  6
CONTINUOUS
 62
   249
 10
262.409396
 20
137.01
 30
0.0
 70
    64
  0
VERTEX
  8
0
  6
CONTINUOUS
 62
   249
 10
262.423116
 20
137.01
 30
0.0
 70
    64
  0
VERTEX
  8
0
  6
CONTINUOUS
 62
   249
 10
262.436836
 20
137.01
 30
0.0
 70
    64
  0
VERTEX
  8
0
  6
CONTINUOUS
 62
   249
 10
262.450556
 20
137.01
 30
0.0
 70
    64
  0
VERTEX
  8
0
  6
CONTINUOUS
 62
   249
 10
262.464276
 20
137.01
 30
0.0
 70
    64
  0
VERTEX
  8
0
  6
CONTINUOUS
 62
   249
 10
262.477996
 20
137.01
 30
0.0
 70
    64
  0
VERTEX
  8
0
  6
CONTINUOUS
 62
   249
 10
262.491716
 20
137.01
 30
0.0
 70
    64
  0
VERTEX
  8
0
  6
CONTINUOUS
 62
   249
 10
262.505436
 20
137.01
 30
0.0
 70
    64
  0
VERTEX
  8
0
  6
CONTINUOUS
 62
   249
 10
262.519156
 20
137.01
 30
0.0
 70
    64
  0
VERTEX
  8
0
  6
CONTINUOUS
 62
   249
 10
262.532876
 20
137.01
 30
0.0
 70
    64
  0
VERTEX
  8
0
  6
CONTINUOUS
 62
   249
 10
262.546596
 20
137.01
 30
0.0
 70
    64
  0
VERTEX
  8
0
  6
CONTINUOUS
 62
   249
 10
262.560316
 20
137.01
 30
0.0
 70
    64
  0
VERTEX
  8
0
  6
CONTINUOUS
 62
   249
 10
262.574036
 20
137.01
 30
0.0
 70
    64
  0
VERTEX
  8
0
  6
CONTINUOUS
 62
   249
 10
262.587756
 20
137.01
 30
0.0
 70
    64
  0
VERTEX
  8
0
  6
CONTINUOUS
 62
   249
 10
262.601476
 20
137.01
 30
0.0
 70
    64
  0
VERTEX
  8
0
  6
CONTINUOUS
 62
   249
 10
262.615196
 20
137.01
 30
0.0
 70
    64
  0
VERTEX
  8
0
  6
CONTINUOUS
 62
   249
 10
262.628916
 20
137.01
 30
0.0
 70
    64
  0
VERTEX
  8
0
  6
CONTINUOUS
 62
   249
 10
262.642636
 20
137.01
 30
0.0
 70
    64
  0
VERTEX
  8
0
  6
CONTINUOUS
 62
   249
 10
262.656356
 20
137.01
 30
0.0
 70
    64
  0
VERTEX
  8
0
  6
CONTINUOUS
 62
   249
 10
262.670076
 20
137.01
 30
0.0
 70
    64
  0
VERTEX
  8
0
  6
CONTINUOUS
 62
   249
 10
262.683796
 20
137.01
 30
0.0
 70
    64
  0
VERTEX
  8
0
  6
CONTINUOUS
 62
   249
 10
262.697516
 20
137.01
 30
0.0
 70
    64
  0
VERTEX
  8
0
  6
CONTINUOUS
 62
   249
 10
262.711236
 20
137.01
 30
0.0
 70
    64
  0
VERTEX
  8
0
  6
CONTINUOUS
 62
   249
 10
262.724956
 20
137.01
 30
0.0
 70
    64
  0
VERTEX
  8
0
  6
CONTINUOUS
 62
   249
 10
262.738676
 20
137.01
 30
0.0
 70
    64
  0
VERTEX
  8
0
  6
CONTINUOUS
 62
   249
 10
262.752396
 20
137.01
 30
0.0
 70
    64
  0
VERTEX
  8
0
  6
CONTINUOUS
 62
   249
 10
262.766116
 20
137.01
 30
0.0
 70
    64
  0
VERTEX
  8
0
  6
CONTINUOUS
 62
   249
 10
262.779836
 20
137.01
 30
0.0
 70
    64
  0
VERTEX
  8
0
  6
CONTINUOUS
 62
   249
 10
262.793556
 20
137.01
 30
0.0
 70
    64
  0
VERTEX
  8
0
  6
CONTINUOUS
 62
   249
 10
262.807276
 20
137.01
 30
0.0
 70
    64
  0
VERTEX
  8
0
  6
CONTINUOUS
 62
   249
 10
262.820996
 20
137.01
 30
0.0
 70
    64
  0
VERTEX
  8
0
  6
CONTINUOUS
 62
   249
 10
262.834716
 20
137.01
 30
0.0
 70
    64
  0
VERTEX
  8
0
  6
CONTINUOUS
 62
   249
 10
262.848436
 20
137.01
 30
0.0
 70
    64
  0
VERTEX
  8
0
  6
CONTINUOUS
 62
   249
 10
262.862156
 20
137.01
 30
0.0
 70
    64
  0
VERTEX
  8
0
  6
CONTINUOUS
 62
   249
 10
262.875876
 20
137.01
 30
0.0
 70
    64
  0
VERTEX
  8
0
  6
CONTINUOUS
 62
   249
 10
262.889596
 20
137.01
 30
0.0
 70
    64
  0
VERTEX
  8
0
  6
CONTINUOUS
 62
   249
 10
262.903316
 20
137.01
 30
0.0
 70
    64
  0
VERTEX
  8
0
  6
CONTINUOUS
 62
   249
 10
262.917036
 20
137.01
 30
0.0
 70
    64
  0
VERTEX
  8
0
  6
CONTINUOUS
 62
   249
 10
262.930756
 20
137.01
 30
0.0
 70
    64
  0
VERTEX
  8
0
  6
CONTINUOUS
 62
   249
 10
262.944476
 20
137.01
 30
0.0
 70
    64
  0
VERTEX
  8
0
  6
CONTINUOUS
 62
   249
 10
262.958196
 20
137.01
 30
0.0
 70
    64
  0
VERTEX
  8
0
  6
CONTINUOUS
 62
   249
 10
262.971916
 20
137.01
 30
0.0
 70
    64
  0
VERTEX
  8
0
  6
CONTINUOUS
 62
   249
 10
262.985636
 20
137.01
 30
0.0
 70
    64
  0
VERTEX
  8
0
  6
CONTINUOUS
 62
   249
 10
262.999356
 20
137.01
 30
0.0
 70
    64
  0
VERTEX
  8
0
  6
CONTINUOUS
 62
   249
 10
263.013076
 20
137.01
 30
0.0
 70
    64
  0
VERTEX
  8
0
  6
CONTINUOUS
 62
   249
 10
263.026796
 20
137.01
 30
0.0
 70
    64
  0
VERTEX
  8
0
  6
CONTINUOUS
 62
   249
 10
263.040516
 20
137.01
 30
0.0
 70
    64
  0
VERTEX
  8
0
  6
CONTINUOUS
 62
   249
 10
263.054236
 20
137.01
 30
0.0
 70
    64
  0
VERTEX
  8
0
  6
CONTINUOUS
 62
   249
 10
263.067956
 20
137.01
 30
0.0
 70
    64
  0
VERTEX
  8
0
  6
CONTINUOUS
 62
   249
 10
263.081676
 20
137.01
 30
0.0
 70
    64
  0
VERTEX
  8
0
  6
CONTINUOUS
 62
   249
 10
263.095396
 20
137.01
 30
0.0
 70
    64
  0
VERTEX
  8
0
  6
CONTINUOUS
 62
   249
 10
263.109116
 20
137.01
 30
0.0
 70
    64
  0
VERTEX
  8
0
  6
CONTINUOUS
 62
   249
 10
263.122836
 20
137.01
 30
0.0
 70
    64
  0
VERTEX
  8
0
  6
CONTINUOUS
 62
   249
 10
263.136556
 20
137.01
 30
0.0
 70
    64
  0
VERTEX
  8
0
  6
CONTINUOUS
 62
   249
 10
263.150276
 20
137.01
 30
0.0
 70
    64
  0
VERTEX
  8
0
  6
CONTINUOUS
 62
   249
 10
263.163996
 20
137.01
 30
0.0
 70
    64
  0
VERTEX
  8
0
  6
CONTINUOUS
 62
   249
 10
263.177716
 20
137.01
 30
0.0
 70
    64
  0
VERTEX
  8
0
  6
CONTINUOUS
 62
   249
 10
263.191436
 20
137.01
 30
0.0
 70
    64
  0
VERTEX
  8
0
  6
CONTINUOUS
 62
   249
 10
263.205156
 20
137.01
 30
0.0
 70
    64
  0
VERTEX
  8
0
  6
CONTINUOUS
 62
   249
 10
263.218876
 20
137.01
 30
0.0
 70
    64
  0
VERTEX
  8
0
  6
CONTINUOUS
 62
   249
 10
263.232596
 20
137.01
 30
0.0
 70
    64
  0
VERTEX
  8
0
  6
CONTINUOUS
 62
   249
 10
263.246316
 20
137.01
 30
0.0
 70
    64
  0
VERTEX
  8
0
  6
CONTINUOUS
 62
   249
 10
263.260036
 20
137.01
 30
0.0
 70
    64
  0
VERTEX
  8
0
  6
CONTINUOUS
 62
   249
 10
263.273756
 20
137.01
 30
0.0
 70
    64
  0
VERTEX
  8
0
  6
CONTINUOUS
 62
   249
 10
263.287476
 20
137.01
 30
0.0
 70
    64
  0
VERTEX
  8
0
  6
CONTINUOUS
 62
   249
 10
263.301196
 20
137.01
 30
0.0
 70
    64
  0
VERTEX
  8
0
  6
CONTINUOUS
 62
   249
 10
263.314916
 20
137.01
 30
0.0
 70
    64
  0
VERTEX
  8
0
  6
CONTINUOUS
 62
   249
 10
263.328636
 20
137.01
 30
0.0
 70
    64
  0
VERTEX
  8
0
  6
CONTINUOUS
 62
   249
 10
263.342356
 20
137.01
 30
0.0
 70
    64
  0
VERTEX
  8
0
  6
CONTINUOUS
 62
   249
 10
263.356076
 20
137.01
 30
0.0
 70
    64
  0
VERTEX
  8
0
  6
CONTINUOUS
 62
   249
 10
263.369796
 20
137.01
 30
0.0
 70
    64
  0
VERTEX
  8
0
  6
CONTINUOUS
 62
   249
 10
263.383516
 20
137.01
 30
0.0
 70
    64
  0
VERTEX
  8
0
  6
CONTINUOUS
 62
   249
 10
263.397236
 20
137.01
 30
0.0
 70
    64
  0
VERTEX
  8
0
  6
CONTINUOUS
 62
   249
 10
263.410956
 20
137.01
 30
0.0
 70
    64
  0
VERTEX
  8
0
  6
CONTINUOUS
 62
   249
 10
263.424676
 20
137.01
 30
0.0
 70
    64
  0
VERTEX
  8
0
  6
CONTINUOUS
 62
   249
 10
263.438396
 20
137.01
 30
0.0
 70
    64
  0
VERTEX
  8
0
  6
CONTINUOUS
 62
   249
 10
263.452116
 20
137.01
 30
0.0
 70
    64
  0
VERTEX
  8
0
  6
CONTINUOUS
 62
   249
 10
263.465836
 20
137.01
 30
0.0
 70
    64
  0
VERTEX
  8
0
  6
CONTINUOUS
 62
   249
 10
263.479556
 20
137.01
 30
0.0
 70
    64
  0
VERTEX
  8
0
  6
CONTINUOUS
 62
   249
 10
263.493276
 20
137.01
 30
0.0
 70
    64
  0
VERTEX
  8
0
  6
CONTINUOUS
 62
   249
 10
263.506996
 20
137.01
 30
0.0
 70
    64
  0
VERTEX
  8
0
  6
CONTINUOUS
 62
   249
 10
263.520716
 20
137.01
 30
0.0
 70
    64
  0
VERTEX
  8
0
  6
CONTINUOUS
 62
   249
 10
263.534436
 20
137.01
 30
0.0
 70
    64
  0
VERTEX
  8
0
  6
CONTINUOUS
 62
   249
 10
263.548156
 20
137.01
 30
0.0
 70
    64
  0
VERTEX
  8
0
  6
CONTINUOUS
 62
   249
 10
263.561876
 20
137.01
 30
0.0
 70
    64
  0
VERTEX
  8
0
  6
CONTINUOUS
 62
   249
 10
263.575596
 20
137.01
 30
0.0
 70
    64
  0
VERTEX
  8
0
  6
CONTINUOUS
 62
   249
 10
263.589316
 20
137.01
 30
0.0
 70
    64
  0
VERTEX
  8
0
  6
CONTINUOUS
 62
   249
 10
263.603036
 20
137.01
 30
0.0
 70
    64
  0
VERTEX
  8
0
  6
CONTINUOUS
 62
   249
 10
263.616756
 20
137.01
 30
0.0
 70
    64
  0
VERTEX
  8
0
  6
CONTINUOUS
 62
   249
 10
263.630476
 20
137.01
 30
0.0
 70
    64
  0
VERTEX
  8
0
  6
CONTINUOUS
 62
   249
 10
263.644196
 20
137.01
 30
0.0
 70
    64
  0
VERTEX
  8
0
  6
CONTINUOUS
 62
   249
 10
263.657916
 20
137.01
 30
0.0
 70
    64
  0
VERTEX
  8
0
  6
CONTINUOUS
 62
   249
 10
263.671636
 20
137.01
 30
0.0
 70
    64
  0
VERTEX
  8
0
  6
CONTINUOUS
 62
   249
 10
263.685356
 20
137.01
 30
0.0
 70
    64
  0
VERTEX
  8
0
  6
CONTINUOUS
 62
   249
 10
263.699076
 20
137.01
 30
0.0
 70
    64
  0
VERTEX
  8
0
  6
CONTINUOUS
 62
   249
 10
263.712796
 20
137.01
 30
0.0
 70
    64
  0
VERTEX
  8
0
  6
CONTINUOUS
 62
   249
 10
263.726516
 20
137.01
 30
0.0
 70
    64
  0
VERTEX
  8
0
  6
CONTINUOUS
 62
   249
 10
263.740236
 20
137.01
 30
0.0
 70
    64
  0
VERTEX
  8
0
  6
CONTINUOUS
 62
   249
 10
263.753956
 20
137.01
 30
0.0
 70
    64
  0
VERTEX
  8
0
  6
CONTINUOUS
 62
   249
 10
263.767676
 20
137.01
 30
0.0
 70
    64
  0
VERTEX
  8
0
  6
CONTINUOUS
 62
   249
 10
263.781396
 20
137.01
 30
0.0
 70
    64
  0
VERTEX
  8
0
  6
CONTINUOUS
 62
   249
 10
263.795116
 20
137.01
 30
0.0
 70
    64
  0
VERTEX
  8
0
  6
CONTINUOUS
 62
   249
 10
263.808836
 20
137.01
 30
0.0
 70
    64
  0
VERTEX
  8
0
  6
CONTINUOUS
 62
   249
 10
263.822556
 20
137.01
 30
0.0
 70
    64
  0
VERTEX
  8
0
  6
CONTINUOUS
 62
   249
 10
263.836276
 20
137.01
 30
0.0
 70
    64
  0
VERTEX
  8
0
  6
CONTINUOUS
 62
   249
 10
263.849996
 20
137.01
 30
0.0
 70
    64
  0
VERTEX
  8
0
  6
CONTINUOUS
 62
   249
 10
263.863716
 20
137.01
 30
0.0
 70
    64
  0
VERTEX
  8
0
  6
CONTINUOUS
 62
   249
 10
263.877436
 20
137.01
 30
0.0
 70
    64
  0
VERTEX
  8
0
  6
CONTINUOUS
 62
   249
 10
263.891156
 20
137.01
 30
0.0
 70
    64
  0
VERTEX
  8
0
  6
CONTINUOUS
 62
   249
 10
263.904876
 20
137.01
 30
0.0
 70
    64
  0
VERTEX
  8
0
  6
CONTINUOUS
 62
   249
 10
263.918596
 20
137.01
 30
0.0
 70
    64
  0
VERTEX
  8
0
  6
CONTINUOUS
 62
   249
 10
263.932316
 20
137.01
 30
0.0
 70
    64
  0
VERTEX
  8
0
  6
CONTINUOUS
 62
   249
 10
263.946036
 20
137.01
 30
0.0
 70
    64
  0
VERTEX
  8
0
  6
CONTINUOUS
 62
   249
 10
263.959756
 20
137.01
 30
0.0
 70
    64
  0
VERTEX
  8
0
  6
CONTINUOUS
 62
   249
 10
263.973476
 20
137.01
 30
0.0
 70
    64
  0
VERTEX
  8
0
  6
CONTINUOUS
 62
   249
 10
263.987196
 20
137.01
 30
0.0
 70
    64
  0
VERTEX
  8
0
  6
CONTINUOUS
 62
   249
 10
264.000916
 20
137.01
 30
0.0
 70
    64
  0
VERTEX
  8
0
  6
CONTINUOUS
 62
   249
 10
264.014636
 20
137.01
 30
0.0
 70
    64
  0
VERTEX
  8
0
  6
CONTINUOUS
 62
   249
 10
264.028356
 20
137.01
 30
0.0
 70
    64
  0
VERTEX
  8
0
  6
CONTINUOUS
 62
   249
 10
264.042076
 20
137.01
 30
0.0
 70
    64
  0
VERTEX
  8
0
  6
CONTINUOUS
 62
   249
 10
264.055796
 20
137.01
 30
0.0
 70
    64
  0
VERTEX
  8
0
  6
CONTINUOUS
 62
   249
 10
264.069516
 20
137.01
 30
0.0
 70
    64
  0
VERTEX
  8
0
  6
CONTINUOUS
 62
   249
 10
264.083236
 20
137.01
 30
0.0
 70
    64
  0
VERTEX
  8
0
  6
CONTINUOUS
 62
   249
 10
264.096956
 20
137.01
 30
0.0
 70
    64
  0
VERTEX
  8
0
  6
CONTINUOUS
 62
   249
 10
264.110676
 20
137.01
 30
0.0
 70
    64
  0
VERTEX
  8
0
  6
CONTINUOUS
 62
   249
 10
264.124396
 20
137.01
 30
0.0
 70
    64
  0
VERTEX
  8
0
  6
CONTINUOUS
 62
   249
 10
264.138116
 20
137.01
 30
0.0
 70
    64
  0
VERTEX
  8
0
  6
CONTINUOUS
 62
   249
 10
264.151836
 20
137.01
 30
0.0
 70
    64
  0
VERTEX
  8
0
  6
CONTINUOUS
 62
   249
 10
264.165556
 20
137.01
 30
0.0
 70
    64
  0
VERTEX
  8
0
  6
CONTINUOUS
 62
   249
 10
264.179276
 20
137.01
 30
0.0
 70
    64
  0
VERTEX
  8
0
  6
CONTINUOUS
 62
   249
 10
264.192996
 20
137.01
 30
0.0
 70
    64
  0
VERTEX
  8
0
  6
CONTINUOUS
 62
   249
 10
264.206716
 20
137.01
 30
0.0
 70
    64
  0
VERTEX
  8
0
  6
CONTINUOUS
 62
   249
 10
264.220436
 20
137.01
 30
0.0
 70
    64
  0
VERTEX
  8
0
  6
CONTINUOUS
 62
   249
 10
264.234156
 20
137.01
 30
0.0
 70
    64
  0
VERTEX
  8
0
  6
CONTINUOUS
 62
   249
 10
264.247876
 20
137.01
 30
0.0
 70
    64
  0
VERTEX
  8
0
  6
CONTINUOUS
 62
   249
 10
264.261596
 20
137.01
 30
0.0
 70
    64
  0
VERTEX
  8
0
  6
CONTINUOUS
 62
   249
 10
264.275316
 20
137.01
 30
0.0
 70
    64
  0
VERTEX
  8
0
  6
CONTINUOUS
 62
   249
 10
264.289036
 20
137.01
 30
0.0
 70
    64
  0
VERTEX
  8
0
  6
CONTINUOUS
 62
   249
 10
264.302756
 20
137.01
 30
0.0
 70
    64
  0
VERTEX
  8
0
  6
CONTINUOUS
 62
   249
 10
264.316476
 20
137.01
 30
0.0
 70
    64
  0
VERTEX
  8
0
  6
CONTINUOUS
 62
   249
 10
264.330196
 20
137.01
 30
0.0
 70
    64
  0
VERTEX
  8
0
  6
CONTINUOUS
 62
   249
 10
264.343916
 20
137.01
 30
0.0
 70
    64
  0
VERTEX
  8
0
  6
CONTINUOUS
 62
   249
 10
264.357636
 20
137.01
 30
0.0
 70
    64
  0
VERTEX
  8
0
  6
CONTINUOUS
 62
   249
 10
264.371356
 20
137.01
 30
0.0
 70
    64
  0
VERTEX
  8
0
  6
CONTINUOUS
 62
   249
 10
264.385076
 20
137.01
 30
0.0
 70
    64
  0
VERTEX
  8
0
  6
CONTINUOUS
 62
   249
 10
264.398796
 20
137.01
 30
0.0
 70
    64
  0
VERTEX
  8
0
  6
CONTINUOUS
 62
   249
 10
264.412516
 20
137.01
 30
0.0
 70
    64
  0
VERTEX
  8
0
  6
CONTINUOUS
 62
   249
 10
264.426236
 20
137.01
 30
0.0
 70
    64
  0
VERTEX
  8
0
  6
CONTINUOUS
 62
   249
 10
264.439956
 20
137.01
 30
0.0
 70
    64
  0
VERTEX
  8
0
  6
CONTINUOUS
 62
   249
 10
264.453676
 20
137.01
 30
0.0
 70
    64
  0
VERTEX
  8
0
  6
CONTINUOUS
 62
   249
 10
264.467396
 20
137.01
 30
0.0
 70
    64
  0
VERTEX
  8
0
  6
CONTINUOUS
 62
   249
 10
264.481116
 20
137.01
 30
0.0
 70
    64
  0
VERTEX
  8
0
  6
CONTINUOUS
 62
   249
 10
264.494836
 20
137.01
 30
0.0
 70
    64
  0
VERTEX
  8
0
  6
CONTINUOUS
 62
   249
 10
264.508556
 20
137.01
 30
0.0
 70
    64
  0
VERTEX
  8
0
  6
CONTINUOUS
 62
   249
 10
264.522276
 20
137.01
 30
0.0
 70
    64
  0
VERTEX
  8
0
  6
CONTINUOUS
 62
   249
 10
264.535996
 20
137.01
 30
0.0
 70
    64
  0
VERTEX
  8
0
  6
CONTINUOUS
 62
   249
 10
264.549716
 20
137.01
 30
0.0
 70
    64
  0
VERTEX
  8
0
  6
CONTINUOUS
 62
   249
 10
264.563436
 20
137.01
 30
0.0
 70
    64
  0
VERTEX
  8
0
  6
CONTINUOUS
 62
   249
 10
264.577156
 20
137.01
 30
0.0
 70
    64
  0
VERTEX
  8
0
  6
CONTINUOUS
 62
   249
 10
264.590876
 20
137.01
 30
0.0
 70
    64
  0
VERTEX
  8
0
  6
CONTINUOUS
 62
   249
 10
264.604596
 20
137.01
 30
0.0
 70
    64
  0
VERTEX
  8
0
  6
CONTINUOUS
 62
   249
 10
264.618316
 20
137.01
 30
0.0
 70
    64
  0
VERTEX
  8
0
  6
CONTINUOUS
 62
   249
 10
264.632036
 20
137.01
 30
0.0
 70
    64
  0
VERTEX
  8
0
  6
CONTINUOUS
 62
   249
 10
264.645756
 20
137.01
 30
0.0
 70
    64
  0
VERTEX
  8
0
  6
CONTINUOUS
 62
   249
 10
264.659476
 20
137.01
 30
0.0
 70
    64
  0
VERTEX
  8
0
  6
CONTINUOUS
 62
   249
 10
264.673196
 20
137.01
 30
0.0
 70
    64
  0
VERTEX
  8
0
  6
CONTINUOUS
 62
   249
 10
264.686916
 20
137.01
 30
0.0
 70
    64
  0
VERTEX
  8
0
  6
CONTINUOUS
 62
   249
 10
264.700636
 20
137.01
 30
0.0
 70
    64
  0
VERTEX
  8
0
  6
CONTINUOUS
 62
   249
 10
264.714356
 20
137.01
 30
0.0
 70
    64
  0
VERTEX
  8
0
  6
CONTINUOUS
 62
   249
 10
264.728076
 20
137.01
 30
0.0
 70
    64
  0
VERTEX
  8
0
  6
CONTINUOUS
 62
   249
 10
264.741796
 20
137.01
 30
0.0
 70
    64
  0
VERTEX
  8
0
  6
CONTINUOUS
 62
   249
 10
264.755516
 20
137.01
 30
0.0
 70
    64
  0
VERTEX
  8
0
  6
CONTINUOUS
 62
   249
 10
264.769236
 20
137.01
 30
0.0
 70
    64
  0
VERTEX
  8
0
  6
CONTINUOUS
 62
   249
 10
264.782956
 20
137.01
 30
0.0
 70
    64
  0
VERTEX
  8
0
  6
CONTINUOUS
 62
   249
 10
264.796676
 20
137.01
 30
0.0
 70
    64
  0
VERTEX
  8
0
  6
CONTINUOUS
 62
   249
 10
264.810396
 20
137.01
 30
0.0
 70
    64
  0
VERTEX
  8
0
  6
CONTINUOUS
 62
   249
 10
264.824116
 20
137.01
 30
0.0
 70
    64
  0
VERTEX
  8
0
  6
CONTINUOUS
 62
   249
 10
264.837836
 20
137.01
 30
0.0
 70
    64
  0
VERTEX
  8
0
  6
CONTINUOUS
 62
   249
 10
264.851556
 20
137.01
 30
0.0
 70
    64
  0
VERTEX
  8
0
  6
CONTINUOUS
 62
   249
 10
264.865276
 20
137.01
 30
0.0
 70
    64
  0
VERTEX
  8
0
  6
CONTINUOUS
 62
   249
 10
264.878996
 20
137.01
 30
0.0
 70
    64
  0
VERTEX
  8
0
  6
CONTINUOUS
 62
   249
 10
264.892716
 20
137.01
 30
0.0
 70
    64
  0
VERTEX
  8
0
  6
CONTINUOUS
 62
   249
 10
264.906436
 20
137.01
 30
0.0
 70
    64
  0
VERTEX
  8
0
  6
CONTINUOUS
 62
   249
 10
264.920156
 20
137.01
 30
0.0
 70
    64
  0
VERTEX
  8
0
  6
CONTINUOUS
 62
   249
 10
264.933876
 20
137.01
 30
0.0
 70
    64
  0
VERTEX
  8
0
  6
CONTINUOUS
 62
   249
 10
264.947596
 20
137.01
 30
0.0
 70
    64
  0
VERTEX
  8
0
  6
CONTINUOUS
 62
   249
 10
264.961316
 20
137.01
 30
0.0
 70
    64
  0
VERTEX
  8
0
  6
CONTINUOUS
 62
   249
 10
264.975036
 20
137.01
 30
0.0
 70
    64
  0
VERTEX
  8
0
  6
CONTINUOUS
 62
   249
 10
264.988756
 20
137.01
 30
0.0
 70
    64
  0
VERTEX
  8
0
  6
CONTINUOUS
 62
   249
 10
265.002476
 20
137.01
 30
0.0
 70
    64
  0
VERTEX
  8
0
  6
CONTINUOUS
 62
   249
 10
265.016196
 20
137.01
 30
0.0
 70
    64
  0
VERTEX
  8
0
  6
CONTINUOUS
 62
   249
 10
265.029916
 20
137.01
 30
0.0
 70
    64
  0
VERTEX
  8
0
  6
CONTINUOUS
 62
   249
 10
265.043636
 20
137.01
 30
0.0
 70
    64
  0
VERTEX
  8
0
  6
CONTINUOUS
 62
   249
 10
265.057356
 20
137.01
 30
0.0
 70
    64
  0
VERTEX
  8
0
  6
CONTINUOUS
 62
   249
 10
265.071076
 20
137.01
 30
0.0
 70
    64
  0
VERTEX
  8
0
  6
CONTINUOUS
 62
   249
 10
265.084796
 20
137.01
 30
0.0
 70
    64
  0
VERTEX
  8
0
  6
CONTINUOUS
 62
   249
 10
265.098516
 20
137.01
 30
0.0
 70
    64
  0
VERTEX
  8
0
  6
CONTINUOUS
 62
   249
 10
265.112236
 20
137.01
 30
0.0
 70
    64
  0
VERTEX
  8
0
  6
CONTINUOUS
 62
   249
 10
265.125956
 20
137.01
 30
0.0
 70
    64
  0
VERTEX
  8
0
  6
CONTINUOUS
 62
   249
 10
265.139676
 20
137.01
 30
0.0
 70
    64
  0
VERTEX
  8
0
  6
CONTINUOUS
 62
   249
 10
265.153396
 20
137.01
 30
0.0
 70
    64
  0
VERTEX
  8
0
  6
CONTINUOUS
 62
   249
 10
265.167116
 20
137.01
 30
0.0
 70
    64
  0
VERTEX
  8
0
  6
CONTINUOUS
 62
   249
 10
265.180836
 20
137.01
 30
0.0
 70
    64
  0
VERTEX
  8
0
  6
CONTINUOUS
 62
   249
 10
265.194556
 20
137.01
 30
0.0
 70
    64
  0
VERTEX
  8
0
  6
CONTINUOUS
 62
   249
 10
265.208276
 20
137.01
 30
0.0
 70
    64
  0
VERTEX
  8
0
  6
CONTINUOUS
 62
   249
 10
265.221996
 20
137.01
 30
0.0
 70
    64
  0
VERTEX
  8
0
  6
CONTINUOUS
 62
   249
 10
265.235716
 20
137.01
 30
0.0
 70
    64
  0
VERTEX
  8
0
  6
CONTINUOUS
 62
   249
 10
265.249436
 20
137.01
 30
0.0
 70
    64
  0
VERTEX
  8
0
  6
CONTINUOUS
 62
   249
 10
261.819436
 20
137.99
 30
0.0
 70
    64
  0
VERTEX
  8
0
  6
CONTINUOUS
 62
   249
 10
261.833156
 20
137.99
 30
0.0
 70
    64
  0
VERTEX
  8
0
  6
CONTINUOUS
 62
   249
 10
261.846876
 20
137.99
 30
0.0
 70
    64
  0
VERTEX
  8
0
  6
CONTINUOUS
 62
   249
 10
261.860596
 20
137.99
 30
0.0
 70
    64
  0
VERTEX
  8
0
  6
CONTINUOUS
 62
   249
 10
261.874316
 20
137.99
 30
0.0
 70
    64
  0
VERTEX
  8
0
  6
CONTINUOUS
 62
   249
 10
261.888036
 20
137.99
 30
0.0
 70
    64
  0
VERTEX
  8
0
  6
CONTINUOUS
 62
   249
 10
261.901756
 20
137.99
 30
0.0
 70
    64
  0
VERTEX
  8
0
  6
CONTINUOUS
 62
   249
 10
261.915476
 20
137.99
 30
0.0
 70
    64
  0
VERTEX
  8
0
  6
CONTINUOUS
 62
   249
 10
261.929196
 20
137.99
 30
0.0
 70
    64
  0
VERTEX
  8
0
  6
CONTINUOUS
 62
   249
 10
261.942916
 20
137.99
 30
0.0
 70
    64
  0
VERTEX
  8
0
  6
CONTINUOUS
 62
   249
 10
261.956636
 20
137.99
 30
0.0
 70
    64
  0
VERTEX
  8
0
  6
CONTINUOUS
 62
   249
 10
261.970356
 20
137.99
 30
0.0
 70
    64
  0
VERTEX
  8
0
  6
CONTINUOUS
 62
   249
 10
261.984076
 20
137.99
 30
0.0
 70
    64
  0
VERTEX
  8
0
  6
CONTINUOUS
 62
   249
 10
261.997796
 20
137.99
 30
0.0
 70
    64
  0
VERTEX
  8
0
  6
CONTINUOUS
 62
   249
 10
262.011516
 20
137.99
 30
0.0
 70
    64
  0
VERTEX
  8
0
  6
CONTINUOUS
 62
   249
 10
262.025236
 20
137.99
 30
0.0
 70
    64
  0
VERTEX
  8
0
  6
CONTINUOUS
 62
   249
 10
262.038956
 20
137.99
 30
0.0
 70
    64
  0
VERTEX
  8
0
  6
CONTINUOUS
 62
   249
 10
262.052676
 20
137.99
 30
0.0
 70
    64
  0
VERTEX
  8
0
  6
CONTINUOUS
 62
   249
 10
262.066396
 20
137.99
 30
0.0
 70
    64
  0
VERTEX
  8
0
  6
CONTINUOUS
 62
   249
 10
262.080116
 20
137.99
 30
0.0
 70
    64
  0
VERTEX
  8
0
  6
CONTINUOUS
 62
   249
 10
262.093836
 20
137.99
 30
0.0
 70
    64
  0
VERTEX
  8
0
  6
CONTINUOUS
 62
   249
 10
262.107556
 20
137.99
 30
0.0
 70
    64
  0
VERTEX
  8
0
  6
CONTINUOUS
 62
   249
 10
262.121276
 20
137.99
 30
0.0
 70
    64
  0
VERTEX
  8
0
  6
CONTINUOUS
 62
   249
 10
262.134996
 20
137.99
 30
0.0
 70
    64
  0
VERTEX
  8
0
  6
CONTINUOUS
 62
   249
 10
262.148716
 20
137.99
 30
0.0
 70
    64
  0
VERTEX
  8
0
  6
CONTINUOUS
 62
   249
 10
262.162436
 20
137.99
 30
0.0
 70
    64
  0
VERTEX
  8
0
  6
CONTINUOUS
 62
   249
 10
262.176156
 20
137.99
 30
0.0
 70
    64
  0
VERTEX
  8
0
  6
CONTINUOUS
 62
   249
 10
262.189876
 20
137.99
 30
0.0
 70
    64
  0
VERTEX
  8
0
  6
CONTINUOUS
 62
   249
 10
262.203596
 20
137.99
 30
0.0
 70
    64
  0
VERTEX
  8
0
  6
CONTINUOUS
 62
   249
 10
262.217316
 20
137.99
 30
0.0
 70
    64
  0
VERTEX
  8
0
  6
CONTINUOUS
 62
   249
 10
262.231036
 20
137.99
 30
0.0
 70
    64
  0
VERTEX
  8
0
  6
CONTINUOUS
 62
   249
 10
262.244756
 20
137.99
 30
0.0
 70
    64
  0
VERTEX
  8
0
  6
CONTINUOUS
 62
   249
 10
262.258476
 20
137.99
 30
0.0
 70
    64
  0
VERTEX
  8
0
  6
CONTINUOUS
 62
   249
 10
262.272196
 20
137.99
 30
0.0
 70
    64
  0
VERTEX
  8
0
  6
CONTINUOUS
 62
   249
 10
262.285916
 20
137.99
 30
0.0
 70
    64
  0
VERTEX
  8
0
  6
CONTINUOUS
 62
   249
 10
262.299636
 20
137.99
 30
0.0
 70
    64
  0
VERTEX
  8
0
  6
CONTINUOUS
 62
   249
 10
262.313356
 20
137.99
 30
0.0
 70
    64
  0
VERTEX
  8
0
  6
CONTINUOUS
 62
   249
 10
262.327076
 20
137.99
 30
0.0
 70
    64
  0
VERTEX
  8
0
  6
CONTINUOUS
 62
   249
 10
262.340796
 20
137.99
 30
0.0
 70
    64
  0
VERTEX
  8
0
  6
CONTINUOUS
 62
   249
 10
262.354516
 20
137.99
 30
0.0
 70
    64
  0
VERTEX
  8
0
  6
CONTINUOUS
 62
   249
 10
262.368236
 20
137.99
 30
0.0
 70
    64
  0
VERTEX
  8
0
  6
CONTINUOUS
 62
   249
 10
262.381956
 20
137.99
 30
0.0
 70
    64
  0
VERTEX
  8
0
  6
CONTINUOUS
 62
   249
 10
262.395676
 20
137.99
 30
0.0
 70
    64
  0
VERTEX
  8
0
  6
CONTINUOUS
 62
   249
 10
262.409396
 20
137.99
 30
0.0
 70
    64
  0
VERTEX
  8
0
  6
CONTINUOUS
 62
   249
 10
262.423116
 20
137.99
 30
0.0
 70
    64
  0
VERTEX
  8
0
  6
CONTINUOUS
 62
   249
 10
262.436836
 20
137.99
 30
0.0
 70
    64
  0
VERTEX
  8
0
  6
CONTINUOUS
 62
   249
 10
262.450556
 20
137.99
 30
0.0
 70
    64
  0
VERTEX
  8
0
  6
CONTINUOUS
 62
   249
 10
262.464276
 20
137.99
 30
0.0
 70
    64
  0
VERTEX
  8
0
  6
CONTINUOUS
 62
   249
 10
262.477996
 20
137.99
 30
0.0
 70
    64
  0
VERTEX
  8
0
  6
CONTINUOUS
 62
   249
 10
262.491716
 20
137.99
 30
0.0
 70
    64
  0
VERTEX
  8
0
  6
CONTINUOUS
 62
   249
 10
262.505436
 20
137.99
 30
0.0
 70
    64
  0
VERTEX
  8
0
  6
CONTINUOUS
 62
   249
 10
262.519156
 20
137.99
 30
0.0
 70
    64
  0
VERTEX
  8
0
  6
CONTINUOUS
 62
   249
 10
262.532876
 20
137.99
 30
0.0
 70
    64
  0
VERTEX
  8
0
  6
CONTINUOUS
 62
   249
 10
262.546596
 20
137.99
 30
0.0
 70
    64
  0
VERTEX
  8
0
  6
CONTINUOUS
 62
   249
 10
262.560316
 20
137.99
 30
0.0
 70
    64
  0
VERTEX
  8
0
  6
CONTINUOUS
 62
   249
 10
262.574036
 20
137.99
 30
0.0
 70
    64
  0
VERTEX
  8
0
  6
CONTINUOUS
 62
   249
 10
262.587756
 20
137.99
 30
0.0
 70
    64
  0
VERTEX
  8
0
  6
CONTINUOUS
 62
   249
 10
262.601476
 20
137.99
 30
0.0
 70
    64
  0
VERTEX
  8
0
  6
CONTINUOUS
 62
   249
 10
262.615196
 20
137.99
 30
0.0
 70
    64
  0
VERTEX
  8
0
  6
CONTINUOUS
 62
   249
 10
262.628916
 20
137.99
 30
0.0
 70
    64
  0
VERTEX
  8
0
  6
CONTINUOUS
 62
   249
 10
262.642636
 20
137.99
 30
0.0
 70
    64
  0
VERTEX
  8
0
  6
CONTINUOUS
 62
   249
 10
262.656356
 20
137.99
 30
0.0
 70
    64
  0
VERTEX
  8
0
  6
CONTINUOUS
 62
   249
 10
262.670076
 20
137.99
 30
0.0
 70
    64
  0
VERTEX
  8
0
  6
CONTINUOUS
 62
   249
 10
262.683796
 20
137.99
 30
0.0
 70
    64
  0
VERTEX
  8
0
  6
CONTINUOUS
 62
   249
 10
262.697516
 20
137.99
 30
0.0
 70
    64
  0
VERTEX
  8
0
  6
CONTINUOUS
 62
   249
 10
262.711236
 20
137.99
 30
0.0
 70
    64
  0
VERTEX
  8
0
  6
CONTINUOUS
 62
   249
 10
262.724956
 20
137.99
 30
0.0
 70
    64
  0
VERTEX
  8
0
  6
CONTINUOUS
 62
   249
 10
262.738676
 20
137.99
 30
0.0
 70
    64
  0
VERTEX
  8
0
  6
CONTINUOUS
 62
   249
 10
262.752396
 20
137.99
 30
0.0
 70
    64
  0
VERTEX
  8
0
  6
CONTINUOUS
 62
   249
 10
262.766116
 20
137.99
 30
0.0
 70
    64
  0
VERTEX
  8
0
  6
CONTINUOUS
 62
   249
 10
262.779836
 20
137.99
 30
0.0
 70
    64
  0
VERTEX
  8
0
  6
CONTINUOUS
 62
   249
 10
262.793556
 20
137.99
 30
0.0
 70
    64
  0
VERTEX
  8
0
  6
CONTINUOUS
 62
   249
 10
262.807276
 20
137.99
 30
0.0
 70
    64
  0
VERTEX
  8
0
  6
CONTINUOUS
 62
   249
 10
262.820996
 20
137.99
 30
0.0
 70
    64
  0
VERTEX
  8
0
  6
CONTINUOUS
 62
   249
 10
262.834716
 20
137.99
 30
0.0
 70
    64
  0
VERTEX
  8
0
  6
CONTINUOUS
 62
   249
 10
262.848436
 20
137.99
 30
0.0
 70
    64
  0
VERTEX
  8
0
  6
CONTINUOUS
 62
   249
 10
262.862156
 20
137.99
 30
0.0
 70
    64
  0
VERTEX
  8
0
  6
CONTINUOUS
 62
   249
 10
262.875876
 20
137.99
 30
0.0
 70
    64
  0
VERTEX
  8
0
  6
CONTINUOUS
 62
   249
 10
262.889596
 20
137.99
 30
0.0
 70
    64
  0
VERTEX
  8
0
  6
CONTINUOUS
 62
   249
 10
262.903316
 20
137.99
 30
0.0
 70
    64
  0
VERTEX
  8
0
  6
CONTINUOUS
 62
   249
 10
262.917036
 20
137.99
 30
0.0
 70
    64
  0
VERTEX
  8
0
  6
CONTINUOUS
 62
   249
 10
262.930756
 20
137.99
 30
0.0
 70
    64
  0
VERTEX
  8
0
  6
CONTINUOUS
 62
   249
 10
262.944476
 20
137.99
 30
0.0
 70
    64
  0
VERTEX
  8
0
  6
CONTINUOUS
 62
   249
 10
262.958196
 20
137.99
 30
0.0
 70
    64
  0
VERTEX
  8
0
  6
CONTINUOUS
 62
   249
 10
262.971916
 20
137.99
 30
0.0
 70
    64
  0
VERTEX
  8
0
  6
CONTINUOUS
 62
   249
 10
262.985636
 20
137.99
 30
0.0
 70
    64
  0
VERTEX
  8
0
  6
CONTINUOUS
 62
   249
 10
262.999356
 20
137.99
 30
0.0
 70
    64
  0
VERTEX
  8
0
  6
CONTINUOUS
 62
   249
 10
263.013076
 20
137.99
 30
0.0
 70
    64
  0
VERTEX
  8
0
  6
CONTINUOUS
 62
   249
 10
263.026796
 20
137.99
 30
0.0
 70
    64
  0
VERTEX
  8
0
  6
CONTINUOUS
 62
   249
 10
263.040516
 20
137.99
 30
0.0
 70
    64
  0
VERTEX
  8
0
  6
CONTINUOUS
 62
   249
 10
263.054236
 20
137.99
 30
0.0
 70
    64
  0
VERTEX
  8
0
  6
CONTINUOUS
 62
   249
 10
263.067956
 20
137.99
 30
0.0
 70
    64
  0
VERTEX
  8
0
  6
CONTINUOUS
 62
   249
 10
263.081676
 20
137.99
 30
0.0
 70
    64
  0
VERTEX
  8
0
  6
CONTINUOUS
 62
   249
 10
263.095396
 20
137.99
 30
0.0
 70
    64
  0
VERTEX
  8
0
  6
CONTINUOUS
 62
   249
 10
263.109116
 20
137.99
 30
0.0
 70
    64
  0
VERTEX
  8
0
  6
CONTINUOUS
 62
   249
 10
263.122836
 20
137.99
 30
0.0
 70
    64
  0
VERTEX
  8
0
  6
CONTINUOUS
 62
   249
 10
263.136556
 20
137.99
 30
0.0
 70
    64
  0
VERTEX
  8
0
  6
CONTINUOUS
 62
   249
 10
263.150276
 20
137.99
 30
0.0
 70
    64
  0
VERTEX
  8
0
  6
CONTINUOUS
 62
   249
 10
263.163996
 20
137.99
 30
0.0
 70
    64
  0
VERTEX
  8
0
  6
CONTINUOUS
 62
   249
 10
263.177716
 20
137.99
 30
0.0
 70
    64
  0
VERTEX
  8
0
  6
CONTINUOUS
 62
   249
 10
263.191436
 20
137.99
 30
0.0
 70
    64
  0
VERTEX
  8
0
  6
CONTINUOUS
 62
   249
 10
263.205156
 20
137.99
 30
0.0
 70
    64
  0
VERTEX
  8
0
  6
CONTINUOUS
 62
   249
 10
263.218876
 20
137.99
 30
0.0
 70
    64
  0
VERTEX
  8
0
  6
CONTINUOUS
 62
   249
 10
263.232596
 20
137.99
 30
0.0
 70
    64
  0
VERTEX
  8
0
  6
CONTINUOUS
 62
   249
 10
263.246316
 20
137.99
 30
0.0
 70
    64
  0
VERTEX
  8
0
  6
CONTINUOUS
 62
   249
 10
263.260036
 20
137.99
 30
0.0
 70
    64
  0
VERTEX
  8
0
  6
CONTINUOUS
 62
   249
 10
263.273756
 20
137.99
 30
0.0
 70
    64
  0
VERTEX
  8
0
  6
CONTINUOUS
 62
   249
 10
263.287476
 20
137.99
 30
0.0
 70
    64
  0
VERTEX
  8
0
  6
CONTINUOUS
 62
   249
 10
263.301196
 20
137.99
 30
0.0
 70
    64
  0
VERTEX
  8
0
  6
CONTINUOUS
 62
   249
 10
263.314916
 20
137.99
 30
0.0
 70
    64
  0
VERTEX
  8
0
  6
CONTINUOUS
 62
   249
 10
263.328636
 20
137.99
 30
0.0
 70
    64
  0
VERTEX
  8
0
  6
CONTINUOUS
 62
   249
 10
263.342356
 20
137.99
 30
0.0
 70
    64
  0
VERTEX
  8
0
  6
CONTINUOUS
 62
   249
 10
263.356076
 20
137.99
 30
0.0
 70
    64
  0
VERTEX
  8
0
  6
CONTINUOUS
 62
   249
 10
263.369796
 20
137.99
 30
0.0
 70
    64
  0
VERTEX
  8
0
  6
CONTINUOUS
 62
   249
 10
263.383516
 20
137.99
 30
0.0
 70
    64
  0
VERTEX
  8
0
  6
CONTINUOUS
 62
   249
 10
263.397236
 20
137.99
 30
0.0
 70
    64
  0
VERTEX
  8
0
  6
CONTINUOUS
 62
   249
 10
263.410956
 20
137.99
 30
0.0
 70
    64
  0
VERTEX
  8
0
  6
CONTINUOUS
 62
   249
 10
263.424676
 20
137.99
 30
0.0
 70
    64
  0
VERTEX
  8
0
  6
CONTINUOUS
 62
   249
 10
263.438396
 20
137.99
 30
0.0
 70
    64
  0
VERTEX
  8
0
  6
CONTINUOUS
 62
   249
 10
263.452116
 20
137.99
 30
0.0
 70
    64
  0
VERTEX
  8
0
  6
CONTINUOUS
 62
   249
 10
263.465836
 20
137.99
 30
0.0
 70
    64
  0
VERTEX
  8
0
  6
CONTINUOUS
 62
   249
 10
263.479556
 20
137.99
 30
0.0
 70
    64
  0
VERTEX
  8
0
  6
CONTINUOUS
 62
   249
 10
263.493276
 20
137.99
 30
0.0
 70
    64
  0
VERTEX
  8
0
  6
CONTINUOUS
 62
   249
 10
263.506996
 20
137.99
 30
0.0
 70
    64
  0
VERTEX
  8
0
  6
CONTINUOUS
 62
   249
 10
263.520716
 20
137.99
 30
0.0
 70
    64
  0
VERTEX
  8
0
  6
CONTINUOUS
 62
   249
 10
263.534436
 20
137.99
 30
0.0
 70
    64
  0
VERTEX
  8
0
  6
CONTINUOUS
 62
   249
 10
263.548156
 20
137.99
 30
0.0
 70
    64
  0
VERTEX
  8
0
  6
CONTINUOUS
 62
   249
 10
263.561876
 20
137.99
 30
0.0
 70
    64
  0
VERTEX
  8
0
  6
CONTINUOUS
 62
   249
 10
263.575596
 20
137.99
 30
0.0
 70
    64
  0
VERTEX
  8
0
  6
CONTINUOUS
 62
   249
 10
263.589316
 20
137.99
 30
0.0
 70
    64
  0
VERTEX
  8
0
  6
CONTINUOUS
 62
   249
 10
263.603036
 20
137.99
 30
0.0
 70
    64
  0
VERTEX
  8
0
  6
CONTINUOUS
 62
   249
 10
263.616756
 20
137.99
 30
0.0
 70
    64
  0
VERTEX
  8
0
  6
CONTINUOUS
 62
   249
 10
263.630476
 20
137.99
 30
0.0
 70
    64
  0
VERTEX
  8
0
  6
CONTINUOUS
 62
   249
 10
263.644196
 20
137.99
 30
0.0
 70
    64
  0
VERTEX
  8
0
  6
CONTINUOUS
 62
   249
 10
263.657916
 20
137.99
 30
0.0
 70
    64
  0
VERTEX
  8
0
  6
CONTINUOUS
 62
   249
 10
263.671636
 20
137.99
 30
0.0
 70
    64
  0
VERTEX
  8
0
  6
CONTINUOUS
 62
   249
 10
263.685356
 20
137.99
 30
0.0
 70
    64
  0
VERTEX
  8
0
  6
CONTINUOUS
 62
   249
 10
263.699076
 20
137.99
 30
0.0
 70
    64
  0
VERTEX
  8
0
  6
CONTINUOUS
 62
   249
 10
263.712796
 20
137.99
 30
0.0
 70
    64
  0
VERTEX
  8
0
  6
CONTINUOUS
 62
   249
 10
263.726516
 20
137.99
 30
0.0
 70
    64
  0
VERTEX
  8
0
  6
CONTINUOUS
 62
   249
 10
263.740236
 20
137.99
 30
0.0
 70
    64
  0
VERTEX
  8
0
  6
CONTINUOUS
 62
   249
 10
263.753956
 20
137.99
 30
0.0
 70
    64
  0
VERTEX
  8
0
  6
CONTINUOUS
 62
   249
 10
263.767676
 20
137.99
 30
0.0
 70
    64
  0
VERTEX
  8
0
  6
CONTINUOUS
 62
   249
 10
263.781396
 20
137.99
 30
0.0
 70
    64
  0
VERTEX
  8
0
  6
CONTINUOUS
 62
   249
 10
263.795116
 20
137.99
 30
0.0
 70
    64
  0
VERTEX
  8
0
  6
CONTINUOUS
 62
   249
 10
263.808836
 20
137.99
 30
0.0
 70
    64
  0
VERTEX
  8
0
  6
CONTINUOUS
 62
   249
 10
263.822556
 20
137.99
 30
0.0
 70
    64
  0
VERTEX
  8
0
  6
CONTINUOUS
 62
   249
 10
263.836276
 20
137.99
 30
0.0
 70
    64
  0
VERTEX
  8
0
  6
CONTINUOUS
 62
   249
 10
263.849996
 20
137.99
 30
0.0
 70
    64
  0
VERTEX
  8
0
  6
CONTINUOUS
 62
   249
 10
263.863716
 20
137.99
 30
0.0
 70
    64
  0
VERTEX
  8
0
  6
CONTINUOUS
 62
   249
 10
263.877436
 20
137.99
 30
0.0
 70
    64
  0
VERTEX
  8
0
  6
CONTINUOUS
 62
   249
 10
263.891156
 20
137.99
 30
0.0
 70
    64
  0
VERTEX
  8
0
  6
CONTINUOUS
 62
   249
 10
263.904876
 20
137.99
 30
0.0
 70
    64
  0
VERTEX
  8
0
  6
CONTINUOUS
 62
   249
 10
263.918596
 20
137.99
 30
0.0
 70
    64
  0
VERTEX
  8
0
  6
CONTINUOUS
 62
   249
 10
263.932316
 20
137.99
 30
0.0
 70
    64
  0
VERTEX
  8
0
  6
CONTINUOUS
 62
   249
 10
263.946036
 20
137.99
 30
0.0
 70
    64
  0
VERTEX
  8
0
  6
CONTINUOUS
 62
   249
 10
263.959756
 20
137.99
 30
0.0
 70
    64
  0
VERTEX
  8
0
  6
CONTINUOUS
 62
   249
 10
263.973476
 20
137.99
 30
0.0
 70
    64
  0
VERTEX
  8
0
  6
CONTINUOUS
 62
   249
 10
263.987196
 20
137.99
 30
0.0
 70
    64
  0
VERTEX
  8
0
  6
CONTINUOUS
 62
   249
 10
264.000916
 20
137.99
 30
0.0
 70
    64
  0
VERTEX
  8
0
  6
CONTINUOUS
 62
   249
 10
264.014636
 20
137.99
 30
0.0
 70
    64
  0
VERTEX
  8
0
  6
CONTINUOUS
 62
   249
 10
264.028356
 20
137.99
 30
0.0
 70
    64
  0
VERTEX
  8
0
  6
CONTINUOUS
 62
   249
 10
264.042076
 20
137.99
 30
0.0
 70
    64
  0
VERTEX
  8
0
  6
CONTINUOUS
 62
   249
 10
264.055796
 20
137.99
 30
0.0
 70
    64
  0
VERTEX
  8
0
  6
CONTINUOUS
 62
   249
 10
264.069516
 20
137.99
 30
0.0
 70
    64
  0
VERTEX
  8
0
  6
CONTINUOUS
 62
   249
 10
264.083236
 20
137.99
 30
0.0
 70
    64
  0
VERTEX
  8
0
  6
CONTINUOUS
 62
   249
 10
264.096956
 20
137.99
 30
0.0
 70
    64
  0
VERTEX
  8
0
  6
CONTINUOUS
 62
   249
 10
264.110676
 20
137.99
 30
0.0
 70
    64
  0
VERTEX
  8
0
  6
CONTINUOUS
 62
   249
 10
264.124396
 20
137.99
 30
0.0
 70
    64
  0
VERTEX
  8
0
  6
CONTINUOUS
 62
   249
 10
264.138116
 20
137.99
 30
0.0
 70
    64
  0
VERTEX
  8
0
  6
CONTINUOUS
 62
   249
 10
264.151836
 20
137.99
 30
0.0
 70
    64
  0
VERTEX
  8
0
  6
CONTINUOUS
 62
   249
 10
264.165556
 20
137.99
 30
0.0
 70
    64
  0
VERTEX
  8
0
  6
CONTINUOUS
 62
   249
 10
264.179276
 20
137.99
 30
0.0
 70
    64
  0
VERTEX
  8
0
  6
CONTINUOUS
 62
   249
 10
264.192996
 20
137.99
 30
0.0
 70
    64
  0
VERTEX
  8
0
  6
CONTINUOUS
 62
   249
 10
264.206716
 20
137.99
 30
0.0
 70
    64
  0
VERTEX
  8
0
  6
CONTINUOUS
 62
   249
 10
264.220436
 20
137.99
 30
0.0
 70
    64
  0
VERTEX
  8
0
  6
CONTINUOUS
 62
   249
 10
264.234156
 20
137.99
 30
0.0
 70
    64
  0
VERTEX
  8
0
  6
CONTINUOUS
 62
   249
 10
264.247876
 20
137.99
 30
0.0
 70
    64
  0
VERTEX
  8
0
  6
CONTINUOUS
 62
   249
 10
264.261596
 20
137.99
 30
0.0
 70
    64
  0
VERTEX
  8
0
  6
CONTINUOUS
 62
   249
 10
264.275316
 20
137.99
 30
0.0
 70
    64
  0
VERTEX
  8
0
  6
CONTINUOUS
 62
   249
 10
264.289036
 20
137.99
 30
0.0
 70
    64
  0
VERTEX
  8
0
  6
CONTINUOUS
 62
   249
 10
264.302756
 20
137.99
 30
0.0
 70
    64
  0
VERTEX
  8
0
  6
CONTINUOUS
 62
   249
 10
264.316476
 20
137.99
 30
0.0
 70
    64
  0
VERTEX
  8
0
  6
CONTINUOUS
 62
   249
 10
264.330196
 20
137.99
 30
0.0
 70
    64
  0
VERTEX
  8
0
  6
CONTINUOUS
 62
   249
 10
264.343916
 20
137.99
 30
0.0
 70
    64
  0
VERTEX
  8
0
  6
CONTINUOUS
 62
   249
 10
264.357636
 20
137.99
 30
0.0
 70
    64
  0
VERTEX
  8
0
  6
CONTINUOUS
 62
   249
 10
264.371356
 20
137.99
 30
0.0
 70
    64
  0
VERTEX
  8
0
  6
CONTINUOUS
 62
   249
 10
264.385076
 20
137.99
 30
0.0
 70
    64
  0
VERTEX
  8
0
  6
CONTINUOUS
 62
   249
 10
264.398796
 20
137.99
 30
0.0
 70
    64
  0
VERTEX
  8
0
  6
CONTINUOUS
 62
   249
 10
264.412516
 20
137.99
 30
0.0
 70
    64
  0
VERTEX
  8
0
  6
CONTINUOUS
 62
   249
 10
264.426236
 20
137.99
 30
0.0
 70
    64
  0
VERTEX
  8
0
  6
CONTINUOUS
 62
   249
 10
264.439956
 20
137.99
 30
0.0
 70
    64
  0
VERTEX
  8
0
  6
CONTINUOUS
 62
   249
 10
264.453676
 20
137.99
 30
0.0
 70
    64
  0
VERTEX
  8
0
  6
CONTINUOUS
 62
   249
 10
264.467396
 20
137.99
 30
0.0
 70
    64
  0
VERTEX
  8
0
  6
CONTINUOUS
 62
   249
 10
264.481116
 20
137.99
 30
0.0
 70
    64
  0
VERTEX
  8
0
  6
CONTINUOUS
 62
   249
 10
264.494836
 20
137.99
 30
0.0
 70
    64
  0
VERTEX
  8
0
  6
CONTINUOUS
 62
   249
 10
264.508556
 20
137.99
 30
0.0
 70
    64
  0
VERTEX
  8
0
  6
CONTINUOUS
 62
   249
 10
264.522276
 20
137.99
 30
0.0
 70
    64
  0
VERTEX
  8
0
  6
CONTINUOUS
 62
   249
 10
264.535996
 20
137.99
 30
0.0
 70
    64
  0
VERTEX
  8
0
  6
CONTINUOUS
 62
   249
 10
264.549716
 20
137.99
 30
0.0
 70
    64
  0
VERTEX
  8
0
  6
CONTINUOUS
 62
   249
 10
264.563436
 20
137.99
 30
0.0
 70
    64
  0
VERTEX
  8
0
  6
CONTINUOUS
 62
   249
 10
264.577156
 20
137.99
 30
0.0
 70
    64
  0
VERTEX
  8
0
  6
CONTINUOUS
 62
   249
 10
264.590876
 20
137.99
 30
0.0
 70
    64
  0
VERTEX
  8
0
  6
CONTINUOUS
 62
   249
 10
264.604596
 20
137.99
 30
0.0
 70
    64
  0
VERTEX
  8
0
  6
CONTINUOUS
 62
   249
 10
264.618316
 20
137.99
 30
0.0
 70
    64
  0
VERTEX
  8
0
  6
CONTINUOUS
 62
   249
 10
264.632036
 20
137.99
 30
0.0
 70
    64
  0
VERTEX
  8
0
  6
CONTINUOUS
 62
   249
 10
264.645756
 20
137.99
 30
0.0
 70
    64
  0
VERTEX
  8
0
  6
CONTINUOUS
 62
   249
 10
264.659476
 20
137.99
 30
0.0
 70
    64
  0
VERTEX
  8
0
  6
CONTINUOUS
 62
   249
 10
264.673196
 20
137.99
 30
0.0
 70
    64
  0
VERTEX
  8
0
  6
CONTINUOUS
 62
   249
 10
264.686916
 20
137.99
 30
0.0
 70
    64
  0
VERTEX
  8
0
  6
CONTINUOUS
 62
   249
 10
264.700636
 20
137.99
 30
0.0
 70
    64
  0
VERTEX
  8
0
  6
CONTINUOUS
 62
   249
 10
264.714356
 20
137.99
 30
0.0
 70
    64
  0
VERTEX
  8
0
  6
CONTINUOUS
 62
   249
 10
264.728076
 20
137.99
 30
0.0
 70
    64
  0
VERTEX
  8
0
  6
CONTINUOUS
 62
   249
 10
264.741796
 20
137.99
 30
0.0
 70
    64
  0
VERTEX
  8
0
  6
CONTINUOUS
 62
   249
 10
264.755516
 20
137.99
 30
0.0
 70
    64
  0
VERTEX
  8
0
  6
CONTINUOUS
 62
   249
 10
264.769236
 20
137.99
 30
0.0
 70
    64
  0
VERTEX
  8
0
  6
CONTINUOUS
 62
   249
 10
264.782956
 20
137.99
 30
0.0
 70
    64
  0
VERTEX
  8
0
  6
CONTINUOUS
 62
   249
 10
264.796676
 20
137.99
 30
0.0
 70
    64
  0
VERTEX
  8
0
  6
CONTINUOUS
 62
   249
 10
264.810396
 20
137.99
 30
0.0
 70
    64
  0
VERTEX
  8
0
  6
CONTINUOUS
 62
   249
 10
264.824116
 20
137.99
 30
0.0
 70
    64
  0
VERTEX
  8
0
  6
CONTINUOUS
 62
   249
 10
264.837836
 20
137.99
 30
0.0
 70
    64
  0
VERTEX
  8
0
  6
CONTINUOUS
 62
   249
 10
264.851556
 20
137.99
 30
0.0
 70
    64
  0
VERTEX
  8
0
  6
CONTINUOUS
 62
   249
 10
264.865276
 20
137.99
 30
0.0
 70
    64
  0
VERTEX
  8
0
  6
CONTINUOUS
 62
   249
 10
264.878996
 20
137.99
 30
0.0
 70
    64
  0
VERTEX
  8
0
  6
CONTINUOUS
 62
   249
 10
264.892716
 20
137.99
 30
0.0
 70
    64
  0
VERTEX
  8
0
  6
CONTINUOUS
 62
   249
 10
264.906436
 20
137.99
 30
0.0
 70
    64
  0
VERTEX
  8
0
  6
CONTINUOUS
 62
   249
 10
264.920156
 20
137.99
 30
0.0
 70
    64
  0
VERTEX
  8
0
  6
CONTINUOUS
 62
   249
 10
264.933876
 20
137.99
 30
0.0
 70
    64
  0
VERTEX
  8
0
  6
CONTINUOUS
 62
   249
 10
264.947596
 20
137.99
 30
0.0
 70
    64
  0
VERTEX
  8
0
  6
CONTINUOUS
 62
   249
 10
264.961316
 20
137.99
 30
0.0
 70
    64
  0
VERTEX
  8
0
  6
CONTINUOUS
 62
   249
 10
264.975036
 20
137.99
 30
0.0
 70
    64
  0
VERTEX
  8
0
  6
CONTINUOUS
 62
   249
 10
264.988756
 20
137.99
 30
0.0
 70
    64
  0
VERTEX
  8
0
  6
CONTINUOUS
 62
   249
 10
265.002476
 20
137.99
 30
0.0
 70
    64
  0
VERTEX
  8
0
  6
CONTINUOUS
 62
   249
 10
265.016196
 20
137.99
 30
0.0
 70
    64
  0
VERTEX
  8
0
  6
CONTINUOUS
 62
   249
 10
265.029916
 20
137.99
 30
0.0
 70
    64
  0
VERTEX
  8
0
  6
CONTINUOUS
 62
   249
 10
265.043636
 20
137.99
 30
0.0
 70
    64
  0
VERTEX
  8
0
  6
CONTINUOUS
 62
   249
 10
265.057356
 20
137.99
 30
0.0
 70
    64
  0
VERTEX
  8
0
  6
CONTINUOUS
 62
   249
 10
265.071076
 20
137.99
 30
0.0
 70
    64
  0
VERTEX
  8
0
  6
CONTINUOUS
 62
   249
 10
265.084796
 20
137.99
 30
0.0
 70
    64
  0
VERTEX
  8
0
  6
CONTINUOUS
 62
   249
 10
265.098516
 20
137.99
 30
0.0
 70
    64
  0
VERTEX
  8
0
  6
CONTINUOUS
 62
   249
 10
265.112236
 20
137.99
 30
0.0
 70
    64
  0
VERTEX
  8
0
  6
CONTINUOUS
 62
   249
 10
265.125956
 20
137.99
 30
0.0
 70
    64
  0
VERTEX
  8
0
  6
CONTINUOUS
 62
   249
 10
265.139676
 20
137.99
 30
0.0
 70
    64
  0
VERTEX
  8
0
  6
CONTINUOUS
 62
   249
 10
265.153396
 20
137.99
 30
0.0
 70
    64
  0
VERTEX
  8
0
  6
CONTINUOUS
 62
   249
 10
265.167116
 20
137.99
 30
0.0
 70
    64
  0
VERTEX
  8
0
  6
CONTINUOUS
 62
   249
 10
265.180836
 20
137.99
 30
0.0
 70
    64
  0
VERTEX
  8
0
  6
CONTINUOUS
 62
   249
 10
265.194556
 20
137.99
 30
0.0
 70
    64
  0
VERTEX
  8
0
  6
CONTINUOUS
 62
   249
 10
265.208276
 20
137.99
 30
0.0
 70
    64
  0
VERTEX
  8
0
  6
CONTINUOUS
 62
   249
 10
265.221996
 20
137.99
 30
0.0
 70
    64
  0
VERTEX
  8
0
  6
CONTINUOUS
 62
   249
 10
265.235716
 20
137.99
 30
0.0
 70
    64
  0
VERTEX
  8
0
  6
CONTINUOUS
 62
   249
 10
265.249436
 20
137.99
 30
0.0
 70
    64
  0
SEQEND
  8
0
  6
CONTINUOUS
 62
   249
  0
LINE
  8
0
  6
DASHED
 62
   249
 10
265.0
 20
137.5
 30
0.0
 11
275.0
 21
137.5
 31
0.0
  0
ARC
  8
0
  6
CONTINUOUS
 62
   249
 10
262.5
 20
137.5
 30
0.0
 40
2.5
 50
90.0
 51
270.0
  0
LINE
  8
0
  6
CONTINUOUS
 62
   249
 10
277.686172
 20
161.872865
 30
0.0
 11
278.573059
 21
161.872865
 31
0.0
  0
LINE
  8
0
  6
CONTINUOUS
 62
   249
 10
277.355067
 20
162.484498
 30
0.0
 11
278.939639
 21
162.484498
 31
0.0
  0
LINE
  8
0
  6
CONTINUOUS
 62
   249
 10
278.171003
 20
163.10656
 30
0.0
 11
279.365344
 21
163.10656
 31
0.0
  0
LINE
  8
0
  6
CONTINUOUS
 62
   249
 10
276.976662
 20
163.10656
 30
0.0
 11
278.171003
 21
163.10656
 31
0.0
  0
LINE
  8
0
  6
CONTINUOUS
 62
   249
 10
278.18689
 20
164.460831
 30
0.0
 11
278.18689
 21
163.10656
 31
0.0
  0
LINE
  8
0
  6
CONTINUOUS
 62
   249
 10
231.989729
 20
221.164635
 30
0.0
 11
229.643963
 21
222.499989
 31
0.0
  0
LINE
  8
0
  6
CONTINUOUS
 62
   249
 10
229.643963
 20
222.499989
 30
0.0
 11
231.989729
 21
223.689908
 31
0.0
  0
LINE
  8
0
  6
CONTINUOUS
 62
   249
 10
231.989729
 20
231.164635
 30
0.0
 11
229.643963
 21
232.499989
 31
0.0
  0
LINE
  8
0
  6
CONTINUOUS
 62
   249
 10
229.643963
 20
232.499989
 30
0.0
 11
231.989729
 21
233.689908
 31
0.0
  0
ARC
  8
0
  6
CONTINUOUS
 62
   249
 10
297.5
 20
237.5
 30
0.0
 40
0.5
 50
180.0
 51
0.0
  0
ARC
  8
0
  6
CONTINUOUS
 62
   249
 10
297.5
 20
237.5
 30
0.0
 40
0.5
 50
0.0
 51
180.0
  0
ARC
  8
0
  6
CONTINUOUS
 62
   249
 10
305.0
 20
237.5
 30
0.0
 40
0.5
 50
180.0
 51
0.0
  0
ARC
  8
0
  6
CONTINUOUS
 62
   249
 10
305.0
 20
237.5
 30
0.0
 40
0.5
 50
0.0
 51
180.0
  0
ARC
  8
0
  6
CONTINUOUS
 62
   249
 10
312.5
 20
237.5
 30
0.0
 40
0.5
 50
180.0
 51
0.0
  0
ARC
  8
0
  6
CONTINUOUS
 62
   249
 10
312.5
 20
237.5
 30
0.0
 40
0.5
 50
0.0
 51
180.0
  0
LINE
  8
0
  6
CONTINUOUS
 62
   249
 10
363.220143
 20
167.613722
 30
0.0
 11
361.97147
 21
168.324544
 31
0.0
  0
LINE
  8
0
  6
CONTINUOUS
 62
   249
 10
361.97147
 20
168.324544
 30
0.0
 11
363.220143
 21
168.957949
 31
0.0
  0
LINE
  8
0
  6
CONTINUOUS
 62
   249
 10
366.844508
 20
169.04868
 30
0.0
 11
368.093182
 21
168.337859
 31
0.0
  0
LINE
  8
0
  6
CONTINUOUS
 62
   249
 10
368.093182
 20
168.337859
 30
0.0
 11
366.844508
 21
167.704454
 31
0.0
  0
LINE
  8
0
  6
CONTINUOUS
 62
   249
 10
363.220143
 20
179.75005
 30
0.0
 11
361.97147
 21
180.460872
 31
0.0
  0
LINE
  8
0
  6
CONTINUOUS
 62
   249
 10
361.97147
 20
180.460872
 30
0.0
 11
363.220143
 21
181.094277
 31
0.0
  0
LINE
  8
0
  6
CONTINUOUS
 62
   249
 10
363.220143
 20
188.711811
 30
0.0
 11
361.97147
 21
189.422632
 31
0.0
  0
LINE
  8
0
  6
CONTINUOUS
 62
   249
 10
361.97147
 20
189.422632
 30
0.0
 11
363.220143
 21
190.056038
 31
0.0
  0
LINE
  8
0
  6
CONTINUOUS
 62
   249
 10
366.844508
 20
181.185008
 30
0.0
 11
368.093182
 21
180.474187
 31
0.0
  0
LINE
  8
0
  6
CONTINUOUS
 62
   249
 10
368.093182
 20
180.474187
 30
0.0
 11
366.844508
 21
179.840781
 31
0.0
  0
LINE
  8
0
  6
CONTINUOUS
 62
   249
 10
366.844508
 20
190.146769
 30
0.0
 11
368.093182
 21
189.435947
 31
0.0
  0
LINE
  8
0
  6
CONTINUOUS
 62
   249
 10
368.093182
 20
189.435947
 30
0.0
 11
366.844508
 21
188.802542
 31
0.0
  0
LINE
  8
0
  6
CONTINUOUS
 62
   249
 10
364.406894
 20
196.392056
 30
0.0
 11
365.293781
 21
196.392056
 31
0.0
  0
LINE
  8
0
  6
CONTINUOUS
 62
   249
 10
364.07579
 20
197.00369
 30
0.0
 11
365.660361
 21
197.00369
 31
0.0
  0
LINE
  8
0
  6
CONTINUOUS
 62
   249
 10
364.891726
 20
197.625752
 30
0.0
 11
366.086067
 21
197.625752
 31
0.0
  0
LINE
  8
0
  6
CONTINUOUS
 62
   249
 10
363.697385
 20
197.625752
 30
0.0
 11
364.891726
 21
197.625752
 31
0.0
  0
LINE
  8
0
  6
CONTINUOUS
 62
   249
 10
364.907612
 20
198.980022
 30
0.0
 11
364.907612
 21
197.625752
 31
0.0
  0
LINE
  8
0
  6
CONTINUOUS
 62
   249
 10
364.333421
 20
208.939751
 30
0.0
 11
365.220308
 21
208.939751
 31
0.0
  0
LINE
  8
0
  6
CONTINUOUS
 62
   249
 10
364.002317
 20
209.551384
 30
0.0
 11
365.586888
 21
209.551384
 31
0.0
  0
LINE
  8
0
  6
CONTINUOUS
 62
   249
 10
364.818253
 20
210.173447
 30
0.0
 11
366.012594
 21
210.173447
 31
0.0
  0
LINE
  8
0
  6
CONTINUOUS
 62
   249
 10
363.623912
 20
210.173447
 30
0.0
 11
364.818253
 21
210.173447
 31
0.0
  0
LINE
  8
0
  6
CONTINUOUS
 62
   249
 10
364.83414
 20
211.527717
 30
0.0
 11
364.83414
 21
210.173447
 31
0.0
  0
LINE
  8
0
  6
CONTINUOUS
 62
   249
 10
364.105614
 20
203.305092
 30
0.0
 11
365.354287
 21
202.594271
 31
0.0
  0
LINE
  8
0
  6
CONTINUOUS
 62
   249
 10
365.354287
 20
202.594271
 30
0.0
 11
364.105614
 21
201.960866
 31
0.0
  0
LINE
  8
0
  6
CONTINUOUS
 62
   249
 10
363.220143
 20
227.613722
 30
0.0
 11
361.97147
 21
228.324544
 31
0.0
  0
LINE
  8
0
  6
CONTINUOUS
 62
   249
 10
361.97147
 20
228.324544
 30
0.0
 11
363.220143
 21
228.957949
 31
0.0
  0
LINE
  8
0
  6
CONTINUOUS
 62
   249
 10
366.844508
 20
229.04868
 30
0.0
 11
368.093182
 21
228.337859
 31
0.0
  0
LINE
  8
0
  6
CONTINUOUS
 62
   249
 10
368.093182
 20
228.337859
 30
0.0
 11
366.844508
 21
227.704454
 31
0.0
  0
LINE
  8
0
  6
CONTINUOUS
 62
   249
 10
363.220143
 20
239.75005
 30
0.0
 11
361.97147
 21
240.460872
 31
0.0
  0
LINE
  8
0
  6
CONTINUOUS
 62
   249
 10
361.97147
 20
240.460872
 30
0.0
 11
363.220143
 21
241.094277
 31
0.0
  0
LINE
  8
0
  6
CONTINUOUS
 62
   249
 10
366.844508
 20
241.185008
 30
0.0
 11
368.093182
 21
240.474187
 31
0.0
  0
LINE
  8
0
  6
CONTINUOUS
 62
   249
 10
368.093182
 20
240.474187
 30
0.0
 11
366.844508
 21
239.840781
 31
0.0
  0
ENDSEC
  0
EOF
