  0
SECTION
  2
HEADER
  9
$ACADVER
  1
AC1009
  9
$DWGCODEPAGE
  3
iso8859-1
  9
$INSBASE
 10
0.0
 20
0.0
 30
0.0
  9
$EXTMIN
 10
1.0E20
 20
1.0E20
  9
$EXTMAX
 10
-1.0E20
 20
-1.0E20
  9
$LIMMIN
 10
0.0
 20
0.0
  9
$LIMMAX
 10
12.0
 20
9.0
  9
$ORTHOMODE
 70
     0
  9
$REGENMODE
 70
     1
  9
$FILLMODE
 70
     1
  9
$QTEXTMODE
 70
     0
  9
$MIRRTEXT
 70
     1
  9
$DRAGMODE
 70
     2
  9
$LTSCALE
 40
15.0
  9
$OSMODE
 70
     0
  9
$ATTMODE
 70
     1
  9
$TEXTSIZE
 40
0.2
  9
$TRACEWID
 40
0.05
  9
$TEXTSTYLE
  7
STANDARD
  9
$CLAYER
  8
0
  9
$CELTYPE
  6
DASHED
  9
$CECOLOR
 62
   256
  9
$DIMSCALE
 40
1.0
  9
$DIMASZ
 40
0.18
  9
$DIMEXO
 40
0.0625
  9
$DIMDLI
 40
0.38
  9
$DIMRND
 40
0.0
  9
$DIMDLE
 40
0.0
  9
$DIMEXE
 40
0.18
  9
$DIMTP
 40
0.0
  9
$DIMTM
 40
0.0
  9
$DIMTXT
 40
0.18
  9
$DIMCEN
 40
0.09
  9
$DIMTSZ
 40
0.0
  9
$DIMTOL
 70
     0
  9
$DIMLIM
 70
     0
  9
$DIMTIH
 70
     1
  9
$DIMTOH
 70
     1
  9
$DIMSE1
 70
     0
  9
$DIMSE2
 70
     0
  9
$DIMTAD
 70
     0
  9
$DIMZIN
 70
     0
  9
$DIMBLK
  1

  9
$DIMASO
 70
     1
  9
$DIMSHO
 70
     1
  9
$DIMPOST
  1

  9
$DIMAPOST
  1

  9
$DIMALT
 70
     0
  9
$DIMALTD
 70
     2
  9
$DIMALTF
 40
25.4
  9
$DIMLFAC
 40
1.0
  9
$DIMTOFL
 70
     0
  9
$DIMTVP
 40
0.0
  9
$DIMTIX
 70
     0
  9
$DIMSOXD
 70
     0
  9
$DIMSAH
 70
     0
  9
$DIMBLK1
  1

  9
$DIMBLK2
  1

  9
$DIMSTYLE
  2
STANDARD
  9
$DIMCLRD
 70
     0
  9
$DIMCLRE
 70
     0
  9
$DIMCLRT
 70
     0
  9
$DIMTFAC
 40
1.0
  9
$DIMGAP
 40
0.09
  9
$LUNITS
 70
     2
  9
$LUPREC
 70
     4
  9
$AXISMODE
 70
     0
  9
$AXISUNIT
 10
0.0
 20
0.0
  9
$SKETCHINC
 40
0.1
  9
$FILLETRAD
 40
0.0
  9
$AUNITS
 70
     0
  9
$AUPREC
 70
     0
  9
$MENU
  1
acad
  9
$ELEVATION
 40
0.0
  9
$PELEVATION
 40
0.0
  9
$THICKNESS
 40
0.0
  9
$LIMCHECK
 70
     0
  9
$BLIPMODE
 70
     1
  9
$CHAMFERA
 40
0.0
  9
$CHAMFERB
 40
0.0
  9
$SKPOLY
 70
     0
  9
$TDCREATE
 40
0.000000000
  9
$TDUPDATE
 40
0.000000000
  9
$TDINDWG
 40
0.0
  9
$TDUSRTIMER
 40
0.0
  9
$USRTIMER
 70
     1
  9
$ANGBASE
 50
0.0
  9
$ANGDIR
 70
     0
  9
$PDMODE
 70
     0
  9
$PDSIZE
 40
0.0
  9
$PLINEWID
 40
0.0
  9
$COORDS
 70
     1
  9
$SPLFRAME
 70
     0
  9
$SPLINETYPE
 70
     6
  9
$SPLINESEGS
 70
     8
  9
$ATTDIA
 70
     0
  9
$ATTREQ
 70
     1
  9
$HANDLING
 70
     1
  9
$HANDSEED
  5
   2FF
  9
$SURFTAB1
 70
     6
  9
$SURFTAB2
 70
     6
  9
$SURFTYPE
 70
     6
  9
$SURFU
 70
     6
  9
$SURFV
 70
     6
  9
$UCSNAME
  2

  9
$UCSORG
 10
0.0
 20
0.0
 30
0.0
  9
$UCSXDIR
 10
1.0
 20
0.0
 30
0.0
  9
$UCSYDIR
 10
0.0
 20
1.0
 30
0.0
  9
$PUCSNAME
  2

  9
$PUCSORG
 10
0.0
 20
0.0
 30
0.0
  9
$PUCSXDIR
 10
1.0
 20
0.0
 30
0.0
  9
$PUCSYDIR
 10
0.0
 20
1.0
 30
0.0
  9
$USERI1
 70
     0
  9
$USERI2
 70
     0
  9
$USERI3
 70
     0
  9
$USERI4
 70
     0
  9
$USERI5
 70
     0
  9
$USERR1
 40
0.0
  9
$USERR2
 40
0.0
  9
$USERR3
 40
0.0
  9
$USERR4
 40
0.0
  9
$USERR5
 40
0.0
  9
$WORLDVIEW
 70
     1
  9
$SHADEDGE
 70
     3
  9
$SHADEDIF
 70
    70
  9
$TILEMODE
 70
     1
  9
$MAXACTVP
 70
    16
  9
$PINSBASE
 10
0.0
 20
0.0
 30
0.0
  9
$PLIMCHECK
 70
     0
  9
$PEXTMIN
 10
1.0E20
 20
1.0E20
 30
1.0E20
  9
$PEXTMAX
 10
-1.0E20
 20
-1.0E20
 30
-1.0E20
  9
$PLIMMIN
 10
0.0
 20
0.0
  9
$PLIMMAX
 10
12.0
 20
9.0
  9
$UNITMODE
 70
     0
  9
$VISRETAIN
 70
     0
  0
ENDSEC
  0
SECTION
  2
TABLES
  0
TABLE
  2
VPORT
 70
     1
  0
VPORT
  2
*ACTIVE
 70
     0
 10
0.0
 20
0.0
 11
1.0
 21
1.0
 12
6.801242
 22
4.5
 13
0.0
 23
0.0
 14
1.0
 24
1.0
 15
0.0
 25
0.0
 16
0.0
 26
0.0
 36
1.0
 17
0.0
 27
0.0
 37
0.0
 40
9.0
 41
1.511387
 42
50.0
 43
0.0
 44
0.0
 50
0.0
 51
0.0
 71
     0
 72
   100
 73
     1
 74
     1
 75
     0
 76
     0
 77
     0
 78
     0
  0
ENDTAB
  0
TABLE
  2
LTYPE
 70
    41
  0
LTYPE
  2
BYBLOCK
 70
     0
  3

 72
    65
 73
     0
 40
0.0
  0
LTYPE
  2
BYLAYER
 70
     0
  3

 72
    65
 73
     0
 40
0.0
  0
LTYPE
  2
CONTINUOUS
 70
     0
  3
Solid line
 72
    65
 73
     0
 40
0.0
  0
LTYPE
  2
BORDER
 70
    64
  3
__ __ . __ __ . __ __ . __ __ . __ __ . __ __ .
 72
    65
 73
     6
 40
1.75
 49
0.5
 49
-0.25
 49
0.5
 49
-0.25
 49
0.0
 49
-0.25
  0
LTYPE
  2
BORDER2
 70
    64
  3
__.__.__.__.__.__.__.__.__.__.__.__.__.__.__.__
 72
    65
 73
     6
 40
0.875
 49
0.25
 49
-0.125
 49
0.25
 49
-0.125
 49
0.0
 49
-0.125
  0
LTYPE
  2
BORDERX2
 70
    64
  3
____  ____  .  ____  ____  .  ____  ____  .  __
 72
    65
 73
     6
 40
3.5
 49
1.0
 49
-0.5
 49
1.0
 49
-0.5
 49
0.0
 49
-0.5
  0
LTYPE
  2
CENTER
 70
    64
  3
____ _ ____ _ ____ _ ____ _ ____ _ ____ _ ____
 72
    65
 73
     4
 40
2.0
 49
1.25
 49
-0.25
 49
0.25
 49
-0.25
  0
LTYPE
  2
CENTER2
 70
    64
  3
___ _ ___ _ ___ _ ___ _ ___ _ ___ _ ___ _ ___ _
 72
    65
 73
     4
 40
1.125
 49
0.75
 49
-0.125
 49
0.125
 49
-0.125
  0
LTYPE
  2
CENTERX2
 70
    64
  3
________  __  ________  __  ________  __  _____
 72
    65
 73
     4
 40
4.0
 49
2.5
 49
-0.5
 49
0.5
 49
-0.5
  0
LTYPE
  2
DASHDOT
 70
    64
  3
__ . __ . __ . __ . __ . __ . __ . __ . __ . __
 72
    65
 73
     4
 40
1.0
 49
0.5
 49
-0.25
 49
0.0
 49
-0.25
  0
LTYPE
  2
DASHDOT2
 70
    64
  3
_._._._._._._._._._._._._._._._._._._._._._._._
 72
    65
 73
     4
 40
0.5
 49
0.25
 49
-0.125
 49
0.0
 49
-0.125
  0
LTYPE
  2
DASHDOTX2
 70
    64
  3
____  .  ____  .  ____  .  ____  .  ____  .  __
 72
    65
 73
     4
 40
2.0
 49
1.0
 49
-0.5
 49
0.0
 49
-0.5
  0
LTYPE
  2
DASHED
 70
    64
  3
__ __ __ __ __ __ __ __ __ __ __ __ __ __ __ __
 72
    65
 73
     2
 40
0.75
 49
0.5
 49
-0.25
  0
LTYPE
  2
DASHED2
 70
    64
  3
_ _ _ _ _ _ _ _ _ _ _ _ _ _ _ _ _ _ _ _ _ _ _ _
 72
    65
 73
     2
 40
0.375
 49
0.25
 49
-0.125
  0
LTYPE
  2
DASHEDX2
 70
    64
  3
____  ____  ____  ____  ____  ____  ____  ____
 72
    65
 73
     2
 40
1.5
 49
1.0
 49
-0.5
  0
LTYPE
  2
DIVIDE
 70
    64
  3
____ . . ____ . . ____ . . ____ . . ____ . . __
 72
    65
 73
     6
 40
1.25
 49
0.5
 49
-0.25
 49
0.0
 49
-0.25
 49
0.0
 49
-0.25
  0
LTYPE
  2
DIVIDE2
 70
    64
  3
__..__..__..__..__..__..__..__..__..__..__..__.
 72
    65
 73
     6
 40
0.625
 49
0.25
 49
-0.125
 49
0.0
 49
-0.125
 49
0.0
 49
-0.125
  0
LTYPE
  2
DIVIDEX2
 70
    64
  3
________  .  .  ________  .  .  ________  .  .
 72
    65
 73
     6
 40
2.5
 49
1.0
 49
-0.5
 49
0.0
 49
-0.5
 49
0.0
 49
-0.5
  0
LTYPE
  2
DOT
 70
    64
  3
. . . . . . . . . . . . . . . . . . . . . . . .
 72
    65
 73
     2
 40
0.25
 49
0.0
 49
-0.25
  0
LTYPE
  2
DOT2
 70
    64
  3
...............................................
 72
    65
 73
     2
 40
0.125
 49
0.0
 49
-0.125
  0
LTYPE
  2
DOTX2
 70
    64
  3
.  .  .  .  .  .  .  .  .  .  .  .  .  .  .  .
 72
    65
 73
     2
 40
0.5
 49
0.0
 49
-0.5
  0
LTYPE
  2
HIDDEN
 70
    64
  3
__ __ __ __ __ __ __ __ __ __ __ __ __ __ __ __
 72
    65
 73
     2
 40
0.375
 49
0.25
 49
-0.125
  0
LTYPE
  2
HIDDEN2
 70
    64
  3
_ _ _ _ _ _ _ _ _ _ _ _ _ _ _ _ _ _ _ _ _ _ _ _
 72
    65
 73
     2
 40
0.1875
 49
0.125
 49
-0.0625
  0
LTYPE
  2
HIDDENX2
 70
    64
  3
____ ____ ____ ____ ____ ____ ____ ____ ____ __
 72
    65
 73
     2
 40
0.75
 49
0.5
 49
-0.25
  0
LTYPE
  2
PHANTOM
 70
    64
  3
______  __  __  ______  __  __  ______  __  __
 72
    65
 73
     6
 40
2.5
 49
1.25
 49
-0.25
 49
0.25
 49
-0.25
 49
0.25
 49
-0.25
  0
LTYPE
  2
PHANTOM2
 70
    64
  3
___ _ _ ___ _ _ ___ _ _ ___ _ _ ___ _ _ ___ _ _
 72
    65
 73
     6
 40
1.25
 49
0.625
 49
-0.125
 49
0.125
 49
-0.125
 49
0.125
 49
-0.125
  0
LTYPE
  2
PHANTOMX2
 70
    64
  3
____________    ____    ____    ____________
 72
    65
 73
     6
 40
5.0
 49
2.5
 49
-0.5
 49
0.5
 49
-0.5
 49
0.5
 49
-0.5
  0
LTYPE
  2
ACAD_ISO02W100
 70
    64
  3
__ __ __ __ __ __ __ __ __ __ __ __ __ __ __ __
 72
    65
 73
     2
 40
15.0
 49
12.0
 49
-3.0
  0
LTYPE
  2
ACAD_ISO03W100
 70
    64
  3
__    __    __    __    __    __    __    __
 72
    65
 73
     2
 40
30.0
 49
12.0
 49
-18.0
  0
LTYPE
  2
ACAD_ISO04W100
 70
    64
  3
____ . ____ . ____ . ____ . ____ . ____ . ____
 72
    65
 73
     4
 40
30.5
 49
24.0
 49
-3.0
 49
0.5
 49
-3.0
  0
LTYPE
  2
ACAD_ISO05W100
 70
    64
  3
____ .. ____ .. ____ .. ____ .. ____ .. ____ ..
 72
    65
 73
     6
 40
34.0
 49
24.0
 49
-3.0
 49
0.5
 49
-3.0
 49
0.5
 49
-3.0
  0
LTYPE
  2
ACAD_ISO06W100
 70
    64
  3
____ ... ____ ... ____ ... ____ ... ____ ... __
 72
    65
 73
     8
 40
37.5
 49
24.0
 49
-3.0
 49
0.5
 49
-3.0
 49
0.5
 49
-3.0
 49
0.5
 49
-3.0
  0
LTYPE
  2
ACAD_ISO07W100
 70
    64
  3
. . . . . . . . . . . . . . . . . . . . . . . .
 72
    65
 73
     2
 40
3.5
 49
0.5
 49
-3.0
  0
LTYPE
  2
ACAD_ISO08W100
 70
    64
  3
____ __ ____ __ ____ __ ____ ____ __ __ ____ __
 72
    65
 73
     4
 40
36.0
 49
24.0
 49
-3.0
 49
6.0
 49
-3.0
  0
LTYPE
  2
ACAD_ISO09W100
 70
    64
  3
____ __ __ ____ __ __ ____ __ __ ____ __ __ ___
 72
    65
 73
     6
 40
45.0
 49
24.0
 49
-3.0
 49
6.0
 49
-3.0
 49
6.0
 49
-3.0
  0
LTYPE
  2
ACAD_ISO10W100
 70
    64
  3
__ . __ . __ . __ . __ . __ . __ . __ . __ . __
 72
    65
 73
     4
 40
18.5
 49
12.0
 49
-3.0
 49
0.5
 49
-3.0
  0
LTYPE
  2
ACAD_ISO11W100
 70
    64
  3
__ __ . __ __ . __ __ . __ __ . __ __ . __ __ .
 72
    65
 73
     6
 40
33.5
 49
12.0
 49
-3.0
 49
12.0
 49
-3.0
 49
0.5
 49
-3.0
  0
LTYPE
  2
ACAD_ISO12W100
 70
    64
  3
__ . . __ . . __ . . __ . . __ . . __ . . __ .
 72
    65
 73
     6
 40
22.0
 49
12.0
 49
-3.0
 49
0.5
 49
-3.0
 49
0.5
 49
-3.0
  0
LTYPE
  2
ACAD_ISO13W100
 70
    64
  3
__ __ . . __ __ . . __ __ . . __ __ . . __ __ .
 72
    65
 73
     8
 40
37.0
 49
12.0
 49
-3.0
 49
12.0
 49
-3.0
 49
0.5
 49
-3.0
 49
0.5
 49
-3.0
  0
LTYPE
  2
ACAD_ISO14W100
 70
    64
  3
__ . . . __ . . . __ . . . __ . . . __ . . . __
 72
    65
 73
     8
 40
25.5
 49
12.0
 49
-3.0
 49
0.5
 49
-3.0
 49
0.5
 49
-3.0
 49
0.5
 49
-3.0
  0
LTYPE
  2
ACAD_ISO15W100
 70
    64
  3
__ __ . . . __ __ . . . __ __ . . . __ __ . . .
 72
    65
 73
    10
 40
40.5
 49
12.0
 49
-3.0
 49
12.0
 49
-3.0
 49
0.5
 49
-3.0
 49
0.5
 49
-3.0
 49
0.5
 49
-3.0
  0
ENDTAB
  0
TABLE
  2
STYLE
 70
     4
  0
STYLE
  2
STANDARD
 70
    64
 40
0.0
 41
1.0
 50
0.0
 71
     0
 42
0.2
  3
txt
  4

  0
STYLE
  2
TOLERANCE
 70
    64
 40
0.0
 41
1.0
 50
0.0
 71
     0
 42
0.2
  3
../igesfont/iges1003.shx
  4

  0
STYLE
  2
ROMANS
 70
    64
 40
0.0
 41
1.0
 50
0.0
 71
     0
 42
0.2
  3
romans.shx
  4

  0
STYLE
  2
ROMANC
 70
    64
 40
0.0
 41
1.0
 50
0.0
 71
     0
 42
0.2
  3
romanc.shx
  4

  0
ENDTAB
  0
TABLE
  2
DIMSTYLE
 70
     2
  0
DIMSTYLE
  2
UNNAMED
 70
     0
  3

  4

  5

  6

  7

 40
1.0
 41
0.18
 42
0.0625
 43
0.38
 44
0.18
 45
0.0
 46
0.0
 47
0.0
 48
0.0
140
0.18
141
0.09
142
0.0
143
25.4
144
1.0
145
0.0
146
1.0
147
0.09
 71
     0
 72
     0
 73
     1
 74
     1
 75
     0
 76
     0
 77
     0
 78
     0
170
     0
171
     2
172
     0
173
     0
174
     0
175
     0
176
     0
177
     0
178
     0
  0
DIMSTYLE
  2
STANDARD
 70
     0
  3

  4

  5

  6

  7

 40
1.0
 41
0.18
 42
0.0625
 43
0.38
 44
0.18
 45
0.0
 46
0.0
 47
0.0
 48
0.0
140
0.18
141
0.09
142
0.0
143
25.4
144
1.0
145
0.0
146
1.0
147
0.09
 71
     0
 72
     0
 73
     1
 74
     1
 75
     0
 76
     0
 77
     0
 78
     0
170
     0
171
     2
172
     0
173
     0
174
     0
175
     0
176
     0
177
     0
178
     0
  0
ENDTAB
  0
TABLE
  2
LAYER
 70
     2
  0
LAYER
  2
0
 70
     0
 62
     7
  6
CONTINUOUS
  0
LAYER
  2
255
 70
     0
 62
     7
  6
CONTINUOUS
  0
ENDTAB
  0
ENDSEC
  0
SECTION
  2
BLOCKS
  0
BLOCK
  5
     B
  8
0
  6
CONTINUOUS
 62
     7
  2
*HATCH63
 70
    65
 10
0.0
 20
0.0
 30
0.0
  3
*HATCH63
  0
LINE
  5
     C
  8
0
  6
CONTINUOUS
 62
    52
 10
187.293518066406
 20
-219.999984741211
 30
0.0
 11
185.293518066406
 21
-221.999984741211
 31
0.0
  0
LINE
  5
     D
  8
0
  6
CONTINUOUS
 62
    52
 10
191.536163330078
 20
-219.999984741211
 30
0.0
 11
189.536163330078
 21
-221.999984741211
 31
0.0
  0
LINE
  5
     E
  8
0
  6
CONTINUOUS
 62
    52
 10
195.77880859375
 20
-219.999984741211
 30
0.0
 11
193.77880859375
 21
-221.999984741211
 31
0.0
  0
LINE
  5
     F
  8
0
  6
CONTINUOUS
 62
    52
 10
200.021453857422
 20
-219.999984741211
 30
0.0
 11
198.021453857422
 21
-221.999984741211
 31
0.0
  0
LINE
  5
    10
  8
0
  6
CONTINUOUS
 62
    52
 10
204.264099121094
 20
-219.999984741211
 30
0.0
 11
202.264099121094
 21
-221.999984741211
 31
0.0
  0
LINE
  5
    11
  8
0
  6
CONTINUOUS
 62
    52
 10
208.506744384766
 20
-219.999984741211
 30
0.0
 11
206.506744384766
 21
-221.999984741211
 31
0.0
  0
LINE
  5
    12
  8
0
  6
CONTINUOUS
 62
    52
 10
212.749389648438
 20
-219.999984741211
 30
0.0
 11
210.749389648438
 21
-221.999984741211
 31
0.0
  0
LINE
  5
    13
  8
0
  6
CONTINUOUS
 62
    52
 10
216.992034912109
 20
-219.999984741211
 30
0.0
 11
214.992034912109
 21
-221.999984741211
 31
0.0
  0
LINE
  5
    14
  8
0
  6
CONTINUOUS
 62
    52
 10
221.234680175781
 20
-219.999984741211
 30
0.0
 11
219.234680175781
 21
-221.999984741211
 31
0.0
  0
LINE
  5
    15
  8
0
  6
CONTINUOUS
 62
    52
 10
225.477325439453
 20
-219.999984741211
 30
0.0
 11
223.477325439453
 21
-221.999984741211
 31
0.0
  0
LINE
  5
    16
  8
0
  6
CONTINUOUS
 62
    52
 10
229.719970703125
 20
-219.999984741211
 30
0.0
 11
227.719970703125
 21
-221.999984741211
 31
0.0
  0
LINE
  5
    17
  8
0
  6
CONTINUOUS
 62
    52
 10
233.962615966797
 20
-219.999984741211
 30
0.0
 11
231.962615966797
 21
-221.999984741211
 31
0.0
  0
LINE
  5
    18
  8
0
  6
CONTINUOUS
 62
    52
 10
238.205261230469
 20
-219.999984741211
 30
0.0
 11
236.205261230469
 21
-221.999984741211
 31
0.0
  0
LINE
  5
    19
  8
0
  6
CONTINUOUS
 62
    52
 10
242.447906494141
 20
-219.999984741211
 30
0.0
 11
240.447906494141
 21
-221.999984741211
 31
0.0
  0
LINE
  5
    1A
  8
0
  6
CONTINUOUS
 62
    52
 10
246.690551757813
 20
-219.999984741211
 30
0.0
 11
244.690551757813
 21
-221.999984741211
 31
0.0
  0
LINE
  5
    1B
  8
0
  6
CONTINUOUS
 62
    52
 10
250.933197021484
 20
-219.999984741211
 30
0.0
 11
248.933197021484
 21
-221.999984741211
 31
0.0
  0
LINE
  5
    1C
  8
0
  6
CONTINUOUS
 62
    52
 10
255.175842285156
 20
-219.999984741211
 30
0.0
 11
253.175842285156
 21
-221.999984741211
 31
0.0
  0
LINE
  5
    1D
  8
0
  6
CONTINUOUS
 62
    52
 10
259.058349609375
 20
-220.36003112793
 30
0.0
 11
257.418426513672
 21
-221.999984741211
 31
0.0
  0
ENDBLK
  5
    1E
  8
0
  6
CONTINUOUS
 62
     7
  0
BLOCK
  5
    1F
  8
0
  6
CONTINUOUS
 62
     7
  2
*HATCH64
 70
    65
 10
0.0
 20
0.0
 30
0.0
  3
*HATCH64
  0
LINE
  5
    20
  8
0
  6
CONTINUOUS
 62
    52
 10
168.201629638672
 20
-219.999984741211
 30
0.0
 11
166.201629638672
 21
-221.999984741211
 31
0.0
  0
LINE
  5
    21
  8
0
  6
CONTINUOUS
 62
    52
 10
172.444274902344
 20
-219.999984741211
 30
0.0
 11
170.444274902344
 21
-221.999984741211
 31
0.0
  0
LINE
  5
    22
  8
0
  6
CONTINUOUS
 62
    52
 10
176.686920166016
 20
-219.999984741211
 30
0.0
 11
174.686920166016
 21
-221.999984741211
 31
0.0
  0
ENDBLK
  5
    23
  8
0
  6
CONTINUOUS
 62
     7
  0
BLOCK
  5
    24
  8
0
  6
CONTINUOUS
 62
     7
  2
*HATCH65
 70
    65
 10
0.0
 20
0.0
 30
0.0
  3
*HATCH65
  0
LINE
  5
    25
  8
0
  6
CONTINUOUS
 62
    52
 10
45.1650505065918
 20
-219.999984741211
 30
0.0
 11
43.1650505065918
 21
-221.999984741211
 31
0.0
  0
LINE
  5
    26
  8
0
  6
CONTINUOUS
 62
    52
 10
49.4076881408691
 20
-219.999984741211
 30
0.0
 11
47.4076881408691
 21
-221.999984741211
 31
0.0
  0
LINE
  5
    27
  8
0
  6
CONTINUOUS
 62
    52
 10
53.6503257751465
 20
-219.999984741211
 30
0.0
 11
51.6503257751465
 21
-221.999984741211
 31
0.0
  0
ENDBLK
  5
    28
  8
0
  6
CONTINUOUS
 62
     7
  0
BLOCK
  5
    29
  8
0
  6
CONTINUOUS
 62
     7
  2
*HATCH66
 70
    65
 10
0.0
 20
0.0
 30
0.0
  3
*HATCH66
  0
LINE
  5
    2A
  8
0
  6
CONTINUOUS
 62
    52
 10
-41.8090858459473
 20
-219.999984741211
 30
0.0
 11
-43.8090858459473
 21
-221.999984741211
 31
0.0
  0
LINE
  5
    2B
  8
0
  6
CONTINUOUS
 62
    52
 10
-37.5664482116699
 20
-219.999984741211
 30
0.0
 11
-39.5664482116699
 21
-221.999984741211
 31
0.0
  0
LINE
  5
    2C
  8
0
  6
CONTINUOUS
 62
    52
 10
-33.3238105773926
 20
-219.999984741211
 30
0.0
 11
-35.3238105773926
 21
-221.999984741211
 31
0.0
  0
LINE
  5
    2D
  8
0
  6
CONTINUOUS
 62
    52
 10
-29.081169128418
 20
-219.999984741211
 30
0.0
 11
-31.0811710357666
 21
-221.999984741211
 31
0.0
  0
LINE
  5
    2E
  8
0
  6
CONTINUOUS
 62
    52
 10
-24.8385276794434
 20
-219.999984741211
 30
0.0
 11
-26.838529586792
 21
-221.999984741211
 31
0.0
  0
LINE
  5
    2F
  8
0
  6
CONTINUOUS
 62
    52
 10
-20.5958862304688
 20
-219.999984741211
 30
0.0
 11
-22.5958881378174
 21
-221.999984741211
 31
0.0
  0
LINE
  5
    30
  8
0
  6
CONTINUOUS
 62
    52
 10
-16.3532447814941
 20
-219.999984741211
 30
0.0
 11
-18.3532466888428
 21
-221.999984741211
 31
0.0
  0
LINE
  5
    31
  8
0
  6
CONTINUOUS
 62
    52
 10
-12.1106033325195
 20
-219.999984741211
 30
0.0
 11
-14.1106052398682
 21
-221.999984741211
 31
0.0
  0
LINE
  5
    32
  8
0
  6
CONTINUOUS
 62
    52
 10
-7.86796236038208
 20
-219.999984741211
 30
0.0
 11
-9.86796379089355
 21
-221.999984741211
 31
0.0
  0
LINE
  5
    33
  8
0
  6
CONTINUOUS
 62
    52
 10
-3.62532186508179
 20
-219.999984741211
 30
0.0
 11
-5.62532329559326
 21
-221.999984741211
 31
0.0
  0
LINE
  5
    34
  8
0
  6
CONTINUOUS
 62
    52
 10
0.617318630218506
 20
-219.999984741211
 30
0.0
 11
-1.38268280029297
 21
-221.999984741211
 31
0.0
  0
LINE
  5
    35
  8
0
  6
CONTINUOUS
 62
    52
 10
4.8599591255188
 20
-219.999984741211
 30
0.0
 11
2.85995769500732
 21
-221.999984741211
 31
0.0
  0
LINE
  5
    36
  8
0
  6
CONTINUOUS
 62
    52
 10
9.10260009765625
 20
-219.999984741211
 30
0.0
 11
7.10259819030762
 21
-221.999984741211
 31
0.0
  0
LINE
  5
    37
  8
0
  6
CONTINUOUS
 62
    52
 10
13.3452415466309
 20
-219.999984741211
 30
0.0
 11
11.3452396392822
 21
-221.999984741211
 31
0.0
  0
LINE
  5
    38
  8
0
  6
CONTINUOUS
 62
    52
 10
17.5878829956055
 20
-219.999984741211
 30
0.0
 11
15.5878810882568
 21
-221.999984741211
 31
0.0
  0
LINE
  5
    39
  8
0
  6
CONTINUOUS
 62
    52
 10
21.8305244445801
 20
-219.999984741211
 30
0.0
 11
19.8305225372314
 21
-221.999984741211
 31
0.0
  0
LINE
  5
    3A
  8
0
  6
CONTINUOUS
 62
    52
 10
26.0731658935547
 20
-219.999984741211
 30
0.0
 11
24.0731639862061
 21
-221.999984741211
 31
0.0
  0
LINE
  5
    3B
  8
0
  6
CONTINUOUS
 62
    52
 10
30.3158073425293
 20
-219.999984741211
 30
0.0
 11
28.3158054351807
 21
-221.999984741211
 31
0.0
  0
LINE
  5
    3C
  8
0
  6
CONTINUOUS
 62
    52
 10
34.5584449768066
 20
-219.999984741211
 30
0.0
 11
32.5584449768066
 21
-221.999984741211
 31
0.0
  0
ENDBLK
  5
    3D
  8
0
  6
CONTINUOUS
 62
     7
  0
BLOCK
  5
    3E
  8
0
  6
CONTINUOUS
 62
     7
  2
*UDIM357
 70
    65
 10
0.0
 20
0.0
 30
0.0
  3
*UDIM357
  0
TEXT
  5
    3F
  8
0
  6
CONTINUOUS
 62
     7
 10
-411.645637619855
 20
100.938629151383
 30
0.0
 40
3.00000002980232
  1
2
 50
359.999999948034
 41
0.933333333333334
 72
     1
 11
-410.545637607574
 21
102.438629165292
 31
0.0
 73
     2
  0
LINE
  5
    40
  8
0
  6
CONTINUOUS
 62
     7
 10
-414.645637512207
 20
93.4693739892242
 30
0.0
 11
-414.645637512207
 21
101.938629150391
 31
0.0
  0
LINE
  5
    41
  8
0
  6
CONTINUOUS
 62
     7
 10
-415.645637512207
 20
92.8271721543619
 30
0.0
 11
-415.645637512207
 21
101.938629150391
 31
0.0
  0
LINE
  5
    42
  8
0
  6
CONTINUOUS
 62
     7
 10
-409.445637596647
 20
99.9386291503906
 30
0.0
 11
-415.645637512207
 21
99.9386291503906
 31
0.0
  0
LINE
  5
    43
  8
0
  6
CONTINUOUS
 62
     7
 10
-411.691214235
 20
100.459573580342
 30
0.0
 11
-414.645637512207
 21
99.9386291503906
 31
0.0
  0
LINE
  5
    44
  8
0
  6
CONTINUOUS
 62
     7
 10
-414.645637512207
 20
99.9386291503906
 30
0.0
 11
-411.691214235
 21
99.417684720439
 31
0.0
  0
LINE
  5
    45
  8
0
  6
CONTINUOUS
 62
     7
 10
-418.600060789414
 20
99.417684720439
 30
0.0
 11
-415.645637512207
 21
99.9386291503906
 31
0.0
  0
LINE
  5
    46
  8
0
  6
CONTINUOUS
 62
     7
 10
-415.645637512207
 20
99.9386291503906
 30
0.0
 11
-418.600060789414
 21
100.459573580342
 31
0.0
  0
ENDBLK
  5
    47
  8
0
  6
CONTINUOUS
 62
     7
  0
BLOCK
  5
    48
  8
0
  6
CONTINUOUS
 62
     7
  2
*UDIM358
 70
    65
 10
0.0
 20
0.0
 30
0.0
  3
*UDIM358
  0
TEXT
  5
    49
  8
0
  6
CONTINUOUS
 62
     7
 10
-474.820633743566
 20
100.938629153908
 30
0.0
 40
3.00000002980232
  1
220
 50
359.999999948034
 41
0.933333333333333
 72
     1
 11
-470.92063370347
 21
102.438629165292
 31
0.0
 73
     2
  0
LINE
  5
    4A
  8
0
  6
CONTINUOUS
 62
     7
 10
-525.645629882813
 20
89.588247790617
 30
0.0
 11
-525.645629882813
 21
101.938629150391
 31
0.0
  0
LINE
  5
    4B
  8
0
  6
CONTINUOUS
 62
     7
 10
-415.645637512207
 20
99.9386291503906
 30
0.0
 11
-525.645629882813
 21
99.9386291503906
 31
0.0
  0
LINE
  5
    4C
  8
0
  6
CONTINUOUS
 62
     7
 10
-418.600060789414
 20
99.417684720439
 30
0.0
 11
-415.645637512207
 21
99.9386291503906
 31
0.0
  0
LINE
  5
    4D
  8
0
  6
CONTINUOUS
 62
     7
 10
-415.645637512207
 20
99.9386291503906
 30
0.0
 11
-418.600060789414
 21
100.459573580342
 31
0.0
  0
LINE
  5
    4E
  8
0
  6
CONTINUOUS
 62
     7
 10
-522.691206605606
 20
100.459573580342
 30
0.0
 11
-525.645629882813
 21
99.9386291503906
 31
0.0
  0
LINE
  5
    4F
  8
0
  6
CONTINUOUS
 62
     7
 10
-525.645629882813
 20
99.9386291503906
 30
0.0
 11
-522.691206605606
 21
99.417684720439
 31
0.0
  0
ENDBLK
  5
    50
  8
0
  6
CONTINUOUS
 62
     7
  0
BLOCK
  5
    51
  8
0
  6
CONTINUOUS
 62
     7
  2
*UDIM359
 70
    65
 10
0.0
 20
0.0
 30
0.0
  3
*UDIM359
  0
TEXT
  5
    52
  8
0
  6
CONTINUOUS
 62
     7
 10
-476.245633771382
 20
-77.7531280457148
 30
0.0
 40
3.00000002980232
  1
225,5
 50
359.999999948034
 41
0.933333333333333
 72
     1
 11
-469.54563370347
 21
-76.2531280368567
 31
0.0
 73
     2
  0
LINE
  5
    53
  8
0
  6
CONTINUOUS
 62
     7
 10
-412.895637512207
 20
-9.84282501222468
 30
0.0
 11
-412.895637512207
 21
-80.7531280517578
 31
0.0
  0
LINE
  5
    54
  8
0
  6
CONTINUOUS
 62
     7
 10
-525.645629882813
 20
-57.5591832115724
 30
0.0
 11
-525.645629882813
 21
-80.7531280517578
 31
0.0
  0
LINE
  5
    55
  8
0
  6
CONTINUOUS
 62
     7
 10
-412.895637512207
 20
-78.7531280517578
 30
0.0
 11
-525.645629882813
 21
-78.7531280517578
 31
0.0
  0
LINE
  5
    56
  8
0
  6
CONTINUOUS
 62
     7
 10
-415.850060789414
 20
-79.2740724817095
 30
0.0
 11
-412.895637512207
 21
-78.7531280517578
 31
0.0
  0
LINE
  5
    57
  8
0
  6
CONTINUOUS
 62
     7
 10
-412.895637512207
 20
-78.7531280517578
 30
0.0
 11
-415.850060789414
 21
-78.2321836218062
 31
0.0
  0
LINE
  5
    58
  8
0
  6
CONTINUOUS
 62
     7
 10
-522.691206605606
 20
-78.2321836218062
 30
0.0
 11
-525.645629882813
 21
-78.7531280517578
 31
0.0
  0
LINE
  5
    59
  8
0
  6
CONTINUOUS
 62
     7
 10
-525.645629882813
 20
-78.7531280517578
 30
0.0
 11
-522.691206605606
 21
-79.2740724817095
 31
0.0
  0
ENDBLK
  5
    5A
  8
0
  6
CONTINUOUS
 62
     7
  0
BLOCK
  5
    5B
  8
0
  6
CONTINUOUS
 62
     7
  2
MIC_MOT
 70
    64
 10
0.0
 20
0.0
 30
0.0
  3
MIC_MOT
  0
LINE
  5
    5C
  8
0
  6
CONTINUOUS
 62
     7
 10
-52.0
 20
52.5
 30
0.0
 11
52.0
 21
52.5
 31
0.0
  0
LINE
  5
    5D
  8
0
  6
CONTINUOUS
 62
     7
 10
-52.0
 20
-52.5
 30
0.0
 11
52.0
 21
-52.5
 31
0.0
  0
LINE
  5
    5E
  8
0
  6
CONTINUOUS
 62
     7
 10
-52.5
 20
-52.0
 30
0.0
 11
-52.5
 21
52.0
 31
0.0
  0
LINE
  5
    5F
  8
0
  6
CONTINUOUS
 62
     7
 10
52.5
 20
-52.0
 30
0.0
 11
52.5
 21
52.0
 31
0.0
  0
ARC
  5
    60
  8
0
  6
CONTINUOUS
 62
     7
 10
-52.0
 20
52.0
 30
0.0
 40
0.5
 50
90.0
 51
180.0
  0
ARC
  5
    61
  8
0
  6
CONTINUOUS
 62
     7
 10
52.0
 20
52.0
 30
0.0
 40
0.5
 50
0.0
 51
90.0
  0
ARC
  5
    62
  8
0
  6
CONTINUOUS
 62
     7
 10
52.0
 20
-52.0
 30
0.0
 40
0.5
 50
270.0
 51
360.0
  0
ARC
  5
    63
  8
0
  6
CONTINUOUS
 62
     7
 10
-52.0
 20
-52.0
 30
0.0
 40
0.5
 50
180.0
 51
270.0
  0
LINE
  5
    64
  8
0
  6
CONTINUOUS
 62
     7
 10
-51.75
 20
51.75
 30
0.0
 11
51.75
 21
51.75
 31
0.0
  0
LINE
  5
    65
  8
0
  6
CONTINUOUS
 62
     7
 10
-51.75
 20
-51.75
 30
0.0
 11
51.75
 21
-51.75
 31
0.0
  0
LINE
  5
    66
  8
0
  6
CONTINUOUS
 62
     7
 10
-51.75
 20
-51.75
 30
0.0
 11
-51.75
 21
51.75
 31
0.0
  0
LINE
  5
    67
  8
0
  6
CONTINUOUS
 62
     7
 10
51.75
 20
-51.75
 30
0.0
 11
51.75
 21
51.75
 31
0.0
  0
LINE
  5
    68
  8
0
  6
CONTINUOUS
 62
     7
 10
-51.75
 20
40.5
 30
0.0
 11
51.75
 21
40.5
 31
0.0
  0
LINE
  5
    69
  8
0
  6
CONTINUOUS
 62
     7
 10
-51.75
 20
50.5
 30
0.0
 11
51.75
 21
50.5
 31
0.0
  0
LINE
  5
    6A
  8
0
  6
CONTINUOUS
 62
     7
 10
18.0
 20
-51.75
 30
0.0
 11
18.0
 21
40.5
 31
0.0
  0
LINE
  5
    6B
  8
0
  6
CONTINUOUS
 62
     7
 10
48.0
 20
-51.75
 30
0.0
 11
48.0
 21
40.5
 31
0.0
  0
LINE
  5
    6C
  8
0
  6
CONTINUOUS
 62
     7
 10
17.0
 20
-51.75
 30
0.0
 11
17.0
 21
40.5
 31
0.0
  0
LINE
  5
    6D
  8
0
  6
CONTINUOUS
 62
     7
 10
49.0
 20
-51.75
 30
0.0
 11
49.0
 21
40.5
 31
0.0
  0
CIRCLE
  5
    6E
  8
0
  6
CONTINUOUS
 62
     7
 10
33.0
 20
22.0
 30
0.0
 40
10.75
  0
CIRCLE
  5
    6F
  8
0
  6
CONTINUOUS
 62
     7
 10
33.0
 20
-27.3
 30
0.0
 40
10.75
  0
LINE
  5
    70
  8
0
  6
DASHDOT
 62
     7
 10
33.0
 20
8.25
 30
0.0
 11
33.0
 21
35.75
 31
0.0
  0
LINE
  5
    71
  8
0
  6
DASHDOT
 62
     7
 10
19.25
 20
22.0
 30
0.0
 11
46.75
 21
22.0
 31
0.0
  0
LINE
  5
    72
  8
0
  6
DASHDOT
 62
     7
 10
33.0
 20
-41.05
 30
0.0
 11
33.0
 21
-13.55
 31
0.0
  0
LINE
  5
    73
  8
0
  6
DASHDOT
 62
     7
 10
19.25
 20
-27.3
 30
0.0
 11
46.75
 21
-27.3
 31
0.0
  0
LINE
  5
    74
  8
0
  6
DASHDOT
 62
     7
 10
-2.92705060525183
 20
-42.5
 30
0.0
 11
2.60041022984924
 21
-42.5
 31
0.0
  0
LINE
  5
    75
  8
0
  6
DASHDOT
 62
     7
 10
0.0
 20
-45.3252929935919
 30
0.0
 11
0.0
 21
-40.0561247208787
 31
0.0
  0
ARC
  5
    76
  8
0
  6
CONTINUOUS
 62
     7
 10
-20.25
 20
-23.0
 30
0.0
 40
5.25
 50
0.0
 51
180.0
  0
ARC
  5
    77
  8
0
  6
CONTINUOUS
 62
     7
 10
-20.25
 20
-33.0
 30
0.0
 40
5.25
 50
1.56165987539836
 51
360.0
  0
LINE
  5
    78
  8
0
  6
CONTINUOUS
 62
     7
 10
-15.0
 20
-33.0
 30
0.0
 11
-15.0
 21
-23.0
 31
0.0
  0
LINE
  5
    79
  8
0
  6
CONTINUOUS
 62
     7
 10
-25.5
 20
-33.0
 30
0.0
 11
-25.5
 21
-23.0
 31
0.0
  0
LINE
  5
    7A
  8
0
  6
DASHDOT
 62
     7
 10
-20.25
 20
-41.25
 30
0.0
 11
-20.25
 21
-24.75
 31
0.0
  0
LINE
  5
    7B
  8
0
  6
DASHDOT
 62
     7
 10
-28.5
 20
-33.0
 30
0.0
 11
-12.0
 21
-33.0
 31
0.0
  0
LINE
  5
    7C
  8
0
  6
CONTINUOUS
 62
     7
 10
-25.4038820320221
 20
-32.0
 30
0.0
 11
-15.0961179679779
 21
-32.0
 31
0.0
  0
LINE
  5
    7D
  8
0
  6
CONTINUOUS
 62
     7
 10
-25.4038820320221
 20
-34.0
 30
0.0
 11
-15.0961179679779
 21
-34.0
 31
0.0
  0
LINE
  5
    7E
  8
0
  6
CONTINUOUS
 62
     7
 10
40.25
 20
8.75
 30
0.0
 11
42.75
 21
8.75
 31
0.0
  0
LINE
  5
    7F
  8
0
  6
CONTINUOUS
 62
     7
 10
40.25
 20
-8.75
 30
0.0
 11
42.75
 21
-8.75
 31
0.0
  0
LINE
  5
    80
  8
0
  6
CONTINUOUS
 62
     7
 10
40.25
 20
-8.75
 30
0.0
 11
40.25
 21
8.75
 31
0.0
  0
LINE
  5
    81
  8
0
  6
CONTINUOUS
 62
     7
 10
42.75
 20
-8.75
 30
0.0
 11
42.75
 21
8.75
 31
0.0
  0
LINE
  5
    82
  8
0
  6
CONTINUOUS
 62
     1
 10
-32.25
 20
32.0
 30
0.0
 11
-32.25
 21
38.3600093632938
 31
0.0
  0
LINE
  5
    83
  8
0
  6
CONTINUOUS
 62
     1
 10
-32.25
 20
32.0
 30
0.0
 11
-25.75
 21
32.0
 31
0.0
  0
LINE
  5
    84
  8
0
  6
CONTINUOUS
 62
     1
 10
-25.75
 20
-6.87467277262665
 30
0.0
 11
-25.75
 21
32.0
 31
0.0
  0
ARC
  5
    85
  8
0
  6
CONTINUOUS
 62
     1
 10
-20.25
 20
17.0
 30
0.0
 40
23.0
 50
146.0
 51
256.164776385962
  0
ARC
  5
    86
  8
0
  6
CONTINUOUS
 62
     1
 10
-20.25
 20
17.0
 30
0.0
 40
24.5
 50
119.327168765378
 51
257.027121849249
  0
LINE
  5
    87
  8
0
  6
CONTINUOUS
 62
     1
 10
-40.5614205275985
 20
30.7002261350333
 30
0.0
 11
-39.317864168766
 21
29.8614367798272
 31
0.0
  0
LINE
  5
    88
  8
0
  6
CONTINUOUS
 62
     1
 10
-39.25
 20
17.0
 30
0.0
 11
-31.75
 21
24.5
 31
0.0
  0
LINE
  5
    89
  8
0
  6
CONTINUOUS
 62
     1
 10
-39.25
 20
17.0
 30
0.0
 11
-31.75
 21
9.49999999999999
 31
0.0
  0
LINE
  5
    8A
  8
0
  6
CONTINUOUS
 62
     1
 10
-31.75
 20
9.5
 30
0.0
 11
-31.75
 21
24.5
 31
0.0
  0
ARC
  5
    8B
  8
0
  6
CONTINUOUS
 62
     1
 10
-20.25
 20
17.0
 30
0.0
 40
22.5
 50
284.149004508935
 51
435.850995491065
  0
LINE
  5
    8C
  8
0
  6
CONTINUOUS
 62
     1
 10
-14.75
 20
-4.81742422927143
 30
0.0
 11
-14.75
 21
38.8174242292714
 31
0.0
  0
LINE
  5
    8D
  8
0
  6
CONTINUOUS
 62
     1
 10
-14.75
 20
25.0
 30
0.0
 11
0.779740844813091
 21
25.0
 31
0.0
  0
LINE
  5
    8E
  8
0
  6
CONTINUOUS
 62
     1
 10
-14.75
 20
9.0
 30
0.0
 11
0.779740844813091
 21
9.0
 31
0.0
  0
LINE
  5
    8F
  8
0
  6
CONTINUOUS
 62
     1
 10
-15.25
 20
-4.9374109684803
 30
0.0
 11
-15.25
 21
38.9374109684803
 31
0.0
  0
LINE
  5
    90
  8
0
  6
CONTINUOUS
 62
     1
 10
-24.25
 20
-11.0
 30
0.0
 11
-24.25
 21
38.2896688560438
 31
0.0
  0
ARC
  5
    91
  8
0
  6
CONTINUOUS
 62
     1
 10
-20.25
 20
17.0
 30
0.0
 40
22.5
 50
77.1604115930958
 51
87.4526818174296
  0
LINE
  5
    92
  8
0
  6
CONTINUOUS
 62
     1
 10
-19.25
 20
-5.47776679298902
 30
0.0
 11
-19.25
 21
39.477766792989
 31
0.0
  0
LINE
  5
    93
  8
0
  6
CONTINUOUS
 62
     1
 10
-21.25
 20
-11.0
 30
0.0
 11
-21.25
 21
39.477766792989
 31
0.0
  0
ARC
  5
    94
  8
0
  6
CONTINUOUS
 62
     1
 10
-20.25
 20
17.0
 30
0.0
 40
22.5
 50
92.5473181825704
 51
116.387799961243
  0
ARC
  5
    95
  8
0
  6
CONTINUOUS
 62
     1
 10
-20.25
 20
17.0
 30
0.0
 40
22.5
 50
259.759651678814
 51
267.45268181743
  0
LINE
  5
    96
  8
0
  6
CONTINUOUS
 62
     1
 10
-21.25
 20
35.5
 30
0.0
 11
-19.25
 21
35.5
 31
0.0
  0
LINE
  5
    97
  8
0
  6
CONTINUOUS
 62
     1
 10
-21.25
 20
-1.5
 30
0.0
 11
-19.25
 21
-1.5
 31
0.0
  0
LINE
  5
    98
  8
0
  6
CONTINUOUS
 62
     1
 10
-30.25
 20
34.0
 30
0.0
 11
-30.25
 21
37.1556443707464
 31
0.0
  0
LINE
  5
    99
  8
0
  6
CONTINUOUS
 62
     1
 10
-29.25
 20
33.0
 30
0.0
 11
-24.25
 21
33.0
 31
0.0
  0
ARC
  5
    9A
  8
0
  6
CONTINUOUS
 62
     1
 10
-29.25
 20
34.0
 30
0.0
 40
1.0
 50
180.0
 51
270.0
  0
ARC
  5
    9B
  8
0
  6
CONTINUOUS
 62
     1
 10
-23.25
 20
38.2896688560438
 30
0.0
 40
1.0
 50
98.0209328752446
 51
180.0
  0
LINE
  5
    9C
  8
0
  6
CONTINUOUS
 62
     1
 10
-24.25
 20
-11.0
 30
0.0
 11
-21.25
 21
-11.0
 31
0.0
  0
ARC
  5
    9D
  8
0
  6
CONTINUOUS
 62
     1
 10
-20.25
 20
17.0
 30
0.0
 40
22.5
 50
272.54731818257
 51
282.839588406904
  0
CIRCLE
  5
    9E
  8
0
  6
CONTINUOUS
 62
     7
 10
-47.5
 20
17.0
 30
0.0
 40
2.5
  0
CIRCLE
  5
    9F
  8
0
  6
CONTINUOUS
 62
     7
 10
-47.5
 20
17.0
 30
0.0
 40
1.5
  0
LINE
  5
    A0
  8
0
  6
CONTINUOUS
 62
     7
 10
-21.25
 20
-14.25
 30
0.0
 11
-21.25
 21
-6.25
 31
0.0
  0
LINE
  5
    A1
  8
0
  6
CONTINUOUS
 62
     7
 10
-19.25
 20
-14.25
 30
0.0
 11
-19.25
 21
-6.25
 31
0.0
  0
LINE
  5
    A2
  8
0
  6
CONTINUOUS
 62
     7
 10
-21.25
 20
-6.25
 30
0.0
 11
-19.25
 21
-6.25
 31
0.0
  0
LINE
  5
    A3
  8
0
  6
CONTINUOUS
 62
     7
 10
-21.25
 20
-14.25
 30
0.0
 11
-19.25
 21
-14.25
 31
0.0
  0
ENDBLK
  5
    A4
  8
0
  6
CONTINUOUS
 62
     7
  0
BLOCK
  5
    A5
  8
0
  6
CONTINUOUS
 62
     7
  2
MOSTRINA
 70
    64
 10
0.0
 20
0.0
 30
0.0
  3
MOSTRINA
  0
LINE
  5
    A6
  8
0
  6
CONTINUOUS
 62
     3
 10
173.338256835938
 20
30.7306251525879
 30
0.0
 11
173.338256835938
 21
189.230621337891
 31
0.0
  0
LINE
  5
    A7
  8
0
  6
CONTINUOUS
 62
     3
 10
57.5882568359375
 20
29.4806251525879
 30
0.0
 11
172.088256835938
 21
29.4806251525879
 31
0.0
  0
LINE
  5
    A8
  8
0
  6
CONTINUOUS
 62
     3
 10
56.3382568359375
 20
30.7306251525879
 30
0.0
 11
56.3382568359375
 21
189.230621337891
 31
0.0
  0
LINE
  5
    A9
  8
0
  6
CONTINUOUS
 62
     3
 10
57.5882568359375
 20
190.480621337891
 30
0.0
 11
172.088256835938
 21
190.480621337891
 31
0.0
  0
LINE
  5
    AA
  8
0
  6
CONTINUOUS
 62
     3
 10
167.838256835938
 20
56.9806251525879
 30
0.0
 11
167.838256835938
 21
162.980625152588
 31
0.0
  0
LINE
  5
    AB
  8
0
  6
CONTINUOUS
 62
     3
 10
61.8382568359375
 20
56.9806251525879
 30
0.0
 11
167.838256835938
 21
56.9806251525879
 31
0.0
  0
LINE
  5
    AC
  8
0
  6
CONTINUOUS
 62
     3
 10
61.8382568359375
 20
56.9806251525879
 30
0.0
 11
61.8382568359375
 21
162.980625152588
 31
0.0
  0
LINE
  5
    AD
  8
0
  6
CONTINUOUS
 62
     3
 10
61.8382568359375
 20
162.980621337891
 30
0.0
 11
167.838256835938
 21
162.980621337891
 31
0.0
  0
LINE
  5
    AE
  8
0
  6
CONTINUOUS
 62
     3
 10
168.838256835938
 20
48.4806251525879
 30
0.0
 11
168.838256835938
 21
49.4806251525879
 31
0.0
  0
LINE
  5
    AF
  8
0
  6
CONTINUOUS
 62
     3
 10
61.8382568359375
 20
50.4806251525879
 30
0.0
 11
167.838256835938
 21
50.4806251525879
 31
0.0
  0
LINE
  5
    B0
  8
0
  6
CONTINUOUS
 62
     3
 10
60.8382568359375
 20
48.4806251525879
 30
0.0
 11
60.8382568359375
 21
49.4806251525879
 31
0.0
  0
LINE
  5
    B1
  8
0
  6
CONTINUOUS
 62
     3
 10
61.8382568359375
 20
49.4806251525879
 30
0.0
 11
167.838256835938
 21
49.4806251525879
 31
0.0
  0
LINE
  5
    B2
  8
0
  6
CONTINUOUS
 62
     3
 10
60.8382568359375
 20
29.4806251525879
 30
0.0
 11
60.8382568359375
 21
48.4806251525879
 31
0.0
  0
LINE
  5
    B3
  8
0
  6
CONTINUOUS
 62
     3
 10
60.8382568359375
 20
49.4806213378906
 30
0.0
 11
60.8382568359375
 21
190.480621337891
 31
0.0
  0
LINE
  5
    B4
  8
0
  6
CONTINUOUS
 62
     3
 10
61.8382568359375
 20
29.4806251525879
 30
0.0
 11
61.8382568359375
 21
49.4806251525879
 31
0.0
  0
LINE
  5
    B5
  8
0
  6
CONTINUOUS
 62
     3
 10
61.8382568359375
 20
162.980621337891
 30
0.0
 11
61.8382568359375
 21
169.480621337891
 31
0.0
  0
LINE
  5
    B6
  8
0
  6
CONTINUOUS
 62
     3
 10
61.8382568359375
 20
50.4806251525879
 30
0.0
 11
61.8382568359375
 21
56.9806251525879
 31
0.0
  0
LINE
  5
    B7
  8
0
  6
CONTINUOUS
 62
     3
 10
168.838256835938
 20
29.4806251525879
 30
0.0
 11
168.838256835938
 21
48.4806251525879
 31
0.0
  0
LINE
  5
    B8
  8
0
  6
CONTINUOUS
 62
     3
 10
168.838256835938
 20
49.4806251525879
 30
0.0
 11
168.838256835938
 21
190.480621337891
 31
0.0
  0
LINE
  5
    B9
  8
0
  6
CONTINUOUS
 62
     3
 10
167.838256835938
 20
50.4806251525879
 30
0.0
 11
167.838256835938
 21
56.9806251525879
 31
0.0
  0
LINE
  5
    BA
  8
0
  6
CONTINUOUS
 62
     3
 10
167.838256835938
 20
162.980621337891
 30
0.0
 11
167.838256835938
 21
169.480621337891
 31
0.0
  0
LINE
  5
    BB
  8
0
  6
CONTINUOUS
 62
     3
 10
167.838256835938
 20
29.4806251525879
 30
0.0
 11
167.838256835938
 21
49.4806251525879
 31
0.0
  0
LINE
  5
    BC
  8
0
  6
CONTINUOUS
 62
     3
 10
60.8382568359375
 20
170.480621337891
 30
0.0
 11
168.838256835938
 21
170.480621337891
 31
0.0
  0
LINE
  5
    BD
  8
0
  6
CONTINUOUS
 62
     3
 10
61.8382568359375
 20
169.480621337891
 30
0.0
 11
167.838256835938
 21
169.480621337891
 31
0.0
  0
ARC
  5
    BE
  8
0
  6
CONTINUOUS
 62
     3
 10
57.5882568359375
 20
30.7306251525879
 30
0.0
 40
1.25
 50
180.0
 51
270.0
  0
ARC
  5
    BF
  8
0
  6
CONTINUOUS
 62
     3
 10
172.088256835938
 20
30.7306251525879
 30
0.0
 40
1.25
 50
270.0
 51
360.0
  0
ARC
  5
    C0
  8
0
  6
CONTINUOUS
 62
     3
 10
172.088256835938
 20
189.230621337891
 30
0.0
 40
1.25
 50
0.0
 51
90.0
  0
ARC
  5
    C1
  8
0
  6
CONTINUOUS
 62
     3
 10
57.5882568359375
 20
189.230621337891
 30
0.0
 40
1.25
 50
90.0
 51
180.0
  0
LINE
  5
    C2
  8
0
  6
DOT
 62
     3
 10
60.3382577409677
 20
179.7306252571
 30
0.0
 11
60.8382568359375
 21
179.7306252571
 31
0.0
  0
LINE
  5
    C3
  8
0
  6
DOT
 62
     3
 10
60.3382577409676
 20
181.2306252571
 30
0.0
 11
60.8382568359375
 21
181.2306252571
 31
0.0
  0
LINE
  5
    C4
  8
0
  6
CONTINUOUS
 62
     3
 10
168.338257745313
 20
179.730625257273
 30
0.0
 11
168.838256835938
 21
179.730625257273
 31
0.0
  0
LINE
  5
    C5
  8
0
  6
CONTINUOUS
 62
     3
 10
168.338257745314
 20
181.230625257273
 30
0.0
 11
168.838256835938
 21
181.230625257273
 31
0.0
  0
ARC
  5
    C6
  8
0
  6
DOT
 62
     3
 10
60.3382577401871
 20
180.480625257147
 30
0.0
 40
0.749999999345164
 50
90.0
 51
270.0
  0
ARC
  5
    C7
  8
0
  6
CONTINUOUS
 62
     3
 10
61.338257740822
 20
180.480625256974
 30
0.0
 40
0.750000000009701
 50
270.0
 51
450.0
  0
LINE
  5
    C8
  8
0
  6
CONTINUOUS
 62
     3
 10
60.8382568359375
 20
181.2306252571
 30
0.0
 11
61.3382577409688
 21
181.2306252571
 31
0.0
  0
LINE
  5
    C9
  8
0
  6
CONTINUOUS
 62
     3
 10
60.8382568359375
 20
179.7306252571
 30
0.0
 11
61.3382577409689
 21
179.7306252571
 31
0.0
  0
ARC
  5
    CA
  8
0
  6
CONTINUOUS
 62
     3
 10
168.338257745503
 20
180.480625256952
 30
0.0
 40
0.750000000048506
 50
90.0000000038822
 51
269.999999996024
  0
ARC
  5
    CB
  8
0
  6
DOT
 62
     3
 10
169.338257745421
 20
180.480625256965
 30
0.0
 40
0.750000000029104
 50
270.000000002449
 51
449.999999997486
  0
LINE
  5
    CC
  8
0
  6
DOT
 62
     3
 10
168.838256835938
 20
181.230625257273
 30
0.0
 11
169.338257745315
 21
181.230625257273
 31
0.0
  0
LINE
  5
    CD
  8
0
  6
DOT
 62
     3
 10
168.838256835938
 20
179.730625257273
 30
0.0
 11
169.338257745315
 21
179.730625257273
 31
0.0
  0
ENDBLK
  5
    CE
  8
0
  6
CONTINUOUS
 62
     7
  0
BLOCK
  5
    CF
  8
0
  6
CONTINUOUS
 62
     7
  2
*UDIM360
 70
    65
 10
0.0
 20
0.0
 30
0.0
  3
*UDIM360
  0
TEXT
  5
    D0
  8
0
  6
CONTINUOUS
 62
     7
 10
-592.82292558671
 20
-54.6468086232754
 30
0.0
 40
3.00000002980232
  1
A
 50
359.999999948034
 41
0.933333333333334
 72
     1
 11
-591.722925574429
 21
-53.1468086093664
 31
0.0
 73
     2
  0
LINE
  5
    D1
  8
0
  6
CONTINUOUS
 62
     7
 10
-573.150742263443
 20
5.03214263916016
 30
0.0
 11
-573.150742263443
 21
-57.6468086242676
 31
0.0
  0
LINE
  5
    D2
  8
0
  6
CONTINUOUS
 62
     7
 10
-610.900742263444
 20
-52.7776884569365
 30
0.0
 11
-610.900742263444
 21
-57.6468086242676
 31
0.0
  0
LINE
  5
    D3
  8
0
  6
CONTINUOUS
 62
     7
 10
-573.150742263443
 20
-55.6468086242676
 30
0.0
 11
-610.900742263444
 21
-55.6468086242676
 31
0.0
  0
LINE
  5
    D4
  8
0
  6
CONTINUOUS
 62
     7
 10
-576.10516554065
 20
-56.1677530542192
 30
0.0
 11
-573.150742263443
 21
-55.6468086242676
 31
0.0
  0
LINE
  5
    D5
  8
0
  6
CONTINUOUS
 62
     7
 10
-573.150742263443
 20
-55.6468086242676
 30
0.0
 11
-576.10516554065
 21
-55.1258641943159
 31
0.0
  0
LINE
  5
    D6
  8
0
  6
CONTINUOUS
 62
     7
 10
-607.946318986237
 20
-55.1258641943159
 30
0.0
 11
-610.900742263444
 21
-55.6468086242676
 31
0.0
  0
LINE
  5
    D7
  8
0
  6
CONTINUOUS
 62
     7
 10
-610.900742263444
 20
-55.6468086242676
 30
0.0
 11
-607.946318986237
 21
-56.1677530542192
 31
0.0
  0
ENDBLK
  5
    D8
  8
0
  6
CONTINUOUS
 62
     7
  0
BLOCK
  5
    D9
  8
0
  6
CONTINUOUS
 62
     7
  2
*UDIM361
 70
    65
 10
0.0
 20
0.0
 30
0.0
  3
*UDIM361
  0
TEXT
  5
    DA
  8
0
  6
CONTINUOUS
 62
     7
 10
-565.246764424995
 20
13.2321502224926
 30
0.0
 40
3.00000002980232
  1
161
 50
89.9999999480344
 41
0.933333333333333
 72
     1
 11
-566.746764436364
 21
17.1321502625942
 31
0.0
 73
     2
  0
LINE
  5
    DB
  8
0
  6
CONTINUOUS
 62
     7
 10
-581.275742263443
 20
-22.842848777771
 30
0.0
 11
-562.246764421463
 21
-22.842848777771
 31
0.0
  0
LINE
  5
    DC
  8
0
  6
CONTINUOUS
 62
     7
 10
-581.275742263443
 20
57.6571493148804
 30
0.0
 11
-562.246764421463
 21
57.6571493148804
 31
0.0
  0
LINE
  5
    DD
  8
0
  6
CONTINUOUS
 62
     7
 10
-564.246764421463
 20
-22.842848777771
 30
0.0
 11
-564.246764421463
 21
57.6571493148804
 31
0.0
  0
LINE
  5
    DE
  8
0
  6
CONTINUOUS
 62
     7
 10
-564.767708851415
 20
-19.888425500564
 30
0.0
 11
-564.246764421463
 21
-22.842848777771
 31
0.0
  0
LINE
  5
    DF
  8
0
  6
CONTINUOUS
 62
     7
 10
-564.246764421463
 20
-22.842848777771
 30
0.0
 11
-563.725819991511
 21
-19.888425500564
 31
0.0
  0
LINE
  5
    E0
  8
0
  6
CONTINUOUS
 62
     7
 10
-563.725819991511
 20
54.7027260376734
 30
0.0
 11
-564.246764421463
 21
57.6571493148804
 31
0.0
  0
LINE
  5
    E1
  8
0
  6
CONTINUOUS
 62
     7
 10
-564.246764421463
 20
57.6571493148804
 30
0.0
 11
-564.767708851415
 21
54.7027260376734
 31
0.0
  0
ENDBLK
  5
    E2
  8
0
  6
CONTINUOUS
 62
     7
  0
BLOCK
  5
    E3
  8
0
  6
CONTINUOUS
 62
     7
  2
*UDIM362
 70
    65
 10
0.0
 20
0.0
 30
0.0
  3
*UDIM362
  0
TEXT
  5
    E4
  8
0
  6
CONTINUOUS
 62
     7
 10
-615.075741624046
 20
99.0868072544941
 30
0.0
 40
3.00000002980232
  1
117
 50
359.999999948034
 41
0.933333333333333
 72
     1
 11
-611.17574158395
 21
100.586807265878
 31
0.0
 73
     2
  0
LINE
  5
    E5
  8
0
  6
CONTINUOUS
 62
     7
 10
-581.650742263443
 20
58.0321493148804
 30
0.0
 11
-581.650742263443
 21
100.086807250977
 31
0.0
  0
LINE
  5
    E6
  8
0
  6
CONTINUOUS
 62
     7
 10
-640.150742263443
 20
58.0321493148804
 30
0.0
 11
-640.150742263443
 21
100.086807250977
 31
0.0
  0
LINE
  5
    E7
  8
0
  6
CONTINUOUS
 62
     7
 10
-581.650742263443
 20
98.0868072509766
 30
0.0
 11
-640.150742263443
 21
98.0868072509766
 31
0.0
  0
LINE
  5
    E8
  8
0
  6
CONTINUOUS
 62
     7
 10
-584.60516554065
 20
97.5658628210249
 30
0.0
 11
-581.650742263443
 21
98.0868072509766
 31
0.0
  0
LINE
  5
    E9
  8
0
  6
CONTINUOUS
 62
     7
 10
-581.650742263443
 20
98.0868072509766
 30
0.0
 11
-584.60516554065
 21
98.6077516809282
 31
0.0
  0
LINE
  5
    EA
  8
0
  6
CONTINUOUS
 62
     7
 10
-637.196318986236
 20
98.6077516809282
 30
0.0
 11
-640.150742263443
 21
98.0868072509766
 31
0.0
  0
LINE
  5
    EB
  8
0
  6
CONTINUOUS
 62
     7
 10
-640.150742263443
 20
98.0868072509766
 30
0.0
 11
-637.196318986236
 21
97.5658628210249
 31
0.0
  0
ENDBLK
  5
    EC
  8
0
  6
CONTINUOUS
 62
     7
  0
BLOCK
  5
    ED
  8
0
  6
CONTINUOUS
 62
     7
  2
*UDIM363
 70
    65
 10
0.0
 20
0.0
 30
0.0
  3
*UDIM363
  0
TEXT
  5
    EE
  8
0
  6
CONTINUOUS
 62
     7
 10
-615.075741624046
 20
89.0165481602559
 30
0.0
 40
3.00000002980232
  1
105
 50
359.999999948034
 41
0.933333333333333
 72
     1
 11
-611.17574158395
 21
90.5165481716394
 31
0.0
 73
     2
  0
LINE
  5
    EF
  8
0
  6
CONTINUOUS
 62
     7
 10
-584.650742263443
 20
44.4071502685547
 30
0.0
 11
-584.650742263443
 21
90.0165481567383
 31
0.0
  0
LINE
  5
    F0
  8
0
  6
CONTINUOUS
 62
     7
 10
-637.150742263443
 20
44.4071502685547
 30
0.0
 11
-637.150742263443
 21
90.0165481567383
 31
0.0
  0
LINE
  5
    F1
  8
0
  6
CONTINUOUS
 62
     7
 10
-584.650742263443
 20
88.0165481567383
 30
0.0
 11
-637.150742263443
 21
88.0165481567383
 31
0.0
  0
LINE
  5
    F2
  8
0
  6
CONTINUOUS
 62
     7
 10
-587.605165540651
 20
87.4956037267866
 30
0.0
 11
-584.650742263443
 21
88.0165481567383
 31
0.0
  0
LINE
  5
    F3
  8
0
  6
CONTINUOUS
 62
     7
 10
-584.650742263443
 20
88.0165481567383
 30
0.0
 11
-587.605165540651
 21
88.53749258669
 31
0.0
  0
LINE
  5
    F4
  8
0
  6
CONTINUOUS
 62
     7
 10
-634.196318986236
 20
88.53749258669
 30
0.0
 11
-637.150742263443
 21
88.0165481567383
 31
0.0
  0
LINE
  5
    F5
  8
0
  6
CONTINUOUS
 62
     7
 10
-637.150742263443
 20
88.0165481567383
 30
0.0
 11
-634.196318986236
 21
87.4956037267866
 31
0.0
  0
ENDBLK
  5
    F6
  8
0
  6
CONTINUOUS
 62
     7
  0
BLOCK
  5
    F7
  8
0
  6
CONTINUOUS
 62
     7
  2
*UDIM364
 70
    65
 10
0.0
 20
0.0
 30
0.0
  3
*UDIM364
  0
TEXT
  5
    F8
  8
0
  6
CONTINUOUS
 62
     7
 10
-676.560501102165
 20
12.9678527669434
 30
0.0
 40
3.00000002980232
  1
105
 50
89.9999999480344
 41
0.933333333333333
 72
     1
 11
-678.060501113534
 21
16.867852807045
 31
0.0
 73
     2
  0
LINE
  5
    F9
  8
0
  6
CONTINUOUS
 62
     7
 10
-637.900742263443
 20
-8.84284973144531
 30
0.0
 11
-677.560501098633
 21
-8.84284973144531
 31
0.0
  0
LINE
  5
    FA
  8
0
  6
CONTINUOUS
 62
     7
 10
-637.900742263443
 20
43.6571502685547
 30
0.0
 11
-677.560501098633
 21
43.6571502685547
 31
0.0
  0
LINE
  5
    FB
  8
0
  6
CONTINUOUS
 62
     7
 10
-675.560501098633
 20
-8.84284973144531
 30
0.0
 11
-675.560501098633
 21
43.6571502685547
 31
0.0
  0
LINE
  5
    FC
  8
0
  6
CONTINUOUS
 62
     7
 10
-676.081445528585
 20
-5.88842645423835
 30
0.0
 11
-675.560501098633
 21
-8.84284973144531
 31
0.0
  0
LINE
  5
    FD
  8
0
  6
CONTINUOUS
 62
     7
 10
-675.560501098633
 20
-8.84284973144531
 30
0.0
 11
-675.039556668681
 21
-5.88842645423835
 31
0.0
  0
LINE
  5
    FE
  8
0
  6
CONTINUOUS
 62
     7
 10
-675.039556668681
 20
40.7027269913477
 30
0.0
 11
-675.560501098633
 21
43.6571502685547
 31
0.0
  0
LINE
  5
    FF
  8
0
  6
CONTINUOUS
 62
     7
 10
-675.560501098633
 20
43.6571502685547
 30
0.0
 11
-676.081445528585
 21
40.7027269913477
 31
0.0
  0
ENDBLK
  5
   100
  8
0
  6
CONTINUOUS
 62
     7
  0
BLOCK
  5
   101
  8
0
  6
CONTINUOUS
 62
     7
  2
*UDIM365
 70
    65
 10
0.0
 20
0.0
 30
0.0
  3
*UDIM365
  0
TEXT
  5
   102
  8
0
  6
CONTINUOUS
 62
     7
 10
-361.956283883396
 20
-10.9529000370041
 30
0.0
 40
3.00000002980232
  1
7
 50
397.208926617964
 41
0.933333333333334
 72
     1
 11
-361.987289408952
 21
-9.093050923197
 31
0.0
 73
     2
  0
TEXT
  5
   103
  8
0
  6
CONTINUOUS
 62
     7
 10
-364.465056380486
 20
-12.8577781487024
 30
0.0
 40
3.00000002980232
  1
Ø
 50
397.208926617964
 41
0.933333333333334
 72
     1
 11
-364.496061906043
 21
-10.9979290348954
 31
0.0
 73
     2
  0
LINE
  5
   104
  8
0
  6
CONTINUOUS
 62
     7
 10
-345.632037210037
 20
0.186292612434194
 30
0.0
 11
-363.86033316728
 21
-13.6542138594686
 31
0.0
  0
LINE
  5
   105
  8
0
  6
CONTINUOUS
 62
     7
 10
-343.594056194053
 20
2.38779968225922
 30
0.0
 11
-345.632037210037
 21
0.186292612434194
 31
0.0
  0
LINE
  5
   106
  8
0
  6
CONTINUOUS
 62
     7
 10
-345.632037210037
 20
0.186292612434194
 30
0.0
 11
-342.964001820151
 21
1.55800218749507
 31
0.0
  0
LINE
  5
   107
  8
0
  6
CONTINUOUS
 62
     7
 10
-349.063780720009
 20
-3.07348007166352
 30
0.0
 11
-347.025799704025
 21
-0.871973001838491
 31
0.0
  0
LINE
  5
   108
  8
0
  6
CONTINUOUS
 62
     7
 10
-347.025799704025
 20
-0.871973001838491
 30
0.0
 11
-349.693835093912
 21
-2.24368257689937
 31
0.0
  0
ENDBLK
  5
   109
  8
0
  6
CONTINUOUS
 62
     7
  0
BLOCK
  5
   10A
  8
0
  6
CONTINUOUS
 62
     7
  2
*UDIM366
 70
    65
 10
0.0
 20
0.0
 30
0.0
  3
*UDIM366
  0
TEXT
  5
   10B
  8
0
  6
CONTINUOUS
 62
     7
 10
-340.503918505809
 20
56.5326213942589
 30
0.0
 40
3.00000002980232
  1
112
 50
359.999999844103
 41
0.933333333333333
 72
     1
 11
-336.603918462992
 21
58.0326213985682
 31
0.0
 73
     2
  0
LINE
  5
   10C
  8
0
  6
CONTINUOUS
 62
     7
 10
-350.328918457031
 20
32.4071598052979
 30
0.0
 11
-350.328918457031
 21
57.532621383667
 31
0.0
  0
LINE
  5
   10D
  8
0
  6
CONTINUOUS
 62
     7
 10
-322.328918457031
 20
32.4071598052979
 30
0.0
 11
-322.328918457031
 21
57.532621383667
 31
0.0
  0
LINE
  5
   10E
  8
0
  6
CONTINUOUS
 62
     7
 10
-350.328918457031
 20
55.532621383667
 30
0.0
 11
-322.328918457031
 21
55.532621383667
 31
0.0
  0
LINE
  5
   10F
  8
0
  6
CONTINUOUS
 62
     7
 10
-347.374495179824
 20
56.0535658136187
 30
0.0
 11
-350.328918457031
 21
55.532621383667
 31
0.0
  0
LINE
  5
   110
  8
0
  6
CONTINUOUS
 62
     7
 10
-350.328918457031
 20
55.532621383667
 30
0.0
 11
-347.374495179824
 21
55.0116769537153
 31
0.0
  0
LINE
  5
   111
  8
0
  6
CONTINUOUS
 62
     7
 10
-325.283341734238
 20
55.0116769537153
 30
0.0
 11
-322.328918457031
 21
55.532621383667
 31
0.0
  0
LINE
  5
   112
  8
0
  6
CONTINUOUS
 62
     7
 10
-322.328918457031
 20
55.532621383667
 30
0.0
 11
-325.283341734238
 21
56.0535658136187
 31
0.0
  0
ENDBLK
  5
   113
  8
0
  6
CONTINUOUS
 62
     7
  0
BLOCK
  5
   114
  8
0
  6
CONTINUOUS
 62
     7
  2
*UDIM367
 70
    65
 10
0.0
 20
0.0
 30
0.0
  3
*UDIM367
  0
TEXT
  5
   115
  8
0
  6
CONTINUOUS
 62
     7
 10
-339.103918491901
 20
48.3531513282009
 30
0.0
 40
3.00000002980232
  1
80
 50
359.999999844103
 41
0.933333333333333
 72
     1
 11
-336.603918462992
 21
49.8531513363123
 31
0.0
 73
     2
  0
LINE
  5
   116
  8
0
  6
CONTINUOUS
 62
     7
 10
-346.328918457031
 20
37.7821598052979
 30
0.0
 11
-346.328918457031
 21
49.3531513214111
 31
0.0
  0
LINE
  5
   117
  8
0
  6
CONTINUOUS
 62
     7
 10
-326.328918457031
 20
37.7821598052979
 30
0.0
 11
-326.328918457031
 21
49.3531513214111
 31
0.0
  0
LINE
  5
   118
  8
0
  6
CONTINUOUS
 62
     7
 10
-346.328918457031
 20
47.3531513214111
 30
0.0
 11
-326.328918457031
 21
47.3531513214111
 31
0.0
  0
LINE
  5
   119
  8
0
  6
CONTINUOUS
 62
     7
 10
-343.374495179824
 20
47.8740957513628
 30
0.0
 11
-346.328918457031
 21
47.3531513214111
 31
0.0
  0
LINE
  5
   11A
  8
0
  6
CONTINUOUS
 62
     7
 10
-346.328918457031
 20
47.3531513214111
 30
0.0
 11
-343.374495179824
 21
46.8322068914595
 31
0.0
  0
LINE
  5
   11B
  8
0
  6
CONTINUOUS
 62
     7
 10
-329.283341734238
 20
46.8322068914595
 30
0.0
 11
-326.328918457031
 21
47.3531513214111
 31
0.0
  0
LINE
  5
   11C
  8
0
  6
CONTINUOUS
 62
     7
 10
-326.328918457031
 20
47.3531513214111
 30
0.0
 11
-329.283341734238
 21
47.8740957513628
 31
0.0
  0
ENDBLK
  5
   11D
  8
0
  6
CONTINUOUS
 62
     7
  0
BLOCK
  5
   11E
  8
0
  6
CONTINUOUS
 62
     7
  2
*UDIM368
 70
    65
 10
0.0
 20
0.0
 30
0.0
  3
*UDIM368
  0
TEXT
  5
   11F
  8
0
  6
CONTINUOUS
 62
     7
 10
-377.349658976651
 20
13.2321597565224
 30
0.0
 40
3.00000002980232
  1
142
 50
449.999999844103
 41
0.933333333333333
 72
     1
 11
-378.849658980966
 21
17.1321597993374
 31
0.0
 73
     2
  0
LINE
  5
   120
  8
0
  6
CONTINUOUS
 62
     7
 10
-348.953918457031
 20
35.1571598052979
 30
0.0
 11
-378.349658966065
 21
35.1571598052979
 31
0.0
  0
LINE
  5
   121
  8
0
  6
CONTINUOUS
 62
     7
 10
-348.953918457031
 20
-0.342840194702148
 30
0.0
 11
-378.349658966065
 21
-0.342840194702148
 31
0.0
  0
LINE
  5
   122
  8
0
  6
CONTINUOUS
 62
     7
 10
-376.349658966064
 20
35.1571598052979
 30
0.0
 11
-376.349658966064
 21
-0.342840194702148
 31
0.0
  0
LINE
  5
   123
  8
0
  6
CONTINUOUS
 62
     7
 10
-375.828714536113
 20
32.2027365280909
 30
0.0
 11
-376.349658966064
 21
35.1571598052979
 31
0.0
  0
LINE
  5
   124
  8
0
  6
CONTINUOUS
 62
     7
 10
-376.349658966064
 20
35.1571598052979
 30
0.0
 11
-376.870603396016
 21
32.2027365280909
 31
0.0
  0
LINE
  5
   125
  8
0
  6
CONTINUOUS
 62
     7
 10
-376.870603396016
 20
2.61158308250481
 30
0.0
 11
-376.349658966064
 21
-0.342840194702148
 31
0.0
  0
LINE
  5
   126
  8
0
  6
CONTINUOUS
 62
     7
 10
-376.349658966064
 20
-0.342840194702148
 30
0.0
 11
-375.828714536113
 21
2.61158308250481
 31
0.0
  0
ENDBLK
  5
   127
  8
0
  6
CONTINUOUS
 62
     7
  0
BLOCK
  5
   128
  8
0
  6
CONTINUOUS
 62
     7
  2
*UDIM369
 70
    65
 10
0.0
 20
0.0
 30
0.0
  3
*UDIM369
  0
TEXT
  5
   129
  8
0
  6
CONTINUOUS
 62
     7
 10
-367.977350245572
 20
13.2321597565224
 30
0.0
 40
3.00000002980232
  1
112
 50
449.999999844103
 41
0.933333333333333
 72
     1
 11
-369.477350249887
 21
17.1321597993374
 31
0.0
 73
     2
  0
LINE
  5
   12A
  8
0
  6
CONTINUOUS
 62
     7
 10
-351.328918457031
 20
31.4071598052979
 30
0.0
 11
-368.977350234985
 21
31.4071598052979
 31
0.0
  0
LINE
  5
   12B
  8
0
  6
CONTINUOUS
 62
     7
 10
-351.328918457031
 20
3.40715980529785
 30
0.0
 11
-368.977350234985
 21
3.40715980529785
 31
0.0
  0
LINE
  5
   12C
  8
0
  6
CONTINUOUS
 62
     7
 10
-366.977350234985
 20
31.4071598052979
 30
0.0
 11
-366.977350234985
 21
3.40715980529785
 31
0.0
  0
LINE
  5
   12D
  8
0
  6
CONTINUOUS
 62
     7
 10
-366.456405805034
 20
28.4527365280909
 30
0.0
 11
-366.977350234985
 21
31.4071598052979
 31
0.0
  0
LINE
  5
   12E
  8
0
  6
CONTINUOUS
 62
     7
 10
-366.977350234985
 20
31.4071598052979
 30
0.0
 11
-367.498294664937
 21
28.4527365280909
 31
0.0
  0
LINE
  5
   12F
  8
0
  6
CONTINUOUS
 62
     7
 10
-367.498294664937
 20
6.36158308250481
 30
0.0
 11
-366.977350234985
 21
3.40715980529785
 31
0.0
  0
LINE
  5
   130
  8
0
  6
CONTINUOUS
 62
     7
 10
-366.977350234985
 20
3.40715980529785
 30
0.0
 11
-366.456405805034
 21
6.36158308250481
 31
0.0
  0
ENDBLK
  5
   131
  8
0
  6
CONTINUOUS
 62
     7
  0
ENDSEC
  0
SECTION
  2
ENTITIES
  0
LINE
  5
   132
  8
0
  6
CONTINUOUS
 62
     7
 10
-524.645645141602
 20
31.2821502685547
 30
0.0
 11
-524.645645141602
 21
31.5321350097656
 31
0.0
  0
LINE
  5
   133
  8
0
  6
CONTINUOUS
 62
     7
 10
-524.645645141602
 20
39.0321350097656
 30
0.0
 11
-524.645645141602
 21
49.0321197509766
 31
0.0
  0
LINE
  5
   134
  8
0
  6
CONTINUOUS
 62
     7
 10
-523.395629882813
 20
31.5321350097656
 30
0.0
 11
-523.395629882813
 21
39.0321350097656
 31
0.0
  0
LINE
  5
   135
  8
0
  6
CONTINUOUS
 62
     7
 10
-523.395629882813
 20
31.5321350097656
 30
0.0
 11
-524.645645141602
 21
31.5321350097656
 31
0.0
  0
LINE
  5
   136
  8
0
  6
CONTINUOUS
 62
     7
 10
-523.395629882813
 20
39.0321350097656
 30
0.0
 11
-524.645645141602
 21
39.0321350097656
 31
0.0
  0
LINE
  5
   137
  8
0
  6
CONTINUOUS
 62
     7
 10
-523.395629882813
 20
49.0321197509766
 30
0.0
 11
-523.395629882813
 21
56.5321197509766
 31
0.0
  0
LINE
  5
   138
  8
0
  6
CONTINUOUS
 62
     7
 10
-523.395629882813
 20
49.0321197509766
 30
0.0
 11
-524.645645141602
 21
49.0321197509766
 31
0.0
  0
LINE
  5
   139
  8
0
  6
CONTINUOUS
 62
     7
 10
-523.395629882813
 20
56.5321197509766
 30
0.0
 11
-524.645645141602
 21
56.5321197509766
 31
0.0
  0
LINE
  5
   13A
  8
0
  6
CONTINUOUS
 62
     7
 10
-490.395652770996
 20
31.2821350097656
 30
0.0
 11
-490.395652770996
 21
58.7821197509766
 31
0.0
  0
LINE
  5
   13B
  8
0
  6
CONTINUOUS
 62
     7
 10
-524.645641730878
 20
58.5321197509765
 30
0.0
 11
-524.64563432961
 21
68.8394317626953
 31
0.0
  0
LINE
  5
   13C
  8
0
  6
CONTINUOUS
 62
     7
 10
-488.645645141602
 20
67.5321197509766
 30
0.0
 11
-490.395645141602
 21
67.5321197509766
 31
0.0
  0
LINE
  5
   13D
  8
0
  6
CONTINUOUS
 62
     7
 10
-490.395657130678
 20
58.7821153913698
 30
0.0
 11
-490.395649501284
 21
67.5321153913698
 31
0.0
  0
LINE
  5
   13E
  8
0
  6
CONTINUOUS
 62
     7
 10
-490.395652770996
 20
26.5321426391602
 30
0.0
 11
-490.395652770996
 21
31.2821502685547
 31
0.0
  0
LINE
  5
   13F
  8
0
  6
CONTINUOUS
 62
     7
 10
-524.64564004194
 20
-3.96784464177426
 30
0.0
 11
-524.645624783152
 21
-3.82072708663281
 31
0.0
  0
LINE
  5
   140
  8
0
  6
CONTINUOUS
 62
     7
 10
-524.645625763002
 20
3.88503601831848
 30
0.0
 11
-524.645641021789
 21
31.28214600367
 31
0.0
  0
LINE
  5
   141
  8
0
  6
CONTINUOUS
 62
     7
 10
-489.145645141602
 20
2.78215026855469
 30
0.0
 11
-523.14566192627
 21
2.78215026855469
 31
0.0
  0
LINE
  5
   142
  8
0
  6
CONTINUOUS
 62
     7
 10
-489.145645141602
 20
-2.71784973144531
 30
0.0
 11
-523.14566192627
 21
-2.71784973144531
 31
0.0
  0
LINE
  5
   143
  8
0
  6
CONTINUOUS
 62
     7
 10
-520.529615643477
 20
2.78215535316605
 30
0.0
 11
-524.645628040481
 21
3.88504106623447
 31
0.0
  0
LINE
  5
   144
  8
0
  6
CONTINUOUS
 62
     7
 10
-524.645625733491
 20
-3.82073136148168
 30
0.0
 11
-520.529613241713
 21
-2.71784919708549
 31
0.0
  0
LINE
  5
   145
  8
0
  6
CONTINUOUS
 62
     7
 10
-488.645652770996
 20
4.28215026855469
 30
0.0
 11
-492.645652770996
 21
4.28215026855469
 31
0.0
  0
LINE
  5
   146
  8
0
  6
CONTINUOUS
 62
     7
 10
-492.645652770996
 20
4.28215026855469
 30
0.0
 11
-492.645652770996
 21
25.5321426391602
 31
0.0
  0
LINE
  5
   147
  8
0
  6
CONTINUOUS
 62
     7
 10
-524.145629882813
 20
0.282150268554688
 30
0.0
 11
-524.145629882813
 21
3.75106048583984
 31
0.0
  0
LINE
  5
   148
  8
0
  6
CONTINUOUS
 62
     7
 10
-524.145636925313
 20
-3.68675497805098
 30
0.0
 11
-524.145629295925
 21
-3.21784476076582
 31
0.0
  0
LINE
  5
   149
  8
0
  6
CONTINUOUS
 62
     7
 10
-524.645629882813
 20
4.28215026855469
 30
0.0
 11
-525.645629882813
 21
4.28215026855469
 31
0.0
  0
LINE
  5
   14A
  8
0
  6
CONTINUOUS
 62
     7
 10
-524.645629882813
 20
7.03215026855469
 30
0.0
 11
-525.645629882813
 21
7.03215026855469
 31
0.0
  0
LINE
  5
   14B
  8
0
  6
CONTINUOUS
 62
     7
 10
-488.645663575995
 20
-3.21783021834861
 30
0.0
 11
-489.145655930302
 21
-2.71783786404106
 31
0.0
  0
LINE
  5
   14C
  8
0
  6
CONTINUOUS
 62
     7
 10
-489.145651459864
 20
2.78215096953303
 30
0.0
 11
-488.645651476978
 21
3.28215095241872
 31
0.0
  0
LINE
  5
   14D
  8
0
  6
CONTINUOUS
 62
     7
 10
-490.395652770996
 20
25.5321426391602
 30
0.0
 11
-490.395652770996
 21
26.5321426391602
 31
0.0
  0
LINE
  5
   14E
  8
0
  6
CONTINUOUS
 62
     7
 10
-523.645629882813
 20
-12.9678344726557
 30
0.0
 11
-525.645629882813
 21
-12.9678344726557
 31
0.0
  0
LINE
  5
   14F
  8
0
  6
CONTINUOUS
 62
     7
 10
-524.645645141602
 20
-5.96784973144531
 30
0.0
 11
-524.645645141602
 21
-3.96784973144531
 31
0.0
  0
LINE
  5
   150
  8
0
  6
CONTINUOUS
 62
     7
 10
-488.645652770996
 20
-10.4678344726563
 30
0.0
 11
-493.645645141602
 21
-10.4678344726563
 31
0.0
  0
LINE
  5
   151
  8
0
  6
CONTINUOUS
 62
     7
 10
-493.645645141602
 20
-12.9678344726563
 30
0.0
 11
-493.645645141602
 21
-10.4678344726563
 31
0.0
  0
LINE
  5
   152
  8
0
  6
CONTINUOUS
 62
     7
 10
-524.645645141602
 20
-11.7178250122249
 30
0.0
 11
-524.645645141602
 21
-5.96784973144531
 31
0.0
  0
LINE
  5
   153
  8
0
  6
CONTINUOUS
 62
     2
 10
-524.645645141602
 20
58.5321197509766
 30
0.0
 11
-524.895629882813
 21
58.5321197509766
 31
0.0
  0
LINE
  5
   154
  8
0
  6
CONTINUOUS
 62
     7
 10
-524.645637512207
 20
23.2821502685547
 30
0.0
 11
-524.895629882813
 21
23.2821502685547
 31
0.0
  0
LINE
  5
   155
  8
0
  6
CONTINUOUS
 62
     7
 10
-524.645629882813
 20
7.28215217590332
 30
0.0
 11
-524.895629882813
 21
7.28215217590332
 31
0.0
  0
LINE
  5
   156
  8
0
  6
CONTINUOUS
 62
     7
 10
-524.145629882813
 20
3.53215074539185
 30
0.0
 11
-524.895629882813
 21
3.53215074539185
 31
0.0
  0
LINE
  5
   157
  8
0
  6
CONTINUOUS
 62
     7
 10
-524.645645141602
 20
-4.46784210205078
 30
0.0
 11
-524.895629882813
 21
-4.46784210205078
 31
0.0
  0
LINE
  5
   158
  8
0
  6
CONTINUOUS
 62
     7
 10
-524.895629882813
 20
-11.2678296972
 30
0.0
 11
-524.895629882813
 21
4.28214263916016
 31
0.0
  0
LINE
  5
   159
  8
0
  6
CONTINUOUS
 62
     7
 10
-524.895629882813
 20
7.03214263916016
 30
0.0
 11
-524.895629882813
 21
58.532112121582
 31
0.0
  0
LINE
  5
   15A
  8
0
  6
CONTINUOUS
 62
     7
 10
-524.145629882813
 20
49.0321426391602
 30
0.0
 11
-524.145629882813
 21
56.5321197509766
 31
0.0
  0
LINE
  5
   15B
  8
0
  6
CONTINUOUS
 62
     7
 10
-524.145629882813
 20
31.5321655273438
 30
0.0
 11
-524.145629882813
 21
39.0321578979492
 31
0.0
  0
LINE
  5
   15C
  8
0
  6
CONTINUOUS
 62
     7
 10
-524.145629882813
 20
-3.21781158447266
 30
0.0
 11
-524.145629882813
 21
0.282188415527344
 31
0.0
  0
LINE
  5
   15D
  8
0
  6
CONTINUOUS
 62
     7
 10
-524.695633787329
 20
-11.467825792684
 30
0.0
 11
-524.895630733266
 21
-11.267828846747
 31
0.0
  0
LINE
  5
   15E
  8
0
  6
CONTINUOUS
 62
     7
 10
-524.645629882813
 20
66.5321197509766
 30
0.0
 11
-525.645629882813
 21
66.5321197509766
 31
0.0
  0
LINE
  5
   15F
  8
0
  6
CONTINUOUS
 62
     7
 10
-524.645629882813
 20
72.0321197509766
 30
0.0
 11
-525.645629882813
 21
72.0321197509766
 31
0.0
  0
LINE
  5
   160
  8
0
  6
CONTINUOUS
 62
     7
 10
-524.645629882813
 20
70.6879425048828
 30
0.0
 11
-525.645629882813
 21
70.6879425048828
 31
0.0
  0
LINE
  5
   161
  8
0
  6
CONTINUOUS
 62
     7
 10
-524.645629882813
 20
68.8394317626953
 30
0.0
 11
-525.645629882813
 21
68.8394317626953
 31
0.0
  0
LINE
  5
   162
  8
0
  6
CONTINUOUS
 62
     7
 10
-490.145660400391
 20
32.7821176623344
 30
0.0
 11
-490.145660400391
 21
60.032140550518
 31
0.0
  0
LINE
  5
   163
  8
0
  6
CONTINUOUS
 62
     7
 10
-476.14568328858
 20
68.0321342977013
 30
0.0
 11
-476.14568328858
 21
80.0321342977013
 31
0.0
  0
LINE
  5
   164
  8
0
  6
CONTINUOUS
 62
     7
 10
-476.145645141602
 20
68.0321368408027
 30
0.0
 11
-476.395645141602
 21
68.0321368408027
 31
0.0
  0
LINE
  5
   165
  8
0
  6
CONTINUOUS
 62
     7
 10
-476.395645141602
 20
67.7821368408027
 30
0.0
 11
-476.395645141602
 21
68.0321368408027
 31
0.0
  0
LINE
  5
   166
  8
0
  6
CONTINUOUS
 62
     7
 10
-488.645645141602
 20
67.2821292114081
 30
0.0
 11
-488.645645141602
 21
67.7821368408027
 31
0.0
  0
LINE
  5
   167
  8
0
  6
CONTINUOUS
 62
     7
 10
-488.64565195791
 20
78.6321271449813
 30
0.0
 11
-488.645644328516
 21
80.0321439290776
 31
0.0
  0
LINE
  5
   168
  8
0
  6
CONTINUOUS
 62
     7
 10
-476.14564132691
 20
80.0321520995836
 30
0.0
 11
-488.64564132691
 21
80.0321520995836
 31
0.0
  0
LINE
  5
   169
  8
0
  6
CONTINUOUS
 62
     7
 10
-477.395645141602
 20
67.7821368408027
 30
0.0
 11
-477.545646667481
 21
67.7821368408027
 31
0.0
  0
LINE
  5
   16A
  8
0
  6
CONTINUOUS
 62
     7
 10
-488.645645141602
 20
67.2821444701972
 30
0.0
 11
-490.145645141602
 21
67.2821444701972
 31
0.0
  0
LINE
  5
   16B
  8
0
  6
CONTINUOUS
 62
     7
 10
-490.145645141602
 20
60.0321444701972
 30
0.0
 11
-490.145645141602
 21
67.2821444701972
 31
0.0
  0
LINE
  5
   16C
  8
0
  6
CONTINUOUS
 62
     7
 10
-488.645668029785
 20
-9.96784790040828
 30
0.0
 11
-488.645668029785
 21
-6.32954223634578
 31
0.0
  0
LINE
  5
   16D
  8
0
  6
CONTINUOUS
 62
     7
 10
-490.145652770996
 20
26.7821368408027
 30
0.0
 11
-490.145652770996
 21
32.7821215820136
 31
0.0
  0
LINE
  5
   16E
  8
0
  6
CONTINUOUS
 62
     7
 10
-490.145652770996
 20
25.5321215820136
 30
0.0
 11
-490.645652770996
 21
25.5321215820136
 31
0.0
  0
LINE
  5
   16F
  8
0
  6
CONTINUOUS
 62
     7
 10
-477.545662304288
 20
-11.4678326416086
 30
0.0
 11
-488.645668407804
 21
-11.4678326416086
 31
0.0
  0
LINE
  5
   170
  8
0
  6
CONTINUOUS
 62
     7
 10
-488.645668029785
 20
-11.4678479004083
 30
0.0
 11
-488.645668029785
 21
-9.96784790040828
 31
0.0
  0
LINE
  5
   171
  8
0
  6
CONTINUOUS
 62
     7
 10
-488.645660400391
 20
-6.32954223634578
 30
0.0
 11
-488.645660400391
 21
-2.84284329526653
 31
0.0
  0
LINE
  5
   172
  8
0
  6
CONTINUOUS
 62
     7
 10
-477.395668029785
 20
-12.9678555298028
 30
0.0
 11
-477.395668029785
 21
-11.4678555298028
 31
0.0
  0
LINE
  5
   173
  8
0
  6
CONTINUOUS
 62
     7
 10
-477.395668029785
 20
-11.4678555298028
 30
0.0
 11
-477.545661896467
 21
-11.4678555298028
 31
0.0
  0
LINE
  5
   174
  8
0
  6
CONTINUOUS
 62
     7
 10
-490.645652770996
 20
25.5321215820136
 30
0.0
 11
-492.645652770996
 21
25.5321215820136
 31
0.0
  0
LINE
  5
   175
  8
0
  6
CONTINUOUS
 62
     7
 10
-490.145652770996
 20
25.5321215820136
 30
0.0
 11
-490.145652770996
 21
26.7821368408027
 31
0.0
  0
LINE
  5
   176
  8
0
  6
CONTINUOUS
 62
     7
 10
-477.545664005447
 20
-2.84283264161062
 30
0.0
 11
-488.645662479568
 21
-2.84283264161062
 31
0.0
  0
LINE
  5
   177
  8
0
  6
CONTINUOUS
 62
     7
 10
-477.545667682677
 20
2.90716735838802
 30
0.0
 11
-488.645666156798
 21
2.90716735838802
 31
0.0
  0
LINE
  5
   178
  8
0
  6
CONTINUOUS
 62
     7
 10
-487.996147676729
 20
-9.59283934207869
 30
0.0
 11
-487.895668566495
 21
-9.21783934725585
 31
0.0
  0
LINE
  5
   179
  8
0
  6
CONTINUOUS
 62
     7
 10
-488.270663358845
 20
-9.8673638748083
 30
0.0
 11
-487.996150132344
 21
-9.59284301208917
 31
0.0
  0
LINE
  5
   17A
  8
0
  6
CONTINUOUS
 62
     7
 10
-488.645676672483
 20
-9.9678361825683
 30
0.0
 11
-488.27066905821
 21
-9.86735706468692
 31
0.0
  0
LINE
  5
   17B
  8
0
  6
CONTINUOUS
 62
     7
 10
-488.270664880327
 20
-4.06832593816129
 30
0.0
 11
-488.645664877577
 21
-3.96783919163403
 31
0.0
  0
LINE
  5
   17C
  8
0
  6
CONTINUOUS
 62
     7
 10
-487.996152289985
 20
-4.34284336687028
 30
0.0
 11
-488.270665520305
 21
-4.06833013655029
 31
0.0
  0
LINE
  5
   17D
  8
0
  6
CONTINUOUS
 62
     7
 10
-487.895673756417
 20
-4.71784267170417
 30
0.0
 11
-487.996160502944
 21
-4.34284267445382
 31
0.0
  0
LINE
  5
   17E
  8
0
  6
CONTINUOUS
 62
     7
 10
-487.89567226832
 20
-9.21784493104301
 30
0.0
 11
-487.895664638926
 21
-4.71784493104301
 31
0.0
  0
LINE
  5
   17F
  8
0
  6
CONTINUOUS
 62
     7
 10
-477.54566192627
 20
-11.4678555298028
 30
0.0
 11
-477.54566192627
 21
67.78213058441
 31
0.0
  0
LINE
  5
   180
  8
0
  6
CONTINUOUS
 62
     7
 10
-477.545639038086
 20
78.6321429443183
 30
0.0
 11
-524.645627297857
 21
78.6321429443183
 31
0.0
  0
LINE
  5
   181
  8
0
  6
CONTINUOUS
 62
     7
 10
-477.545692443854
 20
67.7821333953196
 30
0.0
 11
-477.545692443854
 21
78.6321394988352
 31
0.0
  0
LINE
  5
   182
  8
0
  6
CONTINUOUS
 62
     7
 10
-488.645645141602
 20
67.7821444701972
 30
0.0
 11
-488.645645141602
 21
78.6321429443183
 31
0.0
  0
LINE
  5
   183
  8
0
  6
CONTINUOUS
 62
     7
 10
-477.395637512207
 20
-16.9678250122247
 30
0.0
 11
-477.395637512207
 21
-11.4678555298028
 31
0.0
  0
LINE
  5
   184
  8
0
  6
CONTINUOUS
 62
     7
 10
-474.895637512207
 20
-16.9678250122247
 30
0.0
 11
-474.895637512207
 21
-8.84282501222468
 31
0.0
  0
LINE
  5
   185
  8
0
  6
CONTINUOUS
 62
     7
 10
-474.895637512207
 20
43.6571597289862
 30
0.0
 11
-474.895637512207
 21
67.7821597289863
 31
0.0
  0
LINE
  5
   186
  8
0
  6
CONTINUOUS
 62
     7
 10
-474.895637512207
 20
67.7821597289863
 30
0.0
 11
-477.395637512207
 21
67.7821597289863
 31
0.0
  0
LINE
  5
   187
  8
0
  6
CONTINUOUS
 62
     7
 10
-474.895637512207
 20
-16.9678250122247
 30
0.0
 11
-477.395637512207
 21
-16.9678250122247
 31
0.0
  0
LINE
  5
   188
  8
0
  6
CONTINUOUS
 62
     7
 10
-473.895637512207
 20
-8.84282501222468
 30
0.0
 11
-473.895637512207
 21
43.6571597289862
 31
0.0
  0
LINE
  5
   189
  8
0
  6
CONTINUOUS
 62
     7
 10
-473.895637512207
 20
-8.84282501222468
 30
0.0
 11
-474.895637512207
 21
-8.84282501222468
 31
0.0
  0
LINE
  5
   18A
  8
0
  6
CONTINUOUS
 62
     7
 10
-473.895637512207
 20
43.6571597289862
 30
0.0
 11
-474.895637512207
 21
43.6571597289862
 31
0.0
  0
LINE
  5
   18B
  8
0
  6
CONTINUOUS
 62
     7
 10
-477.545673506385
 20
3.18213679240584
 30
0.0
 11
-477.395671987461
 21
3.19525934939323
 31
0.0
  0
LINE
  5
   18C
  8
0
  6
CONTINUOUS
 62
     7
 10
-477.395646201425
 20
-3.13097592314956
 30
0.0
 11
-477.545647724544
 21
-3.11784573674319
 31
0.0
  0
LINE
  5
   18D
  8
0
  6
CONTINUOUS
 62
     7
 10
-488.645660400391
 20
2.90715670473482
 30
0.0
 11
-488.645660400391
 21
4.28213684080266
 31
0.0
  0
LINE
  5
   18E
  8
0
  6
CONTINUOUS
 62
     7
 10
-477.545639514923
 20
-45.5678253936946
 30
0.0
 11
-524.64563035965
 21
-45.5678253936946
 31
0.0
  0
LINE
  5
   18F
  8
0
  6
CONTINUOUS
 62
     7
 10
-523.645629882813
 20
-11.7178250122249
 30
0.0
 11
-525.645629882813
 21
-11.7178250122249
 31
0.0
  0
LINE
  5
   190
  8
0
  6
CONTINUOUS
 62
     7
 10
-477.545631408691
 20
-11.7178250122249
 30
0.0
 11
-486.145637512207
 21
-11.7178250122249
 31
0.0
  0
LINE
  5
   191
  8
0
  6
CONTINUOUS
 62
     7
 10
-476.145629882812
 20
-46.9678250122249
 30
0.0
 11
-476.145629882812
 21
-34.9678326416195
 31
0.0
  0
LINE
  5
   192
  8
0
  6
CONTINUOUS
 62
     7
 10
-523.645629882813
 20
-12.9678250122249
 30
0.0
 11
-523.645629882813
 21
-11.7178250122249
 31
0.0
  0
LINE
  5
   193
  8
0
  6
CONTINUOUS
 62
     7
 10
-477.545635509708
 20
-32.9678326420672
 30
0.0
 11
-477.395637512244
 21
-32.9678308814654
 31
0.0
  0
LINE
  5
   194
  8
0
  6
CONTINUOUS
 62
     7
 10
-476.145629882812
 20
-34.9678326416195
 30
0.0
 11
-477.545631408691
 21
-34.9678326416195
 31
0.0
  0
LINE
  5
   195
  8
0
  6
CONTINUOUS
 62
     7
 10
-477.545631408691
 20
-45.567823486346
 30
0.0
 11
-477.545631408691
 21
-32.9678250122249
 31
0.0
  0
LINE
  5
   196
  8
0
  6
CONTINUOUS
 62
     7
 10
-477.545631408691
 20
-32.9678250122249
 30
0.0
 11
-477.545631408691
 21
-11.7178250122249
 31
0.0
  0
LINE
  5
   197
  8
0
  6
CONTINUOUS
 62
     7
 10
-477.395637512207
 20
-17.4678250122249
 30
0.0
 11
-477.545631408691
 21
-17.4678250122249
 31
0.0
  0
LINE
  5
   198
  8
0
  6
CONTINUOUS
 62
     7
 10
-525.645629882649
 20
-29.9678326411247
 30
0.0
 11
-524.645630359509
 21
-29.9678250117302
 31
0.0
  0
LINE
  5
   199
  8
0
  6
CONTINUOUS
 62
     7
 10
-524.64563035965
 20
-46.9678250122247
 30
0.0
 11
-524.64563035965
 21
-29.9678326416192
 31
0.0
  0
LINE
  5
   19A
  8
0
  6
CONTINUOUS
 62
     7
 10
-524.645629882813
 20
-35.3428326416195
 30
0.0
 11
-525.645629882813
 21
-35.3428326416195
 31
0.0
  0
LINE
  5
   19B
  8
0
  6
CONTINUOUS
 62
     7
 10
-488.645643233176
 20
-11.7178250099696
 30
0.0
 11
-488.645635603782
 21
-10.7178250099468
 31
0.0
  0
LINE
  5
   19C
  8
0
  6
CONTINUOUS
 62
     7
 10
-488.645629882813
 20
-10.7178250122249
 30
0.0
 11
-493.645629882813
 21
-10.7178250122249
 31
0.0
  0
LINE
  5
   19D
  8
0
  6
CONTINUOUS
 62
     7
 10
-486.145637512207
 20
-11.7178250122249
 30
0.0
 11
-488.645637512207
 21
-11.7178250122249
 31
0.0
  0
LINE
  5
   19E
  8
0
  6
CONTINUOUS
 62
     7
 10
-524.645629882813
 20
-39.7016282844722
 30
0.0
 11
-525.645629882813
 21
-39.7016282844722
 31
0.0
  0
LINE
  5
   19F
  8
0
  6
CONTINUOUS
 62
     7
 10
-524.645629882813
 20
-38.4751339721859
 30
0.0
 11
-525.645629882813
 21
-38.4751339721859
 31
0.0
  0
LINE
  5
   1A0
  8
0
  6
CONTINUOUS
 62
     7
 10
-524.645629882813
 20
-35.4067211914241
 30
0.0
 11
-525.645629882813
 21
-35.4067211914241
 31
0.0
  0
LINE
  5
   1A1
  8
0
  6
CONTINUOUS
 62
     7
 10
-474.895637512207
 20
-17.2178250122247
 30
0.0
 11
-477.395637512207
 21
-17.2178250122247
 31
0.0
  0
LINE
  5
   1A2
  8
0
  6
CONTINUOUS
 62
     7
 10
-474.895637512207
 20
-34.7178250122247
 30
0.0
 11
-477.395637512207
 21
-34.7178250122247
 31
0.0
  0
LINE
  5
   1A3
  8
0
  6
CONTINUOUS
 62
     7
 10
-474.895637512207
 20
-34.7178250122247
 30
0.0
 11
-474.895637512207
 21
-17.2178250122247
 31
0.0
  0
LINE
  5
   1A4
  8
0
  6
CONTINUOUS
 62
     7
 10
-475.895637512207
 20
-34.7178250122247
 30
0.0
 11
-475.895637512207
 21
-17.2178250122247
 31
0.0
  0
LINE
  5
   1A5
  8
0
  6
CONTINUOUS
 62
     7
 10
-477.395637512207
 20
-34.7178250122247
 30
0.0
 11
-477.395637512207
 21
-17.2178250122247
 31
0.0
  0
LINE
  5
   1A6
  8
0
  6
CONTINUOUS
 62
     7
 10
-523.14566192627
 20
-2.71784973144531
 30
0.0
 11
-523.14566192627
 21
2.78215026855469
 31
0.0
  0
LINE
  5
   1A7
  8
0
  6
CONTINUOUS
 62
     7
 10
-524.645633002269
 20
70.6879425048828
 30
0.0
 11
-524.645626292574
 21
80.0321426391602
 31
0.0
  0
LINE
  5
   1A8
  8
0
  6
CONTINUOUS
 62
     7
 10
-488.645660400391
 20
80.0321426391602
 30
0.0
 11
-524.645629882813
 21
80.0321426391602
 31
0.0
  0
LINE
  5
   1A9
  8
0
  6
DASHDOT
 62
     7
 10
-525.645629882813
 20
-56.5591832115724
 30
0.0
 11
-525.645629882813
 21
88.588247790617
 31
0.0
  0
LINE
  5
   1AA
  8
0
  6
DASHDOT
 62
     7
 10
-527.145629882813
 20
-56.5591832115724
 30
0.0
 11
-527.145629882813
 21
88.588247790617
 31
0.0
  0
LINE
  5
   1AB
  8
0
  6
CONTINUOUS
 62
     7
 10
-524.080769257246
 20
88.588247790617
 30
0.0
 11
-529.149665129274
 21
88.588247790617
 31
0.0
  0
LINE
  5
   1AC
  8
0
  6
CONTINUOUS
 62
     7
 10
-522.27044930295
 20
-56.5591832115724
 30
0.0
 11
-531.563425068334
 21
-56.5591832115724
 31
0.0
  0
LINE
  5
   1AD
  8
0
  6
CONTINUOUS
 62
     7
 10
-476.14563035965
 20
-46.9678250122247
 30
0.0
 11
-524.64563035965
 21
-46.9678250122247
 31
0.0
  0
LINE
  5
   1AE
  8
0
  6
CONTINUOUS
 62
     7
 10
-493.645645141602
 20
-12.9678344726557
 30
0.0
 11
-523.645629882813
 21
-12.9678344726557
 31
0.0
  0
LINE
  5
   1AF
  8
0
  6
CONTINUOUS
 62
     1
 10
-415.645637512207
 20
-10.0961435417594
 30
0.0
 11
-415.645637512207
 21
-9.09614354175937
 31
0.0
  0
LINE
  5
   1B0
  8
0
  6
CONTINUOUS
 62
     1
 10
-414.645637512207
 20
-10.0961435417594
 30
0.0
 11
-415.645637512207
 21
-10.0961435417594
 31
0.0
  0
LINE
  5
   1B1
  8
0
  6
CONTINUOUS
 62
     1
 10
-415.645637512207
 20
-9.09614354175937
 30
0.0
 11
-415.645637512207
 21
-8.84284027101376
 31
0.0
  0
LINE
  5
   1B2
  8
0
  6
CONTINUOUS
 62
     1
 10
-414.645637512207
 20
44.903854550892
 30
0.0
 11
-415.645637512207
 21
44.903854550892
 31
0.0
  0
LINE
  5
   1B3
  8
0
  6
CONTINUOUS
 62
     1
 10
-417.8956374228
 20
51.6925279517709
 30
0.0
 11
-417.8956374228
 21
54.1151811500131
 31
0.0
  0
LINE
  5
   1B4
  8
0
  6
CONTINUOUS
 62
     1
 10
-417.8956374228
 20
-19.3074682335318
 30
0.0
 11
-417.8956374228
 21
-16.8848188499869
 31
0.0
  0
LINE
  5
   1B5
  8
0
  6
CONTINUOUS
 62
     1
 10
-414.645637512207
 20
-23.3461435417594
 30
0.0
 11
-414.645637512207
 21
-8.84284027101376
 31
0.0
  0
LINE
  5
   1B6
  8
0
  6
CONTINUOUS
 62
     1
 10
-412.895637512207
 20
-23.3461435417594
 30
0.0
 11
-414.645637512207
 21
-23.3461435417594
 31
0.0
  0
LINE
  5
   1B7
  8
0
  6
CONTINUOUS
 62
     1
 10
-412.895637512207
 20
-23.346145449108
 30
0.0
 11
-412.895637512207
 21
58.153854550892
 31
0.0
  0
LINE
  5
   1B8
  8
0
  6
CONTINUOUS
 62
     1
 10
-412.895637512207
 20
58.153854550892
 30
0.0
 11
-413.395637512207
 21
58.153854550892
 31
0.0
  0
LINE
  5
   1B9
  8
0
  6
CONTINUOUS
 62
     1
 10
-413.895637512207
 20
58.153854550892
 30
0.0
 11
-414.645637512207
 21
58.153854550892
 31
0.0
  0
LINE
  5
   1BA
  8
0
  6
CONTINUOUS
 62
     1
 10
-414.645637512207
 20
51.403854550892
 30
0.0
 11
-417.39563742965
 21
51.403854550892
 31
0.0
  0
LINE
  5
   1BB
  8
0
  6
CONTINUOUS
 62
     1
 10
-414.645637512207
 20
54.403854550892
 30
0.0
 11
-417.39563742965
 21
54.403854550892
 31
0.0
  0
LINE
  5
   1BC
  8
0
  6
CONTINUOUS
 62
     1
 10
-417.39563742965
 20
51.403854550892
 30
0.0
 11
-417.39563742965
 21
51.5180360694467
 31
0.0
  0
LINE
  5
   1BD
  8
0
  6
CONTINUOUS
 62
     1
 10
-417.395637031789
 20
51.4038534023613
 30
0.0
 11
-417.895637048252
 21
51.6925268068595
 31
0.0
  0
LINE
  5
   1BE
  8
0
  6
CONTINUOUS
 62
     1
 10
-417.39563742965
 20
51.403854550892
 30
0.0
 11
-417.39563742965
 21
51.843193234974
 31
0.0
  0
LINE
  5
   1BF
  8
0
  6
CONTINUOUS
 62
     1
 10
-417.39563742965
 20
51.843193234974
 30
0.0
 11
-417.39563742965
 21
52.3298341651498
 31
0.0
  0
LINE
  5
   1C0
  8
0
  6
CONTINUOUS
 62
     1
 10
-417.39563742965
 20
52.3298341651498
 30
0.0
 11
-417.39563742965
 21
52.903854550892
 31
0.0
  0
LINE
  5
   1C1
  8
0
  6
CONTINUOUS
 62
     1
 10
-417.39563742965
 20
52.903854550892
 30
0.0
 11
-417.39563742965
 21
53.4778825660287
 31
0.0
  0
LINE
  5
   1C2
  8
0
  6
CONTINUOUS
 62
     1
 10
-417.39563742965
 20
53.4778825660287
 30
0.0
 11
-417.39563742965
 21
53.96451586681
 31
0.0
  0
LINE
  5
   1C3
  8
0
  6
CONTINUOUS
 62
     1
 10
-417.39563742965
 20
53.96451586681
 30
0.0
 11
-417.39563742965
 21
54.403854550892
 31
0.0
  0
LINE
  5
   1C4
  8
0
  6
CONTINUOUS
 62
     1
 10
-417.39563742965
 20
54.2896730323373
 30
0.0
 11
-417.39563742965
 21
54.403854550892
 31
0.0
  0
LINE
  5
   1C5
  8
0
  6
CONTINUOUS
 62
     1
 10
-417.895637857389
 20
54.1151799591441
 30
0.0
 11
-417.395637840926
 21
54.4038533636423
 31
0.0
  0
LINE
  5
   1C6
  8
0
  6
CONTINUOUS
 62
     1
 10
-414.645637512207
 20
-16.5961435417594
 30
0.0
 11
-417.395636427095
 21
-16.5961435417594
 31
0.0
  0
LINE
  5
   1C7
  8
0
  6
CONTINUOUS
 62
     1
 10
-414.645637512207
 20
-19.5961435417594
 30
0.0
 11
-417.395638268875
 21
-19.5961435417594
 31
0.0
  0
LINE
  5
   1C8
  8
0
  6
CONTINUOUS
 62
     1
 10
-417.895637683875
 20
-16.8848195501128
 30
0.0
 11
-417.39563766741
 21
-16.5961442578562
 31
0.0
  0
LINE
  5
   1C9
  8
0
  6
CONTINUOUS
 62
     1
 10
-417.395637412992
 20
-19.5961440359037
 30
0.0
 11
-417.395637412992
 21
-16.5961435417594
 31
0.0
  0
LINE
  5
   1CA
  8
0
  6
CONTINUOUS
 62
     1
 10
-417.39563720583
 20
-19.5961441555089
 30
0.0
 11
-417.895637222295
 21
-19.3074688632523
 31
0.0
  0
LINE
  5
   1CB
  8
0
  6
CONTINUOUS
 62
     1
 10
-413.395637512207
 20
58.153854550892
 30
0.0
 11
-413.895637512207
 21
58.153854550892
 31
0.0
  0
LINE
  5
   1CC
  8
0
  6
CONTINUOUS
 62
     7
 10
-415.645637512207
 20
43.6571597289862
 30
0.0
 11
-415.645637512207
 21
51.403854550892
 31
0.0
  0
LINE
  5
   1CD
  8
0
  6
CONTINUOUS
 62
     7
 10
-414.645637512207
 20
43.6571597289862
 30
0.0
 11
-414.645637512207
 21
92.4693739892242
 31
0.0
  0
LINE
  5
   1CE
  8
0
  6
CONTINUOUS
 62
     7
 10
-415.645637512207
 20
-60.095077553931
 30
0.0
 11
-415.645637512207
 21
-19.5961435417594
 31
0.0
  0
LINE
  5
   1CF
  8
0
  6
CONTINUOUS
 62
     7
 10
-414.645637512207
 20
-59.6591801180335
 30
0.0
 11
-414.645637512207
 21
-23.3461435417594
 31
0.0
  0
LINE
  5
   1D0
  8
0
  6
CONTINUOUS
 62
     7
 10
-418.220252071468
 20
-61.2173454387371
 30
0.0
 11
-411.593484049376
 21
-58.3287542496201
 31
0.0
  0
LINE
  5
   1D1
  8
0
  6
CONTINUOUS
 62
     7
 10
-417.790545818472
 20
90.4497081044669
 30
0.0
 11
-412.060756153498
 21
94.1293895406888
 31
0.0
  0
LINE
  5
   1D2
  8
0
  6
CONTINUOUS
 62
     7
 10
-414.645637512207
 20
45.403854550892
 30
0.0
 11
-415.645637512207
 21
45.403854550892
 31
0.0
  0
LINE
  5
   1D3
  8
0
  6
CONTINUOUS
 62
     7
 10
-414.645637512207
 20
-10.5961435417594
 30
0.0
 11
-415.645637512207
 21
-10.5961435417594
 31
0.0
  0
LINE
  5
   1D4
  8
0
  6
CONTINUOUS
 62
     7
 10
-414.645637512207
 20
-16.3461435417594
 30
0.0
 11
-415.645637512207
 21
-16.3461435417594
 31
0.0
  0
LINE
  5
   1D5
  8
0
  6
CONTINUOUS
 62
     7
 10
-414.645637512207
 20
-19.8461435417594
 30
0.0
 11
-415.645637512207
 21
-19.8461435417594
 31
0.0
  0
LINE
  5
   1D6
  8
0
  6
CONTINUOUS
 62
     7
 10
-414.645637512207
 20
54.653854550892
 30
0.0
 11
-415.645637512207
 21
54.653854550892
 31
0.0
  0
LINE
  5
   1D7
  8
0
  6
CONTINUOUS
 62
     7
 10
-414.645637512207
 20
51.153854550892
 30
0.0
 11
-415.645637512207
 21
51.153854550892
 31
0.0
  0
LINE
  5
   1D8
  8
0
  6
CONTINUOUS
 62
     7
 10
-415.645637512207
 20
54.403854550892
 30
0.0
 11
-415.645637512207
 21
91.8271721543619
 31
0.0
  0
LINE
  5
   1D9
  8
0
  6
CONTINUOUS
 62
     7
 10
-415.645637512207
 20
-16.5961435417594
 30
0.0
 11
-415.645637512207
 21
-10.0961435417594
 31
0.0
  0
INSERT
  5
   1DA
  8
0
  6
CONTINUOUS
 62
     7
  2
*HATCH63
 10
-525.645629882813
 20
-37.5863952636719
 30
0.0
 41
0.5
 42
0.5
 50
89.9999999480344
 43
0.5
  0
INSERT
  5
   1DB
  8
0
  6
CONTINUOUS
 62
     7
  2
*HATCH64
 10
-525.645629882813
 20
-37.5863952636719
 30
0.0
 41
0.5
 42
0.5
 50
89.9999999480344
 43
0.5
  0
INSERT
  5
   1DC
  8
0
  6
CONTINUOUS
 62
     7
  2
*HATCH65
 10
-525.645629882813
 20
-37.5863952636719
 30
0.0
 41
0.5
 42
0.5
 50
89.9999999480344
 43
0.5
  0
INSERT
  5
   1DD
  8
0
  6
CONTINUOUS
 62
     7
  2
*HATCH66
 10
-525.645629882813
 20
-37.5863952636719
 30
0.0
 41
0.5
 42
0.5
 50
89.9999999480344
 43
0.5
  0
LINE
  5
   1DE
  8
0
  6
DASHDOT
 62
     3
 10
-430.340549853674
 20
17.4071597289862
 30
0.0
 11
-435.228613455055
 21
17.4071597289862
 31
0.0
  0
LINE
  5
   1DF
  8
0
  6
DASHDOT
 62
     3
 10
-404.049361224921
 20
17.4071597289862
 30
0.0
 11
-552.272243468362
 21
17.4071597289862
 31
0.0
  0
LINE
  5
   1E0
  8
0
  6
DASHDOT
 62
     3
 10
-566.775030962807
 20
17.4071597289862
 30
0.0
 11
-574.825959247434
 21
17.4071597289862
 31
0.0
  0
LINE
  5
   1E1
  8
0
  6
CONTINUOUS
 62
     7
 10
-412.895637512207
 20
43.6571597289862
 30
0.0
 11
-473.895637512207
 21
43.6571597289862
 31
0.0
  0
LINE
  5
   1E2
  8
0
  6
CONTINUOUS
 62
     7
 10
-412.895637512207
 20
-8.84284027101376
 30
0.0
 11
-473.895637512207
 21
-8.84284027101376
 31
0.0
  0
LINE
  5
   1E3
  8
0
  6
CONTINUOUS
 62
     7
 10
-412.895637512207
 20
-8.84282501222468
 30
0.0
 11
-412.895637512207
 21
43.6571597289862
 31
0.0
  0
LINE
  5
   1E4
  8
0
  6
CONTINUOUS
 62
     7
 10
-411.895637512207
 20
37.1460336645023
 30
0.0
 11
-412.895637512207
 21
37.1460336645023
 31
0.0
  0
LINE
  5
   1E5
  8
0
  6
CONTINUOUS
 62
     7
 10
-411.895637512207
 20
14.6682668720719
 30
0.0
 11
-412.895637512207
 21
14.6682668720719
 31
0.0
  0
LINE
  5
   1E6
  8
0
  6
CONTINUOUS
 62
     7
 10
-411.895637512207
 20
14.6682668720719
 30
0.0
 11
-411.895637512207
 21
37.1460336645023
 31
0.0
  0
INSERT
  5
   1E7
  8
0
  6
CONTINUOUS
 62
     7
  2
*UDIM357
 10
0.0
 20
0.0
 30
0.0
  0
INSERT
  5
   1E8
  8
0
  6
CONTINUOUS
 62
     7
  2
*UDIM358
 10
0.0
 20
0.0
 30
0.0
  0
INSERT
  5
   1E9
  8
0
  6
CONTINUOUS
 62
     7
  2
*UDIM359
 10
0.0
 20
0.0
 30
0.0
  0
TEXT
  5
   1EA
  8
0
  6
CONTINUOUS
 62
     7
 10
-400.298896701496
 20
16.1794896430747
 30
0.0
 40
3.00000002980232
  1
X
 50
359.999999948034
 41
0.916666604744064
 72
     1
 11
-399.198896765708
 21
17.6794896569837
 31
0.0
 73
     2
  0
LINE
  5
   1EB
  8
0
  6
CONTINUOUS
 62
     1
 10
-622.713242067817
 20
80.0321426391602
 30
0.0
 11
-644.150718688965
 21
80.0321426391602
 31
0.0
  0
LINE
  5
   1EC
  8
0
  6
CONTINUOUS
 62
     1
 10
-577.650726318359
 20
80.0321426391602
 30
0.0
 11
-599.088242067817
 21
80.0321426391602
 31
0.0
  0
LINE
  5
   1ED
  8
0
  6
CONTINUOUS
 62
     1
 10
-575.900726318359
 20
68.0321502685547
 30
0.0
 11
-575.900726318359
 21
78.6321426391602
 31
0.0
  0
LINE
  5
   1EE
  8
0
  6
CONTINUOUS
 62
     1
 10
-645.900718691069
 20
68.0321502685547
 30
0.0
 11
-645.900718691069
 21
78.6321426391601
 31
0.0
  0
CIRCLE
  5
   1EF
  8
0
  6
CONTINUOUS
 62
     7
 10
-632.775714152356
 20
71.0321696971898
 30
0.0
 40
2.75000604975671
  0
CIRCLE
  5
   1F0
  8
0
  6
CONTINUOUS
 62
     7
 10
-610.900715048424
 20
71.0322052969959
 30
0.0
 40
2.74996219889917
  0
CIRCLE
  5
   1F1
  8
0
  6
CONTINUOUS
 62
     7
 10
-589.025748622765
 20
71.032099881077
 30
0.0
 40
2.75005361163582
  0
ARC
  5
   1F2
  8
0
  6
CONTINUOUS
 62
     1
 10
-644.1507319918
 20
79.5321340896633
 30
0.0
 40
0.499990919521533
 50
449.999429635018
 51
540.000998310938
  0
ARC
  5
   1F3
  8
0
  6
CONTINUOUS
 62
     1
 10
-577.650742094541
 20
79.5321269201795
 30
0.0
 40
0.500011945625467
 50
360.000541447801
 51
449.999463177363
  0
LINE
  5
   1F4
  8
0
  6
CONTINUOUS
 62
     1
 10
-644.650718688965
 20
78.6321426391602
 30
0.0
 11
-645.90071869107
 21
78.6321426391602
 31
0.0
  0
LINE
  5
   1F5
  8
0
  6
CONTINUOUS
 62
     1
 10
-575.900726318359
 20
78.6321426391602
 30
0.0
 11
-577.150726318359
 21
78.6321426391602
 31
0.0
  0
LINE
  5
   1F6
  8
0
  6
CONTINUOUS
 62
     1
 10
-600.838242067817
 20
80.0321426391602
 30
0.0
 11
-620.963242067817
 21
80.0321426391602
 31
0.0
  0
LINE
  5
   1F7
  8
0
  6
CONTINUOUS
 62
     7
 10
-624.463228426355
 20
68.0321502685547
 30
0.0
 11
-644.650718688965
 21
68.0321502685547
 31
0.0
  0
LINE
  5
   1F8
  8
0
  6
CONTINUOUS
 62
     7
 10
-602.588248842301
 20
68.0321502685547
 30
0.0
 11
-619.213228426355
 21
68.0321502685547
 31
0.0
  0
LINE
  5
   1F9
  8
0
  6
CONTINUOUS
 62
     7
 10
-577.150718688965
 20
68.0321502685547
 30
0.0
 11
-597.338248842301
 21
68.0321502685547
 31
0.0
  0
CIRCLE
  5
   1FA
  8
0
  6
CONTINUOUS
 62
     7
 10
-632.775718831358
 20
78.0321478012155
 30
0.0
 40
0.699999510271856
  0
CIRCLE
  5
   1FB
  8
0
  6
CONTINUOUS
 62
     7
 10
-610.900743556774
 20
78.0321463618609
 30
0.0
 40
0.700000602888031
  0
CIRCLE
  5
   1FC
  8
0
  6
CONTINUOUS
 62
     7
 10
-589.025716903708
 20
78.0321563242803
 30
0.0
 40
0.69999790324502
  0
LINE
  5
   1FD
  8
0
  6
CONTINUOUS
 62
     7
 10
-597.338161455786
 20
68.0321503117065
 30
0.0
 11
-597.338207232153
 21
70.0321503117689
 31
0.0
  0
LINE
  5
   1FE
  8
0
  6
CONTINUOUS
 62
     7
 10
-602.588161457161
 20
68.0321503117066
 30
0.0
 11
-602.588207233529
 21
70.0321503117689
 31
0.0
  0
LINE
  5
   1FF
  8
0
  6
CONTINUOUS
 62
     7
 10
-619.213163374641
 20
68.0321502758857
 30
0.0
 11
-619.213182448127
 21
70.0321502760353
 31
0.0
  0
LINE
  5
   200
  8
0
  6
CONTINUOUS
 62
     7
 10
-624.46316337488
 20
68.0321502758857
 30
0.0
 11
-624.463182448366
 21
70.0321502760354
 31
0.0
  0
ARC
  5
   201
  8
0
  6
CONTINUOUS
 62
     7
 10
-621.838171257355
 20
70.0321845354362
 30
0.0
 40
2.6250366863301
 50
310.367380667564
 51
589.632619228505
  0
ARC
  5
   202
  8
0
  6
CONTINUOUS
 62
     7
 10
-599.963232037764
 20
70.0321599148032
 30
0.0
 40
2.62500212995821
 50
310.367323104286
 51
589.632676791782
  0
LINE
  5
   203
  8
0
  6
CONTINUOUS
 62
     1
 10
-644.650718688965
 20
68.0321502685547
 30
0.0
 11
-644.650718688965
 21
78.6321426391602
 31
0.0
  0
LINE
  5
   204
  8
0
  6
CONTINUOUS
 62
     7
 10
-577.150718688965
 20
68.0321502685547
 30
0.0
 11
-577.150718688965
 21
78.6321426391602
 31
0.0
  0
LINE
  5
   205
  8
0
  6
CONTINUOUS
 62
     1
 10
-575.900742067817
 20
-11.7178326416194
 30
0.0
 11
-575.900742067817
 21
-10.7178326416194
 31
0.0
  0
LINE
  5
   206
  8
0
  6
CONTINUOUS
 62
     1
 10
-645.900742067817
 20
-11.7178326416194
 30
0.0
 11
-645.900742067817
 21
-10.7178326416194
 31
0.0
  0
LINE
  5
   207
  8
0
  6
CONTINUOUS
 62
     1
 10
-575.900742067817
 20
-45.5678311157405
 30
0.0
 11
-575.900742067817
 21
-11.7178326416194
 31
0.0
  0
LINE
  5
   208
  8
0
  6
CONTINUOUS
 62
     1
 10
-645.900742067817
 20
-45.5678326654612
 30
0.0
 11
-645.900742067817
 21
-11.7178341913402
 31
0.0
  0
LINE
  5
   209
  8
0
  6
CONTINUOUS
 62
     1
 10
-644.650742067817
 20
-45.5678326654613
 30
0.0
 11
-645.900742067817
 21
-45.5678326654613
 31
0.0
  0
LINE
  5
   20A
  8
0
  6
CONTINUOUS
 62
     1
 10
-644.650742067817
 20
-46.4678326416194
 30
0.0
 11
-644.650742067817
 21
-45.5678326654612
 31
0.0
  0
LINE
  5
   20B
  8
0
  6
CONTINUOUS
 62
     1
 10
-622.713242067817
 20
-46.9678326416193
 30
0.0
 11
-644.150742067817
 21
-46.9678326416193
 31
0.0
  0
LINE
  5
   20C
  8
0
  6
CONTINUOUS
 62
     1
 10
-600.838242067817
 20
-46.9678326416191
 30
0.0
 11
-620.963242067817
 21
-46.9678326416191
 31
0.0
  0
LINE
  5
   20D
  8
0
  6
CONTINUOUS
 62
     1
 10
-577.650742067817
 20
-46.9678326416195
 30
0.0
 11
-599.088242067817
 21
-46.9678326416195
 31
0.0
  0
LINE
  5
   20E
  8
0
  6
CONTINUOUS
 62
     1
 10
-577.150742067817
 20
-46.4678326416194
 30
0.0
 11
-577.150742067817
 21
-45.5678326654612
 31
0.0
  0
LINE
  5
   20F
  8
0
  6
CONTINUOUS
 62
     1
 10
-575.900742067817
 20
-45.5678326654613
 30
0.0
 11
-577.150742067817
 21
-45.5678326654613
 31
0.0
  0
LINE
  5
   210
  8
0
  6
CONTINUOUS
 62
     1
 10
-644.650742067817
 20
-45.5678326654612
 30
0.0
 11
-644.650742067817
 21
-34.9678322839915
 31
0.0
  0
LINE
  5
   211
  8
0
  6
CONTINUOUS
 62
     1
 10
-624.463242067817
 20
-34.9678326416194
 30
0.0
 11
-644.650742067817
 21
-34.9678326416194
 31
0.0
  0
LINE
  5
   212
  8
0
  6
CONTINUOUS
 62
     1
 10
-624.463242067817
 20
-36.9678326416194
 30
0.0
 11
-624.463242067817
 21
-34.9678326416194
 31
0.0
  0
LINE
  5
   213
  8
0
  6
CONTINUOUS
 62
     1
 10
-619.213242067817
 20
-36.9678326416194
 30
0.0
 11
-619.213242067817
 21
-34.9678326416194
 31
0.0
  0
LINE
  5
   214
  8
0
  6
CONTINUOUS
 62
     1
 10
-602.588242067817
 20
-34.9678326416194
 30
0.0
 11
-619.213242067817
 21
-34.9678326416194
 31
0.0
  0
LINE
  5
   215
  8
0
  6
CONTINUOUS
 62
     1
 10
-602.588242067817
 20
-36.9678326416194
 30
0.0
 11
-602.588242067817
 21
-34.9678326416194
 31
0.0
  0
LINE
  5
   216
  8
0
  6
CONTINUOUS
 62
     1
 10
-597.338242067817
 20
-36.9678326416194
 30
0.0
 11
-597.338242067817
 21
-34.9678326416194
 31
0.0
  0
LINE
  5
   217
  8
0
  6
CONTINUOUS
 62
     1
 10
-577.150742067817
 20
-34.9678326416194
 30
0.0
 11
-597.338242067817
 21
-34.9678326416194
 31
0.0
  0
LINE
  5
   218
  8
0
  6
CONTINUOUS
 62
     1
 10
-577.150742067817
 20
-45.5678326654612
 30
0.0
 11
-577.150742067817
 21
-34.9678322839915
 31
0.0
  0
LINE
  5
   219
  8
0
  6
CONTINUOUS
 62
     1
 10
-620.588242067817
 20
-40.2178326416194
 30
0.0
 11
-620.588242067817
 21
-39.229007797259
 31
0.0
  0
LINE
  5
   21A
  8
0
  6
CONTINUOUS
 62
     1
 10
-623.088242067817
 20
-40.2178326416194
 30
0.0
 11
-623.088242067817
 21
-39.229007797259
 31
0.0
  0
LINE
  5
   21B
  8
0
  6
CONTINUOUS
 62
     1
 10
-620.588242067817
 20
-40.2178326416194
 30
0.0
 11
-623.088242067817
 21
-40.2178326416194
 31
0.0
  0
LINE
  5
   21C
  8
0
  6
CONTINUOUS
 62
     1
 10
-601.213242067817
 20
-40.2178326416194
 30
0.0
 11
-601.213242067817
 21
-39.229007797259
 31
0.0
  0
LINE
  5
   21D
  8
0
  6
CONTINUOUS
 62
     1
 10
-598.713242067817
 20
-40.2178326416194
 30
0.0
 11
-598.713242067817
 21
-39.229007797259
 31
0.0
  0
LINE
  5
   21E
  8
0
  6
CONTINUOUS
 62
     1
 10
-598.713242067817
 20
-40.2178326416194
 30
0.0
 11
-601.213242067817
 21
-40.2178326416194
 31
0.0
  0
LINE
  5
   21F
  8
0
  6
CONTINUOUS
 62
     1
 10
-598.713242067817
 20
-45.4678326416194
 30
0.0
 11
-598.713242067817
 21
-43.7178326416194
 31
0.0
  0
LINE
  5
   220
  8
0
  6
CONTINUOUS
 62
     1
 10
-601.213242067817
 20
-45.4678327608287
 30
0.0
 11
-601.213242067817
 21
-43.7178326416194
 31
0.0
  0
LINE
  5
   221
  8
0
  6
CONTINUOUS
 62
     1
 10
-599.088242067817
 20
-46.9678326416191
 30
0.0
 11
-599.088242067817
 21
-45.4678326416191
 31
0.0
  0
LINE
  5
   222
  8
0
  6
CONTINUOUS
 62
     1
 10
-598.713242067817
 20
-45.4678326416194
 30
0.0
 11
-599.088242067817
 21
-45.4678326416194
 31
0.0
  0
LINE
  5
   223
  8
0
  6
CONTINUOUS
 62
     1
 10
-600.838242067817
 20
-46.9678326416191
 30
0.0
 11
-600.838242067817
 21
-45.4678326416191
 31
0.0
  0
LINE
  5
   224
  8
0
  6
CONTINUOUS
 62
     1
 10
-600.838242067817
 20
-45.4678326416194
 30
0.0
 11
-601.213242067817
 21
-45.4678326416194
 31
0.0
  0
LINE
  5
   225
  8
0
  6
CONTINUOUS
 62
     1
 10
-620.588242067817
 20
-45.4678326416194
 30
0.0
 11
-620.588242067817
 21
-43.7178326416194
 31
0.0
  0
LINE
  5
   226
  8
0
  6
CONTINUOUS
 62
     1
 10
-623.088242067817
 20
-45.4678327608287
 30
0.0
 11
-623.088242067817
 21
-43.7178326416194
 31
0.0
  0
LINE
  5
   227
  8
0
  6
CONTINUOUS
 62
     1
 10
-622.713242067817
 20
-46.9678326416191
 30
0.0
 11
-622.713242067817
 21
-45.4678326416191
 31
0.0
  0
LINE
  5
   228
  8
0
  6
CONTINUOUS
 62
     1
 10
-622.713242067817
 20
-45.4678326416194
 30
0.0
 11
-623.088242067817
 21
-45.4678326416194
 31
0.0
  0
LINE
  5
   229
  8
0
  6
CONTINUOUS
 62
     1
 10
-620.963242067817
 20
-46.9678326416191
 30
0.0
 11
-620.963242067817
 21
-45.4678326416191
 31
0.0
  0
LINE
  5
   22A
  8
0
  6
CONTINUOUS
 62
     1
 10
-620.588242067817
 20
-45.4678326416194
 30
0.0
 11
-620.963242067817
 21
-45.4678326416194
 31
0.0
  0
CIRCLE
  5
   22B
  8
0
  6
CONTINUOUS
 62
     1
 10
-589.025740955864
 20
-37.967831820324
 30
0.0
 40
2.75000084159095
  0
CIRCLE
  5
   22C
  8
0
  6
CONTINUOUS
 62
     1
 10
-599.963241576637
 20
-36.9678333445374
 30
0.0
 40
1.37500079763464
  0
ARC
  5
   22D
  8
0
  6
CONTINUOUS
 62
     1
 10
-599.963245992773
 20
-36.967843239001
 30
0.0
 40
2.62501075357347
 50
121.002660601852
 51
418.997339294217
  0
CIRCLE
  5
   22E
  8
0
  6
CONTINUOUS
 62
     1
 10
-621.838241883234
 20
-36.9678319740336
 30
0.0
 40
1.37499960951013
  0
CIRCLE
  5
   22F
  8
0
  6
CONTINUOUS
 62
     1
 10
-610.900742263443
 20
-37.9678327469485
 30
0.0
 40
2.74999984850238
  0
CIRCLE
  5
   230
  8
0
  6
CONTINUOUS
 62
     1
 10
-589.025742342576
 20
-44.9678301635967
 30
0.0
 40
0.699998471827824
  0
CIRCLE
  5
   231
  8
0
  6
CONTINUOUS
 62
     1
 10
-610.900741098365
 20
-44.9678312843283
 30
0.0
 40
0.700001020696338
  0
CIRCLE
  5
   232
  8
0
  6
CONTINUOUS
 62
     1
 10
-632.775742450662
 20
-44.9678332384224
 30
0.0
 40
0.700000042083871
  0
CIRCLE
  5
   233
  8
0
  6
CONTINUOUS
 62
     1
 10
-632.775741948276
 20
-37.9678327578768
 30
0.0
 40
2.75000015959725
  0
LINE
  5
   234
  8
0
  6
DASHDOT
 62
     7
 10
-610.900742263444
 20
-51.7776884569365
 30
0.0
 11
-610.900742263444
 21
-9.31238809258049
 31
0.0
  0
LINE
  5
   235
  8
0
  6
DASHDOT
 62
     7
 10
-606.650742414941
 20
-37.9678327469485
 30
0.0
 11
-615.150742111946
 21
-37.9678327469485
 31
0.0
  0
ARC
  5
   236
  8
0
  6
CONTINUOUS
 62
     1
 10
-621.838244669472
 20
-36.9678264418316
 30
0.0
 40
2.62499406553746
 50
121.002766250911
 51
418.997233645158
  0
ARC
  5
   237
  8
0
  6
CONTINUOUS
 62
     1
 10
-577.65073846732
 20
-46.4678372052428
 30
0.0
 40
0.499995200460646
 50
269.999729091746
 51
360.000478711826
  0
ARC
  5
   238
  8
0
  6
CONTINUOUS
 62
     1
 10
-644.150742245054
 20
-46.4678327049573
 30
0.0
 40
0.499999889965255
 50
179.99999084272
 51
269.999993044176
  0
LINE
  5
   239
  8
0
  6
CONTINUOUS
 62
     1
 10
-575.900742263443
 20
43.9071578979492
 30
0.0
 11
-575.900742263443
 21
68.0321502685547
 31
0.0
  0
LINE
  5
   23A
  8
0
  6
CONTINUOUS
 62
     1
 10
-575.900742263443
 20
-16.2178497612476
 30
0.0
 11
-575.900742263443
 21
-8.59284210205078
 31
0.0
  0
LINE
  5
   23B
  8
0
  6
CONTINUOUS
 62
     1
 10
-645.900742263443
 20
-16.2178497612476
 30
0.0
 11
-645.900742263443
 21
-8.59285736083982
 31
0.0
  0
LINE
  5
   23C
  8
0
  6
CONTINUOUS
 62
     1
 10
-645.900742263443
 20
43.9071426391602
 30
0.0
 11
-645.900742263443
 21
68.0321502685547
 31
0.0
  0
LINE
  5
   23D
  8
0
  6
CONTINUOUS
 62
     1
 10
-575.900742263443
 20
68.0321502685547
 30
0.0
 11
-645.900742263443
 21
68.0321502685547
 31
0.0
  0
LINE
  5
   23E
  8
0
  6
CONTINUOUS
 62
     1
 10
-576.400749892838
 20
-16.7178497314453
 30
0.0
 11
-581.650742263443
 21
-16.7178497314453
 31
0.0
  0
LINE
  5
   23F
  8
0
  6
CONTINUOUS
 62
     1
 10
-645.900742263443
 20
-8.5928497314453
 30
0.0
 11
-645.900742263443
 21
43.9071502685547
 31
0.0
  0
LINE
  5
   240
  8
0
  6
CONTINUOUS
 62
     1
 10
-575.900742263443
 20
-8.59284973144532
 30
0.0
 11
-575.900742263443
 21
43.9071502685547
 31
0.0
  0
LINE
  5
   241
  8
0
  6
DASHDOT
 62
     1
 10
-610.900742263443
 20
-20.0464242954722
 30
0.0
 11
-610.900742263443
 21
70.963551055456
 31
0.0
  0
ARC
  5
   242
  8
0
  6
CONTINUOUS
 62
     1
 10
-576.150742263443
 20
-8.34284973144531
 30
0.0
 40
0.25
 50
269.999999948034
 51
359.999999948034
  0
ARC
  5
   243
  8
0
  6
CONTINUOUS
 62
     1
 10
-645.650742263443
 20
-8.34284973144531
 30
0.0
 40
0.25
 50
179.999999948034
 51
269.999999948034
  0
LINE
  5
   244
  8
0
  6
CONTINUOUS
 62
     1
 10
-575.900742263443
 20
-16.2178497612476
 30
0.0
 11
-581.650742263443
 21
-16.2178497612476
 31
0.0
  0
LINE
  5
   245
  8
0
  6
CONTINUOUS
 62
     1
 10
-640.150742263443
 20
-16.2178497612476
 30
0.0
 11
-645.900742263443
 21
-16.2178497612476
 31
0.0
  0
LINE
  5
   246
  8
0
  6
CONTINUOUS
 62
     1
 10
-576.400749892838
 20
-16.7178497314455
 30
0.0
 11
-576.400749892838
 21
-16.2178497612478
 31
0.0
  0
LINE
  5
   247
  8
0
  6
CONTINUOUS
 62
     1
 10
-645.400734634049
 20
-16.7178497314455
 30
0.0
 11
-645.400734634049
 21
-16.2178497612478
 31
0.0
  0
LINE
  5
   248
  8
0
  6
CONTINUOUS
 62
     1
 10
-640.275734634049
 20
-8.59285736083984
 30
0.0
 11
-640.275734634049
 21
43.9071426391602
 31
0.0
  0
LINE
  5
   249
  8
0
  6
CONTINUOUS
 62
     1
 10
-638.475739211686
 20
-8.59285736083984
 30
0.0
 11
-638.475739211686
 21
43.9071426391602
 31
0.0
  0
LINE
  5
   24A
  8
0
  6
CONTINUOUS
 62
     1
 10
-644.775734634049
 20
-8.59284973144531
 30
0.0
 11
-644.775734634049
 21
43.9071426391602
 31
0.0
  0
LINE
  5
   24B
  8
0
  6
CONTINUOUS
 62
     1
 10
-643.625740737565
 20
-8.59285736083984
 30
0.0
 11
-643.625740737565
 21
43.9071426391602
 31
0.0
  0
LINE
  5
   24C
  8
0
  6
CONTINUOUS
 62
     1
 10
-642.075737685807
 20
-8.59285736083984
 30
0.0
 11
-642.075737685807
 21
43.9071426391602
 31
0.0
  0
LINE
  5
   24D
  8
0
  6
CONTINUOUS
 62
     1
 10
-637.325737685807
 20
-8.59285736083984
 30
0.0
 11
-637.325737685807
 21
43.9071426391602
 31
0.0
  0
LINE
  5
   24E
  8
0
  6
CONTINUOUS
 62
     1
 10
-640.275734634049
 20
57.6571493148804
 30
0.0
 11
-640.275734634049
 21
68.0321426391602
 31
0.0
  0
LINE
  5
   24F
  8
0
  6
CONTINUOUS
 62
     1
 10
-638.475739211686
 20
57.6571493148804
 30
0.0
 11
-638.475739211686
 21
68.0321426391602
 31
0.0
  0
LINE
  5
   250
  8
0
  6
CONTINUOUS
 62
     1
 10
-644.775734634049
 20
43.9071426391602
 30
0.0
 11
-644.775734634049
 21
68.0321426391602
 31
0.0
  0
LINE
  5
   251
  8
0
  6
CONTINUOUS
 62
     1
 10
-643.625740737565
 20
43.9071426391602
 30
0.0
 11
-643.625740737565
 21
68.0321426391602
 31
0.0
  0
LINE
  5
   252
  8
0
  6
CONTINUOUS
 62
     1
 10
-642.075737685807
 20
43.9071426391602
 30
0.0
 11
-642.075737685807
 21
68.0321426391602
 31
0.0
  0
LINE
  5
   253
  8
0
  6
CONTINUOUS
 62
     1
 10
-637.325737685807
 20
57.6571493148804
 30
0.0
 11
-637.325737685807
 21
68.0321426391602
 31
0.0
  0
LINE
  5
   254
  8
0
  6
CONTINUOUS
 62
     1
 10
-644.775734634049
 20
-16.2178497612476
 30
0.0
 11
-644.775734634049
 21
-8.59284928441047
 31
0.0
  0
LINE
  5
   255
  8
0
  6
CONTINUOUS
 62
     1
 10
-643.625740737565
 20
-16.2178497612476
 30
0.0
 11
-643.625740737565
 21
-8.59284928441047
 31
0.0
  0
LINE
  5
   256
  8
0
  6
CONTINUOUS
 62
     1
 10
-642.075737685807
 20
-16.2178497612476
 30
0.0
 11
-642.075737685807
 21
-8.59284928441047
 31
0.0
  0
LINE
  5
   257
  8
0
  6
CONTINUOUS
 62
     1
 10
-637.325737685807
 20
-16.2178497612476
 30
0.0
 11
-637.325737685807
 21
-8.59284928441047
 31
0.0
  0
LINE
  5
   258
  8
0
  6
CONTINUOUS
 62
     1
 10
-577.025749892838
 20
-8.59284973144532
 30
0.0
 11
-577.025749892838
 21
43.9071426391601
 31
0.0
  0
LINE
  5
   259
  8
0
  6
CONTINUOUS
 62
     1
 10
-578.175743789322
 20
-8.59285736083985
 30
0.0
 11
-578.175743789322
 21
43.9071426391601
 31
0.0
  0
LINE
  5
   25A
  8
0
  6
CONTINUOUS
 62
     1
 10
-579.97574684108
 20
-8.59285736083985
 30
0.0
 11
-579.97574684108
 21
43.9071426391601
 31
0.0
  0
LINE
  5
   25B
  8
0
  6
CONTINUOUS
 62
     1
 10
-581.775749892838
 20
57.4071594871909
 30
0.0
 11
-581.775749892838
 21
68.0321426391601
 31
0.0
  0
LINE
  5
   25C
  8
0
  6
CONTINUOUS
 62
     1
 10
-583.575745315201
 20
57.6571493148804
 30
0.0
 11
-583.575745315201
 21
68.0321426391601
 31
0.0
  0
LINE
  5
   25D
  8
0
  6
CONTINUOUS
 62
     1
 10
-577.025749892838
 20
43.9071426391601
 30
0.0
 11
-577.025749892838
 21
68.0321426391601
 31
0.0
  0
LINE
  5
   25E
  8
0
  6
CONTINUOUS
 62
     1
 10
-578.175743789322
 20
43.9071426391601
 30
0.0
 11
-578.175743789322
 21
68.0321426391601
 31
0.0
  0
LINE
  5
   25F
  8
0
  6
CONTINUOUS
 62
     1
 10
-579.97574684108
 20
43.9071426391601
 30
0.0
 11
-579.97574684108
 21
68.0321426391601
 31
0.0
  0
LINE
  5
   260
  8
0
  6
CONTINUOUS
 62
     1
 10
-584.47574684108
 20
57.6571493148804
 30
0.0
 11
-584.47574684108
 21
68.0321426391601
 31
0.0
  0
LINE
  5
   261
  8
0
  6
CONTINUOUS
 62
     1
 10
-577.025749892838
 20
-16.2178497612476
 30
0.0
 11
-577.025749892838
 21
-8.59284928441048
 31
0.0
  0
LINE
  5
   262
  8
0
  6
CONTINUOUS
 62
     1
 10
-578.175743789322
 20
-16.2178497612476
 30
0.0
 11
-578.175743789322
 21
-8.59284928441048
 31
0.0
  0
LINE
  5
   263
  8
0
  6
CONTINUOUS
 62
     1
 10
-579.97574684108
 20
-16.2178497612476
 30
0.0
 11
-579.97574684108
 21
-8.59284928441048
 31
0.0
  0
LINE
  5
   264
  8
0
  6
CONTINUOUS
 62
     1
 10
-636.400742263443
 20
57.6571493148804
 30
0.0
 11
-636.400742263443
 21
65.5321502685547
 31
0.0
  0
LINE
  5
   265
  8
0
  6
CONTINUOUS
 62
     1
 10
-585.400742263443
 20
57.6571493148804
 30
0.0
 11
-585.400742263443
 21
65.5321502685547
 31
0.0
  0
LINE
  5
   266
  8
0
  6
CONTINUOUS
 62
     1
 10
-585.400742263443
 20
65.5321502685547
 30
0.0
 11
-636.400742263443
 21
65.5321502685547
 31
0.0
  0
LINE
  5
   267
  8
0
  6
DASHDOT
 62
     3
 10
-610.900742263443
 20
-10.4694906711247
 30
0.0
 11
-610.900742263443
 21
32.7583524123997
 31
0.0
  0
LINE
  5
   268
  8
0
  6
DASHDOT
 62
     3
 10
-610.900742263443
 20
32.3719860561401
 30
0.0
 11
-610.900742263443
 21
49.1250622605168
 31
0.0
  0
LINE
  5
   269
  8
0
  6
CONTINUOUS
 62
     1
 10
-616.275746227152
 20
17.4071426391602
 30
0.0
 11
-636.650742293246
 21
17.4071426391602
 31
0.0
  0
LINE
  5
   26A
  8
0
  6
CONTINUOUS
 62
     7
 10
-575.900742067817
 20
-17.2178326416192
 30
0.0
 11
-581.650742263443
 21
-17.2178326416192
 31
0.0
  0
LINE
  5
   26B
  8
0
  6
CONTINUOUS
 62
     1
 10
-575.900742067817
 20
-34.7178326416192
 30
0.0
 11
-645.900742067817
 21
-34.7178326416192
 31
0.0
  0
LINE
  5
   26C
  8
0
  6
DASHDOT
 62
     7
 10
-589.025748622765
 20
63.2820462694411
 30
0.0
 11
-589.025748622765
 21
78.7821534927128
 31
0.0
  0
LINE
  5
   26D
  8
0
  6
DASHDOT
 62
     7
 10
-581.275695011129
 20
71.032099881077
 30
0.0
 11
-596.775802234401
 21
71.032099881077
 31
0.0
  0
LINE
  5
   26E
  8
0
  6
DASHDOT
 62
     7
 10
-589.025716903708
 20
72.3321584210353
 30
0.0
 11
-589.025716903708
 21
83.7321542275253
 31
0.0
  0
LINE
  5
   26F
  8
0
  6
DASHDOT
 62
     7
 10
-583.325719000463
 20
78.0321563242803
 30
0.0
 11
-594.725714806953
 21
78.0321563242803
 31
0.0
  0
LINE
  5
   270
  8
0
  6
DASHDOT
 62
     7
 10
-599.963232037764
 20
62.4071577848449
 30
0.0
 11
-599.963232037764
 21
77.6571620447614
 31
0.0
  0
LINE
  5
   271
  8
0
  6
DASHDOT
 62
     7
 10
-592.338229907806
 20
70.0321599148032
 30
0.0
 11
-607.588234167722
 21
70.0321599148032
 31
0.0
  0
LINE
  5
   272
  8
0
  6
DASHDOT
 62
     7
 10
-610.900743556774
 20
72.3321457589729
 30
0.0
 11
-610.900743556774
 21
91.5909539663191
 31
0.0
  0
LINE
  5
   273
  8
0
  6
DASHDOT
 62
     7
 10
-605.200742953886
 20
78.0321463618609
 30
0.0
 11
-616.600744159662
 21
78.0321463618609
 31
0.0
  0
LINE
  5
   274
  8
0
  6
DASHDOT
 62
     7
 10
-610.900715048424
 20
63.2822430980967
 30
0.0
 11
-610.900715048424
 21
78.782167495895
 31
0.0
  0
LINE
  5
   275
  8
0
  6
DASHDOT
 62
     7
 10
-603.150752849525
 20
71.0322052969959
 30
0.0
 11
-618.650677247324
 21
71.0322052969959
 31
0.0
  0
LINE
  5
   276
  8
0
  6
DASHDOT
 62
     7
 10
-621.838171257355
 20
62.4071478491061
 30
0.0
 11
-621.838171257355
 21
77.6572212217663
 31
0.0
  0
LINE
  5
   277
  8
0
  6
DASHDOT
 62
     7
 10
-614.213134571025
 20
70.0321845354362
 30
0.0
 11
-629.463207943685
 21
70.0321845354362
 31
0.0
  0
LINE
  5
   278
  8
0
  6
DASHDOT
 62
     7
 10
-632.775718831358
 20
72.3321482909436
 30
0.0
 11
-632.775718831358
 21
83.7321473114874
 31
0.0
  0
LINE
  5
   279
  8
0
  6
DASHDOT
 62
     7
 10
-627.075719321086
 20
78.0321478012155
 30
0.0
 11
-638.47571834163
 21
78.0321478012155
 31
0.0
  0
LINE
  5
   27A
  8
0
  6
DASHDOT
 62
     7
 10
-632.775714152356
 20
63.2821636474331
 30
0.0
 11
-632.775714152356
 21
78.7821757469465
 31
0.0
  0
LINE
  5
   27B
  8
0
  6
DASHDOT
 62
     7
 10
-625.0257081026
 20
71.0321696971898
 30
0.0
 11
-640.525720202113
 21
71.0321696971898
 31
0.0
  0
LINE
  5
   27C
  8
0
  6
DASHDOT
 62
     7
 10
-632.775741948276
 20
-45.7178329174741
 30
0.0
 11
-632.775741948276
 21
-30.2178325982796
 31
0.0
  0
LINE
  5
   27D
  8
0
  6
DASHDOT
 62
     7
 10
-625.025741788679
 20
-37.9678327578768
 30
0.0
 11
-640.525742107873
 21
-37.9678327578768
 31
0.0
  0
LINE
  5
   27E
  8
0
  6
DASHDOT
 62
     7
 10
-632.775742450662
 20
-50.6678332805062
 30
0.0
 11
-632.775742450662
 21
-39.2678331963385
 31
0.0
  0
LINE
  5
   27F
  8
0
  6
DASHDOT
 62
     7
 10
-627.075742408578
 20
-44.9678332384224
 30
0.0
 11
-638.475742492746
 21
-44.9678332384224
 31
0.0
  0
LINE
  5
   280
  8
0
  6
DASHDOT
 62
     7
 10
-605.200740077669
 20
-44.9678312843283
 30
0.0
 11
-616.600742119061
 21
-44.9678312843283
 31
0.0
  0
LINE
  5
   281
  8
0
  6
DASHDOT
 62
     7
 10
-621.838244669472
 20
-44.592820507369
 30
0.0
 11
-621.838244669472
 21
-29.3428323762941
 31
0.0
  0
LINE
  5
   282
  8
0
  6
DASHDOT
 62
     7
 10
-614.213250603935
 20
-36.9678264418316
 30
0.0
 11
-629.46323873501
 21
-36.9678264418316
 31
0.0
  0
LINE
  5
   283
  8
0
  6
DASHDOT
 62
     7
 10
-599.963245992773
 20
-44.5928539925745
 30
0.0
 11
-599.963245992773
 21
-29.3428324854275
 31
0.0
  0
LINE
  5
   284
  8
0
  6
DASHDOT
 62
     7
 10
-592.3382352392
 20
-36.967843239001
 30
0.0
 11
-607.588256746347
 21
-36.967843239001
 31
0.0
  0
LINE
  5
   285
  8
0
  6
DASHDOT
 62
     7
 10
-589.025740955864
 20
-45.717832661915
 30
0.0
 11
-589.025740955864
 21
-30.2178309787331
 31
0.0
  0
LINE
  5
   286
  8
0
  6
DASHDOT
 62
     7
 10
-581.275740114273
 20
-37.967831820324
 30
0.0
 11
-596.775741797455
 21
-37.967831820324
 31
0.0
  0
LINE
  5
   287
  8
0
  6
DASHDOT
 62
     7
 10
-589.025742342576
 20
-50.6678286354246
 30
0.0
 11
-589.025742342576
 21
-39.2678316917689
 31
0.0
  0
LINE
  5
   288
  8
0
  6
DASHDOT
 62
     7
 10
-583.325743870748
 20
-44.9678301635967
 30
0.0
 11
-594.725740814404
 21
-44.9678301635967
 31
0.0
  0
LINE
  5
   289
  8
0
  6
CONTINUOUS
 62
     1
 10
-644.650718688965
 20
78.6321426391602
 30
0.0
 11
-644.650718688965
 21
79.5321502685547
 31
0.0
  0
LINE
  5
   28A
  8
0
  6
CONTINUOUS
 62
     1
 10
-577.150718688965
 20
78.6321426391602
 30
0.0
 11
-577.150718688965
 21
79.5321502685547
 31
0.0
  0
LINE
  5
   28B
  8
0
  6
CONTINUOUS
 62
     1
 10
-598.713242067817
 20
-43.7178326416194
 30
0.0
 11
-601.213242067817
 21
-43.7178326416194
 31
0.0
  0
LINE
  5
   28C
  8
0
  6
CONTINUOUS
 62
     1
 10
-620.588242067817
 20
-43.7178326416194
 30
0.0
 11
-623.088242067817
 21
-43.7178326416194
 31
0.0
  0
LINE
  5
   28D
  8
0
  6
CONTINUOUS
 62
     1
 10
-585.150749892838
 20
17.4071426391602
 30
0.0
 11
-605.525742263443
 21
17.4071426391602
 31
0.0
  0
LINE
  5
   28E
  8
0
  6
CONTINUOUS
 62
     1
 10
-598.713242067817
 20
76.7821179199397
 30
0.0
 11
-601.213242067817
 21
76.7821179199397
 31
0.0
  0
LINE
  5
   28F
  8
0
  6
CONTINUOUS
 62
     1
 10
-601.213242067817
 20
76.7821179199397
 30
0.0
 11
-601.213242067817
 21
78.532118039149
 31
0.0
  0
LINE
  5
   290
  8
0
  6
CONTINUOUS
 62
     1
 10
-600.838242067817
 20
78.5321179199397
 30
0.0
 11
-601.213242067817
 21
78.5321179199397
 31
0.0
  0
LINE
  5
   291
  8
0
  6
CONTINUOUS
 62
     1
 10
-600.838242067817
 20
78.5321179199394
 30
0.0
 11
-600.838242067817
 21
80.0321179199394
 31
0.0
  0
LINE
  5
   292
  8
0
  6
CONTINUOUS
 62
     1
 10
-599.088242067817
 20
78.5321179199394
 30
0.0
 11
-599.088242067817
 21
80.0321179199394
 31
0.0
  0
LINE
  5
   293
  8
0
  6
CONTINUOUS
 62
     1
 10
-598.713242067817
 20
78.5321179199397
 30
0.0
 11
-599.088242067817
 21
78.5321179199397
 31
0.0
  0
LINE
  5
   294
  8
0
  6
CONTINUOUS
 62
     1
 10
-598.713242067817
 20
76.7821179199397
 30
0.0
 11
-598.713242067817
 21
78.5321179199397
 31
0.0
  0
LINE
  5
   295
  8
0
  6
CONTINUOUS
 62
     1
 10
-620.588242067817
 20
76.7821179199397
 30
0.0
 11
-623.088242067817
 21
76.7821179199397
 31
0.0
  0
LINE
  5
   296
  8
0
  6
CONTINUOUS
 62
     1
 10
-623.088242067817
 20
76.7821179199397
 30
0.0
 11
-623.088242067817
 21
78.532118039149
 31
0.0
  0
LINE
  5
   297
  8
0
  6
CONTINUOUS
 62
     1
 10
-622.713242067817
 20
78.5321179199397
 30
0.0
 11
-623.088242067817
 21
78.5321179199397
 31
0.0
  0
LINE
  5
   298
  8
0
  6
CONTINUOUS
 62
     1
 10
-622.713242067817
 20
78.5321179199394
 30
0.0
 11
-622.713242067817
 21
80.0321179199394
 31
0.0
  0
LINE
  5
   299
  8
0
  6
CONTINUOUS
 62
     1
 10
-620.963242067817
 20
78.5321179199394
 30
0.0
 11
-620.963242067817
 21
80.0321179199394
 31
0.0
  0
LINE
  5
   29A
  8
0
  6
CONTINUOUS
 62
     1
 10
-620.588242067817
 20
78.5321179199397
 30
0.0
 11
-620.963242067817
 21
78.5321179199397
 31
0.0
  0
LINE
  5
   29B
  8
0
  6
CONTINUOUS
 62
     1
 10
-620.588242067817
 20
76.7821179199397
 30
0.0
 11
-620.588242067817
 21
78.5321179199397
 31
0.0
  0
LINE
  5
   29C
  8
0
  6
DASHDOT
 62
     3
 10
-566.43201025327
 20
17.4071502685547
 30
0.0
 11
-655.567287690216
 21
17.4071502685547
 31
0.0
  0
LINE
  5
   29D
  8
0
  6
CONTINUOUS
 62
     1
 10
-636.900742263443
 20
-8.84284973144531
 30
0.0
 11
-645.900742263443
 21
-8.84284973144531
 31
0.0
  0
LINE
  5
   29E
  8
0
  6
CONTINUOUS
 62
     1
 10
-575.900742263443
 20
43.4071502685547
 30
0.0
 11
-581.650742263443
 21
43.4071502685547
 31
0.0
  0
LINE
  5
   29F
  8
0
  6
CONTINUOUS
 62
     1
 10
-636.90074226343
 20
43.6571502685547
 30
0.0
 11
-645.900742263443
 21
43.6571502685547
 31
0.0
  0
LINE
  5
   2A0
  8
0
  6
DASHDOT
 62
     3
 10
-655.567287690216
 20
17.4071502685547
 30
0.0
 11
-674.02885415649
 21
17.4071502685547
 31
0.0
  0
LINE
  5
   2A1
  8
0
  6
CONTINUOUS
 62
     7
 10
-637.325737685807
 20
-34.7178326416192
 30
0.0
 11
-637.325737685807
 21
-22.842848777771
 31
0.0
  0
LINE
  5
   2A2
  8
0
  6
CONTINUOUS
 62
     7
 10
-638.475739211686
 20
-34.7178326416192
 30
0.0
 11
-638.475739211686
 21
-22.842848777771
 31
0.0
  0
LINE
  5
   2A3
  8
0
  6
CONTINUOUS
 62
     7
 10
-640.275734634049
 20
-34.7178326416192
 30
0.0
 11
-640.275734634049
 21
-22.842848777771
 31
0.0
  0
LINE
  5
   2A4
  8
0
  6
CONTINUOUS
 62
     7
 10
-642.075737685807
 20
-34.7178326416192
 30
0.0
 11
-642.075737685807
 21
-17.2178326416192
 31
0.0
  0
LINE
  5
   2A5
  8
0
  6
CONTINUOUS
 62
     7
 10
-643.625740737565
 20
-34.7178326416192
 30
0.0
 11
-643.625740737565
 21
-17.2178326416192
 31
0.0
  0
LINE
  5
   2A6
  8
0
  6
CONTINUOUS
 62
     7
 10
-644.775734634049
 20
-34.7178326416192
 30
0.0
 11
-644.775734634049
 21
-17.2178326416192
 31
0.0
  0
LINE
  5
   2A7
  8
0
  6
CONTINUOUS
 62
     7
 10
-584.47574684108
 20
-34.7178326416192
 30
0.0
 11
-584.47574684108
 21
-22.842848777771
 31
0.0
  0
LINE
  5
   2A8
  8
0
  6
CONTINUOUS
 62
     7
 10
-583.325745315201
 20
-34.7178326416192
 30
0.0
 11
-583.325745315201
 21
-22.842848777771
 31
0.0
  0
LINE
  5
   2A9
  8
0
  6
CONTINUOUS
 62
     7
 10
-581.525749892838
 20
-34.7178326416192
 30
0.0
 11
-581.525749892838
 21
-22.842848777771
 31
0.0
  0
LINE
  5
   2AA
  8
0
  6
CONTINUOUS
 62
     7
 10
-579.72574684108
 20
-34.7178326416192
 30
0.0
 11
-579.72574684108
 21
-17.2178326416192
 31
0.0
  0
LINE
  5
   2AB
  8
0
  6
CONTINUOUS
 62
     7
 10
-578.175743789322
 20
-34.7178326416192
 30
0.0
 11
-578.175743789322
 21
-17.2178326416192
 31
0.0
  0
LINE
  5
   2AC
  8
0
  6
CONTINUOUS
 62
     7
 10
-577.025749892838
 20
-34.7178326416192
 30
0.0
 11
-577.025749892838
 21
-17.2178326416192
 31
0.0
  0
LINE
  5
   2AD
  8
0
  6
CONTINUOUS
 62
     1
 10
-575.900742263443
 20
-8.84284973144531
 30
0.0
 11
-581.650742263443
 21
-8.84284973144531
 31
0.0
  0
INSERT
  5
   2AE
  8
255
  6
CONTINUOUS
 62
     7
  2
MIC_MOT
 10
-610.900742263443
 20
17.4071502685547
 30
0.0
 41
0.5
 42
0.5
 50
3.50835464724173E-15
 43
0.5
  0
LINE
  5
   2AF
  8
0
  6
CONTINUOUS
 62
     1
 10
-573.150742263443
 20
6.03214263916016
 30
0.0
 11
-573.150742263443
 21
22.0321426391602
 31
0.0
  0
LINE
  5
   2B0
  8
0
  6
CONTINUOUS
 62
     1
 10
-573.150742263443
 20
6.03214263916016
 30
0.0
 11
-575.900742263443
 21
6.03214263916016
 31
0.0
  0
LINE
  5
   2B1
  8
0
  6
CONTINUOUS
 62
     1
 10
-573.150742263443
 20
22.0321426391602
 30
0.0
 11
-575.900742263443
 21
22.0321426391602
 31
0.0
  0
LINE
  5
   2B2
  8
0
  6
DOT
 62
     1
 10
-667.775718691069
 20
68.0321502685547
 30
0.0
 11
-667.775718691069
 21
78.6321426391601
 31
0.0
  0
LINE
  5
   2B3
  8
0
  6
DOT
 62
     1
 10
-666.525718688965
 20
78.6321426391602
 30
0.0
 11
-667.77571869107
 21
78.6321426391602
 31
0.0
  0
LINE
  5
   2B4
  8
0
  6
DOT
 62
     1
 10
-666.525718688965
 20
78.6321426391602
 30
0.0
 11
-666.525718688965
 21
79.5321502685547
 31
0.0
  0
ARC
  5
   2B5
  8
0
  6
DOT
 62
     1
 10
-666.0257319918
 20
79.5321340896633
 30
0.0
 40
0.499990919521533
 50
449.999429635018
 51
540.000998310938
  0
LINE
  5
   2B6
  8
0
  6
DOT
 62
     1
 10
-644.588242067817
 20
80.0321426391602
 30
0.0
 11
-666.025718688965
 21
80.0321426391602
 31
0.0
  0
LINE
  5
   2B7
  8
0
  6
DOT
 62
     1
 10
-667.775742263443
 20
43.9071426391602
 30
0.0
 11
-667.775742263443
 21
68.0321502685547
 31
0.0
  0
LINE
  5
   2B8
  8
0
  6
DOT
 62
     1
 10
-667.775742263443
 20
-8.5928497314453
 30
0.0
 11
-667.775742263443
 21
43.9071502685547
 31
0.0
  0
LINE
  5
   2B9
  8
0
  6
DOT
 62
     1
 10
-667.775742263443
 20
-16.2178497612476
 30
0.0
 11
-667.775742263443
 21
-8.59285736083982
 31
0.0
  0
LINE
  5
   2BA
  8
0
  6
DOT
 62
     1
 10
-667.775742067817
 20
-45.5678326654612
 30
0.0
 11
-667.775742067817
 21
-11.7178341913402
 31
0.0
  0
LINE
  5
   2BB
  8
0
  6
DOT
 62
     1
 10
-666.525742067817
 20
-45.5678326654613
 30
0.0
 11
-667.775742067817
 21
-45.5678326654613
 31
0.0
  0
LINE
  5
   2BC
  8
0
  6
DOT
 62
     1
 10
-666.525742067817
 20
-46.4678326416194
 30
0.0
 11
-666.525742067817
 21
-45.5678326654612
 31
0.0
  0
ARC
  5
   2BD
  8
0
  6
DOT
 62
     1
 10
-666.025742245054
 20
-46.4678327049573
 30
0.0
 40
0.499999889965255
 50
179.99999084272
 51
269.999993044176
  0
LINE
  5
   2BE
  8
0
  6
DOT
 62
     1
 10
-644.588242067817
 20
-46.9678326416193
 30
0.0
 11
-666.025742067817
 21
-46.9678326416193
 31
0.0
  0
INSERT
  5
   2BF
  8
255
  6
CONTINUOUS
 62
     7
  2
MOSTRINA
 10
-668.319870681412
 20
-37.5831613540649
 30
0.0
 41
0.5
 42
0.5
 50
359.999999792138
 43
0.5
  0
LINE
  5
   2C0
  8
0
  6
CONTINUOUS
 62
     1
 10
-640.150742263443
 20
-16.7178497314453
 30
0.0
 11
-645.400734634049
 21
-16.7178497314453
 31
0.0
  0
LINE
  5
   2C1
  8
0
  6
CONTINUOUS
 62
     7
 10
-640.150742263443
 20
-17.2178326416192
 30
0.0
 11
-645.900742067817
 21
-17.2178326416192
 31
0.0
  0
CIRCLE
  5
   2C2
  8
0
  6
CONTINUOUS
 62
     7
 10
-594.046994652232
 20
52.3312845201179
 30
0.0
 40
0.05
  0
INSERT
  5
   2C3
  8
0
  6
CONTINUOUS
 62
     7
  2
*UDIM360
 10
0.0
 20
0.0
 30
0.0
  0
TEXT
  5
   2C4
  8
0
  6
CONTINUOUS
 62
     7
 10
-561.001252619961
 20
2.33258907609425
 30
0.0
 40
3.00000002980232
  1
=         =
 50
89.9999999480344
 41
0.916666604744064
 72
     1
 11
-562.501252621412
 21
17.1825882196426
 31
0.0
 73
     2
  0
TEXT
  5
   2C5
  8
0
  6
CONTINUOUS
 62
     7
 10
-626.366313054027
 20
94.3713531599274
 30
0.0
 40
3.00000002980232
  1
=         =
 50
359.999999948034
 41
0.916666604744064
 72
     1
 11
-611.516313910484
 21
95.8713531614347
 31
0.0
 73
     2
  0
INSERT
  5
   2C6
  8
0
  6
CONTINUOUS
 62
     7
  2
*UDIM361
 10
0.0
 20
0.0
 30
0.0
  0
INSERT
  5
   2C7
  8
0
  6
CONTINUOUS
 62
     7
  2
*UDIM362
 10
0.0
 20
0.0
 30
0.0
  0
INSERT
  5
   2C8
  8
0
  6
CONTINUOUS
 62
     7
  2
*UDIM363
 10
0.0
 20
0.0
 30
0.0
  0
INSERT
  5
   2C9
  8
0
  6
CONTINUOUS
 62
     7
  2
*UDIM364
 10
0.0
 20
0.0
 30
0.0
  0
TEXT
  5
   2CA
  8
0
  6
CONTINUOUS
 62
     7
 10
-671.731391922679
 20
-0.395673580336151
 30
0.0
 40
3.00000002980232
  1
=           =
 50
89.9999999480344
 41
0.916666604744064
 72
     2
 11
-671.731391890798
 21
34.8043243871455
 31
0.0
  0
TEXT
  5
   2CB
  8
0
  6
CONTINUOUS
 62
     7
 10
-626.050245448319
 20
84.6597898688133
 30
0.0
 40
3.00000002980232
  1
=         =
 50
359.999999948034
 41
0.916666604744064
 72
     2
 11
-596.350247163939
 21
84.6597898420255
 31
0.0
  0
TEXT
  5
   2CC
  8
0
  6
CONTINUOUS
 62
     7
 10
-611.696678455035
 20
-64.1022515698265
 30
0.0
 40
3.00000002980232
  1
Y
 50
359.999999948034
 41
0.916666604744064
 72
     2
 11
-609.496678586165
 21
-64.1022515718108
 31
0.0
  0
TEXT
  5
   2CD
  8
0
  6
CONTINUOUS
 62
     7
 10
-560.331148297947
 20
16.1743815011756
 30
0.0
 40
3.00000002980232
  1
X
 50
359.999999948034
 41
0.916666604744064
 72
     1
 11
-559.23114836216
 21
17.6743815150846
 31
0.0
 73
     2
  0
TEXT
  5
   2CE
  8
0
  6
CONTINUOUS
 62
     7
 10
-685.997726352376
 20
15.346966034867
 30
0.0
 40
3.00000002980232
  1
X
 50
359.999999948034
 41
0.916666604744064
 72
     1
 11
-684.897726416588
 21
16.846966048776
 31
0.0
 73
     2
  0
TEXT
  5
   2CF
  8
0
  6
CONTINUOUS
 62
     7
 10
-612.513023288411
 20
104.633087403275
 30
0.0
 40
3.00000002980232
  1
Y
 50
359.999999948034
 41
0.916666604744064
 72
     1
 11
-611.413023352623
 21
106.133087417184
 31
0.0
 73
     2
  0
LINE
  5
   2D0
  8
0
  6
CONTINUOUS
 62
     7
 10
-350.328918457031
 20
3.40715980529785
 30
0.0
 11
-322.328918457031
 21
3.40715980529785
 31
0.0
  0
LINE
  5
   2D1
  8
0
  6
CONTINUOUS
 62
     7
 10
-350.328918457031
 20
31.4071598052979
 30
0.0
 11
-322.328918457031
 21
31.4071598052979
 31
0.0
  0
LINE
  5
   2D2
  8
0
  6
CONTINUOUS
 62
     7
 10
-350.328918457031
 20
31.4071598052979
 30
0.0
 11
-350.328918457031
 21
3.40715980529785
 31
0.0
  0
LINE
  5
   2D3
  8
0
  6
CONTINUOUS
 62
     7
 10
-322.328918457031
 20
31.4071598052979
 30
0.0
 11
-322.328918457031
 21
3.40715980529785
 31
0.0
  0
LINE
  5
   2D4
  8
0
  6
DASHDOT
 62
     7
 10
-336.328918457031
 20
46.5011230512734
 30
0.0
 11
-336.328918457031
 21
-12.6296304725094
 31
0.0
  0
CIRCLE
  5
   2D5
  8
0
  6
CONTINUOUS
 62
     7
 10
-346.328918457031
 20
35.1571598052979
 30
0.0
 40
0.875
  0
CIRCLE
  5
   2D6
  8
0
  6
CONTINUOUS
 62
     7
 10
-326.328918457031
 20
35.1571598052979
 30
0.0
 40
0.875
  0
CIRCLE
  5
   2D7
  8
0
  6
CONTINUOUS
 62
     7
 10
-326.328918457031
 20
-0.342840194702148
 30
0.0
 40
0.875
  0
CIRCLE
  5
   2D8
  8
0
  6
CONTINUOUS
 62
     7
 10
-346.328918457031
 20
-0.342840194702148
 30
0.0
 40
0.875
  0
LINE
  5
   2D9
  8
0
  6
CONTINUOUS
 62
     3
 10
-354.293414126446
 20
37.5069601025891
 30
0.0
 11
-318.49004485646
 21
37.5069601025891
 31
0.0
  0
LINE
  5
   2DA
  8
0
  6
CONTINUOUS
 62
     3
 10
-354.293414126446
 20
-3.69832102216613
 30
0.0
 11
-318.49004485646
 21
-3.69832102216613
 31
0.0
  0
LINE
  5
   2DB
  8
0
  6
CONTINUOUS
 62
     3
 10
-318.49004485646
 20
37.5069601025891
 30
0.0
 11
-318.49004485646
 21
-3.69832102216613
 31
0.0
  0
LINE
  5
   2DC
  8
0
  6
CONTINUOUS
 62
     3
 10
-354.293414126446
 20
37.5069601025891
 30
0.0
 11
-354.293414126446
 21
-3.69832102216613
 31
0.0
  0
LINE
  5
   2DD
  8
0
  6
DASHDOT
 62
     7
 10
-326.328918457031
 20
36.7821598052979
 30
0.0
 11
-326.328918457031
 21
33.5321598052979
 31
0.0
  0
LINE
  5
   2DE
  8
0
  6
DASHDOT
 62
     7
 10
-327.953918457031
 20
35.1571598052979
 30
0.0
 11
-324.703918457031
 21
35.1571598052979
 31
0.0
  0
LINE
  5
   2DF
  8
0
  6
DASHDOT
 62
     7
 10
-346.328918457031
 20
36.7821598052979
 30
0.0
 11
-346.328918457031
 21
33.5321598052979
 31
0.0
  0
LINE
  5
   2E0
  8
0
  6
DASHDOT
 62
     7
 10
-347.953918457031
 20
35.1571598052979
 30
0.0
 11
-344.703918457031
 21
35.1571598052979
 31
0.0
  0
LINE
  5
   2E1
  8
0
  6
DASHDOT
 62
     7
 10
-346.328918457031
 20
1.28215980529785
 30
0.0
 11
-346.328918457031
 21
-1.96784019470215
 31
0.0
  0
LINE
  5
   2E2
  8
0
  6
DASHDOT
 62
     7
 10
-347.953918457031
 20
-0.342840194702148
 30
0.0
 11
-344.703918457031
 21
-0.342840194702148
 31
0.0
  0
LINE
  5
   2E3
  8
0
  6
DASHDOT
 62
     7
 10
-326.328918457031
 20
1.28215980529785
 30
0.0
 11
-326.328918457031
 21
-1.96784019470215
 31
0.0
  0
LINE
  5
   2E4
  8
0
  6
DASHDOT
 62
     7
 10
-327.953918457031
 20
-0.342840194702148
 30
0.0
 11
-324.703918457031
 21
-0.342840194702148
 31
0.0
  0
CIRCLE
  5
   2E5
  8
0
  6
CONTINUOUS
 62
     7
 10
-352.660281646498
 20
36.1854090514955
 30
0.0
 40
0.0625
  0
LINE
  5
   2E6
  8
0
  6
DASHDOT
 62
     7
 10
-361.694776010388
 20
17.4071598052979
 30
0.0
 11
-308.69862515766
 21
17.4071598052979
 31
0.0
  0
TEXT
  5
   2E7
  8
0
  6
CONTINUOUS
 62
     1
 10
-474.185592828929
 20
-121.890064760997
 30
0.0
 40
2.00000008940697
  1
NB: FORATURA PER FISSAGGIOO INTERRUTTORE
 50
359.999999844103
 41
0.749999861419206
  0
TEXT
  5
   2E8
  8
0
  6
CONTINUOUS
 62
     1
 10
-474.185592697795
 20
-124.890065213662
 30
0.0
 40
2.00000008940697
  1
    VEDERE VARIE ESECUZIONI
 50
359.999999844103
 41
0.749999861419206
  0
TEXT
  5
   2E9
  8
0
  6
CONTINUOUS
 62
     1
 10
-473.979625100378
 20
-114.000326122733
 30
0.0
 40
2.00000008940697
  1
NOTE: FIXING HOLES: SEE RELEVANT EXECUTION
 50
359.999999844103
 41
0.749999861419206
 72
     1
 11
-442.62962949276
 21
-113.000326163173
 31
0.0
 73
     2
  0
TEXT
  5
   2EA
  8
0
  6
CONTINUOUS
 62
     7
 10
-343.578922482434
 20
43.9450375471853
 30
0.0
 40
3.00000002980232
  1
=   =
 50
359.999999844103
 41
0.916666604744064
 72
     2
 11
-330.37892324736
 21
43.9450375113356
 31
0.0
  0
TEXT
  5
   2EB
  8
0
  6
CONTINUOUS
 62
     7
 10
-344.79527192573
 20
52.4653183288292
 30
0.0
 40
3.00000002980232
  1
=    =
 50
359.999999844103
 41
0.916666604744064
 72
     2
 11
-328.845272849106
 21
52.4653182855108
 31
0.0
  0
TEXT
  5
   2EC
  8
0
  6
CONTINUOUS
 62
     7
 10
-362.887616094725
 20
7.1432603050322
 30
0.0
 40
3.00000002980232
  1
=     =
 50
449.999999844103
 41
0.916666604744064
 72
     2
 11
-362.887616043961
 21
25.8432592232079
 31
0.0
  0
TEXT
  5
   2ED
  8
0
  6
CONTINUOUS
 62
     7
 10
-372.600735849438
 20
5.05137314787018
 30
0.0
 40
3.00000002980232
  1
=       =
 50
449.999999844103
 41
0.916666604744064
 72
     2
 11
-372.600735783744
 21
29.2513717491478
 31
0.0
  0
INSERT
  5
   2EE
  8
0
  6
CONTINUOUS
 62
     7
  2
*UDIM365
 10
0.0
 20
0.0
 30
0.0
  0
INSERT
  5
   2EF
  8
0
  6
CONTINUOUS
 62
     7
  2
*UDIM366
 10
0.0
 20
0.0
 30
0.0
  0
INSERT
  5
   2F0
  8
0
  6
CONTINUOUS
 62
     7
  2
*UDIM367
 10
0.0
 20
0.0
 30
0.0
  0
INSERT
  5
   2F1
  8
0
  6
CONTINUOUS
 62
     7
  2
*UDIM368
 10
0.0
 20
0.0
 30
0.0
  0
INSERT
  5
   2F2
  8
0
  6
CONTINUOUS
 62
     7
  2
*UDIM369
 10
0.0
 20
0.0
 30
0.0
  0
TEXT
  5
   2F3
  8
0
  6
CONTINUOUS
 62
     7
 10
-337.520686398052
 20
-16.037744591231
 30
0.0
 40
3.00000002980232
  1
Y
 50
359.999999844103
 41
0.916666604744064
 72
     2
 11
-335.320686529182
 21
-16.037744597206
 31
0.0
  0
TEXT
  5
   2F4
  8
0
  6
CONTINUOUS
 62
     7
 10
-337.350280771755
 20
61.837629249101
 30
0.0
 40
3.00000002980232
  1
Y
 50
359.999999844103
 41
0.916666604744064
 72
     2
 11
-335.150280902885
 21
61.837629243126
 31
0.0
  0
TEXT
  5
   2F5
  8
0
  6
CONTINUOUS
 62
     7
 10
-306.847671399616
 20
15.9985152983716
 30
0.0
 40
3.00000002980232
  1
X
 50
359.999999844103
 41
0.916666604744064
 72
     2
 11
-304.647671530746
 21
15.9985152923967
 31
0.0
  0
TEXT
  5
   2F6
  8
0
  6
CONTINUOUS
 62
     7
 10
-385.745479474567
 20
15.9985152983716
 30
0.0
 40
3.00000002980232
  1
X
 50
359.999999844103
 41
0.916666604744064
 72
     2
 11
-383.545479605697
 21
15.9985152923967
 31
0.0
  0
TEXT
  5
   2F7
  8
0
  6
CONTINUOUS
 62
     1
 10
-455.971220344041
 20
-150.188894288196
 30
0.0
 40
2.00000008940697
  1
M 3076 95-01-16
 50
359.999999844103
 41
0.749999861419206
 72
     1
 11
-444.871221899986
 21
-149.188894273639
 31
0.0
 73
     2
  0
TEXT
  5
   2F8
  8
0
  6
CONTINUOUS
 62
     1
 10
-462.257568350166
 20
-134.968374168233
 30
0.0
 40
2.00000008940697
  1
93-04-05 ROTA S.
 50
359.999999844103
 41
0.749999861419206
 72
     2
 11
-438.557571677595
 21
-134.9683742326
 31
0.0
  0
TEXT
  5
   2F9
  8
0
  6
CONTINUOUS
 62
     1
 10
-360.440429669082
 20
-160.981756120117
 30
0.0
 40
4.00000017881393
  1
601812/481
 50
359.999999844103
 41
0.937499973922969
 72
     2
 11
-323.69042906931
 21
-160.981756219926
 31
0.0
  0
TEXT
  5
   2FA
  8
0
  6
CONTINUOUS
 62
     1
 10
-342.354736314311
 20
-152.000173481768
 30
0.0
 40
3.00000002980232
  1
S3-4-5
 50
359.999999844103
 41
0.916666604744064
 72
     2
 11
-326.404737237687
 21
-152.000173525086
 31
0.0
  0
TEXT
  5
   2FB
  8
0
  6
CONTINUOUS
 62
     1
 10
-372.389155862967
 20
-133.689901315315
 30
0.0
 40
2.00000008940697
  1
3-4POLE LOW VOLTAGE M.C.C.B SERIES ISOMAX
 50
359.999999844103
 41
0.749999861419206
 72
     1
 11
-341.789160150296
 21
-132.689901353717
 31
0.0
 73
     2
  0
TEXT
  5
   2FC
  8
0
  6
CONTINUOUS
 62
     1
 10
-370.139156142352
 20
-136.689901321426
 30
0.0
 40
2.00000008940697
  1
FIXED VERSION WITH OPERATING MECHANISM
 50
359.999999844103
 41
0.749999861419206
 72
     1
 11
-341.789160114521
 21
-135.689901353717
 31
0.0
 73
     2
  0
TEXT
  5
   2FD
  8
0
  6
CONTINUOUS
 62
     1
 10
-380.40551608179
 20
-141.76016802672
 30
0.0
 40
2.00000008940697
  1
INTERR.AUTOMATICO SERIE ISOMAX CON COMANDO MOTORE
 50
359.999999844103
 41
0.718749937042597
 72
     1
 11
-345.330517593032
 21
-140.760168077276
 31
0.0
 73
     2
  0
TEXT
  5
   2FE
  8
0
  6
CONTINUOUS
 62
     1
 10
-366.749266631724
 20
-144.760168063808
 30
0.0
 40
2.00000008940697
  1
TRIP. TETRAP. ESECUZIONE FISSA
 50
359.999999844103
 41
0.718749937042597
 72
     1
 11
-345.330517557257
 21
-143.760168077276
 31
0.0
 73
     2
  0
ENDSEC
  0
EOF
