  0
SECTION
  2
HEADER
  9
$ACADVER
  1
AC1009
  9
$INSBASE
 10
0.0
 20
0.0
 30
0.0
  9
$EXTMIN
 10
-430.95925675656878
 20
348.1688309999999
 30
0.0
  9
$EXTMAX
 10
303.81411700000001
 20
834.08280195275609
 30
0.0
  9
$LIMMIN
 10
0.0
 20
0.0
  9
$LIMMAX
 10
420.0
 20
297.0
  9
$ORTHOMODE
 70
     0
  9
$REGENMODE
 70
     1
  9
$FILLMODE
 70
     1
  9
$QTEXTMODE
 70
     0
  9
$MIRRTEXT
 70
     1
  9
$DRAGMODE
 70
     2
  9
$LTSCALE
 40
1.0
  9
$OSMODE
 70
    47
  9
$ATTMODE
 70
     1
  9
$TEXTSIZE
 40
0.0
  9
$TRACEWID
 40
1.0
  9
$TEXTSTYLE
  7
STANDARD
  9
$CLAYER
  8
0
  9
$CELTYPE
  6
BYLAYER
  9
$CECOLOR
 62
   256
  9
$DIMSCALE
 40
1.0
  9
$DIMASZ
 40
2.5
  9
$DIMEXO
 40
0.625
  9
$DIMDLI
 40
3.75
  9
$DIMRND
 40
0.0
  9
$DIMDLE
 40
0.0
  9
$DIMEXE
 40
1.25
  9
$DIMTP
 40
0.0
  9
$DIMTM
 40
0.0
  9
$DIMTXT
 40
2.5
  9
$DIMCEN
 40
2.5
  9
$DIMTSZ
 40
0.0
  9
$DIMTOL
 70
     0
  9
$DIMLIM
 70
     0
  9
$DIMTIH
 70
     0
  9
$DIMTOH
 70
     0
  9
$DIMSE1
 70
     0
  9
$DIMSE2
 70
     0
  9
$DIMTAD
 70
     1
  9
$DIMZIN
 70
     8
  9
$DIMBLK
  1

  9
$DIMASO
 70
     1
  9
$DIMSHO
 70
     1
  9
$DIMPOST
  1

  9
$DIMAPOST
  1

  9
$DIMALT
 70
     0
  9
$DIMALTD
 70
     3
  9
$DIMALTF
 40
0.03937
  9
$DIMLFAC
 40
1.0
  9
$DIMTOFL
 70
     1
  9
$DIMTVP
 40
0.0
  9
$DIMTIX
 70
     0
  9
$DIMSOXD
 70
     0
  9
$DIMSAH
 70
     0
  9
$DIMBLK1
  1

  9
$DIMBLK2
  1

  9
$DIMSTYLE
  2
STANDARD
  9
$DIMCLRD
 70
     0
  9
$DIMCLRE
 70
     0
  9
$DIMCLRT
 70
     0
  9
$DIMTFAC
 40
1.0
  9
$DIMGAP
 40
0.625
  9
$LUNITS
 70
     2
  9
$LUPREC
 70
     4
  9
$SKETCHINC
 40
1.0
  9
$FILLETRAD
 40
2.5
  9
$AUNITS
 70
     0
  9
$AUPREC
 70
     0
  9
$MENU
  1
.
  9
$ELEVATION
 40
0.0
  9
$PELEVATION
 40
0.0
  9
$THICKNESS
 40
0.0
  9
$LIMCHECK
 70
     0
  9
$BLIPMODE
 70
     0
  9
$CHAMFERA
 40
2.5
  9
$CHAMFERB
 40
2.5
  9
$SKPOLY
 70
     0
  9
$TDCREATE
 40
2311942.6599061568
  9
$TDUPDATE
 40
2454455.4000551272
  9
$TDINDWG
 40
0.0003681713
  9
$TDUSRTIMER
 40
0.0003679861
  9
$USRTIMER
 70
     1
  9
$ANGBASE
 50
0.0
  9
$ANGDIR
 70
     0
  9
$PDMODE
 70
     0
  9
$PDSIZE
 40
0.0
  9
$PLINEWID
 40
0.0
  9
$COORDS
 70
     1
  9
$SPLFRAME
 70
     0
  9
$SPLINETYPE
 70
     6
  9
$SPLINESEGS
 70
     8
  9
$ATTDIA
 70
     0
  9
$ATTREQ
 70
     1
  9
$HANDLING
 70
 22529
  9
$HANDSEED
  5
848
  9
$SURFTAB1
 70
     6
  9
$SURFTAB2
 70
     6
  9
$SURFTYPE
 70
     6
  9
$SURFU
 70
     6
  9
$SURFV
 70
     6
  9
$UCSNAME
  2

  9
$UCSORG
 10
0.0
 20
0.0
 30
0.0
  9
$UCSXDIR
 10
1.0
 20
0.0
 30
0.0
  9
$UCSYDIR
 10
0.0
 20
1.0
 30
0.0
  9
$PUCSNAME
  2

  9
$PUCSORG
 10
0.0
 20
0.0
 30
0.0
  9
$PUCSXDIR
 10
1.0
 20
0.0
 30
0.0
  9
$PUCSYDIR
 10
0.0
 20
1.0
 30
0.0
  9
$USERI1
 70
     0
  9
$USERI2
 70
     0
  9
$USERI3
 70
     0
  9
$USERI4
 70
     0
  9
$USERI5
 70
     0
  9
$USERR1
 40
0.0
  9
$USERR2
 40
0.0
  9
$USERR3
 40
0.0
  9
$USERR4
 40
0.0
  9
$USERR5
 40
0.0
  9
$WORLDVIEW
 70
     1
  9
$SHADEDGE
 70
     3
  9
$SHADEDIF
 70
    70
  9
$TILEMODE
 70
     1
  9
$MAXACTVP
 70
    48
  9
$PLIMCHECK
 70
     0
  9
$PEXTMIN
 10
0.0
 20
0.0
 30
0.0
  9
$PEXTMAX
 10
376.859283
 20
176.50418099999999
 30
2.0
  9
$PLIMMIN
 10
0.0
 20
0.0
  9
$PLIMMAX
 10
420.0
 20
297.0
  9
$UNITMODE
 70
     0
  9
$VISRETAIN
 70
     0
  9
$PLINEGEN
 70
     0
  9
$PSLTSCALE
 70
     1
  0
ENDSEC
  0
SECTION
  2
TABLES
  0
TABLE
  2
VPORT
 70
     2
  0
VPORT
  2
*ACTIVE
 70
     0
 10
0.0
 20
0.0
 11
1.0
 21
1.0
 12
-63.572569878284419
 22
591.12581647637796
 13
0.0
 23
0.0
 14
1.0
 24
1.0
 15
0.0
 25
0.0
 16
0.0
 26
0.0
 36
1.0
 17
0.0
 27
0.0
 37
0.0
 40
489.75013388133061
 41
1.550724637681159
 42
50.0
 43
0.0
 44
0.0
 50
0.0
 51
0.0
 71
     0
 72
   100
 73
     1
 74
     1
 75
     0
 76
     0
 77
     0
 78
     0
  0
ENDTAB
  0
TABLE
  2
LTYPE
 70
     8
  0
LTYPE
  2
CONTINUOUS
 70
     0
  3
Solid line
 72
    65
 73
     0
 40
0.0
  0
LTYPE
  2
DASHED
 70
     0
  3
__ __ __ __ __ __ __ __ __ __ __ __ __ __ __ __
 72
    65
 73
     2
 40
15.0
 49
12.0
 49
-3.0
  0
LTYPE
  2
DASHDOT
 70
     0
  3
 __ . __ . __ . __ . __ . __ . __ . 
 72
    65
 73
     4
 40
18.5
 49
12.0
 49
-3.0
 49
0.5
 49
-3.0
  0
LTYPE
  2
DOT
 70
     0
  3
 . . . . . . . . . . . . . . . .
 72
    65
 73
     2
 40
3.5
 49
0.5
 49
-3.0
  0
LTYPE
  2
DASHSPACE
 70
     0
  3
__    __    __    __    __   
 72
    65
 73
     2
 40
30.0
 49
12.0
 49
-18.0
  0
LTYPE
  2
DASHDOT2
 70
     0
  3
__ . . __ . . __ . . __ 
 72
    65
 73
     6
 40
22.0
 49
12.0
 49
-3.0
 49
0.5
 49
-3.0
 49
0.5
 49
-3.0
  0
LTYPE
  2
PHANTOM
 70
     0
  3
____________    ____    ____   _
 72
    65
 73
     6
 40
20.0
 49
10.0
 49
-2.0
 49
2.0
 49
-2.0
 49
2.0
 49
-2.0
  0
LTYPE
  2
AXES
 70
     0
  3
________  __  ________  __  _____
 72
    65
 73
     4
 40
24.0
 49
15.0
 49
-3.0
 49
3.0
 49
-3.0
  0
ENDTAB
  0
TABLE
  2
LAYER
 70
     1
  0
LAYER
  2
0
 70
     0
 62
     7
  6
CONTINUOUS
  0
ENDTAB
  0
TABLE
  2
STYLE
 70
     2
  0
STYLE
  2
STANDARD
 70
     0
 40
0.0
 41
1.0
 50
0.0
 71
     0
 42
0.0
  3
isocp.shx
  4

  0
STYLE
  2
GDT
 70
     0
 40
0.0
 41
1.0
 50
0.0
 71
     0
 42
0.0
  3
amgdt.shx
  4

  0
ENDTAB
  0
TABLE
  2
VIEW
 70
     0
  0
ENDTAB
  0
TABLE
  2
UCS
 70
     0
  0
ENDTAB
  0
TABLE
  2
APPID
 70
     1
  0
APPID
  2
ACAD
 70
     0
  0
ENDTAB
  0
TABLE
  2
DIMSTYLE
 70
     1
  0
DIMSTYLE
  2
STANDARD
 70
     0
  3

  4

  5

  6

  7

 40
1.0
 41
2.5
 42
0.625
 43
3.75
 44
1.25
 45
0.0
 46
0.0
 47
0.0
 48
0.0
140
2.5
141
2.5
142
0.0
143
0.03937
144
1.0
145
0.0
146
1.0
147
0.625
 71
     0
 72
     0
 73
     0
 74
     0
 75
     0
 76
     0
 77
     1
 78
     8
170
     0
171
     3
172
     1
173
     0
174
     0
175
     0
176
     0
177
     0
178
     0
  0
ENDTAB
  0
ENDSEC
  0
SECTION
  2
BLOCKS
  0
BLOCK
  8
0
  2
$MODEL_SPACE
 70
     0
 10
0.0
 20
0.0
 30
0.0
  3
$MODEL_SPACE
  1

  0
ENDBLK
  5
E
  8
0
  0
BLOCK
 67
     1
  8
0
  2
$PAPER_SPACE
 70
     0
 10
0.0
 20
0.0
 30
0.0
  3
$PAPER_SPACE
  1

  0
ENDBLK
  5
10
 67
     1
  8
0
  0
BLOCK
  8
0
  2
BLOCK0
 70
     0
 10
0.0
 20
0.0
 30
0.0
  3
BLOCK0
  1

  0
LINE
  5
559
  8
0
 62
     2
 10
191.70007299999989
 20
43.400050999999991
 30
0.0
 11
191.70007299999989
 21
60.400050999999998
 31
0.0
  0
LINE
  5
55A
  8
0
 62
     2
 10
203.70007299999989
 20
43.400050999999991
 30
0.0
 11
203.70007299999989
 21
60.400050999999998
 31
0.0
  0
LINE
  5
55B
  8
0
 62
     2
 10
202.700073
 20
42.400050999999998
 30
0.0
 11
192.70007299999989
 21
42.400050999999998
 31
0.0
  0
LINE
  5
55C
  8
0
 62
     2
 10
202.700073
 20
61.400050999999991
 30
0.0
 11
192.70007299999989
 21
61.400050999999991
 31
0.0
  0
LINE
  5
55D
  8
0
 62
     2
 10
192.70007299999989
 20
42.400050999999998
 30
0.0
 11
191.70007299999989
 21
43.400050999999991
 31
0.0
  0
LINE
  5
55E
  8
0
 62
     2
 10
202.700073
 20
42.400050999999998
 30
0.0
 11
203.70007299999989
 21
43.400050999999991
 31
0.0
  0
LINE
  5
55F
  8
0
 62
     2
 10
191.70007299999989
 20
60.400050999999998
 30
0.0
 11
192.70007299999989
 21
61.400050999999991
 31
0.0
  0
LINE
  5
560
  8
0
 62
     2
 10
203.70007299999989
 20
60.400050999999998
 30
0.0
 11
202.700073
 21
61.400050999999991
 31
0.0
  0
LINE
  5
561
  8
0
 62
     2
 10
192.70007299999989
 20
42.400050999999998
 30
0.0
 11
192.70007299999989
 21
61.400050999999991
 31
0.0
  0
LINE
  5
562
  8
0
 62
     2
 10
202.700073
 20
42.400050999999998
 30
0.0
 11
202.700073
 21
61.400050999999991
 31
0.0
  0
LINE
  5
563
  8
0
 62
     2
 10
203.70007299999989
 20
43.400050999999991
 30
0.0
 11
191.70007299999989
 21
43.400050999999991
 31
0.0
  0
LINE
  5
564
  8
0
 62
     2
 10
203.70007299999989
 20
60.400050999999998
 30
0.0
 11
191.70007299999989
 21
60.400050999999998
 31
0.0
  0
LINE
  5
565
  8
0
 62
   230
 10
202.200073
 20
42.400050999999998
 30
0.0
 11
193.200073
 21
42.400050999999998
 31
0.0
  0
LINE
  5
566
  8
0
 62
   230
 10
206.200073
 20
37.400050999999991
 30
0.0
 11
189.200073
 21
37.400050999999991
 31
0.0
  0
LINE
  5
567
  8
0
 62
   230
 10
189.200073
 20
37.400050999999991
 30
0.0
 11
189.200073
 21
40.311584000000003
 31
0.0
  0
LINE
  5
568
  8
0
 62
   230
 10
206.200073
 20
37.400050999999991
 30
0.0
 11
206.200073
 21
40.311584000000003
 31
0.0
  0
LINE
  5
569
  8
0
 62
   230
 10
206.200073
 20
39.900050999999991
 30
0.0
 11
189.200073
 21
39.900050999999991
 31
0.0
  0
LINE
  5
56A
  8
0
 62
   230
 10
206.200073
 20
40.311584000000003
 30
0.0
 11
204.700073
 21
40.311584000000003
 31
0.0
  0
LINE
  5
56B
  8
0
 62
   230
 10
193.200073
 20
40.311584000000003
 30
0.0
 11
193.200073
 21
42.400050999999998
 31
0.0
  0
LINE
  5
56C
  8
0
 62
   230
 10
202.200073
 20
40.311584000000003
 30
0.0
 11
202.200073
 21
42.400050999999998
 31
0.0
  0
ARC
  5
56D
  8
0
 62
   230
 10
197.700073
 20
64.708855
 30
0.0
 40
24.808805
 50
259.54943300000002
 51
280.45057700000001
  0
LINE
  5
56E
  8
0
 62
   230
 10
193.200073
 20
40.311584000000003
 30
0.0
 11
192.70007299999989
 21
40.311584000000003
 31
0.0
  0
ARC
  5
56F
  8
0
 62
   230
 10
203.70007299999989
 20
41.061584000000003
 30
0.0
 40
1.25
 50
216.86990299999991
 51
248.314728
  0
ARC
  5
570
  8
0
 62
   230
 10
191.70007299999989
 20
41.061584000000003
 30
0.0
 40
1.25
 50
216.86990299999991
 51
248.314728
  0
ARC
  5
571
  8
0
 62
   230
 10
191.70007299999989
 20
41.061584000000003
 30
0.0
 40
1.25
 50
291.68526900000001
 51
323.13009199999988
  0
ARC
  5
572
  8
0
 62
   230
 10
203.70007299999989
 20
41.061584000000003
 30
0.0
 40
1.25
 50
291.68526900000001
 51
323.13009199999988
  0
LINE
  5
573
  8
0
 62
   230
 10
190.700073
 20
40.311584000000003
 30
0.0
 11
189.200073
 21
40.311584000000003
 31
0.0
  0
LINE
  5
574
  8
0
 62
   230
 10
202.700073
 20
40.311584000000003
 30
0.0
 11
202.200073
 21
40.311584000000003
 31
0.0
  0
ENDBLK
  5
575
  8
0
  0
BLOCK
  8
0
  2
BLOCK1
 70
     0
 10
0.0
 20
0.0
 30
0.0
  3
BLOCK1
  1

  0
TEXT
  5
577
  8
0
 62
     3
 10
341.39041099999992
 20
36.566696
 30
0.0
 40
3.5
  1
145.5
 50
270.0
 41
1.5447994082096019
 72
     5
 11
341.39041099999992
 21
20.933364999999991
 31
0.0
  0
LINE
  5
578
  8
0
 62
     7
 10
263.5
 20
-44.0
 30
0.0
 11
342.39041099999992
 21
-44.0
 31
0.0
  0
LINE
  5
579
  8
0
 62
     7
 10
194.49996899999991
 20
101.5000609999999
 30
0.0
 11
342.39041099999992
 21
101.5000609999999
 31
0.0
  0
POLYLINE
  5
57A
  8
0
 62
     3
 66
     1
 10
0.0
 20
0.0
 30
0.0
  0
VERTEX
  5
7F0
  8
0
 62
     3
 10
339.872772
 20
-42.068150000000003
 30
0.0
  0
VERTEX
  5
7F1
  8
0
 62
     3
 10
340.39041099999992
 20
-44.0
 30
0.0
  0
VERTEX
  5
7F2
  8
0
 62
     3
 10
340.90805099999989
 20
-42.068150000000003
 30
0.0
  0
SEQEND
  5
7F3
  8
0
 62
     3
  0
POLYLINE
  5
57F
  8
0
 62
     3
 66
     1
 10
0.0
 20
0.0
 30
0.0
  0
VERTEX
  5
7F4
  8
0
 62
     3
 10
340.90805099999989
 20
99.568207000000015
 30
0.0
  0
VERTEX
  5
7F5
  8
0
 62
     3
 10
340.39041099999992
 20
101.5000609999999
 30
0.0
  0
VERTEX
  5
7F6
  8
0
 62
     3
 10
339.872772
 20
99.568207000000015
 30
0.0
  0
SEQEND
  5
7F7
  8
0
 62
     3
  0
LINE
  5
584
  8
0
 62
     7
 10
340.39041099999992
 20
-44.0
 30
0.0
 11
340.39041099999992
 21
101.5000609999999
 31
0.0
  0
ENDBLK
  5
585
  8
0
  0
BLOCK
  8
0
  2
BLOCK2
 70
     0
 10
0.0
 20
0.0
 30
0.0
  3
BLOCK2
  1

  0
TEXT
  5
587
  8
0
 62
     3
 10
373.359283
 20
60.06666899999999
 30
0.0
 40
3.5
  1
192.5
 50
270.0
 41
1.598139801212888
 72
     5
 11
373.359283
 21
44.433337999999999
 31
0.0
  0
LINE
  5
588
  8
0
 62
     7
 10
263.5
 20
-44.0
 30
0.0
 11
374.359283
 21
-44.0
 31
0.0
  0
LINE
  5
589
  8
0
 62
     7
 10
-3.5
 20
148.5
 30
0.0
 11
374.359283
 21
148.5
 31
0.0
  0
POLYLINE
  5
58A
  8
0
 62
     3
 66
     1
 10
0.0
 20
0.0
 30
0.0
  0
VERTEX
  5
7F8
  8
0
 62
     3
 10
372.87692299999992
 20
146.5681459999999
 30
0.0
  0
VERTEX
  5
7F9
  8
0
 62
     3
 10
372.359283
 20
148.5
 30
0.0
  0
VERTEX
  5
7FA
  8
0
 62
     3
 10
371.84164399999992
 20
146.5681459999999
 30
0.0
  0
SEQEND
  5
7FB
  8
0
 62
     3
  0
POLYLINE
  5
58F
  8
0
 62
     3
 66
     1
 10
0.0
 20
0.0
 30
0.0
  0
VERTEX
  5
7FC
  8
0
 62
     3
 10
371.84164399999992
 20
-42.068150000000003
 30
0.0
  0
VERTEX
  5
7FD
  8
0
 62
     3
 10
372.359283
 20
-44.0
 30
0.0
  0
VERTEX
  5
7FE
  8
0
 62
     3
 10
372.87692299999992
 20
-42.068150000000003
 30
0.0
  0
SEQEND
  5
7FF
  8
0
 62
     3
  0
LINE
  5
594
  8
0
 62
     7
 10
372.359283
 20
-44.0
 30
0.0
 11
372.359283
 21
148.5
 31
0.0
  0
ENDBLK
  5
595
  8
0
  0
BLOCK
  8
0
  2
BLOCK3
 70
     0
 10
0.0
 20
0.0
 30
0.0
  3
BLOCK3
  1

  0
TEXT
  5
597
  8
0
 62
     3
 10
323.86032099999989
 20
-19.083334000000001
 30
0.0
 40
3.5
  1
44
 50
270.0
 41
1.1494250246305411
 72
     5
 11
323.86032099999989
 21
-24.916665999999999
 31
0.0
  0
LINE
  5
598
  8
0
 62
     3
 10
263.5
 20
-44.0
 30
0.0
 11
324.860321
 21
-44.0
 31
0.0
  0
LINE
  5
599
  8
0
 62
     3
 10
311.5
 20
0.0
 30
0.0
 11
324.860321
 21
0.0
 31
0.0
  0
POLYLINE
  5
59A
  8
0
 62
     3
 66
     1
 10
0.0
 20
0.0
 30
0.0
  0
VERTEX
  5
800
  8
0
 62
     3
 10
323.37795999999997
 20
-1.9318519999999999
 30
0.0
  0
VERTEX
  5
801
  8
0
 62
     3
 10
322.860321
 20
0.0
 30
0.0
  0
VERTEX
  5
802
  8
0
 62
     3
 10
322.34268199999991
 20
-1.9318519999999999
 30
0.0
  0
SEQEND
  5
803
  8
0
 62
     3
  0
POLYLINE
  5
59F
  8
0
 62
     3
 66
     1
 10
0.0
 20
0.0
 30
0.0
  0
VERTEX
  5
804
  8
0
 62
     3
 10
322.34268199999991
 20
-42.068150000000003
 30
0.0
  0
VERTEX
  5
805
  8
0
 62
     3
 10
322.860321
 20
-44.0
 30
0.0
  0
VERTEX
  5
806
  8
0
 62
     3
 10
323.37795999999997
 20
-42.068150000000003
 30
0.0
  0
SEQEND
  5
807
  8
0
 62
     3
  0
LINE
  5
5A4
  8
0
 62
     3
 10
322.860321
 20
-44.0
 30
0.0
 11
322.860321
 21
0.0
 31
0.0
  0
ENDBLK
  5
5A5
  8
0
  0
BLOCK
  8
0
  2
BLOCK4
 70
     0
 10
0.0
 20
0.0
 30
0.0
  3
BLOCK4
  1

  0
TEXT
  5
5A7
  8
0
 62
     3
 10
357.24432400000001
 20
47.056175000000003
 30
0.0
 40
3.5
  1
178
 50
270.0
 41
1.485713959183673
 72
     5
 11
357.24432400000001
 21
37.956176999999997
 31
0.0
  0
LINE
  5
5A8
  8
0
 62
     3
 10
263.5
 20
-44.0
 30
0.0
 11
358.24432399999989
 21
-44.0
 31
0.0
  0
LINE
  5
5A9
  8
0
 62
     3
 10
157.54956100000001
 20
133.99511699999991
 30
0.0
 11
358.24432399999989
 21
133.99511699999991
 31
0.0
  0
POLYLINE
  5
5AA
  8
0
 62
     3
 66
     1
 10
0.0
 20
0.0
 30
0.0
  0
VERTEX
  5
808
  8
0
 62
     3
 10
356.76196299999992
 20
132.06326299999989
 30
0.0
  0
VERTEX
  5
809
  8
0
 62
     3
 10
356.24432400000001
 20
133.99511699999991
 30
0.0
  0
VERTEX
  5
80A
  8
0
 62
     3
 10
355.72671500000001
 20
132.06326299999989
 30
0.0
  0
SEQEND
  5
80B
  8
0
 62
     3
  0
POLYLINE
  5
5AF
  8
0
 62
     3
 66
     1
 10
0.0
 20
0.0
 30
0.0
  0
VERTEX
  5
80C
  8
0
 62
     3
 10
355.72671500000001
 20
-42.068150000000003
 30
0.0
  0
VERTEX
  5
80D
  8
0
 62
     3
 10
356.24432400000001
 20
-44.0
 30
0.0
  0
VERTEX
  5
80E
  8
0
 62
     3
 10
356.76196299999992
 20
-42.068150000000003
 30
0.0
  0
SEQEND
  5
80F
  8
0
 62
     3
  0
LINE
  5
5B4
  8
0
 62
     3
 10
356.24432400000001
 20
-44.0
 30
0.0
 11
356.24432400000001
 21
133.99511699999991
 31
0.0
  0
ENDBLK
  5
5B5
  8
0
  0
BLOCK
  8
0
  2
BLOCK5
 70
     0
 10
0.0
 20
0.0
 30
0.0
  3
BLOCK5
  1

  0
LINE
  5
5B7
  8
0
 62
     3
 10
66.090491999999998
 20
38.513320999999998
 30
0.0
 11
66.000022999999985
 21
38.422854999999998
 31
0.0
  0
LINE
  5
5B8
  8
0
 62
     3
 10
66.820366000000007
 20
38.182532999999999
 30
0.0
 11
66.000022999999985
 21
37.362194000000002
 31
0.0
  0
LINE
  5
5B9
  8
0
 62
     3
 10
67.550231999999994
 20
37.851745999999991
 30
0.0
 11
66.000022999999985
 21
36.301536999999989
 31
0.0
  0
LINE
  5
5BA
  8
0
 62
     3
 10
68.280106000000004
 20
37.520953999999989
 30
0.0
 11
66.000022999999985
 21
35.240875000000003
 31
0.0
  0
LINE
  5
5BB
  8
0
 62
     3
 10
69.009979000000001
 20
37.190165999999991
 30
0.0
 11
66.000022999999985
 21
34.180213999999999
 31
0.0
  0
LINE
  5
5BC
  8
0
 62
     3
 10
69.739844999999988
 20
36.859375
 30
0.0
 11
66.000022999999985
 21
33.119556000000003
 31
0.0
  0
LINE
  5
5BD
  8
0
 62
     3
 10
70.000022999999999
 20
36.058894999999993
 30
0.0
 11
66.000022999999985
 21
32.058895
 31
0.0
  0
LINE
  5
5BE
  8
0
 62
     3
 10
70.000022999999999
 20
34.998233999999997
 30
0.0
 11
66.000022999999985
 21
30.998234
 31
0.0
  0
LINE
  5
5BF
  8
0
 62
     3
 10
70.000022999999999
 20
33.937571999999989
 30
0.0
 11
66.000022999999985
 21
29.937573999999991
 31
0.0
  0
LINE
  5
5C0
  8
0
 62
     3
 10
70.000022999999999
 20
32.876914999999997
 30
0.0
 11
66.000022999999985
 21
28.876915
 31
0.0
  0
LINE
  5
5C1
  8
0
 62
     3
 10
70.000022999999999
 20
31.81625399999999
 30
0.0
 11
66.000022999999985
 21
27.81625399999999
 31
0.0
  0
LINE
  5
5C2
  8
0
 62
     3
 10
70.000022999999999
 20
30.755593999999991
 30
0.0
 11
66.000022999999985
 21
26.755593999999999
 31
0.0
  0
LINE
  5
5C3
  8
0
 62
     3
 10
70.000022999999999
 20
29.694932999999999
 30
0.0
 11
66.000022999999985
 21
25.694935000000001
 31
0.0
  0
LINE
  5
5C4
  8
0
 62
     3
 10
70.000022999999999
 20
28.634273999999991
 30
0.0
 11
66.36580699999999
 21
25.000050999999999
 31
0.0
  0
LINE
  5
5C5
  8
0
 62
     3
 10
70.000022999999999
 20
27.573613999999999
 30
0.0
 11
67.426459999999992
 21
25.000050999999999
 31
0.0
  0
LINE
  5
5C6
  8
0
 62
     3
 10
70.000022999999999
 20
26.512953
 30
0.0
 11
68.487121999999999
 21
25.000050999999999
 31
0.0
  0
LINE
  5
5C7
  8
0
 62
     3
 10
70.000022999999999
 20
25.452293000000001
 30
0.0
 11
69.547782999999995
 21
25.000050999999999
 31
0.0
  0
ENDBLK
  5
5C8
  8
0
  0
BLOCK
  8
0
  2
BLOCK6
 70
     0
 10
0.0
 20
0.0
 30
0.0
  3
BLOCK6
  1

  0
LINE
  5
5CA
  8
0
 62
     3
 10
73.033066000000005
 20
20.000053000000001
 30
0.0
 11
72.500022999999999
 21
19.467012
 31
0.0
  0
LINE
  5
5CB
  8
0
 62
     3
 10
74.093727000000001
 20
20.000053000000001
 30
0.0
 11
72.500022999999999
 21
18.406351000000001
 31
0.0
  0
LINE
  5
5CC
  8
0
 62
     3
 10
75.154387999999997
 20
20.000053000000001
 30
0.0
 11
72.500022999999999
 21
17.345692
 31
0.0
  0
LINE
  5
5CD
  8
0
 62
     3
 10
75.491248999999996
 20
19.276253000000001
 30
0.0
 11
72.500022999999999
 21
16.285032000000001
 31
0.0
  0
LINE
  5
5CE
  8
0
 62
     3
 10
75.491248999999996
 20
18.215592999999991
 30
0.0
 11
72.500022999999999
 21
15.224372000000001
 31
0.0
  0
LINE
  5
5CF
  8
0
 62
     3
 10
75.491248999999996
 20
17.154931999999999
 30
0.0
 11
72.918198000000004
 21
14.581882
 31
0.0
  0
LINE
  5
5D0
  8
0
 62
     3
 10
75.491248999999996
 20
16.094273000000001
 30
0.0
 11
73.448524000000006
 21
14.051551999999999
 31
0.0
  0
LINE
  5
5D1
  8
0
 62
     3
 10
75.491248999999996
 20
15.033612
 30
0.0
 11
73.978859
 21
13.521222
 31
0.0
  0
LINE
  5
5D2
  8
0
 62
     3
 10
75.491248999999996
 20
13.972953
 30
0.0
 11
74.509186
 21
12.990890999999991
 31
0.0
  0
LINE
  5
5D3
  8
0
 62
     3
 10
75.491248999999996
 20
12.912292000000001
 30
0.0
 11
75.039519999999996
 21
12.460561999999991
 31
0.0
  0
ENDBLK
  5
5D4
  8
0
  0
BLOCK
  8
0
  2
BLOCK7
 70
     0
 10
0.0
 20
0.0
 30
0.0
  3
BLOCK7
  1

  0
LINE
  5
5D6
  8
0
 62
     6
 10
208.70637499999989
 20
24.638760000000001
 30
0.0
 11
208.34509299999999
 21
25.000053000000001
 31
0.0
  0
LINE
  5
5D7
  8
0
 62
     6
 10
208.70637499999989
 20
22.517437000000001
 30
0.0
 11
206.22376999999989
 21
25.000050999999999
 31
0.0
  0
LINE
  5
5D8
  8
0
 62
     6
 10
208.70637499999989
 20
20.396115999999999
 30
0.0
 11
204.1024479999999
 21
25.000050999999999
 31
0.0
  0
LINE
  5
5D9
  8
0
 62
     6
 10
206.98112499999991
 20
20.000053000000001
 30
0.0
 11
202.70643599999991
 21
24.274750000000001
 31
0.0
  0
LINE
  5
5DA
  8
0
 62
     6
 10
204.859802
 20
20.000053000000001
 30
0.0
 11
202.70643599999991
 21
22.153428999999999
 31
0.0
  0
LINE
  5
5DB
  8
0
 62
     6
 10
202.73848000000001
 20
20.000053000000001
 30
0.0
 11
202.70643599999991
 21
20.032105999999999
 31
0.0
  0
ENDBLK
  5
5DC
  8
0
  0
BLOCK
  8
0
  2
BLOCK8
 70
     0
 10
0.0
 20
0.0
 30
0.0
  3
BLOCK8
  1

  0
LINE
  5
5DE
  8
0
 62
     6
 10
194.70643599999991
 20
23.789473000000001
 30
0.0
 11
193.49584999999999
 21
25.000050999999999
 31
0.0
  0
LINE
  5
5DF
  8
0
 62
     6
 10
194.70643599999991
 20
21.668151999999989
 30
0.0
 11
191.37454199999991
 21
25.000050999999999
 31
0.0
  0
LINE
  5
5E0
  8
0
 62
     6
 10
194.25320400000001
 20
20.000053000000001
 30
0.0
 11
189.25321999999991
 21
25.000050999999999
 31
0.0
  0
LINE
  5
5E1
  8
0
 62
     6
 10
192.13189700000001
 20
20.000053000000001
 30
0.0
 11
187.13189700000001
 21
25.000050999999999
 31
0.0
  0
LINE
  5
5E2
  8
0
 62
     6
 10
190.01057399999991
 20
20.000053000000001
 30
0.0
 11
185.01057399999999
 21
25.000050999999999
 31
0.0
  0
LINE
  5
5E3
  8
0
 62
     6
 10
187.88925199999991
 20
20.000053000000001
 30
0.0
 11
182.889252
 21
25.000050999999999
 31
0.0
  0
LINE
  5
5E4
  8
0
 62
     6
 10
185.76792900000001
 20
20.000053000000001
 30
0.0
 11
180.767944
 21
25.000050999999999
 31
0.0
  0
LINE
  5
5E5
  8
0
 62
     6
 10
183.64660599999999
 20
20.000053000000001
 30
0.0
 11
178.64662200000001
 21
25.000050999999999
 31
0.0
  0
LINE
  5
5E6
  8
0
 62
     6
 10
181.5252989999999
 20
20.000053000000001
 30
0.0
 11
178.2151639999999
 21
23.310192000000001
 31
0.0
  0
LINE
  5
5E7
  8
0
 62
     6
 10
179.40397599999989
 20
20.000053000000001
 30
0.0
 11
178.2151639999999
 21
21.188869
 31
0.0
  0
ENDBLK
  5
5E8
  8
0
  0
BLOCK
  8
0
  2
BLOCK9
 70
     0
 10
0.0
 20
0.0
 30
0.0
  3
BLOCK9
  1

  0
LINE
  5
5EA
  8
0
 62
     3
 10
180.15976000000001
 20
20.000053000000001
 30
0.0
 11
179.706436
 21
19.546731999999999
 31
0.0
  0
LINE
  5
5EB
  8
0
 62
     3
 10
181.22041299999989
 20
20.000053000000001
 30
0.0
 11
179.706436
 21
18.486073000000001
 31
0.0
  0
LINE
  5
5EC
  8
0
 62
     3
 10
182.28106699999989
 20
20.000053000000001
 30
0.0
 11
179.706436
 21
17.425412999999999
 31
0.0
  0
LINE
  5
5ED
  8
0
 62
     3
 10
183.341736
 20
20.000053000000001
 30
0.0
 11
179.706436
 21
16.364751999999999
 31
0.0
  0
LINE
  5
5EE
  8
0
 62
     3
 10
183.706436
 20
19.304092000000001
 30
0.0
 11
179.706436
 21
15.304092000000001
 31
0.0
  0
LINE
  5
5EF
  8
0
 62
     3
 10
183.706436
 20
18.243431000000001
 30
0.0
 11
179.706436
 21
14.243432
 31
0.0
  0
LINE
  5
5F0
  8
0
 62
     3
 10
183.706436
 20
17.182772
 30
0.0
 11
179.706436
 21
13.182772
 31
0.0
  0
LINE
  5
5F1
  8
0
 62
     3
 10
183.706436
 20
16.122111999999991
 30
0.0
 11
179.706436
 21
12.122112
 31
0.0
  0
LINE
  5
5F2
  8
0
 62
     3
 10
183.706436
 20
15.061451
 30
0.0
 11
179.706436
 21
11.061451999999999
 31
0.0
  0
LINE
  5
5F3
  8
0
 62
     3
 10
183.706436
 20
14.000792000000001
 30
0.0
 11
179.706436
 21
10.000792000000001
 31
0.0
  0
LINE
  5
5F4
  8
0
 62
     3
 10
183.706436
 20
12.94013099999999
 30
0.0
 11
179.706436
 21
8.9401309999999992
 31
0.0
  0
LINE
  5
5F5
  8
0
 62
     3
 10
183.706436
 20
11.879471000000001
 30
0.0
 11
179.706436
 21
7.8794719999999989
 31
0.0
  0
LINE
  5
5F6
  8
0
 62
     3
 10
183.706436
 20
10.818809999999999
 30
0.0
 11
179.706436
 21
6.8188110000000002
 31
0.0
  0
LINE
  5
5F7
  8
0
 62
     3
 10
183.706436
 20
9.7581509999999998
 30
0.0
 11
179.706436
 21
5.758151999999999
 31
0.0
  0
LINE
  5
5F8
  8
0
 62
     3
 10
183.706436
 20
8.6974910000000012
 30
0.0
 11
179.706436
 21
4.6974910000000003
 31
0.0
  0
LINE
  5
5F9
  8
0
 62
     3
 10
183.706436
 20
7.636830999999999
 30
0.0
 11
179.706436
 21
3.636830999999999
 31
0.0
  0
LINE
  5
5FA
  8
0
 62
     3
 10
183.706436
 20
6.5761699999999994
 30
0.0
 11
179.706436
 21
2.5761709999999991
 31
0.0
  0
LINE
  5
5FB
  8
0
 62
     3
 10
183.706436
 20
5.5155110000000001
 30
0.0
 11
179.706436
 21
1.5155110000000001
 31
0.0
  0
LINE
  5
5FC
  8
0
 62
     3
 10
183.706436
 20
4.4548500000000004
 30
0.0
 11
179.706436
 21
0.4548510000000001
 31
0.0
  0
LINE
  5
5FD
  8
0
 62
     3
 10
183.706436
 20
3.39419
 30
0.0
 11
180.31231699999989
 21
0.000076
 31
0.0
  0
LINE
  5
5FE
  8
0
 62
     3
 10
183.706436
 20
2.3335300000000001
 30
0.0
 11
183.37297100000001
 21
2.0000749999999989
 31
0.0
  0
LINE
  5
5FF
  8
0
 62
     3
 10
182.70632900000001
 20
1.333429999999999
 30
0.0
 11
181.37297100000001
 21
0.000076
 31
0.0
  0
LINE
  5
600
  8
0
 62
     3
 10
182.70632900000001
 20
0.27277
 30
0.0
 11
182.43363999999991
 21
0.000076
 31
0.0
  0
ENDBLK
  5
601
  8
0
  0
BLOCK
  8
0
  2
BLOCK10
 70
     0
 10
0.0
 20
0.0
 30
0.0
  3
BLOCK10
  1

  0
LINE
  5
603
  8
0
 62
     3
 10
188.7645719999999
 20
53.000053000000001
 30
0.0
 11
188.706436
 21
52.941913999999997
 31
0.0
  0
LINE
  5
604
  8
0
 62
     3
 10
189.82522599999999
 20
53.000053000000001
 30
0.0
 11
188.706436
 21
51.881252000000003
 31
0.0
  0
LINE
  5
605
  8
0
 62
     3
 10
190.885895
 20
53.000053000000001
 30
0.0
 11
188.706436
 21
50.820594999999997
 31
0.0
  0
LINE
  5
606
  8
0
 62
     3
 10
191.94654800000001
 20
53.000053000000001
 30
0.0
 11
188.706436
 21
49.759932999999997
 31
0.0
  0
LINE
  5
607
  8
0
 62
     3
 10
192.70643599999991
 20
52.699272000000001
 30
0.0
 11
189.007217
 21
49.000053000000001
 31
0.0
  0
LINE
  5
608
  8
0
 62
     3
 10
192.70643599999991
 20
51.638615000000001
 30
0.0
 11
190.067871
 21
49.000053000000001
 31
0.0
  0
LINE
  5
609
  8
0
 62
     3
 10
192.70643599999991
 20
50.577953000000001
 30
0.0
 11
191.12852499999991
 21
49.000053000000001
 31
0.0
  0
LINE
  5
60A
  8
0
 62
     3
 10
192.70643599999991
 20
49.517291999999991
 30
0.0
 11
192.1891939999999
 21
49.000053000000001
 31
0.0
  0
ENDBLK
  5
60B
  8
0
  0
BLOCK
  8
0
  2
BLOCK11
 70
     0
 10
0.0
 20
0.0
 30
0.0
  3
BLOCK11
  1

  0
LINE
  5
60D
  8
0
 62
     3
 10
205.73513799999989
 20
53.000053000000001
 30
0.0
 11
204.70643599999991
 21
51.971352000000003
 31
0.0
  0
LINE
  5
60E
  8
0
 62
     3
 10
206.79579200000001
 20
53.000053000000001
 30
0.0
 11
204.70643599999991
 21
50.910690000000002
 31
0.0
  0
LINE
  5
60F
  8
0
 62
     3
 10
207.856461
 20
53.000053000000001
 30
0.0
 11
204.70643599999991
 21
49.850028999999999
 31
0.0
  0
LINE
  5
610
  8
0
 62
     3
 10
208.70643599999991
 20
52.789368000000003
 30
0.0
 11
204.91711399999991
 21
49.000053000000001
 31
0.0
  0
LINE
  5
611
  8
0
 62
     3
 10
208.70643599999991
 20
51.72871
 30
0.0
 11
205.97776799999991
 21
49.000053000000001
 31
0.0
  0
LINE
  5
612
  8
0
 62
     3
 10
208.70643599999991
 20
50.668049000000003
 30
0.0
 11
207.03843699999999
 21
49.000053000000001
 31
0.0
  0
LINE
  5
613
  8
0
 62
     3
 10
208.70643599999991
 20
49.607388
 30
0.0
 11
208.0990909999999
 21
49.000053000000001
 31
0.0
  0
ENDBLK
  5
614
  8
0
  0
BLOCK
  8
0
  2
BLOCK12
 70
     0
 10
0.0
 20
0.0
 30
0.0
  3
BLOCK12
  1

  0
LINE
  5
616
  8
0
 62
     3
 10
189.7056879999999
 20
20.000053000000001
 30
0.0
 11
188.706436
 21
19.000789999999991
 31
0.0
  0
LINE
  5
617
  8
0
 62
     3
 10
190.766357
 20
20.000053000000001
 30
0.0
 11
188.706436
 21
17.94013
 31
0.0
  0
LINE
  5
618
  8
0
 62
     3
 10
191.82701099999991
 20
20.000053000000001
 30
0.0
 11
189.32701099999991
 21
17.500053000000001
 31
0.0
  0
LINE
  5
619
  8
0
 62
     3
 10
192.88767999999999
 20
20.000053000000001
 30
0.0
 11
190.38767999999999
 21
17.500053000000001
 31
0.0
  0
LINE
  5
61A
  8
0
 62
     3
 10
197.80566399999989
 20
23.857385999999991
 30
0.0
 11
194.84910600000001
 21
20.900815999999988
 31
0.0
  0
LINE
  5
61B
  8
0
 62
     3
 10
193.94833399999999
 20
20.000053000000001
 30
0.0
 11
191.44833399999999
 21
17.500053000000001
 31
0.0
  0
LINE
  5
61C
  8
0
 62
     3
 10
198.96762100000001
 20
23.95868299999999
 30
0.0
 11
192.50900299999989
 21
17.500053000000001
 31
0.0
  0
LINE
  5
61D
  8
0
 62
     3
 10
199.8832699999999
 20
23.81366199999999
 30
0.0
 11
197.833527
 21
21.763926999999999
 31
0.0
  0
LINE
  5
61E
  8
0
 62
     3
 10
196.953171
 20
20.883572000000001
 30
0.0
 11
193.56965600000001
 21
17.500053000000001
 31
0.0
  0
LINE
  5
61F
  8
0
 62
     3
 10
200.59968599999999
 20
23.469425000000001
 30
0.0
 11
199.0520479999999
 21
21.921779999999991
 31
0.0
  0
LINE
  5
620
  8
0
 62
     3
 10
196.69227599999991
 20
19.562018999999989
 30
0.0
 11
194.63031000000001
 21
17.500053000000001
 31
0.0
  0
LINE
  5
621
  8
0
 62
     3
 10
201.24230999999989
 20
23.05138599999999
 30
0.0
 11
199.80354299999999
 21
21.612615999999999
 31
0.0
  0
LINE
  5
622
  8
0
 62
     3
 10
201.7726439999999
 20
22.521055
 30
0.0
 11
200.33161899999999
 21
21.08004
 31
0.0
  0
LINE
  5
623
  8
0
 62
     3
 10
202.18585200000001
 20
21.873602000000002
 30
0.0
 11
200.63392599999989
 21
20.321684000000001
 31
0.0
  0
LINE
  5
624
  8
0
 62
     3
 10
202.52410900000001
 20
21.151202999999999
 30
0.0
 11
200.7499389999999
 21
19.377029
 31
0.0
  0
LINE
  5
625
  8
0
 62
     3
 10
202.669128
 20
20.235565000000001
 30
0.0
 11
200.96684300000001
 21
18.533280999999992
 31
0.0
  0
LINE
  5
626
  8
0
 62
     3
 10
203.49427800000001
 20
20.000053000000001
 30
0.0
 11
201.46389799999989
 21
17.969674999999999
 31
0.0
  0
LINE
  5
627
  8
0
 62
     3
 10
204.55493200000001
 20
20.000053000000001
 30
0.0
 11
202.1945189999999
 21
17.639633
 31
0.0
  0
LINE
  5
628
  8
0
 62
     3
 10
205.615601
 20
20.000053000000001
 30
0.0
 11
203.115601
 21
17.500053000000001
 31
0.0
  0
LINE
  5
629
  8
0
 62
     3
 10
206.676254
 20
20.000053000000001
 30
0.0
 11
204.176254
 21
17.500053000000001
 31
0.0
  0
LINE
  5
62A
  8
0
 62
     3
 10
207.7369229999999
 20
20.000053000000001
 30
0.0
 11
205.23692299999999
 21
17.500053000000001
 31
0.0
  0
LINE
  5
62B
  8
0
 62
     3
 10
208.70643599999991
 20
19.908906999999989
 30
0.0
 11
206.2975769999999
 21
17.500053000000001
 31
0.0
  0
LINE
  5
62C
  8
0
 62
     3
 10
208.70643599999991
 20
18.848245999999989
 30
0.0
 11
207.35824599999989
 21
17.500053000000001
 31
0.0
  0
LINE
  5
62D
  8
0
 62
     3
 10
208.70643599999991
 20
17.78758599999999
 30
0.0
 11
208.41890000000001
 21
17.500053000000001
 31
0.0
  0
ENDBLK
  5
62E
  8
0
  0
BLOCK
  8
0
  2
BLOCK13
 70
     0
 10
0.0
 20
0.0
 30
0.0
  3
BLOCK13
  1

  0
LINE
  5
630
  8
0
 62
     3
 10
184.664536
 20
60.567276
 30
0.0
 11
183.706436
 21
59.609177000000003
 31
0.0
  0
LINE
  5
631
  8
0
 62
     3
 10
186.12687700000001
 20
60.968960000000003
 30
0.0
 11
183.706436
 21
58.548515000000002
 31
0.0
  0
LINE
  5
632
  8
0
 62
     3
 10
187.5892179999999
 20
61.370646999999991
 30
0.0
 11
183.706436
 21
57.487853999999999
 31
0.0
  0
LINE
  5
633
  8
0
 62
     3
 10
187.706436
 20
60.427197
 30
0.0
 11
183.706436
 21
56.427197
 31
0.0
  0
LINE
  5
634
  8
0
 62
     3
 10
187.706436
 20
59.366534999999999
 30
0.0
 11
183.706436
 21
55.366534999999992
 31
0.0
  0
LINE
  5
635
  8
0
 62
     3
 10
187.706436
 20
58.305873999999989
 30
0.0
 11
183.706436
 21
54.305874000000003
 31
0.0
  0
LINE
  5
636
  8
0
 62
     3
 10
187.706436
 20
57.245213
 30
0.0
 11
183.706436
 21
53.245215999999999
 31
0.0
  0
LINE
  5
637
  8
0
 62
     3
 10
187.706436
 20
56.184555000000003
 30
0.0
 11
183.706436
 21
52.184555000000003
 31
0.0
  0
LINE
  5
638
  8
0
 62
     3
 10
187.706436
 20
55.123893999999993
 30
0.0
 11
183.706436
 21
51.123894
 31
0.0
  0
LINE
  5
639
  8
0
 62
     3
 10
187.706436
 20
54.063231999999992
 30
0.0
 11
183.706436
 21
50.063235999999989
 31
0.0
  0
LINE
  5
63A
  8
0
 62
     3
 10
187.706436
 20
53.002575
 30
0.0
 11
183.706436
 21
49.002575
 31
0.0
  0
LINE
  5
63B
  8
0
 62
     3
 10
187.706436
 20
51.941914000000011
 30
0.0
 11
183.706436
 21
47.941913999999997
 31
0.0
  0
LINE
  5
63C
  8
0
 62
     3
 10
187.706436
 20
50.881252000000003
 30
0.0
 11
183.706436
 21
46.881256
 31
0.0
  0
LINE
  5
63D
  8
0
 62
     3
 10
187.706436
 20
49.820594999999997
 30
0.0
 11
183.706436
 21
45.820594999999997
 31
0.0
  0
LINE
  5
63E
  8
0
 62
     3
 10
187.706436
 20
48.759933000000011
 30
0.0
 11
183.706436
 21
44.759932999999997
 31
0.0
  0
LINE
  5
63F
  8
0
 62
     3
 10
187.706436
 20
47.699272000000001
 30
0.0
 11
183.706436
 21
43.699272000000001
 31
0.0
  0
LINE
  5
640
  8
0
 62
     3
 10
187.706436
 20
46.638615000000001
 30
0.0
 11
183.706436
 21
42.638614999999987
 31
0.0
  0
LINE
  5
641
  8
0
 62
     3
 10
187.706436
 20
45.577953000000001
 30
0.0
 11
183.706436
 21
41.577953000000001
 31
0.0
  0
LINE
  5
642
  8
0
 62
     3
 10
187.706436
 20
44.517291999999991
 30
0.0
 11
183.706436
 21
40.517291999999991
 31
0.0
  0
LINE
  5
643
  8
0
 62
     3
 10
187.706436
 20
43.456634999999991
 30
0.0
 11
183.706436
 21
39.456634999999999
 31
0.0
  0
LINE
  5
644
  8
0
 62
     3
 10
187.706436
 20
42.395972999999991
 30
0.0
 11
183.706436
 21
38.395972999999991
 31
0.0
  0
LINE
  5
645
  8
0
 62
     3
 10
187.706436
 20
41.335312000000002
 30
0.0
 11
183.706436
 21
37.335312000000002
 31
0.0
  0
LINE
  5
646
  8
0
 62
     3
 10
187.706436
 20
40.274653999999991
 30
0.0
 11
183.706436
 21
36.274653999999998
 31
0.0
  0
LINE
  5
647
  8
0
 62
     3
 10
187.706436
 20
39.213993000000002
 30
0.0
 11
183.706436
 21
35.213993000000002
 31
0.0
  0
LINE
  5
648
  8
0
 62
     3
 10
187.706436
 20
38.153331999999992
 30
0.0
 11
183.706436
 21
34.153331999999999
 31
0.0
  0
LINE
  5
649
  8
0
 62
     3
 10
187.706436
 20
37.092674000000002
 30
0.0
 11
183.706436
 21
33.092674000000002
 31
0.0
  0
LINE
  5
64A
  8
0
 62
     3
 10
187.706436
 20
36.032012999999999
 30
0.0
 11
183.706436
 21
32.032012999999992
 31
0.0
  0
LINE
  5
64B
  8
0
 62
     3
 10
187.706436
 20
34.971352000000003
 30
0.0
 11
183.706436
 21
30.971353999999991
 31
0.0
  0
LINE
  5
64C
  8
0
 62
     3
 10
187.706436
 20
33.910690000000002
 30
0.0
 11
183.706436
 21
29.910692000000001
 31
0.0
  0
LINE
  5
64D
  8
0
 62
     3
 10
187.706436
 20
32.850033000000003
 30
0.0
 11
183.706436
 21
28.850033
 31
0.0
  0
LINE
  5
64E
  8
0
 62
     3
 10
187.706436
 20
31.789370999999999
 30
0.0
 11
183.706436
 21
27.789372999999991
 31
0.0
  0
LINE
  5
64F
  8
0
 62
     3
 10
187.706436
 20
30.728711999999991
 30
0.0
 11
183.706436
 21
26.728711999999991
 31
0.0
  0
LINE
  5
650
  8
0
 62
     3
 10
187.706436
 20
29.668053
 30
0.0
 11
183.706436
 21
25.668053
 31
0.0
  0
LINE
  5
651
  8
0
 62
     3
 10
187.706436
 20
28.607390999999989
 30
0.0
 11
184.09909099999999
 21
25.000050999999999
 31
0.0
  0
LINE
  5
652
  8
0
 62
     3
 10
187.706436
 20
27.546731999999999
 30
0.0
 11
185.1597439999999
 21
25.000050999999999
 31
0.0
  0
LINE
  5
653
  8
0
 62
     3
 10
187.706436
 20
26.486070999999999
 30
0.0
 11
186.22041299999989
 21
25.000050999999999
 31
0.0
  0
LINE
  5
654
  8
0
 62
     3
 10
187.706436
 20
25.42541099999999
 30
0.0
 11
187.28106699999989
 21
25.000050999999999
 31
0.0
  0
ENDBLK
  5
655
  8
0
  0
BLOCK
  8
0
  2
BLOCK14
 70
     0
 10
0.0
 20
0.0
 30
0.0
  3
BLOCK14
  1

  0
LINE
  5
657
  8
0
 62
     7
 10
-27.75000399999999
 20
-44.37489699999999
 30
0.0
 11
-28.124893
 21
-44.000007999999987
 31
0.0
  0
LINE
  5
658
  8
0
 62
     7
 10
-27.75000399999999
 20
-48.617538000000003
 30
0.0
 11
-30.00000399999999
 21
-46.367538000000003
 31
0.0
  0
LINE
  5
659
  8
0
 62
     7
 10
-27.75000399999999
 20
-52.86018399999999
 30
0.0
 11
-30.00000399999999
 21
-50.61018
 31
0.0
  0
ENDBLK
  5
65A
  8
0
  0
BLOCK
  8
0
  2
BLOCK15
 70
     0
 10
0.0
 20
0.0
 30
0.0
  3
BLOCK15
  1

  0
LINE
  5
65C
  8
0
 62
     7
 10
-15.500004000000001
 20
-52.382266999999999
 30
0.0
 11
-16.382262999999998
 21
-51.500008000000001
 31
0.0
  0
LINE
  5
65D
  8
0
 62
     7
 10
-19.750004000000001
 20
-48.132263000000002
 30
0.0
 11
-22.250004000000001
 21
-45.632258999999998
 31
0.0
  0
LINE
  5
65E
  8
0
 62
     7
 10
-15.500004000000001
 20
-56.624907999999998
 30
0.0
 11
-22.250004000000001
 21
-49.874901000000001
 31
0.0
  0
ENDBLK
  5
65F
  8
0
  0
BLOCK
  8
0
  2
BLOCK16
 70
     0
 10
0.0
 20
0.0
 30
0.0
  3
BLOCK16
  1

  0
LINE
  5
661
  8
0
 62
     7
 10
-3.0
 20
-47.911712999999999
 30
0.0
 11
-5.2500039999999988
 21
-45.661704999999998
 31
0.0
  0
LINE
  5
662
  8
0
 62
     7
 10
-3.0
 20
-52.154353999999998
 30
0.0
 11
-5.2500039999999988
 21
-49.904350000000001
 31
0.0
  0
LINE
  5
663
  8
0
 62
     7
 10
-5.3969879999999986
 20
-54.000007999999987
 30
0.0
 11
-7.8969860000000001
 21
-51.500008000000001
 31
0.0
  0
LINE
  5
664
  8
0
 62
     7
 10
-7.6396289999999993
 20
-56.000008000000001
 30
0.0
 11
-9.5000039999999988
 21
-54.139629000000014
 31
0.0
  0
LINE
  5
665
  8
0
 62
     7
 10
-8.8822700000000001
 20
-59.000007999999987
 30
0.0
 11
-9.5000039999999988
 21
-58.382275
 31
0.0
  0
ENDBLK
  5
666
  8
0
  0
BLOCK
  8
0
  2
BLOCK17
 70
     0
 10
0.0
 20
0.0
 30
0.0
  3
BLOCK17
  1

  0
TEXT
  5
668
  8
0
 62
     1
 10
-577.33331299999998
 20
-42.75
 30
0.0
 40
2.5
  1
Ts3
 50
180.0
 41
1.400888142843687
 72
     5
 11
-584.66668699999991
 21
-42.75
 31
0.0
  0
ENDBLK
  5
669
  8
0
  0
BLOCK
  8
0
  2
BLOCK18
 70
     0
 10
0.0
 20
0.0
 30
0.0
  3
BLOCK18
  1

  0
TEXT
  5
66B
  8
0
 62
     1
 10
-566.91668700000002
 20
-61.75
 30
0.0
 40
2.5
  1
ADATTATORE PER
 50
179.99999287514069
 41
1.196899981395358
 72
     5
 11
-599.08337400000005
 21
-61.749995999999989
 31
0.0
  0
TEXT
  5
66C
  8
0
 62
     1
 10
-565.74999999999989
 20
-57.75
 30
0.0
 40
2.5
  1
QUADRO MNS 2000
 50
179.99999335701099
 41
1.2601833543052381
 72
     5
 11
-600.25
 21
-57.749996000000003
 31
0.0
  0
TEXT
  5
66D
  8
0
 62
     1
 10
-570.41668700000002
 20
-53.75
 30
0.0
 40
2.5
  1
ADAPTER FOR
 50
179.9999908933934
 41
1.2202030060606219
 72
     5
 11
-595.58337400000005
 21
-53.749995999999989
 31
0.0
  0
TEXT
  5
66E
  8
0
 62
     1
 10
-565.74999999999989
 20
-49.75
 30
0.0
 40
2.5
  1
MNS SYSTEM 2000
 50
179.99999335701099
 41
1.271797104604339
 72
     5
 11
-600.25
 21
-49.749996000000003
 31
0.0
  0
ENDBLK
  5
66F
  8
0
  0
BLOCK
  8
0
  2
BLOCK19
 70
     0
 10
0.0
 20
0.0
 30
0.0
  3
BLOCK19
  1

  0
TEXT
  5
671
  8
0
 62
     1
 10
-554.22406000000001
 20
-32.749996000000003
 30
0.0
 40
4.5
  1
1SDH000637R0.128
 50
180.00000372341739
 41
1.2843363380281729
 72
     5
 11
-615.77587900000003
 21
-32.75
 31
0.0
  0
ENDBLK
  5
672
  8
0
  0
BLOCK
  8
0
  2
BLOCK20
 70
     0
 10
0.0
 20
0.0
 30
0.0
  3
BLOCK20
  1

  0
TEXT
  5
674
  8
0
 62
     1
 10
-516.0
 20
-44.75
 30
0.0
 40
2.5
  1
N0204 2007-09-17
 50
180.0000101972575
 41
0.8360064295107053
 72
     5
 11
-538.47497599999997
 21
-44.75000399999999
 31
0.0
  0
ENDBLK
  5
675
  8
0
  0
BLOCK
  8
0
  2
BLOCK21
 70
     0
 10
0.0
 20
0.0
 30
0.0
  3
BLOCK21
  1

  0
TEXT
  5
677
  8
0
 62
     3
 10
-339.65844700000002
 20
71.177070999999998
 30
0.0
 40
3.5
  1
150
 50
90.0
 41
1.4850470776446409
 72
     5
 11
-339.65844700000002
 21
80.277077000000006
 31
0.0
  0
POLYLINE
  5
678
  8
0
 62
     3
 66
     1
 10
0.0
 20
0.0
 30
0.0
  0
VERTEX
  5
810
  8
0
 62
     3
 10
-339.176086
 20
1.9318519999999999
 30
0.0
  0
VERTEX
  5
811
  8
0
 62
     3
 10
-338.65844700000002
 20
0.0
 30
0.0
  0
VERTEX
  5
812
  8
0
 62
     3
 10
-338.14080799999988
 20
1.9318519999999999
 30
0.0
  0
SEQEND
  5
813
  8
0
 62
     3
  0
POLYLINE
  5
67D
  8
0
 62
     3
 66
     1
 10
0.0
 20
0.0
 30
0.0
  0
VERTEX
  5
814
  8
0
 62
     3
 10
-338.14080799999988
 20
148.0681459999999
 30
0.0
  0
VERTEX
  5
815
  8
0
 62
     3
 10
-338.65844700000002
 20
150.0
 30
0.0
  0
VERTEX
  5
816
  8
0
 62
     3
 10
-339.176086
 20
148.0681459999999
 30
0.0
  0
SEQEND
  5
817
  8
0
 62
     3
  0
LINE
  5
682
  8
0
 62
     3
 10
-338.65844700000002
 20
0.0
 30
0.0
 11
-338.65844700000002
 21
150.0
 31
0.0
  0
ENDBLK
  5
683
  8
0
  0
BLOCK
  8
0
  2
BLOCK22
 70
     0
 10
0.0
 20
0.0
 30
0.0
  3
BLOCK22
  1

  0
TEXT
  5
685
  8
0
 62
     3
 10
-364.65618899999998
 20
71.668281999999991
 30
0.0
 40
3.5
  1
159
 50
90.0
 41
1.4273226953527141
 72
     5
 11
-364.65618899999998
 21
80.768287999999984
 31
0.0
  0
LINE
  5
686
  8
0
 62
     3
 10
-9.0
 20
-4.5
 30
0.0
 11
-365.65618899999998
 21
-4.5
 31
0.0
  0
LINE
  5
687
  8
0
 62
     3
 10
-273.49999999999989
 20
154.49999999999989
 30
0.0
 11
-365.65618899999998
 21
154.49999999999989
 31
0.0
  0
POLYLINE
  5
688
  8
0
 62
     3
 66
     1
 10
0.0
 20
0.0
 30
0.0
  0
VERTEX
  5
818
  8
0
 62
     3
 10
-363.13855000000001
 20
152.5681459999999
 30
0.0
  0
VERTEX
  5
819
  8
0
 62
     3
 10
-363.65618899999998
 20
154.49999999999989
 30
0.0
  0
VERTEX
  5
81A
  8
0
 62
     3
 10
-364.1738279999999
 20
152.5681459999999
 30
0.0
  0
SEQEND
  5
81B
  8
0
 62
     3
  0
POLYLINE
  5
68D
  8
0
 62
     3
 66
     1
 10
0.0
 20
0.0
 30
0.0
  0
VERTEX
  5
81C
  8
0
 62
     3
 10
-364.1738279999999
 20
-2.568147999999999
 30
0.0
  0
VERTEX
  5
81D
  8
0
 62
     3
 10
-363.65618899999998
 20
-4.5
 30
0.0
  0
VERTEX
  5
81E
  8
0
 62
     3
 10
-363.13855000000001
 20
-2.568147999999999
 30
0.0
  0
SEQEND
  5
81F
  8
0
 62
     3
  0
LINE
  5
692
  8
0
 62
     3
 10
-363.65618899999998
 20
-4.5
 30
0.0
 11
-363.65618899999998
 21
154.49999999999989
 31
0.0
  0
ENDBLK
  5
693
  8
0
  0
BLOCK
  8
0
  2
BLOCK23
 70
     0
 10
0.0
 20
0.0
 30
0.0
  3
BLOCK23
  1

  0
TEXT
  5
695
  8
0
 62
     3
 10
41.303019999999997
 20
-31.666541999999989
 30
0.0
 40
3.5
  1
11.5
 41
1.8680840143568109
 72
     5
 11
53.669688999999991
 21
-31.666541999999989
 31
0.0
  0
LINE
  5
696
  8
0
 62
     3
 10
0.000001
 20
-11.19690099999999
 30
0.0
 11
0.000001
 21
-34.666542
 31
0.0
  0
LINE
  5
697
  8
0
 62
     3
 10
11.5
 20
6.0
 30
0.0
 11
11.5
 21
-34.666542
 31
0.0
  0
POLYLINE
  5
698
  8
0
 62
     3
 66
     1
 10
0.0
 20
0.0
 30
0.0
  0
VERTEX
  5
820
  8
0
 62
     3
 10
1.9318529999999989
 20
-32.148902999999997
 30
0.0
  0
VERTEX
  5
821
  8
0
 62
     3
 10
0.000001
 20
-32.666542
 30
0.0
  0
VERTEX
  5
822
  8
0
 62
     3
 10
1.9318529999999989
 20
-33.184181000000002
 30
0.0
  0
SEQEND
  5
823
  8
0
 62
     3
  0
POLYLINE
  5
69D
  8
0
 62
     3
 66
     1
 10
0.0
 20
0.0
 30
0.0
  0
VERTEX
  5
824
  8
0
 62
     3
 10
9.568149
 20
-33.184181000000002
 30
0.0
  0
VERTEX
  5
825
  8
0
 62
     3
 10
11.5
 20
-32.666542
 30
0.0
  0
VERTEX
  5
826
  8
0
 62
     3
 10
9.568149
 20
-32.148902999999997
 30
0.0
  0
SEQEND
  5
827
  8
0
 62
     3
  0
LINE
  5
6A2
  8
0
 62
     3
 10
0.000001
 20
-32.666542
 30
0.0
 11
53.669688999999991
 21
-32.666542
 31
0.0
  0
ENDBLK
  5
6A3
  8
0
  0
BLOCK
  8
0
  2
BLOCK24
 70
     0
 10
0.0
 20
0.0
 30
0.0
  3
BLOCK24
  1

  0
TEXT
  5
6A5
  8
0
 62
     3
 10
-157.80470299999999
 20
-51.969878999999992
 30
0.0
 40
3.5
  1
322
 41
1.293495187450068
 72
     5
 11
-148.70469700000001
 21
-51.969878999999992
 31
0.0
  0
LINE
  5
6A6
  8
0
 62
     3
 10
-310.49999999999989
 20
6.0
 30
0.0
 11
-310.49999999999989
 21
-54.969878999999999
 31
0.0
  0
LINE
  5
6A7
  8
0
 62
     3
 10
11.5
 20
6.0
 30
0.0
 11
11.5
 21
-54.969878999999999
 31
0.0
  0
POLYLINE
  5
6A8
  8
0
 62
     3
 66
     1
 10
0.0
 20
0.0
 30
0.0
  0
VERTEX
  5
828
  8
0
 62
     3
 10
9.568149
 20
-53.487514000000012
 30
0.0
  0
VERTEX
  5
829
  8
0
 62
     3
 10
11.5
 20
-52.969879000000013
 30
0.0
  0
VERTEX
  5
82A
  8
0
 62
     3
 10
9.568149
 20
-52.452240000000003
 30
0.0
  0
SEQEND
  5
82B
  8
0
 62
     3
  0
POLYLINE
  5
6AD
  8
0
 62
     3
 66
     1
 10
0.0
 20
0.0
 30
0.0
  0
VERTEX
  5
82C
  8
0
 62
     3
 10
-308.5681459999999
 20
-52.452240000000003
 30
0.0
  0
VERTEX
  5
82D
  8
0
 62
     3
 10
-310.49999999999989
 20
-52.969879000000013
 30
0.0
  0
VERTEX
  5
82E
  8
0
 62
     3
 10
-308.5681459999999
 20
-53.487514000000012
 30
0.0
  0
SEQEND
  5
82F
  8
0
 62
     3
  0
LINE
  5
6B2
  8
0
 62
     3
 10
-310.49999999999989
 20
-52.969879000000013
 30
0.0
 11
11.5
 21
-52.969879000000013
 31
0.0
  0
ENDBLK
  5
6B3
  8
0
  0
BLOCK
  8
0
  2
BLOCK25
 70
     0
 10
0.0
 20
0.0
 30
0.0
  3
BLOCK25
  1

  0
TEXT
  5
6B5
  8
0
 62
     3
 10
-130.6244199999999
 20
173.00418099999999
 30
0.0
 40
3.5
  1
250
 41
1.3327948634856539
 72
     5
 11
-121.5244219999999
 21
173.00418099999999
 31
0.0
  0
LINE
  5
6B6
  8
0
 62
     3
 10
-250.0
 20
159.0
 30
0.0
 11
-250.0
 21
174.00418099999999
 31
0.0
  0
POLYLINE
  5
6B7
  8
0
 62
     3
 66
     1
 10
0.0
 20
0.0
 30
0.0
  0
VERTEX
  5
830
  8
0
 62
     3
 10
-1.9318509999999991
 20
171.4865419999999
 30
0.0
  0
VERTEX
  5
831
  8
0
 62
     3
 10
0.000001
 20
172.00418099999999
 30
0.0
  0
VERTEX
  5
832
  8
0
 62
     3
 10
-1.9318509999999991
 20
172.52181999999999
 30
0.0
  0
SEQEND
  5
833
  8
0
 62
     3
  0
POLYLINE
  5
6BC
  8
0
 62
     3
 66
     1
 10
0.0
 20
0.0
 30
0.0
  0
VERTEX
  5
834
  8
0
 62
     3
 10
-248.06814600000001
 20
172.52181999999999
 30
0.0
  0
VERTEX
  5
835
  8
0
 62
     3
 10
-250.0
 20
172.00418099999999
 30
0.0
  0
VERTEX
  5
836
  8
0
 62
     3
 10
-248.06814600000001
 20
171.4865419999999
 30
0.0
  0
SEQEND
  5
837
  8
0
 62
     3
  0
LINE
  5
6C1
  8
0
 62
     3
 10
-250.0
 20
172.00418099999999
 30
0.0
 11
0.000001
 21
172.00418099999999
 31
0.0
  0
ENDBLK
  5
6C2
  8
0
  0
BLOCK
  8
0
  2
BLOCK26
 70
     0
 10
0.0
 20
0.0
 30
0.0
  3
BLOCK26
  1

  0
TEXT
  5
6C4
  8
0
 62
     3
 10
51.380870999999992
 20
72.083336000000003
 30
0.0
 40
3.5
  1
50
 50
90.0
 41
1.3324927487746741
 72
     5
 11
51.380870999999992
 21
77.916663999999997
 31
0.0
  0
LINE
  5
6C5
  8
0
 62
     3
 10
31.918158999999999
 20
50.0
 30
0.0
 11
55.380870999999999
 21
50.0
 31
0.0
  0
LINE
  5
6C6
  8
0
 62
     3
 10
32.991046999999988
 20
100.0
 30
0.0
 11
55.380870999999999
 21
100.0
 31
0.0
  0
POLYLINE
  5
6C7
  8
0
 62
     3
 66
     1
 10
0.0
 20
0.0
 30
0.0
  0
VERTEX
  5
838
  8
0
 62
     3
 10
53.898510000000002
 20
98.068145999999999
 30
0.0
  0
VERTEX
  5
839
  8
0
 62
     3
 10
53.380870999999999
 20
100.0
 30
0.0
  0
VERTEX
  5
83A
  8
0
 62
     3
 10
52.863234999999989
 20
98.068145999999999
 30
0.0
  0
SEQEND
  5
83B
  8
0
 62
     3
  0
POLYLINE
  5
6CC
  8
0
 62
     3
 66
     1
 10
0.0
 20
0.0
 30
0.0
  0
VERTEX
  5
83C
  8
0
 62
     3
 10
52.863234999999989
 20
51.93184999999999
 30
0.0
  0
VERTEX
  5
83D
  8
0
 62
     3
 10
53.380870999999999
 20
50.0
 30
0.0
  0
VERTEX
  5
83E
  8
0
 62
     3
 10
53.898510000000002
 20
51.93184999999999
 30
0.0
  0
SEQEND
  5
83F
  8
0
 62
     3
  0
LINE
  5
6D1
  8
0
 62
     3
 10
53.380870999999999
 20
50.0
 30
0.0
 11
53.380870999999999
 21
100.0
 31
0.0
  0
ENDBLK
  5
6D2
  8
0
  0
BLOCK
  8
0
  2
BLOCK27
 70
     0
 10
0.0
 20
0.0
 30
0.0
  3
BLOCK27
  1

  0
TEXT
  5
6D4
  8
0
 62
     3
 10
51.380870999999992
 20
22.083334000000001
 30
0.0
 40
3.5
  1
50
 50
90.0
 41
1.3324936624848229
 72
     5
 11
51.380870999999992
 21
27.916665999999989
 31
0.0
  0
LINE
  5
6D5
  8
0
 62
     3
 10
38.604819999999997
 20
0.0
 30
0.0
 11
55.380870999999999
 21
0.0
 31
0.0
  0
LINE
  5
6D6
  8
0
 62
     3
 10
31.918158999999999
 20
50.0
 30
0.0
 11
55.380870999999999
 21
50.0
 31
0.0
  0
POLYLINE
  5
6D7
  8
0
 62
     3
 66
     1
 10
0.0
 20
0.0
 30
0.0
  0
VERTEX
  5
840
  8
0
 62
     3
 10
52.863234999999989
 20
1.9318519999999999
 30
0.0
  0
VERTEX
  5
841
  8
0
 62
     3
 10
53.380870999999999
 20
0.0
 30
0.0
  0
VERTEX
  5
842
  8
0
 62
     3
 10
53.898510000000002
 20
1.9318519999999999
 30
0.0
  0
SEQEND
  5
843
  8
0
 62
     3
  0
POLYLINE
  5
6DC
  8
0
 62
     3
 66
     1
 10
0.0
 20
0.0
 30
0.0
  0
VERTEX
  5
844
  8
0
 62
     3
 10
53.898510000000002
 20
48.068150000000003
 30
0.0
  0
VERTEX
  5
845
  8
0
 62
     3
 10
53.380870999999999
 20
50.0
 30
0.0
  0
VERTEX
  5
846
  8
0
 62
     3
 10
52.863234999999989
 20
48.068150000000003
 30
0.0
  0
SEQEND
  5
847
  8
0
 62
     3
  0
LINE
  5
6E1
  8
0
 62
     3
 10
53.380870999999999
 20
0.0
 30
0.0
 11
53.380870999999999
 21
50.0
 31
0.0
  0
ENDBLK
  5
6E2
  8
0
  0
ENDSEC
  0
SECTION
  2
ENTITIES
  0
LINE
  5
25
  8
0
 62
     7
 10
236.81417799999991
 20
752.25224300000002
 30
0.0
 11
253.81417799999991
 21
752.25224300000002
 31
0.0
  0
LINE
  5
26
  8
0
 62
     7
 10
236.81417799999991
 20
748.25224300000002
 30
0.0
 11
253.81417799999991
 21
748.25224300000002
 31
0.0
  0
LINE
  5
27
  8
0
 62
     7
 10
236.81417799999991
 20
713.25224300000002
 30
0.0
 11
253.81417799999991
 21
713.25224300000002
 31
0.0
  0
LINE
  5
28
  8
0
 62
     7
 10
236.81417799999991
 20
717.25224300000002
 30
0.0
 11
253.81417799999991
 21
717.25224300000002
 31
0.0
  0
LINE
  5
29
  8
0
 62
     7
 10
233.81417799999991
 20
780.25224300000002
 30
0.0
 11
233.81417799999991
 21
756.25224300000002
 31
0.0
  0
LINE
  5
2A
  8
0
 62
     7
 10
233.81417799999991
 20
744.25224300000002
 30
0.0
 11
233.81417799999991
 21
721.25224299999991
 31
0.0
  0
LINE
  5
2B
  8
0
 62
     7
 10
233.81417799999991
 20
709.25224300000002
 30
0.0
 11
233.81417799999991
 21
685.25224300000002
 31
0.0
  0
LINE
  5
2C
  8
0
 62
     7
 10
236.81417799999991
 20
782.25224300000002
 30
0.0
 11
253.81417799999991
 21
782.25224300000002
 31
0.0
  0
LINE
  5
2D
  8
0
 62
     7
 10
253.81417799999991
 20
782.25224300000002
 30
0.0
 11
253.81417799999991
 21
752.25224300000002
 31
0.0
  0
LINE
  5
2E
  8
0
 62
     7
 10
236.81417799999991
 20
683.25224300000002
 30
0.0
 11
253.81417799999991
 21
683.25224300000002
 31
0.0
  0
LINE
  5
2F
  8
0
 62
     7
 10
236.81417799999991
 20
713.25224300000002
 30
0.0
 11
236.81417799999991
 21
683.25224300000002
 31
0.0
  0
LINE
  5
30
  8
0
 62
     7
 10
236.81417799999991
 20
748.25224300000002
 30
0.0
 11
236.81417799999991
 21
717.25224300000002
 31
0.0
  0
LINE
  5
31
  8
0
 62
     7
 10
236.81417799999991
 20
782.25224300000002
 30
0.0
 11
236.81417799999991
 21
752.25224300000002
 31
0.0
  0
LINE
  5
32
  8
0
 62
     7
 10
253.81417799999991
 20
748.25224300000002
 30
0.0
 11
253.81417799999991
 21
717.25224300000002
 31
0.0
  0
LINE
  5
33
  8
0
 62
     7
 10
253.81417799999991
 20
713.25224300000002
 30
0.0
 11
253.81417799999991
 21
682.77373699999998
 31
0.0
  0
LINE
  5
34
  8
0
 62
     7
 10
236.81417799999991
 20
777.75224300000002
 30
0.0
 11
253.81417799999991
 21
777.75224300000002
 31
0.0
  0
LINE
  5
35
  8
0
 62
     7
 10
236.81417799999991
 20
757.75224300000002
 30
0.0
 11
253.81417799999991
 21
757.75224300000002
 31
0.0
  0
LINE
  5
36
  8
0
 62
     7
 10
236.81417799999991
 20
742.75224300000002
 30
0.0
 11
253.81417799999991
 21
742.75224300000002
 31
0.0
  0
LINE
  5
37
  8
0
 62
     7
 10
236.81417799999991
 20
722.75224300000002
 30
0.0
 11
253.81417799999991
 21
722.75224300000002
 31
0.0
  0
LINE
  5
38
  8
0
 62
     7
 10
236.81417799999991
 20
707.75224300000002
 30
0.0
 11
253.81417799999991
 21
707.75224300000002
 31
0.0
  0
LINE
  5
39
  8
0
 62
     7
 10
236.81417799999991
 20
687.75224299999991
 30
0.0
 11
253.81417799999991
 21
687.75224299999991
 31
0.0
  0
LINE
  5
3A
  8
0
 62
     7
 10
155.3141169999999
 20
804.75224300000002
 30
0.0
 11
155.3141169999999
 21
754.75224300000002
 31
0.0
  0
LINE
  5
3B
  8
0
 62
     7
 10
111.314117
 20
812.25224300000002
 30
0.0
 11
111.314117
 21
653.25224300000002
 31
0.0
  0
LINE
  5
3C
  8
0
 62
     7
 10
149.3141169999999
 20
792.25224300000002
 30
0.0
 11
149.3141169999999
 21
787.25224300000002
 31
0.0
  0
LINE
  5
3D
  8
0
 62
     7
 10
111.314117
 20
664.75224300000002
 30
0.0
 11
162.3141169999999
 21
664.75224300000002
 31
0.0
  0
LINE
  5
3E
  8
0
 62
     7
 10
120.314117
 20
794.75224300000002
 30
0.0
 11
153.3141169999999
 21
794.75224300000002
 31
0.0
  0
LINE
  5
3F
  8
0
 62
     7
 10
120.314117
 20
792.25224300000002
 30
0.0
 11
149.3141169999999
 21
792.25224300000002
 31
0.0
  0
LINE
  5
40
  8
0
 62
     7
 10
120.314117
 20
787.25224300000002
 30
0.0
 11
149.3141169999999
 21
787.25224300000002
 31
0.0
  0
LINE
  5
41
  8
0
 62
     7
 10
120.314117
 20
784.75224300000002
 30
0.0
 11
149.3141169999999
 21
784.75224300000002
 31
0.0
  0
LINE
  5
42
  8
0
 62
     7
 10
120.314117
 20
667.25224300000002
 30
0.0
 11
149.3141169999999
 21
667.25224300000002
 31
0.0
  0
LINE
  5
43
  8
0
 62
     7
 10
120.314117
 20
672.25224300000002
 30
0.0
 11
149.3141169999999
 21
672.25224300000002
 31
0.0
  0
LINE
  5
44
  8
0
 62
     7
 10
120.314117
 20
674.75224300000002
 30
0.0
 11
149.3141169999999
 21
674.75224300000002
 31
0.0
  0
LINE
  5
45
  8
0
 62
     7
 10
149.3141169999999
 20
784.75224300000002
 30
0.0
 11
149.3141169999999
 21
674.75224300000002
 31
0.0
  0
LINE
  5
46
  8
0
 62
     7
 10
149.3141169999999
 20
672.25224300000002
 30
0.0
 11
149.3141169999999
 21
667.25224300000002
 31
0.0
  0
LINE
  5
47
  8
0
 62
     2
 10
144.5641169999999
 20
812.25224300000002
 30
0.0
 11
144.5641169999999
 21
794.75224300000002
 31
0.0
  0
LINE
  5
48
  8
0
 62
     7
 10
111.314117
 20
812.25224300000002
 30
0.0
 11
146.0641169999999
 21
812.25224300000002
 31
0.0
  0
LINE
  5
49
  8
0
 62
     7
 10
146.0641169999999
 20
806.75224300000002
 30
0.0
 11
153.3141169999999
 21
806.75224300000002
 31
0.0
  0
LINE
  5
4A
  8
0
 62
     7
 10
146.0641169999999
 20
804.25224299999991
 30
0.0
 11
155.3141169999999
 21
804.25224299999991
 31
0.0
  0
LINE
  5
4B
  8
0
 62
     7
 10
144.5641169999999
 20
658.75224299999991
 30
0.0
 11
144.5641169999999
 21
655.25224300000002
 31
0.0
  0
LINE
  5
4C
  8
0
 62
     7
 10
111.314117
 20
653.25224300000002
 30
0.0
 11
142.5641169999999
 21
653.25224300000002
 31
0.0
  0
LINE
  5
4D
  8
0
 62
     7
 10
128.3141169999999
 20
658.75224299999991
 30
0.0
 11
153.3141169999999
 21
658.75224299999991
 31
0.0
  0
LINE
  5
4E
  8
0
 62
     7
 10
128.3141169999999
 20
664.75224300000002
 30
0.0
 11
128.3141169999999
 21
658.75224299999991
 31
0.0
  0
LINE
  5
4F
  8
0
 62
     7
 10
146.8141169999999
 20
758.75224299999991
 30
0.0
 11
146.8141169999999
 21
706.75224300000002
 31
0.0
  0
LINE
  5
50
  8
0
 62
     7
 10
146.8141169999999
 20
758.75224299999991
 30
0.0
 11
149.3141169999999
 21
758.75224299999991
 31
0.0
  0
LINE
  5
51
  8
0
 62
     7
 10
146.8141169999999
 20
706.75224300000002
 30
0.0
 11
149.3141169999999
 21
706.75224300000002
 31
0.0
  0
ARC
  5
52
  8
0
 62
     7
 10
73.31411700000001
 20
665.75224300000002
 30
0.0
 40
1.0
 50
180.00000099999991
 51
269.50001299999991
  0
LINE
  5
53
  8
0
 62
     7
 10
73.305389000000005
 20
664.75228200000004
 30
0.0
 11
111.314117
 21
664.42058499999985
 31
0.0
  0
LINE
  5
54
  8
0
 62
     7
 10
73.305389000000005
 20
713.25228200000004
 30
0.0
 11
111.314117
 21
712.92058599999996
 31
0.0
  0
ARC
  5
55
  8
0
 62
     7
 10
73.31411700000001
 20
714.25224300000002
 30
0.0
 40
1.0
 50
180.00000099999991
 51
269.50001299999991
  0
LINE
  5
56
  8
0
 62
     7
 10
111.314117
 20
752.58390099999986
 30
0.0
 11
73.305389000000005
 21
752.252205
 31
0.0
  0
ARC
  5
57
  8
0
 62
     7
 10
73.31411700000001
 20
751.25224300000002
 30
0.0
 40
1.0
 50
90.500001999999995
 51
180.00000099999991
  0
LINE
  5
58
  8
0
 62
     7
 10
111.314117
 20
702.58390099999986
 30
0.0
 11
73.305389000000005
 21
702.252205
 31
0.0
  0
ARC
  5
59
  8
0
 62
     7
 10
73.31411700000001
 20
701.25224300000002
 30
0.0
 40
1.0
 50
90.500001999999995
 51
180.00000099999991
  0
LINE
  5
5A
  8
0
 62
     7
 10
72.31411700000001
 20
701.25224300000002
 30
0.0
 11
72.31411700000001
 21
665.75224300000002
 31
0.0
  0
LINE
  5
5B
  8
0
 62
     7
 10
72.31411700000001
 20
751.25224300000002
 30
0.0
 11
72.31411700000001
 21
714.25224300000002
 31
0.0
  0
LINE
  5
5C
  8
0
  6
DASHDOT
 62
     7
 10
89.872910000000005
 20
757.75224300000002
 30
0.0
 11
121.6058159999999
 21
757.75224300000002
 31
0.0
  0
LINE
  5
5D
  8
0
 62
     7
 10
99.31411700000001
 20
758.75224299999991
 30
0.0
 11
99.31411700000001
 21
756.75224300000002
 31
0.0
  0
LINE
  5
5E
  8
0
 62
     7
 10
111.314117
 20
762.25224300000002
 30
0.0
 11
115.314117
 21
762.25224300000002
 31
0.0
  0
LINE
  5
5F
  8
0
 62
     7
 10
111.314117
 20
753.25224300000002
 30
0.0
 11
115.314117
 21
753.25224300000002
 31
0.0
  0
LINE
  5
60
  8
0
 62
     7
 10
115.314117
 20
762.25224300000002
 30
0.0
 11
115.314117
 21
753.25224300000002
 31
0.0
  0
LINE
  5
61
  8
0
 62
     7
 10
111.314117
 20
703.25224300000002
 30
0.0
 11
115.314117
 21
703.25224300000002
 31
0.0
  0
LINE
  5
62
  8
0
 62
     7
 10
115.314117
 20
712.25224300000002
 30
0.0
 11
115.314117
 21
703.25224300000002
 31
0.0
  0
LINE
  5
63
  8
0
  6
DASHDOT
 62
     7
 10
89.872910000000005
 20
707.75224300000002
 30
0.0
 11
121.6058159999999
 21
707.75224300000002
 31
0.0
  0
LINE
  5
64
  8
0
 62
     7
 10
111.314117
 20
712.25224300000002
 30
0.0
 11
115.314117
 21
712.25224300000002
 31
0.0
  0
LINE
  5
65
  8
0
 62
     7
 10
115.314117
 20
811.25224300000002
 30
0.0
 11
115.314117
 21
804.25224299999991
 31
0.0
  0
LINE
  5
66
  8
0
 62
     7
 10
111.314117
 20
804.25224299999991
 30
0.0
 11
115.314117
 21
804.25224299999991
 31
0.0
  0
LINE
  5
67
  8
0
 62
     7
 10
111.314117
 20
811.25224300000002
 30
0.0
 11
115.314117
 21
811.25224300000002
 31
0.0
  0
LINE
  5
68
  8
0
 62
     2
 10
146.0641169999999
 20
812.25224300000002
 30
0.0
 11
146.0641169999999
 21
794.75224300000002
 31
0.0
  0
LINE
  5
69
  8
0
 62
     7
 10
147.0641169999999
 20
804.25224299999991
 30
0.0
 11
147.0641169999999
 21
794.75224300000002
 31
0.0
  0
ARC
  5
6A
  8
0
 62
     7
 10
153.3141169999999
 20
804.75224300000002
 30
0.0
 40
2.0
 50
360.00000299999988
 51
90.000005000000002
  0
ARC
  5
6B
  8
0
 62
     7
 10
153.3141169999999
 20
660.75224300000002
 30
0.0
 40
2.0
 50
270.0
 51
360.00000299999988
  0
ARC
  5
6C
  8
0
 62
     7
 10
142.5641169999999
 20
655.25224300000002
 30
0.0
 40
2.0
 50
270.0
 51
360.00000299999988
  0
ARC
  5
6D
  8
0
 62
     7
 10
153.3141169999999
 20
792.75224300000002
 30
0.0
 40
2.0
 50
360.00000299999988
 51
90.000005000000002
  0
LINE
  5
6E
  8
0
 62
     7
 10
111.314117
 20
800.75224299999991
 30
0.0
 11
144.5641169999999
 21
800.75224299999991
 31
0.0
  0
LINE
  5
6F
  8
0
 62
     7
 10
155.3141169999999
 20
754.75224300000002
 30
0.0
 11
162.3141169999999
 21
754.75224300000002
 31
0.0
  0
ARC
  5
70
  8
0
 62
     7
 10
162.3141169999999
 20
753.75224300000002
 30
0.0
 40
1.0
 50
360.00000299999988
 51
90.000005000000002
  0
ARC
  5
71
  8
0
 62
     7
 10
162.3141169999999
 20
665.75224300000002
 30
0.0
 40
1.0
 50
270.0
 51
360.00000299999988
  0
LINE
  5
72
  8
0
 62
     7
 10
155.3141169999999
 20
664.75224300000002
 30
0.0
 11
155.3141169999999
 21
660.75224300000002
 31
0.0
  0
LINE
  5
73
  8
0
 62
     7
 10
163.3141169999999
 20
753.75224300000002
 30
0.0
 11
163.3141169999999
 21
665.75224300000002
 31
0.0
  0
LINE
  5
74
  8
0
 62
     7
 10
267.81417799999991
 20
785.25224300000002
 30
0.0
 11
267.81417799999991
 21
680.25224300000002
 31
0.0
  0
LINE
  5
75
  8
0
 62
     7
 10
258.81417799999991
 20
785.25224300000002
 30
0.0
 11
258.81417799999991
 21
680.25224300000002
 31
0.0
  0
LINE
  5
76
  8
0
 62
     7
 10
289.46958899999993
 20
742.75224300000002
 30
0.0
 11
289.46958899999993
 21
722.75224300000002
 31
0.0
  0
LINE
  5
77
  8
0
 62
     7
 10
163.3141169999999
 20
680.25224300000002
 30
0.0
 11
267.81417799999991
 21
680.25224300000002
 31
0.0
  0
LINE
  5
78
  8
0
 62
     7
 10
157.3141169999999
 20
785.25224300000002
 30
0.0
 11
267.81417799999991
 21
785.25224300000002
 31
0.0
  0
LINE
  5
79
  8
0
 62
     7
 10
267.81417799999991
 20
742.75224300000002
 30
0.0
 11
289.46958899999993
 21
742.75224300000002
 31
0.0
  0
LINE
  5
7A
  8
0
 62
     7
 10
267.81417799999991
 20
722.75224300000002
 30
0.0
 11
289.46958899999993
 21
722.75224300000002
 31
0.0
  0
LINE
  5
7B
  8
0
 62
     7
 10
256.81417799999991
 20
785.25224300000002
 30
0.0
 11
256.81417799999991
 21
680.25224300000002
 31
0.0
  0
LINE
  5
7C
  8
0
 62
     7
 10
175.81411900000001
 20
779.25224299999991
 30
0.0
 11
209.814121
 21
779.25224299999991
 31
0.0
  0
LINE
  5
7D
  8
0
 62
     7
 10
157.3141169999999
 20
756.25224300000002
 30
0.0
 11
233.81417799999991
 21
756.25224300000002
 31
0.0
  0
LINE
  5
7E
  8
0
 62
     7
 10
163.3141169999999
 20
744.25224300000002
 30
0.0
 11
233.81417799999991
 21
744.25224300000002
 31
0.0
  0
LINE
  5
7F
  8
0
 62
     7
 10
163.3141169999999
 20
721.25224299999991
 30
0.0
 11
233.81417799999991
 21
721.25224299999991
 31
0.0
  0
LINE
  5
80
  8
0
 62
     7
 10
163.3141169999999
 20
709.25224300000002
 30
0.0
 11
233.81417799999991
 21
709.25224300000002
 31
0.0
  0
LINE
  5
81
  8
0
 62
     7
 10
217.81417799999991
 20
780.25224300000002
 30
0.0
 11
217.81417799999991
 21
756.25224300000002
 31
0.0
  0
LINE
  5
82
  8
0
 62
     7
 10
163.3141169999999
 20
685.25224300000002
 30
0.0
 11
233.81417799999991
 21
685.25224300000002
 31
0.0
  0
LINE
  5
83
  8
0
 62
     7
 10
217.81417799999991
 20
744.25224300000002
 30
0.0
 11
217.81417799999991
 21
721.25224299999991
 31
0.0
  0
LINE
  5
84
  8
0
 62
     7
 10
217.81417799999991
 20
709.25224300000002
 30
0.0
 11
217.81417799999991
 21
685.25224300000002
 31
0.0
  0
LINE
  5
85
  8
0
 62
     7
 10
303.81411700000001
 20
800.75222799999995
 30
0.0
 11
303.81411700000001
 21
704.75223200000005
 31
0.0
  0
LINE
  5
86
  8
0
 62
     3
 10
175.3141169999999
 20
775.25224299999991
 30
0.0
 11
175.3141169999999
 21
760.25224300000002
 31
0.0
  0
LINE
  5
87
  8
0
 62
     3
 10
175.3141169999999
 20
775.25224299999991
 30
0.0
 11
180.3141169999999
 21
775.25224299999991
 31
0.0
  0
LINE
  5
88
  8
0
 62
     3
 10
175.3141169999999
 20
760.25224300000002
 30
0.0
 11
180.3141169999999
 21
760.25224300000002
 31
0.0
  0
LINE
  5
89
  8
0
 62
     7
 10
180.3141169999999
 20
775.25224299999991
 30
0.0
 11
180.3141169999999
 21
760.25224300000002
 31
0.0
  0
LINE
  5
8A
  8
0
 62
     7
 10
200.814121
 20
776.50224300000002
 30
0.0
 11
204.81412099999989
 21
776.50224300000002
 31
0.0
  0
LINE
  5
8B
  8
0
 62
     7
 10
200.814121
 20
759.00224300000002
 30
0.0
 11
204.81412099999989
 21
759.00224300000002
 31
0.0
  0
LINE
  5
8C
  8
0
 62
     7
 10
200.814121
 20
776.75224300000002
 30
0.0
 11
200.814121
 21
758.75224299999991
 31
0.0
  0
LINE
  5
8D
  8
0
 62
     7
 10
204.81412099999989
 20
776.75224300000002
 30
0.0
 11
204.81412099999989
 21
758.75224299999991
 31
0.0
  0
LINE
  5
8E
  8
0
 62
     7
 10
175.81411900000001
 20
758.75224299999991
 30
0.0
 11
209.814121
 21
758.75224299999991
 31
0.0
  0
LINE
  5
8F
  8
0
 62
     7
 10
175.31411900000001
 20
776.25224300000002
 30
0.0
 11
175.31411900000001
 21
759.25224300000002
 31
0.0
  0
LINE
  5
90
  8
0
 62
     7
 10
175.81411900000001
 20
776.75224300000002
 30
0.0
 11
209.814121
 21
776.75224300000002
 31
0.0
  0
LINE
  5
91
  8
0
 62
     7
 10
209.814121
 20
779.25224299999991
 30
0.0
 11
209.814121
 21
776.75224300000002
 31
0.0
  0
LINE
  5
92
  8
0
 62
     7
 10
172.81411900000001
 20
776.25224300000002
 30
0.0
 11
172.81411900000001
 21
759.25224300000002
 31
0.0
  0
LINE
  5
93
  8
0
 62
     7
 10
209.814121
 20
758.75224299999991
 30
0.0
 11
209.814121
 21
756.25224300000002
 31
0.0
  0
ARC
  5
94
  8
0
 62
     7
 10
175.81411900000001
 20
776.25224300000002
 30
0.0
 40
0.5
 50
90.000032000000004
 51
179.99997300000001
  0
ARC
  5
95
  8
0
 62
     7
 10
175.81411900000001
 20
776.25224300000002
 30
0.0
 40
3.0
 50
90.000005000000002
 51
180.00000099999991
  0
ARC
  5
96
  8
0
 62
     7
 10
175.81411900000001
 20
759.25224300000002
 30
0.0
 40
0.499999
 50
179.99989099999999
 51
270.00008300000002
  0
ARC
  5
97
  8
0
 62
     7
 10
175.81411900000001
 20
759.25224300000002
 30
0.0
 40
2.9999989999999999
 50
179.99994599999991
 51
270.0
  0
LINE
  5
98
  8
0
  6
DASHDOT
 62
     7
 10
168.83579700000001
 20
767.75224300000002
 30
0.0
 11
218.10634200000001
 21
767.75224300000002
 31
0.0
  0
LINE
  5
99
  8
0
 62
     7
 10
190.31532699999991
 20
776.00224300000002
 30
0.0
 11
192.81532699999991
 21
776.00224300000002
 31
0.0
  0
LINE
  5
9A
  8
0
 62
     7
 10
190.31532699999991
 20
759.50224300000002
 30
0.0
 11
192.81532699999991
 21
759.50224300000002
 31
0.0
  0
ARC
  5
9B
  8
0
 62
     7
 10
176.315325
 20
767.75224300000002
 30
0.0
 40
17.5
 50
340.53705000000002
 51
342.20841100000001
  0
ARC
  5
9C
  8
0
 62
     7
 10
176.315325
 20
767.75224300000002
 30
0.0
 40
17.5
 50
377.79159399999998
 51
379.46294799999998
  0
LINE
  5
9D
  8
0
 62
     7
 10
193.45446000000001
 20
772.75224300000002
 30
0.0
 11
195.31532699999991
 21
772.75224300000002
 31
0.0
  0
LINE
  5
9E
  8
0
 62
     7
 10
193.45446000000001
 20
762.75224299999991
 30
0.0
 11
195.31532699999991
 21
762.75224299999991
 31
0.0
  0
LINE
  5
9F
  8
0
 62
     7
 10
192.81532699999991
 20
776.00224300000002
 30
0.0
 11
192.81532699999991
 21
773.58319100000006
 31
0.0
  0
ARC
  5
A0
  8
0
 62
     7
 10
193.45446000000001
 20
762.25224300000002
 30
0.0
 40
0.5
 50
90.000005000000002
 51
162.20839499999991
  0
ARC
  5
A1
  8
0
 62
     7
 10
193.45446000000001
 20
773.25224300000002
 30
0.0
 40
0.5
 50
197.79157799999999
 51
270.0
  0
LINE
  5
A2
  8
0
 62
     7
 10
192.81532699999991
 20
761.921288
 30
0.0
 11
192.81532699999991
 21
759.50224300000002
 31
0.0
  0
LINE
  5
A3
  8
0
 62
     7
 10
190.31532699999991
 20
776.00224300000002
 30
0.0
 11
190.31532699999991
 21
759.50224300000002
 31
0.0
  0
LINE
  5
A4
  8
0
 62
     7
 10
204.81412099999989
 20
773.75224300000002
 30
0.0
 11
213.315327
 21
773.75224300000002
 31
0.0
  0
LINE
  5
A5
  8
0
 62
     7
 10
204.81412099999989
 20
761.75224300000002
 30
0.0
 11
213.315327
 21
761.75224300000002
 31
0.0
  0
LINE
  5
A6
  8
0
 62
     7
 10
195.31532699999991
 20
772.75224300000002
 30
0.0
 11
195.31532699999991
 21
762.75224299999991
 31
0.0
  0
LINE
  5
A7
  8
0
 62
     7
 10
214.31532699999991
 20
772.75224300000002
 30
0.0
 11
214.31532699999991
 21
762.75224299999991
 31
0.0
  0
LINE
  5
A8
  8
0
 62
     7
 10
213.315327
 20
773.75224300000002
 30
0.0
 11
213.315327
 21
761.75224300000002
 31
0.0
  0
LINE
  5
A9
  8
0
 62
     7
 10
196.315327
 20
773.75224300000002
 30
0.0
 11
196.315327
 21
761.75224300000002
 31
0.0
  0
LINE
  5
AA
  8
0
 62
     7
 10
196.315327
 20
773.75224300000002
 30
0.0
 11
195.31532699999991
 21
772.75224300000002
 31
0.0
  0
LINE
  5
AB
  8
0
 62
     7
 10
214.31532699999991
 20
762.75224299999991
 30
0.0
 11
213.315327
 21
761.75224300000002
 31
0.0
  0
LINE
  5
AC
  8
0
 62
     7
 10
195.31532699999991
 20
762.75224299999991
 30
0.0
 11
196.315327
 21
761.75224300000002
 31
0.0
  0
LINE
  5
AD
  8
0
 62
     7
 10
213.315327
 20
773.75224300000002
 30
0.0
 11
214.31532699999991
 21
772.75224300000002
 31
0.0
  0
LINE
  5
AE
  8
0
 62
     7
 10
204.81412099999989
 20
772.95224000000007
 30
0.0
 11
213.315327
 21
772.95224000000007
 31
0.0
  0
LINE
  5
AF
  8
0
 62
     7
 10
204.81412099999989
 20
762.55224599999997
 30
0.0
 11
213.315327
 21
762.55224599999997
 31
0.0
  0
LINE
  5
B0
  8
0
 62
     7
 10
196.315327
 20
773.75224300000002
 30
0.0
 11
200.814121
 21
773.75224300000002
 31
0.0
  0
LINE
  5
B1
  8
0
 62
     7
 10
196.315327
 20
772.95224000000007
 30
0.0
 11
200.814121
 21
772.95224000000007
 31
0.0
  0
LINE
  5
B2
  8
0
 62
     7
 10
196.315327
 20
762.55224599999997
 30
0.0
 11
200.814121
 21
762.55224599999997
 31
0.0
  0
LINE
  5
B3
  8
0
 62
     7
 10
196.315327
 20
761.75224300000002
 30
0.0
 11
200.814121
 21
761.75224300000002
 31
0.0
  0
LINE
  5
B4
  8
0
 62
     3
 10
175.3141169999999
 20
740.25224300000002
 30
0.0
 11
175.3141169999999
 21
725.25224299999991
 31
0.0
  0
LINE
  5
B5
  8
0
 62
     3
 10
175.3141169999999
 20
740.25224300000002
 30
0.0
 11
180.3141169999999
 21
740.25224300000002
 31
0.0
  0
LINE
  5
B6
  8
0
 62
     3
 10
175.3141169999999
 20
725.25224299999991
 30
0.0
 11
180.3141169999999
 21
725.25224299999991
 31
0.0
  0
LINE
  5
B7
  8
0
 62
     7
 10
180.3141169999999
 20
740.25224300000002
 30
0.0
 11
180.3141169999999
 21
725.25224299999991
 31
0.0
  0
LINE
  5
B8
  8
0
 62
     7
 10
200.814121
 20
741.50224300000002
 30
0.0
 11
204.81412099999989
 21
741.50224300000002
 31
0.0
  0
LINE
  5
B9
  8
0
 62
     7
 10
200.814121
 20
724.00224300000002
 30
0.0
 11
204.81412099999989
 21
724.00224300000002
 31
0.0
  0
LINE
  5
BA
  8
0
 62
     7
 10
200.814121
 20
741.75224299999991
 30
0.0
 11
200.814121
 21
723.75224300000002
 31
0.0
  0
LINE
  5
BB
  8
0
 62
     7
 10
204.81412099999989
 20
741.75224299999991
 30
0.0
 11
204.81412099999989
 21
723.75224300000002
 31
0.0
  0
LINE
  5
BC
  8
0
 62
     7
 10
175.81411900000001
 20
723.75224300000002
 30
0.0
 11
209.814121
 21
723.75224300000002
 31
0.0
  0
LINE
  5
BD
  8
0
 62
     7
 10
175.31411900000001
 20
741.25224300000002
 30
0.0
 11
175.31411900000001
 21
724.25224300000002
 31
0.0
  0
LINE
  5
BE
  8
0
 62
     7
 10
175.81411900000001
 20
741.75224299999991
 30
0.0
 11
209.814121
 21
741.75224299999991
 31
0.0
  0
LINE
  5
BF
  8
0
 62
     7
 10
209.814121
 20
744.25224300000002
 30
0.0
 11
209.814121
 21
741.75224299999991
 31
0.0
  0
LINE
  5
C0
  8
0
 62
     7
 10
172.81411900000001
 20
741.25224300000002
 30
0.0
 11
172.81411900000001
 21
724.25224300000002
 31
0.0
  0
LINE
  5
C1
  8
0
 62
     7
 10
209.814121
 20
723.75224300000002
 30
0.0
 11
209.814121
 21
721.25224299999991
 31
0.0
  0
ARC
  5
C2
  8
0
 62
     7
 10
175.81411900000001
 20
741.25224300000002
 30
0.0
 40
0.5
 50
90.000032000000004
 51
179.99997300000001
  0
ARC
  5
C3
  8
0
 62
     7
 10
175.81411900000001
 20
741.25224300000002
 30
0.0
 40
3.0
 50
90.000005000000002
 51
180.00000099999991
  0
ARC
  5
C4
  8
0
 62
     7
 10
175.81411900000001
 20
724.25224300000002
 30
0.0
 40
0.499999
 50
179.99989099999999
 51
270.00008300000002
  0
ARC
  5
C5
  8
0
 62
     7
 10
175.81411900000001
 20
724.25224300000002
 30
0.0
 40
2.9999989999999999
 50
179.99994599999991
 51
270.0
  0
LINE
  5
C6
  8
0
  6
DASHDOT
 62
     7
 10
59.528137000000001
 20
732.75224300000002
 30
0.0
 11
287.65141299999988
 21
732.75224300000002
 31
0.0
  0
LINE
  5
C7
  8
0
 62
     7
 10
190.31532699999991
 20
741.00224300000002
 30
0.0
 11
192.81532699999991
 21
741.00224300000002
 31
0.0
  0
LINE
  5
C8
  8
0
 62
     7
 10
190.31532699999991
 20
724.50224300000002
 30
0.0
 11
192.81532699999991
 21
724.50224300000002
 31
0.0
  0
ARC
  5
C9
  8
0
 62
     7
 10
176.315325
 20
732.75224300000002
 30
0.0
 40
17.5
 50
340.53705000000002
 51
342.20841100000001
  0
ARC
  5
CA
  8
0
 62
     7
 10
176.315325
 20
732.75224300000002
 30
0.0
 40
17.5
 50
377.79159399999998
 51
379.46294799999998
  0
LINE
  5
CB
  8
0
 62
     7
 10
193.45446000000001
 20
737.75224299999991
 30
0.0
 11
195.31532699999991
 21
737.75224299999991
 31
0.0
  0
LINE
  5
CC
  8
0
 62
     7
 10
193.45446000000001
 20
727.75224300000002
 30
0.0
 11
195.31532699999991
 21
727.75224300000002
 31
0.0
  0
LINE
  5
CD
  8
0
 62
     7
 10
192.81532699999991
 20
741.00224300000002
 30
0.0
 11
192.81532699999991
 21
738.58319100000006
 31
0.0
  0
ARC
  5
CE
  8
0
 62
     7
 10
193.45446000000001
 20
727.25224300000002
 30
0.0
 40
0.5
 50
90.000005000000002
 51
162.20839499999991
  0
ARC
  5
CF
  8
0
 62
     7
 10
193.45446000000001
 20
738.25224300000002
 30
0.0
 40
0.5
 50
197.79157799999999
 51
270.0
  0
LINE
  5
D0
  8
0
 62
     7
 10
192.81532699999991
 20
726.921288
 30
0.0
 11
192.81532699999991
 21
724.50224300000002
 31
0.0
  0
LINE
  5
D1
  8
0
 62
     7
 10
190.31532699999991
 20
741.00224300000002
 30
0.0
 11
190.31532699999991
 21
724.50224300000002
 31
0.0
  0
LINE
  5
D2
  8
0
 62
     7
 10
204.81412099999989
 20
738.75224300000002
 30
0.0
 11
213.315327
 21
738.75224300000002
 31
0.0
  0
LINE
  5
D3
  8
0
 62
     7
 10
204.81412099999989
 20
726.75224300000002
 30
0.0
 11
213.315327
 21
726.75224300000002
 31
0.0
  0
LINE
  5
D4
  8
0
 62
     7
 10
195.31532699999991
 20
737.75224299999991
 30
0.0
 11
195.31532699999991
 21
727.75224300000002
 31
0.0
  0
LINE
  5
D5
  8
0
 62
     7
 10
214.31532699999991
 20
737.75224299999991
 30
0.0
 11
214.31532699999991
 21
727.75224300000002
 31
0.0
  0
LINE
  5
D6
  8
0
 62
     7
 10
213.315327
 20
738.75224300000002
 30
0.0
 11
213.315327
 21
726.75224300000002
 31
0.0
  0
LINE
  5
D7
  8
0
 62
     7
 10
196.315327
 20
738.75224300000002
 30
0.0
 11
195.31532699999991
 21
737.75224299999991
 31
0.0
  0
LINE
  5
D8
  8
0
 62
     7
 10
214.31532699999991
 20
727.75224300000002
 30
0.0
 11
213.315327
 21
726.75224300000002
 31
0.0
  0
LINE
  5
D9
  8
0
 62
     7
 10
195.31532699999991
 20
727.75224300000002
 30
0.0
 11
196.315327
 21
726.75224300000002
 31
0.0
  0
LINE
  5
DA
  8
0
 62
     7
 10
213.315327
 20
738.75224300000002
 30
0.0
 11
214.31532699999991
 21
737.75224299999991
 31
0.0
  0
LINE
  5
DB
  8
0
 62
     7
 10
196.315327
 20
738.75224300000002
 30
0.0
 11
196.315327
 21
726.75224300000002
 31
0.0
  0
LINE
  5
DC
  8
0
 62
     7
 10
204.81412099999989
 20
737.95223999999996
 30
0.0
 11
213.315327
 21
737.95223999999996
 31
0.0
  0
LINE
  5
DD
  8
0
 62
     7
 10
204.81412099999989
 20
727.55224599999985
 30
0.0
 11
213.315327
 21
727.55224599999985
 31
0.0
  0
LINE
  5
DE
  8
0
 62
     7
 10
196.315327
 20
738.75224300000002
 30
0.0
 11
200.814121
 21
738.75224300000002
 31
0.0
  0
LINE
  5
DF
  8
0
 62
     7
 10
196.315327
 20
737.95223999999996
 30
0.0
 11
200.814121
 21
737.95223999999996
 31
0.0
  0
LINE
  5
E0
  8
0
 62
     7
 10
196.315327
 20
727.55224599999985
 30
0.0
 11
200.814121
 21
727.55224599999985
 31
0.0
  0
LINE
  5
E1
  8
0
 62
     7
 10
196.315327
 20
726.75224300000002
 30
0.0
 11
200.814121
 21
726.75224300000002
 31
0.0
  0
LINE
  5
E2
  8
0
 62
     3
 10
175.3141169999999
 20
705.25224300000002
 30
0.0
 11
175.3141169999999
 21
690.25224300000002
 31
0.0
  0
LINE
  5
E3
  8
0
 62
     3
 10
175.3141169999999
 20
705.25224300000002
 30
0.0
 11
180.3141169999999
 21
705.25224300000002
 31
0.0
  0
LINE
  5
E4
  8
0
 62
     3
 10
175.3141169999999
 20
690.25224300000002
 30
0.0
 11
180.3141169999999
 21
690.25224300000002
 31
0.0
  0
LINE
  5
E5
  8
0
 62
     7
 10
180.3141169999999
 20
705.25224300000002
 30
0.0
 11
180.3141169999999
 21
690.25224300000002
 31
0.0
  0
LINE
  5
E6
  8
0
 62
     7
 10
200.814121
 20
706.50224299999991
 30
0.0
 11
204.81412099999989
 21
706.50224299999991
 31
0.0
  0
LINE
  5
E7
  8
0
 62
     7
 10
200.814121
 20
689.00224300000002
 30
0.0
 11
204.81412099999989
 21
689.00224300000002
 31
0.0
  0
LINE
  5
E8
  8
0
 62
     7
 10
200.814121
 20
706.75224300000002
 30
0.0
 11
200.814121
 21
688.75224300000002
 31
0.0
  0
LINE
  5
E9
  8
0
 62
     7
 10
204.81412099999989
 20
706.75224300000002
 30
0.0
 11
204.81412099999989
 21
688.75224500000002
 31
0.0
  0
LINE
  5
EA
  8
0
 62
     7
 10
175.81411900000001
 20
688.75224300000002
 30
0.0
 11
209.814121
 21
688.75224300000002
 31
0.0
  0
LINE
  5
EB
  8
0
 62
     7
 10
175.31411900000001
 20
706.25224300000002
 30
0.0
 11
175.31411900000001
 21
689.25224300000002
 31
0.0
  0
LINE
  5
EC
  8
0
 62
     7
 10
175.81411900000001
 20
706.75224300000002
 30
0.0
 11
209.814121
 21
706.75224300000002
 31
0.0
  0
LINE
  5
ED
  8
0
 62
     7
 10
209.814121
 20
709.25224300000002
 30
0.0
 11
209.814121
 21
706.75224300000002
 31
0.0
  0
LINE
  5
EE
  8
0
 62
     7
 10
172.81411900000001
 20
706.25224300000002
 30
0.0
 11
172.81411900000001
 21
689.25224300000002
 31
0.0
  0
LINE
  5
EF
  8
0
 62
     7
 10
209.814121
 20
688.75224300000002
 30
0.0
 11
209.814121
 21
686.25224300000002
 31
0.0
  0
ARC
  5
F0
  8
0
 62
     7
 10
175.81411900000001
 20
706.25224300000002
 30
0.0
 40
0.5
 50
90.000032000000004
 51
179.99997300000001
  0
ARC
  5
F1
  8
0
 62
     7
 10
175.81411900000001
 20
706.25224300000002
 30
0.0
 40
3.0
 50
90.000005000000002
 51
180.00000099999991
  0
ARC
  5
F2
  8
0
 62
     7
 10
175.81411900000001
 20
689.25224300000002
 30
0.0
 40
0.499999
 50
179.99989099999999
 51
270.00008300000002
  0
ARC
  5
F3
  8
0
 62
     7
 10
175.81411900000001
 20
689.25224200000002
 30
0.0
 40
2.9999989999999999
 50
179.99994599999991
 51
270.0
  0
LINE
  5
F4
  8
0
  6
DASHDOT
 62
     7
 10
168.83579700000001
 20
697.75224300000002
 30
0.0
 11
218.10634200000001
 21
697.75224300000002
 31
0.0
  0
LINE
  5
F5
  8
0
 62
     7
 10
190.31532699999991
 20
706.00224300000002
 30
0.0
 11
192.81532699999991
 21
706.00224300000002
 31
0.0
  0
LINE
  5
F6
  8
0
 62
     7
 10
190.31532699999991
 20
689.50224300000002
 30
0.0
 11
192.81532699999991
 21
689.50224300000002
 31
0.0
  0
ARC
  5
F7
  8
0
 62
     7
 10
176.315325
 20
697.75224300000002
 30
0.0
 40
17.5
 50
340.53705000000002
 51
342.20841100000001
  0
ARC
  5
F8
  8
0
 62
     7
 10
176.315325
 20
697.75224300000002
 30
0.0
 40
17.5
 50
377.79159399999998
 51
379.46294799999998
  0
LINE
  5
F9
  8
0
 62
     7
 10
193.45446000000001
 20
702.75224300000002
 30
0.0
 11
195.31532699999991
 21
702.75224300000002
 31
0.0
  0
LINE
  5
FA
  8
0
 62
     7
 10
193.45446000000001
 20
692.75224300000002
 30
0.0
 11
195.31532699999991
 21
692.75224300000002
 31
0.0
  0
LINE
  5
FB
  8
0
 62
     7
 10
192.81532699999991
 20
706.00224300000002
 30
0.0
 11
192.81532699999991
 21
703.58319500000005
 31
0.0
  0
ARC
  5
FC
  8
0
 62
     7
 10
193.45446000000001
 20
692.25224300000002
 30
0.0
 40
0.5
 50
90.000005000000002
 51
162.20839499999991
  0
ARC
  5
FD
  8
0
 62
     7
 10
193.45446000000001
 20
703.25224300000002
 30
0.0
 40
0.5
 50
197.79157799999999
 51
270.0
  0
LINE
  5
FE
  8
0
 62
     7
 10
192.81532699999991
 20
691.92129199999988
 30
0.0
 11
192.81532699999991
 21
689.50224300000002
 31
0.0
  0
LINE
  5
FF
  8
0
 62
     7
 10
190.31532699999991
 20
706.00224300000002
 30
0.0
 11
190.31532699999991
 21
689.50224300000002
 31
0.0
  0
LINE
  5
100
  8
0
 62
     7
 10
204.81412099999989
 20
703.75224300000002
 30
0.0
 11
213.315327
 21
703.75224300000002
 31
0.0
  0
LINE
  5
101
  8
0
 62
     7
 10
204.81412099999989
 20
691.75224299999991
 30
0.0
 11
213.315327
 21
691.75224299999991
 31
0.0
  0
LINE
  5
102
  8
0
 62
     7
 10
195.31532699999991
 20
702.75224300000002
 30
0.0
 11
195.31532699999991
 21
692.75224300000002
 31
0.0
  0
LINE
  5
103
  8
0
 62
     7
 10
214.31532699999991
 20
702.75224300000002
 30
0.0
 11
214.31532699999991
 21
692.75224300000002
 31
0.0
  0
LINE
  5
104
  8
0
 62
     7
 10
213.315327
 20
703.75224300000002
 30
0.0
 11
213.315327
 21
691.75224299999991
 31
0.0
  0
LINE
  5
105
  8
0
 62
     7
 10
196.315327
 20
703.75224300000002
 30
0.0
 11
196.315327
 21
691.75224299999991
 31
0.0
  0
LINE
  5
106
  8
0
 62
     7
 10
196.315327
 20
703.75224300000002
 30
0.0
 11
195.31532699999991
 21
702.75224300000002
 31
0.0
  0
LINE
  5
107
  8
0
 62
     7
 10
214.31532699999991
 20
692.75224300000002
 30
0.0
 11
213.315327
 21
691.75224299999991
 31
0.0
  0
LINE
  5
108
  8
0
 62
     7
 10
195.31532699999991
 20
692.75224300000002
 30
0.0
 11
196.315327
 21
691.75224299999991
 31
0.0
  0
LINE
  5
109
  8
0
 62
     7
 10
213.315327
 20
703.75224300000002
 30
0.0
 11
214.31532699999991
 21
702.75224300000002
 31
0.0
  0
LINE
  5
10A
  8
0
 62
     7
 10
204.81412099999989
 20
702.95224399999995
 30
0.0
 11
213.315327
 21
702.95224399999995
 31
0.0
  0
LINE
  5
10B
  8
0
 62
     7
 10
204.81412099999989
 20
692.55224299999998
 30
0.0
 11
213.315327
 21
692.55224299999998
 31
0.0
  0
LINE
  5
10C
  8
0
 62
     7
 10
196.315327
 20
703.75224300000002
 30
0.0
 11
200.814121
 21
703.75224300000002
 31
0.0
  0
LINE
  5
10D
  8
0
 62
     7
 10
196.315327
 20
702.95224399999995
 30
0.0
 11
200.814121
 21
702.95224399999995
 31
0.0
  0
LINE
  5
10E
  8
0
 62
     7
 10
196.315327
 20
692.55224299999998
 30
0.0
 11
200.814121
 21
692.55224299999998
 31
0.0
  0
LINE
  5
10F
  8
0
 62
     7
 10
196.315327
 20
691.75224299999991
 30
0.0
 11
200.814121
 21
691.75224299999991
 31
0.0
  0
LINE
  5
110
  8
0
 62
     7
 10
175.81411900000001
 20
686.25224200000002
 30
0.0
 11
209.814121
 21
686.25224200000002
 31
0.0
  0
LINE
  5
111
  8
0
 62
     7
 10
157.3141169999999
 20
780.25224300000002
 30
0.0
 11
233.81417799999991
 21
780.25224300000002
 31
0.0
  0
LINE
  5
112
  8
0
 62
     7
 10
267.81417799999991
 20
704.75224300000002
 30
0.0
 11
303.81411700000001
 21
704.75224300000002
 31
0.0
  0
LINE
  5
113
  8
0
 62
     7
 10
161.3141169999999
 20
800.75224299999991
 30
0.0
 11
303.81411700000001
 21
800.75224299999991
 31
0.0
  0
LINE
  5
114
  8
0
 62
     7
 10
303.81411700000001
 20
800.75224299999991
 30
0.0
 11
303.81411700000001
 21
704.75224300000002
 31
0.0
  0
LINE
  5
115
  8
0
 62
     7
 10
293.81411700000001
 20
800.75224299999991
 30
0.0
 11
293.81411700000001
 21
704.75224300000002
 31
0.0
  0
LINE
  5
116
  8
0
 62
     7
 10
258.81411700000001
 20
790.75224300000002
 30
0.0
 11
258.81411700000001
 21
785.25224300000002
 31
0.0
  0
LINE
  5
117
  8
0
 62
     7
 10
260.81411700000001
 20
792.75224300000002
 30
0.0
 11
290.81411700000001
 21
792.75224300000002
 31
0.0
  0
LINE
  5
118
  8
0
 62
     7
 10
267.81417799999991
 20
712.75224299999991
 30
0.0
 11
290.81411700000001
 21
712.75224299999991
 31
0.0
  0
LINE
  5
119
  8
0
 62
     7
 10
297.81411700000001
 20
707.75224300000002
 30
0.0
 11
299.81411700000001
 21
707.75224300000002
 31
0.0
  0
LINE
  5
11A
  8
0
 62
     7
 10
300.81411700000001
 20
734.75224300000002
 30
0.0
 11
300.81411700000001
 21
708.75224299999991
 31
0.0
  0
ARC
  5
11B
  8
0
 62
     7
 10
297.81411700000001
 20
708.75224299999991
 30
0.0
 40
1.0
 50
180.00000099999991
 51
270.0
  0
ARC
  5
11C
  8
0
 62
     7
 10
299.81411700000001
 20
708.75224299999991
 30
0.0
 40
1.0
 50
270.0
 51
360.00000299999988
  0
LINE
  5
11D
  8
0
 62
     7
 10
297.81411700000001
 20
797.75224300000002
 30
0.0
 11
299.81411700000001
 21
797.75224300000002
 31
0.0
  0
LINE
  5
11E
  8
0
 62
     7
 10
297.81411700000001
 20
766.75224299999991
 30
0.0
 11
299.81411700000001
 21
766.75224299999991
 31
0.0
  0
LINE
  5
11F
  8
0
 62
     7
 10
297.81411700000001
 20
735.75224300000002
 30
0.0
 11
299.81411700000001
 21
735.75224300000002
 31
0.0
  0
LINE
  5
120
  8
0
 62
     7
 10
297.81411700000001
 20
769.75224300000002
 30
0.0
 11
299.81411700000001
 21
769.75224300000002
 31
0.0
  0
LINE
  5
121
  8
0
 62
     7
 10
297.81411700000001
 20
738.75224300000002
 30
0.0
 11
299.81411700000001
 21
738.75224300000002
 31
0.0
  0
LINE
  5
122
  8
0
 62
     7
 10
300.81411700000001
 20
796.75224300000002
 30
0.0
 11
300.81411700000001
 21
770.75224300000002
 31
0.0
  0
LINE
  5
123
  8
0
 62
     7
 10
296.8141169999999
 20
796.75224300000002
 30
0.0
 11
296.8141169999999
 21
770.75224300000002
 31
0.0
  0
LINE
  5
124
  8
0
 62
     7
 10
296.8141169999999
 20
765.75224300000002
 30
0.0
 11
296.8141169999999
 21
739.75224300000002
 31
0.0
  0
LINE
  5
125
  8
0
 62
     7
 10
300.81411700000001
 20
765.75224300000002
 30
0.0
 11
300.81411700000001
 21
739.75224300000002
 31
0.0
  0
LINE
  5
126
  8
0
 62
     7
 10
296.8141169999999
 20
734.75224300000002
 30
0.0
 11
296.8141169999999
 21
708.75224299999991
 31
0.0
  0
ARC
  5
127
  8
0
 62
     7
 10
299.81411700000001
 20
734.75224300000002
 30
0.0
 40
1.0
 50
360.00000299999988
 51
90.000005000000002
  0
ARC
  5
128
  8
0
 62
     7
 10
297.81411700000001
 20
734.75224300000002
 30
0.0
 40
1.0
 50
90.000005000000002
 51
180.00000099999991
  0
ARC
  5
129
  8
0
 62
     7
 10
299.81411700000001
 20
739.75224300000002
 30
0.0
 40
1.0
 50
270.0
 51
360.00000299999988
  0
ARC
  5
12A
  8
0
 62
     7
 10
299.81411700000001
 20
765.75224300000002
 30
0.0
 40
1.0
 50
360.00000299999988
 51
90.000005000000002
  0
ARC
  5
12B
  8
0
 62
     7
 10
297.81411700000001
 20
765.75224300000002
 30
0.0
 40
1.0
 50
90.000005000000002
 51
180.00000099999991
  0
ARC
  5
12C
  8
0
 62
     7
 10
297.81411700000001
 20
739.75224300000002
 30
0.0
 40
1.0
 50
180.00000099999991
 51
270.0
  0
ARC
  5
12D
  8
0
 62
     7
 10
297.81411700000001
 20
770.75224300000002
 30
0.0
 40
1.0
 50
180.00000099999991
 51
270.0
  0
ARC
  5
12E
  8
0
 62
     7
 10
299.81411700000001
 20
770.75224300000002
 30
0.0
 40
1.0
 50
270.0
 51
360.00000299999988
  0
ARC
  5
12F
  8
0
 62
     7
 10
299.81411700000001
 20
796.75224300000002
 30
0.0
 40
1.0
 50
360.00000299999988
 51
90.000005000000002
  0
ARC
  5
130
  8
0
 62
     7
 10
297.81411700000001
 20
796.75224300000002
 30
0.0
 40
1.0
 50
90.000005000000002
 51
180.00000099999991
  0
LINE
  5
131
  8
0
 62
     7
 10
259.81411700000001
 20
797.75224300000002
 30
0.0
 11
293.81411700000001
 21
797.75224300000002
 31
0.0
  0
LINE
  5
132
  8
0
 62
     7
 10
259.81411700000001
 20
795.75224300000002
 30
0.0
 11
293.81411700000001
 21
795.75224300000002
 31
0.0
  0
LINE
  5
133
  8
0
 62
     7
 10
267.81417799999991
 20
709.75224300000002
 30
0.0
 11
293.81411700000001
 21
709.75224300000002
 31
0.0
  0
LINE
  5
134
  8
0
 62
     7
 10
267.81417799999991
 20
707.75224300000002
 30
0.0
 11
293.81411700000001
 21
707.75224300000002
 31
0.0
  0
LINE
  5
135
  8
0
 62
     7
 10
255.8141169999999
 20
794.75224300000002
 30
0.0
 11
255.8141169999999
 21
785.25224300000002
 31
0.0
  0
LINE
  5
136
  8
0
 62
     7
 10
223.3141169999999
 20
797.75224300000002
 30
0.0
 11
252.81411700000001
 21
797.75224300000002
 31
0.0
  0
LINE
  5
137
  8
0
 62
     7
 10
220.3141169999999
 20
794.75224300000002
 30
0.0
 11
220.3141169999999
 21
785.25224300000002
 31
0.0
  0
LINE
  5
138
  8
0
 62
     7
 10
217.31411399999999
 20
794.75224300000002
 30
0.0
 11
217.31411399999999
 21
785.25224300000002
 31
0.0
  0
ARC
  5
139
  8
0
 62
     7
 10
252.81411700000001
 20
794.75224300000002
 30
0.0
 40
3.0
 50
360.00000299999988
 51
90.000005000000002
  0
ARC
  5
13A
  8
0
 62
     7
 10
223.3141169999999
 20
794.75224300000002
 30
0.0
 40
3.0
 50
90.000005000000002
 51
180.00000099999991
  0
ARC
  5
13B
  8
0
 62
     7
 10
260.81411700000001
 20
790.75224300000002
 30
0.0
 40
2.0
 50
90.000005000000002
 51
180.00000099999991
  0
ARC
  5
13C
  8
0
 62
     7
 10
259.81411700000001
 20
796.75224300000002
 30
0.0
 40
1.0
 50
90.000005000000002
 51
270.0
  0
ARC
  5
13D
  8
0
 62
     7
 10
290.81411700000001
 20
789.75224300000002
 30
0.0
 40
3.0
 50
360.00000299999988
 51
90.000005000000002
  0
ARC
  5
13E
  8
0
 62
     7
 10
290.81411700000001
 20
715.75224300000002
 30
0.0
 40
3.0
 50
270.0
 51
360.00000299999988
  0
LINE
  5
13F
  8
0
  6
DASHDOT
 62
     7
 10
94.475177999999985
 20
807.75224300000002
 30
0.0
 11
118.29064199999991
 21
807.75224300000002
 31
0.0
  0
LINE
  5
140
  8
0
 62
     3
 10
101.314117
 20
804.75224300000002
 30
0.0
 11
111.314117
 21
804.75224300000002
 31
0.0
  0
LINE
  5
141
  8
0
 62
     3
 10
101.314117
 20
810.75224299999991
 30
0.0
 11
111.314117
 21
810.75224299999991
 31
0.0
  0
LINE
  5
142
  8
0
 62
     3
 10
100.314117
 20
809.75224299999991
 30
0.0
 11
100.314117
 21
805.75224300000002
 31
0.0
  0
LINE
  5
143
  8
0
 62
     3
 10
101.314117
 20
810.75224299999991
 30
0.0
 11
101.314117
 21
804.75224300000002
 31
0.0
  0
LINE
  5
144
  8
0
 62
     7
 10
101.314117
 20
805.75224300000002
 30
0.0
 11
111.314117
 21
805.75224300000002
 31
0.0
  0
LINE
  5
145
  8
0
 62
     7
 10
101.314117
 20
809.75224299999991
 30
0.0
 11
111.314117
 21
809.75224299999991
 31
0.0
  0
LINE
  5
146
  8
0
 62
     3
 10
101.314117
 20
810.75224299999991
 30
0.0
 11
100.314117
 21
809.75224299999991
 31
0.0
  0
LINE
  5
147
  8
0
 62
     3
 10
100.314117
 20
805.75224300000002
 30
0.0
 11
101.314117
 21
804.75224300000002
 31
0.0
  0
LINE
  5
148
  8
0
  6
DASHDOT
 62
     7
 10
71.842185999999998
 20
657.75224300000002
 30
0.0
 11
118.29064199999991
 21
657.75224300000002
 31
0.0
  0
LINE
  5
149
  8
0
 62
     3
 10
101.314117
 20
660.75224300000002
 30
0.0
 11
101.314117
 21
654.75224300000002
 31
0.0
  0
ARC
  5
14A
  8
0
 62
     7
 10
184.8141159999999
 20
794.75224300000002
 30
0.0
 40
3.0
 50
90.000005000000002
 51
180.00000099999991
  0
LINE
  5
14B
  8
0
 62
     7
 10
184.8141159999999
 20
797.75224300000002
 30
0.0
 11
214.31411399999999
 21
797.75224300000002
 31
0.0
  0
ARC
  5
14C
  8
0
 62
     7
 10
214.31411399999999
 20
794.75224300000002
 30
0.0
 40
3.0
 50
360.00000299999988
 51
90.000005000000002
  0
LINE
  5
14D
  8
0
 62
     7
 10
181.8141159999999
 20
794.75224300000002
 30
0.0
 11
181.8141159999999
 21
785.25224300000002
 31
0.0
  0
LINE
  5
14E
  8
0
 62
     7
 10
161.3141169999999
 20
800.75224299999991
 30
0.0
 11
158.634625
 21
790.75224300000002
 31
0.0
  0
LINE
  5
14F
  8
0
 62
     7
 10
165.91807900000001
 20
797.75224300000002
 30
0.0
 11
175.8141159999999
 21
797.75224300000002
 31
0.0
  0
LINE
  5
150
  8
0
 62
     7
 10
178.8141159999999
 20
794.75224300000002
 30
0.0
 11
178.8141159999999
 21
785.25224300000002
 31
0.0
  0
LINE
  5
151
  8
0
 62
     7
 10
163.02030199999999
 20
795.52870199999995
 30
0.0
 11
161.46403000000001
 21
789.72061199999985
 31
0.0
  0
ARC
  5
152
  8
0
 62
     7
 10
175.8141159999999
 20
794.75224300000002
 30
0.0
 40
3.0
 50
360.00000299999988
 51
90.000005000000002
  0
ARC
  5
153
  8
0
 62
     7
 10
165.91807900000001
 20
794.75224300000002
 30
0.0
 40
3.0
 50
90.000005000000002
 51
165.0000039999999
  0
LINE
  5
154
  8
0
 62
     7
 10
155.3141169999999
 20
790.75224300000002
 30
0.0
 11
158.634625
 21
790.75224300000002
 31
0.0
  0
LINE
  5
155
  8
0
 62
     7
 10
155.3141169999999
 20
787.75224299999991
 30
0.0
 11
158.258892
 21
787.75224299999991
 31
0.0
  0
LINE
  5
156
  8
0
 62
     7
 10
158.46403000000001
 20
787.54089399999998
 30
0.0
 11
158.46403000000001
 21
785.25224300000002
 31
0.0
  0
LINE
  5
157
  8
0
 62
     7
 10
161.46403000000001
 20
789.72061199999985
 30
0.0
 11
161.46403000000001
 21
785.25224300000002
 31
0.0
  0
LINE
  5
158
  8
0
 62
     7
 10
157.3141169999999
 20
785.25224300000002
 30
0.0
 11
157.3141169999999
 21
754.75224300000002
 31
0.0
  0
LINE
  5
159
  8
0
 62
     7
 10
120.314117
 20
794.75224300000002
 30
0.0
 11
120.314117
 21
792.25224300000002
 31
0.0
  0
LINE
  5
15A
  8
0
 62
     7
 10
120.314117
 20
787.25224300000002
 30
0.0
 11
120.314117
 21
784.75224300000002
 31
0.0
  0
LINE
  5
15B
  8
0
 62
     7
 10
120.314117
 20
674.75224300000002
 30
0.0
 11
120.314117
 21
672.25224300000002
 31
0.0
  0
LINE
  5
15C
  8
0
 62
     7
 10
120.314117
 20
667.25224300000002
 30
0.0
 11
120.314117
 21
664.75224300000002
 31
0.0
  0
LINE
  5
15D
  8
0
 62
   150
 10
111.3141139999999
 20
653.25224300000002
 30
0.0
 11
111.3141139999999
 21
648.75225099999989
 31
0.0
  0
LINE
  5
15E
  8
0
 62
   150
 10
96.314114000000004
 20
648.75225099999989
 30
0.0
 11
111.3141139999999
 21
648.75225099999989
 31
0.0
  0
LINE
  5
15F
  8
0
 62
   150
 10
96.314114000000004
 20
664.55148699999995
 30
0.0
 11
96.314114000000004
 21
648.75225099999989
 31
0.0
  0
LINE
  5
160
  8
0
 62
   150
 10
101.314114
 20
664.50785300000007
 30
0.0
 11
101.314114
 21
648.75225099999989
 31
0.0
  0
LINE
  5
161
  8
0
 62
   150
 10
101.314114
 20
660.63899500000002
 30
0.0
 11
111.3141139999999
 21
660.63899500000002
 31
0.0
  0
LINE
  5
162
  8
0
 62
   150
 10
101.314114
 20
654.86549200000002
 30
0.0
 11
111.3141139999999
 21
654.86549200000002
 31
0.0
  0
LINE
  5
163
  8
0
 62
   150
 10
99.314114000000004
 20
664.52530699999988
 30
0.0
 11
99.314114000000004
 21
648.75225099999989
 31
0.0
  0
LINE
  5
164
  8
0
 62
     1
 10
78.814109999999985
 20
659.75224300000002
 30
0.0
 11
78.814109999999985
 21
655.75224300000002
 31
0.0
  0
LINE
  5
165
  8
0
 62
     1
 10
79.314109999999999
 20
660.25224300000002
 30
0.0
 11
96.314114000000004
 21
660.25224300000002
 31
0.0
  0
LINE
  5
166
  8
0
 62
     1
 10
79.314109999999999
 20
655.25224300000002
 30
0.0
 11
96.314114000000004
 21
655.25224300000002
 31
0.0
  0
LINE
  5
167
  8
0
 62
     1
 10
79.314109999999999
 20
660.25224300000002
 30
0.0
 11
78.814109999999985
 21
659.75224300000002
 31
0.0
  0
LINE
  5
168
  8
0
 62
     1
 10
78.814109999999985
 20
655.75224300000002
 30
0.0
 11
79.314109999999999
 21
655.25224300000002
 31
0.0
  0
LINE
  5
169
  8
0
 62
     1
 10
79.314109999999999
 20
660.25224300000002
 30
0.0
 11
79.314109999999999
 21
655.25224300000002
 31
0.0
  0
LINE
  5
16A
  8
0
 62
     7
 10
79.314109999999999
 20
659.75224300000002
 30
0.0
 11
96.314114000000004
 21
659.75224300000002
 31
0.0
  0
LINE
  5
16B
  8
0
 62
     7
 10
79.314109999999999
 20
655.75224300000002
 30
0.0
 11
96.314114000000004
 21
655.75224300000002
 31
0.0
  0
LINE
  5
16C
  8
0
 62
     3
 10
101.314117
 20
710.75224300000002
 30
0.0
 11
101.314117
 21
704.75224300000002
 31
0.0
  0
LINE
  5
16D
  8
0
 62
   150
 10
96.314114000000004
 20
713.05148699999995
 30
0.0
 11
96.314114000000004
 21
702.45299899999986
 31
0.0
  0
LINE
  5
16E
  8
0
 62
   150
 10
101.314114
 20
713.00785499999995
 30
0.0
 11
101.314114
 21
702.49663199999986
 31
0.0
  0
LINE
  5
16F
  8
0
 62
   150
 10
101.314114
 20
710.63899700000002
 30
0.0
 11
111.3141139999999
 21
710.63899700000002
 31
0.0
  0
LINE
  5
170
  8
0
 62
   150
 10
101.314114
 20
704.86549000000002
 30
0.0
 11
111.3141139999999
 21
704.86549000000002
 31
0.0
  0
LINE
  5
171
  8
0
 62
   150
 10
99.314114000000004
 20
713.025307
 30
0.0
 11
99.314114000000004
 21
702.47917999999993
 31
0.0
  0
LINE
  5
172
  8
0
 62
     3
 10
101.314117
 20
760.75224300000002
 30
0.0
 11
101.314117
 21
754.75224300000002
 31
0.0
  0
LINE
  5
173
  8
0
 62
   150
 10
96.314114000000004
 20
766.75224299999991
 30
0.0
 11
96.314114000000004
 21
752.45299599999987
 31
0.0
  0
LINE
  5
174
  8
0
 62
   150
 10
101.314114
 20
766.75224299999991
 30
0.0
 11
101.314114
 21
752.49663599999997
 31
0.0
  0
LINE
  5
175
  8
0
 62
   150
 10
101.314114
 20
760.6389929999998
 30
0.0
 11
111.3141139999999
 21
760.6389929999998
 31
0.0
  0
LINE
  5
176
  8
0
 62
   150
 10
101.314114
 20
754.86549400000001
 30
0.0
 11
111.3141139999999
 21
754.86549400000001
 31
0.0
  0
LINE
  5
177
  8
0
 62
   150
 10
99.314114000000004
 20
766.75224299999991
 30
0.0
 11
99.314114000000004
 21
752.47917999999993
 31
0.0
  0
LINE
  5
178
  8
0
 62
     1
 10
78.814109999999985
 20
759.75224300000002
 30
0.0
 11
78.814109999999985
 21
755.75224300000002
 31
0.0
  0
LINE
  5
179
  8
0
 62
     1
 10
79.314109999999999
 20
760.25224300000002
 30
0.0
 11
96.314114000000004
 21
760.25224300000002
 31
0.0
  0
LINE
  5
17A
  8
0
 62
     1
 10
79.314109999999999
 20
755.25224300000002
 30
0.0
 11
96.314114000000004
 21
755.25224300000002
 31
0.0
  0
LINE
  5
17B
  8
0
 62
     1
 10
79.314109999999999
 20
760.25224300000002
 30
0.0
 11
78.814109999999985
 21
759.75224300000002
 31
0.0
  0
LINE
  5
17C
  8
0
 62
     1
 10
78.814109999999985
 20
755.75224300000002
 30
0.0
 11
79.314109999999999
 21
755.25224300000002
 31
0.0
  0
LINE
  5
17D
  8
0
 62
     1
 10
79.314109999999999
 20
760.25224300000002
 30
0.0
 11
79.314109999999999
 21
755.25224300000002
 31
0.0
  0
LINE
  5
17E
  8
0
 62
     7
 10
79.314109999999999
 20
759.75224300000002
 30
0.0
 11
96.314114000000004
 21
759.75224300000002
 31
0.0
  0
LINE
  5
17F
  8
0
 62
     7
 10
79.314109999999999
 20
755.75224300000002
 30
0.0
 11
96.314114000000004
 21
755.75224300000002
 31
0.0
  0
LINE
  5
180
  8
0
 62
   150
 10
96.314114000000004
 20
766.75224299999991
 30
0.0
 11
111.314117
 21
766.75224299999991
 31
0.0
  0
LINE
  5
181
  8
0
 62
     7
 10
-42.773282000000002
 20
496.6688309999999
 30
0.0
 11
-364.77328199999988
 21
496.6688309999999
 31
0.0
  0
ARC
  5
182
  8
0
 62
     7
 10
-251.77328199999991
 20
578.66883099999995
 30
0.0
 40
1.0
 50
90.000000999999983
 51
179.500013
  0
ARC
  5
183
  8
0
 62
     7
 10
-151.77328199999991
 20
578.66883099999995
 30
0.0
 40
1.0
 50
90.000000999999983
 51
179.500013
  0
ARC
  5
184
  8
0
 62
     7
 10
-106.77328199999999
 20
578.66883099999995
 30
0.0
 40
1.0
 50
0.5000020000000001
 51
90.000000999999983
  0
LINE
  5
185
  8
0
 62
     7
 10
-42.773282000000002
 20
540.66883099999995
 30
0.0
 11
-66.773281999999995
 21
540.66883099999995
 31
0.0
  0
LINE
  5
186
  8
0
 62
     7
 10
-66.773281999999995
 20
523.66883099999995
 30
0.0
 11
-185.27328199999991
 21
523.66883099999995
 31
0.0
  0
LINE
  5
187
  8
0
 62
     7
 10
-68.773281999999995
 20
523.66883099999995
 30
0.0
 11
-68.773281999999995
 21
496.6688309999999
 31
0.0
  0
LINE
  5
188
  8
0
 62
     7
 10
-106.77328199999999
 20
579.66883099999995
 30
0.0
 11
-118.27328199999999
 21
579.66883099999995
 31
0.0
  0
LINE
  5
189
  8
0
 62
     7
 10
-152.77324400000001
 20
578.67755899999986
 30
0.0
 11
-153.25330099999991
 21
523.66883099999995
 31
0.0
  0
LINE
  5
18A
  8
0
 62
     7
 10
-105.293268
 20
523.66883099999995
 30
0.0
 11
-105.7733209999999
 21
578.67755899999986
 31
0.0
  0
LINE
  5
18B
  8
0
 62
     7
 10
-252.77325200000001
 20
578.67755899999986
 30
0.0
 11
-253.25329300000001
 21
523.66883099999995
 31
0.0
  0
LINE
  5
18C
  8
0
 62
     7
 10
-291.77328199999988
 20
540.66883099999995
 30
0.0
 11
-316.77328199999988
 21
540.66883099999995
 31
0.0
  0
LINE
  5
18D
  8
0
 62
     7
 10
-364.77328199999988
 20
502.6688309999999
 30
0.0
 11
-364.77328199999988
 21
493.66883100000001
 31
0.0
  0
LINE
  5
18E
  8
0
 62
     7
 10
-316.77328199999988
 20
540.66883099999995
 30
0.0
 11
-316.77328199999988
 21
507.4188309999999
 31
0.0
  0
LINE
  5
18F
  8
0
 62
     7
 10
-316.77328199999988
 20
530.38164500000005
 30
0.0
 11
-364.77328199999988
 21
502.6688309999999
 31
0.0
  0
LINE
  5
190
  8
0
 62
     7
 10
-291.77328199999988
 20
540.66883099999995
 30
0.0
 11
-291.77328199999988
 21
496.6688309999999
 31
0.0
  0
LINE
  5
191
  8
0
 62
     2
 10
-291.77328199999988
 20
507.4188309999999
 30
0.0
 11
-328.77328199999999
 21
507.4188309999999
 31
0.0
  0
ARC
  5
192
  8
0
 62
     7
 10
-118.27328199999999
 20
575.66883099999995
 30
0.0
 40
4.0
 50
90.000000999999983
 51
180.0
  0
LINE
  5
193
  8
0
 62
     7
 10
-122.27328199999999
 20
575.66883099999995
 30
0.0
 11
-122.27328199999999
 21
560.66883099999995
 31
0.0
  0
ARC
  5
194
  8
0
 62
     7
 10
-126.27328199999999
 20
560.66883099999995
 30
0.0
 40
4.0
 50
270.00000299999988
 51
0.000005
  0
LINE
  5
195
  8
0
 62
     7
 10
-126.27328199999999
 20
556.66883099999995
 30
0.0
 11
-132.27328199999991
 21
556.66883099999995
 31
0.0
  0
ARC
  5
196
  8
0
 62
     7
 10
-132.27328199999991
 20
560.66883099999995
 30
0.0
 40
4.0
 50
180.0
 51
270.00000299999988
  0
LINE
  5
197
  8
0
 62
     7
 10
-136.27328199999991
 20
575.66883099999995
 30
0.0
 11
-136.27328199999991
 21
560.66883099999995
 31
0.0
  0
ARC
  5
198
  8
0
 62
     7
 10
-140.27328199999991
 20
575.66883099999995
 30
0.0
 40
4.0
 50
0.000005
 51
90.000000999999983
  0
ARC
  5
199
  8
0
 62
     7
 10
-190.27328199999991
 20
575.66883099999995
 30
0.0
 40
4.0
 50
0.000005
 51
90.000000999999983
  0
LINE
  5
19A
  8
0
 62
     7
 10
-186.27328199999991
 20
575.66883099999995
 30
0.0
 11
-186.27328199999991
 21
560.66883099999995
 31
0.0
  0
ARC
  5
19B
  8
0
 62
     7
 10
-182.27328199999991
 20
560.66883099999995
 30
0.0
 40
4.0
 50
180.0
 51
270.00000299999988
  0
LINE
  5
19C
  8
0
 62
     7
 10
-176.27328199999999
 20
556.66883099999995
 30
0.0
 11
-182.27328199999991
 21
556.66883099999995
 31
0.0
  0
ARC
  5
19D
  8
0
 62
     7
 10
-176.27328199999999
 20
560.66883099999995
 30
0.0
 40
4.0
 50
270.00000299999988
 51
0.000005
  0
LINE
  5
19E
  8
0
 62
     7
 10
-172.27328199999999
 20
575.66883099999995
 30
0.0
 11
-172.27328199999999
 21
560.66883099999995
 31
0.0
  0
ARC
  5
19F
  8
0
 62
     7
 10
-168.27328199999999
 20
575.66883099999995
 30
0.0
 40
4.0
 50
90.000000999999983
 51
180.0
  0
LINE
  5
1A0
  8
0
 62
     7
 10
-222.27328199999999
 20
575.66883099999995
 30
0.0
 11
-222.27328199999999
 21
560.66883099999995
 31
0.0
  0
ARC
  5
1A1
  8
0
 62
     7
 10
-226.27328199999999
 20
560.66883099999995
 30
0.0
 40
4.0
 50
270.00000299999988
 51
0.000005
  0
LINE
  5
1A2
  8
0
 62
     7
 10
-226.27328199999999
 20
556.66883099999995
 30
0.0
 11
-232.27328199999999
 21
556.66883099999995
 31
0.0
  0
ARC
  5
1A3
  8
0
 62
     7
 10
-232.27328199999999
 20
560.66883099999995
 30
0.0
 40
4.0
 50
180.0
 51
270.00000299999988
  0
LINE
  5
1A4
  8
0
 62
     7
 10
-236.27328199999999
 20
575.66883099999995
 30
0.0
 11
-236.27328199999999
 21
560.66883099999995
 31
0.0
  0
ARC
  5
1A5
  8
0
 62
     7
 10
-240.27328199999999
 20
575.66883099999995
 30
0.0
 40
4.0
 50
0.000005
 51
90.000000999999983
  0
ARC
  5
1A6
  8
0
 62
     7
 10
-218.27328199999999
 20
575.66883099999995
 30
0.0
 40
4.0
 50
90.000000999999983
 51
180.0
  0
LINE
  5
1A7
  8
0
 62
     7
 10
-140.27328199999991
 20
579.66883099999995
 30
0.0
 11
-151.77328199999991
 21
579.66883099999995
 31
0.0
  0
LINE
  5
1A8
  8
0
 62
     7
 10
-190.27328199999991
 20
579.66883099999995
 30
0.0
 11
-218.27328199999999
 21
579.66883099999995
 31
0.0
  0
LINE
  5
1A9
  8
0
 62
     7
 10
-240.27328199999999
 20
579.66883099999995
 30
0.0
 11
-251.77328199999991
 21
579.66883099999995
 31
0.0
  0
LINE
  5
1AA
  8
0
 62
     3
 10
-99.273279000000016
 20
482.6688309999999
 30
0.0
 11
-99.273279000000016
 21
476.6688309999999
 31
0.0
  0
LINE
  5
1AB
  8
0
 62
     3
 10
-123.6861399999999
 20
483.98005799999999
 30
0.0
 11
-129.072202
 21
496.6688309999999
 31
0.0
  0
LINE
  5
1AC
  8
0
  6
DASHED
 62
     7
 10
-209.27328199999999
 20
535.16883099999995
 30
0.0
 11
-209.27328199999999
 21
514.16883099999995
 31
0.0
  0
LINE
  5
1AD
  8
0
  6
DASHED
 62
     7
 10
-249.27328199999999
 20
535.16883099999995
 30
0.0
 11
-249.27328199999999
 21
514.16883099999995
 31
0.0
  0
LINE
  5
1AE
  8
0
  6
DASHED
 62
     7
 10
-232.35462699999999
 20
514.16883099999995
 30
0.0
 11
-249.27328199999999
 21
514.16883099999995
 31
0.0
  0
LINE
  5
1AF
  8
0
  6
DASHED
 62
     7
 10
-218.27328199999999
 20
519.16883099999995
 30
0.0
 11
-240.27328199999999
 21
519.16883099999995
 31
0.0
  0
LINE
  5
1B0
  8
0
  6
DASHED
 62
     7
 10
-230.77328199999999
 20
529.66883099999995
 30
0.0
 11
-240.27328199999999
 21
529.66883099999995
 31
0.0
  0
LINE
  5
1B1
  8
0
  6
DASHED
 62
     7
 10
-218.27328199999999
 20
529.66883099999995
 30
0.0
 11
-218.27328199999999
 21
519.16883099999995
 31
0.0
  0
LINE
  5
1B2
  8
0
  6
DASHED
 62
     7
 10
-240.27328199999999
 20
529.66883099999995
 30
0.0
 11
-240.27328199999999
 21
519.16883099999995
 31
0.0
  0
LINE
  5
1B3
  8
0
  6
DASHED
 62
     7
 10
-227.77328199999999
 20
549.66883099999995
 30
0.0
 11
-227.77328199999999
 21
529.66883099999995
 31
0.0
  0
LINE
  5
1B4
  8
0
  6
DASHED
 62
     7
 10
-230.77328199999999
 20
549.66883099999995
 30
0.0
 11
-230.77328199999999
 21
529.66883099999995
 31
0.0
  0
ARC
  5
1B5
  8
0
  6
DASHED
 62
     7
 10
-229.27328199999991
 20
549.66883099999995
 30
0.0
 40
1.5
 50
0.000005
 51
180.0
  0
LINE
  5
1B6
  8
0
  6
DASHED
 62
     7
 10
-218.27328199999999
 20
529.66883099999995
 30
0.0
 11
-227.77328199999999
 21
529.66883099999995
 31
0.0
  0
ARC
  5
1B7
  8
0
  6
DASHED
 62
     7
 10
-219.77328199999999
 20
577.16883099999995
 30
0.0
 40
2.0
 50
318.590371
 51
90.000000999999983
  0
LINE
  5
1B8
  8
0
  6
DASHED
 62
     7
 10
-226.27328199999999
 20
554.16883099999995
 30
0.0
 11
-232.27328199999999
 21
554.16883099999995
 31
0.0
  0
LINE
  5
1B9
  8
0
 62
     7
 10
-226.27328199999999
 20
570.77091199999995
 30
0.0
 11
-226.27328199999999
 21
556.66883099999995
 31
0.0
  0
LINE
  5
1BA
  8
0
 62
     7
 10
-232.27328199999999
 20
570.77091199999995
 30
0.0
 11
-232.27328199999999
 21
556.66883099999995
 31
0.0
  0
ARC
  5
1BB
  8
0
 62
     7
 10
-220.77328199999991
 20
573.16883099999995
 30
0.0
 40
6.0
 50
90.000000999999983
 51
203.55646200000001
  0
ARC
  5
1BC
  8
0
 62
     7
 10
-237.77328199999991
 20
573.16883099999995
 30
0.0
 40
6.0
 50
336.44353000000001
 51
90.000000999999983
  0
LINE
  5
1BD
  8
0
 62
     7
 10
-219.77328199999999
 20
579.16883099999995
 30
0.0
 11
-220.77328199999991
 21
579.16883099999995
 31
0.0
  0
LINE
  5
1BE
  8
0
  6
DASHED
 62
     7
 10
-218.27328199999999
 20
575.845955
 30
0.0
 11
-218.27328199999999
 21
572.16883099999995
 31
0.0
  0
LINE
  5
1BF
  8
0
  6
DASHED
 62
     7
 10
-215.27328199999999
 20
572.16883099999995
 30
0.0
 11
-218.27328199999999
 21
572.16883099999995
 31
0.0
  0
LINE
  5
1C0
  8
0
  6
DASHED
 62
     7
 10
-213.98121399999999
 20
535.16883099999995
 30
0.0
 11
-215.27328199999999
 21
572.16883099999995
 31
0.0
  0
LINE
  5
1C1
  8
0
  6
DASHED
 62
     7
 10
-209.27328199999999
 20
535.16883099999995
 30
0.0
 11
-213.98121399999999
 21
535.16883099999995
 31
0.0
  0
LINE
  5
1C2
  8
0
  6
DASHED
 62
     7
 10
-244.56535099999991
 20
535.16883099999995
 30
0.0
 11
-249.27328199999999
 21
535.16883099999995
 31
0.0
  0
LINE
  5
1C3
  8
0
  6
DASHED
 62
     7
 10
-243.27328199999999
 20
572.16883099999995
 30
0.0
 11
-244.56535099999991
 21
535.16883099999995
 31
0.0
  0
LINE
  5
1C4
  8
0
  6
DASHED
 62
     7
 10
-240.27328199999999
 20
572.16883099999995
 30
0.0
 11
-243.27328199999999
 21
572.16883099999995
 31
0.0
  0
LINE
  5
1C5
  8
0
  6
DASHED
 62
     7
 10
-240.27328199999999
 20
575.845955
 30
0.0
 11
-240.27328199999999
 21
572.16883099999995
 31
0.0
  0
ARC
  5
1C6
  8
0
  6
DASHED
 62
     7
 10
-238.77328199999999
 20
577.16883099999995
 30
0.0
 40
2.0
 50
90.000000999999983
 51
221.40962400000001
  0
LINE
  5
1C7
  8
0
 62
     7
 10
-237.77328199999991
 20
579.16883099999995
 30
0.0
 11
-238.77328199999999
 21
579.16883099999995
 31
0.0
  0
LINE
  5
1C8
  8
0
  6
DASHED
 62
     7
 10
-226.19193799999999
 20
514.16883099999995
 30
0.0
 11
-227.2506689999999
 21
512.16883099999995
 31
0.0
  0
LINE
  5
1C9
  8
0
  6
DASHED
 62
     7
 10
-231.295896
 20
512.16883099999995
 30
0.0
 11
-239.27328199999991
 21
512.16883099999995
 31
0.0
  0
LINE
  5
1CA
  8
0
  6
DASHED
 62
     7
 10
-231.295896
 20
512.16883099999995
 30
0.0
 11
-232.35462699999999
 21
514.16883099999995
 31
0.0
  0
LINE
  5
1CB
  8
0
  6
DASHED
 62
     7
 10
-209.27328199999999
 20
514.16883099999995
 30
0.0
 11
-226.19193799999999
 21
514.16883099999995
 31
0.0
  0
LINE
  5
1CC
  8
0
  6
DASHED
 62
     7
 10
-226.27328199999999
 20
556.66883099999995
 30
0.0
 11
-226.27328199999999
 21
554.16883099999995
 31
0.0
  0
LINE
  5
1CD
  8
0
  6
DASHED
 62
     7
 10
-232.27328199999999
 20
556.66883099999995
 30
0.0
 11
-232.27328199999999
 21
554.16883099999995
 31
0.0
  0
LINE
  5
1CE
  8
0
 62
     7
 10
-176.27328199999999
 20
570.77091199999995
 30
0.0
 11
-176.27328199999999
 21
556.66883099999995
 31
0.0
  0
LINE
  5
1CF
  8
0
 62
     7
 10
-182.27328199999991
 20
570.77091199999995
 30
0.0
 11
-182.27328199999991
 21
556.66883099999995
 31
0.0
  0
ARC
  5
1D0
  8
0
 62
     7
 10
-187.77328199999999
 20
573.16883099999995
 30
0.0
 40
6.0
 50
336.44353000000001
 51
90.000000999999983
  0
ARC
  5
1D1
  8
0
 62
     7
 10
-170.77328199999991
 20
573.16883099999995
 30
0.0
 40
6.0
 50
90.000000999999983
 51
203.55646200000001
  0
LINE
  5
1D2
  8
0
 62
     7
 10
-187.77328199999999
 20
579.16883099999995
 30
0.0
 11
-188.77328199999999
 21
579.16883099999995
 31
0.0
  0
LINE
  5
1D3
  8
0
 62
     7
 10
-169.77328199999991
 20
579.16883099999995
 30
0.0
 11
-170.77328199999991
 21
579.16883099999995
 31
0.0
  0
LINE
  5
1D4
  8
0
 62
     7
 10
-126.27328199999999
 20
570.77091199999995
 30
0.0
 11
-126.27328199999999
 21
556.66883099999995
 31
0.0
  0
LINE
  5
1D5
  8
0
 62
     7
 10
-132.27328199999991
 20
570.77091199999995
 30
0.0
 11
-132.27328199999991
 21
556.66883099999995
 31
0.0
  0
ARC
  5
1D6
  8
0
 62
     7
 10
-120.77328199999999
 20
573.16883099999995
 30
0.0
 40
6.0
 50
90.000000999999983
 51
203.55646200000001
  0
ARC
  5
1D7
  8
0
 62
     7
 10
-137.77328199999999
 20
573.16883099999995
 30
0.0
 40
6.0
 50
336.44353000000001
 51
90.000000999999983
  0
LINE
  5
1D8
  8
0
 62
     7
 10
-137.77328199999999
 20
579.16883099999995
 30
0.0
 11
-138.77328199999991
 21
579.16883099999995
 31
0.0
  0
LINE
  5
1D9
  8
0
 62
     7
 10
-119.77328199999999
 20
579.16883099999995
 30
0.0
 11
-120.77328199999999
 21
579.16883099999995
 31
0.0
  0
LINE
  5
1DA
  8
0
 62
     3
 10
-99.273279000000016
 20
482.6688309999999
 30
0.0
 11
-112.640081
 21
482.6688309999999
 31
0.0
  0
LINE
  5
1DB
  8
0
 62
     3
 10
-118.16311
 20
486.32444400000003
 30
0.0
 11
-122.55403699999999
 21
496.6688309999999
 31
0.0
  0
ARC
  5
1DC
  8
0
 62
     3
 10
-112.640081
 20
488.6688309999999
 30
0.0
 40
6.0
 50
203.0
 51
270.00000299999988
  0
ARC
  5
1DD
  8
0
 62
     3
 10
-112.640081
 20
488.6688309999999
 30
0.0
 40
12.0
 50
203.0
 51
270.00000299999988
  0
POLYLINE
  5
1DE
  8
0
  6
DASHED
 62
     7
 66
     1
 10
0.0
 20
0.0
 30
0.0
  0
VERTEX
  5
712
  8
0
  6
DASHED
 62
     7
 10
-142.38175699999991
 20
502.16598799999991
 30
0.0
  0
VERTEX
  5
713
  8
0
  6
DASHED
 62
     7
 10
-142.741559
 20
502.166988
 30
0.0
  0
VERTEX
  5
714
  8
0
  6
DASHED
 62
     7
 10
-143.10052999999991
 20
502.16998899999987
 30
0.0
  0
VERTEX
  5
715
  8
0
  6
DASHED
 62
     7
 10
-143.45786000000001
 20
502.17497500000002
 30
0.0
  0
VERTEX
  5
716
  8
0
  6
DASHED
 62
     7
 10
-143.8143739999999
 20
502.18195200000002
 30
0.0
  0
VERTEX
  5
717
  8
0
  6
DASHED
 62
     7
 10
-144.169263
 20
502.190899
 30
0.0
  0
VERTEX
  5
718
  8
0
  6
DASHED
 62
     7
 10
-144.5233439999999
 20
502.20182699999998
 30
0.0
  0
VERTEX
  5
719
  8
0
  6
DASHED
 62
     7
 10
-144.87583699999999
 20
502.21470799999997
 30
0.0
  0
VERTEX
  5
71A
  8
0
  6
DASHED
 62
     7
 10
-145.2275139999999
 20
502.22956199999999
 30
0.0
  0
VERTEX
  5
71B
  8
0
  6
DASHED
 62
     7
 10
-145.57763399999999
 20
502.246353
 30
0.0
  0
VERTEX
  5
71C
  8
0
  6
DASHED
 62
     7
 10
-145.9269459999999
 20
502.265109
 30
0.0
  0
VERTEX
  5
71D
  8
0
  6
DASHED
 62
     7
 10
-146.274732
 20
502.28578599999997
 30
0.0
  0
VERTEX
  5
71E
  8
0
  6
DASHED
 62
     7
 10
-146.621702
 20
502.30842000000001
 30
0.0
  0
VERTEX
  5
71F
  8
0
  6
DASHED
 62
     7
 10
-146.9671909999999
 20
502.33296100000001
 30
0.0
  0
VERTEX
  5
720
  8
0
  6
DASHED
 62
     7
 10
-147.3118639999999
 20
502.35945199999992
 30
0.0
  0
VERTEX
  5
721
  8
0
  6
DASHED
 62
     7
 10
-147.6550729999999
 20
502.38783599999999
 30
0.0
  0
VERTEX
  5
722
  8
0
  6
DASHED
 62
     7
 10
-147.99747999999991
 20
502.41816299999999
 30
0.0
  0
VERTEX
  5
723
  8
0
  6
DASHED
 62
     7
 10
-148.33845299999999
 20
502.45037100000002
 30
0.0
  0
VERTEX
  5
724
  8
0
  6
DASHED
 62
     7
 10
-148.67862500000001
 20
502.48451299999999
 30
0.0
  0
VERTEX
  5
725
  8
0
  6
DASHED
 62
     7
 10
-149.01738499999999
 20
502.52052499999991
 30
0.0
  0
VERTEX
  5
726
  8
0
  6
DASHED
 62
     7
 10
-149.35535200000001
 20
502.5584639999999
 30
0.0
  0
VERTEX
  5
727
  8
0
  6
DASHED
 62
     7
 10
-149.69193799999999
 20
502.59826199999998
 30
0.0
  0
VERTEX
  5
728
  8
0
  6
DASHED
 62
     7
 10
-150.02772999999999
 20
502.63998099999998
 30
0.0
  0
VERTEX
  5
729
  8
0
  6
DASHED
 62
     7
 10
-150.36217999999991
 20
502.68354799999997
 30
0.0
  0
VERTEX
  5
72A
  8
0
  6
DASHED
 62
     7
 10
-150.695829
 20
502.72903099999991
 30
0.0
  0
VERTEX
  5
72B
  8
0
  6
DASHED
 62
     7
 10
-151.028165
 20
502.77635199999992
 30
0.0
  0
VERTEX
  5
72C
  8
0
  6
DASHED
 62
     7
 10
-151.35970800000001
 20
502.825582
 30
0.0
  0
VERTEX
  5
72D
  8
0
  6
DASHED
 62
     7
 10
-151.689954
 20
502.87664299999989
 30
0.0
  0
VERTEX
  5
72E
  8
0
  6
DASHED
 62
     7
 10
-152.01942199999999
 20
502.92960699999998
 30
0.0
  0
VERTEX
  5
72F
  8
0
  6
DASHED
 62
     7
 10
-152.3476159999999
 20
502.98439400000012
 30
0.0
  0
VERTEX
  5
730
  8
0
  6
DASHED
 62
     7
 10
-152.67503099999999
 20
503.04107800000003
 30
0.0
  0
VERTEX
  5
731
  8
0
  6
DASHED
 62
     7
 10
-153.00121100000001
 20
503.09957900000001
 30
0.0
  0
VERTEX
  5
732
  8
0
  6
DASHED
 62
     7
 10
-153.32660399999989
 20
503.15997299999998
 30
0.0
  0
VERTEX
  5
733
  8
0
  6
DASHED
 62
     7
 10
-153.65079299999991
 20
503.22217699999987
 30
0.0
  0
VERTEX
  5
734
  8
0
  6
DASHED
 62
     7
 10
-153.97420299999999
 20
503.28626800000001
 30
0.0
  0
VERTEX
  5
735
  8
0
  6
DASHED
 62
     7
 10
-154.29642999999999
 20
503.3521649999999
 30
0.0
  0
VERTEX
  5
736
  8
0
  6
DASHED
 62
     7
 10
-154.61787899999999
 20
503.41994499999998
 30
0.0
  0
VERTEX
  5
737
  8
0
  6
DASHED
 62
     7
 10
-154.938177
 20
503.4895259999999
 30
0.0
  0
VERTEX
  5
738
  8
0
  6
DASHED
 62
     7
 10
-155.25769600000001
 20
503.56098700000001
 30
0.0
  0
VERTEX
  5
739
  8
0
  6
DASHED
 62
     7
 10
-155.5760929999999
 20
503.63424400000002
 30
0.0
  0
VERTEX
  5
73A
  8
0
  6
DASHED
 62
     7
 10
-155.89371199999999
 20
503.70937800000002
 30
0.0
  0
VERTEX
  5
73B
  8
0
  6
DASHED
 62
     7
 10
-156.21023299999999
 20
503.78630599999991
 30
0.0
  0
VERTEX
  5
73C
  8
0
  6
DASHED
 62
     7
 10
-156.52597600000001
 20
503.86510599999991
 30
0.0
  0
VERTEX
  5
73D
  8
0
  6
DASHED
 62
     7
 10
-156.84065799999999
 20
503.94569999999987
 30
0.0
  0
VERTEX
  5
73E
  8
0
  6
DASHED
 62
     7
 10
-157.154561
 20
504.02816200000001
 30
0.0
  0
VERTEX
  5
73F
  8
0
  6
DASHED
 62
     7
 10
-157.46742
 20
504.11241699999988
 30
0.0
  0
VERTEX
  5
740
  8
0
  6
DASHED
 62
     7
 10
-157.77950799999999
 20
504.19853699999987
 30
0.0
  0
VERTEX
  5
741
  8
0
  6
DASHED
 62
     7
 10
-158.09058099999999
 20
504.28645
 30
0.0
  0
VERTEX
  5
742
  8
0
  6
DASHED
 62
     7
 10
-158.40087600000001
 20
504.37622499999992
 30
0.0
  0
VERTEX
  5
743
  8
0
  6
DASHED
 62
     7
 10
-158.71018699999999
 20
504.46779600000002
 30
0.0
  0
VERTEX
  5
744
  8
0
  6
DASHED
 62
     7
 10
-159.01872800000001
 20
504.56122499999992
 30
0.0
  0
VERTEX
  5
745
  8
0
  6
DASHED
 62
     7
 10
-159.32630700000001
 20
504.65645199999989
 30
0.0
  0
VERTEX
  5
746
  8
0
  6
DASHED
 62
     7
 10
-159.63310799999999
 20
504.75353499999989
 30
0.0
  0
VERTEX
  5
747
  8
0
  6
DASHED
 62
     7
 10
-159.93897799999991
 20
504.85241799999989
 30
0.0
  0
VERTEX
  5
748
  8
0
  6
DASHED
 62
     7
 10
-160.244077
 20
504.95315599999998
 30
0.0
  0
VERTEX
  5
749
  8
0
  6
DASHED
 62
     7
 10
-160.85167499999989
 20
505.1600929999999
 30
0.0
  0
VERTEX
  5
74A
  8
0
  6
DASHED
 62
     7
 10
-161.4559679999999
 20
505.37435199999987
 30
0.0
  0
VERTEX
  5
74B
  8
0
  6
DASHED
 62
     7
 10
-161.56155200000001
 20
505.4126629999999
 30
0.0
  0
SEQEND
  5
74C
  8
0
  6
DASHED
 62
     7
  0
LINE
  5
21A
  8
0
  6
DASHED
 62
     7
 10
-181.77328199999991
 20
512.66883099999995
 30
0.0
 11
-226.9859899999999
 21
512.66883099999995
 31
0.0
  0
LINE
  5
21B
  8
0
  6
DASHED
 62
     7
 10
-181.77328199999991
 20
497.6688309999999
 30
0.0
 11
-239.27328199999991
 21
497.6688309999999
 31
0.0
  0
POLYLINE
  5
21C
  8
0
  6
DASHED
 62
     7
 66
     1
 10
0.0
 20
0.0
 30
0.0
  0
VERTEX
  5
74D
  8
0
  6
DASHED
 62
     7
 10
-181.77328199999991
 20
512.66883099999995
 30
0.0
  0
VERTEX
  5
74E
  8
0
  6
DASHED
 62
     7
 10
-181.06287900000001
 20
512.52824400000009
 30
0.0
  0
VERTEX
  5
74F
  8
0
  6
DASHED
 62
     7
 10
-180.3497899999999
 20
512.37835899999993
 30
0.0
  0
VERTEX
  5
750
  8
0
  6
DASHED
 62
     7
 10
-179.63395399999999
 20
512.21911
 30
0.0
  0
VERTEX
  5
751
  8
0
  6
DASHED
 62
     7
 10
-178.91531099999989
 20
512.05042600000002
 30
0.0
  0
VERTEX
  5
752
  8
0
  6
DASHED
 62
     7
 10
-178.193815
 20
511.87223899999998
 30
0.0
  0
VERTEX
  5
753
  8
0
  6
DASHED
 62
     7
 10
-177.46939599999999
 20
511.68447300000003
 30
0.0
  0
VERTEX
  5
754
  8
0
  6
DASHED
 62
     7
 10
-176.74200200000001
 20
511.48705099999989
 30
0.0
  0
VERTEX
  5
755
  8
0
  6
DASHED
 62
     7
 10
-176.01157900000001
 20
511.27989500000001
 30
0.0
  0
VERTEX
  5
756
  8
0
  6
DASHED
 62
     7
 10
-175.278074
 20
511.06292400000001
 30
0.0
  0
VERTEX
  5
757
  8
0
  6
DASHED
 62
     7
 10
-174.541425
 20
510.83605499999987
 30
0.0
  0
VERTEX
  5
758
  8
0
  6
DASHED
 62
     7
 10
-173.80158
 20
510.59919999999988
 30
0.0
  0
VERTEX
  5
759
  8
0
  6
DASHED
 62
     7
 10
-173.05847700000001
 20
510.35227199999991
 30
0.0
  0
VERTEX
  5
75A
  8
0
  6
DASHED
 62
     7
 10
-172.31207000000001
 20
510.09518099999991
 30
0.0
  0
VERTEX
  5
75B
  8
0
  6
DASHED
 62
     7
 10
-171.56229899999991
 20
509.827834
 30
0.0
  0
VERTEX
  5
75C
  8
0
  6
DASHED
 62
     7
 10
-170.80911
 20
509.55013600000001
 30
0.0
  0
VERTEX
  5
75D
  8
0
  6
DASHED
 62
     7
 10
-170.05244999999999
 20
509.26198899999991
 30
0.0
  0
VERTEX
  5
75E
  8
0
  6
DASHED
 62
     7
 10
-169.2922639999999
 20
508.96329299999991
 30
0.0
  0
VERTEX
  5
75F
  8
0
  6
DASHED
 62
     7
 10
-168.52849299999991
 20
508.65394800000001
 30
0.0
  0
VERTEX
  5
760
  8
0
  6
DASHED
 62
     7
 10
-167.76109099999999
 20
508.33384899999999
 30
0.0
  0
VERTEX
  5
761
  8
0
  6
DASHED
 62
     7
 10
-166.99000299999989
 20
508.00289199999997
 30
0.0
  0
VERTEX
  5
762
  8
0
  6
DASHED
 62
     7
 10
-166.21517700000001
 20
507.66096599999997
 30
0.0
  0
VERTEX
  5
763
  8
0
  6
DASHED
 62
     7
 10
-165.43655199999989
 20
507.30796299999992
 30
0.0
  0
VERTEX
  5
764
  8
0
  6
DASHED
 62
     7
 10
-164.654088
 20
506.94376999999997
 30
0.0
  0
VERTEX
  5
765
  8
0
  6
DASHED
 62
     7
 10
-163.867727
 20
506.56827399999997
 30
0.0
  0
VERTEX
  5
766
  8
0
  6
DASHED
 62
     7
 10
-163.07742099999999
 20
506.18135699999999
 30
0.0
  0
VERTEX
  5
767
  8
0
  6
DASHED
 62
     7
 10
-162.283109
 20
505.78290299999998
 30
0.0
  0
VERTEX
  5
768
  8
0
  6
DASHED
 62
     7
 10
-161.56155200000001
 20
505.4126629999999
 30
0.0
  0
SEQEND
  5
769
  8
0
  6
DASHED
 62
     7
  0
POLYLINE
  5
23A
  8
0
  6
DASHED
 62
     7
 66
     1
 10
0.0
 20
0.0
 30
0.0
  0
VERTEX
  5
76A
  8
0
  6
DASHED
 62
     7
 10
-181.77328199999991
 20
497.6688309999999
 30
0.0
  0
VERTEX
  5
76B
  8
0
  6
DASHED
 62
     7
 10
-180.69679799999989
 20
498.08744999999988
 30
0.0
  0
VERTEX
  5
76C
  8
0
  6
DASHED
 62
     7
 10
-179.58172400000001
 20
498.51148999999998
 30
0.0
  0
VERTEX
  5
76D
  8
0
  6
DASHED
 62
     7
 10
-178.42715999999999
 20
498.94099
 30
0.0
  0
VERTEX
  5
76E
  8
0
  6
DASHED
 62
     7
 10
-177.232191
 20
499.375992
 30
0.0
  0
VERTEX
  5
76F
  8
0
  6
DASHED
 62
     7
 10
-175.99588499999999
 20
499.81653499999987
 30
0.0
  0
VERTEX
  5
770
  8
0
  6
DASHED
 62
     7
 10
-174.71731299999999
 20
500.26265799999999
 30
0.0
  0
VERTEX
  5
771
  8
0
  6
DASHED
 62
     7
 10
-173.39552099999989
 20
500.71440199999989
 30
0.0
  0
VERTEX
  5
772
  8
0
  6
DASHED
 62
     7
 10
-172.02955399999991
 20
501.171807
 30
0.0
  0
VERTEX
  5
773
  8
0
  6
DASHED
 62
     7
 10
-170.6184439999999
 20
501.63491099999999
 30
0.0
  0
VERTEX
  5
774
  8
0
  6
DASHED
 62
     7
 10
-169.16120699999999
 20
502.10375499999992
 30
0.0
  0
VERTEX
  5
775
  8
0
  6
DASHED
 62
     7
 10
-167.65684999999991
 20
502.57837699999988
 30
0.0
  0
VERTEX
  5
776
  8
0
  6
DASHED
 62
     7
 10
-166.104375
 20
503.05881699999992
 30
0.0
  0
VERTEX
  5
777
  8
0
  6
DASHED
 62
     7
 10
-164.50277500000001
 20
503.54511500000001
 30
0.0
  0
VERTEX
  5
778
  8
0
  6
DASHED
 62
     7
 10
-162.8510179999999
 20
504.03731099999999
 30
0.0
  0
VERTEX
  5
779
  8
0
  6
DASHED
 62
     7
 10
-161.148077
 20
504.53544299999987
 30
0.0
  0
VERTEX
  5
77A
  8
0
  6
DASHED
 62
     7
 10
-160.691991
 20
504.6673219999999
 30
0.0
  0
SEQEND
  5
77B
  8
0
  6
DASHED
 62
     7
  0
POLYLINE
  5
24D
  8
0
  6
DASHED
 62
     7
 66
     1
 10
0.0
 20
0.0
 30
0.0
  0
VERTEX
  5
77C
  8
0
  6
DASHED
 62
     7
 10
-144.51731599999991
 20
508.12785300000002
 30
0.0
  0
VERTEX
  5
77D
  8
0
  6
DASHED
 62
     7
 10
-144.9399389999999
 20
508.12885300000011
 30
0.0
  0
VERTEX
  5
77E
  8
0
  6
DASHED
 62
     7
 10
-145.36092899999991
 20
508.13185299999998
 30
0.0
  0
VERTEX
  5
77F
  8
0
  6
DASHED
 62
     7
 10
-145.7786759999999
 20
508.13682999999997
 30
0.0
  0
VERTEX
  5
780
  8
0
  6
DASHED
 62
     7
 10
-146.194807
 20
508.14379199999991
 30
0.0
  0
VERTEX
  5
781
  8
0
  6
DASHED
 62
     7
 10
-146.60773999999989
 20
508.15269999999998
 30
0.0
  0
VERTEX
  5
782
  8
0
  6
DASHED
 62
     7
 10
-147.01907099999991
 20
508.16357799999997
 30
0.0
  0
VERTEX
  5
783
  8
0
  6
DASHED
 62
     7
 10
-147.427244
 20
508.17637400000001
 30
0.0
  0
VERTEX
  5
784
  8
0
  6
DASHED
 62
     7
 10
-147.83382199999991
 20
508.191124
 30
0.0
  0
VERTEX
  5
785
  8
0
  6
DASHED
 62
     7
 10
-148.23729499999999
 20
508.20776399999988
 30
0.0
  0
VERTEX
  5
786
  8
0
  6
DASHED
 62
     7
 10
-148.63918100000001
 20
508.22634199999999
 30
0.0
  0
VERTEX
  5
787
  8
0
  6
DASHED
 62
     7
 10
-149.03800699999999
 20
508.24678099999988
 30
0.0
  0
VERTEX
  5
788
  8
0
  6
DASHED
 62
     7
 10
-149.43525500000001
 20
508.26914699999992
 30
0.0
  0
VERTEX
  5
789
  8
0
  6
DASHED
 62
     7
 10
-149.82948799999991
 20
508.29334499999999
 30
0.0
  0
VERTEX
  5
78A
  8
0
  6
DASHED
 62
     7
 10
-150.22215800000001
 20
508.31945499999989
 30
0.0
  0
VERTEX
  5
78B
  8
0
  6
DASHED
 62
     7
 10
-150.6118449999999
 20
508.34737199999989
 30
0.0
  0
VERTEX
  5
78C
  8
0
  6
DASHED
 62
     7
 10
-150.99998999999991
 20
508.37718599999999
 30
0.0
  0
VERTEX
  5
78D
  8
0
  6
DASHED
 62
     7
 10
-151.38518999999991
 20
508.40878099999992
 30
0.0
  0
VERTEX
  5
78E
  8
0
  6
DASHED
 62
     7
 10
-151.76885699999991
 20
508.44225999999992
 30
0.0
  0
VERTEX
  5
78F
  8
0
  6
DASHED
 62
     7
 10
-152.14963299999991
 20
508.47749399999998
 30
0.0
  0
VERTEX
  5
790
  8
0
  6
DASHED
 62
     7
 10
-152.52888200000001
 20
508.51459899999998
 30
0.0
  0
VERTEX
  5
791
  8
0
  6
DASHED
 62
     7
 10
-152.90527900000001
 20
508.55343399999992
 30
0.0
  0
VERTEX
  5
792
  8
0
  6
DASHED
 62
     7
 10
-153.280157
 20
508.59412800000001
 30
0.0
  0
VERTEX
  5
793
  8
0
  6
DASHED
 62
     7
 10
-153.65223499999999
 20
508.63652799999988
 30
0.0
  0
VERTEX
  5
794
  8
0
  6
DASHED
 62
     7
 10
-154.022794
 20
508.68077299999999
 30
0.0
  0
VERTEX
  5
795
  8
0
  6
DASHED
 62
     7
 10
-154.39059999999989
 20
508.72670199999988
 30
0.0
  0
VERTEX
  5
796
  8
0
  6
DASHED
 62
     7
 10
-154.756902
 20
508.77446399999991
 30
0.0
  0
VERTEX
  5
797
  8
0
  6
DASHED
 62
     7
 10
-155.12048100000001
 20
508.82388600000002
 30
0.0
  0
VERTEX
  5
798
  8
0
  6
DASHED
 62
     7
 10
-155.482572
 20
508.87512900000002
 30
0.0
  0
VERTEX
  5
799
  8
0
  6
DASHED
 62
     7
 10
-155.84198499999999
 20
508.92801200000002
 30
0.0
  0
VERTEX
  5
79A
  8
0
  6
DASHED
 62
     7
 10
-156.199926
 20
508.98270300000001
 30
0.0
  0
VERTEX
  5
79B
  8
0
  6
DASHED
 62
     7
 10
-156.55521899999999
 20
509.0390139999999
 30
0.0
  0
VERTEX
  5
79C
  8
0
  6
DASHED
 62
     7
 10
-156.90904
 20
509.09712000000002
 30
0.0
  0
VERTEX
  5
79D
  8
0
  6
DASHED
 62
     7
 10
-157.260267
 20
509.15682599999991
 30
0.0
  0
VERTEX
  5
79E
  8
0
  6
DASHED
 62
     7
 10
-157.6100439999999
 20
509.21831700000001
 30
0.0
  0
VERTEX
  5
79F
  8
0
  6
DASHED
 62
     7
 10
-157.9572499999999
 20
509.28138799999999
 30
0.0
  0
VERTEX
  5
7A0
  8
0
  6
DASHED
 62
     7
 10
-158.30301399999991
 20
509.34623199999999
 30
0.0
  0
VERTEX
  5
7A1
  8
0
  6
DASHED
 62
     7
 10
-158.64626100000001
 20
509.4126389999999
 30
0.0
  0
VERTEX
  5
7A2
  8
0
  6
DASHED
 62
     7
 10
-158.98806499999989
 20
509.48080700000003
 30
0.0
  0
VERTEX
  5
7A3
  8
0
  6
DASHED
 62
     7
 10
-159.35941099999999
 20
509.5572049999999
 30
0.0
  0
SEQEND
  5
7A4
  8
0
  6
DASHED
 62
     7
  0
POLYLINE
  5
277
  8
0
  6
DASHED
 62
     7
 66
     1
 10
0.0
 20
0.0
 30
0.0
  0
VERTEX
  5
7A5
  8
0
  6
DASHED
 62
     7
 10
-181.77328199999991
 20
512.66883099999995
 30
0.0
  0
VERTEX
  5
7A6
  8
0
  6
DASHED
 62
     7
 10
-180.137777
 20
512.494957
 30
0.0
  0
VERTEX
  5
7A7
  8
0
  6
DASHED
 62
     7
 10
-178.48589799999991
 20
512.31022399999995
 30
0.0
  0
VERTEX
  5
7A8
  8
0
  6
DASHED
 62
     7
 10
-176.81750199999991
 20
512.11451899999997
 30
0.0
  0
VERTEX
  5
7A9
  8
0
  6
DASHED
 62
     7
 10
-175.13246699999991
 20
511.90773300000001
 30
0.0
  0
VERTEX
  5
7AA
  8
0
  6
DASHED
 62
     7
 10
-173.4306389999999
 20
511.68975199999988
 30
0.0
  0
VERTEX
  5
7AB
  8
0
  6
DASHED
 62
     7
 10
-171.7118889999999
 20
511.4604599999999
 30
0.0
  0
VERTEX
  5
7AC
  8
0
  6
DASHED
 62
     7
 10
-169.97607199999999
 20
511.21974499999999
 30
0.0
  0
VERTEX
  5
7AD
  8
0
  6
DASHED
 62
     7
 10
-168.22305800000001
 20
510.96748899999989
 30
0.0
  0
VERTEX
  5
7AE
  8
0
  6
DASHED
 62
     7
 10
-166.45269500000001
 20
510.70357699999988
 30
0.0
  0
VERTEX
  5
7AF
  8
0
  6
DASHED
 62
     7
 10
-164.66485399999991
 20
510.42788999999999
 30
0.0
  0
VERTEX
  5
7B0
  8
0
  6
DASHED
 62
     7
 10
-162.85937999999999
 20
510.140311
 30
0.0
  0
VERTEX
  5
7B1
  8
0
  6
DASHED
 62
     7
 10
-161.03613799999999
 20
509.84071999999998
 30
0.0
  0
VERTEX
  5
7B2
  8
0
  6
DASHED
 62
     7
 10
-159.35941099999999
 20
509.5572049999999
 30
0.0
  0
SEQEND
  5
7B3
  8
0
  6
DASHED
 62
     7
  0
LINE
  5
287
  8
0
  6
DASHDOT
 62
     7
 10
-195.27328199999991
 20
536.26279799999998
 30
0.0
 11
-195.27328199999991
 21
521.36464299999989
 31
0.0
  0
LINE
  5
288
  8
0
  6
DASHDOT
 62
     7
 10
-188.17048399999999
 20
528.66883099999995
 30
0.0
 11
-202.26968099999991
 21
528.66883099999995
 31
0.0
  0
ARC
  5
289
  8
0
 62
     7
 10
-195.27328199999991
 20
528.66883099999995
 30
0.0
 40
5.0
 50
0.000005
 51
180.0
  0
CIRCLE
  5
28A
  8
0
 62
     7
 10
-195.27328199999991
 20
528.66883099999995
 30
0.0
 40
2.5
  0
LINE
  5
28B
  8
0
 62
     7
 10
-205.27328199999999
 20
523.66883099999995
 30
0.0
 11
-291.77328199999988
 21
523.66883099999995
 31
0.0
  0
ARC
  5
28C
  8
0
 62
     7
 10
-185.27328199999991
 20
528.66883099999995
 30
0.0
 40
5.0
 50
180.0
 51
270.00000299999988
  0
ARC
  5
28D
  8
0
 62
     7
 10
-205.27328199999999
 20
528.66883099999995
 30
0.0
 40
5.0
 50
270.00000299999988
 51
0.000005
  0
LINE
  5
28E
  8
0
  6
DASHDOT
 62
     7
 10
-304.27328199999988
 20
562.22389199999998
 30
0.0
 11
-304.27328199999988
 21
514.12770499999999
 31
0.0
  0
LINE
  5
28F
  8
0
 62
     7
 10
-297.27328199999999
 20
526.66883099999995
 30
0.0
 11
-297.27328199999999
 21
507.4188309999999
 31
0.0
  0
LINE
  5
290
  8
0
 62
     7
 10
-311.27328199999999
 20
526.66883099999995
 30
0.0
 11
-311.27328199999999
 21
507.4188309999999
 31
0.0
  0
LINE
  5
291
  8
0
 62
     7
 10
-297.27328199999999
 20
526.66883099999995
 30
0.0
 11
-311.27328199999999
 21
526.66883099999995
 31
0.0
  0
LINE
  5
292
  8
0
 62
     3
 10
-302.27328199999988
 20
551.66883099999995
 30
0.0
 11
-306.27328199999988
 21
551.66883099999995
 31
0.0
  0
LINE
  5
293
  8
0
 62
     3
 10
-301.27328199999999
 20
550.66883099999995
 30
0.0
 11
-301.27328199999999
 21
540.66883099999995
 31
0.0
  0
LINE
  5
294
  8
0
 62
     3
 10
-307.27328199999999
 20
550.66883099999995
 30
0.0
 11
-307.27328199999999
 21
540.66883099999995
 31
0.0
  0
LINE
  5
295
  8
0
 62
     3
 10
-301.27328199999999
 20
550.66883099999995
 30
0.0
 11
-307.27328199999999
 21
550.66883099999995
 31
0.0
  0
LINE
  5
296
  8
0
 62
     3
 10
-306.27328199999988
 20
551.66883099999995
 30
0.0
 11
-307.27328199999999
 21
550.66883099999995
 31
0.0
  0
LINE
  5
297
  8
0
 62
     3
 10
-301.27328199999999
 20
550.66883099999995
 30
0.0
 11
-302.27328199999988
 21
551.66883099999995
 31
0.0
  0
LINE
  5
298
  8
0
 62
     7
 10
-302.27328199999988
 20
550.66883099999995
 30
0.0
 11
-302.27328199999988
 21
540.66883099999995
 31
0.0
  0
LINE
  5
299
  8
0
 62
     7
 10
-306.27328199999988
 20
550.66883099999995
 30
0.0
 11
-306.27328199999988
 21
540.66883099999995
 31
0.0
  0
LINE
  5
29A
  8
0
 62
     7
 10
-298.27328199999988
 20
523.66883099999995
 30
0.0
 11
-310.27328199999988
 21
523.66883099999995
 31
0.0
  0
LINE
  5
29B
  8
0
 62
     3
 10
-298.27328199999988
 20
526.66883099999995
 30
0.0
 11
-298.27328199999988
 21
523.66883099999995
 31
0.0
  0
LINE
  5
29C
  8
0
 62
     3
 10
-310.27328199999988
 20
526.66883099999995
 30
0.0
 11
-310.27328199999988
 21
523.66883099999995
 31
0.0
  0
ARC
  5
29D
  8
0
 62
     3
 10
-304.27328199999988
 20
530.40536899999995
 30
0.0
 40
9.0211380000000005
 50
228.30965699999999
 51
311.69034799999991
  0
LINE
  5
29E
  8
0
 62
     2
 10
-328.77328199999999
 20
507.4188309999999
 30
0.0
 11
-328.77328199999999
 21
505.9188309999999
 31
0.0
  0
LINE
  5
29F
  8
0
 62
     2
 10
-291.77328199999988
 20
505.9188309999999
 30
0.0
 11
-328.77328199999999
 21
505.9188309999999
 31
0.0
  0
LINE
  5
2A0
  8
0
 62
     7
 10
-89.273290000000003
 20
494.6687849999999
 30
0.0
 11
-269.28208699999988
 21
494.6687849999999
 31
0.0
  0
LINE
  5
2A1
  8
0
 62
     7
 10
-205.27329800000001
 20
430.66879999999998
 30
0.0
 11
-205.27329800000001
 21
422.66879999999998
 31
0.0
  0
LINE
  5
2A2
  8
0
 62
     7
 10
-162.773313
 20
430.66879999999998
 30
0.0
 11
-205.27329800000001
 21
430.66879999999998
 31
0.0
  0
LINE
  5
2A3
  8
0
 62
     7
 10
-235.2732519999999
 20
432.6687849999999
 30
0.0
 11
-239.77326699999989
 21
432.6687849999999
 31
0.0
  0
LINE
  5
2A4
  8
0
 62
     7
 10
-115.7733209999999
 20
422.6687849999999
 30
0.0
 11
-116.773336
 21
422.6687849999999
 31
0.0
  0
LINE
  5
2A5
  8
0
 62
     7
 10
-115.7733209999999
 20
400.4687879999999
 30
0.0
 11
-115.7733209999999
 21
400.16878500000001
 31
0.0
  0
LINE
  5
2A6
  8
0
 62
     7
 10
-116.77330499999999
 20
425.6687849999999
 30
0.0
 11
-116.77330499999999
 21
422.6687849999999
 31
0.0
  0
LINE
  5
2A7
  8
0
 62
     7
 10
-116.77330499999999
 20
425.6687849999999
 30
0.0
 11
-162.773359
 21
425.6687849999999
 31
0.0
  0
LINE
  5
2A8
  8
0
 62
     7
 10
-226.4966859999999
 20
422.6688309999999
 30
0.0
 11
-236.773267
 21
422.6688309999999
 31
0.0
  0
LINE
  5
2A9
  8
0
 62
     7
 10
-148.273359
 20
425.66879999999992
 30
0.0
 11
-160.27332799999991
 21
425.66879999999992
 31
0.0
  0
LINE
  5
2AA
  8
0
 62
     7
 10
-162.773359
 20
426.66879999999998
 30
0.0
 11
-162.773359
 21
425.66879999999992
 31
0.0
  0
LINE
  5
2AB
  8
0
 62
     7
 10
-233.77329800000001
 20
422.6688309999999
 30
0.0
 11
-236.7732979999999
 21
422.6688309999999
 31
0.0
  0
LINE
  5
2AC
  8
0
 62
     7
 10
-162.773359
 20
430.66879999999998
 30
0.0
 11
-162.773359
 21
425.66881599999999
 31
0.0
  0
LINE
  5
2AD
  8
0
 62
     7
 10
-160.27332799999991
 20
425.66879999999992
 30
0.0
 11
-162.773359
 21
425.66879999999992
 31
0.0
  0
LINE
  5
2AE
  8
0
 62
     7
 10
-94.073307999999997
 20
442.08623099999988
 30
0.0
 11
-94.073307999999997
 21
400.46877299999989
 31
0.0
  0
LINE
  5
2AF
  8
0
 62
     7
 10
-94.073316000000005
 20
400.4688799999999
 30
0.0
 11
-115.77332800000001
 21
400.4688799999999
 31
0.0
  0
LINE
  5
2B0
  8
0
 62
     7
 10
-94.073307999999997
 20
422.6687849999999
 30
0.0
 11
-115.77330499999999
 21
422.6687849999999
 31
0.0
  0
LINE
  5
2B1
  8
0
 62
     7
 10
-126.52328199999999
 20
395.16876999999988
 30
0.0
 11
-126.52328199999999
 21
384.16876999999988
 31
0.0
  0
LINE
  5
2B2
  8
0
 62
     7
 10
-231.52325200000001
 20
393.16876999999988
 30
0.0
 11
-231.52325200000001
 21
384.16876999999988
 31
0.0
  0
LINE
  5
2B3
  8
0
 62
     7
 10
-231.52325200000001
 20
395.16876999999988
 30
0.0
 11
-247.7732519999999
 21
395.16876999999988
 31
0.0
  0
LINE
  5
2B4
  8
0
 62
     7
 10
-89.273290000000003
 20
395.16876999999988
 30
0.0
 11
-126.52328199999999
 21
395.16876999999988
 31
0.0
  0
LINE
  5
2B5
  8
0
 62
     7
 10
-115.773275
 20
400.16876999999988
 30
0.0
 11
-115.773275
 21
395.16876999999988
 31
0.0
  0
LINE
  5
2B6
  8
0
 62
     7
 10
-247.7732519999999
 20
400.46875799999992
 30
0.0
 11
-247.7732519999999
 21
395.16876999999988
 31
0.0
  0
LINE
  5
2B7
  8
0
 62
     7
 10
-126.52328199999999
 20
393.16876999999988
 30
0.0
 11
-231.52325200000001
 21
393.16876999999988
 31
0.0
  0
LINE
  5
2B8
  8
0
 62
     7
 10
-231.52325200000001
 20
395.16876999999988
 30
0.0
 11
-231.52325200000001
 21
393.16876999999988
 31
0.0
  0
LINE
  5
2B9
  8
0
 62
     7
 10
-126.52328199999999
 20
395.16876999999988
 30
0.0
 11
-126.52328199999999
 21
393.16876999999988
 31
0.0
  0
LINE
  5
2BA
  8
0
 62
     7
 10
-205.27332799999991
 20
422.66881599999999
 30
0.0
 11
-268.17959400000001
 21
422.66881599999999
 31
0.0
  0
LINE
  5
2BB
  8
0
 62
     7
 10
-268.17959400000001
 20
428.06925199999989
 30
0.0
 11
-268.17959400000001
 21
400.46877299999989
 31
0.0
  0
LINE
  5
2BC
  8
0
 62
     7
 10
-247.7732519999999
 20
400.46875799999992
 30
0.0
 11
-268.17959400000001
 21
400.46875799999992
 31
0.0
  0
LINE
  5
2BD
  8
0
 62
     7
 10
-235.2732519999999
 20
432.66875499999992
 30
0.0
 11
-235.2732519999999
 21
422.66875499999992
 31
0.0
  0
LINE
  5
2BE
  8
0
 62
     7
 10
-248.27325200000001
 20
400.16876999999988
 30
0.0
 11
-248.27325200000001
 21
395.16876999999988
 31
0.0
  0
LINE
  5
2BF
  8
0
 62
     7
 10
-231.52325200000001
 20
395.16876999999988
 30
0.0
 11
-316.77328199999988
 21
395.16876999999988
 31
0.0
  0
ARC
  5
2C0
  8
0
 62
     7
 10
-201.06713599999989
 20
363.49372099999988
 30
0.0
 40
1.0
 50
258.62357099999991
 51
346.68878499999988
  0
ARC
  5
2C1
  8
0
 62
     7
 10
-207.01495099999991
 20
364.69046800000001
 30
0.0
 40
1.000000999999999
 50
170.5939919999999
 51
258.62357099999991
  0
LINE
  5
2C2
  8
0
 62
     7
 10
-195.14787100000001
 20
384.16876999999988
 30
0.0
 11
-200.0939919999999
 21
363.26348100000001
 31
0.0
  0
LINE
  5
2C3
  8
0
 62
     7
 10
-201.264387
 20
362.51335899999992
 30
0.0
 11
-207.21220199999999
 21
363.71010599999988
 31
0.0
  0
LINE
  5
2C4
  8
0
 62
     7
 10
-204.801862
 20
384.16876999999988
 30
0.0
 11
-208.00150799999989
 21
364.85388899999998
 31
0.0
  0
LINE
  5
2C5
  8
0
 62
     7
 10
-99.273309000000012
 20
476.66877699999992
 30
0.0
 11
-99.273309000000012
 21
471.66877699999998
 31
0.0
  0
LINE
  5
2C6
  8
0
  6
DASHDOT
 62
     7
 10
-109.27325999999999
 20
484.09812099999988
 30
0.0
 11
-109.27325999999999
 21
455.96483599999999
 31
0.0
  0
POLYLINE
  5
2C7
  8
0
 62
     7
 66
     1
 10
0.0
 20
0.0
 30
0.0
  0
VERTEX
  5
7B4
  8
0
 62
     7
 10
-119.74094099999991
 20
457.87322599999987
 30
0.0
  0
VERTEX
  5
7B5
  8
0
 62
     7
 10
-127.0320719999999
 20
461.17768499999988
 30
0.0
  0
VERTEX
  5
7B6
  8
0
 62
     7
 10
-128.7684909999999
 20
459.7688409999999
 30
0.0
  0
VERTEX
  5
7B7
  8
0
 62
     7
 10
-128.02811199999999
 20
463.824928
 30
0.0
  0
VERTEX
  5
7B8
  8
0
 62
     7
 10
-129.76453199999989
 20
462.41608400000001
 30
0.0
  0
SEQEND
  5
7B9
  8
0
 62
     7
  0
LINE
  5
2CE
  8
0
 62
     7
 10
-99.273309000000012
 20
471.66877899999997
 30
0.0
 11
-129.76453199999989
 21
471.66877899999997
 31
0.0
  0
LINE
  5
2CF
  8
0
 62
     7
 10
-112.640081
 20
476.66877699999992
 30
0.0
 11
-129.76453199999989
 21
476.66877699999992
 31
0.0
  0
LINE
  5
2D0
  8
0
 62
     7
 10
-120.27330499999999
 20
471.66877899999997
 30
0.0
 11
-120.27330499999999
 21
458.11450599999989
 31
0.0
  0
LINE
  5
2D1
  8
0
 62
     7
 10
-124.27330499999999
 20
471.66877899999997
 30
0.0
 11
-124.27330499999999
 21
459.92737199999999
 31
0.0
  0
POLYLINE
  5
2D2
  8
0
 62
     7
 66
     1
 10
0.0
 20
0.0
 30
0.0
  0
VERTEX
  5
7BA
  8
0
 62
     7
 10
-129.76453199999989
 20
494.66884599999992
 30
0.0
  0
VERTEX
  5
7BB
  8
0
 62
     7
 10
-129.76453199999989
 20
478.66884599999992
 30
0.0
  0
VERTEX
  5
7BC
  8
0
 62
     7
 10
-127.7645319999999
 20
477.66884599999992
 30
0.0
  0
VERTEX
  5
7BD
  8
0
 62
     7
 10
-131.764532
 20
476.66884599999997
 30
0.0
  0
VERTEX
  5
7BE
  8
0
 62
     7
 10
-129.76453199999989
 20
475.66884599999992
 30
0.0
  0
VERTEX
  5
7BF
  8
0
 62
     7
 10
-129.76453199999989
 20
462.41608400000001
 30
0.0
  0
SEQEND
  5
7C0
  8
0
 62
     7
  0
LINE
  5
2DA
  8
0
 62
     7
 10
-126.77330499999999
 20
481.66877699999992
 30
0.0
 11
-126.77330499999999
 21
476.66877699999992
 31
0.0
  0
LINE
  5
2DB
  8
0
 62
     7
 10
-126.77330499999999
 20
481.66877699999992
 30
0.0
 11
-129.76453199999989
 21
484.66000000000003
 31
0.0
  0
LINE
  5
2DC
  8
0
 62
     7
 10
-248.9797189999999
 20
476.66877699999992
 30
0.0
 11
-248.9797189999999
 21
471.66877899999997
 31
0.0
  0
LINE
  5
2DD
  8
0
 62
     7
 10
-256.97971899999999
 20
476.66877699999992
 30
0.0
 11
-256.97971899999999
 21
471.66877899999997
 31
0.0
  0
LINE
  5
2DE
  8
0
 62
     7
 10
-232.48844700000001
 20
471.66877899999997
 30
0.0
 11
-262.97965799999997
 21
471.66877899999997
 31
0.0
  0
POLYLINE
  5
2DF
  8
0
 62
     7
 66
     1
 10
0.0
 20
0.0
 30
0.0
  0
VERTEX
  5
7C1
  8
0
 62
     7
 10
-232.48844700000001
 20
495.16875499999992
 30
0.0
  0
VERTEX
  5
7C2
  8
0
 62
     7
 10
-232.48844700000001
 20
479.16875499999992
 30
0.0
  0
VERTEX
  5
7C3
  8
0
 62
     7
 10
-230.48844700000001
 20
478.16875499999998
 30
0.0
  0
VERTEX
  5
7C4
  8
0
 62
     7
 10
-234.48844700000001
 20
477.16875499999998
 30
0.0
  0
VERTEX
  5
7C5
  8
0
 62
     7
 10
-232.48844700000001
 20
476.16875499999992
 30
0.0
  0
VERTEX
  5
7C6
  8
0
 62
     7
 10
-232.48844700000001
 20
460.16875499999998
 30
0.0
  0
VERTEX
  5
7C7
  8
0
 62
     7
 10
-230.48844700000001
 20
459.16875499999992
 30
0.0
  0
VERTEX
  5
7C8
  8
0
 62
     7
 10
-234.48844700000001
 20
458.16875499999992
 30
0.0
  0
VERTEX
  5
7C9
  8
0
 62
     7
 10
-232.48844700000001
 20
457.16875499999998
 30
0.0
  0
VERTEX
  5
7CA
  8
0
 62
     7
 10
-232.48844700000001
 20
441.16875499999992
 30
0.0
  0
VERTEX
  5
7CB
  8
0
 62
     7
 10
-230.48844700000001
 20
440.16875499999998
 30
0.0
  0
VERTEX
  5
7CC
  8
0
 62
     7
 10
-234.48844700000001
 20
439.16875499999992
 30
0.0
  0
VERTEX
  5
7CD
  8
0
 62
     7
 10
-232.48844700000001
 20
438.16875499999992
 30
0.0
  0
VERTEX
  5
7CE
  8
0
 62
     7
 10
-232.48844700000001
 20
437.873108
 30
0.0
  0
SEQEND
  5
7CF
  8
0
 62
     7
  0
POLYLINE
  5
2EF
  8
0
 62
     7
 66
     1
 10
0.0
 20
0.0
 30
0.0
  0
VERTEX
  5
7D0
  8
0
 62
     7
 10
-231.00384299999999
 20
438.28090700000001
 30
0.0
  0
VERTEX
  5
7D1
  8
0
 62
     7
 10
-246.4323709999999
 20
434.0429079999999
 30
0.0
  0
VERTEX
  5
7D2
  8
0
 62
     7
 10
-246.866895
 20
431.84947199999999
 30
0.0
  0
VERTEX
  5
7D3
  8
0
 62
     7
 10
-248.89068399999991
 20
435.4417269999999
 30
0.0
  0
VERTEX
  5
7D4
  8
0
 62
     7
 10
-249.32522299999991
 20
433.24828300000001
 30
0.0
  0
VERTEX
  5
7D5
  8
0
 62
     7
 10
-264.753736
 20
429.01029199999988
 30
0.0
  0
VERTEX
  5
7D6
  8
0
 62
     7
 10
-265.18827599999992
 20
426.81684899999999
 30
0.0
  0
VERTEX
  5
7D7
  8
0
 62
     7
 10
-267.21204899999998
 20
430.40910300000002
 30
0.0
  0
VERTEX
  5
7D8
  8
0
 62
     7
 10
-267.64658900000001
 20
428.2156599999999
 30
0.0
  0
VERTEX
  5
7D9
  8
0
 62
     7
 10
-283.07511699999992
 20
423.97766899999999
 30
0.0
  0
VERTEX
  5
7DA
  8
0
 62
     7
 10
-283.50964099999987
 20
421.78422499999999
 30
0.0
  0
VERTEX
  5
7DB
  8
0
 62
     7
 10
-285.5334299999999
 20
425.3764799999999
 30
0.0
  0
VERTEX
  5
7DC
  8
0
 62
     7
 10
-285.96796899999993
 20
423.183044
 30
0.0
  0
VERTEX
  5
7DD
  8
0
 62
     7
 10
-301.39648199999988
 20
418.94504499999988
 30
0.0
  0
VERTEX
  5
7DE
  8
0
 62
     7
 10
-301.83102200000002
 20
416.75160199999988
 30
0.0
  0
VERTEX
  5
7DF
  8
0
 62
     7
 10
-303.85479500000002
 20
420.34386399999988
 30
0.0
  0
VERTEX
  5
7E0
  8
0
 62
     7
 10
-304.28933499999988
 20
418.15042099999988
 30
0.0
  0
VERTEX
  5
7E1
  8
0
 62
     7
 10
-316.77328199999988
 20
414.72125999999997
 30
0.0
  0
SEQEND
  5
7E2
  8
0
 62
     7
  0
LINE
  5
303
  8
0
 62
     7
 10
-237.97971899999999
 20
494.66875599999992
 30
0.0
 11
-237.97971899999999
 21
476.66877699999992
 31
0.0
  0
LINE
  5
304
  8
0
 62
     7
 10
-233.97971899999999
 20
496.66875499999992
 30
0.0
 11
-233.97971899999999
 21
476.66877699999992
 31
0.0
  0
LINE
  5
305
  8
0
 62
     7
 10
-241.97971899999999
 20
471.66877899999997
 30
0.0
 11
-241.97971899999999
 21
435.265987
 31
0.0
  0
LINE
  5
306
  8
0
 62
     7
 10
-237.97971899999999
 20
471.66877899999997
 30
0.0
 11
-237.97971899999999
 21
436.36473099999989
 31
0.0
  0
LINE
  5
307
  8
0
 62
     7
 10
-239.77326699999989
 20
494.6687849999999
 30
0.0
 11
-239.77326699999989
 21
432.6687849999999
 31
0.0
  0
LINE
  5
308
  8
0
 62
     7
 10
-126.52328199999999
 20
384.16876999999988
 30
0.0
 11
-231.52325200000001
 21
384.16876999999988
 31
0.0
  0
POLYLINE
  5
309
  8
0
 62
     7
 66
     1
 10
0.0
 20
0.0
 30
0.0
  0
VERTEX
  5
7E3
  8
0
 62
     7
 10
-119.74094099999991
 20
457.87322599999987
 30
0.0
  0
VERTEX
  5
7E4
  8
0
 62
     7
 10
-119.74094099999991
 20
456.71921900000001
 30
0.0
  0
VERTEX
  5
7E5
  8
0
 62
     7
 10
-117.74094099999991
 20
455.71921900000012
 30
0.0
  0
VERTEX
  5
7E6
  8
0
 62
     7
 10
-121.74094099999991
 20
454.71921900000001
 30
0.0
  0
VERTEX
  5
7E7
  8
0
 62
     7
 10
-119.74094099999991
 20
453.71921900000001
 30
0.0
  0
SEQEND
  5
7E8
  8
0
 62
     7
  0
POLYLINE
  5
310
  8
0
 62
     7
 66
     1
 10
0.0
 20
0.0
 30
0.0
  0
VERTEX
  5
7E9
  8
0
 62
     7
 10
-89.273290000000003
 20
439.91078199999998
 30
0.0
  0
VERTEX
  5
7EA
  8
0
 62
     7
 10
-103.846441
 20
446.51557199999991
 30
0.0
  0
VERTEX
  5
7EB
  8
0
 62
     7
 10
-105.5828639999999
 20
445.10672799999998
 30
0.0
  0
VERTEX
  5
7EC
  8
0
 62
     7
 10
-104.8424849999999
 20
449.16281500000002
 30
0.0
  0
VERTEX
  5
7ED
  8
0
 62
     7
 10
-106.578908
 20
447.75397099999998
 30
0.0
  0
VERTEX
  5
7EE
  8
0
 62
     7
 10
-119.74094099999991
 20
453.71921900000001
 30
0.0
  0
SEQEND
  5
7EF
  8
0
 62
     7
  0
LINE
  5
318
  8
0
 62
     7
 10
-270.97962699999999
 20
496.6688309999999
 30
0.0
 11
-270.97962699999999
 21
427.30012499999998
 31
0.0
  0
LINE
  5
319
  8
0
 62
     7
 10
-282.77328199999988
 20
496.66875499999992
 30
0.0
 11
-292.77328199999999
 21
496.66875499999992
 31
0.0
  0
LINE
  5
31A
  8
0
 62
     7
 10
-106.2732749999999
 20
496.66884499999998
 30
0.0
 11
-106.2732749999999
 21
494.66884599999992
 31
0.0
  0
LINE
  5
31B
  8
0
 62
     7
 10
-116.2732749999999
 20
496.66884499999998
 30
0.0
 11
-116.2732749999999
 21
494.66884599999992
 31
0.0
  0
LINE
  5
31C
  8
0
 62
     1
 10
-103.77325999999999
 20
462.66878099999991
 30
0.0
 11
-114.77325999999999
 21
462.66878099999991
 31
0.0
  0
LINE
  5
31D
  8
0
 62
     1
 10
-115.77325999999999
 20
470.66877899999997
 30
0.0
 11
-115.77325999999999
 21
463.66878099999991
 31
0.0
  0
LINE
  5
31E
  8
0
 62
     1
 10
-102.77325999999989
 20
470.66877899999997
 30
0.0
 11
-102.77325999999989
 21
463.66878099999991
 31
0.0
  0
ARC
  5
31F
  8
0
 62
     7
 10
-359.77328199999999
 20
493.66883100000001
 30
0.0
 40
5.0
 50
180.0
 51
270.00000299999988
  0
LINE
  5
320
  8
0
 62
     3
 10
-242.9797189999999
 20
479.16877699999998
 30
0.0
 11
-262.97971899999999
 21
479.16877699999998
 31
0.0
  0
LINE
  5
321
  8
0
  6
DASHDOT
 62
     3
 10
-252.97971899999999
 20
481.33842800000002
 30
0.0
 11
-252.97971899999999
 21
428.07976500000001
 31
0.0
  0
LINE
  5
322
  8
0
 62
     3
 10
-256.97971899999999
 20
476.66877699999992
 30
0.0
 11
-262.97971899999999
 21
476.66877699999992
 31
0.0
  0
LINE
  5
323
  8
0
 62
     3
 10
-242.9797189999999
 20
479.16877699999998
 30
0.0
 11
-242.9797189999999
 21
476.66877699999992
 31
0.0
  0
LINE
  5
324
  8
0
 62
     3
 10
-262.97971899999999
 20
479.16877699999998
 30
0.0
 11
-262.97971899999999
 21
442.16877699999998
 31
0.0
  0
LINE
  5
325
  8
0
 62
     3
 10
-258.97971899999999
 20
440.16877699999992
 30
0.0
 11
-260.97971899999999
 21
440.16877699999992
 31
0.0
  0
ARC
  5
326
  8
0
 62
     3
 10
-252.97971899999999
 20
476.66877699999992
 30
0.0
 40
4.0
 50
270.00000299999988
 51
0.000005
  0
ARC
  5
327
  8
0
 62
     3
 10
-244.9797189999999
 20
442.16877699999998
 30
0.0
 40
2.0
 50
270.00000299999988
 51
0.000005
  0
ARC
  5
328
  8
0
 62
     3
 10
-260.97971899999999
 20
442.16877699999998
 30
0.0
 40
2.0
 50
180.0
 51
270.00000299999988
  0
ARC
  5
329
  8
0
 62
     3
 10
-252.97971899999999
 20
476.66877699999992
 30
0.0
 40
4.0
 50
180.0
 51
270.00000299999988
  0
ARC
  5
32A
  8
0
 62
     3
 10
-252.97971899999999
 20
476.66877699999992
 30
0.0
 40
2.0
 50
172.81924100000001
 51
7.1807599999999994
  0
ARC
  5
32B
  8
0
 62
     3
 10
-249.01109099999999
 20
477.16877699999992
 30
0.0
 40
2.0
 50
90.000000999999983
 51
187.18075499999989
  0
ARC
  5
32C
  8
0
 62
     3
 10
-256.94834700000001
 20
477.16877699999992
 30
0.0
 40
2.0
 50
352.81924900000001
 51
90.000000999999983
  0
LINE
  5
32D
  8
0
 62
     3
 10
-232.48844700000001
 20
476.66877699999992
 30
0.0
 11
-248.9797189999999
 21
476.66877699999992
 31
0.0
  0
LINE
  5
32E
  8
0
 62
     3
 10
-258.97971899999999
 20
447.66877699999992
 30
0.0
 11
-262.97971899999999
 21
447.66877699999992
 31
0.0
  0
LINE
  5
32F
  8
0
 62
     3
 10
-258.97971899999999
 20
443.66877699999992
 30
0.0
 11
-262.97971899999999
 21
443.66877699999992
 31
0.0
  0
LINE
  5
330
  8
0
 62
     3
 10
-246.9797189999999
 20
445.16877699999992
 30
0.0
 11
-246.9797189999999
 21
441.16877699999992
 31
0.0
  0
LINE
  5
331
  8
0
 62
     3
 10
-258.97971899999999
 20
445.16877699999992
 30
0.0
 11
-258.97971899999999
 21
441.16877699999992
 31
0.0
  0
LINE
  5
332
  8
0
 62
     3
 10
-242.9797189999999
 20
471.66877899999997
 30
0.0
 11
-242.9797189999999
 21
442.16877699999998
 31
0.0
  0
LINE
  5
333
  8
0
 62
     3
 10
-242.9797189999999
 20
447.66877699999992
 30
0.0
 11
-246.9797189999999
 21
447.66877699999992
 31
0.0
  0
LINE
  5
334
  8
0
 62
     3
 10
-242.9797189999999
 20
443.66877699999992
 30
0.0
 11
-246.9797189999999
 21
443.66877699999992
 31
0.0
  0
LINE
  5
335
  8
0
 62
     3
 10
-244.9797189999999
 20
440.16877699999992
 30
0.0
 11
-246.9797189999999
 21
440.16877699999992
 31
0.0
  0
LINE
  5
336
  8
0
 62
     7
 10
-101.27325999999989
 20
471.66877899999997
 30
0.0
 11
-101.27325999999989
 21
470.66877899999997
 31
0.0
  0
LINE
  5
337
  8
0
 62
     7
 10
-117.27325999999999
 20
471.66877899999997
 30
0.0
 11
-117.27325999999999
 21
470.66877899999997
 31
0.0
  0
LINE
  5
338
  8
0
 62
     7
 10
-101.27325999999989
 20
470.66877899999997
 30
0.0
 11
-117.27325999999999
 21
470.66877899999997
 31
0.0
  0
ARC
  5
339
  8
0
 62
     1
 10
-103.77325999999999
 20
463.66878099999991
 30
0.0
 40
1.0
 50
270.00000299999988
 51
0.000005
  0
ARC
  5
33A
  8
0
 62
     1
 10
-114.77325999999999
 20
463.66878099999991
 30
0.0
 40
1.0
 50
180.0
 51
270.00000299999988
  0
LINE
  5
33B
  8
0
 62
     7
 10
-106.27325999999999
 20
490.66877999999991
 30
0.0
 11
-112.27325999999999
 21
490.66877999999991
 31
0.0
  0
LINE
  5
33C
  8
0
 62
     7
 10
-105.27325999999999
 20
489.66877999999991
 30
0.0
 11
-105.27325999999999
 21
482.6688309999999
 31
0.0
  0
LINE
  5
33D
  8
0
 62
     7
 10
-113.27325999999999
 20
489.66877999999991
 30
0.0
 11
-113.27325999999999
 21
482.6688309999999
 31
0.0
  0
LINE
  5
33E
  8
0
 62
     7
 10
-105.27325999999999
 20
489.66877999999991
 30
0.0
 11
-106.27325999999999
 21
490.66877999999991
 31
0.0
  0
LINE
  5
33F
  8
0
 62
     7
 10
-112.27325999999999
 20
490.66877999999991
 30
0.0
 11
-113.27325999999999
 21
489.66877999999991
 31
0.0
  0
LINE
  5
340
  8
0
 62
     7
 10
-106.27325999999999
 20
489.66877999999991
 30
0.0
 11
-106.27325999999999
 21
482.6688309999999
 31
0.0
  0
LINE
  5
341
  8
0
 62
     7
 10
-112.27325999999999
 20
489.66877999999991
 30
0.0
 11
-112.27325999999999
 21
482.6688309999999
 31
0.0
  0
LINE
  5
342
  8
0
 62
     7
 10
-105.27325999999999
 20
489.66877999999991
 30
0.0
 11
-113.27325999999999
 21
489.66877999999991
 31
0.0
  0
LINE
  5
343
  8
0
 62
     7
 10
-42.773282000000002
 20
492.72260799999992
 30
0.0
 11
-49.773282000000002
 21
492.72260799999992
 31
0.0
  0
LINE
  5
344
  8
0
 62
     7
 10
-42.773282000000002
 20
540.66883099999995
 30
0.0
 11
-42.773282000000002
 21
358.16883100000001
 31
0.0
  0
LINE
  5
345
  8
0
 62
     7
 10
-42.773282000000002
 20
348.16883100000001
 30
0.0
 11
-49.773282000000002
 21
348.16883100000001
 31
0.0
  0
ARC
  5
346
  8
0
 62
     7
 10
-49.773282000000002
 20
353.16883100000001
 30
0.0
 40
5.0
 50
90.000000999999983
 51
270.00000299999988
  0
ARC
  5
347
  8
0
 62
     7
 10
-42.773282000000002
 20
353.16883100000001
 30
0.0
 40
5.0
 50
270.00000299999988
 51
90.000000999999983
  0
LINE
  5
348
  8
0
 62
     7
 10
-42.773282000000002
 20
494.66882600000002
 30
0.0
 11
-49.773282000000002
 21
494.66882600000002
 31
0.0
  0
LINE
  5
349
  8
0
 62
     7
 10
-49.773282000000002
 20
496.6688309999999
 30
0.0
 11
-49.773282000000002
 21
358.16883100000001
 31
0.0
  0
LINE
  5
34A
  8
0
 62
     7
 10
-45.273282000000002
 20
496.6688309999999
 30
0.0
 11
-45.273282000000002
 21
494.66882600000002
 31
0.0
  0
LINE
  5
34B
  8
0
 62
     7
 10
-155.29326399999991
 20
523.66883099999995
 30
0.0
 11
-155.77332100000001
 21
578.67755899999986
 31
0.0
  0
ARC
  5
34C
  8
0
 62
     7
 10
-156.77328199999991
 20
578.66883099999995
 30
0.0
 40
1.0
 50
0.5000020000000001
 51
90.000000999999983
  0
LINE
  5
34D
  8
0
 62
     7
 10
-156.77328199999991
 20
579.66883099999995
 30
0.0
 11
-168.27328199999999
 21
579.66883099999995
 31
0.0
  0
LINE
  5
34E
  8
0
 62
     7
 10
-66.773281999999995
 20
540.66883099999995
 30
0.0
 11
-66.773281999999995
 21
523.66883099999995
 31
0.0
  0
LINE
  5
34F
  8
0
 62
     3
 10
-99.273279000000016
 20
476.6688309999999
 30
0.0
 11
-112.640081
 21
476.66877699999992
 31
0.0
  0
LINE
  5
350
  8
0
 62
     3
 10
-51.273282000000002
 20
550.66883099999995
 30
0.0
 11
-57.273281999999988
 21
550.66883099999995
 31
0.0
  0
LINE
  5
351
  8
0
 62
     3
 10
-52.273282000000002
 20
551.66883099999995
 30
0.0
 11
-56.273282000000002
 21
551.66883099999995
 31
0.0
  0
LINE
  5
352
  8
0
 62
     3
 10
-51.273282000000002
 20
550.66883099999995
 30
0.0
 11
-52.273282000000002
 21
551.66883099999995
 31
0.0
  0
LINE
  5
353
  8
0
 62
     3
 10
-56.273282000000002
 20
551.66883099999995
 30
0.0
 11
-57.273281999999988
 21
550.66883099999995
 31
0.0
  0
LINE
  5
354
  8
0
  6
DASHDOT
 62
     7
 10
-54.273281999999988
 20
562.22389199999998
 30
0.0
 11
-54.273281999999988
 21
528.46274600000004
 31
0.0
  0
LINE
  5
355
  8
0
 62
   150
 10
-24.273278999999999
 20
550.66883899999993
 30
0.0
 11
-24.273278999999999
 21
540.66883899999993
 31
0.0
  0
LINE
  5
356
  8
0
 62
   150
 10
-59.273279000000002
 20
550.66883899999993
 30
0.0
 11
-59.273279000000002
 21
540.66883899999993
 31
0.0
  0
LINE
  5
357
  8
0
 62
   150
 10
-24.273278999999999
 20
540.66883899999993
 30
0.0
 11
-59.273279000000002
 21
540.66883899999993
 31
0.0
  0
LINE
  5
358
  8
0
  6
DASHDOT
 62
     7
 10
-29.273278999999992
 20
551.53143299999988
 30
0.0
 11
-29.273278999999992
 21
535.98064399999998
 31
0.0
  0
LINE
  5
359
  8
0
 62
   150
 10
-46.023278999999988
 20
553.66883899999993
 30
0.0
 11
-46.023278999999988
 21
552.66883899999993
 31
0.0
  0
LINE
  5
35A
  8
0
 62
   150
 10
-37.523278999999988
 20
553.66883899999993
 30
0.0
 11
-37.523278999999988
 21
552.66883899999993
 31
0.0
  0
LINE
  5
35B
  8
0
 62
   150
 10
-34.861732000000003
 20
552.66883899999993
 30
0.0
 11
-34.861732000000003
 21
550.66883899999993
 31
0.0
  0
LINE
  5
35C
  8
0
 62
   150
 10
-48.684823999999999
 20
552.66883899999993
 30
0.0
 11
-48.684823999999999
 21
550.66883899999993
 31
0.0
  0
LINE
  5
35D
  8
0
 62
   150
 10
-34.861732000000003
 20
552.66883899999993
 30
0.0
 11
-37.523278999999988
 21
552.66883899999993
 31
0.0
  0
LINE
  5
35E
  8
0
 62
   150
 10
-45.487380000000002
 20
555.66883899999993
 30
0.0
 11
-46.023278999999988
 21
553.66883899999993
 31
0.0
  0
LINE
  5
35F
  8
0
 62
   150
 10
-37.523278999999988
 20
553.66883899999993
 30
0.0
 11
-38.059176999999998
 21
555.66883899999993
 31
0.0
  0
LINE
  5
360
  8
0
 62
   150
 10
-46.023278999999988
 20
552.66883899999993
 30
0.0
 11
-48.684823999999999
 21
552.66883899999993
 31
0.0
  0
LINE
  5
361
  8
0
 62
   150
 10
-24.273278999999999
 20
550.66883899999993
 30
0.0
 11
-34.861732000000003
 21
550.66883899999993
 31
0.0
  0
LINE
  5
362
  8
0
 62
   150
 10
-48.684823999999999
 20
550.66883899999993
 30
0.0
 11
-51.273282000000002
 21
550.66883899999993
 31
0.0
  0
LINE
  5
363
  8
0
 62
   150
 10
-34.523278999999988
 20
548.16883899999993
 30
0.0
 11
-49.023278999999988
 21
548.16883899999993
 31
0.0
  0
LINE
  5
364
  8
0
 62
   150
 10
-38.773278999999988
 20
555.66883899999993
 30
0.0
 11
-38.773278999999988
 21
548.16883899999993
 31
0.0
  0
LINE
  5
365
  8
0
 62
   150
 10
-44.773278999999988
 20
555.66883899999993
 30
0.0
 11
-44.773278999999988
 21
548.16883899999993
 31
0.0
  0
LINE
  5
366
  8
0
 62
     1
 10
-39.273278999999988
 20
549.76883699999985
 30
0.0
 11
-44.273278999999988
 21
549.76883699999985
 31
0.0
  0
LINE
  5
367
  8
0
 62
     1
 10
-39.273278999999988
 20
573.16883899999993
 30
0.0
 11
-44.273278999999988
 21
573.16883899999993
 31
0.0
  0
LINE
  5
368
  8
0
 62
     1
 10
-37.112850000000002
 20
545.66883899999993
 30
0.0
 11
-46.433708000000003
 21
545.66883899999993
 31
0.0
  0
LINE
  5
369
  8
0
 62
     1
 10
-44.273278999999988
 20
573.16883899999993
 30
0.0
 11
-44.273278999999988
 21
548.16883899999993
 31
0.0
  0
LINE
  5
36A
  8
0
 62
     1
 10
-39.273278999999988
 20
573.16883899999993
 30
0.0
 11
-39.273278999999988
 21
548.16883899999993
 31
0.0
  0
ARC
  5
36B
  8
0
 62
     1
 10
-41.773278999999988
 20
554.36883899999987
 30
0.0
 40
10.0
 50
242.30989700000001
 51
268.13755999999989
  0
LINE
  5
36C
  8
0
 62
     1
 10
-46.420169000000001
 20
545.51409899999999
 30
0.0
 11
-46.652431
 21
548.16883899999993
 31
0.0
  0
LINE
  5
36D
  8
0
 62
     1
 10
-36.894126
 20
548.16883899999993
 30
0.0
 11
-37.126387999999999
 21
545.51409899999999
 31
0.0
  0
LINE
  5
36E
  8
0
 62
     1
 10
-36.894126
 20
548.16883899999993
 30
0.0
 11
-46.652431
 21
548.16883899999993
 31
0.0
  0
LINE
  5
36F
  8
0
 62
     7
 10
-43.782534000000012
 20
573.16883899999993
 30
0.0
 11
-43.782534000000012
 21
549.76883699999985
 31
0.0
  0
LINE
  5
370
  8
0
 62
     7
 10
-39.76402199999999
 20
573.16883899999993
 30
0.0
 11
-39.76402199999999
 21
549.76883699999985
 31
0.0
  0
LINE
  5
371
  8
0
  6
DASHED
 62
     7
 10
-39.273278999999988
 20
548.16883899999993
 30
0.0
 11
-44.273278999999988
 21
548.16883899999993
 31
0.0
  0
LINE
  5
372
  8
0
  6
DASHDOT
 62
     7
 10
-41.773278999999988
 20
584.019722
 30
0.0
 11
-41.773278999999988
 21
540.36883899999998
 31
0.0
  0
LINE
  5
373
  8
0
 62
     1
 10
-41.448278999999999
 20
545.01883699999985
 30
0.0
 11
-42.098278000000001
 21
545.01883699999985
 31
0.0
  0
LINE
  5
374
  8
0
 62
     1
 10
-42.098278000000001
 20
545.01883699999985
 30
0.0
 11
-42.098278000000001
 21
544.37412300000005
 31
0.0
  0
LINE
  5
375
  8
0
 62
     1
 10
-41.448278999999999
 20
545.01883699999985
 30
0.0
 11
-41.448278999999999
 21
544.37412300000005
 31
0.0
  0
ARC
  5
376
  8
0
 62
     1
 10
-41.773278999999988
 20
554.36883899999987
 30
0.0
 40
10.0
 50
271.862438
 51
297.69010200000008
  0
LINE
  5
377
  8
0
 62
   150
 10
-32.023278999999988
 20
550.66883899999993
 30
0.0
 11
-32.023278999999988
 21
540.66883899999993
 31
0.0
  0
LINE
  5
378
  8
0
 62
   150
 10
-26.523278999999992
 20
550.66883899999993
 30
0.0
 11
-26.523278999999992
 21
540.66883899999993
 31
0.0
  0
LINE
  5
379
  8
0
 62
   150
 10
-57.273281999999988
 20
550.66883099999995
 30
0.0
 11
-59.273279000000002
 21
550.66883899999993
 31
0.0
  0
LINE
  5
37A
  8
0
  6
DASHED
 62
     7
 10
-239.27328199999991
 20
512.16883099999995
 30
0.0
 11
-239.27328199999991
 21
497.6688309999999
 31
0.0
  0
LINE
  5
37B
  8
0
 62
   150
 10
-34.523278999999988
 20
548.16883899999993
 30
0.0
 11
-34.523278999999988
 21
540.66883899999993
 31
0.0
  0
LINE
  5
37C
  8
0
 62
   150
 10
-49.023278999999988
 20
548.16883899999993
 30
0.0
 11
-49.023278999999988
 21
540.66883899999993
 31
0.0
  0
LINE
  5
37D
  8
0
 62
     7
 10
-316.77328199999988
 20
496.6688309999999
 30
0.0
 11
-316.77328199999988
 21
395.16876999999988
 31
0.0
  0
LINE
  5
37E
  8
0
 62
     7
 10
-89.273290000000003
 20
494.66884599999992
 30
0.0
 11
-89.273290000000003
 21
395.16876999999988
 31
0.0
  0
LINE
  5
37F
  8
0
 62
     7
 10
-201.06713599999989
 20
362.67371400000002
 30
0.0
 11
-210.82284300000001
 21
362.67371400000002
 31
0.0
  0
LINE
  5
380
  8
0
  6
DASHED
 62
     7
 10
-122.55403699999999
 20
496.6688309999999
 30
0.0
 11
-124.8319139999999
 21
502.0351639999999
 31
0.0
  0
LINE
  5
381
  8
0
  6
DASHED
 62
     7
 10
-129.072202
 20
496.6688309999999
 30
0.0
 11
-130.11250799999999
 21
499.11964399999999
 31
0.0
  0
LINE
  5
382
  8
0
 62
     7
 10
-354.77328199999999
 20
496.6688309999999
 30
0.0
 11
-354.77328199999999
 21
493.66883100000001
 31
0.0
  0
LINE
  5
383
  8
0
  6
DASHED
 62
     7
 10
-134.71503200000001
 20
502.16598799999991
 30
0.0
 11
-142.38175699999991
 21
502.16598799999991
 31
0.0
  0
LINE
  5
384
  8
0
  6
DASHED
 62
     7
 10
-134.03696199999999
 20
508.12785300000002
 30
0.0
 11
-144.51731599999991
 21
508.12785300000002
 31
0.0
  0
ARC
  5
385
  8
0
  6
DASHED
 62
     7
 10
-134.03696199999999
 20
498.1278529999999
 30
0.0
 40
10.0
 50
22.999998000000001
 51
90.000000999999983
  0
ARC
  5
386
  8
0
  6
DASHED
 62
     7
 10
-134.71503200000001
 20
497.16598899999991
 30
0.0
 40
5.0
 50
22.999998000000001
 51
90.000000999999983
  0
LINE
  5
387
  8
0
 62
     7
 10
-354.77328199999999
 20
496.6688309999999
 30
0.0
 11
-354.77328199999999
 21
488.6688309999999
 31
0.0
  0
LINE
  5
388
  8
0
 62
     7
 10
-354.77328199999999
 20
488.6688309999999
 30
0.0
 11
-359.77328199999999
 21
488.6688309999999
 31
0.0
  0
LINE
  5
389
  8
0
  6
DASHDOT
 62
     7
 10
-54.273248000000002
 20
651.171018
 30
0.0
 11
-54.273248000000002
 21
662.35636299999987
 31
0.0
  0
LINE
  5
38A
  8
0
  6
DASHDOT
 62
     7
 10
-304.27324800000002
 20
805.75224300000002
 30
0.0
 11
-304.27324800000002
 21
809.75224299999991
 31
0.0
  0
LINE
  5
38B
  8
0
  6
DASHDOT
 62
     7
 10
-306.27324800000002
 20
807.75224300000002
 30
0.0
 11
-302.27324800000002
 21
807.75224300000002
 31
0.0
  0
LINE
  5
38C
  8
0
 62
     7
 10
-42.773247999999988
 20
664.75224300000002
 30
0.0
 11
-42.773247999999988
 21
727.25224300000002
 31
0.0
  0
LINE
  5
38D
  8
0
 62
     7
 10
-364.77324800000002
 20
664.75224300000002
 30
0.0
 11
-364.77324800000002
 21
794.75224300000002
 31
0.0
  0
LINE
  5
38E
  8
0
 62
     7
 10
-316.77324800000002
 20
812.25224300000002
 30
0.0
 11
-308.24187599999988
 21
812.25224300000002
 31
0.0
  0
LINE
  5
38F
  8
0
 62
     7
 10
-62.273247999999988
 20
653.25224300000002
 30
0.0
 11
-58.241875
 21
653.25224300000002
 31
0.0
  0
LINE
  5
390
  8
0
 62
     7
 10
-68.773247999999995
 20
800.75224299999991
 30
0.0
 11
-42.773247999999988
 21
800.75224299999991
 31
0.0
  0
LINE
  5
391
  8
0
 62
     7
 10
-66.773247999999995
 20
664.75224300000002
 30
0.0
 11
-42.773247999999988
 21
664.75224300000002
 31
0.0
  0
LINE
  5
392
  8
0
 62
     7
 10
-68.773247999999995
 20
800.75224299999991
 30
0.0
 11
-68.773247999999995
 21
806.75224300000002
 31
0.0
  0
LINE
  5
393
  8
0
 62
     7
 10
-364.77324800000002
 20
794.75224300000002
 30
0.0
 11
-289.77324800000002
 21
794.75224300000002
 31
0.0
  0
LINE
  5
394
  8
0
 62
     7
 10
-66.773247999999995
 20
658.75224299999991
 30
0.0
 11
-66.773247999999995
 21
664.75224300000002
 31
0.0
  0
LINE
  5
395
  8
0
 62
     7
 10
-294.77324800000002
 20
806.75224300000002
 30
0.0
 11
-68.773247999999995
 21
806.75224300000002
 31
0.0
  0
LINE
  5
396
  8
0
 62
     7
 10
-289.77324800000002
 20
658.75224299999991
 30
0.0
 11
-63.273247999999988
 21
658.75224299999991
 31
0.0
  0
LINE
  5
397
  8
0
 62
     7
 10
-291.77324800000002
 20
804.25224299999991
 30
0.0
 11
-291.77324800000002
 21
806.75224300000002
 31
0.0
  0
LINE
  5
398
  8
0
 62
     7
 10
-364.77324800000002
 20
664.75224300000002
 30
0.0
 11
-289.77324800000002
 21
664.75224300000002
 31
0.0
  0
LINE
  5
399
  8
0
 62
     7
 10
-289.77324800000002
 20
658.75224299999991
 30
0.0
 11
-289.77324800000002
 21
664.75224300000002
 31
0.0
  0
LINE
  5
39A
  8
0
 62
     7
 10
-350.77324800000002
 20
676.75224300000002
 30
0.0
 11
-350.77324800000002
 21
752.75224300000002
 31
0.0
  0
LINE
  5
39B
  8
0
 62
     7
 10
-348.77324800000002
 20
674.75224300000002
 30
0.0
 11
-331.77324800000002
 21
674.75224300000002
 31
0.0
  0
LINE
  5
39C
  8
0
 62
     7
 10
-329.77324800000002
 20
676.75224300000002
 30
0.0
 11
-329.77324800000002
 21
752.75224300000002
 31
0.0
  0
LINE
  5
39D
  8
0
 62
     7
 10
-348.77324800000002
 20
754.75224300000002
 30
0.0
 11
-331.77324800000002
 21
754.75224300000002
 31
0.0
  0
LINE
  5
39E
  8
0
 62
     7
 10
-49.773247999999988
 20
742.75224300000002
 30
0.0
 11
-42.773247999999988
 21
742.75224300000002
 31
0.0
  0
LINE
  5
39F
  8
0
 62
     7
 10
-44.773247999999988
 20
742.75224300000002
 30
0.0
 11
-44.773247999999988
 21
798.75224300000002
 31
0.0
  0
LINE
  5
3A0
  8
0
 62
     7
 10
-49.773247999999988
 20
705.75224300000002
 30
0.0
 11
-49.773247999999988
 21
724.75224300000002
 31
0.0
  0
LINE
  5
3A1
  8
0
 62
     7
 10
-49.773247999999988
 20
798.75224300000002
 30
0.0
 11
-44.773247999999988
 21
798.75224300000002
 31
0.0
  0
LINE
  5
3A2
  8
0
  6
DASHED
 62
     7
 10
-42.773247999999988
 20
742.75224300000002
 30
0.0
 11
-42.773247999999988
 21
800.75224299999991
 31
0.0
  0
LINE
  5
3A3
  8
0
 62
     7
 10
-49.773247999999988
 20
727.25224300000002
 30
0.0
 11
-42.773247999999988
 21
727.25224300000002
 31
0.0
  0
LINE
  5
3A4
  8
0
 62
     7
 10
-49.773247999999988
 20
724.75224300000002
 30
0.0
 11
-42.773247999999988
 21
724.75224300000002
 31
0.0
  0
LINE
  5
3A5
  8
0
 62
     7
 10
-49.773247999999988
 20
723.75224300000002
 30
0.0
 11
-42.773247999999988
 21
723.75224300000002
 31
0.0
  0
LINE
  5
3A6
  8
0
 62
     7
 10
-49.773247999999988
 20
705.75224300000002
 30
0.0
 11
-42.773247999999988
 21
705.75224300000002
 31
0.0
  0
LINE
  5
3A7
  8
0
  6
DASHED
 62
     7
 10
-42.773247999999988
 20
724.75224300000002
 30
0.0
 11
-42.773247999999988
 21
727.25224300000002
 31
0.0
  0
LINE
  5
3A8
  8
0
 62
     7
 10
-316.77324800000002
 20
680.252207
 30
0.0
 11
-316.77324800000002
 21
785.25227400000006
 31
0.0
  0
ARC
  5
3A9
  8
0
 62
     7
 10
-348.77324800000002
 20
676.75224300000002
 30
0.0
 40
2.0
 50
180.00000499999999
 51
270.000001
  0
ARC
  5
3AA
  8
0
 62
     7
 10
-331.77324800000002
 20
676.75224300000002
 30
0.0
 40
2.0
 50
270.000001
 51
360.0
  0
ARC
  5
3AB
  8
0
 62
     7
 10
-331.77324800000002
 20
752.75224300000002
 30
0.0
 40
2.0
 50
0.0
 51
90.000003000000007
  0
ARC
  5
3AC
  8
0
 62
     7
 10
-348.77324800000002
 20
752.75224300000002
 30
0.0
 40
2.0
 50
90.000003000000007
 51
180.00000499999999
  0
LINE
  5
3AD
  8
0
 62
     7
 10
-291.77324800000002
 20
804.25224299999991
 30
0.0
 11
-289.77324800000002
 21
804.25224299999991
 31
0.0
  0
LINE
  5
3AE
  8
0
 62
     2
 10
-328.77324800000002
 20
797.00224300000002
 30
0.0
 11
-328.77324800000002
 21
810.25224300000002
 31
0.0
  0
LINE
  5
3AF
  8
0
 62
     2
 10
-297.06214299999988
 20
804.00224300000002
 30
0.0
 11
-289.77324800000002
 21
804.00224300000002
 31
0.0
  0
LINE
  5
3B0
  8
0
 62
     2
 10
-326.77324800000002
 20
795.00224300000002
 30
0.0
 11
-289.77324800000002
 21
795.00224300000002
 31
0.0
  0
LINE
  5
3B1
  8
0
 62
     2
 10
-326.77324800000002
 20
812.25224300000002
 30
0.0
 11
-314.77324800000002
 21
812.25224300000002
 31
0.0
  0
ARC
  5
3B2
  8
0
 62
     2
 10
-304.27324800000002
 20
808.50224300000002
 30
0.0
 40
8.5
 50
180.00000499999999
 51
328.034288
  0
ARC
  5
3B3
  8
0
 62
     2
 10
-326.77324800000002
 20
810.25224300000002
 30
0.0
 40
2.0
 50
90.000003000000007
 51
180.00000499999999
  0
ARC
  5
3B4
  8
0
 62
     2
 10
-326.77324800000002
 20
797.00224300000002
 30
0.0
 40
2.0
 50
180.00000499999999
 51
270.000001
  0
LINE
  5
3B5
  8
0
 62
     2
 10
-312.77324800000002
 20
808.50224300000002
 30
0.0
 11
-312.77324800000002
 21
810.25224300000002
 31
0.0
  0
ARC
  5
3B6
  8
0
 62
     2
 10
-314.77324800000002
 20
810.25224300000002
 30
0.0
 40
2.0
 50
0.0
 51
90.000003000000007
  0
LINE
  5
3B7
  8
0
 62
     7
 10
-47.273247999999988
 20
654.25224299999991
 30
0.0
 11
-47.273247999999988
 21
664.75224300000002
 31
0.0
  0
LINE
  5
3B8
  8
0
 62
     7
 10
-61.273248000000002
 20
654.25224299999991
 30
0.0
 11
-61.273248000000002
 21
664.75224300000002
 31
0.0
  0
LINE
  5
3B9
  8
0
 62
     7
 10
-50.304621000000012
 20
653.25224300000002
 30
0.0
 11
-46.273247999999988
 21
653.25224300000002
 31
0.0
  0
LINE
  5
3BA
  8
0
 62
     7
 10
-297.27324800000002
 20
804.00224300000002
 30
0.0
 11
-297.27324800000002
 21
812.25224300000002
 31
0.0
  0
LINE
  5
3BB
  8
0
 62
     7
 10
-300.30461999999989
 20
812.25224300000002
 30
0.0
 11
-295.77324800000002
 21
812.25224300000002
 31
0.0
  0
LINE
  5
3BC
  8
0
 62
     7
 10
-45.273247999999988
 20
654.25224299999991
 30
0.0
 11
-45.273247999999988
 21
664.75224300000002
 31
0.0
  0
LINE
  5
3BD
  8
0
 62
     7
 10
-63.273247999999988
 20
654.25224299999991
 30
0.0
 11
-63.273247999999988
 21
658.75224299999991
 31
0.0
  0
LINE
  5
3BE
  8
0
 62
     7
 10
-294.77324800000002
 20
806.75224300000002
 30
0.0
 11
-294.77324800000002
 21
811.25224300000002
 31
0.0
  0
ARC
  5
3BF
  8
0
 62
     7
 10
-295.77324800000002
 20
811.25224300000002
 30
0.0
 40
1.0
 50
0.0
 51
90.000003000000007
  0
ARC
  5
3C0
  8
0
 62
     7
 10
-62.273247999999988
 20
654.25224299999991
 30
0.0
 40
1.0
 50
180.00000499999999
 51
270.000001
  0
ARC
  5
3C1
  8
0
 62
     7
 10
-46.273247999999988
 20
654.25224299999991
 30
0.0
 40
1.0
 50
270.000001
 51
0.00001
  0
ARC
  5
3C2
  8
0
 62
     7
 10
-46.273247999999988
 20
654.25224299999991
 30
0.0
 40
1.0
 50
180.00000499999999
 51
270.000001
  0
ARC
  5
3C3
  8
0
 62
     7
 10
-62.273247999999988
 20
654.25224299999991
 30
0.0
 40
1.0
 50
270.000001
 51
0.00001
  0
LINE
  5
3C4
  8
0
 62
     7
 10
-49.773247999999988
 20
727.25224300000002
 30
0.0
 11
-49.773247999999988
 21
798.75224300000002
 31
0.0
  0
LINE
  5
3C5
  8
0
 62
     7
 10
-49.773247999999988
 20
744.75224300000002
 30
0.0
 11
-44.773247999999988
 21
744.75224300000002
 31
0.0
  0
LINE
  5
3C6
  8
0
 62
     7
 10
-362.27324800000002
 20
668.25224300000002
 30
0.0
 11
-362.27324800000002
 21
688.25224300000002
 31
0.0
  0
LINE
  5
3C7
  8
0
 62
     7
 10
-361.27324800000002
 20
667.25224300000002
 30
0.0
 11
-360.02324800000002
 21
667.25224300000002
 31
0.0
  0
ARC
  5
3C8
  8
0
 62
     7
 10
-361.27324800000002
 20
668.25224300000002
 30
0.0
 40
1.0
 50
180.00000499999999
 51
270.000001
  0
LINE
  5
3C9
  8
0
 62
     7
 10
-354.77324800000002
 20
762.25224300000002
 30
0.0
 11
-354.77324800000002
 21
789.75224300000002
 31
0.0
  0
LINE
  5
3CA
  8
0
 62
     7
 10
-329.77324800000002
 20
764.75224300000002
 30
0.0
 11
-329.77324800000002
 21
789.75224300000002
 31
0.0
  0
LINE
  5
3CB
  8
0
  6
DASHED
 62
     7
 10
-42.773247999999988
 20
704.75224300000002
 30
0.0
 11
-42.773247999999988
 21
723.75224300000002
 31
0.0
  0
LINE
  5
3CC
  8
0
 62
     7
 10
-359.02324800000002
 20
668.25224300000002
 30
0.0
 11
-359.02324800000002
 21
688.25224300000002
 31
0.0
  0
ARC
  5
3CD
  8
0
 62
     7
 10
-360.02324800000002
 20
668.25224300000002
 30
0.0
 40
1.0
 50
270.000001
 51
360.0
  0
LINE
  5
3CE
  8
0
 62
     7
 10
-355.52324800000002
 20
667.25224300000002
 30
0.0
 11
-354.77324800000002
 21
667.25224300000002
 31
0.0
  0
LINE
  5
3CF
  8
0
 62
     7
 10
-356.52324800000002
 20
668.25224300000002
 30
0.0
 11
-356.52324800000002
 21
688.25224300000002
 31
0.0
  0
ARC
  5
3D0
  8
0
 62
     7
 10
-355.52324800000002
 20
668.25224300000002
 30
0.0
 40
1.0
 50
180.00000499999999
 51
270.000001
  0
LINE
  5
3D1
  8
0
 62
     7
 10
-289.77324800000002
 20
794.75224300000002
 30
0.0
 11
-289.77324800000002
 21
804.25224299999991
 31
0.0
  0
LINE
  5
3D2
  8
0
  6
DASHDOT
 62
     7
 10
-73.773247999999995
 20
748.56724499999996
 30
0.0
 11
-73.773247999999995
 21
760.56724500000007
 31
0.0
  0
LINE
  5
3D3
  8
0
  6
DASHDOT
 62
     7
 10
-79.773247999999995
 20
754.56724499999996
 30
0.0
 11
-67.773247999999995
 21
754.56724499999996
 31
0.0
  0
LINE
  5
3D4
  8
0
  6
DASHDOT
 62
     7
 10
-73.773247999999995
 20
709.25224300000002
 30
0.0
 11
-73.773247999999995
 21
721.25224299999991
 31
0.0
  0
LINE
  5
3D5
  8
0
  6
DASHDOT
 62
     7
 10
-79.773247999999995
 20
715.25224300000002
 30
0.0
 11
-67.773247999999995
 21
715.25224300000002
 31
0.0
  0
CIRCLE
  5
3D6
  8
0
 62
     7
 10
-73.773247999999995
 20
754.56724499999996
 30
0.0
 40
2.75
  0
CIRCLE
  5
3D7
  8
0
 62
     7
 10
-73.773247999999995
 20
715.25224300000002
 30
0.0
 40
2.75
  0
LINE
  5
3D8
  8
0
 62
     7
 10
-168.773248
 20
665.75224300000002
 30
0.0
 11
-168.773248
 21
680.25225799999987
 31
0.0
  0
LINE
  5
3D9
  8
0
 62
     7
 10
-202.773248
 20
664.75224300000002
 30
0.0
 11
-169.77324799999991
 21
664.75224300000002
 31
0.0
  0
LINE
  5
3DA
  8
0
 62
     7
 10
-203.77324799999991
 20
665.75224300000002
 30
0.0
 11
-203.77324799999991
 21
680.25225799999987
 31
0.0
  0
ARC
  5
3DB
  8
0
 62
     7
 10
-169.77324799999991
 20
665.75224300000002
 30
0.0
 40
1.0
 50
270.000001
 51
360.0
  0
ARC
  5
3DC
  8
0
 62
     7
 10
-202.773248
 20
665.75224300000002
 30
0.0
 40
1.0
 50
180.00000499999999
 51
270.000001
  0
LINE
  5
3DD
  8
0
 62
     7
 10
-364.77324800000002
 20
764.75224300000002
 30
0.0
 11
-329.77324800000002
 21
764.75224300000002
 31
0.0
  0
LINE
  5
3DE
  8
0
 62
     7
 10
-354.77324800000002
 20
789.75224300000002
 30
0.0
 11
-329.77324800000002
 21
789.75224300000002
 31
0.0
  0
LINE
  5
3DF
  8
0
 62
     7
 10
-361.27324800000002
 20
713.50224300000002
 30
0.0
 11
-360.02324800000002
 21
713.50224300000002
 31
0.0
  0
LINE
  5
3E0
  8
0
 62
     7
 10
-361.27324800000002
 20
691.75224299999991
 30
0.0
 11
-360.02324800000002
 21
691.75224299999991
 31
0.0
  0
LINE
  5
3E1
  8
0
 62
     7
 10
-362.27324800000002
 20
692.75224300000002
 30
0.0
 11
-362.27324800000002
 21
712.50224300000002
 31
0.0
  0
LINE
  5
3E2
  8
0
 62
     7
 10
-359.02324800000002
 20
692.75224300000002
 30
0.0
 11
-359.02324800000002
 21
712.50224300000002
 31
0.0
  0
LINE
  5
3E3
  8
0
 62
     7
 10
-356.52324800000002
 20
692.75224300000002
 30
0.0
 11
-356.52324800000002
 21
712.50224300000002
 31
0.0
  0
LINE
  5
3E4
  8
0
 62
     7
 10
-361.27324800000002
 20
689.25224300000002
 30
0.0
 11
-360.02324800000002
 21
689.25224300000002
 31
0.0
  0
LINE
  5
3E5
  8
0
 62
     7
 10
-355.52324800000002
 20
689.25224300000002
 30
0.0
 11
-354.77324800000002
 21
689.25224300000002
 31
0.0
  0
LINE
  5
3E6
  8
0
 62
     7
 10
-355.52324800000002
 20
691.75224299999991
 30
0.0
 11
-354.77324800000002
 21
691.75224299999991
 31
0.0
  0
ARC
  5
3E7
  8
0
 62
     7
 10
-355.52324800000002
 20
688.25224300000002
 30
0.0
 40
1.0
 50
90.000003000000007
 51
180.00000499999999
  0
ARC
  5
3E8
  8
0
 62
     7
 10
-360.02324800000002
 20
688.25224300000002
 30
0.0
 40
1.0
 50
0.0
 51
90.000003000000007
  0
ARC
  5
3E9
  8
0
 62
     7
 10
-361.27324800000002
 20
688.25224300000002
 30
0.0
 40
1.0
 50
90.000003000000007
 51
180.00000499999999
  0
ARC
  5
3EA
  8
0
 62
     7
 10
-361.27324800000002
 20
692.75224300000002
 30
0.0
 40
1.0
 50
180.00000499999999
 51
270.000001
  0
ARC
  5
3EB
  8
0
 62
     7
 10
-360.02324800000002
 20
692.75224300000002
 30
0.0
 40
1.0
 50
270.000001
 51
360.0
  0
ARC
  5
3EC
  8
0
 62
     7
 10
-355.52324800000002
 20
692.75224300000002
 30
0.0
 40
1.0
 50
180.00000499999999
 51
270.000001
  0
LINE
  5
3ED
  8
0
 62
     7
 10
-355.52324800000002
 20
713.50224300000002
 30
0.0
 11
-354.77324800000002
 21
713.50224300000002
 31
0.0
  0
ARC
  5
3EE
  8
0
 62
     7
 10
-360.02324800000002
 20
712.50224300000002
 30
0.0
 40
1.0
 50
0.0
 51
90.000003000000007
  0
ARC
  5
3EF
  8
0
 62
     7
 10
-361.27324800000002
 20
712.50224300000002
 30
0.0
 40
1.0
 50
90.000003000000007
 51
180.00000499999999
  0
ARC
  5
3F0
  8
0
 62
     7
 10
-355.52324800000002
 20
712.50224300000002
 30
0.0
 40
1.0
 50
90.000003000000007
 51
180.00000499999999
  0
LINE
  5
3F1
  8
0
 62
     7
 10
-362.27324800000002
 20
741.25224300000002
 30
0.0
 11
-362.27324800000002
 21
761.25224300000002
 31
0.0
  0
LINE
  5
3F2
  8
0
 62
     7
 10
-361.27324800000002
 20
762.25224300000002
 30
0.0
 11
-360.02324800000002
 21
762.25224300000002
 31
0.0
  0
ARC
  5
3F3
  8
0
 62
     7
 10
-361.27324800000002
 20
761.25224300000002
 30
0.0
 40
1.0
 50
90.000003000000007
 51
180.00000499999999
  0
LINE
  5
3F4
  8
0
 62
     7
 10
-359.02324800000002
 20
741.25224300000002
 30
0.0
 11
-359.02324800000002
 21
761.25224300000002
 31
0.0
  0
ARC
  5
3F5
  8
0
 62
     7
 10
-360.02324800000002
 20
761.25224300000002
 30
0.0
 40
1.0
 50
0.0
 51
90.000003000000007
  0
LINE
  5
3F6
  8
0
 62
     7
 10
-355.52324800000002
 20
762.25224300000002
 30
0.0
 11
-354.77324800000002
 21
762.25224300000002
 31
0.0
  0
LINE
  5
3F7
  8
0
 62
     7
 10
-356.52324800000002
 20
741.25224300000002
 30
0.0
 11
-356.52324800000002
 21
761.25224300000002
 31
0.0
  0
ARC
  5
3F8
  8
0
 62
     7
 10
-355.52324800000002
 20
761.25224300000002
 30
0.0
 40
1.0
 50
90.000003000000007
 51
180.00000499999999
  0
LINE
  5
3F9
  8
0
 62
     7
 10
-361.27324800000002
 20
716.00224300000002
 30
0.0
 11
-360.02324800000002
 21
716.00224300000002
 31
0.0
  0
LINE
  5
3FA
  8
0
 62
     7
 10
-361.27324800000002
 20
737.75224299999991
 30
0.0
 11
-360.02324800000002
 21
737.75224299999991
 31
0.0
  0
LINE
  5
3FB
  8
0
 62
     7
 10
-362.27324800000002
 20
717.00224300000002
 30
0.0
 11
-362.27324800000002
 21
736.75224300000002
 31
0.0
  0
LINE
  5
3FC
  8
0
 62
     7
 10
-359.02324800000002
 20
717.00224300000002
 30
0.0
 11
-359.02324800000002
 21
736.75224300000002
 31
0.0
  0
LINE
  5
3FD
  8
0
 62
     7
 10
-356.52324800000002
 20
717.00224300000002
 30
0.0
 11
-356.52324800000002
 21
736.75224300000002
 31
0.0
  0
LINE
  5
3FE
  8
0
 62
     7
 10
-361.27324800000002
 20
740.25224300000002
 30
0.0
 11
-360.02324800000002
 21
740.25224300000002
 31
0.0
  0
LINE
  5
3FF
  8
0
 62
     7
 10
-355.52324800000002
 20
740.25224300000002
 30
0.0
 11
-354.77324800000002
 21
740.25224300000002
 31
0.0
  0
LINE
  5
400
  8
0
 62
     7
 10
-355.52324800000002
 20
737.75224299999991
 30
0.0
 11
-354.77324800000002
 21
737.75224299999991
 31
0.0
  0
ARC
  5
401
  8
0
 62
     7
 10
-355.52324800000002
 20
741.25224300000002
 30
0.0
 40
1.0
 50
180.00000499999999
 51
270.000001
  0
ARC
  5
402
  8
0
 62
     7
 10
-360.02324800000002
 20
741.25224300000002
 30
0.0
 40
1.0
 50
270.000001
 51
360.0
  0
ARC
  5
403
  8
0
 62
     7
 10
-361.27324800000002
 20
741.25224300000002
 30
0.0
 40
1.0
 50
180.00000499999999
 51
270.000001
  0
ARC
  5
404
  8
0
 62
     7
 10
-361.27324800000002
 20
736.75224300000002
 30
0.0
 40
1.0
 50
90.000003000000007
 51
180.00000499999999
  0
ARC
  5
405
  8
0
 62
     7
 10
-360.02324800000002
 20
736.75224300000002
 30
0.0
 40
1.0
 50
0.0
 51
90.000003000000007
  0
ARC
  5
406
  8
0
 62
     7
 10
-355.52324800000002
 20
736.75224300000002
 30
0.0
 40
1.0
 50
90.000003000000007
 51
180.00000499999999
  0
LINE
  5
407
  8
0
 62
     7
 10
-355.52324800000002
 20
716.00224300000002
 30
0.0
 11
-354.77324800000002
 21
716.00224300000002
 31
0.0
  0
ARC
  5
408
  8
0
 62
     7
 10
-360.02324800000002
 20
717.00224300000002
 30
0.0
 40
1.0
 50
270.000001
 51
360.0
  0
ARC
  5
409
  8
0
 62
     7
 10
-361.27324800000002
 20
717.00224300000002
 30
0.0
 40
1.0
 50
180.00000499999999
 51
270.000001
  0
ARC
  5
40A
  8
0
 62
     7
 10
-355.52324800000002
 20
717.00224300000002
 30
0.0
 40
1.0
 50
180.00000499999999
 51
270.000001
  0
LINE
  5
40B
  8
0
  6
DASHDOT
 62
     7
 10
-54.273246999999991
 20
647.55534199999988
 30
0.0
 11
-54.273246999999991
 21
662.32550400000002
 31
0.0
  0
ARC
  5
40C
  8
0
 62
     1
 10
-41.773246
 20
657.75224400000002
 30
0.0
 40
5.0
 50
225.53535999999991
 51
134.427029
  0
LINE
  5
40D
  8
0
 62
     1
 10
-42.423247000000003
 20
660.402244
 30
0.0
 11
-41.123246999999999
 21
660.402244
 31
0.0
  0
LINE
  5
40E
  8
0
 62
     1
 10
-42.423247000000003
 20
655.10224400000004
 30
0.0
 11
-41.123246999999999
 21
655.10224400000004
 31
0.0
  0
LINE
  5
40F
  8
0
 62
     1
 10
-44.423246999999989
 20
657.10224400000004
 30
0.0
 11
-44.423246999999989
 21
658.402244
 31
0.0
  0
LINE
  5
410
  8
0
 62
     1
 10
-39.123246999999999
 20
657.10224400000004
 30
0.0
 11
-39.123246999999999
 21
658.402244
 31
0.0
  0
LINE
  5
411
  8
0
 62
     1
 10
-44.423246999999989
 20
658.402244
 30
0.0
 11
-42.423247000000003
 21
658.402244
 31
0.0
  0
LINE
  5
412
  8
0
 62
     1
 10
-44.423246999999989
 20
657.10224400000004
 30
0.0
 11
-42.423247000000003
 21
657.10224400000004
 31
0.0
  0
LINE
  5
413
  8
0
 62
     1
 10
-42.423247000000003
 20
655.10224400000004
 30
0.0
 11
-42.423247000000003
 21
657.10224400000004
 31
0.0
  0
LINE
  5
414
  8
0
 62
     1
 10
-41.123246999999999
 20
655.10224400000004
 30
0.0
 11
-41.123246999999999
 21
657.10224400000004
 31
0.0
  0
LINE
  5
415
  8
0
 62
     1
 10
-42.423247000000003
 20
658.402244
 30
0.0
 11
-42.423247000000003
 21
660.402244
 31
0.0
  0
LINE
  5
416
  8
0
 62
     1
 10
-41.123246999999999
 20
658.402244
 30
0.0
 11
-41.123246999999999
 21
660.402244
 31
0.0
  0
LINE
  5
417
  8
0
 62
     1
 10
-41.123246999999999
 20
658.402244
 30
0.0
 11
-39.123246999999999
 21
658.402244
 31
0.0
  0
LINE
  5
418
  8
0
 62
     1
 10
-41.123246999999999
 20
657.10224400000004
 30
0.0
 11
-39.123246999999999
 21
657.10224400000004
 31
0.0
  0
LINE
  5
419
  8
0
  6
DASHDOT
 62
     7
 10
-41.773246
 20
650.75224400000002
 30
0.0
 11
-41.773246
 21
664.75224400000002
 31
0.0
  0
CIRCLE
  5
41A
  8
0
 62
     3
 10
-54.273248000000002
 20
657.75224300000002
 30
0.0
 40
6.0
  0
LINE
  5
41B
  8
0
 62
     3
 10
-54.983247999999989
 20
661.15224299999988
 30
0.0
 11
-53.563248000000002
 21
661.15224299999988
 31
0.0
  0
LINE
  5
41C
  8
0
 62
     3
 10
-54.983247999999989
 20
654.35224299999993
 30
0.0
 11
-53.563248000000002
 21
654.35224299999993
 31
0.0
  0
LINE
  5
41D
  8
0
 62
     3
 10
-57.673248000000001
 20
657.04224299999987
 30
0.0
 11
-57.673248000000001
 21
658.46224299999994
 31
0.0
  0
LINE
  5
41E
  8
0
 62
     3
 10
-50.873247999999997
 20
657.04224299999987
 30
0.0
 11
-50.873247999999997
 21
658.46224299999994
 31
0.0
  0
LINE
  5
41F
  8
0
 62
     3
 10
-57.673248000000001
 20
658.46224299999994
 30
0.0
 11
-54.983247999999989
 21
658.46224299999994
 31
0.0
  0
LINE
  5
420
  8
0
 62
     3
 10
-57.673248000000001
 20
657.04224299999987
 30
0.0
 11
-54.983247999999989
 21
657.04224299999987
 31
0.0
  0
LINE
  5
421
  8
0
 62
     3
 10
-54.983247999999989
 20
654.35224299999993
 30
0.0
 11
-54.983247999999989
 21
657.04224299999987
 31
0.0
  0
LINE
  5
422
  8
0
 62
     3
 10
-53.563248000000002
 20
654.35224299999993
 30
0.0
 11
-53.563248000000002
 21
657.04224299999987
 31
0.0
  0
LINE
  5
423
  8
0
 62
     3
 10
-54.983247999999989
 20
658.46224299999994
 30
0.0
 11
-54.983247999999989
 21
661.15224299999988
 31
0.0
  0
LINE
  5
424
  8
0
 62
     3
 10
-53.563248000000002
 20
658.46224299999994
 30
0.0
 11
-53.563248000000002
 21
661.15224299999988
 31
0.0
  0
LINE
  5
425
  8
0
 62
     3
 10
-53.563248000000002
 20
658.46224299999994
 30
0.0
 11
-50.873247999999997
 21
658.46224299999994
 31
0.0
  0
LINE
  5
426
  8
0
 62
     3
 10
-53.563248000000002
 20
657.04224299999987
 30
0.0
 11
-50.873247999999997
 21
657.04224299999987
 31
0.0
  0
LINE
  5
427
  8
0
  6
DASHDOT
 62
     7
 10
-54.273248000000002
 20
649.75224300000002
 30
0.0
 11
-54.273248000000002
 21
665.75224300000002
 31
0.0
  0
CIRCLE
  5
428
  8
0
 62
     3
 10
-304.27324800000002
 20
807.75224300000002
 30
0.0
 40
6.0
  0
LINE
  5
429
  8
0
 62
     3
 10
-304.98325499999999
 20
811.1522369999999
 30
0.0
 11
-303.563242
 21
811.1522369999999
 31
0.0
  0
LINE
  5
42A
  8
0
 62
     3
 10
-304.98325499999999
 20
804.35224900000003
 30
0.0
 11
-303.563242
 21
804.35224900000003
 31
0.0
  0
LINE
  5
42B
  8
0
 62
     3
 10
-307.67324200000002
 20
807.042236
 30
0.0
 11
-307.67324200000002
 21
808.46225000000004
 31
0.0
  0
LINE
  5
42C
  8
0
 62
     3
 10
-300.87325399999997
 20
807.042236
 30
0.0
 11
-300.87325399999997
 21
808.46225000000004
 31
0.0
  0
LINE
  5
42D
  8
0
 62
     3
 10
-307.67324200000002
 20
808.46225000000004
 30
0.0
 11
-304.98325499999999
 21
808.46225000000004
 31
0.0
  0
LINE
  5
42E
  8
0
 62
     3
 10
-307.67324200000002
 20
807.042236
 30
0.0
 11
-304.98325499999999
 21
807.042236
 31
0.0
  0
LINE
  5
42F
  8
0
 62
     3
 10
-304.98325499999999
 20
804.35224900000003
 30
0.0
 11
-304.98325499999999
 21
807.042236
 31
0.0
  0
LINE
  5
430
  8
0
 62
     3
 10
-303.563242
 20
804.35224900000003
 30
0.0
 11
-303.563242
 21
807.042236
 31
0.0
  0
LINE
  5
431
  8
0
 62
     3
 10
-304.98325499999999
 20
808.46225000000004
 30
0.0
 11
-304.98325499999999
 21
811.1522369999999
 31
0.0
  0
LINE
  5
432
  8
0
 62
     3
 10
-303.563242
 20
808.46225000000004
 30
0.0
 11
-303.563242
 21
811.1522369999999
 31
0.0
  0
LINE
  5
433
  8
0
 62
     3
 10
-303.563242
 20
808.46225000000004
 30
0.0
 11
-300.87325399999997
 21
808.46225000000004
 31
0.0
  0
LINE
  5
434
  8
0
 62
     3
 10
-303.563242
 20
807.042236
 30
0.0
 11
-300.87325399999997
 21
807.042236
 31
0.0
  0
LINE
  5
435
  8
0
  6
DASHDOT
 62
     7
 10
-304.27324800000002
 20
799.75224300000002
 30
0.0
 11
-304.27324800000002
 21
815.75224300000002
 31
0.0
  0
LINE
  5
436
  8
0
  6
DASHDOT
 62
     7
 10
-395.32717300000002
 20
807.75224300000002
 30
0.0
 11
-296.27324800000002
 21
807.75224300000002
 31
0.0
  0
LINE
  5
437
  8
0
  6
DASHDOT
 62
     7
 10
-62.047387000000001
 20
657.75224300000002
 30
0.0
 11
-36.554233000000004
 21
657.75224300000002
 31
0.0
  0
LINE
  5
438
  8
0
 62
   150
 10
-34.773246
 20
666.70117400000004
 30
0.0
 11
-24.273246
 21
660.63899600000002
 31
0.0
  0
LINE
  5
439
  8
0
 62
   150
 10
-53.900964000000002
 20
651.76380400000005
 30
0.0
 11
-48.684787
 21
648.75224300000002
 31
0.0
  0
LINE
  5
43A
  8
0
 62
   150
 10
-34.861707000000003
 20
648.75224300000002
 30
0.0
 11
-24.273246
 21
654.86549400000001
 31
0.0
  0
LINE
  5
43B
  8
0
 62
   150
 10
-24.273247999999999
 20
654.86549300000001
 30
0.0
 11
-24.273247999999999
 21
660.63899600000002
 31
0.0
  0
CIRCLE
  5
43C
  8
0
 62
   150
 10
-29.273247999999999
 20
657.75224300000002
 30
0.0
 40
2.75
  0
LINE
  5
43D
  8
0
  6
DASHDOT
 62
     7
 10
-29.273247999999999
 20
653.26246500000002
 30
0.0
 11
-29.273247999999999
 21
661.97752000000003
 31
0.0
  0
LINE
  5
43E
  8
0
  6
DASHDOT
 62
     7
 10
-396.41601000000003
 20
657.75224300000002
 30
0.0
 11
-16.668427999999992
 21
657.75224300000002
 31
0.0
  0
LINE
  5
43F
  8
0
  6
DASHDOT
 62
     7
 10
-54.273246999999991
 20
647.55534399999988
 30
0.0
 11
-54.273246999999991
 21
829.71543899999995
 31
0.0
  0
LINE
  5
440
  8
0
 62
   150
 10
-37.273247999999988
 20
667.25224300000002
 30
0.0
 11
-37.273247999999988
 21
698.25224300000002
 31
0.0
  0
LINE
  5
441
  8
0
 62
   150
 10
-42.773247999999988
 20
666.75224299999991
 30
0.0
 11
-37.773247999999988
 21
666.75224299999991
 31
0.0
  0
LINE
  5
442
  8
0
 62
   150
 10
-48.684792999999999
 20
648.75224300000002
 30
0.0
 11
-34.861707000000003
 21
648.75224300000002
 31
0.0
  0
LINE
  5
443
  8
0
 62
   150
 10
-40.023246
 20
666.75224299999991
 30
0.0
 11
-40.023246
 21
698.75224300000002
 31
0.0
  0
ARC
  5
444
  8
0
 62
   150
 10
-37.773247999999988
 20
667.25224300000002
 30
0.0
 40
0.5
 50
270.000001
 51
360.0
  0
LINE
  5
445
  8
0
 62
   150
 10
-34.773246
 20
666.70117400000004
 30
0.0
 11
-34.773246
 21
698.80331399999989
 31
0.0
  0
CIRCLE
  5
446
  8
0
 62
   150
 10
-29.273247999999999
 20
657.75224300000002
 30
0.0
 40
3.25
  0
LINE
  5
447
  8
0
 62
   150
 10
-34.773246
 20
716.70117600000003
 30
0.0
 11
-24.273246
 21
710.63899600000002
 31
0.0
  0
LINE
  5
448
  8
0
 62
   150
 10
-34.773246
 20
698.80331399999989
 30
0.0
 11
-24.273246
 21
704.86549400000001
 31
0.0
  0
LINE
  5
449
  8
0
 62
   150
 10
-24.273247999999999
 20
704.86549400000001
 30
0.0
 11
-24.273247999999999
 21
710.63899600000002
 31
0.0
  0
CIRCLE
  5
44A
  8
0
 62
   150
 10
-29.273247999999999
 20
707.75224300000002
 30
0.0
 40
2.75
  0
LINE
  5
44B
  8
0
  6
DASHDOT
 62
     7
 10
-29.273247999999999
 20
702.93240700000001
 30
0.0
 11
-29.273247999999999
 21
711.97752000000003
 31
0.0
  0
LINE
  5
44C
  8
0
  6
DASHDOT
 62
     7
 10
-34.513104999999989
 20
707.75224300000002
 30
0.0
 11
-23.355089
 21
707.75224300000002
 31
0.0
  0
LINE
  5
44D
  8
0
 62
   150
 10
-42.773247999999988
 20
698.75224300000002
 30
0.0
 11
-37.773247999999988
 21
698.75224300000002
 31
0.0
  0
CIRCLE
  5
44E
  8
0
 62
   150
 10
-29.273247999999999
 20
707.75224300000002
 30
0.0
 40
3.25
  0
LINE
  5
44F
  8
0
 62
   150
 10
-34.861702000000001
 20
766.75224299999991
 30
0.0
 11
-24.273246
 21
760.63899200000003
 31
0.0
  0
LINE
  5
450
  8
0
 62
   150
 10
-34.773246
 20
748.80331399999989
 30
0.0
 11
-24.273246
 21
754.86549400000001
 31
0.0
  0
LINE
  5
451
  8
0
 62
   150
 10
-24.273247999999999
 20
754.86549400000001
 30
0.0
 11
-24.273247999999999
 21
760.6389999999999
 31
0.0
  0
CIRCLE
  5
452
  8
0
 62
   150
 10
-29.273247999999999
 20
757.75224300000002
 30
0.0
 40
2.75
  0
LINE
  5
453
  8
0
  6
DASHDOT
 62
     7
 10
-29.273247999999999
 20
752.85521700000004
 30
0.0
 11
-29.273247999999999
 21
762.48393999999996
 31
0.0
  0
LINE
  5
454
  8
0
  6
DASHDOT
 62
     7
 10
-34.275939999999999
 20
757.75224300000002
 30
0.0
 11
-22.282202999999988
 21
757.75224300000002
 31
0.0
  0
CIRCLE
  5
455
  8
0
 62
   150
 10
-29.273247999999999
 20
757.75224300000002
 30
0.0
 40
3.25
  0
ARC
  5
456
  8
0
 62
   150
 10
-37.773247999999988
 20
698.25224300000002
 30
0.0
 40
0.5
 50
0.0
 51
90.000003000000007
  0
LINE
  5
457
  8
0
 62
   150
 10
-34.773246
 20
716.70117199999993
 30
0.0
 11
-34.773246
 21
748.80331399999989
 31
0.0
  0
LINE
  5
458
  8
0
 62
   150
 10
-42.773247999999988
 20
766.75224299999991
 30
0.0
 11
-34.861702000000001
 21
766.75224299999991
 31
0.0
  0
ARC
  5
459
  8
0
 62
   150
 10
-29.273247999999999
 20
657.75224300000002
 30
0.0
 40
5.25
 50
129.64556899999991
 51
230.35438599999989
  0
LINE
  5
45A
  8
0
 62
   150
 10
-35.531573999999992
 20
664.25224300000002
 30
0.0
 11
-32.691958999999997
 21
662.61279000000002
 31
0.0
  0
LINE
  5
45B
  8
0
 62
   150
 10
-45.273247999999988
 20
664.25224300000002
 30
0.0
 11
-35.531573999999992
 21
664.25224300000002
 31
0.0
  0
LINE
  5
45C
  8
0
 62
   150
 10
-35.531579999999991
 20
651.25224300000002
 30
0.0
 11
-32.691960999999999
 21
652.89169799999991
 31
0.0
  0
LINE
  5
45D
  8
0
 62
   150
 10
-48.014915000000002
 20
651.25224300000002
 30
0.0
 11
-35.531579999999991
 21
651.25224300000002
 31
0.0
  0
LINE
  5
45E
  8
0
 62
   150
 10
-50.799636
 20
652.86000299999989
 30
0.0
 11
-48.014915000000002
 21
651.25224300000002
 31
0.0
  0
ARC
  5
45F
  8
0
 62
   150
 10
-32.941958999999997
 20
662.17977800000006
 30
0.0
 40
0.5
 50
309.64558799999992
 51
60.000002999999992
  0
ARC
  5
460
  8
0
 62
   150
 10
-32.941960999999999
 20
653.32471099999987
 30
0.0
 40
0.5
 50
299.99999400000002
 51
50.354394999999997
  0
LINE
  5
461
  8
0
 62
   150
 10
-42.773247999999988
 20
714.25224300000002
 30
0.0
 11
-35.531573999999992
 21
714.25224300000002
 31
0.0
  0
LINE
  5
462
  8
0
 62
   150
 10
-35.531573999999992
 20
714.25224300000002
 30
0.0
 11
-32.691958999999997
 21
712.61278900000002
 31
0.0
  0
ARC
  5
463
  8
0
 62
   150
 10
-29.273247999999999
 20
707.75224300000002
 30
0.0
 40
5.25
 50
129.64556899999991
 51
230.35438599999989
  0
ARC
  5
464
  8
0
 62
   150
 10
-32.941960999999999
 20
703.32471099999987
 30
0.0
 40
0.5
 50
299.99999400000002
 51
50.354394999999997
  0
LINE
  5
465
  8
0
 62
   150
 10
-35.531579999999991
 20
701.25224300000002
 30
0.0
 11
-32.691960999999999
 21
702.89169700000002
 31
0.0
  0
LINE
  5
466
  8
0
 62
   150
 10
-42.773247999999988
 20
701.25224300000002
 30
0.0
 11
-35.531579999999991
 21
701.25224300000002
 31
0.0
  0
ARC
  5
467
  8
0
 62
   150
 10
-32.941958999999997
 20
712.17977900000005
 30
0.0
 40
0.5
 50
309.64558799999992
 51
60.000002999999992
  0
ARC
  5
468
  8
0
 62
   150
 10
-32.941958999999997
 20
762.17977900000005
 30
0.0
 40
0.5
 50
309.64558799999992
 51
60.000002999999992
  0
LINE
  5
469
  8
0
 62
   150
 10
-42.773247999999988
 20
764.25224300000002
 30
0.0
 11
-35.531573999999992
 21
764.25224300000002
 31
0.0
  0
LINE
  5
46A
  8
0
 62
   150
 10
-35.531573999999992
 20
764.25224300000002
 30
0.0
 11
-32.691958999999997
 21
762.6127929999999
 31
0.0
  0
ARC
  5
46B
  8
0
 62
   150
 10
-29.273247999999999
 20
757.75224300000002
 30
0.0
 40
5.25
 50
129.64556899999991
 51
230.35438599999989
  0
LINE
  5
46C
  8
0
 62
   150
 10
-35.531579999999991
 20
751.25224300000002
 30
0.0
 11
-32.691960999999999
 21
752.89170100000001
 31
0.0
  0
LINE
  5
46D
  8
0
 62
   150
 10
-42.773247999999988
 20
751.25224300000002
 30
0.0
 11
-35.531579999999991
 21
751.25224300000002
 31
0.0
  0
ARC
  5
46E
  8
0
 62
   150
 10
-32.941960999999999
 20
753.32470699999988
 30
0.0
 40
0.5
 50
299.99999400000002
 51
50.354394999999997
  0
LINE
  5
46F
  8
0
 62
     7
 10
-218.36907400000001
 20
785.25228099999993
 30
0.0
 11
-89.273256000000003
 21
785.25228099999993
 31
0.0
  0
LINE
  5
470
  8
0
 62
     7
 10
-316.77324800000002
 20
785.25227400000006
 30
0.0
 11
-236.023233
 21
785.25227400000006
 31
0.0
  0
LINE
  5
471
  8
0
 62
     7
 10
-116.023256
 20
680.25227199999995
 30
0.0
 11
-94.573258999999979
 21
680.25227199999995
 31
0.0
  0
LINE
  5
472
  8
0
 62
     3
 10
-316.77324800000002
 20
680.25225799999987
 30
0.0
 11
-231.023233
 21
680.25225799999987
 31
0.0
  0
LINE
  5
473
  8
0
 62
     3
 10
-236.023233
 20
785.25224300000002
 30
0.0
 11
-231.023233
 21
785.25224300000002
 31
0.0
  0
LINE
  5
474
  8
0
 62
     7
 10
-237.02323299999989
 20
681.25225799999987
 30
0.0
 11
-237.02323299999989
 21
784.25224300000002
 31
0.0
  0
LINE
  5
475
  8
0
 62
     3
 10
-126.5232479999999
 20
680.75225799999987
 30
0.0
 11
-126.5232479999999
 21
784.75224300000002
 31
0.0
  0
LINE
  5
476
  8
0
 62
     3
 10
-231.523233
 20
680.75225799999987
 30
0.0
 11
-231.523233
 21
694.25225799999998
 31
0.0
  0
LINE
  5
477
  8
0
 62
     3
 10
-231.523233
 20
705.75225799999987
 30
0.0
 11
-231.523233
 21
730.30296299999998
 31
0.0
  0
LINE
  5
478
  8
0
 62
     3
 10
-231.523233
 20
771.25224300000002
 30
0.0
 11
-231.523233
 21
784.75224300000002
 31
0.0
  0
LINE
  5
479
  8
0
 62
     7
 10
-236.023233
 20
784.25224300000002
 30
0.0
 11
-236.023233
 21
785.25224300000002
 31
0.0
  0
LINE
  5
47A
  8
0
 62
     7
 10
-237.02323299999989
 20
784.25224300000002
 30
0.0
 11
-236.023233
 21
784.25224300000002
 31
0.0
  0
LINE
  5
47B
  8
0
 62
     7
 10
-236.023233
 20
680.25225799999987
 30
0.0
 11
-236.023233
 21
681.25225799999987
 31
0.0
  0
LINE
  5
47C
  8
0
 62
     7
 10
-237.02323299999989
 20
681.25225799999987
 30
0.0
 11
-236.023233
 21
681.25225799999987
 31
0.0
  0
LINE
  5
47D
  8
0
 62
     7
 10
-236.023233
 20
681.25225799999987
 30
0.0
 11
-236.023233
 21
784.25224300000002
 31
0.0
  0
LINE
  5
47E
  8
0
 62
     3
 10
-231.523233
 20
759.75224300000002
 30
0.0
 11
-231.523233
 21
771.25224300000002
 31
0.0
  0
LINE
  5
47F
  8
0
 62
     3
 10
-231.523233
 20
694.25225799999998
 30
0.0
 11
-231.523233
 21
705.75225799999987
 31
0.0
  0
LINE
  5
480
  8
0
  6
DASHDOT
 62
     7
 10
-378.79641099999992
 20
732.75224300000002
 30
0.0
 11
-21.523186999999989
 21
732.75224300000002
 31
0.0
  0
ARC
  5
481
  8
0
 62
     3
 10
-231.023233
 20
784.75224300000002
 30
0.0
 40
0.5
 50
90.000003000000007
 51
180.00000499999999
  0
ARC
  5
482
  8
0
 62
     3
 10
-127.0232479999999
 20
784.75224300000002
 30
0.0
 40
0.5
 50
0.0
 51
90.000003000000007
  0
ARC
  5
483
  8
0
 62
     3
 10
-127.0232479999999
 20
680.75225799999987
 30
0.0
 40
0.5
 50
270.000001
 51
360.0
  0
ARC
  5
484
  8
0
 62
     3
 10
-231.023233
 20
680.75225799999987
 30
0.0
 40
0.5
 50
180.00000499999999
 51
270.000001
  0
ARC
  5
485
  8
0
 62
     7
 10
-232.77303499999999
 20
732.75232699999992
 30
0.0
 40
2.7497989999999999
 50
62.967153000000003
 51
297.03285199999988
  0
LINE
  5
486
  8
0
 62
     3
 10
-231.523233
 20
735.20169099999987
 30
0.0
 11
-231.523233
 21
759.75224300000002
 31
0.0
  0
LINE
  5
487
  8
0
  6
DASHDOT
 62
     7
 10
-232.77303499999999
 20
728.73838000000001
 30
0.0
 11
-232.77303499999999
 21
736.39405799999986
 31
0.0
  0
LINE
  5
488
  8
0
 62
     7
 10
-231.523248
 20
760.25225799999987
 30
0.0
 11
-231.523248
 21
770.25224300000002
 31
0.0
  0
LINE
  5
489
  8
0
 62
     7
 10
-231.523248
 20
695.25227400000006
 30
0.0
 11
-231.523248
 21
705.25227400000006
 31
0.0
  0
LINE
  5
48A
  8
0
 62
     7
 10
-231.02324799999991
 20
680.25224300000002
 30
0.0
 11
-162.11753200000001
 21
680.25224300000002
 31
0.0
  0
LINE
  5
48B
  8
0
 62
     7
 10
-231.02324799999991
 20
785.25224300000002
 30
0.0
 11
-213.02326400000001
 21
785.25224300000002
 31
0.0
  0
LINE
  5
48C
  8
0
 62
     7
 10
-126.5232479999999
 20
680.75224300000002
 30
0.0
 11
-126.5232479999999
 21
784.75224300000002
 31
0.0
  0
LINE
  5
48D
  8
0
 62
     7
 10
-231.523248
 20
770.25224300000002
 30
0.0
 11
-231.523248
 21
784.75224300000002
 31
0.0
  0
LINE
  5
48E
  8
0
 62
     7
 10
-231.523248
 20
705.25227400000006
 30
0.0
 11
-231.523248
 21
760.25225799999987
 31
0.0
  0
LINE
  5
48F
  8
0
 62
     7
 10
-231.523248
 20
680.75224300000002
 30
0.0
 11
-231.523248
 21
695.25227400000006
 31
0.0
  0
LINE
  5
490
  8
0
 62
     7
 10
-209.2732639999999
 20
722.00224300000002
 30
0.0
 11
-169.27327899999989
 21
722.00224300000002
 31
0.0
  0
LINE
  5
491
  8
0
 62
     7
 10
-209.2732639999999
 20
743.50224300000002
 30
0.0
 11
-169.27327899999989
 21
743.50224300000002
 31
0.0
  0
LINE
  5
492
  8
0
 62
     7
 10
-138.523279
 20
680.25224300000002
 30
0.0
 11
-138.523279
 21
785.25224300000002
 31
0.0
  0
LINE
  5
493
  8
0
 62
     7
 10
-128.523279
 20
680.25224300000002
 30
0.0
 11
-128.523279
 21
785.25224300000002
 31
0.0
  0
LINE
  5
494
  8
0
 62
     7
 10
-169.537744
 20
722.00224300000002
 30
0.0
 11
-169.537744
 21
743.50224300000002
 31
0.0
  0
LINE
  5
495
  8
0
 62
     7
 10
-169.27327899999989
 20
722.00224300000002
 30
0.0
 11
-169.27327899999989
 21
743.50224300000002
 31
0.0
  0
LINE
  5
496
  8
0
 62
     7
 10
-209.2732639999999
 20
722.00224300000002
 30
0.0
 11
-209.2732639999999
 21
743.50224300000002
 31
0.0
  0
LINE
  5
497
  8
0
 62
     7
 10
-209.00876799999989
 20
722.00224300000002
 30
0.0
 11
-209.00876799999989
 21
743.50224300000002
 31
0.0
  0
LINE
  5
498
  8
0
 62
     7
 10
-212.02326400000001
 20
680.25225799999987
 30
0.0
 11
-200.023279
 21
680.25225799999987
 31
0.0
  0
LINE
  5
499
  8
0
 62
     7
 10
-165.5232639999999
 20
680.25225799999987
 30
0.0
 11
-90.523256000000003
 21
680.25225799999987
 31
0.0
  0
LINE
  5
49A
  8
0
 62
     7
 10
-199.023279
 20
680.25225799999987
 30
0.0
 11
-179.5232639999999
 21
680.25225799999987
 31
0.0
  0
LINE
  5
49B
  8
0
 62
     7
 10
-178.5232639999999
 20
680.25225799999987
 30
0.0
 11
-166.5232639999999
 21
680.25225799999987
 31
0.0
  0
LINE
  5
49C
  8
0
 62
     7
 10
-212.02326400000001
 20
785.25224300000002
 30
0.0
 11
-200.0232639999999
 21
785.25224300000002
 31
0.0
  0
LINE
  5
49D
  8
0
 62
     7
 10
-199.0232639999999
 20
785.25224300000002
 30
0.0
 11
-179.5232639999999
 21
785.25224300000002
 31
0.0
  0
LINE
  5
49E
  8
0
 62
     7
 10
-178.5232639999999
 20
785.25224300000002
 30
0.0
 11
-166.5232639999999
 21
785.25224300000002
 31
0.0
  0
ARC
  5
49F
  8
0
 62
     7
 10
-231.02324799999991
 20
784.75224300000002
 30
0.0
 40
0.5
 50
90.000003000000007
 51
180.00000499999999
  0
ARC
  5
4A0
  8
0
 62
     7
 10
-231.02324799999991
 20
680.75224300000002
 30
0.0
 40
0.5
 50
180.00000499999999
 51
270.000001
  0
ARC
  5
4A1
  8
0
 62
     7
 10
-127.0232479999999
 20
680.75224300000002
 30
0.0
 40
0.5
 50
270.000001
 51
360.0
  0
ARC
  5
4A2
  8
0
 62
     7
 10
-127.0232479999999
 20
784.75224300000002
 30
0.0
 40
0.5
 50
0.0
 51
90.000003000000007
  0
LINE
  5
4A3
  8
0
 62
     7
 10
-168.0232639999999
 20
755.25224300000002
 30
0.0
 11
-168.0232639999999
 21
756.75224300000002
 31
0.0
  0
LINE
  5
4A4
  8
0
 62
     7
 10
-177.0232639999999
 20
755.25224300000002
 30
0.0
 11
-177.0232639999999
 21
756.75224300000002
 31
0.0
  0
CIRCLE
  5
4A5
  8
0
 62
     7
 10
-206.0232639999999
 20
756.00224300000002
 30
0.0
 40
4.5
  0
CIRCLE
  5
4A6
  8
0
 62
     7
 10
-206.0232639999999
 20
756.00224300000002
 30
0.0
 40
3.0
  0
LINE
  5
4A7
  8
0
 62
     7
 10
-177.0232639999999
 20
756.75224300000002
 30
0.0
 11
-168.0232639999999
 21
756.75224300000002
 31
0.0
  0
LINE
  5
4A8
  8
0
 62
     7
 10
-177.0232639999999
 20
755.25224300000002
 30
0.0
 11
-168.0232639999999
 21
755.25224300000002
 31
0.0
  0
LINE
  5
4A9
  8
0
 62
     7
 10
-202.17325700000001
 20
707.20225099999993
 30
0.0
 11
-202.17325700000001
 21
707.65225199999998
 31
0.0
  0
LINE
  5
4AA
  8
0
 62
     7
 10
-209.87326999999999
 20
708.15225199999998
 30
0.0
 11
-209.87326999999999
 21
708.95225099999993
 31
0.0
  0
LINE
  5
4AB
  8
0
 62
     7
 10
-207.2732639999999
 20
715.35225300000002
 30
0.0
 11
-206.77326400000001
 21
715.35225300000002
 31
0.0
  0
LINE
  5
4AC
  8
0
 62
     7
 10
-207.2732639999999
 20
710.15225199999986
 30
0.0
 11
-206.77326400000001
 21
710.15225199999986
 31
0.0
  0
ARC
  5
4AD
  8
0
 62
     7
 10
-206.77326400000001
 20
712.75225399999999
 30
0.0
 40
2.6000000000000001
 50
270.000001
 51
90.000003000000007
  0
ARC
  5
4AE
  8
0
 62
     7
 10
-207.2732639999999
 20
712.75225399999999
 30
0.0
 40
2.6000000000000001
 50
90.000003000000007
 51
270.000001
  0
ARC
  5
4AF
  8
0
 62
     7
 10
-206.77326400000001
 20
712.75225399999999
 30
0.0
 40
1.8
 50
270.000001
 51
90.000003000000007
  0
ARC
  5
4B0
  8
0
 62
     7
 10
-207.2732639999999
 20
712.75225399999999
 30
0.0
 40
1.8
 50
90.000003000000007
 51
270.000001
  0
LINE
  5
4B1
  8
0
 62
     7
 10
-207.2732639999999
 20
714.55225399999995
 30
0.0
 11
-206.77326400000001
 21
714.55225399999995
 31
0.0
  0
LINE
  5
4B2
  8
0
 62
     7
 10
-207.2732639999999
 20
710.95225099999993
 30
0.0
 11
-206.77326400000001
 21
710.95225099999993
 31
0.0
  0
LINE
  5
4B3
  8
0
 62
     7
 10
-205.37326999999991
 20
709.90225199999998
 30
0.0
 11
-204.57326699999999
 21
709.90225199999998
 31
0.0
  0
LINE
  5
4B4
  8
0
 62
     7
 10
-205.37326999999991
 20
708.95225099999993
 30
0.0
 11
-205.37326999999991
 21
709.90225199999998
 31
0.0
  0
LINE
  5
4B5
  8
0
 62
     7
 10
-205.37326999999991
 20
707.20225099999993
 30
0.0
 11
-204.57326699999999
 21
707.20225099999993
 31
0.0
  0
LINE
  5
4B6
  8
0
 62
     7
 10
-204.57326699999999
 20
708.95225099999993
 30
0.0
 11
-204.57326699999999
 21
709.90225199999998
 31
0.0
  0
LINE
  5
4B7
  8
0
 62
     7
 10
-209.87326999999999
 20
708.95225099999993
 30
0.0
 11
-205.37326999999991
 21
708.95225099999993
 31
0.0
  0
LINE
  5
4B8
  8
0
 62
     7
 10
-209.87326999999999
 20
708.15225199999998
 30
0.0
 11
-205.37326999999991
 21
708.15225199999998
 31
0.0
  0
LINE
  5
4B9
  8
0
 62
     7
 10
-205.37326999999991
 20
707.20225099999993
 30
0.0
 11
-205.37326999999991
 21
708.15225199999998
 31
0.0
  0
LINE
  5
4BA
  8
0
 62
     7
 10
-204.57326699999999
 20
707.20225099999993
 30
0.0
 11
-204.57326699999999
 21
708.15225199999998
 31
0.0
  0
LINE
  5
4BB
  8
0
 62
     7
 10
-204.57326699999999
 20
708.95225099999993
 30
0.0
 11
-203.47326100000001
 21
708.95225099999993
 31
0.0
  0
LINE
  5
4BC
  8
0
 62
     7
 10
-204.57326699999999
 20
708.15225199999998
 30
0.0
 11
-203.47326100000001
 21
708.15225199999998
 31
0.0
  0
ARC
  5
4BD
  8
0
 62
     7
 10
-203.47326100000001
 20
707.65225199999998
 30
0.0
 40
1.3
 50
0.00001
 51
90.000003000000007
  0
ARC
  5
4BE
  8
0
 62
     7
 10
-203.47326100000001
 20
707.65225199999998
 30
0.0
 40
0.5
 50
0.0
 51
90.000003000000007
  0
LINE
  5
4BF
  8
0
 62
     7
 10
-202.97326099999989
 20
707.20225099999993
 30
0.0
 11
-202.17325700000001
 21
707.20225099999993
 31
0.0
  0
LINE
  5
4C0
  8
0
 62
     7
 10
-202.97326099999989
 20
707.20225099999993
 30
0.0
 11
-202.97326099999989
 21
707.65225199999998
 31
0.0
  0
LINE
  5
4C1
  8
0
 62
     7
 10
-202.17325700000001
 20
704.00225399999988
 30
0.0
 11
-202.17325700000001
 21
704.45225099999993
 31
0.0
  0
LINE
  5
4C2
  8
0
 62
     7
 10
-209.87326999999999
 20
704.95225099999993
 30
0.0
 11
-209.87326999999999
 21
705.75225399999988
 31
0.0
  0
LINE
  5
4C3
  8
0
 62
     7
 10
-205.37326999999991
 20
706.70225099999993
 30
0.0
 11
-204.57326699999999
 21
706.70225099999993
 31
0.0
  0
LINE
  5
4C4
  8
0
 62
     7
 10
-205.37326999999991
 20
705.75225399999988
 30
0.0
 11
-205.37326999999991
 21
706.70225099999993
 31
0.0
  0
LINE
  5
4C5
  8
0
 62
     7
 10
-205.37326999999991
 20
704.00225399999988
 30
0.0
 11
-204.57326699999999
 21
704.00225399999988
 31
0.0
  0
LINE
  5
4C6
  8
0
 62
     7
 10
-204.57326699999999
 20
705.75225399999988
 30
0.0
 11
-204.57326699999999
 21
706.70225099999993
 31
0.0
  0
LINE
  5
4C7
  8
0
 62
     7
 10
-209.87326999999999
 20
705.75225399999988
 30
0.0
 11
-205.37326999999991
 21
705.75225399999988
 31
0.0
  0
LINE
  5
4C8
  8
0
 62
     7
 10
-209.87326999999999
 20
704.95225099999993
 30
0.0
 11
-205.37326999999991
 21
704.95225099999993
 31
0.0
  0
LINE
  5
4C9
  8
0
 62
     7
 10
-205.37326999999991
 20
704.00225399999988
 30
0.0
 11
-205.37326999999991
 21
704.95225099999993
 31
0.0
  0
LINE
  5
4CA
  8
0
 62
     7
 10
-204.57326699999999
 20
704.00225399999988
 30
0.0
 11
-204.57326699999999
 21
704.95225099999993
 31
0.0
  0
LINE
  5
4CB
  8
0
 62
     7
 10
-204.57326699999999
 20
705.75225399999988
 30
0.0
 11
-203.47326100000001
 21
705.75225399999988
 31
0.0
  0
LINE
  5
4CC
  8
0
 62
     7
 10
-204.57326699999999
 20
704.95225099999993
 30
0.0
 11
-203.47326100000001
 21
704.95225099999993
 31
0.0
  0
ARC
  5
4CD
  8
0
 62
     7
 10
-203.47326100000001
 20
704.45225099999993
 30
0.0
 40
1.3
 50
0.00001
 51
90.000003000000007
  0
ARC
  5
4CE
  8
0
 62
     7
 10
-203.47326100000001
 20
704.45225099999993
 30
0.0
 40
0.5
 50
0.0
 51
90.000003000000007
  0
LINE
  5
4CF
  8
0
 62
     7
 10
-202.97326099999989
 20
704.00225399999988
 30
0.0
 11
-202.17325700000001
 21
704.00225399999988
 31
0.0
  0
LINE
  5
4D0
  8
0
 62
     7
 10
-202.97326099999989
 20
704.00225399999988
 30
0.0
 11
-202.97326099999989
 21
704.45225099999993
 31
0.0
  0
LINE
  5
4D1
  8
0
 62
     7
 10
-175.37326200000001
 20
708.55225399999995
 30
0.0
 11
-175.37326200000001
 21
709.35225300000002
 31
0.0
  0
ARC
  5
4D2
  8
0
 62
     7
 10
-172.2732639999999
 20
712.75225399999999
 30
0.0
 40
2.6000000000000001
 50
270.000001
 51
90.000003000000007
  0
ARC
  5
4D3
  8
0
 62
     7
 10
-172.2732639999999
 20
712.75225399999999
 30
0.0
 40
1.8
 50
270.000001
 51
90.000003000000007
  0
ARC
  5
4D4
  8
0
 62
     7
 10
-172.7732639999999
 20
712.75225399999999
 30
0.0
 40
2.6000000000000001
 50
90.000003000000007
 51
270.000001
  0
ARC
  5
4D5
  8
0
 62
     7
 10
-172.7732639999999
 20
712.75225399999999
 30
0.0
 40
1.8
 50
90.000003000000007
 51
270.000001
  0
LINE
  5
4D6
  8
0
 62
     7
 10
-172.7732639999999
 20
710.95225099999993
 30
0.0
 11
-172.2732639999999
 21
710.95225099999993
 31
0.0
  0
LINE
  5
4D7
  8
0
 62
     7
 10
-172.7732639999999
 20
710.15225199999986
 30
0.0
 11
-172.2732639999999
 21
710.15225199999986
 31
0.0
  0
LINE
  5
4D8
  8
0
 62
     7
 10
-172.7732639999999
 20
714.55225399999995
 30
0.0
 11
-172.2732639999999
 21
714.55225399999995
 31
0.0
  0
LINE
  5
4D9
  8
0
 62
     7
 10
-172.7732639999999
 20
715.35225300000002
 30
0.0
 11
-172.2732639999999
 21
715.35225300000002
 31
0.0
  0
LINE
  5
4DA
  8
0
 62
     7
 10
-175.37326200000001
 20
709.35225300000002
 30
0.0
 11
-169.6732649999999
 21
709.35225300000002
 31
0.0
  0
LINE
  5
4DB
  8
0
 62
     7
 10
-175.37326200000001
 20
708.55225399999995
 30
0.0
 11
-171.87326200000001
 21
708.55225399999995
 31
0.0
  0
LINE
  5
4DC
  8
0
 62
     7
 10
-175.37326200000001
 20
705.75225399999988
 30
0.0
 11
-171.87326200000001
 21
705.75225399999988
 31
0.0
  0
LINE
  5
4DD
  8
0
 62
     7
 10
-175.37326200000001
 20
704.95225099999993
 30
0.0
 11
-171.6732649999999
 21
704.95225099999993
 31
0.0
  0
LINE
  5
4DE
  8
0
 62
     7
 10
-169.6732649999999
 20
708.55225399999995
 30
0.0
 11
-169.6732649999999
 21
709.35225300000002
 31
0.0
  0
ARC
  5
4DF
  8
0
 62
     7
 10
-171.87326200000001
 20
707.15225199999998
 30
0.0
 40
1.399999999999999
 50
270.000001
 51
90.000003000000007
  0
LINE
  5
4E0
  8
0
 62
     7
 10
-170.47326100000001
 20
708.55225399999995
 30
0.0
 11
-169.6732649999999
 21
708.55225399999995
 31
0.0
  0
ARC
  5
4E1
  8
0
 62
     7
 10
-171.6732649999999
 20
706.95225099999993
 30
0.0
 40
2.0
 50
270.000001
 51
53.130102000000001
  0
LINE
  5
4E2
  8
0
 62
     7
 10
-175.37326200000001
 20
704.95225099999993
 30
0.0
 11
-175.37326200000001
 21
705.75225399999988
 31
0.0
  0
LINE
  5
4E3
  8
0
 62
     7
 10
-195.147943
 20
722.00224300000002
 30
0.0
 11
-195.147943
 21
743.50224300000002
 31
0.0
  0
LINE
  5
4E4
  8
0
 62
     7
 10
-201.26441299999991
 20
722.00224300000002
 30
0.0
 11
-201.26441299999991
 21
743.50224300000002
 31
0.0
  0
LINE
  5
4E5
  8
0
 62
     7
 10
-207.21222800000001
 20
722.00224300000002
 30
0.0
 11
-207.21222800000001
 21
743.50224300000002
 31
0.0
  0
LINE
  5
4E6
  8
0
 62
     7
 10
-208.01497800000001
 20
722.00224300000002
 30
0.0
 11
-208.01497800000001
 21
743.50224300000002
 31
0.0
  0
LINE
  5
4E7
  8
0
 62
     3
 10
-115.7732449999999
 20
680.25225799999987
 30
0.0
 11
-115.7732449999999
 21
785.25228099999993
 31
0.0
  0
LINE
  5
4E8
  8
0
 62
     3
 10
-89.273256000000003
 20
681.50225999999986
 30
0.0
 11
-89.273256000000003
 21
785.25228099999993
 31
0.0
  0
LINE
  5
4E9
  8
0
 62
     3
 10
-89.639368000000005
 20
680.61837600000001
 30
0.0
 11
-89.273247999999995
 21
681.50225599999999
 31
0.0
  0
LINE
  5
4EA
  8
0
 62
     3
 10
-90.523244999999989
 20
680.25225799999987
 30
0.0
 11
-89.639363999999986
 21
680.61837800000001
 31
0.0
  0
LINE
  5
4EB
  8
0
 62
     3
 10
-114.7732409999999
 20
682.602259
 30
0.0
 11
-89.583910000000003
 21
682.602259
 31
0.0
  0
LINE
  5
4EC
  8
0
 62
     3
 10
-114.773256
 20
686.20225700000003
 30
0.0
 11
-89.583910000000003
 21
686.20225700000003
 31
0.0
  0
LINE
  5
4ED
  8
0
 62
     3
 10
-114.773256
 20
689.80225800000005
 30
0.0
 11
-89.583910000000003
 21
689.80225800000005
 31
0.0
  0
LINE
  5
4EE
  8
0
 62
     3
 10
-114.773256
 20
693.40225599999985
 30
0.0
 11
-89.583910000000003
 21
693.40225599999985
 31
0.0
  0
LINE
  5
4EF
  8
0
 62
     3
 10
-114.773256
 20
697.00226199999986
 30
0.0
 11
-89.583910000000003
 21
697.00226199999986
 31
0.0
  0
LINE
  5
4F0
  8
0
 62
     3
 10
-114.773256
 20
700.602261
 30
0.0
 11
-89.583910000000003
 21
700.602261
 31
0.0
  0
LINE
  5
4F1
  8
0
 62
     3
 10
-114.773256
 20
704.20225900000003
 30
0.0
 11
-89.583910000000003
 21
704.20225900000003
 31
0.0
  0
LINE
  5
4F2
  8
0
 62
     3
 10
-114.773256
 20
707.80225800000005
 30
0.0
 11
-89.583910000000003
 21
707.80225800000005
 31
0.0
  0
LINE
  5
4F3
  8
0
 62
     3
 10
-114.773256
 20
711.40225599999985
 30
0.0
 11
-89.583910000000003
 21
711.40225599999985
 31
0.0
  0
LINE
  5
4F4
  8
0
 62
     3
 10
-114.773256
 20
715.00226199999986
 30
0.0
 11
-89.583910000000003
 21
715.00226199999986
 31
0.0
  0
LINE
  5
4F5
  8
0
 62
     3
 10
-114.773256
 20
718.602261
 30
0.0
 11
-89.583910000000003
 21
718.602261
 31
0.0
  0
LINE
  5
4F6
  8
0
 62
     3
 10
-114.773256
 20
722.20225500000004
 30
0.0
 11
-89.583910000000003
 21
722.20225500000004
 31
0.0
  0
LINE
  5
4F7
  8
0
 62
     3
 10
-114.773256
 20
725.80225399999995
 30
0.0
 11
-89.583910000000003
 21
725.80225399999995
 31
0.0
  0
LINE
  5
4F8
  8
0
 62
     3
 10
-114.773256
 20
729.40225999999996
 30
0.0
 11
-89.583910000000003
 21
729.40225999999996
 31
0.0
  0
LINE
  5
4F9
  8
0
 62
     3
 10
-114.773256
 20
733.00225799999987
 30
0.0
 11
-89.583910000000003
 21
733.00225799999987
 31
0.0
  0
LINE
  5
4FA
  8
0
 62
     3
 10
-114.773256
 20
736.60225700000001
 30
0.0
 11
-89.583910000000003
 21
736.60225700000001
 31
0.0
  0
LINE
  5
4FB
  8
0
 62
     3
 10
-114.773256
 20
740.20225500000004
 30
0.0
 11
-89.583910000000003
 21
740.20225500000004
 31
0.0
  0
LINE
  5
4FC
  8
0
 62
     3
 10
-114.773256
 20
743.80225399999995
 30
0.0
 11
-89.583910000000003
 21
743.80225399999995
 31
0.0
  0
LINE
  5
4FD
  8
0
 62
     3
 10
-114.773256
 20
747.40225999999996
 30
0.0
 11
-89.273256000000003
 21
747.40225999999996
 31
0.0
  0
LINE
  5
4FE
  8
0
 62
     3
 10
-114.773256
 20
751.00225799999998
 30
0.0
 11
-89.273256000000003
 21
751.00225799999998
 31
0.0
  0
LINE
  5
4FF
  8
0
 62
     3
 10
-114.773256
 20
754.6022569999999
 30
0.0
 11
-89.273256000000003
 21
754.6022569999999
 31
0.0
  0
LINE
  5
500
  8
0
 62
     3
 10
-114.773256
 20
758.20225500000004
 30
0.0
 11
-89.273256000000003
 21
758.20225500000004
 31
0.0
  0
LINE
  5
501
  8
0
 62
     3
 10
-114.7732449999999
 20
681.25224500000002
 30
0.0
 11
-114.7732449999999
 21
785.25228099999993
 31
0.0
  0
LINE
  5
502
  8
0
 62
     3
 10
-237.77326400000001
 20
681.25224500000002
 30
0.0
 11
-237.77326400000001
 21
785.25227400000006
 31
0.0
  0
LINE
  5
503
  8
0
 62
     3
 10
-316.77324800000002
 20
682.602259
 30
0.0
 11
-238.77326400000001
 21
682.602259
 31
0.0
  0
LINE
  5
504
  8
0
 62
     3
 10
-316.77324800000002
 20
686.20225700000003
 30
0.0
 11
-238.77324799999991
 21
686.20225700000003
 31
0.0
  0
LINE
  5
505
  8
0
 62
     3
 10
-316.77324800000002
 20
689.80225800000005
 30
0.0
 11
-238.77324799999991
 21
689.80225800000005
 31
0.0
  0
LINE
  5
506
  8
0
 62
     3
 10
-316.77324800000002
 20
693.40225599999985
 30
0.0
 11
-238.77324799999991
 21
693.40225599999985
 31
0.0
  0
LINE
  5
507
  8
0
 62
     3
 10
-316.77324800000002
 20
697.00226199999986
 30
0.0
 11
-238.77324799999991
 21
697.00226199999986
 31
0.0
  0
LINE
  5
508
  8
0
 62
     3
 10
-316.77324800000002
 20
700.602261
 30
0.0
 11
-238.77324799999991
 21
700.602261
 31
0.0
  0
LINE
  5
509
  8
0
 62
     3
 10
-316.77324800000002
 20
704.20225900000003
 30
0.0
 11
-238.77324799999991
 21
704.20225900000003
 31
0.0
  0
LINE
  5
50A
  8
0
 62
     3
 10
-316.77324800000002
 20
707.80225800000005
 30
0.0
 11
-238.77324799999991
 21
707.80225800000005
 31
0.0
  0
LINE
  5
50B
  8
0
 62
     3
 10
-316.77324800000002
 20
711.40225599999985
 30
0.0
 11
-238.77324799999991
 21
711.40225599999985
 31
0.0
  0
LINE
  5
50C
  8
0
 62
     3
 10
-316.77324800000002
 20
715.00226199999986
 30
0.0
 11
-238.77324799999991
 21
715.00226199999986
 31
0.0
  0
LINE
  5
50D
  8
0
 62
     3
 10
-316.77324800000002
 20
718.602261
 30
0.0
 11
-238.77324799999991
 21
718.602261
 31
0.0
  0
LINE
  5
50E
  8
0
 62
     3
 10
-316.77324800000002
 20
722.20225500000004
 30
0.0
 11
-238.77324799999991
 21
722.20225500000004
 31
0.0
  0
LINE
  5
50F
  8
0
 62
     3
 10
-316.77324800000002
 20
725.80225399999995
 30
0.0
 11
-238.77324799999991
 21
725.80225399999995
 31
0.0
  0
LINE
  5
510
  8
0
 62
     3
 10
-316.77324800000002
 20
729.40225999999996
 30
0.0
 11
-238.77324799999991
 21
729.40225999999996
 31
0.0
  0
LINE
  5
511
  8
0
 62
     3
 10
-316.77324800000002
 20
733.00225799999987
 30
0.0
 11
-238.77324799999991
 21
733.00225799999987
 31
0.0
  0
LINE
  5
512
  8
0
 62
     3
 10
-316.77324800000002
 20
736.60225700000001
 30
0.0
 11
-238.77324799999991
 21
736.60225700000001
 31
0.0
  0
LINE
  5
513
  8
0
 62
     3
 10
-316.77324800000002
 20
740.20225500000004
 30
0.0
 11
-238.77324799999991
 21
740.20225500000004
 31
0.0
  0
LINE
  5
514
  8
0
 62
     3
 10
-316.77324800000002
 20
743.80225399999995
 30
0.0
 11
-238.77324799999991
 21
743.80225399999995
 31
0.0
  0
LINE
  5
515
  8
0
 62
     3
 10
-316.77324800000002
 20
747.40225999999996
 30
0.0
 11
-238.77324799999991
 21
747.40225999999996
 31
0.0
  0
LINE
  5
516
  8
0
 62
     3
 10
-316.77324800000002
 20
751.00225799999998
 30
0.0
 11
-238.77324799999991
 21
751.00225799999998
 31
0.0
  0
LINE
  5
517
  8
0
 62
     3
 10
-316.77324800000002
 20
754.6022569999999
 30
0.0
 11
-238.77324799999991
 21
754.6022569999999
 31
0.0
  0
LINE
  5
518
  8
0
 62
     3
 10
-316.77324800000002
 20
758.20225500000004
 30
0.0
 11
-238.77324799999991
 21
758.20225500000004
 31
0.0
  0
LINE
  5
519
  8
0
 62
     3
 10
-238.77326400000001
 20
681.25224500000002
 30
0.0
 11
-238.77326400000001
 21
785.25227400000006
 31
0.0
  0
LINE
  5
51A
  8
0
 62
     3
 10
-316.77324800000002
 20
761.80226100000004
 30
0.0
 11
-238.77324799999991
 21
761.80226100000004
 31
0.0
  0
LINE
  5
51B
  8
0
 62
     3
 10
-316.77324800000002
 20
765.40225999999996
 30
0.0
 11
-238.77324799999991
 21
765.40225999999996
 31
0.0
  0
LINE
  5
51C
  8
0
 62
     3
 10
-316.77324800000002
 20
769.00225799999987
 30
0.0
 11
-238.77324799999991
 21
769.00225799999987
 31
0.0
  0
LINE
  5
51D
  8
0
 62
     3
 10
-316.77324800000002
 20
772.60225700000001
 30
0.0
 11
-238.77324799999991
 21
772.60225700000001
 31
0.0
  0
LINE
  5
51E
  8
0
 62
     3
 10
-316.77324800000002
 20
776.20225500000004
 30
0.0
 11
-238.77324799999991
 21
776.20225500000004
 31
0.0
  0
LINE
  5
51F
  8
0
 62
     3
 10
-316.77324800000002
 20
779.80226100000004
 30
0.0
 11
-238.77324799999991
 21
779.80226100000004
 31
0.0
  0
LINE
  5
520
  8
0
 62
     3
 10
-316.77324800000002
 20
783.40225999999996
 30
0.0
 11
-238.77324799999991
 21
783.40225999999996
 31
0.0
  0
LINE
  5
521
  8
0
 62
     3
 10
-114.773256
 20
761.80226100000004
 30
0.0
 11
-89.273256000000003
 21
761.80226100000004
 31
0.0
  0
LINE
  5
522
  8
0
 62
     3
 10
-114.773256
 20
765.40225999999996
 30
0.0
 11
-89.273256000000003
 21
765.40225999999996
 31
0.0
  0
LINE
  5
523
  8
0
 62
     3
 10
-114.773256
 20
769.00225799999987
 30
0.0
 11
-89.273256000000003
 21
769.00225799999987
 31
0.0
  0
LINE
  5
524
  8
0
 62
     3
 10
-114.773256
 20
772.60225700000001
 30
0.0
 11
-89.273256000000003
 21
772.60225700000001
 31
0.0
  0
LINE
  5
525
  8
0
 62
     3
 10
-114.773256
 20
776.20225500000004
 30
0.0
 11
-89.273256000000003
 21
776.20225500000004
 31
0.0
  0
LINE
  5
526
  8
0
 62
     3
 10
-114.773256
 20
779.80226100000004
 30
0.0
 11
-89.273256000000003
 21
779.80226100000004
 31
0.0
  0
LINE
  5
527
  8
0
 62
     3
 10
-114.773256
 20
783.40225999999996
 30
0.0
 11
-89.273256000000003
 21
783.40225999999996
 31
0.0
  0
LINE
  5
528
  8
0
 62
   150
 10
-37.273247999999988
 20
716.75224299999991
 30
0.0
 11
-37.273247999999988
 21
748.75224300000002
 31
0.0
  0
LINE
  5
529
  8
0
 62
   150
 10
-40.023246
 20
716.75224299999991
 30
0.0
 11
-40.023246
 21
748.75224300000002
 31
0.0
  0
LINE
  5
52A
  8
0
 62
   150
 10
-42.773247999999988
 20
716.75224299999991
 30
0.0
 11
-37.273247999999988
 21
716.75224299999991
 31
0.0
  0
LINE
  5
52B
  8
0
 62
   150
 10
-42.773247999999988
 20
748.75224300000002
 30
0.0
 11
-37.273247999999988
 21
748.75224300000002
 31
0.0
  0
LINE
  5
52C
  8
0
 62
   150
 10
-43.523246
 20
727.25224300000002
 30
0.0
 11
-43.523246
 21
742.75224300000002
 31
0.0
  0
LINE
  5
52D
  8
0
 62
   150
 10
-46.273246
 20
727.25224300000002
 30
0.0
 11
-46.273246
 21
742.75224300000002
 31
0.0
  0
LINE
  5
52E
  8
0
 62
     7
 10
-42.773247999999988
 20
742.75224300000002
 30
0.0
 11
-42.773247999999988
 21
800.75224299999991
 31
0.0
  0
ARC
  5
52F
  8
0
 62
     1
 10
-41.773246
 20
757.75224300000002
 30
0.0
 40
5.0
 50
258.46301899999992
 51
101.536978
  0
LINE
  5
530
  8
0
 62
     1
 10
-41.123246999999999
 20
758.40224499999988
 30
0.0
 11
-39.123246999999999
 21
758.40224499999988
 31
0.0
  0
LINE
  5
531
  8
0
 62
     1
 10
-41.123246999999999
 20
757.10224200000005
 30
0.0
 11
-39.123246999999999
 21
757.10224200000005
 31
0.0
  0
LINE
  5
532
  8
0
 62
     1
 10
-39.123246999999999
 20
757.10224200000005
 30
0.0
 11
-39.123246999999999
 21
758.40224499999988
 31
0.0
  0
LINE
  5
533
  8
0
 62
     1
 10
-41.123246999999999
 20
758.40224499999988
 30
0.0
 11
-41.123246999999999
 21
760.40224499999999
 31
0.0
  0
LINE
  5
534
  8
0
 62
     1
 10
-42.423247000000003
 20
760.40224499999999
 30
0.0
 11
-41.123246999999999
 21
760.40224499999999
 31
0.0
  0
LINE
  5
535
  8
0
 62
     1
 10
-42.423247000000003
 20
755.10224200000005
 30
0.0
 11
-41.123246999999999
 21
755.10224200000005
 31
0.0
  0
LINE
  5
536
  8
0
 62
     1
 10
-41.123246999999999
 20
755.10224200000005
 30
0.0
 11
-41.123246999999999
 21
757.10224200000005
 31
0.0
  0
LINE
  5
537
  8
0
 62
     7
 10
-354.77324800000002
 20
664.75224300000002
 30
0.0
 11
-354.77324800000002
 21
667.25224300000002
 31
0.0
  0
LINE
  5
538
  8
0
 62
     7
 10
-354.77324800000002
 20
689.25224300000002
 30
0.0
 11
-354.77324800000002
 21
691.75224299999991
 31
0.0
  0
LINE
  5
539
  8
0
 62
     7
 10
-354.77324800000002
 20
713.50224300000002
 30
0.0
 11
-354.77324800000002
 21
716.00224300000002
 31
0.0
  0
LINE
  5
53A
  8
0
 62
     7
 10
-354.77324800000002
 20
737.75224299999991
 30
0.0
 11
-354.77324800000002
 21
740.25224300000002
 31
0.0
  0
INSERT
  5
6E3
  8
0
  2
BLOCK0
 10
-54.273281999999988
 20
496.6688309999999
 30
0.0
 50
180.0
  0
INSERT
  5
6E4
  8
0
  2
BLOCK1
 10
-54.273281999999988
 20
496.6688309999999
 30
0.0
 50
180.0
  0
INSERT
  5
6E5
  8
0
  2
BLOCK2
 10
-54.273281999999988
 20
496.6688309999999
 30
0.0
 50
180.0
  0
INSERT
  5
6E6
  8
0
  2
BLOCK3
 10
-54.273281999999988
 20
496.6688309999999
 30
0.0
 50
180.0
  0
INSERT
  5
6E7
  8
0
  2
BLOCK4
 10
-54.273281999999988
 20
496.6688309999999
 30
0.0
 50
180.0
  0
INSERT
  5
6E8
  8
0
  2
BLOCK5
 10
-54.273281999999988
 20
496.6688309999999
 30
0.0
 50
180.0
  0
INSERT
  5
6E9
  8
0
  2
BLOCK6
 10
-54.273281999999988
 20
496.6688309999999
 30
0.0
 50
180.0
  0
INSERT
  5
6EA
  8
0
  2
BLOCK7
 10
-54.273281999999988
 20
496.6688309999999
 30
0.0
 50
180.0
  0
INSERT
  5
6EB
  8
0
  2
BLOCK8
 10
-54.273281999999988
 20
496.6688309999999
 30
0.0
 50
180.0
  0
INSERT
  5
6EC
  8
0
  2
BLOCK9
 10
-54.273281999999988
 20
496.6688309999999
 30
0.0
 50
180.0
  0
INSERT
  5
6ED
  8
0
  2
BLOCK10
 10
-54.273281999999988
 20
496.6688309999999
 30
0.0
 50
180.0
  0
INSERT
  5
6EE
  8
0
  2
BLOCK11
 10
-54.273281999999988
 20
496.6688309999999
 30
0.0
 50
180.0
  0
INSERT
  5
6EF
  8
0
  2
BLOCK12
 10
-54.273281999999988
 20
496.6688309999999
 30
0.0
 50
180.0
  0
INSERT
  5
6F0
  8
0
  2
BLOCK13
 10
-54.273281999999988
 20
496.6688309999999
 30
0.0
 50
180.0
  0
INSERT
  5
6F1
  8
0
  2
BLOCK14
 10
-54.273281999999988
 20
496.6688309999999
 30
0.0
 50
180.0
  0
INSERT
  5
6F2
  8
0
  2
BLOCK15
 10
-54.273281999999988
 20
496.6688309999999
 30
0.0
 50
180.0
  0
INSERT
  5
6F3
  8
0
  2
BLOCK16
 10
-54.273281999999988
 20
496.6688309999999
 30
0.0
 50
180.0
  0
INSERT
  5
6F4
  8
0
  2
BLOCK17
 10
-346.17804000000001
 20
471.51703600000002
 30
0.0
 50
180.0
  0
INSERT
  5
6F5
  8
0
  2
BLOCK18
 10
-346.17804000000001
 20
471.51703600000002
 30
0.0
 50
180.0
  0
INSERT
  5
6F6
  8
0
  2
BLOCK19
 10
-346.17804000000001
 20
471.51703600000002
 30
0.0
 50
180.0
  0
INSERT
  5
6F7
  8
0
  2
BLOCK20
 10
-346.17804000000001
 20
471.51703600000002
 30
0.0
 50
180.0
  0
INSERT
  5
6F8
  8
0
  2
BLOCK21
 10
-54.273248000000002
 20
657.75224300000002
 30
0.0
  0
INSERT
  5
6F9
  8
0
  2
BLOCK22
 10
-54.273248000000002
 20
657.75224300000002
 30
0.0
  0
INSERT
  5
6FA
  8
0
  2
BLOCK23
 10
-54.273248000000002
 20
657.75224300000002
 30
0.0
  0
INSERT
  5
6FB
  8
0
  2
BLOCK24
 10
-54.273248000000002
 20
657.75224300000002
 30
0.0
  0
INSERT
  5
6FC
  8
0
  2
BLOCK25
 10
-54.273248000000002
 20
657.75224300000002
 30
0.0
  0
INSERT
  5
6FD
  8
0
  2
BLOCK26
 10
-54.273248000000002
 20
657.75224300000002
 30
0.0
  0
INSERT
  5
6FE
  8
0
  2
BLOCK27
 10
-54.273248000000002
 20
657.75224300000002
 30
0.0
  0
VIEWPORT
  5
53B
 67
     1
  8
0
 62
     0
 10
0.0
 20
0.0
 30
0.0
 40
1000.0
 41
1000.0
 68
     1
 69
     1
1001
ACAD
1000
MVIEW
1002
{
1070
    16
1010
0.0
1020
0.0
1030
0.0
1010
0.0
1020
0.0
1030
1.0
1040
0.0
1040
1000.0
1040
0.0
1040
0.0
1040
50.0
1040
0.0
1040
0.0
1070
     0
1070
   100
1070
     1
1070
     1
1070
     0
1070
     0
1070
     0
1070
     0
1040
0.0
1040
0.0
1040
0.0
1040
1.0
1040
1.0
1040
1.0
1040
1.0
1070
     0
1002
{
1002
}
1002
}
  0
ENDSEC
  0
EOF
