  0
SECTION
  2
HEADER
  9
$ACADVER
  1
AC1009
  9
$DWGCODEPAGE
  3
iso8859-1
  9
$INSBASE
 10
0.0
 20
0.0
 30
0.0
  9
$EXTMIN
 10
1.0E20
 20
1.0E20
  9
$EXTMAX
 10
-1.0E20
 20
-1.0E20
  9
$LIMMIN
 10
0.0
 20
0.0
  9
$LIMMAX
 10
12.0
 20
9.0
  9
$ORTHOMODE
 70
     0
  9
$REGENMODE
 70
     1
  9
$FILLMODE
 70
     1
  9
$QTEXTMODE
 70
     0
  9
$MIRRTEXT
 70
     1
  9
$DRAGMODE
 70
     2
  9
$LTSCALE
 40
15.0
  9
$OSMODE
 70
     0
  9
$ATTMODE
 70
     1
  9
$TEXTSIZE
 40
0.2
  9
$TRACEWID
 40
0.05
  9
$TEXTSTYLE
  7
STANDARD
  9
$CLAYER
  8
0
  9
$CELTYPE
  6
DASHED
  9
$CECOLOR
 62
   256
  9
$DIMSCALE
 40
1.0
  9
$DIMASZ
 40
0.18
  9
$DIMEXO
 40
0.0625
  9
$DIMDLI
 40
0.38
  9
$DIMRND
 40
0.0
  9
$DIMDLE
 40
0.0
  9
$DIMEXE
 40
0.18
  9
$DIMTP
 40
0.0
  9
$DIMTM
 40
0.0
  9
$DIMTXT
 40
0.18
  9
$DIMCEN
 40
0.09
  9
$DIMTSZ
 40
0.0
  9
$DIMTOL
 70
     0
  9
$DIMLIM
 70
     0
  9
$DIMTIH
 70
     1
  9
$DIMTOH
 70
     1
  9
$DIMSE1
 70
     0
  9
$DIMSE2
 70
     0
  9
$DIMTAD
 70
     0
  9
$DIMZIN
 70
     0
  9
$DIMBLK
  1

  9
$DIMASO
 70
     1
  9
$DIMSHO
 70
     1
  9
$DIMPOST
  1

  9
$DIMAPOST
  1

  9
$DIMALT
 70
     0
  9
$DIMALTD
 70
     2
  9
$DIMALTF
 40
25.4
  9
$DIMLFAC
 40
1.0
  9
$DIMTOFL
 70
     0
  9
$DIMTVP
 40
0.0
  9
$DIMTIX
 70
     0
  9
$DIMSOXD
 70
     0
  9
$DIMSAH
 70
     0
  9
$DIMBLK1
  1

  9
$DIMBLK2
  1

  9
$DIMSTYLE
  2
STANDARD
  9
$DIMCLRD
 70
     0
  9
$DIMCLRE
 70
     0
  9
$DIMCLRT
 70
     0
  9
$DIMTFAC
 40
1.0
  9
$DIMGAP
 40
0.09
  9
$LUNITS
 70
     2
  9
$LUPREC
 70
     4
  9
$AXISMODE
 70
     0
  9
$AXISUNIT
 10
0.0
 20
0.0
  9
$SKETCHINC
 40
0.1
  9
$FILLETRAD
 40
0.0
  9
$AUNITS
 70
     0
  9
$AUPREC
 70
     0
  9
$MENU
  1
acad
  9
$ELEVATION
 40
0.0
  9
$PELEVATION
 40
0.0
  9
$THICKNESS
 40
0.0
  9
$LIMCHECK
 70
     0
  9
$BLIPMODE
 70
     1
  9
$CHAMFERA
 40
0.0
  9
$CHAMFERB
 40
0.0
  9
$SKPOLY
 70
     0
  9
$TDCREATE
 40
0.000000000
  9
$TDUPDATE
 40
0.000000000
  9
$TDINDWG
 40
0.0
  9
$TDUSRTIMER
 40
0.0
  9
$USRTIMER
 70
     1
  9
$ANGBASE
 50
0.0
  9
$ANGDIR
 70
     0
  9
$PDMODE
 70
     0
  9
$PDSIZE
 40
0.0
  9
$PLINEWID
 40
0.0
  9
$COORDS
 70
     1
  9
$SPLFRAME
 70
     0
  9
$SPLINETYPE
 70
     6
  9
$SPLINESEGS
 70
     8
  9
$ATTDIA
 70
     0
  9
$ATTREQ
 70
     1
  9
$HANDLING
 70
     1
  9
$HANDSEED
  5
   185
  9
$SURFTAB1
 70
     6
  9
$SURFTAB2
 70
     6
  9
$SURFTYPE
 70
     6
  9
$SURFU
 70
     6
  9
$SURFV
 70
     6
  9
$UCSNAME
  2

  9
$UCSORG
 10
0.0
 20
0.0
 30
0.0
  9
$UCSXDIR
 10
1.0
 20
0.0
 30
0.0
  9
$UCSYDIR
 10
0.0
 20
1.0
 30
0.0
  9
$PUCSNAME
  2

  9
$PUCSORG
 10
0.0
 20
0.0
 30
0.0
  9
$PUCSXDIR
 10
1.0
 20
0.0
 30
0.0
  9
$PUCSYDIR
 10
0.0
 20
1.0
 30
0.0
  9
$USERI1
 70
     0
  9
$USERI2
 70
     0
  9
$USERI3
 70
     0
  9
$USERI4
 70
     0
  9
$USERI5
 70
     0
  9
$USERR1
 40
0.0
  9
$USERR2
 40
0.0
  9
$USERR3
 40
0.0
  9
$USERR4
 40
0.0
  9
$USERR5
 40
0.0
  9
$WORLDVIEW
 70
     1
  9
$SHADEDGE
 70
     3
  9
$SHADEDIF
 70
    70
  9
$TILEMODE
 70
     1
  9
$MAXACTVP
 70
    16
  9
$PINSBASE
 10
0.0
 20
0.0
 30
0.0
  9
$PLIMCHECK
 70
     0
  9
$PEXTMIN
 10
1.0E20
 20
1.0E20
 30
1.0E20
  9
$PEXTMAX
 10
-1.0E20
 20
-1.0E20
 30
-1.0E20
  9
$PLIMMIN
 10
0.0
 20
0.0
  9
$PLIMMAX
 10
12.0
 20
9.0
  9
$UNITMODE
 70
     0
  9
$VISRETAIN
 70
     0
  0
ENDSEC
  0
SECTION
  2
TABLES
  0
TABLE
  2
VPORT
 70
     1
  0
VPORT
  2
*ACTIVE
 70
     0
 10
0.0
 20
0.0
 11
1.0
 21
1.0
 12
6.801242
 22
4.5
 13
0.0
 23
0.0
 14
1.0
 24
1.0
 15
0.0
 25
0.0
 16
0.0
 26
0.0
 36
1.0
 17
0.0
 27
0.0
 37
0.0
 40
9.0
 41
1.511387
 42
50.0
 43
0.0
 44
0.0
 50
0.0
 51
0.0
 71
     0
 72
   100
 73
     1
 74
     1
 75
     0
 76
     0
 77
     0
 78
     0
  0
ENDTAB
  0
TABLE
  2
LTYPE
 70
    41
  0
LTYPE
  2
BYBLOCK
 70
     0
  3

 72
    65
 73
     0
 40
0.0
  0
LTYPE
  2
BYLAYER
 70
     0
  3

 72
    65
 73
     0
 40
0.0
  0
LTYPE
  2
CONTINUOUS
 70
     0
  3
Solid line
 72
    65
 73
     0
 40
0.0
  0
LTYPE
  2
BORDER
 70
    64
  3
__ __ . __ __ . __ __ . __ __ . __ __ . __ __ .
 72
    65
 73
     6
 40
1.75
 49
0.5
 49
-0.25
 49
0.5
 49
-0.25
 49
0.0
 49
-0.25
  0
LTYPE
  2
BORDER2
 70
    64
  3
__.__.__.__.__.__.__.__.__.__.__.__.__.__.__.__
 72
    65
 73
     6
 40
0.875
 49
0.25
 49
-0.125
 49
0.25
 49
-0.125
 49
0.0
 49
-0.125
  0
LTYPE
  2
BORDERX2
 70
    64
  3
____  ____  .  ____  ____  .  ____  ____  .  __
 72
    65
 73
     6
 40
3.5
 49
1.0
 49
-0.5
 49
1.0
 49
-0.5
 49
0.0
 49
-0.5
  0
LTYPE
  2
CENTER
 70
    64
  3
____ _ ____ _ ____ _ ____ _ ____ _ ____ _ ____
 72
    65
 73
     4
 40
2.0
 49
1.25
 49
-0.25
 49
0.25
 49
-0.25
  0
LTYPE
  2
CENTER2
 70
    64
  3
___ _ ___ _ ___ _ ___ _ ___ _ ___ _ ___ _ ___ _
 72
    65
 73
     4
 40
1.125
 49
0.75
 49
-0.125
 49
0.125
 49
-0.125
  0
LTYPE
  2
CENTERX2
 70
    64
  3
________  __  ________  __  ________  __  _____
 72
    65
 73
     4
 40
4.0
 49
2.5
 49
-0.5
 49
0.5
 49
-0.5
  0
LTYPE
  2
DASHDOT
 70
    64
  3
__ . __ . __ . __ . __ . __ . __ . __ . __ . __
 72
    65
 73
     4
 40
1.0
 49
0.5
 49
-0.25
 49
0.0
 49
-0.25
  0
LTYPE
  2
DASHDOT2
 70
    64
  3
_._._._._._._._._._._._._._._._._._._._._._._._
 72
    65
 73
     4
 40
0.5
 49
0.25
 49
-0.125
 49
0.0
 49
-0.125
  0
LTYPE
  2
DASHDOTX2
 70
    64
  3
____  .  ____  .  ____  .  ____  .  ____  .  __
 72
    65
 73
     4
 40
2.0
 49
1.0
 49
-0.5
 49
0.0
 49
-0.5
  0
LTYPE
  2
DASHED
 70
    64
  3
__ __ __ __ __ __ __ __ __ __ __ __ __ __ __ __
 72
    65
 73
     2
 40
0.75
 49
0.5
 49
-0.25
  0
LTYPE
  2
DASHED2
 70
    64
  3
_ _ _ _ _ _ _ _ _ _ _ _ _ _ _ _ _ _ _ _ _ _ _ _
 72
    65
 73
     2
 40
0.375
 49
0.25
 49
-0.125
  0
LTYPE
  2
DASHEDX2
 70
    64
  3
____  ____  ____  ____  ____  ____  ____  ____
 72
    65
 73
     2
 40
1.5
 49
1.0
 49
-0.5
  0
LTYPE
  2
DIVIDE
 70
    64
  3
____ . . ____ . . ____ . . ____ . . ____ . . __
 72
    65
 73
     6
 40
1.25
 49
0.5
 49
-0.25
 49
0.0
 49
-0.25
 49
0.0
 49
-0.25
  0
LTYPE
  2
DIVIDE2
 70
    64
  3
__..__..__..__..__..__..__..__..__..__..__..__.
 72
    65
 73
     6
 40
0.625
 49
0.25
 49
-0.125
 49
0.0
 49
-0.125
 49
0.0
 49
-0.125
  0
LTYPE
  2
DIVIDEX2
 70
    64
  3
________  .  .  ________  .  .  ________  .  .
 72
    65
 73
     6
 40
2.5
 49
1.0
 49
-0.5
 49
0.0
 49
-0.5
 49
0.0
 49
-0.5
  0
LTYPE
  2
DOT
 70
    64
  3
. . . . . . . . . . . . . . . . . . . . . . . .
 72
    65
 73
     2
 40
0.25
 49
0.0
 49
-0.25
  0
LTYPE
  2
DOT2
 70
    64
  3
...............................................
 72
    65
 73
     2
 40
0.125
 49
0.0
 49
-0.125
  0
LTYPE
  2
DOTX2
 70
    64
  3
.  .  .  .  .  .  .  .  .  .  .  .  .  .  .  .
 72
    65
 73
     2
 40
0.5
 49
0.0
 49
-0.5
  0
LTYPE
  2
HIDDEN
 70
    64
  3
__ __ __ __ __ __ __ __ __ __ __ __ __ __ __ __
 72
    65
 73
     2
 40
0.375
 49
0.25
 49
-0.125
  0
LTYPE
  2
HIDDEN2
 70
    64
  3
_ _ _ _ _ _ _ _ _ _ _ _ _ _ _ _ _ _ _ _ _ _ _ _
 72
    65
 73
     2
 40
0.1875
 49
0.125
 49
-0.0625
  0
LTYPE
  2
HIDDENX2
 70
    64
  3
____ ____ ____ ____ ____ ____ ____ ____ ____ __
 72
    65
 73
     2
 40
0.75
 49
0.5
 49
-0.25
  0
LTYPE
  2
PHANTOM
 70
    64
  3
______  __  __  ______  __  __  ______  __  __
 72
    65
 73
     6
 40
2.5
 49
1.25
 49
-0.25
 49
0.25
 49
-0.25
 49
0.25
 49
-0.25
  0
LTYPE
  2
PHANTOM2
 70
    64
  3
___ _ _ ___ _ _ ___ _ _ ___ _ _ ___ _ _ ___ _ _
 72
    65
 73
     6
 40
1.25
 49
0.625
 49
-0.125
 49
0.125
 49
-0.125
 49
0.125
 49
-0.125
  0
LTYPE
  2
PHANTOMX2
 70
    64
  3
____________    ____    ____    ____________
 72
    65
 73
     6
 40
5.0
 49
2.5
 49
-0.5
 49
0.5
 49
-0.5
 49
0.5
 49
-0.5
  0
LTYPE
  2
ACAD_ISO02W100
 70
    64
  3
__ __ __ __ __ __ __ __ __ __ __ __ __ __ __ __
 72
    65
 73
     2
 40
15.0
 49
12.0
 49
-3.0
  0
LTYPE
  2
ACAD_ISO03W100
 70
    64
  3
__    __    __    __    __    __    __    __
 72
    65
 73
     2
 40
30.0
 49
12.0
 49
-18.0
  0
LTYPE
  2
ACAD_ISO04W100
 70
    64
  3
____ . ____ . ____ . ____ . ____ . ____ . ____
 72
    65
 73
     4
 40
30.5
 49
24.0
 49
-3.0
 49
0.5
 49
-3.0
  0
LTYPE
  2
ACAD_ISO05W100
 70
    64
  3
____ .. ____ .. ____ .. ____ .. ____ .. ____ ..
 72
    65
 73
     6
 40
34.0
 49
24.0
 49
-3.0
 49
0.5
 49
-3.0
 49
0.5
 49
-3.0
  0
LTYPE
  2
ACAD_ISO06W100
 70
    64
  3
____ ... ____ ... ____ ... ____ ... ____ ... __
 72
    65
 73
     8
 40
37.5
 49
24.0
 49
-3.0
 49
0.5
 49
-3.0
 49
0.5
 49
-3.0
 49
0.5
 49
-3.0
  0
LTYPE
  2
ACAD_ISO07W100
 70
    64
  3
. . . . . . . . . . . . . . . . . . . . . . . .
 72
    65
 73
     2
 40
3.5
 49
0.5
 49
-3.0
  0
LTYPE
  2
ACAD_ISO08W100
 70
    64
  3
____ __ ____ __ ____ __ ____ ____ __ __ ____ __
 72
    65
 73
     4
 40
36.0
 49
24.0
 49
-3.0
 49
6.0
 49
-3.0
  0
LTYPE
  2
ACAD_ISO09W100
 70
    64
  3
____ __ __ ____ __ __ ____ __ __ ____ __ __ ___
 72
    65
 73
     6
 40
45.0
 49
24.0
 49
-3.0
 49
6.0
 49
-3.0
 49
6.0
 49
-3.0
  0
LTYPE
  2
ACAD_ISO10W100
 70
    64
  3
__ . __ . __ . __ . __ . __ . __ . __ . __ . __
 72
    65
 73
     4
 40
18.5
 49
12.0
 49
-3.0
 49
0.5
 49
-3.0
  0
LTYPE
  2
ACAD_ISO11W100
 70
    64
  3
__ __ . __ __ . __ __ . __ __ . __ __ . __ __ .
 72
    65
 73
     6
 40
33.5
 49
12.0
 49
-3.0
 49
12.0
 49
-3.0
 49
0.5
 49
-3.0
  0
LTYPE
  2
ACAD_ISO12W100
 70
    64
  3
__ . . __ . . __ . . __ . . __ . . __ . . __ .
 72
    65
 73
     6
 40
22.0
 49
12.0
 49
-3.0
 49
0.5
 49
-3.0
 49
0.5
 49
-3.0
  0
LTYPE
  2
ACAD_ISO13W100
 70
    64
  3
__ __ . . __ __ . . __ __ . . __ __ . . __ __ .
 72
    65
 73
     8
 40
37.0
 49
12.0
 49
-3.0
 49
12.0
 49
-3.0
 49
0.5
 49
-3.0
 49
0.5
 49
-3.0
  0
LTYPE
  2
ACAD_ISO14W100
 70
    64
  3
__ . . . __ . . . __ . . . __ . . . __ . . . __
 72
    65
 73
     8
 40
25.5
 49
12.0
 49
-3.0
 49
0.5
 49
-3.0
 49
0.5
 49
-3.0
 49
0.5
 49
-3.0
  0
LTYPE
  2
ACAD_ISO15W100
 70
    64
  3
__ __ . . . __ __ . . . __ __ . . . __ __ . . .
 72
    65
 73
    10
 40
40.5
 49
12.0
 49
-3.0
 49
12.0
 49
-3.0
 49
0.5
 49
-3.0
 49
0.5
 49
-3.0
 49
0.5
 49
-3.0
  0
ENDTAB
  0
TABLE
  2
STYLE
 70
     4
  0
STYLE
  2
STANDARD
 70
    64
 40
0.0
 41
1.0
 50
0.0
 71
     0
 42
0.2
  3
txt
  4

  0
STYLE
  2
TOLERANCE
 70
    64
 40
0.0
 41
1.0
 50
0.0
 71
     0
 42
0.2
  3
../igesfont/iges1003.shx
  4

  0
STYLE
  2
ROMANS
 70
    64
 40
0.0
 41
1.0
 50
0.0
 71
     0
 42
0.2
  3
romans.shx
  4

  0
STYLE
  2
ROMANC
 70
    64
 40
0.0
 41
1.0
 50
0.0
 71
     0
 42
0.2
  3
romanc.shx
  4

  0
ENDTAB
  0
TABLE
  2
DIMSTYLE
 70
     2
  0
DIMSTYLE
  2
UNNAMED
 70
     0
  3

  4

  5

  6

  7

 40
1.0
 41
0.18
 42
0.0625
 43
0.38
 44
0.18
 45
0.0
 46
0.0
 47
0.0
 48
0.0
140
0.18
141
0.09
142
0.0
143
25.4
144
1.0
145
0.0
146
1.0
147
0.09
 71
     0
 72
     0
 73
     1
 74
     1
 75
     0
 76
     0
 77
     0
 78
     0
170
     0
171
     2
172
     0
173
     0
174
     0
175
     0
176
     0
177
     0
178
     0
  0
DIMSTYLE
  2
STANDARD
 70
     0
  3

  4

  5

  6

  7

 40
1.0
 41
0.18
 42
0.0625
 43
0.38
 44
0.18
 45
0.0
 46
0.0
 47
0.0
 48
0.0
140
0.18
141
0.09
142
0.0
143
25.4
144
1.0
145
0.0
146
1.0
147
0.09
 71
     0
 72
     0
 73
     1
 74
     1
 75
     0
 76
     0
 77
     0
 78
     0
170
     0
171
     2
172
     0
173
     0
174
     0
175
     0
176
     0
177
     0
178
     0
  0
ENDTAB
  0
TABLE
  2
LAYER
 70
     1
  0
LAYER
  2
0
 70
     0
 62
     7
  6
CONTINUOUS
  0
ENDTAB
  0
ENDSEC
  0
SECTION
  2
BLOCKS
  0
BLOCK
  5
     B
  8
0
  6
CONTINUOUS
 62
     3
  2
*UDIM648
 70
    65
 10
0.0
 20
0.0
 30
0.0
  3
*UDIM648
  0
TEXT
  5
     C
  8
0
  6
CONTINUOUS
 62
     3
 10
204.497066994043
 20
108.598916985096
 30
0.0
 40
3.00000013411045
  1
45
 50
90.0
 41
0.933333333333333
 72
     1
 11
202.997066926984
 21
111.098917096853
 31
0.0
 73
     2
  0
LINE
  5
     D
  8
0
  6
CONTINUOUS
 62
     3
 10
248.027267456055
 20
94.4989166259766
 30
0.0
 11
203.497066994039
 21
94.4989166259766
 31
0.0
  0
LINE
  5
     E
  8
0
  6
CONTINUOUS
 62
     3
 10
248.027267456055
 20
128.248916625977
 30
0.0
 11
203.497066994039
 21
128.248916625977
 31
0.0
  0
LINE
  5
     F
  8
0
  6
CONTINUOUS
 62
     3
 10
205.497066994039
 20
94.4989166259766
 30
0.0
 11
205.497066994039
 21
128.248916625977
 31
0.0
  0
LINE
  5
    10
  8
0
  6
CONTINUOUS
 62
     3
 10
204.976122564088
 20
97.4533399031835
 30
0.0
 11
205.497066994039
 21
94.4989166259766
 31
0.0
  0
LINE
  5
    11
  8
0
  6
CONTINUOUS
 62
     3
 10
205.497066994039
 20
94.4989166259766
 30
0.0
 11
206.018011423991
 21
97.4533399031835
 31
0.0
  0
LINE
  5
    12
  8
0
  6
CONTINUOUS
 62
     3
 10
206.018011423991
 20
125.29449334877
 30
0.0
 11
205.497066994039
 21
128.248916625977
 31
0.0
  0
LINE
  5
    13
  8
0
  6
CONTINUOUS
 62
     3
 10
205.497066994039
 20
128.248916625977
 30
0.0
 11
204.976122564088
 21
125.29449334877
 31
0.0
  0
ENDBLK
  5
    14
  8
0
  6
CONTINUOUS
 62
     3
  0
BLOCK
  5
    15
  8
0
  6
CONTINUOUS
 62
     7
  2
*UDIM649
 70
    65
 10
0.0
 20
0.0
 30
0.0
  3
*UDIM649
  0
TEXT
  5
    16
  8
0
  6
CONTINUOUS
 62
     7
 10
220.650069736145
 20
101.836416576805
 30
0.0
 40
3.00000013411045
  1
=
 50
90.0
 41
0.933333333333333
 72
     1
 11
219.150069669088
 21
102.936416625977
 31
0.0
 73
     2
  0
LINE
  5
    17
  8
0
  6
CONTINUOUS
 62
     3
 10
247.027267456055
 20
94.4989166259766
 30
0.0
 11
219.650069736144
 21
94.4989166259766
 31
0.0
  0
LINE
  5
    18
  8
0
  6
CONTINUOUS
 62
     3
 10
221.650069736144
 20
94.4989166259766
 30
0.0
 11
221.650069736144
 21
111.373916625977
 31
0.0
  0
LINE
  5
    19
  8
0
  6
CONTINUOUS
 62
     3
 10
221.129125306192
 20
97.4533399031835
 30
0.0
 11
221.650069736144
 21
94.4989166259766
 31
0.0
  0
LINE
  5
    1A
  8
0
  6
CONTINUOUS
 62
     3
 10
221.650069736144
 20
94.4989166259766
 30
0.0
 11
222.171014166095
 21
97.4533399031835
 31
0.0
  0
LINE
  5
    1B
  8
0
  6
CONTINUOUS
 62
     3
 10
222.171014166095
 20
108.41949334877
 30
0.0
 11
221.650069736144
 21
111.373916625977
 31
0.0
  0
LINE
  5
    1C
  8
0
  6
CONTINUOUS
 62
     3
 10
221.650069736144
 20
111.373916625977
 30
0.0
 11
221.129125306192
 21
108.41949334877
 31
0.0
  0
ENDBLK
  5
    1D
  8
0
  6
CONTINUOUS
 62
     7
  0
BLOCK
  5
    1E
  8
0
  6
CONTINUOUS
 62
     7
  2
*UDIM650
 70
    65
 10
0.0
 20
0.0
 30
0.0
  3
*UDIM650
  0
TEXT
  5
    1F
  8
0
  6
CONTINUOUS
 62
     7
 10
220.650069736145
 20
118.711416576805
 30
0.0
 40
3.00000013411045
  1
=
 50
90.0
 41
0.933333333333333
 72
     1
 11
219.150069669088
 21
119.811416625977
 31
0.0
 73
     2
  0
LINE
  5
    20
  8
0
  6
CONTINUOUS
 62
     3
 10
247.027267456055
 20
128.248916625977
 30
0.0
 11
219.650069736144
 21
128.248916625977
 31
0.0
  0
LINE
  5
    21
  8
0
  6
CONTINUOUS
 62
     3
 10
221.650069736144
 20
111.373916625977
 30
0.0
 11
221.650069736144
 21
128.248916625977
 31
0.0
  0
LINE
  5
    22
  8
0
  6
CONTINUOUS
 62
     3
 10
221.129125306192
 20
114.328339903184
 30
0.0
 11
221.650069736144
 21
111.373916625977
 31
0.0
  0
LINE
  5
    23
  8
0
  6
CONTINUOUS
 62
     3
 10
221.650069736144
 20
111.373916625977
 30
0.0
 11
222.171014166095
 21
114.328339903184
 31
0.0
  0
LINE
  5
    24
  8
0
  6
CONTINUOUS
 62
     3
 10
222.171014166095
 20
125.29449334877
 30
0.0
 11
221.650069736144
 21
128.248916625977
 31
0.0
  0
LINE
  5
    25
  8
0
  6
CONTINUOUS
 62
     3
 10
221.650069736144
 20
128.248916625977
 30
0.0
 11
221.129125306192
 21
125.29449334877
 31
0.0
  0
ENDBLK
  5
    26
  8
0
  6
CONTINUOUS
 62
     7
  0
BLOCK
  5
    27
  8
0
  6
CONTINUOUS
 62
     7
  2
*HATCH205
 70
    65
 10
0.0
 20
0.0
 30
0.0
  3
*HATCH205
  0
LINE
  5
    28
  8
0
  6
CONTINUOUS
 62
     7
 10
19.5
 20
6.77207708358765
 30
0.0
 11
17.9733009338379
 21
5.2453784942627
 31
0.0
  0
ENDBLK
  5
    29
  8
0
  6
CONTINUOUS
 62
     7
  0
BLOCK
  5
    2A
  8
0
  6
CONTINUOUS
 62
     7
  2
*HATCH206
 70
    65
 10
0.0
 20
0.0
 30
0.0
  3
*HATCH206
  0
LINE
  5
    2B
  8
0
  6
CONTINUOUS
 62
     7
 10
-2.0
 20
36.183765411377
 30
0.0
 11
-3.27385091781616
 21
34.9099159240723
 31
0.0
  0
LINE
  5
    2C
  8
0
  6
CONTINUOUS
 62
     7
 10
0.605718791484833
 20
34.5468444824219
 30
0.0
 11
-0.828865826129913
 21
33.1122589111328
 31
0.0
  0
LINE
  5
    2D
  8
0
  6
CONTINUOUS
 62
     7
 10
4.84835958480835
 20
34.5468444824219
 30
0.0
 11
3.34835958480835
 21
33.0468444824219
 31
0.0
  0
LINE
  5
    2E
  8
0
  6
CONTINUOUS
 62
     7
 10
9.09099960327148
 20
34.5468444824219
 30
0.0
 11
7.59100008010864
 21
33.0468444824219
 31
0.0
  0
LINE
  5
    2F
  8
0
  6
CONTINUOUS
 62
     7
 10
13.3336400985718
 20
34.5468444824219
 30
0.0
 11
11.8336410522461
 21
33.0468444824219
 31
0.0
  0
LINE
  5
    30
  8
0
  6
CONTINUOUS
 62
     7
 10
17.5762805938721
 20
34.5468444824219
 30
0.0
 11
16.0762825012207
 21
33.0468444824219
 31
0.0
  0
LINE
  5
    31
  8
0
  6
CONTINUOUS
 62
     7
 10
21.818920135498
 20
34.5468444824219
 30
0.0
 11
20.3189239501953
 21
33.0468444824219
 31
0.0
  0
LINE
  5
    32
  8
0
  6
CONTINUOUS
 62
     7
 10
25.2783889770508
 20
33.7636680603027
 30
0.0
 11
24.20530128479
 21
32.6905784606934
 31
0.0
  0
LINE
  5
    33
  8
0
  6
CONTINUOUS
 62
     7
 10
26.2999992370605
 20
30.5426387786865
 30
0.0
 11
24.7999992370606
 21
29.0426387786865
 31
0.0
  0
LINE
  5
    34
  8
0
  6
CONTINUOUS
 62
     7
 10
26.2999992370605
 20
26.2999992370605
 30
0.0
 11
24.7999992370606
 21
24.7999992370606
 31
0.0
  0
LINE
  5
    35
  8
0
  6
CONTINUOUS
 62
     7
 10
26.2999992370605
 20
22.0573577880859
 30
0.0
 11
24.7999992370606
 21
20.5573577880859
 31
0.0
  0
LINE
  5
    36
  8
0
  6
CONTINUOUS
 62
     7
 10
26.2999992370605
 20
17.8147163391113
 30
0.0
 11
25.3224258422852
 21
16.8371429443359
 31
0.0
  0
ENDBLK
  5
    37
  8
0
  6
CONTINUOUS
 62
     7
  0
BLOCK
  5
    38
  8
0
  6
CONTINUOUS
 62
     7
  2
*HATCH207
 70
    65
 10
0.0
 20
0.0
 30
0.0
  3
*HATCH207
  0
LINE
  5
    39
  8
0
  6
CONTINUOUS
 62
     7
 10
26.2999992370605
 20
0.844154834747314
 30
0.0
 11
24.7999992370606
 21
-0.655845046043396
 31
0.0
  0
LINE
  5
    3A
  8
0
  6
CONTINUOUS
 62
     7
 10
26.2999992370605
 20
-3.39848566055298
 30
0.0
 11
24.7999992370606
 21
-4.89848566055298
 31
0.0
  0
LINE
  5
    3B
  8
0
  6
CONTINUOUS
 62
     7
 10
-1.30151641368866
 20
-31.0
 30
0.0
 11
-2.0
 21
-31.6984844207764
 31
0.0
  0
LINE
  5
    3C
  8
0
  6
CONTINUOUS
 62
     7
 10
26.2999992370605
 20
-7.64112615585327
 30
0.0
 11
24.7999992370606
 21
-9.14112567901611
 31
0.0
  0
LINE
  5
    3D
  8
0
  6
CONTINUOUS
 62
     7
 10
2.9411244392395
 20
-31.0
 30
0.0
 11
1.44112432003021
 21
-32.5
 31
0.0
  0
LINE
  5
    3E
  8
0
  6
CONTINUOUS
 62
     7
 10
26.2999992370605
 20
-11.8837661743164
 30
0.0
 11
24.7999992370606
 21
-13.3837661743164
 31
0.0
  0
LINE
  5
    3F
  8
0
  6
CONTINUOUS
 62
     7
 10
7.18376541137695
 20
-31.0
 30
0.0
 11
5.68376541137695
 21
-32.5
 31
0.0
  0
LINE
  5
    40
  8
0
  6
CONTINUOUS
 62
     7
 10
26.2999992370605
 20
-16.126407623291
 30
0.0
 11
24.7999992370606
 21
-17.626407623291
 31
0.0
  0
LINE
  5
    41
  8
0
  6
CONTINUOUS
 62
     7
 10
11.4264068603516
 20
-31.0
 30
0.0
 11
9.92640686035156
 21
-32.5
 31
0.0
  0
LINE
  5
    42
  8
0
  6
CONTINUOUS
 62
     7
 10
26.2999992370605
 20
-20.3690490722656
 30
0.0
 11
24.7999992370606
 21
-21.8690490722656
 31
0.0
  0
LINE
  5
    43
  8
0
  6
CONTINUOUS
 62
     7
 10
15.6690483093262
 20
-31.0
 30
0.0
 11
14.1690483093262
 21
-32.5
 31
0.0
  0
LINE
  5
    44
  8
0
  6
CONTINUOUS
 62
     7
 10
26.2999992370605
 20
-24.6116905212402
 30
0.0
 11
24.7999992370606
 21
-26.1116905212402
 31
0.0
  0
LINE
  5
    45
  8
0
  6
CONTINUOUS
 62
     7
 10
19.9116897583008
 20
-31.0
 30
0.0
 11
18.4116897583008
 21
-32.5
 31
0.0
  0
LINE
  5
    46
  8
0
  6
CONTINUOUS
 62
     7
 10
26.2999992370605
 20
-28.8543281555176
 30
0.0
 11
22.6543292999268
 21
-32.5
 31
0.0
  0
ENDBLK
  5
    47
  8
0
  6
CONTINUOUS
 62
     7
  0
BLOCK
  5
    48
  8
0
  6
CONTINUOUS
 62
     7
  2
*HATCH208
 70
    65
 10
0.0
 20
0.0
 30
0.0
  3
*HATCH208
  0
LINE
  5
    49
  8
0
  6
CONTINUOUS
 62
     7
 10
-7.86752986907959
 20
68.5
 30
0.0
 11
-8.5
 21
67.8675308227539
 31
0.0
  0
ENDBLK
  5
    4A
  8
0
  6
CONTINUOUS
 62
     7
  0
BLOCK
  5
    4B
  8
0
  6
CONTINUOUS
 62
     7
  2
*HATCH209
 70
    65
 10
0.0
 20
0.0
 30
0.0
  3
*HATCH209
  0
LINE
  5
    4C
  8
0
  6
CONTINUOUS
 62
     7
 10
-7.80151700973511
 20
-37.5
 30
0.0
 11
-8.5
 21
-38.1984825134277
 31
0.0
  0
ENDBLK
  5
    4D
  8
0
  6
CONTINUOUS
 62
     7
  0
BLOCK
  5
    4E
  8
0
  6
CONTINUOUS
 62
     7
  2
*HATCH210
 70
    65
 10
0.0
 20
0.0
 30
0.0
  3
*HATCH210
  0
LINE
  5
    4F
  8
0
  6
CONTINUOUS
 62
     7
 10
21.7999992370605
 20
16.3837623596191
 30
0.0
 11
23.8437595367432
 21
14.3400001525879
 31
0.0
  0
LINE
  5
    50
  8
0
  6
CONTINUOUS
 62
     7
 10
25.5892581939697
 20
16.8371429443359
 30
0.0
 11
28.0863990783691
 21
14.3400001525879
 31
0.0
  0
LINE
  5
    51
  8
0
  6
CONTINUOUS
 62
     7
 10
29.3309841156006
 20
17.3380546569824
 30
0.0
 11
32.3290367126465
 21
14.3400001525879
 31
0.0
  0
LINE
  5
    52
  8
0
  6
CONTINUOUS
 62
     7
 10
33.5723495483398
 20
17.3393306732178
 30
0.0
 11
35.7999992370605
 21
15.1116752624512
 31
0.0
  0
ENDBLK
  5
    53
  8
0
  6
CONTINUOUS
 62
     7
  0
BLOCK
  5
    54
  8
0
  6
CONTINUOUS
 62
     7
  2
*HATCH211
 70
    65
 10
0.0
 20
0.0
 30
0.0
  3
*HATCH211
  0
LINE
  5
    55
  8
0
  6
CONTINUOUS
 62
     7
 10
21.7999992370605
 20
3.65583276748657
 30
0.0
 11
24.1186866760254
 21
1.33714377880096
 31
0.0
  0
LINE
  5
    56
  8
0
  6
CONTINUOUS
 62
     7
 10
25.3584709167481
 20
4.34000015258789
 30
0.0
 11
28.3613243103027
 21
1.33714377880096
 31
0.0
  0
LINE
  5
    57
  8
0
  6
CONTINUOUS
 62
     7
 10
29.6011085510254
 20
4.34000015258789
 30
0.0
 11
32.6039619445801
 21
1.33714377880096
 31
0.0
  0
LINE
  5
    58
  8
0
  6
CONTINUOUS
 62
     7
 10
33.8437461853027
 20
4.34000015258789
 30
0.0
 11
35.7999992370605
 21
2.38374543190002
 31
0.0
  0
ENDBLK
  5
    59
  8
0
  6
CONTINUOUS
 62
     7
  0
BLOCK
  5
    5A
  8
0
  6
CONTINUOUS
 62
     3
  2
*UDIM651
 70
    65
 10
0.0
 20
0.0
 30
0.0
  3
*UDIM651
  0
TEXT
  5
    5B
  8
0
  6
CONTINUOUS
 62
     3
 10
218.252269245684
 20
176.351287549561
 30
0.0
 40
3.00000013411045
  1
68
 41
0.933333333333333
 72
     1
 11
220.752269357443
 21
177.851287616616
 31
0.0
 73
     2
  0
LINE
  5
    5C
  8
0
  6
CONTINUOUS
 62
     3
 10
195.527267456055
 20
165.373916625977
 30
0.0
 11
195.527267456055
 21
177.351287549561
 31
0.0
  0
LINE
  5
    5D
  8
0
  6
CONTINUOUS
 62
     3
 10
246.527267456055
 20
165.373916625977
 30
0.0
 11
246.527267456055
 21
177.351287549561
 31
0.0
  0
LINE
  5
    5E
  8
0
  6
CONTINUOUS
 62
     3
 10
195.527267456055
 20
175.351287549561
 30
0.0
 11
246.527267456055
 21
175.351287549561
 31
0.0
  0
LINE
  5
    5F
  8
0
  6
CONTINUOUS
 62
     3
 10
198.481690717736
 20
175.872232067561
 30
0.0
 11
195.527267456055
 21
175.351287549561
 31
0.0
  0
LINE
  5
    60
  8
0
  6
CONTINUOUS
 62
     3
 10
195.527267456055
 20
175.351287549561
 30
0.0
 11
198.481690717736
 21
174.830343031561
 31
0.0
  0
LINE
  5
    61
  8
0
  6
CONTINUOUS
 62
     3
 10
243.572844194373
 20
174.830343031561
 30
0.0
 11
246.527267456055
 21
175.351287549561
 31
0.0
  0
LINE
  5
    62
  8
0
  6
CONTINUOUS
 62
     3
 10
246.527267456055
 20
175.351287549561
 30
0.0
 11
243.572844194373
 21
175.872232067561
 31
0.0
  0
ENDBLK
  5
    63
  8
0
  6
CONTINUOUS
 62
     3
  0
BLOCK
  5
    64
  8
0
  6
CONTINUOUS
 62
     7
  2
*UDIM652
 70
    65
 10
0.0
 20
0.0
 30
0.0
  3
*UDIM652
  0
TEXT
  5
    65
  8
0
  6
CONTINUOUS
 62
     7
 10
320.527267156541
 20
185.759205568446
 30
0.0
 40
3.00000013411045
  1
237.5
 41
0.933333333333334
 72
     1
 11
327.227267456055
 21
187.259205635501
 31
0.0
 73
     2
  0
TEXT
  5
    66
  8
0
  6
CONTINUOUS
 62
     7
 10
317.527267156541
 20
185.759205635501
 30
0.0
 40
3.0
  1
(
 41
1.2
 72
     1
 11
319.027267156541
 21
187.259205635501
 31
0.0
 73
     2
  0
TEXT
  5
    67
  8
0
  6
CONTINUOUS
 62
     7
 10
333.927267755568
 20
185.759205635501
 30
0.0
 40
3.0
  1
)
 41
1.2
 72
     1
 11
335.427267755568
 21
187.259205635501
 31
0.0
 73
     2
  0
LINE
  5
    68
  8
0
  6
CONTINUOUS
 62
     7
 10
298.652267456055
 20
119.753916625977
 30
0.0
 11
298.652267456055
 21
186.759205568446
 31
0.0
  0
LINE
  5
    69
  8
0
  6
CONTINUOUS
 62
     7
 10
355.802267456055
 20
119.753916625977
 30
0.0
 11
355.802267456055
 21
186.759205568446
 31
0.0
  0
LINE
  5
    6A
  8
0
  6
CONTINUOUS
 62
     7
 10
298.652267456055
 20
184.759205568446
 30
0.0
 11
355.802267456055
 21
184.759205568446
 31
0.0
  0
LINE
  5
    6B
  8
0
  6
CONTINUOUS
 62
     3
 10
301.550044929265
 20
185.535662724864
 30
0.0
 11
298.652267456055
 21
184.759205568446
 31
0.0
  0
LINE
  5
    6C
  8
0
  6
CONTINUOUS
 62
     3
 10
298.652267456055
 20
184.759205568446
 30
0.0
 11
301.550044929265
 21
183.982748412027
 31
0.0
  0
LINE
  5
    6D
  8
0
  6
CONTINUOUS
 62
     3
 10
352.904489982844
 20
183.982748412027
 30
0.0
 11
355.802267456055
 21
184.759205568446
 31
0.0
  0
LINE
  5
    6E
  8
0
  6
CONTINUOUS
 62
     3
 10
355.802267456055
 20
184.759205568446
 30
0.0
 11
352.904489982844
 21
185.535662724864
 31
0.0
  0
ENDBLK
  5
    6F
  8
0
  6
CONTINUOUS
 62
     7
  0
BLOCK
  5
    70
  8
0
  6
CONTINUOUS
 62
     7
  2
*UDIM653
 70
    65
 10
0.0
 20
0.0
 30
0.0
  3
*UDIM653
  0
TEXT
  5
    71
  8
0
  6
CONTINUOUS
 62
     7
 10
240.389767156541
 20
185.759205568446
 30
0.0
 40
3.00000013411045
  1
137.5
 41
0.933333333333334
 72
     1
 11
247.089767456055
 21
187.259205635501
 31
0.0
 73
     2
  0
LINE
  5
    72
  8
0
  6
CONTINUOUS
 62
     7
 10
195.527267456055
 20
166.373916625977
 30
0.0
 11
195.527267456055
 21
186.759205568446
 31
0.0
  0
LINE
  5
    73
  8
0
  6
CONTINUOUS
 62
     7
 10
298.652267456055
 20
119.753916625977
 30
0.0
 11
298.652267456055
 21
186.759205568446
 31
0.0
  0
LINE
  5
    74
  8
0
  6
CONTINUOUS
 62
     7
 10
195.527267456055
 20
184.759205568446
 30
0.0
 11
298.652267456055
 21
184.759205568446
 31
0.0
  0
LINE
  5
    75
  8
0
  6
CONTINUOUS
 62
     3
 10
198.425044929265
 20
185.535662724864
 30
0.0
 11
195.527267456055
 21
184.759205568446
 31
0.0
  0
LINE
  5
    76
  8
0
  6
CONTINUOUS
 62
     3
 10
195.527267456055
 20
184.759205568446
 30
0.0
 11
198.425044929265
 21
183.982748412027
 31
0.0
  0
LINE
  5
    77
  8
0
  6
CONTINUOUS
 62
     3
 10
295.754489982844
 20
183.982748412027
 30
0.0
 11
298.652267456055
 21
184.759205568446
 31
0.0
  0
LINE
  5
    78
  8
0
  6
CONTINUOUS
 62
     3
 10
298.652267456055
 20
184.759205568446
 30
0.0
 11
295.754489982844
 21
185.535662724864
 31
0.0
  0
ENDBLK
  5
    79
  8
0
  6
CONTINUOUS
 62
     7
  0
BLOCK
  5
    7A
  8
0
  6
CONTINUOUS
 62
     3
  2
*UDIM654
 70
    65
 10
0.0
 20
0.0
 30
0.0
  3
*UDIM654
  0
TEXT
  5
    7B
  8
0
  6
CONTINUOUS
 62
     3
 10
106.007865826793
 20
55.3012446388829
 30
0.0
 40
3.00000013411045
  1
2.5
 50
360.0
 41
0.933333333333333
 72
     1
 11
109.907866001129
 21
56.8012447059577
 31
0.0
 73
     2
  0
LINE
  5
    7C
  8
0
  6
CONTINUOUS
 62
     3
 10
115.502136230469
 20
91.1289215087891
 30
0.0
 11
115.502136230469
 21
52.3012446389025
 31
0.0
  0
LINE
  5
    7D
  8
0
  6
CONTINUOUS
 62
     3
 10
122.377136230469
 20
54.3012446389025
 30
0.0
 11
106.007865826786
 21
54.3012446389025
 31
0.0
  0
LINE
  5
    7E
  8
0
  6
CONTINUOUS
 62
     3
 10
120.274913703679
 20
55.077701795321
 30
0.0
 11
117.377136230469
 21
54.3012446389025
 31
0.0
  0
LINE
  5
    7F
  8
0
  6
CONTINUOUS
 62
     3
 10
117.377136230469
 20
54.3012446389025
 30
0.0
 11
120.274913703679
 21
53.5247874824839
 31
0.0
  0
LINE
  5
    80
  8
0
  6
CONTINUOUS
 62
     3
 10
112.604358757258
 20
53.5247874824839
 30
0.0
 11
115.502136230469
 21
54.3012446389025
 31
0.0
  0
LINE
  5
    81
  8
0
  6
CONTINUOUS
 62
     3
 10
115.502136230469
 20
54.3012446389025
 30
0.0
 11
112.604358757258
 21
55.077701795321
 31
0.0
  0
ENDBLK
  5
    82
  8
0
  6
CONTINUOUS
 62
     3
  0
BLOCK
  5
    83
  8
0
  6
CONTINUOUS
 62
     3
  2
*UDIM655
 70
    65
 10
0.0
 20
0.0
 30
0.0
  3
*UDIM655
  0
TEXT
  5
    84
  8
0
  6
CONTINUOUS
 62
     3
 10
168.831817626958
 20
119.074526230993
 30
0.0
 40
3.00000013411045
  1
6,8
 50
90.0
 41
0.933333333333333
 72
     1
 11
167.331817559898
 21
122.974526405334
 31
0.0
 73
     2
  0
LINE
  5
    85
  8
0
  6
CONTINUOUS
 62
     3
 10
169.831817626953
 20
111.373916625977
 30
0.0
 11
169.831817626953
 21
126.874526579678
 31
0.0
  0
LINE
  5
    86
  8
0
  6
CONTINUOUS
 62
     3
 10
170.352762144953
 20
108.419493364295
 30
0.0
 11
169.831817626953
 21
111.373916625977
 31
0.0
  0
LINE
  5
    87
  8
0
  6
CONTINUOUS
 62
     3
 10
169.831817626953
 20
111.373916625977
 30
0.0
 11
169.310873108953
 21
108.419493364295
 31
0.0
  0
LINE
  5
    88
  8
0
  6
CONTINUOUS
 62
     3
 10
169.310873108953
 20
119.458344770471
 30
0.0
 11
169.831817626953
 21
116.503921508789
 31
0.0
  0
LINE
  5
    89
  8
0
  6
CONTINUOUS
 62
     3
 10
169.831817626953
 20
116.503921508789
 30
0.0
 11
170.352762144953
 21
119.458344770471
 31
0.0
  0
ENDBLK
  5
    8A
  8
0
  6
CONTINUOUS
 62
     3
  0
ENDSEC
  0
SECTION
  2
ENTITIES
  0
TEXT
  5
    8B
  8
0
  6
CONTINUOUS
 62
     2
 10
398.811240800635
 20
-71.6162676236533
 30
0.0
 40
2.50000000745058
  1
1/1
 41
1.01399993966818
 72
     1
 11
402.301240584791
 21
-70.366267619928
 31
0.0
 73
     2
  0
LINE
  5
    8C
  8
0
  6
DASHDOT
 62
     7
 10
248.027267456055
 20
94.4989166259766
 30
0.0
 11
253.277267456055
 21
94.4989166259766
 31
0.0
  0
LINE
  5
    8D
  8
0
  6
DASHDOT
 62
     7
 10
248.027267456055
 20
128.248916625977
 30
0.0
 11
253.277267456055
 21
128.248916625977
 31
0.0
  0
LINE
  5
    8E
  8
0
  6
DASHDOT
 62
     7
 10
217.367549557326
 20
111.373916625977
 30
0.0
 11
363.319632054726
 21
111.373916625977
 31
0.0
  0
INSERT
  5
    8F
  8
0
  6
CONTINUOUS
 62
     3
  2
*UDIM648
 10
0.0
 20
0.0
 30
0.0
  0
INSERT
  5
    90
  8
0
  6
CONTINUOUS
 62
     7
  2
*UDIM649
 10
0.0
 20
0.0
 30
0.0
  0
INSERT
  5
    91
  8
0
  6
CONTINUOUS
 62
     7
  2
*UDIM650
 10
0.0
 20
0.0
 30
0.0
  0
TEXT
  5
    92
  8
0
  6
CONTINUOUS
 62
     2
 10
213.81161278088
 20
109.747849141851
 30
0.0
 40
3.00000013411045
  1
X
 41
0.983333308994771
 72
     2
 11
216.011612806212
 21
111.247849208907
 31
0.0
 73
     2
  0
LINE
  5
    93
  8
0
  6
DASHDOT
 62
     7
 10
210.514904193437
 20
157.873916625977
 30
0.0
 11
263.547872893751
 21
157.873916625977
 31
0.0
  0
LINE
  5
    94
  8
0
  6
DASHDOT
 62
     7
 10
195.527267456055
 20
165.373916625977
 30
0.0
 11
246.527267456055
 21
165.373916625977
 31
0.0
  0
LINE
  5
    95
  8
0
  6
CONTINUOUS
 62
     7
 10
246.527267456055
 20
75.3739166259766
 30
0.0
 11
246.527267456055
 21
86.2489166259766
 31
0.0
  0
LINE
  5
    96
  8
0
  6
CONTINUOUS
 62
     7
 10
246.527267456055
 20
86.2489166259766
 30
0.0
 11
250.277267456055
 21
86.2489166259766
 31
0.0
  0
LINE
  5
    97
  8
0
  6
DASHDOT
 62
     7
 10
248.027267456055
 20
94.4989166259766
 30
0.0
 11
253.277267456055
 21
94.4989166259766
 31
0.0
  0
LINE
  5
    98
  8
0
  6
DASHDOT
 62
     7
 10
253.277267456055
 20
94.4989166259766
 30
0.0
 11
253.277267456055
 21
128.248916625977
 31
0.0
  0
LINE
  5
    99
  8
0
  6
DASHDOT
 62
     7
 10
248.027267456055
 20
128.248916625977
 30
0.0
 11
253.277267456055
 21
128.248916625977
 31
0.0
  0
LINE
  5
    9A
  8
0
  6
DASHDOT
 62
     7
 10
246.527267456055
 20
154.498916625977
 30
0.0
 11
246.527267456055
 21
165.373916625977
 31
0.0
  0
LINE
  5
    9B
  8
0
  6
DASHDOT
 62
     7
 10
246.527267456055
 20
154.498916625977
 30
0.0
 11
250.277267456055
 21
154.498916625977
 31
0.0
  0
LINE
  5
    9C
  8
0
  6
DASHDOT
 62
     7
 10
210.723695408793
 20
82.8739166259766
 30
0.0
 11
263.495675089912
 21
82.8739166259766
 31
0.0
  0
LINE
  5
    9D
  8
0
  6
CONTINUOUS
 62
     7
 10
198.152267456055
 20
157.873916625977
 30
0.0
 11
246.527267456055
 21
157.873916625977
 31
0.0
  0
LINE
  5
    9E
  8
0
  6
CONTINUOUS
 62
     7
 10
198.152267456055
 20
82.8739166259766
 30
0.0
 11
246.527267456055
 21
82.8739166259766
 31
0.0
  0
LINE
  5
    9F
  8
0
  6
DASHDOT
 62
     7
 10
253.277267456055
 20
103.848242106549
 30
0.0
 11
263.795664055695
 21
100.240241194113
 31
0.0
  0
LINE
  5
    A0
  8
0
  6
DASHDOT
 62
     7
 10
263.292724427853
 20
97.6182580935146
 30
0.0
 11
264.028703537389
 21
99.7638562657498
 31
0.0
  0
LINE
  5
    A1
  8
0
  6
DASHDOT
 62
     7
 10
253.277267456055
 20
100.131728384695
 30
0.0
 11
262.834239396655
 21
97.3795751584385
 31
0.0
  0
ARC
  5
    A2
  8
0
  6
CONTINUOUS
 62
     7
 10
262.938012222824
 20
97.7399308168496
 30
0.0
 40
0.375
 50
253.93500945401
 51
341.067101455313
  0
ARC
  5
    A3
  8
0
  6
CONTINUOUS
 62
     7
 10
263.67399133236
 20
99.8855289890847
 30
0.0
 40
0.375
 50
341.067101455313
 51
431.067101455313
  0
ARC
  5
    A4
  8
0
  6
CONTINUOUS
 62
     7
 10
265.272256284846
 20
117.172464012004
 30
0.0
 40
0.375
 50
280.243585838936
 51
370.243585838936
  0
LINE
  5
    A5
  8
0
  6
CONTINUOUS
 62
     7
 10
258.527267456055
 20
88.8387843870952
 30
0.0
 11
258.527267456055
 21
118.772005245387
 31
0.0
  0
LINE
  5
    A6
  8
0
  6
CONTINUOUS
 62
     7
 10
260.027267456055
 20
88.8387843870952
 30
0.0
 11
260.027267456055
 21
118.772005245387
 31
0.0
  0
LINE
  5
    A7
  8
0
  6
CONTINUOUS
 62
     7
 10
269.252267456055
 20
90.1522039672277
 30
0.0
 11
269.252267456055
 21
122.501774483711
 31
0.0
  0
LINE
  5
    A8
  8
0
  6
CONTINUOUS
 62
     7
 10
271.277267456055
 20
95.9408483093818
 30
0.0
 11
271.277267456055
 21
98.9408483093817
 31
0.0
  0
LINE
  5
    A9
  8
0
  6
CONTINUOUS
 62
     7
 10
270.902267456055
 20
95.5658483093817
 30
0.0
 11
271.277267456055
 21
95.9408483093817
 31
0.0
  0
LINE
  5
    AA
  8
0
  6
CONTINUOUS
 62
     7
 10
270.902267456055
 20
99.3158483093818
 30
0.0
 11
271.277267456055
 21
98.9408483093818
 31
0.0
  0
LINE
  5
    AB
  8
0
  6
CONTINUOUS
 62
     7
 10
267.752267456055
 20
90.1522039672277
 30
0.0
 11
267.752267456055
 21
121.361496431406
 31
0.0
  0
LINE
  5
    AC
  8
0
  6
CONTINUOUS
 62
     7
 10
270.902267456055
 20
95.5658483093818
 30
0.0
 11
270.902267456055
 21
99.3158483093818
 31
0.0
  0
LINE
  5
    AD
  8
0
  6
CONTINUOUS
 62
     7
 10
271.502267456055
 20
122.126774483711
 30
0.0
 11
271.502267456055
 21
133.159048864858
 31
0.0
  0
LINE
  5
    AE
  8
0
  6
CONTINUOUS
 62
     7
 10
271.502267456055
 20
87.3739166259764
 30
0.0
 11
271.502267456055
 21
110.876774483711
 31
0.0
  0
LINE
  5
    AF
  8
0
  6
CONTINUOUS
 62
     7
 10
326.173934950162
 20
112.753916625977
 30
0.0
 11
354.302267456055
 21
112.753916625977
 31
0.0
  0
LINE
  5
    B0
  8
0
  6
CONTINUOUS
 62
     7
 10
198.772054879263
 20
81.3739166259766
 30
0.0
 11
247.652267456055
 21
81.3739166259766
 31
0.0
  0
LINE
  5
    B1
  8
0
  6
CONTINUOUS
 62
     7
 10
198.397054879263
 20
83.9989166259766
 30
0.0
 11
198.772054879263
 21
84.3739166259766
 31
0.0
  0
LINE
  5
    B2
  8
0
  6
CONTINUOUS
 62
     7
 10
198.397054879263
 20
81.7489166259766
 30
0.0
 11
198.397054879263
 21
83.9989166259766
 31
0.0
  0
LINE
  5
    B3
  8
0
  6
CONTINUOUS
 62
     7
 10
198.397054879263
 20
81.7489166259765
 30
0.0
 11
198.772054879263
 21
81.3739166259765
 31
0.0
  0
LINE
  5
    B4
  8
0
  6
CONTINUOUS
 62
     7
 10
209.647054879263
 20
81.3739166259766
 30
0.0
 11
209.647054879263
 21
84.3739166259766
 31
0.0
  0
LINE
  5
    B5
  8
0
  6
DASHDOT
 62
     7
 10
195.527267456055
 20
75.3739166259766
 30
0.0
 11
246.527267456055
 21
75.3739166259766
 31
0.0
  0
LINE
  5
    B6
  8
0
  6
DASHDOT
 62
     7
 10
255.657749947763
 20
97.4422971222844
 30
0.0
 11
272.412912109974
 21
97.4422971222844
 31
0.0
  0
LINE
  5
    B7
  8
0
  6
CONTINUOUS
 62
     7
 10
258.527267456055
 20
103.303327387525
 30
0.0
 11
260.027267456055
 21
103.303327387525
 31
0.0
  0
LINE
  5
    B8
  8
0
  6
CONTINUOUS
 62
     7
 10
267.752267456055
 20
109.001774483711
 30
0.0
 11
269.252267456055
 21
109.001774483711
 31
0.0
  0
LINE
  5
    B9
  8
0
  6
CONTINUOUS
 62
     7
 10
258.527267456055
 20
88.8387843870952
 30
0.0
 11
260.027267456055
 21
88.8387843870952
 31
0.0
  0
LINE
  5
    BA
  8
0
  6
CONTINUOUS
 62
     7
 10
258.527267456055
 20
88.8387843870952
 30
0.0
 11
260.027267456055
 21
88.8387843870952
 31
0.0
  0
LINE
  5
    BB
  8
0
  6
CONTINUOUS
 62
     7
 10
355.802267456055
 20
114.253916625977
 30
0.0
 11
355.802267456055
 21
118.753916625977
 31
0.0
  0
LINE
  5
    BC
  8
0
  6
CONTINUOUS
 62
     7
 10
354.302267456055
 20
120.253916625977
 30
0.0
 11
355.802267456055
 21
118.753916625977
 31
0.0
  0
LINE
  5
    BD
  8
0
  6
CONTINUOUS
 62
     7
 10
354.302267456055
 20
112.753916625976
 30
0.0
 11
355.802267456055
 21
114.253916625977
 31
0.0
  0
LINE
  5
    BE
  8
0
  6
CONTINUOUS
 62
     7
 10
269.777267456055
 20
95.5658483093818
 30
0.0
 11
270.902267456055
 21
95.5658483093818
 31
0.0
  0
LINE
  5
    BF
  8
0
  6
CONTINUOUS
 62
     7
 10
269.777267456055
 20
99.3158483093818
 30
0.0
 11
270.902267456055
 21
99.3158483093818
 31
0.0
  0
LINE
  5
    C0
  8
0
  6
CONTINUOUS
 62
     7
 10
279.752267456055
 20
119.503916625977
 30
0.0
 11
279.752267456055
 21
120.253916625977
 31
0.0
  0
LINE
  5
    C1
  8
0
  6
CONTINUOUS
 62
     7
 10
326.173934950162
 20
120.253916625977
 30
0.0
 11
354.302267456055
 21
120.253916625977
 31
0.0
  0
LINE
  5
    C2
  8
0
  6
CONTINUOUS
 62
     7
 10
279.752267456055
 20
110.501774483711
 30
0.0
 11
279.752267456055
 21
122.501774483711
 31
0.0
  0
LINE
  5
    C3
  8
0
  6
DASHDOT
 62
     7
 10
264.501563632134
 20
116.503916625977
 30
0.0
 11
358.853050634372
 21
116.503916625977
 31
0.0
  0
LINE
  5
    C4
  8
0
  6
CONTINUOUS
 62
     7
 10
260.027267456055
 20
108.272005245387
 30
0.0
 11
267.752267456055
 21
108.272005245387
 31
0.0
  0
LINE
  5
    C5
  8
0
  6
CONTINUOUS
 62
     7
 10
260.027267456055
 20
117.272005245387
 30
0.0
 11
266.161277198385
 21
117.272005245387
 31
0.0
  0
LINE
  5
    C6
  8
0
  6
CONTINUOUS
 62
     7
 10
261.527267456055
 20
108.272005245387
 30
0.0
 11
261.527267456055
 21
117.272005245387
 31
0.0
  0
LINE
  5
    C7
  8
0
  6
CONTINUOUS
 62
     7
 10
272.627267456055
 20
90.5239166259766
 30
0.0
 11
272.627267456055
 21
109.003916625977
 31
0.0
  0
LINE
  5
    C8
  8
0
  6
CONTINUOUS
 62
     7
 10
272.627267456055
 20
122.126774483711
 30
0.0
 11
272.627267456055
 21
133.159048864858
 31
0.0
  0
LINE
  5
    C9
  8
0
  6
CONTINUOUS
 62
     7
 10
260.027267456055
 20
94.4422971222844
 30
0.0
 11
267.752267456055
 21
94.4422971222844
 31
0.0
  0
LINE
  5
    CA
  8
0
  6
CONTINUOUS
 62
     7
 10
260.027267456055
 20
100.442297122284
 30
0.0
 11
267.752267456055
 21
100.442297122284
 31
0.0
  0
ARC
  5
    CB
  8
0
  6
CONTINUOUS
 62
     7
 10
327.204403209342
 20
116.503916625977
 30
0.0
 40
27.3561098611126
 50
352.12103482032
 51
367.87896517968
  0
LINE
  5
    CC
  8
0
  6
CONTINUOUS
 62
     7
 10
198.397054879263
 20
81.7489166259766
 30
0.0
 11
209.647054879263
 21
81.7489166259766
 31
0.0
  0
LINE
  5
    CD
  8
0
  6
CONTINUOUS
 62
     7
 10
198.772054879263
 20
81.3739166259766
 30
0.0
 11
198.772054879263
 21
84.3739166259766
 31
0.0
  0
ARC
  5
    CE
  8
0
  6
CONTINUOUS
 62
     7
 10
260.214767456055
 20
97.4422971222844
 30
0.0
 40
2.8125
 50
126.869897645844
 51
233.130102354156
  0
LINE
  5
    CF
  8
0
  6
DASHDOT
 62
     7
 10
257.574928388171
 20
112.772005245387
 30
0.0
 11
263.606597837718
 21
112.772005245387
 31
0.0
  0
ARC
  5
    D0
  8
0
  6
CONTINUOUS
 62
     7
 10
260.214767456055
 20
112.707173769202
 30
0.0
 40
2.8125
 50
126.869897645844
 51
233.130102354156
  0
LINE
  5
    D1
  8
0
  6
CONTINUOUS
 62
     7
 10
269.777267456055
 20
120.253916625977
 30
0.0
 11
282.152267456055
 21
120.253916625977
 31
0.0
  0
LINE
  5
    D2
  8
0
  6
CONTINUOUS
 62
     7
 10
269.777267456055
 20
112.753916625977
 30
0.0
 11
282.152267456055
 21
112.753916625977
 31
0.0
  0
LINE
  5
    D3
  8
0
  6
CONTINUOUS
 62
     7
 10
267.286277198385
 20
118.003916625977
 30
0.0
 11
267.752267456055
 21
118.003916625977
 31
0.0
  0
LINE
  5
    D4
  8
0
  6
CONTINUOUS
 62
     7
 10
266.95677232722
 20
119.924411754811
 30
0.0
 11
267.752267456055
 21
119.128916625977
 31
0.0
  0
LINE
  5
    D5
  8
0
  6
CONTINUOUS
 62
     7
 10
266.161277198385
 20
119.128916625977
 30
0.0
 11
267.286277198385
 21
118.003916625977
 31
0.0
  0
LINE
  5
    D6
  8
0
  6
CONTINUOUS
 62
     7
 10
266.161277198385
 20
119.128916625977
 30
0.0
 11
266.95677232722
 21
119.924411754811
 31
0.0
  0
LINE
  5
    D7
  8
0
  6
CONTINUOUS
 62
     7
 10
266.95677232722
 20
113.083421497142
 30
0.0
 11
267.752267456055
 21
113.878916625977
 31
0.0
  0
LINE
  5
    D8
  8
0
  6
CONTINUOUS
 62
     7
 10
266.161277198385
 20
113.878916625977
 30
0.0
 11
266.95677232722
 21
113.083421497142
 31
0.0
  0
LINE
  5
    D9
  8
0
  6
CONTINUOUS
 62
     7
 10
266.161277198385
 20
113.878916625977
 30
0.0
 11
267.286277198385
 21
115.003916625977
 31
0.0
  0
LINE
  5
    DA
  8
0
  6
CONTINUOUS
 62
     7
 10
267.286277198385
 20
115.003916625977
 30
0.0
 11
267.752267456055
 21
115.003916625977
 31
0.0
  0
LINE
  5
    DB
  8
0
  6
CONTINUOUS
 62
     7
 10
266.161277198385
 20
113.878916625977
 30
0.0
 11
266.161277198385
 21
119.128916625977
 31
0.0
  0
LINE
  5
    DC
  8
0
  6
CONTINUOUS
 62
     7
 10
267.286277198385
 20
115.003916625977
 30
0.0
 11
267.286277198385
 21
118.003916625977
 31
0.0
  0
INSERT
  5
    DD
  8
0
  6
CONTINUOUS
 62
     7
  2
*HATCH205
 10
252.902267456055
 20
109.498916625977
 30
0.0
 41
0.75
 42
0.75
 43
0.75
  0
LINE
  5
    DE
  8
0
  6
CONTINUOUS
 62
     7
 10
198.397054879263
 20
83.9989166259766
 30
0.0
 11
209.647054879263
 21
83.9989166259766
 31
0.0
  0
LINE
  5
    DF
  8
0
  6
CONTINUOUS
 62
     7
 10
198.772054879263
 20
84.3739166259766
 30
0.0
 11
247.652267456055
 21
84.3739166259766
 31
0.0
  0
LINE
  5
    E0
  8
0
  6
CONTINUOUS
 62
     7
 10
248.027267456055
 20
79.8739166259766
 30
0.0
 11
248.027267456055
 21
85.8739166259764
 31
0.0
  0
LINE
  5
    E1
  8
0
  6
CONTINUOUS
 62
     7
 10
250.277267456055
 20
80.6239166259766
 30
0.0
 11
250.277267456055
 21
85.1239166259765
 31
0.0
  0
LINE
  5
    E2
  8
0
  6
CONTINUOUS
 62
     7
 10
247.652267456055
 20
85.8739166259764
 30
0.0
 11
249.527267456055
 21
85.8739166259764
 31
0.0
  0
LINE
  5
    E3
  8
0
  6
CONTINUOUS
 62
     7
 10
247.416725659309
 20
79.8739166259766
 30
0.0
 11
249.527267456055
 21
79.8739166259766
 31
0.0
  0
LINE
  5
    E4
  8
0
  6
CONTINUOUS
 62
     7
 10
251.402267456055
 20
136.534048864858
 30
0.0
 11
251.402267456055
 21
154.123916625977
 31
0.0
  0
LINE
  5
    E5
  8
0
  6
CONTINUOUS
 62
     7
 10
250.277267456055
 20
136.534048864858
 30
0.0
 11
250.277267456055
 21
154.123916625977
 31
0.0
  0
LINE
  5
    E6
  8
0
  6
CONTINUOUS
 62
     7
 10
272.627267456055
 20
87.3739166259764
 30
0.0
 11
272.627267456055
 21
110.876774483711
 31
0.0
  0
LINE
  5
    E7
  8
0
  6
CONTINUOUS
 62
     7
 10
252.527267456055
 20
135.409048864858
 30
0.0
 11
270.377267456055
 21
135.409048864858
 31
0.0
  0
LINE
  5
    E8
  8
0
  6
CONTINUOUS
 62
     7
 10
252.527267456055
 20
134.284048864858
 30
0.0
 11
270.377267456055
 21
134.284048864858
 31
0.0
  0
ARC
  5
    E9
  8
0
  6
CONTINUOUS
 62
     7
 10
270.377267456055
 20
133.159048864858
 30
0.0
 40
1.125
 50
0.0
 51
90.0
  0
ARC
  5
    EA
  8
0
  6
CONTINUOUS
 62
     7
 10
252.527267456055
 20
136.534048864858
 30
0.0
 40
1.125
 50
180.0
 51
270.0
  0
ARC
  5
    EB
  8
0
  6
CONTINUOUS
 62
     7
 10
270.377267456055
 20
133.159048864858
 30
0.0
 40
2.25
 50
0.0
 51
90.0
  0
ARC
  5
    EC
  8
0
  6
CONTINUOUS
 62
     7
 10
252.527267456055
 20
136.534048864858
 30
0.0
 40
2.25
 50
180.0
 51
270.0
  0
LINE
  5
    ED
  8
0
  6
CONTINUOUS
 62
     7
 10
250.277267456055
 20
138.600519231111
 30
0.0
 11
251.402267456055
 21
138.600519231111
 31
0.0
  0
LINE
  5
    EE
  8
0
  6
CONTINUOUS
 62
     7
 10
246.527267456055
 20
155.998916625977
 30
0.0
 11
246.527267456055
 21
156.373916625977
 31
0.0
  0
LINE
  5
    EF
  8
0
  6
CONTINUOUS
 62
     7
 10
247.652267456055
 20
155.998916625977
 30
0.0
 11
247.652267456055
 21
160.873916625976
 31
0.0
  0
LINE
  5
    F0
  8
0
  6
CONTINUOUS
 62
     7
 10
248.027267456055
 20
154.498916625977
 30
0.0
 11
249.902267456055
 21
154.498916625977
 31
0.0
  0
ARC
  5
    F1
  8
0
  6
CONTINUOUS
 62
     7
 10
249.902267456055
 20
154.123916625977
 30
0.0
 40
0.375
 50
0.0
 51
90.0
  0
ARC
  5
    F2
  8
0
  6
CONTINUOUS
 62
     7
 10
248.027267456055
 20
155.998916625977
 30
0.0
 40
1.5
 50
180.0
 51
270.0
  0
ARC
  5
    F3
  8
0
  6
CONTINUOUS
 62
     7
 10
249.902267456055
 20
154.123916625977
 30
0.0
 40
1.5
 50
0.0
 51
75.5224878140701
  0
LINE
  5
    F4
  8
0
  6
CONTINUOUS
 62
     7
 10
246.527267456055
 20
79.8739166259764
 30
0.0
 11
246.527267456055
 21
81.3739166259766
 31
0.0
  0
LINE
  5
    F5
  8
0
  6
CONTINUOUS
 62
     7
 10
247.652267456055
 20
79.8739166259764
 30
0.0
 11
247.652267456055
 21
85.8739166259764
 31
0.0
  0
ARC
  5
    F6
  8
0
  6
CONTINUOUS
 62
     7
 10
248.027267456055
 20
84.7489166259764
 30
0.0
 40
1.5
 50
90.0000000000001
 51
180.0
  0
LINE
  5
    F7
  8
0
  6
CONTINUOUS
 62
     7
 10
248.027267456055
 20
86.2489166259764
 30
0.0
 11
270.377267456055
 21
86.2489166259764
 31
0.0
  0
LINE
  5
    F8
  8
0
  6
CONTINUOUS
 62
     7
 10
250.277267456055
 20
85.1239166259764
 30
0.0
 11
270.377267456055
 21
85.1239166259764
 31
0.0
  0
ARC
  5
    F9
  8
0
  6
CONTINUOUS
 62
     7
 10
270.377267456055
 20
87.3739166259764
 30
0.0
 40
1.125
 50
270.0
 51
360.0
  0
ARC
  5
    FA
  8
0
  6
CONTINUOUS
 62
     7
 10
270.377267456055
 20
87.3739166259764
 30
0.0
 40
2.25
 50
270.0
 51
360.0
  0
LINE
  5
    FB
  8
0
  6
DASHDOT
 62
     7
 10
244.727130739765
 20
82.8739166259765
 30
0.0
 11
249.057829334494
 21
82.8739166259765
 31
0.0
  0
LINE
  5
    FC
  8
0
  6
DASHDOT
 62
     7
 10
244.939419886565
 20
157.873916625976
 30
0.0
 11
249.185202822574
 21
157.873916625976
 31
0.0
  0
LINE
  5
    FD
  8
0
  6
CONTINUOUS
 62
     7
 10
246.527267456055
 20
160.873916625976
 30
0.0
 11
247.652267456055
 21
160.873916625976
 31
0.0
  0
LINE
  5
    FE
  8
0
  6
CONTINUOUS
 62
     7
 10
246.527267456055
 20
79.8739166259764
 30
0.0
 11
247.652267456055
 21
79.8739166259764
 31
0.0
  0
LINE
  5
    FF
  8
0
  6
CONTINUOUS
 62
     7
 10
251.402267456055
 20
85.1239166259764
 30
0.0
 11
251.402267456055
 21
86.2489166259764
 31
0.0
  0
ARC
  5
   100
  8
0
  6
CONTINUOUS
 62
     7
 10
249.527267456055
 20
85.1239166259765
 30
0.0
 40
0.75
 50
0.0
 51
90.0
  0
ARC
  5
   101
  8
0
  6
CONTINUOUS
 62
     7
 10
249.527267456055
 20
80.6239166259766
 30
0.0
 40
0.75
 50
270.0
 51
360.0
  0
LINE
  5
   102
  8
0
  6
CONTINUOUS
 62
     7
 10
246.527267456055
 20
84.3739166259766
 30
0.0
 11
246.527267456055
 21
84.7489166259764
 31
0.0
  0
LINE
  5
   103
  8
0
  6
CONTINUOUS
 62
     7
 10
249.527267456055
 20
82.8739166259766
 30
0.0
 11
250.277267456055
 21
83.6239166259766
 31
0.0
  0
LINE
  5
   104
  8
0
  6
CONTINUOUS
 62
     7
 10
249.527267456055
 20
82.8739166259766
 30
0.0
 11
250.277267456055
 21
82.1239166259766
 31
0.0
  0
LINE
  5
   105
  8
0
  6
CONTINUOUS
 62
     7
 10
247.652267456055
 20
154.873916625977
 30
0.0
 11
247.652267456055
 21
160.873916625977
 31
0.0
  0
LINE
  5
   106
  8
0
  6
CONTINUOUS
 62
     7
 10
248.027267456055
 20
154.873916625977
 30
0.0
 11
248.027267456055
 21
160.873916625977
 31
0.0
  0
LINE
  5
   107
  8
0
  6
CONTINUOUS
 62
     7
 10
250.277267456055
 20
155.623916625977
 30
0.0
 11
250.277267456055
 21
160.123916625977
 31
0.0
  0
LINE
  5
   108
  8
0
  6
CONTINUOUS
 62
     7
 10
249.527267456055
 20
157.873916625977
 30
0.0
 11
250.277267456055
 21
157.123916625977
 31
0.0
  0
LINE
  5
   109
  8
0
  6
CONTINUOUS
 62
     7
 10
249.527267456055
 20
157.873916625977
 30
0.0
 11
250.277267456055
 21
158.623916625977
 31
0.0
  0
LINE
  5
   10A
  8
0
  6
CONTINUOUS
 62
     7
 10
250.277267456055
 20
155.623916625977
 30
0.0
 11
250.277267456055
 21
160.123916625977
 31
0.0
  0
ARC
  5
   10B
  8
0
  6
CONTINUOUS
 62
     7
 10
249.527267456055
 20
160.123916625977
 30
0.0
 40
0.75
 50
1.99840144432528E-14
 51
90.0
  0
ARC
  5
   10C
  8
0
  6
CONTINUOUS
 62
     7
 10
249.527267456055
 20
155.623916625977
 30
0.0
 40
0.75
 50
270.0
 51
360.0
  0
LINE
  5
   10D
  8
0
  6
CONTINUOUS
 62
     7
 10
247.416725659309
 20
160.873916625977
 30
0.0
 11
249.527267456055
 21
160.873916625977
 31
0.0
  0
LINE
  5
   10E
  8
0
  6
CONTINUOUS
 62
     7
 10
198.772054879263
 20
156.373916625977
 30
0.0
 11
247.652267456055
 21
156.373916625977
 31
0.0
  0
LINE
  5
   10F
  8
0
  6
CONTINUOUS
 62
     7
 10
198.772054879263
 20
159.373916625977
 30
0.0
 11
247.652267456055
 21
159.373916625977
 31
0.0
  0
LINE
  5
   110
  8
0
  6
CONTINUOUS
 62
     7
 10
209.647054879263
 20
156.373916625977
 30
0.0
 11
209.647054879263
 21
159.373916625977
 31
0.0
  0
LINE
  5
   111
  8
0
  6
CONTINUOUS
 62
     7
 10
198.772054879263
 20
156.373916625977
 30
0.0
 11
198.772054879263
 21
159.373916625977
 31
0.0
  0
LINE
  5
   112
  8
0
  6
CONTINUOUS
 62
     7
 10
198.397054879263
 20
156.748916625977
 30
0.0
 11
198.397054879263
 21
158.998916625977
 31
0.0
  0
LINE
  5
   113
  8
0
  6
CONTINUOUS
 62
     7
 10
198.397054879263
 20
156.748916625977
 30
0.0
 11
198.772054879263
 21
156.373916625977
 31
0.0
  0
LINE
  5
   114
  8
0
  6
CONTINUOUS
 62
     7
 10
198.397054879263
 20
158.998916625977
 30
0.0
 11
198.772054879263
 21
159.373916625977
 31
0.0
  0
LINE
  5
   115
  8
0
  6
CONTINUOUS
 62
     7
 10
198.397054879263
 20
158.998916625977
 30
0.0
 11
209.647054879263
 21
158.998916625977
 31
0.0
  0
LINE
  5
   116
  8
0
  6
CONTINUOUS
 62
     7
 10
247.652267456055
 20
154.873916625977
 30
0.0
 11
249.527267456055
 21
154.873916625977
 31
0.0
  0
LINE
  5
   117
  8
0
  6
CONTINUOUS
 62
     7
 10
269.252267456055
 20
122.501774483711
 30
0.0
 11
271.502267456055
 21
122.501774483711
 31
0.0
  0
LINE
  5
   118
  8
0
  6
CONTINUOUS
 62
     7
 10
269.252267456055
 20
110.501774483711
 30
0.0
 11
271.502267456055
 21
110.501774483711
 31
0.0
  0
LINE
  5
   119
  8
0
  6
CONTINUOUS
 62
     7
 10
271.502267456055
 20
122.126774483711
 30
0.0
 11
272.627267456055
 21
122.126774483711
 31
0.0
  0
LINE
  5
   11A
  8
0
  6
CONTINUOUS
 62
     7
 10
271.502267456055
 20
110.876774483711
 30
0.0
 11
272.627267456055
 21
110.876774483711
 31
0.0
  0
LINE
  5
   11B
  8
0
  6
CONTINUOUS
 62
     7
 10
272.627267456055
 20
122.501774483711
 30
0.0
 11
279.752267456055
 21
122.501774483711
 31
0.0
  0
LINE
  5
   11C
  8
0
  6
CONTINUOUS
 62
     7
 10
272.627267456055
 20
110.501774483711
 30
0.0
 11
279.752267456055
 21
110.501774483711
 31
0.0
  0
INSERT
  5
   11D
  8
0
  6
CONTINUOUS
 62
     7
  2
*HATCH206
 10
252.902267456055
 20
109.498916625977
 30
0.0
 41
0.75
 42
0.75
 43
0.75
  0
INSERT
  5
   11E
  8
0
  6
CONTINUOUS
 62
     7
  2
*HATCH207
 10
252.902267456055
 20
109.498916625977
 30
0.0
 41
0.75
 42
0.75
 43
0.75
  0
LINE
  5
   11F
  8
0
  6
CONTINUOUS
 62
     7
 10
246.527267456055
 20
159.373916625977
 30
0.0
 11
246.527267456055
 21
160.873916625976
 31
0.0
  0
INSERT
  5
   120
  8
0
  6
CONTINUOUS
 62
     7
  2
*HATCH208
 10
252.902267456055
 20
109.498916625977
 30
0.0
 41
0.75
 42
0.75
 43
0.75
  0
INSERT
  5
   121
  8
0
  6
CONTINUOUS
 62
     7
  2
*HATCH209
 10
252.902267456055
 20
109.498916625977
 30
0.0
 41
0.75
 42
0.75
 43
0.75
  0
INSERT
  5
   122
  8
0
  6
CONTINUOUS
 62
     7
  2
*HATCH210
 10
252.902267456055
 20
109.498916625977
 30
0.0
 41
0.75
 42
0.75
 43
0.75
  0
INSERT
  5
   123
  8
0
  6
CONTINUOUS
 62
     7
  2
*HATCH211
 10
252.902267456055
 20
109.498916625977
 30
0.0
 41
0.75
 42
0.75
 43
0.75
  0
LINE
  5
   124
  8
0
  6
CONTINUOUS
 62
     7
 10
269.327267456055
 20
94.8158483093817
 30
0.0
 11
269.327267456055
 21
100.065848309382
 31
0.0
  0
LINE
  5
   125
  8
0
  6
CONTINUOUS
 62
     7
 10
269.777267456055
 20
94.8158483093817
 30
0.0
 11
269.777267456055
 21
100.065848309382
 31
0.0
  0
LINE
  5
   126
  8
0
  6
CONTINUOUS
 62
     7
 10
269.327267456055
 20
94.8158483093817
 30
0.0
 11
269.777267456055
 21
94.8158483093817
 31
0.0
  0
LINE
  5
   127
  8
0
  6
CONTINUOUS
 62
     7
 10
269.327267456055
 20
100.065848309382
 30
0.0
 11
269.777267456055
 21
100.065848309382
 31
0.0
  0
LINE
  5
   128
  8
0
  6
CONTINUOUS
 62
     7
 10
267.752267456055
 20
121.361496431406
 30
0.0
 11
269.252267456055
 21
121.361496431406
 31
0.0
  0
LINE
  5
   129
  8
0
  6
CONTINUOUS
 62
     7
 10
267.752267456055
 20
90.1522039672277
 30
0.0
 11
269.252267456055
 21
90.1522039672277
 31
0.0
  0
LINE
  5
   12A
  8
0
  6
CONTINUOUS
 62
     7
 10
258.527267456055
 20
118.772005245387
 30
0.0
 11
260.027267456055
 21
118.772005245387
 31
0.0
  0
LINE
  5
   12B
  8
0
  6
DASHDOT
 62
     7
 10
195.527267456055
 20
75.3739166259766
 30
0.0
 11
195.527267456055
 21
165.373916625977
 31
0.0
  0
LINE
  5
   12C
  8
0
  6
DASHDOT
 62
     7
 10
248.027267456055
 20
128.248916625977
 30
0.0
 11
248.027267456055
 21
154.873916625977
 31
0.0
  0
LINE
  5
   12D
  8
0
  6
DASHDOT
 62
     7
 10
248.027267456055
 20
86.2489166259764
 30
0.0
 11
248.027267456055
 21
94.4989166259766
 31
0.0
  0
LINE
  5
   12E
  8
0
  6
DOT
 62
     7
 10
282.152267456055
 20
112.753916625977
 30
0.0
 11
316.652267456055
 21
112.753916625977
 31
0.0
  0
LINE
  5
   12F
  8
0
  6
DOT
 62
     7
 10
282.152267456055
 20
120.253916625977
 30
0.0
 11
316.652267456055
 21
120.253916625977
 31
0.0
  0
LINE
  5
   130
  8
0
  6
CONTINUOUS
 62
     7
 10
282.152267456055
 20
106.753916625977
 30
0.0
 11
282.152267456055
 21
125.878916625977
 31
0.0
  0
LINE
  5
   131
  8
0
  6
CONTINUOUS
 62
     7
 10
316.652267456055
 20
106.753916625977
 30
0.0
 11
316.652267456055
 21
125.878916625977
 31
0.0
  0
LINE
  5
   132
  8
0
  6
CONTINUOUS
 62
     7
 10
282.152267456055
 20
106.753916625977
 30
0.0
 11
316.652267456055
 21
106.753916625977
 31
0.0
  0
LINE
  5
   133
  8
0
  6
CONTINUOUS
 62
     7
 10
282.152267456055
 20
125.878916625977
 30
0.0
 11
297.902267456055
 21
125.878916625977
 31
0.0
  0
LINE
  5
   134
  8
0
  6
CONTINUOUS
 62
     7
 10
299.402267456055
 20
120.253916625977
 30
0.0
 11
299.402267456055
 21
125.878916625977
 31
0.0
  0
LINE
  5
   135
  8
0
  6
CONTINUOUS
 62
     7
 10
297.902267456055
 20
120.253916625977
 30
0.0
 11
297.902267456055
 21
125.878916625977
 31
0.0
  0
LINE
  5
   136
  8
0
  6
CONTINUOUS
 62
     7
 10
297.902267456055
 20
120.253916625977
 30
0.0
 11
299.402267456055
 21
120.253916625977
 31
0.0
  0
LINE
  5
   137
  8
0
  6
CONTINUOUS
 62
     7
 10
299.402267456055
 20
125.878916625977
 30
0.0
 11
316.652267456055
 21
125.878916625977
 31
0.0
  0
LINE
  5
   138
  8
0
  6
DASHDOT
 62
     7
 10
312.902267456055
 20
117.476213677562
 30
0.0
 11
312.902267456055
 21
127.425829344684
 31
0.0
  0
LINE
  5
   139
  8
0
  6
DASHDOT
 62
     7
 10
304.652267456055
 20
117.476213677562
 30
0.0
 11
304.652267456055
 21
127.331071100235
 31
0.0
  0
LINE
  5
   13A
  8
0
  6
DASHDOT
 62
     7
 10
290.402267456055
 20
117.476213677562
 30
0.0
 11
290.402267456055
 21
127.425829344684
 31
0.0
  0
LINE
  5
   13B
  8
0
  6
DASHDOT
 62
     7
 10
282.902267456055
 20
122.128916625977
 30
0.0
 11
320.402267456055
 21
122.128916625977
 31
0.0
  0
ARC
  5
   13C
  8
0
  6
DOT
 62
     7
 10
270.054403209342
 20
116.503916625977
 30
0.0
 40
27.3561098611126
 50
352.12103482032
 51
367.87896517968
  0
LINE
  5
   13D
  8
0
  6
DOT
 62
     7
 10
297.152267456055
 20
120.253916625977
 30
0.0
 11
298.652267456055
 21
118.753916625977
 31
0.0
  0
LINE
  5
   13E
  8
0
  6
DOT
 62
     7
 10
298.652267456055
 20
114.253916625977
 30
0.0
 11
298.652267456055
 21
118.753916625977
 31
0.0
  0
LINE
  5
   13F
  8
0
  6
DOT
 62
     7
 10
297.152267456055
 20
112.753916625977
 30
0.0
 11
298.652267456055
 21
114.253916625977
 31
0.0
  0
LINE
  5
   140
  8
0
  6
DASHDOT
 62
     7
 10
295.652267456055
 20
107.975938715125
 30
0.0
 11
295.652267456055
 21
124.762148540939
 31
0.0
  0
LINE
  5
   141
  8
0
  6
DASHDOT
 62
     7
 10
288.152267456055
 20
116.503916625977
 30
0.0
 11
303.152267456055
 21
116.503916625977
 31
0.0
  0
LINE
  5
   142
  8
0
  6
DOT
 62
     7
 10
296.964767456055
 20
109.003916625977
 30
0.0
 11
296.964767456055
 21
112.753916625977
 31
0.0
  0
LINE
  5
   143
  8
0
  6
DOT
 62
     7
 10
294.339767456055
 20
109.753916625977
 30
0.0
 11
294.339767456055
 21
112.753916625977
 31
0.0
  0
LINE
  5
   144
  8
0
  6
DOT
 62
     7
 10
294.339767456055
 20
123.253916625977
 30
0.0
 11
296.964767456055
 21
123.253916625977
 31
0.0
  0
LINE
  5
   145
  8
0
  6
DOT
 62
     7
 10
294.339767456055
 20
109.753916625977
 30
0.0
 11
296.964767456055
 21
109.753916625977
 31
0.0
  0
ARC
  5
   146
  8
0
  6
DOT
 62
     7
 10
295.652267456055
 20
122.480479125977
 30
0.0
 40
1.52343750000005
 50
30.510237406119
 51
149.489762593883
  0
ARC
  5
   147
  8
0
  6
DOT
 62
     7
 10
295.652267456055
 20
110.527354125977
 30
0.0
 40
1.52343749999998
 50
210.510237406113
 51
329.489762593884
  0
LINE
  5
   148
  8
0
  6
DOT
 62
     7
 10
282.152267456055
 20
109.003916625977
 30
0.0
 11
296.964767456055
 21
109.003916625977
 31
0.0
  0
LINE
  5
   149
  8
0
  6
DOT
 62
     7
 10
282.152267456055
 20
124.003916625977
 30
0.0
 11
296.964767456055
 21
124.003916625977
 31
0.0
  0
ARC
  5
   14A
  8
0
  6
DOT
 62
     7
 10
327.250131702767
 20
116.503916625977
 30
0.0
 40
27.3561098611126
 50
172.12103482032
 51
187.87896517968
  0
LINE
  5
   14B
  8
0
  6
DOT
 62
     7
 10
298.652267456055
 20
118.753916625977
 30
0.0
 11
300.152267456055
 21
120.253916625977
 31
0.0
  0
LINE
  5
   14C
  8
0
  6
DOT
 62
     7
 10
298.652267456055
 20
114.253916625977
 30
0.0
 11
298.652267456055
 21
118.753916625977
 31
0.0
  0
LINE
  5
   14D
  8
0
  6
DOT
 62
     7
 10
298.652267456055
 20
114.253916625977
 30
0.0
 11
300.152267456055
 21
112.753916625977
 31
0.0
  0
LINE
  5
   14E
  8
0
  6
CONTINUOUS
 62
     7
 10
326.173934950162
 20
109.727543218688
 30
0.0
 11
326.173934950162
 21
124.470214457012
 31
0.0
  0
LINE
  5
   14F
  8
0
  6
CONTINUOUS
 62
     7
 10
324.568297488562
 20
109.143675050834
 30
0.0
 11
324.568297488562
 21
124.032313331121
 31
0.0
  0
LINE
  5
   150
  8
0
  6
CONTINUOUS
 62
     7
 10
316.652267456055
 20
120.253916625977
 30
0.0
 11
324.568297488562
 21
120.253916625977
 31
0.0
  0
LINE
  5
   151
  8
0
  6
CONTINUOUS
 62
     7
 10
316.652267456055
 20
112.753916625977
 30
0.0
 11
324.568297488562
 21
112.753916625977
 31
0.0
  0
LINE
  5
   152
  8
0
  6
DOT
 62
     7
 10
294.339767456055
 20
120.253916625977
 30
0.0
 11
294.339767456055
 21
123.253916625977
 31
0.0
  0
LINE
  5
   153
  8
0
  6
DOT
 62
     7
 10
296.964767456055
 20
120.253916625977
 30
0.0
 11
296.964767456055
 21
124.003916625977
 31
0.0
  0
CIRCLE
  5
   154
  8
0
  6
CONTINUOUS
 62
     7
 10
304.652267456055
 20
122.128916625977
 30
0.0
 40
2.625
  0
LINE
  5
   155
  8
0
  6
CONTINUOUS
 62
     7
 10
302.549985106022
 20
120.556964361834
 30
0.0
 11
306.224219720197
 21
124.231198976009
 31
0.0
  0
LINE
  5
   156
  8
0
  6
CONTINUOUS
 62
     7
 10
303.080315191912
 20
120.026634275944
 30
0.0
 11
306.754549806087
 21
123.700868890119
 31
0.0
  0
CIRCLE
  5
   157
  8
0
  6
CONTINUOUS
 62
     7
 10
290.402267456055
 20
122.128916625977
 30
0.0
 40
2.625
  0
LINE
  5
   158
  8
0
  6
CONTINUOUS
 62
     7
 10
288.299985106022
 20
120.556964361834
 30
0.0
 11
291.974219720197
 21
124.231198976009
 31
0.0
  0
LINE
  5
   159
  8
0
  6
CONTINUOUS
 62
     7
 10
288.830315191912
 20
120.026634275944
 30
0.0
 11
292.504549806087
 21
123.700868890119
 31
0.0
  0
CIRCLE
  5
   15A
  8
0
  6
CONTINUOUS
 62
     7
 10
312.902267456055
 20
122.128916625977
 30
0.0
 40
2.625
  0
LINE
  5
   15B
  8
0
  6
CONTINUOUS
 62
     7
 10
310.799985106022
 20
120.556964361834
 30
0.0
 11
314.474219720197
 21
124.231198976009
 31
0.0
  0
LINE
  5
   15C
  8
0
  6
CONTINUOUS
 62
     7
 10
311.330315191912
 20
120.026634275944
 30
0.0
 11
315.004549806087
 21
123.700868890119
 31
0.0
  0
CIRCLE
  5
   15D
  8
0
  6
CONTINUOUS
 62
     7
 10
351.302267456055
 20
116.503916625977
 30
0.0
 40
1.5
  0
CIRCLE
  5
   15E
  8
0
  6
CONTINUOUS
 62
     7
 10
351.302267456055
 20
116.503916625977
 30
0.0
 40
1.125
  0
TEXT
  5
   15F
  8
0
  6
CONTINUOUS
 62
     2
 10
340.186629736601
 20
-43.060688091569
 30
0.0
 40
2.0000000372529
  1
ROTARY HANDLE OPERATING MECHANISM FOR
 41
0.625
 72
     1
 11
363.186630165009
 21
-42.0606880729425
 31
0.0
 73
     2
  0
TEXT
  5
   160
  8
0
  6
CONTINUOUS
 62
     2
 10
331.43662993238
 20
-46.0606880915688
 30
0.0
 40
2.20000002533197
  1
SWITCHBOARDH CSR-MNS 3-4 POLE M.C.C.B SERIES ISOMAX
 41
0.568181832251716
 72
     1
 11
363.186631075367
 21
-44.9606880789028
 31
0.0
 73
     2
  0
TEXT
  5
   161
  8
0
  6
CONTINUOUS
 62
     2
 10
333.690597522372
 20
-50.3144285715028
 30
0.0
 40
2.20000002533197
  1
COMANDO PER MANIGLIA ROTANTE PER QUADRI CSR-MNS
 41
0.568181832251716
 72
     1
 11
362.940598574665
 21
-49.2144285588368
 31
0.0
 73
     2
  0
TEXT
  5
   162
  8
0
  6
CONTINUOUS
 62
     2
 10
336.190598617598
 20
-53.5144283807678
 30
0.0
 40
2.20000002533197
  1
PER INTERRUTTORE SERIE ISOMAX TRIP.-TETRAP.
 41
0.568181832251716
 72
     1
 11
362.940599579198
 21
-52.4144283681018
 31
0.0
 73
     2
  0
TEXT
  5
   163
  8
0
  6
CONTINUOUS
 62
     2
 10
237.945090417079
 20
-41.675088124637
 30
0.0
 40
2.0000000372529
  1
98/02/02
 41
0.75
 72
     1
 11
243.695090524181
 21
-40.6750881060105
 31
0.0
 73
     2
  0
TEXT
  5
   164
  8
0
  6
CONTINUOUS
 62
     2
 10
237.438769435857
 20
-44.9647550667403
 30
0.0
 40
2.0000000372529
  1
MAZZOLENI
 41
0.75
 72
     1
 11
243.938769556929
 21
-43.9647550481139
 31
0.0
 73
     2
  0
TEXT
  5
   165
  8
0
  6
CONTINUOUS
 62
     2
 10
357.708618048579
 20
-61.3919106051326
 30
0.0
 40
3.50000010430813
  1
S1-S2
 41
0.878571417076247
 72
     1
 11
364.958618164063
 21
-59.6419105529785
 31
0.0
 73
     2
  0
TEXT
  5
   166
  8
0
  6
CONTINUOUS
 62
     2
 10
336.297020060942
 20
-70.326278693974
 30
0.0
 40
5.00000001490116
  1
601855/163
 41
0.983334038456279
 72
     1
 11
360.25537109375
 21
-67.8262786865234
 31
0.0
 73
     2
  0
TEXT
  5
   167
  8
0
  6
CONTINUOUS
 62
     2
 10
365.820445331114
 20
110.385477188029
 30
0.0
 40
3.00000013411045
  1
X
 41
0.983333308994771
 72
     1
 11
366.92044534378
 21
111.885477255084
 31
0.0
 73
     2
  0
INSERT
  5
   168
  8
0
  6
CONTINUOUS
 62
     3
  2
*UDIM651
 10
0.0
 20
0.0
 30
0.0
  0
TEXT
  5
   169
  8
0
  6
CONTINUOUS
 62
     2
 10
249.733616854682
 20
-58.544993346515
 30
0.0
 40
2.50000000745058
  1
M4375 97-09-15
 41
0.649999919474125
 72
     1
 11
260.946115577988
 21
-57.2949933427897
 31
0.0
 73
     2
  0
INSERT
  5
   16A
  8
0
  6
CONTINUOUS
 62
     7
  2
*UDIM652
 10
0.0
 20
0.0
 30
0.0
  0
INSERT
  5
   16B
  8
0
  6
CONTINUOUS
 62
     7
  2
*UDIM653
 10
0.0
 20
0.0
 30
0.0
  0
LINE
  5
   16C
  8
0
  6
DASHDOT
 62
     7
 10
117.377136230469
 20
51.8641213082234
 30
0.0
 11
117.377136230469
 21
187.205214510778
 31
0.0
  0
LINE
  5
   16D
  8
0
  6
DASHDOT
 62
     7
 10
106.523161596061
 20
116.503921508789
 30
0.0
 11
171.653705678559
 21
116.503921508789
 31
0.0
  0
LINE
  5
   16E
  8
0
  6
DASHED
 62
     7
 10
69.3771362304688
 20
165.253921508789
 30
0.0
 11
146.627136230469
 21
165.253921508789
 31
0.0
  0
LINE
  5
   16F
  8
0
  6
CONTINUOUS
 62
     7
 10
56.5868196255096
 20
176.869800291161
 30
0.0
 11
158.806349641663
 21
176.869800291161
 31
0.0
  0
LINE
  5
   170
  8
0
  6
CONTINUOUS
 62
     7
 10
56.5868196255096
 20
60.9427801076675
 30
0.0
 11
158.806349641663
 21
60.9427801076675
 31
0.0
  0
LINE
  5
   171
  8
0
  6
CONTINUOUS
 62
     7
 10
158.806349641663
 20
60.9427801076675
 30
0.0
 11
158.806349641663
 21
176.869800291161
 31
0.0
  0
LINE
  5
   172
  8
0
  6
CONTINUOUS
 62
     7
 10
56.5868196255096
 20
60.9427801076675
 30
0.0
 11
56.5868196255096
 21
176.869800291161
 31
0.0
  0
LINE
  5
   173
  8
0
  6
DASHED
 62
     7
 10
69.3771362304688
 20
154.003921508789
 30
0.0
 11
146.627136230469
 21
154.003921508789
 31
0.0
  0
LINE
  5
   174
  8
0
  6
DASHED
 62
     7
 10
69.3771362304688
 20
86.5039215087891
 30
0.0
 11
146.627136230469
 21
86.5039215087891
 31
0.0
  0
LINE
  5
   175
  8
0
  6
DASHED
 62
     7
 10
146.627136230469
 20
75.2539215087891
 30
0.0
 11
146.627136230469
 21
165.253921508789
 31
0.0
  0
LINE
  5
   176
  8
0
  6
DASHED
 62
     7
 10
88.1271362304688
 20
75.2539215087891
 30
0.0
 11
88.1271362304688
 21
165.253921508789
 31
0.0
  0
LINE
  5
   177
  8
0
  6
DASHED
 62
     7
 10
69.3771362304688
 20
75.2539215087891
 30
0.0
 11
69.3771362304688
 21
165.253921508789
 31
0.0
  0
LINE
  5
   178
  8
0
  6
DASHED
 62
     7
 10
69.3771362304688
 20
75.2539215087891
 30
0.0
 11
146.627136230469
 21
75.2539215087891
 31
0.0
  0
LINE
  5
   179
  8
0
  6
DASHDOT
 62
     7
 10
115.502136230469
 20
92.1289215087891
 30
0.0
 11
115.502136230469
 21
126.91213646505
 31
0.0
  0
LINE
  5
   17A
  8
0
  6
DASHDOT
 62
     7
 10
36.5772062461943
 20
111.373916625977
 30
0.0
 11
176.903439121573
 21
111.373916625977
 31
0.0
  0
INSERT
  5
   17B
  8
0
  6
CONTINUOUS
 62
     3
  2
*UDIM654
 10
0.0
 20
0.0
 30
0.0
  0
TEXT
  5
   17C
  8
0
  6
CONTINUOUS
 62
     2
 10
116.246677786339
 20
48.8549134665042
 30
0.0
 40
3.00000013411045
  1
Y
 50
360.0
 41
0.983333308994771
 72
     1
 11
117.34667779899
 21
51.8549136006202
 31
0.0
 73
     3
  0
TEXT
  5
   17D
  8
0
  6
CONTINUOUS
 62
     2
 10
176.969326019295
 20
109.78215039183
 30
0.0
 40
3.00000013411045
  1
X
 50
360.0
 41
0.983333308994771
 11
176.969326019287
 21
111.282150458885
 31
0.0
 73
     2
  0
TEXT
  5
   17E
  8
0
  6
CONTINUOUS
 62
     2
 10
33.9377597682253
 20
110.229683808977
 30
0.0
 40
3.00000013411045
  1
X
 50
360.0
 41
0.983333308994771
 72
     1
 11
35.0377597808838
 21
111.729683876038
 31
0.0
 73
     2
  0
TEXT
  5
   17F
  8
0
  6
CONTINUOUS
 62
     2
 10
116.423634395011
 20
188.839296273882
 30
0.0
 40
3.00000013411045
  1
Y
 50
360.0
 41
0.983333308994771
 72
     1
 11
117.523634407669
 21
190.339296340942
 31
0.0
 73
     2
  0
INSERT
  5
   180
  8
0
  6
CONTINUOUS
 62
     3
  2
*UDIM655
 10
0.0
 20
0.0
 30
0.0
  0
LINE
  5
   181
  8
0
  6
CONTINUOUS
 62
     7
 10
111.752136230469
 20
120.253921508789
 30
0.0
 11
119.252136230469
 21
120.253921508789
 31
0.0
  0
LINE
  5
   182
  8
0
  6
CONTINUOUS
 62
     7
 10
111.752136230469
 20
112.753921508789
 30
0.0
 11
119.252136230469
 21
112.753921508789
 31
0.0
  0
LINE
  5
   183
  8
0
  6
CONTINUOUS
 62
     7
 10
111.752136230469
 20
112.753921508789
 30
0.0
 11
111.752136230469
 21
120.253921508789
 31
0.0
  0
LINE
  5
   184
  8
0
  6
CONTINUOUS
 62
     7
 10
119.252136230469
 20
112.753921508789
 30
0.0
 11
119.252136230469
 21
120.253921508789
 31
0.0
  0
ENDSEC
  0
EOF
