  0
SECTION
  2
HEADER
  9
$ACADVER
  1
AC1009
999
I-DEAS 11 NX Not Encoded
  9
$EXTMIN
 10
0.0
 20
0.0
  9
$EXTMAX
 10
4.2E+002
 20
2.97E+002
  9
$TEXTSIZE
 40
1.25E-001
  9
$LTSCALE
 40
1.0
  9
$CLAYER
  8
1
  9
$CECOLOR
 62
1
  9
$DIMASZ
 40
1.25E-001
  9
$DIMEXO
 40
6.25E-002
  9
$DIMDLI
 40
2.5E-001
  9
$DIMEXE
 40
1.25E-001
  9
$DIMTP
 40
5.0E-003
  9
$DIMTM
 40
-5.0E-003
  9
$DIMTXT
 40
3.0
  9
$DIMLIM
 70
0
  9
$DIMTIH
 70
1
  9
$DIMTOH
 70
1
  9
$DIMSE1
 70
0
  9
$DIMSE2
 70
0
  9
$DIMTAD
 70
0
  9
$DIMASO
 70
1
  9
$DIMALT
 70
0
  9
$DIMALTD
 70
0
  9
$DIMTOFL
 70
1
  9
$DIMTIX
 70
0
  9
$DIMSAH
 70
0
  9
$DIMTFAC
 40
1.0
  9
$DIMGAP
 40
6.25E-002
  9
$LUNITS
 70
2
  9
$LUPREC
 70
3
  9
$FILLETRAD
 40
1.0E+001
  9
$AUNITS
 70
0
  9
$AUPREC
 70
1
  9
$CHAMFERA
 40
6.0
  9
$CHAMFERB
 40
6.0
  9
$ANGBASE
 50
0.0
  9
$ANGDIR
 70
0
  9
$PEXTMIN
 10
0.0
 20
0.0
 30
0.0
  9
$PEXTMAX
 10
4.2E+002
 20
2.97E+002
 30
0.0
  9
$PLIMMIN
 10
0.0
 20
0.0
  9
$PLIMMAX
 10
4.2E+002
 20
2.97E+002
  9
$PDMODE
 70
2
  9
$PDSIZE
 40
-1.0E-002
  9
$SPLINETYPE
 70
6
  9
$TILEMODE
 70
1
  0
ENDSEC
  0
SECTION
  2
TABLES
  0
TABLE
  2
VPORT
 70
2
  0
VPORT
  2
*Active
 70
0
 10
0.0
 20
0.0
 11
4.2E+002
 21
2.97E+002
 12
2.1E+002
 22
1.485E+002
 13
0.0
 23
0.0
 14
1.0
 24
1.0
 15
0.0
 25
0.0
 16
0.0
 26
0.0
 36
1.0
 17
0.0
 27
0.0
 37
0.0
 40
2.97E+002
 41
1.4141414
 42
5.0E+001
 43
0.0
 44
0.0
 50
0.0
 51
0.0
 71
0
 72
100
 73
1
 74
3
 75
0
 76
0
 77
0
 78
0
  0
ENDTAB
  0
TABLE
  2
LTYPE
 70
7
  0
LTYPE
  2
HIDDENNEW0
  3
_ 
 70
64
 72
65
 73
3
 40
4.5
 49
1.5
 49
-1.5
 49
1.5
  0
LTYPE
  2
HIDDENNEW1
  3
_ 
 70
64
 72
65
 73
3
 40
4.5
 49
1.5
 49
-1.5
 49
1.5
  0
LTYPE
  2
HIDDEN
  3
_ 
 70
64
 72
65
 73
3
 40
4.5
 49
1.5
 49
-1.5
 49
1.5
  0
LTYPE
  2
CENTERLINE
  3
_ 
 70
64
 72
65
 73
5
 40
3.0E+001
 49
1.2E+001
 49
-1.5
 49
3.0
 49
-1.5
 49
1.2E+001
  0
LTYPE
  2
PHANTOM
  3
_ 
 70
64
 72
65
 73
7
 40
2.95E+001
 49
9.5
 49
-1.5
 49
3.0
 49
-1.5
 49
3.0
 49
-1.5
 49
9.5
  0
LTYPE
  2
SHORT_DASH
  3
_ 
 70
64
 72
65
 73
3
 40
3.0
 49
7.5E-001
 49
-1.5
 49
7.5E-001
  0
LTYPE
  2
LONG_DASH
  3
_ 
 70
64
 72
65
 73
3
 40
9.0
 49
2.25
 49
-4.5
 49
2.25
  0
ENDTAB
  0
TABLE
  2
LAYER
 70
258
  0
LAYER
  2
1
 70
0
 62
7
  6
CONTINUOUS
  0
LAYER
  2
2
 70
0
 62
7
  6
CONTINUOUS
  0
LAYER
  2
Drafting_Hidden_Entities
 70
1
 62
7
  6
CONTINUOUS
  0
ENDTAB
  0
TABLE
  2
STYLE
 70
1
  0
STYLE
  2
STANDARD
 70
64
 40
0.0
 41
1.0
 50
0.0
 71
0
 42
1.0
  3
monotxt.shx
  4

  0
ENDTAB
  0
TABLE
  2
VIEW
 70
0
  0
ENDTAB
  0
TABLE
  2
DIMSTYLE
 70
0
  0
ENDTAB
  0
ENDSEC
  0
SECTION
  2
BLOCKS
  0
BLOCK
  2
_AH12
  3
_AH
 10
0.0
 20
0.0
 70
64
  0
LINE
  8
0
  6
CONTINUOUS
 62
0
 10
0.0
 20
0.0
 11
1.0
 21
0.0
  0
LINE
  8
0
  6
CONTINUOUS
 62
0
 10
0.0
 20
0.0
 11
-1.0
 21
0.0
  0
ENDBLK
  0
BLOCK
  2
_AH13
  3
_AH
 10
0.0
 20
0.0
 70
64
  0
SOLID
  8
0
  6
CONTINUOUS
 62
0
 10
0.0
 20
0.0
 11
-1.0
 21
1.66667E-001
 12
-1.0
 22
-1.66667E-001
 13
0.0
 23
0.0
  0
ENDBLK
  0
BLOCK
  2
_AH14
  3
_AH
 10
0.0
 20
0.0
 70
64
  0
ENDBLK
  0
BLOCK
  2
_AH15
  3
_AH
 10
0.0
 20
0.0
 70
64
  0
CIRCLE
  8
0
  6
CONTINUOUS
 62
0
 10
0.0
 20
0.0
 40
1.66667E-001
  0
LINE
  8
0
  6
CONTINUOUS
 62
0
 10
0.0
 20
0.0
 11
-1.0
 21
0.0
  0
ENDBLK
  0
BLOCK
  2
_AH16
  3
_AH
 10
0.0
 20
0.0
 70
64
  0
POLYLINE
  8
0
  6
CONTINUOUS
 62
0
 66
1
 40
7.4171008E+001
 41
7.4171008E+001
 70
0
  0
VERTEX
  8
0
 42
1.0
 10
8.3335E-002
 20
0.0
 70
0
  0
VERTEX
  8
0
 42
1.0
 10
-8.3335E-002
 20
0.0
 70
0
  0
VERTEX
  8
0
 42
0.0
 10
8.3335E-002
 20
0.0
 70
0
  0
SEQEND
  0
LINE
  8
0
  6
CONTINUOUS
 62
0
 10
0.0
 20
0.0
 11
-1.0
 21
0.0
  0
ENDBLK
  0
BLOCK
  2
_AH17
  3
_AH
 10
0.0
 20
0.0
 70
64
  0
LINE
  8
0
  6
CONTINUOUS
 62
0
 10
-1.66667E-001
 20
-1.66667E-001
 11
1.66667E-001
 21
-1.66667E-001
  0
LINE
  8
0
  6
CONTINUOUS
 62
0
 10
1.66667E-001
 20
-1.66667E-001
 11
1.66667E-001
 21
1.66667E-001
  0
LINE
  8
0
  6
CONTINUOUS
 62
0
 10
1.66667E-001
 20
1.66667E-001
 11
-1.66667E-001
 21
1.66667E-001
  0
LINE
  8
0
  6
CONTINUOUS
 62
0
 10
-1.66667E-001
 20
1.66667E-001
 11
-1.66667E-001
 21
-1.66667E-001
  0
LINE
  8
0
  6
CONTINUOUS
 62
0
 10
0.0
 20
0.0
 11
-1.0
 21
0.0
  0
ENDBLK
  0
BLOCK
  2
_AH18
  3
_AH
 10
0.0
 20
0.0
 70
64
  0
SOLID
  8
0
  6
CONTINUOUS
 62
0
 10
-1.66667E-001
 20
-1.66667E-001
 11
1.66667E-001
 21
-1.66667E-001
 12
-1.66667E-001
 22
1.66667E-001
 13
1.66667E-001
 23
1.66667E-001
  0
LINE
  8
0
  6
CONTINUOUS
 62
0
 10
0.0
 20
0.0
 11
-1.0
 21
0.0
  0
ENDBLK
  0
BLOCK
  2
_AH19
  3
_AH
 10
0.0
 20
0.0
 70
64
  0
LINE
  8
0
  6
CONTINUOUS
 62
0
 10
-5.0E-001
 20
-5.0E-001
 11
5.0E-001
 21
5.0E-001
  0
LINE
  8
0
  6
CONTINUOUS
 62
0
 10
0.0
 20
0.0
 11
-1.0
 21
0.0
  0
ENDBLK
  0
BLOCK
  2
_AH20
  3
_AH
 10
0.0
 20
0.0
 70
64
  0
POLYLINE
  8
0
  6
CONTINUOUS
 62
0
 66
1
 40
5.0E-001
 41
5.0E-001
 70
0
  0
VERTEX
  8
0
 42
4.1421356E-001
 10
-1.66667E-001
 20
-1.66667E-001
 70
0
  0
VERTEX
  8
0
 42
0.0
 10
0.0
 20
0.0
 70
0
  0
SEQEND
  0
POLYLINE
  8
0
  6
CONTINUOUS
 62
0
 66
1
 40
5.0E-001
 41
5.0E-001
 70
0
  0
VERTEX
  8
0
 42
4.1421356E-001
 10
1.66667E-001
 20
1.66667E-001
 70
0
  0
VERTEX
  8
0
 42
0.0
 10
0.0
 20
0.0
 70
0
  0
SEQEND
  0
LINE
  8
0
  6
CONTINUOUS
 62
0
 10
0.0
 20
0.0
 11
-1.0
 21
0.0
  0
ENDBLK
  0
BLOCK
  2
_AH21
  3
_AH
 10
0.0
 20
0.0
 70
64
  0
LINE
  8
0
  6
CONTINUOUS
 62
0
 10
0.0
 20
0.0
 11
-1.0
 21
-1.66667E-001
  0
LINE
  8
0
  6
CONTINUOUS
 62
0
 10
-1.0
 20
-1.66667E-001
 11
-1.0
 21
1.66667E-001
  0
LINE
  8
0
  6
CONTINUOUS
 62
0
 10
-1.0
 20
1.66667E-001
 11
0.0
 21
0.0
  0
ENDBLK
  0
BLOCK
  2
SE0
 10
0.0
 20
0.0
 70
0
  0
LINE
  8
2
  6
CENTERLINE
 62
7
 10
1.1554039E+001
 20
1.8851369E+002
 11
8.3790389
 21
1.8851369E+002
  0
LINE
  8
2
  6
CENTERLINE
 62
7
 10
9.9665389
 20
1.9010119E+002
 11
9.9665389
 21
1.8692619E+002
  0
LINE
  8
2
  6
CENTERLINE
 62
7
 10
1.3141539E+001
 20
1.8851369E+002
 11
1.5641539E+001
 21
1.8851369E+002
  0
LINE
  8
2
  6
CENTERLINE
 62
7
 10
9.9665389
 20
1.9168869E+002
 11
9.9665389
 21
1.9418869E+002
  0
LINE
  8
2
  6
CENTERLINE
 62
7
 10
6.7915389
 20
1.8851369E+002
 11
4.2915389
 21
1.8851369E+002
  0
LINE
  8
2
  6
CENTERLINE
 62
7
 10
9.9665389
 20
1.8533869E+002
 11
9.9665389
 21
1.8283869E+002
  0
ENDBLK
  0
BLOCK
  2
SE1
 10
0.0
 20
0.0
 70
0
  0
LINE
  8
2
  6
CENTERLINE
 62
7
 10
1.1554039E+001
 20
1.0851369E+002
 11
8.3790389
 21
1.0851369E+002
  0
LINE
  8
2
  6
CENTERLINE
 62
7
 10
9.9665389
 20
1.1010119E+002
 11
9.9665389
 21
1.0692619E+002
  0
LINE
  8
2
  6
CENTERLINE
 62
7
 10
1.3141539E+001
 20
1.0851369E+002
 11
1.5641539E+001
 21
1.0851369E+002
  0
LINE
  8
2
  6
CENTERLINE
 62
7
 10
9.9665389
 20
1.1168869E+002
 11
9.9665389
 21
1.1418869E+002
  0
LINE
  8
2
  6
CENTERLINE
 62
7
 10
6.7915389
 20
1.0851369E+002
 11
4.2915389
 21
1.0851369E+002
  0
LINE
  8
2
  6
CENTERLINE
 62
7
 10
9.9665389
 20
1.0533869E+002
 11
9.9665389
 21
1.0283869E+002
  0
ENDBLK
  0
BLOCK
  2
SE2
 10
0.0
 20
0.0
 70
0
  0
LINE
  8
2
  6
CENTERLINE
 62
7
 10
1.1554039E+001
 20
2.851369E+001
 11
8.3790389
 21
2.851369E+001
  0
LINE
  8
2
  6
CENTERLINE
 62
7
 10
9.9665389
 20
3.010119E+001
 11
9.9665389
 21
2.692619E+001
  0
LINE
  8
2
  6
CENTERLINE
 62
7
 10
1.3141539E+001
 20
2.851369E+001
 11
1.5641539E+001
 21
2.851369E+001
  0
LINE
  8
2
  6
CENTERLINE
 62
7
 10
9.9665389
 20
3.168869E+001
 11
9.9665389
 21
3.418869E+001
  0
LINE
  8
2
  6
CENTERLINE
 62
7
 10
6.7915389
 20
2.851369E+001
 11
4.2915389
 21
2.851369E+001
  0
LINE
  8
2
  6
CENTERLINE
 62
7
 10
9.9665389
 20
2.533869E+001
 11
9.9665389
 21
2.283869E+001
  0
ENDBLK
  0
BLOCK
  2
SE3
 10
0.0
 20
0.0
 70
0
  0
LINE
  8
2
  6
CENTERLINE
 62
7
 10
1.1554039E+001
 20
2.6851369E+002
 11
8.3790389
 21
2.6851369E+002
  0
LINE
  8
2
  6
CENTERLINE
 62
7
 10
9.9665389
 20
2.7010119E+002
 11
9.9665389
 21
2.6692619E+002
  0
LINE
  8
2
  6
CENTERLINE
 62
7
 10
1.3141539E+001
 20
2.6851369E+002
 11
1.5641539E+001
 21
2.6851369E+002
  0
LINE
  8
2
  6
CENTERLINE
 62
7
 10
9.9665389
 20
2.7168869E+002
 11
9.9665389
 21
2.7418869E+002
  0
LINE
  8
2
  6
CENTERLINE
 62
7
 10
6.7915389
 20
2.6851369E+002
 11
4.2915389
 21
2.6851369E+002
  0
LINE
  8
2
  6
CENTERLINE
 62
7
 10
9.9665389
 20
2.6533869E+002
 11
9.9665389
 21
2.6283869E+002
  0
ENDBLK
  0
BLOCK
  2
A3N
 10
0.0
 20
0.0
 70
0
  0
ATTDEF
  8
1
  6
CONTINUOUS
 62
5
 10
3.6549644E+002
 20
2.7E+001
 40
2.0
  1
FPEM123456P0001
 41
6.5E-001
 11
3.6549644E+002
 21
2.6E+001
  3
ANCIEN_ Plan
  2
ANCIEN_Plan
 70
0
 73
2
 74
2
  0
ATTDEF
  8
1
  6
CONTINUOUS
 62
5
 10
3.6549644E+002
 20
1.1E+001
 40
4.0
  1
FPEM470778P0001
 41
7.5E-001
 72
1
 11
3.5649644E+002
 21
9.0
  3
N°PLAN
  2
N°PLAN
 70
0
 73
2
 74
2
  0
ATTDEF
  8
1
  6
CONTINUOUS
 62
5
 10
3.6549644E+002
 20
2.3005401E+001
 40
2.0
  1
OEM-12345
 41
7.5E-001
 11
3.6549644E+002
 21
2.2005401E+001
  3
N°OEM
  2
N°OEM
 70
0
 73
2
 74
2
  0
ATTDEF
  8
1
  6
CONTINUOUS
 62
5
 10
2.929758E+002
 20
1.38E+001
 40
1.6
  1
PLAN D'ENSEMBLE
 41
9.0E-001
 72
1
 11
2.864958E+002
 21
1.3E+001
  3
TYPE_PLAN
  2
TYPE_PLAN
 70
0
 73
2
 74
2
  0
ATTDEF
  8
1
  6
CONTINUOUS
 62
5
 10
3.014958E+002
 20
1.025E+001
 40
2.5
  1
DWA, DYA9...16-30 sans relais
 41
7.5E-001
 72
1
 11
2.864958E+002
 21
9.0
  3
DESIGNATION_PLAN
  2
DESIGNATION_PLAN
 70
0
 73
2
 74
2
  0
ATTDEF
  8
1
  6
CONTINUOUS
 62
5
 10
3.898708E+002
 20
8.75
 40
2.5
  1
A
 41
7.5E-001
 72
1
 11
3.879958E+002
 21
7.5
  3
ID
  2
ID
 70
0
 73
2
 74
2
  0
ATTDEF
  8
1
  6
CONTINUOUS
 62
5
 10
3.5575484E+002
 20
1.6659209E+001
 40
2.75
  1
A4
 41
7.5E-001
 72
1
 11
3.5369234E+002
 21
1.5284209E+001
  3
A?
  2
A?
 70
0
 73
2
 74
2
  0
ATTDEF
  8
1
  6
CONTINUOUS
 62
5
 10
3.7155166E+002
 20
1.6659209E+001
 40
2.75
  1
1
 41
7.5E-001
 72
1
 11
3.6639541E+002
 21
1.5284209E+001
  3
Folio
  2
Folio
 70
0
 73
2
 74
2
  0
ATTDEF
  8
1
  6
CONTINUOUS
 62
5
 10
3.8530093E+002
 20
1.6659209E+001
 40
2.75
  1
1
 41
7.5E-001
 72
1
 11
3.7911343E+002
 21
1.5284209E+001
  3
Folios
  2
Folios
 70
0
 73
2
 74
2
  0
ATTDEF
  8
1
  6
CONTINUOUS
 62
5
 10
3.4833212E+002
 20
3.925E+001
 40
2.5
  1
 
 11
3.4833212E+002
 21
3.8E+001
  3
N°OE_Origine
  2
N°OE_Origine
 70
0
 73
2
 74
2
  0
ATTDEF
  8
1
  6
CONTINUOUS
 62
5
 10
3.4833212E+002
 20
3.5E+001
 40
2.0
  1
P.BLANCHET le 01.01.04
 41
7.5E-001
 11
3.4833212E+002
 21
3.4E+001
  3
CONTROLEUR_Origine
  2
CONTROLEUR_Origine
 70
0
 73
2
 74
2
  0
ATTDEF
  8
1
  6
CONTINUOUS
 62
5
 10
3.4833212E+002
 20
3.1E+001
 40
2.0
  1
C.ECOCHARD le 01.01.04
 41
7.5E-001
 11
3.4833212E+002
 21
3.0E+001
  3
DESSINATEUR_Origine
  2
DESSINATEUR_Origine
 70
0
 73
2
 74
2
  0
ATTDEF
  8
1
  6
CONTINUOUS
 62
5
 10
2.2580669E+002
 20
2.725E+001
 40
2.5
  1
A
 41
7.5E-001
 72
1
 11
2.2299419E+002
 21
2.6E+001
  3
ID1
  2
ID1
 70
0
 73
2
 74
2
  0
ATTDEF
  8
1
  6
CONTINUOUS
 62
5
 10
2.2580669E+002
 20
3.125E+001
 40
2.5
  1
 
 41
7.5E-001
 72
1
 11
2.2299419E+002
 21
3.0E+001
  3
ID2
  2
ID2
 70
0
 73
2
 74
2
  0
ATTDEF
  8
1
  6
CONTINUOUS
 62
5
 10
2.2580669E+002
 20
3.525E+001
 40
2.5
  1
 
 41
7.5E-001
 72
1
 11
2.2299419E+002
 21
3.4E+001
  3
ID3
  2
ID3
 70
0
 73
2
 74
2
  0
ATTDEF
  8
1
  6
CONTINUOUS
 62
5
 10
2.2580669E+002
 20
3.925E+001
 40
2.5
  1
 
 41
7.5E-001
 72
1
 11
2.2299419E+002
 21
3.8E+001
  3
ID4
  2
ID4
 70
0
 73
2
 74
2
  0
ATTDEF
  8
1
  6
CONTINUOUS
 62
5
 10
3.4424644E+002
 20
2.1551214E+001
 40
6.0
  1
1:4
 41
7.5E-001
 72
1
 11
3.3749644E+002
 21
1.8551214E+001
  3
Ech
  2
Ech
 70
0
 73
2
 74
2
  0
POLYLINE
  8
1
  6
CONTINUOUS
 62
7
 66
1
 40
5.0E-001
 41
5.0E-001
 70
0
  0
VERTEX
  8
1
 42
0.0
 10
1.0E+001
 20
2.72E+002
 70
0
  0
VERTEX
  8
1
 42
0.0
 10
1.0E+001
 20
4.0E+001
 70
0
  0
SEQEND
  0
POLYLINE
  8
1
  6
CONTINUOUS
 62
7
 66
1
 40
5.0E-001
 41
5.0E-001
 70
0
  0
VERTEX
  8
1
 42
0.0
 10
1.0E+001
 20
4.0E+001
 70
0
  0
VERTEX
  8
1
 42
0.0
 10
1.0065101E+001
 20
5.0
 70
0
  0
SEQEND
  0
POLYLINE
  8
1
  6
CONTINUOUS
 62
7
 66
1
 40
5.0E-001
 41
5.0E-001
 70
0
  0
VERTEX
  8
1
 42
0.0
 10
1.0065101E+001
 20
5.0
 70
0
  0
VERTEX
  8
1
 42
0.0
 10
3.9049515E+002
 20
5.0
 70
0
  0
SEQEND
  0
POLYLINE
  8
1
  6
CONTINUOUS
 62
7
 66
1
 40
5.0E-001
 41
5.0E-001
 70
0
  0
VERTEX
  8
1
 42
0.0
 10
3.9049515E+002
 20
1.0E+001
 70
0
  0
VERTEX
  8
1
 42
0.0
 10
3.9049515E+002
 20
5.0
 70
0
  0
SEQEND
  0
TEXT
  8
1
  6
CONTINUOUS
 62
7
 10
3.5670343E+002
 20
1.7697775E+001
 40
1.5
  1
Format
 41
6.5E-001
 72
1
 11
3.5377843E+002
 21
1.7697775E+001
  0
TEXT
  8
1
  6
CONTINUOUS
 62
7
 10
3.7175835E+002
 20
1.7697775E+001
 40
1.5
  1
Feuille n%%d
 41
6.5E-001
 72
1
 11
3.6688335E+002
 21
1.7697775E+001
  0
TEXT
  8
1
  6
CONTINUOUS
 62
7
 10
3.8447593E+002
 20
1.7697775E+001
 40
1.5
  1
Nb Feuilles
 41
6.5E-001
 72
1
 11
3.7911343E+002
 21
1.7697775E+001
  0
LINE
  8
1
  6
CONTINUOUS
 62
1
 10
0.0
 20
4.0E+001
 11
0.0
 21
4.1E+001
  0
TEXT
  8
1
  6
CONTINUOUS
 62
7
 10
3.6049644E+002
 20
2.3005401E+001
 40
2.0
  1
PROJET
 41
7.5E-001
 72
1
 11
3.5599644E+002
 21
2.2005401E+001
 73
2
  0
TEXT
  8
1
  6
CONTINUOUS
 62
7
 10
8.75
 20
6.0087564E+001
 40
1.25
  1
autorisation écrite.
 41
7.5E-001
 50
9.0E+001
 11
8.75
 21
5.9462564E+001
 73
2
  0
TEXT
  8
1
  6
CONTINUOUS
 62
7
 10
3.6399644E+002
 20
2.7E+001
 40
2.0
  1
Issu de/Remplace
 41
5.0E-001
 72
1
 11
3.5599644E+002
 21
2.6E+001
 73
2
  0
TEXT
  8
1
  6
CONTINUOUS
 62
7
 10
3.4668394E+002
 20
3.8875E+001
 40
1.75
  1
ORDRE EXECUTION
 41
7.0E-001
 72
1
 11
3.3749644E+002
 21
3.8E+001
 73
2
  0
TEXT
  8
1
  6
CONTINUOUS
 62
7
 10
3.4484644E+002
 20
3.4875E+001
 40
1.75
  1
CONTROLE PAR
 41
7.0E-001
 72
1
 11
3.3749644E+002
 21
3.4E+001
 73
2
  0
TEXT
  8
1
  6
CONTINUOUS
 62
7
 10
3.4423394E+002
 20
3.0875E+001
 40
1.75
  1
REALISE PAR
 41
7.0E-001
 72
1
 11
3.3749644E+002
 21
3.0E+001
 73
2
  0
LINE
  8
2
  6
CONTINUOUS
 62
7
 10
9.5000647E+001
 20
2.72E+002
 11
9.5000647E+001
 21
2.77E+002
  0
LINE
  8
2
  6
CONTINUOUS
 62
7
 10
4.7500323E+001
 20
2.72E+002
 11
4.7500323E+001
 21
2.77E+002
  0
LINE
  8
2
  6
CONTINUOUS
 62
7
 10
1.4250097E+002
 20
2.72E+002
 11
1.4250097E+002
 21
2.77E+002
  0
TEXT
  8
2
  6
CONTINUOUS
 62
7
 10
7.0162765E+001
 20
2.7829144E+002
 40
2.5
  1
H
 11
7.0162765E+001
 21
2.7579144E+002
 73
3
  0
TEXT
  8
2
  6
CONTINUOUS
 62
7
 10
2.2581586E+001
 20
2.7829144E+002
 40
2.5
  1
I
 11
2.2581586E+001
 21
2.7579144E+002
 73
3
  0
TEXT
  8
2
  6
CONTINUOUS
 62
7
 10
1.1758442E+002
 20
2.7829144E+002
 40
2.5
  1
G
 11
1.1758442E+002
 21
2.7579144E+002
 73
3
  0
TEXT
  8
2
  6
CONTINUOUS
 62
7
 10
1.6500049E+002
 20
2.7575E+002
 40
2.5
  1
F
 72
1
 11
1.6375049E+002
 21
2.745E+002
 73
2
  0
TEXT
  8
2
  6
CONTINUOUS
 62
7
 10
3.8679278E+002
 20
2.4625255E+002
 40
2.5
  1
4
 11
3.8679278E+002
 21
2.4375255E+002
 73
3
  0
LINE
  8
2
  6
CONTINUOUS
 62
7
 10
0.0
 20
2.77E+002
 11
0.0
 21
0.0
  0
LINE
  8
2
  6
CONTINUOUS
 62
7
 10
3.9049515E+002
 20
2.77E+002
 11
0.0
 21
2.77E+002
  0
LINE
  8
2
  6
CONTINUOUS
 62
7
 10
3.7273041E+002
 20
1.3E+001
 11
3.7273041E+002
 21
2.0010803E+001
  0
LINE
  8
2
  6
CONTINUOUS
 62
7
 10
3.6006041E+002
 20
1.3E+001
 11
3.6006041E+002
 21
2.0010803E+001
  0
POLYLINE
  8
1
  6
CONTINUOUS
 62
7
 66
1
 40
5.0E-001
 41
5.0E-001
 70
0
  0
VERTEX
  8
1
 42
0.0
 10
3.9049644E+002
 20
1.0E+001
 70
0
  0
VERTEX
  8
1
 42
0.0
 10
3.8549644E+002
 20
1.0E+001
 70
0
  0
SEQEND
  0
TEXT
  8
2
  6
CONTINUOUS
 62
7
 10
2.2483169E+002
 20
2.2875E+001
 40
1.75
  1
IND
 41
7.0E-001
 72
1
 11
2.2299419E+002
 21
2.2E+001
 73
2
  0
TEXT
  8
2
  6
CONTINUOUS
 62
7
 10
2.2644467E+002
 20
3.1E+001
 40
2.0
  1
Modifications
 41
6.5E-001
 50
9.0E+001
 72
1
 11
2.1799467E+002
 21
3.0E+001
 73
2
  0
LINE
  8
2
  6
CONTINUOUS
 62
7
 10
3.6449644E+002
 20
2.0010803E+001
 11
3.6449644E+002
 21
2.8E+001
  0
LINE
  8
2
  6
CONTINUOUS
 62
7
 10
3.8549644E+002
 20
2.0010803E+001
 11
3.4749644E+002
 21
2.0010803E+001
  0
LINE
  8
2
  6
CONTINUOUS
 62
7
 10
3.4749644E+002
 20
2.4E+001
 11
3.8549644E+002
 21
2.4E+001
  0
LINE
  8
2
  6
CONTINUOUS
 62
7
 10
3.4749644E+002
 20
1.3E+001
 11
3.4749644E+002
 21
4.0E+001
  0
POLYLINE
  8
1
  6
CONTINUOUS
 62
7
 66
1
 40
5.0E-001
 41
5.0E-001
 70
0
  0
VERTEX
  8
1
 42
0.0
 10
3.2749644E+002
 20
1.3E+001
 70
0
  0
VERTEX
  8
1
 42
0.0
 10
3.8549644E+002
 20
1.3E+001
 70
0
  0
SEQEND
  0
LINE
  8
2
  6
CONTINUOUS
 62
7
 10
2.4549515E+002
 20
1.6000915E+001
 11
3.2749644E+002
 21
1.6000915E+001
  0
LINE
  8
2
  6
CONTINUOUS
 62
7
 10
2.2549419E+002
 20
4.0E+001
 11
2.2549419E+002
 21
2.0E+001
  0
LINE
  8
2
  6
CONTINUOUS
 62
7
 10
2.2049419E+002
 20
4.0E+001
 11
2.2049419E+002
 21
2.0E+001
  0
LINE
  8
2
  6
CONTINUOUS
 62
7
 10
2.8749644E+002
 20
4.0E+001
 11
2.8749644E+002
 21
2.0E+001
  0
LINE
  8
2
  6
CONTINUOUS
 62
7
 10
3.8549644E+002
 20
3.2E+001
 11
2.2049419E+002
 21
3.2E+001
  0
LINE
  8
2
  6
CONTINUOUS
 62
7
 10
3.8549644E+002
 20
3.6E+001
 11
2.2049419E+002
 21
3.6E+001
  0
LINE
  8
2
  6
CONTINUOUS
 62
7
 10
2.2049419E+002
 20
2.8E+001
 11
3.8549644E+002
 21
2.8E+001
  0
LINE
  8
2
  6
CONTINUOUS
 62
7
 10
3.2749644E+002
 20
2.4E+001
 11
2.2049419E+002
 21
2.4E+001
  0
POLYLINE
  8
1
  6
CONTINUOUS
 62
7
 66
1
 40
5.0E-001
 41
5.0E-001
 70
0
  0
VERTEX
  8
1
 42
0.0
 10
3.2749644E+002
 20
5.0
 70
0
  0
VERTEX
  8
1
 42
0.0
 10
3.2749644E+002
 20
4.0E+001
 70
0
  0
SEQEND
  0
LINE
  8
2
  6
CONTINUOUS
 62
7
 10
3.2749644E+002
 20
2.0E+001
 11
2.1549515E+002
 21
2.0E+001
  0
LINE
  8
2
  6
CONTINUOUS
 62
7
 10
2.4549515E+002
 20
5.0
 11
2.4549515E+002
 21
2.0E+001
  0
POLYLINE
  8
1
  6
CONTINUOUS
 62
7
 66
1
 40
5.0E-001
 41
5.0E-001
 70
0
  0
VERTEX
  8
1
 42
0.0
 10
3.8549644E+002
 20
4.0E+001
 70
0
  0
VERTEX
  8
1
 42
0.0
 10
2.1549515E+002
 20
4.0E+001
 70
0
  0
SEQEND
  0
CIRCLE
  8
2
  6
CONTINUOUS
 62
7
 10
-6.124541
 20
1.8151881E+002
 40
2.5
  0
INSERT
  2
SE0
  8
2
 10
-1.609108E+001
 20
-6.9948784
  0
CIRCLE
  8
2
  6
CONTINUOUS
 62
7
 10
-6.124541
 20
1.0151881E+002
 40
2.5
  0
INSERT
  2
SE1
  8
2
 10
-1.609108E+001
 20
-6.9948784
  0
CIRCLE
  8
2
  6
CONTINUOUS
 62
7
 10
-6.124541
 20
2.1518811E+001
 40
2.5
  0
INSERT
  2
SE2
  8
2
 10
-1.609108E+001
 20
-6.9948784
  0
CIRCLE
  8
2
  6
CONTINUOUS
 62
7
 10
-6.124541
 20
2.6151881E+002
 40
2.5
  0
INSERT
  2
SE3
  8
2
 10
-1.609108E+001
 20
-6.9948784
  0
LINE
  8
2
  6
CONTINUOUS
 62
7
 10
0.0
 20
0.0
 11
3.9049515E+002
 21
0.0
  0
LINE
  8
2
  6
CONTINUOUS
 62
7
 10
-8.9879611
 20
1.3551881E+002
 11
-2.8976631
 21
1.3551881E+002
  0
LINE
  8
2
  6
CONTINUOUS
 62
7
 10
1.0E+001
 20
2.72E+002
 11
1.0E+001
 21
5.0
  0
POLYLINE
  8
1
  6
CONTINUOUS
 62
7
 66
1
 40
5.0E-001
 41
5.0E-001
 70
0
  0
VERTEX
  8
1
 42
0.0
 10
1.0E+001
 20
2.72E+002
 70
0
  0
VERTEX
  8
1
 42
0.0
 10
3.8549644E+002
 20
2.72E+002
 70
0
  0
SEQEND
  0
TEXT
  8
2
  6
CONTINUOUS
 62
7
 10
1.25
 20
6.7
 40
1.4
  1
We reserve all rights in this document and in the
 41
7.5E-001
 50
9.0E+001
 11
1.25
 21
6.0
 73
2
  0
TEXT
  8
2
  6
CONTINUOUS
 62
7
 10
3.75
 20
6.7
 40
1.4
  1
information contained therein. Reproduction, use
 41
7.5E-001
 50
9.0E+001
 11
3.75
 21
6.0
 73
2
  0
TEXT
  8
2
  6
CONTINUOUS
 62
7
 10
6.25
 20
6.7
 40
1.4
  1
or disclosure to third parties without express
 41
7.5E-001
 50
9.0E+001
 11
6.25
 21
6.0
 73
2
  0
TEXT
  8
2
  6
CONTINUOUS
 62
7
 10
8.75
 20
6.7
 40
1.4
  1
autority is strictly forbidden
 41
7.5E-001
 50
9.0E+001
 11
8.75
 21
6.0
 73
2
  0
TEXT
  8
2
  6
CONTINUOUS
 62
7
 10
1.25
 20
6.0162564E+001
 40
1.4
  1
Ce document, propriété exclusive de notre
 41
7.5E-001
 50
9.0E+001
 11
1.25
 21
5.9462564E+001
 73
2
  0
TEXT
  8
2
  6
CONTINUOUS
 62
7
 10
3.75
 20
6.0162564E+001
 40
1.4
  1
société, est strictement confidentiel. Il ne peut
 41
7.5E-001
 50
9.0E+001
 11
3.75
 21
5.9462564E+001
 73
2
  0
TEXT
  8
2
  6
CONTINUOUS
 62
7
 10
6.25
 20
6.0162564E+001
 40
1.4
  1
être communiqué, copié ou reproduit sans son
 41
7.5E-001
 50
9.0E+001
 11
6.25
 21
5.9462564E+001
 73
2
  0
LINE
  8
2
  6
CONTINUOUS
 62
7
 10
1.0E+001
 20
5.0
 11
0.0
 21
5.0
  0
LINE
  8
2
  6
CONTINUOUS
 62
7
 10
3.0749644E+002
 20
2.0E+001
 11
3.0749644E+002
 21
4.0E+001
  0
LINE
  8
2
  6
CONTINUOUS
 62
7
 10
2.9749644E+002
 20
1.6000915E+001
 11
2.9749644E+002
 21
4.0E+001
  0
LINE
  8
2
  6
CONTINUOUS
 62
7
 10
3.1449644E+002
 20
2.0E+001
 11
3.1449644E+002
 21
4.0E+001
  0
TEXT
  8
1
  6
CONTINUOUS
 62
7
 10
2.2649419E+002
 20
2.2875E+001
 40
1.75
  1
DESCRIPTION
 41
7.0E-001
 11
2.2649419E+002
 21
2.2E+001
 73
2
  0
TEXT
  8
1
  6
CONTINUOUS
 62
7
 10
2.9494644E+002
 20
2.2875E+001
 40
1.75
  1
DATE
 41
7.0E-001
 72
1
 11
2.9249644E+002
 21
2.2E+001
 73
2
  0
TEXT
  8
1
  6
CONTINUOUS
 62
7
 10
3.0494644E+002
 20
2.2875E+001
 40
1.75
  1
N°OE
 41
7.0E-001
 72
1
 11
3.0249644E+002
 21
2.2E+001
 73
2
  0
TEXT
  8
1
  6
CONTINUOUS
 62
7
 10
3.1362144E+002
 20
2.2875E+001
 40
1.75
  1
Auteur
 41
5.0E-001
 72
1
 11
3.1099644E+002
 21
2.2E+001
 73
2
  0
TEXT
  8
1
  6
CONTINUOUS
 62
7
 10
3.2554644E+002
 20
2.2875E+001
 40
1.75
  1
Controlé
 41
6.5E-001
 72
1
 11
3.2099644E+002
 21
2.2E+001
 73
2
  0
TEXT
  8
1
  6
CONTINUOUS
 62
7
 10
3.2689644E+002
 20
1.9000457E+001
 40
2.0
  1
Service responsable: OEM
 41
6.0E-001
 72
1
 11
3.1249644E+002
 21
1.8000457E+001
 73
2
  0
TEXT
  8
1
  6
CONTINUOUS
 62
7
 10
2.4649515E+002
 20
1.9250457E+001
 40
2.5
  1
ABB Entrelec
 41
7.5E-001
 11
2.4649515E+002
 21
1.8000457E+001
 73
2
  0
TEXT
  8
1
  6
CONTINUOUS
 62
7
 10
2.4649515E+002
 20
1.4686428E+001
 40
1.5
  1
Titre
 11
2.4649515E+002
 21
1.3936428E+001
 73
2
  0
TEXT
  8
1
  6
CONTINUOUS
 62
7
 10
3.4143394E+002
 20
2.675E+001
 40
1.5
  1
ECHELLE
 41
7.5E-001
 72
1
 11
3.3749644E+002
 21
2.6E+001
 73
2
  0
TEXT
  8
2
  6
CONTINUOUS
 62
7
 10
3.8710271E+002
 20
3.8454406E+001
 40
2.5
  1
1
 41
6.65E-001
 11
3.8710271E+002
 21
3.5954406E+001
 73
3
  0
TEXT
  8
2
  6
CONTINUOUS
 62
7
 10
3.8676438E+002
 20
1.0780311E+002
 40
2.5
  1
2
 11
3.8676438E+002
 21
1.0530311E+002
 73
3
  0
TEXT
  8
2
  6
CONTINUOUS
 62
7
 10
3.8687801E+002
 20
1.7698651E+002
 40
2.5
  1
3
 11
3.8687801E+002
 21
1.7448651E+002
 73
3
  0
LINE
  8
2
  6
CONTINUOUS
 62
7
 10
3.8549644E+002
 20
6.925E+001
 11
3.9049515E+002
 21
6.925E+001
  0
LINE
  8
2
  6
CONTINUOUS
 62
7
 10
3.8549644E+002
 20
2.0775E+002
 11
3.9049515E+002
 21
2.0775E+002
  0
LINE
  8
2
  6
CONTINUOUS
 62
7
 10
3.9049515E+002
 20
1.385E+002
 11
3.8549644E+002
 21
1.385E+002
  0
POLYLINE
  8
1
  6
CONTINUOUS
 62
7
 66
1
 40
5.0E-001
 41
5.0E-001
 70
0
  0
VERTEX
  8
1
 42
0.0
 10
3.8549644E+002
 20
5.0
 70
0
  0
VERTEX
  8
1
 42
0.0
 10
3.8549644E+002
 20
2.72E+002
 70
0
  0
SEQEND
  0
LINE
  8
1
  6
CONTINUOUS
 62
7
 10
2.2205175E+002
 20
1.25E+001
 11
2.2405715E+002
 21
1.25E+001
  0
LINE
  8
1
  6
CONTINUOUS
 62
7
 10
2.2205175E+002
 20
1.25E+001
 11
2.2324315E+002
 21
1.5904E+001
  0
LINE
  8
1
  6
CONTINUOUS
 62
7
 10
2.2324315E+002
 20
1.5904E+001
 11
2.2405715E+002
 21
1.5904E+001
  0
LINE
  8
1
  6
CONTINUOUS
 62
7
 10
2.2405715E+002
 20
1.25E+001
 11
2.2405715E+002
 21
1.5904E+001
  0
LINE
  8
1
  6
CONTINUOUS
 62
7
 10
2.2464915E+002
 20
1.25E+001
 11
2.2665455E+002
 21
1.25E+001
  0
LINE
  8
1
  6
CONTINUOUS
 62
7
 10
2.2546315E+002
 20
1.5904E+001
 11
2.2665455E+002
 21
1.25E+001
  0
LINE
  8
1
  6
CONTINUOUS
 62
7
 10
2.2464915E+002
 20
1.5904E+001
 11
2.2546315E+002
 21
1.5904E+001
  0
LINE
  8
1
  6
CONTINUOUS
 62
7
 10
2.2464915E+002
 20
1.25E+001
 11
2.2464915E+002
 21
1.5904E+001
  0
LINE
  8
1
  6
CONTINUOUS
 62
7
 10
2.2405715E+002
 20
9.984
 11
2.2405715E+002
 21
1.1908E+001
  0
LINE
  8
1
  6
CONTINUOUS
 62
7
 10
2.2302115E+002
 20
9.984
 11
2.2405715E+002
 21
9.984
  0
LINE
  8
1
  6
CONTINUOUS
 62
7
 10
2.2250315E+002
 20
8.504
 11
2.2302115E+002
 21
9.984
  0
LINE
  8
1
  6
CONTINUOUS
 62
7
 10
2.2065315E+002
 20
8.504
 11
2.2250315E+002
 21
8.504
  0
LINE
  8
1
  6
CONTINUOUS
 62
7
 10
2.2065315E+002
 20
8.504
 11
2.2184455E+002
 21
1.1908E+001
  0
LINE
  8
1
  6
CONTINUOUS
 62
7
 10
2.2184455E+002
 20
1.1908E+001
 11
2.2405715E+002
 21
1.1908E+001
  0
LINE
  8
1
  6
CONTINUOUS
 62
7
 10
2.2464915E+002
 20
1.1908E+001
 11
2.2686175E+002
 21
1.1908E+001
  0
LINE
  8
1
  6
CONTINUOUS
 62
7
 10
2.2686175E+002
 20
1.1908E+001
 11
2.2805315E+002
 21
8.504
  0
LINE
  8
1
  6
CONTINUOUS
 62
7
 10
2.2620315E+002
 20
8.504
 11
2.2805315E+002
 21
8.504
  0
LINE
  8
1
  6
CONTINUOUS
 62
7
 10
2.2620315E+002
 20
8.504
 11
2.2568515E+002
 21
9.984
  0
LINE
  8
1
  6
CONTINUOUS
 62
7
 10
2.2464915E+002
 20
9.984
 11
2.2568515E+002
 21
9.984
  0
LINE
  8
1
  6
CONTINUOUS
 62
7
 10
2.2464915E+002
 20
9.984
 11
2.2464915E+002
 21
1.1908E+001
  0
LINE
  8
1
  6
CONTINUOUS
 62
7
 10
2.2857115E+002
 20
1.25E+001
 11
2.3049515E+002
 21
1.25E+001
  0
LINE
  8
1
  6
CONTINUOUS
 62
7
 10
2.2857115E+002
 20
1.5904E+001
 11
2.2857115E+002
 21
1.25E+001
  0
LINE
  8
1
  6
CONTINUOUS
 62
7
 10
2.2857115E+002
 20
1.5904E+001
 11
2.3049515E+002
 21
1.5904E+001
  0
LINE
  8
1
  6
CONTINUOUS
 62
7
 10
2.3049515E+002
 20
1.5904E+001
 11
2.3049515E+002
 21
1.25E+001
  0
LINE
  8
1
  6
CONTINUOUS
 62
7
 10
2.3108715E+002
 20
1.25E+001
 11
2.3286315E+002
 21
1.25E+001
  0
ARC
  8
1
  6
CONTINUOUS
 62
7
 10
2.3153115E+002
 20
1.0724E+001
 40
2.22
 50
5.3130102E+001
 51
6.8407484E+001
  0
ARC
  8
1
  6
CONTINUOUS
 62
7
 10
2.3153115E+002
 20
1.4239E+001
 40
1.665
 50
2.9938468E+002
 51
4.5E+002
  0
LINE
  8
1
  6
CONTINUOUS
 62
7
 10
2.3108715E+002
 20
1.5904E+001
 11
2.3153115E+002
 21
1.5904E+001
  0
LINE
  8
1
  6
CONTINUOUS
 62
7
 10
2.3108715E+002
 20
1.5904E+001
 11
2.3108715E+002
 21
1.25E+001
  0
LINE
  8
1
  6
CONTINUOUS
 62
7
 10
2.3049515E+002
 20
1.1908E+001
 11
2.3049515E+002
 21
8.504
  0
LINE
  8
1
  6
CONTINUOUS
 62
7
 10
2.2857115E+002
 20
8.504
 11
2.3049515E+002
 21
8.504
  0
LINE
  8
1
  6
CONTINUOUS
 62
7
 10
2.2857115E+002
 20
1.1908E+001
 11
2.2857115E+002
 21
8.504
  0
LINE
  8
1
  6
CONTINUOUS
 62
7
 10
2.2857115E+002
 20
1.1908E+001
 11
2.3049515E+002
 21
1.1908E+001
  0
LINE
  8
1
  6
CONTINUOUS
 62
7
 10
2.3108715E+002
 20
1.1908E+001
 11
2.3340906E+002
 21
1.1908E+001
  0
ARC
  8
1
  6
CONTINUOUS
 62
7
 10
2.3153115E+002
 20
1.0724E+001
 40
2.22
 50
2.7E+002
 51
3.9223095E+002
  0
LINE
  8
1
  6
CONTINUOUS
 62
7
 10
2.3108715E+002
 20
8.504
 11
2.3153115E+002
 21
8.504
  0
LINE
  8
1
  6
CONTINUOUS
 62
7
 10
2.3108715E+002
 20
1.1908E+001
 11
2.3108715E+002
 21
8.504
  0
LINE
  8
1
  6
CONTINUOUS
 62
7
 10
2.3434315E+002
 20
1.25E+001
 11
2.3626715E+002
 21
1.25E+001
  0
LINE
  8
1
  6
CONTINUOUS
 62
7
 10
2.3434315E+002
 20
1.5904E+001
 11
2.3434315E+002
 21
1.25E+001
  0
LINE
  8
1
  6
CONTINUOUS
 62
7
 10
2.3434315E+002
 20
1.5904E+001
 11
2.3626715E+002
 21
1.5904E+001
  0
LINE
  8
1
  6
CONTINUOUS
 62
7
 10
2.3626715E+002
 20
1.5904E+001
 11
2.3626715E+002
 21
1.25E+001
  0
LINE
  8
1
  6
CONTINUOUS
 62
7
 10
2.3685915E+002
 20
1.5904E+001
 11
2.3685915E+002
 21
1.25E+001
  0
LINE
  8
1
  6
CONTINUOUS
 62
7
 10
2.3685915E+002
 20
1.5904E+001
 11
2.3730315E+002
 21
1.5904E+001
  0
ARC
  8
1
  6
CONTINUOUS
 62
7
 10
2.3730315E+002
 20
1.4239E+001
 40
1.665
 50
2.9938468E+002
 51
4.5E+002
  0
ARC
  8
1
  6
CONTINUOUS
 62
7
 10
2.3730315E+002
 20
1.0724E+001
 40
2.22
 50
5.3130102E+001
 51
6.8407484E+001
  0
LINE
  8
1
  6
CONTINUOUS
 62
7
 10
2.3685915E+002
 20
1.25E+001
 11
2.3863515E+002
 21
1.25E+001
  0
LINE
  8
1
  6
CONTINUOUS
 62
7
 10
2.3626715E+002
 20
1.1908E+001
 11
2.3626715E+002
 21
8.504
  0
LINE
  8
1
  6
CONTINUOUS
 62
7
 10
2.3434315E+002
 20
8.504
 11
2.3626715E+002
 21
8.504
  0
LINE
  8
1
  6
CONTINUOUS
 62
7
 10
2.3434315E+002
 20
1.1908E+001
 11
2.3434315E+002
 21
8.504
  0
LINE
  8
1
  6
CONTINUOUS
 62
7
 10
2.3434315E+002
 20
1.1908E+001
 11
2.3626715E+002
 21
1.1908E+001
  0
LINE
  8
1
  6
CONTINUOUS
 62
7
 10
2.3685915E+002
 20
1.1908E+001
 11
2.3918106E+002
 21
1.1908E+001
  0
ARC
  8
1
  6
CONTINUOUS
 62
7
 10
2.3730315E+002
 20
1.0724E+001
 40
2.22
 50
2.7E+002
 51
3.9223095E+002
  0
LINE
  8
1
  6
CONTINUOUS
 62
7
 10
2.3685915E+002
 20
8.504
 11
2.3730315E+002
 21
8.504
  0
LINE
  8
1
  6
CONTINUOUS
 62
7
 10
2.3685915E+002
 20
1.1908E+001
 11
2.3685915E+002
 21
8.504
  0
LINE
  8
1
  6
CONTINUOUS
 62
7
 10
1.0E+001
 20
5.8462564E+001
 11
0.0
 21
5.8462564E+001
  0
LINE
  8
1
  6
CONTINUOUS
 62
7
 10
0.0
 20
1.1192513E+002
 11
1.0E+001
 21
1.1192513E+002
  0
ATTDEF
  8
1
  6
CONTINUOUS
 62
5
 10
2.2649419E+002
 20
2.6875E+001
 40
1.75
  1
 
 41
7.5E-001
 11
2.2649419E+002
 21
2.6E+001
  3
DESC-1
  2
DESC-1
 70
0
 73
2
 74
2
  0
ATTDEF
  8
1
  6
CONTINUOUS
 62
5
 10
2.2649419E+002
 20
3.0875E+001
 40
1.75
  1
 
 41
7.5E-001
 11
2.2649419E+002
 21
3.0E+001
  3
DESC-2
  2
DESC-2
 70
0
 73
2
 74
2
  0
ATTDEF
  8
1
  6
CONTINUOUS
 62
5
 10
2.2649419E+002
 20
3.4875E+001
 40
1.75
  1
 
 41
7.5E-001
 11
2.2649419E+002
 21
3.4E+001
  3
DESC-3
  2
DESC-3
 70
0
 73
2
 74
2
  0
ATTDEF
  8
1
  6
CONTINUOUS
 62
5
 10
2.2649419E+002
 20
3.8875E+001
 40
1.75
  1
 
 41
7.5E-001
 11
2.2649419E+002
 21
3.8E+001
  3
DESC-4
  2
DESC-4
 70
0
 73
2
 74
2
  0
ATTDEF
  8
1
  6
CONTINUOUS
 62
5
 10
2.9519644E+002
 20
2.69E+001
 40
1.8
  1
01.01.04
 41
6.0E-001
 72
1
 11
2.9249644E+002
 21
2.6E+001
  3
DATE1
  2
DATE1
 70
0
 73
2
 74
2
  0
ATTDEF
  8
1
  6
CONTINUOUS
 62
5
 10
2.9519644E+002
 20
3.09E+001
 40
1.8
  1
 
 41
6.0E-001
 72
1
 11
2.9249644E+002
 21
3.0E+001
  3
DATE2
  2
DATE2
 70
0
 73
2
 74
2
  0
ATTDEF
  8
1
  6
CONTINUOUS
 62
5
 10
2.9519644E+002
 20
3.49E+001
 40
1.8
  1
 
 41
6.0E-001
 72
1
 11
2.9249644E+002
 21
3.4E+001
  3
DATE3
  2
DATE3
 70
0
 73
2
 74
2
  0
ATTDEF
  8
1
  6
CONTINUOUS
 62
5
 10
2.9519644E+002
 20
3.89E+001
 40
1.8
  1
 
 41
6.0E-001
 72
1
 11
2.9249644E+002
 21
3.8E+001
  3
DATE4
  2
DATE4
 70
0
 73
2
 74
2
  0
ATTDEF
  8
1
  6
CONTINUOUS
 62
5
 10
3.0452144E+002
 20
2.69E+001
 40
1.8
  1
12345
 41
7.5E-001
 72
1
 11
3.0249644E+002
 21
2.6E+001
  3
OE1
  2
OE1
 70
0
 73
2
 74
2
  0
ATTDEF
  8
1
  6
CONTINUOUS
 62
5
 10
3.0452144E+002
 20
3.09E+001
 40
1.8
  1
 
 41
7.5E-001
 72
1
 11
3.0249644E+002
 21
3.0E+001
  3
OE2
  2
OE2
 70
0
 73
2
 74
2
  0
ATTDEF
  8
1
  6
CONTINUOUS
 62
5
 10
3.0452144E+002
 20
3.49E+001
 40
1.8
  1
 
 41
7.5E-001
 72
1
 11
3.0249644E+002
 21
3.4E+001
  3
OE3
  2
OE3
 70
0
 73
2
 74
2
  0
ATTDEF
  8
1
  6
CONTINUOUS
 62
5
 10
3.0452144E+002
 20
3.89E+001
 40
1.8
  1
 
 41
7.5E-001
 72
1
 11
3.0249644E+002
 21
3.8E+001
  3
OE4
  2
OE4
 70
0
 73
2
 74
2
  0
ATTDEF
  8
1
  6
CONTINUOUS
 62
5
 10
3.1369644E+002
 20
2.69E+001
 40
1.8
  1
 
 41
7.5E-001
 72
1
 11
3.1099644E+002
 21
2.6E+001
  3
AUT1
  2
AUT1
 70
0
 73
2
 74
2
  0
ATTDEF
  8
1
  6
CONTINUOUS
 62
5
 10
3.1369644E+002
 20
3.09E+001
 40
1.8
  1
 
 41
7.5E-001
 72
1
 11
3.1099644E+002
 21
3.0E+001
  3
AUT2
  2
AUT2
 70
0
 73
2
 74
2
  0
ATTDEF
  8
1
  6
CONTINUOUS
 62
5
 10
3.1369644E+002
 20
3.49E+001
 40
1.8
  1
 
 41
7.5E-001
 72
1
 11
3.1099644E+002
 21
3.4E+001
  3
AUT3
  2
AUT3
 70
0
 73
2
 74
2
  0
ATTDEF
  8
1
  6
CONTINUOUS
 62
5
 10
3.1369644E+002
 20
3.89E+001
 40
1.8
  1
 
 41
7.5E-001
 72
1
 11
3.1099644E+002
 21
3.8E+001
  3
AUT4
  2
AUT4
 70
0
 73
2
 74
2
  0
ATTDEF
  8
1
  6
CONTINUOUS
 62
5
 10
3.1540529E+002
 20
2.69E+001
 40
1.8
  1
 
 41
7.5E-001
 11
3.1540529E+002
 21
2.6E+001
  3
CONT1
  2
CONT1
 70
0
 73
2
 74
2
  0
ATTDEF
  8
1
  6
CONTINUOUS
 62
5
 10
3.1540529E+002
 20
3.09E+001
 40
1.8
  1
 
 41
7.5E-001
 11
3.1540529E+002
 21
3.0E+001
  3
CONT2
  2
CONT2
 70
0
 73
2
 74
2
  0
ATTDEF
  8
1
  6
CONTINUOUS
 62
5
 10
3.1540529E+002
 20
3.49E+001
 40
1.8
  1
 
 41
7.5E-001
 11
3.1540529E+002
 21
3.4E+001
  3
CONT3
  2
CONT3
 70
0
 73
2
 74
2
  0
ATTDEF
  8
1
  6
CONTINUOUS
 62
5
 10
3.1540529E+002
 20
3.89E+001
 40
1.8
  1
 
 41
7.5E-001
 11
3.1540529E+002
 21
3.8E+001
  3
CONT4
  2
CONT4
 70
0
 73
2
 74
2
  0
LINE
  8
2
  6
CONTINUOUS
 62
7
 10
2.2749903E+002
 20
2.72E+002
 11
2.2749903E+002
 21
2.77E+002
  0
LINE
  8
1
  6
CONTINUOUS
 62
7
 10
1.85E+002
 20
2.77E+002
 11
1.85E+002
 21
2.72E+002
  0
LINE
  8
1
  6
CONTINUOUS
 62
7
 10
2.6999806E+002
 20
2.77E+002
 11
2.6999806E+002
 21
2.72E+002
  0
LINE
  8
1
  6
CONTINUOUS
 62
7
 10
3.5499612E+002
 20
2.77E+002
 11
3.5499612E+002
 21
2.72E+002
  0
LINE
  8
2
  6
CONTINUOUS
 62
7
 10
3.1249709E+002
 20
2.72E+002
 11
3.1249709E+002
 21
2.77E+002
  0
LINE
  8
2
  6
CONTINUOUS
 62
7
 10
3.9049515E+002
 20
0.0
 11
3.9049515E+002
 21
2.77E+002
  0
POLYLINE
  8
1
  6
CONTINUOUS
 62
7
 66
1
 40
5.0E-001
 41
5.0E-001
 70
0
  0
VERTEX
  8
1
 42
0.0
 10
2.1549515E+002
 20
4.0E+001
 70
0
  0
VERTEX
  8
1
 42
0.0
 10
2.1549515E+002
 20
5.0
 70
0
  0
SEQEND
  0
TEXT
  8
2
  6
CONTINUOUS
 62
7
 10
2.0983526E+002
 20
2.760248E+002
 40
2.5
  1
E
 72
1
 11
2.0858526E+002
 21
2.747748E+002
 73
2
  0
TEXT
  8
2
  6
CONTINUOUS
 62
7
 10
2.4999854E+002
 20
2.7575E+002
 40
2.5
  1
D
 72
1
 11
2.4874854E+002
 21
2.745E+002
 73
2
  0
TEXT
  8
2
  6
CONTINUOUS
 62
7
 10
2.9249757E+002
 20
2.7575E+002
 40
2.5
  1
C
 72
1
 11
2.9124757E+002
 21
2.745E+002
 73
2
  0
TEXT
  8
2
  6
CONTINUOUS
 62
7
 10
3.349966E+002
 20
2.7575E+002
 40
2.5
  1
B
 72
1
 11
3.337466E+002
 21
2.745E+002
 73
2
  0
TEXT
  8
2
  6
CONTINUOUS
 62
7
 10
3.7749563E+002
 20
2.7575E+002
 40
2.5
  1
A
 72
1
 11
3.7624563E+002
 21
2.745E+002
 73
2
  0
POINT
  8
Drafting_Hidden_Entities
  6
CONTINUOUS
 62
1
 10
0.0
 20
0.0
  0
ENDBLK
  0
BLOCK
  2
*XH157
  3
*XH
 10
0.0
 20
0.0
 70
65
  0
LINE
  8
1
  6
CONTINUOUS
 62
7
 10
-5.0147275E-002
 20
-5.0147275E-002
 11
5.0147275E-002
 21
5.0147275E-002
  0
LINE
  8
1
  6
CONTINUOUS
 62
7
 10
-9.8194609E-002
 20
1.846481E-001
 11
1.2291826E-001
 21
4.0576097E-001
  0
LINE
  8
1
  6
CONTINUOUS
 62
7
 10
-1.4624194E-001
 20
4.1944348E-001
 11
1.9568924E-001
 21
7.6137466E-001
  0
LINE
  8
1
  6
CONTINUOUS
 62
7
 10
-1.9428928E-001
 20
6.5423886E-001
 11
2.6846022E-001
 21
1.1169884
  0
LINE
  8
1
  6
CONTINUOUS
 62
7
 10
-2.4233661E-001
 20
8.8903424E-001
 11
3.412312E-001
 21
1.4726021
  0
LINE
  8
1
  6
CONTINUOUS
 62
7
 10
-2.9038395E-001
 20
1.1238296
 11
4.1400218E-001
 21
1.8282157
  0
LINE
  8
1
  6
CONTINUOUS
 62
7
 10
-3.3843128E-001
 20
1.358625
 11
2.4855716E-001
 21
1.9456134
  0
LINE
  8
1
  6
CONTINUOUS
 62
7
 10
-3.8647862E-001
 20
1.5934204
 11
-3.4285551E-002
 21
1.9456134
  0
LINE
  8
1
  6
CONTINUOUS
 62
7
 10
-4.3452595E-001
 20
1.8282157
 11
-3.1712826E-001
 21
1.9456134
  0
ENDBLK
  0
BLOCK
  2
*XH158
  3
*XH
 10
0.0
 20
0.0
 70
65
  0
LINE
  8
1
  6
CONTINUOUS
 62
7
 10
-5.0147275E-002
 20
-5.0147275E-002
 11
5.0147275E-002
 21
5.0147275E-002
  0
LINE
  8
1
  6
CONTINUOUS
 62
7
 10
-9.8194609E-002
 20
1.846481E-001
 11
1.2291826E-001
 21
4.0576097E-001
  0
LINE
  8
1
  6
CONTINUOUS
 62
7
 10
-1.4624194E-001
 20
4.1944348E-001
 11
1.9568924E-001
 21
7.6137466E-001
  0
LINE
  8
1
  6
CONTINUOUS
 62
7
 10
-1.9428928E-001
 20
6.5423886E-001
 11
2.6846022E-001
 21
1.1169884
  0
LINE
  8
1
  6
CONTINUOUS
 62
7
 10
-2.4233661E-001
 20
8.8903424E-001
 11
3.412312E-001
 21
1.4726021
  0
LINE
  8
1
  6
CONTINUOUS
 62
7
 10
-2.9038395E-001
 20
1.1238296
 11
4.1400218E-001
 21
1.8282157
  0
LINE
  8
1
  6
CONTINUOUS
 62
7
 10
-3.3843128E-001
 20
1.358625
 11
2.4855716E-001
 21
1.9456134
  0
LINE
  8
1
  6
CONTINUOUS
 62
7
 10
-3.8647862E-001
 20
1.5934204
 11
-3.4285551E-002
 21
1.9456134
  0
LINE
  8
1
  6
CONTINUOUS
 62
7
 10
-4.3452595E-001
 20
1.8282157
 11
-3.1712826E-001
 21
1.9456134
  0
ENDBLK
  0
BLOCK
  2
*TX495
  3
*TX
 10
0.0
 20
0.0
 70
65
  0
TEXT
  8
1
  6
CONTINUOUS
 62
1
 10
0.0
 20
0.0
 40
3.0
  1
Mounting Main-Delta-Star
 41
7.5E-001
 51
1.5E+001
  0
TEXT
  8
1
  6
CONTINUOUS
 62
1
 10
0.0
 20
-4.5
 40
3.0
  1
Protection by Thermal Overload Relay
 41
7.5E-001
 51
1.5E+001
  0
ENDBLK
  0
BLOCK
  2
*TX496
  3
*TX
 10
0.0
 20
0.0
 70
65
  0
TEXT
  8
1
  6
CONTINUOUS
 62
7
 10
0.0
 20
0.0
 40
2.0
  1
Us
 41
7.5E-001
  0
TEXT
  8
1
  6
CONTINUOUS
 62
7
 10
0.0
 20
-3.0
 40
2.0
  1
N
 41
7.5E-001
  0
TEXT
  8
1
  6
CONTINUOUS
 62
7
 10
0.0
 20
-6.0
 40
2.0
  1
KM3:3/L2
 41
7.5E-001
  0
ENDBLK
  0
BLOCK
  2
*TX497
  3
*TX
 10
0.0
 20
0.0
 70
65
  0
TEXT
  8
1
  6
CONTINUOUS
 62
7
 10
0.0
 20
0.0
 40
2.25
  1
Local control
 41
7.5E-001
  0
TEXT
  8
1
  6
CONTINUOUS
 62
7
 10
0.0
 20
-3.375
 40
2.25
  1
betätigung innerhalb
 41
7.5E-001
  0
TEXT
  8
1
  6
CONTINUOUS
 62
7
 10
0.0
 20
-6.75
 40
2.25
  1
Commande locale
 41
7.5E-001
  0
ENDBLK
  0
BLOCK
  2
*TX498
  3
*TX
 10
0.0
 20
0.0
 70
65
  0
TEXT
  8
1
  6
CONTINUOUS
 62
7
 10
0.0
 20
0.0
 40
2.0
  1
KM3:5/L3
 41
7.5E-001
  0
TEXT
  8
1
  6
CONTINUOUS
 62
7
 10
0.0
 20
-3.0
 40
2.0
  1
Us
 41
7.5E-001
  0
ENDBLK
  0
BLOCK
  2
*TX499
  3
*TX
 10
0.0
 20
0.0
 70
65
  0
TEXT
  8
1
  6
CONTINUOUS
 62
7
 10
0.0
 20
0.0
 40
2.0
  1
Us
 41
7.5E-001
  0
TEXT
  8
1
  6
CONTINUOUS
 62
7
 10
0.0
 20
-3.0
 40
2.0
  1
N
 41
7.5E-001
  0
TEXT
  8
1
  6
CONTINUOUS
 62
7
 10
0.0
 20
-6.0
 40
2.0
  1
KM3:3/L2
 41
7.5E-001
  0
ENDBLK
  0
BLOCK
  2
*TX507
  3
*TX
 10
0.0
 20
0.0
 70
65
  0
TEXT
  8
1
  6
CONTINUOUS
 62
7
 10
0.0
 20
0.0
 40
2.25
  1
Magnetic coil for remot reset
 41
7.5E-001
  0
TEXT
  8
1
  6
CONTINUOUS
 62
7
 10
0.0
 20
-3.375
 40
2.25
  1
Fernrückstellspule
 41
7.5E-001
  0
TEXT
  8
1
  6
CONTINUOUS
 62
7
 10
0.0
 20
-6.75
 40
2.25
  1
Bobine pour réarmement à distance
 41
7.5E-001
  0
ENDBLK
  0
BLOCK
  2
*TX508
  3
*TX
 10
0.0
 20
0.0
 70
65
  0
TEXT
  8
1
  6
CONTINUOUS
 62
7
 10
0.0
 20
0.0
 40
2.25
  1
Magnetic coil for remote tripping
 41
7.5E-001
  0
TEXT
  8
1
  6
CONTINUOUS
 62
7
 10
0.0
 20
-3.375
 40
2.25
  1
Fernauslösespule
 41
7.5E-001
  0
TEXT
  8
1
  6
CONTINUOUS
 62
7
 10
0.0
 20
-6.75
 40
2.25
  1
Bobine pour déclenchement à distance
 41
7.5E-001
  0
ENDBLK
  0
BLOCK
  2
*TX509
  3
*TX
 10
0.0
 20
0.0
 70
65
  0
TEXT
  8
1
  6
CONTINUOUS
 62
7
 10
0.0
 20
0.0
 40
2.25
  1
Under voltage
 41
7.5E-001
  0
TEXT
  8
1
  6
CONTINUOUS
 62
7
 10
0.0
 20
-3.375
 40
2.25
  1
Unter Spannung
 41
7.5E-001
  0
TEXT
  8
1
  6
CONTINUOUS
 62
7
 10
0.0
 20
-6.75
 40
2.25
  1
Mise sous tension
 41
7.5E-001
  0
ENDBLK
  0
BLOCK
  2
*TX510
  3
*TX
 10
0.0
 20
0.0
 70
65
  0
TEXT
  8
1
  6
CONTINUOUS
 62
7
 10
0.0
 20
0.0
 40
2.25
  1
Tripping of relay
 41
7.5E-001
  0
TEXT
  8
1
  6
CONTINUOUS
 62
7
 10
0.0
 20
-3.375
 40
2.25
  1
Relais ausgelöst
 41
7.5E-001
  0
TEXT
  8
1
  6
CONTINUOUS
 62
7
 10
0.0
 20
-6.75
 40
2.25
  1
Déclenchement relais
 41
7.5E-001
  0
ENDBLK
  0
BLOCK
  2
*TX511
  3
*TX
 10
0.0
 20
0.0
 70
65
  0
TEXT
  8
1
  6
CONTINUOUS
 62
7
 10
0.0
 20
0.0
 40
2.25
  1
Only for starters A9...30
 41
7.5E-001
  0
TEXT
  8
1
  6
CONTINUOUS
 62
7
 10
0.0
 20
-3.375
 40
2.25
  1
Nur für A9...30 Starters
 41
7.5E-001
  0
TEXT
  8
1
  6
CONTINUOUS
 62
7
 10
0.0
 20
-6.75
 40
2.25
  1
Uniquement pour démarreurs A9...30
 41
7.5E-001
  0
ENDBLK
  0
BLOCK
  2
*TX512
  3
*TX
 10
0.0
 20
0.0
 70
65
  0
TEXT
  8
1
  6
CONTINUOUS
 62
7
 10
0.0
 20
0.0
 40
2.0
  1
KM3:5/L3
 41
7.5E-001
  0
TEXT
  8
1
  6
CONTINUOUS
 62
7
 10
0.0
 20
-3.0
 40
2.0
  1
Us
 41
7.5E-001
  0
ENDBLK
  0
BLOCK
  2
*TX513
  3
*TX
 10
0.0
 20
0.0
 70
65
  0
TEXT
  8
1
  6
CONTINUOUS
 62
7
 10
0.0
 20
0.0
 40
2.0
  1
KM3:5/L3
 41
7.5E-001
  0
TEXT
  8
1
  6
CONTINUOUS
 62
7
 10
0.0
 20
-3.0
 40
2.0
  1
Us
 41
7.5E-001
  0
ENDBLK
  0
BLOCK
  2
*TX514
  3
*TX
 10
0.0
 20
0.0
 70
65
  0
TEXT
  8
1
  6
CONTINUOUS
 62
7
 10
0.0
 20
0.0
 40
2.25
  1
Remote control
 41
7.5E-001
  0
TEXT
  8
1
  6
CONTINUOUS
 62
7
 10
0.0
 20
-3.375
 40
2.25
  1
Fernbetätigung
 41
7.5E-001
  0
TEXT
  8
1
  6
CONTINUOUS
 62
7
 10
0.0
 20
-6.75
 40
2.25
  1
Commande à distance
 41
7.5E-001
  0
ENDBLK
  0
BLOCK
  2
_AH1
 70
0
 10
0.0
 20
0.0
  3
_AH1
  0
LINE
  8
0
  6
CONTINUOUS
 62
0
 10
-1.0
 20
1.66667E-001
 11
0.0
 21
0.0
  0
LINE
  8
0
  6
CONTINUOUS
 62
0
 10
0.0
 20
0.0
 11
-1.0
 21
-1.66667E-001
  0
LINE
  8
0
  6
CONTINUOUS
 62
0
 10
-1.0
 20
1.66667E-001
 11
-1.0
 21
-1.66667E-001
  0
LINE
  8
0
  6
CONTINUOUS
 62
0
 10
0.0
 20
0.0
 11
-1.0
 21
0.0
  0
ENDBLK
  0
BLOCK
  2
_AH2
 70
0
 10
0.0
 20
0.0
  3
_AH2
  0
LINE
  8
0
  6
CONTINUOUS
 62
0
 10
-1.0
 20
1.66667E-001
 11
0.0
 21
0.0
  0
LINE
  8
0
  6
CONTINUOUS
 62
0
 10
0.0
 20
0.0
 11
-1.0
 21
-1.66667E-001
  0
LINE
  8
0
  6
CONTINUOUS
 62
0
 10
0.0
 20
0.0
 11
-1.0
 21
0.0
  0
ENDBLK
  0
ENDSEC
  0
SECTION
  2
ENTITIES
  0
TEXT
  8
1
  6
CONTINUOUS
 62
7
 10
2.4939356E+002
 20
9.1802393E+001
 40
2.0
  1
KM2
 41
7.5E-001
  0
TEXT
  8
1
  6
CONTINUOUS
 62
7
 10
2.7239356E+002
 20
9.1846971E+001
 40
2.0
  1
KM3
 41
7.5E-001
  0
TEXT
  8
1
  6
CONTINUOUS
 62
7
 10
1.356576E+002
 20
9.1802393E+001
 40
2.0
  1
KM2
 41
7.5E-001
  0
TEXT
  8
1
  6
CONTINUOUS
 62
7
 10
1.586576E+002
 20
9.1846971E+001
 40
2.0
  1
KM3
 41
7.5E-001
  0
TEXT
  8
1
  6
CONTINUOUS
 62
7
 10
2.2628003E+002
 20
2.3808158E+002
 40
2.0
  1
21
 41
7.5E-001
 50
9.0E+001
  0
TEXT
  8
1
  6
CONTINUOUS
 62
7
 10
2.2628003E+002
 20
2.1901949E+002
 40
2.0
  1
22
 41
7.5E-001
 50
9.0E+001
  0
LINE
  8
1
  6
CONTINUOUS
 62
7
 10
2.2703003E+002
 20
2.2751949E+002
 11
2.2703003E+002
 21
2.1601949E+002
  0
LINE
  8
1
  6
CONTINUOUS
 62
7
 10
2.2703003E+002
 20
2.3251949E+002
 11
2.2703003E+002
 21
2.4401949E+002
  0
LINE
  8
1
  6
CONTINUOUS
 62
7
 10
2.2703003E+002
 20
2.2751949E+002
 11
2.2803003E+002
 21
2.3351949E+002
  0
LINE
  8
1
  6
CONTINUOUS
 62
7
 10
2.2703003E+002
 20
2.3251949E+002
 11
2.2903003E+002
 21
2.3251949E+002
  0
TEXT
  8
1
  6
CONTINUOUS
 62
7
 10
2.761018E+002
 20
2.3808158E+002
 40
2.0
  1
21
 41
7.5E-001
 50
9.0E+001
  0
TEXT
  8
1
  6
CONTINUOUS
 62
7
 10
2.761018E+002
 20
2.1901949E+002
 40
2.0
  1
22
 41
7.5E-001
 50
9.0E+001
  0
LINE
  8
1
  6
CONTINUOUS
 62
7
 10
2.768518E+002
 20
2.2751949E+002
 11
2.768518E+002
 21
2.1601949E+002
  0
LINE
  8
1
  6
CONTINUOUS
 62
7
 10
2.768518E+002
 20
2.3251949E+002
 11
2.768518E+002
 21
2.4401949E+002
  0
LINE
  8
1
  6
CONTINUOUS
 62
7
 10
2.768518E+002
 20
2.2751949E+002
 11
2.778518E+002
 21
2.3351949E+002
  0
LINE
  8
1
  6
CONTINUOUS
 62
7
 10
2.768518E+002
 20
2.3251949E+002
 11
2.788518E+002
 21
2.3251949E+002
  0
INSERT
  2
*TX495
  8
1
 10
7.9419685E+001
 20
2.6603158E+002
  0
LINE
  8
1
  6
CONTINUOUS
 62
7
 10
2.2713651E+002
 20
1.2565888E+002
 11
2.2713651E+002
 21
1.2165886E+002
  0
LINE
  8
1
  6
SHORT_DASH
 62
7
 10
2.3539356E+002
 20
1.2165886E+002
 11
2.2713651E+002
 21
1.2165886E+002
  0
TEXT
  8
1
  6
CONTINUOUS
 62
7
 10
2.1883651E+002
 20
1.2715888E+002
 40
2.0
  1
I
 41
7.5E-001
  0
LINE
  8
1
  6
CONTINUOUS
 62
7
 10
2.2713651E+002
 20
1.2565888E+002
 11
2.2513651E+002
 21
1.3065888E+002
  0
LINE
  8
1
  6
CONTINUOUS
 62
7
 10
2.2713651E+002
 20
1.3665886E+002
 11
2.2713651E+002
 21
1.3065888E+002
  0
LINE
  8
1
  6
CONTINUOUS
 62
7
 10
2.2263651E+002
 20
1.3015888E+002
 11
2.2113651E+002
 21
1.3015888E+002
  0
LINE
  8
1
  6
CONTINUOUS
 62
7
 10
2.2113651E+002
 20
1.3015888E+002
 11
2.2113651E+002
 21
1.2615888E+002
  0
LINE
  8
1
  6
CONTINUOUS
 62
7
 10
2.2263651E+002
 20
1.2615888E+002
 11
2.2113651E+002
 21
1.2615888E+002
  0
LINE
  8
1
  6
HIDDEN
 62
7
 10
2.2613651E+002
 20
1.2815888E+002
 11
2.2113651E+002
 21
1.2815888E+002
  0
LINE
  8
1
  6
CONTINUOUS
 62
7
 10
2.5589356E+002
 20
9.5215586E+001
 11
2.5789356E+002
 21
9.5215586E+001
  0
LINE
  8
1
  6
CONTINUOUS
 62
7
 10
2.5589356E+002
 20
9.0215586E+001
 11
2.5689356E+002
 21
9.6215586E+001
  0
LINE
  8
1
  6
CONTINUOUS
 62
7
 10
2.7889356E+002
 20
9.5215586E+001
 11
2.8089356E+002
 21
9.5215586E+001
  0
LINE
  8
1
  6
CONTINUOUS
 62
7
 10
2.7889356E+002
 20
9.0215586E+001
 11
2.7989356E+002
 21
9.6215586E+001
  0
LINE
  8
1
  6
CONTINUOUS
 62
7
 10
2.7889356E+002
 20
9.0215586E+001
 11
2.7889356E+002
 21
8.1171008E+001
  0
LINE
  8
1
  6
CONTINUOUS
 62
7
 10
2.5589356E+002
 20
9.0215586E+001
 11
2.5589356E+002
 21
8.1171008E+001
  0
LINE
  8
1
  6
CONTINUOUS
 62
7
 10
2.2789356E+002
 20
9.0171008E+001
 11
2.2589356E+002
 21
9.5171008E+001
  0
LINE
  8
1
  6
CONTINUOUS
 62
7
 10
2.3539356E+002
 20
9.0171008E+001
 11
2.3339356E+002
 21
9.5171008E+001
  0
LINE
  8
1
  6
CONTINUOUS
 62
7
 10
2.2789356E+002
 20
8.6658858E+001
 11
2.2789356E+002
 21
9.0171008E+001
  0
LINE
  8
1
  6
CONTINUOUS
 62
7
 10
2.2789356E+002
 20
8.6658858E+001
 11
2.3539356E+002
 21
8.6658858E+001
  0
LINE
  8
1
  6
CONTINUOUS
 62
7
 10
2.8989356E+002
 20
1.0065886E+002
 11
2.9489356E+002
 21
1.0065886E+002
  0
LINE
  8
1
  6
CONTINUOUS
 62
7
 10
2.9489356E+002
 20
1.0365886E+002
 11
2.9489356E+002
 21
1.0065886E+002
  0
LINE
  8
1
  6
CONTINUOUS
 62
7
 10
2.9489356E+002
 20
1.0565886E+002
 11
2.9489356E+002
 21
1.0465886E+002
  0
LINE
  8
1
  6
CONTINUOUS
 62
7
 10
2.9489356E+002
 20
1.1165886E+002
 11
2.9489356E+002
 21
1.0665886E+002
  0
LINE
  8
1
  6
CONTINUOUS
 62
7
 10
2.9489356E+002
 20
1.1365886E+002
 11
2.9489356E+002
 21
1.1265886E+002
  0
LINE
  8
1
  6
CONTINUOUS
 62
7
 10
2.9489356E+002
 20
1.1765886E+002
 11
2.9489356E+002
 21
1.1465886E+002
  0
LINE
  8
1
  6
CONTINUOUS
 62
7
 10
2.9289356E+002
 20
1.1765886E+002
 11
2.9489356E+002
 21
1.1765886E+002
  0
LINE
  8
1
  6
CONTINUOUS
 62
7
 10
2.9089356E+002
 20
1.1765886E+002
 11
2.9189356E+002
 21
1.1765886E+002
  0
LINE
  8
1
  6
CONTINUOUS
 62
7
 10
2.8489356E+002
 20
1.1765886E+002
 11
2.8989356E+002
 21
1.1765886E+002
  0
LINE
  8
1
  6
CONTINUOUS
 62
7
 10
2.8289356E+002
 20
1.1765886E+002
 11
2.8389356E+002
 21
1.1765886E+002
  0
LINE
  8
1
  6
CONTINUOUS
 62
7
 10
2.7689356E+002
 20
1.1765886E+002
 11
2.8189356E+002
 21
1.1765886E+002
  0
LINE
  8
1
  6
SHORT_DASH
 62
7
 10
2.0389356E+002
 20
7.6171008E+001
 11
2.1598E+002
 21
7.6171008E+001
  0
LINE
  8
1
  6
SHORT_DASH
 62
7
 10
2.0389356E+002
 20
7.9171008E+001
 11
2.1598E+002
 21
7.9171008E+001
  0
LINE
  8
1
  6
CONTINUOUS
 62
7
 10
2.1598E+002
 20
7.9171008E+001
 11
2.1598E+002
 21
7.3171008E+001
  0
LINE
  8
1
  6
CONTINUOUS
 62
7
 10
2.7489356E+002
 20
1.1765886E+002
 11
2.7589356E+002
 21
1.1765886E+002
  0
LINE
  8
1
  6
CONTINUOUS
 62
7
 10
2.6889356E+002
 20
1.1765886E+002
 11
2.7389356E+002
 21
1.1765886E+002
  0
LINE
  8
1
  6
CONTINUOUS
 62
7
 10
2.6189356E+002
 20
1.1765886E+002
 11
2.6689356E+002
 21
1.1765886E+002
  0
LINE
  8
1
  6
CONTINUOUS
 62
7
 10
2.1339356E+002
 20
7.3171008E+001
 11
2.8739356E+002
 21
7.3171008E+001
  0
LINE
  8
1
  6
CONTINUOUS
 62
7
 10
2.5989356E+002
 20
1.1765886E+002
 11
2.6089356E+002
 21
1.1765886E+002
  0
LINE
  8
1
  6
CONTINUOUS
 62
7
 10
2.5389356E+002
 20
1.1765886E+002
 11
2.5889356E+002
 21
1.1765886E+002
  0
LINE
  8
1
  6
CONTINUOUS
 62
7
 10
2.5689356E+002
 20
1.0065886E+002
 11
2.6189356E+002
 21
1.0065886E+002
  0
LINE
  8
1
  6
CONTINUOUS
 62
7
 10
2.6389356E+002
 20
1.0065886E+002
 11
2.6289356E+002
 21
1.0065886E+002
  0
LINE
  8
1
  6
CONTINUOUS
 62
7
 10
2.6989356E+002
 20
1.0065886E+002
 11
2.6489356E+002
 21
1.0065886E+002
  0
LINE
  8
1
  6
CONTINUOUS
 62
7
 10
2.7189356E+002
 20
1.0065886E+002
 11
2.7089356E+002
 21
1.0065886E+002
  0
LINE
  8
1
  6
CONTINUOUS
 62
7
 10
2.7789356E+002
 20
1.0065886E+002
 11
2.7289356E+002
 21
1.0065886E+002
  0
LINE
  8
1
  6
CONTINUOUS
 62
7
 10
2.8089356E+002
 20
1.0065886E+002
 11
2.7989356E+002
 21
1.0065886E+002
  0
LINE
  8
1
  6
CONTINUOUS
 62
7
 10
2.8689356E+002
 20
1.0065886E+002
 11
2.8189356E+002
 21
1.0065886E+002
  0
LINE
  8
1
  6
CONTINUOUS
 62
7
 10
2.8889356E+002
 20
1.0065886E+002
 11
2.8789356E+002
 21
1.0065886E+002
  0
TEXT
  8
1
  6
CONTINUOUS
 62
7
 10
2.2714356E+002
 20
9.6171008E+001
 40
2.0
  1
13
 41
7.5E-001
 50
9.0E+001
  0
TEXT
  8
1
  6
CONTINUOUS
 62
7
 10
2.2714356E+002
 20
8.7171008E+001
 40
2.0
  1
14
 41
7.5E-001
 50
9.0E+001
  0
TEXT
  8
1
  6
CONTINUOUS
 62
7
 10
2.3464356E+002
 20
9.6171008E+001
 40
2.0
  1
13
 41
7.5E-001
 50
9.0E+001
  0
TEXT
  8
1
  6
CONTINUOUS
 62
7
 10
2.3464356E+002
 20
8.7171008E+001
 40
2.0
  1
14
 41
7.5E-001
 50
9.0E+001
  0
TEXT
  8
1
  6
CONTINUOUS
 62
7
 10
2.7814356E+002
 20
7.0052393E+001
 40
2.0
  1
Y
 41
7.5E-001
  0
TEXT
  8
1
  6
CONTINUOUS
 62
7
 10
2.2639356E+002
 20
7.8802393E+001
 40
2.0
  1
KM1
 41
7.5E-001
  0
TEXT
  8
1
  6
CONTINUOUS
 62
7
 10
2.3464356E+002
 20
7.0052393E+001
 40
2.0
  1
L
 41
7.5E-001
  0
TEXT
  8
1
  6
CONTINUOUS
 62
7
 10
2.2139356E+002
 20
9.1802393E+001
 40
2.0
  1
KM2
 41
7.5E-001
  0
TEXT
  8
1
  6
CONTINUOUS
 62
7
 10
2.2889356E+002
 20
9.1802393E+001
 40
2.0
  1
KM1
 41
7.5E-001
  0
LINE
  8
1
  6
CONTINUOUS
 62
7
 10
2.2789356E+002
 20
1.0065886E+002
 11
2.3539356E+002
 21
1.0065886E+002
  0
LINE
  8
1
  6
CONTINUOUS
 62
7
 10
2.3539356E+002
 20
1.2165886E+002
 11
2.8739356E+002
 21
1.2165886E+002
  0
LINE
  8
1
  6
CONTINUOUS
 62
7
 10
2.3539356E+002
 20
8.1171008E+001
 11
2.3539356E+002
 21
9.0171008E+001
  0
TEXT
  8
1
  6
CONTINUOUS
 62
7
 10
2.5114356E+002
 20
1.3217101E+002
 40
2.0
  1
23
 41
7.5E-001
 50
9.0E+001
  0
TEXT
  8
1
  6
CONTINUOUS
 62
7
 10
2.4539356E+002
 20
1.2780239E+002
 40
2.0
  1
KM1
 41
7.5E-001
  0
TEXT
  8
1
  6
CONTINUOUS
 62
7
 10
2.5114356E+002
 20
1.2317101E+002
 40
2.0
  1
24
 41
7.5E-001
 50
9.0E+001
  0
LINE
  8
1
  6
CONTINUOUS
 62
7
 10
2.5189356E+002
 20
1.2617101E+002
 11
2.4989356E+002
 21
1.3117101E+002
  0
LINE
  8
1
  6
CONTINUOUS
 62
7
 10
2.5189356E+002
 20
1.2617101E+002
 11
2.5189356E+002
 21
1.2165886E+002
  0
LINE
  8
1
  6
CONTINUOUS
 62
7
 10
2.3539356E+002
 20
9.5183871E+001
 11
2.3539356E+002
 21
1.2165886E+002
  0
LINE
  8
1
  6
CONTINUOUS
 62
7
 10
2.2789356E+002
 20
1.0065886E+002
 11
2.2789356E+002
 21
9.5183871E+001
  0
LINE
  8
1
  6
CONTINUOUS
 62
7
 10
2.7489356E+002
 20
7.8171008E+001
 11
2.8289356E+002
 21
7.8171008E+001
  0
LINE
  8
1
  6
CONTINUOUS
 62
7
 10
2.5189356E+002
 20
7.8171008E+001
 11
2.5989356E+002
 21
7.8171008E+001
  0
LINE
  8
1
  6
CONTINUOUS
 62
7
 10
2.5189356E+002
 20
8.1171008E+001
 11
2.5989356E+002
 21
8.1171008E+001
  0
LINE
  8
1
  6
CONTINUOUS
 62
7
 10
2.7489356E+002
 20
8.1171008E+001
 11
2.8289356E+002
 21
8.1171008E+001
  0
LINE
  8
1
  6
CONTINUOUS
 62
7
 10
2.5189356E+002
 20
8.1171008E+001
 11
2.5189356E+002
 21
7.8171008E+001
  0
LINE
  8
1
  6
CONTINUOUS
 62
7
 10
2.5989356E+002
 20
8.1171008E+001
 11
2.5989356E+002
 21
7.8171008E+001
  0
LINE
  8
1
  6
CONTINUOUS
 62
7
 10
2.7489356E+002
 20
8.1171008E+001
 11
2.7489356E+002
 21
7.8171008E+001
  0
LINE
  8
1
  6
CONTINUOUS
 62
7
 10
2.8289356E+002
 20
8.1171008E+001
 11
2.8289356E+002
 21
7.8171008E+001
  0
LINE
  8
1
  6
CONTINUOUS
 62
7
 10
2.7889356E+002
 20
7.8171008E+001
 11
2.7889356E+002
 21
7.3171008E+001
  0
LINE
  8
1
  6
CONTINUOUS
 62
7
 10
2.5589356E+002
 20
7.8171008E+001
 11
2.5589356E+002
 21
7.3171008E+001
  0
LINE
  8
1
  6
CONTINUOUS
 62
7
 10
2.3139356E+002
 20
7.8171008E+001
 11
2.3939356E+002
 21
7.8171008E+001
  0
LINE
  8
1
  6
CONTINUOUS
 62
7
 10
2.3139356E+002
 20
8.1171008E+001
 11
2.3939356E+002
 21
8.1171008E+001
  0
LINE
  8
1
  6
CONTINUOUS
 62
7
 10
2.3139356E+002
 20
8.1171008E+001
 11
2.3139356E+002
 21
7.8171008E+001
  0
LINE
  8
1
  6
CONTINUOUS
 62
7
 10
2.3539356E+002
 20
7.8171008E+001
 11
2.3539356E+002
 21
7.3171008E+001
  0
LINE
  8
1
  6
CONTINUOUS
 62
7
 10
2.7889356E+002
 20
1.1165886E+002
 11
2.8089356E+002
 21
1.1165886E+002
  0
LINE
  8
1
  6
CONTINUOUS
 62
7
 10
2.6839356E+002
 20
1.1165886E+002
 11
2.6839356E+002
 21
1.2165886E+002
  0
LINE
  8
1
  6
CONTINUOUS
 62
7
 10
2.6839356E+002
 20
1.0665886E+002
 11
2.6839356E+002
 21
1.0454087E+002
  0
LINE
  8
1
  6
CONTINUOUS
 62
7
 10
2.7889356E+002
 20
1.0665886E+002
 11
2.7989356E+002
 21
1.1265886E+002
  0
LINE
  8
1
  6
CONTINUOUS
 62
7
 10
2.6839356E+002
 20
1.0665886E+002
 11
2.6639356E+002
 21
1.1165886E+002
  0
TEXT
  8
1
  6
CONTINUOUS
 62
7
 10
2.6764356E+002
 20
1.1390886E+002
 40
2.0
  1
15
 41
7.5E-001
 50
9.0E+001
  0
LINE
  8
1
  6
CONTINUOUS
 62
7
 10
2.7394407E+002
 20
1.0965886E+002
 11
2.7939356E+002
 21
1.0965886E+002
  0
LINE
  8
1
  6
CONTINUOUS
 62
7
 10
2.7394407E+002
 20
1.0865886E+002
 11
2.7931023E+002
 21
1.0865886E+002
  0
LINE
  8
1
  6
HIDDEN
 62
7
 10
2.5489356E+002
 20
1.0915886E+002
 11
2.7344407E+002
 21
1.0915886E+002
  0
ARC
  8
1
  6
CONTINUOUS
 62
7
 10
2.7639356E+002
 20
1.0915886E+002
 40
2.5
 50
1.1356542E+002
 51
2.4643458E+002
  0
LINE
  8
1
  6
CONTINUOUS
 62
7
 10
2.5589356E+002
 20
1.1365886E+002
 11
2.6839356E+002
 21
1.1365886E+002
  0
LINE
  8
1
  6
CONTINUOUS
 62
7
 10
2.5589356E+002
 20
1.1365886E+002
 11
2.5589356E+002
 21
1.1165886E+002
  0
TEXT
  8
1
  6
CONTINUOUS
 62
7
 10
2.5514356E+002
 20
1.0085886E+002
 40
2.0
  1
18
 41
7.5E-001
 50
9.0E+001
  0
LINE
  8
1
  6
CONTINUOUS
 62
7
 10
2.8339356E+002
 20
1.0715886E+002
 11
2.8339356E+002
 21
1.1115886E+002
  0
LINE
  8
1
  6
CONTINUOUS
 62
7
 10
2.5589356E+002
 20
1.0665886E+002
 11
2.5389356E+002
 21
1.1165886E+002
  0
LINE
  8
1
  6
CONTINUOUS
 62
7
 10
2.5094407E+002
 20
1.0965886E+002
 11
2.5469356E+002
 21
1.0965886E+002
  0
LINE
  8
1
  6
CONTINUOUS
 62
7
 10
2.5094407E+002
 20
1.0865886E+002
 11
2.5509356E+002
 21
1.0865886E+002
  0
LINE
  8
1
  6
CONTINUOUS
 62
7
 10
2.7889356E+002
 20
1.0665886E+002
 11
2.7889356E+002
 21
9.5215586E+001
  0
LINE
  8
1
  6
CONTINUOUS
 62
7
 10
2.7889356E+002
 20
1.1165886E+002
 11
2.7889356E+002
 21
1.1365886E+002
  0
ARC
  8
1
  6
CONTINUOUS
 62
7
 10
2.5339356E+002
 20
1.0915886E+002
 40
2.5
 50
1.1356542E+002
 51
2.4643458E+002
  0
LINE
  8
1
  6
CONTINUOUS
 62
7
 10
2.9139356E+002
 20
1.0715886E+002
 11
2.9139356E+002
 21
1.1115886E+002
  0
LINE
  8
1
  6
CONTINUOUS
 62
7
 10
2.9339356E+002
 20
1.0715886E+002
 11
2.9339356E+002
 21
1.1115886E+002
  0
LINE
  8
1
  6
CONTINUOUS
 62
7
 10
2.8339356E+002
 20
1.1115886E+002
 11
2.9339356E+002
 21
1.1115886E+002
  0
LINE
  8
1
  6
CONTINUOUS
 62
7
 10
2.8339356E+002
 20
1.0715886E+002
 11
2.9339356E+002
 21
1.0715886E+002
  0
LINE
  8
1
  6
CONTINUOUS
 62
7
 10
2.9339356E+002
 20
1.1115886E+002
 11
2.9139356E+002
 21
1.0715886E+002
  0
LINE
  8
1
  6
CONTINUOUS
 62
7
 10
2.9139356E+002
 20
1.1115886E+002
 11
2.9339356E+002
 21
1.0715886E+002
  0
LINE
  8
1
  6
CONTINUOUS
 62
7
 10
2.8739356E+002
 20
1.1115886E+002
 11
2.8739356E+002
 21
1.2165886E+002
  0
LINE
  8
1
  6
CONTINUOUS
 62
7
 10
2.8739356E+002
 20
1.0715886E+002
 11
2.8739356E+002
 21
7.3171008E+001
  0
LINE
  8
1
  6
HIDDEN
 62
7
 10
2.7931023E+002
 20
1.0915886E+002
 11
2.8339356E+002
 21
1.0915886E+002
  0
TEXT
  8
1
  6
CONTINUOUS
 62
7
 10
2.8689356E+002
 20
1.1420886E+002
 40
2.0
  1
A1
 41
7.5E-001
 50
9.0E+001
  0
TEXT
  8
1
  6
CONTINUOUS
 62
7
 10
2.8664356E+002
 20
1.0105886E+002
 40
2.0
  1
A2
 41
7.5E-001
 50
9.0E+001
  0
TEXT
  8
1
  6
CONTINUOUS
 62
7
 10
2.5339356E+002
 20
1.1465886E+002
 40
2.0
  1
KT
 41
7.5E-001
  0
TEXT
  8
1
  6
CONTINUOUS
 62
7
 10
2.4564356E+002
 20
1.0410886E+002
 40
2.0
  1
t1+t2
 41
7.5E-001
  0
TEXT
  8
1
  6
CONTINUOUS
 62
7
 10
2.7314356E+002
 20
1.0410886E+002
 40
2.0
  1
t1
 41
7.5E-001
  0
TEXT
  8
1
  6
CONTINUOUS
 62
7
 10
2.7814356E+002
 20
1.0085886E+002
 40
2.0
  1
16
 41
7.5E-001
 50
9.0E+001
  0
TEXT
  8
1
  6
CONTINUOUS
 62
7
 10
2.3464356E+002
 20
8.2171008E+001
 40
2.0
  1
A1
 41
7.5E-001
 50
9.0E+001
  0
TEXT
  8
1
  6
CONTINUOUS
 62
7
 10
2.3464356E+002
 20
7.4171008E+001
 40
2.0
  1
A2
 41
7.5E-001
 50
9.0E+001
  0
TEXT
  8
1
  6
CONTINUOUS
 62
7
 10
2.7814356E+002
 20
8.2171008E+001
 40
2.0
  1
A1
 41
7.5E-001
 50
9.0E+001
  0
TEXT
  8
1
  6
CONTINUOUS
 62
7
 10
2.7814356E+002
 20
7.4171008E+001
 40
2.0
  1
A2
 41
7.5E-001
 50
9.0E+001
  0
TEXT
  8
1
  6
CONTINUOUS
 62
7
 10
2.5514356E+002
 20
8.2171008E+001
 40
2.0
  1
A1
 41
7.5E-001
 50
9.0E+001
  0
TEXT
  8
1
  6
CONTINUOUS
 62
7
 10
2.5514356E+002
 20
7.4171008E+001
 40
2.0
  1
A2
 41
7.5E-001
 50
9.0E+001
  0
LINE
  8
1
  6
SHORT_DASH
 62
7
 10
2.2713651E+002
 20
1.3665886E+002
 11
2.5189356E+002
 21
1.3665886E+002
  0
LINE
  8
1
  6
CONTINUOUS
 62
7
 10
2.5189356E+002
 20
1.3018387E+002
 11
2.5189356E+002
 21
1.5615886E+002
  0
LINE
  8
1
  6
CONTINUOUS
 62
7
 10
2.5589356E+002
 20
7.2058858E+001
 11
2.5473513E+002
 21
7.0052393E+001
  0
LINE
  8
1
  6
CONTINUOUS
 62
7
 10
2.5589356E+002
 20
7.2058858E+001
 11
2.5705199E+002
 21
7.0052393E+001
  0
LINE
  8
1
  6
CONTINUOUS
 62
7
 10
2.3939356E+002
 20
8.1171008E+001
 11
2.3939356E+002
 21
7.8171008E+001
  0
TEXT
  8
1
  6
CONTINUOUS
 62
7
 10
2.4689356E+002
 20
7.6802393E+001
 40
2.0
  1
KM3
 41
7.5E-001
  0
TEXT
  8
1
  6
CONTINUOUS
 62
7
 10
2.5514356E+002
 20
8.7215586E+001
 40
2.0
  1
22
 41
7.5E-001
 50
9.0E+001
  0
TEXT
  8
1
  6
CONTINUOUS
 62
7
 10
2.5514356E+002
 20
9.6215586E+001
 40
2.0
  1
21
 41
7.5E-001
 50
9.0E+001
  0
TEXT
  8
1
  6
CONTINUOUS
 62
7
 10
2.7814356E+002
 20
9.6215586E+001
 40
2.0
  1
21
 41
7.5E-001
 50
9.0E+001
  0
TEXT
  8
1
  6
CONTINUOUS
 62
7
 10
2.7814356E+002
 20
8.7215586E+001
 40
2.0
  1
22
 41
7.5E-001
 50
9.0E+001
  0
TEXT
  8
1
  6
CONTINUOUS
 62
7
 10
2.6989356E+002
 20
7.6802393E+001
 40
2.0
  1
KM2
 41
7.5E-001
  0
LINE
  8
1
  6
CONTINUOUS
 62
7
 10
2.5473513E+002
 20
7.0052393E+001
 11
2.5705199E+002
 21
7.0052393E+001
  0
LINE
  8
1
  6
CONTINUOUS
 62
7
 10
2.5189356E+002
 20
1.5615886E+002
 11
2.5289356E+002
 21
1.6215886E+002
  0
LINE
  8
1
  6
CONTINUOUS
 62
7
 10
2.5189356E+002
 20
1.6115886E+002
 11
2.5389356E+002
 21
1.6115886E+002
  0
LINE
  8
1
  6
CONTINUOUS
 62
7
 10
2.5189356E+002
 20
1.6115886E+002
 11
2.5189356E+002
 21
1.7217101E+002
  0
LINE
  8
1
  6
CONTINUOUS
 62
7
 10
2.3998653E+002
 20
1.6065886E+002
 11
2.4398653E+002
 21
1.5865886E+002
  0
LINE
  8
1
  6
CONTINUOUS
 62
7
 10
2.3998653E+002
 20
1.6065886E+002
 11
2.3998653E+002
 21
1.5865886E+002
  0
LINE
  8
1
  6
CONTINUOUS
 62
7
 10
2.3898653E+002
 20
1.5865886E+002
 11
2.4398653E+002
 21
1.5865886E+002
  0
LINE
  8
1
  6
HIDDEN
 62
7
 10
2.4398653E+002
 20
1.5965886E+002
 11
2.4398653E+002
 21
1.6415886E+002
  0
LINE
  8
1
  6
HIDDEN
 62
7
 10
2.4398653E+002
 20
1.6415886E+002
 11
2.3598653E+002
 21
1.6415886E+002
  0
LINE
  8
1
  6
HIDDEN
 62
7
 10
2.4498653E+002
 20
1.5965886E+002
 11
2.5247689E+002
 21
1.5965886E+002
  0
LINE
  8
1
  6
HIDDEN
 62
7
 10
2.4498653E+002
 20
1.6515886E+002
 11
2.4498653E+002
 21
1.5965886E+002
  0
LINE
  8
1
  6
HIDDEN
 62
7
 10
2.3598653E+002
 20
1.6515886E+002
 11
2.4498653E+002
 21
1.6515886E+002
  0
LINE
  8
1
  6
CONTINUOUS
 62
7
 10
2.3598653E+002
 20
1.6665886E+002
 11
2.3598653E+002
 21
1.6265886E+002
  0
LINE
  8
1
  6
CONTINUOUS
 62
7
 10
2.3748653E+002
 20
1.6265886E+002
 11
2.3598653E+002
 21
1.6265886E+002
  0
LINE
  8
1
  6
CONTINUOUS
 62
7
 10
2.3748653E+002
 20
1.6665886E+002
 11
2.3598653E+002
 21
1.6665886E+002
  0
TEXT
  8
1
  6
CONTINUOUS
 62
7
 10
2.3198653E+002
 20
1.6465886E+002
 40
2.0
  1
O
 41
7.5E-001
  0
TEXT
  8
1
  6
CONTINUOUS
 62
7
 10
2.3368653E+002
 20
1.6265886E+002
 40
2.0
  1
R
 41
7.5E-001
  0
LINE
  8
1
  6
CONTINUOUS
 62
7
 10
2.3418653E+002
 20
1.6605886E+002
 11
2.3258653E+002
 21
1.6285886E+002
  0
LINE
  8
1
  6
HIDDEN
 62
7
 10
2.4398653E+002
 20
1.5865886E+002
 11
2.5489356E+002
 21
1.5865886E+002
  0
LINE
  8
1
  6
CONTINUOUS
 62
7
 10
2.5489356E+002
 20
1.5917101E+002
 11
2.5489356E+002
 21
1.5817101E+002
  0
LINE
  8
1
  6
CONTINUOUS
 62
7
 10
2.5489356E+002
 20
1.5917101E+002
 11
2.5689356E+002
 21
1.5917101E+002
  0
LINE
  8
1
  6
CONTINUOUS
 62
7
 10
2.5489356E+002
 20
1.5817101E+002
 11
2.5689356E+002
 21
1.5817101E+002
  0
LINE
  8
1
  6
CONTINUOUS
 62
7
 10
2.5689356E+002
 20
1.5817101E+002
 11
2.5689356E+002
 21
1.5717101E+002
  0
LINE
  8
1
  6
CONTINUOUS
 62
7
 10
2.5689356E+002
 20
1.5917101E+002
 11
2.5689356E+002
 21
1.6017101E+002
  0
LINE
  8
1
  6
CONTINUOUS
 62
7
 10
2.4153249E+002
 20
1.7217101E+002
 11
2.5989356E+002
 21
1.7217101E+002
  0
LINE
  8
1
  6
SHORT_DASH
 62
7
 10
2.3248711E+002
 20
1.6917101E+002
 11
2.4457355E+002
 21
1.6917101E+002
  0
LINE
  8
1
  6
CONTINUOUS
 62
7
 10
2.4457355E+002
 20
1.6917101E+002
 11
2.4457355E+002
 21
1.7217101E+002
  0
TEXT
  8
1
  6
CONTINUOUS
 62
7
 10
2.5739356E+002
 20
1.5780239E+002
 40
2.0
  1
FR1
 41
7.5E-001
  0
TEXT
  8
1
  6
CONTINUOUS
 62
7
 10
2.5114356E+002
 20
1.6215886E+002
 40
2.0
  1
95
 41
7.5E-001
 50
9.0E+001
  0
TEXT
  8
1
  6
CONTINUOUS
 62
7
 10
2.5114356E+002
 20
1.5315886E+002
 40
2.0
  1
96
 41
7.5E-001
 50
9.0E+001
  0
LINE
  8
1
  6
CONTINUOUS
 62
7
 10
2.5589356E+002
 20
1.0665886E+002
 11
2.5589356E+002
 21
9.5215586E+001
  0
LINE
  8
1
  6
CONTINUOUS
 62
7
 10
2.6839356E+002
 20
1.0454087E+002
 11
2.7192167E+002
 21
1.0454087E+002
  0
LINE
  8
1
  6
CONTINUOUS
 62
7
 10
2.7192167E+002
 20
1.0454087E+002
 11
2.7192167E+002
 21
1.1365886E+002
  0
LINE
  8
1
  6
CONTINUOUS
 62
7
 10
2.7192167E+002
 20
1.1365886E+002
 11
2.7889356E+002
 21
1.1365886E+002
  0
LINE
  8
1
  6
CONTINUOUS
 62
7
 10
2.4589356E+002
 20
1.1765886E+002
 11
2.5089356E+002
 21
1.1765886E+002
  0
LINE
  8
1
  6
CONTINUOUS
 62
7
 10
2.5189356E+002
 20
1.1765886E+002
 11
2.5289356E+002
 21
1.1765886E+002
  0
LINE
  8
1
  6
CONTINUOUS
 62
7
 10
2.4889356E+002
 20
1.0065886E+002
 11
2.5389356E+002
 21
1.0065886E+002
  0
LINE
  8
1
  6
CONTINUOUS
 62
7
 10
2.5489356E+002
 20
1.0065886E+002
 11
2.5589356E+002
 21
1.0065886E+002
  0
LINE
  8
1
  6
CONTINUOUS
 62
7
 10
2.4589356E+002
 20
1.1765886E+002
 11
2.4589356E+002
 21
1.1465886E+002
  0
LINE
  8
1
  6
CONTINUOUS
 62
7
 10
2.4589356E+002
 20
1.1365886E+002
 11
2.4589356E+002
 21
1.1265886E+002
  0
LINE
  8
1
  6
CONTINUOUS
 62
7
 10
2.4589356E+002
 20
1.1165886E+002
 11
2.4589356E+002
 21
1.0665886E+002
  0
LINE
  8
1
  6
CONTINUOUS
 62
7
 10
2.4589356E+002
 20
1.0565886E+002
 11
2.4589356E+002
 21
1.0465886E+002
  0
LINE
  8
1
  6
CONTINUOUS
 62
7
 10
2.4589356E+002
 20
1.0365886E+002
 11
2.4589356E+002
 21
1.0065886E+002
  0
LINE
  8
1
  6
CONTINUOUS
 62
7
 10
2.4589356E+002
 20
1.0065886E+002
 11
2.4765341E+002
 21
1.0065886E+002
  0
INSERT
  2
*TX496
  8
1
 10
2.0039356E+002
 20
7.8146971E+001
  0
INSERT
  2
*TX497
  8
1
 10
2.4357187E+002
 20
1.8117101E+002
  0
INSERT
  2
*TX498
  8
1
 10
2.2898711E+002
 20
1.7114697E+002
  0
LINE
  8
1
  6
CONTINUOUS
 62
7
 10
1.421576E+002
 20
9.5215586E+001
 11
1.441576E+002
 21
9.5215586E+001
  0
LINE
  8
1
  6
CONTINUOUS
 62
7
 10
1.421576E+002
 20
9.0215586E+001
 11
1.431576E+002
 21
9.6215586E+001
  0
LINE
  8
1
  6
CONTINUOUS
 62
7
 10
1.651576E+002
 20
9.5215586E+001
 11
1.671576E+002
 21
9.5215586E+001
  0
LINE
  8
1
  6
CONTINUOUS
 62
7
 10
1.651576E+002
 20
9.0215586E+001
 11
1.661576E+002
 21
9.6215586E+001
  0
LINE
  8
1
  6
CONTINUOUS
 62
7
 10
1.651576E+002
 20
9.0215586E+001
 11
1.651576E+002
 21
8.1171008E+001
  0
LINE
  8
1
  6
CONTINUOUS
 62
7
 10
1.421576E+002
 20
9.0215586E+001
 11
1.421576E+002
 21
8.1171008E+001
  0
LINE
  8
1
  6
CONTINUOUS
 62
7
 10
1.141576E+002
 20
9.0171008E+001
 11
1.121576E+002
 21
9.5171008E+001
  0
LINE
  8
1
  6
CONTINUOUS
 62
7
 10
1.216576E+002
 20
9.0171008E+001
 11
1.196576E+002
 21
9.5171008E+001
  0
LINE
  8
1
  6
CONTINUOUS
 62
7
 10
1.141576E+002
 20
8.6658858E+001
 11
1.141576E+002
 21
9.0171008E+001
  0
LINE
  8
1
  6
CONTINUOUS
 62
7
 10
1.141576E+002
 20
8.6658858E+001
 11
1.216576E+002
 21
8.6658858E+001
  0
LINE
  8
1
  6
SHORT_DASH
 62
7
 10
9.0157599E+001
 20
7.6171008E+001
 11
1.0224404E+002
 21
7.6171008E+001
  0
LINE
  8
1
  6
SHORT_DASH
 62
7
 10
9.0157599E+001
 20
7.9171008E+001
 11
1.0224404E+002
 21
7.9171008E+001
  0
LINE
  8
1
  6
CONTINUOUS
 62
7
 10
1.0224404E+002
 20
7.9171008E+001
 11
1.0224404E+002
 21
7.3171008E+001
  0
LINE
  8
1
  6
CONTINUOUS
 62
7
 10
9.9657599E+001
 20
7.3171008E+001
 11
1.736576E+002
 21
7.3171008E+001
  0
LINE
  8
1
  6
CONTINUOUS
 62
7
 10
1.431576E+002
 20
1.0065886E+002
 11
1.481576E+002
 21
1.0065886E+002
  0
LINE
  8
1
  6
CONTINUOUS
 62
7
 10
1.501576E+002
 20
1.0065886E+002
 11
1.491576E+002
 21
1.0065886E+002
  0
LINE
  8
1
  6
CONTINUOUS
 62
7
 10
1.561576E+002
 20
1.0065886E+002
 11
1.511576E+002
 21
1.0065886E+002
  0
LINE
  8
1
  6
CONTINUOUS
 62
7
 10
1.581576E+002
 20
1.0065886E+002
 11
1.571576E+002
 21
1.0065886E+002
  0
LINE
  8
1
  6
CONTINUOUS
 62
7
 10
1.641576E+002
 20
1.0065886E+002
 11
1.591576E+002
 21
1.0065886E+002
  0
LINE
  8
1
  6
CONTINUOUS
 62
7
 10
1.671576E+002
 20
1.0065886E+002
 11
1.661576E+002
 21
1.0065886E+002
  0
LINE
  8
1
  6
CONTINUOUS
 62
7
 10
1.731576E+002
 20
1.0065886E+002
 11
1.681576E+002
 21
1.0065886E+002
  0
LINE
  8
1
  6
CONTINUOUS
 62
7
 10
1.751576E+002
 20
1.0065886E+002
 11
1.741576E+002
 21
1.0065886E+002
  0
TEXT
  8
1
  6
CONTINUOUS
 62
7
 10
1.134076E+002
 20
9.6171008E+001
 40
2.0
  1
13
 41
7.5E-001
 50
9.0E+001
  0
TEXT
  8
1
  6
CONTINUOUS
 62
7
 10
1.134076E+002
 20
8.7171008E+001
 40
2.0
  1
14
 41
7.5E-001
 50
9.0E+001
  0
TEXT
  8
1
  6
CONTINUOUS
 62
7
 10
1.209076E+002
 20
9.6171008E+001
 40
2.0
  1
13
 41
7.5E-001
 50
9.0E+001
  0
TEXT
  8
1
  6
CONTINUOUS
 62
7
 10
1.209076E+002
 20
8.7171008E+001
 40
2.0
  1
14
 41
7.5E-001
 50
9.0E+001
  0
TEXT
  8
1
  6
CONTINUOUS
 62
7
 10
1.644076E+002
 20
7.0052393E+001
 40
2.0
  1
Y
 41
7.5E-001
  0
TEXT
  8
1
  6
CONTINUOUS
 62
7
 10
1.126576E+002
 20
7.8802393E+001
 40
2.0
  1
KM1
 41
7.5E-001
  0
TEXT
  8
1
  6
CONTINUOUS
 62
7
 10
1.209076E+002
 20
7.0052393E+001
 40
2.0
  1
L
 41
7.5E-001
  0
TEXT
  8
1
  6
CONTINUOUS
 62
7
 10
1.076576E+002
 20
9.1802393E+001
 40
2.0
  1
KM2
 41
7.5E-001
  0
TEXT
  8
1
  6
CONTINUOUS
 62
7
 10
1.151576E+002
 20
9.1802393E+001
 40
2.0
  1
KM1
 41
7.5E-001
  0
LINE
  8
1
  6
CONTINUOUS
 62
7
 10
1.141576E+002
 20
1.0065886E+002
 11
1.216576E+002
 21
1.0065886E+002
  0
LINE
  8
1
  6
CONTINUOUS
 62
7
 10
1.216576E+002
 20
8.1171008E+001
 11
1.216576E+002
 21
9.0171008E+001
  0
LINE
  8
1
  6
CONTINUOUS
 62
7
 10
1.141576E+002
 20
1.0065886E+002
 11
1.141576E+002
 21
9.5183871E+001
  0
LINE
  8
1
  6
CONTINUOUS
 62
7
 10
1.611576E+002
 20
7.8171008E+001
 11
1.691576E+002
 21
7.8171008E+001
  0
LINE
  8
1
  6
CONTINUOUS
 62
7
 10
1.381576E+002
 20
7.8171008E+001
 11
1.461576E+002
 21
7.8171008E+001
  0
LINE
  8
1
  6
CONTINUOUS
 62
7
 10
1.381576E+002
 20
8.1171008E+001
 11
1.461576E+002
 21
8.1171008E+001
  0
LINE
  8
1
  6
CONTINUOUS
 62
7
 10
1.611576E+002
 20
8.1171008E+001
 11
1.691576E+002
 21
8.1171008E+001
  0
LINE
  8
1
  6
CONTINUOUS
 62
7
 10
1.381576E+002
 20
8.1171008E+001
 11
1.381576E+002
 21
7.8171008E+001
  0
LINE
  8
1
  6
CONTINUOUS
 62
7
 10
1.461576E+002
 20
8.1171008E+001
 11
1.461576E+002
 21
7.8171008E+001
  0
LINE
  8
1
  6
CONTINUOUS
 62
7
 10
1.611576E+002
 20
8.1171008E+001
 11
1.611576E+002
 21
7.8171008E+001
  0
LINE
  8
1
  6
CONTINUOUS
 62
7
 10
1.691576E+002
 20
8.1171008E+001
 11
1.691576E+002
 21
7.8171008E+001
  0
LINE
  8
1
  6
CONTINUOUS
 62
7
 10
1.651576E+002
 20
7.8171008E+001
 11
1.651576E+002
 21
7.3171008E+001
  0
LINE
  8
1
  6
CONTINUOUS
 62
7
 10
1.421576E+002
 20
7.8171008E+001
 11
1.421576E+002
 21
7.3171008E+001
  0
LINE
  8
1
  6
CONTINUOUS
 62
7
 10
1.176576E+002
 20
7.8171008E+001
 11
1.256576E+002
 21
7.8171008E+001
  0
LINE
  8
1
  6
CONTINUOUS
 62
7
 10
1.176576E+002
 20
8.1171008E+001
 11
1.256576E+002
 21
8.1171008E+001
  0
LINE
  8
1
  6
CONTINUOUS
 62
7
 10
1.176576E+002
 20
8.1171008E+001
 11
1.176576E+002
 21
7.8171008E+001
  0
LINE
  8
1
  6
CONTINUOUS
 62
7
 10
1.216576E+002
 20
7.8171008E+001
 11
1.216576E+002
 21
7.3171008E+001
  0
LINE
  8
1
  6
CONTINUOUS
 62
7
 10
1.546576E+002
 20
1.0665886E+002
 11
1.546576E+002
 21
1.0454087E+002
  0
LINE
  8
1
  6
CONTINUOUS
 62
7
 10
1.6020811E+002
 20
1.0965886E+002
 11
1.656576E+002
 21
1.0965886E+002
  0
LINE
  8
1
  6
CONTINUOUS
 62
7
 10
1.6020811E+002
 20
1.0865886E+002
 11
1.6557427E+002
 21
1.0865886E+002
  0
LINE
  8
1
  6
HIDDEN
 62
7
 10
1.411576E+002
 20
1.0915886E+002
 11
1.5970811E+002
 21
1.0915886E+002
  0
TEXT
  8
1
  6
CONTINUOUS
 62
7
 10
1.414076E+002
 20
1.0085886E+002
 40
2.0
  1
18
 41
7.5E-001
 50
9.0E+001
  0
LINE
  8
1
  6
CONTINUOUS
 62
7
 10
1.3720811E+002
 20
1.0965886E+002
 11
1.409576E+002
 21
1.0965886E+002
  0
LINE
  8
1
  6
CONTINUOUS
 62
7
 10
1.3720811E+002
 20
1.0865886E+002
 11
1.413576E+002
 21
1.0865886E+002
  0
LINE
  8
1
  6
CONTINUOUS
 62
7
 10
1.651576E+002
 20
1.0665886E+002
 11
1.651576E+002
 21
9.5215586E+001
  0
LINE
  8
1
  6
CONTINUOUS
 62
7
 10
1.736576E+002
 20
1.0715886E+002
 11
1.736576E+002
 21
7.3171008E+001
  0
LINE
  8
1
  6
HIDDEN
 62
7
 10
1.6557427E+002
 20
1.0915886E+002
 11
1.696576E+002
 21
1.0915886E+002
  0
TEXT
  8
1
  6
CONTINUOUS
 62
7
 10
1.729076E+002
 20
1.0105886E+002
 40
2.0
  1
A2
 41
7.5E-001
 50
9.0E+001
  0
TEXT
  8
1
  6
CONTINUOUS
 62
7
 10
1.319076E+002
 20
1.0410886E+002
 40
2.0
  1
t1+t2
 41
7.5E-001
  0
TEXT
  8
1
  6
CONTINUOUS
 62
7
 10
1.594076E+002
 20
1.0410886E+002
 40
2.0
  1
t1
 41
7.5E-001
  0
TEXT
  8
1
  6
CONTINUOUS
 62
7
 10
1.644076E+002
 20
1.0085886E+002
 40
2.0
  1
16
 41
7.5E-001
 50
9.0E+001
  0
TEXT
  8
1
  6
CONTINUOUS
 62
7
 10
1.209076E+002
 20
8.2171008E+001
 40
2.0
  1
A1
 41
7.5E-001
 50
9.0E+001
  0
TEXT
  8
1
  6
CONTINUOUS
 62
7
 10
1.209076E+002
 20
7.4171008E+001
 40
2.0
  1
A2
 41
7.5E-001
 50
9.0E+001
  0
TEXT
  8
1
  6
CONTINUOUS
 62
7
 10
1.644076E+002
 20
8.2171008E+001
 40
2.0
  1
A1
 41
7.5E-001
 50
9.0E+001
  0
TEXT
  8
1
  6
CONTINUOUS
 62
7
 10
1.644076E+002
 20
7.4171008E+001
 40
2.0
  1
A2
 41
7.5E-001
 50
9.0E+001
  0
TEXT
  8
1
  6
CONTINUOUS
 62
7
 10
1.414076E+002
 20
8.2171008E+001
 40
2.0
  1
A1
 41
7.5E-001
 50
9.0E+001
  0
TEXT
  8
1
  6
CONTINUOUS
 62
7
 10
1.414076E+002
 20
7.4171008E+001
 40
2.0
  1
A2
 41
7.5E-001
 50
9.0E+001
  0
LINE
  8
1
  6
CONTINUOUS
 62
7
 10
1.421576E+002
 20
7.2058858E+001
 11
1.4099917E+002
 21
7.0052393E+001
  0
LINE
  8
1
  6
CONTINUOUS
 62
7
 10
1.421576E+002
 20
7.2058858E+001
 11
1.4331603E+002
 21
7.0052393E+001
  0
LINE
  8
1
  6
CONTINUOUS
 62
7
 10
1.256576E+002
 20
8.1171008E+001
 11
1.256576E+002
 21
7.8171008E+001
  0
TEXT
  8
1
  6
CONTINUOUS
 62
7
 10
1.331576E+002
 20
7.6802393E+001
 40
2.0
  1
KM3
 41
7.5E-001
  0
TEXT
  8
1
  6
CONTINUOUS
 62
7
 10
1.414076E+002
 20
8.7215586E+001
 40
2.0
  1
22
 41
7.5E-001
 50
9.0E+001
  0
TEXT
  8
1
  6
CONTINUOUS
 62
7
 10
1.414076E+002
 20
9.6215586E+001
 40
2.0
  1
21
 41
7.5E-001
 50
9.0E+001
  0
TEXT
  8
1
  6
CONTINUOUS
 62
7
 10
1.644076E+002
 20
9.6215586E+001
 40
2.0
  1
21
 41
7.5E-001
 50
9.0E+001
  0
TEXT
  8
1
  6
CONTINUOUS
 62
7
 10
1.644076E+002
 20
8.7215586E+001
 40
2.0
  1
22
 41
7.5E-001
 50
9.0E+001
  0
TEXT
  8
1
  6
CONTINUOUS
 62
7
 10
1.561576E+002
 20
7.6802393E+001
 40
2.0
  1
KM2
 41
7.5E-001
  0
LINE
  8
1
  6
CONTINUOUS
 62
7
 10
1.4099917E+002
 20
7.0052393E+001
 11
1.4331603E+002
 21
7.0052393E+001
  0
LINE
  8
1
  6
CONTINUOUS
 62
7
 10
1.421576E+002
 20
1.0665886E+002
 11
1.421576E+002
 21
9.5215586E+001
  0
LINE
  8
1
  6
CONTINUOUS
 62
7
 10
1.546576E+002
 20
1.0454087E+002
 11
1.5818571E+002
 21
1.0454087E+002
  0
LINE
  8
1
  6
CONTINUOUS
 62
7
 10
1.351576E+002
 20
1.0065886E+002
 11
1.401576E+002
 21
1.0065886E+002
  0
LINE
  8
1
  6
CONTINUOUS
 62
7
 10
1.411576E+002
 20
1.0065886E+002
 11
1.421576E+002
 21
1.0065886E+002
  0
LINE
  8
1
  6
CONTINUOUS
 62
7
 10
1.321576E+002
 20
1.0565886E+002
 11
1.321576E+002
 21
1.0465886E+002
  0
LINE
  8
1
  6
CONTINUOUS
 62
7
 10
1.321576E+002
 20
1.0365886E+002
 11
1.321576E+002
 21
1.0065886E+002
  0
LINE
  8
1
  6
CONTINUOUS
 62
7
 10
1.321576E+002
 20
1.0065886E+002
 11
1.3391745E+002
 21
1.0065886E+002
  0
INSERT
  2
*TX499
  8
1
 10
8.6657599E+001
 20
7.8146971E+001
  0
LINE
  8
1
  6
CONTINUOUS
 62
7
 10
1.216576E+002
 20
9.5183871E+001
 11
1.216576E+002
 21
1.2165886E+002
  0
LINE
  8
1
  6
CONTINUOUS
 62
7
 10
1.761576E+002
 20
1.0065886E+002
 11
1.811576E+002
 21
1.0065886E+002
  0
LINE
  8
1
  6
CONTINUOUS
 62
7
 10
1.811576E+002
 20
1.0365886E+002
 11
1.811576E+002
 21
1.0065886E+002
  0
LINE
  8
1
  6
CONTINUOUS
 62
7
 10
1.811576E+002
 20
1.0565886E+002
 11
1.811576E+002
 21
1.0465886E+002
  0
LINE
  8
1
  6
CONTINUOUS
 62
7
 10
1.811576E+002
 20
1.1165886E+002
 11
1.811576E+002
 21
1.0665886E+002
  0
LINE
  8
1
  6
CONTINUOUS
 62
7
 10
1.811576E+002
 20
1.1365886E+002
 11
1.811576E+002
 21
1.1265886E+002
  0
LINE
  8
1
  6
CONTINUOUS
 62
7
 10
1.811576E+002
 20
1.1765886E+002
 11
1.811576E+002
 21
1.1465886E+002
  0
LINE
  8
1
  6
CONTINUOUS
 62
7
 10
1.791576E+002
 20
1.1765886E+002
 11
1.811576E+002
 21
1.1765886E+002
  0
LINE
  8
1
  6
CONTINUOUS
 62
7
 10
1.771576E+002
 20
1.1765886E+002
 11
1.781576E+002
 21
1.1765886E+002
  0
LINE
  8
1
  6
CONTINUOUS
 62
7
 10
1.711576E+002
 20
1.1765886E+002
 11
1.761576E+002
 21
1.1765886E+002
  0
LINE
  8
1
  6
CONTINUOUS
 62
7
 10
1.691576E+002
 20
1.1765886E+002
 11
1.701576E+002
 21
1.1765886E+002
  0
LINE
  8
1
  6
CONTINUOUS
 62
7
 10
1.631576E+002
 20
1.1765886E+002
 11
1.681576E+002
 21
1.1765886E+002
  0
LINE
  8
1
  6
CONTINUOUS
 62
7
 10
1.611576E+002
 20
1.1765886E+002
 11
1.621576E+002
 21
1.1765886E+002
  0
LINE
  8
1
  6
CONTINUOUS
 62
7
 10
1.551576E+002
 20
1.1765886E+002
 11
1.601576E+002
 21
1.1765886E+002
  0
LINE
  8
1
  6
CONTINUOUS
 62
7
 10
1.481576E+002
 20
1.1765886E+002
 11
1.531576E+002
 21
1.1765886E+002
  0
LINE
  8
1
  6
CONTINUOUS
 62
7
 10
1.461576E+002
 20
1.1765886E+002
 11
1.471576E+002
 21
1.1765886E+002
  0
LINE
  8
1
  6
CONTINUOUS
 62
7
 10
1.401576E+002
 20
1.1765886E+002
 11
1.451576E+002
 21
1.1765886E+002
  0
TEXT
  8
1
  6
CONTINUOUS
 62
7
 10
1.374076E+002
 20
1.3217101E+002
 40
2.0
  1
23
 41
7.5E-001
 50
9.0E+001
  0
TEXT
  8
1
  6
CONTINUOUS
 62
7
 10
1.316576E+002
 20
1.2780239E+002
 40
2.0
  1
KM1
 41
7.5E-001
  0
TEXT
  8
1
  6
CONTINUOUS
 62
7
 10
1.374076E+002
 20
1.2317101E+002
 40
2.0
  1
24
 41
7.5E-001
 50
9.0E+001
  0
LINE
  8
1
  6
CONTINUOUS
 62
7
 10
1.381576E+002
 20
1.2617101E+002
 11
1.361576E+002
 21
1.3117101E+002
  0
LINE
  8
1
  6
CONTINUOUS
 62
7
 10
1.381576E+002
 20
1.2617101E+002
 11
1.381576E+002
 21
1.2165886E+002
  0
LINE
  8
1
  6
CONTINUOUS
 62
7
 10
1.381576E+002
 20
1.3665886E+002
 11
1.381576E+002
 21
1.3018387E+002
  0
LINE
  8
1
  6
CONTINUOUS
 62
7
 10
1.651576E+002
 20
1.1165886E+002
 11
1.671576E+002
 21
1.1165886E+002
  0
LINE
  8
1
  6
CONTINUOUS
 62
7
 10
1.546576E+002
 20
1.1165886E+002
 11
1.546576E+002
 21
1.2165886E+002
  0
LINE
  8
1
  6
CONTINUOUS
 62
7
 10
1.651576E+002
 20
1.0665886E+002
 11
1.661576E+002
 21
1.1265886E+002
  0
LINE
  8
1
  6
CONTINUOUS
 62
7
 10
1.546576E+002
 20
1.0665886E+002
 11
1.526576E+002
 21
1.1165886E+002
  0
TEXT
  8
1
  6
CONTINUOUS
 62
7
 10
1.539076E+002
 20
1.1390886E+002
 40
2.0
  1
15
 41
7.5E-001
 50
9.0E+001
  0
ARC
  8
1
  6
CONTINUOUS
 62
7
 10
1.626576E+002
 20
1.0915886E+002
 40
2.5
 50
1.1356542E+002
 51
2.4643458E+002
  0
LINE
  8
1
  6
CONTINUOUS
 62
7
 10
1.421576E+002
 20
1.1365886E+002
 11
1.546576E+002
 21
1.1365886E+002
  0
LINE
  8
1
  6
CONTINUOUS
 62
7
 10
1.421576E+002
 20
1.1365886E+002
 11
1.421576E+002
 21
1.1165886E+002
  0
LINE
  8
1
  6
CONTINUOUS
 62
7
 10
1.696576E+002
 20
1.0715886E+002
 11
1.696576E+002
 21
1.1115886E+002
  0
LINE
  8
1
  6
CONTINUOUS
 62
7
 10
1.421576E+002
 20
1.0665886E+002
 11
1.401576E+002
 21
1.1165886E+002
  0
LINE
  8
1
  6
CONTINUOUS
 62
7
 10
1.651576E+002
 20
1.1165886E+002
 11
1.651576E+002
 21
1.1365886E+002
  0
ARC
  8
1
  6
CONTINUOUS
 62
7
 10
1.396576E+002
 20
1.0915886E+002
 40
2.5
 50
1.1356542E+002
 51
2.4643458E+002
  0
LINE
  8
1
  6
CONTINUOUS
 62
7
 10
1.776576E+002
 20
1.0715886E+002
 11
1.776576E+002
 21
1.1115886E+002
  0
LINE
  8
1
  6
CONTINUOUS
 62
7
 10
1.796576E+002
 20
1.0715886E+002
 11
1.796576E+002
 21
1.1115886E+002
  0
LINE
  8
1
  6
CONTINUOUS
 62
7
 10
1.696576E+002
 20
1.1115886E+002
 11
1.796576E+002
 21
1.1115886E+002
  0
LINE
  8
1
  6
CONTINUOUS
 62
7
 10
1.696576E+002
 20
1.0715886E+002
 11
1.796576E+002
 21
1.0715886E+002
  0
LINE
  8
1
  6
CONTINUOUS
 62
7
 10
1.796576E+002
 20
1.1115886E+002
 11
1.776576E+002
 21
1.0715886E+002
  0
LINE
  8
1
  6
CONTINUOUS
 62
7
 10
1.776576E+002
 20
1.1115886E+002
 11
1.796576E+002
 21
1.0715886E+002
  0
LINE
  8
1
  6
CONTINUOUS
 62
7
 10
1.736576E+002
 20
1.1115886E+002
 11
1.736576E+002
 21
1.2165886E+002
  0
TEXT
  8
1
  6
CONTINUOUS
 62
7
 10
1.731576E+002
 20
1.1420886E+002
 40
2.0
  1
A1
 41
7.5E-001
 50
9.0E+001
  0
TEXT
  8
1
  6
CONTINUOUS
 62
7
 10
1.396576E+002
 20
1.1465886E+002
 40
2.0
  1
KT
 41
7.5E-001
  0
LINE
  8
1
  6
CONTINUOUS
 62
7
 10
1.5818571E+002
 20
1.0454087E+002
 11
1.5818571E+002
 21
1.1365886E+002
  0
LINE
  8
1
  6
CONTINUOUS
 62
7
 10
1.5818571E+002
 20
1.1365886E+002
 11
1.651576E+002
 21
1.1365886E+002
  0
LINE
  8
1
  6
CONTINUOUS
 62
7
 10
1.321576E+002
 20
1.1765886E+002
 11
1.371576E+002
 21
1.1765886E+002
  0
LINE
  8
1
  6
CONTINUOUS
 62
7
 10
1.381576E+002
 20
1.1765886E+002
 11
1.391576E+002
 21
1.1765886E+002
  0
LINE
  8
1
  6
CONTINUOUS
 62
7
 10
1.321576E+002
 20
1.1765886E+002
 11
1.321576E+002
 21
1.1465886E+002
  0
LINE
  8
1
  6
CONTINUOUS
 62
7
 10
1.321576E+002
 20
1.1365886E+002
 11
1.321576E+002
 21
1.1265886E+002
  0
LINE
  8
1
  6
CONTINUOUS
 62
7
 10
1.321576E+002
 20
1.1165886E+002
 11
1.321576E+002
 21
1.0665886E+002
  0
LINE
  8
1
  6
CONTINUOUS
 62
7
 10
1.216576E+002
 20
1.2165886E+002
 11
1.736576E+002
 21
1.2165886E+002
  0
TEXT
  8
1
  6
CONTINUOUS
 62
7
 10
8.039416E+001
 20
2.7236567E+002
 40
4.0
  1
STAR-DELTA STARTER / STERN-DREIECK-ANLASSER / DEMARREUR ETOILE-TRIANGLE   
 41
7.5E-001
  0
TEXT
  8
1
  6
CONTINUOUS
 62
7
 10
2.9372716E+002
 20
2.5367101E+002
 40
2.25
  1
Adjunction/Zusatz/Adjonction
 41
7.5E-001
  0
TEXT
  8
1
  6
CONTINUOUS
 62
7
 10
2.8697716E+002
 20
2.4467101E+002
 40
2.25
  1
(1) DR
 41
7.5E-001
  0
TEXT
  8
1
  6
CONTINUOUS
 62
7
 10
2.9972716E+002
 20
2.2367101E+002
 40
2.25
  1
On/Ein/Marche
 41
7.5E-001
  0
TEXT
  8
1
  6
CONTINUOUS
 62
7
 10
2.9972716E+002
 20
2.1917101E+002
 40
2.25
  1
Off/Aus/Arrêt
 41
7.5E-001
  0
TEXT
  8
1
  6
CONTINUOUS
 62
7
 10
2.9372716E+002
 20
2.2367101E+002
 40
2.25
  1
H1
 41
7.5E-001
  0
TEXT
  8
1
  6
CONTINUOUS
 62
7
 10
2.9372716E+002
 20
2.1917101E+002
 40
2.25
  1
H2
 41
7.5E-001
  0
TEXT
  8
1
  6
CONTINUOUS
 62
7
 10
2.9372716E+002
 20
2.1067101E+002
 40
2.25
  1
H3
 41
7.5E-001
  0
TEXT
  8
1
  6
CONTINUOUS
 62
7
 10
2.9372716E+002
 20
1.9917101E+002
 40
2.25
  1
H9
 41
7.5E-001
  0
TEXT
  8
1
  6
CONTINUOUS
 62
7
 10
2.8822716E+002
 20
1.8717101E+002
 40
2.25
  1
(1)
 41
7.5E-001
  0
TEXT
  8
1
  6
CONTINUOUS
 62
7
 10
2.9526655E+002
 20
1.7467101E+002
 40
2.25
  1
Adjunction/Zusatz/Adjonction
 41
7.5E-001
  0
LINE
  8
1
  6
CONTINUOUS
 62
7
 10
3.3272716E+002
 20
1.5117101E+002
 11
3.3072716E+002
 21
1.5617101E+002
  0
LINE
  8
1
  6
CONTINUOUS
 62
7
 10
3.3272716E+002
 20
1.5617101E+002
 11
3.3272716E+002
 21
1.7217101E+002
  0
TEXT
  8
1
  6
CONTINUOUS
 62
7
 10
2.8697716E+002
 20
2.3215886E+002
 40
2.25
  1
(1) DS
 41
7.5E-001
  0
TEXT
  8
1
  6
CONTINUOUS
 62
7
 10
3.3197716E+002
 20
1.4767101E+002
 40
2.0
  1
98
 41
7.5E-001
 50
9.0E+001
  0
TEXT
  8
1
  6
CONTINUOUS
 62
7
 10
3.3197716E+002
 20
1.5717101E+002
 40
2.0
  1
97
 41
7.5E-001
 50
9.0E+001
  0
LINE
  8
1
  6
CONTINUOUS
 62
7
 10
3.6072716E+002
 20
1.7217101E+002
 11
3.6072716E+002
 21
8.1671008E+001
  0
LINE
  8
1
  6
CONTINUOUS
 62
7
 10
2.9872716E+002
 20
7.3171008E+001
 11
3.0772716E+002
 21
7.3171008E+001
  0
LINE
  8
1
  6
CONTINUOUS
 62
7
 10
3.3654663E+002
 20
1.7217101E+002
 11
3.5172716E+002
 21
1.7217101E+002
  0
CIRCLE
  8
1
  6
CONTINUOUS
 62
7
 10
3.6072716E+002
 20
7.9671008E+001
 40
2.0
  0
LINE
  8
1
  6
CONTINUOUS
 62
7
 10
3.5931295E+002
 20
8.1085222E+001
 11
3.6214138E+002
 21
7.8256794E+001
  0
LINE
  8
1
  6
CONTINUOUS
 62
7
 10
3.6214138E+002
 20
8.1085222E+001
 11
3.5931295E+002
 21
7.8256794E+001
  0
LINE
  8
1
  6
CONTINUOUS
 62
7
 10
3.6072716E+002
 20
7.7671008E+001
 11
3.6072716E+002
 21
7.3171008E+001
  0
CIRCLE
  8
1
  6
CONTINUOUS
 62
7
 10
3.5172716E+002
 20
7.9671008E+001
 40
2.0
  0
LINE
  8
1
  6
CONTINUOUS
 62
7
 10
3.5031295E+002
 20
8.1085222E+001
 11
3.5314138E+002
 21
7.8256794E+001
  0
LINE
  8
1
  6
CONTINUOUS
 62
7
 10
3.5314138E+002
 20
8.1085222E+001
 11
3.5031295E+002
 21
7.8256794E+001
  0
CIRCLE
  8
1
  6
CONTINUOUS
 62
7
 10
3.4272716E+002
 20
7.9671008E+001
 40
2.0
  0
LINE
  8
1
  6
CONTINUOUS
 62
7
 10
3.4131295E+002
 20
8.1085222E+001
 11
3.4414138E+002
 21
7.8256794E+001
  0
LINE
  8
1
  6
CONTINUOUS
 62
7
 10
3.4414138E+002
 20
8.1085222E+001
 11
3.4131295E+002
 21
7.8256794E+001
  0
LINE
  8
1
  6
CONTINUOUS
 62
7
 10
3.5172716E+002
 20
7.7671008E+001
 11
3.5172716E+002
 21
7.3171008E+001
  0
LINE
  8
1
  6
CONTINUOUS
 62
7
 10
3.4272716E+002
 20
7.7671008E+001
 11
3.4272716E+002
 21
7.3171008E+001
  0
LINE
  8
1
  6
CONTINUOUS
 62
7
 10
3.547423E+002
 20
7.3171008E+001
 11
3.6072716E+002
 21
7.3171008E+001
  0
LINE
  8
1
  6
CONTINUOUS
 62
7
 10
3.4587124E+002
 20
7.3171008E+001
 11
3.5172716E+002
 21
7.3171008E+001
  0
LINE
  8
1
  6
CONTINUOUS
 62
7
 10
3.5172716E+002
 20
8.1671008E+001
 11
3.5172716E+002
 21
1.0420271E+002
  0
LINE
  8
1
  6
CONTINUOUS
 62
7
 10
3.4272716E+002
 20
8.1671008E+001
 11
3.4272716E+002
 21
1.4917101E+002
  0
LINE
  8
1
  6
CONTINUOUS
 62
7
 10
3.3272716E+002
 20
8.1171008E+001
 11
3.3272716E+002
 21
9.0215586E+001
  0
LINE
  8
1
  6
CONTINUOUS
 62
7
 10
3.2872716E+002
 20
8.1171008E+001
 11
3.2872716E+002
 21
7.8171008E+001
  0
TEXT
  8
1
  6
CONTINUOUS
 62
7
 10
3.2552716E+002
 20
7.8802393E+001
 40
2.0
  1
DR
 41
7.5E-001
  0
LINE
  8
1
  6
CONTINUOUS
 62
7
 10
3.2872716E+002
 20
8.1171008E+001
 11
3.3672716E+002
 21
8.1171008E+001
  0
LINE
  8
1
  6
CONTINUOUS
 62
7
 10
3.2872716E+002
 20
7.8171008E+001
 11
3.3672716E+002
 21
7.8171008E+001
  0
LINE
  8
1
  6
CONTINUOUS
 62
7
 10
3.3672716E+002
 20
8.1171008E+001
 11
3.3672716E+002
 21
7.8171008E+001
  0
LINE
  8
1
  6
CONTINUOUS
 62
7
 10
3.3272716E+002
 20
7.8171008E+001
 11
3.3272716E+002
 21
7.3171008E+001
  0
TEXT
  8
1
  6
CONTINUOUS
 62
7
 10
3.3752716E+002
 20
7.8802393E+001
 40
2.0
  1
H9
 41
7.5E-001
  0
TEXT
  8
1
  6
CONTINUOUS
 62
7
 10
3.4658672E+002
 20
7.8802393E+001
 40
2.0
  1
H2
 41
7.5E-001
  0
TEXT
  8
1
  6
CONTINUOUS
 62
7
 10
3.5558672E+002
 20
7.8802393E+001
 40
2.0
  1
H3
 41
7.5E-001
  0
LINE
  8
1
  6
CONTINUOUS
 62
7
 10
3.1522716E+002
 20
8.1171008E+001
 11
3.1522716E+002
 21
7.8171008E+001
  0
TEXT
  8
1
  6
CONTINUOUS
 62
7
 10
3.1202716E+002
 20
7.8802393E+001
 40
2.0
  1
DS
 41
7.5E-001
  0
LINE
  8
1
  6
CONTINUOUS
 62
7
 10
3.1522716E+002
 20
8.1171008E+001
 11
3.2322716E+002
 21
8.1171008E+001
  0
LINE
  8
1
  6
CONTINUOUS
 62
7
 10
3.1522716E+002
 20
7.8171008E+001
 11
3.2322716E+002
 21
7.8171008E+001
  0
LINE
  8
1
  6
CONTINUOUS
 62
7
 10
3.2322716E+002
 20
8.1171008E+001
 11
3.2322716E+002
 21
7.8171008E+001
  0
LINE
  8
1
  6
CONTINUOUS
 62
7
 10
3.1922716E+002
 20
7.8171008E+001
 11
3.1922716E+002
 21
7.3171008E+001
  0
LINE
  8
1
  6
CONTINUOUS
 62
7
 10
3.1922716E+002
 20
8.1171008E+001
 11
3.1922716E+002
 21
9.0215586E+001
  0
TEXT
  8
1
  6
CONTINUOUS
 62
7
 10
3.0252716E+002
 20
7.8802393E+001
 40
2.0
  1
H1
 41
7.5E-001
  0
LINE
  8
1
  6
CONTINUOUS
 62
7
 10
3.0914138E+002
 20
8.1085222E+001
 11
3.0631295E+002
 21
7.8256794E+001
  0
LINE
  8
1
  6
CONTINUOUS
 62
7
 10
3.0631295E+002
 20
8.1085222E+001
 11
3.0914138E+002
 21
7.8256794E+001
  0
CIRCLE
  8
1
  6
CONTINUOUS
 62
7
 10
3.0772716E+002
 20
7.9671008E+001
 40
2.0
  0
LINE
  8
1
  6
CONTINUOUS
 62
7
 10
3.0772716E+002
 20
8.1671008E+001
 11
3.0772716E+002
 21
8.7171008E+001
  0
LINE
  8
1
  6
CONTINUOUS
 62
7
 10
3.0772716E+002
 20
7.7671008E+001
 11
3.0772716E+002
 21
7.3171008E+001
  0
LINE
  8
1
  6
CONTINUOUS
 62
7
 10
3.547423E+002
 20
1.7217101E+002
 11
3.6072716E+002
 21
1.7217101E+002
  0
LINE
  8
1
  6
CONTINUOUS
 62
7
 10
3.5172716E+002
 20
1.0920271E+002
 11
3.5372716E+002
 21
1.0920271E+002
  0
LINE
  8
1
  6
CONTINUOUS
 62
7
 10
3.5172716E+002
 20
1.0420271E+002
 11
3.5272716E+002
 21
1.1020271E+002
  0
TEXT
  8
1
  6
CONTINUOUS
 62
7
 10
3.4622716E+002
 20
1.058341E+002
 40
2.0
  1
KM3
 41
7.5E-001
  0
TEXT
  8
1
  6
CONTINUOUS
 62
7
 10
3.5097716E+002
 20
1.1020271E+002
 40
2.0
  1
21
 41
7.5E-001
 50
9.0E+001
  0
TEXT
  8
1
  6
CONTINUOUS
 62
7
 10
3.5097716E+002
 20
1.0120271E+002
 40
2.0
  1
22
 41
7.5E-001
 50
9.0E+001
  0
LINE
  8
1
  6
CONTINUOUS
 62
7
 10
3.5172716E+002
 20
1.2320271E+002
 11
3.5372716E+002
 21
1.2320271E+002
  0
LINE
  8
1
  6
CONTINUOUS
 62
7
 10
3.5172716E+002
 20
1.1820271E+002
 11
3.5272716E+002
 21
1.2420271E+002
  0
TEXT
  8
1
  6
CONTINUOUS
 62
7
 10
3.5097716E+002
 20
1.2420271E+002
 40
2.0
  1
21
 41
7.5E-001
 50
9.0E+001
  0
TEXT
  8
1
  6
CONTINUOUS
 62
7
 10
3.5097716E+002
 20
1.1520271E+002
 40
2.0
  1
22
 41
7.5E-001
 50
9.0E+001
  0
TEXT
  8
1
  6
CONTINUOUS
 62
7
 10
3.4622716E+002
 20
1.198341E+002
 40
2.0
  1
KM2
 41
7.5E-001
  0
LINE
  8
1
  6
HIDDEN
 62
7
 10
3.3172716E+002
 20
1.5367101E+002
 11
3.3572716E+002
 21
1.5367101E+002
  0
LINE
  8
1
  6
CONTINUOUS
 62
7
 10
1.126576E+002
 20
1.3665886E+002
 11
1.191576E+002
 21
1.3665886E+002
  0
LINE
  8
1
  6
CONTINUOUS
 62
7
 10
3.3572716E+002
 20
1.5418316E+002
 11
3.3772716E+002
 21
1.5418316E+002
  0
LINE
  8
1
  6
CONTINUOUS
 62
7
 10
3.3572716E+002
 20
1.5318316E+002
 11
3.3772716E+002
 21
1.5318316E+002
  0
LINE
  8
1
  6
CONTINUOUS
 62
7
 10
3.3772716E+002
 20
1.5318316E+002
 11
3.3772716E+002
 21
1.5218316E+002
  0
LINE
  8
1
  6
CONTINUOUS
 62
7
 10
3.3572716E+002
 20
1.5418316E+002
 11
3.3572716E+002
 21
1.5318316E+002
  0
TEXT
  8
1
  6
CONTINUOUS
 62
7
 10
3.3822716E+002
 20
1.5281454E+002
 40
2.0
  1
FR1
 41
7.5E-001
  0
LINE
  8
1
  6
CONTINUOUS
 62
7
 10
3.3772716E+002
 20
1.5418316E+002
 11
3.3772716E+002
 21
1.5518316E+002
  0
LINE
  8
1
  6
CONTINUOUS
 62
7
 10
3.4022716E+002
 20
1.4917101E+002
 11
3.4272716E+002
 21
1.4917101E+002
  0
TEXT
  8
1
  6
CONTINUOUS
 62
7
 10
3.3672716E+002
 20
1.4817101E+002
 40
2.0
  1
98
 41
7.5E-001
  0
LINE
  8
1
  6
CONTINUOUS
 62
7
 10
3.5172716E+002
 20
1.2320271E+002
 11
3.5172716E+002
 21
1.7217101E+002
  0
LINE
  8
1
  6
CONTINUOUS
 62
7
 10
3.5172716E+002
 20
1.0920271E+002
 11
3.5172716E+002
 21
1.1820271E+002
  0
LINE
  8
1
  6
CONTINUOUS
 62
7
 10
3.3272716E+002
 20
1.7217101E+002
 11
3.0822716E+002
 21
1.7217101E+002
  0
LINE
  8
1
  6
CONTINUOUS
 62
7
 10
2.9872716E+002
 20
1.4565886E+002
 11
3.1922716E+002
 21
1.4565886E+002
  0
LINE
  8
1
  6
CONTINUOUS
 62
7
 10
7.4657599E+001
 20
1.4963884E+002
 11
8.0657599E+001
 21
1.4963884E+002
  0
LINE
  8
1
  6
CONTINUOUS
 62
7
 10
3.1922716E+002
 20
9.0215586E+001
 11
3.1722716E+002
 21
9.5215586E+001
  0
LINE
  8
1
  6
CONTINUOUS
 62
7
 10
3.1472716E+002
 20
9.4715586E+001
 11
3.1322716E+002
 21
9.4715586E+001
  0
TEXT
  8
1
  6
CONTINUOUS
 62
7
 10
3.0992716E+002
 20
9.1715586E+001
 40
2.0
  1
S1
 41
7.5E-001
  0
LINE
  8
1
  6
CONTINUOUS
 62
7
 10
3.1322716E+002
 20
9.4715586E+001
 11
3.1322716E+002
 21
9.0715586E+001
  0
LINE
  8
1
  6
CONTINUOUS
 62
7
 10
3.1472716E+002
 20
9.0715586E+001
 11
3.1322716E+002
 21
9.0715586E+001
  0
LINE
  8
1
  6
HIDDEN
 62
7
 10
3.1822716E+002
 20
9.2715586E+001
 11
3.1322716E+002
 21
9.2715586E+001
  0
LINE
  8
1
  6
CONTINUOUS
 62
7
 10
3.3272716E+002
 20
9.0215586E+001
 11
3.3072716E+002
 21
9.5215586E+001
  0
LINE
  8
1
  6
CONTINUOUS
 62
7
 10
3.2822716E+002
 20
9.4715586E+001
 11
3.2672716E+002
 21
9.4715586E+001
  0
TEXT
  8
1
  6
CONTINUOUS
 62
7
 10
3.2342716E+002
 20
9.1715586E+001
 40
2.0
  1
S2
 41
7.5E-001
  0
LINE
  8
1
  6
CONTINUOUS
 62
7
 10
3.2672716E+002
 20
9.4715586E+001
 11
3.2672716E+002
 21
9.0715586E+001
  0
LINE
  8
1
  6
CONTINUOUS
 62
7
 10
3.2822716E+002
 20
9.0715586E+001
 11
3.2672716E+002
 21
9.0715586E+001
  0
LINE
  8
1
  6
HIDDEN
 62
7
 10
3.3172716E+002
 20
9.2715586E+001
 11
3.2672716E+002
 21
9.2715586E+001
  0
LINE
  8
1
  6
CONTINUOUS
 62
7
 10
7.4657599E+001
 20
1.4963884E+002
 11
7.4657599E+001
 21
1.4873606E+002
  0
LINE
  8
1
  6
CONTINUOUS
 62
7
 10
7.4657599E+001
 20
1.2463884E+002
 11
8.0657599E+001
 21
1.2463884E+002
  0
TEXT
  8
1
  6
CONTINUOUS
 62
7
 10
2.9522716E+002
 20
1.4465886E+002
 40
2.0
  1
96
 41
7.5E-001
  0
LINE
  8
1
  6
SHORT_DASH
 62
7
 10
2.9918179E+002
 20
1.6917101E+002
 11
3.1126823E+002
 21
1.6917101E+002
  0
LINE
  8
1
  6
CONTINUOUS
 62
7
 10
3.1126823E+002
 20
1.6917101E+002
 11
3.1126823E+002
 21
1.7217101E+002
  0
LINE
  8
1
  6
CONTINUOUS
 62
7
 10
3.1003614E+002
 20
7.3171008E+001
 11
3.1922716E+002
 21
7.3171008E+001
  0
LINE
  8
1
  6
CONTINUOUS
 62
7
 10
3.2198573E+002
 20
7.3171008E+001
 11
3.3272716E+002
 21
7.3171008E+001
  0
LINE
  8
1
  6
CONTINUOUS
 62
7
 10
3.3491939E+002
 20
7.3171008E+001
 11
3.4272716E+002
 21
7.3171008E+001
  0
TEXT
  8
1
  6
CONTINUOUS
 62
7
 10
2.9522716E+002
 20
7.2171008E+001
 40
2.0
  1
A2
 41
7.5E-001
  0
LINE
  8
1
  6
CONTINUOUS
 62
7
 10
3.0477208E+002
 20
8.7171008E+001
 11
3.0772716E+002
 21
8.7171008E+001
  0
TEXT
  8
1
  6
CONTINUOUS
 62
7
 10
2.9522716E+002
 20
8.6171008E+001
 40
2.0
  1
KM1:A1
 41
7.5E-001
  0
LINE
  8
1
  6
CONTINUOUS
 62
7
 10
1.081576E+002
 20
1.4613884E+002
 11
1.066576E+002
 21
1.4613884E+002
  0
TEXT
  8
1
  6
CONTINUOUS
 62
7
 10
1.043576E+002
 20
1.4313884E+002
 40
2.0
  1
O
 41
7.5E-001
  0
LINE
  8
1
  6
CONTINUOUS
 62
7
 10
1.066576E+002
 20
1.4613884E+002
 11
1.066576E+002
 21
1.4213884E+002
  0
LINE
  8
1
  6
HIDDEN
 62
7
 10
1.131576E+002
 20
1.4413884E+002
 11
1.066576E+002
 21
1.4413884E+002
  0
LINE
  8
1
  6
CONTINUOUS
 62
7
 10
1.081576E+002
 20
1.4213884E+002
 11
1.066576E+002
 21
1.4213884E+002
  0
LINE
  8
1
  6
CONTINUOUS
 62
7
 10
1.126576E+002
 20
1.4163884E+002
 11
1.136576E+002
 21
1.4763884E+002
  0
LINE
  8
1
  6
CONTINUOUS
 62
7
 10
1.126576E+002
 20
1.4663884E+002
 11
1.146576E+002
 21
1.4663884E+002
  0
LINE
  8
1
  6
CONTINUOUS
 62
7
 10
1.126576E+002
 20
1.2663884E+002
 11
1.106576E+002
 21
1.3163884E+002
  0
LINE
  8
1
  6
CONTINUOUS
 62
7
 10
1.126576E+002
 20
1.5165886E+002
 11
1.126576E+002
 21
1.4663884E+002
  0
LINE
  8
1
  6
CONTINUOUS
 62
7
 10
1.126576E+002
 20
1.4163884E+002
 11
1.126576E+002
 21
1.3163884E+002
  0
LINE
  8
1
  6
CONTINUOUS
 62
7
 10
1.126576E+002
 20
1.2165886E+002
 11
1.126576E+002
 21
1.2663884E+002
  0
LINE
  8
1
  6
CONTINUOUS
 62
7
 10
8.1657599E+001
 20
1.4965886E+002
 11
8.2657599E+001
 21
1.4965886E+002
  0
LINE
  8
1
  6
CONTINUOUS
 62
7
 10
1.081576E+002
 20
1.3113884E+002
 11
1.066576E+002
 21
1.3113884E+002
  0
TEXT
  8
1
  6
CONTINUOUS
 62
7
 10
1.043576E+002
 20
1.2813884E+002
 40
2.0
  1
I
 41
7.5E-001
  0
LINE
  8
1
  6
CONTINUOUS
 62
7
 10
1.066576E+002
 20
1.3113884E+002
 11
1.066576E+002
 21
1.2713884E+002
  0
LINE
  8
1
  6
CONTINUOUS
 62
7
 10
1.081576E+002
 20
1.2713884E+002
 11
1.066576E+002
 21
1.2713884E+002
  0
LINE
  8
1
  6
HIDDEN
 62
7
 10
1.116576E+002
 20
1.2913884E+002
 11
1.066576E+002
 21
1.2913884E+002
  0
LINE
  8
1
  6
HIDDEN
 62
7
 10
1.12192E+002
 20
1.5865886E+002
 11
1.2325057E+002
 21
1.5865886E+002
  0
LINE
  8
1
  6
CONTINUOUS
 62
7
 10
8.8657599E+001
 20
1.4865886E+002
 11
8.8657599E+001
 21
1.4965886E+002
  0
LINE
  8
1
  6
CONTINUOUS
 62
7
 10
8.3657599E+001
 20
1.4965886E+002
 11
8.8657599E+001
 21
1.4965886E+002
  0
LINE
  8
1
  6
CONTINUOUS
 62
7
 10
7.4657599E+001
 20
1.4765886E+002
 11
7.4657599E+001
 21
1.4665886E+002
  0
LINE
  8
1
  6
CONTINUOUS
 62
7
 10
7.4657599E+001
 20
1.4565886E+002
 11
7.4657599E+001
 21
1.4065886E+002
  0
LINE
  8
1
  6
CONTINUOUS
 62
7
 10
1.381576E+002
 20
1.5615886E+002
 11
1.391576E+002
 21
1.6215886E+002
  0
LINE
  8
1
  6
CONTINUOUS
 62
7
 10
1.381576E+002
 20
1.6115886E+002
 11
1.401576E+002
 21
1.6115886E+002
  0
LINE
  8
1
  6
CONTINUOUS
 62
7
 10
1.381576E+002
 20
1.6115886E+002
 11
1.381576E+002
 21
1.7217101E+002
  0
LINE
  8
1
  6
CONTINUOUS
 62
7
 10
7.4657599E+001
 20
1.3965886E+002
 11
7.4657599E+001
 21
1.3865886E+002
  0
LINE
  8
1
  6
CONTINUOUS
 62
7
 10
1.381576E+002
 20
1.5615886E+002
 11
1.381576E+002
 21
1.5165886E+002
  0
LINE
  8
1
  6
CONTINUOUS
 62
7
 10
7.4657599E+001
 20
1.3265886E+002
 11
7.4657599E+001
 21
1.3765886E+002
  0
LINE
  8
1
  6
CONTINUOUS
 62
7
 10
1.2625057E+002
 20
1.6065886E+002
 11
1.3025057E+002
 21
1.5865886E+002
  0
LINE
  8
1
  6
CONTINUOUS
 62
7
 10
1.2625057E+002
 20
1.6065886E+002
 11
1.2625057E+002
 21
1.5865886E+002
  0
LINE
  8
1
  6
CONTINUOUS
 62
7
 10
1.2625057E+002
 20
1.5865886E+002
 11
1.3025057E+002
 21
1.5865886E+002
  0
LINE
  8
1
  6
CONTINUOUS
 62
7
 10
1.1325057E+002
 20
1.6065886E+002
 11
1.1725057E+002
 21
1.5865886E+002
  0
LINE
  8
1
  6
CONTINUOUS
 62
7
 10
1.1325057E+002
 20
1.6065886E+002
 11
1.1325057E+002
 21
1.5865886E+002
  0
LINE
  8
1
  6
CONTINUOUS
 62
7
 10
1.1325057E+002
 20
1.5865886E+002
 11
1.1725057E+002
 21
1.5865886E+002
  0
LINE
  8
1
  6
HIDDEN
 62
7
 10
1.3025057E+002
 20
1.5965886E+002
 11
1.3025057E+002
 21
1.6415886E+002
  0
LINE
  8
1
  6
HIDDEN
 62
7
 10
1.3025057E+002
 20
1.6415886E+002
 11
1.2225057E+002
 21
1.6415886E+002
  0
LINE
  8
1
  6
HIDDEN
 62
7
 10
1.3125057E+002
 20
1.5965886E+002
 11
1.3874093E+002
 21
1.5965886E+002
  0
LINE
  8
1
  6
HIDDEN
 62
7
 10
1.3125057E+002
 20
1.6515886E+002
 11
1.3125057E+002
 21
1.5965886E+002
  0
LINE
  8
1
  6
HIDDEN
 62
7
 10
1.2225057E+002
 20
1.6515886E+002
 11
1.3125057E+002
 21
1.6515886E+002
  0
LINE
  8
1
  6
CONTINUOUS
 62
7
 10
1.2225057E+002
 20
1.6665886E+002
 11
1.2225057E+002
 21
1.6265886E+002
  0
LINE
  8
1
  6
CONTINUOUS
 62
7
 10
1.2375057E+002
 20
1.6265886E+002
 11
1.2225057E+002
 21
1.6265886E+002
  0
LINE
  8
1
  6
CONTINUOUS
 62
7
 10
1.2375057E+002
 20
1.6665886E+002
 11
1.2225057E+002
 21
1.6665886E+002
  0
TEXT
  8
1
  6
CONTINUOUS
 62
7
 10
1.1825057E+002
 20
1.6465886E+002
 40
2.0
  1
O
 41
7.5E-001
  0
TEXT
  8
1
  6
CONTINUOUS
 62
7
 10
1.1995057E+002
 20
1.6265886E+002
 40
2.0
  1
R
 41
7.5E-001
  0
LINE
  8
1
  6
CONTINUOUS
 62
7
 10
1.2045057E+002
 20
1.6605886E+002
 11
1.1885057E+002
 21
1.6285886E+002
  0
LINE
  8
1
  6
HIDDEN
 62
7
 10
1.1725057E+002
 20
1.5965886E+002
 11
1.1725057E+002
 21
1.6415886E+002
  0
LINE
  8
1
  6
HIDDEN
 62
7
 10
1.1725057E+002
 20
1.6415886E+002
 11
1.0925057E+002
 21
1.6415886E+002
  0
LINE
  8
1
  6
CONTINUOUS
 62
7
 10
1.1075057E+002
 20
1.6265886E+002
 11
1.0925057E+002
 21
1.6265886E+002
  0
LINE
  8
1
  6
CONTINUOUS
 62
7
 10
1.0925057E+002
 20
1.6665886E+002
 11
1.0925057E+002
 21
1.6265886E+002
  0
LINE
  8
1
  6
CONTINUOUS
 62
7
 10
1.1075057E+002
 20
1.6665886E+002
 11
1.0925057E+002
 21
1.6665886E+002
  0
TEXT
  8
1
  6
CONTINUOUS
 62
7
 10
1.0695057E+002
 20
1.6265886E+002
 40
2.0
  1
R
 41
7.5E-001
  0
LINE
  8
1
  6
HIDDEN
 62
7
 10
1.3025057E+002
 20
1.5865886E+002
 11
1.411576E+002
 21
1.5865886E+002
  0
LINE
  8
1
  6
CONTINUOUS
 62
7
 10
1.411576E+002
 20
1.5917101E+002
 11
1.411576E+002
 21
1.5817101E+002
  0
LINE
  8
1
  6
CONTINUOUS
 62
7
 10
1.411576E+002
 20
1.5917101E+002
 11
1.431576E+002
 21
1.5917101E+002
  0
LINE
  8
1
  6
CONTINUOUS
 62
7
 10
1.411576E+002
 20
1.5817101E+002
 11
1.431576E+002
 21
1.5817101E+002
  0
LINE
  8
1
  6
CONTINUOUS
 62
7
 10
1.431576E+002
 20
1.5817101E+002
 11
1.431576E+002
 21
1.5717101E+002
  0
LINE
  8
1
  6
CONTINUOUS
 62
7
 10
1.431576E+002
 20
1.5917101E+002
 11
1.431576E+002
 21
1.6017101E+002
  0
TEXT
  8
1
  6
CONTINUOUS
 62
7
 10
1.436576E+002
 20
1.5780239E+002
 40
2.0
  1
FR1
 41
7.5E-001
  0
LINE
  8
1
  6
CONTINUOUS
 62
7
 10
7.4657599E+001
 20
1.3165886E+002
 11
7.4657599E+001
 21
1.3065886E+002
  0
LINE
  8
1
  6
CONTINUOUS
 62
7
 10
7.4657599E+001
 20
1.2965886E+002
 11
7.4657599E+001
 21
1.2455783E+002
  0
LINE
  8
1
  6
CONTINUOUS
 62
7
 10
1.126576E+002
 20
1.5165886E+002
 11
1.191576E+002
 21
1.5165886E+002
  0
LINE
  8
1
  6
CONTINUOUS
 62
7
 10
8.8657599E+001
 20
1.2665886E+002
 11
8.8657599E+001
 21
1.2465886E+002
  0
LINE
  8
1
  6
SHORT_DASH
 62
7
 10
1.191576E+002
 20
1.5165886E+002
 11
1.381576E+002
 21
1.5165886E+002
  0
LINE
  8
1
  6
CONTINUOUS
 62
7
 10
8.3657599E+001
 20
1.2465886E+002
 11
8.8657599E+001
 21
1.2465886E+002
  0
LINE
  8
1
  6
CONTINUOUS
 62
7
 10
8.2657599E+001
 20
1.2465886E+002
 11
8.1657599E+001
 21
1.2465886E+002
  0
LINE
  8
1
  6
CONTINUOUS
 62
7
 10
8.8657599E+001
 20
1.4765886E+002
 11
8.8657599E+001
 21
1.4665886E+002
  0
LINE
  8
1
  6
CONTINUOUS
 62
7
 10
8.8657599E+001
 20
1.4565886E+002
 11
8.8657599E+001
 21
1.4065886E+002
  0
LINE
  8
1
  6
CONTINUOUS
 62
7
 10
8.8657599E+001
 20
1.3965886E+002
 11
8.8657599E+001
 21
1.3865886E+002
  0
LINE
  8
1
  6
CONTINUOUS
 62
7
 10
8.8657599E+001
 20
1.3765886E+002
 11
8.8657599E+001
 21
1.3265886E+002
  0
LINE
  8
1
  6
CONTINUOUS
 62
7
 10
8.8657599E+001
 20
1.3165886E+002
 11
8.8657599E+001
 21
1.3065886E+002
  0
LINE
  8
1
  6
CONTINUOUS
 62
7
 10
8.6657599E+001
 20
1.3263884E+002
 11
8.4657599E+001
 21
1.3763884E+002
  0
LINE
  8
1
  6
CONTINUOUS
 62
7
 10
8.8657599E+001
 20
1.2965886E+002
 11
8.8657599E+001
 21
1.2465886E+002
  0
LINE
  8
1
  6
CONTINUOUS
 62
7
 10
8.6657599E+001
 20
1.5165886E+002
 11
8.6657599E+001
 21
1.3731625E+002
  0
LINE
  8
1
  6
CONTINUOUS
 62
7
 10
8.6657599E+001
 20
1.2165886E+002
 11
8.6657599E+001
 21
1.3263884E+002
  0
LINE
  8
1
  6
CONTINUOUS
 62
7
 10
7.9657599E+001
 20
1.3713884E+002
 11
7.9657599E+001
 21
1.3313884E+002
  0
LINE
  8
1
  6
SHORT_DASH
 62
7
 10
9.1657599E+001
 20
1.5165886E+002
 11
9.7657599E+001
 21
1.5165886E+002
  0
LINE
  8
1
  6
CONTINUOUS
 62
7
 10
8.6657599E+001
 20
1.5165886E+002
 11
9.1657599E+001
 21
1.5165886E+002
  0
LINE
  8
1
  6
CONTINUOUS
 62
7
 10
8.6657599E+001
 20
1.2165886E+002
 11
9.1657599E+001
 21
1.2165886E+002
  0
LINE
  8
1
  6
SHORT_DASH
 62
7
 10
9.1657599E+001
 20
1.2165886E+002
 11
9.7657599E+001
 21
1.2165886E+002
  0
LINE
  8
1
  6
CONTINUOUS
 62
7
 10
7.8021512E+001
 20
1.3659883E+002
 11
7.6421512E+001
 21
1.3339883E+002
  0
TEXT
  8
1
  6
CONTINUOUS
 62
7
 10
7.5821512E+001
 20
1.3519883E+002
 40
2.0
  1
O
 41
7.5E-001
  0
TEXT
  8
1
  6
CONTINUOUS
 62
7
 10
7.7521512E+001
 20
1.3319883E+002
 40
2.0
  1
I
 41
7.5E-001
  0
LINE
  8
1
  6
CONTINUOUS
 62
7
 10
1.026576E+002
 20
1.4963884E+002
 11
1.026576E+002
 21
1.4873606E+002
  0
LINE
  8
1
  6
CONTINUOUS
 62
7
 10
1.026576E+002
 20
1.4765886E+002
 11
1.026576E+002
 21
1.4665886E+002
  0
LINE
  8
1
  6
CONTINUOUS
 62
7
 10
1.116576E+002
 20
1.2465886E+002
 11
1.166576E+002
 21
1.2465886E+002
  0
LINE
  8
1
  6
CONTINUOUS
 62
7
 10
1.026576E+002
 20
1.4565886E+002
 11
1.026576E+002
 21
1.4065886E+002
  0
LINE
  8
1
  6
CONTINUOUS
 62
7
 10
1.106576E+002
 20
1.2465886E+002
 11
1.096576E+002
 21
1.2465886E+002
  0
LINE
  8
1
  6
HIDDEN
 62
7
 10
8.2657599E+001
 20
1.3513884E+002
 11
8.5657599E+001
 21
1.3513884E+002
  0
LINE
  8
1
  6
CONTINUOUS
 62
7
 10
8.1157599E+001
 20
1.3513884E+002
 11
8.1907599E+001
 21
1.3363884E+002
  0
LINE
  8
1
  6
CONTINUOUS
 62
7
 10
8.1907599E+001
 20
1.3363884E+002
 11
8.2657599E+001
 21
1.3513884E+002
  0
LINE
  8
1
  6
HIDDEN
 62
7
 10
8.1157599E+001
 20
1.3513884E+002
 11
7.9657599E+001
 21
1.3513884E+002
  0
LINE
  8
1
  6
CONTINUOUS
 62
7
 10
1.026576E+002
 20
1.3965886E+002
 11
1.026576E+002
 21
1.3865886E+002
  0
LINE
  8
1
  6
CONTINUOUS
 62
7
 10
1.026576E+002
 20
1.3265886E+002
 11
1.026576E+002
 21
1.3765886E+002
  0
TEXT
  8
1
  6
CONTINUOUS
 62
7
 10
9.8157599E+001
 20
1.5063482E+002
 40
2.0
  1
96
 41
7.5E-001
  0
LINE
  8
1
  6
CONTINUOUS
 62
7
 10
1.026576E+002
 20
1.3165886E+002
 11
1.026576E+002
 21
1.3065886E+002
  0
TEXT
  8
1
  6
CONTINUOUS
 62
7
 10
9.8157599E+001
 20
1.2063482E+002
 40
2.0
  1
24
 41
7.5E-001
  0
LINE
  8
1
  6
CONTINUOUS
 62
7
 10
1.026576E+002
 20
1.2965886E+002
 11
1.026576E+002
 21
1.2455783E+002
  0
LINE
  8
1
  6
CONTINUOUS
 62
7
 10
1.166576E+002
 20
1.2965886E+002
 11
1.166576E+002
 21
1.2465886E+002
  0
LINE
  8
1
  6
CONTINUOUS
 62
7
 10
1.166576E+002
 20
1.3765886E+002
 11
1.166576E+002
 21
1.3265886E+002
  0
LINE
  8
1
  6
CONTINUOUS
 62
7
 10
8.7126837E+001
 20
1.7217101E+002
 11
1.431576E+002
 21
1.7217101E+002
  0
LINE
  8
1
  6
CONTINUOUS
 62
7
 10
1.166576E+002
 20
1.3165886E+002
 11
1.166576E+002
 21
1.3065886E+002
  0
LINE
  8
1
  6
SHORT_DASH
 62
7
 10
7.8157599E+001
 20
1.6917101E+002
 11
9.0244042E+001
 21
1.6917101E+002
  0
LINE
  8
1
  6
CONTINUOUS
 62
7
 10
9.0244042E+001
 20
1.6917101E+002
 11
9.0244042E+001
 21
1.7217101E+002
  0
LINE
  8
1
  6
CONTINUOUS
 62
7
 10
1.026576E+002
 20
1.4963884E+002
 11
1.086576E+002
 21
1.4963884E+002
  0
LINE
  8
1
  6
CONTINUOUS
 62
7
 10
3.0922716E+002
 20
8.8215586E+001
 11
3.0922716E+002
 21
8.9217957E+001
  0
LINE
  8
1
  6
CONTINUOUS
 62
7
 10
1.096576E+002
 20
1.4965886E+002
 11
1.106576E+002
 21
1.4965886E+002
  0
LINE
  8
1
  6
CONTINUOUS
 62
7
 10
1.116576E+002
 20
1.4965886E+002
 11
1.166576E+002
 21
1.4965886E+002
  0
LINE
  8
1
  6
SHORT_DASH
 62
7
 10
1.126576E+002
 20
1.2165886E+002
 11
1.216576E+002
 21
1.2165886E+002
  0
LINE
  8
1
  6
CONTINUOUS
 62
7
 10
3.3272716E+002
 20
9.5168434E+001
 11
3.3272716E+002
 21
1.5117101E+002
  0
LINE
  8
1
  6
CONTINUOUS
 62
7
 10
3.1922716E+002
 20
9.5171008E+001
 11
3.1922716E+002
 21
1.4565886E+002
  0
LINE
  8
1
  6
SHORT_DASH
 62
7
 10
1.191576E+002
 20
1.3665886E+002
 11
1.381576E+002
 21
1.3665886E+002
  0
LINE
  8
1
  6
CONTINUOUS
 62
7
 10
1.166576E+002
 20
1.3965886E+002
 11
1.166576E+002
 21
1.3865886E+002
  0
LINE
  8
1
  6
CONTINUOUS
 62
7
 10
1.166576E+002
 20
1.4565886E+002
 11
1.166576E+002
 21
1.4065886E+002
  0
LINE
  8
1
  6
CONTINUOUS
 62
7
 10
1.166576E+002
 20
1.4765886E+002
 11
1.166576E+002
 21
1.4665886E+002
  0
LINE
  8
1
  6
CONTINUOUS
 62
7
 10
1.166576E+002
 20
1.4865886E+002
 11
1.166576E+002
 21
1.4965886E+002
  0
LINE
  8
1
  6
CONTINUOUS
 62
7
 10
1.026576E+002
 20
1.2463884E+002
 11
1.086576E+002
 21
1.2463884E+002
  0
TEXT
  8
1
  6
CONTINUOUS
 62
7
 10
3.1847716E+002
 20
8.2171008E+001
 40
2.0
  1
E1
 41
7.5E-001
 50
9.0E+001
  0
TEXT
  8
1
  6
CONTINUOUS
 62
7
 10
3.1847716E+002
 20
7.4171008E+001
 40
2.0
  1
E2
 41
7.5E-001
 50
9.0E+001
  0
TEXT
  8
1
  6
CONTINUOUS
 62
7
 10
3.3197716E+002
 20
8.2171008E+001
 40
2.0
  1
E1
 41
7.5E-001
 50
9.0E+001
  0
TEXT
  8
1
  6
CONTINUOUS
 62
7
 10
3.3197716E+002
 20
7.4171008E+001
 40
2.0
  1
E2
 41
7.5E-001
 50
9.0E+001
  0
TEXT
  8
1
  6
CONTINUOUS
 62
7
 10
3.0697716E+002
 20
8.2171008E+001
 40
2.0
  1
X1
 41
7.5E-001
 50
9.0E+001
  0
TEXT
  8
1
  6
CONTINUOUS
 62
7
 10
3.0697716E+002
 20
7.4171008E+001
 40
2.0
  1
X2
 41
7.5E-001
 50
9.0E+001
  0
TEXT
  8
1
  6
CONTINUOUS
 62
7
 10
3.4197716E+002
 20
8.2171008E+001
 40
2.0
  1
X1
 41
7.5E-001
 50
9.0E+001
  0
TEXT
  8
1
  6
CONTINUOUS
 62
7
 10
3.4197716E+002
 20
7.4171008E+001
 40
2.0
  1
X2
 41
7.5E-001
 50
9.0E+001
  0
TEXT
  8
1
  6
CONTINUOUS
 62
7
 10
3.5097716E+002
 20
8.2171008E+001
 40
2.0
  1
X1
 41
7.5E-001
 50
9.0E+001
  0
TEXT
  8
1
  6
CONTINUOUS
 62
7
 10
3.5097716E+002
 20
7.4171008E+001
 40
2.0
  1
X2
 41
7.5E-001
 50
9.0E+001
  0
TEXT
  8
1
  6
CONTINUOUS
 62
7
 10
3.5997716E+002
 20
8.2171008E+001
 40
2.0
  1
X1
 41
7.5E-001
 50
9.0E+001
  0
TEXT
  8
1
  6
CONTINUOUS
 62
7
 10
3.5997716E+002
 20
7.4171008E+001
 40
2.0
  1
X2
 41
7.5E-001
 50
9.0E+001
  0
LINE
  8
1
  6
CONTINUOUS
 62
7
 10
3.0922716E+002
 20
9.7215586E+001
 11
3.1418125E+002
 21
9.7215586E+001
  0
LINE
  8
1
  6
CONTINUOUS
 62
7
 10
3.1522716E+002
 20
9.7215586E+001
 11
3.1631947E+002
 21
9.7215586E+001
  0
LINE
  8
1
  6
CONTINUOUS
 62
7
 10
3.1722716E+002
 20
9.7215586E+001
 11
3.2122716E+002
 21
9.7215586E+001
  0
LINE
  8
1
  6
CONTINUOUS
 62
7
 10
3.0922716E+002
 20
9.0215586E+001
 11
3.0922716E+002
 21
9.5215586E+001
  0
LINE
  8
1
  6
CONTINUOUS
 62
7
 10
3.2122716E+002
 20
9.7215586E+001
 11
3.2122716E+002
 21
9.6215586E+001
  0
LINE
  8
1
  6
CONTINUOUS
 62
7
 10
3.2122716E+002
 20
9.5215586E+001
 11
3.2122716E+002
 21
9.0355987E+001
  0
LINE
  8
1
  6
CONTINUOUS
 62
7
 10
3.2122716E+002
 20
8.8215586E+001
 11
3.1622716E+002
 21
8.8215586E+001
  0
LINE
  8
1
  6
CONTINUOUS
 62
7
 10
3.2122716E+002
 20
8.9215586E+001
 11
3.2122716E+002
 21
8.8215586E+001
  0
LINE
  8
1
  6
CONTINUOUS
 62
7
 10
3.1522716E+002
 20
8.8215586E+001
 11
3.1422716E+002
 21
8.8215586E+001
  0
LINE
  8
1
  6
CONTINUOUS
 62
7
 10
3.1322716E+002
 20
8.8215586E+001
 11
3.0922716E+002
 21
8.8215586E+001
  0
LINE
  8
1
  6
CONTINUOUS
 62
7
 10
3.0922716E+002
 20
9.6215586E+001
 11
3.0922716E+002
 21
9.7215586E+001
  0
LINE
  8
1
  6
CONTINUOUS
 62
7
 10
3.3472716E+002
 20
8.9215586E+001
 11
3.3472716E+002
 21
8.8215586E+001
  0
LINE
  8
1
  6
CONTINUOUS
 62
7
 10
3.3472716E+002
 20
8.8215586E+001
 11
3.2972716E+002
 21
8.8215586E+001
  0
LINE
  8
1
  6
CONTINUOUS
 62
7
 10
3.3472716E+002
 20
9.5215586E+001
 11
3.3472716E+002
 21
9.0355987E+001
  0
LINE
  8
1
  6
CONTINUOUS
 62
7
 10
3.3472716E+002
 20
9.7215586E+001
 11
3.3472716E+002
 21
9.6215586E+001
  0
LINE
  8
1
  6
CONTINUOUS
 62
7
 10
3.3072716E+002
 20
9.7215586E+001
 11
3.3472716E+002
 21
9.7215586E+001
  0
LINE
  8
1
  6
CONTINUOUS
 62
7
 10
3.2272716E+002
 20
9.7215586E+001
 11
3.2768125E+002
 21
9.7215586E+001
  0
LINE
  8
1
  6
CONTINUOUS
 62
7
 10
3.2272716E+002
 20
9.6215586E+001
 11
3.2272716E+002
 21
9.7215586E+001
  0
LINE
  8
1
  6
CONTINUOUS
 62
7
 10
3.2272716E+002
 20
9.0215586E+001
 11
3.2272716E+002
 21
9.5215586E+001
  0
LINE
  8
1
  6
CONTINUOUS
 62
7
 10
3.2272716E+002
 20
8.8215586E+001
 11
3.2272716E+002
 21
8.9217957E+001
  0
LINE
  8
1
  6
CONTINUOUS
 62
7
 10
3.2672716E+002
 20
8.8215586E+001
 11
3.2272716E+002
 21
8.8215586E+001
  0
LINE
  8
1
  6
CONTINUOUS
 62
7
 10
3.2872716E+002
 20
8.8215586E+001
 11
3.2772716E+002
 21
8.8215586E+001
  0
LINE
  8
1
  6
CONTINUOUS
 62
7
 10
3.2872716E+002
 20
9.7215586E+001
 11
3.2981947E+002
 21
9.7215586E+001
  0
TEXT
  8
1
  6
CONTINUOUS
 62
7
 10
1.374076E+002
 20
1.6215886E+002
 40
2.0
  1
95
 41
7.5E-001
 50
9.0E+001
  0
TEXT
  8
1
  6
CONTINUOUS
 62
7
 10
1.374076E+002
 20
1.5315886E+002
 40
2.0
  1
96
 41
7.5E-001
 50
9.0E+001
  0
INSERT
  2
*TX507
  8
1
 10
2.9972716E+002
 20
2.4867101E+002
  0
INSERT
  2
*TX508
  8
1
 10
2.9972716E+002
 20
2.3617101E+002
  0
INSERT
  2
*TX509
  8
1
 10
2.9972716E+002
 20
2.1417101E+002
  0
INSERT
  2
*TX510
  8
1
 10
2.9972716E+002
 20
2.0217101E+002
  0
INSERT
  2
*TX511
  8
1
 10
2.9422716E+002
 20
1.9017101E+002
  0
INSERT
  2
*TX512
  8
1
 10
2.9568179E+002
 20
1.7114697E+002
  0
INSERT
  2
*TX513
  8
1
 10
7.4657599E+001
 20
1.7114697E+002
  0
INSERT
  2
*TX514
  8
1
 10
9.624236E+001
 20
1.8117101E+002
  0
ARC
  8
1
  6
CONTINUOUS
 62
7
 10
2.668518E+002
 20
2.3375734E+002
 40
1.25
 50
9.0E+001
 51
2.7E+002
  0
ARC
  8
1
  6
CONTINUOUS
 62
7
 10
2.618518E+002
 20
2.3376949E+002
 40
1.25
 50
9.0E+001
 51
2.7E+002
  0
ARC
  8
1
  6
CONTINUOUS
 62
7
 10
2.568518E+002
 20
2.3376949E+002
 40
1.25
 50
9.0E+001
 51
2.7E+002
  0
ARC
  8
1
  6
CONTINUOUS
 62
7
 10
2.1203003E+002
 20
2.3376949E+002
 40
1.25
 50
9.0E+001
 51
2.7E+002
  0
ARC
  8
1
  6
CONTINUOUS
 62
7
 10
2.1703003E+002
 20
2.3376949E+002
 40
1.25
 50
9.0E+001
 51
2.7E+002
  0
ARC
  8
1
  6
CONTINUOUS
 62
7
 10
2.2203003E+002
 20
2.3376949E+002
 40
1.25
 50
9.0E+001
 51
2.7E+002
  0
ARC
  8
1
  6
CONTINUOUS
 62
7
 10
1.5203003E+002
 20
2.3376949E+002
 40
1.25
 50
9.0E+001
 51
2.7E+002
  0
ARC
  8
1
  6
CONTINUOUS
 62
7
 10
1.5703003E+002
 20
2.3376949E+002
 40
1.25
 50
9.0E+001
 51
2.7E+002
  0
LINE
  8
1
  6
CONTINUOUS
 62
7
 10
8.1351977E+001
 20
2.3851949E+002
 11
8.1351977E+001
 21
2.3451949E+002
  0
LINE
  8
1
  6
CONTINUOUS
 62
7
 10
8.1351977E+001
 20
2.3251949E+002
 11
8.1351977E+001
 21
2.3351949E+002
  0
LINE
  8
1
  6
CONTINUOUS
 62
7
 10
8.1351977E+001
 20
2.2651949E+002
 11
8.1351977E+001
 21
2.3151949E+002
  0
LINE
  8
1
  6
CONTINUOUS
 62
7
 10
8.1351977E+001
 20
2.2451949E+002
 11
8.1351977E+001
 21
2.2551949E+002
  0
LINE
  8
1
  6
CONTINUOUS
 62
7
 10
8.1351977E+001
 20
2.2351949E+002
 11
8.1351977E+001
 21
2.2151949E+002
  0
LINE
  8
1
  6
CONTINUOUS
 62
7
 10
8.4351977E+001
 20
2.2151949E+002
 11
8.1351977E+001
 21
2.2151949E+002
  0
LINE
  8
1
  6
CONTINUOUS
 62
7
 10
8.6351977E+001
 20
2.2151949E+002
 11
9.1351977E+001
 21
2.2151949E+002
  0
LINE
  8
1
  6
CONTINUOUS
 62
7
 10
9.3351977E+001
 20
2.2151949E+002
 11
9.2351977E+001
 21
2.2151949E+002
  0
LINE
  8
1
  6
CONTINUOUS
 62
7
 10
9.9351977E+001
 20
2.2151949E+002
 11
9.4351977E+001
 21
2.2151949E+002
  0
LINE
  8
1
  6
CONTINUOUS
 62
7
 10
1.0735198E+002
 20
2.2151949E+002
 11
1.0235198E+002
 21
2.2151949E+002
  0
LINE
  8
1
  6
CONTINUOUS
 62
7
 10
1.0135198E+002
 20
2.2151949E+002
 11
1.0035198E+002
 21
2.2151949E+002
  0
LINE
  8
1
  6
CONTINUOUS
 62
7
 10
1.1035198E+002
 20
2.2151949E+002
 11
1.0935198E+002
 21
2.2151949E+002
  0
LINE
  8
1
  6
CONTINUOUS
 62
7
 10
1.1635198E+002
 20
2.2151949E+002
 11
1.1135198E+002
 21
2.2151949E+002
  0
LINE
  8
1
  6
CONTINUOUS
 62
7
 10
1.1935198E+002
 20
2.2151949E+002
 11
1.2435198E+002
 21
2.2151949E+002
  0
LINE
  8
1
  6
CONTINUOUS
 62
7
 10
1.2435198E+002
 20
2.2451949E+002
 11
1.2435198E+002
 21
2.2151949E+002
  0
LINE
  8
1
  6
CONTINUOUS
 62
7
 10
1.1835198E+002
 20
2.2151949E+002
 11
1.1735198E+002
 21
2.2151949E+002
  0
LINE
  8
1
  6
CONTINUOUS
 62
7
 10
1.2435198E+002
 20
2.2651949E+002
 11
1.2435198E+002
 21
2.2551949E+002
  0
LINE
  8
1
  6
CONTINUOUS
 62
7
 10
1.2435198E+002
 20
2.3251949E+002
 11
1.2435198E+002
 21
2.2751949E+002
  0
LINE
  8
1
  6
CONTINUOUS
 62
7
 10
1.2435198E+002
 20
2.3451949E+002
 11
1.2435198E+002
 21
2.3351949E+002
  0
LINE
  8
1
  6
CONTINUOUS
 62
7
 10
1.2435198E+002
 20
2.3851949E+002
 11
1.2435198E+002
 21
2.3551949E+002
  0
LINE
  8
1
  6
CONTINUOUS
 62
7
 10
1.2235198E+002
 20
2.3851949E+002
 11
1.2435198E+002
 21
2.3851949E+002
  0
LINE
  8
1
  6
CONTINUOUS
 62
7
 10
1.2035198E+002
 20
2.3851949E+002
 11
1.2135198E+002
 21
2.3851949E+002
  0
LINE
  8
1
  6
CONTINUOUS
 62
7
 10
1.1435198E+002
 20
2.3851949E+002
 11
1.1935198E+002
 21
2.3851949E+002
  0
LINE
  8
1
  6
CONTINUOUS
 62
7
 10
1.1235198E+002
 20
2.3851949E+002
 11
1.1335198E+002
 21
2.3851949E+002
  0
LINE
  8
1
  6
CONTINUOUS
 62
7
 10
1.0635198E+002
 20
2.3851949E+002
 11
1.1135198E+002
 21
2.3851949E+002
  0
LINE
  8
1
  6
CONTINUOUS
 62
7
 10
1.0435198E+002
 20
2.3851949E+002
 11
1.0535198E+002
 21
2.3851949E+002
  0
LINE
  8
1
  6
CONTINUOUS
 62
7
 10
9.8351977E+001
 20
2.3851949E+002
 11
1.0335198E+002
 21
2.3851949E+002
  0
LINE
  8
1
  6
CONTINUOUS
 62
7
 10
9.1351977E+001
 20
2.3851949E+002
 11
9.6351977E+001
 21
2.3851949E+002
  0
LINE
  8
1
  6
CONTINUOUS
 62
7
 10
8.9351977E+001
 20
2.3851949E+002
 11
9.0351977E+001
 21
2.3851949E+002
  0
LINE
  8
1
  6
CONTINUOUS
 62
7
 10
8.3351977E+001
 20
2.3851949E+002
 11
8.8351977E+001
 21
2.3851949E+002
  0
LINE
  8
1
  6
CONTINUOUS
 62
7
 10
8.1351977E+001
 20
2.3851949E+002
 11
8.2351977E+001
 21
2.3851949E+002
  0
ARC
  8
1
  6
CONTINUOUS
 62
7
 10
1.6203003E+002
 20
2.3376949E+002
 40
1.25
 50
9.0E+001
 51
2.7E+002
  0
TEXT
  8
1
  6
CONTINUOUS
 62
7
 10
1.7128003E+002
 20
2.3759587E+002
 40
2.0
  1
23
 41
7.5E-001
 50
9.0E+001
  0
LINE
  8
1
  6
CENTERLINE
 62
7
 10
7.9263625E+001
 20
2.5701949E+002
 11
7.9263625E+001
 21
1.9401949E+002
  0
LINE
  8
1
  6
CENTERLINE
 62
7
 10
7.9263625E+001
 20
2.5701949E+002
 11
2.8526362E+002
 21
2.5701949E+002
  0
LINE
  8
1
  6
CENTERLINE
 62
7
 10
7.9263625E+001
 20
1.9401949E+002
 11
2.8526362E+002
 21
1.9401949E+002
  0
LINE
  8
1
  6
SHORT_DASH
 62
7
 10
2.0703003E+002
 20
2.300788E+002
 11
2.2745658E+002
 21
2.300788E+002
  0
LINE
  8
1
  6
CONTINUOUS
 62
7
 10
2.438518E+002
 20
2.3201949E+002
 11
2.438518E+002
 21
2.2813811E+002
  0
LINE
  8
1
  6
CONTINUOUS
 62
7
 10
2.518518E+002
 20
2.3201949E+002
 11
2.518518E+002
 21
2.2813811E+002
  0
LINE
  8
1
  6
CONTINUOUS
 62
7
 10
2.518518E+002
 20
2.3201949E+002
 11
2.438518E+002
 21
2.3201949E+002
  0
LINE
  8
1
  6
CONTINUOUS
 62
7
 10
2.518518E+002
 20
2.2813811E+002
 11
2.438518E+002
 21
2.2813811E+002
  0
LINE
  8
1
  6
CONTINUOUS
 62
7
 10
2.478518E+002
 20
2.3201949E+002
 11
2.478518E+002
 21
2.3701949E+002
  0
LINE
  8
1
  6
CONTINUOUS
 62
7
 10
2.478518E+002
 20
2.2813811E+002
 11
2.478518E+002
 21
2.2301949E+002
  0
TEXT
  8
1
  6
CONTINUOUS
 62
7
 10
2.388518E+002
 20
2.3101949E+002
 40
2.0
  1
KM2
 41
7.5E-001
  0
TEXT
  8
1
  6
CONTINUOUS
 62
7
 10
2.471018E+002
 20
2.3301949E+002
 40
2.0
  1
A1
 41
7.5E-001
 50
9.0E+001
  0
TEXT
  8
1
  6
CONTINUOUS
 62
7
 10
2.471018E+002
 20
2.2401949E+002
 40
2.0
  1
A2
 41
7.5E-001
 50
9.0E+001
  0
POLYLINE
  8
1
  6
CONTINUOUS
 62
7
 66
1
 40
5.0E-001
 41
5.0E-001
 70
0
  0
VERTEX
  8
1
 42
0.0
 10
2.568518E+002
 20
2.3251949E+002
 70
0
  0
VERTEX
  8
1
 42
0.0
 10
2.568518E+002
 20
2.5101949E+002
 70
0
  0
SEQEND
  0
POLYLINE
  8
1
  6
CONTINUOUS
 62
7
 66
1
 40
5.0E-001
 41
5.0E-001
 70
0
  0
VERTEX
  8
1
 42
0.0
 10
2.568518E+002
 20
2.2751949E+002
 70
0
  0
VERTEX
  8
1
 42
0.0
 10
2.568518E+002
 20
2.1146483E+002
 70
0
  0
SEQEND
  0
POLYLINE
  8
1
  6
CONTINUOUS
 62
7
 66
1
 40
5.0E-001
 41
5.0E-001
 70
0
  0
VERTEX
  8
1
 42
0.0
 10
2.618518E+002
 20
2.3251949E+002
 70
0
  0
VERTEX
  8
1
 42
0.0
 10
2.618518E+002
 20
2.5101949E+002
 70
0
  0
SEQEND
  0
POLYLINE
  8
1
  6
CONTINUOUS
 62
7
 66
1
 40
5.0E-001
 41
5.0E-001
 70
0
  0
VERTEX
  8
1
 42
0.0
 10
2.618518E+002
 20
2.2751949E+002
 70
0
  0
VERTEX
  8
1
 42
0.0
 10
2.618518E+002
 20
2.0946483E+002
 70
0
  0
SEQEND
  0
POLYLINE
  8
1
  6
CONTINUOUS
 62
7
 66
1
 40
5.0E-001
 41
5.0E-001
 70
0
  0
VERTEX
  8
1
 42
0.0
 10
2.668518E+002
 20
2.3250734E+002
 70
0
  0
VERTEX
  8
1
 42
0.0
 10
2.668518E+002
 20
2.5101949E+002
 70
0
  0
SEQEND
  0
POLYLINE
  8
1
  6
CONTINUOUS
 62
7
 66
1
 40
5.0E-001
 41
5.0E-001
 70
0
  0
VERTEX
  8
1
 42
0.0
 10
2.668518E+002
 20
2.2751949E+002
 70
0
  0
VERTEX
  8
1
 42
0.0
 10
2.668518E+002
 20
2.0746483E+002
 70
0
  0
SEQEND
  0
POLYLINE
  8
1
  6
CONTINUOUS
 62
7
 66
1
 40
5.0E-001
 41
5.0E-001
 70
0
  0
VERTEX
  8
1
 42
0.0
 10
2.568518E+002
 20
2.5101949E+002
 70
0
  0
VERTEX
  8
1
 42
0.0
 10
2.668518E+002
 20
2.5101949E+002
 70
0
  0
SEQEND
  0
LINE
  8
1
  6
CONTINUOUS
 62
7
 10
2.718518E+002
 20
2.3251949E+002
 11
2.718518E+002
 21
2.4401949E+002
  0
LINE
  8
1
  6
CONTINUOUS
 62
7
 10
2.718518E+002
 20
2.2751949E+002
 11
2.718518E+002
 21
2.1601949E+002
  0
LINE
  8
1
  6
CONTINUOUS
 62
7
 10
1.7203003E+002
 20
2.2751949E+002
 11
1.7003003E+002
 21
2.3251949E+002
  0
LINE
  8
1
  6
CONTINUOUS
 62
7
 10
1.7203003E+002
 20
2.2751949E+002
 11
1.7203003E+002
 21
2.1601949E+002
  0
TEXT
  8
1
  6
CONTINUOUS
 62
7
 10
1.7128003E+002
 20
2.1901949E+002
 40
2.0
  1
24
 41
7.5E-001
 50
9.0E+001
  0
LINE
  8
1
  6
CONTINUOUS
 62
7
 10
1.7203003E+002
 20
2.3251949E+002
 11
1.7203003E+002
 21
2.4401949E+002
  0
LINE
  8
1
  6
CONTINUOUS
 62
7
 10
2.718518E+002
 20
2.2751949E+002
 11
2.698518E+002
 21
2.3251949E+002
  0
POLYLINE
  8
1
  6
CONTINUOUS
 62
7
 66
1
 40
5.0E-001
 41
5.0E-001
 70
0
  0
VERTEX
  8
1
 42
0.0
 10
2.668518E+002
 20
2.2751949E+002
 70
0
  0
VERTEX
  8
1
 42
0.0
 10
2.648518E+002
 20
2.3251949E+002
 70
0
  0
SEQEND
  0
POLYLINE
  8
1
  6
CONTINUOUS
 62
7
 66
1
 40
5.0E-001
 41
5.0E-001
 70
0
  0
VERTEX
  8
1
 42
0.0
 10
2.618518E+002
 20
2.2751949E+002
 70
0
  0
VERTEX
  8
1
 42
0.0
 10
2.598518E+002
 20
2.3251949E+002
 70
0
  0
SEQEND
  0
POLYLINE
  8
1
  6
CONTINUOUS
 62
7
 66
1
 40
5.0E-001
 41
5.0E-001
 70
0
  0
VERTEX
  8
1
 42
0.0
 10
2.568518E+002
 20
2.2751949E+002
 70
0
  0
VERTEX
  8
1
 42
0.0
 10
2.548518E+002
 20
2.3251949E+002
 70
0
  0
SEQEND
  0
TEXT
  8
1
  6
CONTINUOUS
 62
7
 10
2.561018E+002
 20
2.3808158E+002
 40
2.0
  1
1/L1
 41
7.5E-001
 50
9.0E+001
  0
TEXT
  8
1
  6
CONTINUOUS
 62
7
 10
2.611018E+002
 20
2.3808158E+002
 40
2.0
  1
3/L2
 41
7.5E-001
 50
9.0E+001
  0
TEXT
  8
1
  6
CONTINUOUS
 62
7
 10
2.661018E+002
 20
2.3808158E+002
 40
2.0
  1
5/L3
 41
7.5E-001
 50
9.0E+001
  0
TEXT
  8
1
  6
CONTINUOUS
 62
7
 10
2.711018E+002
 20
2.3808158E+002
 40
2.0
  1
13
 41
7.5E-001
 50
9.0E+001
  0
TEXT
  8
1
  6
CONTINUOUS
 62
7
 10
2.561018E+002
 20
2.1901949E+002
 40
2.0
  1
2/T1
 41
7.5E-001
 50
9.0E+001
  0
TEXT
  8
1
  6
CONTINUOUS
 62
7
 10
2.611018E+002
 20
2.1901949E+002
 40
2.0
  1
4/T2
 41
7.5E-001
 50
9.0E+001
  0
TEXT
  8
1
  6
CONTINUOUS
 62
7
 10
2.661018E+002
 20
2.1901949E+002
 40
2.0
  1
6/T3
 41
7.5E-001
 50
9.0E+001
  0
TEXT
  8
1
  6
CONTINUOUS
 62
7
 10
2.711018E+002
 20
2.1901949E+002
 40
2.0
  1
14
 41
7.5E-001
 50
9.0E+001
  0
LINE
  8
1
  6
CONTINUOUS
 62
7
 10
1.9903003E+002
 20
2.3201949E+002
 11
1.9903003E+002
 21
2.2813811E+002
  0
LINE
  8
1
  6
CONTINUOUS
 62
7
 10
2.0703003E+002
 20
2.3201949E+002
 11
2.0703003E+002
 21
2.2813811E+002
  0
LINE
  8
1
  6
CONTINUOUS
 62
7
 10
2.0703003E+002
 20
2.3201949E+002
 11
1.9903003E+002
 21
2.3201949E+002
  0
LINE
  8
1
  6
CONTINUOUS
 62
7
 10
2.0703003E+002
 20
2.2813811E+002
 11
1.9903003E+002
 21
2.2813811E+002
  0
LINE
  8
1
  6
CONTINUOUS
 62
7
 10
2.0303003E+002
 20
2.3201949E+002
 11
2.0303003E+002
 21
2.3701949E+002
  0
LINE
  8
1
  6
CONTINUOUS
 62
7
 10
2.0303003E+002
 20
2.2813811E+002
 11
2.0303003E+002
 21
2.2301949E+002
  0
TEXT
  8
1
  6
CONTINUOUS
 62
7
 10
1.9403003E+002
 20
2.3101949E+002
 40
2.0
  1
KM3
 41
7.5E-001
  0
TEXT
  8
1
  6
CONTINUOUS
 62
7
 10
2.0228003E+002
 20
2.3301949E+002
 40
2.0
  1
A1
 41
7.5E-001
 50
9.0E+001
  0
TEXT
  8
1
  6
CONTINUOUS
 62
7
 10
2.0228003E+002
 20
2.2401949E+002
 40
2.0
  1
A2
 41
7.5E-001
 50
9.0E+001
  0
POLYLINE
  8
1
  6
CONTINUOUS
 62
7
 66
1
 40
5.0E-001
 41
5.0E-001
 70
0
  0
VERTEX
  8
1
 42
0.0
 10
2.1203003E+002
 20
2.3251949E+002
 70
0
  0
VERTEX
  8
1
 42
0.0
 10
2.1203003E+002
 20
2.5501949E+002
 70
0
  0
SEQEND
  0
POLYLINE
  8
1
  6
CONTINUOUS
 62
7
 66
1
 40
5.0E-001
 41
5.0E-001
 70
0
  0
VERTEX
  8
1
 42
0.0
 10
2.1203003E+002
 20
2.2751949E+002
 70
0
  0
VERTEX
  8
1
 42
0.0
 10
2.1203003E+002
 20
2.0746483E+002
 70
0
  0
SEQEND
  0
POLYLINE
  8
1
  6
CONTINUOUS
 62
7
 66
1
 40
5.0E-001
 41
5.0E-001
 70
0
  0
VERTEX
  8
1
 42
0.0
 10
2.1703003E+002
 20
2.3251949E+002
 70
0
  0
VERTEX
  8
1
 42
0.0
 10
2.1703003E+002
 20
2.5301949E+002
 70
0
  0
SEQEND
  0
POLYLINE
  8
1
  6
CONTINUOUS
 62
7
 66
1
 40
5.0E-001
 41
5.0E-001
 70
0
  0
VERTEX
  8
1
 42
0.0
 10
2.1703003E+002
 20
2.2751949E+002
 70
0
  0
VERTEX
  8
1
 42
0.0
 10
2.1703003E+002
 20
2.0946483E+002
 70
0
  0
SEQEND
  0
POLYLINE
  8
1
  6
CONTINUOUS
 62
7
 66
1
 40
5.0E-001
 41
5.0E-001
 70
0
  0
VERTEX
  8
1
 42
0.0
 10
2.2203003E+002
 20
2.3251949E+002
 70
0
  0
VERTEX
  8
1
 42
0.0
 10
2.2203003E+002
 20
2.5101949E+002
 70
0
  0
SEQEND
  0
POLYLINE
  8
1
  6
CONTINUOUS
 62
7
 66
1
 40
5.0E-001
 41
5.0E-001
 70
0
  0
VERTEX
  8
1
 42
0.0
 10
2.2203003E+002
 20
2.2751949E+002
 70
0
  0
VERTEX
  8
1
 42
0.0
 10
2.2203003E+002
 20
2.1146483E+002
 70
0
  0
SEQEND
  0
POLYLINE
  8
1
  6
CONTINUOUS
 62
7
 66
1
 40
5.0E-001
 41
5.0E-001
 70
0
  0
VERTEX
  8
1
 42
0.0
 10
2.2203003E+002
 20
2.2751949E+002
 70
0
  0
VERTEX
  8
1
 42
0.0
 10
2.2003003E+002
 20
2.3251949E+002
 70
0
  0
SEQEND
  0
POLYLINE
  8
1
  6
CONTINUOUS
 62
7
 66
1
 40
5.0E-001
 41
5.0E-001
 70
0
  0
VERTEX
  8
1
 42
0.0
 10
2.1703003E+002
 20
2.2751949E+002
 70
0
  0
VERTEX
  8
1
 42
0.0
 10
2.1503003E+002
 20
2.3251949E+002
 70
0
  0
SEQEND
  0
POLYLINE
  8
1
  6
CONTINUOUS
 62
7
 66
1
 40
5.0E-001
 41
5.0E-001
 70
0
  0
VERTEX
  8
1
 42
0.0
 10
2.1203003E+002
 20
2.2751949E+002
 70
0
  0
VERTEX
  8
1
 42
0.0
 10
2.1003003E+002
 20
2.3251949E+002
 70
0
  0
SEQEND
  0
TEXT
  8
1
  6
CONTINUOUS
 62
7
 10
2.1128003E+002
 20
2.3759587E+002
 40
2.0
  1
1/L1
 41
7.5E-001
 50
9.0E+001
  0
TEXT
  8
1
  6
CONTINUOUS
 62
7
 10
2.1628003E+002
 20
2.3759587E+002
 40
2.0
  1
3/L2
 41
7.5E-001
 50
9.0E+001
  0
TEXT
  8
1
  6
CONTINUOUS
 62
7
 10
2.2128003E+002
 20
2.3759587E+002
 40
2.0
  1
5/L3
 41
7.5E-001
 50
9.0E+001
  0
TEXT
  8
1
  6
CONTINUOUS
 62
7
 10
2.1128003E+002
 20
2.1901949E+002
 40
2.0
  1
2/T1
 41
7.5E-001
 50
9.0E+001
  0
TEXT
  8
1
  6
CONTINUOUS
 62
7
 10
2.1628003E+002
 20
2.1901949E+002
 40
2.0
  1
4/T2
 41
7.5E-001
 50
9.0E+001
  0
TEXT
  8
1
  6
CONTINUOUS
 62
7
 10
2.2128003E+002
 20
2.1901949E+002
 40
2.0
  1
6/T3
 41
7.5E-001
 50
9.0E+001
  0
LINE
  8
1
  6
CONTINUOUS
 62
7
 10
1.3903003E+002
 20
2.3201949E+002
 11
1.3903003E+002
 21
2.2813811E+002
  0
LINE
  8
1
  6
CONTINUOUS
 62
7
 10
1.4703003E+002
 20
2.3201949E+002
 11
1.4703003E+002
 21
2.2813811E+002
  0
LINE
  8
1
  6
CONTINUOUS
 62
7
 10
1.4703003E+002
 20
2.3201949E+002
 11
1.3903003E+002
 21
2.3201949E+002
  0
LINE
  8
1
  6
CONTINUOUS
 62
7
 10
1.4703003E+002
 20
2.2813811E+002
 11
1.3903003E+002
 21
2.2813811E+002
  0
LINE
  8
1
  6
CONTINUOUS
 62
7
 10
1.4303003E+002
 20
2.3201949E+002
 11
1.4303003E+002
 21
2.3701949E+002
  0
LINE
  8
1
  6
CONTINUOUS
 62
7
 10
1.4303003E+002
 20
2.2813811E+002
 11
1.4303003E+002
 21
2.2301949E+002
  0
TEXT
  8
1
  6
CONTINUOUS
 62
7
 10
1.3403003E+002
 20
2.3101949E+002
 40
2.0
  1
KM1
 41
7.5E-001
  0
TEXT
  8
1
  6
CONTINUOUS
 62
7
 10
1.4228003E+002
 20
2.3301949E+002
 40
2.0
  1
A1
 41
7.5E-001
 50
9.0E+001
  0
TEXT
  8
1
  6
CONTINUOUS
 62
7
 10
1.4228003E+002
 20
2.2401949E+002
 40
2.0
  1
A2
 41
7.5E-001
 50
9.0E+001
  0
POLYLINE
  8
1
  6
CONTINUOUS
 62
7
 66
1
 40
5.0E-001
 41
5.0E-001
 70
0
  0
VERTEX
  8
1
 42
0.0
 10
1.5203003E+002
 20
2.3251949E+002
 70
0
  0
VERTEX
  8
1
 42
0.0
 10
1.5203003E+002
 20
2.5501949E+002
 70
0
  0
SEQEND
  0
POLYLINE
  8
1
  6
CONTINUOUS
 62
7
 66
1
 40
5.0E-001
 41
5.0E-001
 70
0
  0
VERTEX
  8
1
 42
0.0
 10
1.5703003E+002
 20
2.3251949E+002
 70
0
  0
VERTEX
  8
1
 42
0.0
 10
1.5703003E+002
 20
2.5301949E+002
 70
0
  0
SEQEND
  0
POLYLINE
  8
1
  6
CONTINUOUS
 62
7
 66
1
 40
5.0E-001
 41
5.0E-001
 70
0
  0
VERTEX
  8
1
 42
0.0
 10
1.6203003E+002
 20
2.3251949E+002
 70
0
  0
VERTEX
  8
1
 42
0.0
 10
1.6203003E+002
 20
2.5101949E+002
 70
0
  0
SEQEND
  0
LINE
  8
1
  6
CONTINUOUS
 62
7
 10
1.6703003E+002
 20
2.3251949E+002
 11
1.6703003E+002
 21
2.4401949E+002
  0
LINE
  8
1
  6
CONTINUOUS
 62
7
 10
1.6703003E+002
 20
2.2751949E+002
 11
1.6703003E+002
 21
2.1601949E+002
  0
LINE
  8
1
  6
CONTINUOUS
 62
7
 10
1.6703003E+002
 20
2.2751949E+002
 11
1.6503003E+002
 21
2.3251949E+002
  0
POLYLINE
  8
1
  6
CONTINUOUS
 62
7
 66
1
 40
5.0E-001
 41
5.0E-001
 70
0
  0
VERTEX
  8
1
 42
0.0
 10
1.6203003E+002
 20
2.2751949E+002
 70
0
  0
VERTEX
  8
1
 42
0.0
 10
1.6003003E+002
 20
2.3251949E+002
 70
0
  0
SEQEND
  0
POLYLINE
  8
1
  6
CONTINUOUS
 62
7
 66
1
 40
5.0E-001
 41
5.0E-001
 70
0
  0
VERTEX
  8
1
 42
0.0
 10
1.5703003E+002
 20
2.2751949E+002
 70
0
  0
VERTEX
  8
1
 42
0.0
 10
1.5503003E+002
 20
2.3251949E+002
 70
0
  0
SEQEND
  0
POLYLINE
  8
1
  6
CONTINUOUS
 62
7
 66
1
 40
5.0E-001
 41
5.0E-001
 70
0
  0
VERTEX
  8
1
 42
0.0
 10
1.5203003E+002
 20
2.2751949E+002
 70
0
  0
VERTEX
  8
1
 42
0.0
 10
1.5003003E+002
 20
2.3251949E+002
 70
0
  0
SEQEND
  0
TEXT
  8
1
  6
CONTINUOUS
 62
7
 10
1.5128003E+002
 20
2.3759587E+002
 40
2.0
  1
1/L1
 41
7.5E-001
 50
9.0E+001
  0
TEXT
  8
1
  6
CONTINUOUS
 62
7
 10
1.5628003E+002
 20
2.3759587E+002
 40
2.0
  1
3/L2
 41
7.5E-001
 50
9.0E+001
  0
TEXT
  8
1
  6
CONTINUOUS
 62
7
 10
1.6128003E+002
 20
2.3759587E+002
 40
2.0
  1
5/L3
 41
7.5E-001
 50
9.0E+001
  0
TEXT
  8
1
  6
CONTINUOUS
 62
7
 10
1.6628003E+002
 20
2.3759587E+002
 40
2.0
  1
13
 41
7.5E-001
 50
9.0E+001
  0
TEXT
  8
1
  6
CONTINUOUS
 62
7
 10
1.5128003E+002
 20
2.1901949E+002
 40
2.0
  1
2/T1
 41
7.5E-001
 50
9.0E+001
  0
TEXT
  8
1
  6
CONTINUOUS
 62
7
 10
1.5628003E+002
 20
2.1901949E+002
 40
2.0
  1
4/T2
 41
7.5E-001
 50
9.0E+001
  0
TEXT
  8
1
  6
CONTINUOUS
 62
7
 10
1.6128003E+002
 20
2.1901949E+002
 40
2.0
  1
6/T3
 41
7.5E-001
 50
9.0E+001
  0
TEXT
  8
1
  6
CONTINUOUS
 62
7
 10
1.6628003E+002
 20
2.1901949E+002
 40
2.0
  1
14
 41
7.5E-001
 50
9.0E+001
  0
LINE
  8
1
  6
HIDDEN
 62
7
 10
1.4703003E+002
 20
2.3001949E+002
 11
1.7103003E+002
 21
2.3001949E+002
  0
POLYLINE
  8
1
  6
CONTINUOUS
 62
7
 66
1
 40
5.0E-001
 41
5.0E-001
 70
0
  0
VERTEX
  8
1
 42
0.0
 10
1.5203003E+002
 20
2.0776949E+002
 70
0
  0
VERTEX
  8
1
 42
0.0
 10
1.5203003E+002
 20
2.2751949E+002
 70
0
  0
SEQEND
  0
POLYLINE
  8
1
  6
CONTINUOUS
 62
7
 66
1
 40
5.0E-001
 41
5.0E-001
 70
0
  0
VERTEX
  8
1
 42
0.0
 10
1.6203003E+002
 20
2.0776949E+002
 70
0
  0
VERTEX
  8
1
 42
0.0
 10
1.6203003E+002
 20
2.2751949E+002
 70
0
  0
SEQEND
  0
LINE
  8
1
  6
HIDDEN
 62
7
 10
1.1497146E+002
 20
2.0651949E+002
 11
1.2503003E+002
 21
2.0651949E+002
  0
LINE
  8
1
  6
CONTINUOUS
 62
7
 10
1.4853003E+002
 20
2.0901949E+002
 11
1.6353003E+002
 21
2.0901949E+002
  0
LINE
  8
1
  6
CONTINUOUS
 62
7
 10
1.4853003E+002
 20
2.0401949E+002
 11
1.6353003E+002
 21
2.0401949E+002
  0
LINE
  8
1
  6
CONTINUOUS
 62
7
 10
1.4853003E+002
 20
2.0901949E+002
 11
1.4853003E+002
 21
2.0401949E+002
  0
LINE
  8
1
  6
CONTINUOUS
 62
7
 10
1.6353003E+002
 20
2.0901949E+002
 11
1.6353003E+002
 21
2.0401949E+002
  0
LINE
  8
1
  6
CONTINUOUS
 62
7
 10
1.4953003E+002
 20
2.0776949E+002
 11
1.5203003E+002
 21
2.0776949E+002
  0
LINE
  8
1
  6
CONTINUOUS
 62
7
 10
1.4953003E+002
 20
2.0526949E+002
 11
1.5203003E+002
 21
2.0526949E+002
  0
LINE
  8
1
  6
CONTINUOUS
 62
7
 10
1.5453003E+002
 20
2.0776949E+002
 11
1.5703003E+002
 21
2.0776949E+002
  0
LINE
  8
1
  6
CONTINUOUS
 62
7
 10
1.5453003E+002
 20
2.0526949E+002
 11
1.5703003E+002
 21
2.0526949E+002
  0
LINE
  8
1
  6
CONTINUOUS
 62
7
 10
1.4953003E+002
 20
2.0776949E+002
 11
1.4953003E+002
 21
2.0526949E+002
  0
LINE
  8
1
  6
CONTINUOUS
 62
7
 10
1.5453003E+002
 20
2.0526949E+002
 11
1.5453003E+002
 21
2.0776949E+002
  0
LINE
  8
1
  6
CONTINUOUS
 62
7
 10
1.5953003E+002
 20
2.0776949E+002
 11
1.5953003E+002
 21
2.0526949E+002
  0
LINE
  8
1
  6
CONTINUOUS
 62
7
 10
1.5953003E+002
 20
2.0776949E+002
 11
1.6203003E+002
 21
2.0776949E+002
  0
LINE
  8
1
  6
CONTINUOUS
 62
7
 10
1.5953003E+002
 20
2.0526949E+002
 11
1.6203003E+002
 21
2.0526949E+002
  0
POLYLINE
  8
1
  6
CONTINUOUS
 62
7
 66
1
 40
5.0E-001
 41
5.0E-001
 70
0
  0
VERTEX
  8
1
 42
0.0
 10
1.5203003E+002
 20
2.0526949E+002
 70
0
  0
VERTEX
  8
1
 42
0.0
 10
1.5203003E+002
 20
1.9401949E+002
 70
0
  0
SEQEND
  0
POLYLINE
  8
1
  6
CONTINUOUS
 62
7
 66
1
 40
5.0E-001
 41
5.0E-001
 70
0
  0
VERTEX
  8
1
 42
0.0
 10
1.5703003E+002
 20
2.0776949E+002
 70
0
  0
VERTEX
  8
1
 42
0.0
 10
1.5703003E+002
 20
2.2751949E+002
 70
0
  0
SEQEND
  0
POLYLINE
  8
1
  6
CONTINUOUS
 62
7
 66
1
 40
5.0E-001
 41
5.0E-001
 70
0
  0
VERTEX
  8
1
 42
0.0
 10
1.6203003E+002
 20
2.0526949E+002
 70
0
  0
VERTEX
  8
1
 42
0.0
 10
1.6203003E+002
 20
1.9401949E+002
 70
0
  0
SEQEND
  0
POLYLINE
  8
1
  6
CONTINUOUS
 62
7
 66
1
 40
5.0E-001
 41
5.0E-001
 70
0
  0
VERTEX
  8
1
 42
0.0
 10
1.5703003E+002
 20
1.9401949E+002
 70
0
  0
VERTEX
  8
1
 42
0.0
 10
1.5703003E+002
 20
2.0526949E+002
 70
0
  0
SEQEND
  0
LINE
  8
1
  6
CONTINUOUS
 62
7
 10
1.4493706E+002
 20
2.0901949E+002
 11
1.4493706E+002
 21
2.1401949E+002
  0
LINE
  8
1
  6
CONTINUOUS
 62
7
 10
1.4493706E+002
 20
2.0401949E+002
 11
1.4293706E+002
 21
2.0901949E+002
  0
LINE
  8
1
  6
CONTINUOUS
 62
7
 10
1.4493706E+002
 20
2.0401949E+002
 11
1.4493706E+002
 21
1.9901949E+002
  0
LINE
  8
1
  6
CONTINUOUS
 62
7
 10
1.3993706E+002
 20
2.0401949E+002
 11
1.4093706E+002
 21
2.1001949E+002
  0
LINE
  8
1
  6
CONTINUOUS
 62
7
 10
1.3993706E+002
 20
2.0901949E+002
 11
1.4193706E+002
 21
2.0901949E+002
  0
LINE
  8
1
  6
CONTINUOUS
 62
7
 10
1.3993706E+002
 20
2.0901949E+002
 11
1.3993706E+002
 21
2.1401949E+002
  0
LINE
  8
1
  6
CONTINUOUS
 62
7
 10
1.3993706E+002
 20
2.0401949E+002
 11
1.3993706E+002
 21
1.9901949E+002
  0
LINE
  8
1
  6
CONTINUOUS
 62
7
 10
1.2803003E+002
 20
2.0851949E+002
 11
1.3203003E+002
 21
2.0651949E+002
  0
LINE
  8
1
  6
CONTINUOUS
 62
7
 10
1.2803003E+002
 20
2.0851949E+002
 11
1.2803003E+002
 21
2.0651949E+002
  0
LINE
  8
1
  6
CONTINUOUS
 62
7
 10
1.2803003E+002
 20
2.0651949E+002
 11
1.3203003E+002
 21
2.0651949E+002
  0
LINE
  8
1
  6
CONTINUOUS
 62
7
 10
1.1603003E+002
 20
2.0851949E+002
 11
1.2003003E+002
 21
2.0651949E+002
  0
LINE
  8
1
  6
CONTINUOUS
 62
7
 10
1.1603003E+002
 20
2.0851949E+002
 11
1.1603003E+002
 21
2.0651949E+002
  0
LINE
  8
1
  6
CONTINUOUS
 62
7
 10
1.1603003E+002
 20
2.0651949E+002
 11
1.2003003E+002
 21
2.0651949E+002
  0
LINE
  8
1
  6
HIDDEN
 62
7
 10
1.3203003E+002
 20
2.0751949E+002
 11
1.3203003E+002
 21
2.1201949E+002
  0
LINE
  8
1
  6
HIDDEN
 62
7
 10
1.3203003E+002
 20
2.1201949E+002
 11
1.2503003E+002
 21
2.1201949E+002
  0
LINE
  8
1
  6
HIDDEN
 62
7
 10
1.3303003E+002
 20
2.0751949E+002
 11
1.4052039E+002
 21
2.0751949E+002
  0
LINE
  8
1
  6
HIDDEN
 62
7
 10
1.3303003E+002
 20
2.1301949E+002
 11
1.3303003E+002
 21
2.0751949E+002
  0
LINE
  8
1
  6
HIDDEN
 62
7
 10
1.2503003E+002
 20
2.1301949E+002
 11
1.3303003E+002
 21
2.1301949E+002
  0
LINE
  8
1
  6
CONTINUOUS
 62
7
 10
1.2503003E+002
 20
2.1451949E+002
 11
1.2503003E+002
 21
2.1051949E+002
  0
LINE
  8
1
  6
CONTINUOUS
 62
7
 10
1.2653003E+002
 20
2.1051949E+002
 11
1.2503003E+002
 21
2.1051949E+002
  0
LINE
  8
1
  6
CONTINUOUS
 62
7
 10
1.2653003E+002
 20
2.1451949E+002
 11
1.2503003E+002
 21
2.1451949E+002
  0
TEXT
  8
1
  6
CONTINUOUS
 62
7
 10
1.2103003E+002
 20
2.1251949E+002
 40
2.0
  1
O
 41
7.5E-001
  0
TEXT
  8
1
  6
CONTINUOUS
 62
7
 10
1.2273003E+002
 20
2.1051949E+002
 40
2.0
  1
R
 41
7.5E-001
  0
LINE
  8
1
  6
CONTINUOUS
 62
7
 10
1.2323003E+002
 20
2.1391949E+002
 11
1.2163003E+002
 21
2.1071949E+002
  0
LINE
  8
1
  6
HIDDEN
 62
7
 10
1.2003003E+002
 20
2.0751949E+002
 11
1.2003003E+002
 21
2.1201949E+002
  0
LINE
  8
1
  6
HIDDEN
 62
7
 10
1.2003003E+002
 20
2.1201949E+002
 11
1.1303003E+002
 21
2.1201949E+002
  0
LINE
  8
1
  6
CONTINUOUS
 62
7
 10
1.1453003E+002
 20
2.1051949E+002
 11
1.1303003E+002
 21
2.1051949E+002
  0
LINE
  8
1
  6
CONTINUOUS
 62
7
 10
1.1303003E+002
 20
2.1451949E+002
 11
1.1303003E+002
 21
2.1051949E+002
  0
LINE
  8
1
  6
CONTINUOUS
 62
7
 10
1.1453003E+002
 20
2.1451949E+002
 11
1.1303003E+002
 21
2.1451949E+002
  0
TEXT
  8
1
  6
CONTINUOUS
 62
7
 10
1.1073003E+002
 20
2.1051949E+002
 40
2.0
  1
R
 41
7.5E-001
  0
LINE
  8
1
  6
HIDDEN
 62
7
 10
1.2743036E+002
 20
2.0651949E+002
 11
1.4953003E+002
 21
2.0651949E+002
  0
TEXT
  8
1
  6
CONTINUOUS
 62
7
 10
1.6403003E+002
 20
2.0501949E+002
 40
2.0
  1
FR1
 41
7.5E-001
  0
LINE
  8
1
  6
CONTINUOUS
 62
7
 10
9.1851977E+001
 20
2.3251949E+002
 11
9.3851977E+001
 21
2.3251949E+002
  0
LINE
  8
1
  6
CONTINUOUS
 62
7
 10
9.7851977E+001
 20
2.3251949E+002
 11
9.7851977E+001
 21
2.3451949E+002
  0
LINE
  8
1
  6
CONTINUOUS
 62
7
 10
9.7851977E+001
 20
2.2751949E+002
 11
9.7851977E+001
 21
2.254015E+002
  0
LINE
  8
1
  6
CONTINUOUS
 62
7
 10
9.1851977E+001
 20
2.2751949E+002
 11
9.2851977E+001
 21
2.3351949E+002
  0
LINE
  8
1
  6
CONTINUOUS
 62
7
 10
9.7851977E+001
 20
2.2751949E+002
 11
9.5851977E+001
 21
2.3251949E+002
  0
TEXT
  8
1
  6
CONTINUOUS
 62
7
 10
9.7101977E+001
 20
2.3476949E+002
 40
2.0
  1
15
 41
7.5E-001
 50
9.0E+001
  0
LINE
  8
1
  6
CONTINUOUS
 62
7
 10
8.6902487E+001
 20
2.3051949E+002
 11
9.2351977E+001
 21
2.3051949E+002
  0
LINE
  8
1
  6
CONTINUOUS
 62
7
 10
8.6902487E+001
 20
2.2951949E+002
 11
9.2268644E+001
 21
2.2951949E+002
  0
LINE
  8
1
  6
CONTINUOUS
 62
7
 10
9.1851977E+001
 20
2.2751949E+002
 11
9.1851977E+001
 21
2.254015E+002
  0
LINE
  8
1
  6
CONTINUOUS
 62
7
 10
9.1851977E+001
 20
2.3251949E+002
 11
9.1851977E+001
 21
2.3451949E+002
  0
LINE
  8
1
  6
HIDDEN
 62
7
 10
9.2268644E+001
 20
2.3001949E+002
 11
1.0290249E+002
 21
2.3001949E+002
  0
ARC
  8
1
  6
CONTINUOUS
 62
7
 10
8.9351977E+001
 20
2.3001949E+002
 40
2.5
 50
1.1356542E+002
 51
2.4643458E+002
  0
LINE
  8
1
  6
CONTINUOUS
 62
7
 10
8.5351977E+001
 20
2.3451949E+002
 11
9.1851977E+001
 21
2.3451949E+002
  0
LINE
  8
1
  6
CONTINUOUS
 62
7
 10
8.5351977E+001
 20
2.3451949E+002
 11
8.5351977E+001
 21
2.1701949E+002
  0
LINE
  8
1
  6
CONTINUOUS
 62
7
 10
9.7851977E+001
 20
2.254015E+002
 11
9.1851977E+001
 21
2.254015E+002
  0
TEXT
  8
1
  6
CONTINUOUS
 62
7
 10
8.4601977E+001
 20
2.2171949E+002
 40
2.0
  1
16
 41
7.5E-001
 50
9.0E+001
  0
LINE
  8
1
  6
CONTINUOUS
 62
7
 10
9.7851977E+001
 20
2.3451949E+002
 11
1.0835198E+002
 21
2.3451949E+002
  0
LINE
  8
1
  6
CONTINUOUS
 62
7
 10
1.1285198E+002
 20
2.2801949E+002
 11
1.1285198E+002
 21
2.3201949E+002
  0
LINE
  8
1
  6
CONTINUOUS
 62
7
 10
1.0835198E+002
 20
2.2751949E+002
 11
1.0635198E+002
 21
2.3251949E+002
  0
LINE
  8
1
  6
CONTINUOUS
 62
7
 10
1.0340249E+002
 20
2.3051949E+002
 11
1.0715198E+002
 21
2.3051949E+002
  0
LINE
  8
1
  6
CONTINUOUS
 62
7
 10
1.0340249E+002
 20
2.2951949E+002
 11
1.0755198E+002
 21
2.2951949E+002
  0
LINE
  8
1
  6
CONTINUOUS
 62
7
 10
1.0835198E+002
 20
2.2751949E+002
 11
1.0835198E+002
 21
2.1701949E+002
  0
LINE
  8
1
  6
CONTINUOUS
 62
7
 10
1.0835198E+002
 20
2.3251949E+002
 11
1.0835198E+002
 21
2.3451949E+002
  0
ARC
  8
1
  6
CONTINUOUS
 62
7
 10
1.0585198E+002
 20
2.3001949E+002
 40
2.5
 50
1.1356542E+002
 51
2.4643458E+002
  0
LINE
  8
1
  6
CONTINUOUS
 62
7
 10
1.2085198E+002
 20
2.2801949E+002
 11
1.2085198E+002
 21
2.3201949E+002
  0
LINE
  8
1
  6
CONTINUOUS
 62
7
 10
1.2285198E+002
 20
2.2801949E+002
 11
1.2285198E+002
 21
2.3201949E+002
  0
LINE
  8
1
  6
CONTINUOUS
 62
7
 10
1.1285198E+002
 20
2.3201949E+002
 11
1.2285198E+002
 21
2.3201949E+002
  0
LINE
  8
1
  6
CONTINUOUS
 62
7
 10
1.1285198E+002
 20
2.2801949E+002
 11
1.2285198E+002
 21
2.2801949E+002
  0
LINE
  8
1
  6
CONTINUOUS
 62
7
 10
1.2285198E+002
 20
2.3201949E+002
 11
1.2085198E+002
 21
2.2801949E+002
  0
LINE
  8
1
  6
CONTINUOUS
 62
7
 10
1.2085198E+002
 20
2.3201949E+002
 11
1.2285198E+002
 21
2.2801949E+002
  0
LINE
  8
1
  6
CONTINUOUS
 62
7
 10
1.1685198E+002
 20
2.3201949E+002
 11
1.1685198E+002
 21
2.4297845E+002
  0
LINE
  8
1
  6
CONTINUOUS
 62
7
 10
1.1685198E+002
 20
2.2801949E+002
 11
1.1685198E+002
 21
2.1706053E+002
  0
LINE
  8
1
  6
HIDDEN
 62
7
 10
1.0735198E+002
 20
2.3001949E+002
 11
1.1285198E+002
 21
2.3001949E+002
  0
TEXT
  8
1
  6
CONTINUOUS
 62
7
 10
1.1635198E+002
 20
2.3506949E+002
 40
2.0
  1
A1
 41
7.5E-001
 50
9.0E+001
  0
TEXT
  8
1
  6
CONTINUOUS
 62
7
 10
1.1610198E+002
 20
2.2191949E+002
 40
2.0
  1
A2
 41
7.5E-001
 50
9.0E+001
  0
TEXT
  8
1
  6
CONTINUOUS
 62
7
 10
8.2851977E+001
 20
2.3551949E+002
 40
2.0
  1
KT
 41
7.5E-001
  0
TEXT
  8
1
  6
CONTINUOUS
 62
7
 10
9.8101977E+001
 20
2.2496949E+002
 40
2.0
  1
t1+t2
 41
7.5E-001
  0
TEXT
  8
1
  6
CONTINUOUS
 62
7
 10
8.6101977E+001
 20
2.2496949E+002
 40
2.0
  1
t1
 41
7.5E-001
  0
TEXT
  8
1
  6
CONTINUOUS
 62
7
 10
1.0760198E+002
 20
2.2171949E+002
 40
2.0
  1
18
 41
7.5E-001
 50
9.0E+001
  0
TEXT
  8
1
  6
CONTINUOUS
 62
7
 10
1.5128003E+002
 20
1.9597224E+002
 40
2.0
  1
2/T1
 41
7.5E-001
 50
9.0E+001
  0
TEXT
  8
1
  6
CONTINUOUS
 62
7
 10
1.5628003E+002
 20
1.9597224E+002
 40
2.0
  1
4/T2
 41
7.5E-001
 50
9.0E+001
  0
TEXT
  8
1
  6
CONTINUOUS
 62
7
 10
1.6128003E+002
 20
1.9597224E+002
 40
2.0
  1
6/T3
 41
7.5E-001
 50
9.0E+001
  0
TEXT
  8
1
  6
CONTINUOUS
 62
7
 10
1.3918706E+002
 20
2.1001949E+002
 40
2.0
  1
95
 41
7.5E-001
 50
9.0E+001
  0
TEXT
  8
1
  6
CONTINUOUS
 62
7
 10
1.3918706E+002
 20
2.0101949E+002
 40
2.0
  1
96
 41
7.5E-001
 50
9.0E+001
  0
TEXT
  8
1
  6
CONTINUOUS
 62
7
 10
1.4418706E+002
 20
2.1001949E+002
 40
2.0
  1
97
 41
7.5E-001
 50
9.0E+001
  0
TEXT
  8
1
  6
CONTINUOUS
 62
7
 10
1.4418706E+002
 20
2.0101949E+002
 40
2.0
  1
98
 41
7.5E-001
 50
9.0E+001
  0
LINE
  8
1
  6
HIDDEN
 62
7
 10
1.5203003E+002
 20
1.9514802E+002
 11
1.5203003E+002
 21
1.7901949E+002
  0
LINE
  8
1
  6
HIDDEN
 62
7
 10
1.5703003E+002
 20
1.8401949E+002
 11
1.7953003E+002
 21
1.8401949E+002
  0
CIRCLE
  8
1
  6
CONTINUOUS
 62
7
 10
1.8603003E+002
 20
1.8401949E+002
 40
6.5
  0
LINE
  8
1
  6
HIDDEN
 62
7
 10
1.6203003E+002
 20
1.8901949E+002
 11
1.8187671E+002
 21
1.8901949E+002
  0
LINE
  8
1
  6
HIDDEN
 62
7
 10
1.5203003E+002
 20
1.7901949E+002
 11
1.8187671E+002
 21
1.7901949E+002
  0
LINE
  8
1
  6
HIDDEN
 62
7
 10
1.9018334E+002
 20
1.8901949E+002
 11
2.1503003E+002
 21
1.8901949E+002
  0
LINE
  8
1
  6
HIDDEN
 62
7
 10
1.9253003E+002
 20
1.8401949E+002
 11
2.1003003E+002
 21
1.8401949E+002
  0
LINE
  8
1
  6
HIDDEN
 62
7
 10
1.9018334E+002
 20
1.7901949E+002
 11
2.2003003E+002
 21
1.7901949E+002
  0
ARC
  8
1
  6
CONTINUOUS
 62
7
 10
1.8603003E+002
 20
1.8401949E+002
 40
3.5
 50
0.0
 51
1.8E+002
  0
LINE
  8
1
  6
CONTINUOUS
 62
7
 10
1.8953003E+002
 20
1.8401949E+002
 11
1.8953003E+002
 21
1.8101949E+002
  0
LINE
  8
1
  6
CONTINUOUS
 62
7
 10
1.8953003E+002
 20
1.8101949E+002
 11
1.8997831E+002
 21
1.8321016E+002
  0
LINE
  8
1
  6
CONTINUOUS
 62
7
 10
1.8953003E+002
 20
1.8101949E+002
 11
1.8908174E+002
 21
1.8321016E+002
  0
LINE
  8
1
  6
CONTINUOUS
 62
7
 10
1.8908174E+002
 20
1.8321016E+002
 11
1.8997831E+002
 21
1.8321016E+002
  0
TEXT
  8
1
  6
CONTINUOUS
 62
7
 10
1.7453003E+002
 20
1.8476949E+002
 40
2.0
  1
V1
 41
7.5E-001
  0
TEXT
  8
1
  6
CONTINUOUS
 62
7
 10
1.7453003E+002
 20
1.8976949E+002
 40
2.0
  1
W1
 41
7.5E-001
  0
TEXT
  8
1
  6
CONTINUOUS
 62
7
 10
1.7453003E+002
 20
1.7976949E+002
 40
2.0
  1
U1
 41
7.5E-001
  0
TEXT
  8
1
  6
CONTINUOUS
 62
7
 10
1.9353003E+002
 20
1.8476949E+002
 40
2.0
  1
V2
 41
7.5E-001
  0
TEXT
  8
1
  6
CONTINUOUS
 62
7
 10
1.9353003E+002
 20
1.8976949E+002
 40
2.0
  1
W2
 41
7.5E-001
  0
TEXT
  8
1
  6
CONTINUOUS
 62
7
 10
1.9353003E+002
 20
1.7976949E+002
 40
2.0
  1
U2
 41
7.5E-001
  0
LINE
  8
1
  6
HIDDEN
 62
7
 10
1.5703003E+002
 20
1.9401949E+002
 11
1.5703003E+002
 21
1.8401949E+002
  0
LINE
  8
1
  6
HIDDEN
 62
7
 10
1.6203003E+002
 20
1.9401949E+002
 11
1.6203003E+002
 21
1.8901949E+002
  0
CIRCLE
  8
1
  6
CONTINUOUS
 62
7
 10
1.8603003E+002
 20
1.5801949E+002
 40
6.5
  0
LINE
  8
1
  6
HIDDEN
 62
7
 10
1.9268334E+002
 20
1.5301949E+002
 11
2.1003003E+002
 21
1.5301949E+002
  0
LINE
  8
1
  6
HIDDEN
 62
7
 10
1.9253003E+002
 20
1.5801949E+002
 11
2.2003003E+002
 21
1.5801949E+002
  0
LINE
  8
1
  6
HIDDEN
 62
7
 10
1.9018334E+002
 20
1.6301949E+002
 11
2.1503003E+002
 21
1.6301949E+002
  0
LINE
  8
1
  6
HIDDEN
 62
7
 10
1.6203003E+002
 20
1.6301949E+002
 11
1.8187671E+002
 21
1.6301949E+002
  0
LINE
  8
1
  6
HIDDEN
 62
7
 10
1.5203003E+002
 20
1.5801949E+002
 11
1.7953003E+002
 21
1.5801949E+002
  0
LINE
  8
1
  6
HIDDEN
 62
7
 10
1.5703003E+002
 20
1.5301949E+002
 11
1.8187671E+002
 21
1.5301949E+002
  0
ARC
  8
1
  6
CONTINUOUS
 62
7
 10
1.8603003E+002
 20
1.5801949E+002
 40
3.5
 50
0.0
 51
1.8E+002
  0
LINE
  8
1
  6
CONTINUOUS
 62
7
 10
1.8297831E+002
 20
1.5721016E+002
 11
1.8208174E+002
 21
1.5721016E+002
  0
LINE
  8
1
  6
CONTINUOUS
 62
7
 10
1.8253003E+002
 20
1.5501949E+002
 11
1.8208174E+002
 21
1.5721016E+002
  0
LINE
  8
1
  6
CONTINUOUS
 62
7
 10
1.8253003E+002
 20
1.5501949E+002
 11
1.8297831E+002
 21
1.5721016E+002
  0
LINE
  8
1
  6
CONTINUOUS
 62
7
 10
1.8253003E+002
 20
1.5801949E+002
 11
1.8253003E+002
 21
1.5501949E+002
  0
TEXT
  8
1
  6
CONTINUOUS
 62
7
 10
1.7453003E+002
 20
1.6376949E+002
 40
2.0
  1
W1
 41
7.5E-001
  0
TEXT
  8
1
  6
CONTINUOUS
 62
7
 10
1.7453003E+002
 20
1.5876949E+002
 40
2.0
  1
V1
 41
7.5E-001
  0
TEXT
  8
1
  6
CONTINUOUS
 62
7
 10
1.7453003E+002
 20
1.5376949E+002
 40
2.0
  1
U1
 41
7.5E-001
  0
TEXT
  8
1
  6
CONTINUOUS
 62
7
 10
1.9353003E+002
 20
1.6376949E+002
 40
2.0
  1
W2
 41
7.5E-001
  0
TEXT
  8
1
  6
CONTINUOUS
 62
7
 10
1.9353003E+002
 20
1.5876949E+002
 40
2.0
  1
V2
 41
7.5E-001
  0
TEXT
  8
1
  6
CONTINUOUS
 62
7
 10
1.9353003E+002
 20
1.5376949E+002
 40
2.0
  1
U2
 41
7.5E-001
  0
LINE
  8
1
  6
HIDDEN
 62
7
 10
2.1003003E+002
 20
1.7414802E+002
 11
2.1003003E+002
 21
1.5301949E+002
  0
LINE
  8
1
  6
HIDDEN
 62
7
 10
2.1503003E+002
 20
1.6301949E+002
 11
2.1503003E+002
 21
1.7399462E+002
  0
LINE
  8
1
  6
HIDDEN
 62
7
 10
2.2003003E+002
 20
1.7422327E+002
 11
2.2003003E+002
 21
1.5801949E+002
  0
LINE
  8
1
  6
HIDDEN
 62
7
 10
1.6203003E+002
 20
1.7414802E+002
 11
1.6203003E+002
 21
1.6301949E+002
  0
LINE
  8
1
  6
HIDDEN
 62
7
 10
1.5703003E+002
 20
1.5301949E+002
 11
1.5703003E+002
 21
1.7399462E+002
  0
LINE
  8
1
  6
HIDDEN
 62
7
 10
1.5203003E+002
 20
1.7422327E+002
 11
1.5203003E+002
 21
1.5801949E+002
  0
LINE
  8
1
  6
SHORT_DASH
 62
7
 10
2.518518E+002
 20
2.300788E+002
 11
2.7727835E+002
 21
2.300788E+002
  0
POLYLINE
  8
1
  6
CONTINUOUS
 62
7
 66
1
 40
5.0E-001
 41
5.0E-001
 70
0
  0
VERTEX
  8
1
 42
0.0
 10
2.1203003E+002
 20
2.5501949E+002
 70
0
  0
VERTEX
  8
1
 42
0.0
 10
1.5203003E+002
 20
2.5501949E+002
 70
0
  0
SEQEND
  0
POLYLINE
  8
1
  6
CONTINUOUS
 62
7
 66
1
 40
5.0E-001
 41
5.0E-001
 70
0
  0
VERTEX
  8
1
 42
0.0
 10
2.1703003E+002
 20
2.5301949E+002
 70
0
  0
VERTEX
  8
1
 42
0.0
 10
1.5703003E+002
 20
2.5301949E+002
 70
0
  0
SEQEND
  0
POLYLINE
  8
1
  6
CONTINUOUS
 62
7
 66
1
 40
5.0E-001
 41
5.0E-001
 70
0
  0
VERTEX
  8
1
 42
0.0
 10
2.2203003E+002
 20
2.5101949E+002
 70
0
  0
VERTEX
  8
1
 42
0.0
 10
1.6203003E+002
 20
2.5101949E+002
 70
0
  0
SEQEND
  0
LINE
  8
1
  6
HIDDEN
 62
7
 10
1.5003003E+002
 20
2.4576949E+002
 11
1.5003003E+002
 21
2.5701949E+002
  0
LINE
  8
1
  6
HIDDEN
 62
7
 10
1.5003003E+002
 20
2.4576949E+002
 11
1.5203003E+002
 21
2.4376949E+002
  0
LINE
  8
1
  6
HIDDEN
 62
7
 10
1.5503003E+002
 20
2.4576949E+002
 11
1.5503003E+002
 21
2.5701949E+002
  0
LINE
  8
1
  6
HIDDEN
 62
7
 10
1.5503003E+002
 20
2.4576949E+002
 11
1.5703003E+002
 21
2.4376949E+002
  0
LINE
  8
1
  6
HIDDEN
 62
7
 10
1.6003003E+002
 20
2.4576949E+002
 11
1.6003003E+002
 21
2.5701949E+002
  0
LINE
  8
1
  6
HIDDEN
 62
7
 10
1.6003003E+002
 20
2.4576949E+002
 11
1.6203003E+002
 21
2.4376949E+002
  0
POLYLINE
  8
1
  6
CONTINUOUS
 62
7
 66
1
 40
5.0E-001
 41
5.0E-001
 70
0
  0
VERTEX
  8
1
 42
0.0
 10
2.2203003E+002
 20
2.1146483E+002
 70
0
  0
VERTEX
  8
1
 42
0.0
 10
2.568518E+002
 20
2.1146483E+002
 70
0
  0
SEQEND
  0
POLYLINE
  8
1
  6
CONTINUOUS
 62
7
 66
1
 40
5.0E-001
 41
5.0E-001
 70
0
  0
VERTEX
  8
1
 42
0.0
 10
2.1703003E+002
 20
2.0946483E+002
 70
0
  0
VERTEX
  8
1
 42
0.0
 10
2.618518E+002
 20
2.0946483E+002
 70
0
  0
SEQEND
  0
POLYLINE
  8
1
  6
CONTINUOUS
 62
7
 66
1
 40
5.0E-001
 41
5.0E-001
 70
0
  0
VERTEX
  8
1
 42
0.0
 10
2.1203003E+002
 20
2.0746483E+002
 70
0
  0
VERTEX
  8
1
 42
0.0
 10
2.668518E+002
 20
2.0746483E+002
 70
0
  0
SEQEND
  0
LINE
  8
1
  6
HIDDEN
 62
7
 10
2.1003003E+002
 20
2.1589339E+002
 11
2.1003003E+002
 21
1.8401949E+002
  0
LINE
  8
1
  6
HIDDEN
 62
7
 10
2.1003003E+002
 20
2.1589339E+002
 11
2.1203003E+002
 21
2.1789339E+002
  0
LINE
  8
1
  6
HIDDEN
 62
7
 10
2.1503003E+002
 20
2.1589339E+002
 11
2.1703003E+002
 21
2.1789339E+002
  0
LINE
  8
1
  6
HIDDEN
 62
7
 10
2.1503003E+002
 20
2.1589339E+002
 11
2.1503003E+002
 21
1.8901949E+002
  0
LINE
  8
1
  6
HIDDEN
 62
7
 10
2.2003003E+002
 20
2.1589339E+002
 11
2.2203003E+002
 21
2.1789339E+002
  0
LINE
  8
1
  6
HIDDEN
 62
7
 10
2.2003003E+002
 20
2.1589339E+002
 11
2.2003003E+002
 21
1.7901949E+002
  0
LINE
  8
1
  6
CENTERLINE
 62
7
 10
2.8526362E+002
 20
2.5701949E+002
 11
2.8526362E+002
 21
1.9401949E+002
  0
INSERT
  2
*XH157
  8
1
 10
1.8954029E+002
 20
1.8126455E+002
  0
INSERT
  2
*XH158
  8
1
 10
1.8251976E+002
 20
1.5526455E+002
 41
1.0
 43
1.0
 42
-1.0
 50
1.8E+002
  0
INSERT
  2
A3N
  8
1
 10
1.9E+001
 20
1.1E+001
 66
1
  0
ATTRIB
  8
1
  6
CONTINUOUS
 62
5
 10
3.8449644E+002
 20
3.8E+001
 40
2.0
  1
 
 41
6.5E-001
 11
3.8449644E+002
 21
3.7E+001
  2
ANCIEN_ Plan
 70
0
 73
2
 74
2
  0
ATTRIB
  8
1
  6
CONTINUOUS
 62
5
 10
3.9049644E+002
 20
2.2E+001
 40
4.0
  1
FPTS307893
 41
7.5E-001
 72
1
 11
3.7549644E+002
 21
2.0E+001
  2
N°PLAN
 70
0
 73
2
 74
2
  0
ATTRIB
  8
1
  6
CONTINUOUS
 62
5
 10
3.8449644E+002
 20
3.4005401E+001
 40
2.0
  1
 
 41
7.5E-001
 11
3.8449644E+002
 21
3.3005401E+001
  2
N°OEM
 70
0
 73
2
 74
2
  0
ATTRIB
  8
1
  6
CONTINUOUS
 62
5
 10
3.335758E+002
 20
2.48E+001
 40
1.6
  1
DEMARREUR ETOILE-TRIANGLE A9...40 (LTE)
 41
9.0E-001
 72
1
 11
3.054958E+002
 21
2.4E+001
  2
TYPE_PLAN
 70
0
 73
2
 74
2
  0
ATTRIB
  8
1
  6
CONTINUOUS
 62
5
 10
3.354958E+002
 20
2.125E+001
 40
2.5
  1
A9...40 STAR-DELTA STARTER (MDS)
 41
7.5E-001
 72
1
 11
3.054958E+002
 21
2.0E+001
  2
DESIGNATION_PLAN
 70
0
 73
2
 74
2
  0
ATTRIB
  8
1
  6
CONTINUOUS
 62
5
 10
4.079333E+002
 20
1.975E+001
 40
2.5
  1
A
 41
7.5E-001
 72
1
 11
4.069958E+002
 21
1.85E+001
  2
ID
 70
0
 73
2
 74
2
  0
ATTRIB
  8
1
  6
CONTINUOUS
 62
5
 10
3.7475484E+002
 20
2.7659209E+001
 40
2.75
  1
A3
 41
7.5E-001
 72
1
 11
3.7269234E+002
 21
2.6284209E+001
  2
A?
 70
0
 73
2
 74
2
  0
ATTRIB
  8
1
  6
CONTINUOUS
 62
5
 10
3.8642666E+002
 20
2.7659209E+001
 40
2.75
  1
1
 41
7.5E-001
 72
1
 11
3.8539541E+002
 21
2.6284209E+001
  2
Folio
 70
0
 73
2
 74
2
  0
ATTRIB
  8
1
  6
CONTINUOUS
 62
5
 10
3.9914468E+002
 20
2.7659209E+001
 40
2.75
  1
1
 41
7.5E-001
 72
1
 11
3.9811343E+002
 21
2.6284209E+001
  2
Folios
 70
0
 73
2
 74
2
  0
ATTRIB
  8
1
  6
CONTINUOUS
 62
5
 10
3.6733212E+002
 20
5.025E+001
 40
2.5
  1
EO-18636
 11
3.6733212E+002
 21
4.9E+001
  2
N°OE_Origine
 70
0
 73
2
 74
2
  0
ATTRIB
  8
1
  6
CONTINUOUS
 62
5
 10
3.6733212E+002
 20
4.6E+001
 40
2.0
  1
P.BLANCHET le 10.08.05
 41
7.5E-001
 11
3.6733212E+002
 21
4.5E+001
  2
CONTROLEUR_Origine
 70
0
 73
2
 74
2
  0
ATTRIB
  8
1
  6
CONTINUOUS
 62
5
 10
3.6733212E+002
 20
4.2E+001
 40
2.0
  1
C.ECOCHARD le 10.08.05
 41
7.5E-001
 11
3.6733212E+002
 21
4.1E+001
  2
DESSINATEUR_Origine
 70
0
 73
2
 74
2
  0
ATTRIB
  8
1
  6
CONTINUOUS
 62
5
 10
2.4293169E+002
 20
3.825E+001
 40
2.5
  1
A
 41
7.5E-001
 72
1
 11
2.4199419E+002
 21
3.7E+001
  2
ID1
 70
0
 73
2
 74
2
  0
ATTRIB
  8
1
  6
CONTINUOUS
 62
5
 10
2.4293169E+002
 20
4.225E+001
 40
2.5
  1
 
 41
7.5E-001
 72
1
 11
2.4199419E+002
 21
4.1E+001
  2
ID2
 70
0
 73
2
 74
2
  0
ATTRIB
  8
1
  6
CONTINUOUS
 62
5
 10
2.4293169E+002
 20
4.625E+001
 40
2.5
  1
 
 41
7.5E-001
 72
1
 11
2.4199419E+002
 21
4.5E+001
  2
ID3
 70
0
 73
2
 74
2
  0
ATTRIB
  8
1
  6
CONTINUOUS
 62
5
 10
2.4293169E+002
 20
5.025E+001
 40
2.5
  1
 
 41
7.5E-001
 72
1
 11
2.4199419E+002
 21
4.9E+001
  2
ID4
 70
0
 73
2
 74
2
  0
ATTRIB
  8
1
  6
CONTINUOUS
 62
5
 10
3.5874644E+002
 20
3.2551214E+001
 40
6.0
  1
/
 41
7.5E-001
 72
1
 11
3.5649644E+002
 21
2.9551214E+001
  2
Ech
 70
0
 73
2
 74
2
  0
ATTRIB
  8
1
  6
CONTINUOUS
 62
5
 10
2.4549419E+002
 20
3.7875E+001
 40
1.75
  1
Edition originale
 41
7.5E-001
 11
2.4549419E+002
 21
3.7E+001
  2
DESC-1
 70
0
 73
2
 74
2
  0
ATTRIB
  8
1
  6
CONTINUOUS
 62
5
 10
2.4549419E+002
 20
4.1875E+001
 40
1.75
  1
 
 41
7.5E-001
 11
2.4549419E+002
 21
4.1E+001
  2
DESC-2
 70
0
 73
2
 74
2
  0
ATTRIB
  8
1
  6
CONTINUOUS
 62
5
 10
2.4549419E+002
 20
4.5875E+001
 40
1.75
  1
 
 41
7.5E-001
 11
2.4549419E+002
 21
4.5E+001
  2
DESC-3
 70
0
 73
2
 74
2
  0
ATTRIB
  8
1
  6
CONTINUOUS
 62
5
 10
2.4549419E+002
 20
4.9875E+001
 40
1.75
  1
 
 41
7.5E-001
 11
2.4549419E+002
 21
4.9E+001
  2
DESC-4
 70
0
 73
2
 74
2
  0
ATTRIB
  8
1
  6
CONTINUOUS
 62
5
 10
3.1581644E+002
 20
3.79E+001
 40
1.8
  1
10.08.05
 41
6.0E-001
 72
1
 11
3.1149644E+002
 21
3.7E+001
  2
DATE1
 70
0
 73
2
 74
2
  0
ATTRIB
  8
1
  6
CONTINUOUS
 62
5
 10
3.1203644E+002
 20
4.19E+001
 40
1.8
  1
 
 41
6.0E-001
 72
1
 11
3.1149644E+002
 21
4.1E+001
  2
DATE2
 70
0
 73
2
 74
2
  0
ATTRIB
  8
1
  6
CONTINUOUS
 62
5
 10
3.1203644E+002
 20
4.59E+001
 40
1.8
  1
 
 41
6.0E-001
 72
1
 11
3.1149644E+002
 21
4.5E+001
  2
DATE3
 70
0
 73
2
 74
2
  0
ATTRIB
  8
1
  6
CONTINUOUS
 62
5
 10
3.1203644E+002
 20
4.99E+001
 40
1.8
  1
 
 41
6.0E-001
 72
1
 11
3.1149644E+002
 21
4.9E+001
  2
DATE4
 70
0
 73
2
 74
2
  0
ATTRIB
  8
1
  6
CONTINUOUS
 62
5
 10
3.2487144E+002
 20
3.79E+001
 40
1.8
  1
18636
 41
7.5E-001
 72
1
 11
3.2149644E+002
 21
3.7E+001
  2
OE1
 70
0
 73
2
 74
2
  0
ATTRIB
  8
1
  6
CONTINUOUS
 62
5
 10
3.2217144E+002
 20
4.19E+001
 40
1.8
  1
 
 41
7.5E-001
 72
1
 11
3.2149644E+002
 21
4.1E+001
  2
OE2
 70
0
 73
2
 74
2
  0
ATTRIB
  8
1
  6
CONTINUOUS
 62
5
 10
3.2217144E+002
 20
4.59E+001
 40
1.8
  1
 
 41
7.5E-001
 72
1
 11
3.2149644E+002
 21
4.5E+001
  2
OE3
 70
0
 73
2
 74
2
  0
ATTRIB
  8
1
  6
CONTINUOUS
 62
5
 10
3.2217144E+002
 20
4.99E+001
 40
1.8
  1
 
 41
7.5E-001
 72
1
 11
3.2149644E+002
 21
4.9E+001
  2
OE4
 70
0
 73
2
 74
2
  0
ATTRIB
  8
1
  6
CONTINUOUS
 62
5
 10
3.3134644E+002
 20
3.79E+001
 40
1.8
  1
CE
 41
7.5E-001
 72
1
 11
3.2999644E+002
 21
3.7E+001
  2
AUT1
 70
0
 73
2
 74
2
  0
ATTRIB
  8
1
  6
CONTINUOUS
 62
5
 10
3.3067144E+002
 20
4.19E+001
 40
1.8
  1
 
 41
7.5E-001
 72
1
 11
3.2999644E+002
 21
4.1E+001
  2
AUT2
 70
0
 73
2
 74
2
  0
ATTRIB
  8
1
  6
CONTINUOUS
 62
5
 10
3.3067144E+002
 20
4.59E+001
 40
1.8
  1
 
 41
7.5E-001
 72
1
 11
3.2999644E+002
 21
4.5E+001
  2
AUT3
 70
0
 73
2
 74
2
  0
ATTRIB
  8
1
  6
CONTINUOUS
 62
5
 10
3.3067144E+002
 20
4.99E+001
 40
1.8
  1
 
 41
7.5E-001
 72
1
 11
3.2999644E+002
 21
4.9E+001
  2
AUT4
 70
0
 73
2
 74
2
  0
ATTRIB
  8
1
  6
CONTINUOUS
 62
5
 10
3.3440529E+002
 20
3.79E+001
 40
1.8
  1
PB
 41
7.5E-001
 11
3.3440529E+002
 21
3.7E+001
  2
CONT1
 70
0
 73
2
 74
2
  0
ATTRIB
  8
1
  6
CONTINUOUS
 62
5
 10
3.3440529E+002
 20
4.19E+001
 40
1.8
  1
 
 41
7.5E-001
 11
3.3440529E+002
 21
4.1E+001
  2
CONT2
 70
0
 73
2
 74
2
  0
ATTRIB
  8
1
  6
CONTINUOUS
 62
5
 10
3.3440529E+002
 20
4.59E+001
 40
1.8
  1
 
 41
7.5E-001
 11
3.3440529E+002
 21
4.5E+001
  2
CONT3
 70
0
 73
2
 74
2
  0
ATTRIB
  8
1
  6
CONTINUOUS
 62
5
 10
3.3440529E+002
 20
4.99E+001
 40
1.8
  1
 
 41
7.5E-001
 11
3.3440529E+002
 21
4.9E+001
  2
CONT4
 70
0
 73
2
 74
2
  0
SEQEND
  0
ENDSEC
  0
EOF
