  0
SECTION
  2
HEADER
  9
$ACADVER
  1
AC1009
  9
$INSBASE
 10
0.0
 20
0.0
 30
0.0
  9
$EXTMIN
 10
0.237099
 20
0.237999
 30
0.0
  9
$EXTMAX
 10
392.237099
 20
262.737999
 30
0.0
  9
$LIMMIN
 10
0.0
 20
0.0
  9
$LIMMAX
 10
12.0
 20
9.0
  9
$ORTHOMODE
 70
     1
  9
$REGENMODE
 70
     1
  9
$FILLMODE
 70
     1
  9
$QTEXTMODE
 70
     0
  9
$MIRRTEXT
 70
     1
  9
$DRAGMODE
 70
     2
  9
$LTSCALE
 40
5.0
  9
$OSMODE
 70
     0
  9
$ATTMODE
 70
     1
  9
$TEXTSIZE
 40
2.5
  9
$TRACEWID
 40
0.05
  9
$TEXTSTYLE
  7
ROMANS
  9
$CLAYER
  8
0
  9
$CELTYPE
  6
CONTINUOUS
  9
$CECOLOR
 62
   256
  9
$DIMSCALE
 40
1.0
  9
$DIMASZ
 40
0.18
  9
$DIMEXO
 40
0.0625
  9
$DIMDLI
 40
0.38
  9
$DIMRND
 40
0.0
  9
$DIMDLE
 40
0.0
  9
$DIMEXE
 40
0.18
  9
$DIMTP
 40
0.0
  9
$DIMTM
 40
0.0
  9
$DIMTXT
 40
0.18
  9
$DIMCEN
 40
0.09
  9
$DIMTSZ
 40
0.0
  9
$DIMTOL
 70
     0
  9
$DIMLIM
 70
     0
  9
$DIMTIH
 70
     1
  9
$DIMTOH
 70
     1
  9
$DIMSE1
 70
     0
  9
$DIMSE2
 70
     0
  9
$DIMTAD
 70
     0
  9
$DIMZIN
 70
     0
  9
$DIMBLK
  1

  9
$DIMASO
 70
     1
  9
$DIMSHO
 70
     1
  9
$DIMPOST
  1

  9
$DIMAPOST
  1

  9
$DIMALT
 70
     0
  9
$DIMALTD
 70
     2
  9
$DIMALTF
 40
25.4
  9
$DIMLFAC
 40
1.0
  9
$DIMTOFL
 70
     0
  9
$DIMTVP
 40
0.0
  9
$DIMTIX
 70
     0
  9
$DIMSOXD
 70
     0
  9
$DIMSAH
 70
     0
  9
$DIMBLK1
  1

  9
$DIMBLK2
  1

  9
$DIMSTYLE
  2
*UNNAMED
  9
$DIMCLRD
 70
     0
  9
$DIMCLRE
 70
     0
  9
$DIMCLRT
 70
     0
  9
$DIMTFAC
 40
1.0
  9
$DIMGAP
 40
0.09
  9
$LUNITS
 70
     2
  9
$LUPREC
 70
     4
  9
$SKETCHINC
 40
0.1
  9
$FILLETRAD
 40
0.0
  9
$AUNITS
 70
     0
  9
$AUPREC
 70
     0
  9
$MENU
  1
acad
  9
$ELEVATION
 40
0.0
  9
$PELEVATION
 40
0.0
  9
$THICKNESS
 40
0.0
  9
$LIMCHECK
 70
     0
  9
$BLIPMODE
 70
     1
  9
$CHAMFERA
 40
0.0
  9
$CHAMFERB
 40
0.0
  9
$SKPOLY
 70
     0
  9
$TDCREATE
 40
2448891.577669328
  9
$TDUPDATE
 40
2449513.394167940
  9
$TDINDWG
 40
0.0200777778
  9
$TDUSRTIMER
 40
0.0200777778
  9
$USRTIMER
 70
     1
  9
$ANGBASE
 50
0.0
  9
$ANGDIR
 70
     0
  9
$PDMODE
 70
     0
  9
$PDSIZE
 40
0.0
  9
$PLINEWID
 40
0.0
  9
$COORDS
 70
     2
  9
$SPLFRAME
 70
     0
  9
$SPLINETYPE
 70
     6
  9
$SPLINESEGS
 70
     8
  9
$ATTDIA
 70
     0
  9
$ATTREQ
 70
     1
  9
$HANDLING
 70
     0
  9
$HANDSEED
  5
0
  9
$SURFTAB1
 70
   250
  9
$SURFTAB2
 70
   250
  9
$SURFTYPE
 70
     6
  9
$SURFU
 70
     6
  9
$SURFV
 70
     6
  9
$UCSNAME
  2

  9
$UCSORG
 10
0.0
 20
0.0
 30
0.0
  9
$UCSXDIR
 10
1.0
 20
0.0
 30
0.0
  9
$UCSYDIR
 10
0.0
 20
1.0
 30
0.0
  9
$PUCSNAME
  2

  9
$PUCSORG
 10
0.0
 20
0.0
 30
0.0
  9
$PUCSXDIR
 10
1.0
 20
0.0
 30
0.0
  9
$PUCSYDIR
 10
0.0
 20
1.0
 30
0.0
  9
$USERI1
 70
     0
  9
$USERI2
 70
     0
  9
$USERI3
 70
     0
  9
$USERI4
 70
     0
  9
$USERI5
 70
     0
  9
$USERR1
 40
0.0
  9
$USERR2
 40
0.0
  9
$USERR3
 40
0.0
  9
$USERR4
 40
0.0
  9
$USERR5
 40
0.0
  9
$WORLDVIEW
 70
     1
  9
$SHADEDGE
 70
     3
  9
$SHADEDIF
 70
    70
  9
$TILEMODE
 70
     1
  9
$MAXACTVP
 70
    16
  9
$PINSBASE
 10
0.0
 20
0.0
 30
0.0
  9
$PLIMCHECK
 70
     0
  9
$PEXTMIN
 10
1.000000E+20
 20
1.000000E+20
 30
1.000000E+20
  9
$PEXTMAX
 10
-1.000000E+20
 20
-1.000000E+20
 30
-1.000000E+20
  9
$PLIMMIN
 10
0.0
 20
0.0
  9
$PLIMMAX
 10
12.0
 20
9.0
  9
$UNITMODE
 70
     0
  9
$VISRETAIN
 70
     0
  9
$PLINEGEN
 70
     0
  9
$PSLTSCALE
 70
     0
  9
$TREEDEPTH
 70
  3020
  9
$DWGCODEPAGE
  3
undefined
  0
ENDSEC
  0
SECTION
  2
TABLES
  0
TABLE
  2
VPORT
 70
     2
  0
VPORT
  2
*ACTIVE
 70
     0
 10
0.0
 20
0.0
 11
1.0
 21
1.0
 12
222.522843
 22
142.040485
 13
0.0
 23
0.0
 14
2.5
 24
2.5
 15
0.0
 25
0.0
 16
0.0
 26
0.0
 36
1.0
 17
0.0
 27
0.0
 37
0.0
 40
284.080971
 41
1.566616
 42
50.0
 43
0.0
 44
0.0
 50
0.0
 51
0.0
 71
     0
 72
   100
 73
     1
 74
     1
 75
     1
 76
     0
 77
     0
 78
     0
  0
ENDTAB
  0
TABLE
  2
LTYPE
 70
     4
  0
LTYPE
  2
CONTINUOUS
 70
    64
  3
Solid line
 72
    65
 73
     0
 40
0.0
  0
LTYPE
  2
DASHED
 70
    64
  3
__ __ __ __ __ __ __ __ __ __ __ __ __ __ __ __
 72
    65
 73
     2
 40
0.75
 49
0.5
 49
-0.25
  0
LTYPE
  2
CENTER
 70
    64
  3
____ _ ____ _ ____ _ ____ _ ____ _ ____ _ ____ 
 72
    65
 73
     4
 40
2.0
 49
1.25
 49
-0.25
 49
0.25
 49
-0.25
  0
LTYPE
  2
HIDDEN
 70
    64
  3
__ __ __ __ __ __ __ __ __ __ __ __ __ __ __ __
 72
    65
 73
     2
 40
0.375
 49
0.25
 49
-0.125
  0
ENDTAB
  0
TABLE
  2
LAYER
 70
    13
  0
LAYER
  2
0
 70
    64
 62
     7
  6
CONTINUOUS
  0
LAYER
  2
RAAMI
 70
    64
 62
    -4
  6
CONTINUOUS
  0
LAYER
  2
PAKSU
 70
    64
 62
    -3
  6
CONTINUOUS
  0
LAYER
  2
OHUT
 70
    64
 62
    -6
  6
CONTINUOUS
  0
LAYER
  2
SWEDEN
 70
    64
 62
    -7
  6
CONTINUOUS
  0
LAYER
  2
SWEDEN2
 70
    64
 62
    -5
  6
CONTINUOUS
  0
LAYER
  2
BASE
 70
    64
 62
    -7
  6
CONTINUOUS
  0
LAYER
  2
21
 70
    64
 62
    -2
  6
CONTINUOUS
  0
LAYER
  2
HEL035
 70
    64
 62
    -7
  6
CONTINUOUS
  0
LAYER
  2
MUO
 70
    64
 62
    -7
  6
CONTINUOUS
  0
LAYER
  2
1
 70
    64
 62
    -2
  6
CONTINUOUS
  0
LAYER
  2
BASE1
 70
    64
 62
    -1
  6
CONTINUOUS
  0
LAYER
  2
TEKS
 70
    64
 62
    -5
  6
CONTINUOUS
  0
ENDTAB
  0
TABLE
  2
STYLE
 70
     5
  0
STYLE
  2
STANDARD
 70
    64
 40
0.0
 41
1.0
 50
0.0
 71
     0
 42
2.0
  3
txt
  4

  0
STYLE
  2
ROMANS
 70
    64
 40
0.0
 41
1.0
 50
0.0
 71
     0
 42
2.5
  3
romans
  4

  0
STYLE
  2
GREEKS
 70
    64
 40
0.0
 41
1.0
 50
0.0
 71
     0
 42
3.0
  3
TXT
  4

  0
STYLE
  2
GREEKC
 70
    64
 40
0.0
 41
1.0
 50
0.0
 71
     0
 42
1.5
  3
GREEKC
  4

  0
STYLE
  2
MONOTXT
 70
     0
 40
0.0
 41
1.0
 50
0.0
 71
     0
 42
2.0
  3
monotxt
  4

  0
ENDTAB
  0
TABLE
  2
VIEW
 70
     0
  0
ENDTAB
  0
TABLE
  2
UCS
 70
     0
  0
ENDTAB
  0
TABLE
  2
APPID
 70
     1
  0
APPID
  2
ACAD
 70
    64
  0
ENDTAB
  0
TABLE
  2
DIMSTYLE
 70
     0
  0
ENDTAB
  0
ENDSEC
  0
SECTION
  2
BLOCKS
  0
BLOCK
  8
0
  2
1
 70
    64
 10
0.0
 20
0.0
 30
0.0
  3
1
  0
ENDBLK
  8
0
  0
BLOCK
  8
0
  2
BLC16
 70
     0
 10
0.0
 20
0.0
 30
0.0
  3
BLC16
  0
LINE
  8
0
  6
CONTINUOUS
 10
0.007689
 20
38.054928
 30
0.0
 11
19.983683
 21
38.054928
 31
0.0
  0
LINE
  8
0
  6
CONTINUOUS
 10
19.983683
 20
38.054928
 30
0.0
 11
19.983683
 21
-0.003751
 31
0.0
  0
LINE
  8
0
  6
CONTINUOUS
 10
19.983683
 20
-0.003751
 30
0.0
 11
0.007689
 21
-0.003751
 31
0.0
  0
LINE
  8
0
  6
CONTINUOUS
 10
0.007689
 20
-0.003751
 30
0.0
 11
0.007689
 21
38.054928
 31
0.0
  0
LINE
  8
0
  6
CONTINUOUS
 10
14.152643
 20
36.919738
 30
0.0
 11
14.152643
 21
33.528469
 31
0.0
  0
LINE
  8
0
  6
CONTINUOUS
 10
14.152643
 20
33.528469
 30
0.0
 11
11.560435
 21
33.528469
 31
0.0
  0
LINE
  8
0
  6
CONTINUOUS
 10
11.560435
 20
33.528469
 30
0.0
 11
11.560435
 21
30.778433
 31
0.0
  0
LINE
  8
0
  6
CONTINUOUS
 10
11.560435
 20
30.778433
 30
0.0
 11
14.152643
 21
30.778433
 31
0.0
  0
LINE
  8
0
  6
CONTINUOUS
 10
14.152643
 20
30.778433
 30
0.0
 11
14.152643
 21
27.387164
 31
0.0
  0
TEXT
  8
0
  6
CONTINUOUS
 10
6.558569
 20
30.805266
 30
0.0
 40
2.5
  1
2
 11
6.558569
 21
29.971932
 31
0.0
 73
     1
  0
TEXT
  8
0
  6
CONTINUOUS
 10
6.553289
 20
23.854078
 30
0.0
 40
2.5
  1
2 I
 11
6.553289
 21
23.020744
 31
0.0
 73
     1
  0
LINE
  8
0
  6
CONTINUOUS
 10
12.942534
 20
26.359129
 30
0.0
 11
15.288299
 21
25.023775
 31
0.0
  0
LINE
  8
0
  6
CONTINUOUS
 10
15.288299
 20
25.023775
 30
0.0
 11
12.942534
 21
23.833856
 31
0.0
  0
LINE
  8
0
  6
CONTINUOUS
 10
14.169823
 20
26.359129
 30
0.0
 11
16.515589
 21
25.023775
 31
0.0
  0
LINE
  8
0
  6
CONTINUOUS
 10
16.515589
 20
25.023775
 30
0.0
 11
14.169823
 21
23.833856
 31
0.0
  0
TEXT
  8
0
  6
CONTINUOUS
 10
11.566446
 20
19.235679
 30
0.0
 40
2.5
  1
I
 11
11.566446
 21
18.402346
 31
0.0
 73
     1
  0
TEXT
  8
0
  6
CONTINUOUS
 10
13.018181
 20
18.902346
 30
0.0
 40
1.5
  1
2
 11
13.018181
 21
18.402346
 31
0.0
 73
     1
  0
LINE
  8
0
  6
CONTINUOUS
 10
10.65733
 20
12.773825
 30
0.0
 11
13.003095
 21
13.963744
 31
0.0
  0
LINE
  8
0
  6
CONTINUOUS
 10
13.003095
 20
11.438471
 30
0.0
 11
10.65733
 21
12.773825
 31
0.0
  0
LINE
  8
0
  6
CONTINUOUS
 10
6.557002
 20
16.714658
 30
0.0
 11
15.281743
 21
16.714658
 31
0.0
  0
LINE
  8
0
  6
CONTINUOUS
 10
6.557002
 20
17.523984
 30
0.0
 11
6.557002
 21
15.908791
 31
0.0
  0
LINE
  8
0
  6
CONTINUOUS
 10
15.286518
 20
17.523984
 30
0.0
 11
15.286518
 21
15.908791
 31
0.0
  0
ARC
  8
0
  6
CONTINUOUS
 10
12.684846
 20
18.508045
 30
0.0
 40
2.922744
 50
193.105513
 51
283.105513
  0
TEXT
  8
0
  6
CONTINUOUS
 10
6.557002
 20
11.567974
 30
0.0
 40
2.5
  1
2I
 11
6.557002
 21
10.734641
 31
0.0
 73
     1
  0
LINE
  8
0
  6
CONTINUOUS
 10
6.557002
 20
9.441103
 30
0.0
 11
15.281743
 21
9.441103
 31
0.0
  0
LINE
  8
0
  6
CONTINUOUS
 10
15.286518
 20
10.250429
 30
0.0
 11
15.286518
 21
8.635236
 31
0.0
  0
LINE
  8
0
  6
CONTINUOUS
 10
6.557002
 20
10.250429
 30
0.0
 11
6.557002
 21
8.635236
 31
0.0
  0
TEXT
  8
0
  6
CONTINUOUS
 10
6.557002
 20
4.778631
 30
0.0
 40
2.5
  1
I
 11
6.557002
 21
3.945298
 31
0.0
 73
     1
  0
LINE
  8
0
  6
CONTINUOUS
 10
9.509029
 20
6.822462
 30
0.0
 11
9.509029
 21
5.477736
 31
0.0
  0
LINE
  8
0
  6
CONTINUOUS
 10
8.615065
 20
5.477736
 30
0.0
 11
9.52622
 21
5.477736
 31
0.0
  0
LINE
  8
0
  6
CONTINUOUS
 10
9.509029
 20
5.477736
 30
0.0
 11
10.402992
 21
5.477736
 31
0.0
  0
LINE
  8
0
  6
CONTINUOUS
 10
8.901592
 20
5.082328
 30
0.0
 11
9.509029
 21
5.082328
 31
0.0
  0
LINE
  8
0
  6
CONTINUOUS
 10
9.509029
 20
5.082328
 30
0.0
 11
10.150849
 21
5.082328
 31
0.0
  0
LINE
  8
0
  6
CONTINUOUS
 10
9.981861
 20
4.719969
 30
0.0
 11
9.072041
 21
4.719969
 31
0.0
  0
LINE
  8
0
  6
CONTINUOUS
 10
15.286518
 20
2.797924
 30
0.0
 11
15.286518
 21
1.182731
 31
0.0
  0
LINE
  8
0
  6
CONTINUOUS
 10
6.557002
 20
1.988598
 30
0.0
 11
15.281743
 21
1.988598
 31
0.0
  0
LINE
  8
0
  6
CONTINUOUS
 10
6.557002
 20
2.797924
 30
0.0
 11
6.557002
 21
1.182731
 31
0.0
  0
ENDBLK
  8
0
  0
BLOCK
  8
0
  2
BLC27
 70
    64
 10
0.0
 20
0.0
 30
0.0
  3
BLC27
  0
INSERT
  8
SWEDEN2
  6
CENTER
  2
BLC26
 10
0.08063
 20
0.037985
 30
0.0
 41
1.006225
 42
1.006225
 43
1.006225
  0
ENDBLK
  8
0
  0
BLOCK
  8
0
  2
BLC26
 70
    64
 10
0.0
 20
0.0
 30
0.0
  3
BLC26
  0
ARC
  8
0
  6
CONTINUOUS
 10
-0.180576
 20
1.17922
 30
0.0
 40
1.196859
 50
90.0
 51
265.706237
  0
LINE
  8
0
  6
CONTINUOUS
 10
-0.186638
 20
-0.01092
 30
0.0
 11
0.458942
 21
-0.01092
 31
0.0
  0
LINE
  8
0
  6
CONTINUOUS
 10
-0.186638
 20
2.375671
 30
0.0
 11
0.45288
 21
2.375671
 31
0.0
  0
LINE
  8
0
  6
CONTINUOUS
 10
-0.185509
 20
-2.404629
 30
0.0
 11
0.460071
 21
-2.404629
 31
0.0
  0
ARC
  8
0
  6
CONTINUOUS
 10
-0.180576
 20
-1.207779
 30
0.0
 40
1.196859
 50
90.0
 51
270.0
  0
LINE
  8
0
  6
CONTINUOUS
 10
0.451525
 20
-2.404586
 30
0.0
 11
1.401805
 21
-2.404586
 31
0.0
  0
LINE
  8
0
  6
CONTINUOUS
 10
0.446785
 20
2.375674
 30
0.0
 11
1.418544
 21
2.375674
 31
0.0
  0
LINE
  8
0
  6
CONTINUOUS
 10
0.456627
 20
-0.010911
 30
0.0
 11
1.422749
 21
-0.010911
 31
0.0
  0
ENDBLK
  8
0
  0
BLOCK
  8
0
  2
BLC22
 70
     0
 10
0.0
 20
0.0
 30
0.0
  3
BLC22
  0
LINE
  8
HEL035
 10
0.0
 20
-0.00155
 30
0.0
 11
0.0
 21
9.99845
 31
0.0
  0
LINE
  8
21
 10
2.5
 20
10.0
 30
0.0
 11
5.0
 21
10.0
 31
0.0
  0
LINE
  8
HEL035
 10
0.0
 20
9.99845
 30
0.0
 11
2.5
 21
9.99845
 31
0.0
  0
LINE
  8
HEL035
 10
-2.5
 20
5.0
 30
0.0
 11
2.5
 21
5.0
 31
0.0
  0
LINE
  8
21
 10
2.5
 20
5.0
 30
0.0
 11
5.0
 21
5.0
 31
0.0
  0
LINE
  8
21
 10
5.0
 20
5.0
 30
0.0
 11
5.0
 21
7.9
 31
0.0
  0
LINE
  8
HEL035
 10
3.88095
 20
6.944425
 30
0.0
 11
4.560313
 21
6.008681
 31
0.0
  0
LINE
  8
21
 10
10.0
 20
10.0
 30
0.0
 11
4.2
 21
6.5
 31
0.0
  0
LINE
  8
HEL035
 10
2.5
 20
-0.00155
 30
0.0
 11
0.0
 21
-0.00155
 31
0.0
  0
LINE
  8
21
 10
2.5
 20
0.0
 30
0.0
 11
5.0
 21
0.0
 31
0.0
  0
ENDBLK
  8
0
  0
BLOCK
  8
0
  2
BLC18
 70
     0
 10
0.0
 20
0.0
 30
0.0
  3
BLC18
  0
LINE
  8
MUO
 10
-0.056268
 20
0.849555
 30
0.0
 11
8.307242
 21
9.215502
 31
0.0
  0
LINE
  8
MUO
 10
0.928025
 20
-0.107047
 30
0.0
 11
9.268386
 21
8.2307
 31
0.0
  0
LINE
  8
MUO
 10
-0.056268
 20
-0.107047
 30
0.0
 11
-0.056268
 21
9.215502
 31
0.0
  0
LINE
  8
MUO
 10
9.268386
 20
-0.107047
 30
0.0
 11
-0.056268
 21
-0.107047
 31
0.0
  0
LINE
  8
MUO
 10
9.268386
 20
9.215502
 30
0.0
 11
9.268386
 21
-0.107047
 31
0.0
  0
LINE
  8
MUO
 10
-0.056268
 20
9.215502
 30
0.0
 11
9.268386
 21
9.215502
 31
0.0
  0
ENDBLK
  8
0
  0
BLOCK
  8
0
  2
BLC29
 70
    64
 10
0.0
 20
0.0
 30
0.0
  3
BLC29
  0
LINE
  8
0
  6
CONTINUOUS
 10
0.004865
 20
1.206889
 30
0.0
 11
2.350631
 21
-0.128465
 31
0.0
  0
LINE
  8
0
  6
CONTINUOUS
 10
2.350631
 20
-0.128465
 30
0.0
 11
0.004865
 21
-1.318384
 31
0.0
  0
ENDBLK
  8
0
  0
BLOCK
  8
0
  2
WKU130
 70
    64
 10
190.0
 20
250.0
 30
0.0
  3
WKU130
  0
ARC
  8
21
 10
191.083333
 20
249.916667
 30
0.0
 40
1.086534
 50
32.471192
 51
175.601295
  0
ARC
  8
21
 10
192.916667
 20
251.083333
 30
0.0
 40
1.086534
 50
212.471192
 51
355.601295
  0
ENDBLK
  8
0
  0
BLOCK
  8
0
  2
BLC38
 70
    64
 10
0.0
 20
0.0
 30
0.0
  3
BLC38
  0
LINE
  8
BASE
  6
CONTINUOUS
 10
5.0
 20
0.429605
 30
0.0
 11
5.0
 21
-2.5
 31
0.0
  0
LINE
  8
BASE
  6
CONTINUOUS
 10
0.0
 20
0.429605
 30
0.0
 11
0.0
 21
-2.5
 31
0.0
  0
LINE
  8
BASE
  6
CONTINUOUS
 10
5.0
 20
15.0
 30
0.0
 11
5.0
 21
9.752154
 31
0.0
  0
LINE
  8
BASE
  6
CONTINUOUS
 10
0.0
 20
15.0
 30
0.0
 11
0.0
 21
9.752154
 31
0.0
  0
INSERT
  8
HEL035
  2
WKU130
 10
2.806261
 20
1.002888
 30
0.0
 41
0.8
 42
0.8
 43
0.8
  0
LINE
  8
HEL035
 10
2.466311
 20
2.72844
 30
0.0
 11
6.466311
 21
2.72844
 31
0.0
  0
LINE
  8
HEL035
 10
-1.290099
 20
7.674464
 30
0.0
 11
2.709901
 21
7.674464
 31
0.0
  0
LINE
  8
MUO
 10
-2.204897
 20
1.386207
 30
0.0
 11
6.158613
 21
9.752154
 31
0.0
  0
LINE
  8
MUO
 10
-1.220605
 20
0.429605
 30
0.0
 11
7.119756
 21
8.767352
 31
0.0
  0
LINE
  8
MUO
 10
-2.204897
 20
0.429605
 30
0.0
 11
-2.204897
 21
9.752154
 31
0.0
  0
LINE
  8
MUO
 10
7.119756
 20
0.429605
 30
0.0
 11
-2.204897
 21
0.429605
 31
0.0
  0
LINE
  8
MUO
 10
7.119756
 20
9.752154
 30
0.0
 11
7.119756
 21
0.429605
 31
0.0
  0
LINE
  8
MUO
 10
-2.204897
 20
9.752154
 30
0.0
 11
7.119756
 21
9.752154
 31
0.0
  0
TEXT
  8
SWEDEN2
  6
CONTINUOUS
 10
-0.633266
 20
15.55315
 30
0.0
 40
2.0
  1
+
  0
TEXT
  8
SWEDEN2
  6
CONTINUOUS
 10
4.297086
 20
15.577719
 30
0.0
 40
2.0
  1
-
  0
ENDBLK
  8
0
  0
BLOCK
  8
0
  2
BLC15
 70
    64
 10
0.0
 20
0.0
 30
0.0
  3
BLC15
  0
LINE
  8
0
  6
CONTINUOUS
 10
0.142084
 20
3.490022
 30
0.0
 11
0.142084
 21
0.844365
 31
0.0
  0
LINE
  8
0
  6
CONTINUOUS
 10
-0.461611
 20
-0.937188
 30
0.0
 11
0.745779
 21
-0.937188
 31
0.0
  0
LINE
  8
0
  6
CONTINUOUS
 10
-0.894108
 20
-0.049675
 30
0.0
 11
1.169267
 21
-0.049675
 31
0.0
  0
LINE
  8
0
  6
CONTINUOUS
 10
-1.389679
 20
0.844365
 30
0.0
 11
1.673848
 21
0.844365
 31
0.0
  0
ENDBLK
  8
0
  0
BLOCK
  8
0
  2
BLC5
 70
     0
 10
0.0
 20
0.0
 30
0.0
  3
BLC5
  0
TEXT
  8
0
 10
-3.043704
 20
-6.645912
 30
0.0
 40
3.2
  1
PE
  0
LINE
  8
0
 10
-2.946392
 20
1.181176
 30
0.0
 11
2.135458
 21
1.181176
 31
0.0
  0
LINE
  8
0
 10
-0.48656
 20
2.238362
 30
0.0
 11
-0.48656
 21
6.930438
 31
0.0
  0
LINE
  8
0
 10
-1.973271
 20
0.065258
 30
0.0
 11
1.225411
 21
0.065258
 31
0.0
  0
LINE
  8
0
 10
2.685091
 20
2.238362
 30
0.0
 11
1.68494
 21
2.238362
 31
0.0
  0
LINE
  8
0
 10
-3.505035
 20
2.238362
 30
0.0
 11
2.649049
 21
2.238362
 31
0.0
  0
CIRCLE
  8
0
 10
-0.47755
 20
1.422632
 30
0.0
 40
3.804563
  0
ENDBLK
  8
0
  0
BLOCK
  8
0
  2
BLC43
 70
    64
 10
0.0
 20
0.0
 30
0.0
  3
BLC43
  0
TEXT
  8
SWEDEN2
  6
CONTINUOUS
 10
-0.646672
 20
-0.986365
 30
0.0
 40
2.0
  1
+
  0
ENDBLK
  8
0
  0
BLOCK
  8
0
  2
BLC42
 70
    64
 10
0.0
 20
0.0
 30
0.0
  3
BLC42
  0
TEXT
  8
SWEDEN2
  6
CONTINUOUS
 10
-0.655237
 20
-0.99442
 30
0.0
 40
2.0
  1
-
  0
ENDBLK
  8
0
  0
BLOCK
  8
0
  2
BLC44
 70
    64
 10
0.0
 20
0.0
 30
0.0
  3
BLC44
  0
LINE
  8
HEL035
 10
-2.520993
 20
1.697877
 30
0.0
 11
1.479007
 21
1.697877
 31
0.0
  0
INSERT
  8
HEL035
  2
WKU130
 10
-2.181043
 20
-0.027675
 30
0.0
 41
0.8
 42
0.8
 43
0.8
  0
ENDBLK
  8
0
  0
BLOCK
  8
0
  2
BLC25
 70
     0
 10
0.0
 20
0.0
 30
0.0
  3
BLC25
  0
TEXT
  8
0
  6
CONTINUOUS
 10
2.0
 20
30.666667
 30
0.0
 40
2.0
  1
1)
 11
2.0
 21
30.0
 31
0.0
 73
     1
  0
TEXT
  8
0
 10
6.0
 20
2.0
 30
0.0
 40
2.0
  1
7B    27     26
 11
6.0
 21
1.333333
 31
0.0
 73
     1
  0
TEXT
  8
0
 10
6.0
 20
5.333333
 30
0.0
 40
2.0
  1
5B     9      8
 11
6.0
 21
4.666667
 31
0.0
 73
     1
  0
TEXT
  8
0
 10
6.0
 20
8.666667
 30
0.0
 40
2.0
  1
3B     3      2
 11
6.0
 21
8.0
 31
0.0
 73
     1
  0
TEXT
  8
0
 10
32.0
 20
12.666667
 30
0.0
 40
2.0
  1
In=5A
 11
32.0
 21
12.0
 31
0.0
 73
     1
  0
TEXT
  8
0
 10
16.0
 20
12.666667
 30
0.0
 40
2.0
  1
In=1A 
 11
16.0
 21
12.0
 31
0.0
 73
     1
  0
TEXT
  8
0
 10
26.0
 20
18.666667
 30
0.0
 40
2.0
  1
108:
 11
26.0
 21
18.0
 31
0.0
 73
     1
  0
TEXT
  8
0
 10
6.0
 20
18.666667
 30
0.0
 40
2.0
  1
101:       
 11
6.0
 21
18.0
 31
0.0
 73
     1
  0
TEXT
  8
0
 10
6.0
 20
24.666667
 30
0.0
 40
2.0
  1
TERMINALS / UTTAG
 11
6.0
 21
24.0
 31
0.0
 73
     1
  0
LINE
  8
0
 10
0.0
 20
12.0
 30
0.0
 11
44.0
 21
12.0
 31
0.0
  0
LINE
  8
0
 10
28.0
 20
18.0
 30
0.0
 11
28.0
 21
0.0
 31
0.0
  0
LINE
  8
0
 10
14.0
 20
18.0
 30
0.0
 11
44.0
 21
18.0
 31
0.0
  0
LINE
  8
0
 10
14.0
 20
24.0
 30
0.0
 11
14.0
 21
0.0
 31
0.0
  0
LINE
  8
0
 10
0.0
 20
24.0
 30
0.0
 11
44.0
 21
24.0
 31
0.0
  0
LINE
  8
0
 10
44.0
 20
0.0
 30
0.0
 11
44.0
 21
30.0
 31
0.0
  0
LINE
  8
0
 10
0.0
 20
0.0
 30
0.0
 11
44.0
 21
0.0
 31
0.0
  0
LINE
  8
0
 10
0.0
 20
30.0
 30
0.0
 11
0.0
 21
0.0
 31
0.0
  0
LINE
  8
0
 10
44.0
 20
30.0
 30
0.0
 11
0.0
 21
30.0
 31
0.0
  0
ENDBLK
  8
0
  0
BLOCK
  8
0
  2
ABBA3V
 70
    64
 10
0.0
 20
0.0
 30
0.0
  3
ABBA3V
  0
TEXT
  8
RAAMI
  6
DASHED
 10
292.217194
 20
11.813359
 30
0.0
 40
3.0
  1
A3
  7
GREEKS
  0
TEXT
  8
RAAMI
  6
DASHED
 10
351.818577
 20
15.69253
 30
0.0
 40
1.4
  1
LEHTI SHEET
  7
GREEKS
  0
LINE
  8
PAKSU
 10
0.237099
 20
262.737999
 30
0.0
 11
392.237099
 21
262.737999
 31
0.0
  0
LINE
  8
RAAMI
 10
18.237099
 20
0.237999
 30
0.0
 11
0.237099
 21
0.237999
 31
0.0
  0
LINE
  8
PAKSU
 10
209.237099
 20
0.237999
 30
0.0
 11
392.237099
 21
0.237999
 31
0.0
  0
LINE
  8
PAKSU
 10
209.237099
 20
0.237999
 30
0.0
 11
209.237099
 21
35.237999
 31
0.0
  0
LINE
  8
PAKSU
 10
392.237099
 20
0.237999
 30
0.0
 11
392.237099
 21
35.237999
 31
0.0
  0
LINE
  8
OHUT
 10
209.237099
 20
18.237999
 30
0.0
 11
392.237099
 21
18.237999
 31
0.0
  0
LINE
  8
OHUT
 10
209.237099
 20
9.737999
 30
0.0
 11
392.237099
 21
9.737999
 31
0.0
  0
LINE
  8
OHUT
 10
209.237099
 20
26.737999
 30
0.0
 11
307.237099
 21
26.737999
 31
0.0
  0
LINE
  8
PAKSU
 10
209.237099
 20
35.237999
 30
0.0
 11
392.237099
 21
35.237999
 31
0.0
  0
TEXT
  8
RAAMI
 10
210.237099
 20
23.971333
 30
0.0
 40
1.4
  1
TARKASTI  CHECKED
  7
ROMANS
  0
TEXT
  8
RAAMI
 10
209.979934
 20
15.704666
 30
0.0
 40
1.4
  1
HYVÄKSYI  APPROVED
  7
ROMANS
  0
LINE
  8
OHUT
 10
307.237099
 20
0.237999
 30
0.0
 11
307.237099
 21
35.237999
 31
0.0
  0
TEXT
  8
RAAMI
 10
259.237099
 20
32.737999
 30
0.0
 40
1.4
  1
LIITTYY  CONCERNING
  7
ROMANS
  0
TEXT
  8
RAAMI
 10
259.237099
 20
23.737999
 30
0.0
 40
1.4
  1
TOLERANSSIT  TOLERANCES
  7
ROMANS
  0
TEXT
  8
RAAMI
 10
259.237099
 20
15.737999
 30
0.0
 40
1.4
  1
SUHDE  SCALE
  7
ROMANS
  0
TEXT
  8
RAAMI
 10
309.237099
 20
32.737999
 30
0.0
 40
1.4
  1
NIMITYS  NAME
  7
ROMANS
  0
TEXT
  8
RAAMI
 10
309.237099
 20
15.737999
 30
0.0
 40
1.4
  1
KOODI  CODE
  7
ROMANS
  0
TEXT
  8
RAAMI
 10
309.237099
 20
7.237999
 30
0.0
 40
1.4
  1
PIIRUSTUS NO  DRAWING NR
  7
ROMANS
  0
LINE
  8
OHUT
 10
349.737099
 20
9.737999
 30
0.0
 11
349.737099
 21
18.237999
 31
0.0
  0
TEXT
  8
RAAMI
 10
371.237099
 20
7.237999
 30
0.0
 40
1.4
  1
PAINOS  REVISION
  7
ROMANS
  0
LINE
  8
OHUT
 10
369.737099
 20
9.737999
 30
0.0
 11
369.737099
 21
0.237999
 31
0.0
  0
LINE
  8
RAAMI
 10
210.187099
 20
1.737999
 30
0.0
 11
211.937099
 21
1.737999
 31
0.0
  0
LINE
  8
RAAMI
 10
215.437099
 20
1.737999
 30
0.0
 11
217.187099
 21
1.737999
 31
0.0
  0
LINE
  8
RAAMI
 10
212.637099
 20
8.737999
 30
0.0
 11
211.459571
 21
5.373634
 31
0.0
  0
LINE
  8
RAAMI
 10
212.425886
 20
3.137999
 30
0.0
 11
213.547099
 21
3.137999
 31
0.0
  0
LINE
  8
RAAMI
 10
212.425889
 20
3.134542
 30
0.0
 11
211.937099
 21
1.737999
 31
0.0
  0
LINE
  8
RAAMI
 10
214.737099
 20
8.737999
 30
0.0
 11
215.913452
 21
5.376991
 31
0.0
  0
LINE
  8
RAAMI
 10
214.948197
 20
3.134863
 30
0.0
 11
215.437099
 21
1.737999
 31
0.0
  0
LINE
  8
RAAMI
 10
214.737099
 20
8.737999
 30
0.0
 11
213.827099
 21
8.737999
 31
0.0
  0
LINE
  8
RAAMI
 10
213.547099
 20
8.737999
 30
0.0
 11
213.547099
 21
5.377999
 31
0.0
  0
LINE
  8
RAAMI
 10
213.827099
 20
8.737999
 30
0.0
 11
213.827099
 21
5.377999
 31
0.0
  0
LINE
  8
RAAMI
 10
213.827099
 20
3.137999
 30
0.0
 11
214.946992
 21
3.137999
 31
0.0
  0
LINE
  8
RAAMI
 10
213.547099
 20
8.737999
 30
0.0
 11
212.637099
 21
8.737999
 31
0.0
  0
LINE
  8
RAAMI
 10
211.45904
 20
5.377999
 30
0.0
 11
213.547099
 21
5.377999
 31
0.0
  0
LINE
  8
RAAMI
 10
211.360082
 20
5.097999
 30
0.0
 11
213.547099
 21
5.097999
 31
0.0
  0
LINE
  8
RAAMI
 10
216.011591
 20
5.096594
 30
0.0
 11
217.187099
 21
1.737999
 31
0.0
  0
LINE
  8
RAAMI
 10
213.827099
 20
5.377999
 30
0.0
 11
215.912213
 21
5.377999
 31
0.0
  0
LINE
  8
RAAMI
 10
213.827099
 20
5.097999
 30
0.0
 11
216.010356
 21
5.097999
 31
0.0
  0
LINE
  8
RAAMI
 10
213.827099
 20
5.097999
 30
0.0
 11
213.827099
 21
3.137999
 31
0.0
  0
LINE
  8
RAAMI
 10
213.547099
 20
5.097999
 30
0.0
 11
213.547099
 21
3.137999
 31
0.0
  0
LINE
  8
RAAMI
 10
211.356988
 20
5.080538
 30
0.0
 11
210.187099
 21
1.737999
 31
0.0
  0
INSERT
  8
RAAMI
  2
*X16
 10
210.187099
 20
1.737999
 30
0.0
 41
0.7
 42
0.7
 43
0.7
  0
INSERT
  8
RAAMI
  2
*X17
 10
210.187099
 20
1.737999
 30
0.0
 41
0.7
 42
0.7
 43
0.7
  0
INSERT
  8
RAAMI
  2
*X18
 10
210.187099
 20
1.737999
 30
0.0
 41
0.7
 42
0.7
 43
0.7
  0
INSERT
  8
RAAMI
  2
*X19
 10
210.187099
 20
1.737999
 30
0.0
 41
0.7
 42
0.7
 43
0.7
  0
LINE
  8
RAAMI
 10
217.677099
 20
1.737999
 30
0.0
 11
217.677099
 21
5.097999
 31
0.0
  0
LINE
  8
RAAMI
 10
217.677099
 20
8.737999
 30
0.0
 11
219.637099
 21
8.737999
 31
0.0
  0
LINE
  8
RAAMI
 10
219.637099
 20
8.737999
 30
0.0
 11
219.637099
 21
5.377999
 31
0.0
  0
LINE
  8
RAAMI
 10
219.637099
 20
5.377999
 30
0.0
 11
217.677099
 21
5.377999
 31
0.0
  0
LINE
  8
RAAMI
 10
217.677099
 20
5.097999
 30
0.0
 11
219.637099
 21
5.097999
 31
0.0
  0
LINE
  8
RAAMI
 10
219.637099
 20
5.097999
 30
0.0
 11
219.637099
 21
1.737999
 31
0.0
  0
LINE
  8
RAAMI
 10
219.637099
 20
1.737999
 30
0.0
 11
217.677099
 21
1.737999
 31
0.0
  0
LINE
  8
RAAMI
 10
217.677099
 20
5.377999
 30
0.0
 11
217.677099
 21
8.737999
 31
0.0
  0
ARC
  8
RAAMI
 10
220.477099
 20
7.162999
 30
0.0
 40
1.575
 50
298.455859
 51
90.052437
  0
LINE
  8
RAAMI
 10
219.917099
 20
8.737999
 30
0.0
 11
220.475658
 21
8.737999
 31
0.0
  0
LINE
  8
RAAMI
 10
219.917099
 20
8.737999
 30
0.0
 11
219.917099
 21
5.377999
 31
0.0
  0
LINE
  8
RAAMI
 10
219.917099
 20
5.377999
 30
0.0
 11
221.901542
 21
5.377999
 31
0.0
  0
LINE
  8
RAAMI
 10
222.157099
 20
5.097999
 30
0.0
 11
219.917099
 21
5.097999
 31
0.0
  0
LINE
  8
RAAMI
 10
219.917099
 20
5.097999
 30
0.0
 11
219.917099
 21
1.737999
 31
0.0
  0
ARC
  8
RAAMI
 10
220.477099
 20
3.837999
 30
0.0
 40
2.1
 50
269.937724
 51
37.056553
  0
LINE
  8
RAAMI
 10
219.917099
 20
1.737999
 30
0.0
 11
220.474817
 21
1.738
 31
0.0
  0
ARC
  8
RAAMI
 10
220.477099
 20
3.837999
 30
0.0
 40
2.1
 50
47.28622
 51
68.787999
  0
INSERT
  8
RAAMI
  2
*X20
 10
210.187099
 20
1.737999
 30
0.0
 41
0.7
 42
0.7
 43
0.7
  0
INSERT
  8
RAAMI
  2
*X21
 10
210.187099
 20
1.737999
 30
0.0
 41
0.7
 42
0.7
 43
0.7
  0
INSERT
  8
RAAMI
  2
*X22
 10
210.187099
 20
1.737999
 30
0.0
 41
0.7
 42
0.7
 43
0.7
  0
INSERT
  8
RAAMI
  2
*X23
 10
210.187099
 20
1.737999
 30
0.0
 41
0.7
 42
0.7
 43
0.7
  0
INSERT
  8
RAAMI
  2
*X23
 10
215.647099
 20
1.737999
 30
0.0
 41
0.7
 42
0.7
 43
0.7
  0
INSERT
  8
RAAMI
  2
*X22
 10
215.647099
 20
1.737999
 30
0.0
 41
0.7
 42
0.7
 43
0.7
  0
INSERT
  8
RAAMI
  2
*X21
 10
215.647099
 20
1.737999
 30
0.0
 41
0.7
 42
0.7
 43
0.7
  0
INSERT
  8
RAAMI
  2
*X20
 10
215.647099
 20
1.737999
 30
0.0
 41
0.7
 42
0.7
 43
0.7
  0
ARC
  8
RAAMI
 10
225.937099
 20
3.837999
 30
0.0
 40
2.1
 50
47.28622
 51
68.787999
  0
LINE
  8
RAAMI
 10
225.377099
 20
1.737999
 30
0.0
 11
225.934817
 21
1.738
 31
0.0
  0
ARC
  8
RAAMI
 10
225.937099
 20
3.837999
 30
0.0
 40
2.1
 50
269.937724
 51
37.056553
  0
LINE
  8
RAAMI
 10
225.377099
 20
5.097999
 30
0.0
 11
225.377099
 21
1.737999
 31
0.0
  0
LINE
  8
RAAMI
 10
227.617099
 20
5.097999
 30
0.0
 11
225.377099
 21
5.097999
 31
0.0
  0
LINE
  8
RAAMI
 10
225.377099
 20
5.377999
 30
0.0
 11
227.361542
 21
5.377999
 31
0.0
  0
LINE
  8
RAAMI
 10
225.377099
 20
8.737999
 30
0.0
 11
225.377099
 21
5.377999
 31
0.0
  0
LINE
  8
RAAMI
 10
225.377099
 20
8.737999
 30
0.0
 11
225.935658
 21
8.737999
 31
0.0
  0
ARC
  8
RAAMI
 10
225.937099
 20
7.162999
 30
0.0
 40
1.575
 50
298.455859
 51
90.052437
  0
LINE
  8
RAAMI
 10
223.137099
 20
5.377999
 30
0.0
 11
223.137099
 21
8.737999
 31
0.0
  0
LINE
  8
RAAMI
 10
225.097099
 20
1.737999
 30
0.0
 11
223.137099
 21
1.737999
 31
0.0
  0
LINE
  8
RAAMI
 10
225.097099
 20
5.097999
 30
0.0
 11
225.097099
 21
1.737999
 31
0.0
  0
LINE
  8
RAAMI
 10
223.137099
 20
5.097999
 30
0.0
 11
225.097099
 21
5.097999
 31
0.0
  0
LINE
  8
RAAMI
 10
225.097099
 20
5.377999
 30
0.0
 11
223.137099
 21
5.377999
 31
0.0
  0
LINE
  8
RAAMI
 10
225.097099
 20
8.737999
 30
0.0
 11
225.097099
 21
5.377999
 31
0.0
  0
LINE
  8
RAAMI
 10
223.137099
 20
8.737999
 30
0.0
 11
225.097099
 21
8.737999
 31
0.0
  0
LINE
  8
RAAMI
 10
223.137099
 20
1.737999
 30
0.0
 11
223.137099
 21
5.097999
 31
0.0
  0
TEXT
  8
RAAMI
 10
229.737099
 20
1.737999
 30
0.0
 40
3.0
  1
ABB 
 41
0.8
  7
ROMANS
  0
TEXT
  8
RAAMI
 10
237.737099
 20
1.737999
 30
0.0
 40
3.0
  1
Strömberg
 41
0.8
  7
ROMANS
  0
LINE
  8
OHUT
 10
282.237099
 20
9.737999
 30
0.0
 11
282.237099
 21
18.237999
 31
0.0
  0
TEXT
  8
RAAMI
 10
27.737099
 20
4.737999
 30
0.0
 40
1.4
  1
MUUTOS
  7
ROMANS
  0
TEXT
  8
RAAMI
 10
27.737099
 20
2.471333
 30
0.0
 40
1.4
  1
REVISION
  7
ROMANS
  0
LINE
  8
OHUT
 10
46.737099
 20
9.237999
 30
0.0
 11
209.237099
 21
9.237999
 31
0.0
  0
LINE
  8
OHUT
 10
46.737099
 20
0.237999
 30
0.0
 11
46.737099
 21
9.237999
 31
0.0
  0
LINE
  8
OHUT
 10
40.737099
 20
4.737999
 30
0.0
 11
209.237099
 21
4.737999
 31
0.0
  0
LINE
  8
OHUT
 10
257.237099
 20
9.737999
 30
0.0
 11
257.237099
 21
35.237999
 31
0.0
  0
LINE
  8
OHUT
 10
271.237099
 20
9.737999
 30
0.0
 11
271.237099
 21
0.237999
 31
0.0
  0
TEXT
  8
RAAMI
 10
210.237099
 20
32.237999
 30
0.0
 40
1.4
  1
TEKI  PREPARED
  7
ROMANS
  0
TEXT
  8
RAAMI
 10
273.237099
 20
7.237999
 30
0.0
 40
1.4
  1
VAST.OSASTO RESP.DEPT.
  7
ROMANS
  0
TEXT
  8
RAAMI
 10
257.407006
 20
1.741783
 30
0.0
 40
3.0
  1
Power
 41
0.8
  7
ROMANS
  0
TEXT
  8
RAAMI
 10
42.237099
 20
1.195292
 30
0.0
 40
2.5
  1
B
  7
ROMANS
  0
TEXT
  8
RAAMI
 10
42.237099
 20
5.587508
 30
0.0
 40
2.5
  1
C
  7
ROMANS
  0
LINE
  8
PAKSU
 10
0.237099
 20
0.237999
 30
0.0
 11
392.237099
 21
0.237999
 31
0.0
  0
LINE
  8
PAKSU
 10
392.237099
 20
262.737999
 30
0.0
 11
392.237099
 21
0.237999
 31
0.0
  0
LINE
  8
PAKSU
 10
0.237099
 20
0.237999
 30
0.0
 11
0.237099
 21
262.737999
 31
0.0
  0
ENDBLK
  8
0
  0
BLOCK
  8
0
  2
*X16
 70
    65
 10
0.0
 20
0.0
 30
0.0
  3
*X
  0
LINE
  8
0
 62
     0
 10
2.284499
 20
6.52714
 30
0.0
 11
4.8
 21
9.042641
 31
0.0
  0
LINE
  8
0
 62
     0
 10
2.379686
 20
6.799104
 30
0.0
 11
4.8
 21
9.219417
 31
0.0
  0
LINE
  8
0
 62
     0
 10
2.474874
 20
7.071068
 30
0.0
 11
4.8
 21
9.396194
 31
0.0
  0
LINE
  8
0
 62
     0
 10
2.570061
 20
7.343032
 30
0.0
 11
4.8
 21
9.572971
 31
0.0
  0
LINE
  8
0
 62
     0
 10
2.665249
 20
7.614996
 30
0.0
 11
4.8
 21
9.749747
 31
0.0
  0
LINE
  8
0
 62
     0
 10
2.760436
 20
7.88696
 30
0.0
 11
4.8
 21
9.926524
 31
0.0
  0
LINE
  8
0
 62
     0
 10
2.855624
 20
8.158924
 30
0.0
 11
4.696699
 21
10.0
 31
0.0
  0
LINE
  8
0
 62
     0
 10
2.950811
 20
8.430889
 30
0.0
 11
4.519922
 21
10.0
 31
0.0
  0
LINE
  8
0
 62
     0
 10
3.045998
 20
8.702853
 30
0.0
 11
4.343146
 21
10.0
 31
0.0
  0
LINE
  8
0
 62
     0
 10
3.141186
 20
8.974817
 30
0.0
 11
4.166369
 21
10.0
 31
0.0
  0
LINE
  8
0
 62
     0
 10
3.236373
 20
9.246781
 30
0.0
 11
3.989592
 21
10.0
 31
0.0
  0
LINE
  8
0
 62
     0
 10
3.331561
 20
9.518745
 30
0.0
 11
3.812816
 21
10.0
 31
0.0
  0
LINE
  8
0
 62
     0
 10
3.426748
 20
9.790709
 30
0.0
 11
3.636039
 21
10.0
 31
0.0
  0
LINE
  8
0
 62
     0
 10
2.189311
 20
6.255175
 30
0.0
 11
4.8
 21
8.865864
 31
0.0
  0
LINE
  8
0
 62
     0
 10
2.094124
 20
5.983211
 30
0.0
 11
4.8
 21
8.689087
 31
0.0
  0
LINE
  8
0
 62
     0
 10
1.998936
 20
5.711247
 30
0.0
 11
4.8
 21
8.512311
 31
0.0
  0
LINE
  8
0
 62
     0
 10
1.903749
 20
5.439283
 30
0.0
 11
4.8
 21
8.335534
 31
0.0
  0
LINE
  8
0
 62
     0
 10
1.841243
 20
5.2
 30
0.0
 11
4.8
 21
8.158757
 31
0.0
  0
LINE
  8
0
 62
     0
 10
2.018019
 20
5.2
 30
0.0
 11
4.8
 21
7.981981
 31
0.0
  0
LINE
  8
0
 62
     0
 10
2.194796
 20
5.2
 30
0.0
 11
4.8
 21
7.805204
 31
0.0
  0
LINE
  8
0
 62
     0
 10
2.371573
 20
5.2
 30
0.0
 11
4.8
 21
7.628427
 31
0.0
  0
LINE
  8
0
 62
     0
 10
2.54835
 20
5.2
 30
0.0
 11
4.8
 21
7.45165
 31
0.0
  0
LINE
  8
0
 62
     0
 10
2.725126
 20
5.2
 30
0.0
 11
4.8
 21
7.274874
 31
0.0
  0
LINE
  8
0
 62
     0
 10
2.901903
 20
5.2
 30
0.0
 11
4.8
 21
7.098097
 31
0.0
  0
LINE
  8
0
 62
     0
 10
3.07868
 20
5.2
 30
0.0
 11
4.8
 21
6.92132
 31
0.0
  0
LINE
  8
0
 62
     0
 10
3.255456
 20
5.2
 30
0.0
 11
4.8
 21
6.744544
 31
0.0
  0
LINE
  8
0
 62
     0
 10
3.432233
 20
5.2
 30
0.0
 11
4.8
 21
6.567767
 31
0.0
  0
LINE
  8
0
 62
     0
 10
3.60901
 20
5.2
 30
0.0
 11
4.8
 21
6.39099
 31
0.0
  0
LINE
  8
0
 62
     0
 10
3.785786
 20
5.2
 30
0.0
 11
4.8
 21
6.214214
 31
0.0
  0
LINE
  8
0
 62
     0
 10
3.962563
 20
5.2
 30
0.0
 11
4.8
 21
6.037437
 31
0.0
  0
LINE
  8
0
 62
     0
 10
4.13934
 20
5.2
 30
0.0
 11
4.8
 21
5.86066
 31
0.0
  0
LINE
  8
0
 62
     0
 10
4.316117
 20
5.2
 30
0.0
 11
4.8
 21
5.683883
 31
0.0
  0
LINE
  8
0
 62
     0
 10
4.492893
 20
5.2
 30
0.0
 11
4.8
 21
5.507107
 31
0.0
  0
LINE
  8
0
 62
     0
 10
4.66967
 20
5.2
 30
0.0
 11
4.8
 21
5.33033
 31
0.0
  0
ENDBLK
  8
0
  0
BLOCK
  8
0
  2
*X17
 70
    65
 10
0.0
 20
0.0
 30
0.0
  3
*X
  0
LINE
  8
0
 62
     0
 10
5.2
 20
6.083883
 30
0.0
 11
7.178252
 21
8.062136
 31
0.0
  0
LINE
  8
0
 62
     0
 10
5.2
 20
6.26066
 30
0.0
 11
7.132421
 21
8.193082
 31
0.0
  0
LINE
  8
0
 62
     0
 10
5.2
 20
6.437437
 30
0.0
 11
7.08659
 21
8.324027
 31
0.0
  0
LINE
  8
0
 62
     0
 10
5.2
 20
6.614214
 30
0.0
 11
7.040759
 21
8.454973
 31
0.0
  0
LINE
  8
0
 62
     0
 10
5.2
 20
6.79099
 30
0.0
 11
6.994928
 21
8.585919
 31
0.0
  0
LINE
  8
0
 62
     0
 10
5.2
 20
6.967767
 30
0.0
 11
6.949097
 21
8.716864
 31
0.0
  0
LINE
  8
0
 62
     0
 10
5.2
 20
7.144544
 30
0.0
 11
6.903266
 21
8.84781
 31
0.0
  0
LINE
  8
0
 62
     0
 10
5.2
 20
7.32132
 30
0.0
 11
6.857435
 21
8.978756
 31
0.0
  0
LINE
  8
0
 62
     0
 10
5.2
 20
7.498097
 30
0.0
 11
6.811604
 21
9.109702
 31
0.0
  0
LINE
  8
0
 62
     0
 10
5.2
 20
7.674874
 30
0.0
 11
6.765773
 21
9.240647
 31
0.0
  0
LINE
  8
0
 62
     0
 10
5.2
 20
7.85165
 30
0.0
 11
6.719942
 21
9.371593
 31
0.0
  0
LINE
  8
0
 62
     0
 10
5.2
 20
8.028427
 30
0.0
 11
6.674111
 21
9.502539
 31
0.0
  0
LINE
  8
0
 62
     0
 10
5.2
 20
8.205204
 30
0.0
 11
6.62828
 21
9.633484
 31
0.0
  0
LINE
  8
0
 62
     0
 10
5.2
 20
8.381981
 30
0.0
 11
6.582449
 21
9.76443
 31
0.0
  0
LINE
  8
0
 62
     0
 10
5.2
 20
8.558757
 30
0.0
 11
6.536619
 21
9.895376
 31
0.0
  0
LINE
  8
0
 62
     0
 10
5.2
 20
8.735534
 30
0.0
 11
6.464466
 21
10.0
 31
0.0
  0
LINE
  8
0
 62
     0
 10
5.2
 20
8.912311
 30
0.0
 11
6.287689
 21
10.0
 31
0.0
  0
LINE
  8
0
 62
     0
 10
5.2
 20
9.089087
 30
0.0
 11
6.110913
 21
10.0
 31
0.0
  0
LINE
  8
0
 62
     0
 10
5.2
 20
9.265864
 30
0.0
 11
5.934136
 21
10.0
 31
0.0
  0
LINE
  8
0
 62
     0
 10
5.2
 20
9.442641
 30
0.0
 11
5.757359
 21
10.0
 31
0.0
  0
LINE
  8
0
 62
     0
 10
5.2
 20
9.619417
 30
0.0
 11
5.580583
 21
10.0
 31
0.0
  0
LINE
  8
0
 62
     0
 10
5.2
 20
9.796194
 30
0.0
 11
5.403806
 21
10.0
 31
0.0
  0
LINE
  8
0
 62
     0
 10
5.2
 20
9.972971
 30
0.0
 11
5.227029
 21
10.0
 31
0.0
  0
LINE
  8
0
 62
     0
 10
5.2
 20
5.907107
 30
0.0
 11
7.224083
 21
7.93119
 31
0.0
  0
LINE
  8
0
 62
     0
 10
5.2
 20
5.73033
 30
0.0
 11
7.269914
 21
7.800245
 31
0.0
  0
LINE
  8
0
 62
     0
 10
5.2
 20
5.553553
 30
0.0
 11
7.315745
 21
7.669299
 31
0.0
  0
LINE
  8
0
 62
     0
 10
5.2
 20
5.376777
 30
0.0
 11
7.361576
 21
7.538353
 31
0.0
  0
LINE
  8
0
 62
     0
 10
5.2
 20
5.2
 30
0.0
 11
7.407407
 21
7.407407
 31
0.0
  0
LINE
  8
0
 62
     0
 10
5.376777
 20
5.2
 30
0.0
 11
7.453238
 21
7.276462
 31
0.0
  0
LINE
  8
0
 62
     0
 10
5.553553
 20
5.2
 30
0.0
 11
7.499069
 21
7.145516
 31
0.0
  0
LINE
  8
0
 62
     0
 10
5.73033
 20
5.2
 30
0.0
 11
7.5449
 21
7.01457
 31
0.0
  0
LINE
  8
0
 62
     0
 10
5.907107
 20
5.2
 30
0.0
 11
7.590731
 21
6.883625
 31
0.0
  0
LINE
  8
0
 62
     0
 10
6.083883
 20
5.2
 30
0.0
 11
7.636562
 21
6.752679
 31
0.0
  0
LINE
  8
0
 62
     0
 10
6.26066
 20
5.2
 30
0.0
 11
7.682393
 21
6.621733
 31
0.0
  0
LINE
  8
0
 62
     0
 10
6.437437
 20
5.2
 30
0.0
 11
7.728224
 21
6.490788
 31
0.0
  0
LINE
  8
0
 62
     0
 10
6.614214
 20
5.2
 30
0.0
 11
7.774055
 21
6.359842
 31
0.0
  0
LINE
  8
0
 62
     0
 10
6.79099
 20
5.2
 30
0.0
 11
7.819886
 21
6.228896
 31
0.0
  0
LINE
  8
0
 62
     0
 10
6.967767
 20
5.2
 30
0.0
 11
7.865717
 21
6.09795
 31
0.0
  0
LINE
  8
0
 62
     0
 10
7.144544
 20
5.2
 30
0.0
 11
7.911548
 21
5.967005
 31
0.0
  0
LINE
  8
0
 62
     0
 10
7.32132
 20
5.2
 30
0.0
 11
7.957379
 21
5.836059
 31
0.0
  0
LINE
  8
0
 62
     0
 10
7.498097
 20
5.2
 30
0.0
 11
8.00321
 21
5.705113
 31
0.0
  0
LINE
  8
0
 62
     0
 10
7.674874
 20
5.2
 30
0.0
 11
8.049041
 21
5.574168
 31
0.0
  0
LINE
  8
0
 62
     0
 10
7.85165
 20
5.2
 30
0.0
 11
8.094872
 21
5.443222
 31
0.0
  0
LINE
  8
0
 62
     0
 10
8.028427
 20
5.2
 30
0.0
 11
8.140703
 21
5.312276
 31
0.0
  0
ENDBLK
  8
0
  0
BLOCK
  8
0
  2
*X18
 70
    65
 10
0.0
 20
0.0
 30
0.0
  3
*X
  0
LINE
  8
0
 62
     0
 10
0.0
 20
0.0
 30
0.0
 11
4.8
 21
4.8
 31
0.0
  0
LINE
  8
0
 62
     0
 10
0.095187
 20
0.271964
 30
0.0
 11
4.623223
 21
4.8
 31
0.0
  0
LINE
  8
0
 62
     0
 10
0.190375
 20
0.543928
 30
0.0
 11
4.446447
 21
4.8
 31
0.0
  0
LINE
  8
0
 62
     0
 10
0.285562
 20
0.815892
 30
0.0
 11
4.26967
 21
4.8
 31
0.0
  0
LINE
  8
0
 62
     0
 10
0.38075
 20
1.087857
 30
0.0
 11
4.092893
 21
4.8
 31
0.0
  0
LINE
  8
0
 62
     0
 10
0.475937
 20
1.359821
 30
0.0
 11
3.916117
 21
4.8
 31
0.0
  0
LINE
  8
0
 62
     0
 10
0.571125
 20
1.631785
 30
0.0
 11
3.73934
 21
4.8
 31
0.0
  0
LINE
  8
0
 62
     0
 10
0.666312
 20
1.903749
 30
0.0
 11
3.562563
 21
4.8
 31
0.0
  0
LINE
  8
0
 62
     0
 10
0.7615
 20
2.175713
 30
0.0
 11
3.385786
 21
4.8
 31
0.0
  0
LINE
  8
0
 62
     0
 10
0.856687
 20
2.447677
 30
0.0
 11
3.20901
 21
4.8
 31
0.0
  0
LINE
  8
0
 62
     0
 10
0.951875
 20
2.719641
 30
0.0
 11
3.032233
 21
4.8
 31
0.0
  0
LINE
  8
0
 62
     0
 10
1.047062
 20
2.991606
 30
0.0
 11
2.855456
 21
4.8
 31
0.0
  0
LINE
  8
0
 62
     0
 10
1.142249
 20
3.26357
 30
0.0
 11
2.67868
 21
4.8
 31
0.0
  0
LINE
  8
0
 62
     0
 10
1.237437
 20
3.535534
 30
0.0
 11
2.501903
 21
4.8
 31
0.0
  0
LINE
  8
0
 62
     0
 10
1.332624
 20
3.807498
 30
0.0
 11
2.325126
 21
4.8
 31
0.0
  0
LINE
  8
0
 62
     0
 10
1.427812
 20
4.079462
 30
0.0
 11
2.14835
 21
4.8
 31
0.0
  0
LINE
  8
0
 62
     0
 10
1.522999
 20
4.351426
 30
0.0
 11
1.971573
 21
4.8
 31
0.0
  0
LINE
  8
0
 62
     0
 10
1.618187
 20
4.62339
 30
0.0
 11
1.794796
 21
4.8
 31
0.0
  0
LINE
  8
0
 62
     0
 10
0.176777
 20
0.0
 30
0.0
 11
4.8
 21
4.623223
 31
0.0
  0
LINE
  8
0
 62
     0
 10
0.353553
 20
0.0
 30
0.0
 11
4.8
 21
4.446447
 31
0.0
  0
LINE
  8
0
 62
     0
 10
0.53033
 20
0.0
 30
0.0
 11
4.8
 21
4.26967
 31
0.0
  0
LINE
  8
0
 62
     0
 10
0.707107
 20
0.0
 30
0.0
 11
4.8
 21
4.092893
 31
0.0
  0
LINE
  8
0
 62
     0
 10
0.883883
 20
0.0
 30
0.0
 11
4.8
 21
3.916117
 31
0.0
  0
LINE
  8
0
 62
     0
 10
1.06066
 20
0.0
 30
0.0
 11
4.8
 21
3.73934
 31
0.0
  0
LINE
  8
0
 62
     0
 10
1.237437
 20
0.0
 30
0.0
 11
3.179842
 21
1.942405
 31
0.0
  0
LINE
  8
0
 62
     0
 10
3.237437
 20
2.0
 30
0.0
 11
4.8
 21
3.562563
 31
0.0
  0
LINE
  8
0
 62
     0
 10
1.414214
 20
0.0
 30
0.0
 11
3.084654
 21
1.670441
 31
0.0
  0
LINE
  8
0
 62
     0
 10
3.414214
 20
2.0
 30
0.0
 11
4.8
 21
3.385786
 31
0.0
  0
LINE
  8
0
 62
     0
 10
1.59099
 20
0.0
 30
0.0
 11
2.989467
 21
1.398477
 31
0.0
  0
LINE
  8
0
 62
     0
 10
3.59099
 20
2.0
 30
0.0
 11
4.8
 21
3.20901
 31
0.0
  0
LINE
  8
0
 62
     0
 10
1.767767
 20
0.0
 30
0.0
 11
2.894279
 21
1.126512
 31
0.0
  0
LINE
  8
0
 62
     0
 10
3.767767
 20
2.0
 30
0.0
 11
4.8
 21
3.032233
 31
0.0
  0
LINE
  8
0
 62
     0
 10
1.944544
 20
0.0
 30
0.0
 11
2.799092
 21
0.854548
 31
0.0
  0
LINE
  8
0
 62
     0
 10
3.944544
 20
2.0
 30
0.0
 11
4.8
 21
2.855456
 31
0.0
  0
LINE
  8
0
 62
     0
 10
2.12132
 20
0.0
 30
0.0
 11
2.703904
 21
0.582584
 31
0.0
  0
LINE
  8
0
 62
     0
 10
4.12132
 20
2.0
 30
0.0
 11
4.8
 21
2.67868
 31
0.0
  0
LINE
  8
0
 62
     0
 10
2.298097
 20
0.0
 30
0.0
 11
2.608717
 21
0.31062
 31
0.0
  0
LINE
  8
0
 62
     0
 10
4.298097
 20
2.0
 30
0.0
 11
4.8
 21
2.501903
 31
0.0
  0
LINE
  8
0
 62
     0
 10
2.474874
 20
0.0
 30
0.0
 11
2.51353
 21
0.038656
 31
0.0
  0
LINE
  8
0
 62
     0
 10
4.474874
 20
2.0
 30
0.0
 11
4.8
 21
2.325126
 31
0.0
  0
LINE
  8
0
 62
     0
 10
4.65165
 20
2.0
 30
0.0
 11
4.8
 21
2.14835
 31
0.0
  0
ENDBLK
  8
0
  0
BLOCK
  8
0
  2
*X19
 70
    65
 10
0.0
 20
0.0
 30
0.0
  3
*X
  0
LINE
  8
0
 62
     0
 10
6.884654
 20
1.75813
 30
0.0
 11
8.736506
 21
3.609982
 31
0.0
  0
LINE
  8
0
 62
     0
 10
6.838823
 20
1.889076
 30
0.0
 11
8.690675
 21
3.740928
 31
0.0
  0
LINE
  8
0
 62
     0
 10
6.772971
 20
2.0
 30
0.0
 11
8.644844
 21
3.871874
 31
0.0
  0
LINE
  8
0
 62
     0
 10
6.596194
 20
2.0
 30
0.0
 11
8.599013
 21
4.002819
 31
0.0
  0
LINE
  8
0
 62
     0
 10
6.419417
 20
2.0
 30
0.0
 11
8.553182
 21
4.133765
 31
0.0
  0
LINE
  8
0
 62
     0
 10
6.242641
 20
2.0
 30
0.0
 11
8.507351
 21
4.264711
 31
0.0
  0
LINE
  8
0
 62
     0
 10
6.065864
 20
2.0
 30
0.0
 11
8.46152
 21
4.395656
 31
0.0
  0
LINE
  8
0
 62
     0
 10
5.889087
 20
2.0
 30
0.0
 11
8.415689
 21
4.526602
 31
0.0
  0
LINE
  8
0
 62
     0
 10
5.712311
 20
2.0
 30
0.0
 11
8.369858
 21
4.657548
 31
0.0
  0
LINE
  8
0
 62
     0
 10
5.535534
 20
2.0
 30
0.0
 11
8.324027
 21
4.788493
 31
0.0
  0
LINE
  8
0
 62
     0
 10
5.358757
 20
2.0
 30
0.0
 11
8.158757
 21
4.8
 31
0.0
  0
LINE
  8
0
 62
     0
 10
5.2
 20
2.018019
 30
0.0
 11
7.981981
 21
4.8
 31
0.0
  0
LINE
  8
0
 62
     0
 10
5.2
 20
2.194796
 30
0.0
 11
7.805204
 21
4.8
 31
0.0
  0
LINE
  8
0
 62
     0
 10
5.2
 20
2.371573
 30
0.0
 11
7.628427
 21
4.8
 31
0.0
  0
LINE
  8
0
 62
     0
 10
5.2
 20
2.54835
 30
0.0
 11
7.45165
 21
4.8
 31
0.0
  0
LINE
  8
0
 62
     0
 10
5.2
 20
2.725126
 30
0.0
 11
7.274874
 21
4.8
 31
0.0
  0
LINE
  8
0
 62
     0
 10
5.2
 20
2.901903
 30
0.0
 11
7.098097
 21
4.8
 31
0.0
  0
LINE
  8
0
 62
     0
 10
5.2
 20
3.07868
 30
0.0
 11
6.92132
 21
4.8
 31
0.0
  0
LINE
  8
0
 62
     0
 10
5.2
 20
3.255456
 30
0.0
 11
6.744544
 21
4.8
 31
0.0
  0
LINE
  8
0
 62
     0
 10
5.2
 20
3.432233
 30
0.0
 11
6.567767
 21
4.8
 31
0.0
  0
LINE
  8
0
 62
     0
 10
5.2
 20
3.60901
 30
0.0
 11
6.39099
 21
4.8
 31
0.0
  0
LINE
  8
0
 62
     0
 10
5.2
 20
3.785786
 30
0.0
 11
6.214214
 21
4.8
 31
0.0
  0
LINE
  8
0
 62
     0
 10
5.2
 20
3.962563
 30
0.0
 11
6.037437
 21
4.8
 31
0.0
  0
LINE
  8
0
 62
     0
 10
5.2
 20
4.13934
 30
0.0
 11
5.86066
 21
4.8
 31
0.0
  0
LINE
  8
0
 62
     0
 10
5.2
 20
4.316117
 30
0.0
 11
5.683883
 21
4.8
 31
0.0
  0
LINE
  8
0
 62
     0
 10
5.2
 20
4.492893
 30
0.0
 11
5.507107
 21
4.8
 31
0.0
  0
LINE
  8
0
 62
     0
 10
5.2
 20
4.66967
 30
0.0
 11
5.33033
 21
4.8
 31
0.0
  0
LINE
  8
0
 62
     0
 10
6.930485
 20
1.627185
 30
0.0
 11
8.782337
 21
3.479036
 31
0.0
  0
LINE
  8
0
 62
     0
 10
6.976316
 20
1.496239
 30
0.0
 11
8.828168
 21
3.348091
 31
0.0
  0
LINE
  8
0
 62
     0
 10
7.022147
 20
1.365293
 30
0.0
 11
8.873999
 21
3.217145
 31
0.0
  0
LINE
  8
0
 62
     0
 10
7.067978
 20
1.234347
 30
0.0
 11
8.91983
 21
3.086199
 31
0.0
  0
LINE
  8
0
 62
     0
 10
7.113809
 20
1.103402
 30
0.0
 11
8.965661
 21
2.955254
 31
0.0
  0
LINE
  8
0
 62
     0
 10
7.15964
 20
0.972456
 30
0.0
 11
9.011492
 21
2.824308
 31
0.0
  0
LINE
  8
0
 62
     0
 10
7.205471
 20
0.84151
 30
0.0
 11
9.057323
 21
2.693362
 31
0.0
  0
LINE
  8
0
 62
     0
 10
7.251302
 20
0.710565
 30
0.0
 11
9.103154
 21
2.562416
 31
0.0
  0
LINE
  8
0
 62
     0
 10
7.297133
 20
0.579619
 30
0.0
 11
9.148985
 21
2.431471
 31
0.0
  0
LINE
  8
0
 62
     0
 10
7.342964
 20
0.448673
 30
0.0
 11
9.194816
 21
2.300525
 31
0.0
  0
LINE
  8
0
 62
     0
 10
7.388795
 20
0.317728
 30
0.0
 11
9.240647
 21
2.169579
 31
0.0
  0
LINE
  8
0
 62
     0
 10
7.434626
 20
0.186782
 30
0.0
 11
9.286478
 21
2.038634
 31
0.0
  0
LINE
  8
0
 62
     0
 10
7.480457
 20
0.055836
 30
0.0
 11
9.332309
 21
1.907688
 31
0.0
  0
LINE
  8
0
 62
     0
 10
7.601398
 20
0.0
 30
0.0
 11
9.37814
 21
1.776742
 31
0.0
  0
LINE
  8
0
 62
     0
 10
7.778175
 20
0.0
 30
0.0
 11
9.423971
 21
1.645797
 31
0.0
  0
LINE
  8
0
 62
     0
 10
7.954951
 20
0.0
 30
0.0
 11
9.469802
 21
1.514851
 31
0.0
  0
LINE
  8
0
 62
     0
 10
8.131728
 20
0.0
 30
0.0
 11
9.515633
 21
1.383905
 31
0.0
  0
LINE
  8
0
 62
     0
 10
8.308505
 20
0.0
 30
0.0
 11
9.561464
 21
1.252959
 31
0.0
  0
LINE
  8
0
 62
     0
 10
8.485281
 20
0.0
 30
0.0
 11
9.607295
 21
1.122014
 31
0.0
  0
LINE
  8
0
 62
     0
 10
8.662058
 20
0.0
 30
0.0
 11
9.653126
 21
0.991068
 31
0.0
  0
LINE
  8
0
 62
     0
 10
8.838835
 20
0.0
 30
0.0
 11
9.698957
 21
0.860122
 31
0.0
  0
LINE
  8
0
 62
     0
 10
9.015611
 20
0.0
 30
0.0
 11
9.744788
 21
0.729177
 31
0.0
  0
LINE
  8
0
 62
     0
 10
9.192388
 20
0.0
 30
0.0
 11
9.790619
 21
0.598231
 31
0.0
  0
LINE
  8
0
 62
     0
 10
9.369165
 20
0.0
 30
0.0
 11
9.83645
 21
0.467285
 31
0.0
  0
LINE
  8
0
 62
     0
 10
9.545942
 20
0.0
 30
0.0
 11
9.882281
 21
0.33634
 31
0.0
  0
LINE
  8
0
 62
     0
 10
9.722718
 20
0.0
 30
0.0
 11
9.928112
 21
0.205394
 31
0.0
  0
LINE
  8
0
 62
     0
 10
9.899495
 20
0.0
 30
0.0
 11
9.973943
 21
0.074448
 31
0.0
  0
ENDBLK
  8
0
  0
BLOCK
  8
0
  2
*X20
 70
    65
 10
0.0
 20
0.0
 30
0.0
  3
*X
  0
LINE
  8
0
 62
     0
 10
10.7
 20
6.280583
 30
0.0
 11
13.5
 21
9.080583
 31
0.0
  0
LINE
  8
0
 62
     0
 10
10.7
 20
6.457359
 30
0.0
 11
13.5
 21
9.257359
 31
0.0
  0
LINE
  8
0
 62
     0
 10
10.7
 20
6.634136
 30
0.0
 11
13.5
 21
9.434136
 31
0.0
  0
LINE
  8
0
 62
     0
 10
10.7
 20
6.810913
 30
0.0
 11
13.5
 21
9.610913
 31
0.0
  0
LINE
  8
0
 62
     0
 10
10.7
 20
6.987689
 30
0.0
 11
13.5
 21
9.787689
 31
0.0
  0
LINE
  8
0
 62
     0
 10
10.7
 20
7.164466
 30
0.0
 11
13.5
 21
9.964466
 31
0.0
  0
LINE
  8
0
 62
     0
 10
10.7
 20
7.341243
 30
0.0
 11
13.358757
 21
10.0
 31
0.0
  0
LINE
  8
0
 62
     0
 10
10.7
 20
7.518019
 30
0.0
 11
13.181981
 21
10.0
 31
0.0
  0
LINE
  8
0
 62
     0
 10
10.7
 20
7.694796
 30
0.0
 11
13.005204
 21
10.0
 31
0.0
  0
LINE
  8
0
 62
     0
 10
10.7
 20
7.871573
 30
0.0
 11
12.828427
 21
10.0
 31
0.0
  0
LINE
  8
0
 62
     0
 10
10.7
 20
8.04835
 30
0.0
 11
12.65165
 21
10.0
 31
0.0
  0
LINE
  8
0
 62
     0
 10
10.7
 20
8.225126
 30
0.0
 11
12.474874
 21
10.0
 31
0.0
  0
LINE
  8
0
 62
     0
 10
10.7
 20
8.401903
 30
0.0
 11
12.298097
 21
10.0
 31
0.0
  0
LINE
  8
0
 62
     0
 10
10.7
 20
8.57868
 30
0.0
 11
12.12132
 21
10.0
 31
0.0
  0
LINE
  8
0
 62
     0
 10
10.7
 20
8.755456
 30
0.0
 11
11.944544
 21
10.0
 31
0.0
  0
LINE
  8
0
 62
     0
 10
10.7
 20
8.932233
 30
0.0
 11
11.767767
 21
10.0
 31
0.0
  0
LINE
  8
0
 62
     0
 10
10.7
 20
9.10901
 30
0.0
 11
11.59099
 21
10.0
 31
0.0
  0
LINE
  8
0
 62
     0
 10
10.7
 20
9.285786
 30
0.0
 11
11.414214
 21
10.0
 31
0.0
  0
LINE
  8
0
 62
     0
 10
10.7
 20
9.462563
 30
0.0
 11
11.237437
 21
10.0
 31
0.0
  0
LINE
  8
0
 62
     0
 10
10.7
 20
9.63934
 30
0.0
 11
11.06066
 21
10.0
 31
0.0
  0
LINE
  8
0
 62
     0
 10
10.7
 20
9.816117
 30
0.0
 11
10.883883
 21
10.0
 31
0.0
  0
LINE
  8
0
 62
     0
 10
10.7
 20
9.992893
 30
0.0
 11
10.707107
 21
10.0
 31
0.0
  0
LINE
  8
0
 62
     0
 10
10.7
 20
6.103806
 30
0.0
 11
13.5
 21
8.903806
 31
0.0
  0
LINE
  8
0
 62
     0
 10
10.7
 20
5.927029
 30
0.0
 11
13.5
 21
8.727029
 31
0.0
  0
LINE
  8
0
 62
     0
 10
10.7
 20
5.750253
 30
0.0
 11
13.5
 21
8.550253
 31
0.0
  0
LINE
  8
0
 62
     0
 10
10.7
 20
5.573476
 30
0.0
 11
13.5
 21
8.373476
 31
0.0
  0
LINE
  8
0
 62
     0
 10
10.7
 20
5.396699
 30
0.0
 11
13.5
 21
8.196699
 31
0.0
  0
LINE
  8
0
 62
     0
 10
10.7
 20
5.219922
 30
0.0
 11
13.5
 21
8.019922
 31
0.0
  0
LINE
  8
0
 62
     0
 10
10.856854
 20
5.2
 30
0.0
 11
13.5
 21
7.843146
 31
0.0
  0
LINE
  8
0
 62
     0
 10
11.033631
 20
5.2
 30
0.0
 11
13.5
 21
7.666369
 31
0.0
  0
LINE
  8
0
 62
     0
 10
11.210408
 20
5.2
 30
0.0
 11
13.5
 21
7.489592
 31
0.0
  0
LINE
  8
0
 62
     0
 10
11.387184
 20
5.2
 30
0.0
 11
13.5
 21
7.312816
 31
0.0
  0
LINE
  8
0
 62
     0
 10
11.563961
 20
5.2
 30
0.0
 11
13.5
 21
7.136039
 31
0.0
  0
LINE
  8
0
 62
     0
 10
11.740738
 20
5.2
 30
0.0
 11
13.5
 21
6.959262
 31
0.0
  0
LINE
  8
0
 62
     0
 10
11.917514
 20
5.2
 30
0.0
 11
13.5
 21
6.782486
 31
0.0
  0
LINE
  8
0
 62
     0
 10
12.094291
 20
5.2
 30
0.0
 11
13.5
 21
6.605709
 31
0.0
  0
LINE
  8
0
 62
     0
 10
12.271068
 20
5.2
 30
0.0
 11
13.5
 21
6.428932
 31
0.0
  0
LINE
  8
0
 62
     0
 10
12.447845
 20
5.2
 30
0.0
 11
13.5
 21
6.252155
 31
0.0
  0
LINE
  8
0
 62
     0
 10
12.624621
 20
5.2
 30
0.0
 11
13.5
 21
6.075379
 31
0.0
  0
LINE
  8
0
 62
     0
 10
12.801398
 20
5.2
 30
0.0
 11
13.5
 21
5.898602
 31
0.0
  0
LINE
  8
0
 62
     0
 10
12.978175
 20
5.2
 30
0.0
 11
13.5
 21
5.721825
 31
0.0
  0
LINE
  8
0
 62
     0
 10
13.154951
 20
5.2
 30
0.0
 11
13.5
 21
5.545049
 31
0.0
  0
LINE
  8
0
 62
     0
 10
13.331728
 20
5.2
 30
0.0
 11
13.5
 21
5.368272
 31
0.0
  0
ENDBLK
  8
0
  0
BLOCK
  8
0
  2
*X21
 70
    65
 10
0.0
 20
0.0
 30
0.0
  3
*X
  0
LINE
  8
0
 62
     0
 10
10.7
 20
1.154058
 30
0.0
 11
13.5
 21
3.954058
 31
0.0
  0
LINE
  8
0
 62
     0
 10
10.7
 20
1.330835
 30
0.0
 11
13.5
 21
4.130835
 31
0.0
  0
LINE
  8
0
 62
     0
 10
10.7
 20
1.507612
 30
0.0
 11
13.5
 21
4.307612
 31
0.0
  0
LINE
  8
0
 62
     0
 10
10.7
 20
1.684389
 30
0.0
 11
13.5
 21
4.484389
 31
0.0
  0
LINE
  8
0
 62
     0
 10
10.7
 20
1.861165
 30
0.0
 11
13.5
 21
4.661165
 31
0.0
  0
LINE
  8
0
 62
     0
 10
10.7
 20
2.037942
 30
0.0
 11
13.462058
 21
4.8
 31
0.0
  0
LINE
  8
0
 62
     0
 10
10.7
 20
2.214719
 30
0.0
 11
13.285281
 21
4.8
 31
0.0
  0
LINE
  8
0
 62
     0
 10
10.7
 20
2.391495
 30
0.0
 11
13.108505
 21
4.8
 31
0.0
  0
LINE
  8
0
 62
     0
 10
10.7
 20
2.568272
 30
0.0
 11
12.931728
 21
4.8
 31
0.0
  0
LINE
  8
0
 62
     0
 10
10.7
 20
2.745049
 30
0.0
 11
12.754951
 21
4.8
 31
0.0
  0
LINE
  8
0
 62
     0
 10
10.7
 20
2.921825
 30
0.0
 11
12.578175
 21
4.8
 31
0.0
  0
LINE
  8
0
 62
     0
 10
10.7
 20
3.098602
 30
0.0
 11
12.401398
 21
4.8
 31
0.0
  0
LINE
  8
0
 62
     0
 10
10.7
 20
3.275379
 30
0.0
 11
12.224621
 21
4.8
 31
0.0
  0
LINE
  8
0
 62
     0
 10
10.7
 20
3.452155
 30
0.0
 11
12.047845
 21
4.8
 31
0.0
  0
LINE
  8
0
 62
     0
 10
10.7
 20
3.628932
 30
0.0
 11
11.871068
 21
4.8
 31
0.0
  0
LINE
  8
0
 62
     0
 10
10.7
 20
3.805709
 30
0.0
 11
11.694291
 21
4.8
 31
0.0
  0
LINE
  8
0
 62
     0
 10
10.7
 20
3.982486
 30
0.0
 11
11.517514
 21
4.8
 31
0.0
  0
LINE
  8
0
 62
     0
 10
10.7
 20
4.159262
 30
0.0
 11
11.340738
 21
4.8
 31
0.0
  0
LINE
  8
0
 62
     0
 10
10.7
 20
4.336039
 30
0.0
 11
11.163961
 21
4.8
 31
0.0
  0
LINE
  8
0
 62
     0
 10
10.7
 20
4.512816
 30
0.0
 11
10.987184
 21
4.8
 31
0.0
  0
LINE
  8
0
 62
     0
 10
10.7
 20
4.689592
 30
0.0
 11
10.810408
 21
4.8
 31
0.0
  0
LINE
  8
0
 62
     0
 10
10.7
 20
0.977282
 30
0.0
 11
13.5
 21
3.777282
 31
0.0
  0
LINE
  8
0
 62
     0
 10
10.7
 20
0.800505
 30
0.0
 11
13.5
 21
3.600505
 31
0.0
  0
LINE
  8
0
 62
     0
 10
10.7
 20
0.623728
 30
0.0
 11
13.5
 21
3.423728
 31
0.0
  0
LINE
  8
0
 62
     0
 10
10.7
 20
0.446952
 30
0.0
 11
13.5
 21
3.246952
 31
0.0
  0
LINE
  8
0
 62
     0
 10
10.7
 20
0.270175
 30
0.0
 11
13.5
 21
3.070175
 31
0.0
  0
LINE
  8
0
 62
     0
 10
10.7
 20
0.093398
 30
0.0
 11
13.5
 21
2.893398
 31
0.0
  0
LINE
  8
0
 62
     0
 10
10.783378
 20
0.0
 30
0.0
 11
13.5
 21
2.716622
 31
0.0
  0
LINE
  8
0
 62
     0
 10
10.960155
 20
0.0
 30
0.0
 11
13.5
 21
2.539845
 31
0.0
  0
LINE
  8
0
 62
     0
 10
11.136932
 20
0.0
 30
0.0
 11
13.5
 21
2.363068
 31
0.0
  0
LINE
  8
0
 62
     0
 10
11.313708
 20
0.0
 30
0.0
 11
13.5
 21
2.186292
 31
0.0
  0
LINE
  8
0
 62
     0
 10
11.490485
 20
0.0
 30
0.0
 11
13.5
 21
2.009515
 31
0.0
  0
LINE
  8
0
 62
     0
 10
11.667262
 20
0.0
 30
0.0
 11
13.5
 21
1.832738
 31
0.0
  0
LINE
  8
0
 62
     0
 10
11.844039
 20
0.0
 30
0.0
 11
13.5
 21
1.655961
 31
0.0
  0
LINE
  8
0
 62
     0
 10
12.020815
 20
0.0
 30
0.0
 11
13.5
 21
1.479185
 31
0.0
  0
LINE
  8
0
 62
     0
 10
12.197592
 20
0.0
 30
0.0
 11
13.5
 21
1.302408
 31
0.0
  0
LINE
  8
0
 62
     0
 10
12.374369
 20
0.0
 30
0.0
 11
13.5
 21
1.125631
 31
0.0
  0
LINE
  8
0
 62
     0
 10
12.551145
 20
0.0
 30
0.0
 11
13.5
 21
0.948855
 31
0.0
  0
LINE
  8
0
 62
     0
 10
12.727922
 20
0.0
 30
0.0
 11
13.5
 21
0.772078
 31
0.0
  0
LINE
  8
0
 62
     0
 10
12.904699
 20
0.0
 30
0.0
 11
13.5
 21
0.595301
 31
0.0
  0
LINE
  8
0
 62
     0
 10
13.081475
 20
0.0
 30
0.0
 11
13.5
 21
0.418525
 31
0.0
  0
LINE
  8
0
 62
     0
 10
13.258252
 20
0.0
 30
0.0
 11
13.5
 21
0.241748
 31
0.0
  0
LINE
  8
0
 62
     0
 10
13.435029
 20
0.0
 30
0.0
 11
13.5
 21
0.064971
 31
0.0
  0
ENDBLK
  8
0
  0
BLOCK
  8
0
  2
*X22
 70
    65
 10
0.0
 20
0.0
 30
0.0
  3
*X
  0
LINE
  8
0
 62
     0
 10
13.9
 20
6.298602
 30
0.0
 11
16.582995
 21
8.981597
 31
0.0
  0
LINE
  8
0
 62
     0
 10
13.9
 20
6.475379
 30
0.0
 11
16.510503
 21
9.085882
 31
0.0
  0
LINE
  8
0
 62
     0
 10
13.9
 20
6.652155
 30
0.0
 11
16.432927
 21
9.185083
 31
0.0
  0
LINE
  8
0
 62
     0
 10
13.9
 20
6.828932
 30
0.0
 11
16.350372
 21
9.279304
 31
0.0
  0
LINE
  8
0
 62
     0
 10
13.9
 20
7.005709
 30
0.0
 11
16.262892
 21
9.368601
 31
0.0
  0
LINE
  8
0
 62
     0
 10
13.9
 20
7.182486
 30
0.0
 11
16.170495
 21
9.452981
 31
0.0
  0
LINE
  8
0
 62
     0
 10
13.9
 20
7.359262
 30
0.0
 11
16.073145
 21
9.532407
 31
0.0
  0
LINE
  8
0
 62
     0
 10
13.9
 20
7.536039
 30
0.0
 11
15.970755
 21
9.606794
 31
0.0
  0
LINE
  8
0
 62
     0
 10
13.9
 20
7.712816
 30
0.0
 11
15.863189
 21
9.676004
 31
0.0
  0
LINE
  8
0
 62
     0
 10
13.9
 20
7.889592
 30
0.0
 11
15.75025
 21
9.739843
 31
0.0
  0
LINE
  8
0
 62
     0
 10
13.9
 20
8.066369
 30
0.0
 11
15.631675
 21
9.798044
 31
0.0
  0
LINE
  8
0
 62
     0
 10
13.9
 20
8.243146
 30
0.0
 11
15.50711
 21
9.850256
 31
0.0
  0
LINE
  8
0
 62
     0
 10
13.9
 20
8.419922
 30
0.0
 11
15.376096
 21
9.896018
 31
0.0
  0
LINE
  8
0
 62
     0
 10
13.9
 20
8.596699
 30
0.0
 11
15.238027
 21
9.934726
 31
0.0
  0
LINE
  8
0
 62
     0
 10
13.9
 20
8.773476
 30
0.0
 11
15.092096
 21
9.965572
 31
0.0
  0
LINE
  8
0
 62
     0
 10
13.9
 20
8.950253
 30
0.0
 11
14.937209
 21
9.987461
 31
0.0
  0
LINE
  8
0
 62
     0
 10
13.9
 20
9.127029
 30
0.0
 11
14.771824
 21
9.998853
 31
0.0
  0
LINE
  8
0
 62
     0
 10
13.9
 20
9.303806
 30
0.0
 11
14.596193
 21
9.999999
 31
0.0
  0
LINE
  8
0
 62
     0
 10
13.9
 20
9.480583
 30
0.0
 11
14.419417
 21
9.999999
 31
0.0
  0
LINE
  8
0
 62
     0
 10
13.9
 20
9.657359
 30
0.0
 11
14.24264
 21
10.0
 31
0.0
  0
LINE
  8
0
 62
     0
 10
13.9
 20
9.834136
 30
0.0
 11
14.065864
 21
10.0
 31
0.0
  0
LINE
  8
0
 62
     0
 10
13.9
 20
6.121825
 30
0.0
 11
16.650245
 21
8.872071
 31
0.0
  0
LINE
  8
0
 62
     0
 10
13.9
 20
5.945049
 30
0.0
 11
16.712035
 21
8.757083
 31
0.0
  0
LINE
  8
0
 62
     0
 10
13.9
 20
5.768272
 30
0.0
 11
16.768067
 21
8.636339
 31
0.0
  0
LINE
  8
0
 62
     0
 10
13.9
 20
5.591495
 30
0.0
 11
16.817955
 21
8.509451
 31
0.0
  0
LINE
  8
0
 62
     0
 10
13.9
 20
5.414719
 30
0.0
 11
16.861189
 21
8.375908
 31
0.0
  0
LINE
  8
0
 62
     0
 10
13.9
 20
5.237942
 30
0.0
 11
16.897097
 21
8.235039
 31
0.0
  0
LINE
  8
0
 62
     0
 10
14.038835
 20
5.2
 30
0.0
 11
16.924779
 21
8.085944
 31
0.0
  0
LINE
  8
0
 62
     0
 10
14.215611
 20
5.2
 30
0.0
 11
16.942997
 21
7.927385
 31
0.0
  0
LINE
  8
0
 62
     0
 10
14.392388
 20
5.2
 30
0.0
 11
16.949987
 21
7.757599
 31
0.0
  0
LINE
  8
0
 62
     0
 10
14.569165
 20
5.2
 30
0.0
 11
16.943101
 21
7.573936
 31
0.0
  0
LINE
  8
0
 62
     0
 10
14.745942
 20
5.2
 30
0.0
 11
16.918037
 21
7.372095
 31
0.0
  0
LINE
  8
0
 62
     0
 10
14.922718
 20
5.2
 30
0.0
 11
16.866909
 21
7.144191
 31
0.0
  0
LINE
  8
0
 62
     0
 10
15.099495
 20
5.2
 30
0.0
 11
16.771715
 21
6.87222
 31
0.0
  0
LINE
  8
0
 62
     0
 10
15.276272
 20
5.2
 30
0.0
 11
15.847951
 21
5.77168
 31
0.0
  0
LINE
  8
0
 62
     0
 10
15.96673
 20
5.890458
 30
0.0
 11
16.559542
 21
6.48327
 31
0.0
  0
LINE
  8
0
 62
     0
 10
15.453048
 20
5.2
 30
0.0
 11
15.970661
 21
5.717613
 31
0.0
  0
LINE
  8
0
 62
     0
 10
15.629825
 20
5.2
 30
0.0
 11
16.088934
 21
5.659109
 31
0.0
  0
LINE
  8
0
 62
     0
 10
15.806602
 20
5.2
 30
0.0
 11
16.202964
 21
5.596363
 31
0.0
  0
LINE
  8
0
 62
     0
 10
15.983378
 20
5.2
 30
0.0
 11
16.312909
 21
5.529531
 31
0.0
  0
LINE
  8
0
 62
     0
 10
16.160155
 20
5.2
 30
0.0
 11
16.418895
 21
5.45874
 31
0.0
  0
LINE
  8
0
 62
     0
 10
16.336932
 20
5.2
 30
0.0
 11
16.521021
 21
5.384089
 31
0.0
  0
LINE
  8
0
 62
     0
 10
16.513708
 20
5.2
 30
0.0
 11
16.619363
 21
5.305655
 31
0.0
  0
LINE
  8
0
 62
     0
 10
16.690485
 20
5.2
 30
0.0
 11
16.713975
 21
5.22349
 31
0.0
  0
ENDBLK
  8
0
  0
BLOCK
  8
0
  2
*X23
 70
    65
 10
0.0
 20
0.0
 30
0.0
  3
*X
  0
LINE
  8
0
 62
     0
 10
13.9
 20
0.818525
 30
0.0
 11
17.39645
 21
4.314974
 31
0.0
  0
LINE
  8
0
 62
     0
 10
13.9
 20
0.995301
 30
0.0
 11
17.336354
 21
4.431655
 31
0.0
  0
LINE
  8
0
 62
     0
 10
13.9
 20
1.172078
 30
0.0
 11
17.272078
 21
4.544156
 31
0.0
  0
LINE
  8
0
 62
     0
 10
13.9
 20
1.348855
 30
0.0
 11
17.203766
 21
4.652621
 31
0.0
  0
LINE
  8
0
 62
     0
 10
13.9
 20
1.525631
 30
0.0
 11
17.131535
 21
4.757167
 31
0.0
  0
LINE
  8
0
 62
     0
 10
13.9
 20
1.702408
 30
0.0
 11
16.997592
 21
4.8
 31
0.0
  0
LINE
  8
0
 62
     0
 10
13.9
 20
1.879185
 30
0.0
 11
16.820815
 21
4.8
 31
0.0
  0
LINE
  8
0
 62
     0
 10
13.9
 20
2.055961
 30
0.0
 11
16.644039
 21
4.8
 31
0.0
  0
LINE
  8
0
 62
     0
 10
13.9
 20
2.232738
 30
0.0
 11
16.467262
 21
4.8
 31
0.0
  0
LINE
  8
0
 62
     0
 10
13.9
 20
2.409515
 30
0.0
 11
16.290485
 21
4.8
 31
0.0
  0
LINE
  8
0
 62
     0
 10
13.9
 20
2.586292
 30
0.0
 11
16.113708
 21
4.8
 31
0.0
  0
LINE
  8
0
 62
     0
 10
13.9
 20
2.763068
 30
0.0
 11
15.936932
 21
4.8
 31
0.0
  0
LINE
  8
0
 62
     0
 10
13.9
 20
2.939845
 30
0.0
 11
15.760155
 21
4.8
 31
0.0
  0
LINE
  8
0
 62
     0
 10
13.9
 20
3.116622
 30
0.0
 11
15.583378
 21
4.8
 31
0.0
  0
LINE
  8
0
 62
     0
 10
13.9
 20
3.293398
 30
0.0
 11
15.406602
 21
4.8
 31
0.0
  0
LINE
  8
0
 62
     0
 10
13.9
 20
3.470175
 30
0.0
 11
15.229825
 21
4.8
 31
0.0
  0
LINE
  8
0
 62
     0
 10
13.9
 20
3.646952
 30
0.0
 11
15.053048
 21
4.8
 31
0.0
  0
LINE
  8
0
 62
     0
 10
13.9
 20
3.823728
 30
0.0
 11
14.876272
 21
4.8
 31
0.0
  0
LINE
  8
0
 62
     0
 10
13.9
 20
4.000505
 30
0.0
 11
14.699495
 21
4.8
 31
0.0
  0
LINE
  8
0
 62
     0
 10
13.9
 20
4.177282
 30
0.0
 11
14.522718
 21
4.8
 31
0.0
  0
LINE
  8
0
 62
     0
 10
13.9
 20
4.354058
 30
0.0
 11
14.345942
 21
4.8
 31
0.0
  0
LINE
  8
0
 62
     0
 10
13.9
 20
4.530835
 30
0.0
 11
14.169165
 21
4.8
 31
0.0
  0
LINE
  8
0
 62
     0
 10
13.9
 20
4.707612
 30
0.0
 11
13.992388
 21
4.8
 31
0.0
  0
LINE
  8
0
 62
     0
 10
13.9
 20
0.641748
 30
0.0
 11
17.452185
 21
4.193933
 31
0.0
  0
LINE
  8
0
 62
     0
 10
13.9
 20
0.464971
 30
0.0
 11
17.503339
 21
4.068311
 31
0.0
  0
LINE
  8
0
 62
     0
 10
13.9
 20
0.288194
 30
0.0
 11
17.549642
 21
3.937837
 31
0.0
  0
LINE
  8
0
 62
     0
 10
13.9
 20
0.111418
 30
0.0
 11
17.590762
 21
3.80218
 31
0.0
  0
LINE
  8
0
 62
     0
 10
13.965359
 20
0.0
 30
0.0
 11
17.62629
 21
3.660931
 31
0.0
  0
LINE
  8
0
 62
     0
 10
14.142136
 20
0.000001
 30
0.0
 11
17.655713
 21
3.513577
 31
0.0
  0
LINE
  8
0
 62
     0
 10
14.318913
 20
0.000001
 30
0.0
 11
17.678385
 21
3.359473
 31
0.0
  0
LINE
  8
0
 62
     0
 10
14.49569
 20
0.000001
 30
0.0
 11
17.693473
 21
3.197784
 31
0.0
  0
LINE
  8
0
 62
     0
 10
14.672467
 20
0.000002
 30
0.0
 11
17.699875
 21
3.027409
 31
0.0
  0
LINE
  8
0
 62
     0
 10
14.853154
 20
0.003912
 30
0.0
 11
17.696088
 21
2.846846
 31
0.0
  0
LINE
  8
0
 62
     0
 10
15.046044
 20
0.020025
 30
0.0
 11
17.679975
 21
2.653956
 31
0.0
  0
LINE
  8
0
 62
     0
 10
15.254483
 20
0.051687
 30
0.0
 11
17.648313
 21
2.445517
 31
0.0
  0
LINE
  8
0
 62
     0
 10
15.483762
 20
0.10419
 30
0.0
 11
17.59581
 21
2.216238
 31
0.0
  0
LINE
  8
0
 62
     0
 10
15.743786
 20
0.187437
 30
0.0
 11
17.512563
 21
1.956214
 31
0.0
  0
LINE
  8
0
 62
     0
 10
16.058176
 20
0.32505
 30
0.0
 11
17.37495
 21
1.641824
 31
0.0
  0
LINE
  8
0
 62
     0
 10
16.54193
 20
0.632028
 30
0.0
 11
17.067972
 21
1.15807
 31
0.0
  0
ENDBLK
  8
0
  0
BLOCK
  8
0
  2
B97
 70
     0
 10
0.0
 20
0.0
 30
0.0
  3
B97
  0
INSERT
  8
0
  6
DASHED
  2
BLC15
 10
-0.142087
 20
-2.191142
 30
0.0
  0
ENDBLK
  8
0
  0
ENDSEC
  0
SECTION
  2
ENTITIES
  0
INSERT
  8
0
  2
1
 10
65.405438
 20
98.713066
 30
0.0
  0
INSERT
  8
0
  2
1
 10
72.541652
 20
49.71056
 30
0.0
  0
INSERT
  8
0
  2
1
 10
85.390443
 20
73.497234
 30
0.0
  0
LINE
  8
0
  6
CENTER
 62
     7
 10
227.5
 20
222.5
 30
0.0
 11
227.5
 21
60.0
 31
0.0
  0
LINE
  8
0
  6
CONTINUOUS
 62
     7
 10
200.0
 20
75.0
 30
0.0
 11
210.0
 21
75.0
 31
0.0
  0
LINE
  8
0
  6
CONTINUOUS
 62
     7
 10
200.0
 20
75.0
 30
0.0
 11
202.5
 21
77.5
 31
0.0
  0
LINE
  8
0
  6
CONTINUOUS
 62
     7
 10
205.0
 20
75.0
 30
0.0
 11
207.5
 21
77.5
 31
0.0
  0
LINE
  8
0
  6
CONTINUOUS
 62
     7
 10
210.0
 20
75.0
 30
0.0
 11
212.5
 21
77.5
 31
0.0
  0
LINE
  8
0
  6
CONTINUOUS
 62
     7
 10
205.0
 20
75.0
 30
0.0
 11
205.0
 21
60.0
 31
0.0
  0
LINE
  8
0
  6
CONTINUOUS
 62
     7
 10
192.5
 20
77.5
 30
0.0
 11
192.5
 21
60.0
 31
0.0
  0
LINE
  8
0
  6
CONTINUOUS
 62
     7
 10
187.5
 20
77.5
 30
0.0
 11
187.5
 21
60.0
 31
0.0
  0
LINE
  8
0
  6
DASHED
 62
     7
 10
192.5
 20
60.0
 30
0.0
 11
192.5
 21
52.5
 31
0.0
  0
LINE
  8
0
  6
DASHED
 62
     7
 10
205.0
 20
60.0
 30
0.0
 11
205.0
 21
52.5
 31
0.0
  0
LINE
  8
0
  6
DASHED
 62
     7
 10
187.5
 20
60.0
 30
0.0
 11
187.5
 21
52.5
 31
0.0
  0
LINE
  8
0
  6
DASHED
 62
     7
 10
142.5
 20
60.0
 30
0.0
 11
142.5
 21
52.5
 31
0.0
  0
LINE
  8
0
  6
CONTINUOUS
 62
     7
 10
160.0
 20
125.232891
 30
0.0
 11
190.450615
 21
125.232891
 31
0.0
  0
TEXT
  8
0
  6
CONTINUOUS
 62
     7
 10
171.908766
 20
121.295815
 30
0.0
 40
2.5
  1
IRF
 11
171.908766
 21
120.462481
 31
0.0
 73
     1
  0
LINE
  8
0
  6
CONTINUOUS
 62
     7
 10
190.450615
 20
120.0
 30
0.0
 11
160.0
 21
120.0
 31
0.0
  0
LINE
  8
0
  6
CONTINUOUS
 62
     7
 10
190.450615
 20
132.209828
 30
0.0
 11
190.450615
 21
120.0
 31
0.0
  0
LINE
  8
0
  6
CONTINUOUS
 62
     7
 10
190.450615
 20
215.0
 30
0.0
 11
190.450615
 21
132.18832
 31
0.0
  0
LINE
  8
0
  6
CONTINUOUS
 62
     7
 10
160.0
 20
130.0
 30
0.0
 11
190.450615
 21
130.0
 31
0.0
  0
LINE
  8
0
  6
CONTINUOUS
 62
     7
 10
160.0
 20
210.0
 30
0.0
 11
160.0
 21
130.0
 31
0.0
  0
LINE
  8
0
  6
CONTINUOUS
 62
     7
 10
160.0
 20
210.0
 30
0.0
 11
160.0
 21
215.0
 31
0.0
  0
LINE
  8
0
  6
CONTINUOUS
 62
     7
 10
160.0
 20
130.0
 30
0.0
 11
160.0
 21
120.0
 31
0.0
  0
LINE
  8
0
  6
CENTER
 62
     7
 10
25.0
 20
222.5
 30
0.0
 11
25.0
 21
60.0
 31
0.0
  0
LINE
  8
0
  6
CENTER
 62
     7
 10
25.0
 20
60.0
 30
0.0
 11
227.5
 21
60.0
 31
0.0
  0
LINE
  8
0
  6
CENTER
 62
     7
 10
227.5
 20
222.5
 30
0.0
 11
25.0
 21
222.5
 31
0.0
  0
LINE
  8
0
  6
DASHED
 62
     7
 10
157.5
 20
60.0
 30
0.0
 11
157.5
 21
52.5
 31
0.0
  0
LINE
  8
0
  6
DASHED
 62
     7
 10
162.5
 20
60.0
 30
0.0
 11
162.5
 21
52.5
 31
0.0
  0
ARC
  8
0
  6
CONTINUOUS
 62
     7
 10
230.0
 20
127.5
 30
0.0
 40
2.5
 50
90.0
 51
270.0
  0
TEXT
  8
0
  6
DASHED
 62
     7
 10
4.369019
 20
212.5
 30
0.0
 40
2.0
  1
1)
  7
ROMANS
  0
LINE
  8
0
  6
CONTINUOUS
 62
     7
 10
77.5
 20
110.0
 30
0.0
 11
97.5
 21
110.0
 31
0.0
  0
LINE
  8
0
  6
CONTINUOUS
 62
     7
 10
77.5
 20
115.0
 30
0.0
 11
77.5
 21
110.0
 31
0.0
  0
LINE
  8
0
  6
CONTINUOUS
 62
     7
 10
97.5
 20
115.0
 30
0.0
 11
77.5
 21
115.0
 31
0.0
  0
LINE
  8
0
  6
CONTINUOUS
 62
     7
 10
87.5
 20
107.5
 30
0.0
 11
87.5
 21
102.5
 31
0.0
  0
LINE
  8
0
  6
CONTINUOUS
 62
     7
 10
87.5
 20
110.0
 30
0.0
 11
87.5
 21
107.5
 31
0.0
  0
LINE
  8
0
  6
CONTINUOUS
 62
     7
 10
87.083001
 20
112.789195
 30
0.0
 11
84.737236
 21
111.599276
 31
0.0
  0
LINE
  8
0
  6
CONTINUOUS
 62
     7
 10
84.729194
 20
110.799262
 30
0.0
 11
87.112655
 21
111.987454
 31
0.0
  0
LINE
  8
0
  6
CONTINUOUS
 62
     7
 10
84.737236
 20
114.124549
 30
0.0
 11
87.083001
 21
112.789195
 31
0.0
  0
TEXT
  8
0
  6
CONTINUOUS
 62
     7
 10
89.171098
 20
111.464455
 30
0.0
 40
2.5
  1
1
 11
89.171098
 21
110.631122
 31
0.0
 73
     1
  0
LINE
  8
0
  6
CONTINUOUS
 62
     7
 10
97.5
 20
115.0
 30
0.0
 11
97.5
 21
110.0
 31
0.0
  0
LINE
  8
0
  6
CONTINUOUS
 62
     7
 10
80.0
 20
115.0
 30
0.0
 11
80.0
 21
117.5
 31
0.0
  0
LINE
  8
0
  6
CONTINUOUS
 62
     7
 10
85.0
 20
115.0
 30
0.0
 11
85.0
 21
117.5
 31
0.0
  0
LINE
  8
0
  6
CONTINUOUS
 62
     7
 10
90.0
 20
115.0
 30
0.0
 11
90.0
 21
117.5
 31
0.0
  0
LINE
  8
0
  6
CONTINUOUS
 62
     7
 10
112.5
 20
115.0
 30
0.0
 11
112.5
 21
110.0
 31
0.0
  0
TEXT
  8
0
  6
CONTINUOUS
 62
     7
 10
109.312839
 20
111.464455
 30
0.0
 40
2.5
  1
1
 11
109.312839
 21
110.631122
 31
0.0
 73
     1
  0
LINE
  8
0
  6
CONTINUOUS
 62
     7
 10
104.878977
 20
114.124549
 30
0.0
 11
107.224743
 21
112.789195
 31
0.0
  0
LINE
  8
0
  6
CONTINUOUS
 62
     7
 10
104.870935
 20
110.799262
 30
0.0
 11
107.254396
 21
111.987454
 31
0.0
  0
LINE
  8
0
  6
CONTINUOUS
 62
     7
 10
107.224743
 20
112.789195
 30
0.0
 11
104.878977
 21
111.599276
 31
0.0
  0
LINE
  8
0
  6
CONTINUOUS
 62
     7
 10
107.5
 20
110.0
 30
0.0
 11
107.5
 21
107.5
 31
0.0
  0
LINE
  8
0
  6
CONTINUOUS
 62
     7
 10
107.5
 20
107.5
 30
0.0
 11
107.5
 21
102.5
 31
0.0
  0
LINE
  8
0
  6
CONTINUOUS
 62
     7
 10
112.5
 20
115.0
 30
0.0
 11
102.5
 21
115.0
 31
0.0
  0
LINE
  8
0
  6
CONTINUOUS
 62
     7
 10
102.5
 20
115.0
 30
0.0
 11
102.5
 21
110.0
 31
0.0
  0
LINE
  8
0
  6
CONTINUOUS
 62
     7
 10
102.5
 20
110.0
 30
0.0
 11
112.5
 21
110.0
 31
0.0
  0
LINE
  8
0
  6
CONTINUOUS
 62
     7
 10
90.0
 20
122.5
 30
0.0
 11
90.0
 21
163.124197
 31
0.0
  0
LINE
  8
0
  6
CONTINUOUS
 62
     7
 10
62.721556
 20
212.5
 30
0.0
 11
137.5
 21
212.5
 31
0.0
  0
LINE
  8
0
  6
CONTINUOUS
 62
     7
 10
85.0
 20
122.5
 30
0.0
 11
85.0
 21
202.361335
 31
0.0
  0
LINE
  8
0
  6
CONTINUOUS
 62
     7
 10
85.0
 20
117.5
 30
0.0
 11
83.285914
 21
122.586297
 31
0.0
  0
LINE
  8
0
  6
CONTINUOUS
 62
     7
 10
90.0
 20
117.5
 30
0.0
 11
88.285914
 21
122.586297
 31
0.0
  0
LINE
  8
0
  6
CONTINUOUS
 62
     7
 10
80.0
 20
117.5
 30
0.0
 11
78.285914
 21
122.586297
 31
0.0
  0
LINE
  8
0
  6
CONTINUOUS
 62
     7
 10
80.0
 20
122.5
 30
0.0
 11
80.0
 21
205.645275
 31
0.0
  0
LINE
  8
0
  6
DASHED
 62
     7
 10
232.5
 20
127.5
 30
0.0
 11
242.5
 21
127.5
 31
0.0
  0
LINE
  8
0
  6
CONTINUOUS
 62
     7
 10
223.563198
 20
126.75712
 30
0.0
 11
224.779906
 21
128.167057
 31
0.0
  0
TEXT
  8
0
  6
CONTINUOUS
 62
     7
 10
224.536564
 20
129.070297
 30
0.0
 40
2.0
  1
9
  7
ROMANS
  0
LINE
  8
0
  6
DASHED
 62
     7
 10
25.0
 20
100.0
 30
0.0
 11
15.0
 21
100.0
 31
0.0
  0
LINE
  8
0
  6
DASHED
 62
     7
 10
25.0
 20
72.5
 30
0.0
 11
15.0
 21
72.5
 31
0.0
  0
TEXT
  8
0
  6
CONTINUOUS
 62
     7
 10
10.0
 20
99.032746
 30
0.0
 40
2.0
  1
3)
  7
ROMANS
  0
TEXT
  8
0
  6
CONTINUOUS
 62
     7
 10
10.0
 20
91.400841
 30
0.0
 40
2.0
  1
4)
  7
ROMANS
  0
TEXT
  8
0
  6
CONTINUOUS
 62
     7
 10
10.0
 20
84.015243
 30
0.0
 40
2.0
  1
5)
  7
ROMANS
  0
TEXT
  8
0
  6
CONTINUOUS
 62
     7
 10
10.0
 20
71.491877
 30
0.0
 40
2.0
  1
6)
  7
ROMANS
  0
LINE
  8
0
  6
CONTINUOUS
 62
     7
 10
55.298812
 20
210.0
 30
0.0
 11
25.0
 21
210.0
 31
0.0
  0
LINE
  8
0
 62
     7
 10
55.298812
 20
216.589925
 30
0.0
 11
55.298812
 21
208.4
 31
0.0
  0
LINE
  8
0
 62
     7
 10
59.504853
 20
216.59384
 30
0.0
 11
57.59105
 21
214.315018
 31
0.0
  0
LINE
  8
0
 62
     7
 10
60.996971
 20
216.59384
 30
0.0
 11
59.142636
 21
214.315018
 31
0.0
  0
LINE
  8
0
 62
     7
 10
62.721556
 20
216.589925
 30
0.0
 11
55.298812
 21
216.589925
 31
0.0
  0
LINE
  8
0
 62
     7
 10
55.298812
 20
208.4
 30
0.0
 11
62.721556
 21
208.4
 31
0.0
  0
LINE
  8
0
 62
     7
 10
62.721556
 20
208.4
 30
0.0
 11
62.721556
 21
216.589925
 31
0.0
  0
INSERT
  8
0
  6
CONTINUOUS
 62
     7
  2
BLC29
 10
203.264568
 20
127.371533
 30
0.0
 41
-1.0
 50
180.0
  0
LINE
  8
0
  6
CONTINUOUS
 62
     7
 10
227.5
 20
127.5
 30
0.0
 11
190.450615
 21
127.5
 31
0.0
  0
TEXT
  8
0
  6
DASHED
 62
     7
 10
163.926232
 20
126.082908
 30
0.0
 40
2.5
  1
SERIAL I/O
  0
TEXT
  8
0
  6
DASHED
 62
     7
 10
372.5
 20
12.5
 30
0.0
 40
2.0
  1
1
  7
ROMANS
  0
LINE
  8
0
  6
CONTINUOUS
 62
     7
 10
117.5
 20
110.0
 30
0.0
 11
127.5
 21
110.0
 31
0.0
  0
LINE
  8
0
  6
CONTINUOUS
 62
     7
 10
117.5
 20
115.0
 30
0.0
 11
117.5
 21
110.0
 31
0.0
  0
LINE
  8
0
  6
CONTINUOUS
 62
     7
 10
127.5
 20
115.0
 30
0.0
 11
127.5
 21
110.0
 31
0.0
  0
LINE
  8
0
  6
CONTINUOUS
 62
     7
 10
127.5
 20
115.0
 30
0.0
 11
117.5
 21
115.0
 31
0.0
  0
LINE
  8
0
  6
CONTINUOUS
 62
     7
 10
122.5
 20
107.5
 30
0.0
 11
122.5
 21
102.5
 31
0.0
  0
LINE
  8
0
  6
CONTINUOUS
 62
     7
 10
125.0
 20
115.0
 30
0.0
 11
125.0
 21
117.5
 31
0.0
  0
LINE
  8
0
  6
CONTINUOUS
 62
     7
 10
122.5
 20
110.0
 30
0.0
 11
122.5
 21
107.5
 31
0.0
  0
LINE
  8
0
  6
CONTINUOUS
 62
     7
 10
122.251902
 20
112.789195
 30
0.0
 11
119.906137
 21
111.599276
 31
0.0
  0
LINE
  8
0
  6
CONTINUOUS
 62
     7
 10
119.898095
 20
110.799262
 30
0.0
 11
122.281556
 21
111.987454
 31
0.0
  0
LINE
  8
0
  6
CONTINUOUS
 62
     7
 10
119.906137
 20
114.124549
 30
0.0
 11
122.251902
 21
112.789195
 31
0.0
  0
TEXT
  8
0
  6
CONTINUOUS
 62
     7
 10
124.339999
 20
111.464455
 30
0.0
 40
2.5
  1
1
 11
124.339999
 21
110.631122
 31
0.0
 73
     1
  0
LINE
  8
0
  6
CONTINUOUS
 62
     7
 10
125.0
 20
117.5
 30
0.0
 11
123.285914
 21
122.586297
 31
0.0
  0
LINE
  8
0
  6
CONTINUOUS
 62
     7
 10
125.0
 20
122.5
 30
0.0
 11
125.0
 21
135.0
 31
0.0
  0
LINE
  8
0
  6
CONTINUOUS
 62
     7
 10
105.0
 20
117.5
 30
0.0
 11
103.285914
 21
122.586297
 31
0.0
  0
LINE
  8
0
  6
CONTINUOUS
 62
     7
 10
105.0
 20
122.5
 30
0.0
 11
105.0
 21
190.0
 31
0.0
  0
LINE
  8
0
  6
CONTINUOUS
 62
     7
 10
105.0
 20
115.0
 30
0.0
 11
105.0
 21
117.5
 31
0.0
  0
LINE
  8
0
  6
CONTINUOUS
 62
     7
 10
110.0
 20
117.5
 30
0.0
 11
108.285914
 21
122.586297
 31
0.0
  0
LINE
  8
0
  6
CONTINUOUS
 62
     7
 10
110.0
 20
122.5
 30
0.0
 11
110.0
 21
177.5
 31
0.0
  0
LINE
  8
0
  6
CONTINUOUS
 62
     7
 10
110.0
 20
115.0
 30
0.0
 11
110.0
 21
117.5
 31
0.0
  0
CIRCLE
  8
0
  6
CONTINUOUS
 62
     7
 10
159.012659
 20
123.284079
 30
0.0
 40
1.0
  0
LINE
  8
0
  6
CONTINUOUS
 62
     7
 10
158.013509
 20
123.325312
 30
0.0
 11
137.5
 21
123.325312
 31
0.0
  0
TEXT
  8
0
 62
     7
 10
203.465704
 20
44.354458
 30
0.0
 40
1.92
  1
PE
  0
LINE
  8
0
 62
     7
 10
203.524091
 20
49.050711
 30
0.0
 11
206.573201
 21
49.050711
 31
0.0
  0
LINE
  8
0
 62
     7
 10
204.99999
 20
49.685023
 30
0.0
 11
204.99999
 21
52.500268
 31
0.0
  0
LINE
  8
0
 62
     7
 10
204.107964
 20
48.38116
 30
0.0
 11
206.027173
 21
48.38116
 31
0.0
  0
LINE
  8
0
 62
     7
 10
206.902981
 20
49.685023
 30
0.0
 11
206.30289
 21
49.685023
 31
0.0
  0
LINE
  8
0
 62
     7
 10
203.188906
 20
49.685023
 30
0.0
 11
206.881356
 21
49.685023
 31
0.0
  0
CIRCLE
  8
0
 62
     7
 10
205.005397
 20
49.195585
 30
0.0
 40
2.282738
  0
TEXT
  8
0
  6
DASHED
 62
     7
 10
245.0
 20
126.395869
 30
0.0
 40
2.0
  1
2)
  7
ROMANS
  0
LINE
  8
0
  6
CONTINUOUS
 62
     7
 10
46.000004
 20
215.0
 30
0.0
 11
55.298812
 21
215.0
 31
0.0
  0
LINE
  8
0
  6
CONTINUOUS
 62
     7
 10
112.5
 20
72.5
 30
0.0
 11
25.0
 21
72.5
 31
0.0
  0
LINE
  8
0
  6
CONTINUOUS
 62
     7
 10
112.5
 20
77.5
 30
0.0
 11
25.0
 21
77.5
 31
0.0
  0
LINE
  8
0
  6
CONTINUOUS
 62
     7
 10
135.0
 20
72.5
 30
0.0
 11
112.5
 21
72.5
 31
0.0
  0
LINE
  8
0
  6
CONTINUOUS
 62
     7
 10
112.5
 20
77.5
 30
0.0
 11
132.5
 21
77.5
 31
0.0
  0
LINE
  8
0
  6
CONTINUOUS
 62
     7
 10
140.0
 20
77.5
 30
0.0
 11
134.256076
 21
74.285297
 31
0.0
  0
LINE
  8
0
  6
CONTINUOUS
 62
     7
 10
135.0
 20
72.5
 30
0.0
 11
135.0
 21
75.0
 31
0.0
  0
LINE
  8
0
  6
DASHED
 62
     7
 10
25.0
 20
92.5
 30
0.0
 11
15.0
 21
92.5
 31
0.0
  0
LINE
  8
0
  6
DASHED
 62
     7
 10
25.0
 20
85.0
 30
0.0
 11
15.0
 21
85.0
 31
0.0
  0
LINE
  8
0
  6
CONTINUOUS
 62
     7
 10
142.5
 20
77.5
 30
0.0
 11
140.0
 21
77.5
 31
0.0
  0
TEXT
  8
0
  6
CONTINUOUS
 62
     7
 10
380.0
 20
2.5
 30
0.0
 40
2.5
  1
B
  7
ROMANS
  0
TEXT
  8
0
  6
CONTINUOUS
 62
     7
 10
322.5
 20
27.5
 30
0.0
 40
2.0
  1
TERMINAL DIAGRAM / UTTAGSSCHEMA
  7
ROMANS
  0
LINE
  8
0
  6
DASHED
 62
     7
 10
315.0
 20
257.5
 30
0.0
 11
232.5
 21
257.5
 31
0.0
  0
LINE
  8
0
  6
DASHED
 62
     7
 10
315.0
 20
252.5
 30
0.0
 11
232.5
 21
252.5
 31
0.0
  0
LINE
  8
0
  6
DASHED
 62
     7
 10
315.0
 20
247.5
 30
0.0
 11
232.5
 21
247.5
 31
0.0
  0
LINE
  8
0
  6
CONTINUOUS
 62
     7
 10
292.5
 20
242.5
 30
0.0
 11
292.0
 21
242.0
 31
0.0
  0
LINE
  8
0
  6
CONTINUOUS
 62
     7
 10
292.5
 20
242.5
 30
0.0
 11
292.0
 21
243.0
 31
0.0
  0
LINE
  8
0
  6
CONTINUOUS
 62
     7
 10
292.5
 20
242.5
 30
0.0
 11
293.0
 21
243.0
 31
0.0
  0
LINE
  8
0
  6
CONTINUOUS
 62
     7
 10
292.5
 20
242.5
 30
0.0
 11
293.0
 21
242.0
 31
0.0
  0
LINE
  8
0
  6
CONTINUOUS
 62
     7
 10
287.5
 20
242.5
 30
0.0
 11
287.0
 21
243.0
 31
0.0
  0
LINE
  8
0
  6
CONTINUOUS
 62
     7
 10
287.5
 20
242.5
 30
0.0
 11
287.0
 21
242.0
 31
0.0
  0
LINE
  8
0
  6
CONTINUOUS
 62
     7
 10
287.5
 20
242.5
 30
0.0
 11
288.0
 21
242.0
 31
0.0
  0
LINE
  8
0
  6
CONTINUOUS
 62
     7
 10
287.5
 20
242.5
 30
0.0
 11
288.0
 21
243.0
 31
0.0
  0
LINE
  8
0
  6
CONTINUOUS
 62
     7
 10
282.5
 20
242.5
 30
0.0
 11
282.0
 21
242.0
 31
0.0
  0
LINE
  8
0
  6
CONTINUOUS
 62
     7
 10
282.5
 20
242.5
 30
0.0
 11
283.0
 21
243.0
 31
0.0
  0
LINE
  8
0
  6
CONTINUOUS
 62
     7
 10
282.5
 20
242.5
 30
0.0
 11
283.0
 21
242.0
 31
0.0
  0
LINE
  8
0
  6
CONTINUOUS
 62
     7
 10
282.5
 20
242.5
 30
0.0
 11
282.0
 21
243.0
 31
0.0
  0
LINE
  8
0
  6
CONTINUOUS
 62
     7
 10
292.5
 20
235.0
 30
0.0
 11
290.0
 21
242.5
 31
0.0
  0
LINE
  8
0
  6
CONTINUOUS
 62
     7
 10
287.5
 20
235.0
 30
0.0
 11
285.0
 21
242.5
 31
0.0
  0
LINE
  8
0
  6
CONTINUOUS
 62
     7
 10
282.5
 20
235.0
 30
0.0
 11
280.0
 21
242.5
 31
0.0
  0
LINE
  8
0
  6
DASHED
 62
     7
 10
292.5
 20
235.0
 30
0.0
 11
292.5
 21
217.5
 31
0.0
  0
LINE
  8
0
  6
DASHED
 62
     7
 10
292.5
 20
247.5
 30
0.0
 11
292.5
 21
242.5
 31
0.0
  0
LINE
  8
0
  6
DASHED
 62
     7
 10
287.5
 20
235.0
 30
0.0
 11
287.5
 21
170.0
 31
0.0
  0
LINE
  8
0
  6
DASHED
 62
     7
 10
287.5
 20
252.5
 30
0.0
 11
287.5
 21
242.5
 31
0.0
  0
LINE
  8
0
  6
DASHED
 62
     7
 10
282.5
 20
242.5
 30
0.0
 11
282.5
 21
257.5
 31
0.0
  0
LINE
  8
0
  6
DASHED
 62
     7
 10
282.5
 20
235.0
 30
0.0
 11
282.5
 21
217.5
 31
0.0
  0
LINE
  8
0
  6
DASHED
 62
     7
 10
292.5
 20
222.5
 30
0.0
 11
292.5
 21
170.0
 31
0.0
  0
LINE
  8
0
  6
DASHED
 62
     7
 10
282.5
 20
222.5
 30
0.0
 11
282.5
 21
170.0
 31
0.0
  0
LINE
  8
0
  6
DASHED
 62
     7
 10
227.5
 20
210.0
 30
0.0
 11
245.0
 21
210.0
 31
0.0
  0
LINE
  8
0
  6
DASHED
 62
     7
 10
277.5
 20
180.0
 30
0.0
 11
277.5
 21
185.0
 31
0.0
  0
TEXT
  8
0
  6
CONTINUOUS
 62
     7
 10
223.732328
 20
246.506967
 30
0.0
 40
2.0
  1
L3(T)
  7
ROMANS
 11
223.732328
 21
245.8403
 31
0.0
 73
     1
  0
TEXT
  8
0
  6
CONTINUOUS
 62
     7
 10
223.732328
 20
251.428359
 30
0.0
 40
2.0
  1
L2(S)
  7
ROMANS
 11
223.732328
 21
250.761693
 31
0.0
 73
     1
  0
TEXT
  8
0
  6
CONTINUOUS
 62
     7
 10
223.732328
 20
256.485054
 30
0.0
 40
2.0
  1
L1(R)
  7
ROMANS
 11
223.732328
 21
255.818387
 31
0.0
 73
     1
  0
LINE
  8
0
  6
CONTINUOUS
 62
     7
 10
245.0
 20
230.18998
 30
0.0
 11
265.0
 21
230.18998
 31
0.0
  0
LINE
  8
0
  6
DASHED
 62
     7
 10
245.0
 20
235.0
 30
0.0
 11
245.0
 21
257.5
 31
0.0
  0
LINE
  8
0
  6
DASHED
 62
     7
 10
252.5
 20
235.0
 30
0.0
 11
252.5
 21
252.5
 31
0.0
  0
LINE
  8
0
  6
CONTINUOUS
 62
     7
 10
245.0
 20
220.18998
 30
0.0
 11
245.0
 21
217.5
 31
0.0
  0
LINE
  8
0
  6
CONTINUOUS
 62
     7
 10
252.5
 20
220.18998
 30
0.0
 11
252.5
 21
217.5
 31
0.0
  0
ARC
  8
0
  6
CONTINUOUS
 62
     7
 10
250.864862
 20
223.796095
 30
0.0
 40
1.204309
 50
90.0
 51
265.706237
  0
LINE
  8
0
  6
CONTINUOUS
 62
     7
 10
250.858762
 20
222.598547
 30
0.0
 11
251.50836
 21
222.598547
 31
0.0
  0
LINE
  8
0
  6
CONTINUOUS
 62
     7
 10
250.858762
 20
224.999993
 30
0.0
 11
251.502261
 21
224.999993
 31
0.0
  0
LINE
  8
0
  6
CONTINUOUS
 62
     7
 10
250.859898
 20
220.189937
 30
0.0
 11
251.509496
 21
220.189937
 31
0.0
  0
ARC
  8
0
  6
CONTINUOUS
 62
     7
 10
250.864862
 20
221.394238
 30
0.0
 40
1.204309
 50
90.0
 51
270.0
  0
LINE
  8
0
  6
CONTINUOUS
 62
     7
 10
251.500897
 20
220.18998
 30
0.0
 11
252.5
 21
220.18998
 31
0.0
  0
LINE
  8
0
  6
CONTINUOUS
 62
     7
 10
251.496128
 20
224.999996
 30
0.0
 11
252.473936
 21
224.999996
 31
0.0
  0
LINE
  8
0
  6
CONTINUOUS
 62
     7
 10
251.506031
 20
222.598556
 30
0.0
 11
252.478167
 21
222.598556
 31
0.0
  0
ARC
  8
0
  6
CONTINUOUS
 62
     7
 10
243.364862
 20
223.796095
 30
0.0
 40
1.204309
 50
90.0
 51
265.706237
  0
LINE
  8
0
  6
CONTINUOUS
 62
     7
 10
243.358762
 20
222.598547
 30
0.0
 11
244.00836
 21
222.598547
 31
0.0
  0
LINE
  8
0
  6
CONTINUOUS
 62
     7
 10
243.358762
 20
224.999993
 30
0.0
 11
244.002261
 21
224.999993
 31
0.0
  0
LINE
  8
0
  6
CONTINUOUS
 62
     7
 10
243.359898
 20
220.189937
 30
0.0
 11
244.009496
 21
220.189937
 31
0.0
  0
ARC
  8
0
  6
CONTINUOUS
 62
     7
 10
243.364862
 20
221.394238
 30
0.0
 40
1.204309
 50
90.0
 51
270.0
  0
LINE
  8
0
  6
CONTINUOUS
 62
     7
 10
244.000897
 20
220.18998
 30
0.0
 11
245.0
 21
220.18998
 31
0.0
  0
LINE
  8
0
  6
CONTINUOUS
 62
     7
 10
243.996128
 20
224.999996
 30
0.0
 11
244.973936
 21
224.999996
 31
0.0
  0
LINE
  8
0
  6
CONTINUOUS
 62
     7
 10
244.006031
 20
222.598556
 30
0.0
 11
244.978167
 21
222.598556
 31
0.0
  0
LINE
  8
0
  6
DASHED
 62
     7
 10
245.0
 20
210.0
 30
0.0
 11
245.0
 21
217.5
 31
0.0
  0
LINE
  8
0
  6
DASHED
 62
     7
 10
260.0
 20
235.0
 30
0.0
 11
260.0
 21
247.5
 31
0.0
  0
LINE
  8
0
  6
CONTINUOUS
 62
     7
 10
260.0
 20
220.18998
 30
0.0
 11
260.0
 21
217.5
 31
0.0
  0
ARC
  8
0
  6
CONTINUOUS
 62
     7
 10
258.364862
 20
223.796095
 30
0.0
 40
1.204309
 50
90.0
 51
265.706237
  0
LINE
  8
0
  6
CONTINUOUS
 62
     7
 10
258.358762
 20
222.598547
 30
0.0
 11
259.00836
 21
222.598547
 31
0.0
  0
LINE
  8
0
  6
CONTINUOUS
 62
     7
 10
258.358762
 20
224.999993
 30
0.0
 11
259.002261
 21
224.999993
 31
0.0
  0
LINE
  8
0
  6
CONTINUOUS
 62
     7
 10
258.359898
 20
220.189937
 30
0.0
 11
259.009496
 21
220.189937
 31
0.0
  0
ARC
  8
0
  6
CONTINUOUS
 62
     7
 10
258.364862
 20
221.394238
 30
0.0
 40
1.204309
 50
90.0
 51
270.0
  0
LINE
  8
0
  6
CONTINUOUS
 62
     7
 10
259.000897
 20
220.18998
 30
0.0
 11
260.0
 21
220.18998
 31
0.0
  0
LINE
  8
0
  6
CONTINUOUS
 62
     7
 10
258.996128
 20
224.999996
 30
0.0
 11
259.973936
 21
224.999996
 31
0.0
  0
LINE
  8
0
  6
CONTINUOUS
 62
     7
 10
259.006031
 20
222.598556
 30
0.0
 11
259.978167
 21
222.598556
 31
0.0
  0
LINE
  8
0
  6
CONTINUOUS
 62
     7
 10
245.0
 20
225.0
 30
0.0
 11
265.0
 21
225.0
 31
0.0
  0
LINE
  8
0
  6
DASHED
 62
     7
 10
152.5
 20
60.0
 30
0.0
 11
152.5
 21
52.5
 31
0.0
  0
LINE
  8
0
  6
CONTINUOUS
 62
     7
 10
210.0
 20
200.0
 30
0.0
 11
211.0
 21
199.0
 31
0.0
  0
LINE
  8
0
  6
CONTINUOUS
 62
     7
 10
210.0
 20
200.0
 30
0.0
 11
210.0
 21
210.0
 31
0.0
  0
LINE
  8
0
  6
CONTINUOUS
 62
     7
 10
210.0
 20
210.0
 30
0.0
 11
211.0
 21
211.0
 31
0.0
  0
LINE
  8
0
  6
CONTINUOUS
 62
     7
 10
165.472992
 20
131.738272
 30
0.0
 11
163.917971
 21
132.706405
 31
0.0
  0
LINE
  8
0
  6
CONTINUOUS
 62
     7
 10
163.917971
 20
132.706405
 30
0.0
 11
165.54041
 21
133.450668
 31
0.0
  0
TEXT
  8
0
  6
CONTINUOUS
 62
     7
 10
161.208847
 20
131.563256
 30
0.0
 40
2.0
  1
U
  0
LINE
  8
0
  6
CONTINUOUS
 62
     7
 10
163.931132
 20
136.830415
 30
0.0
 11
165.486153
 21
135.862282
 31
0.0
  0
LINE
  8
0
  6
CONTINUOUS
 62
     7
 10
165.486153
 20
135.862282
 30
0.0
 11
163.863715
 21
135.118019
 31
0.0
  0
TEXT
  8
0
  6
CONTINUOUS
 62
     7
 10
161.208847
 20
134.979233
 30
0.0
 40
2.0
  1
U
  0
LINE
  8
0
  6
CONTINUOUS
 62
     7
 10
178.967927
 20
134.746652
 30
0.0
 11
178.967927
 21
132.958521
 31
0.0
  0
LINE
  8
0
  6
CONTINUOUS
 62
     7
 10
175.990396
 20
136.099536
 30
0.0
 11
176.891073
 21
134.975787
 31
0.0
  0
LINE
  8
0
  6
CONTINUOUS
 62
     7
 10
173.568408
 20
132.733771
 30
0.0
 11
176.444519
 21
135.562329
 31
0.0
  0
LINE
  8
0
  6
CONTINUOUS
 62
     7
 10
171.184263
 20
133.901374
 30
0.0
 11
178.972468
 21
133.901374
 31
0.0
  0
LINE
  8
0
  6
CONTINUOUS
 62
     7
 10
171.153232
 20
134.746652
 30
0.0
 11
171.153232
 21
132.958521
 31
0.0
  0
LINE
  8
0
  6
CONTINUOUS
 62
     7
 10
180.0
 20
130.0
 30
0.0
 11
180.0
 21
157.5
 31
0.0
  0
LINE
  8
0
  6
CONTINUOUS
 62
     7
 10
180.0
 20
140.0
 30
0.0
 11
160.0
 21
140.0
 31
0.0
  0
TEXT
  8
0
  6
HIDDEN
 62
     7
 10
161.125127
 20
140.653617
 30
0.0
 40
2.008047
  1
D
  7
GREEKC
  0
TEXT
  8
0
  6
CONTINUOUS
 62
     7
 10
163.495281
 20
140.649408
 30
0.0
 40
2.0
  1
f
  0
LINE
  8
0
  6
CONTINUOUS
 62
     7
 10
167.148912
 20
140.651024
 30
0.0
 11
165.593891
 21
141.619157
 31
0.0
  0
LINE
  8
0
  6
CONTINUOUS
 62
     7
 10
165.593891
 20
141.619157
 30
0.0
 11
167.21633
 21
142.36342
 31
0.0
  0
TEXT
  8
0
  6
CONTINUOUS
 62
     7
 10
163.240114
 20
145.539536
 30
0.0
 40
1.885723
  1
f
  7
GREEKC
  0
TEXT
  8
0
  6
HIDDEN
 62
     7
 10
161.125127
 20
144.901914
 30
0.0
 40
2.008047
  1
D
  7
GREEKC
  0
LINE
  8
0
  6
CONTINUOUS
 62
     7
 10
167.148912
 20
144.89065
 30
0.0
 11
165.593891
 21
145.858783
 31
0.0
  0
LINE
  8
0
  6
CONTINUOUS
 62
     7
 10
165.593891
 20
145.858783
 30
0.0
 11
167.21633
 21
146.603046
 31
0.0
  0
TEXT
  8
0
  6
HIDDEN
 62
     7
 10
161.125127
 20
149.25425
 30
0.0
 40
2.008047
  1
D
  7
GREEKC
  0
TEXT
  8
0
  6
CONTINUOUS
 62
     7
 10
163.507252
 20
149.215361
 30
0.0
 40
2.0
  1
U
  0
LINE
  8
0
  6
CONTINUOUS
 62
     7
 10
167.148912
 20
149.138946
 30
0.0
 11
165.593891
 21
150.107079
 31
0.0
  0
LINE
  8
0
  6
CONTINUOUS
 62
     7
 10
165.593891
 20
150.107079
 30
0.0
 11
167.21633
 21
150.851342
 31
0.0
  0
TEXT
  8
0
  6
CONTINUOUS
 62
     7
 10
161.352497
 20
153.368287
 30
0.0
 40
2.0
  1
U
  0
LINE
  8
0
  6
CONTINUOUS
 62
     7
 10
165.749512
 20
154.251336
 30
0.0
 11
164.127073
 21
153.507073
 31
0.0
  0
LINE
  8
0
  6
CONTINUOUS
 62
     7
 10
164.194491
 20
155.219469
 30
0.0
 11
165.749512
 21
154.251336
 31
0.0
  0
LINE
  8
0
  6
CONTINUOUS
 62
     7
 10
160.0
 20
157.5
 30
0.0
 11
180.0
 21
157.5
 31
0.0
  0
LINE
  8
0
  6
CONTINUOUS
 62
     7
 10
171.153232
 20
148.37588
 30
0.0
 11
171.153232
 21
146.587749
 31
0.0
  0
LINE
  8
0
  6
CONTINUOUS
 62
     7
 10
171.184263
 20
147.530602
 30
0.0
 11
178.972468
 21
147.530602
 31
0.0
  0
LINE
  8
0
  6
CONTINUOUS
 62
     7
 10
178.967927
 20
148.37588
 30
0.0
 11
178.967927
 21
146.587749
 31
0.0
  0
CIRCLE
  8
0
  6
CONTINUOUS
 62
     7
 10
159.012659
 20
169.866886
 30
0.0
 40
1.0
  0
TEXT
  8
0
  6
CONTINUOUS
 62
     7
 10
160.981401
 20
168.870233
 30
0.0
 40
2.0
  1
EN
  7
ROMANS
  0
TEXT
  8
0
  6
CONTINUOUS
 62
     7
 10
160.957459
 20
165.592976
 30
0.0
 40
2.0
  1
CS
  7
ROMANS
  0
TEXT
  8
0
  6
CONTINUOUS
 62
     7
 10
160.957459
 20
162.259643
 30
0.0
 40
2.0
  1
NC23
  7
ROMANS
  0
TEXT
  8
0
  6
CONTINUOUS
 62
     7
 10
160.957459
 20
158.92631
 30
0.0
 40
2.0
  1
CSF23
  7
ROMANS
  0
LINE
  8
0
  6
CONTINUOUS
 62
     7
 10
160.0
 20
172.5
 30
0.0
 11
190.450615
 21
172.5
 31
0.0
  0
TEXT
  8
0
  6
CONTINUOUS
 62
     7
 10
160.957459
 20
208.092976
 30
0.0
 40
2.0
  1
CS
  7
ROMANS
  0
TEXT
  8
0
  6
CONTINUOUS
 62
     7
 10
160.987818
 20
211.483343
 30
0.0
 40
2.0
  1
EN
  7
ROMANS
  0
LINE
  8
0
  6
CONTINUOUS
 62
     7
 10
178.967927
 20
190.87588
 30
0.0
 11
178.967927
 21
189.087749
 31
0.0
  0
LINE
  8
0
  6
CONTINUOUS
 62
     7
 10
171.184263
 20
190.030602
 30
0.0
 11
178.972468
 21
190.030602
 31
0.0
  0
LINE
  8
0
  6
CONTINUOUS
 62
     7
 10
171.153232
 20
190.87588
 30
0.0
 11
171.153232
 21
189.087749
 31
0.0
  0
LINE
  8
0
  6
CONTINUOUS
 62
     7
 10
164.194491
 20
197.719469
 30
0.0
 11
165.749512
 21
196.751336
 31
0.0
  0
LINE
  8
0
  6
CONTINUOUS
 62
     7
 10
165.749512
 20
196.751336
 30
0.0
 11
164.127073
 21
196.007073
 31
0.0
  0
TEXT
  8
0
  6
CONTINUOUS
 62
     7
 10
161.352497
 20
195.868287
 30
0.0
 40
2.0
  1
U
  0
LINE
  8
0
  6
CONTINUOUS
 62
     7
 10
165.593891
 20
192.607079
 30
0.0
 11
167.21633
 21
193.351342
 31
0.0
  0
LINE
  8
0
  6
CONTINUOUS
 62
     7
 10
167.148912
 20
191.638946
 30
0.0
 11
165.593891
 21
192.607079
 31
0.0
  0
TEXT
  8
0
  6
CONTINUOUS
 62
     7
 10
163.507252
 20
191.715361
 30
0.0
 40
2.0
  1
U
  0
TEXT
  8
0
  6
HIDDEN
 62
     7
 10
161.125127
 20
191.75425
 30
0.0
 40
2.008047
  1
D
  7
GREEKC
  0
LINE
  8
0
  6
CONTINUOUS
 62
     7
 10
165.593891
 20
188.358783
 30
0.0
 11
167.21633
 21
189.103046
 31
0.0
  0
LINE
  8
0
  6
CONTINUOUS
 62
     7
 10
167.148912
 20
187.39065
 30
0.0
 11
165.593891
 21
188.358783
 31
0.0
  0
TEXT
  8
0
  6
HIDDEN
 62
     7
 10
161.125127
 20
187.401914
 30
0.0
 40
2.008047
  1
D
  7
GREEKC
  0
TEXT
  8
0
  6
CONTINUOUS
 62
     7
 10
163.240114
 20
188.039536
 30
0.0
 40
1.885723
  1
f
  7
GREEKC
  0
LINE
  8
0
  6
CONTINUOUS
 62
     7
 10
165.593891
 20
184.119157
 30
0.0
 11
167.21633
 21
184.86342
 31
0.0
  0
LINE
  8
0
  6
CONTINUOUS
 62
     7
 10
167.148912
 20
183.151024
 30
0.0
 11
165.593891
 21
184.119157
 31
0.0
  0
TEXT
  8
0
  6
CONTINUOUS
 62
     7
 10
163.495281
 20
183.149408
 30
0.0
 40
2.0
  1
f
  0
TEXT
  8
0
  6
HIDDEN
 62
     7
 10
161.125127
 20
183.153617
 30
0.0
 40
2.008047
  1
D
  7
GREEKC
  0
LINE
  8
0
  6
CONTINUOUS
 62
     7
 10
180.0
 20
172.5
 30
0.0
 11
180.0
 21
200.0
 31
0.0
  0
LINE
  8
0
  6
CONTINUOUS
 62
     7
 10
171.153232
 20
177.246652
 30
0.0
 11
171.153232
 21
175.458521
 31
0.0
  0
LINE
  8
0
  6
CONTINUOUS
 62
     7
 10
171.184263
 20
176.401374
 30
0.0
 11
178.972468
 21
176.401374
 31
0.0
  0
LINE
  8
0
  6
CONTINUOUS
 62
     7
 10
173.568408
 20
175.233771
 30
0.0
 11
176.444519
 21
178.062329
 31
0.0
  0
LINE
  8
0
  6
CONTINUOUS
 62
     7
 10
175.990396
 20
178.599536
 30
0.0
 11
176.891073
 21
177.475787
 31
0.0
  0
LINE
  8
0
  6
CONTINUOUS
 62
     7
 10
178.967927
 20
177.246652
 30
0.0
 11
178.967927
 21
175.458521
 31
0.0
  0
TEXT
  8
0
  6
CONTINUOUS
 62
     7
 10
161.208847
 20
177.479233
 30
0.0
 40
2.0
  1
U
  0
LINE
  8
0
  6
CONTINUOUS
 62
     7
 10
165.486153
 20
178.362282
 30
0.0
 11
163.863715
 21
177.618019
 31
0.0
  0
LINE
  8
0
  6
CONTINUOUS
 62
     7
 10
163.931132
 20
179.330415
 30
0.0
 11
165.486153
 21
178.362282
 31
0.0
  0
TEXT
  8
0
  6
CONTINUOUS
 62
     7
 10
161.208847
 20
174.063256
 30
0.0
 40
2.0
  1
U
  0
LINE
  8
0
  6
CONTINUOUS
 62
     7
 10
163.917971
 20
175.206405
 30
0.0
 11
165.54041
 21
175.950668
 31
0.0
  0
LINE
  8
0
  6
CONTINUOUS
 62
     7
 10
165.472992
 20
174.238272
 30
0.0
 11
163.917971
 21
175.206405
 31
0.0
  0
LINE
  8
0
  6
CONTINUOUS
 62
     7
 10
180.0
 20
182.5
 30
0.0
 11
160.0
 21
182.5
 31
0.0
  0
LINE
  8
0
  6
CONTINUOUS
 62
     7
 10
160.0
 20
200.0
 30
0.0
 11
180.0
 21
200.0
 31
0.0
  0
CIRCLE
  8
0
  6
CONTINUOUS
 62
     7
 10
159.0
 20
212.479354
 30
0.0
 40
1.0
  0
LINE
  8
0
  6
CONTINUOUS
 62
     7
 10
160.0
 20
215.0
 30
0.0
 11
190.450615
 21
215.0
 31
0.0
  0
TEXT
  8
0
  6
CONTINUOUS
 62
     7
 10
176.172418
 20
208.058599
 30
0.0
 40
2.0
  1
SC13/
  7
ROMANS
  0
TEXT
  8
0
  6
CONTINUOUS
 62
     7
 10
176.172418
 20
204.725266
 30
0.0
 40
2.0
  1
VC13
  7
ROMANS
  0
TEXT
  8
0
  6
CONTINUOUS
 62
     7
 10
176.172418
 20
165.585623
 30
0.0
 40
2.0
  1
SC23/
  7
ROMANS
  0
TEXT
  8
0
  6
CONTINUOUS
 62
     7
 10
176.172418
 20
162.25229
 30
0.0
 40
2.0
  1
VC23
  7
ROMANS
  0
LINE
  8
0
  6
CONTINUOUS
 62
     7
 10
95.0
 20
115.0
 30
0.0
 11
95.0
 21
117.5
 31
0.0
  0
LINE
  8
0
  6
CONTINUOUS
 62
     7
 10
95.0
 20
117.5
 30
0.0
 11
93.285914
 21
122.586297
 31
0.0
  0
LINE
  8
0
  6
CONTINUOUS
 62
     7
 10
95.0
 20
122.5
 30
0.0
 11
95.0
 21
159.805597
 31
0.0
  0
LINE
  8
0
  6
CONTINUOUS
 62
     7
 10
125.0
 20
85.0
 30
0.0
 11
119.256076
 21
81.785297
 31
0.0
  0
LINE
  8
0
  6
CONTINUOUS
 62
     7
 10
152.482972
 20
85.0
 30
0.0
 11
125.0
 21
85.0
 31
0.0
  0
LINE
  8
0
  6
CONTINUOUS
 62
     7
 10
46.000004
 20
85.0
 30
0.0
 11
117.5
 21
85.0
 31
0.0
  0
LINE
  8
0
  6
CONTINUOUS
 62
     7
 10
46.000004
 20
92.5
 30
0.0
 11
102.5
 21
92.5
 31
0.0
  0
LINE
  8
0
  6
CONTINUOUS
 62
     7
 10
157.482972
 20
92.5
 30
0.0
 11
110.0
 21
92.5
 31
0.0
  0
LINE
  8
0
  6
CONTINUOUS
 62
     7
 10
110.0
 20
92.5
 30
0.0
 11
104.256076
 21
89.285297
 31
0.0
  0
LINE
  8
0
  6
CONTINUOUS
 62
     7
 10
90.0
 20
100.0
 30
0.0
 11
84.256076
 21
96.785297
 31
0.0
  0
LINE
  8
0
  6
CONTINUOUS
 62
     7
 10
162.50793
 20
100.0
 30
0.0
 11
90.0
 21
100.0
 31
0.0
  0
LINE
  8
0
  6
CONTINUOUS
 62
     7
 10
25.0
 20
100.0
 30
0.0
 11
82.5
 21
100.0
 31
0.0
  0
LINE
  8
0
 62
     7
 10
62.721556
 20
195.9
 30
0.0
 11
62.721556
 21
204.089925
 31
0.0
  0
LINE
  8
0
 62
     7
 10
55.298812
 20
195.9
 30
0.0
 11
62.721556
 21
195.9
 31
0.0
  0
LINE
  8
0
 62
     7
 10
62.721556
 20
204.089925
 30
0.0
 11
55.298812
 21
204.089925
 31
0.0
  0
LINE
  8
0
 62
     7
 10
60.996971
 20
204.09384
 30
0.0
 11
59.142636
 21
201.815018
 31
0.0
  0
LINE
  8
0
 62
     7
 10
59.504853
 20
204.09384
 30
0.0
 11
57.59105
 21
201.815018
 31
0.0
  0
LINE
  8
0
 62
     7
 10
55.298812
 20
204.089925
 30
0.0
 11
55.298812
 21
195.9
 31
0.0
  0
LINE
  8
0
  6
CONTINUOUS
 62
     7
 10
62.721556
 20
200.0
 30
0.0
 11
75.0
 21
200.0
 31
0.0
  0
LINE
  8
0
  6
CONTINUOUS
 62
     7
 10
62.721556
 20
172.5
 30
0.0
 11
125.0
 21
172.5
 31
0.0
  0
LINE
  8
0
 62
     7
 10
55.298812
 20
176.589925
 30
0.0
 11
55.298812
 21
168.4
 31
0.0
  0
LINE
  8
0
 62
     7
 10
59.504853
 20
176.59384
 30
0.0
 11
57.59105
 21
174.315018
 31
0.0
  0
LINE
  8
0
 62
     7
 10
60.996971
 20
176.59384
 30
0.0
 11
59.142636
 21
174.315018
 31
0.0
  0
LINE
  8
0
 62
     7
 10
62.721556
 20
176.589925
 30
0.0
 11
55.298812
 21
176.589925
 31
0.0
  0
LINE
  8
0
 62
     7
 10
55.298812
 20
168.4
 30
0.0
 11
62.721556
 21
168.4
 31
0.0
  0
LINE
  8
0
 62
     7
 10
62.721556
 20
168.4
 30
0.0
 11
62.721556
 21
176.589925
 31
0.0
  0
LINE
  8
0
 62
     7
 10
62.721556
 20
180.9
 30
0.0
 11
62.721556
 21
189.089925
 31
0.0
  0
LINE
  8
0
 62
     7
 10
55.298812
 20
180.9
 30
0.0
 11
62.721556
 21
180.9
 31
0.0
  0
LINE
  8
0
 62
     7
 10
62.721556
 20
189.089925
 30
0.0
 11
55.298812
 21
189.089925
 31
0.0
  0
LINE
  8
0
 62
     7
 10
60.996971
 20
189.09384
 30
0.0
 11
59.142636
 21
186.815018
 31
0.0
  0
LINE
  8
0
 62
     7
 10
59.504853
 20
189.09384
 30
0.0
 11
57.59105
 21
186.815018
 31
0.0
  0
LINE
  8
0
 62
     7
 10
55.298812
 20
189.089925
 30
0.0
 11
55.298812
 21
180.9
 31
0.0
  0
LINE
  8
0
  6
CONTINUOUS
 62
     7
 10
62.721556
 20
185.0
 30
0.0
 11
130.0
 21
185.0
 31
0.0
  0
LINE
  8
0
  6
CONTINUOUS
 62
     7
 10
160.0
 20
135.0
 30
0.0
 11
125.0
 21
135.0
 31
0.0
  0
LINE
  8
0
  6
CONTINUOUS
 62
     7
 10
160.0
 20
147.5
 30
0.0
 11
120.0
 21
147.5
 31
0.0
  0
LINE
  8
0
  6
CONTINUOUS
 62
     7
 10
160.0
 20
177.5
 30
0.0
 11
110.0
 21
177.5
 31
0.0
  0
LINE
  8
0
  6
CONTINUOUS
 62
     7
 10
160.0
 20
190.0
 30
0.0
 11
105.0
 21
190.0
 31
0.0
  0
LINE
  8
0
  6
CONTINUOUS
 62
     7
 10
120.0
 20
115.0
 30
0.0
 11
120.0
 21
117.5
 31
0.0
  0
LINE
  8
0
  6
CONTINUOUS
 62
     7
 10
120.0
 20
117.5
 30
0.0
 11
118.285914
 21
122.586297
 31
0.0
  0
LINE
  8
0
  6
CONTINUOUS
 62
     7
 10
120.0
 20
122.5
 30
0.0
 11
120.0
 21
147.5
 31
0.0
  0
LINE
  8
0
  6
CONTINUOUS
 62
     7
 10
158.000213
 20
212.5
 30
0.0
 11
155.0
 21
212.5
 31
0.0
  0
LINE
  8
0
  6
CONTINUOUS
 62
     7
 10
155.0
 20
212.5
 30
0.0
 11
149.913703
 21
210.785914
 31
0.0
  0
LINE
  8
0
  6
CONTINUOUS
 62
     7
 10
150.0
 20
212.5
 30
0.0
 11
137.5
 21
212.5
 31
0.0
  0
LINE
  8
0
  6
CONTINUOUS
 62
     7
 10
150.0
 20
208.963875
 30
0.0
 11
75.0
 21
208.963875
 31
0.0
  0
LINE
  8
0
  6
CONTINUOUS
 62
     7
 10
155.0
 20
208.963875
 30
0.0
 11
149.913703
 21
207.249789
 31
0.0
  0
LINE
  8
0
  6
CONTINUOUS
 62
     7
 10
160.0
 20
208.963875
 30
0.0
 11
155.0
 21
208.963875
 31
0.0
  0
LINE
  8
0
  6
CONTINUOUS
 62
     7
 10
155.012445
 20
169.866886
 30
0.0
 11
149.926148
 21
168.1528
 31
0.0
  0
LINE
  8
0
  6
CONTINUOUS
 62
     7
 10
158.012659
 20
169.866886
 30
0.0
 11
155.012445
 21
169.866886
 31
0.0
  0
LINE
  8
0
  6
CONTINUOUS
 62
     7
 10
150.012445
 20
169.866886
 30
0.0
 11
130.0
 21
169.866886
 31
0.0
  0
LINE
  8
0
  6
CONTINUOUS
 62
     7
 10
150.012445
 20
166.477456
 30
0.0
 11
125.0
 21
166.477456
 31
0.0
  0
LINE
  8
0
  6
CONTINUOUS
 62
     7
 10
155.012445
 20
166.477456
 30
0.0
 11
149.926148
 21
164.763369
 31
0.0
  0
LINE
  8
0
  6
CONTINUOUS
 62
     7
 10
160.0
 20
166.477456
 30
0.0
 11
155.012445
 21
166.477456
 31
0.0
  0
LINE
  8
0
  6
CONTINUOUS
 62
     7
 10
160.0
 20
205.645275
 30
0.0
 11
80.0
 21
205.645275
 31
0.0
  0
LINE
  8
0
  6
CONTINUOUS
 62
     7
 10
160.0
 20
202.361335
 30
0.0
 11
85.0
 21
202.361335
 31
0.0
  0
LINE
  8
0
  6
CONTINUOUS
 62
     7
 10
160.0
 20
163.124197
 30
0.0
 11
90.0
 21
163.124197
 31
0.0
  0
LINE
  8
0
  6
CONTINUOUS
 62
     7
 10
160.0
 20
159.805597
 30
0.0
 11
95.0
 21
159.805597
 31
0.0
  0
LINE
  8
0
  6
CONTINUOUS
 62
     7
 10
75.0
 20
200.0
 30
0.0
 11
75.0
 21
208.963875
 31
0.0
  0
LINE
  8
0
  6
CONTINUOUS
 62
     7
 10
130.0
 20
169.866886
 30
0.0
 11
130.0
 21
185.0
 31
0.0
  0
LINE
  8
0
  6
CONTINUOUS
 62
     7
 10
125.0
 20
172.5
 30
0.0
 11
125.0
 21
166.477456
 31
0.0
  0
TEXT
  8
0
  6
CONTINUOUS
 62
     7
 10
141.130647
 20
213.443552
 30
0.0
 40
1.5
  1
SGB/1
  7
ROMANS
  0
TEXT
  8
0
  6
CONTINUOUS
 62
     7
 10
141.130647
 20
209.817134
 30
0.0
 40
1.5
  1
SGB/3
  7
ROMANS
  0
TEXT
  8
0
  6
CONTINUOUS
 62
     7
 10
141.130647
 20
170.500605
 30
0.0
 40
1.5
  1
SGB/2
  7
ROMANS
  0
TEXT
  8
0
  6
CONTINUOUS
 62
     7
 10
141.130647
 20
167.229442
 30
0.0
 40
1.5
  1
SGB/4
  7
ROMANS
  0
TEXT
  8
0
  6
CONTINUOUS
 62
     7
 10
82.90398
 20
123.589151
 30
0.0
 40
2.0
  1
SGR/1
 50
90.0
  7
ROMANS
  0
TEXT
  8
0
  6
CONTINUOUS
 62
     7
 10
87.880449
 20
123.589151
 30
0.0
 40
2.0
  1
SGR/3
 50
90.0
  7
ROMANS
  0
TEXT
  8
0
  6
CONTINUOUS
 62
     7
 10
92.952628
 20
123.589151
 30
0.0
 40
2.0
  1
SGR/5
 50
90.0
  7
ROMANS
  0
TEXT
  8
0
  6
CONTINUOUS
 62
     7
 10
97.845352
 20
123.589151
 30
0.0
 40
2.0
  1
SGR/7
 50
90.0
  7
ROMANS
  0
TEXT
  8
0
  6
CONTINUOUS
 62
     7
 10
108.073851
 20
123.589151
 30
0.0
 40
2.0
  1
SGF/3
 50
90.0
  7
ROMANS
  0
TEXT
  8
0
  6
CONTINUOUS
 62
     7
 10
112.966575
 20
123.589151
 30
0.0
 40
2.0
  1
SGF/4
 50
90.0
  7
ROMANS
  0
TEXT
  8
0
  6
CONTINUOUS
 62
     7
 10
122.991693
 20
123.589151
 30
0.0
 40
2.0
  1
SGF/7
 50
90.0
  7
ROMANS
  0
TEXT
  8
0
  6
CONTINUOUS
 62
     7
 10
128.255289
 20
123.589151
 30
0.0
 40
2.0
  1
SGF/8
 50
90.0
  7
ROMANS
  0
LINE
  8
0
  6
DASHED
 62
     7
 10
122.5
 20
102.5
 30
0.0
 11
122.5
 21
82.5
 31
0.0
  0
LINE
  8
0
  6
DASHED
 62
     7
 10
107.5
 20
102.5
 30
0.0
 11
107.5
 21
90.0
 31
0.0
  0
LINE
  8
0
  6
DASHED
 62
     7
 10
87.5
 20
102.5
 30
0.0
 11
87.5
 21
97.5
 31
0.0
  0
LINE
  8
0
  6
DASHED
 62
     7
 10
137.5
 20
102.5
 30
0.0
 11
137.5
 21
75.0
 31
0.0
  0
LINE
  8
0
  6
CONTINUOUS
 62
     7
 10
137.5
 20
102.5
 30
0.0
 11
137.5
 21
123.325312
 31
0.0
  0
LINE
  8
0
  6
CONTINUOUS
 62
     7
 10
210.0
 20
160.0
 30
0.0
 11
190.450615
 21
160.0
 31
0.0
  0
LINE
  8
0
  6
CONTINUOUS
 62
     7
 10
190.450615
 20
165.0
 30
0.0
 11
200.0
 21
165.0
 31
0.0
  0
LINE
  8
0
  6
CONTINUOUS
 62
     7
 10
200.0
 20
165.0
 30
0.0
 11
200.0
 21
200.0
 31
0.0
  0
LINE
  8
0
  6
CONTINUOUS
 62
     7
 10
200.0
 20
200.0
 30
0.0
 11
190.450615
 21
200.0
 31
0.0
  0
LINE
  8
0
  6
CONTINUOUS
 62
     7
 10
210.0
 20
205.0
 30
0.0
 11
190.450615
 21
205.0
 31
0.0
  0
LINE
  8
0
  6
CONTINUOUS
 62
     7
 10
210.0
 20
182.5
 30
0.0
 11
200.0
 21
182.5
 31
0.0
  0
TEXT
  8
0
  6
DASHED
 62
     7
 10
4.369019
 20
200.0
 30
0.0
 40
2.0
  1
1)
  7
ROMANS
  0
TEXT
  8
0
  6
DASHED
 62
     7
 10
4.369019
 20
185.0
 30
0.0
 40
2.0
  1
1)
  7
ROMANS
  0
TEXT
  8
0
  6
DASHED
 62
     7
 10
4.369019
 20
172.5
 30
0.0
 40
2.0
  1
1)
  0
LINE
  8
0
  6
DASHED
 62
     7
 10
252.5
 20
217.5
 30
0.0
 11
252.5
 21
200.0
 31
0.0
  0
LINE
  8
0
  6
DASHED
 62
     7
 10
252.5
 20
200.0
 30
0.0
 11
227.5
 21
200.0
 31
0.0
  0
ARC
  8
0
  6
CONTINUOUS
 62
     7
 10
273.364862
 20
203.796095
 30
0.0
 40
1.204309
 50
90.0
 51
265.706237
  0
LINE
  8
0
  6
CONTINUOUS
 62
     7
 10
274.006031
 20
202.598556
 30
0.0
 11
274.978167
 21
202.598556
 31
0.0
  0
LINE
  8
0
  6
CONTINUOUS
 62
     7
 10
273.358762
 20
202.598547
 30
0.0
 11
274.00836
 21
202.598547
 31
0.0
  0
ARC
  8
0
  6
CONTINUOUS
 62
     7
 10
273.364862
 20
201.394238
 30
0.0
 40
1.204309
 50
90.0
 51
270.0
  0
LINE
  8
0
  6
CONTINUOUS
 62
     7
 10
273.359898
 20
200.189937
 30
0.0
 11
274.009496
 21
200.189937
 31
0.0
  0
LINE
  8
0
  6
CONTINUOUS
 62
     7
 10
274.000897
 20
200.18998
 30
0.0
 11
275.0
 21
200.18998
 31
0.0
  0
LINE
  8
0
  6
CONTINUOUS
 62
     7
 10
273.364862
 20
205.000404
 30
0.0
 11
275.0
 21
205.000404
 31
0.0
  0
LINE
  8
0
  6
CONTINUOUS
 62
     7
 10
269.135138
 20
200.189576
 30
0.0
 11
267.5
 21
200.189576
 31
0.0
  0
LINE
  8
0
  6
CONTINUOUS
 62
     7
 10
268.499103
 20
205.0
 30
0.0
 11
267.5
 21
205.0
 31
0.0
  0
LINE
  8
0
  6
CONTINUOUS
 62
     7
 10
269.140102
 20
205.000043
 30
0.0
 11
268.490504
 21
205.000043
 31
0.0
  0
ARC
  8
0
  6
CONTINUOUS
 62
     7
 10
269.135138
 20
203.795742
 30
0.0
 40
1.204309
 50
270.0
 51
90.0
  0
LINE
  8
0
  6
CONTINUOUS
 62
     7
 10
269.141238
 20
202.591434
 30
0.0
 11
268.49164
 21
202.591434
 31
0.0
  0
LINE
  8
0
  6
CONTINUOUS
 62
     7
 10
268.493969
 20
202.591424
 30
0.0
 11
267.521833
 21
202.591424
 31
0.0
  0
ARC
  8
0
  6
CONTINUOUS
 62
     7
 10
269.135138
 20
201.393885
 30
0.0
 40
1.204309
 50
270.0
 51
85.706237
  0
ARC
  8
0
  6
CONTINUOUS
 62
     7
 10
269.135138
 20
193.893885
 30
0.0
 40
1.204309
 50
270.0
 51
85.706237
  0
LINE
  8
0
  6
CONTINUOUS
 62
     7
 10
268.493969
 20
195.091424
 30
0.0
 11
267.521833
 21
195.091424
 31
0.0
  0
LINE
  8
0
  6
CONTINUOUS
 62
     7
 10
269.141238
 20
195.091434
 30
0.0
 11
268.49164
 21
195.091434
 31
0.0
  0
ARC
  8
0
  6
CONTINUOUS
 62
     7
 10
269.135138
 20
196.295742
 30
0.0
 40
1.204309
 50
270.0
 51
90.0
  0
LINE
  8
0
  6
CONTINUOUS
 62
     7
 10
269.140102
 20
197.500043
 30
0.0
 11
268.490504
 21
197.500043
 31
0.0
  0
LINE
  8
0
  6
CONTINUOUS
 62
     7
 10
268.499103
 20
197.5
 30
0.0
 11
267.5
 21
197.5
 31
0.0
  0
LINE
  8
0
  6
CONTINUOUS
 62
     7
 10
269.135138
 20
192.689576
 30
0.0
 11
267.5
 21
192.689576
 31
0.0
  0
LINE
  8
0
  6
CONTINUOUS
 62
     7
 10
273.364862
 20
197.500404
 30
0.0
 11
275.0
 21
197.500404
 31
0.0
  0
LINE
  8
0
  6
CONTINUOUS
 62
     7
 10
274.000897
 20
192.68998
 30
0.0
 11
275.0
 21
192.68998
 31
0.0
  0
LINE
  8
0
  6
CONTINUOUS
 62
     7
 10
273.359898
 20
192.689937
 30
0.0
 11
274.009496
 21
192.689937
 31
0.0
  0
ARC
  8
0
  6
CONTINUOUS
 62
     7
 10
273.364862
 20
193.894238
 30
0.0
 40
1.204309
 50
90.0
 51
270.0
  0
LINE
  8
0
  6
CONTINUOUS
 62
     7
 10
273.358762
 20
195.098547
 30
0.0
 11
274.00836
 21
195.098547
 31
0.0
  0
LINE
  8
0
  6
CONTINUOUS
 62
     7
 10
274.006031
 20
195.098556
 30
0.0
 11
274.978167
 21
195.098556
 31
0.0
  0
ARC
  8
0
  6
CONTINUOUS
 62
     7
 10
273.364862
 20
196.296095
 30
0.0
 40
1.204309
 50
90.0
 51
265.706237
  0
ARC
  8
0
  6
CONTINUOUS
 62
     7
 10
273.364862
 20
188.796095
 30
0.0
 40
1.204309
 50
90.0
 51
265.706237
  0
LINE
  8
0
  6
CONTINUOUS
 62
     7
 10
274.006031
 20
187.598556
 30
0.0
 11
274.978167
 21
187.598556
 31
0.0
  0
LINE
  8
0
  6
CONTINUOUS
 62
     7
 10
273.358762
 20
187.598547
 30
0.0
 11
274.00836
 21
187.598547
 31
0.0
  0
ARC
  8
0
  6
CONTINUOUS
 62
     7
 10
273.364862
 20
186.394238
 30
0.0
 40
1.204309
 50
90.0
 51
270.0
  0
LINE
  8
0
  6
CONTINUOUS
 62
     7
 10
273.359898
 20
185.189937
 30
0.0
 11
274.009496
 21
185.189937
 31
0.0
  0
LINE
  8
0
  6
CONTINUOUS
 62
     7
 10
274.000897
 20
185.18998
 30
0.0
 11
275.0
 21
185.18998
 31
0.0
  0
LINE
  8
0
  6
CONTINUOUS
 62
     7
 10
273.364862
 20
190.000404
 30
0.0
 11
275.0
 21
190.000404
 31
0.0
  0
LINE
  8
0
  6
CONTINUOUS
 62
     7
 10
269.135138
 20
185.189576
 30
0.0
 11
267.5
 21
185.189576
 31
0.0
  0
LINE
  8
0
  6
CONTINUOUS
 62
     7
 10
268.499103
 20
190.0
 30
0.0
 11
267.5
 21
190.0
 31
0.0
  0
LINE
  8
0
  6
CONTINUOUS
 62
     7
 10
269.140102
 20
190.000043
 30
0.0
 11
268.490504
 21
190.000043
 31
0.0
  0
ARC
  8
0
  6
CONTINUOUS
 62
     7
 10
269.135138
 20
188.795742
 30
0.0
 40
1.204309
 50
270.0
 51
90.0
  0
LINE
  8
0
  6
CONTINUOUS
 62
     7
 10
269.141238
 20
187.591434
 30
0.0
 11
268.49164
 21
187.591434
 31
0.0
  0
LINE
  8
0
  6
CONTINUOUS
 62
     7
 10
268.493969
 20
187.591424
 30
0.0
 11
267.521833
 21
187.591424
 31
0.0
  0
ARC
  8
0
  6
CONTINUOUS
 62
     7
 10
269.135138
 20
186.393885
 30
0.0
 40
1.204309
 50
270.0
 51
85.706237
  0
LINE
  8
0
  6
DASHED
 62
     7
 10
265.0
 20
180.0
 30
0.0
 11
265.0
 21
185.0
 31
0.0
  0
LINE
  8
0
  6
CONTINUOUS
 62
     7
 10
337.5
 20
197.5
 30
0.0
 11
357.5
 21
197.5
 31
0.0
  0
LINE
  8
0
  6
CONTINUOUS
 62
     7
 10
351.506031
 20
195.098556
 30
0.0
 11
352.478167
 21
195.098556
 31
0.0
  0
LINE
  8
0
  6
CONTINUOUS
 62
     7
 10
351.496128
 20
197.499996
 30
0.0
 11
352.473936
 21
197.499996
 31
0.0
  0
LINE
  8
0
  6
CONTINUOUS
 62
     7
 10
351.500897
 20
192.68998
 30
0.0
 11
352.5
 21
192.68998
 31
0.0
  0
ARC
  8
0
  6
CONTINUOUS
 62
     7
 10
350.864862
 20
193.894238
 30
0.0
 40
1.204309
 50
90.0
 51
270.0
  0
LINE
  8
0
  6
CONTINUOUS
 62
     7
 10
350.859898
 20
192.689937
 30
0.0
 11
351.509496
 21
192.689937
 31
0.0
  0
LINE
  8
0
  6
CONTINUOUS
 62
     7
 10
350.858762
 20
197.499993
 30
0.0
 11
351.502261
 21
197.499993
 31
0.0
  0
LINE
  8
0
  6
CONTINUOUS
 62
     7
 10
350.858762
 20
195.098547
 30
0.0
 11
351.50836
 21
195.098547
 31
0.0
  0
ARC
  8
0
  6
CONTINUOUS
 62
     7
 10
350.864862
 20
196.296095
 30
0.0
 40
1.204309
 50
90.0
 51
265.706237
  0
LINE
  8
0
  6
CONTINUOUS
 62
     7
 10
352.5
 20
192.68998
 30
0.0
 11
352.5
 21
190.0
 31
0.0
  0
LINE
  8
0
  6
DASHED
 62
     7
 10
352.5
 20
207.5
 30
0.0
 11
352.5
 21
220.0
 31
0.0
  0
LINE
  8
0
  6
CONTINUOUS
 62
     7
 10
336.506031
 20
195.098556
 30
0.0
 11
337.478167
 21
195.098556
 31
0.0
  0
LINE
  8
0
  6
CONTINUOUS
 62
     7
 10
336.496128
 20
197.499996
 30
0.0
 11
337.473936
 21
197.499996
 31
0.0
  0
LINE
  8
0
  6
CONTINUOUS
 62
     7
 10
336.500897
 20
192.68998
 30
0.0
 11
337.5
 21
192.68998
 31
0.0
  0
ARC
  8
0
  6
CONTINUOUS
 62
     7
 10
335.864862
 20
193.894238
 30
0.0
 40
1.204309
 50
90.0
 51
270.0
  0
LINE
  8
0
  6
CONTINUOUS
 62
     7
 10
335.859898
 20
192.689937
 30
0.0
 11
336.509496
 21
192.689937
 31
0.0
  0
LINE
  8
0
  6
CONTINUOUS
 62
     7
 10
335.858762
 20
197.499993
 30
0.0
 11
336.502261
 21
197.499993
 31
0.0
  0
LINE
  8
0
  6
CONTINUOUS
 62
     7
 10
335.858762
 20
195.098547
 30
0.0
 11
336.50836
 21
195.098547
 31
0.0
  0
ARC
  8
0
  6
CONTINUOUS
 62
     7
 10
335.864862
 20
196.296095
 30
0.0
 40
1.204309
 50
90.0
 51
265.706237
  0
LINE
  8
0
  6
CONTINUOUS
 62
     7
 10
344.006031
 20
195.098556
 30
0.0
 11
344.978167
 21
195.098556
 31
0.0
  0
LINE
  8
0
  6
CONTINUOUS
 62
     7
 10
343.996128
 20
197.499996
 30
0.0
 11
344.973936
 21
197.499996
 31
0.0
  0
LINE
  8
0
  6
CONTINUOUS
 62
     7
 10
344.000897
 20
192.68998
 30
0.0
 11
345.0
 21
192.68998
 31
0.0
  0
ARC
  8
0
  6
CONTINUOUS
 62
     7
 10
343.364862
 20
193.894238
 30
0.0
 40
1.204309
 50
90.0
 51
270.0
  0
LINE
  8
0
  6
CONTINUOUS
 62
     7
 10
343.359898
 20
192.689937
 30
0.0
 11
344.009496
 21
192.689937
 31
0.0
  0
LINE
  8
0
  6
CONTINUOUS
 62
     7
 10
343.358762
 20
197.499993
 30
0.0
 11
344.002261
 21
197.499993
 31
0.0
  0
LINE
  8
0
  6
CONTINUOUS
 62
     7
 10
343.358762
 20
195.098547
 30
0.0
 11
344.00836
 21
195.098547
 31
0.0
  0
ARC
  8
0
  6
CONTINUOUS
 62
     7
 10
343.364862
 20
196.296095
 30
0.0
 40
1.204309
 50
90.0
 51
265.706237
  0
LINE
  8
0
  6
CONTINUOUS
 62
     7
 10
345.0
 20
192.68998
 30
0.0
 11
345.0
 21
190.0
 31
0.0
  0
LINE
  8
0
  6
CONTINUOUS
 62
     7
 10
337.5
 20
192.68998
 30
0.0
 11
337.5
 21
190.0
 31
0.0
  0
LINE
  8
0
  6
DASHED
 62
     7
 10
345.0
 20
207.5
 30
0.0
 11
345.0
 21
225.0
 31
0.0
  0
LINE
  8
0
  6
DASHED
 62
     7
 10
337.5
 20
207.5
 30
0.0
 11
337.5
 21
230.0
 31
0.0
  0
LINE
  8
0
  6
CONTINUOUS
 62
     7
 10
337.5
 20
202.68998
 30
0.0
 11
357.5
 21
202.68998
 31
0.0
  0
LINE
  8
0
  6
DASHED
 62
     7
 10
317.5
 20
215.0
 30
0.0
 11
317.5
 21
230.0
 31
0.0
  0
LINE
  8
0
  6
DASHED
 62
     7
 10
322.5
 20
225.0
 30
0.0
 11
322.5
 21
215.0
 31
0.0
  0
LINE
  8
0
  6
DASHED
 62
     7
 10
327.5
 20
220.0
 30
0.0
 11
327.5
 21
215.0
 31
0.0
  0
LINE
  8
0
  6
CONTINUOUS
 62
     7
 10
317.5
 20
207.5
 30
0.0
 11
315.0
 21
215.0
 31
0.0
  0
LINE
  8
0
  6
CONTINUOUS
 62
     7
 10
322.5
 20
207.5
 30
0.0
 11
320.0
 21
215.0
 31
0.0
  0
LINE
  8
0
  6
CONTINUOUS
 62
     7
 10
327.5
 20
207.5
 30
0.0
 11
325.0
 21
215.0
 31
0.0
  0
LINE
  8
0
  6
CONTINUOUS
 62
     7
 10
317.5
 20
215.0
 30
0.0
 11
317.0
 21
215.5
 31
0.0
  0
LINE
  8
0
  6
CONTINUOUS
 62
     7
 10
317.5
 20
215.0
 30
0.0
 11
318.0
 21
214.5
 31
0.0
  0
LINE
  8
0
  6
CONTINUOUS
 62
     7
 10
317.5
 20
215.0
 30
0.0
 11
318.0
 21
215.5
 31
0.0
  0
LINE
  8
0
  6
CONTINUOUS
 62
     7
 10
317.5
 20
215.0
 30
0.0
 11
317.0
 21
214.5
 31
0.0
  0
LINE
  8
0
  6
CONTINUOUS
 62
     7
 10
322.5
 20
215.0
 30
0.0
 11
323.0
 21
215.5
 31
0.0
  0
LINE
  8
0
  6
CONTINUOUS
 62
     7
 10
322.5
 20
215.0
 30
0.0
 11
323.0
 21
214.5
 31
0.0
  0
LINE
  8
0
  6
CONTINUOUS
 62
     7
 10
322.5
 20
215.0
 30
0.0
 11
322.0
 21
214.5
 31
0.0
  0
LINE
  8
0
  6
CONTINUOUS
 62
     7
 10
322.5
 20
215.0
 30
0.0
 11
322.0
 21
215.5
 31
0.0
  0
LINE
  8
0
  6
CONTINUOUS
 62
     7
 10
327.5
 20
215.0
 30
0.0
 11
328.0
 21
214.5
 31
0.0
  0
LINE
  8
0
  6
CONTINUOUS
 62
     7
 10
327.5
 20
215.0
 30
0.0
 11
328.0
 21
215.5
 31
0.0
  0
LINE
  8
0
  6
CONTINUOUS
 62
     7
 10
327.5
 20
215.0
 30
0.0
 11
327.0
 21
215.5
 31
0.0
  0
LINE
  8
0
  6
CONTINUOUS
 62
     7
 10
327.5
 20
215.0
 30
0.0
 11
327.0
 21
214.5
 31
0.0
  0
LINE
  8
0
  6
DASHED
 62
     7
 10
327.5
 20
207.5
 30
0.0
 11
327.5
 21
190.0
 31
0.0
  0
LINE
  8
0
  6
DASHED
 62
     7
 10
322.5
 20
207.5
 30
0.0
 11
322.5
 21
197.5
 31
0.0
  0
LINE
  8
0
  6
DASHED
 62
     7
 10
317.5
 20
207.5
 30
0.0
 11
317.5
 21
205.0
 31
0.0
  0
LINE
  8
0
  6
DASHED
 62
     7
 10
310.0
 20
230.0
 30
0.0
 11
362.5
 21
230.0
 31
0.0
  0
LINE
  8
0
  6
DASHED
 62
     7
 10
310.0
 20
225.0
 30
0.0
 11
362.5
 21
225.0
 31
0.0
  0
LINE
  8
0
  6
DASHED
 62
     7
 10
310.0
 20
220.0
 30
0.0
 11
362.5
 21
220.0
 31
0.0
  0
TEXT
  8
0
  6
CONTINUOUS
 62
     7
 10
301.232328
 20
219.006967
 30
0.0
 40
2.0
  1
L3(T)
  7
ROMANS
 11
301.232328
 21
218.3403
 31
0.0
 73
     1
  0
TEXT
  8
0
  6
CONTINUOUS
 62
     7
 10
301.232328
 20
223.928359
 30
0.0
 40
2.0
  1
L2(S)
  7
ROMANS
 11
301.232328
 21
223.261693
 31
0.0
 73
     1
  0
TEXT
  8
0
  6
CONTINUOUS
 62
     7
 10
301.232328
 20
228.985054
 30
0.0
 40
2.0
  1
L1(R)
  7
ROMANS
 11
301.232328
 21
228.318387
 31
0.0
 73
     1
  0
LINE
  8
0
  6
DASHED
 62
     7
 10
275.0
 20
205.0
 30
0.0
 11
317.5
 21
205.0
 31
0.0
  0
LINE
  8
0
  6
DASHED
 62
     7
 10
322.5
 20
197.5
 30
0.0
 11
275.0
 21
197.5
 31
0.0
  0
LINE
  8
0
  6
DASHED
 62
     7
 10
275.0
 20
190.0
 30
0.0
 11
327.5
 21
190.0
 31
0.0
  0
LINE
  8
0
  6
DASHED
 62
     7
 10
267.5
 20
205.0
 30
0.0
 11
260.0
 21
205.0
 31
0.0
  0
LINE
  8
0
  6
DASHED
 62
     7
 10
260.0
 20
205.0
 30
0.0
 11
260.0
 21
187.5
 31
0.0
  0
LINE
  8
0
  6
DASHED
 62
     7
 10
260.0
 20
187.5
 30
0.0
 11
227.5
 21
187.5
 31
0.0
  0
LINE
  8
0
  6
DASHED
 62
     7
 10
267.5
 20
197.5
 30
0.0
 11
262.5
 21
197.5
 31
0.0
  0
LINE
  8
0
  6
DASHED
 62
     7
 10
262.5
 20
197.5
 30
0.0
 11
262.5
 21
177.5
 31
0.0
  0
LINE
  8
0
  6
DASHED
 62
     7
 10
262.5
 20
177.5
 30
0.0
 11
227.5
 21
177.5
 31
0.0
  0
LINE
  8
0
  6
DASHED
 62
     7
 10
267.5
 20
185.189576
 30
0.0
 11
265.0
 21
185.189576
 31
0.0
  0
LINE
  8
0
  6
DASHED
 62
     7
 10
267.5
 20
192.689576
 30
0.0
 11
265.0
 21
192.689576
 31
0.0
  0
LINE
  8
0
  6
DASHED
 62
     7
 10
267.5
 20
200.189576
 30
0.0
 11
265.0
 21
200.189576
 31
0.0
  0
LINE
  8
0
  6
DASHED
 62
     7
 10
265.0
 20
200.189576
 30
0.0
 11
265.0
 21
185.0
 31
0.0
  0
LINE
  8
0
  6
DASHED
 62
     7
 10
277.5
 20
185.189576
 30
0.0
 11
275.0
 21
185.189576
 31
0.0
  0
LINE
  8
0
  6
DASHED
 62
     7
 10
277.5
 20
192.689576
 30
0.0
 11
275.0
 21
192.689576
 31
0.0
  0
LINE
  8
0
  6
DASHED
 62
     7
 10
277.5
 20
200.189576
 30
0.0
 11
275.0
 21
200.189576
 31
0.0
  0
LINE
  8
0
  6
DASHED
 62
     7
 10
277.5
 20
200.189576
 30
0.0
 11
277.5
 21
185.0
 31
0.0
  0
LINE
  8
0
  6
DASHED
 62
     7
 10
337.5
 20
190.0
 30
0.0
 11
337.5
 21
165.0
 31
0.0
  0
LINE
  8
0
  6
DASHED
 62
     7
 10
337.5
 20
165.0
 30
0.0
 11
227.5
 21
165.0
 31
0.0
  0
LINE
  8
0
  6
DASHED
 62
     7
 10
345.0
 20
190.0
 30
0.0
 11
345.0
 21
155.0
 31
0.0
  0
LINE
  8
0
  6
DASHED
 62
     7
 10
345.0
 20
155.0
 30
0.0
 11
227.5
 21
155.0
 31
0.0
  0
LINE
  8
0
  6
CONTINUOUS
 62
     7
 10
55.298812
 20
197.5
 30
0.0
 11
25.0
 21
197.5
 31
0.0
  0
LINE
  8
0
  6
CONTINUOUS
 62
     7
 10
46.000004
 20
202.5
 30
0.0
 11
55.298812
 21
202.5
 31
0.0
  0
LINE
  8
0
  6
CONTINUOUS
 62
     7
 10
55.298812
 20
182.5
 30
0.0
 11
25.0
 21
182.5
 31
0.0
  0
LINE
  8
0
  6
CONTINUOUS
 62
     7
 10
46.000004
 20
187.5
 30
0.0
 11
55.298812
 21
187.5
 31
0.0
  0
LINE
  8
0
  6
CONTINUOUS
 62
     7
 10
55.298812
 20
170.0
 30
0.0
 11
25.0
 21
170.0
 31
0.0
  0
LINE
  8
0
  6
CONTINUOUS
 62
     7
 10
46.000004
 20
175.0
 30
0.0
 11
55.298812
 21
175.0
 31
0.0
  0
LINE
  8
0
  6
DASHED
 62
     7
 10
25.0
 20
215.0
 30
0.0
 11
20.0
 21
215.0
 31
0.0
  0
LINE
  8
0
  6
DASHED
 62
     7
 10
25.0
 20
210.0
 30
0.0
 11
20.0
 21
210.0
 31
0.0
  0
LINE
  8
0
  6
DASHED
 62
     7
 10
25.0
 20
202.5
 30
0.0
 11
20.0
 21
202.5
 31
0.0
  0
LINE
  8
0
  6
DASHED
 62
     7
 10
25.0
 20
197.5
 30
0.0
 11
20.0
 21
197.5
 31
0.0
  0
LINE
  8
0
  6
DASHED
 62
     7
 10
25.0
 20
170.0
 30
0.0
 11
20.0
 21
170.0
 31
0.0
  0
LINE
  8
0
  6
DASHED
 62
     7
 10
25.0
 20
175.0
 30
0.0
 11
20.0
 21
175.0
 31
0.0
  0
LINE
  8
0
  6
DASHED
 62
     7
 10
25.0
 20
182.5
 30
0.0
 11
20.0
 21
182.5
 31
0.0
  0
LINE
  8
0
  6
DASHED
 62
     7
 10
25.0
 20
187.5
 30
0.0
 11
20.0
 21
187.5
 31
0.0
  0
TEXT
  8
0
  6
CONTINUOUS
 62
     7
 10
326.232328
 20
113.985054
 30
0.0
 40
2.0
  1
L1(R)
  7
ROMANS
 11
326.232328
 21
113.318387
 31
0.0
 73
     1
  0
LINE
  8
0
  6
DASHED
 62
     7
 10
335.0
 20
110.0
 30
0.0
 11
387.5
 21
110.0
 31
0.0
  0
LINE
  8
0
  6
DASHED
 62
     7
 10
335.0
 20
115.0
 30
0.0
 11
387.5
 21
115.0
 31
0.0
  0
LINE
  8
0
  6
CONTINUOUS
 62
     7
 10
270.0
 20
110.0
 30
0.0
 11
290.0
 21
110.0
 31
0.0
  0
LINE
  8
0
  6
CONTINUOUS
 62
     7
 10
283.996128
 20
109.999996
 30
0.0
 11
284.973936
 21
109.999996
 31
0.0
  0
LINE
  8
0
  6
CONTINUOUS
 62
     7
 10
283.358762
 20
109.999993
 30
0.0
 11
284.002261
 21
109.999993
 31
0.0
  0
LINE
  8
0
  6
DASHED
 62
     7
 10
285.0
 20
120.0
 30
0.0
 11
285.0
 21
132.5
 31
0.0
  0
LINE
  8
0
  6
CONTINUOUS
 62
     7
 10
268.996128
 20
109.999996
 30
0.0
 11
269.973936
 21
109.999996
 31
0.0
  0
LINE
  8
0
  6
CONTINUOUS
 62
     7
 10
268.358762
 20
109.999993
 30
0.0
 11
269.002261
 21
109.999993
 31
0.0
  0
LINE
  8
0
  6
CONTINUOUS
 62
     7
 10
276.496128
 20
109.999996
 30
0.0
 11
277.473936
 21
109.999996
 31
0.0
  0
LINE
  8
0
  6
CONTINUOUS
 62
     7
 10
275.858762
 20
109.999993
 30
0.0
 11
276.502261
 21
109.999993
 31
0.0
  0
LINE
  8
0
  6
DASHED
 62
     7
 10
277.5
 20
120.0
 30
0.0
 11
277.5
 21
137.5
 31
0.0
  0
LINE
  8
0
  6
DASHED
 62
     7
 10
270.0
 20
120.0
 30
0.0
 11
270.0
 21
142.5
 31
0.0
  0
LINE
  8
0
  6
CONTINUOUS
 62
     7
 10
270.0
 20
115.18998
 30
0.0
 11
290.0
 21
115.18998
 31
0.0
  0
TEXT
  8
0
  6
CONTINUOUS
 62
     7
 10
248.732328
 20
141.485054
 30
0.0
 40
2.0
  1
L1(R)
  7
ROMANS
 11
248.732328
 21
140.818387
 31
0.0
 73
     1
  0
TEXT
  8
0
  6
CONTINUOUS
 62
     7
 10
248.732328
 20
136.428359
 30
0.0
 40
2.0
  1
L2(S)
  7
ROMANS
 11
248.732328
 21
135.761693
 31
0.0
 73
     1
  0
TEXT
  8
0
  6
CONTINUOUS
 62
     7
 10
248.732328
 20
131.506967
 30
0.0
 40
2.0
  1
L3(T)
  7
ROMANS
 11
248.732328
 21
130.8403
 31
0.0
 73
     1
  0
LINE
  8
0
  6
DASHED
 62
     7
 10
307.5
 20
127.5
 30
0.0
 11
307.5
 21
142.5
 31
0.0
  0
LINE
  8
0
  6
DASHED
 62
     7
 10
312.5
 20
137.5
 30
0.0
 11
312.5
 21
127.5
 31
0.0
  0
LINE
  8
0
  6
DASHED
 62
     7
 10
317.5
 20
132.5
 30
0.0
 11
317.5
 21
127.5
 31
0.0
  0
LINE
  8
0
  6
CONTINUOUS
 62
     7
 10
307.5
 20
120.0
 30
0.0
 11
305.0
 21
127.5
 31
0.0
  0
LINE
  8
0
  6
CONTINUOUS
 62
     7
 10
312.5
 20
120.0
 30
0.0
 11
310.0
 21
127.5
 31
0.0
  0
LINE
  8
0
  6
CONTINUOUS
 62
     7
 10
317.5
 20
120.0
 30
0.0
 11
315.0
 21
127.5
 31
0.0
  0
LINE
  8
0
  6
CONTINUOUS
 62
     7
 10
307.5
 20
127.5
 30
0.0
 11
307.0
 21
128.0
 31
0.0
  0
LINE
  8
0
  6
CONTINUOUS
 62
     7
 10
307.5
 20
127.5
 30
0.0
 11
308.0
 21
127.0
 31
0.0
  0
LINE
  8
0
  6
CONTINUOUS
 62
     7
 10
307.5
 20
127.5
 30
0.0
 11
308.0
 21
128.0
 31
0.0
  0
LINE
  8
0
  6
CONTINUOUS
 62
     7
 10
307.5
 20
127.5
 30
0.0
 11
307.0
 21
127.0
 31
0.0
  0
LINE
  8
0
  6
CONTINUOUS
 62
     7
 10
312.5
 20
127.5
 30
0.0
 11
313.0
 21
128.0
 31
0.0
  0
LINE
  8
0
  6
CONTINUOUS
 62
     7
 10
312.5
 20
127.5
 30
0.0
 11
313.0
 21
127.0
 31
0.0
  0
LINE
  8
0
  6
CONTINUOUS
 62
     7
 10
312.5
 20
127.5
 30
0.0
 11
312.0
 21
127.0
 31
0.0
  0
LINE
  8
0
  6
CONTINUOUS
 62
     7
 10
312.5
 20
127.5
 30
0.0
 11
312.0
 21
128.0
 31
0.0
  0
LINE
  8
0
  6
CONTINUOUS
 62
     7
 10
317.5
 20
127.5
 30
0.0
 11
318.0
 21
127.0
 31
0.0
  0
LINE
  8
0
  6
CONTINUOUS
 62
     7
 10
317.5
 20
127.5
 30
0.0
 11
318.0
 21
128.0
 31
0.0
  0
LINE
  8
0
  6
CONTINUOUS
 62
     7
 10
317.5
 20
127.5
 30
0.0
 11
317.0
 21
128.0
 31
0.0
  0
LINE
  8
0
  6
CONTINUOUS
 62
     7
 10
317.5
 20
127.5
 30
0.0
 11
317.0
 21
127.0
 31
0.0
  0
LINE
  8
0
  6
DASHED
 62
     7
 10
340.0
 20
132.5
 30
0.0
 11
257.5
 21
132.5
 31
0.0
  0
LINE
  8
0
  6
DASHED
 62
     7
 10
340.0
 20
137.5
 30
0.0
 11
257.5
 21
137.5
 31
0.0
  0
LINE
  8
0
  6
DASHED
 62
     7
 10
340.0
 20
142.5
 30
0.0
 11
257.5
 21
142.5
 31
0.0
  0
LINE
  8
0
  6
DASHED
 62
     7
 10
382.5
 20
40.0
 30
0.0
 11
257.5
 21
40.0
 31
0.0
  0
LINE
  8
0
  6
DASHED
 62
     7
 10
382.5
 20
82.5
 30
0.0
 11
382.5
 21
40.0
 31
0.0
  0
LINE
  8
0
  6
DASHED
 62
     7
 10
362.5
 20
50.0
 30
0.0
 11
257.5
 21
50.0
 31
0.0
  0
LINE
  8
0
  6
DASHED
 62
     7
 10
362.5
 20
75.0
 30
0.0
 11
362.5
 21
50.0
 31
0.0
  0
LINE
  8
0
  6
DASHED
 62
     7
 10
302.5
 20
85.189576
 30
0.0
 11
302.5
 21
70.0
 31
0.0
  0
LINE
  8
0
  6
DASHED
 62
     7
 10
302.5
 20
85.189576
 30
0.0
 11
300.0
 21
85.189576
 31
0.0
  0
LINE
  8
0
  6
DASHED
 62
     7
 10
302.5
 20
77.689576
 30
0.0
 11
300.0
 21
77.689576
 31
0.0
  0
LINE
  8
0
  6
DASHED
 62
     7
 10
302.5
 20
70.189576
 30
0.0
 11
300.0
 21
70.189576
 31
0.0
  0
LINE
  8
0
  6
DASHED
 62
     7
 10
290.0
 20
85.189576
 30
0.0
 11
290.0
 21
70.0
 31
0.0
  0
LINE
  8
0
  6
DASHED
 62
     7
 10
292.5
 20
85.189576
 30
0.0
 11
290.0
 21
85.189576
 31
0.0
  0
LINE
  8
0
  6
DASHED
 62
     7
 10
292.5
 20
77.689576
 30
0.0
 11
290.0
 21
77.689576
 31
0.0
  0
LINE
  8
0
  6
DASHED
 62
     7
 10
292.5
 20
70.189576
 30
0.0
 11
290.0
 21
70.189576
 31
0.0
  0
LINE
  8
0
  6
DASHED
 62
     7
 10
285.0
 20
62.5
 30
0.0
 11
257.5
 21
62.5
 31
0.0
  0
LINE
  8
0
  6
DASHED
 62
     7
 10
285.0
 20
85.189576
 30
0.0
 11
285.0
 21
62.5
 31
0.0
  0
LINE
  8
0
  6
DASHED
 62
     7
 10
282.5
 20
72.5
 30
0.0
 11
257.5
 21
72.5
 31
0.0
  0
LINE
  8
0
  6
DASHED
 62
     7
 10
282.5
 20
90.0
 30
0.0
 11
282.5
 21
72.5
 31
0.0
  0
LINE
  8
0
  6
DASHED
 62
     7
 10
292.5
 20
90.0
 30
0.0
 11
282.5
 21
90.0
 31
0.0
  0
LINE
  8
0
  6
DASHED
 62
     7
 10
300.0
 20
75.0
 30
0.0
 11
352.5
 21
75.0
 31
0.0
  0
LINE
  8
0
  6
DASHED
 62
     7
 10
347.5
 20
82.5
 30
0.0
 11
300.0
 21
82.5
 31
0.0
  0
LINE
  8
0
  6
DASHED
 62
     7
 10
300.0
 20
90.0
 30
0.0
 11
342.5
 21
90.0
 31
0.0
  0
TEXT
  8
0
  6
CONTINUOUS
 62
     7
 10
326.232328
 20
108.928359
 30
0.0
 40
2.0
  1
L2(S)
  7
ROMANS
 11
326.232328
 21
108.261693
 31
0.0
 73
     1
  0
TEXT
  8
0
  6
CONTINUOUS
 62
     7
 10
326.232328
 20
104.006967
 30
0.0
 40
2.0
  1
L3(T)
  7
ROMANS
 11
326.232328
 21
103.3403
 31
0.0
 73
     1
  0
LINE
  8
0
  6
DASHED
 62
     7
 10
335.0
 20
105.0
 30
0.0
 11
387.5
 21
105.0
 31
0.0
  0
LINE
  8
0
  6
DASHED
 62
     7
 10
342.5
 20
92.5
 30
0.0
 11
342.5
 21
90.0
 31
0.0
  0
LINE
  8
0
  6
DASHED
 62
     7
 10
347.5
 20
92.5
 30
0.0
 11
347.5
 21
82.5
 31
0.0
  0
LINE
  8
0
  6
DASHED
 62
     7
 10
352.5
 20
92.5
 30
0.0
 11
352.5
 21
75.0
 31
0.0
  0
LINE
  8
0
  6
CONTINUOUS
 62
     7
 10
352.5
 20
100.0
 30
0.0
 11
352.0
 21
99.5
 31
0.0
  0
LINE
  8
0
  6
CONTINUOUS
 62
     7
 10
352.5
 20
100.0
 30
0.0
 11
352.0
 21
100.5
 31
0.0
  0
LINE
  8
0
  6
CONTINUOUS
 62
     7
 10
352.5
 20
100.0
 30
0.0
 11
353.0
 21
100.5
 31
0.0
  0
LINE
  8
0
  6
CONTINUOUS
 62
     7
 10
352.5
 20
100.0
 30
0.0
 11
353.0
 21
99.5
 31
0.0
  0
LINE
  8
0
  6
CONTINUOUS
 62
     7
 10
347.5
 20
100.0
 30
0.0
 11
347.0
 21
100.5
 31
0.0
  0
LINE
  8
0
  6
CONTINUOUS
 62
     7
 10
347.5
 20
100.0
 30
0.0
 11
347.0
 21
99.5
 31
0.0
  0
LINE
  8
0
  6
CONTINUOUS
 62
     7
 10
347.5
 20
100.0
 30
0.0
 11
348.0
 21
99.5
 31
0.0
  0
LINE
  8
0
  6
CONTINUOUS
 62
     7
 10
347.5
 20
100.0
 30
0.0
 11
348.0
 21
100.5
 31
0.0
  0
LINE
  8
0
  6
CONTINUOUS
 62
     7
 10
342.5
 20
100.0
 30
0.0
 11
342.0
 21
99.5
 31
0.0
  0
LINE
  8
0
  6
CONTINUOUS
 62
     7
 10
342.5
 20
100.0
 30
0.0
 11
343.0
 21
100.5
 31
0.0
  0
LINE
  8
0
  6
CONTINUOUS
 62
     7
 10
342.5
 20
100.0
 30
0.0
 11
343.0
 21
99.5
 31
0.0
  0
LINE
  8
0
  6
CONTINUOUS
 62
     7
 10
342.5
 20
100.0
 30
0.0
 11
342.0
 21
100.5
 31
0.0
  0
LINE
  8
0
  6
CONTINUOUS
 62
     7
 10
352.5
 20
92.5
 30
0.0
 11
350.0
 21
100.0
 31
0.0
  0
LINE
  8
0
  6
CONTINUOUS
 62
     7
 10
347.5
 20
92.5
 30
0.0
 11
345.0
 21
100.0
 31
0.0
  0
LINE
  8
0
  6
CONTINUOUS
 62
     7
 10
342.5
 20
92.5
 30
0.0
 11
340.0
 21
100.0
 31
0.0
  0
LINE
  8
0
  6
DASHED
 62
     7
 10
352.5
 20
105.0
 30
0.0
 11
352.5
 21
100.0
 31
0.0
  0
LINE
  8
0
  6
DASHED
 62
     7
 10
347.5
 20
110.0
 30
0.0
 11
347.5
 21
100.0
 31
0.0
  0
LINE
  8
0
  6
DASHED
 62
     7
 10
342.5
 20
100.0
 30
0.0
 11
342.5
 21
115.0
 31
0.0
  0
LINE
  8
0
  6
CONTINUOUS
 62
     7
 10
362.5
 20
87.68998
 30
0.0
 11
382.5
 21
87.68998
 31
0.0
  0
LINE
  8
0
  6
DASHED
 62
     7
 10
362.5
 20
92.5
 30
0.0
 11
362.5
 21
115.0
 31
0.0
  0
LINE
  8
0
  6
DASHED
 62
     7
 10
370.0
 20
92.5
 30
0.0
 11
370.0
 21
110.0
 31
0.0
  0
LINE
  8
0
  6
CONTINUOUS
 62
     7
 10
362.5
 20
77.68998
 30
0.0
 11
362.5
 21
75.0
 31
0.0
  0
LINE
  8
0
  6
CONTINUOUS
 62
     7
 10
370.0
 20
77.68998
 30
0.0
 11
370.0
 21
75.0
 31
0.0
  0
ARC
  8
0
  6
CONTINUOUS
 62
     7
 10
368.364862
 20
81.296095
 30
0.0
 40
1.204309
 50
90.0
 51
265.706237
  0
LINE
  8
0
  6
CONTINUOUS
 62
     7
 10
368.358762
 20
80.098547
 30
0.0
 11
369.00836
 21
80.098547
 31
0.0
  0
LINE
  8
0
  6
CONTINUOUS
 62
     7
 10
368.358762
 20
82.499993
 30
0.0
 11
369.002261
 21
82.499993
 31
0.0
  0
LINE
  8
0
  6
CONTINUOUS
 62
     7
 10
368.359898
 20
77.689937
 30
0.0
 11
369.009496
 21
77.689937
 31
0.0
  0
ARC
  8
0
  6
CONTINUOUS
 62
     7
 10
368.364862
 20
78.894238
 30
0.0
 40
1.204309
 50
90.0
 51
270.0
  0
LINE
  8
0
  6
CONTINUOUS
 62
     7
 10
369.000897
 20
77.68998
 30
0.0
 11
370.0
 21
77.68998
 31
0.0
  0
LINE
  8
0
  6
CONTINUOUS
 62
     7
 10
368.996128
 20
82.499996
 30
0.0
 11
369.973936
 21
82.499996
 31
0.0
  0
LINE
  8
0
  6
CONTINUOUS
 62
     7
 10
369.006031
 20
80.098556
 30
0.0
 11
369.978167
 21
80.098556
 31
0.0
  0
ARC
  8
0
  6
CONTINUOUS
 62
     7
 10
360.864862
 20
81.296095
 30
0.0
 40
1.204309
 50
90.0
 51
265.706237
  0
LINE
  8
0
  6
CONTINUOUS
 62
     7
 10
360.858762
 20
80.098547
 30
0.0
 11
361.50836
 21
80.098547
 31
0.0
  0
LINE
  8
0
  6
CONTINUOUS
 62
     7
 10
360.858762
 20
82.499993
 30
0.0
 11
361.502261
 21
82.499993
 31
0.0
  0
LINE
  8
0
  6
CONTINUOUS
 62
     7
 10
360.859898
 20
77.689937
 30
0.0
 11
361.509496
 21
77.689937
 31
0.0
  0
ARC
  8
0
  6
CONTINUOUS
 62
     7
 10
360.864862
 20
78.894238
 30
0.0
 40
1.204309
 50
90.0
 51
270.0
  0
LINE
  8
0
  6
CONTINUOUS
 62
     7
 10
361.500897
 20
77.68998
 30
0.0
 11
362.5
 21
77.68998
 31
0.0
  0
LINE
  8
0
  6
CONTINUOUS
 62
     7
 10
361.496128
 20
82.499996
 30
0.0
 11
362.473936
 21
82.499996
 31
0.0
  0
LINE
  8
0
  6
CONTINUOUS
 62
     7
 10
361.506031
 20
80.098556
 30
0.0
 11
362.478167
 21
80.098556
 31
0.0
  0
LINE
  8
0
  6
DASHED
 62
     7
 10
377.5
 20
92.5
 30
0.0
 11
377.5
 21
105.0
 31
0.0
  0
LINE
  8
0
  6
CONTINUOUS
 62
     7
 10
377.5
 20
77.68998
 30
0.0
 11
377.5
 21
75.0
 31
0.0
  0
ARC
  8
0
  6
CONTINUOUS
 62
     7
 10
375.864862
 20
81.296095
 30
0.0
 40
1.204309
 50
90.0
 51
265.706237
  0
LINE
  8
0
  6
CONTINUOUS
 62
     7
 10
375.858762
 20
80.098547
 30
0.0
 11
376.50836
 21
80.098547
 31
0.0
  0
LINE
  8
0
  6
CONTINUOUS
 62
     7
 10
375.858762
 20
82.499993
 30
0.0
 11
376.502261
 21
82.499993
 31
0.0
  0
LINE
  8
0
  6
CONTINUOUS
 62
     7
 10
375.859898
 20
77.689937
 30
0.0
 11
376.509496
 21
77.689937
 31
0.0
  0
ARC
  8
0
  6
CONTINUOUS
 62
     7
 10
375.864862
 20
78.894238
 30
0.0
 40
1.204309
 50
90.0
 51
270.0
  0
LINE
  8
0
  6
CONTINUOUS
 62
     7
 10
376.500897
 20
77.68998
 30
0.0
 11
377.5
 21
77.68998
 31
0.0
  0
LINE
  8
0
  6
CONTINUOUS
 62
     7
 10
376.496128
 20
82.499996
 30
0.0
 11
377.473936
 21
82.499996
 31
0.0
  0
LINE
  8
0
  6
CONTINUOUS
 62
     7
 10
376.506031
 20
80.098556
 30
0.0
 11
377.478167
 21
80.098556
 31
0.0
  0
LINE
  8
0
  6
CONTINUOUS
 62
     7
 10
362.5
 20
82.5
 30
0.0
 11
382.5
 21
82.5
 31
0.0
  0
LINE
  8
0
  6
DASHED
 62
     7
 10
290.0
 20
65.0
 30
0.0
 11
290.0
 21
70.0
 31
0.0
  0
ARC
  8
0
  6
CONTINUOUS
 62
     7
 10
294.135138
 20
71.393885
 30
0.0
 40
1.204309
 50
270.0
 51
85.706237
  0
LINE
  8
0
  6
CONTINUOUS
 62
     7
 10
293.493969
 20
72.591424
 30
0.0
 11
292.521833
 21
72.591424
 31
0.0
  0
LINE
  8
0
  6
CONTINUOUS
 62
     7
 10
294.141238
 20
72.591434
 30
0.0
 11
293.49164
 21
72.591434
 31
0.0
  0
ARC
  8
0
  6
CONTINUOUS
 62
     7
 10
294.135138
 20
73.795742
 30
0.0
 40
1.204309
 50
270.0
 51
90.0
  0
LINE
  8
0
  6
CONTINUOUS
 62
     7
 10
294.140102
 20
75.000043
 30
0.0
 11
293.490504
 21
75.000043
 31
0.0
  0
LINE
  8
0
  6
CONTINUOUS
 62
     7
 10
293.499103
 20
75.0
 30
0.0
 11
292.5
 21
75.0
 31
0.0
  0
LINE
  8
0
  6
CONTINUOUS
 62
     7
 10
294.135138
 20
70.189576
 30
0.0
 11
292.5
 21
70.189576
 31
0.0
  0
LINE
  8
0
  6
CONTINUOUS
 62
     7
 10
298.364862
 20
75.000404
 30
0.0
 11
300.0
 21
75.000404
 31
0.0
  0
LINE
  8
0
  6
CONTINUOUS
 62
     7
 10
299.000897
 20
70.18998
 30
0.0
 11
300.0
 21
70.18998
 31
0.0
  0
LINE
  8
0
  6
CONTINUOUS
 62
     7
 10
298.359898
 20
70.189937
 30
0.0
 11
299.009496
 21
70.189937
 31
0.0
  0
ARC
  8
0
  6
CONTINUOUS
 62
     7
 10
298.364862
 20
71.394238
 30
0.0
 40
1.204309
 50
90.0
 51
270.0
  0
LINE
  8
0
  6
CONTINUOUS
 62
     7
 10
298.358762
 20
72.598547
 30
0.0
 11
299.00836
 21
72.598547
 31
0.0
  0
LINE
  8
0
  6
CONTINUOUS
 62
     7
 10
299.006031
 20
72.598556
 30
0.0
 11
299.978167
 21
72.598556
 31
0.0
  0
ARC
  8
0
  6
CONTINUOUS
 62
     7
 10
298.364862
 20
73.796095
 30
0.0
 40
1.204309
 50
90.0
 51
265.706237
  0
ARC
  8
0
  6
CONTINUOUS
 62
     7
 10
298.364862
 20
81.296095
 30
0.0
 40
1.204309
 50
90.0
 51
265.706237
  0
LINE
  8
0
  6
CONTINUOUS
 62
     7
 10
299.006031
 20
80.098556
 30
0.0
 11
299.978167
 21
80.098556
 31
0.0
  0
LINE
  8
0
  6
CONTINUOUS
 62
     7
 10
298.358762
 20
80.098547
 30
0.0
 11
299.00836
 21
80.098547
 31
0.0
  0
ARC
  8
0
  6
CONTINUOUS
 62
     7
 10
298.364862
 20
78.894238
 30
0.0
 40
1.204309
 50
90.0
 51
270.0
  0
LINE
  8
0
  6
CONTINUOUS
 62
     7
 10
298.359898
 20
77.689937
 30
0.0
 11
299.009496
 21
77.689937
 31
0.0
  0
LINE
  8
0
  6
CONTINUOUS
 62
     7
 10
299.000897
 20
77.68998
 30
0.0
 11
300.0
 21
77.68998
 31
0.0
  0
LINE
  8
0
  6
CONTINUOUS
 62
     7
 10
298.364862
 20
82.500404
 30
0.0
 11
300.0
 21
82.500404
 31
0.0
  0
LINE
  8
0
  6
CONTINUOUS
 62
     7
 10
294.135138
 20
77.689576
 30
0.0
 11
292.5
 21
77.689576
 31
0.0
  0
LINE
  8
0
  6
CONTINUOUS
 62
     7
 10
293.499103
 20
82.5
 30
0.0
 11
292.5
 21
82.5
 31
0.0
  0
LINE
  8
0
  6
CONTINUOUS
 62
     7
 10
294.140102
 20
82.500043
 30
0.0
 11
293.490504
 21
82.500043
 31
0.0
  0
ARC
  8
0
  6
CONTINUOUS
 62
     7
 10
294.135138
 20
81.295742
 30
0.0
 40
1.204309
 50
270.0
 51
90.0
  0
LINE
  8
0
  6
CONTINUOUS
 62
     7
 10
294.141238
 20
80.091434
 30
0.0
 11
293.49164
 21
80.091434
 31
0.0
  0
LINE
  8
0
  6
CONTINUOUS
 62
     7
 10
293.493969
 20
80.091424
 30
0.0
 11
292.521833
 21
80.091424
 31
0.0
  0
ARC
  8
0
  6
CONTINUOUS
 62
     7
 10
294.135138
 20
78.893885
 30
0.0
 40
1.204309
 50
270.0
 51
85.706237
  0
ARC
  8
0
  6
CONTINUOUS
 62
     7
 10
294.135138
 20
86.393885
 30
0.0
 40
1.204309
 50
270.0
 51
85.706237
  0
LINE
  8
0
  6
CONTINUOUS
 62
     7
 10
293.493969
 20
87.591424
 30
0.0
 11
292.521833
 21
87.591424
 31
0.0
  0
LINE
  8
0
  6
CONTINUOUS
 62
     7
 10
294.141238
 20
87.591434
 30
0.0
 11
293.49164
 21
87.591434
 31
0.0
  0
ARC
  8
0
  6
CONTINUOUS
 62
     7
 10
294.135138
 20
88.795742
 30
0.0
 40
1.204309
 50
270.0
 51
90.0
  0
LINE
  8
0
  6
CONTINUOUS
 62
     7
 10
294.140102
 20
90.000043
 30
0.0
 11
293.490504
 21
90.000043
 31
0.0
  0
LINE
  8
0
  6
CONTINUOUS
 62
     7
 10
293.499103
 20
90.0
 30
0.0
 11
292.5
 21
90.0
 31
0.0
  0
LINE
  8
0
  6
CONTINUOUS
 62
     7
 10
294.135138
 20
85.189576
 30
0.0
 11
285.0
 21
85.189576
 31
0.0
  0
LINE
  8
0
  6
CONTINUOUS
 62
     7
 10
298.364862
 20
90.000404
 30
0.0
 11
300.0
 21
90.000404
 31
0.0
  0
LINE
  8
0
  6
CONTINUOUS
 62
     7
 10
299.000897
 20
85.18998
 30
0.0
 11
300.0
 21
85.18998
 31
0.0
  0
LINE
  8
0
  6
CONTINUOUS
 62
     7
 10
298.359898
 20
85.189937
 30
0.0
 11
299.009496
 21
85.189937
 31
0.0
  0
ARC
  8
0
  6
CONTINUOUS
 62
     7
 10
298.364862
 20
86.394238
 30
0.0
 40
1.204309
 50
90.0
 51
270.0
  0
LINE
  8
0
  6
CONTINUOUS
 62
     7
 10
298.358762
 20
87.598547
 30
0.0
 11
299.00836
 21
87.598547
 31
0.0
  0
LINE
  8
0
  6
CONTINUOUS
 62
     7
 10
299.006031
 20
87.598556
 30
0.0
 11
299.978167
 21
87.598556
 31
0.0
  0
ARC
  8
0
  6
CONTINUOUS
 62
     7
 10
298.364862
 20
88.796095
 30
0.0
 40
1.204309
 50
90.0
 51
265.706237
  0
LINE
  8
0
  6
DASHED
 62
     7
 10
277.5
 20
85.0
 30
0.0
 11
257.5
 21
85.0
 31
0.0
  0
LINE
  8
0
  6
CONTINUOUS
 62
     7
 10
284.006031
 20
107.598556
 30
0.0
 11
284.978167
 21
107.598556
 31
0.0
  0
LINE
  8
0
  6
CONTINUOUS
 62
     7
 10
284.000897
 20
105.18998
 30
0.0
 11
285.0
 21
105.18998
 31
0.0
  0
ARC
  8
0
  6
CONTINUOUS
 62
     7
 10
283.364862
 20
106.394238
 30
0.0
 40
1.204309
 50
90.0
 51
270.0
  0
LINE
  8
0
  6
CONTINUOUS
 62
     7
 10
283.359898
 20
105.189937
 30
0.0
 11
284.009496
 21
105.189937
 31
0.0
  0
LINE
  8
0
  6
CONTINUOUS
 62
     7
 10
283.358762
 20
107.598547
 30
0.0
 11
284.00836
 21
107.598547
 31
0.0
  0
ARC
  8
0
  6
CONTINUOUS
 62
     7
 10
283.364862
 20
108.796095
 30
0.0
 40
1.204309
 50
90.0
 51
265.706237
  0
LINE
  8
0
  6
CONTINUOUS
 62
     7
 10
285.0
 20
105.18998
 30
0.0
 11
285.0
 21
102.5
 31
0.0
  0
LINE
  8
0
  6
DASHED
 62
     7
 10
270.0
 20
95.0
 30
0.0
 11
270.0
 21
102.5
 31
0.0
  0
LINE
  8
0
  6
CONTINUOUS
 62
     7
 10
269.006031
 20
107.598556
 30
0.0
 11
269.978167
 21
107.598556
 31
0.0
  0
LINE
  8
0
  6
CONTINUOUS
 62
     7
 10
269.000897
 20
105.18998
 30
0.0
 11
270.0
 21
105.18998
 31
0.0
  0
ARC
  8
0
  6
CONTINUOUS
 62
     7
 10
268.364862
 20
106.394238
 30
0.0
 40
1.204309
 50
90.0
 51
270.0
  0
LINE
  8
0
  6
CONTINUOUS
 62
     7
 10
268.359898
 20
105.189937
 30
0.0
 11
269.009496
 21
105.189937
 31
0.0
  0
LINE
  8
0
  6
CONTINUOUS
 62
     7
 10
268.358762
 20
107.598547
 30
0.0
 11
269.00836
 21
107.598547
 31
0.0
  0
ARC
  8
0
  6
CONTINUOUS
 62
     7
 10
268.364862
 20
108.796095
 30
0.0
 40
1.204309
 50
90.0
 51
265.706237
  0
LINE
  8
0
  6
CONTINUOUS
 62
     7
 10
276.506031
 20
107.598556
 30
0.0
 11
277.478167
 21
107.598556
 31
0.0
  0
LINE
  8
0
  6
CONTINUOUS
 62
     7
 10
276.500897
 20
105.18998
 30
0.0
 11
277.5
 21
105.18998
 31
0.0
  0
ARC
  8
0
  6
CONTINUOUS
 62
     7
 10
275.864862
 20
106.394238
 30
0.0
 40
1.204309
 50
90.0
 51
270.0
  0
LINE
  8
0
  6
CONTINUOUS
 62
     7
 10
275.859898
 20
105.189937
 30
0.0
 11
276.509496
 21
105.189937
 31
0.0
  0
LINE
  8
0
  6
CONTINUOUS
 62
     7
 10
275.858762
 20
107.598547
 30
0.0
 11
276.50836
 21
107.598547
 31
0.0
  0
ARC
  8
0
  6
CONTINUOUS
 62
     7
 10
275.864862
 20
108.796095
 30
0.0
 40
1.204309
 50
90.0
 51
265.706237
  0
LINE
  8
0
  6
CONTINUOUS
 62
     7
 10
277.5
 20
105.18998
 30
0.0
 11
277.5
 21
102.5
 31
0.0
  0
LINE
  8
0
  6
CONTINUOUS
 62
     7
 10
270.0
 20
105.18998
 30
0.0
 11
270.0
 21
102.5
 31
0.0
  0
LINE
  8
0
  6
DASHED
 62
     7
 10
302.5
 20
65.0
 30
0.0
 11
302.5
 21
70.0
 31
0.0
  0
LINE
  8
0
  6
DASHED
 62
     7
 10
257.5
 20
95.0
 30
0.0
 11
270.0
 21
95.0
 31
0.0
  0
LINE
  8
0
  6
DASHED
 62
     7
 10
307.5
 20
107.5
 30
0.0
 11
307.5
 21
55.0
 31
0.0
  0
LINE
  8
0
  6
DASHED
 62
     7
 10
317.5
 20
107.5
 30
0.0
 11
317.5
 21
55.0
 31
0.0
  0
LINE
  8
0
  6
DASHED
 62
     7
 10
307.5
 20
120.0
 30
0.0
 11
307.5
 21
102.5
 31
0.0
  0
LINE
  8
0
  6
DASHED
 62
     7
 10
312.5
 20
120.0
 30
0.0
 11
312.5
 21
55.0
 31
0.0
  0
LINE
  8
0
  6
DASHED
 62
     7
 10
317.5
 20
120.0
 30
0.0
 11
317.5
 21
102.5
 31
0.0
  0
LINE
  8
0
  6
DASHED
 62
     7
 10
290.0
 20
110.0
 30
0.0
 11
290.0
 21
95.0
 31
0.0
  0
LINE
  8
0
  6
DASHED
 62
     7
 10
290.0
 20
95.0
 30
0.0
 11
277.5
 21
95.0
 31
0.0
  0
LINE
  8
0
  6
DASHED
 62
     7
 10
277.5
 20
95.0
 30
0.0
 11
277.5
 21
85.0
 31
0.0
  0
LINE
  8
0
  6
CONTINUOUS
 62
     7
 10
353.004123
 20
175.0
 30
0.0
 11
368.004123
 21
175.0
 31
0.0
  0
LINE
  8
0
  6
CONTINUOUS
 62
     7
 10
368.004123
 20
175.0
 30
0.0
 11
368.004123
 21
155.0
 31
0.0
  0
LINE
  8
0
  6
CONTINUOUS
 62
     7
 10
368.004123
 20
155.0
 30
0.0
 11
353.004123
 21
155.0
 31
0.0
  0
LINE
  8
0
  6
CONTINUOUS
 62
     7
 10
353.004123
 20
155.0
 30
0.0
 11
353.004123
 21
175.0
 31
0.0
  0
LINE
  8
0
  6
DASHED
 62
     7
 10
353.004123
 20
165.0
 30
0.0
 11
368.004123
 21
165.0
 31
0.0
  0
TEXT
  8
0
  6
CONTINUOUS
 62
     7
 10
356.289225
 20
170.549009
 30
0.0
 40
2.0
  1
SC13/
  7
ROMANS
  0
TEXT
  8
0
  6
CONTINUOUS
 62
     7
 10
356.289225
 20
167.215676
 30
0.0
 40
2.0
  1
VC13
  7
ROMANS
  0
TEXT
  8
0
  6
CONTINUOUS
 62
     7
 10
356.289225
 20
160.754951
 30
0.0
 40
2.0
  1
SC23/
  7
ROMANS
  0
TEXT
  8
0
  6
CONTINUOUS
 62
     7
 10
356.289225
 20
157.421617
 30
0.0
 40
2.0
  1
VC23
  7
ROMANS
  0
TEXT
  8
0
  6
CONTINUOUS
 62
     7
 10
341.341822
 20
148.639636
 30
0.0
 40
2.0
  1
SYNCHROCHECK RELAY
  7
ROMANS
  0
TEXT
  8
0
  6
CONTINUOUS
 62
     7
 10
341.341822
 20
145.306303
 30
0.0
 40
2.0
  1
WITH VOLTAGE ENERGIZING UNIT
  7
ROMANS
  0
TEXT
  8
0
  6
CONTINUOUS
 62
     7
 10
341.341822
 20
140.404372
 30
0.0
 40
2.0
  1
PARALLELLNINGSDON
  7
ROMANS
  0
TEXT
  8
0
  6
CONTINUOUS
 62
     7
 10
341.341822
 20
137.071038
 30
0.0
 40
2.0
  1
MED SPÄNNINGSENHET
  7
ROMANS
  0
TEXT
  8
0
  6
CONTINUOUS
 62
     7
 10
5.0
 20
45.0
 30
0.0
 40
2.0
  1
1) EXTERNAL BLOCKING / CONTROLLING
  7
ROMANS
  0
TEXT
  8
0
  6
CONTINUOUS
 62
     7
 10
6.296427
 20
41.666667
 30
0.0
 40
2.0
  1
  EXTERN BLOCKERING / KONTROLLERING
  7
ROMANS
  0
TEXT
  8
0
  6
CONTINUOUS
 62
     7
 10
5.0
 20
35.833333
 30
0.0
 40
2.0
  1
2) BUS CONNECTION MODULE
  7
ROMANS
  0
TEXT
  8
0
  6
CONTINUOUS
 62
     7
 10
6.333438
 20
32.5
 30
0.0
 40
2.0
  1
  BUSSANSLUTNINGSMODUL
  7
ROMANS
  0
TEXT
  8
0
  6
CONTINUOUS
 62
     7
 10
5.0
 20
26.211225
 30
0.0
 40
2.0
  1
3) ALARM ETC.
  7
ROMANS
  0
TEXT
  8
0
  6
CONTINUOUS
 62
     7
 10
6.33364
 20
22.877892
 30
0.0
 40
2.0
  1
  SIGNAL MM.
  7
ROMANS
  0
TEXT
  8
0
  6
CONTINUOUS
 62
     7
 10
5.00041
 20
14.602197
 30
0.0
 40
2.0
  1
4) CLOSING
  7
ROMANS
  0
TEXT
  8
0
  6
CONTINUOUS
 62
     7
 10
6.336259
 20
11.268864
 30
0.0
 40
2.0
  1
  TILLSLAG
  7
ROMANS
  0
TEXT
  8
0
  6
CONTINUOUS
 62
     7
 10
74.50069
 20
26.220914
 30
0.0
 40
2.0
  1
5) CLOSING
  7
ROMANS
  0
TEXT
  8
0
  6
CONTINUOUS
 62
     7
 10
75.81247
 20
22.887581
 30
0.0
 40
2.0
  1
  TILLSLAG
  7
ROMANS
  0
TEXT
  8
0
  6
CONTINUOUS
 62
     7
 10
74.50069
 20
16.503572
 30
0.0
 40
2.0
  1
6) INTERNAL RELAY FAULT
  7
ROMANS
  0
TEXT
  8
0
  6
CONTINUOUS
 62
     7
 10
75.836539
 20
13.170238
 30
0.0
 40
2.0
  1
  INTERNT RELÄFEL
  7
ROMANS
  0
TEXT
  8
0
  6
CONTINUOUS
 62
     7
 10
287.14146
 20
144.938627
 30
0.0
 40
2.0
  1
ALT.
  7
ROMANS
  0
TEXT
  8
0
  6
CONTINUOUS
 62
     7
 10
25.138809
 20
56.404865
 30
0.0
 40
2.0
  1
DIM. 163 X 203
  7
ROMANS
  0
TEXT
  8
0
  6
CONTINUOUS
 62
     7
 10
78.965758
 20
100.8583
 30
0.0
 40
2.0
  1
A
  7
ROMANS
  0
TEXT
  8
0
  6
CONTINUOUS
 62
     7
 10
115.285338
 20
85.751117
 30
0.0
 40
2.0
  1
B
  7
ROMANS
  0
TEXT
  8
0
  6
CONTINUOUS
 62
     7
 10
99.53169
 20
93.185914
 30
0.0
 40
2.0
  1
C
  7
ROMANS
  0
TEXT
  8
0
  6
CONTINUOUS
 62
     7
 10
130.045405
 20
78.416861
 30
0.0
 40
2.0
  1
D
  7
ROMANS
  0
TEXT
  8
0
  6
CONTINUOUS
 62
     7
 10
160.930216
 20
204.754875
 30
0.0
 40
2.0
  1
NC13
  7
ROMANS
  0
TEXT
  8
0
  6
CONTINUOUS
 62
     7
 10
160.930216
 20
201.421542
 30
0.0
 40
2.0
  1
CSF13
  7
ROMANS
  0
LINE
  8
0
  6
CONTINUOUS
 62
     7
 10
162.50793
 20
100.0
 30
0.0
 11
162.50793
 21
72.5
 31
0.0
  0
LINE
  8
0
  6
CONTINUOUS
 62
     7
 10
162.5
 20
66.499996
 30
0.0
 11
162.5
 21
60.0
 31
0.0
  0
LINE
  8
0
  6
CONTINUOUS
 62
     7
 10
157.5
 20
66.499996
 30
0.0
 11
157.5
 21
60.0
 31
0.0
  0
LINE
  8
0
  6
CONTINUOUS
 62
     7
 10
157.482972
 20
92.5
 30
0.0
 11
157.482972
 21
72.5
 31
0.0
  0
LINE
  8
0
  6
CONTINUOUS
 62
     7
 10
167.5
 20
72.5
 30
0.0
 11
167.5
 21
76.087694
 31
0.0
  0
LINE
  8
0
  6
CONTINUOUS
 62
     7
 10
167.5
 20
77.28623
 30
0.0
 11
167.5
 21
79.78623
 31
0.0
  0
LINE
  8
0
  6
CONTINUOUS
 62
     7
 10
167.5
 20
66.499996
 30
0.0
 11
167.5
 21
60.0
 31
0.0
  0
LINE
  8
0
  6
CONTINUOUS
 62
     7
 10
167.5
 20
66.499996
 30
0.0
 11
169.934804
 21
73.162841
 31
0.0
  0
LINE
  8
0
  6
CONTINUOUS
 62
     7
 10
167.5
 20
72.5
 30
0.0
 11
170.265661
 21
72.5
 31
0.0
  0
LINE
  8
0
  6
CONTINUOUS
 62
     7
 10
169.934804
 20
73.162841
 30
0.0
 11
169.049106
 21
73.607734
 31
0.0
  0
LINE
  8
0
  6
CONTINUOUS
 62
     7
 10
157.5
 20
72.5
 30
0.0
 11
160.265661
 21
72.5
 31
0.0
  0
LINE
  8
0
  6
CONTINUOUS
 62
     7
 10
159.934804
 20
73.162841
 30
0.0
 11
159.049106
 21
73.607734
 31
0.0
  0
LINE
  8
0
  6
CONTINUOUS
 62
     7
 10
157.5
 20
66.499996
 30
0.0
 11
159.934804
 21
73.162841
 31
0.0
  0
LINE
  8
0
  6
CONTINUOUS
 62
     7
 10
162.5
 20
66.499996
 30
0.0
 11
164.934804
 21
73.162841
 31
0.0
  0
LINE
  8
0
  6
CONTINUOUS
 62
     7
 10
162.5
 20
72.5
 30
0.0
 11
165.265661
 21
72.5
 31
0.0
  0
LINE
  8
0
  6
CONTINUOUS
 62
     7
 10
152.5
 20
66.499996
 30
0.0
 11
154.934804
 21
73.162841
 31
0.0
  0
LINE
  8
0
  6
CONTINUOUS
 62
     7
 10
154.934804
 20
73.162841
 30
0.0
 11
154.049106
 21
73.607734
 31
0.0
  0
LINE
  8
0
  6
CONTINUOUS
 62
     7
 10
152.5
 20
72.5
 30
0.0
 11
155.265661
 21
72.5
 31
0.0
  0
LINE
  8
0
  6
CONTINUOUS
 62
     7
 10
152.482972
 20
85.0
 30
0.0
 11
152.482972
 21
72.5
 31
0.0
  0
LINE
  8
0
  6
CONTINUOUS
 62
     7
 10
152.5
 20
66.499996
 30
0.0
 11
152.5
 21
60.0
 31
0.0
  0
LINE
  8
0
  6
CONTINUOUS
 62
     7
 10
142.5
 20
60.0
 30
0.0
 11
142.5
 21
77.5
 31
0.0
  0
LINE
  8
0
  6
DASHED
 62
     7
 10
167.5
 20
60.0
 30
0.0
 11
167.5
 21
52.5
 31
0.0
  0
TEXT
  8
0
  6
CONTINUOUS
 62
     7
 10
145.727227
 20
61.526601
 30
0.0
 40
2.0
  1
108:72
 50
90.0
  0
TEXT
  8
0
  6
CONTINUOUS
 62
     7
 10
151.107577
 20
61.526601
 30
0.0
 40
2.0
  1
101
 50
90.0
  0
TEXT
  8
0
  6
CONTINUOUS
 62
     7
 10
155.68588
 20
61.526601
 30
0.0
 40
2.0
  1
13A
 50
90.0
  0
TEXT
  8
0
  6
CONTINUOUS
 62
     7
 10
160.419803
 20
61.526601
 30
0.0
 40
2.0
  1
1A
 50
90.0
  0
TEXT
  8
0
  6
CONTINUOUS
 62
     7
 10
165.33329
 20
61.526601
 30
0.0
 40
2.0
  1
2A
 50
90.0
  0
TEXT
  8
0
  6
CONTINUOUS
 62
     7
 10
170.689698
 20
61.526601
 30
0.0
 40
2.0
  1
18A
 50
90.0
  0
TEXT
  8
0
  6
CONTINUOUS
 62
     7
 10
190.482959
 20
61.526601
 30
0.0
 40
2.0
  1
108:61
 50
90.0
  0
TEXT
  8
0
  6
CONTINUOUS
 62
     7
 10
195.839368
 20
61.526601
 30
0.0
 40
2.0
  1
108:62
 50
90.0
  0
TEXT
  8
0
  6
CONTINUOUS
 62
     7
 10
208.270552
 20
61.526601
 30
0.0
 40
2.0
  1
108:63
 50
90.0
  0
LINE
  8
0
  6
CONTINUOUS
 62
     7
 10
46.000004
 20
92.5
 30
0.0
 11
39.337159
 21
94.934804
 31
0.0
  0
LINE
  8
0
  6
CONTINUOUS
 62
     7
 10
40.0
 20
92.5
 30
0.0
 11
40.0
 21
95.265661
 31
0.0
  0
LINE
  8
0
  6
CONTINUOUS
 62
     7
 10
40.0
 20
85.0
 30
0.0
 11
40.0
 21
87.765661
 31
0.0
  0
LINE
  8
0
  6
CONTINUOUS
 62
     7
 10
46.000004
 20
85.0
 30
0.0
 11
39.337159
 21
87.434804
 31
0.0
  0
LINE
  8
0
  6
CONTINUOUS
 62
     7
 10
40.0
 20
92.5
 30
0.0
 11
25.0
 21
92.5
 31
0.0
  0
LINE
  8
0
  6
CONTINUOUS
 62
     7
 10
40.0
 20
85.0
 30
0.0
 11
25.0
 21
85.0
 31
0.0
  0
LINE
  8
0
  6
CONTINUOUS
 62
     7
 10
39.337159
 20
217.434804
 30
0.0
 11
38.892266
 21
216.549106
 31
0.0
  0
LINE
  8
0
  6
CONTINUOUS
 62
     7
 10
40.0
 20
215.0
 30
0.0
 11
40.0
 21
217.765661
 31
0.0
  0
LINE
  8
0
  6
CONTINUOUS
 62
     7
 10
46.000004
 20
215.0
 30
0.0
 11
39.337159
 21
217.434804
 31
0.0
  0
LINE
  8
0
  6
CONTINUOUS
 62
     7
 10
40.0
 20
215.0
 30
0.0
 11
25.0
 21
215.0
 31
0.0
  0
LINE
  8
0
  6
CONTINUOUS
 62
     7
 10
40.0
 20
202.5
 30
0.0
 11
25.0
 21
202.5
 31
0.0
  0
LINE
  8
0
  6
CONTINUOUS
 62
     7
 10
46.000004
 20
202.5
 30
0.0
 11
39.337159
 21
204.934804
 31
0.0
  0
LINE
  8
0
  6
CONTINUOUS
 62
     7
 10
40.0
 20
202.5
 30
0.0
 11
40.0
 21
205.265661
 31
0.0
  0
LINE
  8
0
  6
CONTINUOUS
 62
     7
 10
39.337159
 20
204.934804
 30
0.0
 11
38.892266
 21
204.049106
 31
0.0
  0
LINE
  8
0
  6
CONTINUOUS
 62
     7
 10
39.337159
 20
189.934804
 30
0.0
 11
38.892266
 21
189.049106
 31
0.0
  0
LINE
  8
0
  6
CONTINUOUS
 62
     7
 10
40.0
 20
187.5
 30
0.0
 11
40.0
 21
190.265661
 31
0.0
  0
LINE
  8
0
  6
CONTINUOUS
 62
     7
 10
46.000004
 20
187.5
 30
0.0
 11
39.337159
 21
189.934804
 31
0.0
  0
LINE
  8
0
  6
CONTINUOUS
 62
     7
 10
40.0
 20
187.5
 30
0.0
 11
25.0
 21
187.5
 31
0.0
  0
LINE
  8
0
  6
CONTINUOUS
 62
     7
 10
40.0
 20
175.0
 30
0.0
 11
25.0
 21
175.0
 31
0.0
  0
LINE
  8
0
  6
CONTINUOUS
 62
     7
 10
46.000004
 20
175.0
 30
0.0
 11
39.337159
 21
177.434804
 31
0.0
  0
LINE
  8
0
  6
CONTINUOUS
 62
     7
 10
40.0
 20
175.0
 30
0.0
 11
40.0
 21
177.765661
 31
0.0
  0
LINE
  8
0
  6
CONTINUOUS
 62
     7
 10
39.337159
 20
177.434804
 30
0.0
 11
38.892266
 21
176.549106
 31
0.0
  0
TEXT
  8
0
  6
CONTINUOUS
 62
     7
 10
27.5
 20
216.199501
 30
0.0
 40
2.0
  1
101
  7
ROMANS
  0
TEXT
  8
0
  6
CONTINUOUS
 62
     7
 10
27.5
 20
212.051189
 30
0.0
 40
2.0
  1
14A
  7
ROMANS
  0
TEXT
  8
0
  6
CONTINUOUS
 62
     7
 10
27.5
 20
207.087897
 30
0.0
 40
2.0
  1
108:11
  7
ROMANS
  0
TEXT
  8
0
  6
CONTINUOUS
 62
     7
 10
27.5
 20
203.598503
 30
0.0
 40
2.0
  1
101
  7
ROMANS
  0
TEXT
  8
0
  6
CONTINUOUS
 62
     7
 10
27.5
 20
199.606251
 30
0.0
 40
2.0
  1
9A
  7
ROMANS
  0
TEXT
  8
0
  6
CONTINUOUS
 62
     7
 10
27.5
 20
194.322169
 30
0.0
 40
2.0
  1
108:46
  7
ROMANS
  0
TEXT
  8
0
  6
CONTINUOUS
 62
     7
 10
27.5
 20
188.717298
 30
0.0
 40
2.0
  1
101
  7
ROMANS
  0
TEXT
  8
0
  6
CONTINUOUS
 62
     7
 10
27.5
 20
184.568985
 30
0.0
 40
2.0
  1
10A
  7
ROMANS
  0
TEXT
  8
0
  6
CONTINUOUS
 62
     7
 10
27.5
 20
179.449633
 30
0.0
 40
2.0
  1
108:23
  7
ROMANS
  0
TEXT
  8
0
  6
CONTINUOUS
 62
     7
 10
27.5
 20
176.27236
 30
0.0
 40
2.0
  1
101
  7
ROMANS
  0
TEXT
  8
0
  6
CONTINUOUS
 62
     7
 10
27.5
 20
172.132717
 30
0.0
 40
2.0
  1
11A
  7
ROMANS
  0
TEXT
  8
0
  6
CONTINUOUS
 62
     7
 10
27.5
 20
166.848636
 30
0.0
 40
2.0
  1
108:48
  7
ROMANS
  0
TEXT
  8
0
  6
CONTINUOUS
 62
     7
 10
27.5
 20
96.858421
 30
0.0
 40
2.0
  1
108:68
  7
ROMANS
  0
TEXT
  8
0
  6
CONTINUOUS
 62
     7
 10
27.5
 20
93.204298
 30
0.0
 40
2.0
  1
101
  7
ROMANS
  0
TEXT
  8
0
  6
CONTINUOUS
 62
     7
 10
27.5
 20
89.662884
 30
0.0
 40
2.0
  1
17A
  7
ROMANS
  0
TEXT
  8
0
  6
CONTINUOUS
 62
     7
 10
27.5
 20
86.008761
 30
0.0
 40
2.0
  1
101
  7
ROMANS
  0
TEXT
  8
0
  6
CONTINUOUS
 62
     7
 10
27.5
 20
81.817099
 30
0.0
 40
2.0
  1
16A
  7
ROMANS
  0
TEXT
  8
0
  6
CONTINUOUS
 62
     7
 10
27.5
 20
74.226799
 30
0.0
 40
2.0
  1
108:70
  7
ROMANS
  0
TEXT
  8
0
  6
CONTINUOUS
 62
     7
 10
27.5
 20
69.289517
 30
0.0
 40
2.0
  1
108:71
  7
ROMANS
  0
TEXT
  8
0
  6
CONTINUOUS
 62
     7
 10
87.5
 20
217.5
 30
0.0
 40
2.0
  1
RS 10101-AA  SPAU 140 C
  7
ROMANS
  0
TEXT
  8
0
  6
CONTINUOUS
 62
     7
 10
210.492714
 20
122.5
 30
0.0
 40
2.0
  1
108:RX/TX
  7
ROMANS
  0
LINE
  8
0
  6
CONTINUOUS
 62
     7
 10
222.5
 20
200.0
 30
0.0
 11
227.5
 21
200.0
 31
0.0
  0
LINE
  8
0
  6
CONTINUOUS
 62
     7
 10
212.5
 20
199.982972
 30
0.0
 11
217.5
 21
199.982972
 31
0.0
  0
LINE
  8
0
  6
CONTINUOUS
 62
     7
 10
217.5
 20
199.982972
 30
0.0
 11
217.5
 21
202.765661
 31
0.0
  0
LINE
  8
0
  6
CONTINUOUS
 62
     7
 10
216.602827
 20
202.434804
 30
0.0
 11
216.157934
 21
201.549106
 31
0.0
  0
LINE
  8
0
  6
CONTINUOUS
 62
     7
 10
216.602827
 20
202.434804
 30
0.0
 11
222.5
 21
200.0
 31
0.0
  0
LINE
  8
0
  6
CONTINUOUS
 62
     7
 10
216.602827
 20
212.434804
 30
0.0
 11
222.5
 21
210.0
 31
0.0
  0
LINE
  8
0
  6
CONTINUOUS
 62
     7
 10
216.602827
 20
212.434804
 30
0.0
 11
216.157934
 21
211.549106
 31
0.0
  0
LINE
  8
0
  6
CONTINUOUS
 62
     7
 10
217.5
 20
209.982972
 30
0.0
 11
217.5
 21
212.765661
 31
0.0
  0
LINE
  8
0
  6
CONTINUOUS
 62
     7
 10
212.5
 20
209.982972
 30
0.0
 11
217.5
 21
209.982972
 31
0.0
  0
LINE
  8
0
  6
CONTINUOUS
 62
     7
 10
222.5
 20
210.0
 30
0.0
 11
227.5
 21
210.0
 31
0.0
  0
LINE
  8
0
  6
CONTINUOUS
 62
     7
 10
222.5
 20
187.5
 30
0.0
 11
227.5
 21
187.5
 31
0.0
  0
LINE
  8
0
  6
CONTINUOUS
 62
     7
 10
212.5
 20
187.482972
 30
0.0
 11
217.5
 21
187.482972
 31
0.0
  0
LINE
  8
0
  6
CONTINUOUS
 62
     7
 10
217.5
 20
187.482972
 30
0.0
 11
217.5
 21
190.265661
 31
0.0
  0
LINE
  8
0
  6
CONTINUOUS
 62
     7
 10
216.602827
 20
189.934804
 30
0.0
 11
216.157934
 21
189.049106
 31
0.0
  0
LINE
  8
0
  6
CONTINUOUS
 62
     7
 10
216.602827
 20
189.934804
 30
0.0
 11
222.5
 21
187.5
 31
0.0
  0
LINE
  8
0
  6
CONTINUOUS
 62
     7
 10
216.602827
 20
179.934804
 30
0.0
 11
222.5
 21
177.5
 31
0.0
  0
LINE
  8
0
  6
CONTINUOUS
 62
     7
 10
216.602827
 20
179.934804
 30
0.0
 11
216.157934
 21
179.049106
 31
0.0
  0
LINE
  8
0
  6
CONTINUOUS
 62
     7
 10
217.5
 20
177.482972
 30
0.0
 11
217.5
 21
180.265661
 31
0.0
  0
LINE
  8
0
  6
CONTINUOUS
 62
     7
 10
212.5
 20
177.482972
 30
0.0
 11
217.5
 21
177.482972
 31
0.0
  0
LINE
  8
0
  6
CONTINUOUS
 62
     7
 10
222.5
 20
177.5
 30
0.0
 11
227.5
 21
177.5
 31
0.0
  0
LINE
  8
0
  6
CONTINUOUS
 62
     7
 10
210.0
 20
187.5
 30
0.0
 11
211.0
 21
188.5
 31
0.0
  0
LINE
  8
0
  6
CONTINUOUS
 62
     7
 10
210.0
 20
177.5
 30
0.0
 11
210.0
 21
187.5
 31
0.0
  0
LINE
  8
0
  6
CONTINUOUS
 62
     7
 10
210.0
 20
177.5
 30
0.0
 11
211.0
 21
176.5
 31
0.0
  0
LINE
  8
0
  6
CONTINUOUS
 62
     7
 10
210.0
 20
155.0
 30
0.0
 11
211.0
 21
154.0
 31
0.0
  0
LINE
  8
0
  6
CONTINUOUS
 62
     7
 10
210.0
 20
155.0
 30
0.0
 11
210.0
 21
165.0
 31
0.0
  0
LINE
  8
0
  6
CONTINUOUS
 62
     7
 10
210.0
 20
165.0
 30
0.0
 11
211.0
 21
166.0
 31
0.0
  0
LINE
  8
0
  6
CONTINUOUS
 62
     7
 10
222.5
 20
155.0
 30
0.0
 11
227.5
 21
155.0
 31
0.0
  0
LINE
  8
0
  6
CONTINUOUS
 62
     7
 10
212.5
 20
154.982972
 30
0.0
 11
217.5
 21
154.982972
 31
0.0
  0
LINE
  8
0
  6
CONTINUOUS
 62
     7
 10
217.5
 20
154.982972
 30
0.0
 11
217.5
 21
157.765661
 31
0.0
  0
LINE
  8
0
  6
CONTINUOUS
 62
     7
 10
216.602827
 20
157.434804
 30
0.0
 11
216.157934
 21
156.549106
 31
0.0
  0
LINE
  8
0
  6
CONTINUOUS
 62
     7
 10
216.602827
 20
157.434804
 30
0.0
 11
222.5
 21
155.0
 31
0.0
  0
LINE
  8
0
  6
CONTINUOUS
 62
     7
 10
216.602827
 20
167.434804
 30
0.0
 11
222.5
 21
165.0
 31
0.0
  0
LINE
  8
0
  6
CONTINUOUS
 62
     7
 10
216.602827
 20
167.434804
 30
0.0
 11
216.157934
 21
166.549106
 31
0.0
  0
LINE
  8
0
  6
CONTINUOUS
 62
     7
 10
217.5
 20
164.982972
 30
0.0
 11
217.5
 21
167.765661
 31
0.0
  0
LINE
  8
0
  6
CONTINUOUS
 62
     7
 10
212.5
 20
164.982972
 30
0.0
 11
217.5
 21
164.982972
 31
0.0
  0
LINE
  8
0
  6
CONTINUOUS
 62
     7
 10
222.5
 20
165.0
 30
0.0
 11
227.5
 21
165.0
 31
0.0
  0
TEXT
  8
0
  6
CONTINUOUS
 62
     7
 10
222.699837
 20
206.610254
 30
0.0
 40
2.0
  1
3A
  7
ROMANS
  0
TEXT
  8
0
  6
CONTINUOUS
 62
     7
 10
222.699837
 20
196.895806
 30
0.0
 40
2.0
  1
4A
  7
ROMANS
  0
TEXT
  8
0
  6
CONTINUOUS
 62
     7
 10
222.699837
 20
184.363611
 30
0.0
 40
2.0
  1
7A
  7
ROMANS
  0
TEXT
  8
0
  6
CONTINUOUS
 62
     7
 10
222.699837
 20
174.640493
 30
0.0
 40
2.0
  1
8A
  7
ROMANS
  0
TEXT
  8
0
  6
CONTINUOUS
 62
     7
 10
222.699837
 20
161.926228
 30
0.0
 40
2.0
  1
5A
  7
ROMANS
  0
TEXT
  8
0
  6
CONTINUOUS
 62
     7
 10
222.699837
 20
151.81296
 30
0.0
 40
2.0
  1
6A
  7
ROMANS
  0
TEXT
  8
0
  6
CONTINUOUS
 62
     7
 10
212.50034
 20
28.124274
 30
0.0
 40
2.0
  1
1992-09-25  JR / RITU
  7
ROMANS
  0
TEXT
  8
0
  6
CONTINUOUS
 62
     7
 10
322.5
 20
24.166667
 30
0.0
 40
2.0
  1
SPAU 140 C WITH TEST SWITCH
  7
ROMANS
  0
TEXT
  8
0
  6
CONTINUOUS
 62
     7
 10
322.5
 20
20.833333
 30
0.0
 40
2.0
  1
SPAU 140 C MED PROVDON
  7
ROMANS
  0
TEXT
  8
0
  6
CONTINUOUS
 62
     7
 10
322.5
 20
2.5
 30
0.0
 40
2.5
  1
RS 10101-AAA
  7
ROMANS
  0
TEXT
  8
0
  6
CONTINUOUS
 62
     7
 10
51.133515
 20
1.304834
 30
0.0
 40
2.0
  1
REDRAWN WITH AUTOCAD 1992-09-25  JR / RITU Power
  7
ROMANS
  0
TEXT
  8
0
  6
CONTINUOUS
 62
     7
 10
217.5
 20
215.0
 30
0.0
 40
2.0
  1
101
  7
ROMANS
  0
TEXT
  8
0
  6
CONTINUOUS
 62
     7
 10
25.136597
 20
53.073385
 30
0.0
 40
2.0
  1
RS 10101-AAA
  7
ROMANS
  0
TEXT
  8
0
  6
DASHED
 62
     7
 10
292.217194
 20
11.813359
 30
0.0
 40
3.0
  1
A3
  7
GREEKS
  0
TEXT
  8
0
  6
DASHED
 62
     7
 10
351.818577
 20
15.69253
 30
0.0
 40
1.4
  1
LEHTI SHEET
  7
GREEKS
  0
LINE
  8
0
 62
     7
 10
0.237099
 20
262.737999
 30
0.0
 11
392.237099
 21
262.737999
 31
0.0
  0
LINE
  8
0
 62
     7
 10
18.237099
 20
0.237999
 30
0.0
 11
0.237099
 21
0.237999
 31
0.0
  0
LINE
  8
0
 62
     7
 10
209.237099
 20
0.237999
 30
0.0
 11
392.237099
 21
0.237999
 31
0.0
  0
LINE
  8
0
 62
     7
 10
209.237099
 20
0.237999
 30
0.0
 11
209.237099
 21
35.237999
 31
0.0
  0
LINE
  8
0
 62
     7
 10
392.237099
 20
0.237999
 30
0.0
 11
392.237099
 21
35.237999
 31
0.0
  0
LINE
  8
0
 62
     7
 10
209.237099
 20
18.237999
 30
0.0
 11
392.237099
 21
18.237999
 31
0.0
  0
LINE
  8
0
 62
     7
 10
209.237099
 20
9.737999
 30
0.0
 11
392.237099
 21
9.737999
 31
0.0
  0
LINE
  8
0
 62
     7
 10
209.237099
 20
26.737999
 30
0.0
 11
307.237099
 21
26.737999
 31
0.0
  0
LINE
  8
0
 62
     7
 10
209.237099
 20
35.237999
 30
0.0
 11
392.237099
 21
35.237999
 31
0.0
  0
TEXT
  8
0
 62
     7
 10
210.237099
 20
23.971333
 30
0.0
 40
1.4
  1
TARKASTI  CHECKED
  7
ROMANS
  0
TEXT
  8
0
 62
     7
 10
209.979934
 20
15.704666
 30
0.0
 40
1.4
  1
HYVÄKSYI  APPROVED
  7
ROMANS
  0
LINE
  8
0
 62
     7
 10
307.237099
 20
0.237999
 30
0.0
 11
307.237099
 21
35.237999
 31
0.0
  0
TEXT
  8
0
 62
     7
 10
259.237099
 20
32.737999
 30
0.0
 40
1.4
  1
LIITTYY  CONCERNING
  7
ROMANS
  0
TEXT
  8
0
 62
     7
 10
259.237099
 20
23.737999
 30
0.0
 40
1.4
  1
TOLERANSSIT  TOLERANCES
  7
ROMANS
  0
TEXT
  8
0
 62
     7
 10
259.237099
 20
15.737999
 30
0.0
 40
1.4
  1
SUHDE  SCALE
  7
ROMANS
  0
TEXT
  8
0
 62
     7
 10
309.237099
 20
32.737999
 30
0.0
 40
1.4
  1
NIMITYS  NAME
  7
ROMANS
  0
TEXT
  8
0
 62
     7
 10
309.237099
 20
15.737999
 30
0.0
 40
1.4
  1
KOODI  CODE
  7
ROMANS
  0
TEXT
  8
0
 62
     7
 10
309.237099
 20
7.237999
 30
0.0
 40
1.4
  1
PIIRUSTUS NO  DRAWING NR
  7
ROMANS
  0
LINE
  8
0
 62
     7
 10
349.737099
 20
9.737999
 30
0.0
 11
349.737099
 21
18.237999
 31
0.0
  0
TEXT
  8
0
 62
     7
 10
371.237099
 20
7.237999
 30
0.0
 40
1.4
  1
PAINOS  REVISION
  7
ROMANS
  0
LINE
  8
0
 62
     7
 10
369.737099
 20
9.737999
 30
0.0
 11
369.737099
 21
0.237999
 31
0.0
  0
LINE
  8
0
 62
     7
 10
210.187099
 20
1.737999
 30
0.0
 11
211.937099
 21
1.737999
 31
0.0
  0
LINE
  8
0
 62
     7
 10
215.437099
 20
1.737999
 30
0.0
 11
217.187099
 21
1.737999
 31
0.0
  0
LINE
  8
0
 62
     7
 10
212.637099
 20
8.737999
 30
0.0
 11
211.459571
 21
5.373634
 31
0.0
  0
LINE
  8
0
 62
     7
 10
212.425886
 20
3.137999
 30
0.0
 11
213.547099
 21
3.137999
 31
0.0
  0
LINE
  8
0
 62
     7
 10
212.425889
 20
3.134542
 30
0.0
 11
211.937099
 21
1.737999
 31
0.0
  0
LINE
  8
0
 62
     7
 10
214.737099
 20
8.737999
 30
0.0
 11
215.913452
 21
5.376991
 31
0.0
  0
LINE
  8
0
 62
     7
 10
214.948197
 20
3.134863
 30
0.0
 11
215.437099
 21
1.737999
 31
0.0
  0
LINE
  8
0
 62
     7
 10
214.737099
 20
8.737999
 30
0.0
 11
213.827099
 21
8.737999
 31
0.0
  0
LINE
  8
0
 62
     7
 10
213.547099
 20
8.737999
 30
0.0
 11
213.547099
 21
5.377999
 31
0.0
  0
LINE
  8
0
 62
     7
 10
213.827099
 20
8.737999
 30
0.0
 11
213.827099
 21
5.377999
 31
0.0
  0
LINE
  8
0
 62
     7
 10
213.827099
 20
3.137999
 30
0.0
 11
214.946992
 21
3.137999
 31
0.0
  0
LINE
  8
0
 62
     7
 10
213.547099
 20
8.737999
 30
0.0
 11
212.637099
 21
8.737999
 31
0.0
  0
LINE
  8
0
 62
     7
 10
211.45904
 20
5.377999
 30
0.0
 11
213.547099
 21
5.377999
 31
0.0
  0
LINE
  8
0
 62
     7
 10
211.360082
 20
5.097999
 30
0.0
 11
213.547099
 21
5.097999
 31
0.0
  0
LINE
  8
0
 62
     7
 10
216.011591
 20
5.096594
 30
0.0
 11
217.187099
 21
1.737999
 31
0.0
  0
LINE
  8
0
 62
     7
 10
213.827099
 20
5.377999
 30
0.0
 11
215.912213
 21
5.377999
 31
0.0
  0
LINE
  8
0
 62
     7
 10
213.827099
 20
5.097999
 30
0.0
 11
216.010356
 21
5.097999
 31
0.0
  0
LINE
  8
0
 62
     7
 10
213.827099
 20
5.097999
 30
0.0
 11
213.827099
 21
3.137999
 31
0.0
  0
LINE
  8
0
 62
     7
 10
213.547099
 20
5.097999
 30
0.0
 11
213.547099
 21
3.137999
 31
0.0
  0
LINE
  8
0
 62
     7
 10
211.356988
 20
5.080538
 30
0.0
 11
210.187099
 21
1.737999
 31
0.0
  0
INSERT
  8
0
 62
     7
  2
*X16
 10
210.187099
 20
1.737999
 30
0.0
 41
0.7
 42
0.7
 43
0.7
  0
INSERT
  8
0
 62
     7
  2
*X17
 10
210.187099
 20
1.737999
 30
0.0
 41
0.7
 42
0.7
 43
0.7
  0
INSERT
  8
0
 62
     7
  2
*X18
 10
210.187099
 20
1.737999
 30
0.0
 41
0.7
 42
0.7
 43
0.7
  0
INSERT
  8
0
 62
     7
  2
*X19
 10
210.187099
 20
1.737999
 30
0.0
 41
0.7
 42
0.7
 43
0.7
  0
LINE
  8
0
 62
     7
 10
217.677099
 20
1.737999
 30
0.0
 11
217.677099
 21
5.097999
 31
0.0
  0
LINE
  8
0
 62
     7
 10
217.677099
 20
8.737999
 30
0.0
 11
219.637099
 21
8.737999
 31
0.0
  0
LINE
  8
0
 62
     7
 10
219.637099
 20
8.737999
 30
0.0
 11
219.637099
 21
5.377999
 31
0.0
  0
LINE
  8
0
 62
     7
 10
219.637099
 20
5.377999
 30
0.0
 11
217.677099
 21
5.377999
 31
0.0
  0
LINE
  8
0
 62
     7
 10
217.677099
 20
5.097999
 30
0.0
 11
219.637099
 21
5.097999
 31
0.0
  0
LINE
  8
0
 62
     7
 10
219.637099
 20
5.097999
 30
0.0
 11
219.637099
 21
1.737999
 31
0.0
  0
LINE
  8
0
 62
     7
 10
219.637099
 20
1.737999
 30
0.0
 11
217.677099
 21
1.737999
 31
0.0
  0
LINE
  8
0
 62
     7
 10
217.677099
 20
5.377999
 30
0.0
 11
217.677099
 21
8.737999
 31
0.0
  0
ARC
  8
0
 62
     7
 10
220.477099
 20
7.162999
 30
0.0
 40
1.575
 50
298.455859
 51
90.052437
  0
LINE
  8
0
 62
     7
 10
219.917099
 20
8.737999
 30
0.0
 11
220.475658
 21
8.737999
 31
0.0
  0
LINE
  8
0
 62
     7
 10
219.917099
 20
8.737999
 30
0.0
 11
219.917099
 21
5.377999
 31
0.0
  0
LINE
  8
0
 62
     7
 10
219.917099
 20
5.377999
 30
0.0
 11
221.901542
 21
5.377999
 31
0.0
  0
LINE
  8
0
 62
     7
 10
222.157099
 20
5.097999
 30
0.0
 11
219.917099
 21
5.097999
 31
0.0
  0
LINE
  8
0
 62
     7
 10
219.917099
 20
5.097999
 30
0.0
 11
219.917099
 21
1.737999
 31
0.0
  0
ARC
  8
0
 62
     7
 10
220.477099
 20
3.837999
 30
0.0
 40
2.1
 50
269.937724
 51
37.056553
  0
LINE
  8
0
 62
     7
 10
219.917099
 20
1.737999
 30
0.0
 11
220.474817
 21
1.738
 31
0.0
  0
ARC
  8
0
 62
     7
 10
220.477099
 20
3.837999
 30
0.0
 40
2.1
 50
47.28622
 51
68.787999
  0
INSERT
  8
0
 62
     7
  2
*X20
 10
210.187099
 20
1.737999
 30
0.0
 41
0.7
 42
0.7
 43
0.7
  0
INSERT
  8
0
 62
     7
  2
*X21
 10
210.187099
 20
1.737999
 30
0.0
 41
0.7
 42
0.7
 43
0.7
  0
INSERT
  8
0
 62
     7
  2
*X22
 10
210.187099
 20
1.737999
 30
0.0
 41
0.7
 42
0.7
 43
0.7
  0
INSERT
  8
0
 62
     7
  2
*X23
 10
210.187099
 20
1.737999
 30
0.0
 41
0.7
 42
0.7
 43
0.7
  0
INSERT
  8
0
 62
     7
  2
*X23
 10
215.647099
 20
1.737999
 30
0.0
 41
0.7
 42
0.7
 43
0.7
  0
INSERT
  8
0
 62
     7
  2
*X22
 10
215.647099
 20
1.737999
 30
0.0
 41
0.7
 42
0.7
 43
0.7
  0
INSERT
  8
0
 62
     7
  2
*X21
 10
215.647099
 20
1.737999
 30
0.0
 41
0.7
 42
0.7
 43
0.7
  0
INSERT
  8
0
 62
     7
  2
*X20
 10
215.647099
 20
1.737999
 30
0.0
 41
0.7
 42
0.7
 43
0.7
  0
ARC
  8
0
 62
     7
 10
225.937099
 20
3.837999
 30
0.0
 40
2.1
 50
47.28622
 51
68.787999
  0
LINE
  8
0
 62
     7
 10
225.377099
 20
1.737999
 30
0.0
 11
225.934817
 21
1.738
 31
0.0
  0
ARC
  8
0
 62
     7
 10
225.937099
 20
3.837999
 30
0.0
 40
2.1
 50
269.937724
 51
37.056553
  0
LINE
  8
0
 62
     7
 10
225.377099
 20
5.097999
 30
0.0
 11
225.377099
 21
1.737999
 31
0.0
  0
LINE
  8
0
 62
     7
 10
227.617099
 20
5.097999
 30
0.0
 11
225.377099
 21
5.097999
 31
0.0
  0
LINE
  8
0
 62
     7
 10
225.377099
 20
5.377999
 30
0.0
 11
227.361542
 21
5.377999
 31
0.0
  0
LINE
  8
0
 62
     7
 10
225.377099
 20
8.737999
 30
0.0
 11
225.377099
 21
5.377999
 31
0.0
  0
LINE
  8
0
 62
     7
 10
225.377099
 20
8.737999
 30
0.0
 11
225.935658
 21
8.737999
 31
0.0
  0
ARC
  8
0
 62
     7
 10
225.937099
 20
7.162999
 30
0.0
 40
1.575
 50
298.455859
 51
90.052437
  0
LINE
  8
0
 62
     7
 10
223.137099
 20
5.377999
 30
0.0
 11
223.137099
 21
8.737999
 31
0.0
  0
LINE
  8
0
 62
     7
 10
225.097099
 20
1.737999
 30
0.0
 11
223.137099
 21
1.737999
 31
0.0
  0
LINE
  8
0
 62
     7
 10
225.097099
 20
5.097999
 30
0.0
 11
225.097099
 21
1.737999
 31
0.0
  0
LINE
  8
0
 62
     7
 10
223.137099
 20
5.097999
 30
0.0
 11
225.097099
 21
5.097999
 31
0.0
  0
LINE
  8
0
 62
     7
 10
225.097099
 20
5.377999
 30
0.0
 11
223.137099
 21
5.377999
 31
0.0
  0
LINE
  8
0
 62
     7
 10
225.097099
 20
8.737999
 30
0.0
 11
225.097099
 21
5.377999
 31
0.0
  0
LINE
  8
0
 62
     7
 10
223.137099
 20
8.737999
 30
0.0
 11
225.097099
 21
8.737999
 31
0.0
  0
LINE
  8
0
 62
     7
 10
223.137099
 20
1.737999
 30
0.0
 11
223.137099
 21
5.097999
 31
0.0
  0
TEXT
  8
0
 62
     7
 10
229.737099
 20
1.737999
 30
0.0
 40
3.0
  1
ABB 
 41
0.8
  7
ROMANS
  0
TEXT
  8
0
 62
     7
 10
237.737099
 20
1.737999
 30
0.0
 40
3.0
  1
Strömberg
 41
0.8
  7
ROMANS
  0
LINE
  8
0
 62
     7
 10
282.237099
 20
9.737999
 30
0.0
 11
282.237099
 21
18.237999
 31
0.0
  0
TEXT
  8
0
 62
     7
 10
27.737099
 20
4.737999
 30
0.0
 40
1.4
  1
MUUTOS
  7
ROMANS
  0
TEXT
  8
0
 62
     7
 10
27.737099
 20
2.471333
 30
0.0
 40
1.4
  1
REVISION
  7
ROMANS
  0
LINE
  8
0
 62
     7
 10
46.737099
 20
9.237999
 30
0.0
 11
209.237099
 21
9.237999
 31
0.0
  0
LINE
  8
0
 62
     7
 10
46.737099
 20
0.237999
 30
0.0
 11
46.737099
 21
9.237999
 31
0.0
  0
LINE
  8
0
 62
     7
 10
40.737099
 20
4.737999
 30
0.0
 11
209.237099
 21
4.737999
 31
0.0
  0
LINE
  8
0
 62
     7
 10
257.237099
 20
9.737999
 30
0.0
 11
257.237099
 21
35.237999
 31
0.0
  0
LINE
  8
0
 62
     7
 10
271.237099
 20
9.737999
 30
0.0
 11
271.237099
 21
0.237999
 31
0.0
  0
TEXT
  8
0
 62
     7
 10
210.237099
 20
32.237999
 30
0.0
 40
1.4
  1
TEKI  PREPARED
  7
ROMANS
  0
TEXT
  8
0
 62
     7
 10
273.237099
 20
7.237999
 30
0.0
 40
1.4
  1
VAST.OSASTO RESP.DEPT.
  7
ROMANS
  0
TEXT
  8
0
 62
     7
 10
257.407006
 20
1.741783
 30
0.0
 40
3.0
  1
Power
 41
0.8
  7
ROMANS
  0
TEXT
  8
0
 62
     7
 10
42.237099
 20
1.195292
 30
0.0
 40
2.5
  1
B
  7
ROMANS
  0
TEXT
  8
0
 62
     7
 10
42.237099
 20
5.587508
 30
0.0
 40
2.5
  1
C
  7
ROMANS
  0
LINE
  8
0
 62
     7
 10
0.237099
 20
0.237999
 30
0.0
 11
392.237099
 21
0.237999
 31
0.0
  0
LINE
  8
0
 62
     7
 10
392.237099
 20
262.737999
 30
0.0
 11
392.237099
 21
0.237999
 31
0.0
  0
LINE
  8
0
 62
     7
 10
0.237099
 20
0.237999
 30
0.0
 11
0.237099
 21
262.737999
 31
0.0
  0
TEXT
  8
0
  6
CONTINUOUS
 62
     7
 10
141.853328
 20
46.513635
 30
0.0
 40
2.0
  1
+
  0
TEXT
  8
0
  6
CONTINUOUS
 62
     7
 10
156.853328
 20
46.513635
 30
0.0
 40
2.0
  1
+
  0
TEXT
  8
0
  6
CONTINUOUS
 62
     7
 10
151.853328
 20
46.513635
 30
0.0
 40
2.0
  1
+
  0
TEXT
  8
0
  6
CONTINUOUS
 62
     7
 10
161.853328
 20
46.513635
 30
0.0
 40
2.0
  1
+
  0
TEXT
  8
0
  6
CONTINUOUS
 62
     7
 10
166.844763
 20
46.50558
 30
0.0
 40
2.0
  1
-
  0
LINE
  8
0
 62
     7
 10
188.065579
 20
45.783527
 30
0.0
 11
192.065579
 21
45.783527
 31
0.0
  0
INSERT
  8
0
 62
     7
  2
WKU130
 10
188.405529
 20
44.057974
 30
0.0
 41
0.8
 42
0.8
 43
0.8
  0
TEXT
  8
0
  6
CONTINUOUS
 62
     7
 10
186.853328
 20
46.513635
 30
0.0
 40
2.0
  1
+
  0
TEXT
  8
0
  6
CONTINUOUS
 62
     7
 10
191.844763
 20
46.50558
 30
0.0
 40
2.0
  1
-
  0
LINE
  8
0
  6
CONTINUOUS
 62
     7
 10
192.5
 20
80.429605
 30
0.0
 11
192.5
 21
77.5
 31
0.0
  0
LINE
  8
0
  6
CONTINUOUS
 62
     7
 10
187.5
 20
80.429605
 30
0.0
 11
187.5
 21
77.5
 31
0.0
  0
LINE
  8
0
  6
CONTINUOUS
 62
     7
 10
192.5
 20
95.0
 30
0.0
 11
192.5
 21
89.752154
 31
0.0
  0
LINE
  8
0
  6
CONTINUOUS
 62
     7
 10
187.5
 20
95.0
 30
0.0
 11
187.5
 21
89.752154
 31
0.0
  0
INSERT
  8
0
 62
     7
  2
WKU130
 10
190.306261
 20
81.002888
 30
0.0
 41
0.8
 42
0.8
 43
0.8
  0
LINE
  8
0
 62
     7
 10
189.966311
 20
82.72844
 30
0.0
 11
193.966311
 21
82.72844
 31
0.0
  0
LINE
  8
0
 62
     7
 10
186.209901
 20
87.674464
 30
0.0
 11
190.209901
 21
87.674464
 31
0.0
  0
LINE
  8
0
 62
     7
 10
185.295103
 20
81.386207
 30
0.0
 11
193.658613
 21
89.752154
 31
0.0
  0
LINE
  8
0
 62
     7
 10
186.279395
 20
80.429605
 30
0.0
 11
194.619756
 21
88.767352
 31
0.0
  0
LINE
  8
0
 62
     7
 10
185.295103
 20
80.429605
 30
0.0
 11
185.295103
 21
89.752154
 31
0.0
  0
LINE
  8
0
 62
     7
 10
194.619756
 20
80.429605
 30
0.0
 11
185.295103
 21
80.429605
 31
0.0
  0
LINE
  8
0
 62
     7
 10
194.619756
 20
89.752154
 30
0.0
 11
194.619756
 21
80.429605
 31
0.0
  0
LINE
  8
0
 62
     7
 10
185.295103
 20
89.752154
 30
0.0
 11
194.619756
 21
89.752154
 31
0.0
  0
TEXT
  8
0
  6
CONTINUOUS
 62
     7
 10
186.866734
 20
95.55315
 30
0.0
 40
2.0
  1
+
  0
TEXT
  8
0
  6
CONTINUOUS
 62
     7
 10
191.797086
 20
95.577719
 30
0.0
 40
2.0
  1
-
  0
LINE
  8
0
  6
CONTINUOUS
 62
     7
 10
151.404193
 20
121.989958
 30
0.0
 11
149.058427
 21
123.325312
 31
0.0
  0
LINE
  8
0
  6
CONTINUOUS
 62
     7
 10
149.058427
 20
123.325312
 30
0.0
 11
151.404193
 21
124.515231
 31
0.0
  0
LINE
  8
0
 62
     7
 10
8.502721
 20
173.135937
 30
0.0
 11
12.502721
 21
173.135937
 31
0.0
  0
INSERT
  8
0
 62
     7
  2
WKU130
 10
8.84267
 20
171.410384
 30
0.0
 41
0.8
 42
0.8
 43
0.8
  0
LINE
  8
0
 62
     7
 10
8.502721
 20
185.635937
 30
0.0
 11
12.502721
 21
185.635937
 31
0.0
  0
INSERT
  8
0
 62
     7
  2
WKU130
 10
8.84267
 20
183.910384
 30
0.0
 41
0.8
 42
0.8
 43
0.8
  0
LINE
  8
0
 62
     7
 10
8.502721
 20
200.635937
 30
0.0
 11
12.502721
 21
200.635937
 31
0.0
  0
INSERT
  8
0
 62
     7
  2
WKU130
 10
8.84267
 20
198.910384
 30
0.0
 41
0.8
 42
0.8
 43
0.8
  0
LINE
  8
0
 62
     7
 10
8.502721
 20
213.135937
 30
0.0
 11
12.502721
 21
213.135937
 31
0.0
  0
INSERT
  8
0
 62
     7
  2
WKU130
 10
8.84267
 20
211.410384
 30
0.0
 41
0.8
 42
0.8
 43
0.8
  0
TEXT
  8
0
  6
CONTINUOUS
 62
     7
 10
13.856411
 20
169.00558
 30
0.0
 40
2.0
  1
-
  0
TEXT
  8
0
  6
CONTINUOUS
 62
     7
 10
13.864976
 20
174.013635
 30
0.0
 40
2.0
  1
+
  0
TEXT
  8
0
  6
CONTINUOUS
 62
     7
 10
13.856411
 20
181.50558
 30
0.0
 40
2.0
  1
-
  0
TEXT
  8
0
  6
CONTINUOUS
 62
     7
 10
13.864976
 20
186.513635
 30
0.0
 40
2.0
  1
+
  0
TEXT
  8
0
  6
CONTINUOUS
 62
     7
 10
13.856411
 20
196.50558
 30
0.0
 40
2.0
  1
-
  0
TEXT
  8
0
  6
CONTINUOUS
 62
     7
 10
13.864976
 20
201.513635
 30
0.0
 40
2.0
  1
+
  0
TEXT
  8
0
  6
CONTINUOUS
 62
     7
 10
13.856411
 20
209.00558
 30
0.0
 40
2.0
  1
-
  0
TEXT
  8
0
  6
CONTINUOUS
 62
     7
 10
13.864976
 20
214.013635
 30
0.0
 40
2.0
  1
+
  0
LINE
  8
0
  6
CONTINUOUS
 62
     7
 10
151.578355
 20
133.664646
 30
0.0
 11
149.232589
 21
135.0
 31
0.0
  0
LINE
  8
0
  6
CONTINUOUS
 62
     7
 10
149.232589
 20
135.0
 30
0.0
 11
151.578355
 21
136.189919
 31
0.0
  0
LINE
  8
0
  6
CONTINUOUS
 62
     7
 10
151.578355
 20
146.164646
 30
0.0
 11
149.232589
 21
147.5
 31
0.0
  0
LINE
  8
0
  6
CONTINUOUS
 62
     7
 10
149.232589
 20
147.5
 30
0.0
 11
151.578355
 21
148.689919
 31
0.0
  0
LINE
  8
0
  6
CONTINUOUS
 62
     7
 10
151.578355
 20
176.164646
 30
0.0
 11
149.232589
 21
177.5
 31
0.0
  0
LINE
  8
0
  6
CONTINUOUS
 62
     7
 10
149.232589
 20
177.5
 30
0.0
 11
151.578355
 21
178.689919
 31
0.0
  0
LINE
  8
0
  6
CONTINUOUS
 62
     7
 10
151.578355
 20
188.664646
 30
0.0
 11
149.232589
 21
190.0
 31
0.0
  0
LINE
  8
0
  6
CONTINUOUS
 62
     7
 10
149.232589
 20
190.0
 30
0.0
 11
151.578355
 21
191.189919
 31
0.0
  0
LINE
  8
0
  6
CONTINUOUS
 62
     7
 10
200.20081
 20
126.164644
 30
0.0
 11
197.855045
 21
127.499998
 31
0.0
  0
LINE
  8
0
  6
CONTINUOUS
 62
     7
 10
197.855045
 20
127.499998
 30
0.0
 11
200.20081
 21
128.689917
 31
0.0
  0
3DFACE
  8
0
  6
CONTINUOUS
 62
     7
 10
229.134024
 20
128.06
 30
0.0
 11
229.149704
 21
128.06
 31
0.0
 12
229.149704
 22
126.94
 32
0.0
 13
229.134024
 23
126.94
 33
0.0
  0
3DFACE
  8
0
  6
CONTINUOUS
 62
     7
 10
229.149704
 20
128.06
 30
0.0
 11
229.165384
 21
128.06
 31
0.0
 12
229.165384
 22
126.94
 32
0.0
 13
229.149704
 23
126.94
 33
0.0
  0
3DFACE
  8
0
  6
CONTINUOUS
 62
     7
 10
229.165384
 20
128.06
 30
0.0
 11
229.181064
 21
128.06
 31
0.0
 12
229.181064
 22
126.94
 32
0.0
 13
229.165384
 23
126.94
 33
0.0
  0
3DFACE
  8
0
  6
CONTINUOUS
 62
     7
 10
229.181064
 20
128.06
 30
0.0
 11
229.196744
 21
128.06
 31
0.0
 12
229.196744
 22
126.94
 32
0.0
 13
229.181064
 23
126.94
 33
0.0
  0
3DFACE
  8
0
  6
CONTINUOUS
 62
     7
 10
229.196744
 20
128.06
 30
0.0
 11
229.212424
 21
128.06
 31
0.0
 12
229.212424
 22
126.94
 32
0.0
 13
229.196744
 23
126.94
 33
0.0
  0
3DFACE
  8
0
  6
CONTINUOUS
 62
     7
 10
229.212424
 20
128.06
 30
0.0
 11
229.228104
 21
128.06
 31
0.0
 12
229.228104
 22
126.94
 32
0.0
 13
229.212424
 23
126.94
 33
0.0
  0
3DFACE
  8
0
  6
CONTINUOUS
 62
     7
 10
229.228104
 20
128.06
 30
0.0
 11
229.243784
 21
128.06
 31
0.0
 12
229.243784
 22
126.94
 32
0.0
 13
229.228104
 23
126.94
 33
0.0
  0
3DFACE
  8
0
  6
CONTINUOUS
 62
     7
 10
229.243784
 20
128.06
 30
0.0
 11
229.259464
 21
128.06
 31
0.0
 12
229.259464
 22
126.94
 32
0.0
 13
229.243784
 23
126.94
 33
0.0
  0
3DFACE
  8
0
  6
CONTINUOUS
 62
     7
 10
229.259464
 20
128.06
 30
0.0
 11
229.275144
 21
128.06
 31
0.0
 12
229.275144
 22
126.94
 32
0.0
 13
229.259464
 23
126.94
 33
0.0
  0
3DFACE
  8
0
  6
CONTINUOUS
 62
     7
 10
229.275144
 20
128.06
 30
0.0
 11
229.290824
 21
128.06
 31
0.0
 12
229.290824
 22
126.94
 32
0.0
 13
229.275144
 23
126.94
 33
0.0
  0
3DFACE
  8
0
  6
CONTINUOUS
 62
     7
 10
229.290824
 20
128.06
 30
0.0
 11
229.306504
 21
128.06
 31
0.0
 12
229.306504
 22
126.94
 32
0.0
 13
229.290824
 23
126.94
 33
0.0
  0
3DFACE
  8
0
  6
CONTINUOUS
 62
     7
 10
229.306504
 20
128.06
 30
0.0
 11
229.322184
 21
128.06
 31
0.0
 12
229.322184
 22
126.94
 32
0.0
 13
229.306504
 23
126.94
 33
0.0
  0
3DFACE
  8
0
  6
CONTINUOUS
 62
     7
 10
229.322184
 20
128.06
 30
0.0
 11
229.337864
 21
128.06
 31
0.0
 12
229.337864
 22
126.94
 32
0.0
 13
229.322184
 23
126.94
 33
0.0
  0
3DFACE
  8
0
  6
CONTINUOUS
 62
     7
 10
229.337864
 20
128.06
 30
0.0
 11
229.353544
 21
128.06
 31
0.0
 12
229.353544
 22
126.94
 32
0.0
 13
229.337864
 23
126.94
 33
0.0
  0
3DFACE
  8
0
  6
CONTINUOUS
 62
     7
 10
229.353544
 20
128.06
 30
0.0
 11
229.369224
 21
128.06
 31
0.0
 12
229.369224
 22
126.94
 32
0.0
 13
229.353544
 23
126.94
 33
0.0
  0
3DFACE
  8
0
  6
CONTINUOUS
 62
     7
 10
229.369224
 20
128.06
 30
0.0
 11
229.384904
 21
128.06
 31
0.0
 12
229.384904
 22
126.94
 32
0.0
 13
229.369224
 23
126.94
 33
0.0
  0
3DFACE
  8
0
  6
CONTINUOUS
 62
     7
 10
229.384904
 20
128.06
 30
0.0
 11
229.400584
 21
128.06
 31
0.0
 12
229.400584
 22
126.94
 32
0.0
 13
229.384904
 23
126.94
 33
0.0
  0
3DFACE
  8
0
  6
CONTINUOUS
 62
     7
 10
229.400584
 20
128.06
 30
0.0
 11
229.416264
 21
128.06
 31
0.0
 12
229.416264
 22
126.94
 32
0.0
 13
229.400584
 23
126.94
 33
0.0
  0
3DFACE
  8
0
  6
CONTINUOUS
 62
     7
 10
229.416264
 20
128.06
 30
0.0
 11
229.431944
 21
128.06
 31
0.0
 12
229.431944
 22
126.94
 32
0.0
 13
229.416264
 23
126.94
 33
0.0
  0
3DFACE
  8
0
  6
CONTINUOUS
 62
     7
 10
229.431944
 20
128.06
 30
0.0
 11
229.447624
 21
128.06
 31
0.0
 12
229.447624
 22
126.94
 32
0.0
 13
229.431944
 23
126.94
 33
0.0
  0
3DFACE
  8
0
  6
CONTINUOUS
 62
     7
 10
229.447624
 20
128.06
 30
0.0
 11
229.463304
 21
128.06
 31
0.0
 12
229.463304
 22
126.94
 32
0.0
 13
229.447624
 23
126.94
 33
0.0
  0
3DFACE
  8
0
  6
CONTINUOUS
 62
     7
 10
229.463304
 20
128.06
 30
0.0
 11
229.478984
 21
128.06
 31
0.0
 12
229.478984
 22
126.94
 32
0.0
 13
229.463304
 23
126.94
 33
0.0
  0
3DFACE
  8
0
  6
CONTINUOUS
 62
     7
 10
229.478984
 20
128.06
 30
0.0
 11
229.494664
 21
128.06
 31
0.0
 12
229.494664
 22
126.94
 32
0.0
 13
229.478984
 23
126.94
 33
0.0
  0
3DFACE
  8
0
  6
CONTINUOUS
 62
     7
 10
229.494664
 20
128.06
 30
0.0
 11
229.510344
 21
128.06
 31
0.0
 12
229.510344
 22
126.94
 32
0.0
 13
229.494664
 23
126.94
 33
0.0
  0
3DFACE
  8
0
  6
CONTINUOUS
 62
     7
 10
229.510344
 20
128.06
 30
0.0
 11
229.526024
 21
128.06
 31
0.0
 12
229.526024
 22
126.94
 32
0.0
 13
229.510344
 23
126.94
 33
0.0
  0
3DFACE
  8
0
  6
CONTINUOUS
 62
     7
 10
229.526024
 20
128.06
 30
0.0
 11
229.541704
 21
128.06
 31
0.0
 12
229.541704
 22
126.94
 32
0.0
 13
229.526024
 23
126.94
 33
0.0
  0
3DFACE
  8
0
  6
CONTINUOUS
 62
     7
 10
229.541704
 20
128.06
 30
0.0
 11
229.557384
 21
128.06
 31
0.0
 12
229.557384
 22
126.94
 32
0.0
 13
229.541704
 23
126.94
 33
0.0
  0
3DFACE
  8
0
  6
CONTINUOUS
 62
     7
 10
229.557384
 20
128.06
 30
0.0
 11
229.573064
 21
128.06
 31
0.0
 12
229.573064
 22
126.94
 32
0.0
 13
229.557384
 23
126.94
 33
0.0
  0
3DFACE
  8
0
  6
CONTINUOUS
 62
     7
 10
229.573064
 20
128.06
 30
0.0
 11
229.588744
 21
128.06
 31
0.0
 12
229.588744
 22
126.94
 32
0.0
 13
229.573064
 23
126.94
 33
0.0
  0
3DFACE
  8
0
  6
CONTINUOUS
 62
     7
 10
229.588744
 20
128.06
 30
0.0
 11
229.604424
 21
128.06
 31
0.0
 12
229.604424
 22
126.94
 32
0.0
 13
229.588744
 23
126.94
 33
0.0
  0
3DFACE
  8
0
  6
CONTINUOUS
 62
     7
 10
229.604424
 20
128.06
 30
0.0
 11
229.620104
 21
128.06
 31
0.0
 12
229.620104
 22
126.94
 32
0.0
 13
229.604424
 23
126.94
 33
0.0
  0
3DFACE
  8
0
  6
CONTINUOUS
 62
     7
 10
229.620104
 20
128.06
 30
0.0
 11
229.635784
 21
128.06
 31
0.0
 12
229.635784
 22
126.94
 32
0.0
 13
229.620104
 23
126.94
 33
0.0
  0
3DFACE
  8
0
  6
CONTINUOUS
 62
     7
 10
229.635784
 20
128.06
 30
0.0
 11
229.651464
 21
128.06
 31
0.0
 12
229.651464
 22
126.94
 32
0.0
 13
229.635784
 23
126.94
 33
0.0
  0
3DFACE
  8
0
  6
CONTINUOUS
 62
     7
 10
229.651464
 20
128.06
 30
0.0
 11
229.667144
 21
128.06
 31
0.0
 12
229.667144
 22
126.94
 32
0.0
 13
229.651464
 23
126.94
 33
0.0
  0
3DFACE
  8
0
  6
CONTINUOUS
 62
     7
 10
229.667144
 20
128.06
 30
0.0
 11
229.682824
 21
128.06
 31
0.0
 12
229.682824
 22
126.94
 32
0.0
 13
229.667144
 23
126.94
 33
0.0
  0
3DFACE
  8
0
  6
CONTINUOUS
 62
     7
 10
229.682824
 20
128.06
 30
0.0
 11
229.698504
 21
128.06
 31
0.0
 12
229.698504
 22
126.94
 32
0.0
 13
229.682824
 23
126.94
 33
0.0
  0
3DFACE
  8
0
  6
CONTINUOUS
 62
     7
 10
229.698504
 20
128.06
 30
0.0
 11
229.714184
 21
128.06
 31
0.0
 12
229.714184
 22
126.94
 32
0.0
 13
229.698504
 23
126.94
 33
0.0
  0
3DFACE
  8
0
  6
CONTINUOUS
 62
     7
 10
229.714184
 20
128.06
 30
0.0
 11
229.729864
 21
128.06
 31
0.0
 12
229.729864
 22
126.94
 32
0.0
 13
229.714184
 23
126.94
 33
0.0
  0
3DFACE
  8
0
  6
CONTINUOUS
 62
     7
 10
229.729864
 20
128.06
 30
0.0
 11
229.745544
 21
128.06
 31
0.0
 12
229.745544
 22
126.94
 32
0.0
 13
229.729864
 23
126.94
 33
0.0
  0
3DFACE
  8
0
  6
CONTINUOUS
 62
     7
 10
229.745544
 20
128.06
 30
0.0
 11
229.761224
 21
128.06
 31
0.0
 12
229.761224
 22
126.94
 32
0.0
 13
229.745544
 23
126.94
 33
0.0
  0
3DFACE
  8
0
  6
CONTINUOUS
 62
     7
 10
229.761224
 20
128.06
 30
0.0
 11
229.776904
 21
128.06
 31
0.0
 12
229.776904
 22
126.94
 32
0.0
 13
229.761224
 23
126.94
 33
0.0
  0
3DFACE
  8
0
  6
CONTINUOUS
 62
     7
 10
229.776904
 20
128.06
 30
0.0
 11
229.792584
 21
128.06
 31
0.0
 12
229.792584
 22
126.94
 32
0.0
 13
229.776904
 23
126.94
 33
0.0
  0
3DFACE
  8
0
  6
CONTINUOUS
 62
     7
 10
229.792584
 20
128.06
 30
0.0
 11
229.808264
 21
128.06
 31
0.0
 12
229.808264
 22
126.94
 32
0.0
 13
229.792584
 23
126.94
 33
0.0
  0
3DFACE
  8
0
  6
CONTINUOUS
 62
     7
 10
229.808264
 20
128.06
 30
0.0
 11
229.823944
 21
128.06
 31
0.0
 12
229.823944
 22
126.94
 32
0.0
 13
229.808264
 23
126.94
 33
0.0
  0
3DFACE
  8
0
  6
CONTINUOUS
 62
     7
 10
229.823944
 20
128.06
 30
0.0
 11
229.839624
 21
128.06
 31
0.0
 12
229.839624
 22
126.94
 32
0.0
 13
229.823944
 23
126.94
 33
0.0
  0
3DFACE
  8
0
  6
CONTINUOUS
 62
     7
 10
229.839624
 20
128.06
 30
0.0
 11
229.855304
 21
128.06
 31
0.0
 12
229.855304
 22
126.94
 32
0.0
 13
229.839624
 23
126.94
 33
0.0
  0
3DFACE
  8
0
  6
CONTINUOUS
 62
     7
 10
229.855304
 20
128.06
 30
0.0
 11
229.870984
 21
128.06
 31
0.0
 12
229.870984
 22
126.94
 32
0.0
 13
229.855304
 23
126.94
 33
0.0
  0
3DFACE
  8
0
  6
CONTINUOUS
 62
     7
 10
229.870984
 20
128.06
 30
0.0
 11
229.886664
 21
128.06
 31
0.0
 12
229.886664
 22
126.94
 32
0.0
 13
229.870984
 23
126.94
 33
0.0
  0
3DFACE
  8
0
  6
CONTINUOUS
 62
     7
 10
229.886664
 20
128.06
 30
0.0
 11
229.902344
 21
128.06
 31
0.0
 12
229.902344
 22
126.94
 32
0.0
 13
229.886664
 23
126.94
 33
0.0
  0
3DFACE
  8
0
  6
CONTINUOUS
 62
     7
 10
229.902344
 20
128.06
 30
0.0
 11
229.918024
 21
128.06
 31
0.0
 12
229.918024
 22
126.94
 32
0.0
 13
229.902344
 23
126.94
 33
0.0
  0
3DFACE
  8
0
  6
CONTINUOUS
 62
     7
 10
229.918024
 20
128.06
 30
0.0
 11
229.933704
 21
128.06
 31
0.0
 12
229.933704
 22
126.94
 32
0.0
 13
229.918024
 23
126.94
 33
0.0
  0
3DFACE
  8
0
  6
CONTINUOUS
 62
     7
 10
229.933704
 20
128.06
 30
0.0
 11
229.949384
 21
128.06
 31
0.0
 12
229.949384
 22
126.94
 32
0.0
 13
229.933704
 23
126.94
 33
0.0
  0
3DFACE
  8
0
  6
CONTINUOUS
 62
     7
 10
229.949384
 20
128.06
 30
0.0
 11
229.965064
 21
128.06
 31
0.0
 12
229.965064
 22
126.94
 32
0.0
 13
229.949384
 23
126.94
 33
0.0
  0
3DFACE
  8
0
  6
CONTINUOUS
 62
     7
 10
229.965064
 20
128.06
 30
0.0
 11
229.980744
 21
128.06
 31
0.0
 12
229.980744
 22
126.94
 32
0.0
 13
229.965064
 23
126.94
 33
0.0
  0
3DFACE
  8
0
  6
CONTINUOUS
 62
     7
 10
229.980744
 20
128.06
 30
0.0
 11
229.996424
 21
128.06
 31
0.0
 12
229.996424
 22
126.94
 32
0.0
 13
229.980744
 23
126.94
 33
0.0
  0
3DFACE
  8
0
  6
CONTINUOUS
 62
     7
 10
229.996424
 20
128.06
 30
0.0
 11
230.012104
 21
128.06
 31
0.0
 12
230.012104
 22
126.94
 32
0.0
 13
229.996424
 23
126.94
 33
0.0
  0
3DFACE
  8
0
  6
CONTINUOUS
 62
     7
 10
230.012104
 20
128.06
 30
0.0
 11
230.027784
 21
128.06
 31
0.0
 12
230.027784
 22
126.94
 32
0.0
 13
230.012104
 23
126.94
 33
0.0
  0
3DFACE
  8
0
  6
CONTINUOUS
 62
     7
 10
230.027784
 20
128.06
 30
0.0
 11
230.043464
 21
128.06
 31
0.0
 12
230.043464
 22
126.94
 32
0.0
 13
230.027784
 23
126.94
 33
0.0
  0
3DFACE
  8
0
  6
CONTINUOUS
 62
     7
 10
230.043464
 20
128.06
 30
0.0
 11
230.059144
 21
128.06
 31
0.0
 12
230.059144
 22
126.94
 32
0.0
 13
230.043464
 23
126.94
 33
0.0
  0
3DFACE
  8
0
  6
CONTINUOUS
 62
     7
 10
230.059144
 20
128.06
 30
0.0
 11
230.074824
 21
128.06
 31
0.0
 12
230.074824
 22
126.94
 32
0.0
 13
230.059144
 23
126.94
 33
0.0
  0
3DFACE
  8
0
  6
CONTINUOUS
 62
     7
 10
230.074824
 20
128.06
 30
0.0
 11
230.090504
 21
128.06
 31
0.0
 12
230.090504
 22
126.94
 32
0.0
 13
230.074824
 23
126.94
 33
0.0
  0
3DFACE
  8
0
  6
CONTINUOUS
 62
     7
 10
230.090504
 20
128.06
 30
0.0
 11
230.106184
 21
128.06
 31
0.0
 12
230.106184
 22
126.94
 32
0.0
 13
230.090504
 23
126.94
 33
0.0
  0
3DFACE
  8
0
  6
CONTINUOUS
 62
     7
 10
230.106184
 20
128.06
 30
0.0
 11
230.121864
 21
128.06
 31
0.0
 12
230.121864
 22
126.94
 32
0.0
 13
230.106184
 23
126.94
 33
0.0
  0
3DFACE
  8
0
  6
CONTINUOUS
 62
     7
 10
230.121864
 20
128.06
 30
0.0
 11
230.137544
 21
128.06
 31
0.0
 12
230.137544
 22
126.94
 32
0.0
 13
230.121864
 23
126.94
 33
0.0
  0
3DFACE
  8
0
  6
CONTINUOUS
 62
     7
 10
230.137544
 20
128.06
 30
0.0
 11
230.153224
 21
128.06
 31
0.0
 12
230.153224
 22
126.94
 32
0.0
 13
230.137544
 23
126.94
 33
0.0
  0
3DFACE
  8
0
  6
CONTINUOUS
 62
     7
 10
230.153224
 20
128.06
 30
0.0
 11
230.168904
 21
128.06
 31
0.0
 12
230.168904
 22
126.94
 32
0.0
 13
230.153224
 23
126.94
 33
0.0
  0
3DFACE
  8
0
  6
CONTINUOUS
 62
     7
 10
230.168904
 20
128.06
 30
0.0
 11
230.184584
 21
128.06
 31
0.0
 12
230.184584
 22
126.94
 32
0.0
 13
230.168904
 23
126.94
 33
0.0
  0
3DFACE
  8
0
  6
CONTINUOUS
 62
     7
 10
230.184584
 20
128.06
 30
0.0
 11
230.200264
 21
128.06
 31
0.0
 12
230.200264
 22
126.94
 32
0.0
 13
230.184584
 23
126.94
 33
0.0
  0
3DFACE
  8
0
  6
CONTINUOUS
 62
     7
 10
230.200264
 20
128.06
 30
0.0
 11
230.215944
 21
128.06
 31
0.0
 12
230.215944
 22
126.94
 32
0.0
 13
230.200264
 23
126.94
 33
0.0
  0
3DFACE
  8
0
  6
CONTINUOUS
 62
     7
 10
230.215944
 20
128.06
 30
0.0
 11
230.231624
 21
128.06
 31
0.0
 12
230.231624
 22
126.94
 32
0.0
 13
230.215944
 23
126.94
 33
0.0
  0
3DFACE
  8
0
  6
CONTINUOUS
 62
     7
 10
230.231624
 20
128.06
 30
0.0
 11
230.247304
 21
128.06
 31
0.0
 12
230.247304
 22
126.94
 32
0.0
 13
230.231624
 23
126.94
 33
0.0
  0
3DFACE
  8
0
  6
CONTINUOUS
 62
     7
 10
230.247304
 20
128.06
 30
0.0
 11
230.262984
 21
128.06
 31
0.0
 12
230.262984
 22
126.94
 32
0.0
 13
230.247304
 23
126.94
 33
0.0
  0
3DFACE
  8
0
  6
CONTINUOUS
 62
     7
 10
230.262984
 20
128.06
 30
0.0
 11
230.278664
 21
128.06
 31
0.0
 12
230.278664
 22
126.94
 32
0.0
 13
230.262984
 23
126.94
 33
0.0
  0
3DFACE
  8
0
  6
CONTINUOUS
 62
     7
 10
230.278664
 20
128.06
 30
0.0
 11
230.294344
 21
128.06
 31
0.0
 12
230.294344
 22
126.94
 32
0.0
 13
230.278664
 23
126.94
 33
0.0
  0
3DFACE
  8
0
  6
CONTINUOUS
 62
     7
 10
230.294344
 20
128.06
 30
0.0
 11
230.310024
 21
128.06
 31
0.0
 12
230.310024
 22
126.94
 32
0.0
 13
230.294344
 23
126.94
 33
0.0
  0
3DFACE
  8
0
  6
CONTINUOUS
 62
     7
 10
230.310024
 20
128.06
 30
0.0
 11
230.325704
 21
128.06
 31
0.0
 12
230.325704
 22
126.94
 32
0.0
 13
230.310024
 23
126.94
 33
0.0
  0
3DFACE
  8
0
  6
CONTINUOUS
 62
     7
 10
230.325704
 20
128.06
 30
0.0
 11
230.341384
 21
128.06
 31
0.0
 12
230.341384
 22
126.94
 32
0.0
 13
230.325704
 23
126.94
 33
0.0
  0
3DFACE
  8
0
  6
CONTINUOUS
 62
     7
 10
230.341384
 20
128.06
 30
0.0
 11
230.357064
 21
128.06
 31
0.0
 12
230.357064
 22
126.94
 32
0.0
 13
230.341384
 23
126.94
 33
0.0
  0
3DFACE
  8
0
  6
CONTINUOUS
 62
     7
 10
230.357064
 20
128.06
 30
0.0
 11
230.372744
 21
128.06
 31
0.0
 12
230.372744
 22
126.94
 32
0.0
 13
230.357064
 23
126.94
 33
0.0
  0
3DFACE
  8
0
  6
CONTINUOUS
 62
     7
 10
230.372744
 20
128.06
 30
0.0
 11
230.388424
 21
128.06
 31
0.0
 12
230.388424
 22
126.94
 32
0.0
 13
230.372744
 23
126.94
 33
0.0
  0
3DFACE
  8
0
  6
CONTINUOUS
 62
     7
 10
230.388424
 20
128.06
 30
0.0
 11
230.404104
 21
128.06
 31
0.0
 12
230.404104
 22
126.94
 32
0.0
 13
230.388424
 23
126.94
 33
0.0
  0
3DFACE
  8
0
  6
CONTINUOUS
 62
     7
 10
230.404104
 20
128.06
 30
0.0
 11
230.419784
 21
128.06
 31
0.0
 12
230.419784
 22
126.94
 32
0.0
 13
230.404104
 23
126.94
 33
0.0
  0
3DFACE
  8
0
  6
CONTINUOUS
 62
     7
 10
230.419784
 20
128.06
 30
0.0
 11
230.435464
 21
128.06
 31
0.0
 12
230.435464
 22
126.94
 32
0.0
 13
230.419784
 23
126.94
 33
0.0
  0
3DFACE
  8
0
  6
CONTINUOUS
 62
     7
 10
230.435464
 20
128.06
 30
0.0
 11
230.451144
 21
128.06
 31
0.0
 12
230.451144
 22
126.94
 32
0.0
 13
230.435464
 23
126.94
 33
0.0
  0
3DFACE
  8
0
  6
CONTINUOUS
 62
     7
 10
230.451144
 20
128.06
 30
0.0
 11
230.466824
 21
128.06
 31
0.0
 12
230.466824
 22
126.94
 32
0.0
 13
230.451144
 23
126.94
 33
0.0
  0
3DFACE
  8
0
  6
CONTINUOUS
 62
     7
 10
230.466824
 20
128.06
 30
0.0
 11
230.482504
 21
128.06
 31
0.0
 12
230.482504
 22
126.94
 32
0.0
 13
230.466824
 23
126.94
 33
0.0
  0
3DFACE
  8
0
  6
CONTINUOUS
 62
     7
 10
230.482504
 20
128.06
 30
0.0
 11
230.498184
 21
128.06
 31
0.0
 12
230.498184
 22
126.94
 32
0.0
 13
230.482504
 23
126.94
 33
0.0
  0
3DFACE
  8
0
  6
CONTINUOUS
 62
     7
 10
230.498184
 20
128.06
 30
0.0
 11
230.513864
 21
128.06
 31
0.0
 12
230.513864
 22
126.94
 32
0.0
 13
230.498184
 23
126.94
 33
0.0
  0
3DFACE
  8
0
  6
CONTINUOUS
 62
     7
 10
230.513864
 20
128.06
 30
0.0
 11
230.529544
 21
128.06
 31
0.0
 12
230.529544
 22
126.94
 32
0.0
 13
230.513864
 23
126.94
 33
0.0
  0
3DFACE
  8
0
  6
CONTINUOUS
 62
     7
 10
230.529544
 20
128.06
 30
0.0
 11
230.545224
 21
128.06
 31
0.0
 12
230.545224
 22
126.94
 32
0.0
 13
230.529544
 23
126.94
 33
0.0
  0
3DFACE
  8
0
  6
CONTINUOUS
 62
     7
 10
230.545224
 20
128.06
 30
0.0
 11
230.560904
 21
128.06
 31
0.0
 12
230.560904
 22
126.94
 32
0.0
 13
230.545224
 23
126.94
 33
0.0
  0
3DFACE
  8
0
  6
CONTINUOUS
 62
     7
 10
230.560904
 20
128.06
 30
0.0
 11
230.576584
 21
128.06
 31
0.0
 12
230.576584
 22
126.94
 32
0.0
 13
230.560904
 23
126.94
 33
0.0
  0
3DFACE
  8
0
  6
CONTINUOUS
 62
     7
 10
230.576584
 20
128.06
 30
0.0
 11
230.592264
 21
128.06
 31
0.0
 12
230.592264
 22
126.94
 32
0.0
 13
230.576584
 23
126.94
 33
0.0
  0
3DFACE
  8
0
  6
CONTINUOUS
 62
     7
 10
230.592264
 20
128.06
 30
0.0
 11
230.607944
 21
128.06
 31
0.0
 12
230.607944
 22
126.94
 32
0.0
 13
230.592264
 23
126.94
 33
0.0
  0
3DFACE
  8
0
  6
CONTINUOUS
 62
     7
 10
230.607944
 20
128.06
 30
0.0
 11
230.623624
 21
128.06
 31
0.0
 12
230.623624
 22
126.94
 32
0.0
 13
230.607944
 23
126.94
 33
0.0
  0
3DFACE
  8
0
  6
CONTINUOUS
 62
     7
 10
230.623624
 20
128.06
 30
0.0
 11
230.639304
 21
128.06
 31
0.0
 12
230.639304
 22
126.94
 32
0.0
 13
230.623624
 23
126.94
 33
0.0
  0
3DFACE
  8
0
  6
CONTINUOUS
 62
     7
 10
230.639304
 20
128.06
 30
0.0
 11
230.654984
 21
128.06
 31
0.0
 12
230.654984
 22
126.94
 32
0.0
 13
230.639304
 23
126.94
 33
0.0
  0
3DFACE
  8
0
  6
CONTINUOUS
 62
     7
 10
230.654984
 20
128.06
 30
0.0
 11
230.670664
 21
128.06
 31
0.0
 12
230.670664
 22
126.94
 32
0.0
 13
230.654984
 23
126.94
 33
0.0
  0
3DFACE
  8
0
  6
CONTINUOUS
 62
     7
 10
230.670664
 20
128.06
 30
0.0
 11
230.686344
 21
128.06
 31
0.0
 12
230.686344
 22
126.94
 32
0.0
 13
230.670664
 23
126.94
 33
0.0
  0
3DFACE
  8
0
  6
CONTINUOUS
 62
     7
 10
230.686344
 20
128.06
 30
0.0
 11
230.702024
 21
128.06
 31
0.0
 12
230.702024
 22
126.94
 32
0.0
 13
230.686344
 23
126.94
 33
0.0
  0
3DFACE
  8
0
  6
CONTINUOUS
 62
     7
 10
230.702024
 20
128.06
 30
0.0
 11
230.717704
 21
128.06
 31
0.0
 12
230.717704
 22
126.94
 32
0.0
 13
230.702024
 23
126.94
 33
0.0
  0
3DFACE
  8
0
  6
CONTINUOUS
 62
     7
 10
230.717704
 20
128.06
 30
0.0
 11
230.733384
 21
128.06
 31
0.0
 12
230.733384
 22
126.94
 32
0.0
 13
230.717704
 23
126.94
 33
0.0
  0
3DFACE
  8
0
  6
CONTINUOUS
 62
     7
 10
230.733384
 20
128.06
 30
0.0
 11
230.749064
 21
128.06
 31
0.0
 12
230.749064
 22
126.94
 32
0.0
 13
230.733384
 23
126.94
 33
0.0
  0
3DFACE
  8
0
  6
CONTINUOUS
 62
     7
 10
230.749064
 20
128.06
 30
0.0
 11
230.764744
 21
128.06
 31
0.0
 12
230.764744
 22
126.94
 32
0.0
 13
230.749064
 23
126.94
 33
0.0
  0
3DFACE
  8
0
  6
CONTINUOUS
 62
     7
 10
230.764744
 20
128.06
 30
0.0
 11
230.780424
 21
128.06
 31
0.0
 12
230.780424
 22
126.94
 32
0.0
 13
230.764744
 23
126.94
 33
0.0
  0
3DFACE
  8
0
  6
CONTINUOUS
 62
     7
 10
230.780424
 20
128.06
 30
0.0
 11
230.796104
 21
128.06
 31
0.0
 12
230.796104
 22
126.94
 32
0.0
 13
230.780424
 23
126.94
 33
0.0
  0
3DFACE
  8
0
  6
CONTINUOUS
 62
     7
 10
230.796104
 20
128.06
 30
0.0
 11
230.811784
 21
128.06
 31
0.0
 12
230.811784
 22
126.94
 32
0.0
 13
230.796104
 23
126.94
 33
0.0
  0
3DFACE
  8
0
  6
CONTINUOUS
 62
     7
 10
230.811784
 20
128.06
 30
0.0
 11
230.827464
 21
128.06
 31
0.0
 12
230.827464
 22
126.94
 32
0.0
 13
230.811784
 23
126.94
 33
0.0
  0
3DFACE
  8
0
  6
CONTINUOUS
 62
     7
 10
230.827464
 20
128.06
 30
0.0
 11
230.843144
 21
128.06
 31
0.0
 12
230.843144
 22
126.94
 32
0.0
 13
230.827464
 23
126.94
 33
0.0
  0
3DFACE
  8
0
  6
CONTINUOUS
 62
     7
 10
230.843144
 20
128.06
 30
0.0
 11
230.858824
 21
128.06
 31
0.0
 12
230.858824
 22
126.94
 32
0.0
 13
230.843144
 23
126.94
 33
0.0
  0
3DFACE
  8
0
  6
CONTINUOUS
 62
     7
 10
230.858824
 20
128.06
 30
0.0
 11
230.874504
 21
128.06
 31
0.0
 12
230.874504
 22
126.94
 32
0.0
 13
230.858824
 23
126.94
 33
0.0
  0
3DFACE
  8
0
  6
CONTINUOUS
 62
     7
 10
230.874504
 20
128.06
 30
0.0
 11
230.890184
 21
128.06
 31
0.0
 12
230.890184
 22
126.94
 32
0.0
 13
230.874504
 23
126.94
 33
0.0
  0
3DFACE
  8
0
  6
CONTINUOUS
 62
     7
 10
230.890184
 20
128.06
 30
0.0
 11
230.905864
 21
128.06
 31
0.0
 12
230.905864
 22
126.94
 32
0.0
 13
230.890184
 23
126.94
 33
0.0
  0
3DFACE
  8
0
  6
CONTINUOUS
 62
     7
 10
230.905864
 20
128.06
 30
0.0
 11
230.921544
 21
128.06
 31
0.0
 12
230.921544
 22
126.94
 32
0.0
 13
230.905864
 23
126.94
 33
0.0
  0
3DFACE
  8
0
  6
CONTINUOUS
 62
     7
 10
230.921544
 20
128.06
 30
0.0
 11
230.937224
 21
128.06
 31
0.0
 12
230.937224
 22
126.94
 32
0.0
 13
230.921544
 23
126.94
 33
0.0
  0
3DFACE
  8
0
  6
CONTINUOUS
 62
     7
 10
230.937224
 20
128.06
 30
0.0
 11
230.952904
 21
128.06
 31
0.0
 12
230.952904
 22
126.94
 32
0.0
 13
230.937224
 23
126.94
 33
0.0
  0
3DFACE
  8
0
  6
CONTINUOUS
 62
     7
 10
230.952904
 20
128.06
 30
0.0
 11
230.968584
 21
128.06
 31
0.0
 12
230.968584
 22
126.94
 32
0.0
 13
230.952904
 23
126.94
 33
0.0
  0
3DFACE
  8
0
  6
CONTINUOUS
 62
     7
 10
230.968584
 20
128.06
 30
0.0
 11
230.984264
 21
128.06
 31
0.0
 12
230.984264
 22
126.94
 32
0.0
 13
230.968584
 23
126.94
 33
0.0
  0
3DFACE
  8
0
  6
CONTINUOUS
 62
     7
 10
230.984264
 20
128.06
 30
0.0
 11
230.999944
 21
128.06
 31
0.0
 12
230.999944
 22
126.94
 32
0.0
 13
230.984264
 23
126.94
 33
0.0
  0
3DFACE
  8
0
  6
CONTINUOUS
 62
     7
 10
230.999944
 20
128.06
 30
0.0
 11
231.015624
 21
128.06
 31
0.0
 12
231.015624
 22
126.94
 32
0.0
 13
230.999944
 23
126.94
 33
0.0
  0
3DFACE
  8
0
  6
CONTINUOUS
 62
     7
 10
231.015624
 20
128.06
 30
0.0
 11
231.031304
 21
128.06
 31
0.0
 12
231.031304
 22
126.94
 32
0.0
 13
231.015624
 23
126.94
 33
0.0
  0
3DFACE
  8
0
  6
CONTINUOUS
 62
     7
 10
231.031304
 20
128.06
 30
0.0
 11
231.046984
 21
128.06
 31
0.0
 12
231.046984
 22
126.94
 32
0.0
 13
231.031304
 23
126.94
 33
0.0
  0
3DFACE
  8
0
  6
CONTINUOUS
 62
     7
 10
231.046984
 20
128.06
 30
0.0
 11
231.062664
 21
128.06
 31
0.0
 12
231.062664
 22
126.94
 32
0.0
 13
231.046984
 23
126.94
 33
0.0
  0
3DFACE
  8
0
  6
CONTINUOUS
 62
     7
 10
231.062664
 20
128.06
 30
0.0
 11
231.078344
 21
128.06
 31
0.0
 12
231.078344
 22
126.94
 32
0.0
 13
231.062664
 23
126.94
 33
0.0
  0
3DFACE
  8
0
  6
CONTINUOUS
 62
     7
 10
231.078344
 20
128.06
 30
0.0
 11
231.094024
 21
128.06
 31
0.0
 12
231.094024
 22
126.94
 32
0.0
 13
231.078344
 23
126.94
 33
0.0
  0
3DFACE
  8
0
  6
CONTINUOUS
 62
     7
 10
231.094024
 20
128.06
 30
0.0
 11
231.109704
 21
128.06
 31
0.0
 12
231.109704
 22
126.94
 32
0.0
 13
231.094024
 23
126.94
 33
0.0
  0
3DFACE
  8
0
  6
CONTINUOUS
 62
     7
 10
231.109704
 20
128.06
 30
0.0
 11
231.125384
 21
128.06
 31
0.0
 12
231.125384
 22
126.94
 32
0.0
 13
231.109704
 23
126.94
 33
0.0
  0
3DFACE
  8
0
  6
CONTINUOUS
 62
     7
 10
231.125384
 20
128.06
 30
0.0
 11
231.141064
 21
128.06
 31
0.0
 12
231.141064
 22
126.94
 32
0.0
 13
231.125384
 23
126.94
 33
0.0
  0
3DFACE
  8
0
  6
CONTINUOUS
 62
     7
 10
231.141064
 20
128.06
 30
0.0
 11
231.156744
 21
128.06
 31
0.0
 12
231.156744
 22
126.94
 32
0.0
 13
231.141064
 23
126.94
 33
0.0
  0
3DFACE
  8
0
  6
CONTINUOUS
 62
     7
 10
231.156744
 20
128.06
 30
0.0
 11
231.172424
 21
128.06
 31
0.0
 12
231.172424
 22
126.94
 32
0.0
 13
231.156744
 23
126.94
 33
0.0
  0
3DFACE
  8
0
  6
CONTINUOUS
 62
     7
 10
231.172424
 20
128.06
 30
0.0
 11
231.188104
 21
128.06
 31
0.0
 12
231.188104
 22
126.94
 32
0.0
 13
231.172424
 23
126.94
 33
0.0
  0
3DFACE
  8
0
  6
CONTINUOUS
 62
     7
 10
231.188104
 20
128.06
 30
0.0
 11
231.203784
 21
128.06
 31
0.0
 12
231.203784
 22
126.94
 32
0.0
 13
231.188104
 23
126.94
 33
0.0
  0
3DFACE
  8
0
  6
CONTINUOUS
 62
     7
 10
231.203784
 20
128.06
 30
0.0
 11
231.219464
 21
128.06
 31
0.0
 12
231.219464
 22
126.94
 32
0.0
 13
231.203784
 23
126.94
 33
0.0
  0
3DFACE
  8
0
  6
CONTINUOUS
 62
     7
 10
231.219464
 20
128.06
 30
0.0
 11
231.235144
 21
128.06
 31
0.0
 12
231.235144
 22
126.94
 32
0.0
 13
231.219464
 23
126.94
 33
0.0
  0
3DFACE
  8
0
  6
CONTINUOUS
 62
     7
 10
231.235144
 20
128.06
 30
0.0
 11
231.250824
 21
128.06
 31
0.0
 12
231.250824
 22
126.94
 32
0.0
 13
231.235144
 23
126.94
 33
0.0
  0
3DFACE
  8
0
  6
CONTINUOUS
 62
     7
 10
231.250824
 20
128.06
 30
0.0
 11
231.266504
 21
128.06
 31
0.0
 12
231.266504
 22
126.94
 32
0.0
 13
231.250824
 23
126.94
 33
0.0
  0
3DFACE
  8
0
  6
CONTINUOUS
 62
     7
 10
231.266504
 20
128.06
 30
0.0
 11
231.282184
 21
128.06
 31
0.0
 12
231.282184
 22
126.94
 32
0.0
 13
231.266504
 23
126.94
 33
0.0
  0
3DFACE
  8
0
  6
CONTINUOUS
 62
     7
 10
231.282184
 20
128.06
 30
0.0
 11
231.297864
 21
128.06
 31
0.0
 12
231.297864
 22
126.94
 32
0.0
 13
231.282184
 23
126.94
 33
0.0
  0
3DFACE
  8
0
  6
CONTINUOUS
 62
     7
 10
231.297864
 20
128.06
 30
0.0
 11
231.313544
 21
128.06
 31
0.0
 12
231.313544
 22
126.94
 32
0.0
 13
231.297864
 23
126.94
 33
0.0
  0
3DFACE
  8
0
  6
CONTINUOUS
 62
     7
 10
231.313544
 20
128.06
 30
0.0
 11
231.329224
 21
128.06
 31
0.0
 12
231.329224
 22
126.94
 32
0.0
 13
231.313544
 23
126.94
 33
0.0
  0
3DFACE
  8
0
  6
CONTINUOUS
 62
     7
 10
231.329224
 20
128.06
 30
0.0
 11
231.344904
 21
128.06
 31
0.0
 12
231.344904
 22
126.94
 32
0.0
 13
231.329224
 23
126.94
 33
0.0
  0
3DFACE
  8
0
  6
CONTINUOUS
 62
     7
 10
231.344904
 20
128.06
 30
0.0
 11
231.360584
 21
128.06
 31
0.0
 12
231.360584
 22
126.94
 32
0.0
 13
231.344904
 23
126.94
 33
0.0
  0
3DFACE
  8
0
  6
CONTINUOUS
 62
     7
 10
231.360584
 20
128.06
 30
0.0
 11
231.376264
 21
128.06
 31
0.0
 12
231.376264
 22
126.94
 32
0.0
 13
231.360584
 23
126.94
 33
0.0
  0
3DFACE
  8
0
  6
CONTINUOUS
 62
     7
 10
231.376264
 20
128.06
 30
0.0
 11
231.391944
 21
128.06
 31
0.0
 12
231.391944
 22
126.94
 32
0.0
 13
231.376264
 23
126.94
 33
0.0
  0
3DFACE
  8
0
  6
CONTINUOUS
 62
     7
 10
231.391944
 20
128.06
 30
0.0
 11
231.407624
 21
128.06
 31
0.0
 12
231.407624
 22
126.94
 32
0.0
 13
231.391944
 23
126.94
 33
0.0
  0
3DFACE
  8
0
  6
CONTINUOUS
 62
     7
 10
231.407624
 20
128.06
 30
0.0
 11
231.423304
 21
128.06
 31
0.0
 12
231.423304
 22
126.94
 32
0.0
 13
231.407624
 23
126.94
 33
0.0
  0
3DFACE
  8
0
  6
CONTINUOUS
 62
     7
 10
231.423304
 20
128.06
 30
0.0
 11
231.438984
 21
128.06
 31
0.0
 12
231.438984
 22
126.94
 32
0.0
 13
231.423304
 23
126.94
 33
0.0
  0
3DFACE
  8
0
  6
CONTINUOUS
 62
     7
 10
231.438984
 20
128.06
 30
0.0
 11
231.454664
 21
128.06
 31
0.0
 12
231.454664
 22
126.94
 32
0.0
 13
231.438984
 23
126.94
 33
0.0
  0
3DFACE
  8
0
  6
CONTINUOUS
 62
     7
 10
231.454664
 20
128.06
 30
0.0
 11
231.470344
 21
128.06
 31
0.0
 12
231.470344
 22
126.94
 32
0.0
 13
231.454664
 23
126.94
 33
0.0
  0
3DFACE
  8
0
  6
CONTINUOUS
 62
     7
 10
231.470344
 20
128.06
 30
0.0
 11
231.486024
 21
128.06
 31
0.0
 12
231.486024
 22
126.94
 32
0.0
 13
231.470344
 23
126.94
 33
0.0
  0
3DFACE
  8
0
  6
CONTINUOUS
 62
     7
 10
231.486024
 20
128.06
 30
0.0
 11
231.501704
 21
128.06
 31
0.0
 12
231.501704
 22
126.94
 32
0.0
 13
231.486024
 23
126.94
 33
0.0
  0
3DFACE
  8
0
  6
CONTINUOUS
 62
     7
 10
231.501704
 20
128.06
 30
0.0
 11
231.517384
 21
128.06
 31
0.0
 12
231.517384
 22
126.94
 32
0.0
 13
231.501704
 23
126.94
 33
0.0
  0
3DFACE
  8
0
  6
CONTINUOUS
 62
     7
 10
231.517384
 20
128.06
 30
0.0
 11
231.533064
 21
128.06
 31
0.0
 12
231.533064
 22
126.94
 32
0.0
 13
231.517384
 23
126.94
 33
0.0
  0
3DFACE
  8
0
  6
CONTINUOUS
 62
     7
 10
231.533064
 20
128.06
 30
0.0
 11
231.548744
 21
128.06
 31
0.0
 12
231.548744
 22
126.94
 32
0.0
 13
231.533064
 23
126.94
 33
0.0
  0
3DFACE
  8
0
  6
CONTINUOUS
 62
     7
 10
231.548744
 20
128.06
 30
0.0
 11
231.564424
 21
128.06
 31
0.0
 12
231.564424
 22
126.94
 32
0.0
 13
231.548744
 23
126.94
 33
0.0
  0
3DFACE
  8
0
  6
CONTINUOUS
 62
     7
 10
231.564424
 20
128.06
 30
0.0
 11
231.580104
 21
128.06
 31
0.0
 12
231.580104
 22
126.94
 32
0.0
 13
231.564424
 23
126.94
 33
0.0
  0
3DFACE
  8
0
  6
CONTINUOUS
 62
     7
 10
231.580104
 20
128.06
 30
0.0
 11
231.595784
 21
128.06
 31
0.0
 12
231.595784
 22
126.94
 32
0.0
 13
231.580104
 23
126.94
 33
0.0
  0
3DFACE
  8
0
  6
CONTINUOUS
 62
     7
 10
231.595784
 20
128.06
 30
0.0
 11
231.611464
 21
128.06
 31
0.0
 12
231.611464
 22
126.94
 32
0.0
 13
231.595784
 23
126.94
 33
0.0
  0
3DFACE
  8
0
  6
CONTINUOUS
 62
     7
 10
231.611464
 20
128.06
 30
0.0
 11
231.627144
 21
128.06
 31
0.0
 12
231.627144
 22
126.94
 32
0.0
 13
231.611464
 23
126.94
 33
0.0
  0
3DFACE
  8
0
  6
CONTINUOUS
 62
     7
 10
231.627144
 20
128.06
 30
0.0
 11
231.642824
 21
128.06
 31
0.0
 12
231.642824
 22
126.94
 32
0.0
 13
231.627144
 23
126.94
 33
0.0
  0
3DFACE
  8
0
  6
CONTINUOUS
 62
     7
 10
231.642824
 20
128.06
 30
0.0
 11
231.658504
 21
128.06
 31
0.0
 12
231.658504
 22
126.94
 32
0.0
 13
231.642824
 23
126.94
 33
0.0
  0
3DFACE
  8
0
  6
CONTINUOUS
 62
     7
 10
231.658504
 20
128.06
 30
0.0
 11
231.674184
 21
128.06
 31
0.0
 12
231.674184
 22
126.94
 32
0.0
 13
231.658504
 23
126.94
 33
0.0
  0
3DFACE
  8
0
  6
CONTINUOUS
 62
     7
 10
231.674184
 20
128.06
 30
0.0
 11
231.689864
 21
128.06
 31
0.0
 12
231.689864
 22
126.94
 32
0.0
 13
231.674184
 23
126.94
 33
0.0
  0
3DFACE
  8
0
  6
CONTINUOUS
 62
     7
 10
231.689864
 20
128.06
 30
0.0
 11
231.705544
 21
128.06
 31
0.0
 12
231.705544
 22
126.94
 32
0.0
 13
231.689864
 23
126.94
 33
0.0
  0
3DFACE
  8
0
  6
CONTINUOUS
 62
     7
 10
231.705544
 20
128.06
 30
0.0
 11
231.721224
 21
128.06
 31
0.0
 12
231.721224
 22
126.94
 32
0.0
 13
231.705544
 23
126.94
 33
0.0
  0
3DFACE
  8
0
  6
CONTINUOUS
 62
     7
 10
231.721224
 20
128.06
 30
0.0
 11
231.736904
 21
128.06
 31
0.0
 12
231.736904
 22
126.94
 32
0.0
 13
231.721224
 23
126.94
 33
0.0
  0
3DFACE
  8
0
  6
CONTINUOUS
 62
     7
 10
231.736904
 20
128.06
 30
0.0
 11
231.752584
 21
128.06
 31
0.0
 12
231.752584
 22
126.94
 32
0.0
 13
231.736904
 23
126.94
 33
0.0
  0
3DFACE
  8
0
  6
CONTINUOUS
 62
     7
 10
231.752584
 20
128.06
 30
0.0
 11
231.768264
 21
128.06
 31
0.0
 12
231.768264
 22
126.94
 32
0.0
 13
231.752584
 23
126.94
 33
0.0
  0
3DFACE
  8
0
  6
CONTINUOUS
 62
     7
 10
231.768264
 20
128.06
 30
0.0
 11
231.783944
 21
128.06
 31
0.0
 12
231.783944
 22
126.94
 32
0.0
 13
231.768264
 23
126.94
 33
0.0
  0
3DFACE
  8
0
  6
CONTINUOUS
 62
     7
 10
231.783944
 20
128.06
 30
0.0
 11
231.799624
 21
128.06
 31
0.0
 12
231.799624
 22
126.94
 32
0.0
 13
231.783944
 23
126.94
 33
0.0
  0
3DFACE
  8
0
  6
CONTINUOUS
 62
     7
 10
231.799624
 20
128.06
 30
0.0
 11
231.815304
 21
128.06
 31
0.0
 12
231.815304
 22
126.94
 32
0.0
 13
231.799624
 23
126.94
 33
0.0
  0
3DFACE
  8
0
  6
CONTINUOUS
 62
     7
 10
231.815304
 20
128.06
 30
0.0
 11
231.830984
 21
128.06
 31
0.0
 12
231.830984
 22
126.94
 32
0.0
 13
231.815304
 23
126.94
 33
0.0
  0
3DFACE
  8
0
  6
CONTINUOUS
 62
     7
 10
231.830984
 20
128.06
 30
0.0
 11
231.846664
 21
128.06
 31
0.0
 12
231.846664
 22
126.94
 32
0.0
 13
231.830984
 23
126.94
 33
0.0
  0
3DFACE
  8
0
  6
CONTINUOUS
 62
     7
 10
231.846664
 20
128.06
 30
0.0
 11
231.862344
 21
128.06
 31
0.0
 12
231.862344
 22
126.94
 32
0.0
 13
231.846664
 23
126.94
 33
0.0
  0
3DFACE
  8
0
  6
CONTINUOUS
 62
     7
 10
231.862344
 20
128.06
 30
0.0
 11
231.878024
 21
128.06
 31
0.0
 12
231.878024
 22
126.94
 32
0.0
 13
231.862344
 23
126.94
 33
0.0
  0
3DFACE
  8
0
  6
CONTINUOUS
 62
     7
 10
231.878024
 20
128.06
 30
0.0
 11
231.893704
 21
128.06
 31
0.0
 12
231.893704
 22
126.94
 32
0.0
 13
231.878024
 23
126.94
 33
0.0
  0
3DFACE
  8
0
  6
CONTINUOUS
 62
     7
 10
231.893704
 20
128.06
 30
0.0
 11
231.909384
 21
128.06
 31
0.0
 12
231.909384
 22
126.94
 32
0.0
 13
231.893704
 23
126.94
 33
0.0
  0
3DFACE
  8
0
  6
CONTINUOUS
 62
     7
 10
231.909384
 20
128.06
 30
0.0
 11
231.925064
 21
128.06
 31
0.0
 12
231.925064
 22
126.94
 32
0.0
 13
231.909384
 23
126.94
 33
0.0
  0
3DFACE
  8
0
  6
CONTINUOUS
 62
     7
 10
231.925064
 20
128.06
 30
0.0
 11
231.940744
 21
128.06
 31
0.0
 12
231.940744
 22
126.94
 32
0.0
 13
231.925064
 23
126.94
 33
0.0
  0
3DFACE
  8
0
  6
CONTINUOUS
 62
     7
 10
231.940744
 20
128.06
 30
0.0
 11
231.956424
 21
128.06
 31
0.0
 12
231.956424
 22
126.94
 32
0.0
 13
231.940744
 23
126.94
 33
0.0
  0
3DFACE
  8
0
  6
CONTINUOUS
 62
     7
 10
231.956424
 20
128.06
 30
0.0
 11
231.972104
 21
128.06
 31
0.0
 12
231.972104
 22
126.94
 32
0.0
 13
231.956424
 23
126.94
 33
0.0
  0
3DFACE
  8
0
  6
CONTINUOUS
 62
     7
 10
231.972104
 20
128.06
 30
0.0
 11
231.987784
 21
128.06
 31
0.0
 12
231.987784
 22
126.94
 32
0.0
 13
231.972104
 23
126.94
 33
0.0
  0
3DFACE
  8
0
  6
CONTINUOUS
 62
     7
 10
231.987784
 20
128.06
 30
0.0
 11
232.003464
 21
128.06
 31
0.0
 12
232.003464
 22
126.94
 32
0.0
 13
231.987784
 23
126.94
 33
0.0
  0
3DFACE
  8
0
  6
CONTINUOUS
 62
     7
 10
232.003464
 20
128.06
 30
0.0
 11
232.019144
 21
128.06
 31
0.0
 12
232.019144
 22
126.94
 32
0.0
 13
232.003464
 23
126.94
 33
0.0
  0
3DFACE
  8
0
  6
CONTINUOUS
 62
     7
 10
232.019144
 20
128.06
 30
0.0
 11
232.034824
 21
128.06
 31
0.0
 12
232.034824
 22
126.94
 32
0.0
 13
232.019144
 23
126.94
 33
0.0
  0
3DFACE
  8
0
  6
CONTINUOUS
 62
     7
 10
232.034824
 20
128.06
 30
0.0
 11
232.050504
 21
128.06
 31
0.0
 12
232.050504
 22
126.94
 32
0.0
 13
232.034824
 23
126.94
 33
0.0
  0
3DFACE
  8
0
  6
CONTINUOUS
 62
     7
 10
232.050504
 20
128.06
 30
0.0
 11
232.066184
 21
128.06
 31
0.0
 12
232.066184
 22
126.94
 32
0.0
 13
232.050504
 23
126.94
 33
0.0
  0
3DFACE
  8
0
  6
CONTINUOUS
 62
     7
 10
232.066184
 20
128.06
 30
0.0
 11
232.081864
 21
128.06
 31
0.0
 12
232.081864
 22
126.94
 32
0.0
 13
232.066184
 23
126.94
 33
0.0
  0
3DFACE
  8
0
  6
CONTINUOUS
 62
     7
 10
232.081864
 20
128.06
 30
0.0
 11
232.097544
 21
128.06
 31
0.0
 12
232.097544
 22
126.94
 32
0.0
 13
232.081864
 23
126.94
 33
0.0
  0
3DFACE
  8
0
  6
CONTINUOUS
 62
     7
 10
232.097544
 20
128.06
 30
0.0
 11
232.113224
 21
128.06
 31
0.0
 12
232.113224
 22
126.94
 32
0.0
 13
232.097544
 23
126.94
 33
0.0
  0
3DFACE
  8
0
  6
CONTINUOUS
 62
     7
 10
232.113224
 20
128.06
 30
0.0
 11
232.128904
 21
128.06
 31
0.0
 12
232.128904
 22
126.94
 32
0.0
 13
232.113224
 23
126.94
 33
0.0
  0
3DFACE
  8
0
  6
CONTINUOUS
 62
     7
 10
232.128904
 20
128.06
 30
0.0
 11
232.144584
 21
128.06
 31
0.0
 12
232.144584
 22
126.94
 32
0.0
 13
232.128904
 23
126.94
 33
0.0
  0
3DFACE
  8
0
  6
CONTINUOUS
 62
     7
 10
232.144584
 20
128.06
 30
0.0
 11
232.160264
 21
128.06
 31
0.0
 12
232.160264
 22
126.94
 32
0.0
 13
232.144584
 23
126.94
 33
0.0
  0
3DFACE
  8
0
  6
CONTINUOUS
 62
     7
 10
232.160264
 20
128.06
 30
0.0
 11
232.175944
 21
128.06
 31
0.0
 12
232.175944
 22
126.94
 32
0.0
 13
232.160264
 23
126.94
 33
0.0
  0
3DFACE
  8
0
  6
CONTINUOUS
 62
     7
 10
232.175944
 20
128.06
 30
0.0
 11
232.191624
 21
128.06
 31
0.0
 12
232.191624
 22
126.94
 32
0.0
 13
232.175944
 23
126.94
 33
0.0
  0
3DFACE
  8
0
  6
CONTINUOUS
 62
     7
 10
232.191624
 20
128.06
 30
0.0
 11
232.207304
 21
128.06
 31
0.0
 12
232.207304
 22
126.94
 32
0.0
 13
232.191624
 23
126.94
 33
0.0
  0
3DFACE
  8
0
  6
CONTINUOUS
 62
     7
 10
232.207304
 20
128.06
 30
0.0
 11
232.222984
 21
128.06
 31
0.0
 12
232.222984
 22
126.94
 32
0.0
 13
232.207304
 23
126.94
 33
0.0
  0
3DFACE
  8
0
  6
CONTINUOUS
 62
     7
 10
232.222984
 20
128.06
 30
0.0
 11
232.238664
 21
128.06
 31
0.0
 12
232.238664
 22
126.94
 32
0.0
 13
232.222984
 23
126.94
 33
0.0
  0
3DFACE
  8
0
  6
CONTINUOUS
 62
     7
 10
232.238664
 20
128.06
 30
0.0
 11
232.254344
 21
128.06
 31
0.0
 12
232.254344
 22
126.94
 32
0.0
 13
232.238664
 23
126.94
 33
0.0
  0
3DFACE
  8
0
  6
CONTINUOUS
 62
     7
 10
232.254344
 20
128.06
 30
0.0
 11
232.270024
 21
128.06
 31
0.0
 12
232.270024
 22
126.94
 32
0.0
 13
232.254344
 23
126.94
 33
0.0
  0
3DFACE
  8
0
  6
CONTINUOUS
 62
     7
 10
232.270024
 20
128.06
 30
0.0
 11
232.285704
 21
128.06
 31
0.0
 12
232.285704
 22
126.94
 32
0.0
 13
232.270024
 23
126.94
 33
0.0
  0
3DFACE
  8
0
  6
CONTINUOUS
 62
     7
 10
232.285704
 20
128.06
 30
0.0
 11
232.301384
 21
128.06
 31
0.0
 12
232.301384
 22
126.94
 32
0.0
 13
232.285704
 23
126.94
 33
0.0
  0
3DFACE
  8
0
  6
CONTINUOUS
 62
     7
 10
232.301384
 20
128.06
 30
0.0
 11
232.317064
 21
128.06
 31
0.0
 12
232.317064
 22
126.94
 32
0.0
 13
232.301384
 23
126.94
 33
0.0
  0
3DFACE
  8
0
  6
CONTINUOUS
 62
     7
 10
232.317064
 20
128.06
 30
0.0
 11
232.332744
 21
128.06
 31
0.0
 12
232.332744
 22
126.94
 32
0.0
 13
232.317064
 23
126.94
 33
0.0
  0
3DFACE
  8
0
  6
CONTINUOUS
 62
     7
 10
232.332744
 20
128.06
 30
0.0
 11
232.348424
 21
128.06
 31
0.0
 12
232.348424
 22
126.94
 32
0.0
 13
232.332744
 23
126.94
 33
0.0
  0
3DFACE
  8
0
  6
CONTINUOUS
 62
     7
 10
232.348424
 20
128.06
 30
0.0
 11
232.364104
 21
128.06
 31
0.0
 12
232.364104
 22
126.94
 32
0.0
 13
232.348424
 23
126.94
 33
0.0
  0
3DFACE
  8
0
  6
CONTINUOUS
 62
     7
 10
232.364104
 20
128.06
 30
0.0
 11
232.379784
 21
128.06
 31
0.0
 12
232.379784
 22
126.94
 32
0.0
 13
232.364104
 23
126.94
 33
0.0
  0
3DFACE
  8
0
  6
CONTINUOUS
 62
     7
 10
232.379784
 20
128.06
 30
0.0
 11
232.395464
 21
128.06
 31
0.0
 12
232.395464
 22
126.94
 32
0.0
 13
232.379784
 23
126.94
 33
0.0
  0
3DFACE
  8
0
  6
CONTINUOUS
 62
     7
 10
232.395464
 20
128.06
 30
0.0
 11
232.411144
 21
128.06
 31
0.0
 12
232.411144
 22
126.94
 32
0.0
 13
232.395464
 23
126.94
 33
0.0
  0
3DFACE
  8
0
  6
CONTINUOUS
 62
     7
 10
232.411144
 20
128.06
 30
0.0
 11
232.426824
 21
128.06
 31
0.0
 12
232.426824
 22
126.94
 32
0.0
 13
232.411144
 23
126.94
 33
0.0
  0
3DFACE
  8
0
  6
CONTINUOUS
 62
     7
 10
232.426824
 20
128.06
 30
0.0
 11
232.442504
 21
128.06
 31
0.0
 12
232.442504
 22
126.94
 32
0.0
 13
232.426824
 23
126.94
 33
0.0
  0
3DFACE
  8
0
  6
CONTINUOUS
 62
     7
 10
232.442504
 20
128.06
 30
0.0
 11
232.458184
 21
128.06
 31
0.0
 12
232.458184
 22
126.94
 32
0.0
 13
232.442504
 23
126.94
 33
0.0
  0
3DFACE
  8
0
  6
CONTINUOUS
 62
     7
 10
232.458184
 20
128.06
 30
0.0
 11
232.473864
 21
128.06
 31
0.0
 12
232.473864
 22
126.94
 32
0.0
 13
232.458184
 23
126.94
 33
0.0
  0
3DFACE
  8
0
  6
CONTINUOUS
 62
     7
 10
232.473864
 20
128.06
 30
0.0
 11
232.489544
 21
128.06
 31
0.0
 12
232.489544
 22
126.94
 32
0.0
 13
232.473864
 23
126.94
 33
0.0
  0
3DFACE
  8
0
  6
CONTINUOUS
 62
     7
 10
232.489544
 20
128.06
 30
0.0
 11
232.505224
 21
128.06
 31
0.0
 12
232.505224
 22
126.94
 32
0.0
 13
232.489544
 23
126.94
 33
0.0
  0
3DFACE
  8
0
  6
CONTINUOUS
 62
     7
 10
232.505224
 20
128.06
 30
0.0
 11
232.520904
 21
128.06
 31
0.0
 12
232.520904
 22
126.94
 32
0.0
 13
232.505224
 23
126.94
 33
0.0
  0
3DFACE
  8
0
  6
CONTINUOUS
 62
     7
 10
232.520904
 20
128.06
 30
0.0
 11
232.536584
 21
128.06
 31
0.0
 12
232.536584
 22
126.94
 32
0.0
 13
232.520904
 23
126.94
 33
0.0
  0
3DFACE
  8
0
  6
CONTINUOUS
 62
     7
 10
232.536584
 20
128.06
 30
0.0
 11
232.552264
 21
128.06
 31
0.0
 12
232.552264
 22
126.94
 32
0.0
 13
232.536584
 23
126.94
 33
0.0
  0
3DFACE
  8
0
  6
CONTINUOUS
 62
     7
 10
232.552264
 20
128.06
 30
0.0
 11
232.567944
 21
128.06
 31
0.0
 12
232.567944
 22
126.94
 32
0.0
 13
232.552264
 23
126.94
 33
0.0
  0
3DFACE
  8
0
  6
CONTINUOUS
 62
     7
 10
232.567944
 20
128.06
 30
0.0
 11
232.583624
 21
128.06
 31
0.0
 12
232.583624
 22
126.94
 32
0.0
 13
232.567944
 23
126.94
 33
0.0
  0
3DFACE
  8
0
  6
CONTINUOUS
 62
     7
 10
232.583624
 20
128.06
 30
0.0
 11
232.599304
 21
128.06
 31
0.0
 12
232.599304
 22
126.94
 32
0.0
 13
232.583624
 23
126.94
 33
0.0
  0
3DFACE
  8
0
  6
CONTINUOUS
 62
     7
 10
232.599304
 20
128.06
 30
0.0
 11
232.614984
 21
128.06
 31
0.0
 12
232.614984
 22
126.94
 32
0.0
 13
232.599304
 23
126.94
 33
0.0
  0
3DFACE
  8
0
  6
CONTINUOUS
 62
     7
 10
232.614984
 20
128.06
 30
0.0
 11
232.630664
 21
128.06
 31
0.0
 12
232.630664
 22
126.94
 32
0.0
 13
232.614984
 23
126.94
 33
0.0
  0
3DFACE
  8
0
  6
CONTINUOUS
 62
     7
 10
232.630664
 20
128.06
 30
0.0
 11
232.646344
 21
128.06
 31
0.0
 12
232.646344
 22
126.94
 32
0.0
 13
232.630664
 23
126.94
 33
0.0
  0
3DFACE
  8
0
  6
CONTINUOUS
 62
     7
 10
232.646344
 20
128.06
 30
0.0
 11
232.662024
 21
128.06
 31
0.0
 12
232.662024
 22
126.94
 32
0.0
 13
232.646344
 23
126.94
 33
0.0
  0
3DFACE
  8
0
  6
CONTINUOUS
 62
     7
 10
232.662024
 20
128.06
 30
0.0
 11
232.677704
 21
128.06
 31
0.0
 12
232.677704
 22
126.94
 32
0.0
 13
232.662024
 23
126.94
 33
0.0
  0
3DFACE
  8
0
  6
CONTINUOUS
 62
     7
 10
232.677704
 20
128.06
 30
0.0
 11
232.693384
 21
128.06
 31
0.0
 12
232.693384
 22
126.94
 32
0.0
 13
232.677704
 23
126.94
 33
0.0
  0
3DFACE
  8
0
  6
CONTINUOUS
 62
     7
 10
232.693384
 20
128.06
 30
0.0
 11
232.709064
 21
128.06
 31
0.0
 12
232.709064
 22
126.94
 32
0.0
 13
232.693384
 23
126.94
 33
0.0
  0
3DFACE
  8
0
  6
CONTINUOUS
 62
     7
 10
232.709064
 20
128.06
 30
0.0
 11
232.724744
 21
128.06
 31
0.0
 12
232.724744
 22
126.94
 32
0.0
 13
232.709064
 23
126.94
 33
0.0
  0
3DFACE
  8
0
  6
CONTINUOUS
 62
     7
 10
232.724744
 20
128.06
 30
0.0
 11
232.740424
 21
128.06
 31
0.0
 12
232.740424
 22
126.94
 32
0.0
 13
232.724744
 23
126.94
 33
0.0
  0
3DFACE
  8
0
  6
CONTINUOUS
 62
     7
 10
232.740424
 20
128.06
 30
0.0
 11
232.756104
 21
128.06
 31
0.0
 12
232.756104
 22
126.94
 32
0.0
 13
232.740424
 23
126.94
 33
0.0
  0
3DFACE
  8
0
  6
CONTINUOUS
 62
     7
 10
232.756104
 20
128.06
 30
0.0
 11
232.771784
 21
128.06
 31
0.0
 12
232.771784
 22
126.94
 32
0.0
 13
232.756104
 23
126.94
 33
0.0
  0
3DFACE
  8
0
  6
CONTINUOUS
 62
     7
 10
232.771784
 20
128.06
 30
0.0
 11
232.787464
 21
128.06
 31
0.0
 12
232.787464
 22
126.94
 32
0.0
 13
232.771784
 23
126.94
 33
0.0
  0
3DFACE
  8
0
  6
CONTINUOUS
 62
     7
 10
232.787464
 20
128.06
 30
0.0
 11
232.803144
 21
128.06
 31
0.0
 12
232.803144
 22
126.94
 32
0.0
 13
232.787464
 23
126.94
 33
0.0
  0
3DFACE
  8
0
  6
CONTINUOUS
 62
     7
 10
232.803144
 20
128.06
 30
0.0
 11
232.818824
 21
128.06
 31
0.0
 12
232.818824
 22
126.94
 32
0.0
 13
232.803144
 23
126.94
 33
0.0
  0
3DFACE
  8
0
  6
CONTINUOUS
 62
     7
 10
232.818824
 20
128.06
 30
0.0
 11
232.834504
 21
128.06
 31
0.0
 12
232.834504
 22
126.94
 32
0.0
 13
232.818824
 23
126.94
 33
0.0
  0
3DFACE
  8
0
  6
CONTINUOUS
 62
     7
 10
232.834504
 20
128.06
 30
0.0
 11
232.850184
 21
128.06
 31
0.0
 12
232.850184
 22
126.94
 32
0.0
 13
232.834504
 23
126.94
 33
0.0
  0
3DFACE
  8
0
  6
CONTINUOUS
 62
     7
 10
232.850184
 20
128.06
 30
0.0
 11
232.865864
 21
128.06
 31
0.0
 12
232.865864
 22
126.94
 32
0.0
 13
232.850184
 23
126.94
 33
0.0
  0
3DFACE
  8
0
  6
CONTINUOUS
 62
     7
 10
232.865864
 20
128.06
 30
0.0
 11
232.881544
 21
128.06
 31
0.0
 12
232.881544
 22
126.94
 32
0.0
 13
232.865864
 23
126.94
 33
0.0
  0
3DFACE
  8
0
  6
CONTINUOUS
 62
     7
 10
232.881544
 20
128.06
 30
0.0
 11
232.897224
 21
128.06
 31
0.0
 12
232.897224
 22
126.94
 32
0.0
 13
232.881544
 23
126.94
 33
0.0
  0
3DFACE
  8
0
  6
CONTINUOUS
 62
     7
 10
232.897224
 20
128.06
 30
0.0
 11
232.912904
 21
128.06
 31
0.0
 12
232.912904
 22
126.94
 32
0.0
 13
232.897224
 23
126.94
 33
0.0
  0
3DFACE
  8
0
  6
CONTINUOUS
 62
     7
 10
232.912904
 20
128.06
 30
0.0
 11
232.928584
 21
128.06
 31
0.0
 12
232.928584
 22
126.94
 32
0.0
 13
232.912904
 23
126.94
 33
0.0
  0
3DFACE
  8
0
  6
CONTINUOUS
 62
     7
 10
232.928584
 20
128.06
 30
0.0
 11
232.944264
 21
128.06
 31
0.0
 12
232.944264
 22
126.94
 32
0.0
 13
232.928584
 23
126.94
 33
0.0
  0
3DFACE
  8
0
  6
CONTINUOUS
 62
     7
 10
232.944264
 20
128.06
 30
0.0
 11
232.959944
 21
128.06
 31
0.0
 12
232.959944
 22
126.94
 32
0.0
 13
232.944264
 23
126.94
 33
0.0
  0
3DFACE
  8
0
  6
CONTINUOUS
 62
     7
 10
232.959944
 20
128.06
 30
0.0
 11
232.975624
 21
128.06
 31
0.0
 12
232.975624
 22
126.94
 32
0.0
 13
232.959944
 23
126.94
 33
0.0
  0
3DFACE
  8
0
  6
CONTINUOUS
 62
     7
 10
232.975624
 20
128.06
 30
0.0
 11
232.991304
 21
128.06
 31
0.0
 12
232.991304
 22
126.94
 32
0.0
 13
232.975624
 23
126.94
 33
0.0
  0
3DFACE
  8
0
  6
CONTINUOUS
 62
     7
 10
232.991304
 20
128.06
 30
0.0
 11
233.006984
 21
128.06
 31
0.0
 12
233.006984
 22
126.94
 32
0.0
 13
232.991304
 23
126.94
 33
0.0
  0
3DFACE
  8
0
  6
CONTINUOUS
 62
     7
 10
233.006984
 20
128.06
 30
0.0
 11
233.022664
 21
128.06
 31
0.0
 12
233.022664
 22
126.94
 32
0.0
 13
233.006984
 23
126.94
 33
0.0
  0
3DFACE
  8
0
  6
CONTINUOUS
 62
     7
 10
233.022664
 20
128.06
 30
0.0
 11
233.038344
 21
128.06
 31
0.0
 12
233.038344
 22
126.94
 32
0.0
 13
233.022664
 23
126.94
 33
0.0
  0
3DFACE
  8
0
  6
CONTINUOUS
 62
     7
 10
233.038344
 20
128.06
 30
0.0
 11
233.054024
 21
128.06
 31
0.0
 12
233.054024
 22
126.94
 32
0.0
 13
233.038344
 23
126.94
 33
0.0
  0
ARC
  8
0
  6
CONTINUOUS
 62
     7
 10
307.5
 20
90.0
 30
0.0
 40
0.5
 50
180.0
 51
0.0
  0
ARC
  8
0
  6
CONTINUOUS
 62
     7
 10
307.5
 20
90.0
 30
0.0
 40
0.5
 50
0.0
 51
180.0
  0
ARC
  8
0
  6
CONTINUOUS
 62
     7
 10
290.0
 20
70.189576
 30
0.0
 40
0.5
 50
180.0
 51
0.0
  0
ARC
  8
0
  6
CONTINUOUS
 62
     7
 10
290.0
 20
70.189576
 30
0.0
 40
0.5
 50
0.0
 51
180.0
  0
ARC
  8
0
  6
CONTINUOUS
 62
     7
 10
302.5
 20
70.189576
 30
0.0
 40
0.5
 50
180.0
 51
0.0
  0
ARC
  8
0
  6
CONTINUOUS
 62
     7
 10
302.5
 20
70.189576
 30
0.0
 40
0.5
 50
0.0
 51
180.0
  0
LINE
  8
0
  6
CONTINUOUS
 62
     7
 10
302.5
 20
65.990022
 30
0.0
 11
302.5
 21
63.344365
 31
0.0
  0
LINE
  8
0
  6
CONTINUOUS
 62
     7
 10
301.896305
 20
61.562812
 30
0.0
 11
303.103695
 21
61.562812
 31
0.0
  0
LINE
  8
0
  6
CONTINUOUS
 62
     7
 10
301.463807
 20
62.450325
 30
0.0
 11
303.527182
 21
62.450325
 31
0.0
  0
LINE
  8
0
  6
CONTINUOUS
 62
     7
 10
300.968237
 20
63.344365
 30
0.0
 11
304.031763
 21
63.344365
 31
0.0
  0
LINE
  8
0
  6
CONTINUOUS
 62
     7
 10
290.0
 20
65.990022
 30
0.0
 11
290.0
 21
63.344365
 31
0.0
  0
LINE
  8
0
  6
CONTINUOUS
 62
     7
 10
289.396305
 20
61.562812
 30
0.0
 11
290.603695
 21
61.562812
 31
0.0
  0
LINE
  8
0
  6
CONTINUOUS
 62
     7
 10
288.963807
 20
62.450325
 30
0.0
 11
291.027182
 21
62.450325
 31
0.0
  0
LINE
  8
0
  6
CONTINUOUS
 62
     7
 10
288.468237
 20
63.344365
 30
0.0
 11
291.531763
 21
63.344365
 31
0.0
  0
ARC
  8
0
  6
CONTINUOUS
 62
     7
 10
290.0
 20
77.689576
 30
0.0
 40
0.5
 50
180.0
 51
0.0
  0
ARC
  8
0
  6
CONTINUOUS
 62
     7
 10
290.0
 20
77.689576
 30
0.0
 40
0.5
 50
0.0
 51
180.0
  0
ARC
  8
0
  6
CONTINUOUS
 62
     7
 10
302.5
 20
77.689576
 30
0.0
 40
0.5
 50
180.0
 51
0.0
  0
ARC
  8
0
  6
CONTINUOUS
 62
     7
 10
302.5
 20
77.689576
 30
0.0
 40
0.5
 50
0.0
 51
180.0
  0
ARC
  8
0
  6
CONTINUOUS
 62
     7
 10
290.0
 20
85.189576
 30
0.0
 40
0.5
 50
180.0
 51
0.0
  0
ARC
  8
0
  6
CONTINUOUS
 62
     7
 10
290.0
 20
85.189576
 30
0.0
 40
0.5
 50
0.0
 51
180.0
  0
ARC
  8
0
  6
CONTINUOUS
 62
     7
 10
317.5
 20
75.0
 30
0.0
 40
0.5
 50
180.0
 51
0.0
  0
ARC
  8
0
  6
CONTINUOUS
 62
     7
 10
317.5
 20
75.0
 30
0.0
 40
0.5
 50
0.0
 51
180.0
  0
ARC
  8
0
  6
CONTINUOUS
 62
     7
 10
312.5
 20
82.5
 30
0.0
 40
0.5
 50
180.0
 51
0.0
  0
ARC
  8
0
  6
CONTINUOUS
 62
     7
 10
312.5
 20
82.5
 30
0.0
 40
0.5
 50
0.0
 51
180.0
  0
INSERT
  8
0
  6
CENTER
 62
     7
  2
BLC26
 10
268.546562
 20
117.609534
 30
0.0
 41
1.006225
 42
1.006225
 43
1.006225
  0
INSERT
  8
0
  6
CENTER
 62
     7
  2
BLC26
 10
276.046562
 20
117.609534
 30
0.0
 41
1.006225
 42
1.006225
 43
1.006225
  0
INSERT
  8
0
  6
CENTER
 62
     7
  2
BLC26
 10
283.546562
 20
117.609534
 30
0.0
 41
1.006225
 42
1.006225
 43
1.006225
  0
LINE
  8
0
  6
CONTINUOUS
 62
     7
 10
291.509978
 20
110.0
 30
0.0
 11
294.155635
 21
110.0
 31
0.0
  0
LINE
  8
0
  6
CONTINUOUS
 62
     7
 10
295.937188
 20
109.396305
 30
0.0
 11
295.937188
 21
110.603695
 31
0.0
  0
LINE
  8
0
  6
CONTINUOUS
 62
     7
 10
295.049675
 20
108.963807
 30
0.0
 11
295.049675
 21
111.027182
 31
0.0
  0
LINE
  8
0
  6
CONTINUOUS
 62
     7
 10
294.155635
 20
108.468237
 30
0.0
 11
294.155635
 21
111.531763
 31
0.0
  0
ARC
  8
0
  6
CONTINUOUS
 62
     7
 10
290.0
 20
110.0
 30
0.0
 40
0.5
 50
180.0
 51
0.0
  0
ARC
  8
0
  6
CONTINUOUS
 62
     7
 10
290.0
 20
110.0
 30
0.0
 40
0.5
 50
0.0
 51
180.0
  0
LINE
  8
0
  6
CONTINUOUS
 62
     7
 10
291.509978
 20
115.18998
 30
0.0
 11
294.155635
 21
115.18998
 31
0.0
  0
LINE
  8
0
  6
CONTINUOUS
 62
     7
 10
295.937188
 20
114.586285
 30
0.0
 11
295.937188
 21
115.793675
 31
0.0
  0
LINE
  8
0
  6
CONTINUOUS
 62
     7
 10
295.049675
 20
114.153787
 30
0.0
 11
295.049675
 21
116.217163
 31
0.0
  0
LINE
  8
0
  6
CONTINUOUS
 62
     7
 10
294.155635
 20
113.658217
 30
0.0
 11
294.155635
 21
116.721743
 31
0.0
  0
INSERT
  8
0
  6
CENTER
 62
     7
  2
BLC26
 10
376.046562
 20
90.109534
 30
0.0
 41
1.006225
 42
1.006225
 43
1.006225
  0
INSERT
  8
0
  6
CENTER
 62
     7
  2
BLC26
 10
368.546562
 20
90.109534
 30
0.0
 41
1.006225
 42
1.006225
 43
1.006225
  0
INSERT
  8
0
  6
CENTER
 62
     7
  2
BLC26
 10
361.046562
 20
90.109534
 30
0.0
 41
1.006225
 42
1.006225
 43
1.006225
  0
ARC
  8
0
  6
CONTINUOUS
 62
     7
 10
347.5
 20
110.0
 30
0.0
 40
0.5
 50
180.0
 51
0.0
  0
ARC
  8
0
  6
CONTINUOUS
 62
     7
 10
347.5
 20
110.0
 30
0.0
 40
0.5
 50
0.0
 51
180.0
  0
ARC
  8
0
  6
CONTINUOUS
 62
     7
 10
342.5
 20
115.0
 30
0.0
 40
0.5
 50
180.0
 51
0.0
  0
ARC
  8
0
  6
CONTINUOUS
 62
     7
 10
342.5
 20
115.0
 30
0.0
 40
0.5
 50
0.0
 51
180.0
  0
ARC
  8
0
  6
CONTINUOUS
 62
     7
 10
352.5
 20
105.0
 30
0.0
 40
0.5
 50
180.0
 51
0.0
  0
ARC
  8
0
  6
CONTINUOUS
 62
     7
 10
352.5
 20
105.0
 30
0.0
 40
0.5
 50
0.0
 51
180.0
  0
ARC
  8
0
  6
CONTINUOUS
 62
     7
 10
370.0
 20
110.0
 30
0.0
 40
0.5
 50
180.0
 51
0.0
  0
ARC
  8
0
  6
CONTINUOUS
 62
     7
 10
370.0
 20
110.0
 30
0.0
 40
0.5
 50
0.0
 51
180.0
  0
ARC
  8
0
  6
CONTINUOUS
 62
     7
 10
377.5
 20
105.0
 30
0.0
 40
0.5
 50
180.0
 51
0.0
  0
ARC
  8
0
  6
CONTINUOUS
 62
     7
 10
377.5
 20
105.0
 30
0.0
 40
0.5
 50
0.0
 51
180.0
  0
ARC
  8
0
  6
CONTINUOUS
 62
     7
 10
362.5
 20
115.0
 30
0.0
 40
0.5
 50
180.0
 51
0.0
  0
ARC
  8
0
  6
CONTINUOUS
 62
     7
 10
362.5
 20
115.0
 30
0.0
 40
0.5
 50
0.0
 51
180.0
  0
LINE
  8
0
  6
CONTINUOUS
 62
     7
 10
384.009978
 20
87.68998
 30
0.0
 11
386.655635
 21
87.68998
 31
0.0
  0
LINE
  8
0
  6
CONTINUOUS
 62
     7
 10
388.437188
 20
87.086285
 30
0.0
 11
388.437188
 21
88.293675
 31
0.0
  0
LINE
  8
0
  6
CONTINUOUS
 62
     7
 10
387.549675
 20
86.653787
 30
0.0
 11
387.549675
 21
88.717163
 31
0.0
  0
LINE
  8
0
  6
CONTINUOUS
 62
     7
 10
386.655635
 20
86.158217
 30
0.0
 11
386.655635
 21
89.221743
 31
0.0
  0
LINE
  8
0
  6
CONTINUOUS
 62
     7
 10
384.009978
 20
82.5
 30
0.0
 11
386.655635
 21
82.5
 31
0.0
  0
LINE
  8
0
  6
CONTINUOUS
 62
     7
 10
388.437188
 20
81.896305
 30
0.0
 11
388.437188
 21
83.103695
 31
0.0
  0
LINE
  8
0
  6
CONTINUOUS
 62
     7
 10
387.549675
 20
81.463807
 30
0.0
 11
387.549675
 21
83.527182
 31
0.0
  0
LINE
  8
0
  6
CONTINUOUS
 62
     7
 10
386.655635
 20
80.968237
 30
0.0
 11
386.655635
 21
84.031763
 31
0.0
  0
ARC
  8
0
  6
CONTINUOUS
 62
     7
 10
382.5
 20
82.5
 30
0.0
 40
0.5
 50
180.0
 51
0.0
  0
ARC
  8
0
  6
CONTINUOUS
 62
     7
 10
382.5
 20
82.5
 30
0.0
 40
0.5
 50
0.0
 51
180.0
  0
LINE
  8
0
  6
CONTINUOUS
 62
     7
 10
206.796752
 20
158.664644
 30
0.0
 11
204.450987
 21
159.999998
 31
0.0
  0
LINE
  8
0
  6
CONTINUOUS
 62
     7
 10
204.450987
 20
159.999998
 30
0.0
 11
206.796752
 21
161.189917
 31
0.0
  0
LINE
  8
0
  6
CONTINUOUS
 62
     7
 10
206.796752
 20
181.164644
 30
0.0
 11
204.450987
 21
182.499998
 31
0.0
  0
LINE
  8
0
  6
CONTINUOUS
 62
     7
 10
204.450987
 20
182.499998
 30
0.0
 11
206.796752
 21
183.689917
 31
0.0
  0
ARC
  8
0
  6
CONTINUOUS
 62
     7
 10
200.0
 20
182.5
 30
0.0
 40
0.5
 50
180.0
 51
0.0
  0
ARC
  8
0
  6
CONTINUOUS
 62
     7
 10
200.0
 20
182.5
 30
0.0
 40
0.5
 50
0.0
 51
180.0
  0
LINE
  8
0
  6
CONTINUOUS
 62
     7
 10
206.796752
 20
203.664644
 30
0.0
 11
204.450987
 21
204.999998
 31
0.0
  0
LINE
  8
0
  6
CONTINUOUS
 62
     7
 10
204.450987
 20
204.999998
 30
0.0
 11
206.796752
 21
206.189917
 31
0.0
  0
ARC
  8
0
  6
CONTINUOUS
 62
     7
 10
270.0
 20
142.5
 30
0.0
 40
0.5
 50
180.0
 51
0.0
  0
ARC
  8
0
  6
CONTINUOUS
 62
     7
 10
270.0
 20
142.5
 30
0.0
 40
0.5
 50
0.0
 51
180.0
  0
ARC
  8
0
  6
CONTINUOUS
 62
     7
 10
277.5
 20
137.5
 30
0.0
 40
0.5
 50
180.0
 51
0.0
  0
ARC
  8
0
  6
CONTINUOUS
 62
     7
 10
277.5
 20
137.5
 30
0.0
 40
0.5
 50
0.0
 51
180.0
  0
ARC
  8
0
  6
CONTINUOUS
 62
     7
 10
285.0
 20
132.5
 30
0.0
 40
0.5
 50
180.0
 51
0.0
  0
ARC
  8
0
  6
CONTINUOUS
 62
     7
 10
285.0
 20
132.5
 30
0.0
 40
0.5
 50
0.0
 51
180.0
  0
ARC
  8
0
  6
CONTINUOUS
 62
     7
 10
317.5
 20
132.5
 30
0.0
 40
0.5
 50
180.0
 51
0.0
  0
ARC
  8
0
  6
CONTINUOUS
 62
     7
 10
317.5
 20
132.5
 30
0.0
 40
0.5
 50
0.0
 51
180.0
  0
ARC
  8
0
  6
CONTINUOUS
 62
     7
 10
312.5
 20
137.5
 30
0.0
 40
0.5
 50
180.0
 51
0.0
  0
ARC
  8
0
  6
CONTINUOUS
 62
     7
 10
312.5
 20
137.5
 30
0.0
 40
0.5
 50
0.0
 51
180.0
  0
ARC
  8
0
  6
CONTINUOUS
 62
     7
 10
307.5
 20
142.5
 30
0.0
 40
0.5
 50
180.0
 51
0.0
  0
ARC
  8
0
  6
CONTINUOUS
 62
     7
 10
307.5
 20
142.5
 30
0.0
 40
0.5
 50
0.0
 51
180.0
  0
ARC
  8
0
  6
CONTINUOUS
 62
     7
 10
287.5
 20
197.5
 30
0.0
 40
0.5
 50
180.0
 51
0.0
  0
ARC
  8
0
  6
CONTINUOUS
 62
     7
 10
287.5
 20
197.5
 30
0.0
 40
0.5
 50
0.0
 51
180.0
  0
ARC
  8
0
  6
CONTINUOUS
 62
     7
 10
277.5
 20
192.689576
 30
0.0
 40
0.5
 50
180.0
 51
0.0
  0
ARC
  8
0
  6
CONTINUOUS
 62
     7
 10
277.5
 20
192.689576
 30
0.0
 40
0.5
 50
0.0
 51
180.0
  0
ARC
  8
0
  6
CONTINUOUS
 62
     7
 10
265.0
 20
192.689576
 30
0.0
 40
0.5
 50
180.0
 51
0.0
  0
ARC
  8
0
  6
CONTINUOUS
 62
     7
 10
265.0
 20
192.689576
 30
0.0
 40
0.5
 50
0.0
 51
180.0
  0
LINE
  8
0
  6
CONTINUOUS
 62
     7
 10
265.0
 20
180.990022
 30
0.0
 11
265.0
 21
178.344365
 31
0.0
  0
LINE
  8
0
  6
CONTINUOUS
 62
     7
 10
264.396305
 20
176.562812
 30
0.0
 11
265.603695
 21
176.562812
 31
0.0
  0
LINE
  8
0
  6
CONTINUOUS
 62
     7
 10
263.963807
 20
177.450325
 30
0.0
 11
266.027182
 21
177.450325
 31
0.0
  0
LINE
  8
0
  6
CONTINUOUS
 62
     7
 10
263.468237
 20
178.344365
 30
0.0
 11
266.531763
 21
178.344365
 31
0.0
  0
ARC
  8
0
  6
CONTINUOUS
 62
     7
 10
265.0
 20
185.189576
 30
0.0
 40
0.5
 50
180.0
 51
0.0
  0
ARC
  8
0
  6
CONTINUOUS
 62
     7
 10
265.0
 20
185.189576
 30
0.0
 40
0.5
 50
0.0
 51
180.0
  0
LINE
  8
0
  6
CONTINUOUS
 62
     7
 10
277.5
 20
180.990022
 30
0.0
 11
277.5
 21
178.344365
 31
0.0
  0
LINE
  8
0
  6
CONTINUOUS
 62
     7
 10
276.896305
 20
176.562812
 30
0.0
 11
278.103695
 21
176.562812
 31
0.0
  0
LINE
  8
0
  6
CONTINUOUS
 62
     7
 10
276.463807
 20
177.450325
 30
0.0
 11
278.527182
 21
177.450325
 31
0.0
  0
LINE
  8
0
  6
CONTINUOUS
 62
     7
 10
275.968237
 20
178.344365
 30
0.0
 11
279.031763
 21
178.344365
 31
0.0
  0
ARC
  8
0
  6
CONTINUOUS
 62
     7
 10
277.5
 20
185.189576
 30
0.0
 40
0.5
 50
180.0
 51
0.0
  0
ARC
  8
0
  6
CONTINUOUS
 62
     7
 10
277.5
 20
185.189576
 30
0.0
 40
0.5
 50
0.0
 51
180.0
  0
ARC
  8
0
  6
CONTINUOUS
 62
     7
 10
282.5
 20
205.0
 30
0.0
 40
0.5
 50
180.0
 51
0.0
  0
ARC
  8
0
  6
CONTINUOUS
 62
     7
 10
282.5
 20
205.0
 30
0.0
 40
0.5
 50
0.0
 51
180.0
  0
ARC
  8
0
  6
CONTINUOUS
 62
     7
 10
292.5
 20
190.0
 30
0.0
 40
0.5
 50
180.0
 51
0.0
  0
ARC
  8
0
  6
CONTINUOUS
 62
     7
 10
292.5
 20
190.0
 30
0.0
 40
0.5
 50
0.0
 51
180.0
  0
INSERT
  8
0
  6
CENTER
 62
     7
  2
BLC26
 10
258.546562
 20
232.609534
 30
0.0
 41
1.006225
 42
1.006225
 43
1.006225
  0
INSERT
  8
0
  6
CENTER
 62
     7
  2
BLC26
 10
251.046562
 20
232.609534
 30
0.0
 41
1.006225
 42
1.006225
 43
1.006225
  0
INSERT
  8
0
  6
CENTER
 62
     7
  2
BLC26
 10
243.546562
 20
232.609534
 30
0.0
 41
1.006225
 42
1.006225
 43
1.006225
  0
ARC
  8
0
  6
CONTINUOUS
 62
     7
 10
252.5
 20
252.5
 30
0.0
 40
0.5
 50
180.0
 51
0.0
  0
ARC
  8
0
  6
CONTINUOUS
 62
     7
 10
252.5
 20
252.5
 30
0.0
 40
0.5
 50
0.0
 51
180.0
  0
ARC
  8
0
  6
CONTINUOUS
 62
     7
 10
245.0
 20
257.5
 30
0.0
 40
0.5
 50
180.0
 51
0.0
  0
ARC
  8
0
  6
CONTINUOUS
 62
     7
 10
245.0
 20
257.5
 30
0.0
 40
0.5
 50
0.0
 51
180.0
  0
ARC
  8
0
  6
CONTINUOUS
 62
     7
 10
287.5
 20
252.5
 30
0.0
 40
0.5
 50
180.0
 51
0.0
  0
ARC
  8
0
  6
CONTINUOUS
 62
     7
 10
287.5
 20
252.5
 30
0.0
 40
0.5
 50
0.0
 51
180.0
  0
LINE
  8
0
  6
CONTINUOUS
 62
     7
 10
266.509978
 20
225.0
 30
0.0
 11
269.155635
 21
225.0
 31
0.0
  0
LINE
  8
0
  6
CONTINUOUS
 62
     7
 10
270.937188
 20
224.396305
 30
0.0
 11
270.937188
 21
225.603695
 31
0.0
  0
LINE
  8
0
  6
CONTINUOUS
 62
     7
 10
270.049675
 20
223.963807
 30
0.0
 11
270.049675
 21
226.027182
 31
0.0
  0
LINE
  8
0
  6
CONTINUOUS
 62
     7
 10
269.155635
 20
223.468237
 30
0.0
 11
269.155635
 21
226.531763
 31
0.0
  0
LINE
  8
0
  6
CONTINUOUS
 62
     7
 10
266.509978
 20
230.18998
 30
0.0
 11
269.155635
 21
230.18998
 31
0.0
  0
LINE
  8
0
  6
CONTINUOUS
 62
     7
 10
270.937188
 20
229.586285
 30
0.0
 11
270.937188
 21
230.793675
 31
0.0
  0
LINE
  8
0
  6
CONTINUOUS
 62
     7
 10
270.049675
 20
229.153787
 30
0.0
 11
270.049675
 21
231.217163
 31
0.0
  0
LINE
  8
0
  6
CONTINUOUS
 62
     7
 10
269.155635
 20
228.658217
 30
0.0
 11
269.155635
 21
231.721743
 31
0.0
  0
ARC
  8
0
  6
CONTINUOUS
 62
     7
 10
260.0
 20
247.5
 30
0.0
 40
0.5
 50
180.0
 51
0.0
  0
ARC
  8
0
  6
CONTINUOUS
 62
     7
 10
260.0
 20
247.5
 30
0.0
 40
0.5
 50
0.0
 51
180.0
  0
ARC
  8
0
  6
CONTINUOUS
 62
     7
 10
317.5
 20
230.0
 30
0.0
 40
0.5
 50
180.0
 51
0.0
  0
ARC
  8
0
  6
CONTINUOUS
 62
     7
 10
317.5
 20
230.0
 30
0.0
 40
0.5
 50
0.0
 51
180.0
  0
ARC
  8
0
  6
CONTINUOUS
 62
     7
 10
292.5
 20
247.5
 30
0.0
 40
0.5
 50
180.0
 51
0.0
  0
ARC
  8
0
  6
CONTINUOUS
 62
     7
 10
292.5
 20
247.5
 30
0.0
 40
0.5
 50
0.0
 51
180.0
  0
ARC
  8
0
  6
CONTINUOUS
 62
     7
 10
282.5
 20
257.5
 30
0.0
 40
0.5
 50
180.0
 51
0.0
  0
ARC
  8
0
  6
CONTINUOUS
 62
     7
 10
282.5
 20
257.5
 30
0.0
 40
0.5
 50
0.0
 51
180.0
  0
INSERT
  8
0
  6
CENTER
 62
     7
  2
BLC26
 10
336.046562
 20
205.109534
 30
0.0
 41
1.006225
 42
1.006225
 43
1.006225
  0
INSERT
  8
0
  6
CENTER
 62
     7
  2
BLC26
 10
343.546562
 20
205.109534
 30
0.0
 41
1.006225
 42
1.006225
 43
1.006225
  0
INSERT
  8
0
  6
CENTER
 62
     7
  2
BLC26
 10
351.046562
 20
205.109534
 30
0.0
 41
1.006225
 42
1.006225
 43
1.006225
  0
LINE
  8
0
  6
CONTINUOUS
 62
     7
 10
359.009978
 20
202.68998
 30
0.0
 11
361.655635
 21
202.68998
 31
0.0
  0
LINE
  8
0
  6
CONTINUOUS
 62
     7
 10
363.437188
 20
202.086285
 30
0.0
 11
363.437188
 21
203.293675
 31
0.0
  0
LINE
  8
0
  6
CONTINUOUS
 62
     7
 10
362.549675
 20
201.653787
 30
0.0
 11
362.549675
 21
203.717163
 31
0.0
  0
LINE
  8
0
  6
CONTINUOUS
 62
     7
 10
361.655635
 20
201.158217
 30
0.0
 11
361.655635
 21
204.221743
 31
0.0
  0
LINE
  8
0
  6
CONTINUOUS
 62
     7
 10
359.009978
 20
197.5
 30
0.0
 11
361.655635
 21
197.5
 31
0.0
  0
LINE
  8
0
  6
CONTINUOUS
 62
     7
 10
363.437188
 20
196.896305
 30
0.0
 11
363.437188
 21
198.103695
 31
0.0
  0
LINE
  8
0
  6
CONTINUOUS
 62
     7
 10
362.549675
 20
196.463807
 30
0.0
 11
362.549675
 21
198.527182
 31
0.0
  0
LINE
  8
0
  6
CONTINUOUS
 62
     7
 10
361.655635
 20
195.968237
 30
0.0
 11
361.655635
 21
199.031763
 31
0.0
  0
ARC
  8
0
  6
CONTINUOUS
 62
     7
 10
327.5
 20
220.0
 30
0.0
 40
0.5
 50
180.0
 51
0.0
  0
ARC
  8
0
  6
CONTINUOUS
 62
     7
 10
327.5
 20
220.0
 30
0.0
 40
0.5
 50
0.0
 51
180.0
  0
ARC
  8
0
  6
CONTINUOUS
 62
     7
 10
322.5
 20
225.0
 30
0.0
 40
0.5
 50
180.0
 51
0.0
  0
ARC
  8
0
  6
CONTINUOUS
 62
     7
 10
322.5
 20
225.0
 30
0.0
 40
0.5
 50
0.0
 51
180.0
  0
ARC
  8
0
  6
CONTINUOUS
 62
     7
 10
337.5
 20
230.0
 30
0.0
 40
0.5
 50
180.0
 51
0.0
  0
ARC
  8
0
  6
CONTINUOUS
 62
     7
 10
337.5
 20
230.0
 30
0.0
 40
0.5
 50
0.0
 51
180.0
  0
ARC
  8
0
  6
CONTINUOUS
 62
     7
 10
345.0
 20
225.0
 30
0.0
 40
0.5
 50
180.0
 51
0.0
  0
ARC
  8
0
  6
CONTINUOUS
 62
     7
 10
345.0
 20
225.0
 30
0.0
 40
0.5
 50
0.0
 51
180.0
  0
ARC
  8
0
  6
CONTINUOUS
 62
     7
 10
352.5
 20
220.0
 30
0.0
 40
0.5
 50
180.0
 51
0.0
  0
ARC
  8
0
  6
CONTINUOUS
 62
     7
 10
352.5
 20
220.0
 30
0.0
 40
0.5
 50
0.0
 51
180.0
  0
ENDSEC
  0
EOF
