  0
SECTION
  2
HEADER
  9
$ACADVER
  1
AC1009
  9
$INSBASE
 10
0.0
 20
0.0
 30
0.0
  9
$EXTMIN
 10
0.579461
 20
0.579152
 30
0.0
  9
$EXTMAX
 10
392.579461
 20
263.079152
 30
0.0
  9
$LIMMIN
 10
0.0
 20
0.0
  9
$LIMMAX
 10
12.0
 20
9.0
  9
$ORTHOMODE
 70
     1
  9
$REGENMODE
 70
     1
  9
$FILLMODE
 70
     1
  9
$QTEXTMODE
 70
     0
  9
$MIRRTEXT
 70
     1
  9
$DRAGMODE
 70
     2
  9
$LTSCALE
 40
5.0
  9
$OSMODE
 70
     0
  9
$ATTMODE
 70
     1
  9
$TEXTSIZE
 40
2.0
  9
$TRACEWID
 40
0.05
  9
$TEXTSTYLE
  7
STANDARD
  9
$CLAYER
  8
0
  9
$CELTYPE
  6
CONTINUOUS
  9
$CECOLOR
 62
   256
  9
$DIMSCALE
 40
1.0
  9
$DIMASZ
 40
0.18
  9
$DIMEXO
 40
0.0625
  9
$DIMDLI
 40
0.38
  9
$DIMRND
 40
0.0
  9
$DIMDLE
 40
0.0
  9
$DIMEXE
 40
0.18
  9
$DIMTP
 40
0.0
  9
$DIMTM
 40
0.0
  9
$DIMTXT
 40
0.18
  9
$DIMCEN
 40
0.09
  9
$DIMTSZ
 40
0.0
  9
$DIMTOL
 70
     0
  9
$DIMLIM
 70
     0
  9
$DIMTIH
 70
     1
  9
$DIMTOH
 70
     1
  9
$DIMSE1
 70
     0
  9
$DIMSE2
 70
     0
  9
$DIMTAD
 70
     0
  9
$DIMZIN
 70
     0
  9
$DIMBLK
  1

  9
$DIMASO
 70
     1
  9
$DIMSHO
 70
     1
  9
$DIMPOST
  1

  9
$DIMAPOST
  1

  9
$DIMALT
 70
     0
  9
$DIMALTD
 70
     2
  9
$DIMALTF
 40
25.4
  9
$DIMLFAC
 40
1.0
  9
$DIMTOFL
 70
     0
  9
$DIMTVP
 40
0.0
  9
$DIMTIX
 70
     0
  9
$DIMSOXD
 70
     0
  9
$DIMSAH
 70
     0
  9
$DIMBLK1
  1

  9
$DIMBLK2
  1

  9
$DIMSTYLE
  2
*UNNAMED
  9
$DIMCLRD
 70
     0
  9
$DIMCLRE
 70
     0
  9
$DIMCLRT
 70
     0
  9
$DIMTFAC
 40
1.0
  9
$DIMGAP
 40
0.09
  9
$LUNITS
 70
     2
  9
$LUPREC
 70
     4
  9
$SKETCHINC
 40
0.1
  9
$FILLETRAD
 40
0.0
  9
$AUNITS
 70
     0
  9
$AUPREC
 70
     0
  9
$MENU
  1
acad
  9
$ELEVATION
 40
0.0
  9
$PELEVATION
 40
0.0
  9
$THICKNESS
 40
0.0
  9
$LIMCHECK
 70
     0
  9
$BLIPMODE
 70
     1
  9
$CHAMFERA
 40
0.0
  9
$CHAMFERB
 40
0.0
  9
$SKPOLY
 70
     0
  9
$TDCREATE
 40
2448941.485800694
  9
$TDUPDATE
 40
2448941.485800694
  9
$TDINDWG
 40
0.0000000000
  9
$TDUSRTIMER
 40
0.0000000000
  9
$USRTIMER
 70
     1
  9
$ANGBASE
 50
0.0
  9
$ANGDIR
 70
     0
  9
$PDMODE
 70
     0
  9
$PDSIZE
 40
0.0
  9
$PLINEWID
 40
0.0
  9
$COORDS
 70
     2
  9
$SPLFRAME
 70
     0
  9
$SPLINETYPE
 70
     6
  9
$SPLINESEGS
 70
     8
  9
$ATTDIA
 70
     0
  9
$ATTREQ
 70
     1
  9
$HANDLING
 70
     0
  9
$HANDSEED
  5
0
  9
$SURFTAB1
 70
   250
  9
$SURFTAB2
 70
   250
  9
$SURFTYPE
 70
     6
  9
$SURFU
 70
     6
  9
$SURFV
 70
     6
  9
$UCSNAME
  2

  9
$UCSORG
 10
0.0
 20
0.0
 30
0.0
  9
$UCSXDIR
 10
1.0
 20
0.0
 30
0.0
  9
$UCSYDIR
 10
0.0
 20
1.0
 30
0.0
  9
$PUCSNAME
  2

  9
$PUCSORG
 10
0.0
 20
0.0
 30
0.0
  9
$PUCSXDIR
 10
1.0
 20
0.0
 30
0.0
  9
$PUCSYDIR
 10
0.0
 20
1.0
 30
0.0
  9
$USERI1
 70
     0
  9
$USERI2
 70
     0
  9
$USERI3
 70
     0
  9
$USERI4
 70
     0
  9
$USERI5
 70
     0
  9
$USERR1
 40
0.0
  9
$USERR2
 40
0.0
  9
$USERR3
 40
0.0
  9
$USERR4
 40
0.0
  9
$USERR5
 40
0.0
  9
$WORLDVIEW
 70
     1
  9
$SHADEDGE
 70
     3
  9
$SHADEDIF
 70
    70
  9
$TILEMODE
 70
     1
  9
$MAXACTVP
 70
    16
  9
$PINSBASE
 10
0.0
 20
0.0
 30
0.0
  9
$PLIMCHECK
 70
     0
  9
$PEXTMIN
 10
1.000000E+20
 20
1.000000E+20
 30
1.000000E+20
  9
$PEXTMAX
 10
-1.000000E+20
 20
-1.000000E+20
 30
-1.000000E+20
  9
$PLIMMIN
 10
0.0
 20
0.0
  9
$PLIMMAX
 10
12.0
 20
9.0
  9
$UNITMODE
 70
     0
  9
$VISRETAIN
 70
     0
  9
$PLINEGEN
 70
     0
  9
$PSLTSCALE
 70
     0
  9
$TREEDEPTH
 70
  3020
  9
$DWGCODEPAGE
  3
undefined
  0
ENDSEC
  0
SECTION
  2
TABLES
  0
TABLE
  2
VPORT
 70
     2
  0
VPORT
  2
*ACTIVE
 70
     0
 10
0.0
 20
0.0
 11
1.0
 21
1.0
 12
222.717071
 22
142.164464
 13
0.0
 23
0.0
 14
2.5
 24
2.5
 15
0.0
 25
0.0
 16
0.0
 26
0.0
 36
1.0
 17
0.0
 27
0.0
 37
0.0
 40
284.328929
 41
1.566616
 42
50.0
 43
0.0
 44
0.0
 50
0.0
 51
0.0
 71
     0
 72
   100
 73
     1
 74
     1
 75
     1
 76
     0
 77
     0
 78
     0
  0
ENDTAB
  0
TABLE
  2
LTYPE
 70
     4
  0
LTYPE
  2
CONTINUOUS
 70
    64
  3
Solid line
 72
    65
 73
     0
 40
0.0
  0
LTYPE
  2
DASHED
 70
    64
  3
__ __ __ __ __ __ __ __ __ __ __ __ __ __ __ __
 72
    65
 73
     2
 40
0.75
 49
0.5
 49
-0.25
  0
LTYPE
  2
CENTER
 70
    64
  3
____ _ ____ _ ____ _ ____ _ ____ _ ____ _ ____ 
 72
    65
 73
     4
 40
2.0
 49
1.25
 49
-0.25
 49
0.25
 49
-0.25
  0
LTYPE
  2
HIDDEN
 70
    64
  3
__ __ __ __ __ __ __ __ __ __ __ __ __ __ __ __
 72
    65
 73
     2
 40
0.375
 49
0.25
 49
-0.125
  0
ENDTAB
  0
TABLE
  2
LAYER
 70
    13
  0
LAYER
  2
0
 70
    64
 62
     7
  6
CONTINUOUS
  0
LAYER
  2
RAAMI
 70
    64
 62
    -4
  6
CONTINUOUS
  0
LAYER
  2
PAKSU
 70
    64
 62
    -3
  6
CONTINUOUS
  0
LAYER
  2
OHUT
 70
    64
 62
    -6
  6
CONTINUOUS
  0
LAYER
  2
SWEDEN
 70
    64
 62
    -7
  6
CONTINUOUS
  0
LAYER
  2
SWEDEN2
 70
    64
 62
    -5
  6
CONTINUOUS
  0
LAYER
  2
BASE
 70
    64
 62
    -7
  6
CONTINUOUS
  0
LAYER
  2
21
 70
    64
 62
    -2
  6
CONTINUOUS
  0
LAYER
  2
HEL035
 70
    64
 62
    -7
  6
CONTINUOUS
  0
LAYER
  2
MUO
 70
    64
 62
    -7
  6
CONTINUOUS
  0
LAYER
  2
1
 70
    64
 62
    -2
  6
CONTINUOUS
  0
LAYER
  2
BASE1
 70
    64
 62
    -1
  6
CONTINUOUS
  0
LAYER
  2
TEKS
 70
    64
 62
    -5
  6
CONTINUOUS
  0
ENDTAB
  0
TABLE
  2
STYLE
 70
     4
  0
STYLE
  2
STANDARD
 70
    64
 40
0.0
 41
1.0
 50
0.0
 71
     0
 42
2.0
  3
txt
  4

  0
STYLE
  2
ROMANS
 70
    64
 40
2.5
 41
1.0
 50
0.0
 71
     0
 42
2.5
  3
romans
  4

  0
STYLE
  2
GREEKS
 70
    64
 40
0.0
 41
1.0
 50
0.0
 71
     0
 42
3.0
  3
TXT
  4

  0
STYLE
  2
GREEKC
 70
    64
 40
0.0
 41
1.0
 50
0.0
 71
     0
 42
1.5
  3
GREEKC
  4

  0
ENDTAB
  0
TABLE
  2
VIEW
 70
     0
  0
ENDTAB
  0
TABLE
  2
UCS
 70
     0
  0
ENDTAB
  0
TABLE
  2
APPID
 70
     1
  0
APPID
  2
ACAD
 70
    64
  0
ENDTAB
  0
TABLE
  2
DIMSTYLE
 70
     0
  0
ENDTAB
  0
ENDSEC
  0
SECTION
  2
BLOCKS
  0
BLOCK
  8
0
  2
1
 70
    64
 10
0.0
 20
0.0
 30
0.0
  3
1
  0
ENDBLK
  8
0
  0
BLOCK
  8
0
  2
BLC16
 70
     0
 10
0.0
 20
0.0
 30
0.0
  3
BLC16
  0
LINE
  8
0
  6
CONTINUOUS
 10
0.007689
 20
38.054928
 30
0.0
 11
19.983683
 21
38.054928
 31
0.0
  0
LINE
  8
0
  6
CONTINUOUS
 10
19.983683
 20
38.054928
 30
0.0
 11
19.983683
 21
-0.003751
 31
0.0
  0
LINE
  8
0
  6
CONTINUOUS
 10
19.983683
 20
-0.003751
 30
0.0
 11
0.007689
 21
-0.003751
 31
0.0
  0
LINE
  8
0
  6
CONTINUOUS
 10
0.007689
 20
-0.003751
 30
0.0
 11
0.007689
 21
38.054928
 31
0.0
  0
LINE
  8
0
  6
CONTINUOUS
 10
14.152643
 20
36.919738
 30
0.0
 11
14.152643
 21
33.528469
 31
0.0
  0
LINE
  8
0
  6
CONTINUOUS
 10
14.152643
 20
33.528469
 30
0.0
 11
11.560435
 21
33.528469
 31
0.0
  0
LINE
  8
0
  6
CONTINUOUS
 10
11.560435
 20
33.528469
 30
0.0
 11
11.560435
 21
30.778433
 31
0.0
  0
LINE
  8
0
  6
CONTINUOUS
 10
11.560435
 20
30.778433
 30
0.0
 11
14.152643
 21
30.778433
 31
0.0
  0
LINE
  8
0
  6
CONTINUOUS
 10
14.152643
 20
30.778433
 30
0.0
 11
14.152643
 21
27.387164
 31
0.0
  0
TEXT
  8
0
  6
CONTINUOUS
 10
6.558569
 20
30.805266
 30
0.0
 40
2.5
  1
2
 11
6.558569
 21
29.971932
 31
0.0
 73
     1
  0
TEXT
  8
0
  6
CONTINUOUS
 10
6.553289
 20
23.854078
 30
0.0
 40
2.5
  1
2 I
 11
6.553289
 21
23.020744
 31
0.0
 73
     1
  0
LINE
  8
0
  6
CONTINUOUS
 10
12.942534
 20
26.359129
 30
0.0
 11
15.288299
 21
25.023775
 31
0.0
  0
LINE
  8
0
  6
CONTINUOUS
 10
15.288299
 20
25.023775
 30
0.0
 11
12.942534
 21
23.833856
 31
0.0
  0
LINE
  8
0
  6
CONTINUOUS
 10
14.169823
 20
26.359129
 30
0.0
 11
16.515589
 21
25.023775
 31
0.0
  0
LINE
  8
0
  6
CONTINUOUS
 10
16.515589
 20
25.023775
 30
0.0
 11
14.169823
 21
23.833856
 31
0.0
  0
TEXT
  8
0
  6
CONTINUOUS
 10
11.566446
 20
19.235679
 30
0.0
 40
2.5
  1
I
 11
11.566446
 21
18.402346
 31
0.0
 73
     1
  0
TEXT
  8
0
  6
CONTINUOUS
 10
13.018181
 20
18.902346
 30
0.0
 40
1.5
  1
2
 11
13.018181
 21
18.402346
 31
0.0
 73
     1
  0
LINE
  8
0
  6
CONTINUOUS
 10
10.65733
 20
12.773825
 30
0.0
 11
13.003095
 21
13.963744
 31
0.0
  0
LINE
  8
0
  6
CONTINUOUS
 10
13.003095
 20
11.438471
 30
0.0
 11
10.65733
 21
12.773825
 31
0.0
  0
LINE
  8
0
  6
CONTINUOUS
 10
6.557002
 20
16.714658
 30
0.0
 11
15.281743
 21
16.714658
 31
0.0
  0
LINE
  8
0
  6
CONTINUOUS
 10
6.557002
 20
17.523984
 30
0.0
 11
6.557002
 21
15.908791
 31
0.0
  0
LINE
  8
0
  6
CONTINUOUS
 10
15.286518
 20
17.523984
 30
0.0
 11
15.286518
 21
15.908791
 31
0.0
  0
ARC
  8
0
  6
CONTINUOUS
 10
12.684846
 20
18.508045
 30
0.0
 40
2.922744
 50
193.105513
 51
283.105513
  0
TEXT
  8
0
  6
CONTINUOUS
 10
6.557002
 20
11.567974
 30
0.0
 40
2.5
  1
2I
 11
6.557002
 21
10.734641
 31
0.0
 73
     1
  0
LINE
  8
0
  6
CONTINUOUS
 10
6.557002
 20
9.441103
 30
0.0
 11
15.281743
 21
9.441103
 31
0.0
  0
LINE
  8
0
  6
CONTINUOUS
 10
15.286518
 20
10.250429
 30
0.0
 11
15.286518
 21
8.635236
 31
0.0
  0
LINE
  8
0
  6
CONTINUOUS
 10
6.557002
 20
10.250429
 30
0.0
 11
6.557002
 21
8.635236
 31
0.0
  0
TEXT
  8
0
  6
CONTINUOUS
 10
6.557002
 20
4.778631
 30
0.0
 40
2.5
  1
I
 11
6.557002
 21
3.945298
 31
0.0
 73
     1
  0
LINE
  8
0
  6
CONTINUOUS
 10
9.509029
 20
6.822462
 30
0.0
 11
9.509029
 21
5.477736
 31
0.0
  0
LINE
  8
0
  6
CONTINUOUS
 10
8.615065
 20
5.477736
 30
0.0
 11
9.52622
 21
5.477736
 31
0.0
  0
LINE
  8
0
  6
CONTINUOUS
 10
9.509029
 20
5.477736
 30
0.0
 11
10.402992
 21
5.477736
 31
0.0
  0
LINE
  8
0
  6
CONTINUOUS
 10
8.901592
 20
5.082328
 30
0.0
 11
9.509029
 21
5.082328
 31
0.0
  0
LINE
  8
0
  6
CONTINUOUS
 10
9.509029
 20
5.082328
 30
0.0
 11
10.150849
 21
5.082328
 31
0.0
  0
LINE
  8
0
  6
CONTINUOUS
 10
9.981861
 20
4.719969
 30
0.0
 11
9.072041
 21
4.719969
 31
0.0
  0
LINE
  8
0
  6
CONTINUOUS
 10
15.286518
 20
2.797924
 30
0.0
 11
15.286518
 21
1.182731
 31
0.0
  0
LINE
  8
0
  6
CONTINUOUS
 10
6.557002
 20
1.988598
 30
0.0
 11
15.281743
 21
1.988598
 31
0.0
  0
LINE
  8
0
  6
CONTINUOUS
 10
6.557002
 20
2.797924
 30
0.0
 11
6.557002
 21
1.182731
 31
0.0
  0
ENDBLK
  8
0
  0
BLOCK
  8
0
  2
BLC27
 70
    64
 10
0.0
 20
0.0
 30
0.0
  3
BLC27
  0
INSERT
  8
SWEDEN2
  6
CENTER
  2
BLC26
 10
0.08063
 20
0.037985
 30
0.0
 41
1.006225
 42
1.006225
 43
1.006225
  0
ENDBLK
  8
0
  0
BLOCK
  8
0
  2
BLC26
 70
    64
 10
0.0
 20
0.0
 30
0.0
  3
BLC26
  0
ARC
  8
0
  6
CONTINUOUS
 10
-0.180576
 20
1.17922
 30
0.0
 40
1.196859
 50
90.0
 51
265.706237
  0
LINE
  8
0
  6
CONTINUOUS
 10
-0.186638
 20
-0.01092
 30
0.0
 11
0.458942
 21
-0.01092
 31
0.0
  0
LINE
  8
0
  6
CONTINUOUS
 10
-0.186638
 20
2.375671
 30
0.0
 11
0.45288
 21
2.375671
 31
0.0
  0
LINE
  8
0
  6
CONTINUOUS
 10
-0.185509
 20
-2.404629
 30
0.0
 11
0.460071
 21
-2.404629
 31
0.0
  0
ARC
  8
0
  6
CONTINUOUS
 10
-0.180576
 20
-1.207779
 30
0.0
 40
1.196859
 50
90.0
 51
270.0
  0
LINE
  8
0
  6
CONTINUOUS
 10
0.451525
 20
-2.404586
 30
0.0
 11
1.401805
 21
-2.404586
 31
0.0
  0
LINE
  8
0
  6
CONTINUOUS
 10
0.446785
 20
2.375674
 30
0.0
 11
1.418544
 21
2.375674
 31
0.0
  0
LINE
  8
0
  6
CONTINUOUS
 10
0.456627
 20
-0.010911
 30
0.0
 11
1.422749
 21
-0.010911
 31
0.0
  0
ENDBLK
  8
0
  0
BLOCK
  8
0
  2
BLC22
 70
     0
 10
0.0
 20
0.0
 30
0.0
  3
BLC22
  0
LINE
  8
HEL035
 10
0.0
 20
-0.00155
 30
0.0
 11
0.0
 21
9.99845
 31
0.0
  0
LINE
  8
21
 10
2.5
 20
10.0
 30
0.0
 11
5.0
 21
10.0
 31
0.0
  0
LINE
  8
HEL035
 10
0.0
 20
9.99845
 30
0.0
 11
2.5
 21
9.99845
 31
0.0
  0
LINE
  8
HEL035
 10
-2.5
 20
5.0
 30
0.0
 11
2.5
 21
5.0
 31
0.0
  0
LINE
  8
21
 10
2.5
 20
5.0
 30
0.0
 11
5.0
 21
5.0
 31
0.0
  0
LINE
  8
21
 10
5.0
 20
5.0
 30
0.0
 11
5.0
 21
7.9
 31
0.0
  0
LINE
  8
HEL035
 10
3.88095
 20
6.944425
 30
0.0
 11
4.560313
 21
6.008681
 31
0.0
  0
LINE
  8
21
 10
10.0
 20
10.0
 30
0.0
 11
4.2
 21
6.5
 31
0.0
  0
LINE
  8
HEL035
 10
2.5
 20
-0.00155
 30
0.0
 11
0.0
 21
-0.00155
 31
0.0
  0
LINE
  8
21
 10
2.5
 20
0.0
 30
0.0
 11
5.0
 21
0.0
 31
0.0
  0
ENDBLK
  8
0
  0
BLOCK
  8
0
  2
BLC18
 70
     0
 10
0.0
 20
0.0
 30
0.0
  3
BLC18
  0
LINE
  8
MUO
 10
-0.056268
 20
0.849555
 30
0.0
 11
8.307242
 21
9.215502
 31
0.0
  0
LINE
  8
MUO
 10
0.928025
 20
-0.107047
 30
0.0
 11
9.268386
 21
8.2307
 31
0.0
  0
LINE
  8
MUO
 10
-0.056268
 20
-0.107047
 30
0.0
 11
-0.056268
 21
9.215502
 31
0.0
  0
LINE
  8
MUO
 10
9.268386
 20
-0.107047
 30
0.0
 11
-0.056268
 21
-0.107047
 31
0.0
  0
LINE
  8
MUO
 10
9.268386
 20
9.215502
 30
0.0
 11
9.268386
 21
-0.107047
 31
0.0
  0
LINE
  8
MUO
 10
-0.056268
 20
9.215502
 30
0.0
 11
9.268386
 21
9.215502
 31
0.0
  0
ENDBLK
  8
0
  0
BLOCK
  8
0
  2
BLC29
 70
    64
 10
0.0
 20
0.0
 30
0.0
  3
BLC29
  0
LINE
  8
0
  6
CONTINUOUS
 10
0.004865
 20
1.206889
 30
0.0
 11
2.350631
 21
-0.128465
 31
0.0
  0
LINE
  8
0
  6
CONTINUOUS
 10
2.350631
 20
-0.128465
 30
0.0
 11
0.004865
 21
-1.318384
 31
0.0
  0
ENDBLK
  8
0
  0
BLOCK
  8
0
  2
WKU130
 70
    64
 10
190.0
 20
250.0
 30
0.0
  3
WKU130
  0
ARC
  8
21
 10
191.083333
 20
249.916667
 30
0.0
 40
1.086534
 50
32.471192
 51
175.601295
  0
ARC
  8
21
 10
192.916667
 20
251.083333
 30
0.0
 40
1.086534
 50
212.471192
 51
355.601295
  0
ENDBLK
  8
0
  0
BLOCK
  8
0
  2
BLC38
 70
    64
 10
0.0
 20
0.0
 30
0.0
  3
BLC38
  0
LINE
  8
BASE
  6
CONTINUOUS
 10
5.0
 20
0.429605
 30
0.0
 11
5.0
 21
-2.5
 31
0.0
  0
LINE
  8
BASE
  6
CONTINUOUS
 10
0.0
 20
0.429605
 30
0.0
 11
0.0
 21
-2.5
 31
0.0
  0
LINE
  8
BASE
  6
CONTINUOUS
 10
5.0
 20
15.0
 30
0.0
 11
5.0
 21
9.752154
 31
0.0
  0
LINE
  8
BASE
  6
CONTINUOUS
 10
0.0
 20
15.0
 30
0.0
 11
0.0
 21
9.752154
 31
0.0
  0
INSERT
  8
HEL035
  2
WKU130
 10
2.806261
 20
1.002888
 30
0.0
 41
0.8
 42
0.8
 43
0.8
  0
LINE
  8
HEL035
 10
2.466311
 20
2.72844
 30
0.0
 11
6.466311
 21
2.72844
 31
0.0
  0
LINE
  8
HEL035
 10
-1.290099
 20
7.674464
 30
0.0
 11
2.709901
 21
7.674464
 31
0.0
  0
LINE
  8
MUO
 10
-2.204897
 20
1.386207
 30
0.0
 11
6.158613
 21
9.752154
 31
0.0
  0
LINE
  8
MUO
 10
-1.220605
 20
0.429605
 30
0.0
 11
7.119756
 21
8.767352
 31
0.0
  0
LINE
  8
MUO
 10
-2.204897
 20
0.429605
 30
0.0
 11
-2.204897
 21
9.752154
 31
0.0
  0
LINE
  8
MUO
 10
7.119756
 20
0.429605
 30
0.0
 11
-2.204897
 21
0.429605
 31
0.0
  0
LINE
  8
MUO
 10
7.119756
 20
9.752154
 30
0.0
 11
7.119756
 21
0.429605
 31
0.0
  0
LINE
  8
MUO
 10
-2.204897
 20
9.752154
 30
0.0
 11
7.119756
 21
9.752154
 31
0.0
  0
TEXT
  8
SWEDEN2
  6
CONTINUOUS
 10
-0.633266
 20
15.55315
 30
0.0
 40
2.0
  1
+
  0
TEXT
  8
SWEDEN2
  6
CONTINUOUS
 10
4.297086
 20
15.577719
 30
0.0
 40
2.0
  1
-
  0
ENDBLK
  8
0
  0
BLOCK
  8
0
  2
BLC15
 70
     0
 10
0.0
 20
0.0
 30
0.0
  3
BLC15
  0
LINE
  8
0
  6
CONTINUOUS
 10
0.142084
 20
3.490022
 30
0.0
 11
0.142084
 21
0.844365
 31
0.0
  0
LINE
  8
0
  6
CONTINUOUS
 10
-0.461611
 20
-0.937188
 30
0.0
 11
0.745779
 21
-0.937188
 31
0.0
  0
LINE
  8
0
  6
CONTINUOUS
 10
-0.894108
 20
-0.049675
 30
0.0
 11
1.169267
 21
-0.049675
 31
0.0
  0
LINE
  8
0
  6
CONTINUOUS
 10
-1.389679
 20
0.844365
 30
0.0
 11
1.673848
 21
0.844365
 31
0.0
  0
ENDBLK
  8
0
  0
BLOCK
  8
0
  2
BLC55
 70
    64
 10
0.0
 20
0.0
 30
0.0
  3
BLC55
  0
INSERT
  8
SWEDEN
  6
CENTER
  2
BLC5
 10
0.087066
 20
-0.756831
 30
0.0
 41
0.6
 42
0.6
 43
0.6
  0
ENDBLK
  8
0
  0
BLOCK
  8
0
  2
BLC5
 70
    64
 10
0.0
 20
0.0
 30
0.0
  3
BLC5
  0
TEXT
  8
0
 10
-3.043704
 20
-6.645912
 30
0.0
 40
3.2
  1
PE
  0
LINE
  8
0
 10
-2.946392
 20
1.181176
 30
0.0
 11
2.135458
 21
1.181176
 31
0.0
  0
LINE
  8
0
 10
-0.48656
 20
2.238362
 30
0.0
 11
-0.48656
 21
6.930438
 31
0.0
  0
LINE
  8
0
 10
-1.973271
 20
0.065258
 30
0.0
 11
1.225411
 21
0.065258
 31
0.0
  0
LINE
  8
0
 10
2.685091
 20
2.238362
 30
0.0
 11
1.68494
 21
2.238362
 31
0.0
  0
LINE
  8
0
 10
-3.505035
 20
2.238362
 30
0.0
 11
2.649049
 21
2.238362
 31
0.0
  0
CIRCLE
  8
0
 10
-0.47755
 20
1.422632
 30
0.0
 40
3.804563
  0
ENDBLK
  8
0
  0
BLOCK
  8
0
  2
BLC43
 70
    64
 10
0.0
 20
0.0
 30
0.0
  3
BLC43
  0
TEXT
  8
SWEDEN2
  6
CONTINUOUS
 10
-0.646672
 20
-0.986365
 30
0.0
 40
2.0
  1
+
  0
ENDBLK
  8
0
  0
BLOCK
  8
0
  2
BLC42
 70
    64
 10
0.0
 20
0.0
 30
0.0
  3
BLC42
  0
TEXT
  8
SWEDEN2
  6
CONTINUOUS
 10
-0.655237
 20
-0.99442
 30
0.0
 40
2.0
  1
-
  0
ENDBLK
  8
0
  0
BLOCK
  8
0
  2
BLC56
 70
     0
 10
0.0
 20
0.0
 30
0.0
  3
BLC56
  0
LINE
  8
BASE
  6
CONTINUOUS
 10
10.0
 20
0.0
 30
0.0
 11
0.0
 21
0.0
 31
0.0
  0
LINE
  8
BASE
  6
CONTINUOUS
 10
0.0
 20
0.0
 30
0.0
 11
0.0
 21
5.0
 31
0.0
  0
LINE
  8
BASE
  6
CONTINUOUS
 10
0.0
 20
5.0
 30
0.0
 11
10.0
 21
5.0
 31
0.0
  0
LINE
  8
BASE
  6
CONTINUOUS
 10
10.0
 20
5.0
 30
0.0
 11
10.0
 21
0.0
 31
0.0
  0
CIRCLE
  8
0
  6
CONTINUOUS
 10
4.984447
 20
-0.797999
 30
0.0
 40
0.798019
  0
TEXT
  8
0
  6
CONTINUOUS
 10
6.68353
 20
1.362373
 30
0.0
 40
2.5
  1
1
 11
6.68353
 21
0.52904
 31
0.0
 73
     1
  0
LINE
  8
0
  6
CONTINUOUS
 10
2.241626
 20
0.69718
 30
0.0
 11
4.625086
 21
1.885372
 31
0.0
  0
LINE
  8
0
  6
CONTINUOUS
 10
2.249668
 20
4.022467
 30
0.0
 11
4.595433
 21
2.687113
 31
0.0
  0
LINE
  8
0
  6
CONTINUOUS
 10
4.595433
 20
2.687113
 30
0.0
 11
2.249668
 21
1.497194
 31
0.0
  0
ENDBLK
  8
0
  0
BLOCK
  8
0
  2
B14
 70
     0
 10
0.0
 20
0.0
 30
0.0
  3
B14
  0
LINE
  8
BASE1
  6
CONTINUOUS
 10
2.5
 20
5.0
 30
0.0
 11
0.0
 21
5.0
 31
0.0
  0
LINE
  8
BASE1
  6
CONTINUOUS
 10
2.5
 20
5.0
 30
0.0
 11
2.5
 21
6.686532
 31
0.0
  0
LINE
  8
BASE1
  6
CONTINUOUS
 10
7.5
 20
5.0
 30
0.0
 11
2.345956
 21
6.475923
 31
0.0
  0
LINE
  8
BASE1
  6
CONTINUOUS
 10
10.0
 20
5.0
 30
0.0
 11
7.5
 21
5.0
 31
0.0
  0
LINE
  8
BASE1
 10
12.798812
 20
6.589925
 30
0.0
 11
12.798812
 21
-1.6
 31
0.0
  0
LINE
  8
BASE1
  6
CONTINUOUS
 10
12.798812
 20
5.0
 30
0.0
 11
8.098812
 21
5.0
 31
0.0
  0
LINE
  8
BASE1
  6
CONTINUOUS
 10
12.798812
 20
0.0
 30
0.0
 11
8.098812
 21
0.0
 31
0.0
  0
LINE
  8
BASE1
  6
CONTINUOUS
 10
10.0
 20
0.0
 30
0.0
 11
0.0
 21
0.0
 31
0.0
  0
LINE
  8
BASE1
 10
18.496971
 20
6.59384
 30
0.0
 11
16.642636
 21
4.315018
 31
0.0
  0
LINE
  8
BASE1
 10
17.004853
 20
6.59384
 30
0.0
 11
15.09105
 21
4.315018
 31
0.0
  0
LINE
  8
BASE1
 10
20.221556
 20
6.589925
 30
0.0
 11
12.798812
 21
6.589925
 31
0.0
  0
LINE
  8
BASE1
 10
20.221556
 20
-1.6
 30
0.0
 11
20.221556
 21
6.589925
 31
0.0
  0
LINE
  8
BASE1
 10
12.798812
 20
-1.6
 30
0.0
 11
20.221556
 21
-1.6
 31
0.0
  0
LINE
  8
BASE1
  6
CONTINUOUS
 10
20.221556
 20
2.5
 30
0.0
 11
23.098812
 21
2.5
 31
0.0
  0
TEXT
  8
BASE1
  6
CONTINUOUS
 10
0.988929
 20
-2.458581
 30
0.0
 40
2.0
  1
108:11
  0
TEXT
  8
BASE1
  6
CONTINUOUS
 10
0.988929
 20
2.654891
 30
0.0
 40
2.0
  1
14A
  0
TEXT
  8
BASE1
  6
CONTINUOUS
 10
2.505198
 20
7.263196
 30
0.0
 40
2.0
  1
101
  0
ENDBLK
  8
0
  0
BLOCK
  8
0
  2
BLC44
 70
    64
 10
0.0
 20
0.0
 30
0.0
  3
BLC44
  0
LINE
  8
HEL035
 10
-2.520993
 20
1.697877
 30
0.0
 11
1.479007
 21
1.697877
 31
0.0
  0
INSERT
  8
HEL035
  2
WKU130
 10
-2.181043
 20
-0.027675
 30
0.0
 41
0.8
 42
0.8
 43
0.8
  0
ENDBLK
  8
0
  0
BLOCK
  8
0
  2
BLC25
 70
     0
 10
0.0
 20
0.0
 30
0.0
  3
BLC25
  0
TEXT
  8
0
  6
CONTINUOUS
 10
2.0
 20
30.666667
 30
0.0
 40
2.0
  1
1)
 11
2.0
 21
30.0
 31
0.0
 73
     1
  0
TEXT
  8
0
 10
6.0
 20
2.0
 30
0.0
 40
2.0
  1
7B    27     26
 11
6.0
 21
1.333333
 31
0.0
 73
     1
  0
TEXT
  8
0
 10
6.0
 20
5.333333
 30
0.0
 40
2.0
  1
5B     9      8
 11
6.0
 21
4.666667
 31
0.0
 73
     1
  0
TEXT
  8
0
 10
6.0
 20
8.666667
 30
0.0
 40
2.0
  1
3B     3      2
 11
6.0
 21
8.0
 31
0.0
 73
     1
  0
TEXT
  8
0
 10
32.0
 20
12.666667
 30
0.0
 40
2.0
  1
In=5A
 11
32.0
 21
12.0
 31
0.0
 73
     1
  0
TEXT
  8
0
 10
16.0
 20
12.666667
 30
0.0
 40
2.0
  1
In=1A 
 11
16.0
 21
12.0
 31
0.0
 73
     1
  0
TEXT
  8
0
 10
26.0
 20
18.666667
 30
0.0
 40
2.0
  1
108:
 11
26.0
 21
18.0
 31
0.0
 73
     1
  0
TEXT
  8
0
 10
6.0
 20
18.666667
 30
0.0
 40
2.0
  1
101:       
 11
6.0
 21
18.0
 31
0.0
 73
     1
  0
TEXT
  8
0
 10
6.0
 20
24.666667
 30
0.0
 40
2.0
  1
TERMINALS / UTTAG
 11
6.0
 21
24.0
 31
0.0
 73
     1
  0
LINE
  8
0
 10
0.0
 20
12.0
 30
0.0
 11
44.0
 21
12.0
 31
0.0
  0
LINE
  8
0
 10
28.0
 20
18.0
 30
0.0
 11
28.0
 21
0.0
 31
0.0
  0
LINE
  8
0
 10
14.0
 20
18.0
 30
0.0
 11
44.0
 21
18.0
 31
0.0
  0
LINE
  8
0
 10
14.0
 20
24.0
 30
0.0
 11
14.0
 21
0.0
 31
0.0
  0
LINE
  8
0
 10
0.0
 20
24.0
 30
0.0
 11
44.0
 21
24.0
 31
0.0
  0
LINE
  8
0
 10
44.0
 20
0.0
 30
0.0
 11
44.0
 21
30.0
 31
0.0
  0
LINE
  8
0
 10
0.0
 20
0.0
 30
0.0
 11
44.0
 21
0.0
 31
0.0
  0
LINE
  8
0
 10
0.0
 20
30.0
 30
0.0
 11
0.0
 21
0.0
 31
0.0
  0
LINE
  8
0
 10
44.0
 20
30.0
 30
0.0
 11
0.0
 21
30.0
 31
0.0
  0
ENDBLK
  8
0
  0
BLOCK
  8
0
  2
*X18
 70
    65
 10
0.0
 20
0.0
 30
0.0
  3
*X
  0
LINE
  8
0
  6
CONTINUOUS
 62
     0
 10
196.030255
 20
208.448149
 30
0.0
 11
196.49078
 21
208.996982
 31
0.0
  0
LINE
  8
0
  6
CONTINUOUS
 62
     0
 10
196.020445
 20
208.452015
 30
0.0
 11
196.471453
 21
208.989505
 31
0.0
  0
LINE
  8
0
  6
CONTINUOUS
 62
     0
 10
196.010635
 20
208.455881
 30
0.0
 11
196.452125
 21
208.982029
 31
0.0
  0
LINE
  8
0
  6
CONTINUOUS
 62
     0
 10
196.000825
 20
208.459747
 30
0.0
 11
196.432797
 21
208.974552
 31
0.0
  0
LINE
  8
0
  6
CONTINUOUS
 62
     0
 10
195.991014
 20
208.463613
 30
0.0
 11
196.41347
 21
208.967076
 31
0.0
  0
LINE
  8
0
  6
CONTINUOUS
 62
     0
 10
195.981204
 20
208.467479
 30
0.0
 11
196.394142
 21
208.959599
 31
0.0
  0
LINE
  8
0
  6
CONTINUOUS
 62
     0
 10
195.971394
 20
208.471345
 30
0.0
 11
196.374814
 21
208.952122
 31
0.0
  0
LINE
  8
0
  6
CONTINUOUS
 62
     0
 10
195.961584
 20
208.47521
 30
0.0
 11
196.355487
 21
208.944646
 31
0.0
  0
LINE
  8
0
  6
CONTINUOUS
 62
     0
 10
195.951773
 20
208.479076
 30
0.0
 11
196.336159
 21
208.937169
 31
0.0
  0
LINE
  8
0
  6
CONTINUOUS
 62
     0
 10
195.941963
 20
208.482942
 30
0.0
 11
196.316831
 21
208.929693
 31
0.0
  0
LINE
  8
0
  6
CONTINUOUS
 62
     0
 10
195.932153
 20
208.486808
 30
0.0
 11
196.297504
 21
208.922216
 31
0.0
  0
LINE
  8
0
  6
CONTINUOUS
 62
     0
 10
195.922343
 20
208.490674
 30
0.0
 11
196.278176
 21
208.91474
 31
0.0
  0
LINE
  8
0
  6
CONTINUOUS
 62
     0
 10
195.912533
 20
208.49454
 30
0.0
 11
196.258848
 21
208.907263
 31
0.0
  0
LINE
  8
0
  6
CONTINUOUS
 62
     0
 10
195.902722
 20
208.498406
 30
0.0
 11
196.239521
 21
208.899786
 31
0.0
  0
LINE
  8
0
  6
CONTINUOUS
 62
     0
 10
195.892912
 20
208.502272
 30
0.0
 11
196.220193
 21
208.89231
 31
0.0
  0
LINE
  8
0
  6
CONTINUOUS
 62
     0
 10
195.883102
 20
208.506137
 30
0.0
 11
196.200865
 21
208.884833
 31
0.0
  0
LINE
  8
0
  6
CONTINUOUS
 62
     0
 10
195.873292
 20
208.510003
 30
0.0
 11
196.181538
 21
208.877357
 31
0.0
  0
LINE
  8
0
  6
CONTINUOUS
 62
     0
 10
195.863481
 20
208.513869
 30
0.0
 11
196.16221
 21
208.86988
 31
0.0
  0
LINE
  8
0
  6
CONTINUOUS
 62
     0
 10
195.853671
 20
208.517735
 30
0.0
 11
196.142882
 21
208.862403
 31
0.0
  0
LINE
  8
0
  6
CONTINUOUS
 62
     0
 10
195.843861
 20
208.521601
 30
0.0
 11
196.123555
 21
208.854927
 31
0.0
  0
LINE
  8
0
  6
CONTINUOUS
 62
     0
 10
195.834051
 20
208.525467
 30
0.0
 11
196.104227
 21
208.84745
 31
0.0
  0
LINE
  8
0
  6
CONTINUOUS
 62
     0
 10
195.82424
 20
208.529333
 30
0.0
 11
196.084899
 21
208.839974
 31
0.0
  0
LINE
  8
0
  6
CONTINUOUS
 62
     0
 10
195.81443
 20
208.533198
 30
0.0
 11
196.065572
 21
208.832497
 31
0.0
  0
LINE
  8
0
  6
CONTINUOUS
 62
     0
 10
195.80462
 20
208.537064
 30
0.0
 11
196.046244
 21
208.82502
 31
0.0
  0
LINE
  8
0
  6
CONTINUOUS
 62
     0
 10
195.79481
 20
208.54093
 30
0.0
 11
196.026916
 21
208.817544
 31
0.0
  0
LINE
  8
0
  6
CONTINUOUS
 62
     0
 10
195.784999
 20
208.544796
 30
0.0
 11
196.007589
 21
208.810067
 31
0.0
  0
LINE
  8
0
  6
CONTINUOUS
 62
     0
 10
195.775189
 20
208.548662
 30
0.0
 11
195.988261
 21
208.802591
 31
0.0
  0
LINE
  8
0
  6
CONTINUOUS
 62
     0
 10
195.765379
 20
208.552528
 30
0.0
 11
195.968933
 21
208.795114
 31
0.0
  0
LINE
  8
0
  6
CONTINUOUS
 62
     0
 10
195.755569
 20
208.556394
 30
0.0
 11
195.949605
 21
208.787637
 31
0.0
  0
LINE
  8
0
  6
CONTINUOUS
 62
     0
 10
195.745759
 20
208.560259
 30
0.0
 11
195.930278
 21
208.780161
 31
0.0
  0
LINE
  8
0
  6
CONTINUOUS
 62
     0
 10
195.735948
 20
208.564125
 30
0.0
 11
195.91095
 21
208.772684
 31
0.0
  0
LINE
  8
0
  6
CONTINUOUS
 62
     0
 10
195.726138
 20
208.567991
 30
0.0
 11
195.891622
 21
208.765208
 31
0.0
  0
LINE
  8
0
  6
CONTINUOUS
 62
     0
 10
195.716328
 20
208.571857
 30
0.0
 11
195.872295
 21
208.757731
 31
0.0
  0
LINE
  8
0
  6
CONTINUOUS
 62
     0
 10
195.706518
 20
208.575723
 30
0.0
 11
195.852967
 21
208.750254
 31
0.0
  0
LINE
  8
0
  6
CONTINUOUS
 62
     0
 10
195.696707
 20
208.579589
 30
0.0
 11
195.833639
 21
208.742778
 31
0.0
  0
LINE
  8
0
  6
CONTINUOUS
 62
     0
 10
195.686897
 20
208.583455
 30
0.0
 11
195.814312
 21
208.735301
 31
0.0
  0
LINE
  8
0
  6
CONTINUOUS
 62
     0
 10
195.677087
 20
208.58732
 30
0.0
 11
195.794984
 21
208.727825
 31
0.0
  0
LINE
  8
0
  6
CONTINUOUS
 62
     0
 10
195.667277
 20
208.591186
 30
0.0
 11
195.775656
 21
208.720348
 31
0.0
  0
LINE
  8
0
  6
CONTINUOUS
 62
     0
 10
195.657466
 20
208.595052
 30
0.0
 11
195.756329
 21
208.712872
 31
0.0
  0
LINE
  8
0
  6
CONTINUOUS
 62
     0
 10
195.647656
 20
208.598918
 30
0.0
 11
195.737001
 21
208.705395
 31
0.0
  0
LINE
  8
0
  6
CONTINUOUS
 62
     0
 10
195.637846
 20
208.602784
 30
0.0
 11
195.717673
 21
208.697918
 31
0.0
  0
LINE
  8
0
  6
CONTINUOUS
 62
     0
 10
195.628036
 20
208.60665
 30
0.0
 11
195.698346
 21
208.690442
 31
0.0
  0
LINE
  8
0
  6
CONTINUOUS
 62
     0
 10
195.618226
 20
208.610516
 30
0.0
 11
195.679018
 21
208.682965
 31
0.0
  0
LINE
  8
0
  6
CONTINUOUS
 62
     0
 10
195.608415
 20
208.614381
 30
0.0
 11
195.65969
 21
208.675489
 31
0.0
  0
LINE
  8
0
  6
CONTINUOUS
 62
     0
 10
195.598605
 20
208.618247
 30
0.0
 11
195.640363
 21
208.668012
 31
0.0
  0
LINE
  8
0
  6
CONTINUOUS
 62
     0
 10
195.588795
 20
208.622113
 30
0.0
 11
195.621035
 21
208.660535
 31
0.0
  0
LINE
  8
0
  6
CONTINUOUS
 62
     0
 10
195.578985
 20
208.625979
 30
0.0
 11
195.601707
 21
208.653059
 31
0.0
  0
LINE
  8
0
  6
CONTINUOUS
 62
     0
 10
195.569174
 20
208.629845
 30
0.0
 11
195.58238
 21
208.645582
 31
0.0
  0
LINE
  8
0
  6
CONTINUOUS
 62
     0
 10
195.559364
 20
208.633711
 30
0.0
 11
195.563052
 21
208.638106
 31
0.0
  0
LINE
  8
0
  6
CONTINUOUS
 62
     0
 10
196.040066
 20
208.444284
 30
0.0
 11
196.510108
 21
209.004459
 31
0.0
  0
LINE
  8
0
  6
CONTINUOUS
 62
     0
 10
196.049876
 20
208.440418
 30
0.0
 11
196.529436
 21
209.011935
 31
0.0
  0
LINE
  8
0
  6
CONTINUOUS
 62
     0
 10
196.059686
 20
208.436552
 30
0.0
 11
196.548764
 21
209.019412
 31
0.0
  0
LINE
  8
0
  6
CONTINUOUS
 62
     0
 10
196.069496
 20
208.432686
 30
0.0
 11
196.568091
 21
209.026888
 31
0.0
  0
LINE
  8
0
  6
CONTINUOUS
 62
     0
 10
196.079306
 20
208.42882
 30
0.0
 11
196.587419
 21
209.034365
 31
0.0
  0
LINE
  8
0
  6
CONTINUOUS
 62
     0
 10
196.089117
 20
208.424954
 30
0.0
 11
196.606747
 21
209.041842
 31
0.0
  0
LINE
  8
0
  6
CONTINUOUS
 62
     0
 10
196.098927
 20
208.421088
 30
0.0
 11
196.626074
 21
209.049318
 31
0.0
  0
LINE
  8
0
  6
CONTINUOUS
 62
     0
 10
196.108737
 20
208.417223
 30
0.0
 11
196.645402
 21
209.056795
 31
0.0
  0
LINE
  8
0
  6
CONTINUOUS
 62
     0
 10
196.118547
 20
208.413357
 30
0.0
 11
196.66473
 21
209.064271
 31
0.0
  0
LINE
  8
0
  6
CONTINUOUS
 62
     0
 10
196.128358
 20
208.409491
 30
0.0
 11
196.684057
 21
209.071748
 31
0.0
  0
LINE
  8
0
  6
CONTINUOUS
 62
     0
 10
196.138168
 20
208.405625
 30
0.0
 11
196.703385
 21
209.079225
 31
0.0
  0
LINE
  8
0
  6
CONTINUOUS
 62
     0
 10
196.147978
 20
208.401759
 30
0.0
 11
196.722713
 21
209.086701
 31
0.0
  0
LINE
  8
0
  6
CONTINUOUS
 62
     0
 10
196.157788
 20
208.397893
 30
0.0
 11
196.74204
 21
209.094178
 31
0.0
  0
LINE
  8
0
  6
CONTINUOUS
 62
     0
 10
196.167599
 20
208.394027
 30
0.0
 11
196.761368
 21
209.101654
 31
0.0
  0
LINE
  8
0
  6
CONTINUOUS
 62
     0
 10
196.177409
 20
208.390162
 30
0.0
 11
196.780696
 21
209.109131
 31
0.0
  0
LINE
  8
0
  6
CONTINUOUS
 62
     0
 10
196.187219
 20
208.386296
 30
0.0
 11
196.800023
 21
209.116608
 31
0.0
  0
LINE
  8
0
  6
CONTINUOUS
 62
     0
 10
196.197029
 20
208.38243
 30
0.0
 11
196.819351
 21
209.124084
 31
0.0
  0
LINE
  8
0
  6
CONTINUOUS
 62
     0
 10
196.206839
 20
208.378564
 30
0.0
 11
196.831691
 21
209.123233
 31
0.0
  0
LINE
  8
0
  6
CONTINUOUS
 62
     0
 10
196.21665
 20
208.374698
 30
0.0
 11
196.831691
 21
209.107676
 31
0.0
  0
LINE
  8
0
  6
CONTINUOUS
 62
     0
 10
196.22646
 20
208.370832
 30
0.0
 11
196.831691
 21
209.092119
 31
0.0
  0
LINE
  8
0
  6
CONTINUOUS
 62
     0
 10
196.23627
 20
208.366966
 30
0.0
 11
196.831691
 21
209.076561
 31
0.0
  0
LINE
  8
0
  6
CONTINUOUS
 62
     0
 10
196.24608
 20
208.363101
 30
0.0
 11
196.831691
 21
209.061004
 31
0.0
  0
LINE
  8
0
  6
CONTINUOUS
 62
     0
 10
196.255891
 20
208.359235
 30
0.0
 11
196.831691
 21
209.045447
 31
0.0
  0
LINE
  8
0
  6
CONTINUOUS
 62
     0
 10
196.265701
 20
208.355369
 30
0.0
 11
196.831691
 21
209.02989
 31
0.0
  0
LINE
  8
0
  6
CONTINUOUS
 62
     0
 10
196.275511
 20
208.351503
 30
0.0
 11
196.831691
 21
209.014333
 31
0.0
  0
LINE
  8
0
  6
CONTINUOUS
 62
     0
 10
196.285321
 20
208.347637
 30
0.0
 11
196.831691
 21
208.998775
 31
0.0
  0
LINE
  8
0
  6
CONTINUOUS
 62
     0
 10
196.295132
 20
208.343771
 30
0.0
 11
196.831691
 21
208.983218
 31
0.0
  0
LINE
  8
0
  6
CONTINUOUS
 62
     0
 10
196.304942
 20
208.339905
 30
0.0
 11
196.831691
 21
208.967661
 31
0.0
  0
LINE
  8
0
  6
CONTINUOUS
 62
     0
 10
196.314752
 20
208.33604
 30
0.0
 11
196.831691
 21
208.952104
 31
0.0
  0
LINE
  8
0
  6
CONTINUOUS
 62
     0
 10
196.324562
 20
208.332174
 30
0.0
 11
196.831691
 21
208.936546
 31
0.0
  0
LINE
  8
0
  6
CONTINUOUS
 62
     0
 10
196.334372
 20
208.328308
 30
0.0
 11
196.831691
 21
208.920989
 31
0.0
  0
LINE
  8
0
  6
CONTINUOUS
 62
     0
 10
196.344183
 20
208.324442
 30
0.0
 11
196.831691
 21
208.905432
 31
0.0
  0
LINE
  8
0
  6
CONTINUOUS
 62
     0
 10
196.353993
 20
208.320576
 30
0.0
 11
196.831691
 21
208.889875
 31
0.0
  0
LINE
  8
0
  6
CONTINUOUS
 62
     0
 10
196.363803
 20
208.31671
 30
0.0
 11
196.831691
 21
208.874317
 31
0.0
  0
LINE
  8
0
  6
CONTINUOUS
 62
     0
 10
196.373613
 20
208.312844
 30
0.0
 11
196.831691
 21
208.85876
 31
0.0
  0
LINE
  8
0
  6
CONTINUOUS
 62
     0
 10
196.383424
 20
208.308979
 30
0.0
 11
196.831691
 21
208.843203
 31
0.0
  0
LINE
  8
0
  6
CONTINUOUS
 62
     0
 10
196.393234
 20
208.305113
 30
0.0
 11
196.831691
 21
208.827646
 31
0.0
  0
LINE
  8
0
  6
CONTINUOUS
 62
     0
 10
196.403044
 20
208.301247
 30
0.0
 11
196.831691
 21
208.812088
 31
0.0
  0
LINE
  8
0
  6
CONTINUOUS
 62
     0
 10
196.412854
 20
208.297381
 30
0.0
 11
196.831691
 21
208.796531
 31
0.0
  0
LINE
  8
0
  6
CONTINUOUS
 62
     0
 10
196.422665
 20
208.293515
 30
0.0
 11
196.831691
 21
208.780974
 31
0.0
  0
LINE
  8
0
  6
CONTINUOUS
 62
     0
 10
196.432475
 20
208.289649
 30
0.0
 11
196.831691
 21
208.765417
 31
0.0
  0
LINE
  8
0
  6
CONTINUOUS
 62
     0
 10
196.442285
 20
208.285783
 30
0.0
 11
196.831691
 21
208.749859
 31
0.0
  0
LINE
  8
0
  6
CONTINUOUS
 62
     0
 10
196.452095
 20
208.281918
 30
0.0
 11
196.831691
 21
208.734302
 31
0.0
  0
LINE
  8
0
  6
CONTINUOUS
 62
     0
 10
196.461905
 20
208.278052
 30
0.0
 11
196.831691
 21
208.718745
 31
0.0
  0
LINE
  8
0
  6
CONTINUOUS
 62
     0
 10
196.471716
 20
208.274186
 30
0.0
 11
196.831691
 21
208.703188
 31
0.0
  0
LINE
  8
0
  6
CONTINUOUS
 62
     0
 10
196.481526
 20
208.27032
 30
0.0
 11
196.831691
 21
208.68763
 31
0.0
  0
LINE
  8
0
  6
CONTINUOUS
 62
     0
 10
196.491336
 20
208.266454
 30
0.0
 11
196.831691
 21
208.672073
 31
0.0
  0
LINE
  8
0
  6
CONTINUOUS
 62
     0
 10
196.501146
 20
208.262588
 30
0.0
 11
196.831691
 21
208.656516
 31
0.0
  0
LINE
  8
0
  6
CONTINUOUS
 62
     0
 10
196.510957
 20
208.258722
 30
0.0
 11
196.831691
 21
208.640959
 31
0.0
  0
LINE
  8
0
  6
CONTINUOUS
 62
     0
 10
196.520767
 20
208.254857
 30
0.0
 11
196.831691
 21
208.625402
 31
0.0
  0
LINE
  8
0
  6
CONTINUOUS
 62
     0
 10
196.530577
 20
208.250991
 30
0.0
 11
196.831691
 21
208.609844
 31
0.0
  0
LINE
  8
0
  6
CONTINUOUS
 62
     0
 10
196.540387
 20
208.247125
 30
0.0
 11
196.831691
 21
208.594287
 31
0.0
  0
LINE
  8
0
  6
CONTINUOUS
 62
     0
 10
196.550198
 20
208.243259
 30
0.0
 11
196.831691
 21
208.57873
 31
0.0
  0
LINE
  8
0
  6
CONTINUOUS
 62
     0
 10
196.560008
 20
208.239393
 30
0.0
 11
196.831691
 21
208.563173
 31
0.0
  0
LINE
  8
0
  6
CONTINUOUS
 62
     0
 10
196.569818
 20
208.235527
 30
0.0
 11
196.831691
 21
208.547615
 31
0.0
  0
LINE
  8
0
  6
CONTINUOUS
 62
     0
 10
196.579628
 20
208.231661
 30
0.0
 11
196.831691
 21
208.532058
 31
0.0
  0
LINE
  8
0
  6
CONTINUOUS
 62
     0
 10
196.589439
 20
208.227796
 30
0.0
 11
196.831691
 21
208.516501
 31
0.0
  0
LINE
  8
0
  6
CONTINUOUS
 62
     0
 10
196.599249
 20
208.22393
 30
0.0
 11
196.831691
 21
208.500944
 31
0.0
  0
LINE
  8
0
  6
CONTINUOUS
 62
     0
 10
196.609059
 20
208.220064
 30
0.0
 11
196.831691
 21
208.485386
 31
0.0
  0
LINE
  8
0
  6
CONTINUOUS
 62
     0
 10
196.618869
 20
208.216198
 30
0.0
 11
196.831691
 21
208.469829
 31
0.0
  0
LINE
  8
0
  6
CONTINUOUS
 62
     0
 10
196.628679
 20
208.212332
 30
0.0
 11
196.831691
 21
208.454272
 31
0.0
  0
LINE
  8
0
  6
CONTINUOUS
 62
     0
 10
196.63849
 20
208.208466
 30
0.0
 11
196.831691
 21
208.438715
 31
0.0
  0
LINE
  8
0
  6
CONTINUOUS
 62
     0
 10
196.6483
 20
208.2046
 30
0.0
 11
196.831691
 21
208.423157
 31
0.0
  0
LINE
  8
0
  6
CONTINUOUS
 62
     0
 10
196.65811
 20
208.200734
 30
0.0
 11
196.831691
 21
208.4076
 31
0.0
  0
LINE
  8
0
  6
CONTINUOUS
 62
     0
 10
196.66792
 20
208.196869
 30
0.0
 11
196.831691
 21
208.392043
 31
0.0
  0
LINE
  8
0
  6
CONTINUOUS
 62
     0
 10
196.677731
 20
208.193003
 30
0.0
 11
196.831691
 21
208.376486
 31
0.0
  0
LINE
  8
0
  6
CONTINUOUS
 62
     0
 10
196.687541
 20
208.189137
 30
0.0
 11
196.831691
 21
208.360928
 31
0.0
  0
LINE
  8
0
  6
CONTINUOUS
 62
     0
 10
196.697351
 20
208.185271
 30
0.0
 11
196.831691
 21
208.345371
 31
0.0
  0
LINE
  8
0
  6
CONTINUOUS
 62
     0
 10
196.707161
 20
208.181405
 30
0.0
 11
196.831691
 21
208.329814
 31
0.0
  0
LINE
  8
0
  6
CONTINUOUS
 62
     0
 10
196.716972
 20
208.177539
 30
0.0
 11
196.831691
 21
208.314257
 31
0.0
  0
LINE
  8
0
  6
CONTINUOUS
 62
     0
 10
196.726782
 20
208.173673
 30
0.0
 11
196.831691
 21
208.2987
 31
0.0
  0
LINE
  8
0
  6
CONTINUOUS
 62
     0
 10
196.736592
 20
208.169808
 30
0.0
 11
196.831691
 21
208.283142
 31
0.0
  0
LINE
  8
0
  6
CONTINUOUS
 62
     0
 10
196.746402
 20
208.165942
 30
0.0
 11
196.831691
 21
208.267585
 31
0.0
  0
LINE
  8
0
  6
CONTINUOUS
 62
     0
 10
196.756212
 20
208.162076
 30
0.0
 11
196.831691
 21
208.252028
 31
0.0
  0
LINE
  8
0
  6
CONTINUOUS
 62
     0
 10
196.766023
 20
208.15821
 30
0.0
 11
196.831691
 21
208.236471
 31
0.0
  0
LINE
  8
0
  6
CONTINUOUS
 62
     0
 10
196.775833
 20
208.154344
 30
0.0
 11
196.831691
 21
208.220913
 31
0.0
  0
LINE
  8
0
  6
CONTINUOUS
 62
     0
 10
196.785643
 20
208.150478
 30
0.0
 11
196.831691
 21
208.205356
 31
0.0
  0
LINE
  8
0
  6
CONTINUOUS
 62
     0
 10
196.795453
 20
208.146612
 30
0.0
 11
196.831691
 21
208.189799
 31
0.0
  0
LINE
  8
0
  6
CONTINUOUS
 62
     0
 10
196.805264
 20
208.142747
 30
0.0
 11
196.831691
 21
208.174242
 31
0.0
  0
LINE
  8
0
  6
CONTINUOUS
 62
     0
 10
196.815074
 20
208.138881
 30
0.0
 11
196.831691
 21
208.158684
 31
0.0
  0
LINE
  8
0
  6
CONTINUOUS
 62
     0
 10
196.824884
 20
208.135015
 30
0.0
 11
196.831691
 21
208.143127
 31
0.0
  0
LINE
  8
0
  6
CONTINUOUS
 62
     0
 10
195.987313
 20
208.802224
 30
0.0
 11
196.744899
 21
208.166534
 31
0.0
  0
LINE
  8
0
  6
CONTINUOUS
 62
     0
 10
195.976665
 20
208.798105
 30
0.0
 11
196.715566
 21
208.178093
 31
0.0
  0
LINE
  8
0
  6
CONTINUOUS
 62
     0
 10
195.966017
 20
208.793986
 30
0.0
 11
196.686234
 21
208.189652
 31
0.0
  0
LINE
  8
0
  6
CONTINUOUS
 62
     0
 10
195.955368
 20
208.789867
 30
0.0
 11
196.656901
 21
208.201211
 31
0.0
  0
LINE
  8
0
  6
CONTINUOUS
 62
     0
 10
195.94472
 20
208.785748
 30
0.0
 11
196.627568
 21
208.21277
 31
0.0
  0
LINE
  8
0
  6
CONTINUOUS
 62
     0
 10
195.934072
 20
208.781628
 30
0.0
 11
196.598236
 21
208.224329
 31
0.0
  0
LINE
  8
0
  6
CONTINUOUS
 62
     0
 10
195.923424
 20
208.777509
 30
0.0
 11
196.568903
 21
208.235888
 31
0.0
  0
LINE
  8
0
  6
CONTINUOUS
 62
     0
 10
195.912775
 20
208.77339
 30
0.0
 11
196.53957
 21
208.247447
 31
0.0
  0
LINE
  8
0
  6
CONTINUOUS
 62
     0
 10
195.902127
 20
208.769271
 30
0.0
 11
196.510238
 21
208.259006
 31
0.0
  0
LINE
  8
0
  6
CONTINUOUS
 62
     0
 10
195.891479
 20
208.765152
 30
0.0
 11
196.480905
 21
208.270565
 31
0.0
  0
LINE
  8
0
  6
CONTINUOUS
 62
     0
 10
195.88083
 20
208.761033
 30
0.0
 11
196.451572
 21
208.282124
 31
0.0
  0
LINE
  8
0
  6
CONTINUOUS
 62
     0
 10
195.870182
 20
208.756914
 30
0.0
 11
196.42224
 21
208.293683
 31
0.0
  0
LINE
  8
0
  6
CONTINUOUS
 62
     0
 10
195.859534
 20
208.752795
 30
0.0
 11
196.392907
 21
208.305241
 31
0.0
  0
LINE
  8
0
  6
CONTINUOUS
 62
     0
 10
195.848886
 20
208.748676
 30
0.0
 11
196.363574
 21
208.3168
 31
0.0
  0
LINE
  8
0
  6
CONTINUOUS
 62
     0
 10
195.838237
 20
208.744557
 30
0.0
 11
196.334242
 21
208.328359
 31
0.0
  0
LINE
  8
0
  6
CONTINUOUS
 62
     0
 10
195.827589
 20
208.740437
 30
0.0
 11
196.304909
 21
208.339918
 31
0.0
  0
LINE
  8
0
  6
CONTINUOUS
 62
     0
 10
195.816941
 20
208.736318
 30
0.0
 11
196.275576
 21
208.351477
 31
0.0
  0
LINE
  8
0
  6
CONTINUOUS
 62
     0
 10
195.806292
 20
208.732199
 30
0.0
 11
196.246244
 21
208.363036
 31
0.0
  0
LINE
  8
0
  6
CONTINUOUS
 62
     0
 10
195.795644
 20
208.72808
 30
0.0
 11
196.216911
 21
208.374595
 31
0.0
  0
LINE
  8
0
  6
CONTINUOUS
 62
     0
 10
195.784996
 20
208.723961
 30
0.0
 11
196.187579
 21
208.386154
 31
0.0
  0
LINE
  8
0
  6
CONTINUOUS
 62
     0
 10
195.774348
 20
208.719842
 30
0.0
 11
196.158246
 21
208.397713
 31
0.0
  0
LINE
  8
0
  6
CONTINUOUS
 62
     0
 10
195.763699
 20
208.715723
 30
0.0
 11
196.128913
 21
208.409272
 31
0.0
  0
LINE
  8
0
  6
CONTINUOUS
 62
     0
 10
195.753051
 20
208.711604
 30
0.0
 11
196.099581
 21
208.420831
 31
0.0
  0
LINE
  8
0
  6
CONTINUOUS
 62
     0
 10
195.742403
 20
208.707485
 30
0.0
 11
196.070248
 21
208.43239
 31
0.0
  0
LINE
  8
0
  6
CONTINUOUS
 62
     0
 10
195.731755
 20
208.703365
 30
0.0
 11
196.040915
 21
208.443949
 31
0.0
  0
LINE
  8
0
  6
CONTINUOUS
 62
     0
 10
195.721106
 20
208.699246
 30
0.0
 11
196.011583
 21
208.455508
 31
0.0
  0
LINE
  8
0
  6
CONTINUOUS
 62
     0
 10
195.710458
 20
208.695127
 30
0.0
 11
195.98225
 21
208.467067
 31
0.0
  0
LINE
  8
0
  6
CONTINUOUS
 62
     0
 10
195.69981
 20
208.691008
 30
0.0
 11
195.952917
 21
208.478626
 31
0.0
  0
LINE
  8
0
  6
CONTINUOUS
 62
     0
 10
195.689161
 20
208.686889
 30
0.0
 11
195.923585
 21
208.490185
 31
0.0
  0
LINE
  8
0
  6
CONTINUOUS
 62
     0
 10
195.678513
 20
208.68277
 30
0.0
 11
195.894252
 21
208.501743
 31
0.0
  0
LINE
  8
0
  6
CONTINUOUS
 62
     0
 10
195.667865
 20
208.678651
 30
0.0
 11
195.864919
 21
208.513302
 31
0.0
  0
LINE
  8
0
  6
CONTINUOUS
 62
     0
 10
195.657217
 20
208.674532
 30
0.0
 11
195.835587
 21
208.524861
 31
0.0
  0
LINE
  8
0
  6
CONTINUOUS
 62
     0
 10
195.646568
 20
208.670413
 30
0.0
 11
195.806254
 21
208.53642
 31
0.0
  0
LINE
  8
0
  6
CONTINUOUS
 62
     0
 10
195.63592
 20
208.666293
 30
0.0
 11
195.776922
 21
208.547979
 31
0.0
  0
LINE
  8
0
  6
CONTINUOUS
 62
     0
 10
195.625272
 20
208.662174
 30
0.0
 11
195.747589
 21
208.559538
 31
0.0
  0
LINE
  8
0
  6
CONTINUOUS
 62
     0
 10
195.614624
 20
208.658055
 30
0.0
 11
195.718256
 21
208.571097
 31
0.0
  0
LINE
  8
0
  6
CONTINUOUS
 62
     0
 10
195.603975
 20
208.653936
 30
0.0
 11
195.688924
 21
208.582656
 31
0.0
  0
LINE
  8
0
  6
CONTINUOUS
 62
     0
 10
195.593327
 20
208.649817
 30
0.0
 11
195.659591
 21
208.594215
 31
0.0
  0
LINE
  8
0
  6
CONTINUOUS
 62
     0
 10
195.582679
 20
208.645698
 30
0.0
 11
195.630258
 21
208.605774
 31
0.0
  0
LINE
  8
0
  6
CONTINUOUS
 62
     0
 10
195.57203
 20
208.641579
 30
0.0
 11
195.600926
 21
208.617333
 31
0.0
  0
LINE
  8
0
  6
CONTINUOUS
 62
     0
 10
195.561382
 20
208.63746
 30
0.0
 11
195.571593
 21
208.628892
 31
0.0
  0
LINE
  8
0
  6
CONTINUOUS
 62
     0
 10
195.997961
 20
208.806343
 30
0.0
 11
196.774231
 21
208.154975
 31
0.0
  0
LINE
  8
0
  6
CONTINUOUS
 62
     0
 10
196.00861
 20
208.810462
 30
0.0
 11
196.803564
 21
208.143416
 31
0.0
  0
LINE
  8
0
  6
CONTINUOUS
 62
     0
 10
196.019258
 20
208.814581
 30
0.0
 11
196.831691
 21
208.132869
 31
0.0
  0
LINE
  8
0
  6
CONTINUOUS
 62
     0
 10
196.029906
 20
208.8187
 30
0.0
 11
196.831691
 21
208.145923
 31
0.0
  0
LINE
  8
0
  6
CONTINUOUS
 62
     0
 10
196.040555
 20
208.82282
 30
0.0
 11
196.831691
 21
208.158977
 31
0.0
  0
LINE
  8
0
  6
CONTINUOUS
 62
     0
 10
196.051203
 20
208.826939
 30
0.0
 11
196.831691
 21
208.172031
 31
0.0
  0
LINE
  8
0
  6
CONTINUOUS
 62
     0
 10
196.061851
 20
208.831058
 30
0.0
 11
196.831691
 21
208.185085
 31
0.0
  0
LINE
  8
0
  6
CONTINUOUS
 62
     0
 10
196.072499
 20
208.835177
 30
0.0
 11
196.831691
 21
208.198139
 31
0.0
  0
LINE
  8
0
  6
CONTINUOUS
 62
     0
 10
196.083148
 20
208.839296
 30
0.0
 11
196.831691
 21
208.211194
 31
0.0
  0
LINE
  8
0
  6
CONTINUOUS
 62
     0
 10
196.093796
 20
208.843415
 30
0.0
 11
196.831691
 21
208.224248
 31
0.0
  0
LINE
  8
0
  6
CONTINUOUS
 62
     0
 10
196.104444
 20
208.847534
 30
0.0
 11
196.831691
 21
208.237302
 31
0.0
  0
LINE
  8
0
  6
CONTINUOUS
 62
     0
 10
196.115092
 20
208.851653
 30
0.0
 11
196.831691
 21
208.250356
 31
0.0
  0
LINE
  8
0
  6
CONTINUOUS
 62
     0
 10
196.125741
 20
208.855772
 30
0.0
 11
196.831691
 21
208.26341
 31
0.0
  0
LINE
  8
0
  6
CONTINUOUS
 62
     0
 10
196.136389
 20
208.859892
 30
0.0
 11
196.831691
 21
208.276464
 31
0.0
  0
LINE
  8
0
  6
CONTINUOUS
 62
     0
 10
196.147037
 20
208.864011
 30
0.0
 11
196.831691
 21
208.289518
 31
0.0
  0
LINE
  8
0
  6
CONTINUOUS
 62
     0
 10
196.157686
 20
208.86813
 30
0.0
 11
196.831691
 21
208.302572
 31
0.0
  0
LINE
  8
0
  6
CONTINUOUS
 62
     0
 10
196.168334
 20
208.872249
 30
0.0
 11
196.831691
 21
208.315626
 31
0.0
  0
LINE
  8
0
  6
CONTINUOUS
 62
     0
 10
196.178982
 20
208.876368
 30
0.0
 11
196.831691
 21
208.32868
 31
0.0
  0
LINE
  8
0
  6
CONTINUOUS
 62
     0
 10
196.18963
 20
208.880487
 30
0.0
 11
196.831691
 21
208.341734
 31
0.0
  0
LINE
  8
0
  6
CONTINUOUS
 62
     0
 10
196.200279
 20
208.884606
 30
0.0
 11
196.831691
 21
208.354788
 31
0.0
  0
LINE
  8
0
  6
CONTINUOUS
 62
     0
 10
196.210927
 20
208.888725
 30
0.0
 11
196.831691
 21
208.367842
 31
0.0
  0
LINE
  8
0
  6
CONTINUOUS
 62
     0
 10
196.221575
 20
208.892844
 30
0.0
 11
196.831691
 21
208.380896
 31
0.0
  0
LINE
  8
0
  6
CONTINUOUS
 62
     0
 10
196.232223
 20
208.896964
 30
0.0
 11
196.831691
 21
208.393951
 31
0.0
  0
LINE
  8
0
  6
CONTINUOUS
 62
     0
 10
196.242872
 20
208.901083
 30
0.0
 11
196.831691
 21
208.407005
 31
0.0
  0
LINE
  8
0
  6
CONTINUOUS
 62
     0
 10
196.25352
 20
208.905202
 30
0.0
 11
196.831691
 21
208.420059
 31
0.0
  0
LINE
  8
0
  6
CONTINUOUS
 62
     0
 10
196.264168
 20
208.909321
 30
0.0
 11
196.831691
 21
208.433113
 31
0.0
  0
LINE
  8
0
  6
CONTINUOUS
 62
     0
 10
196.274817
 20
208.91344
 30
0.0
 11
196.831691
 21
208.446167
 31
0.0
  0
LINE
  8
0
  6
CONTINUOUS
 62
     0
 10
196.285465
 20
208.917559
 30
0.0
 11
196.831691
 21
208.459221
 31
0.0
  0
LINE
  8
0
  6
CONTINUOUS
 62
     0
 10
196.296113
 20
208.921678
 30
0.0
 11
196.831691
 21
208.472275
 31
0.0
  0
LINE
  8
0
  6
CONTINUOUS
 62
     0
 10
196.306761
 20
208.925797
 30
0.0
 11
196.831691
 21
208.485329
 31
0.0
  0
LINE
  8
0
  6
CONTINUOUS
 62
     0
 10
196.31741
 20
208.929916
 30
0.0
 11
196.831691
 21
208.498383
 31
0.0
  0
LINE
  8
0
  6
CONTINUOUS
 62
     0
 10
196.328058
 20
208.934036
 30
0.0
 11
196.831691
 21
208.511437
 31
0.0
  0
LINE
  8
0
  6
CONTINUOUS
 62
     0
 10
196.338706
 20
208.938155
 30
0.0
 11
196.831691
 21
208.524491
 31
0.0
  0
LINE
  8
0
  6
CONTINUOUS
 62
     0
 10
196.349355
 20
208.942274
 30
0.0
 11
196.831691
 21
208.537545
 31
0.0
  0
LINE
  8
0
  6
CONTINUOUS
 62
     0
 10
196.360003
 20
208.946393
 30
0.0
 11
196.831691
 21
208.550599
 31
0.0
  0
LINE
  8
0
  6
CONTINUOUS
 62
     0
 10
196.370651
 20
208.950512
 30
0.0
 11
196.831691
 21
208.563653
 31
0.0
  0
LINE
  8
0
  6
CONTINUOUS
 62
     0
 10
196.381299
 20
208.954631
 30
0.0
 11
196.831691
 21
208.576708
 31
0.0
  0
LINE
  8
0
  6
CONTINUOUS
 62
     0
 10
196.391948
 20
208.95875
 30
0.0
 11
196.831691
 21
208.589762
 31
0.0
  0
LINE
  8
0
  6
CONTINUOUS
 62
     0
 10
196.402596
 20
208.962869
 30
0.0
 11
196.831691
 21
208.602816
 31
0.0
  0
LINE
  8
0
  6
CONTINUOUS
 62
     0
 10
196.413244
 20
208.966988
 30
0.0
 11
196.831691
 21
208.61587
 31
0.0
  0
LINE
  8
0
  6
CONTINUOUS
 62
     0
 10
196.423892
 20
208.971108
 30
0.0
 11
196.831691
 21
208.628924
 31
0.0
  0
LINE
  8
0
  6
CONTINUOUS
 62
     0
 10
196.434541
 20
208.975227
 30
0.0
 11
196.831691
 21
208.641978
 31
0.0
  0
LINE
  8
0
  6
CONTINUOUS
 62
     0
 10
196.445189
 20
208.979346
 30
0.0
 11
196.831691
 21
208.655032
 31
0.0
  0
LINE
  8
0
  6
CONTINUOUS
 62
     0
 10
196.455837
 20
208.983465
 30
0.0
 11
196.831691
 21
208.668086
 31
0.0
  0
LINE
  8
0
  6
CONTINUOUS
 62
     0
 10
196.466486
 20
208.987584
 30
0.0
 11
196.831691
 21
208.68114
 31
0.0
  0
LINE
  8
0
  6
CONTINUOUS
 62
     0
 10
196.477134
 20
208.991703
 30
0.0
 11
196.831691
 21
208.694194
 31
0.0
  0
LINE
  8
0
  6
CONTINUOUS
 62
     0
 10
196.487782
 20
208.995822
 30
0.0
 11
196.831691
 21
208.707248
 31
0.0
  0
LINE
  8
0
  6
CONTINUOUS
 62
     0
 10
196.49843
 20
208.999941
 30
0.0
 11
196.831691
 21
208.720302
 31
0.0
  0
LINE
  8
0
  6
CONTINUOUS
 62
     0
 10
196.509079
 20
209.00406
 30
0.0
 11
196.831691
 21
208.733356
 31
0.0
  0
LINE
  8
0
  6
CONTINUOUS
 62
     0
 10
196.519727
 20
209.00818
 30
0.0
 11
196.831691
 21
208.74641
 31
0.0
  0
LINE
  8
0
  6
CONTINUOUS
 62
     0
 10
196.530375
 20
209.012299
 30
0.0
 11
196.831691
 21
208.759465
 31
0.0
  0
LINE
  8
0
  6
CONTINUOUS
 62
     0
 10
196.541023
 20
209.016418
 30
0.0
 11
196.831691
 21
208.772519
 31
0.0
  0
LINE
  8
0
  6
CONTINUOUS
 62
     0
 10
196.551672
 20
209.020537
 30
0.0
 11
196.831691
 21
208.785573
 31
0.0
  0
LINE
  8
0
  6
CONTINUOUS
 62
     0
 10
196.56232
 20
209.024656
 30
0.0
 11
196.831691
 21
208.798627
 31
0.0
  0
LINE
  8
0
  6
CONTINUOUS
 62
     0
 10
196.572968
 20
209.028775
 30
0.0
 11
196.831691
 21
208.811681
 31
0.0
  0
LINE
  8
0
  6
CONTINUOUS
 62
     0
 10
196.583617
 20
209.032894
 30
0.0
 11
196.831691
 21
208.824735
 31
0.0
  0
LINE
  8
0
  6
CONTINUOUS
 62
     0
 10
196.594265
 20
209.037013
 30
0.0
 11
196.831691
 21
208.837789
 31
0.0
  0
LINE
  8
0
  6
CONTINUOUS
 62
     0
 10
196.604913
 20
209.041132
 30
0.0
 11
196.831691
 21
208.850843
 31
0.0
  0
LINE
  8
0
  6
CONTINUOUS
 62
     0
 10
196.615561
 20
209.045251
 30
0.0
 11
196.831691
 21
208.863897
 31
0.0
  0
LINE
  8
0
  6
CONTINUOUS
 62
     0
 10
196.62621
 20
209.049371
 30
0.0
 11
196.831691
 21
208.876951
 31
0.0
  0
LINE
  8
0
  6
CONTINUOUS
 62
     0
 10
196.636858
 20
209.05349
 30
0.0
 11
196.831691
 21
208.890005
 31
0.0
  0
LINE
  8
0
  6
CONTINUOUS
 62
     0
 10
196.647506
 20
209.057609
 30
0.0
 11
196.831691
 21
208.903059
 31
0.0
  0
LINE
  8
0
  6
CONTINUOUS
 62
     0
 10
196.658155
 20
209.061728
 30
0.0
 11
196.831691
 21
208.916113
 31
0.0
  0
LINE
  8
0
  6
CONTINUOUS
 62
     0
 10
196.668803
 20
209.065847
 30
0.0
 11
196.831691
 21
208.929168
 31
0.0
  0
LINE
  8
0
  6
CONTINUOUS
 62
     0
 10
196.679451
 20
209.069966
 30
0.0
 11
196.831691
 21
208.942222
 31
0.0
  0
LINE
  8
0
  6
CONTINUOUS
 62
     0
 10
196.690099
 20
209.074085
 30
0.0
 11
196.831691
 21
208.955276
 31
0.0
  0
LINE
  8
0
  6
CONTINUOUS
 62
     0
 10
196.700748
 20
209.078204
 30
0.0
 11
196.831691
 21
208.96833
 31
0.0
  0
LINE
  8
0
  6
CONTINUOUS
 62
     0
 10
196.711396
 20
209.082323
 30
0.0
 11
196.831691
 21
208.981384
 31
0.0
  0
LINE
  8
0
  6
CONTINUOUS
 62
     0
 10
196.722044
 20
209.086443
 30
0.0
 11
196.831691
 21
208.994438
 31
0.0
  0
LINE
  8
0
  6
CONTINUOUS
 62
     0
 10
196.732692
 20
209.090562
 30
0.0
 11
196.831691
 21
209.007492
 31
0.0
  0
LINE
  8
0
  6
CONTINUOUS
 62
     0
 10
196.743341
 20
209.094681
 30
0.0
 11
196.831691
 21
209.020546
 31
0.0
  0
LINE
  8
0
  6
CONTINUOUS
 62
     0
 10
196.753989
 20
209.0988
 30
0.0
 11
196.831691
 21
209.0336
 31
0.0
  0
LINE
  8
0
  6
CONTINUOUS
 62
     0
 10
196.764637
 20
209.102919
 30
0.0
 11
196.831691
 21
209.046654
 31
0.0
  0
LINE
  8
0
  6
CONTINUOUS
 62
     0
 10
196.775286
 20
209.107038
 30
0.0
 11
196.831691
 21
209.059708
 31
0.0
  0
LINE
  8
0
  6
CONTINUOUS
 62
     0
 10
196.785934
 20
209.111157
 30
0.0
 11
196.831691
 21
209.072762
 31
0.0
  0
LINE
  8
0
  6
CONTINUOUS
 62
     0
 10
196.796582
 20
209.115276
 30
0.0
 11
196.831691
 21
209.085816
 31
0.0
  0
LINE
  8
0
  6
CONTINUOUS
 62
     0
 10
196.80723
 20
209.119395
 30
0.0
 11
196.831691
 21
209.09887
 31
0.0
  0
LINE
  8
0
  6
CONTINUOUS
 62
     0
 10
196.817879
 20
209.123515
 30
0.0
 11
196.831691
 21
209.111925
 31
0.0
  0
LINE
  8
0
  6
CONTINUOUS
 62
     0
 10
196.828527
 20
209.127634
 30
0.0
 11
196.831691
 21
209.124979
 31
0.0
  0
ENDBLK
  8
0
  0
BLOCK
  8
0
  2
ABBA3V
 70
    64
 10
0.0
 20
0.0
 30
0.0
  3
ABBA3V
  0
TEXT
  8
RAAMI
  6
DASHED
 10
292.217194
 20
11.813359
 30
0.0
 40
3.0
  1
A3
  7
GREEKS
  0
TEXT
  8
RAAMI
  6
DASHED
 10
351.818577
 20
15.69253
 30
0.0
 40
1.4
  1
LEHTI SHEET
  7
GREEKS
  0
LINE
  8
PAKSU
 10
0.237099
 20
262.737999
 30
0.0
 11
392.237099
 21
262.737999
 31
0.0
  0
LINE
  8
RAAMI
 10
18.237099
 20
0.237999
 30
0.0
 11
0.237099
 21
0.237999
 31
0.0
  0
LINE
  8
PAKSU
 10
209.237099
 20
0.237999
 30
0.0
 11
392.237099
 21
0.237999
 31
0.0
  0
LINE
  8
PAKSU
 10
209.237099
 20
0.237999
 30
0.0
 11
209.237099
 21
35.237999
 31
0.0
  0
LINE
  8
PAKSU
 10
392.237099
 20
0.237999
 30
0.0
 11
392.237099
 21
35.237999
 31
0.0
  0
LINE
  8
OHUT
 10
209.237099
 20
18.237999
 30
0.0
 11
392.237099
 21
18.237999
 31
0.0
  0
LINE
  8
OHUT
 10
209.237099
 20
9.737999
 30
0.0
 11
392.237099
 21
9.737999
 31
0.0
  0
LINE
  8
OHUT
 10
209.237099
 20
26.737999
 30
0.0
 11
307.237099
 21
26.737999
 31
0.0
  0
LINE
  8
PAKSU
 10
209.237099
 20
35.237999
 30
0.0
 11
392.237099
 21
35.237999
 31
0.0
  0
TEXT
  8
RAAMI
 10
210.237099
 20
23.971333
 30
0.0
 40
1.4
  1
TARKASTI  CHECKED
  7
ROMANS
  0
TEXT
  8
RAAMI
 10
209.979934
 20
15.704666
 30
0.0
 40
1.4
  1
HYVÄKSYI  APPROVED
  7
ROMANS
  0
LINE
  8
OHUT
 10
307.237099
 20
0.237999
 30
0.0
 11
307.237099
 21
35.237999
 31
0.0
  0
TEXT
  8
RAAMI
 10
259.237099
 20
32.737999
 30
0.0
 40
1.4
  1
LIITTYY  CONCERNING
  7
ROMANS
  0
TEXT
  8
RAAMI
 10
259.237099
 20
23.737999
 30
0.0
 40
1.4
  1
TOLERANSSIT  TOLERANCES
  7
ROMANS
  0
TEXT
  8
RAAMI
 10
259.237099
 20
15.737999
 30
0.0
 40
1.4
  1
SUHDE  SCALE
  7
ROMANS
  0
TEXT
  8
RAAMI
 10
309.237099
 20
32.737999
 30
0.0
 40
1.4
  1
NIMITYS  NAME
  7
ROMANS
  0
TEXT
  8
RAAMI
 10
309.237099
 20
15.737999
 30
0.0
 40
1.4
  1
KOODI  CODE
  7
ROMANS
  0
TEXT
  8
RAAMI
 10
309.237099
 20
7.237999
 30
0.0
 40
1.4
  1
PIIRUSTUS NO  DRAWING NR
  7
ROMANS
  0
LINE
  8
OHUT
 10
349.737099
 20
9.737999
 30
0.0
 11
349.737099
 21
18.237999
 31
0.0
  0
TEXT
  8
RAAMI
 10
371.237099
 20
7.237999
 30
0.0
 40
1.4
  1
PAINOS  REVISION
  7
ROMANS
  0
LINE
  8
OHUT
 10
369.737099
 20
9.737999
 30
0.0
 11
369.737099
 21
0.237999
 31
0.0
  0
LINE
  8
RAAMI
 10
210.187099
 20
1.737999
 30
0.0
 11
211.937099
 21
1.737999
 31
0.0
  0
LINE
  8
RAAMI
 10
215.437099
 20
1.737999
 30
0.0
 11
217.187099
 21
1.737999
 31
0.0
  0
LINE
  8
RAAMI
 10
212.637099
 20
8.737999
 30
0.0
 11
211.459571
 21
5.373634
 31
0.0
  0
LINE
  8
RAAMI
 10
212.425886
 20
3.137999
 30
0.0
 11
213.547099
 21
3.137999
 31
0.0
  0
LINE
  8
RAAMI
 10
212.425889
 20
3.134542
 30
0.0
 11
211.937099
 21
1.737999
 31
0.0
  0
LINE
  8
RAAMI
 10
214.737099
 20
8.737999
 30
0.0
 11
215.913452
 21
5.376991
 31
0.0
  0
LINE
  8
RAAMI
 10
214.948197
 20
3.134863
 30
0.0
 11
215.437099
 21
1.737999
 31
0.0
  0
LINE
  8
RAAMI
 10
214.737099
 20
8.737999
 30
0.0
 11
213.827099
 21
8.737999
 31
0.0
  0
LINE
  8
RAAMI
 10
213.547099
 20
8.737999
 30
0.0
 11
213.547099
 21
5.377999
 31
0.0
  0
LINE
  8
RAAMI
 10
213.827099
 20
8.737999
 30
0.0
 11
213.827099
 21
5.377999
 31
0.0
  0
LINE
  8
RAAMI
 10
213.827099
 20
3.137999
 30
0.0
 11
214.946992
 21
3.137999
 31
0.0
  0
LINE
  8
RAAMI
 10
213.547099
 20
8.737999
 30
0.0
 11
212.637099
 21
8.737999
 31
0.0
  0
LINE
  8
RAAMI
 10
211.45904
 20
5.377999
 30
0.0
 11
213.547099
 21
5.377999
 31
0.0
  0
LINE
  8
RAAMI
 10
211.360082
 20
5.097999
 30
0.0
 11
213.547099
 21
5.097999
 31
0.0
  0
LINE
  8
RAAMI
 10
216.011591
 20
5.096594
 30
0.0
 11
217.187099
 21
1.737999
 31
0.0
  0
LINE
  8
RAAMI
 10
213.827099
 20
5.377999
 30
0.0
 11
215.912213
 21
5.377999
 31
0.0
  0
LINE
  8
RAAMI
 10
213.827099
 20
5.097999
 30
0.0
 11
216.010356
 21
5.097999
 31
0.0
  0
LINE
  8
RAAMI
 10
213.827099
 20
5.097999
 30
0.0
 11
213.827099
 21
3.137999
 31
0.0
  0
LINE
  8
RAAMI
 10
213.547099
 20
5.097999
 30
0.0
 11
213.547099
 21
3.137999
 31
0.0
  0
LINE
  8
RAAMI
 10
211.356988
 20
5.080538
 30
0.0
 11
210.187099
 21
1.737999
 31
0.0
  0
INSERT
  8
RAAMI
  2
*X20
 10
210.187099
 20
1.737999
 30
0.0
 41
0.7
 42
0.7
 43
0.7
  0
INSERT
  8
RAAMI
  2
*X21
 10
210.187099
 20
1.737999
 30
0.0
 41
0.7
 42
0.7
 43
0.7
  0
INSERT
  8
RAAMI
  2
*X22
 10
210.187099
 20
1.737999
 30
0.0
 41
0.7
 42
0.7
 43
0.7
  0
INSERT
  8
RAAMI
  2
*X23
 10
210.187099
 20
1.737999
 30
0.0
 41
0.7
 42
0.7
 43
0.7
  0
LINE
  8
RAAMI
 10
217.677099
 20
1.737999
 30
0.0
 11
217.677099
 21
5.097999
 31
0.0
  0
LINE
  8
RAAMI
 10
217.677099
 20
8.737999
 30
0.0
 11
219.637099
 21
8.737999
 31
0.0
  0
LINE
  8
RAAMI
 10
219.637099
 20
8.737999
 30
0.0
 11
219.637099
 21
5.377999
 31
0.0
  0
LINE
  8
RAAMI
 10
219.637099
 20
5.377999
 30
0.0
 11
217.677099
 21
5.377999
 31
0.0
  0
LINE
  8
RAAMI
 10
217.677099
 20
5.097999
 30
0.0
 11
219.637099
 21
5.097999
 31
0.0
  0
LINE
  8
RAAMI
 10
219.637099
 20
5.097999
 30
0.0
 11
219.637099
 21
1.737999
 31
0.0
  0
LINE
  8
RAAMI
 10
219.637099
 20
1.737999
 30
0.0
 11
217.677099
 21
1.737999
 31
0.0
  0
LINE
  8
RAAMI
 10
217.677099
 20
5.377999
 30
0.0
 11
217.677099
 21
8.737999
 31
0.0
  0
ARC
  8
RAAMI
 10
220.477099
 20
7.162999
 30
0.0
 40
1.575
 50
298.455859
 51
90.052437
  0
LINE
  8
RAAMI
 10
219.917099
 20
8.737999
 30
0.0
 11
220.475658
 21
8.737999
 31
0.0
  0
LINE
  8
RAAMI
 10
219.917099
 20
8.737999
 30
0.0
 11
219.917099
 21
5.377999
 31
0.0
  0
LINE
  8
RAAMI
 10
219.917099
 20
5.377999
 30
0.0
 11
221.901542
 21
5.377999
 31
0.0
  0
LINE
  8
RAAMI
 10
222.157099
 20
5.097999
 30
0.0
 11
219.917099
 21
5.097999
 31
0.0
  0
LINE
  8
RAAMI
 10
219.917099
 20
5.097999
 30
0.0
 11
219.917099
 21
1.737999
 31
0.0
  0
ARC
  8
RAAMI
 10
220.477099
 20
3.837999
 30
0.0
 40
2.1
 50
269.937724
 51
37.056553
  0
LINE
  8
RAAMI
 10
219.917099
 20
1.737999
 30
0.0
 11
220.474817
 21
1.738
 31
0.0
  0
ARC
  8
RAAMI
 10
220.477099
 20
3.837999
 30
0.0
 40
2.1
 50
47.28622
 51
68.787999
  0
INSERT
  8
RAAMI
  2
*X24
 10
210.187099
 20
1.737999
 30
0.0
 41
0.7
 42
0.7
 43
0.7
  0
INSERT
  8
RAAMI
  2
*X25
 10
210.187099
 20
1.737999
 30
0.0
 41
0.7
 42
0.7
 43
0.7
  0
INSERT
  8
RAAMI
  2
*X26
 10
210.187099
 20
1.737999
 30
0.0
 41
0.7
 42
0.7
 43
0.7
  0
INSERT
  8
RAAMI
  2
*X27
 10
210.187099
 20
1.737999
 30
0.0
 41
0.7
 42
0.7
 43
0.7
  0
INSERT
  8
RAAMI
  2
*X27
 10
215.647099
 20
1.737999
 30
0.0
 41
0.7
 42
0.7
 43
0.7
  0
INSERT
  8
RAAMI
  2
*X26
 10
215.647099
 20
1.737999
 30
0.0
 41
0.7
 42
0.7
 43
0.7
  0
INSERT
  8
RAAMI
  2
*X25
 10
215.647099
 20
1.737999
 30
0.0
 41
0.7
 42
0.7
 43
0.7
  0
INSERT
  8
RAAMI
  2
*X24
 10
215.647099
 20
1.737999
 30
0.0
 41
0.7
 42
0.7
 43
0.7
  0
ARC
  8
RAAMI
 10
225.937099
 20
3.837999
 30
0.0
 40
2.1
 50
47.28622
 51
68.787999
  0
LINE
  8
RAAMI
 10
225.377099
 20
1.737999
 30
0.0
 11
225.934817
 21
1.738
 31
0.0
  0
ARC
  8
RAAMI
 10
225.937099
 20
3.837999
 30
0.0
 40
2.1
 50
269.937724
 51
37.056553
  0
LINE
  8
RAAMI
 10
225.377099
 20
5.097999
 30
0.0
 11
225.377099
 21
1.737999
 31
0.0
  0
LINE
  8
RAAMI
 10
227.617099
 20
5.097999
 30
0.0
 11
225.377099
 21
5.097999
 31
0.0
  0
LINE
  8
RAAMI
 10
225.377099
 20
5.377999
 30
0.0
 11
227.361542
 21
5.377999
 31
0.0
  0
LINE
  8
RAAMI
 10
225.377099
 20
8.737999
 30
0.0
 11
225.377099
 21
5.377999
 31
0.0
  0
LINE
  8
RAAMI
 10
225.377099
 20
8.737999
 30
0.0
 11
225.935658
 21
8.737999
 31
0.0
  0
ARC
  8
RAAMI
 10
225.937099
 20
7.162999
 30
0.0
 40
1.575
 50
298.455859
 51
90.052437
  0
LINE
  8
RAAMI
 10
223.137099
 20
5.377999
 30
0.0
 11
223.137099
 21
8.737999
 31
0.0
  0
LINE
  8
RAAMI
 10
225.097099
 20
1.737999
 30
0.0
 11
223.137099
 21
1.737999
 31
0.0
  0
LINE
  8
RAAMI
 10
225.097099
 20
5.097999
 30
0.0
 11
225.097099
 21
1.737999
 31
0.0
  0
LINE
  8
RAAMI
 10
223.137099
 20
5.097999
 30
0.0
 11
225.097099
 21
5.097999
 31
0.0
  0
LINE
  8
RAAMI
 10
225.097099
 20
5.377999
 30
0.0
 11
223.137099
 21
5.377999
 31
0.0
  0
LINE
  8
RAAMI
 10
225.097099
 20
8.737999
 30
0.0
 11
225.097099
 21
5.377999
 31
0.0
  0
LINE
  8
RAAMI
 10
223.137099
 20
8.737999
 30
0.0
 11
225.097099
 21
8.737999
 31
0.0
  0
LINE
  8
RAAMI
 10
223.137099
 20
1.737999
 30
0.0
 11
223.137099
 21
5.097999
 31
0.0
  0
TEXT
  8
RAAMI
 10
229.737099
 20
1.737999
 30
0.0
 40
3.0
  1
ABB 
 41
0.8
  7
ROMANS
  0
TEXT
  8
RAAMI
 10
237.737099
 20
1.737999
 30
0.0
 40
3.0
  1
Strömberg
 41
0.8
  7
ROMANS
  0
LINE
  8
OHUT
 10
282.237099
 20
9.737999
 30
0.0
 11
282.237099
 21
18.237999
 31
0.0
  0
TEXT
  8
RAAMI
 10
27.737099
 20
4.737999
 30
0.0
 40
1.4
  1
MUUTOS
  7
ROMANS
  0
TEXT
  8
RAAMI
 10
27.737099
 20
2.471333
 30
0.0
 40
1.4
  1
REVISION
  7
ROMANS
  0
LINE
  8
OHUT
 10
46.737099
 20
9.237999
 30
0.0
 11
209.237099
 21
9.237999
 31
0.0
  0
LINE
  8
OHUT
 10
46.737099
 20
0.237999
 30
0.0
 11
46.737099
 21
9.237999
 31
0.0
  0
LINE
  8
OHUT
 10
40.737099
 20
4.737999
 30
0.0
 11
209.237099
 21
4.737999
 31
0.0
  0
LINE
  8
OHUT
 10
257.237099
 20
9.737999
 30
0.0
 11
257.237099
 21
35.237999
 31
0.0
  0
LINE
  8
OHUT
 10
271.237099
 20
9.737999
 30
0.0
 11
271.237099
 21
0.237999
 31
0.0
  0
TEXT
  8
RAAMI
 10
210.237099
 20
32.237999
 30
0.0
 40
1.4
  1
TEKI  PREPARED
  7
ROMANS
  0
TEXT
  8
RAAMI
 10
273.237099
 20
7.237999
 30
0.0
 40
1.4
  1
VAST.OSASTO RESP.DEPT.
  7
ROMANS
  0
TEXT
  8
RAAMI
 10
257.407006
 20
1.741783
 30
0.0
 40
3.0
  1
Power
 41
0.8
  7
ROMANS
  0
TEXT
  8
RAAMI
 10
42.237099
 20
1.195292
 30
0.0
 40
2.5
  1
B
  7
ROMANS
  0
TEXT
  8
RAAMI
 10
42.237099
 20
5.587508
 30
0.0
 40
2.5
  1
C
  7
ROMANS
  0
LINE
  8
PAKSU
 10
0.237099
 20
0.237999
 30
0.0
 11
392.237099
 21
0.237999
 31
0.0
  0
LINE
  8
PAKSU
 10
392.237099
 20
262.737999
 30
0.0
 11
392.237099
 21
0.237999
 31
0.0
  0
LINE
  8
PAKSU
 10
0.237099
 20
0.237999
 30
0.0
 11
0.237099
 21
262.737999
 31
0.0
  0
ENDBLK
  8
0
  0
BLOCK
  8
0
  2
*X20
 70
    65
 10
0.0
 20
0.0
 30
0.0
  3
*X
  0
LINE
  8
0
 62
     0
 10
2.284499
 20
6.52714
 30
0.0
 11
4.8
 21
9.042641
 31
0.0
  0
LINE
  8
0
 62
     0
 10
2.379686
 20
6.799104
 30
0.0
 11
4.8
 21
9.219417
 31
0.0
  0
LINE
  8
0
 62
     0
 10
2.474874
 20
7.071068
 30
0.0
 11
4.8
 21
9.396194
 31
0.0
  0
LINE
  8
0
 62
     0
 10
2.570061
 20
7.343032
 30
0.0
 11
4.8
 21
9.572971
 31
0.0
  0
LINE
  8
0
 62
     0
 10
2.665249
 20
7.614996
 30
0.0
 11
4.8
 21
9.749747
 31
0.0
  0
LINE
  8
0
 62
     0
 10
2.760436
 20
7.88696
 30
0.0
 11
4.8
 21
9.926524
 31
0.0
  0
LINE
  8
0
 62
     0
 10
2.855624
 20
8.158924
 30
0.0
 11
4.696699
 21
10.0
 31
0.0
  0
LINE
  8
0
 62
     0
 10
2.950811
 20
8.430889
 30
0.0
 11
4.519922
 21
10.0
 31
0.0
  0
LINE
  8
0
 62
     0
 10
3.045998
 20
8.702853
 30
0.0
 11
4.343146
 21
10.0
 31
0.0
  0
LINE
  8
0
 62
     0
 10
3.141186
 20
8.974817
 30
0.0
 11
4.166369
 21
10.0
 31
0.0
  0
LINE
  8
0
 62
     0
 10
3.236373
 20
9.246781
 30
0.0
 11
3.989592
 21
10.0
 31
0.0
  0
LINE
  8
0
 62
     0
 10
3.331561
 20
9.518745
 30
0.0
 11
3.812816
 21
10.0
 31
0.0
  0
LINE
  8
0
 62
     0
 10
3.426748
 20
9.790709
 30
0.0
 11
3.636039
 21
10.0
 31
0.0
  0
LINE
  8
0
 62
     0
 10
2.189311
 20
6.255175
 30
0.0
 11
4.8
 21
8.865864
 31
0.0
  0
LINE
  8
0
 62
     0
 10
2.094124
 20
5.983211
 30
0.0
 11
4.8
 21
8.689087
 31
0.0
  0
LINE
  8
0
 62
     0
 10
1.998936
 20
5.711247
 30
0.0
 11
4.8
 21
8.512311
 31
0.0
  0
LINE
  8
0
 62
     0
 10
1.903749
 20
5.439283
 30
0.0
 11
4.8
 21
8.335534
 31
0.0
  0
LINE
  8
0
 62
     0
 10
1.841243
 20
5.2
 30
0.0
 11
4.8
 21
8.158757
 31
0.0
  0
LINE
  8
0
 62
     0
 10
2.018019
 20
5.2
 30
0.0
 11
4.8
 21
7.981981
 31
0.0
  0
LINE
  8
0
 62
     0
 10
2.194796
 20
5.2
 30
0.0
 11
4.8
 21
7.805204
 31
0.0
  0
LINE
  8
0
 62
     0
 10
2.371573
 20
5.2
 30
0.0
 11
4.8
 21
7.628427
 31
0.0
  0
LINE
  8
0
 62
     0
 10
2.54835
 20
5.2
 30
0.0
 11
4.8
 21
7.45165
 31
0.0
  0
LINE
  8
0
 62
     0
 10
2.725126
 20
5.2
 30
0.0
 11
4.8
 21
7.274874
 31
0.0
  0
LINE
  8
0
 62
     0
 10
2.901903
 20
5.2
 30
0.0
 11
4.8
 21
7.098097
 31
0.0
  0
LINE
  8
0
 62
     0
 10
3.07868
 20
5.2
 30
0.0
 11
4.8
 21
6.92132
 31
0.0
  0
LINE
  8
0
 62
     0
 10
3.255456
 20
5.2
 30
0.0
 11
4.8
 21
6.744544
 31
0.0
  0
LINE
  8
0
 62
     0
 10
3.432233
 20
5.2
 30
0.0
 11
4.8
 21
6.567767
 31
0.0
  0
LINE
  8
0
 62
     0
 10
3.60901
 20
5.2
 30
0.0
 11
4.8
 21
6.39099
 31
0.0
  0
LINE
  8
0
 62
     0
 10
3.785786
 20
5.2
 30
0.0
 11
4.8
 21
6.214214
 31
0.0
  0
LINE
  8
0
 62
     0
 10
3.962563
 20
5.2
 30
0.0
 11
4.8
 21
6.037437
 31
0.0
  0
LINE
  8
0
 62
     0
 10
4.13934
 20
5.2
 30
0.0
 11
4.8
 21
5.86066
 31
0.0
  0
LINE
  8
0
 62
     0
 10
4.316117
 20
5.2
 30
0.0
 11
4.8
 21
5.683883
 31
0.0
  0
LINE
  8
0
 62
     0
 10
4.492893
 20
5.2
 30
0.0
 11
4.8
 21
5.507107
 31
0.0
  0
LINE
  8
0
 62
     0
 10
4.66967
 20
5.2
 30
0.0
 11
4.8
 21
5.33033
 31
0.0
  0
ENDBLK
  8
0
  0
BLOCK
  8
0
  2
*X21
 70
    65
 10
0.0
 20
0.0
 30
0.0
  3
*X
  0
LINE
  8
0
 62
     0
 10
5.2
 20
6.083883
 30
0.0
 11
7.178252
 21
8.062136
 31
0.0
  0
LINE
  8
0
 62
     0
 10
5.2
 20
6.26066
 30
0.0
 11
7.132421
 21
8.193082
 31
0.0
  0
LINE
  8
0
 62
     0
 10
5.2
 20
6.437437
 30
0.0
 11
7.08659
 21
8.324027
 31
0.0
  0
LINE
  8
0
 62
     0
 10
5.2
 20
6.614214
 30
0.0
 11
7.040759
 21
8.454973
 31
0.0
  0
LINE
  8
0
 62
     0
 10
5.2
 20
6.79099
 30
0.0
 11
6.994928
 21
8.585919
 31
0.0
  0
LINE
  8
0
 62
     0
 10
5.2
 20
6.967767
 30
0.0
 11
6.949097
 21
8.716864
 31
0.0
  0
LINE
  8
0
 62
     0
 10
5.2
 20
7.144544
 30
0.0
 11
6.903266
 21
8.84781
 31
0.0
  0
LINE
  8
0
 62
     0
 10
5.2
 20
7.32132
 30
0.0
 11
6.857435
 21
8.978756
 31
0.0
  0
LINE
  8
0
 62
     0
 10
5.2
 20
7.498097
 30
0.0
 11
6.811604
 21
9.109702
 31
0.0
  0
LINE
  8
0
 62
     0
 10
5.2
 20
7.674874
 30
0.0
 11
6.765773
 21
9.240647
 31
0.0
  0
LINE
  8
0
 62
     0
 10
5.2
 20
7.85165
 30
0.0
 11
6.719942
 21
9.371593
 31
0.0
  0
LINE
  8
0
 62
     0
 10
5.2
 20
8.028427
 30
0.0
 11
6.674111
 21
9.502539
 31
0.0
  0
LINE
  8
0
 62
     0
 10
5.2
 20
8.205204
 30
0.0
 11
6.62828
 21
9.633484
 31
0.0
  0
LINE
  8
0
 62
     0
 10
5.2
 20
8.381981
 30
0.0
 11
6.582449
 21
9.76443
 31
0.0
  0
LINE
  8
0
 62
     0
 10
5.2
 20
8.558757
 30
0.0
 11
6.536619
 21
9.895376
 31
0.0
  0
LINE
  8
0
 62
     0
 10
5.2
 20
8.735534
 30
0.0
 11
6.464466
 21
10.0
 31
0.0
  0
LINE
  8
0
 62
     0
 10
5.2
 20
8.912311
 30
0.0
 11
6.287689
 21
10.0
 31
0.0
  0
LINE
  8
0
 62
     0
 10
5.2
 20
9.089087
 30
0.0
 11
6.110913
 21
10.0
 31
0.0
  0
LINE
  8
0
 62
     0
 10
5.2
 20
9.265864
 30
0.0
 11
5.934136
 21
10.0
 31
0.0
  0
LINE
  8
0
 62
     0
 10
5.2
 20
9.442641
 30
0.0
 11
5.757359
 21
10.0
 31
0.0
  0
LINE
  8
0
 62
     0
 10
5.2
 20
9.619417
 30
0.0
 11
5.580583
 21
10.0
 31
0.0
  0
LINE
  8
0
 62
     0
 10
5.2
 20
9.796194
 30
0.0
 11
5.403806
 21
10.0
 31
0.0
  0
LINE
  8
0
 62
     0
 10
5.2
 20
9.972971
 30
0.0
 11
5.227029
 21
10.0
 31
0.0
  0
LINE
  8
0
 62
     0
 10
5.2
 20
5.907107
 30
0.0
 11
7.224083
 21
7.93119
 31
0.0
  0
LINE
  8
0
 62
     0
 10
5.2
 20
5.73033
 30
0.0
 11
7.269914
 21
7.800245
 31
0.0
  0
LINE
  8
0
 62
     0
 10
5.2
 20
5.553553
 30
0.0
 11
7.315745
 21
7.669299
 31
0.0
  0
LINE
  8
0
 62
     0
 10
5.2
 20
5.376777
 30
0.0
 11
7.361576
 21
7.538353
 31
0.0
  0
LINE
  8
0
 62
     0
 10
5.2
 20
5.2
 30
0.0
 11
7.407407
 21
7.407407
 31
0.0
  0
LINE
  8
0
 62
     0
 10
5.376777
 20
5.2
 30
0.0
 11
7.453238
 21
7.276462
 31
0.0
  0
LINE
  8
0
 62
     0
 10
5.553553
 20
5.2
 30
0.0
 11
7.499069
 21
7.145516
 31
0.0
  0
LINE
  8
0
 62
     0
 10
5.73033
 20
5.2
 30
0.0
 11
7.5449
 21
7.01457
 31
0.0
  0
LINE
  8
0
 62
     0
 10
5.907107
 20
5.2
 30
0.0
 11
7.590731
 21
6.883625
 31
0.0
  0
LINE
  8
0
 62
     0
 10
6.083883
 20
5.2
 30
0.0
 11
7.636562
 21
6.752679
 31
0.0
  0
LINE
  8
0
 62
     0
 10
6.26066
 20
5.2
 30
0.0
 11
7.682393
 21
6.621733
 31
0.0
  0
LINE
  8
0
 62
     0
 10
6.437437
 20
5.2
 30
0.0
 11
7.728224
 21
6.490788
 31
0.0
  0
LINE
  8
0
 62
     0
 10
6.614214
 20
5.2
 30
0.0
 11
7.774055
 21
6.359842
 31
0.0
  0
LINE
  8
0
 62
     0
 10
6.79099
 20
5.2
 30
0.0
 11
7.819886
 21
6.228896
 31
0.0
  0
LINE
  8
0
 62
     0
 10
6.967767
 20
5.2
 30
0.0
 11
7.865717
 21
6.09795
 31
0.0
  0
LINE
  8
0
 62
     0
 10
7.144544
 20
5.2
 30
0.0
 11
7.911548
 21
5.967005
 31
0.0
  0
LINE
  8
0
 62
     0
 10
7.32132
 20
5.2
 30
0.0
 11
7.957379
 21
5.836059
 31
0.0
  0
LINE
  8
0
 62
     0
 10
7.498097
 20
5.2
 30
0.0
 11
8.00321
 21
5.705113
 31
0.0
  0
LINE
  8
0
 62
     0
 10
7.674874
 20
5.2
 30
0.0
 11
8.049041
 21
5.574168
 31
0.0
  0
LINE
  8
0
 62
     0
 10
7.85165
 20
5.2
 30
0.0
 11
8.094872
 21
5.443222
 31
0.0
  0
LINE
  8
0
 62
     0
 10
8.028427
 20
5.2
 30
0.0
 11
8.140703
 21
5.312276
 31
0.0
  0
ENDBLK
  8
0
  0
BLOCK
  8
0
  2
*X22
 70
    65
 10
0.0
 20
0.0
 30
0.0
  3
*X
  0
LINE
  8
0
 62
     0
 10
0.0
 20
0.0
 30
0.0
 11
4.8
 21
4.8
 31
0.0
  0
LINE
  8
0
 62
     0
 10
0.095187
 20
0.271964
 30
0.0
 11
4.623223
 21
4.8
 31
0.0
  0
LINE
  8
0
 62
     0
 10
0.190375
 20
0.543928
 30
0.0
 11
4.446447
 21
4.8
 31
0.0
  0
LINE
  8
0
 62
     0
 10
0.285562
 20
0.815892
 30
0.0
 11
4.26967
 21
4.8
 31
0.0
  0
LINE
  8
0
 62
     0
 10
0.38075
 20
1.087857
 30
0.0
 11
4.092893
 21
4.8
 31
0.0
  0
LINE
  8
0
 62
     0
 10
0.475937
 20
1.359821
 30
0.0
 11
3.916117
 21
4.8
 31
0.0
  0
LINE
  8
0
 62
     0
 10
0.571125
 20
1.631785
 30
0.0
 11
3.73934
 21
4.8
 31
0.0
  0
LINE
  8
0
 62
     0
 10
0.666312
 20
1.903749
 30
0.0
 11
3.562563
 21
4.8
 31
0.0
  0
LINE
  8
0
 62
     0
 10
0.7615
 20
2.175713
 30
0.0
 11
3.385786
 21
4.8
 31
0.0
  0
LINE
  8
0
 62
     0
 10
0.856687
 20
2.447677
 30
0.0
 11
3.20901
 21
4.8
 31
0.0
  0
LINE
  8
0
 62
     0
 10
0.951875
 20
2.719641
 30
0.0
 11
3.032233
 21
4.8
 31
0.0
  0
LINE
  8
0
 62
     0
 10
1.047062
 20
2.991606
 30
0.0
 11
2.855456
 21
4.8
 31
0.0
  0
LINE
  8
0
 62
     0
 10
1.142249
 20
3.26357
 30
0.0
 11
2.67868
 21
4.8
 31
0.0
  0
LINE
  8
0
 62
     0
 10
1.237437
 20
3.535534
 30
0.0
 11
2.501903
 21
4.8
 31
0.0
  0
LINE
  8
0
 62
     0
 10
1.332624
 20
3.807498
 30
0.0
 11
2.325126
 21
4.8
 31
0.0
  0
LINE
  8
0
 62
     0
 10
1.427812
 20
4.079462
 30
0.0
 11
2.14835
 21
4.8
 31
0.0
  0
LINE
  8
0
 62
     0
 10
1.522999
 20
4.351426
 30
0.0
 11
1.971573
 21
4.8
 31
0.0
  0
LINE
  8
0
 62
     0
 10
1.618187
 20
4.62339
 30
0.0
 11
1.794796
 21
4.8
 31
0.0
  0
LINE
  8
0
 62
     0
 10
0.176777
 20
0.0
 30
0.0
 11
4.8
 21
4.623223
 31
0.0
  0
LINE
  8
0
 62
     0
 10
0.353553
 20
0.0
 30
0.0
 11
4.8
 21
4.446447
 31
0.0
  0
LINE
  8
0
 62
     0
 10
0.53033
 20
0.0
 30
0.0
 11
4.8
 21
4.26967
 31
0.0
  0
LINE
  8
0
 62
     0
 10
0.707107
 20
0.0
 30
0.0
 11
4.8
 21
4.092893
 31
0.0
  0
LINE
  8
0
 62
     0
 10
0.883883
 20
0.0
 30
0.0
 11
4.8
 21
3.916117
 31
0.0
  0
LINE
  8
0
 62
     0
 10
1.06066
 20
0.0
 30
0.0
 11
4.8
 21
3.73934
 31
0.0
  0
LINE
  8
0
 62
     0
 10
1.237437
 20
0.0
 30
0.0
 11
3.179842
 21
1.942405
 31
0.0
  0
LINE
  8
0
 62
     0
 10
3.237437
 20
2.0
 30
0.0
 11
4.8
 21
3.562563
 31
0.0
  0
LINE
  8
0
 62
     0
 10
1.414214
 20
0.0
 30
0.0
 11
3.084654
 21
1.670441
 31
0.0
  0
LINE
  8
0
 62
     0
 10
3.414214
 20
2.0
 30
0.0
 11
4.8
 21
3.385786
 31
0.0
  0
LINE
  8
0
 62
     0
 10
1.59099
 20
0.0
 30
0.0
 11
2.989467
 21
1.398477
 31
0.0
  0
LINE
  8
0
 62
     0
 10
3.59099
 20
2.0
 30
0.0
 11
4.8
 21
3.20901
 31
0.0
  0
LINE
  8
0
 62
     0
 10
1.767767
 20
0.0
 30
0.0
 11
2.894279
 21
1.126512
 31
0.0
  0
LINE
  8
0
 62
     0
 10
3.767767
 20
2.0
 30
0.0
 11
4.8
 21
3.032233
 31
0.0
  0
LINE
  8
0
 62
     0
 10
1.944544
 20
0.0
 30
0.0
 11
2.799092
 21
0.854548
 31
0.0
  0
LINE
  8
0
 62
     0
 10
3.944544
 20
2.0
 30
0.0
 11
4.8
 21
2.855456
 31
0.0
  0
LINE
  8
0
 62
     0
 10
2.12132
 20
0.0
 30
0.0
 11
2.703904
 21
0.582584
 31
0.0
  0
LINE
  8
0
 62
     0
 10
4.12132
 20
2.0
 30
0.0
 11
4.8
 21
2.67868
 31
0.0
  0
LINE
  8
0
 62
     0
 10
2.298097
 20
0.0
 30
0.0
 11
2.608717
 21
0.31062
 31
0.0
  0
LINE
  8
0
 62
     0
 10
4.298097
 20
2.0
 30
0.0
 11
4.8
 21
2.501903
 31
0.0
  0
LINE
  8
0
 62
     0
 10
2.474874
 20
0.0
 30
0.0
 11
2.51353
 21
0.038656
 31
0.0
  0
LINE
  8
0
 62
     0
 10
4.474874
 20
2.0
 30
0.0
 11
4.8
 21
2.325126
 31
0.0
  0
LINE
  8
0
 62
     0
 10
4.65165
 20
2.0
 30
0.0
 11
4.8
 21
2.14835
 31
0.0
  0
ENDBLK
  8
0
  0
BLOCK
  8
0
  2
*X23
 70
    65
 10
0.0
 20
0.0
 30
0.0
  3
*X
  0
LINE
  8
0
 62
     0
 10
6.884654
 20
1.75813
 30
0.0
 11
8.736506
 21
3.609982
 31
0.0
  0
LINE
  8
0
 62
     0
 10
6.838823
 20
1.889076
 30
0.0
 11
8.690675
 21
3.740928
 31
0.0
  0
LINE
  8
0
 62
     0
 10
6.772971
 20
2.0
 30
0.0
 11
8.644844
 21
3.871874
 31
0.0
  0
LINE
  8
0
 62
     0
 10
6.596194
 20
2.0
 30
0.0
 11
8.599013
 21
4.002819
 31
0.0
  0
LINE
  8
0
 62
     0
 10
6.419417
 20
2.0
 30
0.0
 11
8.553182
 21
4.133765
 31
0.0
  0
LINE
  8
0
 62
     0
 10
6.242641
 20
2.0
 30
0.0
 11
8.507351
 21
4.264711
 31
0.0
  0
LINE
  8
0
 62
     0
 10
6.065864
 20
2.0
 30
0.0
 11
8.46152
 21
4.395656
 31
0.0
  0
LINE
  8
0
 62
     0
 10
5.889087
 20
2.0
 30
0.0
 11
8.415689
 21
4.526602
 31
0.0
  0
LINE
  8
0
 62
     0
 10
5.712311
 20
2.0
 30
0.0
 11
8.369858
 21
4.657548
 31
0.0
  0
LINE
  8
0
 62
     0
 10
5.535534
 20
2.0
 30
0.0
 11
8.324027
 21
4.788493
 31
0.0
  0
LINE
  8
0
 62
     0
 10
5.358757
 20
2.0
 30
0.0
 11
8.158757
 21
4.8
 31
0.0
  0
LINE
  8
0
 62
     0
 10
5.2
 20
2.018019
 30
0.0
 11
7.981981
 21
4.8
 31
0.0
  0
LINE
  8
0
 62
     0
 10
5.2
 20
2.194796
 30
0.0
 11
7.805204
 21
4.8
 31
0.0
  0
LINE
  8
0
 62
     0
 10
5.2
 20
2.371573
 30
0.0
 11
7.628427
 21
4.8
 31
0.0
  0
LINE
  8
0
 62
     0
 10
5.2
 20
2.54835
 30
0.0
 11
7.45165
 21
4.8
 31
0.0
  0
LINE
  8
0
 62
     0
 10
5.2
 20
2.725126
 30
0.0
 11
7.274874
 21
4.8
 31
0.0
  0
LINE
  8
0
 62
     0
 10
5.2
 20
2.901903
 30
0.0
 11
7.098097
 21
4.8
 31
0.0
  0
LINE
  8
0
 62
     0
 10
5.2
 20
3.07868
 30
0.0
 11
6.92132
 21
4.8
 31
0.0
  0
LINE
  8
0
 62
     0
 10
5.2
 20
3.255456
 30
0.0
 11
6.744544
 21
4.8
 31
0.0
  0
LINE
  8
0
 62
     0
 10
5.2
 20
3.432233
 30
0.0
 11
6.567767
 21
4.8
 31
0.0
  0
LINE
  8
0
 62
     0
 10
5.2
 20
3.60901
 30
0.0
 11
6.39099
 21
4.8
 31
0.0
  0
LINE
  8
0
 62
     0
 10
5.2
 20
3.785786
 30
0.0
 11
6.214214
 21
4.8
 31
0.0
  0
LINE
  8
0
 62
     0
 10
5.2
 20
3.962563
 30
0.0
 11
6.037437
 21
4.8
 31
0.0
  0
LINE
  8
0
 62
     0
 10
5.2
 20
4.13934
 30
0.0
 11
5.86066
 21
4.8
 31
0.0
  0
LINE
  8
0
 62
     0
 10
5.2
 20
4.316117
 30
0.0
 11
5.683883
 21
4.8
 31
0.0
  0
LINE
  8
0
 62
     0
 10
5.2
 20
4.492893
 30
0.0
 11
5.507107
 21
4.8
 31
0.0
  0
LINE
  8
0
 62
     0
 10
5.2
 20
4.66967
 30
0.0
 11
5.33033
 21
4.8
 31
0.0
  0
LINE
  8
0
 62
     0
 10
6.930485
 20
1.627185
 30
0.0
 11
8.782337
 21
3.479036
 31
0.0
  0
LINE
  8
0
 62
     0
 10
6.976316
 20
1.496239
 30
0.0
 11
8.828168
 21
3.348091
 31
0.0
  0
LINE
  8
0
 62
     0
 10
7.022147
 20
1.365293
 30
0.0
 11
8.873999
 21
3.217145
 31
0.0
  0
LINE
  8
0
 62
     0
 10
7.067978
 20
1.234347
 30
0.0
 11
8.91983
 21
3.086199
 31
0.0
  0
LINE
  8
0
 62
     0
 10
7.113809
 20
1.103402
 30
0.0
 11
8.965661
 21
2.955254
 31
0.0
  0
LINE
  8
0
 62
     0
 10
7.15964
 20
0.972456
 30
0.0
 11
9.011492
 21
2.824308
 31
0.0
  0
LINE
  8
0
 62
     0
 10
7.205471
 20
0.84151
 30
0.0
 11
9.057323
 21
2.693362
 31
0.0
  0
LINE
  8
0
 62
     0
 10
7.251302
 20
0.710565
 30
0.0
 11
9.103154
 21
2.562416
 31
0.0
  0
LINE
  8
0
 62
     0
 10
7.297133
 20
0.579619
 30
0.0
 11
9.148985
 21
2.431471
 31
0.0
  0
LINE
  8
0
 62
     0
 10
7.342964
 20
0.448673
 30
0.0
 11
9.194816
 21
2.300525
 31
0.0
  0
LINE
  8
0
 62
     0
 10
7.388795
 20
0.317728
 30
0.0
 11
9.240647
 21
2.169579
 31
0.0
  0
LINE
  8
0
 62
     0
 10
7.434626
 20
0.186782
 30
0.0
 11
9.286478
 21
2.038634
 31
0.0
  0
LINE
  8
0
 62
     0
 10
7.480457
 20
0.055836
 30
0.0
 11
9.332309
 21
1.907688
 31
0.0
  0
LINE
  8
0
 62
     0
 10
7.601398
 20
0.0
 30
0.0
 11
9.37814
 21
1.776742
 31
0.0
  0
LINE
  8
0
 62
     0
 10
7.778175
 20
0.0
 30
0.0
 11
9.423971
 21
1.645797
 31
0.0
  0
LINE
  8
0
 62
     0
 10
7.954951
 20
0.0
 30
0.0
 11
9.469802
 21
1.514851
 31
0.0
  0
LINE
  8
0
 62
     0
 10
8.131728
 20
0.0
 30
0.0
 11
9.515633
 21
1.383905
 31
0.0
  0
LINE
  8
0
 62
     0
 10
8.308505
 20
0.0
 30
0.0
 11
9.561464
 21
1.252959
 31
0.0
  0
LINE
  8
0
 62
     0
 10
8.485281
 20
0.0
 30
0.0
 11
9.607295
 21
1.122014
 31
0.0
  0
LINE
  8
0
 62
     0
 10
8.662058
 20
0.0
 30
0.0
 11
9.653126
 21
0.991068
 31
0.0
  0
LINE
  8
0
 62
     0
 10
8.838835
 20
0.0
 30
0.0
 11
9.698957
 21
0.860122
 31
0.0
  0
LINE
  8
0
 62
     0
 10
9.015611
 20
0.0
 30
0.0
 11
9.744788
 21
0.729177
 31
0.0
  0
LINE
  8
0
 62
     0
 10
9.192388
 20
0.0
 30
0.0
 11
9.790619
 21
0.598231
 31
0.0
  0
LINE
  8
0
 62
     0
 10
9.369165
 20
0.0
 30
0.0
 11
9.83645
 21
0.467285
 31
0.0
  0
LINE
  8
0
 62
     0
 10
9.545942
 20
0.0
 30
0.0
 11
9.882281
 21
0.33634
 31
0.0
  0
LINE
  8
0
 62
     0
 10
9.722718
 20
0.0
 30
0.0
 11
9.928112
 21
0.205394
 31
0.0
  0
LINE
  8
0
 62
     0
 10
9.899495
 20
0.0
 30
0.0
 11
9.973943
 21
0.074448
 31
0.0
  0
ENDBLK
  8
0
  0
BLOCK
  8
0
  2
*X24
 70
    65
 10
0.0
 20
0.0
 30
0.0
  3
*X
  0
LINE
  8
0
 62
     0
 10
10.7
 20
6.280583
 30
0.0
 11
13.5
 21
9.080583
 31
0.0
  0
LINE
  8
0
 62
     0
 10
10.7
 20
6.457359
 30
0.0
 11
13.5
 21
9.257359
 31
0.0
  0
LINE
  8
0
 62
     0
 10
10.7
 20
6.634136
 30
0.0
 11
13.5
 21
9.434136
 31
0.0
  0
LINE
  8
0
 62
     0
 10
10.7
 20
6.810913
 30
0.0
 11
13.5
 21
9.610913
 31
0.0
  0
LINE
  8
0
 62
     0
 10
10.7
 20
6.987689
 30
0.0
 11
13.5
 21
9.787689
 31
0.0
  0
LINE
  8
0
 62
     0
 10
10.7
 20
7.164466
 30
0.0
 11
13.5
 21
9.964466
 31
0.0
  0
LINE
  8
0
 62
     0
 10
10.7
 20
7.341243
 30
0.0
 11
13.358757
 21
10.0
 31
0.0
  0
LINE
  8
0
 62
     0
 10
10.7
 20
7.518019
 30
0.0
 11
13.181981
 21
10.0
 31
0.0
  0
LINE
  8
0
 62
     0
 10
10.7
 20
7.694796
 30
0.0
 11
13.005204
 21
10.0
 31
0.0
  0
LINE
  8
0
 62
     0
 10
10.7
 20
7.871573
 30
0.0
 11
12.828427
 21
10.0
 31
0.0
  0
LINE
  8
0
 62
     0
 10
10.7
 20
8.04835
 30
0.0
 11
12.65165
 21
10.0
 31
0.0
  0
LINE
  8
0
 62
     0
 10
10.7
 20
8.225126
 30
0.0
 11
12.474874
 21
10.0
 31
0.0
  0
LINE
  8
0
 62
     0
 10
10.7
 20
8.401903
 30
0.0
 11
12.298097
 21
10.0
 31
0.0
  0
LINE
  8
0
 62
     0
 10
10.7
 20
8.57868
 30
0.0
 11
12.12132
 21
10.0
 31
0.0
  0
LINE
  8
0
 62
     0
 10
10.7
 20
8.755456
 30
0.0
 11
11.944544
 21
10.0
 31
0.0
  0
LINE
  8
0
 62
     0
 10
10.7
 20
8.932233
 30
0.0
 11
11.767767
 21
10.0
 31
0.0
  0
LINE
  8
0
 62
     0
 10
10.7
 20
9.10901
 30
0.0
 11
11.59099
 21
10.0
 31
0.0
  0
LINE
  8
0
 62
     0
 10
10.7
 20
9.285786
 30
0.0
 11
11.414214
 21
10.0
 31
0.0
  0
LINE
  8
0
 62
     0
 10
10.7
 20
9.462563
 30
0.0
 11
11.237437
 21
10.0
 31
0.0
  0
LINE
  8
0
 62
     0
 10
10.7
 20
9.63934
 30
0.0
 11
11.06066
 21
10.0
 31
0.0
  0
LINE
  8
0
 62
     0
 10
10.7
 20
9.816117
 30
0.0
 11
10.883883
 21
10.0
 31
0.0
  0
LINE
  8
0
 62
     0
 10
10.7
 20
9.992893
 30
0.0
 11
10.707107
 21
10.0
 31
0.0
  0
LINE
  8
0
 62
     0
 10
10.7
 20
6.103806
 30
0.0
 11
13.5
 21
8.903806
 31
0.0
  0
LINE
  8
0
 62
     0
 10
10.7
 20
5.927029
 30
0.0
 11
13.5
 21
8.727029
 31
0.0
  0
LINE
  8
0
 62
     0
 10
10.7
 20
5.750253
 30
0.0
 11
13.5
 21
8.550253
 31
0.0
  0
LINE
  8
0
 62
     0
 10
10.7
 20
5.573476
 30
0.0
 11
13.5
 21
8.373476
 31
0.0
  0
LINE
  8
0
 62
     0
 10
10.7
 20
5.396699
 30
0.0
 11
13.5
 21
8.196699
 31
0.0
  0
LINE
  8
0
 62
     0
 10
10.7
 20
5.219922
 30
0.0
 11
13.5
 21
8.019922
 31
0.0
  0
LINE
  8
0
 62
     0
 10
10.856854
 20
5.2
 30
0.0
 11
13.5
 21
7.843146
 31
0.0
  0
LINE
  8
0
 62
     0
 10
11.033631
 20
5.2
 30
0.0
 11
13.5
 21
7.666369
 31
0.0
  0
LINE
  8
0
 62
     0
 10
11.210408
 20
5.2
 30
0.0
 11
13.5
 21
7.489592
 31
0.0
  0
LINE
  8
0
 62
     0
 10
11.387184
 20
5.2
 30
0.0
 11
13.5
 21
7.312816
 31
0.0
  0
LINE
  8
0
 62
     0
 10
11.563961
 20
5.2
 30
0.0
 11
13.5
 21
7.136039
 31
0.0
  0
LINE
  8
0
 62
     0
 10
11.740738
 20
5.2
 30
0.0
 11
13.5
 21
6.959262
 31
0.0
  0
LINE
  8
0
 62
     0
 10
11.917514
 20
5.2
 30
0.0
 11
13.5
 21
6.782486
 31
0.0
  0
LINE
  8
0
 62
     0
 10
12.094291
 20
5.2
 30
0.0
 11
13.5
 21
6.605709
 31
0.0
  0
LINE
  8
0
 62
     0
 10
12.271068
 20
5.2
 30
0.0
 11
13.5
 21
6.428932
 31
0.0
  0
LINE
  8
0
 62
     0
 10
12.447845
 20
5.2
 30
0.0
 11
13.5
 21
6.252155
 31
0.0
  0
LINE
  8
0
 62
     0
 10
12.624621
 20
5.2
 30
0.0
 11
13.5
 21
6.075379
 31
0.0
  0
LINE
  8
0
 62
     0
 10
12.801398
 20
5.2
 30
0.0
 11
13.5
 21
5.898602
 31
0.0
  0
LINE
  8
0
 62
     0
 10
12.978175
 20
5.2
 30
0.0
 11
13.5
 21
5.721825
 31
0.0
  0
LINE
  8
0
 62
     0
 10
13.154951
 20
5.2
 30
0.0
 11
13.5
 21
5.545049
 31
0.0
  0
LINE
  8
0
 62
     0
 10
13.331728
 20
5.2
 30
0.0
 11
13.5
 21
5.368272
 31
0.0
  0
ENDBLK
  8
0
  0
BLOCK
  8
0
  2
*X25
 70
    65
 10
0.0
 20
0.0
 30
0.0
  3
*X
  0
LINE
  8
0
 62
     0
 10
10.7
 20
1.154058
 30
0.0
 11
13.5
 21
3.954058
 31
0.0
  0
LINE
  8
0
 62
     0
 10
10.7
 20
1.330835
 30
0.0
 11
13.5
 21
4.130835
 31
0.0
  0
LINE
  8
0
 62
     0
 10
10.7
 20
1.507612
 30
0.0
 11
13.5
 21
4.307612
 31
0.0
  0
LINE
  8
0
 62
     0
 10
10.7
 20
1.684389
 30
0.0
 11
13.5
 21
4.484389
 31
0.0
  0
LINE
  8
0
 62
     0
 10
10.7
 20
1.861165
 30
0.0
 11
13.5
 21
4.661165
 31
0.0
  0
LINE
  8
0
 62
     0
 10
10.7
 20
2.037942
 30
0.0
 11
13.462058
 21
4.8
 31
0.0
  0
LINE
  8
0
 62
     0
 10
10.7
 20
2.214719
 30
0.0
 11
13.285281
 21
4.8
 31
0.0
  0
LINE
  8
0
 62
     0
 10
10.7
 20
2.391495
 30
0.0
 11
13.108505
 21
4.8
 31
0.0
  0
LINE
  8
0
 62
     0
 10
10.7
 20
2.568272
 30
0.0
 11
12.931728
 21
4.8
 31
0.0
  0
LINE
  8
0
 62
     0
 10
10.7
 20
2.745049
 30
0.0
 11
12.754951
 21
4.8
 31
0.0
  0
LINE
  8
0
 62
     0
 10
10.7
 20
2.921825
 30
0.0
 11
12.578175
 21
4.8
 31
0.0
  0
LINE
  8
0
 62
     0
 10
10.7
 20
3.098602
 30
0.0
 11
12.401398
 21
4.8
 31
0.0
  0
LINE
  8
0
 62
     0
 10
10.7
 20
3.275379
 30
0.0
 11
12.224621
 21
4.8
 31
0.0
  0
LINE
  8
0
 62
     0
 10
10.7
 20
3.452155
 30
0.0
 11
12.047845
 21
4.8
 31
0.0
  0
LINE
  8
0
 62
     0
 10
10.7
 20
3.628932
 30
0.0
 11
11.871068
 21
4.8
 31
0.0
  0
LINE
  8
0
 62
     0
 10
10.7
 20
3.805709
 30
0.0
 11
11.694291
 21
4.8
 31
0.0
  0
LINE
  8
0
 62
     0
 10
10.7
 20
3.982486
 30
0.0
 11
11.517514
 21
4.8
 31
0.0
  0
LINE
  8
0
 62
     0
 10
10.7
 20
4.159262
 30
0.0
 11
11.340738
 21
4.8
 31
0.0
  0
LINE
  8
0
 62
     0
 10
10.7
 20
4.336039
 30
0.0
 11
11.163961
 21
4.8
 31
0.0
  0
LINE
  8
0
 62
     0
 10
10.7
 20
4.512816
 30
0.0
 11
10.987184
 21
4.8
 31
0.0
  0
LINE
  8
0
 62
     0
 10
10.7
 20
4.689592
 30
0.0
 11
10.810408
 21
4.8
 31
0.0
  0
LINE
  8
0
 62
     0
 10
10.7
 20
0.977282
 30
0.0
 11
13.5
 21
3.777282
 31
0.0
  0
LINE
  8
0
 62
     0
 10
10.7
 20
0.800505
 30
0.0
 11
13.5
 21
3.600505
 31
0.0
  0
LINE
  8
0
 62
     0
 10
10.7
 20
0.623728
 30
0.0
 11
13.5
 21
3.423728
 31
0.0
  0
LINE
  8
0
 62
     0
 10
10.7
 20
0.446952
 30
0.0
 11
13.5
 21
3.246952
 31
0.0
  0
LINE
  8
0
 62
     0
 10
10.7
 20
0.270175
 30
0.0
 11
13.5
 21
3.070175
 31
0.0
  0
LINE
  8
0
 62
     0
 10
10.7
 20
0.093398
 30
0.0
 11
13.5
 21
2.893398
 31
0.0
  0
LINE
  8
0
 62
     0
 10
10.783378
 20
0.0
 30
0.0
 11
13.5
 21
2.716622
 31
0.0
  0
LINE
  8
0
 62
     0
 10
10.960155
 20
0.0
 30
0.0
 11
13.5
 21
2.539845
 31
0.0
  0
LINE
  8
0
 62
     0
 10
11.136932
 20
0.0
 30
0.0
 11
13.5
 21
2.363068
 31
0.0
  0
LINE
  8
0
 62
     0
 10
11.313708
 20
0.0
 30
0.0
 11
13.5
 21
2.186292
 31
0.0
  0
LINE
  8
0
 62
     0
 10
11.490485
 20
0.0
 30
0.0
 11
13.5
 21
2.009515
 31
0.0
  0
LINE
  8
0
 62
     0
 10
11.667262
 20
0.0
 30
0.0
 11
13.5
 21
1.832738
 31
0.0
  0
LINE
  8
0
 62
     0
 10
11.844039
 20
0.0
 30
0.0
 11
13.5
 21
1.655961
 31
0.0
  0
LINE
  8
0
 62
     0
 10
12.020815
 20
0.0
 30
0.0
 11
13.5
 21
1.479185
 31
0.0
  0
LINE
  8
0
 62
     0
 10
12.197592
 20
0.0
 30
0.0
 11
13.5
 21
1.302408
 31
0.0
  0
LINE
  8
0
 62
     0
 10
12.374369
 20
0.0
 30
0.0
 11
13.5
 21
1.125631
 31
0.0
  0
LINE
  8
0
 62
     0
 10
12.551145
 20
0.0
 30
0.0
 11
13.5
 21
0.948855
 31
0.0
  0
LINE
  8
0
 62
     0
 10
12.727922
 20
0.0
 30
0.0
 11
13.5
 21
0.772078
 31
0.0
  0
LINE
  8
0
 62
     0
 10
12.904699
 20
0.0
 30
0.0
 11
13.5
 21
0.595301
 31
0.0
  0
LINE
  8
0
 62
     0
 10
13.081475
 20
0.0
 30
0.0
 11
13.5
 21
0.418525
 31
0.0
  0
LINE
  8
0
 62
     0
 10
13.258252
 20
0.0
 30
0.0
 11
13.5
 21
0.241748
 31
0.0
  0
LINE
  8
0
 62
     0
 10
13.435029
 20
0.0
 30
0.0
 11
13.5
 21
0.064971
 31
0.0
  0
ENDBLK
  8
0
  0
BLOCK
  8
0
  2
*X26
 70
    65
 10
0.0
 20
0.0
 30
0.0
  3
*X
  0
LINE
  8
0
 62
     0
 10
13.9
 20
6.298602
 30
0.0
 11
16.582995
 21
8.981597
 31
0.0
  0
LINE
  8
0
 62
     0
 10
13.9
 20
6.475379
 30
0.0
 11
16.510503
 21
9.085882
 31
0.0
  0
LINE
  8
0
 62
     0
 10
13.9
 20
6.652155
 30
0.0
 11
16.432927
 21
9.185083
 31
0.0
  0
LINE
  8
0
 62
     0
 10
13.9
 20
6.828932
 30
0.0
 11
16.350372
 21
9.279304
 31
0.0
  0
LINE
  8
0
 62
     0
 10
13.9
 20
7.005709
 30
0.0
 11
16.262892
 21
9.368601
 31
0.0
  0
LINE
  8
0
 62
     0
 10
13.9
 20
7.182486
 30
0.0
 11
16.170495
 21
9.452981
 31
0.0
  0
LINE
  8
0
 62
     0
 10
13.9
 20
7.359262
 30
0.0
 11
16.073145
 21
9.532407
 31
0.0
  0
LINE
  8
0
 62
     0
 10
13.9
 20
7.536039
 30
0.0
 11
15.970755
 21
9.606794
 31
0.0
  0
LINE
  8
0
 62
     0
 10
13.9
 20
7.712816
 30
0.0
 11
15.863189
 21
9.676004
 31
0.0
  0
LINE
  8
0
 62
     0
 10
13.9
 20
7.889592
 30
0.0
 11
15.75025
 21
9.739843
 31
0.0
  0
LINE
  8
0
 62
     0
 10
13.9
 20
8.066369
 30
0.0
 11
15.631675
 21
9.798044
 31
0.0
  0
LINE
  8
0
 62
     0
 10
13.9
 20
8.243146
 30
0.0
 11
15.50711
 21
9.850256
 31
0.0
  0
LINE
  8
0
 62
     0
 10
13.9
 20
8.419922
 30
0.0
 11
15.376096
 21
9.896018
 31
0.0
  0
LINE
  8
0
 62
     0
 10
13.9
 20
8.596699
 30
0.0
 11
15.238027
 21
9.934726
 31
0.0
  0
LINE
  8
0
 62
     0
 10
13.9
 20
8.773476
 30
0.0
 11
15.092096
 21
9.965572
 31
0.0
  0
LINE
  8
0
 62
     0
 10
13.9
 20
8.950253
 30
0.0
 11
14.937209
 21
9.987461
 31
0.0
  0
LINE
  8
0
 62
     0
 10
13.9
 20
9.127029
 30
0.0
 11
14.771824
 21
9.998853
 31
0.0
  0
LINE
  8
0
 62
     0
 10
13.9
 20
9.303806
 30
0.0
 11
14.596193
 21
9.999999
 31
0.0
  0
LINE
  8
0
 62
     0
 10
13.9
 20
9.480583
 30
0.0
 11
14.419417
 21
9.999999
 31
0.0
  0
LINE
  8
0
 62
     0
 10
13.9
 20
9.657359
 30
0.0
 11
14.24264
 21
10.0
 31
0.0
  0
LINE
  8
0
 62
     0
 10
13.9
 20
9.834136
 30
0.0
 11
14.065864
 21
10.0
 31
0.0
  0
LINE
  8
0
 62
     0
 10
13.9
 20
6.121825
 30
0.0
 11
16.650245
 21
8.872071
 31
0.0
  0
LINE
  8
0
 62
     0
 10
13.9
 20
5.945049
 30
0.0
 11
16.712035
 21
8.757083
 31
0.0
  0
LINE
  8
0
 62
     0
 10
13.9
 20
5.768272
 30
0.0
 11
16.768067
 21
8.636339
 31
0.0
  0
LINE
  8
0
 62
     0
 10
13.9
 20
5.591495
 30
0.0
 11
16.817955
 21
8.509451
 31
0.0
  0
LINE
  8
0
 62
     0
 10
13.9
 20
5.414719
 30
0.0
 11
16.861189
 21
8.375908
 31
0.0
  0
LINE
  8
0
 62
     0
 10
13.9
 20
5.237942
 30
0.0
 11
16.897097
 21
8.235039
 31
0.0
  0
LINE
  8
0
 62
     0
 10
14.038835
 20
5.2
 30
0.0
 11
16.924779
 21
8.085944
 31
0.0
  0
LINE
  8
0
 62
     0
 10
14.215611
 20
5.2
 30
0.0
 11
16.942997
 21
7.927385
 31
0.0
  0
LINE
  8
0
 62
     0
 10
14.392388
 20
5.2
 30
0.0
 11
16.949987
 21
7.757599
 31
0.0
  0
LINE
  8
0
 62
     0
 10
14.569165
 20
5.2
 30
0.0
 11
16.943101
 21
7.573936
 31
0.0
  0
LINE
  8
0
 62
     0
 10
14.745942
 20
5.2
 30
0.0
 11
16.918037
 21
7.372095
 31
0.0
  0
LINE
  8
0
 62
     0
 10
14.922718
 20
5.2
 30
0.0
 11
16.866909
 21
7.144191
 31
0.0
  0
LINE
  8
0
 62
     0
 10
15.099495
 20
5.2
 30
0.0
 11
16.771715
 21
6.87222
 31
0.0
  0
LINE
  8
0
 62
     0
 10
15.276272
 20
5.2
 30
0.0
 11
15.847951
 21
5.77168
 31
0.0
  0
LINE
  8
0
 62
     0
 10
15.96673
 20
5.890458
 30
0.0
 11
16.559542
 21
6.48327
 31
0.0
  0
LINE
  8
0
 62
     0
 10
15.453048
 20
5.2
 30
0.0
 11
15.970661
 21
5.717613
 31
0.0
  0
LINE
  8
0
 62
     0
 10
15.629825
 20
5.2
 30
0.0
 11
16.088934
 21
5.659109
 31
0.0
  0
LINE
  8
0
 62
     0
 10
15.806602
 20
5.2
 30
0.0
 11
16.202964
 21
5.596363
 31
0.0
  0
LINE
  8
0
 62
     0
 10
15.983378
 20
5.2
 30
0.0
 11
16.312909
 21
5.529531
 31
0.0
  0
LINE
  8
0
 62
     0
 10
16.160155
 20
5.2
 30
0.0
 11
16.418895
 21
5.45874
 31
0.0
  0
LINE
  8
0
 62
     0
 10
16.336932
 20
5.2
 30
0.0
 11
16.521021
 21
5.384089
 31
0.0
  0
LINE
  8
0
 62
     0
 10
16.513708
 20
5.2
 30
0.0
 11
16.619363
 21
5.305655
 31
0.0
  0
LINE
  8
0
 62
     0
 10
16.690485
 20
5.2
 30
0.0
 11
16.713975
 21
5.22349
 31
0.0
  0
ENDBLK
  8
0
  0
BLOCK
  8
0
  2
*X27
 70
    65
 10
0.0
 20
0.0
 30
0.0
  3
*X
  0
LINE
  8
0
 62
     0
 10
13.9
 20
0.818525
 30
0.0
 11
17.39645
 21
4.314974
 31
0.0
  0
LINE
  8
0
 62
     0
 10
13.9
 20
0.995301
 30
0.0
 11
17.336354
 21
4.431655
 31
0.0
  0
LINE
  8
0
 62
     0
 10
13.9
 20
1.172078
 30
0.0
 11
17.272078
 21
4.544156
 31
0.0
  0
LINE
  8
0
 62
     0
 10
13.9
 20
1.348855
 30
0.0
 11
17.203766
 21
4.652621
 31
0.0
  0
LINE
  8
0
 62
     0
 10
13.9
 20
1.525631
 30
0.0
 11
17.131535
 21
4.757167
 31
0.0
  0
LINE
  8
0
 62
     0
 10
13.9
 20
1.702408
 30
0.0
 11
16.997592
 21
4.8
 31
0.0
  0
LINE
  8
0
 62
     0
 10
13.9
 20
1.879185
 30
0.0
 11
16.820815
 21
4.8
 31
0.0
  0
LINE
  8
0
 62
     0
 10
13.9
 20
2.055961
 30
0.0
 11
16.644039
 21
4.8
 31
0.0
  0
LINE
  8
0
 62
     0
 10
13.9
 20
2.232738
 30
0.0
 11
16.467262
 21
4.8
 31
0.0
  0
LINE
  8
0
 62
     0
 10
13.9
 20
2.409515
 30
0.0
 11
16.290485
 21
4.8
 31
0.0
  0
LINE
  8
0
 62
     0
 10
13.9
 20
2.586292
 30
0.0
 11
16.113708
 21
4.8
 31
0.0
  0
LINE
  8
0
 62
     0
 10
13.9
 20
2.763068
 30
0.0
 11
15.936932
 21
4.8
 31
0.0
  0
LINE
  8
0
 62
     0
 10
13.9
 20
2.939845
 30
0.0
 11
15.760155
 21
4.8
 31
0.0
  0
LINE
  8
0
 62
     0
 10
13.9
 20
3.116622
 30
0.0
 11
15.583378
 21
4.8
 31
0.0
  0
LINE
  8
0
 62
     0
 10
13.9
 20
3.293398
 30
0.0
 11
15.406602
 21
4.8
 31
0.0
  0
LINE
  8
0
 62
     0
 10
13.9
 20
3.470175
 30
0.0
 11
15.229825
 21
4.8
 31
0.0
  0
LINE
  8
0
 62
     0
 10
13.9
 20
3.646952
 30
0.0
 11
15.053048
 21
4.8
 31
0.0
  0
LINE
  8
0
 62
     0
 10
13.9
 20
3.823728
 30
0.0
 11
14.876272
 21
4.8
 31
0.0
  0
LINE
  8
0
 62
     0
 10
13.9
 20
4.000505
 30
0.0
 11
14.699495
 21
4.8
 31
0.0
  0
LINE
  8
0
 62
     0
 10
13.9
 20
4.177282
 30
0.0
 11
14.522718
 21
4.8
 31
0.0
  0
LINE
  8
0
 62
     0
 10
13.9
 20
4.354058
 30
0.0
 11
14.345942
 21
4.8
 31
0.0
  0
LINE
  8
0
 62
     0
 10
13.9
 20
4.530835
 30
0.0
 11
14.169165
 21
4.8
 31
0.0
  0
LINE
  8
0
 62
     0
 10
13.9
 20
4.707612
 30
0.0
 11
13.992388
 21
4.8
 31
0.0
  0
LINE
  8
0
 62
     0
 10
13.9
 20
0.641748
 30
0.0
 11
17.452185
 21
4.193933
 31
0.0
  0
LINE
  8
0
 62
     0
 10
13.9
 20
0.464971
 30
0.0
 11
17.503339
 21
4.068311
 31
0.0
  0
LINE
  8
0
 62
     0
 10
13.9
 20
0.288194
 30
0.0
 11
17.549642
 21
3.937837
 31
0.0
  0
LINE
  8
0
 62
     0
 10
13.9
 20
0.111418
 30
0.0
 11
17.590762
 21
3.80218
 31
0.0
  0
LINE
  8
0
 62
     0
 10
13.965359
 20
0.0
 30
0.0
 11
17.62629
 21
3.660931
 31
0.0
  0
LINE
  8
0
 62
     0
 10
14.142136
 20
0.000001
 30
0.0
 11
17.655713
 21
3.513577
 31
0.0
  0
LINE
  8
0
 62
     0
 10
14.318913
 20
0.000001
 30
0.0
 11
17.678385
 21
3.359473
 31
0.0
  0
LINE
  8
0
 62
     0
 10
14.49569
 20
0.000001
 30
0.0
 11
17.693473
 21
3.197784
 31
0.0
  0
LINE
  8
0
 62
     0
 10
14.672467
 20
0.000002
 30
0.0
 11
17.699875
 21
3.027409
 31
0.0
  0
LINE
  8
0
 62
     0
 10
14.853154
 20
0.003912
 30
0.0
 11
17.696088
 21
2.846846
 31
0.0
  0
LINE
  8
0
 62
     0
 10
15.046044
 20
0.020025
 30
0.0
 11
17.679975
 21
2.653956
 31
0.0
  0
LINE
  8
0
 62
     0
 10
15.254483
 20
0.051687
 30
0.0
 11
17.648313
 21
2.445517
 31
0.0
  0
LINE
  8
0
 62
     0
 10
15.483762
 20
0.10419
 30
0.0
 11
17.59581
 21
2.216238
 31
0.0
  0
LINE
  8
0
 62
     0
 10
15.743786
 20
0.187437
 30
0.0
 11
17.512563
 21
1.956214
 31
0.0
  0
LINE
  8
0
 62
     0
 10
16.058176
 20
0.32505
 30
0.0
 11
17.37495
 21
1.641824
 31
0.0
  0
LINE
  8
0
 62
     0
 10
16.54193
 20
0.632028
 30
0.0
 11
17.067972
 21
1.15807
 31
0.0
  0
ENDBLK
  8
0
  0
BLOCK
  8
0
  2
B22
 70
     0
 10
0.0
 20
0.0
 30
0.0
  3
B22
  0
CIRCLE
  8
BASE
  6
CONTINUOUS
 10
-2.949561
 20
-1.638589
 30
0.0
 40
0.705054
  0
CIRCLE
  8
BASE
  6
CONTINUOUS
 10
-2.949561
 20
-1.638589
 30
0.0
 40
1.252595
  0
LINE
  8
BASE
  6
CONTINUOUS
 10
-10.000117
 20
0.000025
 30
0.0
 11
0.011081
 21
0.000025
 31
0.0
  0
LINE
  8
BASE
  6
CONTINUOUS
 10
-27.5
 20
-0.008493
 30
0.0
 11
-17.5
 21
-0.008493
 31
0.0
  0
LINE
  8
BASE
  6
CONTINUOUS
 10
-11.481965
 20
-0.006589
 30
0.0
 11
-18.162841
 21
2.434804
 31
0.0
  0
LINE
  8
BASE
  6
CONTINUOUS
 10
-17.5
 20
-0.008493
 30
0.0
 11
-17.5
 21
2.765661
 31
0.0
  0
LINE
  8
BASE
  6
CONTINUOUS
 10
-18.162841
 20
2.434804
 30
0.0
 11
-18.607734
 21
1.549106
 31
0.0
  0
CIRCLE
  8
BASE
  6
CONTINUOUS
 10
-10.741055
 20
0.0
 30
0.0
 40
0.740939
  0
ENDBLK
  8
0
  0
BLOCK
  8
0
  2
B37
 70
     0
 10
0.0
 20
0.0
 30
0.0
  3
B37
  0
LINE
  8
BASE
  6
CONTINUOUS
 10
-0.006589
 20
-6.018035
 30
0.0
 11
2.434804
 21
0.662841
 31
0.0
  0
LINE
  8
BASE
  6
CONTINUOUS
 10
0.0
 20
0.0
 30
0.0
 11
2.765661
 21
0.0
 31
0.0
  0
LINE
  8
BASE
  6
CONTINUOUS
 10
2.434804
 20
0.662841
 30
0.0
 11
1.549106
 21
1.107734
 31
0.0
  0
CIRCLE
  8
BASE
  6
CONTINUOUS
 10
0.0
 20
-6.758945
 30
0.0
 40
0.740939
  0
ENDBLK
  8
0
  0
BLOCK
  8
0
  2
B13
 70
     0
 10
0.0
 20
0.0
 30
0.0
  3
B13
  0
LINE
  8
BASE
  6
CONTINUOUS
 10
0.00793
 20
5.0
 30
0.0
 11
0.00793
 21
-5.0
 31
0.0
  0
LINE
  8
BASE
  6
CONTINUOUS
 10
0.0
 20
-11.000004
 30
0.0
 11
0.0
 21
-17.5
 31
0.0
  0
LINE
  8
BASE
  6
CONTINUOUS
 10
5.0
 20
-11.000004
 30
0.0
 11
5.0
 21
-17.5
 31
0.0
  0
LINE
  8
BASE
  6
CONTINUOUS
 10
4.982972
 20
5.0
 30
0.0
 11
4.982972
 21
-5.0
 31
0.0
  0
LINE
  8
BASE
  6
CONTINUOUS
 10
10.0
 20
-5.0
 30
0.0
 11
10.0
 21
-1.412306
 31
0.0
  0
LINE
  8
BASE
  6
CONTINUOUS
 10
10.0
 20
-0.21377
 30
0.0
 11
10.0
 21
2.28623
 31
0.0
  0
LINE
  8
BASE
  6
CONTINUOUS
 10
10.0
 20
-11.000004
 30
0.0
 11
10.0
 21
-17.5
 31
0.0
  0
LINE
  8
BASE
  6
CONTINUOUS
 10
10.0
 20
-11.000004
 30
0.0
 11
12.434804
 21
-4.337159
 31
0.0
  0
LINE
  8
BASE
  6
CONTINUOUS
 10
10.0
 20
-5.0
 30
0.0
 11
12.765661
 21
-5.0
 31
0.0
  0
LINE
  8
BASE
  6
CONTINUOUS
 10
12.434804
 20
-4.337159
 30
0.0
 11
11.549106
 21
-3.892266
 31
0.0
  0
LINE
  8
BASE
  6
CONTINUOUS
 10
5.0
 20
-5.0
 30
0.0
 11
7.765661
 21
-5.0
 31
0.0
  0
LINE
  8
BASE
  6
CONTINUOUS
 10
7.434804
 20
-4.337159
 30
0.0
 11
6.549106
 21
-3.892266
 31
0.0
  0
LINE
  8
BASE
  6
CONTINUOUS
 10
5.0
 20
-11.000004
 30
0.0
 11
7.434804
 21
-4.337159
 31
0.0
  0
LINE
  8
BASE
  6
CONTINUOUS
 10
0.0
 20
-11.000004
 30
0.0
 11
2.434804
 21
-4.337159
 31
0.0
  0
LINE
  8
BASE
  6
CONTINUOUS
 10
0.0
 20
-5.0
 30
0.0
 11
2.765661
 21
-5.0
 31
0.0
  0
ENDBLK
  8
0
  0
BLOCK
  8
0
  2
B85
 70
     0
 10
0.0
 20
0.0
 30
0.0
  3
B85
  0
TEXT
  8
BASE
  6
HIDDEN
 10
3.542477
 20
-1.141585
 30
0.0
 40
2.5
  1
I
  7
GREEKS
  0
TEXT
  8
BASE
  6
HIDDEN
 10
-0.25007
 20
-1.134748
 30
0.0
 40
2.339483
  1
D
  7
GREEKC
  0
ENDBLK
  8
0
  0
BLOCK
  8
0
  2
POISTA
 70
    64
 10
0.0
 20
0.0
 30
0.0
  3
POISTA
  0
TEXT
  8
BASE
  6
CONTINUOUS
 10
-12.5
 20
-5.0
 30
0.0
 40
2.0
  1
RX/TX
  0
LINE
  8
BASE
  6
CONTINUOUS
 10
0.0
 20
0.0
 30
0.0
 11
-27.5
 21
0.0
 31
0.0
  0
INSERT
  8
BASE
  6
CONTINUOUS
  2
BLC29
 10
-18.470554
 20
-0.128467
 30
0.0
 41
-1.0
 50
180.0
  0
TEXT
  8
BASE
  6
CONTINUOUS
 10
-2.963436
 20
1.570297
 30
0.0
 40
2.0
  1
9
  0
LINE
  8
BASE
  6
CONTINUOUS
 10
-3.936802
 20
-0.74288
 30
0.0
 11
-2.720094
 21
0.667057
 31
0.0
  0
INSERT
  8
BASE
  6
CONTINUOUS
  2
BLC29
 10
-21.529446
 20
-0.128467
 30
0.0
 50
180.0
  0
ENDBLK
  8
0
  0
BLOCK
  8
0
  2
B96
 70
     0
 10
0.0
 20
0.0
 30
0.0
  3
B96
  0
LINE
  8
0
  6
CONTINUOUS
 10
1.819436
 20
0.403461
 30
0.0
 11
1.819436
 21
-0.576539
 31
0.0
  0
LINE
  8
0
  6
CONTINUOUS
 10
1.819436
 20
-0.576539
 30
0.0
 11
5.249436
 21
-0.576539
 31
0.0
  0
LINE
  8
0
  6
CONTINUOUS
 10
5.249436
 20
-0.576539
 30
0.0
 11
5.249436
 21
0.403461
 31
0.0
  0
LINE
  8
0
  6
CONTINUOUS
 10
5.249436
 20
0.403461
 30
0.0
 11
1.819436
 21
0.403461
 31
0.0
  0
POLYLINE
  8
0
  6
CONTINUOUS
 66
     1
 10
0.0
 20
0.0
 30
0.0
 70
    16
 71
     2
 72
   251
  0
VERTEX
  8
0
  6
CONTINUOUS
 10
1.819436
 20
-0.576539
 30
0.0
 70
    64
  0
VERTEX
  8
0
  6
CONTINUOUS
 10
1.833156
 20
-0.576539
 30
0.0
 70
    64
  0
VERTEX
  8
0
  6
CONTINUOUS
 10
1.846876
 20
-0.576539
 30
0.0
 70
    64
  0
VERTEX
  8
0
  6
CONTINUOUS
 10
1.860596
 20
-0.576539
 30
0.0
 70
    64
  0
VERTEX
  8
0
  6
CONTINUOUS
 10
1.874316
 20
-0.576539
 30
0.0
 70
    64
  0
VERTEX
  8
0
  6
CONTINUOUS
 10
1.888036
 20
-0.576539
 30
0.0
 70
    64
  0
VERTEX
  8
0
  6
CONTINUOUS
 10
1.901756
 20
-0.576539
 30
0.0
 70
    64
  0
VERTEX
  8
0
  6
CONTINUOUS
 10
1.915476
 20
-0.576539
 30
0.0
 70
    64
  0
VERTEX
  8
0
  6
CONTINUOUS
 10
1.929196
 20
-0.576539
 30
0.0
 70
    64
  0
VERTEX
  8
0
  6
CONTINUOUS
 10
1.942916
 20
-0.576539
 30
0.0
 70
    64
  0
VERTEX
  8
0
  6
CONTINUOUS
 10
1.956636
 20
-0.576539
 30
0.0
 70
    64
  0
VERTEX
  8
0
  6
CONTINUOUS
 10
1.970356
 20
-0.576539
 30
0.0
 70
    64
  0
VERTEX
  8
0
  6
CONTINUOUS
 10
1.984076
 20
-0.576539
 30
0.0
 70
    64
  0
VERTEX
  8
0
  6
CONTINUOUS
 10
1.997796
 20
-0.576539
 30
0.0
 70
    64
  0
VERTEX
  8
0
  6
CONTINUOUS
 10
2.011516
 20
-0.576539
 30
0.0
 70
    64
  0
VERTEX
  8
0
  6
CONTINUOUS
 10
2.025236
 20
-0.576539
 30
0.0
 70
    64
  0
VERTEX
  8
0
  6
CONTINUOUS
 10
2.038956
 20
-0.576539
 30
0.0
 70
    64
  0
VERTEX
  8
0
  6
CONTINUOUS
 10
2.052676
 20
-0.576539
 30
0.0
 70
    64
  0
VERTEX
  8
0
  6
CONTINUOUS
 10
2.066396
 20
-0.576539
 30
0.0
 70
    64
  0
VERTEX
  8
0
  6
CONTINUOUS
 10
2.080116
 20
-0.576539
 30
0.0
 70
    64
  0
VERTEX
  8
0
  6
CONTINUOUS
 10
2.093836
 20
-0.576539
 30
0.0
 70
    64
  0
VERTEX
  8
0
  6
CONTINUOUS
 10
2.107556
 20
-0.576539
 30
0.0
 70
    64
  0
VERTEX
  8
0
  6
CONTINUOUS
 10
2.121276
 20
-0.576539
 30
0.0
 70
    64
  0
VERTEX
  8
0
  6
CONTINUOUS
 10
2.134996
 20
-0.576539
 30
0.0
 70
    64
  0
VERTEX
  8
0
  6
CONTINUOUS
 10
2.148716
 20
-0.576539
 30
0.0
 70
    64
  0
VERTEX
  8
0
  6
CONTINUOUS
 10
2.162436
 20
-0.576539
 30
0.0
 70
    64
  0
VERTEX
  8
0
  6
CONTINUOUS
 10
2.176156
 20
-0.576539
 30
0.0
 70
    64
  0
VERTEX
  8
0
  6
CONTINUOUS
 10
2.189876
 20
-0.576539
 30
0.0
 70
    64
  0
VERTEX
  8
0
  6
CONTINUOUS
 10
2.203596
 20
-0.576539
 30
0.0
 70
    64
  0
VERTEX
  8
0
  6
CONTINUOUS
 10
2.217316
 20
-0.576539
 30
0.0
 70
    64
  0
VERTEX
  8
0
  6
CONTINUOUS
 10
2.231036
 20
-0.576539
 30
0.0
 70
    64
  0
VERTEX
  8
0
  6
CONTINUOUS
 10
2.244756
 20
-0.576539
 30
0.0
 70
    64
  0
VERTEX
  8
0
  6
CONTINUOUS
 10
2.258476
 20
-0.576539
 30
0.0
 70
    64
  0
VERTEX
  8
0
  6
CONTINUOUS
 10
2.272196
 20
-0.576539
 30
0.0
 70
    64
  0
VERTEX
  8
0
  6
CONTINUOUS
 10
2.285916
 20
-0.576539
 30
0.0
 70
    64
  0
VERTEX
  8
0
  6
CONTINUOUS
 10
2.299636
 20
-0.576539
 30
0.0
 70
    64
  0
VERTEX
  8
0
  6
CONTINUOUS
 10
2.313356
 20
-0.576539
 30
0.0
 70
    64
  0
VERTEX
  8
0
  6
CONTINUOUS
 10
2.327076
 20
-0.576539
 30
0.0
 70
    64
  0
VERTEX
  8
0
  6
CONTINUOUS
 10
2.340796
 20
-0.576539
 30
0.0
 70
    64
  0
VERTEX
  8
0
  6
CONTINUOUS
 10
2.354516
 20
-0.576539
 30
0.0
 70
    64
  0
VERTEX
  8
0
  6
CONTINUOUS
 10
2.368236
 20
-0.576539
 30
0.0
 70
    64
  0
VERTEX
  8
0
  6
CONTINUOUS
 10
2.381956
 20
-0.576539
 30
0.0
 70
    64
  0
VERTEX
  8
0
  6
CONTINUOUS
 10
2.395676
 20
-0.576539
 30
0.0
 70
    64
  0
VERTEX
  8
0
  6
CONTINUOUS
 10
2.409396
 20
-0.576539
 30
0.0
 70
    64
  0
VERTEX
  8
0
  6
CONTINUOUS
 10
2.423116
 20
-0.576539
 30
0.0
 70
    64
  0
VERTEX
  8
0
  6
CONTINUOUS
 10
2.436836
 20
-0.576539
 30
0.0
 70
    64
  0
VERTEX
  8
0
  6
CONTINUOUS
 10
2.450556
 20
-0.576539
 30
0.0
 70
    64
  0
VERTEX
  8
0
  6
CONTINUOUS
 10
2.464276
 20
-0.576539
 30
0.0
 70
    64
  0
VERTEX
  8
0
  6
CONTINUOUS
 10
2.477996
 20
-0.576539
 30
0.0
 70
    64
  0
VERTEX
  8
0
  6
CONTINUOUS
 10
2.491716
 20
-0.576539
 30
0.0
 70
    64
  0
VERTEX
  8
0
  6
CONTINUOUS
 10
2.505436
 20
-0.576539
 30
0.0
 70
    64
  0
VERTEX
  8
0
  6
CONTINUOUS
 10
2.519156
 20
-0.576539
 30
0.0
 70
    64
  0
VERTEX
  8
0
  6
CONTINUOUS
 10
2.532876
 20
-0.576539
 30
0.0
 70
    64
  0
VERTEX
  8
0
  6
CONTINUOUS
 10
2.546596
 20
-0.576539
 30
0.0
 70
    64
  0
VERTEX
  8
0
  6
CONTINUOUS
 10
2.560316
 20
-0.576539
 30
0.0
 70
    64
  0
VERTEX
  8
0
  6
CONTINUOUS
 10
2.574036
 20
-0.576539
 30
0.0
 70
    64
  0
VERTEX
  8
0
  6
CONTINUOUS
 10
2.587756
 20
-0.576539
 30
0.0
 70
    64
  0
VERTEX
  8
0
  6
CONTINUOUS
 10
2.601476
 20
-0.576539
 30
0.0
 70
    64
  0
VERTEX
  8
0
  6
CONTINUOUS
 10
2.615196
 20
-0.576539
 30
0.0
 70
    64
  0
VERTEX
  8
0
  6
CONTINUOUS
 10
2.628916
 20
-0.576539
 30
0.0
 70
    64
  0
VERTEX
  8
0
  6
CONTINUOUS
 10
2.642636
 20
-0.576539
 30
0.0
 70
    64
  0
VERTEX
  8
0
  6
CONTINUOUS
 10
2.656356
 20
-0.576539
 30
0.0
 70
    64
  0
VERTEX
  8
0
  6
CONTINUOUS
 10
2.670076
 20
-0.576539
 30
0.0
 70
    64
  0
VERTEX
  8
0
  6
CONTINUOUS
 10
2.683796
 20
-0.576539
 30
0.0
 70
    64
  0
VERTEX
  8
0
  6
CONTINUOUS
 10
2.697516
 20
-0.576539
 30
0.0
 70
    64
  0
VERTEX
  8
0
  6
CONTINUOUS
 10
2.711236
 20
-0.576539
 30
0.0
 70
    64
  0
VERTEX
  8
0
  6
CONTINUOUS
 10
2.724956
 20
-0.576539
 30
0.0
 70
    64
  0
VERTEX
  8
0
  6
CONTINUOUS
 10
2.738676
 20
-0.576539
 30
0.0
 70
    64
  0
VERTEX
  8
0
  6
CONTINUOUS
 10
2.752396
 20
-0.576539
 30
0.0
 70
    64
  0
VERTEX
  8
0
  6
CONTINUOUS
 10
2.766116
 20
-0.576539
 30
0.0
 70
    64
  0
VERTEX
  8
0
  6
CONTINUOUS
 10
2.779836
 20
-0.576539
 30
0.0
 70
    64
  0
VERTEX
  8
0
  6
CONTINUOUS
 10
2.793556
 20
-0.576539
 30
0.0
 70
    64
  0
VERTEX
  8
0
  6
CONTINUOUS
 10
2.807276
 20
-0.576539
 30
0.0
 70
    64
  0
VERTEX
  8
0
  6
CONTINUOUS
 10
2.820996
 20
-0.576539
 30
0.0
 70
    64
  0
VERTEX
  8
0
  6
CONTINUOUS
 10
2.834716
 20
-0.576539
 30
0.0
 70
    64
  0
VERTEX
  8
0
  6
CONTINUOUS
 10
2.848436
 20
-0.576539
 30
0.0
 70
    64
  0
VERTEX
  8
0
  6
CONTINUOUS
 10
2.862156
 20
-0.576539
 30
0.0
 70
    64
  0
VERTEX
  8
0
  6
CONTINUOUS
 10
2.875876
 20
-0.576539
 30
0.0
 70
    64
  0
VERTEX
  8
0
  6
CONTINUOUS
 10
2.889596
 20
-0.576539
 30
0.0
 70
    64
  0
VERTEX
  8
0
  6
CONTINUOUS
 10
2.903316
 20
-0.576539
 30
0.0
 70
    64
  0
VERTEX
  8
0
  6
CONTINUOUS
 10
2.917036
 20
-0.576539
 30
0.0
 70
    64
  0
VERTEX
  8
0
  6
CONTINUOUS
 10
2.930756
 20
-0.576539
 30
0.0
 70
    64
  0
VERTEX
  8
0
  6
CONTINUOUS
 10
2.944476
 20
-0.576539
 30
0.0
 70
    64
  0
VERTEX
  8
0
  6
CONTINUOUS
 10
2.958196
 20
-0.576539
 30
0.0
 70
    64
  0
VERTEX
  8
0
  6
CONTINUOUS
 10
2.971916
 20
-0.576539
 30
0.0
 70
    64
  0
VERTEX
  8
0
  6
CONTINUOUS
 10
2.985636
 20
-0.576539
 30
0.0
 70
    64
  0
VERTEX
  8
0
  6
CONTINUOUS
 10
2.999356
 20
-0.576539
 30
0.0
 70
    64
  0
VERTEX
  8
0
  6
CONTINUOUS
 10
3.013076
 20
-0.576539
 30
0.0
 70
    64
  0
VERTEX
  8
0
  6
CONTINUOUS
 10
3.026796
 20
-0.576539
 30
0.0
 70
    64
  0
VERTEX
  8
0
  6
CONTINUOUS
 10
3.040516
 20
-0.576539
 30
0.0
 70
    64
  0
VERTEX
  8
0
  6
CONTINUOUS
 10
3.054236
 20
-0.576539
 30
0.0
 70
    64
  0
VERTEX
  8
0
  6
CONTINUOUS
 10
3.067956
 20
-0.576539
 30
0.0
 70
    64
  0
VERTEX
  8
0
  6
CONTINUOUS
 10
3.081676
 20
-0.576539
 30
0.0
 70
    64
  0
VERTEX
  8
0
  6
CONTINUOUS
 10
3.095396
 20
-0.576539
 30
0.0
 70
    64
  0
VERTEX
  8
0
  6
CONTINUOUS
 10
3.109116
 20
-0.576539
 30
0.0
 70
    64
  0
VERTEX
  8
0
  6
CONTINUOUS
 10
3.122836
 20
-0.576539
 30
0.0
 70
    64
  0
VERTEX
  8
0
  6
CONTINUOUS
 10
3.136556
 20
-0.576539
 30
0.0
 70
    64
  0
VERTEX
  8
0
  6
CONTINUOUS
 10
3.150276
 20
-0.576539
 30
0.0
 70
    64
  0
VERTEX
  8
0
  6
CONTINUOUS
 10
3.163996
 20
-0.576539
 30
0.0
 70
    64
  0
VERTEX
  8
0
  6
CONTINUOUS
 10
3.177716
 20
-0.576539
 30
0.0
 70
    64
  0
VERTEX
  8
0
  6
CONTINUOUS
 10
3.191436
 20
-0.576539
 30
0.0
 70
    64
  0
VERTEX
  8
0
  6
CONTINUOUS
 10
3.205156
 20
-0.576539
 30
0.0
 70
    64
  0
VERTEX
  8
0
  6
CONTINUOUS
 10
3.218876
 20
-0.576539
 30
0.0
 70
    64
  0
VERTEX
  8
0
  6
CONTINUOUS
 10
3.232596
 20
-0.576539
 30
0.0
 70
    64
  0
VERTEX
  8
0
  6
CONTINUOUS
 10
3.246316
 20
-0.576539
 30
0.0
 70
    64
  0
VERTEX
  8
0
  6
CONTINUOUS
 10
3.260036
 20
-0.576539
 30
0.0
 70
    64
  0
VERTEX
  8
0
  6
CONTINUOUS
 10
3.273756
 20
-0.576539
 30
0.0
 70
    64
  0
VERTEX
  8
0
  6
CONTINUOUS
 10
3.287476
 20
-0.576539
 30
0.0
 70
    64
  0
VERTEX
  8
0
  6
CONTINUOUS
 10
3.301196
 20
-0.576539
 30
0.0
 70
    64
  0
VERTEX
  8
0
  6
CONTINUOUS
 10
3.314916
 20
-0.576539
 30
0.0
 70
    64
  0
VERTEX
  8
0
  6
CONTINUOUS
 10
3.328636
 20
-0.576539
 30
0.0
 70
    64
  0
VERTEX
  8
0
  6
CONTINUOUS
 10
3.342356
 20
-0.576539
 30
0.0
 70
    64
  0
VERTEX
  8
0
  6
CONTINUOUS
 10
3.356076
 20
-0.576539
 30
0.0
 70
    64
  0
VERTEX
  8
0
  6
CONTINUOUS
 10
3.369796
 20
-0.576539
 30
0.0
 70
    64
  0
VERTEX
  8
0
  6
CONTINUOUS
 10
3.383516
 20
-0.576539
 30
0.0
 70
    64
  0
VERTEX
  8
0
  6
CONTINUOUS
 10
3.397236
 20
-0.576539
 30
0.0
 70
    64
  0
VERTEX
  8
0
  6
CONTINUOUS
 10
3.410956
 20
-0.576539
 30
0.0
 70
    64
  0
VERTEX
  8
0
  6
CONTINUOUS
 10
3.424676
 20
-0.576539
 30
0.0
 70
    64
  0
VERTEX
  8
0
  6
CONTINUOUS
 10
3.438396
 20
-0.576539
 30
0.0
 70
    64
  0
VERTEX
  8
0
  6
CONTINUOUS
 10
3.452116
 20
-0.576539
 30
0.0
 70
    64
  0
VERTEX
  8
0
  6
CONTINUOUS
 10
3.465836
 20
-0.576539
 30
0.0
 70
    64
  0
VERTEX
  8
0
  6
CONTINUOUS
 10
3.479556
 20
-0.576539
 30
0.0
 70
    64
  0
VERTEX
  8
0
  6
CONTINUOUS
 10
3.493276
 20
-0.576539
 30
0.0
 70
    64
  0
VERTEX
  8
0
  6
CONTINUOUS
 10
3.506996
 20
-0.576539
 30
0.0
 70
    64
  0
VERTEX
  8
0
  6
CONTINUOUS
 10
3.520716
 20
-0.576539
 30
0.0
 70
    64
  0
VERTEX
  8
0
  6
CONTINUOUS
 10
3.534436
 20
-0.576539
 30
0.0
 70
    64
  0
VERTEX
  8
0
  6
CONTINUOUS
 10
3.548156
 20
-0.576539
 30
0.0
 70
    64
  0
VERTEX
  8
0
  6
CONTINUOUS
 10
3.561876
 20
-0.576539
 30
0.0
 70
    64
  0
VERTEX
  8
0
  6
CONTINUOUS
 10
3.575596
 20
-0.576539
 30
0.0
 70
    64
  0
VERTEX
  8
0
  6
CONTINUOUS
 10
3.589316
 20
-0.576539
 30
0.0
 70
    64
  0
VERTEX
  8
0
  6
CONTINUOUS
 10
3.603036
 20
-0.576539
 30
0.0
 70
    64
  0
VERTEX
  8
0
  6
CONTINUOUS
 10
3.616756
 20
-0.576539
 30
0.0
 70
    64
  0
VERTEX
  8
0
  6
CONTINUOUS
 10
3.630476
 20
-0.576539
 30
0.0
 70
    64
  0
VERTEX
  8
0
  6
CONTINUOUS
 10
3.644196
 20
-0.576539
 30
0.0
 70
    64
  0
VERTEX
  8
0
  6
CONTINUOUS
 10
3.657916
 20
-0.576539
 30
0.0
 70
    64
  0
VERTEX
  8
0
  6
CONTINUOUS
 10
3.671636
 20
-0.576539
 30
0.0
 70
    64
  0
VERTEX
  8
0
  6
CONTINUOUS
 10
3.685356
 20
-0.576539
 30
0.0
 70
    64
  0
VERTEX
  8
0
  6
CONTINUOUS
 10
3.699076
 20
-0.576539
 30
0.0
 70
    64
  0
VERTEX
  8
0
  6
CONTINUOUS
 10
3.712796
 20
-0.576539
 30
0.0
 70
    64
  0
VERTEX
  8
0
  6
CONTINUOUS
 10
3.726516
 20
-0.576539
 30
0.0
 70
    64
  0
VERTEX
  8
0
  6
CONTINUOUS
 10
3.740236
 20
-0.576539
 30
0.0
 70
    64
  0
VERTEX
  8
0
  6
CONTINUOUS
 10
3.753956
 20
-0.576539
 30
0.0
 70
    64
  0
VERTEX
  8
0
  6
CONTINUOUS
 10
3.767676
 20
-0.576539
 30
0.0
 70
    64
  0
VERTEX
  8
0
  6
CONTINUOUS
 10
3.781396
 20
-0.576539
 30
0.0
 70
    64
  0
VERTEX
  8
0
  6
CONTINUOUS
 10
3.795116
 20
-0.576539
 30
0.0
 70
    64
  0
VERTEX
  8
0
  6
CONTINUOUS
 10
3.808836
 20
-0.576539
 30
0.0
 70
    64
  0
VERTEX
  8
0
  6
CONTINUOUS
 10
3.822556
 20
-0.576539
 30
0.0
 70
    64
  0
VERTEX
  8
0
  6
CONTINUOUS
 10
3.836276
 20
-0.576539
 30
0.0
 70
    64
  0
VERTEX
  8
0
  6
CONTINUOUS
 10
3.849996
 20
-0.576539
 30
0.0
 70
    64
  0
VERTEX
  8
0
  6
CONTINUOUS
 10
3.863716
 20
-0.576539
 30
0.0
 70
    64
  0
VERTEX
  8
0
  6
CONTINUOUS
 10
3.877436
 20
-0.576539
 30
0.0
 70
    64
  0
VERTEX
  8
0
  6
CONTINUOUS
 10
3.891156
 20
-0.576539
 30
0.0
 70
    64
  0
VERTEX
  8
0
  6
CONTINUOUS
 10
3.904876
 20
-0.576539
 30
0.0
 70
    64
  0
VERTEX
  8
0
  6
CONTINUOUS
 10
3.918596
 20
-0.576539
 30
0.0
 70
    64
  0
VERTEX
  8
0
  6
CONTINUOUS
 10
3.932316
 20
-0.576539
 30
0.0
 70
    64
  0
VERTEX
  8
0
  6
CONTINUOUS
 10
3.946036
 20
-0.576539
 30
0.0
 70
    64
  0
VERTEX
  8
0
  6
CONTINUOUS
 10
3.959756
 20
-0.576539
 30
0.0
 70
    64
  0
VERTEX
  8
0
  6
CONTINUOUS
 10
3.973476
 20
-0.576539
 30
0.0
 70
    64
  0
VERTEX
  8
0
  6
CONTINUOUS
 10
3.987196
 20
-0.576539
 30
0.0
 70
    64
  0
VERTEX
  8
0
  6
CONTINUOUS
 10
4.000916
 20
-0.576539
 30
0.0
 70
    64
  0
VERTEX
  8
0
  6
CONTINUOUS
 10
4.014636
 20
-0.576539
 30
0.0
 70
    64
  0
VERTEX
  8
0
  6
CONTINUOUS
 10
4.028356
 20
-0.576539
 30
0.0
 70
    64
  0
VERTEX
  8
0
  6
CONTINUOUS
 10
4.042076
 20
-0.576539
 30
0.0
 70
    64
  0
VERTEX
  8
0
  6
CONTINUOUS
 10
4.055796
 20
-0.576539
 30
0.0
 70
    64
  0
VERTEX
  8
0
  6
CONTINUOUS
 10
4.069516
 20
-0.576539
 30
0.0
 70
    64
  0
VERTEX
  8
0
  6
CONTINUOUS
 10
4.083236
 20
-0.576539
 30
0.0
 70
    64
  0
VERTEX
  8
0
  6
CONTINUOUS
 10
4.096956
 20
-0.576539
 30
0.0
 70
    64
  0
VERTEX
  8
0
  6
CONTINUOUS
 10
4.110676
 20
-0.576539
 30
0.0
 70
    64
  0
VERTEX
  8
0
  6
CONTINUOUS
 10
4.124396
 20
-0.576539
 30
0.0
 70
    64
  0
VERTEX
  8
0
  6
CONTINUOUS
 10
4.138116
 20
-0.576539
 30
0.0
 70
    64
  0
VERTEX
  8
0
  6
CONTINUOUS
 10
4.151836
 20
-0.576539
 30
0.0
 70
    64
  0
VERTEX
  8
0
  6
CONTINUOUS
 10
4.165556
 20
-0.576539
 30
0.0
 70
    64
  0
VERTEX
  8
0
  6
CONTINUOUS
 10
4.179276
 20
-0.576539
 30
0.0
 70
    64
  0
VERTEX
  8
0
  6
CONTINUOUS
 10
4.192996
 20
-0.576539
 30
0.0
 70
    64
  0
VERTEX
  8
0
  6
CONTINUOUS
 10
4.206716
 20
-0.576539
 30
0.0
 70
    64
  0
VERTEX
  8
0
  6
CONTINUOUS
 10
4.220436
 20
-0.576539
 30
0.0
 70
    64
  0
VERTEX
  8
0
  6
CONTINUOUS
 10
4.234156
 20
-0.576539
 30
0.0
 70
    64
  0
VERTEX
  8
0
  6
CONTINUOUS
 10
4.247876
 20
-0.576539
 30
0.0
 70
    64
  0
VERTEX
  8
0
  6
CONTINUOUS
 10
4.261596
 20
-0.576539
 30
0.0
 70
    64
  0
VERTEX
  8
0
  6
CONTINUOUS
 10
4.275316
 20
-0.576539
 30
0.0
 70
    64
  0
VERTEX
  8
0
  6
CONTINUOUS
 10
4.289036
 20
-0.576539
 30
0.0
 70
    64
  0
VERTEX
  8
0
  6
CONTINUOUS
 10
4.302756
 20
-0.576539
 30
0.0
 70
    64
  0
VERTEX
  8
0
  6
CONTINUOUS
 10
4.316476
 20
-0.576539
 30
0.0
 70
    64
  0
VERTEX
  8
0
  6
CONTINUOUS
 10
4.330196
 20
-0.576539
 30
0.0
 70
    64
  0
VERTEX
  8
0
  6
CONTINUOUS
 10
4.343916
 20
-0.576539
 30
0.0
 70
    64
  0
VERTEX
  8
0
  6
CONTINUOUS
 10
4.357636
 20
-0.576539
 30
0.0
 70
    64
  0
VERTEX
  8
0
  6
CONTINUOUS
 10
4.371356
 20
-0.576539
 30
0.0
 70
    64
  0
VERTEX
  8
0
  6
CONTINUOUS
 10
4.385076
 20
-0.576539
 30
0.0
 70
    64
  0
VERTEX
  8
0
  6
CONTINUOUS
 10
4.398796
 20
-0.576539
 30
0.0
 70
    64
  0
VERTEX
  8
0
  6
CONTINUOUS
 10
4.412516
 20
-0.576539
 30
0.0
 70
    64
  0
VERTEX
  8
0
  6
CONTINUOUS
 10
4.426236
 20
-0.576539
 30
0.0
 70
    64
  0
VERTEX
  8
0
  6
CONTINUOUS
 10
4.439956
 20
-0.576539
 30
0.0
 70
    64
  0
VERTEX
  8
0
  6
CONTINUOUS
 10
4.453676
 20
-0.576539
 30
0.0
 70
    64
  0
VERTEX
  8
0
  6
CONTINUOUS
 10
4.467396
 20
-0.576539
 30
0.0
 70
    64
  0
VERTEX
  8
0
  6
CONTINUOUS
 10
4.481116
 20
-0.576539
 30
0.0
 70
    64
  0
VERTEX
  8
0
  6
CONTINUOUS
 10
4.494836
 20
-0.576539
 30
0.0
 70
    64
  0
VERTEX
  8
0
  6
CONTINUOUS
 10
4.508556
 20
-0.576539
 30
0.0
 70
    64
  0
VERTEX
  8
0
  6
CONTINUOUS
 10
4.522276
 20
-0.576539
 30
0.0
 70
    64
  0
VERTEX
  8
0
  6
CONTINUOUS
 10
4.535996
 20
-0.576539
 30
0.0
 70
    64
  0
VERTEX
  8
0
  6
CONTINUOUS
 10
4.549716
 20
-0.576539
 30
0.0
 70
    64
  0
VERTEX
  8
0
  6
CONTINUOUS
 10
4.563436
 20
-0.576539
 30
0.0
 70
    64
  0
VERTEX
  8
0
  6
CONTINUOUS
 10
4.577156
 20
-0.576539
 30
0.0
 70
    64
  0
VERTEX
  8
0
  6
CONTINUOUS
 10
4.590876
 20
-0.576539
 30
0.0
 70
    64
  0
VERTEX
  8
0
  6
CONTINUOUS
 10
4.604596
 20
-0.576539
 30
0.0
 70
    64
  0
VERTEX
  8
0
  6
CONTINUOUS
 10
4.618316
 20
-0.576539
 30
0.0
 70
    64
  0
VERTEX
  8
0
  6
CONTINUOUS
 10
4.632036
 20
-0.576539
 30
0.0
 70
    64
  0
VERTEX
  8
0
  6
CONTINUOUS
 10
4.645756
 20
-0.576539
 30
0.0
 70
    64
  0
VERTEX
  8
0
  6
CONTINUOUS
 10
4.659476
 20
-0.576539
 30
0.0
 70
    64
  0
VERTEX
  8
0
  6
CONTINUOUS
 10
4.673196
 20
-0.576539
 30
0.0
 70
    64
  0
VERTEX
  8
0
  6
CONTINUOUS
 10
4.686916
 20
-0.576539
 30
0.0
 70
    64
  0
VERTEX
  8
0
  6
CONTINUOUS
 10
4.700636
 20
-0.576539
 30
0.0
 70
    64
  0
VERTEX
  8
0
  6
CONTINUOUS
 10
4.714356
 20
-0.576539
 30
0.0
 70
    64
  0
VERTEX
  8
0
  6
CONTINUOUS
 10
4.728076
 20
-0.576539
 30
0.0
 70
    64
  0
VERTEX
  8
0
  6
CONTINUOUS
 10
4.741796
 20
-0.576539
 30
0.0
 70
    64
  0
VERTEX
  8
0
  6
CONTINUOUS
 10
4.755516
 20
-0.576539
 30
0.0
 70
    64
  0
VERTEX
  8
0
  6
CONTINUOUS
 10
4.769236
 20
-0.576539
 30
0.0
 70
    64
  0
VERTEX
  8
0
  6
CONTINUOUS
 10
4.782956
 20
-0.576539
 30
0.0
 70
    64
  0
VERTEX
  8
0
  6
CONTINUOUS
 10
4.796676
 20
-0.576539
 30
0.0
 70
    64
  0
VERTEX
  8
0
  6
CONTINUOUS
 10
4.810396
 20
-0.576539
 30
0.0
 70
    64
  0
VERTEX
  8
0
  6
CONTINUOUS
 10
4.824116
 20
-0.576539
 30
0.0
 70
    64
  0
VERTEX
  8
0
  6
CONTINUOUS
 10
4.837836
 20
-0.576539
 30
0.0
 70
    64
  0
VERTEX
  8
0
  6
CONTINUOUS
 10
4.851556
 20
-0.576539
 30
0.0
 70
    64
  0
VERTEX
  8
0
  6
CONTINUOUS
 10
4.865276
 20
-0.576539
 30
0.0
 70
    64
  0
VERTEX
  8
0
  6
CONTINUOUS
 10
4.878996
 20
-0.576539
 30
0.0
 70
    64
  0
VERTEX
  8
0
  6
CONTINUOUS
 10
4.892716
 20
-0.576539
 30
0.0
 70
    64
  0
VERTEX
  8
0
  6
CONTINUOUS
 10
4.906436
 20
-0.576539
 30
0.0
 70
    64
  0
VERTEX
  8
0
  6
CONTINUOUS
 10
4.920156
 20
-0.576539
 30
0.0
 70
    64
  0
VERTEX
  8
0
  6
CONTINUOUS
 10
4.933876
 20
-0.576539
 30
0.0
 70
    64
  0
VERTEX
  8
0
  6
CONTINUOUS
 10
4.947596
 20
-0.576539
 30
0.0
 70
    64
  0
VERTEX
  8
0
  6
CONTINUOUS
 10
4.961316
 20
-0.576539
 30
0.0
 70
    64
  0
VERTEX
  8
0
  6
CONTINUOUS
 10
4.975036
 20
-0.576539
 30
0.0
 70
    64
  0
VERTEX
  8
0
  6
CONTINUOUS
 10
4.988756
 20
-0.576539
 30
0.0
 70
    64
  0
VERTEX
  8
0
  6
CONTINUOUS
 10
5.002476
 20
-0.576539
 30
0.0
 70
    64
  0
VERTEX
  8
0
  6
CONTINUOUS
 10
5.016196
 20
-0.576539
 30
0.0
 70
    64
  0
VERTEX
  8
0
  6
CONTINUOUS
 10
5.029916
 20
-0.576539
 30
0.0
 70
    64
  0
VERTEX
  8
0
  6
CONTINUOUS
 10
5.043636
 20
-0.576539
 30
0.0
 70
    64
  0
VERTEX
  8
0
  6
CONTINUOUS
 10
5.057356
 20
-0.576539
 30
0.0
 70
    64
  0
VERTEX
  8
0
  6
CONTINUOUS
 10
5.071076
 20
-0.576539
 30
0.0
 70
    64
  0
VERTEX
  8
0
  6
CONTINUOUS
 10
5.084796
 20
-0.576539
 30
0.0
 70
    64
  0
VERTEX
  8
0
  6
CONTINUOUS
 10
5.098516
 20
-0.576539
 30
0.0
 70
    64
  0
VERTEX
  8
0
  6
CONTINUOUS
 10
5.112236
 20
-0.576539
 30
0.0
 70
    64
  0
VERTEX
  8
0
  6
CONTINUOUS
 10
5.125956
 20
-0.576539
 30
0.0
 70
    64
  0
VERTEX
  8
0
  6
CONTINUOUS
 10
5.139676
 20
-0.576539
 30
0.0
 70
    64
  0
VERTEX
  8
0
  6
CONTINUOUS
 10
5.153396
 20
-0.576539
 30
0.0
 70
    64
  0
VERTEX
  8
0
  6
CONTINUOUS
 10
5.167116
 20
-0.576539
 30
0.0
 70
    64
  0
VERTEX
  8
0
  6
CONTINUOUS
 10
5.180836
 20
-0.576539
 30
0.0
 70
    64
  0
VERTEX
  8
0
  6
CONTINUOUS
 10
5.194556
 20
-0.576539
 30
0.0
 70
    64
  0
VERTEX
  8
0
  6
CONTINUOUS
 10
5.208276
 20
-0.576539
 30
0.0
 70
    64
  0
VERTEX
  8
0
  6
CONTINUOUS
 10
5.221996
 20
-0.576539
 30
0.0
 70
    64
  0
VERTEX
  8
0
  6
CONTINUOUS
 10
5.235716
 20
-0.576539
 30
0.0
 70
    64
  0
VERTEX
  8
0
  6
CONTINUOUS
 10
5.249436
 20
-0.576539
 30
0.0
 70
    64
  0
VERTEX
  8
0
  6
CONTINUOUS
 10
1.819436
 20
0.403461
 30
0.0
 70
    64
  0
VERTEX
  8
0
  6
CONTINUOUS
 10
1.833156
 20
0.403461
 30
0.0
 70
    64
  0
VERTEX
  8
0
  6
CONTINUOUS
 10
1.846876
 20
0.403461
 30
0.0
 70
    64
  0
VERTEX
  8
0
  6
CONTINUOUS
 10
1.860596
 20
0.403461
 30
0.0
 70
    64
  0
VERTEX
  8
0
  6
CONTINUOUS
 10
1.874316
 20
0.403461
 30
0.0
 70
    64
  0
VERTEX
  8
0
  6
CONTINUOUS
 10
1.888036
 20
0.403461
 30
0.0
 70
    64
  0
VERTEX
  8
0
  6
CONTINUOUS
 10
1.901756
 20
0.403461
 30
0.0
 70
    64
  0
VERTEX
  8
0
  6
CONTINUOUS
 10
1.915476
 20
0.403461
 30
0.0
 70
    64
  0
VERTEX
  8
0
  6
CONTINUOUS
 10
1.929196
 20
0.403461
 30
0.0
 70
    64
  0
VERTEX
  8
0
  6
CONTINUOUS
 10
1.942916
 20
0.403461
 30
0.0
 70
    64
  0
VERTEX
  8
0
  6
CONTINUOUS
 10
1.956636
 20
0.403461
 30
0.0
 70
    64
  0
VERTEX
  8
0
  6
CONTINUOUS
 10
1.970356
 20
0.403461
 30
0.0
 70
    64
  0
VERTEX
  8
0
  6
CONTINUOUS
 10
1.984076
 20
0.403461
 30
0.0
 70
    64
  0
VERTEX
  8
0
  6
CONTINUOUS
 10
1.997796
 20
0.403461
 30
0.0
 70
    64
  0
VERTEX
  8
0
  6
CONTINUOUS
 10
2.011516
 20
0.403461
 30
0.0
 70
    64
  0
VERTEX
  8
0
  6
CONTINUOUS
 10
2.025236
 20
0.403461
 30
0.0
 70
    64
  0
VERTEX
  8
0
  6
CONTINUOUS
 10
2.038956
 20
0.403461
 30
0.0
 70
    64
  0
VERTEX
  8
0
  6
CONTINUOUS
 10
2.052676
 20
0.403461
 30
0.0
 70
    64
  0
VERTEX
  8
0
  6
CONTINUOUS
 10
2.066396
 20
0.403461
 30
0.0
 70
    64
  0
VERTEX
  8
0
  6
CONTINUOUS
 10
2.080116
 20
0.403461
 30
0.0
 70
    64
  0
VERTEX
  8
0
  6
CONTINUOUS
 10
2.093836
 20
0.403461
 30
0.0
 70
    64
  0
VERTEX
  8
0
  6
CONTINUOUS
 10
2.107556
 20
0.403461
 30
0.0
 70
    64
  0
VERTEX
  8
0
  6
CONTINUOUS
 10
2.121276
 20
0.403461
 30
0.0
 70
    64
  0
VERTEX
  8
0
  6
CONTINUOUS
 10
2.134996
 20
0.403461
 30
0.0
 70
    64
  0
VERTEX
  8
0
  6
CONTINUOUS
 10
2.148716
 20
0.403461
 30
0.0
 70
    64
  0
VERTEX
  8
0
  6
CONTINUOUS
 10
2.162436
 20
0.403461
 30
0.0
 70
    64
  0
VERTEX
  8
0
  6
CONTINUOUS
 10
2.176156
 20
0.403461
 30
0.0
 70
    64
  0
VERTEX
  8
0
  6
CONTINUOUS
 10
2.189876
 20
0.403461
 30
0.0
 70
    64
  0
VERTEX
  8
0
  6
CONTINUOUS
 10
2.203596
 20
0.403461
 30
0.0
 70
    64
  0
VERTEX
  8
0
  6
CONTINUOUS
 10
2.217316
 20
0.403461
 30
0.0
 70
    64
  0
VERTEX
  8
0
  6
CONTINUOUS
 10
2.231036
 20
0.403461
 30
0.0
 70
    64
  0
VERTEX
  8
0
  6
CONTINUOUS
 10
2.244756
 20
0.403461
 30
0.0
 70
    64
  0
VERTEX
  8
0
  6
CONTINUOUS
 10
2.258476
 20
0.403461
 30
0.0
 70
    64
  0
VERTEX
  8
0
  6
CONTINUOUS
 10
2.272196
 20
0.403461
 30
0.0
 70
    64
  0
VERTEX
  8
0
  6
CONTINUOUS
 10
2.285916
 20
0.403461
 30
0.0
 70
    64
  0
VERTEX
  8
0
  6
CONTINUOUS
 10
2.299636
 20
0.403461
 30
0.0
 70
    64
  0
VERTEX
  8
0
  6
CONTINUOUS
 10
2.313356
 20
0.403461
 30
0.0
 70
    64
  0
VERTEX
  8
0
  6
CONTINUOUS
 10
2.327076
 20
0.403461
 30
0.0
 70
    64
  0
VERTEX
  8
0
  6
CONTINUOUS
 10
2.340796
 20
0.403461
 30
0.0
 70
    64
  0
VERTEX
  8
0
  6
CONTINUOUS
 10
2.354516
 20
0.403461
 30
0.0
 70
    64
  0
VERTEX
  8
0
  6
CONTINUOUS
 10
2.368236
 20
0.403461
 30
0.0
 70
    64
  0
VERTEX
  8
0
  6
CONTINUOUS
 10
2.381956
 20
0.403461
 30
0.0
 70
    64
  0
VERTEX
  8
0
  6
CONTINUOUS
 10
2.395676
 20
0.403461
 30
0.0
 70
    64
  0
VERTEX
  8
0
  6
CONTINUOUS
 10
2.409396
 20
0.403461
 30
0.0
 70
    64
  0
VERTEX
  8
0
  6
CONTINUOUS
 10
2.423116
 20
0.403461
 30
0.0
 70
    64
  0
VERTEX
  8
0
  6
CONTINUOUS
 10
2.436836
 20
0.403461
 30
0.0
 70
    64
  0
VERTEX
  8
0
  6
CONTINUOUS
 10
2.450556
 20
0.403461
 30
0.0
 70
    64
  0
VERTEX
  8
0
  6
CONTINUOUS
 10
2.464276
 20
0.403461
 30
0.0
 70
    64
  0
VERTEX
  8
0
  6
CONTINUOUS
 10
2.477996
 20
0.403461
 30
0.0
 70
    64
  0
VERTEX
  8
0
  6
CONTINUOUS
 10
2.491716
 20
0.403461
 30
0.0
 70
    64
  0
VERTEX
  8
0
  6
CONTINUOUS
 10
2.505436
 20
0.403461
 30
0.0
 70
    64
  0
VERTEX
  8
0
  6
CONTINUOUS
 10
2.519156
 20
0.403461
 30
0.0
 70
    64
  0
VERTEX
  8
0
  6
CONTINUOUS
 10
2.532876
 20
0.403461
 30
0.0
 70
    64
  0
VERTEX
  8
0
  6
CONTINUOUS
 10
2.546596
 20
0.403461
 30
0.0
 70
    64
  0
VERTEX
  8
0
  6
CONTINUOUS
 10
2.560316
 20
0.403461
 30
0.0
 70
    64
  0
VERTEX
  8
0
  6
CONTINUOUS
 10
2.574036
 20
0.403461
 30
0.0
 70
    64
  0
VERTEX
  8
0
  6
CONTINUOUS
 10
2.587756
 20
0.403461
 30
0.0
 70
    64
  0
VERTEX
  8
0
  6
CONTINUOUS
 10
2.601476
 20
0.403461
 30
0.0
 70
    64
  0
VERTEX
  8
0
  6
CONTINUOUS
 10
2.615196
 20
0.403461
 30
0.0
 70
    64
  0
VERTEX
  8
0
  6
CONTINUOUS
 10
2.628916
 20
0.403461
 30
0.0
 70
    64
  0
VERTEX
  8
0
  6
CONTINUOUS
 10
2.642636
 20
0.403461
 30
0.0
 70
    64
  0
VERTEX
  8
0
  6
CONTINUOUS
 10
2.656356
 20
0.403461
 30
0.0
 70
    64
  0
VERTEX
  8
0
  6
CONTINUOUS
 10
2.670076
 20
0.403461
 30
0.0
 70
    64
  0
VERTEX
  8
0
  6
CONTINUOUS
 10
2.683796
 20
0.403461
 30
0.0
 70
    64
  0
VERTEX
  8
0
  6
CONTINUOUS
 10
2.697516
 20
0.403461
 30
0.0
 70
    64
  0
VERTEX
  8
0
  6
CONTINUOUS
 10
2.711236
 20
0.403461
 30
0.0
 70
    64
  0
VERTEX
  8
0
  6
CONTINUOUS
 10
2.724956
 20
0.403461
 30
0.0
 70
    64
  0
VERTEX
  8
0
  6
CONTINUOUS
 10
2.738676
 20
0.403461
 30
0.0
 70
    64
  0
VERTEX
  8
0
  6
CONTINUOUS
 10
2.752396
 20
0.403461
 30
0.0
 70
    64
  0
VERTEX
  8
0
  6
CONTINUOUS
 10
2.766116
 20
0.403461
 30
0.0
 70
    64
  0
VERTEX
  8
0
  6
CONTINUOUS
 10
2.779836
 20
0.403461
 30
0.0
 70
    64
  0
VERTEX
  8
0
  6
CONTINUOUS
 10
2.793556
 20
0.403461
 30
0.0
 70
    64
  0
VERTEX
  8
0
  6
CONTINUOUS
 10
2.807276
 20
0.403461
 30
0.0
 70
    64
  0
VERTEX
  8
0
  6
CONTINUOUS
 10
2.820996
 20
0.403461
 30
0.0
 70
    64
  0
VERTEX
  8
0
  6
CONTINUOUS
 10
2.834716
 20
0.403461
 30
0.0
 70
    64
  0
VERTEX
  8
0
  6
CONTINUOUS
 10
2.848436
 20
0.403461
 30
0.0
 70
    64
  0
VERTEX
  8
0
  6
CONTINUOUS
 10
2.862156
 20
0.403461
 30
0.0
 70
    64
  0
VERTEX
  8
0
  6
CONTINUOUS
 10
2.875876
 20
0.403461
 30
0.0
 70
    64
  0
VERTEX
  8
0
  6
CONTINUOUS
 10
2.889596
 20
0.403461
 30
0.0
 70
    64
  0
VERTEX
  8
0
  6
CONTINUOUS
 10
2.903316
 20
0.403461
 30
0.0
 70
    64
  0
VERTEX
  8
0
  6
CONTINUOUS
 10
2.917036
 20
0.403461
 30
0.0
 70
    64
  0
VERTEX
  8
0
  6
CONTINUOUS
 10
2.930756
 20
0.403461
 30
0.0
 70
    64
  0
VERTEX
  8
0
  6
CONTINUOUS
 10
2.944476
 20
0.403461
 30
0.0
 70
    64
  0
VERTEX
  8
0
  6
CONTINUOUS
 10
2.958196
 20
0.403461
 30
0.0
 70
    64
  0
VERTEX
  8
0
  6
CONTINUOUS
 10
2.971916
 20
0.403461
 30
0.0
 70
    64
  0
VERTEX
  8
0
  6
CONTINUOUS
 10
2.985636
 20
0.403461
 30
0.0
 70
    64
  0
VERTEX
  8
0
  6
CONTINUOUS
 10
2.999356
 20
0.403461
 30
0.0
 70
    64
  0
VERTEX
  8
0
  6
CONTINUOUS
 10
3.013076
 20
0.403461
 30
0.0
 70
    64
  0
VERTEX
  8
0
  6
CONTINUOUS
 10
3.026796
 20
0.403461
 30
0.0
 70
    64
  0
VERTEX
  8
0
  6
CONTINUOUS
 10
3.040516
 20
0.403461
 30
0.0
 70
    64
  0
VERTEX
  8
0
  6
CONTINUOUS
 10
3.054236
 20
0.403461
 30
0.0
 70
    64
  0
VERTEX
  8
0
  6
CONTINUOUS
 10
3.067956
 20
0.403461
 30
0.0
 70
    64
  0
VERTEX
  8
0
  6
CONTINUOUS
 10
3.081676
 20
0.403461
 30
0.0
 70
    64
  0
VERTEX
  8
0
  6
CONTINUOUS
 10
3.095396
 20
0.403461
 30
0.0
 70
    64
  0
VERTEX
  8
0
  6
CONTINUOUS
 10
3.109116
 20
0.403461
 30
0.0
 70
    64
  0
VERTEX
  8
0
  6
CONTINUOUS
 10
3.122836
 20
0.403461
 30
0.0
 70
    64
  0
VERTEX
  8
0
  6
CONTINUOUS
 10
3.136556
 20
0.403461
 30
0.0
 70
    64
  0
VERTEX
  8
0
  6
CONTINUOUS
 10
3.150276
 20
0.403461
 30
0.0
 70
    64
  0
VERTEX
  8
0
  6
CONTINUOUS
 10
3.163996
 20
0.403461
 30
0.0
 70
    64
  0
VERTEX
  8
0
  6
CONTINUOUS
 10
3.177716
 20
0.403461
 30
0.0
 70
    64
  0
VERTEX
  8
0
  6
CONTINUOUS
 10
3.191436
 20
0.403461
 30
0.0
 70
    64
  0
VERTEX
  8
0
  6
CONTINUOUS
 10
3.205156
 20
0.403461
 30
0.0
 70
    64
  0
VERTEX
  8
0
  6
CONTINUOUS
 10
3.218876
 20
0.403461
 30
0.0
 70
    64
  0
VERTEX
  8
0
  6
CONTINUOUS
 10
3.232596
 20
0.403461
 30
0.0
 70
    64
  0
VERTEX
  8
0
  6
CONTINUOUS
 10
3.246316
 20
0.403461
 30
0.0
 70
    64
  0
VERTEX
  8
0
  6
CONTINUOUS
 10
3.260036
 20
0.403461
 30
0.0
 70
    64
  0
VERTEX
  8
0
  6
CONTINUOUS
 10
3.273756
 20
0.403461
 30
0.0
 70
    64
  0
VERTEX
  8
0
  6
CONTINUOUS
 10
3.287476
 20
0.403461
 30
0.0
 70
    64
  0
VERTEX
  8
0
  6
CONTINUOUS
 10
3.301196
 20
0.403461
 30
0.0
 70
    64
  0
VERTEX
  8
0
  6
CONTINUOUS
 10
3.314916
 20
0.403461
 30
0.0
 70
    64
  0
VERTEX
  8
0
  6
CONTINUOUS
 10
3.328636
 20
0.403461
 30
0.0
 70
    64
  0
VERTEX
  8
0
  6
CONTINUOUS
 10
3.342356
 20
0.403461
 30
0.0
 70
    64
  0
VERTEX
  8
0
  6
CONTINUOUS
 10
3.356076
 20
0.403461
 30
0.0
 70
    64
  0
VERTEX
  8
0
  6
CONTINUOUS
 10
3.369796
 20
0.403461
 30
0.0
 70
    64
  0
VERTEX
  8
0
  6
CONTINUOUS
 10
3.383516
 20
0.403461
 30
0.0
 70
    64
  0
VERTEX
  8
0
  6
CONTINUOUS
 10
3.397236
 20
0.403461
 30
0.0
 70
    64
  0
VERTEX
  8
0
  6
CONTINUOUS
 10
3.410956
 20
0.403461
 30
0.0
 70
    64
  0
VERTEX
  8
0
  6
CONTINUOUS
 10
3.424676
 20
0.403461
 30
0.0
 70
    64
  0
VERTEX
  8
0
  6
CONTINUOUS
 10
3.438396
 20
0.403461
 30
0.0
 70
    64
  0
VERTEX
  8
0
  6
CONTINUOUS
 10
3.452116
 20
0.403461
 30
0.0
 70
    64
  0
VERTEX
  8
0
  6
CONTINUOUS
 10
3.465836
 20
0.403461
 30
0.0
 70
    64
  0
VERTEX
  8
0
  6
CONTINUOUS
 10
3.479556
 20
0.403461
 30
0.0
 70
    64
  0
VERTEX
  8
0
  6
CONTINUOUS
 10
3.493276
 20
0.403461
 30
0.0
 70
    64
  0
VERTEX
  8
0
  6
CONTINUOUS
 10
3.506996
 20
0.403461
 30
0.0
 70
    64
  0
VERTEX
  8
0
  6
CONTINUOUS
 10
3.520716
 20
0.403461
 30
0.0
 70
    64
  0
VERTEX
  8
0
  6
CONTINUOUS
 10
3.534436
 20
0.403461
 30
0.0
 70
    64
  0
VERTEX
  8
0
  6
CONTINUOUS
 10
3.548156
 20
0.403461
 30
0.0
 70
    64
  0
VERTEX
  8
0
  6
CONTINUOUS
 10
3.561876
 20
0.403461
 30
0.0
 70
    64
  0
VERTEX
  8
0
  6
CONTINUOUS
 10
3.575596
 20
0.403461
 30
0.0
 70
    64
  0
VERTEX
  8
0
  6
CONTINUOUS
 10
3.589316
 20
0.403461
 30
0.0
 70
    64
  0
VERTEX
  8
0
  6
CONTINUOUS
 10
3.603036
 20
0.403461
 30
0.0
 70
    64
  0
VERTEX
  8
0
  6
CONTINUOUS
 10
3.616756
 20
0.403461
 30
0.0
 70
    64
  0
VERTEX
  8
0
  6
CONTINUOUS
 10
3.630476
 20
0.403461
 30
0.0
 70
    64
  0
VERTEX
  8
0
  6
CONTINUOUS
 10
3.644196
 20
0.403461
 30
0.0
 70
    64
  0
VERTEX
  8
0
  6
CONTINUOUS
 10
3.657916
 20
0.403461
 30
0.0
 70
    64
  0
VERTEX
  8
0
  6
CONTINUOUS
 10
3.671636
 20
0.403461
 30
0.0
 70
    64
  0
VERTEX
  8
0
  6
CONTINUOUS
 10
3.685356
 20
0.403461
 30
0.0
 70
    64
  0
VERTEX
  8
0
  6
CONTINUOUS
 10
3.699076
 20
0.403461
 30
0.0
 70
    64
  0
VERTEX
  8
0
  6
CONTINUOUS
 10
3.712796
 20
0.403461
 30
0.0
 70
    64
  0
VERTEX
  8
0
  6
CONTINUOUS
 10
3.726516
 20
0.403461
 30
0.0
 70
    64
  0
VERTEX
  8
0
  6
CONTINUOUS
 10
3.740236
 20
0.403461
 30
0.0
 70
    64
  0
VERTEX
  8
0
  6
CONTINUOUS
 10
3.753956
 20
0.403461
 30
0.0
 70
    64
  0
VERTEX
  8
0
  6
CONTINUOUS
 10
3.767676
 20
0.403461
 30
0.0
 70
    64
  0
VERTEX
  8
0
  6
CONTINUOUS
 10
3.781396
 20
0.403461
 30
0.0
 70
    64
  0
VERTEX
  8
0
  6
CONTINUOUS
 10
3.795116
 20
0.403461
 30
0.0
 70
    64
  0
VERTEX
  8
0
  6
CONTINUOUS
 10
3.808836
 20
0.403461
 30
0.0
 70
    64
  0
VERTEX
  8
0
  6
CONTINUOUS
 10
3.822556
 20
0.403461
 30
0.0
 70
    64
  0
VERTEX
  8
0
  6
CONTINUOUS
 10
3.836276
 20
0.403461
 30
0.0
 70
    64
  0
VERTEX
  8
0
  6
CONTINUOUS
 10
3.849996
 20
0.403461
 30
0.0
 70
    64
  0
VERTEX
  8
0
  6
CONTINUOUS
 10
3.863716
 20
0.403461
 30
0.0
 70
    64
  0
VERTEX
  8
0
  6
CONTINUOUS
 10
3.877436
 20
0.403461
 30
0.0
 70
    64
  0
VERTEX
  8
0
  6
CONTINUOUS
 10
3.891156
 20
0.403461
 30
0.0
 70
    64
  0
VERTEX
  8
0
  6
CONTINUOUS
 10
3.904876
 20
0.403461
 30
0.0
 70
    64
  0
VERTEX
  8
0
  6
CONTINUOUS
 10
3.918596
 20
0.403461
 30
0.0
 70
    64
  0
VERTEX
  8
0
  6
CONTINUOUS
 10
3.932316
 20
0.403461
 30
0.0
 70
    64
  0
VERTEX
  8
0
  6
CONTINUOUS
 10
3.946036
 20
0.403461
 30
0.0
 70
    64
  0
VERTEX
  8
0
  6
CONTINUOUS
 10
3.959756
 20
0.403461
 30
0.0
 70
    64
  0
VERTEX
  8
0
  6
CONTINUOUS
 10
3.973476
 20
0.403461
 30
0.0
 70
    64
  0
VERTEX
  8
0
  6
CONTINUOUS
 10
3.987196
 20
0.403461
 30
0.0
 70
    64
  0
VERTEX
  8
0
  6
CONTINUOUS
 10
4.000916
 20
0.403461
 30
0.0
 70
    64
  0
VERTEX
  8
0
  6
CONTINUOUS
 10
4.014636
 20
0.403461
 30
0.0
 70
    64
  0
VERTEX
  8
0
  6
CONTINUOUS
 10
4.028356
 20
0.403461
 30
0.0
 70
    64
  0
VERTEX
  8
0
  6
CONTINUOUS
 10
4.042076
 20
0.403461
 30
0.0
 70
    64
  0
VERTEX
  8
0
  6
CONTINUOUS
 10
4.055796
 20
0.403461
 30
0.0
 70
    64
  0
VERTEX
  8
0
  6
CONTINUOUS
 10
4.069516
 20
0.403461
 30
0.0
 70
    64
  0
VERTEX
  8
0
  6
CONTINUOUS
 10
4.083236
 20
0.403461
 30
0.0
 70
    64
  0
VERTEX
  8
0
  6
CONTINUOUS
 10
4.096956
 20
0.403461
 30
0.0
 70
    64
  0
VERTEX
  8
0
  6
CONTINUOUS
 10
4.110676
 20
0.403461
 30
0.0
 70
    64
  0
VERTEX
  8
0
  6
CONTINUOUS
 10
4.124396
 20
0.403461
 30
0.0
 70
    64
  0
VERTEX
  8
0
  6
CONTINUOUS
 10
4.138116
 20
0.403461
 30
0.0
 70
    64
  0
VERTEX
  8
0
  6
CONTINUOUS
 10
4.151836
 20
0.403461
 30
0.0
 70
    64
  0
VERTEX
  8
0
  6
CONTINUOUS
 10
4.165556
 20
0.403461
 30
0.0
 70
    64
  0
VERTEX
  8
0
  6
CONTINUOUS
 10
4.179276
 20
0.403461
 30
0.0
 70
    64
  0
VERTEX
  8
0
  6
CONTINUOUS
 10
4.192996
 20
0.403461
 30
0.0
 70
    64
  0
VERTEX
  8
0
  6
CONTINUOUS
 10
4.206716
 20
0.403461
 30
0.0
 70
    64
  0
VERTEX
  8
0
  6
CONTINUOUS
 10
4.220436
 20
0.403461
 30
0.0
 70
    64
  0
VERTEX
  8
0
  6
CONTINUOUS
 10
4.234156
 20
0.403461
 30
0.0
 70
    64
  0
VERTEX
  8
0
  6
CONTINUOUS
 10
4.247876
 20
0.403461
 30
0.0
 70
    64
  0
VERTEX
  8
0
  6
CONTINUOUS
 10
4.261596
 20
0.403461
 30
0.0
 70
    64
  0
VERTEX
  8
0
  6
CONTINUOUS
 10
4.275316
 20
0.403461
 30
0.0
 70
    64
  0
VERTEX
  8
0
  6
CONTINUOUS
 10
4.289036
 20
0.403461
 30
0.0
 70
    64
  0
VERTEX
  8
0
  6
CONTINUOUS
 10
4.302756
 20
0.403461
 30
0.0
 70
    64
  0
VERTEX
  8
0
  6
CONTINUOUS
 10
4.316476
 20
0.403461
 30
0.0
 70
    64
  0
VERTEX
  8
0
  6
CONTINUOUS
 10
4.330196
 20
0.403461
 30
0.0
 70
    64
  0
VERTEX
  8
0
  6
CONTINUOUS
 10
4.343916
 20
0.403461
 30
0.0
 70
    64
  0
VERTEX
  8
0
  6
CONTINUOUS
 10
4.357636
 20
0.403461
 30
0.0
 70
    64
  0
VERTEX
  8
0
  6
CONTINUOUS
 10
4.371356
 20
0.403461
 30
0.0
 70
    64
  0
VERTEX
  8
0
  6
CONTINUOUS
 10
4.385076
 20
0.403461
 30
0.0
 70
    64
  0
VERTEX
  8
0
  6
CONTINUOUS
 10
4.398796
 20
0.403461
 30
0.0
 70
    64
  0
VERTEX
  8
0
  6
CONTINUOUS
 10
4.412516
 20
0.403461
 30
0.0
 70
    64
  0
VERTEX
  8
0
  6
CONTINUOUS
 10
4.426236
 20
0.403461
 30
0.0
 70
    64
  0
VERTEX
  8
0
  6
CONTINUOUS
 10
4.439956
 20
0.403461
 30
0.0
 70
    64
  0
VERTEX
  8
0
  6
CONTINUOUS
 10
4.453676
 20
0.403461
 30
0.0
 70
    64
  0
VERTEX
  8
0
  6
CONTINUOUS
 10
4.467396
 20
0.403461
 30
0.0
 70
    64
  0
VERTEX
  8
0
  6
CONTINUOUS
 10
4.481116
 20
0.403461
 30
0.0
 70
    64
  0
VERTEX
  8
0
  6
CONTINUOUS
 10
4.494836
 20
0.403461
 30
0.0
 70
    64
  0
VERTEX
  8
0
  6
CONTINUOUS
 10
4.508556
 20
0.403461
 30
0.0
 70
    64
  0
VERTEX
  8
0
  6
CONTINUOUS
 10
4.522276
 20
0.403461
 30
0.0
 70
    64
  0
VERTEX
  8
0
  6
CONTINUOUS
 10
4.535996
 20
0.403461
 30
0.0
 70
    64
  0
VERTEX
  8
0
  6
CONTINUOUS
 10
4.549716
 20
0.403461
 30
0.0
 70
    64
  0
VERTEX
  8
0
  6
CONTINUOUS
 10
4.563436
 20
0.403461
 30
0.0
 70
    64
  0
VERTEX
  8
0
  6
CONTINUOUS
 10
4.577156
 20
0.403461
 30
0.0
 70
    64
  0
VERTEX
  8
0
  6
CONTINUOUS
 10
4.590876
 20
0.403461
 30
0.0
 70
    64
  0
VERTEX
  8
0
  6
CONTINUOUS
 10
4.604596
 20
0.403461
 30
0.0
 70
    64
  0
VERTEX
  8
0
  6
CONTINUOUS
 10
4.618316
 20
0.403461
 30
0.0
 70
    64
  0
VERTEX
  8
0
  6
CONTINUOUS
 10
4.632036
 20
0.403461
 30
0.0
 70
    64
  0
VERTEX
  8
0
  6
CONTINUOUS
 10
4.645756
 20
0.403461
 30
0.0
 70
    64
  0
VERTEX
  8
0
  6
CONTINUOUS
 10
4.659476
 20
0.403461
 30
0.0
 70
    64
  0
VERTEX
  8
0
  6
CONTINUOUS
 10
4.673196
 20
0.403461
 30
0.0
 70
    64
  0
VERTEX
  8
0
  6
CONTINUOUS
 10
4.686916
 20
0.403461
 30
0.0
 70
    64
  0
VERTEX
  8
0
  6
CONTINUOUS
 10
4.700636
 20
0.403461
 30
0.0
 70
    64
  0
VERTEX
  8
0
  6
CONTINUOUS
 10
4.714356
 20
0.403461
 30
0.0
 70
    64
  0
VERTEX
  8
0
  6
CONTINUOUS
 10
4.728076
 20
0.403461
 30
0.0
 70
    64
  0
VERTEX
  8
0
  6
CONTINUOUS
 10
4.741796
 20
0.403461
 30
0.0
 70
    64
  0
VERTEX
  8
0
  6
CONTINUOUS
 10
4.755516
 20
0.403461
 30
0.0
 70
    64
  0
VERTEX
  8
0
  6
CONTINUOUS
 10
4.769236
 20
0.403461
 30
0.0
 70
    64
  0
VERTEX
  8
0
  6
CONTINUOUS
 10
4.782956
 20
0.403461
 30
0.0
 70
    64
  0
VERTEX
  8
0
  6
CONTINUOUS
 10
4.796676
 20
0.403461
 30
0.0
 70
    64
  0
VERTEX
  8
0
  6
CONTINUOUS
 10
4.810396
 20
0.403461
 30
0.0
 70
    64
  0
VERTEX
  8
0
  6
CONTINUOUS
 10
4.824116
 20
0.403461
 30
0.0
 70
    64
  0
VERTEX
  8
0
  6
CONTINUOUS
 10
4.837836
 20
0.403461
 30
0.0
 70
    64
  0
VERTEX
  8
0
  6
CONTINUOUS
 10
4.851556
 20
0.403461
 30
0.0
 70
    64
  0
VERTEX
  8
0
  6
CONTINUOUS
 10
4.865276
 20
0.403461
 30
0.0
 70
    64
  0
VERTEX
  8
0
  6
CONTINUOUS
 10
4.878996
 20
0.403461
 30
0.0
 70
    64
  0
VERTEX
  8
0
  6
CONTINUOUS
 10
4.892716
 20
0.403461
 30
0.0
 70
    64
  0
VERTEX
  8
0
  6
CONTINUOUS
 10
4.906436
 20
0.403461
 30
0.0
 70
    64
  0
VERTEX
  8
0
  6
CONTINUOUS
 10
4.920156
 20
0.403461
 30
0.0
 70
    64
  0
VERTEX
  8
0
  6
CONTINUOUS
 10
4.933876
 20
0.403461
 30
0.0
 70
    64
  0
VERTEX
  8
0
  6
CONTINUOUS
 10
4.947596
 20
0.403461
 30
0.0
 70
    64
  0
VERTEX
  8
0
  6
CONTINUOUS
 10
4.961316
 20
0.403461
 30
0.0
 70
    64
  0
VERTEX
  8
0
  6
CONTINUOUS
 10
4.975036
 20
0.403461
 30
0.0
 70
    64
  0
VERTEX
  8
0
  6
CONTINUOUS
 10
4.988756
 20
0.403461
 30
0.0
 70
    64
  0
VERTEX
  8
0
  6
CONTINUOUS
 10
5.002476
 20
0.403461
 30
0.0
 70
    64
  0
VERTEX
  8
0
  6
CONTINUOUS
 10
5.016196
 20
0.403461
 30
0.0
 70
    64
  0
VERTEX
  8
0
  6
CONTINUOUS
 10
5.029916
 20
0.403461
 30
0.0
 70
    64
  0
VERTEX
  8
0
  6
CONTINUOUS
 10
5.043636
 20
0.403461
 30
0.0
 70
    64
  0
VERTEX
  8
0
  6
CONTINUOUS
 10
5.057356
 20
0.403461
 30
0.0
 70
    64
  0
VERTEX
  8
0
  6
CONTINUOUS
 10
5.071076
 20
0.403461
 30
0.0
 70
    64
  0
VERTEX
  8
0
  6
CONTINUOUS
 10
5.084796
 20
0.403461
 30
0.0
 70
    64
  0
VERTEX
  8
0
  6
CONTINUOUS
 10
5.098516
 20
0.403461
 30
0.0
 70
    64
  0
VERTEX
  8
0
  6
CONTINUOUS
 10
5.112236
 20
0.403461
 30
0.0
 70
    64
  0
VERTEX
  8
0
  6
CONTINUOUS
 10
5.125956
 20
0.403461
 30
0.0
 70
    64
  0
VERTEX
  8
0
  6
CONTINUOUS
 10
5.139676
 20
0.403461
 30
0.0
 70
    64
  0
VERTEX
  8
0
  6
CONTINUOUS
 10
5.153396
 20
0.403461
 30
0.0
 70
    64
  0
VERTEX
  8
0
  6
CONTINUOUS
 10
5.167116
 20
0.403461
 30
0.0
 70
    64
  0
VERTEX
  8
0
  6
CONTINUOUS
 10
5.180836
 20
0.403461
 30
0.0
 70
    64
  0
VERTEX
  8
0
  6
CONTINUOUS
 10
5.194556
 20
0.403461
 30
0.0
 70
    64
  0
VERTEX
  8
0
  6
CONTINUOUS
 10
5.208276
 20
0.403461
 30
0.0
 70
    64
  0
VERTEX
  8
0
  6
CONTINUOUS
 10
5.221996
 20
0.403461
 30
0.0
 70
    64
  0
VERTEX
  8
0
  6
CONTINUOUS
 10
5.235716
 20
0.403461
 30
0.0
 70
    64
  0
VERTEX
  8
0
  6
CONTINUOUS
 10
5.249436
 20
0.403461
 30
0.0
 70
    64
  0
SEQEND
  8
0
  6
CONTINUOUS
  0
LINE
  8
0
  6
DASHED
 10
5.0
 20
-0.086539
 30
0.0
 11
15.0
 21
-0.086539
 31
0.0
  0
ARC
  8
0
  6
CONTINUOUS
 10
2.5
 20
-0.086539
 30
0.0
 40
2.5
 50
90.0
 51
270.0
  0
ENDBLK
  8
0
  0
BLOCK
  8
0
  2
B109
 70
     0
 10
0.0
 20
0.0
 30
0.0
  3
B109
  0
LINE
  8
0
  6
CONTINUOUS
 10
-1.084905
 20
0.0
 30
0.0
 11
-1.084905
 21
5.0
 31
0.0
  0
LINE
  8
0
  6
CONTINUOUS
 10
1.084905
 20
0.0
 30
0.0
 11
-1.084905
 21
0.0
 31
0.0
  0
LINE
  8
0
  6
CONTINUOUS
 10
1.084905
 20
5.0
 30
0.0
 11
1.084905
 21
0.0
 31
0.0
  0
LINE
  8
0
  6
CONTINUOUS
 10
-1.084905
 20
5.0
 30
0.0
 11
1.084905
 21
5.0
 31
0.0
  0
ENDBLK
  8
0
  0
BLOCK
  8
0
  2
B158
 70
     0
 10
0.0
 20
0.0
 30
0.0
  3
B158
  0
POLYLINE
  8
BASE
  6
DASHED
 66
     1
 10
0.0
 20
0.0
 30
0.0
 70
     1
 40
0.5
 41
0.5
 71
     2
 72
   151
  0
VERTEX
  8
BASE
  6
DASHED
 10
64.5
 20
-50.0
 30
0.0
 42
1.0
  0
VERTEX
  8
BASE
  6
DASHED
 10
65.5
 20
-50.0
 30
0.0
 42
1.0
  0
SEQEND
  8
BASE
  6
DASHED
  0
LINE
  8
BASE
  6
DASHED
 10
17.5
 20
-60.0
 30
0.0
 11
27.5
 21
-60.0
 31
0.0
  0
LINE
  8
0
  6
CONTINUOUS
 10
17.5
 20
-40.0
 30
0.0
 11
6.0
 21
-40.0
 31
0.0
  0
LINE
  8
0
  6
DASHED
 10
17.5
 20
-20.0
 30
0.0
 11
27.5
 21
-20.0
 31
0.0
  0
LINE
  8
0
  6
CONTINUOUS
 10
17.5
 20
0.0
 30
0.0
 11
6.0
 21
0.0
 31
0.0
  0
LINE
  8
BASE
  6
CONTINUOUS
 10
6.0
 20
1.5
 30
0.0
 11
5.0
 21
2.5
 31
0.0
  0
TEXT
  8
BASE
  6
CONTINUOUS
 10
6.776354
 20
1.119755
 30
0.0
 40
2.0
  1
9)
  0
LINE
  8
BASE
  6
CONTINUOUS
 10
6.0
 20
1.5
 30
0.0
 11
6.0
 21
-5.5
 31
0.0
  0
LINE
  8
BASE
  6
CONTINUOUS
 10
6.0
 20
-5.5
 30
0.0
 11
5.0
 21
-6.5
 31
0.0
  0
TEXT
  8
BASE
  6
CONTINUOUS
 10
6.776354
 20
-18.880245
 30
0.0
 40
2.0
  1
9)
  0
LINE
  8
BASE
  6
CONTINUOUS
 10
6.0
 20
-18.5
 30
0.0
 11
5.0
 21
-17.5
 31
0.0
  0
LINE
  8
BASE
  6
CONTINUOUS
 10
6.0
 20
-18.5
 30
0.0
 11
6.0
 21
-25.5
 31
0.0
  0
LINE
  8
BASE
  6
CONTINUOUS
 10
6.0
 20
-25.5
 30
0.0
 11
5.0
 21
-26.5
 31
0.0
  0
LINE
  8
BASE
  6
CONTINUOUS
 10
0.0
 20
-10.0
 30
0.0
 11
15.0
 21
-10.0
 31
0.0
  0
LINE
  8
BASE
  6
CONTINUOUS
 10
15.0
 20
-30.0
 30
0.0
 11
0.0
 21
-30.0
 31
0.0
  0
TEXT
  8
BASE
  6
CONTINUOUS
 10
6.776354
 20
-38.880245
 30
0.0
 40
2.0
  1
9)
  0
LINE
  8
BASE
  6
CONTINUOUS
 10
6.0
 20
-38.5
 30
0.0
 11
5.0
 21
-37.5
 31
0.0
  0
LINE
  8
BASE
  6
CONTINUOUS
 10
6.0
 20
-38.5
 30
0.0
 11
6.0
 21
-45.5
 31
0.0
  0
LINE
  8
BASE
  6
CONTINUOUS
 10
6.0
 20
-45.5
 30
0.0
 11
5.0
 21
-46.5
 31
0.0
  0
LINE
  8
BASE
  6
CONTINUOUS
 10
15.0
 20
-50.0
 30
0.0
 11
0.0
 21
-50.0
 31
0.0
  0
TEXT
  8
BASE
  6
CONTINUOUS
 10
6.776354
 20
-58.880245
 30
0.0
 40
2.0
  1
9)
  0
LINE
  8
BASE
  6
CONTINUOUS
 10
6.0
 20
-58.5
 30
0.0
 11
5.0
 21
-57.5
 31
0.0
  0
LINE
  8
BASE
  6
CONTINUOUS
 10
6.0
 20
-58.5
 30
0.0
 11
6.0
 21
-65.5
 31
0.0
  0
LINE
  8
BASE
  6
CONTINUOUS
 10
6.0
 20
-65.5
 30
0.0
 11
5.0
 21
-66.5
 31
0.0
  0
LINE
  8
BASE
  6
CONTINUOUS
 10
15.0
 20
-70.0
 30
0.0
 11
0.0
 21
-70.0
 31
0.0
  0
LINE
  8
BASE
  6
DASHED
 10
27.5
 20
-70.0
 30
0.0
 11
50.0
 21
-70.0
 31
0.0
  0
LINE
  8
BASE
  6
DASHED
 10
27.5
 20
-60.0
 30
0.0
 11
45.0
 21
-60.0
 31
0.0
  0
LINE
  8
0
  6
DASHED
 10
27.5
 20
-50.0
 30
0.0
 11
30.0
 21
-50.0
 31
0.0
  0
LINE
  8
0
  6
DASHED
 10
27.5
 20
-40.0
 30
0.0
 11
17.5
 21
-40.0
 31
0.0
  0
LINE
  8
0
  6
DASHED
 10
27.5
 20
-20.0
 30
0.0
 11
30.0
 21
-20.0
 31
0.0
  0
LINE
  8
0
  6
DASHED
 10
27.5
 20
0.0
 30
0.0
 11
17.5
 21
0.0
 31
0.0
  0
LINE
  8
BASE
  6
DASHED
 10
45.0
 20
7.310013
 30
0.0
 11
45.0
 21
-60.0
 31
0.0
  0
LINE
  8
BASE
  6
DASHED
 10
52.5
 20
-70.0
 30
0.0
 11
52.5
 21
2.499997
 31
0.0
  0
LINE
  8
BASE
  6
DASHED
 10
50.0
 20
-70.0
 30
0.0
 11
52.5
 21
-70.0
 31
0.0
  0
LINE
  8
BASE
  6
DASHED
 10
15.0
 20
-70.0
 30
0.0
 11
27.5
 21
-70.0
 31
0.0
  0
LINE
  8
BASE
  6
CONTINUOUS
 10
6.0
 20
-60.0
 30
0.0
 11
17.5
 21
-60.0
 31
0.0
  0
LINE
  8
0
  6
CONTINUOUS
 10
70.0
 20
-62.5
 30
0.0
 11
80.0
 21
-62.5
 31
0.0
  0
LINE
  8
0
  6
DASHED
 10
65.0
 20
-24.810008
 30
0.0
 11
65.0
 21
-50.0
 31
0.0
  0
LINE
  8
0
  6
DASHED
 10
80.006921
 20
-44.810016
 30
0.0
 11
65.0
 21
-44.810016
 31
0.0
  0
LINE
  8
0
  6
DASHED
 10
75.069797
 20
-34.810016
 30
0.0
 11
65.0
 21
-34.810016
 31
0.0
  0
LINE
  8
0
  6
DASHED
 10
70.0
 20
-27.5
 30
0.0
 11
70.0
 21
-62.5
 31
0.0
  0
LINE
  8
0
  6
DASHED
 10
80.0
 20
-27.5
 30
0.0
 11
80.0
 21
-62.5
 31
0.0
  0
INSERT
  8
0
  6
CONTINUOUS
  2
BLC27
 10
71.491154
 20
-22.381567
 30
0.0
 50
180.0
  0
LINE
  8
0
  6
DASHED
 10
70.0
 20
12.5
 30
0.0
 11
70.0
 21
-2.5
 31
0.0
  0
LINE
  8
0
  6
DASHED
 10
75.0
 20
12.5
 30
0.0
 11
75.0
 21
-2.5
 31
0.0
  0
LINE
  8
0
  6
DASHED
 10
80.0
 20
12.5
 30
0.0
 11
80.0
 21
-2.5
 31
0.0
  0
INSERT
  8
0
  6
CONTINUOUS
  2
BLC27
 10
76.51227
 20
-32.38157
 30
0.0
 50
180.0
  0
INSERT
  8
0
  6
CONTINUOUS
  2
BLC27
 10
81.491155
 20
-42.381569
 30
0.0
 50
180.0
  0
LINE
  8
0
  6
DASHED
 10
70.0
 20
-24.810008
 30
0.0
 11
65.0
 21
-24.810008
 31
0.0
  0
CIRCLE
  8
0
  6
CONTINUOUS
 10
75.0
 20
-12.5
 30
0.0
 40
6.916051
  0
LINE
  8
0
  6
DASHED
 10
80.0
 20
-2.5
 30
0.0
 11
80.0
 21
-7.721741
 31
0.0
  0
LINE
  8
0
  6
DASHED
 10
75.0
 20
-2.5
 30
0.0
 11
75.0
 21
-5.583949
 31
0.0
  0
LINE
  8
0
  6
DASHED
 10
70.0
 20
-2.5
 30
0.0
 11
70.0
 21
-7.721741
 31
0.0
  0
TEXT
  8
0
  6
CONTINUOUS
 10
73.942852
 20
-13.903688
 30
0.0
 40
3.0
  1
G
  0
INSERT
  8
0
  6
CONTINUOUS
  2
BLC27
 10
63.491996
 20
4.928446
 30
0.0
 41
-1.0
 50
180.0
  0
TEXT
  8
0
  6
DASHED
 10
68.566163
 20
15.0
 30
0.0
 40
2.0
  1
L1
  0
TEXT
  8
0
  6
DASHED
 10
73.374985
 20
15.0
 30
0.0
 40
2.0
  1
L2
  0
TEXT
  8
0
  6
DASHED
 10
78.454642
 20
15.0
 30
0.0
 40
2.0
  1
L3
  0
LINE
  8
0
  6
DASHED
 10
75.0
 20
-19.416051
 30
0.0
 11
75.0
 21
-62.5
 31
0.0
  0
LINE
  8
0
  6
DASHED
 10
80.0
 20
-17.278259
 30
0.0
 11
80.0
 21
-27.5
 31
0.0
  0
LINE
  8
0
  6
DASHED
 10
70.0
 20
-17.278259
 30
0.0
 11
70.0
 21
-27.5
 31
0.0
  0
LINE
  8
0
  6
DASHED
 10
80.0
 20
-40.0
 30
0.0
 11
30.0
 21
-40.0
 31
0.0
  0
LINE
  8
0
  6
CONTINUOUS
 10
6.0
 20
-20.0
 30
0.0
 11
17.5
 21
-20.0
 31
0.0
  0
LINE
  8
0
  6
DASHED
 10
30.0
 20
-20.0
 30
0.0
 11
30.0
 21
-30.0
 31
0.0
  0
LINE
  8
0
  6
DASHED
 10
30.0
 20
-30.0
 30
0.0
 11
75.0
 21
-30.0
 31
0.0
  0
LINE
  8
0
  6
DASHED
 10
70.0
 20
-20.0
 30
0.0
 11
37.5
 21
-20.0
 31
0.0
  0
LINE
  8
0
  6
DASHED
 10
37.5
 20
-20.0
 30
0.0
 11
37.5
 21
0.0
 31
0.0
  0
LINE
  8
0
  6
DASHED
 10
37.5
 20
0.0
 30
0.0
 11
30.0
 21
0.0
 31
0.0
  0
LINE
  8
0
  6
DASHED
 10
15.0
 20
-50.0
 30
0.0
 11
27.5
 21
-50.0
 31
0.0
  0
LINE
  8
0
  6
DASHED
 10
15.0
 20
-10.0
 30
0.0
 11
25.0
 21
-10.0
 31
0.0
  0
LINE
  8
0
  6
DASHED
 10
25.0
 20
-10.0
 30
0.0
 11
25.0
 21
-50.0
 31
0.0
  0
LINE
  8
0
  6
DASHED
 10
15.0
 20
-30.0
 30
0.0
 11
25.0
 21
-30.0
 31
0.0
  0
INSERT
  8
0
  6
CONTINUOUS
  2
BLC27
 10
58.995421
 20
4.928444
 30
0.0
 50
180.0
  0
LINE
  8
0
  6
DASHED
 10
75.0
 20
2.5
 30
0.0
 11
65.0
 21
2.5
 31
0.0
  0
LINE
  8
0
  6
DASHED
 10
69.983157
 20
7.310016
 30
0.0
 11
65.0
 21
7.310016
 31
0.0
  0
POLYLINE
  8
0
  6
DASHED
 66
     1
 10
0.0
 20
0.0
 30
0.0
 70
     1
 40
0.5
 41
0.5
 71
     2
 72
   151
  0
VERTEX
  8
0
  6
DASHED
 10
74.5
 20
2.5
 30
0.0
 42
1.0
  0
VERTEX
  8
0
  6
DASHED
 10
75.5
 20
2.5
 30
0.0
 42
1.0
  0
SEQEND
  8
0
  6
DASHED
  0
POLYLINE
  8
0
  6
DASHED
 66
     1
 10
0.0
 20
0.0
 30
0.0
 70
     1
 40
0.5
 41
0.5
 71
     2
 72
   151
  0
VERTEX
  8
0
  6
DASHED
 10
69.483157
 20
7.310016
 30
0.0
 42
1.0
  0
VERTEX
  8
0
  6
DASHED
 10
70.483157
 20
7.310016
 30
0.0
 42
1.0
  0
SEQEND
  8
0
  6
DASHED
  0
LINE
  8
0
  6
DASHED
 10
65.374033
 20
-50.0
 30
0.0
 11
30.0
 21
-50.0
 31
0.0
  0
POLYLINE
  8
0
  6
DASHED
 66
     1
 10
0.0
 20
0.0
 30
0.0
 70
     1
 40
0.5
 41
0.5
 71
     2
 72
   151
  0
VERTEX
  8
0
  6
DASHED
 10
64.5
 20
-34.810016
 30
0.0
 42
1.0
  0
VERTEX
  8
0
  6
DASHED
 10
65.5
 20
-34.810016
 30
0.0
 42
1.0
  0
SEQEND
  8
0
  6
DASHED
  0
POLYLINE
  8
0
  6
DASHED
 66
     1
 10
0.0
 20
0.0
 30
0.0
 70
     1
 40
0.5
 41
0.5
 71
     2
 72
   151
  0
VERTEX
  8
0
  6
DASHED
 10
64.5
 20
-44.810354
 30
0.0
 42
1.0
  0
VERTEX
  8
0
  6
DASHED
 10
65.5
 20
-44.810354
 30
0.0
 42
1.0
  0
SEQEND
  8
0
  6
DASHED
  0
LINE
  8
0
  6
CONTINUOUS
 10
65.0
 20
-50.0
 30
0.0
 11
65.0
 21
-54.345281
 31
0.0
  0
LINE
  8
0
  6
CONTINUOUS
 10
64.396305
 20
-56.126834
 30
0.0
 11
65.603695
 21
-56.126834
 31
0.0
  0
LINE
  8
0
  6
CONTINUOUS
 10
63.963807
 20
-55.23932
 30
0.0
 11
66.027182
 21
-55.23932
 31
0.0
  0
LINE
  8
0
  6
CONTINUOUS
 10
63.468237
 20
-54.345281
 30
0.0
 11
66.531763
 21
-54.345281
 31
0.0
  0
LINE
  8
0
  6
DASHED
 10
57.50426
 20
7.310013
 30
0.0
 11
45.0
 21
7.310013
 31
0.0
  0
LINE
  8
0
  6
DASHED
 10
57.487417
 20
2.499997
 30
0.0
 11
52.5
 21
2.499997
 31
0.0
  0
LINE
  8
0
  6
CONTINUOUS
 10
55.747433
 20
2.499997
 30
0.0
 11
55.747433
 21
-1.655635
 31
0.0
  0
LINE
  8
0
  6
CONTINUOUS
 10
55.143738
 20
-3.437188
 30
0.0
 11
56.351128
 21
-3.437188
 31
0.0
  0
LINE
  8
0
  6
CONTINUOUS
 10
54.71124
 20
-2.549675
 30
0.0
 11
56.774615
 21
-2.549675
 31
0.0
  0
LINE
  8
0
  6
CONTINUOUS
 10
54.21567
 20
-1.655635
 30
0.0
 11
57.279196
 21
-1.655635
 31
0.0
  0
POLYLINE
  8
0
  6
DASHED
 66
     1
 10
0.0
 20
0.0
 30
0.0
 70
     1
 40
0.5
 41
0.5
 71
     2
 72
   151
  0
VERTEX
  8
0
  6
DASHED
 10
55.247433
 20
2.499997
 30
0.0
 42
1.0
  0
VERTEX
  8
0
  6
DASHED
 10
56.247433
 20
2.499997
 30
0.0
 42
1.0
  0
SEQEND
  8
0
  6
DASHED
  0
LINE
  8
0
  6
DASHED
 10
30.0
 20
0.0
 30
0.0
 11
27.5
 21
0.0
 31
0.0
  0
LINE
  8
0
  6
DASHED
 10
30.0
 20
-40.0
 30
0.0
 11
27.5
 21
-40.0
 31
0.0
  0
POLYLINE
  8
0
  6
DASHED
 66
     1
 10
0.0
 20
0.0
 30
0.0
 70
     1
 40
0.5
 41
0.5
 71
     2
 72
   151
  0
VERTEX
  8
0
  6
DASHED
 10
24.5
 20
-50.0
 30
0.0
 42
1.0
  0
VERTEX
  8
0
  6
DASHED
 10
25.5
 20
-50.0
 30
0.0
 42
1.0
  0
SEQEND
  8
0
  6
DASHED
  0
POLYLINE
  8
0
  6
DASHED
 66
     1
 10
0.0
 20
0.0
 30
0.0
 70
     1
 40
0.5
 41
0.5
 71
     2
 72
   151
  0
VERTEX
  8
0
  6
DASHED
 10
24.5
 20
-30.0
 30
0.0
 42
1.0
  0
VERTEX
  8
0
  6
DASHED
 10
25.5
 20
-30.0
 30
0.0
 42
1.0
  0
SEQEND
  8
0
  6
DASHED
  0
LINE
  8
BASE
  6
CONTINUOUS
 10
0.0
 20
-65.0
 30
0.0
 11
4.266471
 21
-65.0
 31
0.0
  0
LINE
  8
BASE
  6
CONTINUOUS
 10
0.0
 20
-60.0
 30
0.0
 11
4.266471
 21
-60.0
 31
0.0
  0
LINE
  8
BASE
  6
CONTINUOUS
 10
0.0
 20
-45.0
 30
0.0
 11
4.266471
 21
-45.0
 31
0.0
  0
LINE
  8
BASE
  6
CONTINUOUS
 10
0.0
 20
-40.0
 30
0.0
 11
4.266471
 21
-40.0
 31
0.0
  0
LINE
  8
BASE
  6
CONTINUOUS
 10
0.0
 20
-25.0
 30
0.0
 11
4.266471
 21
-25.0
 31
0.0
  0
LINE
  8
BASE
  6
CONTINUOUS
 10
0.0
 20
-20.0
 30
0.0
 11
4.266471
 21
-20.0
 31
0.0
  0
LINE
  8
BASE
  6
CONTINUOUS
 10
0.0
 20
-5.0
 30
0.0
 11
4.266471
 21
-5.0
 31
0.0
  0
LINE
  8
BASE
  6
CONTINUOUS
 10
0.0
 20
0.0
 30
0.0
 11
4.266471
 21
0.0
 31
0.0
  0
ENDBLK
  8
0
  0
ENDSEC
  0
SECTION
  2
ENTITIES
  0
INSERT
  8
0
  2
1
 10
65.405438
 20
98.713066
 30
0.0
  0
INSERT
  8
0
  2
1
 10
72.541652
 20
49.71056
 30
0.0
  0
INSERT
  8
0
  2
1
 10
85.390443
 20
73.497234
 30
0.0
  0
LINE
  8
0
  6
CENTER
 62
   249
 10
240.0
 20
237.5
 30
0.0
 11
240.0
 21
60.0
 31
0.0
  0
LINE
  8
0
  6
CONTINUOUS
 62
   249
 10
215.0
 20
75.0
 30
0.0
 11
225.0
 21
75.0
 31
0.0
  0
LINE
  8
0
  6
CONTINUOUS
 62
   249
 10
215.0
 20
75.0
 30
0.0
 11
217.5
 21
77.5
 31
0.0
  0
LINE
  8
0
  6
CONTINUOUS
 62
   249
 10
220.0
 20
75.0
 30
0.0
 11
222.5
 21
77.5
 31
0.0
  0
LINE
  8
0
  6
CONTINUOUS
 62
   249
 10
225.0
 20
75.0
 30
0.0
 11
227.5
 21
77.5
 31
0.0
  0
LINE
  8
0
  6
CONTINUOUS
 62
   249
 10
220.0
 20
75.0
 30
0.0
 11
220.0
 21
60.0
 31
0.0
  0
LINE
  8
0
  6
CONTINUOUS
 62
   249
 10
207.5
 20
77.5
 30
0.0
 11
207.5
 21
60.0
 31
0.0
  0
LINE
  8
0
  6
CONTINUOUS
 62
   249
 10
202.5
 20
77.5
 30
0.0
 11
202.5
 21
60.0
 31
0.0
  0
LINE
  8
0
  6
DASHED
 62
   249
 10
207.5
 20
60.0
 30
0.0
 11
207.5
 21
52.5
 31
0.0
  0
LINE
  8
0
  6
DASHED
 62
   249
 10
220.0
 20
60.0
 30
0.0
 11
220.0
 21
52.5
 31
0.0
  0
LINE
  8
0
  6
DASHED
 62
   249
 10
202.5
 20
60.0
 30
0.0
 11
202.5
 21
52.5
 31
0.0
  0
LINE
  8
0
  6
DASHED
 62
   249
 10
187.5
 20
60.0
 30
0.0
 11
187.5
 21
52.5
 31
0.0
  0
LINE
  8
0
  6
DASHED
 62
   249
 10
172.5
 20
60.0
 30
0.0
 11
172.5
 21
52.5
 31
0.0
  0
LINE
  8
0
  6
DASHED
 62
   249
 10
157.5
 20
60.0
 30
0.0
 11
157.5
 21
52.5
 31
0.0
  0
LINE
  8
0
  6
CONTINUOUS
 62
   249
 10
162.5
 20
160.232891
 30
0.0
 11
195.0
 21
160.232891
 31
0.0
  0
TEXT
  8
0
  6
CONTINUOUS
 62
   249
 10
174.408766
 20
156.295815
 30
0.0
 40
2.5
  1
IRF
 11
174.408766
 21
155.462481
 31
0.0
 73
     1
  0
LINE
  8
0
  6
CONTINUOUS
 62
   249
 10
172.5
 20
105.0
 30
0.0
 11
172.5
 21
72.5
 31
0.0
  0
LINE
  8
0
  6
CONTINUOUS
 62
   249
 10
162.5
 20
165.0
 30
0.0
 11
195.0
 21
165.0
 31
0.0
  0
CIRCLE
  8
0
  6
CONTINUOUS
 62
   249
 10
161.512659
 20
157.498324
 30
0.0
 40
1.0
  0
LINE
  8
0
  6
CONTINUOUS
 62
   249
 10
176.513339
 20
217.38882
 30
0.0
 11
176.513339
 21
215.600688
 31
0.0
  0
LINE
  8
0
  6
CONTINUOUS
 62
   249
 10
176.544371
 20
216.543541
 30
0.0
 11
184.332576
 21
216.543541
 31
0.0
  0
LINE
  8
0
  6
CONTINUOUS
 62
   249
 10
178.928515
 20
215.375938
 30
0.0
 11
181.804626
 21
218.204497
 31
0.0
  0
LINE
  8
0
  6
CONTINUOUS
 62
   249
 10
181.373922
 20
218.741704
 30
0.0
 11
182.274599
 21
217.617955
 31
0.0
  0
LINE
  8
0
  6
CONTINUOUS
 62
   249
 10
184.328035
 20
217.38882
 30
0.0
 11
184.328035
 21
215.600688
 31
0.0
  0
LINE
  8
0
  6
CONTINUOUS
 62
   249
 10
162.5
 20
220.0
 30
0.0
 11
162.5
 21
205.0
 31
0.0
  0
LINE
  8
0
  6
CONTINUOUS
 62
   249
 10
162.5
 20
220.0
 30
0.0
 11
162.5
 21
225.0
 31
0.0
  0
LINE
  8
0
  6
CONTINUOUS
 62
   249
 10
162.5
 20
205.0
 30
0.0
 11
162.5
 21
155.232891
 31
0.0
  0
LINE
  8
0
  6
CENTER
 62
   249
 10
40.0
 20
237.5
 30
0.0
 11
40.0
 21
60.0
 31
0.0
  0
TEXT
  8
0
  6
DASHED
 62
   249
 10
60.697373
 20
140.903492
 30
0.0
 40
2.0
  1
A
  0
TEXT
  8
0
  6
DASHED
 62
   249
 10
98.484014
 20
105.755752
 30
0.0
 40
2.0
  1
D
  0
TEXT
  8
0
  6
DASHED
 62
   249
 10
108.171573
 20
95.864654
 30
0.0
 40
2.0
  1
E
  0
LINE
  8
0
  6
CENTER
 62
   249
 10
40.0
 20
60.0
 30
0.0
 11
240.0
 21
60.0
 31
0.0
  0
LINE
  8
0
  6
CONTINUOUS
 62
   249
 10
157.5
 20
72.5
 30
0.0
 11
157.5
 21
60.0
 31
0.0
  0
LINE
  8
0
  6
CONTINUOUS
 62
   249
 10
182.5
 20
140.0
 30
0.0
 11
182.5
 21
72.5
 31
0.0
  0
LINE
  8
0
  6
CENTER
 62
   249
 10
240.0
 20
237.5
 30
0.0
 11
40.0
 21
237.5
 31
0.0
  0
LINE
  8
0
  6
DASHED
 62
   249
 10
182.5
 20
60.0
 30
0.0
 11
182.5
 21
52.5
 31
0.0
  0
TEXT
  8
0
  6
CONTINUOUS
 62
   249
 10
189.341301
 20
225.823751
 30
0.0
 40
2.5
  1
U1
  0
LINE
  8
0
  6
CONTINUOUS
 62
   249
 10
162.5
 20
185.0
 30
0.0
 11
195.0
 21
185.0
 31
0.0
  0
LINE
  8
0
  6
CONTINUOUS
 62
   249
 10
162.5
 20
205.0
 30
0.0
 11
182.5
 21
205.0
 31
0.0
  0
LINE
  8
0
  6
CONTINUOUS
 62
   249
 10
182.5
 20
205.0
 30
0.0
 11
195.0
 21
205.0
 31
0.0
  0
LINE
  8
0
  6
CONTINUOUS
 62
   249
 10
185.0
 20
205.0
 30
0.0
 11
185.0
 21
165.0
 31
0.0
  0
LINE
  8
0
  6
CONTINUOUS
 62
   249
 10
162.5
 20
212.5
 30
0.0
 11
185.0
 21
212.5
 31
0.0
  0
LINE
  8
0
  6
CONTINUOUS
 62
   249
 10
176.239965
 20
209.14241
 30
0.0
 11
176.239965
 21
207.354278
 31
0.0
  0
LINE
  8
0
  6
CONTINUOUS
 62
   249
 10
176.270997
 20
208.297131
 30
0.0
 11
184.059202
 21
208.297131
 31
0.0
  0
LINE
  8
0
  6
CONTINUOUS
 62
   249
 10
178.655141
 20
207.129529
 30
0.0
 11
181.531252
 21
209.958087
 31
0.0
  0
LINE
  8
0
  6
CONTINUOUS
 62
   249
 10
181.077129
 20
210.495294
 30
0.0
 11
181.977806
 21
209.371545
 31
0.0
  0
LINE
  8
0
  6
CONTINUOUS
 62
   249
 10
184.054661
 20
209.14241
 30
0.0
 11
184.054661
 21
207.354278
 31
0.0
  0
LINE
  8
0
  6
CONTINUOUS
 62
   249
 10
162.5
 20
225.0
 30
0.0
 11
162.5
 21
230.0
 31
0.0
  0
LINE
  8
0
  6
CONTINUOUS
 62
   249
 10
162.5
 20
230.0
 30
0.0
 11
195.0
 21
230.0
 31
0.0
  0
LINE
  8
0
  6
CONTINUOUS
 62
   249
 10
185.0
 20
205.0
 30
0.0
 11
185.0
 21
230.0
 31
0.0
  0
LINE
  8
0
  6
CONTINUOUS
 62
   249
 10
105.0
 20
155.0
 30
0.0
 11
105.0
 21
150.0
 31
0.0
  0
LINE
  8
0
  6
CONTINUOUS
 62
   249
 10
72.5
 20
140.0
 30
0.0
 11
182.5
 21
140.0
 31
0.0
  0
LINE
  8
0
  6
CONTINUOUS
 62
   249
 10
160.51266
 20
157.5
 30
0.0
 11
140.0
 21
157.5
 31
0.0
  0
LINE
  8
0
  6
DASHED
 62
   249
 10
115.0
 20
150.0
 30
0.0
 11
115.0
 21
93.600824
 31
0.0
  0
LINE
  8
0
  6
DASHED
 62
   249
 10
105.0
 20
150.0
 30
0.0
 11
105.0
 21
103.600824
 31
0.0
  0
LINE
  8
0
  6
DASHED
 62
   249
 10
65.0
 20
150.0
 30
0.0
 11
65.0
 21
138.600824
 31
0.0
  0
TEXT
  8
0
  6
CONTINUOUS
 62
   249
 10
53.909343
 20
164.240907
 30
0.0
 40
2.0
  1
SGR
  0
LINE
  8
0
  6
CONTINUOUS
 62
   249
 10
162.5
 20
187.5
 30
0.0
 11
162.5
 21
182.5
 31
0.0
  0
LINE
  8
0
  6
CONTINUOUS
 62
   249
 10
235.0
 20
180.0
 30
0.0
 11
240.0
 21
180.0
 31
0.0
  0
LINE
  8
0
  6
CONTINUOUS
 62
   249
 10
235.0
 20
190.0
 30
0.0
 11
240.0
 21
190.0
 31
0.0
  0
LINE
  8
0
  6
CONTINUOUS
 62
   249
 10
235.0
 20
200.0
 30
0.0
 11
240.0
 21
200.0
 31
0.0
  0
LINE
  8
0
  6
CONTINUOUS
 62
   249
 10
235.0
 20
210.0
 30
0.0
 11
240.0
 21
210.0
 31
0.0
  0
LINE
  8
0
 62
   249
 10
222.5
 20
195.0
 30
0.0
 11
227.5
 21
195.0
 31
0.0
  0
LINE
  8
0
 62
   249
 10
227.5
 20
195.0
 30
0.0
 11
230.0
 21
195.0
 31
0.0
  0
LINE
  8
0
 62
   249
 10
230.0
 20
195.0
 30
0.0
 11
230.0
 21
197.9
 31
0.0
  0
LINE
  8
0
 62
   249
 10
228.88095
 20
196.944425
 30
0.0
 11
229.560313
 21
196.008681
 31
0.0
  0
LINE
  8
0
 62
   249
 10
235.0
 20
200.0
 30
0.0
 11
229.2
 21
196.5
 31
0.0
  0
LINE
  8
0
 62
   249
 10
235.0
 20
180.0
 30
0.0
 11
229.2
 21
176.5
 31
0.0
  0
LINE
  8
0
 62
   249
 10
228.88095
 20
176.944425
 30
0.0
 11
229.560313
 21
176.008681
 31
0.0
  0
LINE
  8
0
 62
   249
 10
230.0
 20
175.0
 30
0.0
 11
230.0
 21
177.9
 31
0.0
  0
LINE
  8
0
 62
   249
 10
227.5
 20
175.0
 30
0.0
 11
230.0
 21
175.0
 31
0.0
  0
LINE
  8
0
 62
   249
 10
222.5
 20
175.0
 30
0.0
 11
227.5
 21
175.0
 31
0.0
  0
LINE
  8
0
  6
CONTINUOUS
 62
   249
 10
220.0
 20
205.0
 30
0.0
 11
222.5
 21
205.0
 31
0.0
  0
LINE
  8
0
  6
CONTINUOUS
 62
   249
 10
220.0
 20
195.0
 30
0.0
 11
222.5
 21
195.0
 31
0.0
  0
LINE
  8
0
  6
CONTINUOUS
 62
   249
 10
220.0
 20
185.0
 30
0.0
 11
222.5
 21
185.0
 31
0.0
  0
LINE
  8
0
  6
CONTINUOUS
 62
   249
 10
220.0
 20
175.0
 30
0.0
 11
222.5
 21
175.0
 31
0.0
  0
TEXT
  8
0
  6
CONTINUOUS
 62
   249
 10
235.420304
 20
206.802026
 30
0.0
 40
2.0
  1
3A
  0
TEXT
  8
0
  6
CONTINUOUS
 62
   249
 10
235.420304
 20
196.98037
 30
0.0
 40
2.0
  1
4A
  0
TEXT
  8
0
  6
CONTINUOUS
 62
   249
 10
235.420304
 20
186.717945
 30
0.0
 40
2.0
  1
5A
  0
TEXT
  8
0
  6
CONTINUOUS
 62
   249
 10
235.420304
 20
176.75367
 30
0.0
 40
2.0
  1
6A
  0
LINE
  8
0
  6
CONTINUOUS
 62
   249
 10
240.0
 20
172.5
 30
0.0
 11
240.0
 21
172.5
 31
0.0
  0
LINE
  8
0
  6
CONTINUOUS
 62
   249
 10
342.5
 20
207.5
 30
0.0
 11
362.5
 21
207.5
 31
0.0
  0
LINE
  8
0
  6
CONTINUOUS
 62
   249
 10
342.5
 20
237.5
 30
0.0
 11
362.5
 21
237.5
 31
0.0
  0
LINE
  8
0
  6
CONTINUOUS
 62
   249
 10
362.5
 20
237.5
 30
0.0
 11
362.5
 21
207.5
 31
0.0
  0
LINE
  8
0
  6
CONTINUOUS
 62
   249
 10
342.5
 20
207.5
 30
0.0
 11
342.5
 21
237.5
 31
0.0
  0
TEXT
  8
0
  6
CONTINUOUS
 62
   249
 10
160.786821
 20
60.698077
 30
0.0
 40
2.0
  1
108:72
 50
90.0
  0
TEXT
  8
0
  6
CONTINUOUS
 62
   249
 10
170.647763
 20
60.698077
 30
0.0
 40
2.0
  1
101
 50
90.0
  0
TEXT
  8
0
  6
CONTINUOUS
 62
   249
 10
185.578906
 20
60.698077
 30
0.0
 40
2.0
  1
2A
 50
90.0
  0
TEXT
  8
0
  6
CONTINUOUS
 62
   249
 10
175.587622
 20
60.698077
 30
0.0
 40
2.0
  1
1A
 50
90.0
  0
TEXT
  8
0
  6
CONTINUOUS
 62
   249
 10
191.085601
 20
60.698077
 30
0.0
 40
2.0
  1
18A
 50
90.0
  0
TEXT
  8
0
  6
CONTINUOUS
 62
   249
 10
205.916448
 20
60.698077
 30
0.0
 40
2.0
  1
108:61
 50
90.0
  0
TEXT
  8
0
  6
CONTINUOUS
 62
   249
 10
210.907545
 20
60.698077
 30
0.0
 40
2.0
  1
108:62
 50
90.0
  0
TEXT
  8
0
  6
CONTINUOUS
 62
   249
 10
223.157165
 20
60.698077
 30
0.0
 40
2.0
  1
108:63
 50
90.0
  0
LINE
  8
0
  6
CONTINUOUS
 62
   249
 10
165.637726
 20
221.185916
 30
0.0
 11
163.29196
 21
219.995997
 31
0.0
  0
LINE
  8
0
  6
CONTINUOUS
 62
   249
 10
163.283918
 20
219.195983
 30
0.0
 11
165.667379
 21
220.384175
 31
0.0
  0
LINE
  8
0
  6
CONTINUOUS
 62
   249
 10
163.29196
 20
222.52127
 30
0.0
 11
165.637726
 21
221.185916
 31
0.0
  0
TEXT
  8
0
  6
CONTINUOUS
 62
   249
 10
166.493319
 20
219.861176
 30
0.0
 40
2.5
  1
1
 11
166.493319
 21
219.027843
 31
0.0
 73
     1
  0
LINE
  8
0
  6
CONTINUOUS
 62
   249
 10
162.5
 20
223.546133
 30
0.0
 11
168.204503
 21
223.546133
 31
0.0
  0
LINE
  8
0
  6
CONTINUOUS
 62
   249
 10
168.204503
 20
223.546133
 30
0.0
 11
168.204503
 21
218.546133
 31
0.0
  0
LINE
  8
0
  6
CONTINUOUS
 62
   249
 10
168.204503
 20
218.546133
 30
0.0
 11
162.5
 21
218.546133
 31
0.0
  0
LINE
  8
0
  6
CONTINUOUS
 62
   249
 10
195.0
 20
230.0
 30
0.0
 11
195.0
 21
155.232891
 31
0.0
  0
TEXT
  8
0
  6
CONTINUOUS
 62
   249
 10
170.179694
 20
224.79306
 30
0.0
 40
2.5
  1
U
  0
LINE
  8
0
  6
CONTINUOUS
 62
   249
 10
172.457396
 20
227.410765
 30
0.0
 11
174.803161
 21
226.075411
 31
0.0
  0
LINE
  8
0
  6
CONTINUOUS
 62
   249
 10
174.803161
 20
226.075411
 30
0.0
 11
172.457396
 21
224.885492
 31
0.0
  0
LINE
  8
0
  6
CONTINUOUS
 62
   249
 10
174.647404
 20
216.575851
 30
0.0
 11
172.301639
 21
215.385931
 31
0.0
  0
LINE
  8
0
  6
CONTINUOUS
 62
   249
 10
172.301639
 20
217.911204
 30
0.0
 11
174.647404
 21
216.575851
 31
0.0
  0
LINE
  8
0
  6
CONTINUOUS
 62
   249
 10
173.864405
 20
217.911204
 30
0.0
 11
176.210171
 21
216.575851
 31
0.0
  0
LINE
  8
0
  6
CONTINUOUS
 62
   249
 10
176.210171
 20
216.575851
 30
0.0
 11
173.864405
 21
215.385931
 31
0.0
  0
TEXT
  8
0
  6
CONTINUOUS
 62
   249
 10
170.179694
 20
215.293499
 30
0.0
 40
2.5
  1
U
  0
LINE
  8
0
  6
CONTINUOUS
 62
   249
 10
184.328035
 20
226.8994
 30
0.0
 11
184.328035
 21
225.111269
 31
0.0
  0
LINE
  8
0
  6
CONTINUOUS
 62
   249
 10
181.373922
 20
228.252284
 30
0.0
 11
182.274599
 21
227.128535
 31
0.0
  0
LINE
  8
0
  6
CONTINUOUS
 62
   249
 10
178.928515
 20
224.886519
 30
0.0
 11
181.804626
 21
227.715078
 31
0.0
  0
LINE
  8
0
  6
CONTINUOUS
 62
   249
 10
176.544371
 20
226.054122
 30
0.0
 11
184.332576
 21
226.054122
 31
0.0
  0
LINE
  8
0
  6
CONTINUOUS
 62
   249
 10
176.513339
 20
226.8994
 30
0.0
 11
176.513339
 21
225.111269
 31
0.0
  0
LINE
  8
0
  6
CONTINUOUS
 62
   249
 10
193.61647
 20
219.859921
 30
0.0
 11
191.270704
 21
218.670002
 31
0.0
  0
LINE
  8
0
  6
CONTINUOUS
 62
   249
 10
191.270704
 20
221.195275
 30
0.0
 11
193.61647
 21
219.859921
 31
0.0
  0
TEXT
  8
0
  6
CONTINUOUS
 62
   249
 10
187.799914
 20
218.57757
 30
0.0
 40
2.5
  1
U
  0
LINE
  8
0
  6
CONTINUOUS
 62
   249
 10
168.204503
 20
221.795518
 30
0.0
 11
169.145
 21
221.795518
 31
0.0
  0
LINE
  8
0
  6
CONTINUOUS
 62
   249
 10
169.145
 20
221.795518
 30
0.0
 11
169.145
 21
226.049382
 31
0.0
  0
LINE
  8
0
  6
CONTINUOUS
 62
   249
 10
169.145
 20
226.049382
 30
0.0
 11
169.723211
 21
226.049382
 31
0.0
  0
LINE
  8
0
  6
CONTINUOUS
 62
   249
 10
168.204503
 20
219.811852
 30
0.0
 11
169.145
 21
219.811852
 31
0.0
  0
LINE
  8
0
  6
CONTINUOUS
 62
   249
 10
169.145
 20
219.811852
 30
0.0
 11
169.145
 21
216.571862
 31
0.0
  0
LINE
  8
0
  6
CONTINUOUS
 62
   249
 10
169.145
 20
216.571862
 30
0.0
 11
169.723211
 21
216.571862
 31
0.0
  0
TEXT
  8
0
  6
CONTINUOUS
 62
   249
 10
164.730502
 20
207.399713
 30
0.0
 40
2.5
  1
P
  0
LINE
  8
0
  6
CONTINUOUS
 62
   249
 10
167.563447
 20
208.565318
 30
0.0
 11
171.387404
 21
208.565318
 31
0.0
  0
LINE
  8
0
  6
CONTINUOUS
 62
   249
 10
168.821049
 20
208.564504
 30
0.0
 11
168.821049
 21
209.062767
 31
0.0
  0
LINE
  8
0
  6
CONTINUOUS
 62
   249
 10
168.821049
 20
208.564504
 30
0.0
 11
168.821049
 21
208.066242
 31
0.0
  0
LINE
  8
0
  6
CONTINUOUS
 62
   249
 10
168.821049
 20
209.062767
 30
0.0
 11
167.544921
 21
208.569118
 31
0.0
  0
LINE
  8
0
  6
CONTINUOUS
 62
   249
 10
167.544921
 20
208.569118
 30
0.0
 11
168.821049
 21
208.066242
 31
0.0
  0
LINE
  8
0
  6
CONTINUOUS
 62
   249
 10
189.64337
 20
208.569118
 30
0.0
 11
190.919499
 21
208.066242
 31
0.0
  0
LINE
  8
0
  6
CONTINUOUS
 62
   249
 10
190.919499
 20
209.062767
 30
0.0
 11
189.64337
 21
208.569118
 31
0.0
  0
LINE
  8
0
  6
CONTINUOUS
 62
   249
 10
190.919499
 20
208.564504
 30
0.0
 11
190.919499
 21
208.066242
 31
0.0
  0
LINE
  8
0
  6
CONTINUOUS
 62
   249
 10
190.919499
 20
208.564504
 30
0.0
 11
190.919499
 21
209.062767
 31
0.0
  0
LINE
  8
0
  6
CONTINUOUS
 62
   249
 10
189.661896
 20
208.565318
 30
0.0
 11
193.485853
 21
208.565318
 31
0.0
  0
TEXT
  8
0
  6
CONTINUOUS
 62
   249
 10
186.828951
 20
207.399713
 30
0.0
 40
2.5
  1
P
  0
LINE
  8
0
  6
CONTINUOUS
 62
   249
 10
60.0
 20
152.5
 30
0.0
 11
70.0
 21
152.5
 31
0.0
  0
LINE
  8
0
  6
CONTINUOUS
 62
   249
 10
60.0
 20
160.0
 30
0.0
 11
60.0
 21
152.5
 31
0.0
  0
LINE
  8
0
  6
CONTINUOUS
 62
   249
 10
70.0
 20
160.0
 30
0.0
 11
70.0
 21
152.5
 31
0.0
  0
LINE
  8
0
  6
CONTINUOUS
 62
   249
 10
70.0
 20
160.0
 30
0.0
 11
60.0
 21
160.0
 31
0.0
  0
LINE
  8
0
  6
CONTINUOUS
 62
   249
 10
63.948723
 20
156.049601
 30
0.0
 11
61.602957
 21
154.859682
 31
0.0
  0
LINE
  8
0
  6
CONTINUOUS
 62
   249
 10
61.594915
 20
154.059668
 30
0.0
 11
63.978376
 21
155.24786
 31
0.0
  0
LINE
  8
0
  6
CONTINUOUS
 62
   249
 10
61.602957
 20
157.384954
 30
0.0
 11
63.948723
 21
156.049601
 31
0.0
  0
TEXT
  8
0
  6
CONTINUOUS
 62
   249
 10
66.036819
 20
154.724861
 30
0.0
 40
2.5
  1
1
 11
66.036819
 21
153.891527
 31
0.0
 73
     1
  0
LINE
  8
0
  6
CONTINUOUS
 62
   249
 10
67.5
 20
162.5
 30
0.0
 11
67.5
 21
160.0
 31
0.0
  0
LINE
  8
0
  6
CONTINUOUS
 62
   249
 10
67.5
 20
162.5
 30
0.0
 11
66.218969
 21
167.664082
 31
0.0
  0
LINE
  8
0
  6
CONTINUOUS
 62
   249
 10
62.5
 20
162.5
 30
0.0
 11
61.218969
 21
167.664082
 31
0.0
  0
LINE
  8
0
  6
CONTINUOUS
 62
   249
 10
62.5
 20
162.5
 30
0.0
 11
62.5
 21
160.0
 31
0.0
  0
LINE
  8
0
  6
CONTINUOUS
 62
   249
 10
65.0
 20
152.5
 30
0.0
 11
65.0
 21
150.0
 31
0.0
  0
LINE
  8
0
  6
CONTINUOUS
 62
   249
 10
57.5
 20
135.0
 30
0.0
 11
40.0
 21
135.0
 31
0.0
  0
LINE
  8
0
  6
CONTINUOUS
 62
   249
 10
57.5
 20
140.0
 30
0.0
 11
40.0
 21
140.0
 31
0.0
  0
TEXT
  8
0
  6
CONTINUOUS
 62
   249
 10
42.455924
 20
137.159065
 30
0.0
 40
2.0
  1
108:65
  0
TEXT
  8
0
  6
CONTINUOUS
 62
   249
 10
42.455924
 20
132.205737
 30
0.0
 40
2.0
  1
108:64
  0
LINE
  8
0
  6
CONTINUOUS
 62
   249
 10
62.5
 20
167.5
 30
0.0
 11
62.5
 21
220.858787
 31
0.0
  0
LINE
  8
0
  6
CONTINUOUS
 62
   249
 10
162.5
 20
220.858787
 30
0.0
 11
62.5
 21
220.858787
 31
0.0
  0
LINE
  8
0
  6
CONTINUOUS
 62
   249
 10
162.5
 20
208.799022
 30
0.0
 11
67.5
 21
208.799022
 31
0.0
  0
LINE
  8
0
  6
CONTINUOUS
 62
   249
 10
67.5
 20
167.5
 30
0.0
 11
67.5
 21
208.799022
 31
0.0
  0
LINE
  8
0
  6
CONTINUOUS
 62
   249
 10
105.0
 20
155.0
 30
0.0
 11
105.0
 21
220.858787
 31
0.0
  0
LINE
  8
0
  6
CONTINUOUS
 62
   249
 10
115.0
 20
150.0
 30
0.0
 11
115.0
 21
208.799022
 31
0.0
  0
TEXT
  8
0
  6
CONTINUOUS
 62
   249
 10
63.098709
 20
165.0
 30
0.0
 40
2.0
  1
1
  0
TEXT
  8
0
  6
CONTINUOUS
 62
   249
 10
68.098709
 20
165.0
 30
0.0
 40
2.0
  1
2
  0
LINE
  8
0
  6
CONTINUOUS
 62
   249
 10
97.5
 20
105.0
 30
0.0
 11
57.5
 21
105.0
 31
0.0
  0
LINE
  8
0
  6
CONTINUOUS
 62
   249
 10
97.5
 20
100.0
 30
0.0
 11
40.0
 21
100.0
 31
0.0
  0
LINE
  8
0
  6
CONTINUOUS
 62
   249
 10
107.5
 20
95.0
 30
0.0
 11
60.0
 21
95.0
 31
0.0
  0
LINE
  8
0
  6
CONTINUOUS
 62
   249
 10
60.0
 20
95.0
 30
0.0
 11
60.0
 21
105.0
 31
0.0
  0
LINE
  8
0
  6
CONTINUOUS
 62
   249
 10
107.5
 20
90.0
 30
0.0
 11
40.0
 21
90.0
 31
0.0
  0
LINE
  8
0
  6
CONTINUOUS
 62
   249
 10
132.5
 20
72.5
 30
0.0
 11
40.0
 21
72.5
 31
0.0
  0
LINE
  8
0
  6
CONTINUOUS
 62
   249
 10
132.5
 20
67.5
 30
0.0
 11
40.0
 21
67.5
 31
0.0
  0
TEXT
  8
0
  6
CONTINUOUS
 62
   249
 10
134.279625
 20
73.329936
 30
0.0
 40
2.0
  1
G
  0
LINE
  8
0
  6
DASHED
 62
   249
 10
140.0
 20
150.0
 30
0.0
 11
140.0
 21
71.100824
 31
0.0
  0
LINE
  8
0
  6
CONTINUOUS
 62
   249
 10
132.5
 20
72.5
 30
0.0
 11
137.5
 21
72.5
 31
0.0
  0
LINE
  8
0
  6
CONTINUOUS
 62
   249
 10
137.5
 20
67.5
 30
0.0
 11
132.5
 21
67.5
 31
0.0
  0
LINE
  8
0
  6
CONTINUOUS
 62
   249
 10
137.5
 20
67.5
 30
0.0
 11
137.5
 21
70.0
 31
0.0
  0
LINE
  8
0
  6
CONTINUOUS
 62
   249
 10
142.5
 20
72.5
 30
0.0
 11
157.5
 21
72.5
 31
0.0
  0
LINE
  8
0
  6
CONTINUOUS
 62
   249
 10
142.5
 20
72.5
 30
0.0
 11
136.756076
 21
69.285297
 31
0.0
  0
LINE
  8
0
  6
CONTINUOUS
 62
   249
 10
107.5
 20
95.0
 30
0.0
 11
112.5
 21
95.0
 31
0.0
  0
LINE
  8
0
  6
CONTINUOUS
 62
   249
 10
112.5
 20
90.0
 30
0.0
 11
107.5
 21
90.0
 31
0.0
  0
LINE
  8
0
  6
CONTINUOUS
 62
   249
 10
112.5
 20
90.0
 30
0.0
 11
112.5
 21
92.5
 31
0.0
  0
LINE
  8
0
  6
CONTINUOUS
 62
   249
 10
117.5
 20
95.0
 30
0.0
 11
122.5
 21
95.0
 31
0.0
  0
LINE
  8
0
  6
CONTINUOUS
 62
   249
 10
117.5
 20
95.0
 30
0.0
 11
111.756076
 21
91.785297
 31
0.0
  0
LINE
  8
0
  6
CONTINUOUS
 62
   249
 10
97.5
 20
105.0
 30
0.0
 11
102.5
 21
105.0
 31
0.0
  0
LINE
  8
0
  6
CONTINUOUS
 62
   249
 10
102.5
 20
100.0
 30
0.0
 11
97.5
 21
100.0
 31
0.0
  0
LINE
  8
0
  6
CONTINUOUS
 62
   249
 10
102.5
 20
100.0
 30
0.0
 11
102.5
 21
102.5
 31
0.0
  0
LINE
  8
0
  6
CONTINUOUS
 62
   249
 10
107.5
 20
105.0
 30
0.0
 11
112.5
 21
105.0
 31
0.0
  0
LINE
  8
0
  6
CONTINUOUS
 62
   249
 10
107.5
 20
105.0
 30
0.0
 11
101.756076
 21
101.785297
 31
0.0
  0
LINE
  8
0
  6
CONTINUOUS
 62
   249
 10
57.5
 20
140.0
 30
0.0
 11
62.5
 21
140.0
 31
0.0
  0
LINE
  8
0
  6
CONTINUOUS
 62
   249
 10
62.5
 20
135.0
 30
0.0
 11
57.5
 21
135.0
 31
0.0
  0
LINE
  8
0
  6
CONTINUOUS
 62
   249
 10
62.5
 20
135.0
 30
0.0
 11
62.5
 21
137.5
 31
0.0
  0
LINE
  8
0
  6
CONTINUOUS
 62
   249
 10
67.5
 20
140.0
 30
0.0
 11
72.5
 21
140.0
 31
0.0
  0
LINE
  8
0
  6
CONTINUOUS
 62
   249
 10
67.5
 20
140.0
 30
0.0
 11
61.756076
 21
136.785297
 31
0.0
  0
LINE
  8
0
  6
CONTINUOUS
 62
   249
 10
140.0
 20
150.0
 30
0.0
 11
140.0
 21
157.5
 31
0.0
  0
LINE
  8
0
  6
CONTINUOUS
 62
   249
 10
112.5
 20
105.0
 30
0.0
 11
172.5
 21
105.0
 31
0.0
  0
LINE
  8
0
  6
CONTINUOUS
 62
   249
 10
122.5
 20
95.0
 30
0.0
 11
172.5
 21
95.0
 31
0.0
  0
TEXT
  8
0
  6
CONTINUOUS
 62
   249
 10
42.5
 20
102.149875
 30
0.0
 40
2.0
  1
15A
  0
TEXT
  8
0
  6
CONTINUOUS
 62
   249
 10
42.5
 20
97.017269
 30
0.0
 40
2.0
  1
108:76
  0
TEXT
  8
0
  6
CONTINUOUS
 62
   249
 10
42.5
 20
87.073841
 30
0.0
 40
2.0
  1
108:79
  0
TEXT
  8
0
  6
CONTINUOUS
 62
   249
 10
42.5
 20
69.442883
 30
0.0
 40
2.0
  1
108:70
  0
TEXT
  8
0
  6
CONTINUOUS
 62
   249
 10
42.5
 20
64.297516
 30
0.0
 40
2.0
  1
108:71
  0
TEXT
  8
0
  6
CONTINUOUS
 62
   249
 10
42.5
 20
105.816782
 30
0.0
 40
2.0
  1
101
  0
LINE
  8
0
  6
CONTINUOUS
 62
   249
 10
217.5
 20
175.0
 30
0.0
 11
218.5
 21
174.0
 31
0.0
  0
LINE
  8
0
  6
CONTINUOUS
 62
   249
 10
217.5
 20
205.0
 30
0.0
 11
218.5
 21
206.0
 31
0.0
  0
LINE
  8
0
  6
CONTINUOUS
 62
   249
 10
217.5
 20
205.0
 30
0.0
 11
217.5
 21
175.0
 31
0.0
  0
LINE
  8
0
  6
CONTINUOUS
 62
   249
 10
217.5
 20
190.0
 30
0.0
 11
210.0
 21
190.0
 31
0.0
  0
LINE
  8
0
  6
CONTINUOUS
 62
   249
 10
210.0
 20
190.0
 30
0.0
 11
210.0
 21
212.5
 31
0.0
  0
LINE
  8
0
  6
CONTINUOUS
 62
   249
 10
210.0
 20
212.5
 30
0.0
 11
195.0
 21
212.5
 31
0.0
  0
LINE
  8
0
  6
CONTINUOUS
 62
   249
 10
205.0
 20
140.0
 30
0.0
 11
205.0
 21
220.0
 31
0.0
  0
LINE
  8
0
  6
CONTINUOUS
 62
   249
 10
354.393775
 20
234.910765
 30
0.0
 11
356.73954
 21
233.575411
 31
0.0
  0
LINE
  8
0
  6
CONTINUOUS
 62
   249
 10
356.73954
 20
233.575411
 30
0.0
 11
354.393775
 21
232.385492
 31
0.0
  0
TEXT
  8
0
  6
CONTINUOUS
 62
   249
 10
350.427497
 20
232.29306
 30
0.0
 40
2.5
  1
U
  0
LINE
  8
0
  6
CONTINUOUS
 62
   249
 10
355.876298
 20
229.365043
 30
0.0
 11
355.876298
 21
227.576912
 31
0.0
  0
LINE
  8
0
  6
CONTINUOUS
 62
   249
 10
352.898767
 20
230.717927
 30
0.0
 11
353.799444
 21
229.594178
 31
0.0
  0
LINE
  8
0
  6
CONTINUOUS
 62
   249
 10
350.476779
 20
227.352162
 30
0.0
 11
353.35289
 21
230.18072
 31
0.0
  0
LINE
  8
0
  6
CONTINUOUS
 62
   249
 10
348.092635
 20
228.519764
 30
0.0
 11
355.88084
 21
228.519764
 31
0.0
  0
LINE
  8
0
  6
CONTINUOUS
 62
   249
 10
348.061603
 20
229.365043
 30
0.0
 11
348.061603
 21
227.576912
 31
0.0
  0
TEXT
  8
0
  6
CONTINUOUS
 62
   249
 10
350.443096
 20
222.783565
 30
0.0
 40
2.5
  1
U
  0
LINE
  8
0
  6
CONTINUOUS
 62
   249
 10
358.893921
 20
224.065916
 30
0.0
 11
356.548156
 21
222.875997
 31
0.0
  0
LINE
  8
0
  6
CONTINUOUS
 62
   249
 10
356.548156
 20
225.40127
 30
0.0
 11
358.893921
 21
224.065916
 31
0.0
  0
LINE
  8
0
  6
CONTINUOUS
 62
   249
 10
354.1598
 20
225.40127
 30
0.0
 11
356.505565
 21
224.065916
 31
0.0
  0
LINE
  8
0
  6
CONTINUOUS
 62
   249
 10
356.505565
 20
224.065916
 30
0.0
 11
354.1598
 21
222.875997
 31
0.0
  0
TEXT
  8
0
  6
CONTINUOUS
 62
   249
 10
350.539335
 20
213.397957
 30
0.0
 40
2.5
  1
P
  0
LINE
  8
0
  6
CONTINUOUS
 62
   249
 10
353.37228
 20
214.563562
 30
0.0
 11
357.196237
 21
214.563562
 31
0.0
  0
LINE
  8
0
  6
CONTINUOUS
 62
   249
 10
354.629882
 20
214.562748
 30
0.0
 11
354.629882
 21
215.061011
 31
0.0
  0
LINE
  8
0
  6
CONTINUOUS
 62
   249
 10
354.629882
 20
214.562748
 30
0.0
 11
354.629882
 21
214.064486
 31
0.0
  0
LINE
  8
0
  6
CONTINUOUS
 62
   249
 10
354.629882
 20
215.061011
 30
0.0
 11
353.353754
 21
214.567362
 31
0.0
  0
LINE
  8
0
  6
CONTINUOUS
 62
   249
 10
353.353754
 20
214.567362
 30
0.0
 11
354.629882
 21
214.064486
 31
0.0
  0
LINE
  8
0
  6
CONTINUOUS
 62
   249
 10
348.061603
 20
220.146501
 30
0.0
 11
348.061603
 21
218.35837
 31
0.0
  0
LINE
  8
0
  6
CONTINUOUS
 62
   249
 10
348.092635
 20
219.301223
 30
0.0
 11
355.88084
 21
219.301223
 31
0.0
  0
LINE
  8
0
  6
CONTINUOUS
 62
   249
 10
350.476779
 20
218.13362
 30
0.0
 11
353.35289
 21
220.962178
 31
0.0
  0
LINE
  8
0
  6
CONTINUOUS
 62
   249
 10
352.898767
 20
221.499385
 30
0.0
 11
353.799444
 21
220.375636
 31
0.0
  0
LINE
  8
0
  6
CONTINUOUS
 62
   249
 10
355.876298
 20
220.146501
 30
0.0
 11
355.876298
 21
218.35837
 31
0.0
  0
LINE
  8
0
  6
CONTINUOUS
 62
   249
 10
355.876298
 20
211.628388
 30
0.0
 11
355.876298
 21
209.840256
 31
0.0
  0
LINE
  8
0
  6
CONTINUOUS
 62
   249
 10
352.898767
 20
212.981272
 30
0.0
 11
353.799444
 21
211.857523
 31
0.0
  0
LINE
  8
0
  6
CONTINUOUS
 62
   249
 10
350.476779
 20
209.615506
 30
0.0
 11
353.35289
 21
212.444065
 31
0.0
  0
LINE
  8
0
  6
CONTINUOUS
 62
   249
 10
348.092635
 20
210.783109
 30
0.0
 11
355.88084
 21
210.783109
 31
0.0
  0
LINE
  8
0
  6
CONTINUOUS
 62
   249
 10
348.061603
 20
211.628388
 30
0.0
 11
348.061603
 21
209.840256
 31
0.0
  0
TEXT
  8
0
  6
DASHED
 62
   249
 10
343.426636
 20
202.248252
 30
0.0
 40
2.0
  1
GENERATOR
  0
TEXT
  8
0
  6
DASHED
 62
   249
 10
343.426636
 20
198.914919
 30
0.0
 40
2.0
  1
PROTECTION
  0
TEXT
  8
0
  6
DASHED
 62
   249
 10
343.426636
 20
195.581586
 30
0.0
 40
2.0
  1
GENERATORSKYDD
  0
TEXT
  8
0
  6
DASHED
 62
   249
 10
321.605067
 20
107.150526
 30
0.0
 40
2.0
  1
1) ALARM ETC / SIGNAL MM.
  0
TEXT
  8
0
  6
DASHED
 62
   249
 10
322.322591
 20
97.983859
 30
0.0
 40
2.0
  1
  REVERSE POWER MODULE
  0
TEXT
  8
0
  6
DASHED
 62
   249
 10
322.322591
 20
94.650526
 30
0.0
 40
2.0
  1
  UTLÖSNING FRÅN ÖVERSPÄNNINGS-
  0
TEXT
  8
0
  6
DASHED
 62
   249
 10
322.260197
 20
91.317192
 30
0.0
 40
2.0
  1
  OCH BAKEFFEKTRELÄMODUL
  0
LINE
  8
0
  6
DASHED
 62
   249
 10
40.0
 20
140.0
 30
0.0
 11
25.0
 21
140.0
 31
0.0
  0
LINE
  8
0
  6
DASHED
 62
   249
 10
40.0
 20
105.0
 30
0.0
 11
25.0
 21
105.0
 31
0.0
  0
LINE
  8
0
  6
DASHED
 62
   249
 10
40.0
 20
67.5
 30
0.0
 11
25.0
 21
67.5
 31
0.0
  0
TEXT
  8
0
  6
DASHED
 62
   249
 10
20.654291
 20
138.975105
 30
0.0
 40
2.0
  1
1)
  0
TEXT
  8
0
  6
DASHED
 62
   249
 10
20.0
 20
103.994864
 30
0.0
 40
2.0
  1
2)
  0
TEXT
  8
0
  6
DASHED
 62
   249
 10
20.0
 20
66.497104
 30
0.0
 40
2.0
  1
3)
  0
TEXT
  8
0
  6
DASHED
 62
   249
 10
372.5
 20
13.271426
 30
0.0
 40
2.0
  1
1
  0
LINE
  8
0
  6
CONTINUOUS
 62
   249
 10
195.0
 20
220.0
 30
0.0
 11
205.0
 21
220.0
 31
0.0
  0
LINE
  8
0
  6
CONTINUOUS
 62
   249
 10
205.0
 20
140.0
 30
0.0
 11
217.5
 21
140.0
 31
0.0
  0
LINE
  8
0
  6
CONTINUOUS
 62
   249
 10
233.500004
 20
135.0
 30
0.0
 11
240.0
 21
135.0
 31
0.0
  0
LINE
  8
0
  6
CONTINUOUS
 62
   249
 10
233.500004
 20
145.0
 30
0.0
 11
240.0
 21
145.0
 31
0.0
  0
TEXT
  8
0
  6
CONTINUOUS
 62
   249
 10
235.376495
 20
141.171089
 30
0.0
 40
2.0
  1
9A
  0
TEXT
  8
0
  6
CONTINUOUS
 62
   249
 10
234.052181
 20
130.788709
 30
0.0
 40
2.0
  1
10A
  0
LINE
  8
0
  6
CONTINUOUS
 62
   249
 10
162.5
 20
155.232891
 30
0.0
 11
195.0
 21
155.232891
 31
0.0
  0
TEXT
  8
0
  6
DASHED
 62
   249
 10
167.732288
 20
161.294145
 30
0.0
 40
2.5
  1
SERIAL I/O
  0
LINE
  8
0
 62
   249
 10
225.0
 20
199.99845
 30
0.0
 11
225.0
 21
209.99845
 31
0.0
  0
LINE
  8
0
 62
   249
 10
227.5
 20
210.0
 30
0.0
 11
230.0
 21
210.0
 31
0.0
  0
LINE
  8
0
 62
   249
 10
225.0
 20
209.99845
 30
0.0
 11
227.5
 21
209.99845
 31
0.0
  0
LINE
  8
0
 62
   249
 10
222.5
 20
205.0
 30
0.0
 11
227.5
 21
205.0
 31
0.0
  0
LINE
  8
0
 62
   249
 10
227.5
 20
205.0
 30
0.0
 11
230.0
 21
205.0
 31
0.0
  0
LINE
  8
0
 62
   249
 10
230.0
 20
205.0
 30
0.0
 11
230.0
 21
207.9
 31
0.0
  0
LINE
  8
0
 62
   249
 10
228.88095
 20
206.944425
 30
0.0
 11
229.560313
 21
206.008681
 31
0.0
  0
LINE
  8
0
 62
   249
 10
235.0
 20
210.0
 30
0.0
 11
229.2
 21
206.5
 31
0.0
  0
LINE
  8
0
 62
   249
 10
227.5
 20
199.99845
 30
0.0
 11
225.0
 21
199.99845
 31
0.0
  0
LINE
  8
0
 62
   249
 10
227.5
 20
200.0
 30
0.0
 11
230.0
 21
200.0
 31
0.0
  0
LINE
  8
0
 62
   249
 10
225.0
 20
179.99845
 30
0.0
 11
225.0
 21
189.99845
 31
0.0
  0
LINE
  8
0
 62
   249
 10
227.5
 20
190.0
 30
0.0
 11
230.0
 21
190.0
 31
0.0
  0
LINE
  8
0
 62
   249
 10
225.0
 20
189.99845
 30
0.0
 11
227.5
 21
189.99845
 31
0.0
  0
LINE
  8
0
 62
   249
 10
222.5
 20
185.0
 30
0.0
 11
227.5
 21
185.0
 31
0.0
  0
LINE
  8
0
 62
   249
 10
227.5
 20
185.0
 30
0.0
 11
230.0
 21
185.0
 31
0.0
  0
LINE
  8
0
 62
   249
 10
230.0
 20
185.0
 30
0.0
 11
230.0
 21
187.9
 31
0.0
  0
LINE
  8
0
 62
   249
 10
228.88095
 20
186.944425
 30
0.0
 11
229.560313
 21
186.008681
 31
0.0
  0
LINE
  8
0
 62
   249
 10
235.0
 20
190.0
 30
0.0
 11
229.2
 21
186.5
 31
0.0
  0
LINE
  8
0
 62
   249
 10
227.5
 20
179.99845
 30
0.0
 11
225.0
 21
179.99845
 31
0.0
  0
LINE
  8
0
 62
   249
 10
227.5
 20
180.0
 30
0.0
 11
230.0
 21
180.0
 31
0.0
  0
LINE
  8
0
  6
CONTINUOUS
 62
   249
 10
217.5
 20
132.5
 30
0.0
 11
218.5
 21
131.5
 31
0.0
  0
LINE
  8
0
  6
CONTINUOUS
 62
   249
 10
217.5
 20
147.5
 30
0.0
 11
218.5
 21
148.5
 31
0.0
  0
LINE
  8
0
  6
CONTINUOUS
 62
   249
 10
217.5
 20
147.5
 30
0.0
 11
217.5
 21
132.5
 31
0.0
  0
LINE
  8
0
  6
CONTINUOUS
 62
   249
 10
47.5
 20
104.991507
 30
0.0
 11
47.5
 21
107.765661
 31
0.0
  0
LINE
  8
0
  6
CONTINUOUS
 62
   249
 10
53.499934
 20
105.000025
 30
0.0
 11
46.837159
 21
107.434804
 31
0.0
  0
LINE
  8
0
  6
CONTINUOUS
 62
   249
 10
40.0
 20
104.991507
 30
0.0
 11
47.5
 21
104.991507
 31
0.0
  0
LINE
  8
0
  6
CONTINUOUS
 62
   249
 10
53.499934
 20
105.000025
 30
0.0
 11
57.5
 21
105.000025
 31
0.0
  0
LINE
  8
0
  6
CONTINUOUS
 62
   249
 10
172.5
 20
66.499996
 30
0.0
 11
172.5
 21
60.0
 31
0.0
  0
LINE
  8
0
  6
CONTINUOUS
 62
   249
 10
182.5
 20
66.499996
 30
0.0
 11
182.5
 21
60.0
 31
0.0
  0
LINE
  8
0
  6
CONTINUOUS
 62
   249
 10
187.5
 20
72.5
 30
0.0
 11
187.5
 21
76.087694
 31
0.0
  0
LINE
  8
0
  6
CONTINUOUS
 62
   249
 10
187.5
 20
77.28623
 30
0.0
 11
187.5
 21
79.78623
 31
0.0
  0
LINE
  8
0
  6
CONTINUOUS
 62
   249
 10
187.5
 20
66.499996
 30
0.0
 11
187.5
 21
60.0
 31
0.0
  0
LINE
  8
0
  6
CONTINUOUS
 62
   249
 10
187.5
 20
66.499996
 30
0.0
 11
189.934804
 21
73.162841
 31
0.0
  0
LINE
  8
0
  6
CONTINUOUS
 62
   249
 10
187.5
 20
72.5
 30
0.0
 11
190.265661
 21
72.5
 31
0.0
  0
LINE
  8
0
  6
CONTINUOUS
 62
   249
 10
189.934804
 20
73.162841
 30
0.0
 11
189.049106
 21
73.607734
 31
0.0
  0
LINE
  8
0
  6
CONTINUOUS
 62
   249
 10
182.5
 20
72.5
 30
0.0
 11
185.265661
 21
72.5
 31
0.0
  0
LINE
  8
0
  6
CONTINUOUS
 62
   249
 10
174.934804
 20
73.162841
 30
0.0
 11
174.049106
 21
73.607734
 31
0.0
  0
LINE
  8
0
  6
CONTINUOUS
 62
   249
 10
182.5
 20
66.499996
 30
0.0
 11
184.934804
 21
73.162841
 31
0.0
  0
LINE
  8
0
  6
CONTINUOUS
 62
   249
 10
172.5
 20
66.499996
 30
0.0
 11
174.934804
 21
73.162841
 31
0.0
  0
LINE
  8
0
  6
CONTINUOUS
 62
   249
 10
172.5
 20
72.5
 30
0.0
 11
175.265661
 21
72.5
 31
0.0
  0
LINE
  8
0
  6
CONTINUOUS
 62
   249
 10
241.819436
 20
105.403461
 30
0.0
 11
241.819436
 21
104.423461
 31
0.0
  0
LINE
  8
0
  6
CONTINUOUS
 62
   249
 10
241.819436
 20
104.423461
 30
0.0
 11
245.249436
 21
104.423461
 31
0.0
  0
LINE
  8
0
  6
CONTINUOUS
 62
   249
 10
245.249436
 20
104.423461
 30
0.0
 11
245.249436
 21
105.403461
 31
0.0
  0
LINE
  8
0
  6
CONTINUOUS
 62
   249
 10
245.249436
 20
105.403461
 30
0.0
 11
241.819436
 21
105.403461
 31
0.0
  0
LINE
  8
0
  6
DASHED
 62
   249
 10
245.0
 20
105.0
 30
0.0
 11
270.0
 21
105.0
 31
0.0
  0
ARC
  8
0
  6
CONTINUOUS
 62
   249
 10
242.5
 20
104.913461
 30
0.0
 40
2.5
 50
90.0
 51
270.0
  0
LINE
  8
0
  6
CONTINUOUS
 62
   249
 10
195.0
 20
162.5
 30
0.0
 11
197.5
 21
162.5
 31
0.0
  0
LINE
  8
0
  6
CONTINUOUS
 62
   249
 10
197.5
 20
162.5
 30
0.0
 11
197.5
 21
105.0
 31
0.0
  0
LINE
  8
0
  6
CONTINUOUS
 62
   249
 10
197.5
 20
105.0
 30
0.0
 11
212.5
 21
105.0
 31
0.0
  0
TEXT
  8
0
  6
DASHED
 62
   249
 10
326.260451
 20
71.666667
 30
0.0
 40
2.0
  1
BUSSANSLUTNINGSMODUL
  0
TEXT
  8
0
  6
DASHED
 62
   249
 10
380.0
 20
2.5
 30
0.0
 40
2.5
  1
B
  0
LINE
  8
0
  6
DASHED
 62
   249
 10
240.0
 20
145.0
 30
0.0
 11
250.0
 21
145.0
 31
0.0
  0
LINE
  8
0
  6
DASHED
 62
   249
 10
240.0
 20
190.0
 30
0.0
 11
250.0
 21
190.0
 31
0.0
  0
LINE
  8
0
  6
DASHED
 62
   249
 10
250.0
 20
135.0
 30
0.0
 11
275.0
 21
135.0
 31
0.0
  0
LINE
  8
0
  6
DASHED
 62
   249
 10
250.0
 20
145.0
 30
0.0
 11
267.5
 21
145.0
 31
0.0
  0
LINE
  8
0
  6
DASHED
 62
   249
 10
250.0
 20
190.0
 30
0.0
 11
252.5
 21
190.0
 31
0.0
  0
LINE
  8
0
  6
DASHED
 62
   249
 10
250.0
 20
210.0
 30
0.0
 11
240.0
 21
210.0
 31
0.0
  0
LINE
  8
0
  6
DASHED
 62
   249
 10
267.5
 20
217.310013
 30
0.0
 11
267.5
 21
145.0
 31
0.0
  0
LINE
  8
0
  6
DASHED
 62
   249
 10
275.0
 20
135.0
 30
0.0
 11
275.0
 21
212.499997
 31
0.0
  0
LINE
  8
0
  6
DASHED
 62
   249
 10
240.0
 20
135.0
 30
0.0
 11
250.0
 21
135.0
 31
0.0
  0
LINE
  8
0
  6
CONTINUOUS
 62
   249
 10
292.5
 20
147.5
 30
0.0
 11
302.5
 21
147.5
 31
0.0
  0
LINE
  8
0
  6
DASHED
 62
   249
 10
287.5
 20
185.189992
 30
0.0
 11
287.5
 21
160.0
 31
0.0
  0
LINE
  8
0
  6
DASHED
 62
   249
 10
297.569797
 20
175.189984
 30
0.0
 11
287.5
 21
175.189984
 31
0.0
  0
LINE
  8
0
  6
DASHED
 62
   249
 10
292.5
 20
182.5
 30
0.0
 11
292.5
 21
147.5
 31
0.0
  0
LINE
  8
0
  6
DASHED
 62
   249
 10
302.5
 20
182.5
 30
0.0
 11
302.5
 21
147.5
 31
0.0
  0
LINE
  8
0
  6
DASHED
 62
   249
 10
292.5
 20
222.5
 30
0.0
 11
292.5
 21
207.5
 31
0.0
  0
LINE
  8
0
  6
DASHED
 62
   249
 10
297.5
 20
222.5
 30
0.0
 11
297.5
 21
207.5
 31
0.0
  0
LINE
  8
0
  6
DASHED
 62
   249
 10
302.5
 20
222.5
 30
0.0
 11
302.5
 21
207.5
 31
0.0
  0
LINE
  8
0
  6
DASHED
 62
   249
 10
292.5
 20
185.189992
 30
0.0
 11
287.5
 21
185.189992
 31
0.0
  0
CIRCLE
  8
0
  6
CONTINUOUS
 62
   249
 10
297.5
 20
197.5
 30
0.0
 40
6.916051
  0
LINE
  8
0
  6
DASHED
 62
   249
 10
302.5
 20
207.5
 30
0.0
 11
302.5
 21
202.278259
 31
0.0
  0
LINE
  8
0
  6
DASHED
 62
   249
 10
297.5
 20
207.5
 30
0.0
 11
297.5
 21
204.416051
 31
0.0
  0
LINE
  8
0
  6
DASHED
 62
   249
 10
292.5
 20
207.5
 30
0.0
 11
292.5
 21
202.278259
 31
0.0
  0
TEXT
  8
0
  6
CONTINUOUS
 62
   249
 10
296.442852
 20
196.096312
 30
0.0
 40
3.0
  1
G
  0
INSERT
  8
0
  6
CONTINUOUS
 62
   249
  2
BLC27
 10
285.991996
 20
214.928446
 30
0.0
 41
-1.0
 50
180.0
  0
TEXT
  8
0
  6
DASHED
 62
   249
 10
291.066163
 20
225.0
 30
0.0
 40
2.0
  1
L1
  0
TEXT
  8
0
  6
DASHED
 62
   249
 10
295.874985
 20
225.0
 30
0.0
 40
2.0
  1
L2
  0
TEXT
  8
0
  6
DASHED
 62
   249
 10
300.954642
 20
225.0
 30
0.0
 40
2.0
  1
L3
  0
LINE
  8
0
  6
DASHED
 62
   249
 10
297.5
 20
190.583949
 30
0.0
 11
297.5
 21
147.5
 31
0.0
  0
LINE
  8
0
  6
DASHED
 62
   249
 10
302.5
 20
192.721741
 30
0.0
 11
302.5
 21
182.5
 31
0.0
  0
LINE
  8
0
  6
DASHED
 62
   249
 10
292.5
 20
192.721741
 30
0.0
 11
292.5
 21
182.5
 31
0.0
  0
LINE
  8
0
  6
DASHED
 62
   249
 10
252.5
 20
190.0
 30
0.0
 11
252.5
 21
180.0
 31
0.0
  0
LINE
  8
0
  6
DASHED
 62
   249
 10
252.5
 20
180.0
 30
0.0
 11
297.5
 21
180.0
 31
0.0
  0
LINE
  8
0
  6
DASHED
 62
   249
 10
292.5
 20
190.0
 30
0.0
 11
260.0
 21
190.0
 31
0.0
  0
LINE
  8
0
  6
DASHED
 62
   249
 10
260.0
 20
190.0
 30
0.0
 11
260.0
 21
210.0
 31
0.0
  0
LINE
  8
0
  6
DASHED
 62
   249
 10
260.0
 20
210.0
 30
0.0
 11
252.5
 21
210.0
 31
0.0
  0
LINE
  8
0
  6
DASHED
 62
   249
 10
240.0
 20
200.0
 30
0.0
 11
247.5
 21
200.0
 31
0.0
  0
LINE
  8
0
  6
DASHED
 62
   249
 10
247.5
 20
200.0
 30
0.0
 11
247.5
 21
170.0
 31
0.0
  0
LINE
  8
0
  6
DASHED
 62
   249
 10
240.0
 20
180.0
 30
0.0
 11
247.5
 21
180.0
 31
0.0
  0
LINE
  8
0
  6
DASHED
 62
   249
 10
297.5
 20
212.5
 30
0.0
 11
287.5
 21
212.5
 31
0.0
  0
LINE
  8
0
  6
DASHED
 62
   249
 10
292.483157
 20
217.310016
 30
0.0
 11
287.5
 21
217.310016
 31
0.0
  0
LINE
  8
0
  6
DASHED
 62
   249
 10
287.874033
 20
170.0
 30
0.0
 11
247.5
 21
170.0
 31
0.0
  0
LINE
  8
0
  6
CONTINUOUS
 62
   249
 10
287.5
 20
160.0
 30
0.0
 11
287.5
 21
155.654719
 31
0.0
  0
LINE
  8
0
  6
CONTINUOUS
 62
   249
 10
286.896305
 20
153.873166
 30
0.0
 11
288.103695
 21
153.873166
 31
0.0
  0
LINE
  8
0
  6
CONTINUOUS
 62
   249
 10
286.463807
 20
154.76068
 30
0.0
 11
288.527182
 21
154.76068
 31
0.0
  0
LINE
  8
0
  6
CONTINUOUS
 62
   249
 10
285.968237
 20
155.654719
 30
0.0
 11
289.031763
 21
155.654719
 31
0.0
  0
LINE
  8
0
  6
DASHED
 62
   249
 10
280.00426
 20
217.310013
 30
0.0
 11
267.5
 21
217.310013
 31
0.0
  0
LINE
  8
0
  6
DASHED
 62
   249
 10
279.987417
 20
212.499997
 30
0.0
 11
275.0
 21
212.499997
 31
0.0
  0
LINE
  8
0
  6
CONTINUOUS
 62
   249
 10
278.247433
 20
212.499997
 30
0.0
 11
278.247433
 21
208.344365
 31
0.0
  0
LINE
  8
0
  6
CONTINUOUS
 62
   249
 10
277.643738
 20
206.562812
 30
0.0
 11
278.851128
 21
206.562812
 31
0.0
  0
LINE
  8
0
  6
CONTINUOUS
 62
   249
 10
277.21124
 20
207.450325
 30
0.0
 11
279.274615
 21
207.450325
 31
0.0
  0
LINE
  8
0
  6
CONTINUOUS
 62
   249
 10
276.71567
 20
208.344365
 30
0.0
 11
279.779196
 21
208.344365
 31
0.0
  0
LINE
  8
0
  6
DASHED
 62
   249
 10
252.5
 20
210.0
 30
0.0
 11
250.0
 21
210.0
 31
0.0
  0
TEXT
  8
0
  6
CONTINUOUS
 62
   249
 10
39.975626
 20
56.280166
 30
0.0
 40
2.0
  1
DIM. 177 X 200
  0
LINE
  8
0
  6
CONTINUOUS
 62
   249
 10
233.500004
 20
135.0
 30
0.0
 11
226.837159
 21
137.434804
 31
0.0
  0
LINE
  8
0
  6
CONTINUOUS
 62
   249
 10
227.5
 20
135.0
 30
0.0
 11
227.5
 21
137.765661
 31
0.0
  0
LINE
  8
0
  6
CONTINUOUS
 62
   249
 10
226.837159
 20
137.434804
 30
0.0
 11
226.392266
 21
136.549106
 31
0.0
  0
LINE
  8
0
  6
CONTINUOUS
 62
   249
 10
226.837159
 20
147.434804
 30
0.0
 11
226.392266
 21
146.549106
 31
0.0
  0
LINE
  8
0
  6
CONTINUOUS
 62
   249
 10
227.5
 20
145.0
 30
0.0
 11
227.5
 21
147.765661
 31
0.0
  0
LINE
  8
0
  6
CONTINUOUS
 62
   249
 10
233.500004
 20
145.0
 30
0.0
 11
226.837159
 21
147.434804
 31
0.0
  0
LINE
  8
0
  6
CONTINUOUS
 62
   249
 10
227.5
 20
145.0
 30
0.0
 11
220.0
 21
145.0
 31
0.0
  0
LINE
  8
0
  6
CONTINUOUS
 62
   249
 10
227.5
 20
135.0
 30
0.0
 11
220.0
 21
135.0
 31
0.0
  0
TEXT
  8
0
  6
CONTINUOUS
 62
   249
 10
321.05368
 20
101.444733
 30
0.0
 40
2.0
  1
2) TRIP FROM OVERVOLTAGE AND
  0
TEXT
  8
0
  6
CONTINUOUS
 62
   249
 10
320.906251
 20
85.0
 30
0.0
 40
2.0
  1
3) INTERNAL RELAY FAULT
  0
TEXT
  8
0
  6
CONTINUOUS
 62
   249
 10
320.906251
 20
75.0
 30
0.0
 40
2.0
  1
4) BUS CONNECTION MODULE
  0
TEXT
  8
0
  6
CONTINUOUS
 62
   249
 10
272.5
 20
104.201664
 30
0.0
 40
2.0
  1
4)
  0
TEXT
  8
0
  6
CONTINUOUS
 62
   249
 10
45.0
 20
232.5
 30
0.0
 40
2.0
  1
RS 10116-AA  SPAG 310 C3
  0
TEXT
  8
0
  6
CONTINUOUS
 62
   249
 10
39.963645
 20
53.232491
 30
0.0
 40
2.0
  1
RS 10116-AAD
  0
TEXT
  8
0
  6
CONTINUOUS
 62
   249
 10
213.884278
 20
28.371282
 30
0.0
 40
2.0
  1
1992-10-29 HJ / RITU
  0
TEXT
  8
0
  6
CONTINUOUS
 62
   249
 10
322.5
 20
27.5
 30
0.0
 40
2.0
  1
TERMINAL DIAGRAM / UTTAGSSCHEMA
  0
TEXT
  8
0
  6
CONTINUOUS
 62
   249
 10
322.5
 20
24.166667
 30
0.0
 40
2.0
  1
SPAG 310 C3 WITH TEST SWITCH
  0
TEXT
  8
0
  6
CONTINUOUS
 62
   249
 10
322.5
 20
20.833333
 30
0.0
 40
2.0
  1
SPAG 310 C3 MED PROVDON
  0
TEXT
  8
0
  6
CONTINUOUS
 62
   249
 10
322.5
 20
2.5
 30
0.0
 40
2.5
  1
RS 10116-AAD
  0
TEXT
  8
0
  6
CONTINUOUS
 62
   249
 10
51.453717
 20
1.5663
 30
0.0
 40
2.0
  1
REDRAWN WITH AUTOCAD 1992-10-29 HJ / RITU
  0
TEXT
  8
0
  6
CONTINUOUS
 62
   249
 10
326.221
 20
81.61679
 30
0.0
 40
2.0
  1
INTERNT RELÄFEL
  0
TEXT
  8
0
  6
DASHED
 62
   249
 10
292.559556
 20
12.154511
 30
0.0
 40
3.0
  1
A3
  7
GREEKS
  0
TEXT
  8
0
  6
DASHED
 62
   249
 10
352.160939
 20
16.033682
 30
0.0
 40
1.4
  1
LEHTI SHEET
  7
GREEKS
  0
LINE
  8
0
 62
   249
 10
0.579461
 20
263.079152
 30
0.0
 11
392.579461
 21
263.079152
 31
0.0
  0
LINE
  8
0
 62
   249
 10
18.579461
 20
0.579152
 30
0.0
 11
0.579461
 21
0.579152
 31
0.0
  0
LINE
  8
0
 62
   249
 10
209.579461
 20
0.579152
 30
0.0
 11
392.579461
 21
0.579152
 31
0.0
  0
LINE
  8
0
 62
   249
 10
209.579461
 20
0.579152
 30
0.0
 11
209.579461
 21
35.579152
 31
0.0
  0
LINE
  8
0
 62
   249
 10
392.579461
 20
0.579152
 30
0.0
 11
392.579461
 21
35.579152
 31
0.0
  0
LINE
  8
0
 62
   249
 10
209.579461
 20
18.579152
 30
0.0
 11
392.579461
 21
18.579152
 31
0.0
  0
LINE
  8
0
 62
   249
 10
209.579461
 20
10.079152
 30
0.0
 11
392.579461
 21
10.079152
 31
0.0
  0
LINE
  8
0
 62
   249
 10
209.579461
 20
27.079152
 30
0.0
 11
307.579461
 21
27.079152
 31
0.0
  0
LINE
  8
0
 62
   249
 10
209.579461
 20
35.579152
 30
0.0
 11
392.579461
 21
35.579152
 31
0.0
  0
TEXT
  8
0
 62
   249
 10
210.579461
 20
24.312485
 30
0.0
 40
1.4
  1
TARKASTI  CHECKED
  7
ROMANS
  0
TEXT
  8
0
 62
   249
 10
210.322296
 20
16.045818
 30
0.0
 40
1.4
  1
HYVÄKSYI  APPROVED
  7
ROMANS
  0
LINE
  8
0
 62
   249
 10
307.579461
 20
0.579152
 30
0.0
 11
307.579461
 21
35.579152
 31
0.0
  0
TEXT
  8
0
 62
   249
 10
259.579461
 20
33.079152
 30
0.0
 40
1.4
  1
LIITTYY  CONCERNING
  7
ROMANS
  0
TEXT
  8
0
 62
   249
 10
259.579461
 20
24.079152
 30
0.0
 40
1.4
  1
TOLERANSSIT  TOLERANCES
  7
ROMANS
  0
TEXT
  8
0
 62
   249
 10
259.579461
 20
16.079152
 30
0.0
 40
1.4
  1
SUHDE  SCALE
  7
ROMANS
  0
TEXT
  8
0
 62
   249
 10
309.579461
 20
33.079152
 30
0.0
 40
1.4
  1
NIMITYS  NAME
  7
ROMANS
  0
TEXT
  8
0
 62
   249
 10
309.579461
 20
16.079152
 30
0.0
 40
1.4
  1
KOODI  CODE
  7
ROMANS
  0
TEXT
  8
0
 62
   249
 10
309.579461
 20
7.579152
 30
0.0
 40
1.4
  1
PIIRUSTUS NO  DRAWING NR
  7
ROMANS
  0
LINE
  8
0
 62
   249
 10
350.079461
 20
10.079152
 30
0.0
 11
350.079461
 21
18.579152
 31
0.0
  0
TEXT
  8
0
 62
   249
 10
371.579461
 20
7.579152
 30
0.0
 40
1.4
  1
PAINOS  REVISION
  7
ROMANS
  0
LINE
  8
0
 62
   249
 10
370.079461
 20
10.079152
 30
0.0
 11
370.079461
 21
0.579152
 31
0.0
  0
LINE
  8
0
 62
   249
 10
210.529461
 20
2.079152
 30
0.0
 11
212.279461
 21
2.079152
 31
0.0
  0
LINE
  8
0
 62
   249
 10
215.779461
 20
2.079152
 30
0.0
 11
217.529461
 21
2.079152
 31
0.0
  0
LINE
  8
0
 62
   249
 10
212.979461
 20
9.079152
 30
0.0
 11
211.801933
 21
5.714786
 31
0.0
  0
LINE
  8
0
 62
   249
 10
212.768248
 20
3.479152
 30
0.0
 11
213.889461
 21
3.479152
 31
0.0
  0
LINE
  8
0
 62
   249
 10
212.768251
 20
3.475694
 30
0.0
 11
212.279461
 21
2.079152
 31
0.0
  0
LINE
  8
0
 62
   249
 10
215.079461
 20
9.079152
 30
0.0
 11
216.255814
 21
5.718143
 31
0.0
  0
LINE
  8
0
 62
   249
 10
215.290559
 20
3.476015
 30
0.0
 11
215.779461
 21
2.079152
 31
0.0
  0
LINE
  8
0
 62
   249
 10
215.079461
 20
9.079152
 30
0.0
 11
214.169461
 21
9.079152
 31
0.0
  0
LINE
  8
0
 62
   249
 10
213.889461
 20
9.079152
 30
0.0
 11
213.889461
 21
5.719152
 31
0.0
  0
LINE
  8
0
 62
   249
 10
214.169461
 20
9.079152
 30
0.0
 11
214.169461
 21
5.719152
 31
0.0
  0
LINE
  8
0
 62
   249
 10
214.169461
 20
3.479152
 30
0.0
 11
215.289354
 21
3.479152
 31
0.0
  0
LINE
  8
0
 62
   249
 10
213.889461
 20
9.079152
 30
0.0
 11
212.979461
 21
9.079152
 31
0.0
  0
LINE
  8
0
 62
   249
 10
211.801402
 20
5.719152
 30
0.0
 11
213.889461
 21
5.719152
 31
0.0
  0
LINE
  8
0
 62
   249
 10
211.702443
 20
5.439152
 30
0.0
 11
213.889461
 21
5.439152
 31
0.0
  0
LINE
  8
0
 62
   249
 10
216.353953
 20
5.437746
 30
0.0
 11
217.529461
 21
2.079152
 31
0.0
  0
LINE
  8
0
 62
   249
 10
214.169461
 20
5.719152
 30
0.0
 11
216.254575
 21
5.719152
 31
0.0
  0
LINE
  8
0
 62
   249
 10
214.169461
 20
5.439152
 30
0.0
 11
216.352717
 21
5.439152
 31
0.0
  0
LINE
  8
0
 62
   249
 10
214.169461
 20
5.439152
 30
0.0
 11
214.169461
 21
3.479152
 31
0.0
  0
LINE
  8
0
 62
   249
 10
213.889461
 20
5.439152
 30
0.0
 11
213.889461
 21
3.479152
 31
0.0
  0
LINE
  8
0
 62
   249
 10
211.69935
 20
5.421691
 30
0.0
 11
210.529461
 21
2.079152
 31
0.0
  0
INSERT
  8
0
 62
   249
  2
*X20
 10
210.529461
 20
2.079152
 30
0.0
 41
0.7
 42
0.7
 43
0.7
  0
INSERT
  8
0
 62
   249
  2
*X21
 10
210.529461
 20
2.079152
 30
0.0
 41
0.7
 42
0.7
 43
0.7
  0
INSERT
  8
0
 62
   249
  2
*X22
 10
210.529461
 20
2.079152
 30
0.0
 41
0.7
 42
0.7
 43
0.7
  0
INSERT
  8
0
 62
   249
  2
*X23
 10
210.529461
 20
2.079152
 30
0.0
 41
0.7
 42
0.7
 43
0.7
  0
LINE
  8
0
 62
   249
 10
218.019461
 20
2.079152
 30
0.0
 11
218.019461
 21
5.439152
 31
0.0
  0
LINE
  8
0
 62
   249
 10
218.019461
 20
9.079152
 30
0.0
 11
219.979461
 21
9.079152
 31
0.0
  0
LINE
  8
0
 62
   249
 10
219.979461
 20
9.079152
 30
0.0
 11
219.979461
 21
5.719152
 31
0.0
  0
LINE
  8
0
 62
   249
 10
219.979461
 20
5.719152
 30
0.0
 11
218.019461
 21
5.719152
 31
0.0
  0
LINE
  8
0
 62
   249
 10
218.019461
 20
5.439152
 30
0.0
 11
219.979461
 21
5.439152
 31
0.0
  0
LINE
  8
0
 62
   249
 10
219.979461
 20
5.439152
 30
0.0
 11
219.979461
 21
2.079152
 31
0.0
  0
LINE
  8
0
 62
   249
 10
219.979461
 20
2.079152
 30
0.0
 11
218.019461
 21
2.079152
 31
0.0
  0
LINE
  8
0
 62
   249
 10
218.019461
 20
5.719152
 30
0.0
 11
218.019461
 21
9.079152
 31
0.0
  0
ARC
  8
0
 62
   249
 10
220.819461
 20
7.504152
 30
0.0
 40
1.575
 50
298.455859
 51
90.052437
  0
LINE
  8
0
 62
   249
 10
220.259461
 20
9.079152
 30
0.0
 11
220.818019
 21
9.079151
 31
0.0
  0
LINE
  8
0
 62
   249
 10
220.259461
 20
9.079152
 30
0.0
 11
220.259461
 21
5.719152
 31
0.0
  0
LINE
  8
0
 62
   249
 10
220.259461
 20
5.719152
 30
0.0
 11
222.243904
 21
5.719152
 31
0.0
  0
LINE
  8
0
 62
   249
 10
222.499461
 20
5.439152
 30
0.0
 11
220.259461
 21
5.439152
 31
0.0
  0
LINE
  8
0
 62
   249
 10
220.259461
 20
5.439152
 30
0.0
 11
220.259461
 21
2.079152
 31
0.0
  0
ARC
  8
0
 62
   249
 10
220.819461
 20
4.179152
 30
0.0
 40
2.1
 50
269.937724
 51
37.056553
  0
LINE
  8
0
 62
   249
 10
220.259461
 20
2.079152
 30
0.0
 11
220.817178
 21
2.079153
 31
0.0
  0
ARC
  8
0
 62
   249
 10
220.819461
 20
4.179152
 30
0.0
 40
2.1
 50
47.28622
 51
68.787999
  0
INSERT
  8
0
 62
   249
  2
*X24
 10
210.529461
 20
2.079152
 30
0.0
 41
0.7
 42
0.7
 43
0.7
  0
INSERT
  8
0
 62
   249
  2
*X25
 10
210.529461
 20
2.079152
 30
0.0
 41
0.7
 42
0.7
 43
0.7
  0
INSERT
  8
0
 62
   249
  2
*X26
 10
210.529461
 20
2.079152
 30
0.0
 41
0.7
 42
0.7
 43
0.7
  0
INSERT
  8
0
 62
   249
  2
*X27
 10
210.529461
 20
2.079152
 30
0.0
 41
0.7
 42
0.7
 43
0.7
  0
INSERT
  8
0
 62
   249
  2
*X27
 10
215.989461
 20
2.079152
 30
0.0
 41
0.7
 42
0.7
 43
0.7
  0
INSERT
  8
0
 62
   249
  2
*X26
 10
215.989461
 20
2.079152
 30
0.0
 41
0.7
 42
0.7
 43
0.7
  0
INSERT
  8
0
 62
   249
  2
*X25
 10
215.989461
 20
2.079152
 30
0.0
 41
0.7
 42
0.7
 43
0.7
  0
INSERT
  8
0
 62
   249
  2
*X24
 10
215.989461
 20
2.079152
 30
0.0
 41
0.7
 42
0.7
 43
0.7
  0
ARC
  8
0
 62
   249
 10
226.279461
 20
4.179152
 30
0.0
 40
2.1
 50
47.28622
 51
68.787999
  0
LINE
  8
0
 62
   249
 10
225.719461
 20
2.079152
 30
0.0
 11
226.277178
 21
2.079153
 31
0.0
  0
ARC
  8
0
 62
   249
 10
226.279461
 20
4.179152
 30
0.0
 40
2.1
 50
269.937724
 51
37.056553
  0
LINE
  8
0
 62
   249
 10
225.719461
 20
5.439152
 30
0.0
 11
225.719461
 21
2.079152
 31
0.0
  0
LINE
  8
0
 62
   249
 10
227.959461
 20
5.439152
 30
0.0
 11
225.719461
 21
5.439152
 31
0.0
  0
LINE
  8
0
 62
   249
 10
225.719461
 20
5.719152
 30
0.0
 11
227.703904
 21
5.719152
 31
0.0
  0
LINE
  8
0
 62
   249
 10
225.719461
 20
9.079152
 30
0.0
 11
225.719461
 21
5.719152
 31
0.0
  0
LINE
  8
0
 62
   249
 10
225.719461
 20
9.079152
 30
0.0
 11
226.278019
 21
9.079151
 31
0.0
  0
ARC
  8
0
 62
   249
 10
226.279461
 20
7.504152
 30
0.0
 40
1.575
 50
298.455859
 51
90.052437
  0
LINE
  8
0
 62
   249
 10
223.479461
 20
5.719152
 30
0.0
 11
223.479461
 21
9.079152
 31
0.0
  0
LINE
  8
0
 62
   249
 10
225.439461
 20
2.079152
 30
0.0
 11
223.479461
 21
2.079152
 31
0.0
  0
LINE
  8
0
 62
   249
 10
225.439461
 20
5.439152
 30
0.0
 11
225.439461
 21
2.079152
 31
0.0
  0
LINE
  8
0
 62
   249
 10
223.479461
 20
5.439152
 30
0.0
 11
225.439461
 21
5.439152
 31
0.0
  0
LINE
  8
0
 62
   249
 10
225.439461
 20
5.719152
 30
0.0
 11
223.479461
 21
5.719152
 31
0.0
  0
LINE
  8
0
 62
   249
 10
225.439461
 20
9.079152
 30
0.0
 11
225.439461
 21
5.719152
 31
0.0
  0
LINE
  8
0
 62
   249
 10
223.479461
 20
9.079152
 30
0.0
 11
225.439461
 21
9.079152
 31
0.0
  0
LINE
  8
0
 62
   249
 10
223.479461
 20
2.079152
 30
0.0
 11
223.479461
 21
5.439152
 31
0.0
  0
TEXT
  8
0
 62
   249
 10
230.079461
 20
2.079152
 30
0.0
 40
3.0
  1
ABB 
 41
0.8
  7
ROMANS
  0
TEXT
  8
0
 62
   249
 10
238.079461
 20
2.079152
 30
0.0
 40
3.0
  1
Strömberg
 41
0.8
  7
ROMANS
  0
LINE
  8
0
 62
   249
 10
282.579461
 20
10.079152
 30
0.0
 11
282.579461
 21
18.579152
 31
0.0
  0
TEXT
  8
0
 62
   249
 10
28.079461
 20
5.079152
 30
0.0
 40
1.4
  1
MUUTOS
  7
ROMANS
  0
TEXT
  8
0
 62
   249
 10
28.079461
 20
2.812485
 30
0.0
 40
1.4
  1
REVISION
  7
ROMANS
  0
LINE
  8
0
 62
   249
 10
47.079461
 20
9.579152
 30
0.0
 11
209.579461
 21
9.579152
 31
0.0
  0
LINE
  8
0
 62
   249
 10
47.079461
 20
0.579152
 30
0.0
 11
47.079461
 21
9.579152
 31
0.0
  0
LINE
  8
0
 62
   249
 10
41.079461
 20
5.079152
 30
0.0
 11
209.579461
 21
5.079152
 31
0.0
  0
LINE
  8
0
 62
   249
 10
257.579461
 20
10.079152
 30
0.0
 11
257.579461
 21
35.579152
 31
0.0
  0
LINE
  8
0
 62
   249
 10
271.579461
 20
10.079152
 30
0.0
 11
271.579461
 21
0.579152
 31
0.0
  0
TEXT
  8
0
 62
   249
 10
210.579461
 20
32.579152
 30
0.0
 40
1.4
  1
TEKI  PREPARED
  7
ROMANS
  0
TEXT
  8
0
 62
   249
 10
273.579461
 20
7.579152
 30
0.0
 40
1.4
  1
VAST.OSASTO RESP.DEPT.
  7
ROMANS
  0
TEXT
  8
0
 62
   249
 10
257.749368
 20
2.082935
 30
0.0
 40
3.0
  1
Power
 41
0.8
  7
ROMANS
  0
TEXT
  8
0
 62
   249
 10
42.579461
 20
1.536444
 30
0.0
 40
2.5
  1
B
  7
ROMANS
  0
TEXT
  8
0
 62
   249
 10
42.579461
 20
5.928661
 30
0.0
 40
2.5
  1
C
  7
ROMANS
  0
LINE
  8
0
 62
   249
 10
0.579461
 20
0.579152
 30
0.0
 11
392.579461
 21
0.579152
 31
0.0
  0
LINE
  8
0
 62
   249
 10
392.579461
 20
263.079152
 30
0.0
 11
392.579461
 21
0.579152
 31
0.0
  0
LINE
  8
0
 62
   249
 10
0.579461
 20
0.579152
 30
0.0
 11
0.579461
 21
263.079152
 31
0.0
  0
ARC
  8
0
  6
CONTINUOUS
 62
   249
 10
60.0
 20
105.0
 30
0.0
 40
0.5
 50
180.0
 51
0.0
  0
ARC
  8
0
  6
CONTINUOUS
 62
   249
 10
60.0
 20
105.0
 30
0.0
 40
0.5
 50
0.0
 51
180.0
  0
TEXT
  8
0
  6
CONTINUOUS
 62
   249
 10
156.853328
 20
46.513635
 30
0.0
 40
2.0
  1
+
  0
TEXT
  8
0
  6
CONTINUOUS
 62
   249
 10
171.853328
 20
46.513635
 30
0.0
 40
2.0
  1
+
  0
TEXT
  8
0
  6
CONTINUOUS
 62
   249
 10
181.853328
 20
46.513635
 30
0.0
 40
2.0
  1
+
  0
TEXT
  8
0
  6
CONTINUOUS
 62
   249
 10
186.844763
 20
46.50558
 30
0.0
 40
2.0
  1
-
  0
ARC
  8
0
  6
CONTINUOUS
 62
   249
 10
172.5
 20
95.0
 30
0.0
 40
0.5
 50
180.0
 51
0.0
  0
ARC
  8
0
  6
CONTINUOUS
 62
   249
 10
172.5
 20
95.0
 30
0.0
 40
0.5
 50
0.0
 51
180.0
  0
ARC
  8
0
  6
CONTINUOUS
 62
   249
 10
115.0
 20
208.799022
 30
0.0
 40
0.5
 50
180.0
 51
0.0
  0
ARC
  8
0
  6
CONTINUOUS
 62
   249
 10
115.0
 20
208.799022
 30
0.0
 40
0.5
 50
0.0
 51
180.0
  0
LINE
  8
0
  6
CONTINUOUS
 62
   249
 10
153.898107
 20
156.164646
 30
0.0
 11
151.552341
 21
157.5
 31
0.0
  0
LINE
  8
0
  6
CONTINUOUS
 62
   249
 10
151.552341
 20
157.5
 30
0.0
 11
153.898107
 21
158.689919
 31
0.0
  0
LINE
  8
0
  6
CONTINUOUS
 62
   249
 10
153.898107
 20
207.463669
 30
0.0
 11
151.552341
 21
208.799022
 31
0.0
  0
LINE
  8
0
  6
CONTINUOUS
 62
   249
 10
151.552341
 20
208.799022
 30
0.0
 11
153.898107
 21
209.988942
 31
0.0
  0
LINE
  8
0
  6
CONTINUOUS
 62
   249
 10
168.019614
 20
208.382059
 30
0.0
 11
168.480139
 21
208.930891
 31
0.0
  0
LINE
  8
0
  6
CONTINUOUS
 62
   249
 10
168.009803
 20
208.385925
 30
0.0
 11
168.460811
 21
208.923415
 31
0.0
  0
LINE
  8
0
  6
CONTINUOUS
 62
   249
 10
167.999993
 20
208.38979
 30
0.0
 11
168.441483
 21
208.915938
 31
0.0
  0
LINE
  8
0
  6
CONTINUOUS
 62
   249
 10
167.990183
 20
208.393656
 30
0.0
 11
168.422156
 21
208.908461
 31
0.0
  0
LINE
  8
0
  6
CONTINUOUS
 62
   249
 10
167.980373
 20
208.397522
 30
0.0
 11
168.402828
 21
208.900985
 31
0.0
  0
LINE
  8
0
  6
CONTINUOUS
 62
   249
 10
167.970562
 20
208.401388
 30
0.0
 11
168.3835
 21
208.893508
 31
0.0
  0
LINE
  8
0
  6
CONTINUOUS
 62
   249
 10
167.960752
 20
208.405254
 30
0.0
 11
168.364173
 21
208.886032
 31
0.0
  0
LINE
  8
0
  6
CONTINUOUS
 62
   249
 10
167.950942
 20
208.40912
 30
0.0
 11
168.344845
 21
208.878555
 31
0.0
  0
LINE
  8
0
  6
CONTINUOUS
 62
   249
 10
167.941132
 20
208.412986
 30
0.0
 11
168.325517
 21
208.871079
 31
0.0
  0
LINE
  8
0
  6
CONTINUOUS
 62
   249
 10
167.931322
 20
208.416851
 30
0.0
 11
168.30619
 21
208.863602
 31
0.0
  0
LINE
  8
0
  6
CONTINUOUS
 62
   249
 10
167.921511
 20
208.420717
 30
0.0
 11
168.286862
 21
208.856125
 31
0.0
  0
LINE
  8
0
  6
CONTINUOUS
 62
   249
 10
167.911701
 20
208.424583
 30
0.0
 11
168.267534
 21
208.848649
 31
0.0
  0
LINE
  8
0
  6
CONTINUOUS
 62
   249
 10
167.901891
 20
208.428449
 30
0.0
 11
168.248207
 21
208.841172
 31
0.0
  0
LINE
  8
0
  6
CONTINUOUS
 62
   249
 10
167.892081
 20
208.432315
 30
0.0
 11
168.228879
 21
208.833696
 31
0.0
  0
LINE
  8
0
  6
CONTINUOUS
 62
   249
 10
167.88227
 20
208.436181
 30
0.0
 11
168.209551
 21
208.826219
 31
0.0
  0
LINE
  8
0
  6
CONTINUOUS
 62
   249
 10
167.87246
 20
208.440047
 30
0.0
 11
168.190224
 21
208.818742
 31
0.0
  0
LINE
  8
0
  6
CONTINUOUS
 62
   249
 10
167.86265
 20
208.443912
 30
0.0
 11
168.170896
 21
208.811266
 31
0.0
  0
LINE
  8
0
  6
CONTINUOUS
 62
   249
 10
167.85284
 20
208.447778
 30
0.0
 11
168.151568
 21
208.803789
 31
0.0
  0
LINE
  8
0
  6
CONTINUOUS
 62
   249
 10
167.843029
 20
208.451644
 30
0.0
 11
168.132241
 21
208.796313
 31
0.0
  0
LINE
  8
0
  6
CONTINUOUS
 62
   249
 10
167.833219
 20
208.45551
 30
0.0
 11
168.112913
 21
208.788836
 31
0.0
  0
LINE
  8
0
  6
CONTINUOUS
 62
   249
 10
167.823409
 20
208.459376
 30
0.0
 11
168.093585
 21
208.781359
 31
0.0
  0
LINE
  8
0
  6
CONTINUOUS
 62
   249
 10
167.813599
 20
208.463242
 30
0.0
 11
168.074258
 21
208.773883
 31
0.0
  0
LINE
  8
0
  6
CONTINUOUS
 62
   249
 10
167.803789
 20
208.467108
 30
0.0
 11
168.05493
 21
208.766406
 31
0.0
  0
LINE
  8
0
  6
CONTINUOUS
 62
   249
 10
167.793978
 20
208.470973
 30
0.0
 11
168.035602
 21
208.75893
 31
0.0
  0
LINE
  8
0
  6
CONTINUOUS
 62
   249
 10
167.784168
 20
208.474839
 30
0.0
 11
168.016275
 21
208.751453
 31
0.0
  0
LINE
  8
0
  6
CONTINUOUS
 62
   249
 10
167.774358
 20
208.478705
 30
0.0
 11
167.996947
 21
208.743976
 31
0.0
  0
LINE
  8
0
  6
CONTINUOUS
 62
   249
 10
167.764548
 20
208.482571
 30
0.0
 11
167.977619
 21
208.7365
 31
0.0
  0
LINE
  8
0
  6
CONTINUOUS
 62
   249
 10
167.754737
 20
208.486437
 30
0.0
 11
167.958292
 21
208.729023
 31
0.0
  0
LINE
  8
0
  6
CONTINUOUS
 62
   249
 10
167.744927
 20
208.490303
 30
0.0
 11
167.938964
 21
208.721547
 31
0.0
  0
LINE
  8
0
  6
CONTINUOUS
 62
   249
 10
167.735117
 20
208.494169
 30
0.0
 11
167.919636
 21
208.71407
 31
0.0
  0
LINE
  8
0
  6
CONTINUOUS
 62
   249
 10
167.725307
 20
208.498034
 30
0.0
 11
167.900308
 21
208.706593
 31
0.0
  0
LINE
  8
0
  6
CONTINUOUS
 62
   249
 10
167.715496
 20
208.5019
 30
0.0
 11
167.880981
 21
208.699117
 31
0.0
  0
LINE
  8
0
  6
CONTINUOUS
 62
   249
 10
167.705686
 20
208.505766
 30
0.0
 11
167.861653
 21
208.69164
 31
0.0
  0
LINE
  8
0
  6
CONTINUOUS
 62
   249
 10
167.695876
 20
208.509632
 30
0.0
 11
167.842325
 21
208.684164
 31
0.0
  0
LINE
  8
0
  6
CONTINUOUS
 62
   249
 10
167.686066
 20
208.513498
 30
0.0
 11
167.822998
 21
208.676687
 31
0.0
  0
LINE
  8
0
  6
CONTINUOUS
 62
   249
 10
167.676256
 20
208.517364
 30
0.0
 11
167.80367
 21
208.669211
 31
0.0
  0
LINE
  8
0
  6
CONTINUOUS
 62
   249
 10
167.666445
 20
208.52123
 30
0.0
 11
167.784342
 21
208.661734
 31
0.0
  0
LINE
  8
0
  6
CONTINUOUS
 62
   249
 10
167.656635
 20
208.525095
 30
0.0
 11
167.765015
 21
208.654257
 31
0.0
  0
LINE
  8
0
  6
CONTINUOUS
 62
   249
 10
167.646825
 20
208.528961
 30
0.0
 11
167.745687
 21
208.646781
 31
0.0
  0
LINE
  8
0
  6
CONTINUOUS
 62
   249
 10
167.637015
 20
208.532827
 30
0.0
 11
167.726359
 21
208.639304
 31
0.0
  0
LINE
  8
0
  6
CONTINUOUS
 62
   249
 10
167.627204
 20
208.536693
 30
0.0
 11
167.707032
 21
208.631828
 31
0.0
  0
LINE
  8
0
  6
CONTINUOUS
 62
   249
 10
167.617394
 20
208.540559
 30
0.0
 11
167.687704
 21
208.624351
 31
0.0
  0
LINE
  8
0
  6
CONTINUOUS
 62
   249
 10
167.607584
 20
208.544425
 30
0.0
 11
167.668376
 21
208.616874
 31
0.0
  0
LINE
  8
0
  6
CONTINUOUS
 62
   249
 10
167.597774
 20
208.548291
 30
0.0
 11
167.649049
 21
208.609398
 31
0.0
  0
LINE
  8
0
  6
CONTINUOUS
 62
   249
 10
167.587963
 20
208.552156
 30
0.0
 11
167.629721
 21
208.601921
 31
0.0
  0
LINE
  8
0
  6
CONTINUOUS
 62
   249
 10
167.578153
 20
208.556022
 30
0.0
 11
167.610393
 21
208.594445
 31
0.0
  0
LINE
  8
0
  6
CONTINUOUS
 62
   249
 10
167.568343
 20
208.559888
 30
0.0
 11
167.591066
 21
208.586968
 31
0.0
  0
LINE
  8
0
  6
CONTINUOUS
 62
   249
 10
167.558533
 20
208.563754
 30
0.0
 11
167.571738
 21
208.579491
 31
0.0
  0
LINE
  8
0
  6
CONTINUOUS
 62
   249
 10
167.548723
 20
208.56762
 30
0.0
 11
167.55241
 21
208.572015
 31
0.0
  0
LINE
  8
0
  6
CONTINUOUS
 62
   249
 10
168.029424
 20
208.378193
 30
0.0
 11
168.499467
 21
208.938368
 31
0.0
  0
LINE
  8
0
  6
CONTINUOUS
 62
   249
 10
168.039234
 20
208.374327
 30
0.0
 11
168.518794
 21
208.945844
 31
0.0
  0
LINE
  8
0
  6
CONTINUOUS
 62
   249
 10
168.049044
 20
208.370461
 30
0.0
 11
168.538122
 21
208.953321
 31
0.0
  0
LINE
  8
0
  6
CONTINUOUS
 62
   249
 10
168.058855
 20
208.366595
 30
0.0
 11
168.55745
 21
208.960798
 31
0.0
  0
LINE
  8
0
  6
CONTINUOUS
 62
   249
 10
168.068665
 20
208.362729
 30
0.0
 11
168.576777
 21
208.968274
 31
0.0
  0
LINE
  8
0
  6
CONTINUOUS
 62
   249
 10
168.078475
 20
208.358864
 30
0.0
 11
168.596105
 21
208.975751
 31
0.0
  0
LINE
  8
0
  6
CONTINUOUS
 62
   249
 10
168.088285
 20
208.354998
 30
0.0
 11
168.615433
 21
208.983227
 31
0.0
  0
LINE
  8
0
  6
CONTINUOUS
 62
   249
 10
168.098095
 20
208.351132
 30
0.0
 11
168.63476
 21
208.990704
 31
0.0
  0
LINE
  8
0
  6
CONTINUOUS
 62
   249
 10
168.107906
 20
208.347266
 30
0.0
 11
168.654088
 21
208.998181
 31
0.0
  0
LINE
  8
0
  6
CONTINUOUS
 62
   249
 10
168.117716
 20
208.3434
 30
0.0
 11
168.673416
 21
209.005657
 31
0.0
  0
LINE
  8
0
  6
CONTINUOUS
 62
   249
 10
168.127526
 20
208.339534
 30
0.0
 11
168.692743
 21
209.013134
 31
0.0
  0
LINE
  8
0
  6
CONTINUOUS
 62
   249
 10
168.137336
 20
208.335668
 30
0.0
 11
168.712071
 21
209.02061
 31
0.0
  0
LINE
  8
0
  6
CONTINUOUS
 62
   249
 10
168.147147
 20
208.331803
 30
0.0
 11
168.731399
 21
209.028087
 31
0.0
  0
LINE
  8
0
  6
CONTINUOUS
 62
   249
 10
168.156957
 20
208.327937
 30
0.0
 11
168.750726
 21
209.035564
 31
0.0
  0
LINE
  8
0
  6
CONTINUOUS
 62
   249
 10
168.166767
 20
208.324071
 30
0.0
 11
168.770054
 21
209.04304
 31
0.0
  0
LINE
  8
0
  6
CONTINUOUS
 62
   249
 10
168.176577
 20
208.320205
 30
0.0
 11
168.789382
 21
209.050517
 31
0.0
  0
LINE
  8
0
  6
CONTINUOUS
 62
   249
 10
168.186388
 20
208.316339
 30
0.0
 11
168.808709
 21
209.057993
 31
0.0
  0
LINE
  8
0
  6
CONTINUOUS
 62
   249
 10
168.196198
 20
208.312473
 30
0.0
 11
168.821049
 21
209.057142
 31
0.0
  0
LINE
  8
0
  6
CONTINUOUS
 62
   249
 10
168.206008
 20
208.308607
 30
0.0
 11
168.821049
 21
209.041585
 31
0.0
  0
LINE
  8
0
  6
CONTINUOUS
 62
   249
 10
168.215818
 20
208.304742
 30
0.0
 11
168.821049
 21
209.026028
 31
0.0
  0
LINE
  8
0
  6
CONTINUOUS
 62
   249
 10
168.225629
 20
208.300876
 30
0.0
 11
168.821049
 21
209.010471
 31
0.0
  0
LINE
  8
0
  6
CONTINUOUS
 62
   249
 10
168.235439
 20
208.29701
 30
0.0
 11
168.821049
 21
208.994913
 31
0.0
  0
LINE
  8
0
  6
CONTINUOUS
 62
   249
 10
168.245249
 20
208.293144
 30
0.0
 11
168.821049
 21
208.979356
 31
0.0
  0
LINE
  8
0
  6
CONTINUOUS
 62
   249
 10
168.255059
 20
208.289278
 30
0.0
 11
168.821049
 21
208.963799
 31
0.0
  0
LINE
  8
0
  6
CONTINUOUS
 62
   249
 10
168.264869
 20
208.285412
 30
0.0
 11
168.821049
 21
208.948242
 31
0.0
  0
LINE
  8
0
  6
CONTINUOUS
 62
   249
 10
168.27468
 20
208.281546
 30
0.0
 11
168.821049
 21
208.932684
 31
0.0
  0
LINE
  8
0
  6
CONTINUOUS
 62
   249
 10
168.28449
 20
208.27768
 30
0.0
 11
168.821049
 21
208.917127
 31
0.0
  0
LINE
  8
0
  6
CONTINUOUS
 62
   249
 10
168.2943
 20
208.273815
 30
0.0
 11
168.821049
 21
208.90157
 31
0.0
  0
LINE
  8
0
  6
CONTINUOUS
 62
   249
 10
168.30411
 20
208.269949
 30
0.0
 11
168.821049
 21
208.886013
 31
0.0
  0
LINE
  8
0
  6
CONTINUOUS
 62
   249
 10
168.313921
 20
208.266083
 30
0.0
 11
168.821049
 21
208.870456
 31
0.0
  0
LINE
  8
0
  6
CONTINUOUS
 62
   249
 10
168.323731
 20
208.262217
 30
0.0
 11
168.821049
 21
208.854898
 31
0.0
  0
LINE
  8
0
  6
CONTINUOUS
 62
   249
 10
168.333541
 20
208.258351
 30
0.0
 11
168.821049
 21
208.839341
 31
0.0
  0
LINE
  8
0
  6
CONTINUOUS
 62
   249
 10
168.343351
 20
208.254485
 30
0.0
 11
168.821049
 21
208.823784
 31
0.0
  0
LINE
  8
0
  6
CONTINUOUS
 62
   249
 10
168.353162
 20
208.250619
 30
0.0
 11
168.821049
 21
208.808227
 31
0.0
  0
LINE
  8
0
  6
CONTINUOUS
 62
   249
 10
168.362972
 20
208.246754
 30
0.0
 11
168.821049
 21
208.792669
 31
0.0
  0
LINE
  8
0
  6
CONTINUOUS
 62
   249
 10
168.372782
 20
208.242888
 30
0.0
 11
168.821049
 21
208.777112
 31
0.0
  0
LINE
  8
0
  6
CONTINUOUS
 62
   249
 10
168.382592
 20
208.239022
 30
0.0
 11
168.821049
 21
208.761555
 31
0.0
  0
LINE
  8
0
  6
CONTINUOUS
 62
   249
 10
168.392402
 20
208.235156
 30
0.0
 11
168.821049
 21
208.745998
 31
0.0
  0
LINE
  8
0
  6
CONTINUOUS
 62
   249
 10
168.402213
 20
208.23129
 30
0.0
 11
168.821049
 21
208.73044
 31
0.0
  0
LINE
  8
0
  6
CONTINUOUS
 62
   249
 10
168.412023
 20
208.227424
 30
0.0
 11
168.821049
 21
208.714883
 31
0.0
  0
LINE
  8
0
  6
CONTINUOUS
 62
   249
 10
168.421833
 20
208.223558
 30
0.0
 11
168.821049
 21
208.699326
 31
0.0
  0
LINE
  8
0
  6
CONTINUOUS
 62
   249
 10
168.431643
 20
208.219693
 30
0.0
 11
168.821049
 21
208.683769
 31
0.0
  0
LINE
  8
0
  6
CONTINUOUS
 62
   249
 10
168.441454
 20
208.215827
 30
0.0
 11
168.821049
 21
208.668211
 31
0.0
  0
LINE
  8
0
  6
CONTINUOUS
 62
   249
 10
168.451264
 20
208.211961
 30
0.0
 11
168.821049
 21
208.652654
 31
0.0
  0
LINE
  8
0
  6
CONTINUOUS
 62
   249
 10
168.461074
 20
208.208095
 30
0.0
 11
168.821049
 21
208.637097
 31
0.0
  0
LINE
  8
0
  6
CONTINUOUS
 62
   249
 10
168.470884
 20
208.204229
 30
0.0
 11
168.821049
 21
208.62154
 31
0.0
  0
LINE
  8
0
  6
CONTINUOUS
 62
   249
 10
168.480695
 20
208.200363
 30
0.0
 11
168.821049
 21
208.605982
 31
0.0
  0
LINE
  8
0
  6
CONTINUOUS
 62
   249
 10
168.490505
 20
208.196497
 30
0.0
 11
168.821049
 21
208.590425
 31
0.0
  0
LINE
  8
0
  6
CONTINUOUS
 62
   249
 10
168.500315
 20
208.192632
 30
0.0
 11
168.821049
 21
208.574868
 31
0.0
  0
LINE
  8
0
  6
CONTINUOUS
 62
   249
 10
168.510125
 20
208.188766
 30
0.0
 11
168.821049
 21
208.559311
 31
0.0
  0
LINE
  8
0
  6
CONTINUOUS
 62
   249
 10
168.519935
 20
208.1849
 30
0.0
 11
168.821049
 21
208.543754
 31
0.0
  0
LINE
  8
0
  6
CONTINUOUS
 62
   249
 10
168.529746
 20
208.181034
 30
0.0
 11
168.821049
 21
208.528196
 31
0.0
  0
LINE
  8
0
  6
CONTINUOUS
 62
   249
 10
168.539556
 20
208.177168
 30
0.0
 11
168.821049
 21
208.512639
 31
0.0
  0
LINE
  8
0
  6
CONTINUOUS
 62
   249
 10
168.549366
 20
208.173302
 30
0.0
 11
168.821049
 21
208.497082
 31
0.0
  0
LINE
  8
0
  6
CONTINUOUS
 62
   249
 10
168.559176
 20
208.169436
 30
0.0
 11
168.821049
 21
208.481525
 31
0.0
  0
LINE
  8
0
  6
CONTINUOUS
 62
   249
 10
168.568987
 20
208.165571
 30
0.0
 11
168.821049
 21
208.465967
 31
0.0
  0
LINE
  8
0
  6
CONTINUOUS
 62
   249
 10
168.578797
 20
208.161705
 30
0.0
 11
168.821049
 21
208.45041
 31
0.0
  0
LINE
  8
0
  6
CONTINUOUS
 62
   249
 10
168.588607
 20
208.157839
 30
0.0
 11
168.821049
 21
208.434853
 31
0.0
  0
LINE
  8
0
  6
CONTINUOUS
 62
   249
 10
168.598417
 20
208.153973
 30
0.0
 11
168.821049
 21
208.419296
 31
0.0
  0
LINE
  8
0
  6
CONTINUOUS
 62
   249
 10
168.608228
 20
208.150107
 30
0.0
 11
168.821049
 21
208.403738
 31
0.0
  0
LINE
  8
0
  6
CONTINUOUS
 62
   249
 10
168.618038
 20
208.146241
 30
0.0
 11
168.821049
 21
208.388181
 31
0.0
  0
LINE
  8
0
  6
CONTINUOUS
 62
   249
 10
168.627848
 20
208.142375
 30
0.0
 11
168.821049
 21
208.372624
 31
0.0
  0
LINE
  8
0
  6
CONTINUOUS
 62
   249
 10
168.637658
 20
208.13851
 30
0.0
 11
168.821049
 21
208.357067
 31
0.0
  0
LINE
  8
0
  6
CONTINUOUS
 62
   249
 10
168.647468
 20
208.134644
 30
0.0
 11
168.821049
 21
208.341509
 31
0.0
  0
LINE
  8
0
  6
CONTINUOUS
 62
   249
 10
168.657279
 20
208.130778
 30
0.0
 11
168.821049
 21
208.325952
 31
0.0
  0
LINE
  8
0
  6
CONTINUOUS
 62
   249
 10
168.667089
 20
208.126912
 30
0.0
 11
168.821049
 21
208.310395
 31
0.0
  0
LINE
  8
0
  6
CONTINUOUS
 62
   249
 10
168.676899
 20
208.123046
 30
0.0
 11
168.821049
 21
208.294838
 31
0.0
  0
LINE
  8
0
  6
CONTINUOUS
 62
   249
 10
168.686709
 20
208.11918
 30
0.0
 11
168.821049
 21
208.27928
 31
0.0
  0
LINE
  8
0
  6
CONTINUOUS
 62
   249
 10
168.69652
 20
208.115314
 30
0.0
 11
168.821049
 21
208.263723
 31
0.0
  0
LINE
  8
0
  6
CONTINUOUS
 62
   249
 10
168.70633
 20
208.111449
 30
0.0
 11
168.821049
 21
208.248166
 31
0.0
  0
LINE
  8
0
  6
CONTINUOUS
 62
   249
 10
168.71614
 20
208.107583
 30
0.0
 11
168.821049
 21
208.232609
 31
0.0
  0
LINE
  8
0
  6
CONTINUOUS
 62
   249
 10
168.72595
 20
208.103717
 30
0.0
 11
168.821049
 21
208.217052
 31
0.0
  0
LINE
  8
0
  6
CONTINUOUS
 62
   249
 10
168.735761
 20
208.099851
 30
0.0
 11
168.821049
 21
208.201494
 31
0.0
  0
LINE
  8
0
  6
CONTINUOUS
 62
   249
 10
168.745571
 20
208.095985
 30
0.0
 11
168.821049
 21
208.185937
 31
0.0
  0
LINE
  8
0
  6
CONTINUOUS
 62
   249
 10
168.755381
 20
208.092119
 30
0.0
 11
168.821049
 21
208.17038
 31
0.0
  0
LINE
  8
0
  6
CONTINUOUS
 62
   249
 10
168.765191
 20
208.088253
 30
0.0
 11
168.821049
 21
208.154823
 31
0.0
  0
LINE
  8
0
  6
CONTINUOUS
 62
   249
 10
168.775001
 20
208.084388
 30
0.0
 11
168.821049
 21
208.139265
 31
0.0
  0
LINE
  8
0
  6
CONTINUOUS
 62
   249
 10
168.784812
 20
208.080522
 30
0.0
 11
168.821049
 21
208.123708
 31
0.0
  0
LINE
  8
0
  6
CONTINUOUS
 62
   249
 10
168.794622
 20
208.076656
 30
0.0
 11
168.821049
 21
208.108151
 31
0.0
  0
LINE
  8
0
  6
CONTINUOUS
 62
   249
 10
168.804432
 20
208.07279
 30
0.0
 11
168.821049
 21
208.092594
 31
0.0
  0
LINE
  8
0
  6
CONTINUOUS
 62
   249
 10
168.814242
 20
208.068924
 30
0.0
 11
168.821049
 21
208.077036
 31
0.0
  0
LINE
  8
0
  6
CONTINUOUS
 62
   249
 10
167.976672
 20
208.736133
 30
0.0
 11
168.734257
 21
208.100443
 31
0.0
  0
LINE
  8
0
  6
CONTINUOUS
 62
   249
 10
167.966023
 20
208.732014
 30
0.0
 11
168.704925
 21
208.112002
 31
0.0
  0
LINE
  8
0
  6
CONTINUOUS
 62
   249
 10
167.955375
 20
208.727895
 30
0.0
 11
168.675592
 21
208.123561
 31
0.0
  0
LINE
  8
0
  6
CONTINUOUS
 62
   249
 10
167.944727
 20
208.723776
 30
0.0
 11
168.646259
 21
208.13512
 31
0.0
  0
LINE
  8
0
  6
CONTINUOUS
 62
   249
 10
167.934078
 20
208.719657
 30
0.0
 11
168.616927
 21
208.146679
 31
0.0
  0
LINE
  8
0
  6
CONTINUOUS
 62
   249
 10
167.92343
 20
208.715538
 30
0.0
 11
168.587594
 21
208.158238
 31
0.0
  0
LINE
  8
0
  6
CONTINUOUS
 62
   249
 10
167.912782
 20
208.711419
 30
0.0
 11
168.558261
 21
208.169797
 31
0.0
  0
LINE
  8
0
  6
CONTINUOUS
 62
   249
 10
167.902134
 20
208.707299
 30
0.0
 11
168.528929
 21
208.181356
 31
0.0
  0
LINE
  8
0
  6
CONTINUOUS
 62
   249
 10
167.891485
 20
208.70318
 30
0.0
 11
168.499596
 21
208.192915
 31
0.0
  0
LINE
  8
0
  6
CONTINUOUS
 62
   249
 10
167.880837
 20
208.699061
 30
0.0
 11
168.470263
 21
208.204474
 31
0.0
  0
LINE
  8
0
  6
CONTINUOUS
 62
   249
 10
167.870189
 20
208.694942
 30
0.0
 11
168.440931
 21
208.216033
 31
0.0
  0
LINE
  8
0
  6
CONTINUOUS
 62
   249
 10
167.85954
 20
208.690823
 30
0.0
 11
168.411598
 21
208.227592
 31
0.0
  0
LINE
  8
0
  6
CONTINUOUS
 62
   249
 10
167.848892
 20
208.686704
 30
0.0
 11
168.382265
 21
208.239151
 31
0.0
  0
LINE
  8
0
  6
CONTINUOUS
 62
   249
 10
167.838244
 20
208.682585
 30
0.0
 11
168.352933
 21
208.25071
 31
0.0
  0
LINE
  8
0
  6
CONTINUOUS
 62
   249
 10
167.827596
 20
208.678466
 30
0.0
 11
168.3236
 21
208.262269
 31
0.0
  0
LINE
  8
0
  6
CONTINUOUS
 62
   249
 10
167.816947
 20
208.674347
 30
0.0
 11
168.294267
 21
208.273828
 31
0.0
  0
LINE
  8
0
  6
CONTINUOUS
 62
   249
 10
167.806299
 20
208.670228
 30
0.0
 11
168.264935
 21
208.285386
 31
0.0
  0
LINE
  8
0
  6
CONTINUOUS
 62
   249
 10
167.795651
 20
208.666108
 30
0.0
 11
168.235602
 21
208.296945
 31
0.0
  0
LINE
  8
0
  6
CONTINUOUS
 62
   249
 10
167.785003
 20
208.661989
 30
0.0
 11
168.20627
 21
208.308504
 31
0.0
  0
LINE
  8
0
  6
CONTINUOUS
 62
   249
 10
167.774354
 20
208.65787
 30
0.0
 11
168.176937
 21
208.320063
 31
0.0
  0
LINE
  8
0
  6
CONTINUOUS
 62
   249
 10
167.763706
 20
208.653751
 30
0.0
 11
168.147604
 21
208.331622
 31
0.0
  0
LINE
  8
0
  6
CONTINUOUS
 62
   249
 10
167.753058
 20
208.649632
 30
0.0
 11
168.118272
 21
208.343181
 31
0.0
  0
LINE
  8
0
  6
CONTINUOUS
 62
   249
 10
167.742409
 20
208.645513
 30
0.0
 11
168.088939
 21
208.35474
 31
0.0
  0
LINE
  8
0
  6
CONTINUOUS
 62
   249
 10
167.731761
 20
208.641394
 30
0.0
 11
168.059606
 21
208.366299
 31
0.0
  0
LINE
  8
0
  6
CONTINUOUS
 62
   249
 10
167.721113
 20
208.637275
 30
0.0
 11
168.030274
 21
208.377858
 31
0.0
  0
LINE
  8
0
  6
CONTINUOUS
 62
   249
 10
167.710465
 20
208.633156
 30
0.0
 11
168.000941
 21
208.389417
 31
0.0
  0
LINE
  8
0
  6
CONTINUOUS
 62
   249
 10
167.699816
 20
208.629036
 30
0.0
 11
167.971608
 21
208.400976
 31
0.0
  0
LINE
  8
0
  6
CONTINUOUS
 62
   249
 10
167.689168
 20
208.624917
 30
0.0
 11
167.942276
 21
208.412535
 31
0.0
  0
LINE
  8
0
  6
CONTINUOUS
 62
   249
 10
167.67852
 20
208.620798
 30
0.0
 11
167.912943
 21
208.424094
 31
0.0
  0
LINE
  8
0
  6
CONTINUOUS
 62
   249
 10
167.667872
 20
208.616679
 30
0.0
 11
167.88361
 21
208.435653
 31
0.0
  0
LINE
  8
0
  6
CONTINUOUS
 62
   249
 10
167.657223
 20
208.61256
 30
0.0
 11
167.854278
 21
208.447212
 31
0.0
  0
LINE
  8
0
  6
CONTINUOUS
 62
   249
 10
167.646575
 20
208.608441
 30
0.0
 11
167.824945
 21
208.458771
 31
0.0
  0
LINE
  8
0
  6
CONTINUOUS
 62
   249
 10
167.635927
 20
208.604322
 30
0.0
 11
167.795613
 21
208.470329
 31
0.0
  0
LINE
  8
0
  6
CONTINUOUS
 62
   249
 10
167.625278
 20
208.600203
 30
0.0
 11
167.76628
 21
208.481888
 31
0.0
  0
LINE
  8
0
  6
CONTINUOUS
 62
   249
 10
167.61463
 20
208.596084
 30
0.0
 11
167.736947
 21
208.493447
 31
0.0
  0
LINE
  8
0
  6
CONTINUOUS
 62
   249
 10
167.603982
 20
208.591964
 30
0.0
 11
167.707615
 21
208.505006
 31
0.0
  0
LINE
  8
0
  6
CONTINUOUS
 62
   249
 10
167.593334
 20
208.587845
 30
0.0
 11
167.678282
 21
208.516565
 31
0.0
  0
LINE
  8
0
  6
CONTINUOUS
 62
   249
 10
167.582685
 20
208.583726
 30
0.0
 11
167.648949
 21
208.528124
 31
0.0
  0
LINE
  8
0
  6
CONTINUOUS
 62
   249
 10
167.572037
 20
208.579607
 30
0.0
 11
167.619617
 21
208.539683
 31
0.0
  0
LINE
  8
0
  6
CONTINUOUS
 62
   249
 10
167.561389
 20
208.575488
 30
0.0
 11
167.590284
 21
208.551242
 31
0.0
  0
LINE
  8
0
  6
CONTINUOUS
 62
   249
 10
167.550741
 20
208.571369
 30
0.0
 11
167.560951
 21
208.562801
 31
0.0
  0
LINE
  8
0
  6
CONTINUOUS
 62
   249
 10
167.98732
 20
208.740252
 30
0.0
 11
168.76359
 21
208.088884
 31
0.0
  0
LINE
  8
0
  6
CONTINUOUS
 62
   249
 10
167.997968
 20
208.744371
 30
0.0
 11
168.792922
 21
208.077326
 31
0.0
  0
LINE
  8
0
  6
CONTINUOUS
 62
   249
 10
168.008616
 20
208.748491
 30
0.0
 11
168.821049
 21
208.066778
 31
0.0
  0
LINE
  8
0
  6
CONTINUOUS
 62
   249
 10
168.019265
 20
208.75261
 30
0.0
 11
168.821049
 21
208.079832
 31
0.0
  0
LINE
  8
0
  6
CONTINUOUS
 62
   249
 10
168.029913
 20
208.756729
 30
0.0
 11
168.821049
 21
208.092886
 31
0.0
  0
LINE
  8
0
  6
CONTINUOUS
 62
   249
 10
168.040561
 20
208.760848
 30
0.0
 11
168.821049
 21
208.105941
 31
0.0
  0
LINE
  8
0
  6
CONTINUOUS
 62
   249
 10
168.051209
 20
208.764967
 30
0.0
 11
168.821049
 21
208.118995
 31
0.0
  0
LINE
  8
0
  6
CONTINUOUS
 62
   249
 10
168.061858
 20
208.769086
 30
0.0
 11
168.821049
 21
208.132049
 31
0.0
  0
LINE
  8
0
  6
CONTINUOUS
 62
   249
 10
168.072506
 20
208.773205
 30
0.0
 11
168.821049
 21
208.145103
 31
0.0
  0
LINE
  8
0
  6
CONTINUOUS
 62
   249
 10
168.083154
 20
208.777324
 30
0.0
 11
168.821049
 21
208.158157
 31
0.0
  0
LINE
  8
0
  6
CONTINUOUS
 62
   249
 10
168.093803
 20
208.781443
 30
0.0
 11
168.821049
 21
208.171211
 31
0.0
  0
LINE
  8
0
  6
CONTINUOUS
 62
   249
 10
168.104451
 20
208.785563
 30
0.0
 11
168.821049
 21
208.184265
 31
0.0
  0
LINE
  8
0
  6
CONTINUOUS
 62
   249
 10
168.115099
 20
208.789682
 30
0.0
 11
168.821049
 21
208.197319
 31
0.0
  0
LINE
  8
0
  6
CONTINUOUS
 62
   249
 10
168.125747
 20
208.793801
 30
0.0
 11
168.821049
 21
208.210373
 31
0.0
  0
LINE
  8
0
  6
CONTINUOUS
 62
   249
 10
168.136396
 20
208.79792
 30
0.0
 11
168.821049
 21
208.223427
 31
0.0
  0
LINE
  8
0
  6
CONTINUOUS
 62
   249
 10
168.147044
 20
208.802039
 30
0.0
 11
168.821049
 21
208.236481
 31
0.0
  0
LINE
  8
0
  6
CONTINUOUS
 62
   249
 10
168.157692
 20
208.806158
 30
0.0
 11
168.821049
 21
208.249535
 31
0.0
  0
LINE
  8
0
  6
CONTINUOUS
 62
   249
 10
168.16834
 20
208.810277
 30
0.0
 11
168.821049
 21
208.262589
 31
0.0
  0
LINE
  8
0
  6
CONTINUOUS
 62
   249
 10
168.178989
 20
208.814396
 30
0.0
 11
168.821049
 21
208.275643
 31
0.0
  0
LINE
  8
0
  6
CONTINUOUS
 62
   249
 10
168.189637
 20
208.818515
 30
0.0
 11
168.821049
 21
208.288698
 31
0.0
  0
LINE
  8
0
  6
CONTINUOUS
 62
   249
 10
168.200285
 20
208.822635
 30
0.0
 11
168.821049
 21
208.301752
 31
0.0
  0
LINE
  8
0
  6
CONTINUOUS
 62
   249
 10
168.210934
 20
208.826754
 30
0.0
 11
168.821049
 21
208.314806
 31
0.0
  0
LINE
  8
0
  6
CONTINUOUS
 62
   249
 10
168.221582
 20
208.830873
 30
0.0
 11
168.821049
 21
208.32786
 31
0.0
  0
LINE
  8
0
  6
CONTINUOUS
 62
   249
 10
168.23223
 20
208.834992
 30
0.0
 11
168.821049
 21
208.340914
 31
0.0
  0
LINE
  8
0
  6
CONTINUOUS
 62
   249
 10
168.242878
 20
208.839111
 30
0.0
 11
168.821049
 21
208.353968
 31
0.0
  0
LINE
  8
0
  6
CONTINUOUS
 62
   249
 10
168.253527
 20
208.84323
 30
0.0
 11
168.821049
 21
208.367022
 31
0.0
  0
LINE
  8
0
  6
CONTINUOUS
 62
   249
 10
168.264175
 20
208.847349
 30
0.0
 11
168.821049
 21
208.380076
 31
0.0
  0
LINE
  8
0
  6
CONTINUOUS
 62
   249
 10
168.274823
 20
208.851468
 30
0.0
 11
168.821049
 21
208.39313
 31
0.0
  0
LINE
  8
0
  6
CONTINUOUS
 62
   249
 10
168.285471
 20
208.855587
 30
0.0
 11
168.821049
 21
208.406184
 31
0.0
  0
LINE
  8
0
  6
CONTINUOUS
 62
   249
 10
168.29612
 20
208.859707
 30
0.0
 11
168.821049
 21
208.419238
 31
0.0
  0
LINE
  8
0
  6
CONTINUOUS
 62
   249
 10
168.306768
 20
208.863826
 30
0.0
 11
168.821049
 21
208.432292
 31
0.0
  0
LINE
  8
0
  6
CONTINUOUS
 62
   249
 10
168.317416
 20
208.867945
 30
0.0
 11
168.821049
 21
208.445346
 31
0.0
  0
LINE
  8
0
  6
CONTINUOUS
 62
   249
 10
168.328065
 20
208.872064
 30
0.0
 11
168.821049
 21
208.4584
 31
0.0
  0
LINE
  8
0
  6
CONTINUOUS
 62
   249
 10
168.338713
 20
208.876183
 30
0.0
 11
168.821049
 21
208.471455
 31
0.0
  0
LINE
  8
0
  6
CONTINUOUS
 62
   249
 10
168.349361
 20
208.880302
 30
0.0
 11
168.821049
 21
208.484509
 31
0.0
  0
LINE
  8
0
  6
CONTINUOUS
 62
   249
 10
168.360009
 20
208.884421
 30
0.0
 11
168.821049
 21
208.497563
 31
0.0
  0
LINE
  8
0
  6
CONTINUOUS
 62
   249
 10
168.370658
 20
208.88854
 30
0.0
 11
168.821049
 21
208.510617
 31
0.0
  0
LINE
  8
0
  6
CONTINUOUS
 62
   249
 10
168.381306
 20
208.892659
 30
0.0
 11
168.821049
 21
208.523671
 31
0.0
  0
LINE
  8
0
  6
CONTINUOUS
 62
   249
 10
168.391954
 20
208.896779
 30
0.0
 11
168.821049
 21
208.536725
 31
0.0
  0
LINE
  8
0
  6
CONTINUOUS
 62
   249
 10
168.402603
 20
208.900898
 30
0.0
 11
168.821049
 21
208.549779
 31
0.0
  0
LINE
  8
0
  6
CONTINUOUS
 62
   249
 10
168.413251
 20
208.905017
 30
0.0
 11
168.821049
 21
208.562833
 31
0.0
  0
LINE
  8
0
  6
CONTINUOUS
 62
   249
 10
168.423899
 20
208.909136
 30
0.0
 11
168.821049
 21
208.575887
 31
0.0
  0
LINE
  8
0
  6
CONTINUOUS
 62
   249
 10
168.434547
 20
208.913255
 30
0.0
 11
168.821049
 21
208.588941
 31
0.0
  0
LINE
  8
0
  6
CONTINUOUS
 62
   249
 10
168.445196
 20
208.917374
 30
0.0
 11
168.821049
 21
208.601995
 31
0.0
  0
LINE
  8
0
  6
CONTINUOUS
 62
   249
 10
168.455844
 20
208.921493
 30
0.0
 11
168.821049
 21
208.615049
 31
0.0
  0
LINE
  8
0
  6
CONTINUOUS
 62
   249
 10
168.466492
 20
208.925612
 30
0.0
 11
168.821049
 21
208.628103
 31
0.0
  0
LINE
  8
0
  6
CONTINUOUS
 62
   249
 10
168.47714
 20
208.929731
 30
0.0
 11
168.821049
 21
208.641157
 31
0.0
  0
LINE
  8
0
  6
CONTINUOUS
 62
   249
 10
168.487789
 20
208.93385
 30
0.0
 11
168.821049
 21
208.654212
 31
0.0
  0
LINE
  8
0
  6
CONTINUOUS
 62
   249
 10
168.498437
 20
208.93797
 30
0.0
 11
168.821049
 21
208.667266
 31
0.0
  0
LINE
  8
0
  6
CONTINUOUS
 62
   249
 10
168.509085
 20
208.942089
 30
0.0
 11
168.821049
 21
208.68032
 31
0.0
  0
LINE
  8
0
  6
CONTINUOUS
 62
   249
 10
168.519734
 20
208.946208
 30
0.0
 11
168.821049
 21
208.693374
 31
0.0
  0
LINE
  8
0
  6
CONTINUOUS
 62
   249
 10
168.530382
 20
208.950327
 30
0.0
 11
168.821049
 21
208.706428
 31
0.0
  0
LINE
  8
0
  6
CONTINUOUS
 62
   249
 10
168.54103
 20
208.954446
 30
0.0
 11
168.821049
 21
208.719482
 31
0.0
  0
LINE
  8
0
  6
CONTINUOUS
 62
   249
 10
168.551678
 20
208.958565
 30
0.0
 11
168.821049
 21
208.732536
 31
0.0
  0
LINE
  8
0
  6
CONTINUOUS
 62
   249
 10
168.562327
 20
208.962684
 30
0.0
 11
168.821049
 21
208.74559
 31
0.0
  0
LINE
  8
0
  6
CONTINUOUS
 62
   249
 10
168.572975
 20
208.966803
 30
0.0
 11
168.821049
 21
208.758644
 31
0.0
  0
LINE
  8
0
  6
CONTINUOUS
 62
   249
 10
168.583623
 20
208.970922
 30
0.0
 11
168.821049
 21
208.771698
 31
0.0
  0
LINE
  8
0
  6
CONTINUOUS
 62
   249
 10
168.594271
 20
208.975042
 30
0.0
 11
168.821049
 21
208.784752
 31
0.0
  0
LINE
  8
0
  6
CONTINUOUS
 62
   249
 10
168.60492
 20
208.979161
 30
0.0
 11
168.821049
 21
208.797806
 31
0.0
  0
LINE
  8
0
  6
CONTINUOUS
 62
   249
 10
168.615568
 20
208.98328
 30
0.0
 11
168.821049
 21
208.81086
 31
0.0
  0
LINE
  8
0
  6
CONTINUOUS
 62
   249
 10
168.626216
 20
208.987399
 30
0.0
 11
168.821049
 21
208.823915
 31
0.0
  0
LINE
  8
0
  6
CONTINUOUS
 62
   249
 10
168.636865
 20
208.991518
 30
0.0
 11
168.821049
 21
208.836969
 31
0.0
  0
LINE
  8
0
  6
CONTINUOUS
 62
   249
 10
168.647513
 20
208.995637
 30
0.0
 11
168.821049
 21
208.850023
 31
0.0
  0
LINE
  8
0
  6
CONTINUOUS
 62
   249
 10
168.658161
 20
208.999756
 30
0.0
 11
168.821049
 21
208.863077
 31
0.0
  0
LINE
  8
0
  6
CONTINUOUS
 62
   249
 10
168.668809
 20
209.003875
 30
0.0
 11
168.821049
 21
208.876131
 31
0.0
  0
LINE
  8
0
  6
CONTINUOUS
 62
   249
 10
168.679458
 20
209.007994
 30
0.0
 11
168.821049
 21
208.889185
 31
0.0
  0
LINE
  8
0
  6
CONTINUOUS
 62
   249
 10
168.690106
 20
209.012114
 30
0.0
 11
168.821049
 21
208.902239
 31
0.0
  0
LINE
  8
0
  6
CONTINUOUS
 62
   249
 10
168.700754
 20
209.016233
 30
0.0
 11
168.821049
 21
208.915293
 31
0.0
  0
LINE
  8
0
  6
CONTINUOUS
 62
   249
 10
168.711403
 20
209.020352
 30
0.0
 11
168.821049
 21
208.928347
 31
0.0
  0
LINE
  8
0
  6
CONTINUOUS
 62
   249
 10
168.722051
 20
209.024471
 30
0.0
 11
168.821049
 21
208.941401
 31
0.0
  0
LINE
  8
0
  6
CONTINUOUS
 62
   249
 10
168.732699
 20
209.02859
 30
0.0
 11
168.821049
 21
208.954455
 31
0.0
  0
LINE
  8
0
  6
CONTINUOUS
 62
   249
 10
168.743347
 20
209.032709
 30
0.0
 11
168.821049
 21
208.967509
 31
0.0
  0
LINE
  8
0
  6
CONTINUOUS
 62
   249
 10
168.753996
 20
209.036828
 30
0.0
 11
168.821049
 21
208.980563
 31
0.0
  0
LINE
  8
0
  6
CONTINUOUS
 62
   249
 10
168.764644
 20
209.040947
 30
0.0
 11
168.821049
 21
208.993617
 31
0.0
  0
LINE
  8
0
  6
CONTINUOUS
 62
   249
 10
168.775292
 20
209.045066
 30
0.0
 11
168.821049
 21
209.006672
 31
0.0
  0
LINE
  8
0
  6
CONTINUOUS
 62
   249
 10
168.78594
 20
209.049186
 30
0.0
 11
168.821049
 21
209.019726
 31
0.0
  0
LINE
  8
0
  6
CONTINUOUS
 62
   249
 10
168.796589
 20
209.053305
 30
0.0
 11
168.821049
 21
209.03278
 31
0.0
  0
LINE
  8
0
  6
CONTINUOUS
 62
   249
 10
168.807237
 20
209.057424
 30
0.0
 11
168.821049
 21
209.045834
 31
0.0
  0
LINE
  8
0
  6
CONTINUOUS
 62
   249
 10
168.817885
 20
209.061543
 30
0.0
 11
168.821049
 21
209.058888
 31
0.0
  0
LINE
  8
0
  6
CONTINUOUS
 62
   249
 10
190.118063
 20
208.382059
 30
0.0
 11
190.578588
 21
208.930891
 31
0.0
  0
LINE
  8
0
  6
CONTINUOUS
 62
   249
 10
190.108252
 20
208.385925
 30
0.0
 11
190.55926
 21
208.923415
 31
0.0
  0
LINE
  8
0
  6
CONTINUOUS
 62
   249
 10
190.098442
 20
208.38979
 30
0.0
 11
190.539933
 21
208.915938
 31
0.0
  0
LINE
  8
0
  6
CONTINUOUS
 62
   249
 10
190.088632
 20
208.393656
 30
0.0
 11
190.520605
 21
208.908461
 31
0.0
  0
LINE
  8
0
  6
CONTINUOUS
 62
   249
 10
190.078822
 20
208.397522
 30
0.0
 11
190.501277
 21
208.900985
 31
0.0
  0
LINE
  8
0
  6
CONTINUOUS
 62
   249
 10
190.069012
 20
208.401388
 30
0.0
 11
190.48195
 21
208.893508
 31
0.0
  0
LINE
  8
0
  6
CONTINUOUS
 62
   249
 10
190.059201
 20
208.405254
 30
0.0
 11
190.462622
 21
208.886032
 31
0.0
  0
LINE
  8
0
  6
CONTINUOUS
 62
   249
 10
190.049391
 20
208.40912
 30
0.0
 11
190.443294
 21
208.878555
 31
0.0
  0
LINE
  8
0
  6
CONTINUOUS
 62
   249
 10
190.039581
 20
208.412986
 30
0.0
 11
190.423966
 21
208.871079
 31
0.0
  0
LINE
  8
0
  6
CONTINUOUS
 62
   249
 10
190.029771
 20
208.416851
 30
0.0
 11
190.404639
 21
208.863602
 31
0.0
  0
LINE
  8
0
  6
CONTINUOUS
 62
   249
 10
190.01996
 20
208.420717
 30
0.0
 11
190.385311
 21
208.856125
 31
0.0
  0
LINE
  8
0
  6
CONTINUOUS
 62
   249
 10
190.01015
 20
208.424583
 30
0.0
 11
190.365983
 21
208.848649
 31
0.0
  0
LINE
  8
0
  6
CONTINUOUS
 62
   249
 10
190.00034
 20
208.428449
 30
0.0
 11
190.346656
 21
208.841172
 31
0.0
  0
LINE
  8
0
  6
CONTINUOUS
 62
   249
 10
189.99053
 20
208.432315
 30
0.0
 11
190.327328
 21
208.833696
 31
0.0
  0
LINE
  8
0
  6
CONTINUOUS
 62
   249
 10
189.980719
 20
208.436181
 30
0.0
 11
190.308
 21
208.826219
 31
0.0
  0
LINE
  8
0
  6
CONTINUOUS
 62
   249
 10
189.970909
 20
208.440047
 30
0.0
 11
190.288673
 21
208.818742
 31
0.0
  0
LINE
  8
0
  6
CONTINUOUS
 62
   249
 10
189.961099
 20
208.443912
 30
0.0
 11
190.269345
 21
208.811266
 31
0.0
  0
LINE
  8
0
  6
CONTINUOUS
 62
   249
 10
189.951289
 20
208.447778
 30
0.0
 11
190.250017
 21
208.803789
 31
0.0
  0
LINE
  8
0
  6
CONTINUOUS
 62
   249
 10
189.941479
 20
208.451644
 30
0.0
 11
190.23069
 21
208.796313
 31
0.0
  0
LINE
  8
0
  6
CONTINUOUS
 62
   249
 10
189.931668
 20
208.45551
 30
0.0
 11
190.211362
 21
208.788836
 31
0.0
  0
LINE
  8
0
  6
CONTINUOUS
 62
   249
 10
189.921858
 20
208.459376
 30
0.0
 11
190.192034
 21
208.781359
 31
0.0
  0
LINE
  8
0
  6
CONTINUOUS
 62
   249
 10
189.912048
 20
208.463242
 30
0.0
 11
190.172707
 21
208.773883
 31
0.0
  0
LINE
  8
0
  6
CONTINUOUS
 62
   249
 10
189.902238
 20
208.467108
 30
0.0
 11
190.153379
 21
208.766406
 31
0.0
  0
LINE
  8
0
  6
CONTINUOUS
 62
   249
 10
189.892427
 20
208.470973
 30
0.0
 11
190.134051
 21
208.75893
 31
0.0
  0
LINE
  8
0
  6
CONTINUOUS
 62
   249
 10
189.882617
 20
208.474839
 30
0.0
 11
190.114724
 21
208.751453
 31
0.0
  0
LINE
  8
0
  6
CONTINUOUS
 62
   249
 10
189.872807
 20
208.478705
 30
0.0
 11
190.095396
 21
208.743976
 31
0.0
  0
LINE
  8
0
  6
CONTINUOUS
 62
   249
 10
189.862997
 20
208.482571
 30
0.0
 11
190.076068
 21
208.7365
 31
0.0
  0
LINE
  8
0
  6
CONTINUOUS
 62
   249
 10
189.853186
 20
208.486437
 30
0.0
 11
190.056741
 21
208.729023
 31
0.0
  0
LINE
  8
0
  6
CONTINUOUS
 62
   249
 10
189.843376
 20
208.490303
 30
0.0
 11
190.037413
 21
208.721547
 31
0.0
  0
LINE
  8
0
  6
CONTINUOUS
 62
   249
 10
189.833566
 20
208.494169
 30
0.0
 11
190.018085
 21
208.71407
 31
0.0
  0
LINE
  8
0
  6
CONTINUOUS
 62
   249
 10
189.823756
 20
208.498034
 30
0.0
 11
189.998758
 21
208.706593
 31
0.0
  0
LINE
  8
0
  6
CONTINUOUS
 62
   249
 10
189.813946
 20
208.5019
 30
0.0
 11
189.97943
 21
208.699117
 31
0.0
  0
LINE
  8
0
  6
CONTINUOUS
 62
   249
 10
189.804135
 20
208.505766
 30
0.0
 11
189.960102
 21
208.69164
 31
0.0
  0
LINE
  8
0
  6
CONTINUOUS
 62
   249
 10
189.794325
 20
208.509632
 30
0.0
 11
189.940775
 21
208.684164
 31
0.0
  0
LINE
  8
0
  6
CONTINUOUS
 62
   249
 10
189.784515
 20
208.513498
 30
0.0
 11
189.921447
 21
208.676687
 31
0.0
  0
LINE
  8
0
  6
CONTINUOUS
 62
   249
 10
189.774705
 20
208.517364
 30
0.0
 11
189.902119
 21
208.669211
 31
0.0
  0
LINE
  8
0
  6
CONTINUOUS
 62
   249
 10
189.764894
 20
208.52123
 30
0.0
 11
189.882791
 21
208.661734
 31
0.0
  0
LINE
  8
0
  6
CONTINUOUS
 62
   249
 10
189.755084
 20
208.525095
 30
0.0
 11
189.863464
 21
208.654257
 31
0.0
  0
LINE
  8
0
  6
CONTINUOUS
 62
   249
 10
189.745274
 20
208.528961
 30
0.0
 11
189.844136
 21
208.646781
 31
0.0
  0
LINE
  8
0
  6
CONTINUOUS
 62
   249
 10
189.735464
 20
208.532827
 30
0.0
 11
189.824808
 21
208.639304
 31
0.0
  0
LINE
  8
0
  6
CONTINUOUS
 62
   249
 10
189.725653
 20
208.536693
 30
0.0
 11
189.805481
 21
208.631828
 31
0.0
  0
LINE
  8
0
  6
CONTINUOUS
 62
   249
 10
189.715843
 20
208.540559
 30
0.0
 11
189.786153
 21
208.624351
 31
0.0
  0
LINE
  8
0
  6
CONTINUOUS
 62
   249
 10
189.706033
 20
208.544425
 30
0.0
 11
189.766825
 21
208.616874
 31
0.0
  0
LINE
  8
0
  6
CONTINUOUS
 62
   249
 10
189.696223
 20
208.548291
 30
0.0
 11
189.747498
 21
208.609398
 31
0.0
  0
LINE
  8
0
  6
CONTINUOUS
 62
   249
 10
189.686413
 20
208.552156
 30
0.0
 11
189.72817
 21
208.601921
 31
0.0
  0
LINE
  8
0
  6
CONTINUOUS
 62
   249
 10
189.676602
 20
208.556022
 30
0.0
 11
189.708842
 21
208.594445
 31
0.0
  0
LINE
  8
0
  6
CONTINUOUS
 62
   249
 10
189.666792
 20
208.559888
 30
0.0
 11
189.689515
 21
208.586968
 31
0.0
  0
LINE
  8
0
  6
CONTINUOUS
 62
   249
 10
189.656982
 20
208.563754
 30
0.0
 11
189.670187
 21
208.579491
 31
0.0
  0
LINE
  8
0
  6
CONTINUOUS
 62
   249
 10
189.647172
 20
208.56762
 30
0.0
 11
189.650859
 21
208.572015
 31
0.0
  0
LINE
  8
0
  6
CONTINUOUS
 62
   249
 10
190.127873
 20
208.378193
 30
0.0
 11
190.597916
 21
208.938368
 31
0.0
  0
LINE
  8
0
  6
CONTINUOUS
 62
   249
 10
190.137683
 20
208.374327
 30
0.0
 11
190.617243
 21
208.945844
 31
0.0
  0
LINE
  8
0
  6
CONTINUOUS
 62
   249
 10
190.147493
 20
208.370461
 30
0.0
 11
190.636571
 21
208.953321
 31
0.0
  0
LINE
  8
0
  6
CONTINUOUS
 62
   249
 10
190.157304
 20
208.366595
 30
0.0
 11
190.655899
 21
208.960798
 31
0.0
  0
LINE
  8
0
  6
CONTINUOUS
 62
   249
 10
190.167114
 20
208.362729
 30
0.0
 11
190.675226
 21
208.968274
 31
0.0
  0
LINE
  8
0
  6
CONTINUOUS
 62
   249
 10
190.176924
 20
208.358864
 30
0.0
 11
190.694554
 21
208.975751
 31
0.0
  0
LINE
  8
0
  6
CONTINUOUS
 62
   249
 10
190.186734
 20
208.354998
 30
0.0
 11
190.713882
 21
208.983227
 31
0.0
  0
LINE
  8
0
  6
CONTINUOUS
 62
   249
 10
190.196545
 20
208.351132
 30
0.0
 11
190.733209
 21
208.990704
 31
0.0
  0
LINE
  8
0
  6
CONTINUOUS
 62
   249
 10
190.206355
 20
208.347266
 30
0.0
 11
190.752537
 21
208.998181
 31
0.0
  0
LINE
  8
0
  6
CONTINUOUS
 62
   249
 10
190.216165
 20
208.3434
 30
0.0
 11
190.771865
 21
209.005657
 31
0.0
  0
LINE
  8
0
  6
CONTINUOUS
 62
   249
 10
190.225975
 20
208.339534
 30
0.0
 11
190.791192
 21
209.013134
 31
0.0
  0
LINE
  8
0
  6
CONTINUOUS
 62
   249
 10
190.235785
 20
208.335668
 30
0.0
 11
190.81052
 21
209.02061
 31
0.0
  0
LINE
  8
0
  6
CONTINUOUS
 62
   249
 10
190.245596
 20
208.331803
 30
0.0
 11
190.829848
 21
209.028087
 31
0.0
  0
LINE
  8
0
  6
CONTINUOUS
 62
   249
 10
190.255406
 20
208.327937
 30
0.0
 11
190.849175
 21
209.035564
 31
0.0
  0
LINE
  8
0
  6
CONTINUOUS
 62
   249
 10
190.265216
 20
208.324071
 30
0.0
 11
190.868503
 21
209.04304
 31
0.0
  0
LINE
  8
0
  6
CONTINUOUS
 62
   249
 10
190.275026
 20
208.320205
 30
0.0
 11
190.887831
 21
209.050517
 31
0.0
  0
LINE
  8
0
  6
CONTINUOUS
 62
   249
 10
190.284837
 20
208.316339
 30
0.0
 11
190.907158
 21
209.057993
 31
0.0
  0
LINE
  8
0
  6
CONTINUOUS
 62
   249
 10
190.294647
 20
208.312473
 30
0.0
 11
190.919499
 21
209.057142
 31
0.0
  0
LINE
  8
0
  6
CONTINUOUS
 62
   249
 10
190.304457
 20
208.308607
 30
0.0
 11
190.919499
 21
209.041585
 31
0.0
  0
LINE
  8
0
  6
CONTINUOUS
 62
   249
 10
190.314267
 20
208.304742
 30
0.0
 11
190.919499
 21
209.026028
 31
0.0
  0
LINE
  8
0
  6
CONTINUOUS
 62
   249
 10
190.324078
 20
208.300876
 30
0.0
 11
190.919499
 21
209.010471
 31
0.0
  0
LINE
  8
0
  6
CONTINUOUS
 62
   249
 10
190.333888
 20
208.29701
 30
0.0
 11
190.919499
 21
208.994913
 31
0.0
  0
LINE
  8
0
  6
CONTINUOUS
 62
   249
 10
190.343698
 20
208.293144
 30
0.0
 11
190.919499
 21
208.979356
 31
0.0
  0
LINE
  8
0
  6
CONTINUOUS
 62
   249
 10
190.353508
 20
208.289278
 30
0.0
 11
190.919499
 21
208.963799
 31
0.0
  0
LINE
  8
0
  6
CONTINUOUS
 62
   249
 10
190.363319
 20
208.285412
 30
0.0
 11
190.919499
 21
208.948242
 31
0.0
  0
LINE
  8
0
  6
CONTINUOUS
 62
   249
 10
190.373129
 20
208.281546
 30
0.0
 11
190.919499
 21
208.932684
 31
0.0
  0
LINE
  8
0
  6
CONTINUOUS
 62
   249
 10
190.382939
 20
208.27768
 30
0.0
 11
190.919499
 21
208.917127
 31
0.0
  0
LINE
  8
0
  6
CONTINUOUS
 62
   249
 10
190.392749
 20
208.273815
 30
0.0
 11
190.919499
 21
208.90157
 31
0.0
  0
LINE
  8
0
  6
CONTINUOUS
 62
   249
 10
190.402559
 20
208.269949
 30
0.0
 11
190.919499
 21
208.886013
 31
0.0
  0
LINE
  8
0
  6
CONTINUOUS
 62
   249
 10
190.41237
 20
208.266083
 30
0.0
 11
190.919499
 21
208.870456
 31
0.0
  0
LINE
  8
0
  6
CONTINUOUS
 62
   249
 10
190.42218
 20
208.262217
 30
0.0
 11
190.919499
 21
208.854898
 31
0.0
  0
LINE
  8
0
  6
CONTINUOUS
 62
   249
 10
190.43199
 20
208.258351
 30
0.0
 11
190.919499
 21
208.839341
 31
0.0
  0
LINE
  8
0
  6
CONTINUOUS
 62
   249
 10
190.4418
 20
208.254485
 30
0.0
 11
190.919499
 21
208.823784
 31
0.0
  0
LINE
  8
0
  6
CONTINUOUS
 62
   249
 10
190.451611
 20
208.250619
 30
0.0
 11
190.919499
 21
208.808227
 31
0.0
  0
LINE
  8
0
  6
CONTINUOUS
 62
   249
 10
190.461421
 20
208.246754
 30
0.0
 11
190.919499
 21
208.792669
 31
0.0
  0
LINE
  8
0
  6
CONTINUOUS
 62
   249
 10
190.471231
 20
208.242888
 30
0.0
 11
190.919499
 21
208.777112
 31
0.0
  0
LINE
  8
0
  6
CONTINUOUS
 62
   249
 10
190.481041
 20
208.239022
 30
0.0
 11
190.919499
 21
208.761555
 31
0.0
  0
LINE
  8
0
  6
CONTINUOUS
 62
   249
 10
190.490852
 20
208.235156
 30
0.0
 11
190.919499
 21
208.745998
 31
0.0
  0
LINE
  8
0
  6
CONTINUOUS
 62
   249
 10
190.500662
 20
208.23129
 30
0.0
 11
190.919499
 21
208.73044
 31
0.0
  0
LINE
  8
0
  6
CONTINUOUS
 62
   249
 10
190.510472
 20
208.227424
 30
0.0
 11
190.919499
 21
208.714883
 31
0.0
  0
LINE
  8
0
  6
CONTINUOUS
 62
   249
 10
190.520282
 20
208.223558
 30
0.0
 11
190.919499
 21
208.699326
 31
0.0
  0
LINE
  8
0
  6
CONTINUOUS
 62
   249
 10
190.530092
 20
208.219693
 30
0.0
 11
190.919499
 21
208.683769
 31
0.0
  0
LINE
  8
0
  6
CONTINUOUS
 62
   249
 10
190.539903
 20
208.215827
 30
0.0
 11
190.919499
 21
208.668211
 31
0.0
  0
LINE
  8
0
  6
CONTINUOUS
 62
   249
 10
190.549713
 20
208.211961
 30
0.0
 11
190.919499
 21
208.652654
 31
0.0
  0
LINE
  8
0
  6
CONTINUOUS
 62
   249
 10
190.559523
 20
208.208095
 30
0.0
 11
190.919499
 21
208.637097
 31
0.0
  0
LINE
  8
0
  6
CONTINUOUS
 62
   249
 10
190.569333
 20
208.204229
 30
0.0
 11
190.919499
 21
208.62154
 31
0.0
  0
LINE
  8
0
  6
CONTINUOUS
 62
   249
 10
190.579144
 20
208.200363
 30
0.0
 11
190.919499
 21
208.605982
 31
0.0
  0
LINE
  8
0
  6
CONTINUOUS
 62
   249
 10
190.588954
 20
208.196497
 30
0.0
 11
190.919499
 21
208.590425
 31
0.0
  0
LINE
  8
0
  6
CONTINUOUS
 62
   249
 10
190.598764
 20
208.192632
 30
0.0
 11
190.919499
 21
208.574868
 31
0.0
  0
LINE
  8
0
  6
CONTINUOUS
 62
   249
 10
190.608574
 20
208.188766
 30
0.0
 11
190.919499
 21
208.559311
 31
0.0
  0
LINE
  8
0
  6
CONTINUOUS
 62
   249
 10
190.618385
 20
208.1849
 30
0.0
 11
190.919499
 21
208.543754
 31
0.0
  0
LINE
  8
0
  6
CONTINUOUS
 62
   249
 10
190.628195
 20
208.181034
 30
0.0
 11
190.919499
 21
208.528196
 31
0.0
  0
LINE
  8
0
  6
CONTINUOUS
 62
   249
 10
190.638005
 20
208.177168
 30
0.0
 11
190.919499
 21
208.512639
 31
0.0
  0
LINE
  8
0
  6
CONTINUOUS
 62
   249
 10
190.647815
 20
208.173302
 30
0.0
 11
190.919499
 21
208.497082
 31
0.0
  0
LINE
  8
0
  6
CONTINUOUS
 62
   249
 10
190.657625
 20
208.169436
 30
0.0
 11
190.919499
 21
208.481525
 31
0.0
  0
LINE
  8
0
  6
CONTINUOUS
 62
   249
 10
190.667436
 20
208.165571
 30
0.0
 11
190.919499
 21
208.465967
 31
0.0
  0
LINE
  8
0
  6
CONTINUOUS
 62
   249
 10
190.677246
 20
208.161705
 30
0.0
 11
190.919499
 21
208.45041
 31
0.0
  0
LINE
  8
0
  6
CONTINUOUS
 62
   249
 10
190.687056
 20
208.157839
 30
0.0
 11
190.919499
 21
208.434853
 31
0.0
  0
LINE
  8
0
  6
CONTINUOUS
 62
   249
 10
190.696866
 20
208.153973
 30
0.0
 11
190.919499
 21
208.419296
 31
0.0
  0
LINE
  8
0
  6
CONTINUOUS
 62
   249
 10
190.706677
 20
208.150107
 30
0.0
 11
190.919499
 21
208.403738
 31
0.0
  0
LINE
  8
0
  6
CONTINUOUS
 62
   249
 10
190.716487
 20
208.146241
 30
0.0
 11
190.919499
 21
208.388181
 31
0.0
  0
LINE
  8
0
  6
CONTINUOUS
 62
   249
 10
190.726297
 20
208.142375
 30
0.0
 11
190.919499
 21
208.372624
 31
0.0
  0
LINE
  8
0
  6
CONTINUOUS
 62
   249
 10
190.736107
 20
208.13851
 30
0.0
 11
190.919499
 21
208.357067
 31
0.0
  0
LINE
  8
0
  6
CONTINUOUS
 62
   249
 10
190.745918
 20
208.134644
 30
0.0
 11
190.919499
 21
208.341509
 31
0.0
  0
LINE
  8
0
  6
CONTINUOUS
 62
   249
 10
190.755728
 20
208.130778
 30
0.0
 11
190.919499
 21
208.325952
 31
0.0
  0
LINE
  8
0
  6
CONTINUOUS
 62
   249
 10
190.765538
 20
208.126912
 30
0.0
 11
190.919499
 21
208.310395
 31
0.0
  0
LINE
  8
0
  6
CONTINUOUS
 62
   249
 10
190.775348
 20
208.123046
 30
0.0
 11
190.919499
 21
208.294838
 31
0.0
  0
LINE
  8
0
  6
CONTINUOUS
 62
   249
 10
190.785158
 20
208.11918
 30
0.0
 11
190.919499
 21
208.27928
 31
0.0
  0
LINE
  8
0
  6
CONTINUOUS
 62
   249
 10
190.794969
 20
208.115314
 30
0.0
 11
190.919499
 21
208.263723
 31
0.0
  0
LINE
  8
0
  6
CONTINUOUS
 62
   249
 10
190.804779
 20
208.111449
 30
0.0
 11
190.919499
 21
208.248166
 31
0.0
  0
LINE
  8
0
  6
CONTINUOUS
 62
   249
 10
190.814589
 20
208.107583
 30
0.0
 11
190.919499
 21
208.232609
 31
0.0
  0
LINE
  8
0
  6
CONTINUOUS
 62
   249
 10
190.824399
 20
208.103717
 30
0.0
 11
190.919499
 21
208.217052
 31
0.0
  0
LINE
  8
0
  6
CONTINUOUS
 62
   249
 10
190.83421
 20
208.099851
 30
0.0
 11
190.919499
 21
208.201494
 31
0.0
  0
LINE
  8
0
  6
CONTINUOUS
 62
   249
 10
190.84402
 20
208.095985
 30
0.0
 11
190.919499
 21
208.185937
 31
0.0
  0
LINE
  8
0
  6
CONTINUOUS
 62
   249
 10
190.85383
 20
208.092119
 30
0.0
 11
190.919499
 21
208.17038
 31
0.0
  0
LINE
  8
0
  6
CONTINUOUS
 62
   249
 10
190.86364
 20
208.088253
 30
0.0
 11
190.919499
 21
208.154823
 31
0.0
  0
LINE
  8
0
  6
CONTINUOUS
 62
   249
 10
190.873451
 20
208.084388
 30
0.0
 11
190.919499
 21
208.139265
 31
0.0
  0
LINE
  8
0
  6
CONTINUOUS
 62
   249
 10
190.883261
 20
208.080522
 30
0.0
 11
190.919499
 21
208.123708
 31
0.0
  0
LINE
  8
0
  6
CONTINUOUS
 62
   249
 10
190.893071
 20
208.076656
 30
0.0
 11
190.919499
 21
208.108151
 31
0.0
  0
LINE
  8
0
  6
CONTINUOUS
 62
   249
 10
190.902881
 20
208.07279
 30
0.0
 11
190.919499
 21
208.092594
 31
0.0
  0
LINE
  8
0
  6
CONTINUOUS
 62
   249
 10
190.912691
 20
208.068924
 30
0.0
 11
190.919499
 21
208.077036
 31
0.0
  0
LINE
  8
0
  6
CONTINUOUS
 62
   249
 10
190.075121
 20
208.736133
 30
0.0
 11
190.832706
 21
208.100443
 31
0.0
  0
LINE
  8
0
  6
CONTINUOUS
 62
   249
 10
190.064472
 20
208.732014
 30
0.0
 11
190.803374
 21
208.112002
 31
0.0
  0
LINE
  8
0
  6
CONTINUOUS
 62
   249
 10
190.053824
 20
208.727895
 30
0.0
 11
190.774041
 21
208.123561
 31
0.0
  0
LINE
  8
0
  6
CONTINUOUS
 62
   249
 10
190.043176
 20
208.723776
 30
0.0
 11
190.744708
 21
208.13512
 31
0.0
  0
LINE
  8
0
  6
CONTINUOUS
 62
   249
 10
190.032527
 20
208.719657
 30
0.0
 11
190.715376
 21
208.146679
 31
0.0
  0
LINE
  8
0
  6
CONTINUOUS
 62
   249
 10
190.021879
 20
208.715538
 30
0.0
 11
190.686043
 21
208.158238
 31
0.0
  0
LINE
  8
0
  6
CONTINUOUS
 62
   249
 10
190.011231
 20
208.711419
 30
0.0
 11
190.65671
 21
208.169797
 31
0.0
  0
LINE
  8
0
  6
CONTINUOUS
 62
   249
 10
190.000583
 20
208.707299
 30
0.0
 11
190.627378
 21
208.181356
 31
0.0
  0
LINE
  8
0
  6
CONTINUOUS
 62
   249
 10
189.989934
 20
208.70318
 30
0.0
 11
190.598045
 21
208.192915
 31
0.0
  0
LINE
  8
0
  6
CONTINUOUS
 62
   249
 10
189.979286
 20
208.699061
 30
0.0
 11
190.568712
 21
208.204474
 31
0.0
  0
LINE
  8
0
  6
CONTINUOUS
 62
   249
 10
189.968638
 20
208.694942
 30
0.0
 11
190.53938
 21
208.216033
 31
0.0
  0
LINE
  8
0
  6
CONTINUOUS
 62
   249
 10
189.95799
 20
208.690823
 30
0.0
 11
190.510047
 21
208.227592
 31
0.0
  0
LINE
  8
0
  6
CONTINUOUS
 62
   249
 10
189.947341
 20
208.686704
 30
0.0
 11
190.480715
 21
208.239151
 31
0.0
  0
LINE
  8
0
  6
CONTINUOUS
 62
   249
 10
189.936693
 20
208.682585
 30
0.0
 11
190.451382
 21
208.25071
 31
0.0
  0
LINE
  8
0
  6
CONTINUOUS
 62
   249
 10
189.926045
 20
208.678466
 30
0.0
 11
190.422049
 21
208.262269
 31
0.0
  0
LINE
  8
0
  6
CONTINUOUS
 62
   249
 10
189.915396
 20
208.674347
 30
0.0
 11
190.392717
 21
208.273828
 31
0.0
  0
LINE
  8
0
  6
CONTINUOUS
 62
   249
 10
189.904748
 20
208.670228
 30
0.0
 11
190.363384
 21
208.285386
 31
0.0
  0
LINE
  8
0
  6
CONTINUOUS
 62
   249
 10
189.8941
 20
208.666108
 30
0.0
 11
190.334051
 21
208.296945
 31
0.0
  0
LINE
  8
0
  6
CONTINUOUS
 62
   249
 10
189.883452
 20
208.661989
 30
0.0
 11
190.304719
 21
208.308504
 31
0.0
  0
LINE
  8
0
  6
CONTINUOUS
 62
   249
 10
189.872803
 20
208.65787
 30
0.0
 11
190.275386
 21
208.320063
 31
0.0
  0
LINE
  8
0
  6
CONTINUOUS
 62
   249
 10
189.862155
 20
208.653751
 30
0.0
 11
190.246053
 21
208.331622
 31
0.0
  0
LINE
  8
0
  6
CONTINUOUS
 62
   249
 10
189.851507
 20
208.649632
 30
0.0
 11
190.216721
 21
208.343181
 31
0.0
  0
LINE
  8
0
  6
CONTINUOUS
 62
   249
 10
189.840859
 20
208.645513
 30
0.0
 11
190.187388
 21
208.35474
 31
0.0
  0
LINE
  8
0
  6
CONTINUOUS
 62
   249
 10
189.83021
 20
208.641394
 30
0.0
 11
190.158055
 21
208.366299
 31
0.0
  0
LINE
  8
0
  6
CONTINUOUS
 62
   249
 10
189.819562
 20
208.637275
 30
0.0
 11
190.128723
 21
208.377858
 31
0.0
  0
LINE
  8
0
  6
CONTINUOUS
 62
   249
 10
189.808914
 20
208.633156
 30
0.0
 11
190.09939
 21
208.389417
 31
0.0
  0
LINE
  8
0
  6
CONTINUOUS
 62
   249
 10
189.798265
 20
208.629036
 30
0.0
 11
190.070057
 21
208.400976
 31
0.0
  0
LINE
  8
0
  6
CONTINUOUS
 62
   249
 10
189.787617
 20
208.624917
 30
0.0
 11
190.040725
 21
208.412535
 31
0.0
  0
LINE
  8
0
  6
CONTINUOUS
 62
   249
 10
189.776969
 20
208.620798
 30
0.0
 11
190.011392
 21
208.424094
 31
0.0
  0
LINE
  8
0
  6
CONTINUOUS
 62
   249
 10
189.766321
 20
208.616679
 30
0.0
 11
189.98206
 21
208.435653
 31
0.0
  0
LINE
  8
0
  6
CONTINUOUS
 62
   249
 10
189.755672
 20
208.61256
 30
0.0
 11
189.952727
 21
208.447212
 31
0.0
  0
LINE
  8
0
  6
CONTINUOUS
 62
   249
 10
189.745024
 20
208.608441
 30
0.0
 11
189.923394
 21
208.458771
 31
0.0
  0
LINE
  8
0
  6
CONTINUOUS
 62
   249
 10
189.734376
 20
208.604322
 30
0.0
 11
189.894062
 21
208.470329
 31
0.0
  0
LINE
  8
0
  6
CONTINUOUS
 62
   249
 10
189.723728
 20
208.600203
 30
0.0
 11
189.864729
 21
208.481888
 31
0.0
  0
LINE
  8
0
  6
CONTINUOUS
 62
   249
 10
189.713079
 20
208.596084
 30
0.0
 11
189.835396
 21
208.493447
 31
0.0
  0
LINE
  8
0
  6
CONTINUOUS
 62
   249
 10
189.702431
 20
208.591964
 30
0.0
 11
189.806064
 21
208.505006
 31
0.0
  0
LINE
  8
0
  6
CONTINUOUS
 62
   249
 10
189.691783
 20
208.587845
 30
0.0
 11
189.776731
 21
208.516565
 31
0.0
  0
LINE
  8
0
  6
CONTINUOUS
 62
   249
 10
189.681134
 20
208.583726
 30
0.0
 11
189.747398
 21
208.528124
 31
0.0
  0
LINE
  8
0
  6
CONTINUOUS
 62
   249
 10
189.670486
 20
208.579607
 30
0.0
 11
189.718066
 21
208.539683
 31
0.0
  0
LINE
  8
0
  6
CONTINUOUS
 62
   249
 10
189.659838
 20
208.575488
 30
0.0
 11
189.688733
 21
208.551242
 31
0.0
  0
LINE
  8
0
  6
CONTINUOUS
 62
   249
 10
189.64919
 20
208.571369
 30
0.0
 11
189.6594
 21
208.562801
 31
0.0
  0
LINE
  8
0
  6
CONTINUOUS
 62
   249
 10
190.085769
 20
208.740252
 30
0.0
 11
190.862039
 21
208.088884
 31
0.0
  0
LINE
  8
0
  6
CONTINUOUS
 62
   249
 10
190.096417
 20
208.744371
 30
0.0
 11
190.891372
 21
208.077326
 31
0.0
  0
LINE
  8
0
  6
CONTINUOUS
 62
   249
 10
190.107065
 20
208.748491
 30
0.0
 11
190.919499
 21
208.066778
 31
0.0
  0
LINE
  8
0
  6
CONTINUOUS
 62
   249
 10
190.117714
 20
208.75261
 30
0.0
 11
190.919499
 21
208.079832
 31
0.0
  0
LINE
  8
0
  6
CONTINUOUS
 62
   249
 10
190.128362
 20
208.756729
 30
0.0
 11
190.919499
 21
208.092886
 31
0.0
  0
LINE
  8
0
  6
CONTINUOUS
 62
   249
 10
190.13901
 20
208.760848
 30
0.0
 11
190.919499
 21
208.105941
 31
0.0
  0
LINE
  8
0
  6
CONTINUOUS
 62
   249
 10
190.149659
 20
208.764967
 30
0.0
 11
190.919499
 21
208.118995
 31
0.0
  0
LINE
  8
0
  6
CONTINUOUS
 62
   249
 10
190.160307
 20
208.769086
 30
0.0
 11
190.919499
 21
208.132049
 31
0.0
  0
LINE
  8
0
  6
CONTINUOUS
 62
   249
 10
190.170955
 20
208.773205
 30
0.0
 11
190.919499
 21
208.145103
 31
0.0
  0
LINE
  8
0
  6
CONTINUOUS
 62
   249
 10
190.181603
 20
208.777324
 30
0.0
 11
190.919499
 21
208.158157
 31
0.0
  0
LINE
  8
0
  6
CONTINUOUS
 62
   249
 10
190.192252
 20
208.781443
 30
0.0
 11
190.919499
 21
208.171211
 31
0.0
  0
LINE
  8
0
  6
CONTINUOUS
 62
   249
 10
190.2029
 20
208.785563
 30
0.0
 11
190.919499
 21
208.184265
 31
0.0
  0
LINE
  8
0
  6
CONTINUOUS
 62
   249
 10
190.213548
 20
208.789682
 30
0.0
 11
190.919499
 21
208.197319
 31
0.0
  0
LINE
  8
0
  6
CONTINUOUS
 62
   249
 10
190.224196
 20
208.793801
 30
0.0
 11
190.919499
 21
208.210373
 31
0.0
  0
LINE
  8
0
  6
CONTINUOUS
 62
   249
 10
190.234845
 20
208.79792
 30
0.0
 11
190.919499
 21
208.223427
 31
0.0
  0
LINE
  8
0
  6
CONTINUOUS
 62
   249
 10
190.245493
 20
208.802039
 30
0.0
 11
190.919499
 21
208.236481
 31
0.0
  0
LINE
  8
0
  6
CONTINUOUS
 62
   249
 10
190.256141
 20
208.806158
 30
0.0
 11
190.919499
 21
208.249535
 31
0.0
  0
LINE
  8
0
  6
CONTINUOUS
 62
   249
 10
190.26679
 20
208.810277
 30
0.0
 11
190.919499
 21
208.262589
 31
0.0
  0
LINE
  8
0
  6
CONTINUOUS
 62
   249
 10
190.277438
 20
208.814396
 30
0.0
 11
190.919499
 21
208.275643
 31
0.0
  0
LINE
  8
0
  6
CONTINUOUS
 62
   249
 10
190.288086
 20
208.818515
 30
0.0
 11
190.919499
 21
208.288698
 31
0.0
  0
LINE
  8
0
  6
CONTINUOUS
 62
   249
 10
190.298734
 20
208.822635
 30
0.0
 11
190.919499
 21
208.301752
 31
0.0
  0
LINE
  8
0
  6
CONTINUOUS
 62
   249
 10
190.309383
 20
208.826754
 30
0.0
 11
190.919499
 21
208.314806
 31
0.0
  0
LINE
  8
0
  6
CONTINUOUS
 62
   249
 10
190.320031
 20
208.830873
 30
0.0
 11
190.919499
 21
208.32786
 31
0.0
  0
LINE
  8
0
  6
CONTINUOUS
 62
   249
 10
190.330679
 20
208.834992
 30
0.0
 11
190.919499
 21
208.340914
 31
0.0
  0
LINE
  8
0
  6
CONTINUOUS
 62
   249
 10
190.341327
 20
208.839111
 30
0.0
 11
190.919499
 21
208.353968
 31
0.0
  0
LINE
  8
0
  6
CONTINUOUS
 62
   249
 10
190.351976
 20
208.84323
 30
0.0
 11
190.919499
 21
208.367022
 31
0.0
  0
LINE
  8
0
  6
CONTINUOUS
 62
   249
 10
190.362624
 20
208.847349
 30
0.0
 11
190.919499
 21
208.380076
 31
0.0
  0
LINE
  8
0
  6
CONTINUOUS
 62
   249
 10
190.373272
 20
208.851468
 30
0.0
 11
190.919499
 21
208.39313
 31
0.0
  0
LINE
  8
0
  6
CONTINUOUS
 62
   249
 10
190.383921
 20
208.855587
 30
0.0
 11
190.919499
 21
208.406184
 31
0.0
  0
LINE
  8
0
  6
CONTINUOUS
 62
   249
 10
190.394569
 20
208.859707
 30
0.0
 11
190.919499
 21
208.419238
 31
0.0
  0
LINE
  8
0
  6
CONTINUOUS
 62
   249
 10
190.405217
 20
208.863826
 30
0.0
 11
190.919499
 21
208.432292
 31
0.0
  0
LINE
  8
0
  6
CONTINUOUS
 62
   249
 10
190.415865
 20
208.867945
 30
0.0
 11
190.919499
 21
208.445346
 31
0.0
  0
LINE
  8
0
  6
CONTINUOUS
 62
   249
 10
190.426514
 20
208.872064
 30
0.0
 11
190.919499
 21
208.4584
 31
0.0
  0
LINE
  8
0
  6
CONTINUOUS
 62
   249
 10
190.437162
 20
208.876183
 30
0.0
 11
190.919499
 21
208.471455
 31
0.0
  0
LINE
  8
0
  6
CONTINUOUS
 62
   249
 10
190.44781
 20
208.880302
 30
0.0
 11
190.919499
 21
208.484509
 31
0.0
  0
LINE
  8
0
  6
CONTINUOUS
 62
   249
 10
190.458458
 20
208.884421
 30
0.0
 11
190.919499
 21
208.497563
 31
0.0
  0
LINE
  8
0
  6
CONTINUOUS
 62
   249
 10
190.469107
 20
208.88854
 30
0.0
 11
190.919499
 21
208.510617
 31
0.0
  0
LINE
  8
0
  6
CONTINUOUS
 62
   249
 10
190.479755
 20
208.892659
 30
0.0
 11
190.919499
 21
208.523671
 31
0.0
  0
LINE
  8
0
  6
CONTINUOUS
 62
   249
 10
190.490403
 20
208.896779
 30
0.0
 11
190.919499
 21
208.536725
 31
0.0
  0
LINE
  8
0
  6
CONTINUOUS
 62
   249
 10
190.501052
 20
208.900898
 30
0.0
 11
190.919499
 21
208.549779
 31
0.0
  0
LINE
  8
0
  6
CONTINUOUS
 62
   249
 10
190.5117
 20
208.905017
 30
0.0
 11
190.919499
 21
208.562833
 31
0.0
  0
LINE
  8
0
  6
CONTINUOUS
 62
   249
 10
190.522348
 20
208.909136
 30
0.0
 11
190.919499
 21
208.575887
 31
0.0
  0
LINE
  8
0
  6
CONTINUOUS
 62
   249
 10
190.532996
 20
208.913255
 30
0.0
 11
190.919499
 21
208.588941
 31
0.0
  0
LINE
  8
0
  6
CONTINUOUS
 62
   249
 10
190.543645
 20
208.917374
 30
0.0
 11
190.919499
 21
208.601995
 31
0.0
  0
LINE
  8
0
  6
CONTINUOUS
 62
   249
 10
190.554293
 20
208.921493
 30
0.0
 11
190.919499
 21
208.615049
 31
0.0
  0
LINE
  8
0
  6
CONTINUOUS
 62
   249
 10
190.564941
 20
208.925612
 30
0.0
 11
190.919499
 21
208.628103
 31
0.0
  0
LINE
  8
0
  6
CONTINUOUS
 62
   249
 10
190.57559
 20
208.929731
 30
0.0
 11
190.919499
 21
208.641157
 31
0.0
  0
LINE
  8
0
  6
CONTINUOUS
 62
   249
 10
190.586238
 20
208.93385
 30
0.0
 11
190.919499
 21
208.654212
 31
0.0
  0
LINE
  8
0
  6
CONTINUOUS
 62
   249
 10
190.596886
 20
208.93797
 30
0.0
 11
190.919499
 21
208.667266
 31
0.0
  0
LINE
  8
0
  6
CONTINUOUS
 62
   249
 10
190.607534
 20
208.942089
 30
0.0
 11
190.919499
 21
208.68032
 31
0.0
  0
LINE
  8
0
  6
CONTINUOUS
 62
   249
 10
190.618183
 20
208.946208
 30
0.0
 11
190.919499
 21
208.693374
 31
0.0
  0
LINE
  8
0
  6
CONTINUOUS
 62
   249
 10
190.628831
 20
208.950327
 30
0.0
 11
190.919499
 21
208.706428
 31
0.0
  0
LINE
  8
0
  6
CONTINUOUS
 62
   249
 10
190.639479
 20
208.954446
 30
0.0
 11
190.919499
 21
208.719482
 31
0.0
  0
LINE
  8
0
  6
CONTINUOUS
 62
   249
 10
190.650127
 20
208.958565
 30
0.0
 11
190.919499
 21
208.732536
 31
0.0
  0
LINE
  8
0
  6
CONTINUOUS
 62
   249
 10
190.660776
 20
208.962684
 30
0.0
 11
190.919499
 21
208.74559
 31
0.0
  0
LINE
  8
0
  6
CONTINUOUS
 62
   249
 10
190.671424
 20
208.966803
 30
0.0
 11
190.919499
 21
208.758644
 31
0.0
  0
LINE
  8
0
  6
CONTINUOUS
 62
   249
 10
190.682072
 20
208.970922
 30
0.0
 11
190.919499
 21
208.771698
 31
0.0
  0
LINE
  8
0
  6
CONTINUOUS
 62
   249
 10
190.692721
 20
208.975042
 30
0.0
 11
190.919499
 21
208.784752
 31
0.0
  0
LINE
  8
0
  6
CONTINUOUS
 62
   249
 10
190.703369
 20
208.979161
 30
0.0
 11
190.919499
 21
208.797806
 31
0.0
  0
LINE
  8
0
  6
CONTINUOUS
 62
   249
 10
190.714017
 20
208.98328
 30
0.0
 11
190.919499
 21
208.81086
 31
0.0
  0
LINE
  8
0
  6
CONTINUOUS
 62
   249
 10
190.724665
 20
208.987399
 30
0.0
 11
190.919499
 21
208.823915
 31
0.0
  0
LINE
  8
0
  6
CONTINUOUS
 62
   249
 10
190.735314
 20
208.991518
 30
0.0
 11
190.919499
 21
208.836969
 31
0.0
  0
LINE
  8
0
  6
CONTINUOUS
 62
   249
 10
190.745962
 20
208.995637
 30
0.0
 11
190.919499
 21
208.850023
 31
0.0
  0
LINE
  8
0
  6
CONTINUOUS
 62
   249
 10
190.75661
 20
208.999756
 30
0.0
 11
190.919499
 21
208.863077
 31
0.0
  0
LINE
  8
0
  6
CONTINUOUS
 62
   249
 10
190.767258
 20
209.003875
 30
0.0
 11
190.919499
 21
208.876131
 31
0.0
  0
LINE
  8
0
  6
CONTINUOUS
 62
   249
 10
190.777907
 20
209.007994
 30
0.0
 11
190.919499
 21
208.889185
 31
0.0
  0
LINE
  8
0
  6
CONTINUOUS
 62
   249
 10
190.788555
 20
209.012114
 30
0.0
 11
190.919499
 21
208.902239
 31
0.0
  0
LINE
  8
0
  6
CONTINUOUS
 62
   249
 10
190.799203
 20
209.016233
 30
0.0
 11
190.919499
 21
208.915293
 31
0.0
  0
LINE
  8
0
  6
CONTINUOUS
 62
   249
 10
190.809852
 20
209.020352
 30
0.0
 11
190.919499
 21
208.928347
 31
0.0
  0
LINE
  8
0
  6
CONTINUOUS
 62
   249
 10
190.8205
 20
209.024471
 30
0.0
 11
190.919499
 21
208.941401
 31
0.0
  0
LINE
  8
0
  6
CONTINUOUS
 62
   249
 10
190.831148
 20
209.02859
 30
0.0
 11
190.919499
 21
208.954455
 31
0.0
  0
LINE
  8
0
  6
CONTINUOUS
 62
   249
 10
190.841796
 20
209.032709
 30
0.0
 11
190.919499
 21
208.967509
 31
0.0
  0
LINE
  8
0
  6
CONTINUOUS
 62
   249
 10
190.852445
 20
209.036828
 30
0.0
 11
190.919499
 21
208.980563
 31
0.0
  0
LINE
  8
0
  6
CONTINUOUS
 62
   249
 10
190.863093
 20
209.040947
 30
0.0
 11
190.919499
 21
208.993617
 31
0.0
  0
LINE
  8
0
  6
CONTINUOUS
 62
   249
 10
190.873741
 20
209.045066
 30
0.0
 11
190.919499
 21
209.006672
 31
0.0
  0
LINE
  8
0
  6
CONTINUOUS
 62
   249
 10
190.88439
 20
209.049186
 30
0.0
 11
190.919499
 21
209.019726
 31
0.0
  0
LINE
  8
0
  6
CONTINUOUS
 62
   249
 10
190.895038
 20
209.053305
 30
0.0
 11
190.919499
 21
209.03278
 31
0.0
  0
LINE
  8
0
  6
CONTINUOUS
 62
   249
 10
190.905686
 20
209.057424
 30
0.0
 11
190.919499
 21
209.045834
 31
0.0
  0
LINE
  8
0
  6
CONTINUOUS
 62
   249
 10
190.916334
 20
209.061543
 30
0.0
 11
190.919499
 21
209.058888
 31
0.0
  0
ARC
  8
0
  6
CONTINUOUS
 62
   249
 10
105.0
 20
220.858787
 30
0.0
 40
0.5
 50
180.0
 51
0.0
  0
ARC
  8
0
  6
CONTINUOUS
 62
   249
 10
105.0
 20
220.858787
 30
0.0
 40
0.5
 50
0.0
 51
180.0
  0
LINE
  8
0
  6
CONTINUOUS
 62
   249
 10
153.836574
 20
219.523433
 30
0.0
 11
151.490809
 21
220.858787
 31
0.0
  0
LINE
  8
0
  6
CONTINUOUS
 62
   249
 10
151.490809
 20
220.858787
 30
0.0
 11
153.836574
 21
222.048706
 31
0.0
  0
INSERT
  8
0
  6
CENTER
 62
   249
  2
BLC5
 10
220.291926
 20
48.342005
 30
0.0
 41
0.6
 42
0.6
 43
0.6
  0
LINE
  8
0
 62
   249
 10
203.0252
 20
45.783527
 30
0.0
 11
207.0252
 21
45.783527
 31
0.0
  0
INSERT
  8
0
 62
   249
  2
WKU130
 10
203.36515
 20
44.057974
 30
0.0
 41
0.8
 42
0.8
 43
0.8
  0
TEXT
  8
0
  6
CONTINUOUS
 62
   249
 10
201.853328
 20
46.513635
 30
0.0
 40
2.0
  1
+
  0
TEXT
  8
0
  6
CONTINUOUS
 62
   249
 10
206.844763
 20
46.50558
 30
0.0
 40
2.0
  1
-
  0
LINE
  8
0
  6
CONTINUOUS
 62
   249
 10
207.5
 20
80.429605
 30
0.0
 11
207.5
 21
77.5
 31
0.0
  0
LINE
  8
0
  6
CONTINUOUS
 62
   249
 10
202.5
 20
80.429605
 30
0.0
 11
202.5
 21
77.5
 31
0.0
  0
LINE
  8
0
  6
CONTINUOUS
 62
   249
 10
207.5
 20
95.0
 30
0.0
 11
207.5
 21
89.752154
 31
0.0
  0
LINE
  8
0
  6
CONTINUOUS
 62
   249
 10
202.5
 20
95.0
 30
0.0
 11
202.5
 21
89.752154
 31
0.0
  0
INSERT
  8
0
 62
   249
  2
WKU130
 10
205.306261
 20
81.002888
 30
0.0
 41
0.8
 42
0.8
 43
0.8
  0
LINE
  8
0
 62
   249
 10
204.966311
 20
82.72844
 30
0.0
 11
208.966311
 21
82.72844
 31
0.0
  0
LINE
  8
0
 62
   249
 10
201.209901
 20
87.674464
 30
0.0
 11
205.209901
 21
87.674464
 31
0.0
  0
LINE
  8
0
 62
   249
 10
200.295103
 20
81.386207
 30
0.0
 11
208.658613
 21
89.752154
 31
0.0
  0
LINE
  8
0
 62
   249
 10
201.279395
 20
80.429605
 30
0.0
 11
209.619756
 21
88.767352
 31
0.0
  0
LINE
  8
0
 62
   249
 10
200.295103
 20
80.429605
 30
0.0
 11
200.295103
 21
89.752154
 31
0.0
  0
LINE
  8
0
 62
   249
 10
209.619756
 20
80.429605
 30
0.0
 11
200.295103
 21
80.429605
 31
0.0
  0
LINE
  8
0
 62
   249
 10
209.619756
 20
89.752154
 30
0.0
 11
209.619756
 21
80.429605
 31
0.0
  0
LINE
  8
0
 62
   249
 10
200.295103
 20
89.752154
 30
0.0
 11
209.619756
 21
89.752154
 31
0.0
  0
TEXT
  8
0
  6
CONTINUOUS
 62
   249
 10
201.866734
 20
95.55315
 30
0.0
 40
2.0
  1
+
  0
TEXT
  8
0
  6
CONTINUOUS
 62
   249
 10
206.797086
 20
95.577719
 30
0.0
 40
2.0
  1
-
  0
TEXT
  8
0
  6
CONTINUOUS
 62
   249
 10
227.5
 20
100.0
 30
0.0
 40
2.0
  1
RX/TX
  0
LINE
  8
0
  6
CONTINUOUS
 62
   249
 10
240.0
 20
105.0
 30
0.0
 11
212.5
 21
105.0
 31
0.0
  0
INSERT
  8
0
  6
CONTINUOUS
 62
   249
  2
BLC29
 10
221.529446
 20
104.871533
 30
0.0
 41
-1.0
 50
180.0
  0
TEXT
  8
0
  6
CONTINUOUS
 62
   249
 10
237.036564
 20
106.570297
 30
0.0
 40
2.0
  1
9
  0
LINE
  8
0
  6
CONTINUOUS
 62
   249
 10
236.063198
 20
104.25712
 30
0.0
 11
237.279906
 21
105.667057
 31
0.0
  0
INSERT
  8
0
  6
CONTINUOUS
 62
   249
  2
BLC29
 10
218.470554
 20
104.871533
 30
0.0
 50
180.0
  0
3DFACE
  8
0
  6
CONTINUOUS
 62
   249
 10
241.819436
 20
104.423461
 30
0.0
 11
241.833156
 21
104.423461
 31
0.0
 12
241.833156
 22
105.403461
 32
0.0
 13
241.819436
 23
105.403461
 33
0.0
  0
3DFACE
  8
0
  6
CONTINUOUS
 62
   249
 10
241.833156
 20
104.423461
 30
0.0
 11
241.846876
 21
104.423461
 31
0.0
 12
241.846876
 22
105.403461
 32
0.0
 13
241.833156
 23
105.403461
 33
0.0
  0
3DFACE
  8
0
  6
CONTINUOUS
 62
   249
 10
241.846876
 20
104.423461
 30
0.0
 11
241.860596
 21
104.423461
 31
0.0
 12
241.860596
 22
105.403461
 32
0.0
 13
241.846876
 23
105.403461
 33
0.0
  0
3DFACE
  8
0
  6
CONTINUOUS
 62
   249
 10
241.860596
 20
104.423461
 30
0.0
 11
241.874316
 21
104.423461
 31
0.0
 12
241.874316
 22
105.403461
 32
0.0
 13
241.860596
 23
105.403461
 33
0.0
  0
3DFACE
  8
0
  6
CONTINUOUS
 62
   249
 10
241.874316
 20
104.423461
 30
0.0
 11
241.888036
 21
104.423461
 31
0.0
 12
241.888036
 22
105.403461
 32
0.0
 13
241.874316
 23
105.403461
 33
0.0
  0
3DFACE
  8
0
  6
CONTINUOUS
 62
   249
 10
241.888036
 20
104.423461
 30
0.0
 11
241.901756
 21
104.423461
 31
0.0
 12
241.901756
 22
105.403461
 32
0.0
 13
241.888036
 23
105.403461
 33
0.0
  0
3DFACE
  8
0
  6
CONTINUOUS
 62
   249
 10
241.901756
 20
104.423461
 30
0.0
 11
241.915476
 21
104.423461
 31
0.0
 12
241.915476
 22
105.403461
 32
0.0
 13
241.901756
 23
105.403461
 33
0.0
  0
3DFACE
  8
0
  6
CONTINUOUS
 62
   249
 10
241.915476
 20
104.423461
 30
0.0
 11
241.929196
 21
104.423461
 31
0.0
 12
241.929196
 22
105.403461
 32
0.0
 13
241.915476
 23
105.403461
 33
0.0
  0
3DFACE
  8
0
  6
CONTINUOUS
 62
   249
 10
241.929196
 20
104.423461
 30
0.0
 11
241.942916
 21
104.423461
 31
0.0
 12
241.942916
 22
105.403461
 32
0.0
 13
241.929196
 23
105.403461
 33
0.0
  0
3DFACE
  8
0
  6
CONTINUOUS
 62
   249
 10
241.942916
 20
104.423461
 30
0.0
 11
241.956636
 21
104.423461
 31
0.0
 12
241.956636
 22
105.403461
 32
0.0
 13
241.942916
 23
105.403461
 33
0.0
  0
3DFACE
  8
0
  6
CONTINUOUS
 62
   249
 10
241.956636
 20
104.423461
 30
0.0
 11
241.970356
 21
104.423461
 31
0.0
 12
241.970356
 22
105.403461
 32
0.0
 13
241.956636
 23
105.403461
 33
0.0
  0
3DFACE
  8
0
  6
CONTINUOUS
 62
   249
 10
241.970356
 20
104.423461
 30
0.0
 11
241.984076
 21
104.423461
 31
0.0
 12
241.984076
 22
105.403461
 32
0.0
 13
241.970356
 23
105.403461
 33
0.0
  0
3DFACE
  8
0
  6
CONTINUOUS
 62
   249
 10
241.984076
 20
104.423461
 30
0.0
 11
241.997796
 21
104.423461
 31
0.0
 12
241.997796
 22
105.403461
 32
0.0
 13
241.984076
 23
105.403461
 33
0.0
  0
3DFACE
  8
0
  6
CONTINUOUS
 62
   249
 10
241.997796
 20
104.423461
 30
0.0
 11
242.011516
 21
104.423461
 31
0.0
 12
242.011516
 22
105.403461
 32
0.0
 13
241.997796
 23
105.403461
 33
0.0
  0
3DFACE
  8
0
  6
CONTINUOUS
 62
   249
 10
242.011516
 20
104.423461
 30
0.0
 11
242.025236
 21
104.423461
 31
0.0
 12
242.025236
 22
105.403461
 32
0.0
 13
242.011516
 23
105.403461
 33
0.0
  0
3DFACE
  8
0
  6
CONTINUOUS
 62
   249
 10
242.025236
 20
104.423461
 30
0.0
 11
242.038956
 21
104.423461
 31
0.0
 12
242.038956
 22
105.403461
 32
0.0
 13
242.025236
 23
105.403461
 33
0.0
  0
3DFACE
  8
0
  6
CONTINUOUS
 62
   249
 10
242.038956
 20
104.423461
 30
0.0
 11
242.052676
 21
104.423461
 31
0.0
 12
242.052676
 22
105.403461
 32
0.0
 13
242.038956
 23
105.403461
 33
0.0
  0
3DFACE
  8
0
  6
CONTINUOUS
 62
   249
 10
242.052676
 20
104.423461
 30
0.0
 11
242.066396
 21
104.423461
 31
0.0
 12
242.066396
 22
105.403461
 32
0.0
 13
242.052676
 23
105.403461
 33
0.0
  0
3DFACE
  8
0
  6
CONTINUOUS
 62
   249
 10
242.066396
 20
104.423461
 30
0.0
 11
242.080116
 21
104.423461
 31
0.0
 12
242.080116
 22
105.403461
 32
0.0
 13
242.066396
 23
105.403461
 33
0.0
  0
3DFACE
  8
0
  6
CONTINUOUS
 62
   249
 10
242.080116
 20
104.423461
 30
0.0
 11
242.093836
 21
104.423461
 31
0.0
 12
242.093836
 22
105.403461
 32
0.0
 13
242.080116
 23
105.403461
 33
0.0
  0
3DFACE
  8
0
  6
CONTINUOUS
 62
   249
 10
242.093836
 20
104.423461
 30
0.0
 11
242.107556
 21
104.423461
 31
0.0
 12
242.107556
 22
105.403461
 32
0.0
 13
242.093836
 23
105.403461
 33
0.0
  0
3DFACE
  8
0
  6
CONTINUOUS
 62
   249
 10
242.107556
 20
104.423461
 30
0.0
 11
242.121276
 21
104.423461
 31
0.0
 12
242.121276
 22
105.403461
 32
0.0
 13
242.107556
 23
105.403461
 33
0.0
  0
3DFACE
  8
0
  6
CONTINUOUS
 62
   249
 10
242.121276
 20
104.423461
 30
0.0
 11
242.134996
 21
104.423461
 31
0.0
 12
242.134996
 22
105.403461
 32
0.0
 13
242.121276
 23
105.403461
 33
0.0
  0
3DFACE
  8
0
  6
CONTINUOUS
 62
   249
 10
242.134996
 20
104.423461
 30
0.0
 11
242.148716
 21
104.423461
 31
0.0
 12
242.148716
 22
105.403461
 32
0.0
 13
242.134996
 23
105.403461
 33
0.0
  0
3DFACE
  8
0
  6
CONTINUOUS
 62
   249
 10
242.148716
 20
104.423461
 30
0.0
 11
242.162436
 21
104.423461
 31
0.0
 12
242.162436
 22
105.403461
 32
0.0
 13
242.148716
 23
105.403461
 33
0.0
  0
3DFACE
  8
0
  6
CONTINUOUS
 62
   249
 10
242.162436
 20
104.423461
 30
0.0
 11
242.176156
 21
104.423461
 31
0.0
 12
242.176156
 22
105.403461
 32
0.0
 13
242.162436
 23
105.403461
 33
0.0
  0
3DFACE
  8
0
  6
CONTINUOUS
 62
   249
 10
242.176156
 20
104.423461
 30
0.0
 11
242.189876
 21
104.423461
 31
0.0
 12
242.189876
 22
105.403461
 32
0.0
 13
242.176156
 23
105.403461
 33
0.0
  0
3DFACE
  8
0
  6
CONTINUOUS
 62
   249
 10
242.189876
 20
104.423461
 30
0.0
 11
242.203596
 21
104.423461
 31
0.0
 12
242.203596
 22
105.403461
 32
0.0
 13
242.189876
 23
105.403461
 33
0.0
  0
3DFACE
  8
0
  6
CONTINUOUS
 62
   249
 10
242.203596
 20
104.423461
 30
0.0
 11
242.217316
 21
104.423461
 31
0.0
 12
242.217316
 22
105.403461
 32
0.0
 13
242.203596
 23
105.403461
 33
0.0
  0
3DFACE
  8
0
  6
CONTINUOUS
 62
   249
 10
242.217316
 20
104.423461
 30
0.0
 11
242.231036
 21
104.423461
 31
0.0
 12
242.231036
 22
105.403461
 32
0.0
 13
242.217316
 23
105.403461
 33
0.0
  0
3DFACE
  8
0
  6
CONTINUOUS
 62
   249
 10
242.231036
 20
104.423461
 30
0.0
 11
242.244756
 21
104.423461
 31
0.0
 12
242.244756
 22
105.403461
 32
0.0
 13
242.231036
 23
105.403461
 33
0.0
  0
3DFACE
  8
0
  6
CONTINUOUS
 62
   249
 10
242.244756
 20
104.423461
 30
0.0
 11
242.258476
 21
104.423461
 31
0.0
 12
242.258476
 22
105.403461
 32
0.0
 13
242.244756
 23
105.403461
 33
0.0
  0
3DFACE
  8
0
  6
CONTINUOUS
 62
   249
 10
242.258476
 20
104.423461
 30
0.0
 11
242.272196
 21
104.423461
 31
0.0
 12
242.272196
 22
105.403461
 32
0.0
 13
242.258476
 23
105.403461
 33
0.0
  0
3DFACE
  8
0
  6
CONTINUOUS
 62
   249
 10
242.272196
 20
104.423461
 30
0.0
 11
242.285916
 21
104.423461
 31
0.0
 12
242.285916
 22
105.403461
 32
0.0
 13
242.272196
 23
105.403461
 33
0.0
  0
3DFACE
  8
0
  6
CONTINUOUS
 62
   249
 10
242.285916
 20
104.423461
 30
0.0
 11
242.299636
 21
104.423461
 31
0.0
 12
242.299636
 22
105.403461
 32
0.0
 13
242.285916
 23
105.403461
 33
0.0
  0
3DFACE
  8
0
  6
CONTINUOUS
 62
   249
 10
242.299636
 20
104.423461
 30
0.0
 11
242.313356
 21
104.423461
 31
0.0
 12
242.313356
 22
105.403461
 32
0.0
 13
242.299636
 23
105.403461
 33
0.0
  0
3DFACE
  8
0
  6
CONTINUOUS
 62
   249
 10
242.313356
 20
104.423461
 30
0.0
 11
242.327076
 21
104.423461
 31
0.0
 12
242.327076
 22
105.403461
 32
0.0
 13
242.313356
 23
105.403461
 33
0.0
  0
3DFACE
  8
0
  6
CONTINUOUS
 62
   249
 10
242.327076
 20
104.423461
 30
0.0
 11
242.340796
 21
104.423461
 31
0.0
 12
242.340796
 22
105.403461
 32
0.0
 13
242.327076
 23
105.403461
 33
0.0
  0
3DFACE
  8
0
  6
CONTINUOUS
 62
   249
 10
242.340796
 20
104.423461
 30
0.0
 11
242.354516
 21
104.423461
 31
0.0
 12
242.354516
 22
105.403461
 32
0.0
 13
242.340796
 23
105.403461
 33
0.0
  0
3DFACE
  8
0
  6
CONTINUOUS
 62
   249
 10
242.354516
 20
104.423461
 30
0.0
 11
242.368236
 21
104.423461
 31
0.0
 12
242.368236
 22
105.403461
 32
0.0
 13
242.354516
 23
105.403461
 33
0.0
  0
3DFACE
  8
0
  6
CONTINUOUS
 62
   249
 10
242.368236
 20
104.423461
 30
0.0
 11
242.381956
 21
104.423461
 31
0.0
 12
242.381956
 22
105.403461
 32
0.0
 13
242.368236
 23
105.403461
 33
0.0
  0
3DFACE
  8
0
  6
CONTINUOUS
 62
   249
 10
242.381956
 20
104.423461
 30
0.0
 11
242.395676
 21
104.423461
 31
0.0
 12
242.395676
 22
105.403461
 32
0.0
 13
242.381956
 23
105.403461
 33
0.0
  0
3DFACE
  8
0
  6
CONTINUOUS
 62
   249
 10
242.395676
 20
104.423461
 30
0.0
 11
242.409396
 21
104.423461
 31
0.0
 12
242.409396
 22
105.403461
 32
0.0
 13
242.395676
 23
105.403461
 33
0.0
  0
3DFACE
  8
0
  6
CONTINUOUS
 62
   249
 10
242.409396
 20
104.423461
 30
0.0
 11
242.423116
 21
104.423461
 31
0.0
 12
242.423116
 22
105.403461
 32
0.0
 13
242.409396
 23
105.403461
 33
0.0
  0
3DFACE
  8
0
  6
CONTINUOUS
 62
   249
 10
242.423116
 20
104.423461
 30
0.0
 11
242.436836
 21
104.423461
 31
0.0
 12
242.436836
 22
105.403461
 32
0.0
 13
242.423116
 23
105.403461
 33
0.0
  0
3DFACE
  8
0
  6
CONTINUOUS
 62
   249
 10
242.436836
 20
104.423461
 30
0.0
 11
242.450556
 21
104.423461
 31
0.0
 12
242.450556
 22
105.403461
 32
0.0
 13
242.436836
 23
105.403461
 33
0.0
  0
3DFACE
  8
0
  6
CONTINUOUS
 62
   249
 10
242.450556
 20
104.423461
 30
0.0
 11
242.464276
 21
104.423461
 31
0.0
 12
242.464276
 22
105.403461
 32
0.0
 13
242.450556
 23
105.403461
 33
0.0
  0
3DFACE
  8
0
  6
CONTINUOUS
 62
   249
 10
242.464276
 20
104.423461
 30
0.0
 11
242.477996
 21
104.423461
 31
0.0
 12
242.477996
 22
105.403461
 32
0.0
 13
242.464276
 23
105.403461
 33
0.0
  0
3DFACE
  8
0
  6
CONTINUOUS
 62
   249
 10
242.477996
 20
104.423461
 30
0.0
 11
242.491716
 21
104.423461
 31
0.0
 12
242.491716
 22
105.403461
 32
0.0
 13
242.477996
 23
105.403461
 33
0.0
  0
3DFACE
  8
0
  6
CONTINUOUS
 62
   249
 10
242.491716
 20
104.423461
 30
0.0
 11
242.505436
 21
104.423461
 31
0.0
 12
242.505436
 22
105.403461
 32
0.0
 13
242.491716
 23
105.403461
 33
0.0
  0
3DFACE
  8
0
  6
CONTINUOUS
 62
   249
 10
242.505436
 20
104.423461
 30
0.0
 11
242.519156
 21
104.423461
 31
0.0
 12
242.519156
 22
105.403461
 32
0.0
 13
242.505436
 23
105.403461
 33
0.0
  0
3DFACE
  8
0
  6
CONTINUOUS
 62
   249
 10
242.519156
 20
104.423461
 30
0.0
 11
242.532876
 21
104.423461
 31
0.0
 12
242.532876
 22
105.403461
 32
0.0
 13
242.519156
 23
105.403461
 33
0.0
  0
3DFACE
  8
0
  6
CONTINUOUS
 62
   249
 10
242.532876
 20
104.423461
 30
0.0
 11
242.546596
 21
104.423461
 31
0.0
 12
242.546596
 22
105.403461
 32
0.0
 13
242.532876
 23
105.403461
 33
0.0
  0
3DFACE
  8
0
  6
CONTINUOUS
 62
   249
 10
242.546596
 20
104.423461
 30
0.0
 11
242.560316
 21
104.423461
 31
0.0
 12
242.560316
 22
105.403461
 32
0.0
 13
242.546596
 23
105.403461
 33
0.0
  0
3DFACE
  8
0
  6
CONTINUOUS
 62
   249
 10
242.560316
 20
104.423461
 30
0.0
 11
242.574036
 21
104.423461
 31
0.0
 12
242.574036
 22
105.403461
 32
0.0
 13
242.560316
 23
105.403461
 33
0.0
  0
3DFACE
  8
0
  6
CONTINUOUS
 62
   249
 10
242.574036
 20
104.423461
 30
0.0
 11
242.587756
 21
104.423461
 31
0.0
 12
242.587756
 22
105.403461
 32
0.0
 13
242.574036
 23
105.403461
 33
0.0
  0
3DFACE
  8
0
  6
CONTINUOUS
 62
   249
 10
242.587756
 20
104.423461
 30
0.0
 11
242.601476
 21
104.423461
 31
0.0
 12
242.601476
 22
105.403461
 32
0.0
 13
242.587756
 23
105.403461
 33
0.0
  0
3DFACE
  8
0
  6
CONTINUOUS
 62
   249
 10
242.601476
 20
104.423461
 30
0.0
 11
242.615196
 21
104.423461
 31
0.0
 12
242.615196
 22
105.403461
 32
0.0
 13
242.601476
 23
105.403461
 33
0.0
  0
3DFACE
  8
0
  6
CONTINUOUS
 62
   249
 10
242.615196
 20
104.423461
 30
0.0
 11
242.628916
 21
104.423461
 31
0.0
 12
242.628916
 22
105.403461
 32
0.0
 13
242.615196
 23
105.403461
 33
0.0
  0
3DFACE
  8
0
  6
CONTINUOUS
 62
   249
 10
242.628916
 20
104.423461
 30
0.0
 11
242.642636
 21
104.423461
 31
0.0
 12
242.642636
 22
105.403461
 32
0.0
 13
242.628916
 23
105.403461
 33
0.0
  0
3DFACE
  8
0
  6
CONTINUOUS
 62
   249
 10
242.642636
 20
104.423461
 30
0.0
 11
242.656356
 21
104.423461
 31
0.0
 12
242.656356
 22
105.403461
 32
0.0
 13
242.642636
 23
105.403461
 33
0.0
  0
3DFACE
  8
0
  6
CONTINUOUS
 62
   249
 10
242.656356
 20
104.423461
 30
0.0
 11
242.670076
 21
104.423461
 31
0.0
 12
242.670076
 22
105.403461
 32
0.0
 13
242.656356
 23
105.403461
 33
0.0
  0
3DFACE
  8
0
  6
CONTINUOUS
 62
   249
 10
242.670076
 20
104.423461
 30
0.0
 11
242.683796
 21
104.423461
 31
0.0
 12
242.683796
 22
105.403461
 32
0.0
 13
242.670076
 23
105.403461
 33
0.0
  0
3DFACE
  8
0
  6
CONTINUOUS
 62
   249
 10
242.683796
 20
104.423461
 30
0.0
 11
242.697516
 21
104.423461
 31
0.0
 12
242.697516
 22
105.403461
 32
0.0
 13
242.683796
 23
105.403461
 33
0.0
  0
3DFACE
  8
0
  6
CONTINUOUS
 62
   249
 10
242.697516
 20
104.423461
 30
0.0
 11
242.711236
 21
104.423461
 31
0.0
 12
242.711236
 22
105.403461
 32
0.0
 13
242.697516
 23
105.403461
 33
0.0
  0
3DFACE
  8
0
  6
CONTINUOUS
 62
   249
 10
242.711236
 20
104.423461
 30
0.0
 11
242.724956
 21
104.423461
 31
0.0
 12
242.724956
 22
105.403461
 32
0.0
 13
242.711236
 23
105.403461
 33
0.0
  0
3DFACE
  8
0
  6
CONTINUOUS
 62
   249
 10
242.724956
 20
104.423461
 30
0.0
 11
242.738676
 21
104.423461
 31
0.0
 12
242.738676
 22
105.403461
 32
0.0
 13
242.724956
 23
105.403461
 33
0.0
  0
3DFACE
  8
0
  6
CONTINUOUS
 62
   249
 10
242.738676
 20
104.423461
 30
0.0
 11
242.752396
 21
104.423461
 31
0.0
 12
242.752396
 22
105.403461
 32
0.0
 13
242.738676
 23
105.403461
 33
0.0
  0
3DFACE
  8
0
  6
CONTINUOUS
 62
   249
 10
242.752396
 20
104.423461
 30
0.0
 11
242.766116
 21
104.423461
 31
0.0
 12
242.766116
 22
105.403461
 32
0.0
 13
242.752396
 23
105.403461
 33
0.0
  0
3DFACE
  8
0
  6
CONTINUOUS
 62
   249
 10
242.766116
 20
104.423461
 30
0.0
 11
242.779836
 21
104.423461
 31
0.0
 12
242.779836
 22
105.403461
 32
0.0
 13
242.766116
 23
105.403461
 33
0.0
  0
3DFACE
  8
0
  6
CONTINUOUS
 62
   249
 10
242.779836
 20
104.423461
 30
0.0
 11
242.793556
 21
104.423461
 31
0.0
 12
242.793556
 22
105.403461
 32
0.0
 13
242.779836
 23
105.403461
 33
0.0
  0
3DFACE
  8
0
  6
CONTINUOUS
 62
   249
 10
242.793556
 20
104.423461
 30
0.0
 11
242.807276
 21
104.423461
 31
0.0
 12
242.807276
 22
105.403461
 32
0.0
 13
242.793556
 23
105.403461
 33
0.0
  0
3DFACE
  8
0
  6
CONTINUOUS
 62
   249
 10
242.807276
 20
104.423461
 30
0.0
 11
242.820996
 21
104.423461
 31
0.0
 12
242.820996
 22
105.403461
 32
0.0
 13
242.807276
 23
105.403461
 33
0.0
  0
3DFACE
  8
0
  6
CONTINUOUS
 62
   249
 10
242.820996
 20
104.423461
 30
0.0
 11
242.834716
 21
104.423461
 31
0.0
 12
242.834716
 22
105.403461
 32
0.0
 13
242.820996
 23
105.403461
 33
0.0
  0
3DFACE
  8
0
  6
CONTINUOUS
 62
   249
 10
242.834716
 20
104.423461
 30
0.0
 11
242.848436
 21
104.423461
 31
0.0
 12
242.848436
 22
105.403461
 32
0.0
 13
242.834716
 23
105.403461
 33
0.0
  0
3DFACE
  8
0
  6
CONTINUOUS
 62
   249
 10
242.848436
 20
104.423461
 30
0.0
 11
242.862156
 21
104.423461
 31
0.0
 12
242.862156
 22
105.403461
 32
0.0
 13
242.848436
 23
105.403461
 33
0.0
  0
3DFACE
  8
0
  6
CONTINUOUS
 62
   249
 10
242.862156
 20
104.423461
 30
0.0
 11
242.875876
 21
104.423461
 31
0.0
 12
242.875876
 22
105.403461
 32
0.0
 13
242.862156
 23
105.403461
 33
0.0
  0
3DFACE
  8
0
  6
CONTINUOUS
 62
   249
 10
242.875876
 20
104.423461
 30
0.0
 11
242.889596
 21
104.423461
 31
0.0
 12
242.889596
 22
105.403461
 32
0.0
 13
242.875876
 23
105.403461
 33
0.0
  0
3DFACE
  8
0
  6
CONTINUOUS
 62
   249
 10
242.889596
 20
104.423461
 30
0.0
 11
242.903316
 21
104.423461
 31
0.0
 12
242.903316
 22
105.403461
 32
0.0
 13
242.889596
 23
105.403461
 33
0.0
  0
3DFACE
  8
0
  6
CONTINUOUS
 62
   249
 10
242.903316
 20
104.423461
 30
0.0
 11
242.917036
 21
104.423461
 31
0.0
 12
242.917036
 22
105.403461
 32
0.0
 13
242.903316
 23
105.403461
 33
0.0
  0
3DFACE
  8
0
  6
CONTINUOUS
 62
   249
 10
242.917036
 20
104.423461
 30
0.0
 11
242.930756
 21
104.423461
 31
0.0
 12
242.930756
 22
105.403461
 32
0.0
 13
242.917036
 23
105.403461
 33
0.0
  0
3DFACE
  8
0
  6
CONTINUOUS
 62
   249
 10
242.930756
 20
104.423461
 30
0.0
 11
242.944476
 21
104.423461
 31
0.0
 12
242.944476
 22
105.403461
 32
0.0
 13
242.930756
 23
105.403461
 33
0.0
  0
3DFACE
  8
0
  6
CONTINUOUS
 62
   249
 10
242.944476
 20
104.423461
 30
0.0
 11
242.958196
 21
104.423461
 31
0.0
 12
242.958196
 22
105.403461
 32
0.0
 13
242.944476
 23
105.403461
 33
0.0
  0
3DFACE
  8
0
  6
CONTINUOUS
 62
   249
 10
242.958196
 20
104.423461
 30
0.0
 11
242.971916
 21
104.423461
 31
0.0
 12
242.971916
 22
105.403461
 32
0.0
 13
242.958196
 23
105.403461
 33
0.0
  0
3DFACE
  8
0
  6
CONTINUOUS
 62
   249
 10
242.971916
 20
104.423461
 30
0.0
 11
242.985636
 21
104.423461
 31
0.0
 12
242.985636
 22
105.403461
 32
0.0
 13
242.971916
 23
105.403461
 33
0.0
  0
3DFACE
  8
0
  6
CONTINUOUS
 62
   249
 10
242.985636
 20
104.423461
 30
0.0
 11
242.999356
 21
104.423461
 31
0.0
 12
242.999356
 22
105.403461
 32
0.0
 13
242.985636
 23
105.403461
 33
0.0
  0
3DFACE
  8
0
  6
CONTINUOUS
 62
   249
 10
242.999356
 20
104.423461
 30
0.0
 11
243.013076
 21
104.423461
 31
0.0
 12
243.013076
 22
105.403461
 32
0.0
 13
242.999356
 23
105.403461
 33
0.0
  0
3DFACE
  8
0
  6
CONTINUOUS
 62
   249
 10
243.013076
 20
104.423461
 30
0.0
 11
243.026796
 21
104.423461
 31
0.0
 12
243.026796
 22
105.403461
 32
0.0
 13
243.013076
 23
105.403461
 33
0.0
  0
3DFACE
  8
0
  6
CONTINUOUS
 62
   249
 10
243.026796
 20
104.423461
 30
0.0
 11
243.040516
 21
104.423461
 31
0.0
 12
243.040516
 22
105.403461
 32
0.0
 13
243.026796
 23
105.403461
 33
0.0
  0
3DFACE
  8
0
  6
CONTINUOUS
 62
   249
 10
243.040516
 20
104.423461
 30
0.0
 11
243.054236
 21
104.423461
 31
0.0
 12
243.054236
 22
105.403461
 32
0.0
 13
243.040516
 23
105.403461
 33
0.0
  0
3DFACE
  8
0
  6
CONTINUOUS
 62
   249
 10
243.054236
 20
104.423461
 30
0.0
 11
243.067956
 21
104.423461
 31
0.0
 12
243.067956
 22
105.403461
 32
0.0
 13
243.054236
 23
105.403461
 33
0.0
  0
3DFACE
  8
0
  6
CONTINUOUS
 62
   249
 10
243.067956
 20
104.423461
 30
0.0
 11
243.081676
 21
104.423461
 31
0.0
 12
243.081676
 22
105.403461
 32
0.0
 13
243.067956
 23
105.403461
 33
0.0
  0
3DFACE
  8
0
  6
CONTINUOUS
 62
   249
 10
243.081676
 20
104.423461
 30
0.0
 11
243.095396
 21
104.423461
 31
0.0
 12
243.095396
 22
105.403461
 32
0.0
 13
243.081676
 23
105.403461
 33
0.0
  0
3DFACE
  8
0
  6
CONTINUOUS
 62
   249
 10
243.095396
 20
104.423461
 30
0.0
 11
243.109116
 21
104.423461
 31
0.0
 12
243.109116
 22
105.403461
 32
0.0
 13
243.095396
 23
105.403461
 33
0.0
  0
3DFACE
  8
0
  6
CONTINUOUS
 62
   249
 10
243.109116
 20
104.423461
 30
0.0
 11
243.122836
 21
104.423461
 31
0.0
 12
243.122836
 22
105.403461
 32
0.0
 13
243.109116
 23
105.403461
 33
0.0
  0
3DFACE
  8
0
  6
CONTINUOUS
 62
   249
 10
243.122836
 20
104.423461
 30
0.0
 11
243.136556
 21
104.423461
 31
0.0
 12
243.136556
 22
105.403461
 32
0.0
 13
243.122836
 23
105.403461
 33
0.0
  0
3DFACE
  8
0
  6
CONTINUOUS
 62
   249
 10
243.136556
 20
104.423461
 30
0.0
 11
243.150276
 21
104.423461
 31
0.0
 12
243.150276
 22
105.403461
 32
0.0
 13
243.136556
 23
105.403461
 33
0.0
  0
3DFACE
  8
0
  6
CONTINUOUS
 62
   249
 10
243.150276
 20
104.423461
 30
0.0
 11
243.163996
 21
104.423461
 31
0.0
 12
243.163996
 22
105.403461
 32
0.0
 13
243.150276
 23
105.403461
 33
0.0
  0
3DFACE
  8
0
  6
CONTINUOUS
 62
   249
 10
243.163996
 20
104.423461
 30
0.0
 11
243.177716
 21
104.423461
 31
0.0
 12
243.177716
 22
105.403461
 32
0.0
 13
243.163996
 23
105.403461
 33
0.0
  0
3DFACE
  8
0
  6
CONTINUOUS
 62
   249
 10
243.177716
 20
104.423461
 30
0.0
 11
243.191436
 21
104.423461
 31
0.0
 12
243.191436
 22
105.403461
 32
0.0
 13
243.177716
 23
105.403461
 33
0.0
  0
3DFACE
  8
0
  6
CONTINUOUS
 62
   249
 10
243.191436
 20
104.423461
 30
0.0
 11
243.205156
 21
104.423461
 31
0.0
 12
243.205156
 22
105.403461
 32
0.0
 13
243.191436
 23
105.403461
 33
0.0
  0
3DFACE
  8
0
  6
CONTINUOUS
 62
   249
 10
243.205156
 20
104.423461
 30
0.0
 11
243.218876
 21
104.423461
 31
0.0
 12
243.218876
 22
105.403461
 32
0.0
 13
243.205156
 23
105.403461
 33
0.0
  0
3DFACE
  8
0
  6
CONTINUOUS
 62
   249
 10
243.218876
 20
104.423461
 30
0.0
 11
243.232596
 21
104.423461
 31
0.0
 12
243.232596
 22
105.403461
 32
0.0
 13
243.218876
 23
105.403461
 33
0.0
  0
3DFACE
  8
0
  6
CONTINUOUS
 62
   249
 10
243.232596
 20
104.423461
 30
0.0
 11
243.246316
 21
104.423461
 31
0.0
 12
243.246316
 22
105.403461
 32
0.0
 13
243.232596
 23
105.403461
 33
0.0
  0
3DFACE
  8
0
  6
CONTINUOUS
 62
   249
 10
243.246316
 20
104.423461
 30
0.0
 11
243.260036
 21
104.423461
 31
0.0
 12
243.260036
 22
105.403461
 32
0.0
 13
243.246316
 23
105.403461
 33
0.0
  0
3DFACE
  8
0
  6
CONTINUOUS
 62
   249
 10
243.260036
 20
104.423461
 30
0.0
 11
243.273756
 21
104.423461
 31
0.0
 12
243.273756
 22
105.403461
 32
0.0
 13
243.260036
 23
105.403461
 33
0.0
  0
3DFACE
  8
0
  6
CONTINUOUS
 62
   249
 10
243.273756
 20
104.423461
 30
0.0
 11
243.287476
 21
104.423461
 31
0.0
 12
243.287476
 22
105.403461
 32
0.0
 13
243.273756
 23
105.403461
 33
0.0
  0
3DFACE
  8
0
  6
CONTINUOUS
 62
   249
 10
243.287476
 20
104.423461
 30
0.0
 11
243.301196
 21
104.423461
 31
0.0
 12
243.301196
 22
105.403461
 32
0.0
 13
243.287476
 23
105.403461
 33
0.0
  0
3DFACE
  8
0
  6
CONTINUOUS
 62
   249
 10
243.301196
 20
104.423461
 30
0.0
 11
243.314916
 21
104.423461
 31
0.0
 12
243.314916
 22
105.403461
 32
0.0
 13
243.301196
 23
105.403461
 33
0.0
  0
3DFACE
  8
0
  6
CONTINUOUS
 62
   249
 10
243.314916
 20
104.423461
 30
0.0
 11
243.328636
 21
104.423461
 31
0.0
 12
243.328636
 22
105.403461
 32
0.0
 13
243.314916
 23
105.403461
 33
0.0
  0
3DFACE
  8
0
  6
CONTINUOUS
 62
   249
 10
243.328636
 20
104.423461
 30
0.0
 11
243.342356
 21
104.423461
 31
0.0
 12
243.342356
 22
105.403461
 32
0.0
 13
243.328636
 23
105.403461
 33
0.0
  0
3DFACE
  8
0
  6
CONTINUOUS
 62
   249
 10
243.342356
 20
104.423461
 30
0.0
 11
243.356076
 21
104.423461
 31
0.0
 12
243.356076
 22
105.403461
 32
0.0
 13
243.342356
 23
105.403461
 33
0.0
  0
3DFACE
  8
0
  6
CONTINUOUS
 62
   249
 10
243.356076
 20
104.423461
 30
0.0
 11
243.369796
 21
104.423461
 31
0.0
 12
243.369796
 22
105.403461
 32
0.0
 13
243.356076
 23
105.403461
 33
0.0
  0
3DFACE
  8
0
  6
CONTINUOUS
 62
   249
 10
243.369796
 20
104.423461
 30
0.0
 11
243.383516
 21
104.423461
 31
0.0
 12
243.383516
 22
105.403461
 32
0.0
 13
243.369796
 23
105.403461
 33
0.0
  0
3DFACE
  8
0
  6
CONTINUOUS
 62
   249
 10
243.383516
 20
104.423461
 30
0.0
 11
243.397236
 21
104.423461
 31
0.0
 12
243.397236
 22
105.403461
 32
0.0
 13
243.383516
 23
105.403461
 33
0.0
  0
3DFACE
  8
0
  6
CONTINUOUS
 62
   249
 10
243.397236
 20
104.423461
 30
0.0
 11
243.410956
 21
104.423461
 31
0.0
 12
243.410956
 22
105.403461
 32
0.0
 13
243.397236
 23
105.403461
 33
0.0
  0
3DFACE
  8
0
  6
CONTINUOUS
 62
   249
 10
243.410956
 20
104.423461
 30
0.0
 11
243.424676
 21
104.423461
 31
0.0
 12
243.424676
 22
105.403461
 32
0.0
 13
243.410956
 23
105.403461
 33
0.0
  0
3DFACE
  8
0
  6
CONTINUOUS
 62
   249
 10
243.424676
 20
104.423461
 30
0.0
 11
243.438396
 21
104.423461
 31
0.0
 12
243.438396
 22
105.403461
 32
0.0
 13
243.424676
 23
105.403461
 33
0.0
  0
3DFACE
  8
0
  6
CONTINUOUS
 62
   249
 10
243.438396
 20
104.423461
 30
0.0
 11
243.452116
 21
104.423461
 31
0.0
 12
243.452116
 22
105.403461
 32
0.0
 13
243.438396
 23
105.403461
 33
0.0
  0
3DFACE
  8
0
  6
CONTINUOUS
 62
   249
 10
243.452116
 20
104.423461
 30
0.0
 11
243.465836
 21
104.423461
 31
0.0
 12
243.465836
 22
105.403461
 32
0.0
 13
243.452116
 23
105.403461
 33
0.0
  0
3DFACE
  8
0
  6
CONTINUOUS
 62
   249
 10
243.465836
 20
104.423461
 30
0.0
 11
243.479556
 21
104.423461
 31
0.0
 12
243.479556
 22
105.403461
 32
0.0
 13
243.465836
 23
105.403461
 33
0.0
  0
3DFACE
  8
0
  6
CONTINUOUS
 62
   249
 10
243.479556
 20
104.423461
 30
0.0
 11
243.493276
 21
104.423461
 31
0.0
 12
243.493276
 22
105.403461
 32
0.0
 13
243.479556
 23
105.403461
 33
0.0
  0
3DFACE
  8
0
  6
CONTINUOUS
 62
   249
 10
243.493276
 20
104.423461
 30
0.0
 11
243.506996
 21
104.423461
 31
0.0
 12
243.506996
 22
105.403461
 32
0.0
 13
243.493276
 23
105.403461
 33
0.0
  0
3DFACE
  8
0
  6
CONTINUOUS
 62
   249
 10
243.506996
 20
104.423461
 30
0.0
 11
243.520716
 21
104.423461
 31
0.0
 12
243.520716
 22
105.403461
 32
0.0
 13
243.506996
 23
105.403461
 33
0.0
  0
3DFACE
  8
0
  6
CONTINUOUS
 62
   249
 10
243.520716
 20
104.423461
 30
0.0
 11
243.534436
 21
104.423461
 31
0.0
 12
243.534436
 22
105.403461
 32
0.0
 13
243.520716
 23
105.403461
 33
0.0
  0
3DFACE
  8
0
  6
CONTINUOUS
 62
   249
 10
243.534436
 20
104.423461
 30
0.0
 11
243.548156
 21
104.423461
 31
0.0
 12
243.548156
 22
105.403461
 32
0.0
 13
243.534436
 23
105.403461
 33
0.0
  0
3DFACE
  8
0
  6
CONTINUOUS
 62
   249
 10
243.548156
 20
104.423461
 30
0.0
 11
243.561876
 21
104.423461
 31
0.0
 12
243.561876
 22
105.403461
 32
0.0
 13
243.548156
 23
105.403461
 33
0.0
  0
3DFACE
  8
0
  6
CONTINUOUS
 62
   249
 10
243.561876
 20
104.423461
 30
0.0
 11
243.575596
 21
104.423461
 31
0.0
 12
243.575596
 22
105.403461
 32
0.0
 13
243.561876
 23
105.403461
 33
0.0
  0
3DFACE
  8
0
  6
CONTINUOUS
 62
   249
 10
243.575596
 20
104.423461
 30
0.0
 11
243.589316
 21
104.423461
 31
0.0
 12
243.589316
 22
105.403461
 32
0.0
 13
243.575596
 23
105.403461
 33
0.0
  0
3DFACE
  8
0
  6
CONTINUOUS
 62
   249
 10
243.589316
 20
104.423461
 30
0.0
 11
243.603036
 21
104.423461
 31
0.0
 12
243.603036
 22
105.403461
 32
0.0
 13
243.589316
 23
105.403461
 33
0.0
  0
3DFACE
  8
0
  6
CONTINUOUS
 62
   249
 10
243.603036
 20
104.423461
 30
0.0
 11
243.616756
 21
104.423461
 31
0.0
 12
243.616756
 22
105.403461
 32
0.0
 13
243.603036
 23
105.403461
 33
0.0
  0
3DFACE
  8
0
  6
CONTINUOUS
 62
   249
 10
243.616756
 20
104.423461
 30
0.0
 11
243.630476
 21
104.423461
 31
0.0
 12
243.630476
 22
105.403461
 32
0.0
 13
243.616756
 23
105.403461
 33
0.0
  0
3DFACE
  8
0
  6
CONTINUOUS
 62
   249
 10
243.630476
 20
104.423461
 30
0.0
 11
243.644196
 21
104.423461
 31
0.0
 12
243.644196
 22
105.403461
 32
0.0
 13
243.630476
 23
105.403461
 33
0.0
  0
3DFACE
  8
0
  6
CONTINUOUS
 62
   249
 10
243.644196
 20
104.423461
 30
0.0
 11
243.657916
 21
104.423461
 31
0.0
 12
243.657916
 22
105.403461
 32
0.0
 13
243.644196
 23
105.403461
 33
0.0
  0
3DFACE
  8
0
  6
CONTINUOUS
 62
   249
 10
243.657916
 20
104.423461
 30
0.0
 11
243.671636
 21
104.423461
 31
0.0
 12
243.671636
 22
105.403461
 32
0.0
 13
243.657916
 23
105.403461
 33
0.0
  0
3DFACE
  8
0
  6
CONTINUOUS
 62
   249
 10
243.671636
 20
104.423461
 30
0.0
 11
243.685356
 21
104.423461
 31
0.0
 12
243.685356
 22
105.403461
 32
0.0
 13
243.671636
 23
105.403461
 33
0.0
  0
3DFACE
  8
0
  6
CONTINUOUS
 62
   249
 10
243.685356
 20
104.423461
 30
0.0
 11
243.699076
 21
104.423461
 31
0.0
 12
243.699076
 22
105.403461
 32
0.0
 13
243.685356
 23
105.403461
 33
0.0
  0
3DFACE
  8
0
  6
CONTINUOUS
 62
   249
 10
243.699076
 20
104.423461
 30
0.0
 11
243.712796
 21
104.423461
 31
0.0
 12
243.712796
 22
105.403461
 32
0.0
 13
243.699076
 23
105.403461
 33
0.0
  0
3DFACE
  8
0
  6
CONTINUOUS
 62
   249
 10
243.712796
 20
104.423461
 30
0.0
 11
243.726516
 21
104.423461
 31
0.0
 12
243.726516
 22
105.403461
 32
0.0
 13
243.712796
 23
105.403461
 33
0.0
  0
3DFACE
  8
0
  6
CONTINUOUS
 62
   249
 10
243.726516
 20
104.423461
 30
0.0
 11
243.740236
 21
104.423461
 31
0.0
 12
243.740236
 22
105.403461
 32
0.0
 13
243.726516
 23
105.403461
 33
0.0
  0
3DFACE
  8
0
  6
CONTINUOUS
 62
   249
 10
243.740236
 20
104.423461
 30
0.0
 11
243.753956
 21
104.423461
 31
0.0
 12
243.753956
 22
105.403461
 32
0.0
 13
243.740236
 23
105.403461
 33
0.0
  0
3DFACE
  8
0
  6
CONTINUOUS
 62
   249
 10
243.753956
 20
104.423461
 30
0.0
 11
243.767676
 21
104.423461
 31
0.0
 12
243.767676
 22
105.403461
 32
0.0
 13
243.753956
 23
105.403461
 33
0.0
  0
3DFACE
  8
0
  6
CONTINUOUS
 62
   249
 10
243.767676
 20
104.423461
 30
0.0
 11
243.781396
 21
104.423461
 31
0.0
 12
243.781396
 22
105.403461
 32
0.0
 13
243.767676
 23
105.403461
 33
0.0
  0
3DFACE
  8
0
  6
CONTINUOUS
 62
   249
 10
243.781396
 20
104.423461
 30
0.0
 11
243.795116
 21
104.423461
 31
0.0
 12
243.795116
 22
105.403461
 32
0.0
 13
243.781396
 23
105.403461
 33
0.0
  0
3DFACE
  8
0
  6
CONTINUOUS
 62
   249
 10
243.795116
 20
104.423461
 30
0.0
 11
243.808836
 21
104.423461
 31
0.0
 12
243.808836
 22
105.403461
 32
0.0
 13
243.795116
 23
105.403461
 33
0.0
  0
3DFACE
  8
0
  6
CONTINUOUS
 62
   249
 10
243.808836
 20
104.423461
 30
0.0
 11
243.822556
 21
104.423461
 31
0.0
 12
243.822556
 22
105.403461
 32
0.0
 13
243.808836
 23
105.403461
 33
0.0
  0
3DFACE
  8
0
  6
CONTINUOUS
 62
   249
 10
243.822556
 20
104.423461
 30
0.0
 11
243.836276
 21
104.423461
 31
0.0
 12
243.836276
 22
105.403461
 32
0.0
 13
243.822556
 23
105.403461
 33
0.0
  0
3DFACE
  8
0
  6
CONTINUOUS
 62
   249
 10
243.836276
 20
104.423461
 30
0.0
 11
243.849996
 21
104.423461
 31
0.0
 12
243.849996
 22
105.403461
 32
0.0
 13
243.836276
 23
105.403461
 33
0.0
  0
3DFACE
  8
0
  6
CONTINUOUS
 62
   249
 10
243.849996
 20
104.423461
 30
0.0
 11
243.863716
 21
104.423461
 31
0.0
 12
243.863716
 22
105.403461
 32
0.0
 13
243.849996
 23
105.403461
 33
0.0
  0
3DFACE
  8
0
  6
CONTINUOUS
 62
   249
 10
243.863716
 20
104.423461
 30
0.0
 11
243.877436
 21
104.423461
 31
0.0
 12
243.877436
 22
105.403461
 32
0.0
 13
243.863716
 23
105.403461
 33
0.0
  0
3DFACE
  8
0
  6
CONTINUOUS
 62
   249
 10
243.877436
 20
104.423461
 30
0.0
 11
243.891156
 21
104.423461
 31
0.0
 12
243.891156
 22
105.403461
 32
0.0
 13
243.877436
 23
105.403461
 33
0.0
  0
3DFACE
  8
0
  6
CONTINUOUS
 62
   249
 10
243.891156
 20
104.423461
 30
0.0
 11
243.904876
 21
104.423461
 31
0.0
 12
243.904876
 22
105.403461
 32
0.0
 13
243.891156
 23
105.403461
 33
0.0
  0
3DFACE
  8
0
  6
CONTINUOUS
 62
   249
 10
243.904876
 20
104.423461
 30
0.0
 11
243.918596
 21
104.423461
 31
0.0
 12
243.918596
 22
105.403461
 32
0.0
 13
243.904876
 23
105.403461
 33
0.0
  0
3DFACE
  8
0
  6
CONTINUOUS
 62
   249
 10
243.918596
 20
104.423461
 30
0.0
 11
243.932316
 21
104.423461
 31
0.0
 12
243.932316
 22
105.403461
 32
0.0
 13
243.918596
 23
105.403461
 33
0.0
  0
3DFACE
  8
0
  6
CONTINUOUS
 62
   249
 10
243.932316
 20
104.423461
 30
0.0
 11
243.946036
 21
104.423461
 31
0.0
 12
243.946036
 22
105.403461
 32
0.0
 13
243.932316
 23
105.403461
 33
0.0
  0
3DFACE
  8
0
  6
CONTINUOUS
 62
   249
 10
243.946036
 20
104.423461
 30
0.0
 11
243.959756
 21
104.423461
 31
0.0
 12
243.959756
 22
105.403461
 32
0.0
 13
243.946036
 23
105.403461
 33
0.0
  0
3DFACE
  8
0
  6
CONTINUOUS
 62
   249
 10
243.959756
 20
104.423461
 30
0.0
 11
243.973476
 21
104.423461
 31
0.0
 12
243.973476
 22
105.403461
 32
0.0
 13
243.959756
 23
105.403461
 33
0.0
  0
3DFACE
  8
0
  6
CONTINUOUS
 62
   249
 10
243.973476
 20
104.423461
 30
0.0
 11
243.987196
 21
104.423461
 31
0.0
 12
243.987196
 22
105.403461
 32
0.0
 13
243.973476
 23
105.403461
 33
0.0
  0
3DFACE
  8
0
  6
CONTINUOUS
 62
   249
 10
243.987196
 20
104.423461
 30
0.0
 11
244.000916
 21
104.423461
 31
0.0
 12
244.000916
 22
105.403461
 32
0.0
 13
243.987196
 23
105.403461
 33
0.0
  0
3DFACE
  8
0
  6
CONTINUOUS
 62
   249
 10
244.000916
 20
104.423461
 30
0.0
 11
244.014636
 21
104.423461
 31
0.0
 12
244.014636
 22
105.403461
 32
0.0
 13
244.000916
 23
105.403461
 33
0.0
  0
3DFACE
  8
0
  6
CONTINUOUS
 62
   249
 10
244.014636
 20
104.423461
 30
0.0
 11
244.028356
 21
104.423461
 31
0.0
 12
244.028356
 22
105.403461
 32
0.0
 13
244.014636
 23
105.403461
 33
0.0
  0
3DFACE
  8
0
  6
CONTINUOUS
 62
   249
 10
244.028356
 20
104.423461
 30
0.0
 11
244.042076
 21
104.423461
 31
0.0
 12
244.042076
 22
105.403461
 32
0.0
 13
244.028356
 23
105.403461
 33
0.0
  0
3DFACE
  8
0
  6
CONTINUOUS
 62
   249
 10
244.042076
 20
104.423461
 30
0.0
 11
244.055796
 21
104.423461
 31
0.0
 12
244.055796
 22
105.403461
 32
0.0
 13
244.042076
 23
105.403461
 33
0.0
  0
3DFACE
  8
0
  6
CONTINUOUS
 62
   249
 10
244.055796
 20
104.423461
 30
0.0
 11
244.069516
 21
104.423461
 31
0.0
 12
244.069516
 22
105.403461
 32
0.0
 13
244.055796
 23
105.403461
 33
0.0
  0
3DFACE
  8
0
  6
CONTINUOUS
 62
   249
 10
244.069516
 20
104.423461
 30
0.0
 11
244.083236
 21
104.423461
 31
0.0
 12
244.083236
 22
105.403461
 32
0.0
 13
244.069516
 23
105.403461
 33
0.0
  0
3DFACE
  8
0
  6
CONTINUOUS
 62
   249
 10
244.083236
 20
104.423461
 30
0.0
 11
244.096956
 21
104.423461
 31
0.0
 12
244.096956
 22
105.403461
 32
0.0
 13
244.083236
 23
105.403461
 33
0.0
  0
3DFACE
  8
0
  6
CONTINUOUS
 62
   249
 10
244.096956
 20
104.423461
 30
0.0
 11
244.110676
 21
104.423461
 31
0.0
 12
244.110676
 22
105.403461
 32
0.0
 13
244.096956
 23
105.403461
 33
0.0
  0
3DFACE
  8
0
  6
CONTINUOUS
 62
   249
 10
244.110676
 20
104.423461
 30
0.0
 11
244.124396
 21
104.423461
 31
0.0
 12
244.124396
 22
105.403461
 32
0.0
 13
244.110676
 23
105.403461
 33
0.0
  0
3DFACE
  8
0
  6
CONTINUOUS
 62
   249
 10
244.124396
 20
104.423461
 30
0.0
 11
244.138116
 21
104.423461
 31
0.0
 12
244.138116
 22
105.403461
 32
0.0
 13
244.124396
 23
105.403461
 33
0.0
  0
3DFACE
  8
0
  6
CONTINUOUS
 62
   249
 10
244.138116
 20
104.423461
 30
0.0
 11
244.151836
 21
104.423461
 31
0.0
 12
244.151836
 22
105.403461
 32
0.0
 13
244.138116
 23
105.403461
 33
0.0
  0
3DFACE
  8
0
  6
CONTINUOUS
 62
   249
 10
244.151836
 20
104.423461
 30
0.0
 11
244.165556
 21
104.423461
 31
0.0
 12
244.165556
 22
105.403461
 32
0.0
 13
244.151836
 23
105.403461
 33
0.0
  0
3DFACE
  8
0
  6
CONTINUOUS
 62
   249
 10
244.165556
 20
104.423461
 30
0.0
 11
244.179276
 21
104.423461
 31
0.0
 12
244.179276
 22
105.403461
 32
0.0
 13
244.165556
 23
105.403461
 33
0.0
  0
3DFACE
  8
0
  6
CONTINUOUS
 62
   249
 10
244.179276
 20
104.423461
 30
0.0
 11
244.192996
 21
104.423461
 31
0.0
 12
244.192996
 22
105.403461
 32
0.0
 13
244.179276
 23
105.403461
 33
0.0
  0
3DFACE
  8
0
  6
CONTINUOUS
 62
   249
 10
244.192996
 20
104.423461
 30
0.0
 11
244.206716
 21
104.423461
 31
0.0
 12
244.206716
 22
105.403461
 32
0.0
 13
244.192996
 23
105.403461
 33
0.0
  0
3DFACE
  8
0
  6
CONTINUOUS
 62
   249
 10
244.206716
 20
104.423461
 30
0.0
 11
244.220436
 21
104.423461
 31
0.0
 12
244.220436
 22
105.403461
 32
0.0
 13
244.206716
 23
105.403461
 33
0.0
  0
3DFACE
  8
0
  6
CONTINUOUS
 62
   249
 10
244.220436
 20
104.423461
 30
0.0
 11
244.234156
 21
104.423461
 31
0.0
 12
244.234156
 22
105.403461
 32
0.0
 13
244.220436
 23
105.403461
 33
0.0
  0
3DFACE
  8
0
  6
CONTINUOUS
 62
   249
 10
244.234156
 20
104.423461
 30
0.0
 11
244.247876
 21
104.423461
 31
0.0
 12
244.247876
 22
105.403461
 32
0.0
 13
244.234156
 23
105.403461
 33
0.0
  0
3DFACE
  8
0
  6
CONTINUOUS
 62
   249
 10
244.247876
 20
104.423461
 30
0.0
 11
244.261596
 21
104.423461
 31
0.0
 12
244.261596
 22
105.403461
 32
0.0
 13
244.247876
 23
105.403461
 33
0.0
  0
3DFACE
  8
0
  6
CONTINUOUS
 62
   249
 10
244.261596
 20
104.423461
 30
0.0
 11
244.275316
 21
104.423461
 31
0.0
 12
244.275316
 22
105.403461
 32
0.0
 13
244.261596
 23
105.403461
 33
0.0
  0
3DFACE
  8
0
  6
CONTINUOUS
 62
   249
 10
244.275316
 20
104.423461
 30
0.0
 11
244.289036
 21
104.423461
 31
0.0
 12
244.289036
 22
105.403461
 32
0.0
 13
244.275316
 23
105.403461
 33
0.0
  0
3DFACE
  8
0
  6
CONTINUOUS
 62
   249
 10
244.289036
 20
104.423461
 30
0.0
 11
244.302756
 21
104.423461
 31
0.0
 12
244.302756
 22
105.403461
 32
0.0
 13
244.289036
 23
105.403461
 33
0.0
  0
3DFACE
  8
0
  6
CONTINUOUS
 62
   249
 10
244.302756
 20
104.423461
 30
0.0
 11
244.316476
 21
104.423461
 31
0.0
 12
244.316476
 22
105.403461
 32
0.0
 13
244.302756
 23
105.403461
 33
0.0
  0
3DFACE
  8
0
  6
CONTINUOUS
 62
   249
 10
244.316476
 20
104.423461
 30
0.0
 11
244.330196
 21
104.423461
 31
0.0
 12
244.330196
 22
105.403461
 32
0.0
 13
244.316476
 23
105.403461
 33
0.0
  0
3DFACE
  8
0
  6
CONTINUOUS
 62
   249
 10
244.330196
 20
104.423461
 30
0.0
 11
244.343916
 21
104.423461
 31
0.0
 12
244.343916
 22
105.403461
 32
0.0
 13
244.330196
 23
105.403461
 33
0.0
  0
3DFACE
  8
0
  6
CONTINUOUS
 62
   249
 10
244.343916
 20
104.423461
 30
0.0
 11
244.357636
 21
104.423461
 31
0.0
 12
244.357636
 22
105.403461
 32
0.0
 13
244.343916
 23
105.403461
 33
0.0
  0
3DFACE
  8
0
  6
CONTINUOUS
 62
   249
 10
244.357636
 20
104.423461
 30
0.0
 11
244.371356
 21
104.423461
 31
0.0
 12
244.371356
 22
105.403461
 32
0.0
 13
244.357636
 23
105.403461
 33
0.0
  0
3DFACE
  8
0
  6
CONTINUOUS
 62
   249
 10
244.371356
 20
104.423461
 30
0.0
 11
244.385076
 21
104.423461
 31
0.0
 12
244.385076
 22
105.403461
 32
0.0
 13
244.371356
 23
105.403461
 33
0.0
  0
3DFACE
  8
0
  6
CONTINUOUS
 62
   249
 10
244.385076
 20
104.423461
 30
0.0
 11
244.398796
 21
104.423461
 31
0.0
 12
244.398796
 22
105.403461
 32
0.0
 13
244.385076
 23
105.403461
 33
0.0
  0
3DFACE
  8
0
  6
CONTINUOUS
 62
   249
 10
244.398796
 20
104.423461
 30
0.0
 11
244.412516
 21
104.423461
 31
0.0
 12
244.412516
 22
105.403461
 32
0.0
 13
244.398796
 23
105.403461
 33
0.0
  0
3DFACE
  8
0
  6
CONTINUOUS
 62
   249
 10
244.412516
 20
104.423461
 30
0.0
 11
244.426236
 21
104.423461
 31
0.0
 12
244.426236
 22
105.403461
 32
0.0
 13
244.412516
 23
105.403461
 33
0.0
  0
3DFACE
  8
0
  6
CONTINUOUS
 62
   249
 10
244.426236
 20
104.423461
 30
0.0
 11
244.439956
 21
104.423461
 31
0.0
 12
244.439956
 22
105.403461
 32
0.0
 13
244.426236
 23
105.403461
 33
0.0
  0
3DFACE
  8
0
  6
CONTINUOUS
 62
   249
 10
244.439956
 20
104.423461
 30
0.0
 11
244.453676
 21
104.423461
 31
0.0
 12
244.453676
 22
105.403461
 32
0.0
 13
244.439956
 23
105.403461
 33
0.0
  0
3DFACE
  8
0
  6
CONTINUOUS
 62
   249
 10
244.453676
 20
104.423461
 30
0.0
 11
244.467396
 21
104.423461
 31
0.0
 12
244.467396
 22
105.403461
 32
0.0
 13
244.453676
 23
105.403461
 33
0.0
  0
3DFACE
  8
0
  6
CONTINUOUS
 62
   249
 10
244.467396
 20
104.423461
 30
0.0
 11
244.481116
 21
104.423461
 31
0.0
 12
244.481116
 22
105.403461
 32
0.0
 13
244.467396
 23
105.403461
 33
0.0
  0
3DFACE
  8
0
  6
CONTINUOUS
 62
   249
 10
244.481116
 20
104.423461
 30
0.0
 11
244.494836
 21
104.423461
 31
0.0
 12
244.494836
 22
105.403461
 32
0.0
 13
244.481116
 23
105.403461
 33
0.0
  0
3DFACE
  8
0
  6
CONTINUOUS
 62
   249
 10
244.494836
 20
104.423461
 30
0.0
 11
244.508556
 21
104.423461
 31
0.0
 12
244.508556
 22
105.403461
 32
0.0
 13
244.494836
 23
105.403461
 33
0.0
  0
3DFACE
  8
0
  6
CONTINUOUS
 62
   249
 10
244.508556
 20
104.423461
 30
0.0
 11
244.522276
 21
104.423461
 31
0.0
 12
244.522276
 22
105.403461
 32
0.0
 13
244.508556
 23
105.403461
 33
0.0
  0
3DFACE
  8
0
  6
CONTINUOUS
 62
   249
 10
244.522276
 20
104.423461
 30
0.0
 11
244.535996
 21
104.423461
 31
0.0
 12
244.535996
 22
105.403461
 32
0.0
 13
244.522276
 23
105.403461
 33
0.0
  0
3DFACE
  8
0
  6
CONTINUOUS
 62
   249
 10
244.535996
 20
104.423461
 30
0.0
 11
244.549716
 21
104.423461
 31
0.0
 12
244.549716
 22
105.403461
 32
0.0
 13
244.535996
 23
105.403461
 33
0.0
  0
3DFACE
  8
0
  6
CONTINUOUS
 62
   249
 10
244.549716
 20
104.423461
 30
0.0
 11
244.563436
 21
104.423461
 31
0.0
 12
244.563436
 22
105.403461
 32
0.0
 13
244.549716
 23
105.403461
 33
0.0
  0
3DFACE
  8
0
  6
CONTINUOUS
 62
   249
 10
244.563436
 20
104.423461
 30
0.0
 11
244.577156
 21
104.423461
 31
0.0
 12
244.577156
 22
105.403461
 32
0.0
 13
244.563436
 23
105.403461
 33
0.0
  0
3DFACE
  8
0
  6
CONTINUOUS
 62
   249
 10
244.577156
 20
104.423461
 30
0.0
 11
244.590876
 21
104.423461
 31
0.0
 12
244.590876
 22
105.403461
 32
0.0
 13
244.577156
 23
105.403461
 33
0.0
  0
3DFACE
  8
0
  6
CONTINUOUS
 62
   249
 10
244.590876
 20
104.423461
 30
0.0
 11
244.604596
 21
104.423461
 31
0.0
 12
244.604596
 22
105.403461
 32
0.0
 13
244.590876
 23
105.403461
 33
0.0
  0
3DFACE
  8
0
  6
CONTINUOUS
 62
   249
 10
244.604596
 20
104.423461
 30
0.0
 11
244.618316
 21
104.423461
 31
0.0
 12
244.618316
 22
105.403461
 32
0.0
 13
244.604596
 23
105.403461
 33
0.0
  0
3DFACE
  8
0
  6
CONTINUOUS
 62
   249
 10
244.618316
 20
104.423461
 30
0.0
 11
244.632036
 21
104.423461
 31
0.0
 12
244.632036
 22
105.403461
 32
0.0
 13
244.618316
 23
105.403461
 33
0.0
  0
3DFACE
  8
0
  6
CONTINUOUS
 62
   249
 10
244.632036
 20
104.423461
 30
0.0
 11
244.645756
 21
104.423461
 31
0.0
 12
244.645756
 22
105.403461
 32
0.0
 13
244.632036
 23
105.403461
 33
0.0
  0
3DFACE
  8
0
  6
CONTINUOUS
 62
   249
 10
244.645756
 20
104.423461
 30
0.0
 11
244.659476
 21
104.423461
 31
0.0
 12
244.659476
 22
105.403461
 32
0.0
 13
244.645756
 23
105.403461
 33
0.0
  0
3DFACE
  8
0
  6
CONTINUOUS
 62
   249
 10
244.659476
 20
104.423461
 30
0.0
 11
244.673196
 21
104.423461
 31
0.0
 12
244.673196
 22
105.403461
 32
0.0
 13
244.659476
 23
105.403461
 33
0.0
  0
3DFACE
  8
0
  6
CONTINUOUS
 62
   249
 10
244.673196
 20
104.423461
 30
0.0
 11
244.686916
 21
104.423461
 31
0.0
 12
244.686916
 22
105.403461
 32
0.0
 13
244.673196
 23
105.403461
 33
0.0
  0
3DFACE
  8
0
  6
CONTINUOUS
 62
   249
 10
244.686916
 20
104.423461
 30
0.0
 11
244.700636
 21
104.423461
 31
0.0
 12
244.700636
 22
105.403461
 32
0.0
 13
244.686916
 23
105.403461
 33
0.0
  0
3DFACE
  8
0
  6
CONTINUOUS
 62
   249
 10
244.700636
 20
104.423461
 30
0.0
 11
244.714356
 21
104.423461
 31
0.0
 12
244.714356
 22
105.403461
 32
0.0
 13
244.700636
 23
105.403461
 33
0.0
  0
3DFACE
  8
0
  6
CONTINUOUS
 62
   249
 10
244.714356
 20
104.423461
 30
0.0
 11
244.728076
 21
104.423461
 31
0.0
 12
244.728076
 22
105.403461
 32
0.0
 13
244.714356
 23
105.403461
 33
0.0
  0
3DFACE
  8
0
  6
CONTINUOUS
 62
   249
 10
244.728076
 20
104.423461
 30
0.0
 11
244.741796
 21
104.423461
 31
0.0
 12
244.741796
 22
105.403461
 32
0.0
 13
244.728076
 23
105.403461
 33
0.0
  0
3DFACE
  8
0
  6
CONTINUOUS
 62
   249
 10
244.741796
 20
104.423461
 30
0.0
 11
244.755516
 21
104.423461
 31
0.0
 12
244.755516
 22
105.403461
 32
0.0
 13
244.741796
 23
105.403461
 33
0.0
  0
3DFACE
  8
0
  6
CONTINUOUS
 62
   249
 10
244.755516
 20
104.423461
 30
0.0
 11
244.769236
 21
104.423461
 31
0.0
 12
244.769236
 22
105.403461
 32
0.0
 13
244.755516
 23
105.403461
 33
0.0
  0
3DFACE
  8
0
  6
CONTINUOUS
 62
   249
 10
244.769236
 20
104.423461
 30
0.0
 11
244.782956
 21
104.423461
 31
0.0
 12
244.782956
 22
105.403461
 32
0.0
 13
244.769236
 23
105.403461
 33
0.0
  0
3DFACE
  8
0
  6
CONTINUOUS
 62
   249
 10
244.782956
 20
104.423461
 30
0.0
 11
244.796676
 21
104.423461
 31
0.0
 12
244.796676
 22
105.403461
 32
0.0
 13
244.782956
 23
105.403461
 33
0.0
  0
3DFACE
  8
0
  6
CONTINUOUS
 62
   249
 10
244.796676
 20
104.423461
 30
0.0
 11
244.810396
 21
104.423461
 31
0.0
 12
244.810396
 22
105.403461
 32
0.0
 13
244.796676
 23
105.403461
 33
0.0
  0
3DFACE
  8
0
  6
CONTINUOUS
 62
   249
 10
244.810396
 20
104.423461
 30
0.0
 11
244.824116
 21
104.423461
 31
0.0
 12
244.824116
 22
105.403461
 32
0.0
 13
244.810396
 23
105.403461
 33
0.0
  0
3DFACE
  8
0
  6
CONTINUOUS
 62
   249
 10
244.824116
 20
104.423461
 30
0.0
 11
244.837836
 21
104.423461
 31
0.0
 12
244.837836
 22
105.403461
 32
0.0
 13
244.824116
 23
105.403461
 33
0.0
  0
3DFACE
  8
0
  6
CONTINUOUS
 62
   249
 10
244.837836
 20
104.423461
 30
0.0
 11
244.851556
 21
104.423461
 31
0.0
 12
244.851556
 22
105.403461
 32
0.0
 13
244.837836
 23
105.403461
 33
0.0
  0
3DFACE
  8
0
  6
CONTINUOUS
 62
   249
 10
244.851556
 20
104.423461
 30
0.0
 11
244.865276
 21
104.423461
 31
0.0
 12
244.865276
 22
105.403461
 32
0.0
 13
244.851556
 23
105.403461
 33
0.0
  0
3DFACE
  8
0
  6
CONTINUOUS
 62
   249
 10
244.865276
 20
104.423461
 30
0.0
 11
244.878996
 21
104.423461
 31
0.0
 12
244.878996
 22
105.403461
 32
0.0
 13
244.865276
 23
105.403461
 33
0.0
  0
3DFACE
  8
0
  6
CONTINUOUS
 62
   249
 10
244.878996
 20
104.423461
 30
0.0
 11
244.892716
 21
104.423461
 31
0.0
 12
244.892716
 22
105.403461
 32
0.0
 13
244.878996
 23
105.403461
 33
0.0
  0
3DFACE
  8
0
  6
CONTINUOUS
 62
   249
 10
244.892716
 20
104.423461
 30
0.0
 11
244.906436
 21
104.423461
 31
0.0
 12
244.906436
 22
105.403461
 32
0.0
 13
244.892716
 23
105.403461
 33
0.0
  0
3DFACE
  8
0
  6
CONTINUOUS
 62
   249
 10
244.906436
 20
104.423461
 30
0.0
 11
244.920156
 21
104.423461
 31
0.0
 12
244.920156
 22
105.403461
 32
0.0
 13
244.906436
 23
105.403461
 33
0.0
  0
3DFACE
  8
0
  6
CONTINUOUS
 62
   249
 10
244.920156
 20
104.423461
 30
0.0
 11
244.933876
 21
104.423461
 31
0.0
 12
244.933876
 22
105.403461
 32
0.0
 13
244.920156
 23
105.403461
 33
0.0
  0
3DFACE
  8
0
  6
CONTINUOUS
 62
   249
 10
244.933876
 20
104.423461
 30
0.0
 11
244.947596
 21
104.423461
 31
0.0
 12
244.947596
 22
105.403461
 32
0.0
 13
244.933876
 23
105.403461
 33
0.0
  0
3DFACE
  8
0
  6
CONTINUOUS
 62
   249
 10
244.947596
 20
104.423461
 30
0.0
 11
244.961316
 21
104.423461
 31
0.0
 12
244.961316
 22
105.403461
 32
0.0
 13
244.947596
 23
105.403461
 33
0.0
  0
3DFACE
  8
0
  6
CONTINUOUS
 62
   249
 10
244.961316
 20
104.423461
 30
0.0
 11
244.975036
 21
104.423461
 31
0.0
 12
244.975036
 22
105.403461
 32
0.0
 13
244.961316
 23
105.403461
 33
0.0
  0
3DFACE
  8
0
  6
CONTINUOUS
 62
   249
 10
244.975036
 20
104.423461
 30
0.0
 11
244.988756
 21
104.423461
 31
0.0
 12
244.988756
 22
105.403461
 32
0.0
 13
244.975036
 23
105.403461
 33
0.0
  0
3DFACE
  8
0
  6
CONTINUOUS
 62
   249
 10
244.988756
 20
104.423461
 30
0.0
 11
245.002476
 21
104.423461
 31
0.0
 12
245.002476
 22
105.403461
 32
0.0
 13
244.988756
 23
105.403461
 33
0.0
  0
3DFACE
  8
0
  6
CONTINUOUS
 62
   249
 10
245.002476
 20
104.423461
 30
0.0
 11
245.016196
 21
104.423461
 31
0.0
 12
245.016196
 22
105.403461
 32
0.0
 13
245.002476
 23
105.403461
 33
0.0
  0
3DFACE
  8
0
  6
CONTINUOUS
 62
   249
 10
245.016196
 20
104.423461
 30
0.0
 11
245.029916
 21
104.423461
 31
0.0
 12
245.029916
 22
105.403461
 32
0.0
 13
245.016196
 23
105.403461
 33
0.0
  0
3DFACE
  8
0
  6
CONTINUOUS
 62
   249
 10
245.029916
 20
104.423461
 30
0.0
 11
245.043636
 21
104.423461
 31
0.0
 12
245.043636
 22
105.403461
 32
0.0
 13
245.029916
 23
105.403461
 33
0.0
  0
3DFACE
  8
0
  6
CONTINUOUS
 62
   249
 10
245.043636
 20
104.423461
 30
0.0
 11
245.057356
 21
104.423461
 31
0.0
 12
245.057356
 22
105.403461
 32
0.0
 13
245.043636
 23
105.403461
 33
0.0
  0
3DFACE
  8
0
  6
CONTINUOUS
 62
   249
 10
245.057356
 20
104.423461
 30
0.0
 11
245.071076
 21
104.423461
 31
0.0
 12
245.071076
 22
105.403461
 32
0.0
 13
245.057356
 23
105.403461
 33
0.0
  0
3DFACE
  8
0
  6
CONTINUOUS
 62
   249
 10
245.071076
 20
104.423461
 30
0.0
 11
245.084796
 21
104.423461
 31
0.0
 12
245.084796
 22
105.403461
 32
0.0
 13
245.071076
 23
105.403461
 33
0.0
  0
3DFACE
  8
0
  6
CONTINUOUS
 62
   249
 10
245.084796
 20
104.423461
 30
0.0
 11
245.098516
 21
104.423461
 31
0.0
 12
245.098516
 22
105.403461
 32
0.0
 13
245.084796
 23
105.403461
 33
0.0
  0
3DFACE
  8
0
  6
CONTINUOUS
 62
   249
 10
245.098516
 20
104.423461
 30
0.0
 11
245.112236
 21
104.423461
 31
0.0
 12
245.112236
 22
105.403461
 32
0.0
 13
245.098516
 23
105.403461
 33
0.0
  0
3DFACE
  8
0
  6
CONTINUOUS
 62
   249
 10
245.112236
 20
104.423461
 30
0.0
 11
245.125956
 21
104.423461
 31
0.0
 12
245.125956
 22
105.403461
 32
0.0
 13
245.112236
 23
105.403461
 33
0.0
  0
3DFACE
  8
0
  6
CONTINUOUS
 62
   249
 10
245.125956
 20
104.423461
 30
0.0
 11
245.139676
 21
104.423461
 31
0.0
 12
245.139676
 22
105.403461
 32
0.0
 13
245.125956
 23
105.403461
 33
0.0
  0
3DFACE
  8
0
  6
CONTINUOUS
 62
   249
 10
245.139676
 20
104.423461
 30
0.0
 11
245.153396
 21
104.423461
 31
0.0
 12
245.153396
 22
105.403461
 32
0.0
 13
245.139676
 23
105.403461
 33
0.0
  0
3DFACE
  8
0
  6
CONTINUOUS
 62
   249
 10
245.153396
 20
104.423461
 30
0.0
 11
245.167116
 21
104.423461
 31
0.0
 12
245.167116
 22
105.403461
 32
0.0
 13
245.153396
 23
105.403461
 33
0.0
  0
3DFACE
  8
0
  6
CONTINUOUS
 62
   249
 10
245.167116
 20
104.423461
 30
0.0
 11
245.180836
 21
104.423461
 31
0.0
 12
245.180836
 22
105.403461
 32
0.0
 13
245.167116
 23
105.403461
 33
0.0
  0
3DFACE
  8
0
  6
CONTINUOUS
 62
   249
 10
245.180836
 20
104.423461
 30
0.0
 11
245.194556
 21
104.423461
 31
0.0
 12
245.194556
 22
105.403461
 32
0.0
 13
245.180836
 23
105.403461
 33
0.0
  0
3DFACE
  8
0
  6
CONTINUOUS
 62
   249
 10
245.194556
 20
104.423461
 30
0.0
 11
245.208276
 21
104.423461
 31
0.0
 12
245.208276
 22
105.403461
 32
0.0
 13
245.194556
 23
105.403461
 33
0.0
  0
3DFACE
  8
0
  6
CONTINUOUS
 62
   249
 10
245.208276
 20
104.423461
 30
0.0
 11
245.221996
 21
104.423461
 31
0.0
 12
245.221996
 22
105.403461
 32
0.0
 13
245.208276
 23
105.403461
 33
0.0
  0
3DFACE
  8
0
  6
CONTINUOUS
 62
   249
 10
245.221996
 20
104.423461
 30
0.0
 11
245.235716
 21
104.423461
 31
0.0
 12
245.235716
 22
105.403461
 32
0.0
 13
245.221996
 23
105.403461
 33
0.0
  0
3DFACE
  8
0
  6
CONTINUOUS
 62
   249
 10
245.235716
 20
104.423461
 30
0.0
 11
245.249436
 21
104.423461
 31
0.0
 12
245.249436
 22
105.403461
 32
0.0
 13
245.235716
 23
105.403461
 33
0.0
  0
INSERT
  8
0
  6
CENTER
 62
   249
  2
BLC26
 10
281.414791
 20
214.890459
 30
0.0
 41
1.006225
 42
1.006225
 50
180.0
 43
1.006225
  0
LINE
  8
0
  6
CONTINUOUS
 62
   249
 10
213.465688
 20
138.664644
 30
0.0
 11
211.119923
 21
139.999998
 31
0.0
  0
LINE
  8
0
  6
CONTINUOUS
 62
   249
 10
211.119923
 20
139.999998
 30
0.0
 11
213.465688
 21
141.189917
 31
0.0
  0
LINE
  8
0
  6
CONTINUOUS
 62
   249
 10
201.050947
 20
211.164635
 30
0.0
 11
198.705182
 21
212.499989
 31
0.0
  0
LINE
  8
0
  6
CONTINUOUS
 62
   249
 10
198.705182
 20
212.499989
 30
0.0
 11
201.050947
 21
213.689908
 31
0.0
  0
ARC
  8
0
  6
DASHED
 62
   249
 10
247.5
 20
180.0
 30
0.0
 40
0.5
 50
180.0
 51
0.0
  0
ARC
  8
0
  6
DASHED
 62
   249
 10
247.5
 20
180.0
 30
0.0
 40
0.5
 50
0.0
 51
180.0
  0
ARC
  8
0
  6
DASHED
 62
   249
 10
287.5
 20
170.189984
 30
0.0
 40
0.5
 50
180.0
 51
0.0
  0
ARC
  8
0
  6
DASHED
 62
   249
 10
287.5
 20
170.189984
 30
0.0
 40
0.5
 50
0.0
 51
180.0
  0
ARC
  8
0
  6
CONTINUOUS
 62
   249
 10
297.5
 20
147.5
 30
0.0
 40
0.5
 50
180.0
 51
0.0
  0
ARC
  8
0
  6
CONTINUOUS
 62
   249
 10
297.5
 20
147.5
 30
0.0
 40
0.5
 50
0.0
 51
180.0
  0
ARC
  8
0
  6
DASHED
 62
   249
 10
287.5
 20
175.189984
 30
0.0
 40
0.5
 50
180.0
 51
0.0
  0
ARC
  8
0
  6
DASHED
 62
   249
 10
287.5
 20
175.189984
 30
0.0
 40
0.5
 50
0.0
 51
180.0
  0
ARC
  8
0
  6
DASHED
 62
   249
 10
278.247433
 20
212.499997
 30
0.0
 40
0.5
 50
180.0
 51
0.0
  0
ARC
  8
0
  6
DASHED
 62
   249
 10
278.247433
 20
212.499997
 30
0.0
 40
0.5
 50
0.0
 51
180.0
  0
INSERT
  8
0
  6
CENTER
 62
   249
  2
BLC26
 10
298.93164
 20
177.580445
 30
0.0
 41
1.006225
 42
1.006225
 50
180.0
 43
1.006225
  0
INSERT
  8
0
  6
CENTER
 62
   249
  2
BLC26
 10
293.910524
 20
187.580448
 30
0.0
 41
1.006225
 42
1.006225
 50
180.0
 43
1.006225
  0
ARC
  8
0
  6
DASHED
 62
   249
 10
297.5
 20
212.5
 30
0.0
 40
0.5
 50
180.0
 51
0.0
  0
ARC
  8
0
  6
DASHED
 62
   249
 10
297.5
 20
212.5
 30
0.0
 40
0.5
 50
0.0
 51
180.0
  0
ARC
  8
0
  6
DASHED
 62
   249
 10
292.483157
 20
217.310016
 30
0.0
 40
0.5
 50
180.0
 51
0.0
  0
ARC
  8
0
  6
DASHED
 62
   249
 10
292.483157
 20
217.310016
 30
0.0
 40
0.5
 50
0.0
 51
180.0
  0
LINE
  8
0
  6
CONTINUOUS
 62
   249
 10
353.828447
 20
214.380303
 30
0.0
 11
354.288972
 21
214.929135
 31
0.0
  0
LINE
  8
0
  6
CONTINUOUS
 62
   249
 10
353.818636
 20
214.384169
 30
0.0
 11
354.269644
 21
214.921659
 31
0.0
  0
LINE
  8
0
  6
CONTINUOUS
 62
   249
 10
353.808826
 20
214.388034
 30
0.0
 11
354.250317
 21
214.914182
 31
0.0
  0
LINE
  8
0
  6
CONTINUOUS
 62
   249
 10
353.799016
 20
214.3919
 30
0.0
 11
354.230989
 21
214.906706
 31
0.0
  0
LINE
  8
0
  6
CONTINUOUS
 62
   249
 10
353.789206
 20
214.395766
 30
0.0
 11
354.211661
 21
214.899229
 31
0.0
  0
LINE
  8
0
  6
CONTINUOUS
 62
   249
 10
353.779396
 20
214.399632
 30
0.0
 11
354.192334
 21
214.891752
 31
0.0
  0
LINE
  8
0
  6
CONTINUOUS
 62
   249
 10
353.769585
 20
214.403498
 30
0.0
 11
354.173006
 21
214.884276
 31
0.0
  0
LINE
  8
0
  6
CONTINUOUS
 62
   249
 10
353.759775
 20
214.407364
 30
0.0
 11
354.153678
 21
214.876799
 31
0.0
  0
LINE
  8
0
  6
CONTINUOUS
 62
   249
 10
353.749965
 20
214.41123
 30
0.0
 11
354.13435
 21
214.869323
 31
0.0
  0
LINE
  8
0
  6
CONTINUOUS
 62
   249
 10
353.740155
 20
214.415096
 30
0.0
 11
354.115023
 21
214.861846
 31
0.0
  0
LINE
  8
0
  6
CONTINUOUS
 62
   249
 10
353.730344
 20
214.418961
 30
0.0
 11
354.095695
 21
214.854369
 31
0.0
  0
LINE
  8
0
  6
CONTINUOUS
 62
   249
 10
353.720534
 20
214.422827
 30
0.0
 11
354.076367
 21
214.846893
 31
0.0
  0
LINE
  8
0
  6
CONTINUOUS
 62
   249
 10
353.710724
 20
214.426693
 30
0.0
 11
354.05704
 21
214.839416
 31
0.0
  0
LINE
  8
0
  6
CONTINUOUS
 62
   249
 10
353.700914
 20
214.430559
 30
0.0
 11
354.037712
 21
214.83194
 31
0.0
  0
LINE
  8
0
  6
CONTINUOUS
 62
   249
 10
353.691103
 20
214.434425
 30
0.0
 11
354.018384
 21
214.824463
 31
0.0
  0
LINE
  8
0
  6
CONTINUOUS
 62
   249
 10
353.681293
 20
214.438291
 30
0.0
 11
353.999057
 21
214.816986
 31
0.0
  0
LINE
  8
0
  6
CONTINUOUS
 62
   249
 10
353.671483
 20
214.442157
 30
0.0
 11
353.979729
 21
214.80951
 31
0.0
  0
LINE
  8
0
  6
CONTINUOUS
 62
   249
 10
353.661673
 20
214.446022
 30
0.0
 11
353.960401
 21
214.802033
 31
0.0
  0
LINE
  8
0
  6
CONTINUOUS
 62
   249
 10
353.651863
 20
214.449888
 30
0.0
 11
353.941074
 21
214.794557
 31
0.0
  0
LINE
  8
0
  6
CONTINUOUS
 62
   249
 10
353.642052
 20
214.453754
 30
0.0
 11
353.921746
 21
214.78708
 31
0.0
  0
LINE
  8
0
  6
CONTINUOUS
 62
   249
 10
353.632242
 20
214.45762
 30
0.0
 11
353.902418
 21
214.779603
 31
0.0
  0
LINE
  8
0
  6
CONTINUOUS
 62
   249
 10
353.622432
 20
214.461486
 30
0.0
 11
353.883091
 21
214.772127
 31
0.0
  0
LINE
  8
0
  6
CONTINUOUS
 62
   249
 10
353.612622
 20
214.465352
 30
0.0
 11
353.863763
 21
214.76465
 31
0.0
  0
LINE
  8
0
  6
CONTINUOUS
 62
   249
 10
353.602811
 20
214.469218
 30
0.0
 11
353.844435
 21
214.757174
 31
0.0
  0
LINE
  8
0
  6
CONTINUOUS
 62
   249
 10
353.593001
 20
214.473083
 30
0.0
 11
353.825108
 21
214.749697
 31
0.0
  0
LINE
  8
0
  6
CONTINUOUS
 62
   249
 10
353.583191
 20
214.476949
 30
0.0
 11
353.80578
 21
214.742221
 31
0.0
  0
LINE
  8
0
  6
CONTINUOUS
 62
   249
 10
353.573381
 20
214.480815
 30
0.0
 11
353.786452
 21
214.734744
 31
0.0
  0
LINE
  8
0
  6
CONTINUOUS
 62
   249
 10
353.56357
 20
214.484681
 30
0.0
 11
353.767125
 21
214.727267
 31
0.0
  0
LINE
  8
0
  6
CONTINUOUS
 62
   249
 10
353.55376
 20
214.488547
 30
0.0
 11
353.747797
 21
214.719791
 31
0.0
  0
LINE
  8
0
  6
CONTINUOUS
 62
   249
 10
353.54395
 20
214.492413
 30
0.0
 11
353.728469
 21
214.712314
 31
0.0
  0
LINE
  8
0
  6
CONTINUOUS
 62
   249
 10
353.53414
 20
214.496279
 30
0.0
 11
353.709142
 21
214.704838
 31
0.0
  0
LINE
  8
0
  6
CONTINUOUS
 62
   249
 10
353.52433
 20
214.500144
 30
0.0
 11
353.689814
 21
214.697361
 31
0.0
  0
LINE
  8
0
  6
CONTINUOUS
 62
   249
 10
353.514519
 20
214.50401
 30
0.0
 11
353.670486
 21
214.689884
 31
0.0
  0
LINE
  8
0
  6
CONTINUOUS
 62
   249
 10
353.504709
 20
214.507876
 30
0.0
 11
353.651158
 21
214.682408
 31
0.0
  0
LINE
  8
0
  6
CONTINUOUS
 62
   249
 10
353.494899
 20
214.511742
 30
0.0
 11
353.631831
 21
214.674931
 31
0.0
  0
LINE
  8
0
  6
CONTINUOUS
 62
   249
 10
353.485089
 20
214.515608
 30
0.0
 11
353.612503
 21
214.667455
 31
0.0
  0
LINE
  8
0
  6
CONTINUOUS
 62
   249
 10
353.475278
 20
214.519474
 30
0.0
 11
353.593175
 21
214.659978
 31
0.0
  0
LINE
  8
0
  6
CONTINUOUS
 62
   249
 10
353.465468
 20
214.52334
 30
0.0
 11
353.573848
 21
214.652501
 31
0.0
  0
LINE
  8
0
  6
CONTINUOUS
 62
   249
 10
353.455658
 20
214.527205
 30
0.0
 11
353.55452
 21
214.645025
 31
0.0
  0
LINE
  8
0
  6
CONTINUOUS
 62
   249
 10
353.445848
 20
214.531071
 30
0.0
 11
353.535192
 21
214.637548
 31
0.0
  0
LINE
  8
0
  6
CONTINUOUS
 62
   249
 10
353.436037
 20
214.534937
 30
0.0
 11
353.515865
 21
214.630072
 31
0.0
  0
LINE
  8
0
  6
CONTINUOUS
 62
   249
 10
353.426227
 20
214.538803
 30
0.0
 11
353.496537
 21
214.622595
 31
0.0
  0
LINE
  8
0
  6
CONTINUOUS
 62
   249
 10
353.416417
 20
214.542669
 30
0.0
 11
353.477209
 21
214.615118
 31
0.0
  0
LINE
  8
0
  6
CONTINUOUS
 62
   249
 10
353.406607
 20
214.546535
 30
0.0
 11
353.457882
 21
214.607642
 31
0.0
  0
LINE
  8
0
  6
CONTINUOUS
 62
   249
 10
353.396797
 20
214.550401
 30
0.0
 11
353.438554
 21
214.600165
 31
0.0
  0
LINE
  8
0
  6
CONTINUOUS
 62
   249
 10
353.386986
 20
214.554266
 30
0.0
 11
353.419226
 21
214.592689
 31
0.0
  0
LINE
  8
0
  6
CONTINUOUS
 62
   249
 10
353.377176
 20
214.558132
 30
0.0
 11
353.399899
 21
214.585212
 31
0.0
  0
LINE
  8
0
  6
CONTINUOUS
 62
   249
 10
353.367366
 20
214.561998
 30
0.0
 11
353.380571
 21
214.577735
 31
0.0
  0
LINE
  8
0
  6
CONTINUOUS
 62
   249
 10
353.357556
 20
214.565864
 30
0.0
 11
353.361243
 21
214.570259
 31
0.0
  0
LINE
  8
0
  6
CONTINUOUS
 62
   249
 10
353.838257
 20
214.376437
 30
0.0
 11
354.3083
 21
214.936612
 31
0.0
  0
LINE
  8
0
  6
CONTINUOUS
 62
   249
 10
353.848067
 20
214.372571
 30
0.0
 11
354.327627
 21
214.944089
 31
0.0
  0
LINE
  8
0
  6
CONTINUOUS
 62
   249
 10
353.857877
 20
214.368705
 30
0.0
 11
354.346955
 21
214.951565
 31
0.0
  0
LINE
  8
0
  6
CONTINUOUS
 62
   249
 10
353.867688
 20
214.364839
 30
0.0
 11
354.366283
 21
214.959042
 31
0.0
  0
LINE
  8
0
  6
CONTINUOUS
 62
   249
 10
353.877498
 20
214.360973
 30
0.0
 11
354.38561
 21
214.966518
 31
0.0
  0
LINE
  8
0
  6
CONTINUOUS
 62
   249
 10
353.887308
 20
214.357108
 30
0.0
 11
354.404938
 21
214.973995
 31
0.0
  0
LINE
  8
0
  6
CONTINUOUS
 62
   249
 10
353.897118
 20
214.353242
 30
0.0
 11
354.424266
 21
214.981472
 31
0.0
  0
LINE
  8
0
  6
CONTINUOUS
 62
   249
 10
353.906929
 20
214.349376
 30
0.0
 11
354.443593
 21
214.988948
 31
0.0
  0
LINE
  8
0
  6
CONTINUOUS
 62
   249
 10
353.916739
 20
214.34551
 30
0.0
 11
354.462921
 21
214.996425
 31
0.0
  0
LINE
  8
0
  6
CONTINUOUS
 62
   249
 10
353.926549
 20
214.341644
 30
0.0
 11
354.482249
 21
215.003901
 31
0.0
  0
LINE
  8
0
  6
CONTINUOUS
 62
   249
 10
353.936359
 20
214.337778
 30
0.0
 11
354.501576
 21
215.011378
 31
0.0
  0
LINE
  8
0
  6
CONTINUOUS
 62
   249
 10
353.946169
 20
214.333912
 30
0.0
 11
354.520904
 21
215.018854
 31
0.0
  0
LINE
  8
0
  6
CONTINUOUS
 62
   249
 10
353.95598
 20
214.330047
 30
0.0
 11
354.540232
 21
215.026331
 31
0.0
  0
LINE
  8
0
  6
CONTINUOUS
 62
   249
 10
353.96579
 20
214.326181
 30
0.0
 11
354.559559
 21
215.033808
 31
0.0
  0
LINE
  8
0
  6
CONTINUOUS
 62
   249
 10
353.9756
 20
214.322315
 30
0.0
 11
354.578887
 21
215.041284
 31
0.0
  0
LINE
  8
0
  6
CONTINUOUS
 62
   249
 10
353.98541
 20
214.318449
 30
0.0
 11
354.598215
 21
215.048761
 31
0.0
  0
LINE
  8
0
  6
CONTINUOUS
 62
   249
 10
353.995221
 20
214.314583
 30
0.0
 11
354.617542
 21
215.056237
 31
0.0
  0
LINE
  8
0
  6
CONTINUOUS
 62
   249
 10
354.005031
 20
214.310717
 30
0.0
 11
354.629882
 21
215.055386
 31
0.0
  0
LINE
  8
0
  6
CONTINUOUS
 62
   249
 10
354.014841
 20
214.306851
 30
0.0
 11
354.629882
 21
215.039829
 31
0.0
  0
LINE
  8
0
  6
CONTINUOUS
 62
   249
 10
354.024651
 20
214.302986
 30
0.0
 11
354.629882
 21
215.024272
 31
0.0
  0
LINE
  8
0
  6
CONTINUOUS
 62
   249
 10
354.034462
 20
214.29912
 30
0.0
 11
354.629882
 21
215.008715
 31
0.0
  0
LINE
  8
0
  6
CONTINUOUS
 62
   249
 10
354.044272
 20
214.295254
 30
0.0
 11
354.629882
 21
214.993158
 31
0.0
  0
LINE
  8
0
  6
CONTINUOUS
 62
   249
 10
354.054082
 20
214.291388
 30
0.0
 11
354.629882
 21
214.9776
 31
0.0
  0
LINE
  8
0
  6
CONTINUOUS
 62
   249
 10
354.063892
 20
214.287522
 30
0.0
 11
354.629882
 21
214.962043
 31
0.0
  0
LINE
  8
0
  6
CONTINUOUS
 62
   249
 10
354.073703
 20
214.283656
 30
0.0
 11
354.629882
 21
214.946486
 31
0.0
  0
LINE
  8
0
  6
CONTINUOUS
 62
   249
 10
354.083513
 20
214.27979
 30
0.0
 11
354.629882
 21
214.930929
 31
0.0
  0
LINE
  8
0
  6
CONTINUOUS
 62
   249
 10
354.093323
 20
214.275925
 30
0.0
 11
354.629882
 21
214.915371
 31
0.0
  0
LINE
  8
0
  6
CONTINUOUS
 62
   249
 10
354.103133
 20
214.272059
 30
0.0
 11
354.629882
 21
214.899814
 31
0.0
  0
LINE
  8
0
  6
CONTINUOUS
 62
   249
 10
354.112943
 20
214.268193
 30
0.0
 11
354.629882
 21
214.884257
 31
0.0
  0
LINE
  8
0
  6
CONTINUOUS
 62
   249
 10
354.122754
 20
214.264327
 30
0.0
 11
354.629882
 21
214.8687
 31
0.0
  0
LINE
  8
0
  6
CONTINUOUS
 62
   249
 10
354.132564
 20
214.260461
 30
0.0
 11
354.629882
 21
214.853142
 31
0.0
  0
LINE
  8
0
  6
CONTINUOUS
 62
   249
 10
354.142374
 20
214.256595
 30
0.0
 11
354.629882
 21
214.837585
 31
0.0
  0
LINE
  8
0
  6
CONTINUOUS
 62
   249
 10
354.152184
 20
214.252729
 30
0.0
 11
354.629882
 21
214.822028
 31
0.0
  0
LINE
  8
0
  6
CONTINUOUS
 62
   249
 10
354.161995
 20
214.248864
 30
0.0
 11
354.629882
 21
214.806471
 31
0.0
  0
LINE
  8
0
  6
CONTINUOUS
 62
   249
 10
354.171805
 20
214.244998
 30
0.0
 11
354.629882
 21
214.790913
 31
0.0
  0
LINE
  8
0
  6
CONTINUOUS
 62
   249
 10
354.181615
 20
214.241132
 30
0.0
 11
354.629882
 21
214.775356
 31
0.0
  0
LINE
  8
0
  6
CONTINUOUS
 62
   249
 10
354.191425
 20
214.237266
 30
0.0
 11
354.629882
 21
214.759799
 31
0.0
  0
LINE
  8
0
  6
CONTINUOUS
 62
   249
 10
354.201236
 20
214.2334
 30
0.0
 11
354.629882
 21
214.744242
 31
0.0
  0
LINE
  8
0
  6
CONTINUOUS
 62
   249
 10
354.211046
 20
214.229534
 30
0.0
 11
354.629882
 21
214.728684
 31
0.0
  0
LINE
  8
0
  6
CONTINUOUS
 62
   249
 10
354.220856
 20
214.225668
 30
0.0
 11
354.629882
 21
214.713127
 31
0.0
  0
LINE
  8
0
  6
CONTINUOUS
 62
   249
 10
354.230666
 20
214.221803
 30
0.0
 11
354.629882
 21
214.69757
 31
0.0
  0
LINE
  8
0
  6
CONTINUOUS
 62
   249
 10
354.240476
 20
214.217937
 30
0.0
 11
354.629882
 21
214.682013
 31
0.0
  0
LINE
  8
0
  6
CONTINUOUS
 62
   249
 10
354.250287
 20
214.214071
 30
0.0
 11
354.629882
 21
214.666456
 31
0.0
  0
LINE
  8
0
  6
CONTINUOUS
 62
   249
 10
354.260097
 20
214.210205
 30
0.0
 11
354.629882
 21
214.650898
 31
0.0
  0
LINE
  8
0
  6
CONTINUOUS
 62
   249
 10
354.269907
 20
214.206339
 30
0.0
 11
354.629882
 21
214.635341
 31
0.0
  0
LINE
  8
0
  6
CONTINUOUS
 62
   249
 10
354.279717
 20
214.202473
 30
0.0
 11
354.629882
 21
214.619784
 31
0.0
  0
LINE
  8
0
  6
CONTINUOUS
 62
   249
 10
354.289528
 20
214.198607
 30
0.0
 11
354.629882
 21
214.604227
 31
0.0
  0
LINE
  8
0
  6
CONTINUOUS
 62
   249
 10
354.299338
 20
214.194742
 30
0.0
 11
354.629882
 21
214.588669
 31
0.0
  0
LINE
  8
0
  6
CONTINUOUS
 62
   249
 10
354.309148
 20
214.190876
 30
0.0
 11
354.629882
 21
214.573112
 31
0.0
  0
LINE
  8
0
  6
CONTINUOUS
 62
   249
 10
354.318958
 20
214.18701
 30
0.0
 11
354.629882
 21
214.557555
 31
0.0
  0
LINE
  8
0
  6
CONTINUOUS
 62
   249
 10
354.328769
 20
214.183144
 30
0.0
 11
354.629882
 21
214.541998
 31
0.0
  0
LINE
  8
0
  6
CONTINUOUS
 62
   249
 10
354.338579
 20
214.179278
 30
0.0
 11
354.629882
 21
214.52644
 31
0.0
  0
LINE
  8
0
  6
CONTINUOUS
 62
   249
 10
354.348389
 20
214.175412
 30
0.0
 11
354.629882
 21
214.510883
 31
0.0
  0
LINE
  8
0
  6
CONTINUOUS
 62
   249
 10
354.358199
 20
214.171546
 30
0.0
 11
354.629882
 21
214.495326
 31
0.0
  0
LINE
  8
0
  6
CONTINUOUS
 62
   249
 10
354.368009
 20
214.167681
 30
0.0
 11
354.629882
 21
214.479769
 31
0.0
  0
LINE
  8
0
  6
CONTINUOUS
 62
   249
 10
354.37782
 20
214.163815
 30
0.0
 11
354.629882
 21
214.464211
 31
0.0
  0
LINE
  8
0
  6
CONTINUOUS
 62
   249
 10
354.38763
 20
214.159949
 30
0.0
 11
354.629882
 21
214.448654
 31
0.0
  0
LINE
  8
0
  6
CONTINUOUS
 62
   249
 10
354.39744
 20
214.156083
 30
0.0
 11
354.629882
 21
214.433097
 31
0.0
  0
LINE
  8
0
  6
CONTINUOUS
 62
   249
 10
354.40725
 20
214.152217
 30
0.0
 11
354.629882
 21
214.41754
 31
0.0
  0
LINE
  8
0
  6
CONTINUOUS
 62
   249
 10
354.417061
 20
214.148351
 30
0.0
 11
354.629882
 21
214.401982
 31
0.0
  0
LINE
  8
0
  6
CONTINUOUS
 62
   249
 10
354.426871
 20
214.144485
 30
0.0
 11
354.629882
 21
214.386425
 31
0.0
  0
LINE
  8
0
  6
CONTINUOUS
 62
   249
 10
354.436681
 20
214.14062
 30
0.0
 11
354.629882
 21
214.370868
 31
0.0
  0
LINE
  8
0
  6
CONTINUOUS
 62
   249
 10
354.446491
 20
214.136754
 30
0.0
 11
354.629882
 21
214.355311
 31
0.0
  0
LINE
  8
0
  6
CONTINUOUS
 62
   249
 10
354.456302
 20
214.132888
 30
0.0
 11
354.629882
 21
214.339754
 31
0.0
  0
LINE
  8
0
  6
CONTINUOUS
 62
   249
 10
354.466112
 20
214.129022
 30
0.0
 11
354.629882
 21
214.324196
 31
0.0
  0
LINE
  8
0
  6
CONTINUOUS
 62
   249
 10
354.475922
 20
214.125156
 30
0.0
 11
354.629882
 21
214.308639
 31
0.0
  0
LINE
  8
0
  6
CONTINUOUS
 62
   249
 10
354.485732
 20
214.12129
 30
0.0
 11
354.629882
 21
214.293082
 31
0.0
  0
LINE
  8
0
  6
CONTINUOUS
 62
   249
 10
354.495542
 20
214.117424
 30
0.0
 11
354.629882
 21
214.277525
 31
0.0
  0
LINE
  8
0
  6
CONTINUOUS
 62
   249
 10
354.505353
 20
214.113558
 30
0.0
 11
354.629882
 21
214.261967
 31
0.0
  0
LINE
  8
0
  6
CONTINUOUS
 62
   249
 10
354.515163
 20
214.109693
 30
0.0
 11
354.629882
 21
214.24641
 31
0.0
  0
LINE
  8
0
  6
CONTINUOUS
 62
   249
 10
354.524973
 20
214.105827
 30
0.0
 11
354.629882
 21
214.230853
 31
0.0
  0
LINE
  8
0
  6
CONTINUOUS
 62
   249
 10
354.534783
 20
214.101961
 30
0.0
 11
354.629882
 21
214.215296
 31
0.0
  0
LINE
  8
0
  6
CONTINUOUS
 62
   249
 10
354.544594
 20
214.098095
 30
0.0
 11
354.629882
 21
214.199738
 31
0.0
  0
LINE
  8
0
  6
CONTINUOUS
 62
   249
 10
354.554404
 20
214.094229
 30
0.0
 11
354.629882
 21
214.184181
 31
0.0
  0
LINE
  8
0
  6
CONTINUOUS
 62
   249
 10
354.564214
 20
214.090363
 30
0.0
 11
354.629882
 21
214.168624
 31
0.0
  0
LINE
  8
0
  6
CONTINUOUS
 62
   249
 10
354.574024
 20
214.086497
 30
0.0
 11
354.629882
 21
214.153067
 31
0.0
  0
LINE
  8
0
  6
CONTINUOUS
 62
   249
 10
354.583835
 20
214.082632
 30
0.0
 11
354.629882
 21
214.137509
 31
0.0
  0
LINE
  8
0
  6
CONTINUOUS
 62
   249
 10
354.593645
 20
214.078766
 30
0.0
 11
354.629882
 21
214.121952
 31
0.0
  0
LINE
  8
0
  6
CONTINUOUS
 62
   249
 10
354.603455
 20
214.0749
 30
0.0
 11
354.629882
 21
214.106395
 31
0.0
  0
LINE
  8
0
  6
CONTINUOUS
 62
   249
 10
354.613265
 20
214.071034
 30
0.0
 11
354.629882
 21
214.090838
 31
0.0
  0
LINE
  8
0
  6
CONTINUOUS
 62
   249
 10
354.623075
 20
214.067168
 30
0.0
 11
354.629882
 21
214.07528
 31
0.0
  0
LINE
  8
0
  6
CONTINUOUS
 62
   249
 10
353.785505
 20
214.734377
 30
0.0
 11
354.54309
 21
214.098687
 31
0.0
  0
LINE
  8
0
  6
CONTINUOUS
 62
   249
 10
353.774856
 20
214.730258
 30
0.0
 11
354.513758
 21
214.110246
 31
0.0
  0
LINE
  8
0
  6
CONTINUOUS
 62
   249
 10
353.764208
 20
214.726139
 30
0.0
 11
354.484425
 21
214.121805
 31
0.0
  0
LINE
  8
0
  6
CONTINUOUS
 62
   249
 10
353.75356
 20
214.72202
 30
0.0
 11
354.455092
 21
214.133364
 31
0.0
  0
LINE
  8
0
  6
CONTINUOUS
 62
   249
 10
353.742911
 20
214.717901
 30
0.0
 11
354.42576
 21
214.144923
 31
0.0
  0
LINE
  8
0
  6
CONTINUOUS
 62
   249
 10
353.732263
 20
214.713782
 30
0.0
 11
354.396427
 21
214.156482
 31
0.0
  0
LINE
  8
0
  6
CONTINUOUS
 62
   249
 10
353.721615
 20
214.709663
 30
0.0
 11
354.367094
 21
214.168041
 31
0.0
  0
LINE
  8
0
  6
CONTINUOUS
 62
   249
 10
353.710967
 20
214.705544
 30
0.0
 11
354.337762
 21
214.1796
 31
0.0
  0
LINE
  8
0
  6
CONTINUOUS
 62
   249
 10
353.700318
 20
214.701424
 30
0.0
 11
354.308429
 21
214.191159
 31
0.0
  0
LINE
  8
0
  6
CONTINUOUS
 62
   249
 10
353.68967
 20
214.697305
 30
0.0
 11
354.279096
 21
214.202718
 31
0.0
  0
LINE
  8
0
  6
CONTINUOUS
 62
   249
 10
353.679022
 20
214.693186
 30
0.0
 11
354.249764
 21
214.214277
 31
0.0
  0
LINE
  8
0
  6
CONTINUOUS
 62
   249
 10
353.668374
 20
214.689067
 30
0.0
 11
354.220431
 21
214.225836
 31
0.0
  0
LINE
  8
0
  6
CONTINUOUS
 62
   249
 10
353.657725
 20
214.684948
 30
0.0
 11
354.191099
 21
214.237395
 31
0.0
  0
LINE
  8
0
  6
CONTINUOUS
 62
   249
 10
353.647077
 20
214.680829
 30
0.0
 11
354.161766
 21
214.248954
 31
0.0
  0
LINE
  8
0
  6
CONTINUOUS
 62
   249
 10
353.636429
 20
214.67671
 30
0.0
 11
354.132433
 21
214.260513
 31
0.0
  0
LINE
  8
0
  6
CONTINUOUS
 62
   249
 10
353.62578
 20
214.672591
 30
0.0
 11
354.103101
 21
214.272072
 31
0.0
  0
LINE
  8
0
  6
CONTINUOUS
 62
   249
 10
353.615132
 20
214.668472
 30
0.0
 11
354.073768
 21
214.283631
 31
0.0
  0
LINE
  8
0
  6
CONTINUOUS
 62
   249
 10
353.604484
 20
214.664352
 30
0.0
 11
354.044435
 21
214.295189
 31
0.0
  0
LINE
  8
0
  6
CONTINUOUS
 62
   249
 10
353.593836
 20
214.660233
 30
0.0
 11
354.015103
 21
214.306748
 31
0.0
  0
LINE
  8
0
  6
CONTINUOUS
 62
   249
 10
353.583187
 20
214.656114
 30
0.0
 11
353.98577
 21
214.318307
 31
0.0
  0
LINE
  8
0
  6
CONTINUOUS
 62
   249
 10
353.572539
 20
214.651995
 30
0.0
 11
353.956437
 21
214.329866
 31
0.0
  0
LINE
  8
0
  6
CONTINUOUS
 62
   249
 10
353.561891
 20
214.647876
 30
0.0
 11
353.927105
 21
214.341425
 31
0.0
  0
LINE
  8
0
  6
CONTINUOUS
 62
   249
 10
353.551243
 20
214.643757
 30
0.0
 11
353.897772
 21
214.352984
 31
0.0
  0
LINE
  8
0
  6
CONTINUOUS
 62
   249
 10
353.540594
 20
214.639638
 30
0.0
 11
353.868439
 21
214.364543
 31
0.0
  0
LINE
  8
0
  6
CONTINUOUS
 62
   249
 10
353.529946
 20
214.635519
 30
0.0
 11
353.839107
 21
214.376102
 31
0.0
  0
LINE
  8
0
  6
CONTINUOUS
 62
   249
 10
353.519298
 20
214.6314
 30
0.0
 11
353.809774
 21
214.387661
 31
0.0
  0
LINE
  8
0
  6
CONTINUOUS
 62
   249
 10
353.508649
 20
214.627281
 30
0.0
 11
353.780441
 21
214.39922
 31
0.0
  0
LINE
  8
0
  6
CONTINUOUS
 62
   249
 10
353.498001
 20
214.623161
 30
0.0
 11
353.751109
 21
214.410779
 31
0.0
  0
LINE
  8
0
  6
CONTINUOUS
 62
   249
 10
353.487353
 20
214.619042
 30
0.0
 11
353.721776
 21
214.422338
 31
0.0
  0
LINE
  8
0
  6
CONTINUOUS
 62
   249
 10
353.476705
 20
214.614923
 30
0.0
 11
353.692444
 21
214.433897
 31
0.0
  0
LINE
  8
0
  6
CONTINUOUS
 62
   249
 10
353.466056
 20
214.610804
 30
0.0
 11
353.663111
 21
214.445456
 31
0.0
  0
LINE
  8
0
  6
CONTINUOUS
 62
   249
 10
353.455408
 20
214.606685
 30
0.0
 11
353.633778
 21
214.457015
 31
0.0
  0
LINE
  8
0
  6
CONTINUOUS
 62
   249
 10
353.44476
 20
214.602566
 30
0.0
 11
353.604446
 21
214.468574
 31
0.0
  0
LINE
  8
0
  6
CONTINUOUS
 62
   249
 10
353.434112
 20
214.598447
 30
0.0
 11
353.575113
 21
214.480132
 31
0.0
  0
LINE
  8
0
  6
CONTINUOUS
 62
   249
 10
353.423463
 20
214.594328
 30
0.0
 11
353.54578
 21
214.491691
 31
0.0
  0
LINE
  8
0
  6
CONTINUOUS
 62
   249
 10
353.412815
 20
214.590209
 30
0.0
 11
353.516448
 21
214.50325
 31
0.0
  0
LINE
  8
0
  6
CONTINUOUS
 62
   249
 10
353.402167
 20
214.586089
 30
0.0
 11
353.487115
 21
214.514809
 31
0.0
  0
LINE
  8
0
  6
CONTINUOUS
 62
   249
 10
353.391518
 20
214.58197
 30
0.0
 11
353.457782
 21
214.526368
 31
0.0
  0
LINE
  8
0
  6
CONTINUOUS
 62
   249
 10
353.38087
 20
214.577851
 30
0.0
 11
353.42845
 21
214.537927
 31
0.0
  0
LINE
  8
0
  6
CONTINUOUS
 62
   249
 10
353.370222
 20
214.573732
 30
0.0
 11
353.399117
 21
214.549486
 31
0.0
  0
LINE
  8
0
  6
CONTINUOUS
 62
   249
 10
353.359574
 20
214.569613
 30
0.0
 11
353.369784
 21
214.561045
 31
0.0
  0
LINE
  8
0
  6
CONTINUOUS
 62
   249
 10
353.796153
 20
214.738496
 30
0.0
 11
354.572423
 21
214.087129
 31
0.0
  0
LINE
  8
0
  6
CONTINUOUS
 62
   249
 10
353.806801
 20
214.742616
 30
0.0
 11
354.601756
 21
214.07557
 31
0.0
  0
LINE
  8
0
  6
CONTINUOUS
 62
   249
 10
353.817449
 20
214.746735
 30
0.0
 11
354.629882
 21
214.065022
 31
0.0
  0
LINE
  8
0
  6
CONTINUOUS
 62
   249
 10
353.828098
 20
214.750854
 30
0.0
 11
354.629882
 21
214.078076
 31
0.0
  0
LINE
  8
0
  6
CONTINUOUS
 62
   249
 10
353.838746
 20
214.754973
 30
0.0
 11
354.629882
 21
214.091131
 31
0.0
  0
LINE
  8
0
  6
CONTINUOUS
 62
   249
 10
353.849394
 20
214.759092
 30
0.0
 11
354.629882
 21
214.104185
 31
0.0
  0
LINE
  8
0
  6
CONTINUOUS
 62
   249
 10
353.860043
 20
214.763211
 30
0.0
 11
354.629882
 21
214.117239
 31
0.0
  0
LINE
  8
0
  6
CONTINUOUS
 62
   249
 10
353.870691
 20
214.76733
 30
0.0
 11
354.629882
 21
214.130293
 31
0.0
  0
LINE
  8
0
  6
CONTINUOUS
 62
   249
 10
353.881339
 20
214.771449
 30
0.0
 11
354.629882
 21
214.143347
 31
0.0
  0
LINE
  8
0
  6
CONTINUOUS
 62
   249
 10
353.891987
 20
214.775568
 30
0.0
 11
354.629882
 21
214.156401
 31
0.0
  0
LINE
  8
0
  6
CONTINUOUS
 62
   249
 10
353.902636
 20
214.779688
 30
0.0
 11
354.629882
 21
214.169455
 31
0.0
  0
LINE
  8
0
  6
CONTINUOUS
 62
   249
 10
353.913284
 20
214.783807
 30
0.0
 11
354.629882
 21
214.182509
 31
0.0
  0
LINE
  8
0
  6
CONTINUOUS
 62
   249
 10
353.923932
 20
214.787926
 30
0.0
 11
354.629882
 21
214.195563
 31
0.0
  0
LINE
  8
0
  6
CONTINUOUS
 62
   249
 10
353.93458
 20
214.792045
 30
0.0
 11
354.629882
 21
214.208617
 31
0.0
  0
LINE
  8
0
  6
CONTINUOUS
 62
   249
 10
353.945229
 20
214.796164
 30
0.0
 11
354.629882
 21
214.221671
 31
0.0
  0
LINE
  8
0
  6
CONTINUOUS
 62
   249
 10
353.955877
 20
214.800283
 30
0.0
 11
354.629882
 21
214.234725
 31
0.0
  0
LINE
  8
0
  6
CONTINUOUS
 62
   249
 10
353.966525
 20
214.804402
 30
0.0
 11
354.629882
 21
214.247779
 31
0.0
  0
LINE
  8
0
  6
CONTINUOUS
 62
   249
 10
353.977174
 20
214.808521
 30
0.0
 11
354.629882
 21
214.260833
 31
0.0
  0
LINE
  8
0
  6
CONTINUOUS
 62
   249
 10
353.987822
 20
214.81264
 30
0.0
 11
354.629882
 21
214.273888
 31
0.0
  0
LINE
  8
0
  6
CONTINUOUS
 62
   249
 10
353.99847
 20
214.81676
 30
0.0
 11
354.629882
 21
214.286942
 31
0.0
  0
LINE
  8
0
  6
CONTINUOUS
 62
   249
 10
354.009118
 20
214.820879
 30
0.0
 11
354.629882
 21
214.299996
 31
0.0
  0
LINE
  8
0
  6
CONTINUOUS
 62
   249
 10
354.019767
 20
214.824998
 30
0.0
 11
354.629882
 21
214.31305
 31
0.0
  0
LINE
  8
0
  6
CONTINUOUS
 62
   249
 10
354.030415
 20
214.829117
 30
0.0
 11
354.629882
 21
214.326104
 31
0.0
  0
LINE
  8
0
  6
CONTINUOUS
 62
   249
 10
354.041063
 20
214.833236
 30
0.0
 11
354.629882
 21
214.339158
 31
0.0
  0
LINE
  8
0
  6
CONTINUOUS
 62
   249
 10
354.051711
 20
214.837355
 30
0.0
 11
354.629882
 21
214.352212
 31
0.0
  0
LINE
  8
0
  6
CONTINUOUS
 62
   249
 10
354.06236
 20
214.841474
 30
0.0
 11
354.629882
 21
214.365266
 31
0.0
  0
LINE
  8
0
  6
CONTINUOUS
 62
   249
 10
354.073008
 20
214.845593
 30
0.0
 11
354.629882
 21
214.37832
 31
0.0
  0
LINE
  8
0
  6
CONTINUOUS
 62
   249
 10
354.083656
 20
214.849712
 30
0.0
 11
354.629882
 21
214.391374
 31
0.0
  0
LINE
  8
0
  6
CONTINUOUS
 62
   249
 10
354.094305
 20
214.853832
 30
0.0
 11
354.629882
 21
214.404428
 31
0.0
  0
LINE
  8
0
  6
CONTINUOUS
 62
   249
 10
354.104953
 20
214.857951
 30
0.0
 11
354.629882
 21
214.417482
 31
0.0
  0
LINE
  8
0
  6
CONTINUOUS
 62
   249
 10
354.115601
 20
214.86207
 30
0.0
 11
354.629882
 21
214.430536
 31
0.0
  0
LINE
  8
0
  6
CONTINUOUS
 62
   249
 10
354.126249
 20
214.866189
 30
0.0
 11
354.629882
 21
214.44359
 31
0.0
  0
LINE
  8
0
  6
CONTINUOUS
 62
   249
 10
354.136898
 20
214.870308
 30
0.0
 11
354.629882
 21
214.456645
 31
0.0
  0
LINE
  8
0
  6
CONTINUOUS
 62
   249
 10
354.147546
 20
214.874427
 30
0.0
 11
354.629882
 21
214.469699
 31
0.0
  0
LINE
  8
0
  6
CONTINUOUS
 62
   249
 10
354.158194
 20
214.878546
 30
0.0
 11
354.629882
 21
214.482753
 31
0.0
  0
LINE
  8
0
  6
CONTINUOUS
 62
   249
 10
354.168842
 20
214.882665
 30
0.0
 11
354.629882
 21
214.495807
 31
0.0
  0
LINE
  8
0
  6
CONTINUOUS
 62
   249
 10
354.179491
 20
214.886784
 30
0.0
 11
354.629882
 21
214.508861
 31
0.0
  0
LINE
  8
0
  6
CONTINUOUS
 62
   249
 10
354.190139
 20
214.890903
 30
0.0
 11
354.629882
 21
214.521915
 31
0.0
  0
LINE
  8
0
  6
CONTINUOUS
 62
   249
 10
354.200787
 20
214.895023
 30
0.0
 11
354.629882
 21
214.534969
 31
0.0
  0
LINE
  8
0
  6
CONTINUOUS
 62
   249
 10
354.211436
 20
214.899142
 30
0.0
 11
354.629882
 21
214.548023
 31
0.0
  0
LINE
  8
0
  6
CONTINUOUS
 62
   249
 10
354.222084
 20
214.903261
 30
0.0
 11
354.629882
 21
214.561077
 31
0.0
  0
LINE
  8
0
  6
CONTINUOUS
 62
   249
 10
354.232732
 20
214.90738
 30
0.0
 11
354.629882
 21
214.574131
 31
0.0
  0
LINE
  8
0
  6
CONTINUOUS
 62
   249
 10
354.24338
 20
214.911499
 30
0.0
 11
354.629882
 21
214.587185
 31
0.0
  0
LINE
  8
0
  6
CONTINUOUS
 62
   249
 10
354.254029
 20
214.915618
 30
0.0
 11
354.629882
 21
214.600239
 31
0.0
  0
LINE
  8
0
  6
CONTINUOUS
 62
   249
 10
354.264677
 20
214.919737
 30
0.0
 11
354.629882
 21
214.613293
 31
0.0
  0
LINE
  8
0
  6
CONTINUOUS
 62
   249
 10
354.275325
 20
214.923856
 30
0.0
 11
354.629882
 21
214.626348
 31
0.0
  0
LINE
  8
0
  6
CONTINUOUS
 62
   249
 10
354.285974
 20
214.927975
 30
0.0
 11
354.629882
 21
214.639402
 31
0.0
  0
LINE
  8
0
  6
CONTINUOUS
 62
   249
 10
354.296622
 20
214.932095
 30
0.0
 11
354.629882
 21
214.652456
 31
0.0
  0
LINE
  8
0
  6
CONTINUOUS
 62
   249
 10
354.30727
 20
214.936214
 30
0.0
 11
354.629882
 21
214.66551
 31
0.0
  0
LINE
  8
0
  6
CONTINUOUS
 62
   249
 10
354.317918
 20
214.940333
 30
0.0
 11
354.629882
 21
214.678564
 31
0.0
  0
LINE
  8
0
  6
CONTINUOUS
 62
   249
 10
354.328567
 20
214.944452
 30
0.0
 11
354.629882
 21
214.691618
 31
0.0
  0
LINE
  8
0
  6
CONTINUOUS
 62
   249
 10
354.339215
 20
214.948571
 30
0.0
 11
354.629882
 21
214.704672
 31
0.0
  0
LINE
  8
0
  6
CONTINUOUS
 62
   249
 10
354.349863
 20
214.95269
 30
0.0
 11
354.629882
 21
214.717726
 31
0.0
  0
LINE
  8
0
  6
CONTINUOUS
 62
   249
 10
354.360511
 20
214.956809
 30
0.0
 11
354.629882
 21
214.73078
 31
0.0
  0
LINE
  8
0
  6
CONTINUOUS
 62
   249
 10
354.37116
 20
214.960928
 30
0.0
 11
354.629882
 21
214.743834
 31
0.0
  0
LINE
  8
0
  6
CONTINUOUS
 62
   249
 10
354.381808
 20
214.965047
 30
0.0
 11
354.629882
 21
214.756888
 31
0.0
  0
LINE
  8
0
  6
CONTINUOUS
 62
   249
 10
354.392456
 20
214.969167
 30
0.0
 11
354.629882
 21
214.769942
 31
0.0
  0
LINE
  8
0
  6
CONTINUOUS
 62
   249
 10
354.403105
 20
214.973286
 30
0.0
 11
354.629882
 21
214.782996
 31
0.0
  0
LINE
  8
0
  6
CONTINUOUS
 62
   249
 10
354.413753
 20
214.977405
 30
0.0
 11
354.629882
 21
214.79605
 31
0.0
  0
LINE
  8
0
  6
CONTINUOUS
 62
   249
 10
354.424401
 20
214.981524
 30
0.0
 11
354.629882
 21
214.809105
 31
0.0
  0
LINE
  8
0
  6
CONTINUOUS
 62
   249
 10
354.435049
 20
214.985643
 30
0.0
 11
354.629882
 21
214.822159
 31
0.0
  0
LINE
  8
0
  6
CONTINUOUS
 62
   249
 10
354.445698
 20
214.989762
 30
0.0
 11
354.629882
 21
214.835213
 31
0.0
  0
LINE
  8
0
  6
CONTINUOUS
 62
   249
 10
354.456346
 20
214.993881
 30
0.0
 11
354.629882
 21
214.848267
 31
0.0
  0
LINE
  8
0
  6
CONTINUOUS
 62
   249
 10
354.466994
 20
214.998
 30
0.0
 11
354.629882
 21
214.861321
 31
0.0
  0
LINE
  8
0
  6
CONTINUOUS
 62
   249
 10
354.477642
 20
215.002119
 30
0.0
 11
354.629882
 21
214.874375
 31
0.0
  0
LINE
  8
0
  6
CONTINUOUS
 62
   249
 10
354.488291
 20
215.006239
 30
0.0
 11
354.629882
 21
214.887429
 31
0.0
  0
LINE
  8
0
  6
CONTINUOUS
 62
   249
 10
354.498939
 20
215.010358
 30
0.0
 11
354.629882
 21
214.900483
 31
0.0
  0
LINE
  8
0
  6
CONTINUOUS
 62
   249
 10
354.509587
 20
215.014477
 30
0.0
 11
354.629882
 21
214.913537
 31
0.0
  0
LINE
  8
0
  6
CONTINUOUS
 62
   249
 10
354.520236
 20
215.018596
 30
0.0
 11
354.629882
 21
214.926591
 31
0.0
  0
LINE
  8
0
  6
CONTINUOUS
 62
   249
 10
354.530884
 20
215.022715
 30
0.0
 11
354.629882
 21
214.939645
 31
0.0
  0
LINE
  8
0
  6
CONTINUOUS
 62
   249
 10
354.541532
 20
215.026834
 30
0.0
 11
354.629882
 21
214.952699
 31
0.0
  0
LINE
  8
0
  6
CONTINUOUS
 62
   249
 10
354.55218
 20
215.030953
 30
0.0
 11
354.629882
 21
214.965753
 31
0.0
  0
LINE
  8
0
  6
CONTINUOUS
 62
   249
 10
354.562829
 20
215.035072
 30
0.0
 11
354.629882
 21
214.978807
 31
0.0
  0
LINE
  8
0
  6
CONTINUOUS
 62
   249
 10
354.573477
 20
215.039191
 30
0.0
 11
354.629882
 21
214.991862
 31
0.0
  0
LINE
  8
0
  6
CONTINUOUS
 62
   249
 10
354.584125
 20
215.043311
 30
0.0
 11
354.629882
 21
215.004916
 31
0.0
  0
LINE
  8
0
  6
CONTINUOUS
 62
   249
 10
354.594773
 20
215.04743
 30
0.0
 11
354.629882
 21
215.01797
 31
0.0
  0
LINE
  8
0
  6
CONTINUOUS
 62
   249
 10
354.605422
 20
215.051549
 30
0.0
 11
354.629882
 21
215.031024
 31
0.0
  0
LINE
  8
0
  6
CONTINUOUS
 62
   249
 10
354.61607
 20
215.055668
 30
0.0
 11
354.629882
 21
215.044078
 31
0.0
  0
LINE
  8
0
  6
CONTINUOUS
 62
   249
 10
354.626718
 20
215.059787
 30
0.0
 11
354.629882
 21
215.057132
 31
0.0
  0
ENDSEC
  0
EOF
