  0
SECTION
  2
HEADER
  9
$ACADVER
  1
AC1009
  9
$DWGCODEPAGE
  3
iso8859-1
  9
$INSBASE
 10
0.0
 20
0.0
 30
0.0
  9
$EXTMIN
 10
1.0E20
 20
1.0E20
  9
$EXTMAX
 10
-1.0E20
 20
-1.0E20
  9
$LIMMIN
 10
0.0
 20
0.0
  9
$LIMMAX
 10
12.0
 20
9.0
  9
$ORTHOMODE
 70
     0
  9
$REGENMODE
 70
     1
  9
$FILLMODE
 70
     1
  9
$QTEXTMODE
 70
     0
  9
$MIRRTEXT
 70
     1
  9
$DRAGMODE
 70
     2
  9
$LTSCALE
 40
15.0
  9
$OSMODE
 70
     0
  9
$ATTMODE
 70
     1
  9
$TEXTSIZE
 40
0.2
  9
$TRACEWID
 40
0.05
  9
$TEXTSTYLE
  7
STANDARD
  9
$CLAYER
  8
0
  9
$CELTYPE
  6
DASHED
  9
$CECOLOR
 62
   256
  9
$DIMSCALE
 40
1.0
  9
$DIMASZ
 40
0.18
  9
$DIMEXO
 40
0.0625
  9
$DIMDLI
 40
0.38
  9
$DIMRND
 40
0.0
  9
$DIMDLE
 40
0.0
  9
$DIMEXE
 40
0.18
  9
$DIMTP
 40
0.0
  9
$DIMTM
 40
0.0
  9
$DIMTXT
 40
0.18
  9
$DIMCEN
 40
0.09
  9
$DIMTSZ
 40
0.0
  9
$DIMTOL
 70
     0
  9
$DIMLIM
 70
     0
  9
$DIMTIH
 70
     1
  9
$DIMTOH
 70
     1
  9
$DIMSE1
 70
     0
  9
$DIMSE2
 70
     0
  9
$DIMTAD
 70
     0
  9
$DIMZIN
 70
     0
  9
$DIMBLK
  1

  9
$DIMASO
 70
     1
  9
$DIMSHO
 70
     1
  9
$DIMPOST
  1

  9
$DIMAPOST
  1

  9
$DIMALT
 70
     0
  9
$DIMALTD
 70
     2
  9
$DIMALTF
 40
25.4
  9
$DIMLFAC
 40
1.0
  9
$DIMTOFL
 70
     0
  9
$DIMTVP
 40
0.0
  9
$DIMTIX
 70
     0
  9
$DIMSOXD
 70
     0
  9
$DIMSAH
 70
     0
  9
$DIMBLK1
  1

  9
$DIMBLK2
  1

  9
$DIMSTYLE
  2
STANDARD
  9
$DIMCLRD
 70
     0
  9
$DIMCLRE
 70
     0
  9
$DIMCLRT
 70
     0
  9
$DIMTFAC
 40
1.0
  9
$DIMGAP
 40
0.09
  9
$LUNITS
 70
     2
  9
$LUPREC
 70
     4
  9
$AXISMODE
 70
     0
  9
$AXISUNIT
 10
0.0
 20
0.0
  9
$SKETCHINC
 40
0.1
  9
$FILLETRAD
 40
0.0
  9
$AUNITS
 70
     0
  9
$AUPREC
 70
     0
  9
$MENU
  1
acad
  9
$ELEVATION
 40
0.0
  9
$PELEVATION
 40
0.0
  9
$THICKNESS
 40
0.0
  9
$LIMCHECK
 70
     0
  9
$BLIPMODE
 70
     1
  9
$CHAMFERA
 40
0.0
  9
$CHAMFERB
 40
0.0
  9
$SKPOLY
 70
     0
  9
$TDCREATE
 40
0.000000000
  9
$TDUPDATE
 40
0.000000000
  9
$TDINDWG
 40
0.0
  9
$TDUSRTIMER
 40
0.0
  9
$USRTIMER
 70
     1
  9
$ANGBASE
 50
0.0
  9
$ANGDIR
 70
     0
  9
$PDMODE
 70
     0
  9
$PDSIZE
 40
0.0
  9
$PLINEWID
 40
0.0
  9
$COORDS
 70
     1
  9
$SPLFRAME
 70
     0
  9
$SPLINETYPE
 70
     6
  9
$SPLINESEGS
 70
     8
  9
$ATTDIA
 70
     0
  9
$ATTREQ
 70
     1
  9
$HANDLING
 70
     1
  9
$HANDSEED
  5
   4F9
  9
$SURFTAB1
 70
     6
  9
$SURFTAB2
 70
     6
  9
$SURFTYPE
 70
     6
  9
$SURFU
 70
     6
  9
$SURFV
 70
     6
  9
$UCSNAME
  2

  9
$UCSORG
 10
0.0
 20
0.0
 30
0.0
  9
$UCSXDIR
 10
1.0
 20
0.0
 30
0.0
  9
$UCSYDIR
 10
0.0
 20
1.0
 30
0.0
  9
$PUCSNAME
  2

  9
$PUCSORG
 10
0.0
 20
0.0
 30
0.0
  9
$PUCSXDIR
 10
1.0
 20
0.0
 30
0.0
  9
$PUCSYDIR
 10
0.0
 20
1.0
 30
0.0
  9
$USERI1
 70
     0
  9
$USERI2
 70
     0
  9
$USERI3
 70
     0
  9
$USERI4
 70
     0
  9
$USERI5
 70
     0
  9
$USERR1
 40
0.0
  9
$USERR2
 40
0.0
  9
$USERR3
 40
0.0
  9
$USERR4
 40
0.0
  9
$USERR5
 40
0.0
  9
$WORLDVIEW
 70
     1
  9
$SHADEDGE
 70
     3
  9
$SHADEDIF
 70
    70
  9
$TILEMODE
 70
     1
  9
$MAXACTVP
 70
    16
  9
$PINSBASE
 10
0.0
 20
0.0
 30
0.0
  9
$PLIMCHECK
 70
     0
  9
$PEXTMIN
 10
1.0E20
 20
1.0E20
 30
1.0E20
  9
$PEXTMAX
 10
-1.0E20
 20
-1.0E20
 30
-1.0E20
  9
$PLIMMIN
 10
0.0
 20
0.0
  9
$PLIMMAX
 10
12.0
 20
9.0
  9
$UNITMODE
 70
     0
  9
$VISRETAIN
 70
     0
  0
ENDSEC
  0
SECTION
  2
TABLES
  0
TABLE
  2
VPORT
 70
     1
  0
VPORT
  2
*ACTIVE
 70
     0
 10
0.0
 20
0.0
 11
1.0
 21
1.0
 12
6.801242
 22
4.5
 13
0.0
 23
0.0
 14
1.0
 24
1.0
 15
0.0
 25
0.0
 16
0.0
 26
0.0
 36
1.0
 17
0.0
 27
0.0
 37
0.0
 40
9.0
 41
1.511387
 42
50.0
 43
0.0
 44
0.0
 50
0.0
 51
0.0
 71
     0
 72
   100
 73
     1
 74
     1
 75
     0
 76
     0
 77
     0
 78
     0
  0
ENDTAB
  0
TABLE
  2
LTYPE
 70
    41
  0
LTYPE
  2
BYBLOCK
 70
     0
  3

 72
    65
 73
     0
 40
0.0
  0
LTYPE
  2
BYLAYER
 70
     0
  3

 72
    65
 73
     0
 40
0.0
  0
LTYPE
  2
CONTINUOUS
 70
     0
  3
Solid line
 72
    65
 73
     0
 40
0.0
  0
LTYPE
  2
BORDER
 70
    64
  3
__ __ . __ __ . __ __ . __ __ . __ __ . __ __ .
 72
    65
 73
     6
 40
1.75
 49
0.5
 49
-0.25
 49
0.5
 49
-0.25
 49
0.0
 49
-0.25
  0
LTYPE
  2
BORDER2
 70
    64
  3
__.__.__.__.__.__.__.__.__.__.__.__.__.__.__.__
 72
    65
 73
     6
 40
0.875
 49
0.25
 49
-0.125
 49
0.25
 49
-0.125
 49
0.0
 49
-0.125
  0
LTYPE
  2
BORDERX2
 70
    64
  3
____  ____  .  ____  ____  .  ____  ____  .  __
 72
    65
 73
     6
 40
3.5
 49
1.0
 49
-0.5
 49
1.0
 49
-0.5
 49
0.0
 49
-0.5
  0
LTYPE
  2
CENTER
 70
    64
  3
____ _ ____ _ ____ _ ____ _ ____ _ ____ _ ____
 72
    65
 73
     4
 40
2.0
 49
1.25
 49
-0.25
 49
0.25
 49
-0.25
  0
LTYPE
  2
CENTER2
 70
    64
  3
___ _ ___ _ ___ _ ___ _ ___ _ ___ _ ___ _ ___ _
 72
    65
 73
     4
 40
1.125
 49
0.75
 49
-0.125
 49
0.125
 49
-0.125
  0
LTYPE
  2
CENTERX2
 70
    64
  3
________  __  ________  __  ________  __  _____
 72
    65
 73
     4
 40
4.0
 49
2.5
 49
-0.5
 49
0.5
 49
-0.5
  0
LTYPE
  2
DASHDOT
 70
    64
  3
__ . __ . __ . __ . __ . __ . __ . __ . __ . __
 72
    65
 73
     4
 40
1.0
 49
0.5
 49
-0.25
 49
0.0
 49
-0.25
  0
LTYPE
  2
DASHDOT2
 70
    64
  3
_._._._._._._._._._._._._._._._._._._._._._._._
 72
    65
 73
     4
 40
0.5
 49
0.25
 49
-0.125
 49
0.0
 49
-0.125
  0
LTYPE
  2
DASHDOTX2
 70
    64
  3
____  .  ____  .  ____  .  ____  .  ____  .  __
 72
    65
 73
     4
 40
2.0
 49
1.0
 49
-0.5
 49
0.0
 49
-0.5
  0
LTYPE
  2
DASHED
 70
    64
  3
__ __ __ __ __ __ __ __ __ __ __ __ __ __ __ __
 72
    65
 73
     2
 40
0.75
 49
0.5
 49
-0.25
  0
LTYPE
  2
DASHED2
 70
    64
  3
_ _ _ _ _ _ _ _ _ _ _ _ _ _ _ _ _ _ _ _ _ _ _ _
 72
    65
 73
     2
 40
0.375
 49
0.25
 49
-0.125
  0
LTYPE
  2
DASHEDX2
 70
    64
  3
____  ____  ____  ____  ____  ____  ____  ____
 72
    65
 73
     2
 40
1.5
 49
1.0
 49
-0.5
  0
LTYPE
  2
DIVIDE
 70
    64
  3
____ . . ____ . . ____ . . ____ . . ____ . . __
 72
    65
 73
     6
 40
1.25
 49
0.5
 49
-0.25
 49
0.0
 49
-0.25
 49
0.0
 49
-0.25
  0
LTYPE
  2
DIVIDE2
 70
    64
  3
__..__..__..__..__..__..__..__..__..__..__..__.
 72
    65
 73
     6
 40
0.625
 49
0.25
 49
-0.125
 49
0.0
 49
-0.125
 49
0.0
 49
-0.125
  0
LTYPE
  2
DIVIDEX2
 70
    64
  3
________  .  .  ________  .  .  ________  .  .
 72
    65
 73
     6
 40
2.5
 49
1.0
 49
-0.5
 49
0.0
 49
-0.5
 49
0.0
 49
-0.5
  0
LTYPE
  2
DOT
 70
    64
  3
. . . . . . . . . . . . . . . . . . . . . . . .
 72
    65
 73
     2
 40
0.25
 49
0.0
 49
-0.25
  0
LTYPE
  2
DOT2
 70
    64
  3
...............................................
 72
    65
 73
     2
 40
0.125
 49
0.0
 49
-0.125
  0
LTYPE
  2
DOTX2
 70
    64
  3
.  .  .  .  .  .  .  .  .  .  .  .  .  .  .  .
 72
    65
 73
     2
 40
0.5
 49
0.0
 49
-0.5
  0
LTYPE
  2
HIDDEN
 70
    64
  3
__ __ __ __ __ __ __ __ __ __ __ __ __ __ __ __
 72
    65
 73
     2
 40
0.375
 49
0.25
 49
-0.125
  0
LTYPE
  2
HIDDEN2
 70
    64
  3
_ _ _ _ _ _ _ _ _ _ _ _ _ _ _ _ _ _ _ _ _ _ _ _
 72
    65
 73
     2
 40
0.1875
 49
0.125
 49
-0.0625
  0
LTYPE
  2
HIDDENX2
 70
    64
  3
____ ____ ____ ____ ____ ____ ____ ____ ____ __
 72
    65
 73
     2
 40
0.75
 49
0.5
 49
-0.25
  0
LTYPE
  2
PHANTOM
 70
    64
  3
______  __  __  ______  __  __  ______  __  __
 72
    65
 73
     6
 40
2.5
 49
1.25
 49
-0.25
 49
0.25
 49
-0.25
 49
0.25
 49
-0.25
  0
LTYPE
  2
PHANTOM2
 70
    64
  3
___ _ _ ___ _ _ ___ _ _ ___ _ _ ___ _ _ ___ _ _
 72
    65
 73
     6
 40
1.25
 49
0.625
 49
-0.125
 49
0.125
 49
-0.125
 49
0.125
 49
-0.125
  0
LTYPE
  2
PHANTOMX2
 70
    64
  3
____________    ____    ____    ____________
 72
    65
 73
     6
 40
5.0
 49
2.5
 49
-0.5
 49
0.5
 49
-0.5
 49
0.5
 49
-0.5
  0
LTYPE
  2
ACAD_ISO02W100
 70
    64
  3
__ __ __ __ __ __ __ __ __ __ __ __ __ __ __ __
 72
    65
 73
     2
 40
15.0
 49
12.0
 49
-3.0
  0
LTYPE
  2
ACAD_ISO03W100
 70
    64
  3
__    __    __    __    __    __    __    __
 72
    65
 73
     2
 40
30.0
 49
12.0
 49
-18.0
  0
LTYPE
  2
ACAD_ISO04W100
 70
    64
  3
____ . ____ . ____ . ____ . ____ . ____ . ____
 72
    65
 73
     4
 40
30.5
 49
24.0
 49
-3.0
 49
0.5
 49
-3.0
  0
LTYPE
  2
ACAD_ISO05W100
 70
    64
  3
____ .. ____ .. ____ .. ____ .. ____ .. ____ ..
 72
    65
 73
     6
 40
34.0
 49
24.0
 49
-3.0
 49
0.5
 49
-3.0
 49
0.5
 49
-3.0
  0
LTYPE
  2
ACAD_ISO06W100
 70
    64
  3
____ ... ____ ... ____ ... ____ ... ____ ... __
 72
    65
 73
     8
 40
37.5
 49
24.0
 49
-3.0
 49
0.5
 49
-3.0
 49
0.5
 49
-3.0
 49
0.5
 49
-3.0
  0
LTYPE
  2
ACAD_ISO07W100
 70
    64
  3
. . . . . . . . . . . . . . . . . . . . . . . .
 72
    65
 73
     2
 40
3.5
 49
0.5
 49
-3.0
  0
LTYPE
  2
ACAD_ISO08W100
 70
    64
  3
____ __ ____ __ ____ __ ____ ____ __ __ ____ __
 72
    65
 73
     4
 40
36.0
 49
24.0
 49
-3.0
 49
6.0
 49
-3.0
  0
LTYPE
  2
ACAD_ISO09W100
 70
    64
  3
____ __ __ ____ __ __ ____ __ __ ____ __ __ ___
 72
    65
 73
     6
 40
45.0
 49
24.0
 49
-3.0
 49
6.0
 49
-3.0
 49
6.0
 49
-3.0
  0
LTYPE
  2
ACAD_ISO10W100
 70
    64
  3
__ . __ . __ . __ . __ . __ . __ . __ . __ . __
 72
    65
 73
     4
 40
18.5
 49
12.0
 49
-3.0
 49
0.5
 49
-3.0
  0
LTYPE
  2
ACAD_ISO11W100
 70
    64
  3
__ __ . __ __ . __ __ . __ __ . __ __ . __ __ .
 72
    65
 73
     6
 40
33.5
 49
12.0
 49
-3.0
 49
12.0
 49
-3.0
 49
0.5
 49
-3.0
  0
LTYPE
  2
ACAD_ISO12W100
 70
    64
  3
__ . . __ . . __ . . __ . . __ . . __ . . __ .
 72
    65
 73
     6
 40
22.0
 49
12.0
 49
-3.0
 49
0.5
 49
-3.0
 49
0.5
 49
-3.0
  0
LTYPE
  2
ACAD_ISO13W100
 70
    64
  3
__ __ . . __ __ . . __ __ . . __ __ . . __ __ .
 72
    65
 73
     8
 40
37.0
 49
12.0
 49
-3.0
 49
12.0
 49
-3.0
 49
0.5
 49
-3.0
 49
0.5
 49
-3.0
  0
LTYPE
  2
ACAD_ISO14W100
 70
    64
  3
__ . . . __ . . . __ . . . __ . . . __ . . . __
 72
    65
 73
     8
 40
25.5
 49
12.0
 49
-3.0
 49
0.5
 49
-3.0
 49
0.5
 49
-3.0
 49
0.5
 49
-3.0
  0
LTYPE
  2
ACAD_ISO15W100
 70
    64
  3
__ __ . . . __ __ . . . __ __ . . . __ __ . . .
 72
    65
 73
    10
 40
40.5
 49
12.0
 49
-3.0
 49
12.0
 49
-3.0
 49
0.5
 49
-3.0
 49
0.5
 49
-3.0
 49
0.5
 49
-3.0
  0
ENDTAB
  0
TABLE
  2
STYLE
 70
     4
  0
STYLE
  2
STANDARD
 70
    64
 40
0.0
 41
1.0
 50
0.0
 71
     0
 42
0.2
  3
txt
  4

  0
STYLE
  2
TOLERANCE
 70
    64
 40
0.0
 41
1.0
 50
0.0
 71
     0
 42
0.2
  3
../igesfont/iges1003.shx
  4

  0
STYLE
  2
ROMANS
 70
    64
 40
0.0
 41
1.0
 50
0.0
 71
     0
 42
0.2
  3
romans.shx
  4

  0
STYLE
  2
ROMANC
 70
    64
 40
0.0
 41
1.0
 50
0.0
 71
     0
 42
0.2
  3
romanc.shx
  4

  0
ENDTAB
  0
TABLE
  2
DIMSTYLE
 70
     2
  0
DIMSTYLE
  2
UNNAMED
 70
     0
  3

  4

  5

  6

  7

 40
1.0
 41
0.18
 42
0.0625
 43
0.38
 44
0.18
 45
0.0
 46
0.0
 47
0.0
 48
0.0
140
0.18
141
0.09
142
0.0
143
25.4
144
1.0
145
0.0
146
1.0
147
0.09
 71
     0
 72
     0
 73
     1
 74
     1
 75
     0
 76
     0
 77
     0
 78
     0
170
     0
171
     2
172
     0
173
     0
174
     0
175
     0
176
     0
177
     0
178
     0
  0
DIMSTYLE
  2
STANDARD
 70
     0
  3

  4

  5

  6

  7

 40
1.0
 41
0.18
 42
0.0625
 43
0.38
 44
0.18
 45
0.0
 46
0.0
 47
0.0
 48
0.0
140
0.18
141
0.09
142
0.0
143
25.4
144
1.0
145
0.0
146
1.0
147
0.09
 71
     0
 72
     0
 73
     1
 74
     1
 75
     0
 76
     0
 77
     0
 78
     0
170
     0
171
     2
172
     0
173
     0
174
     0
175
     0
176
     0
177
     0
178
     0
  0
ENDTAB
  0
TABLE
  2
LAYER
 70
     2
  0
LAYER
  2
0
 70
     0
 62
     7
  6
CONTINUOUS
  0
LAYER
  2
255
 70
     0
 62
     7
  6
CONTINUOUS
  0
ENDTAB
  0
ENDSEC
  0
SECTION
  2
BLOCKS
  0
BLOCK
  5
     B
  8
0
  6
CONTINUOUS
 62
     5
  2
*UDIM2274
 70
    65
 10
0.0
 20
0.0
 30
0.0
  3
*UDIM2274
  0
TEXT
  5
     C
  8
0
  6
CONTINUOUS
 62
     5
 10
-1048.05616038812
 20
-126.187380309351
 30
0.0
 40
3.00000002980232
  1
58
 50
359.999999896069
 41
0.933333333333333
 72
     1
 11
-1045.55616036057
 21
-124.687380298972
 31
0.0
 73
     2
  0
LINE
  5
     D
  8
0
  6
CONTINUOUS
 62
     5
 10
-1038.02099609375
 20
-127.187380313873
 30
0.0
 11
-1052.55224609375
 21
-127.187380313873
 31
0.0
  0
LINE
  5
     E
  8
0
  6
CONTINUOUS
 62
     5
 10
-1040.97541937096
 20
-127.708324743825
 30
0.0
 11
-1038.02099609375
 21
-127.187380313873
 31
0.0
  0
LINE
  5
     F
  8
0
  6
CONTINUOUS
 62
     5
 10
-1038.02099609375
 20
-127.187380313873
 30
0.0
 11
-1040.97541937096
 21
-126.666435883922
 31
0.0
  0
LINE
  5
    10
  8
0
  6
CONTINUOUS
 62
     5
 10
-1049.59782281654
 20
-126.666435883922
 30
0.0
 11
-1052.55224609375
 21
-127.187380313873
 31
0.0
  0
LINE
  5
    11
  8
0
  6
CONTINUOUS
 62
     5
 10
-1052.55224609375
 20
-127.187380313873
 30
0.0
 11
-1049.59782281654
 21
-127.708324743825
 31
0.0
  0
ENDBLK
  5
    12
  8
0
  6
CONTINUOUS
 62
     5
  0
BLOCK
  5
    13
  8
0
  6
CONTINUOUS
 62
     5
  2
*UDIM2275
 70
    65
 10
0.0
 20
0.0
 30
0.0
  3
*UDIM2275
  0
TEXT
  5
    14
  8
0
  6
CONTINUOUS
 62
     5
 10
-1096.31747819204
 20
-131.203631094823
 30
0.0
 40
3.00000002980232
  1
65,75
 50
449.999999896069
 41
0.933333333333333
 72
     1
 11
-1097.81747819483
 21
-124.503631025553
 31
0.0
 73
     2
  0
LINE
  5
    15
  8
0
  6
CONTINUOUS
 62
     5
 10
-1082.69995859204
 20
-116.051208496094
 30
0.0
 11
-1097.31747817993
 21
-116.051208496094
 31
0.0
  0
LINE
  5
    16
  8
0
  6
CONTINUOUS
 62
     5
 10
-1090.86664163001
 20
-132.488708496094
 30
0.0
 11
-1097.31747817993
 21
-132.488708496094
 31
0.0
  0
LINE
  5
    17
  8
0
  6
CONTINUOUS
 62
     5
 10
-1095.31747817993
 20
-116.051208496094
 30
0.0
 11
-1095.31747817993
 21
-132.488708496094
 31
0.0
  0
LINE
  5
    18
  8
0
  6
CONTINUOUS
 62
     5
 10
-1094.79653374998
 20
-119.005631773301
 30
0.0
 11
-1095.31747817993
 21
-116.051208496094
 31
0.0
  0
LINE
  5
    19
  8
0
  6
CONTINUOUS
 62
     5
 10
-1095.31747817993
 20
-116.051208496094
 30
0.0
 11
-1095.83842260988
 21
-119.005631773301
 31
0.0
  0
LINE
  5
    1A
  8
0
  6
CONTINUOUS
 62
     5
 10
-1095.83842260988
 20
-129.534285218887
 30
0.0
 11
-1095.31747817993
 21
-132.488708496094
 31
0.0
  0
LINE
  5
    1B
  8
0
  6
CONTINUOUS
 62
     5
 10
-1095.31747817993
 20
-132.488708496094
 30
0.0
 11
-1094.79653374998
 21
-129.534285218887
 31
0.0
  0
ENDBLK
  5
    1C
  8
0
  6
CONTINUOUS
 62
     5
  0
BLOCK
  5
    1D
  8
0
  6
CONTINUOUS
 62
     7
  2
*UDIM2276
 70
    65
 10
0.0
 20
0.0
 30
0.0
  3
*UDIM2276
  0
TEXT
  5
    1E
  8
0
  6
CONTINUOUS
 62
     7
 10
-1117.387261752
 20
-160.313383365325
 30
0.0
 40
3.00000002980232
  1
6
 50
376.357446133893
 41
0.933333333333334
 72
     1
 11
-1116.75422933623
 21
-158.564306457542
 31
0.0
 73
     2
  0
TEXT
  5
    1F
  8
0
  6
CONTINUOUS
 62
     7
 10
-1120.40976048998
 20
-161.200514382402
 30
0.0
 40
3.00000002980232
  1
Ø
 50
376.357446133893
 41
0.933333333333334
 72
     1
 11
-1119.77672807422
 21
-159.45143747462
 31
0.0
 73
     2
  0
TEXT
  5
    20
  8
0
  6
CONTINUOUS
 62
     7
 10
-1114.74857235633
 20
-159.538903889183
 30
0.0
 40
3.00000002980232
  1
 (M5)
 50
376.357446133893
 41
0.933333333333333
 72
     1
 11
-1108.74220881153
 21
-156.212705172288
 31
0.0
 73
     2
  0
LINE
  5
    21
  8
0
  6
CONTINUOUS
 62
     7
 10
-1077.30135353936
 20
-149.589986826027
 30
0.0
 11
-1120.1281315934
 21
-162.160037789405
 31
0.0
  0
LINE
  5
    22
  8
0
  6
CONTINUOUS
 62
     7
 10
-1074.61322825741
 20
-148.258077494077
 30
0.0
 11
-1077.30135353936
 21
-149.589986826027
 31
0.0
  0
LINE
  5
    23
  8
0
  6
CONTINUOUS
 62
     7
 10
-1077.30135353936
 20
-149.589986826027
 30
0.0
 11
-1074.31980225072
 21
-149.257794241457
 31
0.0
  0
LINE
  5
    24
  8
0
  6
CONTINUOUS
 62
     7
 10
-1081.42876393009
 20
-151.344339498111
 30
0.0
 11
-1078.74063864814
 21
-150.01243016616
 31
0.0
  0
LINE
  5
    25
  8
0
  6
CONTINUOUS
 62
     7
 10
-1078.74063864814
 20
-150.01243016616
 30
0.0
 11
-1081.72218993678
 21
-150.34462275073
 31
0.0
  0
ENDBLK
  5
    26
  8
0
  6
CONTINUOUS
 62
     7
  0
BLOCK
  5
    27
  8
0
  6
CONTINUOUS
 62
     7
  2
*UDIM2277
 70
    65
 10
0.0
 20
0.0
 30
0.0
  3
*UDIM2277
  0
TEXT
  5
    28
  8
0
  6
CONTINUOUS
 62
     7
 10
-1062.19599614117
 20
-141.476656906703
 30
0.0
 40
3.00000002980232
  1
160
 50
359.999999896069
 41
0.933333333333333
 72
     1
 11
-1058.29599609971
 21
-139.976656898856
 31
0.0
 73
     2
  0
LINE
  5
    29
  8
0
  6
CONTINUOUS
 62
     7
 10
-1038.02099609375
 20
-142.476656913757
 30
0.0
 11
-1078.02099609375
 21
-142.476656913757
 31
0.0
  0
LINE
  5
    2A
  8
0
  6
CONTINUOUS
 62
     7
 10
-1040.97541937096
 20
-142.997601343709
 30
0.0
 11
-1038.02099609375
 21
-142.476656913757
 31
0.0
  0
LINE
  5
    2B
  8
0
  6
CONTINUOUS
 62
     7
 10
-1038.02099609375
 20
-142.476656913757
 30
0.0
 11
-1040.97541937096
 21
-141.955712483806
 31
0.0
  0
LINE
  5
    2C
  8
0
  6
CONTINUOUS
 62
     7
 10
-1075.06657281654
 20
-141.955712483806
 30
0.0
 11
-1078.02099609375
 21
-142.476656913757
 31
0.0
  0
LINE
  5
    2D
  8
0
  6
CONTINUOUS
 62
     7
 10
-1078.02099609375
 20
-142.476656913757
 30
0.0
 11
-1075.06657281654
 21
-142.997601343709
 31
0.0
  0
ENDBLK
  5
    2E
  8
0
  6
CONTINUOUS
 62
     7
  0
BLOCK
  5
    2F
  8
0
  6
CONTINUOUS
 62
     7
  2
*UDIM2278
 70
    65
 10
0.0
 20
0.0
 30
0.0
  3
*UDIM2278
  0
TEXT
  5
    30
  8
0
  6
CONTINUOUS
 62
     7
 10
-1104.14293671359
 20
-137.101204247519
 30
0.0
 40
3.00000002980232
  1
135
 50
449.999999896069
 41
0.933333333333333
 72
     1
 11
-1105.64293672144
 21
-133.201204206064
 31
0.0
 73
     2
  0
LINE
  5
    31
  8
0
  6
CONTINUOUS
 62
     7
 10
-1082.69995859204
 20
-116.051207480932
 30
0.0
 11
-1105.14293670654
 21
-116.051184697688
 31
0.0
  0
LINE
  5
    32
  8
0
  6
CONTINUOUS
 62
     7
 10
-1082.37074503235
 20
-149.801207491536
 30
0.0
 11
-1105.14293670654
 21
-149.801184615549
 31
0.0
  0
LINE
  5
    33
  8
0
  6
CONTINUOUS
 62
     7
 10
-1103.14293670654
 20
-116.051186728011
 30
0.0
 11
-1103.14293670654
 21
-149.801186624665
 31
0.0
  0
LINE
  5
    34
  8
0
  6
CONTINUOUS
 62
     7
 10
-1102.62199227659
 20
-119.005610005218
 30
0.0
 11
-1103.14293670654
 21
-116.051186728011
 31
0.0
  0
LINE
  5
    35
  8
0
  6
CONTINUOUS
 62
     7
 10
-1103.14293670654
 20
-116.051186728011
 30
0.0
 11
-1103.66388113649
 21
-119.005610005218
 31
0.0
  0
LINE
  5
    36
  8
0
  6
CONTINUOUS
 62
     7
 10
-1103.66388113649
 20
-146.846763347458
 30
0.0
 11
-1103.14293670654
 21
-149.801186624665
 31
0.0
  0
LINE
  5
    37
  8
0
  6
CONTINUOUS
 62
     7
 10
-1103.14293670654
 20
-149.801186624665
 30
0.0
 11
-1102.62199227659
 21
-146.846763347458
 31
0.0
  0
ENDBLK
  5
    38
  8
0
  6
CONTINUOUS
 62
     7
  0
BLOCK
  5
    39
  8
0
  6
CONTINUOUS
 62
     7
  2
*HATCH1304
 70
    65
 10
0.0
 20
0.0
 30
0.0
  3
*HATCH1304
  0
LINE
  5
    3A
  8
0
  6
CONTINUOUS
 62
    52
 10
187.863540649414
 20
-106.999984741211
 30
0.0
 11
185.863540649414
 21
-108.999984741211
 31
0.0
  0
LINE
  5
    3B
  8
0
  6
CONTINUOUS
 62
    52
 10
192.106185913086
 20
-106.999984741211
 30
0.0
 11
190.106185913086
 21
-108.999984741211
 31
0.0
  0
LINE
  5
    3C
  8
0
  6
CONTINUOUS
 62
    52
 10
196.348831176758
 20
-106.999984741211
 30
0.0
 11
194.348831176758
 21
-108.999984741211
 31
0.0
  0
LINE
  5
    3D
  8
0
  6
CONTINUOUS
 62
    52
 10
200.59147644043
 20
-106.999984741211
 30
0.0
 11
198.59147644043
 21
-108.999984741211
 31
0.0
  0
LINE
  5
    3E
  8
0
  6
CONTINUOUS
 62
    52
 10
204.834121704102
 20
-106.999984741211
 30
0.0
 11
202.834121704102
 21
-108.999984741211
 31
0.0
  0
LINE
  5
    3F
  8
0
  6
CONTINUOUS
 62
    52
 10
209.076766967773
 20
-106.999984741211
 30
0.0
 11
207.076766967773
 21
-108.999984741211
 31
0.0
  0
LINE
  5
    40
  8
0
  6
CONTINUOUS
 62
    52
 10
213.319412231445
 20
-106.999984741211
 30
0.0
 11
211.319412231445
 21
-108.999984741211
 31
0.0
  0
LINE
  5
    41
  8
0
  6
CONTINUOUS
 62
    52
 10
217.562057495117
 20
-106.999984741211
 30
0.0
 11
215.562057495117
 21
-108.999984741211
 31
0.0
  0
LINE
  5
    42
  8
0
  6
CONTINUOUS
 62
    52
 10
221.804702758789
 20
-106.999984741211
 30
0.0
 11
219.804702758789
 21
-108.999984741211
 31
0.0
  0
LINE
  5
    43
  8
0
  6
CONTINUOUS
 62
    52
 10
226.047348022461
 20
-106.999984741211
 30
0.0
 11
224.047348022461
 21
-108.999984741211
 31
0.0
  0
LINE
  5
    44
  8
0
  6
CONTINUOUS
 62
    52
 10
230.289993286133
 20
-106.999984741211
 30
0.0
 11
228.289993286133
 21
-108.999984741211
 31
0.0
  0
LINE
  5
    45
  8
0
  6
CONTINUOUS
 62
    52
 10
234.532638549805
 20
-106.999984741211
 30
0.0
 11
232.532638549805
 21
-108.999984741211
 31
0.0
  0
LINE
  5
    46
  8
0
  6
CONTINUOUS
 62
    52
 10
238.775283813477
 20
-106.999984741211
 30
0.0
 11
236.775283813477
 21
-108.999984741211
 31
0.0
  0
LINE
  5
    47
  8
0
  6
CONTINUOUS
 62
    52
 10
243.017929077148
 20
-106.999984741211
 30
0.0
 11
241.017929077148
 21
-108.999984741211
 31
0.0
  0
LINE
  5
    48
  8
0
  6
CONTINUOUS
 62
    52
 10
247.26057434082
 20
-106.999984741211
 30
0.0
 11
245.26057434082
 21
-108.999984741211
 31
0.0
  0
LINE
  5
    49
  8
0
  6
CONTINUOUS
 62
    52
 10
251.503219604492
 20
-106.999984741211
 30
0.0
 11
249.503219604492
 21
-108.999984741211
 31
0.0
  0
LINE
  5
    4A
  8
0
  6
CONTINUOUS
 62
    52
 10
254.581115722656
 20
-108.164665222168
 30
0.0
 11
253.745803833008
 21
-108.999984741211
 31
0.0
  0
ENDBLK
  5
    4B
  8
0
  6
CONTINUOUS
 62
     7
  0
BLOCK
  5
    4C
  8
0
  6
CONTINUOUS
 62
     7
  2
*HATCH1305
 70
    65
 10
0.0
 20
0.0
 30
0.0
  3
*HATCH1305
  0
LINE
  5
    4D
  8
0
  6
CONTINUOUS
 62
    52
 10
168.771667480469
 20
-106.999984741211
 30
0.0
 11
166.771667480469
 21
-108.999984741211
 31
0.0
  0
LINE
  5
    4E
  8
0
  6
CONTINUOUS
 62
    52
 10
173.014312744141
 20
-106.999984741211
 30
0.0
 11
171.014312744141
 21
-108.999984741211
 31
0.0
  0
LINE
  5
    4F
  8
0
  6
CONTINUOUS
 62
    52
 10
177.256958007812
 20
-106.999984741211
 30
0.0
 11
175.256958007813
 21
-108.999984741211
 31
0.0
  0
ENDBLK
  5
    50
  8
0
  6
CONTINUOUS
 62
     7
  0
BLOCK
  5
    51
  8
0
  6
CONTINUOUS
 62
     7
  2
*HATCH1306
 70
    65
 10
0.0
 20
0.0
 30
0.0
  3
*HATCH1306
  0
LINE
  5
    52
  8
0
  6
CONTINUOUS
 62
    52
 10
45.7350769042969
 20
-106.999984741211
 30
0.0
 11
43.7350769042969
 21
-108.999984741211
 31
0.0
  0
LINE
  5
    53
  8
0
  6
CONTINUOUS
 62
    52
 10
49.9777145385742
 20
-106.999984741211
 30
0.0
 11
47.9777145385742
 21
-108.999984741211
 31
0.0
  0
LINE
  5
    54
  8
0
  6
CONTINUOUS
 62
    52
 10
53.9806251525879
 20
-107.239715576172
 30
0.0
 11
52.2203598022461
 21
-108.999984741211
 31
0.0
  0
ENDBLK
  5
    55
  8
0
  6
CONTINUOUS
 62
     7
  0
BLOCK
  5
    56
  8
0
  6
CONTINUOUS
 62
     7
  2
*HATCH1307
 70
    65
 10
0.0
 20
0.0
 30
0.0
  3
*HATCH1307
  0
LINE
  5
    57
  8
0
  6
CONTINUOUS
 62
    52
 10
-68.8162231445313
 20
-106.999984741211
 30
0.0
 11
-70.3954467773438
 21
-108.579208374023
 31
0.0
  0
LINE
  5
    58
  8
0
  6
CONTINUOUS
 62
    52
 10
-64.5735855102539
 20
-106.999984741211
 30
0.0
 11
-66.5735855102539
 21
-108.999984741211
 31
0.0
  0
LINE
  5
    59
  8
0
  6
CONTINUOUS
 62
    52
 10
-60.3309478759766
 20
-106.999984741211
 30
0.0
 11
-62.3309440612793
 21
-108.999984741211
 31
0.0
  0
LINE
  5
    5A
  8
0
  6
CONTINUOUS
 62
    52
 10
-56.0883102416992
 20
-106.999984741211
 30
0.0
 11
-58.088306427002
 21
-108.999984741211
 31
0.0
  0
LINE
  5
    5B
  8
0
  6
CONTINUOUS
 62
    52
 10
-51.8456726074219
 20
-106.999984741211
 30
0.0
 11
-53.8456687927246
 21
-108.999984741211
 31
0.0
  0
LINE
  5
    5C
  8
0
  6
CONTINUOUS
 62
    52
 10
-47.6030349731445
 20
-106.999984741211
 30
0.0
 11
-49.6030311584473
 21
-108.999984741211
 31
0.0
  0
LINE
  5
    5D
  8
0
  6
CONTINUOUS
 62
    52
 10
-43.3603973388672
 20
-106.999984741211
 30
0.0
 11
-45.3603935241699
 21
-108.999984741211
 31
0.0
  0
LINE
  5
    5E
  8
0
  6
CONTINUOUS
 62
    52
 10
-39.1177597045898
 20
-106.999984741211
 30
0.0
 11
-41.1177558898926
 21
-108.999984741211
 31
0.0
  0
LINE
  5
    5F
  8
0
  6
CONTINUOUS
 62
    52
 10
-34.8751220703125
 20
-106.999984741211
 30
0.0
 11
-36.8751182556152
 21
-108.999984741211
 31
0.0
  0
LINE
  5
    60
  8
0
  6
CONTINUOUS
 62
    52
 10
-30.6324825286865
 20
-106.999984741211
 30
0.0
 11
-32.6324806213379
 21
-108.999984741211
 31
0.0
  0
LINE
  5
    61
  8
0
  6
CONTINUOUS
 62
    52
 10
-26.3898410797119
 20
-106.999984741211
 30
0.0
 11
-28.3898391723633
 21
-108.999984741211
 31
0.0
  0
LINE
  5
    62
  8
0
  6
CONTINUOUS
 62
    52
 10
-22.1471996307373
 20
-106.999984741211
 30
0.0
 11
-24.1471977233887
 21
-108.999984741211
 31
0.0
  0
LINE
  5
    63
  8
0
  6
CONTINUOUS
 62
    52
 10
-17.9045581817627
 20
-106.999984741211
 30
0.0
 11
-19.9045562744141
 21
-108.999984741211
 31
0.0
  0
LINE
  5
    64
  8
0
  6
CONTINUOUS
 62
    52
 10
-13.6619167327881
 20
-106.999984741211
 30
0.0
 11
-15.6619148254395
 21
-108.999984741211
 31
0.0
  0
LINE
  5
    65
  8
0
  6
CONTINUOUS
 62
    52
 10
-9.41927528381348
 20
-106.999984741211
 30
0.0
 11
-11.4192733764648
 21
-108.999984741211
 31
0.0
  0
LINE
  5
    66
  8
0
  6
CONTINUOUS
 62
    52
 10
-5.17663383483887
 20
-106.999984741211
 30
0.0
 11
-7.17663192749023
 21
-108.999984741211
 31
0.0
  0
LINE
  5
    67
  8
0
  6
CONTINUOUS
 62
    52
 10
-0.933992862701416
 20
-106.999984741211
 30
0.0
 11
-2.9339907169342
 21
-108.999984741211
 31
0.0
  0
LINE
  5
    68
  8
0
  6
CONTINUOUS
 62
    52
 10
3.30864810943604
 20
-106.999984741211
 30
0.0
 11
1.30865025520325
 21
-108.999984741211
 31
0.0
  0
LINE
  5
    69
  8
0
  6
CONTINUOUS
 62
    52
 10
7.55128955841064
 20
-106.999984741211
 30
0.0
 11
5.55129146575928
 21
-108.999984741211
 31
0.0
  0
LINE
  5
    6A
  8
0
  6
CONTINUOUS
 62
    52
 10
11.7939310073853
 20
-106.999984741211
 30
0.0
 11
9.79393291473389
 21
-108.999984741211
 31
0.0
  0
LINE
  5
    6B
  8
0
  6
CONTINUOUS
 62
    52
 10
16.0365715026855
 20
-106.999984741211
 30
0.0
 11
14.0365743637085
 21
-108.999984741211
 31
0.0
  0
LINE
  5
    6C
  8
0
  6
CONTINUOUS
 62
    52
 10
20.2792129516602
 20
-106.999984741211
 30
0.0
 11
18.2792148590088
 21
-108.999984741211
 31
0.0
  0
LINE
  5
    6D
  8
0
  6
CONTINUOUS
 62
    52
 10
24.5218544006348
 20
-106.999984741211
 30
0.0
 11
22.5218563079834
 21
-108.999984741211
 31
0.0
  0
LINE
  5
    6E
  8
0
  6
CONTINUOUS
 62
    52
 10
28.7644958496094
 20
-106.999984741211
 30
0.0
 11
26.764497756958
 21
-108.999984741211
 31
0.0
  0
LINE
  5
    6F
  8
0
  6
CONTINUOUS
 62
    52
 10
33.007137298584
 20
-106.999984741211
 30
0.0
 11
31.0071392059326
 21
-108.999984741211
 31
0.0
  0
LINE
  5
    70
  8
0
  6
CONTINUOUS
 62
    52
 10
35.4806251525879
 20
-108.769157409668
 30
0.0
 11
35.2497940063477
 21
-108.999984741211
 31
0.0
  0
ENDBLK
  5
    71
  8
0
  6
CONTINUOUS
 62
     7
  0
BLOCK
  5
    72
  8
0
  6
CONTINUOUS
 62
     7
  2
*UDIM2279
 70
    65
 10
0.0
 20
0.0
 30
0.0
  3
*UDIM2279
  0
TEXT
  5
    73
  8
0
  6
CONTINUOUS
 62
     7
 10
-946.86724101341
 20
100.512313843766
 30
0.0
 40
3.00000002980232
  1
6
 50
359.999999948034
 41
0.933333333333334
 72
     1
 11
-945.767241001129
 21
102.012313857675
 31
0.0
 73
     2
  0
LINE
  5
    74
  8
0
  6
CONTINUOUS
 62
     7
 10
-949.867240905762
 20
90.212760925293
 30
0.0
 11
-949.867240905762
 21
101.512313842773
 31
0.0
  0
LINE
  5
    75
  8
0
  6
CONTINUOUS
 62
     7
 10
-952.867240905762
 20
90.212760925293
 30
0.0
 11
-952.867240905762
 21
101.512313842773
 31
0.0
  0
LINE
  5
    76
  8
0
  6
CONTINUOUS
 62
     7
 10
-944.667240990202
 20
99.5123138427734
 30
0.0
 11
-952.867240905762
 21
99.5123138427734
 31
0.0
  0
LINE
  5
    77
  8
0
  6
CONTINUOUS
 62
     7
 10
-946.912817628555
 20
100.033258272725
 30
0.0
 11
-949.867240905762
 21
99.5123138427734
 31
0.0
  0
LINE
  5
    78
  8
0
  6
CONTINUOUS
 62
     7
 10
-949.867240905762
 20
99.5123138427734
 30
0.0
 11
-946.912817628555
 21
98.9913694128218
 31
0.0
  0
LINE
  5
    79
  8
0
  6
CONTINUOUS
 62
     7
 10
-955.821664182969
 20
98.9913694128218
 30
0.0
 11
-952.867240905762
 21
99.5123138427734
 31
0.0
  0
LINE
  5
    7A
  8
0
  6
CONTINUOUS
 62
     7
 10
-952.867240905762
 20
99.5123138427734
 30
0.0
 11
-955.821664182969
 21
100.033258272725
 31
0.0
  0
ENDBLK
  5
    7B
  8
0
  6
CONTINUOUS
 62
     7
  0
BLOCK
  5
    7C
  8
0
  6
CONTINUOUS
 62
     7
  2
*UDIM2280
 70
    65
 10
0.0
 20
0.0
 30
0.0
  3
*UDIM2280
  0
TEXT
  5
    7D
  8
0
  6
CONTINUOUS
 62
     7
 10
-963.39224093791
 20
100.512313845028
 30
0.0
 40
3.00000002980232
  1
31
 50
359.999999948034
 41
0.933333333333333
 72
     1
 11
-960.892240911722
 21
102.012313857675
 31
0.0
 73
     2
  0
LINE
  5
    7E
  8
0
  6
CONTINUOUS
 62
     7
 10
-968.367240905762
 20
86.1295465730516
 30
0.0
 11
-968.367240905762
 21
101.512313842773
 31
0.0
  0
LINE
  5
    7F
  8
0
  6
CONTINUOUS
 62
     7
 10
-952.867240905762
 20
99.5123138427734
 30
0.0
 11
-968.367240905762
 21
99.5123138427734
 31
0.0
  0
LINE
  5
    80
  8
0
  6
CONTINUOUS
 62
     7
 10
-955.821664182969
 20
98.9913694128218
 30
0.0
 11
-952.867240905762
 21
99.5123138427734
 31
0.0
  0
LINE
  5
    81
  8
0
  6
CONTINUOUS
 62
     7
 10
-952.867240905762
 20
99.5123138427734
 30
0.0
 11
-955.821664182969
 21
100.033258272725
 31
0.0
  0
LINE
  5
    82
  8
0
  6
CONTINUOUS
 62
     7
 10
-965.412817628555
 20
100.033258272725
 30
0.0
 11
-968.367240905762
 21
99.5123138427734
 31
0.0
  0
LINE
  5
    83
  8
0
  6
CONTINUOUS
 62
     7
 10
-968.367240905762
 20
99.5123138427734
 30
0.0
 11
-965.412817628555
 21
98.9913694128218
 31
0.0
  0
ENDBLK
  5
    84
  8
0
  6
CONTINUOUS
 62
     7
  0
BLOCK
  5
    85
  8
0
  6
CONTINUOUS
 62
     7
  2
*UDIM2281
 70
    65
 10
0.0
 20
0.0
 30
0.0
  3
*UDIM2281
  0
TEXT
  5
    86
  8
0
  6
CONTINUOUS
 62
     7
 10
-975.61724101341
 20
100.512313843766
 30
0.0
 40
3.00000002980232
  1
3
 50
359.999999948034
 41
0.933333333333334
 72
     1
 11
-974.517241001129
 21
102.012313857675
 31
0.0
 73
     2
  0
TEXT
  5
    87
  8
0
  6
CONTINUOUS
 62
     7
 10
-978.367241047186
 20
100.512313843766
 30
0.0
 40
3.00000002980232
  1
_
 50
359.999999948034
 41
0.933333333333334
 72
     1
 11
-977.267241034905
 21
102.012313857675
 31
0.0
 73
     2
  0
LINE
  5
    88
  8
0
  6
CONTINUOUS
 62
     7
 10
-969.867240905762
 20
86.0599495012664
 30
0.0
 11
-969.867240905762
 21
101.512313842773
 31
0.0
  0
LINE
  5
    89
  8
0
  6
CONTINUOUS
 62
     7
 10
-968.367240905762
 20
99.5123138427734
 30
0.0
 11
-978.367241045833
 21
99.5123138427734
 31
0.0
  0
LINE
  5
    8A
  8
0
  6
CONTINUOUS
 62
     7
 10
-965.412817628555
 20
100.033258272725
 30
0.0
 11
-968.367240905762
 21
99.5123138427734
 31
0.0
  0
LINE
  5
    8B
  8
0
  6
CONTINUOUS
 62
     7
 10
-968.367240905762
 20
99.5123138427734
 30
0.0
 11
-965.412817628555
 21
98.9913694128218
 31
0.0
  0
LINE
  5
    8C
  8
0
  6
CONTINUOUS
 62
     7
 10
-972.821664182969
 20
98.9913694128218
 30
0.0
 11
-969.867240905762
 21
99.5123138427734
 31
0.0
  0
LINE
  5
    8D
  8
0
  6
CONTINUOUS
 62
     7
 10
-969.867240905762
 20
99.5123138427734
 30
0.0
 11
-972.821664182969
 21
100.033258272725
 31
0.0
  0
ENDBLK
  5
    8E
  8
0
  6
CONTINUOUS
 62
     7
  0
BLOCK
  5
    8F
  8
0
  6
CONTINUOUS
 62
     7
  2
*UDIM2282
 70
    65
 10
0.0
 20
0.0
 30
0.0
  3
*UDIM2282
  0
TEXT
  5
    90
  8
0
  6
CONTINUOUS
 62
     7
 10
-886.117256272212
 20
-94.7489128102872
 30
0.0
 40
3.00000002980232
  1
2
 50
359.999999948034
 41
0.933333333333334
 72
     1
 11
-885.017256259931
 21
-93.2489127963781
 31
0.0
 73
     2
  0
LINE
  5
    91
  8
0
  6
CONTINUOUS
 62
     7
 10
-889.117256164564
 20
-84.2219182757063
 30
0.0
 11
-889.117256164564
 21
-97.7489128112793
 31
0.0
  0
LINE
  5
    92
  8
0
  6
CONTINUOUS
 62
     7
 10
-890.117256164564
 20
-84.8473363359069
 30
0.0
 11
-890.117256164564
 21
-97.7489128112793
 31
0.0
  0
LINE
  5
    93
  8
0
  6
CONTINUOUS
 62
     7
 10
-883.917256249003
 20
-95.7489128112793
 30
0.0
 11
-890.117256164564
 21
-95.7489128112793
 31
0.0
  0
LINE
  5
    94
  8
0
  6
CONTINUOUS
 62
     7
 10
-886.162832887357
 20
-95.2279683813276
 30
0.0
 11
-889.117256164564
 21
-95.7489128112793
 31
0.0
  0
LINE
  5
    95
  8
0
  6
CONTINUOUS
 62
     7
 10
-889.117256164564
 20
-95.7489128112793
 30
0.0
 11
-886.162832887357
 21
-96.269857241231
 31
0.0
  0
LINE
  5
    96
  8
0
  6
CONTINUOUS
 62
     7
 10
-893.071679441771
 20
-96.269857241231
 30
0.0
 11
-890.117256164564
 21
-95.7489128112793
 31
0.0
  0
LINE
  5
    97
  8
0
  6
CONTINUOUS
 62
     7
 10
-890.117256164564
 20
-95.7489128112793
 30
0.0
 11
-893.071679441771
 21
-95.2279683813276
 31
0.0
  0
ENDBLK
  5
    98
  8
0
  6
CONTINUOUS
 62
     7
  0
BLOCK
  5
    99
  8
0
  6
CONTINUOUS
 62
     7
  2
*UDIM2283
 70
    65
 10
0.0
 20
0.0
 30
0.0
  3
*UDIM2283
  0
TEXT
  5
    9A
  8
0
  6
CONTINUOUS
 62
     7
 10
-936.217248609035
 20
-94.7489128052363
 30
0.0
 40
3.00000002980232
  1
156,5
 50
359.999999948034
 41
0.933333333333333
 72
     1
 11
-929.517248541123
 21
-93.2489127963781
 31
0.0
 73
     2
  0
LINE
  5
    9B
  8
0
  6
CONTINUOUS
 62
     7
 10
-968.367240905762
 20
-72.5334620154077
 30
0.0
 11
-968.367240905762
 21
-97.7489128112793
 31
0.0
  0
LINE
  5
    9C
  8
0
  6
CONTINUOUS
 62
     7
 10
-890.117256164564
 20
-95.7489128112793
 30
0.0
 11
-968.367240905762
 21
-95.7489128112793
 31
0.0
  0
LINE
  5
    9D
  8
0
  6
CONTINUOUS
 62
     7
 10
-893.071679441771
 20
-96.269857241231
 30
0.0
 11
-890.117256164564
 21
-95.7489128112793
 31
0.0
  0
LINE
  5
    9E
  8
0
  6
CONTINUOUS
 62
     7
 10
-890.117256164564
 20
-95.7489128112793
 30
0.0
 11
-893.071679441771
 21
-95.2279683813276
 31
0.0
  0
LINE
  5
    9F
  8
0
  6
CONTINUOUS
 62
     7
 10
-965.412817628555
 20
-95.2279683813276
 30
0.0
 11
-968.367240905762
 21
-95.7489128112793
 31
0.0
  0
LINE
  5
    A0
  8
0
  6
CONTINUOUS
 62
     7
 10
-968.367240905762
 20
-95.7489128112793
 30
0.0
 11
-965.412817628555
 21
-96.269857241231
 31
0.0
  0
ENDBLK
  5
    A1
  8
0
  6
CONTINUOUS
 62
     7
  0
BLOCK
  5
    A2
  8
0
  6
CONTINUOUS
 62
     7
  2
*UDIM2284
 70
    65
 10
0.0
 20
0.0
 30
0.0
  3
*UDIM2284
  0
TEXT
  5
    A3
  8
0
  6
CONTINUOUS
 62
     7
 10
-929.206231743049
 20
-107.206958764709
 30
0.0
 40
3.00000002980232
  1
184,5
 50
359.999999948034
 41
0.933333333333333
 72
     1
 11
-922.506231675137
 21
-105.706958755851
 31
0.0
 73
     2
  0
LINE
  5
    A4
  8
0
  6
CONTINUOUS
 62
     7
 10
-876.095215173469
 20
0.712793273908161
 30
0.0
 11
-876.095249993006
 21
-110.206958770752
 31
0.0
  0
LINE
  5
    A5
  8
0
  6
CONTINUOUS
 62
     7
 10
-968.367241219678
 20
-72.5334620154076
 30
0.0
 11
-968.36725304601
 21
-110.206958770752
 31
0.0
  0
LINE
  5
    A6
  8
0
  6
CONTINUOUS
 62
     7
 10
-876.095249365173
 20
-108.206958770752
 30
0.0
 11
-968.367252418177
 21
-108.206958770752
 31
0.0
  0
LINE
  5
    A7
  8
0
  6
CONTINUOUS
 62
     7
 10
-879.04967264238
 20
-108.727903200704
 30
0.0
 11
-876.095249365173
 21
-108.206958770752
 31
0.0
  0
LINE
  5
    A8
  8
0
  6
CONTINUOUS
 62
     7
 10
-876.095249365173
 20
-108.206958770752
 30
0.0
 11
-879.04967264238
 21
-107.6860143408
 31
0.0
  0
LINE
  5
    A9
  8
0
  6
CONTINUOUS
 62
     7
 10
-965.41282914097
 20
-107.6860143408
 30
0.0
 11
-968.367252418177
 21
-108.206958770752
 31
0.0
  0
LINE
  5
    AA
  8
0
  6
CONTINUOUS
 62
     7
 10
-968.367252418177
 20
-108.206958770752
 30
0.0
 11
-965.41282914097
 21
-108.727903200704
 31
0.0
  0
ENDBLK
  5
    AB
  8
0
  6
CONTINUOUS
 62
     7
  0
BLOCK
  5
    AC
  8
0
  6
CONTINUOUS
 62
     7
  2
*UDIM2285
 70
    65
 10
0.0
 20
0.0
 30
0.0
  3
*UDIM2285
  0
TEXT
  5
    AD
  8
0
  6
CONTINUOUS
 62
     7
 10
-934.292248574824
 20
-77.965261455833
 30
0.0
 40
3.00000002980232
  1
153
 50
359.999999948034
 41
0.933333333333333
 72
     1
 11
-930.392248534728
 21
-76.4652614444494
 31
0.0
 73
     2
  0
LINE
  5
    AE
  8
0
  6
CONTINUOUS
 62
     7
 10
-891.86725647848
 20
-20.4122067260918
 30
0.0
 11
-891.867275487082
 21
-80.9652614593505
 31
0.0
  0
LINE
  5
    AF
  8
0
  6
CONTINUOUS
 62
     7
 10
-968.367241219678
 20
-72.5334620154076
 30
0.0
 11
-968.367243866559
 21
-80.9652614593505
 31
0.0
  0
LINE
  5
    B0
  8
0
  6
CONTINUOUS
 62
     7
 10
-891.867274859248
 20
-78.9652614593506
 30
0.0
 11
-968.367243238726
 21
-78.9652614593506
 31
0.0
  0
LINE
  5
    B1
  8
0
  6
CONTINUOUS
 62
     7
 10
-894.821698136456
 20
-79.4862058893023
 30
0.0
 11
-891.867274859248
 21
-78.9652614593506
 31
0.0
  0
LINE
  5
    B2
  8
0
  6
CONTINUOUS
 62
     7
 10
-891.867274859248
 20
-78.9652614593506
 30
0.0
 11
-894.821698136456
 21
-78.4443170293989
 31
0.0
  0
LINE
  5
    B3
  8
0
  6
CONTINUOUS
 62
     7
 10
-965.412819961519
 20
-78.4443170293989
 30
0.0
 11
-968.367243238726
 21
-78.9652614593506
 31
0.0
  0
LINE
  5
    B4
  8
0
  6
CONTINUOUS
 62
     7
 10
-968.367243238726
 20
-78.9652614593506
 30
0.0
 11
-965.412819961519
 21
-79.4862058893023
 31
0.0
  0
ENDBLK
  5
    B5
  8
0
  6
CONTINUOUS
 62
     7
  0
BLOCK
  5
    B6
  8
0
  6
CONTINUOUS
 62
     7
  2
*UDIM2286
 70
    65
 10
0.0
 20
0.0
 30
0.0
  3
*UDIM2286
  0
TEXT
  5
    B7
  8
0
  6
CONTINUOUS
 62
     7
 10
-866.914146426872
 20
7.00792978089516
 30
0.0
 40
3.00000002980232
  1
105
 50
89.9999999480344
 41
0.933333333333333
 72
     1
 11
-868.414146438241
 21
10.9079298209967
 31
0.0
 73
     2
  0
LINE
  5
    B8
  8
0
  6
CONTINUOUS
 62
     7
 10
-889.117256164564
 20
-19.4122067260919
 30
0.0
 11
-863.91414642334
 21
-19.4122067260919
 31
0.0
  0
LINE
  5
    B9
  8
0
  6
CONTINUOUS
 62
     7
 10
-889.117256164564
 20
33.0877780151191
 30
0.0
 11
-863.91414642334
 21
33.0877780151191
 31
0.0
  0
LINE
  5
    BA
  8
0
  6
CONTINUOUS
 62
     7
 10
-865.91414642334
 20
-19.4122067260919
 30
0.0
 11
-865.91414642334
 21
33.0877780151191
 31
0.0
  0
LINE
  5
    BB
  8
0
  6
CONTINUOUS
 62
     7
 10
-866.435090853292
 20
-16.4577834488849
 30
0.0
 11
-865.91414642334
 21
-19.4122067260919
 31
0.0
  0
LINE
  5
    BC
  8
0
  6
CONTINUOUS
 62
     7
 10
-865.91414642334
 20
-19.4122067260919
 30
0.0
 11
-865.393201993388
 21
-16.4577834488849
 31
0.0
  0
LINE
  5
    BD
  8
0
  6
CONTINUOUS
 62
     7
 10
-865.393201993388
 20
30.1333547379121
 30
0.0
 11
-865.91414642334
 21
33.0877780151191
 31
0.0
  0
LINE
  5
    BE
  8
0
  6
CONTINUOUS
 62
     7
 10
-865.91414642334
 20
33.0877780151191
 30
0.0
 11
-866.435090853292
 21
30.1333547379121
 31
0.0
  0
ENDBLK
  5
    BF
  8
0
  6
CONTINUOUS
 62
     7
  0
BLOCK
  5
    C0
  8
0
  6
CONTINUOUS
 62
     0
  2
$1ON-OFF
 70
    64
 10
0.0
 20
0.0
 30
0.0
  3
$1ON-OFF
  0
LINE
  5
    C1
  8
0
  6
CONTINUOUS
 62
     0
 10
5.09999999999999
 20
-29.65
 30
0.0
 11
5.54999999999999
 21
-29.65
 31
0.0
  0
LINE
  5
    C2
  8
0
  6
CONTINUOUS
 62
     0
 10
3.79999999999999
 20
-37.35
 30
0.0
 11
4.59999999999999
 21
-37.35
 31
0.0
  0
LINE
  5
    C3
  8
0
  6
CONTINUOUS
 62
     0
 10
-2.6
 20
-34.75
 30
0.0
 11
-2.6
 21
-34.25
 31
0.0
  0
LINE
  5
    C4
  8
0
  6
CONTINUOUS
 62
     0
 10
2.6
 20
-34.75
 30
0.0
 11
2.6
 21
-34.25
 31
0.0
  0
ARC
  5
    C5
  8
0
  6
CONTINUOUS
 62
     0
 10
-3.5527136788005E-15
 20
-34.25
 30
0.0
 40
2.6
 50
0.0
 51
180.0
  0
ARC
  5
    C6
  8
0
  6
CONTINUOUS
 62
     0
 10
-3.5527136788005E-15
 20
-34.75
 30
0.0
 40
2.6
 50
180.0
 51
360.0
  0
ARC
  5
    C7
  8
0
  6
CONTINUOUS
 62
     0
 10
-3.5527136788005E-15
 20
-34.25
 30
0.0
 40
1.8
 50
0.0
 51
180.0
  0
ARC
  5
    C8
  8
0
  6
CONTINUOUS
 62
     0
 10
-3.5527136788005E-15
 20
-34.75
 30
0.0
 40
1.8
 50
180.0
 51
360.0
  0
LINE
  5
    C9
  8
0
  6
CONTINUOUS
 62
     0
 10
-1.8
 20
-34.75
 30
0.0
 11
-1.8
 21
-34.25
 31
0.0
  0
LINE
  5
    CA
  8
0
  6
CONTINUOUS
 62
     0
 10
1.8
 20
-34.75
 30
0.0
 11
1.8
 21
-34.25
 31
0.0
  0
LINE
  5
    CB
  8
0
  6
CONTINUOUS
 62
     0
 10
2.84999999999999
 20
-32.85
 30
0.0
 11
2.84999999999999
 21
-32.05
 31
0.0
  0
LINE
  5
    CC
  8
0
  6
CONTINUOUS
 62
     0
 10
2.84999999999999
 20
-32.85
 30
0.0
 11
3.79999999999999
 21
-32.85
 31
0.0
  0
LINE
  5
    CD
  8
0
  6
CONTINUOUS
 62
     0
 10
5.54999999999999
 20
-32.85
 30
0.0
 11
5.54999999999999
 21
-32.05
 31
0.0
  0
LINE
  5
    CE
  8
0
  6
CONTINUOUS
 62
     0
 10
2.84999999999999
 20
-32.05
 30
0.0
 11
3.79999999999999
 21
-32.05
 31
0.0
  0
LINE
  5
    CF
  8
0
  6
CONTINUOUS
 62
     0
 10
3.79999999999999
 20
-37.35
 30
0.0
 11
3.79999999999999
 21
-32.85
 31
0.0
  0
LINE
  5
    D0
  8
0
  6
CONTINUOUS
 62
     0
 10
4.59999999999999
 20
-37.35
 30
0.0
 11
4.59999999999999
 21
-32.85
 31
0.0
  0
LINE
  5
    D1
  8
0
  6
CONTINUOUS
 62
     0
 10
4.59999999999999
 20
-32.85
 30
0.0
 11
5.54999999999999
 21
-32.85
 31
0.0
  0
LINE
  5
    D2
  8
0
  6
CONTINUOUS
 62
     0
 10
4.59999999999999
 20
-32.05
 30
0.0
 11
5.54999999999999
 21
-32.05
 31
0.0
  0
LINE
  5
    D3
  8
0
  6
CONTINUOUS
 62
     0
 10
3.79999999999999
 20
-32.05
 30
0.0
 11
3.79999999999999
 21
-30.95
 31
0.0
  0
LINE
  5
    D4
  8
0
  6
CONTINUOUS
 62
     0
 10
4.59999999999999
 20
-32.05
 30
0.0
 11
4.59999999999999
 21
-30.95
 31
0.0
  0
ARC
  5
    D5
  8
0
  6
CONTINUOUS
 62
     0
 10
5.09999999999999
 20
-30.95
 30
0.0
 40
1.3
 50
89.9999999999999
 51
180.0
  0
ARC
  5
    D6
  8
0
  6
CONTINUOUS
 62
     0
 10
5.09999999999999
 20
-30.95
 30
0.0
 40
0.5
 50
89.9999999999999
 51
180.0
  0
LINE
  5
    D7
  8
0
  6
CONTINUOUS
 62
     0
 10
5.54999999999999
 20
-30.45
 30
0.0
 11
5.54999999999999
 21
-29.65
 31
0.0
  0
LINE
  5
    D8
  8
0
  6
CONTINUOUS
 62
     0
 10
5.09999999999999
 20
-30.45
 30
0.0
 11
5.54999999999999
 21
-30.45
 31
0.0
  0
LINE
  5
    D9
  8
0
  6
CONTINUOUS
 62
     0
 10
8.29999999999998
 20
-29.65
 30
0.0
 11
8.74999999999999
 21
-29.65
 31
0.0
  0
LINE
  5
    DA
  8
0
  6
CONTINUOUS
 62
     0
 10
6.99999999999999
 20
-37.35
 30
0.0
 11
7.79999999999999
 21
-37.35
 31
0.0
  0
LINE
  5
    DB
  8
0
  6
CONTINUOUS
 62
     0
 10
6.04999999999999
 20
-32.85
 30
0.0
 11
6.04999999999999
 21
-32.05
 31
0.0
  0
LINE
  5
    DC
  8
0
  6
CONTINUOUS
 62
     0
 10
6.04999999999999
 20
-32.85
 30
0.0
 11
6.99999999999999
 21
-32.85
 31
0.0
  0
LINE
  5
    DD
  8
0
  6
CONTINUOUS
 62
     0
 10
8.74999999999999
 20
-32.85
 30
0.0
 11
8.74999999999999
 21
-32.05
 31
0.0
  0
LINE
  5
    DE
  8
0
  6
CONTINUOUS
 62
     0
 10
6.04999999999999
 20
-32.05
 30
0.0
 11
6.99999999999999
 21
-32.05
 31
0.0
  0
LINE
  5
    DF
  8
0
  6
CONTINUOUS
 62
     0
 10
6.99999999999999
 20
-37.35
 30
0.0
 11
6.99999999999999
 21
-32.85
 31
0.0
  0
LINE
  5
    E0
  8
0
  6
CONTINUOUS
 62
     0
 10
7.79999999999999
 20
-37.35
 30
0.0
 11
7.79999999999999
 21
-32.85
 31
0.0
  0
LINE
  5
    E1
  8
0
  6
CONTINUOUS
 62
     0
 10
7.79999999999999
 20
-32.85
 30
0.0
 11
8.74999999999999
 21
-32.85
 31
0.0
  0
LINE
  5
    E2
  8
0
  6
CONTINUOUS
 62
     0
 10
7.79999999999999
 20
-32.05
 30
0.0
 11
8.74999999999999
 21
-32.05
 31
0.0
  0
LINE
  5
    E3
  8
0
  6
CONTINUOUS
 62
     0
 10
6.99999999999999
 20
-32.05
 30
0.0
 11
6.99999999999999
 21
-30.95
 31
0.0
  0
LINE
  5
    E4
  8
0
  6
CONTINUOUS
 62
     0
 10
7.79999999999999
 20
-32.05
 30
0.0
 11
7.79999999999999
 21
-30.95
 31
0.0
  0
ARC
  5
    E5
  8
0
  6
CONTINUOUS
 62
     0
 10
8.29999999999998
 20
-30.95
 30
0.0
 40
1.3
 50
89.9999999999999
 51
180.0
  0
ARC
  5
    E6
  8
0
  6
CONTINUOUS
 62
     0
 10
8.29999999999998
 20
-30.95
 30
0.0
 40
0.5
 50
89.9999999999999
 51
180.0
  0
LINE
  5
    E7
  8
0
  6
CONTINUOUS
 62
     0
 10
8.74999999999999
 20
-30.45
 30
0.0
 11
8.74999999999999
 21
-29.65
 31
0.0
  0
LINE
  5
    E8
  8
0
  6
CONTINUOUS
 62
     0
 10
8.29999999999998
 20
-30.45
 30
0.0
 11
8.74999999999999
 21
-30.45
 31
0.0
  0
LINE
  5
    E9
  8
0
  6
CONTINUOUS
 62
     0
 10
3.4
 20
-2.85000000000002
 30
0.0
 11
4.19999999999999
 21
-2.85000000000002
 31
0.0
  0
ARC
  5
    EA
  8
0
  6
CONTINUOUS
 62
     0
 10
-3.5527136788005E-15
 20
0.249999999999979
 30
0.0
 40
2.6
 50
0.0
 51
180.0
  0
ARC
  5
    EB
  8
0
  6
CONTINUOUS
 62
     0
 10
-3.5527136788005E-15
 20
0.249999999999979
 30
0.0
 40
1.8
 50
0.0
 51
180.0
  0
ARC
  5
    EC
  8
0
  6
CONTINUOUS
 62
     0
 10
-3.5527136788005E-15
 20
-0.250000000000018
 30
0.0
 40
2.6
 50
180.0
 51
360.0
  0
ARC
  5
    ED
  8
0
  6
CONTINUOUS
 62
     0
 10
-3.5527136788005E-15
 20
-0.250000000000018
 30
0.0
 40
1.8
 50
180.0
 51
360.0
  0
LINE
  5
    EE
  8
0
  6
CONTINUOUS
 62
     0
 10
1.8
 20
-0.250000000000018
 30
0.0
 11
1.8
 21
0.249999999999979
 31
0.0
  0
LINE
  5
    EF
  8
0
  6
CONTINUOUS
 62
     0
 10
2.6
 20
-0.250000000000018
 30
0.0
 11
2.6
 21
0.249999999999979
 31
0.0
  0
LINE
  5
    F0
  8
0
  6
CONTINUOUS
 62
     0
 10
-1.8
 20
-0.250000000000032
 30
0.0
 11
-1.8
 21
0.249999999999964
 31
0.0
  0
LINE
  5
    F1
  8
0
  6
CONTINUOUS
 62
     0
 10
-2.6
 20
-0.250000000000018
 30
0.0
 11
-2.6
 21
0.249999999999979
 31
0.0
  0
LINE
  5
    F2
  8
0
  6
CONTINUOUS
 62
     0
 10
3.4
 20
-2.85000000000002
 30
0.0
 11
3.4
 21
2.84999999999998
 31
0.0
  0
LINE
  5
    F3
  8
0
  6
CONTINUOUS
 62
     0
 10
4.19999999999999
 20
-2.85000000000002
 30
0.0
 11
4.19999999999999
 21
0.649999999999981
 31
0.0
  0
LINE
  5
    F4
  8
0
  6
CONTINUOUS
 62
     0
 10
6.99999999999999
 20
-2.85000000000002
 30
0.0
 11
6.99999999999999
 21
0.649999999999981
 31
0.0
  0
LINE
  5
    F5
  8
0
  6
CONTINUOUS
 62
     0
 10
7.79999999999999
 20
-2.85000000000002
 30
0.0
 11
7.79999999999999
 21
0.84999999999998
 31
0.0
  0
LINE
  5
    F6
  8
0
  6
CONTINUOUS
 62
     0
 10
3.4
 20
2.84999999999998
 30
0.0
 11
4.19999999999999
 21
2.84999999999998
 31
0.0
  0
ARC
  5
    F7
  8
0
  6
CONTINUOUS
 62
     0
 10
5.59999999999999
 20
0.649999999999981
 30
0.0
 40
1.4
 50
0.0
 51
180.0
  0
LINE
  5
    F8
  8
0
  6
CONTINUOUS
 62
     0
 10
4.19999999999999
 20
2.05
 30
0.0
 11
4.19999999999999
 21
2.84999999999998
 31
0.0
  0
ARC
  5
    F9
  8
0
  6
CONTINUOUS
 62
     0
 10
5.79999999999999
 20
0.84999999999998
 30
0.0
 40
2.0
 50
0.0
 51
143.130102354155
  0
LINE
  5
    FA
  8
0
  6
CONTINUOUS
 62
     0
 10
6.99999999999999
 20
-2.85000000000002
 30
0.0
 11
7.79999999999999
 21
-2.85000000000002
 31
0.0
  0
ENDBLK
  5
    FB
  8
0
  6
CONTINUOUS
 62
     0
  0
BLOCK
  5
    FC
  8
0
  6
CONTINUOUS
 62
     7
  2
MOSTRINA
 70
    64
 10
0.0
 20
0.0
 30
0.0
  3
MOSTRINA
  0
LINE
  5
    FD
  8
0
  6
CONTINUOUS
 62
     3
 10
173.338256835938
 20
30.7306251525879
 30
0.0
 11
173.338256835938
 21
189.230621337891
 31
0.0
  0
LINE
  5
    FE
  8
0
  6
CONTINUOUS
 62
     3
 10
57.5882568359375
 20
29.4806251525879
 30
0.0
 11
172.088256835938
 21
29.4806251525879
 31
0.0
  0
LINE
  5
    FF
  8
0
  6
CONTINUOUS
 62
     3
 10
56.3382568359375
 20
30.7306251525879
 30
0.0
 11
56.3382568359375
 21
189.230621337891
 31
0.0
  0
LINE
  5
   100
  8
0
  6
CONTINUOUS
 62
     3
 10
57.5882568359375
 20
190.480621337891
 30
0.0
 11
172.088256835938
 21
190.480621337891
 31
0.0
  0
LINE
  5
   101
  8
0
  6
CONTINUOUS
 62
     3
 10
167.838256835938
 20
56.9806251525879
 30
0.0
 11
167.838256835938
 21
162.980625152588
 31
0.0
  0
LINE
  5
   102
  8
0
  6
CONTINUOUS
 62
     3
 10
61.8382568359375
 20
56.9806251525879
 30
0.0
 11
167.838256835938
 21
56.9806251525879
 31
0.0
  0
LINE
  5
   103
  8
0
  6
CONTINUOUS
 62
     3
 10
61.8382568359375
 20
56.9806251525879
 30
0.0
 11
61.8382568359375
 21
162.980625152588
 31
0.0
  0
LINE
  5
   104
  8
0
  6
CONTINUOUS
 62
     3
 10
61.8382568359375
 20
162.980621337891
 30
0.0
 11
167.838256835938
 21
162.980621337891
 31
0.0
  0
LINE
  5
   105
  8
0
  6
CONTINUOUS
 62
     3
 10
168.838256835938
 20
48.4806251525879
 30
0.0
 11
168.838256835938
 21
49.4806251525879
 31
0.0
  0
LINE
  5
   106
  8
0
  6
CONTINUOUS
 62
     3
 10
61.8382568359375
 20
50.4806251525879
 30
0.0
 11
167.838256835938
 21
50.4806251525879
 31
0.0
  0
LINE
  5
   107
  8
0
  6
CONTINUOUS
 62
     3
 10
60.8382568359375
 20
48.4806251525879
 30
0.0
 11
60.8382568359375
 21
49.4806251525879
 31
0.0
  0
LINE
  5
   108
  8
0
  6
CONTINUOUS
 62
     3
 10
61.8382568359375
 20
49.4806251525879
 30
0.0
 11
167.838256835938
 21
49.4806251525879
 31
0.0
  0
LINE
  5
   109
  8
0
  6
CONTINUOUS
 62
     3
 10
60.8382568359375
 20
29.4806251525879
 30
0.0
 11
60.8382568359375
 21
48.4806251525879
 31
0.0
  0
LINE
  5
   10A
  8
0
  6
CONTINUOUS
 62
     3
 10
60.8382568359375
 20
49.4806213378906
 30
0.0
 11
60.8382568359375
 21
190.480621337891
 31
0.0
  0
LINE
  5
   10B
  8
0
  6
CONTINUOUS
 62
     3
 10
61.8382568359375
 20
29.4806251525879
 30
0.0
 11
61.8382568359375
 21
49.4806251525879
 31
0.0
  0
LINE
  5
   10C
  8
0
  6
CONTINUOUS
 62
     3
 10
61.8382568359375
 20
162.980621337891
 30
0.0
 11
61.8382568359375
 21
169.480621337891
 31
0.0
  0
LINE
  5
   10D
  8
0
  6
CONTINUOUS
 62
     3
 10
61.8382568359375
 20
50.4806251525879
 30
0.0
 11
61.8382568359375
 21
56.9806251525879
 31
0.0
  0
LINE
  5
   10E
  8
0
  6
CONTINUOUS
 62
     3
 10
168.838256835938
 20
29.4806251525879
 30
0.0
 11
168.838256835938
 21
48.4806251525879
 31
0.0
  0
LINE
  5
   10F
  8
0
  6
CONTINUOUS
 62
     3
 10
168.838256835938
 20
49.4806251525879
 30
0.0
 11
168.838256835938
 21
190.480621337891
 31
0.0
  0
LINE
  5
   110
  8
0
  6
CONTINUOUS
 62
     3
 10
167.838256835938
 20
50.4806251525879
 30
0.0
 11
167.838256835938
 21
56.9806251525879
 31
0.0
  0
LINE
  5
   111
  8
0
  6
CONTINUOUS
 62
     3
 10
167.838256835938
 20
162.980621337891
 30
0.0
 11
167.838256835938
 21
169.480621337891
 31
0.0
  0
LINE
  5
   112
  8
0
  6
CONTINUOUS
 62
     3
 10
167.838256835938
 20
29.4806251525879
 30
0.0
 11
167.838256835938
 21
49.4806251525879
 31
0.0
  0
LINE
  5
   113
  8
0
  6
CONTINUOUS
 62
     3
 10
60.8382568359375
 20
170.480621337891
 30
0.0
 11
168.838256835938
 21
170.480621337891
 31
0.0
  0
LINE
  5
   114
  8
0
  6
CONTINUOUS
 62
     3
 10
61.8382568359375
 20
169.480621337891
 30
0.0
 11
167.838256835938
 21
169.480621337891
 31
0.0
  0
ARC
  5
   115
  8
0
  6
CONTINUOUS
 62
     3
 10
57.5882568359375
 20
30.7306251525879
 30
0.0
 40
1.25
 50
180.0
 51
270.0
  0
ARC
  5
   116
  8
0
  6
CONTINUOUS
 62
     3
 10
172.088256835938
 20
30.7306251525879
 30
0.0
 40
1.25
 50
270.0
 51
360.0
  0
ARC
  5
   117
  8
0
  6
CONTINUOUS
 62
     3
 10
172.088256835938
 20
189.230621337891
 30
0.0
 40
1.25
 50
0.0
 51
90.0
  0
ARC
  5
   118
  8
0
  6
CONTINUOUS
 62
     3
 10
57.5882568359375
 20
189.230621337891
 30
0.0
 40
1.25
 50
90.0
 51
180.0
  0
LINE
  5
   119
  8
0
  6
DOT
 62
     3
 10
60.3382577409677
 20
179.7306252571
 30
0.0
 11
60.8382568359375
 21
179.7306252571
 31
0.0
  0
LINE
  5
   11A
  8
0
  6
DOT
 62
     3
 10
60.3382577409676
 20
181.2306252571
 30
0.0
 11
60.8382568359375
 21
181.2306252571
 31
0.0
  0
LINE
  5
   11B
  8
0
  6
CONTINUOUS
 62
     3
 10
168.338257745313
 20
179.730625257273
 30
0.0
 11
168.838256835938
 21
179.730625257273
 31
0.0
  0
LINE
  5
   11C
  8
0
  6
CONTINUOUS
 62
     3
 10
168.338257745314
 20
181.230625257273
 30
0.0
 11
168.838256835938
 21
181.230625257273
 31
0.0
  0
ARC
  5
   11D
  8
0
  6
DOT
 62
     3
 10
60.3382577401871
 20
180.480625257147
 30
0.0
 40
0.749999999345164
 50
90.0
 51
270.0
  0
ARC
  5
   11E
  8
0
  6
CONTINUOUS
 62
     3
 10
61.338257740822
 20
180.480625256974
 30
0.0
 40
0.750000000009701
 50
270.0
 51
450.0
  0
LINE
  5
   11F
  8
0
  6
CONTINUOUS
 62
     3
 10
60.8382568359375
 20
181.2306252571
 30
0.0
 11
61.3382577409688
 21
181.2306252571
 31
0.0
  0
LINE
  5
   120
  8
0
  6
CONTINUOUS
 62
     3
 10
60.8382568359375
 20
179.7306252571
 30
0.0
 11
61.3382577409689
 21
179.7306252571
 31
0.0
  0
ARC
  5
   121
  8
0
  6
CONTINUOUS
 62
     3
 10
168.338257745503
 20
180.480625256952
 30
0.0
 40
0.750000000048506
 50
90.0000000038822
 51
269.999999996024
  0
ARC
  5
   122
  8
0
  6
DOT
 62
     3
 10
169.338257745421
 20
180.480625256965
 30
0.0
 40
0.750000000029104
 50
270.000000002449
 51
449.999999997486
  0
LINE
  5
   123
  8
0
  6
DOT
 62
     3
 10
168.838256835938
 20
181.230625257273
 30
0.0
 11
169.338257745315
 21
181.230625257273
 31
0.0
  0
LINE
  5
   124
  8
0
  6
DOT
 62
     3
 10
168.838256835938
 20
179.730625257273
 30
0.0
 11
169.338257745315
 21
179.730625257273
 31
0.0
  0
POINT
  5
   125
  8
0
  6
CONTINUOUS
 62
     3
 10
114.838256835938
 20
109.980621337891
 30
0.0
  0
ENDBLK
  5
   126
  8
0
  6
CONTINUOUS
 62
     7
  0
BLOCK
  5
   127
  8
0
  6
CONTINUOUS
 62
     7
  2
*UDIM2287
 70
    65
 10
0.0
 20
0.0
 30
0.0
  3
*UDIM2287
  0
TEXT
  5
   128
  8
0
  6
CONTINUOUS
 62
     7
 10
-1056.72723088186
 20
-92.2263336146465
 30
0.0
 40
3.00000002980232
  1
117
 50
359.999999948034
 41
0.933333333333333
 72
     1
 11
-1052.82723084176
 21
-90.7263336032629
 31
0.0
 73
     2
  0
LINE
  5
   129
  8
0
  6
CONTINUOUS
 62
     7
 10
-1023.30223152126
 20
-33.7872447967529
 30
0.0
 11
-1023.30223152126
 21
-95.2263336181641
 31
0.0
  0
LINE
  5
   12A
  8
0
  6
CONTINUOUS
 62
     7
 10
-1081.80223152126
 20
-33.7872447967529
 30
0.0
 11
-1081.80223152126
 21
-95.2263336181641
 31
0.0
  0
LINE
  5
   12B
  8
0
  6
CONTINUOUS
 62
     7
 10
-1023.30223152126
 20
-93.2263336181641
 30
0.0
 11
-1081.80223152126
 21
-93.2263336181641
 31
0.0
  0
LINE
  5
   12C
  8
0
  6
CONTINUOUS
 62
     7
 10
-1026.25665479846
 20
-93.7472780481157
 30
0.0
 11
-1023.30223152126
 21
-93.2263336181641
 31
0.0
  0
LINE
  5
   12D
  8
0
  6
CONTINUOUS
 62
     7
 10
-1023.30223152126
 20
-93.2263336181641
 30
0.0
 11
-1026.25665479846
 21
-92.7053891882124
 31
0.0
  0
LINE
  5
   12E
  8
0
  6
CONTINUOUS
 62
     7
 10
-1078.84780824405
 20
-92.7053891882124
 30
0.0
 11
-1081.80223152126
 21
-93.2263336181641
 31
0.0
  0
LINE
  5
   12F
  8
0
  6
CONTINUOUS
 62
     7
 10
-1081.80223152126
 20
-93.2263336181641
 30
0.0
 11
-1078.84780824405
 21
-93.7472780481157
 31
0.0
  0
ENDBLK
  5
   130
  8
0
  6
CONTINUOUS
 62
     7
  0
BLOCK
  5
   131
  8
0
  6
CONTINUOUS
 62
     7
  2
*UDIM2288
 70
    65
 10
0.0
 20
0.0
 30
0.0
  3
*UDIM2288
  0
TEXT
  5
   132
  8
0
  6
CONTINUOUS
 62
     7
 10
-1115.54684992643
 20
-91.8921955942854
 30
0.0
 40
3.00000002980232
  1
10,2
 50
410.287578059125
 41
0.933333333333333
 72
     1
 11
-1113.31438803933
 21
-86.8567100640239
 31
0.0
 73
     2
  0
TEXT
  5
   133
  8
0
  6
CONTINUOUS
 62
     7
 10
-1117.55949395302
 20
-94.3153679127138
 30
0.0
 40
3.00000002980232
  1
Ø
 50
410.287578059125
 41
0.933333333333334
 72
     1
 11
-1118.01055745971
 21
-92.510778823287
 31
0.0
 73
     2
  0
LINE
  5
   134
  8
0
  6
CONTINUOUS
 62
     7
 10
-1116.79023290112
 20
-94.954302522834
 30
0.0
 11
-1094.67292506384
 21
-68.3256253845758
 31
0.0
  0
LINE
  5
   135
  8
0
  6
CONTINUOUS
 62
     7
 10
-1099.41844426103
 20
-74.8544429551966
 30
0.0
 11
-1097.93150323439
 21
-72.2488707755566
 31
0.0
  0
LINE
  5
   136
  8
0
  6
CONTINUOUS
 62
     7
 10
-1097.93150323439
 20
-72.2488707755566
 30
0.0
 11
-1100.21992877967
 21
-74.1887441022821
 31
0.0
  0
LINE
  5
   137
  8
0
  6
CONTINUOUS
 62
     7
 10
-1093.1859840372
 20
-65.7200532049358
 30
0.0
 11
-1094.67292506384
 21
-68.3256253845758
 31
0.0
  0
LINE
  5
   138
  8
0
  6
CONTINUOUS
 62
     7
 10
-1094.67292506384
 20
-68.3256253845758
 30
0.0
 11
-1092.38449951856
 21
-66.3857520578503
 31
0.0
  0
ENDBLK
  5
   139
  8
0
  6
CONTINUOUS
 62
     7
  0
BLOCK
  5
   13A
  8
0
  6
CONTINUOUS
 62
     7
  2
*UDIM2289
 70
    65
 10
0.0
 20
0.0
 30
0.0
  3
*UDIM2289
  0
TEXT
  5
   13B
  8
0
  6
CONTINUOUS
 62
     7
 10
-1004.57069996353
 20
2.66275324983638
 30
0.0
 40
3.00000002980232
  1
161
 50
89.9999999480344
 41
0.933333333333333
 72
     1
 11
-1006.07069997489
 21
6.56275328993797
 31
0.0
 73
     2
  0
LINE
  5
   13C
  8
0
  6
CONTINUOUS
 62
     7
 10
-1022.92723152126
 20
-33.4122447967529
 30
0.0
 11
-1001.57069995999
 21
-33.4122447967529
 31
0.0
  0
LINE
  5
   13D
  8
0
  6
CONTINUOUS
 62
     7
 10
-1022.92723152126
 20
47.0877532958984
 30
0.0
 11
-1001.57069995999
 21
47.0877532958984
 31
0.0
  0
LINE
  5
   13E
  8
0
  6
CONTINUOUS
 62
     7
 10
-1003.57069995999
 20
-33.4122447967529
 30
0.0
 11
-1003.57069995999
 21
47.0877532958984
 31
0.0
  0
LINE
  5
   13F
  8
0
  6
CONTINUOUS
 62
     7
 10
-1004.09164438995
 20
-30.457821519546
 30
0.0
 11
-1003.57069995999
 21
-33.4122447967529
 31
0.0
  0
LINE
  5
   140
  8
0
  6
CONTINUOUS
 62
     7
 10
-1003.57069995999
 20
-33.4122447967529
 30
0.0
 11
-1003.04975553004
 21
-30.457821519546
 31
0.0
  0
LINE
  5
   141
  8
0
  6
CONTINUOUS
 62
     7
 10
-1003.04975553004
 20
44.1333300186915
 30
0.0
 11
-1003.57069995999
 21
47.0877532958984
 31
0.0
  0
LINE
  5
   142
  8
0
  6
CONTINUOUS
 62
     7
 10
-1003.57069995999
 20
47.0877532958984
 30
0.0
 11
-1004.09164438995
 21
44.1333300186915
 31
0.0
  0
ENDBLK
  5
   143
  8
0
  6
CONTINUOUS
 62
     7
  0
BLOCK
  5
   144
  8
0
  6
CONTINUOUS
 62
     5
  2
*UDIM2290
 70
    65
 10
0.0
 20
0.0
 30
0.0
  3
*UDIM2290
  0
TEXT
  5
   145
  8
0
  6
CONTINUOUS
 62
     5
 10
-1119.57196045656
 20
36.1502455812475
 30
0.0
 40
3.00000002980232
  1
150,75
 50
89.9999999480344
 41
0.933333333333333
 72
     1
 11
-1121.07196046412
 21
44.2502456630724
 31
0.0
 73
     2
  0
LINE
  5
   146
  8
0
  6
CONTINUOUS
 62
     5
 10
-1118.52240201074
 20
6.83775329589844
 30
0.0
 11
-1120.57196044922
 21
6.83775329589844
 31
0.0
  0
LINE
  5
   147
  8
0
  6
CONTINUOUS
 62
     5
 10
-1100.85222327123
 20
82.212739413074
 30
0.0
 11
-1120.57196044922
 21
82.212739413074
 31
0.0
  0
LINE
  5
   148
  8
0
  6
CONTINUOUS
 62
     5
 10
-1118.57196044922
 20
6.83775329589844
 30
0.0
 11
-1118.57196044922
 21
82.212739413074
 31
0.0
  0
LINE
  5
   149
  8
0
  6
CONTINUOUS
 62
     5
 10
-1119.09290487917
 20
9.7921765731054
 30
0.0
 11
-1118.57196044922
 21
6.83775329589844
 31
0.0
  0
LINE
  5
   14A
  8
0
  6
CONTINUOUS
 62
     5
 10
-1118.57196044922
 20
6.83775329589844
 30
0.0
 11
-1118.05101601927
 21
9.7921765731054
 31
0.0
  0
LINE
  5
   14B
  8
0
  6
CONTINUOUS
 62
     5
 10
-1118.05101601927
 20
79.2583161358671
 30
0.0
 11
-1118.57196044922
 21
82.212739413074
 31
0.0
  0
LINE
  5
   14C
  8
0
  6
CONTINUOUS
 62
     5
 10
-1118.57196044922
 20
82.212739413074
 30
0.0
 11
-1119.09290487917
 21
79.2583161358671
 31
0.0
  0
ENDBLK
  5
   14D
  8
0
  6
CONTINUOUS
 62
     5
  0
BLOCK
  5
   14E
  8
0
  6
CONTINUOUS
 62
     7
  2
*UDIM2291
 70
    65
 10
0.0
 20
0.0
 30
0.0
  3
*UDIM2291
  0
TEXT
  5
   14F
  8
0
  6
CONTINUOUS
 62
     7
 10
-1012.2020645215
 20
30.4002379576775
 30
0.0
 40
3.00000002980232
  1
127,75
 50
89.9999999480344
 41
0.933333333333333
 72
     1
 11
-1013.70206452906
 21
38.5002380395023
 31
0.0
 73
     2
  0
LINE
  5
   150
  8
0
  6
CONTINUOUS
 62
     7
 10
-1017.30221557617
 20
70.7127209472832
 30
0.0
 11
-1009.20206451416
 21
70.7127209472832
 31
0.0
  0
LINE
  5
   151
  8
0
  6
CONTINUOUS
 62
     7
 10
-1011.20206451416
 20
6.83775329589844
 30
0.0
 11
-1011.20206451416
 21
70.7127209472832
 31
0.0
  0
LINE
  5
   152
  8
0
  6
CONTINUOUS
 62
     7
 10
-1011.72300894411
 20
9.7921765731054
 30
0.0
 11
-1011.20206451416
 21
6.83775329589844
 31
0.0
  0
LINE
  5
   153
  8
0
  6
CONTINUOUS
 62
     7
 10
-1011.20206451416
 20
6.83775329589844
 30
0.0
 11
-1010.68112008421
 21
9.7921765731054
 31
0.0
  0
LINE
  5
   154
  8
0
  6
CONTINUOUS
 62
     7
 10
-1010.68112008421
 20
67.7582976700762
 30
0.0
 11
-1011.20206451416
 21
70.7127209472832
 31
0.0
  0
LINE
  5
   155
  8
0
  6
CONTINUOUS
 62
     7
 10
-1011.20206451416
 20
70.7127209472832
 30
0.0
 11
-1011.72300894411
 21
67.7582976700762
 31
0.0
  0
ENDBLK
  5
   156
  8
0
  6
CONTINUOUS
 62
     7
  0
BLOCK
  5
   157
  8
0
  6
CONTINUOUS
 62
     7
  2
*UDIM2292
 70
    65
 10
0.0
 20
0.0
 30
0.0
  3
*UDIM2292
  0
TEXT
  5
   158
  8
0
  6
CONTINUOUS
 62
     7
 10
-1056.72723469655
 20
96.3964386021504
 30
0.0
 40
3.00000002980232
  1
105
 50
359.999999948034
 41
0.933333333333333
 72
     1
 11
-1052.82723465645
 21
97.896438613534
 31
0.0
 73
     2
  0
LINE
  5
   159
  8
0
  6
CONTINUOUS
 62
     7
 10
-1026.30223915065
 20
33.8377532958984
 30
0.0
 11
-1026.30223915065
 21
97.3964385986328
 31
0.0
  0
LINE
  5
   15A
  8
0
  6
CONTINUOUS
 62
     7
 10
-1078.80223152124
 20
33.8377532958984
 30
0.0
 11
-1078.80223152124
 21
97.3964385986328
 31
0.0
  0
LINE
  5
   15B
  8
0
  6
CONTINUOUS
 62
     7
 10
-1026.30223915065
 20
95.3964385986328
 30
0.0
 11
-1078.80223152124
 21
95.3964385986328
 31
0.0
  0
LINE
  5
   15C
  8
0
  6
CONTINUOUS
 62
     7
 10
-1029.25666242786
 20
94.8754941686811
 30
0.0
 11
-1026.30223915065
 21
95.3964385986328
 31
0.0
  0
LINE
  5
   15D
  8
0
  6
CONTINUOUS
 62
     7
 10
-1026.30223915065
 20
95.3964385986328
 30
0.0
 11
-1029.25666242786
 21
95.9173830285845
 31
0.0
  0
LINE
  5
   15E
  8
0
  6
CONTINUOUS
 62
     7
 10
-1075.84780824404
 20
95.9173830285845
 30
0.0
 11
-1078.80223152124
 21
95.3964385986328
 31
0.0
  0
LINE
  5
   15F
  8
0
  6
CONTINUOUS
 62
     7
 10
-1078.80223152124
 20
95.3964385986328
 30
0.0
 11
-1075.84780824404
 21
94.8754941686811
 31
0.0
  0
ENDBLK
  5
   160
  8
0
  6
CONTINUOUS
 62
     7
  0
BLOCK
  5
   161
  8
0
  6
CONTINUOUS
 62
     7
  2
*UDIM2293
 70
    65
 10
0.0
 20
0.0
 30
0.0
  3
*UDIM2293
  0
TEXT
  5
   162
  8
0
  6
CONTINUOUS
 62
     7
 10
-1099.07721560832
 20
96.6398468040127
 30
0.0
 40
3.00000002980232
  1
25
 50
359.999999948034
 41
0.933333333333333
 72
     1
 11
-1096.57721558213
 21
98.139846816659
 31
0.0
 73
     2
  0
LINE
  5
   163
  8
0
  6
CONTINUOUS
 62
     7
 10
-1090.05221557617
 20
77.7127380371094
 30
0.0
 11
-1090.05221557617
 21
97.6398468017578
 31
0.0
  0
LINE
  5
   164
  8
0
  6
CONTINUOUS
 62
     7
 10
-1102.55221557617
 20
77.7127380371094
 30
0.0
 11
-1102.55221557617
 21
97.6398468017578
 31
0.0
  0
LINE
  5
   165
  8
0
  6
CONTINUOUS
 62
     7
 10
-1090.05221557617
 20
95.6398468017578
 30
0.0
 11
-1102.55221557617
 21
95.6398468017578
 31
0.0
  0
LINE
  5
   166
  8
0
  6
CONTINUOUS
 62
     7
 10
-1093.00663885338
 20
95.1189023718061
 30
0.0
 11
-1090.05221557617
 21
95.6398468017578
 31
0.0
  0
LINE
  5
   167
  8
0
  6
CONTINUOUS
 62
     7
 10
-1090.05221557617
 20
95.6398468017578
 30
0.0
 11
-1093.00663885338
 21
96.1607912317095
 31
0.0
  0
LINE
  5
   168
  8
0
  6
CONTINUOUS
 62
     7
 10
-1099.59779229897
 20
96.1607912317095
 30
0.0
 11
-1102.55221557617
 21
95.6398468017578
 31
0.0
  0
LINE
  5
   169
  8
0
  6
CONTINUOUS
 62
     7
 10
-1102.55221557617
 20
95.6398468017578
 30
0.0
 11
-1099.59779229897
 21
95.1189023718061
 31
0.0
  0
ENDBLK
  5
   16A
  8
0
  6
CONTINUOUS
 62
     7
  0
BLOCK
  5
   16B
  8
0
  6
CONTINUOUS
 62
     7
  2
*UDIM2294
 70
    65
 10
0.0
 20
0.0
 30
0.0
  3
*UDIM2294
  0
TEXT
  5
   16C
  8
0
  6
CONTINUOUS
 62
     7
 10
-1129.42797088849
 20
-85.812247036808
 30
0.0
 40
3.00000002980232
  1
14
 50
89.9999999480344
 41
0.933333333333333
 72
     1
 11
-1130.92797090113
 21
-83.3122470106142
 31
0.0
 73
     2
  0
LINE
  5
   16D
  8
0
  6
CONTINUOUS
 62
     7
 10
-1058.42721557617
 20
-77.2872467041016
 30
0.0
 11
-1130.42797088623
 21
-77.2872467041016
 31
0.0
  0
LINE
  5
   16E
  8
0
  6
CONTINUOUS
 62
     7
 10
-1057.10222327123
 20
-70.2872480800662
 30
0.0
 11
-1130.42797088623
 21
-70.2872480800662
 31
0.0
  0
LINE
  5
   16F
  8
0
  6
CONTINUOUS
 62
     7
 10
-1128.42797088623
 20
-85.8122470354494
 30
0.0
 11
-1128.42797088623
 21
-70.2872480800662
 31
0.0
  0
LINE
  5
   170
  8
0
  6
CONTINUOUS
 62
     7
 10
-1128.94891531618
 20
-74.3328234268946
 30
0.0
 11
-1128.42797088623
 21
-77.2872467041016
 31
0.0
  0
LINE
  5
   171
  8
0
  6
CONTINUOUS
 62
     7
 10
-1128.42797088623
 20
-77.2872467041016
 30
0.0
 11
-1127.90702645628
 21
-74.3328234268946
 31
0.0
  0
LINE
  5
   172
  8
0
  6
CONTINUOUS
 62
     7
 10
-1127.90702645628
 20
-73.2416713572732
 30
0.0
 11
-1128.42797088623
 21
-70.2872480800662
 31
0.0
  0
LINE
  5
   173
  8
0
  6
CONTINUOUS
 62
     7
 10
-1128.42797088623
 20
-70.2872480800662
 30
0.0
 11
-1128.94891531618
 21
-73.2416713572732
 31
0.0
  0
ENDBLK
  5
   174
  8
0
  6
CONTINUOUS
 62
     7
  0
BLOCK
  5
   175
  8
0
  6
CONTINUOUS
 62
     7
  2
*UDIM2295
 70
    65
 10
0.0
 20
0.0
 30
0.0
  3
*UDIM2295
  0
TEXT
  5
   176
  8
0
  6
CONTINUOUS
 62
     7
 10
-1129.42797088976
 20
1.78774562044185
 30
0.0
 40
3.00000002980232
  1
305
 50
89.9999999480344
 41
0.933333333333333
 72
     1
 11
-1130.92797090113
 21
5.68774566054344
 31
0.0
 73
     2
  0
LINE
  5
   177
  8
0
  6
CONTINUOUS
 62
     7
 10
-1057.10222327123
 20
82.212739413074
 30
0.0
 11
-1130.42797088623
 21
82.212739413074
 31
0.0
  0
LINE
  5
   178
  8
0
  6
CONTINUOUS
 62
     7
 10
-1128.42797088623
 20
-70.2872480800662
 30
0.0
 11
-1128.42797088623
 21
82.212739413074
 31
0.0
  0
LINE
  5
   179
  8
0
  6
CONTINUOUS
 62
     7
 10
-1128.94891531618
 20
-67.3328248028592
 30
0.0
 11
-1128.42797088623
 21
-70.2872480800662
 31
0.0
  0
LINE
  5
   17A
  8
0
  6
CONTINUOUS
 62
     7
 10
-1128.42797088623
 20
-70.2872480800662
 30
0.0
 11
-1127.90702645628
 21
-67.3328248028592
 31
0.0
  0
LINE
  5
   17B
  8
0
  6
CONTINUOUS
 62
     7
 10
-1127.90702645628
 20
79.2583161358671
 30
0.0
 11
-1128.42797088623
 21
82.212739413074
 31
0.0
  0
LINE
  5
   17C
  8
0
  6
CONTINUOUS
 62
     7
 10
-1128.42797088623
 20
82.212739413074
 30
0.0
 11
-1128.94891531618
 21
79.2583161358671
 31
0.0
  0
ENDBLK
  5
   17D
  8
0
  6
CONTINUOUS
 62
     7
  0
BLOCK
  5
   17E
  8
0
  6
CONTINUOUS
 62
     7
  2
*UDIM2296
 70
    65
 10
0.0
 20
0.0
 30
0.0
  3
*UDIM2296
  0
TEXT
  5
   17F
  8
0
  6
CONTINUOUS
 62
     7
 10
-1129.42797088849
 20
92.1877381266933
 30
0.0
 40
3.00000002980232
  1
14
 50
89.9999999480344
 41
0.933333333333333
 72
     1
 11
-1130.92797090113
 21
94.6877381528871
 31
0.0
 73
     2
  0
LINE
  5
   180
  8
0
  6
CONTINUOUS
 62
     7
 10
-1058.42721557617
 20
89.2127380371094
 30
0.0
 11
-1130.42797088623
 21
89.2127380371094
 31
0.0
  0
LINE
  5
   181
  8
0
  6
CONTINUOUS
 62
     7
 10
-1128.42797088623
 20
82.212739413074
 30
0.0
 11
-1128.42797088623
 21
97.1877381777224
 31
0.0
  0
LINE
  5
   182
  8
0
  6
CONTINUOUS
 62
     7
 10
-1128.94891531618
 20
85.167162690281
 30
0.0
 11
-1128.42797088623
 21
82.212739413074
 31
0.0
  0
LINE
  5
   183
  8
0
  6
CONTINUOUS
 62
     7
 10
-1128.42797088623
 20
82.212739413074
 30
0.0
 11
-1127.90702645628
 21
85.167162690281
 31
0.0
  0
LINE
  5
   184
  8
0
  6
CONTINUOUS
 62
     7
 10
-1127.90702645628
 20
86.2583147599024
 30
0.0
 11
-1128.42797088623
 21
89.2127380371094
 31
0.0
  0
LINE
  5
   185
  8
0
  6
CONTINUOUS
 62
     7
 10
-1128.42797088623
 20
89.2127380371094
 30
0.0
 11
-1128.94891531618
 21
86.2583147599024
 31
0.0
  0
ENDBLK
  5
   186
  8
0
  6
CONTINUOUS
 62
     7
  0
BLOCK
  5
   187
  8
0
  6
CONTINUOUS
 62
     7
  2
*UDIM2297
 70
    65
 10
0.0
 20
0.0
 30
0.0
  3
*UDIM2297
  0
TEXT
  5
   188
  8
0
  6
CONTINUOUS
 62
     7
 10
-993.514746669487
 20
-11.2563061161514
 30
0.0
 40
3.00000002980232
  1
259
 50
89.9999999480344
 41
0.933333333333333
 72
     1
 11
-995.014746680856
 21
-7.3563060760498
 31
0.0
 73
     2
  0
LINE
  5
   189
  8
0
  6
CONTINUOUS
 62
     7
 10
-1017.30223132563
 20
-58.7872296142754
 30
0.0
 11
-990.514746665955
 21
-58.7872296142754
 31
0.0
  0
LINE
  5
   18A
  8
0
  6
CONTINUOUS
 62
     7
 10
-1017.30221557617
 20
70.7127209472832
 30
0.0
 11
-990.514746665955
 21
70.7127209472832
 31
0.0
  0
LINE
  5
   18B
  8
0
  6
CONTINUOUS
 62
     7
 10
-992.514746665955
 20
-58.7872296142754
 30
0.0
 11
-992.514746665955
 21
70.7127209472832
 31
0.0
  0
LINE
  5
   18C
  8
0
  6
CONTINUOUS
 62
     7
 10
-993.035691095906
 20
-55.8328063370684
 30
0.0
 11
-992.514746665955
 21
-58.7872296142754
 31
0.0
  0
LINE
  5
   18D
  8
0
  6
CONTINUOUS
 62
     7
 10
-992.514746665955
 20
-58.7872296142754
 30
0.0
 11
-991.993802236003
 21
-55.8328063370684
 31
0.0
  0
LINE
  5
   18E
  8
0
  6
CONTINUOUS
 62
     7
 10
-991.993802236003
 20
67.7582976700762
 30
0.0
 11
-992.514746665955
 21
70.7127209472832
 31
0.0
  0
LINE
  5
   18F
  8
0
  6
CONTINUOUS
 62
     7
 10
-992.514746665955
 20
70.7127209472832
 30
0.0
 11
-993.035691095906
 21
67.7582976700762
 31
0.0
  0
ENDBLK
  5
   190
  8
0
  6
CONTINUOUS
 62
     7
  0
BLOCK
  5
   191
  8
0
  6
CONTINUOUS
 62
     7
  2
*UDIM2298
 70
    65
 10
0.0
 20
0.0
 30
0.0
  3
*UDIM2298
  0
TEXT
  5
   192
  8
0
  6
CONTINUOUS
 62
     7
 10
-1048.58971944446
 20
-85.0985069214472
 30
0.0
 40
3.00000002980232
  1
43,75
 50
359.999999948034
 41
0.933333333333333
 72
     1
 11
-1041.88971937655
 21
-83.5985069125891
 31
0.0
 73
     2
  0
LINE
  5
   193
  8
0
  6
CONTINUOUS
 62
     7
 10
-1030.67721464481
 20
-74.837257202181
 30
0.0
 11
-1030.67722121832
 21
-88.09850692749
 31
0.0
  0
LINE
  5
   194
  8
0
  6
CONTINUOUS
 62
     7
 10
-1052.55223183517
 20
-80.1152137610261
 30
0.0
 11
-1052.55223434126
 21
-88.0985069274901
 31
0.0
  0
LINE
  5
   195
  8
0
  6
CONTINUOUS
 62
     7
 10
-1030.67722022693
 20
-86.0985069274902
 30
0.0
 11
-1052.55223371343
 21
-86.0985069274902
 31
0.0
  0
LINE
  5
   196
  8
0
  6
CONTINUOUS
 62
     7
 10
-1033.63164350414
 20
-86.6194513574419
 30
0.0
 11
-1030.67722022693
 21
-86.0985069274902
 31
0.0
  0
LINE
  5
   197
  8
0
  6
CONTINUOUS
 62
     7
 10
-1030.67722022693
 20
-86.0985069274902
 30
0.0
 11
-1033.63164350414
 21
-85.5775624975386
 31
0.0
  0
LINE
  5
   198
  8
0
  6
CONTINUOUS
 62
     7
 10
-1049.59781043622
 20
-85.5775624975386
 30
0.0
 11
-1052.55223371343
 21
-86.0985069274902
 31
0.0
  0
LINE
  5
   199
  8
0
  6
CONTINUOUS
 62
     7
 10
-1052.55223371343
 20
-86.0985069274902
 30
0.0
 11
-1049.59781043622
 21
-86.6194513574419
 31
0.0
  0
ENDBLK
  5
   19A
  8
0
  6
CONTINUOUS
 62
     7
  0
BLOCK
  5
   19B
  8
0
  6
CONTINUOUS
 62
     7
  2
*UDIM2299
 70
    65
 10
0.0
 20
0.0
 30
0.0
  3
*UDIM2299
  0
TEXT
  5
   19C
  8
0
  6
CONTINUOUS
 62
     7
 10
-1070.46471563114
 20
-85.0985069214472
 30
0.0
 40
3.00000002980232
  1
43,75
 50
359.999999948034
 41
0.933333333333333
 72
     1
 11
-1063.76471556323
 21
-83.5985069125891
 31
0.0
 73
     2
  0
LINE
  5
   19D
  8
0
  6
CONTINUOUS
 62
     7
 10
-1074.42721493184
 20
-74.8372572021808
 30
0.0
 11
-1074.42722531183
 21
-88.0985069274896
 31
0.0
  0
LINE
  5
   19E
  8
0
  6
CONTINUOUS
 62
     7
 10
-1052.55223371343
 20
-86.0985069274902
 30
0.0
 11
-1074.42722374637
 21
-86.0985069274902
 31
0.0
  0
LINE
  5
   19F
  8
0
  6
CONTINUOUS
 62
     7
 10
-1055.50665699063
 20
-86.6194513574419
 30
0.0
 11
-1052.55223371343
 21
-86.0985069274902
 31
0.0
  0
LINE
  5
   1A0
  8
0
  6
CONTINUOUS
 62
     7
 10
-1052.55223371343
 20
-86.0985069274902
 30
0.0
 11
-1055.50665699063
 21
-85.5775624975386
 31
0.0
  0
LINE
  5
   1A1
  8
0
  6
CONTINUOUS
 62
     7
 10
-1071.47280046916
 20
-85.5775624975386
 30
0.0
 11
-1074.42722374637
 21
-86.0985069274902
 31
0.0
  0
LINE
  5
   1A2
  8
0
  6
CONTINUOUS
 62
     7
 10
-1074.42722374637
 20
-86.0985069274902
 30
0.0
 11
-1071.47280046916
 21
-86.6194513574419
 31
0.0
  0
ENDBLK
  5
   1A3
  8
0
  6
CONTINUOUS
 62
     7
  0
BLOCK
  5
   1A4
  8
0
  6
CONTINUOUS
 62
     7
  2
*UDIM2300
 70
    65
 10
0.0
 20
0.0
 30
0.0
  3
*UDIM2300
  0
TEXT
  5
   1A5
  8
0
  6
CONTINUOUS
 62
     7
 10
-1092.33970802501
 20
-85.0985069214472
 30
0.0
 40
3.00000002980232
  1
43,75
 50
359.999999948034
 41
0.933333333333333
 72
     1
 11
-1085.6397079571
 21
-83.5985069125891
 31
0.0
 73
     2
  0
LINE
  5
   1A6
  8
0
  6
CONTINUOUS
 62
     7
 10
-1096.30221493184
 20
-74.8372572021808
 30
0.0
 11
-1096.30222531183
 21
-88.0985069274896
 31
0.0
  0
LINE
  5
   1A7
  8
0
  6
CONTINUOUS
 62
     7
 10
-1074.42722374637
 20
-86.0985069274902
 30
0.0
 11
-1096.30222374637
 21
-86.0985069274902
 31
0.0
  0
LINE
  5
   1A8
  8
0
  6
CONTINUOUS
 62
     7
 10
-1077.38164702357
 20
-86.6194513574419
 30
0.0
 11
-1074.42722374637
 21
-86.0985069274902
 31
0.0
  0
LINE
  5
   1A9
  8
0
  6
CONTINUOUS
 62
     7
 10
-1074.42722374637
 20
-86.0985069274902
 30
0.0
 11
-1077.38164702357
 21
-85.5775624975386
 31
0.0
  0
LINE
  5
   1AA
  8
0
  6
CONTINUOUS
 62
     7
 10
-1093.34780046916
 20
-85.5775624975386
 30
0.0
 11
-1096.30222374637
 21
-86.0985069274902
 31
0.0
  0
LINE
  5
   1AB
  8
0
  6
CONTINUOUS
 62
     7
 10
-1096.30222374637
 20
-86.0985069274902
 30
0.0
 11
-1093.34780046916
 21
-86.6194513574419
 31
0.0
  0
ENDBLK
  5
   1AC
  8
0
  6
CONTINUOUS
 62
     7
  0
BLOCK
  5
   1AD
  8
0
  6
CONTINUOUS
 62
     7
  2
*UDIM2301
 70
    65
 10
0.0
 20
0.0
 30
0.0
  3
*UDIM2301
  0
TEXT
  5
   1AE
  8
0
  6
CONTINUOUS
 62
     7
 10
-1037.82722704109
 20
-98.1437911964756
 30
0.0
 40
3.00000002980232
  1
70
 50
359.999999948034
 41
0.933333333333333
 72
     1
 11
-1035.3272270149
 21
-96.6437911838293
 31
0.0
 73
     2
  0
LINE
  5
   1AF
  8
0
  6
CONTINUOUS
 62
     7
 10
-1017.55221589009
 20
56.4627532958985
 30
0.0
 11
-1017.55226536538
 21
-101.14379119873
 31
0.0
  0
LINE
  5
   1B0
  8
0
  6
CONTINUOUS
 62
     7
 10
-1052.55223183517
 20
25.8025890834839
 30
0.0
 11
-1052.55227168573
 21
-101.14379119873
 31
0.0
  0
LINE
  5
   1B1
  8
0
  6
CONTINUOUS
 62
     7
 10
-1017.55226473755
 20
-99.1437911987305
 30
0.0
 11
-1052.5522710579
 21
-99.1437911987305
 31
0.0
  0
LINE
  5
   1B2
  8
0
  6
CONTINUOUS
 62
     7
 10
-1020.50668801475
 20
-99.6647356286821
 30
0.0
 11
-1017.55226473755
 21
-99.1437911987305
 31
0.0
  0
LINE
  5
   1B3
  8
0
  6
CONTINUOUS
 62
     7
 10
-1017.55226473755
 20
-99.1437911987305
 30
0.0
 11
-1020.50668801475
 21
-98.6228467687788
 31
0.0
  0
LINE
  5
   1B4
  8
0
  6
CONTINUOUS
 62
     7
 10
-1049.59784778069
 20
-98.6228467687788
 30
0.0
 11
-1052.5522710579
 21
-99.1437911987305
 31
0.0
  0
LINE
  5
   1B5
  8
0
  6
CONTINUOUS
 62
     7
 10
-1052.5522710579
 20
-99.1437911987305
 30
0.0
 11
-1049.59784778069
 21
-99.6647356286821
 31
0.0
  0
ENDBLK
  5
   1B6
  8
0
  6
CONTINUOUS
 62
     7
  0
BLOCK
  5
   1B7
  8
0
  6
CONTINUOUS
 62
     7
  2
*UDIM2302
 70
    65
 10
0.0
 20
0.0
 30
0.0
  3
*UDIM2302
  0
TEXT
  5
   1B8
  8
0
  6
CONTINUOUS
 62
     7
 10
-1071.86470803211
 20
103.743041999493
 30
0.0
 40
3.00000002980232
  1
183,75
 50
359.999999948034
 41
0.933333333333333
 72
     1
 11
-1063.76470795029
 21
105.243042007089
 31
0.0
 73
     2
  0
LINE
  5
   1B9
  8
0
  6
CONTINUOUS
 62
     7
 10
-1017.55221514255
 20
70.9627209472831
 30
0.0
 11
-1017.5522004947
 21
104.743041992187
 31
0.0
  0
LINE
  5
   1BA
  8
0
  6
CONTINUOUS
 62
     7
 10
-1109.42720763497
 20
70.9627209472831
 30
0.0
 11
-1109.42719703077
 21
104.743041992187
 31
0.0
  0
LINE
  5
   1BB
  8
0
  6
CONTINUOUS
 62
     7
 10
-1017.55220136194
 20
102.743041992188
 30
0.0
 11
-1109.4271976586
 21
102.743041992188
 31
0.0
  0
LINE
  5
   1BC
  8
0
  6
CONTINUOUS
 62
     7
 10
-1020.50662463915
 20
102.222097562236
 30
0.0
 11
-1017.55220136194
 21
102.743041992188
 31
0.0
  0
LINE
  5
   1BD
  8
0
  6
CONTINUOUS
 62
     7
 10
-1017.55220136194
 20
102.743041992188
 30
0.0
 11
-1020.50662463915
 21
103.263986422139
 31
0.0
  0
LINE
  5
   1BE
  8
0
  6
CONTINUOUS
 62
     7
 10
-1106.47277438139
 20
103.263986422139
 30
0.0
 11
-1109.4271976586
 21
102.743041992188
 31
0.0
  0
LINE
  5
   1BF
  8
0
  6
CONTINUOUS
 62
     7
 10
-1109.4271976586
 20
102.743041992188
 30
0.0
 11
-1106.47277438139
 21
102.222097562236
 31
0.0
  0
ENDBLK
  5
   1C0
  8
0
  6
CONTINUOUS
 62
     7
  0
BLOCK
  5
   1C1
  8
0
  6
CONTINUOUS
 62
     7
  2
*UDIM2303
 70
    65
 10
0.0
 20
0.0
 30
0.0
  3
*UDIM2303
  0
TEXT
  5
   1C2
  8
0
  6
CONTINUOUS
 62
     7
 10
-830.664171996231
 20
18.2266601293552
 30
0.0
 40
3.00000002980232
  1
7
 50
404.893139787217
 41
0.933333333333334
 72
     1
 11
-830.943585345768
 21
20.06566210022
 31
0.0
 73
     2
  0
TEXT
  5
   1C3
  8
0
  6
CONTINUOUS
 62
     7
 10
-832.895708696506
 20
16.0034318419515
 30
0.0
 40
3.00000002980232
  1
Ø
 50
404.893139787217
 41
0.933333333333334
 72
     1
 11
-833.175122046043
 21
17.8424338128162
 31
0.0
 73
     2
  0
LINE
  5
   1C4
  8
0
  6
CONTINUOUS
 62
     7
 10
-816.191774204136
 20
31.2335912432514
 30
0.0
 11
-832.189921935832
 21
15.2950074956508
 31
0.0
  0
LINE
  5
   1C5
  8
0
  6
CONTINUOUS
 62
     7
 10
-814.466464502148
 20
33.6878337806198
 30
0.0
 11
-816.191774204136
 21
31.2335912432514
 31
0.0
  0
LINE
  5
   1C6
  8
0
  6
CONTINUOUS
 62
     7
 10
-816.191774204136
 20
31.2335912432514
 30
0.0
 11
-813.731113143938
 21
32.9497343453344
 31
0.0
  0
LINE
  5
   1C7
  8
0
  6
CONTINUOUS
 62
     7
 10
-819.156826513477
 20
27.5442218834427
 30
0.0
 11
-817.43151681149
 21
29.9984644208111
 31
0.0
  0
LINE
  5
   1C8
  8
0
  6
CONTINUOUS
 62
     7
 10
-817.43151681149
 20
29.9984644208111
 30
0.0
 11
-819.892177871687
 21
28.2823213187281
 31
0.0
  0
ENDBLK
  5
   1C9
  8
0
  6
CONTINUOUS
 62
     7
  0
BLOCK
  5
   1CA
  8
0
  6
CONTINUOUS
 62
     7
  2
*UDIM2304
 70
    65
 10
0.0
 20
0.0
 30
0.0
  3
*UDIM2304
  0
TEXT
  5
   1CB
  8
0
  6
CONTINUOUS
 62
     7
 10
-809.586645542682
 20
78.9022064276882
 30
0.0
 40
3.00000002980232
  1
80
 50
359.999999844103
 41
0.933333333333333
 72
     1
 11
-807.086645513773
 21
80.4022064357996
 31
0.0
 73
     2
  0
LINE
  5
   1CC
  8
0
  6
CONTINUOUS
 62
     7
 10
-816.811645507813
 20
68.7410278320313
 30
0.0
 11
-816.811645507813
 21
79.9022064208984
 31
0.0
  0
LINE
  5
   1CD
  8
0
  6
CONTINUOUS
 62
     7
 10
-796.811645507813
 20
68.7410278320313
 30
0.0
 11
-796.811645507813
 21
79.9022064208984
 31
0.0
  0
LINE
  5
   1CE
  8
0
  6
CONTINUOUS
 62
     7
 10
-816.811645507813
 20
77.9022064208984
 30
0.0
 11
-796.811645507813
 21
77.9022064208984
 31
0.0
  0
LINE
  5
   1CF
  8
0
  6
CONTINUOUS
 62
     7
 10
-813.857222230606
 20
78.4231508508501
 30
0.0
 11
-816.811645507813
 21
77.9022064208984
 31
0.0
  0
LINE
  5
   1D0
  8
0
  6
CONTINUOUS
 62
     7
 10
-816.811645507813
 20
77.9022064208984
 30
0.0
 11
-813.857222230606
 21
77.3812619909468
 31
0.0
  0
LINE
  5
   1D1
  8
0
  6
CONTINUOUS
 62
     7
 10
-799.76606878502
 20
77.3812619909468
 30
0.0
 11
-796.811645507813
 21
77.9022064208984
 31
0.0
  0
LINE
  5
   1D2
  8
0
  6
CONTINUOUS
 62
     7
 10
-796.811645507813
 20
77.9022064208984
 30
0.0
 11
-799.76606878502
 21
78.4231508508501
 31
0.0
  0
ENDBLK
  5
   1D3
  8
0
  6
CONTINUOUS
 62
     7
  0
BLOCK
  5
   1D4
  8
0
  6
CONTINUOUS
 62
     7
  2
*UDIM2305
 70
    65
 10
0.0
 20
0.0
 30
0.0
  3
*UDIM2305
  0
TEXT
  5
   1D5
  8
0
  6
CONTINUOUS
 62
     7
 10
-810.98664555659
 20
85.3418655501427
 30
0.0
 40
3.00000002980232
  1
112
 50
359.999999844103
 41
0.933333333333333
 72
     1
 11
-807.086645513773
 21
86.8418655544519
 31
0.0
 73
     2
  0
LINE
  5
   1D6
  8
0
  6
CONTINUOUS
 62
     7
 10
-820.811645507812
 20
63.3660278320313
 30
0.0
 11
-820.811645507812
 21
86.3418655395508
 31
0.0
  0
LINE
  5
   1D7
  8
0
  6
CONTINUOUS
 62
     7
 10
-792.811645507813
 20
63.3660278320313
 30
0.0
 11
-792.811645507813
 21
86.3418655395508
 31
0.0
  0
LINE
  5
   1D8
  8
0
  6
CONTINUOUS
 62
     7
 10
-820.811645507812
 20
84.3418655395508
 30
0.0
 11
-792.811645507813
 21
84.3418655395508
 31
0.0
  0
LINE
  5
   1D9
  8
0
  6
CONTINUOUS
 62
     7
 10
-817.857222230606
 20
84.8628099695025
 30
0.0
 11
-820.811645507812
 21
84.3418655395508
 31
0.0
  0
LINE
  5
   1DA
  8
0
  6
CONTINUOUS
 62
     7
 10
-820.811645507812
 20
84.3418655395508
 30
0.0
 11
-817.857222230606
 21
83.8209211095991
 31
0.0
  0
LINE
  5
   1DB
  8
0
  6
CONTINUOUS
 62
     7
 10
-795.76606878502
 20
83.8209211095991
 30
0.0
 11
-792.811645507813
 21
84.3418655395508
 31
0.0
  0
LINE
  5
   1DC
  8
0
  6
CONTINUOUS
 62
     7
 10
-792.811645507813
 20
84.3418655395508
 30
0.0
 11
-795.76606878502
 21
84.8628099695025
 31
0.0
  0
ENDBLK
  5
   1DD
  8
0
  6
CONTINUOUS
 62
     7
  0
BLOCK
  5
   1DE
  8
0
  6
CONTINUOUS
 62
     7
  2
*UDIM2306
 70
    65
 10
0.0
 20
0.0
 30
0.0
  3
*UDIM2306
  0
TEXT
  5
   1DF
  8
0
  6
CONTINUOUS
 62
     7
 10
-831.230415354825
 20
44.1910277832558
 30
0.0
 40
3.00000002980232
  1
112
 50
449.999999844103
 41
0.933333333333333
 72
     1
 11
-832.73041535914
 21
48.0910278260708
 31
0.0
 73
     2
  0
LINE
  5
   1E0
  8
0
  6
CONTINUOUS
 62
     7
 10
-821.811645507813
 20
62.3660278320313
 30
0.0
 11
-832.230415344238
 21
62.3660278320313
 31
0.0
  0
LINE
  5
   1E1
  8
0
  6
CONTINUOUS
 62
     7
 10
-821.811645507813
 20
34.3660278320313
 30
0.0
 11
-832.230415344238
 21
34.3660278320313
 31
0.0
  0
LINE
  5
   1E2
  8
0
  6
CONTINUOUS
 62
     7
 10
-830.230415344238
 20
62.3660278320313
 30
0.0
 11
-830.230415344238
 21
34.3660278320313
 31
0.0
  0
LINE
  5
   1E3
  8
0
  6
CONTINUOUS
 62
     7
 10
-829.709470914287
 20
59.4116045548243
 30
0.0
 11
-830.230415344238
 21
62.3660278320313
 31
0.0
  0
LINE
  5
   1E4
  8
0
  6
CONTINUOUS
 62
     7
 10
-830.230415344238
 20
62.3660278320313
 30
0.0
 11
-830.75135977419
 21
59.4116045548243
 31
0.0
  0
LINE
  5
   1E5
  8
0
  6
CONTINUOUS
 62
     7
 10
-830.75135977419
 20
37.3204511092382
 30
0.0
 11
-830.230415344238
 21
34.3660278320313
 31
0.0
  0
LINE
  5
   1E6
  8
0
  6
CONTINUOUS
 62
     7
 10
-830.230415344238
 20
34.3660278320313
 30
0.0
 11
-829.709470914287
 21
37.3204511092382
 31
0.0
  0
ENDBLK
  5
   1E7
  8
0
  6
CONTINUOUS
 62
     7
  0
BLOCK
  5
   1E8
  8
0
  6
CONTINUOUS
 62
     7
  2
*UDIM2307
 70
    65
 10
0.0
 20
0.0
 30
0.0
  3
*UDIM2307
  0
TEXT
  5
   1E9
  8
0
  6
CONTINUOUS
 62
     7
 10
-840.595355998136
 20
44.1910277832558
 30
0.0
 40
3.00000002980232
  1
142
 50
449.999999844103
 41
0.933333333333333
 72
     1
 11
-842.09535600245
 21
48.0910278260708
 31
0.0
 73
     2
  0
LINE
  5
   1EA
  8
0
  6
CONTINUOUS
 62
     7
 10
-819.436645507813
 20
66.1160278320313
 30
0.0
 11
-841.595355987549
 21
66.1160278320313
 31
0.0
  0
LINE
  5
   1EB
  8
0
  6
CONTINUOUS
 62
     7
 10
-819.436645507813
 20
30.6160278320313
 30
0.0
 11
-841.595355987549
 21
30.6160278320313
 31
0.0
  0
LINE
  5
   1EC
  8
0
  6
CONTINUOUS
 62
     7
 10
-839.595355987549
 20
66.1160278320313
 30
0.0
 11
-839.595355987549
 21
30.6160278320313
 31
0.0
  0
LINE
  5
   1ED
  8
0
  6
CONTINUOUS
 62
     7
 10
-839.074411557597
 20
63.1616045548243
 30
0.0
 11
-839.595355987549
 21
66.1160278320313
 31
0.0
  0
LINE
  5
   1EE
  8
0
  6
CONTINUOUS
 62
     7
 10
-839.595355987549
 20
66.1160278320313
 30
0.0
 11
-840.116300417501
 21
63.1616045548243
 31
0.0
  0
LINE
  5
   1EF
  8
0
  6
CONTINUOUS
 62
     7
 10
-840.116300417501
 20
33.5704511092382
 30
0.0
 11
-839.595355987549
 21
30.6160278320313
 31
0.0
  0
LINE
  5
   1F0
  8
0
  6
CONTINUOUS
 62
     7
 10
-839.595355987549
 20
30.6160278320313
 30
0.0
 11
-839.074411557597
 21
33.5704511092382
 31
0.0
  0
ENDBLK
  5
   1F1
  8
0
  6
CONTINUOUS
 62
     7
  0
ENDSEC
  0
SECTION
  2
ENTITIES
  0
LINE
  5
   1F2
  8
0
  6
DASHDOT
 62
     7
 10
-1052.55224609375
 20
-105.526307530479
 30
0.0
 11
-1052.55224609375
 21
-157.994960898492
 31
0.0
  0
LINE
  5
   1F3
  8
0
  6
CONTINUOUS
 62
     7
 10
-1083.95849609375
 20
-108.676208496094
 30
0.0
 11
-1083.95849609375
 21
-157.176208496094
 31
0.0
  0
LINE
  5
   1F4
  8
0
  6
CONTINUOUS
 62
     7
 10
-1032.08349609375
 20
-108.676208496094
 30
0.0
 11
-1032.08349609375
 21
-157.176208496094
 31
0.0
  0
LINE
  5
   1F5
  8
0
  6
CONTINUOUS
 62
     7
 10
-1032.08349609375
 20
-108.676208496094
 30
0.0
 11
-1083.95849609375
 21
-108.676208496094
 31
0.0
  0
LINE
  5
   1F6
  8
0
  6
CONTINUOUS
 62
     7
 10
-1032.08349609375
 20
-157.176208496094
 30
0.0
 11
-1083.95849609375
 21
-157.176208496094
 31
0.0
  0
LINE
  5
   1F7
  8
0
  6
DASHDOT
 62
     7
 10
-1078.02099609375
 20
-110.25854906281
 30
0.0
 11
-1078.02099609375
 21
-157.171481318328
 31
0.0
  0
LINE
  5
   1F8
  8
0
  6
DASHDOT
 62
     7
 10
-1038.02099609375
 20
-110.25854906281
 30
0.0
 11
-1038.02099609375
 21
-157.66530165786
 31
0.0
  0
LINE
  5
   1F9
  8
0
  6
DASHDOT
 62
     7
 10
-1033.79938565746
 20
-116.051208496094
 30
0.0
 11
-1081.69995859204
 21
-116.051208496094
 31
0.0
  0
LINE
  5
   1FA
  8
0
  6
DASHDOT
 62
     7
 10
-1033.47017209777
 20
-149.801208496094
 30
0.0
 11
-1081.37074503235
 21
-149.801208496094
 31
0.0
  0
CIRCLE
  5
   1FB
  8
0
  6
CONTINUOUS
 62
     7
 10
-1078.02099609375
 20
-116.051208496094
 30
0.0
 40
0.75
  0
CIRCLE
  5
   1FC
  8
0
  6
CONTINUOUS
 62
     7
 10
-1038.02099609375
 20
-116.051208496094
 30
0.0
 40
0.75
  0
CIRCLE
  5
   1FD
  8
0
  6
CONTINUOUS
 62
     7
 10
-1038.02099609375
 20
-149.801208496094
 30
0.0
 40
0.75
  0
CIRCLE
  5
   1FE
  8
0
  6
CONTINUOUS
 62
     7
 10
-1078.02099609375
 20
-149.801208496094
 30
0.0
 40
0.75
  0
CIRCLE
  5
   1FF
  8
0
  6
CONTINUOUS
 62
     7
 10
-1075.40242773047
 20
-113.167328394575
 30
0.0
 40
0.0625
  0
LINE
  5
   200
  8
0
  6
DASHDOT
 62
     7
 10
-1022.95724860327
 20
-132.488708496094
 30
0.0
 11
-1089.86664163
 21
-132.488708496094
 31
0.0
  0
INSERT
  5
   201
  8
0
  6
CONTINUOUS
 62
     5
  2
*UDIM2274
 10
0.0
 20
0.0
 30
0.0
  0
TEXT
  5
   202
  8
0
  6
CONTINUOUS
 62
     5
 10
-871.394074248916
 20
-8.12908737086006
 30
0.0
 40
3.00000002980232
  1
=          =
 50
449.999999896069
 41
0.916666604744064
 72
     2
 11
-871.394074190257
 21
24.3209107550706
 31
0.0
  0
INSERT
  5
   203
  8
0
  6
CONTINUOUS
 62
     5
  2
*UDIM2275
 10
0.0
 20
0.0
 30
0.0
  0
INSERT
  5
   204
  8
0
  6
CONTINUOUS
 62
     7
  2
*UDIM2276
 10
0.0
 20
0.0
 30
0.0
  0
INSERT
  5
   205
  8
0
  6
CONTINUOUS
 62
     7
  2
*UDIM2277
 10
0.0
 20
0.0
 30
0.0
  0
INSERT
  5
   206
  8
0
  6
CONTINUOUS
 62
     7
  2
*UDIM2278
 10
0.0
 20
0.0
 30
0.0
  0
TEXT
  5
   207
  8
0
  6
CONTINUOUS
 62
     7
 10
-1053.68668492112
 20
-104.028891479176
 30
0.0
 40
3.00000002980232
  1
Y
 50
359.999999896069
 41
0.916666604744064
 72
     2
 11
-1051.48668505225
 21
-104.028891483156
 31
0.0
  0
TEXT
  5
   208
  8
0
  6
CONTINUOUS
 62
     7
 10
-1112.24893570218
 20
-134.171253351368
 30
0.0
 40
3.00000002980232
  1
X
 50
359.999999896069
 41
0.916666604744064
 72
     2
 11
-1110.04893583331
 21
-134.171253355347
 31
0.0
  0
TEXT
  5
   209
  8
0
  6
CONTINUOUS
 62
     7
 10
-1022.12206650052
 20
-134.37700226704
 30
0.0
 40
3.00000002980232
  1
X
 50
359.999999896069
 41
0.916666604744064
 72
     2
 11
-1019.92206663165
 21
-134.377002271019
 31
0.0
  0
TEXT
  5
   20A
  8
0
  6
CONTINUOUS
 62
     7
 10
-1053.81316471371
 20
-163.517589596904
 30
0.0
 40
3.00000002980232
  1
Y
 50
359.999999896069
 41
0.916666604744064
 72
     2
 11
-1051.61316484484
 21
-163.517589600884
 31
0.0
  0
LINE
  5
   20B
  8
0
  6
CONTINUOUS
 62
     7
 10
-942.617263793958
 20
20.7127685546875
 30
0.0
 11
-942.617263793958
 21
20.9627532958984
 31
0.0
  0
LINE
  5
   20C
  8
0
  6
CONTINUOUS
 62
     7
 10
-942.617263793958
 20
28.4627532958984
 30
0.0
 11
-942.617263793958
 21
38.4627380371094
 31
0.0
  0
LINE
  5
   20D
  8
0
  6
CONTINUOUS
 62
     7
 10
-941.367248535169
 20
20.9627532958984
 30
0.0
 11
-941.367248535169
 21
28.4627532958984
 31
0.0
  0
LINE
  5
   20E
  8
0
  6
CONTINUOUS
 62
     7
 10
-941.367248535169
 20
20.9627532958984
 30
0.0
 11
-942.617263793958
 21
20.9627532958984
 31
0.0
  0
LINE
  5
   20F
  8
0
  6
CONTINUOUS
 62
     7
 10
-941.367248535169
 20
28.4627532958984
 30
0.0
 11
-942.617263793958
 21
28.4627532958984
 31
0.0
  0
LINE
  5
   210
  8
0
  6
CONTINUOUS
 62
     7
 10
-941.367248535169
 20
38.4627380371094
 30
0.0
 11
-941.367248535169
 21
45.9627380371094
 31
0.0
  0
LINE
  5
   211
  8
0
  6
CONTINUOUS
 62
     7
 10
-941.367248535169
 20
38.4627380371094
 30
0.0
 11
-942.617263793958
 21
38.4627380371094
 31
0.0
  0
LINE
  5
   212
  8
0
  6
CONTINUOUS
 62
     7
 10
-941.367248535169
 20
45.9627380371094
 30
0.0
 11
-942.617263793958
 21
45.9627380371094
 31
0.0
  0
LINE
  5
   213
  8
0
  6
CONTINUOUS
 62
     7
 10
-908.367271423353
 20
20.7127532958984
 30
0.0
 11
-908.367271423353
 21
48.2127380371094
 31
0.0
  0
LINE
  5
   214
  8
0
  6
CONTINUOUS
 62
     2
 10
-942.617260383234
 20
47.9627380371094
 30
0.0
 11
-942.617252981967
 21
58.2700500488281
 31
0.0
  0
LINE
  5
   215
  8
0
  6
CONTINUOUS
 62
     7
 10
-906.617263793958
 20
56.9627380371094
 30
0.0
 11
-908.367263793958
 21
56.9627380371094
 31
0.0
  0
LINE
  5
   216
  8
0
  6
CONTINUOUS
 62
     7
 10
-908.367275783034
 20
48.2127336775026
 30
0.0
 11
-908.36726815364
 21
56.9627336775026
 31
0.0
  0
LINE
  5
   217
  8
0
  6
CONTINUOUS
 62
     7
 10
-908.367271423353
 20
15.962760925293
 30
0.0
 11
-908.367271423353
 21
20.7127685546875
 31
0.0
  0
LINE
  5
   218
  8
0
  6
CONTINUOUS
 62
     7
 10
-942.617258694297
 20
-14.5372263556414
 30
0.0
 11
-942.617243435508
 21
-14.3901088005
 31
0.0
  0
LINE
  5
   219
  8
0
  6
CONTINUOUS
 62
     7
 10
-942.617244415358
 20
-6.68434569554871
 30
0.0
 11
-942.617259674146
 21
20.7127642898028
 31
0.0
  0
LINE
  5
   21A
  8
0
  6
CONTINUOUS
 62
     7
 10
-907.117263793958
 20
-7.7872314453125
 30
0.0
 11
-941.117280578627
 21
-7.7872314453125
 31
0.0
  0
LINE
  5
   21B
  8
0
  6
CONTINUOUS
 62
     7
 10
-907.117263793958
 20
-13.2872314453125
 30
0.0
 11
-941.117280578627
 21
-13.2872314453125
 31
0.0
  0
LINE
  5
   21C
  8
0
  6
CONTINUOUS
 62
     7
 10
-938.501234295834
 20
-7.78722636070108
 30
0.0
 11
-942.617246692838
 21
-6.68434064763267
 31
0.0
  0
LINE
  5
   21D
  8
0
  6
CONTINUOUS
 62
     7
 10
-942.617244385847
 20
-14.3901130753489
 30
0.0
 11
-938.50123189407
 21
-13.2872309109527
 31
0.0
  0
LINE
  5
   21E
  8
0
  6
CONTINUOUS
 62
     7
 10
-906.617271423353
 20
-6.2872314453125
 30
0.0
 11
-910.617271423353
 21
-6.2872314453125
 31
0.0
  0
LINE
  5
   21F
  8
0
  6
CONTINUOUS
 62
     7
 10
-910.617271423353
 20
-6.2872314453125
 30
0.0
 11
-910.617271423353
 21
14.962760925293
 31
0.0
  0
LINE
  5
   220
  8
0
  6
CONTINUOUS
 62
     7
 10
-942.117248535169
 20
-10.2872314453125
 30
0.0
 11
-942.117248535169
 21
-6.81832122802734
 31
0.0
  0
LINE
  5
   221
  8
0
  6
CONTINUOUS
 62
     7
 10
-942.11725557767
 20
-14.2561366919182
 30
0.0
 11
-942.117247948281
 21
-13.787226474633
 31
0.0
  0
LINE
  5
   222
  8
0
  6
CONTINUOUS
 62
     2
 10
-942.617248535169
 20
-6.2872314453125
 30
0.0
 11
-943.617248535169
 21
-6.2872314453125
 31
0.0
  0
LINE
  5
   223
  8
0
  6
CONTINUOUS
 62
     2
 10
-942.617248535169
 20
-3.5372314453125
 30
0.0
 11
-943.617248535169
 21
-3.5372314453125
 31
0.0
  0
LINE
  5
   224
  8
0
  6
CONTINUOUS
 62
     7
 10
-906.617282228351
 20
-13.7872119322158
 30
0.0
 11
-907.117274582659
 21
-13.2872195779082
 31
0.0
  0
LINE
  5
   225
  8
0
  6
CONTINUOUS
 62
     7
 10
-907.117270112221
 20
-7.78723074433416
 30
0.0
 11
-906.617270129335
 21
-7.28723076144846
 31
0.0
  0
LINE
  5
   226
  8
0
  6
CONTINUOUS
 62
     7
 10
-908.367271423353
 20
14.962760925293
 30
0.0
 11
-908.367271423353
 21
15.962760925293
 31
0.0
  0
LINE
  5
   227
  8
0
  6
CONTINUOUS
 62
     7
 10
-941.617248535169
 20
-23.5372161865228
 30
0.0
 11
-943.617248535169
 21
-23.5372161865228
 31
0.0
  0
LINE
  5
   228
  8
0
  6
CONTINUOUS
 62
     7
 10
-942.617263793958
 20
-16.5372314453125
 30
0.0
 11
-942.617263793958
 21
-14.5372314453125
 31
0.0
  0
LINE
  5
   229
  8
0
  6
CONTINUOUS
 62
     7
 10
-906.617271423353
 20
-21.0372161865234
 30
0.0
 11
-911.617263793958
 21
-21.0372161865234
 31
0.0
  0
LINE
  5
   22A
  8
0
  6
CONTINUOUS
 62
     7
 10
-911.617263793958
 20
-23.5372161865234
 30
0.0
 11
-911.617263793958
 21
-21.0372161865234
 31
0.0
  0
LINE
  5
   22B
  8
0
  6
CONTINUOUS
 62
     7
 10
-942.617263793958
 20
-22.2872067260921
 30
0.0
 11
-942.617263793958
 21
-16.5372314453125
 31
0.0
  0
LINE
  5
   22C
  8
0
  6
CONTINUOUS
 62
     2
 10
-942.617263793958
 20
47.9627380371094
 30
0.0
 11
-942.867248535169
 21
47.9627380371094
 31
0.0
  0
LINE
  5
   22D
  8
0
  6
CONTINUOUS
 62
     7
 10
-942.617256164564
 20
12.7127685546875
 30
0.0
 11
-942.867248535169
 21
12.7127685546875
 31
0.0
  0
LINE
  5
   22E
  8
0
  6
CONTINUOUS
 62
     7
 10
-942.617248535169
 20
-3.28722953796387
 30
0.0
 11
-942.867248535169
 21
-3.28722953796387
 31
0.0
  0
LINE
  5
   22F
  8
0
  6
CONTINUOUS
 62
     7
 10
-942.117248535169
 20
-7.03723096847534
 30
0.0
 11
-942.867248535169
 21
-7.03723096847534
 31
0.0
  0
LINE
  5
   230
  8
0
  6
CONTINUOUS
 62
     7
 10
-942.617263793958
 20
-15.037223815918
 30
0.0
 11
-942.867248535169
 21
-15.037223815918
 31
0.0
  0
LINE
  5
   231
  8
0
  6
CONTINUOUS
 62
     2
 10
-942.867248535169
 20
-21.8372114110672
 30
0.0
 11
-942.867248535169
 21
-6.28723907470703
 31
0.0
  0
LINE
  5
   232
  8
0
  6
CONTINUOUS
 62
     2
 10
-942.867248535169
 20
-3.53723907470703
 30
0.0
 11
-942.867248535169
 21
47.9627304077148
 31
0.0
  0
LINE
  5
   233
  8
0
  6
CONTINUOUS
 62
     7
 10
-942.117248535169
 20
38.462760925293
 30
0.0
 11
-942.117248535169
 21
45.9627380371094
 31
0.0
  0
LINE
  5
   234
  8
0
  6
CONTINUOUS
 62
     7
 10
-942.117248535169
 20
20.9627838134766
 30
0.0
 11
-942.117248535169
 21
28.462776184082
 31
0.0
  0
LINE
  5
   235
  8
0
  6
CONTINUOUS
 62
     7
 10
-942.117248535169
 20
-13.7871932983398
 30
0.0
 11
-942.117248535169
 21
-10.2871932983398
 31
0.0
  0
LINE
  5
   236
  8
0
  6
CONTINUOUS
 62
     2
 10
-942.667252439685
 20
-22.0372075065511
 30
0.0
 11
-942.867249385622
 21
-21.8372105606142
 31
0.0
  0
LINE
  5
   237
  8
0
  6
CONTINUOUS
 62
     2
 10
-942.617248535169
 20
55.9627380371094
 30
0.0
 11
-943.617248535169
 21
55.9627380371094
 31
0.0
  0
LINE
  5
   238
  8
0
  6
CONTINUOUS
 62
     2
 10
-942.617248535169
 20
61.4627380371094
 30
0.0
 11
-943.617248535169
 21
61.4627380371094
 31
0.0
  0
LINE
  5
   239
  8
0
  6
CONTINUOUS
 62
     2
 10
-942.617248535169
 20
60.1185607910156
 30
0.0
 11
-943.617248535169
 21
60.1185607910156
 31
0.0
  0
LINE
  5
   23A
  8
0
  6
CONTINUOUS
 62
     2
 10
-942.617248535169
 20
58.2700500488281
 30
0.0
 11
-943.617248535169
 21
58.2700500488281
 31
0.0
  0
LINE
  5
   23B
  8
0
  6
CONTINUOUS
 62
     7
 10
-908.117279052748
 20
22.2127359484672
 30
0.0
 11
-908.117279052748
 21
49.4627588366508
 31
0.0
  0
LINE
  5
   23C
  8
0
  6
CONTINUOUS
 62
     7
 10
-906.617263793958
 20
56.7127474975409
 30
0.0
 11
-906.617263793958
 21
57.2127551269355
 31
0.0
  0
LINE
  5
   23D
  8
0
  6
CONTINUOUS
 62
     7
 10
-895.367263793958
 20
57.2127551269355
 30
0.0
 11
-895.517265319837
 21
57.2127551269355
 31
0.0
  0
LINE
  5
   23E
  8
0
  6
CONTINUOUS
 62
     7
 10
-906.617263793958
 20
56.71276275633
 30
0.0
 11
-908.117263793958
 21
56.71276275633
 31
0.0
  0
LINE
  5
   23F
  8
0
  6
CONTINUOUS
 62
     7
 10
-908.117263793958
 20
49.46276275633
 30
0.0
 11
-908.117263793958
 21
56.71276275633
 31
0.0
  0
LINE
  5
   240
  8
0
  6
CONTINUOUS
 62
     7
 10
-906.617286682142
 20
-20.5372296142755
 30
0.0
 11
-906.617286682142
 21
-16.898923950213
 31
0.0
  0
LINE
  5
   241
  8
0
  6
CONTINUOUS
 62
     7
 10
-908.117271423353
 20
16.2127551269355
 30
0.0
 11
-908.117271423353
 21
22.2127398681464
 31
0.0
  0
LINE
  5
   242
  8
0
  6
CONTINUOUS
 62
     7
 10
-908.117271423353
 20
14.9627398681464
 30
0.0
 11
-908.617271423353
 21
14.9627398681464
 31
0.0
  0
LINE
  5
   243
  8
0
  6
CONTINUOUS
 62
     7
 10
-895.517280956645
 20
-22.0372143554758
 30
0.0
 11
-906.61728706016
 21
-22.0372143554758
 31
0.0
  0
LINE
  5
   244
  8
0
  6
CONTINUOUS
 62
     7
 10
-906.617286682142
 20
-22.0372296142755
 30
0.0
 11
-906.617286682142
 21
-20.5372296142755
 31
0.0
  0
LINE
  5
   245
  8
0
  6
CONTINUOUS
 62
     7
 10
-906.617279052747
 20
-16.898923950213
 30
0.0
 11
-906.617279052747
 21
-13.4122250091337
 31
0.0
  0
LINE
  5
   246
  8
0
  6
CONTINUOUS
 62
     7
 10
-895.367286682142
 20
-23.53723724367
 30
0.0
 11
-895.367286682142
 21
-22.03723724367
 31
0.0
  0
LINE
  5
   247
  8
0
  6
CONTINUOUS
 62
     7
 10
-895.367286682142
 20
-22.03723724367
 30
0.0
 11
-895.517280548824
 21
-22.03723724367
 31
0.0
  0
LINE
  5
   248
  8
0
  6
CONTINUOUS
 62
     7
 10
-908.617271423353
 20
14.9627398681464
 30
0.0
 11
-910.617271423353
 21
14.9627398681464
 31
0.0
  0
LINE
  5
   249
  8
0
  6
CONTINUOUS
 62
     7
 10
-908.117271423353
 20
14.9627398681464
 30
0.0
 11
-908.117271423353
 21
16.2127551269355
 31
0.0
  0
LINE
  5
   24A
  8
0
  6
CONTINUOUS
 62
     7
 10
-895.517282657803
 20
-13.4122143554778
 30
0.0
 11
-906.617281131925
 21
-13.4122143554778
 31
0.0
  0
LINE
  5
   24B
  8
0
  6
CONTINUOUS
 62
     7
 10
-895.517286335034
 20
-7.66221435547917
 30
0.0
 11
-906.617284809155
 21
-7.66221435547917
 31
0.0
  0
LINE
  5
   24C
  8
0
  6
CONTINUOUS
 62
     7
 10
-905.967766329086
 20
-20.1622210559459
 30
0.0
 11
-905.867287218852
 21
-19.7872210611231
 31
0.0
  0
LINE
  5
   24D
  8
0
  6
CONTINUOUS
 62
     7
 10
-906.242282011201
 20
-20.4367455886755
 30
0.0
 11
-905.967768784701
 21
-20.1622247259564
 31
0.0
  0
LINE
  5
   24E
  8
0
  6
CONTINUOUS
 62
     7
 10
-906.61729532484
 20
-20.5372178964355
 30
0.0
 11
-906.242287710567
 21
-20.4367387785541
 31
0.0
  0
LINE
  5
   24F
  8
0
  6
CONTINUOUS
 62
     7
 10
-906.242283532683
 20
-14.6377076520284
 30
0.0
 11
-906.617283529934
 21
-14.5372209055012
 31
0.0
  0
LINE
  5
   250
  8
0
  6
CONTINUOUS
 62
     7
 10
-905.967770942342
 20
-14.9122250807375
 30
0.0
 11
-906.242284172662
 21
-14.6377118504175
 31
0.0
  0
LINE
  5
   251
  8
0
  6
CONTINUOUS
 62
     7
 10
-905.867292408773
 20
-15.2872243855713
 30
0.0
 11
-905.967779155301
 21
-14.912224388321
 31
0.0
  0
LINE
  5
   252
  8
0
  6
CONTINUOUS
 62
     7
 10
-905.867290920677
 20
-19.7872266449102
 30
0.0
 11
-905.867283291283
 21
-15.2872266449102
 31
0.0
  0
LINE
  5
   253
  8
0
  6
CONTINUOUS
 62
     7
 10
-895.517280578627
 20
-22.03723724367
 30
0.0
 11
-895.517280578627
 21
57.2127488705428
 31
0.0
  0
LINE
  5
   254
  8
0
  6
CONTINUOUS
 62
     2
 10
-895.517257690443
 20
68.0627612304511
 30
0.0
 11
-942.617245950214
 21
68.0627612304511
 31
0.0
  0
LINE
  5
   255
  8
0
  6
CONTINUOUS
 62
     2
 10
-895.517311096211
 20
57.2127516814524
 30
0.0
 11
-895.517311096211
 21
68.0627577849681
 31
0.0
  0
LINE
  5
   256
  8
0
  6
CONTINUOUS
 62
     7
 10
-906.617263793958
 20
57.21276275633
 30
0.0
 11
-906.617263793958
 21
68.0627612304511
 31
0.0
  0
LINE
  5
   257
  8
0
  6
CONTINUOUS
 62
     7
 10
-887.367256164564
 20
31.9627780151191
 30
0.0
 11
-887.367256164564
 21
32.0877780151191
 31
0.0
  0
LINE
  5
   258
  8
0
  6
CONTINUOUS
 62
     7
 10
-890.117256164564
 20
33.0877780151191
 30
0.0
 11
-891.867256164564
 21
33.0877780151191
 31
0.0
  0
LINE
  5
   259
  8
0
  6
CONTINUOUS
 62
     7
 10
-890.117256164564
 20
-19.4122067260919
 30
0.0
 11
-891.867256164564
 21
-19.4122067260919
 31
0.0
  0
LINE
  5
   25A
  8
0
  6
CONTINUOUS
 62
     7
 10
-895.367256164564
 20
-27.5372067260919
 30
0.0
 11
-895.367256164564
 21
-22.03723724367
 31
0.0
  0
LINE
  5
   25B
  8
0
  6
CONTINUOUS
 62
     7
 10
-892.867256164564
 20
-27.5372067260919
 30
0.0
 11
-892.867256164564
 21
-19.4122067260919
 31
0.0
  0
LINE
  5
   25C
  8
0
  6
CONTINUOUS
 62
     7
 10
-892.867256164564
 20
33.0877780151191
 30
0.0
 11
-892.867256164564
 21
57.2127780151191
 31
0.0
  0
LINE
  5
   25D
  8
0
  6
CONTINUOUS
 62
     7
 10
-892.867256164564
 20
57.2127780151191
 30
0.0
 11
-895.367256164564
 21
57.2127780151191
 31
0.0
  0
LINE
  5
   25E
  8
0
  6
CONTINUOUS
 62
     7
 10
-892.867256164564
 20
-27.5372067260919
 30
0.0
 11
-895.367256164564
 21
-27.5372067260919
 31
0.0
  0
LINE
  5
   25F
  8
0
  6
CONTINUOUS
 62
     7
 10
-891.867256164564
 20
-19.4122067260919
 30
0.0
 11
-891.867256164564
 21
33.0877780151191
 31
0.0
  0
LINE
  5
   260
  8
0
  6
CONTINUOUS
 62
     7
 10
-891.867256164564
 20
-19.4122067260919
 30
0.0
 11
-892.867256164564
 21
-19.4122067260919
 31
0.0
  0
LINE
  5
   261
  8
0
  6
CONTINUOUS
 62
     7
 10
-891.867256164564
 20
33.0877780151191
 30
0.0
 11
-892.867256164564
 21
33.0877780151191
 31
0.0
  0
LINE
  5
   262
  8
0
  6
CONTINUOUS
 62
     7
 10
-895.517292158741
 20
-7.38724492146136
 30
0.0
 11
-895.367290639818
 21
-7.37412236447396
 31
0.0
  0
LINE
  5
   263
  8
0
  6
CONTINUOUS
 62
     7
 10
-895.367264853782
 20
-13.7003576370168
 30
0.0
 11
-895.5172663769
 21
-13.6872274506104
 31
0.0
  0
LINE
  5
   264
  8
0
  6
CONTINUOUS
 62
     7
 10
-906.617279052747
 20
-7.66222500913236
 30
0.0
 11
-906.617279052747
 21
-6.28724487306453
 31
0.0
  0
LINE
  5
   265
  8
0
  6
CONTINUOUS
 62
   218
 10
-895.51725816728
 20
-56.1372071075618
 30
0.0
 11
-942.617249012006
 21
-56.1372071075618
 31
0.0
  0
LINE
  5
   266
  8
0
  6
CONTINUOUS
 62
     2
 10
-941.617248535169
 20
-22.2872067260921
 30
0.0
 11
-943.617248535169
 21
-22.2872067260921
 31
0.0
  0
LINE
  5
   267
  8
0
  6
CONTINUOUS
 62
     7
 10
-895.517250061048
 20
-22.2872067260921
 30
0.0
 11
-904.117256164564
 21
-22.2872067260921
 31
0.0
  0
LINE
  5
   268
  8
0
  6
CONTINUOUS
 62
     7
 10
-941.617248535169
 20
-23.5372067260921
 30
0.0
 11
-941.617248535169
 21
-22.2872067260921
 31
0.0
  0
LINE
  5
   269
  8
0
  6
CONTINUOUS
 62
   218
 10
-895.517254161985
 20
-43.5372143559344
 30
0.0
 11
-895.367256164522
 21
-43.5372125953326
 31
0.0
  0
LINE
  5
   26A
  8
0
  6
CONTINUOUS
 62
   218
 10
-893.367256164564
 20
-45.5372143554866
 30
0.0
 11
-895.517250061048
 21
-45.5372143554866
 31
0.0
  0
LINE
  5
   26B
  8
0
  6
CONTINUOUS
 62
   218
 10
-895.517250061048
 20
-56.1372052002132
 30
0.0
 11
-895.517250061048
 21
-43.5372067260921
 31
0.0
  0
LINE
  5
   26C
  8
0
  6
CONTINUOUS
 62
   218
 10
-895.517250061048
 20
-43.5372067260921
 30
0.0
 11
-895.517250061048
 21
-22.2872067260921
 31
0.0
  0
LINE
  5
   26D
  8
0
  6
CONTINUOUS
 62
     7
 10
-895.367256164564
 20
-28.0372067260921
 30
0.0
 11
-895.517250061048
 21
-28.0372067260921
 31
0.0
  0
LINE
  5
   26E
  8
0
  6
CONTINUOUS
 62
   218
 10
-943.617248535211
 20
-40.5372143549919
 30
0.0
 11
-942.617249012071
 21
-40.5372067255974
 31
0.0
  0
LINE
  5
   26F
  8
0
  6
CONTINUOUS
 62
   218
 10
-942.617249012006
 20
-58.7872067260919
 30
0.0
 11
-942.617249012006
 21
-40.5372143554864
 31
0.0
  0
LINE
  5
   270
  8
0
  6
CONTINUOUS
 62
   218
 10
-942.617248535169
 20
-45.9122143554866
 30
0.0
 11
-943.617248535169
 21
-45.9122143554866
 31
0.0
  0
LINE
  5
   271
  8
0
  6
CONTINUOUS
 62
     7
 10
-906.617261885533
 20
-22.2872067238368
 30
0.0
 11
-906.617254256138
 21
-21.287206723814
 31
0.0
  0
LINE
  5
   272
  8
0
  6
CONTINUOUS
 62
     7
 10
-906.617248535169
 20
-21.2872067260921
 30
0.0
 11
-911.617248535169
 21
-21.2872067260921
 31
0.0
  0
LINE
  5
   273
  8
0
  6
CONTINUOUS
 62
     7
 10
-904.117256164564
 20
-22.2872067260921
 30
0.0
 11
-906.617256164564
 21
-22.2872067260921
 31
0.0
  0
LINE
  5
   274
  8
0
  6
CONTINUOUS
 62
   218
 10
-942.617248535169
 20
-50.2710099983394
 30
0.0
 11
-943.617248535169
 21
-50.2710099983394
 31
0.0
  0
LINE
  5
   275
  8
0
  6
CONTINUOUS
 62
   218
 10
-942.617248535169
 20
-49.044515686053
 30
0.0
 11
-943.617248535169
 21
-49.044515686053
 31
0.0
  0
LINE
  5
   276
  8
0
  6
CONTINUOUS
 62
     7
 10
-892.867256164564
 20
-27.7872067260919
 30
0.0
 11
-895.367256164564
 21
-27.7872067260919
 31
0.0
  0
LINE
  5
   277
  8
0
  6
CONTINUOUS
 62
     7
 10
-892.867256164564
 20
-45.2872067260919
 30
0.0
 11
-895.367256164564
 21
-45.2872067260919
 31
0.0
  0
LINE
  5
   278
  8
0
  6
CONTINUOUS
 62
     7
 10
-892.867256164564
 20
-45.2872067260919
 30
0.0
 11
-892.867256164564
 21
-27.7872067260919
 31
0.0
  0
LINE
  5
   279
  8
0
  6
CONTINUOUS
 62
     7
 10
-893.867256164564
 20
-45.2872067260919
 30
0.0
 11
-893.867256164564
 21
-27.7872067260919
 31
0.0
  0
LINE
  5
   27A
  8
0
  6
CONTINUOUS
 62
     7
 10
-895.367256164564
 20
-45.2872067260919
 30
0.0
 11
-895.367256164564
 21
-27.7872067260919
 31
0.0
  0
ARC
  5
   27B
  8
0
  6
CONTINUOUS
 62
     7
 10
-877.029729779307
 20
-4.18414745862334
 30
0.0
 40
0.499999897877905
 50
348.623573369035
 51
436.688788706936
  0
ARC
  5
   27C
  8
0
  6
CONTINUOUS
 62
     7
 10
-877.628101979226
 20
-7.1580564426222
 30
0.0
 40
0.50000037262337
 50
260.593992196011
 51
348.623573369035
  0
LINE
  5
   27D
  8
0
  6
DASHDOT
 62
     7
 10
-869.629437453533
 20
-7.23847809652057
 30
0.0
 11
-894.687780687988
 21
-2.1965579286223
 31
0.0
  0
LINE
  5
   27E
  8
0
  6
CONTINUOUS
 62
     7
 10
-876.914609806961
 20
-3.69758098892461
 30
0.0
 11
-887.367256164564
 21
-1.22452040095277
 31
0.0
  0
LINE
  5
   27F
  8
0
  6
CONTINUOUS
 62
     7
 10
-877.137925534345
 20
-7.256683493906
 30
0.0
 11
-876.53955349872
 21
-4.28277447685017
 31
0.0
  0
LINE
  5
   280
  8
0
  6
CONTINUOUS
 62
     7
 10
-877.709816717819
 20
-7.65133416549359
 30
0.0
 11
-887.367256164564
 21
-6.05151503059231
 31
0.0
  0
LINE
  5
   281
  8
0
  6
CONTINUOUS
 62
     7
 10
-941.117280578627
 20
-13.2872314453125
 30
0.0
 11
-941.117280578627
 21
-7.7872314453125
 31
0.0
  0
LINE
  5
   282
  8
0
  6
CONTINUOUS
 62
     2
 10
-942.617251654626
 20
60.1185607910156
 30
0.0
 11
-942.617244047356
 21
70.712760925293
 31
0.0
  0
ARC
  5
   283
  8
0
  6
CONTINUOUS
 62
     7
 10
-914.117256164564
 20
1.71279327390813
 30
0.0
 40
38.0220413050115
 50
333.082565820193
 51
379.93594827737
  0
LINE
  5
   284
  8
0
  6
CONTINUOUS
 62
     7
 10
-876.095214859552
 20
1.71279327390811
 30
0.0
 11
-876.095214859552
 21
23.3874327893404
 31
0.0
  0
LINE
  5
   285
  8
0
  6
CONTINUOUS
 62
     7
 10
-911.617263793958
 20
-23.5372161865228
 30
0.0
 11
-941.617248535169
 21
-23.5372161865228
 31
0.0
  0
LINE
  5
   286
  8
0
  6
CONTINUOUS
 62
     7
 10
-887.367256164564
 20
-9.4122314453125
 30
0.0
 11
-887.367256164564
 21
-3.41222580422351
 31
0.0
  0
LINE
  5
   287
  8
0
  6
CONTINUOUS
 62
     7
 10
-943.617248535169
 20
-50.2710099983394
 30
0.0
 11
-943.617248535169
 21
-45.9122143554866
 31
0.0
  0
LINE
  5
   288
  8
0
  6
CONTINUOUS
 62
     7
 10
-943.617248535229
 20
-40.5372143549919
 30
0.0
 11
-943.617248535229
 21
-22.2872067260921
 31
0.0
  0
LINE
  5
   289
  8
0
  6
CONTINUOUS
 62
     7
 10
-943.617248535169
 20
-6.28723144531251
 30
0.0
 11
-943.617248535169
 21
-3.53723144531251
 31
0.0
  0
LINE
  5
   28A
  8
0
  6
CONTINUOUS
 62
     7
 10
-943.617248535169
 20
55.9627380371094
 30
0.0
 11
-943.617248535169
 21
61.4627380371094
 31
0.0
  0
LINE
  5
   28B
  8
0
  6
CONTINUOUS
 62
     3
 10
-967.367248535156
 20
49.5566177368164
 30
0.0
 11
-968.117248535156
 21
49.5566177368164
 31
0.0
  0
LINE
  5
   28C
  8
0
  6
CONTINUOUS
 62
     3
 10
-967.367248535156
 20
-37.4433822631836
 30
0.0
 11
-968.117248535156
 21
-37.4433822631836
 31
0.0
  0
LINE
  5
   28D
  8
0
  6
CONTINUOUS
 62
     3
 10
-967.367248535156
 20
-37.4433822631836
 30
0.0
 11
-967.367248535156
 21
49.5566177368164
 31
0.0
  0
LINE
  5
   28E
  8
0
  6
CONTINUOUS
 62
     3
 10
-968.117248535156
 20
-37.4433822631836
 30
0.0
 11
-968.117248535156
 21
49.5566177368164
 31
0.0
  0
LINE
  5
   28F
  8
0
  6
CONTINUOUS
 62
     2
 10
-943.617248535156
 20
69.462760925293
 30
0.0
 11
-962.117240905762
 21
69.462760925293
 31
0.0
  0
LINE
  5
   290
  8
0
  6
CONTINUOUS
 62
     2
 10
-943.617248535156
 20
-57.5372467041016
 30
0.0
 11
-962.117240905762
 21
-57.5372467041016
 31
0.0
  0
LINE
  5
   291
  8
0
  6
CONTINUOUS
 62
     2
 10
-943.617248535156
 20
68.0627593994141
 30
0.0
 11
-943.617248535156
 21
69.462760925293
 31
0.0
  0
LINE
  5
   292
  8
0
  6
CONTINUOUS
 62
     2
 10
-943.617248535156
 20
-48.5371856689453
 30
0.0
 11
-943.617248535156
 21
60.4627685546875
 31
0.0
  0
LINE
  5
   293
  8
0
  6
CONTINUOUS
 62
     2
 10
-943.617248535156
 20
-57.5372467041016
 30
0.0
 11
-943.617248535156
 21
-56.1371688842774
 31
0.0
  0
LINE
  5
   294
  8
0
  6
CONTINUOUS
 62
     2
 10
-965.367240905762
 20
-12.0372543334961
 30
0.0
 11
-965.367240905762
 21
-10.537239074707
 31
0.0
  0
LINE
  5
   295
  8
0
  6
CONTINUOUS
 62
     2
 10
-962.117240905762
 20
-57.5372467041016
 30
0.0
 11
-962.117240905762
 21
-56.5372314453125
 31
0.0
  0
LINE
  5
   296
  8
0
  6
CONTINUOUS
 62
     7
 10
-962.117240905762
 20
-48.5372467041016
 30
0.0
 11
-962.117240905762
 21
-40.5372319221497
 31
0.0
  0
LINE
  5
   297
  8
0
  6
CONTINUOUS
 62
     2
 10
-962.117240905762
 20
23.962760925293
 30
0.0
 11
-965.367240905762
 21
23.962760925293
 31
0.0
  0
LINE
  5
   298
  8
0
  6
CONTINUOUS
 62
     2
 10
-962.117240905762
 20
23.962760925293
 30
0.0
 11
-962.117240905762
 21
35.962760925293
 31
0.0
  0
LINE
  5
   299
  8
0
  6
CONTINUOUS
 62
     7
 10
-962.117240905762
 20
68.0627517700195
 30
0.0
 11
-962.117240905762
 21
68.462760925293
 31
0.0
  0
LINE
  5
   29A
  8
0
  6
CONTINUOUS
 62
     2
 10
-968.367240905762
 20
35.962760925293
 30
0.0
 11
-968.367240905762
 21
43.462760925293
 31
0.0
  0
LINE
  5
   29B
  8
0
  6
CONTINUOUS
 62
     2
 10
-968.367240905762
 20
-31.537239074707
 30
0.0
 11
-968.367240905762
 21
-24.037239074707
 31
0.0
  0
LINE
  5
   29C
  8
0
  6
CONTINUOUS
 62
     7
 10
-967.617240905762
 20
52.462760925293
 30
0.0
 11
-967.617240905762
 21
68.462760925293
 31
0.0
  0
LINE
  5
   29D
  8
0
  6
CONTINUOUS
 62
     7
 10
-967.617240905762
 20
-56.5372314453125
 30
0.0
 11
-967.617240905762
 21
-40.537239074707
 31
0.0
  0
LINE
  5
   29E
  8
0
  6
CONTINUOUS
 62
     2
 10
-965.367240905762
 20
-10.537239074707
 30
0.0
 11
-967.367240905762
 21
-10.537239074707
 31
0.0
  0
LINE
  5
   29F
  8
0
  6
CONTINUOUS
 62
     2
 10
-965.367240905762
 20
-7.03723907470703
 30
0.0
 11
-967.367240905762
 21
-7.03723907470703
 31
0.0
  0
LINE
  5
   2A0
  8
0
  6
CONTINUOUS
 62
     2
 10
-962.117240905762
 20
-15.5372543334961
 30
0.0
 11
-965.367240905762
 21
-15.5372543334961
 31
0.0
  0
LINE
  5
   2A1
  8
0
  6
CONTINUOUS
 62
     2
 10
-965.367240905762
 20
-15.5372543334961
 30
0.0
 11
-965.367240905762
 21
-12.0372543334961
 31
0.0
  0
LINE
  5
   2A2
  8
0
  6
CONTINUOUS
 62
     7
 10
-944.117233236972
 20
-7.78724652458936
 30
0.0
 11
-965.367240866367
 21
-7.78723889519495
 31
0.0
  0
LINE
  5
   2A3
  8
0
  6
CONTINUOUS
 62
     7
 10
-944.117236280726
 20
-7.7872594307595
 30
0.0
 11
-943.617251597058
 21
-7.28725181938226
 31
0.0
  0
LINE
  5
   2A4
  8
0
  6
CONTINUOUS
 62
     7
 10
-944.117233276367
 20
-13.2872314453125
 30
0.0
 11
-965.367240905762
 21
-13.2872314453125
 31
0.0
  0
LINE
  5
   2A5
  8
0
  6
CONTINUOUS
 62
     7
 10
-943.617247888061
 20
-13.7872436049762
 30
0.0
 11
-944.117232571729
 21
-13.287235993599
 31
0.0
  0
LINE
  5
   2A6
  8
0
  6
CONTINUOUS
 62
     7
 10
-943.617248535154
 20
68.0627670288086
 30
0.0
 11
-962.11724090576
 21
68.0627670288086
 31
0.0
  0
LINE
  5
   2A7
  8
0
  6
CONTINUOUS
 62
     2
 10
-943.617248535169
 20
60.462760925293
 30
0.0
 11
-943.617248535169
 21
68.0627670288086
 31
0.0
  0
LINE
  5
   2A8
  8
0
  6
CONTINUOUS
 62
     7
 10
-962.117240905762
 20
60.462760925293
 30
0.0
 11
-962.117240905762
 21
68.0627670288086
 31
0.0
  0
LINE
  5
   2A9
  8
0
  6
CONTINUOUS
 62
     7
 10
-943.617248535153
 20
-56.1372313499451
 30
0.0
 11
-962.117240905759
 21
-56.1372313499451
 31
0.0
  0
LINE
  5
   2AA
  8
0
  6
CONTINUOUS
 62
     2
 10
-943.617248535155
 20
-56.1372313499451
 30
0.0
 11
-943.617248535155
 21
-48.5372428894043
 31
0.0
  0
LINE
  5
   2AB
  8
0
  6
CONTINUOUS
 62
     7
 10
-962.117240905762
 20
-56.1372313499451
 30
0.0
 11
-962.117240905762
 21
-48.5372428894043
 31
0.0
  0
LINE
  5
   2AC
  8
0
  6
CONTINUOUS
 62
     1
 10
-964.117240905762
 20
68.462760925293
 30
0.0
 11
-964.117240905762
 21
69.212760925293
 31
0.0
  0
LINE
  5
   2AD
  8
0
  6
CONTINUOUS
 62
     1
 10
-964.117240905762
 20
51.712760925293
 30
0.0
 11
-964.117240905762
 21
52.462776184082
 31
0.0
  0
LINE
  5
   2AE
  8
0
  6
CONTINUOUS
 62
     1
 10
-968.117240905762
 20
52.212760925293
 30
0.0
 11
-968.117240905762
 21
68.712760925293
 31
0.0
  0
LINE
  5
   2AF
  8
0
  6
CONTINUOUS
 62
     2
 10
-962.117240905762
 20
43.462760925293
 30
0.0
 11
-967.367240905762
 21
43.462760925293
 31
0.0
  0
LINE
  5
   2B0
  8
0
  6
CONTINUOUS
 62
     2
 10
-968.117240905762
 20
43.462760925293
 30
0.0
 11
-968.367240905762
 21
43.462760925293
 31
0.0
  0
LINE
  5
   2B1
  8
0
  6
CONTINUOUS
 62
     2
 10
-962.117240905762
 20
35.962760925293
 30
0.0
 11
-967.367240905762
 21
35.962760925293
 31
0.0
  0
LINE
  5
   2B2
  8
0
  6
CONTINUOUS
 62
     2
 10
-968.117240905762
 20
35.962760925293
 30
0.0
 11
-968.367240905762
 21
35.962760925293
 31
0.0
  0
LINE
  5
   2B3
  8
0
  6
CONTINUOUS
 62
     2
 10
-962.117240905762
 20
-24.037239074707
 30
0.0
 11
-967.367240905762
 21
-24.037239074707
 31
0.0
  0
LINE
  5
   2B4
  8
0
  6
CONTINUOUS
 62
     2
 10
-968.117240905762
 20
-24.037239074707
 30
0.0
 11
-968.367240905762
 21
-24.037239074707
 31
0.0
  0
LINE
  5
   2B5
  8
0
  6
CONTINUOUS
 62
     2
 10
-962.117240905762
 20
-31.537239074707
 30
0.0
 11
-967.367240905762
 21
-31.537239074707
 31
0.0
  0
LINE
  5
   2B6
  8
0
  6
CONTINUOUS
 62
     2
 10
-968.117240905762
 20
-31.537239074707
 30
0.0
 11
-968.367240905762
 21
-31.537239074707
 31
0.0
  0
LINE
  5
   2B7
  8
0
  6
CONTINUOUS
 62
     2
 10
-962.117240905762
 20
68.462760925293
 30
0.0
 11
-964.117240905762
 21
68.462760925293
 31
0.0
  0
LINE
  5
   2B8
  8
0
  6
CONTINUOUS
 62
     2
 10
-962.117240905762
 20
52.462760925293
 30
0.0
 11
-964.117240905762
 21
52.462760925293
 31
0.0
  0
LINE
  5
   2B9
  8
0
  6
CONTINUOUS
 62
     2
 10
-962.117240905762
 20
-56.5372314453125
 30
0.0
 11
-964.117240905762
 21
-56.5372314453125
 31
0.0
  0
LINE
  5
   2BA
  8
0
  6
CONTINUOUS
 62
     2
 10
-962.117240905762
 20
-40.5372319221497
 30
0.0
 11
-964.117240905762
 21
-40.5372319221497
 31
0.0
  0
LINE
  5
   2BB
  8
0
  6
CONTINUOUS
 62
     1
 10
-964.117240905762
 20
51.712760925293
 30
0.0
 11
-967.617248535156
 21
51.712760925293
 31
0.0
  0
LINE
  5
   2BC
  8
0
  6
CONTINUOUS
 62
     1
 10
-964.117240905762
 20
69.212760925293
 30
0.0
 11
-967.617248535156
 21
69.212760925293
 31
0.0
  0
LINE
  5
   2BD
  8
0
  6
CONTINUOUS
 62
     1
 10
-967.617239640451
 20
51.7127491389139
 30
0.0
 11
-967.867239627759
 21
51.7797428384303
 31
0.0
  0
LINE
  5
   2BE
  8
0
  6
CONTINUOUS
 62
     1
 10
-967.867252155309
 20
51.7797501816666
 30
0.0
 11
-968.050258429558
 21
51.9627640920814
 31
0.0
  0
LINE
  5
   2BF
  8
0
  6
CONTINUOUS
 62
     1
 10
-968.050255347613
 20
51.9627678056883
 30
0.0
 11
-968.117241426221
 21
52.212760173215
 31
0.0
  0
LINE
  5
   2C0
  8
0
  6
CONTINUOUS
 62
     1
 10
-967.867243726241
 20
69.1457700611404
 30
0.0
 11
-967.617243739288
 21
69.2127561320587
 31
0.0
  0
LINE
  5
   2C1
  8
0
  6
CONTINUOUS
 62
     1
 10
-968.050256207437
 20
68.9627611823288
 30
0.0
 11
-967.867249933188
 21
69.1457750927436
 31
0.0
  0
LINE
  5
   2C2
  8
0
  6
CONTINUOUS
 62
     1
 10
-968.11723504671
 20
68.7127481706361
 30
0.0
 11
-968.050248975791
 21
68.962748157589
 31
0.0
  0
LINE
  5
   2C3
  8
0
  6
CONTINUOUS
 62
     7
 10
-964.117240905762
 20
-57.287239074707
 30
0.0
 11
-967.617248535156
 21
-57.287239074707
 31
0.0
  0
LINE
  5
   2C4
  8
0
  6
CONTINUOUS
 62
     7
 10
-968.117240905762
 20
-56.787239074707
 30
0.0
 11
-968.117240905762
 21
-40.287239074707
 31
0.0
  0
LINE
  5
   2C5
  8
0
  6
CONTINUOUS
 62
     7
 10
-964.117240905762
 20
-39.787239074707
 30
0.0
 11
-967.617248535156
 21
-39.787239074707
 31
0.0
  0
LINE
  5
   2C6
  8
0
  6
CONTINUOUS
 62
     7
 10
-964.117240905762
 20
-40.5372543334961
 30
0.0
 11
-964.117240905762
 21
-39.787239074707
 31
0.0
  0
LINE
  5
   2C7
  8
0
  6
CONTINUOUS
 62
     7
 10
-964.117240905762
 20
-57.287239074707
 30
0.0
 11
-964.117240905762
 21
-56.537239074707
 31
0.0
  0
LINE
  5
   2C8
  8
0
  6
CONTINUOUS
 62
     7
 10
-964.117240905762
 20
-56.5372314453125
 30
0.0
 11
-967.617240905762
 21
-56.5372314453125
 31
0.0
  0
LINE
  5
   2C9
  8
0
  6
CONTINUOUS
 62
     7
 10
-962.117240905762
 20
-56.5372314453125
 30
0.0
 11
-962.117240905762
 21
-56.1372308731079
 31
0.0
  0
LINE
  5
   2CA
  8
0
  6
CONTINUOUS
 62
     2
 10
-962.117240905762
 20
-40.5372319221497
 30
0.0
 11
-962.117240905762
 21
-31.537239074707
 31
0.0
  0
LINE
  5
   2CB
  8
0
  6
CONTINUOUS
 62
     7
 10
-962.117240905762
 20
-31.537239074707
 30
0.0
 11
-962.117240905762
 21
-24.037239074707
 31
0.0
  0
LINE
  5
   2CC
  8
0
  6
CONTINUOUS
 62
     2
 10
-962.117240905762
 20
-24.037239074707
 30
0.0
 11
-962.117240905762
 21
-15.5372543334961
 31
0.0
  0
LINE
  5
   2CD
  8
0
  6
CONTINUOUS
 62
     7
 10
-962.117240905762
 20
-15.5372543334961
 30
0.0
 11
-962.117240905762
 21
-13.7872314453125
 31
0.0
  0
LINE
  5
   2CE
  8
0
  6
CONTINUOUS
 62
     7
 10
-965.367240905762
 20
-10.537239074707
 30
0.0
 11
-965.367240905762
 21
-7.03723907470703
 31
0.0
  0
LINE
  5
   2CF
  8
0
  6
CONTINUOUS
 62
     2
 10
-965.367240905762
 20
-7.03723907470703
 30
0.0
 11
-965.367240905762
 21
23.962760925293
 31
0.0
  0
LINE
  5
   2D0
  8
0
  6
CONTINUOUS
 62
     7
 10
-962.117240905762
 20
35.962760925293
 30
0.0
 11
-962.117240905762
 21
43.462760925293
 31
0.0
  0
LINE
  5
   2D1
  8
0
  6
CONTINUOUS
 62
     2
 10
-962.117240905762
 20
43.462760925293
 30
0.0
 11
-962.117240905762
 21
52.462760925293
 31
0.0
  0
LINE
  5
   2D2
  8
0
  6
CONTINUOUS
 62
     7
 10
-962.117240905762
 20
52.462760925293
 30
0.0
 11
-962.117240905762
 21
60.462776184082
 31
0.0
  0
LINE
  5
   2D3
  8
0
  6
CONTINUOUS
 62
     2
 10
-962.117240905762
 20
68.462760925293
 30
0.0
 11
-962.117240905762
 21
69.462760925293
 31
0.0
  0
LINE
  5
   2D4
  8
0
  6
CONTINUOUS
 62
     7
 10
-964.117240905762
 20
68.462760925293
 30
0.0
 11
-967.617240905762
 21
68.462760925293
 31
0.0
  0
LINE
  5
   2D5
  8
0
  6
CONTINUOUS
 62
     7
 10
-964.117240905762
 20
52.462760925293
 30
0.0
 11
-967.617240905762
 21
52.462760925293
 31
0.0
  0
LINE
  5
   2D6
  8
0
  6
CONTINUOUS
 62
     7
 10
-964.117240905762
 20
-40.5372319221497
 30
0.0
 11
-967.617240905762
 21
-40.5372319221497
 31
0.0
  0
ARC
  5
   2D7
  8
0
  6
CONTINUOUS
 62
     7
 10
-967.617220775511
 20
-40.2872555528507
 30
0.0
 40
0.500028264878696
 50
90.0021615887083
 51
179.999999948034
  0
ARC
  5
   2D8
  8
0
  6
CONTINUOUS
 62
     7
 10
-967.617245358551
 20
-56.7872324406129
 30
0.0
 40
0.500001840862546
 50
179.999999948034
 51
270.00018550119
  0
LINE
  5
   2D9
  8
0
  6
DASHDOT
 62
     7
 10
-956.912281295535
 20
39.712760925293
 30
0.0
 11
-978.218097823431
 21
39.712760925293
 31
0.0
  0
LINE
  5
   2DA
  8
0
  6
DASHDOT
 62
     7
 10
-956.633893008394
 20
-27.787239074707
 30
0.0
 11
-978.098038290937
 21
-27.787239074707
 31
0.0
  0
LINE
  5
   2DB
  8
0
  6
DASHDOT
 62
     7
 10
-968.367240905762
 20
43.462760925293
 30
0.0
 11
-968.367240905762
 21
85.1295465730516
 31
0.0
  0
LINE
  5
   2DC
  8
0
  6
CONTINUOUS
 62
     7
 10
-968.367240905762
 20
-24.037239074707
 30
0.0
 11
-968.367240905762
 21
35.962760925293
 31
0.0
  0
LINE
  5
   2DD
  8
0
  6
DASHDOT
 62
     7
 10
-968.367240905762
 20
-71.5334620154077
 30
0.0
 11
-968.367240905762
 21
-31.537239074707
 31
0.0
  0
LINE
  5
   2DE
  8
0
  6
DASHDOT
 62
     7
 10
-969.867240905762
 20
-71.5334620154077
 30
0.0
 11
-969.867240905762
 21
85.0599495012664
 31
0.0
  0
LINE
  5
   2DF
  8
0
  6
CONTINUOUS
 62
     7
 10
-972.641219518987
 20
-71.8118503025484
 30
0.0
 11
-965.472721125113
 21
-71.4638649436225
 31
0.0
  0
LINE
  5
   2E0
  8
0
  6
CONTINUOUS
 62
     7
 10
-963.732794330483
 20
84.5031729269849
 30
0.0
 11
-972.780413662558
 21
84.9903524294812
 31
0.0
  0
CIRCLE
  5
   2E1
  8
0
  6
CONTINUOUS
 62
     7
 10
-912.849025333444
 20
60.7589040081556
 30
0.0
 40
0.125
  0
CIRCLE
  5
   2E2
  8
0
  6
CONTINUOUS
 62
     7
 10
-958.707321271116
 20
52.9910209783401
 30
0.0
 40
0.125
  0
LINE
  5
   2E3
  8
0
  6
CONTINUOUS
 62
     1
 10
-890.117256164564
 20
-20.6654644012451
 30
0.0
 11
-890.117256164564
 21
-19.6654644012451
 31
0.0
  0
LINE
  5
   2E4
  8
0
  6
CONTINUOUS
 62
     1
 10
-889.117256164564
 20
-20.6654644012451
 30
0.0
 11
-890.117256164564
 21
-20.6654644012451
 31
0.0
  0
LINE
  5
   2E5
  8
0
  6
CONTINUOUS
 62
     1
 10
-890.117256164564
 20
33.3345336914063
 30
0.0
 11
-890.117256164564
 21
34.3345336914063
 31
0.0
  0
LINE
  5
   2E6
  8
0
  6
CONTINUOUS
 62
     1
 10
-889.117256164564
 20
34.3345336914063
 30
0.0
 11
-890.117256164564
 21
34.3345336914063
 31
0.0
  0
LINE
  5
   2E7
  8
0
  6
CONTINUOUS
 62
     1
 10
-890.117256164564
 20
-19.6654644012451
 30
0.0
 11
-890.117256164564
 21
33.3345355987549
 31
0.0
  0
LINE
  5
   2E8
  8
0
  6
CONTINUOUS
 62
     1
 10
-892.367256075157
 20
41.1232070922852
 30
0.0
 11
-892.367256075157
 21
43.5458602905273
 31
0.0
  0
LINE
  5
   2E9
  8
0
  6
CONTINUOUS
 62
     1
 10
-892.367256075157
 20
-29.8767890930176
 30
0.0
 11
-892.367256075157
 21
-27.4541397094727
 31
0.0
  0
LINE
  5
   2EA
  8
0
  6
CONTINUOUS
 62
     1
 10
-889.117256164564
 20
-33.9154644012451
 30
0.0
 11
-889.117256164564
 21
47.5845355987549
 31
0.0
  0
LINE
  5
   2EB
  8
0
  6
CONTINUOUS
 62
     1
 10
-887.367256164564
 20
-33.9154644012451
 30
0.0
 11
-889.117256164564
 21
-33.9154644012451
 31
0.0
  0
LINE
  5
   2EC
  8
0
  6
CONTINUOUS
 62
     1
 10
-887.367256164564
 20
-33.9154663085938
 30
0.0
 11
-887.367256164564
 21
47.5845336914063
 31
0.0
  0
LINE
  5
   2ED
  8
0
  6
CONTINUOUS
 62
     1
 10
-887.367256164564
 20
47.5845336914063
 30
0.0
 11
-887.867256164563
 21
47.5845336914063
 31
0.0
  0
LINE
  5
   2EE
  8
0
  6
CONTINUOUS
 62
     1
 10
-888.367256164564
 20
47.5845336914063
 30
0.0
 11
-889.117256164564
 21
47.5845336914063
 31
0.0
  0
LINE
  5
   2EF
  8
0
  6
CONTINUOUS
 62
     1
 10
-889.117256164564
 20
40.8345336914063
 30
0.0
 11
-891.867257673471
 21
40.8345336914063
 31
0.0
  0
LINE
  5
   2F0
  8
0
  6
CONTINUOUS
 62
     1
 10
-889.117256164564
 20
43.8345336914063
 30
0.0
 11
-891.867254436893
 21
43.8345336914063
 31
0.0
  0
LINE
  5
   2F1
  8
0
  6
CONTINUOUS
 62
     1
 10
-891.867256082007
 20
40.8345336914063
 30
0.0
 11
-891.867256082007
 21
40.9487152099609
 31
0.0
  0
LINE
  5
   2F2
  8
0
  6
CONTINUOUS
 62
     1
 10
-891.867255684145
 20
40.8345325428755
 30
0.0
 11
-892.367255700609
 21
41.1232059473737
 31
0.0
  0
LINE
  5
   2F3
  8
0
  6
CONTINUOUS
 62
     1
 10
-891.867256082007
 20
40.9487152099609
 30
0.0
 11
-891.867256082007
 21
41.2738723754883
 31
0.0
  0
LINE
  5
   2F4
  8
0
  6
CONTINUOUS
 62
     1
 10
-891.867256082007
 20
41.2738723754883
 30
0.0
 11
-891.867256082007
 21
41.7605133056641
 31
0.0
  0
LINE
  5
   2F5
  8
0
  6
CONTINUOUS
 62
     1
 10
-891.867256082007
 20
41.7605133056641
 30
0.0
 11
-891.867256082007
 21
42.3345336914063
 31
0.0
  0
LINE
  5
   2F6
  8
0
  6
CONTINUOUS
 62
     1
 10
-891.867256082007
 20
42.3345336914063
 30
0.0
 11
-891.867256082007
 21
42.908561706543
 31
0.0
  0
LINE
  5
   2F7
  8
0
  6
CONTINUOUS
 62
     1
 10
-891.867256082007
 20
42.908561706543
 30
0.0
 11
-891.867256082007
 21
43.3951950073242
 31
0.0
  0
LINE
  5
   2F8
  8
0
  6
CONTINUOUS
 62
     1
 10
-891.867256082007
 20
43.3951950073242
 30
0.0
 11
-891.867256082007
 21
43.7203521728516
 31
0.0
  0
LINE
  5
   2F9
  8
0
  6
CONTINUOUS
 62
     1
 10
-891.867256082007
 20
43.7203521728516
 30
0.0
 11
-891.867256082007
 21
43.8345336914063
 31
0.0
  0
LINE
  5
   2FA
  8
0
  6
CONTINUOUS
 62
     1
 10
-892.367256509746
 20
43.5458590996583
 30
0.0
 11
-891.867256493282
 21
43.8345325041565
 31
0.0
  0
LINE
  5
   2FB
  8
0
  6
CONTINUOUS
 62
     1
 10
-889.117256164564
 20
-27.1654644012451
 30
0.0
 11
-891.867255079451
 21
-27.1654644012451
 31
0.0
  0
LINE
  5
   2FC
  8
0
  6
CONTINUOUS
 62
     1
 10
-889.117256164564
 20
-30.1654644012451
 30
0.0
 11
-891.867256921232
 21
-30.1654644012451
 31
0.0
  0
LINE
  5
   2FD
  8
0
  6
CONTINUOUS
 62
     1
 10
-892.367256336231
 20
-27.4541404095985
 30
0.0
 11
-891.867256319767
 21
-27.165465117342
 31
0.0
  0
LINE
  5
   2FE
  8
0
  6
CONTINUOUS
 62
     1
 10
-891.867256065349
 20
-27.2796459197998
 30
0.0
 11
-891.867256065349
 21
-27.1654644012451
 31
0.0
  0
LINE
  5
   2FF
  8
0
  6
CONTINUOUS
 62
     1
 10
-891.867256065362
 20
-27.6048049926758
 30
0.0
 11
-891.867256065362
 21
-27.2796459197998
 31
0.0
  0
LINE
  5
   300
  8
0
  6
CONTINUOUS
 62
     1
 10
-891.867256065347
 20
-28.091438293457
 30
0.0
 11
-891.867256065347
 21
-27.6048049926758
 31
0.0
  0
LINE
  5
   301
  8
0
  6
CONTINUOUS
 62
     1
 10
-891.867256065382
 20
-28.6654644012451
 30
0.0
 11
-891.867256065382
 21
-28.091438293457
 31
0.0
  0
LINE
  5
   302
  8
0
  6
CONTINUOUS
 62
     1
 10
-891.86725606532
 20
-29.2394886016846
 30
0.0
 11
-891.86725606532
 21
-28.6654644012451
 31
0.0
  0
LINE
  5
   303
  8
0
  6
CONTINUOUS
 62
     1
 10
-891.867256065348
 20
-29.7261238098145
 30
0.0
 11
-891.867256065348
 21
-29.2394886016846
 31
0.0
  0
LINE
  5
   304
  8
0
  6
CONTINUOUS
 62
     1
 10
-891.86725606536
 20
-30.0512828826904
 30
0.0
 11
-891.86725606536
 21
-29.7261238098145
 31
0.0
  0
LINE
  5
   305
  8
0
  6
CONTINUOUS
 62
     1
 10
-891.867255858187
 20
-30.1654650149946
 30
0.0
 11
-892.367255874651
 21
-29.8767897227381
 31
0.0
  0
LINE
  5
   306
  8
0
  6
CONTINUOUS
 62
     1
 10
-891.867256065349
 20
-30.1654644012451
 30
0.0
 11
-891.867256065349
 21
-30.0512828826904
 31
0.0
  0
LINE
  5
   307
  8
0
  6
CONTINUOUS
 62
     1
 10
-887.867256164563
 20
47.5845336914063
 30
0.0
 11
-888.367256164564
 21
47.5845336914063
 31
0.0
  0
LINE
  5
   308
  8
0
  6
CONTINUOUS
 62
     7
 10
-889.117256164564
 20
47.5845336914063
 30
0.0
 11
-889.117256164564
 21
78.9488388182957
 31
0.0
  0
LINE
  5
   309
  8
0
  6
CONTINUOUS
 62
     7
 10
-890.117256164564
 20
34.3345336914063
 30
0.0
 11
-890.117256164564
 21
40.8345336914063
 31
0.0
  0
LINE
  5
   30A
  8
0
  6
CONTINUOUS
 62
     7
 10
-889.117256164564
 20
-83.2219182757063
 30
0.0
 11
-889.117256164564
 21
-33.9154644012451
 31
0.0
  0
LINE
  5
   30B
  8
0
  6
CONTINUOUS
 62
     7
 10
-890.117256164564
 20
-83.8473363359069
 30
0.0
 11
-890.117256164564
 21
-30.1654644012451
 31
0.0
  0
LINE
  5
   30C
  8
0
  6
CONTINUOUS
 62
     7
 10
-893.455146479181
 20
-85.9349132216377
 30
0.0
 11
-885.765377294663
 21
-81.1255926948657
 31
0.0
  0
LINE
  5
   30D
  8
0
  6
CONTINUOUS
 62
     7
 10
-885.353884629271
 20
77.2733651895696
 30
0.0
 11
-892.86362577268
 21
80.6167430958818
 31
0.0
  0
LINE
  5
   30E
  8
0
  6
CONTINUOUS
 62
     7
 10
-889.117256164564
 20
-26.9154644012451
 30
0.0
 11
-890.117256164564
 21
-26.9154644012451
 31
0.0
  0
LINE
  5
   30F
  8
0
  6
CONTINUOUS
 62
     7
 10
-889.117256164564
 20
-30.4154644012451
 30
0.0
 11
-890.117256164564
 21
-30.4154644012451
 31
0.0
  0
LINE
  5
   310
  8
0
  6
CONTINUOUS
 62
     7
 10
-889.117256164564
 20
-21.1654644012451
 30
0.0
 11
-890.117256164564
 21
-21.1654644012451
 31
0.0
  0
LINE
  5
   311
  8
0
  6
CONTINUOUS
 62
     7
 10
-889.117256164564
 20
34.8345336914063
 30
0.0
 11
-890.117256164564
 21
34.8345336914063
 31
0.0
  0
LINE
  5
   312
  8
0
  6
CONTINUOUS
 62
     7
 10
-889.117256164564
 20
44.0845336914063
 30
0.0
 11
-890.117256164564
 21
44.0845336914063
 31
0.0
  0
LINE
  5
   313
  8
0
  6
CONTINUOUS
 62
     7
 10
-889.117256164564
 20
40.5845336914062
 30
0.0
 11
-890.117256164564
 21
40.5845336914062
 31
0.0
  0
LINE
  5
   314
  8
0
  6
CONTINUOUS
 62
     7
 10
-890.117256164564
 20
43.8345336914063
 30
0.0
 11
-890.117256164564
 21
79.3940442977478
 31
0.0
  0
LINE
  5
   315
  8
0
  6
CONTINUOUS
 62
     7
 10
-890.117256164564
 20
-27.1654644012451
 30
0.0
 11
-890.117256164564
 21
-20.6654644012451
 31
0.0
  0
INSERT
  5
   316
  8
0
  6
CONTINUOUS
 62
     7
  2
*HATCH1304
 10
-943.617248535156
 20
-48.1557769775391
 30
0.0
 41
0.5
 42
0.5
 50
89.9999999480344
 43
0.5
  0
INSERT
  5
   317
  8
0
  6
CONTINUOUS
 62
     7
  2
*HATCH1305
 10
-943.617248535156
 20
-48.1557769775391
 30
0.0
 41
0.5
 42
0.5
 50
89.9999999480344
 43
0.5
  0
INSERT
  5
   318
  8
0
  6
CONTINUOUS
 62
     7
  2
*HATCH1306
 10
-943.617248535156
 20
-48.1557769775391
 30
0.0
 41
0.5
 42
0.5
 50
89.9999999480344
 43
0.5
  0
INSERT
  5
   319
  8
0
  6
CONTINUOUS
 62
     7
  2
*HATCH1307
 10
-943.617248535156
 20
-48.1557769775391
 30
0.0
 41
0.5
 42
0.5
 50
89.9999999480344
 43
0.5
  0
LINE
  5
   31A
  8
0
  6
DASHDOT
 62
     7
 10
-871.144163448571
 20
6.83777801511906
 30
0.0
 11
-975.276639277325
 21
6.83777801511906
 31
0.0
  0
LINE
  5
   31B
  8
0
  6
CONTINUOUS
 62
     5
 10
-893.367256164564
 20
70.712760925293
 30
0.0
 11
-942.617244047356
 21
70.712760925293
 31
0.0
  0
LINE
  5
   31C
  8
0
  6
CONTINUOUS
 62
     5
 10
-893.367256164564
 20
-58.7872067260919
 30
0.0
 11
-942.617249012006
 21
-58.7872067260919
 31
0.0
  0
LINE
  5
   31D
  8
0
  6
CONTINUOUS
 62
     5
 10
-892.867256164564
 20
-58.2872067260919
 30
0.0
 11
-892.867256164564
 21
-46.0372143554866
 31
0.0
  0
LINE
  5
   31E
  8
0
  6
CONTINUOUS
 62
     5
 10
-892.867256164564
 20
57.7127780151191
 30
0.0
 11
-892.867256164564
 21
70.212760925293
 31
0.0
  0
ARC
  5
   31F
  8
0
  6
CONTINUOUS
 62
     5
 10
-893.367256164564
 20
70.212760925293
 30
0.0
 40
0.5
 50
359.999999948034
 51
449.999999948034
  0
ARC
  5
   320
  8
0
  6
CONTINUOUS
 62
     5
 10
-893.367256164564
 20
-58.2872067260919
 30
0.0
 40
0.5
 50
269.999999948034
 51
359.999999948034
  0
LINE
  5
   321
  8
0
  6
CONTINUOUS
 62
     5
 10
-892.867256164564
 20
-46.0372143554866
 30
0.0
 11
-893.367256164564
 21
-46.0372143554866
 31
0.0
  0
LINE
  5
   322
  8
0
  6
CONTINUOUS
 62
     5
 10
-893.367256164564
 20
-46.0372143554866
 30
0.0
 11
-893.367256164564
 21
-45.5372143554866
 31
0.0
  0
LINE
  5
   323
  8
0
  6
CONTINUOUS
 62
     5
 10
-893.367256164564
 20
57.2127780151191
 30
0.0
 11
-893.367256164564
 21
57.7127780151191
 31
0.0
  0
LINE
  5
   324
  8
0
  6
CONTINUOUS
 62
     5
 10
-892.867256164564
 20
57.7127780151191
 30
0.0
 11
-893.367256164564
 21
57.7127780151191
 31
0.0
  0
LINE
  5
   325
  8
0
  6
CONTINUOUS
 62
     5
 10
-952.867240905762
 20
75.0014360598878
 30
0.0
 11
-952.867240905762
 21
89.212760925293
 31
0.0
  0
LINE
  5
   326
  8
0
  6
CONTINUOUS
 62
     5
 10
-949.867240905762
 20
75.0014360598878
 30
0.0
 11
-949.867240905762
 21
89.212760925293
 31
0.0
  0
LINE
  5
   327
  8
0
  6
DASHDOT
 62
     7
 10
-947.884306893248
 20
82.212760925293
 30
0.0
 11
-955.027550842876
 21
82.212760925293
 31
0.0
  0
LINE
  5
   328
  8
0
  6
CONTINUOUS
 62
     5
 10
-949.867240905762
 20
89.212760925293
 30
0.0
 11
-952.867240905762
 21
89.212760925293
 31
0.0
  0
CIRCLE
  5
   329
  8
0
  6
CONTINUOUS
 62
     5
 10
-951.476451576422
 20
77.7233538111247
 30
0.0
 40
0.25
  0
LINE
  5
   32A
  8
0
  6
CONTINUOUS
 62
     5
 10
-949.867240905762
 20
76.712760925293
 30
0.0
 11
-952.867240905762
 21
76.712760925293
 31
0.0
  0
LINE
  5
   32B
  8
0
  6
CONTINUOUS
 62
     5
 10
-957.117240905762
 20
69.462760925293
 30
0.0
 11
-957.117240905762
 21
70.2382963390734
 31
0.0
  0
LINE
  5
   32C
  8
0
  6
CONTINUOUS
 62
     5
 10
-954.117240905762
 20
69.462760925293
 30
0.0
 11
-954.117240905762
 21
70.2382963390733
 31
0.0
  0
LINE
  5
   32D
  8
0
  6
CONTINUOUS
 62
     5
 10
-955.367240905762
 20
73.2693852523189
 30
0.0
 11
-953.117240905762
 21
74.5684233579956
 31
0.0
  0
LINE
  5
   32E
  8
0
  6
CONTINUOUS
 62
     5
 10
-953.867240905762
 20
70.6713090409656
 30
0.0
 11
-951.617240905762
 21
71.9703471466423
 31
0.0
  0
ARC
  5
   32F
  8
0
  6
CONTINUOUS
 62
     5
 10
-953.367240905762
 20
75.0014360598878
 30
0.0
 40
0.5
 50
299.999999948034
 51
359.999999948034
  0
ARC
  5
   330
  8
0
  6
CONTINUOUS
 62
     5
 10
-953.617240905762
 20
70.2382963390733
 30
0.0
 40
0.5
 50
119.999999948034
 51
179.999999948034
  0
ARC
  5
   331
  8
0
  6
CONTINUOUS
 62
     5
 10
-953.367240905762
 20
75.0014360598878
 30
0.0
 40
3.5
 50
299.999999948034
 51
359.999999948034
  0
ARC
  5
   332
  8
0
  6
CONTINUOUS
 62
     5
 10
-953.617240905762
 20
70.2382963390734
 30
0.0
 40
3.5
 50
119.999999948034
 51
179.999999948034
  0
LINE
  5
   333
  8
0
  6
CONTINUOUS
 62
     5
 10
-949.867240905762
 20
89.212760925293
 30
0.0
 11
-952.867240905762
 21
89.212760925293
 31
0.0
  0
LINE
  5
   334
  8
0
  6
CONTINUOUS
 62
     5
 10
-952.867240905762
 20
75.0014360598878
 30
0.0
 11
-952.867240905762
 21
89.212760925293
 31
0.0
  0
LINE
  5
   335
  8
0
  6
CONTINUOUS
 62
     5
 10
-949.867240905762
 20
75.0014360598878
 30
0.0
 11
-949.867240905762
 21
89.212760925293
 31
0.0
  0
LINE
  5
   336
  8
0
  6
DASHDOT
 62
     7
 10
-947.884306893248
 20
82.212760925293
 30
0.0
 11
-955.027550842876
 21
82.212760925293
 31
0.0
  0
LINE
  5
   337
  8
0
  6
CONTINUOUS
 62
     5
 10
-949.867240905762
 20
76.712760925293
 30
0.0
 11
-952.867240905762
 21
76.712760925293
 31
0.0
  0
ARC
  5
   338
  8
0
  6
CONTINUOUS
 62
     5
 10
-953.367240905762
 20
75.0014360598878
 30
0.0
 40
3.5
 50
299.999999948034
 51
359.999999948034
  0
LINE
  5
   339
  8
0
  6
CONTINUOUS
 62
     5
 10
-952.867240905762
 20
75.0014360598878
 30
0.0
 11
-952.867240905762
 21
89.212760925293
 31
0.0
  0
LINE
  5
   33A
  8
0
  6
CONTINUOUS
 62
     5
 10
-955.367240905762
 20
73.2693852523189
 30
0.0
 11
-953.117240905762
 21
74.5684233579956
 31
0.0
  0
ARC
  5
   33B
  8
0
  6
CONTINUOUS
 62
     5
 10
-953.367240905762
 20
75.0014360598878
 30
0.0
 40
0.5
 50
299.999999948034
 51
359.999999948034
  0
LINE
  5
   33C
  8
0
  6
CONTINUOUS
 62
     5
 10
-953.867240905762
 20
70.6713090409656
 30
0.0
 11
-951.617240905762
 21
71.9703471466423
 31
0.0
  0
ARC
  5
   33D
  8
0
  6
CONTINUOUS
 62
     5
 10
-953.617240905762
 20
70.2382963390733
 30
0.0
 40
0.5
 50
119.999999948034
 51
179.999999948034
  0
LINE
  5
   33E
  8
0
  6
CONTINUOUS
 62
     5
 10
-954.117240905762
 20
69.462760925293
 30
0.0
 11
-954.117240905762
 21
70.2382963390733
 31
0.0
  0
ARC
  5
   33F
  8
0
  6
CONTINUOUS
 62
     5
 10
-953.617240905762
 20
70.2382963390734
 30
0.0
 40
3.5
 50
119.999999948034
 51
179.999999948034
  0
LINE
  5
   340
  8
0
  6
CONTINUOUS
 62
     5
 10
-949.867240905762
 20
-77.287239074707
 30
0.0
 11
-952.867240905762
 21
-77.287239074707
 31
0.0
  0
LINE
  5
   341
  8
0
  6
DASHDOT
 62
     7
 10
-947.884306893248
 20
-70.287239074707
 30
0.0
 11
-955.027550842876
 21
-70.287239074707
 31
0.0
  0
LINE
  5
   342
  8
0
  6
CONTINUOUS
 62
     5
 10
-952.867240905762
 20
-77.287239074707
 30
0.0
 11
-952.867240905762
 21
-63.0759142093019
 31
0.0
  0
LINE
  5
   343
  8
0
  6
CONTINUOUS
 62
     5
 10
-949.867240905762
 20
-77.287239074707
 30
0.0
 11
-949.867240905762
 21
-63.0759142093018
 31
0.0
  0
LINE
  5
   344
  8
0
  6
CONTINUOUS
 62
     5
 10
-949.867240905762
 20
-64.787239074707
 30
0.0
 11
-952.867240905762
 21
-64.787239074707
 31
0.0
  0
ARC
  5
   345
  8
0
  6
CONTINUOUS
 62
     5
 10
-953.367240905762
 20
-63.0759142093019
 30
0.0
 40
0.5
 50
359.999999948034
 51
419.999999948035
  0
LINE
  5
   346
  8
0
  6
CONTINUOUS
 62
     5
 10
-953.117240905762
 20
-62.6429015074096
 30
0.0
 11
-955.367240905762
 21
-61.343863401733
 31
0.0
  0
ARC
  5
   347
  8
0
  6
CONTINUOUS
 62
     5
 10
-953.617240905762
 20
-58.3127744884874
 30
0.0
 40
3.5
 50
179.999999948034
 51
239.999999948034
  0
LINE
  5
   348
  8
0
  6
CONTINUOUS
 62
     5
 10
-957.117240905762
 20
-58.3127744884874
 30
0.0
 11
-957.117240905762
 21
-57.537239074707
 31
0.0
  0
LINE
  5
   349
  8
0
  6
CONTINUOUS
 62
     5
 10
-954.117240905762
 20
-58.3127744884874
 30
0.0
 11
-954.117240905762
 21
-57.537239074707
 31
0.0
  0
ARC
  5
   34A
  8
0
  6
CONTINUOUS
 62
     5
 10
-953.617240905762
 20
-58.3127744884874
 30
0.0
 40
0.5
 50
179.999999948034
 51
239.999999948035
  0
LINE
  5
   34B
  8
0
  6
CONTINUOUS
 62
     5
 10
-951.617240905762
 20
-60.0448252960563
 30
0.0
 11
-953.867240905762
 21
-58.7457871903797
 31
0.0
  0
ARC
  5
   34C
  8
0
  6
CONTINUOUS
 62
     5
 10
-953.367240905762
 20
-63.0759142093018
 30
0.0
 40
3.5
 50
359.999999948034
 51
419.999999948034
  0
LINE
  5
   34D
  8
0
  6
CONTINUOUS
 62
     7
 10
-971.867240905762
 20
37.712760925293
 30
0.0
 11
-971.867240905762
 21
41.712760925293
 31
0.0
  0
LINE
  5
   34E
  8
0
  6
CONTINUOUS
 62
     7
 10
-973.867240905762
 20
38.462760925293
 30
0.0
 11
-973.867240905762
 21
40.962760925293
 31
0.0
  0
LINE
  5
   34F
  8
0
  6
CONTINUOUS
 62
     7
 10
-969.867240905762
 20
41.712760925293
 30
0.0
 11
-971.867240905762
 21
41.712760925293
 31
0.0
  0
LINE
  5
   350
  8
0
  6
CONTINUOUS
 62
     7
 10
-969.867240905762
 20
37.712760925293
 30
0.0
 11
-971.867240905762
 21
37.712760925293
 31
0.0
  0
LINE
  5
   351
  8
0
  6
CONTINUOUS
 62
     7
 10
-969.867240905762
 20
40.962760925293
 30
0.0
 11
-973.867240905762
 21
40.962760925293
 31
0.0
  0
LINE
  5
   352
  8
0
  6
CONTINUOUS
 62
     7
 10
-969.867240905762
 20
38.462760925293
 30
0.0
 11
-973.867240905762
 21
38.462760925293
 31
0.0
  0
LINE
  5
   353
  8
0
  6
CONTINUOUS
 62
     7
 10
-969.867240905762
 20
-25.787239074707
 30
0.0
 11
-971.867240905762
 21
-25.787239074707
 31
0.0
  0
LINE
  5
   354
  8
0
  6
CONTINUOUS
 62
     7
 10
-969.867240905762
 20
-26.537239074707
 30
0.0
 11
-973.867240905762
 21
-26.537239074707
 31
0.0
  0
LINE
  5
   355
  8
0
  6
CONTINUOUS
 62
     7
 10
-969.867240905762
 20
-29.037239074707
 30
0.0
 11
-973.867240905762
 21
-29.037239074707
 31
0.0
  0
LINE
  5
   356
  8
0
  6
CONTINUOUS
 62
     7
 10
-969.867240905762
 20
-29.787239074707
 30
0.0
 11
-971.867240905762
 21
-29.787239074707
 31
0.0
  0
LINE
  5
   357
  8
0
  6
CONTINUOUS
 62
     7
 10
-971.867240905762
 20
-29.787239074707
 30
0.0
 11
-971.867240905762
 21
-25.787239074707
 31
0.0
  0
LINE
  5
   358
  8
0
  6
CONTINUOUS
 62
     7
 10
-973.867240905762
 20
-29.037239074707
 30
0.0
 11
-973.867240905762
 21
-26.537239074707
 31
0.0
  0
CIRCLE
  5
   359
  8
0
  6
CONTINUOUS
 62
     7
 10
-971.074555640031
 20
-27.8417610000565
 30
0.0
 40
0.1
  0
INSERT
  5
   35A
  8
0
  6
CONTINUOUS
 62
     7
  2
*UDIM2279
 10
0.0
 20
0.0
 30
0.0
  0
INSERT
  5
   35B
  8
0
  6
CONTINUOUS
 62
     7
  2
*UDIM2280
 10
0.0
 20
0.0
 30
0.0
  0
INSERT
  5
   35C
  8
0
  6
CONTINUOUS
 62
     7
  2
*UDIM2281
 10
0.0
 20
0.0
 30
0.0
  0
INSERT
  5
   35D
  8
0
  6
CONTINUOUS
 62
     7
  2
*UDIM2282
 10
0.0
 20
0.0
 30
0.0
  0
INSERT
  5
   35E
  8
0
  6
CONTINUOUS
 62
     7
  2
*UDIM2283
 10
0.0
 20
0.0
 30
0.0
  0
INSERT
  5
   35F
  8
0
  6
CONTINUOUS
 62
     7
  2
*UDIM2284
 10
0.0
 20
0.0
 30
0.0
  0
INSERT
  5
   360
  8
0
  6
CONTINUOUS
 62
     7
  2
*UDIM2285
 10
0.0
 20
0.0
 30
0.0
  0
INSERT
  5
   361
  8
0
  6
CONTINUOUS
 62
     7
  2
*UDIM2286
 10
0.0
 20
0.0
 30
0.0
  0
TEXT
  5
   362
  8
0
  6
CONTINUOUS
 62
     7
 10
-859.668266208332
 20
6.00652745435395
 30
0.0
 40
3.00000002980232
  1
X
 50
359.999999948034
 41
0.916666604744064
 72
     1
 11
-858.568266272544
 21
7.50652746826297
 31
0.0
 73
     2
  0
TEXT
  5
   363
  8
0
  6
CONTINUOUS
 62
     7
 10
-981.393989474934
 20
5.62557626435916
 30
0.0
 40
3.00000002980232
  1
X
 50
359.999999948034
 41
0.916666604744064
 72
     1
 11
-980.293989539146
 21
7.12557627826818
 31
0.0
 73
     2
  0
LINE
  5
   364
  8
0
  6
CONTINUOUS
 62
     7
 10
-1017.55221557617
 20
57.4627532958984
 30
0.0
 11
-1017.55221557617
 21
69.9627209472832
 31
0.0
  0
LINE
  5
   365
  8
0
  6
CONTINUOUS
 62
     7
 10
-1109.42720794888
 20
57.4627532958984
 30
0.0
 11
-1109.42720794888
 21
69.9627209472832
 31
0.0
  0
LINE
  5
   366
  8
0
  6
CONTINUOUS
 62
     7
 10
-1017.55223132563
 20
-58.0372296142754
 30
0.0
 11
-1017.55223132563
 21
-26.7872467339039
 31
0.0
  0
LINE
  5
   367
  8
0
  6
CONTINUOUS
 62
     7
 10
-1109.42723132563
 20
-58.0372296142754
 30
0.0
 11
-1109.42723132563
 21
-26.7872467339039
 31
0.0
  0
LINE
  5
   368
  8
0
  6
CONTINUOUS
 62
     1
 10
-1017.55223152126
 20
33.337760925293
 30
0.0
 11
-1017.55223152126
 21
57.4627532958984
 31
0.0
  0
LINE
  5
   369
  8
0
  6
CONTINUOUS
 62
     1
 10
-1109.42723152126
 20
-26.7872467339039
 30
0.0
 11
-1109.42723152126
 21
-19.1622543334961
 31
0.0
  0
LINE
  5
   36A
  8
0
  6
CONTINUOUS
 62
     1
 10
-1109.42723152126
 20
33.3377456665039
 30
0.0
 11
-1109.42723152126
 21
57.4627532958984
 31
0.0
  0
LINE
  5
   36B
  8
0
  6
CONTINUOUS
 62
     1
 10
-1018.05223915065
 20
-27.2872467041016
 30
0.0
 11
-1023.30223152126
 21
-27.2872467041016
 31
0.0
  0
LINE
  5
   36C
  8
0
  6
CONTINUOUS
 62
     1
 10
-1109.42723152126
 20
-19.1622467041016
 30
0.0
 11
-1109.42723152126
 21
33.3377532958984
 31
0.0
  0
LINE
  5
   36D
  8
0
  6
CONTINUOUS
 62
     1
 10
-1017.55223152126
 20
-26.7872467339039
 30
0.0
 11
-1017.55223152126
 21
33.3377532958984
 31
0.0
  0
LINE
  5
   36E
  8
0
  6
CONTINUOUS
 62
     1
 10
-1017.55223152126
 20
-26.7872467339039
 30
0.0
 11
-1023.30223152126
 21
-26.7872467339039
 31
0.0
  0
LINE
  5
   36F
  8
0
  6
CONTINUOUS
 62
     1
 10
-1081.80223152126
 20
-26.7872467339039
 30
0.0
 11
-1109.42723132563
 21
-26.7872467339039
 31
0.0
  0
LINE
  5
   370
  8
0
  6
CONTINUOUS
 62
     1
 10
-1018.05223915065
 20
-27.2872467041018
 30
0.0
 11
-1018.05223915065
 21
-26.7872467339041
 31
0.0
  0
LINE
  5
   371
  8
0
  6
CONTINUOUS
 62
     1
 10
-1026.12723609889
 20
-19.1622543334961
 30
0.0
 11
-1026.12723609889
 21
33.3377456665039
 31
0.0
  0
LINE
  5
   372
  8
0
  6
CONTINUOUS
 62
     1
 10
-1078.05223152126
 20
47.0877532958984
 30
0.0
 11
-1078.05223152126
 21
54.9627532958984
 31
0.0
  0
LINE
  5
   373
  8
0
  6
CONTINUOUS
 62
     1
 10
-1027.05223152126
 20
47.0877532958984
 30
0.0
 11
-1027.05223152126
 21
54.9627532958984
 31
0.0
  0
LINE
  5
   374
  8
0
  6
CONTINUOUS
 62
     1
 10
-1027.05223152126
 20
54.9627532958984
 30
0.0
 11
-1078.05223152126
 21
54.9627532958984
 31
0.0
  0
LINE
  5
   375
  8
0
  6
CONTINUOUS
 62
     3
 10
-1066.30223915065
 20
-19.4122467041016
 30
0.0
 11
-1071.30223152126
 21
-19.4122467041016
 31
0.0
  0
LINE
  5
   376
  8
0
  6
CONTINUOUS
 62
     3
 10
-1033.80224678004
 20
-19.4122467041016
 30
0.0
 11
-1038.80224678005
 21
-19.4122467041016
 31
0.0
  0
LINE
  5
   377
  8
0
  6
CONTINUOUS
 62
     3
 10
-1026.30223152126
 20
-19.1622467041016
 30
0.0
 11
-1026.30223152126
 21
-10.1622543334961
 31
0.0
  0
LINE
  5
   378
  8
0
  6
CONTINUOUS
 62
     3
 10
-1078.80223152126
 20
-19.4122543334961
 30
0.0
 11
-1078.80223152126
 21
-10.1622543334961
 31
0.0
  0
LINE
  5
   379
  8
0
  6
CONTINUOUS
 62
     3
 10
-1026.55223152126
 20
33.0877532958984
 30
0.0
 11
-1078.55223152124
 21
33.0877532958984
 31
0.0
  0
LINE
  5
   37A
  8
0
  6
CONTINUOUS
 62
     3
 10
-1071.30223152126
 20
-19.4122467041016
 30
0.0
 11
-1078.55223152126
 21
-19.4122467041016
 31
0.0
  0
LINE
  5
   37B
  8
0
  6
CONTINUOUS
 62
     3
 10
-1038.80224678005
 20
-19.4122467041016
 30
0.0
 11
-1066.30223915065
 21
-19.4122467041016
 31
0.0
  0
LINE
  5
   37C
  8
0
  6
CONTINUOUS
 62
     3
 10
-1026.55223152126
 20
-19.4122467041016
 30
0.0
 11
-1033.80224678004
 21
-19.4122467041016
 31
0.0
  0
LINE
  5
   37D
  8
0
  6
CONTINUOUS
 62
     3
 10
-1047.17723152126
 20
-8.28725433349609
 30
0.0
 11
-1047.17723152126
 21
11.7127380371094
 31
0.0
  0
LINE
  5
   37E
  8
0
  6
CONTINUOUS
 62
     3
 10
-1057.92723152126
 20
-8.28725433349609
 30
0.0
 11
-1057.92723152126
 21
11.7127380371094
 31
0.0
  0
LINE
  5
   37F
  8
0
  6
CONTINUOUS
 62
     1
 10
-1026.30223152126
 20
27.3377380371094
 30
0.0
 11
-1078.80223152126
 21
27.3377380371094
 31
0.0
  0
LINE
  5
   380
  8
0
  6
CONTINUOUS
 62
     1
 10
-1026.30223152126
 20
32.3377380371094
 30
0.0
 11
-1078.80223152126
 21
32.3377380371094
 31
0.0
  0
LINE
  5
   381
  8
0
  6
CONTINUOUS
 62
     3
 10
-1047.17723152126
 20
11.5805053710938
 30
0.0
 11
-1057.92723152126
 21
11.5805053710938
 31
0.0
  0
LINE
  5
   382
  8
0
  6
CONTINUOUS
 62
     3
 10
-1047.17723152126
 20
11.7127380371094
 30
0.0
 11
-1057.92723152126
 21
11.7127380371094
 31
0.0
  0
LINE
  5
   383
  8
0
  6
CONTINUOUS
 62
     3
 10
-1047.17723152126
 20
-8.28725433349609
 30
0.0
 11
-1057.92723152126
 21
-8.28725433349609
 31
0.0
  0
LINE
  5
   384
  8
0
  6
CONTINUOUS
 62
     3
 10
-1047.17723152126
 20
-8.15500640869141
 30
0.0
 11
-1057.92723152126
 21
-8.15500640869141
 31
0.0
  0
LINE
  5
   385
  8
0
  6
DASHDOT
 62
     3
 10
-1052.55223152126
 20
-79.1152137610261
 30
0.0
 11
-1052.55223152126
 21
22.1889554397434
 31
0.0
  0
LINE
  5
   386
  8
0
  6
DASHDOT
 62
     3
 10
-1052.55223152126
 20
26.8025890834838
 30
0.0
 11
-1052.55223152126
 21
92.3047286555622
 31
0.0
  0
LINE
  5
   387
  8
0
  6
CONTINUOUS
 62
     3
 10
-1026.30223915065
 20
-9.66225433349609
 30
0.0
 11
-1026.30223915065
 21
-3.66225831011534
 31
0.0
  0
LINE
  5
   388
  8
0
  6
CONTINUOUS
 62
     3
 10
-1026.30223915065
 20
13.5877456665039
 30
0.0
 11
-1026.30223915065
 21
32.8377532958984
 31
0.0
  0
LINE
  5
   389
  8
0
  6
CONTINUOUS
 62
     3
 10
-1026.30223915065
 20
-3.16225831011531
 30
0.0
 11
-1026.30223915065
 21
6.58774566650391
 31
0.0
  0
LINE
  5
   38A
  8
0
  6
CONTINUOUS
 62
     3
 10
-1026.30223915065
 20
7.08774566650391
 30
0.0
 11
-1026.30223915065
 21
13.0877456665039
 31
0.0
  0
LINE
  5
   38B
  8
0
  6
CONTINUOUS
 62
     3
 10
-1078.80223152126
 20
-9.66225433349609
 30
0.0
 11
-1078.80223152126
 21
-3.66225433349501
 31
0.0
  0
LINE
  5
   38C
  8
0
  6
CONTINUOUS
 62
     3
 10
-1078.80223152127
 20
-3.16225433349497
 30
0.0
 11
-1078.80223152127
 21
6.58774566650391
 31
0.0
  0
LINE
  5
   38D
  8
0
  6
CONTINUOUS
 62
     3
 10
-1078.80223152125
 20
7.08774566650391
 30
0.0
 11
-1078.80223152125
 21
13.0877456665039
 31
0.0
  0
LINE
  5
   38E
  8
0
  6
CONTINUOUS
 62
     3
 10
-1078.80223152124
 20
13.5877456665039
 30
0.0
 11
-1078.80223152124
 21
32.8377532958984
 31
0.0
  0
LINE
  5
   38F
  8
0
  6
CONTINUOUS
 62
     1
 10
-1057.92723550812
 20
-3.41224471578397
 30
0.0
 11
-1078.30223155106
 21
-3.41224471578397
 31
0.0
  0
LINE
  5
   390
  8
0
  6
CONTINUOUS
 62
     3
 10
-1026.30223915065
 20
-3.6622486924071
 30
0.0
 11
-1026.80223915065
 21
-3.6622486924071
 31
0.0
  0
LINE
  5
   391
  8
0
  6
CONTINUOUS
 62
     1
 10
-1057.92724528766
 20
-2.91224471578102
 30
0.0
 11
-1078.30223155106
 21
-2.91224471578102
 31
0.0
  0
LINE
  5
   392
  8
0
  6
CONTINUOUS
 62
     3
 10
-1026.30223915065
 20
-3.16224869240715
 30
0.0
 11
-1026.80223915065
 21
-3.16224869240715
 31
0.0
  0
LINE
  5
   393
  8
0
  6
CONTINUOUS
 62
     3
 10
-1078.30223155106
 20
-3.66225433349609
 30
0.0
 11
-1078.30223155106
 21
-3.16225433349609
 31
0.0
  0
LINE
  5
   394
  8
0
  6
CONTINUOUS
 62
     3
 10
-1026.80223915065
 20
-3.66225433349609
 30
0.0
 11
-1026.80223915065
 21
-3.16225433349609
 31
0.0
  0
LINE
  5
   395
  8
0
  6
CONTINUOUS
 62
     3
 10
-1026.30223152126
 20
-10.1622543334961
 30
0.0
 11
-1026.80223915065
 21
-10.1622543334961
 31
0.0
  0
LINE
  5
   396
  8
0
  6
CONTINUOUS
 62
     3
 10
-1026.30223915065
 20
-9.66225433349609
 30
0.0
 11
-1026.80223915065
 21
-9.66225433349609
 31
0.0
  0
LINE
  5
   397
  8
0
  6
CONTINUOUS
 62
     3
 10
-1078.30223155106
 20
-10.1622543334961
 30
0.0
 11
-1078.30223155106
 21
-9.66225433349609
 31
0.0
  0
LINE
  5
   398
  8
0
  6
CONTINUOUS
 62
     3
 10
-1026.80223915065
 20
-10.1622543334961
 30
0.0
 11
-1026.80223915065
 21
-9.66225433349609
 31
0.0
  0
LINE
  5
   399
  8
0
  6
CONTINUOUS
 62
     3
 10
-1026.30223915065
 20
13.0877456665039
 30
0.0
 11
-1026.80223915065
 21
13.0877456665039
 31
0.0
  0
LINE
  5
   39A
  8
0
  6
CONTINUOUS
 62
     3
 10
-1026.30223915065
 20
13.5877456665039
 30
0.0
 11
-1026.80223915065
 21
13.5877456665039
 31
0.0
  0
LINE
  5
   39B
  8
0
  6
CONTINUOUS
 62
     3
 10
-1078.30223155106
 20
13.0877456665039
 30
0.0
 11
-1078.30223155106
 21
13.5877456665039
 31
0.0
  0
LINE
  5
   39C
  8
0
  6
CONTINUOUS
 62
     3
 10
-1026.80223915065
 20
13.0877456665039
 30
0.0
 11
-1026.80223915065
 21
13.5877456665039
 31
0.0
  0
LINE
  5
   39D
  8
0
  6
CONTINUOUS
 62
     1
 10
-1057.92723548496
 20
6.83774566650391
 30
0.0
 11
-1078.30223155106
 21
6.83774566650391
 31
0.0
  0
LINE
  5
   39E
  8
0
  6
CONTINUOUS
 62
     3
 10
-1026.30223915065
 20
6.58774566650391
 30
0.0
 11
-1026.80223915065
 21
6.58774566650391
 31
0.0
  0
LINE
  5
   39F
  8
0
  6
CONTINUOUS
 62
     1
 10
-1057.92723152126
 20
7.33774566650391
 30
0.0
 11
-1078.30223155106
 21
7.33774566650391
 31
0.0
  0
LINE
  5
   3A0
  8
0
  6
CONTINUOUS
 62
     3
 10
-1026.30223915065
 20
7.08774566650391
 30
0.0
 11
-1026.80223915065
 21
7.08774566650391
 31
0.0
  0
LINE
  5
   3A1
  8
0
  6
CONTINUOUS
 62
     3
 10
-1078.30223155106
 20
6.58774566650391
 30
0.0
 11
-1078.30223155106
 21
7.08774566650391
 31
0.0
  0
LINE
  5
   3A2
  8
0
  6
CONTINUOUS
 62
     3
 10
-1026.80223915065
 20
6.58774566650391
 30
0.0
 11
-1026.80223915065
 21
7.08774566650391
 31
0.0
  0
ARC
  5
   3A3
  8
0
  6
CONTINUOUS
 62
     3
 10
-1078.55223152126
 20
-19.1622467041016
 30
0.0
 40
0.25
 50
179.999999948034
 51
269.999999948034
  0
ARC
  5
   3A4
  8
0
  6
CONTINUOUS
 62
     3
 10
-1026.55223152126
 20
-19.1622467041016
 30
0.0
 40
0.25
 50
269.999999948034
 51
359.999999948034
  0
ARC
  5
   3A5
  8
0
  6
CONTINUOUS
 62
     3
 10
-1026.55223152126
 20
32.8377532958984
 30
0.0
 40
0.25
 50
359.999999948034
 51
449.999999948034
  0
ARC
  5
   3A6
  8
0
  6
CONTINUOUS
 62
     3
 10
-1078.55223152124
 20
32.8377532958984
 30
0.0
 40
0.25
 50
89.9999999480344
 51
179.999999948034
  0
INSERT
  5
   3A7
  8
255
  6
CONTINUOUS
 62
     3
  2
$1ON-OFF
 10
-1042.55223640407
 20
10.0877456665039
 30
0.0
 41
0.5
 42
0.5
 50
359.999999792137
 43
0.5
  0
LINE
  5
   3A8
  8
0
  6
CONTINUOUS
 62
     1
 10
-1063.80223152126
 20
12.5877456665039
 30
0.0
 11
-1064.55223152126
 21
12.5877456665039
 31
0.0
  0
LINE
  5
   3A9
  8
0
  6
CONTINUOUS
 62
     1
 10
-1063.80223152126
 20
8.08774566650391
 30
0.0
 11
-1064.55223152126
 21
8.08774566650391
 31
0.0
  0
CIRCLE
  5
   3AA
  8
0
  6
CONTINUOUS
 62
     1
 10
-1064.17723152126
 20
-6.41225433349608
 30
0.0
 40
2.25
  0
CIRCLE
  5
   3AB
  8
0
  6
CONTINUOUS
 62
     1
 10
-1064.17723152126
 20
-6.41225433349608
 30
0.0
 40
1.5
  0
LINE
  5
   3AC
  8
0
  6
CONTINUOUS
 62
     1
 10
-1064.55223152126
 20
8.08774566650391
 30
0.0
 11
-1064.55223152126
 21
12.5877456665039
 31
0.0
  0
LINE
  5
   3AD
  8
0
  6
CONTINUOUS
 62
     1
 10
-1063.80223152126
 20
8.08774566650391
 30
0.0
 11
-1063.80223152126
 21
12.5877456665039
 31
0.0
  0
LINE
  5
   3AE
  8
0
  6
CONTINUOUS
 62
     1
 10
-1059.30223152126
 20
-9.41225433349609
 30
0.0
 11
-1059.30223152126
 21
-3.41224718891333
 31
0.0
  0
LINE
  5
   3AF
  8
0
  6
CONTINUOUS
 62
     1
 10
-1045.80223152126
 20
-9.41225433349609
 30
0.0
 11
-1045.80223152126
 21
-3.41225116553647
 31
0.0
  0
LINE
  5
   3B0
  8
0
  6
CONTINUOUS
 62
     1
 10
-1045.80223152126
 20
7.33774566650391
 30
0.0
 11
-1045.80223152126
 21
13.3377456665039
 31
0.0
  0
LINE
  5
   3B1
  8
0
  6
CONTINUOUS
 62
     1
 10
-1059.30223152126
 20
7.33774566650391
 30
0.0
 11
-1059.30223152126
 21
13.3377456665039
 31
0.0
  0
LINE
  5
   3B2
  8
0
  6
CONTINUOUS
 62
     7
 10
-1017.55223132563
 20
-27.7872296142755
 30
0.0
 11
-1023.30223152126
 21
-27.7872296142755
 31
0.0
  0
LINE
  5
   3B3
  8
0
  6
CONTINUOUS
 62
     7
 10
-1047.17723152126
 20
-3.69760387710826
 30
0.0
 11
-1057.92723152126
 21
-3.69760387710826
 31
0.0
  0
LINE
  5
   3B4
  8
0
  6
CONTINUOUS
 62
     7
 10
-1047.17723152126
 20
-1.22454328913641
 30
0.0
 11
-1057.92723152126
 21
-1.22454328913641
 31
0.0
  0
LINE
  5
   3B5
  8
0
  6
CONTINUOUS
 62
     7
 10
-1047.17723152126
 20
-7.65807970342916
 30
0.0
 11
-1057.92723152126
 21
-7.65807970342916
 31
0.0
  0
LINE
  5
   3B6
  8
0
  6
CONTINUOUS
 62
     3
 10
-1078.30223155106
 20
13.5877456665039
 30
0.0
 11
-1078.80223152124
 21
13.5877456665039
 31
0.0
  0
LINE
  5
   3B7
  8
0
  6
CONTINUOUS
 62
     3
 10
-1078.30223155106
 20
13.0877456665039
 30
0.0
 11
-1078.80223152125
 21
13.0877456665039
 31
0.0
  0
LINE
  5
   3B8
  8
0
  6
CONTINUOUS
 62
     3
 10
-1078.30223155106
 20
7.08774566650391
 30
0.0
 11
-1078.80223152125
 21
7.08774566650391
 31
0.0
  0
LINE
  5
   3B9
  8
0
  6
CONTINUOUS
 62
     3
 10
-1078.30223155106
 20
6.58774566650391
 30
0.0
 11
-1078.80223152127
 21
6.58774566650391
 31
0.0
  0
LINE
  5
   3BA
  8
0
  6
CONTINUOUS
 62
     3
 10
-1078.30223155106
 20
-3.16224471578102
 30
0.0
 11
-1078.80223152127
 21
-3.16224471578102
 31
0.0
  0
LINE
  5
   3BB
  8
0
  6
CONTINUOUS
 62
     3
 10
-1078.30223155106
 20
-3.66224471578397
 30
0.0
 11
-1078.80223152126
 21
-3.66224471578397
 31
0.0
  0
LINE
  5
   3BC
  8
0
  6
CONTINUOUS
 62
     3
 10
-1078.30223155106
 20
-9.66225433349609
 30
0.0
 11
-1078.80223152126
 21
-9.66225433349609
 31
0.0
  0
LINE
  5
   3BD
  8
0
  6
CONTINUOUS
 62
     3
 10
-1078.30223155106
 20
-10.1622543334961
 30
0.0
 11
-1078.80223152126
 21
-10.1622543334961
 31
0.0
  0
LINE
  5
   3BE
  8
0
  6
CONTINUOUS
 62
     1
 10
-1026.80223915065
 20
-9.91225433349609
 30
0.0
 11
-1078.30223155106
 21
-9.91225433349609
 31
0.0
  0
LINE
  5
   3BF
  8
0
  6
CONTINUOUS
 62
     1
 10
-1026.80223915065
 20
-9.41225433349609
 30
0.0
 11
-1078.30223155106
 21
-9.41225433349609
 31
0.0
  0
LINE
  5
   3C0
  8
0
  6
CONTINUOUS
 62
     1
 10
-1026.80223915065
 20
-3.4122486924071
 30
0.0
 11
-1047.17723319683
 21
-3.4122486924071
 31
0.0
  0
LINE
  5
   3C1
  8
0
  6
CONTINUOUS
 62
     1
 10
-1026.80223915065
 20
-2.91224869240715
 30
0.0
 11
-1047.17723301364
 21
-2.91224869240715
 31
0.0
  0
LINE
  5
   3C2
  8
0
  6
CONTINUOUS
 62
     1
 10
-1026.80223915065
 20
6.83774566650391
 30
0.0
 11
-1047.17723152126
 21
6.83774566650391
 31
0.0
  0
LINE
  5
   3C3
  8
0
  6
CONTINUOUS
 62
     1
 10
-1026.80223915065
 20
7.33774566650391
 30
0.0
 11
-1047.17723152126
 21
7.33774566650391
 31
0.0
  0
LINE
  5
   3C4
  8
0
  6
CONTINUOUS
 62
     1
 10
-1026.80223915065
 20
13.3377456665039
 30
0.0
 11
-1078.30223155106
 21
13.3377456665039
 31
0.0
  0
LINE
  5
   3C5
  8
0
  6
CONTINUOUS
 62
     1
 10
-1026.80223915065
 20
13.8377456665039
 30
0.0
 11
-1078.30223155106
 21
13.8377456665039
 31
0.0
  0
LINE
  5
   3C6
  8
0
  6
CONTINUOUS
 62
     1
 10
-1081.80223152126
 20
33.3377532958982
 30
0.0
 11
-1109.42723152126
 21
33.3377532958982
 31
0.0
  0
LINE
  5
   3C7
  8
0
  6
CONTINUOUS
 62
     1
 10
-1081.80223152126
 20
-19.1622543334961
 30
0.0
 11
-1098.80223152126
 21
-19.1622543334961
 31
0.0
  0
LINE
  5
   3C8
  8
0
  6
CONTINUOUS
 62
     1
 10
-1100.05223152126
 20
-19.1622543334961
 30
0.0
 11
-1109.42723152126
 21
-19.1622543334961
 31
0.0
  0
LINE
  5
   3C9
  8
0
  6
CONTINUOUS
 62
     1
 10
-1100.05223152126
 20
26.5877456665039
 30
0.0
 11
-1100.05223152126
 21
29.0877456665039
 31
0.0
  0
LINE
  5
   3CA
  8
0
  6
CONTINUOUS
 62
     1
 10
-1098.80223152126
 20
26.5877456665039
 30
0.0
 11
-1100.05223152126
 21
26.5877456665039
 31
0.0
  0
LINE
  5
   3CB
  8
0
  6
CONTINUOUS
 62
     1
 10
-1098.80223152126
 20
26.5877456665039
 30
0.0
 11
-1098.80223152126
 21
29.0877456665039
 31
0.0
  0
LINE
  5
   3CC
  8
0
  6
CONTINUOUS
 62
     1
 10
-1098.80223152126
 20
29.0877456665039
 30
0.0
 11
-1100.05223152126
 21
29.0877456665039
 31
0.0
  0
LINE
  5
   3CD
  8
0
  6
CONTINUOUS
 62
     1
 10
-1100.05223152126
 20
-20.1622471809387
 30
0.0
 11
-1100.05223152126
 21
-15.6622543334961
 31
0.0
  0
LINE
  5
   3CE
  8
0
  6
CONTINUOUS
 62
     1
 10
-1098.80223152126
 20
-20.1622471809387
 30
0.0
 11
-1100.05223152126
 21
-20.1622471809387
 31
0.0
  0
LINE
  5
   3CF
  8
0
  6
CONTINUOUS
 62
     1
 10
-1098.80223152126
 20
-20.1622471809387
 30
0.0
 11
-1098.80223152126
 21
-15.6622543334961
 31
0.0
  0
LINE
  5
   3D0
  8
0
  6
CONTINUOUS
 62
     1
 10
-1098.80223152126
 20
-15.6622543334961
 30
0.0
 11
-1100.05223152126
 21
-15.6622543334961
 31
0.0
  0
LINE
  5
   3D1
  8
0
  6
CONTINUOUS
 62
     1
 10
-1099.30223152126
 20
26.5877456665039
 30
0.0
 11
-1099.30223152126
 21
29.0877456665039
 31
0.0
  0
LINE
  5
   3D2
  8
0
  6
CONTINUOUS
 62
     1
 10
-1099.30222389186
 20
-20.1622471809387
 30
0.0
 11
-1099.30222389186
 21
-15.6622543334961
 31
0.0
  0
LINE
  5
   3D3
  8
0
  6
CONTINUOUS
 62
     1
 10
-1017.55223152126
 20
-19.1622467041016
 30
0.0
 11
-1023.30223152126
 21
-19.1622467041016
 31
0.0
  0
LINE
  5
   3D4
  8
0
  6
CONTINUOUS
 62
     1
 10
-1017.55223152126
 20
33.3377532958984
 30
0.0
 11
-1023.30223152126
 21
33.3377532958984
 31
0.0
  0
LINE
  5
   3D5
  8
0
  6
CONTINUOUS
 62
     2
 10
-1024.42721557617
 20
-64.7872467041016
 30
0.0
 11
-1024.42721557617
 21
-58.7872296142754
 31
0.0
  0
LINE
  5
   3D6
  8
0
  6
CONTINUOUS
 62
     2
 10
-1036.92721557617
 20
-64.7872467041016
 30
0.0
 11
-1036.92721557617
 21
-58.7872296142754
 31
0.0
  0
LINE
  5
   3D7
  8
0
  6
CONTINUOUS
 62
     2
 10
-1035.55221557617
 20
-64.7872467041016
 30
0.0
 11
-1036.92721557617
 21
-64.7872467041016
 31
0.0
  0
LINE
  5
   3D8
  8
0
  6
CONTINUOUS
 62
     2
 10
-1035.55221557617
 20
-77.2872467041016
 30
0.0
 11
-1035.55221557617
 21
-64.7872467041016
 31
0.0
  0
LINE
  5
   3D9
  8
0
  6
CONTINUOUS
 62
     2
 10
-1025.80221557617
 20
-77.2872467041016
 30
0.0
 11
-1035.55221557617
 21
-77.2872467041016
 31
0.0
  0
LINE
  5
   3DA
  8
0
  6
CONTINUOUS
 62
     2
 10
-1025.80221557617
 20
-77.2872467041016
 30
0.0
 11
-1025.80221557617
 21
-64.7872467041016
 31
0.0
  0
LINE
  5
   3DB
  8
0
  6
CONTINUOUS
 62
     2
 10
-1024.42721557617
 20
-64.7872467041016
 30
0.0
 11
-1025.80221557617
 21
-64.7872467041016
 31
0.0
  0
CIRCLE
  5
   3DC
  8
0
  6
CONTINUOUS
 62
     2
 10
-1030.67721414911
 20
-70.2872480800662
 30
0.0
 40
2.55000912211493
  0
CIRCLE
  5
   3DD
  8
0
  6
CONTINUOUS
 62
     7
 10
-1052.55221414911
 20
-70.2872480800662
 30
0.0
 40
2.55000912211493
  0
CIRCLE
  5
   3DE
  8
0
  6
CONTINUOUS
 62
     7
 10
-1074.42721414911
 20
-70.2872480800662
 30
0.0
 40
2.55000912211493
  0
CIRCLE
  5
   3DF
  8
0
  6
CONTINUOUS
 62
     7
 10
-1096.30221414911
 20
-70.2872480800662
 30
0.0
 40
2.55000912211493
  0
LINE
  5
   3E0
  8
0
  6
CONTINUOUS
 62
     7
 10
-1047.67721557617
 20
-77.2872467041016
 30
0.0
 11
-1057.42721557617
 21
-77.2872467041016
 31
0.0
  0
LINE
  5
   3E1
  8
0
  6
CONTINUOUS
 62
     7
 10
-1069.55221557617
 20
-77.2872467041016
 30
0.0
 11
-1079.30221557617
 21
-77.2872467041016
 31
0.0
  0
LINE
  5
   3E2
  8
0
  6
CONTINUOUS
 62
     7
 10
-1091.42721557617
 20
-77.2872467041016
 30
0.0
 11
-1101.17721557617
 21
-77.2872467041016
 31
0.0
  0
LINE
  5
   3E3
  8
0
  6
CONTINUOUS
 62
     7
 10
-1057.42721557617
 20
-77.2872467041016
 30
0.0
 11
-1057.42721557617
 21
-64.7872467041016
 31
0.0
  0
LINE
  5
   3E4
  8
0
  6
CONTINUOUS
 62
     7
 10
-1047.67721557617
 20
-77.2872467041016
 30
0.0
 11
-1047.67721557617
 21
-64.7872467041016
 31
0.0
  0
LINE
  5
   3E5
  8
0
  6
CONTINUOUS
 62
     7
 10
-1079.30221557617
 20
-77.2872467041016
 30
0.0
 11
-1079.30221557617
 21
-64.7872467041016
 31
0.0
  0
LINE
  5
   3E6
  8
0
  6
CONTINUOUS
 62
     7
 10
-1069.55221557617
 20
-77.2872467041016
 30
0.0
 11
-1069.55221557617
 21
-64.7872467041016
 31
0.0
  0
LINE
  5
   3E7
  8
0
  6
CONTINUOUS
 62
     7
 10
-1091.42721557617
 20
-77.2872467041016
 30
0.0
 11
-1091.42721557617
 21
-64.7872467041016
 31
0.0
  0
LINE
  5
   3E8
  8
0
  6
CONTINUOUS
 62
     7
 10
-1101.17721557617
 20
-77.2872467041016
 30
0.0
 11
-1101.17721557617
 21
-64.7872467041016
 31
0.0
  0
LINE
  5
   3E9
  8
0
  6
CONTINUOUS
 62
     7
 10
-1058.80221557617
 20
-64.7872467041016
 30
0.0
 11
-1058.80221557617
 21
-58.7872296142754
 31
0.0
  0
LINE
  5
   3EA
  8
0
  6
CONTINUOUS
 62
     7
 10
-1046.30221557617
 20
-64.7872467041016
 30
0.0
 11
-1046.30221557617
 21
-58.7872296142754
 31
0.0
  0
LINE
  5
   3EB
  8
0
  6
CONTINUOUS
 62
     7
 10
-1080.67721557617
 20
-64.7872467041016
 30
0.0
 11
-1080.67721557617
 21
-58.7872296142754
 31
0.0
  0
LINE
  5
   3EC
  8
0
  6
CONTINUOUS
 62
     7
 10
-1068.17721557617
 20
-64.7872467041016
 30
0.0
 11
-1068.17721557617
 21
-58.7872296142754
 31
0.0
  0
LINE
  5
   3ED
  8
0
  6
CONTINUOUS
 62
     7
 10
-1090.05221557617
 20
-64.7872467041016
 30
0.0
 11
-1090.05221557617
 21
-58.7872296142754
 31
0.0
  0
LINE
  5
   3EE
  8
0
  6
CONTINUOUS
 62
     7
 10
-1102.55221557617
 20
-64.7872467041016
 30
0.0
 11
-1102.55221557617
 21
-58.7872296142754
 31
0.0
  0
LINE
  5
   3EF
  8
0
  6
CONTINUOUS
 62
     7
 10
-1057.42721557617
 20
-64.7872467041016
 30
0.0
 11
-1058.80221557617
 21
-64.7872467041016
 31
0.0
  0
LINE
  5
   3F0
  8
0
  6
CONTINUOUS
 62
     7
 10
-1046.30221557617
 20
-64.7872467041016
 30
0.0
 11
-1047.67721557617
 21
-64.7872467041016
 31
0.0
  0
LINE
  5
   3F1
  8
0
  6
CONTINUOUS
 62
     7
 10
-1068.17721557617
 20
-64.7872467041016
 30
0.0
 11
-1069.55221557617
 21
-64.7872467041016
 31
0.0
  0
LINE
  5
   3F2
  8
0
  6
CONTINUOUS
 62
     7
 10
-1079.30221557617
 20
-64.7872467041016
 30
0.0
 11
-1080.67721557617
 21
-64.7872467041016
 31
0.0
  0
LINE
  5
   3F3
  8
0
  6
CONTINUOUS
 62
     7
 10
-1090.05221557617
 20
-64.7872467041016
 30
0.0
 11
-1091.42721557617
 21
-64.7872467041016
 31
0.0
  0
LINE
  5
   3F4
  8
0
  6
CONTINUOUS
 62
     7
 10
-1101.17721557617
 20
-64.7872467041016
 30
0.0
 11
-1102.55221557617
 21
-64.7872467041016
 31
0.0
  0
LINE
  5
   3F5
  8
0
  6
CONTINUOUS
 62
     7
 10
-1024.42721557617
 20
70.7127209472832
 30
0.0
 11
-1024.42721557617
 21
76.7127380371094
 31
0.0
  0
LINE
  5
   3F6
  8
0
  6
CONTINUOUS
 62
     7
 10
-1036.92721557617
 20
70.7127209472832
 30
0.0
 11
-1036.92721557617
 21
76.7127380371094
 31
0.0
  0
LINE
  5
   3F7
  8
0
  6
CONTINUOUS
 62
     7
 10
-1035.55221557617
 20
76.7127380371094
 30
0.0
 11
-1036.92721557617
 21
76.7127380371094
 31
0.0
  0
LINE
  5
   3F8
  8
0
  6
CONTINUOUS
 62
     7
 10
-1035.55221557617
 20
76.7127380371094
 30
0.0
 11
-1035.55221557617
 21
89.2127380371094
 31
0.0
  0
LINE
  5
   3F9
  8
0
  6
CONTINUOUS
 62
     7
 10
-1025.80221557617
 20
89.2127380371094
 30
0.0
 11
-1035.55221557617
 21
89.2127380371094
 31
0.0
  0
LINE
  5
   3FA
  8
0
  6
CONTINUOUS
 62
     7
 10
-1025.80221557617
 20
76.7127380371094
 30
0.0
 11
-1025.80221557617
 21
89.2127380371094
 31
0.0
  0
LINE
  5
   3FB
  8
0
  6
CONTINUOUS
 62
     7
 10
-1024.42721557617
 20
76.7127380371094
 30
0.0
 11
-1025.80221557617
 21
76.7127380371094
 31
0.0
  0
CIRCLE
  5
   3FC
  8
0
  6
CONTINUOUS
 62
     7
 10
-1030.67721414911
 20
82.212739413074
 30
0.0
 40
2.55000912211493
  0
CIRCLE
  5
   3FD
  8
0
  6
CONTINUOUS
 62
     7
 10
-1052.55221414911
 20
82.212739413074
 30
0.0
 40
2.55000912211493
  0
CIRCLE
  5
   3FE
  8
0
  6
CONTINUOUS
 62
     7
 10
-1074.42721414911
 20
82.212739413074
 30
0.0
 40
2.55000912211493
  0
CIRCLE
  5
   3FF
  8
0
  6
CONTINUOUS
 62
     7
 10
-1096.30221414911
 20
82.212739413074
 30
0.0
 40
2.55000912211493
  0
LINE
  5
   400
  8
0
  6
CONTINUOUS
 62
     7
 10
-1047.67721557617
 20
89.2127380371094
 30
0.0
 11
-1057.42721557617
 21
89.2127380371094
 31
0.0
  0
LINE
  5
   401
  8
0
  6
CONTINUOUS
 62
     7
 10
-1069.55221557617
 20
89.2127380371094
 30
0.0
 11
-1079.30221557617
 21
89.2127380371094
 31
0.0
  0
LINE
  5
   402
  8
0
  6
CONTINUOUS
 62
     7
 10
-1091.42721557617
 20
89.2127380371094
 30
0.0
 11
-1101.17721557617
 21
89.2127380371094
 31
0.0
  0
LINE
  5
   403
  8
0
  6
CONTINUOUS
 62
     7
 10
-1057.42721557617
 20
76.7127380371094
 30
0.0
 11
-1057.42721557617
 21
89.2127380371094
 31
0.0
  0
LINE
  5
   404
  8
0
  6
CONTINUOUS
 62
     7
 10
-1047.67721557617
 20
76.7127380371094
 30
0.0
 11
-1047.67721557617
 21
89.2127380371094
 31
0.0
  0
LINE
  5
   405
  8
0
  6
CONTINUOUS
 62
     7
 10
-1079.30221557617
 20
76.7127380371094
 30
0.0
 11
-1079.30221557617
 21
89.2127380371094
 31
0.0
  0
LINE
  5
   406
  8
0
  6
CONTINUOUS
 62
     7
 10
-1069.55221557617
 20
76.7127380371094
 30
0.0
 11
-1069.55221557617
 21
89.2127380371094
 31
0.0
  0
LINE
  5
   407
  8
0
  6
CONTINUOUS
 62
     7
 10
-1091.42721557617
 20
76.7127380371094
 30
0.0
 11
-1091.42721557617
 21
89.2127380371094
 31
0.0
  0
LINE
  5
   408
  8
0
  6
CONTINUOUS
 62
     7
 10
-1101.17721557617
 20
76.7127380371094
 30
0.0
 11
-1101.17721557617
 21
89.2127380371094
 31
0.0
  0
LINE
  5
   409
  8
0
  6
CONTINUOUS
 62
     7
 10
-1058.80221557617
 20
70.7127209472832
 30
0.0
 11
-1058.80221557617
 21
76.7127380371094
 31
0.0
  0
LINE
  5
   40A
  8
0
  6
CONTINUOUS
 62
     7
 10
-1046.30221557617
 20
70.7127209472832
 30
0.0
 11
-1046.30221557617
 21
76.7127380371094
 31
0.0
  0
LINE
  5
   40B
  8
0
  6
CONTINUOUS
 62
     7
 10
-1080.67721557617
 20
70.7127209472832
 30
0.0
 11
-1080.67721557617
 21
76.7127380371094
 31
0.0
  0
LINE
  5
   40C
  8
0
  6
CONTINUOUS
 62
     7
 10
-1068.17721557617
 20
70.7127209472832
 30
0.0
 11
-1068.17721557617
 21
76.7127380371094
 31
0.0
  0
LINE
  5
   40D
  8
0
  6
CONTINUOUS
 62
     7
 10
-1090.05221557617
 20
70.7127209472832
 30
0.0
 11
-1090.05221557617
 21
76.7127380371094
 31
0.0
  0
LINE
  5
   40E
  8
0
  6
CONTINUOUS
 62
     7
 10
-1102.55221557617
 20
70.7127209472832
 30
0.0
 11
-1102.55221557617
 21
76.7127380371094
 31
0.0
  0
LINE
  5
   40F
  8
0
  6
CONTINUOUS
 62
     7
 10
-1057.42721557617
 20
76.7127380371094
 30
0.0
 11
-1058.80221557617
 21
76.7127380371094
 31
0.0
  0
LINE
  5
   410
  8
0
  6
CONTINUOUS
 62
     7
 10
-1046.30221557617
 20
76.7127380371094
 30
0.0
 11
-1047.67721557617
 21
76.7127380371094
 31
0.0
  0
LINE
  5
   411
  8
0
  6
CONTINUOUS
 62
     7
 10
-1068.17721557617
 20
76.7127380371094
 30
0.0
 11
-1069.55221557617
 21
76.7127380371094
 31
0.0
  0
LINE
  5
   412
  8
0
  6
CONTINUOUS
 62
     7
 10
-1079.30221557617
 20
76.7127380371094
 30
0.0
 11
-1080.67721557617
 21
76.7127380371094
 31
0.0
  0
LINE
  5
   413
  8
0
  6
CONTINUOUS
 62
     7
 10
-1090.05221557617
 20
76.7127380371094
 30
0.0
 11
-1091.42721557617
 21
76.7127380371094
 31
0.0
  0
LINE
  5
   414
  8
0
  6
CONTINUOUS
 62
     7
 10
-1101.17721557617
 20
76.7127380371094
 30
0.0
 11
-1102.55221557617
 21
76.7127380371094
 31
0.0
  0
LINE
  5
   415
  8
0
  6
DASHDOT
 62
     7
 10
-1096.30221414911
 20
-73.8372572021811
 30
0.0
 11
-1096.30221414911
 21
-66.7372389579513
 31
0.0
  0
LINE
  5
   416
  8
0
  6
DASHDOT
 62
     7
 10
-1092.752205027
 20
-70.2872480800662
 30
0.0
 11
-1099.85222327123
 21
-70.2872480800662
 31
0.0
  0
LINE
  5
   417
  8
0
  6
DASHDOT
 62
     7
 10
-1074.42721414911
 20
-73.8372572021811
 30
0.0
 11
-1074.42721414911
 21
-66.7372389579513
 31
0.0
  0
LINE
  5
   418
  8
0
  6
DASHDOT
 62
     7
 10
-1070.877205027
 20
-70.2872480800662
 30
0.0
 11
-1077.97722327123
 21
-70.2872480800662
 31
0.0
  0
LINE
  5
   419
  8
0
  6
DASHDOT
 62
     7
 10
-1052.55221414911
 20
-68.8372572021811
 30
0.0
 11
-1052.55221414911
 21
-61.7372389579513
 31
0.0
  0
LINE
  5
   41A
  8
0
  6
DASHDOT
 62
     7
 10
-1049.002205027
 20
-70.2872480800662
 30
0.0
 11
-1056.10222327123
 21
-70.2872480800662
 31
0.0
  0
LINE
  5
   41B
  8
0
  6
DASHDOT
 62
     7
 10
-1030.67721414911
 20
-73.8372572021811
 30
0.0
 11
-1030.67721414911
 21
-66.7372389579513
 31
0.0
  0
LINE
  5
   41C
  8
0
  6
DASHDOT
 62
     7
 10
-1027.127205027
 20
-70.2872480800662
 30
0.0
 11
-1034.22722327123
 21
-70.2872480800662
 31
0.0
  0
LINE
  5
   41D
  8
0
  6
DASHDOT
 62
     7
 10
-1096.30221414911
 20
78.6627302909591
 30
0.0
 11
-1096.30221414911
 21
85.7627485351889
 31
0.0
  0
LINE
  5
   41E
  8
0
  6
DASHDOT
 62
     7
 10
-1092.752205027
 20
82.212739413074
 30
0.0
 11
-1099.85222327123
 21
82.212739413074
 31
0.0
  0
LINE
  5
   41F
  8
0
  6
DASHDOT
 62
     7
 10
-1074.42721414911
 20
78.6627302909591
 30
0.0
 11
-1074.42721414911
 21
85.7627485351889
 31
0.0
  0
LINE
  5
   420
  8
0
  6
DASHDOT
 62
     7
 10
-1070.877205027
 20
82.212739413074
 30
0.0
 11
-1077.97722327123
 21
82.212739413074
 31
0.0
  0
LINE
  5
   421
  8
0
  6
DASHDOT
 62
     7
 10
-1052.55221414911
 20
73.6627302909591
 30
0.0
 11
-1052.55221414911
 21
80.7627485351889
 31
0.0
  0
LINE
  5
   422
  8
0
  6
DASHDOT
 62
     7
 10
-1049.002205027
 20
82.212739413074
 30
0.0
 11
-1056.10222327123
 21
82.212739413074
 31
0.0
  0
LINE
  5
   423
  8
0
  6
DASHDOT
 62
     7
 10
-1030.67721414911
 20
78.6627302909591
 30
0.0
 11
-1030.67721414911
 21
85.7627485351889
 31
0.0
  0
LINE
  5
   424
  8
0
  6
DASHDOT
 62
     7
 10
-1027.127205027
 20
82.212739413074
 30
0.0
 11
-1034.22722327123
 21
82.212739413074
 31
0.0
  0
LINE
  5
   425
  8
0
  6
CONTINUOUS
 62
     2
 10
-1018.11472073743
 20
56.2127285766765
 30
0.0
 11
-1108.86472073743
 21
56.2127285766765
 31
0.0
  0
LINE
  5
   426
  8
0
  6
CONTINUOUS
 62
     2
 10
-1018.30221557617
 20
70.7127209472832
 30
0.0
 11
-1108.67720794888
 21
70.7127209472832
 31
0.0
  0
LINE
  5
   427
  8
0
  6
CONTINUOUS
 62
     2
 10
-1107.26471463391
 20
-26.7872467339039
 30
0.0
 11
-1107.26471463391
 21
70.7127209472832
 31
0.0
  0
LINE
  5
   428
  8
0
  6
CONTINUOUS
 62
     2
 10
-1105.46471921155
 20
-26.7872467339039
 30
0.0
 11
-1105.46471921155
 21
70.7127209472832
 31
0.0
  0
LINE
  5
   429
  8
0
  6
CONTINUOUS
 62
     2
 10
-1103.66471615979
 20
-26.7872467339039
 30
0.0
 11
-1103.66471615979
 21
70.7127209472832
 31
0.0
  0
LINE
  5
   42A
  8
0
  6
CONTINUOUS
 62
     2
 10
-1101.86471310803
 20
-26.7872467339039
 30
0.0
 11
-1101.86471310803
 21
70.7127209472832
 31
0.0
  0
LINE
  5
   42B
  8
0
  6
CONTINUOUS
 62
     2
 10
-1100.06471768567
 20
-26.7872467339039
 30
0.0
 11
-1100.06471768567
 21
70.7127209472832
 31
0.0
  0
LINE
  5
   42C
  8
0
  6
CONTINUOUS
 62
     2
 10
-1098.26471463391
 20
-26.7872467339039
 30
0.0
 11
-1098.26471463391
 21
70.7127209472832
 31
0.0
  0
LINE
  5
   42D
  8
0
  6
CONTINUOUS
 62
     2
 10
-1096.46471921155
 20
-26.7872467339039
 30
0.0
 11
-1096.46471921155
 21
70.7127209472832
 31
0.0
  0
LINE
  5
   42E
  8
0
  6
CONTINUOUS
 62
     2
 10
-1094.66472045132
 20
-26.7872467339039
 30
0.0
 11
-1094.66472045132
 21
70.7127209472832
 31
0.0
  0
LINE
  5
   42F
  8
0
  6
CONTINUOUS
 62
     2
 10
-1092.86472026059
 20
-26.7872467339039
 30
0.0
 11
-1092.86472026059
 21
70.7127209472832
 31
0.0
  0
LINE
  5
   430
  8
0
  6
CONTINUOUS
 62
     2
 10
-1091.06472054669
 20
-26.7872467339039
 30
0.0
 11
-1091.06472054669
 21
70.7127209472832
 31
0.0
  0
LINE
  5
   431
  8
0
  6
CONTINUOUS
 62
     2
 10
-1089.26472035596
 20
-26.7872467339039
 30
0.0
 11
-1089.26472035596
 21
70.7127209472832
 31
0.0
  0
LINE
  5
   432
  8
0
  6
CONTINUOUS
 62
     2
 10
-1087.46472076127
 20
-26.7872467339039
 30
0.0
 11
-1087.46472076127
 21
70.7127209472832
 31
0.0
  0
LINE
  5
   433
  8
0
  6
CONTINUOUS
 62
     2
 10
-1085.66472092816
 20
-26.7872467339039
 30
0.0
 11
-1085.66472092816
 21
70.7127209472832
 31
0.0
  0
LINE
  5
   434
  8
0
  6
CONTINUOUS
 62
     2
 10
-1083.86472073743
 20
-26.7872467339039
 30
0.0
 11
-1083.86472073743
 21
70.7127209472832
 31
0.0
  0
LINE
  5
   435
  8
0
  6
CONTINUOUS
 62
     2
 10
-1082.06472102353
 20
-26.7872467339039
 30
0.0
 11
-1082.06472102353
 21
70.7127209472832
 31
0.0
  0
LINE
  5
   436
  8
0
  6
CONTINUOUS
 62
     2
 10
-1080.26472083279
 20
47.0877532958984
 30
0.0
 11
-1080.26472083279
 21
70.7127209472832
 31
0.0
  0
LINE
  5
   437
  8
0
  6
CONTINUOUS
 62
     2
 10
-1078.46472684094
 20
56.7127285468753
 30
0.0
 11
-1078.46472684094
 21
70.7127209472832
 31
0.0
  0
LINE
  5
   438
  8
0
  6
CONTINUOUS
 62
     2
 10
-1076.66472378918
 20
56.7127285468753
 30
0.0
 11
-1076.66472378918
 21
70.7127209472832
 31
0.0
  0
LINE
  5
   439
  8
0
  6
CONTINUOUS
 62
     2
 10
-1074.86472073743
 20
56.7127285468753
 30
0.0
 11
-1074.86472073743
 21
70.7127209472832
 31
0.0
  0
LINE
  5
   43A
  8
0
  6
CONTINUOUS
 62
     2
 10
-1073.06472531506
 20
56.7127285468753
 30
0.0
 11
-1073.06472531506
 21
70.7127209472832
 31
0.0
  0
LINE
  5
   43B
  8
0
  6
CONTINUOUS
 62
     2
 10
-1071.26472226331
 20
56.7127285468753
 30
0.0
 11
-1071.26472226331
 21
70.7127209472832
 31
0.0
  0
LINE
  5
   43C
  8
0
  6
CONTINUOUS
 62
     2
 10
-1069.46472684094
 20
56.7127285468753
 30
0.0
 11
-1069.46472684094
 21
70.7127209472832
 31
0.0
  0
LINE
  5
   43D
  8
0
  6
CONTINUOUS
 62
     2
 10
-1067.66472378918
 20
56.7127285468753
 30
0.0
 11
-1067.66472378918
 21
70.7127209472832
 31
0.0
  0
LINE
  5
   43E
  8
0
  6
CONTINUOUS
 62
     2
 10
-1065.86472073743
 20
56.7127285468753
 30
0.0
 11
-1065.86472073743
 21
70.7127209472832
 31
0.0
  0
LINE
  5
   43F
  8
0
  6
CONTINUOUS
 62
     2
 10
-1064.06472531506
 20
56.7127285468753
 30
0.0
 11
-1064.06472531506
 21
70.7127209472832
 31
0.0
  0
LINE
  5
   440
  8
0
  6
CONTINUOUS
 62
     2
 10
-1062.26472226331
 20
56.7127285468753
 30
0.0
 11
-1062.26472226331
 21
70.7127209472832
 31
0.0
  0
LINE
  5
   441
  8
0
  6
CONTINUOUS
 62
     2
 10
-1060.46472684094
 20
56.7127285468753
 30
0.0
 11
-1060.46472684094
 21
70.7127209472832
 31
0.0
  0
LINE
  5
   442
  8
0
  6
CONTINUOUS
 62
     2
 10
-1058.66472378918
 20
56.7127285468753
 30
0.0
 11
-1058.66472378918
 21
70.7127209472832
 31
0.0
  0
LINE
  5
   443
  8
0
  6
CONTINUOUS
 62
     2
 10
-1056.86472073743
 20
56.7127285468753
 30
0.0
 11
-1056.86472073743
 21
70.7127209472832
 31
0.0
  0
LINE
  5
   444
  8
0
  6
CONTINUOUS
 62
     2
 10
-1055.06472531506
 20
56.7127285468753
 30
0.0
 11
-1055.06472531506
 21
70.7127209472832
 31
0.0
  0
LINE
  5
   445
  8
0
  6
CONTINUOUS
 62
     2
 10
-1053.26472226331
 20
56.7127285468753
 30
0.0
 11
-1053.26472226331
 21
70.7127209472832
 31
0.0
  0
LINE
  5
   446
  8
0
  6
CONTINUOUS
 62
     2
 10
-1051.46472684094
 20
56.7127285468753
 30
0.0
 11
-1051.46472684094
 21
70.7127209472832
 31
0.0
  0
LINE
  5
   447
  8
0
  6
CONTINUOUS
 62
     2
 10
-1049.66472378918
 20
56.7127285468753
 30
0.0
 11
-1049.66472378918
 21
70.7127209472832
 31
0.0
  0
LINE
  5
   448
  8
0
  6
CONTINUOUS
 62
     2
 10
-1047.86472073743
 20
56.7127285468753
 30
0.0
 11
-1047.86472073743
 21
70.7127209472832
 31
0.0
  0
LINE
  5
   449
  8
0
  6
CONTINUOUS
 62
     2
 10
-1046.06472531506
 20
56.7127285468753
 30
0.0
 11
-1046.06472531506
 21
70.7127209472832
 31
0.0
  0
LINE
  5
   44A
  8
0
  6
CONTINUOUS
 62
     2
 10
-1044.26472226331
 20
56.7127285468753
 30
0.0
 11
-1044.26472226331
 21
70.7127209472832
 31
0.0
  0
LINE
  5
   44B
  8
0
  6
CONTINUOUS
 62
     2
 10
-1042.46472684094
 20
56.7127285468753
 30
0.0
 11
-1042.46472684094
 21
70.7127209472832
 31
0.0
  0
LINE
  5
   44C
  8
0
  6
CONTINUOUS
 62
     2
 10
-1040.66472378918
 20
56.7127285468753
 30
0.0
 11
-1040.66472378918
 21
70.7127209472832
 31
0.0
  0
LINE
  5
   44D
  8
0
  6
CONTINUOUS
 62
     2
 10
-1038.86472073743
 20
56.7127285468753
 30
0.0
 11
-1038.86472073743
 21
70.7127209472832
 31
0.0
  0
LINE
  5
   44E
  8
0
  6
CONTINUOUS
 62
     2
 10
-1037.06472531506
 20
56.7127285468753
 30
0.0
 11
-1037.06472531506
 21
70.7127209472832
 31
0.0
  0
LINE
  5
   44F
  8
0
  6
CONTINUOUS
 62
     2
 10
-1035.26472226331
 20
56.7127285468753
 30
0.0
 11
-1035.26472226331
 21
70.7127209472832
 31
0.0
  0
LINE
  5
   450
  8
0
  6
CONTINUOUS
 62
     2
 10
-1033.46472684094
 20
56.7127285468753
 30
0.0
 11
-1033.46472684094
 21
70.7127209472832
 31
0.0
  0
LINE
  5
   451
  8
0
  6
CONTINUOUS
 62
     2
 10
-1031.66472378918
 20
56.7127285468753
 30
0.0
 11
-1031.66472378918
 21
70.7127209472832
 31
0.0
  0
LINE
  5
   452
  8
0
  6
CONTINUOUS
 62
     2
 10
-1029.86472073743
 20
56.7127285468753
 30
0.0
 11
-1029.86472073743
 21
70.7127209472832
 31
0.0
  0
LINE
  5
   453
  8
0
  6
CONTINUOUS
 62
     2
 10
-1028.06472531506
 20
56.7127285468753
 30
0.0
 11
-1028.06472531506
 21
70.7127209472832
 31
0.0
  0
LINE
  5
   454
  8
0
  6
CONTINUOUS
 62
     2
 10
-1026.26472226331
 20
47.0877532958984
 30
0.0
 11
-1026.26472226331
 21
70.7127209472832
 31
0.0
  0
LINE
  5
   455
  8
0
  6
CONTINUOUS
 62
     2
 10
-1024.46472684094
 20
47.0877532958984
 30
0.0
 11
-1024.46472684094
 21
70.7127209472832
 31
0.0
  0
LINE
  5
   456
  8
0
  6
CONTINUOUS
 62
     2
 10
-1022.66472378918
 20
-26.7872467339039
 30
0.0
 11
-1022.66472378918
 21
70.7127209472832
 31
0.0
  0
LINE
  5
   457
  8
0
  6
CONTINUOUS
 62
     2
 10
-1020.86472073743
 20
-26.7872467339039
 30
0.0
 11
-1020.86472073743
 21
70.7127209472832
 31
0.0
  0
LINE
  5
   458
  8
0
  6
CONTINUOUS
 62
     2
 10
-1019.06472531506
 20
-26.7872467339039
 30
0.0
 11
-1019.06472531506
 21
70.7127209472832
 31
0.0
  0
LINE
  5
   459
  8
0
  6
CONTINUOUS
 62
     2
 10
-1108.86471310803
 20
56.7127285468754
 30
0.0
 11
-1109.36471310803
 21
56.7127285468754
 31
0.0
  0
LINE
  5
   45A
  8
0
  6
CONTINUOUS
 62
     2
 10
-1108.8647207399
 20
56.2127285766035
 30
0.0
 11
-1108.86471311051
 21
56.7127285465684
 31
0.0
  0
LINE
  5
   45B
  8
0
  6
CONTINUOUS
 62
     2
 10
-1017.61472073743
 20
56.7127285468754
 30
0.0
 11
-1018.11472073743
 21
56.7127285468754
 31
0.0
  0
LINE
  5
   45C
  8
0
  6
CONTINUOUS
 62
     2
 10
-1018.11472073743
 20
56.2127285766776
 30
0.0
 11
-1018.11472073743
 21
56.7127285468753
 31
0.0
  0
LINE
  5
   45D
  8
0
  6
CONTINUOUS
 62
     2
 10
-1018.11472073743
 20
56.7127285468754
 30
0.0
 11
-1108.86471310803
 21
56.7127285468754
 31
0.0
  0
LINE
  5
   45E
  8
0
  6
CONTINUOUS
 62
     2
 10
-1018.11472073743
 20
-44.2872372436687
 30
0.0
 11
-1108.86472073743
 21
-44.2872372436687
 31
0.0
  0
LINE
  5
   45F
  8
0
  6
CONTINUOUS
 62
     2
 10
-1018.30223132563
 20
-58.7872296142754
 30
0.0
 11
-1108.67723132563
 21
-58.7872296142754
 31
0.0
  0
LINE
  5
   460
  8
0
  6
CONTINUOUS
 62
     2
 10
-1107.26471463391
 20
-58.7872296142754
 30
0.0
 11
-1107.26471463391
 21
-27.7872296142755
 31
0.0
  0
LINE
  5
   461
  8
0
  6
CONTINUOUS
 62
     2
 10
-1105.46471921155
 20
-58.7872296142754
 30
0.0
 11
-1105.46471921155
 21
-27.7872296142755
 31
0.0
  0
LINE
  5
   462
  8
0
  6
CONTINUOUS
 62
     2
 10
-1103.66471615979
 20
-58.7872296142754
 30
0.0
 11
-1103.66471615979
 21
-27.7872296142755
 31
0.0
  0
LINE
  5
   463
  8
0
  6
CONTINUOUS
 62
     2
 10
-1101.86471310803
 20
-58.7872296142754
 30
0.0
 11
-1101.86471310803
 21
-27.7872296142755
 31
0.0
  0
LINE
  5
   464
  8
0
  6
CONTINUOUS
 62
     2
 10
-1100.06471768567
 20
-58.7872296142754
 30
0.0
 11
-1100.06471768567
 21
-27.7872296142755
 31
0.0
  0
LINE
  5
   465
  8
0
  6
CONTINUOUS
 62
     2
 10
-1098.26471463391
 20
-58.7872296142754
 30
0.0
 11
-1098.26471463391
 21
-27.7872296142755
 31
0.0
  0
LINE
  5
   466
  8
0
  6
CONTINUOUS
 62
     2
 10
-1096.46471921155
 20
-58.7872296142754
 30
0.0
 11
-1096.46471921155
 21
-27.7872296142755
 31
0.0
  0
LINE
  5
   467
  8
0
  6
CONTINUOUS
 62
     2
 10
-1094.66472045132
 20
-58.7872296142754
 30
0.0
 11
-1094.66472045132
 21
-27.7872296142755
 31
0.0
  0
LINE
  5
   468
  8
0
  6
CONTINUOUS
 62
     2
 10
-1092.86472026059
 20
-58.7872296142754
 30
0.0
 11
-1092.86472026059
 21
-27.7872296142755
 31
0.0
  0
LINE
  5
   469
  8
0
  6
CONTINUOUS
 62
     2
 10
-1091.06472054669
 20
-58.7872296142754
 30
0.0
 11
-1091.06472054669
 21
-27.7872296142755
 31
0.0
  0
LINE
  5
   46A
  8
0
  6
CONTINUOUS
 62
     2
 10
-1089.26472035596
 20
-58.7872296142754
 30
0.0
 11
-1089.26472035596
 21
-27.7872296142755
 31
0.0
  0
LINE
  5
   46B
  8
0
  6
CONTINUOUS
 62
     2
 10
-1087.46472076127
 20
-58.7872296142754
 30
0.0
 11
-1087.46472076127
 21
-27.7872296142755
 31
0.0
  0
LINE
  5
   46C
  8
0
  6
CONTINUOUS
 62
     2
 10
-1085.66472092816
 20
-58.7872296142754
 30
0.0
 11
-1085.66472092816
 21
-27.7872296142755
 31
0.0
  0
LINE
  5
   46D
  8
0
  6
CONTINUOUS
 62
     2
 10
-1083.86472073743
 20
-58.7872296142754
 30
0.0
 11
-1083.86472073743
 21
-27.7872296142755
 31
0.0
  0
LINE
  5
   46E
  8
0
  6
CONTINUOUS
 62
     2
 10
-1082.06472102353
 20
-58.7872296142754
 30
0.0
 11
-1082.06472102353
 21
-27.7872296142755
 31
0.0
  0
LINE
  5
   46F
  8
0
  6
CONTINUOUS
 62
     2
 10
-1080.26472083279
 20
-58.7872296142754
 30
0.0
 11
-1080.26472083279
 21
-33.4122447967529
 31
0.0
  0
LINE
  5
   470
  8
0
  6
CONTINUOUS
 62
     2
 10
-1078.46472684094
 20
-58.7872296142754
 30
0.0
 11
-1078.46472684094
 21
-44.7872372138676
 31
0.0
  0
LINE
  5
   471
  8
0
  6
CONTINUOUS
 62
     2
 10
-1076.66472378918
 20
-58.7872296142754
 30
0.0
 11
-1076.66472378918
 21
-44.7872372138676
 31
0.0
  0
LINE
  5
   472
  8
0
  6
CONTINUOUS
 62
     2
 10
-1074.86472073743
 20
-58.7872296142754
 30
0.0
 11
-1074.86472073743
 21
-44.7872372138676
 31
0.0
  0
LINE
  5
   473
  8
0
  6
CONTINUOUS
 62
     2
 10
-1073.06472531506
 20
-58.7872296142754
 30
0.0
 11
-1073.06472531506
 21
-44.7872372138676
 31
0.0
  0
LINE
  5
   474
  8
0
  6
CONTINUOUS
 62
     2
 10
-1071.2647222633
 20
-58.7872296142754
 30
0.0
 11
-1071.2647222633
 21
-44.7872372138676
 31
0.0
  0
LINE
  5
   475
  8
0
  6
CONTINUOUS
 62
     2
 10
-1069.46472684094
 20
-58.7872296142754
 30
0.0
 11
-1069.46472684094
 21
-44.7872372138676
 31
0.0
  0
LINE
  5
   476
  8
0
  6
CONTINUOUS
 62
     2
 10
-1067.66472378918
 20
-58.7872296142754
 30
0.0
 11
-1067.66472378918
 21
-44.7872372138676
 31
0.0
  0
LINE
  5
   477
  8
0
  6
CONTINUOUS
 62
     2
 10
-1065.86472073743
 20
-58.7872296142754
 30
0.0
 11
-1065.86472073743
 21
-44.7872372138676
 31
0.0
  0
LINE
  5
   478
  8
0
  6
CONTINUOUS
 62
     2
 10
-1064.06472531506
 20
-58.7872296142754
 30
0.0
 11
-1064.06472531506
 21
-44.7872372138676
 31
0.0
  0
LINE
  5
   479
  8
0
  6
CONTINUOUS
 62
     2
 10
-1062.2647222633
 20
-58.7872296142754
 30
0.0
 11
-1062.2647222633
 21
-44.7872372138676
 31
0.0
  0
LINE
  5
   47A
  8
0
  6
CONTINUOUS
 62
     2
 10
-1060.46472684094
 20
-58.7872296142754
 30
0.0
 11
-1060.46472684094
 21
-44.7872372138676
 31
0.0
  0
LINE
  5
   47B
  8
0
  6
CONTINUOUS
 62
     2
 10
-1058.66472378918
 20
-58.7872296142754
 30
0.0
 11
-1058.66472378918
 21
-44.7872372138676
 31
0.0
  0
LINE
  5
   47C
  8
0
  6
CONTINUOUS
 62
     2
 10
-1056.86472073743
 20
-58.7872296142754
 30
0.0
 11
-1056.86472073743
 21
-44.7872372138676
 31
0.0
  0
LINE
  5
   47D
  8
0
  6
CONTINUOUS
 62
     2
 10
-1055.06472531506
 20
-58.7872296142754
 30
0.0
 11
-1055.06472531506
 21
-44.7872372138676
 31
0.0
  0
LINE
  5
   47E
  8
0
  6
CONTINUOUS
 62
     2
 10
-1053.2647222633
 20
-58.7872296142754
 30
0.0
 11
-1053.2647222633
 21
-44.7872372138676
 31
0.0
  0
LINE
  5
   47F
  8
0
  6
CONTINUOUS
 62
     2
 10
-1051.46472684094
 20
-58.7872296142754
 30
0.0
 11
-1051.46472684094
 21
-44.7872372138676
 31
0.0
  0
LINE
  5
   480
  8
0
  6
CONTINUOUS
 62
     2
 10
-1049.66472378918
 20
-58.7872296142754
 30
0.0
 11
-1049.66472378918
 21
-44.7872372138676
 31
0.0
  0
LINE
  5
   481
  8
0
  6
CONTINUOUS
 62
     2
 10
-1047.86472073743
 20
-58.7872296142754
 30
0.0
 11
-1047.86472073743
 21
-44.7872372138676
 31
0.0
  0
LINE
  5
   482
  8
0
  6
CONTINUOUS
 62
     2
 10
-1046.06472531506
 20
-58.7872296142754
 30
0.0
 11
-1046.06472531506
 21
-44.7872372138676
 31
0.0
  0
LINE
  5
   483
  8
0
  6
CONTINUOUS
 62
     2
 10
-1044.26472226331
 20
-58.7872296142754
 30
0.0
 11
-1044.26472226331
 21
-44.7872372138676
 31
0.0
  0
LINE
  5
   484
  8
0
  6
CONTINUOUS
 62
     2
 10
-1042.46472684094
 20
-58.7872296142754
 30
0.0
 11
-1042.46472684094
 21
-44.7872372138676
 31
0.0
  0
LINE
  5
   485
  8
0
  6
CONTINUOUS
 62
     2
 10
-1040.66472378918
 20
-58.7872296142754
 30
0.0
 11
-1040.66472378918
 21
-44.7872372138676
 31
0.0
  0
LINE
  5
   486
  8
0
  6
CONTINUOUS
 62
     2
 10
-1038.86472073743
 20
-58.7872296142754
 30
0.0
 11
-1038.86472073743
 21
-44.7872372138676
 31
0.0
  0
LINE
  5
   487
  8
0
  6
CONTINUOUS
 62
     2
 10
-1037.06472531506
 20
-58.7872296142754
 30
0.0
 11
-1037.06472531506
 21
-44.7872372138676
 31
0.0
  0
LINE
  5
   488
  8
0
  6
CONTINUOUS
 62
     2
 10
-1035.2647222633
 20
-58.7872296142754
 30
0.0
 11
-1035.2647222633
 21
-44.7872372138676
 31
0.0
  0
LINE
  5
   489
  8
0
  6
CONTINUOUS
 62
     2
 10
-1033.46472684094
 20
-58.7872296142754
 30
0.0
 11
-1033.46472684094
 21
-44.7872372138676
 31
0.0
  0
LINE
  5
   48A
  8
0
  6
CONTINUOUS
 62
     2
 10
-1031.66472378918
 20
-58.7872296142754
 30
0.0
 11
-1031.66472378918
 21
-44.7872372138676
 31
0.0
  0
LINE
  5
   48B
  8
0
  6
CONTINUOUS
 62
     2
 10
-1029.86472073743
 20
-58.7872296142754
 30
0.0
 11
-1029.86472073743
 21
-44.7872372138676
 31
0.0
  0
LINE
  5
   48C
  8
0
  6
CONTINUOUS
 62
     2
 10
-1028.06472531506
 20
-58.7872296142754
 30
0.0
 11
-1028.06472531506
 21
-44.7872372138676
 31
0.0
  0
LINE
  5
   48D
  8
0
  6
CONTINUOUS
 62
     2
 10
-1026.26472226331
 20
-58.7872296142754
 30
0.0
 11
-1026.26472226331
 21
-33.4122447967529
 31
0.0
  0
LINE
  5
   48E
  8
0
  6
CONTINUOUS
 62
     2
 10
-1024.46472684094
 20
-58.7872296142754
 30
0.0
 11
-1024.46472684094
 21
-33.4122447967529
 31
0.0
  0
LINE
  5
   48F
  8
0
  6
CONTINUOUS
 62
     2
 10
-1022.66472378918
 20
-58.7872296142754
 30
0.0
 11
-1022.66472378918
 21
-27.7872296142755
 31
0.0
  0
LINE
  5
   490
  8
0
  6
CONTINUOUS
 62
     2
 10
-1020.86472073743
 20
-58.7872296142754
 30
0.0
 11
-1020.86472073743
 21
-27.7872296142755
 31
0.0
  0
LINE
  5
   491
  8
0
  6
CONTINUOUS
 62
     2
 10
-1019.06472531506
 20
-58.7872296142754
 30
0.0
 11
-1019.06472531506
 21
-27.7872296142755
 31
0.0
  0
LINE
  5
   492
  8
0
  6
CONTINUOUS
 62
     2
 10
-1108.86471310803
 20
-44.7872372138676
 30
0.0
 11
-1109.36471310803
 21
-44.7872372138676
 31
0.0
  0
LINE
  5
   493
  8
0
  6
CONTINUOUS
 62
     2
 10
-1108.86471311051
 20
-44.7872372135606
 30
0.0
 11
-1108.8647207399
 21
-44.2872372435957
 31
0.0
  0
LINE
  5
   494
  8
0
  6
CONTINUOUS
 62
     2
 10
-1017.61472073743
 20
-44.7872372138676
 30
0.0
 11
-1018.11472073743
 21
-44.7872372138676
 31
0.0
  0
LINE
  5
   495
  8
0
  6
CONTINUOUS
 62
     2
 10
-1018.11472073743
 20
-44.7872372138675
 30
0.0
 11
-1018.11472073743
 21
-44.2872372436698
 31
0.0
  0
LINE
  5
   496
  8
0
  6
CONTINUOUS
 62
     2
 10
-1018.11472073743
 20
-44.7872372138676
 30
0.0
 11
-1108.86471310803
 21
-44.7872372138676
 31
0.0
  0
ARC
  5
   497
  8
0
  6
CONTINUOUS
 62
     7
 10
-1108.67720794888
 20
69.9627209472832
 30
0.0
 40
0.75
 50
89.9999999480344
 51
179.999999948034
  0
ARC
  5
   498
  8
0
  6
CONTINUOUS
 62
     7
 10
-1018.30221557617
 20
69.9627209472832
 30
0.0
 40
0.75
 50
359.999999948034
 51
449.999999948034
  0
ARC
  5
   499
  8
0
  6
CONTINUOUS
 62
     7
 10
-1018.30223132563
 20
-58.0372296142754
 30
0.0
 40
0.75
 50
269.999999948034
 51
359.999999948034
  0
ARC
  5
   49A
  8
0
  6
CONTINUOUS
 62
     7
 10
-1108.67723132563
 20
-58.0372296142754
 30
0.0
 40
0.75
 50
179.999999948034
 51
269.999999948034
  0
LINE
  5
   49B
  8
0
  6
DASHDOT
 62
     3
 10
-1008.473210866
 20
6.83775329589844
 30
0.0
 11
-1117.52240201074
 21
6.83775329589844
 31
0.0
  0
LINE
  5
   49C
  8
0
  6
CONTINUOUS
 62
     2
 10
-1024.42721557617
 20
74.5684080992073
 30
0.0
 11
-1036.92721557617
 21
74.5684080992073
 31
0.0
  0
LINE
  5
   49D
  8
0
  6
CONTINUOUS
 62
     2
 10
-1024.42721557617
 20
73.269369993268
 30
0.0
 11
-1036.92721557617
 21
73.269369993268
 31
0.0
  0
LINE
  5
   49E
  8
0
  6
CONTINUOUS
 62
     2
 10
-1024.42721557617
 20
75.0014208011266
 30
0.0
 11
-1036.92721557617
 21
75.0014208011266
 31
0.0
  0
LINE
  5
   49F
  8
0
  6
CONTINUOUS
 62
     2
 10
-1046.30221557617
 20
-61.3438786602602
 30
0.0
 11
-1058.80221557617
 21
-61.3438786602602
 31
0.0
  0
LINE
  5
   4A0
  8
0
  6
CONTINUOUS
 62
     2
 10
-1046.30221557617
 20
-62.6429167662361
 30
0.0
 11
-1058.80221557617
 21
-62.6429167662361
 31
0.0
  0
LINE
  5
   4A1
  8
0
  6
CONTINUOUS
 62
     2
 10
-1046.30221557617
 20
-63.0759294680901
 30
0.0
 11
-1058.80221557617
 21
-63.0759294680901
 31
0.0
  0
LINE
  5
   4A2
  8
0
  6
CONTINUOUS
 62
     2
 10
-1068.17721557617
 20
-61.3438786602602
 30
0.0
 11
-1080.67721557617
 21
-61.3438786602602
 31
0.0
  0
LINE
  5
   4A3
  8
0
  6
CONTINUOUS
 62
     2
 10
-1068.17721557617
 20
-62.6429167662361
 30
0.0
 11
-1080.67721557617
 21
-62.6429167662361
 31
0.0
  0
LINE
  5
   4A4
  8
0
  6
CONTINUOUS
 62
     2
 10
-1068.17721557617
 20
-63.0759294680901
 30
0.0
 11
-1080.67721557617
 21
-63.0759294680901
 31
0.0
  0
LINE
  5
   4A5
  8
0
  6
CONTINUOUS
 62
     2
 10
-1090.05221557617
 20
-61.3438786602602
 30
0.0
 11
-1102.55221557617
 21
-61.3438786602602
 31
0.0
  0
LINE
  5
   4A6
  8
0
  6
CONTINUOUS
 62
     2
 10
-1090.05221557617
 20
-62.6429167662361
 30
0.0
 11
-1102.55221557617
 21
-62.6429167662361
 31
0.0
  0
LINE
  5
   4A7
  8
0
  6
CONTINUOUS
 62
     2
 10
-1090.05221557617
 20
-63.0759294680901
 30
0.0
 11
-1102.55221557617
 21
-63.0759294680901
 31
0.0
  0
LINE
  5
   4A8
  8
0
  6
CONTINUOUS
 62
     2
 10
-1046.30221557617
 20
75.0014208011266
 30
0.0
 11
-1058.80221557617
 21
75.0014208011266
 31
0.0
  0
LINE
  5
   4A9
  8
0
  6
CONTINUOUS
 62
     2
 10
-1046.30221557617
 20
73.269369993268
 30
0.0
 11
-1058.80221557617
 21
73.269369993268
 31
0.0
  0
LINE
  5
   4AA
  8
0
  6
CONTINUOUS
 62
     2
 10
-1046.30221557617
 20
74.5684080992073
 30
0.0
 11
-1058.80221557617
 21
74.5684080992073
 31
0.0
  0
LINE
  5
   4AB
  8
0
  6
CONTINUOUS
 62
     2
 10
-1068.17721557617
 20
75.0014208011266
 30
0.0
 11
-1080.67721557617
 21
75.0014208011266
 31
0.0
  0
LINE
  5
   4AC
  8
0
  6
CONTINUOUS
 62
     2
 10
-1068.17721557617
 20
74.5684080992073
 30
0.0
 11
-1080.67721557617
 21
74.5684080992073
 31
0.0
  0
LINE
  5
   4AD
  8
0
  6
CONTINUOUS
 62
     2
 10
-1068.17721557617
 20
73.269369993268
 30
0.0
 11
-1080.67721557617
 21
73.269369993268
 31
0.0
  0
LINE
  5
   4AE
  8
0
  6
CONTINUOUS
 62
     2
 10
-1090.05221557617
 20
75.0014208011266
 30
0.0
 11
-1102.55221557617
 21
75.0014208011266
 31
0.0
  0
LINE
  5
   4AF
  8
0
  6
CONTINUOUS
 62
     2
 10
-1090.05221557617
 20
74.5684080992073
 30
0.0
 11
-1102.55221557617
 21
74.5684080992073
 31
0.0
  0
LINE
  5
   4B0
  8
0
  6
CONTINUOUS
 62
     2
 10
-1090.05221557617
 20
73.269369993268
 30
0.0
 11
-1102.55221557617
 21
73.269369993268
 31
0.0
  0
LINE
  5
   4B1
  8
0
  6
CONTINUOUS
 62
     2
 10
-1024.42721557617
 20
-61.3438786602602
 30
0.0
 11
-1036.92721557617
 21
-61.3438786602602
 31
0.0
  0
LINE
  5
   4B2
  8
0
  6
CONTINUOUS
 62
     2
 10
-1024.42721557617
 20
-62.6429167662361
 30
0.0
 11
-1036.92721557617
 21
-62.6429167662361
 31
0.0
  0
LINE
  5
   4B3
  8
0
  6
CONTINUOUS
 62
     2
 10
-1024.42721557617
 20
-63.0759294680901
 30
0.0
 11
-1036.92721557617
 21
-63.0759294680901
 31
0.0
  0
INSERT
  5
   4B4
  8
255
  6
CONTINUOUS
 62
     7
  2
MOSTRINA
 10
-1109.97135993922
 20
-48.1525573730469
 30
0.0
 41
0.5
 42
0.5
 50
359.999999792138
 43
0.5
  0
LINE
  5
   4B5
  8
0
  6
CONTINUOUS
 62
     1
 10
-1081.80223152126
 20
-27.2872467041016
 30
0.0
 11
-1109.42723132563
 21
-27.2872467041016
 31
0.0
  0
LINE
  5
   4B6
  8
0
  6
CONTINUOUS
 62
     7
 10
-1081.80223152126
 20
-27.7872296142755
 30
0.0
 11
-1109.42723132563
 21
-27.7872296142755
 31
0.0
  0
CIRCLE
  5
   4B7
  8
0
  6
CONTINUOUS
 62
     7
 10
-1024.82123720555
 20
-29.0423563249976
 30
0.0
 40
0.1
  0
INSERT
  5
   4B8
  8
0
  6
CONTINUOUS
 62
     7
  2
*UDIM2287
 10
0.0
 20
0.0
 30
0.0
  0
INSERT
  5
   4B9
  8
0
  6
CONTINUOUS
 62
     7
  2
*UDIM2288
 10
0.0
 20
0.0
 30
0.0
  0
TEXT
  5
   4BA
  8
0
  6
CONTINUOUS
 62
     7
 10
-1000.80933071652
 20
-11.8874873984531
 30
0.0
 40
3.00000002980232
  1
=          =
 50
89.9999999480344
 41
0.916666604744064
 72
     2
 11
-1000.80933068713
 21
20.5625107274775
 31
0.0
  0
INSERT
  5
   4BB
  8
0
  6
CONTINUOUS
 62
     7
  2
*UDIM2289
 10
0.0
 20
0.0
 30
0.0
  0
INSERT
  5
   4BC
  8
0
  6
CONTINUOUS
 62
     5
  2
*UDIM2290
 10
0.0
 20
0.0
 30
0.0
  0
INSERT
  5
   4BD
  8
0
  6
CONTINUOUS
 62
     7
  2
*UDIM2291
 10
0.0
 20
0.0
 30
0.0
  0
TEXT
  5
   4BE
  8
0
  6
CONTINUOUS
 62
     7
 10
-1069.53082076794
 20
92.7631690828535
 30
0.0
 40
3.00000002980232
  1
=          =
 50
359.999999948034
 41
0.916666604744064
 72
     2
 11
-1037.08082264201
 21
92.7631690535854
 31
0.0
  0
INSERT
  5
   4BF
  8
0
  6
CONTINUOUS
 62
     7
  2
*UDIM2292
 10
0.0
 20
0.0
 30
0.0
  0
INSERT
  5
   4C0
  8
0
  6
CONTINUOUS
 62
     7
  2
*UDIM2293
 10
0.0
 20
0.0
 30
0.0
  0
INSERT
  5
   4C1
  8
0
  6
CONTINUOUS
 62
     7
  2
*UDIM2294
 10
0.0
 20
0.0
 30
0.0
  0
INSERT
  5
   4C2
  8
0
  6
CONTINUOUS
 62
     7
  2
*UDIM2295
 10
0.0
 20
0.0
 30
0.0
  0
INSERT
  5
   4C3
  8
0
  6
CONTINUOUS
 62
     7
  2
*UDIM2296
 10
0.0
 20
0.0
 30
0.0
  0
INSERT
  5
   4C4
  8
0
  6
CONTINUOUS
 62
     7
  2
*UDIM2297
 10
0.0
 20
0.0
 30
0.0
  0
INSERT
  5
   4C5
  8
0
  6
CONTINUOUS
 62
     7
  2
*UDIM2298
 10
0.0
 20
0.0
 30
0.0
  0
INSERT
  5
   4C6
  8
0
  6
CONTINUOUS
 62
     7
  2
*UDIM2299
 10
0.0
 20
0.0
 30
0.0
  0
INSERT
  5
   4C7
  8
0
  6
CONTINUOUS
 62
     7
  2
*UDIM2300
 10
0.0
 20
0.0
 30
0.0
  0
INSERT
  5
   4C8
  8
0
  6
CONTINUOUS
 62
     7
  2
*UDIM2301
 10
0.0
 20
0.0
 30
0.0
  0
INSERT
  5
   4C9
  8
0
  6
CONTINUOUS
 62
     7
  2
*UDIM2302
 10
0.0
 20
0.0
 30
0.0
  0
TEXT
  5
   4CA
  8
0
  6
CONTINUOUS
 62
     7
 10
-1137.24316397445
 20
3.7608263559119
 30
0.0
 40
3.00000002980232
  1
X
 50
359.999999948034
 41
0.916666604744064
 72
     1
 11
-1136.14316403866
 21
5.26082636982092
 31
0.0
 73
     2
  0
TEXT
  5
   4CB
  8
0
  6
CONTINUOUS
 62
     7
 10
-1053.80897513167
 20
106.053192383744
 30
0.0
 40
3.00000002980232
  1
Y
 50
359.999999948034
 41
0.916666604744064
 72
     1
 11
-1052.70897519588
 21
107.553192397653
 31
0.0
 73
     2
  0
LINE
  5
   4CC
  8
0
  6
CONTINUOUS
 62
     7
 10
-820.811645507812
 20
34.3660278320313
 30
0.0
 11
-792.811645507813
 21
34.3660278320313
 31
0.0
  0
LINE
  5
   4CD
  8
0
  6
CONTINUOUS
 62
     7
 10
-820.811645507812
 20
62.3660278320313
 30
0.0
 11
-792.811645507813
 21
62.3660278320313
 31
0.0
  0
LINE
  5
   4CE
  8
0
  6
CONTINUOUS
 62
     7
 10
-820.811645507812
 20
62.3660278320313
 30
0.0
 11
-820.811645507812
 21
34.3660278320313
 31
0.0
  0
LINE
  5
   4CF
  8
0
  6
CONTINUOUS
 62
     7
 10
-792.811645507813
 20
62.3660278320313
 30
0.0
 11
-792.811645507813
 21
34.3660278320313
 31
0.0
  0
CIRCLE
  5
   4D0
  8
0
  6
CONTINUOUS
 62
     7
 10
-816.811645507813
 20
66.1160278320313
 30
0.0
 40
0.875
  0
CIRCLE
  5
   4D1
  8
0
  6
CONTINUOUS
 62
     7
 10
-796.811645507813
 20
66.1160278320313
 30
0.0
 40
0.875
  0
CIRCLE
  5
   4D2
  8
0
  6
CONTINUOUS
 62
     7
 10
-816.811645507813
 20
30.6160278320313
 30
0.0
 40
0.875
  0
CIRCLE
  5
   4D3
  8
0
  6
CONTINUOUS
 62
     7
 10
-796.811645507813
 20
30.6160278320313
 30
0.0
 40
0.875
  0
LINE
  5
   4D4
  8
0
  6
DASHDOT
 62
     7
 10
-816.811645507813
 20
67.7410278320313
 30
0.0
 11
-816.811645507813
 21
64.4910278320313
 31
0.0
  0
LINE
  5
   4D5
  8
0
  6
DASHDOT
 62
     7
 10
-818.436645507813
 20
66.1160278320313
 30
0.0
 11
-815.186645507813
 21
66.1160278320313
 31
0.0
  0
LINE
  5
   4D6
  8
0
  6
DASHDOT
 62
     7
 10
-796.811645507813
 20
67.7410278320313
 30
0.0
 11
-796.811645507813
 21
64.4910278320313
 31
0.0
  0
LINE
  5
   4D7
  8
0
  6
DASHDOT
 62
     7
 10
-798.436645507813
 20
66.1160278320313
 30
0.0
 11
-795.186645507813
 21
66.1160278320313
 31
0.0
  0
LINE
  5
   4D8
  8
0
  6
DASHDOT
 62
     7
 10
-796.811645507813
 20
32.2410278320313
 30
0.0
 11
-796.811645507813
 21
28.9910278320313
 31
0.0
  0
LINE
  5
   4D9
  8
0
  6
DASHDOT
 62
     7
 10
-798.436645507813
 20
30.6160278320313
 30
0.0
 11
-795.186645507813
 21
30.6160278320313
 31
0.0
  0
LINE
  5
   4DA
  8
0
  6
DASHDOT
 62
     7
 10
-816.811645507813
 20
32.2410278320313
 30
0.0
 11
-816.811645507813
 21
28.9910278320313
 31
0.0
  0
LINE
  5
   4DB
  8
0
  6
DASHDOT
 62
     7
 10
-818.436645507813
 20
30.6160278320313
 30
0.0
 11
-815.186645507813
 21
30.6160278320313
 31
0.0
  0
LINE
  5
   4DC
  8
0
  6
DASHDOT
 62
     7
 10
-806.811645507813
 20
75.7361401173683
 30
0.0
 11
-806.811645507813
 21
19.2427769872103
 31
0.0
  0
LINE
  5
   4DD
  8
0
  6
CONTINUOUS
 62
     7
 10
-823.632222051478
 20
68.7672134872373
 30
0.0
 11
-789.677661828171
 21
68.7672134872373
 31
0.0
  0
LINE
  5
   4DE
  8
0
  6
CONTINUOUS
 62
     7
 10
-823.632222051478
 20
27.202148386292
 30
0.0
 11
-789.677661828171
 21
27.202148386292
 31
0.0
  0
LINE
  5
   4DF
  8
0
  6
CONTINUOUS
 62
     7
 10
-789.677661828171
 20
68.7672134872373
 30
0.0
 11
-789.677661828171
 21
27.202148386292
 31
0.0
  0
LINE
  5
   4E0
  8
0
  6
CONTINUOUS
 62
     7
 10
-823.632222051478
 20
68.7672134872373
 30
0.0
 11
-823.632222051478
 21
27.202148386292
 31
0.0
  0
CIRCLE
  5
   4E1
  8
0
  6
CONTINUOUS
 62
     7
 10
-821.758867004675
 20
66.9524007856467
 30
0.0
 40
0.0625
  0
LINE
  5
   4E2
  8
0
  6
DASHDOT
 62
     7
 10
-827.988980926828
 20
48.3660278320313
 30
0.0
 11
-783.010850903203
 21
48.3660278320313
 31
0.0
  0
TEXT
  5
   4E3
  8
0
  6
CONTINUOUS
 62
     7
 10
-1062.5845636483
 20
-96.4886016860986
 30
0.0
 40
3.00000002980232
  1
=     =
 50
359.999999844103
 41
0.916666604744064
 72
     1
 11
-1053.23456418514
 21
-94.9886016965909
 31
0.0
 73
     2
  0
TEXT
  5
   4E4
  8
0
  6
CONTINUOUS
 62
     1
 10
-909.141508429978
 20
-152.862915024414
 30
0.0
 40
2.00000008940697
  1
M 3076 95-01-16
 50
359.999999844103
 41
0.749999861419206
 72
     1
 11
-898.041509985924
 21
-151.862915009856
 31
0.0
 73
     2
  0
TEXT
  5
   4E5
  8
0
  6
CONTINUOUS
 62
     1
 10
-922.747116079658
 20
-138.469390752113
 30
0.0
 40
2.00000008940697
  1
93-04-05 FERRARI M.
 50
359.999999844103
 41
0.749999861419206
 72
     2
 11
-894.547120037407
 21
-138.469390828701
 31
0.0
  0
TEXT
  5
   4E6
  8
0
  6
CONTINUOUS
 62
     7
 10
-826.046404775755
 20
38.599887197122
 30
0.0
 40
3.00000002980232
  1
=     =
 50
449.999999844103
 41
0.916666604744064
 72
     2
 11
-826.046404724991
 21
57.2998861152977
 31
0.0
  0
TEXT
  5
   4E7
  8
0
  6
CONTINUOUS
 62
     7
 10
-834.563857015745
 20
37.8527424980254
 30
0.0
 40
3.00000002980232
  1
=     =
 50
449.999999844103
 41
0.916666604744064
 72
     2
 11
-834.563856964982
 21
56.5527414162011
 31
0.0
  0
INSERT
  5
   4E8
  8
0
  6
CONTINUOUS
 62
     7
  2
*UDIM2303
 10
0.0
 20
0.0
 30
0.0
  0
TEXT
  5
   4E9
  8
0
  6
CONTINUOUS
 62
     7
 10
-813.712187500897
 20
81.5903736983083
 30
0.0
 40
3.00000002980232
  1
=   =
 50
359.999999844103
 41
0.916666604744064
 72
     2
 11
-800.512188265823
 21
81.5903736624587
 31
0.0
  0
TEXT
  5
   4EA
  8
0
  6
CONTINUOUS
 62
     7
 10
-813.770729752484
 20
75.0336319838308
 30
0.0
 40
3.00000002980232
  1
=   =
 50
359.999999844103
 41
0.916666604744064
 72
     2
 11
-800.57073051741
 21
75.0336319479811
 31
0.0
  0
INSERT
  5
   4EB
  8
0
  6
CONTINUOUS
 62
     7
  2
*UDIM2304
 10
0.0
 20
0.0
 30
0.0
  0
INSERT
  5
   4EC
  8
0
  6
CONTINUOUS
 62
     7
  2
*UDIM2305
 10
0.0
 20
0.0
 30
0.0
  0
INSERT
  5
   4ED
  8
0
  6
CONTINUOUS
 62
     7
  2
*UDIM2306
 10
0.0
 20
0.0
 30
0.0
  0
INSERT
  5
   4EE
  8
0
  6
CONTINUOUS
 62
     7
  2
*UDIM2307
 10
0.0
 20
0.0
 30
0.0
  0
TEXT
  5
   4EF
  8
0
  6
CONTINUOUS
 62
     7
 10
-807.99992550423
 20
12.3909339213422
 30
0.0
 40
3.00000002980232
  1
Y
 50
359.999999844103
 41
0.916666604744064
 72
     2
 11
-805.799925635361
 21
12.3909339153673
 31
0.0
  0
TEXT
  5
   4F0
  8
0
  6
CONTINUOUS
 62
     7
 10
-807.063248048328
 20
91.1303900981
 30
0.0
 40
3.00000002980232
  1
Y
 50
359.999999844103
 41
0.916666604744064
 72
     2
 11
-804.863248179458
 21
91.1303900921251
 31
0.0
  0
TEXT
  5
   4F1
  8
0
  6
CONTINUOUS
 62
     7
 10
-780.979122052692
 20
48.2864298129132
 30
0.0
 40
3.00000002980232
  1
X
 50
359.999999844103
 41
0.916666604744064
 72
     2
 11
-778.779122183823
 21
48.2864298069383
 31
0.0
  0
TEXT
  5
   4F2
  8
0
  6
CONTINUOUS
 62
     7
 10
-848.979568372272
 20
46.4625798964551
 30
0.0
 40
3.00000002980232
  1
X
 50
359.999999844103
 41
0.916666604744064
 72
     2
 11
-846.779568503402
 21
46.4625798904802
 31
0.0
  0
TEXT
  5
   4F3
  8
0
  6
CONTINUOUS
 62
     1
 10
-813.979492169082
 20
-163.780120759399
 30
0.0
 40
4.00000017881393
  1
601812/231
 50
359.999999844103
 41
0.937499973922969
 72
     2
 11
-777.22949156931
 21
-163.780120859208
 31
0.0
  0
TEXT
  5
   4F4
  8
0
  6
CONTINUOUS
 62
     1
 10
-802.893798814312
 20
-154.798538181443
 30
0.0
 40
3.00000002980232
  1
 S5
 50
359.999999844103
 41
0.916666604744064
 72
     2
 11
-795.19379926234
 21
-154.798538202356
 31
0.0
  0
TEXT
  5
   4F5
  8
0
  6
CONTINUOUS
 62
     1
 10
-824.428218573073
 20
-136.488265958671
 30
0.0
 40
2.00000008940697
  1
4POLE LOW VOLTAGE M.C.C.B SERIES ISOMAX
 50
359.999999844103
 41
0.749999861419206
 72
     1
 11
-795.328222650296
 21
-135.488265993
 31
0.0
 73
     2
  0
TEXT
  5
   4F6
  8
0
  6
CONTINUOUS
 62
     1
 10
-818.428219377724
 20
-139.488265974966
 30
0.0
 40
2.00000008940697
  1
PLUG-IN VERSION FRONT TERMINALS
 50
359.999999844103
 41
0.749999861419206
 72
     1
 11
-795.328222614521
 21
-138.488265993
 31
0.0
 73
     2
  0
TEXT
  5
   4F7
  8
0
  6
CONTINUOUS
 62
     1
 10
-821.225826940427
 20
-144.558532700636
 30
0.0
 40
2.00000008940697
  1
INTERR.AUTOMATICO SERIE ISOMAX
 50
359.999999844103
 41
0.749999861419206
 72
     1
 11
-798.875830072171
 21
-143.558532716633
 31
0.0
 73
     2
  0
TEXT
  5
   4F8
  8
0
  6
CONTINUOUS
 62
     1
 10
-832.475825328855
 20
-147.558532670082
 30
0.0
 40
2.00000008940697
  1
TETRAP.ESECUZIONE RIMOVIBILE TERMIN.ANTERIORI
 50
359.999999844103
 41
0.749999861419206
 72
     1
 11
-798.875830036396
 21
-146.558532716633
 31
0.0
 73
     2
  0
ENDSEC
  0
EOF
