  0
SECTION
  2
HEADER
  9
$ACADVER
  1
AC1009
  9
$DWGCODEPAGE
  3
iso8859-1
  9
$INSBASE
 10
0.0
 20
0.0
 30
0.0
  9
$EXTMIN
 10
1.0E20
 20
1.0E20
  9
$EXTMAX
 10
-1.0E20
 20
-1.0E20
  9
$LIMMIN
 10
0.0
 20
0.0
  9
$LIMMAX
 10
12.0
 20
9.0
  9
$ORTHOMODE
 70
     0
  9
$REGENMODE
 70
     1
  9
$FILLMODE
 70
     1
  9
$QTEXTMODE
 70
     0
  9
$MIRRTEXT
 70
     1
  9
$DRAGMODE
 70
     2
  9
$LTSCALE
 40
15.0
  9
$OSMODE
 70
     0
  9
$ATTMODE
 70
     1
  9
$TEXTSIZE
 40
0.2
  9
$TRACEWID
 40
0.05
  9
$TEXTSTYLE
  7
STANDARD
  9
$CLAYER
  8
0
  9
$CELTYPE
  6
DASHED
  9
$CECOLOR
 62
   256
  9
$DIMSCALE
 40
1.0
  9
$DIMASZ
 40
0.18
  9
$DIMEXO
 40
0.0625
  9
$DIMDLI
 40
0.38
  9
$DIMRND
 40
0.0
  9
$DIMDLE
 40
0.0
  9
$DIMEXE
 40
0.18
  9
$DIMTP
 40
0.0
  9
$DIMTM
 40
0.0
  9
$DIMTXT
 40
0.18
  9
$DIMCEN
 40
0.09
  9
$DIMTSZ
 40
0.0
  9
$DIMTOL
 70
     0
  9
$DIMLIM
 70
     0
  9
$DIMTIH
 70
     1
  9
$DIMTOH
 70
     1
  9
$DIMSE1
 70
     0
  9
$DIMSE2
 70
     0
  9
$DIMTAD
 70
     0
  9
$DIMZIN
 70
     0
  9
$DIMBLK
  1

  9
$DIMASO
 70
     1
  9
$DIMSHO
 70
     1
  9
$DIMPOST
  1

  9
$DIMAPOST
  1

  9
$DIMALT
 70
     0
  9
$DIMALTD
 70
     2
  9
$DIMALTF
 40
25.4
  9
$DIMLFAC
 40
1.0
  9
$DIMTOFL
 70
     0
  9
$DIMTVP
 40
0.0
  9
$DIMTIX
 70
     0
  9
$DIMSOXD
 70
     0
  9
$DIMSAH
 70
     0
  9
$DIMBLK1
  1

  9
$DIMBLK2
  1

  9
$DIMSTYLE
  2
STANDARD
  9
$DIMCLRD
 70
     0
  9
$DIMCLRE
 70
     0
  9
$DIMCLRT
 70
     0
  9
$DIMTFAC
 40
1.0
  9
$DIMGAP
 40
0.09
  9
$LUNITS
 70
     2
  9
$LUPREC
 70
     4
  9
$AXISMODE
 70
     0
  9
$AXISUNIT
 10
0.0
 20
0.0
  9
$SKETCHINC
 40
0.1
  9
$FILLETRAD
 40
0.0
  9
$AUNITS
 70
     0
  9
$AUPREC
 70
     0
  9
$MENU
  1
acad
  9
$ELEVATION
 40
0.0
  9
$PELEVATION
 40
0.0
  9
$THICKNESS
 40
0.0
  9
$LIMCHECK
 70
     0
  9
$BLIPMODE
 70
     1
  9
$CHAMFERA
 40
0.0
  9
$CHAMFERB
 40
0.0
  9
$SKPOLY
 70
     0
  9
$TDCREATE
 40
0.000000000
  9
$TDUPDATE
 40
0.000000000
  9
$TDINDWG
 40
0.0
  9
$TDUSRTIMER
 40
0.0
  9
$USRTIMER
 70
     1
  9
$ANGBASE
 50
0.0
  9
$ANGDIR
 70
     0
  9
$PDMODE
 70
     0
  9
$PDSIZE
 40
0.0
  9
$PLINEWID
 40
0.0
  9
$COORDS
 70
     1
  9
$SPLFRAME
 70
     0
  9
$SPLINETYPE
 70
     6
  9
$SPLINESEGS
 70
     8
  9
$ATTDIA
 70
     0
  9
$ATTREQ
 70
     1
  9
$HANDLING
 70
     1
  9
$HANDSEED
  5
   74C
  9
$SURFTAB1
 70
     6
  9
$SURFTAB2
 70
     6
  9
$SURFTYPE
 70
     6
  9
$SURFU
 70
     6
  9
$SURFV
 70
     6
  9
$UCSNAME
  2

  9
$UCSORG
 10
0.0
 20
0.0
 30
0.0
  9
$UCSXDIR
 10
1.0
 20
0.0
 30
0.0
  9
$UCSYDIR
 10
0.0
 20
1.0
 30
0.0
  9
$PUCSNAME
  2

  9
$PUCSORG
 10
0.0
 20
0.0
 30
0.0
  9
$PUCSXDIR
 10
1.0
 20
0.0
 30
0.0
  9
$PUCSYDIR
 10
0.0
 20
1.0
 30
0.0
  9
$USERI1
 70
     0
  9
$USERI2
 70
     0
  9
$USERI3
 70
     0
  9
$USERI4
 70
     0
  9
$USERI5
 70
     0
  9
$USERR1
 40
0.0
  9
$USERR2
 40
0.0
  9
$USERR3
 40
0.0
  9
$USERR4
 40
0.0
  9
$USERR5
 40
0.0
  9
$WORLDVIEW
 70
     1
  9
$SHADEDGE
 70
     3
  9
$SHADEDIF
 70
    70
  9
$TILEMODE
 70
     1
  9
$MAXACTVP
 70
    16
  9
$PINSBASE
 10
0.0
 20
0.0
 30
0.0
  9
$PLIMCHECK
 70
     0
  9
$PEXTMIN
 10
1.0E20
 20
1.0E20
 30
1.0E20
  9
$PEXTMAX
 10
-1.0E20
 20
-1.0E20
 30
-1.0E20
  9
$PLIMMIN
 10
0.0
 20
0.0
  9
$PLIMMAX
 10
12.0
 20
9.0
  9
$UNITMODE
 70
     0
  9
$VISRETAIN
 70
     0
  0
ENDSEC
  0
SECTION
  2
TABLES
  0
TABLE
  2
VPORT
 70
     1
  0
VPORT
  2
*ACTIVE
 70
     0
 10
0.0
 20
0.0
 11
1.0
 21
1.0
 12
6.801242
 22
4.5
 13
0.0
 23
0.0
 14
1.0
 24
1.0
 15
0.0
 25
0.0
 16
0.0
 26
0.0
 36
1.0
 17
0.0
 27
0.0
 37
0.0
 40
9.0
 41
1.511387
 42
50.0
 43
0.0
 44
0.0
 50
0.0
 51
0.0
 71
     0
 72
   100
 73
     1
 74
     1
 75
     0
 76
     0
 77
     0
 78
     0
  0
ENDTAB
  0
TABLE
  2
LTYPE
 70
    41
  0
LTYPE
  2
BYBLOCK
 70
     0
  3

 72
    65
 73
     0
 40
0.0
  0
LTYPE
  2
BYLAYER
 70
     0
  3

 72
    65
 73
     0
 40
0.0
  0
LTYPE
  2
CONTINUOUS
 70
     0
  3
Solid line
 72
    65
 73
     0
 40
0.0
  0
LTYPE
  2
BORDER
 70
    64
  3
__ __ . __ __ . __ __ . __ __ . __ __ . __ __ .
 72
    65
 73
     6
 40
1.75
 49
0.5
 49
-0.25
 49
0.5
 49
-0.25
 49
0.0
 49
-0.25
  0
LTYPE
  2
BORDER2
 70
    64
  3
__.__.__.__.__.__.__.__.__.__.__.__.__.__.__.__
 72
    65
 73
     6
 40
0.875
 49
0.25
 49
-0.125
 49
0.25
 49
-0.125
 49
0.0
 49
-0.125
  0
LTYPE
  2
BORDERX2
 70
    64
  3
____  ____  .  ____  ____  .  ____  ____  .  __
 72
    65
 73
     6
 40
3.5
 49
1.0
 49
-0.5
 49
1.0
 49
-0.5
 49
0.0
 49
-0.5
  0
LTYPE
  2
CENTER
 70
    64
  3
____ _ ____ _ ____ _ ____ _ ____ _ ____ _ ____
 72
    65
 73
     4
 40
2.0
 49
1.25
 49
-0.25
 49
0.25
 49
-0.25
  0
LTYPE
  2
CENTER2
 70
    64
  3
___ _ ___ _ ___ _ ___ _ ___ _ ___ _ ___ _ ___ _
 72
    65
 73
     4
 40
1.125
 49
0.75
 49
-0.125
 49
0.125
 49
-0.125
  0
LTYPE
  2
CENTERX2
 70
    64
  3
________  __  ________  __  ________  __  _____
 72
    65
 73
     4
 40
4.0
 49
2.5
 49
-0.5
 49
0.5
 49
-0.5
  0
LTYPE
  2
DASHDOT
 70
    64
  3
__ . __ . __ . __ . __ . __ . __ . __ . __ . __
 72
    65
 73
     4
 40
1.0
 49
0.5
 49
-0.25
 49
0.0
 49
-0.25
  0
LTYPE
  2
DASHDOT2
 70
    64
  3
_._._._._._._._._._._._._._._._._._._._._._._._
 72
    65
 73
     4
 40
0.5
 49
0.25
 49
-0.125
 49
0.0
 49
-0.125
  0
LTYPE
  2
DASHDOTX2
 70
    64
  3
____  .  ____  .  ____  .  ____  .  ____  .  __
 72
    65
 73
     4
 40
2.0
 49
1.0
 49
-0.5
 49
0.0
 49
-0.5
  0
LTYPE
  2
DASHED
 70
    64
  3
__ __ __ __ __ __ __ __ __ __ __ __ __ __ __ __
 72
    65
 73
     2
 40
0.75
 49
0.5
 49
-0.25
  0
LTYPE
  2
DASHED2
 70
    64
  3
_ _ _ _ _ _ _ _ _ _ _ _ _ _ _ _ _ _ _ _ _ _ _ _
 72
    65
 73
     2
 40
0.375
 49
0.25
 49
-0.125
  0
LTYPE
  2
DASHEDX2
 70
    64
  3
____  ____  ____  ____  ____  ____  ____  ____
 72
    65
 73
     2
 40
1.5
 49
1.0
 49
-0.5
  0
LTYPE
  2
DIVIDE
 70
    64
  3
____ . . ____ . . ____ . . ____ . . ____ . . __
 72
    65
 73
     6
 40
1.25
 49
0.5
 49
-0.25
 49
0.0
 49
-0.25
 49
0.0
 49
-0.25
  0
LTYPE
  2
DIVIDE2
 70
    64
  3
__..__..__..__..__..__..__..__..__..__..__..__.
 72
    65
 73
     6
 40
0.625
 49
0.25
 49
-0.125
 49
0.0
 49
-0.125
 49
0.0
 49
-0.125
  0
LTYPE
  2
DIVIDEX2
 70
    64
  3
________  .  .  ________  .  .  ________  .  .
 72
    65
 73
     6
 40
2.5
 49
1.0
 49
-0.5
 49
0.0
 49
-0.5
 49
0.0
 49
-0.5
  0
LTYPE
  2
DOT
 70
    64
  3
. . . . . . . . . . . . . . . . . . . . . . . .
 72
    65
 73
     2
 40
0.25
 49
0.0
 49
-0.25
  0
LTYPE
  2
DOT2
 70
    64
  3
...............................................
 72
    65
 73
     2
 40
0.125
 49
0.0
 49
-0.125
  0
LTYPE
  2
DOTX2
 70
    64
  3
.  .  .  .  .  .  .  .  .  .  .  .  .  .  .  .
 72
    65
 73
     2
 40
0.5
 49
0.0
 49
-0.5
  0
LTYPE
  2
HIDDEN
 70
    64
  3
__ __ __ __ __ __ __ __ __ __ __ __ __ __ __ __
 72
    65
 73
     2
 40
0.375
 49
0.25
 49
-0.125
  0
LTYPE
  2
HIDDEN2
 70
    64
  3
_ _ _ _ _ _ _ _ _ _ _ _ _ _ _ _ _ _ _ _ _ _ _ _
 72
    65
 73
     2
 40
0.1875
 49
0.125
 49
-0.0625
  0
LTYPE
  2
HIDDENX2
 70
    64
  3
____ ____ ____ ____ ____ ____ ____ ____ ____ __
 72
    65
 73
     2
 40
0.75
 49
0.5
 49
-0.25
  0
LTYPE
  2
PHANTOM
 70
    64
  3
______  __  __  ______  __  __  ______  __  __
 72
    65
 73
     6
 40
2.5
 49
1.25
 49
-0.25
 49
0.25
 49
-0.25
 49
0.25
 49
-0.25
  0
LTYPE
  2
PHANTOM2
 70
    64
  3
___ _ _ ___ _ _ ___ _ _ ___ _ _ ___ _ _ ___ _ _
 72
    65
 73
     6
 40
1.25
 49
0.625
 49
-0.125
 49
0.125
 49
-0.125
 49
0.125
 49
-0.125
  0
LTYPE
  2
PHANTOMX2
 70
    64
  3
____________    ____    ____    ____________
 72
    65
 73
     6
 40
5.0
 49
2.5
 49
-0.5
 49
0.5
 49
-0.5
 49
0.5
 49
-0.5
  0
LTYPE
  2
ACAD_ISO02W100
 70
    64
  3
__ __ __ __ __ __ __ __ __ __ __ __ __ __ __ __
 72
    65
 73
     2
 40
15.0
 49
12.0
 49
-3.0
  0
LTYPE
  2
ACAD_ISO03W100
 70
    64
  3
__    __    __    __    __    __    __    __
 72
    65
 73
     2
 40
30.0
 49
12.0
 49
-18.0
  0
LTYPE
  2
ACAD_ISO04W100
 70
    64
  3
____ . ____ . ____ . ____ . ____ . ____ . ____
 72
    65
 73
     4
 40
30.5
 49
24.0
 49
-3.0
 49
0.5
 49
-3.0
  0
LTYPE
  2
ACAD_ISO05W100
 70
    64
  3
____ .. ____ .. ____ .. ____ .. ____ .. ____ ..
 72
    65
 73
     6
 40
34.0
 49
24.0
 49
-3.0
 49
0.5
 49
-3.0
 49
0.5
 49
-3.0
  0
LTYPE
  2
ACAD_ISO06W100
 70
    64
  3
____ ... ____ ... ____ ... ____ ... ____ ... __
 72
    65
 73
     8
 40
37.5
 49
24.0
 49
-3.0
 49
0.5
 49
-3.0
 49
0.5
 49
-3.0
 49
0.5
 49
-3.0
  0
LTYPE
  2
ACAD_ISO07W100
 70
    64
  3
. . . . . . . . . . . . . . . . . . . . . . . .
 72
    65
 73
     2
 40
3.5
 49
0.5
 49
-3.0
  0
LTYPE
  2
ACAD_ISO08W100
 70
    64
  3
____ __ ____ __ ____ __ ____ ____ __ __ ____ __
 72
    65
 73
     4
 40
36.0
 49
24.0
 49
-3.0
 49
6.0
 49
-3.0
  0
LTYPE
  2
ACAD_ISO09W100
 70
    64
  3
____ __ __ ____ __ __ ____ __ __ ____ __ __ ___
 72
    65
 73
     6
 40
45.0
 49
24.0
 49
-3.0
 49
6.0
 49
-3.0
 49
6.0
 49
-3.0
  0
LTYPE
  2
ACAD_ISO10W100
 70
    64
  3
__ . __ . __ . __ . __ . __ . __ . __ . __ . __
 72
    65
 73
     4
 40
18.5
 49
12.0
 49
-3.0
 49
0.5
 49
-3.0
  0
LTYPE
  2
ACAD_ISO11W100
 70
    64
  3
__ __ . __ __ . __ __ . __ __ . __ __ . __ __ .
 72
    65
 73
     6
 40
33.5
 49
12.0
 49
-3.0
 49
12.0
 49
-3.0
 49
0.5
 49
-3.0
  0
LTYPE
  2
ACAD_ISO12W100
 70
    64
  3
__ . . __ . . __ . . __ . . __ . . __ . . __ .
 72
    65
 73
     6
 40
22.0
 49
12.0
 49
-3.0
 49
0.5
 49
-3.0
 49
0.5
 49
-3.0
  0
LTYPE
  2
ACAD_ISO13W100
 70
    64
  3
__ __ . . __ __ . . __ __ . . __ __ . . __ __ .
 72
    65
 73
     8
 40
37.0
 49
12.0
 49
-3.0
 49
12.0
 49
-3.0
 49
0.5
 49
-3.0
 49
0.5
 49
-3.0
  0
LTYPE
  2
ACAD_ISO14W100
 70
    64
  3
__ . . . __ . . . __ . . . __ . . . __ . . . __
 72
    65
 73
     8
 40
25.5
 49
12.0
 49
-3.0
 49
0.5
 49
-3.0
 49
0.5
 49
-3.0
 49
0.5
 49
-3.0
  0
LTYPE
  2
ACAD_ISO15W100
 70
    64
  3
__ __ . . . __ __ . . . __ __ . . . __ __ . . .
 72
    65
 73
    10
 40
40.5
 49
12.0
 49
-3.0
 49
12.0
 49
-3.0
 49
0.5
 49
-3.0
 49
0.5
 49
-3.0
 49
0.5
 49
-3.0
  0
ENDTAB
  0
TABLE
  2
STYLE
 70
     4
  0
STYLE
  2
STANDARD
 70
    64
 40
0.0
 41
1.0
 50
0.0
 71
     0
 42
0.2
  3
txt
  4

  0
STYLE
  2
TOLERANCE
 70
    64
 40
0.0
 41
1.0
 50
0.0
 71
     0
 42
0.2
  3
../igesfont/iges1003.shx
  4

  0
STYLE
  2
ROMANS
 70
    64
 40
0.0
 41
1.0
 50
0.0
 71
     0
 42
0.2
  3
romans.shx
  4

  0
STYLE
  2
ROMANC
 70
    64
 40
0.0
 41
1.0
 50
0.0
 71
     0
 42
0.2
  3
romanc.shx
  4

  0
ENDTAB
  0
TABLE
  2
DIMSTYLE
 70
     2
  0
DIMSTYLE
  2
UNNAMED
 70
     0
  3

  4

  5

  6

  7

 40
1.0
 41
0.18
 42
0.0625
 43
0.38
 44
0.18
 45
0.0
 46
0.0
 47
0.0
 48
0.0
140
0.18
141
0.09
142
0.0
143
25.4
144
1.0
145
0.0
146
1.0
147
0.09
 71
     0
 72
     0
 73
     1
 74
     1
 75
     0
 76
     0
 77
     0
 78
     0
170
     0
171
     2
172
     0
173
     0
174
     0
175
     0
176
     0
177
     0
178
     0
  0
DIMSTYLE
  2
STANDARD
 70
     0
  3

  4

  5

  6

  7

 40
1.0
 41
0.18
 42
0.0625
 43
0.38
 44
0.18
 45
0.0
 46
0.0
 47
0.0
 48
0.0
140
0.18
141
0.09
142
0.0
143
25.4
144
1.0
145
0.0
146
1.0
147
0.09
 71
     0
 72
     0
 73
     1
 74
     1
 75
     0
 76
     0
 77
     0
 78
     0
170
     0
171
     2
172
     0
173
     0
174
     0
175
     0
176
     0
177
     0
178
     0
  0
ENDTAB
  0
TABLE
  2
LAYER
 70
     1
  0
LAYER
  2
0
 70
     0
 62
     7
  6
CONTINUOUS
  0
ENDTAB
  0
ENDSEC
  0
SECTION
  2
BLOCKS
  0
BLOCK
  5
     B
  8
0
  6
CONTINUOUS
 62
     3
  2
*UDIM173
 70
    65
 10
0.0
 20
0.0
 30
0.0
  3
*UDIM173
  0
TEXT
  5
     C
  8
0
  6
CONTINUOUS
 62
     3
 10
-817.66186004838
 20
-67.5869843095253
 30
0.0
 40
2.99999997871263
  1
42
 50
359.999999896069
 41
0.933333333333333
 72
     1
 11
-815.161860063406
 21
-66.0869843246913
 31
0.0
 73
     2
  0
LINE
  5
     D
  8
0
  6
CONTINUOUS
 62
     3
 10
-800.186861678692
 20
-85.4758458733559
 30
0.0
 11
-800.186861678692
 21
-66.5869843140476
 31
0.0
  0
LINE
  5
     E
  8
0
  6
CONTINUOUS
 62
     3
 10
-829.586861178013
 20
-93.5258457362652
 30
0.0
 11
-829.586861178013
 21
-66.5869843140476
 31
0.0
  0
LINE
  5
     F
  8
0
  6
CONTINUOUS
 62
     3
 10
-800.186861678692
 20
-68.5869843140476
 30
0.0
 11
-829.586861178013
 21
-68.5869843140476
 31
0.0
  0
LINE
  5
    10
  8
0
  6
CONTINUOUS
 62
     3
 10
-803.141284893797
 20
-69.107929096194
 30
0.0
 11
-800.186861678692
 21
-68.5869843140476
 31
0.0
  0
LINE
  5
    11
  8
0
  6
CONTINUOUS
 62
     3
 10
-800.186861678692
 20
-68.5869843140476
 30
0.0
 11
-803.141284893797
 21
-68.0660395319013
 31
0.0
  0
LINE
  5
    12
  8
0
  6
CONTINUOUS
 62
     3
 10
-826.632437962907
 20
-68.0660395319013
 30
0.0
 11
-829.586861178013
 21
-68.5869843140476
 31
0.0
  0
LINE
  5
    13
  8
0
  6
CONTINUOUS
 62
     3
 10
-829.586861178013
 20
-68.5869843140476
 30
0.0
 11
-826.632437962907
 21
-69.107929096194
 31
0.0
  0
ENDBLK
  5
    14
  8
0
  6
CONTINUOUS
 62
     3
  0
BLOCK
  5
    15
  8
0
  6
CONTINUOUS
 62
     3
  2
*UDIM174
 70
    65
 10
0.0
 20
0.0
 30
0.0
  3
*UDIM174
  0
TEXT
  5
    16
  8
0
  6
CONTINUOUS
 62
     3
 10
-813.111860125866
 20
-73.8263686637185
 30
0.0
 40
2.99999997871263
  1
27
 50
359.999999896069
 41
0.933333333333333
 72
     1
 11
-810.611860140892
 21
-72.3263686788845
 31
0.0
 73
     2
  0
LINE
  5
    17
  8
0
  6
CONTINUOUS
 62
     3
 10
-800.186861678692
 20
-85.4758458733559
 30
0.0
 11
-800.186861678692
 21
-72.8263686682408
 31
0.0
  0
LINE
  5
    18
  8
0
  6
CONTINUOUS
 62
     3
 10
-820.486861332985
 20
-89.6758458018303
 30
0.0
 11
-820.486861332985
 21
-72.8263686682408
 31
0.0
  0
LINE
  5
    19
  8
0
  6
CONTINUOUS
 62
     3
 10
-800.186861678692
 20
-74.8263686682408
 30
0.0
 11
-820.486861332985
 21
-74.8263686682408
 31
0.0
  0
LINE
  5
    1A
  8
0
  6
CONTINUOUS
 62
     3
 10
-803.141284893797
 20
-75.3473134503871
 30
0.0
 11
-800.186861678692
 21
-74.8263686682408
 31
0.0
  0
LINE
  5
    1B
  8
0
  6
CONTINUOUS
 62
     3
 10
-800.186861678692
 20
-74.8263686682408
 30
0.0
 11
-803.141284893797
 21
-74.3054238860944
 31
0.0
  0
LINE
  5
    1C
  8
0
  6
CONTINUOUS
 62
     3
 10
-817.532438117879
 20
-74.3054238860944
 30
0.0
 11
-820.486861332985
 21
-74.8263686682408
 31
0.0
  0
LINE
  5
    1D
  8
0
  6
CONTINUOUS
 62
     3
 10
-820.486861332985
 20
-74.8263686682408
 30
0.0
 11
-817.532438117879
 21
-75.3473134503871
 31
0.0
  0
ENDBLK
  5
    1E
  8
0
  6
CONTINUOUS
 62
     3
  0
BLOCK
  5
    1F
  8
0
  6
CONTINUOUS
 62
     7
  2
*UDIM175
 70
    65
 10
0.0
 20
0.0
 30
0.0
  3
*UDIM175
  0
TEXT
  5
    20
  8
0
  6
CONTINUOUS
 62
     7
 10
-868.067619406404
 20
-109.250845655672
 30
0.0
 40
2.99999997871263
  1
30
 50
449.999999896069
 41
0.933333333333333
 72
     1
 11
-869.567619391242
 21
-106.7508456707
 31
0.0
 73
     2
  0
LINE
  5
    21
  8
0
  6
CONTINUOUS
 62
     3
 10
-848.461835584821
 20
-95.9758456945419
 30
0.0
 11
-869.067619401885
 21
-95.9758456945419
 31
0.0
  0
LINE
  5
    22
  8
0
  6
CONTINUOUS
 62
     3
 10
-858.185426375224
 20
-116.975845336914
 30
0.0
 11
-869.067619401885
 21
-116.975845336914
 31
0.0
  0
LINE
  5
    23
  8
0
  6
CONTINUOUS
 62
     3
 10
-867.067619401885
 20
-95.9758456945419
 30
0.0
 11
-867.067619401885
 21
-116.975845336914
 31
0.0
  0
LINE
  5
    24
  8
0
  6
CONTINUOUS
 62
     3
 10
-866.546674619739
 20
-98.9302689096475
 30
0.0
 11
-867.067619401885
 21
-95.9758456945419
 31
0.0
  0
LINE
  5
    25
  8
0
  6
CONTINUOUS
 62
     3
 10
-867.067619401885
 20
-95.9758456945419
 30
0.0
 11
-867.588564184032
 21
-98.9302689096475
 31
0.0
  0
LINE
  5
    26
  8
0
  6
CONTINUOUS
 62
     3
 10
-867.588564184032
 20
-114.021422121809
 30
0.0
 11
-867.067619401885
 21
-116.975845336914
 31
0.0
  0
LINE
  5
    27
  8
0
  6
CONTINUOUS
 62
     3
 10
-867.067619401885
 20
-116.975845336914
 30
0.0
 11
-866.546674619739
 21
-114.021422121809
 31
0.0
  0
ENDBLK
  5
    28
  8
0
  6
CONTINUOUS
 62
     7
  0
BLOCK
  5
    29
  8
0
  6
CONTINUOUS
 62
     7
  2
*UDIM176
 70
    65
 10
0.0
 20
0.0
 30
0.0
  3
*UDIM176
  0
TEXT
  5
    2A
  8
0
  6
CONTINUOUS
 62
     7
 10
-868.067619406404
 20
-130.25084395694
 30
0.0
 40
2.99999997871263
  1
30
 50
449.999999896069
 41
0.933333333333333
 72
     1
 11
-869.567619391242
 21
-127.750843971968
 31
0.0
 73
     2
  0
LINE
  5
    2B
  8
0
  6
CONTINUOUS
 62
     3
 10
-850.492688137694
 20
-137.975844979286
 30
0.0
 11
-869.067619401885
 21
-137.975844979286
 31
0.0
  0
LINE
  5
    2C
  8
0
  6
CONTINUOUS
 62
     3
 10
-867.067619401885
 20
-116.975845336914
 30
0.0
 11
-867.067619401885
 21
-137.975844979286
 31
0.0
  0
LINE
  5
    2D
  8
0
  6
CONTINUOUS
 62
     3
 10
-866.546674619739
 20
-119.93026855202
 30
0.0
 11
-867.067619401885
 21
-116.975845336914
 31
0.0
  0
LINE
  5
    2E
  8
0
  6
CONTINUOUS
 62
     3
 10
-867.067619401885
 20
-116.975845336914
 30
0.0
 11
-867.588564184032
 21
-119.93026855202
 31
0.0
  0
LINE
  5
    2F
  8
0
  6
CONTINUOUS
 62
     3
 10
-867.588564184032
 20
-135.021421764181
 30
0.0
 11
-867.067619401885
 21
-137.975844979286
 31
0.0
  0
LINE
  5
    30
  8
0
  6
CONTINUOUS
 62
     3
 10
-867.067619401885
 20
-137.975844979286
 30
0.0
 11
-866.546674619739
 21
-135.021421764181
 31
0.0
  0
ENDBLK
  5
    31
  8
0
  6
CONTINUOUS
 62
     7
  0
BLOCK
  5
    32
  8
0
  6
CONTINUOUS
 62
     3
  2
*UDIM177
 70
    65
 10
0.0
 20
0.0
 30
0.0
  3
*UDIM177
  0
TEXT
  5
    33
  8
0
  6
CONTINUOUS
 62
     3
 10
-833.056607161953
 20
-128.450846658875
 30
0.0
 40
2.99999997871263
  1
11
 50
449.999999896069
 41
0.933333333333333
 72
     1
 11
-834.55660714679
 21
-125.950846673903
 31
0.0
 73
     2
  0
TEXT
  5
    34
  8
0
  6
CONTINUOUS
 62
     3
 10
-833.056607159422
 20
-131.200846655185
 30
0.0
 40
2.99999997871263
  1
Ø
 50
449.999999896069
 41
0.933333333333333
 72
     1
 11
-834.55660714679
 21
-130.100846660279
 31
0.0
 73
     2
  0
LINE
  5
    35
  8
0
  6
CONTINUOUS
 62
     3
 10
-832.056607157434
 20
-113.125845402479
 30
0.0
 11
-832.056607157434
 21
-131.200846652474
 31
0.0
  0
LINE
  5
    36
  8
0
  6
CONTINUOUS
 62
     3
 10
-831.535662375287
 20
-116.080268617585
 30
0.0
 11
-832.056607157434
 21
-113.125845402479
 31
0.0
  0
LINE
  5
    37
  8
0
  6
CONTINUOUS
 62
     3
 10
-832.056607157434
 20
-113.125845402479
 30
0.0
 11
-832.57755193958
 21
-116.080268617585
 31
0.0
  0
LINE
  5
    38
  8
0
  6
CONTINUOUS
 62
     3
 10
-832.57755193958
 20
-117.871422056243
 30
0.0
 11
-832.056607157434
 21
-120.825845271349
 31
0.0
  0
LINE
  5
    39
  8
0
  6
CONTINUOUS
 62
     3
 10
-832.056607157434
 20
-120.825845271349
 30
0.0
 11
-831.535662375287
 21
-117.871422056243
 31
0.0
  0
ENDBLK
  5
    3A
  8
0
  6
CONTINUOUS
 62
     3
  0
BLOCK
  5
    3B
  8
0
  6
CONTINUOUS
 62
     3
  2
*UDIM178
 70
    65
 10
0.0
 20
0.0
 30
0.0
  3
*UDIM178
  0
TEXT
  5
    3C
  8
0
  6
CONTINUOUS
 62
     3
 10
-824.661859929171
 20
-154.971551607996
 30
0.0
 40
2.99999997871263
  1
60
 50
359.999999896069
 41
0.933333333333333
 72
     1
 11
-822.161859944197
 21
-153.471551623162
 31
0.0
 73
     2
  0
LINE
  5
    3D
  8
0
  6
CONTINUOUS
 62
     3
 10
-800.186861678692
 20
-148.475844800472
 30
0.0
 11
-800.186861678692
 21
-157.971551612518
 31
0.0
  0
LINE
  5
    3E
  8
0
  6
CONTINUOUS
 62
     3
 10
-843.586860939594
 20
-123.275845229626
 30
0.0
 11
-843.586860939594
 21
-157.971551612518
 31
0.0
  0
LINE
  5
    3F
  8
0
  6
CONTINUOUS
 62
     3
 10
-800.186861678692
 20
-155.971551612518
 30
0.0
 11
-843.586860939594
 21
-155.971551612518
 31
0.0
  0
LINE
  5
    40
  8
0
  6
CONTINUOUS
 62
     3
 10
-803.141284893797
 20
-156.492496394665
 30
0.0
 11
-800.186861678692
 21
-155.971551612518
 31
0.0
  0
LINE
  5
    41
  8
0
  6
CONTINUOUS
 62
     3
 10
-800.186861678692
 20
-155.971551612518
 30
0.0
 11
-803.141284893797
 21
-155.450606830372
 31
0.0
  0
LINE
  5
    42
  8
0
  6
CONTINUOUS
 62
     3
 10
-840.632437724489
 20
-155.450606830372
 30
0.0
 11
-843.586860939594
 21
-155.971551612518
 31
0.0
  0
LINE
  5
    43
  8
0
  6
CONTINUOUS
 62
     3
 10
-843.586860939594
 20
-155.971551612518
 30
0.0
 11
-840.632437724489
 21
-156.492496394665
 31
0.0
  0
ENDBLK
  5
    44
  8
0
  6
CONTINUOUS
 62
     3
  0
BLOCK
  5
    45
  8
0
  6
CONTINUOUS
 62
     3
  2
*UDIM179
 70
    65
 10
0.0
 20
0.0
 30
0.0
  3
*UDIM179
  0
TEXT
  5
    46
  8
0
  6
CONTINUOUS
 62
     3
 10
-829.211859851685
 20
-161.775135781683
 30
0.0
 40
2.99999997871263
  1
75
 50
359.999999896069
 41
0.933333333333333
 72
     1
 11
-826.711859866711
 21
-160.275135796849
 31
0.0
 73
     2
  0
LINE
  5
    47
  8
0
  6
CONTINUOUS
 62
     3
 10
-800.186861678692
 20
-148.475844800472
 30
0.0
 11
-800.186861678692
 21
-164.775135786205
 31
0.0
  0
LINE
  5
    48
  8
0
  6
CONTINUOUS
 62
     3
 10
-852.686860784622
 20
-119.425845295191
 30
0.0
 11
-852.686860784622
 21
-164.775135786205
 31
0.0
  0
LINE
  5
    49
  8
0
  6
CONTINUOUS
 62
     3
 10
-800.186861678692
 20
-162.775135786205
 30
0.0
 11
-852.686860784622
 21
-162.775135786205
 31
0.0
  0
LINE
  5
    4A
  8
0
  6
CONTINUOUS
 62
     3
 10
-803.141284893797
 20
-163.296080568351
 30
0.0
 11
-800.186861678692
 21
-162.775135786205
 31
0.0
  0
LINE
  5
    4B
  8
0
  6
CONTINUOUS
 62
     3
 10
-800.186861678692
 20
-162.775135786205
 30
0.0
 11
-803.141284893797
 21
-162.254191004058
 31
0.0
  0
LINE
  5
    4C
  8
0
  6
CONTINUOUS
 62
     3
 10
-849.732437569517
 20
-162.254191004058
 30
0.0
 11
-852.686860784622
 21
-162.775135786205
 31
0.0
  0
LINE
  5
    4D
  8
0
  6
CONTINUOUS
 62
     3
 10
-852.686860784622
 20
-162.775135786205
 30
0.0
 11
-849.732437569517
 21
-163.296080568351
 31
0.0
  0
ENDBLK
  5
    4E
  8
0
  6
CONTINUOUS
 62
     3
  0
BLOCK
  5
    4F
  8
0
  6
CONTINUOUS
 62
     7
  2
*UDIM180
 70
    65
 10
0.0
 20
0.0
 30
0.0
  3
*UDIM180
  0
TEXT
  5
    50
  8
0
  6
CONTINUOUS
 62
     7
 10
-859.410619536855
 20
-106.299172968539
 30
0.0
 40
2.99999997871263
  1
8
 50
449.999999896069
 41
0.933333333333333
 72
     1
 11
-860.910619524223
 21
-105.199172973633
 31
0.0
 73
     2
  0
TEXT
  5
    51
  8
0
  6
CONTINUOUS
 62
     7
 10
-859.410619536855
 20
-109.499172952928
 30
0.0
 40
2.99999997871263
  1
M
 50
449.999999896069
 41
0.933333333333333
 72
     1
 11
-860.910619524223
 21
-108.399172958022
 31
0.0
 73
     2
  0
LINE
  5
    52
  8
0
  6
CONTINUOUS
 62
     7
 10
-853.336860790583
 20
-114.175845384598
 30
0.0
 11
-860.410619534867
 21
-114.175845384598
 31
0.0
  0
LINE
  5
    53
  8
0
  6
CONTINUOUS
 62
     7
 10
-853.336860790583
 20
-119.77584528923
 30
0.0
 11
-860.410619534867
 21
-119.77584528923
 31
0.0
  0
LINE
  5
    54
  8
0
  6
CONTINUOUS
 62
     7
 10
-858.410619534867
 20
-104.099172981438
 30
0.0
 11
-858.410619534867
 21
-124.77584528923
 31
0.0
  0
LINE
  5
    55
  8
0
  6
CONTINUOUS
 62
     3
 10
-859.187076691285
 20
-111.278067911387
 30
0.0
 11
-858.410619534867
 21
-114.175845384598
 31
0.0
  0
LINE
  5
    56
  8
0
  6
CONTINUOUS
 62
     3
 10
-858.410619534867
 20
-114.175845384598
 30
0.0
 11
-857.634162378448
 21
-111.278067911387
 31
0.0
  0
LINE
  5
    57
  8
0
  6
CONTINUOUS
 62
     3
 10
-857.634162378448
 20
-122.673622762441
 30
0.0
 11
-858.410619534867
 21
-119.77584528923
 31
0.0
  0
LINE
  5
    58
  8
0
  6
CONTINUOUS
 62
     3
 10
-858.410619534867
 20
-119.77584528923
 30
0.0
 11
-859.187076691285
 21
-122.673622762441
 31
0.0
  0
ENDBLK
  5
    59
  8
0
  6
CONTINUOUS
 62
     7
  0
BLOCK
  5
    5A
  8
0
  6
CONTINUOUS
 62
     7
  2
*UDIM181
 70
    65
 10
0.0
 20
0.0
 30
0.0
  3
*UDIM181
  0
TEXT
  5
    5B
  8
0
  6
CONTINUOUS
 62
     7
 10
-952.614176324556
 20
-61.4489916098656
 30
0.0
 40
2.99999997871263
  1
30
 50
359.999999844103
 41
0.933333333333333
 72
     1
 11
-950.114176338222
 21
-59.948991627299
 31
0.0
 73
     2
  0
LINE
  5
    5C
  8
0
  6
CONTINUOUS
 62
     3
 10
-960.339171691737
 20
-71.0208473801613
 30
0.0
 11
-960.339168373057
 21
-60.4489916166555
 31
0.0
  0
LINE
  5
    5D
  8
0
  6
CONTINUOUS
 62
     3
 10
-939.339172049365
 20
-71.0208473801613
 30
0.0
 11
-939.339168730685
 21
-60.4489916166555
 31
0.0
  0
LINE
  5
    5E
  8
0
  6
CONTINUOUS
 62
     3
 10
-960.33916900089
 20
-62.4489916166554
 30
0.0
 11
-939.339169358518
 21
-62.4489916166554
 31
0.0
  0
LINE
  5
    5F
  8
0
  6
CONTINUOUS
 62
     3
 10
-957.384745785785
 20
-61.928046834509
 30
0.0
 11
-960.33916900089
 21
-62.4489916166554
 31
0.0
  0
LINE
  5
    60
  8
0
  6
CONTINUOUS
 62
     3
 10
-960.33916900089
 20
-62.4489916166554
 30
0.0
 11
-957.384745785785
 21
-62.9699363988017
 31
0.0
  0
LINE
  5
    61
  8
0
  6
CONTINUOUS
 62
     3
 10
-942.293592573624
 20
-62.9699363988017
 30
0.0
 11
-939.339169358518
 21
-62.4489916166554
 31
0.0
  0
LINE
  5
    62
  8
0
  6
CONTINUOUS
 62
     3
 10
-939.339169358518
 20
-62.4489916166554
 30
0.0
 11
-942.293592573624
 21
-61.928046834509
 31
0.0
  0
ENDBLK
  5
    63
  8
0
  6
CONTINUOUS
 62
     7
  0
BLOCK
  5
    64
  8
0
  6
CONTINUOUS
 62
     7
  2
*UDIM182
 70
    65
 10
0.0
 20
0.0
 30
0.0
  3
*UDIM182
  0
TEXT
  5
    65
  8
0
  6
CONTINUOUS
 62
     7
 10
-931.614178023289
 20
-61.4489916098656
 30
0.0
 40
2.99999997871263
  1
30
 50
359.999999844103
 41
0.933333333333333
 72
     1
 11
-929.114178036954
 21
-59.948991627299
 31
0.0
 73
     2
  0
LINE
  5
    66
  8
0
  6
CONTINUOUS
 62
     3
 10
-918.339172406993
 20
-71.0208473801613
 30
0.0
 11
-918.339169088313
 21
-60.4489916166555
 31
0.0
  0
LINE
  5
    67
  8
0
  6
CONTINUOUS
 62
     3
 10
-939.339169358518
 20
-62.4489916166554
 30
0.0
 11
-918.339169716146
 21
-62.4489916166554
 31
0.0
  0
LINE
  5
    68
  8
0
  6
CONTINUOUS
 62
     3
 10
-936.384746143412
 20
-61.928046834509
 30
0.0
 11
-939.339169358518
 21
-62.4489916166554
 31
0.0
  0
LINE
  5
    69
  8
0
  6
CONTINUOUS
 62
     3
 10
-939.339169358518
 20
-62.4489916166554
 30
0.0
 11
-936.384746143412
 21
-62.9699363988017
 31
0.0
  0
LINE
  5
    6A
  8
0
  6
CONTINUOUS
 62
     3
 10
-921.293592931251
 20
-62.9699363988017
 30
0.0
 11
-918.339169716146
 21
-62.4489916166554
 31
0.0
  0
LINE
  5
    6B
  8
0
  6
CONTINUOUS
 62
     3
 10
-918.339169716146
 20
-62.4489916166554
 30
0.0
 11
-921.293592931251
 21
-61.928046834509
 31
0.0
  0
ENDBLK
  5
    6C
  8
0
  6
CONTINUOUS
 62
     7
  0
BLOCK
  5
    6D
  8
0
  6
CONTINUOUS
 62
     3
  2
*UDIM183
 70
    65
 10
0.0
 20
0.0
 30
0.0
  3
*UDIM183
  0
TEXT
  5
    6E
  8
0
  6
CONTINUOUS
 62
     3
 10
-894.510901608249
 20
-62.3058612259572
 30
0.0
 40
2.99999997871263
  1
18
 50
401.366286070671
 41
0.933333333333333
 72
     1
 11
-893.625957000694
 21
-59.5279352152557
 31
0.0
 73
     2
  0
TEXT
  5
    6F
  8
0
  6
CONTINUOUS
 62
     3
 10
-896.574776785746
 20
-64.1232547528021
 30
0.0
 40
2.99999997871263
  1
Ø
 50
401.366286070671
 41
0.933333333333333
 72
     1
 11
-896.740532266299
 21
-62.2705472552289
 31
0.0
 73
     2
  0
LINE
  5
    70
  8
0
  6
CONTINUOUS
 62
     3
 10
-890.097530921761
 20
-59.7520094520348
 30
0.0
 11
-923.067323059118
 21
-88.7843304461398
 31
0.0
  0
LINE
  5
    71
  8
0
  6
CONTINUOUS
 62
     3
 10
-915.484040229384
 20
-82.8008237515524
 30
0.0
 11
-913.6110223827
 21
-80.4573638850294
 31
0.0
  0
LINE
  5
    72
  8
0
  6
CONTINUOUS
 62
     3
 10
-913.6110223827
 20
-80.4573638850294
 30
0.0
 11
-916.172594174621
 21
-82.0188855643017
 31
0.0
  0
LINE
  5
    73
  8
0
  6
CONTINUOUS
 62
     3
 10
-921.194305212434
 20
-86.4408705796167
 30
0.0
 11
-923.067323059118
 21
-88.7843304461398
 31
0.0
  0
LINE
  5
    74
  8
0
  6
CONTINUOUS
 62
     3
 10
-923.067323059118
 20
-88.7843304461398
 30
0.0
 11
-920.505751267198
 21
-87.2228087668675
 31
0.0
  0
ENDBLK
  5
    75
  8
0
  6
CONTINUOUS
 62
     3
  0
BLOCK
  5
    76
  8
0
  6
CONTINUOUS
 62
     3
  2
*UDIM184
 70
    65
 10
0.0
 20
0.0
 30
0.0
  3
*UDIM184
  0
TEXT
  5
    77
  8
0
  6
CONTINUOUS
 62
     3
 10
-982.812004898713
 20
-109.445845590275
 30
0.0
 40
2.99999997871263
  1
63
 50
449.999999844103
 41
0.933333333333333
 72
     1
 11
-984.312004881283
 21
-106.945845603943
 31
0.0
 73
     2
  0
LINE
  5
    78
  8
0
  6
CONTINUOUS
 62
     3
 10
-969.439171850681
 20
-84.6208471655846
 30
0.0
 11
-983.812004891927
 21
-84.6208471655846
 31
0.0
  0
LINE
  5
    79
  8
0
  6
CONTINUOUS
 62
     3
 10
-973.686022273604
 20
-128.720846414566
 30
0.0
 11
-983.812004891927
 21
-128.720846414566
 31
0.0
  0
LINE
  5
    7A
  8
0
  6
CONTINUOUS
 62
     3
 10
-981.812004891926
 20
-84.6208471655846
 30
0.0
 11
-981.812004891926
 21
-128.720846414566
 31
0.0
  0
LINE
  5
    7B
  8
0
  6
CONTINUOUS
 62
     3
 10
-981.29106010978
 20
-87.5752703806901
 30
0.0
 11
-981.812004891926
 21
-84.6208471655846
 31
0.0
  0
LINE
  5
    7C
  8
0
  6
CONTINUOUS
 62
     3
 10
-981.812004891926
 20
-84.6208471655846
 30
0.0
 11
-982.332949674073
 21
-87.5752703806901
 31
0.0
  0
LINE
  5
    7D
  8
0
  6
CONTINUOUS
 62
     3
 10
-982.332949674073
 20
-125.766423199461
 30
0.0
 11
-981.812004891926
 21
-128.720846414566
 31
0.0
  0
LINE
  5
    7E
  8
0
  6
CONTINUOUS
 62
     3
 10
-981.812004891926
 20
-128.720846414566
 30
0.0
 11
-981.29106010978
 21
-125.766423199461
 31
0.0
  0
ENDBLK
  5
    7F
  8
0
  6
CONTINUOUS
 62
     3
  0
BLOCK
  5
    80
  8
0
  6
CONTINUOUS
 62
     3
  2
*UDIM185
 70
    65
 10
0.0
 20
0.0
 30
0.0
  3
*UDIM185
  0
TEXT
  5
    81
  8
0
  6
CONTINUOUS
 62
     3
 10
-976.075789421999
 20
-109.795845584315
 30
0.0
 40
2.99999997871263
  1
62
 50
449.999999844103
 41
0.933333333333333
 72
     1
 11
-977.575789404569
 21
-107.295845597982
 31
0.0
 73
     2
  0
LINE
  5
    82
  8
0
  6
CONTINUOUS
 62
     3
 10
-956.489172071219
 20
-85.3208471536636
 30
0.0
 11
-977.075789415213
 21
-85.3208471536636
 31
0.0
  0
LINE
  5
    83
  8
0
  6
CONTINUOUS
 62
     3
 10
-973.686022273604
 20
-128.720846414566
 30
0.0
 11
-977.075789415213
 21
-128.720846414566
 31
0.0
  0
LINE
  5
    84
  8
0
  6
CONTINUOUS
 62
     3
 10
-975.075789415213
 20
-85.3208471536636
 30
0.0
 11
-975.075789415213
 21
-128.720846414566
 31
0.0
  0
LINE
  5
    85
  8
0
  6
CONTINUOUS
 62
     3
 10
-974.554844633067
 20
-88.2752703687692
 30
0.0
 11
-975.075789415213
 21
-85.3208471536636
 31
0.0
  0
LINE
  5
    86
  8
0
  6
CONTINUOUS
 62
     3
 10
-975.075789415213
 20
-85.3208471536636
 30
0.0
 11
-975.596734197359
 21
-88.2752703687692
 31
0.0
  0
LINE
  5
    87
  8
0
  6
CONTINUOUS
 62
     3
 10
-975.596734197359
 20
-125.766423199461
 30
0.0
 11
-975.075789415213
 21
-128.720846414566
 31
0.0
  0
LINE
  5
    88
  8
0
  6
CONTINUOUS
 62
     3
 10
-975.075789415213
 20
-128.720846414566
 30
0.0
 11
-974.554844633067
 21
-125.766423199461
 31
0.0
  0
ENDBLK
  5
    89
  8
0
  6
CONTINUOUS
 62
     3
  0
BLOCK
  5
    8A
  8
0
  6
CONTINUOUS
 62
     3
  2
*UDIM186
 70
    65
 10
0.0
 20
0.0
 30
0.0
  3
*UDIM186
  0
TEXT
  5
    8B
  8
0
  6
CONTINUOUS
 62
     3
 10
-942.114174150634
 20
-183.281091738446
 30
0.0
 40
2.99999997871263
  1
30
 50
359.999999844103
 41
0.933333333333333
 72
     1
 11
-939.614174164299
 21
-181.78109175588
 31
0.0
 73
     2
  0
LINE
  5
    8C
  8
0
  6
CONTINUOUS
 62
     3
 10
-949.839172184467
 20
-93.7208470106125
 30
0.0
 11
-949.839201240654
 21
-186.281091745236
 31
0.0
  0
LINE
  5
    8D
  8
0
  6
CONTINUOUS
 62
     3
 10
-928.839172542095
 20
-163.72084581852
 30
0.0
 11
-928.839179624128
 21
-186.281091745236
 31
0.0
  0
LINE
  5
    8E
  8
0
  6
CONTINUOUS
 62
     3
 10
-949.83920061282
 20
-184.281091745236
 30
0.0
 11
-928.839178996295
 21
-184.281091745236
 31
0.0
  0
LINE
  5
    8F
  8
0
  6
CONTINUOUS
 62
     3
 10
-946.884777397715
 20
-183.76014696309
 30
0.0
 11
-949.83920061282
 21
-184.281091745236
 31
0.0
  0
LINE
  5
    90
  8
0
  6
CONTINUOUS
 62
     3
 10
-949.83920061282
 20
-184.281091745236
 30
0.0
 11
-946.884777397715
 21
-184.802036527383
 31
0.0
  0
LINE
  5
    91
  8
0
  6
CONTINUOUS
 62
     3
 10
-931.793602211401
 20
-184.802036527383
 30
0.0
 11
-928.839178996295
 21
-184.281091745236
 31
0.0
  0
LINE
  5
    92
  8
0
  6
CONTINUOUS
 62
     3
 10
-928.839178996295
 20
-184.281091745236
 30
0.0
 11
-931.793602211401
 21
-183.76014696309
 31
0.0
  0
ENDBLK
  5
    93
  8
0
  6
CONTINUOUS
 62
     3
  0
BLOCK
  5
    94
  8
0
  6
CONTINUOUS
 62
     3
  2
*UDIM187
 70
    65
 10
0.0
 20
0.0
 30
0.0
  3
*UDIM187
  0
TEXT
  5
    95
  8
0
  6
CONTINUOUS
 62
     3
 10
-890.515586949166
 20
-124.495840728523
 30
0.0
 40
2.99999997871263
  1
100
 50
449.999999844103
 41
0.933333333333333
 72
     1
 11
-892.015586927935
 21
-120.595840752125
 31
0.0
 73
     2
  0
LINE
  5
    96
  8
0
  6
CONTINUOUS
 62
     3
 10
-939.689172357321
 20
-85.3208471536636
 30
0.0
 11
-887.515586938579
 21
-85.3208471536636
 31
0.0
  0
LINE
  5
    97
  8
0
  6
CONTINUOUS
 62
     3
 10
-922.189172655344
 20
-155.320845961571
 30
0.0
 11
-887.515586938579
 21
-155.320845961571
 31
0.0
  0
LINE
  5
    98
  8
0
  6
CONTINUOUS
 62
     3
 10
-889.515586938579
 20
-85.3208471536636
 30
0.0
 11
-889.515586938579
 21
-155.320845961571
 31
0.0
  0
LINE
  5
    99
  8
0
  6
CONTINUOUS
 62
     3
 10
-888.994642156432
 20
-88.2752703687692
 30
0.0
 11
-889.515586938579
 21
-85.3208471536636
 31
0.0
  0
LINE
  5
    9A
  8
0
  6
CONTINUOUS
 62
     3
 10
-889.515586938579
 20
-85.3208471536636
 30
0.0
 11
-890.036531720725
 21
-88.2752703687692
 31
0.0
  0
LINE
  5
    9B
  8
0
  6
CONTINUOUS
 62
     3
 10
-890.036531720725
 20
-152.366422746465
 30
0.0
 11
-889.515586938579
 21
-155.320845961571
 31
0.0
  0
LINE
  5
    9C
  8
0
  6
CONTINUOUS
 62
     3
 10
-889.515586938579
 20
-155.320845961571
 30
0.0
 11
-888.994642156432
 21
-152.366422746465
 31
0.0
  0
ENDBLK
  5
    9D
  8
0
  6
CONTINUOUS
 62
     3
  0
BLOCK
  5
    9E
  8
0
  6
CONTINUOUS
 62
     3
  2
*UDIM188
 70
    65
 10
0.0
 20
0.0
 30
0.0
  3
*UDIM188
  0
TEXT
  5
    9F
  8
0
  6
CONTINUOUS
 62
     3
 10
-882.649975816027
 20
-124.495840728523
 30
0.0
 40
2.99999997871263
  1
102
 50
449.999999844103
 41
0.933333333333333
 72
     1
 11
-884.149975794796
 21
-120.595840752125
 31
0.0
 73
     2
  0
LINE
  5
    A0
  8
0
  6
CONTINUOUS
 62
     3
 10
-909.239172875881
 20
-84.6208471655846
 30
0.0
 11
-879.649975805439
 21
-84.6208471655846
 31
0.0
  0
LINE
  5
    A1
  8
0
  6
CONTINUOUS
 62
     3
 10
-909.239172875881
 20
-156.02084594965
 30
0.0
 11
-879.649975805439
 21
-156.02084594965
 31
0.0
  0
LINE
  5
    A2
  8
0
  6
CONTINUOUS
 62
     3
 10
-881.649975805439
 20
-84.6208471655846
 30
0.0
 11
-881.649975805439
 21
-156.02084594965
 31
0.0
  0
LINE
  5
    A3
  8
0
  6
CONTINUOUS
 62
     3
 10
-881.129031023293
 20
-87.5752703806901
 30
0.0
 11
-881.649975805439
 21
-84.6208471655846
 31
0.0
  0
LINE
  5
    A4
  8
0
  6
CONTINUOUS
 62
     3
 10
-881.649975805439
 20
-84.6208471655846
 30
0.0
 11
-882.170920587586
 21
-87.5752703806901
 31
0.0
  0
LINE
  5
    A5
  8
0
  6
CONTINUOUS
 62
     3
 10
-882.170920587586
 20
-153.066422734544
 30
0.0
 11
-881.649975805439
 21
-156.02084594965
 31
0.0
  0
LINE
  5
    A6
  8
0
  6
CONTINUOUS
 62
     3
 10
-881.649975805439
 20
-156.02084594965
 30
0.0
 11
-881.129031023293
 21
-153.066422734544
 31
0.0
  0
ENDBLK
  5
    A7
  8
0
  6
CONTINUOUS
 62
     3
  0
BLOCK
  5
    A8
  8
0
  6
CONTINUOUS
 62
     7
  2
*UDIM189
 70
    65
 10
0.0
 20
0.0
 30
0.0
  3
*UDIM189
  0
TEXT
  5
    A9
  8
0
  6
CONTINUOUS
 62
     7
 10
-937.333540534057
 20
-143.680986203261
 30
0.0
 40
2.99999997871263
  1
4.5
 50
310.10006025871
 41
0.933333333333333
 72
     1
 11
-933.674074181256
 21
-145.697990359166
 31
0.0
 73
     2
  0
TEXT
  5
    AA
  8
0
  6
CONTINUOUS
 62
     7
 10
-939.910038270612
 20
-140.621303336815
 30
0.0
 40
2.99999997871263
  1
Ø
 50
310.10006025871
 41
1.2
 72
     1
 11
-937.796470549023
 21
-140.802497769389
 31
0.0
 73
     2
  0
TEXT
  5
    AB
  8
0
  6
CONTINUOUS
 62
     7
 10
-947.38188167558
 20
-131.748223015605
 30
0.0
 40
2.99999997871263
  1
M4 o
 50
310.10006025871
 41
0.933333333333333
 72
     1
 11
-942.820641121239
 21
-134.836116176786
 31
0.0
 73
     2
  0
LINE
  5
    AC
  8
0
  6
CONTINUOUS
 62
     7
 10
-929.209544075703
 20
-154.881016567091
 30
0.0
 11
-948.146802405701
 21
-132.392347464316
 31
0.0
  0
LINE
  5
    AD
  8
0
  6
CONTINUOUS
 62
     3
 10
-932.314125962017
 20
-152.399660837336
 30
0.0
 11
-929.853668512022
 21
-154.116095845359
 31
0.0
  0
LINE
  5
    AE
  8
0
  6
CONTINUOUS
 62
     3
 10
-929.853668512022
 20
-154.116095845359
 30
0.0
 11
-931.126269625053
 21
-151.399390780927
 31
0.0
  0
ENDBLK
  5
    AF
  8
0
  6
CONTINUOUS
 62
     7
  0
BLOCK
  5
    B0
  8
0
  6
CONTINUOUS
 62
     7
  2
*HATCH83
 70
    65
 10
0.0
 20
0.0
 30
0.0
  3
*HATCH83
  0
LINE
  5
    B1
  8
0
  6
CONTINUOUS
 62
     7
 10
-54.0224685668945
 20
-126.147354125977
 30
0.0
 11
-55.222469329834
 21
-127.347351074219
 31
0.0
  0
LINE
  5
    B2
  8
0
  6
CONTINUOUS
 62
     7
 10
-49.7798271179199
 20
-126.147354125977
 30
0.0
 11
-50.9798278808594
 21
-127.347351074219
 31
0.0
  0
LINE
  5
    B3
  8
0
  6
CONTINUOUS
 62
     7
 10
-45.5371856689453
 20
-126.147354125977
 30
0.0
 11
-46.7371864318848
 21
-127.347351074219
 31
0.0
  0
LINE
  5
    B4
  8
0
  6
CONTINUOUS
 62
     7
 10
-41.2945442199707
 20
-126.147354125977
 30
0.0
 11
-42.4945449829102
 21
-127.347351074219
 31
0.0
  0
ENDBLK
  5
    B5
  8
0
  6
CONTINUOUS
 62
     7
  0
BLOCK
  5
    B6
  8
0
  6
CONTINUOUS
 62
     7
  2
*HATCH84
 70
    65
 10
0.0
 20
0.0
 30
0.0
  3
*HATCH84
  0
LINE
  5
    B7
  8
0
  6
CONTINUOUS
 62
     7
 10
-32.8092651367188
 20
-126.147354125977
 30
0.0
 11
-33.4999885559082
 21
-126.838081359863
 31
0.0
  0
LINE
  5
    B8
  8
0
  6
CONTINUOUS
 62
     7
 10
-28.8601341247559
 20
-126.440864562988
 30
0.0
 11
-29.9207935333252
 21
-127.501525878906
 31
0.0
  0
ENDBLK
  5
    B9
  8
0
  6
CONTINUOUS
 62
     7
  0
BLOCK
  5
    BA
  8
0
  6
CONTINUOUS
 62
     7
  2
*HATCH85
 70
    65
 10
0.0
 20
0.0
 30
0.0
  3
*HATCH85
  0
LINE
  5
    BB
  8
0
  6
CONTINUOUS
 62
     7
 10
-24.3239727020264
 20
-126.147346496582
 30
0.0
 11
-25.523983001709
 21
-127.347351074219
 31
0.0
  0
LINE
  5
    BC
  8
0
  6
CONTINUOUS
 62
     7
 10
-20.2998905181885
 20
-126.365905761719
 30
0.0
 11
-21.2813415527344
 21
-127.347351074219
 31
0.0
  0
LINE
  5
    BD
  8
0
  6
CONTINUOUS
 62
     7
 10
-17.6101741790771
 20
-127.918830871582
 30
0.0
 11
-18.4886226654053
 21
-128.797271728516
 31
0.0
  0
ENDBLK
  5
    BE
  8
0
  6
CONTINUOUS
 62
     7
  0
BLOCK
  5
    BF
  8
0
  6
CONTINUOUS
 62
     3
  2
*HATCH86
 70
    65
 10
0.0
 20
0.0
 30
0.0
  3
*HATCH86
  0
LINE
  5
    C0
  8
0
  6
CONTINUOUS
 62
   210
 10
-47.4999885559082
 20
134.474243164063
 30
0.0
 11
-47.2185554504395
 21
134.192794799805
 31
0.0
  0
ENDBLK
  5
    C1
  8
0
  6
CONTINUOUS
 62
     3
  0
BLOCK
  5
    C2
  8
0
  6
CONTINUOUS
 62
     7
  2
*HATCH87
 70
    65
 10
0.0
 20
0.0
 30
0.0
  3
*HATCH87
  0
LINE
  5
    C3
  8
0
  6
CONTINUOUS
 62
     7
 10
-58.6862373352051
 20
-123.747352600098
 30
0.0
 11
-57.4862442016602
 21
-124.94734954834
 31
0.0
  0
LINE
  5
    C4
  8
0
  6
CONTINUOUS
 62
     7
 10
-54.4435997009277
 20
-123.747352600098
 30
0.0
 11
-53.2436141967773
 21
-124.947341918945
 31
0.0
  0
LINE
  5
    C5
  8
0
  6
CONTINUOUS
 62
     7
 10
-50.2009620666504
 20
-123.747352600098
 30
0.0
 11
-47.9009628295898
 21
-126.047355651855
 31
0.0
  0
ENDBLK
  5
    C6
  8
0
  6
CONTINUOUS
 62
     7
  0
BLOCK
  5
    C7
  8
0
  6
CONTINUOUS
 62
     7
  2
*HATCH88
 70
    65
 10
0.0
 20
0.0
 30
0.0
  3
*HATCH88
  0
LINE
  5
    C8
  8
0
  6
CONTINUOUS
 62
     7
 10
-48.6999855041504
 20
-129.490966796875
 30
0.0
 11
-47.4999885559082
 21
-130.690979003906
 31
0.0
  0
ENDBLK
  5
    C9
  8
0
  6
CONTINUOUS
 62
     7
  0
BLOCK
  5
    CA
  8
0
  6
CONTINUOUS
 62
     7
  2
*HATCH89
 70
    65
 10
0.0
 20
0.0
 30
0.0
  3
*HATCH89
  0
LINE
  5
    CB
  8
0
  6
CONTINUOUS
 62
     7
 10
-27.4999885559082
 20
-129.477783203125
 30
0.0
 11
-26.299991607666
 21
-130.677780151367
 31
0.0
  0
ENDBLK
  5
    CC
  8
0
  6
CONTINUOUS
 62
     7
  0
BLOCK
  5
    CD
  8
0
  6
CONTINUOUS
 62
     7
  2
*HATCH90
 70
    65
 10
0.0
 20
0.0
 30
0.0
  3
*HATCH90
  0
LINE
  5
    CE
  8
0
  6
CONTINUOUS
 62
     7
 10
-27.349479675293
 20
-125.385643005371
 30
0.0
 11
-26.6877727508545
 21
-126.047355651855
 31
0.0
  0
LINE
  5
    CF
  8
0
  6
CONTINUOUS
 62
     7
 10
-24.7451324462891
 20
-123.747352600098
 30
0.0
 11
-23.5451335906982
 21
-124.94734954834
 31
0.0
  0
LINE
  5
    D0
  8
0
  6
CONTINUOUS
 62
     7
 10
-20.5024948120117
 20
-123.747352600098
 30
0.0
 11
-19.3024959564209
 21
-124.94734954834
 31
0.0
  0
LINE
  5
    D1
  8
0
  6
CONTINUOUS
 62
     7
 10
-16.2598571777344
 20
-123.747352600098
 30
0.0
 11
-15.0598583221436
 21
-124.94734954834
 31
0.0
  0
LINE
  5
    D2
  8
0
  6
CONTINUOUS
 62
     7
 10
-12.017219543457
 20
-123.747352600098
 30
0.0
 11
-10.8172206878662
 21
-124.94734954834
 31
0.0
  0
LINE
  5
    D3
  8
0
  6
CONTINUOUS
 62
     7
 10
-7.77458143234253
 20
-123.747352600098
 30
0.0
 11
-6.57458257675171
 21
-124.94734954834
 31
0.0
  0
ENDBLK
  5
    D4
  8
0
  6
CONTINUOUS
 62
     7
  0
BLOCK
  5
    D5
  8
0
  6
CONTINUOUS
 62
     7
  2
*HATCH91
 70
    65
 10
0.0
 20
0.0
 30
0.0
  3
*HATCH91
  0
LINE
  5
    D6
  8
0
  6
CONTINUOUS
 62
    52
 10
-50.3687210083008
 20
-48.2473983764648
 30
0.0
 11
-50.5000152587891
 21
-48.3786926269531
 31
0.0
  0
LINE
  5
    D7
  8
0
  6
CONTINUOUS
 62
    52
 10
-48.2474021911621
 20
-48.2473983764648
 30
0.0
 11
-50.5000152587891
 21
-50.5000114440918
 31
0.0
  0
LINE
  5
    D8
  8
0
  6
CONTINUOUS
 62
    52
 10
-46.1260833740234
 20
-48.2473983764648
 30
0.0
 11
-49.1260833740234
 21
-51.2473983764648
 31
0.0
  0
LINE
  5
    D9
  8
0
  6
CONTINUOUS
 62
    52
 10
-44.0047645568848
 20
-48.2473983764648
 30
0.0
 11
-47.0047645568848
 21
-51.2473983764648
 31
0.0
  0
LINE
  5
    DA
  8
0
  6
CONTINUOUS
 62
    52
 10
-41.8834457397461
 20
-48.2473983764648
 30
0.0
 11
-44.8834457397461
 21
-51.2473983764648
 31
0.0
  0
LINE
  5
    DB
  8
0
  6
CONTINUOUS
 62
    52
 10
-39.7621269226074
 20
-48.2473983764648
 30
0.0
 11
-42.7621269226074
 21
-51.2473983764648
 31
0.0
  0
LINE
  5
    DC
  8
0
  6
CONTINUOUS
 62
    52
 10
-37.6408081054688
 20
-48.2473983764648
 30
0.0
 11
-40.6408081054688
 21
-51.2473983764648
 31
0.0
  0
LINE
  5
    DD
  8
0
  6
CONTINUOUS
 62
    52
 10
-35.5194892883301
 20
-48.2473983764648
 30
0.0
 11
-38.5194892883301
 21
-51.2473983764648
 31
0.0
  0
LINE
  5
    DE
  8
0
  6
CONTINUOUS
 62
    52
 10
-33.3981704711914
 20
-48.2473983764648
 30
0.0
 11
-36.3981704711914
 21
-51.2473983764648
 31
0.0
  0
LINE
  5
    DF
  8
0
  6
CONTINUOUS
 62
    52
 10
-31.2768497467041
 20
-48.2473983764648
 30
0.0
 11
-34.2768516540527
 21
-51.2473983764648
 31
0.0
  0
LINE
  5
    E0
  8
0
  6
CONTINUOUS
 62
    52
 10
-29.1555290222168
 20
-48.2473983764648
 30
0.0
 11
-32.1555328369141
 21
-51.2473983764648
 31
0.0
  0
LINE
  5
    E1
  8
0
  6
CONTINUOUS
 62
    52
 10
-27.0342082977295
 20
-48.2473983764648
 30
0.0
 11
-30.0342121124268
 21
-51.2473983764648
 31
0.0
  0
LINE
  5
    E2
  8
0
  6
CONTINUOUS
 62
    52
 10
-26.0000152587891
 20
-49.3345375061035
 30
0.0
 11
-27.912878036499
 21
-51.2473983764648
 31
0.0
  0
LINE
  5
    E3
  8
0
  6
CONTINUOUS
 62
    52
 10
-26.0000152587891
 20
-51.4558563232422
 30
0.0
 11
-27.2915573120117
 21
-52.7473983764648
 31
0.0
  0
ENDBLK
  5
    E4
  8
0
  6
CONTINUOUS
 62
     7
  0
BLOCK
  5
    E5
  8
0
  6
CONTINUOUS
 62
     7
  2
*HATCH92
 70
    65
 10
0.0
 20
0.0
 30
0.0
  3
*HATCH92
  0
LINE
  5
    E6
  8
0
  6
CONTINUOUS
 62
    52
 10
21.7561721801758
 20
-48.2473983764648
 30
0.0
 11
20.9999847412109
 21
-49.0035858154297
 31
0.0
  0
LINE
  5
    E7
  8
0
  6
CONTINUOUS
 62
    52
 10
23.8774929046631
 20
-48.2473983764648
 30
0.0
 11
20.9999847412109
 21
-51.1249046325684
 31
0.0
  0
LINE
  5
    E8
  8
0
  6
CONTINUOUS
 62
    52
 10
25.9988136291504
 20
-48.2473983764648
 30
0.0
 11
22.9988117218018
 21
-51.2473983764648
 31
0.0
  0
LINE
  5
    E9
  8
0
  6
CONTINUOUS
 62
    52
 10
22.4999847412109
 20
-51.7462272644043
 30
0.0
 11
21.4988117218018
 21
-52.7473983764648
 31
0.0
  0
LINE
  5
    EA
  8
0
  6
CONTINUOUS
 62
    52
 10
28.1201324462891
 20
-48.2473983764648
 30
0.0
 11
25.1201324462891
 21
-51.2473983764648
 31
0.0
  0
LINE
  5
    EB
  8
0
  6
CONTINUOUS
 62
    52
 10
30.2414531707764
 20
-48.2473983764648
 30
0.0
 11
27.2414531707764
 21
-51.2473983764648
 31
0.0
  0
LINE
  5
    EC
  8
0
  6
CONTINUOUS
 62
    52
 10
32.3627738952637
 20
-48.2473983764648
 30
0.0
 11
29.3627738952637
 21
-51.2473983764648
 31
0.0
  0
LINE
  5
    ED
  8
0
  6
CONTINUOUS
 62
    52
 10
34.4840927124023
 20
-48.2473983764648
 30
0.0
 11
31.484094619751
 21
-51.2473983764648
 31
0.0
  0
LINE
  5
    EE
  8
0
  6
CONTINUOUS
 62
    52
 10
36.605411529541
 20
-48.2473983764648
 30
0.0
 11
33.6054153442383
 21
-51.2473983764648
 31
0.0
  0
LINE
  5
    EF
  8
0
  6
CONTINUOUS
 62
    52
 10
38.7267303466797
 20
-48.2473983764648
 30
0.0
 11
35.726734161377
 21
-51.2473983764648
 31
0.0
  0
LINE
  5
    F0
  8
0
  6
CONTINUOUS
 62
    52
 10
40.8480491638184
 20
-48.2473983764648
 30
0.0
 11
37.8480529785156
 21
-51.2473983764648
 31
0.0
  0
LINE
  5
    F1
  8
0
  6
CONTINUOUS
 62
    52
 10
42.969367980957
 20
-48.2473983764648
 30
0.0
 11
39.9693717956543
 21
-51.2473983764648
 31
0.0
  0
LINE
  5
    F2
  8
0
  6
CONTINUOUS
 62
    52
 10
45.0906867980957
 20
-48.2473983764648
 30
0.0
 11
42.090690612793
 21
-51.2473983764648
 31
0.0
  0
LINE
  5
    F3
  8
0
  6
CONTINUOUS
 62
    52
 10
45.4999847412109
 20
-49.9594306945801
 30
0.0
 11
44.2120170593262
 21
-51.2473983764648
 31
0.0
  0
ENDBLK
  5
    F4
  8
0
  6
CONTINUOUS
 62
     7
  0
BLOCK
  5
    F5
  8
0
  6
CONTINUOUS
 62
     7
  2
*HATCH93
 70
    65
 10
0.0
 20
0.0
 30
0.0
  3
*HATCH93
  0
LINE
  5
    F6
  8
0
  6
CONTINUOUS
 62
     7
 10
-105.141891479492
 20
-117.869804382324
 30
0.0
 11
-106.250694274902
 21
-118.978607177734
 31
0.0
  0
LINE
  5
    F7
  8
0
  6
CONTINUOUS
 62
     7
 10
-104.717628479004
 20
-117.869804382324
 30
0.0
 11
-106.302513122559
 21
-119.454689025879
 31
0.0
  0
LINE
  5
    F8
  8
0
  6
CONTINUOUS
 62
     7
 10
-104.334205627441
 20
-117.91064453125
 30
0.0
 11
-106.198471069336
 21
-119.774909973145
 31
0.0
  0
LINE
  5
    F9
  8
0
  6
CONTINUOUS
 62
     7
 10
-104.088478088379
 20
-118.089179992676
 30
0.0
 11
-106.094429016113
 21
-120.09513092041
 31
0.0
  0
LINE
  5
    FA
  8
0
  6
CONTINUOUS
 62
     7
 10
-103.842750549316
 20
-118.267715454102
 30
0.0
 11
-105.885391235352
 21
-120.310356140137
 31
0.0
  0
LINE
  5
    FB
  8
0
  6
CONTINUOUS
 62
     7
 10
-103.622047424316
 20
-118.47127532959
 30
0.0
 11
-105.639663696289
 21
-120.488891601563
 31
0.0
  0
LINE
  5
    FC
  8
0
  6
CONTINUOUS
 62
     7
 10
-103.518005371094
 20
-118.791496276855
 30
0.0
 11
-105.393936157227
 21
-120.667427062988
 31
0.0
  0
LINE
  5
    FD
  8
0
  6
CONTINUOUS
 62
     7
 10
-103.413955688477
 20
-119.111717224121
 30
0.0
 11
-105.025215148926
 21
-120.722969055176
 31
0.0
  0
LINE
  5
    FE
  8
0
  6
CONTINUOUS
 62
     7
 10
-103.440383911133
 20
-119.562408447266
 30
0.0
 11
-104.600952148438
 21
-120.722969055176
 31
0.0
  0
ENDBLK
  5
    FF
  8
0
  6
CONTINUOUS
 62
     7
  0
BLOCK
  5
   100
  8
0
  6
CONTINUOUS
 62
     7
  2
*HATCH94
 70
    65
 10
0.0
 20
0.0
 30
0.0
  3
*HATCH94
  0
LINE
  5
   101
  8
0
  6
CONTINUOUS
 62
     7
 10
-95.5163650512695
 20
-93.8193054199219
 30
0.0
 11
-96.5746612548828
 21
-94.8775939941406
 31
0.0
  0
LINE
  5
   102
  8
0
  6
CONTINUOUS
 62
     7
 10
-95.0921020507812
 20
-93.8193054199219
 30
0.0
 11
-96.651252746582
 21
-95.3784561157227
 31
0.0
  0
LINE
  5
   103
  8
0
  6
CONTINUOUS
 62
     7
 10
-94.6943359375
 20
-93.8458023071289
 30
0.0
 11
-96.5472030639648
 21
-95.6986694335938
 31
0.0
  0
LINE
  5
   104
  8
0
  6
CONTINUOUS
 62
     7
 10
-94.4486083984375
 20
-94.0243377685547
 30
0.0
 11
-96.4431610107422
 21
-96.0188903808594
 31
0.0
  0
LINE
  5
   105
  8
0
  6
CONTINUOUS
 62
     7
 10
-94.2028732299805
 20
-94.2028656005859
 30
0.0
 11
-96.2455139160156
 21
-96.2455062866211
 31
0.0
  0
LINE
  5
   106
  8
0
  6
CONTINUOUS
 62
     7
 10
-93.9707794189453
 20
-94.3950424194336
 30
0.0
 11
-95.9997863769531
 21
-96.4240417480469
 31
0.0
  0
LINE
  5
   107
  8
0
  6
CONTINUOUS
 62
     7
 10
-93.8667373657227
 20
-94.7152633666992
 30
0.0
 11
-95.7540588378906
 21
-96.6025772094727
 31
0.0
  0
LINE
  5
   108
  8
0
  6
CONTINUOUS
 62
     7
 10
-93.7626953125
 20
-95.0354766845703
 30
0.0
 11
-95.3996887207031
 21
-96.672477722168
 31
0.0
  0
LINE
  5
   109
  8
0
  6
CONTINUOUS
 62
     7
 10
-93.7643432617188
 20
-95.4613952636719
 30
0.0
 11
-94.9754257202149
 21
-96.672477722168
 31
0.0
  0
LINE
  5
   10A
  8
0
  6
CONTINUOUS
 62
     7
 10
-93.9685440063477
 20
-96.0898590087891
 30
0.0
 11
-94.0738906860352
 21
-96.1952056884766
 31
0.0
  0
ENDBLK
  5
   10B
  8
0
  6
CONTINUOUS
 62
     7
  0
BLOCK
  5
   10C
  8
0
  6
CONTINUOUS
 62
     3
  2
*UDIM190
 70
    65
 10
0.0
 20
0.0
 30
0.0
  3
*UDIM190
  0
TEXT
  5
   10D
  8
0
  6
CONTINUOUS
 62
     3
 10
-778.461920574069
 20
67.9771885461172
 30
0.0
 40
2.99999997871263
  1
71
 50
359.999999844103
 41
0.933333333333333
 72
     1
 11
-775.961920587734
 21
69.4771885286838
 31
0.0
 73
     2
  0
LINE
  5
   10E
  8
0
  6
CONTINUOUS
 62
     3
 10
-800.536902862788
 20
52.6167532801628
 30
0.0
 11
-800.536902862788
 21
68.9771885393275
 31
0.0
  0
LINE
  5
   10F
  8
0
  6
CONTINUOUS
 62
     3
 10
-750.836935558946
 20
62.8657114748818
 30
0.0
 11
-750.836935558946
 21
68.9771885393275
 31
0.0
  0
LINE
  5
   110
  8
0
  6
CONTINUOUS
 62
     3
 10
-800.536902862788
 20
66.9771885393275
 30
0.0
 11
-750.836935558946
 21
66.9771885393275
 31
0.0
  0
LINE
  5
   111
  8
0
  6
CONTINUOUS
 62
     3
 10
-797.582479647682
 20
67.4981333214738
 30
0.0
 11
-800.536902862788
 21
66.9771885393275
 31
0.0
  0
LINE
  5
   112
  8
0
  6
CONTINUOUS
 62
     3
 10
-800.536902862788
 20
66.9771885393275
 30
0.0
 11
-797.582479647682
 21
66.4562437571811
 31
0.0
  0
LINE
  5
   113
  8
0
  6
CONTINUOUS
 62
     3
 10
-753.791358774052
 20
66.4562437571811
 30
0.0
 11
-750.836935558946
 21
66.9771885393275
 31
0.0
  0
LINE
  5
   114
  8
0
  6
CONTINUOUS
 62
     3
 10
-750.836935558946
 20
66.9771885393275
 30
0.0
 11
-753.791358774052
 21
67.4981333214738
 31
0.0
  0
ENDBLK
  5
   115
  8
0
  6
CONTINUOUS
 62
     3
  0
BLOCK
  5
   116
  8
0
  6
CONTINUOUS
 62
     3
  2
*UDIM191
 70
    65
 10
0.0
 20
0.0
 30
0.0
  3
*UDIM191
  0
TEXT
  5
   117
  8
0
  6
CONTINUOUS
 62
     3
 10
-728.436042562148
 20
1.5417753415883
 30
0.0
 40
2.99999997871263
  1
45
 50
449.999999844103
 41
0.933333333333333
 72
     1
 11
-729.936042544718
 21
4.04177532792077
 31
0.0
 73
     2
  0
LINE
  5
   118
  8
0
  6
CONTINUOUS
 62
     3
 10
-747.686940786274
 20
20.0667752146719
 30
0.0
 11
-725.436042555361
 21
20.0667752146719
 31
0.0
  0
LINE
  5
   119
  8
0
  6
CONTINUOUS
 62
     3
 10
-747.686940786274
 20
-11.4332242488863
 30
0.0
 11
-725.436042555361
 21
-11.4332242488863
 31
0.0
  0
LINE
  5
   11A
  8
0
  6
CONTINUOUS
 62
     3
 10
-727.436042555361
 20
20.0667752146719
 30
0.0
 11
-727.436042555361
 21
-11.4332242488863
 31
0.0
  0
LINE
  5
   11B
  8
0
  6
CONTINUOUS
 62
     3
 10
-726.915097773215
 20
17.1123519995664
 30
0.0
 11
-727.436042555361
 21
20.0667752146719
 31
0.0
  0
LINE
  5
   11C
  8
0
  6
CONTINUOUS
 62
     3
 10
-727.436042555361
 20
20.0667752146719
 30
0.0
 11
-727.956987337508
 21
17.1123519995664
 31
0.0
  0
LINE
  5
   11D
  8
0
  6
CONTINUOUS
 62
     3
 10
-727.956987337508
 20
-8.47880103378072
 30
0.0
 11
-727.436042555361
 21
-11.4332242488863
 31
0.0
  0
LINE
  5
   11E
  8
0
  6
CONTINUOUS
 62
     3
 10
-727.436042555361
 20
-11.4332242488863
 30
0.0
 11
-726.915097773215
 21
-8.47880103378072
 31
0.0
  0
ENDBLK
  5
   11F
  8
0
  6
CONTINUOUS
 62
     3
  0
BLOCK
  5
   120
  8
0
  6
CONTINUOUS
 62
     7
  2
*UDIM192
 70
    65
 10
0.0
 20
0.0
 30
0.0
  3
*UDIM192
  0
TEXT
  5
   121
  8
0
  6
CONTINUOUS
 62
     7
 10
-850.125533788705
 20
-2.55823933805015
 30
0.0
 40
2.99999997871263
  1
=
 50
449.999999844103
 41
0.933333333333333
 72
     1
 11
-851.625533775075
 21
-1.45823934178357
 31
0.0
 73
     2
  0
LINE
  5
   122
  8
0
  6
CONTINUOUS
 62
     3
 10
-807.600431721773
 20
4.31676478385652
 30
0.0
 11
-851.125534290586
 21
4.31676478385652
 31
0.0
  0
LINE
  5
   123
  8
0
  6
CONTINUOUS
 62
     3
 10
-804.336902147532
 20
-7.23324303030971
 30
0.0
 11
-851.125533280852
 21
-7.23324303030971
 31
0.0
  0
LINE
  5
   124
  8
0
  6
CONTINUOUS
 62
     3
 10
-849.125534290586
 20
4.31676478385652
 30
0.0
 11
-849.125533280852
 21
-7.23324303030971
 31
0.0
  0
LINE
  5
   125
  8
0
  6
CONTINUOUS
 62
     3
 10
-848.604589250156
 20
1.36234161429345
 30
0.0
 11
-849.125534290586
 21
4.31676478385652
 31
0.0
  0
LINE
  5
   126
  8
0
  6
CONTINUOUS
 62
     3
 10
-849.125534290586
 20
4.31676478385652
 30
0.0
 11
-849.646478814448
 21
1.36234152320855
 31
0.0
  0
LINE
  5
   127
  8
0
  6
CONTINUOUS
 62
     3
 10
-849.646478321282
 20
-4.27881986074664
 30
0.0
 11
-849.125533280852
 21
-7.23324303030971
 31
0.0
  0
LINE
  5
   128
  8
0
  6
CONTINUOUS
 62
     3
 10
-849.125533280852
 20
-7.23324303030971
 30
0.0
 11
-848.60458875699
 21
-4.27881976966174
 31
0.0
  0
ENDBLK
  5
   129
  8
0
  6
CONTINUOUS
 62
     7
  0
BLOCK
  5
   12A
  8
0
  6
CONTINUOUS
 62
     7
  2
*UDIM193
 70
    65
 10
0.0
 20
0.0
 30
0.0
  3
*UDIM193
  0
TEXT
  5
   12B
  8
0
  6
CONTINUOUS
 62
     7
 10
-850.125534874933
 20
9.86676045035336
 30
0.0
 40
2.99999997871263
  1
=
 50
449.999999844103
 41
0.933333333333333
 72
     1
 11
-851.625534861303
 21
10.9667604466199
 31
0.0
 73
     2
  0
LINE
  5
   12C
  8
0
  6
CONTINUOUS
 62
     3
 10
-804.336902147532
 20
17.6167565464973
 30
0.0
 11
-851.125535453308
 21
17.6167565464973
 31
0.0
  0
LINE
  5
   12D
  8
0
  6
CONTINUOUS
 62
     3
 10
-849.125535453308
 20
17.6167565464973
 30
0.0
 11
-849.125534290586
 21
4.31676478385652
 31
0.0
  0
LINE
  5
   12E
  8
0
  6
CONTINUOUS
 62
     3
 10
-848.604590412878
 20
14.6623333769342
 30
0.0
 11
-849.125535453308
 21
17.6167565464973
 31
0.0
  0
LINE
  5
   12F
  8
0
  6
CONTINUOUS
 62
     3
 10
-849.125535453308
 20
17.6167565464973
 30
0.0
 11
-849.646479977171
 21
14.6623332858493
 31
0.0
  0
LINE
  5
   130
  8
0
  6
CONTINUOUS
 62
     3
 10
-849.646479331016
 20
7.27118795341959
 30
0.0
 11
-849.125534290586
 21
4.31676478385652
 31
0.0
  0
LINE
  5
   131
  8
0
  6
CONTINUOUS
 62
     3
 10
-849.125534290586
 20
4.31676478385652
 30
0.0
 11
-848.604589766723
 21
7.27118804450448
 31
0.0
  0
ENDBLK
  5
   132
  8
0
  6
CONTINUOUS
 62
     7
  0
BLOCK
  5
   133
  8
0
  6
CONTINUOUS
 62
     3
  2
*UDIM194
 70
    65
 10
0.0
 20
0.0
 30
0.0
  3
*UDIM194
  0
TEXT
  5
   134
  8
0
  6
CONTINUOUS
 62
     3
 10
-857.095049160161
 20
-12.1157773298047
 30
0.0
 40
2.99999997871263
  1
39
 50
449.999999844103
 41
0.933333333333333
 72
     1
 11
-858.59504914273
 21
-9.61577734347224
 31
0.0
 73
     2
  0
LINE
  5
   135
  8
0
  6
CONTINUOUS
 62
     3
 10
-856.095049153374
 20
4.31677548289284
 30
0.0
 11
-856.095049153374
 21
-22.998330396335
 31
0.0
  0
LINE
  5
   136
  8
0
  6
CONTINUOUS
 62
     3
 10
-855.574104371228
 20
1.36235226778732
 30
0.0
 11
-856.095049153374
 21
4.31677548289284
 31
0.0
  0
LINE
  5
   137
  8
0
  6
CONTINUOUS
 62
     3
 10
-856.095049153374
 20
4.31677548289284
 30
0.0
 11
-856.61599393552
 21
1.36235226778732
 31
0.0
  0
LINE
  5
   138
  8
0
  6
CONTINUOUS
 62
     3
 10
-856.61599393552
 20
-20.0439071812294
 30
0.0
 11
-856.095049153374
 21
-22.998330396335
 31
0.0
  0
LINE
  5
   139
  8
0
  6
CONTINUOUS
 62
     3
 10
-856.095049153374
 20
-22.998330396335
 30
0.0
 11
-855.574104371228
 21
-20.0439071812294
 31
0.0
  0
ENDBLK
  5
   13A
  8
0
  6
CONTINUOUS
 62
     3
  0
BLOCK
  5
   13B
  8
0
  6
CONTINUOUS
 62
     3
  2
*UDIM195
 70
    65
 10
0.0
 20
0.0
 30
0.0
  3
*UDIM195
  0
TEXT
  5
   13C
  8
0
  6
CONTINUOUS
 62
     3
 10
-871.323668306415
 20
8.54176781749272
 30
0.0
 40
2.99999997871263
  1
102
 50
449.999999844103
 41
0.933333333333333
 72
     1
 11
-872.823668285184
 21
12.4417677938911
 31
0.0
 73
     2
  0
LINE
  5
   13D
  8
0
  6
CONTINUOUS
 62
     3
 10
-847.120962299898
 20
48.4318596779457
 30
0.0
 11
-872.323668295828
 21
48.4318596779457
 31
0.0
  0
LINE
  5
   13E
  8
0
  6
CONTINUOUS
 62
     3
 10
-862.510831048303
 20
-22.998330396335
 30
0.0
 11
-872.323668295828
 21
-22.998330396335
 31
0.0
  0
LINE
  5
   13F
  8
0
  6
CONTINUOUS
 62
     3
 10
-870.323668295828
 20
48.4318596779457
 30
0.0
 11
-870.323668295828
 21
-22.998330396335
 31
0.0
  0
LINE
  5
   140
  8
0
  6
CONTINUOUS
 62
     3
 10
-869.802723513681
 20
45.4774364628402
 30
0.0
 11
-870.323668295828
 21
48.4318596779457
 31
0.0
  0
LINE
  5
   141
  8
0
  6
CONTINUOUS
 62
     3
 10
-870.323668295828
 20
48.4318596779457
 30
0.0
 11
-870.844613077974
 21
45.4774364628402
 31
0.0
  0
LINE
  5
   142
  8
0
  6
CONTINUOUS
 62
     3
 10
-870.844613077974
 20
-20.0439071812294
 30
0.0
 11
-870.323668295828
 21
-22.998330396335
 31
0.0
  0
LINE
  5
   143
  8
0
  6
CONTINUOUS
 62
     3
 10
-870.323668295828
 20
-22.998330396335
 30
0.0
 11
-869.802723513681
 21
-20.0439071812294
 31
0.0
  0
ENDBLK
  5
   144
  8
0
  6
CONTINUOUS
 62
     3
  0
BLOCK
  5
   145
  8
0
  6
CONTINUOUS
 62
     3
  2
*UDIM196
 70
    65
 10
0.0
 20
0.0
 30
0.0
  3
*UDIM196
  0
TEXT
  5
   146
  8
0
  6
CONTINUOUS
 62
     3
 10
-807.773035987461
 20
-38.8073845376387
 30
0.0
 40
2.99999997871263
  1
3
 50
359.999999844103
 41
0.933333333333333
 72
     1
 11
-806.673035991192
 21
-37.3073845512699
 31
0.0
 73
     2
  0
LINE
  5
   147
  8
0
  6
CONTINUOUS
 62
     3
 10
-802.636902159453
 20
-7.23324303030971
 30
0.0
 11
-802.636902159453
 21
-41.8073845406262
 31
0.0
  0
LINE
  5
   148
  8
0
  6
CONTINUOUS
 62
     3
 10
-800.536902862788
 20
-25.783234703541
 30
0.0
 11
-800.536902862788
 21
-41.8073845406262
 31
0.0
  0
LINE
  5
   149
  8
0
  6
CONTINUOUS
 62
     3
 10
-807.773035983387
 20
-39.8073845406262
 30
0.0
 11
-800.536902862788
 21
-39.8073845406262
 31
0.0
  0
LINE
  5
   14A
  8
0
  6
CONTINUOUS
 62
     3
 10
-805.591325374558
 20
-40.3283293227725
 30
0.0
 11
-802.636902159453
 21
-39.8073845406262
 31
0.0
  0
LINE
  5
   14B
  8
0
  6
CONTINUOUS
 62
     3
 10
-802.636902159453
 20
-39.8073845406262
 30
0.0
 11
-805.591325374558
 21
-39.2864397584798
 31
0.0
  0
LINE
  5
   14C
  8
0
  6
CONTINUOUS
 62
     3
 10
-797.582479647682
 20
-39.2864397584798
 30
0.0
 11
-800.536902862788
 21
-39.8073845406262
 31
0.0
  0
LINE
  5
   14D
  8
0
  6
CONTINUOUS
 62
     3
 10
-800.536902862788
 20
-39.8073845406262
 30
0.0
 11
-797.582479647682
 21
-40.3283293227725
 31
0.0
  0
ENDBLK
  5
   14E
  8
0
  6
CONTINUOUS
 62
     3
  0
BLOCK
  5
   14F
  8
0
  6
CONTINUOUS
 62
     3
  2
*UDIM197
 70
    65
 10
0.0
 20
0.0
 30
0.0
  3
*UDIM197
  0
TEXT
  5
   150
  8
0
  6
CONTINUOUS
 62
     3
 10
-776.711936636046
 20
-58.4680905200149
 30
0.0
 40
2.99999997871263
  1
75
 50
359.999999844103
 41
0.933333333333333
 72
     1
 11
-774.211936649711
 21
-56.9680905374483
 31
0.0
 73
     2
  0
LINE
  5
   151
  8
0
  6
CONTINUOUS
 62
     3
 10
-800.186930713089
 20
-30.6832239210505
 30
0.0
 11
-800.186930713089
 21
-61.4680905268046
 31
0.0
  0
LINE
  5
   152
  8
0
  6
CONTINUOUS
 62
     3
 10
-747.686940786274
 20
-11.4332242488863
 30
0.0
 11
-747.686940786274
 21
-61.4680905268046
 31
0.0
  0
LINE
  5
   153
  8
0
  6
CONTINUOUS
 62
     3
 10
-800.186930713089
 20
-59.4680905268046
 30
0.0
 11
-747.686940786274
 21
-59.4680905268046
 31
0.0
  0
LINE
  5
   154
  8
0
  6
CONTINUOUS
 62
     3
 10
-797.232507497983
 20
-58.9471457446583
 30
0.0
 11
-800.186930713089
 21
-59.4680905268046
 31
0.0
  0
LINE
  5
   155
  8
0
  6
CONTINUOUS
 62
     3
 10
-800.186930713089
 20
-59.4680905268046
 30
0.0
 11
-797.232507497983
 21
-59.989035308951
 31
0.0
  0
LINE
  5
   156
  8
0
  6
CONTINUOUS
 62
     3
 10
-750.641364001379
 20
-59.989035308951
 30
0.0
 11
-747.686940786274
 21
-59.4680905268046
 31
0.0
  0
LINE
  5
   157
  8
0
  6
CONTINUOUS
 62
     3
 10
-747.686940786274
 20
-59.4680905268046
 30
0.0
 11
-750.641364001379
 21
-58.9471457446583
 31
0.0
  0
ENDBLK
  5
   158
  8
0
  6
CONTINUOUS
 62
     3
  0
BLOCK
  5
   159
  8
0
  6
CONTINUOUS
 62
     7
  2
*UDIM198
 70
    65
 10
0.0
 20
0.0
 30
0.0
  3
*UDIM198
  0
TEXT
  5
   15A
  8
0
  6
CONTINUOUS
 62
     7
 10
-771.013055030883
 20
-67.5757380699907
 30
0.0
 40
2.99999997871263
  1
93
 50
359.999999844103
 41
0.933333333333333
 72
     1
 11
-768.513055044549
 21
-66.0757380874241
 31
0.0
 73
     2
  0
LINE
  5
   15B
  8
0
  6
CONTINUOUS
 62
     7
 10
-800.186930713089
 20
-31.6832239210505
 30
0.0
 11
-800.186930713089
 21
-70.5757380767805
 31
0.0
  0
LINE
  5
   15C
  8
0
  6
CONTINUOUS
 62
     7
 10
-736.839179376008
 20
-8.13346001435568
 30
0.0
 11
-736.839179376008
 21
-70.5757380767805
 31
0.0
  0
LINE
  5
   15D
  8
0
  6
CONTINUOUS
 62
     7
 10
-800.186930713089
 20
-68.5757380767805
 30
0.0
 11
-736.839179376008
 21
-68.5757380767805
 31
0.0
  0
LINE
  5
   15E
  8
0
  6
CONTINUOUS
 62
     3
 10
-797.289153239878
 20
-67.7992809203619
 30
0.0
 11
-800.186930713089
 21
-68.5757380767805
 31
0.0
  0
LINE
  5
   15F
  8
0
  6
CONTINUOUS
 62
     3
 10
-800.186930713089
 20
-68.5757380767805
 30
0.0
 11
-797.289153239878
 21
-69.352195233199
 31
0.0
  0
LINE
  5
   160
  8
0
  6
CONTINUOUS
 62
     3
 10
-739.736956849219
 20
-69.352195233199
 30
0.0
 11
-736.839179376008
 21
-68.5757380767805
 31
0.0
  0
LINE
  5
   161
  8
0
  6
CONTINUOUS
 62
     3
 10
-736.839179376008
 20
-68.5757380767805
 30
0.0
 11
-739.736956849219
 21
-67.7992809203619
 31
0.0
  0
ENDBLK
  5
   162
  8
0
  6
CONTINUOUS
 62
     7
  0
BLOCK
  5
   163
  8
0
  6
CONTINUOUS
 62
     7
  2
*UDIM199
 70
    65
 10
0.0
 20
0.0
 30
0.0
  3
*UDIM199
  0
TEXT
  5
   164
  8
0
  6
CONTINUOUS
 62
     7
 10
-744.440410161292
 20
67.9771885499194
 30
0.0
 40
2.99999997871263
  1
1.5
 50
359.999999844103
 41
0.933333333333333
 72
     1
 11
-740.540410184891
 21
69.4771885286838
 31
0.0
 73
     2
  0
TEXT
  5
   165
  8
0
  6
CONTINUOUS
 62
     7
 10
-735.640410216639
 20
67.9771885461172
 30
0.0
 40
2.99999997871263
  1
-2
 50
359.999999844103
 41
0.933333333333333
 72
     1
 11
-733.140410230304
 21
69.4771885286838
 31
0.0
 73
     2
  0
LINE
  5
   166
  8
0
  6
CONTINUOUS
 62
     7
 10
-750.836935558946
 20
63.8657114748818
 30
0.0
 11
-750.836935558946
 21
68.9771885393275
 31
0.0
  0
LINE
  5
   167
  8
0
  6
CONTINUOUS
 62
     7
 10
-749.786935576828
 20
63.8657114748818
 30
0.0
 11
-749.786935576828
 21
68.9771885393275
 31
0.0
  0
LINE
  5
   168
  8
0
  6
CONTINUOUS
 62
     7
 10
-755.836935558946
 20
66.9771885393275
 30
0.0
 11
-730.640410248044
 21
66.9771885393275
 31
0.0
  0
LINE
  5
   169
  8
0
  6
CONTINUOUS
 62
     3
 10
-753.734713032157
 20
66.2007313829089
 30
0.0
 11
-750.836935558946
 21
66.9771885393275
 31
0.0
  0
LINE
  5
   16A
  8
0
  6
CONTINUOUS
 62
     3
 10
-750.836935558946
 20
66.9771885393275
 30
0.0
 11
-753.734713032157
 21
67.753645695746
 31
0.0
  0
LINE
  5
   16B
  8
0
  6
CONTINUOUS
 62
     3
 10
-746.889158103617
 20
67.753645695746
 30
0.0
 11
-749.786935576828
 21
66.9771885393275
 31
0.0
  0
LINE
  5
   16C
  8
0
  6
CONTINUOUS
 62
     3
 10
-749.786935576828
 20
66.9771885393275
 30
0.0
 11
-746.889158103617
 21
66.2007313829089
 31
0.0
  0
ENDBLK
  5
   16D
  8
0
  6
CONTINUOUS
 62
     7
  0
BLOCK
  5
   16E
  8
0
  6
CONTINUOUS
 62
     3
  2
*UDIM200
 70
    65
 10
0.0
 20
0.0
 30
0.0
  3
*UDIM200
  0
TEXT
  5
   16F
  8
0
  6
CONTINUOUS
 62
     3
 10
-935.743688441603
 20
81.3838473706136
 30
0.0
 40
2.99999997871263
  1
103
 50
359.999999844103
 41
0.933333333333333
 72
     1
 11
-931.843688465203
 21
82.8838473493779
 31
0.0
 73
     2
  0
LINE
  5
   170
  8
0
  6
CONTINUOUS
 62
     3
 10
-967.893687851275
 20
38.0422806471496
 30
0.0
 11
-967.893687851275
 21
82.3838473600216
 31
0.0
  0
LINE
  5
   171
  8
0
  6
CONTINUOUS
 62
     3
 10
-895.79368907913
 20
38.0422806471496
 30
0.0
 11
-895.79368907913
 21
82.3838473600216
 31
0.0
  0
LINE
  5
   172
  8
0
  6
CONTINUOUS
 62
     3
 10
-967.893687851275
 20
80.3838473600216
 30
0.0
 11
-895.79368907913
 21
80.3838473600216
 31
0.0
  0
LINE
  5
   173
  8
0
  6
CONTINUOUS
 62
     3
 10
-964.995910378064
 20
81.1603045164402
 30
0.0
 11
-967.893687851275
 21
80.3838473600216
 31
0.0
  0
LINE
  5
   174
  8
0
  6
CONTINUOUS
 62
     3
 10
-967.893687851275
 20
80.3838473600216
 30
0.0
 11
-964.995910378064
 21
79.6073902036031
 31
0.0
  0
LINE
  5
   175
  8
0
  6
CONTINUOUS
 62
     3
 10
-898.691466552341
 20
79.6073902036031
 30
0.0
 11
-895.79368907913
 21
80.3838473600216
 31
0.0
  0
LINE
  5
   176
  8
0
  6
CONTINUOUS
 62
     3
 10
-895.79368907913
 20
80.3838473600216
 30
0.0
 11
-898.691466552341
 21
81.1603045164402
 31
0.0
  0
ENDBLK
  5
   177
  8
0
  6
CONTINUOUS
 62
     3
  0
BLOCK
  5
   178
  8
0
  6
CONTINUOUS
 62
     3
  2
*UDIM201
 70
    65
 10
0.0
 20
0.0
 30
0.0
  3
*UDIM201
  0
TEXT
  5
   179
  8
0
  6
CONTINUOUS
 62
     3
 10
-934.343617116661
 20
74.5128472774025
 30
0.0
 40
2.99999997871263
  1
90
 50
359.999999844103
 41
0.933333333333333
 72
     1
 11
-931.843617130326
 21
76.0128472599691
 31
0.0
 73
     2
  0
LINE
  5
   17A
  8
0
  6
CONTINUOUS
 62
     3
 10
-963.343601239963
 20
56.4167530958674
 30
0.0
 11
-963.343602045062
 21
75.5128472706128
 31
0.0
  0
LINE
  5
   17B
  8
0
  6
CONTINUOUS
 62
     3
 10
-900.34362905648
 20
56.4167530958674
 30
0.0
 11
-900.343632679347
 21
75.5128472706128
 31
0.0
  0
LINE
  5
   17C
  8
0
  6
CONTINUOUS
 62
     3
 10
-963.343601960742
 20
73.5128472706128
 30
0.0
 11
-900.343632299911
 21
73.5128472706128
 31
0.0
  0
LINE
  5
   17D
  8
0
  6
CONTINUOUS
 62
     3
 10
-960.445824487531
 20
74.2893044270313
 30
0.0
 11
-963.343601960742
 21
73.5128472706128
 31
0.0
  0
LINE
  5
   17E
  8
0
  6
CONTINUOUS
 62
     3
 10
-963.343601960742
 20
73.5128472706128
 30
0.0
 11
-960.445824487531
 21
72.7363901141942
 31
0.0
  0
LINE
  5
   17F
  8
0
  6
CONTINUOUS
 62
     3
 10
-903.241409773122
 20
72.7363901141942
 30
0.0
 11
-900.343632299911
 21
73.5128472706128
 31
0.0
  0
LINE
  5
   180
  8
0
  6
CONTINUOUS
 62
     3
 10
-900.343632299911
 20
73.5128472706128
 30
0.0
 11
-903.241409773122
 21
74.2893044270313
 31
0.0
  0
ENDBLK
  5
   181
  8
0
  6
CONTINUOUS
 62
     3
  0
BLOCK
  5
   182
  8
0
  6
CONTINUOUS
 62
     3
  2
*UDIM202
 70
    65
 10
0.0
 20
0.0
 30
0.0
  3
*UDIM202
  0
TEXT
  5
   183
  8
0
  6
CONTINUOUS
 62
     3
 10
-979.107678795462
 20
1.81728121812061
 30
0.0
 40
2.99999997871263
  1
96
 50
449.999999844103
 41
0.933333333333333
 72
     1
 11
-980.607678778032
 21
4.31728120445307
 31
0.0
 73
     2
  0
LINE
  5
   184
  8
0
  6
CONTINUOUS
 62
     3
 10
-968.018687866176
 20
37.9172806322485
 30
0.0
 11
-980.107678788675
 21
37.9172806322485
 31
0.0
  0
LINE
  5
   185
  8
0
  6
CONTINUOUS
 62
     3
 10
-968.018687866176
 20
-29.2827182233423
 30
0.0
 11
-980.107678788675
 21
-29.2827182233423
 31
0.0
  0
LINE
  5
   186
  8
0
  6
CONTINUOUS
 62
     3
 10
-978.107678788675
 20
37.9172806322485
 30
0.0
 11
-978.107678788675
 21
-29.2827182233423
 31
0.0
  0
LINE
  5
   187
  8
0
  6
CONTINUOUS
 62
     3
 10
-977.331221632257
 20
35.019503159038
 30
0.0
 11
-978.107678788675
 21
37.9172806322485
 31
0.0
  0
LINE
  5
   188
  8
0
  6
CONTINUOUS
 62
     3
 10
-978.107678788675
 20
37.9172806322485
 30
0.0
 11
-978.884135945094
 21
35.019503159038
 31
0.0
  0
LINE
  5
   189
  8
0
  6
CONTINUOUS
 62
     3
 10
-978.884135945094
 20
-26.3849407501318
 30
0.0
 11
-978.107678788675
 21
-29.2827182233423
 31
0.0
  0
LINE
  5
   18A
  8
0
  6
CONTINUOUS
 62
     3
 10
-978.107678788675
 20
-29.2827182233423
 30
0.0
 11
-977.331221632257
 21
-26.3849407501318
 31
0.0
  0
ENDBLK
  5
   18B
  8
0
  6
CONTINUOUS
 62
     3
  0
BLOCK
  5
   18C
  8
0
  6
CONTINUOUS
 62
     3
  2
*UDIM203
 70
    65
 10
0.0
 20
0.0
 30
0.0
  3
*UDIM203
  0
TEXT
  5
   18D
  8
0
  6
CONTINUOUS
 62
     3
 10
-986.681394806906
 20
8.54175708270053
 30
0.0
 40
2.99999997871263
  1
124
 50
449.999999844103
 41
0.933333333333333
 72
     1
 11
-988.181394785676
 21
12.4417570590989
 31
0.0
 73
     2
  0
LINE
  5
   18E
  8
0
  6
CONTINUOUS
 62
     3
 10
-962.643601209723
 20
56.116753190758
 30
0.0
 11
-987.681394796319
 21
56.116753190758
 31
0.0
  0
LINE
  5
   18F
  8
0
  6
CONTINUOUS
 62
     3
 10
-962.643588178722
 20
-30.6832346498955
 30
0.0
 11
-987.681394796319
 21
-30.6832346498955
 31
0.0
  0
LINE
  5
   190
  8
0
  6
CONTINUOUS
 62
     3
 10
-985.681394796319
 20
56.116753190758
 30
0.0
 11
-985.681394796319
 21
-30.6832346498955
 31
0.0
  0
LINE
  5
   191
  8
0
  6
CONTINUOUS
 62
     3
 10
-985.160450014173
 20
53.1623299756524
 30
0.0
 11
-985.681394796319
 21
56.116753190758
 31
0.0
  0
LINE
  5
   192
  8
0
  6
CONTINUOUS
 62
     3
 10
-985.681394796319
 20
56.116753190758
 30
0.0
 11
-986.202339578466
 21
53.1623299756524
 31
0.0
  0
LINE
  5
   193
  8
0
  6
CONTINUOUS
 62
     3
 10
-986.202339578466
 20
-27.72881143479
 30
0.0
 11
-985.681394796319
 21
-30.6832346498955
 31
0.0
  0
LINE
  5
   194
  8
0
  6
CONTINUOUS
 62
     3
 10
-985.681394796319
 20
-30.6832346498955
 30
0.0
 11
-985.160450014173
 21
-27.72881143479
 31
0.0
  0
ENDBLK
  5
   195
  8
0
  6
CONTINUOUS
 62
     3
  0
BLOCK
  5
   196
  8
0
  6
CONTINUOUS
 62
     7
  2
*UDIM204
 70
    65
 10
0.0
 20
0.0
 30
0.0
  3
*UDIM204
  0
TEXT
  5
   197
  8
0
  6
CONTINUOUS
 62
     7
 10
-945.118616306077
 20
66.4422695487427
 30
0.0
 40
2.99999997871263
  1
30
 50
359.999999844103
 41
0.933333333333333
 72
     1
 11
-942.618616319742
 21
67.9422695313093
 31
0.0
 73
     2
  0
LINE
  5
   198
  8
0
  6
CONTINUOUS
 62
     3
 10
-952.843635531728
 20
58.6567590257978
 30
0.0
 11
-952.843635531728
 21
67.442269541953
 31
0.0
  0
LINE
  5
   199
  8
0
  6
CONTINUOUS
 62
     3
 10
-931.843594175208
 20
59.0573450168981
 30
0.0
 11
-931.843594175208
 21
67.442269541953
 31
0.0
  0
LINE
  5
   19A
  8
0
  6
CONTINUOUS
 62
     3
 10
-952.843635531728
 20
65.442269541953
 30
0.0
 11
-931.843594175208
 21
65.442269541953
 31
0.0
  0
LINE
  5
   19B
  8
0
  6
CONTINUOUS
 62
     3
 10
-949.889212316623
 20
65.9632143240994
 30
0.0
 11
-952.843635531728
 21
65.442269541953
 31
0.0
  0
LINE
  5
   19C
  8
0
  6
CONTINUOUS
 62
     3
 10
-952.843635531728
 20
65.442269541953
 30
0.0
 11
-949.889212316623
 21
64.9213247598067
 31
0.0
  0
LINE
  5
   19D
  8
0
  6
CONTINUOUS
 62
     3
 10
-934.798017390314
 20
64.9213247598067
 30
0.0
 11
-931.843594175208
 21
65.442269541953
 31
0.0
  0
LINE
  5
   19E
  8
0
  6
CONTINUOUS
 62
     3
 10
-931.843594175208
 20
65.442269541953
 30
0.0
 11
-934.798017390314
 21
65.9632143240994
 31
0.0
  0
ENDBLK
  5
   19F
  8
0
  6
CONTINUOUS
 62
     7
  0
BLOCK
  5
   1A0
  8
0
  6
CONTINUOUS
 62
     7
  2
*UDIM205
 70
    65
 10
0.0
 20
0.0
 30
0.0
  3
*UDIM205
  0
TEXT
  5
   1A1
  8
0
  6
CONTINUOUS
 62
     7
 10
-924.118595299991
 20
66.4422695487427
 30
0.0
 40
2.99999997871263
  1
30
 50
359.999999844103
 41
0.933333333333333
 72
     1
 11
-921.618595313657
 21
67.9422695313093
 31
0.0
 73
     2
  0
LINE
  5
   1A2
  8
0
  6
CONTINUOUS
 62
     3
 10
-910.843594532836
 20
58.6567590257978
 30
0.0
 11
-910.843594532836
 21
67.442269541953
 31
0.0
  0
LINE
  5
   1A3
  8
0
  6
CONTINUOUS
 62
     3
 10
-931.843594175208
 20
65.442269541953
 30
0.0
 11
-910.843594532836
 21
65.442269541953
 31
0.0
  0
LINE
  5
   1A4
  8
0
  6
CONTINUOUS
 62
     3
 10
-928.889170960103
 20
65.9632143240994
 30
0.0
 11
-931.843594175208
 21
65.442269541953
 31
0.0
  0
LINE
  5
   1A5
  8
0
  6
CONTINUOUS
 62
     3
 10
-931.843594175208
 20
65.442269541953
 30
0.0
 11
-928.889170960103
 21
64.9213247598067
 31
0.0
  0
LINE
  5
   1A6
  8
0
  6
CONTINUOUS
 62
     3
 10
-913.798017747941
 20
64.9213247598067
 30
0.0
 11
-910.843594532836
 21
65.442269541953
 31
0.0
  0
LINE
  5
   1A7
  8
0
  6
CONTINUOUS
 62
     3
 10
-910.843594532836
 20
65.442269541953
 30
0.0
 11
-913.798017747941
 21
65.9632143240994
 31
0.0
  0
ENDBLK
  5
   1A8
  8
0
  6
CONTINUOUS
 62
     7
  0
BLOCK
  5
   1A9
  8
0
  6
CONTINUOUS
 62
     7
  2
*UDIM206
 70
    65
 10
0.0
 20
0.0
 30
0.0
  3
*UDIM206
  0
TEXT
  5
   1AA
  8
0
  6
CONTINUOUS
 62
     7
 10
-888.827916445937
 20
11.0917753048284
 30
0.0
 40
2.99999997871263
  1
=
 50
449.999999844103
 41
0.933333333333333
 72
     1
 11
-890.327916432308
 21
12.1917753010949
 31
0.0
 73
     2
  0
LINE
  5
   1AB
  8
0
  6
CONTINUOUS
 62
     3
 10
-899.343612898435
 20
20.0667751669845
 30
0.0
 11
-885.827916442951
 21
20.0667751669845
 31
0.0
  0
LINE
  5
   1AC
  8
0
  6
CONTINUOUS
 62
     3
 10
-893.745470615609
 20
4.31677543520538
 30
0.0
 11
-885.827916442951
 21
4.31677543520538
 31
0.0
  0
LINE
  5
   1AD
  8
0
  6
CONTINUOUS
 62
     3
 10
-887.827916442951
 20
20.0667751669845
 30
0.0
 11
-887.827916442951
 21
4.31677543520538
 31
0.0
  0
LINE
  5
   1AE
  8
0
  6
CONTINUOUS
 62
     3
 10
-887.306971660805
 20
17.112351951879
 30
0.0
 11
-887.827916442951
 21
20.0667751669845
 31
0.0
  0
LINE
  5
   1AF
  8
0
  6
CONTINUOUS
 62
     3
 10
-887.827916442951
 20
20.0667751669845
 30
0.0
 11
-888.348861225098
 21
17.112351951879
 31
0.0
  0
LINE
  5
   1B0
  8
0
  6
CONTINUOUS
 62
     3
 10
-888.348861225098
 20
7.27119865031091
 30
0.0
 11
-887.827916442951
 21
4.31677543520538
 31
0.0
  0
LINE
  5
   1B1
  8
0
  6
CONTINUOUS
 62
     3
 10
-887.827916442951
 20
4.31677543520538
 30
0.0
 11
-887.306971660805
 21
7.27119865031091
 31
0.0
  0
ENDBLK
  5
   1B2
  8
0
  6
CONTINUOUS
 62
     7
  0
BLOCK
  5
   1B3
  8
0
  6
CONTINUOUS
 62
     7
  2
*UDIM207
 70
    65
 10
0.0
 20
0.0
 30
0.0
  3
*UDIM207
  0
TEXT
  5
   1B4
  8
0
  6
CONTINUOUS
 62
     7
 10
-888.827916445937
 20
-4.65822442694659
 30
0.0
 40
2.99999997871263
  1
=
 50
449.999999844103
 41
0.933333333333333
 72
     1
 11
-890.327916432308
 21
-3.55822443068001
 31
0.0
 73
     2
  0
LINE
  5
   1B5
  8
0
  6
CONTINUOUS
 62
     3
 10
-899.343617704952
 20
-11.4332242965654
 30
0.0
 11
-885.827916442951
 21
-11.4332242965654
 31
0.0
  0
LINE
  5
   1B6
  8
0
  6
CONTINUOUS
 62
     3
 10
-887.827916442951
 20
4.31677543520538
 30
0.0
 11
-887.827916442951
 21
-11.4332242965654
 31
0.0
  0
LINE
  5
   1B7
  8
0
  6
CONTINUOUS
 62
     3
 10
-887.306971660805
 20
1.36235222009985
 30
0.0
 11
-887.827916442951
 21
4.31677543520538
 31
0.0
  0
LINE
  5
   1B8
  8
0
  6
CONTINUOUS
 62
     3
 10
-887.827916442951
 20
4.31677543520538
 30
0.0
 11
-888.348861225098
 21
1.36235222009985
 31
0.0
  0
LINE
  5
   1B9
  8
0
  6
CONTINUOUS
 62
     3
 10
-888.348861225098
 20
-8.47880108145988
 30
0.0
 11
-887.827916442951
 21
-11.4332242965654
 31
0.0
  0
LINE
  5
   1BA
  8
0
  6
CONTINUOUS
 62
     3
 10
-887.827916442951
 20
-11.4332242965654
 30
0.0
 11
-887.306971660805
 21
-8.47880108145988
 31
0.0
  0
ENDBLK
  5
   1BB
  8
0
  6
CONTINUOUS
 62
     7
  0
BLOCK
  5
   1BC
  8
0
  6
CONTINUOUS
 62
     3
  2
*UDIM208
 70
    65
 10
0.0
 20
0.0
 30
0.0
  3
*UDIM208
  0
TEXT
  5
   1BD
  8
0
  6
CONTINUOUS
 62
     3
 10
-881.088084227954
 20
-15.9582297486496
 30
0.0
 40
2.99999997871263
  1
50
 50
449.999999844103
 41
0.933333333333333
 72
     1
 11
-882.588084210524
 21
-13.4582297623172
 31
0.0
 73
     2
  0
LINE
  5
   1BE
  8
0
  6
CONTINUOUS
 62
     3
 10
-894.745470615609
 20
4.31677543520538
 30
0.0
 11
-878.088084221168
 21
4.31677543520538
 31
0.0
  0
LINE
  5
   1BF
  8
0
  6
CONTINUOUS
 62
     3
 10
-901.043641885842
 20
-30.6832346498955
 30
0.0
 11
-878.088084221168
 21
-30.6832346498955
 31
0.0
  0
LINE
  5
   1C0
  8
0
  6
CONTINUOUS
 62
     3
 10
-880.088084221168
 20
4.31677543520538
 30
0.0
 11
-880.088084221168
 21
-30.6832346498955
 31
0.0
  0
LINE
  5
   1C1
  8
0
  6
CONTINUOUS
 62
     3
 10
-879.567139439022
 20
1.36235222009985
 30
0.0
 11
-880.088084221168
 21
4.31677543520538
 31
0.0
  0
LINE
  5
   1C2
  8
0
  6
CONTINUOUS
 62
     3
 10
-880.088084221168
 20
4.31677543520538
 30
0.0
 11
-880.609029003314
 21
1.36235222009985
 31
0.0
  0
LINE
  5
   1C3
  8
0
  6
CONTINUOUS
 62
     3
 10
-880.609029003314
 20
-27.72881143479
 30
0.0
 11
-880.088084221168
 21
-30.6832346498955
 31
0.0
  0
LINE
  5
   1C4
  8
0
  6
CONTINUOUS
 62
     3
 10
-880.088084221168
 20
-30.6832346498955
 30
0.0
 11
-879.567139439022
 21
-27.72881143479
 31
0.0
  0
ENDBLK
  5
   1C5
  8
0
  6
CONTINUOUS
 62
     3
  0
BLOCK
  5
   1C6
  8
0
  6
CONTINUOUS
 62
     3
  2
*UDIM209
 70
    65
 10
0.0
 20
0.0
 30
0.0
  3
*UDIM209
  0
TEXT
  5
   1C7
  8
0
  6
CONTINUOUS
 62
     3
 10
-685.594189193743
 20
28.2293970134593
 30
0.0
 40
3.00000002980232
  1
4
 50
404.818094863318
 41
0.933333333333334
 72
     1
 11
-685.871193614441
 21
30.0687633770904
 31
0.0
 73
     2
  0
TEXT
  5
   1C8
  8
0
  6
CONTINUOUS
 62
     3
 10
-687.544896672067
 20
26.2910367477251
 30
0.0
 40
3.00000002980232
  1
Ø
 50
404.818094863318
 41
0.933333333333334
 72
     1
 11
-687.821901092766
 21
28.1304031113562
 31
0.0
 73
     2
  0
LINE
  5
   1C9
  8
0
  6
CONTINUOUS
 62
     3
 10
-683.328764939961
 20
29.0707370579338
 30
0.0
 11
-692.847836934755
 21
19.6119170521689
 31
0.0
  0
LINE
  5
   1CA
  8
0
  6
CONTINUOUS
 62
     3
 10
-689.700618155178
 20
23.4736144527819
 30
0.0
 11
-691.429140604308
 21
21.021633591752
 31
0.0
  0
LINE
  5
   1CB
  8
0
  6
CONTINUOUS
 62
     3
 10
-691.429140604308
 20
21.021633591752
 30
0.0
 11
-688.966233679577
 21
22.734552001985
 31
0.0
  0
LINE
  5
   1CC
  8
0
  6
CONTINUOUS
 62
     3
 10
-694.576359383884
 20
17.159936191139
 30
0.0
 11
-692.847836934755
 21
19.6119170521689
 31
0.0
  0
LINE
  5
   1CD
  8
0
  6
CONTINUOUS
 62
     3
 10
-692.847836934755
 20
19.6119170521689
 30
0.0
 11
-695.310743859485
 21
17.8989986419359
 31
0.0
  0
ENDBLK
  5
   1CE
  8
0
  6
CONTINUOUS
 62
     3
  0
BLOCK
  5
   1CF
  8
0
  6
CONTINUOUS
 62
     3
  2
*UDIM210
 70
    65
 10
0.0
 20
0.0
 30
0.0
  3
*UDIM210
  0
TEXT
  5
   1D0
  8
0
  6
CONTINUOUS
 62
     3
 10
-710.768222815624
 20
1.54177528709277
 30
0.0
 40
3.00000002980232
  1
64
 50
449.999999844103
 41
0.933333333333333
 72
     1
 11
-712.268222823739
 21
4.04177531599998
 31
0.0
 73
     2
  0
LINE
  5
   1D1
  8
0
  6
CONTINUOUS
 62
     3
 10
-696.638488769531
 20
20.3167753219605
 30
0.0
 11
-711.768222808838
 21
20.3167753219605
 31
0.0
  0
LINE
  5
   1D2
  8
0
  6
CONTINUOUS
 62
     3
 10
-696.638488769531
 20
-11.6832246780396
 30
0.0
 11
-711.768222808838
 21
-11.6832246780396
 31
0.0
  0
LINE
  5
   1D3
  8
0
  6
CONTINUOUS
 62
     3
 10
-709.768222808838
 20
20.3167753219605
 30
0.0
 11
-709.768222808838
 21
-11.6832246780396
 31
0.0
  0
LINE
  5
   1D4
  8
0
  6
CONTINUOUS
 62
     3
 10
-709.247278026692
 20
17.3623521068549
 30
0.0
 11
-709.768222808838
 21
20.3167753219605
 31
0.0
  0
LINE
  5
   1D5
  8
0
  6
CONTINUOUS
 62
     3
 10
-709.768222808838
 20
20.3167753219605
 30
0.0
 11
-710.289167590984
 21
17.3623521068549
 31
0.0
  0
LINE
  5
   1D6
  8
0
  6
CONTINUOUS
 62
     3
 10
-710.289167590984
 20
-8.72880146293402
 30
0.0
 11
-709.768222808838
 21
-11.6832246780396
 31
0.0
  0
LINE
  5
   1D7
  8
0
  6
CONTINUOUS
 62
     3
 10
-709.768222808838
 20
-11.6832246780396
 30
0.0
 11
-709.247278026692
 21
-8.72880146293402
 31
0.0
  0
ENDBLK
  5
   1D8
  8
0
  6
CONTINUOUS
 62
     3
  0
BLOCK
  5
   1D9
  8
0
  6
CONTINUOUS
 62
     3
  2
*UDIM211
 70
    65
 10
0.0
 20
0.0
 30
0.0
  3
*UDIM211
  0
TEXT
  5
   1DA
  8
0
  6
CONTINUOUS
 62
     3
 10
-667.511438875497
 20
-1.78880976951644
 30
0.0
 40
3.00000002980232
  1
98
 50
359.999999844103
 41
0.933333333333333
 72
     1
 11
-665.011438846588
 21
-0.288809761404991
 31
0.0
 73
     2
  0
LINE
  5
   1DB
  8
0
  6
CONTINUOUS
 62
     3
 10
-692.763488769531
 20
-2.78880977630615
 30
0.0
 11
-643.763488769531
 21
-2.78880977630615
 31
0.0
  0
LINE
  5
   1DC
  8
0
  6
CONTINUOUS
 62
     3
 10
-689.809065554426
 20
-2.26786499415979
 30
0.0
 11
-692.763488769531
 21
-2.78880977630615
 31
0.0
  0
LINE
  5
   1DD
  8
0
  6
CONTINUOUS
 62
     3
 10
-692.763488769531
 20
-2.78880977630615
 30
0.0
 11
-689.809065554426
 21
-3.30975455845251
 31
0.0
  0
LINE
  5
   1DE
  8
0
  6
CONTINUOUS
 62
     3
 10
-646.717911984637
 20
-3.30975455845251
 30
0.0
 11
-643.763488769531
 21
-2.78880977630615
 31
0.0
  0
LINE
  5
   1DF
  8
0
  6
CONTINUOUS
 62
     3
 10
-643.763488769531
 20
-2.78880977630615
 30
0.0
 11
-646.717911984637
 21
-2.26786499415979
 31
0.0
  0
ENDBLK
  5
   1E0
  8
0
  6
CONTINUOUS
 62
     3
  0
BLOCK
  5
   1E1
  8
0
  6
CONTINUOUS
 62
     3
  2
*UDIM212
 70
    65
 10
0.0
 20
0.0
 30
0.0
  3
*UDIM212
  0
TEXT
  5
   1E2
  8
0
  6
CONTINUOUS
 62
     3
 10
-673.838488832216
 20
-30.4991578911844
 30
0.0
 40
3.00000002980232
  1
95,5
 50
359.999999844103
 41
0.933333333333333
 72
     1
 11
-668.538488775492
 21
-28.9991578906775
 31
0.0
 73
     2
  0
LINE
  5
   1E3
  8
0
  6
CONTINUOUS
 62
     3
 10
-692.138488769531
 20
-16.1832246780396
 30
0.0
 11
-692.138488769531
 21
-33.4991579055786
 31
0.0
  0
LINE
  5
   1E4
  8
0
  6
CONTINUOUS
 62
     3
 10
-644.388488769531
 20
-16.1832246780396
 30
0.0
 11
-644.388488769531
 21
-33.4991579055786
 31
0.0
  0
LINE
  5
   1E5
  8
0
  6
CONTINUOUS
 62
     3
 10
-692.138488769531
 20
-31.4991579055786
 30
0.0
 11
-644.388488769531
 21
-31.4991579055786
 31
0.0
  0
LINE
  5
   1E6
  8
0
  6
CONTINUOUS
 62
     3
 10
-689.184065554426
 20
-30.9782131234323
 30
0.0
 11
-692.138488769531
 21
-31.4991579055786
 31
0.0
  0
LINE
  5
   1E7
  8
0
  6
CONTINUOUS
 62
     3
 10
-692.138488769531
 20
-31.4991579055786
 30
0.0
 11
-689.184065554426
 21
-32.020102687725
 31
0.0
  0
LINE
  5
   1E8
  8
0
  6
CONTINUOUS
 62
     3
 10
-647.342911984637
 20
-32.020102687725
 30
0.0
 11
-644.388488769531
 21
-31.4991579055786
 31
0.0
  0
LINE
  5
   1E9
  8
0
  6
CONTINUOUS
 62
     3
 10
-644.388488769531
 20
-31.4991579055786
 30
0.0
 11
-647.342911984637
 21
-30.9782131234323
 31
0.0
  0
ENDBLK
  5
   1EA
  8
0
  6
CONTINUOUS
 62
     3
  0
BLOCK
  5
   1EB
  8
0
  6
CONTINUOUS
 62
     3
  2
*UDIM213
 70
    65
 10
0.0
 20
0.0
 30
0.0
  3
*UDIM213
  0
TEXT
  5
   1EC
  8
0
  6
CONTINUOUS
 62
     3
 10
-624.644809729687
 20
1.54177528709277
 30
0.0
 40
3.00000002980232
  1
53
 50
449.999999844103
 41
0.933333333333333
 72
     1
 11
-626.144809737802
 21
4.04177531599998
 31
0.0
 73
     2
  0
LINE
  5
   1ED
  8
0
  6
CONTINUOUS
 62
     3
 10
-644.513488769531
 20
17.5667753219605
 30
0.0
 11
-621.644809722901
 21
17.5667753219605
 31
0.0
  0
LINE
  5
   1EE
  8
0
  6
CONTINUOUS
 62
     3
 10
-644.513488769531
 20
-8.93322467803955
 30
0.0
 11
-621.644809722901
 21
-8.93322467803955
 31
0.0
  0
LINE
  5
   1EF
  8
0
  6
CONTINUOUS
 62
     3
 10
-623.6448097229
 20
17.5667753219605
 30
0.0
 11
-623.6448097229
 21
-8.93322467803955
 31
0.0
  0
LINE
  5
   1F0
  8
0
  6
CONTINUOUS
 62
     3
 10
-623.123864940754
 20
14.6123521068549
 30
0.0
 11
-623.6448097229
 21
17.5667753219605
 31
0.0
  0
LINE
  5
   1F1
  8
0
  6
CONTINUOUS
 62
     3
 10
-623.6448097229
 20
17.5667753219605
 30
0.0
 11
-624.165754505047
 21
14.6123521068549
 31
0.0
  0
LINE
  5
   1F2
  8
0
  6
CONTINUOUS
 62
     3
 10
-624.165754505047
 20
-5.97880146293402
 30
0.0
 11
-623.6448097229
 21
-8.93322467803955
 31
0.0
  0
LINE
  5
   1F3
  8
0
  6
CONTINUOUS
 62
     3
 10
-623.6448097229
 20
-8.93322467803955
 30
0.0
 11
-623.123864940754
 21
-5.97880146293402
 31
0.0
  0
ENDBLK
  5
   1F4
  8
0
  6
CONTINUOUS
 62
     3
  0
BLOCK
  5
   1F5
  8
0
  6
CONTINUOUS
 62
     7
  2
*UDIM214
 70
    65
 10
0.0
 20
0.0
 30
0.0
  3
*UDIM214
  0
TEXT
  5
   1F6
  8
0
  6
CONTINUOUS
 62
     7
 10
-653.444601104851
 20
8.66584074728419
 30
0.0
 40
3.00000002980232
  1
1.5
 50
407.128948382931
 41
0.933333333333333
 72
     1
 11
-651.890563585032
 21
12.5446250586237
 31
0.0
 73
     2
  0
TEXT
  5
   1F7
  8
0
  6
CONTINUOUS
 62
     7
 10
-656.166003787374
 20
5.73429377034907
 30
0.0
 40
3.00000002980232
  1
R
 50
407.128948382931
 41
1.2
 72
     1
 11
-656.244807888764
 21
7.85414989825278
 31
0.0
 73
     2
  0
LINE
  5
   1F8
  8
0
  6
CONTINUOUS
 62
     7
 10
-644.003225769465
 20
17.3664403752091
 30
0.0
 11
-655.433117043953
 21
5.05394310380743
 31
0.0
  0
LINE
  5
   1F9
  8
0
  6
CONTINUOUS
 62
     3
 10
-645.405675453169
 20
14.7144345523123
 30
0.0
 11
-644.003225769465
 21
17.3664403752091
 31
0.0
  0
LINE
  5
   1FA
  8
0
  6
CONTINUOUS
 62
     3
 10
-644.003225769465
 20
17.3664403752091
 30
0.0
 11
-646.543785757777
 21
15.7709608404653
 31
0.0
  0
ENDBLK
  5
   1FB
  8
0
  6
CONTINUOUS
 62
     7
  0
ENDSEC
  0
SECTION
  2
ENTITIES
  0
LINE
  5
   1FC
  8
0
  6
CONTINUOUS
 62
     7
 10
-800.186861678692
 20
-85.4758458733559
 30
0.0
 11
-800.186861678692
 21
-148.475844800472
 31
0.0
  0
LINE
  5
   1FD
  8
0
  6
DASHDOT
 62
     7
 10
-727.323688133156
 20
-116.975845336914
 30
0.0
 11
-857.185426375224
 21
-116.975845336914
 31
0.0
  0
LINE
  5
   1FE
  8
0
  6
DASHDOT
 62
     7
 10
-787.890160700536
 20
-95.9758456945419
 30
0.0
 11
-847.461835584821
 21
-95.9758456945419
 31
0.0
  0
LINE
  5
   1FF
  8
0
  6
DASHDOT
 62
     7
 10
-787.213209849579
 20
-137.975844979286
 30
0.0
 11
-849.492688137694
 21
-137.975844979286
 31
0.0
  0
LINE
  5
   200
  8
0
  6
CONTINUOUS
 62
     7
 10
-852.686860784622
 20
-114.525845378637
 30
0.0
 11
-852.686860784622
 21
-119.425845295191
 31
0.0
  0
LINE
  5
   201
  8
0
  6
CONTINUOUS
 62
     7
 10
-851.286860808464
 20
-114.175845384598
 30
0.0
 11
-852.336860790583
 21
-114.175845384598
 31
0.0
  0
LINE
  5
   202
  8
0
  6
CONTINUOUS
 62
     7
 10
-851.286860808464
 20
-119.77584528923
 30
0.0
 11
-852.336860790583
 21
-119.77584528923
 31
0.0
  0
LINE
  5
   203
  8
0
  6
CONTINUOUS
 62
     7
 10
-852.336860790583
 20
-114.175845384598
 30
0.0
 11
-852.686860784622
 21
-114.525845378637
 31
0.0
  0
LINE
  5
   204
  8
0
  6
CONTINUOUS
 62
     7
 10
-852.336860790583
 20
-119.77584528923
 30
0.0
 11
-852.686860784622
 21
-119.425845295191
 31
0.0
  0
LINE
  5
   205
  8
0
  6
CONTINUOUS
 62
     7
 10
-851.286860808464
 20
-111.375845432282
 30
0.0
 11
-851.286860808464
 21
-122.575845241547
 31
0.0
  0
LINE
  5
   206
  8
0
  6
CONTINUOUS
 62
     7
 10
-847.08686087999
 20
-110.675845444202
 30
0.0
 11
-847.08686087999
 21
-123.275845229626
 31
0.0
  0
LINE
  5
   207
  8
0
  6
CONTINUOUS
 62
     7
 10
-845.686860903831
 20
-110.675845444202
 30
0.0
 11
-845.686860903831
 21
-123.275845229626
 31
0.0
  0
LINE
  5
   208
  8
0
  6
CONTINUOUS
 62
     7
 10
-843.586860939594
 20
-110.675845444202
 30
0.0
 11
-843.586860939594
 21
-123.275845229626
 31
0.0
  0
LINE
  5
   209
  8
0
  6
CONTINUOUS
 62
     7
 10
-842.186860963436
 20
-110.675845444202
 30
0.0
 11
-842.186860963436
 21
-123.275845229626
 31
0.0
  0
LINE
  5
   20A
  8
0
  6
CONTINUOUS
 62
     7
 10
-837.986861034962
 20
-111.375845432282
 30
0.0
 11
-837.986861034962
 21
-122.575845241547
 31
0.0
  0
LINE
  5
   20B
  8
0
  6
CONTINUOUS
 62
     7
 10
-847.08686087999
 20
-111.375845432282
 30
0.0
 11
-851.286860808464
 21
-111.375845432282
 31
0.0
  0
LINE
  5
   20C
  8
0
  6
CONTINUOUS
 62
     7
 10
-847.08686087999
 20
-122.575845241547
 30
0.0
 11
-851.286860808464
 21
-122.575845241547
 31
0.0
  0
LINE
  5
   20D
  8
0
  6
CONTINUOUS
 62
     7
 10
-837.986861034962
 20
-111.375845432282
 30
0.0
 11
-842.186860963436
 21
-111.375845432282
 31
0.0
  0
LINE
  5
   20E
  8
0
  6
CONTINUOUS
 62
     7
 10
-837.986861034962
 20
-122.575845241547
 30
0.0
 11
-842.186860963436
 21
-122.575845241547
 31
0.0
  0
LINE
  5
   20F
  8
0
  6
CONTINUOUS
 62
     7
 10
-842.186860963436
 20
-110.675845444202
 30
0.0
 11
-843.586860939594
 21
-110.675845444202
 31
0.0
  0
LINE
  5
   210
  8
0
  6
CONTINUOUS
 62
     7
 10
-842.186860963436
 20
-123.275845229626
 30
0.0
 11
-843.586860939594
 21
-123.275845229626
 31
0.0
  0
LINE
  5
   211
  8
0
  6
CONTINUOUS
 62
     7
 10
-845.686860903831
 20
-110.675845444202
 30
0.0
 11
-847.08686087999
 21
-110.675845444202
 31
0.0
  0
LINE
  5
   212
  8
0
  6
CONTINUOUS
 62
     7
 10
-845.686860903831
 20
-123.275845229626
 30
0.0
 11
-847.08686087999
 21
-123.275845229626
 31
0.0
  0
LINE
  5
   213
  8
0
  6
CONTINUOUS
 62
     7
 10
-847.08686087999
 20
-116.975845336914
 30
0.0
 11
-851.286860808464
 21
-116.975845336914
 31
0.0
  0
LINE
  5
   214
  8
0
  6
CONTINUOUS
 62
     7
 10
-837.986861034962
 20
-116.975845336914
 30
0.0
 11
-842.186860963436
 21
-116.975845336914
 31
0.0
  0
LINE
  5
   215
  8
0
  6
CONTINUOUS
 62
     7
 10
-843.586860939594
 20
-114.175845384598
 30
0.0
 11
-845.686860903831
 21
-114.175845384598
 31
0.0
  0
LINE
  5
   216
  8
0
  6
CONTINUOUS
 62
     7
 10
-843.586860939594
 20
-119.77584528923
 30
0.0
 11
-845.686860903831
 21
-119.77584528923
 31
0.0
  0
LINE
  5
   217
  8
0
  6
CONTINUOUS
 62
     7
 10
-843.586860939594
 20
-114.525845378637
 30
0.0
 11
-845.686860903831
 21
-114.525845378637
 31
0.0
  0
LINE
  5
   218
  8
0
  6
CONTINUOUS
 62
     7
 10
-843.586860939594
 20
-119.425845295191
 30
0.0
 11
-845.686860903831
 21
-119.425845295191
 31
0.0
  0
LINE
  5
   219
  8
0
  6
CONTINUOUS
 62
     7
 10
-851.286860808464
 20
-119.425845295191
 30
0.0
 11
-852.686860784622
 21
-119.425845295191
 31
0.0
  0
LINE
  5
   21A
  8
0
  6
CONTINUOUS
 62
     7
 10
-851.286860808464
 20
-114.525845378637
 30
0.0
 11
-852.686860784622
 21
-114.525845378637
 31
0.0
  0
LINE
  5
   21B
  8
0
  6
CONTINUOUS
 62
     7
 10
-852.336860790583
 20
-114.175845384598
 30
0.0
 11
-852.336860790583
 21
-119.77584528923
 31
0.0
  0
LINE
  5
   21C
  8
0
  6
CONTINUOUS
 62
     7
 10
-801.376861658426
 20
-113.125845402479
 30
0.0
 11
-802.216861644121
 21
-113.125845402479
 31
0.0
  0
LINE
  5
   21D
  8
0
  6
CONTINUOUS
 62
     7
 10
-801.376861658426
 20
-120.825845271349
 30
0.0
 11
-802.216861644121
 21
-120.825845271349
 31
0.0
  0
LINE
  5
   21E
  8
0
  6
CONTINUOUS
 62
     7
 10
-828.186861201855
 20
-132.375845074654
 30
0.0
 11
-828.186861201855
 21
-143.575844883919
 31
0.0
  0
LINE
  5
   21F
  8
0
  6
CONTINUOUS
 62
     7
 10
-819.086861356827
 20
-131.675845086575
 30
0.0
 11
-819.086861356827
 21
-144.275844871998
 31
0.0
  0
LINE
  5
   220
  8
0
  6
CONTINUOUS
 62
     7
 10
-820.486861332985
 20
-131.675845086575
 30
0.0
 11
-820.486861332985
 21
-144.275844871998
 31
0.0
  0
LINE
  5
   221
  8
0
  6
CONTINUOUS
 62
     7
 10
-822.586861297222
 20
-131.675845086575
 30
0.0
 11
-822.586861297222
 21
-144.275844871998
 31
0.0
  0
LINE
  5
   222
  8
0
  6
CONTINUOUS
 62
     7
 10
-823.98686127338
 20
-131.675845086575
 30
0.0
 11
-823.98686127338
 21
-144.275844871998
 31
0.0
  0
LINE
  5
   223
  8
0
  6
CONTINUOUS
 62
     7
 10
-814.886861428352
 20
-132.375845074654
 30
0.0
 11
-819.086861356827
 21
-132.375845074654
 31
0.0
  0
LINE
  5
   224
  8
0
  6
CONTINUOUS
 62
     7
 10
-823.98686127338
 20
-132.375845074654
 30
0.0
 11
-828.186861201855
 21
-132.375845074654
 31
0.0
  0
LINE
  5
   225
  8
0
  6
CONTINUOUS
 62
     7
 10
-814.886861428352
 20
-143.575844883919
 30
0.0
 11
-819.086861356827
 21
-143.575844883919
 31
0.0
  0
LINE
  5
   226
  8
0
  6
CONTINUOUS
 62
     7
 10
-823.98686127338
 20
-143.575844883919
 30
0.0
 11
-828.186861201855
 21
-143.575844883919
 31
0.0
  0
LINE
  5
   227
  8
0
  6
CONTINUOUS
 62
     7
 10
-819.086861356827
 20
-131.675845086575
 30
0.0
 11
-820.486861332985
 21
-131.675845086575
 31
0.0
  0
LINE
  5
   228
  8
0
  6
CONTINUOUS
 62
     7
 10
-822.586861297222
 20
-131.675845086575
 30
0.0
 11
-823.98686127338
 21
-131.675845086575
 31
0.0
  0
LINE
  5
   229
  8
0
  6
CONTINUOUS
 62
     7
 10
-819.086861356827
 20
-144.275844871998
 30
0.0
 11
-820.486861332985
 21
-144.275844871998
 31
0.0
  0
LINE
  5
   22A
  8
0
  6
CONTINUOUS
 62
     7
 10
-822.586861297222
 20
-144.275844871998
 30
0.0
 11
-823.98686127338
 21
-144.275844871998
 31
0.0
  0
LINE
  5
   22B
  8
0
  6
CONTINUOUS
 62
     7
 10
-820.486861332985
 20
-140.775844931602
 30
0.0
 11
-822.586861297222
 21
-140.775844931602
 31
0.0
  0
LINE
  5
   22C
  8
0
  6
CONTINUOUS
 62
     7
 10
-820.486861332985
 20
-135.17584502697
 30
0.0
 11
-822.586861297222
 21
-135.17584502697
 31
0.0
  0
LINE
  5
   22D
  8
0
  6
CONTINUOUS
 62
     7
 10
-820.486861332985
 20
-135.525845021009
 30
0.0
 11
-822.586861297222
 21
-135.525845021009
 31
0.0
  0
LINE
  5
   22E
  8
0
  6
CONTINUOUS
 62
     7
 10
-828.186861201855
 20
-135.17584502697
 30
0.0
 11
-829.236861183973
 21
-135.17584502697
 31
0.0
  0
LINE
  5
   22F
  8
0
  6
CONTINUOUS
 62
     7
 10
-828.186861201855
 20
-135.525845021009
 30
0.0
 11
-829.586861178013
 21
-135.525845021009
 31
0.0
  0
LINE
  5
   230
  8
0
  6
CONTINUOUS
 62
     7
 10
-828.186861201855
 20
-140.775844931602
 30
0.0
 11
-829.236861183973
 21
-140.775844931602
 31
0.0
  0
LINE
  5
   231
  8
0
  6
CONTINUOUS
 62
     7
 10
-829.236861183973
 20
-135.17584502697
 30
0.0
 11
-829.236861183973
 21
-140.775844931602
 31
0.0
  0
LINE
  5
   232
  8
0
  6
CONTINUOUS
 62
     7
 10
-829.586861178013
 20
-135.525845021009
 30
0.0
 11
-829.586861178013
 21
-140.425844937563
 31
0.0
  0
LINE
  5
   233
  8
0
  6
CONTINUOUS
 62
     7
 10
-829.236861183973
 20
-135.17584502697
 30
0.0
 11
-829.236861183973
 21
-140.775844931602
 31
0.0
  0
LINE
  5
   234
  8
0
  6
CONTINUOUS
 62
     7
 10
-829.236861183973
 20
-135.17584502697
 30
0.0
 11
-829.586861178013
 21
-135.525845021009
 31
0.0
  0
LINE
  5
   235
  8
0
  6
CONTINUOUS
 62
     7
 10
-829.236861183973
 20
-140.775844931603
 30
0.0
 11
-829.586861178013
 21
-140.425844937563
 31
0.0
  0
LINE
  5
   236
  8
0
  6
CONTINUOUS
 62
     7
 10
-800.186861678692
 20
-134.125845044851
 30
0.0
 11
-814.886861428352
 21
-134.125845044851
 31
0.0
  0
LINE
  5
   237
  8
0
  6
CONTINUOUS
 62
     7
 10
-800.186861678692
 20
-141.825844913721
 30
0.0
 11
-814.886861428352
 21
-141.825844913721
 31
0.0
  0
LINE
  5
   238
  8
0
  6
CONTINUOUS
 62
     7
 10
-820.486861332985
 20
-140.425844937563
 30
0.0
 11
-822.586861297222
 21
-140.425844937563
 31
0.0
  0
LINE
  5
   239
  8
0
  6
CONTINUOUS
 62
     7
 10
-800.186861678692
 20
-99.8258456289768
 30
0.0
 11
-814.886861428352
 21
-99.8258456289768
 31
0.0
  0
LINE
  5
   23A
  8
0
  6
CONTINUOUS
 62
     7
 10
-800.186861678692
 20
-92.125845760107
 30
0.0
 11
-814.886861428352
 21
-92.125845760107
 31
0.0
  0
LINE
  5
   23B
  8
0
  6
CONTINUOUS
 62
     7
 10
-814.886861428352
 20
-90.3758457899094
 30
0.0
 11
-814.886861428352
 21
-101.575845599175
 31
0.0
  0
LINE
  5
   23C
  8
0
  6
CONTINUOUS
 62
     7
 10
-814.886861428352
 20
-101.575845599175
 30
0.0
 11
-819.086861356827
 21
-101.575845599175
 31
0.0
  0
LINE
  5
   23D
  8
0
  6
CONTINUOUS
 62
     7
 10
-814.886861428352
 20
-90.3758457899094
 30
0.0
 11
-819.086861356827
 21
-90.3758457899094
 31
0.0
  0
LINE
  5
   23E
  8
0
  6
CONTINUOUS
 62
     7
 10
-819.086861356827
 20
-89.6758458018303
 30
0.0
 11
-819.086861356827
 21
-102.275845587254
 31
0.0
  0
LINE
  5
   23F
  8
0
  6
CONTINUOUS
 62
     7
 10
-820.486861332985
 20
-89.6758458018303
 30
0.0
 11
-820.486861332985
 21
-102.275845587254
 31
0.0
  0
LINE
  5
   240
  8
0
  6
CONTINUOUS
 62
     7
 10
-823.98686127338
 20
-89.6758458018303
 30
0.0
 11
-823.98686127338
 21
-102.275845587254
 31
0.0
  0
LINE
  5
   241
  8
0
  6
CONTINUOUS
 62
     7
 10
-823.98686127338
 20
-101.575845599175
 30
0.0
 11
-828.186861201855
 21
-101.575845599175
 31
0.0
  0
LINE
  5
   242
  8
0
  6
CONTINUOUS
 62
     7
 10
-828.186861201855
 20
-90.3758457899094
 30
0.0
 11
-828.186861201855
 21
-101.575845599175
 31
0.0
  0
LINE
  5
   243
  8
0
  6
CONTINUOUS
 62
     7
 10
-823.98686127338
 20
-90.3758457899094
 30
0.0
 11
-828.186861201855
 21
-90.3758457899094
 31
0.0
  0
LINE
  5
   244
  8
0
  6
CONTINUOUS
 62
     7
 10
-819.086861356827
 20
-89.6758458018303
 30
0.0
 11
-819.086861356827
 21
-102.275845587254
 31
0.0
  0
LINE
  5
   245
  8
0
  6
CONTINUOUS
 62
     7
 10
-819.086861356827
 20
-102.275845587254
 30
0.0
 11
-820.486861332985
 21
-102.275845587254
 31
0.0
  0
LINE
  5
   246
  8
0
  6
CONTINUOUS
 62
     7
 10
-822.586861297222
 20
-102.275845587254
 30
0.0
 11
-823.98686127338
 21
-102.275845587254
 31
0.0
  0
LINE
  5
   247
  8
0
  6
CONTINUOUS
 62
     7
 10
-819.086861356827
 20
-89.6758458018303
 30
0.0
 11
-820.486861332985
 21
-89.6758458018303
 31
0.0
  0
LINE
  5
   248
  8
0
  6
CONTINUOUS
 62
     7
 10
-822.586861297222
 20
-89.6758458018303
 30
0.0
 11
-823.98686127338
 21
-89.6758458018303
 31
0.0
  0
LINE
  5
   249
  8
0
  6
CONTINUOUS
 62
     7
 10
-822.586861297222
 20
-89.6758458018303
 30
0.0
 11
-822.586861297222
 21
-102.275845587254
 31
0.0
  0
LINE
  5
   24A
  8
0
  6
CONTINUOUS
 62
     7
 10
-820.486861332985
 20
-98.7758456468582
 30
0.0
 11
-822.586861297222
 21
-98.7758456468582
 31
0.0
  0
LINE
  5
   24B
  8
0
  6
CONTINUOUS
 62
     7
 10
-820.486861332985
 20
-93.1758457422256
 30
0.0
 11
-822.586861297222
 21
-93.1758457422256
 31
0.0
  0
LINE
  5
   24C
  8
0
  6
CONTINUOUS
 62
     7
 10
-820.486861332985
 20
-93.5258457362652
 30
0.0
 11
-822.586861297222
 21
-93.5258457362652
 31
0.0
  0
LINE
  5
   24D
  8
0
  6
CONTINUOUS
 62
     7
 10
-817.686861380669
 20
-98.4258456528187
 30
0.0
 11
-819.786861344906
 21
-98.4258456528187
 31
0.0
  0
LINE
  5
   24E
  8
0
  6
CONTINUOUS
 62
     7
 10
-828.186861201855
 20
-98.7758456468582
 30
0.0
 11
-829.236861183973
 21
-98.7758456468582
 31
0.0
  0
LINE
  5
   24F
  8
0
  6
CONTINUOUS
 62
     7
 10
-829.586861178013
 20
-93.5258457362652
 30
0.0
 11
-829.586861178013
 21
-98.4258456528187
 31
0.0
  0
LINE
  5
   250
  8
0
  6
CONTINUOUS
 62
     7
 10
-828.186861201855
 20
-93.1758457422256
 30
0.0
 11
-829.236861183973
 21
-93.1758457422256
 31
0.0
  0
LINE
  5
   251
  8
0
  6
CONTINUOUS
 62
     7
 10
-828.186861201855
 20
-93.5258457362652
 30
0.0
 11
-829.586861178013
 21
-93.5258457362652
 31
0.0
  0
LINE
  5
   252
  8
0
  6
CONTINUOUS
 62
     7
 10
-829.236861183973
 20
-93.1758457422256
 30
0.0
 11
-829.236861183973
 21
-98.7758456468582
 31
0.0
  0
LINE
  5
   253
  8
0
  6
CONTINUOUS
 62
     7
 10
-828.186861201855
 20
-98.4258456528187
 30
0.0
 11
-829.586861178013
 21
-98.4258456528187
 31
0.0
  0
LINE
  5
   254
  8
0
  6
CONTINUOUS
 62
     7
 10
-829.236861183973
 20
-93.1758457422256
 30
0.0
 11
-829.236861183973
 21
-98.7758456468582
 31
0.0
  0
LINE
  5
   255
  8
0
  6
CONTINUOUS
 62
     7
 10
-829.236861183973
 20
-98.7758456468582
 30
0.0
 11
-829.586861178013
 21
-98.4258456528187
 31
0.0
  0
LINE
  5
   256
  8
0
  6
CONTINUOUS
 62
     7
 10
-829.236861183973
 20
-93.1758457422256
 30
0.0
 11
-829.586861178013
 21
-93.5258457362652
 31
0.0
  0
LINE
  5
   257
  8
0
  6
CONTINUOUS
 62
     7
 10
-823.98686127338
 20
-137.975844979286
 30
0.0
 11
-828.186861201855
 21
-137.975844979286
 31
0.0
  0
LINE
  5
   258
  8
0
  6
CONTINUOUS
 62
     7
 10
-823.98686127338
 20
-95.9758456945419
 30
0.0
 11
-828.186861201855
 21
-95.9758456945419
 31
0.0
  0
LINE
  5
   259
  8
0
  6
CONTINUOUS
 62
     7
 10
-814.886861428352
 20
-95.9758456945419
 30
0.0
 11
-819.086861356827
 21
-95.9758456945419
 31
0.0
  0
LINE
  5
   25A
  8
0
  6
CONTINUOUS
 62
     7
 10
-814.886861428352
 20
-137.975844979286
 30
0.0
 11
-819.086861356827
 21
-137.975844979286
 31
0.0
  0
LINE
  5
   25B
  8
0
  6
CONTINUOUS
 62
     7
 10
-737.072089687052
 20
-112.4258454144
 30
0.0
 11
-737.072089687052
 21
-121.525845259428
 31
0.0
  0
LINE
  5
   25C
  8
0
  6
DASHDOT
 62
     7
 10
-797.27738250114
 20
-106.475845515728
 30
0.0
 11
-808.672721825596
 21
-106.475845515728
 31
0.0
  0
LINE
  5
   25D
  8
0
  6
CONTINUOUS
 62
     7
 10
-802.216861644121
 20
-105.07584553957
 30
0.0
 11
-804.736861601206
 21
-105.07584553957
 31
0.0
  0
LINE
  5
   25E
  8
0
  6
CONTINUOUS
 62
     7
 10
-802.216861644121
 20
-107.875845491886
 30
0.0
 11
-804.736861601206
 21
-107.875845491886
 31
0.0
  0
LINE
  5
   25F
  8
0
  6
CONTINUOUS
 62
     7
 10
-805.086861595245
 20
-105.425845533609
 30
0.0
 11
-805.086861595245
 21
-107.525845497847
 31
0.0
  0
LINE
  5
   260
  8
0
  6
CONTINUOUS
 62
     7
 10
-804.736861601206
 20
-105.07584553957
 30
0.0
 11
-805.086861595245
 21
-105.425845533609
 31
0.0
  0
LINE
  5
   261
  8
0
  6
CONTINUOUS
 62
     7
 10
-804.736861601206
 20
-107.875845491886
 30
0.0
 11
-805.086861595245
 21
-107.525845497847
 31
0.0
  0
LINE
  5
   262
  8
0
  6
DASHDOT
 62
     7
 10
-802.216861644121
 20
-107.525845497847
 30
0.0
 11
-805.086861595245
 21
-107.525845497847
 31
0.0
  0
LINE
  5
   263
  8
0
  6
CONTINUOUS
 62
     7
 10
-804.736861601206
 20
-105.07584553957
 30
0.0
 11
-804.736861601206
 21
-107.875845491886
 31
0.0
  0
LINE
  5
   264
  8
0
  6
DASHDOT
 62
     7
 10
-802.216861644121
 20
-105.425845533609
 30
0.0
 11
-805.086861595245
 21
-105.425845533609
 31
0.0
  0
LINE
  5
   265
  8
0
  6
DASHDOT
 62
     7
 10
-797.27738250114
 20
-127.4758451581
 30
0.0
 11
-808.672721825596
 21
-127.4758451581
 31
0.0
  0
LINE
  5
   266
  8
0
  6
CONTINUOUS
 62
     7
 10
-804.736861601206
 20
-126.075845181942
 30
0.0
 11
-804.736861601206
 21
-128.875845134258
 31
0.0
  0
LINE
  5
   267
  8
0
  6
CONTINUOUS
 62
     7
 10
-805.086861595245
 20
-126.425845175982
 30
0.0
 11
-805.086861595245
 21
-128.525845140219
 31
0.0
  0
LINE
  5
   268
  8
0
  6
DASHDOT
 62
     7
 10
-802.216861644121
 20
-128.525845140219
 30
0.0
 11
-805.086861595245
 21
-128.525845140219
 31
0.0
  0
LINE
  5
   269
  8
0
  6
DASHDOT
 62
     7
 10
-802.216861644121
 20
-126.425845175982
 30
0.0
 11
-805.086861595245
 21
-126.425845175982
 31
0.0
  0
LINE
  5
   26A
  8
0
  6
CONTINUOUS
 62
     7
 10
-802.216861644121
 20
-126.075845181942
 30
0.0
 11
-804.736861601206
 21
-126.075845181942
 31
0.0
  0
LINE
  5
   26B
  8
0
  6
CONTINUOUS
 62
     7
 10
-802.216861644121
 20
-128.875845134258
 30
0.0
 11
-804.736861601206
 21
-128.875845134258
 31
0.0
  0
LINE
  5
   26C
  8
0
  6
CONTINUOUS
 62
     7
 10
-804.736861601206
 20
-127.125845164061
 30
0.0
 11
-805.086861595245
 21
-126.775845170021
 31
0.0
  0
LINE
  5
   26D
  8
0
  6
CONTINUOUS
 62
     7
 10
-804.736861601206
 20
-126.075845181942
 30
0.0
 11
-805.086861595245
 21
-126.425845175982
 31
0.0
  0
LINE
  5
   26E
  8
0
  6
CONTINUOUS
 62
     7
 10
-804.736861601206
 20
-128.875845134258
 30
0.0
 11
-805.086861595245
 21
-128.525845140219
 31
0.0
  0
LINE
  5
   26F
  8
0
  6
CONTINUOUS
 62
     7
 10
-804.736861601206
 20
-126.075845181942
 30
0.0
 11
-805.086861595245
 21
-126.425845175982
 31
0.0
  0
LINE
  5
   270
  8
0
  6
CONTINUOUS
 62
     7
 10
-814.886861428352
 20
-132.375845074654
 30
0.0
 11
-814.886861428352
 21
-143.575844883919
 31
0.0
  0
LINE
  5
   271
  8
0
  6
CONTINUOUS
 62
     7
 10
-801.376861658426
 20
-99.8258456289768
 30
0.0
 11
-801.376861658426
 21
-134.125845044851
 31
0.0
  0
LINE
  5
   272
  8
0
  6
CONTINUOUS
 62
     7
 10
-802.216861644121
 20
-111.725845426321
 30
0.0
 11
-802.216861644121
 21
-122.225845247507
 31
0.0
  0
LINE
  5
   273
  8
0
  6
CONTINUOUS
 62
     7
 10
-803.056861629816
 20
-111.725845426321
 30
0.0
 11
-803.056861629816
 21
-122.225845247507
 31
0.0
  0
LINE
  5
   274
  8
0
  6
CONTINUOUS
 62
     7
 10
-802.216861644121
 20
-111.725845426321
 30
0.0
 11
-803.056861629816
 21
-111.725845426321
 31
0.0
  0
LINE
  5
   275
  8
0
  6
CONTINUOUS
 62
     7
 10
-802.216861644121
 20
-122.225845247507
 30
0.0
 11
-803.056861629816
 21
-122.225845247507
 31
0.0
  0
LINE
  5
   276
  8
0
  6
CONTINUOUS
 62
     7
 10
-803.056861629816
 20
-113.125845402479
 30
0.0
 11
-837.986861034962
 21
-113.125845402479
 31
0.0
  0
LINE
  5
   277
  8
0
  6
CONTINUOUS
 62
     7
 10
-803.056861629816
 20
-120.825845271349
 30
0.0
 11
-837.986861034962
 21
-120.825845271349
 31
0.0
  0
LINE
  5
   278
  8
0
  6
CONTINUOUS
 62
     7
 10
-802.216861644121
 20
-104.72584554553
 30
0.0
 11
-802.216861644121
 21
-108.225845485926
 31
0.0
  0
LINE
  5
   279
  8
0
  6
CONTINUOUS
 62
     7
 10
-801.726861652466
 20
-104.72584554553
 30
0.0
 11
-802.216861644121
 21
-104.72584554553
 31
0.0
  0
LINE
  5
   27A
  8
0
  6
CONTINUOUS
 62
     7
 10
-801.726861652466
 20
-108.225845485926
 30
0.0
 11
-802.216861644121
 21
-108.225845485926
 31
0.0
  0
LINE
  5
   27B
  8
0
  6
CONTINUOUS
 62
     7
 10
-801.726861652466
 20
-125.725845187902
 30
0.0
 11
-802.216861644121
 21
-125.725845187902
 31
0.0
  0
LINE
  5
   27C
  8
0
  6
CONTINUOUS
 62
     7
 10
-801.726861652466
 20
-129.225845128298
 30
0.0
 11
-802.216861644121
 21
-129.225845128298
 31
0.0
  0
LINE
  5
   27D
  8
0
  6
CONTINUOUS
 62
     7
 10
-802.216861644121
 20
-125.725845187902
 30
0.0
 11
-802.216861644121
 21
-129.225845128298
 31
0.0
  0
ARC
  5
   27E
  8
0
  6
CONTINUOUS
 62
     7
 10
-801.726861652466
 20
-125.375845193863
 30
0.0
 40
0.349999994039536
 50
269.999999896069
 51
359.999999896069
  0
ARC
  5
   27F
  8
0
  6
CONTINUOUS
 62
     7
 10
-801.726861652466
 20
-129.575845122337
 30
0.0
 40
0.349999994039536
 50
359.999999896069
 51
449.999999896069
  0
LINE
  5
   280
  8
0
  6
CONTINUOUS
 62
     7
 10
-802.216861644121
 20
-111.725845426321
 30
0.0
 11
-802.216861644121
 21
-122.225845247507
 31
0.0
  0
ARC
  5
   281
  8
0
  6
CONTINUOUS
 62
     7
 10
-801.726861652466
 20
-104.375845551491
 30
0.0
 40
0.349999994039536
 50
269.999999896069
 51
359.999999896069
  0
ARC
  5
   282
  8
0
  6
CONTINUOUS
 62
     7
 10
-801.726861652466
 20
-108.575845479965
 30
0.0
 40
0.349999994039536
 50
359.999999896069
 51
449.999999896069
  0
LINE
  5
   283
  8
0
  6
CONTINUOUS
 62
     7
 10
-747.686940786274
 20
-85.4758458733559
 30
0.0
 11
-747.686940786274
 21
-148.475844800472
 31
0.0
  0
LINE
  5
   284
  8
0
  6
CONTINUOUS
 62
     7
 10
-751.186951407821
 20
-85.4758458733559
 30
0.0
 11
-751.186951407821
 21
-148.475844800472
 31
0.0
  0
LINE
  5
   285
  8
0
  6
CONTINUOUS
 62
     7
 10
-753.286951372058
 20
-115.925845354795
 30
0.0
 11
-768.686951109798
 21
-115.925845354795
 31
0.0
  0
LINE
  5
   286
  8
0
  6
CONTINUOUS
 62
     7
 10
-753.286951372058
 20
-112.77584540844
 30
0.0
 11
-768.686951109798
 21
-112.77584540844
 31
0.0
  0
LINE
  5
   287
  8
0
  6
CONTINUOUS
 62
     7
 10
-753.286951372058
 20
-112.77584540844
 30
0.0
 11
-753.286951372058
 21
-115.925845354795
 31
0.0
  0
LINE
  5
   288
  8
0
  6
CONTINUOUS
 62
     7
 10
-768.686951109798
 20
-112.77584540844
 30
0.0
 11
-768.686951109798
 21
-115.925845354795
 31
0.0
  0
LINE
  5
   289
  8
0
  6
CONTINUOUS
 62
     7
 10
-768.686951109798
 20
-118.025845319033
 30
0.0
 11
-768.686951109798
 21
-121.175845265388
 31
0.0
  0
LINE
  5
   28A
  8
0
  6
CONTINUOUS
 62
     7
 10
-753.286951372058
 20
-121.175845265388
 30
0.0
 11
-768.686951109798
 21
-121.175845265388
 31
0.0
  0
LINE
  5
   28B
  8
0
  6
CONTINUOUS
 62
     7
 10
-753.286951372058
 20
-118.025845319033
 30
0.0
 11
-753.286951372058
 21
-121.175845265388
 31
0.0
  0
LINE
  5
   28C
  8
0
  6
CONTINUOUS
 62
     7
 10
-753.286951372058
 20
-118.025845319033
 30
0.0
 11
-768.686951109798
 21
-118.025845319033
 31
0.0
  0
LINE
  5
   28D
  8
0
  6
CONTINUOUS
 62
     7
 10
-753.286951372058
 20
-142.175844907761
 30
0.0
 11
-768.686951109798
 21
-142.175844907761
 31
0.0
  0
LINE
  5
   28E
  8
0
  6
CONTINUOUS
 62
     7
 10
-768.686951109798
 20
-139.025844961405
 30
0.0
 11
-768.686951109798
 21
-142.175844907761
 31
0.0
  0
LINE
  5
   28F
  8
0
  6
CONTINUOUS
 62
     7
 10
-753.286951372058
 20
-139.025844961405
 30
0.0
 11
-753.286951372058
 21
-142.175844907761
 31
0.0
  0
LINE
  5
   290
  8
0
  6
CONTINUOUS
 62
     7
 10
-753.286951372058
 20
-139.025844961405
 30
0.0
 11
-768.686951109798
 21
-139.025844961405
 31
0.0
  0
LINE
  5
   291
  8
0
  6
CONTINUOUS
 62
     7
 10
-768.686951109798
 20
-133.775845050812
 30
0.0
 11
-768.686951109798
 21
-136.925844997168
 31
0.0
  0
LINE
  5
   292
  8
0
  6
CONTINUOUS
 62
     7
 10
-753.286951372058
 20
-136.925844997168
 30
0.0
 11
-768.686951109798
 21
-136.925844997168
 31
0.0
  0
LINE
  5
   293
  8
0
  6
CONTINUOUS
 62
     7
 10
-753.286951372058
 20
-133.775845050812
 30
0.0
 11
-753.286951372058
 21
-136.925844997168
 31
0.0
  0
LINE
  5
   294
  8
0
  6
CONTINUOUS
 62
     7
 10
-753.286951372058
 20
-133.775845050812
 30
0.0
 11
-768.686951109798
 21
-133.775845050812
 31
0.0
  0
LINE
  5
   295
  8
0
  6
CONTINUOUS
 62
     7
 10
-768.686951109798
 20
-118.025845319033
 30
0.0
 11
-768.686951109798
 21
-121.175845265388
 31
0.0
  0
LINE
  5
   296
  8
0
  6
CONTINUOUS
 62
     7
 10
-753.286951372058
 20
-121.175845265388
 30
0.0
 11
-768.686951109798
 21
-121.175845265388
 31
0.0
  0
LINE
  5
   297
  8
0
  6
CONTINUOUS
 62
     7
 10
-753.286951372058
 20
-118.025845319033
 30
0.0
 11
-753.286951372058
 21
-121.175845265388
 31
0.0
  0
LINE
  5
   298
  8
0
  6
CONTINUOUS
 62
     7
 10
-753.286951372058
 20
-100.175845623016
 30
0.0
 11
-768.686951109798
 21
-100.175845623016
 31
0.0
  0
LINE
  5
   299
  8
0
  6
CONTINUOUS
 62
     7
 10
-768.686951109798
 20
-97.0258456766605
 30
0.0
 11
-768.686951109798
 21
-100.175845623016
 31
0.0
  0
LINE
  5
   29A
  8
0
  6
CONTINUOUS
 62
     7
 10
-753.286951372058
 20
-97.0258456766605
 30
0.0
 11
-768.686951109798
 21
-97.0258456766605
 31
0.0
  0
LINE
  5
   29B
  8
0
  6
CONTINUOUS
 62
     7
 10
-753.286951372058
 20
-97.0258456766605
 30
0.0
 11
-753.286951372058
 21
-100.175845623016
 31
0.0
  0
LINE
  5
   29C
  8
0
  6
CONTINUOUS
 62
     7
 10
-753.286951372058
 20
-94.9258457124233
 30
0.0
 11
-768.686951109798
 21
-94.9258457124233
 31
0.0
  0
LINE
  5
   29D
  8
0
  6
CONTINUOUS
 62
     7
 10
-753.286951372058
 20
-91.7758457660675
 30
0.0
 11
-753.286951372058
 21
-94.9258457124233
 31
0.0
  0
LINE
  5
   29E
  8
0
  6
CONTINUOUS
 62
     7
 10
-753.286951372058
 20
-91.7758457660675
 30
0.0
 11
-768.686951109798
 21
-91.7758457660675
 31
0.0
  0
LINE
  5
   29F
  8
0
  6
CONTINUOUS
 62
     7
 10
-768.686951109798
 20
-91.7758457660675
 30
0.0
 11
-768.686951109798
 21
-94.9258457124233
 31
0.0
  0
LINE
  5
   2A0
  8
0
  6
CONTINUOUS
 62
     7
 10
-747.686940786274
 20
-85.4758458733559
 30
0.0
 11
-800.186861678692
 21
-85.4758458733559
 31
0.0
  0
LINE
  5
   2A1
  8
0
  6
CONTINUOUS
 62
     7
 10
-747.686940786274
 20
-148.475844800472
 30
0.0
 11
-800.186861678692
 21
-148.475844800472
 31
0.0
  0
LINE
  5
   2A2
  8
0
  6
CONTINUOUS
 62
     7
 10
-737.072089687052
 20
-112.4258454144
 30
0.0
 11
-747.686940786274
 21
-112.4258454144
 31
0.0
  0
LINE
  5
   2A3
  8
0
  6
CONTINUOUS
 62
     7
 10
-737.072089687052
 20
-121.525845259428
 30
0.0
 11
-747.686940786274
 21
-121.525845259428
 31
0.0
  0
TEXT
  5
   2A4
  8
0
  6
CONTINUOUS
 62
     2
 10
-673.646774304507
 20
-160.717325650836
 30
0.0
 40
2.00000003448554
  1
3 POLE LOW VOLTAGE M.C.C.B SERIES ISOMAX
 50
359.999999896069
 41
0.75
 72
     1
 11
-643.896773789726
 21
-159.717325687409
 31
0.0
 73
     2
  0
TEXT
  5
   2A5
  8
0
  6
CONTINUOUS
 62
     2
 10
-664.646775153855
 20
-163.917325476381
 30
0.0
 40
2.00000003448554
  1
FIXED VERSION REAR TERMINALS
 50
359.999999896069
 41
0.75
 72
     1
 11
-643.896774794259
 21
-162.917325496674
 31
0.0
 73
     2
  0
TEXT
  5
   2A6
  8
0
  6
CONTINUOUS
 62
     2
 10
-683.670606494193
 20
-169.629133245959
 30
0.0
 40
2.00000003448554
  1
      INTERR.AUTOMATICO SERIE ISOMAX
 50
359.999999896069
 41
0.75
 11
-683.670606492384
 21
-168.629133228716
 31
0.0
 73
     2
  0
TEXT
  5
   2A7
  8
0
  6
CONTINUOUS
 62
     2
 10
-683.670610550489
 20
-172.829141599249
 30
0.0
 40
2.00000003448554
  1
TRIPOL. ESECUZIONE FISSA TERMINALI POSTERIORI
 50
359.999999896069
 41
0.75
 11
-683.67061054868
 21
-171.829141582007
 31
0.0
 73
     2
  0
TEXT
  5
   2A8
  8
0
  6
CONTINUOUS
 62
     2
 10
-771.550140382668
 20
-160.319724826262
 30
0.0
 40
2.00000003448554
  1
3/11/92
 50
359.999999896069
 41
0.75
 11
-771.550140380859
 21
-159.31972480902
 31
0.0
 73
     2
  0
TEXT
  5
   2A9
  8
0
  6
CONTINUOUS
 62
     2
 10
-770.034088136575
 20
-164.401420382903
 30
0.0
 40
2.00000003448554
  1
MOSTOSI
 50
359.999999896069
 41
0.75
 11
-770.034088134766
 21
-163.40142036566
 31
0.0
 73
     2
  0
TEXT
  5
   2AA
  8
0
  6
CONTINUOUS
 62
     2
 10
-759.637481691714
 20
-177.690966062535
 30
0.0
 40
2.4999999335834
  1
M3727 95-01-18
 50
359.999999896069
 41
0.649999969792367
 11
-759.637481689453
 21
-176.440966095744
 31
0.0
 73
     2
  0
TEXT
  5
   2AB
  8
0
  6
CONTINUOUS
 62
     2
 10
-645.588623049589
 20
-179.574010688358
 30
0.0
 40
2.99999997871263
  1
S2
 50
359.999999896069
 41
0.983333365784751
 11
-645.588623046875
 21
-178.074010699002
 31
0.0
 73
     2
  0
TEXT
  5
   2AC
  8
0
  6
CONTINUOUS
 62
     2
 10
-665.775604252589
 20
-189.448903779506
 30
0.0
 40
4.99999986716679
  1
601855/061
 50
359.999999896069
 41
0.983333380063375
 11
-665.775604248066
 21
-186.948903845922
 31
0.0
 73
     2
  0
TEXT
  5
   2AD
  8
0
  6
CONTINUOUS
 62
     2
 10
-609.681253459501
 20
-190.397585829314
 30
0.0
 40
2.4999999335834
  1
1/1
 50
359.999999896069
 41
1.01399997009277
 72
     1
 11
-606.191253662109
 21
-189.147585868835
 31
0.0
 73
     2
  0
INSERT
  5
   2AE
  8
0
  6
CONTINUOUS
 62
     3
  2
*UDIM173
 10
0.0
 20
0.0
 30
0.0
  0
INSERT
  5
   2AF
  8
0
  6
CONTINUOUS
 62
     3
  2
*UDIM174
 10
0.0
 20
0.0
 30
0.0
  0
INSERT
  5
   2B0
  8
0
  6
CONTINUOUS
 62
     7
  2
*UDIM175
 10
0.0
 20
0.0
 30
0.0
  0
INSERT
  5
   2B1
  8
0
  6
CONTINUOUS
 62
     7
  2
*UDIM176
 10
0.0
 20
0.0
 30
0.0
  0
INSERT
  5
   2B2
  8
0
  6
CONTINUOUS
 62
     3
  2
*UDIM177
 10
0.0
 20
0.0
 30
0.0
  0
INSERT
  5
   2B3
  8
0
  6
CONTINUOUS
 62
     3
  2
*UDIM178
 10
0.0
 20
0.0
 30
0.0
  0
INSERT
  5
   2B4
  8
0
  6
CONTINUOUS
 62
     3
  2
*UDIM179
 10
0.0
 20
0.0
 30
0.0
  0
INSERT
  5
   2B5
  8
0
  6
CONTINUOUS
 62
     7
  2
*UDIM180
 10
0.0
 20
0.0
 30
0.0
  0
LINE
  5
   2B6
  8
0
  6
DASHDOT
 62
     7
 10
-949.839172184467
 20
-76.9208472967148
 30
0.0
 11
-949.839172184467
 21
-93.7208470106125
 31
0.0
  0
LINE
  5
   2B7
  8
0
  6
DASHDOT
 62
     7
 10
-956.489172071219
 20
-85.3208471536636
 30
0.0
 11
-939.689172357321
 21
-85.3208471536636
 31
0.0
  0
LINE
  5
   2B8
  8
0
  6
DASHDOT
 62
     7
 10
-928.839172542095
 20
-146.920846104622
 30
0.0
 11
-928.839172542095
 21
-163.72084581852
 31
0.0
  0
LINE
  5
   2B9
  8
0
  6
DASHDOT
 62
     7
 10
-938.989172369242
 20
-155.320845961571
 30
0.0
 11
-922.189172655344
 21
-155.320845961571
 31
0.0
  0
LINE
  5
   2BA
  8
0
  6
DASHDOT
 62
     7
 10
-939.339172363281
 20
-83.4009120856543
 30
0.0
 11
-939.339172363281
 21
-159.959352409591
 31
0.0
  0
LINE
  5
   2BB
  8
0
  6
DASHDOT
 62
     7
 10
-960.339172005654
 20
-72.0208473801613
 30
0.0
 11
-960.339172005654
 21
-97.2208469510078
 31
0.0
  0
LINE
  5
   2BC
  8
0
  6
DASHDOT
 62
     7
 10
-969.439171850681
 20
-84.6208471655846
 30
0.0
 11
-944.239172279835
 21
-84.6208471655846
 31
0.0
  0
LINE
  5
   2BD
  8
0
  6
DASHDOT
 62
     7
 10
-939.339172363281
 20
-72.0208473801613
 30
0.0
 11
-939.339172363281
 21
-97.2208469510078
 31
0.0
  0
LINE
  5
   2BE
  8
0
  6
DASHDOT
 62
     7
 10
-951.939172148704
 20
-84.6208471655846
 30
0.0
 11
-926.739172577858
 21
-84.6208471655846
 31
0.0
  0
LINE
  5
   2BF
  8
0
  6
DASHDOT
 62
     7
 10
-918.339172720909
 20
-72.0208473801613
 30
0.0
 11
-918.339172720909
 21
-97.2208469510078
 31
0.0
  0
LINE
  5
   2C0
  8
0
  6
DASHDOT
 62
     7
 10
-934.439172446728
 20
-84.6208471655846
 30
0.0
 11
-909.239172875881
 21
-84.6208471655846
 31
0.0
  0
LINE
  5
   2C1
  8
0
  6
DASHDOT
 62
     7
 10
-958.589172035456
 20
-143.420846164227
 30
0.0
 11
-958.589172035456
 21
-168.620845735073
 31
0.0
  0
LINE
  5
   2C2
  8
0
  6
DASHDOT
 62
     7
 10
-969.439171850681
 20
-156.02084594965
 30
0.0
 11
-944.239172279835
 21
-156.02084594965
 31
0.0
  0
LINE
  5
   2C3
  8
0
  6
DASHDOT
 62
     7
 10
-939.339172363281
 20
-143.420846164227
 30
0.0
 11
-939.339172363281
 21
-172.233775512641
 31
0.0
  0
LINE
  5
   2C4
  8
0
  6
DASHDOT
 62
     7
 10
-951.939172148704
 20
-156.02084594965
 30
0.0
 11
-926.739172577858
 21
-156.02084594965
 31
0.0
  0
LINE
  5
   2C5
  8
0
  6
DASHDOT
 62
     7
 10
-918.339172720909
 20
-143.420846164227
 30
0.0
 11
-918.339172720909
 21
-168.620845735073
 31
0.0
  0
LINE
  5
   2C6
  8
0
  6
DASHDOT
 62
     7
 10
-934.439172446728
 20
-156.02084594965
 30
0.0
 11
-909.239172875881
 21
-156.02084594965
 31
0.0
  0
LINE
  5
   2C7
  8
0
  6
CONTINUOUS
 62
     7
 10
-969.66269288218
 20
-73.0262059511475
 30
0.0
 11
-908.936262783061
 21
-73.0262059511475
 31
0.0
  0
LINE
  5
   2C8
  8
0
  6
CONTINUOUS
 62
     7
 10
-969.66269288218
 20
-168.641947801865
 30
0.0
 11
-908.936262783061
 21
-168.641947801865
 31
0.0
  0
LINE
  5
   2C9
  8
0
  6
CONTINUOUS
 62
     7
 10
-908.936262783061
 20
-73.0262059511475
 30
0.0
 11
-908.936262783061
 21
-168.641947801865
 31
0.0
  0
LINE
  5
   2CA
  8
0
  6
CONTINUOUS
 62
     7
 10
-969.66269288218
 20
-73.0262059511475
 30
0.0
 11
-969.66269288218
 21
-168.641947801865
 31
0.0
  0
CIRCLE
  5
   2CB
  8
0
  6
CONTINUOUS
 62
     7
 10
-960.339172005654
 20
-84.6208471655846
 30
0.0
 40
6.29999989271164
  0
CIRCLE
  5
   2CC
  8
0
  6
CONTINUOUS
 62
     7
 10
-939.339172363281
 20
-84.6208471655846
 30
0.0
 40
6.29999989271164
  0
CIRCLE
  5
   2CD
  8
0
  6
CONTINUOUS
 62
     7
 10
-918.339172720909
 20
-84.6208471655846
 30
0.0
 40
6.29999989271164
  0
CIRCLE
  5
   2CE
  8
0
  6
CONTINUOUS
 62
     7
 10
-958.589172035456
 20
-156.02084594965
 30
0.0
 40
6.29999989271164
  0
CIRCLE
  5
   2CF
  8
0
  6
CONTINUOUS
 62
     7
 10
-939.339172363281
 20
-156.02084594965
 30
0.0
 40
6.29999989271164
  0
CIRCLE
  5
   2D0
  8
0
  6
CONTINUOUS
 62
     7
 10
-918.339172720909
 20
-156.02084594965
 30
0.0
 40
6.29999989271164
  0
LINE
  5
   2D1
  8
0
  6
DASHDOT
 62
     7
 10
-973.686022273604
 20
-128.720846414566
 30
0.0
 11
-901.894788198831
 21
-128.720846414566
 31
0.0
  0
ARC
  5
   2D2
  8
0
  6
DASHDOT
 62
     7
 10
-928.839172542095
 20
-155.320845961571
 30
0.0
 40
1.57499997317791
 50
541.3312424773
 51
803.720929239731
  0
CIRCLE
  5
   2D3
  8
0
  6
CONTINUOUS
 62
     7
 10
-928.839172542095
 20
-155.320845961571
 30
0.0
 40
1.57499997317791
  0
ARC
  5
   2D4
  8
0
  6
DASHDOT
 62
     7
 10
-949.839172184467
 20
-85.3208471536636
 30
0.0
 40
1.57499997317791
 50
541.3312424773
 51
803.720929239731
  0
CIRCLE
  5
   2D5
  8
0
  6
CONTINUOUS
 62
     7
 10
-949.839172184467
 20
-85.3208471536636
 30
0.0
 40
1.57499997317791
  0
TEXT
  5
   2D6
  8
0
  6
CONTINUOUS
 62
     2
 10
-940.1958457484
 20
-58.8189890483109
 30
0.0
 40
2.99999997871263
  1
Y
 50
359.999999844103
 41
0.983333365784751
 11
-940.195845744326
 21
-57.3189890589546
 31
0.0
 73
     2
  0
TEXT
  5
   2D7
  8
0
  6
CONTINUOUS
 62
     2
 10
-940.824562313792
 20
-176.554771585843
 30
0.0
 40
2.99999997871263
  1
Y
 50
359.999999844103
 41
0.983333365784751
 11
-940.824562309719
 21
-175.054771596487
 31
0.0
 73
     2
  0
TEXT
  5
   2D8
  8
0
  6
CONTINUOUS
 62
     2
 10
-901.634071292951
 20
-130.058087004293
 30
0.0
 40
2.99999997871263
  1
X
 50
359.999999844103
 41
0.983333365784751
 72
     1
 11
-900.534071248005
 21
-128.558087017924
 31
0.0
 73
     2
  0
TEXT
  5
   2D9
  8
0
  6
CONTINUOUS
 62
     2
 10
-987.180912733035
 20
-129.70061121662
 30
0.0
 40
2.99999997871263
  1
X
 50
359.999999844103
 41
0.983333365784751
 11
-987.180912728961
 21
-128.200611227264
 31
0.0
 73
     2
  0
INSERT
  5
   2DA
  8
0
  6
CONTINUOUS
 62
     7
  2
*UDIM181
 10
0.0
 20
0.0
 30
0.0
  0
INSERT
  5
   2DB
  8
0
  6
CONTINUOUS
 62
     7
  2
*UDIM182
 10
0.0
 20
0.0
 30
0.0
  0
INSERT
  5
   2DC
  8
0
  6
CONTINUOUS
 62
     3
  2
*UDIM183
 10
0.0
 20
0.0
 30
0.0
  0
INSERT
  5
   2DD
  8
0
  6
CONTINUOUS
 62
     3
  2
*UDIM184
 10
0.0
 20
0.0
 30
0.0
  0
INSERT
  5
   2DE
  8
0
  6
CONTINUOUS
 62
     3
  2
*UDIM185
 10
0.0
 20
0.0
 30
0.0
  0
INSERT
  5
   2DF
  8
0
  6
CONTINUOUS
 62
     3
  2
*UDIM186
 10
0.0
 20
0.0
 30
0.0
  0
INSERT
  5
   2E0
  8
0
  6
CONTINUOUS
 62
     3
  2
*UDIM187
 10
0.0
 20
0.0
 30
0.0
  0
INSERT
  5
   2E1
  8
0
  6
CONTINUOUS
 62
     3
  2
*UDIM188
 10
0.0
 20
0.0
 30
0.0
  0
INSERT
  5
   2E2
  8
0
  6
CONTINUOUS
 62
     7
  2
*UDIM189
 10
0.0
 20
0.0
 30
0.0
  0
TEXT
  5
   2E3
  8
0
  6
CONTINUOUS
 62
     2
 10
-944.508453809703
 20
-187.540074896079
 30
0.0
 40
2.99999997871263
  1
=
 50
359.999999844103
 41
0.91666663951344
 11
-944.508453805629
 21
-186.040074906723
 31
0.0
 73
     2
  0
TEXT
  5
   2E4
  8
0
  6
CONTINUOUS
 62
     2
 10
-936.012271178895
 20
-187.473696875969
 30
0.0
 40
2.99999997871263
  1
=
 50
359.999999844103
 41
0.91666663951344
 11
-936.012271174821
 21
-185.973696886613
 31
0.0
 73
     2
  0
LINE
  5
   2E5
  8
0
  6
CONTINUOUS
 62
     7
 10
-751.186940726669
 20
55.7667639255524
 30
0.0
 11
-748.736940768392
 21
55.7667639255524
 31
0.0
  0
LINE
  5
   2E6
  8
0
  6
CONTINUOUS
 62
     7
 10
-751.186940726669
 20
52.266763985157
 30
0.0
 11
-748.736940768392
 21
52.266763985157
 31
0.0
  0
LINE
  5
   2E7
  8
0
  6
CONTINUOUS
 62
     7
 10
-748.386940774353
 20
55.4167639315128
 30
0.0
 11
-748.386940774353
 21
52.6167639791966
 31
0.0
  0
CIRCLE
  5
   2E8
  8
0
  6
CONTINUOUS
 62
     7
 10
-749.786940750511
 20
54.0167639553547
 30
0.0
 40
0.524999991059303
  0
LINE
  5
   2E9
  8
0
  6
CONTINUOUS
 62
     7
 10
-748.736940768392
 20
55.7667639255524
 30
0.0
 11
-748.386940774353
 21
55.4167639315128
 31
0.0
  0
LINE
  5
   2EA
  8
0
  6
CONTINUOUS
 62
     7
 10
-748.386940774353
 20
52.6167639791966
 30
0.0
 11
-748.736940768392
 21
52.266763985157
 31
0.0
  0
LINE
  5
   2EB
  8
0
  6
CONTINUOUS
 62
     7
 10
-748.736940768392
 20
55.7667639255524
 30
0.0
 11
-748.736940768392
 21
52.266763985157
 31
0.0
  0
LINE
  5
   2EC
  8
0
  6
CONTINUOUS
 62
     7
 10
-751.186940726669
 20
-30.3332346081734
 30
0.0
 11
-748.736940768392
 21
-30.3332346081734
 31
0.0
  0
LINE
  5
   2ED
  8
0
  6
CONTINUOUS
 62
     7
 10
-748.736940768392
 20
-26.833234667778
 30
0.0
 11
-748.736940768392
 21
-30.3332346081734
 31
0.0
  0
LINE
  5
   2EE
  8
0
  6
CONTINUOUS
 62
     7
 10
-751.186940726669
 20
-26.833234667778
 30
0.0
 11
-748.736940768392
 21
-26.833234667778
 31
0.0
  0
LINE
  5
   2EF
  8
0
  6
CONTINUOUS
 62
     7
 10
-748.386940774353
 20
-29.9832346141338
 30
0.0
 11
-748.736940768392
 21
-30.3332346081734
 31
0.0
  0
LINE
  5
   2F0
  8
0
  6
CONTINUOUS
 62
     7
 10
-748.386940774353
 20
-27.1832346618176
 30
0.0
 11
-748.386940774353
 21
-29.9832346141338
 31
0.0
  0
LINE
  5
   2F1
  8
0
  6
CONTINUOUS
 62
     7
 10
-748.736940768392
 20
-26.833234667778
 30
0.0
 11
-748.386940774353
 21
-27.1832346618176
 31
0.0
  0
CIRCLE
  5
   2F2
  8
0
  6
CONTINUOUS
 62
     7
 10
-749.786940750511
 20
-28.5832346379757
 30
0.0
 40
0.524999991059303
  0
LINE
  5
   2F3
  8
0
  6
CONTINUOUS
 62
     7
 10
-770.0869140625
 20
53.3167841539205
 30
0.0
 11
-770.0869140625
 21
-27.8832334742166
 31
0.0
  0
LINE
  5
   2F4
  8
0
  6
CONTINUOUS
 62
     7
 10
-800.186902868748
 20
10.6167560400858
 30
0.0
 11
-800.186902868748
 21
-29.2832346439363
 31
0.0
  0
LINE
  5
   2F5
  8
0
  6
CONTINUOUS
 62
     7
 10
-800.536902862788
 20
-26.4832240104679
 30
0.0
 11
-800.186902868748
 21
-26.4832240104679
 31
0.0
  0
LINE
  5
   2F6
  8
0
  6
CONTINUOUS
 62
     7
 10
-800.536902862788
 20
-18.0832348346712
 30
0.0
 11
-800.186902868748
 21
-18.0832348346712
 31
0.0
  0
LINE
  5
   2F7
  8
0
  6
CONTINUOUS
 62
     7
 10
-800.536902862788
 20
-18.0832348346712
 30
0.0
 11
-800.536902862788
 21
-26.4832240104679
 31
0.0
  0
LINE
  5
   2F8
  8
0
  6
CONTINUOUS
 62
     7
 10
-800.536902862788
 20
51.9167532920837
 30
0.0
 11
-800.186902868748
 21
51.9167532920837
 31
0.0
  0
LINE
  5
   2F9
  8
0
  6
CONTINUOUS
 62
     7
 10
-800.536902862788
 20
43.516764116287
 30
0.0
 11
-800.186902868748
 21
43.516764116287
 31
0.0
  0
LINE
  5
   2FA
  8
0
  6
CONTINUOUS
 62
     7
 10
-800.536902862788
 20
-18.083224153519
 30
0.0
 11
-800.186902868748
 21
-18.083224153519
 31
0.0
  0
LINE
  5
   2FB
  8
0
  6
CONTINUOUS
 62
     7
 10
-737.058832622538
 20
1.27210237287852
 30
0.0
 11
-736.89896777982
 21
1.19961939358158
 31
0.0
  0
LINE
  5
   2FC
  8
0
  6
CONTINUOUS
 62
     7
 10
-736.89897532902
 20
1.19962841510763
 30
0.0
 11
-736.794406824139
 21
1.05865118723278
 31
0.0
  0
LINE
  5
   2FD
  8
0
  6
CONTINUOUS
 62
     7
 10
-736.794408864466
 20
1.05865647620088
 30
0.0
 11
-736.771433703598
 21
0.884640448688377
 31
0.0
  0
LINE
  5
   2FE
  8
0
  6
CONTINUOUS
 62
     7
 10
-736.771441772454
 20
0.884646163236755
 30
0.0
 11
-737.029455691165
 21
-1.2166685244784
 31
0.0
  0
LINE
  5
   2FF
  8
0
  6
CONTINUOUS
 62
     7
 10
-737.029465555207
 20
-1.21667791465997
 30
0.0
 11
-737.097333590296
 21
-1.38465906473803
 31
0.0
  0
LINE
  5
   300
  8
0
  6
CONTINUOUS
 62
     7
 10
-737.097340854585
 20
-1.38465057528729
 30
0.0
 11
-737.240105125492
 21
-1.4961918290937
 31
0.0
  0
LINE
  5
   301
  8
0
  6
CONTINUOUS
 62
     7
 10
-737.240013842656
 20
-1.49618772379052
 30
0.0
 11
-737.419425257029
 21
-1.52140260080318
 31
0.0
  0
LINE
  5
   302
  8
0
  6
CONTINUOUS
 62
     7
 10
-747.686940786274
 20
3.12088341127759
 30
0.0
 11
-737.058869941469
 21
1.27212357292449
 31
0.0
  0
LINE
  5
   303
  8
0
  6
CONTINUOUS
 62
     7
 10
-737.058832622538
 20
1.27210237287852
 30
0.0
 11
-736.89896777982
 21
1.19961939358158
 31
0.0
  0
LINE
  5
   304
  8
0
  6
CONTINUOUS
 62
     7
 10
-736.89897532902
 20
1.19962841510763
 30
0.0
 11
-736.794406824139
 21
1.05865118723278
 31
0.0
  0
LINE
  5
   305
  8
0
  6
CONTINUOUS
 62
     7
 10
-736.794408864466
 20
1.05865647620088
 30
0.0
 11
-736.771433703598
 21
0.884640448688377
 31
0.0
  0
LINE
  5
   306
  8
0
  6
CONTINUOUS
 62
     7
 10
-736.771441772454
 20
0.884646163236755
 30
0.0
 11
-737.029455691165
 21
-1.2166685244784
 31
0.0
  0
LINE
  5
   307
  8
0
  6
CONTINUOUS
 62
     7
 10
-737.029465555207
 20
-1.21667791465997
 30
0.0
 11
-737.097333590296
 21
-1.38465906473803
 31
0.0
  0
LINE
  5
   308
  8
0
  6
CONTINUOUS
 62
     7
 10
-737.097340854585
 20
-1.38465057528729
 30
0.0
 11
-737.240105125492
 21
-1.4961918290937
 31
0.0
  0
LINE
  5
   309
  8
0
  6
CONTINUOUS
 62
     7
 10
-737.240013842656
 20
-1.49618772379052
 30
0.0
 11
-737.419425257029
 21
-1.52140260080318
 31
0.0
  0
LINE
  5
   30A
  8
0
  6
CONTINUOUS
 62
     7
 10
-747.686940786274
 20
-0.260723215609486
 30
0.0
 11
-737.419495125366
 21
-1.52140731738149
 31
0.0
  0
ARC
  5
   30B
  8
0
  6
CONTINUOUS
 62
     7
 10
-773.590456150089
 20
2.56713824736326
 30
0.0
 40
36.7512767740806
 50
341.662084871553
 51
365.929678541859
  0
LINE
  5
   30C
  8
0
  6
CONTINUOUS
 62
     7
 10
-800.186902868748
 20
56.1167746007543
 30
0.0
 11
-800.186902868748
 21
14.8167545234567
 31
0.0
  0
LINE
  5
   30D
  8
0
  6
CONTINUOUS
 62
     7
 10
-814.798347588894
 20
51.9318596183411
 30
0.0
 11
-800.536902862788
 21
51.9318596183411
 31
0.0
  0
LINE
  5
   30E
  8
0
  6
CONTINUOUS
 62
     7
 10
-814.798347588894
 20
44.9318597375504
 30
0.0
 11
-800.536902862788
 21
44.9318597375504
 31
0.0
  0
LINE
  5
   30F
  8
0
  6
CONTINUOUS
 62
     7
 10
-814.798347588894
 20
54.0318595825783
 30
0.0
 11
-814.798347588894
 21
42.8318597733131
 31
0.0
  0
LINE
  5
   310
  8
0
  6
CONTINUOUS
 62
     7
 10
-818.998347517369
 20
54.7318595706573
 30
0.0
 11
-818.998347517369
 21
42.1318597852341
 31
0.0
  0
LINE
  5
   311
  8
0
  6
CONTINUOUS
 62
     7
 10
-818.998347517369
 20
54.0318595825783
 30
0.0
 11
-814.798347588894
 21
54.0318595825783
 31
0.0
  0
LINE
  5
   312
  8
0
  6
CONTINUOUS
 62
     7
 10
-818.998347517369
 20
42.8318597733131
 30
0.0
 11
-814.798347588894
 21
42.8318597733131
 31
0.0
  0
LINE
  5
   313
  8
0
  6
CONTINUOUS
 62
     7
 10
-818.998347517369
 20
54.7318595706573
 30
0.0
 11
-818.998347517369
 21
42.1318597852341
 31
0.0
  0
LINE
  5
   314
  8
0
  6
CONTINUOUS
 62
     7
 10
-820.398347493527
 20
54.7318595706573
 30
0.0
 11
-820.398347493527
 21
42.1318597852341
 31
0.0
  0
LINE
  5
   315
  8
0
  6
CONTINUOUS
 62
     7
 10
-822.498347457764
 20
54.7318595706573
 30
0.0
 11
-822.498347457764
 21
42.1318597852341
 31
0.0
  0
LINE
  5
   316
  8
0
  6
CONTINUOUS
 62
     7
 10
-823.898347433922
 20
54.7318595706573
 30
0.0
 11
-823.898347433922
 21
42.1318597852341
 31
0.0
  0
LINE
  5
   317
  8
0
  6
CONTINUOUS
 62
     7
 10
-828.098347362396
 20
54.0318595825783
 30
0.0
 11
-823.898347433922
 21
54.0318595825783
 31
0.0
  0
LINE
  5
   318
  8
0
  6
CONTINUOUS
 62
     7
 10
-828.098347362396
 20
54.0318595825783
 30
0.0
 11
-828.098347362396
 21
42.8318597733131
 31
0.0
  0
LINE
  5
   319
  8
0
  6
CONTINUOUS
 62
     7
 10
-828.098347362396
 20
42.8318597733131
 30
0.0
 11
-823.898347433922
 21
42.8318597733131
 31
0.0
  0
LINE
  5
   31A
  8
0
  6
CONTINUOUS
 62
     7
 10
-829.148347344515
 20
51.231859630262
 30
0.0
 11
-828.098347362396
 21
51.231859630262
 31
0.0
  0
LINE
  5
   31B
  8
0
  6
CONTINUOUS
 62
     7
 10
-829.498347338555
 20
50.8818596362225
 30
0.0
 11
-828.098347362396
 21
50.8818596362225
 31
0.0
  0
LINE
  5
   31C
  8
0
  6
CONTINUOUS
 62
     7
 10
-829.148347344515
 20
51.231859630262
 30
0.0
 11
-829.148347344515
 21
45.6318597256294
 31
0.0
  0
LINE
  5
   31D
  8
0
  6
CONTINUOUS
 62
     7
 10
-829.498347338555
 20
50.8818596362225
 30
0.0
 11
-829.498347338555
 21
45.981859719669
 31
0.0
  0
LINE
  5
   31E
  8
0
  6
CONTINUOUS
 62
     7
 10
-829.148347344515
 20
51.231859630262
 30
0.0
 11
-829.498347338555
 21
50.8818596362225
 31
0.0
  0
LINE
  5
   31F
  8
0
  6
CONTINUOUS
 62
     7
 10
-829.498347338554
 20
45.9818597196689
 30
0.0
 11
-829.148347344515
 21
45.6318597256293
 31
0.0
  0
LINE
  5
   320
  8
0
  6
CONTINUOUS
 62
     7
 10
-829.148347344515
 20
45.6318597256294
 30
0.0
 11
-828.098347362396
 21
45.6318597256294
 31
0.0
  0
LINE
  5
   321
  8
0
  6
CONTINUOUS
 62
     7
 10
-829.498347338555
 20
45.981859719669
 30
0.0
 11
-828.098347362396
 21
45.981859719669
 31
0.0
  0
LINE
  5
   322
  8
0
  6
CONTINUOUS
 62
     7
 10
-822.498347457764
 20
50.8818596362225
 30
0.0
 11
-820.398347493527
 21
50.8818596362225
 31
0.0
  0
LINE
  5
   323
  8
0
  6
CONTINUOUS
 62
     7
 10
-820.398347493527
 20
54.7318595706573
 30
0.0
 11
-818.998347517369
 21
54.7318595706573
 31
0.0
  0
LINE
  5
   324
  8
0
  6
CONTINUOUS
 62
     7
 10
-823.898347433922
 20
54.7318595706573
 30
0.0
 11
-822.498347457764
 21
54.7318595706573
 31
0.0
  0
LINE
  5
   325
  8
0
  6
CONTINUOUS
 62
     7
 10
-820.398347493527
 20
42.1318597852341
 30
0.0
 11
-818.998347517369
 21
42.1318597852341
 31
0.0
  0
LINE
  5
   326
  8
0
  6
CONTINUOUS
 62
     7
 10
-823.898347433922
 20
42.1318597852341
 30
0.0
 11
-822.498347457764
 21
42.1318597852341
 31
0.0
  0
LINE
  5
   327
  8
0
  6
CONTINUOUS
 62
     7
 10
-822.498347457764
 20
51.231859630262
 30
0.0
 11
-820.398347493527
 21
51.231859630262
 31
0.0
  0
LINE
  5
   328
  8
0
  6
CONTINUOUS
 62
     7
 10
-822.498347457764
 20
50.8818596362225
 30
0.0
 11
-820.398347493527
 21
50.8818596362225
 31
0.0
  0
LINE
  5
   329
  8
0
  6
CONTINUOUS
 62
     7
 10
-822.498347457764
 20
45.981859719669
 30
0.0
 11
-820.398347493527
 21
45.981859719669
 31
0.0
  0
LINE
  5
   32A
  8
0
  6
CONTINUOUS
 62
     7
 10
-822.498347457764
 20
45.6318597256294
 30
0.0
 11
-820.398347493527
 21
45.6318597256294
 31
0.0
  0
LINE
  5
   32B
  8
0
  6
CONTINUOUS
 62
     7
 10
-828.098347362396
 20
50.936753308773
 30
0.0
 11
-823.898347433922
 21
50.936753308773
 31
0.0
  0
LINE
  5
   32C
  8
0
  6
CONTINUOUS
 62
     7
 10
-818.998347517369
 20
50.936753308773
 30
0.0
 11
-814.798347588894
 21
50.936753308773
 31
0.0
  0
LINE
  5
   32D
  8
0
  6
CONTINUOUS
 62
     7
 10
-818.998347517369
 20
46.0367533922195
 30
0.0
 11
-814.798347588894
 21
46.0367533922195
 31
0.0
  0
LINE
  5
   32E
  8
0
  6
CONTINUOUS
 62
     7
 10
-828.098347362396
 20
46.0367533922195
 30
0.0
 11
-823.898347433922
 21
46.0367533922195
 31
0.0
  0
LINE
  5
   32F
  8
0
  6
CONTINUOUS
 62
     7
 10
-837.898347195503
 20
51.9318596183411
 30
0.0
 11
-828.098347362396
 21
51.9318596183411
 31
0.0
  0
LINE
  5
   330
  8
0
  6
CONTINUOUS
 62
     7
 10
-837.898347195503
 20
44.9318597375504
 30
0.0
 11
-828.098347362396
 21
44.9318597375504
 31
0.0
  0
LINE
  5
   331
  8
0
  6
CONTINUOUS
 62
     7
 10
-837.898347195503
 20
54.0318595825783
 30
0.0
 11
-837.898347195503
 21
42.8318597733131
 31
0.0
  0
LINE
  5
   332
  8
0
  6
CONTINUOUS
 62
     7
 10
-842.098347123978
 20
54.7318595706573
 30
0.0
 11
-842.098347123978
 21
42.1318597852341
 31
0.0
  0
LINE
  5
   333
  8
0
  6
CONTINUOUS
 62
     7
 10
-842.098347123978
 20
54.0318595825783
 30
0.0
 11
-837.898347195503
 21
54.0318595825783
 31
0.0
  0
LINE
  5
   334
  8
0
  6
CONTINUOUS
 62
     7
 10
-842.098347123978
 20
42.8318597733131
 30
0.0
 11
-837.898347195503
 21
42.8318597733131
 31
0.0
  0
LINE
  5
   335
  8
0
  6
CONTINUOUS
 62
     7
 10
-843.498347100136
 20
54.7318595706573
 30
0.0
 11
-843.498347100136
 21
42.1318597852341
 31
0.0
  0
LINE
  5
   336
  8
0
  6
CONTINUOUS
 62
     7
 10
-845.598347064373
 20
54.7318595706573
 30
0.0
 11
-845.598347064373
 21
42.1318597852341
 31
0.0
  0
LINE
  5
   337
  8
0
  6
CONTINUOUS
 62
     7
 10
-846.998347040531
 20
54.7318595706573
 30
0.0
 11
-846.998347040531
 21
42.1318597852341
 31
0.0
  0
LINE
  5
   338
  8
0
  6
CONTINUOUS
 62
     7
 10
-851.198346969006
 20
54.0318595825783
 30
0.0
 11
-846.998347040531
 21
54.0318595825783
 31
0.0
  0
LINE
  5
   339
  8
0
  6
CONTINUOUS
 62
     7
 10
-851.198346969006
 20
54.0318595825783
 30
0.0
 11
-851.198346969006
 21
42.8318597733131
 31
0.0
  0
LINE
  5
   33A
  8
0
  6
CONTINUOUS
 62
     7
 10
-851.198346969006
 20
42.8318597733131
 30
0.0
 11
-846.998347040531
 21
42.8318597733131
 31
0.0
  0
LINE
  5
   33B
  8
0
  6
CONTINUOUS
 62
     7
 10
-852.248346951124
 20
51.231859630262
 30
0.0
 11
-851.198346969006
 21
51.231859630262
 31
0.0
  0
LINE
  5
   33C
  8
0
  6
CONTINUOUS
 62
     7
 10
-852.598346945164
 20
50.8818596362225
 30
0.0
 11
-851.198346969006
 21
50.8818596362225
 31
0.0
  0
LINE
  5
   33D
  8
0
  6
CONTINUOUS
 62
     7
 10
-852.248346951124
 20
51.231859630262
 30
0.0
 11
-852.248346951124
 21
45.6318597256294
 31
0.0
  0
LINE
  5
   33E
  8
0
  6
CONTINUOUS
 62
     7
 10
-852.598346945164
 20
50.8818596362225
 30
0.0
 11
-852.598346945164
 21
45.981859719669
 31
0.0
  0
LINE
  5
   33F
  8
0
  6
CONTINUOUS
 62
     7
 10
-852.248346951124
 20
51.2318596302621
 30
0.0
 11
-852.598346945164
 21
50.8818596362225
 31
0.0
  0
LINE
  5
   340
  8
0
  6
CONTINUOUS
 62
     7
 10
-852.598346945164
 20
45.9818597196687
 30
0.0
 11
-852.248346951124
 21
45.6318597256292
 31
0.0
  0
LINE
  5
   341
  8
0
  6
CONTINUOUS
 62
     7
 10
-852.248346951124
 20
45.6318597256294
 30
0.0
 11
-851.198346969006
 21
45.6318597256294
 31
0.0
  0
LINE
  5
   342
  8
0
  6
CONTINUOUS
 62
     7
 10
-852.598346945164
 20
45.981859719669
 30
0.0
 11
-851.198346969006
 21
45.981859719669
 31
0.0
  0
LINE
  5
   343
  8
0
  6
CONTINUOUS
 62
     7
 10
-845.598347064373
 20
50.8818596362225
 30
0.0
 11
-843.498347100136
 21
50.8818596362225
 31
0.0
  0
LINE
  5
   344
  8
0
  6
CONTINUOUS
 62
     7
 10
-843.498347100136
 20
54.7318595706573
 30
0.0
 11
-842.098347123978
 21
54.7318595706573
 31
0.0
  0
LINE
  5
   345
  8
0
  6
CONTINUOUS
 62
     7
 10
-846.998347040531
 20
54.7318595706573
 30
0.0
 11
-845.598347064373
 21
54.7318595706573
 31
0.0
  0
LINE
  5
   346
  8
0
  6
CONTINUOUS
 62
     7
 10
-843.498347100136
 20
42.1318597852341
 30
0.0
 11
-842.098347123978
 21
42.1318597852341
 31
0.0
  0
LINE
  5
   347
  8
0
  6
CONTINUOUS
 62
     7
 10
-846.998347040531
 20
42.1318597852341
 30
0.0
 11
-845.598347064373
 21
42.1318597852341
 31
0.0
  0
LINE
  5
   348
  8
0
  6
CONTINUOUS
 62
     7
 10
-845.598347064373
 20
51.231859630262
 30
0.0
 11
-843.498347100136
 21
51.231859630262
 31
0.0
  0
LINE
  5
   349
  8
0
  6
CONTINUOUS
 62
     7
 10
-845.598347064373
 20
45.981859719669
 30
0.0
 11
-843.498347100136
 21
45.981859719669
 31
0.0
  0
LINE
  5
   34A
  8
0
  6
CONTINUOUS
 62
     7
 10
-845.598347064373
 20
45.6318597256294
 30
0.0
 11
-843.498347100136
 21
45.6318597256294
 31
0.0
  0
LINE
  5
   34B
  8
0
  6
CONTINUOUS
 62
     7
 10
-851.198346969006
 20
50.936753308773
 30
0.0
 11
-846.998347040531
 21
50.936753308773
 31
0.0
  0
LINE
  5
   34C
  8
0
  6
CONTINUOUS
 62
     7
 10
-842.098347123978
 20
50.936753308773
 30
0.0
 11
-837.898347195503
 21
50.936753308773
 31
0.0
  0
LINE
  5
   34D
  8
0
  6
CONTINUOUS
 62
     7
 10
-842.098347123978
 20
46.0367533922195
 30
0.0
 11
-837.898347195503
 21
46.0367533922195
 31
0.0
  0
LINE
  5
   34E
  8
0
  6
CONTINUOUS
 62
     7
 10
-851.198346969006
 20
46.0367533922195
 30
0.0
 11
-846.998347040531
 21
46.0367533922195
 31
0.0
  0
LINE
  5
   34F
  8
0
  6
CONTINUOUS
 62
     7
 10
-814.798347588894
 20
-26.4983303367303
 30
0.0
 11
-800.536902862788
 21
-26.4983303367303
 31
0.0
  0
LINE
  5
   350
  8
0
  6
CONTINUOUS
 62
     7
 10
-814.798347588894
 20
-19.4983304559396
 30
0.0
 11
-800.536902862788
 21
-19.4983304559396
 31
0.0
  0
LINE
  5
   351
  8
0
  6
CONTINUOUS
 62
     7
 10
-814.798347588894
 20
-17.3983304917024
 30
0.0
 11
-814.798347588894
 21
-28.5983303009675
 31
0.0
  0
LINE
  5
   352
  8
0
  6
CONTINUOUS
 62
     7
 10
-818.998347517369
 20
-16.6983305036233
 30
0.0
 11
-818.998347517369
 21
-29.2983302890466
 31
0.0
  0
LINE
  5
   353
  8
0
  6
CONTINUOUS
 62
     7
 10
-818.998347517369
 20
-28.5983303009675
 30
0.0
 11
-814.798347588894
 21
-28.5983303009675
 31
0.0
  0
LINE
  5
   354
  8
0
  6
CONTINUOUS
 62
     7
 10
-818.998347517369
 20
-17.3983304917024
 30
0.0
 11
-814.798347588894
 21
-17.3983304917024
 31
0.0
  0
LINE
  5
   355
  8
0
  6
CONTINUOUS
 62
     7
 10
-820.398347493527
 20
-16.6983305036233
 30
0.0
 11
-820.398347493527
 21
-29.2983302890466
 31
0.0
  0
LINE
  5
   356
  8
0
  6
CONTINUOUS
 62
     7
 10
-822.498347457764
 20
-16.6983305036233
 30
0.0
 11
-822.498347457764
 21
-29.2983302890466
 31
0.0
  0
LINE
  5
   357
  8
0
  6
CONTINUOUS
 62
     7
 10
-823.898347433922
 20
-16.6983305036233
 30
0.0
 11
-823.898347433922
 21
-29.2983302890466
 31
0.0
  0
LINE
  5
   358
  8
0
  6
CONTINUOUS
 62
     7
 10
-828.098347362396
 20
-28.5983303009675
 30
0.0
 11
-823.898347433922
 21
-28.5983303009675
 31
0.0
  0
LINE
  5
   359
  8
0
  6
CONTINUOUS
 62
     7
 10
-828.098347362396
 20
-17.3983304917024
 30
0.0
 11
-828.098347362396
 21
-28.5983303009675
 31
0.0
  0
LINE
  5
   35A
  8
0
  6
CONTINUOUS
 62
     7
 10
-828.098347362396
 20
-17.3983304917024
 30
0.0
 11
-823.898347433922
 21
-17.3983304917024
 31
0.0
  0
LINE
  5
   35B
  8
0
  6
CONTINUOUS
 62
     7
 10
-829.148347344515
 20
-25.7983303486513
 30
0.0
 11
-828.098347362396
 21
-25.7983303486513
 31
0.0
  0
LINE
  5
   35C
  8
0
  6
CONTINUOUS
 62
     7
 10
-829.498347338555
 20
-25.4483303546117
 30
0.0
 11
-828.098347362396
 21
-25.4483303546117
 31
0.0
  0
LINE
  5
   35D
  8
0
  6
CONTINUOUS
 62
     7
 10
-829.148347344515
 20
-20.1983304440187
 30
0.0
 11
-829.148347344515
 21
-25.7983303486513
 31
0.0
  0
LINE
  5
   35E
  8
0
  6
CONTINUOUS
 62
     7
 10
-829.498347338554
 20
-25.4483303546118
 30
0.0
 11
-829.148347344515
 21
-25.7983303486513
 31
0.0
  0
LINE
  5
   35F
  8
0
  6
CONTINUOUS
 62
     7
 10
-829.148347344515
 20
-20.1983304440186
 30
0.0
 11
-829.498347338554
 21
-20.5483304380582
 31
0.0
  0
LINE
  5
   360
  8
0
  6
CONTINUOUS
 62
     7
 10
-829.148347344515
 20
-20.1983304440187
 30
0.0
 11
-828.098347362396
 21
-20.1983304440187
 31
0.0
  0
LINE
  5
   361
  8
0
  6
CONTINUOUS
 62
     7
 10
-829.498347338555
 20
-20.5483304380582
 30
0.0
 11
-828.098347362396
 21
-20.5483304380582
 31
0.0
  0
LINE
  5
   362
  8
0
  6
CONTINUOUS
 62
     7
 10
-822.498347457764
 20
-25.4483303546117
 30
0.0
 11
-820.398347493527
 21
-25.4483303546117
 31
0.0
  0
LINE
  5
   363
  8
0
  6
CONTINUOUS
 62
     7
 10
-820.398347493527
 20
-29.2983302890466
 30
0.0
 11
-818.998347517369
 21
-29.2983302890466
 31
0.0
  0
LINE
  5
   364
  8
0
  6
CONTINUOUS
 62
     7
 10
-823.898347433922
 20
-29.2983302890466
 30
0.0
 11
-822.498347457764
 21
-29.2983302890466
 31
0.0
  0
LINE
  5
   365
  8
0
  6
CONTINUOUS
 62
     7
 10
-820.398347493527
 20
-16.6983305036233
 30
0.0
 11
-818.998347517369
 21
-16.6983305036233
 31
0.0
  0
LINE
  5
   366
  8
0
  6
CONTINUOUS
 62
     7
 10
-823.898347433922
 20
-16.6983305036233
 30
0.0
 11
-822.498347457764
 21
-16.6983305036233
 31
0.0
  0
LINE
  5
   367
  8
0
  6
CONTINUOUS
 62
     7
 10
-822.498347457764
 20
-25.7983303486513
 30
0.0
 11
-820.398347493527
 21
-25.7983303486513
 31
0.0
  0
LINE
  5
   368
  8
0
  6
CONTINUOUS
 62
     7
 10
-822.498347457764
 20
-20.5483304380582
 30
0.0
 11
-820.398347493527
 21
-20.5483304380582
 31
0.0
  0
LINE
  5
   369
  8
0
  6
CONTINUOUS
 62
     7
 10
-822.498347457764
 20
-20.1983304440187
 30
0.0
 11
-820.398347493527
 21
-20.1983304440187
 31
0.0
  0
LINE
  5
   36A
  8
0
  6
CONTINUOUS
 62
     7
 10
-828.098347362396
 20
-25.5032240271623
 30
0.0
 11
-823.898347433922
 21
-25.5032240271623
 31
0.0
  0
LINE
  5
   36B
  8
0
  6
CONTINUOUS
 62
     7
 10
-818.998347517369
 20
-25.5032240271623
 30
0.0
 11
-814.798347588894
 21
-25.5032240271623
 31
0.0
  0
LINE
  5
   36C
  8
0
  6
CONTINUOUS
 62
     7
 10
-818.998347517369
 20
-20.6032241106088
 30
0.0
 11
-814.798347588894
 21
-20.6032241106088
 31
0.0
  0
LINE
  5
   36D
  8
0
  6
CONTINUOUS
 62
     7
 10
-828.098347362396
 20
-20.6032241106088
 30
0.0
 11
-823.898347433922
 21
-20.6032241106088
 31
0.0
  0
LINE
  5
   36E
  8
0
  6
CONTINUOUS
 62
     7
 10
-837.898347195503
 20
-26.4983303367303
 30
0.0
 11
-828.098347362396
 21
-26.4983303367303
 31
0.0
  0
LINE
  5
   36F
  8
0
  6
CONTINUOUS
 62
     7
 10
-837.898347195503
 20
-19.4983304559396
 30
0.0
 11
-828.098347362396
 21
-19.4983304559396
 31
0.0
  0
LINE
  5
   370
  8
0
  6
CONTINUOUS
 62
     7
 10
-837.898347195503
 20
-17.3983304917024
 30
0.0
 11
-837.898347195503
 21
-28.5983303009675
 31
0.0
  0
LINE
  5
   371
  8
0
  6
CONTINUOUS
 62
     7
 10
-842.098347123978
 20
-16.6983305036233
 30
0.0
 11
-842.098347123978
 21
-29.2983302890466
 31
0.0
  0
LINE
  5
   372
  8
0
  6
CONTINUOUS
 62
     7
 10
-842.098347123978
 20
-28.5983303009675
 30
0.0
 11
-837.898347195503
 21
-28.5983303009675
 31
0.0
  0
LINE
  5
   373
  8
0
  6
CONTINUOUS
 62
     7
 10
-842.098347123978
 20
-17.3983304917024
 30
0.0
 11
-837.898347195503
 21
-17.3983304917024
 31
0.0
  0
LINE
  5
   374
  8
0
  6
CONTINUOUS
 62
     7
 10
-843.498347100136
 20
-16.6983305036233
 30
0.0
 11
-843.498347100136
 21
-29.2983302890466
 31
0.0
  0
LINE
  5
   375
  8
0
  6
CONTINUOUS
 62
     7
 10
-845.598347064373
 20
-16.6983305036233
 30
0.0
 11
-845.598347064373
 21
-29.2983302890466
 31
0.0
  0
LINE
  5
   376
  8
0
  6
CONTINUOUS
 62
     7
 10
-846.998347040531
 20
-16.6983305036233
 30
0.0
 11
-846.998347040531
 21
-29.2983302890466
 31
0.0
  0
LINE
  5
   377
  8
0
  6
CONTINUOUS
 62
     7
 10
-851.198346969006
 20
-28.5983303009675
 30
0.0
 11
-846.998347040531
 21
-28.5983303009675
 31
0.0
  0
LINE
  5
   378
  8
0
  6
CONTINUOUS
 62
     7
 10
-851.198346969006
 20
-17.3983304917024
 30
0.0
 11
-851.198346969006
 21
-28.5983303009675
 31
0.0
  0
LINE
  5
   379
  8
0
  6
CONTINUOUS
 62
     7
 10
-851.198346969006
 20
-17.3983304917024
 30
0.0
 11
-846.998347040531
 21
-17.3983304917024
 31
0.0
  0
LINE
  5
   37A
  8
0
  6
CONTINUOUS
 62
     7
 10
-852.248346951124
 20
-25.7983303486513
 30
0.0
 11
-851.198346969006
 21
-25.7983303486513
 31
0.0
  0
LINE
  5
   37B
  8
0
  6
CONTINUOUS
 62
     7
 10
-852.598346945164
 20
-25.4483303546117
 30
0.0
 11
-851.198346969006
 21
-25.4483303546117
 31
0.0
  0
LINE
  5
   37C
  8
0
  6
CONTINUOUS
 62
     7
 10
-852.248346951124
 20
-20.1983304440187
 30
0.0
 11
-852.248346951124
 21
-25.7983303486513
 31
0.0
  0
LINE
  5
   37D
  8
0
  6
CONTINUOUS
 62
     7
 10
-852.598346945164
 20
-20.5483304380582
 30
0.0
 11
-852.598346945164
 21
-25.4483303546117
 31
0.0
  0
LINE
  5
   37E
  8
0
  6
CONTINUOUS
 62
     7
 10
-852.598346945164
 20
-25.4483303546118
 30
0.0
 11
-852.248346951124
 21
-25.7983303486513
 31
0.0
  0
LINE
  5
   37F
  8
0
  6
CONTINUOUS
 62
     7
 10
-852.248346951124
 20
-20.1983304440186
 30
0.0
 11
-852.598346945164
 21
-20.5483304380581
 31
0.0
  0
LINE
  5
   380
  8
0
  6
CONTINUOUS
 62
     7
 10
-852.248346951124
 20
-20.1983304440187
 30
0.0
 11
-851.198346969006
 21
-20.1983304440187
 31
0.0
  0
LINE
  5
   381
  8
0
  6
CONTINUOUS
 62
     7
 10
-852.598346945164
 20
-20.5483304380582
 30
0.0
 11
-851.198346969006
 21
-20.5483304380582
 31
0.0
  0
LINE
  5
   382
  8
0
  6
CONTINUOUS
 62
     7
 10
-845.598347064373
 20
-25.4483303546117
 30
0.0
 11
-843.498347100136
 21
-25.4483303546117
 31
0.0
  0
LINE
  5
   383
  8
0
  6
CONTINUOUS
 62
     7
 10
-843.498347100136
 20
-29.2983302890466
 30
0.0
 11
-842.098347123978
 21
-29.2983302890466
 31
0.0
  0
LINE
  5
   384
  8
0
  6
CONTINUOUS
 62
     7
 10
-846.998347040531
 20
-29.2983302890466
 30
0.0
 11
-845.598347064373
 21
-29.2983302890466
 31
0.0
  0
LINE
  5
   385
  8
0
  6
CONTINUOUS
 62
     7
 10
-843.498347100136
 20
-16.6983305036233
 30
0.0
 11
-842.098347123978
 21
-16.6983305036233
 31
0.0
  0
LINE
  5
   386
  8
0
  6
CONTINUOUS
 62
     7
 10
-846.998347040531
 20
-16.6983305036233
 30
0.0
 11
-845.598347064373
 21
-16.6983305036233
 31
0.0
  0
LINE
  5
   387
  8
0
  6
CONTINUOUS
 62
     7
 10
-845.598347064373
 20
-25.7983303486513
 30
0.0
 11
-843.498347100136
 21
-25.7983303486513
 31
0.0
  0
LINE
  5
   388
  8
0
  6
CONTINUOUS
 62
     7
 10
-845.598347064373
 20
-20.5483304380582
 30
0.0
 11
-843.498347100136
 21
-20.5483304380582
 31
0.0
  0
LINE
  5
   389
  8
0
  6
CONTINUOUS
 62
     7
 10
-845.598347064373
 20
-20.1983304440187
 30
0.0
 11
-843.498347100136
 21
-20.1983304440187
 31
0.0
  0
LINE
  5
   38A
  8
0
  6
CONTINUOUS
 62
     7
 10
-851.198346969006
 20
-25.5032240271623
 30
0.0
 11
-846.998347040531
 21
-25.5032240271623
 31
0.0
  0
LINE
  5
   38B
  8
0
  6
CONTINUOUS
 62
     7
 10
-842.098347123978
 20
-25.5032240271623
 30
0.0
 11
-837.898347195503
 21
-25.5032240271623
 31
0.0
  0
LINE
  5
   38C
  8
0
  6
CONTINUOUS
 62
     7
 10
-842.098347123978
 20
-20.6032241106088
 30
0.0
 11
-837.898347195503
 21
-20.6032241106088
 31
0.0
  0
LINE
  5
   38D
  8
0
  6
CONTINUOUS
 62
     7
 10
-851.198346969006
 20
-20.6032241106088
 30
0.0
 11
-846.998347040531
 21
-20.6032241106088
 31
0.0
  0
LINE
  5
   38E
  8
0
  6
DASHDOT
 62
     7
 10
-847.120962299898
 20
48.4318596779457
 30
0.0
 11
-804.924359256863
 21
48.4318596779457
 31
0.0
  0
LINE
  5
   38F
  8
0
  6
DASHDOT
 62
     7
 10
-862.510831048303
 20
-22.998330396335
 30
0.0
 11
-791.180047853996
 21
-22.998330396335
 31
0.0
  0
LINE
  5
   390
  8
0
  6
DASHDOT
 62
     7
 10
-806.600431721773
 20
4.31676478385652
 30
0.0
 11
-796.271585256961
 21
4.31676478385652
 31
0.0
  0
LINE
  5
   391
  8
0
  6
CONTINUOUS
 62
     7
 10
-801.376902714968
 20
52.6167559504509
 30
0.0
 11
-800.536902862788
 21
52.6167559504509
 31
0.0
  0
LINE
  5
   392
  8
0
  6
DOT
 62
     7
 10
-800.724467316056
 20
22.1667564690113
 30
0.0
 11
-800.536902862788
 21
22.1667564690113
 31
0.0
  0
LINE
  5
   393
  8
0
  6
CONTINUOUS
 62
     7
 10
-801.376902714968
 20
44.9318597375504
 30
0.0
 11
-801.376902714968
 21
37.3567016977589
 31
0.0
  0
LINE
  5
   394
  8
0
  6
CONTINUOUS
 62
     7
 10
-800.536902862788
 20
52.6167532801628
 30
0.0
 11
-800.536902862788
 21
-25.783234703541
 31
0.0
  0
LINE
  5
   395
  8
0
  6
CONTINUOUS
 62
     7
 10
-802.216902967692
 20
36.6567540860176
 30
0.0
 11
-802.076902703047
 21
36.6567540860176
 31
0.0
  0
LINE
  5
   396
  8
0
  6
CONTINUOUS
 62
     7
 10
-802.216902967692
 20
35.8167562365531
 30
0.0
 11
-802.076902836562
 21
35.8167562365531
 31
0.0
  0
LINE
  5
   397
  8
0
  6
CONTINUOUS
 62
     7
 10
-806.136902099848
 20
36.6567540860176
 30
0.0
 11
-806.136902099848
 21
35.8167562365531
 31
0.0
  0
LINE
  5
   398
  8
0
  6
CONTINUOUS
 62
     7
 10
-806.136902099848
 20
21.8167564749717
 30
0.0
 11
-806.136902099848
 21
20.9767586255073
 31
0.0
  0
LINE
  5
   399
  8
0
  6
CONTINUOUS
 62
     7
 10
-806.136902099848
 20
-5.48324306011203
 30
0.0
 11
-806.136902099848
 21
-8.98324300050739
 31
0.0
  0
LINE
  5
   39A
  8
0
  6
CONTINUOUS
 62
     7
 10
-806.136902099848
 20
-5.48324306011203
 30
0.0
 11
-803.805813405874
 21
-5.48324306011203
 31
0.0
  0
LINE
  5
   39B
  8
0
  6
CONTINUOUS
 62
     7
 10
-803.805813171387
 20
-5.48324272329837
 30
0.0
 11
-803.33690188461
 21
-7.2332428650701
 31
0.0
  0
LINE
  5
   39C
  8
0
  6
CONTINUOUS
 62
     7
 10
-803.336902147532
 20
-7.23324303030971
 30
0.0
 11
-802.636902159453
 21
-7.23324303030971
 31
0.0
  0
LINE
  5
   39D
  8
0
  6
CONTINUOUS
 62
     7
 10
-802.636902159453
 20
17.6167565464973
 30
0.0
 11
-802.636902159453
 21
-7.23324303030971
 31
0.0
  0
LINE
  5
   39E
  8
0
  6
CONTINUOUS
 62
     7
 10
-803.336902147532
 20
17.6167565464973
 30
0.0
 11
-802.636902159453
 21
17.6167565464973
 31
0.0
  0
LINE
  5
   39F
  8
0
  6
CONTINUOUS
 62
     7
 10
-806.136912664164
 20
18.3670307590895
 30
0.0
 11
-804.043460376865
 21
17.806086211363
 31
0.0
  0
LINE
  5
   3A0
  8
0
  6
CONTINUOUS
 62
     7
 10
-806.136902099848
 20
19.7167565107345
 30
0.0
 11
-806.136902099848
 21
18.36702203665
 31
0.0
  0
LINE
  5
   3A1
  8
0
  6
DOT
 62
     7
 10
-801.376902714968
 20
22.1667564690113
 30
0.0
 11
-800.724467274333
 21
22.1667564690113
 31
0.0
  0
LINE
  5
   3A2
  8
0
  6
CONTINUOUS
 62
     7
 10
-803.686902809144
 20
-11.433235615492
 30
0.0
 11
-800.536902862788
 21
-11.433235615492
 31
0.0
  0
LINE
  5
   3A3
  8
0
  6
CONTINUOUS
 62
     7
 10
-803.056902819872
 20
55.7667558968067
 30
0.0
 11
-802.216902967692
 21
55.7667558968067
 31
0.0
  0
LINE
  5
   3A4
  8
0
  6
CONTINUOUS
 62
     7
 10
-802.216902967692
 20
17.6167458653451
 30
0.0
 11
-802.216902967692
 21
17.0416833141032
 31
0.0
  0
LINE
  5
   3A5
  8
0
  6
CONTINUOUS
 62
     7
 10
-802.216902967692
 20
35.816745555401
 30
0.0
 11
-802.216902967692
 21
17.6167565464973
 31
0.0
  0
LINE
  5
   3A6
  8
0
  6
CONTINUOUS
 62
     7
 10
-802.216902967692
 20
44.9318597375504
 30
0.0
 11
-802.216902967692
 21
35.8167562365531
 31
0.0
  0
LINE
  5
   3A7
  8
0
  6
CONTINUOUS
 62
     7
 10
-802.216882094656
 20
17.0416995946237
 30
0.0
 11
-803.729421141314
 21
14.4219005022601
 31
0.0
  0
LINE
  5
   3A8
  8
0
  6
CONTINUOUS
 62
     7
 10
-804.456910517623
 20
14.8418872661883
 30
0.0
 11
-803.729449143061
 21
14.4218829509008
 31
0.0
  0
LINE
  5
   3A9
  8
0
  6
CONTINUOUS
 62
     7
 10
-803.056891725627
 20
17.2667461731277
 30
0.0
 11
-804.456891666569
 21
14.8418790803687
 31
0.0
  0
LINE
  5
   3AA
  8
0
  6
CONTINUOUS
 62
     7
 10
-803.056902819872
 20
44.9318597375504
 30
0.0
 11
-803.056902819872
 21
35.8167562365531
 31
0.0
  0
LINE
  5
   3AB
  8
0
  6
CONTINUOUS
 62
     7
 10
-803.056902819872
 20
35.8167669177053
 30
0.0
 11
-803.056902819872
 21
24.3165039007071
 31
0.0
  0
LINE
  5
   3AC
  8
0
  6
CONTINUOUS
 62
     7
 10
-803.056902819872
 20
17.8231057251121
 30
0.0
 11
-803.056902819872
 21
17.2667565524578
 31
0.0
  0
ARC
  5
   3AD
  8
0
  6
CONTINUOUS
 62
     7
 10
-803.686925698939
 20
19.7167618893584
 30
0.0
 40
2.44997289096194
 50
509.049985589538
 51
539.999999844103
  0
LINE
  5
   3AE
  8
0
  6
CONTINUOUS
 62
     7
 10
-803.12690281868
 20
36.6567540860176
 30
0.0
 11
-803.12690281868
 21
35.8167562365531
 31
0.0
  0
LINE
  5
   3AF
  8
0
  6
CONTINUOUS
 62
     7
 10
-803.12690281868
 20
21.8167564749717
 30
0.0
 11
-803.12690281868
 21
20.9767586255073
 31
0.0
  0
LINE
  5
   3B0
  8
0
  6
CONTINUOUS
 62
     7
 10
-802.146902968884
 20
36.6567540860176
 30
0.0
 11
-802.146902968884
 21
35.8167562365531
 31
0.0
  0
LINE
  5
   3B1
  8
0
  6
CONTINUOUS
 62
     7
 10
-802.146902968884
 20
21.8167564749717
 30
0.0
 11
-802.146902968884
 21
20.9767586255073
 31
0.0
  0
LINE
  5
   3B2
  8
0
  6
CONTINUOUS
 62
     7
 10
-806.136901432276
 20
36.6567540860176
 30
0.0
 11
-803.12690281868
 21
36.6567540860176
 31
0.0
  0
LINE
  5
   3B3
  8
0
  6
CONTINUOUS
 62
     7
 10
-806.136901432276
 20
35.8167562365531
 30
0.0
 11
-803.12690281868
 21
35.8167562365531
 31
0.0
  0
LINE
  5
   3B4
  8
0
  6
CONTINUOUS
 62
     7
 10
-806.136902099848
 20
21.8167564749717
 30
0.0
 11
-803.12690281868
 21
21.8167564749717
 31
0.0
  0
LINE
  5
   3B5
  8
0
  6
CONTINUOUS
 62
     7
 10
-806.136902099848
 20
20.9767586255073
 30
0.0
 11
-803.12690281868
 21
20.9767586255073
 31
0.0
  0
LINE
  5
   3B6
  8
0
  6
CONTINUOUS
 62
     7
 10
-803.06393817419
 20
24.2175089530268
 30
0.0
 11
-803.389932251453
 21
21.9355504121879
 31
0.0
  0
LINE
  5
   3B7
  8
0
  6
CONTINUOUS
 62
     7
 10
-802.223938322009
 20
24.1578110574756
 30
0.0
 11
-802.558374690939
 21
21.8167564749717
 31
0.0
  0
LINE
  5
   3B8
  8
0
  6
CONTINUOUS
 62
     7
 10
-803.389932251453
 20
21.935550412188
 30
0.0
 11
-802.558374690939
 21
21.8167564749717
 31
0.0
  0
ARC
  5
   3B9
  8
0
  6
CONTINUOUS
 62
     7
 10
-802.916902955771
 20
24.2568060051559
 30
0.0
 40
0.699999988079071
 50
351.869897489947
 51
359.999999844103
  0
LINE
  5
   3BA
  8
0
  6
CONTINUOUS
 62
     7
 10
-802.216902967692
 20
21.8167564749717
 30
0.0
 11
-802.076902836562
 21
21.8167564749717
 31
0.0
  0
LINE
  5
   3BB
  8
0
  6
CONTINUOUS
 62
     7
 10
-802.216902967692
 20
20.9767586255073
 30
0.0
 11
-802.076902703047
 21
20.9767586255073
 31
0.0
  0
LINE
  5
   3BC
  8
0
  6
DOT
 62
     7
 10
-803.056902819872
 20
24.3165039007071
 30
0.0
 11
-803.056902819872
 21
21.8879747791051
 31
0.0
  0
LINE
  5
   3BD
  8
0
  6
CONTINUOUS
 62
     7
 10
-803.056902819872
 20
21.8879747791051
 30
0.0
 11
-803.056902819872
 21
17.8230856232924
 31
0.0
  0
LINE
  5
   3BE
  8
0
  6
CONTINUOUS
 62
     7
 10
-803.056902819872
 20
54.3667559206485
 30
0.0
 11
-802.216902967692
 21
54.3667559206485
 31
0.0
  0
LINE
  5
   3BF
  8
0
  6
CONTINUOUS
 62
     7
 10
-803.056902819872
 20
41.7667561352253
 30
0.0
 11
-802.216902967692
 21
41.7667561352253
 31
0.0
  0
LINE
  5
   3C0
  8
0
  6
CONTINUOUS
 62
     7
 10
-803.056902819872
 20
30.9167563199997
 30
0.0
 11
-802.216902967692
 21
30.9167563199997
 31
0.0
  0
LINE
  5
   3C1
  8
0
  6
CONTINUOUS
 62
     7
 10
-803.056902819872
 20
26.0167564034462
 30
0.0
 11
-802.216902967692
 21
26.0167564034462
 31
0.0
  0
LINE
  5
   3C2
  8
0
  6
CONTINUOUS
 62
     7
 10
-803.056902819872
 20
20.7667586290836
 30
0.0
 11
-802.216902967692
 21
20.7667586290836
 31
0.0
  0
INSERT
  5
   3C3
  8
0
  6
CONTINUOUS
 62
     7
  2
*HATCH83
 10
-713.913757324219
 20
2.56676483154297
 30
0.0
 41
0.699999988079071
 42
0.699999988079071
 50
269.999999844103
 43
0.699999988079071
  0
INSERT
  5
   3C4
  8
0
  6
CONTINUOUS
 62
     7
  2
*HATCH84
 10
-713.913757324219
 20
2.56676483154297
 30
0.0
 41
0.699999988079071
 42
0.699999988079071
 50
269.999999844103
 43
0.699999988079071
  0
INSERT
  5
   3C5
  8
0
  6
CONTINUOUS
 62
     7
  2
*HATCH85
 10
-713.913757324219
 20
2.56676483154297
 30
0.0
 41
0.699999988079071
 42
0.699999988079071
 50
269.999999844103
 43
0.699999988079071
  0
ARC
  5
   3C6
  8
0
  6
CONTINUOUS
 62
     7
 10
-802.076902703047
 20
20.2767586374282
 30
0.0
 40
0.699999988079071
 50
359.999999844103
 51
449.999999844103
  0
ARC
  5
   3C7
  8
0
  6
CONTINUOUS
 62
     7
 10
-802.076902836562
 20
20.2767565011978
 30
0.0
 40
1.53999997377396
 50
359.999999844103
 51
449.999999844103
  0
LINE
  5
   3C8
  8
0
  6
CONTINUOUS
 62
     7
 10
-802.216902967692
 20
22.1667564690113
 30
0.0
 11
-801.376902714968
 21
22.1667564690113
 31
0.0
  0
ARC
  5
   3C9
  8
0
  6
CONTINUOUS
 62
     7
 10
-803.686925698939
 20
19.7167618893584
 30
0.0
 40
2.44997289096194
 50
467.486073703861
 51
481.001909793402
  0
ARC
  5
   3CA
  8
0
  6
DOT
 62
     7
 10
-803.686925698939
 20
19.7167618893584
 30
0.0
 40
2.44997289096194
 50
481.001909793402
 51
509.049985589538
  0
ARC
  5
   3CB
  8
0
  6
CONTINUOUS
 62
     7
 10
-803.686925698939
 20
19.7167618893584
 30
0.0
 40
2.44997289096194
 50
449.999999844103
 51
467.486073703861
  0
LINE
  5
   3CC
  8
0
  6
CONTINUOUS
 62
     7
 10
-803.686900848151
 20
22.1667564690113
 30
0.0
 11
-803.356902814763
 21
22.1667564690113
 31
0.0
  0
LINE
  5
   3CD
  8
0
  6
CONTINUOUS
 62
     7
 10
-804.043460376865
 20
17.806086211363
 30
0.0
 11
-803.336911638522
 21
17.6167651244286
 31
0.0
  0
ARC
  5
   3CE
  8
0
  6
CONTINUOUS
 62
     7
 10
-803.686940288218
 20
-8.98325568627217
 30
0.0
 40
2.44996160420214
 50
540.00021426687
 51
630.000884118422
  0
ARC
  5
   3CF
  8
0
  6
CONTINUOUS
 62
     7
 10
-802.076902836562
 20
37.3567562103271
 30
0.0
 40
1.53999997377396
 50
269.999999844103
 51
359.999999844103
  0
LINE
  5
   3D0
  8
0
  6
DOT
 62
     7
 10
-801.376902714968
 20
21.6484706656624
 30
0.0
 11
-801.376902714968
 21
20.2767586374282
 31
0.0
  0
LINE
  5
   3D1
  8
0
  6
CONTINUOUS
 62
     7
 10
-801.376902714968
 20
20.2767586374282
 30
0.0
 11
-801.376902714968
 21
5.43754003019759
 31
0.0
  0
LINE
  5
   3D2
  8
0
  6
CONTINUOUS
 62
     7
 10
-801.376902714968
 20
35.9850420458624
 30
0.0
 11
-801.376902714968
 21
21.6484706656624
 31
0.0
  0
LINE
  5
   3D3
  8
0
  6
DOT
 62
     7
 10
-801.376902714968
 20
37.3567016977589
 30
0.0
 11
-801.376902714968
 21
35.9850420458624
 31
0.0
  0
LINE
  5
   3D4
  8
0
  6
CONTINUOUS
 62
     7
 10
-801.376902714968
 20
-17.7332348406317
 30
0.0
 11
-800.536902862788
 21
-17.7332348406317
 31
0.0
  0
ARC
  5
   3D5
  8
0
  6
CONTINUOUS
 62
     7
 10
-802.076913698618
 20
37.3567628764572
 30
0.0
 40
0.700021741669109
 50
270.00070276675
 51
359.997118270512
  0
LINE
  5
   3D6
  8
0
  6
DASHDOT
 62
     7
 10
-803.134934434099
 20
48.4167640328405
 30
0.0
 11
-799.660424540677
 21
48.4167640328405
 31
0.0
  0
LINE
  5
   3D7
  8
0
  6
CONTINUOUS
 62
     7
 10
-802.216902967692
 20
24.9667564213276
 30
0.0
 11
-801.012520974552
 21
24.9667564213276
 31
0.0
  0
LINE
  5
   3D8
  8
0
  6
DASHDOT
 62
     7
 10
-801.061902920604
 20
37.7252536612371
 30
0.0
 11
-801.061902920604
 21
23.8606403558521
 31
0.0
  0
CIRCLE
  5
   3D9
  8
0
  6
CONTINUOUS
 62
     7
 10
-804.21190286696
 20
25.8023674070972
 30
0.0
 40
0.279999995231628
  0
CIRCLE
  5
   3DA
  8
0
  6
CONTINUOUS
 62
     7
 10
-804.21190286696
 20
26.9223673880237
 30
0.0
 40
0.279999995231628
  0
CIRCLE
  5
   3DB
  8
0
  6
CONTINUOUS
 62
     7
 10
-804.21190286696
 20
28.0423673689502
 30
0.0
 40
0.279999995231628
  0
CIRCLE
  5
   3DC
  8
0
  6
CONTINUOUS
 62
     7
 10
-804.21190286696
 20
29.1623673498767
 30
0.0
 40
0.279999995231628
  0
CIRCLE
  5
   3DD
  8
0
  6
CONTINUOUS
 62
     7
 10
-804.21190286696
 20
30.2823673308032
 30
0.0
 40
0.279999995231628
  0
CIRCLE
  5
   3DE
  8
0
  6
CONTINUOUS
 62
     7
 10
-804.21190286696
 20
31.4023673117297
 30
0.0
 40
0.279999995231628
  0
CIRCLE
  5
   3DF
  8
0
  6
CONTINUOUS
 62
     7
 10
-804.21190286696
 20
32.5223672926562
 30
0.0
 40
0.279999995231628
  0
CIRCLE
  5
   3E0
  8
0
  6
CONTINUOUS
 62
     7
 10
-804.21190286696
 20
33.6423672735828
 30
0.0
 40
0.279999995231628
  0
CIRCLE
  5
   3E1
  8
0
  6
CONTINUOUS
 62
     7
 10
-804.21190286696
 20
34.7623672545093
 30
0.0
 40
0.279999995231628
  0
ARC
  5
   3E2
  8
0
  6
CONTINUOUS
 62
     7
 10
-804.21190286696
 20
35.8823672354358
 30
0.0
 40
0.279999995231628
 50
553.551837029225
 51
629.999999844103
  0
CIRCLE
  5
   3E3
  8
0
  6
CONTINUOUS
 62
     7
 10
-801.061902920604
 20
26.3623673975604
 30
0.0
 40
0.279999995231628
  0
ARC
  5
   3E4
  8
0
  6
CONTINUOUS
 62
     7
 10
-801.061902920604
 20
25.2423674166339
 30
0.0
 40
0.279999995231628
 50
280.158049687986
 51
619.84195000022
  0
CIRCLE
  5
   3E5
  8
0
  6
CONTINUOUS
 62
     7
 10
-801.061902920604
 20
27.4823673784869
 30
0.0
 40
0.279999995231628
  0
CIRCLE
  5
   3E6
  8
0
  6
CONTINUOUS
 62
     7
 10
-801.061902920604
 20
28.6023673594135
 30
0.0
 40
0.279999995231628
  0
CIRCLE
  5
   3E7
  8
0
  6
CONTINUOUS
 62
     7
 10
-801.061902920604
 20
29.72236734034
 30
0.0
 40
0.279999995231628
  0
CIRCLE
  5
   3E8
  8
0
  6
CONTINUOUS
 62
     7
 10
-801.061902920604
 20
30.8423673212665
 30
0.0
 40
0.279999995231628
  0
CIRCLE
  5
   3E9
  8
0
  6
CONTINUOUS
 62
     7
 10
-801.061902920604
 20
31.962367302193
 30
0.0
 40
0.279999995231628
  0
CIRCLE
  5
   3EA
  8
0
  6
CONTINUOUS
 62
     7
 10
-801.061902920604
 20
33.0823672831195
 30
0.0
 40
0.279999995231628
  0
LINE
  5
   3EB
  8
0
  6
CONTINUOUS
 62
     7
 10
-801.110912253491
 20
25.5180449141192
 30
0.0
 11
-802.216902967692
 21
25.3214243427056
 31
0.0
  0
LINE
  5
   3EC
  8
0
  6
CONTINUOUS
 62
     7
 10
-801.012893587718
 20
26.0866899000751
 30
0.0
 11
-802.216902967692
 21
25.8726437880797
 31
0.0
  0
LINE
  5
   3ED
  8
0
  6
CONTINUOUS
 62
     7
 10
-801.110912253491
 20
26.6380448950457
 30
0.0
 11
-802.216902967692
 21
26.4414243236321
 31
0.0
  0
LINE
  5
   3EE
  8
0
  6
CONTINUOUS
 62
     7
 10
-801.012893587718
 20
27.2066898810016
 30
0.0
 11
-802.216902967692
 21
26.9926437690062
 31
0.0
  0
LINE
  5
   3EF
  8
0
  6
CONTINUOUS
 62
     7
 10
-801.110912253491
 20
27.7580448759722
 30
0.0
 11
-802.216902967692
 21
27.5614243045586
 31
0.0
  0
LINE
  5
   3F0
  8
0
  6
CONTINUOUS
 62
     7
 10
-801.012893587718
 20
28.3266898619281
 30
0.0
 11
-802.216902967692
 21
28.1126437499328
 31
0.0
  0
LINE
  5
   3F1
  8
0
  6
CONTINUOUS
 62
     7
 10
-801.110912253491
 20
28.8780448568987
 30
0.0
 11
-802.216902967692
 21
28.6814242854851
 31
0.0
  0
LINE
  5
   3F2
  8
0
  6
CONTINUOUS
 62
     7
 10
-801.012893587718
 20
29.4466898428546
 30
0.0
 11
-802.216902967692
 21
29.2326437308593
 31
0.0
  0
LINE
  5
   3F3
  8
0
  6
CONTINUOUS
 62
     7
 10
-801.110912253491
 20
29.9980448378252
 30
0.0
 11
-802.216902967692
 21
29.8014242664116
 31
0.0
  0
LINE
  5
   3F4
  8
0
  6
CONTINUOUS
 62
     7
 10
-801.012893587718
 20
30.5666898237811
 30
0.0
 11
-802.216902967692
 21
30.3526437117858
 31
0.0
  0
LINE
  5
   3F5
  8
0
  6
CONTINUOUS
 62
     7
 10
-801.110912253491
 20
31.1180448187517
 30
0.0
 11
-802.216902967692
 21
30.9214242473381
 31
0.0
  0
LINE
  5
   3F6
  8
0
  6
CONTINUOUS
 62
     7
 10
-801.012893587718
 20
31.6866898047077
 30
0.0
 11
-802.216902967692
 21
31.4726436927123
 31
0.0
  0
LINE
  5
   3F7
  8
0
  6
CONTINUOUS
 62
     7
 10
-801.110912253491
 20
32.2380447996782
 30
0.0
 11
-802.216902967692
 21
32.0414242282647
 31
0.0
  0
LINE
  5
   3F8
  8
0
  6
CONTINUOUS
 62
     7
 10
-801.012893587718
 20
32.8066897856342
 30
0.0
 11
-802.216902967692
 21
32.5926436736388
 31
0.0
  0
LINE
  5
   3F9
  8
0
  6
CONTINUOUS
 62
     7
 10
-801.110912253491
 20
33.3580447806048
 30
0.0
 11
-802.216902967692
 21
33.1614242091912
 31
0.0
  0
LINE
  5
   3FA
  8
0
  6
CONTINUOUS
 62
     7
 10
-801.012893587718
 20
33.9266897665607
 30
0.0
 11
-802.216902967692
 21
33.7126436545653
 31
0.0
  0
LINE
  5
   3FB
  8
0
  6
CONTINUOUS
 62
     7
 10
-801.110912253491
 20
34.4780447615313
 30
0.0
 11
-802.216902967692
 21
34.2814241901177
 31
0.0
  0
LINE
  5
   3FC
  8
0
  6
CONTINUOUS
 62
     7
 10
-801.012893587718
 20
35.0466897474872
 30
0.0
 11
-802.216902967692
 21
34.8326436354918
 31
0.0
  0
LINE
  5
   3FD
  8
0
  6
CONTINUOUS
 62
     7
 10
-801.110912253491
 20
35.5980447424578
 30
0.0
 11
-802.216902967692
 21
35.4014241710442
 31
0.0
  0
LINE
  5
   3FE
  8
0
  6
CONTINUOUS
 62
     7
 10
-803.056902819872
 20
35.803310309364
 30
0.0
 11
-804.162893534074
 21
35.6066897379504
 31
0.0
  0
CIRCLE
  5
   3FF
  8
0
  6
CONTINUOUS
 62
     7
 10
-801.061902920604
 20
34.202367264046
 30
0.0
 40
0.279999995231628
  0
CIRCLE
  5
   400
  8
0
  6
CONTINUOUS
 62
     7
 10
-801.061902920604
 20
35.3223672449725
 30
0.0
 40
0.279999995231628
  0
ARC
  5
   401
  8
0
  6
CONTINUOUS
 62
     7
 10
-804.21190286696
 20
35.8823672354358
 30
0.0
 40
0.279999995231628
 50
629.999999844103
 51
706.448162658981
  0
LINE
  5
   402
  8
0
  6
CONTINUOUS
 62
     7
 10
-803.056902819872
 20
35.2520908639899
 30
0.0
 11
-804.260912199847
 21
35.0380447519945
 31
0.0
  0
LINE
  5
   403
  8
0
  6
CONTINUOUS
 62
     7
 10
-803.056902819872
 20
34.6833103284375
 30
0.0
 11
-804.162893534074
 21
34.4866897570239
 31
0.0
  0
LINE
  5
   404
  8
0
  6
CONTINUOUS
 62
     7
 10
-803.056902819872
 20
34.1320908830634
 30
0.0
 11
-804.260912199847
 21
33.918044771068
 31
0.0
  0
LINE
  5
   405
  8
0
  6
CONTINUOUS
 62
     7
 10
-803.056902819872
 20
33.563310347511
 30
0.0
 11
-804.162893534074
 21
33.3666897760974
 31
0.0
  0
LINE
  5
   406
  8
0
  6
CONTINUOUS
 62
     7
 10
-803.056902819872
 20
33.0120909021369
 30
0.0
 11
-804.260912199847
 21
32.7980447901415
 31
0.0
  0
LINE
  5
   407
  8
0
  6
CONTINUOUS
 62
     7
 10
-803.056902819872
 20
32.4433103665845
 30
0.0
 11
-804.162893534074
 21
32.2466897951709
 31
0.0
  0
LINE
  5
   408
  8
0
  6
CONTINUOUS
 62
     7
 10
-803.056902819872
 20
31.8920909212103
 30
0.0
 11
-804.260912199847
 21
31.678044809215
 31
0.0
  0
LINE
  5
   409
  8
0
  6
CONTINUOUS
 62
     7
 10
-803.056902819872
 20
31.323310385658
 30
0.0
 11
-804.162893534074
 21
31.1266898142444
 31
0.0
  0
LINE
  5
   40A
  8
0
  6
CONTINUOUS
 62
     7
 10
-803.056902819872
 20
30.7720909402838
 30
0.0
 11
-804.260912199847
 21
30.5580448282885
 31
0.0
  0
LINE
  5
   40B
  8
0
  6
CONTINUOUS
 62
     7
 10
-803.056902819872
 20
30.2033104047315
 30
0.0
 11
-804.162893534074
 21
30.0066898333179
 31
0.0
  0
LINE
  5
   40C
  8
0
  6
CONTINUOUS
 62
     7
 10
-803.056902819872
 20
29.6520909593573
 30
0.0
 11
-804.260912199847
 21
29.438044847362
 31
0.0
  0
LINE
  5
   40D
  8
0
  6
CONTINUOUS
 62
     7
 10
-803.056902819873
 20
29.083310423805
 30
0.0
 11
-804.162893534074
 21
28.8866898523914
 31
0.0
  0
LINE
  5
   40E
  8
0
  6
CONTINUOUS
 62
     7
 10
-803.056902819872
 20
28.5320909784308
 30
0.0
 11
-804.260912199847
 21
28.3180448664355
 31
0.0
  0
LINE
  5
   40F
  8
0
  6
CONTINUOUS
 62
     7
 10
-803.056902819872
 20
27.9633104428784
 30
0.0
 11
-804.162893534074
 21
27.7666898714649
 31
0.0
  0
LINE
  5
   410
  8
0
  6
CONTINUOUS
 62
     7
 10
-803.056902819872
 20
27.4120909975043
 30
0.0
 11
-804.260912199847
 21
27.1980448855089
 31
0.0
  0
LINE
  5
   411
  8
0
  6
CONTINUOUS
 62
     7
 10
-803.056902819872
 20
26.8433104619519
 30
0.0
 11
-804.162893534074
 21
26.6466898905384
 31
0.0
  0
LINE
  5
   412
  8
0
  6
CONTINUOUS
 62
     7
 10
-803.056902819872
 20
26.2920910165778
 30
0.0
 11
-804.260912199847
 21
26.0780449045824
 31
0.0
  0
LINE
  5
   413
  8
0
  6
CONTINUOUS
 62
     7
 10
-803.056902819872
 20
25.7233104810254
 30
0.0
 11
-804.162893534074
 21
25.5266899096118
 31
0.0
  0
LINE
  5
   414
  8
0
  6
CONTINUOUS
 62
     7
 10
-803.056902819872
 20
25.1720910356513
 30
0.0
 11
-804.211910025444
 21
24.9667564213275
 31
0.0
  0
LINE
  5
   415
  8
0
  6
CONTINUOUS
 62
     7
 10
-804.211910025444
 20
24.9667564213276
 30
0.0
 11
-803.056902819872
 21
24.9667564213276
 31
0.0
  0
INSERT
  5
   416
  8
0
  6
CONTINUOUS
 62
     3
  2
*HATCH86
 10
-713.913757324219
 20
2.56676483154297
 30
0.0
 41
0.699999988079071
 42
0.699999988079071
 50
269.999999844103
 43
0.699999988079071
  0
POLYLINE
  5
   417
  8
0
  6
CONTINUOUS
 62
     7
 66
     1
 10
0.0
 20
0.0
 30
0.0
  0
VERTEX
  5
   418
  8
0
  6
CONTINUOUS
 10
-800.536847893414
 20
5.65192793342064
 30
0.0
 40
0.0
 41
0.0
  0
VERTEX
  5
   419
  8
0
  6
CONTINUOUS
 10
-800.607615689202
 20
5.66313482580462
 30
0.0
 40
0.0
 41
0.0
  0
VERTEX
  5
   41A
  8
0
  6
CONTINUOUS
 10
-800.677597209971
 20
5.67199369120492
 30
0.0
 40
0.0
 41
0.0
  0
VERTEX
  5
   41B
  8
0
  6
CONTINUOUS
 10
-800.712269923183
 20
5.67528238387604
 30
0.0
 40
0.0
 41
0.0
  0
VERTEX
  5
   41C
  8
0
  6
CONTINUOUS
 10
-800.781315338323
 20
5.67905494608675
 30
0.0
 40
0.0
 41
0.0
  0
VERTEX
  5
   41D
  8
0
  6
CONTINUOUS
 10
-800.849488860102
 20
5.67831307216715
 30
0.0
 40
0.0
 41
0.0
  0
VERTEX
  5
   41E
  8
0
  6
CONTINUOUS
 10
-800.883263012605
 20
5.6759857000403
 30
0.0
 40
0.0
 41
0.0
  0
VERTEX
  5
   41F
  8
0
  6
CONTINUOUS
 10
-800.9168407708
 20
5.67222217878358
 30
0.0
 40
0.0
 41
0.0
  0
VERTEX
  5
   420
  8
0
  6
CONTINUOUS
 10
-800.950233191205
 20
5.66693191527166
 30
0.0
 40
0.0
 41
0.0
  0
VERTEX
  5
   421
  8
0
  6
CONTINUOUS
 10
-800.983452505841
 20
5.66003292699451
 30
0.0
 40
0.0
 41
0.0
  0
VERTEX
  5
   422
  8
0
  6
CONTINUOUS
 10
-801.016511736453
 20
5.6514534834778
 30
0.0
 40
0.0
 41
0.0
  0
VERTEX
  5
   423
  8
0
  6
CONTINUOUS
 10
-801.04942430872
 20
5.64113374770327
 30
0.0
 40
0.0
 41
0.0
  0
VERTEX
  5
   424
  8
0
  6
CONTINUOUS
 10
-801.08220366648
 20
5.62902741752919
 30
0.0
 40
0.0
 41
0.0
  0
VERTEX
  5
   425
  8
0
  6
CONTINUOUS
 10
-801.114862885936
 20
5.61510336711067
 30
0.0
 40
0.0
 41
0.0
  0
VERTEX
  5
   426
  8
0
  6
CONTINUOUS
 10
-801.147414289885
 20
5.59934728832014
 30
0.0
 40
0.0
 41
0.0
  0
VERTEX
  5
   427
  8
0
  6
CONTINUOUS
 10
-801.179869061924
 20
5.58176333216769
 30
0.0
 40
0.0
 41
0.0
  0
VERTEX
  5
   428
  8
0
  6
CONTINUOUS
 10
-801.21223686067
 20
5.56237575022148
 30
0.0
 40
0.0
 41
0.0
  0
VERTEX
  5
   429
  8
0
  6
CONTINUOUS
 10
-801.24452543398
 20
5.54123053602813
 30
0.0
 40
0.0
 41
0.0
  0
VERTEX
  5
   42A
  8
0
  6
CONTINUOUS
 10
-801.308884027202
 20
5.49396974350126
 30
0.0
 40
0.0
 41
0.0
  0
VERTEX
  5
   42B
  8
0
  6
CONTINUOUS
 10
-801.372953949412
 20
5.44084611650453
 30
0.0
 40
0.0
 41
0.0
  0
VERTEX
  5
   42C
  8
0
  6
CONTINUOUS
 10
-801.446659541923
 20
5.37381914985084
 30
0.0
 40
0.0
 41
0.0
  0
VERTEX
  5
   42D
  8
0
  6
CONTINUOUS
 10
-801.59196234158
 20
5.23337817519513
 30
0.0
 40
0.0
 41
0.0
  0
VERTEX
  5
   42E
  8
0
  6
CONTINUOUS
 10
-801.66302499952
 20
5.16715162579069
 30
0.0
 40
0.0
 41
0.0
  0
VERTEX
  5
   42F
  8
0
  6
CONTINUOUS
 10
-801.698034038018
 20
5.13671015150545
 30
0.0
 40
0.0
 41
0.0
  0
VERTEX
  5
   430
  8
0
  6
CONTINUOUS
 10
-801.732651426403
 20
5.10867485618983
 30
0.0
 40
0.0
 41
0.0
  0
VERTEX
  5
   431
  8
0
  6
CONTINUOUS
 10
-801.766849482738
 20
5.08348892626461
 30
0.0
 40
0.0
 41
0.0
  0
VERTEX
  5
   432
  8
0
  6
CONTINUOUS
 10
-801.800606021646
 20
5.06156460343625
 30
0.0
 40
0.0
 41
0.0
  0
VERTEX
  5
   433
  8
0
  6
CONTINUOUS
 10
-801.833905661182
 20
5.04327442916689
 30
0.0
 40
0.0
 41
0.0
  0
VERTEX
  5
   434
  8
0
  6
CONTINUOUS
 10
-801.866741129691
 20
5.02894248914434
 30
0.0
 40
0.0
 41
0.0
  0
VERTEX
  5
   435
  8
0
  6
CONTINUOUS
 10
-801.89911457268
 20
5.01883565775212
 30
0.0
 40
0.0
 41
0.0
  0
VERTEX
  5
   436
  8
0
  6
CONTINUOUS
 10
-801.931038859678
 20
5.01315484253948
 30
0.0
 40
0.0
 41
0.0
  0
VERTEX
  5
   437
  8
0
  6
CONTINUOUS
 10
-801.962538891101
 20
5.01202622869139
 30
0.0
 40
0.0
 41
0.0
  0
VERTEX
  5
   438
  8
0
  6
CONTINUOUS
 10
-801.993652905121
 20
5.01549252349853
 30
0.0
 40
0.0
 41
0.0
  0
VERTEX
  5
   439
  8
0
  6
CONTINUOUS
 10
-802.024433784525
 20
5.02350420082736
 30
0.0
 40
0.0
 41
0.0
  0
VERTEX
  5
   43A
  8
0
  6
CONTINUOUS
 10
-802.054950363584
 20
5.03591074559009
 30
0.0
 40
0.0
 41
0.0
  0
VERTEX
  5
   43B
  8
0
  6
CONTINUOUS
 10
-802.074806772733
 20
5.04628254288775
 30
0.0
 40
0.0
 41
0.0
  0
VERTEX
  5
   43C
  8
0
  6
CONTINUOUS
 10
-802.114405250799
 20
5.07192357203235
 30
0.0
 40
0.0
 41
0.0
  0
VERTEX
  5
   43D
  8
0
  6
CONTINUOUS
 10
-802.134211681678
 20
5.08693852812084
 30
0.0
 40
0.0
 41
0.0
  0
VERTEX
  5
   43E
  8
0
  6
CONTINUOUS
 10
-802.174014062612
 20
5.12060573284764
 30
0.0
 40
0.0
 41
0.0
  0
VERTEX
  5
   43F
  8
0
  6
CONTINUOUS
 10
-802.214314788406
 20
5.15798178148939
 30
0.0
 40
0.0
 41
0.0
  0
VERTEX
  5
   440
  8
0
  6
CONTINUOUS
 10
-802.297580481504
 20
5.23788027516957
 30
0.0
 40
0.0
 41
0.0
  0
VERTEX
  5
   441
  8
0
  6
CONTINUOUS
 10
-802.341077405549
 20
5.27732849288756
 30
0.0
 40
0.0
 41
0.0
  0
VERTEX
  5
   442
  8
0
  6
CONTINUOUS
 10
-802.386102309768
 20
5.31447949440788
 30
0.0
 40
0.0
 41
0.0
  0
VERTEX
  5
   443
  8
0
  6
CONTINUOUS
 10
-802.432791399936
 20
5.34803239411254
 30
0.0
 40
0.0
 41
0.0
  0
VERTEX
  5
   444
  8
0
  6
CONTINUOUS
 10
-802.481198122441
 20
5.37690895267594
 30
0.0
 40
0.0
 41
0.0
  0
VERTEX
  5
   445
  8
0
  6
CONTINUOUS
 10
-802.511289419687
 20
5.39175742433793
 30
0.0
 40
0.0
 41
0.0
  0
VERTEX
  5
   446
  8
0
  6
CONTINUOUS
 10
-802.541964477141
 20
5.40448812108876
 30
0.0
 40
0.0
 41
0.0
  0
VERTEX
  5
   447
  8
0
  6
CONTINUOUS
 10
-802.573179810595
 20
5.41503152899972
 30
0.0
 40
0.0
 41
0.0
  0
VERTEX
  5
   448
  8
0
  6
CONTINUOUS
 10
-802.604879898952
 20
5.4233578267882
 30
0.0
 40
0.0
 41
0.0
  0
VERTEX
  5
   449
  8
0
  6
CONTINUOUS
 10
-802.636998991545
 20
5.42947232352182
 30
0.0
 40
0.0
 41
0.0
  0
SEQEND
  5
   44A
  8
0
  6
CONTINUOUS
 62
     7
  0
LINE
  5
   44B
  8
0
  6
DOT
 62
     7
 10
-801.376902714968
 20
5.43754003019759
 30
0.0
 11
-801.376902714968
 21
-11.433235615492
 31
0.0
  0
LINE
  5
   44C
  8
0
  6
CONTINUOUS
 62
     7
 10
-803.266902549267
 20
36.6567540860176
 30
0.0
 11
-803.056902819872
 21
36.6567540860176
 31
0.0
  0
LINE
  5
   44D
  8
0
  6
CONTINUOUS
 62
     7
 10
-803.266902549267
 20
35.8167562365531
 30
0.0
 11
-803.056902819872
 21
35.8167562365531
 31
0.0
  0
LINE
  5
   44E
  8
0
  6
CONTINUOUS
 62
     7
 10
-803.12690281868
 20
21.8167564749717
 30
0.0
 11
-803.056902819872
 21
21.8167564749717
 31
0.0
  0
LINE
  5
   44F
  8
0
  6
CONTINUOUS
 62
     7
 10
-803.12690281868
 20
20.9767586255073
 30
0.0
 11
-803.056902819872
 21
20.9767586255073
 31
0.0
  0
LINE
  5
   450
  8
0
  6
CONTINUOUS
 62
     7
 10
-803.356902814763
 20
22.1667564690113
 30
0.0
 11
-803.056902819872
 21
22.1667564690113
 31
0.0
  0
LINE
  5
   451
  8
0
  6
DOT
 62
     7
 10
-803.056902819872
 20
22.1667564690113
 30
0.0
 11
-802.216902967692
 21
22.1667564690113
 31
0.0
  0
INSERT
  5
   452
  8
0
  6
CONTINUOUS
 62
     7
  2
*HATCH87
 10
-713.913757324219
 20
2.56676483154297
 30
0.0
 41
0.699999988079071
 42
0.699999988079071
 50
269.999999844103
 43
0.699999988079071
  0
INSERT
  5
   453
  8
0
  6
CONTINUOUS
 62
     7
  2
*HATCH88
 10
-713.913757324219
 20
2.56676483154297
 30
0.0
 41
0.699999988079071
 42
0.699999988079071
 50
269.999999844103
 43
0.699999988079071
  0
INSERT
  5
   454
  8
0
  6
CONTINUOUS
 62
     7
  2
*HATCH89
 10
-713.913757324219
 20
2.56676483154297
 30
0.0
 41
0.699999988079071
 42
0.699999988079071
 50
269.999999844103
 43
0.699999988079071
  0
INSERT
  5
   455
  8
0
  6
CONTINUOUS
 62
     7
  2
*HATCH90
 10
-713.913757324219
 20
2.56676483154297
 30
0.0
 41
0.699999988079071
 42
0.699999988079071
 50
269.999999844103
 43
0.699999988079071
  0
LINE
  5
   456
  8
0
  6
CONTINUOUS
 62
     7
 10
-801.376902714968
 20
52.6167559504509
 30
0.0
 11
-801.376902714968
 21
51.9318596183411
 31
0.0
  0
LINE
  5
   457
  8
0
  6
CONTINUOUS
 62
     7
 10
-803.056902819872
 20
55.7667558968067
 30
0.0
 11
-803.056902819872
 21
51.9318596183411
 31
0.0
  0
LINE
  5
   458
  8
0
  6
CONTINUOUS
 62
     7
 10
-802.216902967692
 20
55.7667558968067
 30
0.0
 11
-802.216902967692
 21
51.9318596183411
 31
0.0
  0
LINE
  5
   459
  8
0
  6
CONTINUOUS
 62
     7
 10
-801.376902714968
 20
-11.4332215964798
 30
0.0
 11
-801.376902714968
 21
-19.4983304559396
 31
0.0
  0
LINE
  5
   45A
  8
0
  6
CONTINUOUS
 62
     7
 10
-800.186930713089
 20
51.2167534054142
 30
0.0
 11
-800.186930713089
 21
-30.6832239210505
 31
0.0
  0
LINE
  5
   45B
  8
0
  6
CONTINUOUS
 62
     7
 10
-751.186951407821
 20
-11.4332242488863
 30
0.0
 11
-751.186951407821
 21
-17.3832348287106
 31
0.0
  0
LINE
  5
   45C
  8
0
  6
CONTINUOUS
 62
     7
 10
-751.18695163508
 20
-11.4332242488863
 30
0.0
 11
-747.686940786274
 21
-11.4332242488863
 31
0.0
  0
LINE
  5
   45D
  8
0
  6
CONTINUOUS
 62
     7
 10
-751.186940953927
 20
20.0667752146719
 30
0.0
 11
-747.686940786274
 21
20.0667752146719
 31
0.0
  0
LINE
  5
   45E
  8
0
  6
CONTINUOUS
 62
     7
 10
-751.186940726669
 20
42.8167641460896
 30
0.0
 11
-751.186940726669
 21
20.0667752146719
 31
0.0
  0
LINE
  5
   45F
  8
0
  6
CONTINUOUS
 62
     7
 10
-747.686940786274
 20
20.0667752146719
 30
0.0
 11
-747.686940786274
 21
-11.4332242488863
 31
0.0
  0
LINE
  5
   460
  8
0
  6
CONTINUOUS
 62
     7
 10
-751.8869513959
 20
-18.0832348167896
 30
0.0
 11
-751.8869513959
 21
-19.1332347989082
 31
0.0
  0
LINE
  5
   461
  8
0
  6
CONTINUOUS
 62
     7
 10
-752.936951378019
 20
-19.1332347989082
 30
0.0
 11
-752.936951378019
 21
-27.8832334742166
 31
0.0
  0
LINE
  5
   462
  8
0
  6
CONTINUOUS
 62
     7
 10
-755.736951330335
 20
-19.1332347989082
 30
0.0
 11
-752.936951378019
 21
-19.1332347989082
 31
0.0
  0
LINE
  5
   463
  8
0
  6
CONTINUOUS
 62
     7
 10
-755.736951330335
 20
-18.0832348167896
 30
0.0
 11
-751.8869513959
 21
-18.0832348167896
 31
0.0
  0
LINE
  5
   464
  8
0
  6
CONTINUOUS
 62
     7
 10
-755.736951330335
 20
43.5167641341686
 30
0.0
 11
-751.886940714748
 21
43.5167641341686
 31
0.0
  0
LINE
  5
   465
  8
0
  6
CONTINUOUS
 62
     7
 10
-751.8869513959
 20
44.5667641162872
 30
0.0
 11
-751.8869513959
 21
43.5167641341686
 31
0.0
  0
LINE
  5
   466
  8
0
  6
CONTINUOUS
 62
     7
 10
-755.736951330335
 20
44.5667641162872
 30
0.0
 11
-752.936951378019
 21
44.5667641162872
 31
0.0
  0
LINE
  5
   467
  8
0
  6
CONTINUOUS
 62
     7
 10
-755.736951330335
 20
51.2167628273584
 30
0.0
 11
-755.736951330335
 21
43.5167641341686
 31
0.0
  0
LINE
  5
   468
  8
0
  6
CONTINUOUS
 62
     7
 10
-800.186930401555
 20
51.9167628154374
 30
0.0
 11
-756.436951318414
 21
51.9167628154374
 31
0.0
  0
ARC
  5
   469
  8
0
  6
CONTINUOUS
 62
     7
 10
-756.436951318414
 20
51.2167628273584
 30
0.0
 40
0.699999988079071
 50
359.999999844103
 51
449.999999844103
  0
ARC
  5
   46A
  8
0
  6
CONTINUOUS
 62
     7
 10
-751.886940714748
 20
42.8167641460896
 30
0.0
 40
0.699999988079071
 50
359.999999844103
 51
449.999999844103
  0
ARC
  5
   46B
  8
0
  6
CONTINUOUS
 62
     7
 10
-756.436951318414
 20
-25.7832335099794
 30
0.0
 40
0.699999988079071
 50
269.999999844103
 51
359.999999844103
  0
LINE
  5
   46C
  8
0
  6
CONTINUOUS
 62
     7
 10
-755.736951330335
 20
-18.0832348167896
 30
0.0
 11
-755.736951330335
 21
-25.7832335099794
 31
0.0
  0
ARC
  5
   46D
  8
0
  6
CONTINUOUS
 62
     7
 10
-751.8869513959
 20
-17.3832348287106
 30
0.0
 40
0.699999988079071
 50
269.999999844103
 51
359.999999844103
  0
LINE
  5
   46E
  8
0
  6
DASHDOT
 62
     7
 10
-858.185911456301
 20
4.31677548289284
 30
0.0
 11
-722.829977741062
 21
4.31677548289284
 31
0.0
  0
LINE
  5
   46F
  8
0
  6
CONTINUOUS
 62
     7
 10
-800.186930713089
 20
-26.4832334980584
 30
0.0
 11
-756.436951318414
 21
-26.4832334980584
 31
0.0
  0
LINE
  5
   470
  8
0
  6
CONTINUOUS
 62
     7
 10
-752.936951378019
 20
44.5667641162872
 30
0.0
 11
-751.8869513959
 21
44.5667641162872
 31
0.0
  0
LINE
  5
   471
  8
0
  6
CONTINUOUS
 62
     7
 10
-752.936951378019
 20
-19.1332347989082
 30
0.0
 11
-751.536951401861
 21
-19.1332347989082
 31
0.0
  0
LINE
  5
   472
  8
0
  6
CONTINUOUS
 62
     7
 10
-800.186930713089
 20
-27.8832334742166
 30
0.0
 11
-752.936951378019
 21
-27.8832334742166
 31
0.0
  0
LINE
  5
   473
  8
0
  6
CONTINUOUS
 62
     7
 10
-751.536951401861
 20
-19.1332347989082
 30
0.0
 11
-751.536951401861
 21
-29.9832239329714
 31
0.0
  0
LINE
  5
   474
  8
0
  6
CONTINUOUS
 62
     7
 10
-800.186930713089
 20
-30.6832239210505
 30
0.0
 11
-752.23695138994
 21
-30.6832239210505
 31
0.0
  0
ARC
  5
   475
  8
0
  6
CONTINUOUS
 62
     7
 10
-752.23695138994
 20
-29.9832239329714
 30
0.0
 40
0.699999988079071
 50
269.999999844103
 51
359.999999844103
  0
LINE
  5
   476
  8
0
  6
CONTINUOUS
 62
     7
 10
-800.186930713089
 20
56.1167746007543
 30
0.0
 11
-752.23695138994
 21
56.1167746007543
 31
0.0
  0
LINE
  5
   477
  8
0
  6
CONTINUOUS
 62
     7
 10
-751.536951401861
 20
55.4167746126753
 30
0.0
 11
-751.536951401861
 21
44.5667854786121
 31
0.0
  0
ARC
  5
   478
  8
0
  6
CONTINUOUS
 62
     7
 10
-752.23695138994
 20
55.4167746126753
 30
0.0
 40
0.699999988079071
 50
359.999999844103
 51
449.999999844103
  0
LINE
  5
   479
  8
0
  6
CONTINUOUS
 62
     7
 10
-752.936951378019
 20
53.3167841539205
 30
0.0
 11
-752.936951378019
 21
44.5667854786121
 31
0.0
  0
LINE
  5
   47A
  8
0
  6
CONTINUOUS
 62
     7
 10
-800.186930713089
 20
53.3167841539205
 30
0.0
 11
-752.936951378019
 21
53.3167841539205
 31
0.0
  0
LINE
  5
   47B
  8
0
  6
CONTINUOUS
 62
     7
 10
-749.786935576828
 20
20.766775202751
 30
0.0
 11
-749.786935576828
 21
20.0667752146719
 31
0.0
  0
LINE
  5
   47C
  8
0
  6
CONTINUOUS
 62
     7
 10
-749.786935576828
 20
-11.4332242488863
 30
0.0
 11
-749.786935576828
 21
-12.1332242369653
 31
0.0
  0
LINE
  5
   47D
  8
0
  6
CONTINUOUS
 62
     7
 10
-749.786935576828
 20
37.9167749106883
 30
0.0
 11
-749.786935576828
 21
21.8167751848696
 31
0.0
  0
LINE
  5
   47E
  8
0
  6
DASHDOT
 62
     7
 10
-749.786935576828
 20
62.8657114748818
 30
0.0
 11
-749.786935576828
 21
-43.635251092567
 31
0.0
  0
LINE
  5
   47F
  8
0
  6
CONTINUOUS
 62
     7
 10
-747.68693561259
 20
-11.4332242488863
 30
0.0
 11
-747.68693561259
 21
-29.2832239449026
 31
0.0
  0
LINE
  5
   480
  8
0
  6
CONTINUOUS
 62
     7
 10
-750.836935558946
 20
20.766775202751
 30
0.0
 11
-749.786935576828
 21
20.766775202751
 31
0.0
  0
LINE
  5
   481
  8
0
  6
CONTINUOUS
 62
     7
 10
-750.836935558946
 20
21.8167751848696
 30
0.0
 11
-749.786935576828
 21
21.8167751848696
 31
0.0
  0
LINE
  5
   482
  8
0
  6
CONTINUOUS
 62
     7
 10
-750.836935558946
 20
21.8167751848696
 30
0.0
 11
-750.836935558946
 21
20.766775202751
 31
0.0
  0
LINE
  5
   483
  8
0
  6
CONTINUOUS
 62
     7
 10
-749.786935576828
 20
37.9167749106883
 30
0.0
 11
-747.68693561259
 21
37.9167749106883
 31
0.0
  0
LINE
  5
   484
  8
0
  6
CONTINUOUS
 62
     7
 10
-749.786935576828
 20
-29.2832239449026
 30
0.0
 11
-747.68693561259
 21
-29.2832239449026
 31
0.0
  0
LINE
  5
   485
  8
0
  6
CONTINUOUS
 62
     7
 10
-749.786935576828
 20
-13.1832242190839
 30
0.0
 11
-749.786935576828
 21
-29.2832239449026
 31
0.0
  0
LINE
  5
   486
  8
0
  6
CONTINUOUS
 62
     7
 10
-750.836935558946
 20
-13.1832242190839
 30
0.0
 11
-749.786935576828
 21
-13.1832242190839
 31
0.0
  0
LINE
  5
   487
  8
0
  6
CONTINUOUS
 62
     7
 10
-750.836935558946
 20
-12.1332242369653
 30
0.0
 11
-750.836935558946
 21
-13.1832242190839
 31
0.0
  0
LINE
  5
   488
  8
0
  6
DOT
 62
     7
 10
-749.786935576828
 20
20.0667752146719
 30
0.0
 11
-749.786935576828
 21
-11.4332242488863
 31
0.0
  0
LINE
  5
   489
  8
0
  6
CONTINUOUS
 62
     7
 10
-747.68693561259
 20
37.9167749106883
 30
0.0
 11
-747.68693561259
 21
20.0667752146719
 31
0.0
  0
LINE
  5
   48A
  8
0
  6
CONTINUOUS
 62
     7
 10
-751.186935552986
 20
27.7667750835417
 30
0.0
 11
-749.786935576828
 21
27.7667750835417
 31
0.0
  0
LINE
  5
   48B
  8
0
  6
CONTINUOUS
 62
     7
 10
-751.186935552986
 20
25.6667751193045
 30
0.0
 11
-749.786935576828
 21
25.6667751193045
 31
0.0
  0
LINE
  5
   48C
  8
0
  6
CONTINUOUS
 62
     7
 10
-751.186935552986
 20
28.291775074601
 30
0.0
 11
-751.186935552986
 21
25.1417751282452
 31
0.0
  0
LINE
  5
   48D
  8
0
  6
DOT
 62
     7
 10
-751.186935552986
 20
28.291775074601
 30
0.0
 11
-752.586935529144
 21
27.3474631671032
 31
0.0
  0
LINE
  5
   48E
  8
0
  6
DOT
 62
     7
 10
-752.586935529144
 20
26.0860870357431
 30
0.0
 11
-751.186935552986
 21
25.1417751282452
 31
0.0
  0
LINE
  5
   48F
  8
0
  6
DOT
 62
     7
 10
-752.586935529144
 20
27.3474631671032
 30
0.0
 11
-752.586935529144
 21
26.0860870357431
 31
0.0
  0
LINE
  5
   490
  8
0
  6
DOT
 62
     7
 10
-752.586935529144
 20
-18.7139122013175
 30
0.0
 11
-751.186935552986
 21
-19.6582241088154
 31
0.0
  0
LINE
  5
   491
  8
0
  6
DOT
 62
     7
 10
-752.586935529144
 20
-17.4525360699574
 30
0.0
 11
-752.586935529144
 21
-18.7139122013175
 31
0.0
  0
LINE
  5
   492
  8
0
  6
DOT
 62
     7
 10
-751.186935552986
 20
-16.5082241624595
 30
0.0
 11
-752.586935529144
 21
-17.4525360699574
 31
0.0
  0
LINE
  5
   493
  8
0
  6
CONTINUOUS
 62
     7
 10
-751.186935552986
 20
-16.5082241624595
 30
0.0
 11
-751.186935552986
 21
-19.6582241088153
 31
0.0
  0
LINE
  5
   494
  8
0
  6
CONTINUOUS
 62
     7
 10
-751.186935552986
 20
-19.133224117756
 30
0.0
 11
-749.786935576828
 21
-19.133224117756
 31
0.0
  0
LINE
  5
   495
  8
0
  6
CONTINUOUS
 62
     7
 10
-751.186935552986
 20
-17.0332241535188
 30
0.0
 11
-749.786935576828
 21
-17.0332241535188
 31
0.0
  0
LINE
  5
   496
  8
0
  6
CONTINUOUS
 62
     7
 10
-749.786935576828
 20
20.766775202751
 30
0.0
 11
-747.68693561259
 21
20.766775202751
 31
0.0
  0
LINE
  5
   497
  8
0
  6
CONTINUOUS
 62
     7
 10
-750.836935558946
 20
-12.1332242369653
 30
0.0
 11
-747.68693561259
 21
-12.1332242369653
 31
0.0
  0
LINE
  5
   498
  8
0
  6
DASHDOT
 62
     7
 10
-750.836935558946
 20
62.8657114748818
 30
0.0
 11
-750.836935558946
 21
-44.0078413651901
 31
0.0
  0
INSERT
  5
   499
  8
0
  6
CONTINUOUS
 62
     7
  2
*HATCH91
 10
-713.913757324219
 20
2.56676483154297
 30
0.0
 41
0.699999988079071
 42
0.699999988079071
 50
269.999999844103
 43
0.699999988079071
  0
INSERT
  5
   49A
  8
0
  6
CONTINUOUS
 62
     7
  2
*HATCH92
 10
-713.913757324219
 20
2.56676483154297
 30
0.0
 41
0.699999988079071
 42
0.699999988079071
 50
269.999999844103
 43
0.699999988079071
  0
LINE
  5
   49B
  8
0
  6
DASHDOT
 62
     7
 10
-736.839179376008
 20
5.14778862661111
 30
0.0
 11
-736.839179376008
 21
-7.13346001435567
 31
0.0
  0
CIRCLE
  5
   49C
  8
0
  6
CONTINUOUS
 62
     7
 10
-797.421227407181
 20
75.9645288379968
 30
0.0
 40
1.04999998211861
  0
CIRCLE
  5
   49D
  8
0
  6
CONTINUOUS
 62
     7
 10
-780.585879192187
 20
69.2027906204992
 30
0.0
 40
1.04999998211861
  0
INSERT
  5
   49E
  8
0
  6
CONTINUOUS
 62
     7
  2
*HATCH93
 10
-713.913757324219
 20
2.56676483154297
 30
0.0
 41
0.699999988079071
 42
0.699999988079071
 50
269.999999844103
 43
0.699999988079071
  0
INSERT
  5
   49F
  8
0
  6
CONTINUOUS
 62
     7
  2
*HATCH94
 10
-713.913757324219
 20
2.56676483154297
 30
0.0
 41
0.699999988079071
 42
0.699999988079071
 50
269.999999844103
 43
0.699999988079071
  0
LINE
  5
   4A0
  8
0
  6
CONTINUOUS
 62
     7
 10
-822.498347457764
 20
51.9318596183411
 30
0.0
 11
-820.398347493527
 21
51.9318596183411
 31
0.0
  0
LINE
  5
   4A1
  8
0
  6
CONTINUOUS
 62
     7
 10
-822.498347457764
 20
44.9318597375504
 30
0.0
 11
-820.398347493527
 21
44.9318597375504
 31
0.0
  0
LINE
  5
   4A2
  8
0
  6
CONTINUOUS
 62
     7
 10
-822.498347457764
 20
-19.4983304559396
 30
0.0
 11
-820.398347493527
 21
-19.4983304559396
 31
0.0
  0
LINE
  5
   4A3
  8
0
  6
CONTINUOUS
 62
     7
 10
-822.498347457764
 20
-26.4983303367303
 30
0.0
 11
-820.398347493527
 21
-26.4983303367303
 31
0.0
  0
LINE
  5
   4A4
  8
0
  6
CONTINUOUS
 62
     7
 10
-829.498347338554
 20
-20.5483304380582
 30
0.0
 11
-829.498347338554
 21
-25.4483303546117
 31
0.0
  0
TEXT
  5
   4A5
  8
0
  6
CONTINUOUS
 62
     2
 10
-793.436521388579
 20
77.1113002398706
 30
0.0
 40
2.00000003448554
  1
75mm.CON VITI SIGILLABILI
 50
359.999999844103
 41
0.75
 11
-793.436521385863
 21
78.1113002571134
 31
0.0
 73
     2
  0
TEXT
  5
   4A6
  8
0
  6
CONTINUOUS
 62
     2
 10
-793.436521257445
 20
74.1113002050501
 30
0.0
 40
2.00000003448554
  1
75mm.WITH SCREWS TO SEAL
 50
359.999999844103
 41
0.75
 11
-793.436521254729
 21
75.1113002222929
 31
0.0
 73
     2
  0
TEXT
  5
   4A7
  8
0
  6
CONTINUOUS
 62
     2
 10
-721.753474010732
 20
2.91451659843057
 30
0.0
 40
2.99999997871263
  1
X
 50
359.999999844103
 41
0.983333365784751
 11
-721.753474006658
 21
4.41451658778688
 31
0.0
 73
     2
  0
TEXT
  5
   4A8
  8
0
  6
CONTINUOUS
 62
     2
 10
-861.537918632628
 20
2.81092444283084
 30
0.0
 40
2.99999997871263
  1
X
 50
359.999999844103
 41
0.983333365784751
 11
-861.537918628554
 21
4.31092443218715
 31
0.0
 73
     2
  0
INSERT
  5
   4A9
  8
0
  6
CONTINUOUS
 62
     3
  2
*UDIM190
 10
0.0
 20
0.0
 30
0.0
  0
INSERT
  5
   4AA
  8
0
  6
CONTINUOUS
 62
     3
  2
*UDIM191
 10
0.0
 20
0.0
 30
0.0
  0
INSERT
  5
   4AB
  8
0
  6
CONTINUOUS
 62
     7
  2
*UDIM192
 10
0.0
 20
0.0
 30
0.0
  0
INSERT
  5
   4AC
  8
0
  6
CONTINUOUS
 62
     7
  2
*UDIM193
 10
0.0
 20
0.0
 30
0.0
  0
INSERT
  5
   4AD
  8
0
  6
CONTINUOUS
 62
     3
  2
*UDIM194
 10
0.0
 20
0.0
 30
0.0
  0
INSERT
  5
   4AE
  8
0
  6
CONTINUOUS
 62
     3
  2
*UDIM195
 10
0.0
 20
0.0
 30
0.0
  0
INSERT
  5
   4AF
  8
0
  6
CONTINUOUS
 62
     3
  2
*UDIM196
 10
0.0
 20
0.0
 30
0.0
  0
INSERT
  5
   4B0
  8
0
  6
CONTINUOUS
 62
     3
  2
*UDIM197
 10
0.0
 20
0.0
 30
0.0
  0
INSERT
  5
   4B1
  8
0
  6
CONTINUOUS
 62
     7
  2
*UDIM198
 10
0.0
 20
0.0
 30
0.0
  0
INSERT
  5
   4B2
  8
0
  6
CONTINUOUS
 62
     7
  2
*UDIM199
 10
0.0
 20
0.0
 30
0.0
  0
TEXT
  5
   4B3
  8
0
  6
CONTINUOUS
 62
     2
 10
-735.799203668288
 20
67.8155670437299
 30
0.0
 40
3.50000469684593
  1
:
 50
359.999999844103
 41
0.933333333333333
 72
     1
 11
-734.515868608025
 21
69.5655693886675
 31
0.0
 73
     2
  0
CIRCLE
  5
   4B4
  8
0
  6
CONTINUOUS
 62
     2
 10
-910.843610529966
 20
54.0167532265207
 30
0.0
 40
1.39999997615814
  0
LINE
  5
   4B5
  8
0
  6
CONTINUOUS
 62
     2
 10
-909.985169167264
 20
55.1226819584227
 30
0.0
 11
-911.949539261868
 21
53.1583118638194
 31
0.0
  0
LINE
  5
   4B6
  8
0
  6
CONTINUOUS
 62
     2
 10
-909.737681798064
 20
54.8751945892221
 30
0.0
 11
-911.702051892667
 21
52.9108244946188
 31
0.0
  0
LINE
  5
   4B7
  8
0
  6
DASHDOT
 62
     2
 10
-910.843610529966
 20
61.0167531073115
 30
0.0
 11
-910.843610529966
 21
47.01675334573
 31
0.0
  0
LINE
  5
   4B8
  8
0
  6
DASHDOT
 62
     2
 10
-917.843610410756
 20
54.0167532265207
 30
0.0
 11
-903.843610649175
 21
54.0167532265207
 31
0.0
  0
LINE
  5
   4B9
  8
0
  6
CONTINUOUS
 62
   130
 10
-931.38862321111
 20
56.1167531907579
 30
0.0
 11
-931.388621448719
 21
44.5667451515912
 31
0.0
  0
LINE
  5
   4BA
  8
0
  6
CONTINUOUS
 62
   130
 10
-931.038623217071
 20
56.1167531907579
 30
0.0
 11
-931.03862145468
 21
44.5667451515912
 31
0.0
  0
LINE
  5
   4BB
  8
0
  6
CONTINUOUS
 62
   130
 10
-930.128623232568
 20
56.1167531907579
 30
0.0
 11
-930.128621470177
 21
44.5667451515912
 31
0.0
  0
LINE
  5
   4BC
  8
0
  6
CONTINUOUS
 62
   130
 10
-928.868623254026
 20
56.1167531907579
 30
0.0
 11
-928.868621491635
 21
44.5667451515912
 31
0.0
  0
LINE
  5
   4BD
  8
0
  6
CONTINUOUS
 62
   130
 10
-929.778623238528
 20
56.1167531907579
 30
0.0
 11
-929.778621476138
 21
44.5667451515912
 31
0.0
  0
LINE
  5
   4BE
  8
0
  6
CONTINUOUS
 62
   130
 10
-927.608623275483
 20
56.1167531907579
 30
0.0
 11
-927.608621513092
 21
44.5667451515912
 31
0.0
  0
LINE
  5
   4BF
  8
0
  6
CONTINUOUS
 62
   130
 10
-928.518623259986
 20
56.1167531907579
 30
0.0
 11
-928.518621497595
 21
44.5667451515912
 31
0.0
  0
LINE
  5
   4C0
  8
0
  6
CONTINUOUS
 62
   130
 10
-926.348623296941
 20
56.1167531907579
 30
0.0
 11
-926.34862153455
 21
44.5667451515912
 31
0.0
  0
LINE
  5
   4C1
  8
0
  6
CONTINUOUS
 62
   130
 10
-927.258623281444
 20
56.1167531907579
 30
0.0
 11
-927.258621519053
 21
44.5667451515912
 31
0.0
  0
LINE
  5
   4C2
  8
0
  6
CONTINUOUS
 62
   130
 10
-925.088623318399
 20
56.1167531907579
 30
0.0
 11
-925.088621556008
 21
44.5667451515912
 31
0.0
  0
LINE
  5
   4C3
  8
0
  6
CONTINUOUS
 62
   130
 10
-925.998623302901
 20
56.1167531907579
 30
0.0
 11
-925.99862154051
 21
44.5667451515912
 31
0.0
  0
LINE
  5
   4C4
  8
0
  6
CONTINUOUS
 62
   130
 10
-923.828623339856
 20
56.1167531907579
 30
0.0
 11
-923.828621577465
 21
44.5667451515912
 31
0.0
  0
LINE
  5
   4C5
  8
0
  6
CONTINUOUS
 62
   130
 10
-924.738623324359
 20
56.1167531907579
 30
0.0
 11
-924.738621561968
 21
44.5667451515912
 31
0.0
  0
LINE
  5
   4C6
  8
0
  6
CONTINUOUS
 62
   130
 10
-922.568623361314
 20
56.1167531907579
 30
0.0
 11
-922.568621598923
 21
44.5667451515912
 31
0.0
  0
LINE
  5
   4C7
  8
0
  6
CONTINUOUS
 62
   130
 10
-923.478623345817
 20
56.1167531907579
 30
0.0
 11
-923.478621583426
 21
44.5667451515912
 31
0.0
  0
LINE
  5
   4C8
  8
0
  6
CONTINUOUS
 62
   130
 10
-922.218623367274
 20
56.1167531907579
 30
0.0
 11
-922.218621604883
 21
44.5667451515912
 31
0.0
  0
LINE
  5
   4C9
  8
0
  6
CONTINUOUS
 62
   130
 10
-921.308623382772
 20
56.1167531907579
 30
0.0
 11
-921.308621620381
 21
44.5667451515912
 31
0.0
  0
LINE
  5
   4CA
  8
0
  6
CONTINUOUS
 62
   130
 10
-920.958623388732
 20
56.1167531907579
 30
0.0
 11
-920.958621626341
 21
44.5667451515912
 31
0.0
  0
LINE
  5
   4CB
  8
0
  6
CONTINUOUS
 62
   130
 10
-920.048623404229
 20
56.1167531907579
 30
0.0
 11
-920.048621641838
 21
44.5667451515912
 31
0.0
  0
LINE
  5
   4CC
  8
0
  6
CONTINUOUS
 62
   130
 10
-919.69862341019
 20
56.1167531907579
 30
0.0
 11
-919.698621647799
 21
44.5667451515912
 31
0.0
  0
LINE
  5
   4CD
  8
0
  6
CONTINUOUS
 62
   130
 10
-918.788623425687
 20
56.1167531907579
 30
0.0
 11
-918.788621663296
 21
44.5667451515912
 31
0.0
  0
LINE
  5
   4CE
  8
0
  6
CONTINUOUS
 62
   130
 10
-918.438623431648
 20
56.1167531907579
 30
0.0
 11
-918.438621669256
 21
44.5667451515912
 31
0.0
  0
LINE
  5
   4CF
  8
0
  6
CONTINUOUS
 62
   130
 10
-917.528623447145
 20
56.1167531907579
 30
0.0
 11
-917.528621684754
 21
44.5667451515912
 31
0.0
  0
LINE
  5
   4D0
  8
0
  6
CONTINUOUS
 62
   130
 10
-917.178623453105
 20
56.1167531907579
 30
0.0
 11
-917.178621690714
 21
44.5667451515912
 31
0.0
  0
LINE
  5
   4D1
  8
0
  6
CONTINUOUS
 62
   130
 10
-916.268623468602
 20
56.1167531907579
 30
0.0
 11
-916.268621706211
 21
44.5667451515912
 31
0.0
  0
LINE
  5
   4D2
  8
0
  6
CONTINUOUS
 62
   130
 10
-915.918623474563
 20
56.1167531907579
 30
0.0
 11
-915.918621712172
 21
44.5667451515912
 31
0.0
  0
LINE
  5
   4D3
  8
0
  6
CONTINUOUS
 62
   130
 10
-915.00862349006
 20
56.1167531907579
 30
0.0
 11
-915.008621727669
 21
44.5667451515912
 31
0.0
  0
LINE
  5
   4D4
  8
0
  6
CONTINUOUS
 62
   130
 10
-914.65862349602
 20
56.1167531907579
 30
0.0
 11
-914.658621733629
 21
44.5667451515912
 31
0.0
  0
LINE
  5
   4D5
  8
0
  6
CONTINUOUS
 62
   130
 10
-913.748623511518
 20
56.1167531907579
 30
0.0
 11
-913.748621749127
 21
44.5667451515912
 31
0.0
  0
LINE
  5
   4D6
  8
0
  6
CONTINUOUS
 62
   130
 10
-913.398623517478
 20
56.1167531907579
 30
0.0
 11
-913.398621755087
 21
44.5667451515912
 31
0.0
  0
LINE
  5
   4D7
  8
0
  6
CONTINUOUS
 62
   130
 10
-912.488623532975
 20
56.1167531907579
 30
0.0
 11
-912.488621770584
 21
44.5667451515912
 31
0.0
  0
LINE
  5
   4D8
  8
0
  6
CONTINUOUS
 62
   130
 10
-912.138623538936
 20
56.1167531907579
 30
0.0
 11
-912.138621776545
 21
44.5667451515912
 31
0.0
  0
LINE
  5
   4D9
  8
0
  6
CONTINUOUS
 62
   130
 10
-911.228623554433
 20
56.1167531907579
 30
0.0
 11
-911.228621792042
 21
44.5667451515912
 31
0.0
  0
LINE
  5
   4DA
  8
0
  6
CONTINUOUS
 62
   130
 10
-910.878623560393
 20
56.1167531907579
 30
0.0
 11
-910.878621798002
 21
44.5667451515912
 31
0.0
  0
LINE
  5
   4DB
  8
0
  6
CONTINUOUS
 62
   130
 10
-909.968623575891
 20
56.1167531907579
 30
0.0
 11
-909.9686218135
 21
44.5667451515912
 31
0.0
  0
LINE
  5
   4DC
  8
0
  6
CONTINUOUS
 62
   130
 10
-909.618623581851
 20
56.1167531907579
 30
0.0
 11
-909.61862181946
 21
44.5667451515912
 31
0.0
  0
LINE
  5
   4DD
  8
0
  6
CONTINUOUS
 62
   130
 10
-908.708623597348
 20
56.1167531907579
 30
0.0
 11
-908.708621834957
 21
44.5667451515912
 31
0.0
  0
LINE
  5
   4DE
  8
0
  6
CONTINUOUS
 62
   130
 10
-908.358623603309
 20
56.1167531907579
 30
0.0
 11
-908.358621840918
 21
44.5667451515912
 31
0.0
  0
LINE
  5
   4DF
  8
0
  6
CONTINUOUS
 62
   130
 10
-907.448623618806
 20
56.1167531907579
 30
0.0
 11
-907.448621856415
 21
44.5667451515912
 31
0.0
  0
LINE
  5
   4E0
  8
0
  6
CONTINUOUS
 62
   130
 10
-907.098623624766
 20
56.1167531907579
 30
0.0
 11
-907.098621862375
 21
44.5667451515912
 31
0.0
  0
LINE
  5
   4E1
  8
0
  6
CONTINUOUS
 62
   130
 10
-906.188623640264
 20
56.1167531907579
 30
0.0
 11
-906.188621877873
 21
44.5667451515912
 31
0.0
  0
LINE
  5
   4E2
  8
0
  6
CONTINUOUS
 62
   130
 10
-905.838623646224
 20
56.1167531907579
 30
0.0
 11
-905.838621883833
 21
44.5667451515912
 31
0.0
  0
LINE
  5
   4E3
  8
0
  6
CONTINUOUS
 62
   130
 10
-904.928623661721
 20
56.1167531907579
 30
0.0
 11
-904.92862189933
 21
44.5667451515912
 31
0.0
  0
LINE
  5
   4E4
  8
0
  6
CONTINUOUS
 62
   130
 10
-904.578623667682
 20
56.1167531907579
 30
0.0
 11
-904.578621905291
 21
44.5667451515912
 31
0.0
  0
LINE
  5
   4E5
  8
0
  6
CONTINUOUS
 62
   130
 10
-903.668623683179
 20
56.1167531907579
 30
0.0
 11
-903.668621920788
 21
44.5667451515912
 31
0.0
  0
LINE
  5
   4E6
  8
0
  6
CONTINUOUS
 62
   130
 10
-903.318623689139
 20
56.1167531907579
 30
0.0
 11
-903.318621926748
 21
44.5667451515912
 31
0.0
  0
LINE
  5
   4E7
  8
0
  6
CONTINUOUS
 62
   130
 10
-902.408623704637
 20
56.1167531907579
 30
0.0
 11
-902.408621942246
 21
44.5667451515912
 31
0.0
  0
LINE
  5
   4E8
  8
0
  6
CONTINUOUS
 62
   130
 10
-902.058623710597
 20
56.1167531907579
 30
0.0
 11
-902.058621948206
 21
44.5667451515912
 31
0.0
  0
LINE
  5
   4E9
  8
0
  6
CONTINUOUS
 62
   130
 10
-932.298623195613
 20
56.116753051903
 30
0.0
 11
-932.298621433222
 21
44.5667450127362
 31
0.0
  0
LINE
  5
   4EA
  8
0
  6
CONTINUOUS
 62
   130
 10
-931.388623211111
 20
56.1167533296129
 30
0.0
 11
-931.388621448719
 21
44.5667452904461
 31
0.0
  0
LINE
  5
   4EB
  8
0
  6
CONTINUOUS
 62
   130
 10
-932.648623189653
 20
56.1167529450915
 30
0.0
 11
-932.648621427262
 21
44.5667449059247
 31
0.0
  0
LINE
  5
   4EC
  8
0
  6
CONTINUOUS
 62
   130
 10
-933.558623174155
 20
56.1167526673816
 30
0.0
 11
-933.558621411765
 21
44.5667446282148
 31
0.0
  0
LINE
  5
   4ED
  8
0
  6
CONTINUOUS
 62
   130
 10
-934.818623152698
 20
56.1167522828602
 30
0.0
 11
-934.818621390307
 21
44.5667442436934
 31
0.0
  0
LINE
  5
   4EE
  8
0
  6
CONTINUOUS
 62
   130
 10
-933.908623168195
 20
56.1167525605701
 30
0.0
 11
-933.908621405804
 21
44.5667445214033
 31
0.0
  0
LINE
  5
   4EF
  8
0
  6
CONTINUOUS
 62
   130
 10
-936.07862313124
 20
56.1167518983388
 30
0.0
 11
-936.078621368849
 21
44.566743859172
 31
0.0
  0
LINE
  5
   4F0
  8
0
  6
CONTINUOUS
 62
   130
 10
-935.168623146737
 20
56.1167521760487
 30
0.0
 11
-935.168621384346
 21
44.5667441368819
 31
0.0
  0
LINE
  5
   4F1
  8
0
  6
CONTINUOUS
 62
   130
 10
-937.338623109782
 20
56.1167515138174
 30
0.0
 11
-937.338621347391
 21
44.5667434746506
 31
0.0
  0
LINE
  5
   4F2
  8
0
  6
CONTINUOUS
 62
   130
 10
-936.42862312528
 20
56.1167517915273
 30
0.0
 11
-936.428621362889
 21
44.5667437523605
 31
0.0
  0
LINE
  5
   4F3
  8
0
  6
CONTINUOUS
 62
   130
 10
-938.598623088325
 20
56.116751129296
 30
0.0
 11
-938.598621325934
 21
44.5667430901292
 31
0.0
  0
LINE
  5
   4F4
  8
0
  6
CONTINUOUS
 62
   130
 10
-937.688623103822
 20
56.1167514070059
 30
0.0
 11
-937.688621341431
 21
44.5667433678391
 31
0.0
  0
LINE
  5
   4F5
  8
0
  6
CONTINUOUS
 62
   130
 10
-939.858623066867
 20
56.1167507447746
 30
0.0
 11
-939.858621304476
 21
44.5667427056078
 31
0.0
  0
LINE
  5
   4F6
  8
0
  6
CONTINUOUS
 62
   130
 10
-938.948623082364
 20
56.1167510224845
 30
0.0
 11
-938.948621319973
 21
44.5667429833177
 31
0.0
  0
LINE
  5
   4F7
  8
0
  6
CONTINUOUS
 62
   130
 10
-941.118623045409
 20
56.1167503602532
 30
0.0
 11
-941.118621283018
 21
44.5667423210864
 31
0.0
  0
LINE
  5
   4F8
  8
0
  6
CONTINUOUS
 62
   130
 10
-940.208623060906
 20
56.1167506379631
 30
0.0
 11
-940.208621298515
 21
44.5667425987963
 31
0.0
  0
LINE
  5
   4F9
  8
0
  6
CONTINUOUS
 62
   130
 10
-941.468623039449
 20
56.1167502534417
 30
0.0
 11
-941.468621277058
 21
44.5667422142749
 31
0.0
  0
LINE
  5
   4FA
  8
0
  6
CONTINUOUS
 62
   130
 10
-942.378623023951
 20
56.1167499757318
 30
0.0
 11
-942.37862126156
 21
44.566741936565
 31
0.0
  0
LINE
  5
   4FB
  8
0
  6
CONTINUOUS
 62
   130
 10
-942.728623017991
 20
56.1167498689203
 30
0.0
 11
-942.7286212556
 21
44.5667418297535
 31
0.0
  0
LINE
  5
   4FC
  8
0
  6
CONTINUOUS
 62
   130
 10
-943.638623002494
 20
56.1167495912104
 30
0.0
 11
-943.638621240103
 21
44.5667415520436
 31
0.0
  0
LINE
  5
   4FD
  8
0
  6
CONTINUOUS
 62
   130
 10
-943.988622996533
 20
56.1167494843989
 30
0.0
 11
-943.988621234142
 21
44.5667414452322
 31
0.0
  0
LINE
  5
   4FE
  8
0
  6
CONTINUOUS
 62
   130
 10
-944.898622981036
 20
56.116749206689
 30
0.0
 11
-944.898621218645
 21
44.5667411675222
 31
0.0
  0
LINE
  5
   4FF
  8
0
  6
CONTINUOUS
 62
   130
 10
-945.248622975076
 20
56.1167490998775
 30
0.0
 11
-945.248621212684
 21
44.5667410607108
 31
0.0
  0
LINE
  5
   500
  8
0
  6
CONTINUOUS
 62
   130
 10
-946.158622959578
 20
56.1167488221676
 30
0.0
 11
-946.158621197187
 21
44.5667407830009
 31
0.0
  0
LINE
  5
   501
  8
0
  6
CONTINUOUS
 62
   130
 10
-946.508622953618
 20
56.1167487153561
 30
0.0
 11
-946.508621191227
 21
44.5667406761893
 31
0.0
  0
LINE
  5
   502
  8
0
  6
CONTINUOUS
 62
   130
 10
-947.418622938121
 20
56.1167484376462
 30
0.0
 11
-947.41862117573
 21
44.5667403984794
 31
0.0
  0
LINE
  5
   503
  8
0
  6
CONTINUOUS
 62
   130
 10
-947.76862293216
 20
56.1167483308347
 30
0.0
 11
-947.768621169769
 21
44.566740291668
 31
0.0
  0
LINE
  5
   504
  8
0
  6
CONTINUOUS
 62
   130
 10
-948.678622916663
 20
56.1167480531248
 30
0.0
 11
-948.678621154272
 21
44.566740013958
 31
0.0
  0
LINE
  5
   505
  8
0
  6
CONTINUOUS
 62
   130
 10
-949.028622910702
 20
56.1167479463133
 30
0.0
 11
-949.028621148311
 21
44.5667399071466
 31
0.0
  0
LINE
  5
   506
  8
0
  6
CONTINUOUS
 62
   130
 10
-949.938622895205
 20
56.1167476686034
 30
0.0
 11
-949.938621132814
 21
44.5667396294367
 31
0.0
  0
LINE
  5
   507
  8
0
  6
CONTINUOUS
 62
   130
 10
-950.288622889245
 20
56.1167475617919
 30
0.0
 11
-950.288621126854
 21
44.5667395226252
 31
0.0
  0
LINE
  5
   508
  8
0
  6
CONTINUOUS
 62
   130
 10
-951.198622873748
 20
56.116747284082
 30
0.0
 11
-951.198621111356
 21
44.5667392449153
 31
0.0
  0
LINE
  5
   509
  8
0
  6
CONTINUOUS
 62
   130
 10
-951.548622867787
 20
56.1167471772705
 30
0.0
 11
-951.548621105396
 21
44.5667391381038
 31
0.0
  0
LINE
  5
   50A
  8
0
  6
CONTINUOUS
 62
   130
 10
-952.45862285229
 20
56.1167468995606
 30
0.0
 11
-952.458621089899
 21
44.5667388603939
 31
0.0
  0
LINE
  5
   50B
  8
0
  6
CONTINUOUS
 62
   130
 10
-952.808622846329
 20
56.1167467927491
 30
0.0
 11
-952.808621083938
 21
44.5667387535824
 31
0.0
  0
LINE
  5
   50C
  8
0
  6
CONTINUOUS
 62
   130
 10
-953.718622830832
 20
56.1167465150392
 30
0.0
 11
-953.718621068441
 21
44.5667384758725
 31
0.0
  0
LINE
  5
   50D
  8
0
  6
CONTINUOUS
 62
   130
 10
-954.068622824872
 20
56.1167464082277
 30
0.0
 11
-954.06862106248
 21
44.566738369061
 31
0.0
  0
LINE
  5
   50E
  8
0
  6
CONTINUOUS
 62
   130
 10
-954.978622809374
 20
56.1167461305178
 30
0.0
 11
-954.978621046983
 21
44.5667380913511
 31
0.0
  0
LINE
  5
   50F
  8
0
  6
CONTINUOUS
 62
   130
 10
-955.328622803414
 20
56.1167460237063
 30
0.0
 11
-955.328621041023
 21
44.5667379845396
 31
0.0
  0
LINE
  5
   510
  8
0
  6
CONTINUOUS
 62
   130
 10
-956.238622787916
 20
56.1167457459964
 30
0.0
 11
-956.238621025526
 21
44.5667377068297
 31
0.0
  0
LINE
  5
   511
  8
0
  6
CONTINUOUS
 62
   130
 10
-956.588622781956
 20
56.1167456391849
 30
0.0
 11
-956.588621019565
 21
44.5667376000182
 31
0.0
  0
LINE
  5
   512
  8
0
  6
CONTINUOUS
 62
   130
 10
-957.498622766459
 20
56.116745361475
 30
0.0
 11
-957.498621004068
 21
44.5667373223083
 31
0.0
  0
LINE
  5
   513
  8
0
  6
CONTINUOUS
 62
   130
 10
-957.848622760498
 20
56.1167452546635
 30
0.0
 11
-957.848620998107
 21
44.5667372154968
 31
0.0
  0
LINE
  5
   514
  8
0
  6
CONTINUOUS
 62
   130
 10
-958.758622745001
 20
56.1167449769536
 30
0.0
 11
-958.75862098261
 21
44.5667369377869
 31
0.0
  0
LINE
  5
   515
  8
0
  6
CONTINUOUS
 62
   130
 10
-959.108622739041
 20
56.1167448701421
 30
0.0
 11
-959.10862097665
 21
44.5667368309754
 31
0.0
  0
LINE
  5
   516
  8
0
  6
CONTINUOUS
 62
   130
 10
-960.018622723543
 20
56.1167445924323
 30
0.0
 11
-960.018620961152
 21
44.5667365532655
 31
0.0
  0
LINE
  5
   517
  8
0
  6
CONTINUOUS
 62
   130
 10
-960.368622717583
 20
56.1167444856208
 30
0.0
 11
-960.368620955192
 21
44.566736446454
 31
0.0
  0
LINE
  5
   518
  8
0
  6
CONTINUOUS
 62
   130
 10
-961.278622702086
 20
56.1167442079109
 30
0.0
 11
-961.278620939695
 21
44.5667361687441
 31
0.0
  0
LINE
  5
   519
  8
0
  6
CONTINUOUS
 62
   130
 10
-961.628622696125
 20
56.1167441010993
 30
0.0
 11
-961.628620933734
 21
44.5667360619326
 31
0.0
  0
LINE
  5
   51A
  8
0
  6
CONTINUOUS
 62
   130
 10
-931.388622890575
 20
-29.2827182233423
 30
0.0
 11
-931.388623104276
 21
-30.6832346498955
 31
0.0
  0
LINE
  5
   51B
  8
0
  6
CONTINUOUS
 62
   130
 10
-931.038622896535
 20
-29.2827182233423
 30
0.0
 11
-931.038623110237
 21
-30.6832346498955
 31
0.0
  0
LINE
  5
   51C
  8
0
  6
CONTINUOUS
 62
   130
 10
-930.128622912032
 20
-29.2827182233423
 30
0.0
 11
-930.128623125734
 21
-30.6832346498955
 31
0.0
  0
LINE
  5
   51D
  8
0
  6
CONTINUOUS
 62
   130
 10
-928.86862293349
 20
-29.2827182233423
 30
0.0
 11
-928.868623147192
 21
-30.6832346498955
 31
0.0
  0
LINE
  5
   51E
  8
0
  6
CONTINUOUS
 62
   130
 10
-929.778622917993
 20
-29.2827182233423
 30
0.0
 11
-929.778623131695
 21
-30.6832346498955
 31
0.0
  0
LINE
  5
   51F
  8
0
  6
CONTINUOUS
 62
   130
 10
-927.608622954948
 20
-29.2827182233423
 30
0.0
 11
-927.608623168649
 21
-30.6832346498955
 31
0.0
  0
LINE
  5
   520
  8
0
  6
CONTINUOUS
 62
   130
 10
-928.51862293945
 20
-29.2827182233423
 30
0.0
 11
-928.518623153152
 21
-30.6832346498955
 31
0.0
  0
LINE
  5
   521
  8
0
  6
CONTINUOUS
 62
   130
 10
-926.348622976405
 20
-29.2827182233423
 30
0.0
 11
-926.348623190107
 21
-30.6832346498955
 31
0.0
  0
LINE
  5
   522
  8
0
  6
CONTINUOUS
 62
   130
 10
-927.258622960908
 20
-29.2827182233423
 30
0.0
 11
-927.25862317461
 21
-30.6832346498955
 31
0.0
  0
LINE
  5
   523
  8
0
  6
CONTINUOUS
 62
   130
 10
-925.088622997863
 20
-29.2827182233423
 30
0.0
 11
-925.088623211565
 21
-30.6832346498955
 31
0.0
  0
LINE
  5
   524
  8
0
  6
CONTINUOUS
 62
   130
 10
-925.998622982366
 20
-29.2827182233423
 30
0.0
 11
-925.998623196068
 21
-30.6832346498955
 31
0.0
  0
LINE
  5
   525
  8
0
  6
CONTINUOUS
 62
   130
 10
-923.828623019321
 20
-29.2827182233423
 30
0.0
 11
-923.828623233022
 21
-30.6832346498955
 31
0.0
  0
LINE
  5
   526
  8
0
  6
CONTINUOUS
 62
   130
 10
-924.738623003823
 20
-29.2827182233423
 30
0.0
 11
-924.738623217525
 21
-30.6832346498955
 31
0.0
  0
LINE
  5
   527
  8
0
  6
CONTINUOUS
 62
   130
 10
-922.568623040778
 20
-29.2827182233423
 30
0.0
 11
-922.56862325448
 21
-30.6832346498955
 31
0.0
  0
LINE
  5
   528
  8
0
  6
CONTINUOUS
 62
   130
 10
-923.478623025281
 20
-29.2827182233423
 30
0.0
 11
-923.478623238983
 21
-30.6832346498955
 31
0.0
  0
LINE
  5
   529
  8
0
  6
CONTINUOUS
 62
   130
 10
-922.218623046739
 20
-29.2827182233423
 30
0.0
 11
-922.218623260441
 21
-30.6832346498955
 31
0.0
  0
LINE
  5
   52A
  8
0
  6
CONTINUOUS
 62
   130
 10
-921.308623062236
 20
-29.2827182233423
 30
0.0
 11
-921.308623275938
 21
-30.6832346498955
 31
0.0
  0
LINE
  5
   52B
  8
0
  6
CONTINUOUS
 62
   130
 10
-920.958623068196
 20
-29.2827182233423
 30
0.0
 11
-920.958623281898
 21
-30.6832346498955
 31
0.0
  0
LINE
  5
   52C
  8
0
  6
CONTINUOUS
 62
   130
 10
-920.048623083694
 20
-29.2827182233423
 30
0.0
 11
-920.048623297395
 21
-30.6832346498955
 31
0.0
  0
LINE
  5
   52D
  8
0
  6
CONTINUOUS
 62
   130
 10
-919.698623089654
 20
-29.2827182233423
 30
0.0
 11
-919.698623303356
 21
-30.6832346498955
 31
0.0
  0
LINE
  5
   52E
  8
0
  6
CONTINUOUS
 62
   130
 10
-918.788623105151
 20
-29.2827182233423
 30
0.0
 11
-918.788623318853
 21
-30.6832346498955
 31
0.0
  0
LINE
  5
   52F
  8
0
  6
CONTINUOUS
 62
   130
 10
-918.438623111112
 20
-29.2827182233423
 30
0.0
 11
-918.438623324813
 21
-30.6832346498955
 31
0.0
  0
LINE
  5
   530
  8
0
  6
CONTINUOUS
 62
   130
 10
-917.528623126609
 20
-29.2827182233423
 30
0.0
 11
-917.528623340311
 21
-30.6832346498955
 31
0.0
  0
LINE
  5
   531
  8
0
  6
CONTINUOUS
 62
   130
 10
-917.178623132569
 20
-29.2827182233423
 30
0.0
 11
-917.178623346271
 21
-30.6832346498955
 31
0.0
  0
LINE
  5
   532
  8
0
  6
CONTINUOUS
 62
   130
 10
-916.268623148067
 20
-29.2827182233423
 30
0.0
 11
-916.268623361768
 21
-30.6832346498955
 31
0.0
  0
LINE
  5
   533
  8
0
  6
CONTINUOUS
 62
   130
 10
-915.918623154027
 20
-29.2827182233423
 30
0.0
 11
-915.918623367729
 21
-30.6832346498955
 31
0.0
  0
LINE
  5
   534
  8
0
  6
CONTINUOUS
 62
   130
 10
-915.008623169524
 20
-29.2827182233423
 30
0.0
 11
-915.008623383226
 21
-30.6832346498955
 31
0.0
  0
LINE
  5
   535
  8
0
  6
CONTINUOUS
 62
   130
 10
-914.658623175485
 20
-29.2827182233423
 30
0.0
 11
-914.658623389187
 21
-30.6832346498955
 31
0.0
  0
LINE
  5
   536
  8
0
  6
CONTINUOUS
 62
   130
 10
-913.748623190982
 20
-29.2827182233423
 30
0.0
 11
-913.748623404684
 21
-30.6832346498955
 31
0.0
  0
LINE
  5
   537
  8
0
  6
CONTINUOUS
 62
   130
 10
-913.398623196942
 20
-29.2827182233423
 30
0.0
 11
-913.398623410644
 21
-30.6832346498955
 31
0.0
  0
LINE
  5
   538
  8
0
  6
CONTINUOUS
 62
   130
 10
-912.488623212439
 20
-29.2827182233423
 30
0.0
 11
-912.488623426141
 21
-30.6832346498955
 31
0.0
  0
LINE
  5
   539
  8
0
  6
CONTINUOUS
 62
   130
 10
-912.1386232184
 20
-29.2827182233423
 30
0.0
 11
-912.138623432102
 21
-30.6832346498955
 31
0.0
  0
LINE
  5
   53A
  8
0
  6
CONTINUOUS
 62
   130
 10
-911.228623233897
 20
-29.2827182233423
 30
0.0
 11
-911.228623447599
 21
-30.6832346498955
 31
0.0
  0
LINE
  5
   53B
  8
0
  6
CONTINUOUS
 62
   130
 10
-910.878623239858
 20
-29.2827182233423
 30
0.0
 11
-910.878623453559
 21
-30.6832346498955
 31
0.0
  0
LINE
  5
   53C
  8
0
  6
CONTINUOUS
 62
   130
 10
-909.968623255355
 20
-29.2827182233423
 30
0.0
 11
-909.968623469057
 21
-30.6832346498955
 31
0.0
  0
LINE
  5
   53D
  8
0
  6
CONTINUOUS
 62
   130
 10
-909.618623261315
 20
-29.2827182233423
 30
0.0
 11
-909.618623475017
 21
-30.6832346498955
 31
0.0
  0
LINE
  5
   53E
  8
0
  6
CONTINUOUS
 62
   130
 10
-908.708623276812
 20
-29.2827182233423
 30
0.0
 11
-908.708623490514
 21
-30.6832346498955
 31
0.0
  0
LINE
  5
   53F
  8
0
  6
CONTINUOUS
 62
   130
 10
-908.358623282773
 20
-29.2827182233423
 30
0.0
 11
-908.358623496475
 21
-30.6832346498955
 31
0.0
  0
LINE
  5
   540
  8
0
  6
CONTINUOUS
 62
   130
 10
-907.44862329827
 20
-29.2827182233423
 30
0.0
 11
-907.448623511972
 21
-30.6832346498955
 31
0.0
  0
LINE
  5
   541
  8
0
  6
CONTINUOUS
 62
   130
 10
-907.098623304231
 20
-29.2827182233423
 30
0.0
 11
-907.098623517932
 21
-30.6832346498955
 31
0.0
  0
LINE
  5
   542
  8
0
  6
CONTINUOUS
 62
   130
 10
-906.188623319728
 20
-29.2827182233423
 30
0.0
 11
-906.18862353343
 21
-30.6832346498955
 31
0.0
  0
LINE
  5
   543
  8
0
  6
CONTINUOUS
 62
   130
 10
-905.838623325688
 20
-29.2827182233423
 30
0.0
 11
-905.83862353939
 21
-30.6832346498955
 31
0.0
  0
LINE
  5
   544
  8
0
  6
CONTINUOUS
 62
   130
 10
-904.928623341185
 20
-29.2827182233423
 30
0.0
 11
-904.928623554887
 21
-30.6832346498955
 31
0.0
  0
LINE
  5
   545
  8
0
  6
CONTINUOUS
 62
   130
 10
-904.578623347146
 20
-29.2827182233423
 30
0.0
 11
-904.578623560848
 21
-30.6832346498955
 31
0.0
  0
LINE
  5
   546
  8
0
  6
CONTINUOUS
 62
   130
 10
-903.668623362643
 20
-29.2827182233423
 30
0.0
 11
-903.668623576345
 21
-30.6832346498955
 31
0.0
  0
LINE
  5
   547
  8
0
  6
CONTINUOUS
 62
   130
 10
-903.318623368604
 20
-29.2827182233423
 30
0.0
 11
-903.318623582305
 21
-30.6832346498955
 31
0.0
  0
LINE
  5
   548
  8
0
  6
CONTINUOUS
 62
   130
 10
-902.408623384101
 20
-29.2827182233423
 30
0.0
 11
-902.408623597803
 21
-30.6832346498955
 31
0.0
  0
LINE
  5
   549
  8
0
  6
CONTINUOUS
 62
   130
 10
-902.058623390061
 20
-29.2827182233423
 30
0.0
 11
-902.058623603763
 21
-30.6832346498955
 31
0.0
  0
LINE
  5
   54A
  8
0
  6
CONTINUOUS
 62
   130
 10
-931.388622890575
 20
-29.2827182233423
 30
0.0
 11
-931.388623104276
 21
-30.6832346498955
 31
0.0
  0
LINE
  5
   54B
  8
0
  6
CONTINUOUS
 62
   130
 10
-932.298622875077
 20
-29.2827182233423
 30
0.0
 11
-932.298623088779
 21
-30.6832346498955
 31
0.0
  0
LINE
  5
   54C
  8
0
  6
CONTINUOUS
 62
   130
 10
-932.298622875077
 20
-29.2827182233423
 30
0.0
 11
-932.298623088779
 21
-30.6832346498955
 31
0.0
  0
LINE
  5
   54D
  8
0
  6
CONTINUOUS
 62
   130
 10
-932.648622869117
 20
-29.2827182233423
 30
0.0
 11
-932.648623082819
 21
-30.6832346498955
 31
0.0
  0
LINE
  5
   54E
  8
0
  6
CONTINUOUS
 62
   130
 10
-933.55862285362
 20
-29.2827182233423
 30
0.0
 11
-933.558623067321
 21
-30.6832346498955
 31
0.0
  0
LINE
  5
   54F
  8
0
  6
CONTINUOUS
 62
   130
 10
-934.818622832162
 20
-29.2827182233423
 30
0.0
 11
-934.818623045864
 21
-30.6832346498955
 31
0.0
  0
LINE
  5
   550
  8
0
  6
CONTINUOUS
 62
   130
 10
-933.908622847659
 20
-29.2827182233423
 30
0.0
 11
-933.908623061361
 21
-30.6832346498955
 31
0.0
  0
LINE
  5
   551
  8
0
  6
CONTINUOUS
 62
   130
 10
-936.078622810704
 20
-29.2827182233423
 30
0.0
 11
-936.078623024406
 21
-30.6832346498955
 31
0.0
  0
LINE
  5
   552
  8
0
  6
CONTINUOUS
 62
   130
 10
-935.168622826202
 20
-29.2827182233423
 30
0.0
 11
-935.168623039903
 21
-30.6832346498955
 31
0.0
  0
LINE
  5
   553
  8
0
  6
CONTINUOUS
 62
   130
 10
-937.338622789247
 20
-29.2827182233423
 30
0.0
 11
-937.338623002949
 21
-30.6832346498955
 31
0.0
  0
LINE
  5
   554
  8
0
  6
CONTINUOUS
 62
   130
 10
-936.428622804744
 20
-29.2827182233423
 30
0.0
 11
-936.428623018446
 21
-30.6832346498955
 31
0.0
  0
LINE
  5
   555
  8
0
  6
CONTINUOUS
 62
   130
 10
-938.598622767789
 20
-29.2827182233423
 30
0.0
 11
-938.598622981491
 21
-30.6832346498955
 31
0.0
  0
LINE
  5
   556
  8
0
  6
CONTINUOUS
 62
   130
 10
-937.688622783286
 20
-29.2827182233423
 30
0.0
 11
-937.688622996988
 21
-30.6832346498955
 31
0.0
  0
LINE
  5
   557
  8
0
  6
CONTINUOUS
 62
   130
 10
-939.858622746331
 20
-29.2827182233423
 30
0.0
 11
-939.858622960033
 21
-30.6832346498955
 31
0.0
  0
LINE
  5
   558
  8
0
  6
CONTINUOUS
 62
   130
 10
-938.948622761829
 20
-29.2827182233423
 30
0.0
 11
-938.94862297553
 21
-30.6832346498955
 31
0.0
  0
LINE
  5
   559
  8
0
  6
CONTINUOUS
 62
   130
 10
-941.118622724874
 20
-29.2827182233423
 30
0.0
 11
-941.118622938576
 21
-30.6832346498955
 31
0.0
  0
LINE
  5
   55A
  8
0
  6
CONTINUOUS
 62
   130
 10
-940.208622740371
 20
-29.2827182233423
 30
0.0
 11
-940.208622954073
 21
-30.6832346498955
 31
0.0
  0
LINE
  5
   55B
  8
0
  6
CONTINUOUS
 62
   130
 10
-941.468622718913
 20
-29.2827182233423
 30
0.0
 11
-941.468622932615
 21
-30.6832346498955
 31
0.0
  0
LINE
  5
   55C
  8
0
  6
CONTINUOUS
 62
   130
 10
-942.378622703416
 20
-29.2827182233423
 30
0.0
 11
-942.378622917118
 21
-30.6832346498955
 31
0.0
  0
LINE
  5
   55D
  8
0
  6
CONTINUOUS
 62
   130
 10
-942.728622697456
 20
-29.2827182233423
 30
0.0
 11
-942.728622911157
 21
-30.6832346498955
 31
0.0
  0
LINE
  5
   55E
  8
0
  6
CONTINUOUS
 62
   130
 10
-943.638622681958
 20
-29.2827182233423
 30
0.0
 11
-943.63862289566
 21
-30.6832346498955
 31
0.0
  0
LINE
  5
   55F
  8
0
  6
CONTINUOUS
 62
   130
 10
-943.988622675998
 20
-29.2827182233423
 30
0.0
 11
-943.9886228897
 21
-30.6832346498955
 31
0.0
  0
LINE
  5
   560
  8
0
  6
CONTINUOUS
 62
   130
 10
-944.898622660501
 20
-29.2827182233423
 30
0.0
 11
-944.898622874203
 21
-30.6832346498955
 31
0.0
  0
LINE
  5
   561
  8
0
  6
CONTINUOUS
 62
   130
 10
-945.24862265454
 20
-29.2827182233423
 30
0.0
 11
-945.248622868242
 21
-30.6832346498955
 31
0.0
  0
LINE
  5
   562
  8
0
  6
CONTINUOUS
 62
   130
 10
-946.158622639043
 20
-29.2827182233423
 30
0.0
 11
-946.158622852745
 21
-30.6832346498955
 31
0.0
  0
LINE
  5
   563
  8
0
  6
CONTINUOUS
 62
   130
 10
-946.508622633083
 20
-29.2827182233423
 30
0.0
 11
-946.508622846784
 21
-30.6832346498955
 31
0.0
  0
LINE
  5
   564
  8
0
  6
CONTINUOUS
 62
   130
 10
-947.418622617585
 20
-29.2827182233423
 30
0.0
 11
-947.418622831287
 21
-30.6832346498955
 31
0.0
  0
LINE
  5
   565
  8
0
  6
CONTINUOUS
 62
   130
 10
-947.768622611625
 20
-29.2827182233423
 30
0.0
 11
-947.768622825327
 21
-30.6832346498955
 31
0.0
  0
LINE
  5
   566
  8
0
  6
CONTINUOUS
 62
   130
 10
-948.678622596128
 20
-29.2827182233423
 30
0.0
 11
-948.67862280983
 21
-30.6832346498955
 31
0.0
  0
LINE
  5
   567
  8
0
  6
CONTINUOUS
 62
   130
 10
-949.028622590167
 20
-29.2827182233423
 30
0.0
 11
-949.028622803869
 21
-30.6832346498955
 31
0.0
  0
LINE
  5
   568
  8
0
  6
CONTINUOUS
 62
   130
 10
-949.93862257467
 20
-29.2827182233423
 30
0.0
 11
-949.938622788372
 21
-30.6832346498955
 31
0.0
  0
LINE
  5
   569
  8
0
  6
CONTINUOUS
 62
   130
 10
-950.28862256871
 20
-29.2827182233423
 30
0.0
 11
-950.288622782412
 21
-30.6832346498955
 31
0.0
  0
LINE
  5
   56A
  8
0
  6
CONTINUOUS
 62
   130
 10
-951.198622553212
 20
-29.2827182233423
 30
0.0
 11
-951.198622766914
 21
-30.6832346498955
 31
0.0
  0
LINE
  5
   56B
  8
0
  6
CONTINUOUS
 62
   130
 10
-951.548622547252
 20
-29.2827182233423
 30
0.0
 11
-951.548622760954
 21
-30.6832346498955
 31
0.0
  0
LINE
  5
   56C
  8
0
  6
CONTINUOUS
 62
   130
 10
-952.458622531755
 20
-29.2827182233423
 30
0.0
 11
-952.458622745457
 21
-30.6832346498955
 31
0.0
  0
LINE
  5
   56D
  8
0
  6
CONTINUOUS
 62
   130
 10
-952.808622525794
 20
-29.2827182233423
 30
0.0
 11
-952.808622739496
 21
-30.6832346498955
 31
0.0
  0
LINE
  5
   56E
  8
0
  6
CONTINUOUS
 62
   130
 10
-953.718622510297
 20
-29.2827182233423
 30
0.0
 11
-953.718622723999
 21
-30.6832346498955
 31
0.0
  0
LINE
  5
   56F
  8
0
  6
CONTINUOUS
 62
   130
 10
-954.068622504337
 20
-29.2827182233423
 30
0.0
 11
-954.068622718039
 21
-30.6832346498955
 31
0.0
  0
LINE
  5
   570
  8
0
  6
CONTINUOUS
 62
   130
 10
-954.97862248884
 20
-29.2827182233423
 30
0.0
 11
-954.978622702541
 21
-30.6832346498955
 31
0.0
  0
LINE
  5
   571
  8
0
  6
CONTINUOUS
 62
   130
 10
-955.328622482879
 20
-29.2827182233423
 30
0.0
 11
-955.328622696581
 21
-30.6832346498955
 31
0.0
  0
LINE
  5
   572
  8
0
  6
CONTINUOUS
 62
   130
 10
-956.238622467382
 20
-29.2827182233423
 30
0.0
 11
-956.238622681084
 21
-30.6832346498955
 31
0.0
  0
LINE
  5
   573
  8
0
  6
CONTINUOUS
 62
   130
 10
-956.588622461421
 20
-29.2827182233423
 30
0.0
 11
-956.588622675123
 21
-30.6832346498955
 31
0.0
  0
LINE
  5
   574
  8
0
  6
CONTINUOUS
 62
   130
 10
-957.498622445924
 20
-29.2827182233423
 30
0.0
 11
-957.498622659626
 21
-30.6832346498955
 31
0.0
  0
LINE
  5
   575
  8
0
  6
CONTINUOUS
 62
   130
 10
-957.848622439964
 20
-29.2827182233423
 30
0.0
 11
-957.848622653666
 21
-30.6832346498955
 31
0.0
  0
LINE
  5
   576
  8
0
  6
CONTINUOUS
 62
   130
 10
-958.758622424467
 20
-29.2827182233423
 30
0.0
 11
-958.758622638168
 21
-30.6832346498955
 31
0.0
  0
LINE
  5
   577
  8
0
  6
CONTINUOUS
 62
   130
 10
-959.108622418506
 20
-29.2827182233423
 30
0.0
 11
-959.108622632208
 21
-30.6832346498955
 31
0.0
  0
LINE
  5
   578
  8
0
  6
CONTINUOUS
 62
   130
 10
-960.018622403009
 20
-29.2827182233423
 30
0.0
 11
-960.018622616711
 21
-30.6832346498955
 31
0.0
  0
LINE
  5
   579
  8
0
  6
CONTINUOUS
 62
   130
 10
-960.368622397048
 20
-29.2827182233423
 30
0.0
 11
-960.36862261075
 21
-30.6832346498955
 31
0.0
  0
LINE
  5
   57A
  8
0
  6
CONTINUOUS
 62
   130
 10
-961.278622381551
 20
-29.2827182233423
 30
0.0
 11
-961.278622595253
 21
-30.6832346498955
 31
0.0
  0
LINE
  5
   57B
  8
0
  6
CONTINUOUS
 62
   130
 10
-961.628622375591
 20
-29.2827182233423
 30
0.0
 11
-961.628622589293
 21
-30.6832346498955
 31
0.0
  0
LINE
  5
   57C
  8
0
  6
CONTINUOUS
 62
     2
 10
-911.790570755699
 20
-29.2827182233423
 30
0.0
 11
-911.949539261868
 21
-29.441686729511
 31
0.0
  0
LINE
  5
   57D
  8
0
  6
CONTINUOUS
 62
     2
 10
-911.295596017298
 20
-29.2827182233423
 30
0.0
 11
-911.702051892667
 21
-29.6891740987116
 31
0.0
  0
ARC
  5
   57E
  8
0
  6
CONTINUOUS
 62
     2
 10
-910.843610529966
 20
-28.5832453668096
 30
0.0
 40
1.39999997615814
 50
569.975092438295
 51
690.024907249912
  0
LINE
  5
   57F
  8
0
  6
DASHDOT
 62
     2
 10
-952.84360981471
 20
61.0167531073115
 30
0.0
 11
-952.84360981471
 21
47.01675334573
 31
0.0
  0
LINE
  5
   580
  8
0
  6
DASHDOT
 62
     2
 10
-959.843609695501
 20
54.0167532265207
 30
0.0
 11
-945.843609933919
 21
54.0167532265207
 31
0.0
  0
CIRCLE
  5
   581
  8
0
  6
CONTINUOUS
 62
     2
 10
-952.84360981471
 20
54.0167532265207
 30
0.0
 40
1.39999997615814
  0
LINE
  5
   582
  8
0
  6
CONTINUOUS
 62
     2
 10
-951.985168452009
 20
55.1226819584227
 30
0.0
 11
-953.949538546612
 21
53.1583118638194
 31
0.0
  0
LINE
  5
   583
  8
0
  6
CONTINUOUS
 62
     2
 10
-951.737681082808
 20
54.8751945892221
 30
0.0
 11
-953.702051177411
 21
52.9108244946188
 31
0.0
  0
LINE
  5
   584
  8
0
  6
CONTINUOUS
 62
     2
 10
-953.790570040443
 20
-29.2827182233423
 30
0.0
 11
-953.949538546612
 21
-29.441686729511
 31
0.0
  0
LINE
  5
   585
  8
0
  6
CONTINUOUS
 62
     2
 10
-953.295595302042
 20
-29.2827182233423
 30
0.0
 11
-953.702051177411
 21
-29.6891740987116
 31
0.0
  0
ARC
  5
   586
  8
0
  6
CONTINUOUS
 62
     2
 10
-952.84360981471
 20
-28.5832453668096
 30
0.0
 40
1.39999997615814
 50
569.975092438293
 51
690.024907249914
  0
LINE
  5
   587
  8
0
  6
CONTINUOUS
 62
     7
 10
-895.79368907913
 20
37.0422806471496
 30
0.0
 11
-895.79368907913
 21
-28.4077182382435
 31
0.0
  0
LINE
  5
   588
  8
0
  6
CONTINUOUS
 62
     7
 10
-967.018687866176
 20
-29.2827182233423
 30
0.0
 11
-896.668689064229
 21
-29.2827182233423
 31
0.0
  0
LINE
  5
   589
  8
0
  6
CONTINUOUS
 62
     7
 10
-967.893687851275
 20
37.0422806471496
 30
0.0
 11
-967.893687851275
 21
-28.4077182382435
 31
0.0
  0
LINE
  5
   58A
  8
0
  6
CONTINUOUS
 62
     7
 10
-967.018687866176
 20
37.9172806322485
 30
0.0
 11
-896.668689064229
 21
37.9172806322485
 31
0.0
  0
LINE
  5
   58B
  8
0
  6
CONTINUOUS
 62
     7
 10
-964.393687910879
 20
-12.4827185094446
 30
0.0
 11
-899.293689019526
 21
-12.4827185094446
 31
0.0
  0
LINE
  5
   58C
  8
0
  6
CONTINUOUS
 62
     7
 10
-964.393687910879
 20
21.1172809183508
 30
0.0
 11
-899.293689019526
 21
21.1172809183508
 31
0.0
  0
LINE
  5
   58D
  8
0
  6
CONTINUOUS
 62
     7
 10
-964.743687904919
 20
37.9172806322485
 30
0.0
 11
-964.743687904919
 21
-29.2827182233423
 31
0.0
  0
LINE
  5
   58E
  8
0
  6
CONTINUOUS
 62
     7
 10
-964.04368791684
 20
28.467280793181
 30
0.0
 11
-964.04368791684
 21
21.1172809183508
 31
0.0
  0
LINE
  5
   58F
  8
0
  6
CONTINUOUS
 62
     7
 10
-964.04368791684
 20
-12.4827185094446
 30
0.0
 11
-964.04368791684
 21
-19.8327183842749
 31
0.0
  0
LINE
  5
   590
  8
0
  6
CONTINUOUS
 62
     7
 10
-964.04368791684
 20
-20.5327183723539
 30
0.0
 11
-964.04368791684
 21
-29.2827182233423
 31
0.0
  0
LINE
  5
   591
  8
0
  6
CONTINUOUS
 62
     7
 10
-898.943689025486
 20
37.9172806322485
 30
0.0
 11
-898.943689025486
 21
-29.2827182233423
 31
0.0
  0
LINE
  5
   592
  8
0
  6
CONTINUOUS
 62
     7
 10
-899.643689013565
 20
-12.4827185094446
 30
0.0
 11
-899.643689013565
 21
-19.8327183842749
 31
0.0
  0
LINE
  5
   593
  8
0
  6
CONTINUOUS
 62
     7
 10
-899.643689013565
 20
-20.5327183723539
 30
0.0
 11
-899.643689013565
 21
-29.2827182233423
 31
0.0
  0
LINE
  5
   594
  8
0
  6
CONTINUOUS
 62
     7
 10
-899.643689013565
 20
28.467280793181
 30
0.0
 11
-899.643689013565
 21
21.1172809183508
 31
0.0
  0
LINE
  5
   595
  8
0
  6
CONTINUOUS
 62
     7
 10
-964.743687904919
 20
29.1672807812601
 30
0.0
 11
-898.943689025486
 21
29.1672807812601
 31
0.0
  0
LINE
  5
   596
  8
0
  6
CONTINUOUS
 62
     7
 10
-964.04368791684
 20
28.467280793181
 30
0.0
 11
-899.643689013565
 21
28.467280793181
 31
0.0
  0
LINE
  5
   597
  8
0
  6
CONTINUOUS
 62
     7
 10
-964.04368791684
 20
-20.5327183723539
 30
0.0
 11
-899.643689013565
 21
-20.5327183723539
 31
0.0
  0
LINE
  5
   598
  8
0
  6
CONTINUOUS
 62
     7
 10
-964.04368791684
 20
-19.8327183842749
 30
0.0
 11
-899.643689013565
 21
-19.8327183842749
 31
0.0
  0
LINE
  5
   599
  8
0
  6
CONTINUOUS
 62
     7
 10
-964.743687904919
 20
34.0672806978136
 30
0.0
 11
-964.533685772265
 21
34.0672806978136
 31
0.0
  0
LINE
  5
   59A
  8
0
  6
CONTINUOUS
 62
     7
 10
-964.743687904919
 20
33.017280715695
 30
0.0
 11
-964.533685772265
 21
33.017280715695
 31
0.0
  0
LINE
  5
   59B
  8
0
  6
CONTINUOUS
 62
     7
 10
-899.153689155424
 20
34.0672806978136
 30
0.0
 11
-898.943689025486
 21
34.0672806978136
 31
0.0
  0
LINE
  5
   59C
  8
0
  6
CONTINUOUS
 62
     7
 10
-899.153689155424
 20
33.017280715695
 30
0.0
 11
-898.943689025486
 21
33.017280715695
 31
0.0
  0
ARC
  5
   59D
  8
0
  6
CONTINUOUS
 62
     7
 10
-964.533713732138
 20
33.5422632641865
 30
0.0
 40
0.525030405667436
 50
270.002994716444
 51
449.997011754257
  0
ARC
  5
   59E
  8
0
  6
CONTINUOUS
 62
     7
 10
-899.153678751242
 20
33.5422768496631
 30
0.0
 40
0.525010449191336
 50
450.001135501493
 51
629.998857587167
  0
ARC
  5
   59F
  8
0
  6
CONTINUOUS
 62
     7
 10
-896.668689064229
 20
37.0422806471496
 30
0.0
 40
0.874999985098839
 50
359.999999844103
 51
449.999999844103
  0
ARC
  5
   5A0
  8
0
  6
CONTINUOUS
 62
     7
 10
-967.018687866176
 20
37.0422806471496
 30
0.0
 40
0.874999985098839
 50
449.999999844103
 51
539.999999844103
  0
ARC
  5
   5A1
  8
0
  6
CONTINUOUS
 62
     7
 10
-967.018687866176
 20
-28.4077182382435
 30
0.0
 40
0.874999985098839
 50
539.999999844103
 51
629.999999844103
  0
ARC
  5
   5A2
  8
0
  6
CONTINUOUS
 62
     7
 10
-896.668689064229
 20
-28.4077182382435
 30
0.0
 40
0.874999985098839
 50
629.999999844103
 51
719.999999844103
  0
LINE
  5
   5A3
  8
0
  6
CONTINUOUS
 62
     7
 10
-899.293689019526
 20
21.1172809183508
 30
0.0
 11
-899.293689019526
 21
-12.4827185094446
 31
0.0
  0
LINE
  5
   5A4
  8
0
  6
CONTINUOUS
 62
     7
 10
-964.393687910879
 20
21.1172809183508
 30
0.0
 11
-964.393687910879
 21
-12.4827185094446
 31
0.0
  0
LINE
  5
   5A5
  8
0
  6
DASHDOT
 62
     7
 10
-972.120166543668
 20
4.31677543520538
 30
0.0
 11
-877.867517781448
 21
4.31677543520538
 31
0.0
  0
LINE
  5
   5A6
  8
0
  6
CONTINUOUS
 62
     7
 10
-924.49360534179
 20
-2.62152000287653
 30
0.0
 11
-924.493605421898
 21
-4.72151996711374
 31
0.0
  0
LINE
  5
   5A7
  8
0
  6
CONTINUOUS
 62
     7
 10
-939.193624722775
 20
-2.62152000287653
 30
0.0
 11
-939.193624642666
 21
-4.72151996711374
 31
0.0
  0
LINE
  5
   5A8
  8
0
  6
CONTINUOUS
 62
     7
 10
-939.193624722775
 20
-2.62152000287653
 30
0.0
 11
-937.093624758537
 21
-2.62152000287653
 31
0.0
  0
LINE
  5
   5A9
  8
0
  6
CONTINUOUS
 62
     7
 10
-926.593605306027
 20
-2.62152000287653
 30
0.0
 11
-924.49360534179
 21
-2.62152000287653
 31
0.0
  0
LINE
  5
   5AA
  8
0
  6
CONTINUOUS
 62
     7
 10
-939.193624642666
 20
-4.72151996711374
 30
0.0
 11
-936.39362469035
 21
-4.72151996711374
 31
0.0
  0
LINE
  5
   5AB
  8
0
  6
CONTINUOUS
 62
     7
 10
-927.293605374215
 20
-4.72151996711374
 30
0.0
 11
-924.493605421898
 21
-4.72151996711374
 31
0.0
  0
LINE
  5
   5AC
  8
0
  6
DOT
 62
     7
 10
-902.793615527
 20
12.5067539334297
 30
0.0
 11
-902.793615527
 21
0.326754140853882
 31
0.0
  0
LINE
  5
   5AD
  8
0
  6
DOT
 62
     7
 10
-901.689879481329
 20
12.8567539274693
 30
0.0
 11
-900.728262400896
 21
12.5067539334297
 31
0.0
  0
LINE
  5
   5AE
  8
0
  6
DOT
 62
     7
 10
-900.728262400896
 20
0.326754140853878
 30
0.0
 11
-901.689879481329
 21
-2.32458531856596E-2
 31
0.0
  0
LINE
  5
   5AF
  8
0
  6
DOT
 62
     7
 10
-900.728262400896
 20
12.5067539334297
 30
0.0
 11
-900.343615568723
 21
12.5067539334297
 31
0.0
  0
LINE
  5
   5B0
  8
0
  6
DOT
 62
     7
 10
-900.728262400896
 20
0.326754140853882
 30
0.0
 11
-900.343615568723
 21
0.326754140853882
 31
0.0
  0
LINE
  5
   5B1
  8
0
  6
DOT
 62
     7
 10
-902.44361553296
 20
12.8567539274693
 30
0.0
 11
-901.689879481329
 21
12.8567539274693
 31
0.0
  0
LINE
  5
   5B2
  8
0
  6
DOT
 62
     7
 10
-902.44361553296
 20
-2.32458531856534E-2
 30
0.0
 11
-901.689879481329
 21
-2.32458531856534E-2
 31
0.0
  0
LINE
  5
   5B3
  8
0
  6
CONTINUOUS
 62
     7
 10
-891.304626464844
 20
2.56675410270691
 30
0.0
 11
-891.304626464844
 21
2.56675410270691
 31
0.0
  0
LINE
  5
   5B4
  8
0
  6
CONTINUOUS
 62
     7
 10
-891.304626464844
 20
2.56675410270691
 30
0.0
 11
-891.304626464844
 21
2.56675410270691
 31
0.0
  0
LINE
  5
   5B5
  8
0
  6
CONTINUOUS
 62
     7
 10
-891.304626464844
 20
2.56675410270691
 30
0.0
 11
-891.304626464844
 21
2.56675410270691
 31
0.0
  0
LINE
  5
   5B6
  8
0
  6
CONTINUOUS
 62
     7
 10
-891.304626464844
 20
2.56675410270691
 30
0.0
 11
-891.304626464844
 21
2.56675410270691
 31
0.0
  0
LINE
  5
   5B7
  8
0
  6
CONTINUOUS
 62
     7
 10
-891.304626464844
 20
2.56675410270691
 30
0.0
 11
-891.304626464844
 21
2.56675410270691
 31
0.0
  0
LINE
  5
   5B8
  8
0
  6
CONTINUOUS
 62
     7
 10
-891.304626464844
 20
2.56675410270691
 30
0.0
 11
-891.304626464844
 21
2.56675410270691
 31
0.0
  0
LINE
  5
   5B9
  8
0
  6
CONTINUOUS
 62
     7
 10
-891.304626464844
 20
2.56675410270691
 30
0.0
 11
-891.304626464844
 21
2.56675410270691
 31
0.0
  0
LINE
  5
   5BA
  8
0
  6
CONTINUOUS
 62
     7
 10
-891.304626464844
 20
2.56675410270691
 30
0.0
 11
-891.304626464844
 21
2.56675410270691
 31
0.0
  0
LINE
  5
   5BB
  8
0
  6
CONTINUOUS
 62
     7
 10
-963.343601197802
 20
55.4167530958674
 30
0.0
 11
-963.343598527595
 21
37.9172806322485
 31
0.0
  0
LINE
  5
   5BC
  8
0
  6
CONTINUOUS
 62
     7
 10
-963.343612359612
 20
-11.4332242965654
 30
0.0
 11
-931.843612896053
 21
-11.4332242965654
 31
0.0
  0
LINE
  5
   5BD
  8
0
  6
CONTINUOUS
 62
     7
 10
-963.343617166129
 20
20.0667751669845
 30
0.0
 11
-931.843617702571
 21
20.0667751669845
 31
0.0
  0
LINE
  5
   5BE
  8
0
  6
CONTINUOUS
 62
     7
 10
-937.093625400685
 20
14.2119776755418
 30
0.0
 11
-927.192513687527
 21
14.2119776755418
 31
0.0
  0
LINE
  5
   5BF
  8
0
  6
CONTINUOUS
 62
     7
 10
-937.093625450458
 20
15.5167752444705
 30
0.0
 11
-937.093624731834
 21
-3.3215199909556
 31
0.0
  0
LINE
  5
   5C0
  8
0
  6
DASHDOT
 62
     7
 10
-946.263613184538
 20
-4.2582350999106
 30
0.0
 11
-946.263613184538
 21
-11.6082349747408
 31
0.0
  0
LINE
  5
   5C1
  8
0
  6
CONTINUOUS
 62
     7
 10
-937.093624731834
 20
-3.3215199909556
 30
0.0
 11
-936.393624743755
 21
-3.3215199909556
 31
0.0
  0
LINE
  5
   5C2
  8
0
  6
CONTINUOUS
 62
     7
 10
-937.09362474188
 20
-3.05817755580459
 30
0.0
 11
-936.393624753801
 21
-3.05817755580459
 31
0.0
  0
LINE
  5
   5C3
  8
0
  6
CONTINUOUS
 62
     7
 10
-963.343616471854
 20
15.5167752444705
 30
0.0
 11
-924.709618551742
 21
15.5167752444705
 31
0.0
  0
LINE
  5
   5C4
  8
0
  6
CONTINUOUS
 62
     7
 10
-963.343616311637
 20
14.4667752623519
 30
0.0
 11
-937.093625410404
 21
14.4667752623519
 31
0.0
  0
LINE
  5
   5C5
  8
0
  6
CONTINUOUS
 62
     7
 10
-963.343613053886
 20
-6.88322437405144
 30
0.0
 11
-949.763613124933
 21
-6.88322437405144
 31
0.0
  0
LINE
  5
   5C6
  8
0
  6
CONTINUOUS
 62
     7
 10
-963.343613214104
 20
-5.83322439193283
 30
0.0
 11
-936.393624647941
 21
-5.83322439193283
 31
0.0
  0
LINE
  5
   5C7
  8
0
  6
CONTINUOUS
 62
     7
 10
-942.763613244143
 20
-6.88322437405144
 30
0.0
 11
-908.618034543126
 21
-6.88322437405144
 31
0.0
  0
ARC
  5
   5C8
  8
0
  6
DOT
 62
     7
 10
-902.44361553296
 20
12.5067539334297
 30
0.0
 40
0.349999994039536
 50
449.999999844103
 51
539.999999844103
  0
ARC
  5
   5C9
  8
0
  6
DOT
 62
     7
 10
-902.44361553296
 20
0.326754140853882
 30
0.0
 40
0.349999994039536
 50
539.999999844103
 51
629.999999844103
  0
LINE
  5
   5CA
  8
0
  6
CONTINUOUS
 62
     7
 10
-936.393624882402
 20
0.313016482289215
 30
0.0
 11
-936.39362465775
 21
-5.57609125480973
 31
0.0
  0
LINE
  5
   5CB
  8
0
  6
CONTINUOUS
 62
     7
 10
-891.304626464844
 20
2.56675410270691
 30
0.0
 11
-891.304626464844
 21
2.56675410270691
 31
0.0
  0
LINE
  5
   5CC
  8
0
  6
CONTINUOUS
 62
     7
 10
-891.304626464844
 20
2.56675410270691
 30
0.0
 11
-891.304626464844
 21
2.56675410270691
 31
0.0
  0
LINE
  5
   5CD
  8
0
  6
CONTINUOUS
 62
     7
 10
-891.304626464844
 20
2.56675410270691
 30
0.0
 11
-891.304626464844
 21
2.56675410270691
 31
0.0
  0
LINE
  5
   5CE
  8
0
  6
CONTINUOUS
 62
     7
 10
-891.304626464844
 20
2.56675410270691
 30
0.0
 11
-891.304626464844
 21
2.56675410270691
 31
0.0
  0
LINE
  5
   5CF
  8
0
  6
CONTINUOUS
 62
     7
 10
-891.304626464844
 20
2.56675410270691
 30
0.0
 11
-891.304626464844
 21
2.56675410270691
 31
0.0
  0
LINE
  5
   5D0
  8
0
  6
CONTINUOUS
 62
     7
 10
-891.304626464844
 20
2.56675410270691
 30
0.0
 11
-891.304626464844
 21
2.56675410270691
 31
0.0
  0
LINE
  5
   5D1
  8
0
  6
CONTINUOUS
 62
     7
 10
-891.304626464844
 20
2.56675410270691
 30
0.0
 11
-891.304626464844
 21
2.56675410270691
 31
0.0
  0
LINE
  5
   5D2
  8
0
  6
CONTINUOUS
 62
     7
 10
-962.643620916448
 20
44.5667451515912
 30
0.0
 11
-962.643620756231
 21
43.5167451694726
 31
0.0
  0
LINE
  5
   5D3
  8
0
  6
CONTINUOUS
 62
     7
 10
-963.343599542223
 20
44.5667451515912
 30
0.0
 11
-931.843635889356
 21
44.5667451515912
 31
0.0
  0
LINE
  5
   5D4
  8
0
  6
CONTINUOUS
 62
     7
 10
-963.343611344901
 20
43.5167451694726
 30
0.0
 11
-931.843615032282
 21
43.5167451694726
 31
0.0
  0
LINE
  5
   5D5
  8
0
  6
DOT
 62
     7
 10
-960.893614537564
 20
7.32675402164459
 30
0.0
 11
-960.893614537564
 21
0.326754140853882
 31
0.0
  0
LINE
  5
   5D6
  8
0
  6
DOT
 62
     7
 10
-961.99734979283
 20
7.67675401568412
 30
0.0
 11
-962.958966873263
 21
7.32675402164459
 31
0.0
  0
LINE
  5
   5D7
  8
0
  6
DOT
 62
     7
 10
-962.958967663668
 20
0.32675414085388
 30
0.0
 11
-961.997350583235
 21
-2.32458531856605E-2
 31
0.0
  0
LINE
  5
   5D8
  8
0
  6
DOT
 62
     7
 10
-963.343613705436
 20
7.32675402164459
 30
0.0
 11
-962.958966873263
 21
7.32675402164459
 31
0.0
  0
LINE
  5
   5D9
  8
0
  6
DOT
 62
     7
 10
-963.343614495841
 20
0.326754140853882
 30
0.0
 11
-962.958967663668
 21
0.326754140853882
 31
0.0
  0
LINE
  5
   5DA
  8
0
  6
DOT
 62
     7
 10
-961.99734979283
 20
7.67675401568412
 30
0.0
 11
-961.243613741199
 21
7.67675401568412
 31
0.0
  0
LINE
  5
   5DB
  8
0
  6
DOT
 62
     7
 10
-961.997350583235
 20
-2.32458531856534E-2
 30
0.0
 11
-961.243614531604
 21
-2.32458531856534E-2
 31
0.0
  0
LINE
  5
   5DC
  8
0
  6
CONTINUOUS
 62
     7
 10
-891.304626464844
 20
2.56675410270691
 30
0.0
 11
-891.304626464844
 21
2.56675410270691
 31
0.0
  0
LINE
  5
   5DD
  8
0
  6
CONTINUOUS
 62
     7
 10
-891.304626464844
 20
2.56675410270691
 30
0.0
 11
-891.304626464844
 21
2.56675410270691
 31
0.0
  0
LINE
  5
   5DE
  8
0
  6
CONTINUOUS
 62
     7
 10
-891.304626464844
 20
2.56675410270691
 30
0.0
 11
-891.304626464844
 21
2.56675410270691
 31
0.0
  0
LINE
  5
   5DF
  8
0
  6
CONTINUOUS
 62
     7
 10
-891.304626464844
 20
2.56675410270691
 30
0.0
 11
-891.304626464844
 21
2.56675410270691
 31
0.0
  0
LINE
  5
   5E0
  8
0
  6
CONTINUOUS
 62
     7
 10
-891.304626464844
 20
2.56675410270691
 30
0.0
 11
-891.304626464844
 21
2.56675410270691
 31
0.0
  0
LINE
  5
   5E1
  8
0
  6
CONTINUOUS
 62
     7
 10
-891.304626464844
 20
2.56675410270691
 30
0.0
 11
-891.304626464844
 21
2.56675410270691
 31
0.0
  0
LINE
  5
   5E2
  8
0
  6
CONTINUOUS
 62
     7
 10
-891.304626464844
 20
2.56675410270691
 30
0.0
 11
-891.304626464844
 21
2.56675410270691
 31
0.0
  0
LINE
  5
   5E3
  8
0
  6
CONTINUOUS
 62
     7
 10
-891.304626464844
 20
2.56675410270691
 30
0.0
 11
-891.304626464844
 21
2.56675410270691
 31
0.0
  0
LINE
  5
   5E4
  8
0
  6
CONTINUOUS
 62
     7
 10
-900.343628866762
 20
55.4167530958674
 30
0.0
 11
-900.343631536969
 21
37.9172806322485
 31
0.0
  0
LINE
  5
   5E5
  8
0
  6
CONTINUOUS
 62
     7
 10
-931.843617168511
 20
-11.4332242965654
 30
0.0
 11
-900.343617704953
 21
-11.4332242965654
 31
0.0
  0
LINE
  5
   5E6
  8
0
  6
CONTINUOUS
 62
     7
 10
-931.843612361994
 20
20.0667751669845
 30
0.0
 11
-900.343612898435
 21
20.0667751669845
 31
0.0
  0
LINE
  5
   5E7
  8
0
  6
CONTINUOUS
 62
     7
 10
-927.293604651959
 20
14.2119776755418
 30
0.0
 11
-926.59360466388
 21
14.2119776755418
 31
0.0
  0
LINE
  5
   5E8
  8
0
  6
CONTINUOUS
 62
     7
 10
-926.593604614106
 20
15.5167752444705
 30
0.0
 11
-926.59360533273
 21
-3.3215199909556
 31
0.0
  0
LINE
  5
   5E9
  8
0
  6
CONTINUOUS
 62
     7
 10
-927.293605320809
 20
-3.3215199909556
 30
0.0
 11
-926.59360533273
 21
-3.3215199909556
 31
0.0
  0
LINE
  5
   5EA
  8
0
  6
CONTINUOUS
 62
     7
 10
-927.293605310763
 20
-3.05817755580459
 30
0.0
 11
-926.593605322684
 21
-3.05817755580459
 31
0.0
  0
LINE
  5
   5EB
  8
0
  6
CONTINUOUS
 62
     7
 10
-927.293604602185
 20
15.5167752444705
 30
0.0
 11
-900.34361359271
 21
15.5167752444705
 31
0.0
  0
LINE
  5
   5EC
  8
0
  6
CONTINUOUS
 62
     7
 10
-926.59360465416
 20
14.4667752623519
 30
0.0
 11
-900.343613752927
 21
14.4667752623519
 31
0.0
  0
ARC
  5
   5ED
  8
0
  6
DOT
 62
     7
 10
-961.243613741199
 20
7.32675402164459
 30
0.0
 40
0.349999994039536
 50
359.999999844103
 51
449.999999844103
  0
ARC
  5
   5EE
  8
0
  6
DOT
 62
     7
 10
-961.243614531604
 20
0.326754140853882
 30
0.0
 40
0.349999994039536
 50
269.999999844103
 51
359.999999844103
  0
LINE
  5
   5EF
  8
0
  6
CONTINUOUS
 62
     7
 10
-927.293605182162
 20
0.313016482289215
 30
0.0
 11
-927.293605406814
 21
-5.57609125480973
 31
0.0
  0
LINE
  5
   5F0
  8
0
  6
CONTINUOUS
 62
     7
 10
-901.043609148117
 20
44.5667451515912
 30
0.0
 11
-901.043609308334
 21
43.5167451694726
 31
0.0
  0
LINE
  5
   5F1
  8
0
  6
CONTINUOUS
 62
     7
 10
-931.843594175208
 20
44.5667451515912
 30
0.0
 11
-900.343630522342
 21
44.5667451515912
 31
0.0
  0
LINE
  5
   5F2
  8
0
  6
CONTINUOUS
 62
     7
 10
-931.843615032283
 20
43.5167451694726
 30
0.0
 11
-900.343618719663
 21
43.5167451694726
 31
0.0
  0
LINE
  5
   5F3
  8
0
  6
DASHDOT
 62
     7
 10
-931.843594175208
 20
58.0573450168981
 30
0.0
 11
-931.843594175208
 21
-15.1870946417833
 31
0.0
  0
LINE
  5
   5F4
  8
0
  6
DASHDOT
 62
     7
 10
-952.843635531728
 20
57.6567590257978
 30
0.0
 11
-952.843635531728
 21
39.456759335742
 31
0.0
  0
LINE
  5
   5F5
  8
0
  6
DASHDOT
 62
     7
 10
-910.843594532836
 20
57.6567590257978
 30
0.0
 11
-910.843594532836
 21
39.456759335742
 31
0.0
  0
LINE
  5
   5F6
  8
0
  6
DASHDOT
 62
     7
 10
-955.22361303195
 20
-7.93323503732572
 30
0.0
 11
-937.303613337126
 21
-7.93323503732572
 31
0.0
  0
LINE
  5
   5F7
  8
0
  6
DASHDOT
 62
     7
 10
-931.843635889356
 20
-14.0232514760325
 30
0.0
 11
-931.843635889356
 21
-33.3131486174932
 31
0.0
  0
LINE
  5
   5F8
  8
0
  6
DASHDOT
 62
     7
 10
-905.383613346662
 20
-5.42967541698538
 30
0.0
 11
-905.383613346662
 21
-10.063525333206
 31
0.0
  0
LINE
  5
   5F9
  8
0
  6
DASHDOT
 62
     7
 10
-907.331473884729
 20
-7.79323489011344
 30
0.0
 11
-903.501661585851
 21
-7.79323489011344
 31
0.0
  0
LINE
  5
   5FA
  8
0
  6
CONTINUOUS
 62
     7
 10
-905.733613340702
 20
-8.14323488415297
 30
0.0
 11
-905.733613340702
 21
-8.84323487223205
 31
0.0
  0
LINE
  5
   5FB
  8
0
  6
CONTINUOUS
 62
     7
 10
-905.033613352623
 20
-8.14323488415297
 30
0.0
 11
-905.033613352623
 21
-8.84323487223205
 31
0.0
  0
LINE
  5
   5FC
  8
0
  6
CONTINUOUS
 62
     7
 10
-905.383613346662
 20
-4.4332349473339
 30
0.0
 11
-905.797551532275
 21
-4.84717313294656
 31
0.0
  0
LINE
  5
   5FD
  8
0
  6
CONTINUOUS
 62
     7
 10
-905.383613346662
 20
-4.4332349473339
 30
0.0
 11
-904.96967516105
 21
-4.84717313294656
 31
0.0
  0
ARC
  5
   5FE
  8
0
  6
CONTINUOUS
 62
     7
 10
-905.383613346662
 20
-7.79323489011344
 30
0.0
 40
2.97499994933605
 50
457.998020342877
 51
802.00197934533
  0
LINE
  5
   5FF
  8
0
  6
CONTINUOUS
 62
     7
 10
-905.033613352623
 20
-8.14323488415297
 30
0.0
 11
-904.333613364544
 21
-8.14323488415297
 31
0.0
  0
LINE
  5
   600
  8
0
  6
CONTINUOUS
 62
     7
 10
-905.033613352623
 20
-7.4432348960739
 30
0.0
 11
-904.333613364544
 21
-7.4432348960739
 31
0.0
  0
LINE
  5
   601
  8
0
  6
CONTINUOUS
 62
     7
 10
-906.433613328781
 20
-7.4432348960739
 30
0.0
 11
-905.733613340702
 21
-7.4432348960739
 31
0.0
  0
LINE
  5
   602
  8
0
  6
CONTINUOUS
 62
     7
 10
-906.433613328781
 20
-8.14323488415297
 30
0.0
 11
-905.733613340702
 21
-8.14323488415297
 31
0.0
  0
LINE
  5
   603
  8
0
  6
CONTINUOUS
 62
     7
 10
-905.733613340702
 20
-6.74323490799483
 30
0.0
 11
-905.733613340702
 21
-7.4432348960739
 31
0.0
  0
LINE
  5
   604
  8
0
  6
CONTINUOUS
 62
     7
 10
-905.033613352623
 20
-6.74323490799483
 30
0.0
 11
-905.033613352623
 21
-7.4432348960739
 31
0.0
  0
ARC
  5
   605
  8
0
  6
CONTINUOUS
 62
     7
 10
-905.383613346662
 20
-7.79323489011344
 30
0.0
 40
3.35999994277954
 50
359.999999844103
 51
539.999999844103
  0
LINE
  5
   606
  8
0
  6
CONTINUOUS
 62
     7
 10
-908.743613289442
 20
-7.79323489011344
 30
0.0
 11
-908.358613295998
 21
-7.79323489011344
 31
0.0
  0
LINE
  5
   607
  8
0
  6
CONTINUOUS
 62
     7
 10
-902.408613397326
 20
-7.79323489011344
 30
0.0
 11
-902.023613403883
 21
-7.79323489011344
 31
0.0
  0
ARC
  5
   608
  8
0
  6
CONTINUOUS
 62
     7
 10
-905.383613346662
 20
-6.74323490799483
 30
0.0
 40
0.349999994039537
 50
359.999999844103
 51
539.999999844103
  0
ARC
  5
   609
  8
0
  6
CONTINUOUS
 62
     7
 10
-906.433613328781
 20
-7.79323489011344
 30
0.0
 40
0.349999994039536
 50
449.999999844103
 51
629.999999844103
  0
ARC
  5
   60A
  8
0
  6
CONTINUOUS
 62
     7
 10
-904.333613364544
 20
-7.79323489011344
 30
0.0
 40
0.349999994039536
 50
269.999999844103
 51
449.999999844103
  0
ARC
  5
   60B
  8
0
  6
CONTINUOUS
 62
     7
 10
-905.383613346662
 20
-8.84323487223205
 30
0.0
 40
0.349999994039536
 50
539.999999844103
 51
719.999999844103
  0
LINE
  5
   60C
  8
0
  6
CONTINUOUS
 62
     7
 10
-902.654518540229
 20
-5.83322439193284
 30
0.0
 11
-900.343638212765
 21
-5.83322439193284
 31
0.0
  0
LINE
  5
   60D
  8
0
  6
CONTINUOUS
 62
     7
 10
-902.149192150198
 20
-6.88322437405144
 30
0.0
 11
-900.343638372982
 21
-6.88322437405144
 31
0.0
  0
LINE
  5
   60E
  8
0
  6
CONTINUOUS
 62
     7
 10
-905.383613346662
 20
-3.20807030247584
 30
0.0
 11
-905.383613346662
 21
-4.4332349473339
 31
0.0
  0
LINE
  5
   60F
  8
0
  6
CONTINUOUS
 62
     7
 10
-910.057281861925
 20
-7.79323489011344
 30
0.0
 11
-908.743613289442
 21
-7.79323489011344
 31
0.0
  0
LINE
  5
   610
  8
0
  6
CONTINUOUS
 62
     7
 10
-902.023613403883
 20
-7.79323489011344
 30
0.0
 11
-900.81430749662
 21
-7.79323489011344
 31
0.0
  0
LINE
  5
   611
  8
0
  6
DASHDOT
 62
     7
 10
-965.821852609055
 20
4.31677543520538
 30
0.0
 11
-896.145470591767
 21
4.31677543520538
 31
0.0
  0
LINE
  5
   612
  8
0
  6
CONTINUOUS
 62
     7
 10
-936.393624882402
 20
0.313016482289215
 30
0.0
 11
-927.293605182162
 21
0.313016482289215
 31
0.0
  0
LINE
  5
   613
  8
0
  6
CONTINUOUS
 62
     7
 10
-936.043624728257
 20
-3.53404076193243
 30
0.0
 11
-927.643605336307
 21
-3.53404076193243
 31
0.0
  0
LINE
  5
   614
  8
0
  6
CONTINUOUS
 62
     7
 10
-936.043624663711
 20
-5.92609123549782
 30
0.0
 11
-927.643605400853
 21
-5.92609123549782
 31
0.0
  0
LINE
  5
   615
  8
0
  6
CONTINUOUS
 62
     7
 10
-927.293605416623
 20
-5.83322439193283
 30
0.0
 11
-908.112708153095
 21
-5.83322439193283
 31
0.0
  0
ARC
  5
   616
  8
0
  6
CONTINUOUS
 62
     7
 10
-936.043624663711
 20
-5.57609124145828
 30
0.0
 40
0.349999994039536
 50
540.000002029765
 51
629.999999844103
  0
ARC
  5
   617
  8
0
  6
CONTINUOUS
 62
     7
 10
-927.643605400853
 20
-5.57609124145828
 30
0.0
 40
0.349999994039536
 50
269.999999844103
 51
359.999997658442
  0
ARC
  5
   618
  8
0
  6
CONTINUOUS
 62
     7
 10
-927.643605336307
 20
-3.88404075597197
 30
0.0
 40
0.349999994039536
 50
359.999997658442
 51
449.999999844103
  0
ARC
  5
   619
  8
0
  6
CONTINUOUS
 62
     7
 10
-936.043624728257
 20
-3.88404075597197
 30
0.0
 40
0.349999994039536
 50
449.999999844103
 51
540.000002029765
  0
LINE
  5
   61A
  8
0
  6
CONTINUOUS
 62
     7
 10
-931.843617168511
 20
-11.4332242965654
 30
0.0
 11
-900.343617704953
 21
-11.4332242965654
 31
0.0
  0
LINE
  5
   61B
  8
0
  6
CONTINUOUS
 62
     7
 10
-931.843612361994
 20
20.0667751669845
 30
0.0
 11
-900.343612898435
 21
20.0667751669845
 31
0.0
  0
LINE
  5
   61C
  8
0
  6
DASHDOT
 62
     7
 10
-970.101496966765
 20
4.31677543520538
 30
0.0
 11
-894.745470615609
 21
4.31677543520538
 31
0.0
  0
LINE
  5
   61D
  8
0
  6
CONTINUOUS
 62
     7
 10
-941.481709960919
 20
12.9660780767331
 30
0.0
 11
-940.95670996986
 21
12.9660780767331
 31
0.0
  0
LINE
  5
   61E
  8
0
  6
CONTINUOUS
 62
     7
 10
-941.481709960919
 20
9.81607813037729
 30
0.0
 11
-940.95670996986
 21
9.81607813037729
 31
0.0
  0
CIRCLE
  5
   61F
  8
0
  6
CONTINUOUS
 62
     7
 10
-941.21920996539
 20
-0.33392169676923
 30
0.0
 40
1.57499997317791
  0
CIRCLE
  5
   620
  8
0
  6
CONTINUOUS
 62
     7
 10
-941.21920996539
 20
-0.33392169676923
 30
0.0
 40
1.04999998211861
  0
LINE
  5
   621
  8
0
  6
CONTINUOUS
 62
     7
 10
-941.481709960919
 20
12.9660780767331
 30
0.0
 11
-941.481709960919
 21
9.81607813037729
 31
0.0
  0
LINE
  5
   622
  8
0
  6
CONTINUOUS
 62
     7
 10
-940.95670996986
 20
12.9660780767331
 30
0.0
 11
-940.95670996986
 21
9.81607813037729
 31
0.0
  0
LINE
  5
   623
  8
0
  6
CONTINUOUS
 62
     7
 10
-921.49671371923
 20
1.01357828028298
 30
0.0
 11
-921.339213721913
 21
1.01357828028298
 31
0.0
  0
LINE
  5
   624
  8
0
  6
CONTINUOUS
 62
     7
 10
-921.951713711482
 20
-1.68142167382144
 30
0.0
 11
-921.67171371625
 21
-1.68142167382144
 31
0.0
  0
LINE
  5
   625
  8
0
  6
CONTINUOUS
 62
     7
 10
-922.371713704329
 20
-0.596421692298866
 30
0.0
 11
-922.371713704329
 21
-0.771421689318632
 31
0.0
  0
ARC
  5
   626
  8
0
  6
CONTINUOUS
 62
     7
 10
-923.281713688832
 20
-0.596421692298885
 30
0.0
 40
0.909999984502793
 50
359.999999844103
 51
539.999999844103
  0
ARC
  5
   627
  8
0
  6
CONTINUOUS
 62
     7
 10
-923.281713688832
 20
-0.77142168931865
 30
0.0
 40
0.909999984502792
 50
539.999999844103
 51
719.999999844103
  0
ARC
  5
   628
  8
0
  6
CONTINUOUS
 62
     7
 10
-923.281713688832
 20
-0.596421692298885
 30
0.0
 40
0.629999989271164
 50
359.999999844103
 51
539.999999844103
  0
ARC
  5
   629
  8
0
  6
CONTINUOUS
 62
     7
 10
-923.281713688832
 20
-0.77142168931865
 30
0.0
 40
0.629999989271163
 50
539.999999844103
 51
719.999999844103
  0
LINE
  5
   62A
  8
0
  6
CONTINUOUS
 62
     7
 10
-922.651713699561
 20
-0.596421692298867
 30
0.0
 11
-922.651713699561
 21
-0.771421689318633
 31
0.0
  0
LINE
  5
   62B
  8
0
  6
CONTINUOUS
 62
     7
 10
-922.284213705819
 20
0.17357829458811
 30
0.0
 11
-922.284213705819
 21
-0.106421700643514
 31
0.0
  0
LINE
  5
   62C
  8
0
  6
CONTINUOUS
 62
     7
 10
-922.284213705819
 20
-0.106421700643533
 30
0.0
 11
-921.951713711482
 21
-0.106421700643533
 31
0.0
  0
LINE
  5
   62D
  8
0
  6
CONTINUOUS
 62
     7
 10
-921.339213721913
 20
0.17357829458811
 30
0.0
 11
-921.339213721913
 21
-0.106421700643514
 31
0.0
  0
LINE
  5
   62E
  8
0
  6
CONTINUOUS
 62
     7
 10
-922.284213705819
 20
0.173578294588092
 30
0.0
 11
-921.951713711482
 21
0.173578294588092
 31
0.0
  0
LINE
  5
   62F
  8
0
  6
CONTINUOUS
 62
     7
 10
-921.951713711482
 20
-0.106421700643514
 30
0.0
 11
-921.951713711482
 21
-1.68142167382142
 31
0.0
  0
LINE
  5
   630
  8
0
  6
CONTINUOUS
 62
     7
 10
-921.67171371625
 20
-0.106421700643516
 30
0.0
 11
-921.67171371625
 21
-1.68142167382143
 31
0.0
  0
LINE
  5
   631
  8
0
  6
CONTINUOUS
 62
     7
 10
-921.67171371625
 20
-0.106421700643533
 30
0.0
 11
-921.339213721913
 21
-0.106421700643533
 31
0.0
  0
LINE
  5
   632
  8
0
  6
CONTINUOUS
 62
     7
 10
-921.67171371625
 20
0.173578294588092
 30
0.0
 11
-921.339213721913
 21
0.173578294588092
 31
0.0
  0
LINE
  5
   633
  8
0
  6
CONTINUOUS
 62
     7
 10
-921.951713711482
 20
0.558578288031602
 30
0.0
 11
-921.951713711482
 21
0.17357829458811
 31
0.0
  0
LINE
  5
   634
  8
0
  6
CONTINUOUS
 62
     7
 10
-921.67171371625
 20
0.558578288031601
 30
0.0
 11
-921.67171371625
 21
0.173578294588109
 31
0.0
  0
ARC
  5
   635
  8
0
  6
CONTINUOUS
 62
     7
 10
-921.49671371923
 20
0.55857828803158
 30
0.0
 40
0.454999992251396
 50
449.999999844103
 51
539.999999844103
  0
ARC
  5
   636
  8
0
  6
CONTINUOUS
 62
     7
 10
-921.49671371923
 20
0.55857828803158
 30
0.0
 40
0.174999997019768
 50
449.999999844103
 51
539.999999844103
  0
LINE
  5
   637
  8
0
  6
CONTINUOUS
 62
     7
 10
-921.339213721913
 20
1.013578280283
 30
0.0
 11
-921.339213721913
 21
0.733578285051369
 31
0.0
  0
LINE
  5
   638
  8
0
  6
CONTINUOUS
 62
     7
 10
-921.49671371923
 20
0.73357828505135
 30
0.0
 11
-921.339213721913
 21
0.73357828505135
 31
0.0
  0
LINE
  5
   639
  8
0
  6
CONTINUOUS
 62
     7
 10
-920.831713730555
 20
-1.68142167382144
 30
0.0
 11
-920.551713735324
 21
-1.68142167382144
 31
0.0
  0
LINE
  5
   63A
  8
0
  6
CONTINUOUS
 62
     7
 10
-921.164213724893
 20
0.173578294588109
 30
0.0
 11
-921.164213724893
 21
-0.106421700643516
 31
0.0
  0
LINE
  5
   63B
  8
0
  6
CONTINUOUS
 62
     7
 10
-921.164213724893
 20
-0.106421700643533
 30
0.0
 11
-920.831713730555
 21
-0.106421700643533
 31
0.0
  0
LINE
  5
   63C
  8
0
  6
CONTINUOUS
 62
     7
 10
-920.219213740986
 20
0.173578294588109
 30
0.0
 11
-920.219213740986
 21
-0.106421700643516
 31
0.0
  0
LINE
  5
   63D
  8
0
  6
CONTINUOUS
 62
     7
 10
-921.164213724893
 20
0.173578294588092
 30
0.0
 11
-920.831713730555
 21
0.173578294588092
 31
0.0
  0
LINE
  5
   63E
  8
0
  6
CONTINUOUS
 62
     7
 10
-920.831713730555
 20
-0.106421700643514
 30
0.0
 11
-920.831713730555
 21
-1.68142167382142
 31
0.0
  0
LINE
  5
   63F
  8
0
  6
CONTINUOUS
 62
     7
 10
-920.551713735324
 20
-0.106421700643514
 30
0.0
 11
-920.551713735324
 21
-1.68142167382142
 31
0.0
  0
LINE
  5
   640
  8
0
  6
CONTINUOUS
 62
     7
 10
-920.551713735324
 20
-0.106421700643533
 30
0.0
 11
-920.219213740986
 21
-0.106421700643533
 31
0.0
  0
LINE
  5
   641
  8
0
  6
CONTINUOUS
 62
     7
 10
-920.551713735324
 20
0.173578294588092
 30
0.0
 11
-920.219213740986
 21
0.173578294588092
 31
0.0
  0
LINE
  5
   642
  8
0
  6
CONTINUOUS
 62
     7
 10
-920.831713730555
 20
0.558578288031602
 30
0.0
 11
-920.831713730555
 21
0.17357829458811
 31
0.0
  0
LINE
  5
   643
  8
0
  6
CONTINUOUS
 62
     7
 10
-920.551713735324
 20
0.558578288031602
 30
0.0
 11
-920.551713735324
 21
0.17357829458811
 31
0.0
  0
ARC
  5
   644
  8
0
  6
CONTINUOUS
 62
     7
 10
-920.376713738304
 20
0.558578288031577
 30
0.0
 40
0.454999992251396
 50
449.999999844103
 51
539.999999844103
  0
ARC
  5
   645
  8
0
  6
CONTINUOUS
 62
     7
 10
-920.376713738304
 20
0.558578288031577
 30
0.0
 40
0.174999997019768
 50
449.999999844103
 51
539.999999844103
  0
LINE
  5
   646
  8
0
  6
CONTINUOUS
 62
     7
 10
-920.219213740986
 20
1.013578280283
 30
0.0
 11
-920.219213740986
 21
0.733578285051368
 31
0.0
  0
LINE
  5
   647
  8
0
  6
CONTINUOUS
 62
     7
 10
-922.091713709098
 20
10.3935781205425
 30
0.0
 11
-921.811713713866
 21
10.3935781205425
 31
0.0
  0
ARC
  5
   648
  8
0
  6
CONTINUOUS
 62
     7
 10
-923.281713688832
 20
11.4785781020651
 30
0.0
 40
0.909999984502793
 50
359.999999844103
 51
539.999999844103
  0
ARC
  5
   649
  8
0
  6
CONTINUOUS
 62
     7
 10
-923.281713688832
 20
11.4785781020651
 30
0.0
 40
0.629999989271164
 50
359.999999844103
 51
539.999999844103
  0
ARC
  5
   64A
  8
0
  6
CONTINUOUS
 62
     7
 10
-923.281713688832
 20
11.3035781050453
 30
0.0
 40
0.909999984502792
 50
539.999999844103
 51
719.999999844103
  0
ARC
  5
   64B
  8
0
  6
CONTINUOUS
 62
     7
 10
-923.281713688832
 20
11.3035781050453
 30
0.0
 40
0.629999989271163
 50
539.999999844103
 51
719.999999844103
  0
LINE
  5
   64C
  8
0
  6
CONTINUOUS
 62
     7
 10
-922.091713709098
 20
12.3885780865679
 30
0.0
 11
-922.091713709098
 21
10.3935781205425
 31
0.0
  0
LINE
  5
   64D
  8
0
  6
CONTINUOUS
 62
     7
 10
-921.811713713866
 20
11.6185780996809
 30
0.0
 11
-921.811713713866
 21
10.3935781205425
 31
0.0
  0
LINE
  5
   64E
  8
0
  6
CONTINUOUS
 62
     7
 10
-920.831713730555
 20
11.6185780996809
 30
0.0
 11
-920.831713730555
 21
10.3935781205425
 31
0.0
  0
LINE
  5
   64F
  8
0
  6
CONTINUOUS
 62
     7
 10
-920.551713735324
 20
11.6885780984888
 30
0.0
 11
-920.551713735324
 21
10.3935781205425
 31
0.0
  0
LINE
  5
   650
  8
0
  6
CONTINUOUS
 62
     7
 10
-922.091713709098
 20
12.3885780865679
 30
0.0
 11
-921.811713713866
 21
12.3885780865679
 31
0.0
  0
ARC
  5
   651
  8
0
  6
CONTINUOUS
 62
     7
 10
-921.321713722211
 20
11.6185780996809
 30
0.0
 40
0.489999991655349
 50
359.999999844103
 51
539.999999844103
  0
LINE
  5
   652
  8
0
  6
CONTINUOUS
 62
     7
 10
-921.811713713866
 20
12.3885780865679
 30
0.0
 11
-921.811713713866
 21
12.1085780913363
 31
0.0
  0
ARC
  5
   653
  8
0
  6
CONTINUOUS
 62
     7
 10
-921.251713723403
 20
11.6885780984888
 30
0.0
 40
0.699999988079071
 50
359.999999844103
 51
503.130102198259
  0
LINE
  5
   654
  8
0
  6
CONTINUOUS
 62
     7
 10
-920.831713730555
 20
10.3935781205425
 30
0.0
 11
-920.551713735323
 21
10.3935781205425
 31
0.0
  0
LINE
  5
   655
  8
0
  6
CONTINUOUS
 62
     7
 10
-921.763886358812
 20
19.1281516739942
 30
0.0
 11
-921.927708541854
 21
19.0992658361718
 31
0.0
  0
LINE
  5
   656
  8
0
  6
CONTINUOUS
 62
     7
 10
-921.927698423432
 20
19.0992713350903
 30
0.0
 11
-922.071760451199
 21
19.0160982162856
 31
0.0
  0
LINE
  5
   657
  8
0
  6
CONTINUOUS
 62
     7
 10
-922.071766377191
 20
19.0160921431268
 30
0.0
 11
-922.178690062866
 21
18.8886636474555
 31
0.0
  0
LINE
  5
   658
  8
0
  6
CONTINUOUS
 62
     7
 10
-922.178688067324
 20
18.8886644275782
 30
0.0
 11
-922.235581221194
 21
18.7323501082708
 31
0.0
  0
LINE
  5
   659
  8
0
  6
CONTINUOUS
 62
     7
 10
-922.235586307448
 20
18.7323503926563
 30
0.0
 11
-922.235586307448
 21
18.5660041316037
 31
0.0
  0
LINE
  5
   65A
  8
0
  6
CONTINUOUS
 62
     7
 10
-922.235581684789
 20
18.5660058265279
 30
0.0
 11
-922.17868853092
 21
18.4096915072204
 31
0.0
  0
LINE
  5
   65B
  8
0
  6
CONTINUOUS
 62
     7
 10
-922.178691022861
 20
18.409690840013
 30
0.0
 11
-922.071767337187
 21
18.2822623443417
 31
0.0
  0
LINE
  5
   65C
  8
0
  6
CONTINUOUS
 62
     7
 10
-922.071758116368
 20
18.2822591240709
 30
0.0
 11
-921.9276960886
 21
18.1990860052662
 31
0.0
  0
LINE
  5
   65D
  8
0
  6
CONTINUOUS
 62
     7
 10
-921.927707403187
 20
18.1990880545964
 30
0.0
 11
-921.763885220144
 21
18.170202216774
 31
0.0
  0
LINE
  5
   65E
  8
0
  6
CONTINUOUS
 62
     7
 10
-921.763885265676
 20
18.1702023557361
 30
0.0
 11
-921.603288802347
 21
18.1702023557361
 31
0.0
  0
LINE
  5
   65F
  8
0
  6
CONTINUOUS
 62
     7
 10
-921.603280257555
 20
18.1702057621646
 30
0.0
 11
-921.542007838658
 21
18.1502960981748
 31
0.0
  0
LINE
  5
   660
  8
0
  6
CONTINUOUS
 62
     7
 10
-921.542008514329
 20
18.1502959376318
 30
0.0
 11
-921.5041384958
 21
18.0981722554789
 31
0.0
  0
LINE
  5
   661
  8
0
  6
CONTINUOUS
 62
     7
 10
-921.504146347981
 20
18.0981689993426
 30
0.0
 11
-921.504146347981
 21
18.0337406232883
 31
0.0
  0
LINE
  5
   662
  8
0
  6
CONTINUOUS
 62
     7
 10
-921.504141294794
 20
18.0337429202816
 30
0.0
 11
-921.542011313322
 21
17.9816192381287
 31
0.0
  0
LINE
  5
   663
  8
0
  6
CONTINUOUS
 62
     7
 10
-921.542009562411
 20
17.9816192396008
 30
0.0
 11
-921.603281981307
 21
17.961709575611
 31
0.0
  0
LINE
  5
   664
  8
0
  6
CONTINUOUS
 62
     7
 10
-922.18651175384
 20
17.9617072668948
 30
0.0
 11
-921.603288802347
 21
17.9617072668948
 31
0.0
  0
LINE
  5
   665
  8
0
  6
CONTINUOUS
 62
     7
 10
-922.18651175384
 20
17.9617072668948
 30
0.0
 11
-922.18651175384
 21
17.5785276088085
 31
0.0
  0
LINE
  5
   666
  8
0
  6
CONTINUOUS
 62
     7
 10
-922.18651175384
 20
17.5785276088085
 30
0.0
 11
-921.603288802347
 21
17.5785276088085
 31
0.0
  0
LINE
  5
   667
  8
0
  6
CONTINUOUS
 62
     7
 10
-921.436579063922
 20
17.6079236613334
 30
0.0
 11
-921.603285136799
 21
17.5785284659444
 31
0.0
  0
LINE
  5
   668
  8
0
  6
CONTINUOUS
 62
     7
 10
-921.289976345929
 20
17.6925655185247
 30
0.0
 11
-921.43658052067
 21
17.6079243840286
 31
0.0
  0
LINE
  5
   669
  8
0
  6
CONTINUOUS
 62
     7
 10
-921.181156107114
 20
17.822243656281
 30
0.0
 11
-921.289970344212
 21
17.6925664669145
 31
0.0
  0
LINE
  5
   66A
  8
0
  6
CONTINUOUS
 62
     7
 10
-921.123264222331
 20
17.9813121307057
 30
0.0
 11
-921.181161409901
 21
17.822239378359
 31
0.0
  0
LINE
  5
   66B
  8
0
  6
CONTINUOUS
 62
     7
 10
-921.123267143041
 20
18.150595765799
 30
0.0
 11
-921.123267143041
 21
17.9813138568319
 31
0.0
  0
LINE
  5
   66C
  8
0
  6
CONTINUOUS
 62
     7
 10
-921.181161542752
 20
18.3096695062912
 30
0.0
 11
-921.123264355181
 21
18.1505967539445
 31
0.0
  0
LINE
  5
   66D
  8
0
  6
CONTINUOUS
 62
     7
 10
-921.289973936251
 20
18.4393501481956
 30
0.0
 11
-921.181159691856
 21
18.309672606388
 31
0.0
  0
LINE
  5
   66E
  8
0
  6
CONTINUOUS
 62
     7
 10
-921.4365835601
 20
18.523987490489
 30
0.0
 11
-921.289979391912
 21
18.4393466935851
 31
0.0
  0
LINE
  5
   66F
  8
0
  6
CONTINUOUS
 62
     7
 10
-921.603280203654
 20
18.5533813644616
 30
0.0
 11
-921.436574133178
 21
18.5239858359494
 31
0.0
  0
LINE
  5
   670
  8
0
  6
CONTINUOUS
 62
     7
 10
-921.763885265676
 20
18.5533823476085
 30
0.0
 11
-921.603288802347
 21
18.5533823476085
 31
0.0
  0
LINE
  5
   671
  8
0
  6
CONTINUOUS
 62
     7
 10
-921.820190397493
 20
18.5716791445148
 30
0.0
 11
-921.763879364111
 21
18.5533840005243
 31
0.0
  0
LINE
  5
   672
  8
0
  6
CONTINUOUS
 62
     7
 10
-921.854993435892
 20
18.6195741477376
 30
0.0
 11
-921.82019424213
 21
18.5716765218802
 31
0.0
  0
LINE
  5
   673
  8
0
  6
CONTINUOUS
 62
     7
 10
-921.854995493617
 20
18.6787794077746
 30
0.0
 11
-921.854995493617
 21
18.6195751164855
 31
0.0
  0
LINE
  5
   674
  8
0
  6
CONTINUOUS
 62
     7
 10
-921.820189073374
 20
18.7266754177134
 30
0.0
 11
-921.854988267136
 21
18.678777791856
 31
0.0
  0
LINE
  5
   675
  8
0
  6
CONTINUOUS
 62
     7
 10
-921.763877190406
 20
18.7449747940144
 30
0.0
 11
-921.820188223788
 21
18.7266796500238
 31
0.0
  0
LINE
  5
   676
  8
0
  6
CONTINUOUS
 62
     7
 10
-921.763885265676
 20
18.7449721766516
 30
0.0
 11
-921.172213522823
 21
18.7449721766516
 31
0.0
  0
LINE
  5
   677
  8
0
  6
CONTINUOUS
 62
     7
 10
-921.172213522823
 20
19.1281521685239
 30
0.0
 11
-921.172213522823
 21
18.7449721766516
 31
0.0
  0
LINE
  5
   678
  8
0
  6
CONTINUOUS
 62
     7
 10
-921.763885265676
 20
19.1281521685239
 30
0.0
 11
-921.172213522823
 21
19.1281521685239
 31
0.0
  0
LINE
  5
   679
  8
0
  6
CONTINUOUS
 62
     7
 10
-921.115865104593
 20
17.5785276088085
 30
0.0
 11
-920.716795897522
 21
17.5785276088085
 31
0.0
  0
LINE
  5
   67A
  8
0
  6
CONTINUOUS
 62
     7
 10
-920.626632133136
 20
17.8884533594096
 30
0.0
 11
-920.716791735785
 21
17.5785287176757
 31
0.0
  0
LINE
  5
   67B
  8
0
  6
CONTINUOUS
 62
     7
 10
-920.626636292124
 20
17.8884522537228
 30
0.0
 11
-920.196335396131
 21
17.8884522537228
 31
0.0
  0
LINE
  5
   67C
  8
0
  6
CONTINUOUS
 62
     7
 10
-920.196332096062
 20
17.8884530799921
 30
0.0
 11
-920.106172493413
 21
17.5785284382582
 31
0.0
  0
LINE
  5
   67D
  8
0
  6
CONTINUOUS
 62
     7
 10
-920.106175790733
 20
17.5785276088085
 30
0.0
 11
-919.707111924238
 21
17.5785276088085
 31
0.0
  0
LINE
  5
   67E
  8
0
  6
CONTINUOUS
 62
     7
 10
-920.15791148532
 20
19.128152405352
 30
0.0
 11
-919.707107999493
 21
17.578527453065
 31
0.0
  0
LINE
  5
   67F
  8
0
  6
CONTINUOUS
 62
     7
 10
-920.665061737026
 20
19.1281521685239
 30
0.0
 11
-920.157915291805
 21
19.1281521685239
 31
0.0
  0
LINE
  5
   680
  8
0
  6
CONTINUOUS
 62
     7
 10
-920.665059590373
 20
19.128146265419
 30
0.0
 11
-921.1158630762
 21
17.5785213131321
 31
0.0
  0
LINE
  5
   681
  8
0
  6
CONTINUOUS
 62
     7
 10
-920.411482776765
 20
18.6280318058862
 30
0.0
 11
-920.307806120491
 21
18.2716322920572
 31
0.0
  0
LINE
  5
   682
  8
0
  6
CONTINUOUS
 62
     7
 10
-920.515167788162
 20
18.2716322455951
 30
0.0
 11
-920.307809240668
 21
18.2716322455951
 31
0.0
  0
LINE
  5
   683
  8
0
  6
CONTINUOUS
 62
     7
 10
-920.411479598264
 20
18.6280321548164
 30
0.0
 11
-920.515161534519
 21
18.2716328370994
 31
0.0
  0
LINE
  5
   684
  8
0
  6
CONTINUOUS
 62
     7
 10
-918.399952676131
 20
18.9163211334324
 30
0.0
 11
-918.262902817571
 21
18.7435378032593
 31
0.0
  0
LINE
  5
   685
  8
0
  6
CONTINUOUS
 62
     7
 10
-918.580120182454
 20
19.043492573353
 30
0.0
 11
-918.399950518901
 21
18.9163181124456
 31
0.0
  0
LINE
  5
   686
  8
0
  6
CONTINUOUS
 62
     7
 10
-918.788827130119
 20
19.1147520794192
 30
0.0
 11
-918.580122759237
 21
19.0434897759466
 31
0.0
  0
LINE
  5
   687
  8
0
  6
CONTINUOUS
 62
     7
 10
-919.009152144533
 20
19.1243303724231
 30
0.0
 11
-918.788826672435
 21
19.1147530503054
 31
0.0
  0
LINE
  5
   688
  8
0
  6
CONTINUOUS
 62
     7
 10
-919.009156057876
 20
19.1243307746039
 30
0.0
 11
-919.22325975279
 21
19.0714470579431
 31
0.0
  0
LINE
  5
   689
  8
0
  6
CONTINUOUS
 62
     7
 10
-919.223256394532
 20
19.0714495342942
 30
0.0
 11
-919.413781434999
 21
18.9603889183376
 31
0.0
  0
LINE
  5
   68A
  8
0
  6
CONTINUOUS
 62
     7
 10
-919.413784407026
 20
18.9603855486585
 30
0.0
 11
-919.565307229991
 21
18.8001455702954
 31
0.0
  0
LINE
  5
   68B
  8
0
  6
CONTINUOUS
 62
     7
 10
-919.565303548472
 20
18.8001487171327
 30
0.0
 11
-919.665540809478
 21
18.6037113170656
 31
0.0
  0
LINE
  5
   68C
  8
0
  6
CONTINUOUS
 62
     7
 10
-919.665542554814
 20
18.6037080693247
 30
0.0
 11
-919.706376599515
 21
18.3869871525705
 31
0.0
  0
LINE
  5
   68D
  8
0
  6
CONTINUOUS
 62
     7
 10
-919.706376164224
 20
18.3869884741437
 30
0.0
 11
-919.684501175064
 21
18.1675415357548
 31
0.0
  0
LINE
  5
   68E
  8
0
  6
CONTINUOUS
 62
     7
 10
-919.684502874777
 20
18.1675420508341
 30
0.0
 11
-919.601686571664
 21
17.9631475336376
 31
0.0
  0
LINE
  5
   68F
  8
0
  6
CONTINUOUS
 62
     7
 10
-919.601686163552
 20
17.963149313229
 30
0.0
 11
-919.478463047768
 21
17.8037614824497
 31
0.0
  0
LINE
  5
   690
  8
0
  6
CONTINUOUS
 62
     7
 10
-919.478460934041
 20
17.8037578293568
 30
0.0
 11
-919.318307739696
 21
17.6815277269619
 31
0.0
  0
LINE
  5
   691
  8
0
  6
CONTINUOUS
 62
     7
 10
-919.318311006299
 20
17.6815294968294
 30
0.0
 11
-919.132058418906
 21
17.6047213331315
 31
0.0
  0
LINE
  5
   692
  8
0
  6
CONTINUOUS
 62
     7
 10
-919.132056429508
 20
17.6047204017065
 30
0.0
 11
-918.932297525888
 21
17.5785275474089
 31
0.0
  0
LINE
  5
   693
  8
0
  6
CONTINUOUS
 62
     7
 10
-918.732535743134
 20
17.6047211502607
 30
0.0
 11
-918.932294646754
 21
17.5785282959631
 31
0.0
  0
LINE
  5
   694
  8
0
  6
CONTINUOUS
 62
     7
 10
-918.546289508991
 20
17.6815286804697
 30
0.0
 11
-918.732542096384
 21
17.6047205167718
 31
0.0
  0
LINE
  5
   695
  8
0
  6
CONTINUOUS
 62
     7
 10
-918.386130946607
 20
17.8037628178015
 30
0.0
 11
-918.546284140952
 21
17.6815327154065
 31
0.0
  0
LINE
  5
   696
  8
0
  6
CONTINUOUS
 62
     7
 10
-918.262903816963
 20
17.9631470108835
 30
0.0
 11
-918.386132268139
 21
17.8037591907942
 31
0.0
  0
LINE
  5
   697
  8
0
  6
CONTINUOUS
 62
     7
 10
-918.593948992817
 20
18.1561165236498
 30
0.0
 11
-918.262902739585
 21
17.9631481848411
 31
0.0
  0
LINE
  5
   698
  8
0
  6
CONTINUOUS
 62
     7
 10
-918.593954955346
 20
18.1561127074881
 30
0.0
 11
-918.681396213279
 21
18.0526330292753
 31
0.0
  0
LINE
  5
   699
  8
0
  6
CONTINUOUS
 62
     7
 10
-918.681394568084
 20
18.0526358556731
 30
0.0
 11
-918.798865902328
 21
17.9851409750487
 31
0.0
  0
LINE
  5
   69A
  8
0
  6
CONTINUOUS
 62
     7
 10
-918.798862690518
 20
17.9851404635196
 30
0.0
 11
-918.932297000461
 21
17.9617073513156
 31
0.0
  0
LINE
  5
   69B
  8
0
  6
CONTINUOUS
 62
     7
 10
-919.065737954396
 20
17.9851406134506
 30
0.0
 11
-918.932303644453
 21
17.9617075012465
 31
0.0
  0
LINE
  5
   69C
  8
0
  6
CONTINUOUS
 62
     7
 10
-919.183206780662
 20
18.0526367774618
 30
0.0
 11
-919.065735446418
 21
17.9851418968374
 31
0.0
  0
LINE
  5
   69D
  8
0
  6
CONTINUOUS
 62
     7
 10
-919.27064759171
 20
18.1561171133499
 30
0.0
 11
-919.183206333777
 21
18.0526374351371
 31
0.0
  0
LINE
  5
   69E
  8
0
  6
CONTINUOUS
 62
     7
 10
-919.320363907017
 20
18.3006085477777
 30
0.0
 11
-919.270643143777
 21
18.1561162533181
 31
0.0
  0
LINE
  5
   69F
  8
0
  6
CONTINUOUS
 62
     7
 10
-919.311000256789
 20
18.4531260981616
 30
0.0
 11
-919.320362287753
 21
18.3006055714851
 31
0.0
  0
LINE
  5
   6A0
  8
0
  6
CONTINUOUS
 62
     7
 10
-919.243986924433
 20
18.5904577857556
 30
0.0
 11
-919.311000476392
 21
18.4531292042983
 31
0.0
  0
LINE
  5
   6A1
  8
0
  6
CONTINUOUS
 62
     7
 10
-919.129522178303
 20
18.691687837592
 30
0.0
 11
-919.243992095014
 21
18.5904578703232
 31
0.0
  0
LINE
  5
   6A2
  8
0
  6
CONTINUOUS
 62
     7
 10
-918.985031802564
 20
18.7414064374244
 30
0.0
 11
-919.129521088426
 21
18.6916870140397
 31
0.0
  0
LINE
  5
   6A3
  8
0
  6
CONTINUOUS
 62
     7
 10
-918.985034330026
 20
18.7414050076933
 30
0.0
 11
-918.832512771008
 21
18.7320453120121
 31
0.0
  0
LINE
  5
   6A4
  8
0
  6
CONTINUOUS
 62
     7
 10
-918.832508574938
 20
18.7320440186552
 30
0.0
 11
-918.695180984506
 21
18.6650294589322
 31
0.0
  0
LINE
  5
   6A5
  8
0
  6
CONTINUOUS
 62
     7
 10
-918.695179146481
 20
18.6650376179931
 30
0.0
 11
-918.593948519142
 21
18.5505710447216
 31
0.0
  0
LINE
  5
   6A6
  8
0
  6
CONTINUOUS
 62
     7
 10
-918.262900262985
 20
18.7435378976616
 30
0.0
 11
-918.593946516217
 21
18.5505695588528
 31
0.0
  0
LINE
  5
   6A7
  8
0
  6
CONTINUOUS
 62
     7
 10
-918.122034283995
 20
19.1281518347379
 30
0.0
 11
-918.122034283995
 21
17.5785276088085
 31
0.0
  0
LINE
  5
   6A8
  8
0
  6
CONTINUOUS
 62
     7
 10
-918.122034283995
 20
17.5785276088085
 30
0.0
 11
-917.107736052978
 21
17.5785276088085
 31
0.0
  0
LINE
  5
   6A9
  8
0
  6
CONTINUOUS
 62
     7
 10
-917.107736052978
 20
17.9617072668948
 30
0.0
 11
-917.107736052978
 21
17.5785276088085
 31
0.0
  0
LINE
  5
   6AA
  8
0
  6
CONTINUOUS
 62
     7
 10
-917.738853290765
 20
17.9617072668948
 30
0.0
 11
-917.107736052978
 21
17.9617072668948
 31
0.0
  0
LINE
  5
   6AB
  8
0
  6
CONTINUOUS
 62
     7
 10
-917.738853290765
 20
18.1617498927301
 30
0.0
 11
-917.738853290765
 21
17.9617072668948
 31
0.0
  0
LINE
  5
   6AC
  8
0
  6
CONTINUOUS
 62
     7
 10
-917.738853290765
 20
18.1617498927301
 30
0.0
 11
-917.19226135061
 21
18.1617498927301
 31
0.0
  0
LINE
  5
   6AD
  8
0
  6
CONTINUOUS
 62
     7
 10
-917.19226135061
 20
18.5449298846024
 30
0.0
 11
-917.19226135061
 21
18.1617498927301
 31
0.0
  0
LINE
  5
   6AE
  8
0
  6
CONTINUOUS
 62
     7
 10
-917.738853290765
 20
18.5449298846024
 30
0.0
 11
-917.19226135061
 21
18.5449298846024
 31
0.0
  0
LINE
  5
   6AF
  8
0
  6
CONTINUOUS
 62
     7
 10
-917.738853290765
 20
18.74497215579
 30
0.0
 11
-917.738853290765
 21
18.5449298846024
 31
0.0
  0
LINE
  5
   6B0
  8
0
  6
CONTINUOUS
 62
     7
 10
-917.738853290765
 20
18.7449721766516
 30
0.0
 11
-917.107736052978
 21
18.7449721766516
 31
0.0
  0
LINE
  5
   6B1
  8
0
  6
CONTINUOUS
 62
     7
 10
-917.107736052978
 20
19.1281521685239
 30
0.0
 11
-917.107736052978
 21
18.7449721766516
 31
0.0
  0
LINE
  5
   6B2
  8
0
  6
CONTINUOUS
 62
     7
 10
-918.122034283995
 20
19.1281521685239
 30
0.0
 11
-917.107736052978
 21
19.1281521685239
 31
0.0
  0
LINE
  5
   6B3
  8
0
  6
CONTINUOUS
 62
     7
 10
-960.058124146428
 20
19.2714954234279
 30
0.0
 11
-960.37582425992
 21
18.3637685954911
 31
0.0
  0
LINE
  5
   6B4
  8
0
  6
CONTINUOUS
 62
     7
 10
-960.375829664789
 20
18.3637712753753
 30
0.0
 11
-959.802102257567
 21
18.3637712753753
 31
0.0
  0
LINE
  5
   6B5
  8
0
  6
CONTINUOUS
 62
     7
 10
-959.802102257567
 20
19.271498310698
 30
0.0
 11
-959.802102257567
 21
18.3637712753753
 31
0.0
  0
LINE
  5
   6B6
  8
0
  6
CONTINUOUS
 62
     7
 10
-960.058129474887
 20
19.271498310698
 30
0.0
 11
-959.802102257567
 21
19.271498310698
 31
0.0
  0
LINE
  5
   6B7
  8
0
  6
CONTINUOUS
 62
     7
 10
-960.70982929289
 20
17.4095007857213
 30
0.0
 11
-960.244328659948
 21
17.4095007857213
 31
0.0
  0
LINE
  5
   6B8
  8
0
  6
CONTINUOUS
 62
     7
 10
-960.113982635094
 20
17.7818994568131
 30
0.0
 11
-960.244324729836
 21
17.4094997340976
 31
0.0
  0
LINE
  5
   6B9
  8
0
  6
CONTINUOUS
 62
     7
 10
-960.113986560117
 20
17.7819004909882
 30
0.0
 11
-959.802102257567
 21
17.7819004909882
 31
0.0
  0
LINE
  5
   6BA
  8
0
  6
CONTINUOUS
 62
     7
 10
-959.802102257567
 20
18.3172228142539
 30
0.0
 11
-959.802102257567
 21
17.7819004909882
 31
0.0
  0
LINE
  5
   6BB
  8
0
  6
CONTINUOUS
 62
     7
 10
-960.392123762412
 20
18.3172228142539
 30
0.0
 11
-959.802102257567
 21
18.3172228142539
 31
0.0
  0
LINE
  5
   6BC
  8
0
  6
CONTINUOUS
 62
     7
 10
-960.392120047721
 20
18.3172209259387
 30
0.0
 11
-960.709825483259
 21
17.4094990861586
 31
0.0
  0
LINE
  5
   6BD
  8
0
  6
CONTINUOUS
 62
     7
 10
-959.165522340319
 20
18.3172208008334
 30
0.0
 11
-958.847816904781
 21
17.4094989610533
 31
0.0
  0
LINE
  5
   6BE
  8
0
  6
CONTINUOUS
 62
     7
 10
-959.755553796446
 20
18.3172228142539
 30
0.0
 11
-959.165532291601
 21
18.3172228142539
 31
0.0
  0
LINE
  5
   6BF
  8
0
  6
CONTINUOUS
 62
     7
 10
-959.755553796446
 20
18.3172228142539
 30
0.0
 11
-959.755553796446
 21
17.7819004909882
 31
0.0
  0
LINE
  5
   6C0
  8
0
  6
CONTINUOUS
 62
     7
 10
-959.755553796446
 20
17.7819004909882
 30
0.0
 11
-959.443669493896
 21
17.7819004909882
 31
0.0
  0
LINE
  5
   6C1
  8
0
  6
CONTINUOUS
 62
     7
 10
-959.443661385813
 20
17.7819010788958
 30
0.0
 11
-959.313319291071
 21
17.4095013561803
 31
0.0
  0
LINE
  5
   6C2
  8
0
  6
CONTINUOUS
 62
     7
 10
-959.313327394065
 20
17.4095007857213
 30
0.0
 11
-958.847826761123
 21
17.4095007857213
 31
0.0
  0
LINE
  5
   6C3
  8
0
  6
CONTINUOUS
 62
     7
 10
-959.755553796446
 20
19.271498310698
 30
0.0
 11
-959.499526579126
 21
19.271498310698
 31
0.0
  0
LINE
  5
   6C4
  8
0
  6
CONTINUOUS
 62
     7
 10
-959.755553796446
 20
19.271498310698
 30
0.0
 11
-959.755553796446
 21
18.3637712753753
 31
0.0
  0
LINE
  5
   6C5
  8
0
  6
CONTINUOUS
 62
     7
 10
-959.755553796446
 20
18.3637712753753
 30
0.0
 11
-959.181821048648
 21
18.3637712753753
 31
0.0
  0
LINE
  5
   6C6
  8
0
  6
CONTINUOUS
 62
     7
 10
-959.499521233262
 20
19.2714964690863
 30
0.0
 11
-959.181815774001
 21
18.3637695089539
 31
0.0
  0
LINE
  5
   6C7
  8
0
  6
CONTINUOUS
 62
     7
 10
-958.731450267744
 20
18.3637712753753
 30
0.0
 11
-958.19612694312
 21
18.3637712753753
 31
0.0
  0
LINE
  5
   6C8
  8
0
  6
CONTINUOUS
 62
     7
 10
-958.19612694312
 20
19.271498310698
 30
0.0
 11
-958.19612694312
 21
18.3637712753753
 31
0.0
  0
LINE
  5
   6C9
  8
0
  6
CONTINUOUS
 62
     7
 10
-958.731450267744
 20
19.271498310698
 30
0.0
 11
-958.19612694312
 21
19.271498310698
 31
0.0
  0
LINE
  5
   6CA
  8
0
  6
CONTINUOUS
 62
     7
 10
-958.731450267744
 20
17.4095007857213
 30
0.0
 11
-958.19612694312
 21
17.4095007857213
 31
0.0
  0
LINE
  5
   6CB
  8
0
  6
CONTINUOUS
 62
     7
 10
-958.19612694312
 20
18.3172228142539
 30
0.0
 11
-958.19612694312
 21
17.4095007857213
 31
0.0
  0
LINE
  5
   6CC
  8
0
  6
CONTINUOUS
 62
     7
 10
-958.731450267744
 20
18.3172228142539
 30
0.0
 11
-958.19612694312
 21
18.3172228142539
 31
0.0
  0
LINE
  5
   6CD
  8
0
  6
CONTINUOUS
 62
     7
 10
-957.288405248373
 20
19.271498310698
 30
0.0
 11
-957.288405248373
 21
18.3637712753753
 31
0.0
  0
LINE
  5
   6CE
  8
0
  6
CONTINUOUS
 62
     7
 10
-957.288405248373
 20
18.3637712753753
 30
0.0
 11
-956.753076583174
 21
18.3637712753753
 31
0.0
  0
LINE
  5
   6CF
  8
0
  6
CONTINUOUS
 62
     7
 10
-956.753076583174
 20
19.271498310698
 30
0.0
 11
-956.753076583174
 21
18.3637712753753
 31
0.0
  0
LINE
  5
   6D0
  8
0
  6
CONTINUOUS
 62
     7
 10
-957.288405248373
 20
19.271498310698
 30
0.0
 11
-956.753076583174
 21
19.271498310698
 31
0.0
  0
LINE
  5
   6D1
  8
0
  6
CONTINUOUS
 62
     7
 10
-957.288405248373
 20
17.4095007857213
 30
0.0
 11
-956.753076583174
 21
17.4095007857213
 31
0.0
  0
LINE
  5
   6D2
  8
0
  6
CONTINUOUS
 62
     7
 10
-956.753076583174
 20
18.3172228142539
 30
0.0
 11
-956.753076583174
 21
17.4095007857213
 31
0.0
  0
LINE
  5
   6D3
  8
0
  6
CONTINUOUS
 62
     7
 10
-957.288405248373
 20
18.3172228142539
 30
0.0
 11
-956.753076583174
 21
18.3172228142539
 31
0.0
  0
LINE
  5
   6D4
  8
0
  6
CONTINUOUS
 62
     7
 10
-957.288405248373
 20
18.3172228142539
 30
0.0
 11
-957.288405248373
 21
17.4095007857213
 31
0.0
  0
LINE
  5
   6D5
  8
0
  6
CONTINUOUS
 62
     7
 10
-956.706528122052
 20
19.271498310698
 30
0.0
 11
-956.556911883145
 21
19.271498310698
 31
0.0
  0
LINE
  5
   6D6
  8
0
  6
CONTINUOUS
 62
     7
 10
-956.706528122052
 20
19.271498310698
 30
0.0
 11
-956.706528122052
 21
18.3637712753753
 31
0.0
  0
LINE
  5
   6D7
  8
0
  6
CONTINUOUS
 62
     7
 10
-956.706528122052
 20
18.3637712753753
 30
0.0
 11
-956.164603845392
 21
18.3637712753753
 31
0.0
  0
LINE
  5
   6D8
  8
0
  6
CONTINUOUS
 62
     7
 10
-956.24455441586
 20
18.4240680296883
 30
0.0
 11
-956.164605980993
 21
18.363772916678
 31
0.0
  0
LINE
  5
   6D9
  8
0
  6
CONTINUOUS
 62
     7
 10
-956.33412815304
 20
18.468815133202
 30
0.0
 11
-956.244550657331
 21
18.4240664421122
 31
0.0
  0
LINE
  5
   6DA
  8
0
  6
CONTINUOUS
 62
     7
 10
-956.227502469513
 20
18.5593458784624
 30
0.0
 11
-956.334127060998
 21
18.4688124457156
 31
0.0
  0
LINE
  5
   6DB
  8
0
  6
CONTINUOUS
 62
     7
 10
-956.155369474753
 20
18.6791873851558
 30
0.0
 11
-956.227499287297
 21
18.5593448618995
 31
0.0
  0
LINE
  5
   6DC
  8
0
  6
CONTINUOUS
 62
     7
 10
-956.12528766223
 20
18.8157837127082
 30
0.0
 11
-956.155371123701
 21
18.679187814599
 31
0.0
  0
LINE
  5
   6DD
  8
0
  6
CONTINUOUS
 62
     7
 10
-956.140397250913
 20
18.9548434206499
 30
0.0
 11
-956.125288765657
 21
18.8157854713114
 31
0.0
  0
LINE
  5
   6DE
  8
0
  6
CONTINUOUS
 62
     7
 10
-956.199120706351
 20
19.0817919999262
 30
0.0
 11
-956.140401063162
 21
18.9548464910813
 31
0.0
  0
LINE
  5
   6DF
  8
0
  6
CONTINUOUS
 62
     7
 10
-956.29530655507
 20
19.1833495366339
 30
0.0
 11
-956.199122770724
 21
19.0817931355065
 31
0.0
  0
LINE
  5
   6E0
  8
0
  6
CONTINUOUS
 62
     7
 10
-956.418876925686
 20
19.248858701124
 30
0.0
 11
-956.295301330498
 21
19.1833405083942
 31
0.0
  0
LINE
  5
   6E1
  8
0
  6
CONTINUOUS
 62
     7
 10
-956.706528122052
 20
18.3172228142539
 30
0.0
 11
-956.119118158911
 21
18.3172228142539
 31
0.0
  0
LINE
  5
   6E2
  8
0
  6
CONTINUOUS
 62
     7
 10
-956.706528122052
 20
18.3172228142539
 30
0.0
 11
-956.706528122052
 21
17.4095007857213
 31
0.0
  0
LINE
  5
   6E3
  8
0
  6
CONTINUOUS
 62
     7
 10
-956.706528122052
 20
17.4095007857213
 30
0.0
 11
-956.533408007813
 21
17.4095007857213
 31
0.0
  0
LINE
  5
   6E4
  8
0
  6
CONTINUOUS
 62
     7
 10
-956.378870828179
 20
17.4317229009097
 30
0.0
 11
-956.533405754332
 21
17.4094997643804
 31
0.0
  0
LINE
  5
   6E5
  8
0
  6
CONTINUOUS
 62
     7
 10
-956.236860411616
 20
17.4965915552048
 30
0.0
 11
-956.37887167902
 21
17.4317232481434
 31
0.0
  0
LINE
  5
   6E6
  8
0
  6
CONTINUOUS
 62
     7
 10
-956.118888398446
 20
17.5988474648605
 30
0.0
 11
-956.236861734989
 21
17.4965911175356
 31
0.0
  0
LINE
  5
   6E7
  8
0
  6
CONTINUOUS
 62
     7
 10
-956.034506371614
 20
17.7302046956248
 30
0.0
 11
-956.118887473291
 21
17.5988478879058
 31
0.0
  0
LINE
  5
   6E8
  8
0
  6
CONTINUOUS
 62
     7
 10
-955.990558201508
 20
17.8800137380445
 30
0.0
 11
-956.034500460299
 21
17.7302029093217
 31
0.0
  0
LINE
  5
   6E9
  8
0
  6
CONTINUOUS
 62
     7
 10
-955.990610877226
 20
18.0361402022506
 30
0.0
 11
-955.990562812043
 21
17.8800167977761
 31
0.0
  0
LINE
  5
   6EA
  8
0
  6
CONTINUOUS
 62
     7
 10
-956.034648244778
 20
18.1859244031781
 30
0.0
 11
-955.990609857703
 21
18.0361412636686
 31
0.0
  0
LINE
  5
   6EB
  8
0
  6
CONTINUOUS
 62
     7
 10
-956.119116873975
 20
18.3172208546585
 30
0.0
 11
-956.034650323585
 21
18.1859207910681
 31
0.0
  0
LINE
  5
   6EC
  8
0
  6
CONTINUOUS
 62
     7
 10
-958.149578481999
 20
19.271498310698
 30
0.0
 11
-957.999956902515
 21
19.271498310698
 31
0.0
  0
LINE
  5
   6ED
  8
0
  6
CONTINUOUS
 62
     7
 10
-958.149578481999
 20
19.271498310698
 30
0.0
 11
-958.149578481999
 21
18.3637712753753
 31
0.0
  0
LINE
  5
   6EE
  8
0
  6
CONTINUOUS
 62
     7
 10
-958.149578481999
 20
18.3637712753753
 30
0.0
 11
-957.607654205339
 21
18.3637712753753
 31
0.0
  0
LINE
  5
   6EF
  8
0
  6
CONTINUOUS
 62
     7
 10
-957.68760130379
 20
18.4240653124601
 30
0.0
 11
-957.607652868923
 21
18.3637701994499
 31
0.0
  0
LINE
  5
   6F0
  8
0
  6
CONTINUOUS
 62
     7
 10
-957.777179547837
 20
18.4688152373441
 30
0.0
 11
-957.687602052128
 21
18.4240665462543
 31
0.0
  0
LINE
  5
   6F1
  8
0
  6
CONTINUOUS
 62
     7
 10
-957.67055362037
 20
18.5593486704771
 30
0.0
 11
-957.777178211855
 21
18.4688152377302
 31
0.0
  0
LINE
  5
   6F2
  8
0
  6
CONTINUOUS
 62
     7
 10
-957.598421999672
 20
18.6791889796195
 30
0.0
 11
-957.670551812216
 21
18.5593464563632
 31
0.0
  0
LINE
  5
   6F3
  8
0
  6
CONTINUOUS
 62
     7
 10
-957.568333559077
 20
18.8157842998757
 30
0.0
 11
-957.598422362208
 21
18.6791883937948
 31
0.0
  0
LINE
  5
   6F4
  8
0
  6
CONTINUOUS
 62
     7
 10
-957.583441656341
 20
18.9548457306292
 30
0.0
 11
-957.568333171084
 21
18.8157877812907
 31
0.0
  0
LINE
  5
   6F5
  8
0
  6
CONTINUOUS
 62
     7
 10
-957.642168942679
 20
19.0817877541666
 30
0.0
 11
-957.583443963923
 21
18.954842251366
 31
0.0
  0
LINE
  5
   6F6
  8
0
  6
CONTINUOUS
 62
     7
 10
-957.738354752757
 20
19.1833519708591
 30
0.0
 11
-957.642170968411
 21
19.0817955697317
 31
0.0
  0
LINE
  5
   6F7
  8
0
  6
CONTINUOUS
 62
     7
 10
-957.861930773911
 20
19.2488603904642
 30
0.0
 11
-957.738355178723
 21
19.1833421977345
 31
0.0
  0
LINE
  5
   6F8
  8
0
  6
CONTINUOUS
 62
     7
 10
-957.999957340158
 20
19.271498661166
 30
0.0
 11
-957.861930122149
 21
19.2488653004528
 31
0.0
  0
LINE
  5
   6F9
  8
0
  6
CONTINUOUS
 62
     7
 10
-958.149578481999
 20
18.3172228142539
 30
0.0
 11
-957.562168518858
 21
18.3172228142539
 31
0.0
  0
LINE
  5
   6FA
  8
0
  6
CONTINUOUS
 62
     7
 10
-958.149578481999
 20
18.3172228142539
 30
0.0
 11
-958.149578481999
 21
17.4095007857213
 31
0.0
  0
LINE
  5
   6FB
  8
0
  6
CONTINUOUS
 62
     7
 10
-958.149578481999
 20
17.4095007857213
 30
0.0
 11
-957.976458367759
 21
17.4095007857213
 31
0.0
  0
LINE
  5
   6FC
  8
0
  6
CONTINUOUS
 62
     7
 10
-957.821922997766
 20
17.4317194666483
 30
0.0
 11
-957.976457923919
 21
17.4094963301189
 31
0.0
  0
LINE
  5
   6FD
  8
0
  6
CONTINUOUS
 62
     7
 10
-957.679910621446
 20
17.4965906400627
 30
0.0
 11
-957.82192188885
 21
17.4317223330014
 31
0.0
  0
LINE
  5
   6FE
  8
0
  6
CONTINUOUS
 62
     7
 10
-957.561938355378
 20
17.5988467828018
 30
0.0
 11
-957.679911691921
 21
17.4965904354769
 31
0.0
  0
LINE
  5
   6FF
  8
0
  6
CONTINUOUS
 62
     7
 10
-957.477557455093
 20
17.7302048750885
 30
0.0
 11
-957.561938556771
 21
17.5988480673695
 31
0.0
  0
LINE
  5
   700
  8
0
  6
CONTINUOUS
 62
     7
 10
-957.433606190581
 20
17.8800157187042
 30
0.0
 11
-957.477553794451
 21
17.7302048738247
 31
0.0
  0
LINE
  5
   701
  8
0
  6
CONTINUOUS
 62
     7
 10
-957.433662878912
 20
18.0361403644725
 30
0.0
 11
-957.433609473177
 21
17.8800169582625
 31
0.0
  0
LINE
  5
   702
  8
0
  6
CONTINUOUS
 62
     7
 10
-957.477697300677
 20
18.1859243317406
 30
0.0
 11
-957.433658913602
 21
18.036141192231
 31
0.0
  0
LINE
  5
   703
  8
0
  6
CONTINUOUS
 62
     7
 10
-957.562165835805
 20
18.3172212116797
 30
0.0
 11
-957.477699285415
 21
18.1859211480893
 31
0.0
  0
LINE
  5
   704
  8
0
  6
CONTINUOUS
 62
     7
 10
-958.731450267744
 20
19.271498310698
 30
0.0
 11
-958.731450267744
 21
17.4095007857213
 31
0.0
  0
LINE
  5
   705
  8
0
  6
CONTINUOUS
 62
     7
 10
-963.343595216362
 20
16.2167752325496
 30
0.0
 11
-939.543625435438
 21
16.2167752325496
 31
0.0
  0
LINE
  5
   706
  8
0
  6
CONTINUOUS
 62
     7
 10
-939.193625494805
 20
17.6167752087077
 30
0.0
 11
-939.193625414696
 21
15.5167752444705
 31
0.0
  0
LINE
  5
   707
  8
0
  6
CONTINUOUS
 62
     7
 10
-924.49360456976
 20
17.6167752087077
 30
0.0
 11
-924.493604649868
 21
15.5167752444705
 31
0.0
  0
LINE
  5
   708
  8
0
  6
CONTINUOUS
 62
     7
 10
-939.193625494805
 20
17.6167752087077
 30
0.0
 11
-924.49360456976
 21
17.6167752087077
 31
0.0
  0
LINE
  5
   709
  8
0
  6
CONTINUOUS
 62
     7
 10
-924.143604629126
 20
16.2167752325496
 30
0.0
 11
-900.343634848203
 21
16.2167752325496
 31
0.0
  0
LINE
  5
   70A
  8
0
  6
CONTINUOUS
 62
     7
 10
-939.543625502196
 20
17.9667752027473
 30
0.0
 11
-924.143604562369
 21
17.9667752027473
 31
0.0
  0
LINE
  5
   70B
  8
0
  6
CONTINUOUS
 62
     7
 10
-924.143604562369
 20
17.9667752027473
 30
0.0
 11
-924.143604655829
 21
15.5167752444705
 31
0.0
  0
LINE
  5
   70C
  8
0
  6
CONTINUOUS
 62
     7
 10
-939.543625502196
 20
17.9667752027473
 30
0.0
 11
-939.543625408736
 21
15.5167752444705
 31
0.0
  0
LINE
  5
   70D
  8
0
  6
CONTINUOUS
 62
     7
 10
-942.763613244143
 20
-6.35823506414781
 30
0.0
 11
-942.763613244143
 21
-9.50823501050363
 31
0.0
  0
LINE
  5
   70E
  8
0
  6
CONTINUOUS
 62
     7
 10
-949.763613124933
 20
-6.35823506414781
 30
0.0
 11
-949.763613124933
 21
-9.50823501050363
 31
0.0
  0
LINE
  5
   70F
  8
0
  6
CONTINUOUS
 62
     7
 10
-949.763613124933
 20
-6.35823506414781
 30
0.0
 11
-942.763613244143
 21
-6.35823506414781
 31
0.0
  0
LINE
  5
   710
  8
0
  6
CONTINUOUS
 62
     7
 10
-949.763613124933
 20
-9.50823501050363
 30
0.0
 11
-942.763613244143
 21
-9.50823501050363
 31
0.0
  0
LINE
  5
   711
  8
0
  6
CONTINUOUS
 62
     7
 10
-962.643601209723
 20
56.116753190758
 30
0.0
 11
-901.043628854841
 21
56.116753190758
 31
0.0
  0
LINE
  5
   712
  8
0
  6
CONTINUOUS
 62
     7
 10
-962.643588178722
 20
-30.6832346498955
 30
0.0
 11
-901.043641885842
 21
-30.6832346498955
 31
0.0
  0
ARC
  5
   713
  8
0
  6
CONTINUOUS
 62
     7
 10
-962.643601209723
 20
55.4167532026789
 30
0.0
 40
0.699999988079071
 50
449.999999844103
 51
540.000008586744
  0
ARC
  5
   714
  8
0
  6
CONTINUOUS
 62
     7
 10
-901.043628854841
 20
55.4167532026789
 30
0.0
 40
0.699999988079071
 50
359.999991101463
 51
449.999999844103
  0
ARC
  5
   715
  8
0
  6
CONTINUOUS
 62
     7
 10
-901.043641885842
 20
-29.9832346618165
 30
0.0
 40
0.699999988079071
 50
269.999999844103
 51
359.999991101463
  0
ARC
  5
   716
  8
0
  6
CONTINUOUS
 62
     7
 10
-962.643588178722
 20
-29.9832346618165
 30
0.0
 40
0.699999988079071
 50
540.000008586744
 51
629.999999844103
  0
LINE
  5
   717
  8
0
  6
CONTINUOUS
 62
     7
 10
-963.343595964119
 20
21.1172809183508
 30
0.0
 11
-963.343590837167
 21
-12.4827185094446
 31
0.0
  0
LINE
  5
   718
  8
0
  6
CONTINUOUS
 62
     7
 10
-900.343634100445
 20
21.1172809183508
 30
0.0
 11
-900.343639227397
 21
-12.4827185094446
 31
0.0
  0
LINE
  5
   719
  8
0
  6
CONTINUOUS
 62
     7
 10
-900.343641790873
 20
-29.2827182233423
 30
0.0
 11
-900.343641897763
 21
-29.983234768628
 31
0.0
  0
LINE
  5
   71A
  8
0
  6
CONTINUOUS
 62
     7
 10
-963.343588273691
 20
-29.2827182233423
 30
0.0
 11
-963.343588166801
 21
-29.983234768628
 31
0.0
  0
INSERT
  5
   71B
  8
0
  6
CONTINUOUS
 62
     3
  2
*UDIM200
 10
0.0
 20
0.0
 30
0.0
  0
INSERT
  5
   71C
  8
0
  6
CONTINUOUS
 62
     3
  2
*UDIM201
 10
0.0
 20
0.0
 30
0.0
  0
INSERT
  5
   71D
  8
0
  6
CONTINUOUS
 62
     3
  2
*UDIM202
 10
0.0
 20
0.0
 30
0.0
  0
INSERT
  5
   71E
  8
0
  6
CONTINUOUS
 62
     3
  2
*UDIM203
 10
0.0
 20
0.0
 30
0.0
  0
TEXT
  5
   71F
  8
0
  6
CONTINUOUS
 62
     2
 10
-877.904640430028
 20
2.87118461846306
 30
0.0
 40
2.99999997871263
  1
X
 50
359.999999844103
 41
0.983333365784751
 11
-877.904640425954
 21
4.37118460781937
 31
0.0
 73
     2
  0
TEXT
  5
   720
  8
0
  6
CONTINUOUS
 62
     2
 10
-972.491049341692
 20
2.63886705554776
 30
0.0
 40
2.99999997871263
  1
X
 50
359.999999844103
 41
0.983333365784751
 11
-972.491049337619
 21
4.13886704490408
 31
0.0
 73
     2
  0
TEXT
  5
   721
  8
0
  6
CONTINUOUS
 62
     2
 10
-932.505028277445
 20
67.8895160398766
 30
0.0
 40
2.99999997871263
  1
Y
 50
359.999999844103
 41
0.983333365784751
 72
     1
 11
-931.4050282325
 21
69.3895160262455
 31
0.0
 73
     2
  0
TEXT
  5
   722
  8
0
  6
CONTINUOUS
 62
     2
 10
-932.907069515105
 20
-36.8253488150234
 30
0.0
 40
2.99999997871263
  1
Y
 50
359.999999844103
 41
0.983333365784751
 72
     1
 11
-931.80706947016
 21
-35.3253488286546
 31
0.0
 73
     2
  0
INSERT
  5
   723
  8
0
  6
CONTINUOUS
 62
     7
  2
*UDIM204
 10
0.0
 20
0.0
 30
0.0
  0
INSERT
  5
   724
  8
0
  6
CONTINUOUS
 62
     7
  2
*UDIM205
 10
0.0
 20
0.0
 30
0.0
  0
INSERT
  5
   725
  8
0
  6
CONTINUOUS
 62
     7
  2
*UDIM206
 10
0.0
 20
0.0
 30
0.0
  0
INSERT
  5
   726
  8
0
  6
CONTINUOUS
 62
     7
  2
*UDIM207
 10
0.0
 20
0.0
 30
0.0
  0
INSERT
  5
   727
  8
0
  6
CONTINUOUS
 62
     3
  2
*UDIM208
 10
0.0
 20
0.0
 30
0.0
  0
LINE
  5
   728
  8
0
  6
DASHDOT
 62
     7
 10
-704.192602355813
 20
4.31677532196045
 30
0.0
 11
-633.999531505052
 21
4.31677532196045
 31
0.0
  0
LINE
  5
   729
  8
0
  6
DASHDOT
 62
     7
 10
-668.263488769531
 20
27.310356161213
 30
0.0
 11
-668.263488769531
 21
-17.6264844685414
 31
0.0
  0
CIRCLE
  5
   72A
  8
0
  6
CONTINUOUS
 62
     7
 10
-644.388488769531
 20
20.3167753219605
 30
0.0
 40
1.0
  0
CIRCLE
  5
   72B
  8
0
  6
CONTINUOUS
 62
     7
 10
-692.138488769531
 20
20.3167753219605
 30
0.0
 40
1.0
  0
CIRCLE
  5
   72C
  8
0
  6
CONTINUOUS
 62
     7
 10
-692.138488769531
 20
-11.6832246780396
 30
0.0
 40
1.0
  0
CIRCLE
  5
   72D
  8
0
  6
CONTINUOUS
 62
     7
 10
-644.388488769531
 20
-11.6832246780396
 30
0.0
 40
1.0
  0
LINE
  5
   72E
  8
0
  6
CONTINUOUS
 62
     7
 10
-643.763488769531
 20
16.8167753219605
 30
0.0
 11
-643.763488769531
 21
-8.18322467803955
 31
0.0
  0
LINE
  5
   72F
  8
0
  6
CONTINUOUS
 62
     7
 10
-692.763488769531
 20
16.8167753219605
 30
0.0
 11
-692.763488769531
 21
-8.18322467803955
 31
0.0
  0
LINE
  5
   730
  8
0
  6
CONTINUOUS
 62
     7
 10
-692.013488769531
 20
17.5667753219605
 30
0.0
 11
-644.513488769531
 21
17.5667753219605
 31
0.0
  0
LINE
  5
   731
  8
0
  6
CONTINUOUS
 62
     7
 10
-692.013488769531
 20
-8.93322467803955
 30
0.0
 11
-644.513488769531
 21
-8.93322467803955
 31
0.0
  0
ARC
  5
   732
  8
0
  6
CONTINUOUS
 62
     7
 10
-644.513488769531
 20
16.8167753219605
 30
0.0
 40
0.75
 50
359.999999844103
 51
449.999999844103
  0
ARC
  5
   733
  8
0
  6
CONTINUOUS
 62
     7
 10
-644.513488769531
 20
-8.18322467803955
 30
0.0
 40
0.75
 50
269.999999844103
 51
359.999999844103
  0
ARC
  5
   734
  8
0
  6
CONTINUOUS
 62
     7
 10
-692.013488769531
 20
-8.18322467803955
 30
0.0
 40
0.75
 50
539.999999844103
 51
629.999999844103
  0
ARC
  5
   735
  8
0
  6
CONTINUOUS
 62
     7
 10
-692.013488769531
 20
16.8167753219605
 30
0.0
 40
0.75
 50
449.999999844103
 51
539.999999844103
  0
LINE
  5
   736
  8
0
  6
CONTINUOUS
 62
     7
 10
-696.227431195443
 20
24.9208048131019
 30
0.0
 11
-638.878198840779
 21
24.9208048131019
 31
0.0
  0
LINE
  5
   737
  8
0
  6
CONTINUOUS
 62
     7
 10
-696.227431195443
 20
-15.6683798916171
 30
0.0
 11
-638.878198840779
 21
-15.6683798916171
 31
0.0
  0
LINE
  5
   738
  8
0
  6
CONTINUOUS
 62
     7
 10
-696.227431195443
 20
24.9208048131019
 30
0.0
 11
-696.227431195443
 21
-15.6683798916171
 31
0.0
  0
LINE
  5
   739
  8
0
  6
CONTINUOUS
 62
     7
 10
-638.878198840779
 20
24.9208048131019
 30
0.0
 11
-638.878198840779
 21
-15.6683798916171
 31
0.0
  0
LINE
  5
   73A
  8
0
  6
DASHDOT
 62
     7
 10
-644.388488769531
 20
24.8167753219604
 30
0.0
 11
-644.388488769531
 21
15.8167753219605
 31
0.0
  0
LINE
  5
   73B
  8
0
  6
DASHDOT
 62
     7
 10
-648.888488769531
 20
20.3167753219605
 30
0.0
 11
-639.888488769531
 21
20.3167753219605
 31
0.0
  0
LINE
  5
   73C
  8
0
  6
DASHDOT
 62
     7
 10
-644.388488769531
 20
-7.18322467803955
 30
0.0
 11
-644.388488769531
 21
-16.1832246780396
 31
0.0
  0
LINE
  5
   73D
  8
0
  6
DASHDOT
 62
     7
 10
-648.888488769531
 20
-11.6832246780396
 30
0.0
 11
-639.888488769531
 21
-11.6832246780396
 31
0.0
  0
LINE
  5
   73E
  8
0
  6
DASHDOT
 62
     7
 10
-692.138488769531
 20
-7.18322467803955
 30
0.0
 11
-692.138488769531
 21
-16.1832246780396
 31
0.0
  0
LINE
  5
   73F
  8
0
  6
DASHDOT
 62
     7
 10
-696.638488769531
 20
-11.6832246780396
 30
0.0
 11
-687.638488769531
 21
-11.6832246780396
 31
0.0
  0
LINE
  5
   740
  8
0
  6
DASHDOT
 62
     7
 10
-692.138488769531
 20
24.8167753219604
 30
0.0
 11
-692.138488769531
 21
15.8167753219605
 31
0.0
  0
LINE
  5
   741
  8
0
  6
DASHDOT
 62
     7
 10
-696.638488769531
 20
20.3167753219605
 30
0.0
 11
-687.638488769531
 21
20.3167753219605
 31
0.0
  0
TEXT
  5
   742
  8
0
  6
CONTINUOUS
 62
     2
 10
-668.55803946068
 20
-21.8313246373278
 30
0.0
 40
3.00000002980232
  1
Y
 50
359.999999844103
 41
0.983333351877
 72
     2
 11
-666.35803937912
 21
-20.3313246284015
 31
0.0
 73
     2
  0
TEXT
  5
   743
  8
0
  6
CONTINUOUS
 62
     2
 10
-632.183757100603
 20
2.77773616423789
 30
0.0
 40
3.00000002980232
  1
X
 50
359.999999844103
 41
0.983333351877
 72
     2
 11
-629.983757019043
 21
4.2777361731641
 31
0.0
 73
     2
  0
TEXT
  5
   744
  8
0
  6
CONTINUOUS
 62
     2
 10
-668.723980460665
 20
29.3449010249037
 30
0.0
 40
3.00000002980232
  1
Y
 50
359.999999844103
 41
0.983333351877
 72
     2
 11
-666.523980379105
 21
30.8449010338299
 31
0.0
 73
     2
  0
TEXT
  5
   745
  8
0
  6
CONTINUOUS
 62
     2
 10
-706.558543477556
 20
3.07643008192959
 30
0.0
 40
3.00000002980232
  1
X
 50
359.999999844103
 41
0.983333351877
 72
     2
 11
-704.358543395996
 21
4.57643009085581
 31
0.0
 73
     2
  0
INSERT
  5
   746
  8
0
  6
CONTINUOUS
 62
     3
  2
*UDIM209
 10
0.0
 20
0.0
 30
0.0
  0
INSERT
  5
   747
  8
0
  6
CONTINUOUS
 62
     3
  2
*UDIM210
 10
0.0
 20
0.0
 30
0.0
  0
INSERT
  5
   748
  8
0
  6
CONTINUOUS
 62
     3
  2
*UDIM211
 10
0.0
 20
0.0
 30
0.0
  0
INSERT
  5
   749
  8
0
  6
CONTINUOUS
 62
     3
  2
*UDIM212
 10
0.0
 20
0.0
 30
0.0
  0
INSERT
  5
   74A
  8
0
  6
CONTINUOUS
 62
     3
  2
*UDIM213
 10
0.0
 20
0.0
 30
0.0
  0
INSERT
  5
   74B
  8
0
  6
CONTINUOUS
 62
     7
  2
*UDIM214
 10
0.0
 20
0.0
 30
0.0
  0
ENDSEC
  0
EOF
