  0
SECTION
  2
HEADER
  9
$ACADVER
  1
AC1009
999
I-DEAS Drafting Master Series 7m3 Not Encoded
  9
$EXTMIN
 10
0.0
 20
0.0
  9
$EXTMAX
 10
2.97E+002
 20
2.1E+002
  9
$TEXTSIZE
 40
1.25E-001
  9
$LTSCALE
 40
1.0
  9
$CLAYER
  8
AUTOCAD1
  9
$CECOLOR
 62
2
  9
$DIMASZ
 40
1.25E-001
  9
$DIMEXO
 40
6.25E-002
  9
$DIMDLI
 40
2.5E-001
  9
$DIMEXE
 40
1.25E-001
  9
$DIMTP
 40
5.0E-003
  9
$DIMTM
 40
-5.0E-003
  9
$DIMTXT
 40
3.0
  9
$DIMLIM
 70
0
  9
$DIMTIH
 70
1
  9
$DIMTOH
 70
1
  9
$DIMSE1
 70
0
  9
$DIMSE2
 70
0
  9
$DIMTAD
 70
0
  9
$DIMASO
 70
1
  9
$DIMALT
 70
0
  9
$DIMALTD
 70
0
  9
$DIMTOFL
 70
1
  9
$DIMTIX
 70
0
  9
$DIMSAH
 70
0
  9
$DIMTFAC
 40
1.0
  9
$DIMGAP
 40
6.25E-002
  9
$LUNITS
 70
2
  9
$LUPREC
 70
3
  9
$FILLETRAD
 40
1.0E+001
  9
$AUNITS
 70
0
  9
$AUPREC
 70
1
  9
$CHAMFERA
 40
6.0
  9
$CHAMFERB
 40
6.0
  9
$ANGBASE
 50
0.0
  9
$ANGDIR
 70
0
  9
$PDMODE
 70
2
  9
$PDSIZE
 40
-1.0E-002
  9
$SPLINETYPE
 70
6
  0
ENDSEC
  0
SECTION
  2
TABLES
  0
TABLE
  2
LTYPE
 70
7
  0
LTYPE
  2
HIDDENNEW00
  3
_ 
 70
64
 72
65
 73
2
 40
4.5
 49
3.0
 49
-1.5
  0
LTYPE
  2
HIDDENNEW01
  3
_ 
 70
64
 72
65
 73
2
 40
4.5
 49
3.0
 49
-1.5
  0
LTYPE
  2
HIDDEN
  3
_ 
 70
64
 72
65
 73
2
 40
4.5
 49
3.0
 49
-1.5
  0
LTYPE
  2
CENTERLINE
  3
_ 
 70
64
 72
65
 73
4
 40
3.0E+001
 49
2.4E+001
 49
-1.5
 49
3.0
 49
-1.5
  0
LTYPE
  2
PHANTOM
  3
_ 
 70
64
 72
65
 73
6
 40
2.95E+001
 49
1.9E+001
 49
-1.5
 49
3.0
 49
-1.5
 49
3.0
 49
-1.5
  0
LTYPE
  2
SHORT_DASH
  3
_ 
 70
64
 72
65
 73
2
 40
3.0
 49
1.5
 49
-1.5
  0
LTYPE
  2
LONG_DASH
  3
_ 
 70
64
 72
65
 73
2
 40
9.0
 49
4.5
 49
-4.5
  0
ENDTAB
  0
TABLE
  2
LAYER
 70
258
  0
LAYER
  2
AUTOCAD1
 70
0
 62
7
  6
HIDDENNEW00
  0
LAYER
  2
Drafting_Hidden_Entities
 70
1
 62
7
  6
CONTINUOUS
  0
ENDTAB
  0
TABLE
  2
STYLE
 70
1
  0
STYLE
  2
STANDARD
 70
64
 40
0.0
 41
1.0
 50
0.0
 71
0
 42
1.0
  3
monotxt.shx
  4

  0
ENDTAB
  0
TABLE
  2
VIEW
 70
0
  0
ENDTAB
  0
TABLE
  2
DIMSTYLE
 70
0
  0
ENDTAB
  0
ENDSEC
  0
SECTION
  2
BLOCKS
  0
ENDSEC
  0
SECTION
  2
ENTITIES
  0
LINE
  8
AUTOCAD1
  6
CONTINUOUS
 62
2
 10
3.9376127E+002
 20
-3.0259726E+001
 11
3.9376127E+002
 21
2.6674027E+002
  0
LINE
  8
AUTOCAD1
  6
CONTINUOUS
 62
2
 10
3.9376127E+002
 20
2.6674027E+002
 11
-2.6238726E+001
 21
2.6674027E+002
  0
LINE
  8
AUTOCAD1
  6
CONTINUOUS
 62
40
 10
8.9507736E+001
 20
6.3489755
 11
9.9534882E+001
 21
2.6804548E+001
  0
LINE
  8
AUTOCAD1
  6
CONTINUOUS
 62
40
 10
8.9507736E+001
 20
5.6948976E+001
 11
9.9535393E+001
 21
3.6486888E+001
  0
POINT
  8
AUTOCAD1
  6
CONTINUOUS
 62
40
 10
6.9510471E+001
 20
7.851711
  0
LINE
  8
AUTOCAD1
  6
CONTINUOUS
 62
40
 10
1.2773871E+002
 20
6.785024E+001
 11
1.2773871E+002
 21
9.5508447E+001
  0
LINE
  8
AUTOCAD1
  6
CONTINUOUS
 62
40
 10
1.2773871E+002
 20
1.4835571E+002
 11
1.2923871E+002
 21
1.4835571E+002
  0
LINE
  8
AUTOCAD1
  6
CONTINUOUS
 62
40
 10
1.3687516E+002
 20
9.9002976E+001
 11
1.5563871E+002
 21
9.9002976E+001
  0
LINE
  8
AUTOCAD1
  6
CONTINUOUS
 62
40
 10
1.2873871E+002
 20
7.9002976E+001
 11
1.5563871E+002
 21
7.9002976E+001
  0
LINE
  8
AUTOCAD1
  6
CONTINUOUS
 62
40
 10
1.2773871E+002
 20
5.6951711E+001
 11
1.5563871E+002
 21
5.6951711E+001
  0
LINE
  8
AUTOCAD1
  6
CONTINUOUS
 62
40
 10
1.2773871E+002
 20
6.351711
 11
1.5563871E+002
 21
6.351711
  0
LINE
  8
AUTOCAD1
  6
CONTINUOUS
 62
40
 10
1.2923871E+002
 20
5.5451711E+001
 11
1.5563871E+002
 21
5.5451711E+001
  0
LINE
  8
AUTOCAD1
  6
CONTINUOUS
 62
40
 10
1.2923871E+002
 20
7.851711
 11
1.5563871E+002
 21
7.851711
  0
LINE
  8
AUTOCAD1
  6
CONTINUOUS
 62
40
 10
1.3203871E+002
 20
7.851711
 11
1.3203871E+002
 21
5.5451711E+001
  0
LINE
  8
AUTOCAD1
  6
CONTINUOUS
 62
40
 10
1.2923871E+002
 20
6.351711
 11
1.2923871E+002
 21
5.6951711E+001
  0
LINE
  8
AUTOCAD1
  6
CENTERLINE
 62
40
 10
1.2290641E+002
 20
3.1651711E+001
 11
1.569583E+002
 21
3.1651711E+001
  0
LINE
  8
AUTOCAD1
  6
CONTINUOUS
 62
40
 10
1.3203871E+002
 20
4.4151711E+001
 11
1.4243871E+002
 21
4.4151711E+001
  0
LINE
  8
AUTOCAD1
  6
CONTINUOUS
 62
40
 10
1.3203871E+002
 20
1.9151711E+001
 11
1.4243871E+002
 21
1.9151711E+001
  0
LINE
  8
AUTOCAD1
  6
CONTINUOUS
 62
40
 10
1.3203871E+002
 20
4.9451711E+001
 11
1.4243871E+002
 21
4.9451711E+001
  0
LINE
  8
AUTOCAD1
  6
CONTINUOUS
 62
40
 10
1.3203871E+002
 20
1.3851711E+001
 11
1.4243871E+002
 21
1.3851711E+001
  0
LINE
  8
AUTOCAD1
  6
CONTINUOUS
 62
40
 10
1.2773871E+002
 20
6.351711
 11
1.2773871E+002
 21
5.6951711E+001
  0
LINE
  8
AUTOCAD1
  6
CONTINUOUS
 62
40
 10
1.4243871E+002
 20
7.851711
 11
1.4243871E+002
 21
5.5451711E+001
  0
LINE
  8
AUTOCAD1
  6
CONTINUOUS
 62
40
 10
1.4443871E+002
 20
7.851711
 11
1.4443871E+002
 21
5.5451711E+001
  0
LINE
  8
AUTOCAD1
  6
CONTINUOUS
 62
40
 10
1.5463871E+002
 20
7.851711
 11
1.5463871E+002
 21
5.5451711E+001
  0
LINE
  8
AUTOCAD1
  6
CONTINUOUS
 62
40
 10
1.5563871E+002
 20
6.351711
 11
1.5563871E+002
 21
5.6951711E+001
  0
LINE
  8
AUTOCAD1
  6
CONTINUOUS
 62
40
 10
1.4443871E+002
 20
4.4151711E+001
 11
1.5463871E+002
 21
4.4151711E+001
  0
LINE
  8
AUTOCAD1
  6
CONTINUOUS
 62
40
 10
1.4443871E+002
 20
1.9151711E+001
 11
1.5463871E+002
 21
1.9151711E+001
  0
LINE
  8
AUTOCAD1
  6
CONTINUOUS
 62
40
 10
2.0157736E+001
 20
6.3489755
 11
2.0157736E+001
 21
5.6948976E+001
  0
LINE
  8
AUTOCAD1
  6
CONTINUOUS
 62
40
 10
2.0157736E+001
 20
5.5448976E+001
 11
7.2005E+001
 21
5.5448976E+001
  0
ARC
  8
AUTOCAD1
  6
CONTINUOUS
 62
40
 10
7.953385E+001
 20
4.6048976E+001
 40
1.3
 50
0.0
 51
1.8E+002
  0
ARC
  8
AUTOCAD1
  6
CONTINUOUS
 62
40
 10
7.953385E+001
 20
4.6048976E+001
 40
1.3
 50
1.8E+002
 51
3.6E+002
  0
LINE
  8
AUTOCAD1
  6
CONTINUOUS
 62
40
 10
6.9510471E+001
 20
6.3489755
 11
6.9510471E+001
 21
7.8489755
  0
LINE
  8
AUTOCAD1
  6
CONTINUOUS
 62
40
 10
2.0157736E+001
 20
5.6948976E+001
 11
8.9507736E+001
 21
5.6948976E+001
  0
LINE
  8
AUTOCAD1
  6
CONTINUOUS
 62
40
 10
2.0157736E+001
 20
7.8489755
 11
7.2005E+001
 21
7.8489755
  0
ARC
  8
AUTOCAD1
  6
CONTINUOUS
 62
40
 10
7.953385E+001
 20
1.7248976E+001
 40
1.3
 50
0.0
 51
1.8E+002
  0
ARC
  8
AUTOCAD1
  6
CONTINUOUS
 62
40
 10
7.953385E+001
 20
1.7248976E+001
 40
1.3
 50
1.8E+002
 51
3.6E+002
  0
LINE
  8
AUTOCAD1
  6
CONTINUOUS
 62
40
 10
6.9510471E+001
 20
6.8489755
 11
6.9510471E+001
 21
7.8489755
  0
LINE
  8
AUTOCAD1
  6
CONTINUOUS
 62
40
 10
2.0157736E+001
 20
6.3489755
 11
8.9507736E+001
 21
6.3489755
  0
LINE
  8
AUTOCAD1
  6
CENTERLINE
 62
40
 10
5.5157736E+001
 20
4.539624E+001
 11
5.5157736E+001
 21
5.289624E+001
  0
LINE
  8
AUTOCAD1
  6
CENTERLINE
 62
40
 10
5.1407736E+001
 20
4.914624E+001
 11
5.8907736E+001
 21
4.914624E+001
  0
LINE
  8
AUTOCAD1
  6
CENTERLINE
 62
40
 10
2.7657736E+001
 20
4.539624E+001
 11
2.7657736E+001
 21
5.289624E+001
  0
LINE
  8
AUTOCAD1
  6
CENTERLINE
 62
40
 10
2.3907736E+001
 20
4.914624E+001
 11
3.1407736E+001
 21
4.914624E+001
  0
LINE
  8
AUTOCAD1
  6
CENTERLINE
 62
40
 10
2.7657736E+001
 20
1.039624E+001
 11
2.7657736E+001
 21
1.789624E+001
  0
LINE
  8
AUTOCAD1
  6
CENTERLINE
 62
40
 10
2.3907736E+001
 20
1.414624E+001
 11
3.1407736E+001
 21
1.414624E+001
  0
LINE
  8
AUTOCAD1
  6
CENTERLINE
 62
40
 10
5.5157736E+001
 20
1.039624E+001
 11
5.5157736E+001
 21
1.789624E+001
  0
LINE
  8
AUTOCAD1
  6
CENTERLINE
 62
40
 10
5.1407736E+001
 20
1.414624E+001
 11
5.8907736E+001
 21
1.414624E+001
  0
LINE
  8
AUTOCAD1
  6
CONTINUOUS
 62
40
 10
1.2446604E+002
 20
6.9393728E+001
 11
1.2382667E+002
 21
6.9180604E+001
  0
LINE
  8
AUTOCAD1
  6
CONTINUOUS
 62
40
 10
1.5463871E+002
 20
7.9002976E+001
 11
1.5463871E+002
 21
8.5002976E+001
  0
LINE
  8
AUTOCAD1
  6
CONTINUOUS
 62
40
 10
1.5463871E+002
 20
8.5002976E+001
 11
1.5563871E+002
 21
8.5002976E+001
  0
LINE
  8
AUTOCAD1
  6
CONTINUOUS
 62
40
 10
1.2873871E+002
 20
6.785024E+001
 11
1.2873871E+002
 21
7.9002976E+001
  0
LINE
  8
AUTOCAD1
  6
CONTINUOUS
 62
40
 10
1.4443871E+002
 20
1.3851711E+001
 11
1.5463871E+002
 21
1.3851711E+001
  0
LINE
  8
AUTOCAD1
  6
CONTINUOUS
 62
40
 10
1.4443871E+002
 20
4.9451711E+001
 11
1.5463871E+002
 21
4.9451711E+001
  0
LINE
  8
AUTOCAD1
  6
CONTINUOUS
 62
40
 10
2.0157736E+001
 20
3.9644573E+001
 11
7.2005E+001
 21
3.9644573E+001
  0
LINE
  8
AUTOCAD1
  6
CONTINUOUS
 62
40
 10
2.0157736E+001
 20
3.7644573E+001
 11
7.2005E+001
 21
3.7644573E+001
  0
LINE
  8
AUTOCAD1
  6
CONTINUOUS
 62
40
 10
2.0157736E+001
 20
2.3647907E+001
 11
7.2005E+001
 21
2.3647907E+001
  0
LINE
  8
AUTOCAD1
  6
CONTINUOUS
 62
40
 10
2.0157736E+001
 20
2.5647907E+001
 11
7.2005E+001
 21
2.5647907E+001
  0
LINE
  8
AUTOCAD1
  6
CONTINUOUS
 62
40
 10
1.2923871E+002
 20
3.9644573E+001
 11
1.3203871E+002
 21
3.9644573E+001
  0
LINE
  8
AUTOCAD1
  6
CONTINUOUS
 62
40
 10
1.2923871E+002
 20
3.7644573E+001
 11
1.3203871E+002
 21
3.7644573E+001
  0
LINE
  8
AUTOCAD1
  6
CONTINUOUS
 62
40
 10
1.2923871E+002
 20
2.5647907E+001
 11
1.3203871E+002
 21
2.5647907E+001
  0
LINE
  8
AUTOCAD1
  6
CONTINUOUS
 62
40
 10
1.2923871E+002
 20
2.3647907E+001
 11
1.3203871E+002
 21
2.3647907E+001
  0
LINE
  8
AUTOCAD1
  6
CONTINUOUS
 62
40
 10
1.5563871E+002
 20
6.785024E+001
 11
1.5563871E+002
 21
9.9002976E+001
  0
LINE
  8
AUTOCAD1
  6
CONTINUOUS
 62
40
 10
7.2005E+001
 20
7.8489755
 11
7.2005E+001
 21
5.5448976E+001
  0
LINE
  8
AUTOCAD1
  6
CONTINUOUS
 62
40
 10
1.4843871E+002
 20
7.9002976E+001
 11
1.4843871E+002
 21
8.5002976E+001
  0
LINE
  8
AUTOCAD1
  6
HIDDEN
 62
40
 10
7.953385E+001
 20
1.3998976E+001
 11
7.953385E+001
 21
2.0498976E+001
  0
LINE
  8
AUTOCAD1
  6
HIDDEN
 62
40
 10
7.628385E+001
 20
1.7248976E+001
 11
8.278385E+001
 21
1.7248976E+001
  0
LINE
  8
AUTOCAD1
  6
HIDDEN
 62
40
 10
7.953385E+001
 20
4.2798976E+001
 11
7.953385E+001
 21
4.9298976E+001
  0
LINE
  8
AUTOCAD1
  6
HIDDEN
 62
40
 10
7.628385E+001
 20
4.6048976E+001
 11
8.278385E+001
 21
4.6048976E+001
  0
LINE
  8
AUTOCAD1
  6
CONTINUOUS
 62
40
 10
1.4443871E+002
 20
7.9002976E+001
 11
1.4443871E+002
 21
8.5002976E+001
  0
LINE
  8
AUTOCAD1
  6
CONTINUOUS
 62
40
 10
1.4443871E+002
 20
5.3951711E+001
 11
1.4993871E+002
 21
5.3951711E+001
  0
LINE
  8
AUTOCAD1
  6
CONTINUOUS
 62
40
 10
1.4443871E+002
 20
9.351711
 11
1.4993871E+002
 21
9.351711
  0
LINE
  8
AUTOCAD1
  6
CONTINUOUS
 62
40
 10
1.4993871E+002
 20
5.3951711E+001
 11
1.4993871E+002
 21
5.5451711E+001
  0
LINE
  8
AUTOCAD1
  6
CONTINUOUS
 62
40
 10
1.4993871E+002
 20
7.851711
 11
1.4993871E+002
 21
9.351711
  0
LINE
  8
AUTOCAD1
  6
CONTINUOUS
 62
40
 10
1.4443871E+002
 20
8.5002976E+001
 11
1.4843871E+002
 21
8.5002976E+001
  0
ARC
  8
AUTOCAD1
  6
CONTINUOUS
 62
40
 10
2.7657736E+001
 20
4.914624E+001
 40
1.75
 50
0.0
 51
1.8E+002
  0
ARC
  8
AUTOCAD1
  6
CONTINUOUS
 62
40
 10
2.7657736E+001
 20
4.914624E+001
 40
1.75
 50
1.8E+002
 51
3.6E+002
  0
ARC
  8
AUTOCAD1
  6
CONTINUOUS
 62
40
 10
2.7657736E+001
 20
1.414624E+001
 40
1.75
 50
0.0
 51
1.8E+002
  0
ARC
  8
AUTOCAD1
  6
CONTINUOUS
 62
40
 10
2.7657736E+001
 20
1.414624E+001
 40
1.75
 50
1.8E+002
 51
3.6E+002
  0
ARC
  8
AUTOCAD1
  6
CONTINUOUS
 62
40
 10
5.5157736E+001
 20
4.914624E+001
 40
1.75
 50
0.0
 51
1.8E+002
  0
ARC
  8
AUTOCAD1
  6
CONTINUOUS
 62
40
 10
5.5157736E+001
 20
4.914624E+001
 40
1.75
 50
1.8E+002
 51
3.6E+002
  0
ARC
  8
AUTOCAD1
  6
CONTINUOUS
 62
40
 10
5.5157736E+001
 20
1.414624E+001
 40
1.75
 50
0.0
 51
1.8E+002
  0
ARC
  8
AUTOCAD1
  6
CONTINUOUS
 62
40
 10
5.5157736E+001
 20
1.414624E+001
 40
1.75
 50
1.8E+002
 51
3.6E+002
  0
ARC
  8
AUTOCAD1
  6
CONTINUOUS
 62
40
 10
1.3687516E+002
 20
1.0400298E+002
 40
5.0000005
 50
1.8432118E+002
 51
2.7000003E+002
  0
LINE
  8
AUTOCAD1
  6
CENTERLINE
 62
40
 10
8.9657736E+001
 20
4.1026E+001
 11
8.9657736E+001
 21
2.1568E+001
  0
LINE
  8
AUTOCAD1
  6
CENTERLINE
 62
40
 10
1.03832E+002
 20
3.164624E+001
 11
1.7816E+001
 21
3.164624E+001
  0
ARC
  8
AUTOCAD1
  6
CONTINUOUS
 62
40
 10
8.9657736E+001
 20
3.164624E+001
 40
6.6000003
 50
2.364588E+002
 51
3.035412E+002
  0
LINE
  8
AUTOCAD1
  6
CENTERLINE
 62
40
 10
1.3192019E+002
 20
1.0309493E+002
 11
1.3188391E+002
 21
1.0370727E+002
  0
ARC
  8
AUTOCAD1
  6
CONTINUOUS
 62
40
 10
8.9657736E+001
 20
3.1646239E+001
 40
1.0999999E+001
 50
3.3388631E+002
 51
3.8610765E+002
  0
LINE
  8
AUTOCAD1
  6
CONTINUOUS
 62
40
 10
1.5563871E+002
 20
6.785024E+001
 11
1.5463871E+002
 21
6.785024E+001
  0
LINE
  8
AUTOCAD1
  6
CONTINUOUS
 62
40
 10
1.5463871E+002
 20
6.785024E+001
 11
1.5463871E+002
 21
7.9002976E+001
  0
LINE
  8
AUTOCAD1
  6
CONTINUOUS
 62
40
 10
1.2873871E+002
 20
6.785024E+001
 11
1.2773871E+002
 21
6.785024E+001
  0
LINE
  8
AUTOCAD1
  6
CONTINUOUS
 62
40
 10
6.9510471E+001
 20
5.5448976E+001
 11
6.9510471E+001
 21
5.6948976E+001
  0
LINE
  8
AUTOCAD1
  6
CONTINUOUS
 62
40
 10
1.3182224E+002
 20
1.037037E+002
 11
1.2923871E+002
 21
1.4835571E+002
  0
LINE
  8
AUTOCAD1
  6
CENTERLINE
 62
40
 10
1.24402E+002
 20
7.8855711E+001
 11
1.63037E+002
 21
7.8855711E+001
  0
ARC
  8
AUTOCAD1
  6
CONTINUOUS
 62
40
 10
8.9657757E+001
 20
3.164623E+001
 40
7.6000078
 50
2.2637054E+002
 51
5.8482912E+002
  0
LINE
  8
AUTOCAD1
  6
CONTINUOUS
 62
40
 10
1.2773871E+002
 20
9.5508447E+001
 11
1.2773871E+002
 21
1.4835571E+002
  0
LINE
  8
AUTOCAD1
  6
CONTINUOUS
 62
40
 10
1.9348715E+002
 20
6.3489755
 11
1.8346001E+002
 21
2.6804548E+001
  0
LINE
  8
AUTOCAD1
  6
CONTINUOUS
 62
40
 10
1.9348715E+002
 20
5.6948976E+001
 11
1.834595E+002
 21
3.6486888E+001
  0
LINE
  8
AUTOCAD1
  6
CONTINUOUS
 62
40
 10
2.6283715E+002
 20
6.3489755
 11
2.6283715E+002
 21
5.6948976E+001
  0
LINE
  8
AUTOCAD1
  6
CENTERLINE
 62
40
 10
1.8550444E+002
 20
3.164624E+001
 11
1.7809514E+002
 21
3.164624E+001
  0
LINE
  8
AUTOCAD1
  6
CENTERLINE
 62
40
 10
2.6499735E+002
 20
3.1648976E+001
 11
1.9696715E+002
 21
3.1648976E+001
  0
LINE
  8
AUTOCAD1
  6
CENTERLINE
 62
40
 10
2.2783715E+002
 20
4.539624E+001
 11
2.2783715E+002
 21
5.289624E+001
  0
LINE
  8
AUTOCAD1
  6
CENTERLINE
 62
40
 10
2.3158715E+002
 20
4.914624E+001
 11
2.2408715E+002
 21
4.914624E+001
  0
LINE
  8
AUTOCAD1
  6
CENTERLINE
 62
40
 10
2.5533715E+002
 20
4.539624E+001
 11
2.5533715E+002
 21
5.289624E+001
  0
LINE
  8
AUTOCAD1
  6
CENTERLINE
 62
40
 10
2.5908715E+002
 20
4.914624E+001
 11
2.5158715E+002
 21
4.914624E+001
  0
LINE
  8
AUTOCAD1
  6
CENTERLINE
 62
40
 10
2.5533715E+002
 20
1.039624E+001
 11
2.5533715E+002
 21
1.789624E+001
  0
LINE
  8
AUTOCAD1
  6
CENTERLINE
 62
40
 10
2.5908715E+002
 20
1.414624E+001
 11
2.5158715E+002
 21
1.414624E+001
  0
LINE
  8
AUTOCAD1
  6
CENTERLINE
 62
40
 10
2.2783715E+002
 20
1.039624E+001
 11
2.2783715E+002
 21
1.789624E+001
  0
LINE
  8
AUTOCAD1
  6
CENTERLINE
 62
40
 10
2.3158715E+002
 20
1.414624E+001
 11
2.2408715E+002
 21
1.414624E+001
  0
LINE
  8
AUTOCAD1
  6
CONTINUOUS
 62
40
 10
2.0598989E+002
 20
7.8489755
 11
2.0598989E+002
 21
5.5448976E+001
  0
LINE
  8
AUTOCAD1
  6
CONTINUOUS
 62
40
 10
2.1098989E+002
 20
7.8489755
 11
2.1098989E+002
 21
5.5448976E+001
  0
ARC
  8
AUTOCAD1
  6
CONTINUOUS
 62
40
 10
2.5533715E+002
 20
4.914624E+001
 40
1.75
 50
1.8E+002
 51
3.6E+002
  0
ARC
  8
AUTOCAD1
  6
CONTINUOUS
 62
40
 10
2.5533715E+002
 20
4.914624E+001
 40
1.75
 50
0.0
 51
1.8E+002
  0
ARC
  8
AUTOCAD1
  6
CONTINUOUS
 62
40
 10
2.5533715E+002
 20
1.414624E+001
 40
1.75
 50
1.8E+002
 51
3.6E+002
  0
ARC
  8
AUTOCAD1
  6
CONTINUOUS
 62
40
 10
2.5533715E+002
 20
1.414624E+001
 40
1.75
 50
0.0
 51
1.8E+002
  0
ARC
  8
AUTOCAD1
  6
CONTINUOUS
 62
40
 10
2.2783715E+002
 20
4.914624E+001
 40
1.75
 50
1.8E+002
 51
3.6E+002
  0
ARC
  8
AUTOCAD1
  6
CONTINUOUS
 62
40
 10
2.2783715E+002
 20
4.914624E+001
 40
1.75
 50
0.0
 51
1.8E+002
  0
ARC
  8
AUTOCAD1
  6
CONTINUOUS
 62
40
 10
2.2783715E+002
 20
1.414624E+001
 40
1.75
 50
1.8E+002
 51
3.6E+002
  0
ARC
  8
AUTOCAD1
  6
CONTINUOUS
 62
40
 10
2.2783715E+002
 20
1.414624E+001
 40
1.75
 50
0.0
 51
1.8E+002
  0
LINE
  8
AUTOCAD1
  6
CENTERLINE
 62
40
 10
1.9333715E+002
 20
4.2766526E+001
 11
1.9333715E+002
 21
2.0984069E+001
  0
LINE
  8
AUTOCAD1
  6
CONTINUOUS
 62
40
 10
1.8818715E+002
 20
3.164624E+001
 11
1.9578715E+002
 21
3.164624E+001
  0
ARC
  8
AUTOCAD1
  6
CONTINUOUS
 62
40
 10
1.9333715E+002
 20
3.164624E+001
 40
6.6
 50
1.8E+002
 51
3.6E+002
  0
ARC
  8
AUTOCAD1
  6
CONTINUOUS
 62
40
 10
1.9333715E+002
 20
3.164624E+001
 40
6.6
 50
0.0
 51
1.8E+002
  0
ARC
  8
AUTOCAD1
  6
CONTINUOUS
 62
40
 10
1.9333716E+002
 20
3.1646238E+001
 40
1.0999999E+001
 50
1.5389235E+002
 51
2.0611369E+002
  0
LINE
  8
AUTOCAD1
  6
CONTINUOUS
 62
40
 10
2.1098989E+002
 20
5.5448976E+001
 11
2.0598989E+002
 21
5.5448976E+001
  0
LINE
  8
AUTOCAD1
  6
CONTINUOUS
 62
40
 10
2.1098989E+002
 20
7.8489755
 11
2.0598989E+002
 21
7.8489755
  0
CIRCLE
  8
AUTOCAD1
  6
HIDDEN
 62
40
 10
1.9333715E+002
 20
3.164624E+001
 40
7.6
  0
ARC
  8
AUTOCAD1
  6
CONTINUOUS
 62
40
 10
9.4067736E+001
 20
3.5273308E+001
 40
1.0
 50
2.321E-007
 51
9.0E+001
  0
LINE
  8
AUTOCAD1
  6
CONTINUOUS
 62
40
 10
9.5067736E+001
 20
3.5273308E+001
 11
9.5067736E+001
 21
2.6145214E+001
  0
LINE
  8
AUTOCAD1
  6
CONTINUOUS
 62
40
 10
9.3667736E+001
 20
3.6273308E+001
 11
9.4067736E+001
 21
3.6273308E+001
  0
LINE
  8
AUTOCAD1
  6
CONTINUOUS
 62
40
 10
8.4267736E+001
 20
2.6145214E+001
 11
8.4267736E+001
 21
3.5273308E+001
  0
ARC
  8
AUTOCAD1
  6
CONTINUOUS
 62
40
 10
8.9667736E+001
 20
3.279624E+001
 40
5.3
 50
4.0999353E+001
 51
1.3900065E+002
  0
LINE
  8
AUTOCAD1
  6
CONTINUOUS
 62
40
 10
8.5667736E+001
 20
3.6273308E+001
 11
8.5267736E+001
 21
3.6273308E+001
  0
ARC
  8
AUTOCAD1
  6
CONTINUOUS
 62
40
 10
8.5267736E+001
 20
3.5273308E+001
 40
1.0
 50
9.0E+001
 51
1.8E+002
  0
LINE
  8
AUTOCAD1
  6
CONTINUOUS
 62
40
 10
9.5067736E+001
 20
2.6145214E+001
 11
8.4267736E+001
 21
2.6145214E+001
  0
ARC
  8
AUTOCAD1
  6
CONTINUOUS
 62
40
 10
8.9667736E+001
 20
3.1555269E+001
 40
3.0
 50
0.0
 51
1.8E+002
  0
ARC
  8
AUTOCAD1
  6
CONTINUOUS
 62
40
 10
8.9667736E+001
 20
3.1555269E+001
 40
3.0
 50
1.8E+002
 51
3.6E+002
  0
ARC
  8
AUTOCAD1
  6
CONTINUOUS
 62
40
 10
8.9657736E+001
 20
3.164624E+001
 40
6.5999999
 50
3.2505447E+002
 51
3.951801E+002
  0
ARC
  8
AUTOCAD1
  6
CONTINUOUS
 62
40
 10
8.9657736E+001
 20
3.164624E+001
 40
6.5999997
 50
4.3692054E+001
 51
1.3646872E+002
  0
ARC
  8
AUTOCAD1
  6
CONTINUOUS
 62
40
 10
8.9657736E+001
 20
3.164624E+001
 40
6.6000001
 50
1.4440347E+002
 51
2.1524751E+002
  0
LINE
  8
AUTOCAD1
  6
CONTINUOUS
 62
40
 10
1.4243871E+002
 20
3.8307714E+001
 11
1.3283871E+002
 21
3.8307714E+001
  0
LINE
  8
AUTOCAD1
  6
CONTINUOUS
 62
40
 10
1.4193871E+002
 20
4.3302737E+001
 11
1.3283871E+002
 21
4.3302737E+001
  0
LINE
  8
AUTOCAD1
  6
CONTINUOUS
 62
40
 10
1.4193871E+002
 20
4.3302737E+001
 11
1.4193871E+002
 21
3.8307714E+001
  0
LINE
  8
AUTOCAD1
  6
CONTINUOUS
 62
40
 10
1.3283871E+002
 20
4.4251711E+001
 11
1.3283871E+002
 21
3.8307714E+001
  0
LINE
  8
AUTOCAD1
  6
CONTINUOUS
 62
40
 10
1.3283871E+002
 20
3.9151711E+001
 11
1.3233871E+002
 21
3.9151711E+001
  0
LINE
  8
AUTOCAD1
  6
CONTINUOUS
 62
40
 10
1.4243871E+002
 20
2.7401711E+001
 11
1.3233871E+002
 21
2.7401711E+001
  0
LINE
  8
AUTOCAD1
  6
CONTINUOUS
 62
40
 10
1.3233871E+002
 20
2.6151711E+001
 11
1.4243871E+002
 21
2.6151711E+001
  0
LINE
  8
AUTOCAD1
  6
CONTINUOUS
 62
40
 10
1.5413871E+002
 20
2.7401711E+001
 11
1.4453871E+002
 21
2.7401711E+001
  0
LINE
  8
AUTOCAD1
  6
CONTINUOUS
 62
40
 10
1.4453871E+002
 20
2.6151711E+001
 11
1.5463871E+002
 21
2.6151711E+001
  0
LINE
  8
AUTOCAD1
  6
CONTINUOUS
 62
40
 10
1.5818871E+002
 20
2.6447931E+001
 11
1.5963871E+002
 21
2.6447931E+001
  0
LINE
  8
AUTOCAD1
  6
CONTINUOUS
 62
40
 10
1.5963871E+002
 20
3.8102737E+001
 11
1.5963871E+002
 21
2.6151711E+001
  0
LINE
  8
AUTOCAD1
  6
CONTINUOUS
 62
40
 10
1.5663871E+002
 20
3.9151711E+001
 11
1.5663871E+002
 21
2.6151711E+001
  0
LINE
  8
AUTOCAD1
  6
CONTINUOUS
 62
40
 10
1.5818871E+002
 20
3.6279805E+001
 11
1.5818871E+002
 21
2.6151711E+001
  0
LINE
  8
AUTOCAD1
  6
CONTINUOUS
 62
40
 10
1.5963871E+002
 20
3.8102737E+001
 11
1.5663871E+002
 21
3.8102737E+001
  0
LINE
  8
AUTOCAD1
  6
CONTINUOUS
 62
40
 10
1.5963871E+002
 20
3.6279805E+001
 11
1.5663871E+002
 21
3.6279805E+001
  0
LINE
  8
AUTOCAD1
  6
CONTINUOUS
 62
40
 10
1.5663871E+002
 20
3.9151711E+001
 11
1.5563871E+002
 21
3.9151711E+001
  0
LINE
  8
AUTOCAD1
  6
CONTINUOUS
 62
40
 10
1.5413871E+002
 20
3.8307714E+001
 11
1.4503871E+002
 21
3.8307714E+001
  0
LINE
  8
AUTOCAD1
  6
CONTINUOUS
 62
40
 10
1.5413871E+002
 20
4.3302737E+001
 11
1.4503871E+002
 21
4.3302737E+001
  0
LINE
  8
AUTOCAD1
  6
CONTINUOUS
 62
40
 10
1.4503871E+002
 20
4.4251711E+001
 11
1.4503871E+002
 21
3.8307714E+001
  0
LINE
  8
AUTOCAD1
  6
CONTINUOUS
 62
40
 10
1.5413871E+002
 20
4.3302737E+001
 11
1.5413871E+002
 21
3.8307714E+001
  0
LINE
  8
AUTOCAD1
  6
CONTINUOUS
 62
40
 10
1.5463871E+002
 20
3.9151711E+001
 11
1.5413871E+002
 21
3.9151711E+001
  0
LINE
  8
AUTOCAD1
  6
CONTINUOUS
 62
40
 10
1.5563871E+002
 20
2.6151711E+001
 11
1.5963871E+002
 21
2.6151711E+001
  0
LINE
  8
AUTOCAD1
  6
CONTINUOUS
 62
40
 10
1.4433656E+002
 20
7.1355711E+001
 11
1.4453871E+002
 21
7.1355711E+001
  0
LINE
  8
AUTOCAD1
  6
CONTINUOUS
 62
40
 10
1.4453871E+002
 20
6.9855816E+001
 11
1.4453871E+002
 21
7.9008447E+001
  0
LINE
  8
AUTOCAD1
  6
CONTINUOUS
 62
40
 10
1.4203871E+002
 20
6.9855816E+001
 11
1.3243871E+002
 21
6.9855816E+001
  0
LINE
  8
AUTOCAD1
  6
CONTINUOUS
 62
40
 10
1.4203871E+002
 20
7.1355711E+001
 11
1.4453871E+002
 21
7.1355711E+001
  0
LINE
  8
AUTOCAD1
  6
CONTINUOUS
 62
40
 10
1.4453871E+002
 20
7.1355711E+001
 11
1.4453871E+002
 21
7.4955711E+001
  0
LINE
  8
AUTOCAD1
  6
CONTINUOUS
 62
40
 10
1.4203871E+002
 20
6.7975444E+001
 11
1.4203871E+002
 21
7.1355711E+001
  0
LINE
  8
AUTOCAD1
  6
CONTINUOUS
 62
40
 10
1.3243871E+002
 20
6.7975444E+001
 11
1.3243871E+002
 21
7.7808447E+001
  0
LINE
  8
AUTOCAD1
  6
CONTINUOUS
 62
40
 10
1.4453871E+002
 20
7.9008447E+001
 11
1.4453871E+002
 21
7.4955711E+001
  0
LINE
  8
AUTOCAD1
  6
CONTINUOUS
 62
40
 10
1.5413871E+002
 20
6.9855816E+001
 11
1.4453871E+002
 21
6.9855816E+001
  0
LINE
  8
AUTOCAD1
  6
CONTINUOUS
 62
40
 10
1.5818871E+002
 20
7.4955711E+001
 11
1.5663871E+002
 21
7.4955711E+001
  0
LINE
  8
AUTOCAD1
  6
CONTINUOUS
 62
40
 10
1.5963871E+002
 20
7.3455711E+001
 11
1.5963871E+002
 21
8.4355711E+001
  0
LINE
  8
AUTOCAD1
  6
CONTINUOUS
 62
40
 10
1.5818871E+002
 20
7.3455711E+001
 11
1.5963871E+002
 21
7.3455711E+001
  0
LINE
  8
AUTOCAD1
  6
CONTINUOUS
 62
40
 10
1.5663871E+002
 20
8.2755711E+001
 11
1.5818871E+002
 21
8.2755711E+001
  0
LINE
  8
AUTOCAD1
  6
CONTINUOUS
 62
40
 10
1.5663871E+002
 20
7.1355711E+001
 11
1.5663871E+002
 21
7.4955711E+001
  0
LINE
  8
AUTOCAD1
  6
CONTINUOUS
 62
40
 10
1.5818871E+002
 20
7.3455711E+001
 11
1.5818871E+002
 21
7.4855711E+001
  0
LINE
  8
AUTOCAD1
  6
CONTINUOUS
 62
40
 10
1.5818871E+002
 20
8.2855711E+001
 11
1.5818871E+002
 21
8.4355711E+001
  0
LINE
  8
AUTOCAD1
  6
CONTINUOUS
 62
40
 10
1.5663871E+002
 20
8.6355711E+001
 11
1.5663871E+002
 21
7.4955711E+001
  0
LINE
  8
AUTOCAD1
  6
CONTINUOUS
 62
40
 10
1.5818871E+002
 20
8.4255711E+001
 11
1.5963871E+002
 21
8.4255711E+001
  0
LINE
  8
AUTOCAD1
  6
CONTINUOUS
 62
40
 10
1.5563871E+002
 20
8.6355711E+001
 11
1.5663871E+002
 21
8.6355711E+001
  0
LINE
  8
AUTOCAD1
  6
CONTINUOUS
 62
40
 10
1.5563871E+002
 20
7.1355711E+001
 11
1.5663871E+002
 21
7.1355711E+001
  0
LINE
  8
AUTOCAD1
  6
CONTINUOUS
 62
40
 10
1.5413871E+002
 20
6.9855816E+001
 11
1.5413871E+002
 21
7.1355711E+001
  0
LINE
  8
AUTOCAD1
  6
CONTINUOUS
 62
40
 10
1.5413871E+002
 20
7.1355711E+001
 11
1.5463871E+002
 21
7.1355711E+001
  0
ARC
  8
AUTOCAD1
  6
CONTINUOUS
 62
40
 10
2.7657736E+001
 20
1.414624E+001
 40
1.5
 50
1.8E+002
 51
4.5E+002
  0
ARC
  8
AUTOCAD1
  6
CONTINUOUS
 62
40
 10
5.5157736E+001
 20
1.414624E+001
 40
1.5
 50
1.8E+002
 51
4.5E+002
  0
ARC
  8
AUTOCAD1
  6
CONTINUOUS
 62
40
 10
5.5157736E+001
 20
4.914624E+001
 40
1.5
 50
2.7E+002
 51
5.4E+002
  0
ARC
  8
AUTOCAD1
  6
CONTINUOUS
 62
40
 10
2.7657736E+001
 20
4.914624E+001
 40
1.5
 50
2.7E+002
 51
5.4E+002
  0
LINE
  8
AUTOCAD1
  6
CENTERLINE
 62
40
 10
1.2998871E+002
 20
1.4085571E+002
 11
1.2248871E+002
 21
1.4085571E+002
  0
LINE
  8
AUTOCAD1
  6
CENTERLINE
 62
40
 10
1.2998871E+002
 20
1.1335571E+002
 11
1.2248871E+002
 21
1.1335571E+002
  0
ARC
  8
AUTOCAD1
  6
CONTINUOUS
 62
40
 10
2.5533715E+002
 20
4.914624E+001
 40
1.5
 50
0.0
 51
2.7E+002
  0
ARC
  8
AUTOCAD1
  6
CONTINUOUS
 62
40
 10
2.2783715E+002
 20
4.914624E+001
 40
1.5
 50
0.0
 51
2.7E+002
  0
ARC
  8
AUTOCAD1
  6
CONTINUOUS
 62
40
 10
2.2783715E+002
 20
1.414624E+001
 40
1.5
 50
9.0E+001
 51
3.6E+002
  0
ARC
  8
AUTOCAD1
  6
CONTINUOUS
 62
40
 10
2.5533715E+002
 20
1.414624E+001
 40
1.5
 50
9.0E+001
 51
3.6E+002
  0
LINE
  8
AUTOCAD1
  6
CONTINUOUS
 62
40
 10
2.6283715E+002
 20
5.6948976E+001
 11
1.9348715E+002
 21
5.6948976E+001
  0
LINE
  8
AUTOCAD1
  6
CONTINUOUS
 62
40
 10
2.6283715E+002
 20
6.3489755
 11
1.9348715E+002
 21
6.3489755
  0
LINE
  8
AUTOCAD1
  6
CONTINUOUS
 62
40
 10
2.1098989E+002
 20
2.889624E+001
 11
2.1098989E+002
 21
3.439624E+001
  0
LINE
  8
AUTOCAD1
  6
CONTINUOUS
 62
40
 10
1.4203871E+002
 20
6.7975444E+001
 11
1.3243871E+002
 21
6.7975444E+001
  0
LINE
  8
AUTOCAD1
  6
CONTINUOUS
 62
40
 10
1.9565286E+002
 20
2.844624E+001
 11
1.9102145E+002
 21
2.844624E+001
  0
ARC
  8
AUTOCAD1
  6
CONTINUOUS
 62
40
 10
1.9333715E+002
 20
3.1646238E+001
 40
3.9499963
 50
2.832E-005
 51
2.3410833E+002
  0
ARC
  8
AUTOCAD1
  6
CONTINUOUS
 62
40
 10
1.9333715E+002
 20
3.1646237E+001
 40
3.9499987
 50
3.0589174E+002
 51
3.6000004E+002
  0
TEXT
  8
AUTOCAD1
  6
CONTINUOUS
 62
40
 10
1.18915E+002
 20
1.54819E+002
 40
3.0
  1
OESAZX 250
  0
ENDSEC
  0
EOF
