ISO-10303-21;
HEADER;
FILE_DESCRIPTION(('CATIA V5 STEP'),'2;1');

FILE_NAME('C:\\Users\\ITLUGRI2\\Desktop\\Modelli semplificati Emax\\E2.2\\1SDH001336R0106_E2.2_III_W_FLOOR_FIXING_UL.stp','2014-09-20T08:59:08+00:00',('none'),('none'),'CATIA Version 5 Release 20 SP 6 (IN-10)','CATIA V5 STEP AP214','none');

FILE_SCHEMA(('AUTOMOTIVE_DESIGN { 1 0 10303 214 1 1 1 1 }'));

ENDSEC;
/* file written by CATIA V5R20 */
DATA;
#5=PRODUCT('E2.2_III_W_FLOOR_FIXING','','',(#2)) ;
#2=PRODUCT_CONTEXT(' ',#1,'mechanical') ;
#1=APPLICATION_CONTEXT('automotive design') ;
#10=PRODUCT_DEFINITION('',' ',#6,#3) ;
#3=PRODUCT_DEFINITION_CONTEXT('part definition',#1,' ') ;
#11=PRODUCT_DEFINITION_SHAPE(' ',' ',#10) ;
#578=MECHANICAL_DESIGN_GEOMETRIC_PRESENTATION_REPRESENTATION(' ',(#30),#17) ;
#20=SHAPE_REPRESENTATION(' ',(#19),#17) ;
#19=AXIS2_PLACEMENT_3D(' ',#18,$,$) ;
#35=AXIS2_PLACEMENT_3D('Cylinder Axis2P3D',#32,#33,#34) ;
#39=AXIS2_PLACEMENT_3D('Circle Axis2P3D',#37,#38,$) ;
#55=AXIS2_PLACEMENT_3D('Circle Axis2P3D',#53,#54,$) ;
#74=AXIS2_PLACEMENT_3D('Circle Axis2P3D',#72,#73,$) ;
#79=AXIS2_PLACEMENT_3D('Circle Axis2P3D',#77,#78,$) ;
#92=AXIS2_PLACEMENT_3D('Cylinder Axis2P3D',#89,#90,#91) ;
#96=AXIS2_PLACEMENT_3D('Circle Axis2P3D',#94,#95,$) ;
#112=AXIS2_PLACEMENT_3D('Circle Axis2P3D',#110,#111,$) ;
#131=AXIS2_PLACEMENT_3D('Circle Axis2P3D',#129,#130,$) ;
#136=AXIS2_PLACEMENT_3D('Circle Axis2P3D',#134,#135,$) ;
#149=AXIS2_PLACEMENT_3D('Cylinder Axis2P3D',#146,#147,#148) ;
#153=AXIS2_PLACEMENT_3D('Circle Axis2P3D',#151,#152,$) ;
#169=AXIS2_PLACEMENT_3D('Circle Axis2P3D',#167,#168,$) ;
#188=AXIS2_PLACEMENT_3D('Circle Axis2P3D',#186,#187,$) ;
#193=AXIS2_PLACEMENT_3D('Circle Axis2P3D',#191,#192,$) ;
#206=AXIS2_PLACEMENT_3D('Cylinder Axis2P3D',#203,#204,#205) ;
#210=AXIS2_PLACEMENT_3D('Circle Axis2P3D',#208,#209,$) ;
#226=AXIS2_PLACEMENT_3D('Circle Axis2P3D',#224,#225,$) ;
#245=AXIS2_PLACEMENT_3D('Circle Axis2P3D',#243,#244,$) ;
#250=AXIS2_PLACEMENT_3D('Circle Axis2P3D',#248,#249,$) ;
#263=AXIS2_PLACEMENT_3D('Plane Axis2P3D',#260,#261,#262) ;
#303=AXIS2_PLACEMENT_3D('Plane Axis2P3D',#300,#301,#302) ;
#334=AXIS2_PLACEMENT_3D('Plane Axis2P3D',#331,#332,#333) ;
#365=AXIS2_PLACEMENT_3D('Plane Axis2P3D',#362,#363,#364) ;
#387=AXIS2_PLACEMENT_3D('Plane Axis2P3D',#384,#385,#386) ;
#449=AXIS2_PLACEMENT_3D('Plane Axis2P3D',#446,#447,#448) ;
#511=AXIS2_PLACEMENT_3D('Plane Axis2P3D',#508,#509,#510) ;
#533=AXIS2_PLACEMENT_3D('Plane Axis2P3D',#530,#531,#532) ;
#550=AXIS2_PLACEMENT_3D('Plane Axis2P3D',#547,#548,#549) ;
#567=AXIS2_PLACEMENT_3D('Plane Axis2P3D',#564,#565,#566) ;
#18=CARTESIAN_POINT(' ',(0.,0.,0.)) ;
#32=CARTESIAN_POINT('Axis2P3D Location',(-62.9998288574,294.999894775,-31.1)) ;
#37=CARTESIAN_POINT('Axis2P3D Location',(-62.9998288574,294.999894775,-31.)) ;
#41=CARTESIAN_POINT('Vertex',(-67.3877416669,297.397022468,-31.)) ;
#43=CARTESIAN_POINT('Vertex',(-58.611916048,292.602767082,-31.)) ;
#46=CARTESIAN_POINT('Line Origine',(-58.611916048,292.602767082,-35.8449999999)) ;
#50=CARTESIAN_POINT('Vertex',(-58.611916048,292.602767082,-41.)) ;
#53=CARTESIAN_POINT('Axis2P3D Location',(-62.9998288574,294.999894775,-41.)) ;
#57=CARTESIAN_POINT('Vertex',(-67.3877416669,297.397022468,-41.)) ;
#60=CARTESIAN_POINT('Line Origine',(-67.3877416669,297.397022468,-35.8449999999)) ;
#72=CARTESIAN_POINT('Axis2P3D Location',(-62.9998288574,294.999894775,-31.)) ;
#77=CARTESIAN_POINT('Axis2P3D Location',(-62.9998288574,294.999894775,-41.)) ;
#89=CARTESIAN_POINT('Axis2P3D Location',(-212.999828857,144.999894775,-31.1)) ;
#94=CARTESIAN_POINT('Axis2P3D Location',(-212.999828857,144.999894775,-31.)) ;
#98=CARTESIAN_POINT('Vertex',(-208.611916048,142.602767082,-31.)) ;
#100=CARTESIAN_POINT('Vertex',(-217.387741667,147.397022468,-31.)) ;
#103=CARTESIAN_POINT('Line Origine',(-217.387741667,147.397022468,-35.8449999999)) ;
#107=CARTESIAN_POINT('Vertex',(-217.387741667,147.397022468,-41.)) ;
#110=CARTESIAN_POINT('Axis2P3D Location',(-212.999828857,144.999894775,-41.)) ;
#114=CARTESIAN_POINT('Vertex',(-208.611916048,142.602767082,-41.)) ;
#117=CARTESIAN_POINT('Line Origine',(-208.611916048,142.602767082,-35.8449999999)) ;
#129=CARTESIAN_POINT('Axis2P3D Location',(-212.999828857,144.999894775,-31.)) ;
#134=CARTESIAN_POINT('Axis2P3D Location',(-212.999828857,144.999894775,-41.)) ;
#146=CARTESIAN_POINT('Axis2P3D Location',(-212.999828857,294.999894775,-31.1)) ;
#151=CARTESIAN_POINT('Axis2P3D Location',(-212.999828857,294.999894775,-31.)) ;
#155=CARTESIAN_POINT('Vertex',(-208.611916048,292.602767082,-31.)) ;
#157=CARTESIAN_POINT('Vertex',(-217.387741667,297.397022468,-31.)) ;
#160=CARTESIAN_POINT('Line Origine',(-217.387741667,297.397022468,-35.8449999999)) ;
#164=CARTESIAN_POINT('Vertex',(-217.387741667,297.397022468,-41.)) ;
#167=CARTESIAN_POINT('Axis2P3D Location',(-212.999828857,294.999894775,-41.)) ;
#171=CARTESIAN_POINT('Vertex',(-208.611916048,292.602767082,-41.)) ;
#174=CARTESIAN_POINT('Line Origine',(-208.611916048,292.602767082,-35.8449999999)) ;
#186=CARTESIAN_POINT('Axis2P3D Location',(-212.999828857,294.999894775,-31.)) ;
#191=CARTESIAN_POINT('Axis2P3D Location',(-212.999828857,294.999894775,-41.)) ;
#203=CARTESIAN_POINT('Axis2P3D Location',(-62.9998288574,144.999894775,-31.1)) ;
#208=CARTESIAN_POINT('Axis2P3D Location',(-62.9998288574,144.999894775,-31.)) ;
#212=CARTESIAN_POINT('Vertex',(-58.611916048,142.602767082,-31.)) ;
#214=CARTESIAN_POINT('Vertex',(-67.3877416669,147.397022468,-31.)) ;
#217=CARTESIAN_POINT('Line Origine',(-67.3877416669,147.397022468,-35.8449999999)) ;
#221=CARTESIAN_POINT('Vertex',(-67.3877416669,147.397022468,-41.)) ;
#224=CARTESIAN_POINT('Axis2P3D Location',(-62.9998288574,144.999894775,-41.)) ;
#228=CARTESIAN_POINT('Vertex',(-58.611916048,142.602767082,-41.)) ;
#231=CARTESIAN_POINT('Line Origine',(-58.611916048,142.602767082,-35.8449999999)) ;
#243=CARTESIAN_POINT('Axis2P3D Location',(-62.9998288574,144.999894775,-31.)) ;
#248=CARTESIAN_POINT('Axis2P3D Location',(-62.9998288574,144.999894775,-41.)) ;
#260=CARTESIAN_POINT('Axis2P3D Location',(22.0001711426,9.99989477539,-31.)) ;
#265=CARTESIAN_POINT('Line Origine',(-137.999828857,9.99989477539,-41.)) ;
#269=CARTESIAN_POINT('Vertex',(-297.999828857,9.99989477539,-41.)) ;
#271=CARTESIAN_POINT('Vertex',(22.0001711426,9.99989477539,-41.)) ;
#274=CARTESIAN_POINT('Line Origine',(22.0001711426,9.99989477539,-36.)) ;
#278=CARTESIAN_POINT('Vertex',(22.0001711426,9.99989477539,-31.)) ;
#281=CARTESIAN_POINT('Line Origine',(-137.999828857,9.99989477539,-31.)) ;
#285=CARTESIAN_POINT('Vertex',(-297.999828857,9.99989477539,-31.)) ;
#288=CARTESIAN_POINT('Line Origine',(-297.999828857,9.99989477539,-36.)) ;
#300=CARTESIAN_POINT('Axis2P3D Location',(-297.999828857,359.999894775,-31.)) ;
#305=CARTESIAN_POINT('Line Origine',(-297.999828857,184.999894775,-41.)) ;
#309=CARTESIAN_POINT('Vertex',(-297.999828857,359.999894775,-41.)) ;
#312=CARTESIAN_POINT('Line Origine',(-297.999828857,184.999894775,-31.)) ;
#316=CARTESIAN_POINT('Vertex',(-297.999828857,359.999894775,-31.)) ;
#319=CARTESIAN_POINT('Line Origine',(-297.999828857,359.999894775,-36.)) ;
#331=CARTESIAN_POINT('Axis2P3D Location',(-297.999828857,359.999894775,-31.)) ;
#336=CARTESIAN_POINT('Line Origine',(-137.999828857,359.999894775,-41.)) ;
#340=CARTESIAN_POINT('Vertex',(22.0001711426,359.999894775,-41.)) ;
#343=CARTESIAN_POINT('Line Origine',(-137.999828857,359.999894775,-31.)) ;
#347=CARTESIAN_POINT('Vertex',(22.0001711426,359.999894775,-31.)) ;
#350=CARTESIAN_POINT('Line Origine',(22.0001711426,359.999894775,-36.)) ;
#362=CARTESIAN_POINT('Axis2P3D Location',(22.0001711426,9.99989477539,-31.)) ;
#367=CARTESIAN_POINT('Line Origine',(22.0001711426,184.999894775,-41.)) ;
#372=CARTESIAN_POINT('Line Origine',(22.0001711426,184.999894775,-31.)) ;
#384=CARTESIAN_POINT('Axis2P3D Location',(-137.999828857,219.999894775,-31.)) ;
#395=CARTESIAN_POINT('Line Origine',(-272.999828857,44.9998947754,-31.)) ;
#399=CARTESIAN_POINT('Vertex',(-272.999828857,69.9998947754,-31.)) ;
#401=CARTESIAN_POINT('Vertex',(-272.999828857,19.9998947754,-31.)) ;
#404=CARTESIAN_POINT('Line Origine',(-137.999828857,69.9998947754,-31.)) ;
#408=CARTESIAN_POINT('Vertex',(-2.99982885742,69.9998947754,-31.)) ;
#411=CARTESIAN_POINT('Line Origine',(-2.99982885742,44.9998947754,-31.)) ;
#415=CARTESIAN_POINT('Vertex',(-2.99982885742,19.9998947754,-31.)) ;
#418=CARTESIAN_POINT('Line Origine',(-137.999828857,19.9998947754,-31.)) ;
#446=CARTESIAN_POINT('Axis2P3D Location',(-137.999828857,219.999894775,-41.)) ;
#457=CARTESIAN_POINT('Line Origine',(-137.999828857,19.9998947754,-41.)) ;
#461=CARTESIAN_POINT('Vertex',(-272.999828857,19.9998947754,-41.)) ;
#463=CARTESIAN_POINT('Vertex',(-2.99982885742,19.9998947754,-41.)) ;
#466=CARTESIAN_POINT('Line Origine',(-2.99982885742,44.9998947754,-41.)) ;
#470=CARTESIAN_POINT('Vertex',(-2.99982885742,69.9998947754,-41.)) ;
#473=CARTESIAN_POINT('Line Origine',(-137.999828857,69.9998947754,-41.)) ;
#477=CARTESIAN_POINT('Vertex',(-272.999828857,69.9998947754,-41.)) ;
#480=CARTESIAN_POINT('Line Origine',(-272.999828857,44.9998947754,-41.)) ;
#508=CARTESIAN_POINT('Axis2P3D Location',(-2.99982885742,19.9998947754,-31.)) ;
#513=CARTESIAN_POINT('Line Origine',(-2.99982885742,19.9998947754,-36.)) ;
#518=CARTESIAN_POINT('Line Origine',(-2.99982885742,69.9998947754,-36.)) ;
#530=CARTESIAN_POINT('Axis2P3D Location',(-2.99982885742,19.9998947754,-31.)) ;
#535=CARTESIAN_POINT('Line Origine',(-272.999828857,19.9998947754,-36.)) ;
#547=CARTESIAN_POINT('Axis2P3D Location',(-272.999828857,69.9998947754,-31.)) ;
#552=CARTESIAN_POINT('Line Origine',(-272.999828857,69.9998947754,-36.)) ;
#564=CARTESIAN_POINT('Axis2P3D Location',(-272.999828857,69.9998947754,-31.)) ;
#33=DIRECTION('Axis2P3D Direction',(-5.55111512313E-017,5.55111512313E-017,-1.)) ;
#34=DIRECTION('Axis2P3D XDirection',(-0.87758256189,0.479425538604,7.53290818886E-017)) ;
#38=DIRECTION('Axis2P3D Direction',(-5.55111512313E-017,5.55111512313E-017,-1.)) ;
#47=DIRECTION('Vector Direction',(0.,0.,-1.)) ;
#54=DIRECTION('Axis2P3D Direction',(-5.55111512313E-017,5.55111512313E-017,-1.)) ;
#61=DIRECTION('Vector Direction',(0.,0.,-1.)) ;
#73=DIRECTION('Axis2P3D Direction',(-5.55111512313E-017,5.55111512313E-017,-1.)) ;
#78=DIRECTION('Axis2P3D Direction',(-5.55111512313E-017,5.55111512313E-017,-1.)) ;
#90=DIRECTION('Axis2P3D Direction',(-5.55111512313E-017,5.55111512313E-017,-1.)) ;
#91=DIRECTION('Axis2P3D XDirection',(-0.87758256189,0.479425538604,7.53290818886E-017)) ;
#95=DIRECTION('Axis2P3D Direction',(-5.55111512313E-017,5.55111512313E-017,-1.)) ;
#104=DIRECTION('Vector Direction',(0.,0.,-1.)) ;
#111=DIRECTION('Axis2P3D Direction',(-5.55111512313E-017,5.55111512313E-017,-1.)) ;
#118=DIRECTION('Vector Direction',(0.,0.,-1.)) ;
#130=DIRECTION('Axis2P3D Direction',(-5.55111512313E-017,5.55111512313E-017,-1.)) ;
#135=DIRECTION('Axis2P3D Direction',(-5.55111512313E-017,5.55111512313E-017,-1.)) ;
#147=DIRECTION('Axis2P3D Direction',(-5.55111512313E-017,5.55111512313E-017,-1.)) ;
#148=DIRECTION('Axis2P3D XDirection',(-0.87758256189,0.479425538604,7.53290818886E-017)) ;
#152=DIRECTION('Axis2P3D Direction',(-5.55111512313E-017,5.55111512313E-017,-1.)) ;
#161=DIRECTION('Vector Direction',(0.,0.,-1.)) ;
#168=DIRECTION('Axis2P3D Direction',(-5.55111512313E-017,5.55111512313E-017,-1.)) ;
#175=DIRECTION('Vector Direction',(0.,0.,-1.)) ;
#187=DIRECTION('Axis2P3D Direction',(-5.55111512313E-017,5.55111512313E-017,-1.)) ;
#192=DIRECTION('Axis2P3D Direction',(-5.55111512313E-017,5.55111512313E-017,-1.)) ;
#204=DIRECTION('Axis2P3D Direction',(-5.55111512313E-017,5.55111512313E-017,-1.)) ;
#205=DIRECTION('Axis2P3D XDirection',(-0.87758256189,0.479425538604,7.53290818886E-017)) ;
#209=DIRECTION('Axis2P3D Direction',(-5.55111512313E-017,5.55111512313E-017,-1.)) ;
#218=DIRECTION('Vector Direction',(0.,0.,-1.)) ;
#225=DIRECTION('Axis2P3D Direction',(-5.55111512313E-017,5.55111512313E-017,-1.)) ;
#232=DIRECTION('Vector Direction',(0.,0.,-1.)) ;
#244=DIRECTION('Axis2P3D Direction',(-5.55111512313E-017,5.55111512313E-017,-1.)) ;
#249=DIRECTION('Axis2P3D Direction',(-5.55111512313E-017,5.55111512313E-017,-1.)) ;
#261=DIRECTION('Axis2P3D Direction',(1.77975831146E-016,-1.,-5.55111512313E-017)) ;
#262=DIRECTION('Axis2P3D XDirection',(-1.,-1.77975831146E-016,5.55111512313E-017)) ;
#266=DIRECTION('Vector Direction',(-1.,-1.7763568394E-016,4.4408920985E-017)) ;
#275=DIRECTION('Vector Direction',(0.,0.,-1.)) ;
#282=DIRECTION('Vector Direction',(-1.,-1.7763568394E-016,5.55111512313E-017)) ;
#289=DIRECTION('Vector Direction',(0.,0.,-1.)) ;
#301=DIRECTION('Axis2P3D Direction',(1.,1.77975831146E-016,-5.55111512313E-017)) ;
#302=DIRECTION('Axis2P3D XDirection',(1.77975831146E-016,-1.,-5.55111512313E-017)) ;
#306=DIRECTION('Vector Direction',(1.62409768174E-016,-1.,-4.06024420434E-017)) ;
#313=DIRECTION('Vector Direction',(1.62409768174E-016,-1.,-5.07530525543E-017)) ;
#320=DIRECTION('Vector Direction',(0.,0.,-1.)) ;
#332=DIRECTION('Axis2P3D Direction',(-1.77975831146E-016,1.,5.55111512313E-017)) ;
#333=DIRECTION('Axis2P3D XDirection',(1.,1.77975831146E-016,-5.55111512313E-017)) ;
#337=DIRECTION('Vector Direction',(1.,1.7763568394E-016,-4.4408920985E-017)) ;
#344=DIRECTION('Vector Direction',(1.,1.7763568394E-016,-5.55111512313E-017)) ;
#351=DIRECTION('Vector Direction',(0.,0.,-1.)) ;
#363=DIRECTION('Axis2P3D Direction',(-1.,-1.77975831146E-016,5.55111512313E-017)) ;
#364=DIRECTION('Axis2P3D XDirection',(-1.77975831146E-016,1.,5.55111512313E-017)) ;
#368=DIRECTION('Vector Direction',(-1.82710989195E-016,1.,4.06024420434E-017)) ;
#373=DIRECTION('Vector Direction',(-1.82710989195E-016,1.,5.07530525543E-017)) ;
#385=DIRECTION('Axis2P3D Direction',(5.55111512313E-017,-5.55111512313E-017,1.)) ;
#386=DIRECTION('Axis2P3D XDirection',(-1.,-1.77975831146E-016,5.55111512313E-017)) ;
#396=DIRECTION('Vector Direction',(1.13686837722E-015,-1.,-7.1054273576E-017)) ;
#405=DIRECTION('Vector Direction',(1.,2.10531180966E-016,-5.26327952415E-017)) ;
#412=DIRECTION('Vector Direction',(-1.7763568394E-016,1.,7.1054273576E-017)) ;
#419=DIRECTION('Vector Direction',(-1.,-2.10531180966E-016,5.26327952415E-017)) ;
#447=DIRECTION('Axis2P3D Direction',(5.55111512313E-017,-5.55111512313E-017,1.)) ;
#448=DIRECTION('Axis2P3D XDirection',(-1.,-1.77975831146E-016,5.55111512313E-017)) ;
#458=DIRECTION('Vector Direction',(-1.,-2.10531180966E-016,5.26327952415E-017)) ;
#467=DIRECTION('Vector Direction',(-1.7763568394E-016,1.,1.42108547152E-016)) ;
#474=DIRECTION('Vector Direction',(1.,2.10531180966E-016,-5.26327952415E-017)) ;
#481=DIRECTION('Vector Direction',(1.13686837722E-015,-1.,-1.42108547152E-016)) ;
#509=DIRECTION('Axis2P3D Direction',(-1.,-1.77975831146E-016,5.55111512313E-017)) ;
#510=DIRECTION('Axis2P3D XDirection',(-1.77975831146E-016,1.,5.55111512313E-017)) ;
#514=DIRECTION('Vector Direction',(-4.4408920985E-017,0.,-1.)) ;
#519=DIRECTION('Vector Direction',(-4.4408920985E-017,0.,-1.)) ;
#531=DIRECTION('Axis2P3D Direction',(1.77975831146E-016,-1.,-5.55111512313E-017)) ;
#532=DIRECTION('Axis2P3D XDirection',(-1.,-1.77975831146E-016,5.55111512313E-017)) ;
#536=DIRECTION('Vector Direction',(0.,0.,-1.)) ;
#548=DIRECTION('Axis2P3D Direction',(-1.77975831146E-016,1.,5.55111512313E-017)) ;
#549=DIRECTION('Axis2P3D XDirection',(1.,1.77975831146E-016,-5.55111512313E-017)) ;
#553=DIRECTION('Vector Direction',(0.,0.,-1.)) ;
#565=DIRECTION('Axis2P3D Direction',(1.,1.77975831146E-016,-5.55111512313E-017)) ;
#566=DIRECTION('Axis2P3D XDirection',(1.77975831146E-016,-1.,-5.55111512313E-017)) ;
#8=PRODUCT_RELATED_PRODUCT_CATEGORY('part',$,(#5)) ;
#7=PRODUCT_CATEGORY('part','specification') ;
#30=STYLED_ITEM(' ',(#29),#22) ;
#29=PRESENTATION_STYLE_ASSIGNMENT((#28)) ;
#28=SURFACE_STYLE_USAGE(.BOTH.,#27) ;
#27=SURFACE_SIDE_STYLE(' ',(#26)) ;
#26=SURFACE_STYLE_FILL_AREA(#25) ;
#25=FILL_AREA_STYLE(' ',(#24)) ;
#24=FILL_AREA_STYLE_COLOUR(' ',#23) ;
#48=VECTOR('Line Direction',#47,1.) ;
#62=VECTOR('Line Direction',#61,1.) ;
#105=VECTOR('Line Direction',#104,1.) ;
#119=VECTOR('Line Direction',#118,1.) ;
#162=VECTOR('Line Direction',#161,1.) ;
#176=VECTOR('Line Direction',#175,1.) ;
#219=VECTOR('Line Direction',#218,1.) ;
#233=VECTOR('Line Direction',#232,1.) ;
#267=VECTOR('Line Direction',#266,1.) ;
#276=VECTOR('Line Direction',#275,1.) ;
#283=VECTOR('Line Direction',#282,1.) ;
#290=VECTOR('Line Direction',#289,1.) ;
#307=VECTOR('Line Direction',#306,1.) ;
#314=VECTOR('Line Direction',#313,1.) ;
#321=VECTOR('Line Direction',#320,1.) ;
#338=VECTOR('Line Direction',#337,1.) ;
#345=VECTOR('Line Direction',#344,1.) ;
#352=VECTOR('Line Direction',#351,1.) ;
#369=VECTOR('Line Direction',#368,1.) ;
#374=VECTOR('Line Direction',#373,1.) ;
#397=VECTOR('Line Direction',#396,1.) ;
#406=VECTOR('Line Direction',#405,1.) ;
#413=VECTOR('Line Direction',#412,1.) ;
#420=VECTOR('Line Direction',#419,1.) ;
#459=VECTOR('Line Direction',#458,1.) ;
#468=VECTOR('Line Direction',#467,1.) ;
#475=VECTOR('Line Direction',#474,1.) ;
#482=VECTOR('Line Direction',#481,1.) ;
#515=VECTOR('Line Direction',#514,1.) ;
#520=VECTOR('Line Direction',#519,1.) ;
#537=VECTOR('Line Direction',#536,1.) ;
#554=VECTOR('Line Direction',#553,1.) ;
#16=UNCERTAINTY_MEASURE_WITH_UNIT(LENGTH_MEASURE(0.005),#12,'distance_accuracy_value','CONFUSED CURVE UNCERTAINTY') ;
#577=SHAPE_REPRESENTATION_RELATIONSHIP(' ',' ',#20,#576) ;
#66=ORIENTED_EDGE('',*,*,#45,.T.) ;
#67=ORIENTED_EDGE('',*,*,#52,.F.) ;
#68=ORIENTED_EDGE('',*,*,#59,.T.) ;
#69=ORIENTED_EDGE('',*,*,#64,.T.) ;
#83=ORIENTED_EDGE('',*,*,#76,.T.) ;
#84=ORIENTED_EDGE('',*,*,#64,.F.) ;
#85=ORIENTED_EDGE('',*,*,#81,.T.) ;
#86=ORIENTED_EDGE('',*,*,#52,.T.) ;
#123=ORIENTED_EDGE('',*,*,#102,.T.) ;
#124=ORIENTED_EDGE('',*,*,#109,.F.) ;
#125=ORIENTED_EDGE('',*,*,#116,.T.) ;
#126=ORIENTED_EDGE('',*,*,#121,.T.) ;
#140=ORIENTED_EDGE('',*,*,#133,.T.) ;
#141=ORIENTED_EDGE('',*,*,#121,.F.) ;
#142=ORIENTED_EDGE('',*,*,#138,.T.) ;
#143=ORIENTED_EDGE('',*,*,#109,.T.) ;
#180=ORIENTED_EDGE('',*,*,#159,.T.) ;
#181=ORIENTED_EDGE('',*,*,#166,.F.) ;
#182=ORIENTED_EDGE('',*,*,#173,.T.) ;
#183=ORIENTED_EDGE('',*,*,#178,.T.) ;
#197=ORIENTED_EDGE('',*,*,#190,.T.) ;
#198=ORIENTED_EDGE('',*,*,#178,.F.) ;
#199=ORIENTED_EDGE('',*,*,#195,.T.) ;
#200=ORIENTED_EDGE('',*,*,#166,.T.) ;
#237=ORIENTED_EDGE('',*,*,#216,.T.) ;
#238=ORIENTED_EDGE('',*,*,#223,.F.) ;
#239=ORIENTED_EDGE('',*,*,#230,.T.) ;
#240=ORIENTED_EDGE('',*,*,#235,.T.) ;
#254=ORIENTED_EDGE('',*,*,#247,.T.) ;
#255=ORIENTED_EDGE('',*,*,#235,.F.) ;
#256=ORIENTED_EDGE('',*,*,#252,.T.) ;
#257=ORIENTED_EDGE('',*,*,#223,.T.) ;
#294=ORIENTED_EDGE('',*,*,#273,.T.) ;
#295=ORIENTED_EDGE('',*,*,#280,.F.) ;
#296=ORIENTED_EDGE('',*,*,#287,.F.) ;
#297=ORIENTED_EDGE('',*,*,#292,.T.) ;
#325=ORIENTED_EDGE('',*,*,#311,.T.) ;
#326=ORIENTED_EDGE('',*,*,#292,.F.) ;
#327=ORIENTED_EDGE('',*,*,#318,.F.) ;
#328=ORIENTED_EDGE('',*,*,#323,.T.) ;
#356=ORIENTED_EDGE('',*,*,#342,.T.) ;
#357=ORIENTED_EDGE('',*,*,#323,.F.) ;
#358=ORIENTED_EDGE('',*,*,#349,.F.) ;
#359=ORIENTED_EDGE('',*,*,#354,.T.) ;
#378=ORIENTED_EDGE('',*,*,#371,.T.) ;
#379=ORIENTED_EDGE('',*,*,#354,.F.) ;
#380=ORIENTED_EDGE('',*,*,#376,.F.) ;
#381=ORIENTED_EDGE('',*,*,#280,.T.) ;
#390=ORIENTED_EDGE('',*,*,#376,.T.) ;
#391=ORIENTED_EDGE('',*,*,#349,.T.) ;
#392=ORIENTED_EDGE('',*,*,#318,.T.) ;
#393=ORIENTED_EDGE('',*,*,#287,.T.) ;
#424=ORIENTED_EDGE('',*,*,#403,.F.) ;
#425=ORIENTED_EDGE('',*,*,#410,.F.) ;
#426=ORIENTED_EDGE('',*,*,#417,.F.) ;
#427=ORIENTED_EDGE('',*,*,#422,.F.) ;
#430=ORIENTED_EDGE('',*,*,#76,.F.) ;
#431=ORIENTED_EDGE('',*,*,#45,.F.) ;
#434=ORIENTED_EDGE('',*,*,#216,.F.) ;
#435=ORIENTED_EDGE('',*,*,#247,.F.) ;
#438=ORIENTED_EDGE('',*,*,#159,.F.) ;
#439=ORIENTED_EDGE('',*,*,#190,.F.) ;
#442=ORIENTED_EDGE('',*,*,#102,.F.) ;
#443=ORIENTED_EDGE('',*,*,#133,.F.) ;
#452=ORIENTED_EDGE('',*,*,#273,.F.) ;
#453=ORIENTED_EDGE('',*,*,#311,.F.) ;
#454=ORIENTED_EDGE('',*,*,#342,.F.) ;
#455=ORIENTED_EDGE('',*,*,#371,.F.) ;
#486=ORIENTED_EDGE('',*,*,#465,.T.) ;
#487=ORIENTED_EDGE('',*,*,#472,.T.) ;
#488=ORIENTED_EDGE('',*,*,#479,.T.) ;
#489=ORIENTED_EDGE('',*,*,#484,.T.) ;
#492=ORIENTED_EDGE('',*,*,#81,.F.) ;
#493=ORIENTED_EDGE('',*,*,#59,.F.) ;
#496=ORIENTED_EDGE('',*,*,#230,.F.) ;
#497=ORIENTED_EDGE('',*,*,#252,.F.) ;
#500=ORIENTED_EDGE('',*,*,#173,.F.) ;
#501=ORIENTED_EDGE('',*,*,#195,.F.) ;
#504=ORIENTED_EDGE('',*,*,#116,.F.) ;
#505=ORIENTED_EDGE('',*,*,#138,.F.) ;
#524=ORIENTED_EDGE('',*,*,#517,.F.) ;
#525=ORIENTED_EDGE('',*,*,#417,.T.) ;
#526=ORIENTED_EDGE('',*,*,#522,.T.) ;
#527=ORIENTED_EDGE('',*,*,#472,.F.) ;
#541=ORIENTED_EDGE('',*,*,#539,.F.) ;
#542=ORIENTED_EDGE('',*,*,#422,.T.) ;
#543=ORIENTED_EDGE('',*,*,#517,.T.) ;
#544=ORIENTED_EDGE('',*,*,#465,.F.) ;
#558=ORIENTED_EDGE('',*,*,#522,.F.) ;
#559=ORIENTED_EDGE('',*,*,#410,.T.) ;
#560=ORIENTED_EDGE('',*,*,#556,.T.) ;
#561=ORIENTED_EDGE('',*,*,#479,.F.) ;
#570=ORIENTED_EDGE('',*,*,#556,.F.) ;
#571=ORIENTED_EDGE('',*,*,#403,.T.) ;
#572=ORIENTED_EDGE('',*,*,#539,.T.) ;
#573=ORIENTED_EDGE('',*,*,#484,.F.) ;
#428=FACE_BOUND('',#423,.T.) ;
#432=FACE_BOUND('',#429,.T.) ;
#436=FACE_BOUND('',#433,.T.) ;
#440=FACE_BOUND('',#437,.T.) ;
#444=FACE_BOUND('',#441,.T.) ;
#490=FACE_BOUND('',#485,.T.) ;
#494=FACE_BOUND('',#491,.T.) ;
#498=FACE_BOUND('',#495,.T.) ;
#502=FACE_BOUND('',#499,.T.) ;
#506=FACE_BOUND('',#503,.T.) ;
#31=CLOSED_SHELL('Closed Shell',(#71,#88,#128,#145,#185,#202,#242,#259,#299,#330,#361,#383,#445,#507,#529,#546,#563,#575)) ;
#576=ADVANCED_BREP_SHAPE_REPRESENTATION('NONE',(#22),#17) ;
#71=ADVANCED_FACE('Body.3',(#70),#36,.F.) ;
#88=ADVANCED_FACE('Body.3',(#87),#36,.F.) ;
#128=ADVANCED_FACE('Body.3',(#127),#93,.F.) ;
#145=ADVANCED_FACE('Body.3',(#144),#93,.F.) ;
#185=ADVANCED_FACE('Body.3',(#184),#150,.F.) ;
#202=ADVANCED_FACE('Body.3',(#201),#150,.F.) ;
#242=ADVANCED_FACE('Body.3',(#241),#207,.F.) ;
#259=ADVANCED_FACE('Body.3',(#258),#207,.F.) ;
#299=ADVANCED_FACE('Body.3',(#298),#264,.T.) ;
#330=ADVANCED_FACE('Body.3',(#329),#304,.F.) ;
#361=ADVANCED_FACE('Body.3',(#360),#335,.T.) ;
#383=ADVANCED_FACE('Body.3',(#382),#366,.F.) ;
#445=ADVANCED_FACE('Body.3',(#394,#428,#432,#436,#440,#444),#388,.T.) ;
#507=ADVANCED_FACE('Body.3',(#456,#490,#494,#498,#502,#506),#450,.F.) ;
#529=ADVANCED_FACE('Body.3',(#528),#512,.T.) ;
#546=ADVANCED_FACE('Body.3',(#545),#534,.F.) ;
#563=ADVANCED_FACE('Body.3',(#562),#551,.F.) ;
#575=ADVANCED_FACE('Body.3',(#574),#568,.T.) ;
#4=APPLICATION_PROTOCOL_DEFINITION('international standard','automotive_design',2001,#1) ;
#22=MANIFOLD_SOLID_BREP('Body.3',#31) ;
#40=CIRCLE('generated circle',#39,5.) ;
#56=CIRCLE('generated circle',#55,5.) ;
#75=CIRCLE('generated circle',#74,5.) ;
#80=CIRCLE('generated circle',#79,5.) ;
#97=CIRCLE('generated circle',#96,5.) ;
#113=CIRCLE('generated circle',#112,5.) ;
#132=CIRCLE('generated circle',#131,5.) ;
#137=CIRCLE('generated circle',#136,5.) ;
#154=CIRCLE('generated circle',#153,5.) ;
#170=CIRCLE('generated circle',#169,5.) ;
#189=CIRCLE('generated circle',#188,5.) ;
#194=CIRCLE('generated circle',#193,5.) ;
#211=CIRCLE('generated circle',#210,5.) ;
#227=CIRCLE('generated circle',#226,5.) ;
#246=CIRCLE('generated circle',#245,5.) ;
#251=CIRCLE('generated circle',#250,5.) ;
#23=COLOUR_RGB('Colour',0.752941176471,0.76862745098,0.749019607843) ;
#36=CYLINDRICAL_SURFACE('generated cylinder',#35,5.) ;
#93=CYLINDRICAL_SURFACE('generated cylinder',#92,5.) ;
#150=CYLINDRICAL_SURFACE('generated cylinder',#149,5.) ;
#207=CYLINDRICAL_SURFACE('generated cylinder',#206,5.) ;
#45=EDGE_CURVE('',#42,#44,#40,.F.) ;
#52=EDGE_CURVE('',#51,#44,#49,.F.) ;
#59=EDGE_CURVE('',#51,#58,#56,.T.) ;
#64=EDGE_CURVE('',#58,#42,#63,.F.) ;
#76=EDGE_CURVE('',#44,#42,#75,.F.) ;
#81=EDGE_CURVE('',#58,#51,#80,.T.) ;
#102=EDGE_CURVE('',#99,#101,#97,.F.) ;
#109=EDGE_CURVE('',#108,#101,#106,.F.) ;
#116=EDGE_CURVE('',#108,#115,#113,.T.) ;
#121=EDGE_CURVE('',#115,#99,#120,.F.) ;
#133=EDGE_CURVE('',#101,#99,#132,.F.) ;
#138=EDGE_CURVE('',#115,#108,#137,.T.) ;
#159=EDGE_CURVE('',#156,#158,#154,.F.) ;
#166=EDGE_CURVE('',#165,#158,#163,.F.) ;
#173=EDGE_CURVE('',#165,#172,#170,.T.) ;
#178=EDGE_CURVE('',#172,#156,#177,.F.) ;
#190=EDGE_CURVE('',#158,#156,#189,.F.) ;
#195=EDGE_CURVE('',#172,#165,#194,.T.) ;
#216=EDGE_CURVE('',#213,#215,#211,.F.) ;
#223=EDGE_CURVE('',#222,#215,#220,.F.) ;
#230=EDGE_CURVE('',#222,#229,#227,.T.) ;
#235=EDGE_CURVE('',#229,#213,#234,.F.) ;
#247=EDGE_CURVE('',#215,#213,#246,.F.) ;
#252=EDGE_CURVE('',#229,#222,#251,.T.) ;
#273=EDGE_CURVE('',#270,#272,#268,.F.) ;
#280=EDGE_CURVE('',#279,#272,#277,.T.) ;
#287=EDGE_CURVE('',#286,#279,#284,.F.) ;
#292=EDGE_CURVE('',#286,#270,#291,.T.) ;
#311=EDGE_CURVE('',#310,#270,#308,.T.) ;
#318=EDGE_CURVE('',#317,#286,#315,.T.) ;
#323=EDGE_CURVE('',#317,#310,#322,.T.) ;
#342=EDGE_CURVE('',#341,#310,#339,.F.) ;
#349=EDGE_CURVE('',#348,#317,#346,.F.) ;
#354=EDGE_CURVE('',#348,#341,#353,.T.) ;
#371=EDGE_CURVE('',#272,#341,#370,.T.) ;
#376=EDGE_CURVE('',#279,#348,#375,.T.) ;
#403=EDGE_CURVE('',#400,#402,#398,.T.) ;
#410=EDGE_CURVE('',#409,#400,#407,.F.) ;
#417=EDGE_CURVE('',#416,#409,#414,.T.) ;
#422=EDGE_CURVE('',#402,#416,#421,.F.) ;
#465=EDGE_CURVE('',#462,#464,#460,.F.) ;
#472=EDGE_CURVE('',#464,#471,#469,.T.) ;
#479=EDGE_CURVE('',#471,#478,#476,.F.) ;
#484=EDGE_CURVE('',#478,#462,#483,.T.) ;
#517=EDGE_CURVE('',#416,#464,#516,.T.) ;
#522=EDGE_CURVE('',#409,#471,#521,.T.) ;
#539=EDGE_CURVE('',#402,#462,#538,.T.) ;
#556=EDGE_CURVE('',#400,#478,#555,.T.) ;
#65=EDGE_LOOP('',(#66,#67,#68,#69)) ;
#82=EDGE_LOOP('',(#83,#84,#85,#86)) ;
#122=EDGE_LOOP('',(#123,#124,#125,#126)) ;
#139=EDGE_LOOP('',(#140,#141,#142,#143)) ;
#179=EDGE_LOOP('',(#180,#181,#182,#183)) ;
#196=EDGE_LOOP('',(#197,#198,#199,#200)) ;
#236=EDGE_LOOP('',(#237,#238,#239,#240)) ;
#253=EDGE_LOOP('',(#254,#255,#256,#257)) ;
#293=EDGE_LOOP('',(#294,#295,#296,#297)) ;
#324=EDGE_LOOP('',(#325,#326,#327,#328)) ;
#355=EDGE_LOOP('',(#356,#357,#358,#359)) ;
#377=EDGE_LOOP('',(#378,#379,#380,#381)) ;
#389=EDGE_LOOP('',(#390,#391,#392,#393)) ;
#423=EDGE_LOOP('',(#424,#425,#426,#427)) ;
#429=EDGE_LOOP('',(#430,#431)) ;
#433=EDGE_LOOP('',(#434,#435)) ;
#437=EDGE_LOOP('',(#438,#439)) ;
#441=EDGE_LOOP('',(#442,#443)) ;
#451=EDGE_LOOP('',(#452,#453,#454,#455)) ;
#485=EDGE_LOOP('',(#486,#487,#488,#489)) ;
#491=EDGE_LOOP('',(#492,#493)) ;
#495=EDGE_LOOP('',(#496,#497)) ;
#499=EDGE_LOOP('',(#500,#501)) ;
#503=EDGE_LOOP('',(#504,#505)) ;
#523=EDGE_LOOP('',(#524,#525,#526,#527)) ;
#540=EDGE_LOOP('',(#541,#542,#543,#544)) ;
#557=EDGE_LOOP('',(#558,#559,#560,#561)) ;
#569=EDGE_LOOP('',(#570,#571,#572,#573)) ;
#70=FACE_OUTER_BOUND('',#65,.T.) ;
#87=FACE_OUTER_BOUND('',#82,.T.) ;
#127=FACE_OUTER_BOUND('',#122,.T.) ;
#144=FACE_OUTER_BOUND('',#139,.T.) ;
#184=FACE_OUTER_BOUND('',#179,.T.) ;
#201=FACE_OUTER_BOUND('',#196,.T.) ;
#241=FACE_OUTER_BOUND('',#236,.T.) ;
#258=FACE_OUTER_BOUND('',#253,.T.) ;
#298=FACE_OUTER_BOUND('',#293,.T.) ;
#329=FACE_OUTER_BOUND('',#324,.T.) ;
#360=FACE_OUTER_BOUND('',#355,.T.) ;
#382=FACE_OUTER_BOUND('',#377,.T.) ;
#394=FACE_OUTER_BOUND('',#389,.T.) ;
#456=FACE_OUTER_BOUND('',#451,.T.) ;
#528=FACE_OUTER_BOUND('',#523,.T.) ;
#545=FACE_OUTER_BOUND('',#540,.T.) ;
#562=FACE_OUTER_BOUND('',#557,.T.) ;
#574=FACE_OUTER_BOUND('',#569,.T.) ;
#49=LINE('Line',#46,#48) ;
#63=LINE('Line',#60,#62) ;
#106=LINE('Line',#103,#105) ;
#120=LINE('Line',#117,#119) ;
#163=LINE('Line',#160,#162) ;
#177=LINE('Line',#174,#176) ;
#220=LINE('Line',#217,#219) ;
#234=LINE('Line',#231,#233) ;
#268=LINE('Line',#265,#267) ;
#277=LINE('Line',#274,#276) ;
#284=LINE('Line',#281,#283) ;
#291=LINE('Line',#288,#290) ;
#308=LINE('Line',#305,#307) ;
#315=LINE('Line',#312,#314) ;
#322=LINE('Line',#319,#321) ;
#339=LINE('Line',#336,#338) ;
#346=LINE('Line',#343,#345) ;
#353=LINE('Line',#350,#352) ;
#370=LINE('Line',#367,#369) ;
#375=LINE('Line',#372,#374) ;
#398=LINE('Line',#395,#397) ;
#407=LINE('Line',#404,#406) ;
#414=LINE('Line',#411,#413) ;
#421=LINE('Line',#418,#420) ;
#460=LINE('Line',#457,#459) ;
#469=LINE('Line',#466,#468) ;
#476=LINE('Line',#473,#475) ;
#483=LINE('Line',#480,#482) ;
#516=LINE('Line',#513,#515) ;
#521=LINE('Line',#518,#520) ;
#538=LINE('Line',#535,#537) ;
#555=LINE('Line',#552,#554) ;
#264=PLANE('',#263) ;
#304=PLANE('',#303) ;
#335=PLANE('',#334) ;
#366=PLANE('',#365) ;
#388=PLANE('',#387) ;
#450=PLANE('',#449) ;
#512=PLANE('',#511) ;
#534=PLANE('',#533) ;
#551=PLANE('',#550) ;
#568=PLANE('',#567) ;
#14=PLANE_ANGLE_MEASURE_WITH_UNIT(PLANE_ANGLE_MEASURE(0.0174532925199),#13) ;
#9=PRODUCT_CATEGORY_RELATIONSHIP(' ',' ',#7,#8) ;
#6=PRODUCT_DEFINITION_FORMATION_WITH_SPECIFIED_SOURCE('',' ',#5,.NOT_KNOWN.) ;
#21=SHAPE_DEFINITION_REPRESENTATION(#11,#20) ;
#42=VERTEX_POINT('',#41) ;
#44=VERTEX_POINT('',#43) ;
#51=VERTEX_POINT('',#50) ;
#58=VERTEX_POINT('',#57) ;
#99=VERTEX_POINT('',#98) ;
#101=VERTEX_POINT('',#100) ;
#108=VERTEX_POINT('',#107) ;
#115=VERTEX_POINT('',#114) ;
#156=VERTEX_POINT('',#155) ;
#158=VERTEX_POINT('',#157) ;
#165=VERTEX_POINT('',#164) ;
#172=VERTEX_POINT('',#171) ;
#213=VERTEX_POINT('',#212) ;
#215=VERTEX_POINT('',#214) ;
#222=VERTEX_POINT('',#221) ;
#229=VERTEX_POINT('',#228) ;
#270=VERTEX_POINT('',#269) ;
#272=VERTEX_POINT('',#271) ;
#279=VERTEX_POINT('',#278) ;
#286=VERTEX_POINT('',#285) ;
#310=VERTEX_POINT('',#309) ;
#317=VERTEX_POINT('',#316) ;
#341=VERTEX_POINT('',#340) ;
#348=VERTEX_POINT('',#347) ;
#400=VERTEX_POINT('',#399) ;
#402=VERTEX_POINT('',#401) ;
#409=VERTEX_POINT('',#408) ;
#416=VERTEX_POINT('',#415) ;
#462=VERTEX_POINT('',#461) ;
#464=VERTEX_POINT('',#463) ;
#471=VERTEX_POINT('',#470) ;
#478=VERTEX_POINT('',#477) ;
#12=(LENGTH_UNIT()NAMED_UNIT(*)SI_UNIT(.MILLI.,.METRE.)) ;
#13=(NAMED_UNIT(*)PLANE_ANGLE_UNIT()SI_UNIT($,.RADIAN.)) ;
#15=(NAMED_UNIT(*)SI_UNIT($,.STERADIAN.)SOLID_ANGLE_UNIT()) ;
#17=(GEOMETRIC_REPRESENTATION_CONTEXT(3)GLOBAL_UNCERTAINTY_ASSIGNED_CONTEXT((#16))GLOBAL_UNIT_ASSIGNED_CONTEXT((#12,#13,#15))REPRESENTATION_CONTEXT(' ',' ')) ;
ENDSEC;
END-ISO-10303-21;
