  0
SECTION
  2
HEADER
  9
$ACADVER
  1
AC1009
  9
$INSBASE
 10
0.0
 20
0.0
 30
0.0
  9
$EXTMIN
 10
0.578269
 20
0.580464
 30
0.0
  9
$EXTMAX
 10
392.578269
 20
263.080464
 30
0.0
  9
$LIMMIN
 10
0.0
 20
0.0
  9
$LIMMAX
 10
12.0
 20
9.0
  9
$ORTHOMODE
 70
     1
  9
$REGENMODE
 70
     1
  9
$FILLMODE
 70
     1
  9
$QTEXTMODE
 70
     0
  9
$MIRRTEXT
 70
     1
  9
$DRAGMODE
 70
     2
  9
$LTSCALE
 40
5.0
  9
$OSMODE
 70
     0
  9
$ATTMODE
 70
     1
  9
$TEXTSIZE
 40
2.0
  9
$TRACEWID
 40
0.05
  9
$TEXTSTYLE
  7
ROMANS
  9
$CLAYER
  8
0
  9
$CELTYPE
  6
CONTINUOUS
  9
$CECOLOR
 62
   256
  9
$DIMSCALE
 40
1.0
  9
$DIMASZ
 40
0.18
  9
$DIMEXO
 40
0.0625
  9
$DIMDLI
 40
0.38
  9
$DIMRND
 40
0.0
  9
$DIMDLE
 40
0.0
  9
$DIMEXE
 40
0.18
  9
$DIMTP
 40
0.0
  9
$DIMTM
 40
0.0
  9
$DIMTXT
 40
0.18
  9
$DIMCEN
 40
0.09
  9
$DIMTSZ
 40
0.0
  9
$DIMTOL
 70
     0
  9
$DIMLIM
 70
     0
  9
$DIMTIH
 70
     1
  9
$DIMTOH
 70
     1
  9
$DIMSE1
 70
     0
  9
$DIMSE2
 70
     0
  9
$DIMTAD
 70
     0
  9
$DIMZIN
 70
     0
  9
$DIMBLK
  1

  9
$DIMASO
 70
     1
  9
$DIMSHO
 70
     1
  9
$DIMPOST
  1

  9
$DIMAPOST
  1

  9
$DIMALT
 70
     0
  9
$DIMALTD
 70
     2
  9
$DIMALTF
 40
25.4
  9
$DIMLFAC
 40
1.0
  9
$DIMTOFL
 70
     0
  9
$DIMTVP
 40
0.0
  9
$DIMTIX
 70
     0
  9
$DIMSOXD
 70
     0
  9
$DIMSAH
 70
     0
  9
$DIMBLK1
  1

  9
$DIMBLK2
  1

  9
$DIMSTYLE
  2
*UNNAMED
  9
$DIMCLRD
 70
     0
  9
$DIMCLRE
 70
     0
  9
$DIMCLRT
 70
     0
  9
$DIMTFAC
 40
1.0
  9
$DIMGAP
 40
0.09
  9
$LUNITS
 70
     2
  9
$LUPREC
 70
     4
  9
$SKETCHINC
 40
0.1
  9
$FILLETRAD
 40
0.0
  9
$AUNITS
 70
     0
  9
$AUPREC
 70
     0
  9
$MENU
  1
acad
  9
$ELEVATION
 40
0.0
  9
$PELEVATION
 40
0.0
  9
$THICKNESS
 40
0.0
  9
$LIMCHECK
 70
     0
  9
$BLIPMODE
 70
     1
  9
$CHAMFERA
 40
0.0
  9
$CHAMFERB
 40
0.0
  9
$SKPOLY
 70
     0
  9
$TDCREATE
 40
2449253.657489930
  9
$TDUPDATE
 40
2449254.660540625
  9
$TDINDWG
 40
0.0025192130
  9
$TDUSRTIMER
 40
0.0025192130
  9
$USRTIMER
 70
     1
  9
$ANGBASE
 50
0.0
  9
$ANGDIR
 70
     0
  9
$PDMODE
 70
     0
  9
$PDSIZE
 40
0.0
  9
$PLINEWID
 40
0.0
  9
$COORDS
 70
     2
  9
$SPLFRAME
 70
     0
  9
$SPLINETYPE
 70
     6
  9
$SPLINESEGS
 70
     8
  9
$ATTDIA
 70
     0
  9
$ATTREQ
 70
     1
  9
$HANDLING
 70
     0
  9
$HANDSEED
  5
0
  9
$SURFTAB1
 70
   250
  9
$SURFTAB2
 70
   250
  9
$SURFTYPE
 70
     6
  9
$SURFU
 70
     6
  9
$SURFV
 70
     6
  9
$UCSNAME
  2

  9
$UCSORG
 10
0.0
 20
0.0
 30
0.0
  9
$UCSXDIR
 10
1.0
 20
0.0
 30
0.0
  9
$UCSYDIR
 10
0.0
 20
1.0
 30
0.0
  9
$PUCSNAME
  2

  9
$PUCSORG
 10
0.0
 20
0.0
 30
0.0
  9
$PUCSXDIR
 10
1.0
 20
0.0
 30
0.0
  9
$PUCSYDIR
 10
0.0
 20
1.0
 30
0.0
  9
$USERI1
 70
     0
  9
$USERI2
 70
     0
  9
$USERI3
 70
     0
  9
$USERI4
 70
     0
  9
$USERI5
 70
     0
  9
$USERR1
 40
0.0
  9
$USERR2
 40
0.0
  9
$USERR3
 40
0.0
  9
$USERR4
 40
0.0
  9
$USERR5
 40
0.0
  9
$WORLDVIEW
 70
     1
  9
$SHADEDGE
 70
     3
  9
$SHADEDIF
 70
    70
  9
$TILEMODE
 70
     1
  9
$MAXACTVP
 70
    16
  9
$PINSBASE
 10
0.0
 20
0.0
 30
0.0
  9
$PLIMCHECK
 70
     0
  9
$PEXTMIN
 10
1.000000E+20
 20
1.000000E+20
 30
1.000000E+20
  9
$PEXTMAX
 10
-1.000000E+20
 20
-1.000000E+20
 30
-1.000000E+20
  9
$PLIMMIN
 10
0.0
 20
0.0
  9
$PLIMMAX
 10
12.0
 20
9.0
  9
$UNITMODE
 70
     0
  9
$VISRETAIN
 70
     0
  9
$PLINEGEN
 70
     0
  9
$PSLTSCALE
 70
     0
  9
$TREEDEPTH
 70
  3020
  9
$DWGCODEPAGE
  3
undefined
  0
ENDSEC
  0
SECTION
  2
TABLES
  0
TABLE
  2
VPORT
 70
     2
  0
VPORT
  2
*ACTIVE
 70
     0
 10
0.0
 20
0.0
 11
1.0
 21
1.0
 12
222.716394
 22
142.164033
 13
0.0
 23
0.0
 14
2.5
 24
2.5
 15
0.0
 25
0.0
 16
0.0
 26
0.0
 36
1.0
 17
0.0
 27
0.0
 37
0.0
 40
284.328065
 41
1.566616
 42
50.0
 43
0.0
 44
0.0
 50
0.0
 51
0.0
 71
     0
 72
   100
 73
     1
 74
     1
 75
     0
 76
     0
 77
     0
 78
     0
  0
ENDTAB
  0
TABLE
  2
LTYPE
 70
     7
  0
LTYPE
  2
CONTINUOUS
 70
    64
  3
Solid line
 72
    65
 73
     0
 40
0.0
  0
LTYPE
  2
DASHED
 70
    64
  3
__ __ __ __ __ __ __ __ __ __ __ __ __ __ __ __
 72
    65
 73
     2
 40
0.75
 49
0.5
 49
-0.25
  0
LTYPE
  2
CENTER
 70
    64
  3
____ _ ____ _ ____ _ ____ _ ____ _ ____ _ ____ 
 72
    65
 73
     4
 40
2.0
 49
1.25
 49
-0.25
 49
0.25
 49
-0.25
  0
LTYPE
  2
HIDDEN
 70
    64
  3
__ __ __ __ __ __ __ __ __ __ __ __ __ __ __ __
 72
    65
 73
     2
 40
0.375
 49
0.25
 49
-0.125
  0
LTYPE
  2
DOT
 70
     0
  3
. . . . . . . . . . . . . . . . . . . . . . . .
 72
    65
 73
     2
 40
0.25
 49
0.0
 49
-0.25
  0
LTYPE
  2
DASHDOT
 70
     0
  3
__ . __ . __ . __ . __ . __ . __ . __ . __ . __
 72
    65
 73
     4
 40
1.0
 49
0.5
 49
-0.25
 49
0.0
 49
-0.25
  0
LTYPE
  2
PHANTOM
 70
     0
  3
______  __  __  ______  __  __  ______  __  __ 
 72
    65
 73
     6
 40
2.5
 49
1.25
 49
-0.25
 49
0.25
 49
-0.25
 49
0.25
 49
-0.25
  0
ENDTAB
  0
TABLE
  2
LAYER
 70
    13
  0
LAYER
  2
0
 70
    64
 62
     7
  6
CONTINUOUS
  0
LAYER
  2
RAAMI
 70
    64
 62
    -4
  6
CONTINUOUS
  0
LAYER
  2
PAKSU
 70
    64
 62
    -3
  6
CONTINUOUS
  0
LAYER
  2
OHUT
 70
    64
 62
    -6
  6
CONTINUOUS
  0
LAYER
  2
SWEDEN
 70
    64
 62
    -7
  6
CONTINUOUS
  0
LAYER
  2
SWEDEN2
 70
    64
 62
    -5
  6
CONTINUOUS
  0
LAYER
  2
BASE
 70
    64
 62
    -7
  6
CONTINUOUS
  0
LAYER
  2
21
 70
    64
 62
    -2
  6
CONTINUOUS
  0
LAYER
  2
HEL035
 70
    64
 62
    -7
  6
CONTINUOUS
  0
LAYER
  2
MUO
 70
    64
 62
    -7
  6
CONTINUOUS
  0
LAYER
  2
1
 70
    64
 62
    -2
  6
CONTINUOUS
  0
LAYER
  2
BASE1
 70
    64
 62
    -1
  6
CONTINUOUS
  0
LAYER
  2
TEKS
 70
    64
 62
    -5
  6
CONTINUOUS
  0
ENDTAB
  0
TABLE
  2
STYLE
 70
     6
  0
STYLE
  2
STANDARD
 70
    64
 40
0.0
 41
1.0
 50
0.0
 71
     0
 42
2.5
  3
txt
  4

  0
STYLE
  2
ROMANS
 70
    64
 40
0.0
 41
1.0
 50
0.0
 71
     0
 42
2.0
  3
romans
  4

  0
STYLE
  2
GREEKC
 70
    64
 40
0.0
 41
1.0
 50
0.0
 71
     0
 42
1.5
  3
GREEKC
  4

  0
STYLE
  2
GREEKS
 70
    64
 40
0.0
 41
1.0
 50
0.0
 71
     0
 42
2.0
  3
TXT
  4

  0
STYLE
  2
MONOTXT
 70
     0
 40
0.0
 41
1.0
 50
0.0
 71
     0
 42
2.0
  3
monotxt
  4

  0
STYLE
  2
ROMANT
 70
     0
 40
0.0
 41
1.0
 50
0.0
 71
     0
 42
2.5
  3
romant
  4

  0
ENDTAB
  0
TABLE
  2
VIEW
 70
     0
  0
ENDTAB
  0
TABLE
  2
UCS
 70
     0
  0
ENDTAB
  0
TABLE
  2
APPID
 70
     1
  0
APPID
  2
ACAD
 70
    64
  0
ENDTAB
  0
TABLE
  2
DIMSTYLE
 70
     0
  0
ENDTAB
  0
ENDSEC
  0
SECTION
  2
BLOCKS
  0
BLOCK
  8
0
  2
1
 70
    64
 10
0.0
 20
0.0
 30
0.0
  3
1
  0
ENDBLK
  8
0
  0
BLOCK
  8
0
  2
BLC16
 70
     0
 10
0.0
 20
0.0
 30
0.0
  3
BLC16
  0
LINE
  8
0
  6
CONTINUOUS
 10
0.007689
 20
38.054928
 30
0.0
 11
19.983683
 21
38.054928
 31
0.0
  0
LINE
  8
0
  6
CONTINUOUS
 10
19.983683
 20
38.054928
 30
0.0
 11
19.983683
 21
-0.003751
 31
0.0
  0
LINE
  8
0
  6
CONTINUOUS
 10
19.983683
 20
-0.003751
 30
0.0
 11
0.007689
 21
-0.003751
 31
0.0
  0
LINE
  8
0
  6
CONTINUOUS
 10
0.007689
 20
-0.003751
 30
0.0
 11
0.007689
 21
38.054928
 31
0.0
  0
LINE
  8
0
  6
CONTINUOUS
 10
14.152643
 20
36.919738
 30
0.0
 11
14.152643
 21
33.528469
 31
0.0
  0
LINE
  8
0
  6
CONTINUOUS
 10
14.152643
 20
33.528469
 30
0.0
 11
11.560435
 21
33.528469
 31
0.0
  0
LINE
  8
0
  6
CONTINUOUS
 10
11.560435
 20
33.528469
 30
0.0
 11
11.560435
 21
30.778433
 31
0.0
  0
LINE
  8
0
  6
CONTINUOUS
 10
11.560435
 20
30.778433
 30
0.0
 11
14.152643
 21
30.778433
 31
0.0
  0
LINE
  8
0
  6
CONTINUOUS
 10
14.152643
 20
30.778433
 30
0.0
 11
14.152643
 21
27.387164
 31
0.0
  0
TEXT
  8
0
  6
CONTINUOUS
 10
6.558569
 20
30.805266
 30
0.0
 40
2.5
  1
2
 11
6.558569
 21
29.971932
 31
0.0
 73
     1
  0
TEXT
  8
0
  6
CONTINUOUS
 10
6.553289
 20
23.854078
 30
0.0
 40
2.5
  1
2 I
 11
6.553289
 21
23.020744
 31
0.0
 73
     1
  0
LINE
  8
0
  6
CONTINUOUS
 10
12.942534
 20
26.359129
 30
0.0
 11
15.288299
 21
25.023775
 31
0.0
  0
LINE
  8
0
  6
CONTINUOUS
 10
15.288299
 20
25.023775
 30
0.0
 11
12.942534
 21
23.833856
 31
0.0
  0
LINE
  8
0
  6
CONTINUOUS
 10
14.169823
 20
26.359129
 30
0.0
 11
16.515589
 21
25.023775
 31
0.0
  0
LINE
  8
0
  6
CONTINUOUS
 10
16.515589
 20
25.023775
 30
0.0
 11
14.169823
 21
23.833856
 31
0.0
  0
TEXT
  8
0
  6
CONTINUOUS
 10
11.566446
 20
19.235679
 30
0.0
 40
2.5
  1
I
 11
11.566446
 21
18.402346
 31
0.0
 73
     1
  0
TEXT
  8
0
  6
CONTINUOUS
 10
13.018181
 20
18.902346
 30
0.0
 40
1.5
  1
2
 11
13.018181
 21
18.402346
 31
0.0
 73
     1
  0
LINE
  8
0
  6
CONTINUOUS
 10
10.65733
 20
12.773825
 30
0.0
 11
13.003095
 21
13.963744
 31
0.0
  0
LINE
  8
0
  6
CONTINUOUS
 10
13.003095
 20
11.438471
 30
0.0
 11
10.65733
 21
12.773825
 31
0.0
  0
LINE
  8
0
  6
CONTINUOUS
 10
6.557002
 20
16.714658
 30
0.0
 11
15.281743
 21
16.714658
 31
0.0
  0
LINE
  8
0
  6
CONTINUOUS
 10
6.557002
 20
17.523984
 30
0.0
 11
6.557002
 21
15.908791
 31
0.0
  0
LINE
  8
0
  6
CONTINUOUS
 10
15.286518
 20
17.523984
 30
0.0
 11
15.286518
 21
15.908791
 31
0.0
  0
ARC
  8
0
  6
CONTINUOUS
 10
12.684846
 20
18.508045
 30
0.0
 40
2.922744
 50
193.105513
 51
283.105513
  0
TEXT
  8
0
  6
CONTINUOUS
 10
6.557002
 20
11.567974
 30
0.0
 40
2.5
  1
2I
 11
6.557002
 21
10.734641
 31
0.0
 73
     1
  0
LINE
  8
0
  6
CONTINUOUS
 10
6.557002
 20
9.441103
 30
0.0
 11
15.281743
 21
9.441103
 31
0.0
  0
LINE
  8
0
  6
CONTINUOUS
 10
15.286518
 20
10.250429
 30
0.0
 11
15.286518
 21
8.635236
 31
0.0
  0
LINE
  8
0
  6
CONTINUOUS
 10
6.557002
 20
10.250429
 30
0.0
 11
6.557002
 21
8.635236
 31
0.0
  0
TEXT
  8
0
  6
CONTINUOUS
 10
6.557002
 20
4.778631
 30
0.0
 40
2.5
  1
I
 11
6.557002
 21
3.945298
 31
0.0
 73
     1
  0
LINE
  8
0
  6
CONTINUOUS
 10
9.509029
 20
6.822462
 30
0.0
 11
9.509029
 21
5.477736
 31
0.0
  0
LINE
  8
0
  6
CONTINUOUS
 10
8.615065
 20
5.477736
 30
0.0
 11
9.52622
 21
5.477736
 31
0.0
  0
LINE
  8
0
  6
CONTINUOUS
 10
9.509029
 20
5.477736
 30
0.0
 11
10.402992
 21
5.477736
 31
0.0
  0
LINE
  8
0
  6
CONTINUOUS
 10
8.901592
 20
5.082328
 30
0.0
 11
9.509029
 21
5.082328
 31
0.0
  0
LINE
  8
0
  6
CONTINUOUS
 10
9.509029
 20
5.082328
 30
0.0
 11
10.150849
 21
5.082328
 31
0.0
  0
LINE
  8
0
  6
CONTINUOUS
 10
9.981861
 20
4.719969
 30
0.0
 11
9.072041
 21
4.719969
 31
0.0
  0
LINE
  8
0
  6
CONTINUOUS
 10
15.286518
 20
2.797924
 30
0.0
 11
15.286518
 21
1.182731
 31
0.0
  0
LINE
  8
0
  6
CONTINUOUS
 10
6.557002
 20
1.988598
 30
0.0
 11
15.281743
 21
1.988598
 31
0.0
  0
LINE
  8
0
  6
CONTINUOUS
 10
6.557002
 20
2.797924
 30
0.0
 11
6.557002
 21
1.182731
 31
0.0
  0
ENDBLK
  8
0
  0
BLOCK
  8
0
  2
BLC27
 70
    64
 10
0.0
 20
0.0
 30
0.0
  3
BLC27
  0
INSERT
  8
SWEDEN2
  6
CENTER
  2
BLC26
 10
0.08063
 20
0.037985
 30
0.0
 41
1.006225
 42
1.006225
 43
1.006225
  0
ENDBLK
  8
0
  0
BLOCK
  8
0
  2
BLC26
 70
    64
 10
0.0
 20
0.0
 30
0.0
  3
BLC26
  0
ARC
  8
0
  6
CONTINUOUS
 10
-0.180576
 20
1.17922
 30
0.0
 40
1.196859
 50
90.0
 51
265.706237
  0
LINE
  8
0
  6
CONTINUOUS
 10
-0.186638
 20
-0.01092
 30
0.0
 11
0.458942
 21
-0.01092
 31
0.0
  0
LINE
  8
0
  6
CONTINUOUS
 10
-0.186638
 20
2.375671
 30
0.0
 11
0.45288
 21
2.375671
 31
0.0
  0
LINE
  8
0
  6
CONTINUOUS
 10
-0.185509
 20
-2.404629
 30
0.0
 11
0.460071
 21
-2.404629
 31
0.0
  0
ARC
  8
0
  6
CONTINUOUS
 10
-0.180576
 20
-1.207779
 30
0.0
 40
1.196859
 50
90.0
 51
270.0
  0
LINE
  8
0
  6
CONTINUOUS
 10
0.451525
 20
-2.404586
 30
0.0
 11
1.401805
 21
-2.404586
 31
0.0
  0
LINE
  8
0
  6
CONTINUOUS
 10
0.446785
 20
2.375674
 30
0.0
 11
1.418544
 21
2.375674
 31
0.0
  0
LINE
  8
0
  6
CONTINUOUS
 10
0.456627
 20
-0.010911
 30
0.0
 11
1.422749
 21
-0.010911
 31
0.0
  0
ENDBLK
  8
0
  0
BLOCK
  8
0
  2
BLC22
 70
     0
 10
0.0
 20
0.0
 30
0.0
  3
BLC22
  0
LINE
  8
HEL035
 10
0.0
 20
-0.00155
 30
0.0
 11
0.0
 21
9.99845
 31
0.0
  0
LINE
  8
21
 10
2.5
 20
10.0
 30
0.0
 11
5.0
 21
10.0
 31
0.0
  0
LINE
  8
HEL035
 10
0.0
 20
9.99845
 30
0.0
 11
2.5
 21
9.99845
 31
0.0
  0
LINE
  8
HEL035
 10
-2.5
 20
5.0
 30
0.0
 11
2.5
 21
5.0
 31
0.0
  0
LINE
  8
21
 10
2.5
 20
5.0
 30
0.0
 11
5.0
 21
5.0
 31
0.0
  0
LINE
  8
21
 10
5.0
 20
5.0
 30
0.0
 11
5.0
 21
7.9
 31
0.0
  0
LINE
  8
HEL035
 10
3.88095
 20
6.944425
 30
0.0
 11
4.560313
 21
6.008681
 31
0.0
  0
LINE
  8
21
 10
10.0
 20
10.0
 30
0.0
 11
4.2
 21
6.5
 31
0.0
  0
LINE
  8
HEL035
 10
2.5
 20
-0.00155
 30
0.0
 11
0.0
 21
-0.00155
 31
0.0
  0
LINE
  8
21
 10
2.5
 20
0.0
 30
0.0
 11
5.0
 21
0.0
 31
0.0
  0
ENDBLK
  8
0
  0
BLOCK
  8
0
  2
BLC18
 70
     0
 10
0.0
 20
0.0
 30
0.0
  3
BLC18
  0
LINE
  8
MUO
 10
-0.056268
 20
0.849555
 30
0.0
 11
8.307242
 21
9.215502
 31
0.0
  0
LINE
  8
MUO
 10
0.928025
 20
-0.107047
 30
0.0
 11
9.268386
 21
8.2307
 31
0.0
  0
LINE
  8
MUO
 10
-0.056268
 20
-0.107047
 30
0.0
 11
-0.056268
 21
9.215502
 31
0.0
  0
LINE
  8
MUO
 10
9.268386
 20
-0.107047
 30
0.0
 11
-0.056268
 21
-0.107047
 31
0.0
  0
LINE
  8
MUO
 10
9.268386
 20
9.215502
 30
0.0
 11
9.268386
 21
-0.107047
 31
0.0
  0
LINE
  8
MUO
 10
-0.056268
 20
9.215502
 30
0.0
 11
9.268386
 21
9.215502
 31
0.0
  0
ENDBLK
  8
0
  0
BLOCK
  8
0
  2
BLC29
 70
    64
 10
0.0
 20
0.0
 30
0.0
  3
BLC29
  0
LINE
  8
0
  6
CONTINUOUS
 10
0.004865
 20
1.206889
 30
0.0
 11
2.350631
 21
-0.128465
 31
0.0
  0
LINE
  8
0
  6
CONTINUOUS
 10
2.350631
 20
-0.128465
 30
0.0
 11
0.004865
 21
-1.318384
 31
0.0
  0
ENDBLK
  8
0
  0
BLOCK
  8
0
  2
WKU130
 70
     0
 10
190.0
 20
250.0
 30
0.0
  3
WKU130
  0
ARC
  8
21
 10
191.083333
 20
249.916667
 30
0.0
 40
1.086534
 50
32.471192
 51
175.601295
  0
ARC
  8
21
 10
192.916667
 20
251.083333
 30
0.0
 40
1.086534
 50
212.471192
 51
355.601295
  0
ENDBLK
  8
0
  0
BLOCK
  8
0
  2
BLC15
 70
    64
 10
0.0
 20
0.0
 30
0.0
  3
BLC15
  0
LINE
  8
0
  6
CONTINUOUS
 10
0.142084
 20
3.490022
 30
0.0
 11
0.142084
 21
0.844365
 31
0.0
  0
LINE
  8
0
  6
CONTINUOUS
 10
-0.461611
 20
-0.937188
 30
0.0
 11
0.745779
 21
-0.937188
 31
0.0
  0
LINE
  8
0
  6
CONTINUOUS
 10
-0.894108
 20
-0.049675
 30
0.0
 11
1.169267
 21
-0.049675
 31
0.0
  0
LINE
  8
0
  6
CONTINUOUS
 10
-1.389679
 20
0.844365
 30
0.0
 11
1.673848
 21
0.844365
 31
0.0
  0
ENDBLK
  8
0
  0
BLOCK
  8
0
  2
BLC5
 70
     0
 10
0.0
 20
0.0
 30
0.0
  3
BLC5
  0
TEXT
  8
0
 10
-3.043704
 20
-6.645912
 30
0.0
 40
3.2
  1
PE
  0
LINE
  8
0
 10
-2.946392
 20
1.181176
 30
0.0
 11
2.135458
 21
1.181176
 31
0.0
  0
LINE
  8
0
 10
-0.48656
 20
2.238362
 30
0.0
 11
-0.48656
 21
6.930438
 31
0.0
  0
LINE
  8
0
 10
-1.973271
 20
0.065258
 30
0.0
 11
1.225411
 21
0.065258
 31
0.0
  0
LINE
  8
0
 10
2.685091
 20
2.238362
 30
0.0
 11
1.68494
 21
2.238362
 31
0.0
  0
LINE
  8
0
 10
-3.505035
 20
2.238362
 30
0.0
 11
2.649049
 21
2.238362
 31
0.0
  0
CIRCLE
  8
0
 10
-0.47755
 20
1.422632
 30
0.0
 40
3.804563
  0
ENDBLK
  8
0
  0
BLOCK
  8
0
  2
BLC43
 70
    64
 10
0.0
 20
0.0
 30
0.0
  3
BLC43
  0
TEXT
  8
SWEDEN2
  6
CONTINUOUS
 10
-0.646672
 20
-0.986365
 30
0.0
 40
2.0
  1
+
  0
ENDBLK
  8
0
  0
BLOCK
  8
0
  2
BLC42
 70
    64
 10
0.0
 20
0.0
 30
0.0
  3
BLC42
  0
TEXT
  8
SWEDEN2
  6
CONTINUOUS
 10
-0.655237
 20
-0.99442
 30
0.0
 40
2.0
  1
-
  0
ENDBLK
  8
0
  0
BLOCK
  8
0
  2
BLC25
 70
     0
 10
0.0
 20
0.0
 30
0.0
  3
BLC25
  0
TEXT
  8
0
  6
CONTINUOUS
 10
2.0
 20
30.666667
 30
0.0
 40
2.0
  1
1)
 11
2.0
 21
30.0
 31
0.0
 73
     1
  0
TEXT
  8
0
 10
6.0
 20
2.0
 30
0.0
 40
2.0
  1
7B    27     26
 11
6.0
 21
1.333333
 31
0.0
 73
     1
  0
TEXT
  8
0
 10
6.0
 20
5.333333
 30
0.0
 40
2.0
  1
5B     9      8
 11
6.0
 21
4.666667
 31
0.0
 73
     1
  0
TEXT
  8
0
 10
6.0
 20
8.666667
 30
0.0
 40
2.0
  1
3B     3      2
 11
6.0
 21
8.0
 31
0.0
 73
     1
  0
TEXT
  8
0
 10
32.0
 20
12.666667
 30
0.0
 40
2.0
  1
In=5A
 11
32.0
 21
12.0
 31
0.0
 73
     1
  0
TEXT
  8
0
 10
16.0
 20
12.666667
 30
0.0
 40
2.0
  1
In=1A 
 11
16.0
 21
12.0
 31
0.0
 73
     1
  0
TEXT
  8
0
 10
26.0
 20
18.666667
 30
0.0
 40
2.0
  1
108:
 11
26.0
 21
18.0
 31
0.0
 73
     1
  0
TEXT
  8
0
 10
6.0
 20
18.666667
 30
0.0
 40
2.0
  1
101:       
 11
6.0
 21
18.0
 31
0.0
 73
     1
  0
TEXT
  8
0
 10
6.0
 20
24.666667
 30
0.0
 40
2.0
  1
TERMINALS / UTTAG
 11
6.0
 21
24.0
 31
0.0
 73
     1
  0
LINE
  8
0
 10
0.0
 20
12.0
 30
0.0
 11
44.0
 21
12.0
 31
0.0
  0
LINE
  8
0
 10
28.0
 20
18.0
 30
0.0
 11
28.0
 21
0.0
 31
0.0
  0
LINE
  8
0
 10
14.0
 20
18.0
 30
0.0
 11
44.0
 21
18.0
 31
0.0
  0
LINE
  8
0
 10
14.0
 20
24.0
 30
0.0
 11
14.0
 21
0.0
 31
0.0
  0
LINE
  8
0
 10
0.0
 20
24.0
 30
0.0
 11
44.0
 21
24.0
 31
0.0
  0
LINE
  8
0
 10
44.0
 20
0.0
 30
0.0
 11
44.0
 21
30.0
 31
0.0
  0
LINE
  8
0
 10
0.0
 20
0.0
 30
0.0
 11
44.0
 21
0.0
 31
0.0
  0
LINE
  8
0
 10
0.0
 20
30.0
 30
0.0
 11
0.0
 21
0.0
 31
0.0
  0
LINE
  8
0
 10
44.0
 20
30.0
 30
0.0
 11
0.0
 21
30.0
 31
0.0
  0
ENDBLK
  8
0
  0
BLOCK
  8
0
  2
ABBA3V
 70
    64
 10
0.0
 20
0.0
 30
0.0
  3
ABBA3V
  0
TEXT
  8
RAAMI
  6
DASHED
 10
292.217194
 20
11.813359
 30
0.0
 40
3.0
  1
A3
  7
GREEKS
  0
TEXT
  8
RAAMI
  6
DASHED
 10
351.818577
 20
15.69253
 30
0.0
 40
1.4
  1
LEHTI SHEET
  7
GREEKS
  0
LINE
  8
PAKSU
 10
0.237099
 20
262.737999
 30
0.0
 11
392.237099
 21
262.737999
 31
0.0
  0
LINE
  8
RAAMI
 10
18.237099
 20
0.237999
 30
0.0
 11
0.237099
 21
0.237999
 31
0.0
  0
LINE
  8
PAKSU
 10
209.237099
 20
0.237999
 30
0.0
 11
392.237099
 21
0.237999
 31
0.0
  0
LINE
  8
PAKSU
 10
209.237099
 20
0.237999
 30
0.0
 11
209.237099
 21
35.237999
 31
0.0
  0
LINE
  8
PAKSU
 10
392.237099
 20
0.237999
 30
0.0
 11
392.237099
 21
35.237999
 31
0.0
  0
LINE
  8
OHUT
 10
209.237099
 20
18.237999
 30
0.0
 11
392.237099
 21
18.237999
 31
0.0
  0
LINE
  8
OHUT
 10
209.237099
 20
9.737999
 30
0.0
 11
392.237099
 21
9.737999
 31
0.0
  0
LINE
  8
OHUT
 10
209.237099
 20
26.737999
 30
0.0
 11
307.237099
 21
26.737999
 31
0.0
  0
LINE
  8
PAKSU
 10
209.237099
 20
35.237999
 30
0.0
 11
392.237099
 21
35.237999
 31
0.0
  0
TEXT
  8
RAAMI
 10
210.237099
 20
23.971333
 30
0.0
 40
1.4
  1
TARKASTI  CHECKED
  7
ROMANS
  0
TEXT
  8
RAAMI
 10
209.979934
 20
15.704666
 30
0.0
 40
1.4
  1
HYVÄKSYI  APPROVED
  7
ROMANS
  0
LINE
  8
OHUT
 10
307.237099
 20
0.237999
 30
0.0
 11
307.237099
 21
35.237999
 31
0.0
  0
TEXT
  8
RAAMI
 10
259.237099
 20
32.737999
 30
0.0
 40
1.4
  1
LIITTYY  CONCERNING
  7
ROMANS
  0
TEXT
  8
RAAMI
 10
259.237099
 20
23.737999
 30
0.0
 40
1.4
  1
TOLERANSSIT  TOLERANCES
  7
ROMANS
  0
TEXT
  8
RAAMI
 10
259.237099
 20
15.737999
 30
0.0
 40
1.4
  1
SUHDE  SCALE
  7
ROMANS
  0
TEXT
  8
RAAMI
 10
309.237099
 20
32.737999
 30
0.0
 40
1.4
  1
NIMITYS  NAME
  7
ROMANS
  0
TEXT
  8
RAAMI
 10
309.237099
 20
15.737999
 30
0.0
 40
1.4
  1
KOODI  CODE
  7
ROMANS
  0
TEXT
  8
RAAMI
 10
309.237099
 20
7.237999
 30
0.0
 40
1.4
  1
PIIRUSTUS NO  DRAWING NR
  7
ROMANS
  0
LINE
  8
OHUT
 10
349.737099
 20
9.737999
 30
0.0
 11
349.737099
 21
18.237999
 31
0.0
  0
TEXT
  8
RAAMI
 10
371.237099
 20
7.237999
 30
0.0
 40
1.4
  1
PAINOS  REVISION
  7
ROMANS
  0
LINE
  8
OHUT
 10
369.737099
 20
9.737999
 30
0.0
 11
369.737099
 21
0.237999
 31
0.0
  0
LINE
  8
RAAMI
 10
210.187099
 20
1.737999
 30
0.0
 11
211.937099
 21
1.737999
 31
0.0
  0
LINE
  8
RAAMI
 10
215.437099
 20
1.737999
 30
0.0
 11
217.187099
 21
1.737999
 31
0.0
  0
LINE
  8
RAAMI
 10
212.637099
 20
8.737999
 30
0.0
 11
211.459571
 21
5.373634
 31
0.0
  0
LINE
  8
RAAMI
 10
212.425886
 20
3.137999
 30
0.0
 11
213.547099
 21
3.137999
 31
0.0
  0
LINE
  8
RAAMI
 10
212.425889
 20
3.134542
 30
0.0
 11
211.937099
 21
1.737999
 31
0.0
  0
LINE
  8
RAAMI
 10
214.737099
 20
8.737999
 30
0.0
 11
215.913452
 21
5.376991
 31
0.0
  0
LINE
  8
RAAMI
 10
214.948197
 20
3.134863
 30
0.0
 11
215.437099
 21
1.737999
 31
0.0
  0
LINE
  8
RAAMI
 10
214.737099
 20
8.737999
 30
0.0
 11
213.827099
 21
8.737999
 31
0.0
  0
LINE
  8
RAAMI
 10
213.547099
 20
8.737999
 30
0.0
 11
213.547099
 21
5.377999
 31
0.0
  0
LINE
  8
RAAMI
 10
213.827099
 20
8.737999
 30
0.0
 11
213.827099
 21
5.377999
 31
0.0
  0
LINE
  8
RAAMI
 10
213.827099
 20
3.137999
 30
0.0
 11
214.946992
 21
3.137999
 31
0.0
  0
LINE
  8
RAAMI
 10
213.547099
 20
8.737999
 30
0.0
 11
212.637099
 21
8.737999
 31
0.0
  0
LINE
  8
RAAMI
 10
211.45904
 20
5.377999
 30
0.0
 11
213.547099
 21
5.377999
 31
0.0
  0
LINE
  8
RAAMI
 10
211.360082
 20
5.097999
 30
0.0
 11
213.547099
 21
5.097999
 31
0.0
  0
LINE
  8
RAAMI
 10
216.011591
 20
5.096594
 30
0.0
 11
217.187099
 21
1.737999
 31
0.0
  0
LINE
  8
RAAMI
 10
213.827099
 20
5.377999
 30
0.0
 11
215.912213
 21
5.377999
 31
0.0
  0
LINE
  8
RAAMI
 10
213.827099
 20
5.097999
 30
0.0
 11
216.010356
 21
5.097999
 31
0.0
  0
LINE
  8
RAAMI
 10
213.827099
 20
5.097999
 30
0.0
 11
213.827099
 21
3.137999
 31
0.0
  0
LINE
  8
RAAMI
 10
213.547099
 20
5.097999
 30
0.0
 11
213.547099
 21
3.137999
 31
0.0
  0
LINE
  8
RAAMI
 10
211.356988
 20
5.080538
 30
0.0
 11
210.187099
 21
1.737999
 31
0.0
  0
INSERT
  8
RAAMI
  2
*X14
 10
210.187099
 20
1.737999
 30
0.0
 41
0.7
 42
0.7
 43
0.7
  0
INSERT
  8
RAAMI
  2
*X15
 10
210.187099
 20
1.737999
 30
0.0
 41
0.7
 42
0.7
 43
0.7
  0
INSERT
  8
RAAMI
  2
*X16
 10
210.187099
 20
1.737999
 30
0.0
 41
0.7
 42
0.7
 43
0.7
  0
INSERT
  8
RAAMI
  2
*X17
 10
210.187099
 20
1.737999
 30
0.0
 41
0.7
 42
0.7
 43
0.7
  0
LINE
  8
RAAMI
 10
217.677099
 20
1.737999
 30
0.0
 11
217.677099
 21
5.097999
 31
0.0
  0
LINE
  8
RAAMI
 10
217.677099
 20
8.737999
 30
0.0
 11
219.637099
 21
8.737999
 31
0.0
  0
LINE
  8
RAAMI
 10
219.637099
 20
8.737999
 30
0.0
 11
219.637099
 21
5.377999
 31
0.0
  0
LINE
  8
RAAMI
 10
219.637099
 20
5.377999
 30
0.0
 11
217.677099
 21
5.377999
 31
0.0
  0
LINE
  8
RAAMI
 10
217.677099
 20
5.097999
 30
0.0
 11
219.637099
 21
5.097999
 31
0.0
  0
LINE
  8
RAAMI
 10
219.637099
 20
5.097999
 30
0.0
 11
219.637099
 21
1.737999
 31
0.0
  0
LINE
  8
RAAMI
 10
219.637099
 20
1.737999
 30
0.0
 11
217.677099
 21
1.737999
 31
0.0
  0
LINE
  8
RAAMI
 10
217.677099
 20
5.377999
 30
0.0
 11
217.677099
 21
8.737999
 31
0.0
  0
ARC
  8
RAAMI
 10
220.477099
 20
7.162999
 30
0.0
 40
1.575
 50
298.455859
 51
90.052437
  0
LINE
  8
RAAMI
 10
219.917099
 20
8.737999
 30
0.0
 11
220.475658
 21
8.737999
 31
0.0
  0
LINE
  8
RAAMI
 10
219.917099
 20
8.737999
 30
0.0
 11
219.917099
 21
5.377999
 31
0.0
  0
LINE
  8
RAAMI
 10
219.917099
 20
5.377999
 30
0.0
 11
221.901542
 21
5.377999
 31
0.0
  0
LINE
  8
RAAMI
 10
222.157099
 20
5.097999
 30
0.0
 11
219.917099
 21
5.097999
 31
0.0
  0
LINE
  8
RAAMI
 10
219.917099
 20
5.097999
 30
0.0
 11
219.917099
 21
1.737999
 31
0.0
  0
ARC
  8
RAAMI
 10
220.477099
 20
3.837999
 30
0.0
 40
2.1
 50
269.937724
 51
37.056553
  0
LINE
  8
RAAMI
 10
219.917099
 20
1.737999
 30
0.0
 11
220.474817
 21
1.738
 31
0.0
  0
ARC
  8
RAAMI
 10
220.477099
 20
3.837999
 30
0.0
 40
2.1
 50
47.28622
 51
68.787999
  0
INSERT
  8
RAAMI
  2
*X18
 10
210.187099
 20
1.737999
 30
0.0
 41
0.7
 42
0.7
 43
0.7
  0
INSERT
  8
RAAMI
  2
*X19
 10
210.187099
 20
1.737999
 30
0.0
 41
0.7
 42
0.7
 43
0.7
  0
INSERT
  8
RAAMI
  2
*X20
 10
210.187099
 20
1.737999
 30
0.0
 41
0.7
 42
0.7
 43
0.7
  0
INSERT
  8
RAAMI
  2
*X21
 10
210.187099
 20
1.737999
 30
0.0
 41
0.7
 42
0.7
 43
0.7
  0
INSERT
  8
RAAMI
  2
*X21
 10
215.647099
 20
1.737999
 30
0.0
 41
0.7
 42
0.7
 43
0.7
  0
INSERT
  8
RAAMI
  2
*X20
 10
215.647099
 20
1.737999
 30
0.0
 41
0.7
 42
0.7
 43
0.7
  0
INSERT
  8
RAAMI
  2
*X19
 10
215.647099
 20
1.737999
 30
0.0
 41
0.7
 42
0.7
 43
0.7
  0
INSERT
  8
RAAMI
  2
*X18
 10
215.647099
 20
1.737999
 30
0.0
 41
0.7
 42
0.7
 43
0.7
  0
ARC
  8
RAAMI
 10
225.937099
 20
3.837999
 30
0.0
 40
2.1
 50
47.28622
 51
68.787999
  0
LINE
  8
RAAMI
 10
225.377099
 20
1.737999
 30
0.0
 11
225.934817
 21
1.738
 31
0.0
  0
ARC
  8
RAAMI
 10
225.937099
 20
3.837999
 30
0.0
 40
2.1
 50
269.937724
 51
37.056553
  0
LINE
  8
RAAMI
 10
225.377099
 20
5.097999
 30
0.0
 11
225.377099
 21
1.737999
 31
0.0
  0
LINE
  8
RAAMI
 10
227.617099
 20
5.097999
 30
0.0
 11
225.377099
 21
5.097999
 31
0.0
  0
LINE
  8
RAAMI
 10
225.377099
 20
5.377999
 30
0.0
 11
227.361542
 21
5.377999
 31
0.0
  0
LINE
  8
RAAMI
 10
225.377099
 20
8.737999
 30
0.0
 11
225.377099
 21
5.377999
 31
0.0
  0
LINE
  8
RAAMI
 10
225.377099
 20
8.737999
 30
0.0
 11
225.935658
 21
8.737999
 31
0.0
  0
ARC
  8
RAAMI
 10
225.937099
 20
7.162999
 30
0.0
 40
1.575
 50
298.455859
 51
90.052437
  0
LINE
  8
RAAMI
 10
223.137099
 20
5.377999
 30
0.0
 11
223.137099
 21
8.737999
 31
0.0
  0
LINE
  8
RAAMI
 10
225.097099
 20
1.737999
 30
0.0
 11
223.137099
 21
1.737999
 31
0.0
  0
LINE
  8
RAAMI
 10
225.097099
 20
5.097999
 30
0.0
 11
225.097099
 21
1.737999
 31
0.0
  0
LINE
  8
RAAMI
 10
223.137099
 20
5.097999
 30
0.0
 11
225.097099
 21
5.097999
 31
0.0
  0
LINE
  8
RAAMI
 10
225.097099
 20
5.377999
 30
0.0
 11
223.137099
 21
5.377999
 31
0.0
  0
LINE
  8
RAAMI
 10
225.097099
 20
8.737999
 30
0.0
 11
225.097099
 21
5.377999
 31
0.0
  0
LINE
  8
RAAMI
 10
223.137099
 20
8.737999
 30
0.0
 11
225.097099
 21
8.737999
 31
0.0
  0
LINE
  8
RAAMI
 10
223.137099
 20
1.737999
 30
0.0
 11
223.137099
 21
5.097999
 31
0.0
  0
TEXT
  8
RAAMI
 10
229.737099
 20
1.737999
 30
0.0
 40
3.0
  1
ABB 
 41
0.8
  7
ROMANS
  0
TEXT
  8
RAAMI
 10
237.737099
 20
1.737999
 30
0.0
 40
3.0
  1
Strömberg
 41
0.8
  7
ROMANS
  0
LINE
  8
OHUT
 10
282.237099
 20
9.737999
 30
0.0
 11
282.237099
 21
18.237999
 31
0.0
  0
TEXT
  8
RAAMI
 10
27.737099
 20
4.737999
 30
0.0
 40
1.4
  1
MUUTOS
  7
ROMANS
  0
TEXT
  8
RAAMI
 10
27.737099
 20
2.471333
 30
0.0
 40
1.4
  1
REVISION
  7
ROMANS
  0
LINE
  8
OHUT
 10
46.737099
 20
9.237999
 30
0.0
 11
209.237099
 21
9.237999
 31
0.0
  0
LINE
  8
OHUT
 10
46.737099
 20
0.237999
 30
0.0
 11
46.737099
 21
9.237999
 31
0.0
  0
LINE
  8
OHUT
 10
40.737099
 20
4.737999
 30
0.0
 11
209.237099
 21
4.737999
 31
0.0
  0
LINE
  8
OHUT
 10
257.237099
 20
9.737999
 30
0.0
 11
257.237099
 21
35.237999
 31
0.0
  0
LINE
  8
OHUT
 10
271.237099
 20
9.737999
 30
0.0
 11
271.237099
 21
0.237999
 31
0.0
  0
TEXT
  8
RAAMI
 10
210.237099
 20
32.237999
 30
0.0
 40
1.4
  1
TEKI  PREPARED
  7
ROMANS
  0
TEXT
  8
RAAMI
 10
273.237099
 20
7.237999
 30
0.0
 40
1.4
  1
VAST.OSASTO RESP.DEPT.
  7
ROMANS
  0
TEXT
  8
RAAMI
 10
257.407006
 20
1.741783
 30
0.0
 40
3.0
  1
Power
 41
0.8
  7
ROMANS
  0
TEXT
  8
RAAMI
 10
42.237099
 20
1.195292
 30
0.0
 40
2.5
  1
B
  7
ROMANS
  0
TEXT
  8
RAAMI
 10
42.237099
 20
5.587508
 30
0.0
 40
2.5
  1
C
  7
ROMANS
  0
LINE
  8
PAKSU
 10
0.237099
 20
0.237999
 30
0.0
 11
392.237099
 21
0.237999
 31
0.0
  0
LINE
  8
PAKSU
 10
392.237099
 20
262.737999
 30
0.0
 11
392.237099
 21
0.237999
 31
0.0
  0
LINE
  8
PAKSU
 10
0.237099
 20
0.237999
 30
0.0
 11
0.237099
 21
262.737999
 31
0.0
  0
ENDBLK
  8
0
  0
BLOCK
  8
0
  2
*X14
 70
    65
 10
0.0
 20
0.0
 30
0.0
  3
*X
  0
LINE
  8
0
 62
     0
 10
2.284499
 20
6.52714
 30
0.0
 11
4.8
 21
9.042641
 31
0.0
  0
LINE
  8
0
 62
     0
 10
2.379686
 20
6.799104
 30
0.0
 11
4.8
 21
9.219417
 31
0.0
  0
LINE
  8
0
 62
     0
 10
2.474874
 20
7.071068
 30
0.0
 11
4.8
 21
9.396194
 31
0.0
  0
LINE
  8
0
 62
     0
 10
2.570061
 20
7.343032
 30
0.0
 11
4.8
 21
9.572971
 31
0.0
  0
LINE
  8
0
 62
     0
 10
2.665249
 20
7.614996
 30
0.0
 11
4.8
 21
9.749747
 31
0.0
  0
LINE
  8
0
 62
     0
 10
2.760436
 20
7.88696
 30
0.0
 11
4.8
 21
9.926524
 31
0.0
  0
LINE
  8
0
 62
     0
 10
2.855624
 20
8.158924
 30
0.0
 11
4.696699
 21
10.0
 31
0.0
  0
LINE
  8
0
 62
     0
 10
2.950811
 20
8.430889
 30
0.0
 11
4.519922
 21
10.0
 31
0.0
  0
LINE
  8
0
 62
     0
 10
3.045998
 20
8.702853
 30
0.0
 11
4.343146
 21
10.0
 31
0.0
  0
LINE
  8
0
 62
     0
 10
3.141186
 20
8.974817
 30
0.0
 11
4.166369
 21
10.0
 31
0.0
  0
LINE
  8
0
 62
     0
 10
3.236373
 20
9.246781
 30
0.0
 11
3.989592
 21
10.0
 31
0.0
  0
LINE
  8
0
 62
     0
 10
3.331561
 20
9.518745
 30
0.0
 11
3.812816
 21
10.0
 31
0.0
  0
LINE
  8
0
 62
     0
 10
3.426748
 20
9.790709
 30
0.0
 11
3.636039
 21
10.0
 31
0.0
  0
LINE
  8
0
 62
     0
 10
2.189311
 20
6.255175
 30
0.0
 11
4.8
 21
8.865864
 31
0.0
  0
LINE
  8
0
 62
     0
 10
2.094124
 20
5.983211
 30
0.0
 11
4.8
 21
8.689087
 31
0.0
  0
LINE
  8
0
 62
     0
 10
1.998936
 20
5.711247
 30
0.0
 11
4.8
 21
8.512311
 31
0.0
  0
LINE
  8
0
 62
     0
 10
1.903749
 20
5.439283
 30
0.0
 11
4.8
 21
8.335534
 31
0.0
  0
LINE
  8
0
 62
     0
 10
1.841243
 20
5.2
 30
0.0
 11
4.8
 21
8.158757
 31
0.0
  0
LINE
  8
0
 62
     0
 10
2.018019
 20
5.2
 30
0.0
 11
4.8
 21
7.981981
 31
0.0
  0
LINE
  8
0
 62
     0
 10
2.194796
 20
5.2
 30
0.0
 11
4.8
 21
7.805204
 31
0.0
  0
LINE
  8
0
 62
     0
 10
2.371573
 20
5.2
 30
0.0
 11
4.8
 21
7.628427
 31
0.0
  0
LINE
  8
0
 62
     0
 10
2.54835
 20
5.2
 30
0.0
 11
4.8
 21
7.45165
 31
0.0
  0
LINE
  8
0
 62
     0
 10
2.725126
 20
5.2
 30
0.0
 11
4.8
 21
7.274874
 31
0.0
  0
LINE
  8
0
 62
     0
 10
2.901903
 20
5.2
 30
0.0
 11
4.8
 21
7.098097
 31
0.0
  0
LINE
  8
0
 62
     0
 10
3.07868
 20
5.2
 30
0.0
 11
4.8
 21
6.92132
 31
0.0
  0
LINE
  8
0
 62
     0
 10
3.255456
 20
5.2
 30
0.0
 11
4.8
 21
6.744544
 31
0.0
  0
LINE
  8
0
 62
     0
 10
3.432233
 20
5.2
 30
0.0
 11
4.8
 21
6.567767
 31
0.0
  0
LINE
  8
0
 62
     0
 10
3.60901
 20
5.2
 30
0.0
 11
4.8
 21
6.39099
 31
0.0
  0
LINE
  8
0
 62
     0
 10
3.785786
 20
5.2
 30
0.0
 11
4.8
 21
6.214214
 31
0.0
  0
LINE
  8
0
 62
     0
 10
3.962563
 20
5.2
 30
0.0
 11
4.8
 21
6.037437
 31
0.0
  0
LINE
  8
0
 62
     0
 10
4.13934
 20
5.2
 30
0.0
 11
4.8
 21
5.86066
 31
0.0
  0
LINE
  8
0
 62
     0
 10
4.316117
 20
5.2
 30
0.0
 11
4.8
 21
5.683883
 31
0.0
  0
LINE
  8
0
 62
     0
 10
4.492893
 20
5.2
 30
0.0
 11
4.8
 21
5.507107
 31
0.0
  0
LINE
  8
0
 62
     0
 10
4.66967
 20
5.2
 30
0.0
 11
4.8
 21
5.33033
 31
0.0
  0
ENDBLK
  8
0
  0
BLOCK
  8
0
  2
*X15
 70
    65
 10
0.0
 20
0.0
 30
0.0
  3
*X
  0
LINE
  8
0
 62
     0
 10
5.2
 20
6.083883
 30
0.0
 11
7.178252
 21
8.062136
 31
0.0
  0
LINE
  8
0
 62
     0
 10
5.2
 20
6.26066
 30
0.0
 11
7.132421
 21
8.193082
 31
0.0
  0
LINE
  8
0
 62
     0
 10
5.2
 20
6.437437
 30
0.0
 11
7.08659
 21
8.324027
 31
0.0
  0
LINE
  8
0
 62
     0
 10
5.2
 20
6.614214
 30
0.0
 11
7.040759
 21
8.454973
 31
0.0
  0
LINE
  8
0
 62
     0
 10
5.2
 20
6.79099
 30
0.0
 11
6.994928
 21
8.585919
 31
0.0
  0
LINE
  8
0
 62
     0
 10
5.2
 20
6.967767
 30
0.0
 11
6.949097
 21
8.716864
 31
0.0
  0
LINE
  8
0
 62
     0
 10
5.2
 20
7.144544
 30
0.0
 11
6.903266
 21
8.84781
 31
0.0
  0
LINE
  8
0
 62
     0
 10
5.2
 20
7.32132
 30
0.0
 11
6.857435
 21
8.978756
 31
0.0
  0
LINE
  8
0
 62
     0
 10
5.2
 20
7.498097
 30
0.0
 11
6.811604
 21
9.109702
 31
0.0
  0
LINE
  8
0
 62
     0
 10
5.2
 20
7.674874
 30
0.0
 11
6.765773
 21
9.240647
 31
0.0
  0
LINE
  8
0
 62
     0
 10
5.2
 20
7.85165
 30
0.0
 11
6.719942
 21
9.371593
 31
0.0
  0
LINE
  8
0
 62
     0
 10
5.2
 20
8.028427
 30
0.0
 11
6.674111
 21
9.502539
 31
0.0
  0
LINE
  8
0
 62
     0
 10
5.2
 20
8.205204
 30
0.0
 11
6.62828
 21
9.633484
 31
0.0
  0
LINE
  8
0
 62
     0
 10
5.2
 20
8.381981
 30
0.0
 11
6.582449
 21
9.76443
 31
0.0
  0
LINE
  8
0
 62
     0
 10
5.2
 20
8.558757
 30
0.0
 11
6.536619
 21
9.895376
 31
0.0
  0
LINE
  8
0
 62
     0
 10
5.2
 20
8.735534
 30
0.0
 11
6.464466
 21
10.0
 31
0.0
  0
LINE
  8
0
 62
     0
 10
5.2
 20
8.912311
 30
0.0
 11
6.287689
 21
10.0
 31
0.0
  0
LINE
  8
0
 62
     0
 10
5.2
 20
9.089087
 30
0.0
 11
6.110913
 21
10.0
 31
0.0
  0
LINE
  8
0
 62
     0
 10
5.2
 20
9.265864
 30
0.0
 11
5.934136
 21
10.0
 31
0.0
  0
LINE
  8
0
 62
     0
 10
5.2
 20
9.442641
 30
0.0
 11
5.757359
 21
10.0
 31
0.0
  0
LINE
  8
0
 62
     0
 10
5.2
 20
9.619417
 30
0.0
 11
5.580583
 21
10.0
 31
0.0
  0
LINE
  8
0
 62
     0
 10
5.2
 20
9.796194
 30
0.0
 11
5.403806
 21
10.0
 31
0.0
  0
LINE
  8
0
 62
     0
 10
5.2
 20
9.972971
 30
0.0
 11
5.227029
 21
10.0
 31
0.0
  0
LINE
  8
0
 62
     0
 10
5.2
 20
5.907107
 30
0.0
 11
7.224083
 21
7.93119
 31
0.0
  0
LINE
  8
0
 62
     0
 10
5.2
 20
5.73033
 30
0.0
 11
7.269914
 21
7.800245
 31
0.0
  0
LINE
  8
0
 62
     0
 10
5.2
 20
5.553553
 30
0.0
 11
7.315745
 21
7.669299
 31
0.0
  0
LINE
  8
0
 62
     0
 10
5.2
 20
5.376777
 30
0.0
 11
7.361576
 21
7.538353
 31
0.0
  0
LINE
  8
0
 62
     0
 10
5.2
 20
5.2
 30
0.0
 11
7.407407
 21
7.407407
 31
0.0
  0
LINE
  8
0
 62
     0
 10
5.376777
 20
5.2
 30
0.0
 11
7.453238
 21
7.276462
 31
0.0
  0
LINE
  8
0
 62
     0
 10
5.553553
 20
5.2
 30
0.0
 11
7.499069
 21
7.145516
 31
0.0
  0
LINE
  8
0
 62
     0
 10
5.73033
 20
5.2
 30
0.0
 11
7.5449
 21
7.01457
 31
0.0
  0
LINE
  8
0
 62
     0
 10
5.907107
 20
5.2
 30
0.0
 11
7.590731
 21
6.883625
 31
0.0
  0
LINE
  8
0
 62
     0
 10
6.083883
 20
5.2
 30
0.0
 11
7.636562
 21
6.752679
 31
0.0
  0
LINE
  8
0
 62
     0
 10
6.26066
 20
5.2
 30
0.0
 11
7.682393
 21
6.621733
 31
0.0
  0
LINE
  8
0
 62
     0
 10
6.437437
 20
5.2
 30
0.0
 11
7.728224
 21
6.490788
 31
0.0
  0
LINE
  8
0
 62
     0
 10
6.614214
 20
5.2
 30
0.0
 11
7.774055
 21
6.359842
 31
0.0
  0
LINE
  8
0
 62
     0
 10
6.79099
 20
5.2
 30
0.0
 11
7.819886
 21
6.228896
 31
0.0
  0
LINE
  8
0
 62
     0
 10
6.967767
 20
5.2
 30
0.0
 11
7.865717
 21
6.09795
 31
0.0
  0
LINE
  8
0
 62
     0
 10
7.144544
 20
5.2
 30
0.0
 11
7.911548
 21
5.967005
 31
0.0
  0
LINE
  8
0
 62
     0
 10
7.32132
 20
5.2
 30
0.0
 11
7.957379
 21
5.836059
 31
0.0
  0
LINE
  8
0
 62
     0
 10
7.498097
 20
5.2
 30
0.0
 11
8.00321
 21
5.705113
 31
0.0
  0
LINE
  8
0
 62
     0
 10
7.674874
 20
5.2
 30
0.0
 11
8.049041
 21
5.574168
 31
0.0
  0
LINE
  8
0
 62
     0
 10
7.85165
 20
5.2
 30
0.0
 11
8.094872
 21
5.443222
 31
0.0
  0
LINE
  8
0
 62
     0
 10
8.028427
 20
5.2
 30
0.0
 11
8.140703
 21
5.312276
 31
0.0
  0
ENDBLK
  8
0
  0
BLOCK
  8
0
  2
*X16
 70
    65
 10
0.0
 20
0.0
 30
0.0
  3
*X
  0
LINE
  8
0
 62
     0
 10
0.0
 20
0.0
 30
0.0
 11
4.8
 21
4.8
 31
0.0
  0
LINE
  8
0
 62
     0
 10
0.095187
 20
0.271964
 30
0.0
 11
4.623223
 21
4.8
 31
0.0
  0
LINE
  8
0
 62
     0
 10
0.190375
 20
0.543928
 30
0.0
 11
4.446447
 21
4.8
 31
0.0
  0
LINE
  8
0
 62
     0
 10
0.285562
 20
0.815892
 30
0.0
 11
4.26967
 21
4.8
 31
0.0
  0
LINE
  8
0
 62
     0
 10
0.38075
 20
1.087857
 30
0.0
 11
4.092893
 21
4.8
 31
0.0
  0
LINE
  8
0
 62
     0
 10
0.475937
 20
1.359821
 30
0.0
 11
3.916117
 21
4.8
 31
0.0
  0
LINE
  8
0
 62
     0
 10
0.571125
 20
1.631785
 30
0.0
 11
3.73934
 21
4.8
 31
0.0
  0
LINE
  8
0
 62
     0
 10
0.666312
 20
1.903749
 30
0.0
 11
3.562563
 21
4.8
 31
0.0
  0
LINE
  8
0
 62
     0
 10
0.7615
 20
2.175713
 30
0.0
 11
3.385786
 21
4.8
 31
0.0
  0
LINE
  8
0
 62
     0
 10
0.856687
 20
2.447677
 30
0.0
 11
3.20901
 21
4.8
 31
0.0
  0
LINE
  8
0
 62
     0
 10
0.951875
 20
2.719641
 30
0.0
 11
3.032233
 21
4.8
 31
0.0
  0
LINE
  8
0
 62
     0
 10
1.047062
 20
2.991606
 30
0.0
 11
2.855456
 21
4.8
 31
0.0
  0
LINE
  8
0
 62
     0
 10
1.142249
 20
3.26357
 30
0.0
 11
2.67868
 21
4.8
 31
0.0
  0
LINE
  8
0
 62
     0
 10
1.237437
 20
3.535534
 30
0.0
 11
2.501903
 21
4.8
 31
0.0
  0
LINE
  8
0
 62
     0
 10
1.332624
 20
3.807498
 30
0.0
 11
2.325126
 21
4.8
 31
0.0
  0
LINE
  8
0
 62
     0
 10
1.427812
 20
4.079462
 30
0.0
 11
2.14835
 21
4.8
 31
0.0
  0
LINE
  8
0
 62
     0
 10
1.522999
 20
4.351426
 30
0.0
 11
1.971573
 21
4.8
 31
0.0
  0
LINE
  8
0
 62
     0
 10
1.618187
 20
4.62339
 30
0.0
 11
1.794796
 21
4.8
 31
0.0
  0
LINE
  8
0
 62
     0
 10
0.176777
 20
0.0
 30
0.0
 11
4.8
 21
4.623223
 31
0.0
  0
LINE
  8
0
 62
     0
 10
0.353553
 20
0.0
 30
0.0
 11
4.8
 21
4.446447
 31
0.0
  0
LINE
  8
0
 62
     0
 10
0.53033
 20
0.0
 30
0.0
 11
4.8
 21
4.26967
 31
0.0
  0
LINE
  8
0
 62
     0
 10
0.707107
 20
0.0
 30
0.0
 11
4.8
 21
4.092893
 31
0.0
  0
LINE
  8
0
 62
     0
 10
0.883883
 20
0.0
 30
0.0
 11
4.8
 21
3.916117
 31
0.0
  0
LINE
  8
0
 62
     0
 10
1.06066
 20
0.0
 30
0.0
 11
4.8
 21
3.73934
 31
0.0
  0
LINE
  8
0
 62
     0
 10
1.237437
 20
0.0
 30
0.0
 11
3.179842
 21
1.942405
 31
0.0
  0
LINE
  8
0
 62
     0
 10
3.237437
 20
2.0
 30
0.0
 11
4.8
 21
3.562563
 31
0.0
  0
LINE
  8
0
 62
     0
 10
1.414214
 20
0.0
 30
0.0
 11
3.084654
 21
1.670441
 31
0.0
  0
LINE
  8
0
 62
     0
 10
3.414214
 20
2.0
 30
0.0
 11
4.8
 21
3.385786
 31
0.0
  0
LINE
  8
0
 62
     0
 10
1.59099
 20
0.0
 30
0.0
 11
2.989467
 21
1.398477
 31
0.0
  0
LINE
  8
0
 62
     0
 10
3.59099
 20
2.0
 30
0.0
 11
4.8
 21
3.20901
 31
0.0
  0
LINE
  8
0
 62
     0
 10
1.767767
 20
0.0
 30
0.0
 11
2.894279
 21
1.126512
 31
0.0
  0
LINE
  8
0
 62
     0
 10
3.767767
 20
2.0
 30
0.0
 11
4.8
 21
3.032233
 31
0.0
  0
LINE
  8
0
 62
     0
 10
1.944544
 20
0.0
 30
0.0
 11
2.799092
 21
0.854548
 31
0.0
  0
LINE
  8
0
 62
     0
 10
3.944544
 20
2.0
 30
0.0
 11
4.8
 21
2.855456
 31
0.0
  0
LINE
  8
0
 62
     0
 10
2.12132
 20
0.0
 30
0.0
 11
2.703904
 21
0.582584
 31
0.0
  0
LINE
  8
0
 62
     0
 10
4.12132
 20
2.0
 30
0.0
 11
4.8
 21
2.67868
 31
0.0
  0
LINE
  8
0
 62
     0
 10
2.298097
 20
0.0
 30
0.0
 11
2.608717
 21
0.31062
 31
0.0
  0
LINE
  8
0
 62
     0
 10
4.298097
 20
2.0
 30
0.0
 11
4.8
 21
2.501903
 31
0.0
  0
LINE
  8
0
 62
     0
 10
2.474874
 20
0.0
 30
0.0
 11
2.51353
 21
0.038656
 31
0.0
  0
LINE
  8
0
 62
     0
 10
4.474874
 20
2.0
 30
0.0
 11
4.8
 21
2.325126
 31
0.0
  0
LINE
  8
0
 62
     0
 10
4.65165
 20
2.0
 30
0.0
 11
4.8
 21
2.14835
 31
0.0
  0
ENDBLK
  8
0
  0
BLOCK
  8
0
  2
*X17
 70
    65
 10
0.0
 20
0.0
 30
0.0
  3
*X
  0
LINE
  8
0
 62
     0
 10
6.884654
 20
1.75813
 30
0.0
 11
8.736506
 21
3.609982
 31
0.0
  0
LINE
  8
0
 62
     0
 10
6.838823
 20
1.889076
 30
0.0
 11
8.690675
 21
3.740928
 31
0.0
  0
LINE
  8
0
 62
     0
 10
6.772971
 20
2.0
 30
0.0
 11
8.644844
 21
3.871874
 31
0.0
  0
LINE
  8
0
 62
     0
 10
6.596194
 20
2.0
 30
0.0
 11
8.599013
 21
4.002819
 31
0.0
  0
LINE
  8
0
 62
     0
 10
6.419417
 20
2.0
 30
0.0
 11
8.553182
 21
4.133765
 31
0.0
  0
LINE
  8
0
 62
     0
 10
6.242641
 20
2.0
 30
0.0
 11
8.507351
 21
4.264711
 31
0.0
  0
LINE
  8
0
 62
     0
 10
6.065864
 20
2.0
 30
0.0
 11
8.46152
 21
4.395656
 31
0.0
  0
LINE
  8
0
 62
     0
 10
5.889087
 20
2.0
 30
0.0
 11
8.415689
 21
4.526602
 31
0.0
  0
LINE
  8
0
 62
     0
 10
5.712311
 20
2.0
 30
0.0
 11
8.369858
 21
4.657548
 31
0.0
  0
LINE
  8
0
 62
     0
 10
5.535534
 20
2.0
 30
0.0
 11
8.324027
 21
4.788493
 31
0.0
  0
LINE
  8
0
 62
     0
 10
5.358757
 20
2.0
 30
0.0
 11
8.158757
 21
4.8
 31
0.0
  0
LINE
  8
0
 62
     0
 10
5.2
 20
2.018019
 30
0.0
 11
7.981981
 21
4.8
 31
0.0
  0
LINE
  8
0
 62
     0
 10
5.2
 20
2.194796
 30
0.0
 11
7.805204
 21
4.8
 31
0.0
  0
LINE
  8
0
 62
     0
 10
5.2
 20
2.371573
 30
0.0
 11
7.628427
 21
4.8
 31
0.0
  0
LINE
  8
0
 62
     0
 10
5.2
 20
2.54835
 30
0.0
 11
7.45165
 21
4.8
 31
0.0
  0
LINE
  8
0
 62
     0
 10
5.2
 20
2.725126
 30
0.0
 11
7.274874
 21
4.8
 31
0.0
  0
LINE
  8
0
 62
     0
 10
5.2
 20
2.901903
 30
0.0
 11
7.098097
 21
4.8
 31
0.0
  0
LINE
  8
0
 62
     0
 10
5.2
 20
3.07868
 30
0.0
 11
6.92132
 21
4.8
 31
0.0
  0
LINE
  8
0
 62
     0
 10
5.2
 20
3.255456
 30
0.0
 11
6.744544
 21
4.8
 31
0.0
  0
LINE
  8
0
 62
     0
 10
5.2
 20
3.432233
 30
0.0
 11
6.567767
 21
4.8
 31
0.0
  0
LINE
  8
0
 62
     0
 10
5.2
 20
3.60901
 30
0.0
 11
6.39099
 21
4.8
 31
0.0
  0
LINE
  8
0
 62
     0
 10
5.2
 20
3.785786
 30
0.0
 11
6.214214
 21
4.8
 31
0.0
  0
LINE
  8
0
 62
     0
 10
5.2
 20
3.962563
 30
0.0
 11
6.037437
 21
4.8
 31
0.0
  0
LINE
  8
0
 62
     0
 10
5.2
 20
4.13934
 30
0.0
 11
5.86066
 21
4.8
 31
0.0
  0
LINE
  8
0
 62
     0
 10
5.2
 20
4.316117
 30
0.0
 11
5.683883
 21
4.8
 31
0.0
  0
LINE
  8
0
 62
     0
 10
5.2
 20
4.492893
 30
0.0
 11
5.507107
 21
4.8
 31
0.0
  0
LINE
  8
0
 62
     0
 10
5.2
 20
4.66967
 30
0.0
 11
5.33033
 21
4.8
 31
0.0
  0
LINE
  8
0
 62
     0
 10
6.930485
 20
1.627185
 30
0.0
 11
8.782337
 21
3.479036
 31
0.0
  0
LINE
  8
0
 62
     0
 10
6.976316
 20
1.496239
 30
0.0
 11
8.828168
 21
3.348091
 31
0.0
  0
LINE
  8
0
 62
     0
 10
7.022147
 20
1.365293
 30
0.0
 11
8.873999
 21
3.217145
 31
0.0
  0
LINE
  8
0
 62
     0
 10
7.067978
 20
1.234347
 30
0.0
 11
8.91983
 21
3.086199
 31
0.0
  0
LINE
  8
0
 62
     0
 10
7.113809
 20
1.103402
 30
0.0
 11
8.965661
 21
2.955254
 31
0.0
  0
LINE
  8
0
 62
     0
 10
7.15964
 20
0.972456
 30
0.0
 11
9.011492
 21
2.824308
 31
0.0
  0
LINE
  8
0
 62
     0
 10
7.205471
 20
0.84151
 30
0.0
 11
9.057323
 21
2.693362
 31
0.0
  0
LINE
  8
0
 62
     0
 10
7.251302
 20
0.710565
 30
0.0
 11
9.103154
 21
2.562416
 31
0.0
  0
LINE
  8
0
 62
     0
 10
7.297133
 20
0.579619
 30
0.0
 11
9.148985
 21
2.431471
 31
0.0
  0
LINE
  8
0
 62
     0
 10
7.342964
 20
0.448673
 30
0.0
 11
9.194816
 21
2.300525
 31
0.0
  0
LINE
  8
0
 62
     0
 10
7.388795
 20
0.317728
 30
0.0
 11
9.240647
 21
2.169579
 31
0.0
  0
LINE
  8
0
 62
     0
 10
7.434626
 20
0.186782
 30
0.0
 11
9.286478
 21
2.038634
 31
0.0
  0
LINE
  8
0
 62
     0
 10
7.480457
 20
0.055836
 30
0.0
 11
9.332309
 21
1.907688
 31
0.0
  0
LINE
  8
0
 62
     0
 10
7.601398
 20
0.0
 30
0.0
 11
9.37814
 21
1.776742
 31
0.0
  0
LINE
  8
0
 62
     0
 10
7.778175
 20
0.0
 30
0.0
 11
9.423971
 21
1.645797
 31
0.0
  0
LINE
  8
0
 62
     0
 10
7.954951
 20
0.0
 30
0.0
 11
9.469802
 21
1.514851
 31
0.0
  0
LINE
  8
0
 62
     0
 10
8.131728
 20
0.0
 30
0.0
 11
9.515633
 21
1.383905
 31
0.0
  0
LINE
  8
0
 62
     0
 10
8.308505
 20
0.0
 30
0.0
 11
9.561464
 21
1.252959
 31
0.0
  0
LINE
  8
0
 62
     0
 10
8.485281
 20
0.0
 30
0.0
 11
9.607295
 21
1.122014
 31
0.0
  0
LINE
  8
0
 62
     0
 10
8.662058
 20
0.0
 30
0.0
 11
9.653126
 21
0.991068
 31
0.0
  0
LINE
  8
0
 62
     0
 10
8.838835
 20
0.0
 30
0.0
 11
9.698957
 21
0.860122
 31
0.0
  0
LINE
  8
0
 62
     0
 10
9.015611
 20
0.0
 30
0.0
 11
9.744788
 21
0.729177
 31
0.0
  0
LINE
  8
0
 62
     0
 10
9.192388
 20
0.0
 30
0.0
 11
9.790619
 21
0.598231
 31
0.0
  0
LINE
  8
0
 62
     0
 10
9.369165
 20
0.0
 30
0.0
 11
9.83645
 21
0.467285
 31
0.0
  0
LINE
  8
0
 62
     0
 10
9.545942
 20
0.0
 30
0.0
 11
9.882281
 21
0.33634
 31
0.0
  0
LINE
  8
0
 62
     0
 10
9.722718
 20
0.0
 30
0.0
 11
9.928112
 21
0.205394
 31
0.0
  0
LINE
  8
0
 62
     0
 10
9.899495
 20
0.0
 30
0.0
 11
9.973943
 21
0.074448
 31
0.0
  0
ENDBLK
  8
0
  0
BLOCK
  8
0
  2
*X18
 70
    65
 10
0.0
 20
0.0
 30
0.0
  3
*X
  0
LINE
  8
0
 62
     0
 10
10.7
 20
6.280583
 30
0.0
 11
13.5
 21
9.080583
 31
0.0
  0
LINE
  8
0
 62
     0
 10
10.7
 20
6.457359
 30
0.0
 11
13.5
 21
9.257359
 31
0.0
  0
LINE
  8
0
 62
     0
 10
10.7
 20
6.634136
 30
0.0
 11
13.5
 21
9.434136
 31
0.0
  0
LINE
  8
0
 62
     0
 10
10.7
 20
6.810913
 30
0.0
 11
13.5
 21
9.610913
 31
0.0
  0
LINE
  8
0
 62
     0
 10
10.7
 20
6.987689
 30
0.0
 11
13.5
 21
9.787689
 31
0.0
  0
LINE
  8
0
 62
     0
 10
10.7
 20
7.164466
 30
0.0
 11
13.5
 21
9.964466
 31
0.0
  0
LINE
  8
0
 62
     0
 10
10.7
 20
7.341243
 30
0.0
 11
13.358757
 21
10.0
 31
0.0
  0
LINE
  8
0
 62
     0
 10
10.7
 20
7.518019
 30
0.0
 11
13.181981
 21
10.0
 31
0.0
  0
LINE
  8
0
 62
     0
 10
10.7
 20
7.694796
 30
0.0
 11
13.005204
 21
10.0
 31
0.0
  0
LINE
  8
0
 62
     0
 10
10.7
 20
7.871573
 30
0.0
 11
12.828427
 21
10.0
 31
0.0
  0
LINE
  8
0
 62
     0
 10
10.7
 20
8.04835
 30
0.0
 11
12.65165
 21
10.0
 31
0.0
  0
LINE
  8
0
 62
     0
 10
10.7
 20
8.225126
 30
0.0
 11
12.474874
 21
10.0
 31
0.0
  0
LINE
  8
0
 62
     0
 10
10.7
 20
8.401903
 30
0.0
 11
12.298097
 21
10.0
 31
0.0
  0
LINE
  8
0
 62
     0
 10
10.7
 20
8.57868
 30
0.0
 11
12.12132
 21
10.0
 31
0.0
  0
LINE
  8
0
 62
     0
 10
10.7
 20
8.755456
 30
0.0
 11
11.944544
 21
10.0
 31
0.0
  0
LINE
  8
0
 62
     0
 10
10.7
 20
8.932233
 30
0.0
 11
11.767767
 21
10.0
 31
0.0
  0
LINE
  8
0
 62
     0
 10
10.7
 20
9.10901
 30
0.0
 11
11.59099
 21
10.0
 31
0.0
  0
LINE
  8
0
 62
     0
 10
10.7
 20
9.285786
 30
0.0
 11
11.414214
 21
10.0
 31
0.0
  0
LINE
  8
0
 62
     0
 10
10.7
 20
9.462563
 30
0.0
 11
11.237437
 21
10.0
 31
0.0
  0
LINE
  8
0
 62
     0
 10
10.7
 20
9.63934
 30
0.0
 11
11.06066
 21
10.0
 31
0.0
  0
LINE
  8
0
 62
     0
 10
10.7
 20
9.816117
 30
0.0
 11
10.883883
 21
10.0
 31
0.0
  0
LINE
  8
0
 62
     0
 10
10.7
 20
9.992893
 30
0.0
 11
10.707107
 21
10.0
 31
0.0
  0
LINE
  8
0
 62
     0
 10
10.7
 20
6.103806
 30
0.0
 11
13.5
 21
8.903806
 31
0.0
  0
LINE
  8
0
 62
     0
 10
10.7
 20
5.927029
 30
0.0
 11
13.5
 21
8.727029
 31
0.0
  0
LINE
  8
0
 62
     0
 10
10.7
 20
5.750253
 30
0.0
 11
13.5
 21
8.550253
 31
0.0
  0
LINE
  8
0
 62
     0
 10
10.7
 20
5.573476
 30
0.0
 11
13.5
 21
8.373476
 31
0.0
  0
LINE
  8
0
 62
     0
 10
10.7
 20
5.396699
 30
0.0
 11
13.5
 21
8.196699
 31
0.0
  0
LINE
  8
0
 62
     0
 10
10.7
 20
5.219922
 30
0.0
 11
13.5
 21
8.019922
 31
0.0
  0
LINE
  8
0
 62
     0
 10
10.856854
 20
5.2
 30
0.0
 11
13.5
 21
7.843146
 31
0.0
  0
LINE
  8
0
 62
     0
 10
11.033631
 20
5.2
 30
0.0
 11
13.5
 21
7.666369
 31
0.0
  0
LINE
  8
0
 62
     0
 10
11.210408
 20
5.2
 30
0.0
 11
13.5
 21
7.489592
 31
0.0
  0
LINE
  8
0
 62
     0
 10
11.387184
 20
5.2
 30
0.0
 11
13.5
 21
7.312816
 31
0.0
  0
LINE
  8
0
 62
     0
 10
11.563961
 20
5.2
 30
0.0
 11
13.5
 21
7.136039
 31
0.0
  0
LINE
  8
0
 62
     0
 10
11.740738
 20
5.2
 30
0.0
 11
13.5
 21
6.959262
 31
0.0
  0
LINE
  8
0
 62
     0
 10
11.917514
 20
5.2
 30
0.0
 11
13.5
 21
6.782486
 31
0.0
  0
LINE
  8
0
 62
     0
 10
12.094291
 20
5.2
 30
0.0
 11
13.5
 21
6.605709
 31
0.0
  0
LINE
  8
0
 62
     0
 10
12.271068
 20
5.2
 30
0.0
 11
13.5
 21
6.428932
 31
0.0
  0
LINE
  8
0
 62
     0
 10
12.447845
 20
5.2
 30
0.0
 11
13.5
 21
6.252155
 31
0.0
  0
LINE
  8
0
 62
     0
 10
12.624621
 20
5.2
 30
0.0
 11
13.5
 21
6.075379
 31
0.0
  0
LINE
  8
0
 62
     0
 10
12.801398
 20
5.2
 30
0.0
 11
13.5
 21
5.898602
 31
0.0
  0
LINE
  8
0
 62
     0
 10
12.978175
 20
5.2
 30
0.0
 11
13.5
 21
5.721825
 31
0.0
  0
LINE
  8
0
 62
     0
 10
13.154951
 20
5.2
 30
0.0
 11
13.5
 21
5.545049
 31
0.0
  0
LINE
  8
0
 62
     0
 10
13.331728
 20
5.2
 30
0.0
 11
13.5
 21
5.368272
 31
0.0
  0
ENDBLK
  8
0
  0
BLOCK
  8
0
  2
*X19
 70
    65
 10
0.0
 20
0.0
 30
0.0
  3
*X
  0
LINE
  8
0
 62
     0
 10
10.7
 20
1.154058
 30
0.0
 11
13.5
 21
3.954058
 31
0.0
  0
LINE
  8
0
 62
     0
 10
10.7
 20
1.330835
 30
0.0
 11
13.5
 21
4.130835
 31
0.0
  0
LINE
  8
0
 62
     0
 10
10.7
 20
1.507612
 30
0.0
 11
13.5
 21
4.307612
 31
0.0
  0
LINE
  8
0
 62
     0
 10
10.7
 20
1.684389
 30
0.0
 11
13.5
 21
4.484389
 31
0.0
  0
LINE
  8
0
 62
     0
 10
10.7
 20
1.861165
 30
0.0
 11
13.5
 21
4.661165
 31
0.0
  0
LINE
  8
0
 62
     0
 10
10.7
 20
2.037942
 30
0.0
 11
13.462058
 21
4.8
 31
0.0
  0
LINE
  8
0
 62
     0
 10
10.7
 20
2.214719
 30
0.0
 11
13.285281
 21
4.8
 31
0.0
  0
LINE
  8
0
 62
     0
 10
10.7
 20
2.391495
 30
0.0
 11
13.108505
 21
4.8
 31
0.0
  0
LINE
  8
0
 62
     0
 10
10.7
 20
2.568272
 30
0.0
 11
12.931728
 21
4.8
 31
0.0
  0
LINE
  8
0
 62
     0
 10
10.7
 20
2.745049
 30
0.0
 11
12.754951
 21
4.8
 31
0.0
  0
LINE
  8
0
 62
     0
 10
10.7
 20
2.921825
 30
0.0
 11
12.578175
 21
4.8
 31
0.0
  0
LINE
  8
0
 62
     0
 10
10.7
 20
3.098602
 30
0.0
 11
12.401398
 21
4.8
 31
0.0
  0
LINE
  8
0
 62
     0
 10
10.7
 20
3.275379
 30
0.0
 11
12.224621
 21
4.8
 31
0.0
  0
LINE
  8
0
 62
     0
 10
10.7
 20
3.452155
 30
0.0
 11
12.047845
 21
4.8
 31
0.0
  0
LINE
  8
0
 62
     0
 10
10.7
 20
3.628932
 30
0.0
 11
11.871068
 21
4.8
 31
0.0
  0
LINE
  8
0
 62
     0
 10
10.7
 20
3.805709
 30
0.0
 11
11.694291
 21
4.8
 31
0.0
  0
LINE
  8
0
 62
     0
 10
10.7
 20
3.982486
 30
0.0
 11
11.517514
 21
4.8
 31
0.0
  0
LINE
  8
0
 62
     0
 10
10.7
 20
4.159262
 30
0.0
 11
11.340738
 21
4.8
 31
0.0
  0
LINE
  8
0
 62
     0
 10
10.7
 20
4.336039
 30
0.0
 11
11.163961
 21
4.8
 31
0.0
  0
LINE
  8
0
 62
     0
 10
10.7
 20
4.512816
 30
0.0
 11
10.987184
 21
4.8
 31
0.0
  0
LINE
  8
0
 62
     0
 10
10.7
 20
4.689592
 30
0.0
 11
10.810408
 21
4.8
 31
0.0
  0
LINE
  8
0
 62
     0
 10
10.7
 20
0.977282
 30
0.0
 11
13.5
 21
3.777282
 31
0.0
  0
LINE
  8
0
 62
     0
 10
10.7
 20
0.800505
 30
0.0
 11
13.5
 21
3.600505
 31
0.0
  0
LINE
  8
0
 62
     0
 10
10.7
 20
0.623728
 30
0.0
 11
13.5
 21
3.423728
 31
0.0
  0
LINE
  8
0
 62
     0
 10
10.7
 20
0.446952
 30
0.0
 11
13.5
 21
3.246952
 31
0.0
  0
LINE
  8
0
 62
     0
 10
10.7
 20
0.270175
 30
0.0
 11
13.5
 21
3.070175
 31
0.0
  0
LINE
  8
0
 62
     0
 10
10.7
 20
0.093398
 30
0.0
 11
13.5
 21
2.893398
 31
0.0
  0
LINE
  8
0
 62
     0
 10
10.783378
 20
0.0
 30
0.0
 11
13.5
 21
2.716622
 31
0.0
  0
LINE
  8
0
 62
     0
 10
10.960155
 20
0.0
 30
0.0
 11
13.5
 21
2.539845
 31
0.0
  0
LINE
  8
0
 62
     0
 10
11.136932
 20
0.0
 30
0.0
 11
13.5
 21
2.363068
 31
0.0
  0
LINE
  8
0
 62
     0
 10
11.313708
 20
0.0
 30
0.0
 11
13.5
 21
2.186292
 31
0.0
  0
LINE
  8
0
 62
     0
 10
11.490485
 20
0.0
 30
0.0
 11
13.5
 21
2.009515
 31
0.0
  0
LINE
  8
0
 62
     0
 10
11.667262
 20
0.0
 30
0.0
 11
13.5
 21
1.832738
 31
0.0
  0
LINE
  8
0
 62
     0
 10
11.844039
 20
0.0
 30
0.0
 11
13.5
 21
1.655961
 31
0.0
  0
LINE
  8
0
 62
     0
 10
12.020815
 20
0.0
 30
0.0
 11
13.5
 21
1.479185
 31
0.0
  0
LINE
  8
0
 62
     0
 10
12.197592
 20
0.0
 30
0.0
 11
13.5
 21
1.302408
 31
0.0
  0
LINE
  8
0
 62
     0
 10
12.374369
 20
0.0
 30
0.0
 11
13.5
 21
1.125631
 31
0.0
  0
LINE
  8
0
 62
     0
 10
12.551145
 20
0.0
 30
0.0
 11
13.5
 21
0.948855
 31
0.0
  0
LINE
  8
0
 62
     0
 10
12.727922
 20
0.0
 30
0.0
 11
13.5
 21
0.772078
 31
0.0
  0
LINE
  8
0
 62
     0
 10
12.904699
 20
0.0
 30
0.0
 11
13.5
 21
0.595301
 31
0.0
  0
LINE
  8
0
 62
     0
 10
13.081475
 20
0.0
 30
0.0
 11
13.5
 21
0.418525
 31
0.0
  0
LINE
  8
0
 62
     0
 10
13.258252
 20
0.0
 30
0.0
 11
13.5
 21
0.241748
 31
0.0
  0
LINE
  8
0
 62
     0
 10
13.435029
 20
0.0
 30
0.0
 11
13.5
 21
0.064971
 31
0.0
  0
ENDBLK
  8
0
  0
BLOCK
  8
0
  2
*X20
 70
    65
 10
0.0
 20
0.0
 30
0.0
  3
*X
  0
LINE
  8
0
 62
     0
 10
13.9
 20
6.298602
 30
0.0
 11
16.582995
 21
8.981597
 31
0.0
  0
LINE
  8
0
 62
     0
 10
13.9
 20
6.475379
 30
0.0
 11
16.510503
 21
9.085882
 31
0.0
  0
LINE
  8
0
 62
     0
 10
13.9
 20
6.652155
 30
0.0
 11
16.432927
 21
9.185083
 31
0.0
  0
LINE
  8
0
 62
     0
 10
13.9
 20
6.828932
 30
0.0
 11
16.350372
 21
9.279304
 31
0.0
  0
LINE
  8
0
 62
     0
 10
13.9
 20
7.005709
 30
0.0
 11
16.262892
 21
9.368601
 31
0.0
  0
LINE
  8
0
 62
     0
 10
13.9
 20
7.182486
 30
0.0
 11
16.170495
 21
9.452981
 31
0.0
  0
LINE
  8
0
 62
     0
 10
13.9
 20
7.359262
 30
0.0
 11
16.073145
 21
9.532407
 31
0.0
  0
LINE
  8
0
 62
     0
 10
13.9
 20
7.536039
 30
0.0
 11
15.970755
 21
9.606794
 31
0.0
  0
LINE
  8
0
 62
     0
 10
13.9
 20
7.712816
 30
0.0
 11
15.863189
 21
9.676004
 31
0.0
  0
LINE
  8
0
 62
     0
 10
13.9
 20
7.889592
 30
0.0
 11
15.75025
 21
9.739843
 31
0.0
  0
LINE
  8
0
 62
     0
 10
13.9
 20
8.066369
 30
0.0
 11
15.631675
 21
9.798044
 31
0.0
  0
LINE
  8
0
 62
     0
 10
13.9
 20
8.243146
 30
0.0
 11
15.50711
 21
9.850256
 31
0.0
  0
LINE
  8
0
 62
     0
 10
13.9
 20
8.419922
 30
0.0
 11
15.376096
 21
9.896018
 31
0.0
  0
LINE
  8
0
 62
     0
 10
13.9
 20
8.596699
 30
0.0
 11
15.238027
 21
9.934726
 31
0.0
  0
LINE
  8
0
 62
     0
 10
13.9
 20
8.773476
 30
0.0
 11
15.092096
 21
9.965572
 31
0.0
  0
LINE
  8
0
 62
     0
 10
13.9
 20
8.950253
 30
0.0
 11
14.937209
 21
9.987461
 31
0.0
  0
LINE
  8
0
 62
     0
 10
13.9
 20
9.127029
 30
0.0
 11
14.771824
 21
9.998853
 31
0.0
  0
LINE
  8
0
 62
     0
 10
13.9
 20
9.303806
 30
0.0
 11
14.596193
 21
9.999999
 31
0.0
  0
LINE
  8
0
 62
     0
 10
13.9
 20
9.480583
 30
0.0
 11
14.419417
 21
9.999999
 31
0.0
  0
LINE
  8
0
 62
     0
 10
13.9
 20
9.657359
 30
0.0
 11
14.24264
 21
10.0
 31
0.0
  0
LINE
  8
0
 62
     0
 10
13.9
 20
9.834136
 30
0.0
 11
14.065864
 21
10.0
 31
0.0
  0
LINE
  8
0
 62
     0
 10
13.9
 20
6.121825
 30
0.0
 11
16.650245
 21
8.872071
 31
0.0
  0
LINE
  8
0
 62
     0
 10
13.9
 20
5.945049
 30
0.0
 11
16.712035
 21
8.757083
 31
0.0
  0
LINE
  8
0
 62
     0
 10
13.9
 20
5.768272
 30
0.0
 11
16.768067
 21
8.636339
 31
0.0
  0
LINE
  8
0
 62
     0
 10
13.9
 20
5.591495
 30
0.0
 11
16.817955
 21
8.509451
 31
0.0
  0
LINE
  8
0
 62
     0
 10
13.9
 20
5.414719
 30
0.0
 11
16.861189
 21
8.375908
 31
0.0
  0
LINE
  8
0
 62
     0
 10
13.9
 20
5.237942
 30
0.0
 11
16.897097
 21
8.235039
 31
0.0
  0
LINE
  8
0
 62
     0
 10
14.038835
 20
5.2
 30
0.0
 11
16.924779
 21
8.085944
 31
0.0
  0
LINE
  8
0
 62
     0
 10
14.215611
 20
5.2
 30
0.0
 11
16.942997
 21
7.927385
 31
0.0
  0
LINE
  8
0
 62
     0
 10
14.392388
 20
5.2
 30
0.0
 11
16.949987
 21
7.757599
 31
0.0
  0
LINE
  8
0
 62
     0
 10
14.569165
 20
5.2
 30
0.0
 11
16.943101
 21
7.573936
 31
0.0
  0
LINE
  8
0
 62
     0
 10
14.745942
 20
5.2
 30
0.0
 11
16.918037
 21
7.372095
 31
0.0
  0
LINE
  8
0
 62
     0
 10
14.922718
 20
5.2
 30
0.0
 11
16.866909
 21
7.144191
 31
0.0
  0
LINE
  8
0
 62
     0
 10
15.099495
 20
5.2
 30
0.0
 11
16.771715
 21
6.87222
 31
0.0
  0
LINE
  8
0
 62
     0
 10
15.276272
 20
5.2
 30
0.0
 11
15.847951
 21
5.77168
 31
0.0
  0
LINE
  8
0
 62
     0
 10
15.96673
 20
5.890458
 30
0.0
 11
16.559542
 21
6.48327
 31
0.0
  0
LINE
  8
0
 62
     0
 10
15.453048
 20
5.2
 30
0.0
 11
15.970661
 21
5.717613
 31
0.0
  0
LINE
  8
0
 62
     0
 10
15.629825
 20
5.2
 30
0.0
 11
16.088934
 21
5.659109
 31
0.0
  0
LINE
  8
0
 62
     0
 10
15.806602
 20
5.2
 30
0.0
 11
16.202964
 21
5.596363
 31
0.0
  0
LINE
  8
0
 62
     0
 10
15.983378
 20
5.2
 30
0.0
 11
16.312909
 21
5.529531
 31
0.0
  0
LINE
  8
0
 62
     0
 10
16.160155
 20
5.2
 30
0.0
 11
16.418895
 21
5.45874
 31
0.0
  0
LINE
  8
0
 62
     0
 10
16.336932
 20
5.2
 30
0.0
 11
16.521021
 21
5.384089
 31
0.0
  0
LINE
  8
0
 62
     0
 10
16.513708
 20
5.2
 30
0.0
 11
16.619363
 21
5.305655
 31
0.0
  0
LINE
  8
0
 62
     0
 10
16.690485
 20
5.2
 30
0.0
 11
16.713975
 21
5.22349
 31
0.0
  0
ENDBLK
  8
0
  0
BLOCK
  8
0
  2
*X21
 70
    65
 10
0.0
 20
0.0
 30
0.0
  3
*X
  0
LINE
  8
0
 62
     0
 10
13.9
 20
0.818525
 30
0.0
 11
17.39645
 21
4.314974
 31
0.0
  0
LINE
  8
0
 62
     0
 10
13.9
 20
0.995301
 30
0.0
 11
17.336354
 21
4.431655
 31
0.0
  0
LINE
  8
0
 62
     0
 10
13.9
 20
1.172078
 30
0.0
 11
17.272078
 21
4.544156
 31
0.0
  0
LINE
  8
0
 62
     0
 10
13.9
 20
1.348855
 30
0.0
 11
17.203766
 21
4.652621
 31
0.0
  0
LINE
  8
0
 62
     0
 10
13.9
 20
1.525631
 30
0.0
 11
17.131535
 21
4.757167
 31
0.0
  0
LINE
  8
0
 62
     0
 10
13.9
 20
1.702408
 30
0.0
 11
16.997592
 21
4.8
 31
0.0
  0
LINE
  8
0
 62
     0
 10
13.9
 20
1.879185
 30
0.0
 11
16.820815
 21
4.8
 31
0.0
  0
LINE
  8
0
 62
     0
 10
13.9
 20
2.055961
 30
0.0
 11
16.644039
 21
4.8
 31
0.0
  0
LINE
  8
0
 62
     0
 10
13.9
 20
2.232738
 30
0.0
 11
16.467262
 21
4.8
 31
0.0
  0
LINE
  8
0
 62
     0
 10
13.9
 20
2.409515
 30
0.0
 11
16.290485
 21
4.8
 31
0.0
  0
LINE
  8
0
 62
     0
 10
13.9
 20
2.586292
 30
0.0
 11
16.113708
 21
4.8
 31
0.0
  0
LINE
  8
0
 62
     0
 10
13.9
 20
2.763068
 30
0.0
 11
15.936932
 21
4.8
 31
0.0
  0
LINE
  8
0
 62
     0
 10
13.9
 20
2.939845
 30
0.0
 11
15.760155
 21
4.8
 31
0.0
  0
LINE
  8
0
 62
     0
 10
13.9
 20
3.116622
 30
0.0
 11
15.583378
 21
4.8
 31
0.0
  0
LINE
  8
0
 62
     0
 10
13.9
 20
3.293398
 30
0.0
 11
15.406602
 21
4.8
 31
0.0
  0
LINE
  8
0
 62
     0
 10
13.9
 20
3.470175
 30
0.0
 11
15.229825
 21
4.8
 31
0.0
  0
LINE
  8
0
 62
     0
 10
13.9
 20
3.646952
 30
0.0
 11
15.053048
 21
4.8
 31
0.0
  0
LINE
  8
0
 62
     0
 10
13.9
 20
3.823728
 30
0.0
 11
14.876272
 21
4.8
 31
0.0
  0
LINE
  8
0
 62
     0
 10
13.9
 20
4.000505
 30
0.0
 11
14.699495
 21
4.8
 31
0.0
  0
LINE
  8
0
 62
     0
 10
13.9
 20
4.177282
 30
0.0
 11
14.522718
 21
4.8
 31
0.0
  0
LINE
  8
0
 62
     0
 10
13.9
 20
4.354058
 30
0.0
 11
14.345942
 21
4.8
 31
0.0
  0
LINE
  8
0
 62
     0
 10
13.9
 20
4.530835
 30
0.0
 11
14.169165
 21
4.8
 31
0.0
  0
LINE
  8
0
 62
     0
 10
13.9
 20
4.707612
 30
0.0
 11
13.992388
 21
4.8
 31
0.0
  0
LINE
  8
0
 62
     0
 10
13.9
 20
0.641748
 30
0.0
 11
17.452185
 21
4.193933
 31
0.0
  0
LINE
  8
0
 62
     0
 10
13.9
 20
0.464971
 30
0.0
 11
17.503339
 21
4.068311
 31
0.0
  0
LINE
  8
0
 62
     0
 10
13.9
 20
0.288194
 30
0.0
 11
17.549642
 21
3.937837
 31
0.0
  0
LINE
  8
0
 62
     0
 10
13.9
 20
0.111418
 30
0.0
 11
17.590762
 21
3.80218
 31
0.0
  0
LINE
  8
0
 62
     0
 10
13.965359
 20
0.0
 30
0.0
 11
17.62629
 21
3.660931
 31
0.0
  0
LINE
  8
0
 62
     0
 10
14.142136
 20
0.000001
 30
0.0
 11
17.655713
 21
3.513577
 31
0.0
  0
LINE
  8
0
 62
     0
 10
14.318913
 20
0.000001
 30
0.0
 11
17.678385
 21
3.359473
 31
0.0
  0
LINE
  8
0
 62
     0
 10
14.49569
 20
0.000001
 30
0.0
 11
17.693473
 21
3.197784
 31
0.0
  0
LINE
  8
0
 62
     0
 10
14.672467
 20
0.000002
 30
0.0
 11
17.699875
 21
3.027409
 31
0.0
  0
LINE
  8
0
 62
     0
 10
14.853154
 20
0.003912
 30
0.0
 11
17.696088
 21
2.846846
 31
0.0
  0
LINE
  8
0
 62
     0
 10
15.046044
 20
0.020025
 30
0.0
 11
17.679975
 21
2.653956
 31
0.0
  0
LINE
  8
0
 62
     0
 10
15.254483
 20
0.051687
 30
0.0
 11
17.648313
 21
2.445517
 31
0.0
  0
LINE
  8
0
 62
     0
 10
15.483762
 20
0.10419
 30
0.0
 11
17.59581
 21
2.216238
 31
0.0
  0
LINE
  8
0
 62
     0
 10
15.743786
 20
0.187437
 30
0.0
 11
17.512563
 21
1.956214
 31
0.0
  0
LINE
  8
0
 62
     0
 10
16.058176
 20
0.32505
 30
0.0
 11
17.37495
 21
1.641824
 31
0.0
  0
LINE
  8
0
 62
     0
 10
16.54193
 20
0.632028
 30
0.0
 11
17.067972
 21
1.15807
 31
0.0
  0
ENDBLK
  8
0
  0
BLOCK
  8
0
  2
B155
 70
     0
 10
0.0
 20
0.0
 30
0.0
  3
B155
  0
LINE
  8
0
  6
CONTINUOUS
 10
0.0
 20
0.0
 30
0.0
 11
0.0
 21
-1.35427
 31
0.0
  0
LINE
  8
0
  6
CONTINUOUS
 10
-1.210228
 20
-1.35427
 30
0.0
 11
-0.015887
 21
-1.35427
 31
0.0
  0
LINE
  8
0
  6
CONTINUOUS
 10
-0.015887
 20
-1.35427
 30
0.0
 11
1.178454
 21
-1.35427
 31
0.0
  0
LINE
  8
0
  6
CONTINUOUS
 10
-0.831823
 20
-1.833881
 30
0.0
 11
0.752749
 21
-1.833881
 31
0.0
  0
LINE
  8
0
  6
CONTINUOUS
 10
-0.500718
 20
-2.322055
 30
0.0
 11
0.386169
 21
-2.322055
 31
0.0
  0
ENDBLK
  8
0
  0
BLOCK
  8
0
  2
MAA
 70
    64
 10
0.0
 20
0.0
 30
0.0
  3
MAA
  0
LINE
  8
0
  6
CONTINUOUS
 10
-0.500718
 20
-2.587966
 30
0.0
 11
0.386169
 21
-2.587966
 31
0.0
  0
LINE
  8
0
  6
CONTINUOUS
 10
-0.831823
 20
-1.976333
 30
0.0
 11
0.752749
 21
-1.976333
 31
0.0
  0
LINE
  8
0
  6
CONTINUOUS
 10
-0.015887
 20
-1.35427
 30
0.0
 11
1.178454
 21
-1.35427
 31
0.0
  0
LINE
  8
0
  6
CONTINUOUS
 10
-1.210228
 20
-1.35427
 30
0.0
 11
-0.015887
 21
-1.35427
 31
0.0
  0
LINE
  8
0
  6
CONTINUOUS
 10
0.0
 20
0.0
 30
0.0
 11
0.0
 21
-1.35427
 31
0.0
  0
ENDBLK
  8
0
  0
BLOCK
  8
0
  2
B505
 70
     0
 10
0.0
 20
0.0
 30
0.0
  3
B505
  0
TEXT
  8
0
  6
HIDDEN
 10
-37.517333
 20
-93.931674
 30
0.0
 40
2.0
  1
Uo
  7
GREEKS
  0
LINE
  8
0
  6
CONTINUOUS
 10
-35.028779
 20
-75.421831
 30
0.0
 11
-34.141892
 21
-75.421831
 31
0.0
  0
LINE
  8
0
  6
CONTINUOUS
 10
-35.359884
 20
-74.881591
 30
0.0
 11
-33.775313
 21
-74.881591
 31
0.0
  0
LINE
  8
0
  6
CONTINUOUS
 10
-34.543948
 20
-74.263141
 30
0.0
 11
-33.349607
 21
-74.263141
 31
0.0
  0
LINE
  8
0
  6
CONTINUOUS
 10
-35.738289
 20
-74.263141
 30
0.0
 11
-34.543948
 21
-74.263141
 31
0.0
  0
LINE
  8
0
  6
CONTINUOUS
 10
-34.528061
 20
-72.90887
 30
0.0
 11
-34.528061
 21
-74.263141
 31
0.0
  0
TEXT
  8
0
  6
CONTINUOUS
 10
-37.496485
 20
-74.451103
 30
0.0
 40
2.5
  1
I
 11
-37.496485
 21
-75.284437
 31
0.0
 73
     1
  0
TEXT
  8
0
  6
HIDDEN
 10
-37.517333
 20
-83.931674
 30
0.0
 40
2.0
  1
Uo
  7
GREEKS
  0
TEXT
  8
0
  6
CONTINUOUS
 10
-37.496485
 20
-64.451103
 30
0.0
 40
2.5
  1
I
 11
-37.496485
 21
-65.284437
 31
0.0
 73
     1
  0
LINE
  8
0
  6
CONTINUOUS
 10
-34.528061
 20
-62.90887
 30
0.0
 11
-34.528061
 21
-64.263141
 31
0.0
  0
LINE
  8
0
  6
CONTINUOUS
 10
-35.738289
 20
-64.263141
 30
0.0
 11
-34.543948
 21
-64.263141
 31
0.0
  0
LINE
  8
0
  6
CONTINUOUS
 10
-34.543948
 20
-64.263141
 30
0.0
 11
-33.349607
 21
-64.263141
 31
0.0
  0
LINE
  8
0
  6
CONTINUOUS
 10
-35.359884
 20
-64.881591
 30
0.0
 11
-33.775313
 21
-64.881591
 31
0.0
  0
LINE
  8
0
  6
CONTINUOUS
 10
-35.028779
 20
-65.421831
 30
0.0
 11
-34.141892
 21
-65.421831
 31
0.0
  0
TEXT
  8
0
  6
CONTINUOUS
 10
-37.5
 20
-124.216301
 30
0.0
 40
2.0
  1
U12
  7
GREEKS
  0
TEXT
  8
0
  6
CONTINUOUS
 10
-37.5
 20
-143.68944
 30
0.0
 40
2.0
  1
U23
  7
GREEKS
  0
TEXT
  8
0
  6
CONTINUOUS
 10
-37.5
 20
-54.006863
 30
0.0
 40
2.0
  1
L3
  7
GREEKS
  0
TEXT
  8
0
  6
CONTINUOUS
 10
-37.5
 20
-33.964226
 30
0.0
 40
2.0
  1
L2
  7
GREEKS
  0
TEXT
  8
0
  6
CONTINUOUS
 10
-37.5
 20
-13.945824
 30
0.0
 40
2.0
  1
L1
  7
GREEKS
  0
TEXT
  8
0
  6
CONTINUOUS
 10
-37.5
 20
-153.938065
 30
0.0
 40
2.0
  1
U31
  7
GREEKS
  0
TEXT
  8
0
  6
CONTINUOUS
 10
-37.5
 20
-133.68944
 30
0.0
 40
2.0
  1
U23
  7
GREEKS
  0
TEXT
  8
0
  6
CONTINUOUS
 10
-37.5
 20
-114.216301
 30
0.0
 40
2.0
  1
U12
  7
GREEKS
  0
TEXT
  8
0
  6
CONTINUOUS
 10
-37.5
 20
-44.006863
 30
0.0
 40
2.0
  1
L3
  7
GREEKS
  0
TEXT
  8
0
  6
CONTINUOUS
 10
-37.5
 20
-23.964226
 30
0.0
 40
2.0
  1
L2
  7
GREEKS
  0
TEXT
  8
0
  6
CONTINUOUS
 10
-37.5
 20
-3.945824
 30
0.0
 40
2.0
  1
L1
  7
GREEKS
  0
LINE
  8
0
  6
CONTINUOUS
 10
-25.0
 20
-70.0
 30
0.0
 11
-26.0
 21
-71.0
 31
0.0
  0
LINE
  8
0
  6
CONTINUOUS
 10
-25.0
 20
-70.0
 30
0.0
 11
-25.0
 21
-20.0
 31
0.0
  0
LINE
  8
0
  6
CONTINUOUS
 10
-25.0
 20
-20.0
 30
0.0
 11
-25.0
 21
0.0
 31
0.0
  0
LINE
  8
0
  6
CONTINUOUS
 10
-25.0
 20
0.0
 30
0.0
 11
-26.0
 21
1.0
 31
0.0
  0
CIRCLE
  8
0
  6
CONTINUOUS
 10
-7.5
 20
-12.5
 30
0.0
 40
2.5
  0
LINE
  8
0
  6
DASHED
 10
-7.5
 20
-15.0
 30
0.0
 11
-7.5
 21
-85.0
 31
0.0
  0
LINE
  8
0
  6
CONTINUOUS
 10
-25.0
 20
-90.0
 30
0.0
 11
-26.0
 21
-91.0
 31
0.0
  0
LINE
  8
0
  6
CONTINUOUS
 10
-25.0
 20
-80.0
 30
0.0
 11
-26.0
 21
-79.0
 31
0.0
  0
LINE
  8
0
  6
CONTINUOUS
 10
-25.0
 20
-80.0
 30
0.0
 11
-25.0
 21
-90.0
 31
0.0
  0
CIRCLE
  8
0
  6
CONTINUOUS
 10
-7.5
 20
-9.458377
 30
0.0
 40
2.5
  0
LINE
  8
0
  6
DASHED
 10
-20.0
 20
0.0
 30
0.0
 11
12.5
 21
0.0
 31
0.0
  0
LINE
  8
0
  6
DASHED
 10
-7.5
 20
0.0
 30
0.0
 11
-7.5
 21
-6.958377
 31
0.0
  0
LINE
  8
0
  6
DASHED
 10
-15.0
 20
0.0
 30
0.0
 11
-15.0
 21
-60.0
 31
0.0
  0
LINE
  8
0
  6
DASHED
 10
-7.5
 20
-85.0
 30
0.0
 11
-25.0
 21
-85.0
 31
0.0
  0
CIRCLE
  8
0
  6
CONTINUOUS
 10
-15.0
 20
-35.0
 30
0.0
 40
2.5
  0
LINE
  8
0
  6
DASHED
 10
-25.0
 20
-35.0
 30
0.0
 11
-17.5
 21
-35.0
 31
0.0
  0
LINE
  8
0
  6
CONTINUOUS
 10
-25.0
 20
-110.0
 30
0.0
 11
-26.0
 21
-109.0
 31
0.0
  0
LINE
  8
0
  6
CONTINUOUS
 10
-25.0
 20
-130.0
 30
0.0
 11
-25.0
 21
-110.0
 31
0.0
  0
LINE
  8
0
  6
CONTINUOUS
 10
-25.0
 20
-160.0
 30
0.0
 11
-25.0
 21
-130.0
 31
0.0
  0
LINE
  8
0
  6
CONTINUOUS
 10
-25.0
 20
-160.0
 30
0.0
 11
-26.0
 21
-161.0
 31
0.0
  0
LINE
  8
0
  6
DASHED
 10
0.0
 20
-135.0
 30
0.0
 11
-25.0
 21
-135.0
 31
0.0
  0
CIRCLE
  8
0
  6
CONTINUOUS
 10
0.0
 20
-12.5
 30
0.0
 40
2.5
  0
CIRCLE
  8
0
  6
CONTINUOUS
 10
0.0
 20
-9.458377
 30
0.0
 40
2.5
  0
LINE
  8
0
  6
DASHED
 10
0.0
 20
0.0
 30
0.0
 11
0.0
 21
-6.958377
 31
0.0
  0
LINE
  8
0
  6
DASHED
 10
0.0
 20
-15.0
 30
0.0
 11
0.0
 21
-135.0
 31
0.0
  0
POLYLINE
  8
0
  6
CONTINUOUS
 66
     1
 10
0.0
 20
0.0
 30
0.0
 70
     1
 40
0.5
 41
0.5
 71
     2
 72
   601
  0
VERTEX
  8
0
  6
CONTINUOUS
 10
-15.5
 20
0.0
 30
0.0
 42
1.0
  0
VERTEX
  8
0
  6
CONTINUOUS
 10
-14.5
 20
0.0
 30
0.0
 42
1.0
  0
SEQEND
  8
0
  6
CONTINUOUS
  0
POLYLINE
  8
0
  6
CONTINUOUS
 66
     1
 10
0.0
 20
0.0
 30
0.0
 70
     1
 40
0.5
 41
0.5
 71
     2
 72
   601
  0
VERTEX
  8
0
  6
CONTINUOUS
 10
-8.0
 20
0.0
 30
0.0
 42
1.0
  0
VERTEX
  8
0
  6
CONTINUOUS
 10
-7.0
 20
0.0
 30
0.0
 42
1.0
  0
SEQEND
  8
0
  6
CONTINUOUS
  0
POLYLINE
  8
0
  6
CONTINUOUS
 66
     1
 10
0.0
 20
0.0
 30
0.0
 70
     1
 40
0.5
 41
0.5
 71
     2
 72
   601
  0
VERTEX
  8
0
  6
CONTINUOUS
 10
-0.5
 20
0.0
 30
0.0
 42
1.0
  0
VERTEX
  8
0
  6
CONTINUOUS
 10
0.5
 20
0.0
 30
0.0
 42
1.0
  0
SEQEND
  8
0
  6
CONTINUOUS
  0
TEXT
  8
0
  6
CONTINUOUS
 10
-35.0
 20
-100.932957
 30
0.0
 40
2.0
  1
6)
  7
GREEKS
  0
TEXT
  8
0
  6
CONTINUOUS
 10
-37.5
 20
-163.938065
 30
0.0
 40
2.0
  1
U31
  7
GREEKS
  0
LINE
  8
0
  6
DASHED
 10
-52.5
 20
-160.0
 30
0.0
 11
-30.0
 21
-160.0
 31
0.0
  0
LINE
  8
0
  6
DASHED
 10
-47.5
 20
-150.0
 30
0.0
 11
-30.0
 21
-150.0
 31
0.0
  0
LINE
  8
0
  6
DASHED
 10
-52.5
 20
-140.0
 30
0.0
 11
-30.0
 21
-140.0
 31
0.0
  0
LINE
  8
0
  6
DASHED
 10
-47.5
 20
-130.0
 30
0.0
 11
-30.0
 21
-130.0
 31
0.0
  0
LINE
  8
0
  6
DASHED
 10
-52.5
 20
-120.0
 30
0.0
 11
-30.0
 21
-120.0
 31
0.0
  0
LINE
  8
0
  6
DASHED
 10
-47.5
 20
-110.0
 30
0.0
 11
-30.0
 21
-110.0
 31
0.0
  0
INSERT
  8
0
  6
CONTINUOUS
  2
B96
 10
-52.5
 20
-99.913461
 30
0.0
  0
LINE
  8
0
  6
DASHED
 10
-52.5
 20
-90.0
 30
0.0
 11
-30.0
 21
-90.0
 31
0.0
  0
LINE
  8
0
  6
CONTINUOUS
 10
-47.5
 20
-65.33813
 30
0.0
 11
-48.5
 21
-66.33813
 31
0.0
  0
LINE
  8
0
  6
DASHED
 10
-52.5
 20
-70.0
 30
0.0
 11
-30.0
 21
-70.0
 31
0.0
  0
LINE
  8
0
  6
DASHED
 10
-47.5
 20
-80.0
 30
0.0
 11
-30.0
 21
-80.0
 31
0.0
  0
LINE
  8
0
  6
DASHED
 10
-47.5
 20
-60.0
 30
0.0
 11
-30.0
 21
-60.0
 31
0.0
  0
LINE
  8
0
  6
DASHED
 10
-52.5
 20
-50.0
 30
0.0
 11
-30.0
 21
-50.0
 31
0.0
  0
LINE
  8
0
  6
DASHED
 10
-30.0
 20
-40.0
 30
0.0
 11
-47.5
 21
-40.0
 31
0.0
  0
LINE
  8
0
  6
DASHED
 10
-52.5
 20
-30.0
 30
0.0
 11
-30.0
 21
-30.0
 31
0.0
  0
LINE
  8
0
  6
DASHED
 10
-30.0
 20
-20.0
 30
0.0
 11
-47.5
 21
-20.0
 31
0.0
  0
LINE
  8
0
  6
DASHED
 10
-52.5
 20
-10.0
 30
0.0
 11
-30.0
 21
-10.0
 31
0.0
  0
LINE
  8
0
  6
DASHED
 10
-30.0
 20
0.0
 30
0.0
 11
-47.5
 21
0.0
 31
0.0
  0
ENDBLK
  8
0
  0
BLOCK
  8
0
  2
B96
 70
    64
 10
0.0
 20
0.0
 30
0.0
  3
B96
  0
LINE
  8
0
  6
CONTINUOUS
 10
1.819436
 20
0.403461
 30
0.0
 11
1.819436
 21
-0.576539
 31
0.0
  0
LINE
  8
0
  6
CONTINUOUS
 10
1.819436
 20
-0.576539
 30
0.0
 11
5.249436
 21
-0.576539
 31
0.0
  0
LINE
  8
0
  6
CONTINUOUS
 10
5.249436
 20
-0.576539
 30
0.0
 11
5.249436
 21
0.403461
 31
0.0
  0
LINE
  8
0
  6
CONTINUOUS
 10
5.249436
 20
0.403461
 30
0.0
 11
1.819436
 21
0.403461
 31
0.0
  0
POLYLINE
  8
0
  6
CONTINUOUS
 66
     1
 10
0.0
 20
0.0
 30
0.0
 70
    16
 71
     2
 72
   251
  0
VERTEX
  8
0
  6
CONTINUOUS
 10
1.819436
 20
-0.576539
 30
0.0
 70
    64
  0
VERTEX
  8
0
  6
CONTINUOUS
 10
1.833156
 20
-0.576539
 30
0.0
 70
    64
  0
VERTEX
  8
0
  6
CONTINUOUS
 10
1.846876
 20
-0.576539
 30
0.0
 70
    64
  0
VERTEX
  8
0
  6
CONTINUOUS
 10
1.860596
 20
-0.576539
 30
0.0
 70
    64
  0
VERTEX
  8
0
  6
CONTINUOUS
 10
1.874316
 20
-0.576539
 30
0.0
 70
    64
  0
VERTEX
  8
0
  6
CONTINUOUS
 10
1.888036
 20
-0.576539
 30
0.0
 70
    64
  0
VERTEX
  8
0
  6
CONTINUOUS
 10
1.901756
 20
-0.576539
 30
0.0
 70
    64
  0
VERTEX
  8
0
  6
CONTINUOUS
 10
1.915476
 20
-0.576539
 30
0.0
 70
    64
  0
VERTEX
  8
0
  6
CONTINUOUS
 10
1.929196
 20
-0.576539
 30
0.0
 70
    64
  0
VERTEX
  8
0
  6
CONTINUOUS
 10
1.942916
 20
-0.576539
 30
0.0
 70
    64
  0
VERTEX
  8
0
  6
CONTINUOUS
 10
1.956636
 20
-0.576539
 30
0.0
 70
    64
  0
VERTEX
  8
0
  6
CONTINUOUS
 10
1.970356
 20
-0.576539
 30
0.0
 70
    64
  0
VERTEX
  8
0
  6
CONTINUOUS
 10
1.984076
 20
-0.576539
 30
0.0
 70
    64
  0
VERTEX
  8
0
  6
CONTINUOUS
 10
1.997796
 20
-0.576539
 30
0.0
 70
    64
  0
VERTEX
  8
0
  6
CONTINUOUS
 10
2.011516
 20
-0.576539
 30
0.0
 70
    64
  0
VERTEX
  8
0
  6
CONTINUOUS
 10
2.025236
 20
-0.576539
 30
0.0
 70
    64
  0
VERTEX
  8
0
  6
CONTINUOUS
 10
2.038956
 20
-0.576539
 30
0.0
 70
    64
  0
VERTEX
  8
0
  6
CONTINUOUS
 10
2.052676
 20
-0.576539
 30
0.0
 70
    64
  0
VERTEX
  8
0
  6
CONTINUOUS
 10
2.066396
 20
-0.576539
 30
0.0
 70
    64
  0
VERTEX
  8
0
  6
CONTINUOUS
 10
2.080116
 20
-0.576539
 30
0.0
 70
    64
  0
VERTEX
  8
0
  6
CONTINUOUS
 10
2.093836
 20
-0.576539
 30
0.0
 70
    64
  0
VERTEX
  8
0
  6
CONTINUOUS
 10
2.107556
 20
-0.576539
 30
0.0
 70
    64
  0
VERTEX
  8
0
  6
CONTINUOUS
 10
2.121276
 20
-0.576539
 30
0.0
 70
    64
  0
VERTEX
  8
0
  6
CONTINUOUS
 10
2.134996
 20
-0.576539
 30
0.0
 70
    64
  0
VERTEX
  8
0
  6
CONTINUOUS
 10
2.148716
 20
-0.576539
 30
0.0
 70
    64
  0
VERTEX
  8
0
  6
CONTINUOUS
 10
2.162436
 20
-0.576539
 30
0.0
 70
    64
  0
VERTEX
  8
0
  6
CONTINUOUS
 10
2.176156
 20
-0.576539
 30
0.0
 70
    64
  0
VERTEX
  8
0
  6
CONTINUOUS
 10
2.189876
 20
-0.576539
 30
0.0
 70
    64
  0
VERTEX
  8
0
  6
CONTINUOUS
 10
2.203596
 20
-0.576539
 30
0.0
 70
    64
  0
VERTEX
  8
0
  6
CONTINUOUS
 10
2.217316
 20
-0.576539
 30
0.0
 70
    64
  0
VERTEX
  8
0
  6
CONTINUOUS
 10
2.231036
 20
-0.576539
 30
0.0
 70
    64
  0
VERTEX
  8
0
  6
CONTINUOUS
 10
2.244756
 20
-0.576539
 30
0.0
 70
    64
  0
VERTEX
  8
0
  6
CONTINUOUS
 10
2.258476
 20
-0.576539
 30
0.0
 70
    64
  0
VERTEX
  8
0
  6
CONTINUOUS
 10
2.272196
 20
-0.576539
 30
0.0
 70
    64
  0
VERTEX
  8
0
  6
CONTINUOUS
 10
2.285916
 20
-0.576539
 30
0.0
 70
    64
  0
VERTEX
  8
0
  6
CONTINUOUS
 10
2.299636
 20
-0.576539
 30
0.0
 70
    64
  0
VERTEX
  8
0
  6
CONTINUOUS
 10
2.313356
 20
-0.576539
 30
0.0
 70
    64
  0
VERTEX
  8
0
  6
CONTINUOUS
 10
2.327076
 20
-0.576539
 30
0.0
 70
    64
  0
VERTEX
  8
0
  6
CONTINUOUS
 10
2.340796
 20
-0.576539
 30
0.0
 70
    64
  0
VERTEX
  8
0
  6
CONTINUOUS
 10
2.354516
 20
-0.576539
 30
0.0
 70
    64
  0
VERTEX
  8
0
  6
CONTINUOUS
 10
2.368236
 20
-0.576539
 30
0.0
 70
    64
  0
VERTEX
  8
0
  6
CONTINUOUS
 10
2.381956
 20
-0.576539
 30
0.0
 70
    64
  0
VERTEX
  8
0
  6
CONTINUOUS
 10
2.395676
 20
-0.576539
 30
0.0
 70
    64
  0
VERTEX
  8
0
  6
CONTINUOUS
 10
2.409396
 20
-0.576539
 30
0.0
 70
    64
  0
VERTEX
  8
0
  6
CONTINUOUS
 10
2.423116
 20
-0.576539
 30
0.0
 70
    64
  0
VERTEX
  8
0
  6
CONTINUOUS
 10
2.436836
 20
-0.576539
 30
0.0
 70
    64
  0
VERTEX
  8
0
  6
CONTINUOUS
 10
2.450556
 20
-0.576539
 30
0.0
 70
    64
  0
VERTEX
  8
0
  6
CONTINUOUS
 10
2.464276
 20
-0.576539
 30
0.0
 70
    64
  0
VERTEX
  8
0
  6
CONTINUOUS
 10
2.477996
 20
-0.576539
 30
0.0
 70
    64
  0
VERTEX
  8
0
  6
CONTINUOUS
 10
2.491716
 20
-0.576539
 30
0.0
 70
    64
  0
VERTEX
  8
0
  6
CONTINUOUS
 10
2.505436
 20
-0.576539
 30
0.0
 70
    64
  0
VERTEX
  8
0
  6
CONTINUOUS
 10
2.519156
 20
-0.576539
 30
0.0
 70
    64
  0
VERTEX
  8
0
  6
CONTINUOUS
 10
2.532876
 20
-0.576539
 30
0.0
 70
    64
  0
VERTEX
  8
0
  6
CONTINUOUS
 10
2.546596
 20
-0.576539
 30
0.0
 70
    64
  0
VERTEX
  8
0
  6
CONTINUOUS
 10
2.560316
 20
-0.576539
 30
0.0
 70
    64
  0
VERTEX
  8
0
  6
CONTINUOUS
 10
2.574036
 20
-0.576539
 30
0.0
 70
    64
  0
VERTEX
  8
0
  6
CONTINUOUS
 10
2.587756
 20
-0.576539
 30
0.0
 70
    64
  0
VERTEX
  8
0
  6
CONTINUOUS
 10
2.601476
 20
-0.576539
 30
0.0
 70
    64
  0
VERTEX
  8
0
  6
CONTINUOUS
 10
2.615196
 20
-0.576539
 30
0.0
 70
    64
  0
VERTEX
  8
0
  6
CONTINUOUS
 10
2.628916
 20
-0.576539
 30
0.0
 70
    64
  0
VERTEX
  8
0
  6
CONTINUOUS
 10
2.642636
 20
-0.576539
 30
0.0
 70
    64
  0
VERTEX
  8
0
  6
CONTINUOUS
 10
2.656356
 20
-0.576539
 30
0.0
 70
    64
  0
VERTEX
  8
0
  6
CONTINUOUS
 10
2.670076
 20
-0.576539
 30
0.0
 70
    64
  0
VERTEX
  8
0
  6
CONTINUOUS
 10
2.683796
 20
-0.576539
 30
0.0
 70
    64
  0
VERTEX
  8
0
  6
CONTINUOUS
 10
2.697516
 20
-0.576539
 30
0.0
 70
    64
  0
VERTEX
  8
0
  6
CONTINUOUS
 10
2.711236
 20
-0.576539
 30
0.0
 70
    64
  0
VERTEX
  8
0
  6
CONTINUOUS
 10
2.724956
 20
-0.576539
 30
0.0
 70
    64
  0
VERTEX
  8
0
  6
CONTINUOUS
 10
2.738676
 20
-0.576539
 30
0.0
 70
    64
  0
VERTEX
  8
0
  6
CONTINUOUS
 10
2.752396
 20
-0.576539
 30
0.0
 70
    64
  0
VERTEX
  8
0
  6
CONTINUOUS
 10
2.766116
 20
-0.576539
 30
0.0
 70
    64
  0
VERTEX
  8
0
  6
CONTINUOUS
 10
2.779836
 20
-0.576539
 30
0.0
 70
    64
  0
VERTEX
  8
0
  6
CONTINUOUS
 10
2.793556
 20
-0.576539
 30
0.0
 70
    64
  0
VERTEX
  8
0
  6
CONTINUOUS
 10
2.807276
 20
-0.576539
 30
0.0
 70
    64
  0
VERTEX
  8
0
  6
CONTINUOUS
 10
2.820996
 20
-0.576539
 30
0.0
 70
    64
  0
VERTEX
  8
0
  6
CONTINUOUS
 10
2.834716
 20
-0.576539
 30
0.0
 70
    64
  0
VERTEX
  8
0
  6
CONTINUOUS
 10
2.848436
 20
-0.576539
 30
0.0
 70
    64
  0
VERTEX
  8
0
  6
CONTINUOUS
 10
2.862156
 20
-0.576539
 30
0.0
 70
    64
  0
VERTEX
  8
0
  6
CONTINUOUS
 10
2.875876
 20
-0.576539
 30
0.0
 70
    64
  0
VERTEX
  8
0
  6
CONTINUOUS
 10
2.889596
 20
-0.576539
 30
0.0
 70
    64
  0
VERTEX
  8
0
  6
CONTINUOUS
 10
2.903316
 20
-0.576539
 30
0.0
 70
    64
  0
VERTEX
  8
0
  6
CONTINUOUS
 10
2.917036
 20
-0.576539
 30
0.0
 70
    64
  0
VERTEX
  8
0
  6
CONTINUOUS
 10
2.930756
 20
-0.576539
 30
0.0
 70
    64
  0
VERTEX
  8
0
  6
CONTINUOUS
 10
2.944476
 20
-0.576539
 30
0.0
 70
    64
  0
VERTEX
  8
0
  6
CONTINUOUS
 10
2.958196
 20
-0.576539
 30
0.0
 70
    64
  0
VERTEX
  8
0
  6
CONTINUOUS
 10
2.971916
 20
-0.576539
 30
0.0
 70
    64
  0
VERTEX
  8
0
  6
CONTINUOUS
 10
2.985636
 20
-0.576539
 30
0.0
 70
    64
  0
VERTEX
  8
0
  6
CONTINUOUS
 10
2.999356
 20
-0.576539
 30
0.0
 70
    64
  0
VERTEX
  8
0
  6
CONTINUOUS
 10
3.013076
 20
-0.576539
 30
0.0
 70
    64
  0
VERTEX
  8
0
  6
CONTINUOUS
 10
3.026796
 20
-0.576539
 30
0.0
 70
    64
  0
VERTEX
  8
0
  6
CONTINUOUS
 10
3.040516
 20
-0.576539
 30
0.0
 70
    64
  0
VERTEX
  8
0
  6
CONTINUOUS
 10
3.054236
 20
-0.576539
 30
0.0
 70
    64
  0
VERTEX
  8
0
  6
CONTINUOUS
 10
3.067956
 20
-0.576539
 30
0.0
 70
    64
  0
VERTEX
  8
0
  6
CONTINUOUS
 10
3.081676
 20
-0.576539
 30
0.0
 70
    64
  0
VERTEX
  8
0
  6
CONTINUOUS
 10
3.095396
 20
-0.576539
 30
0.0
 70
    64
  0
VERTEX
  8
0
  6
CONTINUOUS
 10
3.109116
 20
-0.576539
 30
0.0
 70
    64
  0
VERTEX
  8
0
  6
CONTINUOUS
 10
3.122836
 20
-0.576539
 30
0.0
 70
    64
  0
VERTEX
  8
0
  6
CONTINUOUS
 10
3.136556
 20
-0.576539
 30
0.0
 70
    64
  0
VERTEX
  8
0
  6
CONTINUOUS
 10
3.150276
 20
-0.576539
 30
0.0
 70
    64
  0
VERTEX
  8
0
  6
CONTINUOUS
 10
3.163996
 20
-0.576539
 30
0.0
 70
    64
  0
VERTEX
  8
0
  6
CONTINUOUS
 10
3.177716
 20
-0.576539
 30
0.0
 70
    64
  0
VERTEX
  8
0
  6
CONTINUOUS
 10
3.191436
 20
-0.576539
 30
0.0
 70
    64
  0
VERTEX
  8
0
  6
CONTINUOUS
 10
3.205156
 20
-0.576539
 30
0.0
 70
    64
  0
VERTEX
  8
0
  6
CONTINUOUS
 10
3.218876
 20
-0.576539
 30
0.0
 70
    64
  0
VERTEX
  8
0
  6
CONTINUOUS
 10
3.232596
 20
-0.576539
 30
0.0
 70
    64
  0
VERTEX
  8
0
  6
CONTINUOUS
 10
3.246316
 20
-0.576539
 30
0.0
 70
    64
  0
VERTEX
  8
0
  6
CONTINUOUS
 10
3.260036
 20
-0.576539
 30
0.0
 70
    64
  0
VERTEX
  8
0
  6
CONTINUOUS
 10
3.273756
 20
-0.576539
 30
0.0
 70
    64
  0
VERTEX
  8
0
  6
CONTINUOUS
 10
3.287476
 20
-0.576539
 30
0.0
 70
    64
  0
VERTEX
  8
0
  6
CONTINUOUS
 10
3.301196
 20
-0.576539
 30
0.0
 70
    64
  0
VERTEX
  8
0
  6
CONTINUOUS
 10
3.314916
 20
-0.576539
 30
0.0
 70
    64
  0
VERTEX
  8
0
  6
CONTINUOUS
 10
3.328636
 20
-0.576539
 30
0.0
 70
    64
  0
VERTEX
  8
0
  6
CONTINUOUS
 10
3.342356
 20
-0.576539
 30
0.0
 70
    64
  0
VERTEX
  8
0
  6
CONTINUOUS
 10
3.356076
 20
-0.576539
 30
0.0
 70
    64
  0
VERTEX
  8
0
  6
CONTINUOUS
 10
3.369796
 20
-0.576539
 30
0.0
 70
    64
  0
VERTEX
  8
0
  6
CONTINUOUS
 10
3.383516
 20
-0.576539
 30
0.0
 70
    64
  0
VERTEX
  8
0
  6
CONTINUOUS
 10
3.397236
 20
-0.576539
 30
0.0
 70
    64
  0
VERTEX
  8
0
  6
CONTINUOUS
 10
3.410956
 20
-0.576539
 30
0.0
 70
    64
  0
VERTEX
  8
0
  6
CONTINUOUS
 10
3.424676
 20
-0.576539
 30
0.0
 70
    64
  0
VERTEX
  8
0
  6
CONTINUOUS
 10
3.438396
 20
-0.576539
 30
0.0
 70
    64
  0
VERTEX
  8
0
  6
CONTINUOUS
 10
3.452116
 20
-0.576539
 30
0.0
 70
    64
  0
VERTEX
  8
0
  6
CONTINUOUS
 10
3.465836
 20
-0.576539
 30
0.0
 70
    64
  0
VERTEX
  8
0
  6
CONTINUOUS
 10
3.479556
 20
-0.576539
 30
0.0
 70
    64
  0
VERTEX
  8
0
  6
CONTINUOUS
 10
3.493276
 20
-0.576539
 30
0.0
 70
    64
  0
VERTEX
  8
0
  6
CONTINUOUS
 10
3.506996
 20
-0.576539
 30
0.0
 70
    64
  0
VERTEX
  8
0
  6
CONTINUOUS
 10
3.520716
 20
-0.576539
 30
0.0
 70
    64
  0
VERTEX
  8
0
  6
CONTINUOUS
 10
3.534436
 20
-0.576539
 30
0.0
 70
    64
  0
VERTEX
  8
0
  6
CONTINUOUS
 10
3.548156
 20
-0.576539
 30
0.0
 70
    64
  0
VERTEX
  8
0
  6
CONTINUOUS
 10
3.561876
 20
-0.576539
 30
0.0
 70
    64
  0
VERTEX
  8
0
  6
CONTINUOUS
 10
3.575596
 20
-0.576539
 30
0.0
 70
    64
  0
VERTEX
  8
0
  6
CONTINUOUS
 10
3.589316
 20
-0.576539
 30
0.0
 70
    64
  0
VERTEX
  8
0
  6
CONTINUOUS
 10
3.603036
 20
-0.576539
 30
0.0
 70
    64
  0
VERTEX
  8
0
  6
CONTINUOUS
 10
3.616756
 20
-0.576539
 30
0.0
 70
    64
  0
VERTEX
  8
0
  6
CONTINUOUS
 10
3.630476
 20
-0.576539
 30
0.0
 70
    64
  0
VERTEX
  8
0
  6
CONTINUOUS
 10
3.644196
 20
-0.576539
 30
0.0
 70
    64
  0
VERTEX
  8
0
  6
CONTINUOUS
 10
3.657916
 20
-0.576539
 30
0.0
 70
    64
  0
VERTEX
  8
0
  6
CONTINUOUS
 10
3.671636
 20
-0.576539
 30
0.0
 70
    64
  0
VERTEX
  8
0
  6
CONTINUOUS
 10
3.685356
 20
-0.576539
 30
0.0
 70
    64
  0
VERTEX
  8
0
  6
CONTINUOUS
 10
3.699076
 20
-0.576539
 30
0.0
 70
    64
  0
VERTEX
  8
0
  6
CONTINUOUS
 10
3.712796
 20
-0.576539
 30
0.0
 70
    64
  0
VERTEX
  8
0
  6
CONTINUOUS
 10
3.726516
 20
-0.576539
 30
0.0
 70
    64
  0
VERTEX
  8
0
  6
CONTINUOUS
 10
3.740236
 20
-0.576539
 30
0.0
 70
    64
  0
VERTEX
  8
0
  6
CONTINUOUS
 10
3.753956
 20
-0.576539
 30
0.0
 70
    64
  0
VERTEX
  8
0
  6
CONTINUOUS
 10
3.767676
 20
-0.576539
 30
0.0
 70
    64
  0
VERTEX
  8
0
  6
CONTINUOUS
 10
3.781396
 20
-0.576539
 30
0.0
 70
    64
  0
VERTEX
  8
0
  6
CONTINUOUS
 10
3.795116
 20
-0.576539
 30
0.0
 70
    64
  0
VERTEX
  8
0
  6
CONTINUOUS
 10
3.808836
 20
-0.576539
 30
0.0
 70
    64
  0
VERTEX
  8
0
  6
CONTINUOUS
 10
3.822556
 20
-0.576539
 30
0.0
 70
    64
  0
VERTEX
  8
0
  6
CONTINUOUS
 10
3.836276
 20
-0.576539
 30
0.0
 70
    64
  0
VERTEX
  8
0
  6
CONTINUOUS
 10
3.849996
 20
-0.576539
 30
0.0
 70
    64
  0
VERTEX
  8
0
  6
CONTINUOUS
 10
3.863716
 20
-0.576539
 30
0.0
 70
    64
  0
VERTEX
  8
0
  6
CONTINUOUS
 10
3.877436
 20
-0.576539
 30
0.0
 70
    64
  0
VERTEX
  8
0
  6
CONTINUOUS
 10
3.891156
 20
-0.576539
 30
0.0
 70
    64
  0
VERTEX
  8
0
  6
CONTINUOUS
 10
3.904876
 20
-0.576539
 30
0.0
 70
    64
  0
VERTEX
  8
0
  6
CONTINUOUS
 10
3.918596
 20
-0.576539
 30
0.0
 70
    64
  0
VERTEX
  8
0
  6
CONTINUOUS
 10
3.932316
 20
-0.576539
 30
0.0
 70
    64
  0
VERTEX
  8
0
  6
CONTINUOUS
 10
3.946036
 20
-0.576539
 30
0.0
 70
    64
  0
VERTEX
  8
0
  6
CONTINUOUS
 10
3.959756
 20
-0.576539
 30
0.0
 70
    64
  0
VERTEX
  8
0
  6
CONTINUOUS
 10
3.973476
 20
-0.576539
 30
0.0
 70
    64
  0
VERTEX
  8
0
  6
CONTINUOUS
 10
3.987196
 20
-0.576539
 30
0.0
 70
    64
  0
VERTEX
  8
0
  6
CONTINUOUS
 10
4.000916
 20
-0.576539
 30
0.0
 70
    64
  0
VERTEX
  8
0
  6
CONTINUOUS
 10
4.014636
 20
-0.576539
 30
0.0
 70
    64
  0
VERTEX
  8
0
  6
CONTINUOUS
 10
4.028356
 20
-0.576539
 30
0.0
 70
    64
  0
VERTEX
  8
0
  6
CONTINUOUS
 10
4.042076
 20
-0.576539
 30
0.0
 70
    64
  0
VERTEX
  8
0
  6
CONTINUOUS
 10
4.055796
 20
-0.576539
 30
0.0
 70
    64
  0
VERTEX
  8
0
  6
CONTINUOUS
 10
4.069516
 20
-0.576539
 30
0.0
 70
    64
  0
VERTEX
  8
0
  6
CONTINUOUS
 10
4.083236
 20
-0.576539
 30
0.0
 70
    64
  0
VERTEX
  8
0
  6
CONTINUOUS
 10
4.096956
 20
-0.576539
 30
0.0
 70
    64
  0
VERTEX
  8
0
  6
CONTINUOUS
 10
4.110676
 20
-0.576539
 30
0.0
 70
    64
  0
VERTEX
  8
0
  6
CONTINUOUS
 10
4.124396
 20
-0.576539
 30
0.0
 70
    64
  0
VERTEX
  8
0
  6
CONTINUOUS
 10
4.138116
 20
-0.576539
 30
0.0
 70
    64
  0
VERTEX
  8
0
  6
CONTINUOUS
 10
4.151836
 20
-0.576539
 30
0.0
 70
    64
  0
VERTEX
  8
0
  6
CONTINUOUS
 10
4.165556
 20
-0.576539
 30
0.0
 70
    64
  0
VERTEX
  8
0
  6
CONTINUOUS
 10
4.179276
 20
-0.576539
 30
0.0
 70
    64
  0
VERTEX
  8
0
  6
CONTINUOUS
 10
4.192996
 20
-0.576539
 30
0.0
 70
    64
  0
VERTEX
  8
0
  6
CONTINUOUS
 10
4.206716
 20
-0.576539
 30
0.0
 70
    64
  0
VERTEX
  8
0
  6
CONTINUOUS
 10
4.220436
 20
-0.576539
 30
0.0
 70
    64
  0
VERTEX
  8
0
  6
CONTINUOUS
 10
4.234156
 20
-0.576539
 30
0.0
 70
    64
  0
VERTEX
  8
0
  6
CONTINUOUS
 10
4.247876
 20
-0.576539
 30
0.0
 70
    64
  0
VERTEX
  8
0
  6
CONTINUOUS
 10
4.261596
 20
-0.576539
 30
0.0
 70
    64
  0
VERTEX
  8
0
  6
CONTINUOUS
 10
4.275316
 20
-0.576539
 30
0.0
 70
    64
  0
VERTEX
  8
0
  6
CONTINUOUS
 10
4.289036
 20
-0.576539
 30
0.0
 70
    64
  0
VERTEX
  8
0
  6
CONTINUOUS
 10
4.302756
 20
-0.576539
 30
0.0
 70
    64
  0
VERTEX
  8
0
  6
CONTINUOUS
 10
4.316476
 20
-0.576539
 30
0.0
 70
    64
  0
VERTEX
  8
0
  6
CONTINUOUS
 10
4.330196
 20
-0.576539
 30
0.0
 70
    64
  0
VERTEX
  8
0
  6
CONTINUOUS
 10
4.343916
 20
-0.576539
 30
0.0
 70
    64
  0
VERTEX
  8
0
  6
CONTINUOUS
 10
4.357636
 20
-0.576539
 30
0.0
 70
    64
  0
VERTEX
  8
0
  6
CONTINUOUS
 10
4.371356
 20
-0.576539
 30
0.0
 70
    64
  0
VERTEX
  8
0
  6
CONTINUOUS
 10
4.385076
 20
-0.576539
 30
0.0
 70
    64
  0
VERTEX
  8
0
  6
CONTINUOUS
 10
4.398796
 20
-0.576539
 30
0.0
 70
    64
  0
VERTEX
  8
0
  6
CONTINUOUS
 10
4.412516
 20
-0.576539
 30
0.0
 70
    64
  0
VERTEX
  8
0
  6
CONTINUOUS
 10
4.426236
 20
-0.576539
 30
0.0
 70
    64
  0
VERTEX
  8
0
  6
CONTINUOUS
 10
4.439956
 20
-0.576539
 30
0.0
 70
    64
  0
VERTEX
  8
0
  6
CONTINUOUS
 10
4.453676
 20
-0.576539
 30
0.0
 70
    64
  0
VERTEX
  8
0
  6
CONTINUOUS
 10
4.467396
 20
-0.576539
 30
0.0
 70
    64
  0
VERTEX
  8
0
  6
CONTINUOUS
 10
4.481116
 20
-0.576539
 30
0.0
 70
    64
  0
VERTEX
  8
0
  6
CONTINUOUS
 10
4.494836
 20
-0.576539
 30
0.0
 70
    64
  0
VERTEX
  8
0
  6
CONTINUOUS
 10
4.508556
 20
-0.576539
 30
0.0
 70
    64
  0
VERTEX
  8
0
  6
CONTINUOUS
 10
4.522276
 20
-0.576539
 30
0.0
 70
    64
  0
VERTEX
  8
0
  6
CONTINUOUS
 10
4.535996
 20
-0.576539
 30
0.0
 70
    64
  0
VERTEX
  8
0
  6
CONTINUOUS
 10
4.549716
 20
-0.576539
 30
0.0
 70
    64
  0
VERTEX
  8
0
  6
CONTINUOUS
 10
4.563436
 20
-0.576539
 30
0.0
 70
    64
  0
VERTEX
  8
0
  6
CONTINUOUS
 10
4.577156
 20
-0.576539
 30
0.0
 70
    64
  0
VERTEX
  8
0
  6
CONTINUOUS
 10
4.590876
 20
-0.576539
 30
0.0
 70
    64
  0
VERTEX
  8
0
  6
CONTINUOUS
 10
4.604596
 20
-0.576539
 30
0.0
 70
    64
  0
VERTEX
  8
0
  6
CONTINUOUS
 10
4.618316
 20
-0.576539
 30
0.0
 70
    64
  0
VERTEX
  8
0
  6
CONTINUOUS
 10
4.632036
 20
-0.576539
 30
0.0
 70
    64
  0
VERTEX
  8
0
  6
CONTINUOUS
 10
4.645756
 20
-0.576539
 30
0.0
 70
    64
  0
VERTEX
  8
0
  6
CONTINUOUS
 10
4.659476
 20
-0.576539
 30
0.0
 70
    64
  0
VERTEX
  8
0
  6
CONTINUOUS
 10
4.673196
 20
-0.576539
 30
0.0
 70
    64
  0
VERTEX
  8
0
  6
CONTINUOUS
 10
4.686916
 20
-0.576539
 30
0.0
 70
    64
  0
VERTEX
  8
0
  6
CONTINUOUS
 10
4.700636
 20
-0.576539
 30
0.0
 70
    64
  0
VERTEX
  8
0
  6
CONTINUOUS
 10
4.714356
 20
-0.576539
 30
0.0
 70
    64
  0
VERTEX
  8
0
  6
CONTINUOUS
 10
4.728076
 20
-0.576539
 30
0.0
 70
    64
  0
VERTEX
  8
0
  6
CONTINUOUS
 10
4.741796
 20
-0.576539
 30
0.0
 70
    64
  0
VERTEX
  8
0
  6
CONTINUOUS
 10
4.755516
 20
-0.576539
 30
0.0
 70
    64
  0
VERTEX
  8
0
  6
CONTINUOUS
 10
4.769236
 20
-0.576539
 30
0.0
 70
    64
  0
VERTEX
  8
0
  6
CONTINUOUS
 10
4.782956
 20
-0.576539
 30
0.0
 70
    64
  0
VERTEX
  8
0
  6
CONTINUOUS
 10
4.796676
 20
-0.576539
 30
0.0
 70
    64
  0
VERTEX
  8
0
  6
CONTINUOUS
 10
4.810396
 20
-0.576539
 30
0.0
 70
    64
  0
VERTEX
  8
0
  6
CONTINUOUS
 10
4.824116
 20
-0.576539
 30
0.0
 70
    64
  0
VERTEX
  8
0
  6
CONTINUOUS
 10
4.837836
 20
-0.576539
 30
0.0
 70
    64
  0
VERTEX
  8
0
  6
CONTINUOUS
 10
4.851556
 20
-0.576539
 30
0.0
 70
    64
  0
VERTEX
  8
0
  6
CONTINUOUS
 10
4.865276
 20
-0.576539
 30
0.0
 70
    64
  0
VERTEX
  8
0
  6
CONTINUOUS
 10
4.878996
 20
-0.576539
 30
0.0
 70
    64
  0
VERTEX
  8
0
  6
CONTINUOUS
 10
4.892716
 20
-0.576539
 30
0.0
 70
    64
  0
VERTEX
  8
0
  6
CONTINUOUS
 10
4.906436
 20
-0.576539
 30
0.0
 70
    64
  0
VERTEX
  8
0
  6
CONTINUOUS
 10
4.920156
 20
-0.576539
 30
0.0
 70
    64
  0
VERTEX
  8
0
  6
CONTINUOUS
 10
4.933876
 20
-0.576539
 30
0.0
 70
    64
  0
VERTEX
  8
0
  6
CONTINUOUS
 10
4.947596
 20
-0.576539
 30
0.0
 70
    64
  0
VERTEX
  8
0
  6
CONTINUOUS
 10
4.961316
 20
-0.576539
 30
0.0
 70
    64
  0
VERTEX
  8
0
  6
CONTINUOUS
 10
4.975036
 20
-0.576539
 30
0.0
 70
    64
  0
VERTEX
  8
0
  6
CONTINUOUS
 10
4.988756
 20
-0.576539
 30
0.0
 70
    64
  0
VERTEX
  8
0
  6
CONTINUOUS
 10
5.002476
 20
-0.576539
 30
0.0
 70
    64
  0
VERTEX
  8
0
  6
CONTINUOUS
 10
5.016196
 20
-0.576539
 30
0.0
 70
    64
  0
VERTEX
  8
0
  6
CONTINUOUS
 10
5.029916
 20
-0.576539
 30
0.0
 70
    64
  0
VERTEX
  8
0
  6
CONTINUOUS
 10
5.043636
 20
-0.576539
 30
0.0
 70
    64
  0
VERTEX
  8
0
  6
CONTINUOUS
 10
5.057356
 20
-0.576539
 30
0.0
 70
    64
  0
VERTEX
  8
0
  6
CONTINUOUS
 10
5.071076
 20
-0.576539
 30
0.0
 70
    64
  0
VERTEX
  8
0
  6
CONTINUOUS
 10
5.084796
 20
-0.576539
 30
0.0
 70
    64
  0
VERTEX
  8
0
  6
CONTINUOUS
 10
5.098516
 20
-0.576539
 30
0.0
 70
    64
  0
VERTEX
  8
0
  6
CONTINUOUS
 10
5.112236
 20
-0.576539
 30
0.0
 70
    64
  0
VERTEX
  8
0
  6
CONTINUOUS
 10
5.125956
 20
-0.576539
 30
0.0
 70
    64
  0
VERTEX
  8
0
  6
CONTINUOUS
 10
5.139676
 20
-0.576539
 30
0.0
 70
    64
  0
VERTEX
  8
0
  6
CONTINUOUS
 10
5.153396
 20
-0.576539
 30
0.0
 70
    64
  0
VERTEX
  8
0
  6
CONTINUOUS
 10
5.167116
 20
-0.576539
 30
0.0
 70
    64
  0
VERTEX
  8
0
  6
CONTINUOUS
 10
5.180836
 20
-0.576539
 30
0.0
 70
    64
  0
VERTEX
  8
0
  6
CONTINUOUS
 10
5.194556
 20
-0.576539
 30
0.0
 70
    64
  0
VERTEX
  8
0
  6
CONTINUOUS
 10
5.208276
 20
-0.576539
 30
0.0
 70
    64
  0
VERTEX
  8
0
  6
CONTINUOUS
 10
5.221996
 20
-0.576539
 30
0.0
 70
    64
  0
VERTEX
  8
0
  6
CONTINUOUS
 10
5.235716
 20
-0.576539
 30
0.0
 70
    64
  0
VERTEX
  8
0
  6
CONTINUOUS
 10
5.249436
 20
-0.576539
 30
0.0
 70
    64
  0
VERTEX
  8
0
  6
CONTINUOUS
 10
1.819436
 20
0.403461
 30
0.0
 70
    64
  0
VERTEX
  8
0
  6
CONTINUOUS
 10
1.833156
 20
0.403461
 30
0.0
 70
    64
  0
VERTEX
  8
0
  6
CONTINUOUS
 10
1.846876
 20
0.403461
 30
0.0
 70
    64
  0
VERTEX
  8
0
  6
CONTINUOUS
 10
1.860596
 20
0.403461
 30
0.0
 70
    64
  0
VERTEX
  8
0
  6
CONTINUOUS
 10
1.874316
 20
0.403461
 30
0.0
 70
    64
  0
VERTEX
  8
0
  6
CONTINUOUS
 10
1.888036
 20
0.403461
 30
0.0
 70
    64
  0
VERTEX
  8
0
  6
CONTINUOUS
 10
1.901756
 20
0.403461
 30
0.0
 70
    64
  0
VERTEX
  8
0
  6
CONTINUOUS
 10
1.915476
 20
0.403461
 30
0.0
 70
    64
  0
VERTEX
  8
0
  6
CONTINUOUS
 10
1.929196
 20
0.403461
 30
0.0
 70
    64
  0
VERTEX
  8
0
  6
CONTINUOUS
 10
1.942916
 20
0.403461
 30
0.0
 70
    64
  0
VERTEX
  8
0
  6
CONTINUOUS
 10
1.956636
 20
0.403461
 30
0.0
 70
    64
  0
VERTEX
  8
0
  6
CONTINUOUS
 10
1.970356
 20
0.403461
 30
0.0
 70
    64
  0
VERTEX
  8
0
  6
CONTINUOUS
 10
1.984076
 20
0.403461
 30
0.0
 70
    64
  0
VERTEX
  8
0
  6
CONTINUOUS
 10
1.997796
 20
0.403461
 30
0.0
 70
    64
  0
VERTEX
  8
0
  6
CONTINUOUS
 10
2.011516
 20
0.403461
 30
0.0
 70
    64
  0
VERTEX
  8
0
  6
CONTINUOUS
 10
2.025236
 20
0.403461
 30
0.0
 70
    64
  0
VERTEX
  8
0
  6
CONTINUOUS
 10
2.038956
 20
0.403461
 30
0.0
 70
    64
  0
VERTEX
  8
0
  6
CONTINUOUS
 10
2.052676
 20
0.403461
 30
0.0
 70
    64
  0
VERTEX
  8
0
  6
CONTINUOUS
 10
2.066396
 20
0.403461
 30
0.0
 70
    64
  0
VERTEX
  8
0
  6
CONTINUOUS
 10
2.080116
 20
0.403461
 30
0.0
 70
    64
  0
VERTEX
  8
0
  6
CONTINUOUS
 10
2.093836
 20
0.403461
 30
0.0
 70
    64
  0
VERTEX
  8
0
  6
CONTINUOUS
 10
2.107556
 20
0.403461
 30
0.0
 70
    64
  0
VERTEX
  8
0
  6
CONTINUOUS
 10
2.121276
 20
0.403461
 30
0.0
 70
    64
  0
VERTEX
  8
0
  6
CONTINUOUS
 10
2.134996
 20
0.403461
 30
0.0
 70
    64
  0
VERTEX
  8
0
  6
CONTINUOUS
 10
2.148716
 20
0.403461
 30
0.0
 70
    64
  0
VERTEX
  8
0
  6
CONTINUOUS
 10
2.162436
 20
0.403461
 30
0.0
 70
    64
  0
VERTEX
  8
0
  6
CONTINUOUS
 10
2.176156
 20
0.403461
 30
0.0
 70
    64
  0
VERTEX
  8
0
  6
CONTINUOUS
 10
2.189876
 20
0.403461
 30
0.0
 70
    64
  0
VERTEX
  8
0
  6
CONTINUOUS
 10
2.203596
 20
0.403461
 30
0.0
 70
    64
  0
VERTEX
  8
0
  6
CONTINUOUS
 10
2.217316
 20
0.403461
 30
0.0
 70
    64
  0
VERTEX
  8
0
  6
CONTINUOUS
 10
2.231036
 20
0.403461
 30
0.0
 70
    64
  0
VERTEX
  8
0
  6
CONTINUOUS
 10
2.244756
 20
0.403461
 30
0.0
 70
    64
  0
VERTEX
  8
0
  6
CONTINUOUS
 10
2.258476
 20
0.403461
 30
0.0
 70
    64
  0
VERTEX
  8
0
  6
CONTINUOUS
 10
2.272196
 20
0.403461
 30
0.0
 70
    64
  0
VERTEX
  8
0
  6
CONTINUOUS
 10
2.285916
 20
0.403461
 30
0.0
 70
    64
  0
VERTEX
  8
0
  6
CONTINUOUS
 10
2.299636
 20
0.403461
 30
0.0
 70
    64
  0
VERTEX
  8
0
  6
CONTINUOUS
 10
2.313356
 20
0.403461
 30
0.0
 70
    64
  0
VERTEX
  8
0
  6
CONTINUOUS
 10
2.327076
 20
0.403461
 30
0.0
 70
    64
  0
VERTEX
  8
0
  6
CONTINUOUS
 10
2.340796
 20
0.403461
 30
0.0
 70
    64
  0
VERTEX
  8
0
  6
CONTINUOUS
 10
2.354516
 20
0.403461
 30
0.0
 70
    64
  0
VERTEX
  8
0
  6
CONTINUOUS
 10
2.368236
 20
0.403461
 30
0.0
 70
    64
  0
VERTEX
  8
0
  6
CONTINUOUS
 10
2.381956
 20
0.403461
 30
0.0
 70
    64
  0
VERTEX
  8
0
  6
CONTINUOUS
 10
2.395676
 20
0.403461
 30
0.0
 70
    64
  0
VERTEX
  8
0
  6
CONTINUOUS
 10
2.409396
 20
0.403461
 30
0.0
 70
    64
  0
VERTEX
  8
0
  6
CONTINUOUS
 10
2.423116
 20
0.403461
 30
0.0
 70
    64
  0
VERTEX
  8
0
  6
CONTINUOUS
 10
2.436836
 20
0.403461
 30
0.0
 70
    64
  0
VERTEX
  8
0
  6
CONTINUOUS
 10
2.450556
 20
0.403461
 30
0.0
 70
    64
  0
VERTEX
  8
0
  6
CONTINUOUS
 10
2.464276
 20
0.403461
 30
0.0
 70
    64
  0
VERTEX
  8
0
  6
CONTINUOUS
 10
2.477996
 20
0.403461
 30
0.0
 70
    64
  0
VERTEX
  8
0
  6
CONTINUOUS
 10
2.491716
 20
0.403461
 30
0.0
 70
    64
  0
VERTEX
  8
0
  6
CONTINUOUS
 10
2.505436
 20
0.403461
 30
0.0
 70
    64
  0
VERTEX
  8
0
  6
CONTINUOUS
 10
2.519156
 20
0.403461
 30
0.0
 70
    64
  0
VERTEX
  8
0
  6
CONTINUOUS
 10
2.532876
 20
0.403461
 30
0.0
 70
    64
  0
VERTEX
  8
0
  6
CONTINUOUS
 10
2.546596
 20
0.403461
 30
0.0
 70
    64
  0
VERTEX
  8
0
  6
CONTINUOUS
 10
2.560316
 20
0.403461
 30
0.0
 70
    64
  0
VERTEX
  8
0
  6
CONTINUOUS
 10
2.574036
 20
0.403461
 30
0.0
 70
    64
  0
VERTEX
  8
0
  6
CONTINUOUS
 10
2.587756
 20
0.403461
 30
0.0
 70
    64
  0
VERTEX
  8
0
  6
CONTINUOUS
 10
2.601476
 20
0.403461
 30
0.0
 70
    64
  0
VERTEX
  8
0
  6
CONTINUOUS
 10
2.615196
 20
0.403461
 30
0.0
 70
    64
  0
VERTEX
  8
0
  6
CONTINUOUS
 10
2.628916
 20
0.403461
 30
0.0
 70
    64
  0
VERTEX
  8
0
  6
CONTINUOUS
 10
2.642636
 20
0.403461
 30
0.0
 70
    64
  0
VERTEX
  8
0
  6
CONTINUOUS
 10
2.656356
 20
0.403461
 30
0.0
 70
    64
  0
VERTEX
  8
0
  6
CONTINUOUS
 10
2.670076
 20
0.403461
 30
0.0
 70
    64
  0
VERTEX
  8
0
  6
CONTINUOUS
 10
2.683796
 20
0.403461
 30
0.0
 70
    64
  0
VERTEX
  8
0
  6
CONTINUOUS
 10
2.697516
 20
0.403461
 30
0.0
 70
    64
  0
VERTEX
  8
0
  6
CONTINUOUS
 10
2.711236
 20
0.403461
 30
0.0
 70
    64
  0
VERTEX
  8
0
  6
CONTINUOUS
 10
2.724956
 20
0.403461
 30
0.0
 70
    64
  0
VERTEX
  8
0
  6
CONTINUOUS
 10
2.738676
 20
0.403461
 30
0.0
 70
    64
  0
VERTEX
  8
0
  6
CONTINUOUS
 10
2.752396
 20
0.403461
 30
0.0
 70
    64
  0
VERTEX
  8
0
  6
CONTINUOUS
 10
2.766116
 20
0.403461
 30
0.0
 70
    64
  0
VERTEX
  8
0
  6
CONTINUOUS
 10
2.779836
 20
0.403461
 30
0.0
 70
    64
  0
VERTEX
  8
0
  6
CONTINUOUS
 10
2.793556
 20
0.403461
 30
0.0
 70
    64
  0
VERTEX
  8
0
  6
CONTINUOUS
 10
2.807276
 20
0.403461
 30
0.0
 70
    64
  0
VERTEX
  8
0
  6
CONTINUOUS
 10
2.820996
 20
0.403461
 30
0.0
 70
    64
  0
VERTEX
  8
0
  6
CONTINUOUS
 10
2.834716
 20
0.403461
 30
0.0
 70
    64
  0
VERTEX
  8
0
  6
CONTINUOUS
 10
2.848436
 20
0.403461
 30
0.0
 70
    64
  0
VERTEX
  8
0
  6
CONTINUOUS
 10
2.862156
 20
0.403461
 30
0.0
 70
    64
  0
VERTEX
  8
0
  6
CONTINUOUS
 10
2.875876
 20
0.403461
 30
0.0
 70
    64
  0
VERTEX
  8
0
  6
CONTINUOUS
 10
2.889596
 20
0.403461
 30
0.0
 70
    64
  0
VERTEX
  8
0
  6
CONTINUOUS
 10
2.903316
 20
0.403461
 30
0.0
 70
    64
  0
VERTEX
  8
0
  6
CONTINUOUS
 10
2.917036
 20
0.403461
 30
0.0
 70
    64
  0
VERTEX
  8
0
  6
CONTINUOUS
 10
2.930756
 20
0.403461
 30
0.0
 70
    64
  0
VERTEX
  8
0
  6
CONTINUOUS
 10
2.944476
 20
0.403461
 30
0.0
 70
    64
  0
VERTEX
  8
0
  6
CONTINUOUS
 10
2.958196
 20
0.403461
 30
0.0
 70
    64
  0
VERTEX
  8
0
  6
CONTINUOUS
 10
2.971916
 20
0.403461
 30
0.0
 70
    64
  0
VERTEX
  8
0
  6
CONTINUOUS
 10
2.985636
 20
0.403461
 30
0.0
 70
    64
  0
VERTEX
  8
0
  6
CONTINUOUS
 10
2.999356
 20
0.403461
 30
0.0
 70
    64
  0
VERTEX
  8
0
  6
CONTINUOUS
 10
3.013076
 20
0.403461
 30
0.0
 70
    64
  0
VERTEX
  8
0
  6
CONTINUOUS
 10
3.026796
 20
0.403461
 30
0.0
 70
    64
  0
VERTEX
  8
0
  6
CONTINUOUS
 10
3.040516
 20
0.403461
 30
0.0
 70
    64
  0
VERTEX
  8
0
  6
CONTINUOUS
 10
3.054236
 20
0.403461
 30
0.0
 70
    64
  0
VERTEX
  8
0
  6
CONTINUOUS
 10
3.067956
 20
0.403461
 30
0.0
 70
    64
  0
VERTEX
  8
0
  6
CONTINUOUS
 10
3.081676
 20
0.403461
 30
0.0
 70
    64
  0
VERTEX
  8
0
  6
CONTINUOUS
 10
3.095396
 20
0.403461
 30
0.0
 70
    64
  0
VERTEX
  8
0
  6
CONTINUOUS
 10
3.109116
 20
0.403461
 30
0.0
 70
    64
  0
VERTEX
  8
0
  6
CONTINUOUS
 10
3.122836
 20
0.403461
 30
0.0
 70
    64
  0
VERTEX
  8
0
  6
CONTINUOUS
 10
3.136556
 20
0.403461
 30
0.0
 70
    64
  0
VERTEX
  8
0
  6
CONTINUOUS
 10
3.150276
 20
0.403461
 30
0.0
 70
    64
  0
VERTEX
  8
0
  6
CONTINUOUS
 10
3.163996
 20
0.403461
 30
0.0
 70
    64
  0
VERTEX
  8
0
  6
CONTINUOUS
 10
3.177716
 20
0.403461
 30
0.0
 70
    64
  0
VERTEX
  8
0
  6
CONTINUOUS
 10
3.191436
 20
0.403461
 30
0.0
 70
    64
  0
VERTEX
  8
0
  6
CONTINUOUS
 10
3.205156
 20
0.403461
 30
0.0
 70
    64
  0
VERTEX
  8
0
  6
CONTINUOUS
 10
3.218876
 20
0.403461
 30
0.0
 70
    64
  0
VERTEX
  8
0
  6
CONTINUOUS
 10
3.232596
 20
0.403461
 30
0.0
 70
    64
  0
VERTEX
  8
0
  6
CONTINUOUS
 10
3.246316
 20
0.403461
 30
0.0
 70
    64
  0
VERTEX
  8
0
  6
CONTINUOUS
 10
3.260036
 20
0.403461
 30
0.0
 70
    64
  0
VERTEX
  8
0
  6
CONTINUOUS
 10
3.273756
 20
0.403461
 30
0.0
 70
    64
  0
VERTEX
  8
0
  6
CONTINUOUS
 10
3.287476
 20
0.403461
 30
0.0
 70
    64
  0
VERTEX
  8
0
  6
CONTINUOUS
 10
3.301196
 20
0.403461
 30
0.0
 70
    64
  0
VERTEX
  8
0
  6
CONTINUOUS
 10
3.314916
 20
0.403461
 30
0.0
 70
    64
  0
VERTEX
  8
0
  6
CONTINUOUS
 10
3.328636
 20
0.403461
 30
0.0
 70
    64
  0
VERTEX
  8
0
  6
CONTINUOUS
 10
3.342356
 20
0.403461
 30
0.0
 70
    64
  0
VERTEX
  8
0
  6
CONTINUOUS
 10
3.356076
 20
0.403461
 30
0.0
 70
    64
  0
VERTEX
  8
0
  6
CONTINUOUS
 10
3.369796
 20
0.403461
 30
0.0
 70
    64
  0
VERTEX
  8
0
  6
CONTINUOUS
 10
3.383516
 20
0.403461
 30
0.0
 70
    64
  0
VERTEX
  8
0
  6
CONTINUOUS
 10
3.397236
 20
0.403461
 30
0.0
 70
    64
  0
VERTEX
  8
0
  6
CONTINUOUS
 10
3.410956
 20
0.403461
 30
0.0
 70
    64
  0
VERTEX
  8
0
  6
CONTINUOUS
 10
3.424676
 20
0.403461
 30
0.0
 70
    64
  0
VERTEX
  8
0
  6
CONTINUOUS
 10
3.438396
 20
0.403461
 30
0.0
 70
    64
  0
VERTEX
  8
0
  6
CONTINUOUS
 10
3.452116
 20
0.403461
 30
0.0
 70
    64
  0
VERTEX
  8
0
  6
CONTINUOUS
 10
3.465836
 20
0.403461
 30
0.0
 70
    64
  0
VERTEX
  8
0
  6
CONTINUOUS
 10
3.479556
 20
0.403461
 30
0.0
 70
    64
  0
VERTEX
  8
0
  6
CONTINUOUS
 10
3.493276
 20
0.403461
 30
0.0
 70
    64
  0
VERTEX
  8
0
  6
CONTINUOUS
 10
3.506996
 20
0.403461
 30
0.0
 70
    64
  0
VERTEX
  8
0
  6
CONTINUOUS
 10
3.520716
 20
0.403461
 30
0.0
 70
    64
  0
VERTEX
  8
0
  6
CONTINUOUS
 10
3.534436
 20
0.403461
 30
0.0
 70
    64
  0
VERTEX
  8
0
  6
CONTINUOUS
 10
3.548156
 20
0.403461
 30
0.0
 70
    64
  0
VERTEX
  8
0
  6
CONTINUOUS
 10
3.561876
 20
0.403461
 30
0.0
 70
    64
  0
VERTEX
  8
0
  6
CONTINUOUS
 10
3.575596
 20
0.403461
 30
0.0
 70
    64
  0
VERTEX
  8
0
  6
CONTINUOUS
 10
3.589316
 20
0.403461
 30
0.0
 70
    64
  0
VERTEX
  8
0
  6
CONTINUOUS
 10
3.603036
 20
0.403461
 30
0.0
 70
    64
  0
VERTEX
  8
0
  6
CONTINUOUS
 10
3.616756
 20
0.403461
 30
0.0
 70
    64
  0
VERTEX
  8
0
  6
CONTINUOUS
 10
3.630476
 20
0.403461
 30
0.0
 70
    64
  0
VERTEX
  8
0
  6
CONTINUOUS
 10
3.644196
 20
0.403461
 30
0.0
 70
    64
  0
VERTEX
  8
0
  6
CONTINUOUS
 10
3.657916
 20
0.403461
 30
0.0
 70
    64
  0
VERTEX
  8
0
  6
CONTINUOUS
 10
3.671636
 20
0.403461
 30
0.0
 70
    64
  0
VERTEX
  8
0
  6
CONTINUOUS
 10
3.685356
 20
0.403461
 30
0.0
 70
    64
  0
VERTEX
  8
0
  6
CONTINUOUS
 10
3.699076
 20
0.403461
 30
0.0
 70
    64
  0
VERTEX
  8
0
  6
CONTINUOUS
 10
3.712796
 20
0.403461
 30
0.0
 70
    64
  0
VERTEX
  8
0
  6
CONTINUOUS
 10
3.726516
 20
0.403461
 30
0.0
 70
    64
  0
VERTEX
  8
0
  6
CONTINUOUS
 10
3.740236
 20
0.403461
 30
0.0
 70
    64
  0
VERTEX
  8
0
  6
CONTINUOUS
 10
3.753956
 20
0.403461
 30
0.0
 70
    64
  0
VERTEX
  8
0
  6
CONTINUOUS
 10
3.767676
 20
0.403461
 30
0.0
 70
    64
  0
VERTEX
  8
0
  6
CONTINUOUS
 10
3.781396
 20
0.403461
 30
0.0
 70
    64
  0
VERTEX
  8
0
  6
CONTINUOUS
 10
3.795116
 20
0.403461
 30
0.0
 70
    64
  0
VERTEX
  8
0
  6
CONTINUOUS
 10
3.808836
 20
0.403461
 30
0.0
 70
    64
  0
VERTEX
  8
0
  6
CONTINUOUS
 10
3.822556
 20
0.403461
 30
0.0
 70
    64
  0
VERTEX
  8
0
  6
CONTINUOUS
 10
3.836276
 20
0.403461
 30
0.0
 70
    64
  0
VERTEX
  8
0
  6
CONTINUOUS
 10
3.849996
 20
0.403461
 30
0.0
 70
    64
  0
VERTEX
  8
0
  6
CONTINUOUS
 10
3.863716
 20
0.403461
 30
0.0
 70
    64
  0
VERTEX
  8
0
  6
CONTINUOUS
 10
3.877436
 20
0.403461
 30
0.0
 70
    64
  0
VERTEX
  8
0
  6
CONTINUOUS
 10
3.891156
 20
0.403461
 30
0.0
 70
    64
  0
VERTEX
  8
0
  6
CONTINUOUS
 10
3.904876
 20
0.403461
 30
0.0
 70
    64
  0
VERTEX
  8
0
  6
CONTINUOUS
 10
3.918596
 20
0.403461
 30
0.0
 70
    64
  0
VERTEX
  8
0
  6
CONTINUOUS
 10
3.932316
 20
0.403461
 30
0.0
 70
    64
  0
VERTEX
  8
0
  6
CONTINUOUS
 10
3.946036
 20
0.403461
 30
0.0
 70
    64
  0
VERTEX
  8
0
  6
CONTINUOUS
 10
3.959756
 20
0.403461
 30
0.0
 70
    64
  0
VERTEX
  8
0
  6
CONTINUOUS
 10
3.973476
 20
0.403461
 30
0.0
 70
    64
  0
VERTEX
  8
0
  6
CONTINUOUS
 10
3.987196
 20
0.403461
 30
0.0
 70
    64
  0
VERTEX
  8
0
  6
CONTINUOUS
 10
4.000916
 20
0.403461
 30
0.0
 70
    64
  0
VERTEX
  8
0
  6
CONTINUOUS
 10
4.014636
 20
0.403461
 30
0.0
 70
    64
  0
VERTEX
  8
0
  6
CONTINUOUS
 10
4.028356
 20
0.403461
 30
0.0
 70
    64
  0
VERTEX
  8
0
  6
CONTINUOUS
 10
4.042076
 20
0.403461
 30
0.0
 70
    64
  0
VERTEX
  8
0
  6
CONTINUOUS
 10
4.055796
 20
0.403461
 30
0.0
 70
    64
  0
VERTEX
  8
0
  6
CONTINUOUS
 10
4.069516
 20
0.403461
 30
0.0
 70
    64
  0
VERTEX
  8
0
  6
CONTINUOUS
 10
4.083236
 20
0.403461
 30
0.0
 70
    64
  0
VERTEX
  8
0
  6
CONTINUOUS
 10
4.096956
 20
0.403461
 30
0.0
 70
    64
  0
VERTEX
  8
0
  6
CONTINUOUS
 10
4.110676
 20
0.403461
 30
0.0
 70
    64
  0
VERTEX
  8
0
  6
CONTINUOUS
 10
4.124396
 20
0.403461
 30
0.0
 70
    64
  0
VERTEX
  8
0
  6
CONTINUOUS
 10
4.138116
 20
0.403461
 30
0.0
 70
    64
  0
VERTEX
  8
0
  6
CONTINUOUS
 10
4.151836
 20
0.403461
 30
0.0
 70
    64
  0
VERTEX
  8
0
  6
CONTINUOUS
 10
4.165556
 20
0.403461
 30
0.0
 70
    64
  0
VERTEX
  8
0
  6
CONTINUOUS
 10
4.179276
 20
0.403461
 30
0.0
 70
    64
  0
VERTEX
  8
0
  6
CONTINUOUS
 10
4.192996
 20
0.403461
 30
0.0
 70
    64
  0
VERTEX
  8
0
  6
CONTINUOUS
 10
4.206716
 20
0.403461
 30
0.0
 70
    64
  0
VERTEX
  8
0
  6
CONTINUOUS
 10
4.220436
 20
0.403461
 30
0.0
 70
    64
  0
VERTEX
  8
0
  6
CONTINUOUS
 10
4.234156
 20
0.403461
 30
0.0
 70
    64
  0
VERTEX
  8
0
  6
CONTINUOUS
 10
4.247876
 20
0.403461
 30
0.0
 70
    64
  0
VERTEX
  8
0
  6
CONTINUOUS
 10
4.261596
 20
0.403461
 30
0.0
 70
    64
  0
VERTEX
  8
0
  6
CONTINUOUS
 10
4.275316
 20
0.403461
 30
0.0
 70
    64
  0
VERTEX
  8
0
  6
CONTINUOUS
 10
4.289036
 20
0.403461
 30
0.0
 70
    64
  0
VERTEX
  8
0
  6
CONTINUOUS
 10
4.302756
 20
0.403461
 30
0.0
 70
    64
  0
VERTEX
  8
0
  6
CONTINUOUS
 10
4.316476
 20
0.403461
 30
0.0
 70
    64
  0
VERTEX
  8
0
  6
CONTINUOUS
 10
4.330196
 20
0.403461
 30
0.0
 70
    64
  0
VERTEX
  8
0
  6
CONTINUOUS
 10
4.343916
 20
0.403461
 30
0.0
 70
    64
  0
VERTEX
  8
0
  6
CONTINUOUS
 10
4.357636
 20
0.403461
 30
0.0
 70
    64
  0
VERTEX
  8
0
  6
CONTINUOUS
 10
4.371356
 20
0.403461
 30
0.0
 70
    64
  0
VERTEX
  8
0
  6
CONTINUOUS
 10
4.385076
 20
0.403461
 30
0.0
 70
    64
  0
VERTEX
  8
0
  6
CONTINUOUS
 10
4.398796
 20
0.403461
 30
0.0
 70
    64
  0
VERTEX
  8
0
  6
CONTINUOUS
 10
4.412516
 20
0.403461
 30
0.0
 70
    64
  0
VERTEX
  8
0
  6
CONTINUOUS
 10
4.426236
 20
0.403461
 30
0.0
 70
    64
  0
VERTEX
  8
0
  6
CONTINUOUS
 10
4.439956
 20
0.403461
 30
0.0
 70
    64
  0
VERTEX
  8
0
  6
CONTINUOUS
 10
4.453676
 20
0.403461
 30
0.0
 70
    64
  0
VERTEX
  8
0
  6
CONTINUOUS
 10
4.467396
 20
0.403461
 30
0.0
 70
    64
  0
VERTEX
  8
0
  6
CONTINUOUS
 10
4.481116
 20
0.403461
 30
0.0
 70
    64
  0
VERTEX
  8
0
  6
CONTINUOUS
 10
4.494836
 20
0.403461
 30
0.0
 70
    64
  0
VERTEX
  8
0
  6
CONTINUOUS
 10
4.508556
 20
0.403461
 30
0.0
 70
    64
  0
VERTEX
  8
0
  6
CONTINUOUS
 10
4.522276
 20
0.403461
 30
0.0
 70
    64
  0
VERTEX
  8
0
  6
CONTINUOUS
 10
4.535996
 20
0.403461
 30
0.0
 70
    64
  0
VERTEX
  8
0
  6
CONTINUOUS
 10
4.549716
 20
0.403461
 30
0.0
 70
    64
  0
VERTEX
  8
0
  6
CONTINUOUS
 10
4.563436
 20
0.403461
 30
0.0
 70
    64
  0
VERTEX
  8
0
  6
CONTINUOUS
 10
4.577156
 20
0.403461
 30
0.0
 70
    64
  0
VERTEX
  8
0
  6
CONTINUOUS
 10
4.590876
 20
0.403461
 30
0.0
 70
    64
  0
VERTEX
  8
0
  6
CONTINUOUS
 10
4.604596
 20
0.403461
 30
0.0
 70
    64
  0
VERTEX
  8
0
  6
CONTINUOUS
 10
4.618316
 20
0.403461
 30
0.0
 70
    64
  0
VERTEX
  8
0
  6
CONTINUOUS
 10
4.632036
 20
0.403461
 30
0.0
 70
    64
  0
VERTEX
  8
0
  6
CONTINUOUS
 10
4.645756
 20
0.403461
 30
0.0
 70
    64
  0
VERTEX
  8
0
  6
CONTINUOUS
 10
4.659476
 20
0.403461
 30
0.0
 70
    64
  0
VERTEX
  8
0
  6
CONTINUOUS
 10
4.673196
 20
0.403461
 30
0.0
 70
    64
  0
VERTEX
  8
0
  6
CONTINUOUS
 10
4.686916
 20
0.403461
 30
0.0
 70
    64
  0
VERTEX
  8
0
  6
CONTINUOUS
 10
4.700636
 20
0.403461
 30
0.0
 70
    64
  0
VERTEX
  8
0
  6
CONTINUOUS
 10
4.714356
 20
0.403461
 30
0.0
 70
    64
  0
VERTEX
  8
0
  6
CONTINUOUS
 10
4.728076
 20
0.403461
 30
0.0
 70
    64
  0
VERTEX
  8
0
  6
CONTINUOUS
 10
4.741796
 20
0.403461
 30
0.0
 70
    64
  0
VERTEX
  8
0
  6
CONTINUOUS
 10
4.755516
 20
0.403461
 30
0.0
 70
    64
  0
VERTEX
  8
0
  6
CONTINUOUS
 10
4.769236
 20
0.403461
 30
0.0
 70
    64
  0
VERTEX
  8
0
  6
CONTINUOUS
 10
4.782956
 20
0.403461
 30
0.0
 70
    64
  0
VERTEX
  8
0
  6
CONTINUOUS
 10
4.796676
 20
0.403461
 30
0.0
 70
    64
  0
VERTEX
  8
0
  6
CONTINUOUS
 10
4.810396
 20
0.403461
 30
0.0
 70
    64
  0
VERTEX
  8
0
  6
CONTINUOUS
 10
4.824116
 20
0.403461
 30
0.0
 70
    64
  0
VERTEX
  8
0
  6
CONTINUOUS
 10
4.837836
 20
0.403461
 30
0.0
 70
    64
  0
VERTEX
  8
0
  6
CONTINUOUS
 10
4.851556
 20
0.403461
 30
0.0
 70
    64
  0
VERTEX
  8
0
  6
CONTINUOUS
 10
4.865276
 20
0.403461
 30
0.0
 70
    64
  0
VERTEX
  8
0
  6
CONTINUOUS
 10
4.878996
 20
0.403461
 30
0.0
 70
    64
  0
VERTEX
  8
0
  6
CONTINUOUS
 10
4.892716
 20
0.403461
 30
0.0
 70
    64
  0
VERTEX
  8
0
  6
CONTINUOUS
 10
4.906436
 20
0.403461
 30
0.0
 70
    64
  0
VERTEX
  8
0
  6
CONTINUOUS
 10
4.920156
 20
0.403461
 30
0.0
 70
    64
  0
VERTEX
  8
0
  6
CONTINUOUS
 10
4.933876
 20
0.403461
 30
0.0
 70
    64
  0
VERTEX
  8
0
  6
CONTINUOUS
 10
4.947596
 20
0.403461
 30
0.0
 70
    64
  0
VERTEX
  8
0
  6
CONTINUOUS
 10
4.961316
 20
0.403461
 30
0.0
 70
    64
  0
VERTEX
  8
0
  6
CONTINUOUS
 10
4.975036
 20
0.403461
 30
0.0
 70
    64
  0
VERTEX
  8
0
  6
CONTINUOUS
 10
4.988756
 20
0.403461
 30
0.0
 70
    64
  0
VERTEX
  8
0
  6
CONTINUOUS
 10
5.002476
 20
0.403461
 30
0.0
 70
    64
  0
VERTEX
  8
0
  6
CONTINUOUS
 10
5.016196
 20
0.403461
 30
0.0
 70
    64
  0
VERTEX
  8
0
  6
CONTINUOUS
 10
5.029916
 20
0.403461
 30
0.0
 70
    64
  0
VERTEX
  8
0
  6
CONTINUOUS
 10
5.043636
 20
0.403461
 30
0.0
 70
    64
  0
VERTEX
  8
0
  6
CONTINUOUS
 10
5.057356
 20
0.403461
 30
0.0
 70
    64
  0
VERTEX
  8
0
  6
CONTINUOUS
 10
5.071076
 20
0.403461
 30
0.0
 70
    64
  0
VERTEX
  8
0
  6
CONTINUOUS
 10
5.084796
 20
0.403461
 30
0.0
 70
    64
  0
VERTEX
  8
0
  6
CONTINUOUS
 10
5.098516
 20
0.403461
 30
0.0
 70
    64
  0
VERTEX
  8
0
  6
CONTINUOUS
 10
5.112236
 20
0.403461
 30
0.0
 70
    64
  0
VERTEX
  8
0
  6
CONTINUOUS
 10
5.125956
 20
0.403461
 30
0.0
 70
    64
  0
VERTEX
  8
0
  6
CONTINUOUS
 10
5.139676
 20
0.403461
 30
0.0
 70
    64
  0
VERTEX
  8
0
  6
CONTINUOUS
 10
5.153396
 20
0.403461
 30
0.0
 70
    64
  0
VERTEX
  8
0
  6
CONTINUOUS
 10
5.167116
 20
0.403461
 30
0.0
 70
    64
  0
VERTEX
  8
0
  6
CONTINUOUS
 10
5.180836
 20
0.403461
 30
0.0
 70
    64
  0
VERTEX
  8
0
  6
CONTINUOUS
 10
5.194556
 20
0.403461
 30
0.0
 70
    64
  0
VERTEX
  8
0
  6
CONTINUOUS
 10
5.208276
 20
0.403461
 30
0.0
 70
    64
  0
VERTEX
  8
0
  6
CONTINUOUS
 10
5.221996
 20
0.403461
 30
0.0
 70
    64
  0
VERTEX
  8
0
  6
CONTINUOUS
 10
5.235716
 20
0.403461
 30
0.0
 70
    64
  0
VERTEX
  8
0
  6
CONTINUOUS
 10
5.249436
 20
0.403461
 30
0.0
 70
    64
  0
SEQEND
  8
0
  6
CONTINUOUS
  0
LINE
  8
0
  6
DASHED
 10
5.0
 20
-0.086539
 30
0.0
 11
15.0
 21
-0.086539
 31
0.0
  0
ARC
  8
0
  6
CONTINUOUS
 10
2.5
 20
-0.086539
 30
0.0
 40
2.5
 50
90.0
 51
270.0
  0
ENDBLK
  8
0
  0
BLOCK
  8
0
  2
B507
 70
    64
 10
0.0
 20
0.0
 30
0.0
  3
B507
  0
LINE
  8
0
  6
CONTINUOUS
 10
0.079622
 20
0.147754
 30
0.0
 11
0.079622
 21
-9.002074
 31
0.0
  0
INSERT
  8
0
  6
CONTINUOUS
  2
BLC29
 10
0.212369
 20
-6.641509
 30
0.0
 50
270.0
  0
ENDBLK
  8
0
  0
BLOCK
  8
0
  2
B506
 70
    64
 10
0.0
 20
0.0
 30
0.0
  3
B506
  0
INSERT
  8
BASE
  6
CONTINUOUS
  2
BLC29
 10
1.994594
 20
-0.128476
 30
0.0
 50
180.0
  0
ENDBLK
  8
0
  0
BLOCK
  8
0
  2
B504
 70
     0
 10
0.0
 20
0.0
 30
0.0
  3
B504
  0
POLYLINE
  8
0
  6
CONTINUOUS
 66
     1
 10
0.0
 20
0.0
 30
0.0
 70
     1
 40
0.5
 41
0.5
  0
VERTEX
  8
0
  6
CONTINUOUS
 10
-35.5
 20
-160.0
 30
0.0
 42
1.0
  0
VERTEX
  8
0
  6
CONTINUOUS
 10
-34.5
 20
-160.0
 30
0.0
 42
1.0
  0
SEQEND
  8
0
  6
CONTINUOUS
  0
POLYLINE
  8
0
  6
CONTINUOUS
 66
     1
 10
0.0
 20
0.0
 30
0.0
 70
     1
 40
0.5
 41
0.5
  0
VERTEX
  8
0
  6
CONTINUOUS
 10
-30.5
 20
-140.0
 30
0.0
 42
1.0
  0
VERTEX
  8
0
  6
CONTINUOUS
 10
-29.5
 20
-140.0
 30
0.0
 42
1.0
  0
SEQEND
  8
0
  6
CONTINUOUS
  0
LINE
  8
0
  6
DASHED
 10
-22.5
 20
-150.0
 30
0.0
 11
-2.5
 21
-150.0
 31
0.0
  0
LINE
  8
0
  6
DASHED
 10
-22.5
 20
-140.0
 30
0.0
 11
-22.5
 21
-150.0
 31
0.0
  0
LINE
  8
0
  6
DASHED
 10
-35.0
 20
-150.0
 30
0.0
 11
-35.0
 21
-160.0
 31
0.0
  0
INSERT
  8
0
  6
CONTINUOUS
  2
B507
 10
-0.108382
 20
-53.378819
 30
0.0
  0
TEXT
  8
0
  6
CONTINUOUS
 10
-3.079681
 20
-51.105348
 30
0.0
 40
2.0
  1
P/Q
  7
ROMANS
  0
POLYLINE
  8
0
  6
CONTINUOUS
 66
     1
 10
0.0
 20
0.0
 30
0.0
 70
     1
 40
0.5
 41
0.5
 71
     2
 72
   151
  0
VERTEX
  8
0
  6
CONTINUOUS
 10
52.0
 20
-97.5
 30
0.0
 42
1.0
  0
VERTEX
  8
0
  6
CONTINUOUS
 10
53.0
 20
-97.5
 30
0.0
 42
1.0
  0
SEQEND
  8
0
  6
CONTINUOUS
  0
POLYLINE
  8
0
  6
CONTINUOUS
 66
     1
 10
0.0
 20
0.0
 30
0.0
 70
     1
 40
0.5
 41
0.5
 71
     2
 72
   151
  0
VERTEX
  8
0
  6
CONTINUOUS
 10
44.5
 20
-92.5
 30
0.0
 42
1.0
  0
VERTEX
  8
0
  6
CONTINUOUS
 10
45.5
 20
-92.5
 30
0.0
 42
1.0
  0
SEQEND
  8
0
  6
CONTINUOUS
  0
POLYLINE
  8
0
  6
CONTINUOUS
 66
     1
 10
0.0
 20
0.0
 30
0.0
 70
     1
 40
0.5
 41
0.5
 71
     2
 72
   151
  0
VERTEX
  8
0
  6
CONTINUOUS
 10
37.0
 20
-87.5
 30
0.0
 42
1.0
  0
VERTEX
  8
0
  6
CONTINUOUS
 10
38.0
 20
-87.5
 30
0.0
 42
1.0
  0
SEQEND
  8
0
  6
CONTINUOUS
  0
POLYLINE
  8
0
  6
CONTINUOUS
 66
     1
 10
0.0
 20
0.0
 30
0.0
 70
     1
 40
0.5
 41
0.5
 71
     2
 72
   251
  0
VERTEX
  8
0
  6
CONTINUOUS
 10
-25.5
 20
-105.0
 30
0.0
 42
1.0
  0
VERTEX
  8
0
  6
CONTINUOUS
 10
-24.5
 20
-105.0
 30
0.0
 42
1.0
  0
SEQEND
  8
0
  6
CONTINUOUS
  0
POLYLINE
  8
0
  6
CONTINUOUS
 66
     1
 10
0.0
 20
0.0
 30
0.0
 70
     1
 40
0.5
 41
0.5
 71
     2
 72
   151
  0
VERTEX
  8
0
  6
CONTINUOUS
 10
34.5
 20
-27.5
 30
0.0
 42
1.0
  0
VERTEX
  8
0
  6
CONTINUOUS
 10
35.5
 20
-27.5
 30
0.0
 42
1.0
  0
SEQEND
  8
0
  6
CONTINUOUS
  0
POLYLINE
  8
0
  6
CONTINUOUS
 66
     1
 10
0.0
 20
0.0
 30
0.0
 70
     1
 40
0.5
 41
0.5
 71
     2
 72
   151
  0
VERTEX
  8
0
  6
CONTINUOUS
 10
-23.0
 20
-59.810016
 30
0.0
 42
1.0
  0
VERTEX
  8
0
  6
CONTINUOUS
 10
-22.0
 20
-59.810016
 30
0.0
 42
1.0
  0
SEQEND
  8
0
  6
CONTINUOUS
  0
POLYLINE
  8
0
  6
CONTINUOUS
 66
     1
 10
0.0
 20
0.0
 30
0.0
 70
     1
 40
0.5
 41
0.5
 71
     2
 72
   151
  0
VERTEX
  8
0
  6
CONTINUOUS
 10
-23.0
 20
-79.810016
 30
0.0
 42
1.0
  0
VERTEX
  8
0
  6
CONTINUOUS
 10
-22.0
 20
-79.810016
 30
0.0
 42
1.0
  0
SEQEND
  8
0
  6
CONTINUOUS
  0
POLYLINE
  8
0
  6
CONTINUOUS
 66
     1
 10
0.0
 20
0.0
 30
0.0
 70
     1
 40
0.5
 41
0.5
 71
     2
 72
   151
  0
VERTEX
  8
0
  6
CONTINUOUS
 10
-15.5
 20
-87.5
 30
0.0
 42
1.0
  0
VERTEX
  8
0
  6
CONTINUOUS
 10
-14.5
 20
-87.5
 30
0.0
 42
1.0
  0
SEQEND
  8
0
  6
CONTINUOUS
  0
POLYLINE
  8
0
  6
CONTINUOUS
 66
     1
 10
0.0
 20
0.0
 30
0.0
 70
     1
 40
0.5
 41
0.5
 71
     2
 72
   151
  0
VERTEX
  8
0
  6
CONTINUOUS
 10
-23.0
 20
-85.0
 30
0.0
 42
1.0
  0
VERTEX
  8
0
  6
CONTINUOUS
 10
-22.0
 20
-85.0
 30
0.0
 42
1.0
  0
SEQEND
  8
0
  6
CONTINUOUS
  0
POLYLINE
  8
0
  6
CONTINUOUS
 66
     1
 10
0.0
 20
0.0
 30
0.0
 70
     1
 40
0.5
 41
0.5
 71
     2
 72
   151
  0
VERTEX
  8
0
  6
CONTINUOUS
 10
-38.0
 20
-85.0
 30
0.0
 42
1.0
  0
VERTEX
  8
0
  6
CONTINUOUS
 10
-37.0
 20
-85.0
 30
0.0
 42
1.0
  0
SEQEND
  8
0
  6
CONTINUOUS
  0
POLYLINE
  8
0
  6
CONTINUOUS
 66
     1
 10
0.0
 20
0.0
 30
0.0
 70
     1
 40
0.5
 41
0.5
 71
     2
 72
   151
  0
VERTEX
  8
0
  6
CONTINUOUS
 10
-38.0
 20
-65.0
 30
0.0
 42
1.0
  0
VERTEX
  8
0
  6
CONTINUOUS
 10
-37.0
 20
-65.0
 30
0.0
 42
1.0
  0
SEQEND
  8
0
  6
CONTINUOUS
  0
POLYLINE
  8
0
  6
CONTINUOUS
 66
     1
 10
0.0
 20
0.0
 30
0.0
 70
     1
 40
0.5
 41
0.5
 71
     2
 72
   151
  0
VERTEX
  8
0
  6
CONTINUOUS
 10
24.5
 20
-10.0
 30
0.0
 42
1.0
  0
VERTEX
  8
0
  6
CONTINUOUS
 10
25.5
 20
-10.0
 30
0.0
 42
1.0
  0
SEQEND
  8
0
  6
CONTINUOUS
  0
POLYLINE
  8
0
  6
CONTINUOUS
 66
     1
 10
0.0
 20
0.0
 30
0.0
 70
     1
 40
0.5
 41
0.5
 71
     2
 72
   151
  0
VERTEX
  8
0
  6
CONTINUOUS
 10
17.0
 20
-5.0
 30
0.0
 42
1.0
  0
VERTEX
  8
0
  6
CONTINUOUS
 10
18.0
 20
-5.0
 30
0.0
 42
1.0
  0
SEQEND
  8
0
  6
CONTINUOUS
  0
POLYLINE
  8
0
  6
CONTINUOUS
 66
     1
 10
0.0
 20
0.0
 30
0.0
 70
     1
 40
0.5
 41
0.5
 71
     2
 72
   151
  0
VERTEX
  8
0
  6
CONTINUOUS
 10
9.5
 20
0.0
 30
0.0
 42
1.0
  0
VERTEX
  8
0
  6
CONTINUOUS
 10
10.5
 20
0.0
 30
0.0
 42
1.0
  0
SEQEND
  8
0
  6
CONTINUOUS
  0
POLYLINE
  8
0
  6
CONTINUOUS
 66
     1
 10
0.0
 20
0.0
 30
0.0
 70
     1
 40
0.5
 41
0.5
 71
     2
 72
   151
  0
VERTEX
  8
0
  6
CONTINUOUS
 10
-8.0
 20
-10.0
 30
0.0
 42
1.0
  0
VERTEX
  8
0
  6
CONTINUOUS
 10
-7.0
 20
-10.0
 30
0.0
 42
1.0
  0
SEQEND
  8
0
  6
CONTINUOUS
  0
POLYLINE
  8
0
  6
CONTINUOUS
 66
     1
 10
0.0
 20
0.0
 30
0.0
 70
     1
 40
0.5
 41
0.5
 71
     2
 72
   151
  0
VERTEX
  8
0
  6
CONTINUOUS
 10
-13.0
 20
-5.0
 30
0.0
 42
1.0
  0
VERTEX
  8
0
  6
CONTINUOUS
 10
-12.0
 20
-5.0
 30
0.0
 42
1.0
  0
SEQEND
  8
0
  6
CONTINUOUS
  0
POLYLINE
  8
0
  6
CONTINUOUS
 66
     1
 10
0.0
 20
0.0
 30
0.0
 70
     1
 40
0.5
 41
0.5
 71
     2
 72
   151
  0
VERTEX
  8
0
  6
CONTINUOUS
 10
-18.0
 20
0.0
 30
0.0
 42
1.0
  0
VERTEX
  8
0
  6
CONTINUOUS
 10
-17.0
 20
0.0
 30
0.0
 42
1.0
  0
SEQEND
  8
0
  6
CONTINUOUS
  0
TEXT
  8
0
  6
CONTINUOUS
 10
-41.797382
 20
-152.638247
 30
0.0
 40
2.0
  1
1)
  7
ROMANS
  0
TEXT
  8
0
  6
CONTINUOUS
 10
-41.797382
 20
-139.327227
 30
0.0
 40
2.0
  1
1)
  7
ROMANS
  0
TEXT
  8
0
  6
CONTINUOUS
 10
-41.797382
 20
-114.251585
 30
0.0
 40
2.0
  1
1)
  7
ROMANS
  0
TEXT
  8
0
  6
CONTINUOUS
 10
-41.797382
 20
-94.305547
 30
0.0
 40
2.0
  1
1)
  7
ROMANS
  0
TEXT
  8
0
  6
CONTINUOUS
 10
-41.797382
 20
-74.317258
 30
0.0
 40
2.0
  1
1)
  7
ROMANS
  0
TEXT
  8
0
  6
CONTINUOUS
 10
-41.797382
 20
-54.161858
 30
0.0
 40
2.0
  1
1)
  7
ROMANS
  0
TEXT
  8
0
  6
CONTINUOUS
 10
-41.797382
 20
-34.273264
 30
0.0
 40
2.0
  1
1)
  7
ROMANS
  0
TEXT
  8
0
  6
CONTINUOUS
 10
22.5
 20
-80.0
 30
0.0
 40
2.0
  1
KONTROLLENHET
  7
ROMANS
  0
TEXT
  8
0
  6
CONTINUOUS
 10
22.5
 20
-76.666667
 30
0.0
 40
2.0
  1
SKYDDS- OCH 
  7
ROMANS
  0
TEXT
  8
0
  6
CONTINUOUS
 10
22.5
 20
-70.0
 30
0.0
 40
2.0
  1
FEEDER PROTECTION
  7
ROMANS
  0
LINE
  8
0
  6
DASHED
 10
-2.5
 20
-165.0
 30
0.0
 11
52.5
 21
-165.0
 31
0.0
  0
LINE
  8
0
  6
DASHED
 10
-2.5
 20
-157.5
 30
0.0
 11
45.0
 21
-157.5
 31
0.0
  0
LINE
  8
0
  6
DASHED
 10
-2.5
 20
-150.0
 30
0.0
 11
37.5
 21
-150.0
 31
0.0
  0
LINE
  8
0
  6
CONTINUOUS
 10
-47.5
 20
-165.0
 30
0.0
 11
-45.0
 21
-165.0
 31
0.0
  0
LINE
  8
0
  6
CONTINUOUS
 10
-47.5
 20
-160.0
 30
0.0
 11
-45.0
 21
-160.0
 31
0.0
  0
LINE
  8
0
  6
CONTINUOUS
 10
-47.5
 20
-145.0
 30
0.0
 11
-45.0
 21
-145.0
 31
0.0
  0
LINE
  8
0
  6
CONTINUOUS
 10
-47.5
 20
-140.0
 30
0.0
 11
-45.0
 21
-140.0
 31
0.0
  0
LINE
  8
0
  6
CONTINUOUS
 10
-42.5
 20
-139.6532
 30
0.0
 11
-43.5
 21
-138.6532
 31
0.0
  0
LINE
  8
0
  6
CONTINUOUS
 10
-42.5
 20
-145.33813
 30
0.0
 11
-43.5
 21
-146.33813
 31
0.0
  0
LINE
  8
0
  6
CONTINUOUS
 10
-42.5
 20
-139.6532
 30
0.0
 11
-42.5
 21
-145.33813
 31
0.0
  0
LINE
  8
0
  6
CONTINUOUS
 10
-42.5
 20
-159.6532
 30
0.0
 11
-42.5
 21
-165.33813
 31
0.0
  0
LINE
  8
0
  6
CONTINUOUS
 10
-42.5
 20
-165.33813
 30
0.0
 11
-43.5
 21
-166.33813
 31
0.0
  0
LINE
  8
0
  6
CONTINUOUS
 10
-42.5
 20
-159.6532
 30
0.0
 11
-43.5
 21
-158.6532
 31
0.0
  0
LINE
  8
0
  6
DASHED
 10
-42.5
 20
-160.0
 30
0.0
 11
-22.5
 21
-160.0
 31
0.0
  0
LINE
  8
0
  6
DASHED
 10
-42.5
 20
-140.0
 30
0.0
 11
-22.5
 21
-140.0
 31
0.0
  0
LINE
  8
0
  6
DASHED
 10
-22.5
 20
-160.0
 30
0.0
 11
-22.5
 21
-157.5
 31
0.0
  0
LINE
  8
0
  6
DASHED
 10
-47.5
 20
-150.0
 30
0.0
 11
-35.0
 21
-150.0
 31
0.0
  0
LINE
  8
0
  6
DASHED
 10
-22.5
 20
-157.5
 30
0.0
 11
-2.5
 21
-157.5
 31
0.0
  0
LINE
  8
0
  6
DASHED
 10
-20.0
 20
-165.0
 30
0.0
 11
-2.5
 21
-165.0
 31
0.0
  0
INSERT
  8
0
  6
CONTINUOUS
  2
BLC27
 10
50.965932
 20
-112.428451
 30
0.0
  0
LINE
  8
0
  6
CONTINUOUS
 10
52.5
 20
-124.81002
 30
0.0
 11
52.5
 21
-127.5
 31
0.0
  0
ARC
  8
0
  6
CONTINUOUS
 10
50.864862
 20
-121.203905
 30
0.0
 40
1.204309
 50
90.0
 51
265.706237
  0
LINE
  8
0
  6
CONTINUOUS
 10
50.858762
 20
-122.401453
 30
0.0
 11
51.50836
 21
-122.401453
 31
0.0
  0
LINE
  8
0
  6
CONTINUOUS
 10
50.858762
 20
-120.000007
 30
0.0
 11
51.502261
 21
-120.000007
 31
0.0
  0
LINE
  8
0
  6
CONTINUOUS
 10
50.859898
 20
-124.810063
 30
0.0
 11
51.509496
 21
-124.810063
 31
0.0
  0
ARC
  8
0
  6
CONTINUOUS
 10
50.864862
 20
-123.605762
 30
0.0
 40
1.204309
 50
90.0
 51
270.0
  0
LINE
  8
0
  6
CONTINUOUS
 10
51.500897
 20
-124.81002
 30
0.0
 11
52.5
 21
-124.81002
 31
0.0
  0
LINE
  8
0
  6
CONTINUOUS
 10
51.496128
 20
-120.000004
 30
0.0
 11
52.473936
 21
-120.000004
 31
0.0
  0
LINE
  8
0
  6
CONTINUOUS
 10
51.506031
 20
-122.401444
 30
0.0
 11
52.478167
 21
-122.401444
 31
0.0
  0
INSERT
  8
0
  6
CONTINUOUS
  2
BLC27
 10
35.965932
 20
-112.428451
 30
0.0
  0
INSERT
  8
0
  6
CONTINUOUS
  2
BLC27
 10
43.465932
 20
-112.428451
 30
0.0
  0
LINE
  8
0
  6
CONTINUOUS
 10
37.5
 20
-124.81002
 30
0.0
 11
37.5
 21
-127.5
 31
0.0
  0
LINE
  8
0
  6
CONTINUOUS
 10
45.0
 20
-124.81002
 30
0.0
 11
45.0
 21
-127.5
 31
0.0
  0
ARC
  8
0
  6
CONTINUOUS
 10
43.364862
 20
-121.203905
 30
0.0
 40
1.204309
 50
90.0
 51
265.706237
  0
LINE
  8
0
  6
CONTINUOUS
 10
43.358762
 20
-122.401453
 30
0.0
 11
44.00836
 21
-122.401453
 31
0.0
  0
LINE
  8
0
  6
CONTINUOUS
 10
43.358762
 20
-120.000007
 30
0.0
 11
44.002261
 21
-120.000007
 31
0.0
  0
LINE
  8
0
  6
CONTINUOUS
 10
43.359898
 20
-124.810063
 30
0.0
 11
44.009496
 21
-124.810063
 31
0.0
  0
ARC
  8
0
  6
CONTINUOUS
 10
43.364862
 20
-123.605762
 30
0.0
 40
1.204309
 50
90.0
 51
270.0
  0
LINE
  8
0
  6
CONTINUOUS
 10
44.000897
 20
-124.81002
 30
0.0
 11
45.0
 21
-124.81002
 31
0.0
  0
LINE
  8
0
  6
CONTINUOUS
 10
43.996128
 20
-120.000004
 30
0.0
 11
44.973936
 21
-120.000004
 31
0.0
  0
LINE
  8
0
  6
CONTINUOUS
 10
44.006031
 20
-122.401444
 30
0.0
 11
44.978167
 21
-122.401444
 31
0.0
  0
ARC
  8
0
  6
CONTINUOUS
 10
35.864862
 20
-121.203905
 30
0.0
 40
1.204309
 50
90.0
 51
265.706237
  0
LINE
  8
0
  6
CONTINUOUS
 10
35.858762
 20
-122.401453
 30
0.0
 11
36.50836
 21
-122.401453
 31
0.0
  0
LINE
  8
0
  6
CONTINUOUS
 10
35.858762
 20
-120.000007
 30
0.0
 11
36.502261
 21
-120.000007
 31
0.0
  0
LINE
  8
0
  6
CONTINUOUS
 10
35.859898
 20
-124.810063
 30
0.0
 11
36.509496
 21
-124.810063
 31
0.0
  0
ARC
  8
0
  6
CONTINUOUS
 10
35.864862
 20
-123.605762
 30
0.0
 40
1.204309
 50
90.0
 51
270.0
  0
LINE
  8
0
  6
CONTINUOUS
 10
36.500897
 20
-124.81002
 30
0.0
 11
37.5
 21
-124.81002
 31
0.0
  0
LINE
  8
0
  6
CONTINUOUS
 10
36.496128
 20
-120.000004
 30
0.0
 11
37.473936
 21
-120.000004
 31
0.0
  0
LINE
  8
0
  6
CONTINUOUS
 10
36.506031
 20
-122.401444
 30
0.0
 11
37.478167
 21
-122.401444
 31
0.0
  0
LINE
  8
0
  6
DASHED
 10
52.5
 20
-110.0
 30
0.0
 11
52.5
 21
-97.5
 31
0.0
  0
LINE
  8
0
  6
DASHED
 10
45.0
 20
-110.0
 30
0.0
 11
45.0
 21
-92.5
 31
0.0
  0
LINE
  8
0
  6
DASHED
 10
37.5
 20
-110.0
 30
0.0
 11
37.5
 21
-87.5
 31
0.0
  0
TEXT
  8
0
  6
DASHED
 10
22.5
 20
-88.469793
 30
0.0
 40
2.0
  1
L1(R)
  7
ROMANS
  0
TEXT
  8
0
  6
DASHED
 10
22.5
 20
-93.489243
 30
0.0
 40
2.0
  1
L2(S)
  7
ROMANS
  0
TEXT
  8
0
  6
DASHED
 10
22.5
 20
-98.508693
 30
0.0
 40
2.0
  1
L3(T)
  7
ROMANS
  0
LINE
  8
0
  6
DASHED
 10
37.5
 20
-127.5
 30
0.0
 11
37.5
 21
-150.0
 31
0.0
  0
LINE
  8
0
  6
DASHED
 10
45.0
 20
-157.5
 30
0.0
 11
45.0
 21
-127.5
 31
0.0
  0
LINE
  8
0
  6
DASHED
 10
52.5
 20
-165.0
 30
0.0
 11
52.5
 21
-127.5
 31
0.0
  0
LINE
  8
0
  6
DASHED
 10
32.5
 20
0.0
 30
0.0
 11
-25.0
 21
0.0
 31
0.0
  0
LINE
  8
0
  6
DASHED
 10
32.5
 20
-5.0
 30
0.0
 11
-25.0
 21
-5.0
 31
0.0
  0
LINE
  8
0
  6
DASHED
 10
32.5
 20
-10.0
 30
0.0
 11
-25.0
 21
-10.0
 31
0.0
  0
INSERT
  8
0
  6
CONTINUOUS
  2
BLC27
 10
23.465932
 20
-19.928451
 30
0.0
  0
LINE
  8
0
  6
DASHED
 10
25.0
 20
-17.5
 30
0.0
 11
25.0
 21
-10.0
 31
0.0
  0
LINE
  8
0
  6
CONTINUOUS
 10
10.0
 20
-22.31002
 30
0.0
 11
30.0
 21
-22.31002
 31
0.0
  0
LINE
  8
0
  6
CONTINUOUS
 10
25.0
 20
-32.31002
 30
0.0
 11
25.0
 21
-35.0
 31
0.0
  0
ARC
  8
0
  6
CONTINUOUS
 10
23.364862
 20
-28.703905
 30
0.0
 40
1.204309
 50
90.0
 51
265.706237
  0
LINE
  8
0
  6
CONTINUOUS
 10
23.358762
 20
-29.901453
 30
0.0
 11
24.00836
 21
-29.901453
 31
0.0
  0
LINE
  8
0
  6
CONTINUOUS
 10
23.358762
 20
-27.500007
 30
0.0
 11
24.002261
 21
-27.500007
 31
0.0
  0
LINE
  8
0
  6
CONTINUOUS
 10
23.359898
 20
-32.310063
 30
0.0
 11
24.009496
 21
-32.310063
 31
0.0
  0
ARC
  8
0
  6
CONTINUOUS
 10
23.364862
 20
-31.105762
 30
0.0
 40
1.204309
 50
90.0
 51
270.0
  0
LINE
  8
0
  6
CONTINUOUS
 10
24.000897
 20
-32.31002
 30
0.0
 11
25.0
 21
-32.31002
 31
0.0
  0
LINE
  8
0
  6
CONTINUOUS
 10
23.996128
 20
-27.500004
 30
0.0
 11
24.973936
 21
-27.500004
 31
0.0
  0
LINE
  8
0
  6
CONTINUOUS
 10
24.006031
 20
-29.901444
 30
0.0
 11
24.978167
 21
-29.901444
 31
0.0
  0
LINE
  8
0
  6
CONTINUOUS
 10
25.0
 20
-35.0
 30
0.0
 11
22.5
 21
-35.0
 31
0.0
  0
LINE
  8
0
  6
CONTINUOUS
 10
22.5
 20
-35.0
 30
0.0
 11
17.5
 21
-27.5
 31
0.0
  0
LINE
  8
0
  6
CONTINUOUS
 10
25.0
 20
-27.5
 30
0.0
 11
30.0
 21
-27.5
 31
0.0
  0
INSERT
  8
0
  6
CONTINUOUS
  2
BLC15
 10
42.5
 20
-27.642084
 30
0.0
 50
90.0
  0
INSERT
  8
0
  6
CONTINUOUS
  2
BLC15
 10
42.5
 20
-22.452104
 30
0.0
 50
90.0
  0
LINE
  8
0
  6
DASHED
 10
30.0
 20
-27.5
 30
0.0
 11
39.34682
 21
-27.5
 31
0.0
  0
LINE
  8
0
  6
DASHED
 10
30.0
 20
-22.31002
 30
0.0
 11
39.163362
 21
-22.31002
 31
0.0
  0
LINE
  8
0
  6
DASHED
 10
17.5
 20
-47.5
 30
0.0
 11
35.0
 21
-47.5
 31
0.0
  0
LINE
  8
0
  6
DASHED
 10
35.0
 20
-47.5
 30
0.0
 11
35.0
 21
-27.5
 31
0.0
  0
LINE
  8
0
  6
CONTINUOUS
 10
-47.5
 20
-35.0
 30
0.0
 11
-45.0
 21
-35.0
 31
0.0
  0
LINE
  8
0
  6
CONTINUOUS
 10
-47.5
 20
-40.0
 30
0.0
 11
-45.0
 21
-40.0
 31
0.0
  0
LINE
  8
0
  6
DASHED
 10
-47.5
 20
-45.0
 30
0.0
 11
-37.5
 21
-45.0
 31
0.0
  0
LINE
  8
0
  6
CONTINUOUS
 10
-47.5
 20
-55.0
 30
0.0
 11
-45.0
 21
-55.0
 31
0.0
  0
LINE
  8
0
  6
CONTINUOUS
 10
-47.5
 20
-60.0
 30
0.0
 11
-45.0
 21
-60.0
 31
0.0
  0
LINE
  8
0
  6
DASHED
 10
-47.5
 20
-65.0
 30
0.0
 11
-37.5
 21
-65.0
 31
0.0
  0
LINE
  8
0
  6
CONTINUOUS
 10
-47.5
 20
-75.0
 30
0.0
 11
-45.0
 21
-75.0
 31
0.0
  0
LINE
  8
0
  6
CONTINUOUS
 10
-47.5
 20
-80.0
 30
0.0
 11
-45.0
 21
-80.0
 31
0.0
  0
LINE
  8
0
  6
DASHED
 10
-47.5
 20
-85.0
 30
0.0
 11
-22.5
 21
-85.0
 31
0.0
  0
LINE
  8
0
  6
CONTINUOUS
 10
-47.5
 20
-95.0
 30
0.0
 11
-45.0
 21
-95.0
 31
0.0
  0
LINE
  8
0
  6
CONTINUOUS
 10
-47.5
 20
-100.0
 30
0.0
 11
-45.0
 21
-100.0
 31
0.0
  0
LINE
  8
0
  6
DASHED
 10
-47.5
 20
-105.0
 30
0.0
 11
-15.0
 21
-105.0
 31
0.0
  0
LINE
  8
0
  6
CONTINUOUS
 10
-47.5
 20
-115.0
 30
0.0
 11
-45.0
 21
-115.0
 31
0.0
  0
LINE
  8
0
  6
CONTINUOUS
 10
-47.5
 20
-120.0
 30
0.0
 11
-45.0
 21
-120.0
 31
0.0
  0
LINE
  8
0
  6
DASHED
 10
-47.5
 20
-125.0
 30
0.0
 11
10.0
 21
-125.0
 31
0.0
  0
TEXT
  8
0
  6
CONTINUOUS
 10
-33.767672
 20
-10.993033
 30
0.0
 40
2.0
  1
L3(T)
  7
ROMANS
 11
-33.767672
 21
-11.6597
 31
0.0
 73
     1
  0
TEXT
  8
0
  6
CONTINUOUS
 10
-33.767672
 20
-6.071641
 30
0.0
 40
2.0
  1
L2(S)
  7
ROMANS
 11
-33.767672
 21
-6.738307
 31
0.0
 73
     1
  0
TEXT
  8
0
  6
CONTINUOUS
 10
-33.767672
 20
-1.014946
 30
0.0
 40
2.0
  1
L1(R)
  7
ROMANS
 11
-33.767672
 21
-1.681613
 31
0.0
 73
     1
  0
LINE
  8
0
  6
DASHED
 10
-17.5
 20
-39.810008
 30
0.0
 11
-22.5
 21
-39.810008
 31
0.0
  0
INSERT
  8
0
  6
CONTINUOUS
  2
BLC27
 10
-6.008845
 20
-77.381569
 30
0.0
 50
180.0
  0
LINE
  8
0
  6
CONTINUOUS
 10
-7.5
 20
-22.5
 30
0.0
 11
-8.0
 21
-23.0
 31
0.0
  0
LINE
  8
0
  6
CONTINUOUS
 10
-7.5
 20
-22.5
 30
0.0
 11
-8.0
 21
-22.0
 31
0.0
  0
LINE
  8
0
  6
CONTINUOUS
 10
-7.5
 20
-22.5
 30
0.0
 11
-7.0
 21
-22.0
 31
0.0
  0
LINE
  8
0
  6
CONTINUOUS
 10
-7.5
 20
-22.5
 30
0.0
 11
-7.0
 21
-23.0
 31
0.0
  0
LINE
  8
0
  6
CONTINUOUS
 10
-12.5
 20
-22.5
 30
0.0
 11
-13.0
 21
-22.0
 31
0.0
  0
LINE
  8
0
  6
CONTINUOUS
 10
-12.5
 20
-22.5
 30
0.0
 11
-13.0
 21
-23.0
 31
0.0
  0
LINE
  8
0
  6
CONTINUOUS
 10
-12.5
 20
-22.5
 30
0.0
 11
-12.0
 21
-23.0
 31
0.0
  0
LINE
  8
0
  6
CONTINUOUS
 10
-12.5
 20
-22.5
 30
0.0
 11
-12.0
 21
-22.0
 31
0.0
  0
LINE
  8
0
  6
CONTINUOUS
 10
-17.5
 20
-22.5
 30
0.0
 11
-18.0
 21
-23.0
 31
0.0
  0
LINE
  8
0
  6
CONTINUOUS
 10
-17.5
 20
-22.5
 30
0.0
 11
-17.0
 21
-22.0
 31
0.0
  0
LINE
  8
0
  6
CONTINUOUS
 10
-17.5
 20
-22.5
 30
0.0
 11
-17.0
 21
-23.0
 31
0.0
  0
LINE
  8
0
  6
CONTINUOUS
 10
-17.5
 20
-22.5
 30
0.0
 11
-18.0
 21
-22.0
 31
0.0
  0
LINE
  8
0
  6
CONTINUOUS
 10
-7.5
 20
-30.0
 30
0.0
 11
-10.0
 21
-22.5
 31
0.0
  0
LINE
  8
0
  6
CONTINUOUS
 10
-12.5
 20
-30.0
 30
0.0
 11
-15.0
 21
-22.5
 31
0.0
  0
LINE
  8
0
  6
CONTINUOUS
 10
-17.5
 20
-30.0
 30
0.0
 11
-20.0
 21
-22.5
 31
0.0
  0
INSERT
  8
0
  6
CONTINUOUS
  2
BLC27
 10
-10.98773
 20
-57.38157
 30
0.0
 50
180.0
  0
LINE
  8
0
  6
DASHED
 10
-17.5
 20
-15.0
 30
0.0
 11
-17.5
 21
0.0
 31
0.0
  0
LINE
  8
0
  6
DASHED
 10
-12.5
 20
-15.0
 30
0.0
 11
-12.5
 21
-7.5
 31
0.0
  0
LINE
  8
0
  6
DASHED
 10
-7.5
 20
-30.0
 30
0.0
 11
-7.5
 21
-62.5
 31
0.0
  0
LINE
  8
0
  6
DASHED
 10
-7.5
 20
-10.0
 30
0.0
 11
-7.5
 21
-22.5
 31
0.0
  0
LINE
  8
0
  6
DASHED
 10
-12.5
 20
-30.0
 30
0.0
 11
-12.5
 21
-62.5
 31
0.0
  0
LINE
  8
0
  6
DASHED
 10
-12.5
 20
-5.0
 30
0.0
 11
-12.5
 21
-22.5
 31
0.0
  0
LINE
  8
0
  6
DASHED
 10
-17.5
 20
-22.5
 30
0.0
 11
-17.5
 21
-10.0
 31
0.0
  0
LINE
  8
0
  6
DASHED
 10
-17.5
 20
-30.0
 30
0.0
 11
-17.5
 21
-62.5
 31
0.0
  0
INSERT
  8
0
  6
CONTINUOUS
  2
BLC27
 10
-16.008846
 20
-37.381567
 30
0.0
 50
180.0
  0
INSERT
  8
0
  6
CONTINUOUS
  2
BLC15
 10
-22.642084
 20
-90.0
 30
0.0
  0
LINE
  8
0
  6
DASHED
 10
-7.5
 20
-62.5
 30
0.0
 11
-7.5
 21
-87.5
 31
0.0
  0
LINE
  8
0
  6
DASHED
 10
-12.5
 20
-62.5
 30
0.0
 11
-12.5
 21
-87.5
 31
0.0
  0
LINE
  8
0
  6
DASHED
 10
-17.5
 20
-62.5
 30
0.0
 11
-17.5
 21
-87.5
 31
0.0
  0
LINE
  8
0
  6
DASHED
 10
-12.430203
 20
-59.810016
 30
0.0
 11
-22.5
 21
-59.810016
 31
0.0
  0
LINE
  8
0
  6
DASHED
 10
-7.493079
 20
-79.810016
 30
0.0
 11
-22.5
 21
-79.810016
 31
0.0
  0
LINE
  8
0
  6
DASHED
 10
-37.5
 20
-45.0
 30
0.0
 11
-37.5
 21
-85.0
 31
0.0
  0
LINE
  8
0
  6
DASHED
 10
-42.5
 20
-95.0
 30
0.0
 11
-25.0
 21
-95.0
 31
0.0
  0
LINE
  8
0
  6
DASHED
 10
-25.0
 20
-95.0
 30
0.0
 11
-25.0
 21
-100.189984
 31
0.0
  0
INSERT
  8
0
  6
CONTINUOUS
  2
BLC15
 10
-15.142084
 20
-112.5
 30
0.0
  0
LINE
  8
0
  6
DASHED
 10
-22.5
 20
-39.810008
 30
0.0
 11
-22.5
 21
-87.5
 31
0.0
  0
LINE
  8
0
  6
CONTINUOUS
 10
-17.5
 20
-87.5
 30
0.0
 11
-7.5
 21
-87.5
 31
0.0
  0
LINE
  8
0
  6
CONTINUOUS
 10
-15.0
 20
-87.5
 30
0.0
 11
-12.5
 21
-92.5
 31
0.0
  0
LINE
  8
0
  6
CONTINUOUS
 10
-12.5
 20
-92.5
 30
0.0
 11
-10.0
 21
-87.5
 31
0.0
  0
LINE
  8
0
  6
CONTINUOUS
 10
-12.5
 20
-92.5
 30
0.0
 11
-12.5
 21
-112.5
 31
0.0
  0
LINE
  8
0
  6
DASHED
 10
-15.0
 20
-87.5
 30
0.0
 11
-15.0
 21
-110.0
 31
0.0
  0
INSERT
  8
0
  6
CONTINUOUS
  2
BLC15
 10
-25.142084
 20
-112.5
 30
0.0
  0
LINE
  8
0
  6
DASHED
 10
-25.0
 20
-110.0
 30
0.0
 11
-25.0
 21
-105.0
 31
0.0
  0
INSERT
  8
0
  6
CONTINUOUS
  2
BLC27
 10
-11.00884
 20
-102.571554
 30
0.0
 50
180.0
  0
LINE
  8
0
  6
CONTINUOUS
 10
-15.0
 20
-102.59856
 30
0.0
 11
-12.5
 21
-102.59856
 31
0.0
  0
LINE
  8
0
  6
DASHED
 10
-25.0
 20
-100.189984
 30
0.0
 11
-12.5
 21
-100.189984
 31
0.0
  0
LINE
  8
0
  6
DASHED
 10
-12.5
 20
-105.0
 30
0.0
 11
-12.5
 21
-105.0
 31
0.0
  0
LINE
  8
0
  6
DASHED
 10
-15.0
 20
-105.0
 30
0.0
 11
-12.5
 21
-105.0
 31
0.0
  0
LINE
  8
0
  6
DASHED
 10
-17.5
 20
-35.0
 30
0.0
 11
-42.5
 21
-35.0
 31
0.0
  0
LINE
  8
0
  6
DASHED
 10
-12.5
 20
-55.0
 30
0.0
 11
-42.5
 21
-55.0
 31
0.0
  0
LINE
  8
0
  6
DASHED
 10
-7.5
 20
-75.0
 30
0.0
 11
-42.5
 21
-75.0
 31
0.0
  0
INSERT
  8
0
  6
CONTINUOUS
  2
BLC27
 10
8.465932
 20
-19.928451
 30
0.0
  0
INSERT
  8
0
  6
CONTINUOUS
  2
BLC27
 10
15.965932
 20
-19.928451
 30
0.0
  0
LINE
  8
0
  6
DASHED
 10
10.0
 20
-17.5
 30
0.0
 11
10.0
 21
0.0
 31
0.0
  0
LINE
  8
0
  6
DASHED
 10
17.5
 20
-17.5
 30
0.0
 11
17.5
 21
-5.0
 31
0.0
  0
LINE
  8
0
  6
CONTINUOUS
 10
10.0
 20
-32.31002
 30
0.0
 11
10.0
 21
-35.0
 31
0.0
  0
LINE
  8
0
  6
CONTINUOUS
 10
17.5
 20
-32.31002
 30
0.0
 11
17.5
 21
-35.0
 31
0.0
  0
ARC
  8
0
  6
CONTINUOUS
 10
15.864862
 20
-28.703905
 30
0.0
 40
1.204309
 50
90.0
 51
265.706237
  0
LINE
  8
0
  6
CONTINUOUS
 10
15.858762
 20
-29.901453
 30
0.0
 11
16.50836
 21
-29.901453
 31
0.0
  0
LINE
  8
0
  6
CONTINUOUS
 10
15.858762
 20
-27.500007
 30
0.0
 11
16.502261
 21
-27.500007
 31
0.0
  0
LINE
  8
0
  6
CONTINUOUS
 10
15.859898
 20
-32.310063
 30
0.0
 11
16.509496
 21
-32.310063
 31
0.0
  0
ARC
  8
0
  6
CONTINUOUS
 10
15.864862
 20
-31.105762
 30
0.0
 40
1.204309
 50
90.0
 51
270.0
  0
LINE
  8
0
  6
CONTINUOUS
 10
16.500897
 20
-32.31002
 30
0.0
 11
17.5
 21
-32.31002
 31
0.0
  0
LINE
  8
0
  6
CONTINUOUS
 10
16.496128
 20
-27.500004
 30
0.0
 11
17.473936
 21
-27.500004
 31
0.0
  0
LINE
  8
0
  6
CONTINUOUS
 10
16.506031
 20
-29.901444
 30
0.0
 11
17.478167
 21
-29.901444
 31
0.0
  0
ARC
  8
0
  6
CONTINUOUS
 10
8.364862
 20
-28.703905
 30
0.0
 40
1.204309
 50
90.0
 51
265.706237
  0
LINE
  8
0
  6
CONTINUOUS
 10
8.358762
 20
-29.901453
 30
0.0
 11
9.00836
 21
-29.901453
 31
0.0
  0
LINE
  8
0
  6
CONTINUOUS
 10
8.358762
 20
-27.500007
 30
0.0
 11
9.002261
 21
-27.500007
 31
0.0
  0
LINE
  8
0
  6
CONTINUOUS
 10
8.359898
 20
-32.310063
 30
0.0
 11
9.009496
 21
-32.310063
 31
0.0
  0
ARC
  8
0
  6
CONTINUOUS
 10
8.364862
 20
-31.105762
 30
0.0
 40
1.204309
 50
90.0
 51
270.0
  0
LINE
  8
0
  6
CONTINUOUS
 10
9.000897
 20
-32.31002
 30
0.0
 11
10.0
 21
-32.31002
 31
0.0
  0
LINE
  8
0
  6
CONTINUOUS
 10
8.996128
 20
-27.500004
 30
0.0
 11
9.973936
 21
-27.500004
 31
0.0
  0
LINE
  8
0
  6
CONTINUOUS
 10
9.006031
 20
-29.901444
 30
0.0
 11
9.978167
 21
-29.901444
 31
0.0
  0
LINE
  8
0
  6
CONTINUOUS
 10
17.5
 20
-35.0
 30
0.0
 11
15.0
 21
-35.0
 31
0.0
  0
LINE
  8
0
  6
CONTINUOUS
 10
15.0
 20
-35.0
 30
0.0
 11
10.0
 21
-27.5
 31
0.0
  0
LINE
  8
0
  6
DASHED
 10
-42.5
 20
-115.0
 30
0.0
 11
17.5
 21
-115.0
 31
0.0
  0
LINE
  8
0
  6
DASHED
 10
17.5
 20
-115.0
 30
0.0
 11
17.5
 21
-47.5
 31
0.0
  0
LINE
  8
0
  6
DASHED
 10
10.0
 20
-125.0
 30
0.0
 11
10.0
 21
-35.0
 31
0.0
  0
LINE
  8
0
  6
DASHED
 10
-12.5
 20
-112.5
 30
0.0
 11
-12.5
 21
-137.5
 31
0.0
  0
LINE
  8
0
  6
CONTINUOUS
 10
-42.5
 20
-34.6532
 30
0.0
 11
-43.5
 21
-33.6532
 31
0.0
  0
LINE
  8
0
  6
CONTINUOUS
 10
-42.5
 20
-40.33813
 30
0.0
 11
-43.5
 21
-41.33813
 31
0.0
  0
LINE
  8
0
  6
CONTINUOUS
 10
-42.5
 20
-34.6532
 30
0.0
 11
-42.5
 21
-40.33813
 31
0.0
  0
LINE
  8
0
  6
CONTINUOUS
 10
-42.5
 20
-54.6532
 30
0.0
 11
-42.5
 21
-60.33813
 31
0.0
  0
LINE
  8
0
  6
CONTINUOUS
 10
-42.5
 20
-60.33813
 30
0.0
 11
-43.5
 21
-61.33813
 31
0.0
  0
LINE
  8
0
  6
CONTINUOUS
 10
-42.5
 20
-54.6532
 30
0.0
 11
-43.5
 21
-53.6532
 31
0.0
  0
LINE
  8
0
  6
CONTINUOUS
 10
-42.5
 20
-74.6532
 30
0.0
 11
-43.5
 21
-73.6532
 31
0.0
  0
LINE
  8
0
  6
CONTINUOUS
 10
-42.5
 20
-80.33813
 30
0.0
 11
-43.5
 21
-81.33813
 31
0.0
  0
LINE
  8
0
  6
CONTINUOUS
 10
-42.5
 20
-74.6532
 30
0.0
 11
-42.5
 21
-80.33813
 31
0.0
  0
LINE
  8
0
  6
CONTINUOUS
 10
-42.5
 20
-94.6532
 30
0.0
 11
-42.5
 21
-100.33813
 31
0.0
  0
LINE
  8
0
  6
CONTINUOUS
 10
-42.5
 20
-100.33813
 30
0.0
 11
-43.5
 21
-101.33813
 31
0.0
  0
LINE
  8
0
  6
CONTINUOUS
 10
-42.5
 20
-94.6532
 30
0.0
 11
-43.5
 21
-93.6532
 31
0.0
  0
LINE
  8
0
  6
CONTINUOUS
 10
-42.5
 20
-114.6532
 30
0.0
 11
-43.5
 21
-113.6532
 31
0.0
  0
LINE
  8
0
  6
CONTINUOUS
 10
-42.5
 20
-120.33813
 30
0.0
 11
-43.5
 21
-121.33813
 31
0.0
  0
LINE
  8
0
  6
CONTINUOUS
 10
-42.5
 20
-114.6532
 30
0.0
 11
-42.5
 21
-120.33813
 31
0.0
  0
LINE
  8
BASE
  6
CENTER
 10
-47.5
 20
-42.5
 30
0.0
 11
-47.5
 21
-17.5
 31
0.0
  0
LINE
  8
BASE
  6
CENTER
 10
-47.5
 20
-42.5
 30
0.0
 11
-47.5
 21
-65.0
 31
0.0
  0
LINE
  8
0
  6
DASHED
 10
60.0
 20
-87.5
 30
0.0
 11
32.5
 21
-87.5
 31
0.0
  0
LINE
  8
0
  6
DASHED
 10
60.0
 20
-92.5
 30
0.0
 11
32.5
 21
-92.5
 31
0.0
  0
LINE
  8
0
  6
CONTINUOUS
 10
37.5
 20
-114.81002
 30
0.0
 11
57.5
 21
-114.81002
 31
0.0
  0
INSERT
  8
0
  6
CONTINUOUS
  2
BLC15
 10
62.5
 20
-114.952104
 30
0.0
 50
90.0
  0
INSERT
  8
0
  6
CONTINUOUS
  2
BLC15
 10
62.5
 20
-120.142084
 30
0.0
 50
90.0
  0
LINE
  8
0
  6
CONTINUOUS
 10
37.5
 20
-120.0
 30
0.0
 11
57.5
 21
-120.0
 31
0.0
  0
LINE
  8
0
  6
DASHED
 10
-30.0
 20
-140.0
 30
0.0
 11
-30.0
 21
-190.0
 31
0.0
  0
LINE
  8
0
  6
DASHED
 10
-20.0
 20
-180.0
 30
0.0
 11
-20.0
 21
-165.0
 31
0.0
  0
TEXT
  8
0
  6
CONTINUOUS
 10
-41.797382
 20
-172.686355
 30
0.0
 40
2.0
  1
1)
  7
ROMANS
  0
LINE
  8
0
  6
DASHED
 10
-35.0
 20
-170.0
 30
0.0
 11
-35.0
 21
-180.0
 31
0.0
  0
LINE
  8
0
  6
DASHED
 10
-47.5
 20
-170.0
 30
0.0
 11
-35.0
 21
-170.0
 31
0.0
  0
POLYLINE
  8
0
  6
CONTINUOUS
 66
     1
 10
0.0
 20
0.0
 30
0.0
 70
     1
 40
0.5
 41
0.5
  0
VERTEX
  8
0
  6
CONTINUOUS
 10
-35.5
 20
-180.0
 30
0.0
 42
1.0
  0
VERTEX
  8
0
  6
CONTINUOUS
 10
-34.5
 20
-180.0
 30
0.0
 42
1.0
  0
SEQEND
  8
0
  6
CONTINUOUS
  0
LINE
  8
0
  6
DASHED
 10
-42.5
 20
-180.0
 30
0.0
 11
-20.0
 21
-180.0
 31
0.0
  0
LINE
  8
0
  6
CONTINUOUS
 10
-42.5
 20
-179.6532
 30
0.0
 11
-42.5
 21
-185.33813
 31
0.0
  0
LINE
  8
0
  6
CONTINUOUS
 10
-42.5
 20
-179.6532
 30
0.0
 11
-43.5
 21
-178.6532
 31
0.0
  0
LINE
  8
0
  6
DASHED
 10
-47.5
 20
-190.0
 30
0.0
 11
-30.0
 21
-190.0
 31
0.0
  0
ENDBLK
  8
0
  0
ENDSEC
  0
SECTION
  2
ENTITIES
  0
INSERT
  8
0
  2
1
 10
65.405438
 20
98.713066
 30
0.0
  0
INSERT
  8
0
  2
1
 10
72.541652
 20
49.71056
 30
0.0
  0
INSERT
  8
0
  2
1
 10
85.390443
 20
73.497234
 30
0.0
  0
LINE
  8
0
  6
CONTINUOUS
 62
   249
 10
197.950615
 20
202.209828
 30
0.0
 11
197.950615
 21
160.0
 31
0.0
  0
LINE
  8
0
  6
CONTINUOUS
 62
   249
 10
197.950615
 20
230.0
 30
0.0
 11
197.950615
 21
202.18832
 31
0.0
  0
LINE
  8
0
  6
CONTINUOUS
 62
   249
 10
167.5
 20
215.0
 30
0.0
 11
167.5
 21
200.0
 31
0.0
  0
LINE
  8
0
  6
CONTINUOUS
 62
   249
 10
167.5
 20
215.0
 30
0.0
 11
167.5
 21
230.0
 31
0.0
  0
LINE
  8
0
  6
CONTINUOUS
 62
   249
 10
167.5
 20
200.0
 30
0.0
 11
167.5
 21
160.0
 31
0.0
  0
LINE
  8
0
  6
CENTER
 62
   249
 10
27.5
 20
242.5
 30
0.0
 11
27.5
 21
57.5
 31
0.0
  0
LINE
  8
0
  6
CONTINUOUS
 62
   249
 10
50.0
 20
132.5
 30
0.0
 11
44.256076
 21
129.285297
 31
0.0
  0
LINE
  8
0
  6
CONTINUOUS
 62
   249
 10
62.5
 20
122.5
 30
0.0
 11
56.756076
 21
119.285297
 31
0.0
  0
LINE
  8
0
  6
CONTINUOUS
 62
   249
 10
62.5
 20
122.5
 30
0.0
 11
65.0
 21
122.5
 31
0.0
  0
LINE
  8
0
  6
CONTINUOUS
 62
   249
 10
57.5
 20
122.5
 30
0.0
 11
27.5
 21
122.5
 31
0.0
  0
LINE
  8
0
  6
DASHED
 62
   249
 10
47.5
 20
137.5
 30
0.0
 11
47.5
 21
131.100824
 31
0.0
  0
LINE
  8
0
  6
DASHED
 62
   249
 10
60.0
 20
135.0
 30
0.0
 11
60.0
 21
121.100824
 31
0.0
  0
LINE
  8
0
  6
DASHED
 62
   249
 10
72.5
 20
135.0
 30
0.0
 11
72.5
 21
106.100824
 31
0.0
  0
LINE
  8
0
  6
DASHED
 62
   249
 10
85.0
 20
135.0
 30
0.0
 11
85.0
 21
91.100824
 31
0.0
  0
LINE
  8
0
  6
DASHED
 62
   249
 10
95.0
 20
112.5
 30
0.0
 11
95.0
 21
76.100824
 31
0.0
  0
TEXT
  8
0
  6
DASHED
 62
   249
 10
43.197373
 20
133.403492
 30
0.0
 40
2.0
  1
A
  7
ROMANS
  0
TEXT
  8
0
  6
DASHED
 62
   249
 10
56.643373
 20
123.774588
 30
0.0
 40
2.0
  1
B
  7
ROMANS
  0
TEXT
  8
0
  6
DASHED
 62
   249
 10
68.555109
 20
108.134364
 30
0.0
 40
2.0
  1
C
  7
ROMANS
  0
TEXT
  8
0
  6
DASHED
 62
   249
 10
80.984014
 20
93.255752
 30
0.0
 40
2.0
  1
D
  7
ROMANS
  0
TEXT
  8
0
  6
DASHED
 62
   249
 10
90.671573
 20
78.364654
 30
0.0
 40
2.0
  1
E
  7
ROMANS
  0
LINE
  8
0
  6
CENTER
 62
   249
 10
27.5
 20
57.5
 30
0.0
 11
247.5
 21
57.5
 31
0.0
  0
LINE
  8
0
  6
CONTINUOUS
 62
   249
 10
227.5
 20
177.5
 30
0.0
 11
228.5
 21
176.5
 31
0.0
  0
LINE
  8
0
  6
CONTINUOUS
 62
   249
 10
227.5
 20
222.5
 30
0.0
 11
228.5
 21
223.5
 31
0.0
  0
LINE
  8
0
  6
CONTINUOUS
 62
   249
 10
227.5
 20
222.5
 30
0.0
 11
227.5
 21
177.5
 31
0.0
  0
LINE
  8
0
  6
CENTER
 62
   249
 10
247.5
 20
242.5
 30
0.0
 11
27.5
 21
242.5
 31
0.0
  0
LINE
  8
0
  6
CONTINUOUS
 62
   249
 10
12.5
 20
107.5
 30
0.0
 11
12.5
 21
97.499655
 31
0.0
  0
LINE
  8
0
  6
CONTINUOUS
 62
   249
 10
12.5
 20
107.5
 30
0.0
 11
13.5
 21
108.5
 31
0.0
  0
LINE
  8
0
  6
CONTINUOUS
 62
   249
 10
12.5
 20
97.499655
 30
0.0
 11
13.5
 21
96.499655
 31
0.0
  0
TEXT
  8
0
  6
CONTINUOUS
 62
   249
 10
7.5
 20
129.277191
 30
0.0
 40
2.0
  1
4)
  7
ROMANS
  0
LINE
  8
0
  6
CONTINUOUS
 62
   249
 10
167.5
 20
160.0
 30
0.0
 11
197.950615
 21
160.0
 31
0.0
  0
LINE
  8
0
  6
CONTINUOUS
 62
   249
 10
95.0
 20
186.684312
 30
0.0
 11
95.0
 21
137.361159
 31
0.0
  0
TEXT
  8
0
 62
   249
 10
336.306053
 20
85.596965
 30
0.0
 40
2.0
  1
TERMINALS / UTTAG
  7
ROMANS
 11
336.306053
 21
84.930298
 31
0.0
 73
     1
  0
LINE
  8
0
 62
   249
 10
337.029564
 20
50.926412
 30
0.0
 11
367.339004
 21
50.926412
 31
0.0
  0
LINE
  8
0
 62
   249
 10
367.379939
 20
84.930298
 30
0.0
 11
367.379939
 21
38.778087
 31
0.0
  0
LINE
  8
0
 62
   249
 10
352.088281
 20
84.930298
 30
0.0
 11
352.088281
 21
38.778087
 31
0.0
  0
LINE
  8
0
 62
   249
 10
322.275257
 20
84.930298
 30
0.0
 11
382.088281
 21
84.930298
 31
0.0
  0
LINE
  8
0
 62
   249
 10
322.275257
 20
90.930298
 30
0.0
 11
322.275257
 21
38.778087
 31
0.0
  0
LINE
  8
0
  6
CONTINUOUS
 62
   249
 10
322.275257
 20
38.778087
 30
0.0
 11
367.339004
 21
38.778087
 31
0.0
  0
LINE
  8
0
  6
CONTINUOUS
 62
   249
 10
186.745375
 20
222.999995
 30
0.0
 11
186.745375
 21
221.211864
 31
0.0
  0
LINE
  8
0
  6
CONTINUOUS
 62
   249
 10
181.345856
 20
220.987114
 30
0.0
 11
184.221966
 21
223.815673
 31
0.0
  0
ARC
  8
0
  6
HIDDEN
 62
   249
 10
185.656579
 20
226.083261
 30
0.0
 40
4.998196
 50
206.402922
 51
282.21115
  0
LINE
  8
0
  6
CONTINUOUS
 62
   249
 10
183.791263
 20
224.35288
 30
0.0
 11
184.69194
 21
223.229131
 31
0.0
  0
LINE
  8
0
  6
CONTINUOUS
 62
   249
 10
178.961711
 20
222.154717
 30
0.0
 11
186.749916
 21
222.154717
 31
0.0
  0
LINE
  8
0
  6
CONTINUOUS
 62
   249
 10
178.930679
 20
222.999995
 30
0.0
 11
178.930679
 21
221.211864
 31
0.0
  0
LINE
  8
0
  6
HIDDEN
 62
   249
 10
167.5
 20
175.0
 30
0.0
 11
187.5
 21
175.0
 31
0.0
  0
LINE
  8
0
  6
HIDDEN
 62
   249
 10
167.5
 20
170.0
 30
0.0
 11
187.5
 21
170.0
 31
0.0
  0
LINE
  8
0
  6
HIDDEN
 62
   249
 10
167.5
 20
185.0
 30
0.0
 11
187.5
 21
185.0
 31
0.0
  0
LINE
  8
0
  6
CONTINUOUS
 62
   249
 10
173.680599
 20
188.677597
 30
0.0
 11
176.026365
 21
187.342244
 31
0.0
  0
LINE
  8
0
  6
CONTINUOUS
 62
   249
 10
176.026365
 20
187.342244
 30
0.0
 11
173.680599
 21
186.152325
 31
0.0
  0
LINE
  8
0
  6
HIDDEN
 62
   249
 10
170.0
 20
215.0
 30
0.0
 11
187.5
 21
215.0
 31
0.0
  0
TEXT
  8
0
  6
CONTINUOUS
 62
   249
 10
171.270128
 20
211.098346
 30
0.0
 40
2.5
  1
I
 11
171.270128
 21
210.265013
 31
0.0
 73
     1
  0
LINE
  8
0
  6
CONTINUOUS
 62
   249
 10
178.033043
 20
212.30095
 30
0.0
 11
175.687278
 21
211.111031
 31
0.0
  0
LINE
  8
0
  6
CONTINUOUS
 62
   249
 10
175.687278
 20
213.636304
 30
0.0
 11
178.033043
 21
212.30095
 31
0.0
  0
LINE
  8
0
  6
CONTINUOUS
 62
   249
 10
176.350465
 20
212.30095
 30
0.0
 11
174.0047
 21
211.111031
 31
0.0
  0
LINE
  8
0
  6
CONTINUOUS
 62
   249
 10
174.0047
 20
213.636304
 30
0.0
 11
176.350465
 21
212.30095
 31
0.0
  0
LINE
  8
0
  6
CONTINUOUS
 62
   249
 10
186.745829
 20
212.873828
 30
0.0
 11
186.745829
 21
211.085697
 31
0.0
  0
LINE
  8
0
  6
CONTINUOUS
 62
   249
 10
181.34631
 20
210.860947
 30
0.0
 11
184.22242
 21
213.689506
 31
0.0
  0
LINE
  8
0
  6
CONTINUOUS
 62
   249
 10
183.791717
 20
214.226713
 30
0.0
 11
184.692394
 21
213.102963
 31
0.0
  0
LINE
  8
0
  6
CONTINUOUS
 62
   249
 10
178.962165
 20
212.02855
 30
0.0
 11
186.75037
 21
212.02855
 31
0.0
  0
LINE
  8
0
  6
CONTINUOUS
 62
   249
 10
178.931134
 20
212.873828
 30
0.0
 11
178.931134
 21
211.085697
 31
0.0
  0
LINE
  8
0
  6
HIDDEN
 62
   249
 10
170.0
 20
220.0
 30
0.0
 11
187.5
 21
220.0
 31
0.0
  0
LINE
  8
0
  6
CONTINUOUS
 62
   249
 10
174.0047
 20
219.283577
 30
0.0
 11
176.350465
 21
217.948224
 31
0.0
  0
LINE
  8
0
  6
CONTINUOUS
 62
   249
 10
176.350465
 20
217.948224
 30
0.0
 11
174.0047
 21
216.758305
 31
0.0
  0
LINE
  8
0
  6
CONTINUOUS
 62
   249
 10
175.687278
 20
219.283577
 30
0.0
 11
178.033043
 21
217.948224
 31
0.0
  0
LINE
  8
0
  6
CONTINUOUS
 62
   249
 10
178.033043
 20
217.948224
 30
0.0
 11
175.687278
 21
216.758305
 31
0.0
  0
TEXT
  8
0
  6
CONTINUOUS
 62
   249
 10
171.270128
 20
216.74562
 30
0.0
 40
2.5
  1
I
 11
171.270128
 21
215.912287
 31
0.0
 73
     1
  0
LINE
  8
0
  6
HIDDEN
 62
   249
 10
170.0
 20
225.0
 30
0.0
 11
187.5
 21
225.0
 31
0.0
  0
TEXT
  8
0
  6
CONTINUOUS
 62
   249
 10
171.270128
 20
221.04182
 30
0.0
 40
2.5
  1
I
 11
171.270128
 21
220.208487
 31
0.0
 73
     1
  0
LINE
  8
0
  6
CONTINUOUS
 62
   249
 10
176.406117
 20
222.244424
 30
0.0
 11
174.060351
 21
221.054505
 31
0.0
  0
LINE
  8
0
  6
CONTINUOUS
 62
   249
 10
174.060351
 20
223.579778
 30
0.0
 11
176.406117
 21
222.244424
 31
0.0
  0
LINE
  8
0
  6
CONTINUOUS
 62
   249
 10
167.5
 20
230.0
 30
0.0
 11
197.950615
 21
230.0
 31
0.0
  0
LINE
  8
0
  6
CONTINUOUS
 62
   249
 10
174.060351
 20
228.279314
 30
0.0
 11
176.406117
 21
226.94396
 31
0.0
  0
LINE
  8
0
  6
CONTINUOUS
 62
   249
 10
176.406117
 20
226.94396
 30
0.0
 11
174.060351
 21
225.754041
 31
0.0
  0
TEXT
  8
0
  6
CONTINUOUS
 62
   249
 10
171.270128
 20
225.741357
 30
0.0
 40
2.5
  1
I
 11
171.270128
 21
224.908023
 31
0.0
 73
     1
  0
TEXT
  8
0
  6
CONTINUOUS
 62
   249
 10
192.5
 20
225.0
 30
0.0
 40
2.5
  1
U1
  7
ROMANS
  0
LINE
  8
0
  6
CONTINUOUS
 62
   249
 10
194.058306
 20
222.485616
 30
0.0
 11
196.404071
 21
221.150262
 31
0.0
  0
LINE
  8
0
  6
CONTINUOUS
 62
   249
 10
196.404071
 20
221.150262
 30
0.0
 11
194.058306
 21
219.960343
 31
0.0
  0
LINE
  8
0
  6
CONTINUOUS
 62
   249
 10
40.298812
 20
215.0
 30
0.0
 11
35.0
 21
215.0
 31
0.0
  0
LINE
  8
0
  6
CONTINUOUS
 62
   249
 10
40.298812
 20
220.0
 30
0.0
 11
27.5
 21
220.0
 31
0.0
  0
LINE
  8
0
 62
   249
 10
40.298812
 20
221.589925
 30
0.0
 11
40.298812
 21
213.4
 31
0.0
  0
LINE
  8
0
 62
   249
 10
44.504853
 20
221.59384
 30
0.0
 11
42.59105
 21
219.315018
 31
0.0
  0
LINE
  8
0
 62
   249
 10
45.996971
 20
221.59384
 30
0.0
 11
44.142636
 21
219.315018
 31
0.0
  0
LINE
  8
0
 62
   249
 10
47.721556
 20
221.589925
 30
0.0
 11
40.298812
 21
221.589925
 31
0.0
  0
LINE
  8
0
 62
   249
 10
47.721556
 20
213.4
 30
0.0
 11
47.721556
 21
221.589925
 31
0.0
  0
LINE
  8
0
  6
CONTINUOUS
 62
   249
 10
47.721556
 20
217.5
 30
0.0
 11
52.5
 21
217.5
 31
0.0
  0
LINE
  8
0
  6
CONTINUOUS
 62
   249
 10
47.721556
 20
210.0
 30
0.0
 11
155.0
 21
210.0
 31
0.0
  0
LINE
  8
0
 62
   249
 10
47.721556
 20
206.204212
 30
0.0
 11
47.721556
 21
214.089925
 31
0.0
  0
LINE
  8
0
 62
   249
 10
47.721556
 20
213.704212
 30
0.0
 11
40.298812
 21
213.704212
 31
0.0
  0
LINE
  8
0
 62
   249
 10
45.996971
 20
213.708127
 30
0.0
 11
44.142636
 21
211.429305
 31
0.0
  0
LINE
  8
0
 62
   249
 10
44.504853
 20
213.708127
 30
0.0
 11
42.59105
 21
211.429305
 31
0.0
  0
LINE
  8
0
 62
   249
 10
40.298812
 20
214.089925
 30
0.0
 11
40.298812
 21
206.204212
 31
0.0
  0
LINE
  8
0
  6
CONTINUOUS
 62
   249
 10
40.298812
 20
212.5
 30
0.0
 11
27.5
 21
212.5
 31
0.0
  0
LINE
  8
0
  6
CONTINUOUS
 62
   249
 10
40.298812
 20
207.5
 30
0.0
 11
35.0
 21
207.5
 31
0.0
  0
LINE
  8
0
 62
   249
 10
47.721556
 20
206.204212
 30
0.0
 11
40.298812
 21
206.204212
 31
0.0
  0
LINE
  8
0
  6
CONTINUOUS
 62
   249
 10
220.0
 20
86.253046
 30
0.0
 11
227.5
 21
86.253046
 31
0.0
  0
LINE
  8
0
 62
   249
 10
232.5
 20
137.5
 30
0.0
 11
230.980133
 21
137.5
 31
0.0
  0
ARC
  8
0
 62
   249
 10
232.565849
 20
138.75
 30
0.0
 40
1.251733
 50
266.984476
 51
93.015524
  0
LINE
  8
0
 62
   249
 10
232.5
 20
140.0
 30
0.0
 11
230.980133
 21
140.0
 31
0.0
  0
LINE
  8
0
 62
   249
 10
232.5
 20
142.5
 30
0.0
 11
230.980133
 21
142.5
 31
0.0
  0
ARC
  8
0
 62
   249
 10
232.565849
 20
141.25
 30
0.0
 40
1.251733
 50
266.984476
 51
93.015524
  0
LINE
  8
0
 62
   249
 10
237.5
 20
135.0
 30
0.0
 11
240.0
 21
135.0
 31
0.0
  0
ARC
  8
0
 62
   249
 10
237.434151
 20
136.25
 30
0.0
 40
1.251733
 50
86.984476
 51
273.015524
  0
ARC
  8
0
 62
   249
 10
237.434151
 20
138.75
 30
0.0
 40
1.251733
 50
86.984476
 51
273.015524
  0
LINE
  8
0
 62
   249
 10
237.5
 20
137.5
 30
0.0
 11
240.0
 21
137.5
 31
0.0
  0
LINE
  8
0
 62
   249
 10
237.5
 20
140.0
 30
0.0
 11
240.0
 21
140.0
 31
0.0
  0
LINE
  8
0
 62
   249
 10
240.0
 20
140.0
 30
0.0
 11
242.5
 21
140.0
 31
0.0
  0
LINE
  8
0
 62
   249
 10
240.0
 20
135.0
 30
0.0
 11
247.5
 21
135.0
 31
0.0
  0
LINE
  8
0
 62
   249
 10
240.0
 20
140.0
 30
0.0
 11
247.5
 21
140.0
 31
0.0
  0
LINE
  8
0
 62
   249
 10
240.0
 20
145.0
 30
0.0
 11
247.5
 21
145.0
 31
0.0
  0
LINE
  8
0
 62
   249
 10
237.5
 20
145.0
 30
0.0
 11
240.0
 21
145.0
 31
0.0
  0
LINE
  8
0
 62
   249
 10
237.5
 20
142.5
 30
0.0
 11
240.0
 21
142.5
 31
0.0
  0
ARC
  8
0
 62
   249
 10
237.434151
 20
143.75
 30
0.0
 40
1.251733
 50
86.984476
 51
273.015524
  0
ARC
  8
0
 62
   249
 10
237.434151
 20
141.25
 30
0.0
 40
1.251733
 50
86.984476
 51
273.015524
  0
LINE
  8
0
 62
   249
 10
237.5
 20
140.0
 30
0.0
 11
240.0
 21
140.0
 31
0.0
  0
LINE
  8
0
 62
   249
 10
232.5
 20
177.5
 30
0.0
 11
230.980133
 21
177.5
 31
0.0
  0
ARC
  8
0
 62
   249
 10
232.565849
 20
178.75
 30
0.0
 40
1.251733
 50
266.984476
 51
93.015524
  0
LINE
  8
0
 62
   249
 10
232.5
 20
180.0
 30
0.0
 11
230.980133
 21
180.0
 31
0.0
  0
LINE
  8
0
 62
   249
 10
232.5
 20
182.5
 30
0.0
 11
230.980133
 21
182.5
 31
0.0
  0
ARC
  8
0
 62
   249
 10
232.565849
 20
181.25
 30
0.0
 40
1.251733
 50
266.984476
 51
93.015524
  0
LINE
  8
0
 62
   249
 10
237.5
 20
175.0
 30
0.0
 11
240.0
 21
175.0
 31
0.0
  0
ARC
  8
0
 62
   249
 10
237.434151
 20
176.25
 30
0.0
 40
1.251733
 50
86.984476
 51
273.015524
  0
ARC
  8
0
 62
   249
 10
237.434151
 20
178.75
 30
0.0
 40
1.251733
 50
86.984476
 51
273.015524
  0
LINE
  8
0
 62
   249
 10
237.5
 20
177.5
 30
0.0
 11
240.0
 21
177.5
 31
0.0
  0
LINE
  8
0
 62
   249
 10
237.5
 20
180.0
 30
0.0
 11
240.0
 21
180.0
 31
0.0
  0
LINE
  8
0
 62
   249
 10
240.0
 20
180.0
 30
0.0
 11
242.5
 21
180.0
 31
0.0
  0
LINE
  8
0
 62
   249
 10
240.0
 20
175.0
 30
0.0
 11
247.5
 21
175.0
 31
0.0
  0
LINE
  8
0
 62
   249
 10
240.0
 20
180.0
 30
0.0
 11
247.5
 21
180.0
 31
0.0
  0
LINE
  8
0
 62
   249
 10
240.0
 20
185.0
 30
0.0
 11
247.5
 21
185.0
 31
0.0
  0
LINE
  8
0
 62
   249
 10
237.5
 20
185.0
 30
0.0
 11
240.0
 21
185.0
 31
0.0
  0
LINE
  8
0
 62
   249
 10
237.5
 20
182.5
 30
0.0
 11
240.0
 21
182.5
 31
0.0
  0
ARC
  8
0
 62
   249
 10
237.434151
 20
183.75
 30
0.0
 40
1.251733
 50
86.984476
 51
273.015524
  0
ARC
  8
0
 62
   249
 10
237.434151
 20
181.25
 30
0.0
 40
1.251733
 50
86.984476
 51
273.015524
  0
LINE
  8
0
 62
   249
 10
237.5
 20
180.0
 30
0.0
 11
240.0
 21
180.0
 31
0.0
  0
LINE
  8
0
 62
   249
 10
232.5
 20
197.5
 30
0.0
 11
230.980133
 21
197.5
 31
0.0
  0
ARC
  8
0
 62
   249
 10
232.565849
 20
198.75
 30
0.0
 40
1.251733
 50
266.984476
 51
93.015524
  0
LINE
  8
0
 62
   249
 10
232.5
 20
200.0
 30
0.0
 11
230.980133
 21
200.0
 31
0.0
  0
LINE
  8
0
 62
   249
 10
232.5
 20
202.5
 30
0.0
 11
230.980133
 21
202.5
 31
0.0
  0
ARC
  8
0
 62
   249
 10
232.565849
 20
201.25
 30
0.0
 40
1.251733
 50
266.984476
 51
93.015524
  0
LINE
  8
0
 62
   249
 10
237.5
 20
195.0
 30
0.0
 11
240.0
 21
195.0
 31
0.0
  0
ARC
  8
0
 62
   249
 10
237.434151
 20
196.25
 30
0.0
 40
1.251733
 50
86.984476
 51
273.015524
  0
ARC
  8
0
 62
   249
 10
237.434151
 20
198.75
 30
0.0
 40
1.251733
 50
86.984476
 51
273.015524
  0
LINE
  8
0
 62
   249
 10
237.5
 20
197.5
 30
0.0
 11
240.0
 21
197.5
 31
0.0
  0
LINE
  8
0
 62
   249
 10
237.5
 20
200.0
 30
0.0
 11
240.0
 21
200.0
 31
0.0
  0
LINE
  8
0
 62
   249
 10
240.0
 20
200.0
 30
0.0
 11
242.5
 21
200.0
 31
0.0
  0
LINE
  8
0
 62
   249
 10
240.0
 20
195.0
 30
0.0
 11
247.5
 21
195.0
 31
0.0
  0
LINE
  8
0
 62
   249
 10
240.0
 20
200.0
 30
0.0
 11
247.5
 21
200.0
 31
0.0
  0
LINE
  8
0
 62
   249
 10
240.0
 20
205.0
 30
0.0
 11
247.5
 21
205.0
 31
0.0
  0
LINE
  8
0
 62
   249
 10
237.5
 20
205.0
 30
0.0
 11
240.0
 21
205.0
 31
0.0
  0
LINE
  8
0
 62
   249
 10
237.5
 20
202.5
 30
0.0
 11
240.0
 21
202.5
 31
0.0
  0
ARC
  8
0
 62
   249
 10
237.434151
 20
203.75
 30
0.0
 40
1.251733
 50
86.984476
 51
273.015524
  0
ARC
  8
0
 62
   249
 10
237.434151
 20
201.25
 30
0.0
 40
1.251733
 50
86.984476
 51
273.015524
  0
LINE
  8
0
 62
   249
 10
237.5
 20
200.0
 30
0.0
 11
240.0
 21
200.0
 31
0.0
  0
LINE
  8
0
 62
   249
 10
232.5
 20
217.5
 30
0.0
 11
230.980133
 21
217.5
 31
0.0
  0
ARC
  8
0
 62
   249
 10
232.565849
 20
218.75
 30
0.0
 40
1.251733
 50
266.984476
 51
93.015524
  0
LINE
  8
0
 62
   249
 10
232.5
 20
220.0
 30
0.0
 11
230.980133
 21
220.0
 31
0.0
  0
LINE
  8
0
 62
   249
 10
232.5
 20
222.5
 30
0.0
 11
230.980133
 21
222.5
 31
0.0
  0
ARC
  8
0
 62
   249
 10
232.565849
 20
221.25
 30
0.0
 40
1.251733
 50
266.984476
 51
93.015524
  0
LINE
  8
0
 62
   249
 10
237.5
 20
215.0
 30
0.0
 11
240.0
 21
215.0
 31
0.0
  0
ARC
  8
0
 62
   249
 10
237.434151
 20
216.25
 30
0.0
 40
1.251733
 50
86.984476
 51
273.015524
  0
ARC
  8
0
 62
   249
 10
237.434151
 20
218.75
 30
0.0
 40
1.251733
 50
86.984476
 51
273.015524
  0
LINE
  8
0
 62
   249
 10
237.5
 20
217.5
 30
0.0
 11
240.0
 21
217.5
 31
0.0
  0
LINE
  8
0
 62
   249
 10
237.5
 20
220.0
 30
0.0
 11
240.0
 21
220.0
 31
0.0
  0
LINE
  8
0
 62
   249
 10
240.0
 20
220.0
 30
0.0
 11
242.5
 21
220.0
 31
0.0
  0
LINE
  8
0
 62
   249
 10
240.0
 20
215.0
 30
0.0
 11
247.5
 21
215.0
 31
0.0
  0
LINE
  8
0
 62
   249
 10
240.0
 20
220.0
 30
0.0
 11
242.5
 21
220.0
 31
0.0
  0
LINE
  8
0
 62
   249
 10
240.0
 20
225.0
 30
0.0
 11
242.5
 21
225.0
 31
0.0
  0
LINE
  8
0
 62
   249
 10
237.5
 20
225.0
 30
0.0
 11
247.5
 21
225.0
 31
0.0
  0
LINE
  8
0
 62
   249
 10
237.5
 20
222.5
 30
0.0
 11
240.0
 21
222.5
 31
0.0
  0
ARC
  8
0
 62
   249
 10
237.434151
 20
223.75
 30
0.0
 40
1.251733
 50
86.984476
 51
273.015524
  0
ARC
  8
0
 62
   249
 10
237.434151
 20
221.25
 30
0.0
 40
1.251733
 50
86.984476
 51
273.015524
  0
LINE
  8
0
 62
   249
 10
237.5
 20
220.0
 30
0.0
 11
247.5
 21
220.0
 31
0.0
  0
TEXT
  8
0
  6
CONTINUOUS
 62
   249
 10
243.784516
 20
222.163714
 30
0.0
 40
2.0
  1
3
  7
ROMANS
  0
TEXT
  8
0
  6
CONTINUOUS
 62
   249
 10
243.784516
 20
217.199365
 30
0.0
 40
2.0
  1
2
  7
ROMANS
  0
TEXT
  8
0
  6
CONTINUOUS
 62
   249
 10
243.784516
 20
212.246037
 30
0.0
 40
2.0
  1
1
  7
ROMANS
  0
TEXT
  8
0
  6
CONTINUOUS
 62
   249
 10
243.784516
 20
182.106638
 30
0.0
 40
2.0
  1
9
  7
ROMANS
  0
TEXT
  8
0
  6
CONTINUOUS
 62
   249
 10
243.784516
 20
177.505961
 30
0.0
 40
2.0
  1
8
  7
ROMANS
  0
TEXT
  8
0
  6
CONTINUOUS
 62
   249
 10
243.784516
 20
172.001615
 30
0.0
 40
2.0
  1
7
  7
ROMANS
  0
LINE
  8
0
  6
HIDDEN
 62
   249
 10
247.5
 20
230.0
 30
0.0
 11
242.5
 21
230.0
 31
0.0
  0
LINE
  8
0
  6
HIDDEN
 62
   249
 10
242.5
 20
230.0
 30
0.0
 11
242.5
 21
65.0
 31
0.0
  0
LINE
  8
0
  6
HIDDEN
 62
   249
 10
242.5
 20
65.0
 30
0.0
 11
247.5
 21
65.0
 31
0.0
  0
TEXT
  8
0
  6
HIDDEN
 62
   249
 10
243.429881
 20
226.186149
 30
0.0
 40
2.0
  1
X0
  7
ROMANS
  0
LINE
  8
0
  6
CONTINUOUS
 62
   249
 10
227.5
 20
140.0
 30
0.0
 11
220.0
 21
140.0
 31
0.0
  0
LINE
  8
0
  6
CONTINUOUS
 62
   249
 10
227.5
 20
200.0
 30
0.0
 11
220.0
 21
200.0
 31
0.0
  0
LINE
  8
0
  6
DASHED
 62
   249
 10
27.5
 20
220.0
 30
0.0
 11
20.0
 21
220.0
 31
0.0
  0
LINE
  8
0
  6
DASHED
 62
   249
 10
27.5
 20
212.5
 30
0.0
 11
20.0
 21
212.5
 31
0.0
  0
LINE
  8
0
  6
DASHED
 62
   249
 10
27.5
 20
207.5
 30
0.0
 11
20.0
 21
207.5
 31
0.0
  0
LINE
  8
0
  6
CONTINUOUS
 62
   249
 10
12.5
 20
207.499655
 30
0.0
 11
13.5
 21
206.499655
 31
0.0
  0
LINE
  8
0
  6
CONTINUOUS
 62
   249
 10
12.5
 20
220.0
 30
0.0
 11
13.5
 21
221.0
 31
0.0
  0
LINE
  8
0
  6
CONTINUOUS
 62
   249
 10
12.5
 20
220.0
 30
0.0
 11
12.5
 21
207.499655
 31
0.0
  0
LINE
  8
0
  6
DASHED
 62
   249
 10
27.5
 20
107.5
 30
0.0
 11
15.0
 21
107.5
 31
0.0
  0
LINE
  8
0
  6
DASHED
 62
   249
 10
27.5
 20
97.5
 30
0.0
 11
15.0
 21
97.5
 31
0.0
  0
LINE
  8
0
  6
DASHED
 62
   249
 10
27.5
 20
92.5
 30
0.0
 11
15.0
 21
92.5
 31
0.0
  0
LINE
  8
0
  6
DASHED
 62
   249
 10
27.5
 20
82.5
 30
0.0
 11
15.0
 21
82.5
 31
0.0
  0
LINE
  8
0
  6
DASHED
 62
   249
 10
27.5
 20
77.5
 30
0.0
 11
15.0
 21
77.5
 31
0.0
  0
LINE
  8
0
  6
CONTINUOUS
 62
   249
 10
12.5
 20
92.5
 30
0.0
 11
13.5
 21
93.5
 31
0.0
  0
LINE
  8
0
  6
CONTINUOUS
 62
   249
 10
12.5
 20
67.499655
 30
0.0
 11
13.5
 21
66.499655
 31
0.0
  0
LINE
  8
0
  6
CONTINUOUS
 62
   249
 10
12.5
 20
92.5
 30
0.0
 11
12.5
 21
67.499655
 31
0.0
  0
TEXT
  8
0
  6
CONTINUOUS
 62
   249
 10
354.653959
 20
81.078617
 30
0.0
 40
2.0
  1
In=1A
  7
ROMANS
  0
TEXT
  8
0
  6
CONTINUOUS
 62
   249
 10
325.789791
 20
66.896057
 30
0.0
 40
2.0
  1
L3
  7
ROMANS
  0
TEXT
  8
0
  6
CONTINUOUS
 62
   249
 10
355.810381
 20
66.824096
 30
0.0
 40
2.0
  1
7-9
  7
ROMANS
  0
TEXT
  8
0
  6
CONTINUOUS
 62
   249
 10
370.95038
 20
66.824096
 30
0.0
 40
2.0
  1
7-8
  7
ROMANS
  0
TEXT
  8
0
  6
CONTINUOUS
 62
   249
 10
191.037884
 20
176.452113
 30
0.0
 40
2.5
  1
U
  7
GREEKS
  0
TEXT
  8
0
  6
CONTINUOUS
 62
   249
 10
243.178282
 20
162.294439
 30
0.0
 40
2.0
  1
37
  7
ROMANS
  0
TEXT
  8
0
  6
CONTINUOUS
 62
   249
 10
243.178282
 20
157.245957
 30
0.0
 40
2.0
  1
38
  7
ROMANS
  0
TEXT
  8
0
  6
CONTINUOUS
 62
   249
 10
243.178282
 20
152.197475
 30
0.0
 40
2.0
  1
39
  7
ROMANS
  0
LINE
  8
0
 62
   249
 10
337.029564
 20
80.430298
 30
0.0
 11
382.088281
 21
80.430298
 31
0.0
  0
TEXT
  8
0
  6
DASHED
 62
   249
 10
369.657013
 20
81.078617
 30
0.0
 40
2.0
  1
In=5A
  7
ROMANS
  0
TEXT
  8
0
  6
DASHED
 62
   249
 10
325.789791
 20
75.127616
 30
0.0
 40
2.0
  1
L1            
  7
ROMANS
  0
TEXT
  8
0
  6
DASHED
 62
   249
 10
355.980301
 20
75.127616
 30
0.0
 40
2.0
  1
1-3
  7
ROMANS
  0
TEXT
  8
0
  6
DASHED
 62
   249
 10
371.135516
 20
75.127616
 30
0.0
 40
2.0
  1
1-2
  7
ROMANS
  0
TEXT
  8
0
  6
CONTINUOUS
 62
   249
 10
337.740689
 20
51.956262
 30
0.0
 40
2.0
  1
Un=100V
  7
ROMANS
  0
TEXT
  8
0
  6
CONTINUOUS
 62
   249
 10
353.061279
 20
51.956262
 30
0.0
 40
2.0
  1
Un=110V
  7
ROMANS
  0
TEXT
  8
0
  6
CONTINUOUS
 62
   249
 10
339.169373
 20
47.432795
 30
0.0
 40
2.0
  1
28-29
  7
ROMANS
  0
TEXT
  8
0
  6
CONTINUOUS
 62
   249
 10
355.167156
 20
47.432795
 30
0.0
 40
2.0
  1
28-30
  7
ROMANS
  0
LINE
  8
0
  6
CONTINUOUS
 62
   249
 10
35.0
 20
207.5
 30
0.0
 11
27.5
 21
207.5
 31
0.0
  0
LINE
  8
0
  6
CONTINUOUS
 62
   249
 10
35.0
 20
215.0
 30
0.0
 11
35.0
 21
207.5
 31
0.0
  0
LINE
  8
0
  6
CONTINUOUS
 62
   249
 10
177.400936
 20
179.960055
 30
0.0
 11
179.900936
 21
179.960055
 31
0.0
  0
LINE
  8
0
  6
CONTINUOUS
 62
   249
 10
177.400936
 20
179.960055
 30
0.0
 11
175.176489
 21
179.399413
 31
0.0
  0
LINE
  8
0
  6
CONTINUOUS
 62
   249
 10
172.400936
 20
179.960055
 30
0.0
 11
174.900936
 21
179.960055
 31
0.0
  0
TEXT
  8
0
  6
HIDDEN
 62
   249
 10
168.580478
 20
179.226807
 30
0.0
 40
1.5
  1
EN
  0
TEXT
  8
0
  6
HIDDEN
 62
   249
 10
168.580478
 20
182.167847
 30
0.0
 40
1.5
  1
EN
  0
LINE
  8
0
  6
CONTINUOUS
 62
   249
 10
172.400936
 20
182.901095
 30
0.0
 11
174.900936
 21
182.901095
 31
0.0
  0
LINE
  8
0
  6
CONTINUOUS
 62
   249
 10
177.400936
 20
182.901095
 30
0.0
 11
175.176489
 21
182.340453
 31
0.0
  0
LINE
  8
0
  6
CONTINUOUS
 62
   249
 10
177.400936
 20
182.901095
 30
0.0
 11
179.900936
 21
182.901095
 31
0.0
  0
LINE
  8
0
  6
CONTINUOUS
 62
   249
 10
165.51273
 20
164.971652
 30
0.0
 11
157.5
 21
164.971652
 31
0.0
  0
LINE
  8
0
  6
CONTINUOUS
 62
   249
 10
165.51273
 20
168.000813
 30
0.0
 11
155.0
 21
168.000813
 31
0.0
  0
CIRCLE
  8
0
  6
CONTINUOUS
 62
   249
 10
166.512659
 20
167.994509
 30
0.0
 40
1.0
  0
CIRCLE
  8
0
  6
CONTINUOUS
 62
   249
 10
166.512659
 20
164.965349
 30
0.0
 40
1.0
  0
LINE
  8
0
  6
CONTINUOUS
 62
   249
 10
178.931134
 20
177.590902
 30
0.0
 11
178.931134
 21
175.80277
 31
0.0
  0
LINE
  8
0
  6
CONTINUOUS
 62
   249
 10
178.962165
 20
176.745623
 30
0.0
 11
186.75037
 21
176.745623
 31
0.0
  0
LINE
  8
0
  6
CONTINUOUS
 62
   249
 10
183.791717
 20
178.943786
 30
0.0
 11
184.692394
 21
177.820037
 31
0.0
  0
LINE
  8
0
  6
CONTINUOUS
 62
   249
 10
181.34631
 20
175.578021
 30
0.0
 11
184.22242
 21
178.406579
 31
0.0
  0
LINE
  8
0
  6
CONTINUOUS
 62
   249
 10
186.745829
 20
177.590902
 30
0.0
 11
186.745829
 21
175.80277
 31
0.0
  0
LINE
  8
0
  6
CONTINUOUS
 62
   249
 10
173.329204
 20
173.561795
 30
0.0
 11
175.674969
 21
172.226442
 31
0.0
  0
LINE
  8
0
  6
CONTINUOUS
 62
   249
 10
175.674969
 20
172.226442
 30
0.0
 11
173.329204
 21
171.036523
 31
0.0
  0
LINE
  8
0
  6
CONTINUOUS
 62
   249
 10
175.071688
 20
173.561795
 30
0.0
 11
177.417454
 21
172.226442
 31
0.0
  0
LINE
  8
0
  6
CONTINUOUS
 62
   249
 10
177.417454
 20
172.226442
 30
0.0
 11
175.071688
 21
171.036523
 31
0.0
  0
LINE
  8
0
  6
CONTINUOUS
 62
   249
 10
177.400936
 20
167.901095
 30
0.0
 11
179.900936
 21
167.901095
 31
0.0
  0
LINE
  8
0
  6
CONTINUOUS
 62
   249
 10
177.400936
 20
167.901095
 30
0.0
 11
175.176489
 21
167.340453
 31
0.0
  0
LINE
  8
0
  6
CONTINUOUS
 62
   249
 10
172.400936
 20
167.901095
 30
0.0
 11
174.900936
 21
167.901095
 31
0.0
  0
TEXT
  8
0
  6
HIDDEN
 62
   249
 10
168.580478
 20
167.167847
 30
0.0
 40
1.5
  1
EN
  0
TEXT
  8
0
  6
HIDDEN
 62
   249
 10
168.580478
 20
164.226807
 30
0.0
 40
1.5
  1
EN
  0
LINE
  8
0
  6
CONTINUOUS
 62
   249
 10
172.400936
 20
164.960055
 30
0.0
 11
174.900936
 21
164.960055
 31
0.0
  0
LINE
  8
0
  6
CONTINUOUS
 62
   249
 10
177.400936
 20
164.960055
 30
0.0
 11
175.176489
 21
164.399413
 31
0.0
  0
LINE
  8
0
  6
CONTINUOUS
 62
   249
 10
177.400936
 20
164.960055
 30
0.0
 11
179.900936
 21
164.960055
 31
0.0
  0
LINE
  8
0
  6
CONTINUOUS
 62
   249
 10
186.745829
 20
162.489158
 30
0.0
 11
186.745829
 21
160.701026
 31
0.0
  0
LINE
  8
0
  6
CONTINUOUS
 62
   249
 10
181.34631
 20
160.476276
 30
0.0
 11
184.22242
 21
163.304835
 31
0.0
  0
LINE
  8
0
  6
CONTINUOUS
 62
   249
 10
183.791717
 20
163.842042
 30
0.0
 11
184.692394
 21
162.718293
 31
0.0
  0
LINE
  8
0
  6
CONTINUOUS
 62
   249
 10
178.962165
 20
161.643879
 30
0.0
 11
186.75037
 21
161.643879
 31
0.0
  0
LINE
  8
0
  6
CONTINUOUS
 62
   249
 10
178.931134
 20
162.489158
 30
0.0
 11
178.931134
 21
160.701026
 31
0.0
  0
TEXT
  8
0
  6
CONTINUOUS
 62
   249
 10
192.5
 20
185.775586
 30
0.0
 40
2.5
  1
U2
  7
ROMANS
  0
ARC
  8
0
 62
   249
 10
237.434151
 20
121.25
 30
0.0
 40
1.251733
 50
86.984476
 51
273.015524
  0
ARC
  8
0
 62
   249
 10
237.434151
 20
123.75
 30
0.0
 40
1.251733
 50
86.984476
 51
273.015524
  0
LINE
  8
0
 62
   249
 10
237.5
 20
122.5
 30
0.0
 11
240.0
 21
122.5
 31
0.0
  0
LINE
  8
0
 62
   249
 10
240.0
 20
125.0
 30
0.0
 11
242.5
 21
125.0
 31
0.0
  0
LINE
  8
0
 62
   249
 10
240.0
 20
120.0
 30
0.0
 11
242.5
 21
120.0
 31
0.0
  0
LINE
  8
0
 62
   249
 10
240.0
 20
120.0
 30
0.0
 11
242.5
 21
120.0
 31
0.0
  0
LINE
  8
0
 62
   249
 10
237.5
 20
120.0
 30
0.0
 11
247.5
 21
120.0
 31
0.0
  0
LINE
  8
0
 62
   249
 10
237.5
 20
117.5
 30
0.0
 11
240.0
 21
117.5
 31
0.0
  0
ARC
  8
0
 62
   249
 10
237.434151
 20
118.75
 30
0.0
 40
1.251733
 50
86.984476
 51
273.015524
  0
ARC
  8
0
 62
   249
 10
237.434151
 20
116.25
 30
0.0
 40
1.251733
 50
86.984476
 51
273.015524
  0
LINE
  8
0
 62
   249
 10
237.5
 20
115.0
 30
0.0
 11
240.0
 21
115.0
 31
0.0
  0
ARC
  8
0
 62
   249
 10
232.565849
 20
121.25
 30
0.0
 40
1.251733
 50
266.984476
 51
93.015524
  0
LINE
  8
0
 62
   249
 10
232.5
 20
122.5
 30
0.0
 11
230.980133
 21
122.5
 31
0.0
  0
LINE
  8
0
 62
   249
 10
232.5
 20
120.0
 30
0.0
 11
230.980133
 21
120.0
 31
0.0
  0
ARC
  8
0
 62
   249
 10
232.565849
 20
118.75
 30
0.0
 40
1.251733
 50
266.984476
 51
93.015524
  0
LINE
  8
0
 62
   249
 10
232.5
 20
117.5
 30
0.0
 11
230.980133
 21
117.5
 31
0.0
  0
LINE
  8
0
 62
   249
 10
237.5
 20
95.0
 30
0.0
 11
240.0
 21
95.0
 31
0.0
  0
ARC
  8
0
 62
   249
 10
237.434151
 20
96.25
 30
0.0
 40
1.251733
 50
86.984476
 51
273.015524
  0
ARC
  8
0
 62
   249
 10
237.434151
 20
98.75
 30
0.0
 40
1.251733
 50
86.984476
 51
273.015524
  0
LINE
  8
0
 62
   249
 10
237.5
 20
97.5
 30
0.0
 11
240.0
 21
97.5
 31
0.0
  0
LINE
  8
0
 62
   249
 10
240.0
 20
95.0
 30
0.0
 11
242.5
 21
95.0
 31
0.0
  0
LINE
  8
0
 62
   249
 10
237.5
 20
95.0
 30
0.0
 11
247.5
 21
95.0
 31
0.0
  0
LINE
  8
0
 62
   249
 10
237.5
 20
92.5
 30
0.0
 11
240.0
 21
92.5
 31
0.0
  0
ARC
  8
0
 62
   249
 10
237.434151
 20
93.75
 30
0.0
 40
1.251733
 50
86.984476
 51
273.015524
  0
ARC
  8
0
 62
   249
 10
237.434151
 20
91.25
 30
0.0
 40
1.251733
 50
86.984476
 51
273.015524
  0
LINE
  8
0
 62
   249
 10
237.5
 20
90.0
 30
0.0
 11
240.0
 21
90.0
 31
0.0
  0
ARC
  8
0
 62
   249
 10
232.565849
 20
96.25
 30
0.0
 40
1.251733
 50
266.984476
 51
93.015524
  0
LINE
  8
0
 62
   249
 10
232.5
 20
97.5
 30
0.0
 11
230.980133
 21
97.5
 31
0.0
  0
LINE
  8
0
 62
   249
 10
232.5
 20
95.0
 30
0.0
 11
230.980133
 21
95.0
 31
0.0
  0
ARC
  8
0
 62
   249
 10
232.565849
 20
93.75
 30
0.0
 40
1.251733
 50
266.984476
 51
93.015524
  0
LINE
  8
0
 62
   249
 10
232.5
 20
92.5
 30
0.0
 11
230.980133
 21
92.5
 31
0.0
  0
LINE
  8
0
 62
   249
 10
237.5
 20
75.0
 30
0.0
 11
240.0
 21
75.0
 31
0.0
  0
ARC
  8
0
 62
   249
 10
237.434151
 20
76.25
 30
0.0
 40
1.251733
 50
86.984476
 51
273.015524
  0
ARC
  8
0
 62
   249
 10
237.434151
 20
78.75
 30
0.0
 40
1.251733
 50
86.984476
 51
273.015524
  0
LINE
  8
0
 62
   249
 10
237.5
 20
77.5
 30
0.0
 11
240.0
 21
77.5
 31
0.0
  0
LINE
  8
0
 62
   249
 10
240.0
 20
75.0
 30
0.0
 11
242.5
 21
75.0
 31
0.0
  0
LINE
  8
0
 62
   249
 10
237.5
 20
75.0
 30
0.0
 11
247.5
 21
75.0
 31
0.0
  0
LINE
  8
0
 62
   249
 10
237.5
 20
72.5
 30
0.0
 11
240.0
 21
72.5
 31
0.0
  0
ARC
  8
0
 62
   249
 10
237.434151
 20
73.75
 30
0.0
 40
1.251733
 50
86.984476
 51
273.015524
  0
ARC
  8
0
 62
   249
 10
237.434151
 20
71.25
 30
0.0
 40
1.251733
 50
86.984476
 51
273.015524
  0
LINE
  8
0
 62
   249
 10
237.5
 20
70.0
 30
0.0
 11
240.0
 21
70.0
 31
0.0
  0
ARC
  8
0
 62
   249
 10
232.565849
 20
76.25
 30
0.0
 40
1.251733
 50
266.984476
 51
93.015524
  0
LINE
  8
0
 62
   249
 10
232.5
 20
77.5
 30
0.0
 11
230.980133
 21
77.5
 31
0.0
  0
LINE
  8
0
 62
   249
 10
232.5
 20
75.0
 30
0.0
 11
230.980133
 21
75.0
 31
0.0
  0
ARC
  8
0
 62
   249
 10
232.565849
 20
73.75
 30
0.0
 40
1.251733
 50
266.984476
 51
93.015524
  0
LINE
  8
0
 62
   249
 10
232.5
 20
72.5
 30
0.0
 11
230.980133
 21
72.5
 31
0.0
  0
LINE
  8
0
 62
   249
 10
237.5
 20
125.0
 30
0.0
 11
247.5
 21
125.0
 31
0.0
  0
LINE
  8
0
 62
   249
 10
240.0
 20
115.0
 30
0.0
 11
247.5
 21
115.0
 31
0.0
  0
LINE
  8
0
 62
   249
 10
237.5
 20
80.0
 30
0.0
 11
247.5
 21
80.0
 31
0.0
  0
LINE
  8
0
 62
   249
 10
240.0
 20
70.0
 30
0.0
 11
247.5
 21
70.0
 31
0.0
  0
LINE
  8
0
 62
   249
 10
240.0
 20
90.0
 30
0.0
 11
247.5
 21
90.0
 31
0.0
  0
LINE
  8
0
 62
   249
 10
237.5
 20
100.0
 30
0.0
 11
247.5
 21
100.0
 31
0.0
  0
LINE
  8
0
  6
CONTINUOUS
 62
   249
 10
227.5
 20
100.0
 30
0.0
 11
227.5
 21
72.5
 31
0.0
  0
LINE
  8
0
  6
CONTINUOUS
 62
   249
 10
227.5
 20
72.5
 30
0.0
 11
228.5
 21
71.5
 31
0.0
  0
LINE
  8
0
  6
CONTINUOUS
 62
   249
 10
227.5
 20
100.0
 30
0.0
 11
228.5
 21
101.0
 31
0.0
  0
TEXT
  8
0
  6
HIDDEN
 62
   249
 10
243.767203
 20
202.505131
 30
0.0
 40
2.0
  1
6
  7
ROMANS
  0
TEXT
  8
0
  6
HIDDEN
 62
   249
 10
243.767203
 20
197.453437
 30
0.0
 40
2.0
  1
5
  7
ROMANS
  0
TEXT
  8
0
  6
HIDDEN
 62
   249
 10
243.767203
 20
192.390728
 30
0.0
 40
2.0
  1
4
  7
ROMANS
  0
TEXT
  8
0
  6
HIDDEN
 62
   249
 10
242.720532
 20
122.459045
 30
0.0
 40
2.0
  1
30
  7
ROMANS
  0
TEXT
  8
0
  6
HIDDEN
 62
   249
 10
242.720532
 20
117.352276
 30
0.0
 40
2.0
  1
29
  7
ROMANS
  0
TEXT
  8
0
  6
HIDDEN
 62
   249
 10
242.720532
 20
112.344643
 30
0.0
 40
2.0
  1
28
  7
ROMANS
  0
TEXT
  8
0
  6
HIDDEN
 62
   249
 10
242.720532
 20
97.325125
 30
0.0
 40
2.0
  1
18
  7
ROMANS
  0
TEXT
  8
0
  6
HIDDEN
 62
   249
 10
242.720532
 20
92.328507
 30
0.0
 40
2.0
  1
17
  7
ROMANS
  0
TEXT
  8
0
  6
HIDDEN
 62
   249
 10
242.720532
 20
87.320874
 30
0.0
 40
2.0
  1
16
  7
ROMANS
  0
TEXT
  8
0
  6
HIDDEN
 62
   249
 10
242.948176
 20
77.455568
 30
0.0
 40
2.0
  1
21
  7
ROMANS
  0
TEXT
  8
0
  6
HIDDEN
 62
   249
 10
242.948176
 20
72.293723
 30
0.0
 40
2.0
  1
20
  7
ROMANS
  0
TEXT
  8
0
  6
HIDDEN
 62
   249
 10
242.948176
 20
67.297105
 30
0.0
 40
2.0
  1
19
  7
ROMANS
  0
LINE
  8
0
  6
CONTINUOUS
 62
   249
 10
227.5
 20
135.0
 30
0.0
 11
228.5
 21
134.0
 31
0.0
  0
LINE
  8
0
  6
CONTINUOUS
 62
   249
 10
227.5
 20
165.0
 30
0.0
 11
228.5
 21
166.0
 31
0.0
  0
LINE
  8
0
  6
CONTINUOUS
 62
   249
 10
227.5
 20
165.0
 30
0.0
 11
227.5
 21
155.0
 31
0.0
  0
TEXT
  8
0
  6
CONTINUOUS
 62
   249
 10
39.136438
 20
154.2654
 30
0.0
 40
2.0
  1
SGR
 50
90.0
  7
ROMANS
  0
LINE
  8
0
  6
CONTINUOUS
 62
   249
 10
42.5
 20
157.5
 30
0.0
 11
42.5
 21
177.5
 31
0.0
  0
LINE
  8
0
  6
CONTINUOUS
 62
   249
 10
42.5
 20
152.5
 30
0.0
 11
40.785914
 21
157.586297
 31
0.0
  0
LINE
  8
0
  6
CONTINUOUS
 62
   249
 10
42.5
 20
147.5
 30
0.0
 11
42.5
 21
152.5
 31
0.0
  0
TEXT
  8
0
  6
CONTINUOUS
 62
   249
 10
47.867753
 20
143.964455
 30
0.0
 40
2.5
  1
1
 11
47.867753
 21
143.131122
 31
0.0
 73
     1
  0
LINE
  8
0
  6
CONTINUOUS
 62
   249
 10
43.433891
 20
146.624549
 30
0.0
 11
45.779656
 21
145.289195
 31
0.0
  0
LINE
  8
0
  6
CONTINUOUS
 62
   249
 10
43.425849
 20
143.299262
 30
0.0
 11
45.80931
 21
144.487454
 31
0.0
  0
LINE
  8
0
  6
CONTINUOUS
 62
   249
 10
45.779656
 20
145.289195
 30
0.0
 11
43.433891
 21
144.099276
 31
0.0
  0
LINE
  8
0
  6
CONTINUOUS
 62
   249
 10
47.5
 20
150.0
 30
0.0
 11
47.5
 21
152.5
 31
0.0
  0
LINE
  8
0
  6
CONTINUOUS
 62
   249
 10
47.5
 20
142.5
 30
0.0
 11
47.5
 21
137.5
 31
0.0
  0
LINE
  8
0
  6
CONTINUOUS
 62
   249
 10
53.578314
 20
147.5
 30
0.0
 11
41.078314
 21
147.5
 31
0.0
  0
LINE
  8
0
  6
CONTINUOUS
 62
   249
 10
53.578314
 20
147.5
 30
0.0
 11
53.578314
 21
142.5
 31
0.0
  0
LINE
  8
0
  6
CONTINUOUS
 62
   249
 10
45.0
 20
147.5
 30
0.0
 11
45.0
 21
194.492731
 31
0.0
  0
LINE
  8
0
  6
CONTINUOUS
 62
   249
 10
41.078314
 20
142.5
 30
0.0
 11
53.578314
 21
142.5
 31
0.0
  0
LINE
  8
0
  6
CONTINUOUS
 62
   249
 10
41.078314
 20
147.5
 30
0.0
 11
41.078314
 21
142.5
 31
0.0
  0
LINE
  8
0
  6
CONTINUOUS
 62
   249
 10
55.0
 20
147.5
 30
0.0
 11
65.0
 21
147.5
 31
0.0
  0
LINE
  8
0
  6
CONTINUOUS
 62
   249
 10
65.0
 20
147.5
 30
0.0
 11
65.0
 21
142.5
 31
0.0
  0
LINE
  8
0
  6
CONTINUOUS
 62
   249
 10
65.0
 20
142.5
 30
0.0
 11
55.0
 21
142.5
 31
0.0
  0
LINE
  8
0
  6
CONTINUOUS
 62
   249
 10
55.0
 20
142.5
 30
0.0
 11
55.0
 21
147.5
 31
0.0
  0
LINE
  8
0
  6
CONTINUOUS
 62
   249
 10
59.207396
 20
145.289195
 30
0.0
 11
56.86163
 21
144.099276
 31
0.0
  0
LINE
  8
0
  6
CONTINUOUS
 62
   249
 10
56.853589
 20
143.299262
 30
0.0
 11
59.237049
 21
144.487454
 31
0.0
  0
LINE
  8
0
  6
CONTINUOUS
 62
   249
 10
56.86163
 20
146.624549
 30
0.0
 11
59.207396
 21
145.289195
 31
0.0
  0
TEXT
  8
0
  6
CONTINUOUS
 62
   249
 10
61.295492
 20
143.964455
 30
0.0
 40
2.5
  1
1
 11
61.295492
 21
143.131122
 31
0.0
 73
     1
  0
TEXT
  8
0
  6
CONTINUOUS
 62
   249
 10
73.795492
 20
143.964455
 30
0.0
 40
2.5
  1
1
 11
73.795492
 21
143.131122
 31
0.0
 73
     1
  0
LINE
  8
0
  6
CONTINUOUS
 62
   249
 10
69.36163
 20
146.624549
 30
0.0
 11
71.707396
 21
145.289195
 31
0.0
  0
LINE
  8
0
  6
CONTINUOUS
 62
   249
 10
69.353589
 20
143.299262
 30
0.0
 11
71.737049
 21
144.487454
 31
0.0
  0
LINE
  8
0
  6
CONTINUOUS
 62
   249
 10
71.707396
 20
145.289195
 30
0.0
 11
69.36163
 21
144.099276
 31
0.0
  0
LINE
  8
0
  6
CONTINUOUS
 62
   249
 10
67.5
 20
142.5
 30
0.0
 11
67.5
 21
147.5
 31
0.0
  0
LINE
  8
0
  6
CONTINUOUS
 62
   249
 10
77.5
 20
142.5
 30
0.0
 11
67.5
 21
142.5
 31
0.0
  0
LINE
  8
0
  6
CONTINUOUS
 62
   249
 10
77.5
 20
147.5
 30
0.0
 11
77.5
 21
142.5
 31
0.0
  0
LINE
  8
0
  6
CONTINUOUS
 62
   249
 10
67.5
 20
147.5
 30
0.0
 11
77.5
 21
147.5
 31
0.0
  0
LINE
  8
0
  6
CONTINUOUS
 62
   249
 10
80.0
 20
147.5
 30
0.0
 11
90.0
 21
147.5
 31
0.0
  0
LINE
  8
0
  6
CONTINUOUS
 62
   249
 10
90.0
 20
147.5
 30
0.0
 11
90.0
 21
142.5
 31
0.0
  0
LINE
  8
0
  6
CONTINUOUS
 62
   249
 10
90.0
 20
142.5
 30
0.0
 11
80.0
 21
142.5
 31
0.0
  0
LINE
  8
0
  6
CONTINUOUS
 62
   249
 10
80.0
 20
142.5
 30
0.0
 11
80.0
 21
147.5
 31
0.0
  0
LINE
  8
0
  6
CONTINUOUS
 62
   249
 10
84.207396
 20
145.289195
 30
0.0
 11
81.86163
 21
144.099276
 31
0.0
  0
LINE
  8
0
  6
CONTINUOUS
 62
   249
 10
81.853589
 20
143.299262
 30
0.0
 11
84.237049
 21
144.487454
 31
0.0
  0
LINE
  8
0
  6
CONTINUOUS
 62
   249
 10
81.86163
 20
146.624549
 30
0.0
 11
84.207396
 21
145.289195
 31
0.0
  0
TEXT
  8
0
  6
CONTINUOUS
 62
   249
 10
86.295492
 20
143.964455
 30
0.0
 40
2.5
  1
1
 11
86.295492
 21
143.131122
 31
0.0
 73
     1
  0
LINE
  8
0
  6
CONTINUOUS
 62
   249
 10
82.5
 20
147.5
 30
0.0
 11
82.5
 21
152.5
 31
0.0
  0
LINE
  8
0
  6
CONTINUOUS
 62
   249
 10
82.5
 20
152.5
 30
0.0
 11
80.785914
 21
157.586297
 31
0.0
  0
LINE
  8
0
  6
CONTINUOUS
 62
   249
 10
82.5
 20
157.5
 30
0.0
 11
82.5
 21
160.0
 31
0.0
  0
LINE
  8
0
  6
CONTINUOUS
 62
   249
 10
75.0
 20
147.5
 30
0.0
 11
75.0
 21
152.5
 31
0.0
  0
LINE
  8
0
  6
CONTINUOUS
 62
   249
 10
75.0
 20
152.5
 30
0.0
 11
73.285914
 21
157.586297
 31
0.0
  0
LINE
  8
0
  6
CONTINUOUS
 62
   249
 10
75.0
 20
157.5
 30
0.0
 11
75.0
 21
170.0
 31
0.0
  0
LINE
  8
0
  6
CONTINUOUS
 62
   249
 10
62.5
 20
157.5
 30
0.0
 11
62.5
 21
170.0
 31
0.0
  0
LINE
  8
0
  6
CONTINUOUS
 62
   249
 10
62.5
 20
152.5
 30
0.0
 11
60.785914
 21
157.586297
 31
0.0
  0
LINE
  8
0
  6
CONTINUOUS
 62
   249
 10
62.5
 20
147.5
 30
0.0
 11
62.5
 21
152.5
 31
0.0
  0
LINE
  8
0
  6
CONTINUOUS
 62
   249
 10
57.5
 20
147.5
 30
0.0
 11
57.5
 21
152.5
 31
0.0
  0
LINE
  8
0
  6
CONTINUOUS
 62
   249
 10
57.5
 20
152.5
 30
0.0
 11
55.785914
 21
157.586297
 31
0.0
  0
TEXT
  8
0
  6
CONTINUOUS
 62
   249
 10
42.174687
 20
155.0
 30
0.0
 40
2.0
  1
3
  7
ROMANS
  0
TEXT
  8
0
  6
CONTINUOUS
 62
   249
 10
57.235509
 20
155.0
 30
0.0
 40
2.0
  1
2
  7
ROMANS
  0
TEXT
  8
0
  6
CONTINUOUS
 62
   249
 10
62.337321
 20
155.0
 30
0.0
 40
2.0
  1
7
  7
ROMANS
  0
TEXT
  8
0
  6
CONTINUOUS
 62
   249
 10
75.158737
 20
155.0
 30
0.0
 40
2.0
  1
8
  7
ROMANS
  0
TEXT
  8
0
  6
CONTINUOUS
 62
   249
 10
82.832204
 20
155.0
 30
0.0
 40
2.0
  1
1
  7
ROMANS
  0
LINE
  8
0
  6
CONTINUOUS
 62
   249
 10
47.5
 20
147.5
 30
0.0
 11
47.5
 21
204.665835
 31
0.0
  0
LINE
  8
0
  6
CONTINUOUS
 62
   249
 10
45.0
 20
132.5
 30
0.0
 11
27.5
 21
132.5
 31
0.0
  0
LINE
  8
0
  6
CONTINUOUS
 62
   249
 10
52.5
 20
132.5
 30
0.0
 11
52.5
 21
127.5
 31
0.0
  0
LINE
  8
0
  6
CONTINUOUS
 62
   249
 10
52.5
 20
127.5
 30
0.0
 11
27.5
 21
127.5
 31
0.0
  0
LINE
  8
0
  6
CONTINUOUS
 62
   249
 10
50.0
 20
132.5
 30
0.0
 11
52.5
 21
132.5
 31
0.0
  0
LINE
  8
0
  6
CONTINUOUS
 62
   249
 10
65.0
 20
122.5
 30
0.0
 11
65.0
 21
117.5
 31
0.0
  0
LINE
  8
0
  6
CONTINUOUS
 62
   249
 10
65.0
 20
117.5
 30
0.0
 11
27.5
 21
117.5
 31
0.0
  0
LINE
  8
0
  6
CONTINUOUS
 62
   249
 10
108.318812
 20
137.5
 30
0.0
 11
108.318812
 21
132.5
 31
0.0
  0
LINE
  8
0
  6
CONTINUOUS
 62
   249
 10
108.318812
 20
132.5
 30
0.0
 11
100.818812
 21
132.5
 31
0.0
  0
LINE
  8
0
  6
CONTINUOUS
 62
   249
 10
100.818812
 20
132.5
 30
0.0
 11
100.818812
 21
137.5
 31
0.0
  0
LINE
  8
0
  6
CONTINUOUS
 62
   249
 10
100.818812
 20
137.5
 30
0.0
 11
108.318812
 21
137.5
 31
0.0
  0
LINE
  8
0
  6
CONTINUOUS
 62
   249
 10
111.41379
 20
137.5
 30
0.0
 11
123.530389
 21
137.5
 31
0.0
  0
LINE
  8
0
  6
CONTINUOUS
 62
   249
 10
123.530389
 20
137.5
 30
0.0
 11
123.530389
 21
132.5
 31
0.0
  0
LINE
  8
0
  6
CONTINUOUS
 62
   249
 10
123.530389
 20
132.5
 30
0.0
 11
111.41379
 21
132.5
 31
0.0
  0
LINE
  8
0
  6
CONTINUOUS
 62
   249
 10
111.41379
 20
132.5
 30
0.0
 11
111.41379
 21
137.5
 31
0.0
  0
LINE
  8
0
  6
CONTINUOUS
 62
   249
 10
116.829949
 20
135.289195
 30
0.0
 11
114.484184
 21
134.099276
 31
0.0
  0
LINE
  8
0
  6
CONTINUOUS
 62
   249
 10
114.476142
 20
133.299262
 30
0.0
 11
116.859603
 21
134.487454
 31
0.0
  0
LINE
  8
0
  6
CONTINUOUS
 62
   249
 10
114.484184
 20
136.624549
 30
0.0
 11
116.829949
 21
135.289195
 31
0.0
  0
TEXT
  8
0
  6
CONTINUOUS
 62
   249
 10
118.918046
 20
133.964455
 30
0.0
 40
2.5
  1
1
 11
118.918046
 21
133.131122
 31
0.0
 73
     1
  0
TEXT
  8
0
  6
CONTINUOUS
 62
   249
 10
133.151854
 20
133.964455
 30
0.0
 40
2.5
  1
1
 11
133.151854
 21
133.131122
 31
0.0
 73
     1
  0
LINE
  8
0
  6
CONTINUOUS
 62
   249
 10
128.717992
 20
136.624549
 30
0.0
 11
131.063758
 21
135.289195
 31
0.0
  0
LINE
  8
0
  6
CONTINUOUS
 62
   249
 10
128.70995
 20
133.299262
 30
0.0
 11
131.093411
 21
134.487454
 31
0.0
  0
LINE
  8
0
  6
CONTINUOUS
 62
   249
 10
131.063758
 20
135.289195
 30
0.0
 11
128.717992
 21
134.099276
 31
0.0
  0
LINE
  8
0
  6
CONTINUOUS
 62
   249
 10
125.0
 20
132.5
 30
0.0
 11
125.0
 21
137.5
 31
0.0
  0
LINE
  8
0
  6
CONTINUOUS
 62
   249
 10
137.5
 20
132.5
 30
0.0
 11
125.0
 21
132.5
 31
0.0
  0
LINE
  8
0
  6
CONTINUOUS
 62
   249
 10
137.5
 20
137.5
 30
0.0
 11
137.5
 21
132.5
 31
0.0
  0
LINE
  8
0
  6
CONTINUOUS
 62
   249
 10
125.0
 20
137.5
 30
0.0
 11
137.5
 21
137.5
 31
0.0
  0
LINE
  8
0
  6
CONTINUOUS
 62
   249
 10
132.5
 20
90.0
 30
0.0
 11
132.5
 21
92.5
 31
0.0
  0
LINE
  8
0
  6
CONTINUOUS
 62
   249
 10
60.0
 20
135.0
 30
0.0
 11
60.0
 21
142.5
 31
0.0
  0
LINE
  8
0
  6
CONTINUOUS
 62
   249
 10
72.5
 20
135.0
 30
0.0
 11
72.5
 21
142.5
 31
0.0
  0
LINE
  8
0
  6
CONTINUOUS
 62
   249
 10
85.0
 20
135.0
 30
0.0
 11
85.0
 21
142.5
 31
0.0
  0
LINE
  8
0
  6
CONTINUOUS
 62
   249
 10
105.818812
 20
132.5
 30
0.0
 11
105.818812
 21
57.5
 31
0.0
  0
LINE
  8
0
  6
CONTINUOUS
 62
   249
 10
115.0
 20
132.5
 30
0.0
 11
115.0
 21
57.5
 31
0.0
  0
LINE
  8
0
  6
CONTINUOUS
 62
   249
 10
132.5
 20
132.5
 30
0.0
 11
132.5
 21
57.5
 31
0.0
  0
TEXT
  8
0
  6
CONTINUOUS
 62
   249
 10
103.806984
 20
133.955036
 30
0.0
 40
2.5
  1
&
  7
GREEKS
  0
CIRCLE
  8
0
  6
CONTINUOUS
 62
   249
 10
103.318318
 20
138.207385
 30
0.0
 40
0.707409
  0
LINE
  8
0
  6
CONTINUOUS
 62
   249
 10
82.5
 20
160.0
 30
0.0
 11
82.5
 21
212.5
 31
0.0
  0
LINE
  8
0
  6
CONTINUOUS
 62
   249
 10
82.5
 20
212.5
 30
0.0
 11
167.5
 21
212.5
 31
0.0
  0
LINE
  8
0
  6
CONTINUOUS
 62
   249
 10
85.0
 20
147.5
 30
0.0
 11
85.0
 21
200.0
 31
0.0
  0
LINE
  8
0
  6
CONTINUOUS
 62
   249
 10
85.0
 20
200.0
 30
0.0
 11
167.5
 21
200.0
 31
0.0
  0
LINE
  8
0
  6
CONTINUOUS
 62
   249
 10
95.0
 20
186.684312
 30
0.0
 11
167.5
 21
186.684312
 31
0.0
  0
LINE
  8
0
  6
CONTINUOUS
 62
   249
 10
52.5
 20
217.5
 30
0.0
 11
157.5
 21
217.5
 31
0.0
  0
LINE
  8
0
  6
CONTINUOUS
 62
   249
 10
157.5
 20
217.5
 30
0.0
 11
157.5
 21
164.971652
 31
0.0
  0
LINE
  8
0
  6
CONTINUOUS
 62
   249
 10
155.0
 20
210.0
 30
0.0
 11
155.0
 21
168.000813
 31
0.0
  0
LINE
  8
0
  6
CONTINUOUS
 62
   249
 10
132.5
 20
172.5
 30
0.0
 11
132.5
 21
137.5
 31
0.0
  0
LINE
  8
0
  6
CONTINUOUS
 62
   249
 10
42.5
 20
151.055194
 30
0.0
 11
103.318812
 21
151.055194
 31
0.0
  0
LINE
  8
0
  6
CONTINUOUS
 62
   249
 10
27.5
 20
107.5
 30
0.0
 11
70.0
 21
107.5
 31
0.0
  0
LINE
  8
0
  6
CONTINUOUS
 62
   249
 10
70.0
 20
102.5
 30
0.0
 11
27.5
 21
102.5
 31
0.0
  0
LINE
  8
0
  6
CONTINUOUS
 62
   249
 10
70.0
 20
102.5
 30
0.0
 11
70.0
 21
105.0
 31
0.0
  0
LINE
  8
0
  6
CONTINUOUS
 62
   249
 10
75.0
 20
107.5
 30
0.0
 11
77.5
 21
107.5
 31
0.0
  0
LINE
  8
0
  6
CONTINUOUS
 62
   249
 10
75.0
 20
107.5
 30
0.0
 11
69.256076
 21
104.285297
 31
0.0
  0
LINE
  8
0
  6
CONTINUOUS
 62
   249
 10
87.5
 20
92.5
 30
0.0
 11
81.756076
 21
89.285297
 31
0.0
  0
LINE
  8
0
  6
CONTINUOUS
 62
   249
 10
87.5
 20
92.5
 30
0.0
 11
90.0
 21
92.5
 31
0.0
  0
LINE
  8
0
  6
CONTINUOUS
 62
   249
 10
82.5
 20
87.5
 30
0.0
 11
82.5
 21
90.0
 31
0.0
  0
LINE
  8
0
  6
CONTINUOUS
 62
   249
 10
82.5
 20
87.5
 30
0.0
 11
27.5
 21
87.5
 31
0.0
  0
LINE
  8
0
  6
CONTINUOUS
 62
   249
 10
27.5
 20
92.5
 30
0.0
 11
82.5
 21
92.5
 31
0.0
  0
LINE
  8
0
  6
CONTINUOUS
 62
   249
 10
27.5
 20
77.5
 30
0.0
 11
92.5
 21
77.5
 31
0.0
  0
LINE
  8
0
  6
CONTINUOUS
 62
   249
 10
92.5
 20
72.5
 30
0.0
 11
27.5
 21
72.5
 31
0.0
  0
LINE
  8
0
  6
CONTINUOUS
 62
   249
 10
92.5
 20
72.5
 30
0.0
 11
92.5
 21
75.0
 31
0.0
  0
LINE
  8
0
  6
CONTINUOUS
 62
   249
 10
97.5
 20
77.5
 30
0.0
 11
100.0
 21
77.5
 31
0.0
  0
LINE
  8
0
  6
CONTINUOUS
 62
   249
 10
97.5
 20
77.5
 30
0.0
 11
91.756076
 21
74.285297
 31
0.0
  0
LINE
  8
0
  6
CONTINUOUS
 62
   249
 10
77.5
 20
107.5
 30
0.0
 11
77.5
 21
97.5
 31
0.0
  0
LINE
  8
0
  6
CONTINUOUS
 62
   249
 10
77.5
 20
97.5
 30
0.0
 11
27.5
 21
97.5
 31
0.0
  0
LINE
  8
0
  6
CONTINUOUS
 62
   249
 10
90.0
 20
92.5
 30
0.0
 11
90.0
 21
82.5
 31
0.0
  0
LINE
  8
0
  6
CONTINUOUS
 62
   249
 10
90.0
 20
82.5
 30
0.0
 11
27.5
 21
82.5
 31
0.0
  0
LINE
  8
0
  6
CONTINUOUS
 62
   249
 10
100.0
 20
77.5
 30
0.0
 11
100.0
 21
67.5
 31
0.0
  0
LINE
  8
0
  6
CONTINUOUS
 62
   249
 10
100.0
 20
67.5
 30
0.0
 11
27.5
 21
67.5
 31
0.0
  0
LINE
  8
0
  6
CONTINUOUS
 62
   249
 10
167.5
 20
194.492731
 30
0.0
 11
45.0
 21
194.492731
 31
0.0
  0
LINE
  8
0
  6
CONTINUOUS
 62
   249
 10
167.5
 20
204.665835
 30
0.0
 11
47.5
 21
204.665835
 31
0.0
  0
LINE
  8
0
  6
CONTINUOUS
 62
   249
 10
72.5
 20
162.5
 30
0.0
 11
72.5
 21
147.5
 31
0.0
  0
LINE
  8
0
  6
CONTINUOUS
 62
   249
 10
135.0
 20
137.5
 30
0.0
 11
135.0
 21
162.5
 31
0.0
  0
LINE
  8
0
  6
CONTINUOUS
 62
   249
 10
130.0
 20
137.5
 30
0.0
 11
130.0
 21
177.5
 31
0.0
  0
LINE
  8
0
  6
CONTINUOUS
 62
   249
 10
127.5
 20
137.5
 30
0.0
 11
127.5
 21
187.5
 31
0.0
  0
LINE
  8
0
  6
CONTINUOUS
 62
   249
 10
120.0
 20
137.5
 30
0.0
 11
120.0
 21
194.492731
 31
0.0
  0
LINE
  8
0
  6
CONTINUOUS
 62
   249
 10
117.5
 20
137.5
 30
0.0
 11
117.5
 21
200.0
 31
0.0
  0
LINE
  8
0
  6
CONTINUOUS
 62
   249
 10
115.0
 20
137.5
 30
0.0
 11
115.0
 21
204.665835
 31
0.0
  0
LINE
  8
0
  6
CONTINUOUS
 62
   249
 10
105.818812
 20
137.5
 30
0.0
 11
105.818812
 21
177.5
 31
0.0
  0
LINE
  8
0
  6
HIDDEN
 62
   249
 10
27.5
 20
225.0
 30
0.0
 11
32.5
 21
225.0
 31
0.0
  0
LINE
  8
0
  6
HIDDEN
 62
   249
 10
32.5
 20
225.0
 30
0.0
 11
32.5
 21
202.5
 31
0.0
  0
LINE
  8
0
  6
HIDDEN
 62
   249
 10
32.5
 20
202.5
 30
0.0
 11
27.5
 21
202.5
 31
0.0
  0
TEXT
  8
0
  6
HIDDEN
 62
   249
 10
28.379157
 20
221.746473
 30
0.0
 40
2.0
  1
X2
  7
ROMANS
  0
TEXT
  8
0
  6
HIDDEN
 62
   249
 10
27.975238
 20
217.333058
 30
0.0
 40
2.0
  1
12
  7
ROMANS
  0
TEXT
  8
0
  6
HIDDEN
 62
   249
 10
27.975238
 20
209.949416
 30
0.0
 40
2.0
  1
10
  7
ROMANS
  0
TEXT
  8
0
  6
HIDDEN
 62
   249
 10
27.975238
 20
204.809022
 30
0.0
 40
2.0
  1
11
  7
ROMANS
  0
LINE
  8
0
  6
HIDDEN
 62
   249
 10
27.5
 20
137.5
 30
0.0
 11
32.5
 21
137.5
 31
0.0
  0
LINE
  8
0
  6
HIDDEN
 62
   249
 10
32.5
 20
137.5
 30
0.0
 11
32.5
 21
113.211798
 31
0.0
  0
LINE
  8
0
  6
HIDDEN
 62
   249
 10
32.5
 20
113.211798
 30
0.0
 11
27.5
 21
113.211798
 31
0.0
  0
LINE
  8
0
  6
HIDDEN
 62
   249
 10
27.5
 20
62.5
 30
0.0
 11
32.5
 21
62.5
 31
0.0
  0
LINE
  8
0
  6
HIDDEN
 62
   249
 10
32.5
 20
62.5
 30
0.0
 11
32.5
 21
111.97351
 31
0.0
  0
LINE
  8
0
  6
HIDDEN
 62
   249
 10
32.5
 20
111.97351
 30
0.0
 11
27.5
 21
111.97351
 31
0.0
  0
TEXT
  8
0
  6
HIDDEN
 62
   249
 10
28.6717
 20
133.629257
 30
0.0
 40
2.0
  1
X1
  7
ROMANS
  0
TEXT
  8
0
  6
HIDDEN
 62
   249
 10
28.6717
 20
129.910394
 30
0.0
 40
2.0
  1
4
  7
ROMANS
  0
TEXT
  8
0
  6
HIDDEN
 62
   249
 10
28.6717
 20
124.902761
 30
0.0
 40
2.0
  1
3
  7
ROMANS
  0
TEXT
  8
0
  6
HIDDEN
 62
   249
 10
28.6717
 20
119.61975
 30
0.0
 40
2.0
  1
7
  7
ROMANS
  0
TEXT
  8
0
  6
HIDDEN
 62
   249
 10
28.6717
 20
114.810389
 30
0.0
 40
2.0
  1
6
  7
ROMANS
  0
TEXT
  8
0
  6
HIDDEN
 62
   249
 10
28.245853
 20
108.976621
 30
0.0
 40
2.0
  1
X2
  7
ROMANS
  0
TEXT
  8
0
  6
HIDDEN
 62
   249
 10
28.6717
 20
104.773092
 30
0.0
 40
2.0
  1
3
  7
ROMANS
  0
TEXT
  8
0
  6
HIDDEN
 62
   249
 10
28.6717
 20
99.842565
 30
0.0
 40
2.0
  1
1
  7
ROMANS
  0
TEXT
  8
0
  6
HIDDEN
 62
   249
 10
28.6717
 20
94.625644
 30
0.0
 40
2.0
  1
2
  7
ROMANS
  0
TEXT
  8
0
  6
HIDDEN
 62
   249
 10
28.6717
 20
89.695117
 30
0.0
 40
2.0
  1
6
  7
ROMANS
  0
TEXT
  8
0
  6
HIDDEN
 62
   249
 10
28.6717
 20
84.918802
 30
0.0
 40
2.0
  1
4
  7
ROMANS
  0
TEXT
  8
0
  6
HIDDEN
 62
   249
 10
28.6717
 20
79.690866
 30
0.0
 40
2.0
  1
5
  7
ROMANS
  0
TEXT
  8
0
  6
HIDDEN
 62
   249
 10
28.6717
 20
74.760338
 30
0.0
 40
2.0
  1
9
  7
ROMANS
  0
TEXT
  8
0
  6
HIDDEN
 62
   249
 10
28.6717
 20
69.686614
 30
0.0
 40
2.0
  1
7
  7
ROMANS
  0
TEXT
  8
0
  6
HIDDEN
 62
   249
 10
28.6717
 20
64.756087
 30
0.0
 40
2.0
  1
8
  7
ROMANS
  0
TEXT
  8
0
  6
HIDDEN
 62
   249
 10
7.455888
 20
231.239977
 30
0.0
 40
2.0
  1
2)
  7
ROMANS
  0
LINE
  8
0
  6
DASHED
 62
   249
 10
27.5
 20
132.5
 30
0.0
 11
15.0
 21
132.5
 31
0.0
  0
LINE
  8
0
  6
DASHED
 62
   249
 10
27.5
 20
127.5
 30
0.0
 11
15.0
 21
127.5
 31
0.0
  0
LINE
  8
0
  6
DASHED
 62
   249
 10
27.5
 20
117.5
 30
0.0
 11
15.0
 21
117.5
 31
0.0
  0
LINE
  8
0
  6
DASHED
 62
   249
 10
27.5
 20
122.5
 30
0.0
 11
15.0
 21
122.5
 31
0.0
  0
LINE
  8
0
  6
CONTINUOUS
 62
   249
 10
12.5
 20
122.5
 30
0.0
 11
13.5
 21
123.5
 31
0.0
  0
LINE
  8
0
  6
CONTINUOUS
 62
   249
 10
12.5
 20
117.499655
 30
0.0
 11
13.5
 21
116.499655
 31
0.0
  0
LINE
  8
0
  6
CONTINUOUS
 62
   249
 10
12.5
 20
122.5
 30
0.0
 11
12.5
 21
117.5
 31
0.0
  0
LINE
  8
0
  6
DASHED
 62
   249
 10
27.5
 20
67.5
 30
0.0
 11
15.0
 21
67.5
 31
0.0
  0
LINE
  8
0
  6
CONTINUOUS
 62
   249
 10
102.5
 20
45.0
 30
0.0
 11
215.000345
 21
45.0
 31
0.0
  0
LINE
  8
0
  6
CONTINUOUS
 62
   249
 10
215.000345
 20
45.0
 30
0.0
 11
216.000345
 21
46.0
 31
0.0
  0
LINE
  8
0
  6
CONTINUOUS
 62
   249
 10
102.5
 20
45.0
 30
0.0
 11
101.5
 21
46.0
 31
0.0
  0
LINE
  8
0
  6
CONTINUOUS
 62
   249
 10
115.0
 20
57.5
 30
0.0
 11
115.0
 21
50.0
 31
0.0
  0
LINE
  8
0
  6
CONTINUOUS
 62
   249
 10
132.5
 20
57.5
 30
0.0
 11
132.5
 21
50.0
 31
0.0
  0
LINE
  8
0
  6
CONTINUOUS
 62
   249
 10
215.0
 20
57.5
 30
0.0
 11
215.0
 21
50.0
 31
0.0
  0
TEXT
  8
0
  6
HIDDEN
 62
   249
 10
155.984926
 20
38.667815
 30
0.0
 40
2.0
  1
SHEET 2
  7
ROMANS
  0
TEXT
  8
0
  6
CONTINUOUS
 62
   249
 10
325.789791
 20
71.07212
 30
0.0
 40
2.0
  1
L2
  7
ROMANS
  0
TEXT
  8
0
  6
CONTINUOUS
 62
   249
 10
355.825597
 20
71.08314
 30
0.0
 40
2.0
  1
4-6
  7
ROMANS
  0
TEXT
  8
0
  6
CONTINUOUS
 62
   249
 10
370.919948
 20
71.08314
 30
0.0
 40
2.0
  1
4-5
  7
ROMANS
  0
LINE
  8
0
 62
   249
 10
382.088281
 20
90.930298
 30
0.0
 11
322.275257
 21
90.930298
 31
0.0
  0
TEXT
  8
0
  6
HIDDEN
 62
   249
 10
325.857358
 20
47.461357
 30
0.0
 40
2.0
  1
Uo
  7
ROMANS
  0
TEXT
  8
0
  6
HIDDEN
 62
   249
 10
325.826621
 20
43.630815
 30
0.0
 40
2.0
  1
U23
  7
ROMANS
  0
TEXT
  8
0
  6
HIDDEN
 62
   249
 10
325.826621
 20
39.721256
 30
0.0
 40
2.0
  1
U31
  7
ROMANS
  0
LINE
  8
0
  6
CONTINUOUS
 62
   249
 10
337.029564
 20
55.422532
 30
0.0
 11
382.088281
 21
55.422532
 31
0.0
  0
TEXT
  8
0
  6
CONTINUOUS
 62
   249
 10
339.144563
 20
43.618792
 30
0.0
 40
2.0
  1
16-17
  7
ROMANS
  0
TEXT
  8
0
  6
CONTINUOUS
 62
   249
 10
339.144563
 20
39.74546
 30
0.0
 40
2.0
  1
19-20
  7
ROMANS
  0
TEXT
  8
0
  6
CONTINUOUS
 62
   249
 10
355.195332
 20
43.607771
 30
0.0
 40
2.0
  1
16-18
  7
ROMANS
  0
TEXT
  8
0
  6
CONTINUOUS
 62
   249
 10
355.195332
 20
39.756481
 30
0.0
 40
2.0
  1
19-21
  7
ROMANS
  0
LINE
  8
0
 62
   249
 10
47.721556
 20
228.704212
 30
0.0
 11
40.298812
 21
228.704212
 31
0.0
  0
LINE
  8
0
  6
CONTINUOUS
 62
   249
 10
47.721556
 20
232.5
 30
0.0
 11
52.5
 21
232.5
 31
0.0
  0
LINE
  8
0
 62
   249
 10
47.721556
 20
228.704212
 30
0.0
 11
47.721556
 21
236.589925
 31
0.0
  0
LINE
  8
0
 62
   249
 10
47.721556
 20
236.589925
 30
0.0
 11
40.298812
 21
236.589925
 31
0.0
  0
LINE
  8
0
 62
   249
 10
45.996971
 20
236.567786
 30
0.0
 11
44.142636
 21
234.288964
 31
0.0
  0
LINE
  8
0
 62
   249
 10
44.504853
 20
236.567786
 30
0.0
 11
42.59105
 21
234.288964
 31
0.0
  0
LINE
  8
0
 62
   249
 10
40.298812
 20
236.589925
 30
0.0
 11
40.298812
 21
228.704212
 31
0.0
  0
LINE
  8
0
  6
CONTINUOUS
 62
   249
 10
40.298812
 20
230.0
 30
0.0
 11
27.5
 21
230.0
 31
0.0
  0
LINE
  8
0
  6
CONTINUOUS
 62
   249
 10
40.298812
 20
235.0
 30
0.0
 11
27.5
 21
235.0
 31
0.0
  0
LINE
  8
0
  6
HIDDEN
 62
   249
 10
27.5
 20
240.0
 30
0.0
 11
32.5
 21
240.0
 31
0.0
  0
LINE
  8
0
  6
HIDDEN
 62
   249
 10
27.5
 20
226.348482
 30
0.0
 11
32.5
 21
226.348482
 31
0.0
  0
LINE
  8
0
  6
HIDDEN
 62
   249
 10
32.5
 20
240.0
 30
0.0
 11
32.5
 21
226.348482
 31
0.0
  0
TEXT
  8
0
  6
CONTINUOUS
 62
   249
 10
28.59856
 20
236.598074
 30
0.0
 40
2.0
  1
X1
  7
ROMANS
  0
TEXT
  8
0
  6
CONTINUOUS
 62
   249
 10
27.942426
 20
232.252652
 30
0.0
 40
2.0
  1
12
  7
ROMANS
  0
TEXT
  8
0
  6
CONTINUOUS
 62
   249
 10
27.942426
 20
227.401185
 30
0.0
 40
2.0
  1
11
  7
ROMANS
  0
LINE
  8
0
  6
HIDDEN
 62
   249
 10
170.0
 20
210.0
 30
0.0
 11
197.950615
 21
210.0
 31
0.0
  0
LINE
  8
0
  6
HIDDEN
 62
   249
 10
170.0
 20
205.0
 30
0.0
 11
187.5
 21
205.0
 31
0.0
  0
LINE
  8
0
  6
CONTINUOUS
 62
   249
 10
175.292268
 20
203.604867
 30
0.0
 11
177.638033
 21
202.269513
 31
0.0
  0
LINE
  8
0
  6
CONTINUOUS
 62
   249
 10
177.638033
 20
202.269513
 30
0.0
 11
175.292268
 21
201.079594
 31
0.0
  0
TEXT
  8
0
  6
CONTINUOUS
 62
   249
 10
171.270128
 20
201.06691
 30
0.0
 40
2.5
  1
I
 11
171.270128
 21
200.233576
 31
0.0
 73
     1
  0
LINE
  8
0
  6
CONTINUOUS
 62
   249
 10
170.0
 20
230.0
 30
0.0
 11
170.0
 21
190.0
 31
0.0
  0
TEXT
  8
0
  6
CONTINUOUS
 62
   249
 10
169.491916
 20
193.287092
 30
0.0
 40
1.5
  1
PROGRAMMING: SEE SHEET 3
 50
90.0
  7
ROMANS
  0
TEXT
  8
0
  6
CONTINUOUS
 62
   249
 10
169.505063
 20
171.346592
 30
0.0
 40
2.5
  1
I
 11
169.505063
 21
170.513259
 31
0.0
 73
     1
  0
TEXT
  8
0
  6
CONTINUOUS
 62
   249
 10
169.505063
 20
175.765761
 30
0.0
 40
2.5
  1
I
 11
169.505063
 21
174.932428
 31
0.0
 73
     1
  0
LINE
  8
0
  6
CONTINUOUS
 62
   249
 10
176.026365
 20
176.762687
 30
0.0
 11
173.680599
 21
175.572768
 31
0.0
  0
LINE
  8
0
  6
CONTINUOUS
 62
   249
 10
173.680599
 20
178.098041
 30
0.0
 11
176.026365
 21
176.762687
 31
0.0
  0
TEXT
  8
0
  6
CONTINUOUS
 62
   249
 10
169.505063
 20
186.268175
 30
0.0
 40
2.5
  1
I
 11
169.505063
 21
185.434842
 31
0.0
 73
     1
  0
TEXT
  8
0
  6
CONTINUOUS
 62
   249
 10
169.505063
 20
160.733974
 30
0.0
 40
2.5
  1
I
 11
169.505063
 21
159.900641
 31
0.0
 73
     1
  0
LINE
  8
0
  6
CONTINUOUS
 62
   249
 10
177.417454
 20
161.613824
 30
0.0
 11
175.071688
 21
160.423905
 31
0.0
  0
LINE
  8
0
  6
CONTINUOUS
 62
   249
 10
175.071688
 20
162.949178
 30
0.0
 11
177.417454
 21
161.613824
 31
0.0
  0
LINE
  8
0
  6
CONTINUOUS
 62
   249
 10
175.674969
 20
161.613824
 30
0.0
 11
173.329204
 21
160.423905
 31
0.0
  0
LINE
  8
0
  6
CONTINUOUS
 62
   249
 10
173.329204
 20
162.949178
 30
0.0
 11
175.674969
 21
161.613824
 31
0.0
  0
TEXT
  8
0
  6
CONTINUOUS
 62
   249
 10
192.315092
 20
219.998858
 30
0.0
 40
2.5
  1
I
  7
GREEKS
  0
LINE
  8
0
  6
CONTINUOUS
 62
   249
 10
189.224689
 20
173.214764
 30
0.0
 11
196.768276
 21
173.214764
 31
0.0
  0
TEXT
  8
0
  6
CONTINUOUS
 62
   249
 10
191.796619
 20
181.529986
 30
0.0
 40
2.5
  1
I
 11
191.796619
 21
180.696653
 31
0.0
 73
     1
  0
TEXT
  8
0
  6
CONTINUOUS
 62
   249
 10
192.22661
 20
168.025469
 30
0.0
 40
1.5
  1
f
  7
GREEKC
  0
TEXT
  8
0
  6
CONTINUOUS
 62
   249
 10
187.971568
 20
167.510459
 30
0.0
 40
1.5
  1
SIN
  7
GREEKS
  0
TEXT
  8
0
  6
CONTINUOUS
 62
   249
 10
187.971568
 20
163.357643
 30
0.0
 40
1.5
  1
COS
  7
GREEKS
  0
TEXT
  8
0
  6
CONTINUOUS
 62
   249
 10
192.22661
 20
163.864059
 30
0.0
 40
1.5
  1
f
  7
GREEKC
  0
TEXT
  8
0
  6
HIDDEN
 62
   249
 10
194.867691
 20
163.362921
 30
0.0
 40
1.5
  1
EN
  0
TEXT
  8
0
  6
HIDDEN
 62
   249
 10
194.867691
 20
167.499914
 30
0.0
 40
1.5
  1
EN
  0
LINE
  8
0
  6
CONTINUOUS
 62
   249
 10
57.5
 20
157.5
 30
0.0
 11
57.5
 21
180.377204
 31
0.0
  0
LINE
  8
0
  6
CONTINUOUS
 62
   249
 10
42.5
 20
177.5
 30
0.0
 11
167.5
 21
177.5
 31
0.0
  0
LINE
  8
0
  6
CONTINUOUS
 62
   249
 10
135.0
 20
162.5
 30
0.0
 11
167.5
 21
162.5
 31
0.0
  0
LINE
  8
0
  6
CONTINUOUS
 62
   249
 10
52.5
 20
147.5
 30
0.0
 11
52.5
 21
162.5
 31
0.0
  0
LINE
  8
0
  6
CONTINUOUS
 62
   249
 10
52.5
 20
162.5
 30
0.0
 11
135.0
 21
162.5
 31
0.0
  0
LINE
  8
0
  6
CONTINUOUS
 62
   249
 10
35.0
 20
138.608096
 30
0.0
 11
35.0
 21
170.0
 31
0.0
  0
LINE
  8
0
  6
CONTINUOUS
 62
   249
 10
35.0
 20
170.0
 30
0.0
 11
75.0
 21
170.0
 31
0.0
  0
LINE
  8
0
  6
CONTINUOUS
 62
   249
 10
47.5
 20
138.608096
 30
0.0
 11
35.0
 21
138.608096
 31
0.0
  0
LINE
  8
0
  6
CONTINUOUS
 62
   249
 10
70.0
 20
147.5
 30
0.0
 11
70.0
 21
177.5
 31
0.0
  0
LINE
  8
0
  6
CONTINUOUS
 62
   249
 10
167.5
 20
172.5
 30
0.0
 11
132.5
 21
172.5
 31
0.0
  0
LINE
  8
0
  6
CONTINUOUS
 62
   249
 10
132.5
 20
160.0
 30
0.0
 11
132.5
 21
157.5
 31
0.0
  0
LINE
  8
0
  6
CONTINUOUS
 62
   249
 10
55.0
 20
180.377204
 30
0.0
 11
62.5
 21
180.377204
 31
0.0
  0
LINE
  8
0
  6
CONTINUOUS
 62
   249
 10
62.5
 20
180.377204
 30
0.0
 11
62.5
 21
185.377204
 31
0.0
  0
LINE
  8
0
  6
CONTINUOUS
 62
   249
 10
62.5
 20
185.377204
 30
0.0
 11
55.0
 21
185.377204
 31
0.0
  0
LINE
  8
0
  6
CONTINUOUS
 62
   249
 10
55.0
 20
185.377204
 30
0.0
 11
55.0
 21
180.377204
 31
0.0
  0
TEXT
  8
0
  6
CONTINUOUS
 62
   249
 10
60.495812
 20
181.932409
 30
0.0
 40
2.5
  1
1
 11
60.495812
 21
181.099076
 31
0.0
 73
     1
  0
LINE
  8
0
  6
CONTINUOUS
 62
   249
 10
56.06195
 20
184.592502
 30
0.0
 11
58.407716
 21
183.257149
 31
0.0
  0
LINE
  8
0
  6
CONTINUOUS
 62
   249
 10
56.053908
 20
181.267216
 30
0.0
 11
58.437369
 21
182.455408
 31
0.0
  0
LINE
  8
0
  6
CONTINUOUS
 62
   249
 10
58.407716
 20
183.257149
 30
0.0
 11
56.06195
 21
182.06723
 31
0.0
  0
LINE
  8
0
  6
CONTINUOUS
 62
   249
 10
112.5
 20
137.5
 30
0.0
 11
112.5
 21
212.5
 31
0.0
  0
TEXT
  8
0
  6
CONTINUOUS
 62
   249
 10
162.342601
 20
210.165666
 30
0.0
 40
1.5
  1
SS1
  7
ROMANS
  0
TEXT
  8
0
  6
CONTINUOUS
 62
   249
 10
162.342601
 20
202.300383
 30
0.0
 40
1.5
  1
TS1
  7
ROMANS
  0
TEXT
  8
0
  6
CONTINUOUS
 62
   249
 10
162.342601
 20
197.773686
 30
0.0
 40
1.5
  1
SS2
  7
ROMANS
  0
TEXT
  8
0
  6
CONTINUOUS
 62
   249
 10
162.342601
 20
192.336744
 30
0.0
 40
1.5
  1
TS2
  7
ROMANS
  0
ARC
  8
0
 62
   249
 10
237.434151
 20
161.25
 30
0.0
 40
1.251733
 50
86.984476
 51
273.015524
  0
LINE
  8
0
 62
   249
 10
237.5
 20
160.0
 30
0.0
 11
240.0
 21
160.0
 31
0.0
  0
ARC
  8
0
 62
   249
 10
237.434151
 20
163.75
 30
0.0
 40
1.251733
 50
86.984476
 51
273.015524
  0
LINE
  8
0
 62
   249
 10
237.5
 20
162.5
 30
0.0
 11
240.0
 21
162.5
 31
0.0
  0
LINE
  8
0
 62
   249
 10
237.5
 20
165.0
 30
0.0
 11
240.0
 21
165.0
 31
0.0
  0
LINE
  8
0
 62
   249
 10
240.0
 20
160.0
 30
0.0
 11
242.5
 21
160.0
 31
0.0
  0
LINE
  8
0
 62
   249
 10
237.5
 20
160.0
 30
0.0
 11
240.0
 21
160.0
 31
0.0
  0
LINE
  8
0
 62
   249
 10
237.5
 20
157.5
 30
0.0
 11
240.0
 21
157.5
 31
0.0
  0
ARC
  8
0
 62
   249
 10
237.434151
 20
158.75
 30
0.0
 40
1.251733
 50
86.984476
 51
273.015524
  0
ARC
  8
0
 62
   249
 10
237.434151
 20
156.25
 30
0.0
 40
1.251733
 50
86.984476
 51
273.015524
  0
LINE
  8
0
 62
   249
 10
237.5
 20
155.0
 30
0.0
 11
240.0
 21
155.0
 31
0.0
  0
ARC
  8
0
 62
   249
 10
232.565849
 20
161.25
 30
0.0
 40
1.251733
 50
266.984476
 51
93.015524
  0
LINE
  8
0
 62
   249
 10
232.5
 20
162.5
 30
0.0
 11
230.980133
 21
162.5
 31
0.0
  0
LINE
  8
0
 62
   249
 10
232.5
 20
160.0
 30
0.0
 11
230.980133
 21
160.0
 31
0.0
  0
ARC
  8
0
 62
   249
 10
232.565849
 20
158.75
 30
0.0
 40
1.251733
 50
266.984476
 51
93.015524
  0
LINE
  8
0
 62
   249
 10
232.5
 20
157.5
 30
0.0
 11
230.980133
 21
157.5
 31
0.0
  0
LINE
  8
0
 62
   249
 10
240.0
 20
155.0
 30
0.0
 11
247.5
 21
155.0
 31
0.0
  0
LINE
  8
0
 62
   249
 10
240.0
 20
160.0
 30
0.0
 11
247.5
 21
160.0
 31
0.0
  0
LINE
  8
0
 62
   249
 10
240.0
 20
165.0
 30
0.0
 11
247.5
 21
165.0
 31
0.0
  0
TEXT
  8
0
  6
CONTINUOUS
 62
   249
 10
243.35973
 20
142.10337
 30
0.0
 40
2.0
  1
27
  7
ROMANS
  0
TEXT
  8
0
  6
CONTINUOUS
 62
   249
 10
243.35973
 20
137.205888
 30
0.0
 40
2.0
  1
26
  7
ROMANS
  0
TEXT
  8
0
  6
CONTINUOUS
 62
   249
 10
243.35973
 20
132.18724
 30
0.0
 40
2.0
  1
25
  7
ROMANS
  0
LINE
  8
0
  6
CONTINUOUS
 62
   249
 10
205.0
 20
217.5
 30
0.0
 11
212.5
 21
217.5
 31
0.0
  0
LINE
  8
0
  6
CONTINUOUS
 62
   249
 10
208.746052
 20
181.883025
 30
0.0
 11
208.746052
 21
140.0
 31
0.0
  0
LINE
  8
0
  6
CONTINUOUS
 62
   249
 10
208.746052
 20
140.0
 30
0.0
 11
220.0
 21
140.0
 31
0.0
  0
CIRCLE
  8
0
  6
CONTINUOUS
 62
   249
 10
198.950323
 20
168.483421
 30
0.0
 40
1.0
  0
LINE
  8
0
  6
CONTINUOUS
 62
   249
 10
52.5
 20
232.5
 30
0.0
 11
202.5
 21
232.5
 31
0.0
  0
LINE
  8
0
  6
CONTINUOUS
 62
   249
 10
202.5
 20
232.5
 30
0.0
 11
202.5
 21
164.043906
 31
0.0
  0
LINE
  8
0
  6
CONTINUOUS
 62
   249
 10
197.950615
 20
164.043906
 30
0.0
 11
202.5
 21
164.043906
 31
0.0
  0
LINE
  8
0
  6
CONTINUOUS
 62
   249
 10
199.950316
 20
168.479447
 30
0.0
 11
202.5
 21
168.479447
 31
0.0
  0
LINE
  8
0
  6
CONTINUOUS
 62
   249
 10
197.950615
 20
197.144221
 30
0.0
 11
212.851542
 21
197.144221
 31
0.0
  0
LINE
  8
0
  6
CONTINUOUS
 62
   249
 10
220.0
 20
200.0
 30
0.0
 11
212.5
 21
200.0
 31
0.0
  0
LINE
  8
0
  6
CONTINUOUS
 62
   249
 10
212.5
 20
217.5
 30
0.0
 11
212.5
 21
200.0
 31
0.0
  0
LINE
  8
0
  6
CONTINUOUS
 62
   249
 10
197.950615
 20
217.5
 30
0.0
 11
205.0
 21
217.5
 31
0.0
  0
LINE
  8
0
  6
CONTINUOUS
 62
   249
 10
220.0
 20
86.253046
 30
0.0
 11
215.0
 21
86.253046
 31
0.0
  0
LINE
  8
0
  6
CONTINUOUS
 62
   249
 10
215.0
 20
86.253046
 30
0.0
 11
215.0
 21
57.5
 31
0.0
  0
LINE
  8
0
  6
DASHED
 62
   249
 10
27.5
 20
235.0
 30
0.0
 11
20.0
 21
235.0
 31
0.0
  0
LINE
  8
0
  6
DASHED
 62
   249
 10
27.5
 20
230.0
 30
0.0
 11
20.0
 21
230.0
 31
0.0
  0
LINE
  8
0
  6
CONTINUOUS
 62
   249
 10
12.5
 20
235.0
 30
0.0
 11
13.5
 21
236.0
 31
0.0
  0
LINE
  8
0
  6
CONTINUOUS
 62
   249
 10
12.5
 20
229.999655
 30
0.0
 11
13.5
 21
228.999655
 31
0.0
  0
LINE
  8
0
  6
CONTINUOUS
 62
   249
 10
12.5
 20
235.0
 30
0.0
 11
12.5
 21
230.0
 31
0.0
  0
TEXT
  8
0
  6
CONTINUOUS
 62
   249
 10
7.440672
 20
213.067384
 30
0.0
 40
2.0
  1
3)
  7
ROMANS
  0
TEXT
  8
0
  6
CONTINUOUS
 62
   249
 10
5.493014
 20
119.173819
 30
0.0
 40
2.0
  1
5a)
  7
ROMANS
  0
TEXT
  8
0
  6
CONTINUOUS
 62
   249
 10
5.493014
 20
101.591145
 30
0.0
 40
2.0
  1
5b)
  7
ROMANS
  0
TEXT
  8
0
  6
CONTINUOUS
 62
   249
 10
5.493014
 20
80.437871
 30
0.0
 40
2.0
  1
5c)
  7
ROMANS
  0
TEXT
  8
0
  6
DASHED
 62
   249
 10
339.921304
 20
62.540235
 30
0.0
 40
2.0
  1
25-27
  7
ROMANS
  0
TEXT
  8
0
  6
DASHED
 62
   249
 10
353.65129
 20
62.540235
 30
0.0
 40
2.0
  1
25-26
  7
ROMANS
  0
TEXT
  8
0
  6
CONTINUOUS
 62
   249
 10
52.713192
 20
34.387285
 30
0.0
 40
2.014518
  1
f
  7
GREEKC
  0
TEXT
  8
0
  6
DASHED
 62
   249
 10
19.98632
 20
43.721695
 30
0.0
 40
2.0
  1
2) OPERATING CHARACTERISTICS
  7
ROMANS
  0
TEXT
  8
0
  6
DASHED
 62
   249
 10
21.313679
 20
40.388361
 30
0.0
 40
2.0
  1
  SIN  OR COS  /
  7
ROMANS
  0
TEXT
  8
0
  6
DASHED
 62
   249
 10
21.313679
 20
37.055028
 30
0.0
 40
2.0
  1
  FUNKTIONSKARAKTERISTIKEN
  7
ROMANS
  0
TEXT
  8
0
  6
DASHED
 62
   249
 10
21.313679
 20
33.721695
 30
0.0
 40
2.0
  1
  SIN  ELLER COS
  7
ROMANS
  0
TEXT
  8
0
  6
CONTINUOUS
 62
   249
 10
30.676688
 20
34.387285
 30
0.0
 40
2.014518
  1
f
  7
GREEKC
  0
TEXT
  8
0
  6
CONTINUOUS
 62
   249
 10
30.676688
 20
41.074201
 30
0.0
 40
2.014518
  1
f
  7
GREEKC
  0
TEXT
  8
0
  6
CONTINUOUS
 62
   249
 10
46.675472
 20
41.074201
 30
0.0
 40
2.014518
  1
f
  7
GREEKC
  0
TEXT
  8
0
  6
DASHED
 62
   249
 10
19.996249
 20
26.479261
 30
0.0
 40
2.0
  1
3) BLOCKING INPUT /
  7
ROMANS
  0
TEXT
  8
0
  6
DASHED
 62
   249
 10
21.323608
 20
23.145927
 30
0.0
 40
2.0
  1
  BLOCKERING IN
  7
ROMANS
  0
TEXT
  8
0
  6
DASHED
 62
   249
 10
20.043235
 20
16.343157
 30
0.0
 40
2.0
  1
4) TRIP 1 /
  7
ROMANS
  0
TEXT
  8
0
  6
DASHED
 62
   249
 10
21.323608
 20
13.009824
 30
0.0
 40
2.0
  1
  UTLÖSNING 1
  7
ROMANS
  0
TEXT
  8
0
  6
DASHED
 62
   249
 10
87.5
 20
35.0
 30
0.0
 40
2.0
  1
5a) TRIP 2 OR ALARM OUTPUT /
  7
ROMANS
  0
TEXT
  8
0
  6
DASHED
 62
   249
 10
88.839015
 20
31.666667
 30
0.0
 40
2.0
  1
   UTLÖSNING 2 ELLER SIGNALUTGÅNG
  7
ROMANS
  0
TEXT
  8
0
  6
DASHED
 62
   249
 10
87.5
 20
25.833333
 30
0.0
 40
2.0
  1
5b) ALARM OUTPUT /
  7
ROMANS
  0
TEXT
  8
0
  6
DASHED
 62
   249
 10
88.839015
 20
22.5
 30
0.0
 40
2.0
  1
   SIGNALUTGÅNG
  7
ROMANS
  0
TEXT
  8
0
  6
DASHED
 62
   249
 10
87.5
 20
16.309142
 30
0.0
 40
2.0
  1
5c) START, BLOCKING ETC.
  7
ROMANS
  0
TEXT
  8
0
  6
DASHED
 62
   249
 10
88.839015
 20
12.975808
 30
0.0
 40
2.0
  1
   START, BLOCKERING MM.
  7
ROMANS
  0
TEXT
  8
0
  6
DASHED
 62
   249
 10
190.0
 20
220.0
 30
0.0
 40
2.0
  1
3
  7
GREEKS
  0
LINE
  8
0
  6
CONTINUOUS
 62
   249
 10
167.5
 20
190.0
 30
0.0
 11
197.950615
 21
190.0
 31
0.0
  0
LINE
  8
0
  6
HIDDEN
 62
   249
 10
170.0
 20
195.0
 30
0.0
 11
187.5
 21
195.0
 31
0.0
  0
LINE
  8
0
  6
HIDDEN
 62
   249
 10
170.0
 20
200.0
 30
0.0
 11
187.5
 21
200.0
 31
0.0
  0
TEXT
  8
0
  6
CONTINUOUS
 62
   249
 10
171.270128
 20
206.374206
 30
0.0
 40
2.5
  1
I
 11
171.270128
 21
205.540872
 31
0.0
 73
     1
  0
LINE
  8
0
  6
CONTINUOUS
 62
   249
 10
177.79143
 20
207.6246
 30
0.0
 11
175.445664
 21
206.434681
 31
0.0
  0
LINE
  8
0
  6
CONTINUOUS
 62
   249
 10
175.445664
 20
208.959954
 30
0.0
 11
177.79143
 21
207.6246
 31
0.0
  0
LINE
  8
0
  6
CONTINUOUS
 62
   249
 10
187.03338
 20
192.952367
 30
0.0
 11
187.03338
 21
191.164236
 31
0.0
  0
LINE
  8
0
  6
CONTINUOUS
 62
   249
 10
181.63386
 20
190.939486
 30
0.0
 11
184.509971
 21
193.768045
 31
0.0
  0
LINE
  8
0
  6
CONTINUOUS
 62
   249
 10
184.079267
 20
194.305252
 30
0.0
 11
184.979944
 21
193.181503
 31
0.0
  0
LINE
  8
0
  6
CONTINUOUS
 62
   249
 10
179.249716
 20
192.107089
 30
0.0
 11
187.037921
 21
192.107089
 31
0.0
  0
LINE
  8
0
  6
CONTINUOUS
 62
   249
 10
179.218684
 20
192.952367
 30
0.0
 11
179.218684
 21
191.164236
 31
0.0
  0
LINE
  8
0
  6
CONTINUOUS
 62
   249
 10
174.758312
 20
193.714843
 30
0.0
 11
177.104078
 21
192.379489
 31
0.0
  0
LINE
  8
0
  6
CONTINUOUS
 62
   249
 10
177.104078
 20
192.379489
 30
0.0
 11
174.758312
 21
191.18957
 31
0.0
  0
LINE
  8
0
  6
CONTINUOUS
 62
   249
 10
176.237209
 20
193.714843
 30
0.0
 11
178.582974
 21
192.379489
 31
0.0
  0
LINE
  8
0
  6
CONTINUOUS
 62
   249
 10
178.582974
 20
192.379489
 30
0.0
 11
176.237209
 21
191.18957
 31
0.0
  0
TEXT
  8
0
  6
CONTINUOUS
 62
   249
 10
171.270128
 20
191.176886
 30
0.0
 40
2.5
  1
I
 11
171.270128
 21
190.343552
 31
0.0
 73
     1
  0
LINE
  8
0
  6
CONTINUOUS
 62
   249
 10
178.930679
 20
202.898838
 30
0.0
 11
178.930679
 21
201.110706
 31
0.0
  0
LINE
  8
0
  6
CONTINUOUS
 62
   249
 10
178.961711
 20
202.053559
 30
0.0
 11
186.749916
 21
202.053559
 31
0.0
  0
LINE
  8
0
  6
CONTINUOUS
 62
   249
 10
183.791263
 20
204.251722
 30
0.0
 11
184.69194
 21
203.127973
 31
0.0
  0
LINE
  8
0
  6
CONTINUOUS
 62
   249
 10
181.345856
 20
200.885957
 30
0.0
 11
184.221966
 21
203.714515
 31
0.0
  0
LINE
  8
0
  6
CONTINUOUS
 62
   249
 10
186.745375
 20
202.898838
 30
0.0
 11
186.745375
 21
201.110706
 31
0.0
  0
TEXT
  8
0
  6
CONTINUOUS
 62
   249
 10
171.270128
 20
196.29181
 30
0.0
 40
2.5
  1
I
 11
171.270128
 21
195.458477
 31
0.0
 73
     1
  0
LINE
  8
0
  6
CONTINUOUS
 62
   249
 10
179.206
 20
197.494414
 30
0.0
 11
176.860235
 21
196.304495
 31
0.0
  0
LINE
  8
0
  6
CONTINUOUS
 62
   249
 10
176.860235
 20
198.829768
 30
0.0
 11
179.206
 21
197.494414
 31
0.0
  0
LINE
  8
0
  6
CONTINUOUS
 62
   249
 10
177.655216
 20
197.494414
 30
0.0
 11
175.309451
 21
196.304495
 31
0.0
  0
LINE
  8
0
  6
CONTINUOUS
 62
   249
 10
175.309451
 20
198.829768
 30
0.0
 11
177.655216
 21
197.494414
 31
0.0
  0
TEXT
  8
0
  6
CONTINUOUS
 62
   249
 10
190.077202
 20
198.166974
 30
0.0
 40
2.5
  1
I
 11
190.077202
 21
197.333641
 31
0.0
 73
     1
  0
LINE
  8
0
  6
CONTINUOUS
 62
   249
 10
187.5
 20
230.0
 30
0.0
 11
187.5
 21
130.0
 31
0.0
  0
LINE
  8
0
  6
CONTINUOUS
 62
   249
 10
205.0
 20
217.5
 30
0.0
 11
205.0
 21
57.5
 31
0.0
  0
LINE
  8
0
  6
CONTINUOUS
 62
   249
 10
227.5
 20
145.0
 30
0.0
 11
228.5
 21
146.0
 31
0.0
  0
LINE
  8
0
  6
CONTINUOUS
 62
   249
 10
227.5
 20
155.0
 30
0.0
 11
228.5
 21
154.0
 31
0.0
  0
LINE
  8
0
  6
CONTINUOUS
 62
   249
 10
227.5
 20
145.0
 30
0.0
 11
227.5
 21
135.0
 31
0.0
  0
LINE
  8
0
  6
HIDDEN
 62
   249
 10
167.5
 20
130.0
 30
0.0
 11
167.5
 21
57.5
 31
0.0
  0
LINE
  8
0
  6
HIDDEN
 62
   249
 10
197.950615
 20
130.0
 30
0.0
 11
197.950615
 21
57.5
 31
0.0
  0
LINE
  8
0
  6
CONTINUOUS
 62
   249
 10
227.5
 20
160.0
 30
0.0
 11
212.851542
 21
160.0
 31
0.0
  0
LINE
  8
0
  6
CONTINUOUS
 62
   249
 10
197.950615
 20
181.883025
 30
0.0
 11
208.746052
 21
181.883025
 31
0.0
  0
LINE
  8
0
  6
CONTINUOUS
 62
   249
 10
60.0
 20
185.377204
 30
0.0
 11
60.0
 21
194.492731
 31
0.0
  0
LINE
  8
0
  6
CONTINUOUS
 62
   249
 10
157.5
 20
217.5
 30
0.0
 11
167.5
 21
217.5
 31
0.0
  0
LINE
  8
0
  6
CONTINUOUS
 62
   249
 10
165.51273
 20
183.000813
 30
0.0
 11
155.0
 21
183.000813
 31
0.0
  0
LINE
  8
0
  6
CONTINUOUS
 62
   249
 10
165.51273
 20
179.971652
 30
0.0
 11
157.5
 21
179.971652
 31
0.0
  0
CIRCLE
  8
0
  6
CONTINUOUS
 62
   249
 10
166.512659
 20
179.965349
 30
0.0
 40
1.0
  0
CIRCLE
  8
0
  6
CONTINUOUS
 62
   249
 10
166.512659
 20
182.994509
 30
0.0
 40
1.0
  0
LINE
  8
0
  6
CONTINUOUS
 62
   249
 10
57.5
 20
185.377204
 30
0.0
 11
57.5
 21
204.665835
 31
0.0
  0
TEXT
  8
0
  6
CONTINUOUS
 62
   249
 10
212.805314
 20
28.117486
 30
0.0
 40
2.0
  1
1993-09-22  JR / RITU
  7
ROMANS
  0
TEXT
  8
0
  6
CONTINUOUS
 62
   249
 10
317.5
 20
27.5
 30
0.0
 40
2.0
  1
TERMINAL DIAGRAM / UTTAGSSCHEMA
  7
ROMANS
  0
TEXT
  8
0
  6
CONTINUOUS
 62
   249
 10
317.5
 20
24.166667
 30
0.0
 40
2.0
  1
SPAC 539 C / E263
  7
ROMANS
  0
TEXT
  8
0
  6
CONTINUOUS
 62
   249
 10
317.5
 20
2.5
 30
0.0
 40
2.5
  1
RS 10195-AAA
  7
ROMANS
  0
TEXT
  8
0
  6
CONTINUOUS
 62
   249
 10
370.299098
 20
11.968596
 30
0.0
 40
2.0
  1
1/2
  7
ROMANS
  0
LINE
  8
0
  6
CONTINUOUS
 62
   249
 10
358.865865
 20
187.5
 30
0.0
 11
378.865865
 21
187.5
 31
0.0
  0
LINE
  8
0
  6
CONTINUOUS
 62
   249
 10
364.46614
 20
195.292443
 30
0.0
 11
364.46614
 21
193.504312
 31
0.0
  0
LINE
  8
0
  6
CONTINUOUS
 62
   249
 10
364.497172
 20
194.447165
 30
0.0
 11
372.285377
 21
194.447165
 31
0.0
  0
LINE
  8
0
  6
CONTINUOUS
 62
   249
 10
366.881316
 20
193.279562
 30
0.0
 11
369.757427
 21
196.108121
 31
0.0
  0
LINE
  8
0
  6
CONTINUOUS
 62
   249
 10
369.326723
 20
196.645328
 30
0.0
 11
370.2274
 21
195.521578
 31
0.0
  0
LINE
  8
0
  6
CONTINUOUS
 62
   249
 10
372.280836
 20
195.292443
 30
0.0
 11
372.280836
 21
193.504312
 31
0.0
  0
LINE
  8
0
  6
CONTINUOUS
 62
   249
 10
374.128964
 20
199.118016
 30
0.0
 11
371.783198
 21
197.928097
 31
0.0
  0
LINE
  8
0
  6
CONTINUOUS
 62
   249
 10
371.783198
 20
200.45337
 30
0.0
 11
374.128964
 21
199.118016
 31
0.0
  0
LINE
  8
0
  6
CONTINUOUS
 62
   249
 10
370.191858
 20
200.45337
 30
0.0
 11
372.537624
 21
199.118016
 31
0.0
  0
LINE
  8
0
  6
CONTINUOUS
 62
   249
 10
372.537624
 20
199.118016
 30
0.0
 11
370.191858
 21
197.928097
 31
0.0
  0
TEXT
  8
0
  6
DASHED
 62
   249
 10
364.960066
 20
198.044326
 30
0.0
 40
2.5
  1
I
  0
LINE
  8
0
  6
CONTINUOUS
 62
   249
 10
372.280836
 20
230.348909
 30
0.0
 11
372.280836
 21
228.560777
 31
0.0
  0
LINE
  8
0
  6
CONTINUOUS
 62
   249
 10
366.881316
 20
228.336027
 30
0.0
 11
369.757427
 21
231.164586
 31
0.0
  0
LINE
  8
0
  6
CONTINUOUS
 62
   249
 10
369.326723
 20
231.701793
 30
0.0
 11
370.2274
 21
230.578044
 31
0.0
  0
LINE
  8
0
  6
CONTINUOUS
 62
   249
 10
364.497172
 20
229.50363
 30
0.0
 11
372.285377
 21
229.50363
 31
0.0
  0
LINE
  8
0
  6
CONTINUOUS
 62
   249
 10
364.46614
 20
230.348909
 30
0.0
 11
364.46614
 21
228.560777
 31
0.0
  0
LINE
  8
0
  6
CONTINUOUS
 62
   249
 10
370.844881
 20
215.263505
 30
0.0
 11
373.190646
 21
213.928151
 31
0.0
  0
LINE
  8
0
  6
CONTINUOUS
 62
   249
 10
373.190646
 20
213.928151
 30
0.0
 11
370.844881
 21
212.738232
 31
0.0
  0
TEXT
  8
0
  6
DASHED
 62
   249
 10
364.929661
 20
212.840061
 30
0.0
 40
2.5
  1
I
  0
LINE
  8
0
  6
CONTINUOUS
 62
   249
 10
374.780836
 20
156.430368
 30
0.0
 11
374.780836
 21
154.642237
 31
0.0
  0
LINE
  8
0
  6
CONTINUOUS
 62
   249
 10
371.826723
 20
157.783253
 30
0.0
 11
372.7274
 21
156.659504
 31
0.0
  0
LINE
  8
0
  6
CONTINUOUS
 62
   249
 10
369.381316
 20
154.417487
 30
0.0
 11
372.257427
 21
157.246046
 31
0.0
  0
LINE
  8
0
  6
CONTINUOUS
 62
   249
 10
366.997172
 20
155.58509
 30
0.0
 11
374.785377
 21
155.58509
 31
0.0
  0
LINE
  8
0
  6
CONTINUOUS
 62
   249
 10
366.96614
 20
156.430368
 30
0.0
 11
366.96614
 21
154.642237
 31
0.0
  0
LINE
  8
0
  6
CONTINUOUS
 62
   249
 10
371.218282
 20
159.948557
 30
0.0
 11
369.969609
 21
159.315151
 31
0.0
  0
LINE
  8
0
  6
CONTINUOUS
 62
   249
 10
369.969609
 20
160.659378
 30
0.0
 11
371.218282
 21
159.948557
 31
0.0
  0
TEXT
  8
0
  6
CONTINUOUS
 62
   249
 10
371.371084
 20
159.02768
 30
0.0
 40
2.0
  1
I
  0
TEXT
  8
0
  6
CONTINUOUS
 62
   249
 10
364.847969
 20
159.031931
 30
0.0
 40
2.0
  1
O
  0
LINE
  8
0
  6
CONTINUOUS
 62
   249
 10
366.725133
 20
159.948557
 30
0.0
 11
371.218282
 21
159.948557
 31
0.0
  0
TEXT
  8
0
  6
DASHED
 62
   249
 10
365.309224
 20
253.268474
 30
0.0
 40
2.5
  1
3I
  0
LINE
  8
0
  6
CONTINUOUS
 62
   249
 10
369.716444
 20
255.816754
 30
0.0
 11
372.062209
 21
254.4814
 31
0.0
  0
LINE
  8
0
  6
CONTINUOUS
 62
   249
 10
372.062209
 20
254.4814
 30
0.0
 11
369.716444
 21
253.291481
 31
0.0
  0
LINE
  8
0
  6
CONTINUOUS
 62
   249
 10
364.46614
 20
250.206143
 30
0.0
 11
364.46614
 21
248.418012
 31
0.0
  0
LINE
  8
0
  6
CONTINUOUS
 62
   249
 10
364.497172
 20
249.360865
 30
0.0
 11
372.285377
 21
249.360865
 31
0.0
  0
LINE
  8
0
  6
CONTINUOUS
 62
   249
 10
369.326723
 20
251.559027
 30
0.0
 11
370.2274
 21
250.435278
 31
0.0
  0
ARC
  8
0
  6
HIDDEN
 62
   249
 10
371.19204
 20
253.289409
 30
0.0
 40
4.998196
 50
206.402922
 51
282.21115
  0
LINE
  8
0
  6
CONTINUOUS
 62
   249
 10
366.881316
 20
248.193262
 30
0.0
 11
369.757427
 21
251.021821
 31
0.0
  0
LINE
  8
0
  6
CONTINUOUS
 62
   249
 10
372.280836
 20
250.206143
 30
0.0
 11
372.280836
 21
248.418012
 31
0.0
  0
TEXT
  8
0
  6
DASHED
 62
   249
 10
365.309224
 20
243.282752
 30
0.0
 40
2.5
  1
3I
  0
LINE
  8
0
  6
CONTINUOUS
 62
   249
 10
372.304734
 20
244.50956
 30
0.0
 11
369.958969
 21
243.319641
 31
0.0
  0
LINE
  8
0
  6
CONTINUOUS
 62
   249
 10
369.958969
 20
245.844914
 30
0.0
 11
372.304734
 21
244.50956
 31
0.0
  0
LINE
  8
0
  6
CONTINUOUS
 62
   249
 10
371.652242
 20
245.844914
 30
0.0
 11
373.998008
 21
244.50956
 31
0.0
  0
LINE
  8
0
  6
CONTINUOUS
 62
   249
 10
373.998008
 20
244.50956
 30
0.0
 11
371.652242
 21
243.319641
 31
0.0
  0
LINE
  8
0
  6
CONTINUOUS
 62
   249
 10
372.280836
 20
240.552173
 30
0.0
 11
372.280836
 21
238.764041
 31
0.0
  0
LINE
  8
0
  6
CONTINUOUS
 62
   249
 10
369.326723
 20
241.905057
 30
0.0
 11
370.2274
 21
240.781308
 31
0.0
  0
LINE
  8
0
  6
CONTINUOUS
 62
   249
 10
366.881316
 20
238.539291
 30
0.0
 11
369.757427
 21
241.36785
 31
0.0
  0
LINE
  8
0
  6
CONTINUOUS
 62
   249
 10
364.497172
 20
239.706894
 30
0.0
 11
372.285377
 21
239.706894
 31
0.0
  0
LINE
  8
0
  6
CONTINUOUS
 62
   249
 10
364.46614
 20
240.552173
 30
0.0
 11
364.46614
 21
238.764041
 31
0.0
  0
LINE
  8
0
  6
HIDDEN
 62
   249
 10
358.865865
 20
237.5
 30
0.0
 11
378.865865
 21
237.5
 31
0.0
  0
LINE
  8
0
  6
CONTINUOUS
 62
   249
 10
358.865865
 20
257.5
 30
0.0
 11
378.865865
 21
257.5
 31
0.0
  0
LINE
  8
0
  6
CONTINUOUS
 62
   249
 10
378.865865
 20
257.5
 30
0.0
 11
378.865865
 21
175.0
 31
0.0
  0
LINE
  8
0
  6
CONTINUOUS
 62
   249
 10
358.865865
 20
175.0
 30
0.0
 11
358.865865
 21
257.5
 31
0.0
  0
LINE
  8
0
  6
CONTINUOUS
 62
   249
 10
358.865865
 20
217.5
 30
0.0
 11
378.865865
 21
217.5
 31
0.0
  0
LINE
  8
0
  6
CONTINUOUS
 62
   249
 10
364.46614
 20
220.823413
 30
0.0
 11
364.46614
 21
219.035282
 31
0.0
  0
LINE
  8
0
  6
CONTINUOUS
 62
   249
 10
364.497172
 20
219.978135
 30
0.0
 11
372.285377
 21
219.978135
 31
0.0
  0
LINE
  8
0
  6
CONTINUOUS
 62
   249
 10
366.881316
 20
218.810532
 30
0.0
 11
369.757427
 21
221.639091
 31
0.0
  0
LINE
  8
0
  6
CONTINUOUS
 62
   249
 10
369.326723
 20
222.176297
 30
0.0
 11
370.2274
 21
221.052548
 31
0.0
  0
LINE
  8
0
  6
CONTINUOUS
 62
   249
 10
372.280836
 20
220.823413
 30
0.0
 11
372.280836
 21
219.035282
 31
0.0
  0
LINE
  8
0
  6
CONTINUOUS
 62
   249
 10
372.280836
 20
209.58206
 30
0.0
 11
372.280836
 21
207.793929
 31
0.0
  0
LINE
  8
0
  6
CONTINUOUS
 62
   249
 10
366.881316
 20
207.569179
 30
0.0
 11
369.757427
 21
210.397738
 31
0.0
  0
LINE
  8
0
  6
CONTINUOUS
 62
   249
 10
369.326723
 20
210.934944
 30
0.0
 11
370.2274
 21
209.811195
 31
0.0
  0
LINE
  8
0
  6
CONTINUOUS
 62
   249
 10
364.497172
 20
208.736782
 30
0.0
 11
372.285377
 21
208.736782
 31
0.0
  0
LINE
  8
0
  6
CONTINUOUS
 62
   249
 10
364.46614
 20
209.58206
 30
0.0
 11
364.46614
 21
207.793929
 31
0.0
  0
LINE
  8
0
  6
CONTINUOUS
 62
   249
 10
364.975177
 20
203.75802
 30
0.0
 11
372.518763
 21
203.75802
 31
0.0
  0
TEXT
  8
0
  6
DASHED
 62
   249
 10
364.929661
 20
232.921465
 30
0.0
 40
2.5
  1
I
  0
LINE
  8
0
  6
CONTINUOUS
 62
   249
 10
373.190646
 20
234.009554
 30
0.0
 11
370.844881
 21
232.819635
 31
0.0
  0
LINE
  8
0
  6
CONTINUOUS
 62
   249
 10
370.844881
 20
235.344908
 30
0.0
 11
373.190646
 21
234.009554
 31
0.0
  0
TEXT
  8
0
  6
DASHED
 62
   249
 10
364.960066
 20
223.539677
 30
0.0
 40
2.5
  1
I
  0
LINE
  8
0
  6
CONTINUOUS
 62
   249
 10
372.992912
 20
224.613368
 30
0.0
 11
370.647147
 21
223.423448
 31
0.0
  0
LINE
  8
0
  6
CONTINUOUS
 62
   249
 10
370.647147
 20
225.948721
 30
0.0
 11
372.992912
 21
224.613368
 31
0.0
  0
LINE
  8
0
  6
CONTINUOUS
 62
   249
 10
372.34042
 20
225.948721
 30
0.0
 11
374.686186
 21
224.613368
 31
0.0
  0
LINE
  8
0
  6
CONTINUOUS
 62
   249
 10
374.686186
 20
224.613368
 30
0.0
 11
372.34042
 21
223.423448
 31
0.0
  0
LINE
  8
0
  6
CONTINUOUS
 62
   249
 10
364.413999
 20
189.718453
 30
0.0
 11
371.957586
 21
189.718453
 31
0.0
  0
TEXT
  8
0
  6
CONTINUOUS
 62
   249
 10
52.5
 20
214.618189
 30
0.0
 40
2.0
  1
BS1
  7
ROMANS
  0
TEXT
  8
0
  6
CONTINUOUS
 62
   249
 10
52.5
 20
207.118189
 30
0.0
 40
2.0
  1
BS2
  7
ROMANS
  0
TEXT
  8
0
  6
CONTINUOUS
 62
   249
 10
362.483225
 20
154.415083
 30
0.0
 40
2.0
  1
n
  7
GREEKS
  0
TEXT
  8
0
  6
CONTINUOUS
 62
   249
 10
364.723723
 20
154.389051
 30
0.0
 40
2.0
  1
x
  7
GREEKS
  0
LINE
  8
0
  6
CONTINUOUS
 62
   249
 10
103.318812
 20
138.914794
 30
0.0
 11
103.318812
 21
151.055194
 31
0.0
  0
LINE
  8
0
  6
CONTINUOUS
 62
   249
 10
205.0
 20
57.5
 30
0.0
 11
205.0
 21
50.0
 31
0.0
  0
LINE
  8
0
  6
HIDDEN
 62
   249
 10
167.5
 20
57.5
 30
0.0
 11
167.5
 21
50.0
 31
0.0
  0
LINE
  8
0
  6
HIDDEN
 62
   249
 10
197.950615
 20
57.5
 30
0.0
 11
197.950615
 21
50.0
 31
0.0
  0
TEXT
  8
0
  6
CONTINUOUS
 62
   249
 10
349.50714
 20
145.21513
 30
0.0
 40
2.0
  1
FEEDER PROTECTION
  7
ROMANS
  0
TEXT
  8
0
  6
CONTINUOUS
 62
   249
 10
349.50714
 20
141.881796
 30
0.0
 40
2.0
  1
AND CONTROL UNIT
  7
ROMANS
  0
TEXT
  8
0
  6
CONTINUOUS
 62
   249
 10
349.50714
 20
136.048463
 30
0.0
 40
2.0
  1
SKYDDS- OCH KONTROLL-
  7
ROMANS
  0
TEXT
  8
0
  6
CONTINUOUS
 62
   249
 10
349.50714
 20
132.71513
 30
0.0
 40
2.0
  1
ENHET
  7
ROMANS
  0
TEXT
  8
0
  6
CONTINUOUS
 62
   249
 10
325.788564
 20
62.315276
 30
0.0
 40
2.5
  1
I
 11
325.788564
 21
61.481943
 31
0.0
 73
     1
  0
TEXT
  8
0
  6
CONTINUOUS
 62
   249
 10
380.0
 20
2.5
 30
0.0
 40
2.5
  1
A
  7
ROMANS
  0
LINE
  8
0
  6
CONTINUOUS
 62
   249
 10
227.5
 20
125.0
 30
0.0
 11
227.5
 21
115.0
 31
0.0
  0
LINE
  8
0
  6
CONTINUOUS
 62
   249
 10
227.5
 20
120.0
 30
0.0
 11
220.0
 21
120.0
 31
0.0
  0
LINE
  8
0
  6
CONTINUOUS
 62
   249
 10
217.16296
 20
120.0
 30
0.0
 11
220.0
 21
120.0
 31
0.0
  0
LINE
  8
0
  6
CONTINUOUS
 62
   249
 10
227.5
 20
125.0
 30
0.0
 11
228.5
 21
126.0
 31
0.0
  0
LINE
  8
0
  6
CONTINUOUS
 62
   249
 10
227.5
 20
115.0
 30
0.0
 11
228.5
 21
114.0
 31
0.0
  0
LINE
  8
0
  6
CONTINUOUS
 62
   249
 10
212.851542
 20
197.144221
 30
0.0
 11
212.851542
 21
160.0
 31
0.0
  0
LINE
  8
0
  6
CONTINUOUS
 62
   249
 10
197.950615
 20
174.895025
 30
0.0
 11
217.16296
 21
174.895025
 31
0.0
  0
LINE
  8
0
  6
CONTINUOUS
 62
   249
 10
217.16296
 20
174.895025
 30
0.0
 11
217.16296
 21
120.0
 31
0.0
  0
LINE
  8
0
  6
HIDDEN
 62
   249
 10
167.5
 20
155.0
 30
0.0
 11
187.5
 21
155.0
 31
0.0
  0
LINE
  8
0
  6
HIDDEN
 62
   249
 10
167.5
 20
145.0
 30
0.0
 11
187.5
 21
145.0
 31
0.0
  0
LINE
  8
0
  6
HIDDEN
 62
   249
 10
167.5
 20
140.0
 30
0.0
 11
187.5
 21
140.0
 31
0.0
  0
LINE
  8
0
  6
CONTINUOUS
 62
   249
 10
167.5
 20
130.0
 30
0.0
 11
197.950615
 21
130.0
 31
0.0
  0
TEXT
  8
0
  6
CONTINUOUS
 62
   249
 10
192.5
 20
155.352153
 30
0.0
 40
2.5
  1
U3
  7
ROMANS
  0
LINE
  8
0
  6
CONTINUOUS
 62
   249
 10
175.071688
 20
148.414309
 30
0.0
 11
177.417454
 21
147.078955
 31
0.0
  0
LINE
  8
0
  6
CONTINUOUS
 62
   249
 10
177.417454
 20
147.078955
 30
0.0
 11
175.071688
 21
145.889036
 31
0.0
  0
LINE
  8
0
  6
CONTINUOUS
 62
   249
 10
178.931134
 20
147.954289
 30
0.0
 11
178.931134
 21
146.166157
 31
0.0
  0
LINE
  8
0
  6
CONTINUOUS
 62
   249
 10
178.962165
 20
147.10901
 30
0.0
 11
186.75037
 21
147.10901
 31
0.0
  0
LINE
  8
0
  6
CONTINUOUS
 62
   249
 10
183.791717
 20
149.307173
 30
0.0
 11
184.692394
 21
148.183424
 31
0.0
  0
LINE
  8
0
  6
CONTINUOUS
 62
   249
 10
181.34631
 20
145.941408
 30
0.0
 11
184.22242
 21
148.769966
 31
0.0
  0
LINE
  8
0
  6
CONTINUOUS
 62
   249
 10
186.745829
 20
147.954289
 30
0.0
 11
186.745829
 21
146.166157
 31
0.0
  0
LINE
  8
0
  6
CONTINUOUS
 62
   249
 10
177.400936
 20
150.425187
 30
0.0
 11
179.900936
 21
150.425187
 31
0.0
  0
LINE
  8
0
  6
CONTINUOUS
 62
   249
 10
177.400936
 20
150.425187
 30
0.0
 11
175.176489
 21
149.864544
 31
0.0
  0
LINE
  8
0
  6
CONTINUOUS
 62
   249
 10
172.400936
 20
150.425187
 30
0.0
 11
174.900936
 21
150.425187
 31
0.0
  0
TEXT
  8
0
  6
HIDDEN
 62
   249
 10
168.580478
 20
149.691939
 30
0.0
 40
1.5
  1
EN
  0
TEXT
  8
0
  6
HIDDEN
 62
   249
 10
168.580478
 20
152.632979
 30
0.0
 40
1.5
  1
EN
  0
LINE
  8
0
  6
CONTINUOUS
 62
   249
 10
172.400936
 20
153.366226
 30
0.0
 11
174.900936
 21
153.366226
 31
0.0
  0
LINE
  8
0
  6
CONTINUOUS
 62
   249
 10
177.400936
 20
153.366226
 30
0.0
 11
175.176489
 21
152.805584
 31
0.0
  0
LINE
  8
0
  6
CONTINUOUS
 62
   249
 10
177.400936
 20
153.366226
 30
0.0
 11
179.900936
 21
153.366226
 31
0.0
  0
LINE
  8
0
  6
CONTINUOUS
 62
   249
 10
177.400936
 20
138.024347
 30
0.0
 11
179.900936
 21
138.024347
 31
0.0
  0
LINE
  8
0
  6
CONTINUOUS
 62
   249
 10
177.400936
 20
138.024347
 30
0.0
 11
175.176489
 21
137.463705
 31
0.0
  0
LINE
  8
0
  6
CONTINUOUS
 62
   249
 10
172.400936
 20
138.024347
 30
0.0
 11
174.900936
 21
138.024347
 31
0.0
  0
TEXT
  8
0
  6
HIDDEN
 62
   249
 10
168.580478
 20
137.291099
 30
0.0
 40
1.5
  1
EN
  0
TEXT
  8
0
  6
HIDDEN
 62
   249
 10
168.580478
 20
134.350059
 30
0.0
 40
1.5
  1
EN
  0
LINE
  8
0
  6
CONTINUOUS
 62
   249
 10
172.400936
 20
135.083307
 30
0.0
 11
174.900936
 21
135.083307
 31
0.0
  0
LINE
  8
0
  6
CONTINUOUS
 62
   249
 10
177.400936
 20
135.083307
 30
0.0
 11
175.176489
 21
134.522665
 31
0.0
  0
LINE
  8
0
  6
CONTINUOUS
 62
   249
 10
177.400936
 20
135.083307
 30
0.0
 11
179.900936
 21
135.083307
 31
0.0
  0
LINE
  8
0
  6
CONTINUOUS
 62
   249
 10
186.745829
 20
132.612409
 30
0.0
 11
186.745829
 21
130.824278
 31
0.0
  0
LINE
  8
0
  6
CONTINUOUS
 62
   249
 10
181.34631
 20
130.599528
 30
0.0
 11
184.22242
 21
133.428087
 31
0.0
  0
LINE
  8
0
  6
CONTINUOUS
 62
   249
 10
183.791717
 20
133.965294
 30
0.0
 11
184.692394
 21
132.841545
 31
0.0
  0
LINE
  8
0
  6
CONTINUOUS
 62
   249
 10
178.962165
 20
131.767131
 30
0.0
 11
186.75037
 21
131.767131
 31
0.0
  0
LINE
  8
0
  6
CONTINUOUS
 62
   249
 10
178.931134
 20
132.612409
 30
0.0
 11
178.931134
 21
130.824278
 31
0.0
  0
LINE
  8
0
  6
CONTINUOUS
 62
   249
 10
177.417454
 20
131.737076
 30
0.0
 11
175.071688
 21
130.547157
 31
0.0
  0
LINE
  8
0
  6
CONTINUOUS
 62
   249
 10
175.071688
 20
133.07243
 30
0.0
 11
177.417454
 21
131.737076
 31
0.0
  0
LINE
  8
0
  6
CONTINUOUS
 62
   249
 10
175.674969
 20
131.737076
 30
0.0
 11
173.329204
 21
130.547157
 31
0.0
  0
LINE
  8
0
  6
CONTINUOUS
 62
   249
 10
173.329204
 20
133.07243
 30
0.0
 11
175.674969
 21
131.737076
 31
0.0
  0
LINE
  8
0
  6
CONTINUOUS
 62
   249
 10
177.236473
 20
157.474173
 30
0.0
 11
174.890707
 21
156.284254
 31
0.0
  0
LINE
  8
0
  6
CONTINUOUS
 62
   249
 10
174.890707
 20
158.809527
 30
0.0
 11
177.236473
 21
157.474173
 31
0.0
  0
LINE
  8
0
  6
CONTINUOUS
 62
   249
 10
178.627562
 20
142.349694
 30
0.0
 11
176.281796
 21
141.159774
 31
0.0
  0
LINE
  8
0
  6
CONTINUOUS
 62
   249
 10
176.281796
 20
143.685047
 30
0.0
 11
178.627562
 21
142.349694
 31
0.0
  0
LINE
  8
0
  6
CONTINUOUS
 62
   249
 10
176.885078
 20
142.349694
 30
0.0
 11
174.539312
 21
141.159774
 31
0.0
  0
LINE
  8
0
  6
CONTINUOUS
 62
   249
 10
174.539312
 20
143.685047
 30
0.0
 11
176.885078
 21
142.349694
 31
0.0
  0
TEXT
  8
0
  6
CONTINUOUS
 62
   249
 10
169.505063
 20
156.391427
 30
0.0
 40
2.5
  1
Uo
 11
169.505063
 21
155.558094
 31
0.0
 73
     1
  0
TEXT
  8
0
  6
CONTINUOUS
 62
   249
 10
169.505063
 20
141.162355
 30
0.0
 40
2.5
  1
Uo
 11
169.505063
 21
140.329022
 31
0.0
 73
     1
  0
TEXT
  8
0
  6
CONTINUOUS
 62
   249
 10
169.505063
 20
146.013097
 30
0.0
 40
2.5
  1
Uo
 11
169.505063
 21
145.179763
 31
0.0
 73
     1
  0
TEXT
  8
0
  6
CONTINUOUS
 62
   249
 10
188.878775
 20
146.013097
 30
0.0
 40
2.5
  1
Uo
 11
188.878775
 21
145.179763
 31
0.0
 73
     1
  0
LINE
  8
0
  6
CONTINUOUS
 62
   249
 10
195.844646
 20
147.078955
 30
0.0
 11
193.49888
 21
145.889036
 31
0.0
  0
LINE
  8
0
  6
CONTINUOUS
 62
   249
 10
193.49888
 20
148.414309
 30
0.0
 11
195.844646
 21
147.078955
 31
0.0
  0
TEXT
  8
0
  6
CONTINUOUS
 62
   249
 10
168.546561
 20
130.69725
 30
0.0
 40
2.5
  1
Uo
 11
168.546561
 21
129.863917
 31
0.0
 73
     1
  0
LINE
  8
0
  6
CONTINUOUS
 62
   249
 10
152.225254
 20
115.691617
 30
0.0
 11
139.725254
 21
115.691617
 31
0.0
  0
LINE
  8
0
  6
CONTINUOUS
 62
   249
 10
139.725254
 20
115.691617
 30
0.0
 11
139.725254
 21
120.691617
 31
0.0
  0
LINE
  8
0
  6
CONTINUOUS
 62
   249
 10
139.725254
 20
120.691617
 30
0.0
 11
152.225254
 21
120.691617
 31
0.0
  0
LINE
  8
0
  6
CONTINUOUS
 62
   249
 10
152.225254
 20
120.691617
 30
0.0
 11
152.225254
 21
115.691617
 31
0.0
  0
LINE
  8
0
  6
CONTINUOUS
 62
   249
 10
145.789012
 20
118.480813
 30
0.0
 11
143.443247
 21
117.290893
 31
0.0
  0
LINE
  8
0
  6
CONTINUOUS
 62
   249
 10
143.435205
 20
116.49088
 30
0.0
 11
145.818665
 21
117.679071
 31
0.0
  0
LINE
  8
0
  6
CONTINUOUS
 62
   249
 10
143.443247
 20
119.816166
 30
0.0
 11
145.789012
 21
118.480813
 31
0.0
  0
TEXT
  8
0
  6
CONTINUOUS
 62
   249
 10
147.877108
 20
117.156073
 30
0.0
 40
2.5
  1
1
 11
147.877108
 21
116.322739
 31
0.0
 73
     1
  0
LINE
  8
0
  6
CONTINUOUS
 62
   249
 10
91.113983
 20
132.361159
 30
0.0
 11
91.113983
 21
137.361159
 31
0.0
  0
LINE
  8
0
  6
CONTINUOUS
 62
   249
 10
91.113983
 20
137.361159
 30
0.0
 11
98.613983
 21
137.361159
 31
0.0
  0
LINE
  8
0
  6
CONTINUOUS
 62
   249
 10
98.613983
 20
137.361159
 30
0.0
 11
98.613983
 21
132.361159
 31
0.0
  0
LINE
  8
0
  6
CONTINUOUS
 62
   249
 10
98.613983
 20
132.361159
 30
0.0
 11
91.113983
 21
132.361159
 31
0.0
  0
LINE
  8
0
  6
CONTINUOUS
 62
   249
 10
95.0
 20
132.361159
 30
0.0
 11
95.0
 21
112.5
 31
0.0
  0
TEXT
  8
0
  6
CONTINUOUS
 62
   249
 10
96.58496
 20
133.964455
 30
0.0
 40
2.5
  1
1
 11
96.58496
 21
133.131122
 31
0.0
 73
     1
  0
LINE
  8
0
  6
CONTINUOUS
 62
   249
 10
92.151098
 20
136.624549
 30
0.0
 11
94.496864
 21
135.289195
 31
0.0
  0
LINE
  8
0
  6
CONTINUOUS
 62
   249
 10
92.143056
 20
133.299262
 30
0.0
 11
94.526517
 21
134.487454
 31
0.0
  0
LINE
  8
0
  6
CONTINUOUS
 62
   249
 10
94.496864
 20
135.289195
 30
0.0
 11
92.151098
 21
134.099276
 31
0.0
  0
LINE
  8
0
  6
CONTINUOUS
 62
   249
 10
105.818812
 20
57.5
 30
0.0
 11
105.818812
 21
50.0
 31
0.0
  0
LINE
  8
0
  6
CONTINUOUS
 62
   249
 10
165.51273
 20
134.86491
 30
0.0
 11
157.5
 21
134.86491
 31
0.0
  0
CIRCLE
  8
0
  6
CONTINUOUS
 62
   249
 10
166.512659
 20
134.858607
 30
0.0
 40
1.0
  0
LINE
  8
0
  6
CONTINUOUS
 62
   249
 10
165.51273
 20
137.902047
 30
0.0
 11
157.5
 21
137.902047
 31
0.0
  0
CIRCLE
  8
0
  6
CONTINUOUS
 62
   249
 10
166.512659
 20
137.895744
 30
0.0
 40
1.0
  0
LINE
  8
0
  6
CONTINUOUS
 62
   249
 10
167.5
 20
131.607813
 30
0.0
 11
150.0
 21
131.607813
 31
0.0
  0
LINE
  8
0
  6
CONTINUOUS
 62
   249
 10
60.0
 20
149.301304
 30
0.0
 11
60.0
 21
147.5
 31
0.0
  0
LINE
  8
0
  6
CONTINUOUS
 62
   249
 10
167.5
 20
157.5
 30
0.0
 11
97.5
 21
157.5
 31
0.0
  0
LINE
  8
0
  6
CONTINUOUS
 62
   249
 10
97.5
 20
157.5
 30
0.0
 11
97.5
 21
150.0
 31
0.0
  0
LINE
  8
0
  6
CONTINUOUS
 62
   249
 10
97.5
 20
137.5
 30
0.0
 11
97.5
 21
142.5
 31
0.0
  0
LINE
  8
0
  6
CONTINUOUS
 62
   249
 10
97.5
 20
142.5
 30
0.0
 11
95.785914
 21
147.586297
 31
0.0
  0
TEXT
  8
0
  6
CONTINUOUS
 62
   249
 10
97.832204
 20
142.5
 30
0.0
 40
2.0
  1
4
  7
ROMANS
  0
LINE
  8
0
  6
CONTINUOUS
 62
   249
 10
97.5
 20
150.0
 30
0.0
 11
97.5
 21
147.5
 31
0.0
  0
TEXT
  8
0
  6
CONTINUOUS
 62
   249
 10
93.7231
 20
138.54171
 30
0.0
 40
2.0
  1
SGR
 50
90.0
  7
ROMANS
  0
LINE
  8
0
  6
CONTINUOUS
 62
   249
 10
50.0
 20
152.5
 30
0.0
 11
48.285914
 21
157.586297
 31
0.0
  0
LINE
  8
0
  6
CONTINUOUS
 62
   249
 10
50.0
 20
147.5
 30
0.0
 11
50.0
 21
152.5
 31
0.0
  0
LINE
  8
0
  6
CONTINUOUS
 62
   249
 10
50.0
 20
157.5
 30
0.0
 11
50.0
 21
170.0
 31
0.0
  0
TEXT
  8
0
  6
CONTINUOUS
 62
   249
 10
49.639384
 20
155.0
 30
0.0
 40
2.0
  1
6
  7
ROMANS
  0
LINE
  8
0
  6
CONTINUOUS
 62
   249
 10
87.5
 20
152.5
 30
0.0
 11
85.785914
 21
157.586297
 31
0.0
  0
LINE
  8
0
  6
CONTINUOUS
 62
   249
 10
87.5
 20
147.5
 30
0.0
 11
87.5
 21
152.5
 31
0.0
  0
TEXT
  8
0
  6
CONTINUOUS
 62
   249
 10
87.631238
 20
155.0
 30
0.0
 40
2.0
  1
5
  7
ROMANS
  0
LINE
  8
0
  6
CONTINUOUS
 62
   249
 10
50.0
 20
170.0
 30
0.0
 11
50.0
 21
173.728561
 31
0.0
  0
LINE
  8
0
  6
CONTINUOUS
 62
   249
 10
150.0
 20
131.607813
 30
0.0
 11
150.0
 21
120.691617
 31
0.0
  0
LINE
  8
0
  6
CONTINUOUS
 62
   249
 10
147.5
 20
159.723022
 30
0.0
 11
147.5
 21
120.691617
 31
0.0
  0
LINE
  8
0
  6
CONTINUOUS
 62
   249
 10
145.0
 20
157.5
 30
0.0
 11
145.0
 21
120.691617
 31
0.0
  0
LINE
  8
0
  6
CONTINUOUS
 62
   249
 10
145.0
 20
157.5
 30
0.0
 11
145.0
 21
167.992711
 31
0.0
  0
LINE
  8
0
  6
CONTINUOUS
 62
   249
 10
145.0
 20
167.992711
 30
0.0
 11
89.658292
 21
167.992711
 31
0.0
  0
LINE
  8
0
  6
CONTINUOUS
 62
   249
 10
89.658292
 20
167.992711
 30
0.0
 11
89.658292
 21
173.728561
 31
0.0
  0
LINE
  8
0
  6
CONTINUOUS
 62
   249
 10
89.658292
 20
173.728561
 30
0.0
 11
78.180236
 21
173.728561
 31
0.0
  0
LINE
  8
0
  6
CONTINUOUS
 62
   249
 10
78.180236
 20
173.728561
 30
0.0
 11
50.0
 21
173.728561
 31
0.0
  0
LINE
  8
0
  6
CONTINUOUS
 62
   249
 10
147.5
 20
157.5
 30
0.0
 11
147.5
 21
159.723022
 31
0.0
  0
LINE
  8
0
  6
CONTINUOUS
 62
   249
 10
147.5
 20
159.723022
 30
0.0
 11
87.5
 21
159.723022
 31
0.0
  0
LINE
  8
0
  6
CONTINUOUS
 62
   249
 10
87.5
 20
159.723022
 30
0.0
 11
87.5
 21
157.5
 31
0.0
  0
LINE
  8
0
  6
CONTINUOUS
 62
   249
 10
157.5
 20
134.86491
 30
0.0
 11
157.5
 21
165.0
 31
0.0
  0
LINE
  8
0
  6
CONTINUOUS
 62
   249
 10
142.5
 20
157.5
 30
0.0
 11
142.5
 21
120.691617
 31
0.0
  0
LINE
  8
0
  6
CONTINUOUS
 62
   249
 10
157.5
 20
137.902047
 30
0.0
 11
155.0
 21
137.902047
 31
0.0
  0
LINE
  8
0
  6
CONTINUOUS
 62
   249
 10
155.0
 20
137.902047
 30
0.0
 11
155.0
 21
168.000813
 31
0.0
  0
LINE
  8
0
  6
CONTINUOUS
 62
   249
 10
165.51273
 20
153.252604
 30
0.0
 11
157.5
 21
153.252604
 31
0.0
  0
CIRCLE
  8
0
  6
CONTINUOUS
 62
   249
 10
166.512659
 20
153.246301
 30
0.0
 40
1.0
  0
LINE
  8
0
  6
CONTINUOUS
 62
   249
 10
157.5
 20
153.252604
 30
0.0
 11
155.0
 21
153.252604
 31
0.0
  0
LINE
  8
0
  6
CONTINUOUS
 62
   249
 10
165.51273
 20
150.527858
 30
0.0
 11
157.5
 21
150.527858
 31
0.0
  0
CIRCLE
  8
0
  6
CONTINUOUS
 62
   249
 10
166.512659
 20
150.521555
 30
0.0
 40
1.0
  0
LINE
  8
0
  6
CONTINUOUS
 62
   249
 10
167.5
 20
142.397009
 30
0.0
 11
147.5
 21
142.397009
 31
0.0
  0
TEXT
  8
0
  6
DASHED
 62
   249
 10
150.769619
 20
59.039786
 30
0.0
 40
2.0
  1
CH 17
 50
90.0
  7
ROMANS
  0
TEXT
  8
0
  6
DASHED
 62
   249
 10
135.517464
 20
59.039786
 30
0.0
 40
2.0
  1
CH 16
 50
90.0
  7
ROMANS
  0
TEXT
  8
0
  6
DASHED
 62
   249
 10
118.77963
 20
59.039786
 30
0.0
 40
2.0
  1
CH 15
 50
90.0
  7
ROMANS
  0
TEXT
  8
0
  6
DASHED
 62
   249
 10
108.415832
 20
59.039786
 30
0.0
 40
2.0
  1
AR INH
 50
90.0
  7
ROMANS
  0
LINE
  8
0
  6
CONTINUOUS
 62
   249
 10
122.5
 20
137.5
 30
0.0
 11
122.5
 21
190.609386
 31
0.0
  0
LINE
  8
0
  6
CONTINUOUS
 62
   249
 10
167.5
 20
190.609386
 30
0.0
 11
122.5
 21
190.609386
 31
0.0
  0
TEXT
  8
0
  6
CONTINUOUS
 62
   249
 10
162.342601
 20
188.592855
 30
0.0
 40
1.5
  1
SS3
  7
ROMANS
  0
LINE
  8
0
  6
CONTINUOUS
 62
   249
 10
358.865865
 20
151.298616
 30
0.0
 11
358.865865
 21
215.0
 31
0.0
  0
LINE
  8
0
  6
CONTINUOUS
 62
   249
 10
378.865865
 20
215.0
 30
0.0
 11
378.865865
 21
151.298616
 31
0.0
  0
LINE
  8
0
  6
CONTINUOUS
 62
   249
 10
358.865865
 20
163.798616
 30
0.0
 11
378.865865
 21
163.798616
 31
0.0
  0
LINE
  8
0
  6
CONTINUOUS
 62
   249
 10
358.865865
 20
151.298616
 30
0.0
 11
378.865865
 21
151.298616
 31
0.0
  0
LINE
  8
0
  6
CONTINUOUS
 62
   249
 10
364.46614
 20
179.302476
 30
0.0
 11
364.46614
 21
177.514345
 31
0.0
  0
LINE
  8
0
  6
CONTINUOUS
 62
   249
 10
364.497172
 20
178.457198
 30
0.0
 11
372.285377
 21
178.457198
 31
0.0
  0
LINE
  8
0
  6
CONTINUOUS
 62
   249
 10
369.326723
 20
180.65536
 30
0.0
 11
370.2274
 21
179.531611
 31
0.0
  0
LINE
  8
0
  6
CONTINUOUS
 62
   249
 10
366.881316
 20
177.289595
 30
0.0
 11
369.757427
 21
180.118154
 31
0.0
  0
LINE
  8
0
  6
CONTINUOUS
 62
   249
 10
372.280836
 20
179.302476
 30
0.0
 11
372.280836
 21
177.514345
 31
0.0
  0
LINE
  8
0
  6
CONTINUOUS
 62
   249
 10
373.190646
 20
183.648567
 30
0.0
 11
370.844881
 21
182.458648
 31
0.0
  0
LINE
  8
0
  6
CONTINUOUS
 62
   249
 10
370.844881
 20
184.983921
 30
0.0
 11
373.190646
 21
183.648567
 31
0.0
  0
LINE
  8
0
  6
CONTINUOUS
 62
   249
 10
372.280836
 20
168.577494
 30
0.0
 11
372.280836
 21
166.789362
 31
0.0
  0
LINE
  8
0
  6
CONTINUOUS
 62
   249
 10
366.881316
 20
166.564613
 30
0.0
 11
369.757427
 21
169.393171
 31
0.0
  0
LINE
  8
0
  6
CONTINUOUS
 62
   249
 10
369.326723
 20
169.930378
 30
0.0
 11
370.2274
 21
168.806629
 31
0.0
  0
LINE
  8
0
  6
CONTINUOUS
 62
   249
 10
364.497172
 20
167.732215
 30
0.0
 11
372.285377
 21
167.732215
 31
0.0
  0
LINE
  8
0
  6
CONTINUOUS
 62
   249
 10
364.46614
 20
168.577494
 30
0.0
 11
364.46614
 21
166.789362
 31
0.0
  0
TEXT
  8
0
  6
HIDDEN
 62
   249
 10
364.633151
 20
183.046318
 30
0.0
 40
2.5
  1
Uo
  7
ROMANS
  0
TEXT
  8
0
  6
HIDDEN
 62
   249
 10
364.553366
 20
172.009294
 30
0.0
 40
2.5
  1
Uo
  7
ROMANS
  0
LINE
  8
0
  6
CONTINUOUS
 62
   249
 10
372.537624
 20
172.987429
 30
0.0
 11
370.191858
 21
171.79751
 31
0.0
  0
LINE
  8
0
  6
CONTINUOUS
 62
   249
 10
370.191858
 20
174.322783
 30
0.0
 11
372.537624
 21
172.987429
 31
0.0
  0
LINE
  8
0
  6
CONTINUOUS
 62
   249
 10
371.783198
 20
174.322783
 30
0.0
 11
374.128964
 21
172.987429
 31
0.0
  0
LINE
  8
0
  6
CONTINUOUS
 62
   249
 10
374.128964
 20
172.987429
 30
0.0
 11
371.783198
 21
171.79751
 31
0.0
  0
TEXT
  8
0
  6
CONTINUOUS
 62
   249
 10
325.788564
 20
57.805708
 30
0.0
 40
2.5
  1
I
 11
325.788564
 21
56.972374
 31
0.0
 73
     1
  0
TEXT
  8
0
  6
DASHED
 62
   249
 10
353.649698
 20
58.030666
 30
0.0
 40
2.0
  1
37-39
  7
ROMANS
  0
TEXT
  8
0
  6
DASHED
 62
   249
 10
369.094018
 20
58.030666
 30
0.0
 40
2.0
  1
37-38
  7
ROMANS
  0
TEXT
  8
0
  6
CONTINUOUS
 62
   249
 10
327.568243
 20
62.115826
 30
0.0
 40
1.5
  1
01
  7
ROMANS
  0
TEXT
  8
0
  6
CONTINUOUS
 62
   249
 10
327.568243
 20
57.973778
 30
0.0
 40
1.5
  1
02
  7
ROMANS
  0
LINE
  8
0
 62
   249
 10
367.339004
 20
84.930298
 30
0.0
 11
367.339004
 21
38.778087
 31
0.0
  0
LINE
  8
0
 62
   249
 10
337.029564
 20
84.930298
 30
0.0
 11
337.029564
 21
38.778087
 31
0.0
  0
TEXT
  8
0
  6
CONTINUOUS
 62
   249
 10
338.470638
 20
81.078617
 30
0.0
 40
2.0
  1
In=0,2A
  7
ROMANS
  0
LINE
  8
0
 62
   249
 10
382.088281
 20
55.422532
 30
0.0
 11
382.088281
 21
90.930298
 31
0.0
  0
LINE
  8
0
  6
CONTINUOUS
 62
   249
 10
167.5
 20
160.0
 30
0.0
 11
167.5
 21
130.0
 31
0.0
  0
LINE
  8
0
  6
CONTINUOUS
 62
   249
 10
197.950615
 20
160.0
 30
0.0
 11
197.950615
 21
130.0
 31
0.0
  0
LINE
  8
0
  6
CONTINUOUS
 62
   249
 10
167.5
 20
147.282461
 30
0.0
 11
145.0
 21
147.282461
 31
0.0
  0
LINE
  8
0
  6
CENTER
 62
   249
 10
247.5
 20
242.5
 30
0.0
 11
247.5
 21
57.5
 31
0.0
  0
TEXT
  8
0
  6
CONTINUOUS
 62
   249
 10
291.920319
 20
208.894652
 30
0.0
 40
2.0
  1
P/Q
  7
ROMANS
  0
TEXT
  8
0
  6
CONTINUOUS
 62
   249
 10
253.202618
 20
125.748415
 30
0.0
 40
2.0
  1
1)
  7
ROMANS
  0
TEXT
  8
0
  6
CONTINUOUS
 62
   249
 10
253.202618
 20
145.694453
 30
0.0
 40
2.0
  1
1)
  7
ROMANS
  0
TEXT
  8
0
  6
CONTINUOUS
 62
   249
 10
253.202618
 20
185.682742
 30
0.0
 40
2.0
  1
1)
  7
ROMANS
  0
TEXT
  8
0
  6
CONTINUOUS
 62
   249
 10
253.202618
 20
205.838142
 30
0.0
 40
2.0
  1
1)
  7
ROMANS
  0
TEXT
  8
0
  6
CONTINUOUS
 62
   249
 10
253.202618
 20
225.726736
 30
0.0
 40
2.0
  1
1)
  7
ROMANS
  0
LINE
  8
0
  6
DASHED
 62
   249
 10
292.5
 20
95.0
 30
0.0
 11
337.5
 21
95.0
 31
0.0
  0
LINE
  8
0
  6
DASHED
 62
   249
 10
292.5
 20
102.5
 30
0.0
 11
330.0
 21
102.5
 31
0.0
  0
LINE
  8
0
  6
CONTINUOUS
 62
   249
 10
247.5
 20
95.0
 30
0.0
 11
250.0
 21
95.0
 31
0.0
  0
LINE
  8
0
  6
CONTINUOUS
 62
   249
 10
247.5
 20
100.0
 30
0.0
 11
250.0
 21
100.0
 31
0.0
  0
LINE
  8
0
  6
CONTINUOUS
 62
   249
 10
247.5
 20
115.0
 30
0.0
 11
250.0
 21
115.0
 31
0.0
  0
LINE
  8
0
  6
CONTINUOUS
 62
   249
 10
247.5
 20
120.0
 30
0.0
 11
250.0
 21
120.0
 31
0.0
  0
LINE
  8
0
  6
CONTINUOUS
 62
   249
 10
252.5
 20
100.3468
 30
0.0
 11
252.5
 21
94.66187
 31
0.0
  0
LINE
  8
0
  6
CONTINUOUS
 62
   249
 10
252.5
 20
94.66187
 30
0.0
 11
251.5
 21
93.66187
 31
0.0
  0
LINE
  8
0
  6
CONTINUOUS
 62
   249
 10
252.5
 20
100.3468
 30
0.0
 11
251.5
 21
101.3468
 31
0.0
  0
LINE
  8
0
  6
DASHED
 62
   249
 10
252.5
 20
100.0
 30
0.0
 11
272.5
 21
100.0
 31
0.0
  0
LINE
  8
0
  6
DASHED
 62
   249
 10
272.5
 20
100.0
 30
0.0
 11
272.5
 21
102.5
 31
0.0
  0
LINE
  8
0
  6
DASHED
 62
   249
 10
272.5
 20
102.5
 30
0.0
 11
292.5
 21
102.5
 31
0.0
  0
LINE
  8
0
  6
DASHED
 62
   249
 10
275.0
 20
95.0
 30
0.0
 11
292.5
 21
95.0
 31
0.0
  0
LINE
  8
0
  6
CONTINUOUS
 62
   249
 10
337.5
 20
135.18998
 30
0.0
 11
337.5
 21
132.5
 31
0.0
  0
ARC
  8
0
  6
CONTINUOUS
 62
   249
 10
335.864862
 20
138.796095
 30
0.0
 40
1.204309
 50
90.0
 51
265.706237
  0
LINE
  8
0
  6
CONTINUOUS
 62
   249
 10
335.858762
 20
137.598547
 30
0.0
 11
336.50836
 21
137.598547
 31
0.0
  0
LINE
  8
0
  6
CONTINUOUS
 62
   249
 10
335.858762
 20
139.999993
 30
0.0
 11
336.502261
 21
139.999993
 31
0.0
  0
LINE
  8
0
  6
CONTINUOUS
 62
   249
 10
335.859898
 20
135.189937
 30
0.0
 11
336.509496
 21
135.189937
 31
0.0
  0
ARC
  8
0
  6
CONTINUOUS
 62
   249
 10
335.864862
 20
136.394238
 30
0.0
 40
1.204309
 50
90.0
 51
270.0
  0
LINE
  8
0
  6
CONTINUOUS
 62
   249
 10
336.500897
 20
135.18998
 30
0.0
 11
337.5
 21
135.18998
 31
0.0
  0
LINE
  8
0
  6
CONTINUOUS
 62
   249
 10
336.496128
 20
139.999996
 30
0.0
 11
337.473936
 21
139.999996
 31
0.0
  0
LINE
  8
0
  6
CONTINUOUS
 62
   249
 10
336.506031
 20
137.598556
 30
0.0
 11
337.478167
 21
137.598556
 31
0.0
  0
LINE
  8
0
  6
CONTINUOUS
 62
   249
 10
322.5
 20
135.18998
 30
0.0
 11
322.5
 21
132.5
 31
0.0
  0
LINE
  8
0
  6
CONTINUOUS
 62
   249
 10
330.0
 20
135.18998
 30
0.0
 11
330.0
 21
132.5
 31
0.0
  0
ARC
  8
0
  6
CONTINUOUS
 62
   249
 10
328.364862
 20
138.796095
 30
0.0
 40
1.204309
 50
90.0
 51
265.706237
  0
LINE
  8
0
  6
CONTINUOUS
 62
   249
 10
328.358762
 20
137.598547
 30
0.0
 11
329.00836
 21
137.598547
 31
0.0
  0
LINE
  8
0
  6
CONTINUOUS
 62
   249
 10
328.358762
 20
139.999993
 30
0.0
 11
329.002261
 21
139.999993
 31
0.0
  0
LINE
  8
0
  6
CONTINUOUS
 62
   249
 10
328.359898
 20
135.189937
 30
0.0
 11
329.009496
 21
135.189937
 31
0.0
  0
ARC
  8
0
  6
CONTINUOUS
 62
   249
 10
328.364862
 20
136.394238
 30
0.0
 40
1.204309
 50
90.0
 51
270.0
  0
LINE
  8
0
  6
CONTINUOUS
 62
   249
 10
329.000897
 20
135.18998
 30
0.0
 11
330.0
 21
135.18998
 31
0.0
  0
LINE
  8
0
  6
CONTINUOUS
 62
   249
 10
328.996128
 20
139.999996
 30
0.0
 11
329.973936
 21
139.999996
 31
0.0
  0
LINE
  8
0
  6
CONTINUOUS
 62
   249
 10
329.006031
 20
137.598556
 30
0.0
 11
329.978167
 21
137.598556
 31
0.0
  0
ARC
  8
0
  6
CONTINUOUS
 62
   249
 10
320.864862
 20
138.796095
 30
0.0
 40
1.204309
 50
90.0
 51
265.706237
  0
LINE
  8
0
  6
CONTINUOUS
 62
   249
 10
320.858762
 20
137.598547
 30
0.0
 11
321.50836
 21
137.598547
 31
0.0
  0
LINE
  8
0
  6
CONTINUOUS
 62
   249
 10
320.858762
 20
139.999993
 30
0.0
 11
321.502261
 21
139.999993
 31
0.0
  0
LINE
  8
0
  6
CONTINUOUS
 62
   249
 10
320.859898
 20
135.189937
 30
0.0
 11
321.509496
 21
135.189937
 31
0.0
  0
ARC
  8
0
  6
CONTINUOUS
 62
   249
 10
320.864862
 20
136.394238
 30
0.0
 40
1.204309
 50
90.0
 51
270.0
  0
LINE
  8
0
  6
CONTINUOUS
 62
   249
 10
321.500897
 20
135.18998
 30
0.0
 11
322.5
 21
135.18998
 31
0.0
  0
LINE
  8
0
  6
CONTINUOUS
 62
   249
 10
321.496128
 20
139.999996
 30
0.0
 11
322.473936
 21
139.999996
 31
0.0
  0
LINE
  8
0
  6
CONTINUOUS
 62
   249
 10
321.506031
 20
137.598556
 30
0.0
 11
322.478167
 21
137.598556
 31
0.0
  0
LINE
  8
0
  6
DASHED
 62
   249
 10
337.5
 20
150.0
 30
0.0
 11
337.5
 21
162.5
 31
0.0
  0
LINE
  8
0
  6
DASHED
 62
   249
 10
330.0
 20
150.0
 30
0.0
 11
330.0
 21
167.5
 31
0.0
  0
LINE
  8
0
  6
DASHED
 62
   249
 10
322.5
 20
150.0
 30
0.0
 11
322.5
 21
172.5
 31
0.0
  0
TEXT
  8
0
  6
DASHED
 62
   249
 10
308.837817
 20
171.530207
 30
0.0
 40
2.0
  1
L1(R)
  7
ROMANS
  0
TEXT
  8
0
  6
DASHED
 62
   249
 10
308.837817
 20
166.510757
 30
0.0
 40
2.0
  1
L2(S)
  7
ROMANS
  0
TEXT
  8
0
  6
DASHED
 62
   249
 10
308.837817
 20
161.491307
 30
0.0
 40
2.0
  1
L3(T)
  7
ROMANS
  0
LINE
  8
0
  6
DASHED
 62
   249
 10
330.0
 20
102.5
 30
0.0
 11
330.0
 21
132.5
 31
0.0
  0
LINE
  8
0
  6
DASHED
 62
   249
 10
337.5
 20
95.0
 30
0.0
 11
337.5
 21
132.5
 31
0.0
  0
LINE
  8
0
  6
DASHED
 62
   249
 10
327.5
 20
260.0
 30
0.0
 11
270.0
 21
260.0
 31
0.0
  0
LINE
  8
0
  6
DASHED
 62
   249
 10
327.5
 20
255.0
 30
0.0
 11
270.0
 21
255.0
 31
0.0
  0
LINE
  8
0
  6
DASHED
 62
   249
 10
327.5
 20
250.0
 30
0.0
 11
270.0
 21
250.0
 31
0.0
  0
LINE
  8
0
  6
DASHED
 62
   249
 10
315.0
 20
242.5
 30
0.0
 11
315.0
 21
250.0
 31
0.0
  0
LINE
  8
0
  6
CONTINUOUS
 62
   249
 10
300.0
 20
237.68998
 30
0.0
 11
320.0
 21
237.68998
 31
0.0
  0
LINE
  8
0
  6
CONTINUOUS
 62
   249
 10
315.0
 20
227.68998
 30
0.0
 11
315.0
 21
225.0
 31
0.0
  0
ARC
  8
0
  6
CONTINUOUS
 62
   249
 10
313.364862
 20
231.296095
 30
0.0
 40
1.204309
 50
90.0
 51
265.706237
  0
LINE
  8
0
  6
CONTINUOUS
 62
   249
 10
313.358762
 20
230.098547
 30
0.0
 11
314.00836
 21
230.098547
 31
0.0
  0
LINE
  8
0
  6
CONTINUOUS
 62
   249
 10
313.358762
 20
232.499993
 30
0.0
 11
314.002261
 21
232.499993
 31
0.0
  0
LINE
  8
0
  6
CONTINUOUS
 62
   249
 10
313.359898
 20
227.689937
 30
0.0
 11
314.009496
 21
227.689937
 31
0.0
  0
ARC
  8
0
  6
CONTINUOUS
 62
   249
 10
313.364862
 20
228.894238
 30
0.0
 40
1.204309
 50
90.0
 51
270.0
  0
LINE
  8
0
  6
CONTINUOUS
 62
   249
 10
314.000897
 20
227.68998
 30
0.0
 11
315.0
 21
227.68998
 31
0.0
  0
LINE
  8
0
  6
CONTINUOUS
 62
   249
 10
313.996128
 20
232.499996
 30
0.0
 11
314.973936
 21
232.499996
 31
0.0
  0
LINE
  8
0
  6
CONTINUOUS
 62
   249
 10
314.006031
 20
230.098556
 30
0.0
 11
314.978167
 21
230.098556
 31
0.0
  0
LINE
  8
0
  6
CONTINUOUS
 62
   249
 10
315.0
 20
225.0
 30
0.0
 11
312.5
 21
225.0
 31
0.0
  0
LINE
  8
0
  6
CONTINUOUS
 62
   249
 10
312.5
 20
225.0
 30
0.0
 11
307.5
 21
232.5
 31
0.0
  0
LINE
  8
0
  6
CONTINUOUS
 62
   249
 10
315.0
 20
232.5
 30
0.0
 11
320.0
 21
232.5
 31
0.0
  0
LINE
  8
0
  6
DASHED
 62
   249
 10
320.0
 20
232.5
 30
0.0
 11
329.34682
 21
232.5
 31
0.0
  0
LINE
  8
0
  6
DASHED
 62
   249
 10
320.0
 20
237.68998
 30
0.0
 11
329.163362
 21
237.68998
 31
0.0
  0
LINE
  8
0
  6
DASHED
 62
   249
 10
307.5
 20
212.5
 30
0.0
 11
325.0
 21
212.5
 31
0.0
  0
LINE
  8
0
  6
DASHED
 62
   249
 10
325.0
 20
212.5
 30
0.0
 11
325.0
 21
232.5
 31
0.0
  0
LINE
  8
0
  6
CONTINUOUS
 62
   249
 10
247.5
 20
225.0
 30
0.0
 11
250.0
 21
225.0
 31
0.0
  0
LINE
  8
0
  6
CONTINUOUS
 62
   249
 10
247.5
 20
220.0
 30
0.0
 11
250.0
 21
220.0
 31
0.0
  0
LINE
  8
0
  6
DASHED
 62
   249
 10
247.5
 20
215.0
 30
0.0
 11
257.5
 21
215.0
 31
0.0
  0
LINE
  8
0
  6
CONTINUOUS
 62
   249
 10
247.5
 20
205.0
 30
0.0
 11
250.0
 21
205.0
 31
0.0
  0
LINE
  8
0
  6
CONTINUOUS
 62
   249
 10
247.5
 20
200.0
 30
0.0
 11
250.0
 21
200.0
 31
0.0
  0
LINE
  8
0
  6
DASHED
 62
   249
 10
247.5
 20
195.0
 30
0.0
 11
257.5
 21
195.0
 31
0.0
  0
LINE
  8
0
  6
CONTINUOUS
 62
   249
 10
247.5
 20
185.0
 30
0.0
 11
250.0
 21
185.0
 31
0.0
  0
LINE
  8
0
  6
CONTINUOUS
 62
   249
 10
247.5
 20
180.0
 30
0.0
 11
250.0
 21
180.0
 31
0.0
  0
LINE
  8
0
  6
DASHED
 62
   249
 10
247.5
 20
175.0
 30
0.0
 11
257.5
 21
175.0
 31
0.0
  0
LINE
  8
0
  6
CONTINUOUS
 62
   249
 10
247.5
 20
165.0
 30
0.0
 11
250.0
 21
165.0
 31
0.0
  0
LINE
  8
0
  6
CONTINUOUS
 62
   249
 10
247.5
 20
160.0
 30
0.0
 11
250.0
 21
160.0
 31
0.0
  0
LINE
  8
0
  6
DASHED
 62
   249
 10
247.5
 20
135.0
 30
0.0
 11
280.0
 21
135.0
 31
0.0
  0
LINE
  8
0
  6
CONTINUOUS
 62
   249
 10
247.5
 20
145.0
 30
0.0
 11
250.0
 21
145.0
 31
0.0
  0
LINE
  8
0
  6
CONTINUOUS
 62
   249
 10
247.5
 20
140.0
 30
0.0
 11
250.0
 21
140.0
 31
0.0
  0
LINE
  8
0
  6
DASHED
 62
   249
 10
247.5
 20
115.0
 30
0.0
 11
300.0
 21
115.0
 31
0.0
  0
TEXT
  8
0
  6
CONTINUOUS
 62
   249
 10
261.232328
 20
249.006967
 30
0.0
 40
2.0
  1
L3(T)
  7
ROMANS
 11
261.232328
 21
248.3403
 31
0.0
 73
     1
  0
TEXT
  8
0
  6
CONTINUOUS
 62
   249
 10
261.232328
 20
253.928359
 30
0.0
 40
2.0
  1
L2(S)
  7
ROMANS
 11
261.232328
 21
253.261693
 31
0.0
 73
     1
  0
TEXT
  8
0
  6
CONTINUOUS
 62
   249
 10
261.232328
 20
258.985054
 30
0.0
 40
2.0
  1
L1(R)
  7
ROMANS
 11
261.232328
 21
258.318387
 31
0.0
 73
     1
  0
LINE
  8
0
  6
DASHED
 62
   249
 10
277.5
 20
220.189992
 30
0.0
 11
272.5
 21
220.189992
 31
0.0
  0
LINE
  8
0
  6
CONTINUOUS
 62
   249
 10
287.5
 20
237.5
 30
0.0
 11
287.0
 21
237.0
 31
0.0
  0
LINE
  8
0
  6
CONTINUOUS
 62
   249
 10
287.5
 20
237.5
 30
0.0
 11
287.0
 21
238.0
 31
0.0
  0
LINE
  8
0
  6
CONTINUOUS
 62
   249
 10
287.5
 20
237.5
 30
0.0
 11
288.0
 21
238.0
 31
0.0
  0
LINE
  8
0
  6
CONTINUOUS
 62
   249
 10
287.5
 20
237.5
 30
0.0
 11
288.0
 21
237.0
 31
0.0
  0
LINE
  8
0
  6
CONTINUOUS
 62
   249
 10
282.5
 20
237.5
 30
0.0
 11
282.0
 21
238.0
 31
0.0
  0
LINE
  8
0
  6
CONTINUOUS
 62
   249
 10
282.5
 20
237.5
 30
0.0
 11
282.0
 21
237.0
 31
0.0
  0
LINE
  8
0
  6
CONTINUOUS
 62
   249
 10
282.5
 20
237.5
 30
0.0
 11
283.0
 21
237.0
 31
0.0
  0
LINE
  8
0
  6
CONTINUOUS
 62
   249
 10
282.5
 20
237.5
 30
0.0
 11
283.0
 21
238.0
 31
0.0
  0
LINE
  8
0
  6
CONTINUOUS
 62
   249
 10
277.5
 20
237.5
 30
0.0
 11
277.0
 21
237.0
 31
0.0
  0
LINE
  8
0
  6
CONTINUOUS
 62
   249
 10
277.5
 20
237.5
 30
0.0
 11
278.0
 21
238.0
 31
0.0
  0
LINE
  8
0
  6
CONTINUOUS
 62
   249
 10
277.5
 20
237.5
 30
0.0
 11
278.0
 21
237.0
 31
0.0
  0
LINE
  8
0
  6
CONTINUOUS
 62
   249
 10
277.5
 20
237.5
 30
0.0
 11
277.0
 21
238.0
 31
0.0
  0
LINE
  8
0
  6
CONTINUOUS
 62
   249
 10
287.5
 20
230.0
 30
0.0
 11
285.0
 21
237.5
 31
0.0
  0
LINE
  8
0
  6
CONTINUOUS
 62
   249
 10
282.5
 20
230.0
 30
0.0
 11
280.0
 21
237.5
 31
0.0
  0
LINE
  8
0
  6
CONTINUOUS
 62
   249
 10
277.5
 20
230.0
 30
0.0
 11
275.0
 21
237.5
 31
0.0
  0
LINE
  8
0
  6
DASHED
 62
   249
 10
277.5
 20
245.0
 30
0.0
 11
277.5
 21
260.0
 31
0.0
  0
LINE
  8
0
  6
DASHED
 62
   249
 10
282.5
 20
245.0
 30
0.0
 11
282.5
 21
252.5
 31
0.0
  0
LINE
  8
0
  6
DASHED
 62
   249
 10
287.5
 20
230.0
 30
0.0
 11
287.5
 21
197.5
 31
0.0
  0
LINE
  8
0
  6
DASHED
 62
   249
 10
287.5
 20
250.0
 30
0.0
 11
287.5
 21
237.5
 31
0.0
  0
LINE
  8
0
  6
DASHED
 62
   249
 10
282.5
 20
230.0
 30
0.0
 11
282.5
 21
197.5
 31
0.0
  0
LINE
  8
0
  6
DASHED
 62
   249
 10
282.5
 20
255.0
 30
0.0
 11
282.5
 21
237.5
 31
0.0
  0
LINE
  8
0
  6
DASHED
 62
   249
 10
277.5
 20
237.5
 30
0.0
 11
277.5
 21
250.0
 31
0.0
  0
LINE
  8
0
  6
DASHED
 62
   249
 10
277.5
 20
230.0
 30
0.0
 11
277.5
 21
197.5
 31
0.0
  0
LINE
  8
0
  6
DASHED
 62
   249
 10
287.5
 20
197.5
 30
0.0
 11
287.5
 21
172.5
 31
0.0
  0
LINE
  8
0
  6
DASHED
 62
   249
 10
282.5
 20
197.5
 30
0.0
 11
282.5
 21
172.5
 31
0.0
  0
LINE
  8
0
  6
DASHED
 62
   249
 10
277.5
 20
197.5
 30
0.0
 11
277.5
 21
172.5
 31
0.0
  0
LINE
  8
0
  6
DASHED
 62
   249
 10
282.569797
 20
200.189984
 30
0.0
 11
272.5
 21
200.189984
 31
0.0
  0
LINE
  8
0
  6
DASHED
 62
   249
 10
287.506921
 20
180.189984
 30
0.0
 11
272.5
 21
180.189984
 31
0.0
  0
LINE
  8
0
  6
DASHED
 62
   249
 10
257.5
 20
215.0
 30
0.0
 11
257.5
 21
165.0
 31
0.0
  0
LINE
  8
0
  6
DASHED
 62
   249
 10
252.5
 20
145.0
 30
0.0
 11
270.0
 21
145.0
 31
0.0
  0
LINE
  8
0
  6
DASHED
 62
   249
 10
270.0
 20
145.0
 30
0.0
 11
270.0
 21
139.810016
 31
0.0
  0
LINE
  8
0
  6
DASHED
 62
   249
 10
272.5
 20
220.189992
 30
0.0
 11
272.5
 21
155.0
 31
0.0
  0
LINE
  8
0
  6
CONTINUOUS
 62
   249
 10
277.5
 20
172.5
 30
0.0
 11
287.5
 21
172.5
 31
0.0
  0
LINE
  8
0
  6
CONTINUOUS
 62
   249
 10
280.0
 20
172.5
 30
0.0
 11
282.5
 21
167.5
 31
0.0
  0
LINE
  8
0
  6
CONTINUOUS
 62
   249
 10
282.5
 20
167.5
 30
0.0
 11
285.0
 21
172.5
 31
0.0
  0
LINE
  8
0
  6
CONTINUOUS
 62
   249
 10
282.5
 20
167.5
 30
0.0
 11
282.5
 21
130.0
 31
0.0
  0
LINE
  8
0
  6
DASHED
 62
   249
 10
280.0
 20
172.5
 30
0.0
 11
280.0
 21
132.5
 31
0.0
  0
LINE
  8
0
  6
DASHED
 62
   249
 10
270.0
 20
130.0
 30
0.0
 11
270.0
 21
135.0
 31
0.0
  0
LINE
  8
0
  6
CONTINUOUS
 62
   249
 10
280.0
 20
137.40144
 30
0.0
 11
282.5
 21
137.40144
 31
0.0
  0
LINE
  8
0
  6
DASHED
 62
   249
 10
270.0
 20
139.810016
 30
0.0
 11
282.5
 21
139.810016
 31
0.0
  0
LINE
  8
0
  6
DASHED
 62
   249
 10
282.5
 20
155.0
 30
0.0
 11
282.5
 21
155.0
 31
0.0
  0
LINE
  8
0
  6
DASHED
 62
   249
 10
280.0
 20
135.0
 30
0.0
 11
282.5
 21
135.0
 31
0.0
  0
LINE
  8
0
  6
DASHED
 62
   249
 10
277.5
 20
225.0
 30
0.0
 11
252.5
 21
225.0
 31
0.0
  0
LINE
  8
0
  6
DASHED
 62
   249
 10
282.5
 20
205.0
 30
0.0
 11
252.5
 21
205.0
 31
0.0
  0
LINE
  8
0
  6
DASHED
 62
   249
 10
287.5
 20
185.0
 30
0.0
 11
252.5
 21
185.0
 31
0.0
  0
LINE
  8
0
  6
DASHED
 62
   249
 10
300.0
 20
242.5
 30
0.0
 11
300.0
 21
260.0
 31
0.0
  0
LINE
  8
0
  6
DASHED
 62
   249
 10
307.5
 20
242.5
 30
0.0
 11
307.5
 21
255.0
 31
0.0
  0
LINE
  8
0
  6
CONTINUOUS
 62
   249
 10
300.0
 20
227.68998
 30
0.0
 11
300.0
 21
225.0
 31
0.0
  0
LINE
  8
0
  6
CONTINUOUS
 62
   249
 10
307.5
 20
227.68998
 30
0.0
 11
307.5
 21
225.0
 31
0.0
  0
ARC
  8
0
  6
CONTINUOUS
 62
   249
 10
305.864862
 20
231.296095
 30
0.0
 40
1.204309
 50
90.0
 51
265.706237
  0
LINE
  8
0
  6
CONTINUOUS
 62
   249
 10
305.858762
 20
230.098547
 30
0.0
 11
306.50836
 21
230.098547
 31
0.0
  0
LINE
  8
0
  6
CONTINUOUS
 62
   249
 10
305.858762
 20
232.499993
 30
0.0
 11
306.502261
 21
232.499993
 31
0.0
  0
LINE
  8
0
  6
CONTINUOUS
 62
   249
 10
305.859898
 20
227.689937
 30
0.0
 11
306.509496
 21
227.689937
 31
0.0
  0
ARC
  8
0
  6
CONTINUOUS
 62
   249
 10
305.864862
 20
228.894238
 30
0.0
 40
1.204309
 50
90.0
 51
270.0
  0
LINE
  8
0
  6
CONTINUOUS
 62
   249
 10
306.500897
 20
227.68998
 30
0.0
 11
307.5
 21
227.68998
 31
0.0
  0
LINE
  8
0
  6
CONTINUOUS
 62
   249
 10
306.496128
 20
232.499996
 30
0.0
 11
307.473936
 21
232.499996
 31
0.0
  0
LINE
  8
0
  6
CONTINUOUS
 62
   249
 10
306.506031
 20
230.098556
 30
0.0
 11
307.478167
 21
230.098556
 31
0.0
  0
ARC
  8
0
  6
CONTINUOUS
 62
   249
 10
298.364862
 20
231.296095
 30
0.0
 40
1.204309
 50
90.0
 51
265.706237
  0
LINE
  8
0
  6
CONTINUOUS
 62
   249
 10
298.358762
 20
230.098547
 30
0.0
 11
299.00836
 21
230.098547
 31
0.0
  0
LINE
  8
0
  6
CONTINUOUS
 62
   249
 10
298.358762
 20
232.499993
 30
0.0
 11
299.002261
 21
232.499993
 31
0.0
  0
LINE
  8
0
  6
CONTINUOUS
 62
   249
 10
298.359898
 20
227.689937
 30
0.0
 11
299.009496
 21
227.689937
 31
0.0
  0
ARC
  8
0
  6
CONTINUOUS
 62
   249
 10
298.364862
 20
228.894238
 30
0.0
 40
1.204309
 50
90.0
 51
270.0
  0
LINE
  8
0
  6
CONTINUOUS
 62
   249
 10
299.000897
 20
227.68998
 30
0.0
 11
300.0
 21
227.68998
 31
0.0
  0
LINE
  8
0
  6
CONTINUOUS
 62
   249
 10
298.996128
 20
232.499996
 30
0.0
 11
299.973936
 21
232.499996
 31
0.0
  0
LINE
  8
0
  6
CONTINUOUS
 62
   249
 10
299.006031
 20
230.098556
 30
0.0
 11
299.978167
 21
230.098556
 31
0.0
  0
LINE
  8
0
  6
CONTINUOUS
 62
   249
 10
307.5
 20
225.0
 30
0.0
 11
305.0
 21
225.0
 31
0.0
  0
LINE
  8
0
  6
CONTINUOUS
 62
   249
 10
305.0
 20
225.0
 30
0.0
 11
300.0
 21
232.5
 31
0.0
  0
LINE
  8
0
  6
DASHED
 62
   249
 10
252.5
 20
125.0
 30
0.0
 11
307.5
 21
125.0
 31
0.0
  0
LINE
  8
0
  6
DASHED
 62
   249
 10
307.5
 20
125.0
 30
0.0
 11
307.5
 21
212.5
 31
0.0
  0
LINE
  8
0
  6
DASHED
 62
   249
 10
300.0
 20
115.0
 30
0.0
 11
300.0
 21
225.0
 31
0.0
  0
LINE
  8
0
  6
CONTINUOUS
 62
   249
 10
252.5
 20
225.3468
 30
0.0
 11
251.5
 21
226.3468
 31
0.0
  0
LINE
  8
0
  6
CONTINUOUS
 62
   249
 10
252.5
 20
219.66187
 30
0.0
 11
251.5
 21
218.66187
 31
0.0
  0
LINE
  8
0
  6
CONTINUOUS
 62
   249
 10
252.5
 20
225.3468
 30
0.0
 11
252.5
 21
219.66187
 31
0.0
  0
LINE
  8
0
  6
CONTINUOUS
 62
   249
 10
252.5
 20
205.3468
 30
0.0
 11
252.5
 21
199.66187
 31
0.0
  0
LINE
  8
0
  6
CONTINUOUS
 62
   249
 10
252.5
 20
199.66187
 30
0.0
 11
251.5
 21
198.66187
 31
0.0
  0
LINE
  8
0
  6
CONTINUOUS
 62
   249
 10
252.5
 20
205.3468
 30
0.0
 11
251.5
 21
206.3468
 31
0.0
  0
LINE
  8
0
  6
CONTINUOUS
 62
   249
 10
252.5
 20
185.3468
 30
0.0
 11
251.5
 21
186.3468
 31
0.0
  0
LINE
  8
0
  6
CONTINUOUS
 62
   249
 10
252.5
 20
179.66187
 30
0.0
 11
251.5
 21
178.66187
 31
0.0
  0
LINE
  8
0
  6
CONTINUOUS
 62
   249
 10
252.5
 20
185.3468
 30
0.0
 11
252.5
 21
179.66187
 31
0.0
  0
LINE
  8
0
  6
CONTINUOUS
 62
   249
 10
252.5
 20
145.3468
 30
0.0
 11
252.5
 21
139.66187
 31
0.0
  0
LINE
  8
0
  6
CONTINUOUS
 62
   249
 10
252.5
 20
139.66187
 30
0.0
 11
251.5
 21
138.66187
 31
0.0
  0
LINE
  8
0
  6
CONTINUOUS
 62
   249
 10
252.5
 20
145.3468
 30
0.0
 11
251.5
 21
146.3468
 31
0.0
  0
LINE
  8
0
  6
CONTINUOUS
 62
   249
 10
252.5
 20
125.3468
 30
0.0
 11
251.5
 21
126.3468
 31
0.0
  0
LINE
  8
0
  6
CONTINUOUS
 62
   249
 10
252.5
 20
119.66187
 30
0.0
 11
251.5
 21
118.66187
 31
0.0
  0
LINE
  8
0
  6
CONTINUOUS
 62
   249
 10
252.5
 20
125.3468
 30
0.0
 11
252.5
 21
119.66187
 31
0.0
  0
LINE
  8
0
  6
CENTER
 62
   249
 10
247.5
 20
217.5
 30
0.0
 11
247.5
 21
242.5
 31
0.0
  0
LINE
  8
0
  6
CENTER
 62
   249
 10
247.5
 20
217.5
 30
0.0
 11
247.5
 21
195.0
 31
0.0
  0
LINE
  8
0
  6
DASHED
 62
   249
 10
345.0
 20
172.5
 30
0.0
 11
317.5
 21
172.5
 31
0.0
  0
LINE
  8
0
  6
DASHED
 62
   249
 10
345.0
 20
167.5
 30
0.0
 11
317.5
 21
167.5
 31
0.0
  0
LINE
  8
0
  6
CONTINUOUS
 62
   249
 10
322.5
 20
145.18998
 30
0.0
 11
342.5
 21
145.18998
 31
0.0
  0
LINE
  8
0
  6
CONTINUOUS
 62
   249
 10
322.5
 20
140.0
 30
0.0
 11
342.5
 21
140.0
 31
0.0
  0
LINE
  8
0
  6
DASHED
 62
   249
 10
275.0
 20
90.0
 30
0.0
 11
275.0
 21
95.0
 31
0.0
  0
LINE
  8
0
  6
DASHED
 62
   249
 10
247.5
 20
90.0
 30
0.0
 11
275.0
 21
90.0
 31
0.0
  0
LINE
  8
0
  6
CONTINUOUS
 62
   249
 10
252.5
 20
165.3468
 30
0.0
 11
251.5
 21
166.3468
 31
0.0
  0
TEXT
  8
0
  6
CONTINUOUS
 62
   249
 10
253.202618
 20
165.694453
 30
0.0
 40
2.0
  1
1)
  7
ROMANS
  0
LINE
  8
0
  6
CONTINUOUS
 62
   249
 10
252.5
 20
165.3468
 30
0.0
 11
252.5
 21
159.66187
 31
0.0
  0
LINE
  8
0
  6
CONTINUOUS
 62
   249
 10
252.5
 20
159.66187
 30
0.0
 11
251.5
 21
158.66187
 31
0.0
  0
LINE
  8
0
  6
DASHED
 62
   249
 10
257.5
 20
165.0
 30
0.0
 11
252.5
 21
165.0
 31
0.0
  0
LINE
  8
0
  6
DASHED
 62
   249
 10
247.5
 20
155.0
 30
0.0
 11
272.5
 21
155.0
 31
0.0
  0
LINE
  8
0
  6
DASHED
 62
   249
 10
282.5
 20
130.0
 30
0.0
 11
282.5
 21
107.232621
 31
0.0
  0
TEXT
  8
0
  6
DASHED
 62
   249
 10
52.5
 20
236.812673
 30
0.0
 40
2.0
  1
RS 10195-AA SPAC 539 C / E263
  7
ROMANS
  0
TEXT
  8
0
  6
CONTINUOUS
 62
   249
 10
27.5
 20
52.5
 30
0.0
 40
2.0
  1
DIM. 185 X 220
  7
ROMANS
  0
TEXT
  8
0
  6
CONTINUOUS
 62
   249
 10
27.5
 20
49.261905
 30
0.0
 40
2.0
  1
RS 10195-AAA
  7
ROMANS
  0
LINE
  8
0
  6
DASHED
 62
   249
 10
345.0
 20
162.5
 30
0.0
 11
317.5
 21
162.5
 31
0.0
  0
LINE
  8
0
  6
CONTINUOUS
 62
   249
 10
150.0
 20
157.5
 30
0.0
 11
150.0
 21
120.691617
 31
0.0
  0
LINE
  8
0
  6
CONTINUOUS
 62
   249
 10
150.0
 20
157.5
 30
0.0
 11
150.0
 21
165.0
 31
0.0
  0
LINE
  8
0
  6
CONTINUOUS
 62
   249
 10
60.0
 20
149.301304
 30
0.0
 11
60.0
 21
165.0
 31
0.0
  0
LINE
  8
0
  6
CONTINUOUS
 62
   249
 10
60.0
 20
165.0
 30
0.0
 11
150.0
 21
165.0
 31
0.0
  0
TEXT
  8
0
  6
CONTINUOUS
 62
   249
 10
253.202618
 20
102.293042
 30
0.0
 40
2.0
  1
1)
  7
ROMANS
  0
TEXT
  8
0
  6
DASHED
 62
   249
 10
315.030611
 20
87.935656
 30
0.0
 40
2.0
  1
1)
  7
ROMANS
  0
LINE
  8
0
  6
CONTINUOUS
 62
   249
 10
197.950615
 20
145.729835
 30
0.0
 11
217.16296
 21
145.729835
 31
0.0
  0
LINE
  8
0
  6
CONTINUOUS
 62
   249
 10
247.5
 20
125.0
 30
0.0
 11
250.0
 21
125.0
 31
0.0
  0
LINE
  8
0
  6
CONTINUOUS
 62
   249
 10
247.5
 20
80.0
 30
0.0
 11
250.0
 21
80.0
 31
0.0
  0
LINE
  8
0
  6
CONTINUOUS
 62
   249
 10
247.5
 20
75.0
 30
0.0
 11
250.0
 21
75.0
 31
0.0
  0
LINE
  8
0
  6
CONTINUOUS
 62
   249
 10
247.5
 20
70.0
 30
0.0
 11
250.0
 21
70.0
 31
0.0
  0
TEXT
  8
0
  6
CONTINUOUS
 62
   249
 10
52.5
 20
229.456771
 30
0.0
 40
2.0
  1
BACTRL
  7
ROMANS
  0
LINE
  8
0
  6
CONTINUOUS
 62
   249
 10
147.5
 20
115.691617
 30
0.0
 11
147.5
 21
57.5
 31
0.0
  0
LINE
  8
0
  6
CONTINUOUS
 62
   249
 10
147.5
 20
57.5
 30
0.0
 11
147.5
 21
50.0
 31
0.0
  0
TEXT
  8
0
  6
DASHED
 62
   249
 10
292.558364
 20
12.155824
 30
0.0
 40
3.0
  1
A3
  7
GREEKS
  0
TEXT
  8
0
  6
DASHED
 62
   249
 10
352.159746
 20
16.034995
 30
0.0
 40
1.4
  1
LEHTI SHEET
  7
GREEKS
  0
LINE
  8
0
 62
   249
 10
0.578269
 20
263.080464
 30
0.0
 11
392.578269
 21
263.080464
 31
0.0
  0
LINE
  8
0
 62
   249
 10
18.578269
 20
0.580464
 30
0.0
 11
0.578269
 21
0.580464
 31
0.0
  0
LINE
  8
0
 62
   249
 10
209.578269
 20
0.580464
 30
0.0
 11
392.578269
 21
0.580464
 31
0.0
  0
LINE
  8
0
 62
   249
 10
209.578269
 20
0.580464
 30
0.0
 11
209.578269
 21
35.580464
 31
0.0
  0
LINE
  8
0
 62
   249
 10
392.578269
 20
0.580464
 30
0.0
 11
392.578269
 21
35.580464
 31
0.0
  0
LINE
  8
0
 62
   249
 10
209.578269
 20
18.580464
 30
0.0
 11
392.578269
 21
18.580464
 31
0.0
  0
LINE
  8
0
 62
   249
 10
209.578269
 20
10.080464
 30
0.0
 11
392.578269
 21
10.080464
 31
0.0
  0
LINE
  8
0
 62
   249
 10
209.578269
 20
27.080464
 30
0.0
 11
307.578269
 21
27.080464
 31
0.0
  0
LINE
  8
0
 62
   249
 10
209.578269
 20
35.580464
 30
0.0
 11
392.578269
 21
35.580464
 31
0.0
  0
TEXT
  8
0
 62
   249
 10
210.578269
 20
24.313797
 30
0.0
 40
1.4
  1
TARKASTI  CHECKED
  7
ROMANS
  0
TEXT
  8
0
 62
   249
 10
210.321103
 20
16.047131
 30
0.0
 40
1.4
  1
HYVÄKSYI  APPROVED
  7
ROMANS
  0
LINE
  8
0
 62
   249
 10
307.578269
 20
0.580464
 30
0.0
 11
307.578269
 21
35.580464
 31
0.0
  0
TEXT
  8
0
 62
   249
 10
259.578269
 20
33.080464
 30
0.0
 40
1.4
  1
LIITTYY  CONCERNING
  7
ROMANS
  0
TEXT
  8
0
 62
   249
 10
259.578269
 20
24.080464
 30
0.0
 40
1.4
  1
TOLERANSSIT  TOLERANCES
  7
ROMANS
  0
TEXT
  8
0
 62
   249
 10
259.578269
 20
16.080464
 30
0.0
 40
1.4
  1
SUHDE  SCALE
  7
ROMANS
  0
TEXT
  8
0
 62
   249
 10
309.578269
 20
33.080464
 30
0.0
 40
1.4
  1
NIMITYS  NAME
  7
ROMANS
  0
TEXT
  8
0
 62
   249
 10
309.578269
 20
16.080464
 30
0.0
 40
1.4
  1
KOODI  CODE
  7
ROMANS
  0
TEXT
  8
0
 62
   249
 10
309.578269
 20
7.580464
 30
0.0
 40
1.4
  1
PIIRUSTUS NO  DRAWING NR
  7
ROMANS
  0
LINE
  8
0
 62
   249
 10
350.078269
 20
10.080464
 30
0.0
 11
350.078269
 21
18.580464
 31
0.0
  0
TEXT
  8
0
 62
   249
 10
371.578269
 20
7.580464
 30
0.0
 40
1.4
  1
PAINOS  REVISION
  7
ROMANS
  0
LINE
  8
0
 62
   249
 10
370.078269
 20
10.080464
 30
0.0
 11
370.078269
 21
0.580464
 31
0.0
  0
LINE
  8
0
 62
   249
 10
210.528269
 20
2.080464
 30
0.0
 11
212.278269
 21
2.080464
 31
0.0
  0
LINE
  8
0
 62
   249
 10
215.778269
 20
2.080464
 30
0.0
 11
217.528269
 21
2.080464
 31
0.0
  0
LINE
  8
0
 62
   249
 10
212.978269
 20
9.080464
 30
0.0
 11
211.800741
 21
5.716099
 31
0.0
  0
LINE
  8
0
 62
   249
 10
212.767055
 20
3.480464
 30
0.0
 11
213.888269
 21
3.480464
 31
0.0
  0
LINE
  8
0
 62
   249
 10
212.767058
 20
3.477007
 30
0.0
 11
212.278269
 21
2.080464
 31
0.0
  0
LINE
  8
0
 62
   249
 10
215.078269
 20
9.080464
 30
0.0
 11
216.254621
 21
5.719456
 31
0.0
  0
LINE
  8
0
 62
   249
 10
215.289366
 20
3.477328
 30
0.0
 11
215.778269
 21
2.080464
 31
0.0
  0
LINE
  8
0
 62
   249
 10
215.078269
 20
9.080464
 30
0.0
 11
214.168269
 21
9.080464
 31
0.0
  0
LINE
  8
0
 62
   249
 10
213.888269
 20
9.080464
 30
0.0
 11
213.888269
 21
5.720464
 31
0.0
  0
LINE
  8
0
 62
   249
 10
214.168269
 20
9.080464
 30
0.0
 11
214.168269
 21
5.720464
 31
0.0
  0
LINE
  8
0
 62
   249
 10
214.168269
 20
3.480464
 30
0.0
 11
215.288162
 21
3.480464
 31
0.0
  0
LINE
  8
0
 62
   249
 10
213.888269
 20
9.080464
 30
0.0
 11
212.978269
 21
9.080464
 31
0.0
  0
LINE
  8
0
 62
   249
 10
211.800209
 20
5.720464
 30
0.0
 11
213.888269
 21
5.720464
 31
0.0
  0
LINE
  8
0
 62
   249
 10
211.701251
 20
5.440464
 30
0.0
 11
213.888269
 21
5.440464
 31
0.0
  0
LINE
  8
0
 62
   249
 10
216.35276
 20
5.439058
 30
0.0
 11
217.528269
 21
2.080464
 31
0.0
  0
LINE
  8
0
 62
   249
 10
214.168269
 20
5.720464
 30
0.0
 11
216.253382
 21
5.720464
 31
0.0
  0
LINE
  8
0
 62
   249
 10
214.168269
 20
5.440464
 30
0.0
 11
216.351525
 21
5.440464
 31
0.0
  0
LINE
  8
0
 62
   249
 10
214.168269
 20
5.440464
 30
0.0
 11
214.168269
 21
3.480464
 31
0.0
  0
LINE
  8
0
 62
   249
 10
213.888269
 20
5.440464
 30
0.0
 11
213.888269
 21
3.480464
 31
0.0
  0
LINE
  8
0
 62
   249
 10
211.698157
 20
5.423003
 30
0.0
 11
210.528269
 21
2.080464
 31
0.0
  0
INSERT
  8
0
 62
   249
  2
*X14
 10
210.528269
 20
2.080464
 30
0.0
 41
0.7
 42
0.7
 43
0.7
  0
INSERT
  8
0
 62
   249
  2
*X15
 10
210.528269
 20
2.080464
 30
0.0
 41
0.7
 42
0.7
 43
0.7
  0
INSERT
  8
0
 62
   249
  2
*X16
 10
210.528269
 20
2.080464
 30
0.0
 41
0.7
 42
0.7
 43
0.7
  0
INSERT
  8
0
 62
   249
  2
*X17
 10
210.528269
 20
2.080464
 30
0.0
 41
0.7
 42
0.7
 43
0.7
  0
LINE
  8
0
 62
   249
 10
218.018269
 20
2.080464
 30
0.0
 11
218.018269
 21
5.440464
 31
0.0
  0
LINE
  8
0
 62
   249
 10
218.018269
 20
9.080464
 30
0.0
 11
219.978269
 21
9.080464
 31
0.0
  0
LINE
  8
0
 62
   249
 10
219.978269
 20
9.080464
 30
0.0
 11
219.978269
 21
5.720464
 31
0.0
  0
LINE
  8
0
 62
   249
 10
219.978269
 20
5.720464
 30
0.0
 11
218.018269
 21
5.720464
 31
0.0
  0
LINE
  8
0
 62
   249
 10
218.018269
 20
5.440464
 30
0.0
 11
219.978269
 21
5.440464
 31
0.0
  0
LINE
  8
0
 62
   249
 10
219.978269
 20
5.440464
 30
0.0
 11
219.978269
 21
2.080464
 31
0.0
  0
LINE
  8
0
 62
   249
 10
219.978269
 20
2.080464
 30
0.0
 11
218.018269
 21
2.080464
 31
0.0
  0
LINE
  8
0
 62
   249
 10
218.018269
 20
5.720464
 30
0.0
 11
218.018269
 21
9.080464
 31
0.0
  0
ARC
  8
0
 62
   249
 10
220.818269
 20
7.505464
 30
0.0
 40
1.575
 50
298.455859
 51
90.052437
  0
LINE
  8
0
 62
   249
 10
220.258269
 20
9.080464
 30
0.0
 11
220.816827
 21
9.080463
 31
0.0
  0
LINE
  8
0
 62
   249
 10
220.258269
 20
9.080464
 30
0.0
 11
220.258269
 21
5.720464
 31
0.0
  0
LINE
  8
0
 62
   249
 10
220.258269
 20
5.720464
 30
0.0
 11
222.242711
 21
5.720464
 31
0.0
  0
LINE
  8
0
 62
   249
 10
222.498269
 20
5.440464
 30
0.0
 11
220.258269
 21
5.440464
 31
0.0
  0
LINE
  8
0
 62
   249
 10
220.258269
 20
5.440464
 30
0.0
 11
220.258269
 21
2.080464
 31
0.0
  0
ARC
  8
0
 62
   249
 10
220.818269
 20
4.180464
 30
0.0
 40
2.1
 50
269.937724
 51
37.056553
  0
LINE
  8
0
 62
   249
 10
220.258269
 20
2.080464
 30
0.0
 11
220.815986
 21
2.080465
 31
0.0
  0
ARC
  8
0
 62
   249
 10
220.818269
 20
4.180464
 30
0.0
 40
2.1
 50
47.28622
 51
68.787999
  0
INSERT
  8
0
 62
   249
  2
*X18
 10
210.528269
 20
2.080464
 30
0.0
 41
0.7
 42
0.7
 43
0.7
  0
INSERT
  8
0
 62
   249
  2
*X19
 10
210.528269
 20
2.080464
 30
0.0
 41
0.7
 42
0.7
 43
0.7
  0
INSERT
  8
0
 62
   249
  2
*X20
 10
210.528269
 20
2.080464
 30
0.0
 41
0.7
 42
0.7
 43
0.7
  0
INSERT
  8
0
 62
   249
  2
*X21
 10
210.528269
 20
2.080464
 30
0.0
 41
0.7
 42
0.7
 43
0.7
  0
INSERT
  8
0
 62
   249
  2
*X21
 10
215.988269
 20
2.080464
 30
0.0
 41
0.7
 42
0.7
 43
0.7
  0
INSERT
  8
0
 62
   249
  2
*X20
 10
215.988269
 20
2.080464
 30
0.0
 41
0.7
 42
0.7
 43
0.7
  0
INSERT
  8
0
 62
   249
  2
*X19
 10
215.988269
 20
2.080464
 30
0.0
 41
0.7
 42
0.7
 43
0.7
  0
INSERT
  8
0
 62
   249
  2
*X18
 10
215.988269
 20
2.080464
 30
0.0
 41
0.7
 42
0.7
 43
0.7
  0
ARC
  8
0
 62
   249
 10
226.278269
 20
4.180464
 30
0.0
 40
2.1
 50
47.28622
 51
68.787999
  0
LINE
  8
0
 62
   249
 10
225.718269
 20
2.080464
 30
0.0
 11
226.275986
 21
2.080465
 31
0.0
  0
ARC
  8
0
 62
   249
 10
226.278269
 20
4.180464
 30
0.0
 40
2.1
 50
269.937724
 51
37.056553
  0
LINE
  8
0
 62
   249
 10
225.718269
 20
5.440464
 30
0.0
 11
225.718269
 21
2.080464
 31
0.0
  0
LINE
  8
0
 62
   249
 10
227.958269
 20
5.440464
 30
0.0
 11
225.718269
 21
5.440464
 31
0.0
  0
LINE
  8
0
 62
   249
 10
225.718269
 20
5.720464
 30
0.0
 11
227.702711
 21
5.720464
 31
0.0
  0
LINE
  8
0
 62
   249
 10
225.718269
 20
9.080464
 30
0.0
 11
225.718269
 21
5.720464
 31
0.0
  0
LINE
  8
0
 62
   249
 10
225.718269
 20
9.080464
 30
0.0
 11
226.276827
 21
9.080463
 31
0.0
  0
ARC
  8
0
 62
   249
 10
226.278269
 20
7.505464
 30
0.0
 40
1.575
 50
298.455859
 51
90.052437
  0
LINE
  8
0
 62
   249
 10
223.478269
 20
5.720464
 30
0.0
 11
223.478269
 21
9.080464
 31
0.0
  0
LINE
  8
0
 62
   249
 10
225.438269
 20
2.080464
 30
0.0
 11
223.478269
 21
2.080464
 31
0.0
  0
LINE
  8
0
 62
   249
 10
225.438269
 20
5.440464
 30
0.0
 11
225.438269
 21
2.080464
 31
0.0
  0
LINE
  8
0
 62
   249
 10
223.478269
 20
5.440464
 30
0.0
 11
225.438269
 21
5.440464
 31
0.0
  0
LINE
  8
0
 62
   249
 10
225.438269
 20
5.720464
 30
0.0
 11
223.478269
 21
5.720464
 31
0.0
  0
LINE
  8
0
 62
   249
 10
225.438269
 20
9.080464
 30
0.0
 11
225.438269
 21
5.720464
 31
0.0
  0
LINE
  8
0
 62
   249
 10
223.478269
 20
9.080464
 30
0.0
 11
225.438269
 21
9.080464
 31
0.0
  0
LINE
  8
0
 62
   249
 10
223.478269
 20
2.080464
 30
0.0
 11
223.478269
 21
5.440464
 31
0.0
  0
TEXT
  8
0
 62
   249
 10
230.078269
 20
2.080464
 30
0.0
 40
3.0
  1
ABB 
 41
0.8
  7
ROMANS
  0
TEXT
  8
0
 62
   249
 10
238.078269
 20
2.080464
 30
0.0
 40
3.0
  1
Strömberg
 41
0.8
  7
ROMANS
  0
LINE
  8
0
 62
   249
 10
282.578269
 20
10.080464
 30
0.0
 11
282.578269
 21
18.580464
 31
0.0
  0
TEXT
  8
0
 62
   249
 10
28.078269
 20
5.080464
 30
0.0
 40
1.4
  1
MUUTOS
  7
ROMANS
  0
TEXT
  8
0
 62
   249
 10
28.078269
 20
2.813797
 30
0.0
 40
1.4
  1
REVISION
  7
ROMANS
  0
LINE
  8
0
 62
   249
 10
47.078269
 20
9.580464
 30
0.0
 11
209.578269
 21
9.580464
 31
0.0
  0
LINE
  8
0
 62
   249
 10
47.078269
 20
0.580464
 30
0.0
 11
47.078269
 21
9.580464
 31
0.0
  0
LINE
  8
0
 62
   249
 10
41.078269
 20
5.080464
 30
0.0
 11
209.578269
 21
5.080464
 31
0.0
  0
LINE
  8
0
 62
   249
 10
257.578269
 20
10.080464
 30
0.0
 11
257.578269
 21
35.580464
 31
0.0
  0
LINE
  8
0
 62
   249
 10
271.578269
 20
10.080464
 30
0.0
 11
271.578269
 21
0.580464
 31
0.0
  0
TEXT
  8
0
 62
   249
 10
210.578269
 20
32.580464
 30
0.0
 40
1.4
  1
TEKI  PREPARED
  7
ROMANS
  0
TEXT
  8
0
 62
   249
 10
273.578269
 20
7.580464
 30
0.0
 40
1.4
  1
VAST.OSASTO RESP.DEPT.
  7
ROMANS
  0
TEXT
  8
0
 62
   249
 10
257.748175
 20
2.084248
 30
0.0
 40
3.0
  1
Power
 41
0.8
  7
ROMANS
  0
TEXT
  8
0
 62
   249
 10
42.578269
 20
1.537757
 30
0.0
 40
2.5
  1
B
  7
ROMANS
  0
TEXT
  8
0
 62
   249
 10
42.578269
 20
5.929973
 30
0.0
 40
2.5
  1
C
  7
ROMANS
  0
LINE
  8
0
 62
   249
 10
0.578269
 20
0.580464
 30
0.0
 11
392.578269
 21
0.580464
 31
0.0
  0
LINE
  8
0
 62
   249
 10
392.578269
 20
263.080464
 30
0.0
 11
392.578269
 21
0.580464
 31
0.0
  0
LINE
  8
0
 62
   249
 10
0.578269
 20
0.580464
 30
0.0
 11
0.578269
 21
263.080464
 31
0.0
  0
LINE
  8
0
  6
CONTINUOUS
 62
   249
 10
164.025955
 20
130.298659
 30
0.0
 11
161.68019
 21
131.634013
 31
0.0
  0
LINE
  8
0
  6
CONTINUOUS
 62
   249
 10
161.68019
 20
131.634013
 30
0.0
 11
164.025955
 21
132.823932
 31
0.0
  0
ARC
  8
0
  6
CONTINUOUS
 62
   249
 10
150.0
 20
131.607813
 30
0.0
 40
0.5
 50
180.0
 51
0.0
  0
ARC
  8
0
  6
CONTINUOUS
 62
   249
 10
150.0
 20
131.607813
 30
0.0
 40
0.5
 50
0.0
 51
180.0
  0
ARC
  8
0
  6
CONTINUOUS
 62
   249
 10
42.5
 20
151.055194
 30
0.0
 40
0.5
 50
180.0
 51
0.0
  0
ARC
  8
0
  6
CONTINUOUS
 62
   249
 10
42.5
 20
151.055194
 30
0.0
 40
0.5
 50
0.0
 51
180.0
  0
ARC
  8
0
  6
CONTINUOUS
 62
   249
 10
47.5
 20
138.608096
 30
0.0
 40
0.5
 50
180.0
 51
0.0
  0
ARC
  8
0
  6
CONTINUOUS
 62
   249
 10
47.5
 20
138.608096
 30
0.0
 40
0.5
 50
0.0
 51
180.0
  0
ARC
  8
0
  6
CONTINUOUS
 62
   249
 10
72.5
 20
162.5
 30
0.0
 40
0.5
 50
180.0
 51
0.0
  0
ARC
  8
0
  6
CONTINUOUS
 62
   249
 10
72.5
 20
162.5
 30
0.0
 40
0.5
 50
0.0
 51
180.0
  0
ARC
  8
0
  6
CONTINUOUS
 62
   249
 10
62.5
 20
170.0
 30
0.0
 40
0.5
 50
180.0
 51
0.0
  0
ARC
  8
0
  6
CONTINUOUS
 62
   249
 10
62.5
 20
170.0
 30
0.0
 40
0.5
 50
0.0
 51
180.0
  0
TEXT
  8
0
  6
CONTINUOUS
 62
   249
 10
16.844763
 20
206.50558
 30
0.0
 40
2.0
  1
-
  0
TEXT
  8
0
  6
CONTINUOUS
 62
   249
 10
16.853328
 20
211.513635
 30
0.0
 40
2.0
  1
+
  0
ARC
  8
0
  6
CONTINUOUS
 62
   249
 10
35.0
 20
207.5
 30
0.0
 40
0.5
 50
180.0
 51
0.0
  0
ARC
  8
0
  6
CONTINUOUS
 62
   249
 10
35.0
 20
207.5
 30
0.0
 40
0.5
 50
0.0
 51
180.0
  0
ARC
  8
0
  6
CONTINUOUS
 62
   249
 10
70.0
 20
177.5
 30
0.0
 40
0.5
 50
180.0
 51
0.0
  0
ARC
  8
0
  6
CONTINUOUS
 62
   249
 10
70.0
 20
177.5
 30
0.0
 40
0.5
 50
0.0
 51
180.0
  0
ARC
  8
0
  6
CONTINUOUS
 62
   249
 10
57.5
 20
204.665835
 30
0.0
 40
0.5
 50
180.0
 51
0.0
  0
ARC
  8
0
  6
CONTINUOUS
 62
   249
 10
57.5
 20
204.665835
 30
0.0
 40
0.5
 50
0.0
 51
180.0
  0
ARC
  8
0
  6
CONTINUOUS
 62
   249
 10
60.0
 20
194.492731
 30
0.0
 40
0.5
 50
180.0
 51
0.0
  0
ARC
  8
0
  6
CONTINUOUS
 62
   249
 10
60.0
 20
194.492731
 30
0.0
 40
0.5
 50
0.0
 51
180.0
  0
TEXT
  8
0
  6
CONTINUOUS
 62
   249
 10
16.853328
 20
219.013635
 30
0.0
 40
2.0
  1
+
  0
TEXT
  8
0
  6
CONTINUOUS
 62
   249
 10
16.844763
 20
229.00558
 30
0.0
 40
2.0
  1
-
  0
TEXT
  8
0
  6
CONTINUOUS
 62
   249
 10
16.853328
 20
234.013635
 30
0.0
 40
2.0
  1
+
  0
ARC
  8
0
  6
CONTINUOUS
 62
   249
 10
135.0
 20
162.5
 30
0.0
 40
0.5
 50
180.0
 51
0.0
  0
ARC
  8
0
  6
CONTINUOUS
 62
   249
 10
135.0
 20
162.5
 30
0.0
 40
0.5
 50
0.0
 51
180.0
  0
ARC
  8
0
  6
CONTINUOUS
 62
   249
 10
105.818812
 20
177.5
 30
0.0
 40
0.5
 50
180.0
 51
0.0
  0
ARC
  8
0
  6
CONTINUOUS
 62
   249
 10
105.818812
 20
177.5
 30
0.0
 40
0.5
 50
0.0
 51
180.0
  0
ARC
  8
0
  6
CONTINUOUS
 62
   249
 10
130.0
 20
177.5
 30
0.0
 40
0.5
 50
180.0
 51
0.0
  0
ARC
  8
0
  6
CONTINUOUS
 62
   249
 10
130.0
 20
177.5
 30
0.0
 40
0.5
 50
0.0
 51
180.0
  0
ARC
  8
0
  6
CONTINUOUS
 62
   249
 10
127.5
 20
186.684312
 30
0.0
 40
0.5
 50
180.0
 51
0.0
  0
ARC
  8
0
  6
CONTINUOUS
 62
   249
 10
127.5
 20
186.684312
 30
0.0
 40
0.5
 50
0.0
 51
180.0
  0
ARC
  8
0
  6
CONTINUOUS
 62
   249
 10
120.0
 20
194.492731
 30
0.0
 40
0.5
 50
180.0
 51
0.0
  0
ARC
  8
0
  6
CONTINUOUS
 62
   249
 10
120.0
 20
194.492731
 30
0.0
 40
0.5
 50
0.0
 51
180.0
  0
ARC
  8
0
  6
CONTINUOUS
 62
   249
 10
117.5
 20
200.0
 30
0.0
 40
0.5
 50
180.0
 51
0.0
  0
ARC
  8
0
  6
CONTINUOUS
 62
   249
 10
117.5
 20
200.0
 30
0.0
 40
0.5
 50
0.0
 51
180.0
  0
ARC
  8
0
  6
CONTINUOUS
 62
   249
 10
112.5
 20
212.5
 30
0.0
 40
0.5
 50
180.0
 51
0.0
  0
ARC
  8
0
  6
CONTINUOUS
 62
   249
 10
112.5
 20
212.5
 30
0.0
 40
0.5
 50
0.0
 51
180.0
  0
ARC
  8
0
  6
CONTINUOUS
 62
   249
 10
115.0
 20
204.665835
 30
0.0
 40
0.5
 50
180.0
 51
0.0
  0
ARC
  8
0
  6
CONTINUOUS
 62
   249
 10
115.0
 20
204.665835
 30
0.0
 40
0.5
 50
0.0
 51
180.0
  0
LINE
  8
0
  6
CONTINUOUS
 62
   249
 10
171.684557
 20
170.602588
 30
0.0
 11
172.571444
 21
170.602588
 31
0.0
  0
LINE
  8
0
  6
CONTINUOUS
 62
   249
 10
171.353452
 20
171.214221
 30
0.0
 11
172.938024
 21
171.214221
 31
0.0
  0
LINE
  8
0
  6
CONTINUOUS
 62
   249
 10
172.169388
 20
171.836284
 30
0.0
 11
173.363729
 21
171.836284
 31
0.0
  0
LINE
  8
0
  6
CONTINUOUS
 62
   249
 10
170.975047
 20
171.836284
 30
0.0
 11
172.169388
 21
171.836284
 31
0.0
  0
LINE
  8
0
  6
CONTINUOUS
 62
   249
 10
172.185275
 20
173.190554
 30
0.0
 11
172.185275
 21
171.836284
 31
0.0
  0
LINE
  8
0
  6
CONTINUOUS
 62
   249
 10
161.424362
 20
171.164635
 30
0.0
 11
159.078597
 21
172.499989
 31
0.0
  0
LINE
  8
0
  6
CONTINUOUS
 62
   249
 10
159.078597
 20
172.499989
 30
0.0
 11
161.424362
 21
173.689908
 31
0.0
  0
LINE
  8
0
  6
CONTINUOUS
 62
   249
 10
194.847595
 20
173.925586
 30
0.0
 11
196.096268
 21
173.214764
 31
0.0
  0
LINE
  8
0
  6
CONTINUOUS
 62
   249
 10
196.096268
 20
173.214764
 30
0.0
 11
194.847595
 21
172.581359
 31
0.0
  0
LINE
  8
0
  6
CONTINUOUS
 62
   249
 10
191.22323
 20
172.490627
 30
0.0
 11
189.974557
 21
173.201449
 31
0.0
  0
LINE
  8
0
  6
CONTINUOUS
 62
   249
 10
189.974557
 20
173.201449
 30
0.0
 11
191.22323
 21
173.834854
 31
0.0
  0
ARC
  8
0
  6
CONTINUOUS
 62
   249
 10
147.5
 20
142.5
 30
0.0
 40
0.5
 50
180.0
 51
0.0
  0
ARC
  8
0
  6
CONTINUOUS
 62
   249
 10
147.5
 20
142.5
 30
0.0
 40
0.5
 50
0.0
 51
180.0
  0
ARC
  8
0
  6
CONTINUOUS
 62
   249
 10
145.0
 20
147.385451
 30
0.0
 40
0.5
 50
180.0
 51
0.0
  0
ARC
  8
0
  6
CONTINUOUS
 62
   249
 10
145.0
 20
147.385451
 30
0.0
 40
0.5
 50
0.0
 51
180.0
  0
LINE
  8
0
  6
CONTINUOUS
 62
   249
 10
161.42602
 20
141.058801
 30
0.0
 11
159.080254
 21
142.394155
 31
0.0
  0
LINE
  8
0
  6
CONTINUOUS
 62
   249
 10
159.080254
 20
142.394155
 30
0.0
 11
161.42602
 21
143.584074
 31
0.0
  0
ARC
  8
0
  6
CONTINUOUS
 62
   249
 10
157.5
 20
150.527858
 30
0.0
 40
0.5
 50
180.0
 51
0.0
  0
ARC
  8
0
  6
CONTINUOUS
 62
   249
 10
157.5
 20
150.527858
 30
0.0
 40
0.5
 50
0.0
 51
180.0
  0
LINE
  8
0
  6
CONTINUOUS
 62
   249
 10
161.42602
 20
145.944252
 30
0.0
 11
159.080254
 21
147.279606
 31
0.0
  0
LINE
  8
0
  6
CONTINUOUS
 62
   249
 10
159.080254
 20
147.279606
 30
0.0
 11
161.42602
 21
148.469525
 31
0.0
  0
ARC
  8
0
  6
CONTINUOUS
 62
   249
 10
142.5
 20
157.5
 30
0.0
 40
0.5
 50
180.0
 51
0.0
  0
ARC
  8
0
  6
CONTINUOUS
 62
   249
 10
142.5
 20
157.5
 30
0.0
 40
0.5
 50
0.0
 51
180.0
  0
LINE
  8
0
  6
CONTINUOUS
 62
   249
 10
161.42602
 20
161.164646
 30
0.0
 11
159.080254
 21
162.5
 31
0.0
  0
LINE
  8
0
  6
CONTINUOUS
 62
   249
 10
159.080254
 20
162.5
 30
0.0
 11
161.42602
 21
163.689919
 31
0.0
  0
ARC
  8
0
  6
CONTINUOUS
 62
   249
 10
155.0
 20
153.252604
 30
0.0
 40
0.5
 50
180.0
 51
0.0
  0
ARC
  8
0
  6
CONTINUOUS
 62
   249
 10
155.0
 20
153.252604
 30
0.0
 40
0.5
 50
0.0
 51
180.0
  0
INSERT
  8
0
  6
CONTINUOUS
 62
   249
  2
BLC29
 10
161.994594
 20
157.371524
 30
0.0
 50
180.0
  0
ARC
  8
0
  6
CONTINUOUS
 62
   249
 10
157.5
 20
165.0
 30
0.0
 40
0.5
 50
180.0
 51
0.0
  0
ARC
  8
0
  6
CONTINUOUS
 62
   249
 10
157.5
 20
165.0
 30
0.0
 40
0.5
 50
0.0
 51
180.0
  0
ARC
  8
0
  6
CONTINUOUS
 62
   249
 10
155.0
 20
168.000813
 30
0.0
 40
0.5
 50
180.0
 51
0.0
  0
ARC
  8
0
  6
CONTINUOUS
 62
   249
 10
155.0
 20
168.000813
 30
0.0
 40
0.5
 50
0.0
 51
180.0
  0
LINE
  8
0
  6
CONTINUOUS
 62
   249
 10
171.684557
 20
160.501939
 30
0.0
 11
172.571444
 21
160.501939
 31
0.0
  0
LINE
  8
0
  6
CONTINUOUS
 62
   249
 10
171.353452
 20
161.113572
 30
0.0
 11
172.938024
 21
161.113572
 31
0.0
  0
LINE
  8
0
  6
CONTINUOUS
 62
   249
 10
172.169388
 20
161.735634
 30
0.0
 11
173.363729
 21
161.735634
 31
0.0
  0
LINE
  8
0
  6
CONTINUOUS
 62
   249
 10
170.975047
 20
161.735634
 30
0.0
 11
172.169388
 21
161.735634
 31
0.0
  0
LINE
  8
0
  6
CONTINUOUS
 62
   249
 10
172.185275
 20
163.089905
 30
0.0
 11
172.185275
 21
161.735634
 31
0.0
  0
LINE
  8
0
  6
CONTINUOUS
 62
   249
 10
161.424362
 20
193.157382
 30
0.0
 11
159.078597
 21
194.492735
 31
0.0
  0
LINE
  8
0
  6
CONTINUOUS
 62
   249
 10
159.078597
 20
194.492735
 30
0.0
 11
161.424362
 21
195.682654
 31
0.0
  0
ARC
  8
0
  6
CONTINUOUS
 62
   249
 10
155.0
 20
183.000813
 30
0.0
 40
0.5
 50
180.0
 51
0.0
  0
ARC
  8
0
  6
CONTINUOUS
 62
   249
 10
155.0
 20
183.000813
 30
0.0
 40
0.5
 50
0.0
 51
180.0
  0
ARC
  8
0
  6
CONTINUOUS
 62
   249
 10
157.5
 20
179.971652
 30
0.0
 40
0.5
 50
180.0
 51
0.0
  0
ARC
  8
0
  6
CONTINUOUS
 62
   249
 10
157.5
 20
179.971652
 30
0.0
 40
0.5
 50
0.0
 51
180.0
  0
LINE
  8
0
  6
CONTINUOUS
 62
   249
 10
161.424362
 20
185.348947
 30
0.0
 11
159.078597
 21
186.6843
 31
0.0
  0
LINE
  8
0
  6
CONTINUOUS
 62
   249
 10
159.078597
 20
186.6843
 30
0.0
 11
161.424362
 21
187.87422
 31
0.0
  0
LINE
  8
0
  6
CONTINUOUS
 62
   249
 10
161.42602
 20
189.271178
 30
0.0
 11
159.080254
 21
190.606531
 31
0.0
  0
LINE
  8
0
  6
CONTINUOUS
 62
   249
 10
159.080254
 20
190.606531
 30
0.0
 11
161.42602
 21
191.79645
 31
0.0
  0
LINE
  8
0
  6
CONTINUOUS
 62
   249
 10
161.424362
 20
203.331255
 30
0.0
 11
159.078597
 21
204.666609
 31
0.0
  0
LINE
  8
0
  6
CONTINUOUS
 62
   249
 10
159.078597
 20
204.666609
 30
0.0
 11
161.424362
 21
205.856528
 31
0.0
  0
LINE
  8
0
  6
CONTINUOUS
 62
   249
 10
161.424362
 20
198.664635
 30
0.0
 11
159.078597
 21
199.999989
 31
0.0
  0
LINE
  8
0
  6
CONTINUOUS
 62
   249
 10
159.078597
 20
199.999989
 30
0.0
 11
161.424362
 21
201.189908
 31
0.0
  0
LINE
  8
0
  6
CONTINUOUS
 62
   249
 10
161.424362
 20
211.164635
 30
0.0
 11
159.078597
 21
212.499989
 31
0.0
  0
LINE
  8
0
  6
CONTINUOUS
 62
   249
 10
159.078597
 20
212.499989
 30
0.0
 11
161.424362
 21
213.689908
 31
0.0
  0
LINE
  8
0
  6
CONTINUOUS
 62
   249
 10
171.684557
 20
175.765721
 30
0.0
 11
172.571444
 21
175.765721
 31
0.0
  0
LINE
  8
0
  6
CONTINUOUS
 62
   249
 10
171.353452
 20
176.377354
 30
0.0
 11
172.938024
 21
176.377354
 31
0.0
  0
LINE
  8
0
  6
CONTINUOUS
 62
   249
 10
172.169388
 20
176.999416
 30
0.0
 11
173.363729
 21
176.999416
 31
0.0
  0
LINE
  8
0
  6
CONTINUOUS
 62
   249
 10
170.975047
 20
176.999416
 30
0.0
 11
172.169388
 21
176.999416
 31
0.0
  0
LINE
  8
0
  6
CONTINUOUS
 62
   249
 10
172.185275
 20
178.353686
 30
0.0
 11
172.185275
 21
176.999416
 31
0.0
  0
LINE
  8
0
  6
CONTINUOUS
 62
   249
 10
171.612669
 20
185.649432
 30
0.0
 11
172.499556
 21
185.649432
 31
0.0
  0
LINE
  8
0
  6
CONTINUOUS
 62
   249
 10
171.281565
 20
186.261065
 30
0.0
 11
172.866136
 21
186.261065
 31
0.0
  0
LINE
  8
0
  6
CONTINUOUS
 62
   249
 10
172.097501
 20
186.883127
 30
0.0
 11
173.291842
 21
186.883127
 31
0.0
  0
LINE
  8
0
  6
CONTINUOUS
 62
   249
 10
170.90316
 20
186.883127
 30
0.0
 11
172.097501
 21
186.883127
 31
0.0
  0
LINE
  8
0
  6
CONTINUOUS
 62
   249
 10
172.113387
 20
188.237397
 30
0.0
 11
172.113387
 21
186.883127
 31
0.0
  0
LINE
  8
0
  6
CONTINUOUS
 62
   249
 10
173.13429
 20
190.456785
 30
0.0
 11
174.021177
 21
190.456785
 31
0.0
  0
LINE
  8
0
  6
CONTINUOUS
 62
   249
 10
172.803186
 20
191.068418
 30
0.0
 11
174.387757
 21
191.068418
 31
0.0
  0
LINE
  8
0
  6
CONTINUOUS
 62
   249
 10
173.619122
 20
191.69048
 30
0.0
 11
174.813463
 21
191.69048
 31
0.0
  0
LINE
  8
0
  6
CONTINUOUS
 62
   249
 10
172.424781
 20
191.69048
 30
0.0
 11
173.619122
 21
191.69048
 31
0.0
  0
LINE
  8
0
  6
CONTINUOUS
 62
   249
 10
173.635009
 20
193.044751
 30
0.0
 11
173.635009
 21
191.69048
 31
0.0
  0
LINE
  8
0
  6
CONTINUOUS
 62
   249
 10
194.425006
 20
180.720592
 30
0.0
 11
195.311893
 21
180.720592
 31
0.0
  0
LINE
  8
0
  6
CONTINUOUS
 62
   249
 10
194.093901
 20
181.332226
 30
0.0
 11
195.678473
 21
181.332226
 31
0.0
  0
LINE
  8
0
  6
CONTINUOUS
 62
   249
 10
194.909837
 20
181.954288
 30
0.0
 11
196.104178
 21
181.954288
 31
0.0
  0
LINE
  8
0
  6
CONTINUOUS
 62
   249
 10
193.715496
 20
181.954288
 30
0.0
 11
194.909837
 21
181.954288
 31
0.0
  0
LINE
  8
0
  6
CONTINUOUS
 62
   249
 10
194.925724
 20
183.308558
 30
0.0
 11
194.925724
 21
181.954288
 31
0.0
  0
LINE
  8
0
  6
CONTINUOUS
 62
   249
 10
194.353118
 20
175.748366
 30
0.0
 11
195.240005
 21
175.748366
 31
0.0
  0
LINE
  8
0
  6
CONTINUOUS
 62
   249
 10
194.022014
 20
176.359999
 30
0.0
 11
195.606585
 21
176.359999
 31
0.0
  0
LINE
  8
0
  6
CONTINUOUS
 62
   249
 10
194.83795
 20
176.982061
 30
0.0
 11
196.032291
 21
176.982061
 31
0.0
  0
LINE
  8
0
  6
CONTINUOUS
 62
   249
 10
193.643609
 20
176.982061
 30
0.0
 11
194.83795
 21
176.982061
 31
0.0
  0
LINE
  8
0
  6
CONTINUOUS
 62
   249
 10
194.853836
 20
178.336331
 30
0.0
 11
194.853836
 21
176.982061
 31
0.0
  0
LINE
  8
0
  6
CONTINUOUS
 62
   249
 10
173.13429
 20
195.654628
 30
0.0
 11
174.021177
 21
195.654628
 31
0.0
  0
LINE
  8
0
  6
CONTINUOUS
 62
   249
 10
172.803186
 20
196.266261
 30
0.0
 11
174.387757
 21
196.266261
 31
0.0
  0
LINE
  8
0
  6
CONTINUOUS
 62
   249
 10
173.619122
 20
196.888323
 30
0.0
 11
174.813463
 21
196.888323
 31
0.0
  0
LINE
  8
0
  6
CONTINUOUS
 62
   249
 10
172.424781
 20
196.888323
 30
0.0
 11
173.619122
 21
196.888323
 31
0.0
  0
LINE
  8
0
  6
CONTINUOUS
 62
   249
 10
173.635009
 20
198.242593
 30
0.0
 11
173.635009
 21
196.888323
 31
0.0
  0
LINE
  8
0
  6
CONTINUOUS
 62
   249
 10
173.13429
 20
200.670242
 30
0.0
 11
174.021177
 21
200.670242
 31
0.0
  0
LINE
  8
0
  6
CONTINUOUS
 62
   249
 10
172.803186
 20
201.281875
 30
0.0
 11
174.387757
 21
201.281875
 31
0.0
  0
LINE
  8
0
  6
CONTINUOUS
 62
   249
 10
173.619122
 20
201.903937
 30
0.0
 11
174.813463
 21
201.903937
 31
0.0
  0
LINE
  8
0
  6
CONTINUOUS
 62
   249
 10
172.424781
 20
201.903937
 30
0.0
 11
173.619122
 21
201.903937
 31
0.0
  0
LINE
  8
0
  6
CONTINUOUS
 62
   249
 10
173.635009
 20
203.258208
 30
0.0
 11
173.635009
 21
201.903937
 31
0.0
  0
LINE
  8
0
  6
CONTINUOUS
 62
   249
 10
173.13429
 20
205.772632
 30
0.0
 11
174.021177
 21
205.772632
 31
0.0
  0
LINE
  8
0
  6
CONTINUOUS
 62
   249
 10
172.803186
 20
206.384265
 30
0.0
 11
174.387757
 21
206.384265
 31
0.0
  0
LINE
  8
0
  6
CONTINUOUS
 62
   249
 10
173.619122
 20
207.006327
 30
0.0
 11
174.813463
 21
207.006327
 31
0.0
  0
LINE
  8
0
  6
CONTINUOUS
 62
   249
 10
172.424781
 20
207.006327
 30
0.0
 11
173.619122
 21
207.006327
 31
0.0
  0
LINE
  8
0
  6
CONTINUOUS
 62
   249
 10
173.635009
 20
208.360598
 30
0.0
 11
173.635009
 21
207.006327
 31
0.0
  0
LINE
  8
0
  6
CONTINUOUS
 62
   249
 10
192.38819
 20
197.312037
 30
0.0
 11
193.275077
 21
197.312037
 31
0.0
  0
LINE
  8
0
  6
CONTINUOUS
 62
   249
 10
192.057086
 20
197.92367
 30
0.0
 11
193.641657
 21
197.92367
 31
0.0
  0
LINE
  8
0
  6
CONTINUOUS
 62
   249
 10
192.873022
 20
198.545732
 30
0.0
 11
194.067363
 21
198.545732
 31
0.0
  0
LINE
  8
0
  6
CONTINUOUS
 62
   249
 10
191.678681
 20
198.545732
 30
0.0
 11
192.873022
 21
198.545732
 31
0.0
  0
LINE
  8
0
  6
CONTINUOUS
 62
   249
 10
192.888908
 20
199.900002
 30
0.0
 11
192.888908
 21
198.545732
 31
0.0
  0
ARC
  8
0
  6
CONTINUOUS
 62
   249
 10
157.5
 20
217.5
 30
0.0
 40
0.5
 50
180.0
 51
0.0
  0
ARC
  8
0
  6
CONTINUOUS
 62
   249
 10
157.5
 20
217.5
 30
0.0
 40
0.5
 50
0.0
 51
180.0
  0
LINE
  8
0
  6
CONTINUOUS
 62
   249
 10
219.88991
 20
84.919149
 30
0.0
 11
217.544144
 21
86.254503
 31
0.0
  0
LINE
  8
0
  6
CONTINUOUS
 62
   249
 10
217.544144
 20
86.254503
 30
0.0
 11
219.88991
 21
87.444422
 31
0.0
  0
LINE
  8
0
  6
CONTINUOUS
 62
   249
 10
222.413158
 20
118.664635
 30
0.0
 11
220.067393
 21
119.999989
 31
0.0
  0
LINE
  8
0
  6
CONTINUOUS
 62
   249
 10
220.067393
 20
119.999989
 30
0.0
 11
222.413158
 21
121.189908
 31
0.0
  0
LINE
  8
0
  6
CONTINUOUS
 62
   249
 10
270.0
 20
130.990022
 30
0.0
 11
270.0
 21
128.344365
 31
0.0
  0
LINE
  8
0
  6
CONTINUOUS
 62
   249
 10
269.396305
 20
126.562812
 30
0.0
 11
270.603695
 21
126.562812
 31
0.0
  0
LINE
  8
0
  6
CONTINUOUS
 62
   249
 10
268.963807
 20
127.450325
 30
0.0
 11
271.027182
 21
127.450325
 31
0.0
  0
LINE
  8
0
  6
CONTINUOUS
 62
   249
 10
268.468237
 20
128.344365
 30
0.0
 11
271.531763
 21
128.344365
 31
0.0
  0
LINE
  8
0
  6
CONTINUOUS
 62
   249
 10
280.0
 20
130.990022
 30
0.0
 11
280.0
 21
128.344365
 31
0.0
  0
LINE
  8
0
  6
CONTINUOUS
 62
   249
 10
279.396305
 20
126.562812
 30
0.0
 11
280.603695
 21
126.562812
 31
0.0
  0
LINE
  8
0
  6
CONTINUOUS
 62
   249
 10
278.963807
 20
127.450325
 30
0.0
 11
281.027182
 21
127.450325
 31
0.0
  0
LINE
  8
0
  6
CONTINUOUS
 62
   249
 10
278.468237
 20
128.344365
 30
0.0
 11
281.531763
 21
128.344365
 31
0.0
  0
ARC
  8
0
  6
CONTINUOUS
 62
   249
 10
257.5
 20
195.0
 30
0.0
 40
0.5
 50
180.0
 51
0.0
  0
ARC
  8
0
  6
CONTINUOUS
 62
   249
 10
257.5
 20
195.0
 30
0.0
 40
0.5
 50
0.0
 51
180.0
  0
ARC
  8
0
  6
CONTINUOUS
 62
   249
 10
257.5
 20
175.0
 30
0.0
 40
0.5
 50
180.0
 51
0.0
  0
ARC
  8
0
  6
CONTINUOUS
 62
   249
 10
257.5
 20
175.0
 30
0.0
 40
0.5
 50
0.0
 51
180.0
  0
LINE
  8
0
  6
CONTINUOUS
 62
   249
 10
222.413158
 20
138.664635
 30
0.0
 11
220.067393
 21
139.999989
 31
0.0
  0
LINE
  8
0
  6
CONTINUOUS
 62
   249
 10
220.067393
 20
139.999989
 30
0.0
 11
222.413158
 21
141.189908
 31
0.0
  0
ARC
  8
0
  6
CONTINUOUS
 62
   249
 10
217.16296
 20
145.729835
 30
0.0
 40
0.5
 50
180.0
 51
0.0
  0
ARC
  8
0
  6
CONTINUOUS
 62
   249
 10
217.16296
 20
145.729835
 30
0.0
 40
0.5
 50
0.0
 51
180.0
  0
ARC
  8
0
  6
CONTINUOUS
 62
   249
 10
202.5
 20
168.479447
 30
0.0
 40
0.5
 50
180.0
 51
0.0
  0
ARC
  8
0
  6
CONTINUOUS
 62
   249
 10
202.5
 20
168.479447
 30
0.0
 40
0.5
 50
0.0
 51
180.0
  0
LINE
  8
0
  6
CONTINUOUS
 62
   249
 10
222.413158
 20
158.664635
 30
0.0
 11
220.067393
 21
159.999989
 31
0.0
  0
LINE
  8
0
  6
CONTINUOUS
 62
   249
 10
220.067393
 20
159.999989
 30
0.0
 11
222.413158
 21
161.189908
 31
0.0
  0
LINE
  8
0
  6
CONTINUOUS
 62
   249
 10
219.489729
 20
198.664635
 30
0.0
 11
217.143963
 21
199.999989
 31
0.0
  0
LINE
  8
0
  6
CONTINUOUS
 62
   249
 10
217.143963
 20
199.999989
 30
0.0
 11
219.489729
 21
201.189908
 31
0.0
  0
ARC
  8
0
  6
CONTINUOUS
 62
   249
 10
280.0
 20
172.5
 30
0.0
 40
0.5
 50
180.0
 51
0.0
  0
ARC
  8
0
  6
CONTINUOUS
 62
   249
 10
280.0
 20
172.5
 30
0.0
 40
0.5
 50
0.0
 51
180.0
  0
LINE
  8
0
  6
CONTINUOUS
 62
   249
 10
272.5
 20
154.573703
 30
0.0
 11
272.5
 21
151.928045
 31
0.0
  0
LINE
  8
0
  6
CONTINUOUS
 62
   249
 10
271.896305
 20
150.146492
 30
0.0
 11
273.103695
 21
150.146492
 31
0.0
  0
LINE
  8
0
  6
CONTINUOUS
 62
   249
 10
271.463807
 20
151.034006
 30
0.0
 11
273.527182
 21
151.034006
 31
0.0
  0
LINE
  8
0
  6
CONTINUOUS
 62
   249
 10
270.968237
 20
151.928045
 30
0.0
 11
274.031763
 21
151.928045
 31
0.0
  0
ARC
  8
0
  6
CONTINUOUS
 62
   249
 10
270.0
 20
135.0
 30
0.0
 40
0.5
 50
180.0
 51
0.0
  0
ARC
  8
0
  6
CONTINUOUS
 62
   249
 10
270.0
 20
135.0
 30
0.0
 40
0.5
 50
0.0
 51
180.0
  0
INSERT
  8
0
  6
CENTER
 62
   249
  2
BLC26
 10
283.91053
 20
137.390461
 30
0.0
 41
1.006225
 42
1.006225
 50
180.0
 43
1.006225
  0
ARC
  8
0
  6
CONTINUOUS
 62
   249
 10
272.5
 20
155.0
 30
0.0
 40
0.5
 50
180.0
 51
0.0
  0
ARC
  8
0
  6
CONTINUOUS
 62
   249
 10
272.5
 20
155.0
 30
0.0
 40
0.5
 50
0.0
 51
180.0
  0
INSERT
  8
0
  6
CENTER
 62
   249
  2
BLC26
 10
288.910526
 20
182.580446
 30
0.0
 41
1.006225
 42
1.006225
 50
180.0
 43
1.006225
  0
ARC
  8
0
  6
CONTINUOUS
 62
   249
 10
272.5
 20
180.189984
 30
0.0
 40
0.5
 50
180.0
 51
0.0
  0
ARC
  8
0
  6
CONTINUOUS
 62
   249
 10
272.5
 20
180.189984
 30
0.0
 40
0.5
 50
0.0
 51
180.0
  0
ARC
  8
0
  6
CONTINUOUS
 62
   249
 10
272.5
 20
200.189984
 30
0.0
 40
0.5
 50
180.0
 51
0.0
  0
ARC
  8
0
  6
CONTINUOUS
 62
   249
 10
272.5
 20
200.189984
 30
0.0
 40
0.5
 50
0.0
 51
180.0
  0
INSERT
  8
0
  6
CENTER
 62
   249
  2
BLC26
 10
283.93164
 20
202.580445
 30
0.0
 41
1.006225
 42
1.006225
 50
180.0
 43
1.006225
  0
LINE
  8
0
  6
CONTINUOUS
 62
   249
 10
294.97124
 20
206.768935
 30
0.0
 11
294.97124
 21
197.619107
 31
0.0
  0
INSERT
  8
0
  6
CONTINUOUS
 62
   249
  2
BLC29
 10
295.103986
 20
199.979672
 30
0.0
 50
270.0
  0
ARC
  8
0
  6
CONTINUOUS
 62
   249
 10
205.0
 20
217.5
 30
0.0
 40
0.5
 50
180.0
 51
0.0
  0
ARC
  8
0
  6
CONTINUOUS
 62
   249
 10
205.0
 20
217.5
 30
0.0
 40
0.5
 50
0.0
 51
180.0
  0
ARC
  8
0
  6
CONTINUOUS
 62
   249
 10
282.5
 20
255.0
 30
0.0
 40
0.5
 50
180.0
 51
0.0
  0
ARC
  8
0
  6
CONTINUOUS
 62
   249
 10
282.5
 20
255.0
 30
0.0
 40
0.5
 50
0.0
 51
180.0
  0
ARC
  8
0
  6
CONTINUOUS
 62
   249
 10
307.5
 20
255.0
 30
0.0
 40
0.5
 50
180.0
 51
0.0
  0
ARC
  8
0
  6
CONTINUOUS
 62
   249
 10
307.5
 20
255.0
 30
0.0
 40
0.5
 50
0.0
 51
180.0
  0
INSERT
  8
0
  6
CENTER
 62
   249
  2
BLC26
 10
278.910524
 20
222.580448
 30
0.0
 41
1.006225
 42
1.006225
 50
180.0
 43
1.006225
  0
ARC
  8
0
  6
CONTINUOUS
 62
   249
 10
287.5
 20
250.0
 30
0.0
 40
0.5
 50
180.0
 51
0.0
  0
ARC
  8
0
  6
CONTINUOUS
 62
   249
 10
287.5
 20
250.0
 30
0.0
 40
0.5
 50
0.0
 51
180.0
  0
INSERT
  8
0
  6
CENTER
 62
   249
  2
BLC26
 10
298.546562
 20
240.109534
 30
0.0
 41
1.006225
 42
1.006225
 43
1.006225
  0
INSERT
  8
0
  6
CENTER
 62
   249
  2
BLC26
 10
306.046562
 20
240.109534
 30
0.0
 41
1.006225
 42
1.006225
 43
1.006225
  0
INSERT
  8
0
  6
CENTER
 62
   249
  2
BLC26
 10
313.546562
 20
240.109534
 30
0.0
 41
1.006225
 42
1.006225
 43
1.006225
  0
ARC
  8
0
  6
CONTINUOUS
 62
   249
 10
315.0
 20
250.0
 30
0.0
 40
0.5
 50
180.0
 51
0.0
  0
ARC
  8
0
  6
CONTINUOUS
 62
   249
 10
315.0
 20
250.0
 30
0.0
 40
0.5
 50
0.0
 51
180.0
  0
ARC
  8
0
  6
CONTINUOUS
 62
   249
 10
277.5
 20
260.0
 30
0.0
 40
0.5
 50
180.0
 51
0.0
  0
ARC
  8
0
  6
CONTINUOUS
 62
   249
 10
277.5
 20
260.0
 30
0.0
 40
0.5
 50
0.0
 51
180.0
  0
ARC
  8
0
  6
CONTINUOUS
 62
   249
 10
300.0
 20
260.0
 30
0.0
 40
0.5
 50
180.0
 51
0.0
  0
ARC
  8
0
  6
CONTINUOUS
 62
   249
 10
300.0
 20
260.0
 30
0.0
 40
0.5
 50
0.0
 51
180.0
  0
LINE
  8
0
  6
CONTINUOUS
 62
   249
 10
367.534794
 20
211.994969
 30
0.0
 11
368.42168
 21
211.994969
 31
0.0
  0
LINE
  8
0
  6
CONTINUOUS
 62
   249
 10
367.203689
 20
212.606602
 30
0.0
 11
368.78826
 21
212.606602
 31
0.0
  0
LINE
  8
0
  6
CONTINUOUS
 62
   249
 10
368.019625
 20
213.228665
 30
0.0
 11
369.213966
 21
213.228665
 31
0.0
  0
LINE
  8
0
  6
CONTINUOUS
 62
   249
 10
366.825284
 20
213.228665
 30
0.0
 11
368.019625
 21
213.228665
 31
0.0
  0
LINE
  8
0
  6
CONTINUOUS
 62
   249
 10
368.035512
 20
214.582935
 30
0.0
 11
368.035512
 21
213.228665
 31
0.0
  0
ARC
  8
0
  6
CONTINUOUS
 62
   249
 10
322.5
 20
172.5
 30
0.0
 40
0.5
 50
180.0
 51
0.0
  0
ARC
  8
0
  6
CONTINUOUS
 62
   249
 10
322.5
 20
172.5
 30
0.0
 40
0.5
 50
0.0
 51
180.0
  0
INSERT
  8
0
  6
CENTER
 62
   249
  2
BLC26
 10
321.046562
 20
147.609534
 30
0.0
 41
1.006225
 42
1.006225
 43
1.006225
  0
INSERT
  8
0
  6
CENTER
 62
   249
  2
BLC26
 10
328.546562
 20
147.609534
 30
0.0
 41
1.006225
 42
1.006225
 43
1.006225
  0
LINE
  8
0
  6
CONTINUOUS
 62
   249
 10
341.509978
 20
140.0
 30
0.0
 11
344.155635
 21
140.0
 31
0.0
  0
LINE
  8
0
  6
CONTINUOUS
 62
   249
 10
345.937188
 20
139.396305
 30
0.0
 11
345.937188
 21
140.603695
 31
0.0
  0
LINE
  8
0
  6
CONTINUOUS
 62
   249
 10
345.049675
 20
138.963807
 30
0.0
 11
345.049675
 21
141.027182
 31
0.0
  0
LINE
  8
0
  6
CONTINUOUS
 62
   249
 10
344.155635
 20
138.468237
 30
0.0
 11
344.155635
 21
141.531763
 31
0.0
  0
LINE
  8
0
  6
CONTINUOUS
 62
   249
 10
341.509978
 20
145.18998
 30
0.0
 11
344.155635
 21
145.18998
 31
0.0
  0
LINE
  8
0
  6
CONTINUOUS
 62
   249
 10
345.937188
 20
144.586285
 30
0.0
 11
345.937188
 21
145.793675
 31
0.0
  0
LINE
  8
0
  6
CONTINUOUS
 62
   249
 10
345.049675
 20
144.153787
 30
0.0
 11
345.049675
 21
146.217163
 31
0.0
  0
LINE
  8
0
  6
CONTINUOUS
 62
   249
 10
344.155635
 20
143.658217
 30
0.0
 11
344.155635
 21
146.721743
 31
0.0
  0
INSERT
  8
0
  6
CENTER
 62
   249
  2
BLC26
 10
336.046562
 20
147.609534
 30
0.0
 41
1.006225
 42
1.006225
 43
1.006225
  0
ARC
  8
0
  6
CONTINUOUS
 62
   249
 10
330.0
 20
167.5
 30
0.0
 40
0.5
 50
180.0
 51
0.0
  0
ARC
  8
0
  6
CONTINUOUS
 62
   249
 10
330.0
 20
167.5
 30
0.0
 40
0.5
 50
0.0
 51
180.0
  0
ARC
  8
0
  6
CONTINUOUS
 62
   249
 10
337.5
 20
162.5
 30
0.0
 40
0.5
 50
180.0
 51
0.0
  0
ARC
  8
0
  6
CONTINUOUS
 62
   249
 10
337.5
 20
162.5
 30
0.0
 40
0.5
 50
0.0
 51
180.0
  0
LINE
  8
0
  6
CONTINUOUS
 62
   249
 10
366.390281
 20
189.007632
 30
0.0
 11
365.141608
 21
189.718453
 31
0.0
  0
LINE
  8
0
  6
CONTINUOUS
 62
   249
 10
365.141608
 20
189.718453
 30
0.0
 11
366.390281
 21
190.351859
 31
0.0
  0
LINE
  8
0
  6
CONTINUOUS
 62
   249
 10
370.036905
 20
190.429275
 30
0.0
 11
371.285579
 21
189.718453
 31
0.0
  0
LINE
  8
0
  6
CONTINUOUS
 62
   249
 10
371.285579
 20
189.718453
 30
0.0
 11
370.036905
 21
189.085048
 31
0.0
  0
LINE
  8
0
  6
CONTINUOUS
 62
   249
 10
368.639739
 20
204.468842
 30
0.0
 11
369.888413
 21
203.75802
 31
0.0
  0
LINE
  8
0
  6
CONTINUOUS
 62
   249
 10
369.888413
 20
203.75802
 30
0.0
 11
368.639739
 21
203.124615
 31
0.0
  0
LINE
  8
0
  6
CONTINUOUS
 62
   249
 10
367.461984
 20
197.240204
 30
0.0
 11
368.34887
 21
197.240204
 31
0.0
  0
LINE
  8
0
  6
CONTINUOUS
 62
   249
 10
367.130879
 20
197.851837
 30
0.0
 11
368.71545
 21
197.851837
 31
0.0
  0
LINE
  8
0
  6
CONTINUOUS
 62
   249
 10
367.946815
 20
198.473899
 30
0.0
 11
369.141156
 21
198.473899
 31
0.0
  0
LINE
  8
0
  6
CONTINUOUS
 62
   249
 10
366.752474
 20
198.473899
 30
0.0
 11
367.946815
 21
198.473899
 31
0.0
  0
LINE
  8
0
  6
CONTINUOUS
 62
   249
 10
367.962702
 20
199.828169
 30
0.0
 11
367.962702
 21
198.473899
 31
0.0
  0
ARC
  8
0
  6
CONTINUOUS
 62
   249
 10
325.0
 20
232.5
 30
0.0
 40
0.5
 50
180.0
 51
0.0
  0
ARC
  8
0
  6
CONTINUOUS
 62
   249
 10
325.0
 20
232.5
 30
0.0
 40
0.5
 50
0.0
 51
180.0
  0
LINE
  8
0
  6
CONTINUOUS
 62
   249
 10
329.009978
 20
232.5
 30
0.0
 11
331.655635
 21
232.5
 31
0.0
  0
LINE
  8
0
  6
CONTINUOUS
 62
   249
 10
333.437188
 20
231.896305
 30
0.0
 11
333.437188
 21
233.103695
 31
0.0
  0
LINE
  8
0
  6
CONTINUOUS
 62
   249
 10
332.549675
 20
231.463807
 30
0.0
 11
332.549675
 21
233.527182
 31
0.0
  0
LINE
  8
0
  6
CONTINUOUS
 62
   249
 10
331.655635
 20
230.968237
 30
0.0
 11
331.655635
 21
234.031763
 31
0.0
  0
LINE
  8
0
  6
CONTINUOUS
 62
   249
 10
329.009978
 20
237.68998
 30
0.0
 11
331.655635
 21
237.68998
 31
0.0
  0
LINE
  8
0
  6
CONTINUOUS
 62
   249
 10
333.437188
 20
237.086285
 30
0.0
 11
333.437188
 21
238.293675
 31
0.0
  0
LINE
  8
0
  6
CONTINUOUS
 62
   249
 10
332.549675
 20
236.653787
 30
0.0
 11
332.549675
 21
238.717163
 31
0.0
  0
LINE
  8
0
  6
CONTINUOUS
 62
   249
 10
331.655635
 20
236.158217
 30
0.0
 11
331.655635
 21
239.221743
 31
0.0
  0
LINE
  8
0
  6
CONTINUOUS
 62
   249
 10
367.753224
 20
232.225278
 30
0.0
 11
368.64011
 21
232.225278
 31
0.0
  0
LINE
  8
0
  6
CONTINUOUS
 62
   249
 10
367.422119
 20
232.836911
 30
0.0
 11
369.00669
 21
232.836911
 31
0.0
  0
LINE
  8
0
  6
CONTINUOUS
 62
   249
 10
368.238055
 20
233.458973
 30
0.0
 11
369.432396
 21
233.458973
 31
0.0
  0
LINE
  8
0
  6
CONTINUOUS
 62
   249
 10
367.043714
 20
233.458973
 30
0.0
 11
368.238055
 21
233.458973
 31
0.0
  0
LINE
  8
0
  6
CONTINUOUS
 62
   249
 10
368.253942
 20
234.813243
 30
0.0
 11
368.253942
 21
233.458973
 31
0.0
  0
LINE
  8
0
  6
CONTINUOUS
 62
   249
 10
367.898844
 20
222.754384
 30
0.0
 11
368.78573
 21
222.754384
 31
0.0
  0
LINE
  8
0
  6
CONTINUOUS
 62
   249
 10
367.567739
 20
223.366018
 30
0.0
 11
369.15231
 21
223.366018
 31
0.0
  0
LINE
  8
0
  6
CONTINUOUS
 62
   249
 10
368.383675
 20
223.98808
 30
0.0
 11
369.578016
 21
223.98808
 31
0.0
  0
LINE
  8
0
  6
CONTINUOUS
 62
   249
 10
367.189334
 20
223.98808
 30
0.0
 11
368.383675
 21
223.98808
 31
0.0
  0
LINE
  8
0
  6
CONTINUOUS
 62
   249
 10
368.399562
 20
225.34235
 30
0.0
 11
368.399562
 21
223.98808
 31
0.0
  0
ENDSEC
  0
EOF
