  0
SECTION
  2
HEADER
  9
$ACADVER
  1
AC1009
  9
$DWGCODEPAGE
  3
iso8859-1
  9
$INSBASE
 10
0.0
 20
0.0
 30
0.0
  9
$EXTMIN
 10
1.0E20
 20
1.0E20
  9
$EXTMAX
 10
-1.0E20
 20
-1.0E20
  9
$LIMMIN
 10
0.0
 20
0.0
  9
$LIMMAX
 10
12.0
 20
9.0
  9
$ORTHOMODE
 70
     0
  9
$REGENMODE
 70
     1
  9
$FILLMODE
 70
     1
  9
$QTEXTMODE
 70
     0
  9
$MIRRTEXT
 70
     1
  9
$DRAGMODE
 70
     2
  9
$LTSCALE
 40
15.0
  9
$OSMODE
 70
     0
  9
$ATTMODE
 70
     1
  9
$TEXTSIZE
 40
0.2
  9
$TRACEWID
 40
0.05
  9
$TEXTSTYLE
  7
STANDARD
  9
$CLAYER
  8
0
  9
$CELTYPE
  6
DASHED
  9
$CECOLOR
 62
   256
  9
$DIMSCALE
 40
1.0
  9
$DIMASZ
 40
0.18
  9
$DIMEXO
 40
0.0625
  9
$DIMDLI
 40
0.38
  9
$DIMRND
 40
0.0
  9
$DIMDLE
 40
0.0
  9
$DIMEXE
 40
0.18
  9
$DIMTP
 40
0.0
  9
$DIMTM
 40
0.0
  9
$DIMTXT
 40
0.18
  9
$DIMCEN
 40
0.09
  9
$DIMTSZ
 40
0.0
  9
$DIMTOL
 70
     0
  9
$DIMLIM
 70
     0
  9
$DIMTIH
 70
     1
  9
$DIMTOH
 70
     1
  9
$DIMSE1
 70
     0
  9
$DIMSE2
 70
     0
  9
$DIMTAD
 70
     0
  9
$DIMZIN
 70
     0
  9
$DIMBLK
  1

  9
$DIMASO
 70
     1
  9
$DIMSHO
 70
     1
  9
$DIMPOST
  1

  9
$DIMAPOST
  1

  9
$DIMALT
 70
     0
  9
$DIMALTD
 70
     2
  9
$DIMALTF
 40
25.4
  9
$DIMLFAC
 40
1.0
  9
$DIMTOFL
 70
     0
  9
$DIMTVP
 40
0.0
  9
$DIMTIX
 70
     0
  9
$DIMSOXD
 70
     0
  9
$DIMSAH
 70
     0
  9
$DIMBLK1
  1

  9
$DIMBLK2
  1

  9
$DIMSTYLE
  2
STANDARD
  9
$DIMCLRD
 70
     0
  9
$DIMCLRE
 70
     0
  9
$DIMCLRT
 70
     0
  9
$DIMTFAC
 40
1.0
  9
$DIMGAP
 40
0.09
  9
$LUNITS
 70
     2
  9
$LUPREC
 70
     4
  9
$AXISMODE
 70
     0
  9
$AXISUNIT
 10
0.0
 20
0.0
  9
$SKETCHINC
 40
0.1
  9
$FILLETRAD
 40
0.0
  9
$AUNITS
 70
     0
  9
$AUPREC
 70
     0
  9
$MENU
  1
acad
  9
$ELEVATION
 40
0.0
  9
$PELEVATION
 40
0.0
  9
$THICKNESS
 40
0.0
  9
$LIMCHECK
 70
     0
  9
$BLIPMODE
 70
     1
  9
$CHAMFERA
 40
0.0
  9
$CHAMFERB
 40
0.0
  9
$SKPOLY
 70
     0
  9
$TDCREATE
 40
0.000000000
  9
$TDUPDATE
 40
0.000000000
  9
$TDINDWG
 40
0.0
  9
$TDUSRTIMER
 40
0.0
  9
$USRTIMER
 70
     1
  9
$ANGBASE
 50
0.0
  9
$ANGDIR
 70
     0
  9
$PDMODE
 70
     0
  9
$PDSIZE
 40
0.0
  9
$PLINEWID
 40
0.0
  9
$COORDS
 70
     1
  9
$SPLFRAME
 70
     0
  9
$SPLINETYPE
 70
     6
  9
$SPLINESEGS
 70
     8
  9
$ATTDIA
 70
     0
  9
$ATTREQ
 70
     1
  9
$HANDLING
 70
     1
  9
$HANDSEED
  5
   791
  9
$SURFTAB1
 70
     6
  9
$SURFTAB2
 70
     6
  9
$SURFTYPE
 70
     6
  9
$SURFU
 70
     6
  9
$SURFV
 70
     6
  9
$UCSNAME
  2

  9
$UCSORG
 10
0.0
 20
0.0
 30
0.0
  9
$UCSXDIR
 10
1.0
 20
0.0
 30
0.0
  9
$UCSYDIR
 10
0.0
 20
1.0
 30
0.0
  9
$PUCSNAME
  2

  9
$PUCSORG
 10
0.0
 20
0.0
 30
0.0
  9
$PUCSXDIR
 10
1.0
 20
0.0
 30
0.0
  9
$PUCSYDIR
 10
0.0
 20
1.0
 30
0.0
  9
$USERI1
 70
     0
  9
$USERI2
 70
     0
  9
$USERI3
 70
     0
  9
$USERI4
 70
     0
  9
$USERI5
 70
     0
  9
$USERR1
 40
0.0
  9
$USERR2
 40
0.0
  9
$USERR3
 40
0.0
  9
$USERR4
 40
0.0
  9
$USERR5
 40
0.0
  9
$WORLDVIEW
 70
     1
  9
$SHADEDGE
 70
     3
  9
$SHADEDIF
 70
    70
  9
$TILEMODE
 70
     1
  9
$MAXACTVP
 70
    16
  9
$PINSBASE
 10
0.0
 20
0.0
 30
0.0
  9
$PLIMCHECK
 70
     0
  9
$PEXTMIN
 10
1.0E20
 20
1.0E20
 30
1.0E20
  9
$PEXTMAX
 10
-1.0E20
 20
-1.0E20
 30
-1.0E20
  9
$PLIMMIN
 10
0.0
 20
0.0
  9
$PLIMMAX
 10
12.0
 20
9.0
  9
$UNITMODE
 70
     0
  9
$VISRETAIN
 70
     0
  0
ENDSEC
  0
SECTION
  2
TABLES
  0
TABLE
  2
VPORT
 70
     1
  0
VPORT
  2
*ACTIVE
 70
     0
 10
0.0
 20
0.0
 11
1.0
 21
1.0
 12
6.801242
 22
4.5
 13
0.0
 23
0.0
 14
1.0
 24
1.0
 15
0.0
 25
0.0
 16
0.0
 26
0.0
 36
1.0
 17
0.0
 27
0.0
 37
0.0
 40
9.0
 41
1.511387
 42
50.0
 43
0.0
 44
0.0
 50
0.0
 51
0.0
 71
     0
 72
   100
 73
     1
 74
     1
 75
     0
 76
     0
 77
     0
 78
     0
  0
ENDTAB
  0
TABLE
  2
LTYPE
 70
    41
  0
LTYPE
  2
BYBLOCK
 70
     0
  3

 72
    65
 73
     0
 40
0.0
  0
LTYPE
  2
BYLAYER
 70
     0
  3

 72
    65
 73
     0
 40
0.0
  0
LTYPE
  2
CONTINUOUS
 70
     0
  3
Solid line
 72
    65
 73
     0
 40
0.0
  0
LTYPE
  2
BORDER
 70
    64
  3
__ __ . __ __ . __ __ . __ __ . __ __ . __ __ .
 72
    65
 73
     6
 40
1.75
 49
0.5
 49
-0.25
 49
0.5
 49
-0.25
 49
0.0
 49
-0.25
  0
LTYPE
  2
BORDER2
 70
    64
  3
__.__.__.__.__.__.__.__.__.__.__.__.__.__.__.__
 72
    65
 73
     6
 40
0.875
 49
0.25
 49
-0.125
 49
0.25
 49
-0.125
 49
0.0
 49
-0.125
  0
LTYPE
  2
BORDERX2
 70
    64
  3
____  ____  .  ____  ____  .  ____  ____  .  __
 72
    65
 73
     6
 40
3.5
 49
1.0
 49
-0.5
 49
1.0
 49
-0.5
 49
0.0
 49
-0.5
  0
LTYPE
  2
CENTER
 70
    64
  3
____ _ ____ _ ____ _ ____ _ ____ _ ____ _ ____
 72
    65
 73
     4
 40
2.0
 49
1.25
 49
-0.25
 49
0.25
 49
-0.25
  0
LTYPE
  2
CENTER2
 70
    64
  3
___ _ ___ _ ___ _ ___ _ ___ _ ___ _ ___ _ ___ _
 72
    65
 73
     4
 40
1.125
 49
0.75
 49
-0.125
 49
0.125
 49
-0.125
  0
LTYPE
  2
CENTERX2
 70
    64
  3
________  __  ________  __  ________  __  _____
 72
    65
 73
     4
 40
4.0
 49
2.5
 49
-0.5
 49
0.5
 49
-0.5
  0
LTYPE
  2
DASHDOT
 70
    64
  3
__ . __ . __ . __ . __ . __ . __ . __ . __ . __
 72
    65
 73
     4
 40
1.0
 49
0.5
 49
-0.25
 49
0.0
 49
-0.25
  0
LTYPE
  2
DASHDOT2
 70
    64
  3
_._._._._._._._._._._._._._._._._._._._._._._._
 72
    65
 73
     4
 40
0.5
 49
0.25
 49
-0.125
 49
0.0
 49
-0.125
  0
LTYPE
  2
DASHDOTX2
 70
    64
  3
____  .  ____  .  ____  .  ____  .  ____  .  __
 72
    65
 73
     4
 40
2.0
 49
1.0
 49
-0.5
 49
0.0
 49
-0.5
  0
LTYPE
  2
DASHED
 70
    64
  3
__ __ __ __ __ __ __ __ __ __ __ __ __ __ __ __
 72
    65
 73
     2
 40
0.75
 49
0.5
 49
-0.25
  0
LTYPE
  2
DASHED2
 70
    64
  3
_ _ _ _ _ _ _ _ _ _ _ _ _ _ _ _ _ _ _ _ _ _ _ _
 72
    65
 73
     2
 40
0.375
 49
0.25
 49
-0.125
  0
LTYPE
  2
DASHEDX2
 70
    64
  3
____  ____  ____  ____  ____  ____  ____  ____
 72
    65
 73
     2
 40
1.5
 49
1.0
 49
-0.5
  0
LTYPE
  2
DIVIDE
 70
    64
  3
____ . . ____ . . ____ . . ____ . . ____ . . __
 72
    65
 73
     6
 40
1.25
 49
0.5
 49
-0.25
 49
0.0
 49
-0.25
 49
0.0
 49
-0.25
  0
LTYPE
  2
DIVIDE2
 70
    64
  3
__..__..__..__..__..__..__..__..__..__..__..__.
 72
    65
 73
     6
 40
0.625
 49
0.25
 49
-0.125
 49
0.0
 49
-0.125
 49
0.0
 49
-0.125
  0
LTYPE
  2
DIVIDEX2
 70
    64
  3
________  .  .  ________  .  .  ________  .  .
 72
    65
 73
     6
 40
2.5
 49
1.0
 49
-0.5
 49
0.0
 49
-0.5
 49
0.0
 49
-0.5
  0
LTYPE
  2
DOT
 70
    64
  3
. . . . . . . . . . . . . . . . . . . . . . . .
 72
    65
 73
     2
 40
0.25
 49
0.0
 49
-0.25
  0
LTYPE
  2
DOT2
 70
    64
  3
...............................................
 72
    65
 73
     2
 40
0.125
 49
0.0
 49
-0.125
  0
LTYPE
  2
DOTX2
 70
    64
  3
.  .  .  .  .  .  .  .  .  .  .  .  .  .  .  .
 72
    65
 73
     2
 40
0.5
 49
0.0
 49
-0.5
  0
LTYPE
  2
HIDDEN
 70
    64
  3
__ __ __ __ __ __ __ __ __ __ __ __ __ __ __ __
 72
    65
 73
     2
 40
0.375
 49
0.25
 49
-0.125
  0
LTYPE
  2
HIDDEN2
 70
    64
  3
_ _ _ _ _ _ _ _ _ _ _ _ _ _ _ _ _ _ _ _ _ _ _ _
 72
    65
 73
     2
 40
0.1875
 49
0.125
 49
-0.0625
  0
LTYPE
  2
HIDDENX2
 70
    64
  3
____ ____ ____ ____ ____ ____ ____ ____ ____ __
 72
    65
 73
     2
 40
0.75
 49
0.5
 49
-0.25
  0
LTYPE
  2
PHANTOM
 70
    64
  3
______  __  __  ______  __  __  ______  __  __
 72
    65
 73
     6
 40
2.5
 49
1.25
 49
-0.25
 49
0.25
 49
-0.25
 49
0.25
 49
-0.25
  0
LTYPE
  2
PHANTOM2
 70
    64
  3
___ _ _ ___ _ _ ___ _ _ ___ _ _ ___ _ _ ___ _ _
 72
    65
 73
     6
 40
1.25
 49
0.625
 49
-0.125
 49
0.125
 49
-0.125
 49
0.125
 49
-0.125
  0
LTYPE
  2
PHANTOMX2
 70
    64
  3
____________    ____    ____    ____________
 72
    65
 73
     6
 40
5.0
 49
2.5
 49
-0.5
 49
0.5
 49
-0.5
 49
0.5
 49
-0.5
  0
LTYPE
  2
ACAD_ISO02W100
 70
    64
  3
__ __ __ __ __ __ __ __ __ __ __ __ __ __ __ __
 72
    65
 73
     2
 40
15.0
 49
12.0
 49
-3.0
  0
LTYPE
  2
ACAD_ISO03W100
 70
    64
  3
__    __    __    __    __    __    __    __
 72
    65
 73
     2
 40
30.0
 49
12.0
 49
-18.0
  0
LTYPE
  2
ACAD_ISO04W100
 70
    64
  3
____ . ____ . ____ . ____ . ____ . ____ . ____
 72
    65
 73
     4
 40
30.5
 49
24.0
 49
-3.0
 49
0.5
 49
-3.0
  0
LTYPE
  2
ACAD_ISO05W100
 70
    64
  3
____ .. ____ .. ____ .. ____ .. ____ .. ____ ..
 72
    65
 73
     6
 40
34.0
 49
24.0
 49
-3.0
 49
0.5
 49
-3.0
 49
0.5
 49
-3.0
  0
LTYPE
  2
ACAD_ISO06W100
 70
    64
  3
____ ... ____ ... ____ ... ____ ... ____ ... __
 72
    65
 73
     8
 40
37.5
 49
24.0
 49
-3.0
 49
0.5
 49
-3.0
 49
0.5
 49
-3.0
 49
0.5
 49
-3.0
  0
LTYPE
  2
ACAD_ISO07W100
 70
    64
  3
. . . . . . . . . . . . . . . . . . . . . . . .
 72
    65
 73
     2
 40
3.5
 49
0.5
 49
-3.0
  0
LTYPE
  2
ACAD_ISO08W100
 70
    64
  3
____ __ ____ __ ____ __ ____ ____ __ __ ____ __
 72
    65
 73
     4
 40
36.0
 49
24.0
 49
-3.0
 49
6.0
 49
-3.0
  0
LTYPE
  2
ACAD_ISO09W100
 70
    64
  3
____ __ __ ____ __ __ ____ __ __ ____ __ __ ___
 72
    65
 73
     6
 40
45.0
 49
24.0
 49
-3.0
 49
6.0
 49
-3.0
 49
6.0
 49
-3.0
  0
LTYPE
  2
ACAD_ISO10W100
 70
    64
  3
__ . __ . __ . __ . __ . __ . __ . __ . __ . __
 72
    65
 73
     4
 40
18.5
 49
12.0
 49
-3.0
 49
0.5
 49
-3.0
  0
LTYPE
  2
ACAD_ISO11W100
 70
    64
  3
__ __ . __ __ . __ __ . __ __ . __ __ . __ __ .
 72
    65
 73
     6
 40
33.5
 49
12.0
 49
-3.0
 49
12.0
 49
-3.0
 49
0.5
 49
-3.0
  0
LTYPE
  2
ACAD_ISO12W100
 70
    64
  3
__ . . __ . . __ . . __ . . __ . . __ . . __ .
 72
    65
 73
     6
 40
22.0
 49
12.0
 49
-3.0
 49
0.5
 49
-3.0
 49
0.5
 49
-3.0
  0
LTYPE
  2
ACAD_ISO13W100
 70
    64
  3
__ __ . . __ __ . . __ __ . . __ __ . . __ __ .
 72
    65
 73
     8
 40
37.0
 49
12.0
 49
-3.0
 49
12.0
 49
-3.0
 49
0.5
 49
-3.0
 49
0.5
 49
-3.0
  0
LTYPE
  2
ACAD_ISO14W100
 70
    64
  3
__ . . . __ . . . __ . . . __ . . . __ . . . __
 72
    65
 73
     8
 40
25.5
 49
12.0
 49
-3.0
 49
0.5
 49
-3.0
 49
0.5
 49
-3.0
 49
0.5
 49
-3.0
  0
LTYPE
  2
ACAD_ISO15W100
 70
    64
  3
__ __ . . . __ __ . . . __ __ . . . __ __ . . .
 72
    65
 73
    10
 40
40.5
 49
12.0
 49
-3.0
 49
12.0
 49
-3.0
 49
0.5
 49
-3.0
 49
0.5
 49
-3.0
 49
0.5
 49
-3.0
  0
ENDTAB
  0
TABLE
  2
STYLE
 70
     4
  0
STYLE
  2
STANDARD
 70
    64
 40
0.0
 41
1.0
 50
0.0
 71
     0
 42
0.2
  3
txt
  4

  0
STYLE
  2
TOLERANCE
 70
    64
 40
0.0
 41
1.0
 50
0.0
 71
     0
 42
0.2
  3
../igesfont/iges1003.shx
  4

  0
STYLE
  2
ROMANS
 70
    64
 40
0.0
 41
1.0
 50
0.0
 71
     0
 42
0.2
  3
romans.shx
  4

  0
STYLE
  2
ROMANC
 70
    64
 40
0.0
 41
1.0
 50
0.0
 71
     0
 42
0.2
  3
romanc.shx
  4

  0
ENDTAB
  0
TABLE
  2
DIMSTYLE
 70
     2
  0
DIMSTYLE
  2
UNNAMED
 70
     0
  3

  4

  5

  6

  7

 40
1.0
 41
0.18
 42
0.0625
 43
0.38
 44
0.18
 45
0.0
 46
0.0
 47
0.0
 48
0.0
140
0.18
141
0.09
142
0.0
143
25.4
144
1.0
145
0.0
146
1.0
147
0.09
 71
     0
 72
     0
 73
     1
 74
     1
 75
     0
 76
     0
 77
     0
 78
     0
170
     0
171
     2
172
     0
173
     0
174
     0
175
     0
176
     0
177
     0
178
     0
  0
DIMSTYLE
  2
STANDARD
 70
     0
  3

  4

  5

  6

  7

 40
1.0
 41
0.18
 42
0.0625
 43
0.38
 44
0.18
 45
0.0
 46
0.0
 47
0.0
 48
0.0
140
0.18
141
0.09
142
0.0
143
25.4
144
1.0
145
0.0
146
1.0
147
0.09
 71
     0
 72
     0
 73
     1
 74
     1
 75
     0
 76
     0
 77
     0
 78
     0
170
     0
171
     2
172
     0
173
     0
174
     0
175
     0
176
     0
177
     0
178
     0
  0
ENDTAB
  0
TABLE
  2
LAYER
 70
     2
  0
LAYER
  2
0
 70
     0
 62
     7
  6
CONTINUOUS
  0
LAYER
  2
255
 70
     0
 62
     7
  6
CONTINUOUS
  0
ENDTAB
  0
ENDSEC
  0
SECTION
  2
BLOCKS
  0
BLOCK
  5
     B
  8
0
  6
CONTINUOUS
 62
     7
  2
*UDIM193
 70
    65
 10
0.0
 20
0.0
 30
0.0
  3
*UDIM193
  0
TEXT
  5
     C
  8
0
  6
CONTINUOUS
 62
     7
 10
84.5144827076133
 20
-101.868507991016
 30
0.0
 40
3.00000002980232
  1
7
 50
401.743212308633
 41
0.933333333333334
 72
     1
 11
84.3365426699662
 21
-100.016930984315
 31
0.0
 73
     2
  0
TEXT
  5
     D
  8
0
  6
CONTINUOUS
 62
     7
 10
82.1641535020137
 20
-103.965756828873
 30
0.0
 40
3.00000002980232
  1
Ø
 50
401.743212308633
 41
0.933333333333334
 72
     1
 11
81.9862134643665
 21
-102.114179822171
 31
0.0
 73
     2
  0
LINE
  5
     E
  8
0
  6
CONTINUOUS
 62
     7
 10
97.322737690957
 20
-91.7796669031597
 30
0.0
 11
82.8299467868007
 21
-104.711893081783
 31
0.0
  0
LINE
  5
     F
  8
0
  6
CONTINUOUS
 62
     7
 10
99.1802987053589
 20
-89.4239362144403
 30
0.0
 11
97.322737690957
 21
-91.7796669031597
 31
0.0
  0
LINE
  5
    10
  8
0
  6
CONTINUOUS
 62
     7
 10
97.322737690957
 20
-91.7796669031597
 30
0.0
 11
99.8739813065388
 21
-90.2013272648203
 31
0.0
  0
LINE
  5
    11
  8
0
  6
CONTINUOUS
 62
     7
 10
94.1594382331177
 20
-95.3005358314581
 30
0.0
 11
96.0169992475195
 21
-92.9448051427388
 31
0.0
  0
LINE
  5
    12
  8
0
  6
CONTINUOUS
 62
     7
 10
96.0169992475195
 20
-92.9448051427388
 30
0.0
 11
93.4657556319378
 21
-94.5231447810781
 31
0.0
  0
ENDBLK
  5
    13
  8
0
  6
CONTINUOUS
 62
     7
  0
BLOCK
  5
    14
  8
0
  6
CONTINUOUS
 62
     7
  2
*UDIM194
 70
    65
 10
0.0
 20
0.0
 30
0.0
  3
*UDIM194
  0
TEXT
  5
    15
  8
0
  6
CONTINUOUS
 62
     7
 10
65.9008331192958
 20
-78.7872360717247
 30
0.0
 40
3.00000002980232
  1
142
 50
449.999999844103
 41
0.933333333333333
 72
     1
 11
64.4008331149817
 21
-74.8872360289097
 31
0.0
 73
     2
  0
LINE
  5
    16
  8
0
  6
CONTINUOUS
 62
     7
 10
94.0448684692383
 20
-56.8622360229492
 30
0.0
 11
64.9008331298828
 21
-56.8622360229492
 31
0.0
  0
LINE
  5
    17
  8
0
  6
CONTINUOUS
 62
     7
 10
94.0448684692383
 20
-92.3622360229492
 30
0.0
 11
64.9008331298828
 21
-92.3622360229492
 31
0.0
  0
LINE
  5
    18
  8
0
  6
CONTINUOUS
 62
     7
 10
66.9008331298828
 20
-56.8622360229492
 30
0.0
 11
66.9008331298828
 21
-92.3622360229492
 31
0.0
  0
LINE
  5
    19
  8
0
  6
CONTINUOUS
 62
     7
 10
67.4217775598345
 20
-59.8166593001562
 30
0.0
 11
66.9008331298828
 21
-56.8622360229492
 31
0.0
  0
LINE
  5
    1A
  8
0
  6
CONTINUOUS
 62
     7
 10
66.9008331298828
 20
-56.8622360229492
 30
0.0
 11
66.3798886999311
 21
-59.8166593001562
 31
0.0
  0
LINE
  5
    1B
  8
0
  6
CONTINUOUS
 62
     7
 10
66.3798886999311
 20
-89.4078127457423
 30
0.0
 11
66.9008331298828
 21
-92.3622360229492
 31
0.0
  0
LINE
  5
    1C
  8
0
  6
CONTINUOUS
 62
     7
 10
66.9008331298828
 20
-92.3622360229492
 30
0.0
 11
67.4217775598345
 21
-89.4078127457423
 31
0.0
  0
ENDBLK
  5
    1D
  8
0
  6
CONTINUOUS
 62
     7
  0
BLOCK
  5
    1E
  8
0
  6
CONTINUOUS
 62
     7
  2
*UDIM195
 70
    65
 10
0.0
 20
0.0
 30
0.0
  3
*UDIM195
  0
TEXT
  5
    1F
  8
0
  6
CONTINUOUS
 62
     7
 10
75.9325275315272
 20
-78.7872360717247
 30
0.0
 40
3.00000002980232
  1
112
 50
449.999999844103
 41
0.933333333333333
 72
     1
 11
74.4325275272131
 21
-74.8872360289097
 31
0.0
 73
     2
  0
LINE
  5
    20
  8
0
  6
CONTINUOUS
 62
     7
 10
91.6698684692383
 20
-60.6122360229492
 30
0.0
 11
74.9325275421143
 21
-60.6122360229492
 31
0.0
  0
LINE
  5
    21
  8
0
  6
CONTINUOUS
 62
     7
 10
91.6698684692383
 20
-88.6122360229492
 30
0.0
 11
74.9325275421143
 21
-88.6122360229492
 31
0.0
  0
LINE
  5
    22
  8
0
  6
CONTINUOUS
 62
     7
 10
76.9325275421143
 20
-60.6122360229492
 30
0.0
 11
76.9325275421143
 21
-88.6122360229492
 31
0.0
  0
LINE
  5
    23
  8
0
  6
CONTINUOUS
 62
     7
 10
77.4534719720659
 20
-63.5666593001562
 30
0.0
 11
76.9325275421143
 21
-60.6122360229492
 31
0.0
  0
LINE
  5
    24
  8
0
  6
CONTINUOUS
 62
     7
 10
76.9325275421143
 20
-60.6122360229492
 30
0.0
 11
76.4115831121626
 21
-63.5666593001562
 31
0.0
  0
LINE
  5
    25
  8
0
  6
CONTINUOUS
 62
     7
 10
76.4115831121626
 20
-85.6578127457423
 30
0.0
 11
76.9325275421143
 21
-88.6122360229492
 31
0.0
  0
LINE
  5
    26
  8
0
  6
CONTINUOUS
 62
     7
 10
76.9325275421143
 20
-88.6122360229492
 30
0.0
 11
77.4534719720659
 21
-85.6578127457423
 31
0.0
  0
ENDBLK
  5
    27
  8
0
  6
CONTINUOUS
 62
     7
  0
BLOCK
  5
    28
  8
0
  6
CONTINUOUS
 62
     7
  2
*UDIM196
 70
    65
 10
0.0
 20
0.0
 30
0.0
  3
*UDIM196
  0
TEXT
  5
    29
  8
0
  6
CONTINUOUS
 62
     7
 10
102.494868420461
 20
-35.896469105619
 30
0.0
 40
3.00000002980232
  1
112
 50
359.999999844103
 41
0.933333333333333
 72
     1
 11
106.394868463278
 21
-34.3964691013098
 31
0.0
 73
     2
  0
LINE
  5
    2A
  8
0
  6
CONTINUOUS
 62
     7
 10
92.6698684692383
 20
-59.6122360229492
 30
0.0
 11
92.6698684692383
 21
-34.8964691162109
 31
0.0
  0
LINE
  5
    2B
  8
0
  6
CONTINUOUS
 62
     7
 10
120.669868469238
 20
-59.6122360229492
 30
0.0
 11
120.669868469238
 21
-34.8964691162109
 31
0.0
  0
LINE
  5
    2C
  8
0
  6
CONTINUOUS
 62
     7
 10
92.6698684692383
 20
-36.8964691162109
 30
0.0
 11
120.669868469238
 21
-36.8964691162109
 31
0.0
  0
LINE
  5
    2D
  8
0
  6
CONTINUOUS
 62
     7
 10
95.6242917464452
 20
-36.3755246862593
 30
0.0
 11
92.6698684692383
 21
-36.8964691162109
 31
0.0
  0
LINE
  5
    2E
  8
0
  6
CONTINUOUS
 62
     7
 10
92.6698684692383
 20
-36.8964691162109
 30
0.0
 11
95.6242917464452
 21
-37.4174135461626
 31
0.0
  0
LINE
  5
    2F
  8
0
  6
CONTINUOUS
 62
     7
 10
117.715445192031
 20
-37.4174135461626
 30
0.0
 11
120.669868469238
 21
-36.8964691162109
 31
0.0
  0
LINE
  5
    30
  8
0
  6
CONTINUOUS
 62
     7
 10
120.669868469238
 20
-36.8964691162109
 30
0.0
 11
117.715445192031
 21
-36.3755246862593
 31
0.0
  0
ENDBLK
  5
    31
  8
0
  6
CONTINUOUS
 62
     7
  0
BLOCK
  5
    32
  8
0
  6
CONTINUOUS
 62
     7
  2
*UDIM197
 70
    65
 10
0.0
 20
0.0
 30
0.0
  3
*UDIM197
  0
TEXT
  5
    33
  8
0
  6
CONTINUOUS
 62
     7
 10
103.894868434369
 20
-44.0173625878148
 30
0.0
 40
3.00000002980232
  1
80
 50
359.999999844103
 41
0.933333333333333
 72
     1
 11
106.394868463278
 21
-42.5173625797033
 31
0.0
 73
     2
  0
LINE
  5
    34
  8
0
  6
CONTINUOUS
 62
     7
 10
96.6698684692383
 20
-54.2372360229492
 30
0.0
 11
96.6698684692383
 21
-43.0173625946045
 31
0.0
  0
LINE
  5
    35
  8
0
  6
CONTINUOUS
 62
     7
 10
116.669868469238
 20
-54.2372360229492
 30
0.0
 11
116.669868469238
 21
-43.0173625946045
 31
0.0
  0
LINE
  5
    36
  8
0
  6
CONTINUOUS
 62
     7
 10
96.6698684692383
 20
-45.0173625946045
 30
0.0
 11
116.669868469238
 21
-45.0173625946045
 31
0.0
  0
LINE
  5
    37
  8
0
  6
CONTINUOUS
 62
     7
 10
99.6242917464452
 20
-44.4964181646528
 30
0.0
 11
96.6698684692383
 21
-45.0173625946045
 31
0.0
  0
LINE
  5
    38
  8
0
  6
CONTINUOUS
 62
     7
 10
96.6698684692383
 20
-45.0173625946045
 30
0.0
 11
99.6242917464452
 21
-45.5383070245562
 31
0.0
  0
LINE
  5
    39
  8
0
  6
CONTINUOUS
 62
     7
 10
113.715445192031
 20
-45.5383070245562
 30
0.0
 11
116.669868469238
 21
-45.0173625946045
 31
0.0
  0
LINE
  5
    3A
  8
0
  6
CONTINUOUS
 62
     7
 10
116.669868469238
 20
-45.0173625946045
 30
0.0
 11
113.715445192031
 21
-44.4964181646528
 31
0.0
  0
ENDBLK
  5
    3B
  8
0
  6
CONTINUOUS
 62
     7
  0
BLOCK
  5
    3C
  8
0
  6
CONTINUOUS
 62
     7
  2
*UDIM198
 70
    65
 10
0.0
 20
0.0
 30
0.0
  3
*UDIM198
  0
TEXT
  5
    3D
  8
0
  6
CONTINUOUS
 62
     7
 10
153.589852492413
 20
-11.5947873781099
 30
0.0
 40
3.00000002980232
  1
5,5
 50
338.440974983981
 41
0.933333333333333
 72
     1
 11
157.768195925558
 21
-11.6328202795727
 31
0.0
 73
     2
  0
TEXT
  5
    3E
  8
0
  6
CONTINUOUS
 62
     7
 10
150.660228017097
 20
-10.4372898635483
 30
0.0
 40
3.00000002980232
  1
Ø
 50
338.440974983981
 41
0.933333333333334
 72
     1
 11
152.234460791376
 21
-9.44643606952532
 31
0.0
 73
     2
  0
TEXT
  5
    3F
  8
0
  6
CONTINUOUS
 62
     7
 10
161.355682506378
 20
-14.6630744714735
 30
0.0
 40
3.00000002980232
  1
 - M5
 50
338.440974983981
 41
0.933333333333333
 72
     1
 11
168.138136598389
 21
-15.7299940684221
 31
0.0
 73
     2
  0
LINE
  5
    40
  8
0
  6
CONTINUOUS
 62
     7
 10
187.776944889418
 20
-26.177364448978
 30
0.0
 11
150.292768490121
 21
-11.3673293788457
 31
0.0
  0
LINE
  5
    41
  8
0
  6
CONTINUOUS
 62
     7
 10
190.716101268465
 20
-26.7784965305594
 30
0.0
 11
187.776944889418
 21
-26.177364448978
 31
0.0
  0
LINE
  5
    42
  8
0
  6
CONTINUOUS
 62
     7
 10
187.776944889418
 20
-26.177364448978
 30
0.0
 11
190.333249278976
 21
-27.7474943378501
 31
0.0
  0
LINE
  5
    43
  8
0
  6
CONTINUOUS
 62
     7
 10
183.558984180753
 20
-25.0709755153391
 30
0.0
 11
186.498140559801
 21
-25.6721075969205
 31
0.0
  0
LINE
  5
    44
  8
0
  6
CONTINUOUS
 62
     7
 10
186.498140559801
 20
-25.6721075969205
 30
0.0
 11
183.941836170243
 21
-24.1019777080483
 31
0.0
  0
ENDBLK
  5
    45
  8
0
  6
CONTINUOUS
 62
     7
  0
BLOCK
  5
    46
  8
0
  6
CONTINUOUS
 62
     7
  2
*UDIM199
 70
    65
 10
0.0
 20
0.0
 30
0.0
  3
*UDIM199
  0
TEXT
  5
    47
  8
0
  6
CONTINUOUS
 62
     7
 10
162.080883011481
 20
-96.5809861120874
 30
0.0
 40
3.00000002980232
  1
108,75
 50
449.999999896069
 41
0.933333333333333
 72
     1
 11
160.580883011222
 21
-88.4809860289097
 31
0.0
 73
     2
  0
LINE
  5
    48
  8
0
  6
CONTINUOUS
 62
     7
 10
170.257589276463
 20
-101.799736022949
 30
0.0
 11
161.080883026123
 21
-101.799736022949
 31
0.0
  0
LINE
  5
    49
  8
0
  6
CONTINUOUS
 62
     7
 10
163.080883026123
 20
-74.6122360229492
 30
0.0
 11
163.080883026123
 21
-101.799736022949
 31
0.0
  0
LINE
  5
    4A
  8
0
  6
CONTINUOUS
 62
     7
 10
163.601827456075
 20
-77.5666593001562
 30
0.0
 11
163.080883026123
 21
-74.6122360229492
 31
0.0
  0
LINE
  5
    4B
  8
0
  6
CONTINUOUS
 62
     7
 10
163.080883026123
 20
-74.6122360229492
 30
0.0
 11
162.559938596171
 21
-77.5666593001562
 31
0.0
  0
LINE
  5
    4C
  8
0
  6
CONTINUOUS
 62
     7
 10
162.559938596171
 20
-98.8453127457423
 30
0.0
 11
163.080883026123
 21
-101.799736022949
 31
0.0
  0
LINE
  5
    4D
  8
0
  6
CONTINUOUS
 62
     7
 10
163.080883026123
 20
-101.799736022949
 30
0.0
 11
163.601827456075
 21
-98.8453127457423
 31
0.0
  0
ENDBLK
  5
    4E
  8
0
  6
CONTINUOUS
 62
     7
  0
BLOCK
  5
    4F
  8
0
  6
CONTINUOUS
 62
     7
  2
*UDIM200
 70
    65
 10
0.0
 20
0.0
 30
0.0
  3
*UDIM200
  0
TEXT
  5
    50
  8
0
  6
CONTINUOUS
 62
     7
 10
199.823533984292
 20
-53.4719886734562
 30
0.0
 40
3.00000002980232
  1
35
 50
359.999999896069
 41
0.933333333333333
 72
     1
 11
202.323534011841
 21
-51.9719886630774
 31
0.0
 73
     2
  0
LINE
  5
    51
  8
0
  6
CONTINUOUS
 62
     7
 10
204.823534036676
 20
-54.4719886779785
 30
0.0
 11
178.387542724609
 21
-54.4719886779785
 31
0.0
  0
LINE
  5
    52
  8
0
  6
CONTINUOUS
 62
     7
 10
190.091966001816
 20
-53.9510442480269
 30
0.0
 11
187.137542724609
 21
-54.4719886779785
 31
0.0
  0
LINE
  5
    53
  8
0
  6
CONTINUOUS
 62
     7
 10
187.137542724609
 20
-54.4719886779785
 30
0.0
 11
190.091966001816
 21
-54.9929331079302
 31
0.0
  0
LINE
  5
    54
  8
0
  6
CONTINUOUS
 62
     7
 10
175.433119447402
 20
-54.9929331079302
 30
0.0
 11
178.387542724609
 21
-54.4719886779785
 31
0.0
  0
LINE
  5
    55
  8
0
  6
CONTINUOUS
 62
     7
 10
178.387542724609
 20
-54.4719886779785
 30
0.0
 11
175.433119447402
 21
-53.9510442480269
 31
0.0
  0
ENDBLK
  5
    56
  8
0
  6
CONTINUOUS
 62
     7
  0
BLOCK
  5
    57
  8
0
  6
CONTINUOUS
 62
     7
  2
*UDIM201
 70
    65
 10
0.0
 20
0.0
 30
0.0
  3
*UDIM201
  0
TEXT
  5
    58
  8
0
  6
CONTINUOUS
 62
     7
 10
152.454547869969
 20
-70.8372356193985
 30
0.0
 40
3.00000002980232
  1
303,5
 50
449.999999896069
 41
0.933333333333333
 72
     1
 11
150.954547867179
 21
-64.1372355501284
 31
0.0
 73
     2
  0
LINE
  5
    59
  8
0
  6
CONTINUOUS
 62
     7
 10
169.410874322173
 20
-25.9247357090327
 30
0.0
 11
151.45454788208
 21
-25.9247300722461
 31
0.0
  0
LINE
  5
    5A
  8
0
  6
CONTINUOUS
 62
     7
 10
170.257589276463
 20
-101.799735709033
 30
0.0
 11
151.45454788208
 21
-101.799729806448
 31
0.0
  0
LINE
  5
    5B
  8
0
  6
CONTINUOUS
 62
     7
 10
153.45454788208
 20
-25.924730700079
 30
0.0
 11
153.45454788208
 21
-101.799730434281
 31
0.0
  0
LINE
  5
    5C
  8
0
  6
CONTINUOUS
 62
     7
 10
153.975492312032
 20
-28.879153977286
 30
0.0
 11
153.45454788208
 21
-25.924730700079
 31
0.0
  0
LINE
  5
    5D
  8
0
  6
CONTINUOUS
 62
     7
 10
153.45454788208
 20
-25.924730700079
 30
0.0
 11
152.933603452128
 21
-28.879153977286
 31
0.0
  0
LINE
  5
    5E
  8
0
  6
CONTINUOUS
 62
     7
 10
152.933603452128
 20
-98.8453071570743
 30
0.0
 11
153.45454788208
 21
-101.799730434281
 31
0.0
  0
LINE
  5
    5F
  8
0
  6
CONTINUOUS
 62
     7
 10
153.45454788208
 20
-101.799730434281
 30
0.0
 11
153.975492312032
 21
-98.8453071570743
 31
0.0
  0
ENDBLK
  5
    60
  8
0
  6
CONTINUOUS
 62
     7
  0
BLOCK
  5
    61
  8
0
  6
CONTINUOUS
 62
     7
  2
*HATCH76
 70
    65
 10
0.0
 20
0.0
 30
0.0
  3
*HATCH76
  0
LINE
  5
    62
  8
0
  6
CONTINUOUS
 62
   210
 10
-10.7629547119141
 20
80.7665863037109
 30
0.0
 11
-7.99633836746216
 21
77.9999618530274
 31
0.0
  0
LINE
  5
    63
  8
0
  6
CONTINUOUS
 62
   210
 10
-8.75369358062744
 20
82.9999618530274
 30
0.0
 11
-4.76300573348999
 21
79.0092697143555
 31
0.0
  0
ENDBLK
  5
    64
  8
0
  6
CONTINUOUS
 62
     7
  0
BLOCK
  5
    65
  8
0
  6
CONTINUOUS
 62
     7
  2
*HATCH77
 70
    65
 10
0.0
 20
0.0
 30
0.0
  3
*HATCH77
  0
LINE
  5
    66
  8
0
  6
CONTINUOUS
 62
   210
 10
3.23699402809143
 20
81.6158676147461
 30
0.0
 11
6.8528938293457
 21
77.9999618530274
 31
0.0
  0
LINE
  5
    67
  8
0
  6
CONTINUOUS
 62
   210
 10
6.09554004669189
 20
82.9999618530274
 30
0.0
 11
11.095531463623
 21
77.9999618530274
 31
0.0
  0
LINE
  5
    68
  8
0
  6
CONTINUOUS
 62
   210
 10
10.3381776809692
 20
82.9999618530274
 30
0.0
 11
15.3381690979004
 21
77.9999618530274
 31
0.0
  0
LINE
  5
    69
  8
0
  6
CONTINUOUS
 62
   210
 10
14.5808153152466
 20
82.9999618530274
 30
0.0
 11
19.5808067321777
 21
77.9999618530274
 31
0.0
  0
LINE
  5
    6A
  8
0
  6
CONTINUOUS
 62
   210
 10
18.8234539031982
 20
82.9999618530274
 30
0.0
 11
19.7282676696777
 21
82.0951461791992
 31
0.0
  0
ENDBLK
  5
    6B
  8
0
  6
CONTINUOUS
 62
     7
  0
BLOCK
  5
    6C
  8
0
  6
CONTINUOUS
 62
     7
  2
*HATCH78
 70
    65
 10
0.0
 20
0.0
 30
0.0
  3
*HATCH78
  0
LINE
  5
    6D
  8
0
  6
CONTINUOUS
 62
     3
 10
17.0864696502686
 20
102.999938964844
 30
0.0
 11
15.2370948791504
 21
101.150566101074
 31
0.0
  0
LINE
  5
    6E
  8
0
  6
CONTINUOUS
 62
     3
 10
18.1471290588379
 20
102.999938964844
 30
0.0
 11
14.2369937896729
 21
99.0898056030274
 31
0.0
  0
LINE
  5
    6F
  8
0
  6
CONTINUOUS
 62
     3
 10
18.2369937896729
 20
100.968482971191
 30
0.0
 11
14.2369937896729
 21
96.9684829711914
 31
0.0
  0
LINE
  5
    70
  8
0
  6
CONTINUOUS
 62
     3
 10
18.2369937896729
 20
98.8471603393555
 30
0.0
 11
14.2369937896729
 21
94.8471603393555
 31
0.0
  0
LINE
  5
    71
  8
0
  6
CONTINUOUS
 62
     3
 10
18.2369937896729
 20
96.7258377075195
 30
0.0
 11
14.2369937896729
 21
92.7258377075195
 31
0.0
  0
LINE
  5
    72
  8
0
  6
CONTINUOUS
 62
     3
 10
18.2369937896729
 20
94.6045150756836
 30
0.0
 11
14.2369937896729
 21
90.6045150756836
 31
0.0
  0
LINE
  5
    73
  8
0
  6
CONTINUOUS
 62
     3
 10
18.2369937896729
 20
92.4831924438477
 30
0.0
 11
14.2369937896729
 21
88.4831924438477
 31
0.0
  0
LINE
  5
    74
  8
0
  6
CONTINUOUS
 62
     3
 10
18.2369937896729
 20
90.3618698120117
 30
0.0
 11
14.2369937896729
 21
86.3618698120117
 31
0.0
  0
LINE
  5
    75
  8
0
  6
CONTINUOUS
 62
     3
 10
18.2369937896729
 20
88.2405471801758
 30
0.0
 11
14.2369937896729
 21
84.2405471801758
 31
0.0
  0
LINE
  5
    76
  8
0
  6
CONTINUOUS
 62
     3
 10
18.2369937896729
 20
86.1192398071289
 30
0.0
 11
15.117714881897
 21
82.9999618530274
 31
0.0
  0
LINE
  5
    77
  8
0
  6
CONTINUOUS
 62
     3
 10
18.2369937896729
 20
83.997917175293
 30
0.0
 11
17.23903465271
 21
82.9999618530274
 31
0.0
  0
ENDBLK
  5
    78
  8
0
  6
CONTINUOUS
 62
     7
  0
BLOCK
  5
    79
  8
0
  6
CONTINUOUS
 62
     7
  2
*HATCH79
 70
    65
 10
0.0
 20
0.0
 30
0.0
  3
*HATCH79
  0
LINE
  5
    7A
  8
0
  6
CONTINUOUS
 62
     3
 10
12.2390375137329
 20
77.9999618530274
 30
0.0
 11
10.2369937896729
 21
75.997917175293
 31
0.0
  0
LINE
  5
    7B
  8
0
  6
CONTINUOUS
 62
     3
 10
14.2369937896729
 20
77.8766021728516
 30
0.0
 11
10.2369937896729
 21
73.8766021728516
 31
0.0
  0
LINE
  5
    7C
  8
0
  6
CONTINUOUS
 62
     3
 10
14.2369937896729
 20
75.7552795410156
 30
0.0
 11
10.2369937896729
 21
71.7552795410156
 31
0.0
  0
LINE
  5
    7D
  8
0
  6
CONTINUOUS
 62
     3
 10
14.2369937896729
 20
73.6339569091797
 30
0.0
 11
10.2369937896729
 21
69.6339569091797
 31
0.0
  0
LINE
  5
    7E
  8
0
  6
CONTINUOUS
 62
     3
 10
14.2369937896729
 20
71.5126342773438
 30
0.0
 11
10.2369937896729
 21
67.5126342773438
 31
0.0
  0
LINE
  5
    7F
  8
0
  6
CONTINUOUS
 62
     3
 10
14.2369937896729
 20
69.3913116455078
 30
0.0
 11
10.2369937896729
 21
65.3913116455078
 31
0.0
  0
LINE
  5
    80
  8
0
  6
CONTINUOUS
 62
     3
 10
14.2369937896729
 20
67.2699890136719
 30
0.0
 11
10.2369937896729
 21
63.2699890136719
 31
0.0
  0
LINE
  5
    81
  8
0
  6
CONTINUOUS
 62
     3
 10
14.2369937896729
 20
65.148681640625
 30
0.0
 11
10.8553380966187
 21
61.7670249938965
 31
0.0
  0
LINE
  5
    82
  8
0
  6
CONTINUOUS
 62
     3
 10
14.2369937896729
 20
63.0273590087891
 30
0.0
 11
13.7800302505493
 21
62.5703964233398
 31
0.0
  0
ENDBLK
  5
    83
  8
0
  6
CONTINUOUS
 62
     7
  0
BLOCK
  5
    84
  8
0
  6
CONTINUOUS
 62
     7
  2
*HATCH80
 70
    65
 10
0.0
 20
0.0
 30
0.0
  3
*HATCH80
  0
LINE
  5
    85
  8
0
  6
CONTINUOUS
 62
     3
 10
167.826889038086
 20
-4.00005149841309
 30
0.0
 11
165.980621337891
 21
-5.84633255004883
 31
0.0
  0
LINE
  5
    86
  8
0
  6
CONTINUOUS
 62
     3
 10
169.948211669922
 20
-4.00005149841309
 30
0.0
 11
167.948211669922
 21
-6.00005149841309
 31
0.0
  0
LINE
  5
    87
  8
0
  6
CONTINUOUS
 62
     3
 10
172.069519042969
 20
-4.00005149841309
 30
0.0
 11
170.069519042969
 21
-6.00005149841309
 31
0.0
  0
LINE
  5
    88
  8
0
  6
CONTINUOUS
 62
     3
 10
174.190826416016
 20
-4.00005149841309
 30
0.0
 11
172.190826416016
 21
-6.00005149841309
 31
0.0
  0
LINE
  5
    89
  8
0
  6
CONTINUOUS
 62
     3
 10
176.312133789062
 20
-4.00005149841309
 30
0.0
 11
174.312133789063
 21
-6.00005149841309
 31
0.0
  0
LINE
  5
    8A
  8
0
  6
CONTINUOUS
 62
     3
 10
177.480621337891
 20
-4.95293474197388
 30
0.0
 11
176.433502197266
 21
-6.00005149841309
 31
0.0
  0
ENDBLK
  5
    8B
  8
0
  6
CONTINUOUS
 62
     7
  0
BLOCK
  5
    8C
  8
0
  6
CONTINUOUS
 62
     7
  2
*HATCH81
 70
    65
 10
0.0
 20
0.0
 30
0.0
  3
*HATCH81
  0
LINE
  5
    8D
  8
0
  6
CONTINUOUS
 62
     3
 10
43.7296600341797
 20
-4.00005149841309
 30
0.0
 11
42.4806251525879
 21
-5.24908351898193
 31
0.0
  0
LINE
  5
    8E
  8
0
  6
CONTINUOUS
 62
     3
 10
45.8509788513184
 20
-4.00005149841309
 30
0.0
 11
43.8509788513184
 21
-6.00005149841309
 31
0.0
  0
LINE
  5
    8F
  8
0
  6
CONTINUOUS
 62
     3
 10
47.9723014831543
 20
-4.00005149841309
 30
0.0
 11
45.9723014831543
 21
-6.00005149841309
 31
0.0
  0
LINE
  5
    90
  8
0
  6
CONTINUOUS
 62
     3
 10
50.0936241149902
 20
-4.00005149841309
 30
0.0
 11
48.0936241149902
 21
-6.00005149841309
 31
0.0
  0
LINE
  5
    91
  8
0
  6
CONTINUOUS
 62
     3
 10
52.2149467468262
 20
-4.00005149841309
 30
0.0
 11
50.2149467468262
 21
-6.00005149841309
 31
0.0
  0
LINE
  5
    92
  8
0
  6
CONTINUOUS
 62
     3
 10
53.9806251525879
 20
-4.35568618774414
 30
0.0
 11
52.3362579345703
 21
-6.00005149841309
 31
0.0
  0
ENDBLK
  5
    93
  8
0
  6
CONTINUOUS
 62
     7
  0
BLOCK
  5
    94
  8
0
  6
CONTINUOUS
 62
     7
  2
*HATCH82
 70
    65
 10
0.0
 20
0.0
 30
0.0
  3
*HATCH82
  0
LINE
  5
    95
  8
0
  6
CONTINUOUS
 62
     3
 10
-24.1525974273682
 20
-4.00005149841309
 30
0.0
 11
-25.3908443450928
 21
-5.23830080032349
 31
0.0
  0
LINE
  5
    96
  8
0
  6
CONTINUOUS
 62
     3
 10
-22.0312747955322
 20
-4.00005149841309
 30
0.0
 11
-24.0312747955322
 21
-6.00005149841309
 31
0.0
  0
LINE
  5
    97
  8
0
  6
CONTINUOUS
 62
     3
 10
-19.9099559783936
 20
-4.00005149841309
 30
0.0
 11
-21.9099559783936
 21
-6.00005149841309
 31
0.0
  0
LINE
  5
    98
  8
0
  6
CONTINUOUS
 62
     3
 10
-17.7886371612549
 20
-4.00005149841309
 30
0.0
 11
-19.7886371612549
 21
-6.00005149841309
 31
0.0
  0
LINE
  5
    99
  8
0
  6
CONTINUOUS
 62
     3
 10
-15.6673173904419
 20
-4.00005149841309
 30
0.0
 11
-17.6673183441162
 21
-6.00005149841309
 31
0.0
  0
LINE
  5
    9A
  8
0
  6
CONTINUOUS
 62
     3
 10
-13.5459966659546
 20
-4.00005149841309
 30
0.0
 11
-15.5459985733032
 21
-6.00005149841309
 31
0.0
  0
LINE
  5
    9B
  8
0
  6
CONTINUOUS
 62
     3
 10
-11.4246759414673
 20
-4.00005149841309
 30
0.0
 11
-13.4246778488159
 21
-6.00005149841309
 31
0.0
  0
LINE
  5
    9C
  8
0
  6
CONTINUOUS
 62
     3
 10
-9.30335521697998
 20
-4.00005149841309
 30
0.0
 11
-11.3033571243286
 21
-6.00005149841309
 31
0.0
  0
LINE
  5
    9D
  8
0
  6
CONTINUOUS
 62
     3
 10
-7.18203449249268
 20
-4.00005149841309
 30
0.0
 11
-9.18203639984131
 21
-6.00005149841309
 31
0.0
  0
LINE
  5
    9E
  8
0
  6
CONTINUOUS
 62
     3
 10
-5.06071376800537
 20
-4.00005149841309
 30
0.0
 11
-7.060715675354
 21
-6.00005149841309
 31
0.0
  0
LINE
  5
    9F
  8
0
  6
CONTINUOUS
 62
     3
 10
-2.93939328193665
 20
-4.00005149841309
 30
0.0
 11
-4.9393949508667
 21
-6.00005149841309
 31
0.0
  0
LINE
  5
    A0
  8
0
  6
CONTINUOUS
 62
     3
 10
-0.818073034286499
 20
-4.00005149841309
 30
0.0
 11
-2.81807422637939
 21
-6.00005149841309
 31
0.0
  0
LINE
  5
    A1
  8
0
  6
CONTINUOUS
 62
     3
 10
1.30324721336365
 20
-4.00005149841309
 30
0.0
 11
-0.696753740310669
 21
-6.00005149841309
 31
0.0
  0
LINE
  5
    A2
  8
0
  6
CONTINUOUS
 62
     3
 10
3.42456746101379
 20
-4.00005149841309
 30
0.0
 11
1.42456674575806
 21
-6.00005149841309
 31
0.0
  0
LINE
  5
    A3
  8
0
  6
CONTINUOUS
 62
     3
 10
5.54588794708252
 20
-4.00005149841309
 30
0.0
 11
3.54588747024536
 21
-6.00005149841309
 31
0.0
  0
LINE
  5
    A4
  8
0
  6
CONTINUOUS
 62
     3
 10
7.66720867156982
 20
-4.00005149841309
 30
0.0
 11
5.66720819473267
 21
-6.00005149841309
 31
0.0
  0
LINE
  5
    A5
  8
0
  6
CONTINUOUS
 62
     3
 10
9.78852939605713
 20
-4.00005149841309
 30
0.0
 11
7.78852891921997
 21
-6.00005149841309
 31
0.0
  0
LINE
  5
    A6
  8
0
  6
CONTINUOUS
 62
     3
 10
11.9098501205444
 20
-4.00005149841309
 30
0.0
 11
9.90984916687012
 21
-6.00005149841309
 31
0.0
  0
LINE
  5
    A7
  8
0
  6
CONTINUOUS
 62
     3
 10
14.0311708450317
 20
-4.00005149841309
 30
0.0
 11
12.0311698913574
 21
-6.00005149841309
 31
0.0
  0
LINE
  5
    A8
  8
0
  6
CONTINUOUS
 62
     3
 10
16.1524906158447
 20
-4.00005149841309
 30
0.0
 11
14.1524906158447
 21
-6.00005149841309
 31
0.0
  0
LINE
  5
    A9
  8
0
  6
CONTINUOUS
 62
     3
 10
18.2738094329834
 20
-4.00005149841309
 30
0.0
 11
16.273811340332
 21
-6.00005149841309
 31
0.0
  0
LINE
  5
    AA
  8
0
  6
CONTINUOUS
 62
     3
 10
20.3951282501221
 20
-4.00005149841309
 30
0.0
 11
18.3951301574707
 21
-6.00005149841309
 31
0.0
  0
LINE
  5
    AB
  8
0
  6
CONTINUOUS
 62
     3
 10
22.5164470672607
 20
-4.00005149841309
 30
0.0
 11
20.5164489746094
 21
-6.00005149841309
 31
0.0
  0
LINE
  5
    AC
  8
0
  6
CONTINUOUS
 62
     3
 10
24.6377658843994
 20
-4.00005149841309
 30
0.0
 11
22.637767791748
 21
-6.00005149841309
 31
0.0
  0
LINE
  5
    AD
  8
0
  6
CONTINUOUS
 62
     3
 10
26.7590847015381
 20
-4.00005149841309
 30
0.0
 11
24.7590866088867
 21
-6.00005149841309
 31
0.0
  0
LINE
  5
    AE
  8
0
  6
CONTINUOUS
 62
     3
 10
28.8804035186768
 20
-4.00005149841309
 30
0.0
 11
26.8804054260254
 21
-6.00005149841309
 31
0.0
  0
LINE
  5
    AF
  8
0
  6
CONTINUOUS
 62
     3
 10
31.0017223358154
 20
-4.00005149841309
 30
0.0
 11
29.0017242431641
 21
-6.00005149841309
 31
0.0
  0
LINE
  5
    B0
  8
0
  6
CONTINUOUS
 62
     3
 10
33.1230430603027
 20
-4.00005149841309
 30
0.0
 11
31.1230430603027
 21
-6.00005149841309
 31
0.0
  0
LINE
  5
    B1
  8
0
  6
CONTINUOUS
 62
     3
 10
35.2443656921387
 20
-4.00005149841309
 30
0.0
 11
33.2443656921387
 21
-6.00005149841309
 31
0.0
  0
LINE
  5
    B2
  8
0
  6
CONTINUOUS
 62
     3
 10
35.4806251525879
 20
-5.88512229919434
 30
0.0
 11
35.3656959533691
 21
-6.00005149841309
 31
0.0
  0
ENDBLK
  5
    B3
  8
0
  6
CONTINUOUS
 62
     7
  0
BLOCK
  5
    B4
  8
0
  6
CONTINUOUS
 62
     7
  2
*HATCH83
 70
    65
 10
0.0
 20
0.0
 30
0.0
  3
*HATCH83
  0
LINE
  5
    B5
  8
0
  6
CONTINUOUS
 62
     3
 10
185.858123779297
 20
-4.00005149841309
 30
0.0
 11
184.480621337891
 21
-5.37755584716797
 31
0.0
  0
LINE
  5
    B6
  8
0
  6
CONTINUOUS
 62
     3
 10
187.979446411133
 20
-4.00005149841309
 30
0.0
 11
185.979446411133
 21
-6.00005149841309
 31
0.0
  0
LINE
  5
    B7
  8
0
  6
CONTINUOUS
 62
     3
 10
190.10075378418
 20
-4.00005149841309
 30
0.0
 11
188.10075378418
 21
-6.00005149841309
 31
0.0
  0
LINE
  5
    B8
  8
0
  6
CONTINUOUS
 62
     3
 10
192.222061157227
 20
-4.00005149841309
 30
0.0
 11
190.222061157227
 21
-6.00005149841309
 31
0.0
  0
LINE
  5
    B9
  8
0
  6
CONTINUOUS
 62
     3
 10
194.343368530273
 20
-4.00005149841309
 30
0.0
 11
192.343368530273
 21
-6.00005149841309
 31
0.0
  0
LINE
  5
    BA
  8
0
  6
CONTINUOUS
 62
     3
 10
196.46467590332
 20
-4.00005149841309
 30
0.0
 11
194.46467590332
 21
-6.00005149841309
 31
0.0
  0
LINE
  5
    BB
  8
0
  6
CONTINUOUS
 62
     3
 10
198.585983276367
 20
-4.00005149841309
 30
0.0
 11
196.585983276367
 21
-6.00005149841309
 31
0.0
  0
LINE
  5
    BC
  8
0
  6
CONTINUOUS
 62
     3
 10
200.707290649414
 20
-4.00005149841309
 30
0.0
 11
198.707290649414
 21
-6.00005149841309
 31
0.0
  0
LINE
  5
    BD
  8
0
  6
CONTINUOUS
 62
     3
 10
202.828598022461
 20
-4.00005149841309
 30
0.0
 11
200.828598022461
 21
-6.00005149841309
 31
0.0
  0
LINE
  5
    BE
  8
0
  6
CONTINUOUS
 62
     3
 10
204.949905395508
 20
-4.00005149841309
 30
0.0
 11
202.949905395508
 21
-6.00005149841309
 31
0.0
  0
LINE
  5
    BF
  8
0
  6
CONTINUOUS
 62
     3
 10
207.071212768555
 20
-4.00005149841309
 30
0.0
 11
205.071212768555
 21
-6.00005149841309
 31
0.0
  0
LINE
  5
    C0
  8
0
  6
CONTINUOUS
 62
     3
 10
209.192520141602
 20
-4.00005149841309
 30
0.0
 11
207.192520141602
 21
-6.00005149841309
 31
0.0
  0
LINE
  5
    C1
  8
0
  6
CONTINUOUS
 62
     3
 10
211.313827514648
 20
-4.00005149841309
 30
0.0
 11
209.313827514648
 21
-6.00005149841309
 31
0.0
  0
LINE
  5
    C2
  8
0
  6
CONTINUOUS
 62
     3
 10
213.435134887695
 20
-4.00005149841309
 30
0.0
 11
211.435134887695
 21
-6.00005149841309
 31
0.0
  0
LINE
  5
    C3
  8
0
  6
CONTINUOUS
 62
     3
 10
215.556442260742
 20
-4.00005149841309
 30
0.0
 11
213.556442260742
 21
-6.00005149841309
 31
0.0
  0
LINE
  5
    C4
  8
0
  6
CONTINUOUS
 62
     3
 10
217.677749633789
 20
-4.00005149841309
 30
0.0
 11
215.677749633789
 21
-6.00005149841309
 31
0.0
  0
LINE
  5
    C5
  8
0
  6
CONTINUOUS
 62
     3
 10
219.799057006836
 20
-4.00005149841309
 30
0.0
 11
217.799057006836
 21
-6.00005149841309
 31
0.0
  0
LINE
  5
    C6
  8
0
  6
CONTINUOUS
 62
     3
 10
221.920364379883
 20
-4.00005149841309
 30
0.0
 11
219.920364379883
 21
-6.00005149841309
 31
0.0
  0
LINE
  5
    C7
  8
0
  6
CONTINUOUS
 62
     3
 10
224.04167175293
 20
-4.00005149841309
 30
0.0
 11
222.04167175293
 21
-6.00005149841309
 31
0.0
  0
LINE
  5
    C8
  8
0
  6
CONTINUOUS
 62
     3
 10
226.162979125977
 20
-4.00005149841309
 30
0.0
 11
224.162979125977
 21
-6.00005149841309
 31
0.0
  0
LINE
  5
    C9
  8
0
  6
CONTINUOUS
 62
     3
 10
228.284286499023
 20
-4.00005149841309
 30
0.0
 11
226.284286499023
 21
-6.00005149841309
 31
0.0
  0
LINE
  5
    CA
  8
0
  6
CONTINUOUS
 62
     3
 10
230.40559387207
 20
-4.00005149841309
 30
0.0
 11
228.40559387207
 21
-6.00005149841309
 31
0.0
  0
LINE
  5
    CB
  8
0
  6
CONTINUOUS
 62
     3
 10
232.526901245117
 20
-4.00005149841309
 30
0.0
 11
230.526901245117
 21
-6.00005149841309
 31
0.0
  0
LINE
  5
    CC
  8
0
  6
CONTINUOUS
 62
     3
 10
234.648208618164
 20
-4.00005149841309
 30
0.0
 11
232.648208618164
 21
-6.00005149841309
 31
0.0
  0
LINE
  5
    CD
  8
0
  6
CONTINUOUS
 62
     3
 10
236.769515991211
 20
-4.00005149841309
 30
0.0
 11
234.769515991211
 21
-6.00005149841309
 31
0.0
  0
LINE
  5
    CE
  8
0
  6
CONTINUOUS
 62
     3
 10
238.890823364258
 20
-4.00005149841309
 30
0.0
 11
236.890823364258
 21
-6.00005149841309
 31
0.0
  0
LINE
  5
    CF
  8
0
  6
CONTINUOUS
 62
     3
 10
241.012130737305
 20
-4.00005149841309
 30
0.0
 11
239.012130737305
 21
-6.00005149841309
 31
0.0
  0
LINE
  5
    D0
  8
0
  6
CONTINUOUS
 62
     3
 10
243.133438110352
 20
-4.00005149841309
 30
0.0
 11
241.133438110352
 21
-6.00005149841309
 31
0.0
  0
LINE
  5
    D1
  8
0
  6
CONTINUOUS
 62
     3
 10
245.254745483398
 20
-4.00005149841309
 30
0.0
 11
243.254745483398
 21
-6.00005149841309
 31
0.0
  0
LINE
  5
    D2
  8
0
  6
CONTINUOUS
 62
     3
 10
247.376052856445
 20
-4.00005149841309
 30
0.0
 11
245.376052856445
 21
-6.00005149841309
 31
0.0
  0
LINE
  5
    D3
  8
0
  6
CONTINUOUS
 62
     3
 10
249.497360229492
 20
-4.00005149841309
 30
0.0
 11
247.497360229492
 21
-6.00005149841309
 31
0.0
  0
LINE
  5
    D4
  8
0
  6
CONTINUOUS
 62
     3
 10
251.618667602539
 20
-4.00005149841309
 30
0.0
 11
249.618667602539
 21
-6.00005149841309
 31
0.0
  0
LINE
  5
    D5
  8
0
  6
CONTINUOUS
 62
     3
 10
253.739974975586
 20
-4.00005149841309
 30
0.0
 11
251.739974975586
 21
-6.00005149841309
 31
0.0
  0
LINE
  5
    D6
  8
0
  6
CONTINUOUS
 62
     3
 10
255.861282348633
 20
-4.00005149841309
 30
0.0
 11
253.861282348633
 21
-6.00005149841309
 31
0.0
  0
LINE
  5
    D7
  8
0
  6
CONTINUOUS
 62
     3
 10
257.982604980469
 20
-4.00005149841309
 30
0.0
 11
255.98258972168
 21
-6.00005149841309
 31
0.0
  0
LINE
  5
    D8
  8
0
  6
CONTINUOUS
 62
     3
 10
260.103942871094
 20
-4.00005149841309
 30
0.0
 11
258.103912353516
 21
-6.00005149841309
 31
0.0
  0
LINE
  5
    D9
  8
0
  6
CONTINUOUS
 62
     3
 10
262.225280761719
 20
-4.00005149841309
 30
0.0
 11
260.225250244141
 21
-6.00005149841309
 31
0.0
  0
LINE
  5
    DA
  8
0
  6
CONTINUOUS
 62
     3
 10
264.346618652344
 20
-4.00005149841309
 30
0.0
 11
262.346588134766
 21
-6.00005149841309
 31
0.0
  0
LINE
  5
    DB
  8
0
  6
CONTINUOUS
 62
     3
 10
266.467956542969
 20
-4.00005149841309
 30
0.0
 11
264.467926025391
 21
-6.00005149841309
 31
0.0
  0
LINE
  5
    DC
  8
0
  6
CONTINUOUS
 62
     3
 10
268.589294433594
 20
-4.00005149841309
 30
0.0
 11
266.589263916016
 21
-6.00005149841309
 31
0.0
  0
LINE
  5
    DD
  8
0
  6
CONTINUOUS
 62
     3
 10
270.710632324219
 20
-4.00005149841309
 30
0.0
 11
268.710601806641
 21
-6.00005149841309
 31
0.0
  0
LINE
  5
    DE
  8
0
  6
CONTINUOUS
 62
     3
 10
272.831970214844
 20
-4.00005149841309
 30
0.0
 11
270.831939697266
 21
-6.00005149841309
 31
0.0
  0
LINE
  5
    DF
  8
0
  6
CONTINUOUS
 62
     3
 10
274.953308105469
 20
-4.00005149841309
 30
0.0
 11
272.953277587891
 21
-6.00005149841309
 31
0.0
  0
LINE
  5
    E0
  8
0
  6
CONTINUOUS
 62
     3
 10
277.074645996094
 20
-4.00005149841309
 30
0.0
 11
275.074615478516
 21
-6.00005149841309
 31
0.0
  0
LINE
  5
    E1
  8
0
  6
CONTINUOUS
 62
     3
 10
279.195983886719
 20
-4.00005149841309
 30
0.0
 11
277.195953369141
 21
-6.00005149841309
 31
0.0
  0
LINE
  5
    E2
  8
0
  6
CONTINUOUS
 62
     3
 10
281.317321777344
 20
-4.00005149841309
 30
0.0
 11
279.317291259766
 21
-6.00005149841309
 31
0.0
  0
LINE
  5
    E3
  8
0
  6
CONTINUOUS
 62
     3
 10
283.438659667969
 20
-4.00005149841309
 30
0.0
 11
281.438629150391
 21
-6.00005149841309
 31
0.0
  0
LINE
  5
    E4
  8
0
  6
CONTINUOUS
 62
     3
 10
285.559997558594
 20
-4.00005149841309
 30
0.0
 11
283.559967041016
 21
-6.00005149841309
 31
0.0
  0
LINE
  5
    E5
  8
0
  6
CONTINUOUS
 62
     3
 10
287.681335449219
 20
-4.00005149841309
 30
0.0
 11
285.681304931641
 21
-6.00005149841309
 31
0.0
  0
LINE
  5
    E6
  8
0
  6
CONTINUOUS
 62
     3
 10
289.802673339844
 20
-4.00005149841309
 30
0.0
 11
287.802642822266
 21
-6.00005149841309
 31
0.0
  0
LINE
  5
    E7
  8
0
  6
CONTINUOUS
 62
     3
 10
291.924011230469
 20
-4.00005149841309
 30
0.0
 11
289.923980712891
 21
-6.00005149841309
 31
0.0
  0
LINE
  5
    E8
  8
0
  6
CONTINUOUS
 62
     3
 10
294.045349121094
 20
-4.00005149841309
 30
0.0
 11
292.045318603516
 21
-6.00005149841309
 31
0.0
  0
LINE
  5
    E9
  8
0
  6
CONTINUOUS
 62
     3
 10
296.166687011719
 20
-4.00005149841309
 30
0.0
 11
294.166656494141
 21
-6.00005149841309
 31
0.0
  0
LINE
  5
    EA
  8
0
  6
CONTINUOUS
 62
     3
 10
298.288024902344
 20
-4.00005149841309
 30
0.0
 11
296.287994384766
 21
-6.00005149841309
 31
0.0
  0
LINE
  5
    EB
  8
0
  6
CONTINUOUS
 62
     3
 10
300.409362792969
 20
-4.00005149841309
 30
0.0
 11
298.409332275391
 21
-6.00005149841309
 31
0.0
  0
LINE
  5
    EC
  8
0
  6
CONTINUOUS
 62
     3
 10
302.530700683594
 20
-4.00005149841309
 30
0.0
 11
300.530670166016
 21
-6.00005149841309
 31
0.0
  0
LINE
  5
    ED
  8
0
  6
CONTINUOUS
 62
     3
 10
304.652038574219
 20
-4.00005149841309
 30
0.0
 11
302.652008056641
 21
-6.00005149841309
 31
0.0
  0
LINE
  5
    EE
  8
0
  6
CONTINUOUS
 62
     3
 10
306.773376464844
 20
-4.00005149841309
 30
0.0
 11
304.773345947266
 21
-6.00005149841309
 31
0.0
  0
LINE
  5
    EF
  8
0
  6
CONTINUOUS
 62
     3
 10
308.894714355469
 20
-4.00005149841309
 30
0.0
 11
306.894683837891
 21
-6.00005149841309
 31
0.0
  0
LINE
  5
    F0
  8
0
  6
CONTINUOUS
 62
     3
 10
311.016052246094
 20
-4.00005149841309
 30
0.0
 11
309.016021728516
 21
-6.00005149841309
 31
0.0
  0
LINE
  5
    F1
  8
0
  6
CONTINUOUS
 62
     3
 10
313.137390136719
 20
-4.00005149841309
 30
0.0
 11
311.137359619141
 21
-6.00005149841309
 31
0.0
  0
LINE
  5
    F2
  8
0
  6
CONTINUOUS
 62
     3
 10
315.258728027344
 20
-4.00005149841309
 30
0.0
 11
313.258697509766
 21
-6.00005149841309
 31
0.0
  0
LINE
  5
    F3
  8
0
  6
CONTINUOUS
 62
     3
 10
317.380065917969
 20
-4.00005149841309
 30
0.0
 11
315.380035400391
 21
-6.00005149841309
 31
0.0
  0
LINE
  5
    F4
  8
0
  6
CONTINUOUS
 62
     3
 10
319.501403808594
 20
-4.00005149841309
 30
0.0
 11
317.501373291016
 21
-6.00005149841309
 31
0.0
  0
LINE
  5
    F5
  8
0
  6
CONTINUOUS
 62
     3
 10
321.622741699219
 20
-4.00005149841309
 30
0.0
 11
319.622711181641
 21
-6.00005149841309
 31
0.0
  0
LINE
  5
    F6
  8
0
  6
CONTINUOUS
 62
     3
 10
323.744079589844
 20
-4.00005149841309
 30
0.0
 11
321.744049072266
 21
-6.00005149841309
 31
0.0
  0
LINE
  5
    F7
  8
0
  6
CONTINUOUS
 62
     3
 10
325.865417480469
 20
-4.00005149841309
 30
0.0
 11
323.865386962891
 21
-6.00005149841309
 31
0.0
  0
LINE
  5
    F8
  8
0
  6
CONTINUOUS
 62
     3
 10
327.986755371094
 20
-4.00005149841309
 30
0.0
 11
325.986724853516
 21
-6.00005149841309
 31
0.0
  0
LINE
  5
    F9
  8
0
  6
CONTINUOUS
 62
     3
 10
330.108093261719
 20
-4.00005149841309
 30
0.0
 11
328.108062744141
 21
-6.00005149841309
 31
0.0
  0
LINE
  5
    FA
  8
0
  6
CONTINUOUS
 62
     3
 10
332.229431152344
 20
-4.00005149841309
 30
0.0
 11
330.229400634766
 21
-6.00005149841309
 31
0.0
  0
LINE
  5
    FB
  8
0
  6
CONTINUOUS
 62
     3
 10
333.858581542969
 20
-4.49203109741211
 30
0.0
 11
332.350555419922
 21
-6.00005149841309
 31
0.0
  0
LINE
  5
    FC
  8
0
  6
CONTINUOUS
 62
     3
 10
334.601745605469
 20
-5.87021350860596
 30
0.0
 11
334.471893310547
 21
-6.00005149841309
 31
0.0
  0
ENDBLK
  5
    FD
  8
0
  6
CONTINUOUS
 62
     7
  0
BLOCK
  5
    FE
  8
0
  6
CONTINUOUS
 62
     7
  2
*HATCH84
 70
    65
 10
0.0
 20
0.0
 30
0.0
  3
*HATCH84
  0
LINE
  5
    FF
  8
0
  6
CONTINUOUS
 62
   210
 10
-10.7629547119141
 20
80.7665863037109
 30
0.0
 11
-7.99633836746216
 21
77.9999618530274
 31
0.0
  0
LINE
  5
   100
  8
0
  6
CONTINUOUS
 62
   210
 10
-8.75369358062744
 20
82.9999618530274
 30
0.0
 11
-4.76300573348999
 21
79.0092697143555
 31
0.0
  0
ENDBLK
  5
   101
  8
0
  6
CONTINUOUS
 62
     7
  0
BLOCK
  5
   102
  8
0
  6
CONTINUOUS
 62
     7
  2
*HATCH85
 70
    65
 10
0.0
 20
0.0
 30
0.0
  3
*HATCH85
  0
LINE
  5
   103
  8
0
  6
CONTINUOUS
 62
   210
 10
3.23699402809143
 20
81.6158676147461
 30
0.0
 11
6.8528938293457
 21
77.9999618530274
 31
0.0
  0
LINE
  5
   104
  8
0
  6
CONTINUOUS
 62
   210
 10
6.09554004669189
 20
82.9999618530274
 30
0.0
 11
11.095531463623
 21
77.9999618530274
 31
0.0
  0
LINE
  5
   105
  8
0
  6
CONTINUOUS
 62
   210
 10
10.3381776809692
 20
82.9999618530274
 30
0.0
 11
15.3381690979004
 21
77.9999618530274
 31
0.0
  0
LINE
  5
   106
  8
0
  6
CONTINUOUS
 62
   210
 10
14.5808153152466
 20
82.9999618530274
 30
0.0
 11
19.5808067321777
 21
77.9999618530274
 31
0.0
  0
LINE
  5
   107
  8
0
  6
CONTINUOUS
 62
   210
 10
18.8234539031982
 20
82.9999618530274
 30
0.0
 11
19.7282676696777
 21
82.0951461791992
 31
0.0
  0
ENDBLK
  5
   108
  8
0
  6
CONTINUOUS
 62
     7
  0
BLOCK
  5
   109
  8
0
  6
CONTINUOUS
 62
     7
  2
*HATCH86
 70
    65
 10
0.0
 20
0.0
 30
0.0
  3
*HATCH86
  0
LINE
  5
   10A
  8
0
  6
CONTINUOUS
 62
     3
 10
17.0864696502686
 20
102.999938964844
 30
0.0
 11
15.2370948791504
 21
101.150566101074
 31
0.0
  0
LINE
  5
   10B
  8
0
  6
CONTINUOUS
 62
     3
 10
18.1471290588379
 20
102.999938964844
 30
0.0
 11
14.2369937896729
 21
99.0898056030274
 31
0.0
  0
LINE
  5
   10C
  8
0
  6
CONTINUOUS
 62
     3
 10
18.2369937896729
 20
100.968482971191
 30
0.0
 11
14.2369937896729
 21
96.9684829711914
 31
0.0
  0
LINE
  5
   10D
  8
0
  6
CONTINUOUS
 62
     3
 10
18.2369937896729
 20
98.8471603393555
 30
0.0
 11
14.2369937896729
 21
94.8471603393555
 31
0.0
  0
LINE
  5
   10E
  8
0
  6
CONTINUOUS
 62
     3
 10
18.2369937896729
 20
96.7258377075195
 30
0.0
 11
14.2369937896729
 21
92.7258377075195
 31
0.0
  0
LINE
  5
   10F
  8
0
  6
CONTINUOUS
 62
     3
 10
18.2369937896729
 20
94.6045150756836
 30
0.0
 11
14.2369937896729
 21
90.6045150756836
 31
0.0
  0
LINE
  5
   110
  8
0
  6
CONTINUOUS
 62
     3
 10
18.2369937896729
 20
92.4831924438477
 30
0.0
 11
14.2369937896729
 21
88.4831924438477
 31
0.0
  0
LINE
  5
   111
  8
0
  6
CONTINUOUS
 62
     3
 10
18.2369937896729
 20
90.3618698120117
 30
0.0
 11
14.2369937896729
 21
86.3618698120117
 31
0.0
  0
LINE
  5
   112
  8
0
  6
CONTINUOUS
 62
     3
 10
18.2369937896729
 20
88.2405471801758
 30
0.0
 11
14.2369937896729
 21
84.2405471801758
 31
0.0
  0
LINE
  5
   113
  8
0
  6
CONTINUOUS
 62
     3
 10
18.2369937896729
 20
86.1192398071289
 30
0.0
 11
15.117714881897
 21
82.9999618530274
 31
0.0
  0
LINE
  5
   114
  8
0
  6
CONTINUOUS
 62
     3
 10
18.2369937896729
 20
83.997917175293
 30
0.0
 11
17.23903465271
 21
82.9999618530274
 31
0.0
  0
ENDBLK
  5
   115
  8
0
  6
CONTINUOUS
 62
     7
  0
BLOCK
  5
   116
  8
0
  6
CONTINUOUS
 62
     7
  2
*HATCH87
 70
    65
 10
0.0
 20
0.0
 30
0.0
  3
*HATCH87
  0
LINE
  5
   117
  8
0
  6
CONTINUOUS
 62
     3
 10
12.2390375137329
 20
77.9999618530274
 30
0.0
 11
10.2369937896729
 21
75.997917175293
 31
0.0
  0
LINE
  5
   118
  8
0
  6
CONTINUOUS
 62
     3
 10
14.2369937896729
 20
77.8766021728516
 30
0.0
 11
10.2369937896729
 21
73.8766021728516
 31
0.0
  0
LINE
  5
   119
  8
0
  6
CONTINUOUS
 62
     3
 10
14.2369937896729
 20
75.7552795410156
 30
0.0
 11
10.2369937896729
 21
71.7552795410156
 31
0.0
  0
LINE
  5
   11A
  8
0
  6
CONTINUOUS
 62
     3
 10
14.2369937896729
 20
73.6339569091797
 30
0.0
 11
10.2369937896729
 21
69.6339569091797
 31
0.0
  0
LINE
  5
   11B
  8
0
  6
CONTINUOUS
 62
     3
 10
14.2369937896729
 20
71.5126342773438
 30
0.0
 11
10.2369937896729
 21
67.5126342773438
 31
0.0
  0
LINE
  5
   11C
  8
0
  6
CONTINUOUS
 62
     3
 10
14.2369937896729
 20
69.3913116455078
 30
0.0
 11
10.2369937896729
 21
65.3913116455078
 31
0.0
  0
LINE
  5
   11D
  8
0
  6
CONTINUOUS
 62
     3
 10
14.2369937896729
 20
67.2699890136719
 30
0.0
 11
10.2369937896729
 21
63.2699890136719
 31
0.0
  0
LINE
  5
   11E
  8
0
  6
CONTINUOUS
 62
     3
 10
14.2369937896729
 20
65.148681640625
 30
0.0
 11
10.8553380966187
 21
61.7670249938965
 31
0.0
  0
LINE
  5
   11F
  8
0
  6
CONTINUOUS
 62
     3
 10
14.2369937896729
 20
63.0273590087891
 30
0.0
 11
13.7800302505493
 21
62.5703964233398
 31
0.0
  0
ENDBLK
  5
   120
  8
0
  6
CONTINUOUS
 62
     7
  0
BLOCK
  5
   121
  8
0
  6
CONTINUOUS
 62
     7
  2
*HATCH88
 70
    65
 10
0.0
 20
0.0
 30
0.0
  3
*HATCH88
  0
LINE
  5
   122
  8
0
  6
CONTINUOUS
 62
   210
 10
294.995452880859
 20
67.7501907348633
 30
0.0
 11
295.737060546875
 21
67.0085906982422
 31
0.0
  0
LINE
  5
   123
  8
0
  6
CONTINUOUS
 62
   210
 10
294.995452880859
 20
71.9928359985352
 30
0.0
 11
295.737060546875
 21
71.2512359619141
 31
0.0
  0
LINE
  5
   124
  8
0
  6
CONTINUOUS
 62
   210
 10
294.995452880859
 20
76.235481262207
 30
0.0
 11
295.737060546875
 21
75.4938812255859
 31
0.0
  0
ENDBLK
  5
   125
  8
0
  6
CONTINUOUS
 62
     7
  0
BLOCK
  5
   126
  8
0
  6
CONTINUOUS
 62
     7
  2
*HATCH89
 70
    65
 10
0.0
 20
0.0
 30
0.0
  3
*HATCH89
  0
LINE
  5
   127
  8
0
  6
CONTINUOUS
 62
     3
 10
320.237060546875
 20
37.5587959289551
 30
0.0
 11
322.382019042969
 21
35.4138374328613
 31
0.0
  0
LINE
  5
   128
  8
0
  6
CONTINUOUS
 62
     3
 10
320.237060546875
 20
39.680118560791
 30
0.0
 11
322.737060546875
 21
37.1801147460938
 31
0.0
  0
LINE
  5
   129
  8
0
  6
CONTINUOUS
 62
     3
 10
320.237060546875
 20
41.801441192627
 30
0.0
 11
322.737060546875
 21
39.3014373779297
 31
0.0
  0
LINE
  5
   12A
  8
0
  6
CONTINUOUS
 62
     3
 10
320.237060546875
 20
43.9227638244629
 30
0.0
 11
322.737060546875
 21
41.4227600097656
 31
0.0
  0
LINE
  5
   12B
  8
0
  6
CONTINUOUS
 62
     3
 10
320.237060546875
 20
46.0440864562988
 30
0.0
 11
322.737060546875
 21
43.5440826416016
 31
0.0
  0
LINE
  5
   12C
  8
0
  6
CONTINUOUS
 62
     3
 10
320.237060546875
 20
48.1654090881348
 30
0.0
 11
322.737060546875
 21
45.6654052734375
 31
0.0
  0
LINE
  5
   12D
  8
0
  6
CONTINUOUS
 62
     3
 10
320.237060546875
 20
50.2867317199707
 30
0.0
 11
322.737060546875
 21
47.7867279052734
 31
0.0
  0
LINE
  5
   12E
  8
0
  6
CONTINUOUS
 62
     3
 10
320.237060546875
 20
52.4080543518066
 30
0.0
 11
322.737060546875
 21
49.9080505371094
 31
0.0
  0
LINE
  5
   12F
  8
0
  6
CONTINUOUS
 62
     3
 10
320.237060546875
 20
54.5293769836426
 30
0.0
 11
322.737060546875
 21
52.0293731689453
 31
0.0
  0
LINE
  5
   130
  8
0
  6
CONTINUOUS
 62
     3
 10
320.237060546875
 20
56.6506996154785
 30
0.0
 11
322.737060546875
 21
54.1506958007813
 31
0.0
  0
LINE
  5
   131
  8
0
  6
CONTINUOUS
 62
     3
 10
320.237060546875
 20
58.7720222473145
 30
0.0
 11
322.737060546875
 21
56.2720184326172
 31
0.0
  0
LINE
  5
   132
  8
0
  6
CONTINUOUS
 62
     3
 10
320.237060546875
 20
60.8933448791504
 30
0.0
 11
322.737060546875
 21
58.3933410644531
 31
0.0
  0
LINE
  5
   133
  8
0
  6
CONTINUOUS
 62
     3
 10
320.237060546875
 20
63.0146675109863
 30
0.0
 11
322.737060546875
 21
60.5146636962891
 31
0.0
  0
LINE
  5
   134
  8
0
  6
CONTINUOUS
 62
     3
 10
320.237060546875
 20
65.135986328125
 30
0.0
 11
322.737060546875
 21
62.635986328125
 31
0.0
  0
LINE
  5
   135
  8
0
  6
CONTINUOUS
 62
     3
 10
320.237060546875
 20
67.2573089599609
 30
0.0
 11
322.737060546875
 21
64.7573089599609
 31
0.0
  0
LINE
  5
   136
  8
0
  6
CONTINUOUS
 62
     3
 10
320.237060546875
 20
69.3786315917969
 30
0.0
 11
322.737060546875
 21
66.8786315917969
 31
0.0
  0
LINE
  5
   137
  8
0
  6
CONTINUOUS
 62
     3
 10
320.237060546875
 20
71.4999542236328
 30
0.0
 11
322.737060546875
 21
68.9999542236328
 31
0.0
  0
LINE
  5
   138
  8
0
  6
CONTINUOUS
 62
     3
 10
322.3583984375
 20
71.4999389648438
 30
0.0
 11
322.737060546875
 21
71.1212768554688
 31
0.0
  0
ENDBLK
  5
   139
  8
0
  6
CONTINUOUS
 62
     7
  0
BLOCK
  5
   13A
  8
0
  6
CONTINUOUS
 62
     7
  2
*HATCH90
 70
    65
 10
0.0
 20
0.0
 30
0.0
  3
*HATCH90
  0
LINE
  5
   13B
  8
0
  6
CONTINUOUS
 62
   210
 10
297.253295898438
 20
82.9999389648438
 30
0.0
 11
294.995452880859
 21
80.742073059082
 31
0.0
  0
LINE
  5
   13C
  8
0
  6
CONTINUOUS
 62
   210
 10
301.495941162109
 20
82.9999389648438
 30
0.0
 11
296.495941162109
 21
77.9999389648438
 31
0.0
  0
LINE
  5
   13D
  8
0
  6
CONTINUOUS
 62
   210
 10
302.537048339844
 20
79.7983932495117
 30
0.0
 11
300.738586425781
 21
77.9999389648438
 31
0.0
  0
ENDBLK
  5
   13E
  8
0
  6
CONTINUOUS
 62
     7
  0
BLOCK
  5
   13F
  8
0
  6
CONTINUOUS
 62
     7
  2
*HATCH91
 70
    65
 10
0.0
 20
0.0
 30
0.0
  3
*HATCH91
  0
LINE
  5
   140
  8
0
  6
CONTINUOUS
 62
   210
 10
314.223846435547
 20
82.9999389648438
 30
0.0
 11
310.937042236328
 21
79.7131118774414
 31
0.0
  0
LINE
  5
   141
  8
0
  6
CONTINUOUS
 62
   210
 10
315.737060546875
 20
80.2704696655274
 30
0.0
 11
313.466491699219
 21
77.9999389648438
 31
0.0
  0
ENDBLK
  5
   142
  8
0
  6
CONTINUOUS
 62
     7
  0
BLOCK
  5
   143
  8
0
  6
CONTINUOUS
 62
     7
  2
*UDIM202
 70
    65
 10
0.0
 20
0.0
 30
0.0
  3
*UDIM202
  0
TEXT
  5
   144
  8
0
  6
CONTINUOUS
 62
     7
 10
186.236163418475
 20
67.8257196953279
 30
0.0
 40
2.99999997871263
  1
307,5
 50
89.9999999480344
 41
0.933333333333333
 72
     1
 11
184.736163435187
 21
74.5257196491447
 31
0.0
 73
     2
  0
LINE
  5
   145
  8
0
  6
CONTINUOUS
 62
     7
 10
222.63121421122
 20
20.7132293517586
 30
0.0
 11
185.236163424544
 21
20.7132293517586
 31
0.0
  0
LINE
  5
   146
  8
0
  6
CONTINUOUS
 62
     7
 10
222.631223046761
 20
128.338209946531
 30
0.0
 11
185.236163424544
 21
128.338209946531
 31
0.0
  0
LINE
  5
   147
  8
0
  6
CONTINUOUS
 62
     7
 10
187.236163424544
 20
20.7132293517586
 30
0.0
 11
187.236163424544
 21
128.338209946531
 31
0.0
  0
LINE
  5
   148
  8
0
  6
CONTINUOUS
 62
     7
 10
186.459706268125
 20
23.6110068249691
 30
0.0
 11
187.236163424544
 21
20.7132293517586
 31
0.0
  0
LINE
  5
   149
  8
0
  6
CONTINUOUS
 62
     7
 10
187.236163424544
 20
20.7132293517586
 30
0.0
 11
188.012620580962
 21
23.6110068249691
 31
0.0
  0
LINE
  5
   14A
  8
0
  6
CONTINUOUS
 62
     7
 10
188.012620580962
 20
125.44043247332
 30
0.0
 11
187.236163424544
 21
128.338209946531
 31
0.0
  0
LINE
  5
   14B
  8
0
  6
CONTINUOUS
 62
     7
 10
187.236163424544
 20
128.338209946531
 30
0.0
 11
186.459706268125
 21
125.44043247332
 31
0.0
  0
ENDBLK
  5
   14C
  8
0
  6
CONTINUOUS
 62
     7
  0
BLOCK
  5
   14D
  8
0
  6
CONTINUOUS
 62
     7
  2
*UDIM203
 70
    65
 10
0.0
 20
0.0
 30
0.0
  3
*UDIM203
  0
TEXT
  5
   14E
  8
0
  6
CONTINUOUS
 62
     7
 10
219.556223089979
 20
150.603542877518
 30
0.0
 40
2.99999997871263
  1
25
 50
359.999999948034
 41
0.933333333333333
 72
     1
 11
222.056223073592
 21
152.103542864619
 31
0.0
 73
     2
  0
LINE
  5
   14F
  8
0
  6
CONTINUOUS
 62
     7
 10
226.431222999078
 20
132.488209892887
 30
0.0
 11
226.431222999078
 21
151.603542875263
 31
0.0
  0
LINE
  5
   150
  8
0
  6
CONTINUOUS
 62
     7
 10
217.681223148107
 20
134.063214212383
 30
0.0
 11
217.681223148107
 21
151.603542875263
 31
0.0
  0
LINE
  5
   151
  8
0
  6
CONTINUOUS
 62
     7
 10
226.431222999078
 20
149.603542875263
 30
0.0
 11
212.681223148107
 21
149.603542875263
 31
0.0
  0
LINE
  5
   152
  8
0
  6
CONTINUOUS
 62
     7
 10
229.329000472288
 20
150.380000031682
 30
0.0
 11
226.431222999078
 21
149.603542875263
 31
0.0
  0
LINE
  5
   153
  8
0
  6
CONTINUOUS
 62
     7
 10
226.431222999078
 20
149.603542875263
 30
0.0
 11
229.329000472288
 21
148.827085718844
 31
0.0
  0
LINE
  5
   154
  8
0
  6
CONTINUOUS
 62
     7
 10
214.783445674897
 20
148.827085718844
 30
0.0
 11
217.681223148107
 21
149.603542875263
 31
0.0
  0
LINE
  5
   155
  8
0
  6
CONTINUOUS
 62
     7
 10
217.681223148107
 20
149.603542875263
 30
0.0
 11
214.783445674897
 21
150.380000031682
 31
0.0
  0
ENDBLK
  5
   156
  8
0
  6
CONTINUOUS
 62
     7
  0
BLOCK
  5
   157
  8
0
  6
CONTINUOUS
 62
     7
  2
*UDIM204
 70
    65
 10
0.0
 20
0.0
 30
0.0
  3
*UDIM204
  0
TEXT
  5
   158
  8
0
  6
CONTINUOUS
 62
     7
 10
233.363016788948
 20
150.603542881306
 30
0.0
 40
2.99999997871263
  1
5 min
 50
359.999999948034
 41
0.933333333333333
 72
     1
 11
240.06301674276
 21
152.103542864619
 31
0.0
 73
     2
  0
LINE
  5
   159
  8
0
  6
CONTINUOUS
 62
     7
 10
228.531222963315
 20
132.488209892887
 30
0.0
 11
228.531222963315
 21
151.603542875263
 31
0.0
  0
LINE
  5
   15A
  8
0
  6
CONTINUOUS
 62
     7
 10
246.763016695218
 20
149.603542875263
 30
0.0
 11
226.431222999078
 21
149.603542875263
 31
0.0
  0
LINE
  5
   15B
  8
0
  6
CONTINUOUS
 62
     7
 10
231.429000436525
 20
150.380000031682
 30
0.0
 11
228.531222963315
 21
149.603542875263
 31
0.0
  0
LINE
  5
   15C
  8
0
  6
CONTINUOUS
 62
     7
 10
228.531222963315
 20
149.603542875263
 30
0.0
 11
231.429000436525
 21
148.827085718844
 31
0.0
  0
CIRCLE
  5
   15D
  8
0
  6
CONTINUOUS
 62
     7
 10
226.431222999078
 20
149.603542875263
 30
0.0
 40
0.500000000000001
  0
ENDBLK
  5
   15E
  8
0
  6
CONTINUOUS
 62
     7
  0
BLOCK
  5
   15F
  8
0
  6
CONTINUOUS
 62
     7
  2
*UDIM205
 70
    65
 10
0.0
 20
0.0
 30
0.0
  3
*UDIM205
  0
TEXT
  5
   160
  8
0
  6
CONTINUOUS
 62
     7
 10
228.743722891793
 20
175.277913990792
 30
0.0
 40
2.99999997871263
  1
101,5
 50
359.999999948034
 41
0.933333333333333
 72
     1
 11
235.443722845605
 21
176.777913974105
 31
0.0
 73
     2
  0
LINE
  5
   161
  8
0
  6
CONTINUOUS
 62
     7
 10
253.206222543102
 20
134.500714204933
 30
0.0
 11
253.206222543102
 21
176.277913984749
 31
0.0
  0
LINE
  5
   162
  8
0
  6
CONTINUOUS
 62
     7
 10
217.681223148107
 20
134.063214212383
 30
0.0
 11
217.681223148107
 21
176.277913984749
 31
0.0
  0
LINE
  5
   163
  8
0
  6
CONTINUOUS
 62
     7
 10
253.206222543102
 20
174.277913984749
 30
0.0
 11
217.681223148107
 21
174.277913984749
 31
0.0
  0
LINE
  5
   164
  8
0
  6
CONTINUOUS
 62
     7
 10
250.308445069891
 20
173.50145682833
 30
0.0
 11
253.206222543102
 21
174.277913984749
 31
0.0
  0
LINE
  5
   165
  8
0
  6
CONTINUOUS
 62
     7
 10
253.206222543102
 20
174.277913984749
 30
0.0
 11
250.308445069891
 21
175.054371141167
 31
0.0
  0
LINE
  5
   166
  8
0
  6
CONTINUOUS
 62
     7
 10
220.579000621318
 20
175.054371141167
 30
0.0
 11
217.681223148107
 21
174.277913984749
 31
0.0
  0
LINE
  5
   167
  8
0
  6
CONTINUOUS
 62
     7
 10
217.681223148107
 20
174.277913984749
 30
0.0
 11
220.579000621318
 21
173.50145682833
 31
0.0
  0
ENDBLK
  5
   168
  8
0
  6
CONTINUOUS
 62
     7
  0
BLOCK
  5
   169
  8
0
  6
CONTINUOUS
 62
     7
  2
*UDIM206
 70
    65
 10
0.0
 20
0.0
 30
0.0
  3
*UDIM206
  0
TEXT
  5
   16A
  8
0
  6
CONTINUOUS
 62
     7
 10
209.311950092625
 20
3.97922913073648
 30
0.0
 40
2.99999997871263
  1
3
 50
359.999999948034
 41
0.933333333333333
 72
     1
 11
210.411950086172
 21
5.47922911910065
 31
0.0
 73
     2
  0
TEXT
  5
   16B
  8
0
  6
CONTINUOUS
 62
     7
 10
205.745283408248
 20
3.72922910833722
 30
0.0
 40
3.50000002384186
  1
_
 50
359.999999948034
 41
0.933333333333333
 72
     1
 11
207.028616751902
 21
5.47922911910065
 31
0.0
 73
     2
  0
LINE
  5
   16C
  8
0
  6
CONTINUOUS
 62
     7
 10
217.331223154068
 20
7.22450093638364
 30
0.0
 11
217.331223154068
 21
0.97922912974434
 31
0.0
  0
LINE
  5
   16D
  8
0
  6
CONTINUOUS
 62
     7
 10
216.281223171949
 20
7.21484618290475
 30
0.0
 11
216.281223171949
 21
0.97922912974434
 31
0.0
  0
LINE
  5
   16E
  8
0
  6
CONTINUOUS
 62
     7
 10
217.331223154068
 20
2.97922912974434
 30
0.0
 11
205.745283409827
 21
2.97922912974434
 31
0.0
  0
CIRCLE
  5
   16F
  8
0
  6
CONTINUOUS
 62
     7
 10
217.331223154068
 20
2.97922912974434
 30
0.0
 40
0.500000000000001
  0
LINE
  5
   170
  8
0
  6
CONTINUOUS
 62
     7
 10
213.383445698739
 20
2.2027719733258
 30
0.0
 11
216.281223171949
 21
2.97922912974434
 31
0.0
  0
LINE
  5
   171
  8
0
  6
CONTINUOUS
 62
     7
 10
216.281223171949
 20
2.97922912974434
 30
0.0
 11
213.383445698739
 21
3.75568628616288
 31
0.0
  0
ENDBLK
  5
   172
  8
0
  6
CONTINUOUS
 62
     7
  0
BLOCK
  5
   173
  8
0
  6
CONTINUOUS
 62
     7
  2
*UDIM207
 70
    65
 10
0.0
 20
0.0
 30
0.0
  3
*UDIM207
  0
TEXT
  5
   174
  8
0
  6
CONTINUOUS
 62
     7
 10
222.297360561792
 20
3.97922913073648
 30
0.0
 40
2.99999997871263
  1
1
 50
359.999999948034
 41
0.933333333333333
 72
     1
 11
223.39736055534
 21
5.47922911910065
 31
0.0
 73
     2
  0
LINE
  5
   175
  8
0
  6
CONTINUOUS
 62
     7
 10
217.681223148107
 20
13.4132341969062
 30
0.0
 11
217.681223148107
 21
0.97922912974434
 31
0.0
  0
LINE
  5
   176
  8
0
  6
CONTINUOUS
 62
     7
 10
224.497360547534
 20
2.97922912974434
 30
0.0
 11
217.331223154068
 21
2.97922912974434
 31
0.0
  0
LINE
  5
   177
  8
0
  6
CONTINUOUS
 62
     7
 10
220.579000621318
 20
3.75568628616288
 30
0.0
 11
217.681223148107
 21
2.97922912974434
 31
0.0
  0
LINE
  5
   178
  8
0
  6
CONTINUOUS
 62
     7
 10
217.681223148107
 20
2.97922912974434
 30
0.0
 11
220.579000621318
 21
2.2027719733258
 31
0.0
  0
CIRCLE
  5
   179
  8
0
  6
CONTINUOUS
 62
     7
 10
217.331223154068
 20
2.97922912974434
 30
0.0
 40
0.500000000000001
  0
ENDBLK
  5
   17A
  8
0
  6
CONTINUOUS
 62
     7
  0
BLOCK
  5
   17B
  8
0
  6
CONTINUOUS
 62
     7
  2
*UDIM208
 70
    65
 10
0.0
 20
0.0
 30
0.0
  3
*UDIM208
  0
TEXT
  5
   17C
  8
0
  6
CONTINUOUS
 62
     7
 10
218.102325732844
 20
-3.24882816758735
 30
0.0
 40
2.99999997871263
  1
20
 50
359.999999948034
 41
0.933333333333333
 72
     1
 11
220.602325716457
 21
-1.7488281804859
 31
0.0
 73
     2
  0
LINE
  5
   17D
  8
0
  6
CONTINUOUS
 62
     7
 10
224.681214860911
 20
16.2132115051923
 30
0.0
 11
224.681214860911
 21
-6.24882816984222
 31
0.0
  0
LINE
  5
   17E
  8
0
  6
CONTINUOUS
 62
     7
 10
217.681223148107
 20
13.4132341969062
 30
0.0
 11
217.681223148107
 21
-6.24882816984222
 31
0.0
  0
LINE
  5
   17F
  8
0
  6
CONTINUOUS
 62
     7
 10
229.681214860911
 20
-4.24882816984222
 30
0.0
 11
212.681223148107
 21
-4.24882816984222
 31
0.0
  0
LINE
  5
   180
  8
0
  6
CONTINUOUS
 62
     7
 10
227.578992334122
 20
-3.47237101342367
 30
0.0
 11
224.681214860911
 21
-4.24882816984222
 31
0.0
  0
LINE
  5
   181
  8
0
  6
CONTINUOUS
 62
     7
 10
224.681214860911
 20
-4.24882816984222
 30
0.0
 11
227.578992334122
 21
-5.02528532626076
 31
0.0
  0
LINE
  5
   182
  8
0
  6
CONTINUOUS
 62
     7
 10
214.783445674897
 20
-5.02528532626076
 30
0.0
 11
217.681223148107
 21
-4.24882816984222
 31
0.0
  0
LINE
  5
   183
  8
0
  6
CONTINUOUS
 62
     7
 10
217.681223148107
 20
-4.24882816984222
 30
0.0
 11
214.783445674897
 21
-3.47237101342367
 31
0.0
  0
ENDBLK
  5
   184
  8
0
  6
CONTINUOUS
 62
     7
  0
BLOCK
  5
   185
  8
0
  6
CONTINUOUS
 62
     7
  2
*UDIM209
 70
    65
 10
0.0
 20
0.0
 30
0.0
  3
*UDIM209
  0
TEXT
  5
   186
  8
0
  6
CONTINUOUS
 62
     7
 10
218.547413492823
 20
-9.96806369132013
 30
0.0
 40
2.99999997871263
  1
5
 50
359.999999948034
 41
0.933333333333333
 72
     1
 11
219.64741348637
 21
-8.46806370295596
 31
0.0
 73
     2
  0
LINE
  5
   187
  8
0
  6
CONTINUOUS
 62
     7
 10
226.431214831109
 20
16.2132115051923
 30
0.0
 11
226.431214831109
 21
-12.9680636923123
 31
0.0
  0
LINE
  5
   188
  8
0
  6
CONTINUOUS
 62
     7
 10
224.681214860911
 20
16.2132115051923
 30
0.0
 11
224.681214860911
 21
-12.9680636923123
 31
0.0
  0
LINE
  5
   189
  8
0
  6
CONTINUOUS
 62
     7
 10
226.431214831109
 20
-10.9680636923123
 30
0.0
 11
218.547413494175
 21
-10.9680636923123
 31
0.0
  0
CIRCLE
  5
   18A
  8
0
  6
CONTINUOUS
 62
     7
 10
226.431214831109
 20
-10.9680636923123
 30
0.0
 40
0.500000000000001
  0
LINE
  5
   18B
  8
0
  6
CONTINUOUS
 62
     7
 10
221.783437387701
 20
-11.7445208487308
 30
0.0
 11
224.681214860911
 21
-10.9680636923123
 31
0.0
  0
LINE
  5
   18C
  8
0
  6
CONTINUOUS
 62
     7
 10
224.681214860911
 20
-10.9680636923123
 30
0.0
 11
221.783437387701
 21
-10.1916065358937
 31
0.0
  0
ENDBLK
  5
   18D
  8
0
  6
CONTINUOUS
 62
     7
  0
BLOCK
  5
   18E
  8
0
  6
CONTINUOUS
 62
     7
  2
*UDIM210
 70
    65
 10
0.0
 20
0.0
 30
0.0
  3
*UDIM210
  0
TEXT
  5
   18F
  8
0
  6
CONTINUOUS
 62
     7
 10
232.766542765366
 20
-9.96806369132013
 30
0.0
 40
2.99999997871263
  1
5
 50
359.999999948034
 41
0.933333333333333
 72
     1
 11
233.866542758914
 21
-8.46806370295596
 31
0.0
 73
     2
  0
TEXT
  5
   190
  8
0
  6
CONTINUOUS
 62
     7
 10
235.96654274953
 20
-10.2180637092999
 30
0.0
 40
3.50000002384186
  1
 min
 50
359.999999948034
 41
0.933333333333333
 72
     1
 11
242.149876126563
 21
-8.46806370295596
 31
0.0
 73
     2
  0
LINE
  5
   191
  8
0
  6
CONTINUOUS
 62
     7
 10
228.181214133734
 20
16.5632294054028
 30
0.0
 11
228.181214133734
 21
-12.9680636923123
 31
0.0
  0
LINE
  5
   192
  8
0
  6
CONTINUOUS
 62
     7
 10
248.333209502016
 20
-10.9680636923123
 30
0.0
 11
226.431214831109
 21
-10.9680636923123
 31
0.0
  0
LINE
  5
   193
  8
0
  6
CONTINUOUS
 62
     7
 10
231.078991606945
 20
-10.1916065358937
 30
0.0
 11
228.181214133734
 21
-10.9680636923123
 31
0.0
  0
LINE
  5
   194
  8
0
  6
CONTINUOUS
 62
     7
 10
228.181214133734
 20
-10.9680636923123
 30
0.0
 11
231.078991606945
 21
-11.7445208487308
 31
0.0
  0
CIRCLE
  5
   195
  8
0
  6
CONTINUOUS
 62
     7
 10
226.431214831109
 20
-10.9680636923123
 30
0.0
 40
0.500000000000001
  0
ENDBLK
  5
   196
  8
0
  6
CONTINUOUS
 62
     7
  0
BLOCK
  5
   197
  8
0
  6
CONTINUOUS
 62
     7
  2
*UDIM211
 70
    65
 10
0.0
 20
0.0
 30
0.0
  3
*UDIM211
  0
TEXT
  5
   198
  8
0
  6
CONTINUOUS
 62
     7
 10
228.198126635301
 20
-17.0009564686056
 30
0.0
 40
2.99999997871263
  1
103,5
 50
359.999999948034
 41
0.933333333333333
 72
     1
 11
234.898126589112
 21
-15.5009564852923
 31
0.0
 73
     2
  0
LINE
  5
   199
  8
0
  6
CONTINUOUS
 62
     7
 10
253.906217190623
 20
40.1007337424208
 30
0.0
 11
253.906217190623
 21
-20.0009564746487
 31
0.0
  0
LINE
  5
   19A
  8
0
  6
CONTINUOUS
 62
     7
 10
217.681223148107
 20
13.4132341969062
 30
0.0
 11
217.681223148107
 21
-20.0009564746487
 31
0.0
  0
LINE
  5
   19B
  8
0
  6
CONTINUOUS
 62
     7
 10
253.906217190623
 20
-18.0009564746487
 30
0.0
 11
217.681223148107
 21
-18.0009564746487
 31
0.0
  0
LINE
  5
   19C
  8
0
  6
CONTINUOUS
 62
     7
 10
251.008439717413
 20
-18.7774136310672
 30
0.0
 11
253.906217190623
 21
-18.0009564746487
 31
0.0
  0
LINE
  5
   19D
  8
0
  6
CONTINUOUS
 62
     7
 10
253.906217190623
 20
-18.0009564746487
 30
0.0
 11
251.008439717413
 21
-17.2244993182301
 31
0.0
  0
LINE
  5
   19E
  8
0
  6
CONTINUOUS
 62
     7
 10
220.579000621318
 20
-17.2244993182301
 30
0.0
 11
217.681223148107
 21
-18.0009564746487
 31
0.0
  0
LINE
  5
   19F
  8
0
  6
CONTINUOUS
 62
     7
 10
217.681223148107
 20
-18.0009564746487
 30
0.0
 11
220.579000621318
 21
-18.7774136310672
 31
0.0
  0
ENDBLK
  5
   1A0
  8
0
  6
CONTINUOUS
 62
     7
  0
BLOCK
  5
   1A1
  8
0
  6
CONTINUOUS
 62
     7
  2
*UDIM212
 70
    65
 10
0.0
 20
0.0
 30
0.0
  3
*UDIM212
  0
TEXT
  5
   1A2
  8
0
  6
CONTINUOUS
 62
     7
 10
232.506221186613
 20
-23.5738186056635
 30
0.0
 40
2.99999997871263
  1
107
 50
359.999999948034
 41
0.933333333333333
 72
     1
 11
236.406221160292
 21
-22.0738186198248
 31
0.0
 73
     2
  0
LINE
  5
   1A3
  8
0
  6
CONTINUOUS
 62
     7
 10
255.131219172477
 20
10.8274398594426
 30
0.0
 11
255.131219172477
 21
-26.5738186091811
 31
0.0
  0
LINE
  5
   1A4
  8
0
  6
CONTINUOUS
 62
     7
 10
217.681223148107
 20
13.4132341969062
 30
0.0
 11
217.681223148107
 21
-26.5738186091811
 31
0.0
  0
LINE
  5
   1A5
  8
0
  6
CONTINUOUS
 62
     7
 10
255.131219172477
 20
-24.5738186091811
 30
0.0
 11
217.681223148107
 21
-24.5738186091811
 31
0.0
  0
LINE
  5
   1A6
  8
0
  6
CONTINUOUS
 62
     7
 10
252.233441699267
 20
-25.3502757655996
 30
0.0
 11
255.131219172477
 21
-24.5738186091811
 31
0.0
  0
LINE
  5
   1A7
  8
0
  6
CONTINUOUS
 62
     7
 10
255.131219172477
 20
-24.5738186091811
 30
0.0
 11
252.233441699267
 21
-23.7973614527625
 31
0.0
  0
LINE
  5
   1A8
  8
0
  6
CONTINUOUS
 62
     7
 10
220.579000621318
 20
-23.7973614527625
 30
0.0
 11
217.681223148107
 21
-24.5738186091811
 31
0.0
  0
LINE
  5
   1A9
  8
0
  6
CONTINUOUS
 62
     7
 10
217.681223148107
 20
-24.5738186091811
 30
0.0
 11
220.579000621318
 21
-25.3502757655996
 31
0.0
  0
ENDBLK
  5
   1AA
  8
0
  6
CONTINUOUS
 62
     7
  0
BLOCK
  5
   1AB
  8
0
  6
CONTINUOUS
 62
     7
  2
*UDIM213
 70
    65
 10
0.0
 20
0.0
 30
0.0
  3
*UDIM213
  0
TEXT
  5
   1AC
  8
0
  6
CONTINUOUS
 62
     7
 10
262.138802468288
 20
-23.5738186081889
 30
0.0
 40
2.99999997871263
  1
2
 50
359.999999948034
 41
0.933333333333333
 72
     1
 11
263.238802461835
 21
-22.0738186198248
 31
0.0
 73
     2
  0
LINE
  5
   1AD
  8
0
  6
CONTINUOUS
 62
     7
 10
255.831219160557
 20
11.2570950245394
 30
0.0
 11
255.831219160557
 21
-26.5738186091811
 31
0.0
  0
LINE
  5
   1AE
  8
0
  6
CONTINUOUS
 62
     7
 10
264.33880245403
 20
-24.5738186091811
 30
0.0
 11
255.131219172477
 21
-24.5738186091811
 31
0.0
  0
LINE
  5
   1AF
  8
0
  6
CONTINUOUS
 62
     7
 10
258.728996633767
 20
-23.7973614527625
 30
0.0
 11
255.831219160557
 21
-24.5738186091811
 31
0.0
  0
LINE
  5
   1B0
  8
0
  6
CONTINUOUS
 62
     7
 10
255.831219160557
 20
-24.5738186091811
 30
0.0
 11
258.728996633767
 21
-25.3502757655996
 31
0.0
  0
LINE
  5
   1B1
  8
0
  6
CONTINUOUS
 62
     7
 10
252.233441699267
 20
-25.3502757655996
 30
0.0
 11
255.131219172477
 21
-24.5738186091811
 31
0.0
  0
LINE
  5
   1B2
  8
0
  6
CONTINUOUS
 62
     7
 10
255.131219172477
 20
-24.5738186091811
 30
0.0
 11
252.233441699267
 21
-23.7973614527625
 31
0.0
  0
ENDBLK
  5
   1B3
  8
0
  6
CONTINUOUS
 62
     7
  0
BLOCK
  5
   1B4
  8
0
  6
CONTINUOUS
 62
     7
  2
*UDIM214
 70
    65
 10
0.0
 20
0.0
 30
0.0
  3
*UDIM214
  0
TEXT
  5
   1B5
  8
0
  6
CONTINUOUS
 62
     7
 10
237.413934558431
 20
-30.4045767094194
 30
0.0
 40
2.99999997871263
  1
135
 50
359.999999948034
 41
0.933333333333333
 72
     1
 11
241.31393453211
 21
-28.9045767235806
 31
0.0
 73
     2
  0
LINE
  5
   1B6
  8
0
  6
CONTINUOUS
 62
     7
 10
264.946645916114
 20
54.8882334905911
 30
0.0
 11
264.946645916114
 21
-33.4045767129369
 31
0.0
  0
LINE
  5
   1B7
  8
0
  6
CONTINUOUS
 62
     7
 10
217.681223148107
 20
13.4132341969062
 30
0.0
 11
217.681223148107
 21
-33.4045767129369
 31
0.0
  0
LINE
  5
   1B8
  8
0
  6
CONTINUOUS
 62
     7
 10
264.946645916114
 20
-31.404576712937
 30
0.0
 11
217.681223148107
 21
-31.404576712937
 31
0.0
  0
LINE
  5
   1B9
  8
0
  6
CONTINUOUS
 62
     7
 10
262.048868442903
 20
-32.1810338693555
 30
0.0
 11
264.946645916114
 21
-31.404576712937
 31
0.0
  0
LINE
  5
   1BA
  8
0
  6
CONTINUOUS
 62
     7
 10
264.946645916114
 20
-31.404576712937
 30
0.0
 11
262.048868442903
 21
-30.6281195565184
 31
0.0
  0
LINE
  5
   1BB
  8
0
  6
CONTINUOUS
 62
     7
 10
220.579000621318
 20
-30.6281195565184
 30
0.0
 11
217.681223148107
 21
-31.404576712937
 31
0.0
  0
LINE
  5
   1BC
  8
0
  6
CONTINUOUS
 62
     7
 10
217.681223148107
 20
-31.404576712937
 30
0.0
 11
220.579000621318
 21
-32.1810338693555
 31
0.0
  0
ENDBLK
  5
   1BD
  8
0
  6
CONTINUOUS
 62
     7
  0
BLOCK
  5
   1BE
  8
0
  6
CONTINUOUS
 62
     7
  2
*UDIM215
 70
    65
 10
0.0
 20
0.0
 30
0.0
  3
*UDIM215
  0
TEXT
  5
   1BF
  8
0
  6
CONTINUOUS
 62
     7
 10
276.4581069685
 20
55.300729961702
 30
0.0
 40
2.99999997871263
  1
105
 50
89.9999999480344
 41
0.933333333333333
 72
     1
 11
274.958106982676
 21
59.200729935387
 31
0.0
 73
     2
  0
LINE
  5
   1C0
  8
0
  6
CONTINUOUS
 62
     7
 10
256.131219172477
 20
41.1007337424208
 30
0.0
 11
279.458106972032
 21
41.1007337424208
 31
0.0
  0
LINE
  5
   1C1
  8
0
  6
CONTINUOUS
 62
     7
 10
256.131219172477
 20
77.8507224354198
 30
0.0
 11
279.458106972032
 21
77.8507224354198
 31
0.0
  0
LINE
  5
   1C2
  8
0
  6
CONTINUOUS
 62
     7
 10
277.458106972032
 20
41.1007337424208
 30
0.0
 11
277.458106972032
 21
77.8507224354198
 31
0.0
  0
LINE
  5
   1C3
  8
0
  6
CONTINUOUS
 62
     7
 10
276.93716254208
 20
44.0551570196277
 30
0.0
 11
277.458106972032
 21
41.1007337424208
 31
0.0
  0
LINE
  5
   1C4
  8
0
  6
CONTINUOUS
 62
     7
 10
277.458106972032
 20
41.1007337424208
 30
0.0
 11
277.979051401984
 21
44.0551570196277
 31
0.0
  0
LINE
  5
   1C5
  8
0
  6
CONTINUOUS
 62
     7
 10
277.979051401984
 20
74.8962991582129
 30
0.0
 11
277.458106972032
 21
77.8507224354198
 31
0.0
  0
LINE
  5
   1C6
  8
0
  6
CONTINUOUS
 62
     7
 10
277.458106972032
 20
77.8507224354198
 30
0.0
 11
276.93716254208
 21
74.8962991582129
 31
0.0
  0
ENDBLK
  5
   1C7
  8
0
  6
CONTINUOUS
 62
     7
  0
BLOCK
  5
   1C8
  8
0
  6
CONTINUOUS
 62
     7
  2
*UDIM216
 70
    65
 10
0.0
 20
0.0
 30
0.0
  3
*UDIM216
  0
TEXT
  5
   1C9
  8
0
  6
CONTINUOUS
 62
     7
 10
263.108867752371
 20
115.963218428048
 30
0.0
 40
2.99999997871263
  1
11
 50
89.9999999480344
 41
0.933333333333333
 72
     1
 11
261.608867765279
 21
118.463218411667
 31
0.0
 73
     2
  0
LINE
  5
   1CA
  8
0
  6
CONTINUOUS
 62
     7
 10
231.800452282447
 20
124.488210012096
 30
0.0
 11
266.108867754635
 21
124.488210012096
 31
0.0
  0
LINE
  5
   1CB
  8
0
  6
CONTINUOUS
 62
     7
 10
232.85622290669
 20
128.338209946531
 30
0.0
 11
266.108867754635
 21
128.338209946531
 31
0.0
  0
LINE
  5
   1CC
  8
0
  6
CONTINUOUS
 62
     7
 10
264.108867754635
 20
115.963218429407
 30
0.0
 11
264.108867754635
 21
128.338209946531
 31
0.0
  0
LINE
  5
   1CD
  8
0
  6
CONTINUOUS
 62
     7
 10
264.629812184587
 20
121.533786734889
 30
0.0
 11
264.108867754635
 21
124.488210012096
 31
0.0
  0
LINE
  5
   1CE
  8
0
  6
CONTINUOUS
 62
     7
 10
264.108867754635
 20
124.488210012096
 30
0.0
 11
263.587923324684
 21
121.533786734889
 31
0.0
  0
LINE
  5
   1CF
  8
0
  6
CONTINUOUS
 62
     7
 10
263.587923324684
 20
131.292633223738
 30
0.0
 11
264.108867754635
 21
128.338209946531
 31
0.0
  0
LINE
  5
   1D0
  8
0
  6
CONTINUOUS
 62
     7
 10
264.108867754635
 20
128.338209946531
 30
0.0
 11
264.629812184587
 21
131.292633223738
 31
0.0
  0
ENDBLK
  5
   1D1
  8
0
  6
CONTINUOUS
 62
     7
  0
BLOCK
  5
   1D2
  8
0
  6
CONTINUOUS
 62
     7
  2
*UDIM217
 70
    65
 10
0.0
 20
0.0
 30
0.0
  3
*UDIM217
  0
TEXT
  5
   1D3
  8
0
  6
CONTINUOUS
 62
     7
 10
193.998124924767
 20
31.7194767635228
 30
0.0
 40
2.99999997871263
  1
110,75
 50
89.9999999480344
 41
0.933333333333333
 72
     1
 11
192.498124942747
 21
39.8194767074055
 31
0.0
 73
     2
  0
LINE
  5
   1D4
  8
0
  6
CONTINUOUS
 62
     7
 10
222.63121421122
 20
20.7132293517586
 30
0.0
 11
192.998124932103
 21
20.7132293517586
 31
0.0
  0
LINE
  5
   1D5
  8
0
  6
CONTINUOUS
 62
     7
 10
206.509294059185
 20
59.4757227483442
 30
0.0
 11
192.998124932103
 21
59.4757227483442
 31
0.0
  0
LINE
  5
   1D6
  8
0
  6
CONTINUOUS
 62
     7
 10
194.998124932103
 20
20.7132293517586
 30
0.0
 11
194.998124932103
 21
59.4757227483442
 31
0.0
  0
LINE
  5
   1D7
  8
0
  6
CONTINUOUS
 62
     7
 10
194.477180502151
 20
23.6676526289655
 30
0.0
 11
194.998124932103
 21
20.7132293517586
 31
0.0
  0
LINE
  5
   1D8
  8
0
  6
CONTINUOUS
 62
     7
 10
194.998124932103
 20
20.7132293517586
 30
0.0
 11
195.519069362055
 21
23.6676526289655
 31
0.0
  0
LINE
  5
   1D9
  8
0
  6
CONTINUOUS
 62
     7
 10
195.519069362055
 20
56.5212994711373
 30
0.0
 11
194.998124932103
 21
59.4757227483442
 31
0.0
  0
LINE
  5
   1DA
  8
0
  6
CONTINUOUS
 62
     7
 10
194.998124932103
 20
59.4757227483442
 30
0.0
 11
194.477180502151
 21
56.5212994711373
 31
0.0
  0
ENDBLK
  5
   1DB
  8
0
  6
CONTINUOUS
 62
     7
  0
BLOCK
  5
   1DC
  8
0
  6
CONTINUOUS
 62
     7
  2
*UDIM218
 70
    65
 10
0.0
 20
0.0
 30
0.0
  3
*UDIM218
  0
TEXT
  5
   1DD
  8
0
  6
CONTINUOUS
 62
     7
 10
201.660468396762
 20
28.5619034167738
 30
0.0
 40
2.99999997871263
  1
11
 50
89.9999999480344
 41
0.933333333333333
 72
     1
 11
200.16046840967
 21
31.0619034003929
 31
0.0
 73
     2
  0
LINE
  5
   1DE
  8
0
  6
CONTINUOUS
 62
     7
 10
222.63121421122
 20
20.7132293517586
 30
0.0
 11
200.660468399026
 21
20.7132293517586
 31
0.0
  0
LINE
  5
   1DF
  8
0
  6
CONTINUOUS
 62
     7
 10
225.431214163537
 20
24.5631934738515
 30
0.0
 11
200.660468399026
 21
24.5631934738515
 31
0.0
  0
LINE
  5
   1E0
  8
0
  6
CONTINUOUS
 62
     7
 10
202.660468399026
 20
20.7132293517586
 30
0.0
 11
202.660468399026
 21
33.5619033826534
 31
0.0
  0
LINE
  5
   1E1
  8
0
  6
CONTINUOUS
 62
     7
 10
203.181412828978
 20
17.7588060745516
 30
0.0
 11
202.660468399026
 21
20.7132293517586
 31
0.0
  0
LINE
  5
   1E2
  8
0
  6
CONTINUOUS
 62
     7
 10
202.660468399026
 20
20.7132293517586
 30
0.0
 11
202.139523969075
 21
17.7588060745516
 31
0.0
  0
LINE
  5
   1E3
  8
0
  6
CONTINUOUS
 62
     7
 10
202.139523969075
 20
27.5176167510585
 30
0.0
 11
202.660468399026
 21
24.5631934738515
 31
0.0
  0
LINE
  5
   1E4
  8
0
  6
CONTINUOUS
 62
     7
 10
202.660468399026
 20
24.5631934738515
 30
0.0
 11
203.181412828978
 21
27.5176167510585
 31
0.0
  0
ENDBLK
  5
   1E5
  8
0
  6
CONTINUOUS
 62
     7
  0
BLOCK
  5
   1E6
  8
0
  6
CONTINUOUS
 62
     0
  2
ON-OFF
 70
    64
 10
0.0
 20
0.0
 30
0.0
  3
ON-OFF
  0
LINE
  5
   1E7
  8
0
  6
CONTINUOUS
 62
     0
 10
5.09999999999999
 20
-29.65
 30
0.0
 11
5.54999999999999
 21
-29.65
 31
0.0
  0
LINE
  5
   1E8
  8
0
  6
CONTINUOUS
 62
     0
 10
3.79999999999999
 20
-37.35
 30
0.0
 11
4.59999999999999
 21
-37.35
 31
0.0
  0
LINE
  5
   1E9
  8
0
  6
CONTINUOUS
 62
     0
 10
-2.6
 20
-34.75
 30
0.0
 11
-2.6
 21
-34.25
 31
0.0
  0
LINE
  5
   1EA
  8
0
  6
CONTINUOUS
 62
     0
 10
2.6
 20
-34.75
 30
0.0
 11
2.6
 21
-34.25
 31
0.0
  0
ARC
  5
   1EB
  8
0
  6
CONTINUOUS
 62
     0
 10
-3.5527136788005E-15
 20
-34.25
 30
0.0
 40
2.6
 50
0.0
 51
180.0
  0
ARC
  5
   1EC
  8
0
  6
CONTINUOUS
 62
     0
 10
-3.5527136788005E-15
 20
-34.75
 30
0.0
 40
2.6
 50
180.0
 51
360.0
  0
ARC
  5
   1ED
  8
0
  6
CONTINUOUS
 62
     0
 10
-3.5527136788005E-15
 20
-34.25
 30
0.0
 40
1.8
 50
0.0
 51
180.0
  0
ARC
  5
   1EE
  8
0
  6
CONTINUOUS
 62
     0
 10
-3.5527136788005E-15
 20
-34.75
 30
0.0
 40
1.8
 50
180.0
 51
360.0
  0
LINE
  5
   1EF
  8
0
  6
CONTINUOUS
 62
     0
 10
-1.8
 20
-34.75
 30
0.0
 11
-1.8
 21
-34.25
 31
0.0
  0
LINE
  5
   1F0
  8
0
  6
CONTINUOUS
 62
     0
 10
1.8
 20
-34.75
 30
0.0
 11
1.8
 21
-34.25
 31
0.0
  0
LINE
  5
   1F1
  8
0
  6
CONTINUOUS
 62
     0
 10
2.84999999999999
 20
-32.85
 30
0.0
 11
2.84999999999999
 21
-32.05
 31
0.0
  0
LINE
  5
   1F2
  8
0
  6
CONTINUOUS
 62
     0
 10
2.84999999999999
 20
-32.85
 30
0.0
 11
3.79999999999999
 21
-32.85
 31
0.0
  0
LINE
  5
   1F3
  8
0
  6
CONTINUOUS
 62
     0
 10
5.54999999999999
 20
-32.85
 30
0.0
 11
5.54999999999999
 21
-32.05
 31
0.0
  0
LINE
  5
   1F4
  8
0
  6
CONTINUOUS
 62
     0
 10
2.84999999999999
 20
-32.05
 30
0.0
 11
3.79999999999999
 21
-32.05
 31
0.0
  0
LINE
  5
   1F5
  8
0
  6
CONTINUOUS
 62
     0
 10
3.79999999999999
 20
-37.35
 30
0.0
 11
3.79999999999999
 21
-32.85
 31
0.0
  0
LINE
  5
   1F6
  8
0
  6
CONTINUOUS
 62
     0
 10
4.59999999999999
 20
-37.35
 30
0.0
 11
4.59999999999999
 21
-32.85
 31
0.0
  0
LINE
  5
   1F7
  8
0
  6
CONTINUOUS
 62
     0
 10
4.59999999999999
 20
-32.85
 30
0.0
 11
5.54999999999999
 21
-32.85
 31
0.0
  0
LINE
  5
   1F8
  8
0
  6
CONTINUOUS
 62
     0
 10
4.59999999999999
 20
-32.05
 30
0.0
 11
5.54999999999999
 21
-32.05
 31
0.0
  0
LINE
  5
   1F9
  8
0
  6
CONTINUOUS
 62
     0
 10
3.79999999999999
 20
-32.05
 30
0.0
 11
3.79999999999999
 21
-30.95
 31
0.0
  0
LINE
  5
   1FA
  8
0
  6
CONTINUOUS
 62
     0
 10
4.59999999999999
 20
-32.05
 30
0.0
 11
4.59999999999999
 21
-30.95
 31
0.0
  0
ARC
  5
   1FB
  8
0
  6
CONTINUOUS
 62
     0
 10
5.09999999999999
 20
-30.95
 30
0.0
 40
1.3
 50
89.9999999999999
 51
180.0
  0
ARC
  5
   1FC
  8
0
  6
CONTINUOUS
 62
     0
 10
5.09999999999999
 20
-30.95
 30
0.0
 40
0.5
 50
89.9999999999999
 51
180.0
  0
LINE
  5
   1FD
  8
0
  6
CONTINUOUS
 62
     0
 10
5.54999999999999
 20
-30.45
 30
0.0
 11
5.54999999999999
 21
-29.65
 31
0.0
  0
LINE
  5
   1FE
  8
0
  6
CONTINUOUS
 62
     0
 10
5.09999999999999
 20
-30.45
 30
0.0
 11
5.54999999999999
 21
-30.45
 31
0.0
  0
LINE
  5
   1FF
  8
0
  6
CONTINUOUS
 62
     0
 10
8.29999999999998
 20
-29.65
 30
0.0
 11
8.74999999999999
 21
-29.65
 31
0.0
  0
LINE
  5
   200
  8
0
  6
CONTINUOUS
 62
     0
 10
6.99999999999999
 20
-37.35
 30
0.0
 11
7.79999999999999
 21
-37.35
 31
0.0
  0
LINE
  5
   201
  8
0
  6
CONTINUOUS
 62
     0
 10
6.04999999999999
 20
-32.85
 30
0.0
 11
6.04999999999999
 21
-32.05
 31
0.0
  0
LINE
  5
   202
  8
0
  6
CONTINUOUS
 62
     0
 10
6.04999999999999
 20
-32.85
 30
0.0
 11
6.99999999999999
 21
-32.85
 31
0.0
  0
LINE
  5
   203
  8
0
  6
CONTINUOUS
 62
     0
 10
8.74999999999999
 20
-32.85
 30
0.0
 11
8.74999999999999
 21
-32.05
 31
0.0
  0
LINE
  5
   204
  8
0
  6
CONTINUOUS
 62
     0
 10
6.04999999999999
 20
-32.05
 30
0.0
 11
6.99999999999999
 21
-32.05
 31
0.0
  0
LINE
  5
   205
  8
0
  6
CONTINUOUS
 62
     0
 10
6.99999999999999
 20
-37.35
 30
0.0
 11
6.99999999999999
 21
-32.85
 31
0.0
  0
LINE
  5
   206
  8
0
  6
CONTINUOUS
 62
     0
 10
7.79999999999999
 20
-37.35
 30
0.0
 11
7.79999999999999
 21
-32.85
 31
0.0
  0
LINE
  5
   207
  8
0
  6
CONTINUOUS
 62
     0
 10
7.79999999999999
 20
-32.85
 30
0.0
 11
8.74999999999999
 21
-32.85
 31
0.0
  0
LINE
  5
   208
  8
0
  6
CONTINUOUS
 62
     0
 10
7.79999999999999
 20
-32.05
 30
0.0
 11
8.74999999999999
 21
-32.05
 31
0.0
  0
LINE
  5
   209
  8
0
  6
CONTINUOUS
 62
     0
 10
6.99999999999999
 20
-32.05
 30
0.0
 11
6.99999999999999
 21
-30.95
 31
0.0
  0
LINE
  5
   20A
  8
0
  6
CONTINUOUS
 62
     0
 10
7.79999999999999
 20
-32.05
 30
0.0
 11
7.79999999999999
 21
-30.95
 31
0.0
  0
ARC
  5
   20B
  8
0
  6
CONTINUOUS
 62
     0
 10
8.29999999999998
 20
-30.95
 30
0.0
 40
1.3
 50
89.9999999999999
 51
180.0
  0
ARC
  5
   20C
  8
0
  6
CONTINUOUS
 62
     0
 10
8.29999999999998
 20
-30.95
 30
0.0
 40
0.5
 50
89.9999999999999
 51
180.0
  0
LINE
  5
   20D
  8
0
  6
CONTINUOUS
 62
     0
 10
8.74999999999999
 20
-30.45
 30
0.0
 11
8.74999999999999
 21
-29.65
 31
0.0
  0
LINE
  5
   20E
  8
0
  6
CONTINUOUS
 62
     0
 10
8.29999999999998
 20
-30.45
 30
0.0
 11
8.74999999999999
 21
-30.45
 31
0.0
  0
LINE
  5
   20F
  8
0
  6
CONTINUOUS
 62
     0
 10
3.4
 20
-2.85000000000002
 30
0.0
 11
4.19999999999999
 21
-2.85000000000002
 31
0.0
  0
ARC
  5
   210
  8
0
  6
CONTINUOUS
 62
     0
 10
-3.5527136788005E-15
 20
0.249999999999979
 30
0.0
 40
2.6
 50
0.0
 51
180.0
  0
ARC
  5
   211
  8
0
  6
CONTINUOUS
 62
     0
 10
-3.5527136788005E-15
 20
0.249999999999979
 30
0.0
 40
1.8
 50
0.0
 51
180.0
  0
ARC
  5
   212
  8
0
  6
CONTINUOUS
 62
     0
 10
-3.5527136788005E-15
 20
-0.250000000000018
 30
0.0
 40
2.6
 50
180.0
 51
360.0
  0
ARC
  5
   213
  8
0
  6
CONTINUOUS
 62
     0
 10
-3.5527136788005E-15
 20
-0.250000000000018
 30
0.0
 40
1.8
 50
180.0
 51
360.0
  0
LINE
  5
   214
  8
0
  6
CONTINUOUS
 62
     0
 10
1.8
 20
-0.250000000000018
 30
0.0
 11
1.8
 21
0.249999999999979
 31
0.0
  0
LINE
  5
   215
  8
0
  6
CONTINUOUS
 62
     0
 10
2.6
 20
-0.250000000000018
 30
0.0
 11
2.6
 21
0.249999999999979
 31
0.0
  0
LINE
  5
   216
  8
0
  6
CONTINUOUS
 62
     0
 10
-1.8
 20
-0.250000000000032
 30
0.0
 11
-1.8
 21
0.249999999999964
 31
0.0
  0
LINE
  5
   217
  8
0
  6
CONTINUOUS
 62
     0
 10
-2.6
 20
-0.250000000000018
 30
0.0
 11
-2.6
 21
0.249999999999979
 31
0.0
  0
LINE
  5
   218
  8
0
  6
CONTINUOUS
 62
     0
 10
3.4
 20
-2.85000000000002
 30
0.0
 11
3.4
 21
2.84999999999998
 31
0.0
  0
LINE
  5
   219
  8
0
  6
CONTINUOUS
 62
     0
 10
4.19999999999999
 20
-2.85000000000002
 30
0.0
 11
4.19999999999999
 21
0.649999999999981
 31
0.0
  0
LINE
  5
   21A
  8
0
  6
CONTINUOUS
 62
     0
 10
6.99999999999999
 20
-2.85000000000002
 30
0.0
 11
6.99999999999999
 21
0.649999999999981
 31
0.0
  0
LINE
  5
   21B
  8
0
  6
CONTINUOUS
 62
     0
 10
7.79999999999999
 20
-2.85000000000002
 30
0.0
 11
7.79999999999999
 21
0.84999999999998
 31
0.0
  0
LINE
  5
   21C
  8
0
  6
CONTINUOUS
 62
     0
 10
3.4
 20
2.84999999999998
 30
0.0
 11
4.19999999999999
 21
2.84999999999998
 31
0.0
  0
ARC
  5
   21D
  8
0
  6
CONTINUOUS
 62
     0
 10
5.59999999999999
 20
0.649999999999981
 30
0.0
 40
1.4
 50
0.0
 51
180.0
  0
LINE
  5
   21E
  8
0
  6
CONTINUOUS
 62
     0
 10
4.19999999999999
 20
2.05
 30
0.0
 11
4.19999999999999
 21
2.84999999999998
 31
0.0
  0
ARC
  5
   21F
  8
0
  6
CONTINUOUS
 62
     0
 10
5.79999999999999
 20
0.84999999999998
 30
0.0
 40
2.0
 50
0.0
 51
143.130102354155
  0
LINE
  5
   220
  8
0
  6
CONTINUOUS
 62
     0
 10
6.99999999999999
 20
-2.85000000000002
 30
0.0
 11
7.79999999999999
 21
-2.85000000000002
 31
0.0
  0
ENDBLK
  5
   221
  8
0
  6
CONTINUOUS
 62
     0
  0
BLOCK
  5
   222
  8
0
  6
CONTINUOUS
 62
     7
  2
$2MOSTRINA
 70
    64
 10
0.0
 20
0.0
 30
0.0
  3
$2MOSTRINA
  0
LINE
  5
   223
  8
0
  6
CONTINUOUS
 62
     3
 10
173.338256835938
 20
30.7306251525879
 30
0.0
 11
173.338256835938
 21
189.230621337891
 31
0.0
  0
LINE
  5
   224
  8
0
  6
CONTINUOUS
 62
     3
 10
57.5882568359375
 20
29.4806251525879
 30
0.0
 11
172.088256835938
 21
29.4806251525879
 31
0.0
  0
LINE
  5
   225
  8
0
  6
CONTINUOUS
 62
     3
 10
56.3382568359375
 20
30.7306251525879
 30
0.0
 11
56.3382568359375
 21
189.230621337891
 31
0.0
  0
LINE
  5
   226
  8
0
  6
CONTINUOUS
 62
     3
 10
57.5882568359375
 20
190.480621337891
 30
0.0
 11
172.088256835938
 21
190.480621337891
 31
0.0
  0
LINE
  5
   227
  8
0
  6
CONTINUOUS
 62
     3
 10
167.838256835938
 20
56.9806251525879
 30
0.0
 11
167.838256835938
 21
162.980625152588
 31
0.0
  0
LINE
  5
   228
  8
0
  6
CONTINUOUS
 62
     3
 10
61.8382568359375
 20
56.9806251525879
 30
0.0
 11
167.838256835938
 21
56.9806251525879
 31
0.0
  0
LINE
  5
   229
  8
0
  6
CONTINUOUS
 62
     3
 10
61.8382568359375
 20
56.9806251525879
 30
0.0
 11
61.8382568359375
 21
162.980625152588
 31
0.0
  0
LINE
  5
   22A
  8
0
  6
CONTINUOUS
 62
     3
 10
61.8382568359375
 20
162.980621337891
 30
0.0
 11
167.838256835938
 21
162.980621337891
 31
0.0
  0
LINE
  5
   22B
  8
0
  6
CONTINUOUS
 62
     3
 10
168.838256835938
 20
48.4806251525879
 30
0.0
 11
168.838256835938
 21
49.4806251525879
 31
0.0
  0
LINE
  5
   22C
  8
0
  6
CONTINUOUS
 62
     3
 10
61.8382568359375
 20
50.4806251525879
 30
0.0
 11
167.838256835938
 21
50.4806251525879
 31
0.0
  0
LINE
  5
   22D
  8
0
  6
CONTINUOUS
 62
     3
 10
60.8382568359375
 20
48.4806251525879
 30
0.0
 11
60.8382568359375
 21
49.4806251525879
 31
0.0
  0
LINE
  5
   22E
  8
0
  6
CONTINUOUS
 62
     3
 10
61.8382568359375
 20
49.4806251525879
 30
0.0
 11
167.838256835938
 21
49.4806251525879
 31
0.0
  0
LINE
  5
   22F
  8
0
  6
CONTINUOUS
 62
     3
 10
60.8382568359375
 20
29.4806251525879
 30
0.0
 11
60.8382568359375
 21
48.4806251525879
 31
0.0
  0
LINE
  5
   230
  8
0
  6
CONTINUOUS
 62
     3
 10
60.8382568359375
 20
49.4806213378906
 30
0.0
 11
60.8382568359375
 21
190.480621337891
 31
0.0
  0
LINE
  5
   231
  8
0
  6
CONTINUOUS
 62
     3
 10
61.8382568359375
 20
29.4806251525879
 30
0.0
 11
61.8382568359375
 21
49.4806251525879
 31
0.0
  0
LINE
  5
   232
  8
0
  6
CONTINUOUS
 62
     3
 10
61.8382568359375
 20
162.980621337891
 30
0.0
 11
61.8382568359375
 21
169.480621337891
 31
0.0
  0
LINE
  5
   233
  8
0
  6
CONTINUOUS
 62
     3
 10
61.8382568359375
 20
50.4806251525879
 30
0.0
 11
61.8382568359375
 21
56.9806251525879
 31
0.0
  0
LINE
  5
   234
  8
0
  6
CONTINUOUS
 62
     3
 10
168.838256835938
 20
29.4806251525879
 30
0.0
 11
168.838256835938
 21
48.4806251525879
 31
0.0
  0
LINE
  5
   235
  8
0
  6
CONTINUOUS
 62
     3
 10
168.838256835938
 20
49.4806251525879
 30
0.0
 11
168.838256835938
 21
190.480621337891
 31
0.0
  0
LINE
  5
   236
  8
0
  6
CONTINUOUS
 62
     3
 10
167.838256835938
 20
50.4806251525879
 30
0.0
 11
167.838256835938
 21
56.9806251525879
 31
0.0
  0
LINE
  5
   237
  8
0
  6
CONTINUOUS
 62
     3
 10
167.838256835938
 20
162.980621337891
 30
0.0
 11
167.838256835938
 21
169.480621337891
 31
0.0
  0
LINE
  5
   238
  8
0
  6
CONTINUOUS
 62
     3
 10
167.838256835938
 20
29.4806251525879
 30
0.0
 11
167.838256835938
 21
49.4806251525879
 31
0.0
  0
LINE
  5
   239
  8
0
  6
CONTINUOUS
 62
     3
 10
60.8382568359375
 20
170.480621337891
 30
0.0
 11
168.838256835938
 21
170.480621337891
 31
0.0
  0
LINE
  5
   23A
  8
0
  6
CONTINUOUS
 62
     3
 10
61.8382568359375
 20
169.480621337891
 30
0.0
 11
167.838256835938
 21
169.480621337891
 31
0.0
  0
ARC
  5
   23B
  8
0
  6
CONTINUOUS
 62
     3
 10
57.5882568359375
 20
30.7306251525879
 30
0.0
 40
1.25
 50
180.0
 51
270.0
  0
ARC
  5
   23C
  8
0
  6
CONTINUOUS
 62
     3
 10
172.088256835938
 20
30.7306251525879
 30
0.0
 40
1.25
 50
270.0
 51
360.0
  0
ARC
  5
   23D
  8
0
  6
CONTINUOUS
 62
     3
 10
172.088256835938
 20
189.230621337891
 30
0.0
 40
1.25
 50
0.0
 51
90.0
  0
ARC
  5
   23E
  8
0
  6
CONTINUOUS
 62
     3
 10
57.5882568359375
 20
189.230621337891
 30
0.0
 40
1.25
 50
90.0
 51
180.0
  0
LINE
  5
   23F
  8
0
  6
DOT
 62
     3
 10
60.3382577409677
 20
179.7306252571
 30
0.0
 11
60.8382568359375
 21
179.7306252571
 31
0.0
  0
LINE
  5
   240
  8
0
  6
DOT
 62
     3
 10
60.3382577409676
 20
181.2306252571
 30
0.0
 11
60.8382568359375
 21
181.2306252571
 31
0.0
  0
LINE
  5
   241
  8
0
  6
CONTINUOUS
 62
     3
 10
168.338257745313
 20
179.730625257273
 30
0.0
 11
168.838256835938
 21
179.730625257273
 31
0.0
  0
LINE
  5
   242
  8
0
  6
CONTINUOUS
 62
     3
 10
168.338257745314
 20
181.230625257273
 30
0.0
 11
168.838256835938
 21
181.230625257273
 31
0.0
  0
ARC
  5
   243
  8
0
  6
DOT
 62
     3
 10
60.3382577401871
 20
180.480625257147
 30
0.0
 40
0.749999999345164
 50
90.0
 51
270.0
  0
ARC
  5
   244
  8
0
  6
CONTINUOUS
 62
     3
 10
61.338257740822
 20
180.480625256974
 30
0.0
 40
0.750000000009701
 50
270.0
 51
450.0
  0
LINE
  5
   245
  8
0
  6
CONTINUOUS
 62
     3
 10
60.8382568359375
 20
181.2306252571
 30
0.0
 11
61.3382577409688
 21
181.2306252571
 31
0.0
  0
LINE
  5
   246
  8
0
  6
CONTINUOUS
 62
     3
 10
60.8382568359375
 20
179.7306252571
 30
0.0
 11
61.3382577409689
 21
179.7306252571
 31
0.0
  0
ARC
  5
   247
  8
0
  6
CONTINUOUS
 62
     3
 10
168.338257745503
 20
180.480625256952
 30
0.0
 40
0.750000000048506
 50
90.0000000038822
 51
269.999999996024
  0
ARC
  5
   248
  8
0
  6
DOT
 62
     3
 10
169.338257745421
 20
180.480625256965
 30
0.0
 40
0.750000000029104
 50
270.000000002449
 51
449.999999997486
  0
LINE
  5
   249
  8
0
  6
DOT
 62
     3
 10
168.838256835938
 20
181.230625257273
 30
0.0
 11
169.338257745315
 21
181.230625257273
 31
0.0
  0
LINE
  5
   24A
  8
0
  6
DOT
 62
     3
 10
168.838256835938
 20
179.730625257273
 30
0.0
 11
169.338257745315
 21
179.730625257273
 31
0.0
  0
POINT
  5
   24B
  8
0
  6
CONTINUOUS
 62
     3
 10
114.838256835938
 20
109.980621337891
 30
0.0
  0
ENDBLK
  5
   24C
  8
0
  6
CONTINUOUS
 62
     7
  0
BLOCK
  5
   24D
  8
0
  6
CONTINUOUS
 62
     7
  2
*UDIM219
 70
    65
 10
0.0
 20
0.0
 30
0.0
  3
*UDIM219
  0
TEXT
  5
   24E
  8
0
  6
CONTINUOUS
 62
     7
 10
102.49482973267
 20
183.59330029823
 30
0.0
 40
2.99999997871263
  1
105
 50
359.999999948034
 41
0.933333333333333
 72
     1
 11
106.394829706349
 21
185.093300284068
 31
0.0
 73
     2
  0
LINE
  5
   24F
  8
0
  6
CONTINUOUS
 62
     7
 10
125.044842125337
 20
134.500660976278
 30
0.0
 11
125.044842125337
 21
184.593300294712
 31
0.0
  0
LINE
  5
   250
  8
0
  6
CONTINUOUS
 62
     7
 10
88.294815972654
 20
133.083199325579
 30
0.0
 11
88.294815972654
 21
184.593300294712
 31
0.0
  0
LINE
  5
   251
  8
0
  6
CONTINUOUS
 62
     7
 10
125.044842125337
 20
182.593300294712
 30
0.0
 11
88.294815972654
 21
182.593300294712
 31
0.0
  0
LINE
  5
   252
  8
0
  6
CONTINUOUS
 62
     7
 10
122.09041884813
 20
182.07235586476
 30
0.0
 11
125.044842125337
 21
182.593300294712
 31
0.0
  0
LINE
  5
   253
  8
0
  6
CONTINUOUS
 62
     7
 10
125.044842125337
 20
182.593300294712
 30
0.0
 11
122.09041884813
 21
183.114244724664
 31
0.0
  0
LINE
  5
   254
  8
0
  6
CONTINUOUS
 62
     7
 10
91.249239249861
 20
183.114244724664
 30
0.0
 11
88.294815972654
 21
182.593300294712
 31
0.0
  0
LINE
  5
   255
  8
0
  6
CONTINUOUS
 62
     7
 10
88.294815972654
 20
182.593300294712
 30
0.0
 11
91.249239249861
 21
182.07235586476
 31
0.0
  0
ENDBLK
  5
   256
  8
0
  6
CONTINUOUS
 62
     7
  0
BLOCK
  5
   257
  8
0
  6
CONTINUOUS
 62
     7
  2
*UDIM220
 70
    65
 10
0.0
 20
0.0
 30
0.0
  3
*UDIM220
  0
TEXT
  5
   258
  8
0
  6
CONTINUOUS
 62
     7
 10
110.019819679496
 20
175.906143891996
 30
0.0
 40
2.99999997871263
  1
35
 50
359.999999948034
 41
0.933333333333333
 72
     1
 11
112.51981966311
 21
177.406143879098
 31
0.0
 73
     2
  0
LINE
  5
   259
  8
0
  6
CONTINUOUS
 62
     7
 10
118.919819172649
 20
142.90069419824
 30
0.0
 11
118.919819172649
 21
176.906143889741
 31
0.0
  0
LINE
  5
   25A
  8
0
  6
CONTINUOUS
 62
     7
 10
106.669819381265
 20
143.600694186319
 30
0.0
 11
106.669819381265
 21
176.906143889741
 31
0.0
  0
LINE
  5
   25B
  8
0
  6
CONTINUOUS
 62
     7
 10
118.919819172649
 20
174.906143889741
 30
0.0
 11
106.669819381265
 21
174.906143889741
 31
0.0
  0
LINE
  5
   25C
  8
0
  6
CONTINUOUS
 62
     7
 10
115.965395895442
 20
174.385199459789
 30
0.0
 11
118.919819172649
 21
174.906143889741
 31
0.0
  0
LINE
  5
   25D
  8
0
  6
CONTINUOUS
 62
     7
 10
118.919819172649
 20
174.906143889741
 30
0.0
 11
115.965395895442
 21
175.427088319693
 31
0.0
  0
LINE
  5
   25E
  8
0
  6
CONTINUOUS
 62
     7
 10
109.624242658472
 20
175.427088319693
 30
0.0
 11
106.669819381265
 21
174.906143889741
 31
0.0
  0
LINE
  5
   25F
  8
0
  6
CONTINUOUS
 62
     7
 10
106.669819381265
 20
174.906143889741
 30
0.0
 11
109.624242658472
 21
174.385199459789
 31
0.0
  0
ENDBLK
  5
   260
  8
0
  6
CONTINUOUS
 62
     7
  0
BLOCK
  5
   261
  8
0
  6
CONTINUOUS
 62
     7
  2
*UDIM221
 70
    65
 10
0.0
 20
0.0
 30
0.0
  3
*UDIM221
  0
TEXT
  5
   262
  8
0
  6
CONTINUOUS
 62
     7
 10
97.7698198881125
 20
175.906143891996
 30
0.0
 40
2.99999997871263
  1
35
 50
359.999999948034
 41
0.933333333333333
 72
     1
 11
100.269819871726
 21
177.406143879098
 31
0.0
 73
     2
  0
LINE
  5
   263
  8
0
  6
CONTINUOUS
 62
     7
 10
94.4198195898811
 20
142.90069419824
 30
0.0
 11
94.4198195898811
 21
176.906143889741
 31
0.0
  0
LINE
  5
   264
  8
0
  6
CONTINUOUS
 62
     7
 10
106.669819381265
 20
174.906143889741
 30
0.0
 11
94.4198195898811
 21
174.906143889741
 31
0.0
  0
LINE
  5
   265
  8
0
  6
CONTINUOUS
 62
     7
 10
103.715396104058
 20
174.385199459789
 30
0.0
 11
106.669819381265
 21
174.906143889741
 31
0.0
  0
LINE
  5
   266
  8
0
  6
CONTINUOUS
 62
     7
 10
106.669819381265
 20
174.906143889741
 30
0.0
 11
103.715396104058
 21
175.427088319693
 31
0.0
  0
LINE
  5
   267
  8
0
  6
CONTINUOUS
 62
     7
 10
97.3742428670881
 20
175.427088319693
 30
0.0
 11
94.4198195898811
 21
174.906143889741
 31
0.0
  0
LINE
  5
   268
  8
0
  6
CONTINUOUS
 62
     7
 10
94.4198195898811
 20
174.906143889741
 30
0.0
 11
97.3742428670881
 21
174.385199459789
 31
0.0
  0
ENDBLK
  5
   269
  8
0
  6
CONTINUOUS
 62
     7
  0
BLOCK
  5
   26A
  8
0
  6
CONTINUOUS
 62
     7
  2
*UDIM222
 70
    65
 10
0.0
 20
0.0
 30
0.0
  3
*UDIM222
  0
TEXT
  5
   26B
  8
0
  6
CONTINUOUS
 62
     7
 10
145.404958347744
 20
-7.86181533622196
 30
0.0
 40
2.99999997871263
  1
100
 50
89.9999999480344
 41
0.933333333333333
 72
     1
 11
143.90495836192
 21
-3.96181536253697
 31
0.0
 73
     2
  0
LINE
  5
   26C
  8
0
  6
CONTINUOUS
 62
     7
 10
114.107629964747
 20
-21.4618152314068
 30
0.0
 11
148.404958351276
 21
-21.4618152314068
 31
0.0
  0
LINE
  5
   26D
  8
0
  6
CONTINUOUS
 62
     7
 10
125.607323275601
 20
13.5381845063328
 30
0.0
 11
148.404958351276
 21
13.5381845063328
 31
0.0
  0
LINE
  5
   26E
  8
0
  6
CONTINUOUS
 62
     7
 10
146.404958351276
 20
-21.4618152314068
 30
0.0
 11
146.404958351276
 21
13.5381845063328
 31
0.0
  0
LINE
  5
   26F
  8
0
  6
CONTINUOUS
 62
     7
 10
145.628501194858
 20
-18.5640377581962
 30
0.0
 11
146.404958351276
 21
-21.4618152314068
 31
0.0
  0
LINE
  5
   270
  8
0
  6
CONTINUOUS
 62
     7
 10
146.404958351276
 20
-21.4618152314068
 30
0.0
 11
147.181415507695
 21
-18.5640377581962
 31
0.0
  0
LINE
  5
   271
  8
0
  6
CONTINUOUS
 62
     7
 10
147.181415507695
 20
10.6404070331223
 30
0.0
 11
146.404958351276
 21
13.5381845063328
 31
0.0
  0
LINE
  5
   272
  8
0
  6
CONTINUOUS
 62
     7
 10
146.404958351276
 20
13.5381845063328
 30
0.0
 11
145.628501194858
 21
10.6404070331223
 31
0.0
  0
ENDBLK
  5
   273
  8
0
  6
CONTINUOUS
 62
     7
  0
BLOCK
  5
   274
  8
0
  6
CONTINUOUS
 62
     7
  2
*UDIM223
 70
    65
 10
0.0
 20
0.0
 30
0.0
  3
*UDIM223
  0
TEXT
  5
   275
  8
0
  6
CONTINUOUS
 62
     7
 10
145.448696296902
 20
69.5631938480444
 30
0.0
 40
2.99999997871263
  1
344
 50
89.9999999480344
 41
0.933333333333333
 72
     1
 11
143.948696311078
 21
73.4631938217294
 31
0.0
 73
     2
  0
LINE
  5
   276
  8
0
  6
CONTINUOUS
 62
     7
 10
99.6198177110293
 20
13.5381845063328
 30
0.0
 11
148.448696300434
 21
13.5381845063328
 31
0.0
  0
LINE
  5
   277
  8
0
  6
CONTINUOUS
 62
     7
 10
125.607323275601
 20
133.938200362104
 30
0.0
 11
148.448696300434
 21
133.938200362104
 31
0.0
  0
LINE
  5
   278
  8
0
  6
CONTINUOUS
 62
     7
 10
146.448696300434
 20
13.5381845063328
 30
0.0
 11
146.448696300434
 21
133.938200362104
 31
0.0
  0
LINE
  5
   279
  8
0
  6
CONTINUOUS
 62
     7
 10
145.927751870483
 20
16.4926077835398
 30
0.0
 11
146.448696300434
 21
13.5381845063328
 31
0.0
  0
LINE
  5
   27A
  8
0
  6
CONTINUOUS
 62
     7
 10
146.448696300434
 20
13.5381845063328
 30
0.0
 11
146.969640730386
 21
16.4926077835398
 31
0.0
  0
LINE
  5
   27B
  8
0
  6
CONTINUOUS
 62
     7
 10
146.969640730386
 20
130.983777084897
 30
0.0
 11
146.448696300434
 21
133.938200362104
 31
0.0
  0
LINE
  5
   27C
  8
0
  6
CONTINUOUS
 62
     7
 10
146.448696300434
 20
133.938200362104
 30
0.0
 11
145.927751870483
 21
130.983777084897
 31
0.0
  0
ENDBLK
  5
   27D
  8
0
  6
CONTINUOUS
 62
     7
  0
BLOCK
  5
   27E
  8
0
  6
CONTINUOUS
 62
     7
  2
*UDIM224
 70
    65
 10
0.0
 20
0.0
 30
0.0
  3
*UDIM224
  0
TEXT
  5
   27F
  8
0
  6
CONTINUOUS
 62
     7
 10
145.448696296902
 20
147.263203209422
 30
0.0
 40
2.99999997871263
  1
100
 50
89.9999999480344
 41
0.933333333333333
 72
     1
 11
143.948696311078
 21
151.163203183107
 31
0.0
 73
     2
  0
LINE
  5
   280
  8
0
  6
CONTINUOUS
 62
     7
 10
114.107629964747
 20
168.938200099844
 30
0.0
 11
148.448696300434
 21
168.938200099844
 31
0.0
  0
LINE
  5
   281
  8
0
  6
CONTINUOUS
 62
     7
 10
146.448696300434
 20
133.938200362104
 30
0.0
 11
146.448696300434
 21
168.938200099844
 31
0.0
  0
LINE
  5
   282
  8
0
  6
CONTINUOUS
 62
     7
 10
145.927751870483
 20
136.892623639311
 30
0.0
 11
146.448696300434
 21
133.938200362104
 31
0.0
  0
LINE
  5
   283
  8
0
  6
CONTINUOUS
 62
     7
 10
146.448696300434
 20
133.938200362104
 30
0.0
 11
146.969640730386
 21
136.892623639311
 31
0.0
  0
LINE
  5
   284
  8
0
  6
CONTINUOUS
 62
     7
 10
146.969640730386
 20
165.983776822637
 30
0.0
 11
146.448696300434
 21
168.938200099844
 31
0.0
  0
LINE
  5
   285
  8
0
  6
CONTINUOUS
 62
     7
 10
146.448696300434
 20
168.938200099844
 30
0.0
 11
145.927751870483
 21
165.983776822637
 31
0.0
  0
ENDBLK
  5
   286
  8
0
  6
CONTINUOUS
 62
     7
  0
BLOCK
  5
   287
  8
0
  6
CONTINUOUS
 62
     7
  2
*UDIM225
 70
    65
 10
0.0
 20
0.0
 30
0.0
  3
*UDIM225
  0
TEXT
  5
   288
  8
0
  6
CONTINUOUS
 62
     7
 10
135.631318225424
 20
28.131953649283
 30
0.0
 40
2.99999997871263
  1
131,25
 50
89.9999999480344
 41
0.933333333333333
 72
     1
 11
134.131318243404
 21
36.2319535931656
 31
0.0
 73
     2
  0
LINE
  5
   289
  8
0
  6
CONTINUOUS
 62
     7
 10
99.6198177110293
 20
13.5381845063328
 30
0.0
 11
138.63131823276
 21
13.5381845063328
 31
0.0
  0
LINE
  5
   28A
  8
0
  6
CONTINUOUS
 62
     7
 10
136.63131823276
 20
13.5381845063328
 30
0.0
 11
136.63131823276
 21
59.4757229924971
 31
0.0
  0
LINE
  5
   28B
  8
0
  6
CONTINUOUS
 62
     7
 10
136.110373802808
 20
16.4926077835398
 30
0.0
 11
136.63131823276
 21
13.5381845063328
 31
0.0
  0
LINE
  5
   28C
  8
0
  6
CONTINUOUS
 62
     7
 10
136.63131823276
 20
13.5381845063328
 30
0.0
 11
137.152262662712
 21
16.4926077835398
 31
0.0
  0
LINE
  5
   28D
  8
0
  6
CONTINUOUS
 62
     7
 10
137.152262662712
 20
56.5212997152902
 30
0.0
 11
136.63131823276
 21
59.4757229924971
 31
0.0
  0
LINE
  5
   28E
  8
0
  6
CONTINUOUS
 62
     7
 10
136.63131823276
 20
59.4757229924971
 30
0.0
 11
136.110373802808
 21
56.5212997152902
 31
0.0
  0
ENDBLK
  5
   28F
  8
0
  6
CONTINUOUS
 62
     7
  0
BLOCK
  5
   290
  8
0
  6
CONTINUOUS
 62
     7
  2
*UDIM226
 70
    65
 10
0.0
 20
0.0
 30
0.0
  3
*UDIM226
  0
TEXT
  5
   291
  8
0
  6
CONTINUOUS
 62
     7
 10
58.8283000135546
 20
69.563209873221
 30
0.0
 40
2.99999997871263
  1
339
 50
89.9999999480344
 41
0.933333333333333
 72
     1
 11
57.3283000277306
 21
73.463209846906
 31
0.0
 73
     2
  0
LINE
  5
   292
  8
0
  6
CONTINUOUS
 62
     7
 10
88.519866902276
 20
14.4132237599073
 30
0.0
 11
57.8283000170869
 21
14.4132237599073
 31
0.0
  0
LINE
  5
   293
  8
0
  6
CONTINUOUS
 62
     7
 10
88.5198198872405
 20
133.063200377005
 30
0.0
 11
57.8283000170869
 21
133.063200377005
 31
0.0
  0
LINE
  5
   294
  8
0
  6
CONTINUOUS
 62
     7
 10
59.8283000170869
 20
14.4132237599073
 30
0.0
 11
59.8283000170869
 21
133.063200377005
 31
0.0
  0
LINE
  5
   295
  8
0
  6
CONTINUOUS
 62
     7
 10
59.3073555871353
 20
17.3676470371143
 30
0.0
 11
59.8283000170869
 21
14.4132237599073
 31
0.0
  0
LINE
  5
   296
  8
0
  6
CONTINUOUS
 62
     7
 10
59.8283000170869
 20
14.4132237599073
 30
0.0
 11
60.3492444470386
 21
17.3676470371143
 31
0.0
  0
LINE
  5
   297
  8
0
  6
CONTINUOUS
 62
     7
 10
60.3492444470386
 20
130.108777099798
 30
0.0
 11
59.8283000170869
 21
133.063200377005
 31
0.0
  0
LINE
  5
   298
  8
0
  6
CONTINUOUS
 62
     7
 10
59.8283000170869
 20
133.063200377005
 30
0.0
 11
59.3073555871353
 21
130.108777099798
 31
0.0
  0
ENDBLK
  5
   299
  8
0
  6
CONTINUOUS
 62
     7
  0
BLOCK
  5
   29A
  8
0
  6
CONTINUOUS
 62
     7
  2
*UDIM227
 70
    65
 10
0.0
 20
0.0
 30
0.0
  3
*UDIM227
  0
TEXT
  5
   29B
  8
0
  6
CONTINUOUS
 62
     7
 10
68.7654011130951
 20
55.3007101161084
 30
0.0
 40
2.99999997871263
  1
161
 50
89.9999999480344
 41
0.933333333333333
 72
     1
 11
67.2654011272711
 21
59.2007100897934
 31
0.0
 73
     2
  0
LINE
  5
   29C
  8
0
  6
CONTINUOUS
 62
     7
 10
85.6323353888444
 20
31.300711456017
 30
0.0
 11
67.7654011166274
 21
31.300711456017
 31
0.0
  0
LINE
  5
   29D
  8
0
  6
CONTINUOUS
 62
     7
 10
85.6323353888444
 20
87.6507091612382
 30
0.0
 11
67.7654011166274
 21
87.6507091612382
 31
0.0
  0
LINE
  5
   29E
  8
0
  6
CONTINUOUS
 62
     7
 10
69.7654011166274
 20
31.300711456017
 30
0.0
 11
69.7654011166274
 21
87.6507091612382
 31
0.0
  0
LINE
  5
   29F
  8
0
  6
CONTINUOUS
 62
     7
 10
69.2444566866757
 20
34.255134733224
 30
0.0
 11
69.7654011166274
 21
31.300711456017
 31
0.0
  0
LINE
  5
   2A0
  8
0
  6
CONTINUOUS
 62
     7
 10
69.7654011166274
 20
31.300711456017
 30
0.0
 11
70.2863455465791
 21
34.255134733224
 31
0.0
  0
LINE
  5
   2A1
  8
0
  6
CONTINUOUS
 62
     7
 10
70.2863455465791
 20
84.6962858840312
 30
0.0
 11
69.7654011166274
 21
87.6507091612382
 31
0.0
  0
LINE
  5
   2A2
  8
0
  6
CONTINUOUS
 62
     7
 10
69.7654011166274
 20
87.6507091612382
 30
0.0
 11
69.2444566866757
 21
84.6962858840312
 31
0.0
  0
ENDBLK
  5
   2A3
  8
0
  6
CONTINUOUS
 62
     7
  0
BLOCK
  5
   2A4
  8
0
  6
CONTINUOUS
 62
     7
  2
*UDIM228
 70
    65
 10
0.0
 20
0.0
 30
0.0
  3
*UDIM228
  0
TEXT
  5
   2A5
  8
0
  6
CONTINUOUS
 62
     7
 10
77.9242961597675
 20
31.6345924844211
 30
0.0
 40
2.99999997871263
  1
128,75
 50
89.9999999480344
 41
0.933333333333333
 72
     1
 11
76.4242961777475
 21
39.7345924283038
 31
0.0
 73
     2
  0
LINE
  5
   2A6
  8
0
  6
CONTINUOUS
 62
     7
 10
88.519866902276
 20
14.4132237599073
 30
0.0
 11
76.9242961671038
 21
14.4132237599073
 31
0.0
  0
LINE
  5
   2A7
  8
0
  6
CONTINUOUS
 62
     7
 10
78.9242961671038
 20
14.4132237599073
 30
0.0
 11
78.9242961671038
 21
59.4757229924971
 31
0.0
  0
LINE
  5
   2A8
  8
0
  6
CONTINUOUS
 62
     7
 10
78.4033517371521
 20
17.3676470371143
 30
0.0
 11
78.9242961671038
 21
14.4132237599073
 31
0.0
  0
LINE
  5
   2A9
  8
0
  6
CONTINUOUS
 62
     7
 10
78.9242961671038
 20
14.4132237599073
 30
0.0
 11
79.4452405970554
 21
17.3676470371143
 31
0.0
  0
LINE
  5
   2AA
  8
0
  6
CONTINUOUS
 62
     7
 10
79.4452405970554
 20
56.5212997152902
 30
0.0
 11
78.9242961671038
 21
59.4757229924971
 31
0.0
  0
LINE
  5
   2AB
  8
0
  6
CONTINUOUS
 62
     7
 10
78.9242961671038
 20
59.4757229924971
 30
0.0
 11
78.4033517371521
 21
56.5212997152902
 31
0.0
  0
ENDBLK
  5
   2AC
  8
0
  6
CONTINUOUS
 62
     7
  0
BLOCK
  5
   2AD
  8
0
  6
CONTINUOUS
 62
     7
  2
*UDIM229
 70
    65
 10
0.0
 20
0.0
 30
0.0
  3
*UDIM229
  0
TEXT
  5
   2AE
  8
0
  6
CONTINUOUS
 62
     7
 10
102.49483775486
 20
3.10738691397069
 30
0.0
 40
2.99999997871263
  1
117
 50
359.999999948034
 41
0.933333333333333
 72
     1
 11
106.39483772854
 21
4.60738689980942
 31
0.0
 73
     2
  0
LINE
  5
   2AF
  8
0
  6
CONTINUOUS
 62
     7
 10
127.144834698921
 20
30.7382114485664
 30
0.0
 11
127.144834698921
 21
0.107386910453101
 31
0.0
  0
LINE
  5
   2B0
  8
0
  6
CONTINUOUS
 62
     7
 10
86.194835396295
 20
30.7382114485664
 30
0.0
 11
86.194835396295
 21
0.107386910453101
 31
0.0
  0
LINE
  5
   2B1
  8
0
  6
CONTINUOUS
 62
     7
 10
127.144834698921
 20
2.1073869104531
 30
0.0
 11
86.194835396295
 21
2.1073869104531
 31
0.0
  0
LINE
  5
   2B2
  8
0
  6
CONTINUOUS
 62
     7
 10
124.190411421714
 20
1.58644248050144
 30
0.0
 11
127.144834698921
 21
2.1073869104531
 31
0.0
  0
LINE
  5
   2B3
  8
0
  6
CONTINUOUS
 62
     7
 10
127.144834698921
 20
2.1073869104531
 30
0.0
 11
124.190411421714
 21
2.62833134040476
 31
0.0
  0
LINE
  5
   2B4
  8
0
  6
CONTINUOUS
 62
     7
 10
89.149258673502
 20
2.62833134040476
 30
0.0
 11
86.194835396295
 21
2.1073869104531
 31
0.0
  0
LINE
  5
   2B5
  8
0
  6
CONTINUOUS
 62
     7
 10
86.194835396295
 20
2.1073869104531
 30
0.0
 11
89.149258673502
 21
1.58644248050144
 31
0.0
  0
ENDBLK
  5
   2B6
  8
0
  6
CONTINUOUS
 62
     7
  0
ENDSEC
  0
SECTION
  2
ENTITIES
  0
LINE
  5
   2B7
  8
0
  6
CONTINUOUS
 62
     7
 10
92.6698684692383
 20
-88.6122360229492
 30
0.0
 11
120.669868469238
 21
-88.6122360229492
 31
0.0
  0
LINE
  5
   2B8
  8
0
  6
CONTINUOUS
 62
     7
 10
92.6698684692383
 20
-60.6122360229492
 30
0.0
 11
120.669868469238
 21
-60.6122360229492
 31
0.0
  0
LINE
  5
   2B9
  8
0
  6
CONTINUOUS
 62
     7
 10
92.6698684692383
 20
-60.6122360229492
 30
0.0
 11
92.6698684692383
 21
-88.6122360229492
 31
0.0
  0
LINE
  5
   2BA
  8
0
  6
CONTINUOUS
 62
     7
 10
120.669868469238
 20
-60.6122360229492
 30
0.0
 11
120.669868469238
 21
-88.6122360229492
 31
0.0
  0
LINE
  5
   2BB
  8
0
  6
DASHDOT
 62
     7
 10
106.669868469238
 20
-45.5182727769736
 30
0.0
 11
106.669868469238
 21
-104.649026300756
 31
0.0
  0
CIRCLE
  5
   2BC
  8
0
  6
CONTINUOUS
 62
     7
 10
96.6698684692383
 20
-56.8622360229492
 30
0.0
 40
0.875
  0
CIRCLE
  5
   2BD
  8
0
  6
CONTINUOUS
 62
     7
 10
116.669868469238
 20
-56.8622360229492
 30
0.0
 40
0.875
  0
CIRCLE
  5
   2BE
  8
0
  6
CONTINUOUS
 62
     7
 10
116.669868469238
 20
-92.3622360229492
 30
0.0
 40
0.875
  0
CIRCLE
  5
   2BF
  8
0
  6
CONTINUOUS
 62
     7
 10
96.6698684692383
 20
-92.3622360229492
 30
0.0
 40
0.875
  0
LINE
  5
   2C0
  8
0
  6
CONTINUOUS
 62
     3
 10
88.7053727998238
 20
-54.512435725658
 30
0.0
 11
124.508742069809
 21
-54.512435725658
 31
0.0
  0
LINE
  5
   2C1
  8
0
  6
CONTINUOUS
 62
     3
 10
88.7053727998238
 20
-95.7177168504132
 30
0.0
 11
124.508742069809
 21
-95.7177168504132
 31
0.0
  0
LINE
  5
   2C2
  8
0
  6
CONTINUOUS
 62
     3
 10
124.508742069809
 20
-54.512435725658
 30
0.0
 11
124.508742069809
 21
-95.7177168504132
 31
0.0
  0
LINE
  5
   2C3
  8
0
  6
CONTINUOUS
 62
     3
 10
88.7053727998238
 20
-54.512435725658
 30
0.0
 11
88.7053727998238
 21
-95.7177168504132
 31
0.0
  0
LINE
  5
   2C4
  8
0
  6
DASHDOT
 62
     7
 10
116.669868469238
 20
-55.2372360229492
 30
0.0
 11
116.669868469238
 21
-58.4872360229492
 31
0.0
  0
LINE
  5
   2C5
  8
0
  6
DASHDOT
 62
     7
 10
115.044868469238
 20
-56.8622360229492
 30
0.0
 11
118.294868469238
 21
-56.8622360229492
 31
0.0
  0
LINE
  5
   2C6
  8
0
  6
DASHDOT
 62
     7
 10
96.6698684692383
 20
-55.2372360229492
 30
0.0
 11
96.6698684692383
 21
-58.4872360229492
 31
0.0
  0
LINE
  5
   2C7
  8
0
  6
DASHDOT
 62
     7
 10
95.0448684692383
 20
-56.8622360229492
 30
0.0
 11
98.2948684692383
 21
-56.8622360229492
 31
0.0
  0
LINE
  5
   2C8
  8
0
  6
DASHDOT
 62
     7
 10
96.6698684692383
 20
-90.7372360229492
 30
0.0
 11
96.6698684692383
 21
-93.9872360229492
 31
0.0
  0
LINE
  5
   2C9
  8
0
  6
DASHDOT
 62
     7
 10
95.0448684692383
 20
-92.3622360229492
 30
0.0
 11
98.2948684692383
 21
-92.3622360229492
 31
0.0
  0
LINE
  5
   2CA
  8
0
  6
DASHDOT
 62
     7
 10
116.669868469238
 20
-90.7372360229492
 30
0.0
 11
116.669868469238
 21
-93.9872360229492
 31
0.0
  0
LINE
  5
   2CB
  8
0
  6
DASHDOT
 62
     7
 10
115.044868469238
 20
-92.3622360229492
 30
0.0
 11
118.294868469238
 21
-92.3622360229492
 31
0.0
  0
LINE
  5
   2CC
  8
0
  6
DASHDOT
 62
     7
 10
81.3040109158817
 20
-74.6122360229492
 30
0.0
 11
134.300161768609
 21
-74.6122360229492
 31
0.0
  0
INSERT
  5
   2CD
  8
0
  6
CONTINUOUS
 62
     7
  2
*UDIM193
 10
0.0
 20
0.0
 30
0.0
  0
INSERT
  5
   2CE
  8
0
  6
CONTINUOUS
 62
     7
  2
*UDIM194
 10
0.0
 20
0.0
 30
0.0
  0
INSERT
  5
   2CF
  8
0
  6
CONTINUOUS
 62
     7
  2
*UDIM195
 10
0.0
 20
0.0
 30
0.0
  0
INSERT
  5
   2D0
  8
0
  6
CONTINUOUS
 62
     7
  2
*UDIM196
 10
0.0
 20
0.0
 30
0.0
  0
INSERT
  5
   2D1
  8
0
  6
CONTINUOUS
 62
     7
  2
*UDIM197
 10
0.0
 20
0.0
 30
0.0
  0
TEXT
  5
   2D2
  8
0
  6
CONTINUOUS
 62
     7
 10
99.4198644438358
 20
-48.0743582810618
 30
0.0
 40
3.00000002980232
  1
=   =
 50
359.999999844103
 41
0.916666604744064
 72
     2
 11
112.61986367891
 21
-48.0743583169115
 31
0.0
  0
TEXT
  5
   2D3
  8
0
  6
CONTINUOUS
 62
     7
 10
98.2035150005392
 20
-39.5540774994179
 30
0.0
 40
3.00000002980232
  1
=    =
 50
359.999999844103
 41
0.916666604744064
 72
     2
 11
114.153514077164
 21
-39.5540775427363
 31
0.0
  0
TEXT
  5
   2D4
  8
0
  6
CONTINUOUS
 62
     7
 10
80.1111708315449
 20
-84.8761355232149
 30
0.0
 40
3.00000002980232
  1
=     =
 50
449.999999844103
 41
0.916666604744064
 72
     2
 11
80.1111708823084
 21
-66.1761366050392
 31
0.0
  0
TEXT
  5
   2D5
  8
0
  6
CONTINUOUS
 62
     7
 10
70.3980510768311
 20
-86.9680226803769
 30
0.0
 40
3.00000002980232
  1
=       =
 50
449.999999844103
 41
0.916666604744064
 72
     2
 11
70.3980511425251
 21
-62.7680240790992
 31
0.0
  0
TEXT
  5
   2D6
  8
0
  6
CONTINUOUS
 62
     7
 10
105.478100528218
 20
-108.057140419478
 30
0.0
 40
3.00000002980232
  1
Y
 50
359.999999844103
 41
0.916666604744064
 72
     2
 11
107.678100397087
 21
-108.057140425453
 31
0.0
  0
TEXT
  5
   2D7
  8
0
  6
CONTINUOUS
 62
     7
 10
105.648506154515
 20
-30.1817665791461
 30
0.0
 40
3.00000002980232
  1
Y
 50
359.999999844103
 41
0.916666604744064
 72
     2
 11
107.848506023384
 21
-30.181766585121
 31
0.0
  0
TEXT
  5
   2D8
  8
0
  6
CONTINUOUS
 62
     7
 10
57.2533074517023
 20
-76.0208805298755
 30
0.0
 40
3.00000002980232
  1
X
 50
359.999999844103
 41
0.916666604744064
 72
     2
 11
59.4533073205721
 21
-76.0208805358504
 31
0.0
  0
LINE
  5
   2D9
  8
0
  6
DASHDOT
 62
     7
 10
182.762542724609
 20
-19.2559420697012
 30
0.0
 11
182.762542724609
 21
-108.831494239063
 31
0.0
  0
LINE
  5
   2DA
  8
0
  6
DASHDOT
 62
     7
 10
194.705080318329
 20
-25.9247360229492
 30
0.0
 11
170.410874322173
 21
-25.9247360229492
 31
0.0
  0
LINE
  5
   2DB
  8
0
  6
DASHDOT
 62
     7
 10
195.204425034961
 20
-101.799736022949
 30
0.0
 11
171.257589276463
 21
-101.799736022949
 31
0.0
  0
LINE
  5
   2DC
  8
0
  6
CONTINUOUS
 62
     7
 10
196.512542724609
 20
-20.9247360229492
 30
0.0
 11
196.512542724609
 21
-106.799736022949
 31
0.0
  0
LINE
  5
   2DD
  8
0
  6
CONTINUOUS
 62
     7
 10
169.012542724609
 20
-20.9247360229492
 30
0.0
 11
169.012542724609
 21
-106.799736022949
 31
0.0
  0
LINE
  5
   2DE
  8
0
  6
CONTINUOUS
 62
     7
 10
196.512542724609
 20
-106.799736022949
 30
0.0
 11
169.012542724609
 21
-106.799736022949
 31
0.0
  0
LINE
  5
   2DF
  8
0
  6
CONTINUOUS
 62
     7
 10
196.512542724609
 20
-20.9247360229492
 30
0.0
 11
169.012542724609
 21
-20.9247360229492
 31
0.0
  0
CIRCLE
  5
   2E0
  8
0
  6
CONTINUOUS
 62
     7
 10
178.387542724609
 20
-25.9247360229492
 30
0.0
 40
0.6875
  0
CIRCLE
  5
   2E1
  8
0
  6
CONTINUOUS
 62
     7
 10
187.137542724609
 20
-25.9247360229492
 30
0.0
 40
0.6875
  0
CIRCLE
  5
   2E2
  8
0
  6
CONTINUOUS
 62
     7
 10
178.387542724609
 20
-101.799736022949
 30
0.0
 40
0.6875
  0
CIRCLE
  5
   2E3
  8
0
  6
CONTINUOUS
 62
     7
 10
187.137542724609
 20
-101.799736022949
 30
0.0
 40
0.6875
  0
LINE
  5
   2E4
  8
0
  6
DASHDOT
 62
     7
 10
178.387542724609
 20
-19.1651790636722
 30
0.0
 11
178.387542724609
 21
-104.901259871764
 31
0.0
  0
LINE
  5
   2E5
  8
0
  6
DASHDOT
 62
     7
 10
187.137542724609
 20
-18.9836530516144
 30
0.0
 11
187.137542724609
 21
-104.628798680103
 31
0.0
  0
LINE
  5
   2E6
  8
0
  6
DASHDOT
 62
     7
 10
203.426833113606
 20
-74.6122360229492
 30
0.0
 11
157.214983459345
 21
-74.6122360229492
 31
0.0
  0
TEXT
  5
   2E7
  8
0
  6
CONTINUOUS
 62
     1
 10
227.618729596453
 20
-176.802215579202
 30
0.0
 40
2.00000008940697
  1
3POLE LOW VOLTAGE M.C.C.B SERIES ISOMAX
 50
359.999999896069
 41
0.593749948963525
 72
     1
 11
250.656228639185
 21
-175.802215576172
 31
0.0
 73
     2
  0
TEXT
  5
   2E8
  8
0
  6
CONTINUOUS
 62
     1
 10
233.556229351515
 20
-179.802215589943
 30
0.0
 40
2.00000008940697
  1
FIXED VERSION FRONT TERMINALS
 50
359.999999896069
 41
0.593749948963525
 72
     1
 11
250.656228639185
 21
-178.802215576172
 31
0.0
 73
     2
  0
TEXT
  5
   2E9
  8
0
  6
CONTINUOUS
 62
     1
 10
226.602370365204
 20
-184.872482307448
 30
0.0
 40
2.00000008940697
  1
INTERR.AUTOMATICO SERIE ISOMAX
 50
359.999999896069
 41
0.687499997764826
 72
     1
 11
247.08987121284
 21
-183.872482299805
 31
0.0
 73
     2
  0
TEXT
  5
   2EA
  8
0
  6
CONTINUOUS
 62
     1
 10
221.102370137216
 20
-187.872482297499
 30
0.0
 40
2.00000008940697
  1
TRIPOL.ESECUZIONE FISSA TERMINALI ANT.
 50
359.999999896069
 41
0.687499997764826
 72
     1
 11
247.08987121284
 21
-186.872482299805
 31
0.0
 73
     2
  0
TEXT
  5
   2EB
  8
0
  6
CONTINUOUS
 62
     1
 10
250.059402463107
 20
-195.112487800883
 30
0.0
 40
3.00000002980232
  1
S4X 1000V
 50
359.999999896069
 41
0.916666604744064
 72
     2
 11
274.259401064385
 21
-195.112487844659
 31
0.0
  0
TEXT
  5
   2EC
  8
0
  6
CONTINUOUS
 62
     1
 10
231.973709102828
 20
-204.094070580145
 30
0.0
 40
4.00000017881393
  1
RH0035/041
 50
359.999999896069
 41
0.937499973922969
 72
     2
 11
268.723709702599
 21
-204.094070646623
 31
0.0
  0
INSERT
  5
   2ED
  8
0
  6
CONTINUOUS
 62
     7
  2
*UDIM198
 10
0.0
 20
0.0
 30
0.0
  0
INSERT
  5
   2EE
  8
0
  6
CONTINUOUS
 62
     7
  2
*UDIM199
 10
0.0
 20
0.0
 30
0.0
  0
TEXT
  5
   2EF
  8
0
  6
CONTINUOUS
 62
     7
 10
184.248217818408
 20
-58.6978836337695
 30
0.0
 40
3.00000002980232
  1
=
 50
359.999999896069
 41
0.916666604744064
 72
     2
 11
186.448217687278
 21
-58.6978836377492
 31
0.0
  0
TEXT
  5
   2F0
  8
0
  6
CONTINUOUS
 62
     7
 10
179.528541562228
 20
-58.6071205417285
 30
0.0
 40
3.00000002980232
  1
=
 50
359.999999896069
 41
0.916666604744064
 72
     2
 11
181.728541431098
 21
-58.6071205457081
 31
0.0
  0
TEXT
  5
   2F1
  8
0
  6
CONTINUOUS
 62
     7
 10
182.372099086906
 20
-18.5947751156506
 30
0.0
 40
3.00000002980232
  1
Y
 50
359.999999896069
 41
0.916666604744064
 72
     2
 11
184.572098955775
 21
-18.5947751196302
 31
0.0
  0
INSERT
  5
   2F2
  8
0
  6
CONTINUOUS
 62
     7
  2
*UDIM200
 10
0.0
 20
0.0
 30
0.0
  0
INSERT
  5
   2F3
  8
0
  6
CONTINUOUS
 62
     7
  2
*UDIM201
 10
0.0
 20
0.0
 30
0.0
  0
TEXT
  5
   2F4
  8
0
  6
CONTINUOUS
 62
     7
 10
141.536434170871
 20
-75.3802509585987
 30
0.0
 40
3.00000002980232
  1
X
 50
359.999999896069
 41
0.916666604744064
 72
     2
 11
143.73643403974
 21
-75.3802509625783
 31
0.0
  0
TEXT
  5
   2F5
  8
0
  6
CONTINUOUS
 62
     7
 10
204.757102963595
 20
-76.6602578441272
 30
0.0
 40
3.00000002980232
  1
X
 50
359.999999896069
 41
0.916666604744064
 72
     2
 11
206.957102832465
 21
-76.6602578481068
 31
0.0
  0
TEXT
  5
   2F6
  8
0
  6
CONTINUOUS
 62
     7
 10
181.765539166598
 20
-114.415058163799
 30
0.0
 40
3.00000002980232
  1
Y
 50
359.999999896069
 41
0.916666604744064
 72
     2
 11
183.965539035468
 21
-114.415058167778
 31
0.0
  0
LINE
  5
   2F7
  8
0
  6
CONTINUOUS
 62
     7
 10
218.381212455034
 20
69.1882159606394
 30
0.0
 11
218.381212455034
 21
69.363205276507
 31
0.0
  0
LINE
  5
   2F8
  8
0
  6
CONTINUOUS
 62
     7
 10
218.381212455034
 20
74.6132051871
 30
0.0
 11
218.381212455034
 21
81.6131943867386
 31
0.0
  0
LINE
  5
   2F9
  8
0
  6
CONTINUOUS
 62
     7
 10
219.256223121285
 20
69.363205276507
 30
0.0
 11
219.256223121285
 21
74.6132051871
 31
0.0
  0
LINE
  5
   2FA
  8
0
  6
CONTINUOUS
 62
     7
 10
219.256223121285
 20
69.363205276507
 30
0.0
 11
218.381212455034
 21
69.363205276507
 31
0.0
  0
LINE
  5
   2FB
  8
0
  6
CONTINUOUS
 62
     7
 10
219.256223121285
 20
74.6132051871
 30
0.0
 11
218.381212455034
 21
74.6132051871
 31
0.0
  0
LINE
  5
   2FC
  8
0
  6
CONTINUOUS
 62
     7
 10
219.256223121285
 20
81.6131943867386
 30
0.0
 11
219.256223121285
 21
86.8631942973316
 31
0.0
  0
LINE
  5
   2FD
  8
0
  6
CONTINUOUS
 62
     7
 10
219.256223121285
 20
81.6131943867386
 30
0.0
 11
218.381212455034
 21
81.6131943867386
 31
0.0
  0
LINE
  5
   2FE
  8
0
  6
CONTINUOUS
 62
     7
 10
219.256223121285
 20
86.8631942973316
 30
0.0
 11
218.381212455034
 21
86.8631942973316
 31
0.0
  0
LINE
  5
   2FF
  8
0
  6
CONTINUOUS
 62
     7
 10
242.356206706166
 20
69.1882052794872
 30
0.0
 11
242.356206706166
 21
88.4381942705095
 31
0.0
  0
LINE
  5
   300
  8
0
  6
CONTINUOUS
 62
     2
 10
218.381191092567
 20
88.2631942734897
 30
0.0
 11
218.381191092567
 21
95.4783125588201
 31
0.0
  0
LINE
  5
   301
  8
0
  6
CONTINUOUS
 62
     7
 10
243.581212025881
 20
94.5631941662014
 30
0.0
 11
242.356212046742
 21
94.5631941662014
 31
0.0
  0
LINE
  5
   302
  8
0
  6
CONTINUOUS
 62
     7
 10
242.356174662461
 20
88.4381912187848
 30
0.0
 11
242.356174662461
 21
94.5631911144767
 31
0.0
  0
LINE
  5
   303
  8
0
  6
CONTINUOUS
 62
     7
 10
219.781212431192
 20
89.1381942585886
 30
0.0
 11
218.381212455034
 21
89.1381942585886
 31
0.0
  0
LINE
  5
   304
  8
0
  6
CONTINUOUS
 62
     7
 10
219.78121332116
 20
89.1381898148232
 30
0.0
 11
219.781226672608
 21
94.3881941691816
 31
0.0
  0
LINE
  5
   305
  8
0
  6
CONTINUOUS
 62
     7
 10
242.356206706166
 20
65.8632106766877
 30
0.0
 11
242.356206706166
 21
69.1882159606394
 31
0.0
  0
LINE
  5
   306
  8
0
  6
CONTINUOUS
 62
     7
 10
218.381216024797
 20
44.5132199433131
 30
0.0
 11
218.381226705949
 21
44.6162022301773
 31
0.0
  0
LINE
  5
   307
  8
0
  6
CONTINUOUS
 62
     7
 10
218.381223136089
 20
50.0102363120731
 30
0.0
 11
218.381223136089
 21
69.1882129752202
 31
0.0
  0
LINE
  5
   308
  8
0
  6
CONTINUOUS
 62
     7
 10
243.231212031841
 20
49.2382163003858
 30
0.0
 11
219.431200687885
 21
49.2382163003858
 31
0.0
  0
LINE
  5
   309
  8
0
  6
CONTINUOUS
 62
     7
 10
243.231212031841
 20
45.3882163659509
 30
0.0
 11
219.431200687885
 21
45.3882163659509
 31
0.0
  0
LINE
  5
   30A
  8
0
  6
CONTINUOUS
 62
     7
 10
221.262433054655
 20
49.2382198596137
 30
0.0
 11
218.381224425818
 21
50.0102398456142
 31
0.0
  0
LINE
  5
   30B
  8
0
  6
CONTINUOUS
 62
     7
 10
218.381226040711
 20
44.6161992380729
 30
0.0
 11
221.262434735889
 21
45.3882167400028
 31
0.0
  0
LINE
  5
   30C
  8
0
  6
CONTINUOUS
 62
     7
 10
243.581206685305
 20
50.2882162825044
 30
0.0
 11
240.781206732988
 21
50.2882162825044
 31
0.0
  0
LINE
  5
   30D
  8
0
  6
CONTINUOUS
 62
     7
 10
240.781206732988
 20
50.2882162825044
 30
0.0
 11
240.781206732988
 21
65.1632106886086
 31
0.0
  0
LINE
  5
   30E
  8
0
  6
CONTINUOUS
 62
     7
 10
218.731223130226
 20
47.4882163301882
 30
0.0
 11
218.731223130226
 21
49.9164534409351
 31
0.0
  0
LINE
  5
   30F
  8
0
  6
CONTINUOUS
 62
     7
 10
218.731218200476
 20
44.7099827048677
 30
0.0
 11
218.731223541047
 21
45.0382198526289
 31
0.0
  0
LINE
  5
   310
  8
0
  6
CONTINUOUS
 62
     2
 10
218.381223136186
 20
50.2882162825044
 30
0.0
 11
217.681223148107
 21
50.2882162825044
 31
0.0
  0
LINE
  5
   311
  8
0
  6
CONTINUOUS
 62
     2
 10
218.381223136186
 20
52.2132162497219
 30
0.0
 11
217.681223148107
 21
52.2132162497219
 31
0.0
  0
LINE
  5
   312
  8
0
  6
CONTINUOUS
 62
     7
 10
243.581199121806
 20
45.0382300310788
 30
0.0
 11
243.231204479751
 21
45.3882246731338
 31
0.0
  0
LINE
  5
   313
  8
0
  6
CONTINUOUS
 62
     7
 10
243.231207609057
 20
49.2382167910706
 30
0.0
 11
243.581207591117
 21
49.5882167731302
 31
0.0
  0
LINE
  5
   314
  8
0
  6
CONTINUOUS
 62
     7
 10
242.356206706166
 20
65.1632106886086
 30
0.0
 11
242.356206706166
 21
65.8632106766877
 31
0.0
  0
LINE
  5
   315
  8
0
  6
CONTINUOUS
 62
     2
 10
219.081223124265
 20
38.213227169293
 30
0.0
 11
217.681223148107
 21
38.213227169293
 31
0.0
  0
LINE
  5
   316
  8
0
  6
CONTINUOUS
 62
     7
 10
218.381212455034
 20
39.0882337766933
 30
0.0
 11
218.381212455034
 21
44.5132163808521
 31
0.0
  0
LINE
  5
   317
  8
0
  6
CONTINUOUS
 62
     7
 10
243.581206685305
 20
39.9632271394903
 30
0.0
 11
240.081212085485
 21
39.9632271394903
 31
0.0
  0
LINE
  5
   318
  8
0
  6
CONTINUOUS
 62
     7
 10
240.081212085485
 20
38.2132271692926
 30
0.0
 11
240.081212085485
 21
39.9632271394903
 31
0.0
  0
LINE
  5
   319
  8
0
  6
CONTINUOUS
 62
     7
 10
218.381212455034
 20
39.0882337766933
 30
0.0
 11
218.381212455034
 21
39.2282411759786
 31
0.0
  0
LINE
  5
   31A
  8
0
  6
CONTINUOUS
 62
     2
 10
218.381212455034
 20
88.2631942734897
 30
0.0
 11
218.206223139166
 21
88.2631942734897
 31
0.0
  0
LINE
  5
   31B
  8
0
  6
CONTINUOUS
 62
     7
 10
218.38121779561
 20
63.5882160560068
 30
0.0
 11
218.206223139166
 21
63.5882160560068
 31
0.0
  0
LINE
  5
   31C
  8
0
  6
CONTINUOUS
 62
     7
 10
218.381223136186
 20
52.3882175818857
 30
0.0
 11
218.206223139166
 21
52.3882175818857
 31
0.0
  0
LINE
  5
   31D
  8
0
  6
CONTINUOUS
 62
     7
 10
218.731223130226
 20
49.7632166252311
 30
0.0
 11
218.206223139166
 21
49.7632166252311
 31
0.0
  0
LINE
  5
   31E
  8
0
  6
CONTINUOUS
 62
     7
 10
218.381212455034
 20
44.1632217273887
 30
0.0
 11
218.206223139166
 21
44.1632217273887
 31
0.0
  0
LINE
  5
   31F
  8
0
  6
CONTINUOUS
 62
     2
 10
218.206223139166
 20
39.4032304918463
 30
0.0
 11
218.206223139166
 21
50.2882109419284
 31
0.0
  0
LINE
  5
   320
  8
0
  6
CONTINUOUS
 62
     2
 10
218.206223139166
 20
52.2132109091458
 30
0.0
 11
218.206223139166
 21
88.2631889329136
 31
0.0
  0
LINE
  5
   321
  8
0
  6
CONTINUOUS
 62
     7
 10
218.731223130226
 20
81.6132104084668
 30
0.0
 11
218.731223130226
 21
86.8631942973316
 31
0.0
  0
LINE
  5
   322
  8
0
  6
CONTINUOUS
 62
     7
 10
218.731223130226
 20
69.3632266388113
 30
0.0
 11
218.731223130226
 21
74.6132212088282
 31
0.0
  0
LINE
  5
   323
  8
0
  6
CONTINUOUS
 62
     7
 10
218.731223130226
 20
45.0382430747918
 30
0.0
 11
218.731223130226
 21
47.4882430330686
 31
0.0
  0
LINE
  5
   324
  8
0
  6
CONTINUOUS
 62
     2
 10
218.381212455034
 20
39.2282411759786
 30
0.0
 11
218.206222543849
 21
39.4032310871634
 31
0.0
  0
LINE
  5
   325
  8
0
  6
CONTINUOUS
 62
     2
 10
218.381223136186
 20
93.8631941781223
 30
0.0
 11
217.681223148107
 21
93.8631941781223
 31
0.0
  0
LINE
  5
   326
  8
0
  6
CONTINUOUS
 62
     2
 10
218.381223136186
 20
97.7131941125572
 30
0.0
 11
217.681223148107
 21
97.7131941125572
 31
0.0
  0
LINE
  5
   327
  8
0
  6
CONTINUOUS
 62
     2
 10
218.381223136186
 20
96.7722700563154
 30
0.0
 11
217.681223148107
 21
96.7722700563154
 31
0.0
  0
LINE
  5
   328
  8
0
  6
CONTINUOUS
 62
     2
 10
218.381223136186
 20
95.4783125588201
 30
0.0
 11
217.681223148107
 21
95.4783125588201
 31
0.0
  0
LINE
  5
   329
  8
0
  6
CONTINUOUS
 62
     7
 10
242.531201362609
 20
70.2381931184042
 30
0.0
 11
242.531201362609
 21
89.3132088152871
 31
0.0
  0
LINE
  5
   32A
  8
0
  6
CONTINUOUS
 62
     7
 10
252.156211879849
 20
94.7382061260992
 30
0.0
 11
252.156211879849
 21
94.913206123119
 31
0.0
  0
LINE
  5
   32B
  8
0
  6
CONTINUOUS
 62
     7
 10
243.581212025881
 20
94.3882007914836
 30
0.0
 11
243.581212025881
 21
94.7382061260992
 31
0.0
  0
LINE
  5
   32C
  8
0
  6
CONTINUOUS
 62
     7
 10
251.45621189177
 20
94.7382061260992
 30
0.0
 11
251.351210825443
 21
94.7382061260992
 31
0.0
  0
LINE
  5
   32D
  8
0
  6
CONTINUOUS
 62
     7
 10
243.581212025881
 20
94.3882114726357
 30
0.0
 11
242.531212043762
 21
94.3882114726357
 31
0.0
  0
LINE
  5
   32E
  8
0
  6
CONTINUOUS
 62
     7
 10
242.531212043762
 20
89.3132115590625
 30
0.0
 11
242.531212043762
 21
94.3882114726357
 31
0.0
  0
LINE
  5
   32F
  8
0
  6
CONTINUOUS
 62
     7
 10
243.581196004152
 20
40.3132177341036
 30
0.0
 11
243.581196004152
 21
42.8600316555753
 31
0.0
  0
LINE
  5
   330
  8
0
  6
CONTINUOUS
 62
     7
 10
242.531206703186
 20
66.0382066148573
 30
0.0
 11
242.531206703186
 21
70.2381958621795
 31
0.0
  0
LINE
  5
   331
  8
0
  6
CONTINUOUS
 62
     7
 10
242.531206703186
 20
65.1631959486063
 30
0.0
 11
242.181206709146
 21
65.1631959486063
 31
0.0
  0
LINE
  5
   332
  8
0
  6
CONTINUOUS
 62
     7
 10
251.351199879678
 20
39.2632284331446
 30
0.0
 11
243.581195739539
 21
39.2632284331446
 31
0.0
  0
LINE
  5
   333
  8
0
  6
CONTINUOUS
 62
     7
 10
243.581196004152
 20
39.263217751985
 30
0.0
 11
243.581196004152
 21
40.3132177341036
 31
0.0
  0
LINE
  5
   334
  8
0
  6
CONTINUOUS
 62
     7
 10
243.581201344728
 20
42.8600316555753
 30
0.0
 11
243.581201344728
 21
45.3007208727661
 31
0.0
  0
LINE
  5
   335
  8
0
  6
CONTINUOUS
 62
     7
 10
251.456195870042
 20
38.2132124292903
 30
0.0
 11
251.456195870042
 21
39.2632124114089
 31
0.0
  0
LINE
  5
   336
  8
0
  6
CONTINUOUS
 62
     7
 10
251.456195870042
 20
39.2632124114089
 30
0.0
 11
251.351200165153
 21
39.2632124114089
 31
0.0
  0
LINE
  5
   337
  8
0
  6
CONTINUOUS
 62
     7
 10
242.181206709146
 20
65.1631959486063
 30
0.0
 11
240.781206732988
 21
65.1631959486063
 31
0.0
  0
LINE
  5
   338
  8
0
  6
CONTINUOUS
 62
     7
 10
242.531206703186
 20
65.1631959486063
 30
0.0
 11
242.531206703186
 21
66.0382066148573
 31
0.0
  0
LINE
  5
   339
  8
0
  6
CONTINUOUS
 62
     7
 10
251.351198688867
 20
45.3007283303251
 30
0.0
 11
243.581199889304
 21
45.3007283303251
 31
0.0
  0
LINE
  5
   33A
  8
0
  6
CONTINUOUS
 62
     7
 10
251.351196114806
 20
49.3257282617788
 30
0.0
 11
243.581197315243
 21
49.3257282617788
 31
0.0
  0
LINE
  5
   33B
  8
0
  6
CONTINUOUS
 62
     7
 10
244.035860243549
 20
40.5757237204638
 30
0.0
 11
244.106195619515
 21
40.8382237123695
 31
0.0
  0
LINE
  5
   33C
  8
0
  6
CONTINUOUS
 62
     7
 10
243.84369926934
 20
40.3835565508258
 30
0.0
 11
244.035858524618
 21
40.5757211514566
 31
0.0
  0
LINE
  5
   33D
  8
0
  6
CONTINUOUS
 62
     7
 10
243.581189954264
 20
40.3132259365914
 30
0.0
 11
243.843695279785
 21
40.3835613179106
 31
0.0
  0
LINE
  5
   33E
  8
0
  6
CONTINUOUS
 62
     7
 10
243.843698204303
 20
44.4428830373487
 30
0.0
 11
243.581198210698
 21
44.5132237587199
 31
0.0
  0
LINE
  5
   33F
  8
0
  6
CONTINUOUS
 62
     7
 10
244.03585701427
 20
44.2507208405249
 30
0.0
 11
243.843697756318
 21
44.4428800984764
 31
0.0
  0
LINE
  5
   340
  8
0
  6
CONTINUOUS
 62
     7
 10
244.10619198657
 20
43.9882213316115
 30
0.0
 11
244.035851265198
 21
44.2507213252164
 31
0.0
  0
LINE
  5
   341
  8
0
  6
CONTINUOUS
 62
     7
 10
244.106193028237
 20
40.8382198029851
 30
0.0
 11
244.106198368813
 21
43.9882197493409
 31
0.0
  0
LINE
  5
   342
  8
0
  6
CONTINUOUS
 62
     7
 10
251.35120014429
 20
39.2632124114089
 30
0.0
 11
251.35120014429
 21
94.7382017466244
 31
0.0
  0
LINE
  5
   343
  8
0
  6
CONTINUOUS
 62
     7
 10
251.351216166019
 20
102.333210269218
 30
0.0
 11
218.381191092567
 21
102.333210269218
 31
0.0
  0
LINE
  5
   344
  8
0
  6
CONTINUOUS
 62
     7
 10
251.351178781982
 20
94.7382037142611
 30
0.0
 11
251.351178781982
 21
102.33320785738
 31
0.0
  0
LINE
  5
   345
  8
0
  6
CONTINUOUS
 62
     7
 10
243.581212025881
 20
94.7382114666753
 30
0.0
 11
243.581212025881
 21
103.313210038918
 31
0.0
  0
LINE
  5
   346
  8
0
  6
CONTINUOUS
 62
     7
 10
257.056217136979
 20
41.1007337424208
 30
0.0
 11
257.056217136979
 21
47.5757216692741
 31
0.0
  0
LINE
  5
   347
  8
0
  6
CONTINUOUS
 62
     7
 10
257.056217136979
 20
77.0632224488309
 30
0.0
 11
257.056217136979
 21
77.1507224473408
 31
0.0
  0
LINE
  5
   348
  8
0
  6
CONTINUOUS
 62
     7
 10
255.131219172477
 20
77.8507224354198
 30
0.0
 11
253.906217190623
 21
77.8507224354198
 31
0.0
  0
LINE
  5
   349
  8
0
  6
CONTINUOUS
 62
     7
 10
255.131219172477
 20
41.1007337424208
 30
0.0
 11
253.906217190623
 21
41.1007337424208
 31
0.0
  0
LINE
  5
   34A
  8
0
  6
CONTINUOUS
 62
     7
 10
251.456217232346
 20
35.4132338392783
 30
0.0
 11
251.456217232346
 21
39.2632124114089
 31
0.0
  0
LINE
  5
   34B
  8
0
  6
CONTINUOUS
 62
     7
 10
253.206217202544
 20
35.4132338392783
 30
0.0
 11
253.206217202544
 21
41.1007337424208
 31
0.0
  0
LINE
  5
   34C
  8
0
  6
CONTINUOUS
 62
     7
 10
253.206217202544
 20
77.8507224354198
 30
0.0
 11
253.206217202544
 21
94.7382221478274
 31
0.0
  0
LINE
  5
   34D
  8
0
  6
CONTINUOUS
 62
     7
 10
253.206217202544
 20
94.7382221478274
 30
0.0
 11
251.456217232346
 21
94.7382221478274
 31
0.0
  0
LINE
  5
   34E
  8
0
  6
CONTINUOUS
 62
     7
 10
253.206217202544
 20
35.4132338392783
 30
0.0
 11
251.456217232346
 21
35.4132338392783
 31
0.0
  0
LINE
  5
   34F
  8
0
  6
CONTINUOUS
 62
     7
 10
253.906217190623
 20
41.1007337424208
 30
0.0
 11
253.906217190623
 21
77.8507224354198
 31
0.0
  0
LINE
  5
   350
  8
0
  6
CONTINUOUS
 62
     7
 10
253.906217190623
 20
41.1007337424208
 30
0.0
 11
253.206217202544
 21
41.1007337424208
 31
0.0
  0
LINE
  5
   351
  8
0
  6
CONTINUOUS
 62
     7
 10
253.906217190623
 20
77.8507224354198
 30
0.0
 11
253.206217202544
 21
77.8507224354198
 31
0.0
  0
LINE
  5
   352
  8
0
  6
CONTINUOUS
 62
     7
 10
251.35119203821
 20
49.5182068623134
 30
0.0
 11
251.456193099669
 21
49.5273926520482
 31
0.0
  0
LINE
  5
   353
  8
0
  6
CONTINUOUS
 62
     7
 10
251.456211149893
 20
45.0990280366828
 30
0.0
 11
251.351210085499
 21
45.1082191670108
 31
0.0
  0
LINE
  5
   354
  8
0
  6
CONTINUOUS
 62
     7
 10
243.581201344728
 20
49.3257208042217
 30
0.0
 11
243.581201344728
 21
50.2882068830782
 31
0.0
  0
LINE
  5
   355
  8
0
  6
CONTINUOUS
 62
     7
 10
251.351215832233
 20
15.3932339131879
 30
0.0
 11
234.691048715059
 21
15.3932339131879
 31
0.0
  0
LINE
  5
   356
  8
0
  6
CONTINUOUS
 62
     2
 10
219.081223124265
 20
39.0882337766933
 30
0.0
 11
218.381212455034
 21
39.0882337766933
 31
0.0
  0
LINE
  5
   357
  8
0
  6
CONTINUOUS
 62
     7
 10
251.351221506595
 20
39.0882337766933
 30
0.0
 11
245.331217336654
 21
39.0882337766933
 31
0.0
  0
LINE
  5
   358
  8
0
  6
CONTINUOUS
 62
     2
 10
219.081223124265
 20
38.2132337915944
 30
0.0
 11
219.081223124265
 21
39.0882337766933
 31
0.0
  0
LINE
  5
   359
  8
0
  6
CONTINUOUS
 62
   218
 10
251.351218635637
 20
24.2132286891235
 30
0.0
 11
251.456217232073
 21
24.2132299215448
 31
0.0
  0
LINE
  5
   35A
  8
0
  6
CONTINUOUS
 62
     7
 10
251.351221506595
 20
15.3932352483319
 30
0.0
 11
251.351221506595
 21
24.213234030013
 31
0.0
  0
LINE
  5
   35B
  8
0
  6
CONTINUOUS
 62
   218
 10
251.351221506595
 20
24.213234030013
 30
0.0
 11
251.351221506595
 21
39.0882337766933
 31
0.0
  0
LINE
  5
   35C
  8
0
  6
CONTINUOUS
 62
     7
 10
251.456217232346
 20
35.0632338452386
 30
0.0
 11
251.351221506595
 21
35.0632338452386
 31
0.0
  0
LINE
  5
   35D
  8
0
  6
CONTINUOUS
 62
   218
 10
217.681223148078
 20
26.3132286540205
 30
0.0
 11
218.381222802355
 21
26.3132339945966
 31
0.0
  0
LINE
  5
   35E
  8
0
  6
CONTINUOUS
 62
   218
 10
218.3812228024
 20
16.6181936091541
 30
0.0
 11
218.3812228024
 21
26.3132286536743
 31
0.0
  0
LINE
  5
   35F
  8
0
  6
CONTINUOUS
 62
   218
 10
218.381223136186
 20
22.5507287177491
 30
0.0
 11
217.681223148107
 21
22.5507287177491
 31
0.0
  0
LINE
  5
   360
  8
0
  6
CONTINUOUS
 62
     7
 10
243.581213361778
 20
39.0882337785979
 30
0.0
 11
243.581218702355
 21
39.788233766693
 31
0.0
  0
LINE
  5
   361
  8
0
  6
CONTINUOUS
 62
     7
 10
243.581222707033
 20
39.7882337647724
 30
0.0
 11
240.081222766637
 21
39.7882337647724
 31
0.0
  0
LINE
  5
   362
  8
0
  6
CONTINUOUS
 62
     7
 10
245.331217336654
 20
39.0882337766933
 30
0.0
 11
243.581217366457
 21
39.0882337766933
 31
0.0
  0
LINE
  5
   363
  8
0
  6
CONTINUOUS
 62
   218
 10
218.381223136186
 20
19.4995718197131
 30
0.0
 11
217.681223148107
 21
19.4995718197131
 31
0.0
  0
LINE
  5
   364
  8
0
  6
CONTINUOUS
 62
   218
 10
218.381223136186
 20
20.3581178236926
 30
0.0
 11
217.681223148107
 21
20.3581178236926
 31
0.0
  0
LINE
  5
   365
  8
0
  6
CONTINUOUS
 62
   218
 10
218.381223136186
 20
22.5060067336475
 30
0.0
 11
217.681223148107
 21
22.5060067336475
 31
0.0
  0
LINE
  5
   366
  8
0
  6
CONTINUOUS
 62
     7
 10
253.206217202544
 20
35.2382338422586
 30
0.0
 11
251.456217232346
 21
35.2382338422586
 31
0.0
  0
LINE
  5
   367
  8
0
  6
CONTINUOUS
 62
     7
 10
253.206217202544
 20
22.9882340508748
 30
0.0
 11
251.456217232346
 21
22.9882340508748
 31
0.0
  0
LINE
  5
   368
  8
0
  6
CONTINUOUS
 62
     7
 10
253.206217202544
 20
22.9882340508748
 30
0.0
 11
253.206217202544
 21
35.2382338422586
 31
0.0
  0
LINE
  5
   369
  8
0
  6
CONTINUOUS
 62
     7
 10
252.506217214465
 20
22.9882340508748
 30
0.0
 11
252.506217214465
 21
35.2382338422586
 31
0.0
  0
LINE
  5
   36A
  8
0
  6
CONTINUOUS
 62
     7
 10
251.456217232346
 20
22.9882340508748
 30
0.0
 11
251.456217232346
 21
35.2382338422586
 31
0.0
  0
ARC
  5
   36B
  8
0
  6
CONTINUOUS
 62
     7
 10
264.292485483425
 20
51.7603750481161
 30
0.0
 40
0.349999922554071
 50
348.623573369035
 51
436.688788706936
  0
ARC
  5
   36C
  8
0
  6
CONTINUOUS
 62
     7
 10
263.873624950616
 20
49.6786387947687
 30
0.0
 40
0.35000025487589
 50
260.593992196011
 51
348.623573369035
  0
LINE
  5
   36D
  8
0
  6
DASHDOT
 62
     7
 10
269.472690023249
 20
49.6223436379985
 30
0.0
 11
251.93185005785
 21
53.1516876954229
 31
0.0
  0
LINE
  5
   36E
  8
0
  6
CONTINUOUS
 62
     7
 10
264.373069462696
 20
52.1009715711049
 30
0.0
 11
257.056217136979
 21
53.832113953204
 31
0.0
  0
LINE
  5
   36F
  8
0
  6
CONTINUOUS
 62
     7
 10
264.216748456189
 20
49.609599860046
 30
0.0
 11
264.635608873993
 21
51.6913361365332
 31
0.0
  0
LINE
  5
   370
  8
0
  6
CONTINUOUS
 62
     7
 10
263.816424634574
 20
49.3333443946391
 30
0.0
 11
257.056217136979
 21
50.4532177699986
 31
0.0
  0
LINE
  5
   371
  8
0
  6
CONTINUOUS
 62
     7
 10
219.431200687885
 20
45.3882163659509
 30
0.0
 11
219.431200687885
 21
49.2382163003858
 31
0.0
  0
LINE
  5
   372
  8
0
  6
CONTINUOUS
 62
     2
 10
218.381191092567
 20
96.7722700563154
 30
0.0
 11
218.381191092567
 21
103.31320966194
 31
0.0
  0
LINE
  5
   373
  8
0
  6
DASHDOT
 62
     7
 10
217.331223154068
 20
8.22450093638364
 30
0.0
 11
217.331223154068
 21
14.4132341969062
 31
0.0
  0
LINE
  5
   374
  8
0
  6
DASHDOT
 62
     7
 10
216.281223171949
 20
8.21484618290475
 30
0.0
 11
216.281223171949
 21
139.052483036302
 31
0.0
  0
LINE
  5
   375
  8
0
  6
CONTINUOUS
 62
     7
 10
218.776625567349
 20
139.052483036302
 30
0.0
 11
215.228398517356
 21
139.052483036302
 31
0.0
  0
ARC
  5
   376
  8
0
  6
CONTINUOUS
 62
     7
 10
238.331217455864
 20
55.8882334905912
 30
0.0
 40
26.61542846025
 50
333.082565820193
 51
379.93594827737
  0
LINE
  5
   377
  8
0
  6
CONTINUOUS
 62
     7
 10
264.946645916114
 20
55.8882334905911
 30
0.0
 11
264.946645916114
 21
71.0604808930119
 31
0.0
  0
LINE
  5
   378
  8
0
  6
DASHDOT
 62
     7
 10
231.927594078039
 20
20.7131935394166
 30
0.0
 11
222.08094483352
 21
20.7131935394166
 31
0.0
  0
LINE
  5
   379
  8
0
  6
CONTINUOUS
 62
     7
 10
226.431214831109
 20
17.2132115051923
 30
0.0
 11
224.681214860911
 21
17.2132115051923
 31
0.0
  0
LINE
  5
   37A
  8
0
  6
CONTINUOUS
 62
     7
 10
224.681214860911
 20
17.2132115051922
 30
0.0
 11
224.681214860911
 21
27.8851389880198
 31
0.0
  0
LINE
  5
   37B
  8
0
  6
CONTINUOUS
 62
     7
 10
226.431214163537
 20
22.1131935155748
 30
0.0
 11
224.681214860911
 21
22.1131935155748
 31
0.0
  0
LINE
  5
   37C
  8
0
  6
CONTINUOUS
 62
     7
 10
226.431214163537
 20
19.3131935632585
 30
0.0
 11
224.681214860911
 21
19.3131935632585
 31
0.0
  0
LINE
  5
   37D
  8
0
  6
CONTINUOUS
 62
     7
 10
226.431214163537
 20
17.2132115051922
 30
0.0
 11
226.431214163537
 21
19.3131935632585
 31
0.0
  0
LINE
  5
   37E
  8
0
  6
CONTINUOUS
 62
     7
 10
231.983353887458
 20
27.8851389880198
 30
0.0
 11
214.493224110272
 21
27.8851389880198
 31
0.0
  0
LINE
  5
   37F
  8
0
  6
CONTINUOUS
 62
     7
 10
235.259368907643
 20
13.3242512512992
 30
0.0
 11
231.116969749888
 21
28.40475014587
 31
0.0
  0
INSERT
  5
   380
  8
0
  6
CONTINUOUS
 62
     7
  2
*HATCH76
 10
253.731201171875
 20
20.98024559021
 30
0.0
 41
0.349999994039536
 42
0.349999994039536
 50
89.9999999480344
 43
0.349999994039536
  0
INSERT
  5
   381
  8
0
  6
CONTINUOUS
 62
     7
  2
*HATCH77
 10
253.731201171875
 20
20.98024559021
 30
0.0
 41
0.349999994039536
 42
0.349999994039536
 50
89.9999999480344
 43
0.349999994039536
  0
LINE
  5
   382
  8
0
  6
CONTINUOUS
 62
     7
 10
224.681214860911
 20
25.9631934500097
 30
0.0
 11
218.3812228024
 21
25.9631934500097
 31
0.0
  0
LINE
  5
   383
  8
0
  6
CONTINUOUS
 62
     7
 10
224.681214860911
 20
27.3631934261678
 30
0.0
 11
217.681223148107
 21
27.3631934261678
 31
0.0
  0
LINE
  5
   384
  8
0
  6
CONTINUOUS
 62
     7
 10
232.172190882418
 20
24.5631934738515
 30
0.0
 11
226.431214163537
 21
24.5631934738515
 31
0.0
  0
INSERT
  5
   385
  8
0
  6
CONTINUOUS
 62
     7
  2
*HATCH78
 10
253.731201171875
 20
20.98024559021
 30
0.0
 41
0.349999994039536
 42
0.349999994039536
 50
89.9999999480344
 43
0.349999994039536
  0
LINE
  5
   386
  8
0
  6
CONTINUOUS
 62
     7
 10
231.78763074534
 20
25.9631934500097
 30
0.0
 11
226.431214163537
 21
25.9631934500097
 31
0.0
  0
INSERT
  5
   387
  8
0
  6
CONTINUOUS
 62
     7
  2
*HATCH79
 10
253.731201171875
 20
20.98024559021
 30
0.0
 41
0.349999994039536
 42
0.349999994039536
 50
89.9999999480344
 43
0.349999994039536
  0
LINE
  5
   388
  8
0
  6
CONTINUOUS
 62
     7
 10
240.081212085485
 20
38.213227169293
 30
0.0
 11
219.081223124265
 21
38.213227169293
 31
0.0
  0
LINE
  5
   389
  8
0
  6
CONTINUOUS
 62
     7
 10
257.056217136979
 20
64.2007213861521
 30
0.0
 11
257.056217136979
 21
77.8507224354198
 31
0.0
  0
LINE
  5
   38A
  8
0
  6
CONTINUOUS
 62
     7
 10
257.056217136979
 20
59.6507214636381
 30
0.0
 11
257.056217136979
 21
63.8507213921125
 31
0.0
  0
LINE
  5
   38B
  8
0
  6
CONTINUOUS
 62
     7
 10
257.056217136979
 20
52.475732266979
 30
0.0
 11
257.056217136979
 21
59.3007214695986
 31
0.0
  0
LINE
  5
   38C
  8
0
  6
CONTINUOUS
 62
     7
 10
257.056217136979
 20
47.9257216633137
 30
0.0
 11
257.056217136979
 21
52.1257322729395
 31
0.0
  0
LINE
  5
   38D
  8
0
  6
CONTINUOUS
 62
     1
 10
255.131219172477
 20
40.2234640659057
 30
0.0
 11
255.131219172477
 21
40.9234640539847
 31
0.0
  0
LINE
  5
   38E
  8
0
  6
CONTINUOUS
 62
     1
 10
255.831219160557
 20
40.2234640659057
 30
0.0
 11
255.131219172477
 21
40.2234640659057
 31
0.0
  0
LINE
  5
   38F
  8
0
  6
CONTINUOUS
 62
     1
 10
255.131219172477
 20
78.0234620870315
 30
0.0
 11
255.131219172477
 21
78.7234620751105
 31
0.0
  0
LINE
  5
   390
  8
0
  6
CONTINUOUS
 62
     1
 10
255.831219160557
 20
78.7234620751105
 30
0.0
 11
255.131219172477
 21
78.7234620751105
 31
0.0
  0
LINE
  5
   391
  8
0
  6
CONTINUOUS
 62
     1
 10
255.131219172477
 20
40.9234640539847
 30
0.0
 11
255.131219172477
 21
78.0234634221755
 31
0.0
  0
LINE
  5
   392
  8
0
  6
CONTINUOUS
 62
     1
 10
253.5562191993
 20
83.4755333747985
 30
0.0
 11
253.5562191993
 21
85.1713905846877
 31
0.0
  0
LINE
  5
   393
  8
0
  6
CONTINUOUS
 62
     1
 10
255.831219160557
 20
31.3007152707143
 30
0.0
 11
255.831219160557
 21
87.6507129759355
 31
0.0
  0
LINE
  5
   394
  8
0
  6
CONTINUOUS
 62
     1
 10
257.056219139695
 20
31.3007152707143
 30
0.0
 11
257.056219139695
 21
87.6507129759355
 31
0.0
  0
LINE
  5
   395
  8
0
  6
CONTINUOUS
 62
     1
 10
255.831219160557
 20
83.2734619976245
 30
0.0
 11
253.906218074519
 21
83.2734619976245
 31
0.0
  0
LINE
  5
   396
  8
0
  6
CONTINUOUS
 62
     1
 10
255.831219160557
 20
85.3734619618617
 30
0.0
 11
253.906220340124
 21
85.3734619618617
 31
0.0
  0
LINE
  5
   397
  8
0
  6
CONTINUOUS
 62
     1
 10
253.906219188544
 20
83.2734619976245
 30
0.0
 11
253.906219188544
 21
83.3533890592516
 31
0.0
  0
LINE
  5
   398
  8
0
  6
CONTINUOUS
 62
     1
 10
253.906219467047
 20
83.273461193653
 30
0.0
 11
253.556219461483
 21
83.4755325733605
 31
0.0
  0
LINE
  5
   399
  8
0
  6
CONTINUOUS
 62
     1
 10
253.906219188544
 20
83.3533890592516
 30
0.0
 11
253.906219188544
 21
83.5809990712446
 31
0.0
  0
LINE
  5
   39A
  8
0
  6
CONTINUOUS
 62
     1
 10
253.906219188544
 20
83.5809990712446
 30
0.0
 11
253.906219188544
 21
83.9216477165664
 31
0.0
  0
LINE
  5
   39B
  8
0
  6
CONTINUOUS
 62
     1
 10
253.906219188544
 20
83.9216477165664
 30
0.0
 11
253.906219188544
 21
84.3234619797431
 31
0.0
  0
LINE
  5
   39C
  8
0
  6
CONTINUOUS
 62
     1
 10
253.906219188544
 20
84.3234619797431
 30
0.0
 11
253.906219188544
 21
84.7252815834959
 31
0.0
  0
LINE
  5
   39D
  8
0
  6
CONTINUOUS
 62
     1
 10
253.906219188544
 20
84.7252815834959
 30
0.0
 11
253.906219188544
 21
85.0659248882416
 31
0.0
  0
LINE
  5
   39E
  8
0
  6
CONTINUOUS
 62
     1
 10
253.906219188544
 20
85.0659248882416
 30
0.0
 11
253.906219188544
 21
85.2935349002346
 31
0.0
  0
LINE
  5
   39F
  8
0
  6
CONTINUOUS
 62
     1
 10
253.906219188544
 20
85.2935349002346
 30
0.0
 11
253.906219188544
 21
85.3734619618617
 31
0.0
  0
LINE
  5
   3A0
  8
0
  6
CONTINUOUS
 62
     1
 10
253.556218895087
 20
85.1713897510795
 30
0.0
 11
253.906218900651
 21
85.3734611307869
 31
0.0
  0
LINE
  5
   3A1
  8
0
  6
CONTINUOUS
 62
     1
 10
255.831219160557
 20
35.6734641433917
 30
0.0
 11
253.906219890333
 21
35.6734641433917
 31
0.0
  0
LINE
  5
   3A2
  8
0
  6
CONTINUOUS
 62
     1
 10
255.831219160557
 20
33.5734641791545
 30
0.0
 11
253.906219200204
 21
33.5734641791545
 31
0.0
  0
LINE
  5
   3A3
  8
0
  6
CONTINUOUS
 62
     1
 10
253.906219200204
 20
35.5935370817646
 30
0.0
 11
253.906219200204
 21
35.6734641433917
 31
0.0
  0
LINE
  5
   3A4
  8
0
  6
CONTINUOUS
 62
     1
 10
253.906219200196
 20
35.3659257346276
 30
0.0
 11
253.906219200196
 21
35.5935370817646
 31
0.0
  0
LINE
  5
   3A5
  8
0
  6
CONTINUOUS
 62
     1
 10
253.906219200206
 20
35.0252824298818
 30
0.0
 11
253.906219200206
 21
35.3659257346276
 31
0.0
  0
LINE
  5
   3A6
  8
0
  6
CONTINUOUS
 62
     1
 10
253.906219200181
 20
34.6234641612731
 30
0.0
 11
253.906219200181
 21
35.0252824298818
 31
0.0
  0
LINE
  5
   3A7
  8
0
  6
CONTINUOUS
 62
     1
 10
253.906219200224
 20
34.2216472278084
 30
0.0
 11
253.906219200224
 21
34.6234641612731
 31
0.0
  0
LINE
  5
   3A8
  8
0
  6
CONTINUOUS
 62
     1
 10
253.906219200205
 20
33.8810025879186
 30
0.0
 11
253.906219200205
 21
34.2216472278084
 31
0.0
  0
LINE
  5
   3A9
  8
0
  6
CONTINUOUS
 62
     1
 10
253.906219200197
 20
33.5734641791545
 30
0.0
 11
253.906219200197
 21
33.8810025879186
 31
0.0
  0
LINE
  5
   3AA
  8
0
  6
CONTINUOUS
 62
     1
 10
253.906219200204
 20
33.5734641791545
 30
0.0
 11
253.906219200204
 21
33.6533912407816
 31
0.0
  0
LINE
  5
   3AB
  8
0
  6
CONTINUOUS
 62
     7
 10
253.556219016547
 20
35.4713909409856
 30
0.0
 11
253.906219022112
 21
35.6734636421239
 31
0.0
  0
LINE
  5
   3AC
  8
0
  6
CONTINUOUS
 62
     7
 10
253.906219345218
 20
33.5734637495298
 30
0.0
 11
253.556219339653
 21
33.7755364506681
 31
0.0
  0
LINE
  5
   3AD
  8
0
  6
CONTINUOUS
 62
     7
 10
255.131219172477
 20
11.8274398594426
 30
0.0
 11
255.131219172477
 21
33.5734641791545
 31
0.0
  0
LINE
  5
   3AE
  8
0
  6
CONTINUOUS
 62
     7
 10
255.831219160557
 20
12.2570950245394
 30
0.0
 11
255.831219160557
 21
31.3007152707143
 31
0.0
  0
LINE
  5
   3AF
  8
0
  6
CONTINUOUS
 62
     7
 10
255.831219160557
 20
85.5484619588815
 30
0.0
 11
255.831219160557
 21
138.115347022915
 31
0.0
  0
LINE
  5
   3B0
  8
0
  6
CONTINUOUS
 62
     7
 10
255.831219160557
 20
39.8734640718661
 30
0.0
 11
255.131219172477
 21
39.8734640718661
 31
0.0
  0
LINE
  5
   3B1
  8
0
  6
CONTINUOUS
 62
     7
 10
255.831219160557
 20
79.0734620691501
 30
0.0
 11
255.131219172477
 21
79.0734620691501
 31
0.0
  0
LINE
  5
   3B2
  8
0
  6
CONTINUOUS
 62
     7
 10
255.831219160557
 20
85.5484619588815
 30
0.0
 11
255.131219172477
 21
85.5484619588815
 31
0.0
  0
LINE
  5
   3B3
  8
0
  6
CONTINUOUS
 62
     7
 10
255.831219160557
 20
83.0984620006048
 30
0.0
 11
255.131219172477
 21
83.0984620006048
 31
0.0
  0
LINE
  5
   3B4
  8
0
  6
CONTINUOUS
 62
     7
 10
255.831219160557
 20
35.8484641404115
 30
0.0
 11
255.131219172477
 21
35.8484641404115
 31
0.0
  0
LINE
  5
   3B5
  8
0
  6
CONTINUOUS
 62
     7
 10
255.831219160557
 20
33.3984641821347
 30
0.0
 11
255.131219172477
 21
33.3984641821347
 31
0.0
  0
LINE
  5
   3B6
  8
0
  6
CONTINUOUS
 62
     7
 10
255.131219172477
 20
35.6734641433917
 30
0.0
 11
255.131219172477
 21
83.2734619976245
 31
0.0
  0
LINE
  5
   3B7
  8
0
  6
CONTINUOUS
 62
     7
 10
255.131219172477
 20
85.3734619618617
 30
0.0
 11
255.131219172477
 21
137.73789604895
 31
0.0
  0
LINE
  5
   3B8
  8
0
  6
CONTINUOUS
 62
     7
 10
254.293392852179
 20
137.286126954672
 30
0.0
 11
256.851299268377
 21
138.665390218308
 31
0.0
  0
LINE
  5
   3B9
  8
0
  6
CONTINUOUS
 62
     7
 10
253.967385171683
 20
11.1130865761962
 30
0.0
 11
257.603624684906
 21
13.3449853118985
 31
0.0
  0
INSERT
  5
   3BA
  8
0
  6
CONTINUOUS
 62
     7
  2
*HATCH80
 10
253.731201171875
 20
20.98024559021
 30
0.0
 41
0.349999994039536
 42
0.349999994039536
 50
89.9999999480344
 43
0.349999994039536
  0
INSERT
  5
   3BB
  8
0
  6
CONTINUOUS
 62
     7
  2
*HATCH81
 10
253.731201171875
 20
20.98024559021
 30
0.0
 41
0.349999994039536
 42
0.349999994039536
 50
89.9999999480344
 43
0.349999994039536
  0
INSERT
  5
   3BC
  8
0
  6
CONTINUOUS
 62
     7
  2
*HATCH82
 10
253.731201171875
 20
20.98024559021
 30
0.0
 41
0.349999994039536
 42
0.349999994039536
 50
89.9999999480344
 43
0.349999994039536
  0
LINE
  5
   3BD
  8
0
  6
CONTINUOUS
 62
     7
 10
253.556219339653
 20
33.7755364506681
 30
0.0
 11
253.556219016547
 21
35.4713909409856
 31
0.0
  0
LINE
  5
   3BE
  8
0
  6
DASHDOT
 62
     7
 10
269.751421447778
 20
59.4757227483442
 30
0.0
 11
207.509294059185
 21
59.4757227483442
 31
0.0
  0
LINE
  5
   3BF
  8
0
  6
CONTINUOUS
 62
     7
 10
226.431214163537
 20
22.1131935155748
 30
0.0
 11
226.431214163537
 21
27.8851389880198
 31
0.0
  0
LINE
  5
   3C0
  8
0
  6
CONTINUOUS
 62
     1
 10
214.881223195791
 20
126.238822886407
 30
0.0
 11
214.881223195791
 21
129.038822838723
 31
0.0
  0
LINE
  5
   3C1
  8
0
  6
CONTINUOUS
 62
     1
 10
213.481223219633
 20
126.763822877466
 30
0.0
 11
213.481223219633
 21
128.513822847664
 31
0.0
  0
LINE
  5
   3C2
  8
0
  6
CONTINUOUS
 62
     1
 10
216.281223171949
 20
129.038822838723
 30
0.0
 11
214.881223195791
 21
129.038822838723
 31
0.0
  0
LINE
  5
   3C3
  8
0
  6
CONTINUOUS
 62
     1
 10
216.281223171949
 20
126.238822886407
 30
0.0
 11
214.881223195791
 21
126.238822886407
 31
0.0
  0
LINE
  5
   3C4
  8
0
  6
CONTINUOUS
 62
     1
 10
216.281223171949
 20
128.513822847664
 30
0.0
 11
213.481223219633
 21
128.513822847664
 31
0.0
  0
LINE
  5
   3C5
  8
0
  6
CONTINUOUS
 62
     1
 10
216.281223171949
 20
126.763822877466
 30
0.0
 11
213.481223219633
 21
126.763822877466
 31
0.0
  0
LINE
  5
   3C6
  8
0
  6
CONTINUOUS
 62
     1
 10
216.281223171949
 20
22.8132233727029
 30
0.0
 11
214.881223195791
 21
22.8132233727029
 31
0.0
  0
LINE
  5
   3C7
  8
0
  6
CONTINUOUS
 62
     1
 10
216.281223171949
 20
22.2882233816436
 30
0.0
 11
213.481223219633
 21
22.2882233816436
 31
0.0
  0
LINE
  5
   3C8
  8
0
  6
DASHDOT
 62
   218
 10
219.479402643312
 20
21.4132233965447
 30
0.0
 11
212.101920133556
 21
21.4132233965447
 31
0.0
  0
LINE
  5
   3C9
  8
0
  6
CONTINUOUS
 62
     1
 10
216.281223171949
 20
20.5382234114459
 30
0.0
 11
213.481223219633
 21
20.5382234114459
 31
0.0
  0
LINE
  5
   3CA
  8
0
  6
CONTINUOUS
 62
     1
 10
216.281223171949
 20
20.0132234203866
 30
0.0
 11
214.881223195791
 21
20.0132234203866
 31
0.0
  0
LINE
  5
   3CB
  8
0
  6
CONTINUOUS
 62
     1
 10
214.881223195791
 20
20.0132234203866
 30
0.0
 11
214.881223195791
 21
22.8132233727029
 31
0.0
  0
LINE
  5
   3CC
  8
0
  6
CONTINUOUS
 62
     1
 10
213.481223219633
 20
20.5382234114459
 30
0.0
 11
213.481223219633
 21
22.2882233816436
 31
0.0
  0
LINE
  5
   3CD
  8
0
  6
CONTINUOUS
 62
     1
 10
257.056219139695
 20
87.6507129759355
 30
0.0
 11
255.831219160557
 21
87.6507129759355
 31
0.0
  0
LINE
  5
   3CE
  8
0
  6
CONTINUOUS
 62
     1
 10
257.056219139695
 20
31.3007152707143
 30
0.0
 11
255.831219160557
 21
31.3007152707143
 31
0.0
  0
LINE
  5
   3CF
  8
0
  6
CONTINUOUS
 62
     7
 10
219.781212431192
 20
94.3881941691816
 30
0.0
 11
218.381212455034
 21
94.3881941691816
 31
0.0
  0
LINE
  5
   3D0
  8
0
  6
DASHDOT
 62
     7
 10
223.008049661015
 20
127.638822862565
 30
0.0
 11
211.368765894772
 21
127.638822862565
 31
0.0
  0
LINE
  5
   3D1
  8
0
  6
CONTINUOUS
 62
   130
 10
243.581222707015
 20
127.183209558557
 30
0.0
 11
243.581222707015
 21
132.188214227284
 31
0.0
  0
LINE
  5
   3D2
  8
0
  6
CONTINUOUS
 62
   130
 10
243.581222707015
 20
102.438210053819
 30
0.0
 11
243.581222707015
 21
103.733300747701
 31
0.0
  0
LINE
  5
   3D3
  8
0
  6
CONTINUOUS
 62
   130
 10
218.381223136168
 20
102.438210053819
 30
0.0
 11
218.381223136168
 21
133.938209517377
 31
0.0
  0
LINE
  5
   3D4
  8
0
  6
CONTINUOUS
 62
   130
 10
242.391222193223
 20
124.73320960028
 30
0.0
 11
242.356222727876
 21
124.73320960028
 31
0.0
  0
LINE
  5
   3D5
  8
0
  6
CONTINUOUS
 62
   130
 10
243.581222707015
 20
127.183209558557
 30
0.0
 11
242.356222727876
 21
127.183209558557
 31
0.0
  0
LINE
  5
   3D6
  8
0
  6
CONTINUOUS
 62
   130
 10
243.581222707015
 20
103.733242001364
 30
0.0
 11
242.356222727876
 21
103.733242001364
 31
0.0
  0
LINE
  5
   3D7
  8
0
  6
CONTINUOUS
 62
   130
 10
242.391222193223
 20
106.183241959641
 30
0.0
 11
242.356222727876
 21
106.183241959641
 31
0.0
  0
LINE
  5
   3D8
  8
0
  6
CONTINUOUS
 62
   130
 10
242.356222727876
 20
103.733242001364
 30
0.0
 11
242.356222727876
 21
127.183209558557
 31
0.0
  0
LINE
  5
   3D9
  8
0
  6
CONTINUOUS
 62
   130
 10
217.681223148107
 20
14.4132341969062
 30
0.0
 11
217.681223148107
 21
133.063214212383
 31
0.0
  0
LINE
  5
   3DA
  8
0
  6
CONTINUOUS
 62
   210
 10
251.351221506577
 20
131.978208408783
 30
0.0
 11
243.7375177645
 21
131.978208408783
 31
0.0
  0
LINE
  5
   3DB
  8
0
  6
CONTINUOUS
 62
   210
 10
243.581222707015
 20
103.733242001364
 30
0.0
 11
243.581222707015
 21
103.820709956418
 31
0.0
  0
LINE
  5
   3DC
  8
0
  6
CONTINUOUS
 62
   210
 10
243.581222707015
 20
127.095709560047
 30
0.0
 11
243.581222707015
 21
127.183209558557
 31
0.0
  0
LINE
  5
   3DD
  8
0
  6
CONTINUOUS
 62
   210
 10
251.456222572904
 20
106.270709914694
 30
0.0
 11
251.351221506577
 21
106.270709914694
 31
0.0
  0
LINE
  5
   3DE
  8
0
  6
CONTINUOUS
 62
   210
 10
251.456222572904
 20
103.645709959398
 30
0.0
 11
251.351221506577
 21
103.645709959398
 31
0.0
  0
LINE
  5
   3DF
  8
0
  6
CONTINUOUS
 62
   210
 10
251.456222572904
 20
103.208209966848
 30
0.0
 11
251.351221506577
 21
103.208209966848
 31
0.0
  0
LINE
  5
   3E0
  8
0
  6
CONTINUOUS
 62
   210
 10
251.351221506577
 20
103.313210038918
 30
0.0
 11
251.351221506577
 21
131.978208408783
 31
0.0
  0
LINE
  5
   3E1
  8
0
  6
CONTINUOUS
 62
   210
 10
243.581222707015
 20
103.820709956418
 30
0.0
 11
242.566222190243
 21
103.820709956418
 31
0.0
  0
LINE
  5
   3E2
  8
0
  6
CONTINUOUS
 62
   210
 10
242.566222813926
 20
103.820711475601
 30
0.0
 11
242.442478993462
 21
103.871970325091
 31
0.0
  0
LINE
  5
   3E3
  8
0
  6
CONTINUOUS
 62
   210
 10
242.442478015024
 20
103.871963562455
 30
0.0
 11
242.391221836012
 21
103.995704707108
 31
0.0
  0
LINE
  5
   3E4
  8
0
  6
CONTINUOUS
 62
   210
 10
242.391222193223
 20
103.995709953437
 30
0.0
 11
242.391222193223
 21
105.920709920655
 31
0.0
  0
LINE
  5
   3E5
  8
0
  6
CONTINUOUS
 62
   210
 10
242.391222193223
 20
124.99570959581
 30
0.0
 11
242.391222193223
 21
126.920709563027
 31
0.0
  0
LINE
  5
   3E6
  8
0
  6
CONTINUOUS
 62
   210
 10
242.391219246723
 20
126.92070125316
 30
0.0
 11
242.442475425736
 21
127.044442397813
 31
0.0
  0
LINE
  5
   3E7
  8
0
  6
CONTINUOUS
 62
   210
 10
242.442480273619
 20
127.044453342364
 30
0.0
 11
242.566224094083
 21
127.095712191854
 31
0.0
  0
LINE
  5
   3E8
  8
0
  6
CONTINUOUS
 62
   210
 10
243.581222707015
 20
127.095709560047
 30
0.0
 11
242.566222190243
 21
127.095709560047
 31
0.0
  0
LINE
  5
   3E9
  8
0
  6
CONTINUOUS
 62
   210
 10
242.391222193223
 20
105.920709920655
 30
0.0
 11
242.391222193223
 21
124.99570959581
 31
0.0
  0
LINE
  5
   3EA
  8
0
  6
CONTINUOUS
 62
     7
 10
251.456222572904
 20
94.9132101081114
 30
0.0
 11
251.456222572904
 21
124.488209604452
 31
0.0
  0
LINE
  5
   3EB
  8
0
  6
CONTINUOUS
 62
     2
 10
253.206222543102
 20
95.263210102151
 30
0.0
 11
253.206222543102
 21
119.763209684918
 31
0.0
  0
LINE
  5
   3EC
  8
0
  6
CONTINUOUS
 62
     2
 10
253.206222543102
 20
120.113209678958
 30
0.0
 11
253.206222543102
 21
124.488209604452
 31
0.0
  0
LINE
  5
   3ED
  8
0
  6
CONTINUOUS
 62
     7
 10
252.856222549062
 20
124.488209604452
 30
0.0
 11
251.456222572904
 21
124.488209604452
 31
0.0
  0
LINE
  5
   3EE
  8
0
  6
CONTINUOUS
 62
     2
 10
252.856222549062
 20
94.9132101081114
 30
0.0
 11
252.156211879849
 21
94.9132101081114
 31
0.0
  0
LINE
  5
   3EF
  8
0
  6
CONTINUOUS
 62
     2
 10
253.206222543102
 20
120.113209678958
 30
0.0
 11
252.856222549062
 21
120.113209678958
 31
0.0
  0
LINE
  5
   3F0
  8
0
  6
CONTINUOUS
 62
     2
 10
253.206222543102
 20
119.763209684918
 30
0.0
 11
252.856222549062
 21
119.763209684918
 31
0.0
  0
LINE
  5
   3F1
  8
0
  6
CONTINUOUS
 62
     2
 10
252.856222549062
 20
119.763209684918
 30
0.0
 11
252.856222549062
 21
120.113209678958
 31
0.0
  0
LINE
  5
   3F2
  8
0
  6
CONTINUOUS
 62
     2
 10
252.856222549062
 20
94.9132101081114
 30
0.0
 11
252.856222549062
 21
95.263210102151
 31
0.0
  0
LINE
  5
   3F3
  8
0
  6
CONTINUOUS
 62
     7
 10
252.856222549062
 20
95.263210102151
 30
0.0
 11
251.631222569924
 21
95.263210102151
 31
0.0
  0
LINE
  5
   3F4
  8
0
  6
CONTINUOUS
 62
     7
 10
251.631222569924
 20
95.263210102151
 30
0.0
 11
251.631222569924
 21
124.488209604452
 31
0.0
  0
LINE
  5
   3F5
  8
0
  6
CONTINUOUS
 62
   130
 10
218.381223136168
 20
129.192209524344
 30
0.0
 11
217.681223148107
 21
129.192209524344
 31
0.0
  0
LINE
  5
   3F6
  8
0
  6
CONTINUOUS
 62
   130
 10
218.381223136168
 20
126.085436200787
 30
0.0
 11
217.681223148089
 21
126.085436200787
 31
0.0
  0
LINE
  5
   3F7
  8
0
  6
CONTINUOUS
 62
   210
 10
251.456219125888
 20
107.274523349201
 30
0.0
 11
251.351220728771
 21
107.320708651978
 31
0.0
  0
LINE
  5
   3F8
  8
0
  6
CONTINUOUS
 62
     7
 10
251.351222947061
 20
123.595711279741
 30
0.0
 11
251.45622401598
 21
123.641896580717
 31
0.0
  0
LINE
  5
   3F9
  8
0
  6
CONTINUOUS
 62
     2
 10
253.206222543102
 20
95.263210102151
 30
0.0
 11
252.856222549062
 21
95.263210102151
 31
0.0
  0
LINE
  5
   3FA
  8
0
  6
CONTINUOUS
 62
     2
 10
253.206222543102
 20
124.488209604452
 30
0.0
 11
252.856222549062
 21
124.488209604452
 31
0.0
  0
LINE
  5
   3FB
  8
0
  6
CONTINUOUS
 62
   130
 10
251.456222572904
 20
102.438210053819
 30
0.0
 11
218.381223136168
 21
102.438210053819
 31
0.0
  0
INSERT
  5
   3FC
  8
0
  6
CONTINUOUS
 62
     7
  2
*HATCH83
 10
253.731201171875
 20
20.98024559021
 30
0.0
 41
0.349999994039536
 42
0.349999994039536
 50
89.9999999480344
 43
0.349999994039536
  0
LINE
  5
   3FD
  8
0
  6
CONTINUOUS
 62
     7
 10
218.906223127228
 20
133.063214212383
 30
0.0
 11
218.381223136168
 21
133.063214212383
 31
0.0
  0
LINE
  5
   3FE
  8
0
  6
CONTINUOUS
 62
     7
 10
252.156211879849
 20
94.9132101081114
 30
0.0
 11
251.456222572904
 21
94.9132101081114
 31
0.0
  0
LINE
  5
   3FF
  8
0
  6
CONTINUOUS
 62
   218
 10
217.68122314795
 20
26.3132286540205
 30
0.0
 11
218.381222802309
 21
26.3132339945966
 31
0.0
  0
LINE
  5
   400
  8
0
  6
CONTINUOUS
 62
   218
 10
218.3812228024
 20
13.5382388919119
 30
0.0
 11
218.3812228024
 21
26.3132286536743
 31
0.0
  0
LINE
  5
   401
  8
0
  6
CONTINUOUS
 62
   218
 10
218.381223136186
 20
22.5507287177491
 30
0.0
 11
217.681223148107
 21
22.5507287177491
 31
0.0
  0
LINE
  5
   402
  8
0
  6
CONTINUOUS
 62
   218
 10
218.381223136186
 20
19.4995718197131
 30
0.0
 11
217.681223148107
 21
19.4995718197131
 31
0.0
  0
LINE
  5
   403
  8
0
  6
CONTINUOUS
 62
   218
 10
218.381223136186
 20
20.3581178236926
 30
0.0
 11
217.681223148107
 21
20.3581178236926
 31
0.0
  0
LINE
  5
   404
  8
0
  6
CONTINUOUS
 62
   218
 10
218.381223136186
 20
22.5060067336475
 30
0.0
 11
217.681223148107
 21
22.5060067336475
 31
0.0
  0
LINE
  5
   405
  8
0
  6
DASHDOT
 62
     7
 10
231.927594078039
 20
20.7131935394166
 30
0.0
 11
222.08094483352
 21
20.7131935394166
 31
0.0
  0
LINE
  5
   406
  8
0
  6
CONTINUOUS
 62
     7
 10
226.431214831109
 20
17.2132115051923
 30
0.0
 11
224.681214860911
 21
17.2132115051923
 31
0.0
  0
LINE
  5
   407
  8
0
  6
CONTINUOUS
 62
     7
 10
224.681214860911
 20
17.2132115051923
 30
0.0
 11
224.681214860911
 21
27.8851389880198
 31
0.0
  0
LINE
  5
   408
  8
0
  6
CONTINUOUS
 62
     7
 10
226.431214163537
 20
22.1131935155748
 30
0.0
 11
224.681214860911
 21
22.1131935155748
 31
0.0
  0
LINE
  5
   409
  8
0
  6
CONTINUOUS
 62
     7
 10
226.431214163537
 20
19.3131935632585
 30
0.0
 11
224.681214860911
 21
19.3131935632585
 31
0.0
  0
LINE
  5
   40A
  8
0
  6
CONTINUOUS
 62
     7
 10
226.431214163537
 20
22.1132293279167
 30
0.0
 11
226.431214163537
 21
27.8851389880198
 31
0.0
  0
LINE
  5
   40B
  8
0
  6
CONTINUOUS
 62
     7
 10
231.983353887458
 20
27.8851389880198
 30
0.0
 11
214.493224110272
 21
27.8851389880198
 31
0.0
  0
LINE
  5
   40C
  8
0
  6
CONTINUOUS
 62
     7
 10
235.259368907643
 20
13.3242512512992
 30
0.0
 11
231.116969749888
 21
28.40475014587
 31
0.0
  0
INSERT
  5
   40D
  8
0
  6
CONTINUOUS
 62
     7
  2
*HATCH84
 10
253.731201171875
 20
20.98024559021
 30
0.0
 41
0.349999994039536
 42
0.349999994039536
 50
89.9999999480344
 43
0.349999994039536
  0
INSERT
  5
   40E
  8
0
  6
CONTINUOUS
 62
     7
  2
*HATCH85
 10
253.731201171875
 20
20.98024559021
 30
0.0
 41
0.349999994039536
 42
0.349999994039536
 50
89.9999999480344
 43
0.349999994039536
  0
LINE
  5
   40F
  8
0
  6
CONTINUOUS
 62
     7
 10
224.681214860911
 20
25.9631934500097
 30
0.0
 11
218.3812228024
 21
25.9631934500097
 31
0.0
  0
LINE
  5
   410
  8
0
  6
CONTINUOUS
 62
     7
 10
224.681214860911
 20
27.3631934261678
 30
0.0
 11
217.681223148107
 21
27.3631934261678
 31
0.0
  0
LINE
  5
   411
  8
0
  6
CONTINUOUS
 62
     7
 10
232.172190882418
 20
24.5631934738515
 30
0.0
 11
226.431214163537
 21
24.5631934738515
 31
0.0
  0
INSERT
  5
   412
  8
0
  6
CONTINUOUS
 62
     7
  2
*HATCH86
 10
253.731201171875
 20
20.98024559021
 30
0.0
 41
0.349999994039536
 42
0.349999994039536
 50
89.9999999480344
 43
0.349999994039536
  0
LINE
  5
   413
  8
0
  6
CONTINUOUS
 62
     7
 10
231.78763074534
 20
25.9631934500097
 30
0.0
 11
226.431214163537
 21
25.9631934500097
 31
0.0
  0
INSERT
  5
   414
  8
0
  6
CONTINUOUS
 62
     7
  2
*HATCH87
 10
253.731201171875
 20
20.98024559021
 30
0.0
 41
0.349999994039536
 42
0.349999994039536
 50
89.9999999480344
 43
0.349999994039536
  0
LINE
  5
   415
  8
0
  6
CONTINUOUS
 62
     7
 10
218.906214959259
 20
14.4132341969062
 30
0.0
 11
218.3812228024
 21
14.4132341969062
 31
0.0
  0
LINE
  5
   416
  8
0
  6
CONTINUOUS
 62
     7
 10
228.531214127774
 20
17.5632294054028
 30
0.0
 11
228.531214127774
 21
23.8632292981144
 31
0.0
  0
LINE
  5
   417
  8
0
  6
CONTINUOUS
 62
     7
 10
228.531214127774
 20
17.5632294054028
 30
0.0
 11
228.181214133734
 21
17.5632294054028
 31
0.0
  0
LINE
  5
   418
  8
0
  6
CONTINUOUS
 62
     7
 10
228.531214127774
 20
23.8632292981144
 30
0.0
 11
228.181214133734
 21
23.8632292981144
 31
0.0
  0
LINE
  5
   419
  8
0
  6
CONTINUOUS
 62
     7
 10
228.181214133734
 20
19.3132293756004
 30
0.0
 11
226.081214169497
 21
19.3132293756004
 31
0.0
  0
LINE
  5
   41A
  8
0
  6
CONTINUOUS
 62
     7
 10
228.181214133734
 20
19.5932293708321
 30
0.0
 11
224.681214860911
 21
19.5932293708321
 31
0.0
  0
LINE
  5
   41B
  8
0
  6
CONTINUOUS
 62
     7
 10
228.181214133734
 20
21.8332293326851
 30
0.0
 11
224.681214860911
 21
21.8332293326851
 31
0.0
  0
LINE
  5
   41C
  8
0
  6
CONTINUOUS
 62
     7
 10
228.181214133734
 20
22.1132293279167
 30
0.0
 11
226.081214169497
 21
22.1132293279167
 31
0.0
  0
LINE
  5
   41D
  8
0
  6
CONTINUOUS
 62
     7
 10
228.181214133734
 20
17.5632294054028
 30
0.0
 11
228.181214133734
 21
23.8632292981144
 31
0.0
  0
LINE
  5
   41E
  8
0
  6
CONTINUOUS
 62
     7
 10
226.431214831109
 20
17.2132115051923
 30
0.0
 11
226.431214831109
 21
19.3132293756004
 31
0.0
  0
LINE
  5
   41F
  8
0
  6
CONTINUOUS
 62
     1
 10
228.67121412539
 20
18.1967293946143
 30
0.0
 11
228.67121412539
 21
23.2297293089028
 31
0.0
  0
ARC
  5
   420
  8
0
  6
CONTINUOUS
 62
     1
 10
229.49499664405
 20
18.8258543839004
 30
0.0
 40
0.961217450941453
 50
319.117607838934
 51
400.882392057134
  0
ARC
  5
   421
  8
0
  6
CONTINUOUS
 62
     1
 10
229.49499664405
 20
22.6006043196168
 30
0.0
 40
0.961217450941453
 50
319.117607838934
 51
400.882392057134
  0
LINE
  5
   422
  8
0
  6
CONTINUOUS
 62
     1
 10
230.24033252838
 20
19.4549793731864
 30
0.0
 11
228.67121412539
 21
19.4549793731864
 31
0.0
  0
ARC
  5
   423
  8
0
  6
CONTINUOUS
 62
     1
 10
226.681464159275
 20
20.7132293517586
 30
0.0
 40
3.77474993571639
 50
340.528779313544
 51
379.471220582525
  0
LINE
  5
   424
  8
0
  6
CONTINUOUS
 62
     1
 10
230.24033252838
 20
21.9714793303307
 30
0.0
 11
228.67121412539
 21
21.9714793303307
 31
0.0
  0
LINE
  5
   425
  8
0
  6
CONTINUOUS
 62
     1
 10
230.221729563251
 20
18.1967293946143
 30
0.0
 11
228.67121412539
 21
18.1967293946143
 31
0.0
  0
LINE
  5
   426
  8
0
  6
CONTINUOUS
 62
     1
 10
230.221729563251
 20
23.2297293089028
 30
0.0
 11
228.67121412539
 21
23.2297293089028
 31
0.0
  0
LINE
  5
   427
  8
0
  6
CONTINUOUS
 62
     1
 10
228.67121412539
 20
18.5782293881174
 30
0.0
 11
228.531214127774
 21
18.5782293881174
 31
0.0
  0
LINE
  5
   428
  8
0
  6
CONTINUOUS
 62
     1
 10
228.67121412539
 20
22.8482293153997
 30
0.0
 11
228.531214127774
 21
22.8482293153997
 31
0.0
  0
LINE
  5
   429
  8
0
  6
CONTINUOUS
 62
     7
 10
227.656214142675
 20
21.8448537074871
 30
0.0
 11
225.031214187379
 21
21.8448537074871
 31
0.0
  0
LINE
  5
   42A
  8
0
  6
CONTINUOUS
 62
     1
 10
228.181214133734
 20
22.1132293279167
 30
0.0
 11
225.031214187379
 21
22.1132293279167
 31
0.0
  0
LINE
  5
   42B
  8
0
  6
CONTINUOUS
 62
     1
 10
228.181214133734
 20
19.3132293756004
 30
0.0
 11
225.031214187379
 21
19.3132293756004
 31
0.0
  0
LINE
  5
   42C
  8
0
  6
CONTINUOUS
 62
     1
 10
227.656214142675
 20
19.3132293756004
 30
0.0
 11
227.656214142675
 21
22.1132293279167
 31
0.0
  0
LINE
  5
   42D
  8
0
  6
CONTINUOUS
 62
     1
 10
230.456214094991
 20
18.8258543839004
 30
0.0
 11
230.456214094991
 21
22.6006043196168
 31
0.0
  0
LINE
  5
   42E
  8
0
  6
DASHDOT
 62
     7
 10
231.85621407115
 20
20.7132293517586
 30
0.0
 11
223.63121421122
 21
20.7132293517586
 31
0.0
  0
LINE
  5
   42F
  8
0
  6
CONTINUOUS
 62
     3
 10
224.681214862391
 20
13.538177632177
 30
0.0
 11
224.331214868365
 21
13.5381829727531
 31
0.0
  0
LINE
  5
   430
  8
0
  6
CONTINUOUS
 62
     3
 10
224.681215247266
 20
13.5381792781419
 30
0.0
 11
225.031215229325
 21
13.8881792602014
 31
0.0
  0
LINE
  5
   431
  8
0
  6
CONTINUOUS
 62
     3
 10
225.031214854951
 20
13.8881776339174
 30
0.0
 11
225.031214854951
 21
14.4131776249767
 31
0.0
  0
LINE
  5
   432
  8
0
  6
CONTINUOUS
 62
     3
 10
225.03121485529
 20
14.413177623077
 30
0.0
 11
224.331214867263
 21
14.4131829636531
 31
0.0
  0
LINE
  5
   433
  8
0
  6
CONTINUOUS
 62
     3
 10
225.031214854951
 20
14.413193646705
 30
0.0
 11
224.331214866872
 21
14.413193646705
 31
0.0
  0
LINE
  5
   434
  8
0
  6
CONTINUOUS
 62
     3
 10
224.506214863891
 20
17.7381935900806
 30
0.0
 11
224.506214863891
 21
23.6881934887527
 31
0.0
  0
LINE
  5
   435
  8
0
  6
CONTINUOUS
 62
     3
 10
224.331214866872
 20
16.688193607962
 30
0.0
 11
223.193713884885
 21
16.688193607962
 31
0.0
  0
LINE
  5
   436
  8
0
  6
CONTINUOUS
 62
     3
 10
224.331214866872
 20
14.413193646705
 30
0.0
 11
224.331214866872
 21
16.688193607962
 31
0.0
  0
LINE
  5
   437
  8
0
  6
CONTINUOUS
 62
     3
 10
219.431214950318
 20
24.213193479812
 30
0.0
 11
218.906214959259
 21
24.213193479812
 31
0.0
  0
LINE
  5
   438
  8
0
  6
CONTINUOUS
 62
     3
 10
219.431214950318
 20
24.2131988203881
 30
0.0
 11
218.906214959259
 21
24.2131988203881
 31
0.0
  0
LINE
  5
   439
  8
0
  6
CONTINUOUS
 62
     3
 10
224.331214866872
 20
13.5381883210301
 30
0.0
 11
218.906214959259
 21
13.5381883210301
 31
0.0
  0
LINE
  5
   43A
  8
0
  6
CONTINUOUS
 62
     3
 10
218.906214959259
 20
13.5381883210301
 30
0.0
 11
218.906214959259
 21
24.213193479812
 31
0.0
  0
LINE
  5
   43B
  8
0
  6
CONTINUOUS
 62
     3
 10
224.331214866872
 20
13.5381883210301
 30
0.0
 11
224.331214866872
 21
14.4131883061289
 31
0.0
  0
LINE
  5
   43C
  8
0
  6
CONTINUOUS
 62
     3
 10
224.331214866872
 20
15.5331872189402
 30
0.0
 11
223.981214872832
 21
15.5331872189402
 31
0.0
  0
LINE
  5
   43D
  8
0
  6
CONTINUOUS
 62
     3
 10
223.841215400187
 20
15.3931909529817
 30
0.0
 11
223.981215269091
 21
15.5331888157119
 31
0.0
  0
LINE
  5
   43E
  8
0
  6
CONTINUOUS
 62
     3
 10
224.331214913037
 20
14.4131881434113
 30
0.0
 11
219.431215104498
 21
24.2131936381411
 31
0.0
  0
LINE
  5
   43F
  8
0
  6
CONTINUOUS
 62
   210
 10
224.681214860911
 20
18.4381935781596
 30
0.0
 11
224.681214860911
 21
22.9881935006736
 31
0.0
  0
LINE
  5
   440
  8
0
  6
CONTINUOUS
 62
     3
 10
224.506214863891
 20
23.6881934887527
 30
0.0
 11
219.693712943132
 21
23.6881934887527
 31
0.0
  0
LINE
  5
   441
  8
0
  6
CONTINUOUS
 62
     3
 10
224.506214863891
 20
17.7381935900806
 30
0.0
 11
222.668713226254
 21
17.7381935900806
 31
0.0
  0
LINE
  5
   442
  8
0
  6
CONTINUOUS
 62
     3
 10
224.331214866872
 20
13.8881883150696
 30
0.0
 11
218.906214959259
 21
13.8881883150696
 31
0.0
  0
LINE
  5
   443
  8
0
  6
CONTINUOUS
 62
     3
 10
219.606214947338
 20
23.8631881451964
 30
0.0
 11
218.906214959259
 21
23.8631881451964
 31
0.0
  0
LINE
  5
   444
  8
0
  6
CONTINUOUS
 62
   210
 10
224.681214860911
 20
18.4381935781596
 30
0.0
 11
224.506214863891
 21
18.4381935781596
 31
0.0
  0
LINE
  5
   445
  8
0
  6
CONTINUOUS
 62
   210
 10
224.681214860911
 20
22.9881935006736
 30
0.0
 11
224.506214863891
 21
22.9881935006736
 31
0.0
  0
LINE
  5
   446
  8
0
  6
CONTINUOUS
 62
     7
 10
230.800452282447
 20
124.488210012096
 30
0.0
 11
226.431222999078
 21
124.488210012096
 31
0.0
  0
LINE
  5
   447
  8
0
  6
CONTINUOUS
 62
     7
 10
226.431222999078
 20
124.228650450597
 30
0.0
 11
226.431222999078
 21
126.938209970373
 31
0.0
  0
LINE
  5
   448
  8
0
  6
CONTINUOUS
 62
     7
 10
226.431222999078
 20
131.488209892887
 30
0.0
 11
224.68122302888
 21
131.488209892887
 31
0.0
  0
LINE
  5
   449
  8
0
  6
CONTINUOUS
 62
     7
 10
224.68122302888
 20
124.228650450597
 30
0.0
 11
224.68122302888
 21
126.868209971565
 31
0.0
  0
LINE
  5
   44A
  8
0
  6
DASHDOT
 62
     7
 10
228.647639577252
 20
128.338209946531
 30
0.0
 11
222.816763181543
 21
128.338209946531
 31
0.0
  0
LINE
  5
   44B
  8
0
  6
CONTINUOUS
 62
     7
 10
226.431222999078
 20
129.808209921497
 30
0.0
 11
224.68122302888
 21
129.808209921497
 31
0.0
  0
LINE
  5
   44C
  8
0
  6
CONTINUOUS
 62
     7
 10
226.431222999078
 20
126.868209971565
 30
0.0
 11
224.68122302888
 21
126.868209971565
 31
0.0
  0
LINE
  5
   44D
  8
0
  6
CONTINUOUS
 62
     3
 10
240.880576859075
 20
125.37210493633
 30
0.0
 11
241.353496894831
 21
134.131406468169
 31
0.0
  0
LINE
  5
   44E
  8
0
  6
CONTINUOUS
 62
     3
 10
230.800452282447
 20
124.228650450597
 30
0.0
 11
218.146401210785
 21
124.228650450597
 31
0.0
  0
LINE
  5
   44F
  8
0
  6
CONTINUOUS
 62
     3
 10
230.800452282447
 20
124.228650450597
 30
0.0
 11
230.800452282447
 21
125.37210493633
 31
0.0
  0
LINE
  5
   450
  8
0
  6
CONTINUOUS
 62
     2
 10
228.531222963315
 20
125.188210000175
 30
0.0
 11
228.531222963315
 21
131.488209892887
 31
0.0
  0
LINE
  5
   451
  8
0
  6
CONTINUOUS
 62
     7
 10
224.68122302888
 20
130.613209740895
 30
0.0
 11
224.68122302888
 21
131.488209892887
 31
0.0
  0
LINE
  5
   452
  8
0
  6
CONTINUOUS
 62
     2
 10
225.381223016959
 20
133.063209392084
 30
0.0
 11
225.381223016959
 21
133.588209383143
 31
0.0
  0
LINE
  5
   453
  8
0
  6
CONTINUOUS
 62
     2
 10
225.381223016959
 20
133.063209392051
 30
0.0
 11
224.33122303484
 21
133.063209392051
 31
0.0
  0
LINE
  5
   454
  8
0
  6
CONTINUOUS
 62
     2
 10
225.031223022919
 20
133.938209350484
 30
0.0
 11
224.33122303484
 21
133.938209350484
 31
0.0
  0
LINE
  5
   455
  8
0
  6
CONTINUOUS
 62
     2
 10
219.431223118287
 20
124.838209338563
 30
0.0
 11
218.906223127228
 21
124.838209338563
 31
0.0
  0
LINE
  5
   456
  8
0
  6
CONTINUOUS
 62
     2
 10
224.33122303484
 20
133.938209350484
 30
0.0
 11
218.906223127228
 21
133.938209350484
 31
0.0
  0
LINE
  5
   457
  8
0
  6
CONTINUOUS
 62
     2
 10
218.906223127228
 20
124.838209505456
 30
0.0
 11
218.906223127228
 21
133.938209350484
 31
0.0
  0
LINE
  5
   458
  8
0
  6
CONTINUOUS
 62
     2
 10
224.33122303484
 20
133.063209392073
 30
0.0
 11
224.33122303484
 21
133.938209377171
 31
0.0
  0
LINE
  5
   459
  8
0
  6
CONTINUOUS
 62
     2
 10
224.33122303484
 20
131.943209451216
 30
0.0
 11
224.126197651522
 21
131.943209451216
 31
0.0
  0
LINE
  5
   45A
  8
0
  6
CONTINUOUS
 62
     2
 10
224.33122303484
 20
131.313209728974
 30
0.0
 11
224.33122303484
 21
133.063209365385
 31
0.0
  0
LINE
  5
   45B
  8
0
  6
CONTINUOUS
 62
     2
 10
223.98619778742
 20
132.083209398764
 30
0.0
 11
223.74739326039
 21
132.083209398764
 31
0.0
  0
LINE
  5
   45C
  8
0
  6
CONTINUOUS
 62
     2
 10
224.1261978944
 20
131.943209332875
 30
0.0
 11
223.986198031388
 21
132.083209278494
 31
0.0
  0
LINE
  5
   45D
  8
0
  6
CONTINUOUS
 62
     2
 10
219.431223132655
 20
124.838209444826
 30
0.0
 11
224.331223005497
 21
133.0632091091
 31
0.0
  0
LINE
  5
   45E
  8
0
  6
CONTINUOUS
 62
     2
 10
224.50622303186
 20
125.363209997195
 30
0.0
 11
224.50622303186
 21
131.313209895867
 31
0.0
  0
LINE
  5
   45F
  8
0
  6
CONTINUOUS
 62
     2
 10
225.381223256869
 20
133.588209343169
 30
0.0
 11
225.03122327481
 21
133.938209295726
 31
0.0
  0
LINE
  5
   460
  8
0
  6
CONTINUOUS
 62
   210
 10
224.68122302888
 20
126.063209985274
 30
0.0
 11
224.68122302888
 21
130.613209907788
 31
0.0
  0
LINE
  5
   461
  8
0
  6
CONTINUOUS
 62
     1
 10
253.206222543102
 20
134.288209511417
 30
0.0
 11
253.206222543102
 21
134.988209499496
 31
0.0
  0
LINE
  5
   462
  8
0
  6
CONTINUOUS
 62
     1
 10
217.856223468464
 20
134.288209511417
 30
0.0
 11
217.856223468464
 21
134.988209499496
 31
0.0
  0
LINE
  5
   463
  8
0
  6
CONTINUOUS
 62
     1
 10
218.906223127228
 20
133.938209517377
 30
0.0
 11
218.206223472934
 21
133.938209517377
 31
0.0
  0
LINE
  5
   464
  8
0
  6
CONTINUOUS
 62
     1
 10
217.856223468464
 20
134.988209499496
 30
0.0
 11
217.856223468464
 21
168.938208921331
 31
0.0
  0
LINE
  5
   465
  8
0
  6
CONTINUOUS
 62
     1
 10
253.206222543102
 20
134.988209499496
 30
0.0
 11
253.206222543102
 21
168.938208921331
 31
0.0
  0
LINE
  5
   466
  8
0
  6
CONTINUOUS
 62
     1
 10
252.856222273523
 20
133.938209517377
 30
0.0
 11
253.206222087862
 21
134.288209331717
 31
0.0
  0
LINE
  5
   467
  8
0
  6
CONTINUOUS
 62
     1
 10
218.206223465499
 20
133.938209496412
 30
0.0
 11
217.856223483439
 21
134.288209478472
 31
0.0
  0
LINE
  5
   468
  8
0
  6
CONTINUOUS
 62
     2
 10
224.33122303484
 20
133.588209398168
 30
0.0
 11
218.906223127228
 21
133.588209398168
 31
0.0
  0
LINE
  5
   469
  8
0
  6
CONTINUOUS
 62
     2
 10
219.639733728177
 20
125.188209332603
 30
0.0
 11
218.906223127228
 21
125.188209332603
 31
0.0
  0
LINE
  5
   46A
  8
0
  6
CONTINUOUS
 62
     2
 10
224.506223198753
 20
125.363209997195
 30
0.0
 11
219.743989450355
 21
125.363209997195
 31
0.0
  0
LINE
  5
   46B
  8
0
  6
CONTINUOUS
 62
     2
 10
224.50622303186
 20
131.313209728974
 30
0.0
 11
223.288669818495
 21
131.313209728974
 31
0.0
  0
LINE
  5
   46C
  8
0
  6
CONTINUOUS
 62
   210
 10
224.68122302888
 20
130.613209740895
 30
0.0
 11
224.50622303186
 21
130.613209740895
 31
0.0
  0
LINE
  5
   46D
  8
0
  6
CONTINUOUS
 62
   210
 10
224.68122302888
 20
126.063209985274
 30
0.0
 11
224.50622303186
 21
126.063209985274
 31
0.0
  0
LINE
  5
   46E
  8
0
  6
CONTINUOUS
 62
     1
 10
253.206222543102
 20
168.938208921331
 30
0.0
 11
217.856223468464
 21
168.938208921331
 31
0.0
  0
LINE
  5
   46F
  8
0
  6
CONTINUOUS
 62
     1
 10
253.206222543102
 20
134.988209499496
 30
0.0
 11
217.856223468464
 21
134.988209499496
 31
0.0
  0
LINE
  5
   470
  8
0
  6
CONTINUOUS
 62
     1
 10
252.856222273523
 20
133.938209517377
 30
0.0
 11
225.031223053158
 21
133.938209517377
 31
0.0
  0
LINE
  5
   471
  8
0
  6
CONTINUOUS
 62
     7
 10
228.881222957354
 20
125.188210000175
 30
0.0
 11
228.881222957354
 21
131.488209892887
 31
0.0
  0
LINE
  5
   472
  8
0
  6
CONTINUOUS
 62
     7
 10
228.881222957354
 20
131.488209892887
 30
0.0
 11
228.531222963315
 21
131.488209892887
 31
0.0
  0
LINE
  5
   473
  8
0
  6
CONTINUOUS
 62
     7
 10
228.881222957354
 20
125.188210000175
 30
0.0
 11
228.531222963315
 21
125.188210000175
 31
0.0
  0
LINE
  5
   474
  8
0
  6
CONTINUOUS
 62
     2
 10
226.431222999078
 20
129.738209922689
 30
0.0
 11
226.431222999078
 21
131.488209892887
 31
0.0
  0
LINE
  5
   475
  8
0
  6
CONTINUOUS
 62
     1
 10
229.02122295497
 20
125.821709989387
 30
0.0
 11
229.02122295497
 21
130.854709903675
 31
0.0
  0
ARC
  5
   476
  8
0
  6
CONTINUOUS
 62
     1
 10
229.84500547363
 20
126.450834978673
 30
0.0
 40
0.961217450941453
 50
319.117607838934
 51
400.882392057134
  0
ARC
  5
   477
  8
0
  6
CONTINUOUS
 62
     1
 10
229.84500547363
 20
130.225584914389
 30
0.0
 40
0.961217450941453
 50
319.117607838934
 51
400.882392057134
  0
LINE
  5
   478
  8
0
  6
CONTINUOUS
 62
     1
 10
230.59034135796
 20
127.079959967959
 30
0.0
 11
229.02122295497
 21
127.079959967959
 31
0.0
  0
ARC
  5
   479
  8
0
  6
CONTINUOUS
 62
     1
 10
227.031472988855
 20
128.338209946531
 30
0.0
 40
3.77474993571639
 50
340.528779313544
 51
379.471220582525
  0
LINE
  5
   47A
  8
0
  6
CONTINUOUS
 62
     1
 10
230.59034135796
 20
129.596459925103
 30
0.0
 11
229.02122295497
 21
129.596459925103
 31
0.0
  0
LINE
  5
   47B
  8
0
  6
CONTINUOUS
 62
     1
 10
230.571738392831
 20
125.821709989387
 30
0.0
 11
229.02122295497
 21
125.821709989387
 31
0.0
  0
LINE
  5
   47C
  8
0
  6
CONTINUOUS
 62
     1
 10
230.571738392831
 20
130.854709903675
 30
0.0
 11
229.02122295497
 21
130.854709903675
 31
0.0
  0
LINE
  5
   47D
  8
0
  6
CONTINUOUS
 62
     1
 10
229.02122295497
 20
126.20320998289
 30
0.0
 11
228.881222957354
 21
126.20320998289
 31
0.0
  0
LINE
  5
   47E
  8
0
  6
CONTINUOUS
 62
     1
 10
229.02122295497
 20
130.473209910172
 30
0.0
 11
228.881222957354
 21
130.473209910172
 31
0.0
  0
LINE
  5
   47F
  8
0
  6
CONTINUOUS
 62
     7
 10
227.656222978216
 20
127.206585590802
 30
0.0
 11
224.68122302888
 21
127.206585590802
 31
0.0
  0
LINE
  5
   480
  8
0
  6
CONTINUOUS
 62
     7
 10
227.656222978216
 20
129.469834302259
 30
0.0
 11
224.68122302888
 21
129.469834302259
 31
0.0
  0
LINE
  5
   481
  8
0
  6
CONTINUOUS
 62
     1
 10
228.531222963315
 20
129.738209922689
 30
0.0
 11
224.68122302888
 21
129.738209922689
 31
0.0
  0
LINE
  5
   482
  8
0
  6
CONTINUOUS
 62
     1
 10
228.531222963315
 20
126.938209970373
 30
0.0
 11
224.68122302888
 21
126.938209970373
 31
0.0
  0
LINE
  5
   483
  8
0
  6
CONTINUOUS
 62
     1
 10
227.656222978216
 20
126.938209970373
 30
0.0
 11
227.656222978216
 21
129.738209922689
 31
0.0
  0
LINE
  5
   484
  8
0
  6
CONTINUOUS
 62
     1
 10
228.881222957354
 20
126.20320998289
 30
0.0
 11
228.881222957354
 21
130.473209910172
 31
0.0
  0
LINE
  5
   485
  8
0
  6
CONTINUOUS
 62
     1
 10
230.806222924572
 20
126.450834978673
 30
0.0
 11
230.806222924572
 21
130.225584914389
 31
0.0
  0
LINE
  5
   486
  8
0
  6
DASHDOT
 62
     7
 10
231.85622290669
 20
128.338209946531
 30
0.0
 11
223.631223046761
 21
128.338209946531
 31
0.0
  0
LINE
  5
   487
  8
0
  6
CONTINUOUS
 62
     3
 10
240.880576859075
 20
125.37210493633
 30
0.0
 11
230.800452282447
 21
125.37210493633
 31
0.0
  0
INSERT
  5
   488
  8
0
  6
CONTINUOUS
 62
     7
  2
*HATCH88
 10
253.731201171875
 20
20.98024559021
 30
0.0
 41
0.349999994039536
 42
0.349999994039536
 50
89.9999999480344
 43
0.349999994039536
  0
LINE
  5
   489
  8
0
  6
CONTINUOUS
 62
   130
 10
243.581222707015
 20
131.978213088888
 30
0.0
 11
241.237244670128
 21
131.978213088888
 31
0.0
  0
LINE
  5
   48A
  8
0
  6
CONTINUOUS
 62
   130
 10
242.391222193223
 20
124.733214280384
 30
0.0
 11
242.356222727876
 21
124.733214280384
 31
0.0
  0
LINE
  5
   48B
  8
0
  6
CONTINUOUS
 62
   210
 10
243.581222707015
 20
127.095714240151
 30
0.0
 11
243.581222707015
 21
127.183214238661
 31
0.0
  0
LINE
  5
   48C
  8
0
  6
CONTINUOUS
 62
   210
 10
242.391219246724
 20
126.920705933265
 30
0.0
 11
242.442475425736
 21
127.044447077918
 31
0.0
  0
LINE
  5
   48D
  8
0
  6
CONTINUOUS
 62
   210
 10
242.442480273619
 20
127.044458022468
 30
0.0
 11
242.566224094083
 21
127.095716871958
 31
0.0
  0
LINE
  5
   48E
  8
0
  6
CONTINUOUS
 62
     7
 10
253.206222543102
 20
124.838214278596
 30
0.0
 11
253.206222543102
 21
133.500714204933
 31
0.0
  0
ARC
  5
   48F
  8
0
  6
CONTINUOUS
 62
     7
 10
252.768722550553
 20
133.500714204933
 30
0.0
 40
0.437499992549419
 50
359.999999948034
 51
439.449407310035
  0
LINE
  5
   490
  8
0
  6
CONTINUOUS
 62
     7
 10
251.456222572904
 20
124.488214284557
 30
0.0
 11
251.456222572904
 21
132.188214227284
 31
0.0
  0
LINE
  5
   491
  8
0
  6
CONTINUOUS
 62
     7
 10
251.456222572904
 20
132.188214227284
 30
0.0
 11
241.24858275976
 21
132.188214227284
 31
0.0
  0
LINE
  5
   492
  8
0
  6
CONTINUOUS
 62
     7
 10
251.631222569924
 20
132.363214224304
 30
0.0
 11
241.258031116407
 21
132.363214224304
 31
0.0
  0
LINE
  5
   493
  8
0
  6
CONTINUOUS
 62
     7
 10
251.631222569924
 20
124.838214278596
 30
0.0
 11
251.631222569924
 21
132.363214224304
 31
0.0
  0
LINE
  5
   494
  8
0
  6
CONTINUOUS
 62
     7
 10
252.856222549062
 20
124.838214278596
 30
0.0
 11
251.631222569924
 21
124.838214278596
 31
0.0
  0
LINE
  5
   495
  8
0
  6
CONTINUOUS
 62
     7
 10
252.856222549062
 20
124.49039929976
 30
0.0
 11
252.856222549062
 21
124.838214278596
 31
0.0
  0
LINE
  5
   496
  8
0
  6
CONTINUOUS
 62
     7
 10
241.295824542993
 20
133.063214212383
 30
0.0
 11
225.381223016959
 21
133.063214212383
 31
0.0
  0
LINE
  5
   497
  8
0
  6
CONTINUOUS
 62
     7
 10
228.706222960335
 20
133.063214212383
 30
0.0
 11
228.706222960335
 21
133.938214197482
 31
0.0
  0
INSERT
  5
   498
  8
0
  6
CONTINUOUS
 62
     7
  2
*HATCH89
 10
253.731201171875
 20
20.98024559021
 30
0.0
 41
0.349999994039536
 42
0.349999994039536
 50
89.9999999480344
 43
0.349999994039536
  0
LINE
  5
   499
  8
0
  6
CONTINUOUS
 62
     7
 10
253.206222543102
 20
124.838214278596
 30
0.0
 11
252.856222549062
 21
124.838214278596
 31
0.0
  0
INSERT
  5
   49A
  8
0
  6
CONTINUOUS
 62
     7
  2
*HATCH90
 10
253.731201171875
 20
20.98024559021
 30
0.0
 41
0.349999994039536
 42
0.349999994039536
 50
89.9999999480344
 43
0.349999994039536
  0
INSERT
  5
   49B
  8
0
  6
CONTINUOUS
 62
     7
  2
*HATCH91
 10
253.731201171875
 20
20.98024559021
 30
0.0
 41
0.349999994039536
 42
0.349999994039536
 50
89.9999999480344
 43
0.349999994039536
  0
LINE
  5
   49C
  8
0
  6
CONTINUOUS
 62
     1
 10
218.906223127228
 20
13.5382388919119
 30
0.0
 11
218.206223472934
 21
13.5382388919119
 31
0.0
  0
LINE
  5
   49D
  8
0
  6
CONTINUOUS
 62
     1
 10
217.856223483439
 20
13.1882389308173
 30
0.0
 11
218.206223465499
 21
13.5382389128769
 31
0.0
  0
LINE
  5
   49E
  8
0
  6
CONTINUOUS
 62
     1
 10
217.856223468464
 20
8.22611006493654
 30
0.0
 11
217.856223468464
 21
13.1882388978724
 31
0.0
  0
LINE
  5
   49F
  8
0
  6
CONTINUOUS
 62
     1
 10
253.206222543102
 20
12.4882389097933
 30
0.0
 11
217.856223468464
 21
12.4882389097933
 31
0.0
  0
LINE
  5
   4A0
  8
0
  6
CONTINUOUS
 62
     1
 10
252.856222273523
 20
13.5382388919119
 30
0.0
 11
225.031223053158
 21
13.5382388919119
 31
0.0
  0
LINE
  5
   4A1
  8
0
  6
CONTINUOUS
 62
     1
 10
253.206222087862
 20
13.1882390775722
 30
0.0
 11
252.856222273523
 21
13.5382388919119
 31
0.0
  0
LINE
  5
   4A2
  8
0
  6
CONTINUOUS
 62
     1
 10
253.206222543102
 20
8.5511534290857
 30
0.0
 11
253.206222543102
 21
13.1882388978724
 31
0.0
  0
ARC
  5
   4A3
  8
0
  6
CONTINUOUS
 62
     7
 10
252.768722550553
 20
13.9757342043568
 30
0.0
 40
0.437499992549419
 50
280.550592586034
 51
359.999999948034
  0
LINE
  5
   4A4
  8
0
  6
CONTINUOUS
 62
     7
 10
253.206222543102
 20
13.9757342043568
 30
0.0
 11
253.206222543102
 21
22.638234130693
 31
0.0
  0
LINE
  5
   4A5
  8
0
  6
CONTINUOUS
 62
     7
 10
253.206222543102
 20
22.638234130693
 30
0.0
 11
252.856222549062
 21
22.638234130693
 31
0.0
  0
LINE
  5
   4A6
  8
0
  6
CONTINUOUS
 62
     7
 10
252.856222549062
 20
22.638234130693
 30
0.0
 11
252.856222549062
 21
22.9860491095297
 31
0.0
  0
LINE
  5
   4A7
  8
0
  6
CONTINUOUS
 62
     7
 10
252.856222549062
 20
22.638234130693
 30
0.0
 11
251.631222569924
 21
22.638234130693
 31
0.0
  0
LINE
  5
   4A8
  8
0
  6
CONTINUOUS
 62
     7
 10
251.631222569924
 20
15.1132341849853
 30
0.0
 11
251.631222569924
 21
22.638234130693
 31
0.0
  0
LINE
  5
   4A9
  8
0
  6
CONTINUOUS
 62
     7
 10
251.456222572904
 20
15.288234182005
 30
0.0
 11
251.456222572904
 21
22.9882341247325
 31
0.0
  0
LINE
  5
   4AA
  8
0
  6
CONTINUOUS
 62
   210
 10
251.351221506577
 20
15.4982400005063
 30
0.0
 11
251.351221506577
 21
24.2132286891572
 31
0.0
  0
LINE
  5
   4AB
  8
0
  6
CONTINUOUS
 62
     7
 10
251.456222572904
 20
15.288234182005
 30
0.0
 11
234.719890651991
 21
15.288234182005
 31
0.0
  0
LINE
  5
   4AC
  8
0
  6
CONTINUOUS
 62
     7
 10
251.631222569924
 20
15.1132341849853
 30
0.0
 11
234.767960669126
 21
15.1132341849853
 31
0.0
  0
LINE
  5
   4AD
  8
0
  6
CONTINUOUS
 62
     7
 10
214.245538579701
 20
8.19290980485596
 30
0.0
 11
254.421548487914
 21
8.5623283553652
 31
0.0
  0
LINE
  5
   4AE
  8
0
  6
CONTINUOUS
 62
   130
 10
217.681223148107
 20
14.4132341969062
 30
0.0
 11
217.331223154068
 21
14.4132341969062
 31
0.0
  0
LINE
  5
   4AF
  8
0
  6
CONTINUOUS
 62
   130
 10
217.681223148107
 20
133.063214212383
 30
0.0
 11
217.331223154068
 21
133.063214212383
 31
0.0
  0
LINE
  5
   4B0
  8
0
  6
DASHDOT
 62
     7
 10
217.331223154068
 20
133.063214212383
 30
0.0
 11
217.331223154068
 21
139.052483036302
 31
0.0
  0
LINE
  5
   4B1
  8
0
  6
CONTINUOUS
 62
   130
 10
217.331223154068
 20
14.4132341969062
 30
0.0
 11
217.331223154068
 21
133.063214212383
 31
0.0
  0
INSERT
  5
   4B2
  8
0
  6
CONTINUOUS
 62
     7
  2
*UDIM202
 10
0.0
 20
0.0
 30
0.0
  0
INSERT
  5
   4B3
  8
0
  6
CONTINUOUS
 62
     7
  2
*UDIM203
 10
0.0
 20
0.0
 30
0.0
  0
INSERT
  5
   4B4
  8
0
  6
CONTINUOUS
 62
     7
  2
*UDIM204
 10
0.0
 20
0.0
 30
0.0
  0
INSERT
  5
   4B5
  8
0
  6
CONTINUOUS
 62
     7
  2
*UDIM205
 10
0.0
 20
0.0
 30
0.0
  0
INSERT
  5
   4B6
  8
0
  6
CONTINUOUS
 62
     7
  2
*UDIM206
 10
0.0
 20
0.0
 30
0.0
  0
INSERT
  5
   4B7
  8
0
  6
CONTINUOUS
 62
     7
  2
*UDIM207
 10
0.0
 20
0.0
 30
0.0
  0
INSERT
  5
   4B8
  8
0
  6
CONTINUOUS
 62
     7
  2
*UDIM208
 10
0.0
 20
0.0
 30
0.0
  0
INSERT
  5
   4B9
  8
0
  6
CONTINUOUS
 62
     7
  2
*UDIM209
 10
0.0
 20
0.0
 30
0.0
  0
INSERT
  5
   4BA
  8
0
  6
CONTINUOUS
 62
     7
  2
*UDIM210
 10
0.0
 20
0.0
 30
0.0
  0
INSERT
  5
   4BB
  8
0
  6
CONTINUOUS
 62
     7
  2
*UDIM211
 10
0.0
 20
0.0
 30
0.0
  0
INSERT
  5
   4BC
  8
0
  6
CONTINUOUS
 62
     7
  2
*UDIM212
 10
0.0
 20
0.0
 30
0.0
  0
INSERT
  5
   4BD
  8
0
  6
CONTINUOUS
 62
     7
  2
*UDIM213
 10
0.0
 20
0.0
 30
0.0
  0
INSERT
  5
   4BE
  8
0
  6
CONTINUOUS
 62
     7
  2
*UDIM214
 10
0.0
 20
0.0
 30
0.0
  0
INSERT
  5
   4BF
  8
0
  6
CONTINUOUS
 62
     7
  2
*UDIM215
 10
0.0
 20
0.0
 30
0.0
  0
INSERT
  5
   4C0
  8
0
  6
CONTINUOUS
 62
     7
  2
*UDIM216
 10
0.0
 20
0.0
 30
0.0
  0
INSERT
  5
   4C1
  8
0
  6
CONTINUOUS
 62
     7
  2
*UDIM217
 10
0.0
 20
0.0
 30
0.0
  0
INSERT
  5
   4C2
  8
0
  6
CONTINUOUS
 62
     7
  2
*UDIM218
 10
0.0
 20
0.0
 30
0.0
  0
TEXT
  5
   4C3
  8
0
  6
CONTINUOUS
 62
     7
 10
281.578906546374
 20
51.8737440253946
 30
0.0
 40
2.99999997871263
  1
=    =
 50
89.9999999480344
 41
0.916666703091727
 72
     1
 11
280.078906564241
 21
59.8487442920293
 31
0.0
 73
     2
  0
TEXT
  5
   4C4
  8
0
  6
CONTINUOUS
 62
     7
 10
283.699676415999
 20
58.0660153815563
 30
0.0
 40
2.99999997871263
  1
X
 50
359.999999948034
 41
0.91666663951344
 72
     1
 11
284.799676385208
 21
59.5660153699204
 31
0.0
 73
     2
  0
LINE
  5
   4C5
  8
0
  6
CONTINUOUS
 62
     7
 10
97.0448666766654
 20
41.1007233054215
 30
0.0
 11
93.5448667362701
 21
41.1007233054215
 31
0.0
  0
LINE
  5
   4C6
  8
0
  6
CONTINUOUS
 62
     7
 10
88.294866825677
 20
77.1507120103415
 30
0.0
 11
88.294866825677
 21
77.8507119984206
 31
0.0
  0
LINE
  5
   4C7
  8
0
  6
CONTINUOUS
 62
     7
 10
93.5448667362701
 20
41.1007233054215
 30
0.0
 11
88.294866825677
 21
41.1007233054215
 31
0.0
  0
LINE
  5
   4C8
  8
0
  6
CONTINUOUS
 62
     7
 10
106.6698558316
 20
41.1007233054215
 30
0.0
 11
97.0448666766654
 21
41.1007233054215
 31
0.0
  0
LINE
  5
   4C9
  8
0
  6
CONTINUOUS
 62
    52
 10
119.794844926931
 20
41.1007233054215
 30
0.0
 11
116.294844986536
 21
41.1007233054215
 31
0.0
  0
LINE
  5
   4CA
  8
0
  6
CONTINUOUS
 62
    52
 10
125.044844837524
 20
41.1007233054215
 30
0.0
 11
119.794844926931
 21
41.1007233054215
 31
0.0
  0
LINE
  5
   4CB
  8
0
  6
CONTINUOUS
 62
    52
 10
116.294844986536
 20
41.1007233054215
 30
0.0
 11
106.6698558316
 21
41.1007233054215
 31
0.0
  0
LINE
  5
   4CC
  8
0
  6
DASHDOT
 62
     3
 10
102.557362321686
 20
41.188229278059
 30
0.0
 11
98.5323712350794
 21
41.188229278059
 31
0.0
  0
LINE
  5
   4CD
  8
0
  6
DASHDOT
 62
     3
 10
114.807504273796
 20
41.1880744919533
 30
0.0
 11
110.78225403825
 21
41.1880744919533
 31
0.0
  0
LINE
  5
   4CE
  8
0
  6
CONTINUOUS
 62
     7
 10
97.0448613360893
 20
41.1007233054215
 30
0.0
 11
93.5448667362701
 21
41.1007233054215
 31
0.0
  0
LINE
  5
   4CF
  8
0
  6
CONTINUOUS
 62
     7
 10
119.794855608083
 20
41.1007233054215
 30
0.0
 11
116.294855667688
 21
41.1007233054215
 31
0.0
  0
LINE
  5
   4D0
  8
0
  6
CONTINUOUS
 62
     7
 10
125.044866199828
 20
41.2757233024413
 30
0.0
 11
125.044866199828
 21
47.5757178545769
 31
0.0
  0
LINE
  5
   4D1
  8
0
  6
CONTINUOUS
 62
     7
 10
88.294866825677
 20
41.1007233054215
 30
0.0
 11
88.294866825677
 21
47.5757178545769
 31
0.0
  0
LINE
  5
   4D2
  8
0
  6
CONTINUOUS
 62
     7
 10
125.044860859252
 20
77.8507226795728
 30
0.0
 11
88.2948668256868
 21
77.8507226795728
 31
0.0
  0
LINE
  5
   4D3
  8
0
  6
CONTINUOUS
 62
     7
 10
93.5448667362701
 20
41.1007233054215
 30
0.0
 11
88.294866825677
 21
41.1007233054215
 31
0.0
  0
LINE
  5
   4D4
  8
0
  6
CONTINUOUS
 62
     7
 10
116.294855667688
 20
41.1007233054215
 30
0.0
 11
97.0448613360893
 21
41.1007233054215
 31
0.0
  0
LINE
  5
   4D5
  8
0
  6
CONTINUOUS
 62
     7
 10
124.869866202809
 20
41.1007233054215
 30
0.0
 11
119.794855608083
 21
41.1007233054215
 31
0.0
  0
LINE
  5
   4D6
  8
0
  6
CONTINUOUS
 62
     7
 10
110.432366448678
 20
48.8882178322251
 30
0.0
 11
110.432366448678
 21
62.8882122532305
 31
0.0
  0
LINE
  5
   4D7
  8
0
  6
CONTINUOUS
 62
     7
 10
102.907366576828
 20
48.8882178322251
 30
0.0
 11
102.907366576828
 21
62.8882122532305
 31
0.0
  0
LINE
  5
   4D8
  8
0
  6
CONTINUOUS
 62
     7
 10
125.044866199828
 20
73.6507120699462
 30
0.0
 11
88.294866825677
 21
73.6507120699462
 31
0.0
  0
LINE
  5
   4D9
  8
0
  6
CONTINUOUS
 62
     7
 10
125.044866199828
 20
77.1507120103415
 30
0.0
 11
88.294866825677
 21
77.1507120103415
 31
0.0
  0
LINE
  5
   4DA
  8
0
  6
CONTINUOUS
 62
     7
 10
110.432366448678
 20
62.7956493885958
 30
0.0
 11
102.907366576828
 21
62.7956493885958
 31
0.0
  0
LINE
  5
   4DB
  8
0
  6
CONTINUOUS
 62
     7
 10
110.432366448678
 20
62.8882122532304
 30
0.0
 11
102.907366576828
 21
62.8882122532304
 31
0.0
  0
LINE
  5
   4DC
  8
0
  6
CONTINUOUS
 62
     7
 10
110.432366448678
 20
48.8882178322251
 30
0.0
 11
102.907366576828
 21
48.8882178322251
 31
0.0
  0
LINE
  5
   4DD
  8
0
  6
CONTINUOUS
 62
     7
 10
110.432366448678
 20
48.9807913780119
 30
0.0
 11
102.907366576828
 21
48.9807913780119
 31
0.0
  0
LINE
  5
   4DE
  8
0
  6
DASHDOT
 62
     7
 10
106.669866512753
 20
10.4282122722305
 30
0.0
 11
106.669866512753
 21
136.987862363126
 31
0.0
  0
LINE
  5
   4DF
  8
0
  6
CONTINUOUS
 62
     7
 10
125.044860859252
 20
47.9257178486164
 30
0.0
 11
125.044860859252
 21
52.1257149934574
 31
0.0
  0
LINE
  5
   4E0
  8
0
  6
CONTINUOUS
 62
     7
 10
125.044860859252
 20
64.2007175714548
 30
0.0
 11
125.044860859252
 21
77.8507226795728
 31
0.0
  0
LINE
  5
   4E1
  8
0
  6
CONTINUOUS
 62
     7
 10
125.044860859252
 20
52.4757149874969
 30
0.0
 11
125.044860859252
 21
59.3007176549013
 31
0.0
  0
LINE
  5
   4E2
  8
0
  6
CONTINUOUS
 62
     7
 10
125.044860859252
 20
59.6507176489408
 30
0.0
 11
125.044860859252
 21
63.8507175774153
 31
0.0
  0
LINE
  5
   4E3
  8
0
  6
CONTINUOUS
 62
     7
 10
88.2948668256752
 20
47.9257178486164
 30
0.0
 11
88.2948668256752
 21
52.1257177770916
 31
0.0
  0
LINE
  5
   4E4
  8
0
  6
CONTINUOUS
 62
     7
 10
88.294866825669
 20
52.4757177711311
 30
0.0
 11
88.294866825669
 21
59.3007176549013
 31
0.0
  0
LINE
  5
   4E5
  8
0
  6
CONTINUOUS
 62
     7
 10
88.2948668256788
 20
59.6507176489408
 30
0.0
 11
88.2948668256788
 21
63.8507175774153
 31
0.0
  0
LINE
  5
   4E6
  8
0
  6
CONTINUOUS
 62
     7
 10
88.2948668256868
 20
64.2007175714548
 30
0.0
 11
88.2948668256868
 21
77.8507226795728
 31
0.0
  0
LINE
  5
   4E7
  8
0
  6
CONTINUOUS
 62
     7
 10
102.907363786024
 20
52.1257177770901
 30
0.0
 11
88.6448667988549
 21
52.1257177770901
 31
0.0
  0
LINE
  5
   4E8
  8
0
  6
CONTINUOUS
 62
     7
 10
125.044860859252
 20
52.1257284582423
 30
0.0
 11
124.694860865213
 21
52.1257284582423
 31
0.0
  0
LINE
  5
   4E9
  8
0
  6
CONTINUOUS
 62
     7
 10
102.907356940344
 20
52.4757177711296
 30
0.0
 11
88.6448667988549
 21
52.4757177711296
 31
0.0
  0
LINE
  5
   4EA
  8
0
  6
CONTINUOUS
 62
     7
 10
125.044860859252
 20
52.4757284522818
 30
0.0
 11
124.694860865213
 21
52.4757284522818
 31
0.0
  0
LINE
  5
   4EB
  8
0
  6
CONTINUOUS
 62
     7
 10
88.6448667988549
 20
52.1257177770908
 30
0.0
 11
88.6448667988549
 21
52.4757177711304
 31
0.0
  0
LINE
  5
   4EC
  8
0
  6
CONTINUOUS
 62
     7
 10
124.694860865213
 20
52.1257177770908
 30
0.0
 11
124.694860865213
 21
52.4757177711304
 31
0.0
  0
LINE
  5
   4ED
  8
0
  6
CONTINUOUS
 62
     7
 10
125.044866199828
 20
47.5757178545769
 30
0.0
 11
124.694860865213
 21
47.5757178545769
 31
0.0
  0
LINE
  5
   4EE
  8
0
  6
CONTINUOUS
 62
     7
 10
125.044860859252
 20
47.9257178486164
 30
0.0
 11
124.694860865213
 21
47.9257178486164
 31
0.0
  0
LINE
  5
   4EF
  8
0
  6
CONTINUOUS
 62
     7
 10
88.6448667988549
 20
47.5757178545769
 30
0.0
 11
88.6448667988549
 21
47.9257178486164
 31
0.0
  0
LINE
  5
   4F0
  8
0
  6
CONTINUOUS
 62
     7
 10
124.694860865213
 20
47.5757178545769
 30
0.0
 11
124.694860865213
 21
47.9257178486164
 31
0.0
  0
LINE
  5
   4F1
  8
0
  6
CONTINUOUS
 62
     7
 10
125.044860859252
 20
63.8507175774152
 30
0.0
 11
124.694860865213
 21
63.8507175774152
 31
0.0
  0
LINE
  5
   4F2
  8
0
  6
CONTINUOUS
 62
     7
 10
125.044860859252
 20
64.2007175714548
 30
0.0
 11
124.694860865213
 21
64.2007175714548
 31
0.0
  0
LINE
  5
   4F3
  8
0
  6
CONTINUOUS
 62
     7
 10
88.6448667988549
 20
63.8507175774153
 30
0.0
 11
88.6448667988549
 21
64.2007175714548
 31
0.0
  0
LINE
  5
   4F4
  8
0
  6
CONTINUOUS
 62
     7
 10
124.694860865213
 20
63.8507175774153
 30
0.0
 11
124.694860865213
 21
64.2007175714548
 31
0.0
  0
LINE
  5
   4F5
  8
0
  6
CONTINUOUS
 62
     7
 10
102.907363802231
 20
59.3007176549013
 30
0.0
 11
88.6448667988549
 21
59.3007176549013
 31
0.0
  0
LINE
  5
   4F6
  8
0
  6
CONTINUOUS
 62
     7
 10
125.044860859252
 20
59.3007176549013
 30
0.0
 11
124.694860865213
 21
59.3007176549013
 31
0.0
  0
LINE
  5
   4F7
  8
0
  6
CONTINUOUS
 62
     7
 10
102.907366576828
 20
59.6507176489408
 30
0.0
 11
88.6448667988549
 21
59.6507176489408
 31
0.0
  0
LINE
  5
   4F8
  8
0
  6
CONTINUOUS
 62
     7
 10
125.044860859252
 20
59.6507176489408
 30
0.0
 11
124.694860865213
 21
59.6507176489408
 31
0.0
  0
LINE
  5
   4F9
  8
0
  6
CONTINUOUS
 62
     7
 10
88.6448667988549
 20
59.3007176549013
 30
0.0
 11
88.6448667988549
 21
59.6507176489408
 31
0.0
  0
LINE
  5
   4FA
  8
0
  6
CONTINUOUS
 62
     7
 10
124.694860865213
 20
59.3007176549013
 30
0.0
 11
124.694860865213
 21
59.6507176489408
 31
0.0
  0
ARC
  5
   4FB
  8
0
  6
CONTINUOUS
 62
     7
 10
124.869866202809
 20
41.2757233024413
 30
0.0
 40
0.174999997019768
 50
269.999999948034
 51
359.999999948034
  0
INSERT
  5
   4FC
  8
255
  6
CONTINUOUS
 62
     7
  2
ON-OFF
 10
113.669862975575
 20
61.7507176131781
 30
0.0
 41
0.349999994039536
 42
0.349999994039536
 50
359.999999792137
 43
0.349999994039536
  0
LINE
  5
   4FD
  8
0
  6
CONTINUOUS
 62
     7
 10
98.7948666468631
 20
63.3257175863559
 30
0.0
 11
98.2698666558038
 21
63.3257175863559
 31
0.0
  0
LINE
  5
   4FE
  8
0
  6
CONTINUOUS
 62
     7
 10
98.7948666468631
 20
60.1757176400001
 30
0.0
 11
98.2698666558038
 21
60.1757176400001
 31
0.0
  0
CIRCLE
  5
   4FF
  8
0
  6
CONTINUOUS
 62
     7
 10
98.5323666513334
 20
50.0257178128536
 30
0.0
 40
1.57499997317791
  0
CIRCLE
  5
   500
  8
0
  6
CONTINUOUS
 62
     7
 10
98.5323666513334
 20
50.0257178128536
 30
0.0
 40
1.04999998211861
  0
LINE
  5
   501
  8
0
  6
CONTINUOUS
 62
     7
 10
98.2698666558038
 20
60.1757176400001
 30
0.0
 11
98.2698666558038
 21
63.3257175863559
 31
0.0
  0
LINE
  5
   502
  8
0
  6
CONTINUOUS
 62
     7
 10
98.7948666468631
 20
60.1757176400001
 30
0.0
 11
98.7948666468631
 21
63.3257175863559
 31
0.0
  0
LINE
  5
   503
  8
0
  6
CONTINUOUS
 62
     7
 10
101.944866593219
 20
47.9257178486164
 30
0.0
 11
101.944866593219
 21
52.1257227782987
 31
0.0
  0
LINE
  5
   504
  8
0
  6
CONTINUOUS
 62
     7
 10
111.394866432286
 20
47.9257178486164
 30
0.0
 11
111.394866432286
 21
52.1257199946625
 31
0.0
  0
LINE
  5
   505
  8
0
  6
CONTINUOUS
 62
     7
 10
111.394866432286
 20
59.6507176489408
 30
0.0
 11
111.394866432286
 21
63.8507175774153
 31
0.0
  0
LINE
  5
   506
  8
0
  6
CONTINUOUS
 62
     7
 10
101.944866593219
 20
59.6507176489408
 30
0.0
 11
101.944866593219
 21
63.8507175774153
 31
0.0
  0
LINE
  5
   507
  8
0
  6
DASHDOT
 62
     7
 10
106.669842400716
 20
121.337835653317
 30
0.0
 11
106.669842400716
 21
132.188194372119
 31
0.0
  0
LINE
  5
   508
  8
0
  6
DASHDOT
 62
     7
 10
106.669829863896
 20
127.673211292349
 30
0.0
 11
106.669829863896
 21
135.653236902308
 31
0.0
  0
LINE
  5
   509
  8
0
  6
CONTINUOUS
 62
     7
 10
110.432366448678
 20
52.1009680019166
 30
0.0
 11
102.907366576828
 21
52.1009680019166
 31
0.0
  0
LINE
  5
   50A
  8
0
  6
CONTINUOUS
 62
     7
 10
110.432366448678
 20
49.3286347251955
 30
0.0
 11
102.907366576828
 21
49.3286347251955
 31
0.0
  0
LINE
  5
   50B
  8
0
  6
CONTINUOUS
 62
     7
 10
110.432366448678
 20
52.1009677564076
 30
0.0
 11
102.907366576828
 21
52.1009677564076
 31
0.0
  0
LINE
  5
   50C
  8
0
  6
CONTINUOUS
 62
     7
 10
110.432366448678
 20
53.8321101385067
 30
0.0
 11
102.907366576828
 21
53.8321101385067
 31
0.0
  0
LINE
  5
   50D
  8
0
  6
CONTINUOUS
 62
     7
 10
88.6448667988549
 20
64.2007175714548
 30
0.0
 11
88.2948668256868
 21
64.2007175714548
 31
0.0
  0
LINE
  5
   50E
  8
0
  6
CONTINUOUS
 62
     7
 10
88.6448667988549
 20
63.8507175774152
 30
0.0
 11
88.2948668256788
 21
63.8507175774152
 31
0.0
  0
LINE
  5
   50F
  8
0
  6
CONTINUOUS
 62
     7
 10
88.6448667988549
 20
59.6507176489408
 30
0.0
 11
88.2948668256788
 21
59.6507176489408
 31
0.0
  0
LINE
  5
   510
  8
0
  6
CONTINUOUS
 62
     7
 10
88.6448667988549
 20
59.3007176549013
 30
0.0
 11
88.294866825669
 21
59.3007176549013
 31
0.0
  0
LINE
  5
   511
  8
0
  6
CONTINUOUS
 62
     7
 10
88.6448667988549
 20
52.4757177711296
 30
0.0
 11
88.294866825669
 21
52.4757177711296
 31
0.0
  0
LINE
  5
   512
  8
0
  6
CONTINUOUS
 62
     7
 10
88.6448667988549
 20
52.1257177770901
 30
0.0
 11
88.2948668256752
 21
52.1257177770901
 31
0.0
  0
LINE
  5
   513
  8
0
  6
CONTINUOUS
 62
     7
 10
88.6448667988549
 20
47.9257178486164
 30
0.0
 11
88.2948668256752
 21
47.9257178486164
 31
0.0
  0
LINE
  5
   514
  8
0
  6
CONTINUOUS
 62
     7
 10
88.6448667988549
 20
47.5757178545769
 30
0.0
 11
88.294866825677
 21
47.5757178545769
 31
0.0
  0
LINE
  5
   515
  8
0
  6
CONTINUOUS
 62
     7
 10
124.694860865213
 20
47.9257178486164
 30
0.0
 11
88.6448667988549
 21
47.9257178486164
 31
0.0
  0
LINE
  5
   516
  8
0
  6
CONTINUOUS
 62
     7
 10
124.694860865213
 20
47.5757178545769
 30
0.0
 11
88.6448667988549
 21
47.5757178545769
 31
0.0
  0
LINE
  5
   517
  8
0
  6
CONTINUOUS
 62
     7
 10
124.694860865213
 20
52.4757284522818
 30
0.0
 11
110.432365404012
 21
52.4757284522818
 31
0.0
  0
LINE
  5
   518
  8
0
  6
CONTINUOUS
 62
     7
 10
124.694860865213
 20
52.1257284582423
 30
0.0
 11
110.432365275776
 21
52.1257284582423
 31
0.0
  0
LINE
  5
   519
  8
0
  6
CONTINUOUS
 62
     7
 10
124.694860865213
 20
59.6507176489408
 30
0.0
 11
110.432366448678
 21
59.6507176489408
 31
0.0
  0
LINE
  5
   51A
  8
0
  6
CONTINUOUS
 62
     7
 10
124.694860865213
 20
59.3007176549013
 30
0.0
 11
110.432366448678
 21
59.3007176549013
 31
0.0
  0
LINE
  5
   51B
  8
0
  6
CONTINUOUS
 62
     7
 10
124.694860865213
 20
64.2007175714548
 30
0.0
 11
88.6448667988549
 21
64.2007175714548
 31
0.0
  0
LINE
  5
   51C
  8
0
  6
CONTINUOUS
 62
     7
 10
124.694860865213
 20
63.8507175774152
 30
0.0
 11
88.6448667988549
 21
63.8507175774152
 31
0.0
  0
LINE
  5
   51D
  8
0
  6
DASHDOT
 62
     7
 10
158.600691761759
 20
59.4757229924971
 30
0.0
 11
76.1677495843486
 21
59.4757229924971
 31
0.0
  0
LINE
  5
   51E
  8
0
  6
DASHDOT
 62
     7
 10
63.1483122873758
 20
59.4757229924971
 30
0.0
 11
58.4412849569318
 21
59.4757229924971
 31
0.0
  0
INSERT
  5
   51F
  8
255
  6
CONTINUOUS
 62
     7
  2
$2MOSTRINA
 10
66.4764458395191
 20
20.9824928283295
 30
0.0
 41
0.349999994039536
 42
0.349999994039536
 50
3.50835464724173E-15
 43
0.349999994039536
  0
LINE
  5
   520
  8
0
  6
CONTINUOUS
 62
     7
 10
125.044819282253
 20
87.6507091612382
 30
0.0
 11
125.044819282253
 21
94.913204798606
 31
0.0
  0
LINE
  5
   521
  8
0
  6
CONTINUOUS
 62
     7
 10
88.294815972654
 20
87.6507091612382
 30
0.0
 11
88.294815972654
 21
94.913204798606
 31
0.0
  0
LINE
  5
   522
  8
0
  6
CONTINUOUS
 62
     7
 10
88.6448159666936
 20
94.913204798606
 30
0.0
 11
88.294815972654
 21
94.913204798606
 31
0.0
  0
LINE
  5
   523
  8
0
  6
CONTINUOUS
 62
     7
 10
125.044819282253
 20
94.913204798606
 30
0.0
 11
124.694819288214
 21
94.913204798606
 31
0.0
  0
LINE
  5
   524
  8
0
  6
CONTINUOUS
 62
     3
 10
88.294866825677
 20
15.3932237265283
 30
0.0
 11
88.294866825677
 21
31.3007248074585
 31
0.0
  0
LINE
  5
   525
  8
0
  6
CONTINUOUS
 62
     3
 10
89.1698668107759
 20
15.3932237265283
 30
0.0
 11
88.294866825677
 21
15.3932237265283
 31
0.0
  0
LINE
  5
   526
  8
0
  6
CONTINUOUS
 62
     3
 10
89.1698668107759
 20
14.7632237539465
 30
0.0
 11
89.1698668107759
 21
15.3932237265283
 31
0.0
  0
LINE
  5
   527
  8
0
  6
CONTINUOUS
 62
     3
 10
99.9323666274916
 20
14.4132237599073
 30
0.0
 11
89.519866902276
 21
14.4132237599073
 31
0.0
  0
LINE
  5
   528
  8
0
  6
CONTINUOUS
 62
     3
 10
101.957761345007
 20
14.4132237599071
 30
0.0
 11
101.15736660663
 21
14.4132237599071
 31
0.0
  0
LINE
  5
   529
  8
0
  6
CONTINUOUS
 62
     7
 10
89.1698668107759
 20
15.3932237265283
 30
0.0
 11
89.1698668107759
 21
22.4632236228163
 31
0.0
  0
LINE
  5
   52A
  8
0
  6
DOT
 62
     7
 10
101.41986660216
 20
19.1382236794407
 30
0.0
 11
101.41986660216
 21
19.7974451034806
 31
0.0
  0
LINE
  5
   52B
  8
0
  6
CONTINUOUS
 62
     7
 10
99.6698666319619
 20
19.1382236794407
 30
0.0
 11
99.6698666319619
 21
19.7974456140491
 31
0.0
  0
LINE
  5
   52C
  8
0
  6
DOT
 62
     7
 10
101.41986660216
 20
19.1382236794407
 30
0.0
 11
100.0619835181
 21
19.1382236794407
 31
0.0
  0
LINE
  5
   52D
  8
0
  6
DOT
 62
     7
 10
111.919866423346
 20
19.1382236794407
 30
0.0
 11
111.919866423346
 21
19.8304010587052
 31
0.0
  0
LINE
  5
   52E
  8
0
  6
CONTINUOUS
 62
     7
 10
120.144866283275
 20
22.8132236168558
 30
0.0
 11
120.144866283275
 21
22.9882236138756
 31
0.0
  0
LINE
  5
   52F
  8
0
  6
CONTINUOUS
 62
     7
 10
88.9073668152462
 20
22.4632236228163
 30
0.0
 11
88.9073668152462
 21
22.9882236138756
 31
0.0
  0
LINE
  5
   530
  8
0
  6
CONTINUOUS
 62
     3
 10
101.41986660216
 20
15.4632237420255
 30
0.0
 11
101.41986660216
 21
16.6882237211639
 31
0.0
  0
LINE
  5
   531
  8
0
  6
CONTINUOUS
 62
     3
 10
99.6698666319619
 20
15.463223658579
 30
0.0
 11
99.6698666319619
 21
16.6882237211639
 31
0.0
  0
LINE
  5
   532
  8
0
  6
CONTINUOUS
 62
     3
 10
101.15736660663
 20
14.4132237599071
 30
0.0
 11
101.15736660663
 21
15.4632237420257
 31
0.0
  0
LINE
  5
   533
  8
0
  6
CONTINUOUS
 62
     3
 10
101.41986660216
 20
15.4632237420255
 30
0.0
 11
101.15736660663
 21
15.4632237420255
 31
0.0
  0
LINE
  5
   534
  8
0
  6
CONTINUOUS
 62
     3
 10
99.9323666274916
 20
14.4132237599071
 30
0.0
 11
99.9323666274916
 21
15.4632237420257
 31
0.0
  0
LINE
  5
   535
  8
0
  6
CONTINUOUS
 62
     3
 10
99.9323666274916
 20
15.4632237420255
 30
0.0
 11
99.6698666319619
 21
15.4632237420255
 31
0.0
  0
CIRCLE
  5
   536
  8
0
  6
CONTINUOUS
 62
     7
 10
94.4198667684566
 20
20.7132222257749
 30
0.0
 40
1.92499852271199
  0
CIRCLE
  5
   537
  8
0
  6
DOT
 62
     7
 10
100.544867225414
 20
21.4132255150348
 30
0.0
 40
0.96249829047196
  0
ARC
  5
   538
  8
0
  6
DOT
 62
     7
 10
100.544867088471
 20
21.413229773881
 30
0.0
 40
1.83749401361082
 50
298.436973936778
 51
418.997218532549
  0
CIRCLE
  5
   539
  8
0
  6
DOT
 62
     7
 10
106.669866670876
 20
20.7132248241341
 30
0.0
 40
1.92499882604943
  0
ARC
  5
   53A
  8
0
  6
DOT
 62
     7
 10
112.794867358974
 20
21.4132289709848
 30
0.0
 40
1.83749475538989
 50
298.436944421718
 51
418.99722864746
  0
CIRCLE
  5
   53B
  8
0
  6
DOT
 62
     7
 10
118.919866573295
 20
20.7132246380631
 30
0.0
 40
1.92499899795655
  0
CIRCLE
  5
   53C
  8
0
  6
DOT
 62
     7
 10
118.91986614469
 20
15.8132245969715
 30
0.0
 40
0.48999910342635
  0
CIRCLE
  5
   53D
  8
0
  6
DOT
 62
     7
 10
106.669865183268
 20
15.8132241352459
 30
0.0
 40
0.489999750772785
  0
CIRCLE
  5
   53E
  8
0
  6
CONTINUOUS
 62
     7
 10
94.4198662825611
 20
15.8132230272334
 30
0.0
 40
0.490000710339291
  0
ARC
  5
   53F
  8
0
  6
CONTINUOUS
 62
     3
 10
89.519866902276
 20
14.7632238979455
 30
0.0
 40
0.350000144503819
 50
180.000023420064
 51
269.999992853049
  0
LINE
  5
   540
  8
0
  6
DASHDOT
 62
     3
 10
94.4198667684566
 20
18.0882237149838
 30
0.0
 11
94.4198667684566
 21
23.3382207365659
 31
0.0
  0
LINE
  5
   541
  8
0
  6
DASHDOT
 62
     3
 10
97.0448652792477
 20
20.7132222257749
 30
0.0
 11
91.7948682576655
 21
20.7132222257749
 31
0.0
  0
LINE
  5
   542
  8
0
  6
DASHDOT
 62
     3
 10
100.544867088471
 20
13.2971654156101
 30
0.0
 11
100.544867088471
 21
29.1981415077963
 31
0.0
  0
LINE
  5
   543
  8
0
  6
DASHDOT
 62
     3
 10
103.082361090161
 20
21.413229773881
 30
0.0
 11
98.0073730867815
 21
21.413229773881
 31
0.0
  0
LINE
  5
   544
  8
0
  6
DASHDOT
 62
     3
 10
109.294865485004
 20
20.7132248241341
 30
0.0
 11
104.044867856747
 21
20.7132248241341
 31
0.0
  0
LINE
  5
   545
  8
0
  6
DASHDOT
 62
     3
 10
112.794867358974
 20
14.2611925003216
 30
0.0
 11
112.794867358974
 21
28.473778451668
 31
0.0
  0
LINE
  5
   546
  8
0
  6
DASHDOT
 62
     3
 10
115.332362102443
 20
21.4132289709848
 30
0.0
 11
110.257372615505
 21
21.4132289709848
 31
0.0
  0
LINE
  5
   547
  8
0
  6
DASHDOT
 62
     3
 10
118.919866573295
 20
18.0882256520275
 30
0.0
 11
118.919866573295
 21
23.3382236240988
 31
0.0
  0
LINE
  5
   548
  8
0
  6
DASHDOT
 62
     3
 10
121.54486555933
 20
20.7132246380631
 30
0.0
 11
116.294867587259
 21
20.7132246380631
 31
0.0
  0
LINE
  5
   549
  8
0
  6
DASHDOT
 62
     3
 10
118.91986614469
 20
14.6232255054661
 30
0.0
 11
118.91986614469
 21
17.0032236884769
 31
0.0
  0
LINE
  5
   54A
  8
0
  6
DASHDOT
 62
     3
 10
120.109865236195
 20
15.8132245969715
 30
0.0
 11
117.729867053185
 21
15.8132245969715
 31
0.0
  0
LINE
  5
   54B
  8
0
  6
DASHDOT
 62
     3
 10
107.85986492212
 20
15.8132241352459
 30
0.0
 11
105.479865444416
 21
15.8132241352459
 31
0.0
  0
LINE
  5
   54C
  8
0
  6
DASHDOT
 62
     3
 10
94.4198662825611
 20
14.6232223288151
 30
0.0
 11
94.4198662825611
 21
17.0032237256518
 31
0.0
  0
LINE
  5
   54D
  8
0
  6
DASHDOT
 62
     3
 10
95.6098669809794
 20
15.8132230272334
 30
0.0
 11
93.2298655841427
 21
15.8132230272334
 31
0.0
  0
LINE
  5
   54E
  8
0
  6
CONTINUOUS
 62
     3
 10
89.1698668107759
 20
14.7632237539465
 30
0.0
 11
89.1698668107759
 21
15.3932237265283
 31
0.0
  0
LINE
  5
   54F
  8
0
  6
CONTINUOUS
 62
     7
 10
90.569866786934
 20
22.4632236228163
 30
0.0
 11
88.9073668152462
 21
22.4632236228163
 31
0.0
  0
LINE
  5
   550
  8
0
  6
DOT
 62
     7
 10
113.669866393543
 20
19.1382236794407
 30
0.0
 11
113.669866393543
 21
19.7974431975645
 31
0.0
  0
LINE
  5
   551
  8
0
  6
DOT
 62
     7
 10
113.669866393543
 20
19.1382236794407
 30
0.0
 11
111.919866423346
 21
19.1382236794407
 31
0.0
  0
LINE
  5
   552
  8
0
  6
CONTINUOUS
 62
     7
 10
93.1948667422305
 20
22.8132236168558
 30
0.0
 11
93.1948667422305
 21
22.9882236138756
 31
0.0
  0
LINE
  5
   553
  8
0
  6
CONTINUOUS
 62
     7
 10
90.569866786934
 20
22.4632236228163
 30
0.0
 11
90.569866786934
 21
22.9882236138756
 31
0.0
  0
CIRCLE
  5
   554
  8
0
  6
DOT
 62
     7
 10
112.794867629594
 20
21.4132247527058
 30
0.0
 40
0.962498950668041
  0
ARC
  5
   555
  8
0
  6
CONTINUOUS
 62
     3
 10
89.519866902276
 20
14.7632238979455
 30
0.0
 40
0.350000144503819
 50
180.000023420064
 51
269.999992853049
  0
LINE
  5
   556
  8
0
  6
DASHDOT
 62
     3
 10
103.082361090161
 20
21.413229773881
 30
0.0
 11
98.0073730867815
 21
21.413229773881
 31
0.0
  0
LINE
  5
   557
  8
0
  6
DASHDOT
 62
     3
 10
109.294865485004
 20
20.7132248241341
 30
0.0
 11
104.044867856747
 21
20.7132248241341
 31
0.0
  0
LINE
  5
   558
  8
0
  6
DASHDOT
 62
     3
 10
112.794867358974
 20
14.2611925003216
 30
0.0
 11
112.794867358974
 21
29.0383044987019
 31
0.0
  0
LINE
  5
   559
  8
0
  6
DASHDOT
 62
     3
 10
115.332362102443
 20
21.4132289709848
 30
0.0
 11
110.257372615505
 21
21.4132289709848
 31
0.0
  0
LINE
  5
   55A
  8
0
  6
CONTINUOUS
 62
     7
 10
97.231963008355
 20
22.8132236168558
 30
0.0
 11
90.569866786934
 21
22.8132236168558
 31
0.0
  0
LINE
  5
   55B
  8
0
  6
CONTINUOUS
 62
     7
 10
125.044844837524
 20
22.9882236138756
 30
0.0
 11
88.294866825677
 21
22.9882236138756
 31
0.0
  0
ARC
  5
   55C
  8
0
  6
DOT
 62
     7
 10
100.544867088471
 20
21.413229773881
 30
0.0
 40
1.83749401361082
 50
121.002781363519
 51
184.358529759913
  0
ARC
  5
   55D
  8
0
  6
DOT
 62
     7
 10
112.794867358974
 20
21.4132289709848
 30
0.0
 40
1.83749475538989
 50
121.002771248608
 51
241.562988062779
  0
LINE
  5
   55E
  8
0
  6
CONTINUOUS
 62
     3
 10
101.41986660216
 20
16.6882237211639
 30
0.0
 11
99.6698666319619
 21
16.6882237211639
 31
0.0
  0
LINE
  5
   55F
  8
0
  6
CONTINUOUS
 62
     3
 10
98.6198177110293
 20
13.5381845063328
 30
0.0
 11
90.3948654604292
 21
13.5381845063328
 31
0.0
  0
LINE
  5
   560
  8
0
  6
CONTINUOUS
 62
     7
 10
90.3948654604292
 20
13.5381845063328
 30
0.0
 11
90.3948654604292
 21
14.4132237599073
 31
0.0
  0
LINE
  5
   561
  8
0
  6
CONTINUOUS
 62
     2
 10
88.294815972654
 20
95.2632047926456
 30
0.0
 11
88.294815972654
 21
124.488200523037
 31
0.0
  0
LINE
  5
   562
  8
0
  6
CONTINUOUS
 62
     2
 10
125.044819282253
 20
95.2632047926456
 30
0.0
 11
125.044819282253
 21
124.488200523037
 31
0.0
  0
ARC
  5
   563
  8
0
  6
CONTINUOUS
 62
     7
 10
112.794818644103
 20
95.0882023751546
 30
0.0
 40
1.3125023390205
 50
180.000125709671
 51
187.662301267597
  0
ARC
  5
   564
  8
0
  6
CONTINUOUS
 62
     7
 10
100.544816195778
 20
95.0882087793155
 30
0.0
 40
1.31250826904194
 50
352.337451371484
 51
359.999970304232
  0
LINE
  5
   565
  8
0
  6
CONTINUOUS
 62
     2
 10
125.044819282253
 20
95.2632047926456
 30
0.0
 11
88.294815972654
 21
95.2632047926456
 31
0.0
  0
LINE
  5
   566
  8
0
  6
CONTINUOUS
 62
     2
 10
124.694819288214
 20
94.913204798606
 30
0.0
 11
88.6448159666936
 21
94.913204798606
 31
0.0
  0
LINE
  5
   567
  8
0
  6
CONTINUOUS
 62
     2
 10
125.044819282253
 20
124.488200523037
 30
0.0
 11
88.294815972654
 21
124.488200523037
 31
0.0
  0
LINE
  5
   568
  8
0
  6
CONTINUOUS
 62
     2
 10
125.044819282253
 20
120.113200597542
 30
0.0
 11
88.294815972654
 21
120.113200597542
 31
0.0
  0
LINE
  5
   569
  8
0
  6
CONTINUOUS
 62
     2
 10
125.044819282253
 20
119.763200603503
 30
0.0
 11
88.294815972654
 21
119.763200603503
 31
0.0
  0
LINE
  5
   56A
  8
0
  6
CONTINUOUS
 62
     7
 10
88.6448159666936
 20
94.913204798606
 30
0.0
 11
88.6448159666936
 21
95.2632047926456
 31
0.0
  0
LINE
  5
   56B
  8
0
  6
CONTINUOUS
 62
     7
 10
124.694819288214
 20
94.913204798606
 30
0.0
 11
124.694819288214
 21
95.2632047926456
 31
0.0
  0
LINE
  5
   56C
  8
0
  6
CONTINUOUS
 62
     7
 10
99.9323176886775
 20
133.063200377005
 30
0.0
 11
89.5198198872405
 21
133.063200377005
 31
0.0
  0
LINE
  5
   56D
  8
0
  6
CONTINUOUS
 62
     7
 10
101.95776827422
 20
133.063200377005
 30
0.0
 11
101.157317667816
 21
133.063200377005
 31
0.0
  0
LINE
  5
   56E
  8
0
  6
CONTINUOUS
 62
     7
 10
89.169819893201
 20
132.083199325579
 30
0.0
 11
89.169819893201
 21
132.713200382966
 31
0.0
  0
LINE
  5
   56F
  8
0
  6
CONTINUOUS
 62
     7
 10
89.169819893201
 20
132.083199325579
 30
0.0
 11
88.2948199081021
 21
132.083199325579
 31
0.0
  0
LINE
  5
   570
  8
0
  6
CONTINUOUS
 62
     7
 10
88.294815972654
 20
124.488198767234
 30
0.0
 11
88.294815972654
 21
132.083199325579
 31
0.0
  0
LINE
  5
   571
  8
0
  6
CONTINUOUS
 62
     7
 10
101.419817663346
 20
130.788200415748
 30
0.0
 11
99.6698176931478
 21
130.788200415748
 31
0.0
  0
LINE
  5
   572
  8
0
  6
CONTINUOUS
 62
     7
 10
89.1698178185159
 20
124.488198767234
 30
0.0
 11
89.1698178185159
 21
132.083199325579
 31
0.0
  0
CIRCLE
  5
   573
  8
0
  6
CONTINUOUS
 62
     7
 10
94.4198195898811
 20
128.688197265962
 30
0.0
 40
1.9250004510233
  0
ARC
  5
   574
  8
0
  6
CONTINUOUS
 62
     7
 10
89.5198207800682
 20
132.713200779281
 30
0.0
 40
0.350001390934821
 50
90.0000472185487
 51
180.000478784316
  0
LINE
  5
   575
  8
0
  6
DASHDOT
 62
     7
 10
94.4198179188483
 20
130.123202102764
 30
0.0
 11
94.4198179188483
 21
133.203205220645
 31
0.0
  0
LINE
  5
   576
  8
0
  6
DASHDOT
 62
     7
 10
97.394820023023
 20
128.688197265962
 30
0.0
 11
91.4448191567392
 21
128.688197265962
 31
0.0
  0
LINE
  5
   577
  8
0
  6
CONTINUOUS
 62
     7
 10
99.9323176886775
 20
132.013200394887
 30
0.0
 11
99.9323176886775
 21
133.063200377005
 31
0.0
  0
LINE
  5
   578
  8
0
  6
CONTINUOUS
 62
     7
 10
101.157317667816
 20
132.013200394887
 30
0.0
 11
101.157317667816
 21
133.063200377005
 31
0.0
  0
LINE
  5
   579
  8
0
  6
CONTINUOUS
 62
     7
 10
99.6698176931478
 20
130.788200415748
 30
0.0
 11
99.6698176931478
 21
132.013200394887
 31
0.0
  0
LINE
  5
   57A
  8
0
  6
CONTINUOUS
 62
     7
 10
101.419817663346
 20
130.788200415748
 30
0.0
 11
101.419817663346
 21
132.013200394887
 31
0.0
  0
LINE
  5
   57B
  8
0
  6
CONTINUOUS
 62
     7
 10
101.419817663346
 20
132.013200394887
 30
0.0
 11
101.157317667816
 21
132.013200394887
 31
0.0
  0
LINE
  5
   57C
  8
0
  6
CONTINUOUS
 62
     7
 10
99.9323176886775
 20
132.013200394887
 30
0.0
 11
99.6698176931478
 21
132.013200394887
 31
0.0
  0
LINE
  5
   57D
  8
0
  6
DASHDOT
 62
     2
 10
118.919819172649
 20
126.647884236313
 30
0.0
 11
118.919819172649
 21
141.90069419824
 31
0.0
  0
LINE
  5
   57E
  8
0
  6
DASHDOT
 62
     2
 10
94.4198195898811
 20
125.580223624512
 30
0.0
 11
94.4198195898811
 21
141.90069419824
 31
0.0
  0
LINE
  5
   57F
  8
0
  6
CONTINUOUS
 62
     1
 10
102.469817645464
 20
133.938200362104
 30
0.0
 11
102.469817645464
 21
134.988200344223
 31
0.0
  0
LINE
  5
   580
  8
0
  6
CONTINUOUS
 62
     1
 10
100.019817687187
 20
134.988200344223
 30
0.0
 11
98.6198177110293
 21
134.988200344223
 31
0.0
  0
LINE
  5
   581
  8
0
  6
CONTINUOUS
 62
     1
 10
102.469817645464
 20
134.988200344223
 30
0.0
 11
101.069817669306
 21
134.988200344223
 31
0.0
  0
LINE
  5
   582
  8
0
  6
CONTINUOUS
 62
     1
 10
98.6198177110293
 20
133.063200377005
 30
0.0
 11
98.6198177110293
 21
134.988200344223
 31
0.0
  0
LINE
  5
   583
  8
0
  6
CONTINUOUS
 62
     1
 10
102.469817645464
 20
133.938200362104
 30
0.0
 11
98.6198177110293
 21
133.938200362104
 31
0.0
  0
LINE
  5
   584
  8
0
  6
CONTINUOUS
 62
     1
 10
100.019817687187
 20
132.083200243491
 30
0.0
 11
99.9323176886775
 21
132.083200243491
 31
0.0
  0
LINE
  5
   585
  8
0
  6
CONTINUOUS
 62
     1
 10
99.7573176916577
 20
130.963200245875
 30
0.0
 11
99.7573176916577
 21
132.013200394887
 31
0.0
  0
LINE
  5
   586
  8
0
  6
CONTINUOUS
 62
     1
 10
101.332317664836
 20
130.963200245875
 30
0.0
 11
99.7573176916577
 21
130.963200245875
 31
0.0
  0
LINE
  5
   587
  8
0
  6
CONTINUOUS
 62
     1
 10
101.332317664836
 20
130.963200245875
 30
0.0
 11
101.332317664836
 21
132.013200394887
 31
0.0
  0
LINE
  5
   588
  8
0
  6
CONTINUOUS
 62
     1
 10
101.157317667816
 20
132.083200243491
 30
0.0
 11
101.069817669306
 21
132.083200243491
 31
0.0
  0
LINE
  5
   589
  8
0
  6
CONTINUOUS
 62
     1
 10
101.069817669306
 20
132.083200160044
 30
0.0
 11
101.069817669306
 21
133.938200195211
 31
0.0
  0
LINE
  5
   58A
  8
0
  6
CONTINUOUS
 62
     1
 10
100.019817687187
 20
132.083200160044
 30
0.0
 11
100.019817687187
 21
133.938200195211
 31
0.0
  0
LINE
  5
   58B
  8
0
  6
CONTINUOUS
 62
     1
 10
100.857630173363
 20
168.938200099844
 30
0.0
 11
100.232005183131
 21
168.938200099844
 31
0.0
  0
LINE
  5
   58C
  8
0
  6
CONTINUOUS
 62
     1
 10
100.019817687187
 20
131.733200249451
 30
0.0
 11
100.019817687187
 21
132.083200243491
 31
0.0
  0
LINE
  5
   58D
  8
0
  6
CONTINUOUS
 62
     1
 10
101.069817669306
 20
131.733200249451
 30
0.0
 11
101.069817669306
 21
132.083200243491
 31
0.0
  0
LINE
  5
   58E
  8
0
  6
CONTINUOUS
 62
     1
 10
100.019817687187
 20
131.733200249451
 30
0.0
 11
99.7573176916577
 21
131.733200249451
 31
0.0
  0
LINE
  5
   58F
  8
0
  6
CONTINUOUS
 62
     1
 10
101.332317664836
 20
131.733200249451
 30
0.0
 11
101.069817669306
 21
131.733200249451
 31
0.0
  0
LINE
  5
   590
  8
0
  6
CONTINUOUS
 62
     1
 10
102.469817645464
 20
134.288200356144
 30
0.0
 11
98.6198177110293
 21
134.288200356144
 31
0.0
  0
LINE
  5
   591
  8
0
  6
CONTINUOUS
 62
     1
 10
101.069817669306
 20
134.988200344223
 30
0.0
 11
100.857630173363
 21
168.938200099844
 31
0.0
  0
LINE
  5
   592
  8
0
  6
CONTINUOUS
 62
     1
 10
100.019817687187
 20
134.988200344223
 30
0.0
 11
100.232005183131
 21
168.938200099844
 31
0.0
  0
LINE
  5
   593
  8
0
  6
CONTINUOUS
 62
     1
 10
112.269817478571
 20
134.988200344222
 30
0.0
 11
112.482004974514
 21
168.938200099844
 31
0.0
  0
LINE
  5
   594
  8
0
  6
CONTINUOUS
 62
     1
 10
113.31981746069
 20
134.988200344223
 30
0.0
 11
113.107629964747
 21
168.938200099844
 31
0.0
  0
LINE
  5
   595
  8
0
  6
CONTINUOUS
 62
     1
 10
113.107629964747
 20
168.938200099844
 30
0.0
 11
112.482004974514
 21
168.938200099844
 31
0.0
  0
LINE
  5
   596
  8
0
  6
CONTINUOUS
 62
     1
 10
114.719817436848
 20
134.988200344223
 30
0.0
 11
113.31981746069
 21
134.988200344223
 31
0.0
  0
LINE
  5
   597
  8
0
  6
CONTINUOUS
 62
     1
 10
112.269817478571
 20
134.988200344223
 30
0.0
 11
110.869817502413
 21
134.988200344223
 31
0.0
  0
LINE
  5
   598
  8
0
  6
CONTINUOUS
 62
     1
 10
114.719817436848
 20
134.288200356144
 30
0.0
 11
110.869817502413
 21
134.288200356144
 31
0.0
  0
LINE
  5
   599
  8
0
  6
CONTINUOUS
 62
     1
 10
110.869817502413
 20
133.938200362104
 30
0.0
 11
110.869817502413
 21
134.988200344223
 31
0.0
  0
LINE
  5
   59A
  8
0
  6
CONTINUOUS
 62
     1
 10
114.719817436848
 20
133.938200362104
 30
0.0
 11
114.719817436848
 21
134.988200344223
 31
0.0
  0
LINE
  5
   59B
  8
0
  6
CONTINUOUS
 62
     3
 10
124.607323275601
 20
133.938200362104
 30
0.0
 11
102.511577123903
 21
133.938200362104
 31
0.0
  0
LINE
  5
   59C
  8
0
  6
CONTINUOUS
 62
     3
 10
125.044842125337
 20
124.488198767234
 30
0.0
 11
125.044842125337
 21
133.500660976278
 31
0.0
  0
LINE
  5
   59D
  8
0
  6
CONTINUOUS
 62
     3
 10
124.916683406868
 20
133.810060894397
 30
0.0
 11
124.607325194813
 21
133.93820267918
 31
0.0
  0
LINE
  5
   59E
  8
0
  6
CONTINUOUS
 62
     3
 10
125.04482413186
 20
133.500704415894
 30
0.0
 11
124.916682347077
 21
133.810062627949
 31
0.0
  0
LINE
  5
   59F
  8
0
  6
CONTINUOUS
 62
     3
 10
124.222323816215
 20
124.838198761274
 30
0.0
 11
124.222323816215
 21
133.829471573672
 31
0.0
  0
LINE
  5
   5A0
  8
0
  6
CONTINUOUS
 62
     3
 10
122.96232437173
 20
124.838198761274
 30
0.0
 11
122.96232437173
 21
133.829471573672
 31
0.0
  0
LINE
  5
   5A1
  8
0
  6
CONTINUOUS
 62
     3
 10
121.702324927245
 20
124.838198761274
 30
0.0
 11
121.702324927245
 21
133.829471573672
 31
0.0
  0
LINE
  5
   5A2
  8
0
  6
CONTINUOUS
 62
     3
 10
120.442325482761
 20
124.838198761274
 30
0.0
 11
120.442325482761
 21
133.829471573672
 31
0.0
  0
LINE
  5
   5A3
  8
0
  6
CONTINUOUS
 62
     3
 10
119.182323367988
 20
124.838198761274
 30
0.0
 11
119.182323367988
 21
133.829471573672
 31
0.0
  0
LINE
  5
   5A4
  8
0
  6
CONTINUOUS
 62
     3
 10
117.922323923503
 20
124.838198761274
 30
0.0
 11
117.922323923503
 21
133.829471573672
 31
0.0
  0
LINE
  5
   5A5
  8
0
  6
CONTINUOUS
 62
     3
 10
116.662324479018
 20
124.838198761274
 30
0.0
 11
116.662324479018
 21
133.829471573672
 31
0.0
  0
LINE
  5
   5A6
  8
0
  6
CONTINUOUS
 62
     3
 10
115.402325034534
 20
124.838198761274
 30
0.0
 11
115.402325034534
 21
133.829471573672
 31
0.0
  0
LINE
  5
   5A7
  8
0
  6
CONTINUOUS
 62
     3
 10
114.142325590049
 20
124.838198761274
 30
0.0
 11
114.142325590049
 21
133.829471573672
 31
0.0
  0
LINE
  5
   5A8
  8
0
  6
CONTINUOUS
 62
     3
 10
112.882323475276
 20
124.838198761274
 30
0.0
 11
112.882323475276
 21
133.829471573672
 31
0.0
  0
LINE
  5
   5A9
  8
0
  6
CONTINUOUS
 62
     3
 10
111.622324030792
 20
124.838198761274
 30
0.0
 11
111.622324030792
 21
133.829471573672
 31
0.0
  0
LINE
  5
   5AA
  8
0
  6
CONTINUOUS
 62
     3
 10
110.362324586307
 20
124.838198761274
 30
0.0
 11
110.362324586307
 21
133.829471573672
 31
0.0
  0
LINE
  5
   5AB
  8
0
  6
CONTINUOUS
 62
     3
 10
109.102325141822
 20
124.838198761274
 30
0.0
 11
109.102325141822
 21
133.829471573672
 31
0.0
  0
LINE
  5
   5AC
  8
0
  6
CONTINUOUS
 62
     3
 10
107.842324362193
 20
124.838198761274
 30
0.0
 11
107.842324362193
 21
133.829471573672
 31
0.0
  0
LINE
  5
   5AD
  8
0
  6
CONTINUOUS
 62
     3
 10
106.582324917709
 20
124.838198761274
 30
0.0
 11
106.582324917709
 21
133.829471573672
 31
0.0
  0
LINE
  5
   5AE
  8
0
  6
CONTINUOUS
 62
     3
 10
105.322325473224
 20
124.838198761274
 30
0.0
 11
105.322325473224
 21
133.829471573672
 31
0.0
  0
LINE
  5
   5AF
  8
0
  6
CONTINUOUS
 62
     3
 10
104.062324693595
 20
124.838198761274
 30
0.0
 11
104.062324693595
 21
133.829471573672
 31
0.0
  0
LINE
  5
   5B0
  8
0
  6
CONTINUOUS
 62
     3
 10
102.802325249111
 20
124.838198761274
 30
0.0
 11
102.802325249111
 21
133.829471573672
 31
0.0
  0
POLYLINE
  5
   5B1
  8
0
  6
CONTINUOUS
 62
     3
 66
     1
 10
0.0
 20
0.0
 30
0.0
  0
VERTEX
  5
   5B2
  8
0
  6
CONTINUOUS
 10
102.511577123903
 20
133.938200110932
 30
0.0
 40
0.0
 41
0.0
  0
VERTEX
  5
   5B3
  8
0
  6
CONTINUOUS
 10
102.456499064638
 20
133.894557105047
 30
0.0
 40
0.0
 41
0.0
  0
VERTEX
  5
   5B4
  8
0
  6
CONTINUOUS
 10
102.404366694077
 20
133.849944561038
 30
0.0
 40
0.0
 41
0.0
  0
VERTEX
  5
   5B5
  8
0
  6
CONTINUOUS
 10
102.355170606566
 20
133.804364801078
 30
0.0
 40
0.0
 41
0.0
  0
VERTEX
  5
   5B6
  8
0
  6
CONTINUOUS
 10
102.308898160317
 20
133.757820946317
 30
0.0
 40
0.0
 41
0.0
  0
VERTEX
  5
   5B7
  8
0
  6
CONTINUOUS
 10
102.265532997167
 20
133.710317035443
 30
0.0
 40
0.0
 41
0.0
  0
VERTEX
  5
   5B8
  8
0
  6
CONTINUOUS
 10
102.244934400451
 20
133.686206601122
 30
0.0
 40
0.0
 41
0.0
  0
VERTEX
  5
   5B9
  8
0
  6
CONTINUOUS
 10
102.225054562351
 20
133.66185814325
 30
0.0
 40
0.0
 41
0.0
  0
VERTEX
  5
   5BA
  8
0
  6
CONTINUOUS
 10
102.205890179014
 20
133.63727247752
 30
0.0
 40
0.0
 41
0.0
  0
VERTEX
  5
   5BB
  8
0
  6
CONTINUOUS
 10
102.187437624269
 20
133.612450499203
 30
0.0
 40
0.0
 41
0.0
  0
VERTEX
  5
   5BC
  8
0
  6
CONTINUOUS
 10
102.169692934623
 20
133.58739318685
 30
0.0
 40
0.0
 41
0.0
  0
VERTEX
  5
   5BD
  8
0
  6
CONTINUOUS
 10
102.15265179425
 20
133.562101606001
 30
0.0
 40
0.0
 41
0.0
  0
VERTEX
  5
   5BE
  8
0
  6
CONTINUOUS
 10
102.136309519987
 20
133.53657691289
 30
0.0
 40
0.0
 41
0.0
  0
VERTEX
  5
   5BF
  8
0
  6
CONTINUOUS
 10
102.120661046323
 20
133.510820358146
 30
0.0
 40
0.0
 41
0.0
  0
VERTEX
  5
   5C0
  8
0
  6
CONTINUOUS
 10
102.105700910396
 20
133.484833290504
 30
0.0
 40
0.0
 41
0.0
  0
VERTEX
  5
   5C1
  8
0
  6
CONTINUOUS
 10
102.091423236981
 20
133.458617160506
 30
0.0
 40
0.0
 41
0.0
  0
VERTEX
  5
   5C2
  8
0
  6
CONTINUOUS
 10
102.077821723489
 20
133.432173524206
 30
0.0
 40
0.0
 41
0.0
  0
VERTEX
  5
   5C3
  8
0
  6
CONTINUOUS
 10
102.064889624952
 20
133.405504046879
 30
0.0
 40
0.0
 41
0.0
  0
VERTEX
  5
   5C4
  8
0
  6
CONTINUOUS
 10
102.041004390963
 20
133.351494798562
 30
0.0
 40
0.0
 41
0.0
  0
VERTEX
  5
   5C5
  8
0
  6
CONTINUOUS
 10
102.019704157509
 20
133.296605062914
 30
0.0
 40
0.0
 41
0.0
  0
VERTEX
  5
   5C6
  8
0
  6
CONTINUOUS
 10
102.000917508619
 20
133.24085247192
 30
0.0
 40
0.0
 41
0.0
  0
VERTEX
  5
   5C7
  8
0
  6
CONTINUOUS
 10
101.984564509627
 20
133.184256760759
 30
0.0
 40
0.0
 41
0.0
  0
VERTEX
  5
   5C8
  8
0
  6
CONTINUOUS
 10
101.970556226933
 20
133.126839886369
 30
0.0
 40
0.0
 41
0.0
  0
VERTEX
  5
   5C9
  8
0
  6
CONTINUOUS
 10
101.958794247777
 20
133.068626146011
 30
0.0
 40
0.0
 41
0.0
  0
VERTEX
  5
   5CA
  8
0
  6
CONTINUOUS
 10
101.949170200002
 20
133.009642295833
 30
0.0
 40
0.0
 41
0.0
  0
VERTEX
  5
   5CB
  8
0
  6
CONTINUOUS
 10
101.941565271822
 20
132.949917669439
 30
0.0
 40
0.0
 41
0.0
  0
VERTEX
  5
   5CC
  8
0
  6
CONTINUOUS
 10
101.935849731591
 20
132.889484296453
 30
0.0
 40
0.0
 41
0.0
  0
VERTEX
  5
   5CD
  8
0
  6
CONTINUOUS
 10
101.931083882706
 20
132.811594363303
 30
0.0
 40
0.0
 41
0.0
  0
VERTEX
  5
   5CE
  8
0
  6
CONTINUOUS
 10
101.928831795173
 20
132.732691423088
 30
0.0
 40
0.0
 41
0.0
  0
VERTEX
  5
   5CF
  8
0
  6
CONTINUOUS
 10
101.928749263047
 20
132.652861011617
 30
0.0
 40
0.0
 41
0.0
  0
VERTEX
  5
   5D0
  8
0
  6
CONTINUOUS
 10
101.930469826652
 20
132.572195045889
 30
0.0
 40
0.0
 41
0.0
  0
VERTEX
  5
   5D1
  8
0
  6
CONTINUOUS
 10
101.933609235844
 20
132.490791165616
 30
0.0
 40
0.0
 41
0.0
  0
VERTEX
  5
   5D2
  8
0
  6
CONTINUOUS
 10
101.937769913282
 20
132.408752074754
 30
0.0
 40
0.0
 41
0.0
  0
VERTEX
  5
   5D3
  8
0
  6
CONTINUOUS
 10
101.947524907135
 20
132.243200447433
 30
0.0
 40
0.0
 41
0.0
  0
VERTEX
  5
   5D4
  8
0
  6
CONTINUOUS
 10
101.956457249608
 20
132.076438058356
 30
0.0
 40
0.0
 41
0.0
  0
VERTEX
  5
   5D5
  8
0
  6
CONTINUOUS
 10
101.959606584817
 20
131.992894629087
 30
0.0
 40
0.0
 41
0.0
  0
VERTEX
  5
   5D6
  8
0
  6
CONTINUOUS
 10
101.961361795943
 20
131.909401687452
 30
0.0
 40
0.0
 41
0.0
  0
VERTEX
  5
   5D7
  8
0
  6
CONTINUOUS
 10
101.961356986703
 20
131.826078949813
 30
0.0
 40
0.0
 41
0.0
  0
VERTEX
  5
   5D8
  8
0
  6
CONTINUOUS
 10
101.959248639742
 20
131.743045928978
 30
0.0
 40
0.0
 41
0.0
  0
VERTEX
  5
   5D9
  8
0
  6
CONTINUOUS
 10
101.9547200799
 20
131.660421275726
 30
0.0
 40
0.0
 41
0.0
  0
VERTEX
  5
   5DA
  8
0
  6
CONTINUOUS
 10
101.951457697207
 20
131.619298767557
 30
0.0
 40
0.0
 41
0.0
  0
VERTEX
  5
   5DB
  8
0
  6
CONTINUOUS
 10
101.947485937482
 20
131.578322120338
 30
0.0
 40
0.0
 41
0.0
  0
VERTEX
  5
   5DC
  8
0
  6
CONTINUOUS
 10
101.942774753245
 20
131.537505629746
 30
0.0
 40
0.0
 41
0.0
  0
VERTEX
  5
   5DD
  8
0
  6
CONTINUOUS
 10
101.937296611517
 20
131.496863414116
 30
0.0
 40
0.0
 41
0.0
  0
VERTEX
  5
   5DE
  8
0
  6
CONTINUOUS
 10
101.931026633296
 20
131.456409393865
 30
0.0
 40
0.0
 41
0.0
  0
VERTEX
  5
   5DF
  8
0
  6
CONTINUOUS
 10
101.923942733032
 20
131.416157270914
 30
0.0
 40
0.0
 41
0.0
  0
VERTEX
  5
   5E0
  8
0
  6
CONTINUOUS
 10
101.916025758108
 20
131.376120508112
 30
0.0
 40
0.0
 41
0.0
  0
VERTEX
  5
   5E1
  8
0
  6
CONTINUOUS
 10
101.907259628313
 20
131.336312308659
 30
0.0
 40
0.0
 41
0.0
  0
VERTEX
  5
   5E2
  8
0
  6
CONTINUOUS
 10
101.897631475321
 20
131.296745595527
 30
0.0
 40
0.0
 41
0.0
  0
VERTEX
  5
   5E3
  8
0
  6
CONTINUOUS
 10
101.887131782171
 20
131.257432990884
 30
0.0
 40
0.0
 41
0.0
  0
VERTEX
  5
   5E4
  8
0
  6
CONTINUOUS
 10
101.871258120456
 20
131.203805826714
 30
0.0
 40
0.0
 41
0.0
  0
VERTEX
  5
   5E5
  8
0
  6
CONTINUOUS
 10
101.853720440248
 20
131.150713365199
 30
0.0
 40
0.0
 41
0.0
  0
VERTEX
  5
   5E6
  8
0
  6
CONTINUOUS
 10
101.834526072791
 20
131.098185005606
 30
0.0
 40
0.0
 41
0.0
  0
VERTEX
  5
   5E7
  8
0
  6
CONTINUOUS
 10
101.813693568734
 20
131.04624839696
 30
0.0
 40
0.0
 41
0.0
  0
VERTEX
  5
   5E8
  8
0
  6
CONTINUOUS
 10
101.791251814852
 20
130.994929174536
 30
0.0
 40
0.0
 41
0.0
  0
VERTEX
  5
   5E9
  8
0
  6
CONTINUOUS
 10
101.767239150775
 20
130.944250696343
 30
0.0
 40
0.0
 41
0.0
  0
VERTEX
  5
   5EA
  8
0
  6
CONTINUOUS
 10
101.741702485717
 20
130.894233779618
 30
0.0
 40
0.0
 41
0.0
  0
VERTEX
  5
   5EB
  8
0
  6
CONTINUOUS
 10
101.7146964152
 20
130.84489643731
 30
0.0
 40
0.0
 41
0.0
  0
VERTEX
  5
   5EC
  8
0
  6
CONTINUOUS
 10
101.686282337783
 20
130.796253614569
 30
0.0
 40
0.0
 41
0.0
  0
VERTEX
  5
   5ED
  8
0
  6
CONTINUOUS
 10
101.656527571789
 20
130.748316925234
 30
0.0
 40
0.0
 41
0.0
  0
VERTEX
  5
   5EE
  8
0
  6
CONTINUOUS
 10
101.62550447203
 20
130.701094388326
 30
0.0
 40
0.0
 41
0.0
  0
VERTEX
  5
   5EF
  8
0
  6
CONTINUOUS
 10
101.593289546534
 20
130.654590164529
 30
0.0
 40
0.0
 41
0.0
  0
VERTEX
  5
   5F0
  8
0
  6
CONTINUOUS
 10
101.559962573277
 20
130.608804292684
 30
0.0
 40
0.0
 41
0.0
  0
VERTEX
  5
   5F1
  8
0
  6
CONTINUOUS
 10
101.525605716904
 20
130.563732426275
 30
0.0
 40
0.0
 41
0.0
  0
VERTEX
  5
   5F2
  8
0
  6
CONTINUOUS
 10
101.490302645458
 20
130.519365569917
 30
0.0
 40
0.0
 41
0.0
  0
VERTEX
  5
   5F3
  8
0
  6
CONTINUOUS
 10
101.454137647107
 20
130.475689815845
 30
0.0
 40
0.0
 41
0.0
  0
VERTEX
  5
   5F4
  8
0
  6
CONTINUOUS
 10
101.417194746873
 20
130.432686080405
 30
0.0
 40
0.0
 41
0.0
  0
VERTEX
  5
   5F5
  8
0
  6
CONTINUOUS
 10
101.379556823356
 20
130.390329840537
 30
0.0
 40
0.0
 41
0.0
  0
VERTEX
  5
   5F6
  8
0
  6
CONTINUOUS
 10
101.341304725462
 20
130.348590870267
 30
0.0
 40
0.0
 41
0.0
  0
VERTEX
  5
   5F7
  8
0
  6
CONTINUOUS
 10
101.302516389131
 20
130.307432977194
 30
0.0
 40
0.0
 41
0.0
  0
VERTEX
  5
   5F8
  8
0
  6
CONTINUOUS
 10
101.254373497185
 20
130.257739051903
 30
0.0
 40
0.0
 41
0.0
  0
VERTEX
  5
   5F9
  8
0
  6
CONTINUOUS
 10
101.205664264757
 20
130.208762498109
 30
0.0
 40
0.0
 41
0.0
  0
VERTEX
  5
   5FA
  8
0
  6
CONTINUOUS
 10
101.107012860824
 20
130.11253692697
 30
0.0
 40
0.0
 41
0.0
  0
VERTEX
  5
   5FB
  8
0
  6
CONTINUOUS
 10
100.907694098856
 20
129.923522432473
 30
0.0
 40
0.0
 41
0.0
  0
VERTEX
  5
   5FC
  8
0
  6
CONTINUOUS
 10
100.808574371236
 20
129.828562457052
 30
0.0
 40
0.0
 41
0.0
  0
VERTEX
  5
   5FD
  8
0
  6
CONTINUOUS
 10
100.759484867818
 20
129.780483425537
 30
0.0
 40
0.0
 41
0.0
  0
VERTEX
  5
   5FE
  8
0
  6
CONTINUOUS
 10
100.71084341075
 20
129.731826321699
 30
0.0
 40
0.0
 41
0.0
  0
VERTEX
  5
   5FF
  8
0
  6
CONTINUOUS
 10
100.662757249444
 20
129.682464359195
 30
0.0
 40
0.0
 41
0.0
  0
VERTEX
  5
   600
  8
0
  6
CONTINUOUS
 10
100.615340488928
 20
129.632278817908
 30
0.0
 40
0.0
 41
0.0
  0
VERTEX
  5
   601
  8
0
  6
CONTINUOUS
 10
100.568715539618
 20
129.581160935141
 30
0.0
 40
0.0
 41
0.0
  0
VERTEX
  5
   602
  8
0
  6
CONTINUOUS
 10
100.523014567105
 20
129.529013796806
 30
0.0
 40
0.0
 41
0.0
  0
VERTEX
  5
   603
  8
0
  6
CONTINUOUS
 10
100.478380941929
 20
129.475754228616
 30
0.0
 40
0.0
 41
0.0
  0
VERTEX
  5
   604
  8
0
  6
CONTINUOUS
 10
100.43497068936
 20
129.421314687277
 30
0.0
 40
0.0
 41
0.0
  0
VERTEX
  5
   605
  8
0
  6
CONTINUOUS
 10
100.392953939175
 20
129.365645151678
 30
0.0
 40
0.0
 41
0.0
  0
VERTEX
  5
   606
  8
0
  6
CONTINUOUS
 10
100.352516375442
 20
129.308715014085
 30
0.0
 40
0.0
 41
0.0
  0
VERTEX
  5
   607
  8
0
  6
CONTINUOUS
 10
100.326023686733
 20
129.269277009968
 30
0.0
 40
0.0
 41
0.0
  0
VERTEX
  5
   608
  8
0
  6
CONTINUOUS
 10
100.300422720497
 20
129.229254284353
 30
0.0
 40
0.0
 41
0.0
  0
VERTEX
  5
   609
  8
0
  6
CONTINUOUS
 10
100.275784336273
 20
129.188654368982
 30
0.0
 40
0.0
 41
0.0
  0
VERTEX
  5
   60A
  8
0
  6
CONTINUOUS
 10
100.252180816573
 20
129.147488986563
 30
0.0
 40
0.0
 41
0.0
  0
VERTEX
  5
   60B
  8
0
  6
CONTINUOUS
 10
100.229684605574
 20
129.10577366653
 30
0.0
 40
0.0
 41
0.0
  0
VERTEX
  5
   60C
  8
0
  6
CONTINUOUS
 10
100.208367047801
 20
129.063527360788
 30
0.0
 40
0.0
 41
0.0
  0
VERTEX
  5
   60D
  8
0
  6
CONTINUOUS
 10
100.18829712682
 20
129.020772059479
 30
0.0
 40
0.0
 41
0.0
  0
VERTEX
  5
   60E
  8
0
  6
CONTINUOUS
 10
100.169540203923
 20
128.977532406723
 30
0.0
 40
0.0
 41
0.0
  0
VERTEX
  5
   60F
  8
0
  6
CONTINUOUS
 10
100.152156756819
 20
128.933835316384
 30
0.0
 40
0.0
 41
0.0
  0
VERTEX
  5
   610
  8
0
  6
CONTINUOUS
 10
100.136201118319
 20
128.889709587816
 30
0.0
 40
0.0
 41
0.0
  0
VERTEX
  5
   611
  8
0
  6
CONTINUOUS
 10
100.121720215029
 20
128.84518552162
 30
0.0
 40
0.0
 41
0.0
  0
VERTEX
  5
   612
  8
0
  6
CONTINUOUS
 10
100.108752306035
 20
128.8002945354
 30
0.0
 40
0.0
 41
0.0
  0
VERTEX
  5
   613
  8
0
  6
CONTINUOUS
 10
100.097325721592
 20
128.755068779511
 30
0.0
 40
0.0
 41
0.0
  0
VERTEX
  5
   614
  8
0
  6
CONTINUOUS
 10
100.087457601812
 20
128.709540752821
 30
0.0
 40
0.0
 41
0.0
  0
VERTEX
  5
   615
  8
0
  6
CONTINUOUS
 10
100.079152635355
 20
128.663742918459
 30
0.0
 40
0.0
 41
0.0
  0
VERTEX
  5
   616
  8
0
  6
CONTINUOUS
 10
100.072401798113
 20
128.617707319571
 30
0.0
 40
0.0
 41
0.0
  0
VERTEX
  5
   617
  8
0
  6
CONTINUOUS
 10
100.067181091902
 20
128.571465195076
 30
0.0
 40
0.0
 41
0.0
  0
VERTEX
  5
   618
  8
0
  6
CONTINUOUS
 10
100.063450283151
 20
128.525046595416
 30
0.0
 40
0.0
 41
0.0
  0
VERTEX
  5
   619
  8
0
  6
CONTINUOUS
 10
100.061151641586
 20
128.478479998314
 30
0.0
 40
0.0
 41
0.0
  0
VERTEX
  5
   61A
  8
0
  6
CONTINUOUS
 10
100.060208678922
 20
128.431791924526
 30
0.0
 40
0.0
 41
0.0
  0
VERTEX
  5
   61B
  8
0
  6
CONTINUOUS
 10
100.060353326268
 20
128.395279558636
 30
0.0
 40
0.0
 41
0.0
  0
VERTEX
  5
   61C
  8
0
  6
CONTINUOUS
 10
100.061211036585
 20
128.358718383071
 30
0.0
 40
0.0
 41
0.0
  0
VERTEX
  5
   61D
  8
0
  6
CONTINUOUS
 10
100.064812376571
 20
128.285486888844
 30
0.0
 40
0.0
 41
0.0
  0
VERTEX
  5
   61E
  8
0
  6
CONTINUOUS
 10
100.070446743292
 20
128.212164787922
 30
0.0
 40
0.0
 41
0.0
  0
VERTEX
  5
   61F
  8
0
  6
CONTINUOUS
 10
100.077469989859
 20
128.13881035703
 30
0.0
 40
0.0
 41
0.0
  0
VERTEX
  5
   620
  8
0
  6
CONTINUOUS
 10
100.092860221617
 20
127.992213624585
 30
0.0
 40
0.0
 41
0.0
  0
VERTEX
  5
   621
  8
0
  6
CONTINUOUS
 10
100.099764921237
 20
127.919074568388
 30
0.0
 40
0.0
 41
0.0
  0
VERTEX
  5
   622
  8
0
  6
CONTINUOUS
 10
100.105182143948
 20
127.846116792638
 30
0.0
 40
0.0
 41
0.0
  0
VERTEX
  5
   623
  8
0
  6
CONTINUOUS
 10
100.108438394213
 20
127.773406625081
 30
0.0
 40
0.0
 41
0.0
  0
VERTEX
  5
   624
  8
0
  6
CONTINUOUS
 10
100.109063198569
 20
127.737168384938
 30
0.0
 40
0.0
 41
0.0
  0
VERTEX
  5
   625
  8
0
  6
CONTINUOUS
 10
100.108926628342
 20
127.701022683226
 30
0.0
 40
0.0
 41
0.0
  0
VERTEX
  5
   626
  8
0
  6
CONTINUOUS
 10
100.108104441436
 20
127.66865596565
 30
0.0
 40
0.0
 41
0.0
  0
VERTEX
  5
   627
  8
0
  6
CONTINUOUS
 10
100.106578882353
 20
127.63638350895
 30
0.0
 40
0.0
 41
0.0
  0
VERTEX
  5
   628
  8
0
  6
CONTINUOUS
 10
100.104314652284
 20
127.604215767318
 30
0.0
 40
0.0
 41
0.0
  0
VERTEX
  5
   629
  8
0
  6
CONTINUOUS
 10
100.101280804587
 20
127.572163863703
 30
0.0
 40
0.0
 41
0.0
  0
VERTEX
  5
   62A
  8
0
  6
CONTINUOUS
 10
100.097450591584
 20
127.54023952991
 30
0.0
 40
0.0
 41
0.0
  0
VERTEX
  5
   62B
  8
0
  6
CONTINUOUS
 10
100.092801311358
 20
127.508455046704
 30
0.0
 40
0.0
 41
0.0
  0
VERTEX
  5
   62C
  8
0
  6
CONTINUOUS
 10
100.087314154552
 20
127.476823183908
 30
0.0
 40
0.0
 41
0.0
  0
VERTEX
  5
   62D
  8
0
  6
CONTINUOUS
 10
100.080974051171
 20
127.445357140508
 30
0.0
 40
0.0
 41
0.0
  0
VERTEX
  5
   62E
  8
0
  6
CONTINUOUS
 10
100.073769517374
 20
127.414070484754
 30
0.0
 40
0.0
 41
0.0
  0
VERTEX
  5
   62F
  8
0
  6
CONTINUOUS
 10
100.06569250228
 20
127.38297709426
 30
0.0
 40
0.0
 41
0.0
  0
VERTEX
  5
   630
  8
0
  6
CONTINUOUS
 10
100.056738234763
 20
127.352091096108
 30
0.0
 40
0.0
 41
0.0
  0
VERTEX
  5
   631
  8
0
  6
CONTINUOUS
 10
100.046905070251
 20
127.321426806947
 30
0.0
 40
0.0
 41
0.0
  0
VERTEX
  5
   632
  8
0
  6
CONTINUOUS
 10
100.036194337525
 20
127.290998673095
 30
0.0
 40
0.0
 41
0.0
  0
VERTEX
  5
   633
  8
0
  6
CONTINUOUS
 10
100.024610185517
 20
127.260821210643
 30
0.0
 40
0.0
 41
0.0
  0
VERTEX
  5
   634
  8
0
  6
CONTINUOUS
 10
100.01215943011
 20
127.230908945556
 30
0.0
 40
0.0
 41
0.0
  0
VERTEX
  5
   635
  8
0
  6
CONTINUOUS
 10
99.9988514009353
 20
127.201276353771
 30
0.0
 40
0.0
 41
0.0
  0
VERTEX
  5
   636
  8
0
  6
CONTINUOUS
 10
99.9846977881737
 20
127.171937801302
 30
0.0
 40
0.0
 41
0.0
  0
VERTEX
  5
   637
  8
0
  6
CONTINUOUS
 10
99.9697124893507
 20
127.142907484342
 30
0.0
 40
0.0
 41
0.0
  0
VERTEX
  5
   638
  8
0
  6
CONTINUOUS
 10
99.9539114561375
 20
127.114199369363
 30
0.0
 40
0.0
 41
0.0
  0
VERTEX
  5
   639
  8
0
  6
CONTINUOUS
 10
99.9373125411494
 20
127.085827133217
 30
0.0
 40
0.0
 41
0.0
  0
VERTEX
  5
   63A
  8
0
  6
CONTINUOUS
 10
99.9199353447439
 20
127.05780410324
 30
0.0
 40
0.0
 41
0.0
  0
VERTEX
  5
   63B
  8
0
  6
CONTINUOUS
 10
99.90180106182
 20
127.030143197352
 30
0.0
 40
0.0
 41
0.0
  0
VERTEX
  5
   63C
  8
0
  6
CONTINUOUS
 10
99.8829323286166
 20
127.002856864157
 30
0.0
 40
0.0
 41
0.0
  0
VERTEX
  5
   63D
  8
0
  6
CONTINUOUS
 10
99.8633530695113
 20
126.97595702305
 30
0.0
 40
0.0
 41
0.0
  0
VERTEX
  5
   63E
  8
0
  6
CONTINUOUS
 10
99.8430883438191
 20
126.949455004312
 30
0.0
 40
0.0
 41
0.0
  0
VERTEX
  5
   63F
  8
0
  6
CONTINUOUS
 10
99.822164192591
 20
126.923361489215
 30
0.0
 40
0.0
 41
0.0
  0
VERTEX
  5
   640
  8
0
  6
CONTINUOUS
 10
99.8006074854128
 20
126.897686450125
 30
0.0
 40
0.0
 41
0.0
  0
VERTEX
  5
   641
  8
0
  6
CONTINUOUS
 10
99.7784457672038
 20
126.872439090601
 30
0.0
 40
0.0
 41
0.0
  0
VERTEX
  5
   642
  8
0
  6
CONTINUOUS
 10
99.7557071050157
 20
126.847627785497
 30
0.0
 40
0.0
 41
0.0
  0
VERTEX
  5
   643
  8
0
  6
CONTINUOUS
 10
99.7324199348307
 20
126.823260021064
 30
0.0
 40
0.0
 41
0.0
  0
VERTEX
  5
   644
  8
0
  6
CONTINUOUS
 10
99.6843147398466
 20
126.775880256813
 30
0.0
 40
0.0
 41
0.0
  0
VERTEX
  5
   645
  8
0
  6
CONTINUOUS
 10
99.6343592270796
 20
126.730339639661
 30
0.0
 40
0.0
 41
0.0
  0
VERTEX
  5
   646
  8
0
  6
CONTINUOUS
 10
99.5827785393689
 20
126.686659960277
 30
0.0
 40
0.0
 41
0.0
  0
VERTEX
  5
   647
  8
0
  6
CONTINUOUS
 10
99.5297890151238
 20
126.644843041437
 30
0.0
 40
0.0
 41
0.0
  0
VERTEX
  5
   648
  8
0
  6
CONTINUOUS
 10
99.4755932858821
 20
126.604868821277
 30
0.0
 40
0.0
 41
0.0
  0
VERTEX
  5
   649
  8
0
  6
CONTINUOUS
 10
99.4284941019179
 20
126.572157055581
 30
0.0
 40
0.0
 41
0.0
  0
VERTEX
  5
   64A
  8
0
  6
CONTINUOUS
 10
99.3807518330768
 20
126.54071607131
 30
0.0
 40
0.0
 41
0.0
  0
VERTEX
  5
   64B
  8
0
  6
CONTINUOUS
 10
99.3324569177899
 20
126.510491766455
 30
0.0
 40
0.0
 41
0.0
  0
VERTEX
  5
   64C
  8
0
  6
CONTINUOUS
 10
99.2836891096405
 20
126.481418677388
 30
0.0
 40
0.0
 41
0.0
  0
VERTEX
  5
   64D
  8
0
  6
CONTINUOUS
 10
99.2345183881046
 20
126.453421138035
 30
0.0
 40
0.0
 41
0.0
  0
VERTEX
  5
   64E
  8
0
  6
CONTINUOUS
 10
99.1850058692906
 20
126.426414439034
 30
0.0
 40
0.0
 41
0.0
  0
VERTEX
  5
   64F
  8
0
  6
CONTINUOUS
 10
99.1352047166806
 20
126.400305986903
 30
0.0
 40
0.0
 41
0.0
  0
VERTEX
  5
   650
  8
0
  6
CONTINUOUS
 10
99.0851610518705
 20
126.374996463203
 30
0.0
 40
0.0
 41
0.0
  0
VERTEX
  5
   651
  8
0
  6
CONTINUOUS
 10
98.9845009270435
 20
126.326350257558
 30
0.0
 40
0.0
 41
0.0
  0
VERTEX
  5
   652
  8
0
  6
CONTINUOUS
 10
98.883288237986
 20
126.279590823743
 30
0.0
 40
0.0
 41
0.0
  0
VERTEX
  5
   653
  8
0
  6
CONTINUOUS
 10
98.6800133696118
 20
126.18806230773
 30
0.0
 40
0.0
 41
0.0
  0
VERTEX
  5
   654
  8
0
  6
CONTINUOUS
 10
98.5783213374546
 20
126.141504538196
 30
0.0
 40
0.0
 41
0.0
  0
VERTEX
  5
   655
  8
0
  6
CONTINUOUS
 10
98.4768753227727
 20
126.093330352367
 30
0.0
 40
0.0
 41
0.0
  0
VERTEX
  5
   656
  8
0
  6
CONTINUOUS
 10
98.4193072397478
 20
126.064901591645
 30
0.0
 40
0.0
 41
0.0
  0
VERTEX
  5
   657
  8
0
  6
CONTINUOUS
 10
98.3619727326224
 20
126.035618895745
 30
0.0
 40
0.0
 41
0.0
  0
VERTEX
  5
   658
  8
0
  6
CONTINUOUS
 10
98.3049444285381
 20
126.005391604716
 30
0.0
 40
0.0
 41
0.0
  0
VERTEX
  5
   659
  8
0
  6
CONTINUOUS
 10
98.2483028926291
 20
125.97414324902
 30
0.0
 40
0.0
 41
0.0
  0
VERTEX
  5
   65A
  8
0
  6
CONTINUOUS
 10
98.1921357901584
 20
125.941810642372
 30
0.0
 40
0.0
 41
0.0
  0
VERTEX
  5
   65B
  8
0
  6
CONTINUOUS
 10
98.1365370486538
 20
125.908342974591
 30
0.0
 40
0.0
 41
0.0
  0
VERTEX
  5
   65C
  8
0
  6
CONTINUOUS
 10
98.0816060200447
 20
125.873700904449
 30
0.0
 40
0.0
 41
0.0
  0
VERTEX
  5
   65D
  8
0
  6
CONTINUOUS
 10
98.0274466427984
 20
125.837855652523
 30
0.0
 40
0.0
 41
0.0
  0
VERTEX
  5
   65E
  8
0
  6
CONTINUOUS
 10
97.974166604056
 20
125.800788094036
 30
0.0
 40
0.0
 41
0.0
  0
VERTEX
  5
   65F
  8
0
  6
CONTINUOUS
 10
97.9218765017689
 20
125.762487851713
 30
0.0
 40
0.0
 41
0.0
  0
VERTEX
  5
   660
  8
0
  6
CONTINUOUS
 10
97.8706890068357
 20
125.722952388627
 30
0.0
 40
0.0
 41
0.0
  0
VERTEX
  5
   661
  8
0
  6
CONTINUOUS
 10
97.8207180252377
 20
125.682186101044
 30
0.0
 40
0.0
 41
0.0
  0
VERTEX
  5
   662
  8
0
  6
CONTINUOUS
 10
97.7720778601755
 20
125.640199411279
 30
0.0
 40
0.0
 41
0.0
  0
VERTEX
  5
   663
  8
0
  6
CONTINUOUS
 10
97.7248823742057
 20
125.597007860538
 30
0.0
 40
0.0
 41
0.0
  0
VERTEX
  5
   664
  8
0
  6
CONTINUOUS
 10
97.6792441513768
 20
125.55263120177
 30
0.0
 40
0.0
 41
0.0
  0
VERTEX
  5
   665
  8
0
  6
CONTINUOUS
 10
97.6352736593657
 20
125.507092492516
 30
0.0
 40
0.0
 41
0.0
  0
VERTEX
  5
   666
  8
0
  6
CONTINUOUS
 10
97.5930784116138
 20
125.460417187756
 30
0.0
 40
0.0
 41
0.0
  0
VERTEX
  5
   667
  8
0
  6
CONTINUOUS
 10
97.5527621294639
 20
125.412632232757
 30
0.0
 40
0.0
 41
0.0
  0
VERTEX
  5
   668
  8
0
  6
CONTINUOUS
 10
97.5144239042959
 20
125.363765155924
 30
0.0
 40
0.0
 41
0.0
  0
VERTEX
  5
   669
  8
0
  6
CONTINUOUS
 10
97.4781573596634
 20
125.313843161648
 30
0.0
 40
0.0
 41
0.0
  0
VERTEX
  5
   66A
  8
0
  6
CONTINUOUS
 10
97.4483495752813
 20
125.269558938218
 30
0.0
 40
0.0
 41
0.0
  0
VERTEX
  5
   66B
  8
0
  6
CONTINUOUS
 10
97.42023041486
 20
125.224511405786
 30
0.0
 40
0.0
 41
0.0
  0
VERTEX
  5
   66C
  8
0
  6
CONTINUOUS
 10
97.3938492592885
 20
125.178715345791
 30
0.0
 40
0.0
 41
0.0
  0
VERTEX
  5
   66D
  8
0
  6
CONTINUOUS
 10
97.3692516951475
 20
125.132184403903
 30
0.0
 40
0.0
 41
0.0
  0
VERTEX
  5
   66E
  8
0
  6
CONTINUOUS
 10
97.3464796664277
 20
125.084931135434
 30
0.0
 40
0.0
 41
0.0
  0
VERTEX
  5
   66F
  8
0
  6
CONTINUOUS
 10
97.3255716262477
 20
125.036967050758
 30
0.0
 40
0.0
 41
0.0
  0
VERTEX
  5
   670
  8
0
  6
CONTINUOUS
 10
97.3065626885721
 20
124.988302660721
 30
0.0
 40
0.0
 41
0.0
  0
VERTEX
  5
   671
  8
0
  6
CONTINUOUS
 10
97.2894847799298
 20
124.938947522057
 30
0.0
 40
0.0
 41
0.0
  0
VERTEX
  5
   672
  8
0
  6
CONTINUOUS
 10
97.2743667911318
 20
124.888910282803
 30
0.0
 40
0.0
 41
0.0
  0
VERTEX
  5
   673
  8
0
  6
CONTINUOUS
 10
97.2612347289897
 20
124.838198727715
 30
0.0
 40
0.0
 41
0.0
  0
SEQEND
  5
   674
  8
0
  6
CONTINUOUS
 62
     3
  0
LINE
  5
   675
  8
0
  6
CONTINUOUS
 62
     7
 10
125.044842125337
 20
124.838198761274
 30
0.0
 11
97.2612347289897
 21
124.838198761274
 31
0.0
  0
LINE
  5
   676
  8
0
  6
CONTINUOUS
 62
     7
 10
124.694842131297
 20
124.488198767234
 30
0.0
 11
124.694842131297
 21
124.838198761274
 31
0.0
  0
LINE
  5
   677
  8
0
  6
CONTINUOUS
 62
     3
 10
101.542325804626
 20
124.838198761274
 30
0.0
 11
101.542325804626
 21
130.585416089672
 31
0.0
  0
LINE
  5
   678
  8
0
  6
CONTINUOUS
 62
     3
 10
100.282326360141
 20
124.838198761274
 30
0.0
 11
100.282326360141
 21
129.199654027975
 31
0.0
  0
LINE
  5
   679
  8
0
  6
CONTINUOUS
 62
     3
 10
99.0223269156563
 20
124.838198761274
 30
0.0
 11
99.0223269156563
 21
126.344287061062
 31
0.0
  0
LINE
  5
   67A
  8
0
  6
CONTINUOUS
 62
     3
 10
97.7623274711716
 20
124.838198761274
 30
0.0
 11
97.7623274711716
 21
125.631484882431
 31
0.0
  0
LINE
  5
   67B
  8
0
  6
DASHDOT
 62
     7
 10
106.669819381265
 20
137.525694272746
 30
0.0
 11
106.669819381265
 21
142.600694186319
 31
0.0
  0
TEXT
  5
   67C
  8
0
  6
CONTINUOUS
 62
     7
 10
105.224273213253
 20
188.353392466598
 30
0.0
 40
2.99999997871263
  1
Y
 50
359.999999948034
 41
0.91666663951344
 72
     1
 11
106.324273182462
 21
189.853392454962
 31
0.0
 73
     2
  0
INSERT
  5
   67D
  8
0
  6
CONTINUOUS
 62
     7
  2
*UDIM219
 10
0.0
 20
0.0
 30
0.0
  0
INSERT
  5
   67E
  8
0
  6
CONTINUOUS
 62
     7
  2
*UDIM220
 10
0.0
 20
0.0
 30
0.0
  0
INSERT
  5
   67F
  8
0
  6
CONTINUOUS
 62
     7
  2
*UDIM221
 10
0.0
 20
0.0
 30
0.0
  0
LINE
  5
   680
  8
0
  6
CONTINUOUS
 62
     1
 10
100.857630173363
 20
-21.4618152314068
 30
0.0
 11
100.232005183131
 21
-21.4618152314068
 31
0.0
  0
LINE
  5
   681
  8
0
  6
CONTINUOUS
 62
     1
 10
100.232005183131
 20
-21.4618152314068
 30
0.0
 11
100.019817687187
 21
12.4881845242142
 31
0.0
  0
LINE
  5
   682
  8
0
  6
CONTINUOUS
 62
     1
 10
100.857630173363
 20
-21.4618152314067
 30
0.0
 11
101.069817669306
 21
12.4881845242142
 31
0.0
  0
LINE
  5
   683
  8
0
  6
CONTINUOUS
 62
     1
 10
113.107629964747
 20
-21.4618152314068
 30
0.0
 11
112.482004974514
 21
-21.4618152314068
 31
0.0
  0
LINE
  5
   684
  8
0
  6
CONTINUOUS
 62
     1
 10
112.482004974514
 20
-21.4618152314067
 30
0.0
 11
112.269817478571
 21
12.4881845242144
 31
0.0
  0
LINE
  5
   685
  8
0
  6
CONTINUOUS
 62
     1
 10
113.107629964747
 20
-21.4618152314067
 30
0.0
 11
113.31981746069
 21
12.4881845242141
 31
0.0
  0
LINE
  5
   686
  8
0
  6
CONTINUOUS
 62
     1
 10
101.069817669306
 20
13.5381846732258
 30
0.0
 11
101.069817669306
 21
15.7431846189856
 31
0.0
  0
LINE
  5
   687
  8
0
  6
CONTINUOUS
 62
     1
 10
101.332317664836
 20
15.7431846189856
 30
0.0
 11
101.069817669306
 21
15.7431846189856
 31
0.0
  0
LINE
  5
   688
  8
0
  6
CONTINUOUS
 62
     1
 10
101.332317664836
 20
15.4631844735503
 30
0.0
 11
101.332317664836
 21
16.5131846225619
 31
0.0
  0
LINE
  5
   689
  8
0
  6
CONTINUOUS
 62
     1
 10
101.332317664836
 20
16.5131846225619
 30
0.0
 11
99.7573176916577
 21
16.5131846225619
 31
0.0
  0
LINE
  5
   68A
  8
0
  6
CONTINUOUS
 62
     1
 10
99.7573176916577
 20
15.4631844735503
 30
0.0
 11
99.7573176916577
 21
16.5131846225619
 31
0.0
  0
LINE
  5
   68B
  8
0
  6
CONTINUOUS
 62
     1
 10
100.019817687187
 20
15.7431846189856
 30
0.0
 11
99.7573176916577
 21
15.7431846189856
 31
0.0
  0
LINE
  5
   68C
  8
0
  6
CONTINUOUS
 62
     1
 10
100.019817687187
 20
13.5381846732258
 30
0.0
 11
100.019817687187
 21
15.7431846189856
 31
0.0
  0
LINE
  5
   68D
  8
0
  6
CONTINUOUS
 62
     1
 10
98.6198177110293
 20
12.4881845242142
 30
0.0
 11
98.6198177110293
 21
14.4131844914316
 31
0.0
  0
LINE
  5
   68E
  8
0
  6
CONTINUOUS
 62
     1
 10
102.469817645464
 20
13.5381845063328
 30
0.0
 11
98.6198177110293
 21
13.5381845063328
 31
0.0
  0
LINE
  5
   68F
  8
0
  6
CONTINUOUS
 62
     1
 10
102.469817645464
 20
13.1881845122933
 30
0.0
 11
98.6198177110293
 21
13.1881845122933
 31
0.0
  0
LINE
  5
   690
  8
0
  6
CONTINUOUS
 62
     1
 10
102.469817645464
 20
12.4881845242142
 30
0.0
 11
102.469817645464
 21
13.5381845063328
 31
0.0
  0
LINE
  5
   691
  8
0
  6
CONTINUOUS
 62
     1
 10
102.469817645464
 20
12.4881845242142
 30
0.0
 11
101.069817669306
 21
12.4881845242142
 31
0.0
  0
LINE
  5
   692
  8
0
  6
CONTINUOUS
 62
     1
 10
100.019817687187
 20
12.4881845242142
 30
0.0
 11
98.6198177110293
 21
12.4881845242142
 31
0.0
  0
LINE
  5
   693
  8
0
  6
CONTINUOUS
 62
     1
 10
114.719817436848
 20
13.1881845122933
 30
0.0
 11
110.869817502413
 21
13.1881845122933
 31
0.0
  0
LINE
  5
   694
  8
0
  6
CONTINUOUS
 62
     1
 10
112.269817478571
 20
12.4881845242142
 30
0.0
 11
110.869817502413
 21
12.4881845242142
 31
0.0
  0
LINE
  5
   695
  8
0
  6
CONTINUOUS
 62
     1
 10
114.719817436848
 20
12.4881845242142
 30
0.0
 11
113.31981746069
 21
12.4881845242142
 31
0.0
  0
LINE
  5
   696
  8
0
  6
CONTINUOUS
 62
     1
 10
114.719817436848
 20
12.4881845242142
 30
0.0
 11
114.719817436848
 21
13.5381845063328
 31
0.0
  0
LINE
  5
   697
  8
0
  6
CONTINUOUS
 62
     1
 10
110.869817502413
 20
12.4881845242142
 30
0.0
 11
110.869817502413
 21
13.5381845063328
 31
0.0
  0
POLYLINE
  5
   698
  8
0
  6
CONTINUOUS
 62
     3
 66
     1
 10
0.0
 20
0.0
 30
0.0
  0
VERTEX
  5
   699
  8
0
  6
CONTINUOUS
 10
102.511577123903
 20
13.5381847575052
 30
0.0
 40
0.0
 41
0.0
  0
VERTEX
  5
   69A
  8
0
  6
CONTINUOUS
 10
102.456499064638
 20
13.5818277633899
 30
0.0
 40
0.0
 41
0.0
  0
VERTEX
  5
   69B
  8
0
  6
CONTINUOUS
 10
102.404366694077
 20
13.6264403073992
 30
0.0
 40
0.0
 41
0.0
  0
VERTEX
  5
   69C
  8
0
  6
CONTINUOUS
 10
102.355170606566
 20
13.6720200673588
 30
0.0
 40
0.0
 41
0.0
  0
VERTEX
  5
   69D
  8
0
  6
CONTINUOUS
 10
102.308898160317
 20
13.7185639221199
 30
0.0
 40
0.0
 41
0.0
  0
VERTEX
  5
   69E
  8
0
  6
CONTINUOUS
 10
102.265532997167
 20
13.7660678329938
 30
0.0
 40
0.0
 41
0.0
  0
VERTEX
  5
   69F
  8
0
  6
CONTINUOUS
 10
102.244934400451
 20
13.7901782673149
 30
0.0
 40
0.0
 41
0.0
  0
VERTEX
  5
   6A0
  8
0
  6
CONTINUOUS
 10
102.225054562351
 20
13.8145267251866
 30
0.0
 40
0.0
 41
0.0
  0
VERTEX
  5
   6A1
  8
0
  6
CONTINUOUS
 10
102.205890179014
 20
13.8391123909163
 30
0.0
 40
0.0
 41
0.0
  0
VERTEX
  5
   6A2
  8
0
  6
CONTINUOUS
 10
102.187437624269
 20
13.863934369234
 30
0.0
 40
0.0
 41
0.0
  0
VERTEX
  5
   6A3
  8
0
  6
CONTINUOUS
 10
102.169692934623
 20
13.8889916815871
 30
0.0
 40
0.0
 41
0.0
  0
VERTEX
  5
   6A4
  8
0
  6
CONTINUOUS
 10
102.15265179425
 20
13.9142832624357
 30
0.0
 40
0.0
 41
0.0
  0
VERTEX
  5
   6A5
  8
0
  6
CONTINUOUS
 10
102.136309519987
 20
13.939807955547
 30
0.0
 40
0.0
 41
0.0
  0
VERTEX
  5
   6A6
  8
0
  6
CONTINUOUS
 10
102.120661046323
 20
13.9655645102906
 30
0.0
 40
0.0
 41
0.0
  0
VERTEX
  5
   6A7
  8
0
  6
CONTINUOUS
 10
102.105700910396
 20
13.9915515779325
 30
0.0
 40
0.0
 41
0.0
  0
VERTEX
  5
   6A8
  8
0
  6
CONTINUOUS
 10
102.091423236981
 20
14.0177677079311
 30
0.0
 40
0.0
 41
0.0
  0
VERTEX
  5
   6A9
  8
0
  6
CONTINUOUS
 10
102.077821723489
 20
14.0442113442308
 30
0.0
 40
0.0
 41
0.0
  0
VERTEX
  5
   6AA
  8
0
  6
CONTINUOUS
 10
102.064889624952
 20
14.0708808215579
 30
0.0
 40
0.0
 41
0.0
  0
VERTEX
  5
   6AB
  8
0
  6
CONTINUOUS
 10
102.041004390963
 20
14.1248900698748
 30
0.0
 40
0.0
 41
0.0
  0
VERTEX
  5
   6AC
  8
0
  6
CONTINUOUS
 10
102.019704157509
 20
14.1797798055232
 30
0.0
 40
0.0
 41
0.0
  0
VERTEX
  5
   6AD
  8
0
  6
CONTINUOUS
 10
102.000917508619
 20
14.2355323965172
 30
0.0
 40
0.0
 41
0.0
  0
VERTEX
  5
   6AE
  8
0
  6
CONTINUOUS
 10
101.984564509627
 20
14.2921281076776
 30
0.0
 40
0.0
 41
0.0
  0
VERTEX
  5
   6AF
  8
0
  6
CONTINUOUS
 10
101.970556226933
 20
14.3495449820674
 30
0.0
 40
0.0
 41
0.0
  0
VERTEX
  5
   6B0
  8
0
  6
CONTINUOUS
 10
101.958794247777
 20
14.4077587224259
 30
0.0
 40
0.0
 41
0.0
  0
VERTEX
  5
   6B1
  8
0
  6
CONTINUOUS
 10
101.949170200002
 20
14.4667425726037
 30
0.0
 40
0.0
 41
0.0
  0
VERTEX
  5
   6B2
  8
0
  6
CONTINUOUS
 10
101.941565271822
 20
14.5264671989973
 30
0.0
 40
0.0
 41
0.0
  0
VERTEX
  5
   6B3
  8
0
  6
CONTINUOUS
 10
101.935849731591
 20
14.586900571984
 30
0.0
 40
0.0
 41
0.0
  0
VERTEX
  5
   6B4
  8
0
  6
CONTINUOUS
 10
101.931083882706
 20
14.6647905051338
 30
0.0
 40
0.0
 41
0.0
  0
VERTEX
  5
   6B5
  8
0
  6
CONTINUOUS
 10
101.928831795173
 20
14.7436934453487
 30
0.0
 40
0.0
 41
0.0
  0
VERTEX
  5
   6B6
  8
0
  6
CONTINUOUS
 10
101.928749263047
 20
14.8235238568195
 30
0.0
 40
0.0
 41
0.0
  0
VERTEX
  5
   6B7
  8
0
  6
CONTINUOUS
 10
101.930469826652
 20
14.9041898225479
 30
0.0
 40
0.0
 41
0.0
  0
VERTEX
  5
   6B8
  8
0
  6
CONTINUOUS
 10
101.933609235844
 20
14.9855937028205
 30
0.0
 40
0.0
 41
0.0
  0
VERTEX
  5
   6B9
  8
0
  6
CONTINUOUS
 10
101.937769913282
 20
15.0676327936833
 30
0.0
 40
0.0
 41
0.0
  0
VERTEX
  5
   6BA
  8
0
  6
CONTINUOUS
 10
101.947524907135
 20
15.2331844210037
 30
0.0
 40
0.0
 41
0.0
  0
VERTEX
  5
   6BB
  8
0
  6
CONTINUOUS
 10
101.956457249608
 20
15.3999468100807
 30
0.0
 40
0.0
 41
0.0
  0
VERTEX
  5
   6BC
  8
0
  6
CONTINUOUS
 10
101.959606584817
 20
15.4834902393497
 30
0.0
 40
0.0
 41
0.0
  0
VERTEX
  5
   6BD
  8
0
  6
CONTINUOUS
 10
101.961361795943
 20
15.5669831809844
 30
0.0
 40
0.0
 41
0.0
  0
VERTEX
  5
   6BE
  8
0
  6
CONTINUOUS
 10
101.961356986703
 20
15.6503059186235
 30
0.0
 40
0.0
 41
0.0
  0
VERTEX
  5
   6BF
  8
0
  6
CONTINUOUS
 10
101.959248639742
 20
15.733338939459
 30
0.0
 40
0.0
 41
0.0
  0
VERTEX
  5
   6C0
  8
0
  6
CONTINUOUS
 10
101.9547200799
 20
15.8159635927105
 30
0.0
 40
0.0
 41
0.0
  0
VERTEX
  5
   6C1
  8
0
  6
CONTINUOUS
 10
101.951457697207
 20
15.8570861008802
 30
0.0
 40
0.0
 41
0.0
  0
VERTEX
  5
   6C2
  8
0
  6
CONTINUOUS
 10
101.947485937482
 20
15.8980627480987
 30
0.0
 40
0.0
 41
0.0
  0
VERTEX
  5
   6C3
  8
0
  6
CONTINUOUS
 10
101.942774753245
 20
15.9388792386906
 30
0.0
 40
0.0
 41
0.0
  0
VERTEX
  5
   6C4
  8
0
  6
CONTINUOUS
 10
101.937296611517
 20
15.9795214543207
 30
0.0
 40
0.0
 41
0.0
  0
VERTEX
  5
   6C5
  8
0
  6
CONTINUOUS
 10
101.931026633296
 20
16.0199754745721
 30
0.0
 40
0.0
 41
0.0
  0
VERTEX
  5
   6C6
  8
0
  6
CONTINUOUS
 10
101.923942733032
 20
16.0602275975231
 30
0.0
 40
0.0
 41
0.0
  0
VERTEX
  5
   6C7
  8
0
  6
CONTINUOUS
 10
101.916025758108
 20
16.1002643603246
 30
0.0
 40
0.0
 41
0.0
  0
VERTEX
  5
   6C8
  8
0
  6
CONTINUOUS
 10
101.907259628313
 20
16.1400725597773
 30
0.0
 40
0.0
 41
0.0
  0
VERTEX
  5
   6C9
  8
0
  6
CONTINUOUS
 10
101.897631475321
 20
16.1796392729093
 30
0.0
 40
0.0
 41
0.0
  0
VERTEX
  5
   6CA
  8
0
  6
CONTINUOUS
 10
101.887131782171
 20
16.218951877553
 30
0.0
 40
0.0
 41
0.0
  0
VERTEX
  5
   6CB
  8
0
  6
CONTINUOUS
 10
101.871258120456
 20
16.2725790417228
 30
0.0
 40
0.0
 41
0.0
  0
VERTEX
  5
   6CC
  8
0
  6
CONTINUOUS
 10
101.853720440248
 20
16.3256715032374
 30
0.0
 40
0.0
 41
0.0
  0
VERTEX
  5
   6CD
  8
0
  6
CONTINUOUS
 10
101.834526072791
 20
16.3781998628307
 30
0.0
 40
0.0
 41
0.0
  0
VERTEX
  5
   6CE
  8
0
  6
CONTINUOUS
 10
101.813693568734
 20
16.4301364714766
 30
0.0
 40
0.0
 41
0.0
  0
VERTEX
  5
   6CF
  8
0
  6
CONTINUOUS
 10
101.791251814852
 20
16.4814556939011
 30
0.0
 40
0.0
 41
0.0
  0
VERTEX
  5
   6D0
  8
0
  6
CONTINUOUS
 10
101.767239150775
 20
16.5321341720936
 30
0.0
 40
0.0
 41
0.0
  0
VERTEX
  5
   6D1
  8
0
  6
CONTINUOUS
 10
101.741702485717
 20
16.5821510888183
 30
0.0
 40
0.0
 41
0.0
  0
VERTEX
  5
   6D2
  8
0
  6
CONTINUOUS
 10
101.7146964152
 20
16.6314884311267
 30
0.0
 40
0.0
 41
0.0
  0
VERTEX
  5
   6D3
  8
0
  6
CONTINUOUS
 10
101.686282337783
 20
16.6801312538681
 30
0.0
 40
0.0
 41
0.0
  0
VERTEX
  5
   6D4
  8
0
  6
CONTINUOUS
 10
101.656527571789
 20
16.7280679432023
 30
0.0
 40
0.0
 41
0.0
  0
VERTEX
  5
   6D5
  8
0
  6
CONTINUOUS
 10
101.62550447203
 20
16.7752904801105
 30
0.0
 40
0.0
 41
0.0
  0
VERTEX
  5
   6D6
  8
0
  6
CONTINUOUS
 10
101.593289546534
 20
16.8217947039073
 30
0.0
 40
0.0
 41
0.0
  0
VERTEX
  5
   6D7
  8
0
  6
CONTINUOUS
 10
101.559962573277
 20
16.8675805757524
 30
0.0
 40
0.0
 41
0.0
  0
VERTEX
  5
   6D8
  8
0
  6
CONTINUOUS
 10
101.525605716904
 20
16.9126524421618
 30
0.0
 40
0.0
 41
0.0
  0
VERTEX
  5
   6D9
  8
0
  6
CONTINUOUS
 10
101.490302645458
 20
16.9570192985199
 30
0.0
 40
0.0
 41
0.0
  0
VERTEX
  5
   6DA
  8
0
  6
CONTINUOUS
 10
101.454137647107
 20
17.0006950525913
 30
0.0
 40
0.0
 41
0.0
  0
VERTEX
  5
   6DB
  8
0
  6
CONTINUOUS
 10
101.417194746873
 20
17.0436987880315
 30
0.0
 40
0.0
 41
0.0
  0
VERTEX
  5
   6DC
  8
0
  6
CONTINUOUS
 10
101.379556823356
 20
17.0860550278998
 30
0.0
 40
0.0
 41
0.0
  0
VERTEX
  5
   6DD
  8
0
  6
CONTINUOUS
 10
101.341304725462
 20
17.12779399817
 30
0.0
 40
0.0
 41
0.0
  0
VERTEX
  5
   6DE
  8
0
  6
CONTINUOUS
 10
101.302516389131
 20
17.1689518912424
 30
0.0
 40
0.0
 41
0.0
  0
VERTEX
  5
   6DF
  8
0
  6
CONTINUOUS
 10
101.254373497185
 20
17.2186458165337
 30
0.0
 40
0.0
 41
0.0
  0
VERTEX
  5
   6E0
  8
0
  6
CONTINUOUS
 10
101.205664264757
 20
17.2676223703282
 30
0.0
 40
0.0
 41
0.0
  0
VERTEX
  5
   6E1
  8
0
  6
CONTINUOUS
 10
101.107012860824
 20
17.363847941467
 30
0.0
 40
0.0
 41
0.0
  0
VERTEX
  5
   6E2
  8
0
  6
CONTINUOUS
 10
100.907694098856
 20
17.5528624359638
 30
0.0
 40
0.0
 41
0.0
  0
VERTEX
  5
   6E3
  8
0
  6
CONTINUOUS
 10
100.808574371236
 20
17.6478224113851
 30
0.0
 40
0.0
 41
0.0
  0
VERTEX
  5
   6E4
  8
0
  6
CONTINUOUS
 10
100.759484867818
 20
17.6959014429
 30
0.0
 40
0.0
 41
0.0
  0
VERTEX
  5
   6E5
  8
0
  6
CONTINUOUS
 10
100.71084341075
 20
17.7445585467378
 30
0.0
 40
0.0
 41
0.0
  0
VERTEX
  5
   6E6
  8
0
  6
CONTINUOUS
 10
100.662757249444
 20
17.7939205092419
 30
0.0
 40
0.0
 41
0.0
  0
VERTEX
  5
   6E7
  8
0
  6
CONTINUOUS
 10
100.615340488928
 20
17.8441060505286
 30
0.0
 40
0.0
 41
0.0
  0
VERTEX
  5
   6E8
  8
0
  6
CONTINUOUS
 10
100.568715539618
 20
17.8952239332955
 30
0.0
 40
0.0
 41
0.0
  0
VERTEX
  5
   6E9
  8
0
  6
CONTINUOUS
 10
100.523014567105
 20
17.9473710716307
 30
0.0
 40
0.0
 41
0.0
  0
VERTEX
  5
   6EA
  8
0
  6
CONTINUOUS
 10
100.478380941929
 20
18.0006306398209
 30
0.0
 40
0.0
 41
0.0
  0
VERTEX
  5
   6EB
  8
0
  6
CONTINUOUS
 10
100.43497068936
 20
18.0550701811602
 30
0.0
 40
0.0
 41
0.0
  0
VERTEX
  5
   6EC
  8
0
  6
CONTINUOUS
 10
100.392953939175
 20
18.1107397167589
 30
0.0
 40
0.0
 41
0.0
  0
VERTEX
  5
   6ED
  8
0
  6
CONTINUOUS
 10
100.352516375442
 20
18.1676698543518
 30
0.0
 40
0.0
 41
0.0
  0
VERTEX
  5
   6EE
  8
0
  6
CONTINUOUS
 10
100.326023686733
 20
18.2071078584693
 30
0.0
 40
0.0
 41
0.0
  0
VERTEX
  5
   6EF
  8
0
  6
CONTINUOUS
 10
100.300422720497
 20
18.2471305840841
 30
0.0
 40
0.0
 41
0.0
  0
VERTEX
  5
   6F0
  8
0
  6
CONTINUOUS
 10
100.275784336273
 20
18.2877304994552
 30
0.0
 40
0.0
 41
0.0
  0
VERTEX
  5
   6F1
  8
0
  6
CONTINUOUS
 10
100.252180816573
 20
18.3288958818735
 30
0.0
 40
0.0
 41
0.0
  0
VERTEX
  5
   6F2
  8
0
  6
CONTINUOUS
 10
100.229684605574
 20
18.3706112019072
 30
0.0
 40
0.0
 41
0.0
  0
VERTEX
  5
   6F3
  8
0
  6
CONTINUOUS
 10
100.208367047801
 20
18.4128575076484
 30
0.0
 40
0.0
 41
0.0
  0
VERTEX
  5
   6F4
  8
0
  6
CONTINUOUS
 10
100.18829712682
 20
18.4556128089583
 30
0.0
 40
0.0
 41
0.0
  0
VERTEX
  5
   6F5
  8
0
  6
CONTINUOUS
 10
100.169540203923
 20
18.4988524617137
 30
0.0
 40
0.0
 41
0.0
  0
VERTEX
  5
   6F6
  8
0
  6
CONTINUOUS
 10
100.152156756819
 20
18.5425495520528
 30
0.0
 40
0.0
 41
0.0
  0
VERTEX
  5
   6F7
  8
0
  6
CONTINUOUS
 10
100.136201118319
 20
18.5866752806209
 30
0.0
 40
0.0
 41
0.0
  0
VERTEX
  5
   6F8
  8
0
  6
CONTINUOUS
 10
100.121720215029
 20
18.6311993468164
 30
0.0
 40
0.0
 41
0.0
  0
VERTEX
  5
   6F9
  8
0
  6
CONTINUOUS
 10
100.108752306035
 20
18.6760903330372
 30
0.0
 40
0.0
 41
0.0
  0
VERTEX
  5
   6FA
  8
0
  6
CONTINUOUS
 10
100.097325721592
 20
18.7213160889258
 30
0.0
 40
0.0
 41
0.0
  0
VERTEX
  5
   6FB
  8
0
  6
CONTINUOUS
 10
100.087457601812
 20
18.7668441156159
 30
0.0
 40
0.0
 41
0.0
  0
VERTEX
  5
   6FC
  8
0
  6
CONTINUOUS
 10
100.079152635355
 20
18.8126419499781
 30
0.0
 40
0.0
 41
0.0
  0
VERTEX
  5
   6FD
  8
0
  6
CONTINUOUS
 10
100.072401798113
 20
18.8586775488659
 30
0.0
 40
0.0
 41
0.0
  0
VERTEX
  5
   6FE
  8
0
  6
CONTINUOUS
 10
100.067181091902
 20
18.9049196733613
 30
0.0
 40
0.0
 41
0.0
  0
VERTEX
  5
   6FF
  8
0
  6
CONTINUOUS
 10
100.063450283151
 20
18.9513382730212
 30
0.0
 40
0.0
 41
0.0
  0
VERTEX
  5
   700
  8
0
  6
CONTINUOUS
 10
100.061151641586
 20
18.9979048701232
 30
0.0
 40
0.0
 41
0.0
  0
VERTEX
  5
   701
  8
0
  6
CONTINUOUS
 10
100.060208678922
 20
19.0445929439112
 30
0.0
 40
0.0
 41
0.0
  0
VERTEX
  5
   702
  8
0
  6
CONTINUOUS
 10
100.060353326268
 20
19.081105309801
 30
0.0
 40
0.0
 41
0.0
  0
VERTEX
  5
   703
  8
0
  6
CONTINUOUS
 10
100.061211036585
 20
19.1176664853661
 30
0.0
 40
0.0
 41
0.0
  0
VERTEX
  5
   704
  8
0
  6
CONTINUOUS
 10
100.064812376571
 20
19.1908979795931
 30
0.0
 40
0.0
 41
0.0
  0
VERTEX
  5
   705
  8
0
  6
CONTINUOUS
 10
100.070446743292
 20
19.2642200805148
 30
0.0
 40
0.0
 41
0.0
  0
VERTEX
  5
   706
  8
0
  6
CONTINUOUS
 10
100.077469989859
 20
19.3375745114064
 30
0.0
 40
0.0
 41
0.0
  0
VERTEX
  5
   707
  8
0
  6
CONTINUOUS
 10
100.092860221617
 20
19.4841712438517
 30
0.0
 40
0.0
 41
0.0
  0
VERTEX
  5
   708
  8
0
  6
CONTINUOUS
 10
100.099764921237
 20
19.5573103000491
 30
0.0
 40
0.0
 41
0.0
  0
VERTEX
  5
   709
  8
0
  6
CONTINUOUS
 10
100.105182143948
 20
19.6302680757991
 30
0.0
 40
0.0
 41
0.0
  0
VERTEX
  5
   70A
  8
0
  6
CONTINUOUS
 10
100.108438394213
 20
19.7029782433557
 30
0.0
 40
0.0
 41
0.0
  0
VERTEX
  5
   70B
  8
0
  6
CONTINUOUS
 10
100.109063198569
 20
19.7392164834987
 30
0.0
 40
0.0
 41
0.0
  0
VERTEX
  5
   70C
  8
0
  6
CONTINUOUS
 10
100.108926628342
 20
19.7753621852108
 30
0.0
 40
0.0
 41
0.0
  0
VERTEX
  5
   70D
  8
0
  6
CONTINUOUS
 10
100.108104441436
 20
19.8077289027865
 30
0.0
 40
0.0
 41
0.0
  0
VERTEX
  5
   70E
  8
0
  6
CONTINUOUS
 10
100.106578882353
 20
19.8400013594868
 30
0.0
 40
0.0
 41
0.0
  0
VERTEX
  5
   70F
  8
0
  6
CONTINUOUS
 10
100.104314652284
 20
19.8721691011186
 30
0.0
 40
0.0
 41
0.0
  0
VERTEX
  5
   710
  8
0
  6
CONTINUOUS
 10
100.101280804587
 20
19.9042210047336
 30
0.0
 40
0.0
 41
0.0
  0
VERTEX
  5
   711
  8
0
  6
CONTINUOUS
 10
100.097450591584
 20
19.9361453385264
 30
0.0
 40
0.0
 41
0.0
  0
VERTEX
  5
   712
  8
0
  6
CONTINUOUS
 10
100.092801311358
 20
19.967929821733
 30
0.0
 40
0.0
 41
0.0
  0
VERTEX
  5
   713
  8
0
  6
CONTINUOUS
 10
100.087314154552
 20
19.9995616845292
 30
0.0
 40
0.0
 41
0.0
  0
VERTEX
  5
   714
  8
0
  6
CONTINUOUS
 10
100.080974051171
 20
20.031027727929
 30
0.0
 40
0.0
 41
0.0
  0
VERTEX
  5
   715
  8
0
  6
CONTINUOUS
 10
100.073769517374
 20
20.0623143836829
 30
0.0
 40
0.0
 41
0.0
  0
VERTEX
  5
   716
  8
0
  6
CONTINUOUS
 10
100.06569250228
 20
20.0934077741765
 30
0.0
 40
0.0
 41
0.0
  0
VERTEX
  5
   717
  8
0
  6
CONTINUOUS
 10
100.056738234763
 20
20.1242937723288
 30
0.0
 40
0.0
 41
0.0
  0
VERTEX
  5
   718
  8
0
  6
CONTINUOUS
 10
100.046905070251
 20
20.1549580614903
 30
0.0
 40
0.0
 41
0.0
  0
VERTEX
  5
   719
  8
0
  6
CONTINUOUS
 10
100.036194337525
 20
20.1853861953421
 30
0.0
 40
0.0
 41
0.0
  0
VERTEX
  5
   71A
  8
0
  6
CONTINUOUS
 10
100.024610185517
 20
20.2155636577935
 30
0.0
 40
0.0
 41
0.0
  0
VERTEX
  5
   71B
  8
0
  6
CONTINUOUS
 10
100.01215943011
 20
20.245475922881
 30
0.0
 40
0.0
 41
0.0
  0
VERTEX
  5
   71C
  8
0
  6
CONTINUOUS
 10
99.9988514009353
 20
20.2751085146663
 30
0.0
 40
0.0
 41
0.0
  0
VERTEX
  5
   71D
  8
0
  6
CONTINUOUS
 10
99.9846977881737
 20
20.304447067135
 30
0.0
 40
0.0
 41
0.0
  0
VERTEX
  5
   71E
  8
0
  6
CONTINUOUS
 10
99.9697124893507
 20
20.3334773840949
 30
0.0
 40
0.0
 41
0.0
  0
VERTEX
  5
   71F
  8
0
  6
CONTINUOUS
 10
99.9539114561375
 20
20.3621854990741
 30
0.0
 40
0.0
 41
0.0
  0
VERTEX
  5
   720
  8
0
  6
CONTINUOUS
 10
99.9373125411494
 20
20.3905577352199
 30
0.0
 40
0.0
 41
0.0
  0
VERTEX
  5
   721
  8
0
  6
CONTINUOUS
 10
99.9199353447439
 20
20.4185807651969
 30
0.0
 40
0.0
 41
0.0
  0
VERTEX
  5
   722
  8
0
  6
CONTINUOUS
 10
99.90180106182
 20
20.4462416710853
 30
0.0
 40
0.0
 41
0.0
  0
VERTEX
  5
   723
  8
0
  6
CONTINUOUS
 10
99.8829323286166
 20
20.4735280042797
 30
0.0
 40
0.0
 41
0.0
  0
VERTEX
  5
   724
  8
0
  6
CONTINUOUS
 10
99.8633530695113
 20
20.5004278453871
 30
0.0
 40
0.0
 41
0.0
  0
VERTEX
  5
   725
  8
0
  6
CONTINUOUS
 10
99.8430883438191
 20
20.5269298641253
 30
0.0
 40
0.0
 41
0.0
  0
VERTEX
  5
   726
  8
0
  6
CONTINUOUS
 10
99.822164192591
 20
20.5530233792218
 30
0.0
 40
0.0
 41
0.0
  0
VERTEX
  5
   727
  8
0
  6
CONTINUOUS
 10
99.8006074854128
 20
20.5786984183115
 30
0.0
 40
0.0
 41
0.0
  0
VERTEX
  5
   728
  8
0
  6
CONTINUOUS
 10
99.7784457672038
 20
20.6039457778355
 30
0.0
 40
0.0
 41
0.0
  0
VERTEX
  5
   729
  8
0
  6
CONTINUOUS
 10
99.7557071050157
 20
20.6287570829397
 30
0.0
 40
0.0
 41
0.0
  0
VERTEX
  5
   72A
  8
0
  6
CONTINUOUS
 10
99.7324199348307
 20
20.6531248473725
 30
0.0
 40
0.0
 41
0.0
  0
VERTEX
  5
   72B
  8
0
  6
CONTINUOUS
 10
99.6843147398466
 20
20.7005046116238
 30
0.0
 40
0.0
 41
0.0
  0
VERTEX
  5
   72C
  8
0
  6
CONTINUOUS
 10
99.6343592270796
 20
20.746045228776
 30
0.0
 40
0.0
 41
0.0
  0
VERTEX
  5
   72D
  8
0
  6
CONTINUOUS
 10
99.5827785393689
 20
20.7897249081599
 30
0.0
 40
0.0
 41
0.0
  0
VERTEX
  5
   72E
  8
0
  6
CONTINUOUS
 10
99.5297890151238
 20
20.8315418269994
 30
0.0
 40
0.0
 41
0.0
  0
VERTEX
  5
   72F
  8
0
  6
CONTINUOUS
 10
99.4755932858821
 20
20.8715160471601
 30
0.0
 40
0.0
 41
0.0
  0
VERTEX
  5
   730
  8
0
  6
CONTINUOUS
 10
99.4284941019179
 20
20.904227812856
 30
0.0
 40
0.0
 41
0.0
  0
VERTEX
  5
   731
  8
0
  6
CONTINUOUS
 10
99.3807518330768
 20
20.9356687971265
 30
0.0
 40
0.0
 41
0.0
  0
VERTEX
  5
   732
  8
0
  6
CONTINUOUS
 10
99.3324569177899
 20
20.9658931019821
 30
0.0
 40
0.0
 41
0.0
  0
VERTEX
  5
   733
  8
0
  6
CONTINUOUS
 10
99.2836891096405
 20
20.9949661910484
 30
0.0
 40
0.0
 41
0.0
  0
VERTEX
  5
   734
  8
0
  6
CONTINUOUS
 10
99.2345183881046
 20
21.0229637304015
 30
0.0
 40
0.0
 41
0.0
  0
VERTEX
  5
   735
  8
0
  6
CONTINUOUS
 10
99.1850058692906
 20
21.0499704294027
 30
0.0
 40
0.0
 41
0.0
  0
VERTEX
  5
   736
  8
0
  6
CONTINUOUS
 10
99.1352047166806
 20
21.0760788815341
 30
0.0
 40
0.0
 41
0.0
  0
VERTEX
  5
   737
  8
0
  6
CONTINUOUS
 10
99.0851610518705
 20
21.1013884052336
 30
0.0
 40
0.0
 41
0.0
  0
VERTEX
  5
   738
  8
0
  6
CONTINUOUS
 10
98.9845009270435
 20
21.1500346108786
 30
0.0
 40
0.0
 41
0.0
  0
VERTEX
  5
   739
  8
0
  6
CONTINUOUS
 10
98.883288237986
 20
21.1967940446938
 30
0.0
 40
0.0
 41
0.0
  0
VERTEX
  5
   73A
  8
0
  6
CONTINUOUS
 10
98.6800133696118
 20
21.2883225607065
 30
0.0
 40
0.0
 41
0.0
  0
VERTEX
  5
   73B
  8
0
  6
CONTINUOUS
 10
98.5783213374546
 20
21.3348803302408
 30
0.0
 40
0.0
 41
0.0
  0
VERTEX
  5
   73C
  8
0
  6
CONTINUOUS
 10
98.4768753227727
 20
21.3830545160698
 30
0.0
 40
0.0
 41
0.0
  0
VERTEX
  5
   73D
  8
0
  6
CONTINUOUS
 10
98.4193072397478
 20
21.4114832767914
 30
0.0
 40
0.0
 41
0.0
  0
VERTEX
  5
   73E
  8
0
  6
CONTINUOUS
 10
98.3619727326224
 20
21.4407659726923
 30
0.0
 40
0.0
 41
0.0
  0
VERTEX
  5
   73F
  8
0
  6
CONTINUOUS
 10
98.3049444285381
 20
21.4709932637205
 30
0.0
 40
0.0
 41
0.0
  0
VERTEX
  5
   740
  8
0
  6
CONTINUOUS
 10
98.2483028926291
 20
21.5022416194164
 30
0.0
 40
0.0
 41
0.0
  0
VERTEX
  5
   741
  8
0
  6
CONTINUOUS
 10
98.1921357901584
 20
21.5345742260649
 30
0.0
 40
0.0
 41
0.0
  0
VERTEX
  5
   742
  8
0
  6
CONTINUOUS
 10
98.1365370486538
 20
21.5680418938463
 30
0.0
 40
0.0
 41
0.0
  0
VERTEX
  5
   743
  8
0
  6
CONTINUOUS
 10
98.0816060200447
 20
21.6026839639875
 30
0.0
 40
0.0
 41
0.0
  0
VERTEX
  5
   744
  8
0
  6
CONTINUOUS
 10
98.0274466427984
 20
21.6385292159141
 30
0.0
 40
0.0
 41
0.0
  0
VERTEX
  5
   745
  8
0
  6
CONTINUOUS
 10
97.974166604056
 20
21.6755967744008
 30
0.0
 40
0.0
 41
0.0
  0
VERTEX
  5
   746
  8
0
  6
CONTINUOUS
 10
97.9218765017689
 20
21.7138970167235
 30
0.0
 40
0.0
 41
0.0
  0
VERTEX
  5
   747
  8
0
  6
CONTINUOUS
 10
97.8706890068357
 20
21.7534324798103
 30
0.0
 40
0.0
 41
0.0
  0
VERTEX
  5
   748
  8
0
  6
CONTINUOUS
 10
97.8207180252377
 20
21.794198767393
 30
0.0
 40
0.0
 41
0.0
  0
VERTEX
  5
   749
  8
0
  6
CONTINUOUS
 10
97.7720778601755
 20
21.8361854571583
 30
0.0
 40
0.0
 41
0.0
  0
VERTEX
  5
   74A
  8
0
  6
CONTINUOUS
 10
97.7248823742057
 20
21.8793770078993
 30
0.0
 40
0.0
 41
0.0
  0
VERTEX
  5
   74B
  8
0
  6
CONTINUOUS
 10
97.6792441513768
 20
21.9237536666667
 30
0.0
 40
0.0
 41
0.0
  0
VERTEX
  5
   74C
  8
0
  6
CONTINUOUS
 10
97.6352736593657
 20
21.9692923759206
 30
0.0
 40
0.0
 41
0.0
  0
VERTEX
  5
   74D
  8
0
  6
CONTINUOUS
 10
97.5930784116138
 20
22.015967680681
 30
0.0
 40
0.0
 41
0.0
  0
VERTEX
  5
   74E
  8
0
  6
CONTINUOUS
 10
97.5527621294639
 20
22.06375263568
 30
0.0
 40
0.0
 41
0.0
  0
VERTEX
  5
   74F
  8
0
  6
CONTINUOUS
 10
97.5144239042959
 20
22.1126197125129
 30
0.0
 40
0.0
 41
0.0
  0
VERTEX
  5
   750
  8
0
  6
CONTINUOUS
 10
97.4781573596634
 20
22.1625417067893
 30
0.0
 40
0.0
 41
0.0
  0
VERTEX
  5
   751
  8
0
  6
CONTINUOUS
 10
97.4533246554489
 20
22.1992045625923
 30
0.0
 40
0.0
 41
0.0
  0
VERTEX
  5
   752
  8
0
  6
CONTINUOUS
 10
97.4296468072843
 20
22.2363939548297
 30
0.0
 40
0.0
 41
0.0
  0
VERTEX
  5
   753
  8
0
  6
CONTINUOUS
 10
97.4071525266265
 20
22.2741012891513
 30
0.0
 40
0.0
 41
0.0
  0
VERTEX
  5
   754
  8
0
  6
CONTINUOUS
 10
97.3858687072577
 20
22.312318515301
 30
0.0
 40
0.0
 41
0.0
  0
VERTEX
  5
   755
  8
0
  6
CONTINUOUS
 10
97.3658204847344
 20
22.3510381093215
 30
0.0
 40
0.0
 41
0.0
  0
VERTEX
  5
   756
  8
0
  6
CONTINUOUS
 10
97.3470312958373
 20
22.3902530557587
 30
0.0
 40
0.0
 41
0.0
  0
VERTEX
  5
   757
  8
0
  6
CONTINUOUS
 10
97.3295229380208
 20
22.4299568298671
 30
0.0
 40
0.0
 41
0.0
  0
VERTEX
  5
   758
  8
0
  6
CONTINUOUS
 10
97.3133156288627
 20
22.4701433798135
 30
0.0
 40
0.0
 41
0.0
  0
VERTEX
  5
   759
  8
0
  6
CONTINUOUS
 10
97.2984280655137
 20
22.5108071088821
 30
0.0
 40
0.0
 41
0.0
  0
VERTEX
  5
   75A
  8
0
  6
CONTINUOUS
 10
97.2848774841472
 20
22.5519428576794
 30
0.0
 40
0.0
 41
0.0
  0
VERTEX
  5
   75B
  8
0
  6
CONTINUOUS
 10
97.2726797194086
 20
22.5935458863382
 30
0.0
 40
0.0
 41
0.0
  0
VERTEX
  5
   75C
  8
0
  6
CONTINUOUS
 10
97.2618492638654
 20
22.6356118567227
 30
0.0
 40
0.0
 41
0.0
  0
VERTEX
  5
   75D
  8
0
  6
CONTINUOUS
 10
97.252399327456
 20
22.678136814633
 30
0.0
 40
0.0
 41
0.0
  0
VERTEX
  5
   75E
  8
0
  6
CONTINUOUS
 10
97.2443418969405
 20
22.7211171720097
 30
0.0
 40
0.0
 41
0.0
  0
VERTEX
  5
   75F
  8
0
  6
CONTINUOUS
 10
97.237687795349
 20
22.7645496891388
 30
0.0
 40
0.0
 41
0.0
  0
VERTEX
  5
   760
  8
0
  6
CONTINUOUS
 10
97.2324467414322
 20
22.8084314568559
 30
0.0
 40
0.0
 41
0.0
  0
VERTEX
  5
   761
  8
0
  6
CONTINUOUS
 10
97.2286274091106
 20
22.852759878751
 30
0.0
 40
0.0
 41
0.0
  0
VERTEX
  5
   762
  8
0
  6
CONTINUOUS
 10
97.2262374869241
 20
22.8975326533734
 30
0.0
 40
0.0
 41
0.0
  0
VERTEX
  5
   763
  8
0
  6
CONTINUOUS
 10
97.2252837374818
 20
22.9427477564361
 30
0.0
 40
0.0
 41
0.0
  0
VERTEX
  5
   764
  8
0
  6
CONTINUOUS
 10
97.2257720569113
 20
22.9884034230204
 30
0.0
 40
0.0
 41
0.0
  0
SEQEND
  5
   765
  8
0
  6
CONTINUOUS
 62
     3
  0
LINE
  5
   766
  8
0
  6
CONTINUOUS
 62
     3
 10
97.7623274711716
 20
21.8448999860062
 30
0.0
 11
97.7623274711716
 21
22.638186107163
 31
0.0
  0
LINE
  5
   767
  8
0
  6
CONTINUOUS
 62
     3
 10
99.0223269156563
 20
21.1320978073747
 30
0.0
 11
99.0223269156563
 21
22.638186107163
 31
0.0
  0
LINE
  5
   768
  8
0
  6
CONTINUOUS
 62
     3
 10
100.282326360141
 20
18.2767308404623
 30
0.0
 11
100.282326360141
 21
22.638186107163
 31
0.0
  0
LINE
  5
   769
  8
0
  6
CONTINUOUS
 62
     3
 10
101.542325804626
 20
16.8909687787651
 30
0.0
 11
101.542325804626
 21
22.638186107163
 31
0.0
  0
LINE
  5
   76A
  8
0
  6
CONTINUOUS
 62
     3
 10
102.802325249111
 20
13.6469132947644
 30
0.0
 11
102.802325249111
 21
22.638186107163
 31
0.0
  0
LINE
  5
   76B
  8
0
  6
CONTINUOUS
 62
     3
 10
104.062324693595
 20
13.6469132947644
 30
0.0
 11
104.062324693595
 21
22.638186107163
 31
0.0
  0
LINE
  5
   76C
  8
0
  6
CONTINUOUS
 62
     3
 10
105.322325473224
 20
13.6469132947644
 30
0.0
 11
105.322325473224
 21
22.638186107163
 31
0.0
  0
LINE
  5
   76D
  8
0
  6
CONTINUOUS
 62
     3
 10
106.582324917709
 20
13.6469132947644
 30
0.0
 11
106.582324917709
 21
22.638186107163
 31
0.0
  0
LINE
  5
   76E
  8
0
  6
CONTINUOUS
 62
     3
 10
107.842324362193
 20
13.6469132947644
 30
0.0
 11
107.842324362193
 21
22.638186107163
 31
0.0
  0
LINE
  5
   76F
  8
0
  6
CONTINUOUS
 62
     3
 10
109.102325141822
 20
13.6469132947644
 30
0.0
 11
109.102325141822
 21
22.638186107163
 31
0.0
  0
LINE
  5
   770
  8
0
  6
CONTINUOUS
 62
     3
 10
110.362324586307
 20
13.6469132947644
 30
0.0
 11
110.362324586307
 21
22.638186107163
 31
0.0
  0
LINE
  5
   771
  8
0
  6
CONTINUOUS
 62
     3
 10
111.622324030792
 20
13.6469132947644
 30
0.0
 11
111.622324030792
 21
22.638186107163
 31
0.0
  0
LINE
  5
   772
  8
0
  6
CONTINUOUS
 62
     3
 10
112.882323475276
 20
13.6469132947644
 30
0.0
 11
112.882323475276
 21
22.638186107163
 31
0.0
  0
LINE
  5
   773
  8
0
  6
CONTINUOUS
 62
     3
 10
114.142325590049
 20
13.6469132947644
 30
0.0
 11
114.142325590049
 21
22.638186107163
 31
0.0
  0
LINE
  5
   774
  8
0
  6
CONTINUOUS
 62
     3
 10
115.402325034534
 20
13.6469132947644
 30
0.0
 11
115.402325034534
 21
22.638186107163
 31
0.0
  0
LINE
  5
   775
  8
0
  6
CONTINUOUS
 62
     3
 10
116.662324479018
 20
13.6469132947644
 30
0.0
 11
116.662324479018
 21
22.638186107163
 31
0.0
  0
LINE
  5
   776
  8
0
  6
CONTINUOUS
 62
     3
 10
117.922323923503
 20
13.6469132947644
 30
0.0
 11
117.922323923503
 21
22.638186107163
 31
0.0
  0
LINE
  5
   777
  8
0
  6
CONTINUOUS
 62
     3
 10
119.182323367988
 20
13.6469132947644
 30
0.0
 11
119.182323367988
 21
22.638186107163
 31
0.0
  0
LINE
  5
   778
  8
0
  6
CONTINUOUS
 62
     3
 10
120.442325482761
 20
13.6469132947644
 30
0.0
 11
120.442325482761
 21
22.638186107163
 31
0.0
  0
LINE
  5
   779
  8
0
  6
CONTINUOUS
 62
     3
 10
121.702324927245
 20
13.6469132947644
 30
0.0
 11
121.702324927245
 21
22.638186107163
 31
0.0
  0
LINE
  5
   77A
  8
0
  6
CONTINUOUS
 62
     3
 10
122.96232437173
 20
13.6469132947644
 30
0.0
 11
122.96232437173
 21
22.638186107163
 31
0.0
  0
LINE
  5
   77B
  8
0
  6
CONTINUOUS
 62
     3
 10
124.222323816215
 20
13.6469132947644
 30
0.0
 11
124.222323816215
 21
22.638186107163
 31
0.0
  0
LINE
  5
   77C
  8
0
  6
CONTINUOUS
 62
     3
 10
124.694842131297
 20
22.638186107163
 30
0.0
 11
124.694842131297
 21
22.9881861012025
 31
0.0
  0
LINE
  5
   77D
  8
0
  6
CONTINUOUS
 62
     3
 10
125.044842125337
 20
13.9757238921584
 30
0.0
 11
125.044842125337
 21
31.300711456017
 31
0.0
  0
LINE
  5
   77E
  8
0
  6
CONTINUOUS
 62
     3
 10
124.916682347077
 20
13.6663222404875
 30
0.0
 11
125.04482413186
 21
13.9756804525427
 31
0.0
  0
LINE
  5
   77F
  8
0
  6
CONTINUOUS
 62
     3
 10
124.607325194813
 20
13.5381821892572
 30
0.0
 11
124.916683406868
 21
13.6663239740401
 31
0.0
  0
LINE
  5
   780
  8
0
  6
CONTINUOUS
 62
     3
 10
124.607323275601
 20
13.5381845063328
 30
0.0
 11
102.511577123903
 21
13.5381845063328
 31
0.0
  0
LINE
  5
   781
  8
0
  6
CONTINUOUS
 62
     3
 10
125.044819282253
 20
22.9881843454003
 30
0.0
 11
97.2257720569113
 21
22.9881843454003
 31
0.0
  0
ARC
  5
   782
  8
0
  6
CONTINUOUS
 62
     7
 10
100.544867088471
 20
21.413229773881
 30
0.0
 40
1.83749401361082
 50
184.358529759913
 51
241.56299252681
  0
LINE
  5
   783
  8
0
  6
CONTINUOUS
 62
     7
 10
100.0619835181
 20
19.1382236794407
 30
0.0
 11
99.6698666319619
 21
19.1382236794407
 31
0.0
  0
LINE
  5
   784
  8
0
  6
CONTINUOUS
 62
     3
 10
125.044842125337
 20
22.638186107163
 30
0.0
 11
97.2612347289897
 21
22.638186107163
 31
0.0
  0
INSERT
  5
   785
  8
0
  6
CONTINUOUS
 62
     7
  2
*UDIM222
 10
0.0
 20
0.0
 30
0.0
  0
INSERT
  5
   786
  8
0
  6
CONTINUOUS
 62
     7
  2
*UDIM223
 10
0.0
 20
0.0
 30
0.0
  0
INSERT
  5
   787
  8
0
  6
CONTINUOUS
 62
     7
  2
*UDIM224
 10
0.0
 20
0.0
 30
0.0
  0
INSERT
  5
   788
  8
0
  6
CONTINUOUS
 62
     7
  2
*UDIM225
 10
0.0
 20
0.0
 30
0.0
  0
INSERT
  5
   789
  8
0
  6
CONTINUOUS
 62
     7
  2
*UDIM226
 10
0.0
 20
0.0
 30
0.0
  0
INSERT
  5
   78A
  8
0
  6
CONTINUOUS
 62
     7
  2
*UDIM227
 10
0.0
 20
0.0
 30
0.0
  0
INSERT
  5
   78B
  8
0
  6
CONTINUOUS
 62
     7
  2
*UDIM228
 10
0.0
 20
0.0
 30
0.0
  0
INSERT
  5
   78C
  8
0
  6
CONTINUOUS
 62
     7
  2
*UDIM229
 10
0.0
 20
0.0
 30
0.0
  0
TEXT
  5
   78D
  8
0
  6
CONTINUOUS
 62
     7
 10
73.3007109987156
 20
51.2855879074811
 30
0.0
 40
2.99999997871263
  1
=    =
 50
89.9999999480344
 41
0.916666703091727
 72
     1
 11
71.8007110165824
 21
59.2605881741158
 31
0.0
 73
     2
  0
TEXT
  5
   78E
  8
0
  6
CONTINUOUS
 62
     7
 10
106.476483365393
 20
-6.64615767479307
 30
0.0
 40
2.99999997871263
  1
Y
 50
359.999999948034
 41
0.91666663951344
 72
     2
 11
108.676483301105
 21
-6.64615767677735
 31
0.0
  0
TEXT
  5
   78F
  8
0
  6
CONTINUOUS
 62
     7
 10
161.916351250123
 20
58.4428474311844
 30
0.0
 40
2.99999997871263
  1
X
 50
359.999999948034
 41
0.91666663951344
 72
     1
 11
163.016351219332
 21
59.9428474195485
 31
0.0
 73
     2
  0
TEXT
  5
   790
  8
0
  6
CONTINUOUS
 62
     7
 10
45.5588062346102
 20
57.7474990848718
 30
0.0
 40
2.99999997871263
  1
X
 50
359.999999948034
 41
0.91666663951344
 72
     1
 11
46.6588062038192
 21
59.2474990732359
 31
0.0
 73
     2
  0
ENDSEC
  0
EOF
