  0
SECTION
  2
HEADER
  9
$ACADVER
  1
AC1009
999
I-DEAS Drafting Master Series 7m3 Not Encoded
  9
$EXTMIN
 10
0.0
 20
0.0
  9
$EXTMAX
 10
1.67E+002
 20
2.13E+002
  9
$TEXTSIZE
 40
1.25E-001
  9
$LTSCALE
 40
1.0
  9
$CLAYER
  8
1
  9
$CECOLOR
 62
1
  9
$DIMASZ
 40
1.25E-001
  9
$DIMEXO
 40
6.25E-002
  9
$DIMDLI
 40
2.5E-001
  9
$DIMEXE
 40
1.25E-001
  9
$DIMTP
 40
5.0E-003
  9
$DIMTM
 40
-5.0E-003
  9
$DIMTXT
 40
1.25E-001
  9
$DIMLIM
 70
0
  9
$DIMTIH
 70
1
  9
$DIMTOH
 70
1
  9
$DIMSE1
 70
0
  9
$DIMSE2
 70
0
  9
$DIMTAD
 70
0
  9
$DIMASO
 70
1
  9
$DIMALT
 70
0
  9
$DIMALTD
 70
0
  9
$DIMTOFL
 70
1
  9
$DIMTIX
 70
0
  9
$DIMSAH
 70
0
  9
$DIMTFAC
 40
1.0
  9
$DIMGAP
 40
6.25E-002
  9
$LUNITS
 70
2
  9
$LUPREC
 70
3
  9
$FILLETRAD
 40
2.5E-001
  9
$AUNITS
 70
0
  9
$AUPREC
 70
1
  9
$CHAMFERA
 40
2.5E-001
  9
$CHAMFERB
 40
2.5E-001
  9
$ANGBASE
 50
0.0
  9
$ANGDIR
 70
0
  9
$PDMODE
 70
2
  9
$PDSIZE
 40
-1.0E-002
  9
$SPLINETYPE
 70
6
  0
ENDSEC
  0
SECTION
  2
TABLES
  0
TABLE
  2
LTYPE
 70
13
  0
LTYPE
  2
HIDDENNEW00
  3
_ 
 70
64
 72
65
 73
2
 40
1.875E-001
 49
1.25E-001
 49
-6.25E-002
  0
LTYPE
  2
HIDDENNEW01
  3
_ 
 70
64
 72
65
 73
2
 40
1.875E-001
 49
1.25E-001
 49
-6.25E-002
  0
LTYPE
  2
HIDDEN
  3
_ 
 70
64
 72
65
 73
2
 40
1.875E-001
 49
1.25E-001
 49
-6.25E-002
  0
LTYPE
  2
CENTERLINE
  3
_ 
 70
64
 72
65
 73
4
 40
1.25
 49
1.0
 49
-6.25E-002
 49
1.25E-001
 49
-6.25E-002
  0
LTYPE
  2
PHANTOM
  3
_ 
 70
64
 72
65
 73
6
 40
1.1875
 49
7.5E-001
 49
-6.25E-002
 49
1.25E-001
 49
-6.25E-002
 49
1.25E-001
 49
-6.25E-002
  0
LTYPE
  2
SHORT_DASH
  3
_ 
 70
64
 72
65
 73
2
 40
1.25E-001
 49
6.25E-002
 49
-6.25E-002
  0
LTYPE
  2
LONG_DASH
  3
_ 
 70
64
 72
65
 73
2
 40
3.75E-001
 49
1.875E-001
 49
-1.875E-001
  0
LTYPE
  2
DASHED
  3
_ 
 70
64
 72
65
 73
2
 40
1.0
 49
7.5E-001
 49
-2.5E-001
  0
LTYPE
  2
CENTER
  3
_ 
 70
64
 72
65
 73
4
 40
2.625
 49
1.875
 49
-2.5E-001
 49
2.5E-001
 49
-2.5E-001
  0
LTYPE
  2
DOT
  3
_ 
 70
64
 72
65
 73
2
 40
2.5375E-001
 49
3.75E-003
 49
-2.5E-001
  0
LTYPE
  2
DASHDOT
  3
_ 
 70
64
 72
65
 73
4
 40
1.26
 49
7.5E-001
 49
-2.5E-001
 49
1.0E-002
 49
-2.5E-001
  0
LTYPE
  2
BORDER
  3
_ 
 70
64
 72
65
 73
6
 40
2.0175
 49
7.5E-001
 49
-2.5E-001
 49
5.0E-001
 49
-2.5E-001
 49
1.75E-002
 49
-2.5E-001
  0
LTYPE
  2
DIVIDE
  3
_ 
 70
64
 72
65
 73
6
 40
1.525
 49
7.5E-001
 49
-2.5E-001
 49
1.25E-002
 49
-2.5E-001
 49
1.25E-002
 49
-2.5E-001
  0
ENDTAB
  0
TABLE
  2
LAYER
 70
258
  0
LAYER
  2
1
 70
0
 62
7
  6
CONTINUOUS
  0
LAYER
  2
Drafting_Hidden_Entities
 70
1
 62
7
  6
CONTINUOUS
  0
ENDTAB
  0
TABLE
  2
STYLE
 70
1
  0
STYLE
  2
STANDARD
 70
64
 40
0.0
 41
1.0
 50
0.0
 71
0
 42
1.0
  3
monotxt.shx
  4

  0
ENDTAB
  0
TABLE
  2
VIEW
 70
0
  0
ENDTAB
  0
TABLE
  2
DIMSTYLE
 70
0
  0
ENDTAB
  0
ENDSEC
  0
SECTION
  2
BLOCKS
  0
ENDSEC
  0
SECTION
  2
ENTITIES
  0
LINE
  8
1
  6
CONTINUOUS
 62
40
 10
7.35E+001
 20
9.95E+001
 11
9.35E+001
 21
9.95E+001
  0
LINE
  8
1
  6
CONTINUOUS
 62
40
 10
7.35E+001
 20
1.025E+002
 11
9.35E+001
 21
1.025E+002
  0
LINE
  8
1
  6
CONTINUOUS
 62
40
 10
9.35E+001
 20
9.95E+001
 11
9.35E+001
 21
1.025E+002
  0
LINE
  8
1
  6
CONTINUOUS
 62
40
 10
7.35E+001
 20
9.95E+001
 11
7.35E+001
 21
1.025E+002
  0
LINE
  8
1
  6
CONTINUOUS
 62
40
 10
8.84E+001
 20
9.95E+001
 11
8.84E+001
 21
1.025E+002
  0
LINE
  8
1
  6
CONTINUOUS
 62
40
 10
7.86E+001
 20
9.95E+001
 11
7.86E+001
 21
1.025E+002
  0
LINE
  8
1
  6
CONTINUOUS
 62
40
 10
8.05E+001
 20
1.025E+002
 11
8.05E+001
 21
1.36E+002
  0
LINE
  8
1
  6
CONTINUOUS
 62
40
 10
8.65E+001
 20
1.025E+002
 11
8.65E+001
 21
1.36E+002
  0
LINE
  8
1
  6
CONTINUOUS
 62
40
 10
8.05E+001
 20
6.85E+001
 11
8.05E+001
 21
9.95E+001
  0
LINE
  8
1
  6
CONTINUOUS
 62
40
 10
8.65E+001
 20
6.85E+001
 11
8.65E+001
 21
9.95E+001
  0
LINE
  8
1
  6
CONTINUOUS
 62
40
 10
5.05E+001
 20
6.85E+001
 11
5.05E+001
 21
1.36E+002
  0
LINE
  8
1
  6
CONTINUOUS
 62
40
 10
1.05E+001
 20
9.95E+001
 11
1.05E+001
 21
1.025E+002
  0
LINE
  8
1
  6
CONTINUOUS
 62
40
 10
7.7
 20
9.95E+001
 11
7.7
 21
1.025E+002
  0
LINE
  8
1
  6
CONTINUOUS
 62
40
 10
1.0
 20
9.95E+001
 11
1.0
 21
1.025E+002
  0
LINE
  8
1
  6
CONTINUOUS
 62
40
 10
4.3E+001
 20
9.95E+001
 11
4.3E+001
 21
1.025E+002
  0
LINE
  8
1
  6
CONTINUOUS
 62
40
 10
1.0
 20
1.025E+002
 11
4.3E+001
 21
1.025E+002
  0
LINE
  8
1
  6
CONTINUOUS
 62
40
 10
1.0
 20
9.95E+001
 11
4.3E+001
 21
9.95E+001
  0
LINE
  8
1
  6
CONTINUOUS
 62
40
 10
7.35E+001
 20
1.7E+002
 11
7.35E+001
 21
2.025E+002
  0
LINE
  8
1
  6
CONTINUOUS
 62
40
 10
8.05E+001
 20
1.665E+002
 11
8.05E+001
 21
1.81E+002
  0
LINE
  8
1
  6
CONTINUOUS
 62
40
 10
8.65E+001
 20
1.665E+002
 11
8.65E+001
 21
1.81E+002
  0
LINE
  8
1
  6
CONTINUOUS
 62
40
 10
9.35E+001
 20
1.7E+002
 11
9.35E+001
 21
2.025E+002
  0
LINE
  8
1
  6
CONTINUOUS
 62
40
 10
7.35E+001
 20
2.025E+002
 11
8.06E+001
 21
2.025E+002
  0
LINE
  8
1
  6
CONTINUOUS
 62
40
 10
7.86E+001
 20
2.053E+002
 11
8.06E+001
 21
2.053E+002
  0
LINE
  8
1
  6
CONTINUOUS
 62
40
 10
7.96E+001
 20
2.12E+002
 11
8.74E+001
 21
2.12E+002
  0
LINE
  8
1
  6
CONTINUOUS
 62
40
 10
8.64E+001
 20
2.025E+002
 11
8.64E+001
 21
2.053E+002
  0
LINE
  8
1
  6
CONTINUOUS
 62
40
 10
8.06E+001
 20
2.025E+002
 11
8.06E+001
 21
2.053E+002
  0
LINE
  8
1
  6
CONTINUOUS
 62
40
 10
7.35E+001
 20
1.7E+002
 11
8.05E+001
 21
1.7E+002
  0
LINE
  8
1
  6
CONTINUOUS
 62
40
 10
8.65E+001
 20
1.7E+002
 11
9.35E+001
 21
1.7E+002
  0
LINE
  8
1
  6
CONTINUOUS
 62
40
 10
8.64E+001
 20
2.025E+002
 11
9.35E+001
 21
2.025E+002
  0
LINE
  8
1
  6
CONTINUOUS
 62
40
 10
8.64E+001
 20
2.053E+002
 11
8.84E+001
 21
2.053E+002
  0
LINE
  8
1
  6
CONTINUOUS
 62
40
 10
7.86E+001
 20
2.053E+002
 11
7.86E+001
 21
2.11E+002
  0
LINE
  8
1
  6
CONTINUOUS
 62
40
 10
8.84E+001
 20
2.053E+002
 11
8.84E+001
 21
2.11E+002
  0
LINE
  8
1
  6
CONTINUOUS
 62
40
 10
8.05E+001
 20
1.36E+002
 11
8.65E+001
 21
1.36E+002
  0
LINE
  8
1
  6
CONTINUOUS
 62
40
 10
3.05E+001
 20
6.85E+001
 11
3.05E+001
 21
9.95E+001
  0
LINE
  8
1
  6
CONTINUOUS
 62
40
 10
3.05E+001
 20
1.025E+002
 11
3.05E+001
 21
1.36E+002
  0
LINE
  8
1
  6
CONTINUOUS
 62
40
 10
8.2E+001
 20
1.825E+002
 11
8.5E+001
 21
1.825E+002
  0
LINE
  8
1
  6
CONTINUOUS
 62
40
 10
4.65E+001
 20
6.85E+001
 11
4.65E+001
 21
1.36E+002
  0
ARC
  8
1
  6
CONTINUOUS
 62
40
 10
8.2E+001
 20
1.81E+002
 40
1.5
 50
9.0E+001
 51
1.8E+002
  0
ARC
  8
1
  6
CONTINUOUS
 62
40
 10
8.5E+001
 20
1.81E+002
 40
1.5
 50
0.0
 51
9.0E+001
  0
LINE
  8
1
  6
CONTINUOUS
 62
40
 10
8.05E+001
 20
1.665E+002
 11
8.209E+001
 21
1.6333E+002
  0
ARC
  8
1
  6
CONTINUOUS
 62
40
 10
8.343E+001
 20
1.64E+002
 40
1.5
 50
2.0657E+002
 51
2.7E+002
  0
ARC
  8
1
  6
CONTINUOUS
 62
40
 10
8.357E+001
 20
1.64E+002
 40
1.5
 50
2.7E+002
 51
3.3343E+002
  0
LINE
  8
1
  6
CONTINUOUS
 62
40
 10
8.491E+001
 20
1.6333E+002
 11
8.65E+001
 21
1.665E+002
  0
LINE
  8
1
  6
CONTINUOUS
 62
40
 10
3.05E+001
 20
1.36E+002
 11
5.05E+001
 21
1.36E+002
  0
LINE
  8
1
  6
CONTINUOUS
 62
40
 10
5.05E+001
 20
1.0
 11
5.05E+001
 21
6.85E+001
  0
LINE
  8
1
  6
CONTINUOUS
 62
40
 10
4.65E+001
 20
1.0
 11
4.65E+001
 21
6.85E+001
  0
LINE
  8
1
  6
CONTINUOUS
 62
40
 10
3.05E+001
 20
3.75E+001
 11
3.05E+001
 21
6.85E+001
  0
LINE
  8
1
  6
CONTINUOUS
 62
40
 10
3.05E+001
 20
1.0
 11
5.05E+001
 21
1.0
  0
LINE
  8
1
  6
CONTINUOUS
 62
40
 10
3.05E+001
 20
3.75E+001
 11
3.05E+001
 21
6.85E+001
  0
LINE
  8
1
  6
CONTINUOUS
 62
40
 10
4.3E+001
 20
3.45E+001
 11
4.3E+001
 21
3.75E+001
  0
LINE
  8
1
  6
CONTINUOUS
 62
40
 10
1.0
 20
3.75E+001
 11
4.3E+001
 21
3.75E+001
  0
LINE
  8
1
  6
CONTINUOUS
 62
40
 10
1.0
 20
3.45E+001
 11
4.3E+001
 21
3.45E+001
  0
LINE
  8
1
  6
CONTINUOUS
 62
40
 10
1.05E+001
 20
3.45E+001
 11
1.05E+001
 21
3.75E+001
  0
LINE
  8
1
  6
CONTINUOUS
 62
40
 10
7.7
 20
3.45E+001
 11
7.7
 21
3.75E+001
  0
LINE
  8
1
  6
CONTINUOUS
 62
40
 10
1.0
 20
3.45E+001
 11
1.0
 21
3.75E+001
  0
LINE
  8
1
  6
CONTINUOUS
 62
40
 10
3.05E+001
 20
1.0
 11
3.05E+001
 21
3.45E+001
  0
LINE
  8
1
  6
CONTINUOUS
 62
40
 10
8.05E+001
 20
1.0
 11
8.05E+001
 21
3.45E+001
  0
LINE
  8
1
  6
CONTINUOUS
 62
40
 10
8.65E+001
 20
1.0
 11
8.65E+001
 21
3.45E+001
  0
LINE
  8
1
  6
CONTINUOUS
 62
40
 10
8.05E+001
 20
1.0
 11
8.65E+001
 21
1.0
  0
LINE
  8
1
  6
CONTINUOUS
 62
40
 10
8.05E+001
 20
3.75E+001
 11
8.05E+001
 21
6.85E+001
  0
LINE
  8
1
  6
CONTINUOUS
 62
40
 10
8.65E+001
 20
3.75E+001
 11
8.65E+001
 21
6.85E+001
  0
LINE
  8
1
  6
CONTINUOUS
 62
40
 10
7.35E+001
 20
3.45E+001
 11
7.35E+001
 21
3.75E+001
  0
LINE
  8
1
  6
CONTINUOUS
 62
40
 10
7.86E+001
 20
3.45E+001
 11
7.86E+001
 21
3.75E+001
  0
LINE
  8
1
  6
CONTINUOUS
 62
40
 10
8.84E+001
 20
3.45E+001
 11
8.84E+001
 21
3.75E+001
  0
LINE
  8
1
  6
CONTINUOUS
 62
40
 10
9.35E+001
 20
3.45E+001
 11
9.35E+001
 21
3.75E+001
  0
LINE
  8
1
  6
CONTINUOUS
 62
40
 10
7.35E+001
 20
3.45E+001
 11
9.35E+001
 21
3.45E+001
  0
LINE
  8
1
  6
CONTINUOUS
 62
40
 10
7.35E+001
 20
3.75E+001
 11
9.35E+001
 21
3.75E+001
  0
LINE
  8
1
  6
CONTINUOUS
 62
40
 10
1.165E+002
 20
6.85E+001
 11
1.165E+002
 21
1.36E+002
  0
LINE
  8
1
  6
CONTINUOUS
 62
40
 10
1.565E+002
 20
9.95E+001
 11
1.565E+002
 21
1.025E+002
  0
LINE
  8
1
  6
CONTINUOUS
 62
40
 10
1.593E+002
 20
9.95E+001
 11
1.593E+002
 21
1.025E+002
  0
LINE
  8
1
  6
CONTINUOUS
 62
40
 10
1.66E+002
 20
9.95E+001
 11
1.66E+002
 21
1.025E+002
  0
LINE
  8
1
  6
CONTINUOUS
 62
40
 10
1.24E+002
 20
9.95E+001
 11
1.24E+002
 21
1.025E+002
  0
LINE
  8
1
  6
CONTINUOUS
 62
40
 10
1.24E+002
 20
1.025E+002
 11
1.66E+002
 21
1.025E+002
  0
LINE
  8
1
  6
CONTINUOUS
 62
40
 10
1.24E+002
 20
9.95E+001
 11
1.66E+002
 21
9.95E+001
  0
TEXT
  8
1
  6
CONTINUOUS
 62
40
 10
1.236688E+002
 20
8.358E+001
 40
1.8
  1
OFAW 1
 41
9.33E-001
  0
LINE
  8
1
  6
CONTINUOUS
 62
40
 10
1.365E+002
 20
6.85E+001
 11
1.365E+002
 21
9.95E+001
  0
LINE
  8
1
  6
CONTINUOUS
 62
40
 10
1.365E+002
 20
1.025E+002
 11
1.365E+002
 21
1.36E+002
  0
LINE
  8
1
  6
CONTINUOUS
 62
40
 10
1.205E+002
 20
6.85E+001
 11
1.205E+002
 21
1.36E+002
  0
LINE
  8
1
  6
CONTINUOUS
 62
40
 10
1.165E+002
 20
1.36E+002
 11
1.365E+002
 21
1.36E+002
  0
LINE
  8
1
  6
CONTINUOUS
 62
40
 10
1.165E+002
 20
1.0
 11
1.165E+002
 21
6.85E+001
  0
LINE
  8
1
  6
CONTINUOUS
 62
40
 10
1.205E+002
 20
1.0
 11
1.205E+002
 21
6.85E+001
  0
LINE
  8
1
  6
CONTINUOUS
 62
40
 10
1.365E+002
 20
3.75E+001
 11
1.365E+002
 21
6.85E+001
  0
LINE
  8
1
  6
CONTINUOUS
 62
40
 10
1.165E+002
 20
1.0
 11
1.365E+002
 21
1.0
  0
LINE
  8
1
  6
CONTINUOUS
 62
40
 10
1.365E+002
 20
3.75E+001
 11
1.365E+002
 21
6.85E+001
  0
LINE
  8
1
  6
CONTINUOUS
 62
40
 10
1.24E+002
 20
3.45E+001
 11
1.24E+002
 21
3.75E+001
  0
LINE
  8
1
  6
CONTINUOUS
 62
40
 10
1.24E+002
 20
3.75E+001
 11
1.66E+002
 21
3.75E+001
  0
LINE
  8
1
  6
CONTINUOUS
 62
40
 10
1.24E+002
 20
3.45E+001
 11
1.66E+002
 21
3.45E+001
  0
LINE
  8
1
  6
CONTINUOUS
 62
40
 10
1.565E+002
 20
3.45E+001
 11
1.565E+002
 21
3.75E+001
  0
LINE
  8
1
  6
CONTINUOUS
 62
40
 10
1.593E+002
 20
3.45E+001
 11
1.593E+002
 21
3.75E+001
  0
LINE
  8
1
  6
CONTINUOUS
 62
40
 10
1.66E+002
 20
3.45E+001
 11
1.66E+002
 21
3.75E+001
  0
LINE
  8
1
  6
CONTINUOUS
 62
40
 10
1.365E+002
 20
1.0
 11
1.365E+002
 21
3.45E+001
  0
ARC
  8
1
  6
CONTINUOUS
 62
40
 10
7.96E+001
 20
2.11E+002
 40
1.0
 50
9.0E+001
 51
1.8E+002
  0
ARC
  8
1
  6
CONTINUOUS
 62
40
 10
8.74E+001
 20
2.11E+002
 40
1.0
 50
0.0
 51
9.0E+001
  0
ENDSEC
  0
EOF
