  0
SECTION
  2
HEADER
  9
$ACADVER
  1
AC1009
  9
$INSBASE
 10
0.0
 20
0.0
 30
0.0
  9
$EXTMIN
 10
128.8231
 20
152.8128
 30
0.0
  9
$EXTMAX
 10
2403.279
 20
1656.785
 30
0.0
  9
$LIMMIN
 10
0.0
 20
0.0
  9
$LIMMAX
 10
12.0
 20
9.0
  9
$ORTHOMODE
 70
     0
  9
$REGENMODE
 70
     1
  9
$FILLMODE
 70
     1
  9
$QTEXTMODE
 70
     0
  9
$MIRRTEXT
 70
     1
  9
$DRAGMODE
 70
     2
  9
$LTSCALE
 40
20.0
  9
$OSMODE
 70
  1023
  9
$ATTMODE
 70
     1
  9
$TEXTSIZE
 40
0.2
  9
$TRACEWID
 40
0.05
  9
$TEXTSTYLE
  7
STANDARD
  9
$CLAYER
  8
0
  9
$CELTYPE
  6
CONTINUOUS
  9
$CECOLOR
 62
   256
  9
$DIMSCALE
 40
1.0
  9
$DIMASZ
 40
10.0
  9
$DIMEXO
 40
0.0625
  9
$DIMDLI
 40
0.38
  9
$DIMRND
 40
0.0
  9
$DIMDLE
 40
0.0
  9
$DIMEXE
 40
0.18
  9
$DIMTP
 40
0.0
  9
$DIMTM
 40
0.0
  9
$DIMTXT
 40
10.0
  9
$DIMCEN
 40
0.09
  9
$DIMTSZ
 40
0.0
  9
$DIMTOL
 70
     0
  9
$DIMLIM
 70
     0
  9
$DIMTIH
 70
     1
  9
$DIMTOH
 70
     1
  9
$DIMSE1
 70
     0
  9
$DIMSE2
 70
     0
  9
$DIMTAD
 70
     0
  9
$DIMZIN
 70
     0
  9
$DIMBLK
  1

  9
$DIMASO
 70
     1
  9
$DIMSHO
 70
     1
  9
$DIMPOST
  1

  9
$DIMAPOST
  1

  9
$DIMALT
 70
     0
  9
$DIMALTD
 70
     2
  9
$DIMALTF
 40
25.4
  9
$DIMLFAC
 40
1.0
  9
$DIMTOFL
 70
     0
  9
$DIMTVP
 40
0.0
  9
$DIMTIX
 70
     0
  9
$DIMSOXD
 70
     0
  9
$DIMSAH
 70
     0
  9
$DIMBLK1
  1

  9
$DIMBLK2
  1

  9
$DIMSTYLE
  2
STANDARD
  9
$DIMCLRD
 70
     1
  9
$DIMCLRE
 70
     1
  9
$DIMCLRT
 70
     1
  9
$DIMTFAC
 40
1.0
  9
$DIMGAP
 40
10.0
  9
$LUNITS
 70
     2
  9
$LUPREC
 70
     4
  9
$SKETCHINC
 40
0.1
  9
$FILLETRAD
 40
0.0
  9
$AUNITS
 70
     0
  9
$AUPREC
 70
     0
  9
$MENU
  1
acad
  9
$ELEVATION
 40
0.0
  9
$PELEVATION
 40
0.0
  9
$THICKNESS
 40
0.0
  9
$LIMCHECK
 70
     0
  9
$BLIPMODE
 70
     0
  9
$CHAMFERA
 40
0.0
  9
$CHAMFERB
 40
0.0
  9
$SKPOLY
 70
     0
  9
$TDCREATE
 40
2452054.585654
  9
$TDUPDATE
 40
2452058.384498
  9
$TDINDWG
 40
0.016188
  9
$TDUSRTIMER
 40
0.016188
  9
$USRTIMER
 70
     1
  9
$ANGBASE
 50
0.0
  9
$ANGDIR
 70
     0
  9
$PDMODE
 70
     0
  9
$PDSIZE
 40
0.0
  9
$PLINEWID
 40
0.0
  9
$COORDS
 70
     1
  9
$SPLFRAME
 70
     0
  9
$SPLINETYPE
 70
     6
  9
$SPLINESEGS
 70
     8
  9
$ATTDIA
 70
     0
  9
$ATTREQ
 70
     1
  9
$HANDLING
 70
     1
  9
$HANDSEED
  5
68F
  9
$SURFTAB1
 70
     6
  9
$SURFTAB2
 70
     6
  9
$SURFTYPE
 70
     6
  9
$SURFU
 70
     6
  9
$SURFV
 70
     6
  9
$UCSNAME
  2

  9
$UCSORG
 10
0.0
 20
0.0
 30
0.0
  9
$UCSXDIR
 10
1.0
 20
0.0
 30
0.0
  9
$UCSYDIR
 10
0.0
 20
1.0
 30
0.0
  9
$PUCSNAME
  2

  9
$PUCSORG
 10
0.0
 20
0.0
 30
0.0
  9
$PUCSXDIR
 10
1.0
 20
0.0
 30
0.0
  9
$PUCSYDIR
 10
0.0
 20
1.0
 30
0.0
  9
$USERI1
 70
     0
  9
$USERI2
 70
     0
  9
$USERI3
 70
     0
  9
$USERI4
 70
     0
  9
$USERI5
 70
     0
  9
$USERR1
 40
0.0
  9
$USERR2
 40
0.0
  9
$USERR3
 40
0.0
  9
$USERR4
 40
0.0
  9
$USERR5
 40
0.0
  9
$WORLDVIEW
 70
     1
  9
$SHADEDGE
 70
     3
  9
$SHADEDIF
 70
    70
  9
$TILEMODE
 70
     1
  9
$MAXACTVP
 70
    48
  9
$PLIMCHECK
 70
     0
  9
$PEXTMIN
 10
1.000000E+020
 20
1.000000E+020
 30
1.000000E+020
  9
$PEXTMAX
 10
-1.000000E+020
 20
-1.000000E+020
 30
-1.000000E+020
  9
$PLIMMIN
 10
0.0
 20
0.0
  9
$PLIMMAX
 10
12.0
 20
9.0
  9
$UNITMODE
 70
     0
  9
$VISRETAIN
 70
     1
  9
$PLINEGEN
 70
     0
  9
$PSLTSCALE
 70
     1
  0
ENDSEC
  0
SECTION
  2
TABLES
  0
TABLE
  2
VPORT
 70
     2
  0
VPORT
  2
*ACTIVE
 70
     0
 10
0.0
 20
0.0
 11
1.0
 21
1.0
 12
1266.013838
 22
867.317469
 13
0.0
 23
0.0
 14
1.0
 24
1.0
 15
0.0
 25
0.0
 16
0.0
 26
0.0
 36
1.0
 17
0.0
 27
0.0
 37
0.0
 40
1584.662868
 41
1.679787
 42
50.0
 43
0.0
 44
0.0
 50
0.0
 51
0.0
 71
     0
 72
   100
 73
     1
 74
     1
 75
     0
 76
     0
 77
     0
 78
     0
  0
ENDTAB
  0
TABLE
  2
LTYPE
 70
     3
  0
LTYPE
  2
CONTINUOUS
 70
     0
  3
Solid line
 72
    65
 73
     0
 40
0.0
  0
LTYPE
  2
CENTER
 70
     0
  3
____ _ ____ _ ____ _ ____ _ ____ _ ____
 72
    65
 73
     4
 40
2.0
 49
1.25
 49
-0.25
 49
0.25
 49
-0.25
  0
LTYPE
  2
DASHED
 70
     0
  3
_ _ _ _ _ _ _ _ _ _ _ _ _ _ _ _ _ _ _ _ _
 72
    65
 73
     2
 40
0.75
 49
0.5
 49
-0.25
  0
ENDTAB
  0
TABLE
  2
LAYER
 70
     5
  0
LAYER
  2
0
 70
     0
 62
     7
  6
CONTINUOUS
  0
LAYER
  2
5
 70
     0
 62
     7
  6
CONTINUOUS
  0
LAYER
  2
6
 70
     0
 62
     5
  6
CENTER
  0
LAYER
  2
7
 70
     0
 62
     3
  6
DASHED
  0
LAYER
  2
BYLAYER
 70
     0
 62
     7
  6
CONTINUOUS
  0
ENDTAB
  0
TABLE
  2
STYLE
 70
     1
  0
STYLE
  2
STANDARD
 70
     0
 40
0.0
 41
1.0
 50
0.0
 71
     0
 42
0.2
  3
txt
  4

  0
ENDTAB
  0
TABLE
  2
VIEW
 70
     0
  0
ENDTAB
  0
TABLE
  2
UCS
 70
     0
  0
ENDTAB
  0
TABLE
  2
APPID
 70
     1
  0
APPID
  2
ACAD
 70
     0
  0
ENDTAB
  0
TABLE
  2
DIMSTYLE
 70
     1
  0
DIMSTYLE
  2
STANDARD
 70
     0
  3

  4

  5

  6

  7

 40
1.0
 41
0.18
 42
0.0625
 43
0.38
 44
0.18
 45
0.0
 46
0.0
 47
0.0
 48
0.0
140
0.18
141
0.09
142
0.0
143
25.4
144
1.0
145
0.0
146
1.0
147
0.09
 71
     0
 72
     0
 73
     1
 74
     1
 75
     0
 76
     0
 77
     0
 78
     0
170
     0
171
     2
172
     0
173
     0
174
     0
175
     0
176
     0
177
     0
178
     0
  0
ENDTAB
  0
ENDSEC
  0
SECTION
  2
BLOCKS
  0
BLOCK
  8
0
  2
$MODEL_SPACE
 70
     0
 10
0.0
 20
0.0
 30
0.0
  3
$MODEL_SPACE
  1

  0
ENDBLK
  5
1A
  8
0
  0
BLOCK
 67
     1
  8
0
  2
$PAPER_SPACE
 70
     0
 10
0.0
 20
0.0
 30
0.0
  3
$PAPER_SPACE
  1

  0
ENDBLK
  5
17
 67
     1
  8
0
  0
BLOCK
  8
0
  2
A$C05293501
 70
     0
 10
0.0
 20
0.0
 30
0.0
  3
A$C05293501
  1

  0
LINE
  5
66A
  8
5
  6
CONTINUOUS
 10
60.4918
 20
70.750001
 30
0.0
 11
60.4918
 21
0.000001
 31
0.0
  0
LINE
  5
66B
  8
5
  6
CENTER
 10
60.4918
 20
70.750001
 30
0.0
 11
60.4918
 21
0.000001
 31
0.0
  0
LINE
  5
66C
  8
5
  6
CONTINUOUS
 10
50.4918
 20
70.750001
 30
0.0
 11
50.4918
 21
0.000001
 31
0.0
  0
LINE
  5
66D
  8
5
  6
CENTER
 10
50.4918
 20
70.750001
 30
0.0
 11
50.4918
 21
0.000001
 31
0.0
  0
LINE
  5
66E
  8
5
  6
CONTINUOUS
 10
40.4918
 20
70.750001
 30
0.0
 11
40.4918
 21
0.000001
 31
0.0
  0
LINE
  5
66F
  8
5
  6
CENTER
 10
40.4918
 20
70.750001
 30
0.0
 11
40.4918
 21
0.000001
 31
0.0
  0
LINE
  5
670
  8
5
  6
CONTINUOUS
 10
30.4918
 20
70.750001
 30
0.0
 11
30.4918
 21
0.000001
 31
0.0
  0
LINE
  5
671
  8
5
  6
CENTER
 10
30.4918
 20
70.750001
 30
0.0
 11
30.4918
 21
0.000001
 31
0.0
  0
LINE
  5
672
  8
5
  6
CONTINUOUS
 10
20.4918
 20
70.750001
 30
0.0
 11
20.4918
 21
13.187001
 31
0.0
  0
LINE
  5
673
  8
5
  6
CENTER
 10
20.4918
 20
70.750001
 30
0.0
 11
20.4918
 21
12.818001
 31
0.0
  0
LINE
  5
674
  8
5
  6
CONTINUOUS
 10
10.4918
 20
70.750001
 30
0.0
 11
10.4918
 21
35.248001
 31
0.0
  0
LINE
  5
675
  8
5
  6
CENTER
 10
10.4918
 20
70.750001
 30
0.0
 11
10.4918
 21
35.248001
 31
0.0
  0
LINE
  5
676
  8
5
  6
CONTINUOUS
 10
0.7536
 20
40.776001
 30
0.0
 11
70.6364
 21
40.776001
 31
0.0
  0
LINE
  5
677
  8
5
  6
CONTINUOUS
 10
0.0
 20
40.776001
 30
0.0
 11
70.6364
 21
40.776001
 31
0.0
  0
LINE
  5
678
  8
5
  6
CONTINUOUS
 10
10.8588
 20
30.776001
 30
0.0
 11
70.6364
 21
30.776001
 31
0.0
  0
LINE
  5
679
  8
5
  6
CONTINUOUS
 10
6.8688
 20
30.776001
 30
0.0
 11
70.6364
 21
30.776001
 31
0.0
  0
LINE
  5
67A
  8
5
  6
CONTINUOUS
 10
10.4918
 20
20.776001
 30
0.0
 11
70.6364
 21
20.776001
 31
0.0
  0
LINE
  5
67B
  8
5
  6
CONTINUOUS
 10
10.4918
 20
20.776001
 30
0.0
 11
70.6364
 21
20.776001
 31
0.0
  0
LINE
  5
67C
  8
5
  6
CONTINUOUS
 10
23.4865
 20
10.776001
 30
0.0
 11
70.6364
 21
10.776001
 31
0.0
  0
LINE
  5
67D
  8
5
  6
CONTINUOUS
 10
22.9952
 20
10.776001
 30
0.0
 11
70.6364
 21
10.776001
 31
0.0
  0
LINE
  5
67E
  8
5
  6
CONTINUOUS
 10
1.2561
 20
60.776001
 30
0.0
 11
70.6364
 21
60.776001
 31
0.0
  0
LINE
  5
67F
  8
5
  6
CONTINUOUS
 10
1.2561
 20
60.776001
 30
0.0
 11
70.6364
 21
60.776001
 31
0.0
  0
LINE
  5
680
  8
5
  6
CONTINUOUS
 10
0.2512
 20
50.776001
 30
0.0
 11
70.6364
 21
50.776001
 31
0.0
  0
LINE
  5
681
  8
5
  6
CONTINUOUS
 10
0.2512
 20
50.776001
 30
0.0
 11
70.6364
 21
50.776001
 31
0.0
  0
ENDBLK
  5
683
  8
0
  0
BLOCK
  8
0
  2
A$C27E33DB7
 70
     0
 10
0.0
 20
0.0
 30
0.0
  3
A$C27E33DB7
  1

  0
INSERT
  5
685
  8
0
  6
CONTINUOUS
  2
A$C05293501
 10
0.0
 20
-0.000001
 30
0.0
  0
ENDBLK
  5
687
  8
0
  0
ENDSEC
  0
SECTION
  2
ENTITIES
  0
LINE
  5
25
  8
5
  6
CONTINUOUS
 10
878.6417
 20
1223.785
 30
0.0
 11
878.6417
 21
1188.785
 31
0.0
  0
LINE
  5
26
  8
5
  6
CONTINUOUS
 10
878.6417
 20
1258.785
 30
0.0
 11
878.6417
 21
1223.785
 31
0.0
  0
LINE
  5
27
  8
5
  6
CONTINUOUS
 10
910.1417
 20
1049.166
 30
0.0
 11
910.1417
 21
1048.135
 31
0.0
  0
LINE
  5
28
  8
5
  6
CONTINUOUS
 10
911.9417
 20
1035.448
 30
0.0
 11
911.9417
 21
1412.122
 31
0.0
  0
LINE
  5
29
  8
5
  6
CONTINUOUS
 10
965.4506
 20
1004.785
 30
0.0
 11
965.4515
 21
1004.785
 31
0.0
  0
LINE
  5
2A
  8
5
  6
CONTINUOUS
 10
738.6417
 20
1253.785
 30
0.0
 11
738.6417
 21
1193.785
 31
0.0
  0
LINE
  5
2B
  8
5
  6
CONTINUOUS
 10
1404.142
 20
1074.185
 30
0.0
 11
968.1417
 21
1074.185
 31
0.0
  0
LINE
  5
2C
  8
5
  6
CONTINUOUS
 10
906.1583
 20
1123.785
 30
0.0
 11
905.9538
 21
1123.785
 31
0.0
  0
LINE
  5
2D
  8
5
  6
CONTINUOUS
 10
965.9127
 20
1091.585
 30
0.0
 11
965.9192
 21
1091.535
 31
0.0
  0
LINE
  5
2E
  8
5
  6
CONTINUOUS
 10
965.9192
 20
1356.036
 30
0.0
 11
965.9127
 21
1355.985
 31
0.0
  0
LINE
  5
2F
  8
5
  6
CONTINUOUS
 10
757.6416
 20
1260.285
 30
0.0
 11
748.6417
 21
1260.285
 31
0.0
  0
LINE
  5
30
  8
5
  6
CONTINUOUS
 10
978.1417
 20
1471.785
 30
0.0
 11
978.1417
 21
1508.085
 31
0.0
  0
LINE
  5
31
  8
5
  6
CONTINUOUS
 10
1221.142
 20
1508.085
 30
0.0
 11
1221.142
 21
1471.785
 31
0.0
  0
LINE
  5
32
  8
5
  6
CONTINUOUS
 10
1223.642
 20
1508.085
 30
0.0
 11
975.6417
 21
1508.085
 31
0.0
  0
LINE
  5
33
  8
5
  6
CONTINUOUS
 10
985.6417
 20
1533.585
 30
0.0
 11
1213.642
 21
1533.585
 31
0.0
  0
LINE
  5
34
  8
5
  6
CONTINUOUS
 10
985.6417
 20
1556.585
 30
0.0
 11
944.6417
 21
1556.585
 31
0.0
  0
LINE
  5
35
  8
5
  6
CONTINUOUS
 10
1254.642
 20
1556.585
 30
0.0
 11
1213.642
 21
1556.585
 31
0.0
  0
LINE
  5
36
  8
5
  6
CONTINUOUS
 10
951.6417
 20
1532.085
 30
0.0
 11
975.6417
 21
1508.085
 31
0.0
  0
LINE
  5
37
  8
5
  6
CONTINUOUS
 10
1247.642
 20
1532.085
 30
0.0
 11
1223.642
 21
1508.085
 31
0.0
  0
LINE
  5
38
  8
5
  6
CONTINUOUS
 10
1247.642
 20
1532.085
 30
0.0
 11
1247.642
 21
1556.585
 31
0.0
  0
LINE
  5
39
  8
5
  6
CONTINUOUS
 10
951.6417
 20
1532.085
 30
0.0
 11
951.6417
 21
1556.585
 31
0.0
  0
LINE
  5
3A
  8
5
  6
CONTINUOUS
 10
989.6417
 20
1652.585
 30
0.0
 11
1209.642
 21
1652.585
 31
0.0
  0
LINE
  5
3B
  8
5
  6
CONTINUOUS
 10
1058.636
 20
1656.785
 30
0.0
 11
1058.636
 21
1652.585
 31
0.0
  0
LINE
  5
3C
  8
5
  6
CONTINUOUS
 10
1060.736
 20
1652.585
 30
0.0
 11
1060.736
 21
1656.785
 31
0.0
  0
LINE
  5
3D
  8
5
  6
CONTINUOUS
 10
1095.758
 20
1652.585
 30
0.0
 11
1095.758
 21
1656.785
 31
0.0
  0
LINE
  5
3E
  8
5
  6
CONTINUOUS
 10
1109.536
 20
1652.585
 30
0.0
 11
1109.536
 21
1656.785
 31
0.0
  0
LINE
  5
3F
  8
5
  6
CONTINUOUS
 10
1111.636
 20
1652.585
 30
0.0
 11
1111.636
 21
1656.785
 31
0.0
  0
LINE
  5
40
  8
5
  6
CONTINUOUS
 10
1157.282
 20
1652.585
 30
0.0
 11
1157.282
 21
1656.785
 31
0.0
  0
LINE
  5
41
  8
5
  6
CONTINUOUS
 10
1141.403
 20
1652.585
 30
0.0
 11
1141.403
 21
1656.785
 31
0.0
  0
LINE
  5
42
  8
5
  6
CONTINUOUS
 10
1155.182
 20
1652.585
 30
0.0
 11
1155.182
 21
1656.785
 31
0.0
  0
LINE
  5
43
  8
5
  6
CONTINUOUS
 10
1401.142
 20
1003.785
 30
0.0
 11
1401.142
 21
1050.053
 31
0.0
  0
LINE
  5
44
  8
5
  6
CONTINUOUS
 10
1317.642
 20
1074.185
 30
0.0
 11
1317.642
 21
1003.785
 31
0.0
  0
LINE
  5
45
  8
5
  6
CONTINUOUS
 10
1034.639
 20
1656.785
 30
0.0
 11
1043.502
 21
1656.785
 31
0.0
  0
LINE
  5
46
  8
5
  6
CONTINUOUS
 10
1043.502
 20
1656.785
 30
0.0
 11
1047.192
 21
1656.785
 31
0.0
  0
LINE
  5
47
  8
5
  6
CONTINUOUS
 10
1047.192
 20
1656.785
 30
0.0
 11
1058.636
 21
1656.785
 31
0.0
  0
LINE
  5
48
  8
5
  6
CONTINUOUS
 10
1060.736
 20
1656.785
 30
0.0
 11
1072.129
 21
1656.785
 31
0.0
  0
LINE
  5
49
  8
5
  6
CONTINUOUS
 10
1072.129
 20
1656.785
 30
0.0
 11
1075.97
 21
1656.785
 31
0.0
  0
LINE
  5
4A
  8
5
  6
CONTINUOUS
 10
1075.97
 20
1656.785
 30
0.0
 11
1085.47
 21
1656.785
 31
0.0
  0
LINE
  5
4B
  8
5
  6
CONTINUOUS
 10
1095.758
 20
1656.785
 30
0.0
 11
1109.536
 21
1656.785
 31
0.0
  0
LINE
  5
4C
  8
5
  6
CONTINUOUS
 10
1111.636
 20
1656.785
 30
0.0
 11
1116.438
 21
1656.785
 31
0.0
  0
LINE
  5
4D
  8
5
  6
CONTINUOUS
 10
1116.438
 20
1656.785
 30
0.0
 11
1131.266
 21
1656.785
 31
0.0
  0
LINE
  5
4E
  8
5
  6
CONTINUOUS
 10
1253.142
 20
1442.785
 30
0.0
 11
1220.831
 21
1442.785
 31
0.0
  0
LINE
  5
4F
  8
5
  6
CONTINUOUS
 10
584.8699
 20
1400.576
 30
0.0
 11
584.8699
 21
1400.576
 31
0.0
  0
LINE
  5
50
  8
5
  6
CONTINUOUS
 10
1887.912
 20
1400.576
 30
0.0
 11
1887.912
 21
1400.576
 31
0.0
  0
LINE
  5
51
  8
5
  6
CONTINUOUS
 10
2094.9
 20
1656.785
 30
0.0
 11
2094.9
 21
1656.785
 31
0.0
  0
LINE
  5
52
  8
5
  6
CONTINUOUS
 10
892.6417
 20
1258.785
 30
0.0
 11
878.6417
 21
1258.785
 31
0.0
  0
LINE
  5
53
  8
5
  6
CONTINUOUS
 10
878.6416
 20
1188.785
 30
0.0
 11
892.6417
 21
1188.785
 31
0.0
  0
LINE
  5
54
  8
5
  6
CONTINUOUS
 10
1077.642
 20
1003.785
 30
0.0
 11
1077.642
 21
1074.185
 31
0.0
  0
LINE
  5
55
  8
5
  6
CONTINUOUS
 10
994.1417
 20
1050.053
 30
0.0
 11
994.1417
 21
1003.785
 31
0.0
  0
LINE
  5
57
  8
5
  6
CONTINUOUS
 10
968.1417
 20
983.7854
 30
0.0
 11
965.7718
 21
1002.285
 31
0.0
  0
LINE
  5
58
  8
5
  6
CONTINUOUS
 10
965.7718
 20
1002.285
 30
0.0
 11
963.6422
 21
1018.91
 31
0.0
  0
LINE
  5
59
  8
5
  6
CONTINUOUS
 10
1689.642
 20
1427.079
 30
0.0
 11
1689.642
 21
1307.079
 31
0.0
  0
LINE
  5
5A
  8
5
  6
CONTINUOUS
 10
968.1417
 20
983.7854
 30
0.0
 11
974.1417
 21
983.7853
 31
0.0
  0
LINE
  5
5B
  8
5
  6
CONTINUOUS
 10
748.6415
 20
1253.785
 30
0.0
 11
738.6418
 21
1253.785
 31
0.0
  0
LINE
  5
5C
  8
5
  6
CONTINUOUS
 10
977.4563
 20
1414.203
 30
0.0
 11
979.4671
 21
1471.785
 31
0.0
  0
LINE
  5
5D
  8
5
  6
CONTINUOUS
 10
906.863
 20
1123.785
 30
0.0
 11
906.7421
 21
1123.785
 31
0.0
  0
LINE
  5
5E
  8
5
  6
CONTINUOUS
 10
1404.154
 20
1463.686
 30
0.0
 11
1406.361
 21
1446.461
 31
0.0
  0
LINE
  5
5F
  8
5
  6
CONTINUOUS
 10
1408.587
 20
1429.085
 30
0.0
 11
1406.361
 21
1446.461
 31
0.0
  0
LINE
  5
60
  8
5
  6
CONTINUOUS
 10
1404.142
 20
1463.785
 30
0.0
 11
1404.154
 21
1463.686
 31
0.0
  0
LINE
  5
61
  8
5
  6
CONTINUOUS
 10
1410.122
 20
1417.098
 30
0.0
 11
1408.587
 21
1429.085
 31
0.0
  0
LINE
  5
62
  8
5
  6
CONTINUOUS
 10
1257.662
 20
1446.436
 30
0.0
 11
1279.019
 21
1463.686
 31
0.0
  0
LINE
  5
63
  8
5
  6
CONTINUOUS
 10
1279.019
 20
1463.686
 30
0.0
 11
1279.142
 21
1463.785
 31
0.0
  0
LINE
  5
64
  8
5
  6
CONTINUOUS
 10
1253.142
 20
1442.785
 30
0.0
 11
1257.662
 21
1446.436
 31
0.0
  0
LINE
  5
65
  8
5
  6
CONTINUOUS
 10
1279.142
 20
1463.785
 30
0.0
 11
1404.142
 21
1463.785
 31
0.0
  0
LINE
  5
66
  8
5
  6
CONTINUOUS
 10
1406.358
 20
1091.585
 30
0.0
 11
1406.364
 21
1091.535
 31
0.0
  0
LINE
  5
67
  8
5
  6
CONTINUOUS
 10
1406.364
 20
1356.036
 30
0.0
 11
1406.358
 21
1355.985
 31
0.0
  0
LINE
  5
68
  8
5
  6
CONTINUOUS
 10
965.9192
 20
1091.535
 30
0.0
 11
965.9257
 21
1091.585
 31
0.0
  0
LINE
  5
69
  8
5
  6
CONTINUOUS
 10
965.9256
 20
1355.985
 30
0.0
 11
965.9192
 21
1356.036
 31
0.0
  0
LINE
  5
6A
  8
5
  6
CONTINUOUS
 10
1253.142
 20
1429.285
 30
0.0
 11
1253.142
 21
1383.725
 31
0.0
  0
LINE
  5
6B
  8
5
  6
CONTINUOUS
 10
1253.142
 20
1429.285
 30
0.0
 11
1253.142
 21
1442.785
 31
0.0
  0
LINE
  5
6C
  8
5
  6
CONTINUOUS
 10
968.1417
 20
1373.385
 30
0.0
 11
1404.142
 21
1373.385
 31
0.0
  0
LINE
  5
6D
  8
5
  6
CONTINUOUS
 10
1406.371
 20
1355.985
 30
0.0
 11
1408.612
 21
1338.485
 31
0.0
  0
LINE
  5
6E
  8
5
  6
CONTINUOUS
 10
1408.612
 20
1338.485
 30
0.0
 11
1410.122
 21
1326.698
 31
0.0
  0
LINE
  5
6F
  8
5
  6
CONTINUOUS
 10
1404.142
 20
1373.385
 30
0.0
 11
1406.364
 21
1356.036
 31
0.0
  0
LINE
  5
70
  8
5
  6
CONTINUOUS
 10
901.9417
 20
1399.435
 30
0.0
 11
901.9417
 21
1049.166
 31
0.0
  0
LINE
  5
71
  8
5
  6
CONTINUOUS
 10
1408.612
 20
1109.085
 30
0.0
 11
1410.122
 21
1120.872
 31
0.0
  0
LINE
  5
72
  8
5
  6
CONTINUOUS
 10
1406.364
 20
1091.535
 30
0.0
 11
1404.142
 21
1074.185
 31
0.0
  0
CIRCLE
  5
73
  8
5
  6
CONTINUOUS
 10
906.3417
 20
1125.185
 30
0.0
 40
1.5
  0
LINE
  5
74
  8
5
  6
CONTINUOUS
 10
1406.371
 20
1091.585
 30
0.0
 11
1408.612
 21
1109.085
 31
0.0
  0
LINE
  5
75
  8
5
  6
CONTINUOUS
 10
965.9127
 20
1355.985
 30
0.0
 11
963.6709
 21
1338.485
 31
0.0
  0
LINE
  5
76
  8
5
  6
CONTINUOUS
 10
963.6709
 20
1338.485
 30
0.0
 11
962.161
 21
1326.698
 31
0.0
  0
LINE
  5
77
  8
5
  6
CONTINUOUS
 10
965.9192
 20
1356.036
 30
0.0
 11
968.1417
 21
1373.385
 31
0.0
  0
LINE
  5
78
  8
5
  6
CONTINUOUS
 10
963.6709
 20
1109.085
 30
0.0
 11
962.161
 21
1120.872
 31
0.0
  0
LINE
  5
79
  8
5
  6
CONTINUOUS
 10
1689.642
 20
1407.079
 30
0.0
 11
1706.962
 21
1417.079
 31
0.0
  0
LINE
  5
7A
  8
5
  6
CONTINUOUS
 10
968.1417
 20
1074.185
 30
0.0
 11
965.9192
 21
1091.535
 31
0.0
  0
LINE
  5
7B
  8
5
  6
CONTINUOUS
 10
965.9127
 20
1091.585
 30
0.0
 11
963.6709
 21
1109.085
 31
0.0
  0
LINE
  5
7C
  8
5
  6
CONTINUOUS
 10
1540.642
 20
1102.732
 30
0.0
 11
1540.642
 21
1344.839
 31
0.0
  0
LINE
  5
7D
  8
5
  6
CONTINUOUS
 10
1540.642
 20
1102.732
 30
0.0
 11
1540.642
 21
991.2853
 31
0.0
  0
LINE
  5
7E
  8
5
  6
CONTINUOUS
 10
1540.642
 20
1456.285
 30
0.0
 11
1540.642
 21
1344.839
 31
0.0
  0
LINE
  5
7F
  8
5
  6
CONTINUOUS
 10
1613.642
 20
1363.785
 30
0.0
 11
1613.642
 21
1083.785
 31
0.0
  0
LINE
  5
80
  8
5
  6
CONTINUOUS
 10
1472.142
 20
988.2854
 30
0.0
 11
1421.142
 21
988.2854
 31
0.0
  0
LINE
  5
81
  8
5
  6
CONTINUOUS
 10
1689.642
 20
1387.079
 30
0.0
 11
1706.962
 21
1397.079
 31
0.0
  0
LINE
  5
82
  8
5
  6
CONTINUOUS
 10
1472.142
 20
1459.285
 30
0.0
 11
1411.642
 21
1459.285
 31
0.0
  0
LINE
  5
83
  8
5
  6
CONTINUOUS
 10
1472.142
 20
1456.285
 30
0.0
 11
1540.642
 21
1456.285
 31
0.0
  0
LINE
  5
84
  8
5
  6
CONTINUOUS
 10
1472.142
 20
991.2853
 30
0.0
 11
1540.642
 21
991.2853
 31
0.0
  0
LINE
  5
85
  8
5
  6
CONTINUOUS
 10
1472.142
 20
1101.489
 30
0.0
 11
1472.142
 21
988.2854
 31
0.0
  0
LINE
  5
86
  8
5
  6
CONTINUOUS
 10
1472.142
 20
1459.285
 30
0.0
 11
1472.142
 21
1346.081
 31
0.0
  0
LINE
  5
87
  8
5
  6
CONTINUOUS
 10
1472.142
 20
1101.489
 30
0.0
 11
1472.142
 21
1346.081
 31
0.0
  0
LINE
  5
88
  8
5
  6
CONTINUOUS
 10
1411.642
 20
1346.081
 30
0.0
 11
1411.642
 21
1101.489
 31
0.0
  0
LINE
  5
89
  8
5
  6
CONTINUOUS
 10
1411.642
 20
1346.081
 30
0.0
 11
1411.642
 21
1459.285
 31
0.0
  0
LINE
  5
8A
  8
5
  6
CONTINUOUS
 10
1689.642
 20
1367.079
 30
0.0
 11
1706.962
 21
1377.079
 31
0.0
  0
LINE
  5
8B
  8
5
  6
CONTINUOUS
 10
1411.642
 20
1003.785
 30
0.0
 11
1411.642
 21
1101.489
 31
0.0
  0
LINE
  5
8C
  8
5
  6
CONTINUOUS
 10
1689.642
 20
1347.079
 30
0.0
 11
1706.962
 21
1357.079
 31
0.0
  0
LINE
  5
8D
  8
5
  6
CONTINUOUS
 10
1689.642
 20
1327.079
 30
0.0
 11
1706.962
 21
1337.079
 31
0.0
  0
LINE
  5
8E
  8
5
  6
CONTINUOUS
 10
878.6416
 20
1253.785
 30
0.0
 11
868.6415
 21
1253.785
 31
0.0
  0
LINE
  5
8F
  8
5
  6
CONTINUOUS
 10
738.6418
 20
1193.785
 30
0.0
 11
878.6416
 21
1193.785
 31
0.0
  0
LINE
  5
90
  8
5
  6
CONTINUOUS
 10
859.6418
 20
1252.404
 30
0.0
 11
757.6416
 21
1252.404
 31
0.0
  0
LINE
  5
91
  8
5
  6
CONTINUOUS
 10
868.6417
 20
1253.785
 30
0.0
 11
868.6417
 21
1260.285
 31
0.0
  0
LINE
  5
92
  8
5
  6
CONTINUOUS
 10
748.6417
 20
1260.285
 30
0.0
 11
748.6417
 21
1253.786
 31
0.0
  0
LINE
  5
93
  8
5
  6
CONTINUOUS
 10
1411.642
 20
1442.785
 30
0.0
 11
1406.832
 21
1442.785
 31
0.0
  0
LINE
  5
94
  8
5
  6
CONTINUOUS
 10
878.6417
 20
438.8128
 30
0.0
 11
878.6417
 21
368.8128
 31
0.0
  0
LINE
  5
95
  8
5
  6
CONTINUOUS
 10
738.6417
 20
433.8128
 30
0.0
 11
738.6417
 21
373.8128
 31
0.0
  0
LINE
  5
96
  8
5
  6
CONTINUOUS
 10
892.6416
 20
438.8129
 30
0.0
 11
878.6417
 21
438.8128
 31
0.0
  0
LINE
  5
97
  8
5
  6
CONTINUOUS
 10
878.6417
 20
368.8128
 30
0.0
 11
892.6416
 21
368.8128
 31
0.0
  0
LINE
  5
98
  8
5
  6
CONTINUOUS
 10
859.6417
 20
1260.285
 30
0.0
 11
757.6416
 21
1260.285
 31
0.0
  0
LINE
  5
99
  8
5
  6
CONTINUOUS
 10
868.6417
 20
1260.285
 30
0.0
 11
859.6418
 21
1260.285
 31
0.0
  0
LINE
  5
9A
  8
5
  6
CONTINUOUS
 10
738.6418
 20
373.8127
 30
0.0
 11
878.6417
 21
373.8127
 31
0.0
  0
LINE
  5
9B
  8
5
  6
CONTINUOUS
 10
878.6417
 20
433.8128
 30
0.0
 11
738.6418
 21
433.8128
 31
0.0
  0
LINE
  5
9C
  8
5
  6
CONTINUOUS
 10
896.6417
 20
1158.026
 30
0.0
 11
896.6417
 21
1130.285
 31
0.0
  0
LINE
  5
9D
  8
5
  6
CONTINUOUS
 10
901.9417
 20
1130.285
 30
0.0
 11
896.6417
 21
1130.285
 31
0.0
  0
ARC
  5
9E
  8
5
  6
CONTINUOUS
 10
2092.959
 20
1223.785
 30
0.0
 40
35.00001
 50
104.9006
 51
0.0
  0
ARC
  5
9F
  8
5
  6
CONTINUOUS
 10
2092.959
 20
1223.785
 30
0.0
 40
34.99996
 50
0.000002
 51
75.09943
  0
CIRCLE
  5
A0
  8
5
  6
CONTINUOUS
 10
2092.959
 20
1223.785
 30
0.0
 40
30.0
  0
LINE
  5
A1
  8
5
  6
CONTINUOUS
 10
892.6417
 20
1288.785
 30
0.0
 11
892.6417
 21
1158.785
 31
0.0
  0
LINE
  5
A2
  8
5
  6
CONTINUOUS
 10
1307.142
 20
973.7854
 30
0.0
 11
1307.142
 21
983.7854
 31
0.0
  0
LINE
  5
A3
  8
5
  6
CONTINUOUS
 10
1307.142
 20
983.7854
 30
0.0
 11
1088.142
 21
983.7854
 31
0.0
  0
LINE
  5
A4
  8
5
  6
CONTINUOUS
 10
1088.142
 20
983.7854
 30
0.0
 11
1088.142
 21
973.7854
 31
0.0
  0
LINE
  5
A5
  8
5
  6
CONTINUOUS
 10
1421.142
 20
1003.785
 30
0.0
 11
1421.142
 21
973.7854
 31
0.0
  0
LINE
  5
A6
  8
5
  6
CONTINUOUS
 10
974.1417
 20
973.7854
 30
0.0
 11
974.1417
 21
1003.785
 31
0.0
  0
LINE
  5
A7
  8
5
  6
CONTINUOUS
 10
1077.642
 20
1003.785
 30
0.0
 11
974.1417
 21
1003.785
 31
0.0
  0
LINE
  5
A8
  8
5
  6
CONTINUOUS
 10
1421.142
 20
1003.785
 30
0.0
 11
1317.642
 21
1003.785
 31
0.0
  0
LINE
  5
A9
  8
5
  6
CONTINUOUS
 10
1421.142
 20
973.7854
 30
0.0
 11
1307.142
 21
973.7854
 31
0.0
  0
LINE
  5
AA
  8
5
  6
CONTINUOUS
 10
1088.142
 20
973.7854
 30
0.0
 11
974.1417
 21
973.7854
 31
0.0
  0
LINE
  5
AB
  8
5
  6
CONTINUOUS
 10
1157.282
 20
1656.785
 30
0.0
 11
1162.084
 21
1656.785
 31
0.0
  0
LINE
  5
AC
  8
5
  6
CONTINUOUS
 10
1162.084
 20
1656.785
 30
0.0
 11
1176.912
 21
1656.785
 31
0.0
  0
LINE
  5
AD
  8
5
  6
CONTINUOUS
 10
1141.403
 20
1656.785
 30
0.0
 11
1155.182
 21
1656.785
 31
0.0
  0
LINE
  5
AE
  8
5
  6
CONTINUOUS
 10
1259.142
 20
1578.585
 30
0.0
 11
1259.142
 21
1601.585
 31
0.0
  0
LINE
  5
AF
  8
5
  6
CONTINUOUS
 10
940.1417
 20
1601.585
 30
0.0
 11
940.1417
 21
1578.585
 31
0.0
  0
LINE
  5
B0
  8
5
  6
CONTINUOUS
 10
1209.642
 20
1652.585
 30
0.0
 11
1259.142
 21
1601.585
 31
0.0
  0
LINE
  5
B1
  8
5
  6
CONTINUOUS
 10
940.1417
 20
1601.585
 30
0.0
 11
989.6417
 21
1652.585
 31
0.0
  0
LINE
  5
B2
  8
5
  6
CONTINUOUS
 10
1259.142
 20
1601.585
 30
0.0
 11
1213.142
 21
1601.585
 31
0.0
  0
LINE
  5
B3
  8
5
  6
CONTINUOUS
 10
986.1417
 20
1601.585
 30
0.0
 11
940.1417
 21
1601.585
 31
0.0
  0
LINE
  5
B4
  8
5
  6
CONTINUOUS
 10
986.1417
 20
1633.085
 30
0.0
 11
1213.142
 21
1633.085
 31
0.0
  0
LINE
  5
B6
  8
5
  6
CONTINUOUS
 10
1219.816
 20
1471.785
 30
0.0
 11
1221.827
 21
1414.203
 31
0.0
  0
LINE
  5
B7
  8
5
  6
CONTINUOUS
 10
985.6417
 20
1581.585
 30
0.0
 11
985.6417
 21
1533.585
 31
0.0
  0
LINE
  5
B8
  8
5
  6
CONTINUOUS
 10
1213.642
 20
1533.585
 30
0.0
 11
1213.642
 21
1581.585
 31
0.0
  0
LINE
  5
B9
  8
5
  6
CONTINUOUS
 10
1254.642
 20
1556.585
 30
0.0
 11
1254.642
 21
1578.585
 31
0.0
  0
LINE
  5
BA
  8
5
  6
CONTINUOUS
 10
944.6417
 20
1556.585
 30
0.0
 11
944.6417
 21
1578.585
 31
0.0
  0
LINE
  5
BB
  8
5
  6
CONTINUOUS
 10
986.1417
 20
1633.085
 30
0.0
 11
986.1417
 21
1581.585
 31
0.0
  0
LINE
  5
BC
  8
5
  6
CONTINUOUS
 10
1213.142
 20
1581.585
 30
0.0
 11
1213.142
 21
1633.085
 31
0.0
  0
LINE
  5
BD
  8
5
  6
CONTINUOUS
 10
940.1417
 20
1578.585
 30
0.0
 11
985.6417
 21
1578.585
 31
0.0
  0
LINE
  5
BE
  8
5
  6
CONTINUOUS
 10
1213.642
 20
1578.585
 30
0.0
 11
1259.142
 21
1578.585
 31
0.0
  0
LINE
  5
BF
  8
5
  6
CONTINUOUS
 10
1221.142
 20
1471.785
 30
0.0
 11
1206.142
 21
1471.785
 31
0.0
  0
LINE
  5
C0
  8
5
  6
CONTINUOUS
 10
993.1417
 20
1471.785
 30
0.0
 11
1206.142
 21
1471.785
 31
0.0
  0
LINE
  5
C1
  8
5
  6
CONTINUOUS
 10
993.1417
 20
1471.785
 30
0.0
 11
978.1417
 21
1471.785
 31
0.0
  0
LINE
  5
C3
  8
5
  6
CONTINUOUS
 10
993.1418
 20
1508.085
 30
0.0
 11
993.1417
 21
1471.785
 31
0.0
  0
LINE
  5
C4
  8
5
  6
CONTINUOUS
 10
1206.142
 20
1471.785
 30
0.0
 11
1206.142
 21
1508.085
 31
0.0
  0
LINE
  5
C5
  8
5
  6
CONTINUOUS
 10
951.6417
 20
1532.085
 30
0.0
 11
1247.642
 21
1532.085
 31
0.0
  0
LINE
  5
C6
  8
5
  6
CONTINUOUS
 10
1034.639
 20
1652.585
 30
0.0
 11
1034.639
 21
1656.785
 31
0.0
  0
LINE
  5
C7
  8
5
  6
CONTINUOUS
 10
1043.502
 20
1652.585
 30
0.0
 11
1043.502
 21
1656.785
 31
0.0
  0
LINE
  5
C8
  8
5
  6
CONTINUOUS
 10
1047.192
 20
1652.585
 30
0.0
 11
1047.192
 21
1656.785
 31
0.0
  0
LINE
  5
C9
  8
5
  6
CONTINUOUS
 10
1072.13
 20
1652.585
 30
0.0
 11
1072.129
 21
1656.785
 31
0.0
  0
LINE
  5
CA
  8
5
  6
CONTINUOUS
 10
978.4525
 20
1442.785
 30
0.0
 11
954.1416
 21
1442.785
 31
0.0
  0
ARC
  5
CB
  8
5
  6
CONTINUOUS
 10
859.6417
 20
403.8128
 30
0.0
 40
9.0
 50
270.0
 51
90.0
  0
LINE
  5
CC
  8
5
  6
CONTINUOUS
 10
859.6417
 20
394.8128
 30
0.0
 11
757.6418
 21
394.8128
 31
0.0
  0
ARC
  5
CD
  8
5
  6
CONTINUOUS
 10
757.6417
 20
403.8128
 30
0.0
 40
9.0
 50
90.0
 51
270.0
  0
LINE
  5
CE
  8
5
  6
CONTINUOUS
 10
757.6417
 20
412.8128
 30
0.0
 11
859.6417
 21
412.8128
 31
0.0
  0
LINE
  5
CF
  8
5
  6
CONTINUOUS
 10
965.7718
 20
1025.985
 30
0.0
 11
965.7718
 21
1002.285
 31
0.0
  0
LINE
  5
D0
  8
5
  6
CONTINUOUS
 10
968.1417
 20
1035.89
 30
0.0
 11
968.1417
 21
983.7854
 31
0.0
  0
LINE
  5
D1
  8
5
  6
CONTINUOUS
 10
954.1416
 20
1442.785
 30
0.0
 11
925.9418
 21
1431.392
 31
0.0
  0
LINE
  5
D2
  8
5
  6
CONTINUOUS
 10
925.9418
 20
1431.392
 30
0.0
 11
925.9418
 21
1016.179
 31
0.0
  0
LINE
  5
D3
  8
5
  6
CONTINUOUS
 10
925.9418
 20
1016.179
 30
0.0
 11
954.1416
 21
1004.785
 31
0.0
  0
LINE
  5
D4
  8
5
  6
CONTINUOUS
 10
954.1416
 20
1223.785
 30
0.0
 11
954.1416
 21
1004.785
 31
0.0
  0
LINE
  5
D5
  8
5
  6
CONTINUOUS
 10
954.1416
 20
1442.785
 30
0.0
 11
954.1416
 21
1223.785
 31
0.0
  0
LINE
  5
D6
  8
5
  6
CONTINUOUS
 10
994.1417
 20
1050.053
 30
0.0
 11
1077.642
 21
1050.053
 31
0.0
  0
LINE
  5
D7
  8
5
  6
CONTINUOUS
 10
1317.642
 20
1050.053
 30
0.0
 11
1401.142
 21
1050.053
 31
0.0
  0
LINE
  5
D8
  8
5
  6
CONTINUOUS
 10
968.1417
 20
1035.89
 30
0.0
 11
994.1417
 21
1035.89
 31
0.0
  0
LINE
  5
D9
  8
5
  6
CONTINUOUS
 10
1077.642
 20
1003.785
 30
0.0
 11
1317.642
 21
1003.785
 31
0.0
  0
LINE
  5
DA
  8
5
  6
CONTINUOUS
 10
901.9417
 20
1049.166
 30
0.0
 11
910.1417
 21
1049.166
 31
0.0
  0
LINE
  5
DB
  8
5
  6
CONTINUOUS
 10
2101.959
 20
1260.285
 30
0.0
 11
2083.959
 21
1260.285
 31
0.0
  0
ARC
  5
DC
  8
5
  6
CONTINUOUS
 10
2092.959
 20
1223.785
 30
0.0
 40
76.28278
 50
289.9279
 51
308.7401
  0
LINE
  5
DD
  8
5
  6
CONTINUOUS
 10
892.6417
 20
1158.785
 30
0.0
 11
896.6417
 21
1153.073
 31
0.0
  0
LINE
  5
DE
  8
5
  6
CONTINUOUS
 10
900.344
 20
1299.785
 30
0.0
 11
892.6417
 21
1288.785
 31
0.0
  0
LINE
  5
DF
  8
5
  6
CONTINUOUS
 10
900.344
 20
1299.785
 30
0.0
 11
900.344
 21
1152.371
 31
0.0
  0
LINE
  5
E0
  8
5
  6
CONTINUOUS
 10
859.6418
 20
1260.285
 30
0.0
 11
859.6418
 21
1252.404
 31
0.0
  0
LINE
  5
E1
  8
5
  6
CONTINUOUS
 10
757.6416
 20
1260.285
 30
0.0
 11
757.6416
 21
1252.404
 31
0.0
  0
LINE
  5
E2
  8
5
  6
CONTINUOUS
 10
954.1416
 20
1004.785
 30
0.0
 11
965.4506
 21
1004.785
 31
0.0
  0
LINE
  5
E3
  8
5
  6
CONTINUOUS
 10
1075.97
 20
1652.585
 30
0.0
 11
1075.97
 21
1656.785
 31
0.0
  0
LINE
  5
E4
  8
5
  6
CONTINUOUS
 10
993.4755
 20
1471.785
 30
0.0
 11
991.1548
 21
1405.323
 31
0.0
  0
LINE
  5
E5
  8
5
  6
CONTINUOUS
 10
558.9219
 20
1426.524
 30
0.0
 11
558.9219
 21
1426.524
 31
0.0
  0
LINE
  5
E6
  8
5
  6
CONTINUOUS
 10
1404.154
 20
1463.686
 30
0.0
 11
1279.019
 21
1463.686
 31
0.0
  0
LINE
  5
E7
  8
5
  6
CONTINUOUS
 10
1257.662
 20
1446.436
 30
0.0
 11
1406.358
 21
1446.436
 31
0.0
  0
LINE
  5
E8
  8
5
  6
CONTINUOUS
 10
1406.361
 20
1446.461
 30
0.0
 11
1406.358
 21
1446.436
 31
0.0
  0
LINE
  5
E9
  8
5
  6
CONTINUOUS
 10
1404.142
 20
1429.285
 30
0.0
 11
1383.922
 21
1429.285
 31
0.0
  0
LINE
  5
EA
  8
5
  6
CONTINUOUS
 10
1289.362
 20
1429.285
 30
0.0
 11
1253.142
 21
1429.285
 31
0.0
  0
LINE
  5
EB
  8
5
  6
CONTINUOUS
 10
1406.358
 20
1446.436
 30
0.0
 11
1404.142
 21
1429.285
 31
0.0
  0
LINE
  5
EC
  8
5
  6
CONTINUOUS
 10
1406.358
 20
1091.585
 30
0.0
 11
965.9258
 21
1091.585
 31
0.0
  0
LINE
  5
ED
  8
5
  6
CONTINUOUS
 10
1404.142
 20
1108.685
 30
0.0
 11
1406.358
 21
1091.585
 31
0.0
  0
LINE
  5
EE
  8
5
  6
CONTINUOUS
 10
968.1417
 20
1108.685
 30
0.0
 11
1404.142
 21
1108.685
 31
0.0
  0
LINE
  5
EF
  8
5
  6
CONTINUOUS
 10
965.9257
 20
1091.585
 30
0.0
 11
968.1417
 21
1108.685
 31
0.0
  0
LINE
  5
F0
  8
5
  6
CONTINUOUS
 10
1406.358
 20
1355.985
 30
0.0
 11
965.9256
 21
1355.985
 31
0.0
  0
LINE
  5
F1
  8
5
  6
CONTINUOUS
 10
968.1417
 20
1338.485
 30
0.0
 11
965.9256
 21
1355.985
 31
0.0
  0
LINE
  5
F2
  8
5
  6
CONTINUOUS
 10
1404.142
 20
1338.485
 30
0.0
 11
968.1417
 21
1338.485
 31
0.0
  0
LINE
  5
F3
  8
5
  6
CONTINUOUS
 10
1406.358
 20
1355.985
 30
0.0
 11
1404.142
 21
1338.485
 31
0.0
  0
LINE
  5
F4
  8
5
  6
CONTINUOUS
 10
1404.142
 20
1338.485
 30
0.0
 11
1408.612
 21
1338.485
 31
0.0
  0
LINE
  5
F5
  8
5
  6
CONTINUOUS
 10
1408.613
 20
1109.085
 30
0.0
 11
1404.142
 21
1109.085
 31
0.0
  0
LINE
  5
F6
  8
5
  6
CONTINUOUS
 10
1404.142
 20
1108.685
 30
0.0
 11
1404.142
 21
1109.085
 31
0.0
  0
LINE
  5
F7
  8
5
  6
CONTINUOUS
 10
1406.832
 20
1223.785
 30
0.0
 11
1404.142
 21
1223.785
 31
0.0
  0
LINE
  5
F8
  8
5
  6
CONTINUOUS
 10
1404.142
 20
1206.485
 30
0.0
 11
1404.142
 21
1223.785
 31
0.0
  0
LINE
  5
F9
  8
5
  6
CONTINUOUS
 10
1404.142
 20
1206.485
 30
0.0
 11
1406.919
 21
1206.485
 31
0.0
  0
LINE
  5
FA
  8
5
  6
CONTINUOUS
 10
1407.182
 20
1258.285
 30
0.0
 11
1404.142
 21
1258.285
 31
0.0
  0
LINE
  5
FB
  8
5
  6
CONTINUOUS
 10
1404.142
 20
1241.085
 30
0.0
 11
1404.142
 21
1258.285
 31
0.0
  0
LINE
  5
FC
  8
5
  6
CONTINUOUS
 10
1404.142
 20
1241.085
 30
0.0
 11
1406.919
 21
1241.085
 31
0.0
  0
LINE
  5
FD
  8
5
  6
CONTINUOUS
 10
1408.072
 20
1288.185
 30
0.0
 11
1404.142
 21
1288.185
 31
0.0
  0
LINE
  5
FE
  8
5
  6
CONTINUOUS
 10
1404.142
 20
1273.285
 30
0.0
 11
1404.142
 21
1288.185
 31
0.0
  0
LINE
  5
FF
  8
5
  6
CONTINUOUS
 10
1404.142
 20
1273.285
 30
0.0
 11
1407.558
 21
1273.285
 31
0.0
  0
LINE
  5
100
  8
5
  6
CONTINUOUS
 10
1409.696
 20
1320.185
 30
0.0
 11
1404.142
 21
1320.185
 31
0.0
  0
LINE
  5
101
  8
5
  6
CONTINUOUS
 10
1404.142
 20
1303.185
 30
0.0
 11
1404.142
 21
1320.185
 31
0.0
  0
LINE
  5
102
  8
5
  6
CONTINUOUS
 10
1404.142
 20
1303.185
 30
0.0
 11
1408.741
 21
1303.185
 31
0.0
  0
LINE
  5
103
  8
5
  6
CONTINUOUS
 10
1407.182
 20
1189.285
 30
0.0
 11
1404.142
 21
1189.285
 31
0.0
  0
LINE
  5
104
  8
5
  6
CONTINUOUS
 10
1404.142
 20
1174.385
 30
0.0
 11
1404.142
 21
1189.285
 31
0.0
  0
LINE
  5
105
  8
5
  6
CONTINUOUS
 10
1404.142
 20
1174.385
 30
0.0
 11
1407.555
 21
1174.385
 31
0.0
  0
LINE
  5
106
  8
5
  6
CONTINUOUS
 10
1408.072
 20
1159.385
 30
0.0
 11
1404.142
 21
1159.385
 31
0.0
  0
LINE
  5
107
  8
5
  6
CONTINUOUS
 10
1404.142
 20
1144.385
 30
0.0
 11
1404.142
 21
1159.385
 31
0.0
  0
LINE
  5
108
  8
5
  6
CONTINUOUS
 10
1404.142
 20
1144.385
 30
0.0
 11
1408.741
 21
1144.385
 31
0.0
  0
LINE
  5
109
  8
5
  6
CONTINUOUS
 10
1409.696
 20
1127.385
 30
0.0
 11
1404.142
 21
1127.385
 31
0.0
  0
LINE
  5
10A
  8
5
  6
CONTINUOUS
 10
1404.142
 20
1109.085
 30
0.0
 11
1404.142
 21
1127.385
 31
0.0
  0
LINE
  5
10B
  8
5
  6
CONTINUOUS
 10
1404.142
 20
1189.285
 30
0.0
 11
1404.142
 21
1206.485
 31
0.0
  0
LINE
  5
10C
  8
5
  6
CONTINUOUS
 10
1404.142
 20
1223.785
 30
0.0
 11
1404.142
 21
1241.085
 31
0.0
  0
LINE
  5
10D
  8
5
  6
CONTINUOUS
 10
1404.142
 20
1258.285
 30
0.0
 11
1404.142
 21
1273.285
 31
0.0
  0
LINE
  5
10E
  8
5
  6
CONTINUOUS
 10
1404.142
 20
1288.185
 30
0.0
 11
1404.142
 21
1303.185
 31
0.0
  0
LINE
  5
10F
  8
5
  6
CONTINUOUS
 10
1404.142
 20
1320.185
 30
0.0
 11
1404.142
 21
1338.485
 31
0.0
  0
LINE
  5
110
  8
5
  6
CONTINUOUS
 10
1404.142
 20
1159.385
 30
0.0
 11
1404.142
 21
1174.385
 31
0.0
  0
LINE
  5
111
  8
5
  6
CONTINUOUS
 10
1404.142
 20
1127.385
 30
0.0
 11
1404.142
 21
1144.385
 31
0.0
  0
LINE
  5
112
  8
5
  6
CONTINUOUS
 10
963.6709
 20
1338.485
 30
0.0
 11
968.1417
 21
1338.485
 31
0.0
  0
LINE
  5
113
  8
5
  6
CONTINUOUS
 10
968.1417
 20
1109.085
 30
0.0
 11
963.671
 21
1109.085
 31
0.0
  0
LINE
  5
114
  8
5
  6
CONTINUOUS
 10
968.1417
 20
1109.085
 30
0.0
 11
968.1417
 21
1108.685
 31
0.0
  0
LINE
  5
115
  8
5
  6
CONTINUOUS
 10
965.3638
 20
1206.485
 30
0.0
 11
968.1417
 21
1206.485
 31
0.0
  0
LINE
  5
116
  8
5
  6
CONTINUOUS
 10
968.1417
 20
1223.785
 30
0.0
 11
968.1417
 21
1206.485
 31
0.0
  0
LINE
  5
117
  8
5
  6
CONTINUOUS
 10
968.1417
 20
1223.785
 30
0.0
 11
965.4515
 21
1223.785
 31
0.0
  0
LINE
  5
118
  8
5
  6
CONTINUOUS
 10
965.3638
 20
1241.085
 30
0.0
 11
968.1417
 21
1241.085
 31
0.0
  0
LINE
  5
119
  8
5
  6
CONTINUOUS
 10
968.1417
 20
1258.285
 30
0.0
 11
968.1417
 21
1241.085
 31
0.0
  0
LINE
  5
11A
  8
5
  6
CONTINUOUS
 10
968.1417
 20
1258.285
 30
0.0
 11
965.1012
 21
1258.285
 31
0.0
  0
LINE
  5
11B
  8
5
  6
CONTINUOUS
 10
964.7256
 20
1273.285
 30
0.0
 11
968.1417
 21
1273.285
 31
0.0
  0
LINE
  5
11C
  8
5
  6
CONTINUOUS
 10
968.1417
 20
1288.185
 30
0.0
 11
968.1417
 21
1273.285
 31
0.0
  0
LINE
  5
11D
  8
5
  6
CONTINUOUS
 10
968.1417
 20
1288.185
 30
0.0
 11
964.2112
 21
1288.185
 31
0.0
  0
LINE
  5
11E
  8
5
  6
CONTINUOUS
 10
963.5427
 20
1303.185
 30
0.0
 11
968.1417
 21
1303.185
 31
0.0
  0
LINE
  5
11F
  8
5
  6
CONTINUOUS
 10
968.1417
 20
1320.185
 30
0.0
 11
968.1417
 21
1303.185
 31
0.0
  0
LINE
  5
120
  8
5
  6
CONTINUOUS
 10
968.1417
 20
1320.185
 30
0.0
 11
962.5875
 21
1320.185
 31
0.0
  0
LINE
  5
121
  8
5
  6
CONTINUOUS
 10
964.7284
 20
1174.385
 30
0.0
 11
968.1417
 21
1174.385
 31
0.0
  0
LINE
  5
122
  8
5
  6
CONTINUOUS
 10
968.1417
 20
1189.285
 30
0.0
 11
968.1417
 21
1174.385
 31
0.0
  0
LINE
  5
123
  8
5
  6
CONTINUOUS
 10
968.1417
 20
1189.285
 30
0.0
 11
965.1012
 21
1189.285
 31
0.0
  0
LINE
  5
124
  8
5
  6
CONTINUOUS
 10
963.5427
 20
1144.385
 30
0.0
 11
968.1417
 21
1144.385
 31
0.0
  0
LINE
  5
125
  8
5
  6
CONTINUOUS
 10
968.1417
 20
1159.385
 30
0.0
 11
968.1417
 21
1144.385
 31
0.0
  0
LINE
  5
126
  8
5
  6
CONTINUOUS
 10
968.1417
 20
1159.385
 30
0.0
 11
964.2112
 21
1159.385
 31
0.0
  0
LINE
  5
127
  8
5
  6
CONTINUOUS
 10
968.1417
 20
1127.385
 30
0.0
 11
968.1417
 21
1109.085
 31
0.0
  0
LINE
  5
128
  8
5
  6
CONTINUOUS
 10
968.1417
 20
1127.385
 30
0.0
 11
962.5875
 21
1127.385
 31
0.0
  0
LINE
  5
129
  8
5
  6
CONTINUOUS
 10
968.1417
 20
1206.485
 30
0.0
 11
968.1417
 21
1189.285
 31
0.0
  0
LINE
  5
12A
  8
5
  6
CONTINUOUS
 10
968.1417
 20
1241.085
 30
0.0
 11
968.1417
 21
1223.785
 31
0.0
  0
LINE
  5
12B
  8
5
  6
CONTINUOUS
 10
968.1417
 20
1273.285
 30
0.0
 11
968.1417
 21
1258.285
 31
0.0
  0
LINE
  5
12C
  8
5
  6
CONTINUOUS
 10
968.1417
 20
1303.185
 30
0.0
 11
968.1417
 21
1288.185
 31
0.0
  0
LINE
  5
12D
  8
5
  6
CONTINUOUS
 10
968.1417
 20
1338.485
 30
0.0
 11
968.1417
 21
1320.185
 31
0.0
  0
LINE
  5
12E
  8
5
  6
CONTINUOUS
 10
968.1417
 20
1174.385
 30
0.0
 11
968.1417
 21
1159.385
 31
0.0
  0
LINE
  5
12F
  8
5
  6
CONTINUOUS
 10
968.1417
 20
1144.385
 30
0.0
 11
968.1417
 21
1127.385
 31
0.0
  0
LINE
  5
130
  8
5
  6
CONTINUOUS
 10
1404.142
 20
1127.385
 30
0.0
 11
968.1417
 21
1127.385
 31
0.0
  0
LINE
  5
131
  8
5
  6
CONTINUOUS
 10
968.1417
 20
1109.085
 30
0.0
 11
1404.142
 21
1109.085
 31
0.0
  0
LINE
  5
132
  8
5
  6
CONTINUOUS
 10
1404.142
 20
1159.385
 30
0.0
 11
968.1417
 21
1159.385
 31
0.0
  0
LINE
  5
133
  8
5
  6
CONTINUOUS
 10
968.1417
 20
1144.385
 30
0.0
 11
1404.142
 21
1144.385
 31
0.0
  0
LINE
  5
134
  8
5
  6
CONTINUOUS
 10
1404.142
 20
1189.285
 30
0.0
 11
968.1417
 21
1189.285
 31
0.0
  0
LINE
  5
135
  8
5
  6
CONTINUOUS
 10
968.1417
 20
1174.385
 30
0.0
 11
1404.142
 21
1174.385
 31
0.0
  0
LINE
  5
136
  8
5
  6
CONTINUOUS
 10
1404.142
 20
1320.185
 30
0.0
 11
968.1417
 21
1320.185
 31
0.0
  0
LINE
  5
137
  8
5
  6
CONTINUOUS
 10
968.1417
 20
1303.185
 30
0.0
 11
1404.142
 21
1303.185
 31
0.0
  0
LINE
  5
138
  8
5
  6
CONTINUOUS
 10
1404.142
 20
1288.185
 30
0.0
 11
968.1417
 21
1288.185
 31
0.0
  0
LINE
  5
139
  8
5
  6
CONTINUOUS
 10
968.1417
 20
1273.285
 30
0.0
 11
1404.142
 21
1273.285
 31
0.0
  0
LINE
  5
13A
  8
5
  6
CONTINUOUS
 10
1404.142
 20
1258.285
 30
0.0
 11
968.1417
 21
1258.285
 31
0.0
  0
LINE
  5
13B
  8
5
  6
CONTINUOUS
 10
968.1417
 20
1241.085
 30
0.0
 11
1404.142
 21
1241.085
 31
0.0
  0
LINE
  5
13C
  8
5
  6
CONTINUOUS
 10
1404.142
 20
1223.785
 30
0.0
 11
968.1417
 21
1223.785
 31
0.0
  0
LINE
  5
13D
  8
5
  6
CONTINUOUS
 10
968.1417
 20
1206.485
 30
0.0
 11
1404.142
 21
1206.485
 31
0.0
  0
LINE
  5
13E
  8
5
  6
CONTINUOUS
 10
214.0924
 20
1003.785
 30
0.0
 11
225.597
 21
1020.216
 31
0.0
  0
LINE
  5
13F
  8
5
  6
CONTINUOUS
 10
1408.587
 20
1410.223
 30
0.0
 11
1408.587
 21
1429.085
 31
0.0
  0
LINE
  5
140
  8
5
  6
CONTINUOUS
 10
1406.358
 20
1446.436
 30
0.0
 11
1406.358
 21
1398.307
 31
0.0
  0
LINE
  5
141
  8
5
  6
CONTINUOUS
 10
1404.142
 20
1383.726
 30
0.0
 11
1404.142
 21
1429.285
 31
0.0
  0
LINE
  5
142
  8
5
  6
CONTINUOUS
 10
1307.142
 20
1427.079
 30
0.0
 11
1290.026
 21
1412.978
 31
0.0
  0
LINE
  5
143
  8
5
  6
CONTINUOUS
 10
1307.142
 20
1444.756
 30
0.0
 11
1307.142
 21
1427.079
 31
0.0
  0
LINE
  5
144
  8
5
  6
CONTINUOUS
 10
1290.026
 20
1435.056
 30
0.0
 11
1307.142
 21
1444.756
 31
0.0
  0
LINE
  5
145
  8
5
  6
CONTINUOUS
 10
1290.026
 20
1412.978
 30
0.0
 11
1290.026
 21
1435.056
 31
0.0
  0
LINE
  5
146
  8
5
  6
CONTINUOUS
 10
1366.142
 20
1444.756
 30
0.0
 11
1383.258
 21
1435.056
 31
0.0
  0
LINE
  5
147
  8
5
  6
CONTINUOUS
 10
1366.142
 20
1427.079
 30
0.0
 11
1366.142
 21
1444.756
 31
0.0
  0
LINE
  5
148
  8
5
  6
CONTINUOUS
 10
1383.258
 20
1412.978
 30
0.0
 11
1366.142
 21
1427.079
 31
0.0
  0
LINE
  5
149
  8
5
  6
CONTINUOUS
 10
1383.258
 20
1435.056
 30
0.0
 11
1383.258
 21
1412.978
 31
0.0
  0
LINE
  5
14A
  8
5
  6
CONTINUOUS
 10
545.554
 20
1003.785
 30
0.0
 11
534.0495
 21
1020.216
 31
0.0
  0
LINE
  5
14B
  8
5
  6
CONTINUOUS
 10
492.3232
 20
988.2853
 30
0.0
 11
492.3232
 21
983.7853
 31
0.0
  0
LINE
  5
14C
  8
5
  6
CONTINUOUS
 10
1318.642
 20
1393.509
 30
0.0
 11
1326.642
 21
1400.576
 31
0.0
  0
LINE
  5
14D
  8
5
  6
CONTINUOUS
 10
1346.642
 20
1400.576
 30
0.0
 11
1354.642
 21
1393.509
 31
0.0
  0
LINE
  5
14E
  8
5
  6
CONTINUOUS
 10
1326.642
 20
1400.576
 30
0.0
 11
1346.642
 21
1400.576
 31
0.0
  0
LINE
  5
14F
  8
5
  6
CONTINUOUS
 10
1366.142
 20
1427.079
 30
0.0
 11
1307.142
 21
1427.079
 31
0.0
  0
LINE
  5
150
  8
5
  6
CONTINUOUS
 10
1307.142
 20
1444.756
 30
0.0
 11
1366.142
 21
1444.756
 31
0.0
  0
LINE
  5
151
  8
5
  6
CONTINUOUS
 10
1318.642
 20
1383.726
 30
0.0
 11
1354.642
 21
1383.726
 31
0.0
  0
LINE
  5
152
  8
5
  6
CONTINUOUS
 10
267.3232
 20
983.7853
 30
0.0
 11
267.3232
 21
988.2853
 31
0.0
  0
LINE
  5
153
  8
5
  6
CONTINUOUS
 10
2101.959
 20
1260.285
 30
0.0
 11
2101.959
 21
1252.403
 31
0.0
  0
LINE
  5
154
  8
5
  6
CONTINUOUS
 10
2083.959
 20
1260.285
 30
0.0
 11
2083.959
 21
1252.403
 31
0.0
  0
LINE
  5
155
  8
5
  6
CONTINUOUS
 10
1253.142
 20
1383.725
 30
0.0
 11
1285.469
 21
1383.726
 31
0.0
  0
LINE
  5
156
  8
5
  6
CONTINUOUS
 10
1208.129
 20
1405.323
 30
0.0
 11
991.1548
 21
1405.323
 31
0.0
  0
LINE
  5
157
  8
5
  6
CONTINUOUS
 10
1387.814
 20
1383.726
 30
0.0
 11
1404.142
 21
1383.726
 31
0.0
  0
LINE
  5
158
  8
5
  6
CONTINUOUS
 10
1386.797
 20
1404.296
 30
0.0
 11
1387.814
 21
1383.726
 31
0.0
  0
LINE
  5
159
  8
5
  6
CONTINUOUS
 10
1285.469
 20
1383.726
 30
0.0
 11
1286.486
 21
1404.296
 31
0.0
  0
LINE
  5
15A
  8
5
  6
CONTINUOUS
 10
1085.47
 20
1652.585
 30
0.0
 11
1085.47
 21
1656.785
 31
0.0
  0
LINE
  5
15B
  8
5
  6
CONTINUOUS
 10
1290.026
 20
1412.978
 30
0.0
 11
1286.892
 21
1373.385
 31
0.0
  0
LINE
  5
15C
  8
5
  6
CONTINUOUS
 10
1286.486
 20
1404.296
 30
0.0
 11
1290.026
 21
1435.056
 31
0.0
  0
LINE
  5
15D
  8
5
  6
CONTINUOUS
 10
1386.797
 20
1404.296
 30
0.0
 11
1383.258
 21
1435.056
 31
0.0
  0
LINE
  5
15E
  8
5
  6
CONTINUOUS
 10
1383.258
 20
1412.978
 30
0.0
 11
1386.392
 21
1373.385
 31
0.0
  0
LINE
  5
15F
  8
5
  6
CONTINUOUS
 10
1318.642
 20
1373.385
 30
0.0
 11
1318.642
 21
1393.509
 31
0.0
  0
LINE
  5
160
  8
5
  6
CONTINUOUS
 10
1354.642
 20
1393.509
 30
0.0
 11
1354.642
 21
1373.385
 31
0.0
  0
LINE
  5
161
  8
5
  6
CONTINUOUS
 10
1604.642
 20
1083.785
 30
0.0
 11
1540.642
 21
1000.285
 31
0.0
  0
LINE
  5
162
  8
5
  6
CONTINUOUS
 10
1604.642
 20
1363.785
 30
0.0
 11
1540.642
 21
1447.285
 31
0.0
  0
LINE
  5
163
  8
5
  6
CONTINUOUS
 10
1604.642
 20
1363.785
 30
0.0
 11
1604.642
 21
1083.785
 31
0.0
  0
LINE
  5
164
  8
5
  6
CONTINUOUS
 10
1613.642
 20
1083.785
 30
0.0
 11
1604.642
 21
1083.785
 31
0.0
  0
LINE
  5
165
  8
5
  6
CONTINUOUS
 10
1613.642
 20
1363.785
 30
0.0
 11
1604.642
 21
1363.785
 31
0.0
  0
LINE
  5
166
  8
5
  6
CONTINUOUS
 10
1411.642
 20
1101.489
 30
0.0
 11
1472.142
 21
1101.489
 31
0.0
  0
LINE
  5
167
  8
5
  6
CONTINUOUS
 10
1472.142
 20
1346.081
 30
0.0
 11
1411.642
 21
1346.081
 31
0.0
  0
LINE
  5
168
  8
5
  6
CONTINUOUS
 10
1540.642
 20
1344.839
 30
0.0
 11
1472.142
 21
1344.839
 31
0.0
  0
LINE
  5
169
  8
5
  6
CONTINUOUS
 10
1472.142
 20
1102.732
 30
0.0
 11
1540.642
 21
1102.732
 31
0.0
  0
LINE
  5
16A
  8
5
  6
CONTINUOUS
 10
226.8232
 20
983.7853
 30
0.0
 11
241.3215
 21
1004.491
 31
0.0
  0
LINE
  5
16B
  8
5
  6
CONTINUOUS
 10
181.3264
 20
1064.486
 30
0.0
 11
138.8232
 21
1003.785
 31
0.0
  0
LINE
  5
16C
  8
5
  6
CONTINUOUS
 10
532.8232
 20
983.7853
 30
0.0
 11
518.3249
 21
1004.491
 31
0.0
  0
LINE
  5
16D
  8
5
  6
CONTINUOUS
 10
1116.438
 20
1652.585
 30
0.0
 11
1116.438
 21
1656.785
 31
0.0
  0
LINE
  5
16E
  8
5
  6
CONTINUOUS
 10
1131.266
 20
1652.585
 30
0.0
 11
1131.266
 21
1656.785
 31
0.0
  0
LINE
  5
16F
  8
5
  6
CONTINUOUS
 10
1162.084
 20
1652.585
 30
0.0
 11
1162.084
 21
1656.785
 31
0.0
  0
LINE
  5
170
  8
5
  6
CONTINUOUS
 10
620.8232
 20
1003.785
 30
0.0
 11
578.3201
 21
1064.486
 31
0.0
  0
LINE
  5
171
  8
5
  6
CONTINUOUS
 10
285.8232
 20
983.7853
 30
0.0
 11
267.3232
 21
983.7853
 31
0.0
  0
LINE
  5
172
  8
5
  6
CONTINUOUS
 10
473.8232
 20
983.7853
 30
0.0
 11
456.8232
 21
983.7853
 31
0.0
  0
LINE
  5
173
  8
5
  6
CONTINUOUS
 10
1176.912
 20
1652.585
 30
0.0
 11
1176.912
 21
1656.785
 31
0.0
  0
LINE
  5
174
  8
5
  6
CONTINUOUS
 10
1209.642
 20
1633.085
 30
0.0
 11
1209.642
 21
1652.585
 31
0.0
  0
LINE
  5
175
  8
5
  6
CONTINUOUS
 10
439.8232
 20
983.7853
 30
0.0
 11
424.8232
 21
983.7853
 31
0.0
  0
LINE
  5
176
  8
5
  6
CONTINUOUS
 10
409.8232
 20
983.7853
 30
0.0
 11
394.8232
 21
983.7853
 31
0.0
  0
LINE
  5
177
  8
5
  6
CONTINUOUS
 10
319.8232
 20
983.7853
 30
0.0
 11
302.8232
 21
983.7853
 31
0.0
  0
LINE
  5
178
  8
5
  6
CONTINUOUS
 10
349.8232
 20
983.7853
 30
0.0
 11
334.8232
 21
983.7853
 31
0.0
  0
LINE
  5
179
  8
5
  6
CONTINUOUS
 10
379.8232
 20
983.7853
 30
0.0
 11
364.8232
 21
983.7853
 31
0.0
  0
LINE
  5
17A
  8
5
  6
CONTINUOUS
 10
911.9417
 20
1399.435
 30
0.0
 11
901.9417
 21
1399.435
 31
0.0
  0
LINE
  5
17B
  8
5
  6
CONTINUOUS
 10
910.1417
 20
1048.135
 30
0.0
 11
911.9417
 21
1048.135
 31
0.0
  0
LINE
  5
17C
  8
5
  6
CONTINUOUS
 10
925.9418
 20
1431.392
 30
0.0
 11
911.9417
 21
1412.122
 31
0.0
  0
LINE
  5
17D
  8
5
  6
CONTINUOUS
 10
911.9417
 20
1035.448
 30
0.0
 11
925.9418
 21
1016.179
 31
0.0
  0
LINE
  5
17E
  8
5
  6
CONTINUOUS
 10
302.8232
 20
983.7853
 30
0.0
 11
285.8232
 21
983.7853
 31
0.0
  0
LINE
  5
17F
  8
5
  6
CONTINUOUS
 10
901.9417
 20
1299.841
 30
0.0
 11
900.344
 21
1299.785
 31
0.0
  0
LINE
  5
180
  8
5
  6
CONTINUOUS
 10
492.3232
 20
983.7853
 30
0.0
 11
473.8232
 21
983.7853
 31
0.0
  0
LINE
  5
181
  8
5
  6
CONTINUOUS
 10
900.344
 20
1152.371
 30
0.0
 11
901.9417
 21
1152.312
 31
0.0
  0
LINE
  5
182
  8
5
  6
CONTINUOUS
 10
989.6417
 20
1652.585
 30
0.0
 11
989.6417
 21
1633.085
 31
0.0
  0
LINE
  5
183
  8
5
  6
CONTINUOUS
 10
258.3233
 20
1471.785
 30
0.0
 11
258.3233
 21
1508.085
 31
0.0
  0
LINE
  5
184
  8
5
  6
CONTINUOUS
 10
501.3233
 20
1508.085
 30
0.0
 11
501.3233
 21
1471.785
 31
0.0
  0
LINE
  5
185
  8
5
  6
CONTINUOUS
 10
456.8232
 20
983.7853
 30
0.0
 11
439.8232
 21
983.7853
 31
0.0
  0
LINE
  5
186
  8
5
  6
CONTINUOUS
 10
424.8232
 20
983.7853
 30
0.0
 11
409.8232
 21
983.7853
 31
0.0
  0
LINE
  5
187
  8
5
  6
CONTINUOUS
 10
394.8232
 20
983.7853
 30
0.0
 11
379.8232
 21
983.7853
 31
0.0
  0
LINE
  5
188
  8
5
  6
CONTINUOUS
 10
1208.129
 20
1405.323
 30
0.0
 11
1205.808
 21
1471.785
 31
0.0
  0
LINE
  5
189
  8
5
  6
CONTINUOUS
 10
334.8232
 20
983.7853
 30
0.0
 11
319.8232
 21
983.7853
 31
0.0
  0
LINE
  5
18A
  8
5
  6
CONTINUOUS
 10
364.8232
 20
983.7853
 30
0.0
 11
349.8232
 21
983.7853
 31
0.0
  0
LINE
  5
18B
  8
5
  6
CONTINUOUS
 10
128.8232
 20
1126.685
 30
0.0
 11
128.8232
 21
1123.685
 31
0.0
  0
LINE
  5
18C
  8
5
  6
CONTINUOUS
 10
226.8232
 20
973.7853
 30
0.0
 11
226.8232
 21
1003.785
 31
0.0
  0
LINE
  5
18D
  8
5
  6
CONTINUOUS
 10
138.8232
 20
1003.785
 30
0.0
 11
138.8232
 21
973.7853
 31
0.0
  0
LINE
  5
18E
  8
5
  6
CONTINUOUS
 10
226.8232
 20
1003.785
 30
0.0
 11
138.8232
 21
1003.785
 31
0.0
  0
LINE
  5
18F
  8
5
  6
CONTINUOUS
 10
138.8232
 20
973.7853
 30
0.0
 11
226.8232
 21
973.7853
 31
0.0
  0
LINE
  5
190
  8
5
  6
CONTINUOUS
 10
532.8232
 20
973.7853
 30
0.0
 11
532.8232
 21
1003.785
 31
0.0
  0
LINE
  5
191
  8
5
  6
CONTINUOUS
 10
620.8232
 20
1003.785
 30
0.0
 11
620.8232
 21
973.7853
 31
0.0
  0
LINE
  5
192
  8
5
  6
CONTINUOUS
 10
532.8232
 20
1003.785
 30
0.0
 11
620.8232
 21
1003.785
 31
0.0
  0
LINE
  5
193
  8
5
  6
CONTINUOUS
 10
620.8232
 20
973.7853
 30
0.0
 11
532.8232
 21
973.7853
 31
0.0
  0
LINE
  5
194
  8
5
  6
CONTINUOUS
 10
503.8232
 20
1508.085
 30
0.0
 11
255.8232
 21
1508.085
 31
0.0
  0
LINE
  5
195
  8
5
  6
CONTINUOUS
 10
492.3232
 20
983.7853
 30
0.0
 11
487.8232
 21
988.2853
 31
0.0
  0
LINE
  5
196
  8
5
  6
CONTINUOUS
 10
267.3232
 20
983.7853
 30
0.0
 11
271.8232
 21
988.2853
 31
0.0
  0
LINE
  5
197
  8
5
  6
CONTINUOUS
 10
285.8232
 20
983.7853
 30
0.0
 11
285.8232
 21
988.2853
 31
0.0
  0
LINE
  5
198
  8
5
  6
CONTINUOUS
 10
473.8232
 20
988.2853
 30
0.0
 11
473.8232
 21
983.7853
 31
0.0
  0
LINE
  5
199
  8
5
  6
CONTINUOUS
 10
364.8232
 20
988.2853
 30
0.0
 11
364.8231
 21
983.7853
 31
0.0
  0
LINE
  5
19A
  8
5
  6
CONTINUOUS
 10
379.8232
 20
983.7853
 30
0.0
 11
379.8232
 21
988.2853
 31
0.0
  0
LINE
  5
19B
  8
5
  6
CONTINUOUS
 10
334.8232
 20
988.2853
 30
0.0
 11
334.8232
 21
983.7853
 31
0.0
  0
LINE
  5
19C
  8
5
  6
CONTINUOUS
 10
349.8233
 20
983.7853
 30
0.0
 11
349.8232
 21
988.2853
 31
0.0
  0
LINE
  5
19D
  8
5
  6
CONTINUOUS
 10
302.8232
 20
988.2853
 30
0.0
 11
302.8232
 21
983.7853
 31
0.0
  0
LINE
  5
19E
  8
5
  6
CONTINUOUS
 10
319.8233
 20
983.7853
 30
0.0
 11
319.8232
 21
988.2853
 31
0.0
  0
LINE
  5
19F
  8
5
  6
CONTINUOUS
 10
394.8232
 20
988.2853
 30
0.0
 11
394.8233
 21
983.7853
 31
0.0
  0
LINE
  5
1A0
  8
5
  6
CONTINUOUS
 10
409.8232
 20
983.7853
 30
0.0
 11
409.8232
 21
988.2853
 31
0.0
  0
LINE
  5
1A1
  8
5
  6
CONTINUOUS
 10
424.8232
 20
988.2853
 30
0.0
 11
424.8232
 21
983.7853
 31
0.0
  0
LINE
  5
1A2
  8
5
  6
CONTINUOUS
 10
439.8233
 20
983.7853
 30
0.0
 11
439.8232
 21
988.2853
 31
0.0
  0
LINE
  5
1A3
  8
5
  6
CONTINUOUS
 10
456.8232
 20
988.2853
 30
0.0
 11
456.8232
 21
983.7853
 31
0.0
  0
LINE
  5
1A4
  8
5
  6
CONTINUOUS
 10
128.8231
 20
1123.685
 30
0.0
 11
139.8232
 21
1123.685
 31
0.0
  0
LINE
  5
1A5
  8
5
  6
CONTINUOUS
 10
139.8232
 20
1126.685
 30
0.0
 11
128.8231
 21
1126.685
 31
0.0
  0
LINE
  5
1A6
  8
5
  6
CONTINUOUS
 10
1317.642
 20
644.8128
 30
0.0
 11
1317.642
 21
643.8128
 31
0.0
  0
LINE
  5
1A7
  8
5
  6
CONTINUOUS
 10
1317.642
 20
163.8128
 30
0.0
 11
1317.642
 21
162.8128
 31
0.0
  0
LINE
  5
1A8
  8
5
  6
CONTINUOUS
 10
1077.642
 20
643.8128
 30
0.0
 11
1077.642
 21
644.8128
 31
0.0
  0
LINE
  5
1A9
  8
5
  6
CONTINUOUS
 10
1077.642
 20
162.8128
 30
0.0
 11
1077.642
 21
163.8128
 31
0.0
  0
LINE
  5
1AA
  8
5
  6
CONTINUOUS
 10
231.8232
 20
1533.585
 30
0.0
 11
187.3232
 21
1533.585
 31
0.0
  0
LINE
  5
1AB
  8
5
  6
CONTINUOUS
 10
231.8232
 20
1532.085
 30
0.0
 11
231.8232
 21
1556.585
 31
0.0
  0
LINE
  5
1AC
  8
5
  6
CONTINUOUS
 10
534.8232
 20
1556.585
 30
0.0
 11
222.3232
 21
1556.585
 31
0.0
  0
LINE
  5
1AD
  8
5
  6
CONTINUOUS
 10
187.3232
 20
1533.585
 30
0.0
 11
187.3232
 21
1581.585
 31
0.0
  0
LINE
  5
1AE
  8
5
  6
CONTINUOUS
 10
231.8232
 20
1532.085
 30
0.0
 11
255.8232
 21
1508.085
 31
0.0
  0
LINE
  5
1AF
  8
5
  6
CONTINUOUS
 10
527.8232
 20
1532.085
 30
0.0
 11
503.8232
 21
1508.085
 31
0.0
  0
LINE
  5
1B0
  8
5
  6
CONTINUOUS
 10
527.8232
 20
1556.585
 30
0.0
 11
527.8232
 21
1532.085
 31
0.0
  0
LINE
  5
1B1
  8
5
  6
CONTINUOUS
 10
266.8232
 20
1652.585
 30
0.0
 11
489.8306
 21
1652.585
 31
0.0
  0
LINE
  5
1B2
  8
5
  6
CONTINUOUS
 10
379.9865
 20
1652.585
 30
0.0
 11
379.9865
 21
1656.785
 31
0.0
  0
LINE
  5
1B3
  8
5
  6
CONTINUOUS
 10
404.8836
 20
1652.585
 30
0.0
 11
404.8836
 21
1656.785
 31
0.0
  0
LINE
  5
1B4
  8
5
  6
CONTINUOUS
 10
351.8201
 20
1652.585
 30
0.0
 11
351.8201
 21
1656.785
 31
0.0
  0
LINE
  5
1B5
  8
5
  6
CONTINUOUS
 10
377.8866
 20
1652.585
 30
0.0
 11
377.8866
 21
1656.785
 31
0.0
  0
LINE
  5
1B6
  8
5
  6
CONTINUOUS
 10
351.8201
 20
1656.785
 30
0.0
 11
351.8201
 21
1656.785
 31
0.0
  0
LINE
  5
1B7
  8
5
  6
CONTINUOUS
 10
379.9865
 20
1656.785
 30
0.0
 11
379.9865
 21
1656.785
 31
0.0
  0
LINE
  5
1B8
  8
5
  6
CONTINUOUS
 10
351.8201
 20
1656.785
 30
0.0
 11
351.8201
 21
1656.785
 31
0.0
  0
LINE
  5
1B9
  8
5
  6
CONTINUOUS
 10
379.9865
 20
1656.785
 30
0.0
 11
379.9865
 21
1656.785
 31
0.0
  0
LINE
  5
1BA
  8
5
  6
CONTINUOUS
 10
379.9865
 20
1656.785
 30
0.0
 11
382.5413
 21
1656.785
 31
0.0
  0
LINE
  5
1BB
  8
5
  6
CONTINUOUS
 10
382.5413
 20
1656.785
 30
0.0
 11
394.4445
 21
1656.785
 31
0.0
  0
LINE
  5
1BC
  8
5
  6
CONTINUOUS
 10
394.4445
 20
1656.785
 30
0.0
 11
404.8836
 21
1656.785
 31
0.0
  0
LINE
  5
1BD
  8
5
  6
CONTINUOUS
 10
351.8201
 20
1656.785
 30
0.0
 11
366.649
 21
1656.785
 31
0.0
  0
LINE
  5
1BE
  8
5
  6
CONTINUOUS
 10
366.649
 20
1656.785
 30
0.0
 11
377.8866
 21
1656.785
 31
0.0
  0
LINE
  5
1BF
  8
5
  6
CONTINUOUS
 10
539.3232
 20
1601.585
 30
0.0
 11
539.3232
 21
1578.585
 31
0.0
  0
LINE
  5
1C0
  8
5
  6
CONTINUOUS
 10
539.3232
 20
1601.585
 30
0.0
 11
489.8232
 21
1601.585
 31
0.0
  0
LINE
  5
1C1
  8
5
  6
CONTINUOUS
 10
489.8306
 20
1652.585
 30
0.0
 11
539.3232
 21
1601.585
 31
0.0
  0
LINE
  5
1C2
  8
5
  6
CONTINUOUS
 10
266.8232
 20
1601.585
 30
0.0
 11
217.3232
 21
1601.585
 31
0.0
  0
LINE
  5
1C3
  8
5
  6
CONTINUOUS
 10
247.8944
 20
1633.085
 30
0.0
 11
266.8232
 21
1652.585
 31
0.0
  0
LINE
  5
1C4
  8
5
  6
CONTINUOUS
 10
188.3232
 20
1633.085
 30
0.0
 11
251.3921
 21
1633.085
 31
0.0
  0
LINE
  5
1C5
  8
5
  6
CONTINUOUS
 10
187.3232
 20
1581.585
 30
0.0
 11
217.3232
 21
1581.585
 31
0.0
  0
LINE
  5
1C6
  8
5
  6
CONTINUOUS
 10
222.3232
 20
1556.585
 30
0.0
 11
222.3232
 21
1578.585
 31
0.0
  0
LINE
  5
1C7
  8
5
  6
CONTINUOUS
 10
534.8232
 20
1578.585
 30
0.0
 11
534.8232
 21
1556.585
 31
0.0
  0
LINE
  5
1C8
  8
5
  6
CONTINUOUS
 10
188.3232
 20
1581.585
 30
0.0
 11
188.3232
 21
1633.085
 31
0.0
  0
LINE
  5
1C9
  8
5
  6
CONTINUOUS
 10
217.3232
 20
1578.585
 30
0.0
 11
217.3232
 21
1601.585
 31
0.0
  0
LINE
  5
1CA
  8
5
  6
CONTINUOUS
 10
539.3232
 20
1578.585
 30
0.0
 11
217.3232
 21
1578.585
 31
0.0
  0
LINE
  5
1CB
  8
5
  6
CONTINUOUS
 10
501.3233
 20
1471.785
 30
0.0
 11
486.3233
 21
1471.785
 31
0.0
  0
LINE
  5
1CC
  8
5
  6
CONTINUOUS
 10
486.3233
 20
1471.785
 30
0.0
 11
273.3233
 21
1471.785
 31
0.0
  0
LINE
  5
1CD
  8
5
  6
CONTINUOUS
 10
273.3233
 20
1471.785
 30
0.0
 11
258.3233
 21
1471.785
 31
0.0
  0
LINE
  5
1CE
  8
5
  6
CONTINUOUS
 10
273.3232
 20
1508.085
 30
0.0
 11
273.3232
 21
1471.785
 31
0.0
  0
LINE
  5
1CF
  8
5
  6
CONTINUOUS
 10
486.3233
 20
1471.785
 30
0.0
 11
486.3232
 21
1508.085
 31
0.0
  0
LINE
  5
1D0
  8
5
  6
CONTINUOUS
 10
231.8232
 20
1532.085
 30
0.0
 11
527.8232
 21
1532.085
 31
0.0
  0
LINE
  5
1D1
  8
5
  6
CONTINUOUS
 10
382.5413
 20
1652.585
 30
0.0
 11
382.5413
 21
1656.785
 31
0.0
  0
LINE
  5
1D2
  8
5
  6
CONTINUOUS
 10
911.9417
 20
403.8128
 30
0.0
 11
911.9417
 21
592.1499
 31
0.0
  0
LINE
  5
1D3
  8
5
  6
CONTINUOUS
 10
911.9417
 20
215.4757
 30
0.0
 11
911.9417
 21
403.8128
 31
0.0
  0
LINE
  5
1D4
  8
5
  6
CONTINUOUS
 10
394.4445
 20
1652.585
 30
0.0
 11
394.4445
 21
1656.785
 31
0.0
  0
LINE
  5
1D5
  8
5
  6
CONTINUOUS
 10
366.649
 20
1652.585
 30
0.0
 11
366.649
 21
1656.785
 31
0.0
  0
LINE
  5
1D6
  8
5
  6
CONTINUOUS
 10
489.8232
 20
1601.585
 30
0.0
 11
266.8232
 21
1601.585
 31
0.0
  0
LINE
  5
1D7
  8
5
  6
CONTINUOUS
 10
489.8232
 20
1601.585
 30
0.0
 11
489.8306
 21
1652.585
 31
0.0
  0
LINE
  5
1D8
  8
5
  6
CONTINUOUS
 10
266.8232
 20
1652.585
 30
0.0
 11
266.8232
 21
1601.585
 31
0.0
  0
LINE
  5
1D9
  8
5
  6
CONTINUOUS
 10
251.3921
 20
1633.085
 30
0.0
 11
220.8232
 21
1601.585
 31
0.0
  0
LINE
  5
1DA
  8
5
  6
CONTINUOUS
 10
985.6417
 20
211.3128
 30
0.0
 11
1213.642
 21
211.3128
 31
0.0
  0
LINE
  5
1DB
  8
5
  6
CONTINUOUS
 10
1052.842
 20
428.8694
 30
0.0
 11
1044.301
 21
403.972
 31
0.0
  0
LINE
  5
1DC
  8
5
  6
CONTINUOUS
 10
1044.301
 20
403.972
 30
0.0
 11
1058.635
 21
403.9724
 31
0.0
  0
LINE
  5
1DD
  8
5
  6
CONTINUOUS
 10
1058.635
 20
403.9724
 30
0.0
 11
1058.634
 21
428.8696
 31
0.0
  0
LINE
  5
1DE
  8
5
  6
CONTINUOUS
 10
1058.634
 20
428.8696
 30
0.0
 11
1052.842
 21
428.8694
 31
0.0
  0
LINE
  5
1DF
  8
5
  6
CONTINUOUS
 10
1058.636
 20
386.5634
 30
0.0
 11
1058.636
 21
401.8723
 31
0.0
  0
LINE
  5
1E0
  8
5
  6
CONTINUOUS
 10
1058.636
 20
401.8723
 30
0.0
 11
1043.581
 21
401.8719
 31
0.0
  0
LINE
  5
1E1
  8
5
  6
CONTINUOUS
 10
1043.581
 20
401.8719
 30
0.0
 11
1034.639
 21
375.8053
 31
0.0
  0
LINE
  5
1E2
  8
5
  6
CONTINUOUS
 10
1034.639
 20
375.8053
 30
0.0
 11
1043.502
 21
375.8056
 31
0.0
  0
LINE
  5
1E3
  8
5
  6
CONTINUOUS
 10
1043.502
 20
375.8056
 30
0.0
 11
1047.192
 21
386.5631
 31
0.0
  0
LINE
  5
1E4
  8
5
  6
CONTINUOUS
 10
1047.192
 20
386.5631
 30
0.0
 11
1058.636
 21
386.5634
 31
0.0
  0
LINE
  5
1E5
  8
5
  6
CONTINUOUS
 10
1060.735
 20
403.9724
 30
0.0
 11
1075.415
 21
403.9729
 31
0.0
  0
LINE
  5
1E6
  8
5
  6
CONTINUOUS
 10
1075.415
 20
403.9729
 30
0.0
 11
1066.527
 21
428.8699
 31
0.0
  0
LINE
  5
1E7
  8
5
  6
CONTINUOUS
 10
545.2117
 20
1416.193
 30
0.0
 11
570.2441
 21
1435.056
 31
0.0
  0
LINE
  5
1E8
  8
5
  6
CONTINUOUS
 10
570.2441
 20
1435.056
 30
0.0
 11
583.1164
 21
1444.756
 31
0.0
  0
LINE
  5
1E9
  8
5
  6
CONTINUOUS
 10
600.7941
 20
1427.078
 30
0.0
 11
592.3219
 21
1412.978
 31
0.0
  0
LINE
  5
1EA
  8
5
  6
CONTINUOUS
 10
592.3219
 20
1412.978
 30
0.0
 11
575.8462
 21
1385.558
 31
0.0
  0
LINE
  5
1EB
  8
5
  6
CONTINUOUS
 10
583.1164
 20
1444.756
 30
0.0
 11
600.7941
 21
1427.078
 31
0.0
  0
LINE
  5
1EC
  8
5
  6
CONTINUOUS
 10
499.1624
 20
1459.285
 30
0.0
 11
494.6232
 21
1463.785
 31
0.0
  0
LINE
  5
1ED
  8
5
  6
CONTINUOUS
 10
264.9232
 20
1463.686
 30
0.0
 11
260.4841
 21
1459.285
 31
0.0
  0
LINE
  5
1EE
  8
5
  6
CONTINUOUS
 10
265.0232
 20
1463.785
 30
0.0
 11
264.9232
 21
1463.686
 31
0.0
  0
LINE
  5
1EF
  8
5
  6
CONTINUOUS
 10
1066.527
 20
428.8699
 30
0.0
 11
1060.735
 21
428.8697
 31
0.0
  0
LINE
  5
1F0
  8
5
  6
CONTINUOUS
 10
476.1232
 20
1463.785
 30
0.0
 11
494.4232
 21
1463.785
 31
0.0
  0
LINE
  5
1F1
  8
5
  6
CONTINUOUS
 10
444.1232
 20
1463.785
 30
0.0
 11
459.1232
 21
1463.785
 31
0.0
  0
LINE
  5
1F2
  8
5
  6
CONTINUOUS
 10
414.2232
 20
1463.785
 30
0.0
 11
429.1232
 21
1463.785
 31
0.0
  0
LINE
  5
1F3
  8
5
  6
CONTINUOUS
 10
379.7232
 20
1463.785
 30
0.0
 11
397.0232
 21
1463.785
 31
0.0
  0
LINE
  5
1F4
  8
5
  6
CONTINUOUS
 10
345.2232
 20
1463.785
 30
0.0
 11
362.4232
 21
1463.785
 31
0.0
  0
LINE
  5
1F5
  8
5
  6
CONTINUOUS
 10
315.3232
 20
1463.785
 30
0.0
 11
330.3232
 21
1463.785
 31
0.0
  0
LINE
  5
1F6
  8
5
  6
CONTINUOUS
 10
283.3232
 20
1463.785
 30
0.0
 11
300.3232
 21
1463.785
 31
0.0
  0
LINE
  5
1F7
  8
5
  6
CONTINUOUS
 10
494.4232
 20
1463.785
 30
0.0
 11
494.6232
 21
1463.785
 31
0.0
  0
LINE
  5
1F8
  8
5
  6
CONTINUOUS
 10
459.1232
 20
1463.785
 30
0.0
 11
476.1232
 21
1463.785
 31
0.0
  0
LINE
  5
1F9
  8
5
  6
CONTINUOUS
 10
429.1232
 20
1463.785
 30
0.0
 11
444.1232
 21
1463.785
 31
0.0
  0
LINE
  5
1FA
  8
5
  6
CONTINUOUS
 10
397.0232
 20
1463.785
 30
0.0
 11
414.2232
 21
1463.785
 31
0.0
  0
LINE
  5
1FB
  8
5
  6
CONTINUOUS
 10
362.4232
 20
1463.785
 30
0.0
 11
379.7232
 21
1463.785
 31
0.0
  0
LINE
  5
1FC
  8
5
  6
CONTINUOUS
 10
330.3232
 20
1463.785
 30
0.0
 11
345.2232
 21
1463.785
 31
0.0
  0
LINE
  5
1FD
  8
5
  6
CONTINUOUS
 10
300.3232
 20
1463.785
 30
0.0
 11
315.3232
 21
1463.785
 31
0.0
  0
LINE
  5
1FE
  8
5
  6
CONTINUOUS
 10
265.0232
 20
1463.785
 30
0.0
 11
283.3232
 21
1463.785
 31
0.0
  0
LINE
  5
1FF
  8
5
  6
CONTINUOUS
 10
1060.735
 20
428.8697
 30
0.0
 11
1060.735
 21
403.9724
 31
0.0
  0
LINE
  5
200
  8
5
  6
CONTINUOUS
 10
1076.165
 20
401.873
 30
0.0
 11
1060.735
 21
401.8725
 31
0.0
  0
LINE
  5
201
  8
5
  6
CONTINUOUS
 10
1060.735
 20
401.8725
 30
0.0
 11
1060.736
 21
386.5636
 31
0.0
  0
LINE
  5
202
  8
5
  6
CONTINUOUS
 10
615.3232
 20
1104.533
 30
0.0
 11
619.8232
 21
1109.085
 31
0.0
  0
LINE
  5
203
  8
5
  6
CONTINUOUS
 10
619.8232
 20
1338.485
 30
0.0
 11
615.3232
 21
1343.037
 31
0.0
  0
LINE
  5
204
  8
5
  6
CONTINUOUS
 10
1060.736
 20
386.5636
 30
0.0
 11
1072.129
 21
386.5638
 31
0.0
  0
LINE
  5
205
  8
5
  6
CONTINUOUS
 10
1072.129
 20
386.5638
 30
0.0
 11
1075.97
 21
375.8067
 31
0.0
  0
LINE
  5
206
  8
5
  6
CONTINUOUS
 10
1075.97
 20
375.8067
 30
0.0
 11
1085.47
 21
375.807
 31
0.0
  0
LINE
  5
207
  8
5
  6
CONTINUOUS
 10
1085.47
 20
375.807
 30
0.0
 11
1076.165
 21
401.873
 31
0.0
  0
LINE
  5
208
  8
5
  6
CONTINUOUS
 10
1109.534
 20
428.8714
 30
0.0
 11
1095.756
 21
428.8709
 31
0.0
  0
LINE
  5
209
  8
5
  6
CONTINUOUS
 10
139.8232
 20
1108.685
 30
0.0
 11
144.3232
 21
1104.237
 31
0.0
  0
LINE
  5
20A
  8
5
  6
CONTINUOUS
 10
1095.756
 20
428.8709
 30
0.0
 11
1095.757
 21
403.9736
 31
0.0
  0
LINE
  5
20B
  8
5
  6
CONTINUOUS
 10
1095.757
 20
403.9735
 30
0.0
 11
1109.535
 21
403.9742
 31
0.0
  0
LINE
  5
20C
  8
5
  6
CONTINUOUS
 10
144.3232
 20
1343.037
 30
0.0
 11
139.8232
 21
1338.485
 31
0.0
  0
LINE
  5
20D
  8
5
  6
CONTINUOUS
 10
1109.535
 20
403.9742
 30
0.0
 11
1109.534
 21
428.8714
 31
0.0
  0
LINE
  5
20E
  8
5
  6
CONTINUOUS
 10
1109.535
 20
401.8741
 30
0.0
 11
1095.757
 21
401.8736
 31
0.0
  0
LINE
  5
20F
  8
5
  6
CONTINUOUS
 10
619.8232
 20
1223.785
 30
0.0
 11
619.8232
 21
1206.485
 31
0.0
  0
LINE
  5
210
  8
5
  6
CONTINUOUS
 10
619.8232
 20
1258.285
 30
0.0
 11
619.8232
 21
1241.085
 31
0.0
  0
LINE
  5
211
  8
5
  6
CONTINUOUS
 10
619.8232
 20
1288.185
 30
0.0
 11
619.8232
 21
1273.285
 31
0.0
  0
LINE
  5
212
  8
5
  6
CONTINUOUS
 10
619.8232
 20
1320.185
 30
0.0
 11
619.8232
 21
1303.185
 31
0.0
  0
LINE
  5
213
  8
5
  6
CONTINUOUS
 10
619.8232
 20
1189.285
 30
0.0
 11
619.8232
 21
1174.385
 31
0.0
  0
LINE
  5
214
  8
5
  6
CONTINUOUS
 10
619.8232
 20
1159.385
 30
0.0
 11
619.8232
 21
1144.385
 31
0.0
  0
LINE
  5
215
  8
5
  6
CONTINUOUS
 10
619.8232
 20
1127.385
 30
0.0
 11
619.8232
 21
1109.085
 31
0.0
  0
LINE
  5
216
  8
5
  6
CONTINUOUS
 10
619.8232
 20
1206.485
 30
0.0
 11
619.8232
 21
1189.285
 31
0.0
  0
LINE
  5
217
  8
5
  6
CONTINUOUS
 10
619.8232
 20
1241.085
 30
0.0
 11
619.8232
 21
1223.785
 31
0.0
  0
LINE
  5
218
  8
5
  6
CONTINUOUS
 10
619.8232
 20
1273.285
 30
0.0
 11
619.8232
 21
1258.285
 31
0.0
  0
LINE
  5
219
  8
5
  6
CONTINUOUS
 10
619.8232
 20
1303.185
 30
0.0
 11
619.8232
 21
1288.185
 31
0.0
  0
LINE
  5
21A
  8
5
  6
CONTINUOUS
 10
619.8232
 20
1338.485
 30
0.0
 11
619.8232
 21
1320.185
 31
0.0
  0
LINE
  5
21B
  8
5
  6
CONTINUOUS
 10
619.8232
 20
1174.385
 30
0.0
 11
619.8232
 21
1159.385
 31
0.0
  0
LINE
  5
21C
  8
5
  6
CONTINUOUS
 10
619.8232
 20
1144.385
 30
0.0
 11
619.8232
 21
1127.385
 31
0.0
  0
LINE
  5
21D
  8
5
  6
CONTINUOUS
 10
139.8232
 20
1109.085
 30
0.0
 11
139.8232
 21
1127.385
 31
0.0
  0
LINE
  5
21E
  8
5
  6
CONTINUOUS
 10
139.8232
 20
1144.385
 30
0.0
 11
139.8232
 21
1159.385
 31
0.0
  0
LINE
  5
21F
  8
5
  6
CONTINUOUS
 10
139.8232
 20
1174.385
 30
0.0
 11
139.8232
 21
1189.285
 31
0.0
  0
LINE
  5
220
  8
5
  6
CONTINUOUS
 10
139.8232
 20
1303.185
 30
0.0
 11
139.8232
 21
1320.185
 31
0.0
  0
LINE
  5
221
  8
5
  6
CONTINUOUS
 10
139.8232
 20
1273.285
 30
0.0
 11
139.8232
 21
1288.185
 31
0.0
  0
LINE
  5
222
  8
5
  6
CONTINUOUS
 10
139.8232
 20
1241.085
 30
0.0
 11
139.8232
 21
1258.285
 31
0.0
  0
LINE
  5
223
  8
5
  6
CONTINUOUS
 10
139.8232
 20
1206.485
 30
0.0
 11
139.8232
 21
1223.785
 31
0.0
  0
LINE
  5
224
  8
5
  6
CONTINUOUS
 10
139.8232
 20
1127.385
 30
0.0
 11
139.8232
 21
1144.385
 31
0.0
  0
LINE
  5
225
  8
5
  6
CONTINUOUS
 10
139.8232
 20
1108.685
 30
0.0
 11
139.8232
 21
1109.085
 31
0.0
  0
LINE
  5
226
  8
5
  6
CONTINUOUS
 10
139.8232
 20
1159.385
 30
0.0
 11
139.8232
 21
1174.385
 31
0.0
  0
LINE
  5
227
  8
5
  6
CONTINUOUS
 10
139.8232
 20
1189.285
 30
0.0
 11
139.8232
 21
1206.485
 31
0.0
  0
LINE
  5
228
  8
5
  6
CONTINUOUS
 10
139.8232
 20
1320.185
 30
0.0
 11
139.8232
 21
1338.485
 31
0.0
  0
LINE
  5
229
  8
5
  6
CONTINUOUS
 10
139.8232
 20
1288.185
 30
0.0
 11
139.8232
 21
1303.185
 31
0.0
  0
LINE
  5
22A
  8
5
  6
CONTINUOUS
 10
139.8232
 20
1258.285
 30
0.0
 11
139.8232
 21
1273.285
 31
0.0
  0
LINE
  5
22B
  8
5
  6
CONTINUOUS
 10
139.8232
 20
1223.785
 30
0.0
 11
139.8232
 21
1241.085
 31
0.0
  0
LINE
  5
22C
  8
5
  6
CONTINUOUS
 10
1095.757
 20
401.8736
 30
0.0
 11
1095.758
 21
375.8074
 31
0.0
  0
LINE
  5
22D
  8
5
  6
CONTINUOUS
 10
1095.758
 20
375.8074
 30
0.0
 11
1109.536
 21
375.8079
 31
0.0
  0
LINE
  5
22E
  8
5
  6
CONTINUOUS
 10
1109.536
 20
375.8079
 30
0.0
 11
1109.535
 21
401.8741
 31
0.0
  0
LINE
  5
22F
  8
5
  6
CONTINUOUS
 10
1126.212
 20
401.8747
 30
0.0
 11
1111.635
 21
401.8741
 31
0.0
  0
LINE
  5
230
  8
5
  6
CONTINUOUS
 10
1111.635
 20
401.8741
 30
0.0
 11
1111.636
 21
375.8079
 31
0.0
  0
LINE
  5
231
  8
5
  6
CONTINUOUS
 10
158.8524
 20
1427.078
 30
0.0
 11
176.53
 21
1444.756
 31
0.0
  0
LINE
  5
232
  8
5
  6
CONTINUOUS
 10
1111.636
 20
375.8079
 30
0.0
 11
1116.438
 21
375.8082
 31
0.0
  0
ARC
  5
233
  8
5
  6
CONTINUOUS
 10
1116.438
 20
390.6365
 30
0.0
 40
14.82839
 50
270.002
 51
0.0019
  0
LINE
  5
234
  8
5
  6
CONTINUOUS
 10
167.3245
 20
1412.978
 30
0.0
 11
183.8002
 21
1385.558
 31
0.0
  0
ARC
  5
235
  8
5
  6
CONTINUOUS
 10
1114.452
 20
389.8306
 30
0.0
 40
16.83332
 50
2.745839
 51
45.68338
  0
LINE
  5
236
  8
5
  6
CONTINUOUS
 10
167.3245
 20
1412.978
 30
0.0
 11
158.8524
 21
1427.078
 31
0.0
  0
LINE
  5
237
  8
5
  6
CONTINUOUS
 10
176.53
 20
1444.756
 30
0.0
 11
189.4023
 21
1435.056
 31
0.0
  0
LINE
  5
238
  8
5
  6
CONTINUOUS
 10
1111.635
 20
403.9742
 30
0.0
 11
1123.579
 21
403.9746
 31
0.0
  0
LINE
  5
239
  8
5
  6
CONTINUOUS
 10
214.4348
 20
1416.193
 30
0.0
 11
189.4023
 21
1435.056
 31
0.0
  0
CIRCLE
  5
23A
  8
5
  6
CONTINUOUS
 10
379.8232
 20
1223.785
 30
0.0
 40
140.0
  0
LINE
  5
23B
  8
5
  6
CONTINUOUS
 10
144.3232
 20
1101.489
 30
0.0
 11
257.5272
 21
988.2853
 31
0.0
  0
LINE
  5
23C
  8
5
  6
CONTINUOUS
 10
257.5272
 20
988.2853
 30
0.0
 11
502.1193
 21
988.2853
 31
0.0
  0
LINE
  5
23D
  8
5
  6
CONTINUOUS
 10
502.1193
 20
988.2853
 30
0.0
 11
615.3232
 21
1101.489
 31
0.0
  0
LINE
  5
23E
  8
5
  6
CONTINUOUS
 10
615.3232
 20
1101.489
 30
0.0
 11
615.3232
 21
1346.081
 31
0.0
  0
LINE
  5
23F
  8
5
  6
CONTINUOUS
 10
615.3232
 20
1346.081
 30
0.0
 11
502.1193
 21
1459.285
 31
0.0
  0
LINE
  5
240
  8
5
  6
CONTINUOUS
 10
502.1193
 20
1459.285
 30
0.0
 11
257.5272
 21
1459.285
 31
0.0
  0
LINE
  5
241
  8
5
  6
CONTINUOUS
 10
257.5272
 20
1459.285
 30
0.0
 11
144.3232
 21
1346.081
 31
0.0
  0
LINE
  5
242
  8
5
  6
CONTINUOUS
 10
144.3232
 20
1101.489
 30
0.0
 11
144.3232
 21
1346.081
 31
0.0
  0
LINE
  5
243
  8
5
  6
CONTINUOUS
 10
258.7699
 20
1456.285
 30
0.0
 11
147.3233
 21
1344.839
 31
0.0
  0
LINE
  5
244
  8
5
  6
CONTINUOUS
 10
500.8767
 20
1456.285
 30
0.0
 11
258.7699
 21
1456.285
 31
0.0
  0
LINE
  5
245
  8
5
  6
CONTINUOUS
 10
612.3233
 20
1344.839
 30
0.0
 11
500.8767
 21
1456.285
 31
0.0
  0
LINE
  5
246
  8
5
  6
CONTINUOUS
 10
612.3233
 20
1102.732
 30
0.0
 11
612.3233
 21
1344.839
 31
0.0
  0
LINE
  5
247
  8
5
  6
CONTINUOUS
 10
500.8767
 20
991.2853
 30
0.0
 11
612.3233
 21
1102.732
 31
0.0
  0
LINE
  5
248
  8
5
  6
CONTINUOUS
 10
258.7699
 20
991.2853
 30
0.0
 11
500.8767
 21
991.2853
 31
0.0
  0
LINE
  5
249
  8
5
  6
CONTINUOUS
 10
147.3233
 20
1102.732
 30
0.0
 11
258.7699
 21
991.2853
 31
0.0
  0
LINE
  5
24A
  8
5
  6
CONTINUOUS
 10
147.3233
 20
1102.732
 30
0.0
 11
147.3233
 21
1344.839
 31
0.0
  0
ARC
  5
24B
  8
5
  6
CONTINUOUS
 10
1114.452
 20
389.8306
 30
0.0
 40
16.83334
 50
57.16511
 51
82.74766
  0
ARC
  5
24C
  8
5
  6
CONTINUOUS
 10
1113.406
 20
419.6804
 30
0.0
 40
13.5281
 50
283.5581
 51
354.7072
  0
ARC
  5
24D
  8
5
  6
CONTINUOUS
 10
1116.437
 20
418.4321
 30
0.0
 40
10.43949
 50
0.001947
 51
90.00195
  0
LINE
  5
24E
  8
5
  6
CONTINUOUS
 10
1116.436
 20
428.8716
 30
0.0
 11
1111.634
 21
428.8715
 31
0.0
  0
LINE
  5
24F
  8
5
  6
CONTINUOUS
 10
1111.634
 20
428.8715
 30
0.0
 11
1111.635
 21
403.9742
 31
0.0
  0
LINE
  5
250
  8
5
  6
CONTINUOUS
 10
1141.402
 20
403.9753
 30
0.0
 11
1155.181
 21
403.9757
 31
0.0
  0
LINE
  5
251
  8
5
  6
CONTINUOUS
 10
1155.181
 20
403.9757
 30
0.0
 11
1155.18
 21
428.8729
 31
0.0
  0
LINE
  5
252
  8
5
  6
CONTINUOUS
 10
1155.18
 20
428.8729
 30
0.0
 11
1141.401
 21
428.8725
 31
0.0
  0
LINE
  5
253
  8
5
  6
CONTINUOUS
 10
1141.401
 20
428.8725
 30
0.0
 11
1141.402
 21
403.9753
 31
0.0
  0
LINE
  5
254
  8
5
  6
CONTINUOUS
 10
1157.281
 20
403.9757
 30
0.0
 11
1169.225
 21
403.9762
 31
0.0
  0
ARC
  5
255
  8
5
  6
CONTINUOUS
 10
1160.098
 20
389.8322
 30
0.0
 40
16.83337
 50
57.16491
 51
82.74766
  0
ARC
  5
256
  8
5
  6
CONTINUOUS
 10
1159.051
 20
419.6819
 30
0.0
 40
13.5281
 50
283.5581
 51
354.7072
  0
ARC
  5
257
  8
5
  6
CONTINUOUS
 10
1162.082
 20
418.4337
 30
0.0
 40
10.43949
 50
0.001947
 51
90.00195
  0
LINE
  5
258
  8
5
  6
CONTINUOUS
 10
1162.082
 20
428.8732
 30
0.0
 11
1157.28
 21
428.873
 31
0.0
  0
LINE
  5
259
  8
5
  6
CONTINUOUS
 10
1157.28
 20
428.873
 30
0.0
 11
1157.281
 21
403.9757
 31
0.0
  0
LINE
  5
25A
  8
5
  6
CONTINUOUS
 10
1157.281
 20
401.8758
 30
0.0
 11
1157.282
 21
375.8095
 31
0.0
  0
LINE
  5
25B
  8
5
  6
CONTINUOUS
 10
1157.282
 20
375.8095
 30
0.0
 11
1162.084
 21
375.8097
 31
0.0
  0
ARC
  5
25C
  8
5
  6
CONTINUOUS
 10
1162.083
 20
390.6381
 30
0.0
 40
14.82841
 50
270.0022
 51
0.0019
  0
ARC
  5
25D
  8
5
  6
CONTINUOUS
 10
1160.098
 20
389.8322
 30
0.0
 40
16.83332
 50
2.745839
 51
45.68319
  0
LINE
  5
25E
  8
5
  6
CONTINUOUS
 10
1171.858
 20
401.8762
 30
0.0
 11
1157.281
 21
401.8758
 31
0.0
  0
LINE
  5
25F
  8
5
  6
CONTINUOUS
 10
1141.402
 20
401.8752
 30
0.0
 11
1155.181
 21
401.8756
 31
0.0
  0
LINE
  5
260
  8
5
  6
CONTINUOUS
 10
1141.402
 20
401.8752
 30
0.0
 11
1141.403
 21
375.8088
 31
0.0
  0
LINE
  5
261
  8
5
  6
CONTINUOUS
 10
1141.403
 20
375.8088
 30
0.0
 11
1155.182
 21
375.8095
 31
0.0
  0
LINE
  5
262
  8
5
  6
CONTINUOUS
 10
1155.182
 20
375.8095
 30
0.0
 11
1155.181
 21
401.8756
 31
0.0
  0
LINE
  5
263
  8
5
  6
CONTINUOUS
 10
1259.142
 20
290.8128
 30
0.0
 11
1259.142
 21
241.3128
 31
0.0
  0
LINE
  5
264
  8
5
  6
CONTINUOUS
 10
1259.142
 20
563.3128
 30
0.0
 11
1259.142
 21
513.8128
 31
0.0
  0
LINE
  5
265
  8
5
  6
CONTINUOUS
 10
1259.142
 20
513.8128
 30
0.0
 11
1259.142
 21
290.8128
 31
0.0
  0
LINE
  5
266
  8
5
  6
CONTINUOUS
 10
940.1417
 20
563.3128
 30
0.0
 11
989.6417
 21
563.3128
 31
0.0
  0
LINE
  5
267
  8
5
  6
CONTINUOUS
 10
989.6417
 20
563.3128
 30
0.0
 11
1209.642
 21
563.3128
 31
0.0
  0
LINE
  5
268
  8
5
  6
CONTINUOUS
 10
911.9416
 20
579.4628
 30
0.0
 11
901.9417
 21
579.4628
 31
0.0
  0
LINE
  5
269
  8
5
  6
CONTINUOUS
 10
901.9416
 20
228.1628
 30
0.0
 11
911.9416
 21
228.1628
 31
0.0
  0
LINE
  5
26A
  8
5
  6
CONTINUOUS
 10
911.9417
 20
215.4757
 30
0.0
 11
925.9417
 21
196.2062
 31
0.0
  0
LINE
  5
26B
  8
5
  6
CONTINUOUS
 10
925.9417
 20
611.4193
 30
0.0
 11
911.9417
 21
592.1499
 31
0.0
  0
LINE
  5
26C
  8
5
  6
CONTINUOUS
 10
901.9417
 20
479.8686
 30
0.0
 11
900.344
 21
479.8128
 31
0.0
  0
LINE
  5
26D
  8
5
  6
CONTINUOUS
 10
900.344
 20
327.8128
 30
0.0
 11
901.9417
 21
327.757
 31
0.0
  0
LINE
  5
26E
  8
5
  6
CONTINUOUS
 10
1209.642
 20
563.3128
 30
0.0
 11
1259.142
 21
563.3128
 31
0.0
  0
LINE
  5
26F
  8
5
  6
CONTINUOUS
 10
940.1417
 20
513.8128
 30
0.0
 11
940.1417
 21
563.3128
 31
0.0
  0
LINE
  5
270
  8
5
  6
CONTINUOUS
 10
940.1417
 20
241.3128
 30
0.0
 11
940.1417
 21
290.8128
 31
0.0
  0
LINE
  5
271
  8
5
  6
CONTINUOUS
 10
940.1417
 20
290.8128
 30
0.0
 11
940.1417
 21
513.8128
 31
0.0
  0
LINE
  5
272
  8
5
  6
CONTINUOUS
 10
985.6417
 20
241.3128
 30
0.0
 11
985.6417
 21
211.3128
 31
0.0
  0
LINE
  5
273
  8
5
  6
CONTINUOUS
 10
1213.642
 20
211.3128
 30
0.0
 11
1213.642
 21
241.3128
 31
0.0
  0
LINE
  5
274
  8
5
  6
CONTINUOUS
 10
986.1417
 20
212.3128
 30
0.0
 11
1213.142
 21
212.3128
 31
0.0
  0
LINE
  5
275
  8
5
  6
CONTINUOUS
 10
986.1417
 20
241.3128
 30
0.0
 11
940.1417
 21
241.3128
 31
0.0
  0
LINE
  5
276
  8
5
  6
CONTINUOUS
 10
1259.142
 20
241.3128
 30
0.0
 11
1213.142
 21
241.3128
 31
0.0
  0
LINE
  5
277
  8
5
  6
CONTINUOUS
 10
986.1417
 20
275.3817
 30
0.0
 11
986.1417
 21
212.3128
 31
0.0
  0
LINE
  5
278
  8
5
  6
CONTINUOUS
 10
1213.142
 20
212.3128
 30
0.0
 11
1213.142
 21
275.3817
 31
0.0
  0
LINE
  5
279
  8
5
  6
CONTINUOUS
 10
259.2121
 20
1459.285
 30
0.0
 11
259.6486
 21
1471.785
 31
0.0
  0
LINE
  5
27A
  8
5
  6
CONTINUOUS
 10
989.6417
 20
290.8053
 30
0.0
 11
1209.642
 21
290.8053
 31
0.0
  0
LINE
  5
27B
  8
5
  6
CONTINUOUS
 10
499.9978
 20
1471.785
 30
0.0
 11
500.4343
 21
1459.285
 31
0.0
  0
LINE
  5
27C
  8
5
  6
CONTINUOUS
 10
1209.642
 20
290.8053
 30
0.0
 11
1209.642
 21
513.8202
 31
0.0
  0
LINE
  5
27D
  8
5
  6
CONTINUOUS
 10
1209.642
 20
513.8202
 30
0.0
 11
989.6342
 21
513.8127
 31
0.0
  0
LINE
  5
27E
  8
5
  6
CONTINUOUS
 10
989.6342
 20
513.8127
 30
0.0
 11
989.6417
 21
290.8053
 31
0.0
  0
ARC
  5
27F
  8
5
  6
CONTINUOUS
 10
2092.959
 20
1223.785
 30
0.0
 40
175.65
 50
263.7902
 51
276.2098
  0
LINE
  5
280
  8
5
  6
CONTINUOUS
 10
1259.142
 20
513.8128
 30
0.0
 11
1209.642
 21
563.3128
 31
0.0
  0
LINE
  5
281
  8
5
  6
CONTINUOUS
 10
989.6417
 20
563.3128
 30
0.0
 11
940.1417
 21
513.8128
 31
0.0
  0
LINE
  5
282
  8
5
  6
CONTINUOUS
 10
1209.642
 20
513.8202
 30
0.0
 11
1209.642
 21
563.3128
 31
0.0
  0
LINE
  5
283
  8
5
  6
CONTINUOUS
 10
1259.142
 20
513.8128
 30
0.0
 11
1209.642
 21
513.8202
 31
0.0
  0
LINE
  5
284
  8
5
  6
CONTINUOUS
 10
1209.642
 20
290.8053
 30
0.0
 11
1259.142
 21
290.8128
 31
0.0
  0
LINE
  5
285
  8
5
  6
CONTINUOUS
 10
989.6342
 20
513.8127
 30
0.0
 11
940.1417
 21
513.8128
 31
0.0
  0
LINE
  5
286
  8
5
  6
CONTINUOUS
 10
989.6417
 20
563.3128
 30
0.0
 11
989.6342
 21
513.8127
 31
0.0
  0
LINE
  5
287
  8
5
  6
CONTINUOUS
 10
940.1417
 20
290.8128
 30
0.0
 11
989.6417
 21
290.8053
 31
0.0
  0
LINE
  5
288
  8
5
  6
CONTINUOUS
 10
1213.142
 20
244.8128
 30
0.0
 11
1259.142
 21
290.8128
 31
0.0
  0
LINE
  5
289
  8
5
  6
CONTINUOUS
 10
940.1417
 20
290.8128
 30
0.0
 11
986.1417
 21
244.8128
 31
0.0
  0
LINE
  5
28A
  8
5
  6
CONTINUOUS
 10
1209.642
 20
271.884
 30
0.0
 11
1209.642
 21
290.8053
 31
0.0
  0
LINE
  5
28B
  8
5
  6
CONTINUOUS
 10
1209.642
 20
271.884
 30
0.0
 11
1213.142
 21
275.3817
 31
0.0
  0
LINE
  5
28C
  8
5
  6
CONTINUOUS
 10
986.1417
 20
275.3817
 30
0.0
 11
989.6417
 21
271.884
 31
0.0
  0
LINE
  5
28D
  8
5
  6
CONTINUOUS
 10
989.6417
 20
290.8053
 30
0.0
 11
989.6417
 21
271.884
 31
0.0
  0
LINE
  5
28E
  8
5
  6
CONTINUOUS
 10
989.6417
 20
271.884
 30
0.0
 11
1209.642
 21
271.884
 31
0.0
  0
LINE
  5
28F
  8
5
  6
CONTINUOUS
 10
2214.459
 20
1508.085
 30
0.0
 11
2214.459
 21
1471.785
 31
0.0
  0
LINE
  5
290
  8
5
  6
CONTINUOUS
 10
1971.459
 20
1471.785
 30
0.0
 11
1971.459
 21
1508.085
 31
0.0
  0
LINE
  5
291
  8
5
  6
CONTINUOUS
 10
2216.959
 20
1508.085
 30
0.0
 11
1968.959
 21
1508.085
 31
0.0
  0
LINE
  5
292
  8
5
  6
CONTINUOUS
 10
2240.959
 20
1533.585
 30
0.0
 11
2285.459
 21
1533.585
 31
0.0
  0
LINE
  5
293
  8
5
  6
CONTINUOUS
 10
2240.959
 20
1532.085
 30
0.0
 11
2240.959
 21
1556.585
 31
0.0
  0
LINE
  5
294
  8
5
  6
CONTINUOUS
 10
2250.459
 20
1556.585
 30
0.0
 11
1937.959
 21
1556.585
 31
0.0
  0
LINE
  5
295
  8
5
  6
CONTINUOUS
 10
2285.459
 20
1581.585
 30
0.0
 11
2285.459
 21
1533.585
 31
0.0
  0
LINE
  5
296
  8
5
  6
CONTINUOUS
 10
2240.959
 20
1532.085
 30
0.0
 11
2216.959
 21
1508.085
 31
0.0
  0
LINE
  5
297
  8
5
  6
CONTINUOUS
 10
1968.959
 20
1508.085
 30
0.0
 11
1944.959
 21
1532.085
 31
0.0
  0
LINE
  5
298
  8
5
  6
CONTINUOUS
 10
1944.959
 20
1532.085
 30
0.0
 11
1944.959
 21
1556.585
 31
0.0
  0
LINE
  5
299
  8
5
  6
CONTINUOUS
 10
1982.959
 20
1652.585
 30
0.0
 11
2205.966
 21
1652.585
 31
0.0
  0
LINE
  5
29A
  8
5
  6
CONTINUOUS
 10
2092.799
 20
1652.585
 30
0.0
 11
2092.799
 21
1656.785
 31
0.0
  0
LINE
  5
29B
  8
5
  6
CONTINUOUS
 10
2067.902
 20
1656.785
 30
0.0
 11
2067.902
 21
1652.585
 31
0.0
  0
LINE
  5
29C
  8
5
  6
CONTINUOUS
 10
2094.9
 20
1652.585
 30
0.0
 11
2094.9
 21
1656.785
 31
0.0
  0
LINE
  5
29D
  8
5
  6
CONTINUOUS
 10
2120.966
 20
1652.585
 30
0.0
 11
2120.966
 21
1656.785
 31
0.0
  0
LINE
  5
29E
  8
5
  6
CONTINUOUS
 10
2094.9
 20
1652.585
 30
0.0
 11
2094.9
 21
1652.585
 31
0.0
  0
LINE
  5
29F
  8
5
  6
CONTINUOUS
 10
2067.902
 20
1656.785
 30
0.0
 11
2092.799
 21
1656.785
 31
0.0
  0
LINE
  5
2A0
  8
5
  6
CONTINUOUS
 10
2094.9
 20
1656.785
 30
0.0
 11
2120.966
 21
1656.785
 31
0.0
  0
LINE
  5
2A1
  8
5
  6
CONTINUOUS
 10
901.9417
 20
579.4628
 30
0.0
 11
901.9417
 21
403.8128
 31
0.0
  0
LINE
  5
2A2
  8
5
  6
CONTINUOUS
 10
901.9417
 20
403.8128
 30
0.0
 11
901.9416
 21
228.1628
 31
0.0
  0
LINE
  5
2A3
  8
5
  6
CONTINUOUS
 10
904.8417
 20
152.8128
 30
0.0
 11
907.8417
 21
152.8128
 31
0.0
  0
LINE
  5
2A4
  8
5
  6
CONTINUOUS
 10
1913.86
 20
1426.524
 30
0.0
 11
1913.86
 21
1426.524
 31
0.0
  0
LINE
  5
2A5
  8
5
  6
CONTINUOUS
 10
592.3219
 20
1412.978
 30
0.0
 11
570.2441
 21
1435.056
 31
0.0
  0
LINE
  5
2A6
  8
5
  6
CONTINUOUS
 10
892.6417
 20
403.8128
 30
0.0
 11
892.6417
 21
338.8128
 31
0.0
  0
LINE
  5
2A7
  8
5
  6
CONTINUOUS
 10
892.6417
 20
468.8128
 30
0.0
 11
892.6417
 21
403.8128
 31
0.0
  0
LINE
  5
2A8
  8
5
  6
CONTINUOUS
 10
1421.142
 20
168.3128
 30
0.0
 11
1421.142
 21
162.8128
 31
0.0
  0
LINE
  5
2A9
  8
5
  6
CONTINUOUS
 10
974.1417
 20
162.8128
 30
0.0
 11
974.1417
 21
163.8128
 31
0.0
  0
LINE
  5
2AA
  8
5
  6
CONTINUOUS
 10
1077.642
 20
162.8128
 30
0.0
 11
974.1417
 21
162.8128
 31
0.0
  0
LINE
  5
2AB
  8
5
  6
CONTINUOUS
 10
1077.642
 20
162.8128
 30
0.0
 11
1317.642
 21
162.8128
 31
0.0
  0
LINE
  5
2AC
  8
5
  6
CONTINUOUS
 10
1421.142
 20
162.8128
 30
0.0
 11
1317.642
 21
162.8128
 31
0.0
  0
LINE
  5
2AD
  8
5
  6
CONTINUOUS
 10
1421.142
 20
639.3128
 30
0.0
 11
1421.142
 21
644.8128
 31
0.0
  0
LINE
  5
2AE
  8
5
  6
CONTINUOUS
 10
974.1417
 20
644.8128
 30
0.0
 11
974.1417
 21
643.8128
 31
0.0
  0
LINE
  5
2AF
  8
5
  6
CONTINUOUS
 10
1077.642
 20
644.8128
 30
0.0
 11
974.1417
 21
644.8128
 31
0.0
  0
LINE
  5
2B0
  8
5
  6
CONTINUOUS
 10
264.9232
 20
1459.285
 30
0.0
 11
264.9232
 21
1463.686
 31
0.0
  0
LINE
  5
2B1
  8
5
  6
CONTINUOUS
 10
1077.642
 20
644.8128
 30
0.0
 11
1317.642
 21
644.8128
 31
0.0
  0
LINE
  5
2B2
  8
5
  6
CONTINUOUS
 10
494.4232
 20
1463.785
 30
0.0
 11
494.4232
 21
1459.285
 31
0.0
  0
LINE
  5
2B3
  8
5
  6
CONTINUOUS
 10
1421.142
 20
644.8128
 30
0.0
 11
1317.642
 21
644.8128
 31
0.0
  0
LINE
  5
2B4
  8
5
  6
CONTINUOUS
 10
300.3232
 20
1459.285
 30
0.0
 11
300.3231
 21
1463.785
 31
0.0
  0
LINE
  5
2B5
  8
5
  6
CONTINUOUS
 10
283.3232
 20
1463.785
 30
0.0
 11
283.3232
 21
1459.285
 31
0.0
  0
LINE
  5
2B6
  8
5
  6
CONTINUOUS
 10
330.3232
 20
1459.285
 30
0.0
 11
330.3233
 21
1463.785
 31
0.0
  0
LINE
  5
2B7
  8
5
  6
CONTINUOUS
 10
315.3232
 20
1463.785
 30
0.0
 11
315.3232
 21
1459.285
 31
0.0
  0
LINE
  5
2B8
  8
5
  6
CONTINUOUS
 10
362.4232
 20
1459.285
 30
0.0
 11
362.4232
 21
1463.785
 31
0.0
  0
LINE
  5
2B9
  8
5
  6
CONTINUOUS
 10
345.2233
 20
1463.785
 30
0.0
 11
345.2232
 21
1459.285
 31
0.0
  0
LINE
  5
2BA
  8
5
  6
CONTINUOUS
 10
397.0232
 20
1459.285
 30
0.0
 11
397.0232
 21
1463.785
 31
0.0
  0
LINE
  5
2BB
  8
5
  6
CONTINUOUS
 10
379.7231
 20
1463.785
 30
0.0
 11
379.7232
 21
1459.285
 31
0.0
  0
LINE
  5
2BC
  8
5
  6
CONTINUOUS
 10
429.1232
 20
1459.285
 30
0.0
 11
429.1232
 21
1463.785
 31
0.0
  0
LINE
  5
2BD
  8
5
  6
CONTINUOUS
 10
414.2232
 20
1463.785
 30
0.0
 11
414.2232
 21
1459.285
 31
0.0
  0
LINE
  5
2BE
  8
5
  6
CONTINUOUS
 10
459.1232
 20
1459.285
 30
0.0
 11
459.1232
 21
1463.785
 31
0.0
  0
LINE
  5
2BF
  8
5
  6
CONTINUOUS
 10
444.1232
 20
1463.785
 30
0.0
 11
444.1232
 21
1459.285
 31
0.0
  0
LINE
  5
2C0
  8
5
  6
CONTINUOUS
 10
476.1232
 20
1463.785
 30
0.0
 11
476.1232
 21
1459.285
 31
0.0
  0
LINE
  5
2C1
  8
5
  6
CONTINUOUS
 10
2067.902
 20
1656.785
 30
0.0
 11
2067.902
 21
1656.785
 31
0.0
  0
LINE
  5
2C2
  8
5
  6
CONTINUOUS
 10
2094.9
 20
1656.785
 30
0.0
 11
2094.9
 21
1656.785
 31
0.0
  0
LINE
  5
2C3
  8
5
  6
CONTINUOUS
 10
1933.459
 20
1601.585
 30
0.0
 11
1933.459
 21
1578.585
 31
0.0
  0
LINE
  5
2C4
  8
5
  6
CONTINUOUS
 10
1982.959
 20
1601.585
 30
0.0
 11
1933.459
 21
1601.585
 31
0.0
  0
LINE
  5
2C5
  8
5
  6
CONTINUOUS
 10
1933.459
 20
1601.585
 30
0.0
 11
1982.959
 21
1652.585
 31
0.0
  0
LINE
  5
2C6
  8
5
  6
CONTINUOUS
 10
615.3232
 20
1338.485
 30
0.0
 11
619.8232
 21
1338.485
 31
0.0
  0
LINE
  5
2C7
  8
5
  6
CONTINUOUS
 10
2255.459
 20
1601.585
 30
0.0
 11
2205.959
 21
1601.585
 31
0.0
  0
LINE
  5
2C8
  8
5
  6
CONTINUOUS
 10
2205.966
 20
1652.585
 30
0.0
 11
2224.887
 21
1633.085
 31
0.0
  0
LINE
  5
2C9
  8
5
  6
CONTINUOUS
 10
2221.39
 20
1633.085
 30
0.0
 11
2284.459
 21
1633.085
 31
0.0
  0
LINE
  5
2CA
  8
5
  6
CONTINUOUS
 10
619.8232
 20
1109.085
 30
0.0
 11
615.3232
 21
1109.085
 31
0.0
  0
LINE
  5
2CB
  8
5
  6
CONTINUOUS
 10
2255.459
 20
1581.585
 30
0.0
 11
2285.459
 21
1581.585
 31
0.0
  0
LINE
  5
2CC
  8
5
  6
CONTINUOUS
 10
2250.459
 20
1556.585
 30
0.0
 11
2250.459
 21
1578.585
 31
0.0
  0
LINE
  5
2CD
  8
5
  6
CONTINUOUS
 10
1937.959
 20
1556.585
 30
0.0
 11
1937.959
 21
1578.585
 31
0.0
  0
LINE
  5
2CE
  8
5
  6
CONTINUOUS
 10
615.3232
 20
1206.485
 30
0.0
 11
619.8232
 21
1206.485
 31
0.0
  0
LINE
  5
2CF
  8
5
  6
CONTINUOUS
 10
619.8232
 20
1223.785
 30
0.0
 11
615.3232
 21
1223.785
 31
0.0
  0
LINE
  5
2D0
  8
5
  6
CONTINUOUS
 10
2284.459
 20
1633.085
 30
0.0
 11
2284.459
 21
1581.585
 31
0.0
  0
LINE
  5
2D1
  8
5
  6
CONTINUOUS
 10
2255.459
 20
1601.585
 30
0.0
 11
2255.459
 21
1578.585
 31
0.0
  0
LINE
  5
2D2
  8
5
  6
CONTINUOUS
 10
615.3232
 20
1241.085
 30
0.0
 11
619.8232
 21
1241.085
 31
0.0
  0
LINE
  5
2D3
  8
5
  6
CONTINUOUS
 10
619.8232
 20
1258.285
 30
0.0
 11
615.3232
 21
1258.285
 31
0.0
  0
LINE
  5
2D4
  8
5
  6
CONTINUOUS
 10
2255.459
 20
1578.585
 30
0.0
 11
1933.459
 21
1578.585
 31
0.0
  0
LINE
  5
2D5
  8
5
  6
CONTINUOUS
 10
2214.459
 20
1471.785
 30
0.0
 11
2199.459
 21
1471.785
 31
0.0
  0
LINE
  5
2D6
  8
5
  6
CONTINUOUS
 10
615.3232
 20
1273.285
 30
0.0
 11
619.8232
 21
1273.285
 31
0.0
  0
LINE
  5
2D7
  8
5
  6
CONTINUOUS
 10
619.8232
 20
1288.185
 30
0.0
 11
615.3232
 21
1288.185
 31
0.0
  0
LINE
  5
2D8
  8
5
  6
CONTINUOUS
 10
2199.459
 20
1471.785
 30
0.0
 11
1986.459
 21
1471.785
 31
0.0
  0
LINE
  5
2D9
  8
5
  6
CONTINUOUS
 10
1986.459
 20
1471.785
 30
0.0
 11
1971.459
 21
1471.785
 31
0.0
  0
LINE
  5
2DA
  8
5
  6
CONTINUOUS
 10
615.3232
 20
1303.185
 30
0.0
 11
619.8232
 21
1303.185
 31
0.0
  0
LINE
  5
2DB
  8
5
  6
CONTINUOUS
 10
619.8232
 20
1320.185
 30
0.0
 11
615.3232
 21
1320.185
 31
0.0
  0
LINE
  5
2DC
  8
5
  6
CONTINUOUS
 10
1986.459
 20
1508.085
 30
0.0
 11
1986.459
 21
1471.785
 31
0.0
  0
LINE
  5
2DD
  8
5
  6
CONTINUOUS
 10
2199.459
 20
1471.785
 30
0.0
 11
2199.459
 21
1508.085
 31
0.0
  0
LINE
  5
2DE
  8
5
  6
CONTINUOUS
 10
615.3232
 20
1174.385
 30
0.0
 11
619.8232
 21
1174.385
 31
0.0
  0
LINE
  5
2DF
  8
5
  6
CONTINUOUS
 10
619.8232
 20
1189.285
 30
0.0
 11
615.3232
 21
1189.285
 31
0.0
  0
LINE
  5
2E0
  8
5
  6
CONTINUOUS
 10
1944.959
 20
1532.085
 30
0.0
 11
2240.959
 21
1532.085
 31
0.0
  0
LINE
  5
2E1
  8
5
  6
CONTINUOUS
 10
2205.959
 20
1601.585
 30
0.0
 11
1982.959
 21
1601.585
 31
0.0
  0
LINE
  5
2E2
  8
5
  6
CONTINUOUS
 10
615.3232
 20
1144.385
 30
0.0
 11
619.8232
 21
1144.385
 31
0.0
  0
LINE
  5
2E3
  8
5
  6
CONTINUOUS
 10
619.8232
 20
1159.385
 30
0.0
 11
615.3232
 21
1159.385
 31
0.0
  0
LINE
  5
2E4
  8
5
  6
CONTINUOUS
 10
1982.959
 20
1652.585
 30
0.0
 11
1982.959
 21
1601.585
 31
0.0
  0
LINE
  5
2E5
  8
5
  6
CONTINUOUS
 10
2205.959
 20
1601.585
 30
0.0
 11
2205.966
 21
1652.585
 31
0.0
  0
LINE
  5
2E6
  8
5
  6
CONTINUOUS
 10
619.8232
 20
1127.385
 30
0.0
 11
615.3232
 21
1127.385
 31
0.0
  0
LINE
  5
2E7
  8
5
  6
CONTINUOUS
 10
2251.959
 20
1601.585
 30
0.0
 11
2221.39
 21
1633.085
 31
0.0
  0
LINE
  5
2E8
  8
5
  6
CONTINUOUS
 10
139.8232
 20
1338.485
 30
0.0
 11
144.3232
 21
1338.485
 31
0.0
  0
LINE
  5
2E9
  8
5
  6
CONTINUOUS
 10
144.3232
 20
1109.085
 30
0.0
 11
139.8232
 21
1109.085
 31
0.0
  0
LINE
  5
2EA
  8
5
  6
CONTINUOUS
 10
144.3232
 20
1223.785
 30
0.0
 11
139.8232
 21
1223.785
 31
0.0
  0
LINE
  5
2EB
  8
5
  6
CONTINUOUS
 10
139.8232
 20
1206.485
 30
0.0
 11
144.3232
 21
1206.485
 31
0.0
  0
LINE
  5
2EC
  8
5
  6
CONTINUOUS
 10
144.3232
 20
1258.285
 30
0.0
 11
139.8232
 21
1258.285
 31
0.0
  0
LINE
  5
2ED
  8
5
  6
CONTINUOUS
 10
139.8232
 20
1241.085
 30
0.0
 11
144.3232
 21
1241.085
 31
0.0
  0
LINE
  5
2EE
  8
5
  6
CONTINUOUS
 10
144.3232
 20
1288.185
 30
0.0
 11
139.8232
 21
1288.185
 31
0.0
  0
LINE
  5
2EF
  8
5
  6
CONTINUOUS
 10
139.8232
 20
1273.285
 30
0.0
 11
144.3232
 21
1273.285
 31
0.0
  0
LINE
  5
2F0
  8
5
  6
CONTINUOUS
 10
144.3232
 20
1320.185
 30
0.0
 11
139.8232
 21
1320.185
 31
0.0
  0
LINE
  5
2F1
  8
5
  6
CONTINUOUS
 10
139.8232
 20
1303.185
 30
0.0
 11
144.3232
 21
1303.185
 31
0.0
  0
LINE
  5
2F2
  8
5
  6
CONTINUOUS
 10
144.3232
 20
1189.285
 30
0.0
 11
139.8232
 21
1189.285
 31
0.0
  0
LINE
  5
2F3
  8
5
  6
CONTINUOUS
 10
139.8232
 20
1174.385
 30
0.0
 11
144.3232
 21
1174.385
 31
0.0
  0
LINE
  5
2F4
  8
5
  6
CONTINUOUS
 10
144.3232
 20
1159.385
 30
0.0
 11
139.8232
 21
1159.385
 31
0.0
  0
LINE
  5
2F5
  8
5
  6
CONTINUOUS
 10
139.8232
 20
1144.385
 30
0.0
 11
144.3232
 21
1144.385
 31
0.0
  0
LINE
  5
2F6
  8
5
  6
CONTINUOUS
 10
144.3232
 20
1127.385
 30
0.0
 11
139.8232
 21
1127.385
 31
0.0
  0
LINE
  5
2F7
  8
5
  6
CONTINUOUS
 10
925.9417
 20
196.2062
 30
0.0
 11
954.1416
 21
184.8127
 31
0.0
  0
LINE
  5
2F8
  8
5
  6
CONTINUOUS
 10
954.1416
 20
622.8128
 30
0.0
 11
954.1417
 21
563.3128
 31
0.0
  0
LINE
  5
2F9
  8
5
  6
CONTINUOUS
 10
954.1417
 20
241.3128
 30
0.0
 11
954.1416
 21
184.8127
 31
0.0
  0
LINE
  5
2FA
  8
5
  6
CONTINUOUS
 10
954.1416
 20
622.8128
 30
0.0
 11
925.9417
 21
611.4193
 31
0.0
  0
LINE
  5
2FB
  8
5
  6
CONTINUOUS
 10
907.8417
 20
152.8128
 30
0.0
 11
907.8417
 21
228.1628
 31
0.0
  0
LINE
  5
2FC
  8
5
  6
CONTINUOUS
 10
904.8417
 20
152.8128
 30
0.0
 11
904.8417
 21
228.1628
 31
0.0
  0
LINE
  5
2FD
  8
5
  6
CONTINUOUS
 10
900.344
 20
479.8128
 30
0.0
 11
900.344
 21
327.8128
 31
0.0
  0
LINE
  5
2FE
  8
5
  6
CONTINUOUS
 10
892.6417
 20
338.8128
 30
0.0
 11
900.344
 21
327.8128
 31
0.0
  0
LINE
  5
2FF
  8
5
  6
CONTINUOUS
 10
900.344
 20
479.8128
 30
0.0
 11
892.6417
 21
468.8128
 31
0.0
  0
LINE
  5
300
  8
5
  6
CONTINUOUS
 10
189.4023
 20
1435.056
 30
0.0
 11
167.3245
 21
1412.978
 31
0.0
  0
CIRCLE
  5
301
  8
5
  6
CONTINUOUS
 10
379.8232
 20
1223.785
 30
0.0
 40
223.5
  0
LINE
  5
302
  8
5
  6
CONTINUOUS
 10
273.6571
 20
1471.785
 30
0.0
 11
273.3778
 21
1463.785
 31
0.0
  0
LINE
  5
303
  8
5
  6
CONTINUOUS
 10
486.2687
 20
1463.785
 30
0.0
 11
485.9893
 21
1471.785
 31
0.0
  0
ARC
  5
304
  8
5
  6
CONTINUOUS
 10
2092.959
 20
1223.785
 30
0.0
 40
188.3371
 50
90.0
 51
327.8936
  0
ARC
  5
305
  8
5
  6
CONTINUOUS
 10
2092.959
 20
1223.785
 30
0.0
 40
188.3371
 50
328.9648
 51
90.0
  0
LINE
  5
306
  8
5
  6
CONTINUOUS
 10
954.1416
 20
184.8127
 30
0.0
 11
965.4515
 21
184.8127
 31
0.0
  0
LINE
  5
307
  8
5
  6
CONTINUOUS
 10
1411.642
 20
622.8128
 30
0.0
 11
1406.832
 21
622.8128
 31
0.0
  0
ARC
  5
308
  8
5
  6
CONTINUOUS
 10
2092.959
 20
1223.785
 30
0.0
 40
76.28278
 50
51.25989
 51
128.7401
  0
ARC
  5
309
  8
5
  6
CONTINUOUS
 10
2092.959
 20
1223.785
 30
0.0
 40
76.28283
 50
128.7401
 51
146.1419
  0
ARC
  5
30A
  8
5
  6
CONTINUOUS
 10
2092.959
 20
1223.785
 30
0.0
 40
76.28275
 50
146.1419
 51
160.4711
  0
ARC
  5
30B
  8
5
  6
CONTINUOUS
 10
2092.959
 20
1223.785
 30
0.0
 40
76.28268
 50
160.4711
 51
173.6024
  0
ARC
  5
30C
  8
5
  6
CONTINUOUS
 10
2092.959
 20
1223.785
 30
0.0
 40
76.28278
 50
173.6024
 51
186.3976
  0
ARC
  5
30D
  8
5
  6
CONTINUOUS
 10
2092.959
 20
1223.785
 30
0.0
 40
76.28278
 50
186.3976
 51
199.5289
  0
ARC
  5
30E
  8
5
  6
CONTINUOUS
 10
2092.959
 20
1223.785
 30
0.0
 40
76.28278
 50
199.5289
 51
213.8581
  0
ARC
  5
30F
  8
5
  6
CONTINUOUS
 10
2092.959
 20
1223.785
 30
0.0
 40
76.28275
 50
213.8581
 51
231.2599
  0
ARC
  5
310
  8
5
  6
CONTINUOUS
 10
2092.959
 20
1223.785
 30
0.0
 40
76.28278
 50
308.7401
 51
326.1419
  0
ARC
  5
311
  8
5
  6
CONTINUOUS
 10
2092.959
 20
1223.785
 30
0.0
 40
76.28277
 50
326.1419
 51
340.4711
  0
ARC
  5
312
  8
5
  6
CONTINUOUS
 10
2092.959
 20
1223.785
 30
0.0
 40
76.28278
 50
340.4711
 51
353.6024
  0
ARC
  5
313
  8
5
  6
CONTINUOUS
 10
2092.959
 20
1223.785
 30
0.0
 40
76.28278
 50
353.6024
 51
6.3976
  0
ARC
  5
314
  8
5
  6
CONTINUOUS
 10
2092.959
 20
1223.785
 30
0.0
 40
76.28275
 50
6.3976
 51
19.52888
  0
LINE
  5
315
  8
5
  6
CONTINUOUS
 10
2226.293
 20
1050.053
 30
0.0
 11
2258.689
 21
1003.785
 31
0.0
  0
LINE
  5
316
  8
5
  6
CONTINUOUS
 10
1959.625
 20
1050.053
 30
0.0
 11
1927.228
 21
1003.785
 31
0.0
  0
LINE
  5
317
  8
5
  6
CONTINUOUS
 10
1980.459
 20
983.7852
 30
0.0
 11
1980.459
 21
1035.89
 31
0.0
  0
LINE
  5
318
  8
5
  6
CONTINUOUS
 10
2205.459
 20
1035.89
 30
0.0
 11
2205.459
 21
983.7852
 31
0.0
  0
LINE
  5
319
  8
5
  6
CONTINUOUS
 10
2208.274
 20
1037.604
 30
0.0
 11
2245.959
 21
983.7852
 31
0.0
  0
LINE
  5
31A
  8
5
  6
CONTINUOUS
 10
2333.959
 20
1003.785
 30
0.0
 11
2284.664
 21
1074.185
 31
0.0
  0
LINE
  5
31B
  8
5
  6
CONTINUOUS
 10
1977.643
 20
1037.604
 30
0.0
 11
1939.959
 21
983.7852
 31
0.0
  0
LINE
  5
31C
  8
5
  6
CONTINUOUS
 10
1901.253
 20
1074.185
 30
0.0
 11
1851.959
 21
1003.785
 31
0.0
  0
LINE
  5
31D
  8
5
  6
CONTINUOUS
 10
2298.059
 20
1074.185
 30
0.0
 11
2252.899
 21
1074.185
 31
0.0
  0
LINE
  5
31E
  8
5
  6
CONTINUOUS
 10
1933.018
 20
1074.185
 30
0.0
 11
1887.459
 21
1074.185
 31
0.0
  0
LINE
  5
31F
  8
5
  6
CONTINUOUS
 10
2205.459
 20
983.7852
 30
0.0
 11
2186.959
 21
983.7852
 31
0.0
  0
LINE
  5
320
  8
5
  6
CONTINUOUS
 10
2015.959
 20
983.7852
 30
0.0
 11
1998.959
 21
983.7852
 31
0.0
  0
LINE
  5
321
  8
5
  6
CONTINUOUS
 10
2047.959
 20
983.7852
 30
0.0
 11
2032.959
 21
983.7852
 31
0.0
  0
LINE
  5
322
  8
5
  6
CONTINUOUS
 10
2077.959
 20
983.7852
 30
0.0
 11
2062.959
 21
983.7852
 31
0.0
  0
LINE
  5
323
  8
5
  6
CONTINUOUS
 10
2169.959
 20
983.7852
 30
0.0
 11
2152.959
 21
983.7852
 31
0.0
  0
LINE
  5
324
  8
5
  6
CONTINUOUS
 10
2137.959
 20
983.7852
 30
0.0
 11
2122.959
 21
983.7852
 31
0.0
  0
LINE
  5
325
  8
5
  6
CONTINUOUS
 10
2107.959
 20
983.7852
 30
0.0
 11
2092.959
 21
983.7852
 31
0.0
  0
LINE
  5
326
  8
5
  6
CONTINUOUS
 10
2186.959
 20
983.7852
 30
0.0
 11
2169.959
 21
983.7852
 31
0.0
  0
LINE
  5
327
  8
5
  6
CONTINUOUS
 10
1998.959
 20
983.7852
 30
0.0
 11
1980.459
 21
983.7852
 31
0.0
  0
LINE
  5
328
  8
5
  6
CONTINUOUS
 10
2032.959
 20
983.7852
 30
0.0
 11
2015.959
 21
983.7852
 31
0.0
  0
LINE
  5
329
  8
5
  6
CONTINUOUS
 10
2062.959
 20
983.7852
 30
0.0
 11
2047.959
 21
983.7852
 31
0.0
  0
LINE
  5
32A
  8
5
  6
CONTINUOUS
 10
2092.959
 20
983.7852
 30
0.0
 11
2077.959
 21
983.7852
 31
0.0
  0
LINE
  5
32B
  8
5
  6
CONTINUOUS
 10
2152.959
 20
983.7852
 30
0.0
 11
2137.959
 21
983.7852
 31
0.0
  0
LINE
  5
32C
  8
5
  6
CONTINUOUS
 10
2122.959
 20
983.7852
 30
0.0
 11
2107.959
 21
983.7852
 31
0.0
  0
LINE
  5
32D
  8
5
  6
CONTINUOUS
 10
2111.959
 20
1108.285
 30
0.0
 11
2111.959
 21
1058.041
 31
0.0
  0
LINE
  5
32E
  8
5
  6
CONTINUOUS
 10
2111.959
 20
1058.041
 30
0.0
 11
2111.959
 21
1054.85
 31
0.0
  0
LINE
  5
32F
  8
5
  6
CONTINUOUS
 10
2111.959
 20
1054.85
 30
0.0
 11
2111.959
 21
1049.166
 31
0.0
  0
LINE
  5
330
  8
5
  6
CONTINUOUS
 10
2111.959
 20
1123.785
 30
0.0
 11
2111.959
 21
1123.685
 31
0.0
  0
LINE
  5
331
  8
5
  6
CONTINUOUS
 10
2073.959
 20
1058.041
 30
0.0
 11
2073.959
 21
1108.285
 31
0.0
  0
LINE
  5
332
  8
5
  6
CONTINUOUS
 10
2073.959
 20
1049.166
 30
0.0
 11
2073.959
 21
1054.85
 31
0.0
  0
LINE
  5
333
  8
5
  6
CONTINUOUS
 10
2073.959
 20
1054.85
 30
0.0
 11
2073.959
 21
1058.041
 31
0.0
  0
LINE
  5
334
  8
5
  6
CONTINUOUS
 10
2092.959
 20
1123.785
 30
0.0
 11
2111.959
 21
1123.785
 31
0.0
  0
ARC
  5
335
  8
5
  6
CONTINUOUS
 10
2092.959
 20
1223.785
 30
0.0
 40
175.65
 50
90.0
 51
263.7902
  0
ARC
  5
336
  8
5
  6
CONTINUOUS
 10
2092.959
 20
1223.785
 30
0.0
 40
175.65
 50
276.2098
 51
90.0
  0
LINE
  5
337
  8
5
  6
CONTINUOUS
 10
2092.959
 20
1126.685
 30
0.0
 11
2092.959
 21
1125.185
 31
0.0
  0
LINE
  5
338
  8
5
  6
CONTINUOUS
 10
2092.959
 20
1125.185
 30
0.0
 11
2092.959
 21
1123.785
 31
0.0
  0
LINE
  5
339
  8
5
  6
CONTINUOUS
 10
2343.959
 20
1125.185
 30
0.0
 11
2343.959
 21
1126.685
 31
0.0
  0
LINE
  5
33A
  8
5
  6
CONTINUOUS
 10
2343.959
 20
1123.685
 30
0.0
 11
2343.959
 21
1125.185
 31
0.0
  0
LINE
  5
33B
  8
5
  6
CONTINUOUS
 10
2073.959
 20
1108.285
 30
0.0
 11
2111.959
 21
1108.285
 31
0.0
  0
LINE
  5
33C
  8
5
  6
CONTINUOUS
 10
2111.959
 20
1108.285
 30
0.0
 11
2128.959
 21
1108.285
 31
0.0
  0
LINE
  5
33D
  8
5
  6
CONTINUOUS
 10
2039.959
 20
1108.285
 30
0.0
 11
2056.959
 21
1108.285
 31
0.0
  0
LINE
  5
33E
  8
5
  6
CONTINUOUS
 10
2145.959
 20
1108.285
 30
0.0
 11
2213.341
 21
1108.285
 31
0.0
  0
LINE
  5
33F
  8
5
  6
CONTINUOUS
 10
1972.576
 20
1108.285
 30
0.0
 11
2039.959
 21
1108.285
 31
0.0
  0
LINE
  5
340
  8
5
  6
CONTINUOUS
 10
2128.959
 20
1108.285
 30
0.0
 11
2145.959
 21
1108.285
 31
0.0
  0
LINE
  5
341
  8
5
  6
CONTINUOUS
 10
2056.959
 20
1108.285
 30
0.0
 11
2073.959
 21
1108.285
 31
0.0
  0
LINE
  5
342
  8
5
  6
CONTINUOUS
 10
2066.959
 20
1158.026
 30
0.0
 11
2066.959
 21
1130.285
 31
0.0
  0
LINE
  5
343
  8
5
  6
CONTINUOUS
 10
2118.959
 20
1158.026
 30
0.0
 11
2118.959
 21
1130.285
 31
0.0
  0
LINE
  5
344
  8
5
  6
CONTINUOUS
 10
2118.959
 20
1130.285
 30
0.0
 11
2066.959
 21
1130.285
 31
0.0
  0
LINE
  5
345
  8
5
  6
CONTINUOUS
 10
1954.792
 20
1130.285
 30
0.0
 11
2066.959
 21
1130.285
 31
0.0
  0
LINE
  5
346
  8
5
  6
CONTINUOUS
 10
2118.959
 20
1130.285
 30
0.0
 11
2231.125
 21
1130.285
 31
0.0
  0
ARC
  5
347
  8
5
  6
CONTINUOUS
 10
2092.959
 20
1223.785
 30
0.0
 40
76.28271
 50
19.52888
 51
33.85807
  0
LINE
  5
348
  8
5
  6
CONTINUOUS
 10
2245.959
 20
1003.785
 30
0.0
 11
2245.959
 21
973.7852
 31
0.0
  0
LINE
  5
349
  8
5
  6
CONTINUOUS
 10
2333.959
 20
973.7852
 30
0.0
 11
2333.959
 21
1003.785
 31
0.0
  0
LINE
  5
34A
  8
5
  6
CONTINUOUS
 10
2333.959
 20
1003.785
 30
0.0
 11
2245.959
 21
1003.785
 31
0.0
  0
LINE
  5
34B
  8
5
  6
CONTINUOUS
 10
2333.959
 20
973.7852
 30
0.0
 11
2245.959
 21
973.7852
 31
0.0
  0
LINE
  5
34C
  8
5
  6
CONTINUOUS
 10
1939.959
 20
1003.785
 30
0.0
 11
1939.959
 21
973.7852
 31
0.0
  0
LINE
  5
34D
  8
5
  6
CONTINUOUS
 10
1851.959
 20
973.7852
 30
0.0
 11
1851.959
 21
1003.785
 31
0.0
  0
LINE
  5
34E
  8
5
  6
CONTINUOUS
 10
1851.959
 20
1003.785
 30
0.0
 11
1939.959
 21
1003.785
 31
0.0
  0
LINE
  5
34F
  8
5
  6
CONTINUOUS
 10
1851.959
 20
973.7852
 30
0.0
 11
1939.959
 21
973.7852
 31
0.0
  0
LINE
  5
350
  8
5
  6
CONTINUOUS
 10
1956.976
 20
1442.785
 30
0.0
 11
1943.459
 21
1429.384
 31
0.0
  0
LINE
  5
351
  8
5
  6
CONTINUOUS
 10
1960.859
 20
1446.634
 30
0.0
 11
1956.976
 21
1442.785
 31
0.0
  0
LINE
  5
352
  8
5
  6
CONTINUOUS
 10
1972.302
 20
1457.979
 30
0.0
 11
1960.859
 21
1446.634
 31
0.0
  0
LINE
  5
353
  8
5
  6
CONTINUOUS
 10
1943.459
 20
1429.384
 30
0.0
 11
1943.359
 21
1429.285
 31
0.0
  0
LINE
  5
354
  8
5
  6
CONTINUOUS
 10
2225.259
 20
1446.436
 30
0.0
 11
2213.615
 21
1457.979
 31
0.0
  0
LINE
  5
355
  8
5
  6
CONTINUOUS
 10
2228.941
 20
1442.785
 30
0.0
 11
2225.259
 21
1446.436
 31
0.0
  0
LINE
  5
356
  8
5
  6
CONTINUOUS
 10
2242.559
 20
1429.285
 30
0.0
 11
2228.941
 21
1442.785
 31
0.0
  0
LINE
  5
357
  8
5
  6
CONTINUOUS
 10
1870.308
 20
1091.535
 30
0.0
 11
1887.459
 21
1074.185
 31
0.0
  0
LINE
  5
358
  8
5
  6
CONTINUOUS
 10
1870.258
 20
1091.585
 30
0.0
 11
1870.308
 21
1091.535
 31
0.0
  0
LINE
  5
359
  8
5
  6
CONTINUOUS
 10
1852.959
 20
1109.085
 30
0.0
 11
1870.258
 21
1091.585
 31
0.0
  0
LINE
  5
35A
  8
5
  6
CONTINUOUS
 10
1870.258
 20
1355.985
 30
0.0
 11
1852.959
 21
1338.485
 31
0.0
  0
LINE
  5
35B
  8
5
  6
CONTINUOUS
 10
1870.308
 20
1356.036
 30
0.0
 11
1870.258
 21
1355.985
 31
0.0
  0
LINE
  5
35C
  8
5
  6
CONTINUOUS
 10
1887.459
 20
1373.385
 30
0.0
 11
1870.308
 21
1356.036
 31
0.0
  0
LINE
  5
35D
  8
5
  6
CONTINUOUS
 10
2315.609
 20
1091.535
 30
0.0
 11
2315.66
 21
1091.585
 31
0.0
  0
LINE
  5
35E
  8
5
  6
CONTINUOUS
 10
2298.059
 20
1074.185
 30
0.0
 11
2315.609
 21
1091.535
 31
0.0
  0
LINE
  5
35F
  8
5
  6
CONTINUOUS
 10
2315.66
 20
1091.585
 30
0.0
 11
2332.959
 21
1108.685
 31
0.0
  0
LINE
  5
360
  8
5
  6
CONTINUOUS
 10
2332.959
 20
1338.485
 30
0.0
 11
2315.659
 21
1355.985
 31
0.0
  0
LINE
  5
361
  8
5
  6
CONTINUOUS
 10
2315.609
 20
1356.036
 30
0.0
 11
2298.459
 21
1373.385
 31
0.0
  0
LINE
  5
362
  8
5
  6
CONTINUOUS
 10
2315.659
 20
1355.985
 30
0.0
 11
2315.609
 21
1356.036
 31
0.0
  0
LINE
  5
363
  8
5
  6
CONTINUOUS
 10
1852.959
 20
1206.485
 30
0.0
 11
1852.959
 21
1223.785
 31
0.0
  0
LINE
  5
364
  8
5
  6
CONTINUOUS
 10
1852.959
 20
1241.085
 30
0.0
 11
1852.959
 21
1258.285
 31
0.0
  0
LINE
  5
365
  8
5
  6
CONTINUOUS
 10
1852.959
 20
1273.285
 30
0.0
 11
1852.959
 21
1288.185
 31
0.0
  0
LINE
  5
366
  8
5
  6
CONTINUOUS
 10
1852.959
 20
1174.385
 30
0.0
 11
1852.959
 21
1189.285
 31
0.0
  0
LINE
  5
367
  8
5
  6
CONTINUOUS
 10
1852.959
 20
1144.385
 30
0.0
 11
1852.959
 21
1159.385
 31
0.0
  0
LINE
  5
368
  8
5
  6
CONTINUOUS
 10
1852.959
 20
1189.285
 30
0.0
 11
1852.959
 21
1206.485
 31
0.0
  0
LINE
  5
369
  8
5
  6
CONTINUOUS
 10
1852.959
 20
1223.785
 30
0.0
 11
1852.959
 21
1241.085
 31
0.0
  0
LINE
  5
36A
  8
5
  6
CONTINUOUS
 10
1852.959
 20
1258.285
 30
0.0
 11
1852.959
 21
1273.285
 31
0.0
  0
LINE
  5
36B
  8
5
  6
CONTINUOUS
 10
1852.959
 20
1288.185
 30
0.0
 11
1852.959
 21
1303.185
 31
0.0
  0
LINE
  5
36C
  8
5
  6
CONTINUOUS
 10
1852.959
 20
1159.385
 30
0.0
 11
1852.959
 21
1174.385
 31
0.0
  0
LINE
  5
36D
  8
5
  6
CONTINUOUS
 10
2332.959
 20
1123.685
 30
0.0
 11
2332.959
 21
1109.085
 31
0.0
  0
LINE
  5
36E
  8
5
  6
CONTINUOUS
 10
2332.959
 20
1159.385
 30
0.0
 11
2332.959
 21
1144.385
 31
0.0
  0
LINE
  5
36F
  8
5
  6
CONTINUOUS
 10
2332.959
 20
1189.285
 30
0.0
 11
2332.959
 21
1174.385
 31
0.0
  0
LINE
  5
370
  8
5
  6
CONTINUOUS
 10
2332.959
 20
1288.185
 30
0.0
 11
2332.959
 21
1273.285
 31
0.0
  0
LINE
  5
371
  8
5
  6
CONTINUOUS
 10
2332.959
 20
1258.285
 30
0.0
 11
2332.959
 21
1241.085
 31
0.0
  0
LINE
  5
372
  8
5
  6
CONTINUOUS
 10
2332.959
 20
1223.785
 30
0.0
 11
2332.959
 21
1206.485
 31
0.0
  0
LINE
  5
373
  8
5
  6
CONTINUOUS
 10
2332.959
 20
1109.085
 30
0.0
 11
2332.959
 21
1108.685
 31
0.0
  0
LINE
  5
374
  8
5
  6
CONTINUOUS
 10
2332.959
 20
1174.385
 30
0.0
 11
2332.959
 21
1159.385
 31
0.0
  0
LINE
  5
375
  8
5
  6
CONTINUOUS
 10
2332.959
 20
1206.485
 30
0.0
 11
2332.959
 21
1189.285
 31
0.0
  0
LINE
  5
376
  8
5
  6
CONTINUOUS
 10
2332.959
 20
1303.185
 30
0.0
 11
2332.959
 21
1288.185
 31
0.0
  0
LINE
  5
377
  8
5
  6
CONTINUOUS
 10
2332.959
 20
1273.285
 30
0.0
 11
2332.959
 21
1258.285
 31
0.0
  0
LINE
  5
378
  8
5
  6
CONTINUOUS
 10
2332.959
 20
1241.085
 30
0.0
 11
2332.959
 21
1223.785
 31
0.0
  0
LINE
  5
379
  8
5
  6
CONTINUOUS
 10
1943.359
 20
1429.285
 30
0.0
 11
1943.359
 21
1404.295
 31
0.0
  0
LINE
  5
37A
  8
5
  6
CONTINUOUS
 10
2252.899
 20
1373.385
 30
0.0
 11
2298.459
 21
1373.385
 31
0.0
  0
LINE
  5
37B
  8
5
  6
CONTINUOUS
 10
1887.459
 20
1373.385
 30
0.0
 11
1933.018
 21
1373.385
 31
0.0
  0
ARC
  5
37C
  8
5
  6
CONTINUOUS
 10
2092.959
 20
1223.785
 30
0.0
 40
219.0
 50
333.6803
 51
0.0
  0
ARC
  5
37D
  8
5
  6
CONTINUOUS
 10
2092.959
 20
1223.785
 30
0.0
 40
219.0
 50
90.0
 51
332.8013
  0
ARC
  5
37E
  8
5
  6
CONTINUOUS
 10
2092.959
 20
1223.785
 30
0.0
 40
219.0
 50
0.0
 51
90.0
  0
LINE
  5
37F
  8
5
  6
CONTINUOUS
 10
2242.559
 20
1429.285
 30
0.0
 11
2242.559
 21
1383.725
 31
0.0
  0
LINE
  5
380
  8
5
  6
CONTINUOUS
 10
2215.255
 20
988.2852
 30
0.0
 11
2231.46
 21
1004.491
 31
0.0
  0
LINE
  5
381
  8
5
  6
CONTINUOUS
 10
2291.455
 20
1064.486
 30
0.0
 11
2328.459
 21
1101.489
 31
0.0
  0
LINE
  5
382
  8
5
  6
CONTINUOUS
 10
1970.663
 20
988.2852
 30
0.0
 11
1980.459
 21
988.2852
 31
0.0
  0
LINE
  5
383
  8
5
  6
CONTINUOUS
 10
2205.459
 20
988.2852
 30
0.0
 11
2215.255
 21
988.2852
 31
0.0
  0
LINE
  5
384
  8
5
  6
CONTINUOUS
 10
1857.459
 20
1101.489
 30
0.0
 11
1894.462
 21
1064.486
 31
0.0
  0
LINE
  5
385
  8
5
  6
CONTINUOUS
 10
1954.457
 20
1004.491
 30
0.0
 11
1970.663
 21
988.2852
 31
0.0
  0
LINE
  5
386
  8
5
  6
CONTINUOUS
 10
1857.459
 20
1346.081
 30
0.0
 11
1857.459
 21
1343.037
 31
0.0
  0
LINE
  5
387
  8
5
  6
CONTINUOUS
 10
1857.459
 20
1104.533
 30
0.0
 11
1857.459
 21
1101.489
 31
0.0
  0
LINE
  5
388
  8
5
  6
CONTINUOUS
 10
1970.663
 20
1459.285
 30
0.0
 11
1927.57
 21
1416.193
 31
0.0
  0
LINE
  5
389
  8
5
  6
CONTINUOUS
 10
1896.936
 20
1385.558
 30
0.0
 11
1857.459
 21
1346.081
 31
0.0
  0
LINE
  5
38A
  8
5
  6
CONTINUOUS
 10
2215.255
 20
1459.285
 30
0.0
 11
2213.57
 21
1459.285
 31
0.0
  0
LINE
  5
38B
  8
5
  6
CONTINUOUS
 10
1410.122
 20
506.7258
 30
0.0
 11
1408.625
 21
518.4128
 31
0.0
  0
LINE
  5
38C
  8
5
  6
CONTINUOUS
 10
1404.155
 20
553.3128
 30
0.0
 11
1406.361
 21
536.0881
 31
0.0
  0
LINE
  5
38D
  8
5
  6
CONTINUOUS
 10
1406.383
 20
535.9128
 30
0.0
 11
1406.361
 21
536.0881
 31
0.0
  0
LINE
  5
38E
  8
5
  6
CONTINUOUS
 10
1408.625
 20
518.4128
 30
0.0
 11
1406.383
 21
535.9128
 31
0.0
  0
LINE
  5
38F
  8
5
  6
CONTINUOUS
 10
1404.142
 20
553.4128
 30
0.0
 11
1404.155
 21
553.3128
 31
0.0
  0
LINE
  5
390
  8
5
  6
CONTINUOUS
 10
1406.371
 20
626.4128
 30
0.0
 11
1408.612
 21
608.9128
 31
0.0
  0
LINE
  5
391
  8
5
  6
CONTINUOUS
 10
1404.142
 20
643.8128
 30
0.0
 11
1406.358
 21
626.5133
 31
0.0
  0
LINE
  5
392
  8
5
  6
CONTINUOUS
 10
1406.358
 20
626.5133
 30
0.0
 11
1406.364
 21
626.4634
 31
0.0
  0
LINE
  5
393
  8
5
  6
CONTINUOUS
 10
1406.364
 20
626.4634
 30
0.0
 11
1406.371
 21
626.4128
 31
0.0
  0
LINE
  5
394
  8
5
  6
CONTINUOUS
 10
1972.347
 20
1459.285
 30
0.0
 11
1970.663
 21
1459.285
 31
0.0
  0
LINE
  5
395
  8
5
  6
CONTINUOUS
 10
1408.612
 20
608.9128
 30
0.0
 11
1410.122
 21
597.1258
 31
0.0
  0
LINE
  5
396
  8
5
  6
CONTINUOUS
 10
1406.358
 20
181.1122
 30
0.0
 11
1404.142
 21
163.8128
 31
0.0
  0
LINE
  5
397
  8
5
  6
CONTINUOUS
 10
1406.371
 20
181.2128
 30
0.0
 11
1408.612
 21
198.7128
 31
0.0
  0
LINE
  5
398
  8
5
  6
CONTINUOUS
 10
1406.364
 20
181.1622
 30
0.0
 11
1406.371
 21
181.2128
 31
0.0
  0
LINE
  5
399
  8
5
  6
CONTINUOUS
 10
1406.364
 20
181.1622
 30
0.0
 11
1406.358
 21
181.1122
 31
0.0
  0
LINE
  5
39A
  8
5
  6
CONTINUOUS
 10
1408.612
 20
198.7128
 30
0.0
 11
1410.122
 21
210.4998
 31
0.0
  0
LINE
  5
39B
  8
5
  6
CONTINUOUS
 10
965.9256
 20
626.5133
 30
0.0
 11
968.1417
 21
643.8128
 31
0.0
  0
LINE
  5
39C
  8
5
  6
CONTINUOUS
 10
965.9127
 20
626.4128
 30
0.0
 11
963.6709
 21
608.9128
 31
0.0
  0
LINE
  5
39D
  8
5
  6
CONTINUOUS
 10
965.9192
 20
626.4634
 30
0.0
 11
965.9127
 21
626.4128
 31
0.0
  0
LINE
  5
39E
  8
5
  6
CONTINUOUS
 10
965.9192
 20
626.4634
 30
0.0
 11
965.9256
 21
626.5133
 31
0.0
  0
LINE
  5
39F
  8
5
  6
CONTINUOUS
 10
2328.459
 20
1346.081
 30
0.0
 11
2288.982
 21
1385.558
 31
0.0
  0
LINE
  5
3A0
  8
5
  6
CONTINUOUS
 10
963.6709
 20
608.9128
 30
0.0
 11
962.161
 21
597.1258
 31
0.0
  0
LINE
  5
3A1
  8
5
  6
CONTINUOUS
 10
965.9127
 20
181.2128
 30
0.0
 11
963.6709
 21
198.7128
 31
0.0
  0
LINE
  5
3A2
  8
5
  6
CONTINUOUS
 10
968.1417
 20
163.8128
 30
0.0
 11
965.9256
 21
181.1122
 31
0.0
  0
LINE
  5
3A3
  8
5
  6
CONTINUOUS
 10
965.9256
 20
181.1122
 30
0.0
 11
965.9192
 21
181.1622
 31
0.0
  0
LINE
  5
3A4
  8
5
  6
CONTINUOUS
 10
965.9192
 20
181.1622
 30
0.0
 11
965.9127
 21
181.2128
 31
0.0
  0
LINE
  5
3A5
  8
5
  6
CONTINUOUS
 10
963.6709
 20
198.7128
 30
0.0
 11
962.161
 21
210.4998
 31
0.0
  0
LINE
  5
3A6
  8
5
  6
CONTINUOUS
 10
968.1417
 20
643.8128
 30
0.0
 11
1404.142
 21
643.8128
 31
0.0
  0
LINE
  5
3A7
  8
5
  6
CONTINUOUS
 10
1404.142
 20
163.8128
 30
0.0
 11
968.1417
 21
163.8128
 31
0.0
  0
LINE
  5
3A8
  8
5
  6
CONTINUOUS
 10
2258.347
 20
1416.193
 30
0.0
 11
2215.255
 21
1459.285
 31
0.0
  0
LINE
  5
3A9
  8
5
  6
CONTINUOUS
 10
1259.142
 20
553.4127
 30
0.0
 11
1404.142
 21
553.4128
 31
0.0
  0
LINE
  5
3AA
  8
5
  6
CONTINUOUS
 10
1408.587
 20
288.9128
 30
0.0
 11
1406.361
 21
271.5375
 31
0.0
  0
LINE
  5
3AB
  8
5
  6
CONTINUOUS
 10
1406.361
 20
271.5375
 30
0.0
 11
1406.358
 21
271.5128
 31
0.0
  0
LINE
  5
3AC
  8
5
  6
CONTINUOUS
 10
1410.122
 20
300.8998
 30
0.0
 11
1408.587
 21
288.9128
 31
0.0
  0
LINE
  5
3AD
  8
5
  6
CONTINUOUS
 10
1406.358
 20
271.5128
 30
0.0
 11
1404.142
 21
254.2128
 31
0.0
  0
LINE
  5
3AE
  8
5
  6
CONTINUOUS
 10
2328.459
 20
1346.081
 30
0.0
 11
2328.459
 21
1343.037
 31
0.0
  0
LINE
  5
3AF
  8
5
  6
CONTINUOUS
 10
2328.459
 20
1104.237
 30
0.0
 11
2328.459
 21
1101.489
 31
0.0
  0
LINE
  5
3B0
  8
5
  6
CONTINUOUS
 10
1404.142
 20
254.2128
 30
0.0
 11
1259.142
 21
254.2129
 31
0.0
  0
LINE
  5
3B1
  8
5
  6
CONTINUOUS
 10
1540.642
 20
636.3128
 30
0.0
 11
1540.642
 21
524.8662
 31
0.0
  0
LINE
  5
3B2
  8
5
  6
CONTINUOUS
 10
1540.642
 20
524.8662
 30
0.0
 11
1540.642
 21
282.7595
 31
0.0
  0
LINE
  5
3B3
  8
5
  6
CONTINUOUS
 10
1540.642
 20
282.7595
 30
0.0
 11
1540.642
 21
171.3128
 31
0.0
  0
LINE
  5
3B4
  8
5
  6
CONTINUOUS
 10
1613.642
 20
543.8128
 30
0.0
 11
1613.642
 21
263.8128
 31
0.0
  0
LINE
  5
3B5
  8
5
  6
CONTINUOUS
 10
1472.142
 20
639.3128
 30
0.0
 11
1411.642
 21
639.3128
 31
0.0
  0
LINE
  5
3B6
  8
5
  6
CONTINUOUS
 10
1472.142
 20
168.3128
 30
0.0
 11
1411.642
 21
168.3128
 31
0.0
  0
LINE
  5
3B7
  8
5
  6
CONTINUOUS
 10
1472.142
 20
636.3128
 30
0.0
 11
1540.642
 21
636.3128
 31
0.0
  0
LINE
  5
3B8
  8
5
  6
CONTINUOUS
 10
1540.642
 20
171.3128
 30
0.0
 11
1472.142
 21
171.3128
 31
0.0
  0
LINE
  5
3B9
  8
5
  6
CONTINUOUS
 10
1472.142
 20
639.3128
 30
0.0
 11
1472.142
 21
526.1088
 31
0.0
  0
LINE
  5
3BA
  8
5
  6
CONTINUOUS
 10
1472.142
 20
526.1088
 30
0.0
 11
1472.142
 21
281.5168
 31
0.0
  0
LINE
  5
3BB
  8
5
  6
CONTINUOUS
 10
1472.142
 20
281.5168
 30
0.0
 11
1472.142
 21
168.3128
 31
0.0
  0
LINE
  5
3BC
  8
5
  6
CONTINUOUS
 10
1411.642
 20
168.3128
 30
0.0
 11
1411.642
 21
281.5168
 31
0.0
  0
LINE
  5
3BD
  8
5
  6
CONTINUOUS
 10
1411.642
 20
281.5168
 30
0.0
 11
1411.642
 21
526.1088
 31
0.0
  0
LINE
  5
3BE
  8
5
  6
CONTINUOUS
 10
1411.642
 20
526.1088
 30
0.0
 11
1411.642
 21
639.3128
 31
0.0
  0
LINE
  5
3BF
  8
5
  6
CONTINUOUS
 10
2186.959
 20
1025.985
 30
0.0
 11
2186.959
 21
1002.285
 31
0.0
  0
LINE
  5
3C2
  8
5
  6
CONTINUOUS
 10
1998.959
 20
1025.985
 30
0.0
 11
1998.959
 21
1002.285
 31
0.0
  0
ARC
  5
3C5
  8
5
  6
CONTINUOUS
 10
2092.959
 20
1223.785
 30
0.0
 40
207.6065
 50
332.1141
 51
90.0
  0
ARC
  5
3C6
  8
5
  6
CONTINUOUS
 10
2092.959
 20
1223.785
 30
0.0
 40
207.6065
 50
90.0
 51
331.1733
  0
LINE
  5
3C7
  8
5
  6
CONTINUOUS
 10
2186.959
 20
1002.285
 30
0.0
 11
2186.959
 21
983.7852
 31
0.0
  0
LINE
  5
3C8
  8
5
  6
CONTINUOUS
 10
1998.959
 20
983.7852
 30
0.0
 11
1998.959
 21
1002.285
 31
0.0
  0
LINE
  5
3C9
  8
5
  6
CONTINUOUS
 10
2092.959
 20
1004.785
 30
0.0
 11
2092.959
 21
983.7852
 31
0.0
  0
LINE
  5
3CA
  8
5
  6
CONTINUOUS
 10
2107.959
 20
983.7852
 30
0.0
 11
2107.959
 21
1005.3
 31
0.0
  0
LINE
  5
3CB
  8
5
  6
CONTINUOUS
 10
2122.959
 20
1006.85
 30
0.0
 11
2122.959
 21
983.7852
 31
0.0
  0
LINE
  5
3CC
  8
5
  6
CONTINUOUS
 10
2137.959
 20
983.7852
 30
0.0
 11
2137.959
 21
1009.458
 31
0.0
  0
LINE
  5
3CD
  8
5
  6
CONTINUOUS
 10
2152.959
 20
1013.165
 30
0.0
 11
2152.959
 21
983.7852
 31
0.0
  0
LINE
  5
3CE
  8
5
  6
CONTINUOUS
 10
2169.959
 20
983.7852
 30
0.0
 11
2169.959
 21
1018.768
 31
0.0
  0
LINE
  5
3CF
  8
5
  6
CONTINUOUS
 10
2062.959
 20
1006.85
 30
0.0
 11
2062.959
 21
983.7852
 31
0.0
  0
LINE
  5
3D0
  8
5
  6
CONTINUOUS
 10
2077.959
 20
983.7852
 30
0.0
 11
2077.959
 21
1005.3
 31
0.0
  0
LINE
  5
3D1
  8
5
  6
CONTINUOUS
 10
2032.959
 20
1013.165
 30
0.0
 11
2032.959
 21
983.7852
 31
0.0
  0
LINE
  5
3D2
  8
5
  6
CONTINUOUS
 10
2047.959
 20
983.7852
 30
0.0
 11
2047.959
 21
1009.458
 31
0.0
  0
LINE
  5
3D3
  8
5
  6
CONTINUOUS
 10
2015.959
 20
983.7852
 30
0.0
 11
2015.959
 21
1018.768
 31
0.0
  0
ARC
  5
3D4
  8
5
  6
CONTINUOUS
 10
2092.959
 20
1223.785
 30
0.0
 40
170.0
 50
276.4171
 51
263.5829
  0
ARC
  5
3D5
  8
5
  6
CONTINUOUS
 10
2092.959
 20
1223.785
 30
0.0
 40
166.8297
 50
159.1053
 51
165.2412
  0
ARC
  5
3D6
  8
5
  6
CONTINUOUS
 10
2092.959
 20
1223.785
 30
0.0
 40
166.8297
 50
14.75882
 51
20.89467
  0
ARC
  5
3D7
  8
5
  6
CONTINUOUS
 10
2092.959
 20
1223.785
 30
0.0
 40
166.8297
 50
171.2078
 51
177.0795
  0
ARC
  5
3D8
  8
5
  6
CONTINUOUS
 10
2092.959
 20
1223.785
 30
0.0
 40
166.8297
 50
2.920493
 51
8.79215
  0
ARC
  5
3D9
  8
5
  6
CONTINUOUS
 10
2092.959
 20
1223.785
 30
0.0
 40
166.8297
 50
182.9205
 51
188.7922
  0
ARC
  5
3DA
  8
5
  6
CONTINUOUS
 10
2092.959
 20
1223.785
 30
0.0
 40
166.8297
 50
351.2078
 51
357.0795
  0
ARC
  5
3DB
  8
5
  6
CONTINUOUS
 10
2092.959
 20
1223.785
 30
0.0
 40
166.8297
 50
194.7588
 51
200.8947
  0
ARC
  5
3DC
  8
5
  6
CONTINUOUS
 10
2092.959
 20
1223.785
 30
0.0
 40
166.8297
 50
339.1053
 51
345.2412
  0
ARC
  5
3DD
  8
5
  6
CONTINUOUS
 10
2092.959
 20
1223.785
 30
0.0
 40
166.8297
 50
152.7063
 51
159.1053
  0
ARC
  5
3DE
  8
5
  6
CONTINUOUS
 10
2092.959
 20
1223.785
 30
0.0
 40
166.8297
 50
20.89467
 51
27.29367
  0
ARC
  5
3DF
  8
5
  6
CONTINUOUS
 10
2092.959
 20
1223.785
 30
0.0
 40
166.8297
 50
165.2412
 51
171.2078
  0
ARC
  5
3E0
  8
5
  6
CONTINUOUS
 10
2092.959
 20
1223.785
 30
0.0
 40
166.8297
 50
8.79215
 51
14.75882
  0
ARC
  5
3E1
  8
5
  6
CONTINUOUS
 10
2092.959
 20
1223.785
 30
0.0
 40
166.8297
 50
177.0795
 51
182.9205
  0
ARC
  5
3E2
  8
5
  6
CONTINUOUS
 10
2092.959
 20
1223.785
 30
0.0
 40
166.8297
 50
357.0795
 51
2.9205
  0
ARC
  5
3E3
  8
5
  6
CONTINUOUS
 10
2092.959
 20
1223.785
 30
0.0
 40
166.8297
 50
188.7922
 51
194.7588
  0
ARC
  5
3E4
  8
5
  6
CONTINUOUS
 10
2092.959
 20
1223.785
 30
0.0
 40
166.8297
 50
345.2412
 51
351.2078
  0
ARC
  5
3E5
  8
5
  6
CONTINUOUS
 10
2092.959
 20
1223.785
 30
0.0
 40
166.8297
 50
145.913
 51
152.7063
  0
ARC
  5
3E6
  8
5
  6
CONTINUOUS
 10
2092.959
 20
1223.785
 30
0.0
 40
166.8297
 50
325.913
 51
332.7063
  0
ARC
  5
3E7
  8
5
  6
CONTINUOUS
 10
2092.959
 20
1223.785
 30
0.0
 40
163.0742
 50
323.4564
 51
325.0152
  0
ARC
  5
3E8
  8
5
  6
CONTINUOUS
 10
2092.959
 20
1223.785
 30
0.0
 40
163.0742
 50
314.9059
 51
322.133
  0
ARC
  5
3E9
  8
5
  6
CONTINUOUS
 10
2092.959
 20
1223.785
 30
0.0
 40
166.8297
 50
288.5232
 51
316.1858
  0
ARC
  5
3EA
  8
5
  6
CONTINUOUS
 10
2092.959
 20
1223.785
 30
0.0
 40
166.8297
 50
251.4768
 51
257.5382
  0
ARC
  5
3EB
  8
5
  6
CONTINUOUS
 10
2092.959
 20
1223.785
 30
0.0
 40
166.8297
 50
276.5395
 51
282.4618
  0
ARC
  5
3EC
  8
5
  6
CONTINUOUS
 10
2092.959
 20
1223.785
 30
0.0
 40
166.8297
 50
257.5382
 51
263.4605
  0
ARC
  5
3ED
  8
5
  6
CONTINUOUS
 10
2092.959
 20
1223.785
 30
0.0
 40
166.8297
 50
282.4618
 51
288.5232
  0
ARC
  5
3EE
  8
5
  6
CONTINUOUS
 10
2092.959
 20
1223.785
 30
0.0
 40
166.8297
 50
223.8142
 51
251.4768
  0
ARC
  5
3EF
  8
5
  6
CONTINUOUS
 10
2092.959
 20
1223.785
 30
0.0
 40
163.0742
 50
214.9848
 51
225.0941
  0
ARC
  5
3F0
  8
5
  6
CONTINUOUS
 10
2092.959
 20
1223.785
 30
0.0
 40
166.8297
 50
207.2937
 51
214.087
  0
ARC
  5
3F1
  8
5
  6
CONTINUOUS
 10
2092.959
 20
1223.785
 30
0.0
 40
166.8297
 50
27.29367
 51
34.08704
  0
ARC
  5
3F2
  8
5
  6
CONTINUOUS
 10
2092.959
 20
1223.785
 30
0.0
 40
166.8297
 50
124.9205
 51
145.913
  0
ARC
  5
3F3
  8
5
  6
CONTINUOUS
 10
2092.959
 20
1223.785
 30
0.0
 40
166.8297
 50
34.08704
 51
55.07946
  0
ARC
  5
3F4
  8
5
  6
CONTINUOUS
 10
2092.959
 20
1223.785
 30
0.0
 40
166.8297
 50
61.93067
 51
68.36828
  0
ARC
  5
3F5
  8
5
  6
CONTINUOUS
 10
2092.959
 20
1223.785
 30
0.0
 40
166.8297
 50
74.52969
 51
80.51213
  0
ARC
  5
3F6
  8
5
  6
CONTINUOUS
 10
2092.959
 20
1223.785
 30
0.0
 40
166.8297
 50
86.39151
 51
93.60849
  0
ARC
  5
3F7
  8
5
  6
CONTINUOUS
 10
2092.959
 20
1223.785
 30
0.0
 40
166.8297
 50
99.48787
 51
105.4703
  0
ARC
  5
3F8
  8
5
  6
CONTINUOUS
 10
2092.959
 20
1223.785
 30
0.0
 40
166.8297
 50
111.6317
 51
118.0693
  0
ARC
  5
3F9
  8
5
  6
CONTINUOUS
 10
2092.959
 20
1223.785
 30
0.0
 40
166.8297
 50
118.0693
 51
124.9205
  0
ARC
  5
3FA
  8
5
  6
CONTINUOUS
 10
2092.959
 20
1223.785
 30
0.0
 40
166.8297
 50
55.07946
 51
61.93067
  0
ARC
  5
3FB
  8
5
  6
CONTINUOUS
 10
2092.959
 20
1223.785
 30
0.0
 40
166.8297
 50
68.36828
 51
74.52969
  0
ARC
  5
3FC
  8
5
  6
CONTINUOUS
 10
2092.959
 20
1223.785
 30
0.0
 40
166.8297
 50
80.51213
 51
86.39151
  0
ARC
  5
3FD
  8
5
  6
CONTINUOUS
 10
2092.959
 20
1223.785
 30
0.0
 40
166.8297
 50
93.60849
 51
99.48787
  0
ARC
  5
3FE
  8
5
  6
CONTINUOUS
 10
2092.959
 20
1223.785
 30
0.0
 40
166.8297
 50
105.4703
 51
111.6317
  0
ARC
  5
3FF
  8
5
  6
CONTINUOUS
 10
2092.959
 20
1223.785
 30
0.0
 40
166.8297
 50
200.8947
 51
207.2937
  0
ARC
  5
400
  8
5
  6
CONTINUOUS
 10
2092.959
 20
1223.785
 30
0.0
 40
166.8297
 50
332.7063
 51
339.1053
  0
LINE
  5
401
  8
5
  6
CONTINUOUS
 10
2237.295
 20
1123.685
 30
0.0
 11
2343.959
 21
1123.685
 31
0.0
  0
LINE
  5
402
  8
5
  6
CONTINUOUS
 10
2343.959
 20
1126.685
 30
0.0
 11
2239.33
 21
1126.685
 31
0.0
  0
LINE
  5
403
  8
5
  6
CONTINUOUS
 10
2111.959
 20
1123.685
 30
0.0
 11
2227.699
 21
1123.685
 31
0.0
  0
LINE
  5
404
  8
5
  6
CONTINUOUS
 10
2229.877
 20
1126.685
 30
0.0
 11
2092.959
 21
1126.685
 31
0.0
  0
LINE
  5
405
  8
5
  6
CONTINUOUS
 10
2056.959
 20
1060.886
 30
0.0
 11
2056.959
 21
1108.285
 31
0.0
  0
LINE
  5
406
  8
5
  6
CONTINUOUS
 10
2039.959
 20
1108.285
 30
0.0
 11
2039.959
 21
1065.598
 31
0.0
  0
LINE
  5
407
  8
5
  6
CONTINUOUS
 10
2145.959
 20
1065.598
 30
0.0
 11
2145.959
 21
1108.285
 31
0.0
  0
LINE
  5
408
  8
5
  6
CONTINUOUS
 10
2128.959
 20
1108.285
 30
0.0
 11
2128.959
 21
1060.886
 31
0.0
  0
LINE
  5
409
  8
5
  6
CONTINUOUS
 10
1931.633
 20
1266.285
 30
0.0
 11
2029.612
 21
1266.285
 31
0.0
  0
ARC
  5
40A
  8
5
  6
CONTINUOUS
 10
2092.959
 20
1223.785
 30
0.0
 40
76.28278
 50
33.85807
 51
51.25989
  0
LINE
  5
40B
  8
5
  6
CONTINUOUS
 10
2045.222
 20
1283.285
 30
0.0
 11
1937.1
 21
1283.285
 31
0.0
  0
LINE
  5
40C
  8
5
  6
CONTINUOUS
 10
2248.817
 20
1283.285
 30
0.0
 11
2140.696
 21
1283.285
 31
0.0
  0
LINE
  5
40D
  8
5
  6
CONTINUOUS
 10
2156.305
 20
1266.285
 30
0.0
 11
2254.284
 21
1266.285
 31
0.0
  0
LINE
  5
40E
  8
5
  6
CONTINUOUS
 10
1926.346
 20
1232.285
 30
0.0
 11
2017.151
 21
1232.285
 31
0.0
  0
LINE
  5
40F
  8
5
  6
CONTINUOUS
 10
2021.064
 20
1249.285
 30
0.0
 11
1928.089
 21
1249.285
 31
0.0
  0
LINE
  5
410
  8
5
  6
CONTINUOUS
 10
2257.828
 20
1249.285
 30
0.0
 11
2164.853
 21
1249.285
 31
0.0
  0
LINE
  5
411
  8
5
  6
CONTINUOUS
 10
2168.766
 20
1232.285
 30
0.0
 11
2259.572
 21
1232.285
 31
0.0
  0
LINE
  5
412
  8
5
  6
CONTINUOUS
 10
1928.089
 20
1198.285
 30
0.0
 11
2021.064
 21
1198.285
 31
0.0
  0
LINE
  5
413
  8
5
  6
CONTINUOUS
 10
2017.151
 20
1215.285
 30
0.0
 11
1926.346
 21
1215.285
 31
0.0
  0
LINE
  5
414
  8
5
  6
CONTINUOUS
 10
2259.572
 20
1215.285
 30
0.0
 11
2168.766
 21
1215.285
 31
0.0
  0
LINE
  5
415
  8
5
  6
CONTINUOUS
 10
2164.853
 20
1198.285
 30
0.0
 11
2257.828
 21
1198.285
 31
0.0
  0
LINE
  5
416
  8
5
  6
CONTINUOUS
 10
1937.1
 20
1164.285
 30
0.0
 11
2045.222
 21
1164.285
 31
0.0
  0
LINE
  5
417
  8
5
  6
CONTINUOUS
 10
2029.612
 20
1181.285
 30
0.0
 11
1931.633
 21
1181.285
 31
0.0
  0
LINE
  5
418
  8
5
  6
CONTINUOUS
 10
2254.284
 20
1181.285
 30
0.0
 11
2156.305
 21
1181.285
 31
0.0
  0
LINE
  5
419
  8
5
  6
CONTINUOUS
 10
2140.696
 20
1164.285
 30
0.0
 11
2248.817
 21
1164.285
 31
0.0
  0
LINE
  5
41A
  8
5
  6
CONTINUOUS
 10
2241.215
 20
1300.285
 30
0.0
 11
1944.702
 21
1300.285
 31
0.0
  0
LINE
  5
41B
  8
5
  6
CONTINUOUS
 10
2231.125
 20
1317.285
 30
0.0
 11
2188.459
 21
1317.285
 31
0.0
  0
LINE
  5
41C
  8
5
  6
CONTINUOUS
 10
2188.459
 20
1317.285
 30
0.0
 11
2171.459
 21
1317.285
 31
0.0
  0
LINE
  5
41D
  8
5
  6
CONTINUOUS
 10
2171.459
 20
1317.285
 30
0.0
 11
2154.459
 21
1317.285
 31
0.0
  0
LINE
  5
41E
  8
5
  6
CONTINUOUS
 10
2154.459
 20
1317.285
 30
0.0
 11
2137.459
 21
1317.285
 31
0.0
  0
LINE
  5
41F
  8
5
  6
CONTINUOUS
 10
2137.459
 20
1317.285
 30
0.0
 11
2120.459
 21
1317.285
 31
0.0
  0
LINE
  5
420
  8
5
  6
CONTINUOUS
 10
2120.459
 20
1317.285
 30
0.0
 11
2103.459
 21
1317.285
 31
0.0
  0
LINE
  5
421
  8
5
  6
CONTINUOUS
 10
2103.459
 20
1317.285
 30
0.0
 11
2082.459
 21
1317.285
 31
0.0
  0
LINE
  5
422
  8
5
  6
CONTINUOUS
 10
2082.459
 20
1317.285
 30
0.0
 11
2065.459
 21
1317.285
 31
0.0
  0
LINE
  5
423
  8
5
  6
CONTINUOUS
 10
2065.459
 20
1317.285
 30
0.0
 11
2048.459
 21
1317.285
 31
0.0
  0
LINE
  5
424
  8
5
  6
CONTINUOUS
 10
2048.459
 20
1317.285
 30
0.0
 11
2031.459
 21
1317.285
 31
0.0
  0
LINE
  5
425
  8
5
  6
CONTINUOUS
 10
2031.459
 20
1317.285
 30
0.0
 11
2014.459
 21
1317.285
 31
0.0
  0
LINE
  5
426
  8
5
  6
CONTINUOUS
 10
2014.459
 20
1317.285
 30
0.0
 11
1997.459
 21
1317.285
 31
0.0
  0
LINE
  5
427
  8
5
  6
CONTINUOUS
 10
1997.459
 20
1317.285
 30
0.0
 11
1954.792
 21
1317.285
 31
0.0
  0
LINE
  5
428
  8
5
  6
CONTINUOUS
 10
1997.459
 20
1317.285
 30
0.0
 11
1997.459
 21
1360.577
 31
0.0
  0
LINE
  5
429
  8
5
  6
CONTINUOUS
 10
2188.459
 20
1360.577
 30
0.0
 11
2188.459
 21
1317.285
 31
0.0
  0
LINE
  5
42A
  8
5
  6
CONTINUOUS
 10
2154.459
 20
1378.866
 30
0.0
 11
2154.459
 21
1317.285
 31
0.0
  0
LINE
  5
42B
  8
5
  6
CONTINUOUS
 10
2171.459
 20
1317.285
 30
0.0
 11
2171.459
 21
1370.992
 31
0.0
  0
LINE
  5
42C
  8
5
  6
CONTINUOUS
 10
2120.459
 20
1388.333
 30
0.0
 11
2120.459
 21
1317.285
 31
0.0
  0
LINE
  5
42D
  8
5
  6
CONTINUOUS
 10
2137.459
 20
1317.285
 30
0.0
 11
2137.459
 21
1384.571
 31
0.0
  0
LINE
  5
42E
  8
5
  6
CONTINUOUS
 10
2082.459
 20
1390.284
 30
0.0
 11
2082.459
 21
1317.285
 31
0.0
  0
LINE
  5
42F
  8
5
  6
CONTINUOUS
 10
2103.459
 20
1317.285
 30
0.0
 11
2103.459
 21
1390.284
 31
0.0
  0
LINE
  5
430
  8
5
  6
CONTINUOUS
 10
2048.459
 20
1384.57
 30
0.0
 11
2048.459
 21
1317.285
 31
0.0
  0
LINE
  5
431
  8
5
  6
CONTINUOUS
 10
2065.459
 20
1317.285
 30
0.0
 11
2065.459
 21
1388.333
 31
0.0
  0
LINE
  5
432
  8
5
  6
CONTINUOUS
 10
2014.459
 20
1370.992
 30
0.0
 11
2014.459
 21
1317.285
 31
0.0
  0
LINE
  5
433
  8
5
  6
CONTINUOUS
 10
2031.459
 20
1317.285
 30
0.0
 11
2031.459
 21
1378.866
 31
0.0
  0
LINE
  5
434
  8
5
  6
CONTINUOUS
 10
2066.959
 20
1147.285
 30
0.0
 11
1944.702
 21
1147.285
 31
0.0
  0
LINE
  5
435
  8
5
  6
CONTINUOUS
 10
2241.215
 20
1147.285
 30
0.0
 11
2118.959
 21
1147.285
 31
0.0
  0
ARC
  5
436
  8
5
  6
CONTINUOUS
 10
2092.959
 20
1223.785
 30
0.0
 40
76.28278
 50
231.2599
 51
250.0721
  0
LINE
  5
437
  8
5
  6
CONTINUOUS
 10
1079.939
 20
563.3128
 30
0.0
 11
1077.258
 21
594.2337
 31
0.0
  0
LINE
  5
438
  8
5
  6
CONTINUOUS
 10
1077.258
 20
594.2337
 30
0.0
 11
1060.142
 21
607.106
 31
0.0
  0
LINE
  5
439
  8
5
  6
CONTINUOUS
 10
1060.142
 20
607.106
 30
0.0
 11
1001.142
 21
607.106
 31
0.0
  0
LINE
  5
43A
  8
5
  6
CONTINUOUS
 10
1001.142
 20
607.106
 30
0.0
 11
984.0255
 21
594.2337
 31
0.0
  0
ARC
  5
43B
  8
5
  6
CONTINUOUS
 10
2092.959
 20
1223.785
 30
0.0
 40
70.71259
 50
248.427
 51
291.573
  0
LINE
  5
43C
  8
5
  6
CONTINUOUS
 10
981.3446
 20
563.3128
 30
0.0
 11
984.0255
 21
594.2337
 31
0.0
  0
CIRCLE
  5
43D
  8
5
  6
CONTINUOUS
 10
2092.959
 20
1223.785
 30
0.0
 40
65.0
  0
ARC
  5
43E
  8
5
  6
CONTINUOUS
 10
2092.959
 20
1223.785
 30
0.0
 40
76.0
 50
290.0052
 51
249.9948
  0
LINE
  5
43F
  8
5
  6
CONTINUOUS
 10
1012.642
 20
563.3128
 30
0.0
 11
1012.642
 21
576.4596
 31
0.0
  0
LINE
  5
440
  8
5
  6
CONTINUOUS
 10
1012.642
 20
576.4596
 30
0.0
 11
1020.642
 21
582.9115
 31
0.0
  0
LINE
  5
441
  8
5
  6
CONTINUOUS
 10
1020.642
 20
582.9115
 30
0.0
 11
1040.642
 21
582.9115
 31
0.0
  0
LINE
  5
442
  8
5
  6
CONTINUOUS
 10
1040.642
 20
582.9115
 30
0.0
 11
1048.642
 21
576.4596
 31
0.0
  0
LINE
  5
443
  8
5
  6
CONTINUOUS
 10
1048.642
 20
576.4596
 30
0.0
 11
1048.642
 21
563.3128
 31
0.0
  0
LINE
  5
444
  8
5
  6
CONTINUOUS
 10
1960.859
 20
1442.785
 30
0.0
 11
1960.859
 21
1446.634
 31
0.0
  0
LINE
  5
445
  8
5
  6
CONTINUOUS
 10
1960.859
 20
1442.785
 30
0.0
 11
1956.976
 21
1442.785
 31
0.0
  0
LINE
  5
446
  8
5
  6
CONTINUOUS
 10
2225.259
 20
1442.785
 30
0.0
 11
2214.146
 21
1442.785
 31
0.0
  0
LINE
  5
447
  8
5
  6
CONTINUOUS
 10
984.0255
 20
616.3114
 30
0.0
 11
980.8915
 21
592.5216
 31
0.0
  0
LINE
  5
448
  8
5
  6
CONTINUOUS
 10
984.0255
 20
616.3114
 30
0.0
 11
1001.142
 21
624.7836
 31
0.0
  0
LINE
  5
449
  8
5
  6
CONTINUOUS
 10
1001.142
 20
624.7836
 30
0.0
 11
1060.142
 21
624.7836
 31
0.0
  0
LINE
  5
44A
  8
5
  6
CONTINUOUS
 10
1060.142
 20
624.7836
 30
0.0
 11
1077.258
 21
616.3114
 31
0.0
  0
LINE
  5
44B
  8
5
  6
CONTINUOUS
 10
1077.258
 20
616.3114
 30
0.0
 11
1080.392
 21
592.5216
 31
0.0
  0
LINE
  5
44C
  8
5
  6
CONTINUOUS
 10
2225.259
 20
1442.785
 30
0.0
 11
2225.259
 21
1446.436
 31
0.0
  0
LINE
  5
44D
  8
5
  6
CONTINUOUS
 10
984.0255
 20
594.2337
 30
0.0
 11
984.0255
 21
616.3114
 31
0.0
  0
LINE
  5
44E
  8
5
  6
CONTINUOUS
 10
979.469
 20
563.7529
 30
0.0
 11
980.8915
 21
592.5216
 31
0.0
  0
LINE
  5
44F
  8
5
  6
CONTINUOUS
 10
1971.771
 20
1442.785
 30
0.0
 11
1960.859
 21
1442.785
 31
0.0
  0
LINE
  5
450
  8
5
  6
CONTINUOUS
 10
1080.392
 20
592.5216
 30
0.0
 11
1081.814
 21
563.7529
 31
0.0
  0
LINE
  5
451
  8
5
  6
CONTINUOUS
 10
1077.258
 20
616.3114
 30
0.0
 11
1077.258
 21
594.2337
 31
0.0
  0
LINE
  5
452
  8
5
  6
CONTINUOUS
 10
1060.142
 20
607.106
 30
0.0
 11
1060.142
 21
624.7836
 31
0.0
  0
LINE
  5
453
  8
5
  6
CONTINUOUS
 10
1001.142
 20
624.7836
 30
0.0
 11
1001.142
 21
607.106
 31
0.0
  0
LINE
  5
454
  8
5
  6
CONTINUOUS
 10
2228.941
 20
1442.785
 30
0.0
 11
2225.259
 21
1442.785
 31
0.0
  0
LINE
  5
455
  8
5
  6
CONTINUOUS
 10
1870.359
 20
1355.985
 30
0.0
 11
1870.258
 21
1355.985
 31
0.0
  0
LINE
  5
456
  8
5
  6
CONTINUOUS
 10
1852.959
 20
1338.485
 30
0.0
 11
1887.859
 21
1338.485
 31
0.0
  0
LINE
  5
458
  8
5
  6
CONTINUOUS
 10
1870.359
 20
1091.585
 30
0.0
 11
1870.258
 21
1091.585
 31
0.0
  0
LINE
  5
459
  8
5
  6
CONTINUOUS
 10
1870.359
 20
1091.585
 30
0.0
 11
1870.308
 21
1091.535
 31
0.0
  0
LINE
  5
45A
  8
5
  6
CONTINUOUS
 10
1870.308
 20
1356.036
 30
0.0
 11
1870.359
 21
1355.985
 31
0.0
  0
LINE
  5
45B
  8
5
  6
CONTINUOUS
 10
1887.859
 20
1109.085
 30
0.0
 11
1852.959
 21
1109.085
 31
0.0
  0
LINE
  5
45D
  8
5
  6
CONTINUOUS
 10
1873.959
 20
1223.785
 30
0.0
 11
1852.959
 21
1223.785
 31
0.0
  0
LINE
  5
45E
  8
5
  6
CONTINUOUS
 10
1852.959
 20
1206.485
 30
0.0
 11
1874.643
 21
1206.485
 31
0.0
  0
LINE
  5
45F
  8
5
  6
CONTINUOUS
 10
1876.693
 20
1258.285
 30
0.0
 11
1852.959
 21
1258.285
 31
0.0
  0
LINE
  5
460
  8
5
  6
CONTINUOUS
 10
1852.959
 20
1241.085
 30
0.0
 11
1874.643
 21
1241.085
 31
0.0
  0
LINE
  5
461
  8
5
  6
CONTINUOUS
 10
1883.641
 20
1288.185
 30
0.0
 11
1852.959
 21
1288.185
 31
0.0
  0
LINE
  5
462
  8
5
  6
CONTINUOUS
 10
1259.142
 20
535.9128
 30
0.0
 11
1406.339
 21
535.9128
 31
0.0
  0
LINE
  5
463
  8
5
  6
CONTINUOUS
 10
1406.361
 20
536.0881
 30
0.0
 11
1406.339
 21
535.9128
 31
0.0
  0
LINE
  5
464
  8
5
  6
CONTINUOUS
 10
1404.155
 20
553.3128
 30
0.0
 11
1259.142
 21
553.3128
 31
0.0
  0
LINE
  5
465
  8
5
  6
CONTINUOUS
 10
1852.959
 20
1273.285
 30
0.0
 11
1879.626
 21
1273.285
 31
0.0
  0
LINE
  5
466
  8
5
  6
CONTINUOUS
 10
1852.959
 20
1303.185
 30
0.0
 11
1888.859
 21
1303.185
 31
0.0
  0
LINE
  5
467
  8
5
  6
CONTINUOUS
 10
1279.142
 20
518.6129
 30
0.0
 11
1259.142
 21
534.9071
 31
0.0
  0
LINE
  5
468
  8
5
  6
CONTINUOUS
 10
1404.142
 20
518.6129
 30
0.0
 11
1279.142
 21
518.6129
 31
0.0
  0
LINE
  5
469
  8
5
  6
CONTINUOUS
 10
1406.339
 20
535.9128
 30
0.0
 11
1404.142
 21
518.6129
 31
0.0
  0
LINE
  5
46A
  8
5
  6
CONTINUOUS
 10
1404.154
 20
288.9128
 30
0.0
 11
1279.019
 21
288.9128
 31
0.0
  0
LINE
  5
46B
  8
5
  6
CONTINUOUS
 10
1259.142
 20
272.7185
 30
0.0
 11
1279.019
 21
288.9128
 31
0.0
  0
LINE
  5
46C
  8
5
  6
CONTINUOUS
 10
1259.142
 20
271.5128
 30
0.0
 11
1406.358
 21
271.5128
 31
0.0
  0
LINE
  5
46D
  8
5
  6
CONTINUOUS
 10
1404.154
 20
288.9128
 30
0.0
 11
1406.361
 21
271.5375
 31
0.0
  0
LINE
  5
46E
  8
5
  6
CONTINUOUS
 10
1404.142
 20
289.0129
 30
0.0
 11
1404.154
 21
288.9128
 31
0.0
  0
LINE
  5
46F
  8
5
  6
CONTINUOUS
 10
1279.142
 20
289.0129
 30
0.0
 11
1404.142
 21
289.0129
 31
0.0
  0
LINE
  5
470
  8
5
  6
CONTINUOUS
 10
1279.019
 20
288.9128
 30
0.0
 11
1279.142
 21
289.0129
 31
0.0
  0
LINE
  5
471
  8
5
  6
CONTINUOUS
 10
1876.693
 20
1189.285
 30
0.0
 11
1852.959
 21
1189.285
 31
0.0
  0
LINE
  5
472
  8
5
  6
CONTINUOUS
 10
1406.339
 20
535.9128
 30
0.0
 11
1406.383
 21
535.9128
 31
0.0
  0
LINE
  5
473
  8
5
  6
CONTINUOUS
 10
1408.587
 20
288.9128
 30
0.0
 11
1404.154
 21
288.9128
 31
0.0
  0
LINE
  5
474
  8
5
  6
CONTINUOUS
 10
1404.142
 20
518.4127
 30
0.0
 11
1408.625
 21
518.4128
 31
0.0
  0
LINE
  5
475
  8
5
  6
CONTINUOUS
 10
1404.142
 20
518.4127
 30
0.0
 11
1404.142
 21
518.6129
 31
0.0
  0
LINE
  5
476
  8
5
  6
CONTINUOUS
 10
1408.746
 20
324.3128
 30
0.0
 11
1404.142
 21
324.3128
 31
0.0
  0
LINE
  5
477
  8
5
  6
CONTINUOUS
 10
1404.142
 20
307.3128
 30
0.0
 11
1404.142
 21
324.3128
 31
0.0
  0
LINE
  5
478
  8
5
  6
CONTINUOUS
 10
1404.142
 20
307.3128
 30
0.0
 11
1409.702
 21
307.3128
 31
0.0
  0
LINE
  5
479
  8
5
  6
CONTINUOUS
 10
1407.558
 20
354.3128
 30
0.0
 11
1404.142
 21
354.3128
 31
0.0
  0
LINE
  5
47A
  8
5
  6
CONTINUOUS
 10
1404.142
 20
339.3127
 30
0.0
 11
1404.142
 21
354.3128
 31
0.0
  0
LINE
  5
47B
  8
5
  6
CONTINUOUS
 10
1404.142
 20
339.3127
 30
0.0
 11
1408.076
 21
339.3127
 31
0.0
  0
LINE
  5
47C
  8
5
  6
CONTINUOUS
 10
1406.921
 20
386.4128
 30
0.0
 11
1404.142
 21
386.4128
 31
0.0
  0
LINE
  5
47D
  8
5
  6
CONTINUOUS
 10
1404.142
 20
369.2129
 30
0.0
 11
1404.142
 21
386.4128
 31
0.0
  0
LINE
  5
47E
  8
5
  6
CONTINUOUS
 10
1404.142
 20
369.2129
 30
0.0
 11
1407.184
 21
369.2129
 31
0.0
  0
LINE
  5
47F
  8
5
  6
CONTINUOUS
 10
1406.919
 20
421.0129
 30
0.0
 11
1404.142
 21
421.0129
 31
0.0
  0
LINE
  5
480
  8
5
  6
CONTINUOUS
 10
1404.142
 20
403.7127
 30
0.0
 11
1404.142
 21
421.0129
 31
0.0
  0
LINE
  5
481
  8
5
  6
CONTINUOUS
 10
1404.142
 20
403.7127
 30
0.0
 11
1406.832
 21
403.7127
 31
0.0
  0
LINE
  5
482
  8
5
  6
CONTINUOUS
 10
1407.552
 20
453.1128
 30
0.0
 11
1404.142
 21
453.1128
 31
0.0
  0
LINE
  5
483
  8
5
  6
CONTINUOUS
 10
1404.142
 20
438.2127
 30
0.0
 11
1404.142
 21
453.1128
 31
0.0
  0
LINE
  5
484
  8
5
  6
CONTINUOUS
 10
1404.142
 20
438.2127
 30
0.0
 11
1407.18
 21
438.2127
 31
0.0
  0
LINE
  5
485
  8
5
  6
CONTINUOUS
 10
1408.736
 20
483.1128
 30
0.0
 11
1404.142
 21
483.1128
 31
0.0
  0
LINE
  5
486
  8
5
  6
CONTINUOUS
 10
1404.142
 20
468.1127
 30
0.0
 11
1404.142
 21
483.1128
 31
0.0
  0
LINE
  5
487
  8
5
  6
CONTINUOUS
 10
1404.142
 20
468.1127
 30
0.0
 11
1408.068
 21
468.1127
 31
0.0
  0
LINE
  5
488
  8
5
  6
CONTINUOUS
 10
1404.142
 20
500.1128
 30
0.0
 11
1404.142
 21
518.4127
 31
0.0
  0
LINE
  5
489
  8
5
  6
CONTINUOUS
 10
1404.142
 20
500.1128
 30
0.0
 11
1409.69
 21
500.1128
 31
0.0
  0
LINE
  5
48A
  8
5
  6
CONTINUOUS
 10
1404.142
 20
289.0129
 30
0.0
 11
1404.142
 21
307.3128
 31
0.0
  0
LINE
  5
48B
  8
5
  6
CONTINUOUS
 10
1404.142
 20
324.3128
 30
0.0
 11
1404.142
 21
339.3127
 31
0.0
  0
LINE
  5
48C
  8
5
  6
CONTINUOUS
 10
1404.142
 20
354.3128
 30
0.0
 11
1404.142
 21
369.2129
 31
0.0
  0
LINE
  5
48D
  8
5
  6
CONTINUOUS
 10
1404.142
 20
386.4128
 30
0.0
 11
1404.142
 21
403.7127
 31
0.0
  0
LINE
  5
48E
  8
5
  6
CONTINUOUS
 10
1404.142
 20
421.0129
 30
0.0
 11
1404.142
 21
438.2127
 31
0.0
  0
LINE
  5
48F
  8
5
  6
CONTINUOUS
 10
1404.142
 20
453.1128
 30
0.0
 11
1404.142
 21
468.1127
 31
0.0
  0
LINE
  5
490
  8
5
  6
CONTINUOUS
 10
1404.142
 20
483.1128
 30
0.0
 11
1404.142
 21
500.1128
 31
0.0
  0
LINE
  5
491
  8
5
  6
CONTINUOUS
 10
1259.142
 20
307.3128
 30
0.0
 11
1279.142
 21
307.3128
 31
0.0
  0
LINE
  5
492
  8
5
  6
CONTINUOUS
 10
1279.142
 20
324.3128
 30
0.0
 11
1279.142
 21
307.3128
 31
0.0
  0
LINE
  5
493
  8
5
  6
CONTINUOUS
 10
1279.142
 20
324.3128
 30
0.0
 11
1259.142
 21
324.3128
 31
0.0
  0
LINE
  5
494
  8
5
  6
CONTINUOUS
 10
1259.142
 20
339.3128
 30
0.0
 11
1279.142
 21
339.3127
 31
0.0
  0
LINE
  5
495
  8
5
  6
CONTINUOUS
 10
1279.142
 20
354.3128
 30
0.0
 11
1279.142
 21
339.3127
 31
0.0
  0
LINE
  5
496
  8
5
  6
CONTINUOUS
 10
1279.142
 20
354.3128
 30
0.0
 11
1259.142
 21
354.3128
 31
0.0
  0
LINE
  5
497
  8
5
  6
CONTINUOUS
 10
1259.142
 20
369.2128
 30
0.0
 11
1279.142
 21
369.2129
 31
0.0
  0
LINE
  5
498
  8
5
  6
CONTINUOUS
 10
1279.142
 20
386.4128
 30
0.0
 11
1279.142
 21
369.2129
 31
0.0
  0
LINE
  5
499
  8
5
  6
CONTINUOUS
 10
1279.142
 20
386.4128
 30
0.0
 11
1259.142
 21
386.4128
 31
0.0
  0
LINE
  5
49A
  8
5
  6
CONTINUOUS
 10
1279.142
 20
453.1128
 30
0.0
 11
1259.142
 21
453.1128
 31
0.0
  0
LINE
  5
49B
  8
5
  6
CONTINUOUS
 10
1259.142
 20
438.2128
 30
0.0
 11
1279.142
 21
438.2127
 31
0.0
  0
LINE
  5
49C
  8
5
  6
CONTINUOUS
 10
1279.142
 20
453.1128
 30
0.0
 11
1279.142
 21
438.2127
 31
0.0
  0
LINE
  5
49D
  8
5
  6
CONTINUOUS
 10
1279.142
 20
483.1128
 30
0.0
 11
1259.142
 21
483.1128
 31
0.0
  0
LINE
  5
49E
  8
5
  6
CONTINUOUS
 10
1259.142
 20
468.1128
 30
0.0
 11
1279.142
 21
468.1127
 31
0.0
  0
LINE
  5
49F
  8
5
  6
CONTINUOUS
 10
1279.142
 20
483.1128
 30
0.0
 11
1279.142
 21
468.1127
 31
0.0
  0
LINE
  5
4A0
  8
5
  6
CONTINUOUS
 10
1279.142
 20
518.4127
 30
0.0
 11
1259.142
 21
518.4128
 31
0.0
  0
LINE
  5
4A1
  8
5
  6
CONTINUOUS
 10
1259.142
 20
500.1128
 30
0.0
 11
1279.142
 21
500.1128
 31
0.0
  0
LINE
  5
4A2
  8
5
  6
CONTINUOUS
 10
1279.142
 20
518.4127
 30
0.0
 11
1279.142
 21
500.1128
 31
0.0
  0
LINE
  5
4A3
  8
5
  6
CONTINUOUS
 10
1279.019
 20
288.9128
 30
0.0
 11
1259.142
 21
288.9128
 31
0.0
  0
LINE
  5
4A4
  8
5
  6
CONTINUOUS
 10
1279.142
 20
307.3128
 30
0.0
 11
1279.142
 21
289.0129
 31
0.0
  0
LINE
  5
4A5
  8
5
  6
CONTINUOUS
 10
1279.142
 20
339.3127
 30
0.0
 11
1279.142
 21
324.3128
 31
0.0
  0
LINE
  5
4A6
  8
5
  6
CONTINUOUS
 10
1279.142
 20
369.2129
 30
0.0
 11
1279.142
 21
354.3128
 31
0.0
  0
LINE
  5
4A7
  8
5
  6
CONTINUOUS
 10
1279.142
 20
403.7127
 30
0.0
 11
1279.142
 21
386.4128
 31
0.0
  0
LINE
  5
4A8
  8
5
  6
CONTINUOUS
 10
1279.142
 20
403.7127
 30
0.0
 11
1259.142
 21
403.7128
 31
0.0
  0
LINE
  5
4A9
  8
5
  6
CONTINUOUS
 10
1259.142
 20
421.0128
 30
0.0
 11
1279.142
 21
421.0129
 31
0.0
  0
LINE
  5
4AA
  8
5
  6
CONTINUOUS
 10
1279.142
 20
438.2127
 30
0.0
 11
1279.142
 21
421.0129
 31
0.0
  0
LINE
  5
4AB
  8
5
  6
CONTINUOUS
 10
1279.142
 20
468.1127
 30
0.0
 11
1279.142
 21
453.1128
 31
0.0
  0
LINE
  5
4AC
  8
5
  6
CONTINUOUS
 10
1279.142
 20
500.1128
 30
0.0
 11
1279.142
 21
483.1128
 31
0.0
  0
LINE
  5
4AD
  8
5
  6
CONTINUOUS
 10
1279.142
 20
518.6129
 30
0.0
 11
1279.142
 21
518.4127
 31
0.0
  0
LINE
  5
4AE
  8
5
  6
CONTINUOUS
 10
1279.142
 20
421.0129
 30
0.0
 11
1279.142
 21
403.7127
 31
0.0
  0
LINE
  5
4AF
  8
5
  6
CONTINUOUS
 10
1404.142
 20
518.4127
 30
0.0
 11
1279.142
 21
518.4127
 31
0.0
  0
LINE
  5
4B0
  8
5
  6
CONTINUOUS
 10
1279.142
 20
500.1128
 30
0.0
 11
1404.142
 21
500.1128
 31
0.0
  0
LINE
  5
4B1
  8
5
  6
CONTINUOUS
 10
1279.142
 20
468.1127
 30
0.0
 11
1404.142
 21
468.1127
 31
0.0
  0
LINE
  5
4B2
  8
5
  6
CONTINUOUS
 10
1404.142
 20
483.1128
 30
0.0
 11
1279.142
 21
483.1128
 31
0.0
  0
LINE
  5
4B3
  8
5
  6
CONTINUOUS
 10
1279.142
 20
438.2127
 30
0.0
 11
1404.142
 21
438.2127
 31
0.0
  0
LINE
  5
4B4
  8
5
  6
CONTINUOUS
 10
1404.142
 20
453.1128
 30
0.0
 11
1279.142
 21
453.1128
 31
0.0
  0
LINE
  5
4B5
  8
5
  6
CONTINUOUS
 10
1279.142
 20
403.7127
 30
0.0
 11
1404.142
 21
403.7127
 31
0.0
  0
LINE
  5
4B6
  8
5
  6
CONTINUOUS
 10
1404.142
 20
421.0129
 30
0.0
 11
1279.142
 21
421.0129
 31
0.0
  0
LINE
  5
4B7
  8
5
  6
CONTINUOUS
 10
1404.142
 20
386.4128
 30
0.0
 11
1279.142
 21
386.4128
 31
0.0
  0
LINE
  5
4B8
  8
5
  6
CONTINUOUS
 10
1279.142
 20
369.2129
 30
0.0
 11
1404.142
 21
369.2129
 31
0.0
  0
LINE
  5
4B9
  8
5
  6
CONTINUOUS
 10
1404.142
 20
354.3128
 30
0.0
 11
1279.142
 21
354.3128
 31
0.0
  0
LINE
  5
4BA
  8
5
  6
CONTINUOUS
 10
1279.142
 20
339.3127
 30
0.0
 11
1404.142
 21
339.3127
 31
0.0
  0
LINE
  5
4BB
  8
5
  6
CONTINUOUS
 10
1404.142
 20
324.3128
 30
0.0
 11
1279.142
 21
324.3128
 31
0.0
  0
LINE
  5
4BC
  8
5
  6
CONTINUOUS
 10
1279.142
 20
307.3128
 30
0.0
 11
1404.142
 21
307.3128
 31
0.0
  0
LINE
  5
4BD
  8
5
  6
CONTINUOUS
 10
965.9256
 20
626.5133
 30
0.0
 11
1406.358
 21
626.5133
 31
0.0
  0
LINE
  5
4BE
  8
5
  6
CONTINUOUS
 10
968.1417
 20
609.3128
 30
0.0
 11
965.9192
 21
626.4634
 31
0.0
  0
LINE
  5
4BF
  8
5
  6
CONTINUOUS
 10
1404.142
 20
609.3128
 30
0.0
 11
1078.18
 21
609.3128
 31
0.0
  0
LINE
  5
4C0
  8
5
  6
CONTINUOUS
 10
983.1036
 20
609.3128
 30
0.0
 11
968.1417
 21
609.3128
 31
0.0
  0
LINE
  5
4C1
  8
5
  6
CONTINUOUS
 10
1406.364
 20
626.4634
 30
0.0
 11
1404.142
 21
609.3128
 31
0.0
  0
LINE
  5
4C2
  8
5
  6
CONTINUOUS
 10
1406.358
 20
181.1122
 30
0.0
 11
965.9256
 21
181.1122
 31
0.0
  0
LINE
  5
4C3
  8
5
  6
CONTINUOUS
 10
1404.142
 20
198.3127
 30
0.0
 11
1406.364
 21
181.1622
 31
0.0
  0
LINE
  5
4C4
  8
5
  6
CONTINUOUS
 10
968.1417
 20
198.3127
 30
0.0
 11
1289.104
 21
198.3128
 31
0.0
  0
LINE
  5
4C5
  8
5
  6
CONTINUOUS
 10
1384.18
 20
198.3128
 30
0.0
 11
1404.142
 21
198.3127
 31
0.0
  0
LINE
  5
4C6
  8
5
  6
CONTINUOUS
 10
965.9192
 20
181.1622
 30
0.0
 11
968.1417
 21
198.3127
 31
0.0
  0
LINE
  5
4C7
  8
5
  6
CONTINUOUS
 10
1286.892
 20
215.104
 30
0.0
 11
1285.469
 21
243.8726
 31
0.0
  0
LINE
  5
4C8
  8
5
  6
CONTINUOUS
 10
1285.469
 20
243.8726
 30
0.0
 11
1259.142
 21
243.8727
 31
0.0
  0
LINE
  5
4C9
  8
5
  6
CONTINUOUS
 10
968.1417
 20
241.3128
 30
0.0
 11
968.1417
 21
198.3127
 31
0.0
  0
LINE
  5
4CA
  8
5
  6
CONTINUOUS
 10
1404.142
 20
198.3127
 30
0.0
 11
1404.142
 21
243.8726
 31
0.0
  0
LINE
  5
4CB
  8
5
  6
CONTINUOUS
 10
1404.142
 20
243.8726
 30
0.0
 11
1387.814
 21
243.8726
 31
0.0
  0
LINE
  5
4CC
  8
5
  6
CONTINUOUS
 10
1387.814
 20
243.8726
 30
0.0
 11
1386.392
 21
215.104
 31
0.0
  0
LINE
  5
4CD
  8
5
  6
CONTINUOUS
 10
1354.642
 20
243.8726
 30
0.0
 11
1318.642
 21
243.8726
 31
0.0
  0
LINE
  5
4CE
  8
5
  6
CONTINUOUS
 10
1081.814
 20
563.7529
 30
0.0
 11
1404.142
 21
563.7529
 31
0.0
  0
LINE
  5
4CF
  8
5
  6
CONTINUOUS
 10
1404.142
 20
563.7529
 30
0.0
 11
1404.142
 21
609.3128
 31
0.0
  0
LINE
  5
4D0
  8
5
  6
CONTINUOUS
 10
968.1417
 20
609.3128
 30
0.0
 11
968.1417
 21
563.7529
 31
0.0
  0
LINE
  5
4D1
  8
5
  6
CONTINUOUS
 10
968.1417
 20
563.7529
 30
0.0
 11
979.469
 21
563.7529
 31
0.0
  0
LINE
  5
4D2
  8
5
  6
CONTINUOUS
 10
1012.642
 20
563.7529
 30
0.0
 11
1048.642
 21
563.7529
 31
0.0
  0
LINE
  5
4D3
  8
5
  6
CONTINUOUS
 10
1406.371
 20
229.2156
 30
0.0
 11
1406.371
 21
181.2128
 31
0.0
  0
LINE
  5
4D4
  8
5
  6
CONTINUOUS
 10
1408.612
 20
198.7128
 30
0.0
 11
1408.612
 21
217.252
 31
0.0
  0
LINE
  5
4D5
  8
5
  6
CONTINUOUS
 10
1408.612
 20
590.3735
 30
0.0
 11
1408.612
 21
608.9128
 31
0.0
  0
LINE
  5
4D6
  8
5
  6
CONTINUOUS
 10
1406.371
 20
626.4128
 30
0.0
 11
1406.371
 21
578.41
 31
0.0
  0
LINE
  5
4D7
  8
5
  6
CONTINUOUS
 10
963.671
 20
217.252
 30
0.0
 11
963.671
 21
198.7128
 31
0.0
  0
LINE
  5
4D8
  8
5
  6
CONTINUOUS
 10
965.9127
 20
181.2128
 30
0.0
 11
965.9127
 21
229.2156
 31
0.0
  0
LINE
  5
4D9
  8
5
  6
CONTINUOUS
 10
965.9127
 20
578.41
 30
0.0
 11
965.9127
 21
626.4128
 31
0.0
  0
LINE
  5
4DA
  8
5
  6
CONTINUOUS
 10
963.6709
 20
608.9128
 30
0.0
 11
963.671
 21
590.3735
 31
0.0
  0
LINE
  5
4DB
  8
5
  6
CONTINUOUS
 10
1307.142
 20
182.8419
 30
0.0
 11
1290.026
 21
191.3141
 31
0.0
  0
LINE
  5
4DC
  8
5
  6
CONTINUOUS
 10
1307.142
 20
200.5195
 30
0.0
 11
1307.142
 21
182.8419
 31
0.0
  0
LINE
  5
4DD
  8
5
  6
CONTINUOUS
 10
1290.026
 20
213.3918
 30
0.0
 11
1307.142
 21
200.5195
 31
0.0
  0
LINE
  5
4DE
  8
5
  6
CONTINUOUS
 10
1290.026
 20
191.3141
 30
0.0
 11
1290.026
 21
213.3918
 31
0.0
  0
LINE
  5
4DF
  8
5
  6
CONTINUOUS
 10
1366.142
 20
200.5195
 30
0.0
 11
1383.258
 21
213.3918
 31
0.0
  0
LINE
  5
4E0
  8
5
  6
CONTINUOUS
 10
1366.142
 20
182.8419
 30
0.0
 11
1366.142
 21
200.5195
 31
0.0
  0
LINE
  5
4E1
  8
5
  6
CONTINUOUS
 10
1383.258
 20
191.3141
 30
0.0
 11
1366.142
 21
182.8419
 31
0.0
  0
LINE
  5
4E2
  8
5
  6
CONTINUOUS
 10
1383.258
 20
213.3918
 30
0.0
 11
1383.258
 21
191.3141
 31
0.0
  0
LINE
  5
4E3
  8
5
  6
CONTINUOUS
 10
1326.642
 20
224.714
 30
0.0
 11
1318.642
 21
231.1659
 31
0.0
  0
LINE
  5
4E4
  8
5
  6
CONTINUOUS
 10
1354.642
 20
231.1659
 30
0.0
 11
1346.642
 21
224.714
 31
0.0
  0
LINE
  5
4E5
  8
5
  6
CONTINUOUS
 10
1346.642
 20
224.714
 30
0.0
 11
1326.642
 21
224.714
 31
0.0
  0
LINE
  5
4E6
  8
5
  6
CONTINUOUS
 10
1366.142
 20
182.8419
 30
0.0
 11
1307.142
 21
182.8419
 31
0.0
  0
LINE
  5
4E7
  8
5
  6
CONTINUOUS
 10
1307.142
 20
200.5195
 30
0.0
 11
1366.142
 21
200.5195
 31
0.0
  0
LINE
  5
4E8
  8
5
  6
CONTINUOUS
 10
1852.959
 20
1174.385
 30
0.0
 11
1879.603
 21
1174.385
 31
0.0
  0
LINE
  5
4E9
  8
5
  6
CONTINUOUS
 10
1883.641
 20
1159.385
 30
0.0
 11
1852.959
 21
1159.385
 31
0.0
  0
LINE
  5
4EA
  8
5
  6
CONTINUOUS
 10
1852.959
 20
1144.385
 30
0.0
 11
1888.859
 21
1144.385
 31
0.0
  0
LINE
  5
4EC
  8
5
  6
CONTINUOUS
 10
1290.026
 20
191.3141
 30
0.0
 11
1286.892
 21
215.104
 31
0.0
  0
LINE
  5
4ED
  8
5
  6
CONTINUOUS
 10
1286.486
 20
254.2129
 30
0.0
 11
1290.026
 21
213.3918
 31
0.0
  0
LINE
  5
4EE
  8
5
  6
CONTINUOUS
 10
1386.797
 20
254.2129
 30
0.0
 11
1383.258
 21
213.3918
 31
0.0
  0
LINE
  5
4EF
  8
5
  6
CONTINUOUS
 10
1383.258
 20
191.3141
 30
0.0
 11
1386.392
 21
215.104
 31
0.0
  0
LINE
  5
4F0
  8
5
  6
CONTINUOUS
 10
1354.642
 20
254.2128
 30
0.0
 11
1354.642
 21
231.1659
 31
0.0
  0
LINE
  5
4F1
  8
5
  6
CONTINUOUS
 10
1318.642
 20
231.1659
 30
0.0
 11
1318.642
 21
254.2128
 31
0.0
  0
LINE
  5
4F2
  8
5
  6
CONTINUOUS
 10
1604.642
 20
543.8127
 30
0.0
 11
1540.642
 21
627.3128
 31
0.0
  0
LINE
  5
4F3
  8
5
  6
CONTINUOUS
 10
1604.642
 20
543.8127
 30
0.0
 11
1604.642
 21
263.8128
 31
0.0
  0
LINE
  5
4F4
  8
5
  6
CONTINUOUS
 10
1540.642
 20
180.3127
 30
0.0
 11
1604.642
 21
263.8128
 31
0.0
  0
LINE
  5
4F5
  8
5
  6
CONTINUOUS
 10
1613.642
 20
543.8128
 30
0.0
 11
1604.642
 21
543.8127
 31
0.0
  0
LINE
  5
4F6
  8
5
  6
CONTINUOUS
 10
1604.642
 20
263.8128
 30
0.0
 11
1613.642
 21
263.8128
 31
0.0
  0
LINE
  5
4F7
  8
5
  6
CONTINUOUS
 10
1472.142
 20
526.1088
 30
0.0
 11
1411.642
 21
526.1088
 31
0.0
  0
LINE
  5
4F8
  8
5
  6
CONTINUOUS
 10
1472.142
 20
281.5168
 30
0.0
 11
1411.642
 21
281.5168
 31
0.0
  0
LINE
  5
4F9
  8
5
  6
CONTINUOUS
 10
1472.142
 20
282.7594
 30
0.0
 11
1540.642
 21
282.7595
 31
0.0
  0
LINE
  5
4FA
  8
5
  6
CONTINUOUS
 10
1472.142
 20
524.8662
 30
0.0
 11
1540.642
 21
524.8662
 31
0.0
  0
LINE
  5
4FC
  8
5
  6
CONTINUOUS
 10
2315.659
 20
1355.985
 30
0.0
 11
2315.559
 21
1355.985
 31
0.0
  0
LINE
  5
4FE
  8
5
  6
CONTINUOUS
 10
2298.059
 20
1338.485
 30
0.0
 11
2332.959
 21
1338.485
 31
0.0
  0
LINE
  5
4FF
  8
5
  6
CONTINUOUS
 10
2315.66
 20
1091.585
 30
0.0
 11
2315.559
 21
1091.585
 31
0.0
  0
LINE
  5
500
  8
5
  6
CONTINUOUS
 10
2315.609
 20
1091.535
 30
0.0
 11
2315.559
 21
1091.585
 31
0.0
  0
LINE
  5
501
  8
5
  6
CONTINUOUS
 10
2315.609
 20
1356.036
 30
0.0
 11
2315.559
 21
1355.985
 31
0.0
  0
LINE
  5
502
  8
5
  6
CONTINUOUS
 10
2332.959
 20
1109.085
 30
0.0
 11
2298.059
 21
1109.085
 31
0.0
  0
LINE
  5
504
  8
5
  6
CONTINUOUS
 10
2311.274
 20
1206.485
 30
0.0
 11
2332.959
 21
1206.485
 31
0.0
  0
LINE
  5
505
  8
5
  6
CONTINUOUS
 10
2332.959
 20
1223.785
 30
0.0
 11
2311.959
 21
1223.785
 31
0.0
  0
LINE
  5
506
  8
5
  6
CONTINUOUS
 10
2311.274
 20
1241.085
 30
0.0
 11
2332.959
 21
1241.085
 31
0.0
  0
LINE
  5
507
  8
5
  6
CONTINUOUS
 10
2332.959
 20
1258.285
 30
0.0
 11
2309.224
 21
1258.285
 31
0.0
  0
LINE
  5
508
  8
5
  6
CONTINUOUS
 10
2306.291
 20
1273.285
 30
0.0
 11
2332.959
 21
1273.285
 31
0.0
  0
LINE
  5
509
  8
5
  6
CONTINUOUS
 10
2332.959
 20
1288.185
 30
0.0
 11
2302.276
 21
1288.185
 31
0.0
  0
LINE
  5
50A
  8
5
  6
CONTINUOUS
 10
2297.058
 20
1303.185
 30
0.0
 11
2332.959
 21
1303.185
 31
0.0
  0
LINE
  5
50B
  8
5
  6
CONTINUOUS
 10
2306.314
 20
1174.385
 30
0.0
 11
2332.959
 21
1174.385
 31
0.0
  0
LINE
  5
50C
  8
5
  6
CONTINUOUS
 10
2332.959
 20
1189.285
 30
0.0
 11
2309.224
 21
1189.285
 31
0.0
  0
LINE
  5
50D
  8
5
  6
CONTINUOUS
 10
2297.058
 20
1144.385
 30
0.0
 11
2332.959
 21
1144.385
 31
0.0
  0
LINE
  5
50E
  8
5
  6
CONTINUOUS
 10
2332.959
 20
1159.385
 30
0.0
 11
2302.276
 21
1159.385
 31
0.0
  0
LINE
  5
511
  8
5
  6
CONTINUOUS
 10
1960.859
 20
1398.458
 30
0.0
 11
1960.859
 21
1442.785
 31
0.0
  0
LINE
  5
512
  8
5
  6
CONTINUOUS
 10
1943.459
 20
1429.384
 30
0.0
 11
1943.459
 21
1404.22
 31
0.0
  0
LINE
  5
513
  8
5
  6
CONTINUOUS
 10
2225.259
 20
1398.307
 30
0.0
 11
2225.259
 21
1442.785
 31
0.0
  0
LINE
  5
514
  8
5
  6
CONTINUOUS
 10
2279.519
 20
1338.485
 30
0.0
 11
2298.059
 21
1338.485
 31
0.0
  0
LINE
  5
515
  8
5
  6
CONTINUOUS
 10
2315.559
 20
1355.985
 30
0.0
 11
2267.556
 21
1355.985
 31
0.0
  0
LINE
  5
516
  8
5
  6
CONTINUOUS
 10
1918.361
 20
1355.985
 30
0.0
 11
1870.359
 21
1355.985
 31
0.0
  0
LINE
  5
517
  8
5
  6
CONTINUOUS
 10
1887.859
 20
1338.485
 30
0.0
 11
1906.398
 21
1338.485
 31
0.0
  0
LINE
  5
518
  8
5
  6
CONTINUOUS
 10
1887.859
 20
1109.085
 30
0.0
 11
1906.398
 21
1109.085
 31
0.0
  0
LINE
  5
519
  8
5
  6
CONTINUOUS
 10
2279.519
 20
1109.085
 30
0.0
 11
2298.059
 21
1109.085
 31
0.0
  0
LINE
  5
51A
  8
5
  6
CONTINUOUS
 10
1918.361
 20
1091.585
 30
0.0
 11
1870.359
 21
1091.585
 31
0.0
  0
LINE
  5
51B
  8
5
  6
CONTINUOUS
 10
2315.559
 20
1091.585
 30
0.0
 11
2267.556
 21
1091.585
 31
0.0
  0
LINE
  5
51C
  8
5
  6
CONTINUOUS
 10
1986.792
 20
1471.785
 30
0.0
 11
1984.782
 21
1414.203
 31
0.0
  0
LINE
  5
51D
  8
5
  6
CONTINUOUS
 10
2201.135
 20
1414.202
 30
0.0
 11
2199.125
 21
1471.785
 31
0.0
  0
LINE
  5
51E
  8
5
  6
CONTINUOUS
 10
1889.665
 20
1444.756
 30
0.0
 11
1902.538
 21
1435.056
 31
0.0
  0
LINE
  5
51F
  8
5
  6
CONTINUOUS
 10
1880.46
 20
1412.978
 30
0.0
 11
1904.25
 21
1373.385
 31
0.0
  0
LINE
  5
520
  8
5
  6
CONTINUOUS
 10
1880.46
 20
1412.978
 30
0.0
 11
1871.988
 21
1427.078
 31
0.0
  0
LINE
  5
521
  8
5
  6
CONTINUOUS
 10
1871.988
 20
1427.078
 30
0.0
 11
1889.665
 21
1444.756
 31
0.0
  0
LINE
  5
522
  8
5
  6
CONTINUOUS
 10
1852.959
 20
1320.185
 30
0.0
 11
1852.959
 21
1338.485
 31
0.0
  0
LINE
  5
523
  8
5
  6
CONTINUOUS
 10
1852.959
 20
1127.385
 30
0.0
 11
1852.959
 21
1144.385
 31
0.0
  0
LINE
  5
524
  8
5
  6
CONTINUOUS
 10
2332.959
 20
1127.385
 30
0.0
 11
2332.959
 21
1126.685
 31
0.0
  0
LINE
  5
525
  8
5
  6
CONTINUOUS
 10
2332.959
 20
1320.185
 30
0.0
 11
2332.959
 21
1303.185
 31
0.0
  0
LINE
  5
526
  8
5
  6
CONTINUOUS
 10
2296.252
 20
1444.756
 30
0.0
 11
2313.929
 21
1427.078
 31
0.0
  0
LINE
  5
527
  8
5
  6
CONTINUOUS
 10
2313.929
 20
1427.078
 30
0.0
 11
2305.457
 21
1412.978
 31
0.0
  0
LINE
  5
528
  8
5
  6
CONTINUOUS
 10
2305.457
 20
1412.978
 30
0.0
 11
2281.667
 21
1373.385
 31
0.0
  0
LINE
  5
529
  8
5
  6
CONTINUOUS
 10
2283.379
 20
1435.056
 30
0.0
 11
2296.252
 21
1444.756
 31
0.0
  0
LINE
  5
52A
  8
5
  6
CONTINUOUS
 10
2213.133
 20
1471.785
 30
0.0
 11
2215.454
 21
1405.323
 31
0.0
  0
LINE
  5
52B
  8
5
  6
CONTINUOUS
 10
1406.832
 20
184.8127
 30
0.0
 11
1411.642
 21
184.8127
 31
0.0
  0
LINE
  5
52C
  8
5
  6
CONTINUOUS
 10
965.4515
 20
622.8128
 30
0.0
 11
954.1416
 21
622.8128
 31
0.0
  0
LINE
  5
52D
  8
5
  6
CONTINUOUS
 10
1902.538
 20
1435.056
 30
0.0
 11
1880.46
 21
1412.978
 31
0.0
  0
LINE
  5
52E
  8
5
  6
CONTINUOUS
 10
2332.959
 20
1320.185
 30
0.0
 11
2289.6
 21
1320.185
 31
0.0
  0
LINE
  5
52F
  8
5
  6
CONTINUOUS
 10
2332.959
 20
1127.385
 30
0.0
 11
2289.6
 21
1127.385
 31
0.0
  0
LINE
  5
530
  8
5
  6
CONTINUOUS
 10
2305.457
 20
1412.978
 30
0.0
 11
2283.379
 21
1435.056
 31
0.0
  0
LINE
  5
531
  8
6
  6
CENTER
 10
2295.959
 20
966.2852
 30
0.0
 11
2295.959
 21
1011.285
 31
0.0
  0
LINE
  5
532
  8
7
  6
DASHED
 10
2307.959
 20
973.7852
 30
0.0
 11
2307.959
 21
1003.785
 31
0.0
  0
LINE
  5
533
  8
6
  6
CENTER
 10
1889.959
 20
966.2852
 30
0.0
 11
1889.959
 21
1011.285
 31
0.0
  0
LINE
  5
534
  8
7
  6
DASHED
 10
2283.959
 20
973.7852
 30
0.0
 11
2283.959
 21
1003.785
 31
0.0
  0
LINE
  5
535
  8
7
  6
DASHED
 10
1901.959
 20
973.7852
 30
0.0
 11
1901.959
 21
1003.785
 31
0.0
  0
LINE
  5
536
  8
7
  6
DASHED
 10
1877.959
 20
973.7852
 30
0.0
 11
1877.959
 21
1003.785
 31
0.0
  0
LINE
  5
537
  8
7
  6
DASHED
 10
1407.642
 20
973.7854
 30
0.0
 11
1407.642
 21
1003.785
 31
0.0
  0
LINE
  5
538
  8
7
  6
DASHED
 10
1383.642
 20
973.7854
 30
0.0
 11
1383.642
 21
1003.785
 31
0.0
  0
LINE
  5
539
  8
7
  6
DASHED
 10
1369.642
 20
973.7854
 30
0.0
 11
1369.642
 21
1003.785
 31
0.0
  0
LINE
  5
53A
  8
7
  6
DASHED
 10
1345.642
 20
973.7854
 30
0.0
 11
1345.642
 21
1003.785
 31
0.0
  0
LINE
  5
53B
  8
7
  6
DASHED
 10
1058.642
 20
973.7854
 30
0.0
 11
1058.642
 21
1003.785
 31
0.0
  0
LINE
  5
53C
  8
7
  6
DASHED
 10
1034.642
 20
973.7854
 30
0.0
 11
1034.642
 21
1003.785
 31
0.0
  0
LINE
  5
53D
  8
7
  6
DASHED
 10
594.8232
 20
973.7853
 30
0.0
 11
594.8232
 21
1003.785
 31
0.0
  0
LINE
  5
53E
  8
7
  6
DASHED
 10
570.8233
 20
973.7853
 30
0.0
 11
570.8233
 21
1003.785
 31
0.0
  0
LINE
  5
53F
  8
7
  6
DASHED
 10
164.8233
 20
973.7853
 30
0.0
 11
164.8233
 21
1003.785
 31
0.0
  0
LINE
  5
540
  8
7
  6
DASHED
 10
188.8232
 20
973.7853
 30
0.0
 11
188.8232
 21
1003.785
 31
0.0
  0
LINE
  5
541
  8
6
  6
CENTER
 10
1395.642
 20
966.2854
 30
0.0
 11
1395.642
 21
1011.285
 31
0.0
  0
LINE
  5
542
  8
6
  6
CENTER
 10
1357.642
 20
966.2854
 30
0.0
 11
1357.642
 21
1011.285
 31
0.0
  0
LINE
  5
543
  8
6
  6
CENTER
 10
1046.642
 20
966.2854
 30
0.0
 11
1046.642
 21
1011.285
 31
0.0
  0
LINE
  5
544
  8
6
  6
CENTER
 10
582.8232
 20
966.2853
 30
0.0
 11
582.8232
 21
1011.285
 31
0.0
  0
LINE
  5
545
  8
6
  6
CENTER
 10
176.8232
 20
966.2853
 30
0.0
 11
176.8232
 21
1011.285
 31
0.0
  0
LINE
  5
546
  8
6
  6
CENTER
 10
2092.959
 20
1011.179
 30
0.0
 11
2092.959
 21
1436.392
 31
0.0
  0
LINE
  5
547
  8
6
  6
CENTER
 10
1880.352
 20
1223.785
 30
0.0
 11
2305.565
 21
1223.785
 31
0.0
  0
LINE
  5
548
  8
5
  6
CONTINUOUS
 10
1956.061
 20
1394.724
 30
0.0
 11
1902.538
 21
1435.056
 31
0.0
  0
LINE
  5
549
  8
5
  6
CONTINUOUS
 10
1852.959
 20
1303.185
 30
0.0
 11
1852.959
 21
1320.185
 31
0.0
  0
LINE
  5
54A
  8
5
  6
CONTINUOUS
 10
1852.959
 20
1109.085
 30
0.0
 11
1852.959
 21
1127.385
 31
0.0
  0
LINE
  5
54B
  8
5
  6
CONTINUOUS
 10
2332.959
 20
1144.385
 30
0.0
 11
2332.959
 21
1127.385
 31
0.0
  0
LINE
  5
54C
  8
5
  6
CONTINUOUS
 10
2332.959
 20
1338.485
 30
0.0
 11
2332.959
 21
1320.185
 31
0.0
  0
LINE
  5
54D
  8
5
  6
CONTINUOUS
 10
2242.559
 20
1404.295
 30
0.0
 11
2283.379
 21
1435.056
 31
0.0
  0
LINE
  5
54E
  8
5
  6
CONTINUOUS
 10
1970.463
 20
1405.323
 30
0.0
 11
1972.784
 21
1471.785
 31
0.0
  0
LINE
  5
54F
  8
5
  6
CONTINUOUS
 10
1896.317
 20
1320.185
 30
0.0
 11
1852.959
 21
1320.185
 31
0.0
  0
LINE
  5
550
  8
5
  6
CONTINUOUS
 10
1896.317
 20
1127.385
 30
0.0
 11
1852.959
 21
1127.385
 31
0.0
  0
LINE
  5
552
  8
6
  6
CENTER
 10
1638.642
 20
403.8128
 30
0.0
 11
1209.642
 21
403.8128
 31
0.0
  0
LINE
  5
555
  8
6
  6
CENTER
 10
699.6417
 20
1223.785
 30
0.0
 11
1624.642
 21
1223.785
 31
0.0
  0
LINE
  5
556
  8
6
  6
CENTER
 10
382.8232
 20
1223.785
 30
0.0
 11
376.8232
 21
1223.785
 31
0.0
  0
LINE
  5
557
  8
6
  6
CENTER
 10
379.8232
 20
1226.785
 30
0.0
 11
379.8232
 21
1220.785
 31
0.0
  0
LINE
  5
558
  8
6
  6
CENTER
 10
384.3232
 20
1223.785
 30
0.0
 11
606.3232
 21
1223.785
 31
0.0
  0
LINE
  5
559
  8
6
  6
CENTER
 10
379.8232
 20
1228.285
 30
0.0
 11
379.8232
 21
1450.285
 31
0.0
  0
LINE
  5
55A
  8
6
  6
CENTER
 10
375.3232
 20
1223.785
 30
0.0
 11
153.3232
 21
1223.785
 31
0.0
  0
LINE
  5
55B
  8
6
  6
CENTER
 10
379.8232
 20
1219.285
 30
0.0
 11
379.8232
 21
997.2853
 31
0.0
  0
LINE
  5
564
  8
0
  6
CONTINUOUS
 10
868.6415
 20
1253.785
 30
0.0
 11
859.6418
 21
1252.404
 31
0.0
  0
LINE
  5
565
  8
0
  6
CONTINUOUS
 10
757.6416
 20
1252.404
 30
0.0
 11
748.6415
 21
1253.785
 31
0.0
  0
LINE
  5
568
  8
5
  6
CONTINUOUS
 10
2385.959
 20
1546.285
 30
0.0
 11
2385.959
 21
1426.285
 31
0.0
  0
LINE
  5
569
  8
5
  6
CONTINUOUS
 10
2385.959
 20
1446.285
 30
0.0
 11
2403.279
 21
1456.285
 31
0.0
  0
LINE
  5
56A
  8
5
  6
CONTINUOUS
 10
2385.959
 20
1526.285
 30
0.0
 11
2403.279
 21
1536.285
 31
0.0
  0
LINE
  5
56B
  8
5
  6
CONTINUOUS
 10
2385.959
 20
1466.285
 30
0.0
 11
2403.279
 21
1476.285
 31
0.0
  0
LINE
  5
56C
  8
5
  6
CONTINUOUS
 10
2385.959
 20
1486.285
 30
0.0
 11
2403.279
 21
1496.285
 31
0.0
  0
LINE
  5
56D
  8
5
  6
CONTINUOUS
 10
2385.959
 20
1506.285
 30
0.0
 11
2403.279
 21
1516.285
 31
0.0
  0
LINE
  5
579
  8
6
  6
CENTER
 10
989.637899
 20
403.8128
 30
0.0
 11
713.6417
 21
403.8128
 31
0.0
  0
LINE
  5
57C
  8
5
  6
CONTINUOUS
 10
1037.252
 20
1575.7221
 30
0.0
 11
1048.696
 21
1575.7224
 31
0.0
  0
LINE
  5
57D
  8
5
  6
CONTINUOUS
 10
1048.696
 20
1591.0313
 30
0.0
 11
1033.641
 21
1591.0309
 31
0.0
  0
LINE
  5
57E
  8
5
  6
CONTINUOUS
 10
1048.694
 20
1618.0286
 30
0.0
 11
1042.902
 21
1618.0284
 31
0.0
  0
LINE
  5
57F
  8
5
  6
CONTINUOUS
 10
1034.361
 20
1593.131
 30
0.0
 11
1048.695
 21
1593.1314
 31
0.0
  0
LINE
  5
580
  8
5
  6
CONTINUOUS
 10
1042.902
 20
1618.0284
 30
0.0
 11
1034.361
 21
1593.131
 31
0.0
  0
LINE
  5
581
  8
5
  6
CONTINUOUS
 10
1033.562
 20
1564.9646
 30
0.0
 11
1037.252
 21
1575.7221
 31
0.0
  0
LINE
  5
582
  8
5
  6
CONTINUOUS
 10
1024.699
 20
1564.9643
 30
0.0
 11
1033.562
 21
1564.9646
 31
0.0
  0
LINE
  5
583
  8
5
  6
CONTINUOUS
 10
1033.641
 20
1591.0309
 30
0.0
 11
1024.699
 21
1564.9643
 31
0.0
  0
LINE
  5
584
  8
5
  6
CONTINUOUS
 10
1131.463
 20
1564.9678
 30
0.0
 11
1145.242
 21
1564.9685
 31
0.0
  0
LINE
  5
585
  8
5
  6
CONTINUOUS
 10
1131.462
 20
1591.0342
 30
0.0
 11
1145.241
 21
1591.0346
 31
0.0
  0
LINE
  5
586
  8
5
  6
CONTINUOUS
 10
1145.24
 20
1618.0319
 30
0.0
 11
1131.461
 21
1618.0315
 31
0.0
  0
LINE
  5
587
  8
5
  6
CONTINUOUS
 10
1131.462
 20
1593.1343
 30
0.0
 11
1145.241
 21
1593.1347
 31
0.0
  0
ARC
  5
588
  8
5
  6
CONTINUOUS
 10
1106.498
 20
1579.7955
 30
0.0
 40
14.82839
 50
270.002
 51
0.0019
  0
LINE
  5
589
  8
5
  6
CONTINUOUS
 10
1085.818
 20
1564.9664
 30
0.0
 11
1099.596
 21
1564.9669
 31
0.0
  0
LINE
  5
58A
  8
5
  6
CONTINUOUS
 10
1099.595
 20
1591.0331
 30
0.0
 11
1085.817
 21
1591.0326
 31
0.0
  0
LINE
  5
58B
  8
5
  6
CONTINUOUS
 10
1085.817
 20
1593.1325
 30
0.0
 11
1099.595
 21
1593.1332
 31
0.0
  0
LINE
  5
58C
  8
5
  6
CONTINUOUS
 10
1099.594
 20
1618.0304
 30
0.0
 11
1085.816
 21
1618.0299
 31
0.0
  0
LINE
  5
58D
  8
5
  6
CONTINUOUS
 10
1085.816
 20
1618.0299
 30
0.0
 11
1085.817
 21
1593.1326
 31
0.0
  0
LINE
  5
58E
  8
5
  6
CONTINUOUS
 10
1050.795
 20
1618.0287
 30
0.0
 11
1050.795
 21
1593.1314
 31
0.0
  0
LINE
  5
58F
  8
5
  6
CONTINUOUS
 10
1065.475
 20
1593.1319
 30
0.0
 11
1056.587
 21
1618.0289
 31
0.0
  0
LINE
  5
590
  8
5
  6
CONTINUOUS
 10
1048.695
 20
1593.1314
 30
0.0
 11
1048.694
 21
1618.0286
 31
0.0
  0
LINE
  5
591
  8
5
  6
CONTINUOUS
 10
1075.53
 20
1564.966
 30
0.0
 11
1066.225
 21
1591.032
 31
0.0
  0
LINE
  5
592
  8
5
  6
CONTINUOUS
 10
1066.03
 20
1564.9657
 30
0.0
 11
1075.53
 21
1564.966
 31
0.0
  0
LINE
  5
593
  8
5
  6
CONTINUOUS
 10
1062.189
 20
1575.7228
 30
0.0
 11
1066.03
 21
1564.9657
 31
0.0
  0
LINE
  5
594
  8
5
  6
CONTINUOUS
 10
1050.796
 20
1575.7226
 30
0.0
 11
1062.189
 21
1575.7228
 31
0.0
  0
LINE
  5
595
  8
5
  6
CONTINUOUS
 10
1050.795
 20
1591.0315
 30
0.0
 11
1050.796
 21
1575.7226
 31
0.0
  0
LINE
  5
596
  8
5
  6
CONTINUOUS
 10
1066.225
 20
1591.032
 30
0.0
 11
1050.795
 21
1591.0315
 31
0.0
  0
LINE
  5
597
  8
5
  6
CONTINUOUS
 10
1050.795
 20
1593.1314
 30
0.0
 11
1065.475
 21
1593.1319
 31
0.0
  0
LINE
  5
598
  8
5
  6
CONTINUOUS
 10
1048.696
 20
1575.7224
 30
0.0
 11
1048.696
 21
1591.0313
 31
0.0
  0
LINE
  5
599
  8
5
  6
CONTINUOUS
 10
1085.817
 20
1591.0326
 30
0.0
 11
1085.818
 21
1564.9664
 31
0.0
  0
LINE
  5
59A
  8
5
  6
CONTINUOUS
 10
1056.587
 20
1618.0289
 30
0.0
 11
1050.795
 21
1618.0287
 31
0.0
  0
LINE
  5
59B
  8
5
  6
CONTINUOUS
 10
1131.461
 20
1618.0315
 30
0.0
 11
1131.462
 21
1593.1343
 31
0.0
  0
LINE
  5
59C
  8
5
  6
CONTINUOUS
 10
1101.694
 20
1618.0305
 30
0.0
 11
1101.695
 21
1593.1332
 31
0.0
  0
ARC
  5
59D
  8
5
  6
CONTINUOUS
 10
1103.466
 20
1608.8394
 30
0.0
 40
13.5281
 50
283.5581
 51
354.7072
  0
LINE
  5
59E
  8
5
  6
CONTINUOUS
 10
1099.595
 20
1593.1332
 30
0.0
 11
1099.594
 21
1618.0304
 31
0.0
  0
LINE
  5
59F
  8
5
  6
CONTINUOUS
 10
1116.272
 20
1591.0337
 30
0.0
 11
1101.695
 21
1591.0331
 31
0.0
  0
ARC
  5
5A0
  8
5
  6
CONTINUOUS
 10
1104.512
 20
1578.9896
 30
0.0
 40
16.83334
 50
57.16511
 51
82.74766
  0
LINE
  5
5A1
  8
5
  6
CONTINUOUS
 10
1101.695
 20
1593.1332
 30
0.0
 11
1113.639
 21
1593.1336
 31
0.0
  0
LINE
  5
5A2
  8
5
  6
CONTINUOUS
 10
1101.696
 20
1564.9669
 30
0.0
 11
1106.498
 21
1564.9672
 31
0.0
  0
LINE
  5
5A3
  8
5
  6
CONTINUOUS
 10
1101.695
 20
1591.0331
 30
0.0
 11
1101.696
 21
1564.9669
 31
0.0
  0
LINE
  5
5A4
  8
5
  6
CONTINUOUS
 10
1099.596
 20
1564.9669
 30
0.0
 11
1099.595
 21
1591.0331
 31
0.0
  0
LINE
  5
5A5
  8
5
  6
CONTINUOUS
 10
1131.462
 20
1591.0342
 30
0.0
 11
1131.463
 21
1564.9678
 31
0.0
  0
ARC
  5
5A6
  8
5
  6
CONTINUOUS
 10
1104.512
 20
1578.9896
 30
0.0
 40
16.83332
 50
2.745839
 51
45.68338
  0
ARC
  5
5A7
  8
5
  6
CONTINUOUS
 10
1106.497
 20
1607.5911
 30
0.0
 40
10.43949
 50
0.001947
 51
90.00195
  0
LINE
  5
5A8
  8
5
  6
CONTINUOUS
 10
1106.496
 20
1618.0306
 30
0.0
 11
1101.694
 21
1618.0305
 31
0.0
  0
ARC
  5
5A9
  8
5
  6
CONTINUOUS
 10
1152.143
 20
1579.7971
 30
0.0
 40
14.82841
 50
270.0022
 51
0.0019
  0
LINE
  5
5AA
  8
5
  6
CONTINUOUS
 10
1147.34
 20
1618.032
 30
0.0
 11
1147.341
 21
1593.1347
 31
0.0
  0
ARC
  5
5AB
  8
5
  6
CONTINUOUS
 10
1149.111
 20
1608.8409
 30
0.0
 40
13.5281
 50
283.5581
 51
354.7072
  0
LINE
  5
5AC
  8
5
  6
CONTINUOUS
 10
1145.241
 20
1593.1347
 30
0.0
 11
1145.24
 21
1618.0319
 31
0.0
  0
ARC
  5
5AD
  8
5
  6
CONTINUOUS
 10
1150.158
 20
1578.9912
 30
0.0
 40
16.83332
 50
2.745839
 51
45.68319
  0
LINE
  5
5AE
  8
5
  6
CONTINUOUS
 10
1145.242
 20
1564.9685
 30
0.0
 11
1145.241
 21
1591.0346
 31
0.0
  0
LINE
  5
5AF
  8
5
  6
CONTINUOUS
 10
1161.918
 20
1591.0352
 30
0.0
 11
1147.341
 21
1591.0348
 31
0.0
  0
LINE
  5
5B0
  8
5
  6
CONTINUOUS
 10
1147.342
 20
1564.9685
 30
0.0
 11
1152.144
 21
1564.9687
 31
0.0
  0
LINE
  5
5B1
  8
5
  6
CONTINUOUS
 10
1147.341
 20
1591.0348
 30
0.0
 11
1147.342
 21
1564.9685
 31
0.0
  0
ARC
  5
5B2
  8
5
  6
CONTINUOUS
 10
1150.158
 20
1578.9912
 30
0.0
 40
16.83337
 50
57.16491
 51
82.74766
  0
LINE
  5
5B3
  8
5
  6
CONTINUOUS
 10
1147.341
 20
1593.1347
 30
0.0
 11
1159.285
 21
1593.1352
 31
0.0
  0
LINE
  5
5B4
  8
5
  6
CONTINUOUS
 10
1152.142
 20
1618.0322
 30
0.0
 11
1147.34
 21
1618.032
 31
0.0
  0
ARC
  5
5B5
  8
5
  6
CONTINUOUS
 10
1152.142
 20
1607.5927
 30
0.0
 40
10.43949
 50
0.001947
 51
90.00195
  0
ARC
  5
5F0
  8
5
  6
CONTINUOUS
 10
479.83227
 20
1261.602682
 30
0.0
 40
9.46967
 50
283.5581
 51
354.7072
  0
LINE
  5
5F1
  8
5
  6
CONTINUOUS
 10
488.79717
 20
1249.138692
 30
0.0
 11
478.59327
 21
1249.138412
 31
0.0
  0
ARC
  5
5F2
  8
5
  6
CONTINUOUS
 10
480.56517
 20
1240.707892
 30
0.0
 40
11.783359
 50
57.16491
 51
82.74766
  0
LINE
  5
5F3
  8
5
  6
CONTINUOUS
 10
478.59327
 20
1250.608342
 30
0.0
 11
486.95407
 21
1250.608692
 31
0.0
  0
ARC
  5
5F4
  8
5
  6
CONTINUOUS
 10
481.95467
 20
1241.272022
 30
0.0
 40
10.379887
 50
270.0022
 51
0.0019
  0
ARC
  5
5F5
  8
5
  6
CONTINUOUS
 10
481.95397
 20
1260.728942
 30
0.0
 40
7.307643
 50
0.001947
 51
90.00195
  0
LINE
  5
5F6
  8
5
  6
CONTINUOUS
 10
428.32557
 20
1230.890252
 30
0.0
 11
421.81207
 21
1249.136452
 31
0.0
  0
LINE
  5
5F7
  8
5
  6
CONTINUOUS
 10
411.01107
 20
1249.136102
 30
0.0
 11
411.01177
 21
1238.419872
 31
0.0
  0
LINE
  5
5F8
  8
5
  6
CONTINUOUS
 10
409.54177
 20
1238.419732
 30
0.0
 11
409.54177
 21
1249.135962
 31
0.0
  0
LINE
  5
5F9
  8
5
  6
CONTINUOUS
 10
399.00327
 20
1249.135682
 30
0.0
 11
392.74387
 21
1230.889062
 31
0.0
  0
LINE
  5
5FA
  8
5
  6
CONTINUOUS
 10
398.94797
 20
1230.889272
 30
0.0
 11
401.53097
 21
1238.419522
 31
0.0
  0
LINE
  5
5FB
  8
5
  6
CONTINUOUS
 10
392.74387
 20
1230.889062
 30
0.0
 11
398.94797
 21
1230.889272
 31
0.0
  0
LINE
  5
5FC
  8
5
  6
CONTINUOUS
 10
401.53097
 20
1238.419522
 30
0.0
 11
409.54177
 21
1238.419732
 31
0.0
  0
LINE
  5
5FD
  8
5
  6
CONTINUOUS
 10
418.98687
 20
1238.420012
 30
0.0
 11
421.67557
 21
1230.890042
 31
0.0
  0
LINE
  5
5FE
  8
5
  6
CONTINUOUS
 10
411.01177
 20
1238.419872
 30
0.0
 11
418.98687
 21
1238.420012
 31
0.0
  0
LINE
  5
5FF
  8
5
  6
CONTINUOUS
 10
421.67557
 20
1230.890042
 30
0.0
 11
428.32557
 21
1230.890252
 31
0.0
  0
LINE
  5
600
  8
5
  6
CONTINUOUS
 10
409.54107
 20
1250.606032
 30
0.0
 11
409.54037
 21
1268.034072
 31
0.0
  0
LINE
  5
601
  8
5
  6
CONTINUOUS
 10
405.48597
 20
1268.033932
 30
0.0
 11
399.50727
 21
1250.605752
 31
0.0
  0
LINE
  5
602
  8
5
  6
CONTINUOUS
 10
409.54177
 20
1249.135962
 30
0.0
 11
399.00327
 21
1249.135682
 31
0.0
  0
LINE
  5
603
  8
5
  6
CONTINUOUS
 10
409.54037
 20
1268.034072
 30
0.0
 11
405.48597
 21
1268.033932
 31
0.0
  0
LINE
  5
604
  8
5
  6
CONTINUOUS
 10
399.50727
 20
1250.605752
 30
0.0
 11
409.54107
 21
1250.606032
 31
0.0
  0
LINE
  5
605
  8
5
  6
CONTINUOUS
 10
411.01107
 20
1268.034142
 30
0.0
 11
411.01107
 21
1250.606032
 31
0.0
  0
LINE
  5
606
  8
5
  6
CONTINUOUS
 10
421.28707
 20
1250.606382
 30
0.0
 11
415.06547
 21
1268.034282
 31
0.0
  0
LINE
  5
607
  8
5
  6
CONTINUOUS
 10
421.81207
 20
1249.136452
 30
0.0
 11
411.01107
 21
1249.136102
 31
0.0
  0
LINE
  5
608
  8
5
  6
CONTINUOUS
 10
411.01107
 20
1250.606032
 30
0.0
 11
421.28707
 21
1250.606382
 31
0.0
  0
LINE
  5
609
  8
5
  6
CONTINUOUS
 10
415.06547
 20
1268.034282
 30
0.0
 11
411.01107
 21
1268.034142
 31
0.0
  0
LINE
  5
60A
  8
5
  6
CONTINUOUS
 10
477.12397
 20
1230.892002
 30
0.0
 11
477.12327
 21
1249.138272
 31
0.0
  0
LINE
  5
60B
  8
5
  6
CONTINUOUS
 10
478.59327
 20
1249.138412
 30
0.0
 11
478.59397
 21
1230.892002
 31
0.0
  0
LINE
  5
60C
  8
5
  6
CONTINUOUS
 10
446.64107
 20
1249.137222
 30
0.0
 11
446.64177
 21
1230.890882
 31
0.0
  0
LINE
  5
60D
  8
5
  6
CONTINUOUS
 10
445.17177
 20
1230.890882
 30
0.0
 11
445.17107
 21
1249.137222
 31
0.0
  0
LINE
  5
60E
  8
5
  6
CONTINUOUS
 10
467.47797
 20
1249.137992
 30
0.0
 11
467.47867
 21
1230.891512
 31
0.0
  0
ARC
  5
60F
  8
5
  6
CONTINUOUS
 10
448.61297
 20
1240.706772
 30
0.0
 40
11.783324
 50
2.745839
 51
45.68338
  0
LINE
  5
610
  8
5
  6
CONTINUOUS
 10
435.52647
 20
1249.136872
 30
0.0
 11
435.52717
 21
1230.890532
 31
0.0
  0
ARC
  5
611
  8
5
  6
CONTINUOUS
 10
450.00317
 20
1241.270902
 30
0.0
 40
10.379873
 50
270.002
 51
0.0019
  0
LINE
  5
612
  8
5
  6
CONTINUOUS
 10
446.64177
 20
1230.890882
 30
0.0
 11
450.00317
 21
1230.891092
 31
0.0
  0
LINE
  5
613
  8
5
  6
CONTINUOUS
 10
435.52717
 20
1230.890532
 30
0.0
 11
445.17177
 21
1230.890882
 31
0.0
  0
LINE
  5
614
  8
5
  6
CONTINUOUS
 10
478.59397
 20
1230.892002
 30
0.0
 11
481.95537
 21
1230.892142
 31
0.0
  0
LINE
  5
615
  8
5
  6
CONTINUOUS
 10
467.47867
 20
1230.891512
 30
0.0
 11
477.12397
 21
1230.892002
 31
0.0
  0
LINE
  5
616
  8
5
  6
CONTINUOUS
 10
446.64037
 20
1268.035402
 30
0.0
 11
446.64107
 21
1250.607292
 31
0.0
  0
LINE
  5
617
  8
5
  6
CONTINUOUS
 10
445.17107
 20
1250.607292
 30
0.0
 11
445.17037
 21
1268.035332
 31
0.0
  0
ARC
  5
618
  8
5
  6
CONTINUOUS
 10
448.61297
 20
1240.706772
 30
0.0
 40
11.783338
 50
57.16511
 51
82.74766
  0
LINE
  5
619
  8
5
  6
CONTINUOUS
 10
446.64107
 20
1250.607292
 30
0.0
 11
455.00187
 21
1250.607572
 31
0.0
  0
LINE
  5
61A
  8
5
  6
CONTINUOUS
 10
450.00177
 20
1268.035472
 30
0.0
 11
446.64037
 21
1268.035402
 31
0.0
  0
ARC
  5
61B
  8
5
  6
CONTINUOUS
 10
447.88077
 20
1261.601632
 30
0.0
 40
9.46967
 50
283.5581
 51
354.7072
  0
LINE
  5
61C
  8
5
  6
CONTINUOUS
 10
456.84497
 20
1249.137642
 30
0.0
 11
446.64107
 21
1249.137222
 31
0.0
  0
LINE
  5
61D
  8
5
  6
CONTINUOUS
 10
435.52577
 20
1268.034982
 30
0.0
 11
435.52647
 21
1250.606872
 31
0.0
  0
LINE
  5
61E
  8
5
  6
CONTINUOUS
 10
445.17107
 20
1249.137222
 30
0.0
 11
435.52647
 21
1249.136872
 31
0.0
  0
LINE
  5
61F
  8
5
  6
CONTINUOUS
 10
435.52647
 20
1250.606802
 30
0.0
 11
445.17107
 21
1250.607292
 31
0.0
  0
LINE
  5
620
  8
5
  6
CONTINUOUS
 10
445.17037
 20
1268.035332
 30
0.0
 11
435.52577
 21
1268.034982
 31
0.0
  0
ARC
  5
621
  8
5
  6
CONTINUOUS
 10
450.00247
 20
1260.727822
 30
0.0
 40
7.307643
 50
0.001947
 51
90.00195
  0
LINE
  5
622
  8
5
  6
CONTINUOUS
 10
478.59257
 20
1268.036452
 30
0.0
 11
478.59327
 21
1250.608342
 31
0.0
  0
LINE
  5
623
  8
5
  6
CONTINUOUS
 10
477.12327
 20
1250.608342
 30
0.0
 11
477.12257
 21
1268.036382
 31
0.0
  0
LINE
  5
624
  8
5
  6
CONTINUOUS
 10
481.95397
 20
1268.036592
 30
0.0
 11
478.59257
 21
1268.036452
 31
0.0
  0
LINE
  5
625
  8
5
  6
CONTINUOUS
 10
467.47727
 20
1268.036102
 30
0.0
 11
467.47797
 21
1250.608062
 31
0.0
  0
LINE
  5
626
  8
5
  6
CONTINUOUS
 10
467.47797
 20
1249.137992
 30
0.0
 11
477.12327
 21
1249.138272
 31
0.0
  0
LINE
  5
627
  8
5
  6
CONTINUOUS
 10
477.12257
 20
1268.036382
 30
0.0
 11
467.47727
 21
1268.036102
 31
0.0
  0
LINE
  5
628
  8
5
  6
CONTINUOUS
 10
467.47797
 20
1250.608062
 30
0.0
 11
477.12327
 21
1250.608342
 31
0.0
  0
ARC
  5
629
  8
5
  6
CONTINUOUS
 10
480.56517
 20
1240.707892
 30
0.0
 40
11.783324
 50
2.745839
 51
45.68319
  0
ARC
  5
62A
  8
5
  6
CONTINUOUS
 10
2132.866565
 20
1639.742521
 30
0.0
 40
9.46967
 50
283.5581
 51
354.7072
  0
LINE
  5
62B
  8
5
  6
CONTINUOUS
 10
2141.831465
 20
1627.278531
 30
0.0
 11
2131.627565
 21
1627.278251
 31
0.0
  0
ARC
  5
62C
  8
5
  6
CONTINUOUS
 10
2133.599465
 20
1618.847731
 30
0.0
 40
11.783359
 50
57.16491
 51
82.74766
  0
LINE
  5
62D
  8
5
  6
CONTINUOUS
 10
2131.627565
 20
1628.748181
 30
0.0
 11
2139.988365
 21
1628.748531
 31
0.0
  0
ARC
  5
62E
  8
5
  6
CONTINUOUS
 10
2134.988965
 20
1619.411861
 30
0.0
 40
10.379887
 50
270.0022
 51
0.0019
  0
ARC
  5
62F
  8
5
  6
CONTINUOUS
 10
2134.988265
 20
1638.868781
 30
0.0
 40
7.307643
 50
0.001947
 51
90.00195
  0
LINE
  5
630
  8
5
  6
CONTINUOUS
 10
2081.359865
 20
1609.030091
 30
0.0
 11
2074.846365
 21
1627.276291
 31
0.0
  0
LINE
  5
631
  8
5
  6
CONTINUOUS
 10
2064.045365
 20
1627.275941
 30
0.0
 11
2064.046065
 21
1616.559711
 31
0.0
  0
LINE
  5
632
  8
5
  6
CONTINUOUS
 10
2062.576065
 20
1616.559571
 30
0.0
 11
2062.576065
 21
1627.275801
 31
0.0
  0
LINE
  5
633
  8
5
  6
CONTINUOUS
 10
2052.037565
 20
1627.275521
 30
0.0
 11
2045.778165
 21
1609.028901
 31
0.0
  0
LINE
  5
634
  8
5
  6
CONTINUOUS
 10
2051.982265
 20
1609.029111
 30
0.0
 11
2054.565265
 21
1616.559361
 31
0.0
  0
LINE
  5
635
  8
5
  6
CONTINUOUS
 10
2045.778165
 20
1609.028901
 30
0.0
 11
2051.982265
 21
1609.029111
 31
0.0
  0
LINE
  5
636
  8
5
  6
CONTINUOUS
 10
2054.565265
 20
1616.559361
 30
0.0
 11
2062.576065
 21
1616.559571
 31
0.0
  0
LINE
  5
637
  8
5
  6
CONTINUOUS
 10
2072.021165
 20
1616.559851
 30
0.0
 11
2074.709865
 21
1609.029881
 31
0.0
  0
LINE
  5
638
  8
5
  6
CONTINUOUS
 10
2064.046065
 20
1616.559711
 30
0.0
 11
2072.021165
 21
1616.559851
 31
0.0
  0
LINE
  5
639
  8
5
  6
CONTINUOUS
 10
2074.709865
 20
1609.029881
 30
0.0
 11
2081.359865
 21
1609.030091
 31
0.0
  0
LINE
  5
63A
  8
5
  6
CONTINUOUS
 10
2062.575365
 20
1628.745871
 30
0.0
 11
2062.574665
 21
1646.173911
 31
0.0
  0
LINE
  5
63B
  8
5
  6
CONTINUOUS
 10
2058.520265
 20
1646.173771
 30
0.0
 11
2052.541565
 21
1628.745591
 31
0.0
  0
LINE
  5
63C
  8
5
  6
CONTINUOUS
 10
2062.576065
 20
1627.275801
 30
0.0
 11
2052.037565
 21
1627.275521
 31
0.0
  0
LINE
  5
63D
  8
5
  6
CONTINUOUS
 10
2062.574665
 20
1646.173911
 30
0.0
 11
2058.520265
 21
1646.173771
 31
0.0
  0
LINE
  5
63E
  8
5
  6
CONTINUOUS
 10
2052.541565
 20
1628.745591
 30
0.0
 11
2062.575365
 21
1628.745871
 31
0.0
  0
LINE
  5
63F
  8
5
  6
CONTINUOUS
 10
2064.045365
 20
1646.173981
 30
0.0
 11
2064.045365
 21
1628.745871
 31
0.0
  0
LINE
  5
640
  8
5
  6
CONTINUOUS
 10
2074.321365
 20
1628.746221
 30
0.0
 11
2068.099765
 21
1646.174121
 31
0.0
  0
LINE
  5
641
  8
5
  6
CONTINUOUS
 10
2074.846365
 20
1627.276291
 30
0.0
 11
2064.045365
 21
1627.275941
 31
0.0
  0
LINE
  5
642
  8
5
  6
CONTINUOUS
 10
2064.045365
 20
1628.745871
 30
0.0
 11
2074.321365
 21
1628.746221
 31
0.0
  0
LINE
  5
643
  8
5
  6
CONTINUOUS
 10
2068.099765
 20
1646.174121
 30
0.0
 11
2064.045365
 21
1646.173981
 31
0.0
  0
LINE
  5
644
  8
5
  6
CONTINUOUS
 10
2130.158265
 20
1609.031841
 30
0.0
 11
2130.157565
 21
1627.278111
 31
0.0
  0
LINE
  5
645
  8
5
  6
CONTINUOUS
 10
2131.627565
 20
1627.278251
 30
0.0
 11
2131.628265
 21
1609.031841
 31
0.0
  0
LINE
  5
646
  8
5
  6
CONTINUOUS
 10
2099.675365
 20
1627.277061
 30
0.0
 11
2099.676065
 21
1609.030721
 31
0.0
  0
LINE
  5
647
  8
5
  6
CONTINUOUS
 10
2098.206065
 20
1609.030721
 30
0.0
 11
2098.205365
 21
1627.277061
 31
0.0
  0
LINE
  5
648
  8
5
  6
CONTINUOUS
 10
2120.512265
 20
1627.277831
 30
0.0
 11
2120.512965
 21
1609.031351
 31
0.0
  0
ARC
  5
649
  8
5
  6
CONTINUOUS
 10
2101.647265
 20
1618.846611
 30
0.0
 40
11.783324
 50
2.745839
 51
45.68338
  0
LINE
  5
64A
  8
5
  6
CONTINUOUS
 10
2088.560765
 20
1627.276711
 30
0.0
 11
2088.561465
 21
1609.030371
 31
0.0
  0
ARC
  5
64B
  8
5
  6
CONTINUOUS
 10
2103.037465
 20
1619.410741
 30
0.0
 40
10.379873
 50
270.002
 51
0.0019
  0
LINE
  5
64C
  8
5
  6
CONTINUOUS
 10
2099.676065
 20
1609.030721
 30
0.0
 11
2103.037465
 21
1609.030931
 31
0.0
  0
LINE
  5
64D
  8
5
  6
CONTINUOUS
 10
2088.561465
 20
1609.030371
 30
0.0
 11
2098.206065
 21
1609.030721
 31
0.0
  0
LINE
  5
64E
  8
5
  6
CONTINUOUS
 10
2131.628265
 20
1609.031841
 30
0.0
 11
2134.989665
 21
1609.031981
 31
0.0
  0
LINE
  5
64F
  8
5
  6
CONTINUOUS
 10
2120.512965
 20
1609.031351
 30
0.0
 11
2130.158265
 21
1609.031841
 31
0.0
  0
LINE
  5
650
  8
5
  6
CONTINUOUS
 10
2099.674665
 20
1646.175241
 30
0.0
 11
2099.675365
 21
1628.747131
 31
0.0
  0
LINE
  5
651
  8
5
  6
CONTINUOUS
 10
2098.205365
 20
1628.747131
 30
0.0
 11
2098.204665
 21
1646.175171
 31
0.0
  0
ARC
  5
652
  8
5
  6
CONTINUOUS
 10
2101.647265
 20
1618.846611
 30
0.0
 40
11.783338
 50
57.16511
 51
82.74766
  0
LINE
  5
653
  8
5
  6
CONTINUOUS
 10
2099.675365
 20
1628.747131
 30
0.0
 11
2108.036165
 21
1628.747411
 31
0.0
  0
LINE
  5
654
  8
5
  6
CONTINUOUS
 10
2103.036065
 20
1646.175311
 30
0.0
 11
2099.674665
 21
1646.175241
 31
0.0
  0
ARC
  5
655
  8
5
  6
CONTINUOUS
 10
2100.915065
 20
1639.741471
 30
0.0
 40
9.46967
 50
283.5581
 51
354.7072
  0
LINE
  5
656
  8
5
  6
CONTINUOUS
 10
2109.879265
 20
1627.277481
 30
0.0
 11
2099.675365
 21
1627.277061
 31
0.0
  0
LINE
  5
657
  8
5
  6
CONTINUOUS
 10
2088.560065
 20
1646.174821
 30
0.0
 11
2088.560765
 21
1628.746711
 31
0.0
  0
LINE
  5
658
  8
5
  6
CONTINUOUS
 10
2098.205365
 20
1627.277061
 30
0.0
 11
2088.560765
 21
1627.276711
 31
0.0
  0
LINE
  5
659
  8
5
  6
CONTINUOUS
 10
2088.560765
 20
1628.746641
 30
0.0
 11
2098.205365
 21
1628.747131
 31
0.0
  0
LINE
  5
65A
  8
5
  6
CONTINUOUS
 10
2098.204665
 20
1646.175171
 30
0.0
 11
2088.560065
 21
1646.174821
 31
0.0
  0
ARC
  5
65B
  8
5
  6
CONTINUOUS
 10
2103.036765
 20
1638.867661
 30
0.0
 40
7.307643
 50
0.001947
 51
90.00195
  0
LINE
  5
65C
  8
5
  6
CONTINUOUS
 10
2131.626865
 20
1646.176291
 30
0.0
 11
2131.627565
 21
1628.748181
 31
0.0
  0
LINE
  5
65D
  8
5
  6
CONTINUOUS
 10
2130.157565
 20
1628.748181
 30
0.0
 11
2130.156865
 21
1646.176221
 31
0.0
  0
LINE
  5
65E
  8
5
  6
CONTINUOUS
 10
2134.988265
 20
1646.176431
 30
0.0
 11
2131.626865
 21
1646.176291
 31
0.0
  0
LINE
  5
65F
  8
5
  6
CONTINUOUS
 10
2120.511565
 20
1646.175941
 30
0.0
 11
2120.512265
 21
1628.747901
 31
0.0
  0
LINE
  5
660
  8
5
  6
CONTINUOUS
 10
2120.512265
 20
1627.277831
 30
0.0
 11
2130.157565
 21
1627.278111
 31
0.0
  0
LINE
  5
661
  8
5
  6
CONTINUOUS
 10
2130.156865
 20
1646.176221
 30
0.0
 11
2120.511565
 21
1646.175941
 31
0.0
  0
LINE
  5
662
  8
5
  6
CONTINUOUS
 10
2120.512265
 20
1628.747901
 30
0.0
 11
2130.157565
 21
1628.748181
 31
0.0
  0
ARC
  5
663
  8
5
  6
CONTINUOUS
 10
2133.599465
 20
1618.847731
 30
0.0
 40
11.783324
 50
2.745839
 51
45.68319
  0
INSERT
  5
688
  8
0
  6
CONTINUOUS
  2
A$C27E33DB7
 10
293.842466
 20
1136.610824
 30
0.0
  0
ENDSEC
  0
EOF
