  0
SECTION
  2
HEADER
  9
$ACADVER
  1
AC1015
  9
$ACADMAINTVER
 70
     6
  9
$DWGCODEPAGE
  3
ANSI_1252
  9
$INSBASE
 10
0.0
 20
0.0
 30
0.0
  9
$EXTMIN
 10
-6.097600043732535
 20
0.0158014452275666
 30
0.0
  9
$EXTMAX
 10
390.3920391349797
 20
262.5158017640996
 30
0.0
  9
$LIMMIN
 10
0.0
 20
0.0
  9
$LIMMAX
 10
420.0
 20
297.0
  9
$ORTHOMODE
 70
     1
  9
$REGENMODE
 70
     1
  9
$FILLMODE
 70
     1
  9
$QTEXTMODE
 70
     0
  9
$MIRRTEXT
 70
     1
  9
$LTSCALE
 40
4.0
  9
$ATTMODE
 70
     1
  9
$TEXTSIZE
 40
2.5
  9
$TRACEWID
 40
1.0
  9
$TEXTSTYLE
  7
T25
  9
$CLAYER
  8
TEXT25
  9
$CELTYPE
  6
ByLayer
  9
$CECOLOR
 62
   256
  9
$CELTSCALE
 40
1.0
  9
$DISPSILH
 70
     0
  9
$DIMSCALE
 40
1.0
  9
$DIMASZ
 40
2.5
  9
$DIMEXO
 40
0.625
  9
$DIMDLI
 40
3.75
  9
$DIMRND
 40
0.0
  9
$DIMDLE
 40
0.0
  9
$DIMEXE
 40
1.25
  9
$DIMTP
 40
0.0
  9
$DIMTM
 40
0.0
  9
$DIMTXT
 40
2.5
  9
$DIMCEN
 40
2.5
  9
$DIMTSZ
 40
0.0
  9
$DIMTOL
 70
     0
  9
$DIMLIM
 70
     0
  9
$DIMTIH
 70
     0
  9
$DIMTOH
 70
     0
  9
$DIMSE1
 70
     0
  9
$DIMSE2
 70
     0
  9
$DIMTAD
 70
     1
  9
$DIMZIN
 70
     8
  9
$DIMBLK
  1

  9
$DIMASO
 70
     1
  9
$DIMSHO
 70
     1
  9
$DIMPOST
  1

  9
$DIMAPOST
  1

  9
$DIMALT
 70
     0
  9
$DIMALTD
 70
     3
  9
$DIMALTF
 40
0.03937007874016
  9
$DIMLFAC
 40
1.0
  9
$DIMTOFL
 70
     1
  9
$DIMTVP
 40
0.0
  9
$DIMTIX
 70
     0
  9
$DIMSOXD
 70
     0
  9
$DIMSAH
 70
     0
  9
$DIMBLK1
  1

  9
$DIMBLK2
  1

  9
$DIMSTYLE
  2
ISO-25
  9
$DIMCLRD
 70
     0
  9
$DIMCLRE
 70
     0
  9
$DIMCLRT
 70
     0
  9
$DIMTFAC
 40
1.0
  9
$DIMGAP
 40
0.625
  9
$DIMJUST
 70
     0
  9
$DIMSD1
 70
     0
  9
$DIMSD2
 70
     0
  9
$DIMTOLJ
 70
     0
  9
$DIMTZIN
 70
     8
  9
$DIMALTZ
 70
     0
  9
$DIMALTTZ
 70
     0
  9
$DIMUPT
 70
     0
  9
$DIMDEC
 70
     2
  9
$DIMTDEC
 70
     2
  9
$DIMALTU
 70
     2
  9
$DIMALTTD
 70
     3
  9
$DIMTXSTY
  7
Standard
  9
$DIMAUNIT
 70
     0
  9
$DIMADEC
 70
     0
  9
$DIMALTRND
 40
0.0
  9
$DIMAZIN
 70
     0
  9
$DIMDSEP
 70
    44
  9
$DIMATFIT
 70
     3
  9
$DIMFRAC
 70
     0
  9
$DIMLDRBLK
  1

  9
$DIMLUNIT
 70
     2
  9
$DIMLWD
 70
    -2
  9
$DIMLWE
 70
    -2
  9
$DIMTMOVE
 70
     0
  9
$LUNITS
 70
     2
  9
$LUPREC
 70
     4
  9
$SKETCHINC
 40
1.0
  9
$FILLETRAD
 40
0.0
  9
$AUNITS
 70
     0
  9
$AUPREC
 70
     0
  9
$MENU
  1
.
  9
$ELEVATION
 40
0.0
  9
$PELEVATION
 40
0.0
  9
$THICKNESS
 40
0.0
  9
$LIMCHECK
 70
     0
  9
$CHAMFERA
 40
10.0
  9
$CHAMFERB
 40
10.0
  9
$CHAMFERC
 40
20.0
  9
$CHAMFERD
 40
0.0
  9
$SKPOLY
 70
     0
  9
$TDCREATE
 40
2451507.447628368
  9
$TDUCREATE
 40
2451507.364295034
  9
$TDUPDATE
 40
2452985.628376689
  9
$TDUUPDATE
 40
2452985.545043356
  9
$TDINDWG
 40
2.4578770833
  9
$TDUSRTIMER
 40
2.4578769676
  9
$USRTIMER
 70
     1
  9
$ANGBASE
 50
0.0
  9
$ANGDIR
 70
     0
  9
$PDMODE
 70
     0
  9
$PDSIZE
 40
0.0
  9
$PLINEWID
 40
0.0
  9
$SPLFRAME
 70
     0
  9
$SPLINETYPE
 70
     6
  9
$SPLINESEGS
 70
     8
  9
$HANDSEED
  5
9CB
  9
$SURFTAB1
 70
     6
  9
$SURFTAB2
 70
     6
  9
$SURFTYPE
 70
     6
  9
$SURFU
 70
     6
  9
$SURFV
 70
     6
  9
$UCSBASE
  2

  9
$UCSNAME
  2

  9
$UCSORG
 10
0.0
 20
0.0
 30
0.0
  9
$UCSXDIR
 10
1.0
 20
0.0
 30
0.0
  9
$UCSYDIR
 10
0.0
 20
1.0
 30
0.0
  9
$UCSORTHOREF
  2

  9
$UCSORTHOVIEW
 70
     0
  9
$UCSORGTOP
 10
0.0
 20
0.0
 30
0.0
  9
$UCSORGBOTTOM
 10
0.0
 20
0.0
 30
0.0
  9
$UCSORGLEFT
 10
0.0
 20
0.0
 30
0.0
  9
$UCSORGRIGHT
 10
0.0
 20
0.0
 30
0.0
  9
$UCSORGFRONT
 10
0.0
 20
0.0
 30
0.0
  9
$UCSORGBACK
 10
0.0
 20
0.0
 30
0.0
  9
$PUCSBASE
  2

  9
$PUCSNAME
  2

  9
$PUCSORG
 10
0.0
 20
0.0
 30
0.0
  9
$PUCSXDIR
 10
1.0
 20
0.0
 30
0.0
  9
$PUCSYDIR
 10
0.0
 20
1.0
 30
0.0
  9
$PUCSORTHOREF
  2

  9
$PUCSORTHOVIEW
 70
     0
  9
$PUCSORGTOP
 10
0.0
 20
0.0
 30
0.0
  9
$PUCSORGBOTTOM
 10
0.0
 20
0.0
 30
0.0
  9
$PUCSORGLEFT
 10
0.0
 20
0.0
 30
0.0
  9
$PUCSORGRIGHT
 10
0.0
 20
0.0
 30
0.0
  9
$PUCSORGFRONT
 10
0.0
 20
0.0
 30
0.0
  9
$PUCSORGBACK
 10
0.0
 20
0.0
 30
0.0
  9
$USERI1
 70
     0
  9
$USERI2
 70
     0
  9
$USERI3
 70
     0
  9
$USERI4
 70
     0
  9
$USERI5
 70
     0
  9
$USERR1
 40
0.0
  9
$USERR2
 40
0.0
  9
$USERR3
 40
0.0
  9
$USERR4
 40
0.0
  9
$USERR5
 40
0.0
  9
$WORLDVIEW
 70
     1
  9
$SHADEDGE
 70
     3
  9
$SHADEDIF
 70
    70
  9
$TILEMODE
 70
     1
  9
$MAXACTVP
 70
    64
  9
$PINSBASE
 10
0.0
 20
0.0
 30
0.0
  9
$PLIMCHECK
 70
     0
  9
$PEXTMIN
 10
1.000000000000000E+20
 20
1.000000000000000E+20
 30
1.000000000000000E+20
  9
$PEXTMAX
 10
-1.000000000000000E+20
 20
-1.000000000000000E+20
 30
-1.000000000000000E+20
  9
$PLIMMIN
 10
-6.350006103515625
 20
-6.349999904632568
  9
$PLIMMAX
 10
273.0499877929687
 20
209.5499939918517
  9
$UNITMODE
 70
     0
  9
$VISRETAIN
 70
     1
  9
$PLINEGEN
 70
     0
  9
$PSLTSCALE
 70
     1
  9
$TREEDEPTH
 70
  3020
  9
$CMLSTYLE
  2
Standard
  9
$CMLJUST
 70
     0
  9
$CMLSCALE
 40
20.0
  9
$PROXYGRAPHICS
 70
     1
  9
$MEASUREMENT
 70
     1
  9
$CELWEIGHT
370
    -1
  9
$ENDCAPS
280
     0
  9
$JOINSTYLE
280
     0
  9
$LWDISPLAY
290
     0
  9
$INSUNITS
 70
     4
  9
$HYPERLINKBASE
  1

  9
$STYLESHEET
  1
HP5Si.ctb
  9
$XEDIT
290
     1
  9
$CEPSNTYPE
380
     0
  9
$PSTYLEMODE
290
     1
  9
$FINGERPRINTGUID
  2
{16D15905-A24A-11D3-B118-0008C7CA2EDA}
  9
$VERSIONGUID
  2
{ED78B3A2-C68E-42DF-A9C4-51F5DA1DA8CD}
  9
$EXTNAMES
290
     1
  9
$PSVPSCALE
 40
0.0
  9
$OLESTARTUP
290
     0
  0
ENDSEC
  0
SECTION
  2
CLASSES
  0
CLASS
  1
ACDBDICTIONARYWDFLT
  2
AcDbDictionaryWithDefault
  3
AutoCAD 2000
 90
        0
280
     0
281
     0
  0
CLASS
  1
ACDBPLACEHOLDER
  2
AcDbPlaceHolder
  3
AutoCAD 2000
 90
        0
280
     0
281
     0
  0
CLASS
  1
LAYOUT
  2
AcDbLayout
  3
AutoCAD 2000
 90
        0
280
     0
281
     0
  0
CLASS
  1
DICTIONARYVAR
  2
AcDbDictionaryVar
  3
AutoCAD 2000
 90
        0
280
     0
281
     0
  0
CLASS
  1
ACME_DOCUMENT
  2
AcMeDbDoc
  3
AcMeServices
 90
        0
280
     0
281
     0
  0
CLASS
  1
AMGSETTINGSOBJ
  2
AmgSettingsObj
  3
"AcadM|Product Description: AutoCAD Mechanical 2000|Company: Autodesk"
 90
        0
280
     0
281
     0
  0
CLASS
  1
ACMESCOPE
  2
AcMeScope
  3
AcMeServices
 90
        0
280
     0
281
     0
  0
CLASS
  1
ACMECOMMANDHISTORY
  2
AcMeCommandHistory
  3
AcMeServices
 90
        0
280
     0
281
     0
  0
CLASS
  1
ACIMSYSVARMAN
  2
AcImSysVarManager
  3
AcMeServices
 90
        0
280
     0
281
     0
  0
CLASS
  1
ACIMREALSYSVAR
  2
AcImRealSysVar
  3
AcMeServices
 90
        0
280
     0
281
     0
  0
CLASS
  1
ACIMINTSYSVAR
  2
AcImIntSysVar
  3
AcMeServices
 90
        0
280
     0
281
     0
  0
CLASS
  1
ACMEDRAWINGMAN
  2
AcMeDrawingMan
  3
AcMeServices
 90
        0
280
     0
281
     0
  0
CLASS
  1
ACMEVIEW
  2
AcMeView
  3
AcMeServices
 90
        0
280
     0
281
     0
  0
CLASS
  1
ACDBENTITYCACHE
  2
AcMeEntityCache
  3
AcMeServices
 90
        0
280
     0
281
     0
  0
CLASS
  1
GSMANAGER
  2
AcMeGSManager
  3
AcMeServices
 90
        0
280
     0
281
     0
  0
CLASS
  1
AmdtInternalReactor
  2
AmdtInternalReactor
  3
AcMeServices
 90
        0
280
     0
281
     0
  0
CLASS
  1
ACMESTATEMGR
  2
AcMeStateMgr
  3
AcMeServices
 90
        0
280
     0
281
     0
  0
CLASS
  1
ACGREFMASTER
  2
AcGrefMaster
  3
AcAttribServices
 90
        0
280
     0
281
     0
  0
CLASS
  1
AM_DRAWING_MGR
  2
AcDmDwgMgr
  3
AcMechDwgViewMgmt
 90
        0
280
     0
281
     0
  0
CLASS
  1
AM_DWG_DOCUMENT
  2
AcDmDwgDocument
  3
AcMechDwgViewMgmt
 90
        0
280
     0
281
     0
  0
CLASS
  1
AM_DWG_SHEET
  2
AcDmSheet
  3
AcMechDwgViewMgmt
 90
        0
280
     0
281
     0
  0
CLASS
  1
AM_VIEWDIMPARMAP
  2
AcDmViewDimParMap
  3
AcMechDwgViewMgmt
 90
        0
280
     0
281
     0
  0
CLASS
  1
AM_DWGMGR_NAME
  2
AcDmDwgMgrName
  3
AcMechDwgViewMgmt
 90
        0
280
     0
281
     0
  0
CLASS
  1
ACME_DATABASE
  2
AcMeDbDatabase
  3
AcMeServices
 90
        0
280
     0
281
     0
  0
CLASS
  1
ACRFINSADJUSTERMGR
  2
AcRfInsAdjusterMgr
  3
AcMeServices
 90
        0
280
     0
281
     0
  0
CLASS
  1
ACGREFMASTER
  2
AcGrefacadMaster
  3
AcGrefServices
 90
        0
280
     0
281
     0
  0
CLASS
  1
AMDTMENUSTATEMGR
  2
AmdtMenuStateMgr
  3
McadcomServices
 90
        0
280
     0
281
     0
  0
CLASS
  1
AMDTMCOMMENUSTATE
  2
AmdtMcomMenuState
  3
McadcomServices
 90
        0
280
     0
281
     0
  0
CLASS
  1
ASAPP
  2
AcAsAppObject
  3
AutoSurfServices
 90
        0
280
     0
281
     0
  0
CLASS
  1
IM_STATIC_MAN
  2
AcImStaticVarManager
  3
AcMeServices
 90
        0
280
     0
281
     0
  0
CLASS
  1
ACIMSTRSYSVAR
  2
AcImStrSysVar
  3
AcMeServices
 90
        0
280
     0
281
     0
  0
CLASS
  1
ACIMDBLSTATICVAR
  2
AcImDblStaticVar
  3
AcMeServices
 90
        0
280
     0
281
     0
  0
CLASS
  1
ACIMSTRSTATICVAR
  2
AcImStrStaticVar
  3
AcMeServices
 90
        0
280
     0
281
     0
  0
CLASS
  1
ACIMINTSTATICVAR
  2
AcImIntStaticVar
  3
AcMeServices
 90
        0
280
     0
281
     0
  0
CLASS
  1
ACADGREFMODULE
  2
AcAdGrefModule
  3
AdGrefServices
 90
        0
280
     0
281
     0
  0
CLASS
  1
AMIMASTER
  2
AmiMaster
  3
AmiServices
 90
        0
280
     0
281
     0
  0
CLASS
  1
ACASGREFMASTER
  2
AcAsGrefMaster
  3
AutoSurfResolverServices
 90
        0
280
     0
281
     0
  0
CLASS
  1
MAPIAMMOUDLE
  2
MApiAmModule
  3
MApiAmServices
 90
        0
280
     0
281
     0
  0
CLASS
  1
AMDTDMMENUSTATE
  2
AmdtDmMenuState
  3
AcMechDwgViewMgmt
 90
        0
280
     0
281
     0
  0
CLASS
  1
AMDTADMENUSTATE
  2
AmdtAdMenuState
  3
DesignerServices
 90
        0
280
     0
281
     0
  0
CLASS
  1
ADAPPL
  2
AcAdAppl
  3
DesignerServices
 90
        0
280
     0
281
     0
  0
CLASS
  1
DEPMGR
  2
AcAdDepMgr
  3
DesignerServices
 90
        0
280
     0
281
     0
  0
CLASS
  1
PARAMMGR
  2
AcAdParamMgr
  3
DesignerServices
 90
        0
280
     0
281
     0
  0
CLASS
  1
PARAMSCOPE
  2
AcAdParamScope
  3
DesignerServices
 90
        0
280
     0
281
     0
  0
CLASS
  1
NAMEDAPPL
  2
AcAdNamedAppl
  3
DesignerServices
 90
        0
280
     0
281
     0
  0
CLASS
  1
ADHNTMPLT
  2
AdHoleNoteTemplateMgr
  3
DesignerServices
 90
        0
280
     0
281
     0
  0
CLASS
  1
AM_HNTEMPLATE_MGR_NAME
  2
AdHoleNoteTemplateMgrName
  3
DesignerServices
 90
        0
280
     0
281
     0
  0
CLASS
  1
AMDTAMMENUSTATE
  2
AmdtAmMenuState
  3
DesignerAssemblies
 90
        0
280
     0
281
     0
  0
CLASS
  1
ACAMPROJECT
  2
AcAmProject
  3
DesignerAssemblies
 90
        0
280
     0
281
     0
  0
CLASS
  1
ACAMGRCOMPDEF
  2
AcAmGrCompDef
  3
DesignerAssemblies
 90
        0
280
     0
281
     0
  0
CLASS
  1
ACCMCONTEXT
  2
AcCmContext
  3
DesignerAssemblies
 90
        0
280
     0
281
     0
  0
CLASS
  1
ACAMCOMPDEF
  2
AcAmCompDef
  3
DesignerAssemblies
 90
        0
280
     0
281
     0
  0
CLASS
  1
ACAMCOMPDEFMGR
  2
AcAmCompDefMgr
  3
DesignerAssemblies
 90
        0
280
     0
281
     0
  0
CLASS
  1
AMCONTEXTMGR
  2
AcAmContextMgr
  3
DesignerAssemblies
 90
        0
280
     0
281
     0
  0
CLASS
  1
ACAMCONTEXTMODELER
  2
AcAmContextModeler
  3
DesignerAssemblies
 90
        0
280
     0
281
     0
  0
CLASS
  1
MAPIADMODULE
  2
MApiAdModule
  3
MApiAdServices
 90
        0
280
     0
281
     0
  0
CLASS
  1
ACMDATADICTIONARY
  2
AcmDataDictionary
  3
"AcmSymBB|Product Description: AutoCAD Mechanical 2000|Company: Autodesk"
 90
        0
280
     0
281
     0
  0
CLASS
  1
ACMDATAENTRYBLOCK
  2
AcmDataEntryBlock
  3
"AcmSymBB|Product Description: AutoCAD Mechanical 2000|Company: Autodesk"
 90
        0
280
     0
281
     0
  0
CLASS
  1
AMDTBROWSERDBTAB
  2
AmdtBrowserDbTab
  3
McadcomServices
 90
        0
280
     0
281
     0
  0
CLASS
  1
CBROWSERAPPOBJECT
  2
CBrowserAppObject
  3
McadcomServices
 90
        0
280
     0
281
     0
  0
CLASS
  1
DM_PLACEHOLDER
  2
AcDmSelsetPlaceholder
  3
AcMechDwgViewMgmt
 90
        0
280
     0
281
     0
  0
CLASS
  1
CATALOGSTATE
  2
AcAmCatalogState
  3
DesignerAssemblies
 90
        0
280
     0
281
     0
  0
CLASS
  1
ACAMGRCOMPDEFSET
  2
AcAmGrCompDefSet
  3
DesignerAssemblies
 90
        0
280
     0
281
     0
  0
CLASS
  1
AMGOBJPROPCFG
  2
AmgObjPropCfg
  3
"AmgLay|Product Description: AutoCAD Mechanical 2000|Company: Autodesk"
 90
        1
280
     0
281
     0
  0
CLASS
  1
ACAMGFILTERDAT
  2
AcAmgFilterDat
  3
"AcadM|Product Description: AutoCAD Mechanical 2000|Company: Autodesk"
 90
        0
280
     0
281
     0
  0
CLASS
  1
LAYER_INDEX
  2
AcDbLayerIndex
  3
AutoCAD 2000
 90
        0
280
     0
281
     0
  0
CLASS
  1
IDBUFFER
  2
AcDbIdBuffer
  3
AutoCAD 2000
 90
        0
280
     0
281
     0
  0
ENDSEC
  0
SECTION
  2
TABLES
  0
TABLE
  2
VPORT
  5
8
330
0
100
AcDbSymbolTable
 70
     3
  0
VPORT
  5
9A9
330
8
100
AcDbSymbolTableRecord
100
AcDbViewportTableRecord
  2
*Active
 70
     0
 10
0.0
 20
0.0
 11
1.0
 21
1.0
 12
213.7012111082334
 22
138.0724359016492
 13
0.0
 23
0.0
 14
0.5
 24
0.5
 15
10.0
 25
10.0
 16
0.0
 26
0.0
 36
1.0
 17
0.0
 27
0.0
 37
0.0
 40
360.3831846695437
 41
1.26002971768202
 42
50.0
 43
0.0
 44
0.0
 50
0.0
 51
0.0
 71
     0
 72
   100
 73
     1
 74
     1
 75
     0
 76
     0
 77
     0
 78
     0
281
     0
 65
     1
110
0.0
120
0.0
130
0.0
111
1.0
121
0.0
131
0.0
112
0.0
122
1.0
132
0.0
 79
     0
146
0.0
  0
ENDTAB
  0
TABLE
  2
LTYPE
  5
5
330
0
100
AcDbSymbolTable
 70
    16
  0
LTYPE
  5
14
330
5
100
AcDbSymbolTableRecord
100
AcDbLinetypeTableRecord
  2
ByBlock
 70
     0
  3

 72
    65
 73
     0
 40
0.0
  0
LTYPE
  5
15
330
5
100
AcDbSymbolTableRecord
100
AcDbLinetypeTableRecord
  2
ByLayer
 70
     0
  3

 72
    65
 73
     0
 40
0.0
  0
LTYPE
  5
16
330
5
100
AcDbSymbolTableRecord
100
AcDbLinetypeTableRecord
  2
Continuous
 70
     0
  3
Solid line
 72
    65
 73
     0
 40
0.0
  0
LTYPE
  5
1BB
330
5
100
AcDbSymbolTableRecord
100
AcDbLinetypeTableRecord
  2
DASHED
 70
     0
  3
__ __ __ __ __ __ __ __ __ __ __ __ __ __ __ __
 72
    65
 73
     2
 40
0.75
 49
0.5
 74
     0
 49
-0.25
 74
     0
  0
LTYPE
  5
1BC
330
5
100
AcDbSymbolTableRecord
100
AcDbLinetypeTableRecord
  2
CENTER
 70
     0
  3
____ _ ____ _ ____ _ ____ _ ____ _ ____ _ ____ 
 72
    65
 73
     4
 40
2.0
 49
1.25
 74
     0
 49
-0.25
 74
     0
 49
0.25
 74
     0
 49
-0.25
 74
     0
  0
LTYPE
  5
1BD
330
5
100
AcDbSymbolTableRecord
100
AcDbLinetypeTableRecord
  2
DASHDOT
 70
     0
  3
__ . __ . __ . __ . __ . __ . __ . __ . __ . __
 72
    65
 73
     4
 40
1.0
 49
0.5
 74
     0
 49
-0.25
 74
     0
 49
0.0
 74
     0
 49
-0.25
 74
     0
  0
LTYPE
  5
1BE
330
5
100
AcDbSymbolTableRecord
100
AcDbLinetypeTableRecord
  2
DOT
 70
     0
  3
. . . . . . . . . . . . . . . . . . . . . . . .
 72
    65
 73
     2
 40
0.25
 49
0.0
 74
     0
 49
-0.25
 74
     0
  0
LTYPE
  5
1BF
330
5
100
AcDbSymbolTableRecord
100
AcDbLinetypeTableRecord
  2
HIDDEN
 70
     0
  3
__ __ __ __ __ __ __ __ __ __ __ __ __ __ __ __
 72
    65
 73
     2
 40
0.375
 49
0.25
 74
     0
 49
-0.125
 74
     0
  0
LTYPE
  5
1C0
330
5
100
AcDbSymbolTableRecord
100
AcDbLinetypeTableRecord
  2
PHANTOM2
 70
     0
  3
___ _ _ ___ _ _ ___ _ _ ___ _ _ ___ _ _ ___ _ _
 72
    65
 73
     6
 40
1.25
 49
0.625
 74
     0
 49
-0.125
 74
     0
 49
0.125
 74
     0
 49
-0.125
 74
     0
 49
0.125
 74
     0
 49
-0.125
 74
     0
  0
LTYPE
  5
1C1
330
5
100
AcDbSymbolTableRecord
100
AcDbLinetypeTableRecord
  2
ASULTYPE
 70
     0
  3
Solid line
 72
    65
 73
     2
 40
3.0
 49
2.5
 74
     0
 49
0.5
 74
     0
  0
LTYPE
  5
1C2
330
5
100
AcDbSymbolTableRecord
100
AcDbLinetypeTableRecord
  2
ASVLTYPE
 70
     0
  3
__ __ __ __ __ __ __ __ __ __ __ __ __ __ __ __ __ __ __ __ __
 72
    65
 73
     2
 40
0.75
 49
0.5
 74
     0
 49
-0.25
 74
     0
  0
LTYPE
  5
1C3
330
5
100
AcDbSymbolTableRecord
100
AcDbLinetypeTableRecord
  2
GEN3
 70
     0
  3
-- -- -- -- -- -- -- -- -- -- -- -- -- -- --
 72
    65
 73
     2
 40
6.25
 49
4.75
 74
     0
 49
-1.5
 74
     0
  0
LTYPE
  5
1C4
330
5
100
AcDbSymbolTableRecord
100
AcDbLinetypeTableRecord
  2
GEN7
 70
     0
  3
____ . ____ . ____ . ____ . ____ . ____ . ____
 72
    65
 73
     4
 40
13.75
 49
9.75
 74
     0
 49
-1.5
 74
     0
 49
1.0
 74
     0
 49
-1.5
 74
     0
  0
LTYPE
  5
957
330
5
100
AcDbSymbolTableRecord
100
AcDbLinetypeTableRecord
  2
gen3a
 70
     0
  3
 - - - - -
 72
    65
 73
     2
 40
3.125
 49
2.25
 74
     0
 49
-0.875
 74
     0
  0
LTYPE
  5
958
330
5
100
AcDbSymbolTableRecord
100
AcDbLinetypeTableRecord
  2
gen7a
 70
     0
  3
__ . __ . __
 72
    65
 73
     4
 40
6.875
 49
4.75
 74
     0
 49
-0.875
 74
     0
 49
0.375
 74
     0
 49
-0.875
 74
     0
  0
LTYPE
  5
959
330
5
100
AcDbSymbolTableRecord
100
AcDbLinetypeTableRecord
  2
gen4a
 70
     0
  3
_____ . . _____ . . _____ . . ____ .. ____
 72
    65
 73
     6
 40
16.25
 49
9.75
 74
     0
 49
-1.5
 74
     0
 49
1.0
 74
     0
 49
-1.5
 74
     0
 49
1.0
 74
     0
 49
-1.5
 74
     0
  0
LTYPE
  5
95C
330
5
100
AcDbSymbolTableRecord
100
AcDbLinetypeTableRecord
  2
genzigzag
 70
     0
  3
/\/-/\/-/\/-/\/-/\/-/\/
 72
    65
 73
     2
 40
12.0001
 49
0.0001
 74
     4
 75
   135
340
95B
 46
2.0
 50
0.0
 44
0.0
 45
0.0
 49
-12.0
 74
     0
  0
LTYPE
  5
95D
330
5
100
AcDbSymbolTableRecord
100
AcDbLinetypeTableRecord
  2
AM_ISO02W050
 70
     0
  3
__ __ __ __ __ __ __ __ __ __ __ __ __ __ __
 72
    65
 73
     2
 40
7.5
 49
6.0
 74
     0
 49
-1.5
 74
     0
  0
ENDTAB
  0
TABLE
  2
LAYER
  5
2
330
0
100
AcDbSymbolTable
 70
    25
  0
LAYER
  5
10
330
2
100
AcDbSymbolTableRecord
100
AcDbLayerTableRecord
  2
0
 70
     0
 62
     7
  6
Continuous
370
    -3
390
F
  0
LAYER
  5
1C5
330
2
100
AcDbSymbolTableRecord
100
AcDbLayerTableRecord
  2
PAKSU
 70
     0
 62
     3
  6
Continuous
370
    -3
390
F
  0
LAYER
  5
1C6
330
2
100
AcDbSymbolTableRecord
100
AcDbLayerTableRecord
  2
RAAMI
 70
     0
 62
     4
  6
Continuous
370
    -3
390
F
  0
LAYER
  5
1C7
330
2
100
AcDbSymbolTableRecord
100
AcDbLayerTableRecord
  2
OHUT
 70
     0
 62
     6
  6
Continuous
370
    -3
390
F
  0
LAYER
  5
1C8
330
2
100
AcDbSymbolTableRecord
100
AcDbLayerTableRecord
  2
KESKI
 70
     0
 62
     2
  6
Continuous
370
    -3
390
F
  0
LAYER
  5
1C9
330
2
100
AcDbSymbolTableRecord
100
AcDbLayerTableRecord
  2
KATKO
 70
     0
 62
    13
  6
CENTER
370
    -3
390
F
  0
LAYER
  5
1CA
330
2
100
AcDbSymbolTableRecord
100
AcDbLayerTableRecord
  2
KATKO07
 70
     0
 62
     1
  6
DASHED
370
    -3
390
F
  0
LAYER
  5
1CB
330
2
100
AcDbSymbolTableRecord
100
AcDbLayerTableRecord
  2
PISTKATK
 70
     0
 62
    19
  6
DASHDOT
370
    -3
390
F
  0
LAYER
  5
1CC
330
2
100
AcDbSymbolTableRecord
100
AcDbLayerTableRecord
  2
MITTA
 70
     0
 62
     1
  6
Continuous
370
    -3
390
F
  0
LAYER
  5
1CD
330
2
100
AcDbSymbolTableRecord
100
AcDbLayerTableRecord
  2
APU
 70
     0
 62
     1
  6
DOT
370
    -3
390
F
  0
LAYER
  5
1CE
330
2
100
AcDbSymbolTableRecord
100
AcDbLayerTableRecord
  2
TEXT25
 70
     0
 62
     1
  6
Continuous
370
    -3
390
F
  0
LAYER
  5
1CF
330
2
100
AcDbSymbolTableRecord
100
AcDbLayerTableRecord
  2
TEXT35
 70
     0
 62
     5
  6
Continuous
370
    -3
390
F
  0
LAYER
  5
1D0
330
2
100
AcDbSymbolTableRecord
100
AcDbLayerTableRecord
  2
TEXT5
 70
     0
 62
    14
  6
Continuous
370
    -3
390
F
  0
LAYER
  5
1D1
330
2
100
AcDbSymbolTableRecord
100
AcDbLayerTableRecord
  2
TEXT7
 70
     0
 62
     3
  6
Continuous
370
    -3
390
F
  0
LAYER
  5
1D2
330
2
100
AcDbSymbolTableRecord
100
AcDbLayerTableRecord
  2
TEXT
 70
     0
 62
     1
  6
Continuous
370
    -3
390
F
  0
LAYER
  5
1D3
330
2
100
AcDbSymbolTableRecord
100
AcDbLayerTableRecord
  2
AM_TR
 70
     0
 62
     7
  6
Continuous
370
    -3
390
F
  0
LAYER
  5
1D4
330
2
100
AcDbSymbolTableRecord
100
AcDbLayerTableRecord
  2
AM_BM
 70
     0
 62
     7
  6
Continuous
370
    -3
390
F
  0
LAYER
  5
1D5
330
2
100
AcDbSymbolTableRecord
100
AcDbLayerTableRecord
  2
AM_BL
 70
     0
 62
     7
  6
Continuous
370
    -3
390
F
  0
LAYER
  5
1D6
330
2
100
AcDbSymbolTableRecord
100
AcDbLayerTableRecord
  2
AM_VIEWS
 70
     0
 62
    -7
  6
Continuous
370
    -3
390
F
  0
LAYER
  5
1D7
330
2
100
AcDbSymbolTableRecord
100
AcDbLayerTableRecord
  2
AM_PARDIM
 70
     0
 62
     3
  6
Continuous
370
    -3
390
F
  0
LAYER
  5
1D8
330
2
100
AcDbSymbolTableRecord
100
AcDbLayerTableRecord
  2
AM_REFDIM
 70
     0
 62
     4
  6
Continuous
370
    -3
390
F
  0
LAYER
  5
1D9
330
2
100
AcDbSymbolTableRecord
100
AcDbLayerTableRecord
  2
AM_VIS
 70
     0
 62
     7
  6
Continuous
370
    -3
390
F
  0
LAYER
  5
1DA
330
2
100
AcDbSymbolTableRecord
100
AcDbLayerTableRecord
  2
AM_HID
 70
     0
 62
    -6
  6
GEN3
370
    -3
390
F
  0
LAYER
  5
845
330
2
100
AcDbSymbolTableRecord
100
AcDbLayerTableRecord
  2
MUOTOVIIVA
 70
     0
 62
     3
  6
Continuous
370
    -3
390
F
  0
LAYER
  5
846
330
2
100
AcDbSymbolTableRecord
100
AcDbLayerTableRecord
  2
OHUTVIIVA
 70
     0
 62
     6
  6
Continuous
370
     0
390
F
  0
ENDTAB
  0
TABLE
  2
STYLE
  5
3
330
0
100
AcDbSymbolTable
 70
     7
  0
STYLE
  5
11
330
3
100
AcDbSymbolTableRecord
100
AcDbTextStyleTableRecord
  2
Standard
 70
     0
 40
0.0
 41
1.0
 50
0.0
 71
     0
 42
2.0
  3
txt
  4

  0
STYLE
  5
1DB
330
3
100
AcDbSymbolTableRecord
100
AcDbTextStyleTableRecord
  2
ROMANS
 70
     0
 40
0.0
 41
1.0
 50
0.0
 71
     0
 42
2.5
  3
romans
  4

  0
STYLE
  5
1DC
330
3
100
AcDbSymbolTableRecord
100
AcDbTextStyleTableRecord
  2
T7
 70
     0
 40
7.0
 41
0.9
 50
0.0
 71
     0
 42
0.2
  3
ROMANS
  4

  0
STYLE
  5
1DD
330
3
100
AcDbSymbolTableRecord
100
AcDbTextStyleTableRecord
  2
T5
 70
     0
 40
5.0
 41
0.9
 50
0.0
 71
     0
 42
0.2
  3
ROMANS
  4

  0
STYLE
  5
1DE
330
3
100
AcDbSymbolTableRecord
100
AcDbTextStyleTableRecord
  2
T35
 70
     0
 40
3.5
 41
0.9
 50
0.0
 71
     0
 42
0.2
  3
ROMANS
  4

  0
STYLE
  5
1DF
330
3
100
AcDbSymbolTableRecord
100
AcDbTextStyleTableRecord
  2
T25
 70
     0
 40
2.5
 41
0.9
 50
0.0
 71
     0
 42
2.5
  3
norm.shx
  4

  0
STYLE
  5
95B
330
3
100
AcDbSymbolTableRecord
100
AcDbTextStyleTableRecord
  2

 70
     1
 40
0.0
 41
1.0
 50
0.0
 71
     0
 42
2.5
  3
genltshp.shx
  4

  0
ENDTAB
  0
TABLE
  2
VIEW
  5
6
330
0
100
AcDbSymbolTable
 70
     0
  0
ENDTAB
  0
TABLE
  2
UCS
  5
7
330
0
100
AcDbSymbolTable
 70
     0
  0
ENDTAB
  0
TABLE
  2
APPID
  5
9
330
0
100
AcDbSymbolTable
 70
    20
  0
APPID
  5
12
330
9
100
AcDbSymbolTableRecord
100
AcDbRegAppTableRecord
  2
ACAD
 70
     0
  0
APPID
  5
1E1
330
9
100
AcDbSymbolTableRecord
100
AcDbRegAppTableRecord
  2
GENIUS_GENCFG_13
 70
     0
1001
GENIUS_GEVCFG0_13
1000
GEV
1001
GENIUS_GENCFG0_13
1000
GEN@INFO_POS@XLATE
1001
GENIUS_GENCFG1_13
1000
GEN@LAYER@DEFS
1001
GENIUS_GENCFG2_13
1000
GEN@LAYER@ENTSORT
1001
GENIUS_GENCFG3_13
1000
GEN@OSWIZ
1001
GENIUS_GENCFG4_13
1000
GEN
1001
GENIUS_GE3CFG0_13
1000
GE3
1001
GENIUS_GENCFG5_13
1000
GEN@INFO_POS
  0
APPID
  5
1E2
330
9
100
AcDbSymbolTableRecord
100
AcDbRegAppTableRecord
  2
GENIUS_GEVCFG0_13
 70
     0
1001
GENIUS_GENCFG_13
1071
919852330
1000
404
1000
GEV
1070
     1
1000
GenCfgObject
1000
VED
1070
     0
1002
{
1002
}
  0
APPID
  5
1E3
330
9
100
AcDbSymbolTableRecord
100
AcDbRegAppTableRecord
  2
GENIUS_GENCFG0_13
 70
     0
1001
GENIUS_GENCFG_13
1071
919852330
1000
405
1000
GEN@INFO_POS@XLATE
1070
     7
1000
GenCfgObject
1000
GenCfgShort
1000
GenCfgReal
1000
GenCfgBool
1000
GenCfgString
1000
GenCfgDim
1000
GenCfgAttrInf
1000
INFOPOINTS
1070
     0
1002
{
1000
GENINF14
1070
     0
1002
{
1000
2GENINF
1070
     4
1000
2
1002
{
1002
}
1000
3GENINF
1070
     4
1000
3
1002
{
1002
}
1000
4GENINF
1070
     4
1000
4
1002
{
1002
}
1000
5GENINF
1070
     4
1000
5
1002
{
1002
}
1000
6GENINF
1070
     4
1000
6
1002
{
1002
}
1000
7GENINF
1070
     4
1000
7
1002
{
1002
}
1000
8GENINF
1070
     4
1000
8
1002
{
1002
}
1000
9GENINF
1070
     4
1000
9
1002
{
1002
}
1000
10GENINF
1070
     4
1000
10
1002
{
1002
}
1000
11GENINF
1070
     4
1000
11
1002
{
1002
}
1000
12GENINF
1070
     4
1000
12
1002
{
1002
}
1000
13GENINF
1070
     4
1000
13
1002
{
1002
}
1000
14GENINF
1070
     4
1000
14
1002
{
1002
}
1000
15GENINF
1070
     4
1000
15
1002
{
1002
}
1000
16GENINF
1070
     4
1000
16
1002
{
1002
}
1000
17GENINF
1070
     4
1000
17
1002
{
1002
}
1000
18GENINF
1070
     4
1000
18
1002
{
1002
}
1000
19GENINF
1070
     4
1000
19
1002
{
1002
}
1000
20GENINF
1070
     4
1000
20
1002
{
1002
}
1000
21GENINF
1070
     4
1000
21
1002
{
1002
}
1000
22GENINF
1070
     4
1000
22
1002
{
1002
}
1000
23GENINF
1070
     4
1000
23
1002
{
1002
}
1000
24GENINF
1070
     4
1000
24
1002
{
1002
}
1000
25GENINF
1070
     4
1000
25
1002
{
1002
}
1000
26GENINF
1070
     4
1000
26
1002
{
1002
}
1000
27GENINF
1070
     4
1000
27
1002
{
1002
}
1000
0GENINF
1070
     4
1000
0
1002
{
1002
}
1002
}
1000
GENINF13
1070
     0
1002
{
1000
2GENINF
1070
     4
1000
2
1002
{
1002
}
1000
3GENINF
1070
     4
1000
3
1002
{
1002
}
1000
4GENINF
1070
     4
1000
4
1002
{
1002
}
1000
5GENINF
1070
     4
1000
5
1002
{
1002
}
1000
6GENINF
1070
     4
1000
6
1002
{
1002
}
1000
7GENINF
1070
     4
1000
7
1002
{
1002
}
1000
8GENINF
1070
     4
1000
8
1002
{
1002
}
1000
9GENINF
1070
     4
1000
9
1002
{
1002
}
1000
10GENINF
1070
     4
1000
10
1002
{
1002
}
1000
11GENINF
1070
     4
1000
11
1002
{
1002
}
1000
12GENINF
1070
     4
1000
12
1002
{
1002
}
1000
13GENINF
1070
     4
1000
13
1002
{
1002
}
1000
14GENINF
1070
     4
1000
14
1002
{
1002
}
1000
15GENINF
1070
     4
1000
15
1002
{
1002
}
1000
16GENINF
1070
     4
1000
16
1002
{
1002
}
1000
17GENINF
1070
     4
1000
17
1002
{
1002
}
1000
18GENINF
1070
     4
1000
18
1002
{
1002
}
1000
19GENINF
1070
     4
1000
19
1002
{
1002
}
1000
20GENINF
1070
     4
1000
20
1002
{
1002
}
1000
21GENINF
1070
     4
1000
21
1002
{
1002
}
1000
22GENINF
1070
     4
1000
22
1002
{
1002
}
1000
23GENINF
1070
     4
1000
23
1002
{
1002
}
1000
24GENINF
1070
     4
1000
24
1002
{
1002
}
1000
0GENINF
1070
     4
1000
0
1002
{
1002
}
1002
}
1000
GENINFO
1070
     0
1002
{
1000
3GENINF
1070
     4
1000
3
1002
{
1002
}
1000
4GENINF
1070
     4
1000
4
1002
{
1002
}
1000
5GENINF
1070
     4
1000
5
1002
{
1002
}
1000
6GENINF
1070
     4
1000
6
1002
{
1002
}
1000
7GENINF
1070
     4
1000
7
1002
{
1002
}
1000
8GENINF
1070
     4
1000
8
1002
{
1002
}
1000
9GENINF
1070
     4
1000
9
1002
{
1002
}
1000
10GENINF
1070
     4
1000
10
1002
{
1002
}
1000
11GENINF
1070
     4
1000
11
1002
{
1002
}
1000
12GENINF
1070
     4
1000
12
1002
{
1002
}
1000
13GENINF
1070
     4
1000
13
1002
{
1002
}
1000
14GENINF
1070
     4
1000
14
1002
{
1002
}
1000
15GENINF
1070
     4
1000
15
1002
{
1002
}
1000
16GENINF
1070
     4
1000
16
1002
{
1002
}
1000
17GENINF
1070
     4
1000
17
1002
{
1002
}
1000
18GENINF
1070
     4
1000
18
1002
{
1002
}
1000
19GENINF
1070
     4
1000
19
1002
{
1002
}
1000
20GENINF
1070
     4
1000
20
1002
{
1002
}
1000
21GENINF
1070
     4
1000
21
1002
{
1002
}
1000
22GENINF
1070
     4
1000
22
1002
{
1002
}
1002
}
1000
DININFO
1070
     0
1002
{
1000
ST-NAME1
1070
     4
1000
5
1002
{
1002
}
1000
ST-NAME2
1070
     4
1000
6
1002
{
1002
}
1000
ST-NORM1
1070
     4
1000
7
1002
{
1002
}
1000
ST-NORM2
1070
     4
1000
8
1002
{
1002
}
1000
ST-MAT1
1070
     4
1000
9
1002
{
1002
}
1000
ST-MAT2
1070
     4
1000
10
1002
{
1002
}
1002
}
1002
}
1000
POS_NUMBERS
1070
     0
1002
{
1000
GENPOS14
1070
     0
1002
{
1000
1GENPOS
1070
     4
1000
1
1002
{
1002
}
1000
2GENPOS
1070
     4
1000
2
1002
{
1002
}
1000
3GENPOS
1070
     4
1000
3
1002
{
1002
}
1000
4GENPOS
1070
     4
1000
4
1002
{
1002
}
1000
5GENPOS
1070
     4
1000
5
1002
{
1002
}
1000
6GENPOS
1070
     4
1000
6
1002
{
1002
}
1000
7GENPOS
1070
     4
1000
7
1002
{
1002
}
1000
8GENPOS
1070
     4
1000
8
1002
{
1002
}
1000
9GENPOS
1070
     4
1000
9
1002
{
1002
}
1000
10GENPOS
1070
     4
1000
10
1002
{
1002
}
1000
11GENPOS
1070
     4
1000
11
1002
{
1002
}
1000
12GENPOS
1070
     4
1000
12
1002
{
1002
}
1000
13GENPOS
1070
     4
1000
13
1002
{
1002
}
1000
14GENPOS
1070
     4
1000
14
1002
{
1002
}
1000
15GENPOS
1070
     4
1000
15
1002
{
1002
}
1000
16GENPOS
1070
     4
1000
16
1002
{
1002
}
1000
17GENPOS
1070
     4
1000
17
1002
{
1002
}
1000
18GENPOS
1070
     4
1000
18
1002
{
1002
}
1000
19GENPOS
1070
     4
1000
19
1002
{
1002
}
1000
20GENPOS
1070
     4
1000
20
1002
{
1002
}
1000
21GENPOS
1070
     4
1000
21
1002
{
1002
}
1000
22GENPOS
1070
     4
1000
22
1002
{
1002
}
1000
23GENPOS
1070
     4
1000
23
1002
{
1002
}
1000
24GENPOS
1070
     4
1000
24
1002
{
1002
}
1000
25GENPOS
1070
     4
1000
25
1002
{
1002
}
1000
26GENPOS
1070
     4
1000
26
1002
{
1002
}
1000
27GENPOS
1070
     4
1000
27
1002
{
1002
}
1000
0GENPOS
1070
     4
1000
0
1002
{
1002
}
1002
}
1000
GENPOS13
1070
     0
1002
{
1000
1GENPOS
1070
     4
1000
1
1002
{
1002
}
1000
2GENPOS
1070
     4
1000
2
1002
{
1002
}
1000
3GENPOS
1070
     4
1000
3
1002
{
1002
}
1000
4GENPOS
1070
     4
1000
4
1002
{
1002
}
1000
5GENPOS
1070
     4
1000
5
1002
{
1002
}
1000
6GENPOS
1070
     4
1000
6
1002
{
1002
}
1000
7GENPOS
1070
     4
1000
7
1002
{
1002
}
1000
8GENPOS
1070
     4
1000
8
1002
{
1002
}
1000
9GENPOS
1070
     4
1000
9
1002
{
1002
}
1000
10GENPOS
1070
     4
1000
10
1002
{
1002
}
1000
11GENPOS
1070
     4
1000
11
1002
{
1002
}
1000
12GENPOS
1070
     4
1000
12
1002
{
1002
}
1000
13GENPOS
1070
     4
1000
13
1002
{
1002
}
1000
14GENPOS
1070
     4
1000
14
1002
{
1002
}
1000
15GENPOS
1070
     4
1000
15
1002
{
1002
}
1000
16GENPOS
1070
     4
1000
16
1002
{
1002
}
1000
17GENPOS
1070
     4
1000
17
1002
{
1002
}
1000
18GENPOS
1070
     4
1000
18
1002
{
1002
}
1000
19GENPOS
1070
     4
1000
19
1002
{
1002
}
1000
20GENPOS
1070
     4
1000
20
1002
{
1002
}
1000
21GENPOS
1070
     4
1000
21
1002
{
1002
}
1000
22GENPOS
1070
     4
1000
22
1002
{
1002
}
1000
23GENPOS
1070
     4
1000
23
1002
{
1002
}
1000
24GENPOS
1070
     4
1000
24
1002
{
1002
}
1000
0GENPOS
1070
     4
1000
0
1002
{
1002
}
1002
}
1000
GENPOS
1070
     0
1002
{
1000
1GENPOS
1070
     4
1000
1
1002
{
1002
}
1000
2GENPOS
1070
     4
1000
2
1002
{
1002
}
1000
3GENPOS
1070
     4
1000
3
1002
{
1002
}
1000
4GENPOS
1070
     4
1000
4
1002
{
1002
}
1000
5GENPOS
1070
     4
1000
5
1002
{
1002
}
1000
6GENPOS
1070
     4
1000
6
1002
{
1002
}
1000
7GENPOS
1070
     4
1000
7
1002
{
1002
}
1000
8GENPOS
1070
     4
1000
8
1002
{
1002
}
1000
9GENPOS
1070
     4
1000
9
1002
{
1002
}
1000
10GENPOS
1070
     4
1000
10
1002
{
1002
}
1000
11GENPOS
1070
     4
1000
11
1002
{
1002
}
1000
12GENPOS
1070
     4
1000
12
1002
{
1002
}
1000
13GENPOS
1070
     4
1000
13
1002
{
1002
}
1000
14GENPOS
1070
     4
1000
14
1002
{
1002
}
1000
15GENPOS
1070
     4
1000
15
1002
{
1002
}
1000
16GENPOS
1070
     4
1000
16
1002
{
1002
}
1000
17GENPOS
1070
     4
1000
17
1002
{
1002
}
1000
18GENPOS
1070
     4
1000
18
1002
{
1002
}
1000
19GENPOS
1070
     4
1000
19
1002
{
1002
}
1000
20GENPOS
1070
     4
1000
20
1002
{
1002
}
1000
21GENPOS
1070
     4
1000
21
1002
{
1002
}
1000
22GENPOS
1070
     4
1000
22
1002
{
1002
}
1000
23GENPOS
1070
     4
1000
23
1002
{
1002
}
1002
}
1000
DIN985
1070
     0
1002
{
1000
POSITION
1070
     4
1000
1
1002
{
1002
}
1000
MENGE
1070
     4
1000
2
1002
{
1002
}
1000
BLATT
1070
     4
1000
3
1002
{
1002
}
1000
BENENN
1070
     4
1000
5
1002
{
1002
}
1000
BENENN2
1070
     4
1000
6
1002
{
1002
}
1000
NORM
1070
     4
1000
7
1002
{
1002
}
1000
NORM2
1070
     4
1000
8
1002
{
1002
}
1000
WERKSTOFF
1070
     4
1000
9
1002
{
1002
}
1000
WERKSTOFF2
1070
     4
1000
10
1002
{
1002
}
1002
}
1000
DIN986
1070
     0
1002
{
1000
POSITION
1070
     4
1000
1
1002
{
1002
}
1000
MENGE
1070
     4
1000
2
1002
{
1002
}
1000
BLATT
1070
     4
1000
3
1002
{
1002
}
1000
BENENN
1070
     4
1000
5
1002
{
1002
}
1000
BENENN2
1070
     4
1000
6
1002
{
1002
}
1000
NORM
1070
     4
1000
7
1002
{
1002
}
1000
NORM2
1070
     4
1000
8
1002
{
1002
}
1000
WERKSTOFF
1070
     4
1000
9
1002
{
1002
}
1000
WERKSTOFF2
1070
     4
1000
10
1002
{
1002
}
1002
}
1000
DIN987
1070
     0
1002
{
1000
POSITION
1070
     4
1000
1
1002
{
1002
}
1000
MENGE
1070
     4
1000
2
1002
{
1002
}
1000
BLATT
1070
     4
1000
3
1002
{
1002
}
1000
BENENN
1070
     4
1000
5
1002
{
1002
}
1000
BENENN2
1070
     4
1000
6
1002
{
1002
}
1000
NORM
1070
     4
1000
7
1002
{
1002
}
1000
NORM2
1070
     4
1000
8
1002
{
1002
}
1000
WERKSTOFF
1070
     4
1000
9
1002
{
1002
}
1000
WERKSTOFF2
1070
     4
1000
10
1002
{
1002
}
1002
}
1002
}
  0
APPID
  5
1E4
330
9
100
AcDbSymbolTableRecord
100
AcDbRegAppTableRecord
  2
GENIUS_GENCFG1_13
 70
     0
1001
GENIUS_GENCFG_13
1071
919852330
1000
406
1000
GEN@LAYER@DEFS
1070
     9
1000
GenCfgObject
1000
GenCfgShort
1000
GenCfgReal
1000
GenCfgBool
1000
GenCfgString
1000
GenCfgDim
1000
GenCfgAttrInf
1000
GenCfgLaySection
1000
GenCfgLayer
1000
Basic
1070
     0
1002
{
1000
0
1070
     8
1000
0
1002
{
1000
Color
1070
     1
1070
     7
1002
{
1002
}
1000
LType
1070
     4
1000
CONTINUOUS
1002
{
1002
}
1000
Base
1070
     3
1070
     0
1002
{
1002
}
1002
}
1000
1
1070
     8
1000
1
1002
{
1000
Color
1070
     1
1070
    14
1002
{
1002
}
1000
LType
1070
     4
1000
CONTINUOUS
1002
{
1002
}
1000
Base
1070
     3
1070
     0
1002
{
1002
}
1002
}
1000
2
1070
     8
1000
2
1002
{
1000
Color
1070
     1
1070
     5
1002
{
1002
}
1000
LType
1070
     4
1000
CONTINUOUS
1002
{
1002
}
1000
Base
1070
     3
1070
     0
1002
{
1002
}
1002
}
1000
3
1070
     8
1000
3
1002
{
1000
Color
1070
     1
1070
     6
1002
{
1002
}
1000
LType
1070
     4
1000
GEN3
1002
{
1002
}
1000
Base
1070
     3
1070
     0
1002
{
1002
}
1002
}
1000
4
1070
     8
1000
4
1002
{
1000
Color
1070
     1
1070
     3
1002
{
1002
}
1000
LType
1070
     4
1000
CONTINUOUS
1002
{
1002
}
1000
Base
1070
     3
1070
     0
1002
{
1002
}
1002
}
1000
5
1070
     8
1000
5
1002
{
1000
Color
1070
     1
1070
     3
1002
{
1002
}
1000
LType
1070
     4
1000
CONTINUOUS
1002
{
1002
}
1000
Base
1070
     3
1070
     0
1002
{
1002
}
1002
}
1000
6
1070
     8
1000
6
1002
{
1000
Color
1070
     1
1070
     2
1002
{
1002
}
1000
LType
1070
     4
1000
CONTINUOUS
1002
{
1002
}
1000
Base
1070
     3
1070
     0
1002
{
1002
}
1002
}
1000
7
1070
     8
1000
7
1002
{
1000
Color
1070
     1
1070
     4
1002
{
1002
}
1000
LType
1070
     4
1000
GEN7
1002
{
1002
}
1000
Base
1070
     3
1070
     0
1002
{
1002
}
1002
}
1000
8
1070
     8
1000
8
1002
{
1000
Color
1070
     1
1070
     1
1002
{
1002
}
1000
LType
1070
     4
1000
CONTINUOUS
1002
{
1002
}
1000
Base
1070
     3
1070
     0
1002
{
1002
}
1002
}
1000
3A
1070
     8
1000
3A
1002
{
1000
Color
1070
     1
1070
     6
1002
{
1002
}
1000
LType
1070
     4
1000
GEN3A
1002
{
1002
}
1000
Base
1070
     3
1070
     0
1002
{
1002
}
1002
}
1000
7A
1070
     8
1000
7A
1002
{
1000
Color
1070
     1
1070
     4
1002
{
1002
}
1000
LType
1070
     4
1000
GEN7A
1002
{
1002
}
1000
Base
1070
     3
1070
     0
1002
{
1002
}
1002
}
1000
2A
1070
     8
1000
2A
1002
{
1000
Color
1070
     1
1070
     7
1002
{
1002
}
1000
LType
1070
     4
1000
GEN7
1002
{
1002
}
1000
Base
1070
     3
1070
     0
1002
{
1002
}
1002
}
1000
4A
1070
     8
1000
4A
1002
{
1000
Color
1070
     1
1070
     3
1002
{
1002
}
1000
LType
1070
     4
1000
GEN4A
1002
{
1002
}
1000
Base
1070
     3
1070
     0
1002
{
1002
}
1002
}
1000
9
1070
     8
1000
9
1002
{
1000
Color
1070
     1
1070
   253
1002
{
1002
}
1000
LType
1070
     4
1000
CONTINUOUS
1002
{
1002
}
1000
Base
1070
     3
1070
     0
1002
{
1002
}
1002
}
1000
IP
1070
     8
1000
IP
1002
{
1000
Color
1070
     1
1070
     7
1002
{
1002
}
1000
LType
1070
     4
1000
CONTINUOUS
1002
{
1002
}
1000
Base
1070
     3
1070
     0
1002
{
1002
}
1002
}
1002
}
1000
Standard
1070
     0
1002
{
1000
0N
1070
     8
1000
0N
1002
{
1000
Color
1070
     1
1070
     7
1002
{
1002
}
1000
LType
1070
     4
1000
CONTINUOUS
1002
{
1002
}
1000
Base
1070
     3
1070
     0
1002
{
1002
}
1002
}
1000
1N
1070
     8
1000
1N
1002
{
1000
Color
1070
     1
1070
    14
1002
{
1002
}
1000
LType
1070
     4
1000
CONTINUOUS
1002
{
1002
}
1000
Base
1070
     3
1070
     0
1002
{
1002
}
1002
}
1000
2N
1070
     8
1000
2N
1002
{
1000
Color
1070
     1
1070
     5
1002
{
1002
}
1000
LType
1070
     4
1000
CONTINUOUS
1002
{
1002
}
1000
Base
1070
     3
1070
     0
1002
{
1002
}
1002
}
1000
3N
1070
     8
1000
3N
1002
{
1000
Color
1070
     1
1070
     6
1002
{
1002
}
1000
LType
1070
     4
1000
GEN3
1002
{
1002
}
1000
Base
1070
     3
1070
     0
1002
{
1002
}
1002
}
1000
4N
1070
     8
1000
4N
1002
{
1000
Color
1070
     1
1070
     3
1002
{
1002
}
1000
LType
1070
     4
1000
CONTINUOUS
1002
{
1002
}
1000
Base
1070
     3
1070
     0
1002
{
1002
}
1002
}
1000
5N
1070
     8
1000
5N
1002
{
1000
Color
1070
     1
1070
     3
1002
{
1002
}
1000
LType
1070
     4
1000
CONTINUOUS
1002
{
1002
}
1000
Base
1070
     3
1070
     0
1002
{
1002
}
1002
}
1000
6N
1070
     8
1000
6N
1002
{
1000
Color
1070
     1
1070
     2
1002
{
1002
}
1000
LType
1070
     4
1000
CONTINUOUS
1002
{
1002
}
1000
Base
1070
     3
1070
     0
1002
{
1002
}
1002
}
1000
7N
1070
     8
1000
7N
1002
{
1000
Color
1070
     1
1070
     4
1002
{
1002
}
1000
LType
1070
     4
1000
GEN7
1002
{
1002
}
1000
Base
1070
     3
1070
     0
1002
{
1002
}
1002
}
1000
8N
1070
     8
1000
8N
1002
{
1000
Color
1070
     1
1070
     1
1002
{
1002
}
1000
LType
1070
     4
1000
CONTINUOUS
1002
{
1002
}
1000
Base
1070
     3
1070
     0
1002
{
1002
}
1002
}
1000
3AN
1070
     8
1000
3AN
1002
{
1000
Color
1070
     1
1070
     6
1002
{
1002
}
1000
LType
1070
     4
1000
GEN3A
1002
{
1002
}
1000
Base
1070
     3
1070
     0
1002
{
1002
}
1002
}
1000
7AN
1070
     8
1000
7AN
1002
{
1000
Color
1070
     1
1070
     4
1002
{
1002
}
1000
LType
1070
     4
1000
GEN7A
1002
{
1002
}
1000
Base
1070
     3
1070
     0
1002
{
1002
}
1002
}
1000
2AN
1070
     8
1000
2AN
1002
{
1000
Color
1070
     1
1070
     7
1002
{
1002
}
1000
LType
1070
     4
1000
GEN7
1002
{
1002
}
1000
Base
1070
     3
1070
     0
1002
{
1002
}
1002
}
1000
4AN
1070
     8
1000
4AN
1002
{
1000
Color
1070
     1
1070
     3
1002
{
1002
}
1000
LType
1070
     4
1000
GEN4A
1002
{
1002
}
1000
Base
1070
     3
1070
     0
1002
{
1002
}
1002
}
1000
9N
1070
     8
1000
9N
1002
{
1000
Color
1070
     1
1070
   253
1002
{
1002
}
1000
LType
1070
     4
1000
CONTINUOUS
1002
{
1002
}
1000
Base
1070
     3
1070
     0
1002
{
1002
}
1002
}
1000
IPN
1070
     8
1000
IPN
1002
{
1000
Color
1070
     1
1070
     7
1002
{
1002
}
1000
LType
1070
     4
1000
CONTINUOUS
1002
{
1002
}
1000
Base
1070
     3
1070
     0
1002
{
1002
}
1002
}
1002
}
1000
Extra
1070
     0
1002
{
1000
Klin
1070
     8
1000
KLIN
1002
{
1000
Color
1070
     1
1070
     1
1002
{
1002
}
1000
LType
1070
     4
1000
GEN3
1002
{
1002
}
1000
Base
1070
     3
1070
     1
1002
{
1002
}
1002
}
1000
Info
1070
     8
1000
INFO
1002
{
1000
Color
1070
     1
1070
     4
1002
{
1002
}
1000
LType
1070
     4
1000
CONTINUOUS
1002
{
1002
}
1000
Base
1070
     3
1070
     1
1002
{
1002
}
1002
}
1000
Rahm2
1070
     8
1000
RAHM2
1002
{
1000
Color
1070
     1
1070
     1
1002
{
1002
}
1000
LType
1070
     4
1000
CONTINUOUS
1002
{
1002
}
1000
Base
1070
     3
1070
     1
1002
{
1002
}
1002
}
1000
Rahm3
1070
     8
1000
RAHM3
1002
{
1000
Color
1070
     1
1070
     2
1002
{
1002
}
1000
LType
1070
     4
1000
CONTINUOUS
1002
{
1002
}
1000
Base
1070
     3
1070
     1
1002
{
1002
}
1002
}
1000
Rahm5
1070
     8
1000
RAHM5
1002
{
1000
Color
1070
     1
1070
     7
1002
{
1002
}
1000
LType
1070
     4
1000
CONTINUOUS
1002
{
1002
}
1000
Base
1070
     3
1070
     1
1002
{
1002
}
1002
}
1000
View
1070
     8
1000
VIEW
1002
{
1000
Color
1070
     1
1070
     1
1002
{
1002
}
1000
LType
1070
     4
1000
CONTINUOUS
1002
{
1002
}
1000
Base
1070
     3
1070
     1
1002
{
1002
}
1002
}
1000
Behind
1070
     8
1000
BEHIND
1002
{
1000
Color
1070
     1
1070
   253
1002
{
1002
}
1000
LType
1070
     4
1000
CONTINUOUS
1002
{
1002
}
1000
Base
1070
     3
1070
     1
1002
{
1002
}
1002
}
1002
}
  0
APPID
  5
1E5
330
9
100
AcDbSymbolTableRecord
100
AcDbRegAppTableRecord
  2
GENIUS_GENCFG2_13
 70
     0
1001
GENIUS_GENCFG_13
1071
919852330
1000
407
1000
GEN@LAYER@ENTSORT
1070
    10
1000
GenCfgObject
1000
GenCfgShort
1000
GenCfgReal
1000
GenCfgBool
1000
GenCfgString
1000
GenCfgDim
1000
GenCfgAttrInf
1000
GenCfgLaySection
1000
GenCfgLayer
1000
GenCfgEntSort
1000
ADDL
1070
     9
1000
5
1002
{
1000
Class
1070
     4
1000
SYM
1002
{
1002
}
1000
Color
1070
     1
1070
     1
1002
{
1002
}
1000
LType
1070
     4
1000
BYLAYER
1002
{
1002
}
1002
}
1000
ALTR
1070
     9
1000
4
1002
{
1000
Class
1070
     4
1000

1002
{
1002
}
1000
Color
1070
     1
1070
     7
1002
{
1002
}
1000
LType
1070
     4
1000
GEN3A
1002
{
1002
}
1002
}
1000
BELI
1070
     9
1000
4
1002
{
1000
Class
1070
     4
1000

1002
{
1002
}
1000
Color
1070
     1
1070
   256
1002
{
1002
}
1000
LType
1070
     4
1000
BYLAYER
1002
{
1002
}
1002
}
1000
BHNV
1070
     9
1000
9
1002
{
1000
Class
1070
     4
1000
INV
1002
{
1002
}
1000
Color
1070
     1
1070
   256
1002
{
1002
}
1000
LType
1070
     4
1000
BYLAYER
1002
{
1002
}
1002
}
1000
BHNVS
1070
     9
1000
BEHIND
1002
{
1000
Class
1070
     4
1000
INV
1002
{
1002
}
1000
Color
1070
     1
1070
   256
1002
{
1002
}
1000
LType
1070
     4
1000
BYLAYER
1002
{
1002
}
1002
}
1000
BLID
1070
     9
1000
4A
1002
{
1000
Class
1070
     4
1000

1002
{
1002
}
1000
Color
1070
     1
1070
   256
1002
{
1002
}
1000
LType
1070
     4
1000
BYLAYER
1002
{
1002
}
1002
}
1000
BOAP
1070
     9
1000
4A
1002
{
1000
Class
1070
     4
1000

1002
{
1002
}
1000
Color
1070
     1
1070
   256
1002
{
1002
}
1000
LType
1070
     4
1000
BYLAYER
1002
{
1002
}
1002
}
1000
BOR2
1070
     9
1000
RAHM2
1002
{
1000
Class
1070
     4
1000
SPZ,SYM
1002
{
1002
}
1000
Color
1070
     1
1070
   256
1002
{
1002
}
1000
LType
1070
     4
1000
BYLAYER
1002
{
1002
}
1002
}
1000
BOR3
1070
     9
1000
RAHM3
1002
{
1000
Class
1070
     4
1000
SPZ,SYM
1002
{
1002
}
1000
Color
1070
     1
1070
   256
1002
{
1002
}
1000
LType
1070
     4
1000
BYLAYER
1002
{
1002
}
1002
}
1000
BOR5
1070
     9
1000
RAHM5
1002
{
1000
Class
1070
     4
1000
SPZ,SYM
1002
{
1002
}
1000
Color
1070
     1
1070
   256
1002
{
1002
}
1000
LType
1070
     4
1000
BYLAYER
1002
{
1002
}
1002
}
1000
BOR7
1070
     9
1000
RAHM5
1002
{
1000
Class
1070
     4
1000
SPZ,SYM
1002
{
1002
}
1000
Color
1070
     1
1070
     7
1002
{
1002
}
1000
LType
1070
     4
1000
CONTINUOUS
1002
{
1002
}
1002
}
1000
BPAP
1070
     9
1000
e
1002
{
1000
Class
1070
     4
1000

1002
{
1002
}
1000
Color
1070
     1
1070
   256
1002
{
1002
}
1000
LType
1070
     4
1000
BYLAYER
1002
{
1002
}
1002
}
1000
BPEX
1070
     9
1000
4A
1002
{
1000
Class
1070
     4
1000

1002
{
1002
}
1000
Color
1070
     1
1070
   256
1002
{
1002
}
1000
LType
1070
     4
1000
BYLAYER
1002
{
1002
}
1002
}
1000
BTDI
1070
     9
1000
5
1002
{
1000
Class
1070
     4
1000
DIM,SYM
1002
{
1002
}
1000
Color
1070
     1
1070
   256
1002
{
1002
}
1000
LType
1070
     4
1000
BYLAYER
1002
{
1002
}
1002
}
1000
CAL2
1070
     9
1000
4
1002
{
1000
Class
1070
     4
1000
SYM
1002
{
1002
}
1000
Color
1070
     1
1070
   256
1002
{
1002
}
1000
LType
1070
     4
1000
BYLAYER
1002
{
1002
}
1002
}
1000
CAL3
1070
     9
1000
4
1002
{
1000
Class
1070
     4
1000
SYM
1002
{
1002
}
1000
Color
1070
     1
1070
     2
1002
{
1002
}
1000
LType
1070
     4
1000
BYLAYER
1002
{
1002
}
1002
}
1000
CAL5
1070
     9
1000
4
1002
{
1000
Class
1070
     4
1000
SYM
1002
{
1002
}
1000
Color
1070
     1
1070
     7
1002
{
1002
}
1000
LType
1070
     4
1000
BYLAYER
1002
{
1002
}
1002
}
1000
CAL7
1070
     9
1000
4
1002
{
1000
Class
1070
     4
1000
SYM
1002
{
1002
}
1000
Color
1070
     1
1070
     5
1002
{
1002
}
1000
LType
1070
     4
1000
BYLAYER
1002
{
1002
}
1002
}
1000
CENN
1070
     9
1000
7A
1002
{
1000
Class
1070
     4
1000
CEN
1002
{
1002
}
1000
Color
1070
     1
1070
   256
1002
{
1002
}
1000
LType
1070
     4
1000
BYLAYER
1002
{
1002
}
1002
}
1000
CENW
1070
     9
1000
7
1002
{
1000
Class
1070
     4
1000
CEN
1002
{
1002
}
1000
Color
1070
     1
1070
   256
1002
{
1002
}
1000
LType
1070
     4
1000
BYLAYER
1002
{
1002
}
1002
}
1000
CLIN
1070
     9
1000
KLIN
1002
{
1000
Class
1070
     4
1000
SPZ
1002
{
1002
}
1000
Color
1070
     1
1070
   256
1002
{
1002
}
1000
LType
1070
     4
1000
BYLAYER
1002
{
1002
}
1002
}
1000
CON1
1070
     9
1000
0
1002
{
1000
Class
1070
     4
1000
CON,BGD
1002
{
1002
}
1000
Color
1070
     1
1070
   256
1002
{
1002
}
1000
LType
1070
     4
1000
BYLAYER
1002
{
1002
}
1002
}
1000
CON2
1070
     9
1000
1
1002
{
1000
Class
1070
     4
1000
CON,BGD
1002
{
1002
}
1000
Color
1070
     1
1070
   256
1002
{
1002
}
1000
LType
1070
     4
1000
BYLAYER
1002
{
1002
}
1002
}
1000
CON3
1070
     9
1000
2
1002
{
1000
Class
1070
     4
1000
CON,BGD
1002
{
1002
}
1000
Color
1070
     1
1070
   256
1002
{
1002
}
1000
LType
1070
     4
1000
BYLAYER
1002
{
1002
}
1002
}
1000
CON4
1070
     9
1000
2
1002
{
1000
Class
1070
     4
1000
CON,BGD
1002
{
1002
}
1000
Color
1070
     1
1070
   256
1002
{
1002
}
1000
LType
1070
     4
1000
BYLAYER
1002
{
1002
}
1002
}
1000
DERP
1070
     9
1000
4
1002
{
1000
Class
1070
     4
1000

1002
{
1002
}
1000
Color
1070
     1
1070
   256
1002
{
1002
}
1000
LType
1070
     4
1000
BYLAYER
1002
{
1002
}
1002
}
1000
DETA
1070
     9
1000
4
1002
{
1000
Class
1070
     4
1000

1002
{
1002
}
1000
Color
1070
     1
1070
   256
1002
{
1002
}
1000
LType
1070
     4
1000
BYLAYER
1002
{
1002
}
1002
}
1000
DIAG
1070
     9
1000
5
1002
{
1000
Class
1070
     4
1000
SYM
1002
{
1002
}
1000
Color
1070
     1
1070
   256
1002
{
1002
}
1000
LType
1070
     4
1000
BYLAYER
1002
{
1002
}
1002
}
1000
DILI
1070
     9
1000
5
1002
{
1000
Class
1070
     4
1000
DIM,SYM
1002
{
1002
}
1000
Color
1070
     1
1070
   256
1002
{
1002
}
1000
LType
1070
     4
1000
BYLAYER
1002
{
1002
}
1002
}
1000
DITO2
1070
     9
1000
5
1002
{
1000
Class
1070
     4
1000
DIM,SYM
1002
{
1002
}
1000
Color
1070
     1
1070
     3
1002
{
1002
}
1000
LType
1070
     4
1000
BYLAYER
1002
{
1002
}
1002
}
1000
DITO3
1070
     9
1000
5
1002
{
1000
Class
1070
     4
1000
DIM,SYM
1002
{
1002
}
1000
Color
1070
     1
1070
     2
1002
{
1002
}
1000
LType
1070
     4
1000
BYLAYER
1002
{
1002
}
1002
}
1000
DITX
1070
     9
1000
5
1002
{
1000
Class
1070
     4
1000
DIM,SYM
1002
{
1002
}
1000
Color
1070
     1
1070
     1
1002
{
1002
}
1000
LType
1070
     4
1000
CONTINUOUS
1002
{
1002
}
1002
}
1000
DIXL
1070
     9
1000
5
1002
{
1000
Class
1070
     4
1000
DIM,SYM
1002
{
1002
}
1000
Color
1070
     1
1070
   256
1002
{
1002
}
1000
LType
1070
     4
1000
BYLAYER
1002
{
1002
}
1002
}
1000
EXMP
1070
     9
1000
4A
1002
{
1000
Class
1070
     4
1000

1002
{
1002
}
1000
Color
1070
     1
1070
   256
1002
{
1002
}
1000
LType
1070
     4
1000
BYLAYER
1002
{
1002
}
1002
}
1000
FEMN
1070
     9
1000
8
1002
{
1000
Class
1070
     4
1000

1002
{
1002
}
1000
Color
1070
     1
1070
   256
1002
{
1002
}
1000
LType
1070
     4
1000
BYLAYER
1002
{
1002
}
1002
}
1000
FEMPN
1070
     9
1000
8
1002
{
1000
Class
1070
     4
1000
SYM
1002
{
1002
}
1000
Color
1070
     1
1070
     3
1002
{
1002
}
1000
LType
1070
     4
1000
BYLAYER
1002
{
1002
}
1002
}
1000
FEMSP
1070
     9
1000
4A
1002
{
1000
Class
1070
     4
1000

1002
{
1002
}
1000
Color
1070
     1
1070
   256
1002
{
1002
}
1000
LType
1070
     4
1000
CONTINUOUS
1002
{
1002
}
1002
}
1000
FEMST
1070
     9
1000
4A
1002
{
1000
Class
1070
     4
1000
SYM
1002
{
1002
}
1000
Color
1070
     1
1070
     3
1002
{
1002
}
1000
LType
1070
     4
1000
BYLAYER
1002
{
1002
}
1002
}
1000
FEMVN
1070
     9
1000
2
1002
{
1000
Class
1070
     4
1000
CON
1002
{
1002
}
1000
Color
1070
     1
1070
   256
1002
{
1002
}
1000
LType
1070
     4
1000
BYLAYER
1002
{
1002
}
1002
}
1000
FEMVT
1070
     9
1000
2
1002
{
1000
Class
1070
     4
1000
SYM
1002
{
1002
}
1000
Color
1070
     1
1070
     3
1002
{
1002
}
1000
LType
1070
     4
1000
BYLAYER
1002
{
1002
}
1002
}
1000
FLAT
1070
     9
1000
0
1002
{
1000
Class
1070
     4
1000

1002
{
1002
}
1000
Color
1070
     1
1070
   256
1002
{
1002
}
1000
LType
1070
     4
1000
BYLAYER
1002
{
1002
}
1002
}
1000
FRAR
1070
     9
1000
4A
1002
{
1000
Class
1070
     4
1000

1002
{
1002
}
1000
Color
1070
     1
1070
   256
1002
{
1002
}
1000
LType
1070
     4
1000
BYLAYER
1002
{
1002
}
1002
}
1000
GRLI
1070
     9
1000
5
1002
{
1000
Class
1070
     4
1000
SYM
1002
{
1002
}
1000
Color
1070
     1
1070
   256
1002
{
1002
}
1000
LType
1070
     4
1000
BYLAYER
1002
{
1002
}
1002
}
1000
GVLI
1070
     9
1000
4A
1002
{
1000
Class
1070
     4
1000

1002
{
1002
}
1000
Color
1070
     1
1070
   256
1002
{
1002
}
1000
LType
1070
     4
1000
BYLAYER
1002
{
1002
}
1002
}
1000
HATC
1070
     9
1000
8
1002
{
1000
Class
1070
     4
1000
HTC,BGD
1002
{
1002
}
1000
Color
1070
     1
1070
   256
1002
{
1002
}
1000
LType
1070
     4
1000
BYLAYER
1002
{
1002
}
1002
}
1000
HIDN
1070
     9
1000
3A
1002
{
1000
Class
1070
     4
1000
HID,BGD
1002
{
1002
}
1000
Color
1070
     1
1070
   256
1002
{
1002
}
1000
LType
1070
     4
1000
BYLAYER
1002
{
1002
}
1002
}
1000
HIDW
1070
     9
1000
3
1002
{
1000
Class
1070
     4
1000
HID,BGD
1002
{
1002
}
1000
Color
1070
     1
1070
   256
1002
{
1002
}
1000
LType
1070
     4
1000
BYLAYER
1002
{
1002
}
1002
}
1000
HLIN
1070
     9
1000
4
1002
{
1000
Class
1070
     4
1000
BGD
1002
{
1002
}
1000
Color
1070
     1
1070
   256
1002
{
1002
}
1000
LType
1070
     4
1000
BYLAYER
1002
{
1002
}
1002
}
1000
HOCN
1070
     9
1000
7A
1002
{
1000
Class
1070
     4
1000
CEN
1002
{
1002
}
1000
Color
1070
     1
1070
   256
1002
{
1002
}
1000
LType
1070
     4
1000
BYLAYER
1002
{
1002
}
1002
}
1000
HOCW
1070
     9
1000
7
1002
{
1000
Class
1070
     4
1000
CEN
1002
{
1002
}
1000
Color
1070
     1
1070
   256
1002
{
1002
}
1000
LType
1070
     4
1000
BYLAYER
1002
{
1002
}
1002
}
1000
INFO
1070
     9
1000
INFO
1002
{
1000
Class
1070
     4
1000
SPZ,SYM
1002
{
1002
}
1000
Color
1070
     1
1070
   256
1002
{
1002
}
1000
LType
1070
     4
1000
BYLAYER
1002
{
1002
}
1002
}
1000
LADI
1070
     9
1000
4
1002
{
1000
Class
1070
     4
1000
BGD
1002
{
1002
}
1000
Color
1070
     1
1070
   256
1002
{
1002
}
1000
LType
1070
     4
1000
BYLAYER
1002
{
1002
}
1002
}
1000
LEAD
1070
     9
1000
5
1002
{
1000
Class
1070
     4
1000
SYM
1002
{
1002
}
1000
Color
1070
     1
1070
   256
1002
{
1002
}
1000
LType
1070
     4
1000
BYLAYER
1002
{
1002
}
1002
}
1000
N_ADDL
1070
     9
1000
5N
1002
{
1000
Class
1070
     4
1000
SYM
1002
{
1002
}
1000
Color
1070
     1
1070
     1
1002
{
1002
}
1000
LType
1070
     4
1000
BYLAYER
1002
{
1002
}
1002
}
1000
N_BHNV
1070
     9
1000
9N
1002
{
1000
Class
1070
     4
1000
INV
1002
{
1002
}
1000
Color
1070
     1
1070
   256
1002
{
1002
}
1000
LType
1070
     4
1000
BYLAYER
1002
{
1002
}
1002
}
1000
N_CON1
1070
     9
1000
0N
1002
{
1000
Class
1070
     4
1000
CON,BGD
1002
{
1002
}
1000
Color
1070
     1
1070
   256
1002
{
1002
}
1000
LType
1070
     4
1000
BYLAYER
1002
{
1002
}
1002
}
1000
N_CON2
1070
     9
1000
1N
1002
{
1000
Class
1070
     4
1000
CON,BGD
1002
{
1002
}
1000
Color
1070
     1
1070
   256
1002
{
1002
}
1000
LType
1070
     4
1000
BYLAYER
1002
{
1002
}
1002
}
1000
N_CON3
1070
     9
1000
2N
1002
{
1000
Class
1070
     4
1000
CON,BGD
1002
{
1002
}
1000
Color
1070
     1
1070
   256
1002
{
1002
}
1000
LType
1070
     4
1000
BYLAYER
1002
{
1002
}
1002
}
1000
N_CON4
1070
     9
1000
2N
1002
{
1000
Class
1070
     4
1000
CON,BGD
1002
{
1002
}
1000
Color
1070
     1
1070
   256
1002
{
1002
}
1000
LType
1070
     4
1000
BYLAYER
1002
{
1002
}
1002
}
1000
N_CENN
1070
     9
1000
7AN
1002
{
1000
Class
1070
     4
1000
CEN
1002
{
1002
}
1000
Color
1070
     1
1070
   256
1002
{
1002
}
1000
LType
1070
     4
1000
BYLAYER
1002
{
1002
}
1002
}
1000
N_CENW
1070
     9
1000
7N
1002
{
1000
Class
1070
     4
1000
CEN
1002
{
1002
}
1000
Color
1070
     1
1070
   256
1002
{
1002
}
1000
LType
1070
     4
1000
BYLAYER
1002
{
1002
}
1002
}
1000
N_DILI
1070
     9
1000
5N
1002
{
1000
Class
1070
     4
1000
DIM,SYM
1002
{
1002
}
1000
Color
1070
     1
1070
   256
1002
{
1002
}
1000
LType
1070
     4
1000
BYLAYER
1002
{
1002
}
1002
}
1000
N_DITX
1070
     9
1000
5N
1002
{
1000
Class
1070
     4
1000
DIM,SYM
1002
{
1002
}
1000
Color
1070
     1
1070
     2
1002
{
1002
}
1000
LType
1070
     4
1000
CONTINUOUS
1002
{
1002
}
1002
}
1000
N_DIXL
1070
     9
1000
5N
1002
{
1000
Class
1070
     4
1000
DIM,SYM
1002
{
1002
}
1000
Color
1070
     1
1070
   256
1002
{
1002
}
1000
LType
1070
     4
1000
BYLAYER
1002
{
1002
}
1002
}
1000
N_HATC
1070
     9
1000
8N
1002
{
1000
Class
1070
     4
1000
HTC,BGD
1002
{
1002
}
1000
Color
1070
     1
1070
   256
1002
{
1002
}
1000
LType
1070
     4
1000
BYLAYER
1002
{
1002
}
1002
}
1000
N_HIDN
1070
     9
1000
3AN
1002
{
1000
Class
1070
     4
1000
HID,BGD
1002
{
1002
}
1000
Color
1070
     1
1070
   256
1002
{
1002
}
1000
LType
1070
     4
1000
BYLAYER
1002
{
1002
}
1002
}
1000
N_HIDW
1070
     9
1000
3N
1002
{
1000
Class
1070
     4
1000
HID,BGD
1002
{
1002
}
1000
Color
1070
     1
1070
   256
1002
{
1002
}
1000
LType
1070
     4
1000
BYLAYER
1002
{
1002
}
1002
}
1000
N_NGIP
1070
     9
1000
IPN
1002
{
1000
Class
1070
     4
1000

1002
{
1002
}
1000
Color
1070
     1
1070
   256
1002
{
1002
}
1000
LType
1070
     4
1000
BYLAYER
1002
{
1002
}
1002
}
1000
N_PHAN
1070
     9
1000
4AN
1002
{
1000
Class
1070
     4
1000

1002
{
1002
}
1000
Color
1070
     1
1070
   256
1002
{
1002
}
1000
LType
1070
     4
1000
BYLAYER
1002
{
1002
}
1002
}
1000
N_POSL
1070
     9
1000
5N
1002
{
1000
Class
1070
     4
1000
SYM
1002
{
1002
}
1000
Color
1070
     1
1070
   256
1002
{
1002
}
1000
LType
1070
     4
1000
BYLAYER
1002
{
1002
}
1002
}
1000
N_TCON
1070
     9
1000
0N
1002
{
1000
Class
1070
     4
1000
CON,BGD
1002
{
1002
}
1000
Color
1070
     1
1070
   256
1002
{
1002
}
1000
LType
1070
     4
1000
BYLAYER
1002
{
1002
}
1002
}
1000
N_THLI
1070
     9
1000
4N
1002
{
1000
Class
1070
     4
1000
BGD
1002
{
1002
}
1000
Color
1070
     1
1070
   256
1002
{
1002
}
1000
LType
1070
     4
1000
BYLAYER
1002
{
1002
}
1002
}
1000
N_TLEN
1070
     9
1000
0N
1002
{
1000
Class
1070
     4
1000
CON,BGD
1002
{
1002
}
1000
Color
1070
     1
1070
   256
1002
{
1002
}
1000
LType
1070
     4
1000
BYLAYER
1002
{
1002
}
1002
}
1000
N_TXT3
1070
     9
1000
6N
1002
{
1000
Class
1070
     4
1000
SYM
1002
{
1002
}
1000
Color
1070
     1
1070
   256
1002
{
1002
}
1000
LType
1070
     4
1000
BYLAYER
1002
{
1002
}
1002
}
1000
N_VPLI
1070
     9
1000
2AN
1002
{
1000
Class
1070
     4
1000

1002
{
1002
}
1000
Color
1070
     1
1070
   256
1002
{
1002
}
1000
LType
1070
     4
1000
BYLAYER
1002
{
1002
}
1002
}
1000
NGIP
1070
     9
1000
IP
1002
{
1000
Class
1070
     4
1000

1002
{
1002
}
1000
Color
1070
     1
1070
   256
1002
{
1002
}
1000
LType
1070
     4
1000
BYLAYER
1002
{
1002
}
1002
}
1000
PAL2
1070
     9
1000
RAHM2
1002
{
1000
Class
1070
     4
1000
SPZ,SYM
1002
{
1002
}
1000
Color
1070
     1
1070
   256
1002
{
1002
}
1000
LType
1070
     4
1000
BYLAYER
1002
{
1002
}
1002
}
1000
PAL3
1070
     9
1000
RAHM3
1002
{
1000
Class
1070
     4
1000
SPZ,SYM
1002
{
1002
}
1000
Color
1070
     1
1070
   256
1002
{
1002
}
1000
LType
1070
     4
1000
BYLAYER
1002
{
1002
}
1002
}
1000
PAL5
1070
     9
1000
RAHM5
1002
{
1000
Class
1070
     4
1000
SPZ,SYM
1002
{
1002
}
1000
Color
1070
     1
1070
   256
1002
{
1002
}
1000
LType
1070
     4
1000
BYLAYER
1002
{
1002
}
1002
}
1000
PAL7
1070
     9
1000
RAHM5
1002
{
1000
Class
1070
     4
1000
SPZ,SYM
1002
{
1002
}
1000
Color
1070
     1
1070
     7
1002
{
1002
}
1000
LType
1070
     4
1000
CONTINUOUS
1002
{
1002
}
1002
}
1000
PHAN
1070
     9
1000
4A
1002
{
1000
Class
1070
     4
1000

1002
{
1002
}
1000
Color
1070
     1
1070
   256
1002
{
1002
}
1000
LType
1070
     4
1000
BYLAYER
1002
{
1002
}
1002
}
1000
POSL
1070
     9
1000
5
1002
{
1000
Class
1070
     4
1000
SYM
1002
{
1002
}
1000
Color
1070
     1
1070
   256
1002
{
1002
}
1000
LType
1070
     4
1000
BYLAYER
1002
{
1002
}
1002
}
1000
POSN
1070
     9
1000
6
1002
{
1000
Class
1070
     4
1000
SYM
1002
{
1002
}
1000
Color
1070
     1
1070
     7
1002
{
1002
}
1000
LType
1070
     4
1000
BYLAYER
1002
{
1002
}
1002
}
1000
POSREF
1070
     9
1000
6
1002
{
1000
Class
1070
     4
1000
SYM
1002
{
1002
}
1000
Color
1070
     1
1070
     5
1002
{
1002
}
1000
LType
1070
     4
1000
BYLAYER
1002
{
1002
}
1002
}
1000
POSX
1070
     9
1000
5
1002
{
1000
Class
1070
     4
1000
SYM
1002
{
1002
}
1000
Color
1070
     1
1070
     2
1002
{
1002
}
1000
LType
1070
     4
1000
CONTINUOUS
1002
{
1002
}
1002
}
1000
PSEC
1070
     9
1000
4A
1002
{
1000
Class
1070
     4
1000

1002
{
1002
}
1000
Color
1070
     1
1070
   256
1002
{
1002
}
1000
LType
1070
     4
1000
BYLAYER
1002
{
1002
}
1002
}
1000
RCGN
1070
     9
1000
7A
1002
{
1000
Class
1070
     4
1000
CEN
1002
{
1002
}
1000
Color
1070
     1
1070
   256
1002
{
1002
}
1000
LType
1070
     4
1000
BYLAYER
1002
{
1002
}
1002
}
1000
RCGW
1070
     9
1000
7
1002
{
1000
Class
1070
     4
1000
CEN
1002
{
1002
}
1000
Color
1070
     1
1070
   256
1002
{
1002
}
1000
LType
1070
     4
1000
BYLAYER
1002
{
1002
}
1002
}
1000
RFDI
1070
     9
1000
4
1002
{
1000
Class
1070
     4
1000
BGD
1002
{
1002
}
1000
Color
1070
     1
1070
   256
1002
{
1002
}
1000
LType
1070
     4
1000
BYLAYER
1002
{
1002
}
1002
}
1000
RQTR
1070
     9
1000
4
1002
{
1000
Class
1070
     4
1000

1002
{
1002
}
1000
Color
1070
     1
1070
     7
1002
{
1002
}
1000
LType
1070
     4
1000
GEN7A
1002
{
1002
}
1002
}
1000
RSBO
1070
     9
1000
4
1002
{
1000
Class
1070
     4
1000
BGD
1002
{
1002
}
1000
Color
1070
     1
1070
   256
1002
{
1002
}
1000
LType
1070
     4
1000
BYLAYER
1002
{
1002
}
1002
}
1000
SBRK
1070
     9
1000
4
1002
{
1000
Class
1070
     4
1000
BGD
1002
{
1002
}
1000
Color
1070
     1
1070
   256
1002
{
1002
}
1000
LType
1070
     4
1000
BYLAYER
1002
{
1002
}
1002
}
1000
SCEN
1070
     9
1000
7
1002
{
1000
Class
1070
     4
1000

1002
{
1002
}
1000
Color
1070
     1
1070
   256
1002
{
1002
}
1000
LType
1070
     4
1000
CONTINUOUS
1002
{
1002
}
1002
}
1000
SECT
1070
     9
1000
4
1002
{
1000
Class
1070
     4
1000
BGD
1002
{
1002
}
1000
Color
1070
     1
1070
   256
1002
{
1002
}
1000
LType
1070
     4
1000
BYLAYER
1002
{
1002
}
1002
}
1000
SELN
1070
     9
1000
7A
1002
{
1000
Class
1070
     4
1000

1002
{
1002
}
1000
Color
1070
     1
1070
   256
1002
{
1002
}
1000
LType
1070
     4
1000
BYLAYER
1002
{
1002
}
1002
}
1000
SELW
1070
     9
1000
7
1002
{
1000
Class
1070
     4
1000

1002
{
1002
}
1000
Color
1070
     1
1070
   256
1002
{
1002
}
1000
LType
1070
     4
1000
BYLAYER
1002
{
1002
}
1002
}
1000
SSYS
1070
     9
1000
0
1002
{
1000
Class
1070
     4
1000

1002
{
1002
}
1000
Color
1070
     1
1070
   256
1002
{
1002
}
1000
LType
1070
     4
1000
BYLAYER
1002
{
1002
}
1002
}
1000
STLI
1070
     9
1000
4
1002
{
1000
Class
1070
     4
1000

1002
{
1002
}
1000
Color
1070
     1
1070
     7
1002
{
1002
}
1000
LType
1070
     4
1000
GEN3A
1002
{
1002
}
1002
}
1000
SYB1
1070
     9
1000
5
1002
{
1000
Class
1070
     4
1000
SYM
1002
{
1002
}
1000
Color
1070
     1
1070
   256
1002
{
1002
}
1000
LType
1070
     4
1000
BYLAYER
1002
{
1002
}
1002
}
1000
SYB2
1070
     9
1000
5
1002
{
1000
Class
1070
     4
1000
SYM
1002
{
1002
}
1000
Color
1070
     1
1070
   256
1002
{
1002
}
1000
LType
1070
     4
1000
BYLAYER
1002
{
1002
}
1002
}
1000
SYB3
1070
     9
1000
6
1002
{
1000
Class
1070
     4
1000
SYM
1002
{
1002
}
1000
Color
1070
     1
1070
   256
1002
{
1002
}
1000
LType
1070
     4
1000
CONTINUOUS
1002
{
1002
}
1002
}
1000
SYB5
1070
     9
1000
5
1002
{
1000
Class
1070
     4
1000
SYM
1002
{
1002
}
1000
Color
1070
     1
1070
     7
1002
{
1002
}
1000
LType
1070
     4
1000
BYLAYER
1002
{
1002
}
1002
}
1000
SYMN
1070
     9
1000
7A
1002
{
1000
Class
1070
     4
1000
CEN
1002
{
1002
}
1000
Color
1070
     1
1070
   256
1002
{
1002
}
1000
LType
1070
     4
1000
BYLAYER
1002
{
1002
}
1002
}
1000
SYMW
1070
     9
1000
7
1002
{
1000
Class
1070
     4
1000
CEN
1002
{
1002
}
1000
Color
1070
     1
1070
   256
1002
{
1002
}
1000
LType
1070
     4
1000
BYLAYER
1002
{
1002
}
1002
}
1000
TCON
1070
     9
1000
0
1002
{
1000
Class
1070
     4
1000
CON,BGD
1002
{
1002
}
1000
Color
1070
     1
1070
   256
1002
{
1002
}
1000
LType
1070
     4
1000
BYLAYER
1002
{
1002
}
1002
}
1000
THLI
1070
     9
1000
4
1002
{
1000
Class
1070
     4
1000
BGD
1002
{
1002
}
1000
Color
1070
     1
1070
   256
1002
{
1002
}
1000
LType
1070
     4
1000
BYLAYER
1002
{
1002
}
1002
}
1000
TIT2
1070
     9
1000
RAHM2
1002
{
1000
Class
1070
     4
1000
SPZ,SYM
1002
{
1002
}
1000
Color
1070
     1
1070
   256
1002
{
1002
}
1000
LType
1070
     4
1000
BYLAYER
1002
{
1002
}
1002
}
1000
TIT3
1070
     9
1000
RAHM3
1002
{
1000
Class
1070
     4
1000
SPZ,SYM
1002
{
1002
}
1000
Color
1070
     1
1070
   256
1002
{
1002
}
1000
LType
1070
     4
1000
BYLAYER
1002
{
1002
}
1002
}
1000
TIT5
1070
     9
1000
RAHM5
1002
{
1000
Class
1070
     4
1000
SPZ,SYM
1002
{
1002
}
1000
Color
1070
     1
1070
   256
1002
{
1002
}
1000
LType
1070
     4
1000
BYLAYER
1002
{
1002
}
1002
}
1000
TIT7
1070
     9
1000
RAHM5
1002
{
1000
Class
1070
     4
1000
SPZ,SYM
1002
{
1002
}
1000
Color
1070
     1
1070
     7
1002
{
1002
}
1000
LType
1070
     4
1000
CONTINUOUS
1002
{
1002
}
1002
}
1000
TLEN
1070
     9
1000
0
1002
{
1000
Class
1070
     4
1000
CON,BGD
1002
{
1002
}
1000
Color
1070
     1
1070
   256
1002
{
1002
}
1000
LType
1070
     4
1000
BYLAYER
1002
{
1002
}
1002
}
1000
TRKN
1070
     9
1000
7A
1002
{
1000
Class
1070
     4
1000

1002
{
1002
}
1000
Color
1070
     1
1070
   256
1002
{
1002
}
1000
LType
1070
     4
1000
BYLAYER
1002
{
1002
}
1002
}
1000
TRKW
1070
     9
1000
7
1002
{
1000
Class
1070
     4
1000

1002
{
1002
}
1000
Color
1070
     1
1070
   256
1002
{
1002
}
1000
LType
1070
     4
1000
BYLAYER
1002
{
1002
}
1002
}
1000
TRLI
1070
     9
1000
4
1002
{
1000
Class
1070
     4
1000
BGD
1002
{
1002
}
1000
Color
1070
     1
1070
   256
1002
{
1002
}
1000
LType
1070
     4
1000
BYLAYER
1002
{
1002
}
1002
}
1000
TXT1
1070
     9
1000
6
1002
{
1000
Class
1070
     4
1000
SYM
1002
{
1002
}
1000
Color
1070
     1
1070
     2
1002
{
1002
}
1000
LType
1070
     4
1000
BYLAYER
1002
{
1002
}
1002
}
1000
TXT2
1070
     9
1000
6
1002
{
1000
Class
1070
     4
1000
SYM
1002
{
1002
}
1000
Color
1070
     1
1070
     2
1002
{
1002
}
1000
LType
1070
     4
1000
BYLAYER
1002
{
1002
}
1002
}
1000
TXT3
1070
     9
1000
6
1002
{
1000
Class
1070
     4
1000
SYM
1002
{
1002
}
1000
Color
1070
     1
1070
   256
1002
{
1002
}
1000
LType
1070
     4
1000
BYLAYER
1002
{
1002
}
1002
}
1000
TXT5
1070
     9
1000
6
1002
{
1000
Class
1070
     4
1000
SYM
1002
{
1002
}
1000
Color
1070
     1
1070
     7
1002
{
1002
}
1000
LType
1070
     4
1000
BYLAYER
1002
{
1002
}
1002
}
1000
TXT7
1070
     9
1000
6
1002
{
1000
Class
1070
     4
1000
SYM
1002
{
1002
}
1000
Color
1070
     1
1070
     7
1002
{
1002
}
1000
LType
1070
     4
1000
BYLAYER
1002
{
1002
}
1002
}
1000
VIEW
1070
     9
1000
VIEW
1002
{
1000
Class
1070
     4
1000
SPZ
1002
{
1002
}
1000
Color
1070
     1
1070
   256
1002
{
1002
}
1000
LType
1070
     4
1000
BYLAYER
1002
{
1002
}
1002
}
1000
VPLI
1070
     9
1000
2A
1002
{
1000
Class
1070
     4
1000

1002
{
1002
}
1000
Color
1070
     1
1070
   256
1002
{
1002
}
1000
LType
1070
     4
1000
BYLAYER
1002
{
1002
}
1002
}
1000
ZIZA
1070
     9
1000
4
1002
{
1000
Class
1070
     4
1000
BGD
1002
{
1002
}
1000
Color
1070
     1
1070
   256
1002
{
1002
}
1000
LType
1070
     4
1000
GENZIGZAG
1002
{
1002
}
1002
}
  0
APPID
  5
1E6
330
9
100
AcDbSymbolTableRecord
100
AcDbRegAppTableRecord
  2
GENIUS_GENCFG3_13
 70
     0
1001
GENIUS_GENCFG_13
1071
919852330
1000
408
1000
GEN@OSWIZ
1070
    12
1000
GenCfgObject
1000
GenCfgShort
1000
GenCfgReal
1000
GenCfgBool
1000
GenCfgString
1000
GenCfgDim
1000
GenCfgAttrInf
1000
GenCfgLaySection
1000
GenCfgLayer
1000
GenCfgEntSort
1000
GenCfgLType
1000
GenCfgFilter
1000
Filter
1070
     0
1002
{
1000
HATCH
1070
    11
1002
{
1000
EntityType
1070
     4
1000
LINE
1002
{
1002
}
1000
Layer
1070
     4
1000
8,8N,*-8,*-8N
1002
{
1002
}
1000
Linetype
1070
     4
1000
*
1002
{
1002
}
1000
Color
1070
     4
1000
*
1002
{
1002
}
1000
ApplyInDims
1070
     3
1070
     1
1002
{
1002
}
1002
}
1000
SYMBOLS
1070
    11
1002
{
1000
EntityType
1070
     4
1000
*
1002
{
1002
}
1000
Layer
1070
     4
1000
[5-6],[5-6]N,*-[5-6],*-[5-6]N
1002
{
1002
}
1000
Linetype
1070
     4
1000
*
1002
{
1002
}
1000
Color
1070
     4
1000
*
1002
{
1002
}
1000
ApplyInDims
1070
     3
1070
     1
1002
{
1002
}
1002
}
1000
FEM
1070
    11
1002
{
1000
EntityType
1070
     4
1000
*
1002
{
1002
}
1000
Layer
1070
     4
1000
4A,4AN,*-4A,*-4AN
1002
{
1002
}
1000
Linetype
1070
     4
1000
*
1002
{
1002
}
1000
Color
1070
     4
1000
*
1002
{
1002
}
1000
ApplyInDims
1070
     3
1070
     1
1002
{
1002
}
1002
}
1002
}
  0
APPID
  5
1E7
330
9
100
AcDbSymbolTableRecord
100
AcDbRegAppTableRecord
  2
GENIUS_GENCFG4_13
 70
     0
1001
GENIUS_GENCFG_13
1071
919852469
1000
409
1000
GEN
1070
     8
1000
GenCfgObject
1000
GenCfgShort
1000
GenCfgReal
1000
GenCfgBool
1000
GenCfgString
1000
GenCfgDim
1000
GenCfgLaySection
1000
GenCfgLType
1000
Balloon
1070
     0
1002
{
1000
GenIF
1070
     1
1070
     0
1002
{
1002
}
1000
GenPosInc
1070
     1
1070
     1
1002
{
1002
}
1000
GenPosBlk
1070
     1
1070
     8
1002
{
1002
}
1000
GenPosVar
1070
     1
1070
     0
1002
{
1002
}
1000
GenZiCir
1070
     2
1040
1.5
1002
{
1002
}
1000
MaxCharForCenteredText
1070
     1
1070
    30
1002
{
1002
}
1000
Snap
1070
     0
1002
{
1000
ActivationRadius
1070
     2
1040
1.0
1002
{
1002
}
1000
M
1070
     0
1002
{
1000
SnapStepX
1070
     2
1040
20.0
1002
{
1002
}
1000
SnapStepY
1070
     2
1040
10.0
1002
{
1002
}
1002
}
1000
I
1070
     0
1002
{
1000
SnapStepX
1070
     2
1040
1.0
1002
{
1002
}
1000
SnapStepY
1070
     2
1040
0.5
1002
{
1002
}
1002
}
1002
}
1002
}
1000
Centerline
1070
     0
1002
{
1000
ScaleNot
1070
     3
1070
     0
1002
{
1002
}
1000
M
1070
     0
1002
{
1000
GenCenAng
1070
     4
1000
45|90|135
1002
{
1002
}
1000
GenCenDia
1070
     2
1040
10.0
1002
{
1002
}
1000
GenCenDias
1070
     4
1000
10|20|30
1002
{
1002
}
1000
GenCenDist
1070
     2
1040
3.0
1002
{
1002
}
1000
GenCenLen
1070
     2
1040
10.0
1002
{
1002
}
1000
GenCenOff
1070
     2
1040
10.0
1002
{
1002
}
1002
}
1000
I
1070
     0
1002
{
1000
GenCenAng
1070
     4
1000
45|90|135
1002
{
1002
}
1000
GenCenDia
1070
     2
1040
0.5
1002
{
1002
}
1000
GenCenDias
1070
     4
1000
0.5|1.0|1.5
1002
{
1002
}
1000
GenCenDist
1070
     2
1040
0.125
1002
{
1002
}
1000
GenCenLen
1070
     2
1040
0.5
1002
{
1002
}
1000
GenCenOff
1070
     2
1040
0.5
1002
{
1002
}
1002
}
1002
}
1000
CLine
1070
     0
1002
{
1000
CAngArray
1070
     4
1000
30|45|60
1002
{
1002
}
1000
Typ
1070
     4
1000
XLINE
1002
{
1002
}
1000
M
1070
     0
1002
{
1000
CLinArray
1070
     4
1000
10|20|30
1002
{
1002
}
1002
}
1000
I
1070
     0
1002
{
1000
CLinArray
1070
     4
1000
0.125|0.25|0.5
1002
{
1002
}
1002
}
1002
}
1000
Detail
1070
     0
1002
{
1002
}
1000
Dimension
1070
     5
1002
{
1000
DIMALT
1070
     1
1070
     0
1002
{
1002
}
1000
DIMALTD
1070
     1
1070
     2
1002
{
1002
}
1000
DIMALTTD
1070
     1
1070
     4
1002
{
1002
}
1000
DIMALTTZ
1070
     1
1070
     0
1002
{
1002
}
1000
DIMALTU
1070
     1
1070
     2
1002
{
1002
}
1000
DIMALTZ
1070
     1
1070
     0
1002
{
1002
}
1000
DIMAUNIT
1070
     1
1070
     0
1002
{
1002
}
1000
DIMBLK
1070
     4
1000

1002
{
1002
}
1000
DIMBLK1
1070
     4
1000

1002
{
1002
}
1000
DIMBLK2
1070
     4
1000

1002
{
1002
}
1000
DIMCLRD
1070
     1
1070
   256
1002
{
1002
}
1000
DIMCLRE
1070
     1
1070
   256
1002
{
1002
}
1000
DIMCLRT
1070
     1
1070
     1
1002
{
1002
}
1000
DIMDLE
1070
     2
1040
0.0
1002
{
1002
}
1000
DIMFIT
1070
     1
1070
     3
1002
{
1002
}
1000
DIMJUST
1070
     1
1070
     0
1002
{
1002
}
1000
DIMLFAC
1070
     2
1040
1.0
1002
{
1002
}
1000
DIMLIM
1070
     1
1070
     0
1002
{
1002
}
1000
DIMPOST
1070
     4
1000

1002
{
1002
}
1000
DIMRND
1070
     2
1040
0.0
1002
{
1002
}
1000
DIMSAH
1070
     1
1070
     0
1002
{
1002
}
1000
DIMSCALE
1070
     2
1040
1.0
1002
{
1002
}
1000
DIMSD1
1070
     1
1070
     0
1002
{
1002
}
1000
DIMSD2
1070
     1
1070
     0
1002
{
1002
}
1000
DIMSE1
1070
     1
1070
     0
1002
{
1002
}
1000
DIMSE2
1070
     1
1070
     0
1002
{
1002
}
1000
DIMSOXD
1070
     1
1070
     0
1002
{
1002
}
1000
DIMTAD
1070
     1
1070
     2
1002
{
1002
}
1000
DIMTFAC
1070
     2
1040
0.71
1002
{
1002
}
1000
DIMTIH
1070
     1
1070
     0
1002
{
1002
}
1000
DIMTIX
1070
     1
1070
     0
1002
{
1002
}
1000
DIMTM
1070
     2
1040
0.1
1002
{
1002
}
1000
DIMTOFL
1070
     1
1070
     0
1002
{
1002
}
1000
DIMTOH
1070
     1
1070
     0
1002
{
1002
}
1000
DIMTOL
1070
     1
1070
     0
1002
{
1002
}
1000
DIMTOLJ
1070
     1
1070
     1
1002
{
1002
}
1000
DIMTP
1070
     2
1040
0.1
1002
{
1002
}
1000
DIMTSZ
1070
     2
1040
0.0
1002
{
1002
}
1000
DIMTVP
1070
     2
1040
0.0
1002
{
1002
}
1000
DIMTXSTY
1070
     4
1000
STANDARD
1002
{
1002
}
1000
DIMTZIN
1070
     1
1070
     0
1002
{
1002
}
1000
DIMUNIT
1070
     1
1070
     2
1002
{
1002
}
1000
DIMUPT
1070
     1
1070
     0
1002
{
1002
}
1000
M
1070
     0
1002
{
1000
DIMALTF
1070
     2
1040
0.0393701
1002
{
1002
}
1000
DIMAPOST
1070
     4
1000
<>
1002
{
1002
}
1000
DIMASZ
1070
     2
1040
2.5
1002
{
1002
}
1000
DIMCEN
1070
     2
1040
0.0
1002
{
1002
}
1000
DIMDEC
1070
     1
1070
     2
1002
{
1002
}
1000
DIMDLI
1070
     2
1040
0.0
1002
{
1002
}
1000
DIMEXE
1070
     2
1040
1.0
1002
{
1002
}
1000
DIMEXO
1070
     2
1040
1.0
1002
{
1002
}
1000
DIMGAP
1070
     2
1040
1.5
1002
{
1002
}
1000
DIMTDEC
1070
     1
1070
     3
1002
{
1002
}
1000
DIMTXT
1070
     2
1040
3.5
1002
{
1002
}
1000
DIMZIN
1070
     1
1070
     8
1002
{
1002
}
1002
}
1000
I
1070
     0
1002
{
1000
DIMALTF
1070
     2
1040
25.4
1002
{
1002
}
1000
DIMAPOST
1070
     4
1000
mm
1002
{
1002
}
1000
DIMASZ
1070
     2
1040
0.1
1002
{
1002
}
1000
DIMCEN
1070
     2
1040
0.0
1002
{
1002
}
1000
DIMDEC
1070
     1
1070
     4
1002
{
1002
}
1000
DIMDLI
1070
     2
1040
0.5
1002
{
1002
}
1000
DIMEXE
1070
     2
1040
0.1
1002
{
1002
}
1000
DIMEXO
1070
     2
1040
0.05
1002
{
1002
}
1000
DIMGAP
1070
     2
1040
0.06
1002
{
1002
}
1000
DIMTDEC
1070
     1
1070
     4
1002
{
1002
}
1000
DIMTXT
1070
     2
1040
0.12
1002
{
1002
}
1000
DIMZIN
1070
     1
1070
     7
1002
{
1002
}
1002
}
1000
GEN-ISO
1070
     5
1002
{
1000
NAME
1070
     4
1000
GEN-ISO
1002
{
1002
}
1000
DIMTAD
1070
     1
1070
     1
1002
{
1002
}
1000
DIMTOLJ
1070
     1
1070
     0
1002
{
1002
}
1000
DIMTOFL
1070
     1
1070
     1
1002
{
1002
}
1000
M
1070
     0
1002
{
1002
}
1000
I
1070
     0
1002
{
1002
}
1000
DIMPOST
1070
     4
1000
<>
1002
{
1002
}
1002
}
1000
GEN-ISO-POS
1070
     5
1002
{
1000
NAME
1070
     4
1000
GEN-ISO-POS
1002
{
1002
}
1000
DIMTOLJ
1070
     1
1070
     0
1002
{
1002
}
1000
DIMTXSTY
1070
     4
1000
STANDARD
1002
{
1002
}
1000
M
1070
     0
1002
{
1000
DIMASZ
1070
     2
1040
2.5
1002
{
1002
}
1000
DIMGAP
1070
     2
1040
1.5
1002
{
1002
}
1000
DIMTXT
1070
     2
1040
5.0
1002
{
1002
}
1002
}
1000
I
1070
     0
1002
{
1000
DIMASZ
1070
     2
1040
0.1
1002
{
1002
}
1000
DIMGAP
1070
     2
1040
0.06
1002
{
1002
}
1000
DIMTXT
1070
     2
1040
0.2
1002
{
1002
}
1002
}
1002
}
1000
GEN-ISO-CIR
1070
     5
1002
{
1000
NAME
1070
     4
1000
GEN-ISO$3
1002
{
1002
}
1000
DIMFIT
1070
     1
1070
     0
1002
{
1002
}
1000
DIMTAD
1070
     1
1070
     1
1002
{
1002
}
1000
DIMTIH
1070
     1
1070
     0
1002
{
1002
}
1000
DIMTIX
1070
     1
1070
     0
1002
{
1002
}
1000
DIMTOH
1070
     1
1070
     1
1002
{
1002
}
1000
DIMTOLJ
1070
     1
1070
     0
1002
{
1002
}
1000
DIMTOFL
1070
     1
1070
     0
1002
{
1002
}
1000
DIMUPT
1070
     1
1070
     1
1002
{
1002
}
1000
M
1070
     0
1002
{
1002
}
1000
I
1070
     0
1002
{
1002
}
1002
}
1000
GEN-ISO-RAD
1070
     5
1002
{
1000
NAME
1070
     4
1000
GEN-ISO$4
1002
{
1002
}
1000
DIMFIT
1070
     1
1070
     0
1002
{
1002
}
1000
DIMTAD
1070
     1
1070
     1
1002
{
1002
}
1000
DIMTIH
1070
     1
1070
     0
1002
{
1002
}
1000
DIMTIX
1070
     1
1070
     0
1002
{
1002
}
1000
DIMTOH
1070
     1
1070
     1
1002
{
1002
}
1000
DIMTOLJ
1070
     1
1070
     0
1002
{
1002
}
1000
DIMTOFL
1070
     1
1070
     0
1002
{
1002
}
1000
DIMUPT
1070
     1
1070
     1
1002
{
1002
}
1000
M
1070
     0
1002
{
1002
}
1000
I
1070
     0
1002
{
1002
}
1002
}
1000
GEN-ISO-ORD
1070
     5
1002
{
1000
NAME
1070
     4
1000
GEN-ISO$6
1002
{
1002
}
1000
DIMTOLJ
1070
     1
1070
     0
1002
{
1002
}
1000
M
1070
     0
1002
{
1002
}
1000
I
1070
     0
1002
{
1002
}
1002
}
1000
GEN-ISO-AXE-F
1070
     5
1002
{
1000
NAME
1070
     4
1000
GEN-ISO-AXE-F
1002
{
1002
}
1000
DIMSE1
1070
     1
1070
     1
1002
{
1002
}
1000
DIMSE2
1070
     1
1070
     1
1002
{
1002
}
1000
DIMTAD
1070
     1
1070
     1
1002
{
1002
}
1000
DIMTOLJ
1070
     1
1070
     0
1002
{
1002
}
1000
DIMTOFL
1070
     1
1070
     1
1002
{
1002
}
1000
M
1070
     0
1002
{
1002
}
1000
I
1070
     0
1002
{
1002
}
1002
}
1000
GEN-ISO-AXE-H
1070
     5
1002
{
1000
DIMBLK1
1070
     4
1000
GENAXEH
1002
{
1002
}
1000
DIMLFAC
1070
     2
1040
2.0
1002
{
1002
}
1000
DIMSAH
1070
     1
1070
     1
1002
{
1002
}
1000
DIMSE1
1070
     1
1070
     1
1002
{
1002
}
1000
DIMSE2
1070
     1
1070
     1
1002
{
1002
}
1000
DIMTAD
1070
     1
1070
     1
1002
{
1002
}
1000
DIMTOLJ
1070
     1
1070
     0
1002
{
1002
}
1000
DIMTOFL
1070
     1
1070
     1
1002
{
1002
}
1000
M
1070
     0
1002
{
1002
}
1000
I
1070
     0
1002
{
1002
}
1002
}
1000
GEN-ANSI
1070
     5
1002
{
1000
NAME
1070
     4
1000
GEN-ANSI
1002
{
1002
}
1000
DIMTIH
1070
     1
1070
     1
1002
{
1002
}
1000
DIMTOH
1070
     1
1070
     1
1002
{
1002
}
1000
DIMTAD
1070
     1
1070
     0
1002
{
1002
}
1000
DIMTOLJ
1070
     1
1070
     1
1002
{
1002
}
1000
M
1070
     0
1002
{
1002
}
1000
I
1070
     0
1002
{
1002
}
1002
}
1000
GEN-ANSI-POS
1070
     5
1002
{
1000
NAME
1070
     4
1000
GEN-ANSI-POS
1002
{
1002
}
1000
DIMTOLJ
1070
     1
1070
     1
1002
{
1002
}
1000
DIMTXSTY
1070
     4
1000
STANDARD
1002
{
1002
}
1000
M
1070
     0
1002
{
1000
DIMASZ
1070
     2
1040
2.5
1002
{
1002
}
1000
DIMGAP
1070
     2
1040
1.5
1002
{
1002
}
1000
DIMTXT
1070
     2
1040
5.0
1002
{
1002
}
1002
}
1000
I
1070
     0
1002
{
1000
DIMASZ
1070
     2
1040
0.1
1002
{
1002
}
1000
DIMGAP
1070
     2
1040
0.06
1002
{
1002
}
1000
DIMTXT
1070
     2
1040
0.2
1002
{
1002
}
1002
}
1002
}
1000
GEN-ANSI-CIR
1070
     5
1002
{
1000
NAME
1070
     4
1000
GEN-ANSI$3
1002
{
1002
}
1000
DIMFIT
1070
     1
1070
     0
1002
{
1002
}
1000
DIMTAD
1070
     1
1070
     0
1002
{
1002
}
1000
DIMTIH
1070
     1
1070
     1
1002
{
1002
}
1000
DIMTIX
1070
     1
1070
     0
1002
{
1002
}
1000
DIMTOFL
1070
     1
1070
     0
1002
{
1002
}
1000
DIMTOH
1070
     1
1070
     1
1002
{
1002
}
1000
DIMTOLJ
1070
     1
1070
     1
1002
{
1002
}
1000
DIMUPT
1070
     1
1070
     1
1002
{
1002
}
1000
M
1070
     0
1002
{
1002
}
1000
I
1070
     0
1002
{
1002
}
1002
}
1000
GEN-ANSI-RAD
1070
     5
1002
{
1000
NAME
1070
     4
1000
GEN-ANSI$4
1002
{
1002
}
1000
DIMFIT
1070
     1
1070
     0
1002
{
1002
}
1000
DIMTAD
1070
     1
1070
     0
1002
{
1002
}
1000
DIMTIH
1070
     1
1070
     1
1002
{
1002
}
1000
DIMTIX
1070
     1
1070
     0
1002
{
1002
}
1000
DIMTOFL
1070
     1
1070
     0
1002
{
1002
}
1000
DIMTOH
1070
     1
1070
     1
1002
{
1002
}
1000
DIMTOLJ
1070
     1
1070
     1
1002
{
1002
}
1000
DIMUPT
1070
     1
1070
     1
1002
{
1002
}
1000
M
1070
     0
1002
{
1002
}
1000
I
1070
     0
1002
{
1002
}
1002
}
1000
GEN-ANSI-ORD
1070
     5
1002
{
1000
NAME
1070
     4
1000
GEN-ANSI$6
1002
{
1002
}
1000
DIMTAD
1070
     1
1070
     0
1002
{
1002
}
1000
DIMTIH
1070
     1
1070
     1
1002
{
1002
}
1000
DIMTOH
1070
     1
1070
     1
1002
{
1002
}
1000
DIMTOLJ
1070
     1
1070
     1
1002
{
1002
}
1000
M
1070
     0
1002
{
1002
}
1000
I
1070
     0
1002
{
1002
}
1002
}
1000
GEN-ANSI-AXE-F
1070
     5
1002
{
1000
NAME
1070
     4
1000
GEN-ANSI-AXE-F
1002
{
1002
}
1000
DIMBLK1
1070
     4
1000
GENAXEH
1002
{
1002
}
1000
DIMSAH
1070
     1
1070
     1
1002
{
1002
}
1000
DIMSE1
1070
     1
1070
     1
1002
{
1002
}
1000
DIMSE2
1070
     1
1070
     1
1002
{
1002
}
1000
DIMTAD
1070
     1
1070
     0
1002
{
1002
}
1000
DIMTIH
1070
     1
1070
     1
1002
{
1002
}
1000
DIMTOH
1070
     1
1070
     1
1002
{
1002
}
1000
DIMTOLJ
1070
     1
1070
     1
1002
{
1002
}
1000
M
1070
     0
1002
{
1002
}
1000
I
1070
     0
1002
{
1002
}
1002
}
1000
GEN-ANSI-AXE-H
1070
     5
1002
{
1000
NAME
1070
     4
1000
GEN-ANSI-AXE-H
1002
{
1002
}
1000
DIMBLK1
1070
     4
1000
GENAXEH
1002
{
1002
}
1000
DIMLFAC
1070
     2
1040
2.0
1002
{
1002
}
1000
DIMSAH
1070
     1
1070
     1
1002
{
1002
}
1000
DIMSE1
1070
     1
1070
     1
1002
{
1002
}
1000
DIMSE2
1070
     1
1070
     1
1002
{
1002
}
1000
DIMTAD
1070
     1
1070
     0
1002
{
1002
}
1000
DIMTOFL
1070
     1
1070
     1
1002
{
1002
}
1000
DIMTOLJ
1070
     1
1070
     1
1002
{
1002
}
1000
M
1070
     0
1002
{
1002
}
1000
I
1070
     0
1002
{
1002
}
1002
}
1000
DIMAPOST
1070
     4
1000

1002
{
1002
}
1002
}
1000
DimSet
1070
     0
1002
{
1000
ChainSum
1070
     3
1070
     0
1002
{
1002
}
1000
DimDclTyp0
1070
     4
1000
dim11
1002
{
1002
}
1000
HorBra
1070
     3
1070
     0
1002
{
1002
}
1000
StrDia
1070
     4
1000
%%c<>
1002
{
1002
}
1000
StrRad
1070
     4
1000
R<>
1002
{
1002
}
1000
TextMinus
1070
     4
1000
<>
1002
{
1002
}
1000
TextPlus
1070
     4
1000
<>
1002
{
1002
}
1000
M
1070
     0
1002
{
1000
DimdliFirst
1070
     2
1040
12.0
1002
{
1002
}
1000
PointMakeDist
1070
     2
1040
10.0
1002
{
1002
}
1002
}
1000
I
1070
     0
1002
{
1000
DimdliFirst
1070
     2
1040
0.5
1002
{
1002
}
1000
PointMakeDist
1070
     2
1040
0.5
1002
{
1002
}
1002
}
1002
}
1000
Drawing
1070
     0
1002
{
1000
ChamferDimMode
1070
     1
1070
     2
1002
{
1002
}
1000
Gen_Fiso
1070
    -3
1040
1.0
1002
{
1002
}
1000
GenDimStil
1070
     4
1000
ISO
1002
{
1002
}
1000
GenDwgUScale
1070
     2
1040
1.0
1002
{
1002
}
1000
GenInch
1070
     4
1000
M
1002
{
1002
}
1000
GenPlotScale
1070
     4
1000
1:1
1002
{
1002
}
1000
Revisi
1070
     4
1000
0
1002
{
1002
}
1000
Version
1070
    -5
1000
14.01/May 26 1998
1002
{
1002
}
1000
Platform
1070
    -5
1000
WINNT
1002
{
1002
}
1002
}
1000
DwgVar
1070
     0
1002
{
1000
M
1070
     0
1002
{
1002
}
1000
I
1070
     0
1002
{
1002
}
1002
}
1000
Hatch
1070
     0
1002
{
1000
GenHtcFlag
1070
     3
1070
     0
1002
{
1002
}
1002
}
1000
Info_Pos
1070
     0
1002
{
1000
>
1002
}
1000
Layer
1070
     6
1002
{
1000
Defs
1070
     0
1002
{
1000
>
1002
}
1000
EntSort
1070
     0
1002
{
1000
>
1002
}
1000
Match
1070
     0
1002
{
1002
}
1000
Settings
1070
     0
1002
{
1000
FocGrNC
1070
     3
1070
     0
1002
{
1002
}
1000
FocGrLo
1070
     3
1070
     0
1002
{
1002
}
1000
FocLoNC
1070
     3
1070
     0
1002
{
1002
}
1000
FocusCol
1070
     1
1070
   253
1002
{
1002
}
1000
GenStdLG
1070
     4
1000

1002
{
1002
}
1000
LayMatch
1070
     3
1070
     0
1002
{
1002
}
1000
LgOff
1070
     3
1070
     0
1002
{
1002
}
1000
CurLG
1070
    -5
1000

1002
{
1002
}
1002
}
1002
}
1000
LType
1070
     0
1002
{
1000
GEN3
1070
     7
1000
genius.lin
1002
{
1002
}
1000
GEN7
1070
     7
1000
genius.lin
1002
{
1002
}
1000
GEN4A
1070
     7
1000
genius.lin
1002
{
1002
}
1000
GEN3A
1070
     7
1000
genius.lin
1002
{
1002
}
1000
GEN7A
1070
     7
1000
genius.lin
1002
{
1002
}
1000
GENZIGZAG
1070
     7
1000
genius.lin
1002
{
1002
}
1002
}
1000
Objecter
1070
     0
1002
{
1000
CreateGroups
1070
     3
1070
     0
1002
{
1002
}
1000
LaySwitch
1070
     3
1070
     1
1002
{
1002
}
1000
LastObj
1070
    -5
1000
0
1002
{
1002
}
1000
TimeStamp
1070
    -5
1000
19990224.12320750
1002
{
1002
}
1002
}
1000
OSWiz
1070
     0
1002
{
1000
>
1002
}
1000
PaList
1070
     0
1002
{
1000
AutoUpdatePartList
1070
     1
1070
     0
1002
{
1002
}
1000
ReadInfoPoint
1070
     3
1070
     0
1002
{
1002
}
1000
ReadPosNr
1070
     3
1070
     1
1002
{
1002
}
1000
RevStr
1070
     4
1000
0
1002
{
1002
}
1002
}
1000
Paper
1070
     0
1002
{
1002
}
1000
PartDB
1070
     0
1002
{
1000
GenDbOwner
1070
     4
1000

1002
{
1002
}
1002
}
1000
System
1070
     0
1002
{
1000
Menu
1070
     4
1000
GEV
1002
{
1002
}
1002
}
1000
Title
1070
     0
1002
{
1000
MakeView
1070
     1
1070
     2
1002
{
1002
}
1002
}
1000
Tools
1070
     0
1002
{
1000
Trans
1070
     0
1002
{
1000
Drawingtranslation
1070
    -4
1070
     1
1002
{
1002
}
1000
upreserve
1070
     3
1070
     0
1002
{
1002
}
1000
originally_on
1070
    -4
1070
     0
1002
{
1002
}
1000
sourcelang
1070
    -5
1000
GB
1002
{
1002
}
1002
}
1002
}
  0
APPID
  5
1E8
330
9
100
AcDbSymbolTableRecord
100
AcDbRegAppTableRecord
  2
MCAD_NO_VIS
 70
     0
  0
APPID
  5
1E9
330
9
100
AcDbSymbolTableRecord
100
AcDbRegAppTableRecord
  2
AD_DRAW
 70
     0
  0
APPID
  5
1EA
330
9
100
AcDbSymbolTableRecord
100
AcDbRegAppTableRecord
  2
DESIGNERASSEMBLIES
 70
     0
  0
APPID
  5
1EB
330
9
100
AcDbSymbolTableRecord
100
AcDbRegAppTableRecord
  2
ASURF_PCURVE_APPNAME
 70
     0
  0
APPID
  5
1EC
330
9
100
AcDbSymbolTableRecord
100
AcDbRegAppTableRecord
  2
GENIUS_GE3CFG0_13
 70
     0
1001
GENIUS_GENCFG_13
1071
919852330
1000
4CB
1000
GE3
1070
     2
1000
GenCfgObject
1000
GenCfgShort
1000
Dimension
1070
     0
1002
{
1000
RefDimEnhance
1070
     1
1070
     1
1002
{
1002
}
1000
RefDim
1070
     0
1002
{
1000
DIMCLRD
1070
     1
1070
     4
1002
{
1002
}
1002
}
1002
}
1000
Drawing
1070
     0
1002
{
1000
MSpace3D
1070
     1
1070
     1
1002
{
1002
}
1000
UpdateList
1070
     1
1070
     1
1002
{
1002
}
1002
}
1000
Shaft
1070
     0
1002
{
1002
}
1000
View
1070
     0
1002
{
1002
}
  0
APPID
  5
1ED
330
9
100
AcDbSymbolTableRecord
100
AcDbRegAppTableRecord
  2
GENIUS_GENCFG5_13
 70
     0
1001
GENIUS_GENCFG_13
1071
919852330
1000
4CC
1000
GEN@INFO_POS
1070
     7
1000
GenCfgObject
1000
GenCfgShort
1000
GenCfgReal
1000
GenCfgBool
1000
GenCfgString
1000
GenCfgDim
1000
GenCfgAttrInf
1000
DescrText
1070
     4
1000
5,6,7,8
1002
{
1002
}
1000
DescrText2
1070
     4
1000
26
1002
{
1002
}
1000
VisibleAttr1
1070
     4
1000
1
1002
{
1002
}
1000
VisibleAttr2
1070
     4
1000
26
1002
{
1002
}
1000
UpdateBlock
1070
     3
1070
     1
1002
{
1002
}
1000
Attrib
1070
     0
1002
{
1000
0
1070
     6
1002
{
1000
Prompt
1070
     4
1000
(genmsg gendwg 103)
1002
{
1002
}
1000
Value
1070
     4
1000

1002
{
1002
}
1000
EditFlag
1070
     1
1070
     0
1002
{
1002
}
1000
PosInDDATTE
1070
     1
1070
    27
1002
{
1002
}
1000
FieldLen
1070
     1
1070
    -1
1002
{
1002
}
1002
}
1000
1
1070
     6
1002
{
1000
Prompt
1070
     4
1000
(genmsg gendwg 31)
1002
{
1002
}
1000
Value
1070
     4
1000
1
1002
{
1002
}
1000
EditFlag
1070
     1
1070
     1
1002
{
1002
}
1000
PosInDDATTE
1070
     1
1070
     1
1002
{
1002
}
1000
FieldLen
1070
     1
1070
    -1
1002
{
1002
}
1002
}
1000
2
1070
     6
1002
{
1000
Prompt
1070
     4
1000
(genmsg gendwg 32)
1002
{
1002
}
1000
Value
1070
     4
1000
1
1002
{
1002
}
1000
EditFlag
1070
     1
1070
     1
1002
{
1002
}
1000
PosInDDATTE
1070
     1
1070
     2
1002
{
1002
}
1000
FieldLen
1070
     1
1070
    -1
1002
{
1002
}
1002
}
1000
3
1070
     6
1002
{
1000
Prompt
1070
     4
1000
(genmsg gendwg 33)
1002
{
1002
}
1000
Value
1070
     4
1000

1002
{
1002
}
1000
EditFlag
1070
     1
1070
     1
1002
{
1002
}
1000
PosInDDATTE
1070
     1
1070
     3
1002
{
1002
}
1000
FieldLen
1070
     1
1070
    -1
1002
{
1002
}
1002
}
1000
4
1070
     6
1002
{
1000
Prompt
1070
     4
1000
(genmsg gendwg 34)
1002
{
1002
}
1000
Value
1070
     4
1000

1002
{
1002
}
1000
EditFlag
1070
     1
1070
     1
1002
{
1002
}
1000
PosInDDATTE
1070
     1
1070
     4
1002
{
1002
}
1000
FieldLen
1070
     1
1070
    -1
1002
{
1002
}
1002
}
1000
5
1070
     6
1002
{
1000
Prompt
1070
     4
1000
(genmsg gendwg 35)
1002
{
1002
}
1000
Value
1070
     4
1000

1002
{
1002
}
1000
EditFlag
1070
     1
1070
     1
1002
{
1002
}
1000
PosInDDATTE
1070
     1
1070
     5
1002
{
1002
}
1000
FieldLen
1070
     1
1070
    -1
1002
{
1002
}
1002
}
1000
6
1070
     6
1002
{
1000
Prompt
1070
     4
1000
(genmsg gendwg 36)
1002
{
1002
}
1000
Value
1070
     4
1000

1002
{
1002
}
1000
EditFlag
1070
     1
1070
     1
1002
{
1002
}
1000
PosInDDATTE
1070
     1
1070
     6
1002
{
1002
}
1000
FieldLen
1070
     1
1070
    -1
1002
{
1002
}
1002
}
1000
7
1070
     6
1002
{
1000
Prompt
1070
     4
1000
(genmsg gendwg 37)
1002
{
1002
}
1000
Value
1070
     4
1000

1002
{
1002
}
1000
EditFlag
1070
     1
1070
     1
1002
{
1002
}
1000
PosInDDATTE
1070
     1
1070
     7
1002
{
1002
}
1000
FieldLen
1070
     1
1070
    -1
1002
{
1002
}
1002
}
1000
8
1070
     6
1002
{
1000
Prompt
1070
     4
1000
(genmsg gendwg 38)
1002
{
1002
}
1000
Value
1070
     4
1000

1002
{
1002
}
1000
EditFlag
1070
     1
1070
     1
1002
{
1002
}
1000
PosInDDATTE
1070
     1
1070
     8
1002
{
1002
}
1000
FieldLen
1070
     1
1070
    -1
1002
{
1002
}
1002
}
1000
9
1070
     6
1002
{
1000
Prompt
1070
     4
1000
(genmsg gendwg 39)
1002
{
1002
}
1000
Value
1070
     4
1000

1002
{
1002
}
1000
EditFlag
1070
     1
1070
     1
1002
{
1002
}
1000
PosInDDATTE
1070
     1
1070
     9
1002
{
1002
}
1000
FieldLen
1070
     1
1070
    -1
1002
{
1002
}
1002
}
1000
10
1070
     6
1002
{
1000
Prompt
1070
     4
1000
(genmsg gendwg 40)
1002
{
1002
}
1000
Value
1070
     4
1000

1002
{
1002
}
1000
EditFlag
1070
     1
1070
     1
1002
{
1002
}
1000
PosInDDATTE
1070
     1
1070
    10
1002
{
1002
}
1000
FieldLen
1070
     1
1070
    -1
1002
{
1002
}
1002
}
1000
11
1070
     6
1002
{
1000
Prompt
1070
     4
1000
(genmsg gendwg 41)
1002
{
1002
}
1000
Value
1070
     4
1000

1002
{
1002
}
1000
EditFlag
1070
     1
1070
     1
1002
{
1002
}
1000
PosInDDATTE
1070
     1
1070
    11
1002
{
1002
}
1000
FieldLen
1070
     1
1070
    -1
1002
{
1002
}
1002
}
1000
12
1070
     6
1002
{
1000
Prompt
1070
     4
1000
(genmsg gendwg 42)
1002
{
1002
}
1000
Value
1070
     4
1000

1002
{
1002
}
1000
EditFlag
1070
     1
1070
     1
1002
{
1002
}
1000
PosInDDATTE
1070
     1
1070
    12
1002
{
1002
}
1000
FieldLen
1070
     1
1070
    -1
1002
{
1002
}
1002
}
1000
13
1070
     6
1002
{
1000
Prompt
1070
     4
1000
(genmsg gendwg 43)
1002
{
1002
}
1000
Value
1070
     4
1000

1002
{
1002
}
1000
EditFlag
1070
     1
1070
     1
1002
{
1002
}
1000
PosInDDATTE
1070
     1
1070
    13
1002
{
1002
}
1000
FieldLen
1070
     1
1070
    -1
1002
{
1002
}
1002
}
1000
14
1070
     6
1002
{
1000
Prompt
1070
     4
1000
(genmsg gendwg 44)
1002
{
1002
}
1000
Value
1070
     4
1000

1002
{
1002
}
1000
EditFlag
1070
     1
1070
     1
1002
{
1002
}
1000
PosInDDATTE
1070
     1
1070
    14
1002
{
1002
}
1000
FieldLen
1070
     1
1070
    -1
1002
{
1002
}
1002
}
1000
15
1070
     6
1002
{
1000
Prompt
1070
     4
1000
(genmsg gendwg 45)
1002
{
1002
}
1000
Value
1070
     4
1000

1002
{
1002
}
1000
EditFlag
1070
     1
1070
     1
1002
{
1002
}
1000
PosInDDATTE
1070
     1
1070
    15
1002
{
1002
}
1000
FieldLen
1070
     1
1070
    -1
1002
{
1002
}
1002
}
1000
16
1070
     6
1002
{
1000
Prompt
1070
     4
1000
(genmsg gendwg 46)
1002
{
1002
}
1000
Value
1070
     4
1000

1002
{
1002
}
1000
EditFlag
1070
     1
1070
     1
1002
{
1002
}
1000
PosInDDATTE
1070
     1
1070
    16
1002
{
1002
}
1000
FieldLen
1070
     1
1070
    -1
1002
{
1002
}
1002
}
1000
17
1070
     6
1002
{
1000
Prompt
1070
     4
1000
(genmsg gendwg 47)
1002
{
1002
}
1000
Value
1070
     4
1000

1002
{
1002
}
1000
EditFlag
1070
     1
1070
     1
1002
{
1002
}
1000
PosInDDATTE
1070
     1
1070
    17
1002
{
1002
}
1000
FieldLen
1070
     1
1070
    -1
1002
{
1002
}
1002
}
1000
18
1070
     6
1002
{
1000
Prompt
1070
     4
1000
(genmsg gendwg 48)
1002
{
1002
}
1000
Value
1070
     4
1000

1002
{
1002
}
1000
EditFlag
1070
     1
1070
     1
1002
{
1002
}
1000
PosInDDATTE
1070
     1
1070
    18
1002
{
1002
}
1000
FieldLen
1070
     1
1070
    -1
1002
{
1002
}
1002
}
1000
19
1070
     6
1002
{
1000
Prompt
1070
     4
1000
(genmsg gendwg 99)
1002
{
1002
}
1000
Value
1070
     4
1000

1002
{
1002
}
1000
EditFlag
1070
     1
1070
     1
1002
{
1002
}
1000
PosInDDATTE
1070
     1
1070
    19
1002
{
1002
}
1000
FieldLen
1070
     1
1070
    -1
1002
{
1002
}
1002
}
1000
20
1070
     6
1002
{
1000
Prompt
1070
     4
1000
(genmsg gendwg 100)
1002
{
1002
}
1000
Value
1070
     4
1000

1002
{
1002
}
1000
EditFlag
1070
     1
1070
     1
1002
{
1002
}
1000
PosInDDATTE
1070
     1
1070
    20
1002
{
1002
}
1000
FieldLen
1070
     1
1070
    -1
1002
{
1002
}
1002
}
1000
21
1070
     6
1002
{
1000
Prompt
1070
     4
1000
(genmsg gendwg 101)
1002
{
1002
}
1000
Value
1070
     4
1000

1002
{
1002
}
1000
EditFlag
1070
     1
1070
     1
1002
{
1002
}
1000
PosInDDATTE
1070
     1
1070
    21
1002
{
1002
}
1000
FieldLen
1070
     1
1070
    -1
1002
{
1002
}
1002
}
1000
22
1070
     6
1002
{
1000
Prompt
1070
     4
1000
(genmsg gendwg 102)
1002
{
1002
}
1000
Value
1070
     4
1000

1002
{
1002
}
1000
EditFlag
1070
     1
1070
     1
1002
{
1002
}
1000
PosInDDATTE
1070
     1
1070
    22
1002
{
1002
}
1000
FieldLen
1070
     1
1070
    -1
1002
{
1002
}
1002
}
1000
23
1070
     6
1002
{
1000
Prompt
1070
     4
1000
(genmsg gendwg 30)
1002
{
1002
}
1000
Value
1070
     4
1000

1002
{
1002
}
1000
EditFlag
1070
     1
1070
     1
1002
{
1002
}
1000
PosInDDATTE
1070
     1
1070
    23
1002
{
1002
}
1000
FieldLen
1070
     1
1070
    -1
1002
{
1002
}
1002
}
1000
24
1070
     6
1002
{
1000
Prompt
1070
     4
1000
(genmsg gendwg 104)
1002
{
1002
}
1000
Value
1070
     4
1000

1002
{
1002
}
1000
EditFlag
1070
     1
1070
     1
1002
{
1002
}
1000
PosInDDATTE
1070
     1
1070
    24
1002
{
1002
}
1000
FieldLen
1070
     1
1070
    -1
1002
{
1002
}
1002
}
1000
25
1070
     6
1002
{
1000
Prompt
1070
     4
1000
(genmsg gendwg 105)
1002
{
1002
}
1000
Value
1070
     4
1000

1002
{
1002
}
1000
EditFlag
1070
     1
1070
     1
1002
{
1002
}
1000
PosInDDATTE
1070
     1
1070
    25
1002
{
1002
}
1000
FieldLen
1070
     1
1070
    -1
1002
{
1002
}
1002
}
1000
26
1070
     6
1002
{
1000
Prompt
1070
     4
1000
(genmsg gendwg 106)
1002
{
1002
}
1000
Value
1070
     4
1000

1002
{
1002
}
1000
EditFlag
1070
     1
1070
     1
1002
{
1002
}
1000
PosInDDATTE
1070
     1
1070
    26
1002
{
1002
}
1000
FieldLen
1070
     1
1070
    -1
1002
{
1002
}
1002
}
1000
27
1070
     6
1002
{
1000
Prompt
1070
     4
1000
(genmsg gendwg 109)
1002
{
1002
}
1000
Value
1070
     4
1000

1002
{
1002
}
1000
EditFlag
1070
     1
1070
     2
1002
{
1002
}
1000
PosInDDATTE
1070
     1
1070
    27
1002
{
1002
}
1000
FieldLen
1070
     1
1070
    -1
1002
{
1002
}
1002
}
1002
}
1000
Xlate
1070
     0
1002
{
1000
>
1002
}
  0
APPID
  5
8A1
330
9
100
AcDbSymbolTableRecord
100
AcDbRegAppTableRecord
  2
GENIUS_GENDIM_13
 70
     0
  0
APPID
  5
8A2
330
9
100
AcDbSymbolTableRecord
100
AcDbRegAppTableRecord
  2
GENIUS_GENDTOL_13
 70
     0
  0
APPID
  5
8A3
330
9
100
AcDbSymbolTableRecord
100
AcDbRegAppTableRecord
  2
GENIUS_GE3DTOL_13
 70
     0
  0
APPID
  5
8A6
330
9
100
AcDbSymbolTableRecord
100
AcDbRegAppTableRecord
  2
ACAD_TEMP_GRAPHIC
 70
     0
  0
APPID
  5
8DA
330
9
100
AcDbSymbolTableRecord
100
AcDbRegAppTableRecord
  2
ACATTRIBSERVICES
 70
     0
  0
APPID
  5
949
330
9
100
AcDbSymbolTableRecord
100
AcDbRegAppTableRecord
  2
ACADM_DIM_EDIT
 70
     0
  0
ENDTAB
  0
TABLE
  2
DIMSTYLE
  5
A
330
0
100
AcDbSymbolTable
 70
     9
100
AcDbDimStyleTable
 71
     0
  0
DIMSTYLE
105
27
330
A
100
AcDbSymbolTableRecord
100
AcDbDimStyleTableRecord
  2
ISO-25
 70
     0
 41
2.5
 42
0.625
 43
3.75
 44
1.25
 73
     0
 74
     0
 77
     1
 78
     8
140
2.5
141
2.5
143
0.03937007874016
147
0.625
171
     3
172
     1
271
     2
272
     2
274
     3
278
    44
283
     0
284
     8
340
11
  0
DIMSTYLE
105
1E0
330
A
100
AcDbSymbolTableRecord
100
AcDbDimStyleTableRecord
  2
STANDARD
 70
     0
340
11
  0
DIMSTYLE
105
94F
330
A
100
AcDbSymbolTableRecord
100
AcDbDimStyleTableRecord
  2
GEN-ISO
 70
     0
  3
<>
 41
2.5
 42
1.0
 43
0.0
 44
1.0
 47
0.1
 48
0.1
 73
     0
 74
     0
 77
     1
 78
     8
140
3.5
141
0.0
143
0.0393701
146
0.71
147
1.5
172
     1
176
   256
177
   256
178
     1
271
     2
272
     3
274
     4
283
     0
340
11
  0
DIMSTYLE
105
950
330
A
100
AcDbSymbolTableRecord
100
AcDbDimStyleTableRecord
  2
GEN-ISO$3
 70
     0
 41
2.5
 42
1.0
 43
0.0
 44
1.0
 47
0.1
 48
0.1
 73
     0
 77
     1
 78
     8
140
3.5
141
0.0
143
0.0393701
146
0.71
147
1.5
176
   256
177
   256
178
     1
271
     2
272
     3
274
     4
283
     0
288
     1
289
     0
340
11
  0
DIMSTYLE
105
951
330
A
100
AcDbSymbolTableRecord
100
AcDbDimStyleTableRecord
  2
GEN-ISO$4
 70
     0
 41
2.5
 42
1.0
 43
0.0
 44
1.0
 47
0.1
 48
0.1
 73
     0
 77
     1
 78
     8
140
3.5
141
0.0
143
0.0393701
146
0.71
147
1.5
176
   256
177
   256
178
     1
271
     2
272
     3
274
     4
283
     0
288
     1
289
     0
340
11
  0
DIMSTYLE
105
952
330
A
100
AcDbSymbolTableRecord
100
AcDbDimStyleTableRecord
  2
GEN-ISO$6
 70
     0
 41
2.5
 42
1.0
 43
0.0
 44
1.0
 47
0.1
 48
0.1
 73
     0
 74
     0
 77
     2
 78
     8
140
3.5
141
0.0
143
0.0393701
146
0.71
147
1.5
176
   256
177
   256
178
     1
271
     2
272
     3
274
     4
283
     0
340
11
  0
DIMSTYLE
105
953
330
A
100
AcDbSymbolTableRecord
100
AcDbDimStyleTableRecord
  2
GEN-ISO-POS
 70
     0
 41
2.5
 42
1.0
 43
0.0
 44
1.0
 47
0.1
 48
0.1
 73
     0
 74
     0
 77
     2
 78
     8
140
5.0
141
0.0
143
0.0393701
146
0.71
147
1.5
176
   256
177
   256
178
     1
271
     2
272
     3
274
     4
283
     0
340
11
  0
DIMSTYLE
105
954
330
A
100
AcDbSymbolTableRecord
100
AcDbDimStyleTableRecord
  2
GEN-ISO-AXE-F
 70
     0
 41
2.5
 42
1.0
 43
0.0
 44
1.0
 47
0.1
 48
0.1
 73
     0
 74
     0
 75
     1
 76
     1
 77
     1
 78
     8
140
3.5
141
0.0
143
0.0393701
146
0.71
147
1.5
172
     1
176
   256
177
   256
178
     1
271
     2
272
     3
274
     4
283
     0
340
11
  0
DIMSTYLE
105
955
330
A
100
AcDbSymbolTableRecord
100
AcDbDimStyleTableRecord
  2
GEN-ISO-AXE-H
 70
     0
 41
2.5
 42
1.0
 43
0.0
 44
1.0
 47
0.1
 48
0.1
 73
     0
 74
     0
 75
     1
 76
     1
 77
     1
 78
     8
140
3.5
141
0.0
143
0.0393701
144
2.0
146
0.71
147
1.5
172
     1
173
     1
176
   256
177
   256
178
     1
271
     2
272
     3
274
     4
283
     0
340
11
  0
ENDTAB
  0
TABLE
  2
BLOCK_RECORD
  5
1
330
0
100
AcDbSymbolTable
 70
    14
  0
BLOCK_RECORD
  5
1F
102
{ACAD_XDICTIONARY
360
96D
102
}
330
1
100
AcDbSymbolTableRecord
100
AcDbBlockTableRecord
  2
*Model_Space
340
22
  0
BLOCK_RECORD
  5
23
330
1
100
AcDbSymbolTableRecord
100
AcDbBlockTableRecord
  2
*Paper_Space
340
26
  0
BLOCK_RECORD
  5
1B
330
1
100
AcDbSymbolTableRecord
100
AcDbBlockTableRecord
  2
*Paper_Space0
340
1E
  0
BLOCK_RECORD
  5
2B
330
1
100
AcDbSymbolTableRecord
100
AcDbBlockTableRecord
  2
LOGO
340
0
102
{BLKREFS
331
212
331
870
102
}
  0
BLOCK_RECORD
  5
70
330
1
100
AcDbSymbolTableRecord
100
AcDbBlockTableRecord
  2
*X2
340
0
102
{BLKREFS
331
51
102
}
  0
BLOCK_RECORD
  5
90
330
1
100
AcDbSymbolTableRecord
100
AcDbBlockTableRecord
  2
*X3
340
0
102
{BLKREFS
331
52
102
}
  0
BLOCK_RECORD
  5
B8
330
1
100
AcDbSymbolTableRecord
100
AcDbBlockTableRecord
  2
*X4
340
0
102
{BLKREFS
331
53
102
}
  0
BLOCK_RECORD
  5
DD
330
1
100
AcDbSymbolTableRecord
100
AcDbBlockTableRecord
  2
*X5
340
0
102
{BLKREFS
331
54
102
}
  0
BLOCK_RECORD
  5
10E
330
1
100
AcDbSymbolTableRecord
100
AcDbBlockTableRecord
  2
*X6
340
0
102
{BLKREFS
331
55
331
5C
102
}
  0
BLOCK_RECORD
  5
136
330
1
100
AcDbSymbolTableRecord
100
AcDbBlockTableRecord
  2
*X7
340
0
102
{BLKREFS
331
56
331
5B
102
}
  0
BLOCK_RECORD
  5
15D
330
1
100
AcDbSymbolTableRecord
100
AcDbBlockTableRecord
  2
*X8
340
0
102
{BLKREFS
331
57
331
5A
102
}
  0
BLOCK_RECORD
  5
185
330
1
100
AcDbSymbolTableRecord
100
AcDbBlockTableRecord
  2
*X9
340
0
102
{BLKREFS
331
58
331
59
102
}
  0
BLOCK_RECORD
  5
1A9
330
1
100
AcDbSymbolTableRecord
100
AcDbBlockTableRecord
  2
A$C4
340
0
  0
BLOCK_RECORD
  5
1EE
330
1
100
AcDbSymbolTableRecord
100
AcDbBlockTableRecord
  2
ABB3T
340
0
  0
BLOCK_RECORD
  5
83F
330
1
100
AcDbSymbolTableRecord
100
AcDbBlockTableRecord
  2
COPYRIGHT
340
0
102
{BLKREFS
331
88C
102
}
  0
ENDTAB
  0
ENDSEC
  0
SECTION
  2
BLOCKS
  0
BLOCK
  5
20
330
1F
100
AcDbEntity
  8
0
100
AcDbBlockBegin
  2
*Model_Space
 70
     0
 10
0.0
 20
0.0
 30
0.0
  3
*Model_Space
  1

  0
ENDBLK
  5
21
330
1F
100
AcDbEntity
  8
0
100
AcDbBlockEnd
  0
BLOCK
  5
24
330
23
100
AcDbEntity
 67
     1
  8
0
100
AcDbBlockBegin
  2
*Paper_Space
 70
     0
 10
0.0
 20
0.0
 30
0.0
  3
*Paper_Space
  1

  0
ENDBLK
  5
25
330
23
100
AcDbEntity
 67
     1
  8
0
100
AcDbBlockEnd
  0
BLOCK
  5
1C
330
1B
100
AcDbEntity
  8
0
100
AcDbBlockBegin
  2
*Paper_Space0
 70
     0
 10
0.0
 20
0.0
 30
0.0
  3
*Paper_Space0
  1

  0
VIEWPORT
  5
968
330
1B
100
AcDbEntity
  8
0
100
AcDbViewport
 10
133.3499908447265
 20
101.5999970436096
 30
0.0
 40
295.6051935424805
 41
234.6017632713317
 69
     0
 12
133.3499908447265
 22
101.5999970436096
 13
0.0
 23
0.0
 14
10.0
 24
10.0
 15
10.0
 25
10.0
 16
0.0
 26
0.0
 36
1.0
 17
0.0
 27
0.0
 37
0.0
 42
50.0
 43
0.0
 44
0.0
 45
234.6017632713317
 50
0.0
 51
0.0
 72
   100
 90
    32800
  1

281
     0
 71
     1
 74
     0
110
0.0
120
0.0
130
0.0
111
1.0
121
0.0
131
0.0
112
0.0
122
1.0
132
0.0
 79
     0
146
0.0
  0
ENDBLK
  5
1D
330
1B
100
AcDbEntity
  8
0
100
AcDbBlockEnd
  0
BLOCK
  5
6E
330
2B
100
AcDbEntity
  8
0
100
AcDbBlockBegin
  2
LOGO
 70
     0
 10
0.0
 20
0.0
 30
0.0
  3
LOGO
  1

  0
LINE
  5
2C
330
2B
100
AcDbEntity
  8
RAAMI
100
AcDbLine
 10
0.9499999999999992
 20
10.5
 30
0.0
 11
2.699999999999999
 21
10.5
 31
0.0
  0
LINE
  5
2D
330
2B
100
AcDbEntity
  8
RAAMI
100
AcDbLine
 10
6.199999999999999
 20
10.5
 30
0.0
 11
7.949999999999999
 21
10.5
 31
0.0
  0
LINE
  5
2E
330
2B
100
AcDbEntity
  8
RAAMI
100
AcDbLine
 10
3.399999999999998
 20
17.5
 30
0.0
 11
2.250249999999998
 21
14.21499999999999
 31
0.0
  0
LINE
  5
2F
330
2B
100
AcDbEntity
  8
RAAMI
100
AcDbLine
 10
3.188786698097196
 20
11.9
 30
0.0
 11
4.235000000000002
 21
11.9
 31
0.0
  0
LINE
  5
30
330
2B
100
AcDbEntity
  8
RAAMI
100
AcDbLine
 10
3.18878989496271
 20
11.8965425570363
 30
0.0
 11
2.699999999999999
 21
10.5
 31
0.0
  0
LINE
  5
31
330
2B
100
AcDbEntity
  8
RAAMI
100
AcDbLine
 10
5.5
 20
17.5
 30
0.0
 11
6.64975
 21
14.21499999999999
 31
0.0
  0
LINE
  5
32
330
2B
100
AcDbEntity
  8
RAAMI
100
AcDbLine
 10
5.711097703285556
 20
11.8968637048984
 30
0.0
 11
6.199999999999999
 21
10.5
 31
0.0
  0
LINE
  5
33
330
2B
100
AcDbEntity
  8
RAAMI
100
AcDbLine
 10
5.5
 20
17.5
 30
0.0
 11
4.665
 21
17.5
 31
0.0
  0
LINE
  5
34
330
2B
100
AcDbEntity
  8
RAAMI
100
AcDbLine
 10
4.235000000000002
 20
17.5
 30
0.0
 11
4.235000000000002
 21
14.21499999999999
 31
0.0
  0
LINE
  5
35
330
2B
100
AcDbEntity
  8
RAAMI
100
AcDbLine
 10
4.665
 20
17.5
 30
0.0
 11
4.665
 21
14.21499999999999
 31
0.0
  0
LINE
  5
36
330
2B
100
AcDbEntity
  8
RAAMI
100
AcDbLine
 10
4.665
 20
11.9
 30
0.0
 11
5.709893393426749
 21
11.9
 31
0.0
  0
LINE
  5
37
330
2B
100
AcDbEntity
  8
RAAMI
100
AcDbLine
 10
4.235000000000002
 20
17.5
 30
0.0
 11
3.399999999999998
 21
17.5
 31
0.0
  0
LINE
  5
38
330
2B
100
AcDbEntity
  8
RAAMI
100
AcDbLine
 10
2.250249999999998
 20
14.21499999999999
 30
0.0
 11
4.235000000000002
 21
14.21499999999999
 31
0.0
  0
LINE
  5
39
330
2B
100
AcDbEntity
  8
RAAMI
100
AcDbLine
 10
2.09975
 20
13.785
 30
0.0
 11
4.235000000000002
 21
13.785
 31
0.0
  0
LINE
  5
3A
330
2B
100
AcDbEntity
  8
RAAMI
100
AcDbLine
 10
6.800249999999999
 20
13.785
 30
0.0
 11
7.949999999999999
 21
10.5
 31
0.0
  0
LINE
  5
3B
330
2B
100
AcDbEntity
  8
RAAMI
100
AcDbLine
 10
4.665
 20
14.21499999999999
 30
0.0
 11
6.64975
 21
14.21499999999999
 31
0.0
  0
LINE
  5
3C
330
2B
100
AcDbEntity
  8
RAAMI
100
AcDbLine
 10
4.665
 20
13.785
 30
0.0
 11
6.800249999999999
 21
13.785
 31
0.0
  0
LINE
  5
3D
330
2B
100
AcDbEntity
  8
RAAMI
100
AcDbLine
 10
4.665
 20
13.785
 30
0.0
 11
4.665
 21
11.9
 31
0.0
  0
LINE
  5
3E
330
2B
100
AcDbEntity
  8
RAAMI
100
AcDbLine
 10
4.235000000000002
 20
13.785
 30
0.0
 11
4.235000000000002
 21
11.9
 31
0.0
  0
LINE
  5
3F
330
2B
100
AcDbEntity
  8
RAAMI
100
AcDbLine
 10
2.09975
 20
13.785
 30
0.0
 11
0.9499999999999992
 21
10.5
 31
0.0
  0
LINE
  5
40
330
2B
100
AcDbEntity
  8
RAAMI
100
AcDbLine
 10
8.440000000000001
 20
10.5
 30
0.0
 11
8.440000000000001
 21
13.785
 31
0.0
  0
LINE
  5
41
330
2B
100
AcDbEntity
  8
RAAMI
100
AcDbLine
 10
8.440000000000001
 20
17.5
 30
0.0
 11
10.32499999999999
 21
17.5
 31
0.0
  0
LINE
  5
42
330
2B
100
AcDbEntity
  8
RAAMI
100
AcDbLine
 10
10.32499999999999
 20
17.5
 30
0.0
 11
10.32499999999999
 21
14.21499999999999
 31
0.0
  0
LINE
  5
43
330
2B
100
AcDbEntity
  8
RAAMI
100
AcDbLine
 10
10.32499999999999
 20
14.21499999999999
 30
0.0
 11
8.440000000000001
 21
14.21499999999999
 31
0.0
  0
LINE
  5
44
330
2B
100
AcDbEntity
  8
RAAMI
100
AcDbLine
 10
8.440000000000001
 20
13.785
 30
0.0
 11
10.32499999999999
 21
13.785
 31
0.0
  0
LINE
  5
45
330
2B
100
AcDbEntity
  8
RAAMI
100
AcDbLine
 10
10.32499999999999
 20
13.785
 30
0.0
 11
10.32499999999999
 21
10.5
 31
0.0
  0
LINE
  5
46
330
2B
100
AcDbEntity
  8
RAAMI
100
AcDbLine
 10
10.32499999999999
 20
10.5
 30
0.0
 11
8.440000000000001
 21
10.5
 31
0.0
  0
LINE
  5
47
330
2B
100
AcDbEntity
  8
RAAMI
100
AcDbLine
 10
8.440000000000001
 20
14.21499999999999
 30
0.0
 11
8.440000000000001
 21
17.5
 31
0.0
  0
ARC
  5
48
330
2B
100
AcDbEntity
  8
RAAMI
100
AcDbCircle
 10
11.24
 20
15.925
 30
0.0
 40
1.574999999999998
100
AcDbArc
 50
298.4558593394117
 51
90.0524369955635
  0
LINE
  5
49
330
2B
100
AcDbEntity
  8
RAAMI
100
AcDbLine
 10
10.75499999999999
 20
17.49999934039966
 30
0.0
 11
11.23855856300088
 21
17.49999934039966
 31
0.0
  0
LINE
  5
4A
330
2B
100
AcDbEntity
  8
RAAMI
100
AcDbLine
 10
10.75499999999999
 20
17.5
 30
0.0
 11
10.75499999999999
 21
14.21499999999999
 31
0.0
  0
LINE
  5
4B
330
2B
100
AcDbEntity
  8
RAAMI
100
AcDbLine
 10
10.75499999999999
 20
14.21499999999999
 30
0.0
 11
12.5823021269446
 21
14.21499999999999
 31
0.0
  0
LINE
  5
4C
330
2B
100
AcDbEntity
  8
RAAMI
100
AcDbLine
 10
12.97371710495109
 20
13.785
 30
0.0
 11
10.75499999999999
 21
13.785
 31
0.0
  0
LINE
  5
4D
330
2B
100
AcDbEntity
  8
RAAMI
100
AcDbLine
 10
10.75499999999999
 20
13.785
 30
0.0
 11
10.75499999999999
 21
10.5
 31
0.0
  0
ARC
  5
4E
330
2B
100
AcDbEntity
  8
RAAMI
100
AcDbCircle
 10
11.24
 20
12.6
 30
0.0
 40
2.099999999999998
100
AcDbArc
 50
269.9377244294032
 51
34.35270472657853
  0
LINE
  5
4F
330
2B
100
AcDbEntity
  8
RAAMI
100
AcDbLine
 10
10.75499999999999
 20
10.50000124045045
 30
0.0
 11
11.23771748157343
 21
10.50000124045045
 31
0.0
  0
ARC
  5
50
330
2B
100
AcDbEntity
  8
RAAMI
100
AcDbCircle
 10
11.24
 20
12.6
 30
0.0
 40
2.099999999999998
100
AcDbArc
 50
50.26844274022763
 51
68.78799932186918
  0
INSERT
  5
51
330
2B
100
AcDbEntity
  8
RAAMI
100
AcDbBlockReference
  2
*X2
 10
0.0
 20
0.0
 30
0.0
  0
INSERT
  5
52
330
2B
100
AcDbEntity
  8
RAAMI
100
AcDbBlockReference
  2
*X3
 10
0.0
 20
0.0
 30
0.0
  0
INSERT
  5
53
330
2B
100
AcDbEntity
  8
RAAMI
100
AcDbBlockReference
  2
*X4
 10
0.0
 20
0.0
 30
0.0
  0
INSERT
  5
54
330
2B
100
AcDbEntity
  8
RAAMI
100
AcDbBlockReference
  2
*X5
 10
0.0
 20
0.0
 30
0.0
  0
INSERT
  5
55
330
2B
100
AcDbEntity
  8
RAAMI
100
AcDbBlockReference
  2
*X6
 10
0.0
 20
0.0
 30
0.0
  0
INSERT
  5
56
330
2B
100
AcDbEntity
  8
RAAMI
100
AcDbBlockReference
  2
*X7
 10
0.0
 20
0.0
 30
0.0
  0
INSERT
  5
57
330
2B
100
AcDbEntity
  8
RAAMI
100
AcDbBlockReference
  2
*X8
 10
0.0
 20
0.0
 30
0.0
  0
INSERT
  5
58
330
2B
100
AcDbEntity
  8
RAAMI
100
AcDbBlockReference
  2
*X9
 10
0.0
 20
0.0
 30
0.0
  0
INSERT
  5
59
330
2B
100
AcDbEntity
  8
RAAMI
100
AcDbBlockReference
  2
*X9
 10
5.459999999999997
 20
0.0
 30
0.0
  0
INSERT
  5
5A
330
2B
100
AcDbEntity
  8
RAAMI
100
AcDbBlockReference
  2
*X8
 10
5.459999999999997
 20
0.0
 30
0.0
  0
INSERT
  5
5B
330
2B
100
AcDbEntity
  8
RAAMI
100
AcDbBlockReference
  2
*X7
 10
5.459999999999997
 20
0.0
 30
0.0
  0
INSERT
  5
5C
330
2B
100
AcDbEntity
  8
RAAMI
100
AcDbBlockReference
  2
*X6
 10
5.459999999999997
 20
0.0
 30
0.0
  0
ARC
  5
5D
330
2B
100
AcDbEntity
  8
RAAMI
100
AcDbCircle
 10
16.69999999999999
 20
12.6
 30
0.0
 40
2.099999999999998
100
AcDbArc
 50
50.26844274022763
 51
68.78799932186918
  0
LINE
  5
5E
330
2B
100
AcDbEntity
  8
RAAMI
100
AcDbLine
 10
16.21499999999999
 20
10.50000124045045
 30
0.0
 11
16.69771748157342
 21
10.50000124045045
 31
0.0
  0
ARC
  5
5F
330
2B
100
AcDbEntity
  8
RAAMI
100
AcDbCircle
 10
16.69999999999999
 20
12.6
 30
0.0
 40
2.099999999999998
100
AcDbArc
 50
269.9377244294032
 51
34.35270472657853
  0
LINE
  5
60
330
2B
100
AcDbEntity
  8
RAAMI
100
AcDbLine
 10
16.21499999999999
 20
13.785
 30
0.0
 11
16.21499999999999
 21
10.5
 31
0.0
  0
LINE
  5
61
330
2B
100
AcDbEntity
  8
RAAMI
100
AcDbLine
 10
18.43371710495109
 20
13.785
 30
0.0
 11
16.21499999999999
 21
13.785
 31
0.0
  0
LINE
  5
62
330
2B
100
AcDbEntity
  8
RAAMI
100
AcDbLine
 10
16.21499999999999
 20
14.21499999999999
 30
0.0
 11
18.04230212694459
 21
14.21499999999999
 31
0.0
  0
LINE
  5
63
330
2B
100
AcDbEntity
  8
RAAMI
100
AcDbLine
 10
16.21499999999999
 20
17.5
 30
0.0
 11
16.21499999999999
 21
14.21499999999999
 31
0.0
  0
LINE
  5
64
330
2B
100
AcDbEntity
  8
RAAMI
100
AcDbLine
 10
16.21499999999999
 20
17.49999934039966
 30
0.0
 11
16.69855856300087
 21
17.49999934039966
 31
0.0
  0
ARC
  5
65
330
2B
100
AcDbEntity
  8
RAAMI
100
AcDbCircle
 10
16.69999999999999
 20
15.925
 30
0.0
 40
1.574999999999998
100
AcDbArc
 50
298.4558593394117
 51
90.0524369955635
  0
LINE
  5
66
330
2B
100
AcDbEntity
  8
RAAMI
100
AcDbLine
 10
13.89999999999999
 20
14.21499999999999
 30
0.0
 11
13.89999999999999
 21
17.5
 31
0.0
  0
LINE
  5
67
330
2B
100
AcDbEntity
  8
RAAMI
100
AcDbLine
 10
15.78499999999999
 20
10.5
 30
0.0
 11
13.89999999999999
 21
10.5
 31
0.0
  0
LINE
  5
68
330
2B
100
AcDbEntity
  8
RAAMI
100
AcDbLine
 10
15.78499999999999
 20
13.785
 30
0.0
 11
15.78499999999999
 21
10.5
 31
0.0
  0
LINE
  5
69
330
2B
100
AcDbEntity
  8
RAAMI
100
AcDbLine
 10
13.89999999999999
 20
13.785
 30
0.0
 11
15.78499999999999
 21
13.785
 31
0.0
  0
LINE
  5
6A
330
2B
100
AcDbEntity
  8
RAAMI
100
AcDbLine
 10
15.78499999999999
 20
14.21499999999999
 30
0.0
 11
13.89999999999999
 21
14.21499999999999
 31
0.0
  0
LINE
  5
6B
330
2B
100
AcDbEntity
  8
RAAMI
100
AcDbLine
 10
15.78499999999999
 20
17.5
 30
0.0
 11
15.78499999999999
 21
14.21499999999999
 31
0.0
  0
LINE
  5
6C
330
2B
100
AcDbEntity
  8
RAAMI
100
AcDbLine
 10
13.89999999999999
 20
17.5
 30
0.0
 11
15.78499999999999
 21
17.5
 31
0.0
  0
LINE
  5
6D
330
2B
100
AcDbEntity
  8
RAAMI
100
AcDbLine
 10
13.89999999999999
 20
10.5
 30
0.0
 11
13.89999999999999
 21
13.785
 31
0.0
  0
ENDBLK
  5
6F
330
2B
100
AcDbEntity
  8
0
100
AcDbBlockEnd
  0
BLOCK
  5
8E
330
70
100
AcDbEntity
  8
0
100
AcDbBlockBegin
  2
*X2
 70
     1
 10
0.0
 20
0.0
 30
0.0
  3
*X2
  1

  0
LINE
  5
71
330
70
100
AcDbEntity
  8
0
 62
     0
100
AcDbLine
 10
2.585038841218752
 20
15.17153954633929
 30
0.0
 11
4.235000000000002
 21
16.82150070512054
 31
0.0
  0
LINE
  5
72
330
70
100
AcDbEntity
  8
0
 62
     0
100
AcDbLine
 10
2.661188802269611
 20
15.38911086362746
 30
0.0
 11
4.235000000000002
 21
16.96292206135785
 31
0.0
  0
LINE
  5
73
330
70
100
AcDbEntity
  8
0
 62
     0
100
AcDbLine
 10
2.737338763320471
 20
15.60668218091563
 30
0.0
 11
4.235000000000002
 21
17.10434341759516
 31
0.0
  0
LINE
  5
74
330
70
100
AcDbEntity
  8
0
 62
     0
100
AcDbLine
 10
2.81348872437133
 20
15.8242534982038
 30
0.0
 11
4.235000000000002
 21
17.24576477383247
 31
0.0
  0
LINE
  5
75
330
70
100
AcDbEntity
  8
0
 62
     0
100
AcDbLine
 10
2.889638685422188
 20
16.04182481549197
 30
0.0
 11
4.235000000000002
 21
17.38718613006978
 31
0.0
  0
LINE
  5
76
330
70
100
AcDbEntity
  8
0
 62
     0
100
AcDbLine
 10
2.965788646473047
 20
16.25939613278013
 30
0.0
 11
4.206392513692907
 21
17.5
 31
0.0
  0
LINE
  5
77
330
70
100
AcDbEntity
  8
0
 62
     0
100
AcDbLine
 10
3.041938607523906
 20
16.4769674500683
 30
0.0
 11
4.064971157455597
 21
17.5
 31
0.0
  0
LINE
  5
78
330
70
100
AcDbEntity
  8
0
 62
     0
100
AcDbLine
 10
3.118088568574766
 20
16.69453876735648
 30
0.0
 11
3.923549801218286
 21
17.5
 31
0.0
  0
LINE
  5
79
330
70
100
AcDbEntity
  8
0
 62
     0
100
AcDbLine
 10
3.194238529625625
 20
16.91211008464464
 30
0.0
 11
3.782128444980977
 21
17.5
 31
0.0
  0
LINE
  5
7A
330
70
100
AcDbEntity
  8
0
 62
     0
100
AcDbLine
 10
3.270388490676483
 20
17.12968140193281
 30
0.0
 11
3.640707088743668
 21
17.5
 31
0.0
  0
LINE
  5
7B
330
70
100
AcDbEntity
  8
0
 62
     0
100
AcDbLine
 10
3.346538451727341
 20
17.34725271922098
 30
0.0
 11
3.499285732506359
 21
17.5
 31
0.0
  0
LINE
  5
7C
330
70
100
AcDbEntity
  8
0
 62
     0
100
AcDbLine
 10
2.508888880167894
 20
14.95396822905113
 30
0.0
 11
4.235000000000002
 21
16.68007934888324
 31
0.0
  0
LINE
  5
7D
330
70
100
AcDbEntity
  8
0
 62
     0
100
AcDbLine
 10
2.432738919117035
 20
14.73639691176296
 30
0.0
 11
4.235000000000002
 21
16.53865799264593
 31
0.0
  0
LINE
  5
7E
330
70
100
AcDbEntity
  8
0
 62
     0
100
AcDbLine
 10
2.356588958066176
 20
14.51882559447479
 30
0.0
 11
4.235000000000002
 21
16.39723663640862
 31
0.0
  0
LINE
  5
7F
330
70
100
AcDbEntity
  8
0
 62
     0
100
AcDbLine
 10
2.280438997015318
 20
14.30125427718662
 30
0.0
 11
4.235000000000002
 21
16.25581528017131
 31
0.0
  0
LINE
  5
80
330
70
100
AcDbEntity
  8
0
 62
     0
100
AcDbLine
 10
2.335606076066001
 20
14.21499999999999
 30
0.0
 11
4.235000000000002
 21
16.114393923934
 31
0.0
  0
LINE
  5
81
330
70
100
AcDbEntity
  8
0
 62
     0
100
AcDbLine
 10
2.47702743230331
 20
14.21499999999999
 30
0.0
 11
4.235000000000002
 21
15.97297256769669
 31
0.0
  0
LINE
  5
82
330
70
100
AcDbEntity
  8
0
 62
     0
100
AcDbLine
 10
2.618448788540619
 20
14.21499999999999
 30
0.0
 11
4.235000000000002
 21
15.83155121145938
 31
0.0
  0
LINE
  5
83
330
70
100
AcDbEntity
  8
0
 62
     0
100
AcDbLine
 10
2.759870144777928
 20
14.21499999999999
 30
0.0
 11
4.235000000000002
 21
15.69012985522207
 31
0.0
  0
LINE
  5
84
330
70
100
AcDbEntity
  8
0
 62
     0
100
AcDbLine
 10
2.901291501015239
 20
14.21499999999999
 30
0.0
 11
4.235000000000002
 21
15.54870849898476
 31
0.0
  0
LINE
  5
85
330
70
100
AcDbEntity
  8
0
 62
     0
100
AcDbLine
 10
3.042712857252547
 20
14.21499999999999
 30
0.0
 11
4.235000000000002
 21
15.40728714274745
 31
0.0
  0
LINE
  5
86
330
70
100
AcDbEntity
  8
0
 62
     0
100
AcDbLine
 10
3.184134213489858
 20
14.21499999999999
 30
0.0
 11
4.235000000000002
 21
15.26586578651014
 31
0.0
  0
LINE
  5
87
330
70
100
AcDbEntity
  8
0
 62
     0
100
AcDbLine
 10
3.325555569727167
 20
14.21499999999999
 30
0.0
 11
4.235000000000002
 21
15.12444443027283
 31
0.0
  0
LINE
  5
88
330
70
100
AcDbEntity
  8
0
 62
     0
100
AcDbLine
 10
3.466976925964476
 20
14.21499999999999
 30
0.0
 11
4.235000000000002
 21
14.98302307403552
 31
0.0
  0
LINE
  5
89
330
70
100
AcDbEntity
  8
0
 62
     0
100
AcDbLine
 10
3.608398282201786
 20
14.21499999999999
 30
0.0
 11
4.235000000000002
 21
14.84160171779821
 31
0.0
  0
LINE
  5
8A
330
70
100
AcDbEntity
  8
0
 62
     0
100
AcDbLine
 10
3.749819638439095
 20
14.21499999999999
 30
0.0
 11
4.235000000000002
 21
14.7001803615609
 31
0.0
  0
LINE
  5
8B
330
70
100
AcDbEntity
  8
0
 62
     0
100
AcDbLine
 10
3.891240994676405
 20
14.21499999999999
 30
0.0
 11
4.235000000000002
 21
14.55875900532359
 31
0.0
  0
LINE
  5
8C
330
70
100
AcDbEntity
  8
0
 62
     0
100
AcDbLine
 10
4.032662350913715
 20
14.21499999999999
 30
0.0
 11
4.235000000000002
 21
14.41733764908628
 31
0.0
  0
LINE
  5
8D
330
70
100
AcDbEntity
  8
0
 62
     0
100
AcDbLine
 10
4.174083707151023
 20
14.21499999999999
 30
0.0
 11
4.235000000000002
 21
14.27591629284898
 31
0.0
  0
ENDBLK
  5
8F
330
70
100
AcDbEntity
  8
0
100
AcDbBlockEnd
  0
BLOCK
  5
B6
330
90
100
AcDbEntity
  8
0
100
AcDbBlockBegin
  2
*X3
 70
     1
 10
0.0
 20
0.0
 30
0.0
  3
*X3
  1

  0
LINE
  5
91
330
90
100
AcDbEntity
  8
0
 62
     0
100
AcDbLine
 10
4.665
 20
14.84733764908628
 30
0.0
 11
5.971245794681333
 21
16.15358344376762
 31
0.0
  0
LINE
  5
92
330
90
100
AcDbEntity
  8
0
 62
     0
100
AcDbLine
 10
4.665
 20
14.98875900532359
 30
0.0
 11
5.934580998619808
 21
16.2583400039434
 31
0.0
  0
LINE
  5
93
330
90
100
AcDbEntity
  8
0
 62
     0
100
AcDbLine
 10
4.665
 20
15.1301803615609
 30
0.0
 11
5.897916202558284
 21
16.36309656411919
 31
0.0
  0
LINE
  5
94
330
90
100
AcDbEntity
  8
0
 62
     0
100
AcDbLine
 10
4.665
 20
15.27160171779821
 30
0.0
 11
5.861251406496759
 21
16.46785312429497
 31
0.0
  0
LINE
  5
95
330
90
100
AcDbEntity
  8
0
 62
     0
100
AcDbLine
 10
4.665
 20
15.41302307403552
 30
0.0
 11
5.824586610435234
 21
16.57260968447076
 31
0.0
  0
LINE
  5
96
330
90
100
AcDbEntity
  8
0
 62
     0
100
AcDbLine
 10
4.665
 20
15.55444443027283
 30
0.0
 11
5.787921814373709
 21
16.67736624464654
 31
0.0
  0
LINE
  5
97
330
90
100
AcDbEntity
  8
0
 62
     0
100
AcDbLine
 10
4.665
 20
15.69586578651014
 30
0.0
 11
5.751257018312185
 21
16.78212280482232
 31
0.0
  0
LINE
  5
98
330
90
100
AcDbEntity
  8
0
 62
     0
100
AcDbLine
 10
4.665
 20
15.83728714274745
 30
0.0
 11
5.71459222225066
 21
16.88687936499811
 31
0.0
  0
LINE
  5
99
330
90
100
AcDbEntity
  8
0
 62
     0
100
AcDbLine
 10
4.665
 20
15.97870849898476
 30
0.0
 11
5.677927426189135
 21
16.99163592517389
 31
0.0
  0
LINE
  5
9A
330
90
100
AcDbEntity
  8
0
 62
     0
100
AcDbLine
 10
4.665
 20
16.12012985522207
 30
0.0
 11
5.64126263012761
 21
17.09639248534968
 31
0.0
  0
LINE
  5
9B
330
90
100
AcDbEntity
  8
0
 62
     0
100
AcDbLine
 10
4.665
 20
16.26155121145938
 30
0.0
 11
5.604597834066086
 21
17.20114904552546
 31
0.0
  0
LINE
  5
9C
330
90
100
AcDbEntity
  8
0
 62
     0
100
AcDbLine
 10
4.665
 20
16.40297256769668
 30
0.0
 11
5.567933038004562
 21
17.30590560570125
 31
0.0
  0
LINE
  5
9D
330
90
100
AcDbEntity
  8
0
 62
     0
100
AcDbLine
 10
4.665
 20
16.54439392393399
 30
0.0
 11
5.531268241943037
 21
17.41066216587703
 31
0.0
  0
LINE
  5
9E
330
90
100
AcDbEntity
  8
0
 62
     0
100
AcDbLine
 10
4.665
 20
16.68581528017131
 30
0.0
 11
5.47918471982869
 21
17.5
 31
0.0
  0
LINE
  5
9F
330
90
100
AcDbEntity
  8
0
 62
     0
100
AcDbLine
 10
4.665
 20
16.82723663640862
 30
0.0
 11
5.337763363591381
 21
17.5
 31
0.0
  0
LINE
  5
A0
330
90
100
AcDbEntity
  8
0
 62
     0
100
AcDbLine
 10
4.665
 20
16.96865799264593
 30
0.0
 11
5.196342007354072
 21
17.5
 31
0.0
  0
LINE
  5
A1
330
90
100
AcDbEntity
  8
0
 62
     0
100
AcDbLine
 10
4.665
 20
17.11007934888324
 30
0.0
 11
5.054920651116764
 21
17.5
 31
0.0
  0
LINE
  5
A2
330
90
100
AcDbEntity
  8
0
 62
     0
100
AcDbLine
 10
4.665
 20
17.25150070512054
 30
0.0
 11
4.913499294879454
 21
17.5
 31
0.0
  0
LINE
  5
A3
330
90
100
AcDbEntity
  8
0
 62
     0
100
AcDbLine
 10
4.665
 20
17.39292206135785
 30
0.0
 11
4.772077938642145
 21
17.5
 31
0.0
  0
LINE
  5
A4
330
90
100
AcDbEntity
  8
0
 62
     0
100
AcDbLine
 10
4.665
 20
14.70591629284897
 30
0.0
 11
6.007910590742858
 21
16.04882688359183
 31
0.0
  0
LINE
  5
A5
330
90
100
AcDbEntity
  8
0
 62
     0
100
AcDbLine
 10
4.665
 20
14.56449493661166
 30
0.0
 11
6.044575386804383
 21
15.94407032341604
 31
0.0
  0
LINE
  5
A6
330
90
100
AcDbEntity
  8
0
 62
     0
100
AcDbLine
 10
4.665
 20
14.42307358037435
 30
0.0
 11
6.081240182865907
 21
15.83931376324026
 31
0.0
  0
LINE
  5
A7
330
90
100
AcDbEntity
  8
0
 62
     0
100
AcDbLine
 10
4.665
 20
14.28165222413704
 30
0.0
 11
6.117904978927431
 21
15.73455720306447
 31
0.0
  0
LINE
  5
A8
330
90
100
AcDbEntity
  8
0
 62
     0
100
AcDbLine
 10
4.739769132100263
 20
14.21499999999999
 30
0.0
 11
6.154569774988956
 21
15.62980064288869
 31
0.0
  0
LINE
  5
A9
330
90
100
AcDbEntity
  8
0
 62
     0
100
AcDbLine
 10
4.881190488337572
 20
14.21499999999999
 30
0.0
 11
6.191234571050481
 21
15.52504408271291
 31
0.0
  0
LINE
  5
AA
330
90
100
AcDbEntity
  8
0
 62
     0
100
AcDbLine
 10
5.022611844574882
 20
14.21499999999999
 30
0.0
 11
6.227899367112006
 21
15.42028752253712
 31
0.0
  0
LINE
  5
AB
330
90
100
AcDbEntity
  8
0
 62
     0
100
AcDbLine
 10
5.164033200812191
 20
14.21499999999999
 30
0.0
 11
6.26456416317353
 21
15.31553096236134
 31
0.0
  0
LINE
  5
AC
330
90
100
AcDbEntity
  8
0
 62
     0
100
AcDbLine
 10
5.305454557049501
 20
14.21499999999999
 30
0.0
 11
6.301228959235055
 21
15.21077440218555
 31
0.0
  0
LINE
  5
AD
330
90
100
AcDbEntity
  8
0
 62
     0
100
AcDbLine
 10
5.44687591328681
 20
14.21499999999999
 30
0.0
 11
6.33789375529658
 21
15.10601784200977
 31
0.0
  0
LINE
  5
AE
330
90
100
AcDbEntity
  8
0
 62
     0
100
AcDbLine
 10
5.58829726952412
 20
14.21499999999999
 30
0.0
 11
6.374558551358104
 21
15.00126128183398
 31
0.0
  0
LINE
  5
AF
330
90
100
AcDbEntity
  8
0
 62
     0
100
AcDbLine
 10
5.72971862576143
 20
14.21499999999999
 30
0.0
 11
6.411223347419629
 21
14.8965047216582
 31
0.0
  0
LINE
  5
B0
330
90
100
AcDbEntity
  8
0
 62
     0
100
AcDbLine
 10
5.871139981998739
 20
14.21499999999999
 30
0.0
 11
6.447888143481153
 21
14.79174816148241
 31
0.0
  0
LINE
  5
B1
330
90
100
AcDbEntity
  8
0
 62
     0
100
AcDbLine
 10
6.012561338236047
 20
14.21499999999999
 30
0.0
 11
6.484552939542679
 21
14.68699160130663
 31
0.0
  0
LINE
  5
B2
330
90
100
AcDbEntity
  8
0
 62
     0
100
AcDbLine
 10
6.153982694473358
 20
14.21499999999999
 30
0.0
 11
6.521217735604203
 21
14.58223504113084
 31
0.0
  0
LINE
  5
B3
330
90
100
AcDbEntity
  8
0
 62
     0
100
AcDbLine
 10
6.295404050710667
 20
14.21499999999999
 30
0.0
 11
6.557882531665728
 21
14.47747848095506
 31
0.0
  0
LINE
  5
B4
330
90
100
AcDbEntity
  8
0
 62
     0
100
AcDbLine
 10
6.436825406947978
 20
14.21499999999999
 30
0.0
 11
6.594547327727252
 21
14.37272192077927
 31
0.0
  0
LINE
  5
B5
330
90
100
AcDbEntity
  8
0
 62
     0
100
AcDbLine
 10
6.578246763185286
 20
14.21499999999999
 30
0.0
 11
6.631212123788778
 21
14.26796536060349
 31
0.0
  0
ENDBLK
  5
B7
330
90
100
AcDbEntity
  8
0
100
AcDbBlockEnd
  0
BLOCK
  5
DB
330
B8
100
AcDbEntity
  8
0
100
AcDbBlockBegin
  2
*X4
 70
     1
 10
0.0
 20
0.0
 30
0.0
  3
*X4
  1

  0
LINE
  5
B9
330
B8
100
AcDbEntity
  8
0
 62
     0
100
AcDbLine
 10
1.024769132100263
 20
10.5
 30
0.0
 11
4.235000000000002
 21
13.71023086789974
 31
0.0
  0
LINE
  5
BA
330
B8
100
AcDbEntity
  8
0
 62
     0
100
AcDbLine
 10
0.9858896591507162
 20
10.60254188328776
 30
0.0
 11
4.168347775862955
 21
13.785
 31
0.0
  0
LINE
  5
BB
330
B8
100
AcDbEntity
  8
0
 62
     0
100
AcDbLine
 10
1.062039620201575
 20
10.82011320057593
 30
0.0
 11
4.026926419625644
 21
13.785
 31
0.0
  0
LINE
  5
BC
330
B8
100
AcDbEntity
  8
0
 62
     0
100
AcDbLine
 10
1.138189581252434
 20
11.0376845178641
 30
0.0
 11
3.885505063388335
 21
13.785
 31
0.0
  0
LINE
  5
BD
330
B8
100
AcDbEntity
  8
0
 62
     0
100
AcDbLine
 10
1.214339542303294
 20
11.25525583515226
 30
0.0
 11
3.744083707151025
 21
13.785
 31
0.0
  0
LINE
  5
BE
330
B8
100
AcDbEntity
  8
0
 62
     0
100
AcDbLine
 10
1.290489503354153
 20
11.47282715244043
 30
0.0
 11
3.602662350913716
 21
13.785
 31
0.0
  0
LINE
  5
BF
330
B8
100
AcDbEntity
  8
0
 62
     0
100
AcDbLine
 10
1.366639464405011
 20
11.6903984697286
 30
0.0
 11
3.461240994676407
 21
13.785
 31
0.0
  0
LINE
  5
C0
330
B8
100
AcDbEntity
  8
0
 62
     0
100
AcDbLine
 10
1.442789425455871
 20
11.90796978701677
 30
0.0
 11
3.319819638439096
 21
13.785
 31
0.0
  0
LINE
  5
C1
330
B8
100
AcDbEntity
  8
0
 62
     0
100
AcDbLine
 10
1.51893938650673
 20
12.12554110430494
 30
0.0
 11
3.178398282201788
 21
13.785
 31
0.0
  0
LINE
  5
C2
330
B8
100
AcDbEntity
  8
0
 62
     0
100
AcDbLine
 10
1.595089347557589
 20
12.34311242159311
 30
0.0
 11
3.036976925964477
 21
13.785
 31
0.0
  0
LINE
  5
C3
330
B8
100
AcDbEntity
  8
0
 62
     0
100
AcDbLine
 10
1.671239308608448
 20
12.56068373888128
 30
0.0
 11
2.895555569727168
 21
13.785
 31
0.0
  0
LINE
  5
C4
330
B8
100
AcDbEntity
  8
0
 62
     0
100
AcDbLine
 10
1.747389269659307
 20
12.77825505616944
 30
0.0
 11
2.754134213489859
 21
13.785
 31
0.0
  0
LINE
  5
C5
330
B8
100
AcDbEntity
  8
0
 62
     0
100
AcDbLine
 10
1.823539230710166
 20
12.99582637345761
 30
0.0
 11
2.612712857252549
 21
13.785
 31
0.0
  0
LINE
  5
C6
330
B8
100
AcDbEntity
  8
0
 62
     0
100
AcDbLine
 10
1.899689191761025
 20
13.21339769074578
 30
0.0
 11
2.47129150101524
 21
13.785
 31
0.0
  0
LINE
  5
C7
330
B8
100
AcDbEntity
  8
0
 62
     0
100
AcDbLine
 10
1.975839152811885
 20
13.43096900803395
 30
0.0
 11
2.32987014477793
 21
13.785
 31
0.0
  0
LINE
  5
C8
330
B8
100
AcDbEntity
  8
0
 62
     0
100
AcDbLine
 10
2.051989113862743
 20
13.64854032532212
 30
0.0
 11
2.188448788540621
 21
13.785
 31
0.0
  0
LINE
  5
C9
330
B8
100
AcDbEntity
  8
0
 62
     0
100
AcDbLine
 10
1.166190488337572
 20
10.5
 30
0.0
 11
4.235000000000002
 21
13.56880951166243
 31
0.0
  0
LINE
  5
CA
330
B8
100
AcDbEntity
  8
0
 62
     0
100
AcDbLine
 10
1.307611844574882
 20
10.5
 30
0.0
 11
4.235000000000002
 21
13.42738815542512
 31
0.0
  0
LINE
  5
CB
330
B8
100
AcDbEntity
  8
0
 62
     0
100
AcDbLine
 10
1.449033200812191
 20
10.5
 30
0.0
 11
4.235000000000002
 21
13.28596679918781
 31
0.0
  0
LINE
  5
CC
330
B8
100
AcDbEntity
  8
0
 62
     0
100
AcDbLine
 10
1.590454557049502
 20
10.5
 30
0.0
 11
4.235000000000002
 21
13.1445454429505
 31
0.0
  0
LINE
  5
CD
330
B8
100
AcDbEntity
  8
0
 62
     0
100
AcDbLine
 10
1.731875913286811
 20
10.5
 30
0.0
 11
4.235000000000002
 21
13.00312408671319
 31
0.0
  0
LINE
  5
CE
330
B8
100
AcDbEntity
  8
0
 62
     0
100
AcDbLine
 10
1.87329726952412
 20
10.5
 30
0.0
 11
3.145147624102399
 21
11.77185035457827
 31
0.0
  0
LINE
  5
CF
330
B8
100
AcDbEntity
  8
0
 62
     0
100
AcDbLine
 10
3.27329726952412
 20
11.9
 30
0.0
 11
4.235000000000002
 21
12.86170273047588
 31
0.0
  0
LINE
  5
D0
330
B8
100
AcDbEntity
  8
0
 62
     0
100
AcDbLine
 10
2.01471862576143
 20
10.5
 30
0.0
 11
3.068997663051539
 21
11.5542790372901
 31
0.0
  0
LINE
  5
D1
330
B8
100
AcDbEntity
  8
0
 62
     0
100
AcDbLine
 10
3.41471862576143
 20
11.9
 30
0.0
 11
4.235000000000002
 21
12.72028137423857
 31
0.0
  0
LINE
  5
D2
330
B8
100
AcDbEntity
  8
0
 62
     0
100
AcDbLine
 10
2.156139981998739
 20
10.5
 30
0.0
 11
2.99284770200068
 21
11.33670772000194
 31
0.0
  0
LINE
  5
D3
330
B8
100
AcDbEntity
  8
0
 62
     0
100
AcDbLine
 10
3.556139981998739
 20
11.9
 30
0.0
 11
4.235000000000002
 21
12.57886001800126
 31
0.0
  0
LINE
  5
D4
330
B8
100
AcDbEntity
  8
0
 62
     0
100
AcDbLine
 10
2.297561338236048
 20
10.5
 30
0.0
 11
2.91669774094982
 21
11.11913640271377
 31
0.0
  0
LINE
  5
D5
330
B8
100
AcDbEntity
  8
0
 62
     0
100
AcDbLine
 10
3.697561338236048
 20
11.9
 30
0.0
 11
4.235000000000002
 21
12.43743866176395
 31
0.0
  0
LINE
  5
D6
330
B8
100
AcDbEntity
  8
0
 62
     0
100
AcDbLine
 10
2.438982694473358
 20
10.5
 30
0.0
 11
2.84054777989896
 21
10.9015650854256
 31
0.0
  0
LINE
  5
D7
330
B8
100
AcDbEntity
  8
0
 62
     0
100
AcDbLine
 10
3.838982694473358
 20
11.9
 30
0.0
 11
4.235000000000002
 21
12.29601730552664
 31
0.0
  0
LINE
  5
D8
330
B8
100
AcDbEntity
  8
0
 62
     0
100
AcDbLine
 10
2.580404050710667
 20
10.5
 30
0.0
 11
2.764397818848101
 21
10.68399376813743
 31
0.0
  0
LINE
  5
D9
330
B8
100
AcDbEntity
  8
0
 62
     0
100
AcDbLine
 10
3.980404050710667
 20
11.9
 30
0.0
 11
4.235000000000002
 21
12.15459594928933
 31
0.0
  0
LINE
  5
DA
330
B8
100
AcDbEntity
  8
0
 62
     0
100
AcDbLine
 10
4.121825406947977
 20
11.9
 30
0.0
 11
4.235000000000002
 21
12.01317459305202
 31
0.0
  0
ENDBLK
  5
DC
330
B8
100
AcDbEntity
  8
0
100
AcDbBlockEnd
  0
BLOCK
  5
10C
330
DD
100
AcDbEntity
  8
0
100
AcDbBlockBegin
  2
*X5
 70
     1
 10
0.0
 20
0.0
 30
0.0
  3
*X5
  1

  0
LINE
  5
DE
330
DD
100
AcDbEntity
  8
0
 62
     0
100
AcDbLine
 10
5.811558176292301
 20
11.60983378202199
 30
0.0
 11
7.107854472588599
 21
12.90613007831828
 31
0.0
  0
LINE
  5
DF
330
DD
100
AcDbEntity
  8
0
 62
     0
100
AcDbLine
 10
5.774893380230777
 20
11.71459034219777
 30
0.0
 11
7.071189676527073
 21
13.01088663849407
 31
0.0
  0
LINE
  5
E0
330
DD
100
AcDbEntity
  8
0
 62
     0
100
AcDbLine
 10
5.738228584169251
 20
11.81934690237356
 30
0.0
 11
7.034524880465549
 21
13.11564319866985
 31
0.0
  0
LINE
  5
E1
330
DD
100
AcDbEntity
  8
0
 62
     0
100
AcDbLine
 10
5.677460325558382
 20
11.9
 30
0.0
 11
6.997860084404024
 21
13.22039975884564
 31
0.0
  0
LINE
  5
E2
330
DD
100
AcDbEntity
  8
0
 62
     0
100
AcDbLine
 10
5.536038969321073
 20
11.9
 30
0.0
 11
6.9611952883425
 21
13.32515631902142
 31
0.0
  0
LINE
  5
E3
330
DD
100
AcDbEntity
  8
0
 62
     0
100
AcDbLine
 10
5.394617613083763
 20
11.9
 30
0.0
 11
6.924530492280974
 21
13.42991287919721
 31
0.0
  0
LINE
  5
E4
330
DD
100
AcDbEntity
  8
0
 62
     0
100
AcDbLine
 10
5.253196256846454
 20
11.9
 30
0.0
 11
6.88786569621945
 21
13.53466943937299
 31
0.0
  0
LINE
  5
E5
330
DD
100
AcDbEntity
  8
0
 62
     0
100
AcDbLine
 10
5.111774900609144
 20
11.9
 30
0.0
 11
6.851200900157925
 21
13.63942599954878
 31
0.0
  0
LINE
  5
E6
330
DD
100
AcDbEntity
  8
0
 62
     0
100
AcDbLine
 10
4.970353544371834
 20
11.9
 30
0.0
 11
6.814536104096401
 21
13.74418255972456
 31
0.0
  0
LINE
  5
E7
330
DD
100
AcDbEntity
  8
0
 62
     0
100
AcDbLine
 10
4.828932188134526
 20
11.9
 30
0.0
 11
6.713932188134525
 21
13.785
 31
0.0
  0
LINE
  5
E8
330
DD
100
AcDbEntity
  8
0
 62
     0
100
AcDbLine
 10
4.687510831897216
 20
11.9
 30
0.0
 11
6.572510831897214
 21
13.785
 31
0.0
  0
LINE
  5
E9
330
DD
100
AcDbEntity
  8
0
 62
     0
100
AcDbLine
 10
4.665
 20
12.01891052434009
 30
0.0
 11
6.431089475659906
 21
13.785
 31
0.0
  0
LINE
  5
EA
330
DD
100
AcDbEntity
  8
0
 62
     0
100
AcDbLine
 10
4.665
 20
12.1603318805774
 30
0.0
 11
6.289668119422596
 21
13.785
 31
0.0
  0
LINE
  5
EB
330
DD
100
AcDbEntity
  8
0
 62
     0
100
AcDbLine
 10
4.665
 20
12.30175323681471
 30
0.0
 11
6.148246763185286
 21
13.785
 31
0.0
  0
LINE
  5
EC
330
DD
100
AcDbEntity
  8
0
 62
     0
100
AcDbLine
 10
4.665
 20
12.44317459305202
 30
0.0
 11
6.006825406947977
 21
13.785
 31
0.0
  0
LINE
  5
ED
330
DD
100
AcDbEntity
  8
0
 62
     0
100
AcDbLine
 10
4.665
 20
12.58459594928933
 30
0.0
 11
5.865404050710667
 21
13.785
 31
0.0
  0
LINE
  5
EE
330
DD
100
AcDbEntity
  8
0
 62
     0
100
AcDbLine
 10
4.665
 20
12.72601730552664
 30
0.0
 11
5.723982694473358
 21
13.785
 31
0.0
  0
LINE
  5
EF
330
DD
100
AcDbEntity
  8
0
 62
     0
100
AcDbLine
 10
4.665
 20
12.86743866176395
 30
0.0
 11
5.582561338236048
 21
13.785
 31
0.0
  0
LINE
  5
F0
330
DD
100
AcDbEntity
  8
0
 62
     0
100
AcDbLine
 10
4.665
 20
13.00886001800126
 30
0.0
 11
5.441139981998738
 21
13.785
 31
0.0
  0
LINE
  5
F1
330
DD
100
AcDbEntity
  8
0
 62
     0
100
AcDbLine
 10
4.665
 20
13.15028137423857
 30
0.0
 11
5.299718625761429
 21
13.785
 31
0.0
  0
LINE
  5
F2
330
DD
100
AcDbEntity
  8
0
 62
     0
100
AcDbLine
 10
4.665
 20
13.29170273047588
 30
0.0
 11
5.158297269524119
 21
13.785
 31
0.0
  0
LINE
  5
F3
330
DD
100
AcDbEntity
  8
0
 62
     0
100
AcDbLine
 10
4.665
 20
13.43312408671319
 30
0.0
 11
5.01687591328681
 21
13.785
 31
0.0
  0
LINE
  5
F4
330
DD
100
AcDbEntity
  8
0
 62
     0
100
AcDbLine
 10
4.665
 20
13.57454544295049
 30
0.0
 11
4.875454557049502
 21
13.785
 31
0.0
  0
LINE
  5
F5
330
DD
100
AcDbEntity
  8
0
 62
     0
100
AcDbLine
 10
4.665
 20
13.71596679918781
 30
0.0
 11
4.734033200812191
 21
13.785
 31
0.0
  0
LINE
  5
F6
330
DD
100
AcDbEntity
  8
0
 62
     0
100
AcDbLine
 10
5.848222972353826
 20
11.5050772218462
 30
0.0
 11
7.144519268650123
 21
12.8013735181425
 31
0.0
  0
LINE
  5
F7
330
DD
100
AcDbEntity
  8
0
 62
     0
100
AcDbLine
 10
5.88488776841535
 20
11.40032066167042
 30
0.0
 11
7.181184064711648
 21
12.69661695796671
 31
0.0
  0
LINE
  5
F8
330
DD
100
AcDbEntity
  8
0
 62
     0
100
AcDbLine
 10
5.921552564476876
 20
11.29556410149463
 30
0.0
 11
7.217848860773172
 21
12.59186039779093
 31
0.0
  0
LINE
  5
F9
330
DD
100
AcDbEntity
  8
0
 62
     0
100
AcDbLine
 10
5.9582173605384
 20
11.19080754131885
 30
0.0
 11
7.254513656834697
 21
12.48710383761514
 31
0.0
  0
LINE
  5
FA
330
DD
100
AcDbEntity
  8
0
 62
     0
100
AcDbLine
 10
5.994882156599925
 20
11.08605098114306
 30
0.0
 11
7.291178452896222
 21
12.38234727743936
 31
0.0
  0
LINE
  5
FB
330
DD
100
AcDbEntity
  8
0
 62
     0
100
AcDbLine
 10
6.031546952661449
 20
10.98129442096728
 30
0.0
 11
7.327843248957746
 21
12.27759071726358
 31
0.0
  0
LINE
  5
FC
330
DD
100
AcDbEntity
  8
0
 62
     0
100
AcDbLine
 10
6.068211748722974
 20
10.87653786079149
 30
0.0
 11
7.364508045019271
 21
12.17283415708779
 31
0.0
  0
LINE
  5
FD
330
DD
100
AcDbEntity
  8
0
 62
     0
100
AcDbLine
 10
6.104876544784499
 20
10.77178130061571
 30
0.0
 11
7.401172841080795
 21
12.06807759691201
 31
0.0
  0
LINE
  5
FE
330
DD
100
AcDbEntity
  8
0
 62
     0
100
AcDbLine
 10
6.141541340846024
 20
10.66702474043992
 30
0.0
 11
7.437837637142321
 21
11.96332103673622
 31
0.0
  0
LINE
  5
FF
330
DD
100
AcDbEntity
  8
0
 62
     0
100
AcDbLine
 10
6.178206136907548
 20
10.56226818026414
 30
0.0
 11
7.474502433203845
 21
11.85856447656044
 31
0.0
  0
LINE
  5
100
330
DD
100
AcDbEntity
  8
0
 62
     0
100
AcDbLine
 10
6.257359312880715
 20
10.5
 30
0.0
 11
7.51116722926537
 21
11.75380791638465
 31
0.0
  0
LINE
  5
101
330
DD
100
AcDbEntity
  8
0
 62
     0
100
AcDbLine
 10
6.398780669118024
 20
10.5
 30
0.0
 11
7.547832025326894
 21
11.64905135620887
 31
0.0
  0
LINE
  5
102
330
DD
100
AcDbEntity
  8
0
 62
     0
100
AcDbLine
 10
6.540202025355334
 20
10.5
 30
0.0
 11
7.584496821388419
 21
11.54429479603308
 31
0.0
  0
LINE
  5
103
330
DD
100
AcDbEntity
  8
0
 62
     0
100
AcDbLine
 10
6.681623381592643
 20
10.5
 30
0.0
 11
7.621161617449944
 21
11.4395382358573
 31
0.0
  0
LINE
  5
104
330
DD
100
AcDbEntity
  8
0
 62
     0
100
AcDbLine
 10
6.823044737829953
 20
10.5
 30
0.0
 11
7.657826413511468
 21
11.33478167568151
 31
0.0
  0
LINE
  5
105
330
DD
100
AcDbEntity
  8
0
 62
     0
100
AcDbLine
 10
6.964466094067263
 20
10.5
 30
0.0
 11
7.694491209572993
 21
11.23002511550573
 31
0.0
  0
LINE
  5
106
330
DD
100
AcDbEntity
  8
0
 62
     0
100
AcDbLine
 10
7.105887450304572
 20
10.5
 30
0.0
 11
7.731156005634518
 21
11.12526855532994
 31
0.0
  0
LINE
  5
107
330
DD
100
AcDbEntity
  8
0
 62
     0
100
AcDbLine
 10
7.247308806541881
 20
10.5
 30
0.0
 11
7.767820801696043
 21
11.02051199515416
 31
0.0
  0
LINE
  5
108
330
DD
100
AcDbEntity
  8
0
 62
     0
100
AcDbLine
 10
7.388730162779191
 20
10.5
 30
0.0
 11
7.804485597757567
 21
10.91575543497837
 31
0.0
  0
LINE
  5
109
330
DD
100
AcDbEntity
  8
0
 62
     0
100
AcDbLine
 10
7.5301515190165
 20
10.5
 30
0.0
 11
7.841150393819092
 21
10.81099887480259
 31
0.0
  0
LINE
  5
10A
330
DD
100
AcDbEntity
  8
0
 62
     0
100
AcDbLine
 10
7.671572875253811
 20
10.5
 30
0.0
 11
7.877815189880617
 21
10.7062423146268
 31
0.0
  0
LINE
  5
10B
330
DD
100
AcDbEntity
  8
0
 62
     0
100
AcDbLine
 10
7.81299423149112
 20
10.5
 30
0.0
 11
7.914479985942141
 21
10.60148575445102
 31
0.0
  0
ENDBLK
  5
10D
330
DD
100
AcDbEntity
  8
0
100
AcDbBlockEnd
  0
BLOCK
  5
134
330
10E
100
AcDbEntity
  8
0
100
AcDbBlockBegin
  2
*X6
 70
     1
 10
0.0
 20
0.0
 30
0.0
  3
*X6
  1

  0
LINE
  5
10F
330
10E
100
AcDbEntity
  8
0
 62
     0
100
AcDbLine
 10
8.440000000000001
 20
14.80396103067892
 30
0.0
 11
10.325
 21
16.68896103067893
 31
0.0
  0
LINE
  5
110
330
10E
100
AcDbEntity
  8
0
 62
     0
100
AcDbLine
 10
8.440000000000001
 20
14.94538238691624
 30
0.0
 11
10.325
 21
16.83038238691623
 31
0.0
  0
LINE
  5
111
330
10E
100
AcDbEntity
  8
0
 62
     0
100
AcDbLine
 10
8.440000000000001
 20
15.08680374315354
 30
0.0
 11
10.325
 21
16.97180374315354
 31
0.0
  0
LINE
  5
112
330
10E
100
AcDbEntity
  8
0
 62
     0
100
AcDbLine
 10
8.440000000000001
 20
15.22822509939086
 30
0.0
 11
10.325
 21
17.11322509939085
 31
0.0
  0
LINE
  5
113
330
10E
100
AcDbEntity
  8
0
 62
     0
100
AcDbLine
 10
8.440000000000001
 20
15.36964645562816
 30
0.0
 11
10.325
 21
17.25464645562816
 31
0.0
  0
LINE
  5
114
330
10E
100
AcDbEntity
  8
0
 62
     0
100
AcDbLine
 10
8.440000000000001
 20
15.51106781186547
 30
0.0
 11
10.325
 21
17.39606781186547
 31
0.0
  0
LINE
  5
115
330
10E
100
AcDbEntity
  8
0
 62
     0
100
AcDbLine
 10
8.440000000000001
 20
15.65248916810278
 30
0.0
 11
10.28751083189721
 21
17.5
 31
0.0
  0
LINE
  5
116
330
10E
100
AcDbEntity
  8
0
 62
     0
100
AcDbLine
 10
8.440000000000001
 20
15.79391052434009
 30
0.0
 11
10.1460894756599
 21
17.5
 31
0.0
  0
LINE
  5
117
330
10E
100
AcDbEntity
  8
0
 62
     0
100
AcDbLine
 10
8.440000000000001
 20
15.9353318805774
 30
0.0
 11
10.00466811942259
 21
17.5
 31
0.0
  0
LINE
  5
118
330
10E
100
AcDbEntity
  8
0
 62
     0
100
AcDbLine
 10
8.440000000000001
 20
16.07675323681471
 30
0.0
 11
9.863246763185287
 21
17.5
 31
0.0
  0
LINE
  5
119
330
10E
100
AcDbEntity
  8
0
 62
     0
100
AcDbLine
 10
8.440000000000001
 20
16.21817459305202
 30
0.0
 11
9.72182540694798
 21
17.5
 31
0.0
  0
LINE
  5
11A
330
10E
100
AcDbEntity
  8
0
 62
     0
100
AcDbLine
 10
8.440000000000001
 20
16.35959594928933
 30
0.0
 11
9.580404050710669
 21
17.5
 31
0.0
  0
LINE
  5
11B
330
10E
100
AcDbEntity
  8
0
 62
     0
100
AcDbLine
 10
8.440000000000001
 20
16.50101730552664
 30
0.0
 11
9.438982694473359
 21
17.5
 31
0.0
  0
LINE
  5
11C
330
10E
100
AcDbEntity
  8
0
 62
     0
100
AcDbLine
 10
8.440000000000001
 20
16.64243866176395
 30
0.0
 11
9.297561338236048
 21
17.5
 31
0.0
  0
LINE
  5
11D
330
10E
100
AcDbEntity
  8
0
 62
     0
100
AcDbLine
 10
8.440000000000001
 20
16.78386001800126
 30
0.0
 11
9.156139981998741
 21
17.5
 31
0.0
  0
LINE
  5
11E
330
10E
100
AcDbEntity
  8
0
 62
     0
100
AcDbLine
 10
8.440000000000001
 20
16.92528137423857
 30
0.0
 11
9.014718625761432
 21
17.5
 31
0.0
  0
LINE
  5
11F
330
10E
100
AcDbEntity
  8
0
 62
     0
100
AcDbLine
 10
8.440000000000001
 20
17.06670273047588
 30
0.0
 11
8.873297269524121
 21
17.5
 31
0.0
  0
LINE
  5
120
330
10E
100
AcDbEntity
  8
0
 62
     0
100
AcDbLine
 10
8.440000000000001
 20
17.20812408671319
 30
0.0
 11
8.731875913286812
 21
17.5
 31
0.0
  0
LINE
  5
121
330
10E
100
AcDbEntity
  8
0
 62
     0
100
AcDbLine
 10
8.440000000000001
 20
17.3495454429505
 30
0.0
 11
8.590454557049502
 21
17.5
 31
0.0
  0
LINE
  5
122
330
10E
100
AcDbEntity
  8
0
 62
     0
100
AcDbLine
 10
8.440000000000001
 20
17.49096679918781
 30
0.0
 11
8.449033200812193
 21
17.5
 31
0.0
  0
LINE
  5
123
330
10E
100
AcDbEntity
  8
0
 62
     0
100
AcDbLine
 10
8.440000000000001
 20
14.66253967444162
 30
0.0
 11
10.325
 21
16.54753967444162
 31
0.0
  0
LINE
  5
124
330
10E
100
AcDbEntity
  8
0
 62
     0
100
AcDbLine
 10
8.440000000000001
 20
14.52111831820431
 30
0.0
 11
10.325
 21
16.40611831820431
 31
0.0
  0
LINE
  5
125
330
10E
100
AcDbEntity
  8
0
 62
     0
100
AcDbLine
 10
8.440000000000001
 20
14.379696961967
 30
0.0
 11
10.325
 21
16.264696961967
 31
0.0
  0
LINE
  5
126
330
10E
100
AcDbEntity
  8
0
 62
     0
100
AcDbLine
 10
8.440000000000001
 20
14.23827560572969
 30
0.0
 11
10.325
 21
16.12327560572969
 31
0.0
  0
LINE
  5
127
330
10E
100
AcDbEntity
  8
0
 62
     0
100
AcDbLine
 10
8.55814575050762
 20
14.21499999999999
 30
0.0
 11
10.325
 21
15.98185424949238
 31
0.0
  0
LINE
  5
128
330
10E
100
AcDbEntity
  8
0
 62
     0
100
AcDbLine
 10
8.699567106744929
 20
14.21499999999999
 30
0.0
 11
10.325
 21
15.84043289325507
 31
0.0
  0
LINE
  5
129
330
10E
100
AcDbEntity
  8
0
 62
     0
100
AcDbLine
 10
8.840988462982238
 20
14.21499999999999
 30
0.0
 11
10.325
 21
15.69901153701776
 31
0.0
  0
LINE
  5
12A
330
10E
100
AcDbEntity
  8
0
 62
     0
100
AcDbLine
 10
8.982409819219547
 20
14.21499999999999
 30
0.0
 11
10.325
 21
15.55759018078045
 31
0.0
  0
LINE
  5
12B
330
10E
100
AcDbEntity
  8
0
 62
     0
100
AcDbLine
 10
9.123831175456857
 20
14.21499999999999
 30
0.0
 11
10.325
 21
15.41616882454314
 31
0.0
  0
LINE
  5
12C
330
10E
100
AcDbEntity
  8
0
 62
     0
100
AcDbLine
 10
9.265252531694168
 20
14.21499999999999
 30
0.0
 11
10.325
 21
15.27474746830583
 31
0.0
  0
LINE
  5
12D
330
10E
100
AcDbEntity
  8
0
 62
     0
100
AcDbLine
 10
9.406673887931477
 20
14.21499999999999
 30
0.0
 11
10.325
 21
15.13332611206852
 31
0.0
  0
LINE
  5
12E
330
10E
100
AcDbEntity
  8
0
 62
     0
100
AcDbLine
 10
9.548095244168786
 20
14.21499999999999
 30
0.0
 11
10.325
 21
14.99190475583121
 31
0.0
  0
LINE
  5
12F
330
10E
100
AcDbEntity
  8
0
 62
     0
100
AcDbLine
 10
9.689516600406095
 20
14.21499999999999
 30
0.0
 11
10.325
 21
14.8504833995939
 31
0.0
  0
LINE
  5
130
330
10E
100
AcDbEntity
  8
0
 62
     0
100
AcDbLine
 10
9.830937956643404
 20
14.21499999999999
 30
0.0
 11
10.325
 21
14.70906204335659
 31
0.0
  0
LINE
  5
131
330
10E
100
AcDbEntity
  8
0
 62
     0
100
AcDbLine
 10
9.972359312880714
 20
14.21499999999999
 30
0.0
 11
10.325
 21
14.56764068711928
 31
0.0
  0
LINE
  5
132
330
10E
100
AcDbEntity
  8
0
 62
     0
100
AcDbLine
 10
10.11378066911802
 20
14.21499999999999
 30
0.0
 11
10.325
 21
14.42621933088197
 31
0.0
  0
LINE
  5
133
330
10E
100
AcDbEntity
  8
0
 62
     0
100
AcDbLine
 10
10.25520202535533
 20
14.21499999999999
 30
0.0
 11
10.325
 21
14.28479797464467
 31
0.0
  0
ENDBLK
  5
135
330
10E
100
AcDbEntity
  8
0
100
AcDbBlockEnd
  0
BLOCK
  5
15B
330
136
100
AcDbEntity
  8
0
100
AcDbBlockBegin
  2
*X7
 70
     1
 10
0.0
 20
0.0
 30
0.0
  3
*X7
  1

  0
LINE
  5
137
330
136
100
AcDbEntity
  8
0
 62
     0
100
AcDbLine
 10
8.440000000000001
 20
11.12700576850888
 30
0.0
 11
10.325
 21
13.01200576850888
 31
0.0
  0
LINE
  5
138
330
136
100
AcDbEntity
  8
0
 62
     0
100
AcDbLine
 10
8.440000000000001
 20
11.26842712474619
 30
0.0
 11
10.325
 21
13.15342712474619
 31
0.0
  0
LINE
  5
139
330
136
100
AcDbEntity
  8
0
 62
     0
100
AcDbLine
 10
8.440000000000001
 20
11.4098484809835
 30
0.0
 11
10.325
 21
13.2948484809835
 31
0.0
  0
LINE
  5
13A
330
136
100
AcDbEntity
  8
0
 62
     0
100
AcDbLine
 10
8.440000000000001
 20
11.55126983722081
 30
0.0
 11
10.325
 21
13.43626983722081
 31
0.0
  0
LINE
  5
13B
330
136
100
AcDbEntity
  8
0
 62
     0
100
AcDbLine
 10
8.440000000000001
 20
11.69269119345812
 30
0.0
 11
10.325
 21
13.57769119345812
 31
0.0
  0
LINE
  5
13C
330
136
100
AcDbEntity
  8
0
 62
     0
100
AcDbLine
 10
8.440000000000001
 20
11.83411254969543
 30
0.0
 11
10.325
 21
13.71911254969543
 31
0.0
  0
LINE
  5
13D
330
136
100
AcDbEntity
  8
0
 62
     0
100
AcDbLine
 10
8.440000000000001
 20
11.97553390593274
 30
0.0
 11
10.24946609406726
 21
13.785
 31
0.0
  0
LINE
  5
13E
330
136
100
AcDbEntity
  8
0
 62
     0
100
AcDbLine
 10
8.440000000000001
 20
12.11695526217004
 30
0.0
 11
10.10804473782995
 21
13.785
 31
0.0
  0
LINE
  5
13F
330
136
100
AcDbEntity
  8
0
 62
     0
100
AcDbLine
 10
8.440000000000001
 20
12.25837661840736
 30
0.0
 11
9.966623381592642
 21
13.785
 31
0.0
  0
LINE
  5
140
330
136
100
AcDbEntity
  8
0
 62
     0
100
AcDbLine
 10
8.440000000000001
 20
12.39979797464466
 30
0.0
 11
9.825202025355332
 21
13.785
 31
0.0
  0
LINE
  5
141
330
136
100
AcDbEntity
  8
0
 62
     0
100
AcDbLine
 10
8.440000000000001
 20
12.54121933088197
 30
0.0
 11
9.683780669118023
 21
13.785
 31
0.0
  0
LINE
  5
142
330
136
100
AcDbEntity
  8
0
 62
     0
100
AcDbLine
 10
8.440000000000001
 20
12.68264068711928
 30
0.0
 11
9.542359312880714
 21
13.785
 31
0.0
  0
LINE
  5
143
330
136
100
AcDbEntity
  8
0
 62
     0
100
AcDbLine
 10
8.440000000000001
 20
12.82406204335659
 30
0.0
 11
9.400937956643405
 21
13.785
 31
0.0
  0
LINE
  5
144
330
136
100
AcDbEntity
  8
0
 62
     0
100
AcDbLine
 10
8.440000000000001
 20
12.9654833995939
 30
0.0
 11
9.259516600406096
 21
13.785
 31
0.0
  0
LINE
  5
145
330
136
100
AcDbEntity
  8
0
 62
     0
100
AcDbLine
 10
8.440000000000001
 20
13.10690475583121
 30
0.0
 11
9.118095244168785
 21
13.785
 31
0.0
  0
LINE
  5
146
330
136
100
AcDbEntity
  8
0
 62
     0
100
AcDbLine
 10
8.440000000000001
 20
13.24832611206852
 30
0.0
 11
8.976673887931477
 21
13.785
 31
0.0
  0
LINE
  5
147
330
136
100
AcDbEntity
  8
0
 62
     0
100
AcDbLine
 10
8.440000000000001
 20
13.38974746830583
 30
0.0
 11
8.835252531694166
 21
13.785
 31
0.0
  0
LINE
  5
148
330
136
100
AcDbEntity
  8
0
 62
     0
100
AcDbLine
 10
8.440000000000001
 20
13.53116882454314
 30
0.0
 11
8.693831175456857
 21
13.785
 31
0.0
  0
LINE
  5
149
330
136
100
AcDbEntity
  8
0
 62
     0
100
AcDbLine
 10
8.440000000000001
 20
13.67259018078045
 30
0.0
 11
8.552409819219548
 21
13.785
 31
0.0
  0
LINE
  5
14A
330
136
100
AcDbEntity
  8
0
 62
     0
100
AcDbLine
 10
8.440000000000001
 20
10.98558441227157
 30
0.0
 11
10.325
 21
12.87058441227157
 31
0.0
  0
LINE
  5
14B
330
136
100
AcDbEntity
  8
0
 62
     0
100
AcDbLine
 10
8.440000000000001
 20
10.84416305603426
 30
0.0
 11
10.325
 21
12.72916305603426
 31
0.0
  0
LINE
  5
14C
330
136
100
AcDbEntity
  8
0
 62
     0
100
AcDbLine
 10
8.440000000000001
 20
10.70274169979695
 30
0.0
 11
10.325
 21
12.58774169979695
 31
0.0
  0
LINE
  5
14D
330
136
100
AcDbEntity
  8
0
 62
     0
100
AcDbLine
 10
8.440000000000001
 20
10.56132034355964
 30
0.0
 11
10.325
 21
12.44632034355964
 31
0.0
  0
LINE
  5
14E
330
136
100
AcDbEntity
  8
0
 62
     0
100
AcDbLine
 10
8.520101012677667
 20
10.5
 30
0.0
 11
10.325
 21
12.30489898732233
 31
0.0
  0
LINE
  5
14F
330
136
100
AcDbEntity
  8
0
 62
     0
100
AcDbLine
 10
8.661522368914976
 20
10.5
 30
0.0
 11
10.325
 21
12.16347763108502
 31
0.0
  0
LINE
  5
150
330
136
100
AcDbEntity
  8
0
 62
     0
100
AcDbLine
 10
8.802943725152285
 20
10.5
 30
0.0
 11
10.325
 21
12.02205627484771
 31
0.0
  0
LINE
  5
151
330
136
100
AcDbEntity
  8
0
 62
     0
100
AcDbLine
 10
8.944365081389594
 20
10.5
 30
0.0
 11
10.325
 21
11.8806349186104
 31
0.0
  0
LINE
  5
152
330
136
100
AcDbEntity
  8
0
 62
     0
100
AcDbLine
 10
9.085786437626904
 20
10.5
 30
0.0
 11
10.325
 21
11.73921356237309
 31
0.0
  0
LINE
  5
153
330
136
100
AcDbEntity
  8
0
 62
     0
100
AcDbLine
 10
9.227207793864213
 20
10.5
 30
0.0
 11
10.325
 21
11.59779220613578
 31
0.0
  0
LINE
  5
154
330
136
100
AcDbEntity
  8
0
 62
     0
100
AcDbLine
 10
9.368629150101524
 20
10.5
 30
0.0
 11
10.325
 21
11.45637084989847
 31
0.0
  0
LINE
  5
155
330
136
100
AcDbEntity
  8
0
 62
     0
100
AcDbLine
 10
9.510050506338833
 20
10.5
 30
0.0
 11
10.325
 21
11.31494949366116
 31
0.0
  0
LINE
  5
156
330
136
100
AcDbEntity
  8
0
 62
     0
100
AcDbLine
 10
9.651471862576142
 20
10.5
 30
0.0
 11
10.325
 21
11.17352813742385
 31
0.0
  0
LINE
  5
157
330
136
100
AcDbEntity
  8
0
 62
     0
100
AcDbLine
 10
9.792893218813452
 20
10.5
 30
0.0
 11
10.325
 21
11.03210678118655
 31
0.0
  0
LINE
  5
158
330
136
100
AcDbEntity
  8
0
 62
     0
100
AcDbLine
 10
9.934314575050761
 20
10.5
 30
0.0
 11
10.325
 21
10.89068542494924
 31
0.0
  0
LINE
  5
159
330
136
100
AcDbEntity
  8
0
 62
     0
100
AcDbLine
 10
10.07573593128807
 20
10.5
 30
0.0
 11
10.325
 21
10.74926406871193
 31
0.0
  0
LINE
  5
15A
330
136
100
AcDbEntity
  8
0
 62
     0
100
AcDbLine
 10
10.21715728752538
 20
10.5
 30
0.0
 11
10.325
 21
10.60784271247461
 31
0.0
  0
ENDBLK
  5
15C
330
136
100
AcDbEntity
  8
0
100
AcDbBlockEnd
  0
BLOCK
  5
183
330
15D
100
AcDbEntity
  8
0
100
AcDbBlockBegin
  2
*X8
 70
     1
 10
0.0
 20
0.0
 30
0.0
  3
*X8
  1

  0
LINE
  5
15E
330
15D
100
AcDbEntity
  8
0
 62
     0
100
AcDbLine
 10
10.75499999999999
 20
14.85621933088197
 30
0.0
 11
12.60665195119362
 21
16.70787128207559
 31
0.0
  0
LINE
  5
15F
330
15D
100
AcDbEntity
  8
0
 62
     0
100
AcDbLine
 10
10.75499999999999
 20
14.99764068711928
 30
0.0
 11
12.55268873087672
 21
16.795329417996
 31
0.0
  0
LINE
  5
160
330
15D
100
AcDbEntity
  8
0
 62
     0
100
AcDbLine
 10
10.75499999999999
 20
15.13906204335659
 30
0.0
 11
12.49395055341158
 21
16.87801259676817
 31
0.0
  0
LINE
  5
161
330
15D
100
AcDbEntity
  8
0
 62
     0
100
AcDbLine
 10
10.75499999999999
 20
15.2804833995939
 30
0.0
 11
12.43059182218045
 21
16.95607522177436
 31
0.0
  0
LINE
  5
162
330
15D
100
AcDbEntity
  8
0
 62
     0
100
AcDbLine
 10
10.75499999999999
 20
15.42190475583121
 30
0.0
 11
12.36270405049246
 21
17.02960880632368
 31
0.0
  0
LINE
  5
163
330
15D
100
AcDbEntity
  8
0
 62
     0
100
AcDbLine
 10
10.75499999999999
 20
15.56332611206852
 30
0.0
 11
12.29032173141587
 21
17.09864784348439
 31
0.0
  0
LINE
  5
164
330
15D
100
AcDbEntity
  8
0
 62
     0
100
AcDbLine
 10
10.75499999999999
 20
15.70474746830583
 30
0.0
 11
12.21342448184601
 21
17.16317195015184
 31
0.0
  0
LINE
  5
165
330
15D
100
AcDbEntity
  8
0
 62
     0
100
AcDbLine
 10
10.75499999999999
 20
15.84616882454314
 30
0.0
 11
12.13193578000449
 21
17.22310460454764
 31
0.0
  0
LINE
  5
166
330
15D
100
AcDbEntity
  8
0
 62
     0
100
AcDbLine
 10
10.75499999999999
 20
15.98759018078045
 30
0.0
 11
12.04571810938003
 21
17.27830829016048
 31
0.0
  0
LINE
  5
167
330
15D
100
AcDbEntity
  8
0
 62
     0
100
AcDbLine
 10
10.75499999999999
 20
16.12901153701776
 30
0.0
 11
11.95456376436614
 21
17.3285753013839
 31
0.0
  0
LINE
  5
168
330
15D
100
AcDbEntity
  8
0
 62
     0
100
AcDbLine
 10
10.75499999999999
 20
16.27043289325507
 30
0.0
 11
11.85817979995458
 21
17.37361269320965
 31
0.0
  0
LINE
  5
169
330
15D
100
AcDbEntity
  8
0
 62
     0
100
AcDbLine
 10
10.75499999999999
 20
16.41185424949237
 30
0.0
 11
11.75616435283253
 21
17.41301860232491
 31
0.0
  0
LINE
  5
16A
330
15D
100
AcDbEntity
  8
0
 62
     0
100
AcDbLine
 10
10.75499999999999
 20
16.55327560572969
 30
0.0
 11
11.64796929664345
 21
17.44624490237314
 31
0.0
  0
LINE
  5
16B
330
15D
100
AcDbEntity
  8
0
 62
     0
100
AcDbLine
 10
10.75499999999999
 20
16.69469696196699
 30
0.0
 11
11.53283975161226
 21
17.47253671357926
 31
0.0
  0
LINE
  5
16C
330
15D
100
AcDbEntity
  8
0
 62
     0
100
AcDbLine
 10
10.75499999999999
 20
16.83611831820431
 30
0.0
 11
11.40971149630951
 21
17.49082981451382
 31
0.0
  0
LINE
  5
16D
330
15D
100
AcDbEntity
  8
0
 62
     0
100
AcDbLine
 10
10.75499999999999
 20
16.97753967444161
 30
0.0
 11
11.2770250730259
 21
17.49956474746751
 31
0.0
  0
LINE
  5
16E
330
15D
100
AcDbEntity
  8
0
 62
     0
100
AcDbLine
 10
10.75499999999999
 20
17.11896103067893
 30
0.0
 11
11.13603830972073
 21
17.49999934039966
 31
0.0
  0
LINE
  5
16F
330
15D
100
AcDbEntity
  8
0
 62
     0
100
AcDbLine
 10
10.75499999999999
 20
17.26038238691623
 30
0.0
 11
10.99461695348342
 21
17.49999934039966
 31
0.0
  0
LINE
  5
170
330
15D
100
AcDbEntity
  8
0
 62
     0
100
AcDbLine
 10
10.75499999999999
 20
17.40180374315354
 30
0.0
 11
10.85319559724611
 21
17.49999934039966
 31
0.0
  0
LINE
  5
171
330
15D
100
AcDbEntity
  8
0
 62
     0
100
AcDbLine
 10
10.75499999999999
 20
14.71479797464466
 30
0.0
 11
12.65561241128887
 21
16.61541038593354
 31
0.0
  0
LINE
  5
172
330
15D
100
AcDbEntity
  8
0
 62
     0
100
AcDbLine
 10
10.75499999999999
 20
14.57337661840735
 30
0.0
 11
12.69925198078363
 21
16.51762859919098
 31
0.0
  0
LINE
  5
173
330
15D
100
AcDbEntity
  8
0
 62
     0
100
AcDbLine
 10
10.75499999999999
 20
14.43195526217004
 30
0.0
 11
12.73713563115315
 21
16.41409089332319
 31
0.0
  0
LINE
  5
174
330
15D
100
AcDbEntity
  8
0
 62
     0
100
AcDbLine
 10
10.75499999999999
 20
14.29053390593273
 30
0.0
 11
12.76866932616733
 21
16.30420323210007
 31
0.0
  0
LINE
  5
175
330
15D
100
AcDbEntity
  8
0
 62
     0
100
AcDbLine
 10
10.82088745030457
 20
14.215
 30
0.0
 11
12.79303113012304
 21
16.18714367981846
 31
0.0
  0
LINE
  5
176
330
15D
100
AcDbEntity
  8
0
 62
     0
100
AcDbLine
 10
10.96230880654188
 20
14.215
 30
0.0
 11
12.80905262151017
 21
16.06174381496829
 31
0.0
  0
LINE
  5
177
330
15D
100
AcDbEntity
  8
0
 62
     0
100
AcDbLine
 10
11.10373016277919
 20
14.215
 30
0.0
 11
12.81499948851172
 21
15.92626932573253
 31
0.0
  0
LINE
  5
178
330
15D
100
AcDbEntity
  8
0
 62
     0
100
AcDbLine
 10
11.2451515190165
 20
14.215
 30
0.0
 11
12.80812225109332
 21
15.77797073207682
 31
0.0
  0
LINE
  5
179
330
15D
100
AcDbEntity
  8
0
 62
     0
100
AcDbLine
 10
11.38657287525381
 20
14.215
 30
0.0
 11
12.78358863144548
 21
15.61201575619167
 31
0.0
  0
LINE
  5
17A
330
15D
100
AcDbEntity
  8
0
 62
     0
100
AcDbLine
 10
11.52799423149111
 20
14.215
 30
0.0
 11
12.73125442928398
 21
15.41826019779286
 31
0.0
  0
LINE
  5
17B
330
15D
100
AcDbEntity
  8
0
 62
     0
100
AcDbLine
 10
11.66941558772843
 20
14.215
 30
0.0
 11
11.99980823635216
 21
14.54539264862373
 31
0.0
  0
LINE
  5
17C
330
15D
100
AcDbEntity
  8
0
 62
     0
100
AcDbLine
 10
12.00867663314944
 20
14.55426104542102
 30
0.0
 11
12.61960735137626
 21
15.16519176364783
 31
0.0
  0
LINE
  5
17D
330
15D
100
AcDbEntity
  8
0
 62
     0
100
AcDbLine
 10
11.81083694396573
 20
14.215
 30
0.0
 11
12.1080374877881
 21
14.51220054382236
 31
0.0
  0
LINE
  5
17E
330
15D
100
AcDbEntity
  8
0
 62
     0
100
AcDbLine
 10
11.95225830020304
 20
14.215
 30
0.0
 11
12.20328965915022
 21
14.46603135894718
 31
0.0
  0
LINE
  5
17F
330
15D
100
AcDbEntity
  8
0
 62
     0
100
AcDbLine
 10
12.09367965644035
 20
14.215
 30
0.0
 11
12.29464391921294
 21
14.41596426277258
 31
0.0
  0
LINE
  5
180
330
15D
100
AcDbEntity
  8
0
 62
     0
100
AcDbLine
 10
12.23510101267766
 20
14.215
 30
0.0
 11
12.38226650658783
 21
14.36216549391016
 31
0.0
  0
LINE
  5
181
330
15D
100
AcDbEntity
  8
0
 62
     0
100
AcDbLine
 10
12.37652236891497
 20
14.215
 30
0.0
 11
12.46628661553598
 21
14.30476424662101
 31
0.0
  0
LINE
  5
182
330
15D
100
AcDbEntity
  8
0
 62
     0
100
AcDbLine
 10
12.51794372515228
 20
14.215
 30
0.0
 11
12.54680174666866
 21
14.24385802151638
 31
0.0
  0
ENDBLK
  5
184
330
15D
100
AcDbEntity
  8
0
100
AcDbBlockEnd
  0
BLOCK
  5
1A7
330
185
100
AcDbEntity
  8
0
100
AcDbBlockBegin
  2
*X9
 70
     1
 10
0.0
 20
0.0
 30
0.0
  3
*X9
  1

  0
LINE
  5
186
330
185
100
AcDbEntity
  8
0
 62
     0
100
AcDbLine
 10
10.75499999999999
 20
10.89642135623731
 30
0.0
 11
13.20345567881146
 21
13.34487703504876
 31
0.0
  0
LINE
  5
187
330
185
100
AcDbEntity
  8
0
 62
     0
100
AcDbLine
 10
10.75499999999999
 20
11.03784271247461
 30
0.0
 11
13.16238970184929
 21
13.4452324143239
 31
0.0
  0
LINE
  5
188
330
185
100
AcDbEntity
  8
0
 62
     0
100
AcDbLine
 10
10.75499999999999
 20
11.17926406871192
 30
0.0
 11
13.11715841360858
 21
13.54142248232051
 31
0.0
  0
LINE
  5
189
330
185
100
AcDbEntity
  8
0
 62
     0
100
AcDbLine
 10
10.75499999999999
 20
11.32068542494923
 30
0.0
 11
13.06798435218605
 21
13.63366977713529
 31
0.0
  0
LINE
  5
18A
330
185
100
AcDbEntity
  8
0
 62
     0
100
AcDbLine
 10
10.75499999999999
 20
11.46210678118654
 30
0.0
 11
13.01504338256579
 21
13.72215016375234
 31
0.0
  0
LINE
  5
18B
330
185
100
AcDbEntity
  8
0
 62
     0
100
AcDbLine
 10
10.75499999999999
 20
11.60352813742385
 30
0.0
 11
12.93647186257614
 21
13.785
 31
0.0
  0
LINE
  5
18C
330
185
100
AcDbEntity
  8
0
 62
     0
100
AcDbLine
 10
10.75499999999999
 20
11.74494949366116
 30
0.0
 11
12.79505050633883
 21
13.785
 31
0.0
  0
LINE
  5
18D
330
185
100
AcDbEntity
  8
0
 62
     0
100
AcDbLine
 10
10.75499999999999
 20
11.88637084989847
 30
0.0
 11
12.65362915010152
 21
13.785
 31
0.0
  0
LINE
  5
18E
330
185
100
AcDbEntity
  8
0
 62
     0
100
AcDbLine
 10
10.75499999999999
 20
12.02779220613578
 30
0.0
 11
12.51220779386421
 21
13.785
 31
0.0
  0
LINE
  5
18F
330
185
100
AcDbEntity
  8
0
 62
     0
100
AcDbLine
 10
10.75499999999999
 20
12.16921356237309
 30
0.0
 11
12.3707864376269
 21
13.785
 31
0.0
  0
LINE
  5
190
330
185
100
AcDbEntity
  8
0
 62
     0
100
AcDbLine
 10
10.75499999999999
 20
12.3106349186104
 30
0.0
 11
12.22936508138959
 21
13.785
 31
0.0
  0
LINE
  5
191
330
185
100
AcDbEntity
  8
0
 62
     0
100
AcDbLine
 10
10.75499999999999
 20
12.45205627484771
 30
0.0
 11
12.08794372515228
 21
13.785
 31
0.0
  0
LINE
  5
192
330
185
100
AcDbEntity
  8
0
 62
     0
100
AcDbLine
 10
10.75499999999999
 20
12.59347763108502
 30
0.0
 11
11.94652236891497
 21
13.785
 31
0.0
  0
LINE
  5
193
330
185
100
AcDbEntity
  8
0
 62
     0
100
AcDbLine
 10
10.75499999999999
 20
12.73489898732233
 30
0.0
 11
11.80510101267766
 21
13.785
 31
0.0
  0
LINE
  5
194
330
185
100
AcDbEntity
  8
0
 62
     0
100
AcDbLine
 10
10.75499999999999
 20
12.87632034355964
 30
0.0
 11
11.66367965644035
 21
13.785
 31
0.0
  0
LINE
  5
195
330
185
100
AcDbEntity
  8
0
 62
     0
100
AcDbLine
 10
10.75499999999999
 20
13.01774169979695
 30
0.0
 11
11.52225830020304
 21
13.785
 31
0.0
  0
LINE
  5
196
330
185
100
AcDbEntity
  8
0
 62
     0
100
AcDbLine
 10
10.75499999999999
 20
13.15916305603426
 30
0.0
 11
11.38083694396573
 21
13.785
 31
0.0
  0
LINE
  5
197
330
185
100
AcDbEntity
  8
0
 62
     0
100
AcDbLine
 10
10.75499999999999
 20
13.30058441227157
 30
0.0
 11
11.23941558772842
 21
13.785
 31
0.0
  0
LINE
  5
198
330
185
100
AcDbEntity
  8
0
 62
     0
100
AcDbLine
 10
10.75499999999999
 20
13.44200576850888
 30
0.0
 11
11.09799423149111
 21
13.785
 31
0.0
  0
LINE
  5
199
330
185
100
AcDbEntity
  8
0
 62
     0
100
AcDbLine
 10
10.75499999999999
 20
13.58342712474619
 30
0.0
 11
10.95657287525381
 21
13.785
 31
0.0
  0
LINE
  5
19A
330
185
100
AcDbEntity
  8
0
 62
     0
100
AcDbLine
 10
10.75499999999999
 20
13.7248484809835
 30
0.0
 11
10.8151515190165
 21
13.785
 31
0.0
  0
LINE
  5
19B
330
185
100
AcDbEntity
  8
0
 62
     0
100
AcDbLine
 10
10.75499999999999
 20
10.75499999999999
 30
0.0
 11
13.24007575540194
 21
13.24007575540194
 31
0.0
  0
LINE
  5
19C
330
185
100
AcDbEntity
  8
0
 62
     0
100
AcDbLine
 10
10.75499999999999
 20
10.61357864376269
 30
0.0
 11
13.2718950823941
 21
13.13047372615679
 31
0.0
  0
LINE
  5
19D
330
185
100
AcDbEntity
  8
0
 62
     0
100
AcDbLine
 10
10.78284395292507
 20
10.50000124045045
 30
0.0
 11
13.29846094958801
 21
13.01561823711339
 31
0.0
  0
LINE
  5
19E
330
185
100
AcDbEntity
  8
0
 62
     0
100
AcDbLine
 10
10.92426530916238
 20
10.50000124045045
 30
0.0
 11
13.3191873967026
 21
12.89492332799067
 31
0.0
  0
LINE
  5
19F
330
185
100
AcDbEntity
  8
0
 62
     0
100
AcDbLine
 10
11.06568666539969
 20
10.50000124045045
 30
0.0
 11
13.33330010266432
 21
12.76761467771509
 31
0.0
  0
LINE
  5
1A0
330
185
100
AcDbEntity
  8
0
 62
     0
100
AcDbLine
 10
11.207108021637
 20
10.50000124045045
 30
0.0
 11
13.33974633222867
 21
12.63263955104213
 31
0.0
  0
LINE
  5
1A1
330
185
100
AcDbEntity
  8
0
 62
     0
100
AcDbLine
 10
11.35148974060317
 20
10.50296160317931
 30
0.0
 11
13.33703839682068
 21
12.48851025939682
 31
0.0
  0
LINE
  5
1A2
330
185
100
AcDbEntity
  8
0
 62
     0
100
AcDbLine
 10
11.50699107720297
 20
10.5170415835418
 30
0.0
 11
13.32295841645819
 21
12.33300892279702
 31
0.0
  0
LINE
  5
1A3
330
185
100
AcDbEntity
  8
0
 62
     0
100
AcDbLine
 10
11.67743557368476
 20
10.54606472378628
 30
0.0
 11
13.29393527621371
 21
12.16256442631523
 31
0.0
  0
LINE
  5
1A4
330
185
100
AcDbEntity
  8
0
 62
     0
100
AcDbLine
 10
11.86929982173049
 20
10.59650761559471
 30
0.0
 11
13.24349238440528
 21
11.9707001782695
 31
0.0
  0
LINE
  5
1A5
330
185
100
AcDbEntity
  8
0
 62
     0
100
AcDbLine
 10
12.0970739731583
 20
10.6828604107852
 30
0.0
 11
13.15713958921479
 21
11.74292602684169
 31
0.0
  0
LINE
  5
1A6
330
185
100
AcDbEntity
  8
0
 62
     0
100
AcDbLine
 10
12.41538471448807
 20
10.85974979587767
 30
0.0
 11
12.98025020412232
 21
11.42461528551192
 31
0.0
  0
ENDBLK
  5
1A8
330
185
100
AcDbEntity
  8
0
100
AcDbBlockEnd
  0
BLOCK
  5
1B6
330
1A9
100
AcDbEntity
  8
0
100
AcDbBlockBegin
  2
A$C4
 70
     0
 10
0.0
 20
0.0
 30
0.0
  3
A$C4
  1

  0
TEXT
  5
1AA
330
1A9
100
AcDbEntity
  8
RAAMI
100
AcDbText
 10
-0.2441931095487746
 20
5.267359427125477
 30
0.0
 40
1.399999999999999
  1
PROJ
  7
ROMANS
100
AcDbText
  0
LINE
  5
1AB
330
1A9
100
AcDbEntity
  8
PISTKATK
  6
DASHDOT
100
AcDbLine
 10
17.71800043355263
 20
3.178515524645927
 30
0.0
 11
14.37542435577205
 21
3.178515524645927
 31
0.0
  0
CIRCLE
  5
1AC
330
1A9
100
AcDbEntity
  8
RAAMI
100
AcDbCircle
 10
17.71800043355263
 20
3.178515524645927
 30
0.0
 40
2.343653787115606
  0
LINE
  5
1AD
330
1A9
100
AcDbEntity
  8
PISTKATK
  6
DASHDOT
100
AcDbLine
 10
13.45279153821954
 20
3.183237031131845
 30
0.0
 11
6.216116927576166
 21
3.183237031131845
 31
0.0
  0
LINE
  5
1AE
330
1A9
100
AcDbEntity
  8
RAAMI
100
AcDbLine
 10
7.299073560640977
 20
2.028902184086533
 30
0.0
 11
12.30956819013314
 21
0.8745673370412134
 31
0.0
  0
LINE
  5
1AF
330
1A9
100
AcDbEntity
  8
RAAMI
100
AcDbLine
 10
12.30956819013314
 20
5.491906725222481
 30
0.0
 11
7.299073560640977
 21
4.222138393472636
 31
0.0
  0
LINE
  5
1B0
330
1A9
100
AcDbEntity
  8
RAAMI
100
AcDbLine
 10
7.299073560640977
 20
4.222138393472636
 30
0.0
 11
7.299073560640977
 21
2.028902184086533
 31
0.0
  0
LINE
  5
1B1
330
1A9
100
AcDbEntity
  8
RAAMI
100
AcDbLine
 10
12.30956819013314
 20
0.8745673370412134
 30
0.0
 11
12.30956819013314
 21
5.491906725222481
 31
0.0
  0
LINE
  5
1B2
330
1A9
100
AcDbEntity
  8
PISTKATK
  6
DASHDOT
100
AcDbLine
 10
17.71800043355263
 20
3.178515524645927
 30
0.0
 11
17.71800043355263
 21
0.021462716470495
 31
0.0
  0
LINE
  5
1B3
330
1A9
100
AcDbEntity
  8
PISTKATK
  6
DASHDOT
100
AcDbLine
 10
17.71800043355263
 20
3.178515524645927
 30
0.0
 11
17.71800043355263
 21
6.33556833282136
 31
0.0
  0
LINE
  5
1B4
330
1A9
100
AcDbEntity
  8
PISTKATK
  6
DASHDOT
100
AcDbLine
 10
17.71800043355263
 20
3.178515524645927
 30
0.0
 11
21.0605765113332
 21
3.178515524645927
 31
0.0
  0
CIRCLE
  5
1B5
330
1A9
100
AcDbEntity
  8
RAAMI
100
AcDbCircle
 10
17.71800043355263
 20
3.178515524645927
 30
0.0
 40
1.114664538372245
  0
ENDBLK
  5
1B7
330
1A9
100
AcDbEntity
  8
0
100
AcDbBlockEnd
  0
BLOCK
  5
220
330
1EE
100
AcDbEntity
  8
0
100
AcDbBlockBegin
  2
ABB3T
 70
     0
 10
0.0
 20
0.0
 30
0.0
  3
ABB3T
  1

  0
LINE
  5
1EF
330
1EE
100
AcDbEntity
  8
PAKSU
100
AcDbLine
 10
0.0
 20
0.0
 30
0.0
 11
0.0
 21
262.5
 31
0.0
  0
LINE
  5
1F0
330
1EE
100
AcDbEntity
  8
PAKSU
100
AcDbLine
 10
392.0
 20
262.5
 30
0.0
 11
392.0
 21
0.0
 31
0.0
  0
LINE
  5
1F1
330
1EE
100
AcDbEntity
  8
PAKSU
100
AcDbLine
 10
0.0
 20
0.0
 30
0.0
 11
392.0
 21
0.0
 31
0.0
  0
TEXT
  5
1F2
330
1EE
100
AcDbEntity
  8
RAAMI
100
AcDbText
 10
42.0
 20
0.9523809523809525
 30
0.0
 40
2.5
  1
B
  7
ROMANS
100
AcDbText
  0
TEXT
  5
1F3
330
1EE
100
AcDbEntity
  8
RAAMI
100
AcDbText
 10
42.0
 20
5.354421058643247
 30
0.0
 40
2.5
  1
C
  7
ROMANS
100
AcDbText
  0
TEXT
  5
1F4
330
1EE
100
AcDbEntity
  8
RAAMI
100
AcDbText
 10
229.5533819379557
 20
1.520147635064914
 30
0.0
 40
2.43
  1
ABB Substation Automation Oy
 41
0.8
  7
ROMANS
100
AcDbText
  0
TEXT
  5
1F5
330
1EE
100
AcDbEntity
  8
RAAMI
100
AcDbText
 10
283.9742533365683
 20
7.0
 30
0.0
 40
1.399999999999999
  1
OSASTO DEPT.
  7
ROMANS
100
AcDbText
  0
TEXT
  5
1F6
330
1EE
100
AcDbEntity
  8
RAAMI
100
AcDbText
 10
210.0
 20
32.0
 30
0.0
 40
1.399999999999999
  1
TEKI  PREPARED
  7
ROMANS
100
AcDbText
  0
LINE
  5
1F7
330
1EE
100
AcDbEntity
  8
OHUT
100
AcDbLine
 10
281.9742533365683
 20
9.5
 30
0.0
 11
281.9742533365683
 21
0.0
 31
0.0
  0
LINE
  5
1F8
330
1EE
100
AcDbEntity
  8
OHUT
100
AcDbLine
 10
257.0
 20
9.5
 30
0.0
 11
257.0
 21
35.0
 31
0.0
  0
LINE
  5
1F9
330
1EE
100
AcDbEntity
  8
OHUT
100
AcDbLine
 10
40.49999999999999
 20
4.5
 30
0.0
 11
209.0
 21
4.5
 31
0.0
  0
LINE
  5
1FA
330
1EE
100
AcDbEntity
  8
OHUT
100
AcDbLine
 10
46.5
 20
0.0
 30
0.0
 11
46.5
 21
9.0
 31
0.0
  0
LINE
  5
1FB
330
1EE
100
AcDbEntity
  8
OHUT
100
AcDbLine
 10
46.5
 20
9.0
 30
0.0
 11
209.0
 21
9.0
 31
0.0
  0
TEXT
  5
1FC
330
1EE
100
AcDbEntity
  8
RAAMI
100
AcDbText
 10
27.5
 20
2.233333333333334
 30
0.0
 40
1.399999999999999
  1
REVISION
  7
ROMANS
100
AcDbText
  0
TEXT
  5
1FD
330
1EE
100
AcDbEntity
  8
RAAMI
100
AcDbText
 10
27.5
 20
4.5
 30
0.0
 40
1.399999999999999
  1
MUUTOS
  7
ROMANS
100
AcDbText
  0
LINE
  5
1FE
330
1EE
100
AcDbEntity
  8
OHUT
100
AcDbLine
 10
282.0
 20
9.5
 30
0.0
 11
282.0
 21
18.0
 31
0.0
  0
LINE
  5
1FF
330
1EE
100
AcDbEntity
  8
RAAMI
100
AcDbLine
 10
209.9499999999999
 20
1.5
 30
0.0
 11
211.6999999999999
 21
1.5
 31
0.0
  0
LINE
  5
200
330
1EE
100
AcDbEntity
  8
OHUT
100
AcDbLine
 10
369.5
 20
18.0
 30
0.0
 11
369.5
 21
0.0
 31
0.0
  0
TEXT
  5
201
330
1EE
100
AcDbEntity
  8
RAAMI
100
AcDbText
 10
371.0
 20
7.0
 30
0.0
 40
1.399999999999999
  1
PAINOS  REVISION
  7
ROMANS
100
AcDbText
  0
TEXT
  5
202
330
1EE
100
AcDbEntity
  8
RAAMI
100
AcDbText
 10
309.0
 20
32.5
 30
0.0
 40
1.399999999999999
  1
NIMITYS  NAME
  7
ROMANS
100
AcDbText
  0
TEXT
  5
203
330
1EE
100
AcDbEntity
  8
RAAMI
100
AcDbText
 10
259.0
 20
15.5
 30
0.0
 40
1.399999999999999
  1
SUHDE  SCALE
  7
ROMANS
100
AcDbText
  0
TEXT
  5
204
330
1EE
100
AcDbEntity
  8
RAAMI
100
AcDbText
 10
259.0
 20
23.5
 30
0.0
 40
1.399999999999999
  1
TOLERANSSIT  TOLERANCES
  7
ROMANS
100
AcDbText
  0
TEXT
  5
205
330
1EE
100
AcDbEntity
  8
RAAMI
100
AcDbText
 10
259.0
 20
32.5
 30
0.0
 40
1.399999999999999
  1
LIITTYY  CONCERNING
  7
ROMANS
100
AcDbText
  0
LINE
  5
206
330
1EE
100
AcDbEntity
  8
OHUT
100
AcDbLine
 10
307.0
 20
0.0
 30
0.0
 11
307.0
 21
35.0
 31
0.0
  0
TEXT
  5
207
330
1EE
100
AcDbEntity
  8
RAAMI
100
AcDbText
 10
209.7428347258663
 20
15.46666666666666
 30
0.0
 40
1.399999999999999
  1
HYVÄKSYI  APPROVED
  7
ROMANS
100
AcDbText
  0
TEXT
  5
208
330
1EE
100
AcDbEntity
  8
RAAMI
100
AcDbText
 10
210.0
 20
23.73333333333333
 30
0.0
 40
1.399999999999999
  1
TARKASTI  CHECKED
  7
ROMANS
100
AcDbText
  0
LINE
  5
209
330
1EE
100
AcDbEntity
  8
PAKSU
100
AcDbLine
 10
209.0
 20
35.0
 30
0.0
 11
392.0
 21
35.0
 31
0.0
  0
LINE
  5
20A
330
1EE
100
AcDbEntity
  8
OHUT
100
AcDbLine
 10
209.0
 20
26.5
 30
0.0
 11
307.0
 21
26.5
 31
0.0
  0
LINE
  5
20B
330
1EE
100
AcDbEntity
  8
OHUT
100
AcDbLine
 10
209.0
 20
9.5
 30
0.0
 11
392.0
 21
9.5
 31
0.0
  0
LINE
  5
20C
330
1EE
100
AcDbEntity
  8
OHUT
100
AcDbLine
 10
209.0
 20
18.0
 30
0.0
 11
392.0
 21
18.0
 31
0.0
  0
LINE
  5
20D
330
1EE
100
AcDbEntity
  8
PAKSU
100
AcDbLine
 10
392.0
 20
0.0
 30
0.0
 11
392.0
 21
35.0
 31
0.0
  0
LINE
  5
20E
330
1EE
100
AcDbEntity
  8
PAKSU
100
AcDbLine
 10
209.0
 20
0.0
 30
0.0
 11
209.0
 21
35.0
 31
0.0
  0
LINE
  5
20F
330
1EE
100
AcDbEntity
  8
PAKSU
100
AcDbLine
 10
209.0
 20
0.0
 30
0.0
 11
392.0
 21
0.0
 31
0.0
  0
LINE
  5
210
330
1EE
100
AcDbEntity
  8
PAKSU
100
AcDbLine
 10
0.0
 20
262.5
 30
0.0
 11
392.0
 21
262.5
 31
0.0
  0
TEXT
  5
211
330
1EE
100
AcDbEntity
  8
RAAMI
100
AcDbText
 10
309.0
 20
7.0
 30
0.0
 40
1.399999999999999
  1
PIIRUSTUS NO  DRAWING NO
  7
ROMANS
100
AcDbText
  0
INSERT
  5
212
330
1EE
100
AcDbEntity
  8
RAAMI
100
AcDbBlockReference
  2
LOGO
 10
209.0
 20
-9.0
 30
0.0
  0
TEXT
  5
213
330
1EE
100
AcDbEntity
  8
RAAMI
100
AcDbText
 10
283.5548252099439
 20
15.50096600065329
 30
0.0
 40
1.399999999999999
  1
PROJ
  7
ROMANS
100
AcDbText
  0
LINE
  5
214
330
1EE
100
AcDbEntity
  8
RAAMI
  6
DASHDOT
100
AcDbLine
 10
301.5170187530453
 20
13.41212209817375
 30
0.0
 11
298.1744426752647
 21
13.41212209817375
 31
0.0
  0
CIRCLE
  5
215
330
1EE
100
AcDbEntity
  8
RAAMI
100
AcDbCircle
 10
301.5170187530453
 20
13.41212209817375
 30
0.0
 40
2.343653787115606
  0
LINE
  5
216
330
1EE
100
AcDbEntity
  8
RAAMI
  6
DASHDOT
100
AcDbLine
 10
297.2518098577122
 20
13.41684360465966
 30
0.0
 11
290.0151352470688
 21
13.41684360465966
 31
0.0
  0
LINE
  5
217
330
1EE
100
AcDbEntity
  8
RAAMI
100
AcDbLine
 10
291.0980918801336
 20
12.26250875761435
 30
0.0
 11
296.1085865096258
 21
11.10817391056903
 31
0.0
  0
LINE
  5
218
330
1EE
100
AcDbEntity
  8
RAAMI
100
AcDbLine
 10
296.1085865096258
 20
15.7255132987503
 30
0.0
 11
291.0980918801336
 21
14.45574496700046
 31
0.0
  0
LINE
  5
219
330
1EE
100
AcDbEntity
  8
RAAMI
100
AcDbLine
 10
291.0980918801336
 20
14.45574496700046
 30
0.0
 11
291.0980918801336
 21
12.26250875761435
 31
0.0
  0
LINE
  5
21A
330
1EE
100
AcDbEntity
  8
RAAMI
100
AcDbLine
 10
296.1085865096258
 20
11.10817391056903
 30
0.0
 11
296.1085865096258
 21
15.7255132987503
 31
0.0
  0
LINE
  5
21B
330
1EE
100
AcDbEntity
  8
RAAMI
  6
DASHDOT
100
AcDbLine
 10
301.5170187530453
 20
13.41212209817375
 30
0.0
 11
301.5170187530453
 21
10.25506928999831
 31
0.0
  0
LINE
  5
21C
330
1EE
100
AcDbEntity
  8
RAAMI
  6
DASHDOT
100
AcDbLine
 10
301.5170187530453
 20
13.41212209817375
 30
0.0
 11
301.5170187530453
 21
16.56917490634918
 31
0.0
  0
LINE
  5
21D
330
1EE
100
AcDbEntity
  8
RAAMI
  6
DASHDOT
100
AcDbLine
 10
301.5170187530453
 20
13.41212209817375
 30
0.0
 11
304.8595948308259
 21
13.41212209817375
 31
0.0
  0
CIRCLE
  5
21E
330
1EE
100
AcDbEntity
  8
RAAMI
100
AcDbCircle
 10
301.5170187530453
 20
13.41212209817375
 30
0.0
 40
1.114664538372245
  0
TEXT
  5
21F
330
1EE
100
AcDbEntity
  8
RAAMI
100
AcDbText
 10
371.0
 20
15.05846792701606
 30
0.0
 40
1.399999999999999
  1
LEHTI   SHEET
  7
ROMANS
100
AcDbText
  0
ENDBLK
  5
221
330
1EE
100
AcDbEntity
  8
0
100
AcDbBlockEnd
  0
BLOCK
  5
843
330
83F
100
AcDbEntity
  8
0
100
AcDbBlockBegin
  2
COPYRIGHT
 70
     0
 10
0.0
 20
0.0
 30
0.0
  3
COPYRIGHT
  1

  0
MTEXT
  5
840
330
83F
100
AcDbEntity
  8
OHUTVIIVA
100
AcDbMText
 10
-7.069100515778472
 20
0.2480355719440013
 30
0.0
 40
1.5
 41
709.4787
 71
     1
 72
     5
  1
We reserve all rights in this document and in the information contained therein. Reproduction, use or disclosure to third parties without express authority is strictly forbidden.   ABB Oy.
  7
ROMANS
 11
0.0000000000000001
 21
1.0
 31
0.0
 73
     1
 44
1.0
  0
TEXT
  5
841
330
83F
100
AcDbEntity
  8
OHUTVIIVA
100
AcDbText
 10
-5.528396371740242
 20
211.2153781608921
 30
0.0
 40
1.5
  1
C
 50
90.0
  7
ROMANS
100
AcDbText
  0
CIRCLE
  5
842
330
83F
100
AcDbEntity
  8
OHUTVIIVA
100
AcDbCircle
 10
-6.306905249304691
 20
212.0403355111974
 30
0.0
 40
1.359729291186732
  0
ENDBLK
  5
844
330
83F
100
AcDbEntity
  8
0
100
AcDbBlockEnd
  0
ENDSEC
  0
SECTION
  2
ENTITIES
  0
TEXT
  5
366
330
1F
100
AcDbEntity
  8
TEXT25
100
AcDbText
 10
73.6904761904762
 20
190.0
 30
0.0
 40
2.5
  1
REF541_ _115AAAA/BAAA/CAAA
 50
90.0
 41
0.7
  7
T25
100
AcDbText
  0
TEXT
  5
367
330
1F
100
AcDbEntity
  8
TEXT25
100
AcDbText
 10
79.73809523809524
 20
190.0
 30
0.0
 40
2.5
  1
REF541_ _115AABA/BABA/CABA
 50
90.0
 41
0.7
  7
T25
100
AcDbText
  0
TEXT
  5
36C
330
1F
100
AcDbEntity
  8
TEXT25
100
AcDbText
 10
97.47619047619043
 20
190.0
 30
0.0
 40
2.5
  1
REF541_ _118AAAA/BAAA/CAAA
 50
90.0
 41
0.7
  7
T25
100
AcDbText
  0
TEXT
  5
36D
330
1F
100
AcDbEntity
  8
TEXT25
100
AcDbText
 10
103.5238095238094
 20
190.0
 30
0.0
 40
2.5
  1
REF541_ _118AABA/BABA/CABA
 50
90.0
 41
0.7
  7
T25
100
AcDbText
  0
LINE
  5
36E
330
1F
100
AcDbEntity
  8
TEXT25
100
AcDbLine
 10
31.0
 20
236.5323111311459
 30
0.0
 11
31.0
 21
111.0
 31
0.0
  0
TEXT
  5
381
330
1F
100
AcDbEntity
  8
TEXT25
100
AcDbText
 10
126.2857142857142
 20
190.0
 30
0.0
 40
2.5
  1
REF543_ _127AAAA/BAAA/CAAA
 50
90.0
 41
0.7
  7
T25
100
AcDbText
  0
TEXT
  5
382
330
1F
100
AcDbEntity
  8
TEXT25
100
AcDbText
 10
132.3333333333333
 20
190.0
 30
0.0
 40
2.5
  1
REF543_ _127AABA/BABA/CABA
 50
90.0
 41
0.7
  7
T25
100
AcDbText
  0
TEXT
  5
38A
330
1F
100
AcDbEntity
  8
TEXT25
100
AcDbText
 10
150.4761904761904
 20
190.0
 30
0.0
 40
2.5
  1
REF543_ _129AAAA/BAAA/CAAA
 50
90.0
 41
0.7
  7
T25
100
AcDbText
  0
TEXT
  5
38B
330
1F
100
AcDbEntity
  8
TEXT25
100
AcDbText
 10
156.0238095238094
 20
190.0
 30
0.0
 40
2.5
  1
REF543_ _129AABA/BABA/CABA
 50
90.0
 41
0.7
  7
T25
100
AcDbText
  0
TEXT
  5
38F
330
1F
100
AcDbEntity
  8
TEXT25
100
AcDbText
 10
185.0238095238094
 20
190.0
 30
0.0
 40
2.5
  1
REF545_ _133AABA/BABA/CABA
 50
90.0
 41
0.7
  7
T25
100
AcDbText
  0
TEXT
  5
390
330
1F
100
AcDbEntity
  8
TEXT25
100
AcDbText
 10
179.4761904761904
 20
190.0
 30
0.0
 40
2.5
  1
REF545_ _133AAAA/BAAA/CAAA
 50
90.0
 41
0.7
  7
T25
100
AcDbText
  0
LINE
  5
392
330
1F
100
AcDbEntity
  8
TEXT25
100
AcDbLine
 10
31.0
 20
236.5323111311459
 30
0.0
 11
218.5
 21
236.5323111311459
 31
0.0
  0
LINE
  5
393
330
1F
100
AcDbEntity
  8
TEXT25
100
AcDbLine
 10
31.0
 20
188.0
 30
0.0
 11
218.5
 21
188.0
 31
0.0
  0
LINE
  5
394
330
1F
100
AcDbEntity
  8
TEXT25
100
AcDbLine
 10
68.5
 20
228.5
 30
0.0
 11
68.5
 21
111.0
 31
0.0
  0
LINE
  5
395
330
1F
100
AcDbEntity
  8
TEXT25
100
AcDbLine
 10
74.5
 20
228.5
 30
0.0
 11
74.5
 21
111.0
 31
0.0
  0
LINE
  5
396
330
1F
100
AcDbEntity
  8
TEXT25
100
AcDbLine
 10
80.5
 20
228.5
 30
0.0
 11
80.5
 21
111.0
 31
0.0
  0
LINE
  5
398
330
1F
100
AcDbEntity
  8
TEXT25
100
AcDbLine
 10
98.50000000000001
 20
228.5
 30
0.0
 11
98.50000000000001
 21
111.0
 31
0.0
  0
LINE
  5
39A
330
1F
100
AcDbEntity
  8
TEXT25
100
AcDbLine
 10
121.5
 20
228.5
 30
0.0
 11
121.5
 21
111.0
 31
0.0
  0
LINE
  5
39B
330
1F
100
AcDbEntity
  8
TEXT25
100
AcDbLine
 10
127.5
 20
228.5
 30
0.0
 11
127.5
 21
111.0
 31
0.0
  0
LINE
  5
39C
330
1F
100
AcDbEntity
  8
TEXT25
100
AcDbLine
 10
133.4999999999999
 20
228.5
 30
0.0
 11
133.4999999999999
 21
111.0
 31
0.0
  0
LINE
  5
39E
330
1F
100
AcDbEntity
  8
TEXT25
100
AcDbLine
 10
151.5
 20
228.5
 30
0.0
 11
151.5
 21
111.0
 31
0.0
  0
LINE
  5
3A0
330
1F
100
AcDbEntity
  8
TEXT25
100
AcDbLine
 10
174.5
 20
228.5
 30
0.0
 11
174.5
 21
111.0
 31
0.0
  0
LINE
  5
3A1
330
1F
100
AcDbEntity
  8
TEXT25
100
AcDbLine
 10
180.4999999999999
 20
228.5
 30
0.0
 11
180.4999999999999
 21
111.0
 31
0.0
  0
LINE
  5
3A2
330
1F
100
AcDbEntity
  8
TEXT25
100
AcDbLine
 10
186.5
 20
228.5
 30
0.0
 11
186.5
 21
111.0
 31
0.0
  0
LINE
  5
3AD
330
1F
100
AcDbEntity
  8
TEXT25
100
AcDbLine
 10
31.0
 20
181.0
 30
0.0
 11
198.5
 21
181.0
 31
0.0
  0
LINE
  5
3AE
330
1F
100
AcDbEntity
  8
TEXT25
100
AcDbLine
 10
41.5
 20
171.0
 30
0.0
 11
198.5
 21
171.0
 31
0.0
  0
LINE
  5
3AF
330
1F
100
AcDbEntity
  8
TEXT25
100
AcDbLine
 10
41.5
 20
166.0
 30
0.0
 11
198.5
 21
166.0
 31
0.0
  0
LINE
  5
3B0
330
1F
100
AcDbEntity
  8
TEXT25
100
AcDbLine
 10
41.5
 20
161.0
 30
0.0
 11
198.5
 21
161.0
 31
0.0
  0
TEXT
  5
3B1
330
1F
100
AcDbEntity
  8
TEXT25
100
AcDbText
 10
34.0
 20
164.4170981254659
 30
0.0
 40
2.5
  1
MIM
 41
0.7
  7
T25
100
AcDbText
  0
TEXT
  5
3B2
330
1F
100
AcDbEntity
  8
TEXT25
100
AcDbText
 10
43.0
 20
171.8694790778469
 30
0.0
 40
2.5
  1
CT  1/5 A
 41
0.7
  7
T25
100
AcDbText
  0
TEXT
  5
3B3
330
1F
100
AcDbEntity
  8
TEXT25
100
AcDbText
 10
43.0
 20
166.8218600302278
 30
0.0
 40
2.5
  1
CT  0.2/1 A
 41
0.7
  7
T25
100
AcDbText
  0
TEXT
  5
3B4
330
1F
100
AcDbEntity
  8
TEXT25
100
AcDbText
 10
43.0
 20
161.7742409826088
 30
0.0
 40
2.5
  1
VT  100V
 41
0.7
  7
T25
100
AcDbText
  0
TEXT
  5
3B5
330
1F
100
AcDbEntity
  8
TEXT25
100
AcDbText
 10
43.0
 20
156.7266219349898
 30
0.0
 40
2.5
  1
Sensor Inputs
 41
0.7
  7
T25
100
AcDbText
  0
LINE
  5
3B6
330
1F
100
AcDbEntity
  8
TEXT25
100
AcDbLine
 10
31.0
 20
156.0
 30
0.0
 11
198.5
 21
156.0
 31
0.0
  0
LINE
  5
3B7
330
1F
100
AcDbEntity
  8
TEXT25
100
AcDbLine
 10
41.5
 20
176.0
 30
0.0
 11
41.5
 21
156.0
 31
0.0
  0
LINE
  5
3C2
330
1F
100
AcDbEntity
  8
TEXT25
100
AcDbLine
 10
31.0
 20
151.0
 30
0.0
 11
218.5
 21
151.0
 31
0.0
  0
LINE
  5
3C3
330
1F
100
AcDbEntity
  8
TEXT25
100
AcDbLine
 10
31.0
 20
146.0
 30
0.0
 11
218.5
 21
146.0
 31
0.0
  0
LINE
  5
3C4
330
1F
100
AcDbEntity
  8
TEXT25
100
AcDbLine
 10
31.0
 20
141.0
 30
0.0
 11
218.5
 21
141.0
 31
0.0
  0
LINE
  5
3C5
330
1F
100
AcDbEntity
  8
TEXT25
100
AcDbLine
 10
31.0
 20
136.0
 30
0.0
 11
218.5
 21
136.0
 31
0.0
  0
LINE
  5
3C6
330
1F
100
AcDbEntity
  8
TEXT25
100
AcDbLine
 10
31.0
 20
131.0
 30
0.0
 11
218.5
 21
131.0
 31
0.0
  0
LINE
  5
3C7
330
1F
100
AcDbEntity
  8
TEXT25
100
AcDbLine
 10
31.0
 20
126.0
 30
0.0
 11
218.5
 21
126.0
 31
0.0
  0
LINE
  5
3C8
330
1F
100
AcDbEntity
  8
TEXT25
100
AcDbLine
 10
31.0
 20
121.0
 30
0.0
 11
218.5
 21
121.0
 31
0.0
  0
LINE
  5
3C9
330
1F
100
AcDbEntity
  8
TEXT25
100
AcDbLine
 10
31.0
 20
116.0
 30
0.0
 11
218.5
 21
116.0
 31
0.0
  0
TEXT
  5
3CC
330
1F
100
AcDbEntity
  8
TEXT25
100
AcDbText
 10
34.0
 20
141.9170981254659
 30
0.0
 40
2.5
  1
PS1
 41
0.7
  7
T25
100
AcDbText
  0
TEXT
  5
3CD
330
1F
100
AcDbEntity
  8
TEXT25
100
AcDbText
 10
34.0
 20
131.7372063273517
 30
0.0
 40
2.5
  1
BIO1
 41
0.7
  7
T25
100
AcDbText
  0
TEXT
  5
3CE
330
1F
100
AcDbEntity
  8
TEXT25
100
AcDbText
 10
34.0
 20
126.7372063273517
 30
0.0
 40
2.5
  1
BIO2
 41
0.7
  7
T25
100
AcDbText
  0
TEXT
  5
3CF
330
1F
100
AcDbEntity
  8
TEXT25
100
AcDbText
 10
34.0
 20
121.7372063273517
 30
0.0
 40
2.5
  1
RTD1
 41
0.7
  7
T25
100
AcDbText
  0
TEXT
  5
3D0
330
1F
100
AcDbEntity
  8
TEXT25
100
AcDbText
 10
34.0
 20
136.7372063273517
 30
0.0
 40
2.5
  1
PS2
 41
0.7
  7
T25
100
AcDbText
  0
TEXT
  5
3D9
330
1F
100
AcDbEntity
  8
TEXT25
100
AcDbText
 10
70.5
 20
171.0
 30
0.0
 40
2.5
  1
4
 41
0.9
  7
T25
100
AcDbText
  0
TEXT
  5
3DA
330
1F
100
AcDbEntity
  8
TEXT25
100
AcDbText
 10
76.5
 20
171.0
 30
0.0
 40
2.5
  1
4
 41
0.9
  7
T25
100
AcDbText
  0
TEXT
  5
3DF
330
1F
100
AcDbEntity
  8
TEXT25
100
AcDbText
 10
95.0
 20
171.0
 30
0.0
 40
2.5
  1
4
 41
0.9
  7
T25
100
AcDbText
  0
TEXT
  5
3E0
330
1F
100
AcDbEntity
  8
TEXT25
100
AcDbText
 10
100.5
 20
171.0
 30
0.0
 40
2.5
  1
4
 41
0.9
  7
T25
100
AcDbText
  0
TEXT
  5
3E3
330
1F
100
AcDbEntity
  8
TEXT25
100
AcDbText
 10
123.5
 20
171.0
 30
0.0
 40
2.5
  1
4
 41
0.9
  7
T25
100
AcDbText
  0
TEXT
  5
3E4
330
1F
100
AcDbEntity
  8
TEXT25
100
AcDbText
 10
129.4999999999999
 20
171.0
 30
0.0
 40
2.5
  1
4
 41
0.9
  7
T25
100
AcDbText
  0
TEXT
  5
3E7
330
1F
100
AcDbEntity
  8
TEXT25
100
AcDbText
 10
147.5
 20
171.0
 30
0.0
 40
2.5
  1
4
 41
0.9
  7
T25
100
AcDbText
  0
TEXT
  5
3E8
330
1F
100
AcDbEntity
  8
TEXT25
100
AcDbText
 10
153.5
 20
171.0
 30
0.0
 40
2.5
  1
4
 41
0.9
  7
T25
100
AcDbText
  0
TEXT
  5
3E9
330
1F
100
AcDbEntity
  8
TEXT25
100
AcDbText
 10
176.5
 20
171.0
 30
0.0
 40
2.5
  1
4
 41
0.9
  7
T25
100
AcDbText
  0
TEXT
  5
3EA
330
1F
100
AcDbEntity
  8
TEXT25
100
AcDbText
 10
182.5
 20
171.0
 30
0.0
 40
2.5
  1
4
 41
0.9
  7
T25
100
AcDbText
  0
TEXT
  5
3EC
330
1F
100
AcDbEntity
  8
TEXT25
100
AcDbText
 10
70.5
 20
166.0
 30
0.0
 40
2.5
  1
1
 41
0.9
  7
T25
100
AcDbText
  0
TEXT
  5
3ED
330
1F
100
AcDbEntity
  8
TEXT25
100
AcDbText
 10
76.5
 20
166.0
 30
0.0
 40
2.5
  1
1
 41
0.9
  7
T25
100
AcDbText
  0
TEXT
  5
3F0
330
1F
100
AcDbEntity
  8
TEXT25
100
AcDbText
 10
95.0
 20
166.0
 30
0.0
 40
2.5
  1
1
 41
0.9
  7
T25
100
AcDbText
  0
TEXT
  5
3F1
330
1F
100
AcDbEntity
  8
TEXT25
100
AcDbText
 10
100.5
 20
166.0
 30
0.0
 40
2.5
  1
1
 41
0.9
  7
T25
100
AcDbText
  0
TEXT
  5
3F4
330
1F
100
AcDbEntity
  8
TEXT25
100
AcDbText
 10
123.5
 20
166.0
 30
0.0
 40
2.5
  1
1
 41
0.9
  7
T25
100
AcDbText
  0
TEXT
  5
3F5
330
1F
100
AcDbEntity
  8
TEXT25
100
AcDbText
 10
129.4999999999999
 20
166.0
 30
0.0
 40
2.5
  1
1
 41
0.9
  7
T25
100
AcDbText
  0
TEXT
  5
3F8
330
1F
100
AcDbEntity
  8
TEXT25
100
AcDbText
 10
147.5
 20
166.0
 30
0.0
 40
2.5
  1
1
 41
0.9
  7
T25
100
AcDbText
  0
TEXT
  5
3F9
330
1F
100
AcDbEntity
  8
TEXT25
100
AcDbText
 10
153.5
 20
166.0
 30
0.0
 40
2.5
  1
1
 41
0.9
  7
T25
100
AcDbText
  0
TEXT
  5
3FA
330
1F
100
AcDbEntity
  8
TEXT25
100
AcDbText
 10
176.5
 20
166.0
 30
0.0
 40
2.5
  1
1
 41
0.9
  7
T25
100
AcDbText
  0
TEXT
  5
3FB
330
1F
100
AcDbEntity
  8
TEXT25
100
AcDbText
 10
182.5
 20
166.0
 30
0.0
 40
2.5
  1
1
 41
0.9
  7
T25
100
AcDbText
  0
TEXT
  5
3FF
330
1F
100
AcDbEntity
  8
TEXT25
100
AcDbText
 10
76.5
 20
161.0
 30
0.0
 40
2.5
  1
4
 41
0.9
  7
T25
100
AcDbText
  0
TEXT
  5
400
330
1F
100
AcDbEntity
  8
TEXT25
100
AcDbText
 10
70.5
 20
161.0
 30
0.0
 40
2.5
  1
4
 41
0.9
  7
T25
100
AcDbText
  0
TEXT
  5
401
330
1F
100
AcDbEntity
  8
TEXT25
100
AcDbText
 10
95.0
 20
161.0
 30
0.0
 40
2.5
  1
4
 41
0.9
  7
T25
100
AcDbText
  0
TEXT
  5
402
330
1F
100
AcDbEntity
  8
TEXT25
100
AcDbText
 10
100.5
 20
161.0
 30
0.0
 40
2.5
  1
4
 41
0.9
  7
T25
100
AcDbText
  0
TEXT
  5
405
330
1F
100
AcDbEntity
  8
TEXT25
100
AcDbText
 10
123.5
 20
161.0
 30
0.0
 40
2.5
  1
4
 41
0.9
  7
T25
100
AcDbText
  0
TEXT
  5
406
330
1F
100
AcDbEntity
  8
TEXT25
100
AcDbText
 10
129.4999999999999
 20
161.0
 30
0.0
 40
2.5
  1
4
 41
0.9
  7
T25
100
AcDbText
  0
TEXT
  5
407
330
1F
100
AcDbEntity
  8
TEXT25
100
AcDbText
 10
147.5
 20
161.0
 30
0.0
 40
2.5
  1
4
 41
0.9
  7
T25
100
AcDbText
  0
TEXT
  5
408
330
1F
100
AcDbEntity
  8
TEXT25
100
AcDbText
 10
153.5
 20
161.0
 30
0.0
 40
2.5
  1
4
 41
0.9
  7
T25
100
AcDbText
  0
TEXT
  5
40B
330
1F
100
AcDbEntity
  8
TEXT25
100
AcDbText
 10
176.5
 20
161.0
 30
0.0
 40
2.5
  1
4
 41
0.9
  7
T25
100
AcDbText
  0
TEXT
  5
40C
330
1F
100
AcDbEntity
  8
TEXT25
100
AcDbText
 10
182.5
 20
161.0
 30
0.0
 40
2.5
  1
4
 41
0.9
  7
T25
100
AcDbText
  0
TEXT
  5
40F
330
1F
100
AcDbEntity
  8
TEXT25
100
AcDbText
 10
34.0
 20
146.9170981254659
 30
0.0
 40
2.5
  1
CPU
 41
0.7
  7
T25
100
AcDbText
  0
TEXT
  5
41C
330
1F
100
AcDbEntity
  8
TEXT25
100
AcDbText
 10
70.5
 20
146.0
 30
0.0
 40
2.5
  1
1
 41
0.9
  7
T25
100
AcDbText
  0
TEXT
  5
41D
330
1F
100
AcDbEntity
  8
TEXT25
100
AcDbText
 10
70.5
 20
141.0
 30
0.0
 40
2.5
  1
1
 41
0.9
  7
T25
100
AcDbText
  0
TEXT
  5
41E
330
1F
100
AcDbEntity
  8
TEXT25
100
AcDbText
 10
70.5
 20
131.0
 30
0.0
 40
2.5
  1
1
 41
0.9
  7
T25
100
AcDbText
  0
TEXT
  5
41F
330
1F
100
AcDbEntity
  8
TEXT25
100
AcDbText
 10
77.0
 20
146.0
 30
0.0
 40
2.5
  1
1
 41
0.9
  7
T25
100
AcDbText
  0
TEXT
  5
420
330
1F
100
AcDbEntity
  8
TEXT25
100
AcDbText
 10
77.0
 20
141.0
 30
0.0
 40
2.5
  1
1
 41
0.9
  7
T25
100
AcDbText
  0
TEXT
  5
421
330
1F
100
AcDbEntity
  8
TEXT25
100
AcDbText
 10
77.0
 20
131.0
 30
0.0
 40
2.5
  1
1
 41
0.9
  7
T25
100
AcDbText
  0
TEXT
  5
42E
330
1F
100
AcDbEntity
  8
TEXT25
100
AcDbText
 10
94.50000000000001
 20
146.0
 30
0.0
 40
2.5
  1
1
 41
0.9
  7
T25
100
AcDbText
  0
TEXT
  5
42F
330
1F
100
AcDbEntity
  8
TEXT25
100
AcDbText
 10
94.50000000000001
 20
141.0
 30
0.0
 40
2.5
  1
1
 41
0.9
  7
T25
100
AcDbText
  0
TEXT
  5
430
330
1F
100
AcDbEntity
  8
TEXT25
100
AcDbText
 10
94.50000000000001
 20
131.0
 30
0.0
 40
2.5
  1
1
 41
0.9
  7
T25
100
AcDbText
  0
TEXT
  5
431
330
1F
100
AcDbEntity
  8
TEXT25
100
AcDbText
 10
100.5
 20
146.0
 30
0.0
 40
2.5
  1
1
 41
0.9
  7
T25
100
AcDbText
  0
TEXT
  5
432
330
1F
100
AcDbEntity
  8
TEXT25
100
AcDbText
 10
100.5
 20
141.0
 30
0.0
 40
2.5
  1
1
 41
0.9
  7
T25
100
AcDbText
  0
TEXT
  5
433
330
1F
100
AcDbEntity
  8
TEXT25
100
AcDbText
 10
100.5
 20
131.0
 30
0.0
 40
2.5
  1
1
 41
0.9
  7
T25
100
AcDbText
  0
TEXT
  5
43A
330
1F
100
AcDbEntity
  8
TEXT25
100
AcDbText
 10
123.5
 20
146.0
 30
0.0
 40
2.5
  1
1
 41
0.9
  7
T25
100
AcDbText
  0
TEXT
  5
43B
330
1F
100
AcDbEntity
  8
TEXT25
100
AcDbText
 10
123.5
 20
141.0
 30
0.0
 40
2.5
  1
1
 41
0.9
  7
T25
100
AcDbText
  0
TEXT
  5
43C
330
1F
100
AcDbEntity
  8
TEXT25
100
AcDbText
 10
123.5
 20
131.0
 30
0.0
 40
2.5
  1
1
 41
0.9
  7
T25
100
AcDbText
  0
TEXT
  5
43D
330
1F
100
AcDbEntity
  8
TEXT25
100
AcDbText
 10
129.4999999999999
 20
146.0
 30
0.0
 40
2.5
  1
1
 41
0.9
  7
T25
100
AcDbText
  0
TEXT
  5
43E
330
1F
100
AcDbEntity
  8
TEXT25
100
AcDbText
 10
129.4999999999999
 20
141.0
 30
0.0
 40
2.5
  1
1
 41
0.9
  7
T25
100
AcDbText
  0
TEXT
  5
43F
330
1F
100
AcDbEntity
  8
TEXT25
100
AcDbText
 10
129.4999999999999
 20
131.0
 30
0.0
 40
2.5
  1
1
 41
0.9
  7
T25
100
AcDbText
  0
TEXT
  5
446
330
1F
100
AcDbEntity
  8
TEXT25
100
AcDbText
 10
147.5
 20
146.0
 30
0.0
 40
2.5
  1
1
 41
0.9
  7
T25
100
AcDbText
  0
TEXT
  5
447
330
1F
100
AcDbEntity
  8
TEXT25
100
AcDbText
 10
147.5
 20
141.0
 30
0.0
 40
2.5
  1
1
 41
0.9
  7
T25
100
AcDbText
  0
TEXT
  5
448
330
1F
100
AcDbEntity
  8
TEXT25
100
AcDbText
 10
147.5
 20
131.0
 30
0.0
 40
2.5
  1
1
 41
0.9
  7
T25
100
AcDbText
  0
TEXT
  5
449
330
1F
100
AcDbEntity
  8
TEXT25
100
AcDbText
 10
153.5
 20
146.0
 30
0.0
 40
2.5
  1
1
 41
0.9
  7
T25
100
AcDbText
  0
TEXT
  5
44A
330
1F
100
AcDbEntity
  8
TEXT25
100
AcDbText
 10
153.5
 20
141.0
 30
0.0
 40
2.5
  1
1
 41
0.9
  7
T25
100
AcDbText
  0
TEXT
  5
44B
330
1F
100
AcDbEntity
  8
TEXT25
100
AcDbText
 10
153.5
 20
131.0
 30
0.0
 40
2.5
  1
1
 41
0.9
  7
T25
100
AcDbText
  0
TEXT
  5
44C
330
1F
100
AcDbEntity
  8
TEXT25
100
AcDbText
 10
176.5
 20
146.0
 30
0.0
 40
2.5
  1
1
 41
0.9
  7
T25
100
AcDbText
  0
TEXT
  5
44D
330
1F
100
AcDbEntity
  8
TEXT25
100
AcDbText
 10
176.5
 20
136.4999999999999
 30
0.0
 40
2.5
  1
1
 41
0.9
  7
T25
100
AcDbText
  0
TEXT
  5
44E
330
1F
100
AcDbEntity
  8
TEXT25
100
AcDbText
 10
176.5
 20
131.0
 30
0.0
 40
2.5
  1
2
 41
0.9
  7
T25
100
AcDbText
  0
TEXT
  5
44F
330
1F
100
AcDbEntity
  8
TEXT25
100
AcDbText
 10
182.5
 20
146.0
 30
0.0
 40
2.5
  1
1
 41
0.9
  7
T25
100
AcDbText
  0
TEXT
  5
450
330
1F
100
AcDbEntity
  8
TEXT25
100
AcDbText
 10
182.5
 20
136.4999999999999
 30
0.0
 40
2.5
  1
1
 41
0.9
  7
T25
100
AcDbText
  0
TEXT
  5
451
330
1F
100
AcDbEntity
  8
TEXT25
100
AcDbText
 10
182.5
 20
131.0
 30
0.0
 40
2.5
  1
2
 41
0.9
  7
T25
100
AcDbText
  0
TEXT
  5
45E
330
1F
100
AcDbEntity
  8
TEXT25
100
AcDbText
 10
94.50000000000001
 20
121.0
 30
0.0
 40
2.5
  1
1
 41
0.9
  7
T25
100
AcDbText
  0
TEXT
  5
45F
330
1F
100
AcDbEntity
  8
TEXT25
100
AcDbText
 10
100.5
 20
121.0
 30
0.0
 40
2.5
  1
1
 41
0.9
  7
T25
100
AcDbText
  0
TEXT
  5
462
330
1F
100
AcDbEntity
  8
TEXT25
100
AcDbText
 10
147.5
 20
121.0
 30
0.0
 40
2.5
  1
1
 41
0.9
  7
T25
100
AcDbText
  0
TEXT
  5
463
330
1F
100
AcDbEntity
  8
TEXT25
100
AcDbText
 10
153.5
 20
121.0
 30
0.0
 40
2.5
  1
1
 41
0.9
  7
T25
100
AcDbText
  0
TEXT
  5
466
330
1F
100
AcDbEntity
  8
TEXT25
100
AcDbText
 10
123.5
 20
126.0
 30
0.0
 40
2.5
  1
1
 41
0.9
  7
T25
100
AcDbText
  0
TEXT
  5
467
330
1F
100
AcDbEntity
  8
TEXT25
100
AcDbText
 10
129.4999999999999
 20
126.0
 30
0.0
 40
2.5
  1
1
 41
0.9
  7
T25
100
AcDbText
  0
TEXT
  5
46A
330
1F
100
AcDbEntity
  8
TEXT25
100
AcDbText
 10
147.5
 20
126.0
 30
0.0
 40
2.5
  1
1
 41
0.9
  7
T25
100
AcDbText
  0
TEXT
  5
46B
330
1F
100
AcDbEntity
  8
TEXT25
100
AcDbText
 10
153.5
 20
126.0
 30
0.0
 40
2.5
  1
1
 41
0.9
  7
T25
100
AcDbText
  0
TEXT
  5
46C
330
1F
100
AcDbEntity
  8
TEXT25
100
AcDbText
 10
176.5
 20
126.0
 30
0.0
 40
2.5
  1
1
 41
0.9
  7
T25
100
AcDbText
  0
TEXT
  5
46D
330
1F
100
AcDbEntity
  8
TEXT25
100
AcDbText
 10
182.5
 20
126.0
 30
0.0
 40
2.5
  1
1
 41
0.9
  7
T25
100
AcDbText
  0
TEXT
  5
46F
330
1F
100
AcDbEntity
  8
TEXT25
100
AcDbText
 10
76.5
 20
156.0
 30
0.0
 40
2.5
  1
9
 41
0.9
  7
T25
100
AcDbText
  0
TEXT
  5
472
330
1F
100
AcDbEntity
  8
TEXT25
100
AcDbText
 10
100.5
 20
156.0
 30
0.0
 40
2.5
  1
9
 41
0.9
  7
T25
100
AcDbText
  0
TEXT
  5
474
330
1F
100
AcDbEntity
  8
TEXT25
100
AcDbText
 10
129.4999999999999
 20
156.0
 30
0.0
 40
2.5
  1
9
 41
0.9
  7
T25
100
AcDbText
  0
TEXT
  5
476
330
1F
100
AcDbEntity
  8
TEXT25
100
AcDbText
 10
153.5
 20
156.0
 30
0.0
 40
2.5
  1
9
 41
0.9
  7
T25
100
AcDbText
  0
TEXT
  5
477
330
1F
100
AcDbEntity
  8
TEXT25
100
AcDbText
 10
182.5
 20
156.0
 30
0.0
 40
2.5
  1
9
 41
0.9
  7
T25
100
AcDbText
  0
TEXT
  5
47C
330
1F
100
AcDbEntity
  8
TEXT25
100
AcDbText
 10
34.0
 20
116.7372063273517
 30
0.0
 40
2.5
  1
MMI, LOCAL
 41
0.7
  7
T25
100
AcDbText
  0
TEXT
  5
480
330
1F
100
AcDbEntity
  8
TEXT25
100
AcDbText
 10
70.5
 20
116.0
 30
0.0
 40
2.5
  1
1
 41
0.9
  7
T25
100
AcDbText
  0
TEXT
  5
483
330
1F
100
AcDbEntity
  8
TEXT25
100
AcDbText
 10
77.0
 20
116.0
 30
0.0
 40
2.5
  1
1
 41
0.9
  7
T25
100
AcDbText
  0
TEXT
  5
487
330
1F
100
AcDbEntity
  8
TEXT25
100
AcDbText
 10
100.5
 20
116.0
 30
0.0
 40
2.5
  1
1
 41
0.9
  7
T25
100
AcDbText
  0
TEXT
  5
488
330
1F
100
AcDbEntity
  8
TEXT25
100
AcDbText
 10
94.50000000000001
 20
116.0
 30
0.0
 40
2.5
  1
1
 41
0.9
  7
T25
100
AcDbText
  0
TEXT
  5
48A
330
1F
100
AcDbEntity
  8
TEXT25
100
AcDbText
 10
123.5
 20
116.0
 30
0.0
 40
2.5
  1
1
 41
0.9
  7
T25
100
AcDbText
  0
TEXT
  5
48D
330
1F
100
AcDbEntity
  8
TEXT25
100
AcDbText
 10
129.4999999999999
 20
116.0
 30
0.0
 40
2.5
  1
1
 41
0.9
  7
T25
100
AcDbText
  0
TEXT
  5
48E
330
1F
100
AcDbEntity
  8
TEXT25
100
AcDbText
 10
147.5
 20
116.0
 30
0.0
 40
2.5
  1
1
 41
0.9
  7
T25
100
AcDbText
  0
TEXT
  5
48F
330
1F
100
AcDbEntity
  8
TEXT25
100
AcDbText
 10
153.5
 20
116.0
 30
0.0
 40
2.5
  1
1
 41
0.9
  7
T25
100
AcDbText
  0
TEXT
  5
491
330
1F
100
AcDbEntity
  8
TEXT25
100
AcDbText
 10
182.5
 20
116.0
 30
0.0
 40
2.5
  1
1
 41
0.9
  7
T25
100
AcDbText
  0
TEXT
  5
492
330
1F
100
AcDbEntity
  8
TEXT25
100
AcDbText
 10
176.5
 20
116.0
 30
0.0
 40
2.5
  1
1
 41
0.9
  7
T25
100
AcDbText
  0
TEXT
  5
493
330
1F
100
AcDbEntity
  8
TEXT25
100
AcDbText
 10
34.0
 20
54.04935723267545
 30
0.0
 40
2.5
  1
MMI
 41
0.7
  7
T25
100
AcDbText
  0
TEXT
  5
494
330
1F
100
AcDbEntity
  8
TEXT25
100
AcDbText
 10
34.0
 20
59.04935723267545
 30
0.0
 40
2.5
  1
RTD1
 41
0.7
  7
T25
100
AcDbText
  0
TEXT
  5
495
330
1F
100
AcDbEntity
  8
TEXT25
100
AcDbText
 10
34.0
 20
64.04935723267545
 30
0.0
 40
2.5
  1
BIO2
 41
0.7
  7
T25
100
AcDbText
  0
TEXT
  5
496
330
1F
100
AcDbEntity
  8
TEXT25
100
AcDbText
 10
34.0
 20
79.04935723267545
 30
0.0
 40
2.5
  1
PS1
 41
0.7
  7
T25
100
AcDbText
  0
TEXT
  5
497
330
1F
100
AcDbEntity
  8
TEXT25
100
AcDbText
 10
34.0
 20
69.04935723267545
 30
0.0
 40
2.5
  1
BIO1
 41
0.7
  7
T25
100
AcDbText
  0
TEXT
  5
498
330
1F
100
AcDbEntity
  8
TEXT25
100
AcDbText
 10
34.0
 20
74.04935723267545
 30
0.0
 40
2.5
  1
PS2
 41
0.7
  7
T25
100
AcDbText
  0
TEXT
  5
499
330
1F
100
AcDbEntity
  8
TEXT25
100
AcDbText
 10
34.0
 20
84.04935723267545
 30
0.0
 40
2.5
  1
CPU
 41
0.7
  7
T25
100
AcDbText
  0
TEXT
  5
49A
330
1F
100
AcDbEntity
  8
TEXT25
100
AcDbText
 10
34.0
 20
89.22611524878641
 30
0.0
 40
2.5
  1
MIM414_
 41
0.7
  7
T25
100
AcDbText
  0
LINE
  5
49B
330
1F
100
AcDbEntity
  8
TEXT25
100
AcDbLine
 10
31.0
 20
100.165568548948
 30
0.0
 11
117.5
 21
100.165568548948
 31
0.0
  0
LINE
  5
49C
330
1F
100
AcDbEntity
  8
TEXT25
100
AcDbLine
 10
31.0
 20
93.16556854894804
 30
0.0
 11
117.5
 21
93.16556854894804
 31
0.0
  0
LINE
  5
49D
330
1F
100
AcDbEntity
  8
TEXT25
100
AcDbLine
 10
31.0
 20
88.16556854894804
 30
0.0
 11
117.5
 21
88.16556854894804
 31
0.0
  0
LINE
  5
49E
330
1F
100
AcDbEntity
  8
TEXT25
100
AcDbLine
 10
31.0
 20
83.16556854894804
 30
0.0
 11
117.5
 21
83.16556854894804
 31
0.0
  0
LINE
  5
49F
330
1F
100
AcDbEntity
  8
TEXT25
100
AcDbLine
 10
31.0
 20
78.16556854894805
 30
0.0
 11
114.5
 21
78.16556854894805
 31
0.0
  0
LINE
  5
4A0
330
1F
100
AcDbEntity
  8
TEXT25
100
AcDbLine
 10
31.0
 20
73.16556854894805
 30
0.0
 11
114.5
 21
73.16556854894805
 31
0.0
  0
LINE
  5
4A1
330
1F
100
AcDbEntity
  8
TEXT25
100
AcDbLine
 10
31.0
 20
68.16556854894805
 30
0.0
 11
114.5
 21
68.16556854894805
 31
0.0
  0
LINE
  5
4A2
330
1F
100
AcDbEntity
  8
TEXT25
100
AcDbLine
 10
31.0
 20
63.16556854894805
 30
0.0
 11
114.5
 21
63.16556854894805
 31
0.0
  0
LINE
  5
4A3
330
1F
100
AcDbEntity
  8
TEXT25
100
AcDbLine
 10
31.0
 20
58.16556854894805
 30
0.0
 11
114.5
 21
58.16556854894805
 31
0.0
  0
LINE
  5
4A4
330
1F
100
AcDbEntity
  8
TEXT25
100
AcDbLine
 10
31.0
 20
53.16556854894805
 30
0.0
 11
114.5
 21
53.16556854894805
 31
0.0
  0
TEXT
  5
4A5
330
1F
100
AcDbEntity
  8
TEXT25
100
AcDbText
 10
47.0
 20
89.57963128100823
 30
0.0
 40
2.5
  1
TRANSFORMER AND SENSOR MODULE (see table 1)
 41
0.7
  7
T25
100
AcDbText
  0
TEXT
  5
4A6
330
1F
100
AcDbEntity
  8
TEXT25
100
AcDbText
 10
47.0
 20
84.5320122333892
 30
0.0
 40
2.5
  1
CENTRAL PROCESSOR MODULE
 41
0.7
  7
T25
100
AcDbText
  0
TEXT
  5
4A7
330
1F
100
AcDbEntity
  8
TEXT25
100
AcDbText
 10
47.0
 20
79.48439318577015
 30
0.0
 40
2.5
  1
POWER SUPPLY MODULE 1 (AND BINARY I/O)
 41
0.7
  7
T25
100
AcDbText
  0
TEXT
  5
4A8
330
1F
100
AcDbEntity
  8
TEXT25
100
AcDbText
 10
47.0
 20
74.43677413815112
 30
0.0
 40
2.5
  1
POWER SUPPLY MODULE 2 (AND BINARY OUT )
 41
0.7
  7
T25
100
AcDbText
  0
TEXT
  5
4A9
330
1F
100
AcDbEntity
  8
TEXT25
100
AcDbText
 10
47.0
 20
69.38915509053209
 30
0.0
 40
2.5
  1
BINARY IN/OUT MODULE 1
 41
0.7
  7
T25
100
AcDbText
  0
TEXT
  5
4AA
330
1F
100
AcDbEntity
  8
TEXT25
100
AcDbText
 10
47.0
 20
64.34153604291305
 30
0.0
 40
2.5
  1
BINARY IN/OUT MODULE 2
 41
0.7
  7
T25
100
AcDbText
  0
TEXT
  5
4AB
330
1F
100
AcDbEntity
  8
TEXT25
100
AcDbText
 10
47.0
 20
59.26364294696123
 30
0.0
 40
2.5
  1
RTD/ANALOGUE MODULE
 41
0.7
  7
T25
100
AcDbText
  0
TEXT
  5
4AC
330
1F
100
AcDbEntity
  8
TEXT25
100
AcDbText
 10
47.0
 20
54.21602389934219
 30
0.0
 40
2.5
  1
MAN-MACHINE INTERFACE
 41
0.7
  7
T25
100
AcDbText
  0
LINE
  5
4AD
330
1F
100
AcDbEntity
  8
TEXT25
100
AcDbLine
 10
31.0
 20
53.16556854894805
 30
0.0
 11
31.0
 21
100.165568548948
 31
0.0
  0
LINE
  5
4AE
330
1F
100
AcDbEntity
  8
TEXT25
100
AcDbLine
 10
45.49999999999999
 20
53.16556854894805
 30
0.0
 11
45.49999999999999
 21
100.165568548948
 31
0.0
  0
LINE
  5
4AF
330
1F
100
AcDbEntity
  8
TEXT25
100
AcDbLine
 10
114.5
 20
53.16556854894805
 30
0.0
 11
114.5
 21
63.16556854894805
 31
0.0
  0
TEXT
  5
4B0
330
1F
100
AcDbEntity
  8
TEXT25
100
AcDbText
 10
47.0
 20
95.57963128100823
 30
0.0
 40
2.5
  1
DESCRIPTION
 41
0.7
  7
T25
100
AcDbText
  0
TEXT
  5
4B1
330
1F
100
AcDbEntity
  8
TEXT25
100
AcDbText
 10
32.5
 20
94.16556854894805
 30
0.0
 40
2.5
  1
MODULE
 41
0.7
  7
T25
100
AcDbText
  0
TEXT
  5
4B4
330
1F
100
AcDbEntity
  8
TEXT25
100
AcDbText
 10
146.5
 20
89.57033045370996
 30
0.0
 40
2.5
  1
24-60VDC
 41
0.9
  7
T25
100
AcDbText
  0
TEXT
  5
4B5
330
1F
100
AcDbEntity
  8
TEXT25
100
AcDbText
 10
146.5
 20
84.57033045370996
 30
0.0
 40
2.5
  1
110-220VDC or 110-240VAC
 41
0.7
  7
T25
100
AcDbText
  0
TEXT
  5
4B6
330
1F
100
AcDbEntity
  8
TEXT25
100
AcDbText
 10
188.4999999999999
 20
89.57033045370996
 30
0.0
 40
2.5
  1
18-265VDC
 41
0.7
  7
T25
100
AcDbText
  0
TEXT
  5
4B7
330
1F
100
AcDbEntity
  8
TEXT25
100
AcDbText
 10
188.4999999999999
 20
84.57033045370996
 30
0.0
 40
2.5
  1
80-265VDC or 155-265VDC
 41
0.7
  7
T25
100
AcDbText
  0
LINE
  5
4B8
330
1F
100
AcDbEntity
  8
TEXT25
100
AcDbLine
 10
140.5
 20
94.16556854894805
 30
0.0
 11
227.4274182049416
 21
94.16556854894805
 31
0.0
  0
LINE
  5
4B9
330
1F
100
AcDbEntity
  8
TEXT25
100
AcDbLine
 10
140.5
 20
89.16556854894805
 30
0.0
 11
227.4274182049416
 21
89.16556854894805
 31
0.0
  0
LINE
  5
4BA
330
1F
100
AcDbEntity
  8
TEXT25
100
AcDbLine
 10
140.5
 20
84.16556854894805
 30
0.0
 11
227.4274182049416
 21
84.16556854894805
 31
0.0
  0
TEXT
  5
4C1
330
1F
100
AcDbEntity
  8
TEXT25
100
AcDbText
 10
147.0
 20
95.16556854894805
 30
0.0
 40
2.5
  1
AUX. VOLTAGE
 41
0.7
  7
T25
100
AcDbText
  0
TEXT
  5
4C2
330
1F
100
AcDbEntity
  8
TEXT25
100
AcDbText
 10
188.4999999999999
 20
95.16556854894805
 30
0.0
 40
2.5
  1
BINARY INPUT RANGE
 41
0.7
  7
T25
100
AcDbText
  0
LINE
  5
4C3
330
1F
100
AcDbEntity
  8
TEXT25
100
AcDbLine
 10
140.5
 20
100.165568548948
 30
0.0
 11
227.4274182049416
 21
100.165568548948
 31
0.0
  0
LINE
  5
4C4
330
1F
100
AcDbEntity
  8
TEXT25
100
AcDbLine
 10
140.5
 20
84.16556854894805
 30
0.0
 11
140.5
 21
100.165568548948
 31
0.0
  0
LINE
  5
4C5
330
1F
100
AcDbEntity
  8
TEXT25
100
AcDbLine
 10
227.4274182049416
 20
84.16556854894805
 30
0.0
 11
227.4274182049416
 21
100.165568548948
 31
0.0
  0
LINE
  5
4C6
330
1F
100
AcDbEntity
  8
TEXT25
100
AcDbLine
 10
186.0
 20
84.16556854894805
 30
0.0
 11
186.0
 21
100.165568548948
 31
0.0
  0
LINE
  5
4C9
330
1F
100
AcDbEntity
  8
TEXT25
100
AcDbLine
 10
140.5
 20
48.66556854894804
 30
0.0
 11
173.0
 21
48.66556854894804
 31
0.0
  0
LINE
  5
4CA
330
1F
100
AcDbEntity
  8
TEXT25
100
AcDbLine
 10
140.5
 20
53.66556854894804
 30
0.0
 11
173.0
 21
53.66556854894804
 31
0.0
  0
LINE
  5
4CB
330
1F
100
AcDbEntity
  8
TEXT25
100
AcDbLine
 10
140.5
 20
64.66556854894804
 30
0.0
 11
173.0
 21
64.66556854894804
 31
0.0
  0
LINE
  5
4CC
330
1F
100
AcDbEntity
  8
TEXT25
100
AcDbLine
 10
140.5
 20
58.66556854894804
 30
0.0
 11
173.0
 21
58.66556854894804
 31
0.0
  0
TEXT
  5
4CD
330
1F
100
AcDbEntity
  8
TEXT25
100
AcDbText
 10
142.8001796010696
 20
59.87818614441232
 30
0.0
 40
2.5
  1
BINARY INPUT RANGE
 41
0.7
  7
T25
100
AcDbText
  0
TEXT
  5
4CE
330
1F
100
AcDbEntity
  8
TEXT25
100
AcDbText
 10
148.0
 20
49.07033045370997
 30
0.0
 40
2.5
  1
80-265VDC
 41
0.9
  7
T25
100
AcDbText
  0
TEXT
  5
4CF
330
1F
100
AcDbEntity
  8
TEXT25
100
AcDbText
 10
148.0
 20
54.07033045370997
 30
0.0
 40
2.5
  1
18-265VDC
 41
0.9
  7
T25
100
AcDbText
  0
LINE
  5
4D0
330
1F
100
AcDbEntity
  8
TEXT25
100
AcDbLine
 10
140.5
 20
43.69343677829272
 30
0.0
 11
140.5
 21
64.66556854894804
 31
0.0
  0
LINE
  5
4D1
330
1F
100
AcDbEntity
  8
TEXT25
100
AcDbLine
 10
173.0
 20
43.69343677829272
 30
0.0
 11
173.0
 21
64.66556854894804
 31
0.0
  0
TEXT
  5
4D2
330
1F
100
AcDbEntity
  8
TEXT25
100
AcDbText
 10
146.5
 20
66.57033045370997
 30
0.0
 40
2.5
  1
110-220VDC or 110-240VAC
 41
0.7
  7
T25
100
AcDbText
  0
TEXT
  5
4D3
330
1F
100
AcDbEntity
  8
TEXT25
100
AcDbText
 10
147.0
 20
77.16556854894804
 30
0.0
 40
2.5
  1
AUX. VOLTAGE
 41
0.9
  7
T25
100
AcDbText
  0
LINE
  5
4D4
330
1F
100
AcDbEntity
  8
TEXT25
100
AcDbLine
 10
140.5
 20
76.16556854894804
 30
0.0
 11
186.0
 21
76.16556854894804
 31
0.0
  0
LINE
  5
4D5
330
1F
100
AcDbEntity
  8
TEXT25
100
AcDbLine
 10
140.5
 20
82.16556854894804
 30
0.0
 11
186.0
 21
82.16556854894804
 31
0.0
  0
LINE
  5
4D6
330
1F
100
AcDbEntity
  8
TEXT25
100
AcDbLine
 10
140.5
 20
71.16556854894804
 30
0.0
 11
186.0
 21
71.16556854894804
 31
0.0
  0
LINE
  5
4D7
330
1F
100
AcDbEntity
  8
TEXT25
100
AcDbLine
 10
140.5
 20
66.16556854894804
 30
0.0
 11
186.0
 21
66.16556854894804
 31
0.0
  0
LINE
  5
4D8
330
1F
100
AcDbEntity
  8
TEXT25
100
AcDbLine
 10
140.5
 20
66.16556854894804
 30
0.0
 11
140.5
 21
82.16556854894804
 31
0.0
  0
TEXT
  5
4D9
330
1F
100
AcDbEntity
  8
TEXT25
100
AcDbText
 10
146.5
 20
71.57033045370997
 30
0.0
 40
2.5
  1
24-60VDC
 41
0.9
  7
T25
100
AcDbText
  0
LINE
  5
4DA
330
1F
100
AcDbEntity
  8
TEXT25
100
AcDbLine
 10
186.0
 20
66.16556854894804
 30
0.0
 11
186.0
 21
82.16556854894804
 31
0.0
  0
TEXT
  5
4DB
330
1F
100
AcDbEntity
  8
TEXT25
100
AcDbText
 10
142.7004186538777
 20
35.8307911167293
 30
0.0
 40
2.5
  1
BINARY INPUT RANGE
 41
0.7
  7
T25
100
AcDbText
  0
LINE
  5
4DC
330
1F
100
AcDbEntity
  8
TEXT25
100
AcDbLine
 10
140.5
 20
34.56833016895496
 30
0.0
 11
173.0
 21
34.56833016895496
 31
0.0
  0
LINE
  5
4DD
330
1F
100
AcDbEntity
  8
TEXT25
100
AcDbLine
 10
140.5
 20
40.56833016895495
 30
0.0
 11
173.0
 21
40.56833016895495
 31
0.0
  0
LINE
  5
4DE
330
1F
100
AcDbEntity
  8
TEXT25
100
AcDbLine
 10
140.5
 20
29.56833016895496
 30
0.0
 11
173.0
 21
29.56833016895496
 31
0.0
  0
LINE
  5
4DF
330
1F
100
AcDbEntity
  8
TEXT25
100
AcDbLine
 10
140.5
 20
24.56833016895496
 30
0.0
 11
173.0
 21
24.56833016895496
 31
0.0
  0
LINE
  5
4E0
330
1F
100
AcDbEntity
  8
TEXT25
100
AcDbLine
 10
140.5
 20
19.52878684586528
 30
0.0
 11
140.5
 21
40.56833016895495
 31
0.0
  0
TEXT
  5
4E1
330
1F
100
AcDbEntity
  8
TEXT25
100
AcDbText
 10
148.0
 20
24.97309207371688
 30
0.0
 40
2.5
  1
80-265VDC
 41
0.9
  7
T25
100
AcDbText
  0
TEXT
  5
4E2
330
1F
100
AcDbEntity
  8
TEXT25
100
AcDbText
 10
148.0
 20
29.97309207371688
 30
0.0
 40
2.5
  1
18-265VDC
 41
0.9
  7
T25
100
AcDbText
  0
LINE
  5
4E3
330
1F
100
AcDbEntity
  8
TEXT25
100
AcDbLine
 10
173.0
 20
19.52878684586528
 30
0.0
 11
173.0
 21
40.56833016895495
 31
0.0
  0
LINE
  5
4E4
330
1F
100
AcDbEntity
  8
TEXT25
100
AcDbLine
 10
111.4999999999999
 20
80.66556854894804
 30
0.0
 11
130.0
 21
80.66556854894804
 31
0.0
  0
LINE
  5
4E5
330
1F
100
AcDbEntity
  8
TEXT25
100
AcDbLine
 10
130.0
 20
80.66556854894804
 30
0.0
 11
130.0
 21
91.66556854894805
 31
0.0
  0
LINE
  5
4E6
330
1F
100
AcDbEntity
  8
TEXT25
100
AcDbLine
 10
130.0
 20
91.66556854894805
 30
0.0
 11
138.5
 21
91.66556854894805
 31
0.0
  0
LINE
  5
4E7
330
1F
100
AcDbEntity
  8
TEXT25
100
AcDbLine
 10
138.5
 20
86.66556854894805
 30
0.0
 11
130.0
 21
86.66556854894805
 31
0.0
  0
LINE
  5
4E8
330
1F
100
AcDbEntity
  8
TEXT25
100
AcDbLine
 10
113.0
 20
75.66556854894805
 30
0.0
 11
130.0
 21
75.66556854894805
 31
0.0
  0
LINE
  5
4E9
330
1F
100
AcDbEntity
  8
TEXT25
100
AcDbLine
 10
130.0
 20
75.66556854894805
 30
0.0
 11
130.0
 21
73.16556854894805
 31
0.0
  0
LINE
  5
4EA
330
1F
100
AcDbEntity
  8
TEXT25
100
AcDbLine
 10
130.0
 20
73.16556854894805
 30
0.0
 11
138.5
 21
73.16556854894805
 31
0.0
  0
LINE
  5
4EB
330
1F
100
AcDbEntity
  8
TEXT25
100
AcDbLine
 10
130.0
 20
73.16556854894805
 30
0.0
 11
130.0
 21
68.16556854894805
 31
0.0
  0
LINE
  5
4EC
330
1F
100
AcDbEntity
  8
TEXT25
100
AcDbLine
 10
130.0
 20
68.16556854894805
 30
0.0
 11
138.5
 21
68.16556854894805
 31
0.0
  0
LINE
  5
4EF
330
1F
100
AcDbEntity
  8
TEXT25
100
AcDbLine
 10
87.0
 20
70.66556854894805
 30
0.0
 11
125.0
 21
70.66556854894805
 31
0.0
  0
LINE
  5
4F0
330
1F
100
AcDbEntity
  8
TEXT25
100
AcDbLine
 10
125.0
 20
70.66556854894805
 30
0.0
 11
125.0
 21
56.16556854894804
 31
0.0
  0
LINE
  5
4F1
330
1F
100
AcDbEntity
  8
TEXT25
100
AcDbLine
 10
125.0
 20
56.16556854894804
 30
0.0
 11
138.5
 21
56.16556854894804
 31
0.0
  0
LINE
  5
4F2
330
1F
100
AcDbEntity
  8
TEXT25
100
AcDbLine
 10
138.5
 20
50.66556854894805
 30
0.0
 11
125.0
 21
50.66556854894805
 31
0.0
  0
LINE
  5
4F3
330
1F
100
AcDbEntity
  8
TEXT25
100
AcDbLine
 10
125.0
 20
45.93914922365968
 30
0.0
 11
125.0
 21
56.16556854894804
 31
0.0
  0
LWPOLYLINE
  5
4F4
330
1F
100
AcDbEntity
  8
TEXT25
100
AcDbPolyline
 90
        4
 70
     0
 43
0.0
 10
140.5
 20
91.66556854894805
 10
138.5
 20
92.16556854894804
 10
138.5
 20
91.16556854894804
 10
140.5
 20
91.66556854894805
  0
HATCH
  5
4F5
330
1F
100
AcDbEntity
  8
TEXT25
100
AcDbHatch
 10
0.0
 20
0.0
 30
0.0
210
0.0
220
0.0
230
1.0
  2
SOLID
 70
     1
 71
     0
 91
        1
 92
        1
 93
        3
 72
     1
 10
140.5
 20
91.66556854894805
 11
138.5
 21
92.16556854894804
 72
     1
 10
138.5
 20
92.16556854894804
 11
138.5
 21
91.16556854894804
 72
     1
 10
138.5
 20
91.16556854894804
 11
140.5
 21
91.66556854894805
 97
        0
 75
     0
 76
     1
 98
        1
 10
-6.0
 20
9.165568548948044
  0
HATCH
  5
4F6
330
1F
100
AcDbEntity
  8
TEXT25
100
AcDbHatch
 10
0.0
 20
0.0
 30
0.0
210
0.0
220
0.0
230
1.0
  2
SOLID
 70
     1
 71
     0
 91
        1
 92
        1
 93
        3
 72
     1
 10
140.5
 20
86.66556854894805
 11
138.5
 21
87.16556854894804
 72
     1
 10
138.5
 20
87.16556854894804
 11
138.5
 21
86.16556854894804
 72
     1
 10
138.5
 20
86.16556854894804
 11
140.5
 21
86.66556854894805
 97
        0
 75
     0
 76
     1
 98
        1
 10
-6.0
 20
4.165568548948044
  0
LWPOLYLINE
  5
4F7
330
1F
100
AcDbEntity
  8
TEXT25
100
AcDbPolyline
 90
        4
 70
     0
 43
0.0
 10
140.5
 20
86.66556854894805
 10
138.5
 20
87.16556854894804
 10
138.5
 20
86.16556854894804
 10
140.5
 20
86.66556854894805
  0
HATCH
  5
4F8
330
1F
100
AcDbEntity
  8
TEXT25
100
AcDbHatch
 10
0.0
 20
0.0
 30
0.0
210
0.0
220
0.0
230
1.0
  2
SOLID
 70
     1
 71
     0
 91
        1
 92
        1
 93
        3
 72
     1
 10
140.5
 20
73.16556854894805
 11
138.5
 21
73.66556854894804
 72
     1
 10
138.5
 20
73.66556854894804
 11
138.5
 21
72.66556854894805
 72
     1
 10
138.5
 20
72.66556854894805
 11
140.5
 21
73.16556854894805
 97
        0
 75
     0
 76
     1
 98
        1
 10
-6.0
 20
-9.334431451051955
  0
LWPOLYLINE
  5
4F9
330
1F
100
AcDbEntity
  8
TEXT25
100
AcDbPolyline
 90
        4
 70
     0
 43
0.0
 10
140.5
 20
73.16556854894805
 10
138.5
 20
73.66556854894804
 10
138.5
 20
72.66556854894805
 10
140.5
 20
73.16556854894805
  0
HATCH
  5
4FA
330
1F
100
AcDbEntity
  8
TEXT25
100
AcDbHatch
 10
0.0
 20
0.0
 30
0.0
210
0.0
220
0.0
230
1.0
  2
SOLID
 70
     1
 71
     0
 91
        1
 92
        1
 93
        3
 72
     1
 10
140.5
 20
68.16556854894805
 11
138.5
 21
68.66556854894804
 72
     1
 10
138.5
 20
68.66556854894804
 11
138.5
 21
67.66556854894805
 72
     1
 10
138.5
 20
67.66556854894805
 11
140.5
 21
68.16556854894805
 97
        0
 75
     0
 76
     1
 98
        1
 10
-6.0
 20
-14.33443145105195
  0
LWPOLYLINE
  5
4FB
330
1F
100
AcDbEntity
  8
TEXT25
100
AcDbPolyline
 90
        4
 70
     0
 43
0.0
 10
140.5
 20
68.16556854894805
 10
138.5
 20
68.66556854894804
 10
138.5
 20
67.66556854894805
 10
140.5
 20
68.16556854894805
  0
HATCH
  5
4FC
330
1F
100
AcDbEntity
  8
TEXT25
100
AcDbHatch
 10
0.0
 20
0.0
 30
0.0
210
0.0
220
0.0
230
1.0
  2
SOLID
 70
     1
 71
     0
 91
        1
 92
        1
 93
        3
 72
     1
 10
140.5
 20
56.16556854894804
 11
138.5
 21
56.66556854894804
 72
     1
 10
138.5
 20
56.66556854894804
 11
138.5
 21
55.66556854894805
 72
     1
 10
138.5
 20
55.66556854894805
 11
140.5
 21
56.16556854894804
 97
        0
 75
     0
 76
     1
 98
        1
 10
-6.0
 20
-26.33443145105195
  0
LWPOLYLINE
  5
4FD
330
1F
100
AcDbEntity
  8
TEXT25
100
AcDbPolyline
 90
        4
 70
     0
 43
0.0
 10
140.5
 20
56.16556854894804
 10
138.5
 20
56.66556854894804
 10
138.5
 20
55.66556854894805
 10
140.5
 20
56.16556854894804
  0
HATCH
  5
4FE
330
1F
100
AcDbEntity
  8
TEXT25
100
AcDbHatch
 10
0.0
 20
0.0
 30
0.0
210
0.0
220
0.0
230
1.0
  2
SOLID
 70
     1
 71
     0
 91
        1
 92
        1
 93
        3
 72
     1
 10
140.5
 20
50.66556854894805
 11
138.5
 21
51.16556854894804
 72
     1
 10
138.5
 20
51.16556854894804
 11
138.5
 21
50.16556854894805
 72
     1
 10
138.5
 20
50.16556854894805
 11
140.5
 21
50.66556854894805
 97
        0
 75
     0
 76
     1
 98
        1
 10
-6.0
 20
-31.83443145105195
  0
LWPOLYLINE
  5
4FF
330
1F
100
AcDbEntity
  8
TEXT25
100
AcDbPolyline
 90
        4
 70
     0
 43
0.0
 10
140.5
 20
50.66556854894805
 10
138.5
 20
51.16556854894804
 10
138.5
 20
50.16556854894805
 10
140.5
 20
50.66556854894805
  0
LINE
  5
500
330
1F
100
AcDbEntity
  8
TEXT25
100
AcDbLine
 10
120.0
 20
32.06833016895496
 30
0.0
 11
138.5
 21
32.06833016895496
 31
0.0
  0
LINE
  5
501
330
1F
100
AcDbEntity
  8
TEXT25
100
AcDbLine
 10
138.5
 20
26.56833016895495
 30
0.0
 11
120.0
 21
26.56833016895495
 31
0.0
  0
LINE
  5
502
330
1F
100
AcDbEntity
  8
TEXT25
100
AcDbLine
 10
119.9999999999999
 20
21.94037738913323
 30
0.0
 11
120.0
 21
65.16556854894805
 31
0.0
  0
HATCH
  5
503
330
1F
100
AcDbEntity
  8
TEXT25
100
AcDbHatch
 10
0.0
 20
0.0
 30
0.0
210
0.0
220
0.0
230
1.0
  2
SOLID
 70
     1
 71
     0
 91
        1
 92
        1
 93
        3
 72
     1
 10
140.5
 20
26.56833016895495
 11
138.5
 21
27.06833016895496
 72
     1
 10
138.5
 20
27.06833016895496
 11
138.5
 21
26.06833016895496
 72
     1
 10
138.5
 20
26.06833016895496
 11
140.5
 21
26.56833016895495
 97
        0
 75
     0
 76
     1
 98
        1
 10
-6.0
 20
-55.93166983104504
  0
LWPOLYLINE
  5
504
330
1F
100
AcDbEntity
  8
TEXT25
100
AcDbPolyline
 90
        4
 70
     0
 43
0.0
 10
140.5
 20
26.56833016895495
 10
138.5
 20
27.06833016895496
 10
138.5
 20
26.06833016895496
 10
140.5
 20
26.56833016895495
  0
HATCH
  5
505
330
1F
100
AcDbEntity
  8
TEXT25
100
AcDbHatch
 10
0.0
 20
0.0
 30
0.0
210
0.0
220
0.0
230
1.0
  2
SOLID
 70
     1
 71
     0
 91
        1
 92
        1
 93
        3
 72
     1
 10
140.5
 20
32.06833016895496
 11
138.5
 21
32.56833016895495
 72
     1
 10
138.5
 20
32.56833016895495
 11
138.5
 21
31.56833016895495
 72
     1
 10
138.5
 20
31.56833016895495
 11
140.5
 21
32.06833016895496
 97
        0
 75
     0
 76
     1
 98
        1
 10
-6.0
 20
-50.43166983104504
  0
LWPOLYLINE
  5
506
330
1F
100
AcDbEntity
  8
TEXT25
100
AcDbPolyline
 90
        4
 70
     0
 43
0.0
 10
140.5
 20
32.06833016895496
 10
138.5
 20
32.56833016895495
 10
138.5
 20
31.56833016895495
 10
140.5
 20
32.06833016895496
  0
LINE
  5
507
330
1F
100
AcDbEntity
  8
TEXT25
100
AcDbLine
 10
87.0
 20
65.16556854894805
 30
0.0
 11
120.0
 21
65.16556854894805
 31
0.0
  0
LINE
  5
508
330
1F
100
AcDbEntity
  8
TEXT25
100
AcDbLine
 10
117.5
 20
83.16556854894804
 30
0.0
 11
117.5
 21
100.165568548948
 31
0.0
  0
TEXT
  5
50B
330
1F
100
AcDbEntity
  8
TEXT25
100
AcDbText
 10
31.0
 20
238.3393261800609
 30
0.0
 40
2.5
  1
REF 54_ HARDWARE VARIANTS
 41
0.9
  7
T25
100
AcDbText
  0
TEXT
  5
50D
330
1F
100
AcDbEntity
  8
TEXT25
100
AcDbText
 10
310.4525055222504
 20
232.2775728016519
 30
0.0
 40
3.5
  1
R E F 5 4 3 G B 1 2 7 A A B A
 41
0.7
  7
T25
100
AcDbText
  0
TEXT
  5
50E
330
1F
100
AcDbEntity
  8
TEXT25
 48
0.9
100
AcDbText
 10
240.1922506720113
 20
223.0
 30
0.0
 40
2.5
  1
FEEDER TERMINAL TYPE
 41
0.7
  7
T25
100
AcDbText
  0
TEXT
  5
50F
330
1F
100
AcDbEntity
  8
TEXT25
 48
0.9
100
AcDbText
 10
240.1922506720113
 20
218.0
 30
0.0
 40
2.5
  1
SOFTWARE REVISION: A, B, C, D, E, F, G
 41
0.9
  7
T25
100
AcDbText
  0
TEXT
  5
510
330
1F
100
AcDbEntity
  8
TEXT25
 48
0.9
100
AcDbText
 10
240.1922506720113
 20
207.5
 30
0.0
 40
2.5
  1
HARDWARE NUMBER: 115, 118, 127, 129, 133
 41
0.7
  7
T25
100
AcDbText
  0
TEXT
  5
511
330
1F
100
AcDbEntity
  8
TEXT25
 48
0.9
100
AcDbText
 10
240.1922506720113
 20
202.4999999999999
 30
0.0
 40
2.5
  1
AUX. VOLTAGE  ;   BINARY INPUT RANGE
 41
0.7
  7
T25
100
AcDbText
  0
TEXT
  5
512
330
1F
100
AcDbEntity
  8
TEXT25
 48
0.9
100
AcDbText
 10
240.1922506720113
 20
198.294082958718
 30
0.0
 40
2.5
  1
A= 110-220VDC/110-240VAC ; 80-265VDC
 41
0.7
  7
T25
100
AcDbText
  0
TEXT
  5
513
330
1F
100
AcDbEntity
  8
TEXT25
 48
0.9
100
AcDbText
 10
240.1922506720113
 20
189.6308216427681
 30
0.0
 40
2.5
  1
C= 24-60VDC   ;  18-265 VDC   
 41
0.7
  7
T25
100
AcDbText
  0
LINE
  5
514
330
1F
100
AcDbEntity
  8
TEXT25
 48
0.9
100
AcDbLine
 10
275.6922506720113
 20
224.1750851358424
 30
0.0
 11
322.6922506720113
 21
224.1750851358424
 31
0.0
  0
LINE
  5
515
330
1F
100
AcDbEntity
  8
TEXT25
100
AcDbLine
 10
322.6922506720113
 20
224.1750851358424
 30
0.0
 11
322.6922506720113
 21
231.0
 31
0.0
  0
LINE
  5
516
330
1F
100
AcDbEntity
  8
TEXT25
100
AcDbLine
 10
310.1934316944377
 20
231.0
 30
0.0
 11
334.7629012356883
 21
230.9982190342854
 31
0.0
  0
LINE
  5
517
330
1F
100
AcDbEntity
  8
TEXT25
100
AcDbLine
 10
337.8180961645616
 20
231.0
 30
0.0
 11
338.8180961645616
 21
231.0
 31
0.0
  0
LINE
  5
518
330
1F
100
AcDbEntity
  8
TEXT25
100
AcDbLine
 10
338.3127709973994
 20
230.9971169375613
 30
0.0
 11
338.3127709973994
 21
219.2982268140575
 31
0.0
  0
LINE
  5
51B
330
1F
100
AcDbEntity
  8
TEXT25
100
AcDbLine
 10
351.5146218010808
 20
208.6066537948101
 30
0.0
 11
351.5146218010806
 21
230.9740245889642
 31
0.0
  0
LINE
  5
51C
330
1F
100
AcDbEntity
  8
TEXT25
100
AcDbLine
 10
346.3748077639641
 20
231.0
 30
0.0
 11
356.9498037022845
 21
231.0
 31
0.0
  0
LINE
  5
51D
330
1F
100
AcDbEntity
  8
TEXT25
100
AcDbLine
 10
360.6355983851408
 20
231.0
 30
0.0
 11
361.6355983851408
 21
231.0
 31
0.0
  0
LINE
  5
51E
330
1F
100
AcDbEntity
  8
TEXT25
100
AcDbLine
 10
364.9197102617061
 20
231.0
 30
0.0
 11
365.919710261706
 21
231.0
 31
0.0
  0
LINE
  5
51F
330
1F
100
AcDbEntity
  8
TEXT25
100
AcDbLine
 10
369.8459040273098
 20
231.0
 30
0.0
 11
370.8459040273098
 21
231.0
 31
0.0
  0
LINE
  5
520
330
1F
100
AcDbEntity
  8
TEXT25
 48
0.9
100
AcDbLine
 10
307.6495888960093
 20
205.0427963545321
 30
0.0
 11
307.6495888960093
 21
189.1798194911639
 31
0.0
  0
LINE
  5
522
330
1F
100
AcDbEntity
  8
TEXT25
100
AcDbLine
 10
361.0964148169117
 20
197.9150807755626
 30
0.0
 11
361.0964148169116
 21
230.9274003838426
 31
0.0
  0
LINE
  5
525
330
1F
100
AcDbEntity
  8
TEXT25
 48
0.9
100
AcDbLine
 10
313.1460802633187
 20
219.2982268140575
 30
0.0
 11
337.9462155384524
 21
219.2982268140575
 31
0.0
  0
LINE
  5
527
330
1F
100
AcDbEntity
  8
TEXT25
100
AcDbLine
 10
307.6495888960093
 20
197.1657970908785
 30
0.0
 11
360.6362389538279
 21
197.1657970908785
 31
0.0
  0
TEXT
  5
528
330
1F
100
AcDbEntity
  8
TEXT25
 48
0.9
100
AcDbText
 10
240.1922506720113
 20
185.1935356078575
 30
0.0
 40
2.5
  1
RESERVED FOR FURTHER USE
 41
0.7
  7
T25
100
AcDbText
  0
TEXT
  5
529
330
1F
100
AcDbEntity
  8
TEXT25
 48
0.9
100
AcDbText
 10
240.1922506720113
 20
180.1935356078575
 30
0.0
 40
2.5
  1
A= WITHOUT SENSOR , B=WITH SENSOR
 41
0.7
  7
T25
100
AcDbText
  0
LINE
  5
52A
330
1F
100
AcDbEntity
  8
TEXT25
100
AcDbLine
 10
296.1922506720113
 20
181.46129798683
 30
0.0
 11
370.374290840409
 21
181.46129798683
 31
0.0
  0
LINE
  5
52B
330
1F
100
AcDbEntity
  8
TEXT25
100
AcDbLine
 10
370.374290840409
 20
181.46129798683
 30
0.0
 11
370.374290840409
 21
230.9527679515482
 31
0.0
  0
LINE
  5
52C
330
1F
100
AcDbEntity
  8
TEXT25
100
AcDbLine
 10
282.1922506720113
 20
186.6380209012725
 30
0.0
 11
365.4250882229907
 21
186.6380209012724
 31
0.0
  0
LINE
  5
52D
330
1F
100
AcDbEntity
  8
TEXT25
100
AcDbLine
 10
365.4250882229907
 20
186.6380209012724
 30
0.0
 11
365.4250882229908
 21
230.9516131936662
 31
0.0
  0
TEXT
  5
52F
330
1F
100
AcDbEntity
  8
TEXT25
 48
0.9
100
AcDbText
 10
240.1922506720113
 20
175.1935356078575
 30
0.0
 40
2.5
  1
A= LOACL MMI , B= EXTERNAL MMI
 41
0.7
  7
T25
100
AcDbText
  0
LINE
  5
530
330
1F
100
AcDbEntity
  8
TEXT25
100
AcDbLine
 10
292.1302382521025
 20
176.5198804592492
 30
0.0
 11
375.1707835253157
 21
176.5198804592493
 31
0.0
  0
LINE
  5
531
330
1F
100
AcDbEntity
  8
TEXT25
100
AcDbLine
 10
375.1707835253157
 20
176.5198804592493
 30
0.0
 11
375.1707835253157
 21
230.9862964252096
 31
0.0
  0
LINE
  5
532
330
1F
100
AcDbEntity
  8
TEXT25
100
AcDbLine
 10
374.671708009062
 20
231.0
 30
0.0
 11
375.671708009062
 21
231.0
 31
0.0
  0
TEXT
  5
535
330
1F
100
AcDbEntity
  8
TEXT25
100
AcDbText
 10
30.5
 20
249.8732047479736
 30
0.0
 40
2.5
  1
DECISION TABLE FOR SHEETS INCLUDED DEPENDING ON HARDWARE VARIANT
 41
0.9
  7
T25
100
AcDbText
  0
TEXT
  5
543
330
1F
100
AcDbEntity
  8
TEXT25
100
AcDbText
 10
31.5
 20
182.0
 30
0.0
 40
2.5
  1
SELECTED VARIANT (X) ->
 41
0.7
  7
T25
100
AcDbText
  0
LINE
  5
544
330
1F
100
AcDbEntity
  8
TEXT25
100
AcDbLine
 10
145.5
 20
84.16556854894805
 30
0.0
 11
145.5
 21
94.16556854894805
 31
0.0
  0
LINE
  5
545
330
1F
100
AcDbEntity
  8
TEXT25
100
AcDbLine
 10
145.5
 20
66.16556854894804
 30
0.0
 11
145.5
 21
76.16556854894804
 31
0.0
  0
LINE
  5
546
330
1F
100
AcDbEntity
  8
TEXT25
100
AcDbLine
 10
145.5
 20
43.72549617432002
 30
0.0
 11
145.5
 21
58.66556854894804
 31
0.0
  0
LINE
  5
547
330
1F
100
AcDbEntity
  8
TEXT25
100
AcDbLine
 10
145.5
 20
19.49928350870141
 30
0.0
 11
145.5
 21
34.56833016895496
 31
0.0
  0
LINE
  5
549
330
1F
100
AcDbEntity
  8
TEXT25
100
AcDbLine
 10
31.0
 20
176.0
 30
0.0
 11
218.5
 21
176.0
 31
0.0
  0
TEXT
  5
54A
330
1F
100
AcDbEntity
  8
TEXT25
100
AcDbText
 10
33.5
 20
176.9170981254659
 30
0.0
 40
2.5
  1
MODULES INCLUDED
 41
0.7
  7
T25
100
AcDbText
  0
LINE
  5
554
330
1F
100
AcDbEntity
  8
TEXT25
100
AcDbLine
 10
218.5
 20
236.5323111311459
 30
0.0
 11
218.5
 21
111.0
 31
0.0
  0
TEXT
  5
555
330
1F
100
AcDbEntity
  8
TEXT25
100
AcDbText
 10
201.5
 20
193.4539541414587
 30
0.0
 40
2.5
  1
SHEETS
 41
0.7
  7
T25
100
AcDbText
  0
TEXT
  5
556
330
1F
100
AcDbEntity
  8
TEXT25
100
AcDbText
 10
201.5
 20
190.0039541414587
 30
0.0
 40
2.5
  1
INCLUDED
 41
0.9
  7
T25
100
AcDbText
  0
TEXT
  5
557
330
1F
100
AcDbEntity
  8
TEXT25
100
AcDbText
 10
199.5
 20
163.748870621281
 30
0.0
 40
2.5
  1
SEE TABLE 1
 41
0.7
  7
T25
100
AcDbText
  0
TEXT
  5
55A
330
1F
100
AcDbEntity
  8
TEXT25
100
AcDbText
 10
246.1922506720113
 20
149.2006104998905
 30
0.0
 40
2.5
  1
MIM4140
 41
0.7
  7
T25
100
AcDbText
  0
LINE
  5
55B
330
1F
100
AcDbEntity
  8
TEXT25
100
AcDbLine
 10
240.1922506720113
 20
148.5
 30
0.0
 11
291.6922506720113
 21
148.5
 31
0.0
  0
LINE
  5
55C
330
1F
100
AcDbEntity
  8
TEXT25
100
AcDbLine
 10
240.1922506720113
 20
143.5
 30
0.0
 11
291.6922506720113
 21
143.5
 31
0.0
  0
LINE
  5
55D
330
1F
100
AcDbEntity
  8
TEXT25
100
AcDbLine
 10
240.1922506720113
 20
138.5
 30
0.0
 11
291.6922506720113
 21
138.5
 31
0.0
  0
LINE
  5
55E
330
1F
100
AcDbEntity
  8
TEXT25
100
AcDbLine
 10
240.1922506720113
 20
133.4999999999999
 30
0.0
 11
291.6922506720113
 21
133.4999999999999
 31
0.0
  0
LINE
  5
560
330
1F
100
AcDbEntity
  8
TEXT25
100
AcDbLine
 10
240.1922506720113
 20
153.5
 30
0.0
 11
291.6922506720113
 21
153.5
 31
0.0
  0
LINE
  5
561
330
1F
100
AcDbEntity
  8
TEXT25
100
AcDbLine
 10
245.1922506720113
 20
153.5
 30
0.0
 11
245.1922506720113
 21
133.4999999999999
 31
0.0
  0
TEXT
  5
564
330
1F
100
AcDbEntity
  8
TEXT25
100
AcDbText
 10
246.1922506720113
 20
144.2006104998905
 30
0.0
 40
2.5
  1
MIM4149
 41
0.7
  7
T25
100
AcDbText
  0
TEXT
  5
56B
330
1F
100
AcDbEntity
  8
TEXT25
100
AcDbText
 10
312.1825657294018
 20
28.41526401349346
 30
0.0
 40
3.0
  1
GENERAL OVERVIEW
 41
0.9
  7
T25
100
AcDbText
  0
TEXT
  5
56C
330
1F
100
AcDbEntity
  8
TEXT25
100
AcDbText
 10
312.1825657294018
 20
23.91526401349346
 30
0.0
 40
3.0
  1
FEEDER TERMINAL
 41
0.9
  7
T25
100
AcDbText
  0
TEXT
  5
56D
330
1F
100
AcDbEntity
  8
TEXT25
100
AcDbText
 10
312.1825657294018
 20
19.41526401349347
 30
0.0
 40
3.0
  1
REF 54_
 41
0.9
  7
T25
100
AcDbText
  0
TEXT
  5
576
330
1F
100
AcDbEntity
  8
TEXT25
100
AcDbText
 10
312.4603644936587
 20
1.310774774058927
 30
0.0
 40
4.0
  1
1MRS010244-AAA
 41
0.9
  7
T25
100
AcDbText
  0
TEXT
  5
577
330
1F
100
AcDbEntity
  8
TEXT25
100
AcDbText
 10
377.6485201960506
 20
1.486448852200396
 30
0.0
 40
4.0
  1
B
  7
T25
100
AcDbText
  0
TEXT
  5
57E
330
1F
100
AcDbEntity
  8
TEXT25
100
AcDbText
 10
246.1922506720113
 20
134.2006104998905
 30
0.0
 40
2.5
  1
MIM4149 + RTXP 24
 41
0.7
  7
T25
100
AcDbText
  0
TEXT
  5
581
330
1F
100
AcDbEntity
  8
TEXT25
100
AcDbText
 10
246.1922506720113
 20
139.2006104998905
 30
0.0
 40
2.5
  1
MIM4140 + RTXP 24
 41
0.7
  7
T25
100
AcDbText
  0
LINE
  5
584
330
1F
100
AcDbEntity
  8
TEXT25
100
AcDbLine
 10
275.1922506720113
 20
161.5
 30
0.0
 11
275.1922506720113
 21
133.4999999999999
 31
0.0
  0
LINE
  5
587
330
1F
100
AcDbEntity
  8
TEXT25
100
AcDbLine
 10
291.6922506720113
 20
161.5
 30
0.0
 11
291.6922506720113
 21
133.4999999999999
 31
0.0
  0
TEXT
  5
588
330
1F
100
AcDbEntity
  8
TEXT25
100
AcDbText
 10
277.1922506720113
 20
157.6006104998905
 30
0.0
 40
2.5
  1
SHEETS
 41
0.7
  7
T25
100
AcDbText
  0
TEXT
  5
589
330
1F
100
AcDbEntity
  8
TEXT25
100
AcDbText
 10
277.1922506720113
 20
154.1506104998905
 30
0.0
 40
2.5
  1
INCLUDED
 41
0.7
  7
T25
100
AcDbText
  0
TEXT
  5
58A
330
1F
100
AcDbEntity
  8
TEXT25
100
AcDbText
 10
244.6922506720113
 20
154.1506104998905
 30
0.0
 40
2.5
  1
SENSOR MODULE
 41
0.7
  7
T25
100
AcDbText
  0
TEXT
  5
58B
330
1F
100
AcDbEntity
  8
TEXT25
100
AcDbText
 10
244.6922506720113
 20
157.6006104998905
 30
0.0
 40
2.5
  1
TRANSFORMER AND
 41
0.7
  7
T25
100
AcDbText
  0
LINE
  5
58C
330
1F
100
AcDbEntity
  8
TEXT25
100
AcDbLine
 10
240.1922506720113
 20
161.5
 30
0.0
 11
291.6922506720113
 21
161.5
 31
0.0
  0
TEXT
  5
58F
330
1F
100
AcDbEntity
  8
TEXT25
100
AcDbText
 10
260.1922506720113
 20
126.0
 30
0.0
 40
2.5
  1
TABLE 1
 41
0.9
  7
T25
100
AcDbText
  0
TEXT
  5
590
330
1F
100
AcDbEntity
  8
TEXT25
100
AcDbText
 10
345.0332724193736
 20
160.9365323742418
 30
0.0
 40
3.5
  1
M I M 4 1 4 9
 41
0.7
  7
T25
100
AcDbText
  0
TEXT
  5
591
330
1F
100
AcDbEntity
  8
TEXT25
100
AcDbText
 10
322.9383835025896
 20
153.0379191451796
 30
0.0
 40
2.5
  1
QTY OF CT 1/5A
 41
0.9
  7
T25
100
AcDbText
  0
TEXT
  5
592
330
1F
100
AcDbEntity
  8
TEXT25
100
AcDbText
 10
322.9383835025896
 20
148.0379191451796
 30
0.0
 40
2.5
  1
QTY OF CT 0.2/1A
 41
0.9
  7
T25
100
AcDbText
  0
TEXT
  5
593
330
1F
100
AcDbEntity
  8
TEXT25
100
AcDbText
 10
322.9383835025896
 20
143.0379191451796
 30
0.0
 40
2.5
  1
QTY OF VT 100V
 41
0.9
  7
T25
100
AcDbText
  0
TEXT
  5
594
330
1F
100
AcDbEntity
  8
TEXT25
100
AcDbText
 10
322.9383835025896
 20
138.0379191451796
 30
0.0
 40
2.5
  1
QTY OF SENSORS
 41
0.9
  7
T25
100
AcDbText
  0
LWPOLYLINE
  5
595
330
1F
100
AcDbEntity
  8
TEXT25
100
AcDbPolyline
 90
        3
 70
     0
 43
0.0
 10
355.6922506720113
 20
154.0
 10
359.6922506720113
 20
154.0
 10
359.6922506720113
 20
159.4999999999999
  0
LINE
  5
596
330
1F
100
AcDbEntity
  8
TEXT25
100
AcDbLine
 10
359.1922506720113
 20
159.4999999999999
 30
0.0
 11
360.1922506720113
 21
159.4999999999999
 31
0.0
  0
LINE
  5
597
330
1F
100
AcDbEntity
  8
TEXT25
100
AcDbLine
 10
363.1922506720113
 20
159.4999999999999
 30
0.0
 11
364.1922506720113
 21
159.4999999999999
 31
0.0
  0
LINE
  5
598
330
1F
100
AcDbEntity
  8
TEXT25
100
AcDbLine
 10
367.1922506720113
 20
159.4999999999999
 30
0.0
 11
368.1922506720113
 21
159.4999999999999
 31
0.0
  0
LINE
  5
599
330
1F
100
AcDbEntity
  8
TEXT25
100
AcDbLine
 10
371.1922506720113
 20
159.4999999999999
 30
0.0
 11
372.1922506720113
 21
159.4999999999999
 31
0.0
  0
TEXT
  5
5A4
330
1F
100
AcDbEntity
  8
TEXT25
100
AcDbText
 10
286.5
 20
1.797740840643655
 30
0.0
 40
3.5
  1
RSG
 41
0.9
  7
T25
100
AcDbText
  0
TEXT
  5
5A5
330
1F
100
AcDbEntity
  8
TEXT25
100
AcDbText
 10
211.0
 20
27.5
 30
0.0
 40
2.5
  1
13-06-2000 S.Bjorklund
 41
0.9
  7
T25
100
AcDbText
  0
TEXT
  5
5A6
330
1F
100
AcDbEntity
  8
TEXT25
100
AcDbText
 10
374.3911164834933
 20
10.90538773623632
 30
0.0
 40
2.5
  1
1 / 13
 41
0.9
  7
T25
100
AcDbText
  0
TEXT
  5
5AC
330
1F
100
AcDbEntity
  8
TEXT25
100
AcDbText
 10
106.0
 20
12.62727113165431
 30
0.0
 40
2.5
  1
SELECTED TYPE
 41
0.7
  7
T25
100
AcDbText
  0
LWPOLYLINE
  5
5AD
330
1F
100
AcDbEntity
  8
TEXT25
100
AcDbPolyline
 90
        4
 70
     0
 43
0.0
 10
143.0
 20
18.91363513085275
 10
142.5
 20
16.91363513085275
 10
143.5
 20
16.91363513085275
 10
143.0
 20
18.91363513085275
  0
HATCH
  5
5AE
330
1F
100
AcDbEntity
  8
TEXT25
100
AcDbHatch
 10
0.0
 20
0.0
 30
0.0
210
0.0
220
0.0
230
1.0
  2
SOLID
 70
     1
 71
     0
 91
        1
 92
        1
 93
        3
 72
     1
 10
143.0
 20
18.90013200153464
 11
142.5
 21
16.90013200153464
 72
     1
 10
142.5
 20
16.90013200153464
 11
143.5
 21
16.90013200153464
 72
     1
 10
143.5
 20
16.90013200153464
 11
143.0
 21
18.90013200153464
 97
        0
 75
     0
 76
     1
 98
        1
 10
225.4999999999999
 20
-127.5998679984653
  0
LINE
  5
5AF
330
1F
100
AcDbEntity
  8
TEXT25
100
AcDbLine
 10
128.4999999999999
 20
13.90013200153464
 30
0.0
 11
143.0
 21
13.90013200153464
 31
0.0
  0
LINE
  5
5B0
330
1F
100
AcDbEntity
  8
TEXT25
100
AcDbLine
 10
143.0
 20
13.90013200153464
 30
0.0
 11
143.0
 21
17.90013200153464
 31
0.0
  0
TEXT
  5
5B1
330
1F
100
AcDbEntity
  8
TEXT25
100
AcDbText
 10
33.0
 20
101.5796312810082
 30
0.0
 40
2.5
  1
MODULE TYPES
 41
0.7
  7
T25
100
AcDbText
  0
LINE
  5
5B3
330
1F
100
AcDbEntity
  8
TEXT25
100
AcDbLine
 10
240.1922506720113
 20
161.5
 30
0.0
 11
240.1922506720113
 21
133.4999999999999
 31
0.0
  0
TEXT
  5
5B4
330
1F
100
AcDbEntity
  8
TEXT25
100
AcDbText
 10
281.6922506720113
 20
149.6006104998905
 30
0.0
 40
2.5
  1
4
 41
0.9
  7
T25
100
AcDbText
  0
TEXT
  5
5B5
330
1F
100
AcDbEntity
  8
TEXT25
100
AcDbText
 10
281.6922506720113
 20
144.6006104998905
 30
0.0
 40
2.5
  1
5
 41
0.9
  7
T25
100
AcDbText
  0
TEXT
  5
5B6
330
1F
100
AcDbEntity
  8
TEXT25
100
AcDbText
 10
281.6922506720113
 20
139.6006104998905
 30
0.0
 40
2.5
  1
6
 41
0.9
  7
T25
100
AcDbText
  0
TEXT
  5
5B7
330
1F
100
AcDbEntity
  8
TEXT25
100
AcDbText
 10
281.6922506720113
 20
134.6006104998905
 30
0.0
 40
2.5
  1
7
 41
0.9
  7
T25
100
AcDbText
  0
TEXT
  5
5C0
330
1F
100
AcDbEntity
  8
TEXT25
100
AcDbText
 10
205.5
 20
181.748870621281
 30
0.0
 40
2.5
  1
2,3
 41
0.9
  7
T25
100
AcDbText
  0
TEXT
  5
5C1
330
1F
100
AcDbEntity
  8
TEXT25
100
AcDbText
 10
205.5
 20
146.9508035677383
 30
0.0
 40
2.5
  1
3
 41
0.9
  7
T25
100
AcDbText
  0
TEXT
  5
5C2
330
1F
100
AcDbEntity
  8
TEXT25
100
AcDbText
 10
205.5
 20
141.9508035677383
 30
0.0
 40
2.5
  1
3,8
 41
0.9
  7
T25
100
AcDbText
  0
TEXT
  5
5C3
330
1F
100
AcDbEntity
  8
TEXT25
100
AcDbText
 10
205.5
 20
136.9508035677383
 30
0.0
 40
2.5
  1
3,9
 41
0.9
  7
T25
100
AcDbText
  0
TEXT
  5
5C4
330
1F
100
AcDbEntity
  8
TEXT25
100
AcDbText
 10
205.5
 20
131.9508035677383
 30
0.0
 40
2.5
  1
10,11*)
 41
0.9
  7
T25
100
AcDbText
  0
TEXT
  5
5C5
330
1F
100
AcDbEntity
  8
TEXT25
100
AcDbText
 10
205.5
 20
126.9508035677383
 30
0.0
 40
2.5
  1
12
 41
0.9
  7
T25
100
AcDbText
  0
TEXT
  5
5C6
330
1F
100
AcDbEntity
  8
TEXT25
100
AcDbText
 10
205.5
 20
121.9508035677383
 30
0.0
 40
2.5
  1
13
 41
0.9
  7
T25
100
AcDbText
  0
TEXT
  5
5C7
330
1F
100
AcDbEntity
  8
TEXT25
100
AcDbText
 10
205.5
 20
116.9508035677383
 30
0.0
 40
2.5
  1
3
 41
0.9
  7
T25
100
AcDbText
  0
TEXT
  5
5CC
330
1F
100
AcDbEntity
  8
TEXT25
100
AcDbText
 10
248.6922506720113
 20
115.5
 30
0.0
 40
2.5
  1
SELECTED TYPE
 41
0.9
  7
T25
100
AcDbText
  0
LINE
  5
5CD
330
1F
100
AcDbEntity
  8
TEXT25
100
AcDbLine
 10
242.6922506720113
 20
118.0
 30
0.0
 11
242.6922506720113
 21
130.4999999999999
 31
0.0
  0
HATCH
  5
5CE
330
1F
100
AcDbEntity
  8
TEXT25
100
AcDbHatch
 10
0.0
 20
0.0
 30
0.0
210
0.0
220
0.0
230
1.0
  2
SOLID
 70
     1
 71
     0
 91
        1
 92
        1
 93
        3
 72
     1
 10
242.6922506720113
 20
131.4999999999999
 11
243.1922506720113
 21
129.4999999999999
 72
     1
 10
243.1922506720113
 20
129.4999999999999
 11
242.1922506720113
 21
129.4999999999999
 72
     1
 10
242.1922506720113
 20
129.4999999999999
 11
242.6922506720113
 21
131.4999999999999
 97
        0
 75
     0
 76
     1
 98
        1
 10
160.1922506720113
 20
-15.0
  0
LWPOLYLINE
  5
5CF
330
1F
100
AcDbEntity
  8
TEXT25
100
AcDbPolyline
 90
        4
 70
     0
 43
0.0
 10
242.6922506720113
 20
131.4999999999999
 10
243.1922506720113
 20
129.4999999999999
 10
242.1922506720113
 20
129.4999999999999
 10
242.6922506720113
 20
131.4999999999999
  0
LINE
  5
5D0
330
1F
100
AcDbEntity
  8
TEXT25
100
AcDbLine
 10
246.6922506720113
 20
118.0
 30
0.0
 11
242.6922506720113
 21
118.0
 31
0.0
  0
TEXT
  5
5E7
330
1F
100
AcDbEntity
  8
AM_HID
100
AcDbText
 10
287.1922506720114
 20
125.6
 30
0.0
 40
2.5
  1
*)  NOTE!
 41
0.9
  7
T25
100
AcDbText
  0
TEXT
  5
5E8
330
1F
100
AcDbEntity
  8
AM_HID
100
AcDbText
 10
292.1922506720113
 20
120.6
 30
0.0
 40
2.5
  1
IF AUXILIARY VOLTAGE SWITCH
 41
0.9
  7
T25
100
AcDbText
  0
TEXT
  5
5E9
330
1F
100
AcDbEntity
  8
AM_HID
100
AcDbText
 10
292.1922506720113
 20
115.6
 30
0.0
 40
2.5
  1
IS USED,  INCLUDE SHEET 4
 41
0.9
  7
T25
100
AcDbText
  0
TEXT
  5
5F6
330
1F
100
AcDbEntity
  8
TEXT25
100
AcDbText
 10
233.397335044194
 20
108.0392411531181
 30
0.0
 40
2.5
  1
*) SHEET 11
 41
0.9
  7
T25
100
AcDbText
  0
TEXT
  5
5F7
330
1F
100
AcDbEntity
  8
TEXT25
100
AcDbText
 10
233.397335044194
 20
104.5392411531181
 30
0.0
 40
2.5
  1
INCLUDED IN
 41
0.9
  7
T25
100
AcDbText
  0
TEXT
  5
5F8
330
1F
100
AcDbEntity
  8
TEXT25
100
AcDbText
 10
233.397335044194
 20
100.5392411531181
 30
0.0
 40
2.5
  1
REF 545
 41
0.9
  7
T25
100
AcDbText
  0
LINE
  5
607
330
1F
100
AcDbEntity
  8
TEXT25
100
AcDbLine
 10
104.4999999999999
 20
228.5
 30
0.0
 11
104.4999999999999
 21
111.0
 31
0.0
  0
LINE
  5
608
330
1F
100
AcDbEntity
  8
TEXT25
100
AcDbLine
 10
157.5
 20
228.5
 30
0.0
 11
157.5
 21
111.0
 31
0.0
  0
LINE
  5
60A
330
1F
100
AcDbEntity
  8
TEXT25
100
AcDbLine
 10
342.8929872798273
 20
230.9740245889642
 30
0.0
 11
342.8929872798274
 21
214.0462260816843
 31
0.0
  0
LINE
  5
60B
330
1F
100
AcDbEntity
  8
TEXT25
100
AcDbLine
 10
342.3920886065411
 20
230.9929585827481
 30
0.0
 11
343.3920886065411
 21
230.9929585827481
 31
0.0
  0
TEXT
  5
60E
330
1F
100
AcDbEntity
  8
TEXT25
 48
0.9
100
AcDbText
 10
240.1922506720113
 20
213.0
 30
0.0
 40
2.5
  1
FUNCTIONALITY LEVEL: B=BASIC, C=CONTROL, M=MULTI
 41
0.7
  7
T25
100
AcDbText
  0
LINE
  5
60F
330
1F
100
AcDbEntity
  8
TEXT25
100
AcDbLine
 10
316.6922506720113
 20
214.0462260816843
 30
0.0
 11
342.5070247014273
 21
214.0462260816843
 31
0.0
  0
LINE
  5
610
330
1F
100
AcDbEntity
  8
TEXT25
100
AcDbLine
 10
303.7640074131315
 20
208.60665379481
 30
0.0
 11
351.5146218010808
 21
208.6066537948101
 31
0.0
  0
LINE
  5
613
330
1F
100
AcDbEntity
  8
TEXT25
100
AcDbLine
 10
355.6922506720113
 20
139.0
 30
0.0
 11
371.6922506720113
 21
139.0
 31
0.0
  0
LINE
  5
614
330
1F
100
AcDbEntity
  8
TEXT25
100
AcDbLine
 10
371.6922506720113
 20
139.0
 30
0.0
 11
371.6922506720113
 21
159.4999999999999
 31
0.0
  0
LINE
  5
615
330
1F
100
AcDbEntity
  8
TEXT25
100
AcDbLine
 10
355.6922506720113
 20
144.0
 30
0.0
 11
367.6922506720113
 21
144.0
 31
0.0
  0
LINE
  5
616
330
1F
100
AcDbEntity
  8
TEXT25
100
AcDbLine
 10
367.6922506720113
 20
144.0
 30
0.0
 11
367.6922506720113
 21
159.4999999999999
 31
0.0
  0
LINE
  5
617
330
1F
100
AcDbEntity
  8
TEXT25
100
AcDbLine
 10
355.6922506720113
 20
149.0
 30
0.0
 11
363.6922506720113
 21
149.0
 31
0.0
  0
LINE
  5
618
330
1F
100
AcDbEntity
  8
TEXT25
100
AcDbLine
 10
363.6922506720113
 20
149.0
 30
0.0
 11
363.6922506720113
 21
159.4999999999999
 31
0.0
  0
TEXT
  5
628
330
1F
100
AcDbEntity
  8
TEXT25
100
AcDbText
 10
89.0
 20
146.0
 30
0.0
 40
2.5
  1
1
 41
0.9
  7
T25
100
AcDbText
  0
TEXT
  5
629
330
1F
100
AcDbEntity
  8
TEXT25
100
AcDbText
 10
82.5
 20
146.0
 30
0.0
 40
2.5
  1
1
 41
0.9
  7
T25
100
AcDbText
  0
LINE
  5
62A
330
1F
100
AcDbEntity
  8
TEXT25
100
AcDbLine
 10
92.5
 20
228.5
 30
0.0
 11
92.5
 21
111.0
 31
0.0
  0
LINE
  5
62B
330
1F
100
AcDbEntity
  8
TEXT25
100
AcDbLine
 10
86.5
 20
228.5
 30
0.0
 11
86.5
 21
111.0
 31
0.0
  0
TEXT
  5
62C
330
1F
100
AcDbEntity
  8
TEXT25
100
AcDbText
 10
89.0
 20
111.0
 30
0.0
 40
2.5
  1
1
 41
0.9
  7
T25
100
AcDbText
  0
TEXT
  5
62D
330
1F
100
AcDbEntity
  8
TEXT25
100
AcDbText
 10
82.5
 20
111.0
 30
0.0
 40
2.5
  1
1
 41
0.9
  7
T25
100
AcDbText
  0
TEXT
  5
62E
330
1F
100
AcDbEntity
  8
TEXT25
100
AcDbText
 10
82.5
 20
131.0
 30
0.0
 40
2.5
  1
1
 41
0.9
  7
T25
100
AcDbText
  0
TEXT
  5
62F
330
1F
100
AcDbEntity
  8
TEXT25
100
AcDbText
 10
89.0
 20
131.0
 30
0.0
 40
2.5
  1
1
 41
0.9
  7
T25
100
AcDbText
  0
TEXT
  5
630
330
1F
100
AcDbEntity
  8
TEXT25
100
AcDbText
 10
89.0
 20
141.0
 30
0.0
 40
2.5
  1
1
 41
0.9
  7
T25
100
AcDbText
  0
TEXT
  5
631
330
1F
100
AcDbEntity
  8
TEXT25
100
AcDbText
 10
82.5
 20
141.0
 30
0.0
 40
2.5
  1
1
 41
0.9
  7
T25
100
AcDbText
  0
TEXT
  5
632
330
1F
100
AcDbEntity
  8
TEXT25
100
AcDbText
 10
85.69047619047621
 20
190.0
 30
0.0
 40
2.5
  1
REF541_ _115AAAB/BAAB
 50
90.0
 41
0.7
  7
T25
100
AcDbText
  0
TEXT
  5
633
330
1F
100
AcDbEntity
  8
TEXT25
100
AcDbText
 10
91.73809523809524
 20
190.0
 30
0.0
 40
2.5
  1
REF541_ _115AABB/BABB
 50
90.0
 41
0.7
  7
T25
100
AcDbText
  0
TEXT
  5
634
330
1F
100
AcDbEntity
  8
TEXT25
100
AcDbText
 10
88.49999999999999
 20
156.0
 30
0.0
 40
2.5
  1
9
 41
0.9
  7
T25
100
AcDbText
  0
TEXT
  5
635
330
1F
100
AcDbEntity
  8
TEXT25
100
AcDbText
 10
82.5
 20
161.0
 30
0.0
 40
2.5
  1
4
 41
0.9
  7
T25
100
AcDbText
  0
TEXT
  5
636
330
1F
100
AcDbEntity
  8
TEXT25
100
AcDbText
 10
88.49999999999999
 20
161.0
 30
0.0
 40
2.5
  1
4
 41
0.9
  7
T25
100
AcDbText
  0
TEXT
  5
637
330
1F
100
AcDbEntity
  8
TEXT25
100
AcDbText
 10
82.5
 20
166.0
 30
0.0
 40
2.5
  1
1
 41
0.9
  7
T25
100
AcDbText
  0
TEXT
  5
638
330
1F
100
AcDbEntity
  8
TEXT25
100
AcDbText
 10
88.49999999999999
 20
166.0
 30
0.0
 40
2.5
  1
1
 41
0.9
  7
T25
100
AcDbText
  0
TEXT
  5
639
330
1F
100
AcDbEntity
  8
TEXT25
100
AcDbText
 10
82.5
 20
171.0
 30
0.0
 40
2.5
  1
4
 41
0.9
  7
T25
100
AcDbText
  0
TEXT
  5
63A
330
1F
100
AcDbEntity
  8
TEXT25
100
AcDbText
 10
88.49999999999999
 20
171.0
 30
0.0
 40
2.5
  1
4
 41
0.9
  7
T25
100
AcDbText
  0
TEXT
  5
63B
330
1F
100
AcDbEntity
  8
TEXT25
100
AcDbText
 10
112.5
 20
146.0
 30
0.0
 40
2.5
  1
1
 41
0.9
  7
T25
100
AcDbText
  0
TEXT
  5
63C
330
1F
100
AcDbEntity
  8
TEXT25
100
AcDbText
 10
106.4999999999999
 20
146.0
 30
0.0
 40
2.5
  1
1
 41
0.9
  7
T25
100
AcDbText
  0
LINE
  5
63D
330
1F
100
AcDbEntity
  8
TEXT25
100
AcDbLine
 10
110.4999999999999
 20
228.5
 30
0.0
 11
110.4999999999999
 21
111.0
 31
0.0
  0
TEXT
  5
63E
330
1F
100
AcDbEntity
  8
TEXT25
100
AcDbText
 10
106.4999999999999
 20
111.0
 30
0.0
 40
2.5
  1
1
 41
0.9
  7
T25
100
AcDbText
  0
TEXT
  5
63F
330
1F
100
AcDbEntity
  8
TEXT25
100
AcDbText
 10
106.4999999999999
 20
121.0
 30
0.0
 40
2.5
  1
1
 41
0.9
  7
T25
100
AcDbText
  0
TEXT
  5
640
330
1F
100
AcDbEntity
  8
TEXT25
100
AcDbText
 10
112.5
 20
111.0
 30
0.0
 40
2.5
  1
1
 41
0.9
  7
T25
100
AcDbText
  0
TEXT
  5
641
330
1F
100
AcDbEntity
  8
TEXT25
100
AcDbText
 10
112.5
 20
121.0
 30
0.0
 40
2.5
  1
1
 41
0.9
  7
T25
100
AcDbText
  0
TEXT
  5
642
330
1F
100
AcDbEntity
  8
TEXT25
100
AcDbText
 10
106.4999999999999
 20
131.0
 30
0.0
 40
2.5
  1
1
 41
0.9
  7
T25
100
AcDbText
  0
TEXT
  5
643
330
1F
100
AcDbEntity
  8
TEXT25
100
AcDbText
 10
112.5
 20
131.0
 30
0.0
 40
2.5
  1
1
 41
0.9
  7
T25
100
AcDbText
  0
TEXT
  5
644
330
1F
100
AcDbEntity
  8
TEXT25
100
AcDbText
 10
106.4999999999999
 20
141.0
 30
0.0
 40
2.5
  1
1
 41
0.9
  7
T25
100
AcDbText
  0
TEXT
  5
645
330
1F
100
AcDbEntity
  8
TEXT25
100
AcDbText
 10
112.5
 20
141.0
 30
0.0
 40
2.5
  1
1
 41
0.9
  7
T25
100
AcDbText
  0
TEXT
  5
646
330
1F
100
AcDbEntity
  8
TEXT25
100
AcDbText
 10
109.4761904761904
 20
190.0
 30
0.0
 40
2.5
  1
REF541_ _118AAAB/BAAB
 50
90.0
 41
0.7
  7
T25
100
AcDbText
  0
TEXT
  5
647
330
1F
100
AcDbEntity
  8
TEXT25
100
AcDbText
 10
115.5238095238094
 20
190.0
 30
0.0
 40
2.5
  1
REF541_ _118AABB/BABB
 50
90.0
 41
0.7
  7
T25
100
AcDbText
  0
TEXT
  5
648
330
1F
100
AcDbEntity
  8
TEXT25
100
AcDbText
 10
112.5
 20
156.0
 30
0.0
 40
2.5
  1
9
 41
0.9
  7
T25
100
AcDbText
  0
TEXT
  5
649
330
1F
100
AcDbEntity
  8
TEXT25
100
AcDbText
 10
107.0
 20
166.0
 30
0.0
 40
2.5
  1
1
 41
0.9
  7
T25
100
AcDbText
  0
TEXT
  5
64A
330
1F
100
AcDbEntity
  8
TEXT25
100
AcDbText
 10
107.0
 20
161.0
 30
0.0
 40
2.5
  1
4
 41
0.9
  7
T25
100
AcDbText
  0
TEXT
  5
64B
330
1F
100
AcDbEntity
  8
TEXT25
100
AcDbText
 10
112.5
 20
161.0
 30
0.0
 40
2.5
  1
4
 41
0.9
  7
T25
100
AcDbText
  0
TEXT
  5
64C
330
1F
100
AcDbEntity
  8
TEXT25
100
AcDbText
 10
112.5
 20
166.0
 30
0.0
 40
2.5
  1
1
 41
0.9
  7
T25
100
AcDbText
  0
TEXT
  5
64D
330
1F
100
AcDbEntity
  8
TEXT25
100
AcDbText
 10
107.0
 20
171.0
 30
0.0
 40
2.5
  1
4
 41
0.9
  7
T25
100
AcDbText
  0
TEXT
  5
64E
330
1F
100
AcDbEntity
  8
TEXT25
100
AcDbText
 10
112.5
 20
171.0
 30
0.0
 40
2.5
  1
4
 41
0.9
  7
T25
100
AcDbText
  0
LINE
  5
64F
330
1F
100
AcDbEntity
  8
TEXT25
100
AcDbLine
 10
116.5
 20
228.5
 30
0.0
 11
116.5
 21
111.0
 31
0.0
  0
TEXT
  5
650
330
1F
100
AcDbEntity
  8
TEXT25
100
AcDbText
 10
138.2857142857142
 20
190.0
 30
0.0
 40
2.5
  1
REF543_ _127AAAB/BAAB
 50
90.0
 41
0.7
  7
T25
100
AcDbText
  0
TEXT
  5
651
330
1F
100
AcDbEntity
  8
TEXT25
100
AcDbText
 10
144.3333333333333
 20
190.0
 30
0.0
 40
2.5
  1
REF543_ _127AABB/BABB
 50
90.0
 41
0.7
  7
T25
100
AcDbText
  0
TEXT
  5
652
330
1F
100
AcDbEntity
  8
TEXT25
100
AcDbText
 10
135.4999999999999
 20
146.0
 30
0.0
 40
2.5
  1
1
 41
0.9
  7
T25
100
AcDbText
  0
TEXT
  5
653
330
1F
100
AcDbEntity
  8
TEXT25
100
AcDbText
 10
141.5
 20
146.0
 30
0.0
 40
2.5
  1
1
 41
0.9
  7
T25
100
AcDbText
  0
TEXT
  5
654
330
1F
100
AcDbEntity
  8
TEXT25
100
AcDbText
 10
135.4999999999999
 20
111.0
 30
0.0
 40
2.5
  1
1
 41
0.9
  7
T25
100
AcDbText
  0
TEXT
  5
655
330
1F
100
AcDbEntity
  8
TEXT25
100
AcDbText
 10
141.5
 20
111.0
 30
0.0
 40
2.5
  1
1
 41
0.9
  7
T25
100
AcDbText
  0
TEXT
  5
656
330
1F
100
AcDbEntity
  8
TEXT25
100
AcDbText
 10
135.4999999999999
 20
141.0
 30
0.0
 40
2.5
  1
1
 41
0.9
  7
T25
100
AcDbText
  0
TEXT
  5
657
330
1F
100
AcDbEntity
  8
TEXT25
100
AcDbText
 10
135.4999999999999
 20
131.0
 30
0.0
 40
2.5
  1
1
 41
0.9
  7
T25
100
AcDbText
  0
TEXT
  5
658
330
1F
100
AcDbEntity
  8
TEXT25
100
AcDbText
 10
135.4999999999999
 20
126.0
 30
0.0
 40
2.5
  1
1
 41
0.9
  7
T25
100
AcDbText
  0
TEXT
  5
659
330
1F
100
AcDbEntity
  8
TEXT25
100
AcDbText
 10
141.5
 20
126.0
 30
0.0
 40
2.5
  1
1
 41
0.9
  7
T25
100
AcDbText
  0
TEXT
  5
65A
330
1F
100
AcDbEntity
  8
TEXT25
100
AcDbText
 10
141.5
 20
131.0
 30
0.0
 40
2.5
  1
1
 41
0.9
  7
T25
100
AcDbText
  0
TEXT
  5
65B
330
1F
100
AcDbEntity
  8
TEXT25
100
AcDbText
 10
141.5
 20
141.0
 30
0.0
 40
2.5
  1
1
 41
0.9
  7
T25
100
AcDbText
  0
TEXT
  5
65C
330
1F
100
AcDbEntity
  8
TEXT25
100
AcDbText
 10
135.4999999999999
 20
166.0
 30
0.0
 40
2.5
  1
1
 41
0.9
  7
T25
100
AcDbText
  0
TEXT
  5
65D
330
1F
100
AcDbEntity
  8
TEXT25
100
AcDbText
 10
135.4999999999999
 20
161.0
 30
0.0
 40
2.5
  1
4
 41
0.9
  7
T25
100
AcDbText
  0
TEXT
  5
65E
330
1F
100
AcDbEntity
  8
TEXT25
100
AcDbText
 10
141.5
 20
156.0
 30
0.0
 40
2.5
  1
9
 41
0.9
  7
T25
100
AcDbText
  0
TEXT
  5
65F
330
1F
100
AcDbEntity
  8
TEXT25
100
AcDbText
 10
141.5
 20
161.0
 30
0.0
 40
2.5
  1
4
 41
0.9
  7
T25
100
AcDbText
  0
TEXT
  5
660
330
1F
100
AcDbEntity
  8
TEXT25
100
AcDbText
 10
141.5
 20
166.0
 30
0.0
 40
2.5
  1
1
 41
0.9
  7
T25
100
AcDbText
  0
TEXT
  5
661
330
1F
100
AcDbEntity
  8
TEXT25
100
AcDbText
 10
135.4999999999999
 20
171.0
 30
0.0
 40
2.5
  1
4
 41
0.9
  7
T25
100
AcDbText
  0
TEXT
  5
662
330
1F
100
AcDbEntity
  8
TEXT25
100
AcDbText
 10
141.5
 20
171.0
 30
0.0
 40
2.5
  1
4
 41
0.9
  7
T25
100
AcDbText
  0
LINE
  5
663
330
1F
100
AcDbEntity
  8
TEXT25
100
AcDbLine
 10
139.5
 20
228.5
 30
0.0
 11
139.5
 21
111.0
 31
0.0
  0
LINE
  5
664
330
1F
100
AcDbEntity
  8
TEXT25
100
AcDbLine
 10
145.5
 20
228.5
 30
0.0
 11
145.5
 21
111.0
 31
0.0
  0
LINE
  5
665
330
1F
100
AcDbEntity
  8
TEXT25
100
AcDbLine
 10
169.5
 20
228.5
 30
0.0
 11
169.5
 21
111.0
 31
0.0
  0
TEXT
  5
666
330
1F
100
AcDbEntity
  8
TEXT25
100
AcDbText
 10
165.5
 20
146.0
 30
0.0
 40
2.5
  1
1
 41
0.9
  7
T25
100
AcDbText
  0
TEXT
  5
667
330
1F
100
AcDbEntity
  8
TEXT25
100
AcDbText
 10
159.4999999999999
 20
146.0
 30
0.0
 40
2.5
  1
1
 41
0.9
  7
T25
100
AcDbText
  0
LINE
  5
668
330
1F
100
AcDbEntity
  8
TEXT25
100
AcDbLine
 10
163.4999999999999
 20
228.5
 30
0.0
 11
163.4999999999999
 21
111.0
 31
0.0
  0
TEXT
  5
669
330
1F
100
AcDbEntity
  8
TEXT25
100
AcDbText
 10
159.4999999999999
 20
111.0
 30
0.0
 40
2.5
  1
1
 41
0.9
  7
T25
100
AcDbText
  0
TEXT
  5
66A
330
1F
100
AcDbEntity
  8
TEXT25
100
AcDbText
 10
159.4999999999999
 20
121.0
 30
0.0
 40
2.5
  1
1
 41
0.9
  7
T25
100
AcDbText
  0
TEXT
  5
66B
330
1F
100
AcDbEntity
  8
TEXT25
100
AcDbText
 10
165.5
 20
111.0
 30
0.0
 40
2.5
  1
1
 41
0.9
  7
T25
100
AcDbText
  0
TEXT
  5
66C
330
1F
100
AcDbEntity
  8
TEXT25
100
AcDbText
 10
165.5
 20
121.0
 30
0.0
 40
2.5
  1
1
 41
0.9
  7
T25
100
AcDbText
  0
TEXT
  5
66D
330
1F
100
AcDbEntity
  8
TEXT25
100
AcDbText
 10
159.4999999999999
 20
126.0
 30
0.0
 40
2.5
  1
1
 41
0.9
  7
T25
100
AcDbText
  0
TEXT
  5
66E
330
1F
100
AcDbEntity
  8
TEXT25
100
AcDbText
 10
159.4999999999999
 20
131.0
 30
0.0
 40
2.5
  1
1
 41
0.9
  7
T25
100
AcDbText
  0
TEXT
  5
66F
330
1F
100
AcDbEntity
  8
TEXT25
100
AcDbText
 10
165.5
 20
126.0
 30
0.0
 40
2.5
  1
1
 41
0.9
  7
T25
100
AcDbText
  0
TEXT
  5
670
330
1F
100
AcDbEntity
  8
TEXT25
100
AcDbText
 10
165.5
 20
131.0
 30
0.0
 40
2.5
  1
1
 41
0.9
  7
T25
100
AcDbText
  0
TEXT
  5
671
330
1F
100
AcDbEntity
  8
TEXT25
100
AcDbText
 10
159.4999999999999
 20
141.0
 30
0.0
 40
2.5
  1
1
 41
0.9
  7
T25
100
AcDbText
  0
TEXT
  5
672
330
1F
100
AcDbEntity
  8
TEXT25
100
AcDbText
 10
165.5
 20
141.0
 30
0.0
 40
2.5
  1
1
 41
0.9
  7
T25
100
AcDbText
  0
TEXT
  5
673
330
1F
100
AcDbEntity
  8
TEXT25
100
AcDbText
 10
168.0238095238094
 20
190.0
 30
0.0
 40
2.5
  1
REF543_ _129AABB/BABB
 50
90.0
 41
0.7
  7
T25
100
AcDbText
  0
TEXT
  5
674
330
1F
100
AcDbEntity
  8
TEXT25
100
AcDbText
 10
165.5
 20
156.0
 30
0.0
 40
2.5
  1
9
 41
0.9
  7
T25
100
AcDbText
  0
TEXT
  5
675
330
1F
100
AcDbEntity
  8
TEXT25
100
AcDbText
 10
159.4999999999999
 20
161.0
 30
0.0
 40
2.5
  1
4
 41
0.9
  7
T25
100
AcDbText
  0
TEXT
  5
676
330
1F
100
AcDbEntity
  8
TEXT25
100
AcDbText
 10
159.4999999999999
 20
166.0
 30
0.0
 40
2.5
  1
1
 41
0.9
  7
T25
100
AcDbText
  0
TEXT
  5
677
330
1F
100
AcDbEntity
  8
TEXT25
100
AcDbText
 10
165.5
 20
161.0
 30
0.0
 40
2.5
  1
4
 41
0.9
  7
T25
100
AcDbText
  0
TEXT
  5
678
330
1F
100
AcDbEntity
  8
TEXT25
100
AcDbText
 10
165.5
 20
166.0
 30
0.0
 40
2.5
  1
1
 41
0.9
  7
T25
100
AcDbText
  0
TEXT
  5
679
330
1F
100
AcDbEntity
  8
TEXT25
100
AcDbText
 10
159.4999999999999
 20
171.0
 30
0.0
 40
2.5
  1
4
 41
0.9
  7
T25
100
AcDbText
  0
TEXT
  5
67A
330
1F
100
AcDbEntity
  8
TEXT25
100
AcDbText
 10
165.5
 20
171.0
 30
0.0
 40
2.5
  1
4
 41
0.9
  7
T25
100
AcDbText
  0
TEXT
  5
67B
330
1F
100
AcDbEntity
  8
TEXT25
100
AcDbText
 10
162.4761904761904
 20
190.0
 30
0.0
 40
2.5
  1
REF543_ _129AAAB/BAAB
 50
90.0
 41
0.7
  7
T25
100
AcDbText
  0
TEXT
  5
67C
330
1F
100
AcDbEntity
  8
TEXT25
100
AcDbText
 10
191.4761904761904
 20
190.0
 30
0.0
 40
2.5
  1
REF545_ _133AAAB/BAAB
 50
90.0
 41
0.7
  7
T25
100
AcDbText
  0
TEXT
  5
67D
330
1F
100
AcDbEntity
  8
TEXT25
100
AcDbText
 10
197.0238095238094
 20
190.0
 30
0.0
 40
2.5
  1
REF545_ _133AABB/BABB
 50
90.0
 41
0.7
  7
T25
100
AcDbText
  0
TEXT
  5
67E
330
1F
100
AcDbEntity
  8
TEXT25
100
AcDbText
 10
194.5
 20
146.0
 30
0.0
 40
2.5
  1
1
 41
0.9
  7
T25
100
AcDbText
  0
TEXT
  5
67F
330
1F
100
AcDbEntity
  8
TEXT25
100
AcDbText
 10
188.4999999999999
 20
146.0
 30
0.0
 40
2.5
  1
1
 41
0.9
  7
T25
100
AcDbText
  0
TEXT
  5
680
330
1F
100
AcDbEntity
  8
TEXT25
100
AcDbText
 10
188.4999999999999
 20
136.4999999999999
 30
0.0
 40
2.5
  1
1
 41
0.9
  7
T25
100
AcDbText
  0
TEXT
  5
681
330
1F
100
AcDbEntity
  8
TEXT25
100
AcDbText
 10
188.4999999999999
 20
126.0
 30
0.0
 40
2.5
  1
1
 41
0.9
  7
T25
100
AcDbText
  0
TEXT
  5
682
330
1F
100
AcDbEntity
  8
TEXT25
100
AcDbText
 10
188.4999999999999
 20
131.0
 30
0.0
 40
2.5
  1
2
 41
0.9
  7
T25
100
AcDbText
  0
TEXT
  5
683
330
1F
100
AcDbEntity
  8
TEXT25
100
AcDbText
 10
188.4999999999999
 20
111.0
 30
0.0
 40
2.5
  1
1
 41
0.9
  7
T25
100
AcDbText
  0
TEXT
  5
684
330
1F
100
AcDbEntity
  8
TEXT25
100
AcDbText
 10
194.5
 20
111.0
 30
0.0
 40
2.5
  1
1
 41
0.9
  7
T25
100
AcDbText
  0
TEXT
  5
685
330
1F
100
AcDbEntity
  8
TEXT25
100
AcDbText
 10
194.5
 20
126.0
 30
0.0
 40
2.5
  1
1
 41
0.9
  7
T25
100
AcDbText
  0
TEXT
  5
686
330
1F
100
AcDbEntity
  8
TEXT25
100
AcDbText
 10
194.5
 20
131.0
 30
0.0
 40
2.5
  1
2
 41
0.9
  7
T25
100
AcDbText
  0
TEXT
  5
687
330
1F
100
AcDbEntity
  8
TEXT25
100
AcDbText
 10
194.5
 20
136.4999999999999
 30
0.0
 40
2.5
  1
1
 41
0.9
  7
T25
100
AcDbText
  0
TEXT
  5
688
330
1F
100
AcDbEntity
  8
TEXT25
100
AcDbText
 10
188.4999999999999
 20
171.0
 30
0.0
 40
2.5
  1
4
 41
0.9
  7
T25
100
AcDbText
  0
TEXT
  5
689
330
1F
100
AcDbEntity
  8
TEXT25
100
AcDbText
 10
188.4999999999999
 20
166.0
 30
0.0
 40
2.5
  1
1
 41
0.9
  7
T25
100
AcDbText
  0
TEXT
  5
68A
330
1F
100
AcDbEntity
  8
TEXT25
100
AcDbText
 10
188.4999999999999
 20
161.0
 30
0.0
 40
2.5
  1
4
 41
0.9
  7
T25
100
AcDbText
  0
TEXT
  5
68B
330
1F
100
AcDbEntity
  8
TEXT25
100
AcDbText
 10
194.5
 20
156.0
 30
0.0
 40
2.5
  1
9
 41
0.9
  7
T25
100
AcDbText
  0
TEXT
  5
68C
330
1F
100
AcDbEntity
  8
TEXT25
100
AcDbText
 10
194.5
 20
161.0
 30
0.0
 40
2.5
  1
4
 41
0.9
  7
T25
100
AcDbText
  0
TEXT
  5
68D
330
1F
100
AcDbEntity
  8
TEXT25
100
AcDbText
 10
194.5
 20
166.0
 30
0.0
 40
2.5
  1
1
 41
0.9
  7
T25
100
AcDbText
  0
TEXT
  5
68E
330
1F
100
AcDbEntity
  8
TEXT25
100
AcDbText
 10
194.5
 20
171.0
 30
0.0
 40
2.5
  1
4
 41
0.9
  7
T25
100
AcDbText
  0
LINE
  5
68F
330
1F
100
AcDbEntity
  8
TEXT25
100
AcDbLine
 10
192.5
 20
228.5
 30
0.0
 11
192.5
 21
111.0
 31
0.0
  0
LINE
  5
690
330
1F
100
AcDbEntity
  8
TEXT25
100
AcDbLine
 10
198.5
 20
228.5
 30
0.0
 11
198.5
 21
111.0
 31
0.0
  0
LINE
  5
691
330
1F
100
AcDbEntity
  8
TEXT25
100
AcDbLine
 10
31.0
 20
111.0
 30
0.0
 11
218.5
 21
111.0
 31
0.0
  0
TEXT
  5
692
330
1F
100
AcDbEntity
  8
TEXT25
100
AcDbText
 10
34.0
 20
111.7372063273517
 30
0.0
 40
2.5
  1
MMI, EXTERNAL
 41
0.7
  7
T25
100
AcDbText
  0
TEXT
  5
6AC
330
1F
100
AcDbEntity
  8
AM_HID
100
AcDbText
 10
286.1922506720113
 20
138.5
 30
0.0
 40
2.5
  1
*)
 41
0.9
  7
T25
100
AcDbText
  0
TEXT
  5
6AD
330
1F
100
AcDbEntity
  8
AM_HID
100
AcDbText
 10
286.1922506720113
 20
133.4999999999999
 30
0.0
 40
2.5
  1
*)
 41
0.9
  7
T25
100
AcDbText
  0
TEXT
  5
6B5
330
1F
100
AcDbEntity
  8
TEXT25
100
AcDbText
 10
205.5
 20
111.9508035677383
 30
0.0
 40
2.5
  1
3
 41
0.9
  7
T25
100
AcDbText
  0
TEXT
  5
6C3
330
1F
100
AcDbEntity
  8
TEXT25
100
AcDbText
 10
211.0
 20
19.72373717179584
 30
0.0
 40
2.5
  1
A Fagerroos
 41
0.9
  7
T25
100
AcDbText
  0
TEXT
  5
6C4
330
1F
100
AcDbEntity
  8
TEXT25
100
AcDbText
 10
211.0
 20
11.22373717179584
 30
0.0
 40
2.5
  1
K.Latva-Rasku
 41
0.9
  7
T25
100
AcDbText
  0
LINE
  5
6DC
330
1F
100
AcDbEntity
  8
TEXT25
100
AcDbLine
 10
173.008371157236
 20
48.67950266362038
 30
0.0
 11
140.6997689546324
 21
48.67950266362038
 31
0.0
  0
LINE
  5
6DD
330
1F
100
AcDbEntity
  8
TEXT25
100
AcDbLine
 10
140.5
 20
43.69343677829272
 30
0.0
 11
173.0
 21
43.69343677829272
 31
0.0
  0
TEXT
  5
6DE
330
1F
100
AcDbEntity
  8
TEXT25
100
AcDbText
 10
148.0
 20
44.59267070193391
 30
0.0
 40
2.5
  1
155-265VDC
 41
0.9
  7
T25
100
AcDbText
  0
LINE
  5
6DF
330
1F
100
AcDbEntity
  8
TEXT25
100
AcDbLine
 10
140.5
 20
19.52878684586528
 30
0.0
 11
173.0
 21
19.52878684586528
 31
0.0
  0
TEXT
  5
6E0
330
1F
100
AcDbEntity
  8
TEXT25
100
AcDbText
 10
148.0
 20
20.68597143599868
 30
0.0
 40
2.5
  1
155-265VDC
 41
0.9
  7
T25
100
AcDbText
  0
LWPOLYLINE
  5
6E1
330
1F
100
AcDbEntity
  8
TEXT25
100
AcDbPolyline
 90
        4
 70
     0
 43
0.0
 10
140.5
 20
21.94037738913323
 10
138.5
 20
22.44037738913323
 10
138.5
 20
21.44037738913323
 10
140.5
 20
21.94037738913323
  0
HATCH
  5
6E2
330
1F
100
AcDbEntity
  8
TEXT25
100
AcDbHatch
 10
0.0
 20
0.0
 30
0.0
210
0.0
220
0.0
230
1.0
  2
SOLID
 70
     1
 71
     0
 91
        1
 92
        1
 93
        3
 72
     1
 10
140.5
 20
21.94037738913323
 11
138.5
 21
22.44037738913323
 72
     1
 10
138.5
 20
22.44037738913323
 11
138.5
 21
21.44037738913323
 72
     1
 10
138.5
 20
21.44037738913323
 11
140.5
 21
21.94037738913323
 97
        0
 75
     0
 76
     1
 98
        1
 10
-6.0
 20
-60.55962261086676
  0
LINE
  5
6E3
330
1F
100
AcDbEntity
  8
TEXT25
100
AcDbLine
 10
138.5
 20
21.94037738913323
 30
0.0
 11
119.9999999999999
 21
21.94037738913323
 31
0.0
  0
HATCH
  5
6E4
330
1F
100
AcDbEntity
  8
TEXT25
100
AcDbHatch
 10
0.0
 20
0.0
 30
0.0
210
0.0
220
0.0
230
1.0
  2
SOLID
 70
     1
 71
     0
 91
        1
 92
        1
 93
        3
 72
     1
 10
140.5
 20
45.93914922365968
 11
138.5
 21
46.43914922365968
 72
     1
 10
138.5
 20
46.43914922365968
 11
138.5
 21
45.43914922365968
 72
     1
 10
138.5
 20
45.43914922365968
 11
140.5
 21
45.93914922365968
 97
        0
 75
     0
 76
     1
 98
        1
 10
-6.0
 20
-36.56085077634031
  0
LWPOLYLINE
  5
6E5
330
1F
100
AcDbEntity
  8
TEXT25
100
AcDbPolyline
 90
        4
 70
     0
 43
0.0
 10
140.5
 20
45.93914922365968
 10
138.5
 20
46.43914922365968
 10
138.5
 20
45.43914922365968
 10
140.5
 20
45.93914922365968
  0
LINE
  5
6E6
330
1F
100
AcDbEntity
  8
TEXT25
100
AcDbLine
 10
138.5
 20
45.93914922365968
 30
0.0
 11
125.0
 21
45.93914922365968
 31
0.0
  0
TEXT
  5
6EA
330
1F
100
AcDbEntity
  8
TEXT25
 48
0.9
100
AcDbText
 10
240.1922506720113
 20
194.0881667981325
 30
0.0
 40
2.5
  1
B= 110-220VDC/110-240VAC ; 155 - 265VDC
 41
0.7
  7
T25
100
AcDbText
  0
TEXT
  5
6FF
330
1F
100
AcDbEntity
  8
TEXT25
100
AcDbText
 10
48.11623492569402
 20
0.8739843205752322
 30
0.0
 40
2.0
  1
Added binary treshold voltage 155-265 VDC (sheet 1) and IEC communication ( sheet 3)  21.11.03 *SV
 41
0.9
  7
T25
100
AcDbText
  0
LINE
  5
84D
330
1F
100
AcDbEntity
  8
PAKSU
100
AcDbLine
 10
-1.607960865020231
 20
0.0158017640995922
 30
0.0
 11
-1.607960865020231
 21
262.5158017640996
 31
0.0
  0
LINE
  5
84E
330
1F
100
AcDbEntity
  8
PAKSU
100
AcDbLine
 10
390.3920391349797
 20
262.5158017640996
 30
0.0
 11
390.3920391349797
 21
0.0158017640995922
 31
0.0
  0
LINE
  5
84F
330
1F
100
AcDbEntity
  8
PAKSU
100
AcDbLine
 10
-1.607960865020231
 20
0.0158017640995922
 30
0.0
 11
390.3920391349797
 21
0.0158017640995922
 31
0.0
  0
TEXT
  5
850
330
1F
100
AcDbEntity
  8
RAAMI
100
AcDbText
 10
40.39203913497977
 20
0.9681827164805447
 30
0.0
 40
2.5
  1
B
  7
ROMANS
100
AcDbText
  0
TEXT
  5
851
330
1F
100
AcDbEntity
  8
RAAMI
100
AcDbText
 10
40.39203913497977
 20
5.370222822742839
 30
0.0
 40
2.5
  1
C
  7
ROMANS
100
AcDbText
  0
TEXT
  5
853
330
1F
100
AcDbEntity
  8
RAAMI
100
AcDbText
 10
282.3662924715481
 20
7.015801764099592
 30
0.0
 40
1.399999999999999
  1
OSASTO DEPT.
  7
ROMANS
100
AcDbText
  0
TEXT
  5
854
330
1F
100
AcDbEntity
  8
RAAMI
100
AcDbText
 10
208.3920391349797
 20
32.01580176409959
 30
0.0
 40
1.399999999999999
  1
TEKI  PREPARED
  7
ROMANS
100
AcDbText
  0
LINE
  5
855
330
1F
100
AcDbEntity
  8
OHUT
100
AcDbLine
 10
280.3662924715481
 20
9.515801764099592
 30
0.0
 11
280.3662924715481
 21
0.0158017640995922
 31
0.0
  0
LINE
  5
856
330
1F
100
AcDbEntity
  8
OHUT
100
AcDbLine
 10
255.3920391349797
 20
9.515801764099592
 30
0.0
 11
255.3920391349797
 21
35.01580176409959
 31
0.0
  0
LINE
  5
857
330
1F
100
AcDbEntity
  8
OHUT
100
AcDbLine
 10
38.89203913497977
 20
4.515801764099592
 30
0.0
 11
207.3920391349797
 21
4.515801764099592
 31
0.0
  0
LINE
  5
858
330
1F
100
AcDbEntity
  8
OHUT
100
AcDbLine
 10
44.89203913497976
 20
0.0158017640995922
 30
0.0
 11
44.89203913497976
 21
9.015801764099592
 31
0.0
  0
LINE
  5
859
330
1F
100
AcDbEntity
  8
OHUT
100
AcDbLine
 10
44.89203913497976
 20
9.015801764099592
 30
0.0
 11
207.3920391349797
 21
9.015801764099592
 31
0.0
  0
TEXT
  5
85A
330
1F
100
AcDbEntity
  8
RAAMI
100
AcDbText
 10
25.89203913497977
 20
2.249135097432926
 30
0.0
 40
1.399999999999999
  1
REVISION
  7
ROMANS
100
AcDbText
  0
TEXT
  5
85B
330
1F
100
AcDbEntity
  8
RAAMI
100
AcDbText
 10
25.89203913497977
 20
4.515801764099592
 30
0.0
 40
1.399999999999999
  1
MUUTOS
  7
ROMANS
100
AcDbText
  0
LINE
  5
85C
330
1F
100
AcDbEntity
  8
OHUT
100
AcDbLine
 10
280.3920391349797
 20
9.515801764099592
 30
0.0
 11
280.3920391349797
 21
18.01580176409959
 31
0.0
  0
LINE
  5
85D
330
1F
100
AcDbEntity
  8
RAAMI
100
AcDbLine
 10
208.3420391349797
 20
1.515801764099592
 30
0.0
 11
210.0920391349797
 21
1.515801764099592
 31
0.0
  0
LINE
  5
85E
330
1F
100
AcDbEntity
  8
OHUT
100
AcDbLine
 10
367.8920391349797
 20
18.01580176409959
 30
0.0
 11
367.8920391349797
 21
0.0158017640995922
 31
0.0
  0
TEXT
  5
85F
330
1F
100
AcDbEntity
  8
RAAMI
100
AcDbText
 10
369.3920391349797
 20
7.015801764099592
 30
0.0
 40
1.399999999999999
  1
PAINOS  REVISION
  7
ROMANS
100
AcDbText
  0
TEXT
  5
860
330
1F
100
AcDbEntity
  8
RAAMI
100
AcDbText
 10
307.3920391349797
 20
32.51580176409959
 30
0.0
 40
1.399999999999999
  1
NIMITYS  NAME
  7
ROMANS
100
AcDbText
  0
TEXT
  5
861
330
1F
100
AcDbEntity
  8
RAAMI
100
AcDbText
 10
257.3920391349797
 20
15.51580176409959
 30
0.0
 40
1.399999999999999
  1
SUHDE  SCALE
  7
ROMANS
100
AcDbText
  0
TEXT
  5
862
330
1F
100
AcDbEntity
  8
RAAMI
100
AcDbText
 10
257.3920391349797
 20
23.51580176409959
 30
0.0
 40
1.399999999999999
  1
TOLERANSSIT  TOLERANCES
  7
ROMANS
100
AcDbText
  0
TEXT
  5
863
330
1F
100
AcDbEntity
  8
RAAMI
100
AcDbText
 10
257.3920391349797
 20
32.51580176409959
 30
0.0
 40
1.399999999999999
  1
LIITTYY  CONCERNING
  7
ROMANS
100
AcDbText
  0
LINE
  5
864
330
1F
100
AcDbEntity
  8
OHUT
100
AcDbLine
 10
305.3920391349797
 20
0.0158017640995922
 30
0.0
 11
305.3920391349797
 21
35.01580176409959
 31
0.0
  0
TEXT
  5
865
330
1F
100
AcDbEntity
  8
RAAMI
100
AcDbText
 10
208.1348738608461
 20
15.48246843076626
 30
0.0
 40
1.399999999999999
  1
HYVÄKSYI  APPROVED
  7
ROMANS
100
AcDbText
  0
TEXT
  5
866
330
1F
100
AcDbEntity
  8
RAAMI
100
AcDbText
 10
208.3920391349797
 20
23.74913509743292
 30
0.0
 40
1.399999999999999
  1
TARKASTI  CHECKED
  7
ROMANS
100
AcDbText
  0
LINE
  5
867
330
1F
100
AcDbEntity
  8
PAKSU
100
AcDbLine
 10
207.3920391349797
 20
35.01580176409959
 30
0.0
 11
390.3920391349797
 21
35.01580176409959
 31
0.0
  0
LINE
  5
868
330
1F
100
AcDbEntity
  8
OHUT
100
AcDbLine
 10
207.3920391349797
 20
26.51580176409959
 30
0.0
 11
305.3920391349797
 21
26.51580176409959
 31
0.0
  0
LINE
  5
869
330
1F
100
AcDbEntity
  8
OHUT
100
AcDbLine
 10
207.3920391349797
 20
9.515801764099592
 30
0.0
 11
390.3920391349797
 21
9.515801764099592
 31
0.0
  0
LINE
  5
86A
330
1F
100
AcDbEntity
  8
OHUT
100
AcDbLine
 10
207.3920391349797
 20
18.01580176409959
 30
0.0
 11
390.3920391349797
 21
18.01580176409959
 31
0.0
  0
LINE
  5
86B
330
1F
100
AcDbEntity
  8
PAKSU
100
AcDbLine
 10
390.3920391349797
 20
0.0158017640995922
 30
0.0
 11
390.3920391349797
 21
35.01580176409959
 31
0.0
  0
LINE
  5
86C
330
1F
100
AcDbEntity
  8
PAKSU
100
AcDbLine
 10
207.3920391349797
 20
0.0158017640995922
 30
0.0
 11
207.3920391349797
 21
35.01580176409959
 31
0.0
  0
LINE
  5
86D
330
1F
100
AcDbEntity
  8
PAKSU
100
AcDbLine
 10
207.3920391349797
 20
0.0158017640995922
 30
0.0
 11
390.3920391349797
 21
0.0158017640995922
 31
0.0
  0
LINE
  5
86E
330
1F
100
AcDbEntity
  8
PAKSU
100
AcDbLine
 10
-1.607960865020231
 20
262.5158017640996
 30
0.0
 11
390.3920391349797
 21
262.5158017640996
 31
0.0
  0
TEXT
  5
86F
330
1F
100
AcDbEntity
  8
RAAMI
100
AcDbText
 10
307.3920391349797
 20
7.015801764099592
 30
0.0
 40
1.399999999999999
  1
PIIRUSTUS NO  DRAWING NO
  7
ROMANS
100
AcDbText
  0
INSERT
  5
870
330
1F
100
AcDbEntity
  8
RAAMI
100
AcDbBlockReference
  2
LOGO
 10
207.3920391349797
 20
-8.984198235900407
 30
0.0
  0
TEXT
  5
871
330
1F
100
AcDbEntity
  8
RAAMI
100
AcDbText
 10
281.9468643449237
 20
15.51676776475289
 30
0.0
 40
1.399999999999999
  1
PROJ
  7
ROMANS
100
AcDbText
  0
LINE
  5
872
330
1F
100
AcDbEntity
  8
RAAMI
  6
DASHDOT
100
AcDbLine
 10
299.909057888025
 20
13.42792386227334
 30
0.0
 11
296.5664818102445
 21
13.42792386227334
 31
0.0
  0
CIRCLE
  5
873
330
1F
100
AcDbEntity
  8
RAAMI
100
AcDbCircle
 10
299.909057888025
 20
13.42792386227334
 30
0.0
 40
2.343653787115606
  0
LINE
  5
874
330
1F
100
AcDbEntity
  8
RAAMI
  6
DASHDOT
100
AcDbLine
 10
295.643848992692
 20
13.43264536875926
 30
0.0
 11
288.4071743820486
 21
13.43264536875926
 31
0.0
  0
LINE
  5
875
330
1F
100
AcDbEntity
  8
RAAMI
100
AcDbLine
 10
289.4901310151134
 20
12.27831052171394
 30
0.0
 11
294.5006256446056
 21
11.12397567466862
 31
0.0
  0
LINE
  5
876
330
1F
100
AcDbEntity
  8
RAAMI
100
AcDbLine
 10
294.5006256446056
 20
15.74131506284989
 30
0.0
 11
289.4901310151134
 21
14.47154673110005
 31
0.0
  0
LINE
  5
877
330
1F
100
AcDbEntity
  8
RAAMI
100
AcDbLine
 10
289.4901310151134
 20
14.47154673110005
 30
0.0
 11
289.4901310151134
 21
12.27831052171394
 31
0.0
  0
LINE
  5
878
330
1F
100
AcDbEntity
  8
RAAMI
100
AcDbLine
 10
294.5006256446056
 20
11.12397567466862
 30
0.0
 11
294.5006256446056
 21
15.74131506284989
 31
0.0
  0
LINE
  5
879
330
1F
100
AcDbEntity
  8
RAAMI
  6
DASHDOT
100
AcDbLine
 10
299.909057888025
 20
13.42792386227334
 30
0.0
 11
299.909057888025
 21
10.2708710540979
 31
0.0
  0
LINE
  5
87A
330
1F
100
AcDbEntity
  8
RAAMI
  6
DASHDOT
100
AcDbLine
 10
299.909057888025
 20
13.42792386227334
 30
0.0
 11
299.909057888025
 21
16.58497667044877
 31
0.0
  0
LINE
  5
87B
330
1F
100
AcDbEntity
  8
RAAMI
  6
DASHDOT
100
AcDbLine
 10
299.909057888025
 20
13.42792386227334
 30
0.0
 11
303.2516339658057
 21
13.42792386227334
 31
0.0
  0
CIRCLE
  5
87C
330
1F
100
AcDbEntity
  8
RAAMI
100
AcDbCircle
 10
299.909057888025
 20
13.42792386227334
 30
0.0
 40
1.114664538372245
  0
TEXT
  5
87D
330
1F
100
AcDbEntity
  8
RAAMI
100
AcDbText
 10
369.3920391349797
 20
15.07426969111565
 30
0.0
 40
1.399999999999999
  1
LEHTI   SHEET
  7
ROMANS
100
AcDbText
  0
TEXT
  5
884
330
1F
100
AcDbEntity
  8
RAAMI
100
AcDbText
 10
229.6015983880609
 20
5.466167473094856
 30
0.0
 40
2.43
  1
ABB Oy
 41
0.8
  7
ROMANS
100
AcDbText
  0
MTEXT
  5
885
330
1F
100
AcDbEntity
  8
RAAMI
100
AcDbMText
 10
229.648005881804
 20
3.943375346985476
 30
0.0
 40
2.5
 41
0.0
 71
     1
 72
     1
  1
Substation Automation 
  7
T25
 73
     1
 44
1.0
  0
INSERT
  5
88C
330
1F
100
AcDbEntity
  8
MUOTOVIIVA
100
AcDbBlockReference
  2
COPYRIGHT
 10
1.569034496758888
 20
-0.2322341267164347
 30
0.0
  0
VIEWPORT
  5
96C
330
23
100
AcDbEntity
 67
     1
  8
0
100
AcDbViewport
 10
133.3499908447265
 20
101.5999970436096
 30
0.0
 40
295.6051935424805
 41
234.6017632713317
 68
     1
 69
     1
 12
133.3499908447265
 22
101.5999970436096
 13
0.0
 23
0.0
 14
10.0
 24
10.0
 15
10.0
 25
10.0
 16
0.0
 26
0.0
 36
1.0
 17
0.0
 27
0.0
 37
0.0
 42
50.0
 43
0.0
 44
0.0
 45
234.6017632713317
 50
0.0
 51
0.0
 72
   100
 90
    32800
  1

281
     0
 71
     1
 74
     0
110
0.0
120
0.0
130
0.0
111
1.0
121
0.0
131
0.0
112
0.0
122
1.0
132
0.0
 79
     0
146
0.0
  0
ENDSEC
  0
SECTION
  2
OBJECTS
  0
DICTIONARY
  5
C
330
0
100
AcDbDictionary
281
     1
  3
ACAD_GROUP
350
D
  3
ACAD_LAYOUT
350
1A
  3
ACAD_MLINESTYLE
350
17
  3
ACAD_PLOTSETTINGS
350
19
  3
ACAD_PLOTSTYLENAME
350
E
  3
ACDBHEADERROUNDTRIPXREC
350
9AA
  3
AcDbVariableDictionary
350
6E8
  3
AcmDictionary
350
942
  3
AMG
350
89E
  3
AMGSNAPSETTINGS
350
95F
  3
DWGPROPS
350
9A1
  0
DICTIONARY
  5
96D
330
1F
100
AcDbDictionary
280
     1
281
     1
  3
ACAD_INDEX
360
96E
  0
DICTIONARY
  5
D
102
{ACAD_REACTORS
330
C
102
}
330
C
100
AcDbDictionary
281
     1
  0
DICTIONARY
  5
1A
102
{ACAD_REACTORS
330
C
102
}
330
C
100
AcDbDictionary
281
     1
  3
Layout1
350
1E
  3
Layout2
350
26
  3
Model
350
22
  0
DICTIONARY
  5
17
102
{ACAD_REACTORS
330
C
102
}
330
C
100
AcDbDictionary
281
     1
  3
Standard
350
18
  0
DICTIONARY
  5
19
102
{ACAD_REACTORS
330
C
102
}
330
C
100
AcDbDictionary
281
     1
  0
ACDBDICTIONARYWDFLT
  5
E
102
{ACAD_REACTORS
330
C
102
}
330
C
100
AcDbDictionary
281
     1
  3
Normal
350
F
100
AcDbDictionaryWithDefault
340
F
  0
DICTIONARY
  5
9AA
102
{ACAD_REACTORS
330
C
102
}
330
C
100
AcDbDictionary
281
     1
  3
CEPSNTYPE
350
9B4
  3
DIMSTYLEDATA
350
9B8
  3
FINGERPRINTGUID
350
9B5
  3
HYPERLINKBASE
350
9AD
  3
INSUNITS
350
9B3
  3
LAYOUTDICT
350
9AF
  3
LWETCUNION
350
9B2
  3
PLOTSETDICT
350
9B0
  3
PLOTSTYLNAMDICT
350
9B1
  3
PSVPSCALE
350
9B7
  3
PUCSBASE
350
9BB
  3
PUCSORGBACK
350
9C1
  3
PUCSORGBOTTOM
350
9BD
  3
PUCSORGFRONT
350
9C0
  3
PUCSORGLEFT
350
9BE
  3
PUCSORGRIGHT
350
9BF
  3
PUCSORGTOP
350
9BC
  3
PUCSORTHOREF
350
9B9
  3
PUCSORTHOVIEW
350
9BA
  3
STYLESHEET
350
9AE
  3
TSTACKALIGN
350
9AB
  3
TSTACKSIZE
350
9AC
  3
UCSBASE
350
9C4
  3
UCSORGBACK
350
9CA
  3
UCSORGBOTTOM
350
9C6
  3
UCSORGFRONT
350
9C9
  3
UCSORGLEFT
350
9C7
  3
UCSORGRIGHT
350
9C8
  3
UCSORGTOP
350
9C5
  3
UCSORTHOREF
350
9C2
  3
UCSORTHOVIEW
350
9C3
  3
VERSIONGUID
350
9B6
  0
DICTIONARY
  5
6E8
102
{ACAD_REACTORS
330
C
102
}
330
C
100
AcDbDictionary
281
     1
  3
DIMASSOC
350
6E9
  3
INDEXCTL
350
98A
  0
DICTIONARY
  5
942
102
{ACAD_REACTORS
330
C
102
}
330
C
100
AcDbDictionary
281
     1
  0
DICTIONARY
  5
89E
102
{ACAD_REACTORS
330
C
102
}
330
C
100
AcDbDictionary
281
     1
  3
AcMgSettings
350
89F
  0
DICTIONARY
  5
95F
102
{ACAD_REACTORS
330
C
102
}
330
C
100
AcDbDictionary
281
     1
  3
DIMENSION
350
964
  3
FEA
350
963
  3
HATCH (1)
350
960
  3
HATCH (2)
350
961
  3
SYMBOLS
350
962
  0
XRECORD
  5
9A1
102
{ACAD_REACTORS
330
C
102
}
330
C
100
AcDbXrecord
280
     1
  1
DWGPROPS COOKIE
  2

  3

  4

  6

  7

  8

  9

300
AmdtFileType=84
301
=
302
=
303
=
304
=
305
=
306
=
307
=
308
=
309
=
 40
2.455547465277777
 41
2451507.447628368
 42
2452985.51383015
  1

 90
        1
  0
DICTIONARY
  5
96E
102
{ACAD_REACTORS
330
96D
102
}
330
96D
100
AcDbDictionary
281
     1
  3
*A1
350
96F
  0
LAYOUT
  5
1E
102
{ACAD_REACTORS
330
1A
102
}
330
1A
100
AcDbPlotSettings
  1

  2
none_device
  4
Letter_(8.50_x_11.00_Inches)
  6

 40
6.349999904632568
 41
6.349999904632568
 42
6.350006103515625
 43
6.350006103515625
 44
215.8999938964843
 45
279.3999938964843
 46
0.0
 47
0.0
 48
0.0
 49
0.0
140
0.0
141
0.0
142
1.0
143
1.0
 70
   688
 72
     1
 73
     1
 74
     5
  7
HP5Si.ctb
 75
    16
147
1.0
148
0.0
149
0.0
100
AcDbLayout
  1
Layout1
 70
     1
 71
     1
 10
-6.350006103515625
 20
-6.349999904632568
 11
273.0499877929687
 21
209.5499939918517
 12
0.0
 22
0.0
 32
0.0
 14
1.000000000000000E+20
 24
1.000000000000000E+20
 34
1.000000000000000E+20
 15
-1.000000000000000E+20
 25
-1.000000000000000E+20
 35
-1.000000000000000E+20
146
0.0
 13
0.0
 23
0.0
 33
0.0
 16
1.0
 26
0.0
 36
0.0
 17
0.0
 27
1.0
 37
0.0
 76
     0
330
1B
331
968
  0
LAYOUT
  5
26
102
{ACAD_REACTORS
330
1A
102
}
330
1A
100
AcDbPlotSettings
  1

  2
none_device
  4
Letter_(8.50_x_11.00_Inches)
  6

 40
6.349999904632568
 41
6.349999904632568
 42
6.350006103515625
 43
6.350006103515625
 44
215.8999938964843
 45
279.3999938964843
 46
0.0
 47
0.0
 48
0.0
 49
0.0
140
0.0
141
0.0
142
1.0
143
1.0
 70
   688
 72
     1
 73
     1
 74
     5
  7
HP5Si.ctb
 75
    16
147
1.0
148
0.0
149
0.0
100
AcDbLayout
  1
Layout2
 70
     1
 71
     2
 10
-6.350006103515625
 20
-6.349999904632568
 11
273.0499877929687
 21
209.5499939918517
 12
0.0
 22
0.0
 32
0.0
 14
1.000000000000000E+20
 24
1.000000000000000E+20
 34
1.000000000000000E+20
 15
-1.000000000000000E+20
 25
-1.000000000000000E+20
 35
-1.000000000000000E+20
146
0.0
 13
0.0
 23
0.0
 33
0.0
 16
1.0
 26
0.0
 36
0.0
 17
0.0
 27
1.0
 37
0.0
 76
     0
330
23
331
96C
  0
LAYOUT
  5
22
102
{ACAD_REACTORS
330
1A
102
}
330
1A
100
AcDbPlotSettings
  1

  2
\\FIVAA-S-IGS2002\FIVAA-P-250
  4
A4
  6

 40
5.873749732971191
 41
5.408092021942138
 42
5.577407836914062
 43
5.069427490234375
 44
209.9733276367187
 45
296.9683227539062
 46
3.89
 47
0.0
 48
-6.612908772323862
 49
-1.986526526738316
140
392.0605907744002
141
263.4447232725124
142
1.0
143
1.391575209520212
 70
 11956
 72
     1
 73
     1
 74
     4
  7
HP5Si.ctb
 75
     0
147
0.7186100996616489
148
6.612908772323862
149
1.986526526738316
100
AcDbLayout
  1
Model
 70
     1
 71
     0
 10
0.0
 20
0.0
 11
12.0
 21
9.0
 12
0.0
 22
0.0
 32
0.0
 14
0.0
 24
0.0
 34
0.0
 15
0.0
 25
0.0
 35
0.0
146
0.0
 13
0.0
 23
0.0
 33
0.0
 16
1.0
 26
0.0
 36
0.0
 17
0.0
 27
1.0
 37
0.0
 76
     0
330
1F
  0
MLINESTYLE
  5
18
102
{ACAD_REACTORS
330
17
102
}
330
17
100
AcDbMlineStyle
  2
STANDARD
 70
     0
  3

 62
   256
 51
90.0
 52
90.0
 71
     2
 49
0.5
 62
   256
  6
BYLAYER
 49
-0.5
 62
   256
  6
BYLAYER
  0
ACDBPLACEHOLDER
  5
F
102
{ACAD_REACTORS
330
E
102
}
330
E
  0
XRECORD
  5
9B4
102
{ACAD_REACTORS
330
9AA
102
}
330
9AA
100
AcDbXrecord
280
     1
 90
        0
  0
XRECORD
  5
9B8
102
{ACAD_REACTORS
330
9AA
102
}
330
9AA
100
AcDbXrecord
280
     1
1000
DSTYLE
1002
{
1070
   278
 70
    44
1002
}
  0
XRECORD
  5
9B5
102
{ACAD_REACTORS
330
9AA
102
}
330
9AA
100
AcDbXrecord
280
     1
  1
{16D15905-A24A-11D3-B118-0008C7CA2EDA}
  0
XRECORD
  5
9AD
102
{ACAD_REACTORS
330
9AA
102
}
330
9AA
100
AcDbXrecord
280
     1
  1

  0
XRECORD
  5
9B3
102
{ACAD_REACTORS
330
9AA
102
}
330
9AA
100
AcDbXrecord
280
     1
 90
        4
  0
XRECORD
  5
9AF
102
{ACAD_REACTORS
330
9AA
102
}
330
9AA
100
AcDbXrecord
280
     1
340
1A
  0
XRECORD
  5
9B2
102
{ACAD_REACTORS
330
9AA
102
}
330
9AA
100
AcDbXrecord
280
     1
 90
    10781
  0
XRECORD
  5
9B0
102
{ACAD_REACTORS
330
9AA
102
}
330
9AA
100
AcDbXrecord
280
     1
340
19
  0
XRECORD
  5
9B1
102
{ACAD_REACTORS
330
9AA
102
}
330
9AA
100
AcDbXrecord
280
     1
340
E
  0
XRECORD
  5
9B7
102
{ACAD_REACTORS
330
9AA
102
}
330
9AA
100
AcDbXrecord
280
     1
 40
0.0
  0
XRECORD
  5
9BB
102
{ACAD_REACTORS
330
9AA
102
}
330
9AA
100
AcDbXrecord
280
     1
340
0
  0
XRECORD
  5
9C1
102
{ACAD_REACTORS
330
9AA
102
}
330
9AA
100
AcDbXrecord
280
     1
 10
0.0
 20
0.0
 30
0.0
  0
XRECORD
  5
9BD
102
{ACAD_REACTORS
330
9AA
102
}
330
9AA
100
AcDbXrecord
280
     1
 10
0.0
 20
0.0
 30
0.0
  0
XRECORD
  5
9C0
102
{ACAD_REACTORS
330
9AA
102
}
330
9AA
100
AcDbXrecord
280
     1
 10
0.0
 20
0.0
 30
0.0
  0
XRECORD
  5
9BE
102
{ACAD_REACTORS
330
9AA
102
}
330
9AA
100
AcDbXrecord
280
     1
 10
0.0
 20
0.0
 30
0.0
  0
XRECORD
  5
9BF
102
{ACAD_REACTORS
330
9AA
102
}
330
9AA
100
AcDbXrecord
280
     1
 10
0.0
 20
0.0
 30
0.0
  0
XRECORD
  5
9BC
102
{ACAD_REACTORS
330
9AA
102
}
330
9AA
100
AcDbXrecord
280
     1
 10
0.0
 20
0.0
 30
0.0
  0
XRECORD
  5
9B9
102
{ACAD_REACTORS
330
9AA
102
}
330
9AA
100
AcDbXrecord
280
     1
340
0
  0
XRECORD
  5
9BA
102
{ACAD_REACTORS
330
9AA
102
}
330
9AA
100
AcDbXrecord
280
     1
 70
     0
  0
XRECORD
  5
9AE
102
{ACAD_REACTORS
330
9AA
102
}
330
9AA
100
AcDbXrecord
280
     1
  1
HP5Si.ctb
  0
XRECORD
  5
9AB
102
{ACAD_REACTORS
330
9AA
102
}
330
9AA
100
AcDbXrecord
280
     1
 90
        1
  0
XRECORD
  5
9AC
102
{ACAD_REACTORS
330
9AA
102
}
330
9AA
100
AcDbXrecord
280
     1
 90
       70
  0
XRECORD
  5
9C4
102
{ACAD_REACTORS
330
9AA
102
}
330
9AA
100
AcDbXrecord
280
     1
340
0
  0
XRECORD
  5
9CA
102
{ACAD_REACTORS
330
9AA
102
}
330
9AA
100
AcDbXrecord
280
     1
 10
0.0
 20
0.0
 30
0.0
  0
XRECORD
  5
9C6
102
{ACAD_REACTORS
330
9AA
102
}
330
9AA
100
AcDbXrecord
280
     1
 10
0.0
 20
0.0
 30
0.0
  0
XRECORD
  5
9C9
102
{ACAD_REACTORS
330
9AA
102
}
330
9AA
100
AcDbXrecord
280
     1
 10
0.0
 20
0.0
 30
0.0
  0
XRECORD
  5
9C7
102
{ACAD_REACTORS
330
9AA
102
}
330
9AA
100
AcDbXrecord
280
     1
 10
0.0
 20
0.0
 30
0.0
  0
XRECORD
  5
9C8
102
{ACAD_REACTORS
330
9AA
102
}
330
9AA
100
AcDbXrecord
280
     1
 10
0.0
 20
0.0
 30
0.0
  0
XRECORD
  5
9C5
102
{ACAD_REACTORS
330
9AA
102
}
330
9AA
100
AcDbXrecord
280
     1
 10
0.0
 20
0.0
 30
0.0
  0
XRECORD
  5
9C2
102
{ACAD_REACTORS
330
9AA
102
}
330
9AA
100
AcDbXrecord
280
     1
340
0
  0
XRECORD
  5
9C3
102
{ACAD_REACTORS
330
9AA
102
}
330
9AA
100
AcDbXrecord
280
     1
 70
     0
  0
XRECORD
  5
9B6
102
{ACAD_REACTORS
330
9AA
102
}
330
9AA
100
AcDbXrecord
280
     1
  1
{ED78B3A2-C68E-42DF-A9C4-51F5DA1DA8CD}
  0
DICTIONARYVAR
  5
6E9
102
{ACAD_REACTORS
330
6E8
102
}
330
6E8
100
DictionaryVariables
280
     0
  1
1
  0
DICTIONARYVAR
  5
98A
102
{ACAD_REACTORS
330
6E8
102
}
330
6E8
100
DictionaryVariables
280
     0
  1
1
  0
DICTIONARY
  5
89F
102
{ACAD_REACTORS
330
89E
102
}
330
89E
100
AcDbDictionary
281
     1
  3
Dimension
350
94E
  3
DWGSETTINGS
350
8A0
  3
TRANSSETTINGS
350
8A4
  0
ACAMGFILTERDAT
  5
964
102
{ACAD_REACTORS
330
95F
102
}
330
95F
100
AcAmgFilterDat
 70
    15
  1
DIMENSION,AMDT_*_DIM
  2
*
  3
*
  4
*
  5
*
290
     1
  0
ACAMGFILTERDAT
  5
963
102
{ACAD_REACTORS
330
95F
102
}
330
95F
100
AcAmgFilterDat
 70
    15
  1
*
  2
AM_FEA-AM_*
  3
*
  4
*
  5
*
290
     1
  0
ACAMGFILTERDAT
  5
960
102
{ACAD_REACTORS
330
95F
102
}
330
95F
100
AcAmgFilterDat
 70
    15
  1
HATCH
  2
*
  3
*
  4
*
  5
*
290
     1
  0
ACAMGFILTERDAT
  5
961
102
{ACAD_REACTORS
330
95F
102
}
330
95F
100
AcAmgFilterDat
 70
    15
  1
LINE
  2
8,8N,*-8,*-8N,AM_8,AM_8N,*-AM_8,*-AM_8N
  3
*
  4
*
  5
INSERT,STDPART2D
290
     1
  0
ACAMGFILTERDAT
  5
962
102
{ACAD_REACTORS
330
95F
102
}
330
95F
100
AcAmgFilterDat
 70
    15
  1
ACMFCFRAME,ACMDATUMTARGET,ACMDATUMID,ACMWELDSYM,ACMSURFSYM,ACMFEATID,ACMPARTREF,ACMBALLOON,AMDTEDGESYM
  2
*
  3
*
  4
*
  5
*
290
     1
  0
LAYER_INDEX
  5
96F
102
{ACAD_REACTORS
330
96E
102
}
330
96E
100
AcDbIndex
 40
2452985.628376689
100
AcDbLayerIndex
  8
0
360
970
 90
        0
  8
PAKSU
360
971
 90
        8
  8
RAAMI
360
972
 90
       31
  8
OHUT
360
973
 90
       11
  8
KESKI
360
974
 90
        0
  8
KATKO
360
975
 90
        0
  8
KATKO07
360
976
 90
        0
  8
PISTKATK
360
977
 90
        0
  8
MITTA
360
978
 90
        0
  8
APU
360
979
 90
        0
  8
TEXT25
360
97A
 90
      484
  8
TEXT35
360
97B
 90
        0
  8
TEXT5
360
97C
 90
        0
  8
TEXT7
360
97D
 90
        0
  8
TEXT
360
97E
 90
        0
  8
AM_TR
360
97F
 90
        0
  8
AM_BM
360
980
 90
        0
  8
AM_BL
360
981
 90
        0
  8
AM_VIEWS
360
982
 90
        0
  8
AM_PARDIM
360
983
 90
        0
  8
AM_REFDIM
360
984
 90
        0
  8
AM_VIS
360
985
 90
        0
  8
AM_HID
360
986
 90
        5
  8
MUOTOVIIVA
360
987
 90
        1
  8
OHUTVIIVA
360
988
 90
        0
  0
IDBUFFER
  5
970
330
0
100
AcDbIdBuffer
  0
IDBUFFER
  5
971
330
0
100
AcDbIdBuffer
330
84D
330
84E
330
84F
330
867
330
86B
330
86C
330
86D
330
86E
  0
IDBUFFER
  5
972
330
0
100
AcDbIdBuffer
330
871
330
872
330
873
330
874
330
875
330
876
330
877
330
878
330
879
330
87A
330
87B
330
87C
330
87D
330
884
330
885
330
850
330
851
330
853
330
854
330
85A
330
85B
330
85D
330
85F
330
860
330
861
330
862
330
863
330
865
330
866
330
86F
330
870
  0
IDBUFFER
  5
973
330
0
100
AcDbIdBuffer
330
855
330
856
330
857
330
858
330
859
330
85C
330
85E
330
864
330
868
330
869
330
86A
  0
IDBUFFER
  5
974
330
0
100
AcDbIdBuffer
  0
IDBUFFER
  5
975
330
0
100
AcDbIdBuffer
  0
IDBUFFER
  5
976
330
0
100
AcDbIdBuffer
  0
IDBUFFER
  5
977
330
0
100
AcDbIdBuffer
  0
IDBUFFER
  5
978
330
0
100
AcDbIdBuffer
  0
IDBUFFER
  5
979
330
0
100
AcDbIdBuffer
  0
IDBUFFER
  5
97A
330
0
100
AcDbIdBuffer
330
508
330
50B
330
50D
330
50E
330
50F
330
510
330
511
330
512
330
513
330
514
330
515
330
516
330
517
330
518
330
51B
330
51C
330
51D
330
51E
330
51F
330
520
330
522
330
525
330
527
330
528
330
529
330
52A
330
52B
330
52C
330
52D
330
52F
330
530
330
531
330
532
330
535
330
543
330
544
330
545
330
546
330
547
330
549
330
54A
330
554
330
555
330
556
330
557
330
55A
330
55B
330
55C
330
55D
330
55E
330
560
330
561
330
564
330
56B
330
56C
330
56D
330
576
330
577
330
57E
330
581
330
584
330
587
330
588
330
589
330
58A
330
58B
330
58C
330
58F
330
590
330
591
330
592
330
593
330
594
330
595
330
596
330
597
330
598
330
599
330
5A4
330
5A5
330
5A6
330
5AC
330
5AD
330
5AE
330
5AF
330
5B0
330
5B1
330
5B3
330
5B4
330
5B5
330
5B6
330
5B7
330
5C0
330
5C1
330
5C2
330
5C3
330
5C4
330
5C5
330
5C6
330
5C7
330
5CC
330
5CD
330
5CE
330
5CF
330
5D0
330
5F6
330
5F7
330
5F8
330
607
330
608
330
60A
330
60B
330
60E
330
60F
330
610
330
613
330
614
330
615
330
616
330
617
330
618
330
628
330
629
330
62A
330
62B
330
62C
330
62D
330
62E
330
62F
330
630
330
631
330
632
330
633
330
634
330
635
330
636
330
637
330
638
330
639
330
63A
330
63B
330
63C
330
63D
330
63E
330
63F
330
640
330
641
330
642
330
643
330
644
330
645
330
646
330
647
330
648
330
649
330
64A
330
64B
330
64C
330
64D
330
64E
330
64F
330
650
330
651
330
652
330
653
330
654
330
655
330
656
330
657
330
658
330
659
330
65A
330
65B
330
65C
330
65D
330
65E
330
65F
330
660
330
661
330
662
330
663
330
664
330
665
330
666
330
667
330
668
330
669
330
66A
330
66B
330
66C
330
66D
330
66E
330
66F
330
670
330
671
330
672
330
673
330
674
330
675
330
676
330
677
330
678
330
679
330
67A
330
67B
330
67C
330
67D
330
67E
330
67F
330
680
330
681
330
682
330
683
330
684
330
685
330
686
330
687
330
688
330
689
330
68A
330
68B
330
68C
330
68D
330
68E
330
68F
330
690
330
691
330
692
330
6B5
330
6C3
330
6C4
330
6DC
330
6DD
330
6DE
330
6DF
330
6E0
330
6E1
330
6E2
330
6E3
330
6E4
330
6E5
330
6E6
330
6EA
330
6FF
330
366
330
367
330
36C
330
36D
330
36E
330
381
330
382
330
38A
330
38B
330
38F
330
390
330
392
330
393
330
394
330
395
330
396
330
398
330
39A
330
39B
330
39C
330
39E
330
3A0
330
3A1
330
3A2
330
3AD
330
3AE
330
3AF
330
3B0
330
3B1
330
3B2
330
3B3
330
3B4
330
3B5
330
3B6
330
3B7
330
3C2
330
3C3
330
3C4
330
3C5
330
3C6
330
3C7
330
3C8
330
3C9
330
3CC
330
3CD
330
3CE
330
3CF
330
3D0
330
3D9
330
3DA
330
3DF
330
3E0
330
3E3
330
3E4
330
3E7
330
3E8
330
3E9
330
3EA
330
3EC
330
3ED
330
3F0
330
3F1
330
3F4
330
3F5
330
3F8
330
3F9
330
3FA
330
3FB
330
3FF
330
400
330
401
330
402
330
405
330
406
330
407
330
408
330
40B
330
40C
330
40F
330
41C
330
41D
330
41E
330
41F
330
420
330
421
330
42E
330
42F
330
430
330
431
330
432
330
433
330
43A
330
43B
330
43C
330
43D
330
43E
330
43F
330
446
330
447
330
448
330
449
330
44A
330
44B
330
44C
330
44D
330
44E
330
44F
330
450
330
451
330
45E
330
45F
330
462
330
463
330
466
330
467
330
46A
330
46B
330
46C
330
46D
330
46F
330
472
330
474
330
476
330
477
330
47C
330
480
330
483
330
487
330
488
330
48A
330
48D
330
48E
330
48F
330
491
330
492
330
493
330
494
330
495
330
496
330
497
330
498
330
499
330
49A
330
49B
330
49C
330
49D
330
49E
330
49F
330
4A0
330
4A1
330
4A2
330
4A3
330
4A4
330
4A5
330
4A6
330
4A7
330
4A8
330
4A9
330
4AA
330
4AB
330
4AC
330
4AD
330
4AE
330
4AF
330
4B0
330
4B1
330
4B4
330
4B5
330
4B6
330
4B7
330
4B8
330
4B9
330
4BA
330
4C1
330
4C2
330
4C3
330
4C4
330
4C5
330
4C6
330
4C9
330
4CA
330
4CB
330
4CC
330
4CD
330
4CE
330
4CF
330
4D0
330
4D1
330
4D2
330
4D3
330
4D4
330
4D5
330
4D6
330
4D7
330
4D8
330
4D9
330
4DA
330
4DB
330
4DC
330
4DD
330
4DE
330
4DF
330
4E0
330
4E1
330
4E2
330
4E3
330
4E4
330
4E5
330
4E6
330
4E7
330
4E8
330
4E9
330
4EA
330
4EB
330
4EC
330
4EF
330
4F0
330
4F1
330
4F2
330
4F3
330
4F4
330
4F5
330
4F6
330
4F7
330
4F8
330
4F9
330
4FA
330
4FB
330
4FC
330
4FD
330
4FE
330
4FF
330
500
330
501
330
502
330
503
330
504
330
505
330
506
330
507
  0
IDBUFFER
  5
97B
330
0
100
AcDbIdBuffer
  0
IDBUFFER
  5
97C
330
0
100
AcDbIdBuffer
  0
IDBUFFER
  5
97D
330
0
100
AcDbIdBuffer
  0
IDBUFFER
  5
97E
330
0
100
AcDbIdBuffer
  0
IDBUFFER
  5
97F
330
0
100
AcDbIdBuffer
  0
IDBUFFER
  5
980
330
0
100
AcDbIdBuffer
  0
IDBUFFER
  5
981
330
0
100
AcDbIdBuffer
  0
IDBUFFER
  5
982
330
0
100
AcDbIdBuffer
  0
IDBUFFER
  5
983
330
0
100
AcDbIdBuffer
  0
IDBUFFER
  5
984
330
0
100
AcDbIdBuffer
  0
IDBUFFER
  5
985
330
0
100
AcDbIdBuffer
  0
IDBUFFER
  5
986
330
0
100
AcDbIdBuffer
330
5E7
330
5E8
330
5E9
330
6AC
330
6AD
  0
IDBUFFER
  5
987
330
0
100
AcDbIdBuffer
330
88C
  0
IDBUFFER
  5
988
330
0
100
AcDbIdBuffer
  0
ENDSEC
  0
EOF
