  0
SECTION
  2
HEADER
  9
$ACADVER
  1
AC1009
  9
$INSBASE
 10
0.0
 20
0.0
 30
0.0
  9
$EXTMIN
 10
-221.9888642409127
 20
350.48395309412598
 30
-0.0015258207003583
  9
$EXTMAX
 10
1080.8373447073
 20
892.10879324598557
 30
0.0000000349246037
  9
$LIMMIN
 10
0.0
 20
0.0
  9
$LIMMAX
 10
420.0
 20
297.0
  9
$ORTHOMODE
 70
     0
  9
$REGENMODE
 70
     1
  9
$FILLMODE
 70
     1
  9
$QTEXTMODE
 70
     0
  9
$MIRRTEXT
 70
     1
  9
$DRAGMODE
 70
     2
  9
$LTSCALE
 40
1.0
  9
$OSMODE
 70
    47
  9
$ATTMODE
 70
     1
  9
$TEXTSIZE
 40
0.0
  9
$TRACEWID
 40
1.0
  9
$TEXTSTYLE
  7
STANDARD
  9
$CLAYER
  8
0
  9
$CELTYPE
  6
BYLAYER
  9
$CECOLOR
 62
   256
  9
$DIMSCALE
 40
1.0
  9
$DIMASZ
 40
2.5
  9
$DIMEXO
 40
0.625
  9
$DIMDLI
 40
3.75
  9
$DIMRND
 40
0.0
  9
$DIMDLE
 40
0.0
  9
$DIMEXE
 40
1.25
  9
$DIMTP
 40
0.0
  9
$DIMTM
 40
0.0
  9
$DIMTXT
 40
2.5
  9
$DIMCEN
 40
2.5
  9
$DIMTSZ
 40
0.0
  9
$DIMTOL
 70
     0
  9
$DIMLIM
 70
     0
  9
$DIMTIH
 70
     0
  9
$DIMTOH
 70
     0
  9
$DIMSE1
 70
     0
  9
$DIMSE2
 70
     0
  9
$DIMTAD
 70
     1
  9
$DIMZIN
 70
     8
  9
$DIMBLK
  1

  9
$DIMASO
 70
     1
  9
$DIMSHO
 70
     1
  9
$DIMPOST
  1

  9
$DIMAPOST
  1

  9
$DIMALT
 70
     0
  9
$DIMALTD
 70
     3
  9
$DIMALTF
 40
0.03937
  9
$DIMLFAC
 40
1.0
  9
$DIMTOFL
 70
     1
  9
$DIMTVP
 40
0.0
  9
$DIMTIX
 70
     0
  9
$DIMSOXD
 70
     0
  9
$DIMSAH
 70
     0
  9
$DIMBLK1
  1

  9
$DIMBLK2
  1

  9
$DIMSTYLE
  2
STANDARD
  9
$DIMCLRD
 70
     0
  9
$DIMCLRE
 70
     0
  9
$DIMCLRT
 70
     0
  9
$DIMTFAC
 40
1.0
  9
$DIMGAP
 40
0.625
  9
$LUNITS
 70
     2
  9
$LUPREC
 70
     4
  9
$SKETCHINC
 40
1.0
  9
$FILLETRAD
 40
2.5
  9
$AUNITS
 70
     0
  9
$AUPREC
 70
     0
  9
$MENU
  1
.
  9
$ELEVATION
 40
0.0
  9
$PELEVATION
 40
0.0
  9
$THICKNESS
 40
0.0
  9
$LIMCHECK
 70
     0
  9
$BLIPMODE
 70
     0
  9
$CHAMFERA
 40
2.5
  9
$CHAMFERB
 40
2.5
  9
$SKPOLY
 70
     0
  9
$TDCREATE
 40
2311942.6598650231
  9
$TDUPDATE
 40
2454455.3853394678
  9
$TDINDWG
 40
0.0009298032
  9
$TDUSRTIMER
 40
0.0009298032
  9
$USRTIMER
 70
     1
  9
$ANGBASE
 50
0.0
  9
$ANGDIR
 70
     0
  9
$PDMODE
 70
     0
  9
$PDSIZE
 40
0.0
  9
$PLINEWID
 40
0.0
  9
$COORDS
 70
     1
  9
$SPLFRAME
 70
     0
  9
$SPLINETYPE
 70
     6
  9
$SPLINESEGS
 70
     8
  9
$ATTDIA
 70
     0
  9
$ATTREQ
 70
     1
  9
$HANDLING
 70
 22529
  9
$HANDSEED
  5
D1E
  9
$SURFTAB1
 70
     6
  9
$SURFTAB2
 70
     6
  9
$SURFTYPE
 70
     6
  9
$SURFU
 70
     6
  9
$SURFV
 70
     6
  9
$UCSNAME
  2

  9
$UCSORG
 10
0.0
 20
0.0
 30
0.0
  9
$UCSXDIR
 10
1.0
 20
0.0
 30
0.0
  9
$UCSYDIR
 10
0.0
 20
1.0
 30
0.0
  9
$PUCSNAME
  2

  9
$PUCSORG
 10
0.0
 20
0.0
 30
0.0
  9
$PUCSXDIR
 10
1.0
 20
0.0
 30
0.0
  9
$PUCSYDIR
 10
0.0
 20
1.0
 30
0.0
  9
$USERI1
 70
     0
  9
$USERI2
 70
     0
  9
$USERI3
 70
     0
  9
$USERI4
 70
     0
  9
$USERI5
 70
     0
  9
$USERR1
 40
0.0
  9
$USERR2
 40
0.0
  9
$USERR3
 40
0.0
  9
$USERR4
 40
0.0
  9
$USERR5
 40
0.0
  9
$WORLDVIEW
 70
     1
  9
$SHADEDGE
 70
     3
  9
$SHADEDIF
 70
    70
  9
$TILEMODE
 70
     1
  9
$MAXACTVP
 70
    48
  9
$PLIMCHECK
 70
     0
  9
$PEXTMIN
 10
0.0
 20
0.0
 30
0.0
  9
$PEXTMAX
 10
167.92596399999991
 20
165.79884300000001
 30
2.0
  9
$PLIMMIN
 10
0.0
 20
0.0
  9
$PLIMMAX
 10
420.0
 20
297.0
  9
$UNITMODE
 70
     0
  9
$VISRETAIN
 70
     0
  9
$PLINEGEN
 70
     0
  9
$PSLTSCALE
 70
     1
  0
ENDSEC
  0
SECTION
  2
TABLES
  0
TABLE
  2
VPORT
 70
     3
  0
VPORT
  2
*ACTIVE
 70
     0
 10
0.0
 20
0.0
 11
1.0
 21
1.0
 12
429.42424023319359
 22
621.29637317005586
 13
0.0
 23
0.0
 14
1.0
 24
1.0
 15
0.0
 25
0.0
 16
0.0
 26
0.0
 36
1.0
 17
0.0
 27
0.0
 37
0.0
 40
844.41741843575778
 41
1.550724637681159
 42
50.0
 43
0.0
 44
0.0
 50
0.0
 51
0.0
 71
     0
 72
   100
 73
     1
 74
     1
 75
     0
 76
     0
 77
     0
 78
     0
  0
ENDTAB
  0
TABLE
  2
LTYPE
 70
     8
  0
LTYPE
  2
CONTINUOUS
 70
     0
  3
Solid line
 72
    65
 73
     0
 40
0.0
  0
LTYPE
  2
DASHED
 70
     0
  3
__ __ __ __ __ __ __ __ __ __ __ __ __ __ __ __
 72
    65
 73
     2
 40
15.0
 49
12.0
 49
-3.0
  0
LTYPE
  2
DASHDOT
 70
     0
  3
 __ . __ . __ . __ . __ . __ . __ . 
 72
    65
 73
     4
 40
18.5
 49
12.0
 49
-3.0
 49
0.5
 49
-3.0
  0
LTYPE
  2
DOT
 70
     0
  3
 . . . . . . . . . . . . . . . .
 72
    65
 73
     2
 40
3.5
 49
0.5
 49
-3.0
  0
LTYPE
  2
DASHSPACE
 70
     0
  3
__    __    __    __    __   
 72
    65
 73
     2
 40
30.0
 49
12.0
 49
-18.0
  0
LTYPE
  2
DASHDOT2
 70
     0
  3
__ . . __ . . __ . . __ 
 72
    65
 73
     6
 40
22.0
 49
12.0
 49
-3.0
 49
0.5
 49
-3.0
 49
0.5
 49
-3.0
  0
LTYPE
  2
PHANTOM
 70
     0
  3
____________    ____    ____   _
 72
    65
 73
     6
 40
20.0
 49
10.0
 49
-2.0
 49
2.0
 49
-2.0
 49
2.0
 49
-2.0
  0
LTYPE
  2
AXES
 70
     0
  3
________  __  ________  __  _____
 72
    65
 73
     4
 40
24.0
 49
15.0
 49
-3.0
 49
3.0
 49
-3.0
  0
ENDTAB
  0
TABLE
  2
LAYER
 70
     1
  0
LAYER
  2
0
 70
     0
 62
     7
  6
CONTINUOUS
  0
ENDTAB
  0
TABLE
  2
STYLE
 70
     2
  0
STYLE
  2
STANDARD
 70
     0
 40
0.0
 41
1.0
 50
0.0
 71
     0
 42
0.0
  3
isocp.shx
  4

  0
STYLE
  2
GDT
 70
     0
 40
0.0
 41
1.0
 50
0.0
 71
     0
 42
0.0
  3
amgdt.shx
  4

  0
ENDTAB
  0
TABLE
  2
VIEW
 70
     0
  0
ENDTAB
  0
TABLE
  2
UCS
 70
     0
  0
ENDTAB
  0
TABLE
  2
APPID
 70
     1
  0
APPID
  2
ACAD
 70
     0
  0
ENDTAB
  0
TABLE
  2
DIMSTYLE
 70
     1
  0
DIMSTYLE
  2
STANDARD
 70
     0
  3

  4

  5

  6

  7

 40
1.0
 41
2.5
 42
0.625
 43
3.75
 44
1.25
 45
0.0
 46
0.0
 47
0.0
 48
0.0
140
2.5
141
2.5
142
0.0
143
0.03937
144
1.0
145
0.0
146
1.0
147
0.625
 71
     0
 72
     0
 73
     0
 74
     0
 75
     0
 76
     0
 77
     1
 78
     8
170
     0
171
     3
172
     1
173
     0
174
     0
175
     0
176
     0
177
     0
178
     0
  0
ENDTAB
  0
ENDSEC
  0
SECTION
  2
BLOCKS
  0
BLOCK
  8
0
  2
$MODEL_SPACE
 70
     0
 10
0.0
 20
0.0
 30
0.0
  3
$MODEL_SPACE
  1

  0
ENDBLK
  5
E
  8
0
  0
BLOCK
 67
     1
  8
0
  2
$PAPER_SPACE
 70
     0
 10
0.0
 20
0.0
 30
0.0
  3
$PAPER_SPACE
  1

  0
ENDBLK
  5
10
 67
     1
  8
0
  0
BLOCK
  8
0
  2
BLOCK0
 70
     0
 10
0.0
 20
0.0
 30
0.0
  3
BLOCK0
  1

  0
TEXT
  5
83E
  8
0
 62
     7
 10
128.03221099999999
 20
8.2500079999999993
 30
0.0
 40
3.0
  1
105
 50
270.0
 41
1.4327507732320051
 72
     5
 11
128.03221099999999
 21
0.5500270000000002
 31
0.0
  0
ENDBLK
  5
83F
  8
0
  0
BLOCK
  8
0
  2
BLOCK1
 70
     0
 10
0.0
 20
0.0
 30
0.0
  3
BLOCK1
  1

  0
TEXT
  5
841
  8
0
 62
     7
 10
4.250030999999999
 20
97.360534999999999
 30
0.0
 40
3.0
  1
170
 41
1.466003047747545
 72
     5
 11
11.950010000000001
 21
97.360534999999999
 31
0.0
  0
ENDBLK
  5
842
  8
0
  0
BLOCK
  8
0
  2
BLOCK2
 70
     0
 10
0.0
 20
0.0
 30
0.0
  3
BLOCK2
  1

  0
TEXT
  5
844
  8
0
 62
     7
 10
-101.475296
 20
-12.000030999999989
 30
0.0
 40
3.0
  1
35
 50
270.0
 41
1.2776591662854091
 72
     5
 11
-101.475296
 21
-16.950019999999999
 31
0.0
  0
ENDBLK
  5
845
  8
0
  0
BLOCK
  8
0
  2
BLOCK3
 70
     0
 10
0.0
 20
0.0
 30
0.0
  3
BLOCK3
  1

  0
TEXT
  5
847
  8
0
 62
     7
 10
-101.475281
 20
22.999984999999999
 30
0.0
 40
3.0
  1
35
 50
270.0
 41
1.277659424398945
 72
     5
 11
-101.475281
 21
18.049994999999999
 31
0.0
  0
ENDBLK
  5
848
  8
0
  0
BLOCK
  8
0
  2
BLOCK4
 70
     0
 10
0.0
 20
0.0
 30
0.0
  3
BLOCK4
  1

  0
TEXT
  5
84A
  8
0
 62
     7
 10
7.2620509999999987
 20
118.51033
 30
0.0
 40
3.0
  1
X
 50
270.0
 41
0.9777764444444425
 72
     5
 11
7.2620509999999987
 21
116.310333
 31
0.0
  0
ENDBLK
  5
84B
  8
0
  0
BLOCK
  8
0
  2
BLOCK5
 70
     0
 10
0.0
 20
0.0
 30
0.0
  3
BLOCK5
  1

  0
TEXT
  5
84D
  8
0
 62
     7
 10
7.3958659999999998
 20
-118.5534819999999
 30
0.0
 40
3.0
  1
X
 50
270.00002604357161
 41
0.9777764444445436
 72
     5
 11
7.3958669999999991
 21
-120.7534789999999
 31
0.0
  0
ENDBLK
  5
84E
  8
0
  0
BLOCK
  8
0
  2
BLOCK6
 70
     0
 10
0.0
 20
0.0
 30
0.0
  3
BLOCK6
  1

  0
TEXT
  5
850
  8
0
 62
     7
 10
163.62596099999999
 20
1.9406929999999989
 30
0.0
 40
3.0
  1
Y
 50
270.0
 41
0.9777777777777778
 72
     5
 11
163.62596099999999
 21
-0.259307
 31
0.0
  0
ENDBLK
  5
851
  8
0
  0
BLOCK
  8
0
  2
BLOCK7
 70
     0
 10
0.0
 20
0.0
 30
0.0
  3
BLOCK7
  1

  0
TEXT
  5
853
  8
0
 62
     5
 10
40.125014999999998
 20
77.83721899999999
 30
0.0
 40
3.0
  1
87,25
 50
359.99996961578012
 41
1.4466875246701709
 72
     5
 11
53.324973999999997
 21
77.837211999999994
 31
0.0
  0
ENDBLK
  5
854
  8
0
  0
BLOCK
  8
0
  2
BLOCK8
 70
     0
 10
0.0
 20
0.0
 30
0.0
  3
BLOCK8
  1

  0
TEXT
  5
856
  8
0
 62
     7
 10
41.375019000000002
 20
-70.767409999999998
 30
0.0
 40
3.0
  1
89,75
 50
359.99996527518772
 41
1.445027750962268
 72
     5
 11
54.574981999999991
 21
-70.767418000000006
 31
0.0
  0
ENDBLK
  5
857
  8
0
  0
BLOCK
  8
0
  2
BLOCK9
 70
     0
 10
0.0
 20
0.0
 30
0.0
  3
BLOCK9
  1

  0
TEXT
  5
859
  8
0
 62
     7
 10
4.2500150000000003
 20
-111.7450409999999
 30
0.0
 40
3.0
  1
175
 41
1.432750587160017
 72
     5
 11
11.949994999999991
 21
-111.7450409999999
 31
0.0
  0
ENDBLK
  5
85A
  8
0
  0
BLOCK
  8
0
  2
BLOCK10
 70
     0
 10
0.0
 20
0.0
 30
0.0
  3
BLOCK10
  1

  0
TEXT
  5
85C
  8
0
 62
     7
 10
2.0000309999999999
 20
-88.226531999999992
 30
0.0
 40
3.0
  1
161
 41
1.655909462365591
 72
     5
 11
9.7000100000000007
 21
-88.226531999999992
 31
0.0
  0
ENDBLK
  5
85D
  8
0
  0
BLOCK
  8
0
  2
BLOCK11
 70
     0
 10
0.0
 20
0.0
 30
0.0
  3
BLOCK11
  1

  0
TEXT
  5
85F
  8
0
 62
     7
 10
148.979736
 20
8.25
 30
0.0
 40
3.0
  1
117
 50
270.0
 41
1.655909677419354
 72
     5
 11
148.979736
 21
0.55002
 31
0.0
  0
ENDBLK
  5
860
  8
0
  0
BLOCK
  8
0
  2
BLOCK12
 70
     0
 10
0.0
 20
0.0
 30
0.0
  3
BLOCK12
  1

  0
TEXT
  5
862
  8
0
 62
     7
 10
149.47582999999989
 20
2.0000149999999999
 30
0.0
 40
3.0
  1
105
 50
90.0
 41
1.432750587160017
 72
     5
 11
149.47582999999989
 21
9.6999949999999995
 31
0.0
  0
ENDBLK
  5
863
  8
0
  0
BLOCK
  8
0
  2
BLOCK13
 70
     0
 10
0.0
 20
0.0
 30
0.0
  3
BLOCK13
  1

  0
TEXT
  5
865
  8
0
 62
     7
 10
165.40209999999999
 20
7.442874999999999
 30
0.0
 40
3.0
  1
X
 41
0.9777764444444425
 72
     5
 11
167.6020969999999
 21
7.442874999999999
 31
0.0
  0
ENDBLK
  5
866
  8
0
  0
BLOCK
  8
0
  2
BLOCK14
 70
     0
 10
0.0
 20
0.0
 30
0.0
  3
BLOCK14
  1

  0
TEXT
  5
868
  8
0
 62
     7
 10
-137.61325099999991
 20
4.250030999999999
 30
0.0
 40
3.0
  1
143
 50
90.0
 41
1.35700046856436
 72
     5
 11
-137.61325099999991
 21
11.950010000000001
 31
0.0
  0
ENDBLK
  5
869
  8
0
  0
BLOCK
  8
0
  2
BLOCK15
 70
     0
 10
0.0
 20
0.0
 30
0.0
  3
BLOCK15
  1

  0
TEXT
  5
86B
  8
0
 62
     5
 10
-122.53969599999991
 20
33.375
 30
0.0
 40
3.0
  1
73,75
 50
89.99996527517726
 41
1.446687524670234
 72
     5
 11
-122.5396879999999
 21
46.574958999999993
 31
0.0
  0
ENDBLK
  5
86C
  8
0
  0
BLOCK
  8
0
  2
BLOCK16
 70
     0
 10
0.0
 20
0.0
 30
0.0
  3
BLOCK16
  1

  0
TEXT
  5
86E
  8
0
 62
     7
 10
5.0
 20
127.9952549999999
 30
0.0
 40
3.0
  1
25
 41
1.277659424398945
 72
     5
 11
9.9499899999999997
 21
127.9952549999999
 31
0.0
  0
ENDBLK
  5
86F
  8
0
  0
BLOCK
  8
0
  2
BLOCK17
 70
     0
 10
0.0
 20
0.0
 30
0.0
  3
BLOCK17
  1

  0
TEXT
  5
871
  8
0
 62
     7
 10
35.0
 20
145.15988200000001
 30
0.0
 40
3.0
  1
101,5
 41
1.665764654678604
 72
     5
 11
48.199959
 21
145.15988200000001
 31
0.0
  0
ENDBLK
  5
872
  8
0
  0
BLOCK
  8
0
  2
BLOCK18
 70
     0
 10
0.0
 20
0.0
 30
0.0
  3
BLOCK18
  1

  0
TEXT
  5
874
  8
0
 62
     7
 10
-19.0
 20
-98.884613000000016
 30
0.0
 40
3.0
  1
20
 41
1.3191663623963901
 72
     5
 11
-14.05001
 21
-98.884613000000016
 31
0.0
  0
ENDBLK
  5
875
  8
0
  0
BLOCK
  8
0
  2
BLOCK19
 70
     0
 10
0.0
 20
0.0
 30
0.0
  3
BLOCK19
  1

  0
TEXT
  5
877
  8
0
 62
     7
 10
29.0
 20
-98.884613000000016
 30
0.0
 40
3.0
  1
5
 41
1.2399512782768269
 72
     5
 11
31.200001
 21
-98.884613000000016
 31
0.0
  0
ENDBLK
  5
878
  8
0
  0
BLOCK
  8
0
  2
BLOCK20
 70
     0
 10
0.0
 20
0.0
 30
0.0
  3
BLOCK20
  1

  0
TEXT
  5
87A
  8
0
 62
     7
 10
-16.5
 20
-115.31315600000001
 30
0.0
 40
3.0
  1
3
 41
1.239950714662865
 72
     5
 11
-14.300000000000001
 21
-115.31315600000001
 31
0.0
  0
ENDBLK
  5
87B
  8
0
  0
BLOCK
  8
0
  2
BLOCK21
 70
     0
 10
0.0
 20
0.0
 30
0.0
  3
BLOCK21
  1

  0
TEXT
  5
87D
  8
0
 62
     7
 10
-22.0
 20
-115.31315600000001
 30
0.0
 40
3.0
  1
\U+2265
 41
1.2422338279591401
 72
     5
 11
-19.799999
 21
-115.31315600000001
 31
0.0
  0
ENDBLK
  5
87E
  8
0
  0
BLOCK
  8
0
  2
BLOCK22
 70
     0
 10
0.0
 20
0.0
 30
0.0
  3
BLOCK22
  1

  0
TEXT
  5
880
  8
0
 62
     7
 10
36.000670999999997
 20
-115.31315600000001
 30
0.0
 40
3.0
  1
103,5
 41
1.5485159649675879
 72
     5
 11
49.20062999999999
 21
-115.31315600000001
 31
0.0
  0
ENDBLK
  5
881
  8
0
  0
BLOCK
  8
0
  2
BLOCK23
 70
     0
 10
0.0
 20
0.0
 30
0.0
  3
BLOCK23
  1

  0
TEXT
  5
883
  8
0
 62
     7
 10
43.250579999999999
 20
-130.81649799999991
 30
0.0
 40
3.0
  1
107
 41
1.4666632380952369
 72
     5
 11
50.950561999999998
 21
-130.81649799999991
 31
0.0
  0
ENDBLK
  5
884
  8
0
  0
BLOCK
  8
0
  2
BLOCK24
 70
     0
 10
0.0
 20
0.0
 30
0.0
  3
BLOCK24
  1

  0
TEXT
  5
886
  8
0
 62
     7
 10
113.00116
 20
-130.81649799999991
 30
0.0
 40
3.0
  1
2
 41
1.202067778817504
 72
     5
 11
115.20115699999999
 21
-130.81649799999991
 31
0.0
  0
ENDBLK
  5
887
  8
0
  0
BLOCK
  8
0
  2
BLOCK25
 70
     0
 10
0.0
 20
0.0
 30
0.0
  3
BLOCK25
  1

  0
TEXT
  5
889
  8
0
 62
     7
 10
57.272551999999997
 20
-146.2401889999999
 30
0.0
 40
3.0
  1
135
 41
1.432750959303992
 72
     5
 11
64.972533999999996
 21
-146.2401889999999
 31
0.0
  0
ENDBLK
  5
88A
  8
0
  0
BLOCK
  8
0
  2
BLOCK26
 70
     0
 10
0.0
 20
0.0
 30
0.0
  3
BLOCK26
  1

  0
LINE
  5
88C
  8
0
 62
     6
 10
9.0000020000000003
 20
69.488883999999999
 30
0.0
 11
11.054437999999999
 21
67.434448000000003
 31
0.0
  0
LINE
  5
88D
  8
0
 62
     6
 10
9.1102070000000008
 20
71.5
 30
0.0
 11
13.000002
 21
67.610198999999994
 31
0.0
  0
LINE
  5
88E
  8
0
 62
     6
 10
11.231524999999991
 20
71.5
 30
0.0
 11
13.000002
 21
69.731521999999998
 31
0.0
  0
ENDBLK
  5
88F
  8
0
  0
BLOCK
  8
0
  2
BLOCK27
 70
     0
 10
0.0
 20
0.0
 30
0.0
  3
BLOCK27
  1

  0
LINE
  5
891
  8
0
 62
     6
 10
14.000002
 20
-47.941161999999998
 30
0.0
 11
15.058828
 21
-48.999988999999992
 31
0.0
  0
LINE
  5
892
  8
0
 62
     6
 10
14.196956
 20
-46.016791999999988
 30
0.0
 11
17.180147000000002
 21
-48.999988999999992
 31
0.0
  0
LINE
  5
893
  8
0
 62
     6
 10
16.318274999999989
 20
-46.016791999999988
 30
0.0
 11
18.000001999999991
 21
-47.698521
 31
0.0
  0
ENDBLK
  5
894
  8
0
  0
BLOCK
  8
0
  2
BLOCK28
 70
     0
 10
0.0
 20
0.0
 30
0.0
  3
BLOCK28
  1

  0
LINE
  5
896
  8
0
 62
     6
 10
19.346209999999989
 20
-54.900002000000001
 30
0.0
 11
21.0
 21
-53.246207999999989
 31
0.0
  0
LINE
  5
897
  8
0
 62
     6
 10
18.000001999999991
 20
-54.124885999999989
 30
0.0
 11
21.0
 21
-51.124889000000003
 31
0.0
  0
LINE
  5
898
  8
0
 62
     6
 10
18.000001999999991
 20
-52.003566999999997
 30
0.0
 11
21.0
 21
-49.00356699999999
 31
0.0
  0
LINE
  5
899
  8
0
 62
     6
 10
18.000001999999991
 20
-49.882247999999997
 30
0.0
 11
21.0
 21
-46.88224799999999
 31
0.0
  0
LINE
  5
89A
  8
0
 62
     6
 10
18.000001999999991
 20
-47.760924999999993
 30
0.0
 11
20.744134999999989
 21
-45.016791999999988
 31
0.0
  0
LINE
  5
89B
  8
0
 62
     6
 10
18.000001999999991
 20
-45.639606000000001
 30
0.0
 11
18.622816
 21
-45.016791999999988
 31
0.0
  0
ENDBLK
  5
89C
  8
0
  0
BLOCK
  8
0
  2
BLOCK29
 70
     0
 10
0.0
 20
0.0
 30
0.0
  3
BLOCK29
  1

  0
LINE
  5
89E
  8
0
 62
     6
 10
21.095462999999992
 20
-67.999984999999995
 30
0.0
 11
23.0
 21
-66.095450999999997
 31
0.0
  0
LINE
  5
89F
  8
0
 62
     6
 10
18.974143999999988
 20
-67.999984999999995
 30
0.0
 11
23.0
 21
-63.974128999999998
 31
0.0
  0
LINE
  5
8A0
  8
0
 62
     6
 10
18.000001999999991
 20
-66.852806000000001
 30
0.0
 11
21.752810999999991
 21
-63.099997999999992
 31
0.0
  0
LINE
  5
8A1
  8
0
 62
     6
 10
18.000001999999991
 20
-64.731491000000005
 30
0.0
 11
19.631491
 21
-63.099997999999992
 31
0.0
  0
ENDBLK
  5
8A2
  8
0
  0
BLOCK
  8
0
  2
BLOCK30
 70
     0
 10
0.0
 20
0.0
 30
0.0
  3
BLOCK30
  1

  0
LINE
  5
8A4
  8
0
 62
     6
 10
22.467531000000001
 20
-53.900002000000001
 30
0.0
 11
23.0
 21
-53.367531000000007
 31
0.0
  0
LINE
  5
8A5
  8
0
 62
     6
 10
21.0
 20
-53.246207999999989
 30
0.0
 11
23.0
 21
-51.246208000000003
 31
0.0
  0
LINE
  5
8A6
  8
0
 62
     6
 10
21.0
 20
-51.124889000000003
 30
0.0
 11
23.0
 21
-49.124889000000003
 31
0.0
  0
LINE
  5
8A7
  8
0
 62
     6
 10
21.0
 20
-49.00356699999999
 30
0.0
 11
23.0
 21
-47.003571000000001
 31
0.0
  0
LINE
  5
8A8
  8
0
 62
     6
 10
21.0
 20
-46.88224799999999
 30
0.0
 11
21.882255999999991
 21
-45.999996000000003
 31
0.0
  0
ENDBLK
  5
8A9
  8
0
  0
BLOCK
  8
0
  2
BLOCK31
 70
     0
 10
0.0
 20
0.0
 30
0.0
  3
BLOCK31
  1

  0
LINE
  5
8AB
  8
0
 62
     6
 10
22.43907699999999
 20
88.199996999999996
 30
0.0
 11
23.000001999999991
 21
88.760925
 31
0.0
  0
LINE
  5
8AC
  8
0
 62
     6
 10
20.317757
 20
88.199996999999996
 30
0.0
 11
23.000001999999991
 21
90.882248000000004
 31
0.0
  0
LINE
  5
8AD
  8
0
 62
     6
 10
18.196435999999999
 20
88.199996999999996
 30
0.0
 11
22.996437
 21
93.0
 31
0.0
  0
LINE
  5
8AE
  8
0
 62
     6
 10
18.000001999999991
 20
90.124886000000004
 30
0.0
 11
20.875115999999998
 21
93.0
 31
0.0
  0
LINE
  5
8AF
  8
0
 62
     6
 10
18.000001999999991
 20
92.246207999999996
 30
0.0
 11
18.753795999999991
 21
93.0
 31
0.0
  0
ENDBLK
  5
8B0
  8
0
  0
BLOCK
  8
0
  2
BLOCK32
 70
     0
 10
0.0
 20
0.0
 30
0.0
  3
BLOCK32
  1

  0
LINE
  5
8B2
  8
0
 62
     6
 10
15.522762
 20
66.434448000000003
 30
0.0
 11
22.986409999999989
 21
73.898094
 31
0.0
  0
LINE
  5
8B3
  8
0
 62
     6
 10
13.401441999999999
 20
66.434448000000003
 30
0.0
 11
23.000001999999991
 21
76.033005000000003
 31
0.0
  0
LINE
  5
8B4
  8
0
 62
     6
 10
13.18829
 20
68.342613
 30
0.0
 11
23.000001999999991
 21
78.154326999999995
 31
0.0
  0
LINE
  5
8B5
  8
0
 62
     6
 10
18.000001999999991
 20
75.275642000000005
 30
0.0
 11
22.524356999999998
 21
79.800003000000004
 31
0.0
  0
LINE
  5
8B6
  8
0
 62
     6
 10
18.000001999999991
 20
77.396964999999994
 30
0.0
 11
20.403036
 21
79.800003000000004
 31
0.0
  0
LINE
  5
8B7
  8
0
 62
     6
 10
18.000001999999991
 20
79.518287999999998
 30
0.0
 11
18.281717
 21
79.800003000000004
 31
0.0
  0
ENDBLK
  5
8B8
  8
0
  0
BLOCK
  8
0
  2
BLOCK33
 70
     0
 10
0.0
 20
0.0
 30
0.0
  3
BLOCK33
  1

  0
LINE
  5
8BA
  8
0
 62
     6
 10
23.000001999999991
 20
72.45944200000001
 30
0.0
 11
23.959440000000001
 21
71.5
 31
0.0
  0
LINE
  5
8BB
  8
0
 62
     6
 10
23.580763000000001
 20
74.0
 30
0.0
 11
26.080759
 21
71.5
 31
0.0
  0
LINE
  5
8BC
  8
0
 62
     6
 10
25.702082000000001
 20
74.0
 30
0.0
 11
28.202079999999999
 21
71.5
 31
0.0
  0
LINE
  5
8BD
  8
0
 62
     6
 10
27.823399999999999
 20
74.0
 30
0.0
 11
30.323398999999998
 21
71.5
 31
0.0
  0
LINE
  5
8BE
  8
0
 62
     6
 10
29.944721000000001
 20
74.0
 30
0.0
 11
32.444716999999997
 21
71.5
 31
0.0
  0
LINE
  5
8BF
  8
0
 62
     6
 10
32.066040000000001
 20
74.0
 30
0.0
 11
34.56603599999999
 21
71.5
 31
0.0
  0
LINE
  5
8C0
  8
0
 62
     6
 10
34.187359000000001
 20
74.0
 30
0.0
 11
34.822902999999997
 21
73.364456000000004
 31
0.0
  0
ENDBLK
  5
8C1
  8
0
  0
BLOCK
  8
0
  2
BLOCK34
 70
     0
 10
0.0
 20
0.0
 30
0.0
  3
BLOCK34
  1

  0
LINE
  5
8C3
  8
0
 62
     2
 10
105.2698899999999
 20
-117.46875
 30
0.0
 11
107.0011669999999
 21
-115.7374649999999
 31
0.0
  0
LINE
  5
8C4
  8
0
 62
     2
 10
105.0011669999999
 20
-115.6161419999999
 30
0.0
 11
107.0011669999999
 21
-113.616142
 31
0.0
  0
LINE
  5
8C5
  8
0
 62
     2
 10
105.0011669999999
 20
-113.4948269999999
 30
0.0
 11
107.0011669999999
 21
-111.4948269999999
 31
0.0
  0
LINE
  5
8C6
  8
0
 62
     2
 10
105.0011669999999
 20
-111.37350499999999
 30
0.0
 11
107.0011669999999
 21
-109.37350499999999
 31
0.0
  0
LINE
  5
8C7
  8
0
 62
     2
 10
105.0011669999999
 20
-109.25218199999991
 30
0.0
 11
107.0011669999999
 21
-107.252182
 31
0.0
  0
LINE
  5
8C8
  8
0
 62
     2
 10
105.0011669999999
 20
-107.13086699999999
 30
0.0
 11
107.0011669999999
 21
-105.13086699999999
 31
0.0
  0
LINE
  5
8C9
  8
0
 62
     2
 10
105.0011669999999
 20
-105.00954399999991
 30
0.0
 11
107.0011669999999
 21
-103.00954399999991
 31
0.0
  0
LINE
  5
8CA
  8
0
 62
     2
 10
105.0011669999999
 20
-102.888222
 30
0.0
 11
107.0011669999999
 21
-100.888222
 31
0.0
  0
LINE
  5
8CB
  8
0
 62
     2
 10
105.0011669999999
 20
-100.7669069999999
 30
0.0
 11
107.0011669999999
 21
-98.766906999999989
 31
0.0
  0
LINE
  5
8CC
  8
0
 62
     2
 10
105.0011669999999
 20
-98.645583999999985
 30
0.0
 11
107.0011669999999
 21
-96.645583999999999
 31
0.0
  0
LINE
  5
8CD
  8
0
 62
     2
 10
105.0011669999999
 20
-96.524260999999996
 30
0.0
 11
107.0011669999999
 21
-94.524260999999996
 31
0.0
  0
LINE
  5
8CE
  8
0
 62
     2
 10
105.0011669999999
 20
-94.402939000000003
 30
0.0
 11
107.0011669999999
 21
-92.402946
 31
0.0
  0
LINE
  5
8CF
  8
0
 62
     2
 10
105.0011669999999
 20
-92.281623999999994
 30
0.0
 11
107.0011669999999
 21
-90.281623999999994
 31
0.0
  0
LINE
  5
8D0
  8
0
 62
     2
 10
105.0011669999999
 20
-90.160301000000004
 30
0.0
 11
107.0011669999999
 21
-88.160301000000004
 31
0.0
  0
LINE
  5
8D1
  8
0
 62
     2
 10
105.0011669999999
 20
-88.038978999999998
 30
0.0
 11
107.0011669999999
 21
-86.038978999999983
 31
0.0
  0
LINE
  5
8D2
  8
0
 62
     2
 10
105.0011669999999
 20
-85.917664000000002
 30
0.0
 11
107.0011669999999
 21
-83.917663999999988
 31
0.0
  0
LINE
  5
8D3
  8
0
 62
     2
 10
105.0011669999999
 20
-83.796340999999998
 30
0.0
 11
107.0011669999999
 21
-81.796340999999984
 31
0.0
  0
LINE
  5
8D4
  8
0
 62
     2
 10
105.0011669999999
 20
-81.675018000000009
 30
0.0
 11
107.0011669999999
 21
-79.675017999999994
 31
0.0
  0
LINE
  5
8D5
  8
0
 62
     2
 10
105.0011669999999
 20
-79.553702999999999
 30
0.0
 11
107.0011669999999
 21
-77.553702999999999
 31
0.0
  0
LINE
  5
8D6
  8
0
 62
     2
 10
105.0011669999999
 20
-77.432381000000007
 30
0.0
 11
107.0011669999999
 21
-75.432381000000007
 31
0.0
  0
LINE
  5
8D7
  8
0
 62
     2
 10
105.0011669999999
 20
-75.311058000000003
 30
0.0
 11
107.0011669999999
 21
-73.311058000000003
 31
0.0
  0
LINE
  5
8D8
  8
0
 62
     2
 10
105.0011669999999
 20
-73.189743000000007
 30
0.0
 11
107.0011669999999
 21
-71.189743000000007
 31
0.0
  0
LINE
  5
8D9
  8
0
 62
     2
 10
105.0011669999999
 20
-71.068419999999989
 30
0.0
 11
107.0011669999999
 21
-69.068419999999989
 31
0.0
  0
LINE
  5
8DA
  8
0
 62
     2
 10
105.0011669999999
 20
-68.947097999999997
 30
0.0
 11
107.0011669999999
 21
-66.947097999999997
 31
0.0
  0
LINE
  5
8DB
  8
0
 62
     2
 10
105.0011669999999
 20
-66.825783000000001
 30
0.0
 11
107.0011669999999
 21
-64.825783000000001
 31
0.0
  0
LINE
  5
8DC
  8
0
 62
     2
 10
105.0011669999999
 20
-64.704459999999983
 30
0.0
 11
105.45562700000001
 21
-64.25
 31
0.0
  0
ENDBLK
  5
8DD
  8
0
  0
BLOCK
  8
0
  2
BLOCK35
 70
     0
 10
0.0
 20
0.0
 30
0.0
  3
BLOCK35
  1

  0
LINE
  5
8DF
  8
0
 62
     2
 10
106.0916669999999
 20
-57.25
 30
0.0
 11
107.0011669999999
 21
-56.340499999999999
 31
0.0
  0
LINE
  5
8E0
  8
0
 62
     2
 10
105.0011669999999
 20
-56.219177000000002
 30
0.0
 11
107.0011669999999
 21
-54.219180999999999
 31
0.0
  0
LINE
  5
8E1
  8
0
 62
     2
 10
105.0011669999999
 20
-54.097857999999988
 30
0.0
 11
107.0011669999999
 21
-52.097858000000002
 31
0.0
  0
LINE
  5
8E2
  8
0
 62
     2
 10
105.0011669999999
 20
-51.976539999999993
 30
0.0
 11
107.0011669999999
 21
-49.97654
 31
0.0
  0
LINE
  5
8E3
  8
0
 62
     2
 10
105.0011669999999
 20
-49.855216999999989
 30
0.0
 11
107.0011669999999
 21
-47.855216999999989
 31
0.0
  0
LINE
  5
8E4
  8
0
 62
     2
 10
105.0011669999999
 20
-47.733897999999989
 30
0.0
 11
106.9850689999999
 21
-45.75
 31
0.0
  0
ENDBLK
  5
8E5
  8
0
  0
BLOCK
  8
0
  2
BLOCK36
 70
     0
 10
0.0
 20
0.0
 30
0.0
  3
BLOCK36
  1

  0
LINE
  5
8E7
  8
0
 62
     2
 10
106.5550919999999
 20
66.249992000000006
 30
0.0
 11
107.0011669999999
 21
66.696074999999993
 31
0.0
  0
LINE
  5
8E8
  8
0
 62
     2
 10
105.0011669999999
 20
66.817390000000003
 30
0.0
 11
107.0011669999999
 21
68.817390000000003
 31
0.0
  0
LINE
  5
8E9
  8
0
 62
     2
 10
105.0011669999999
 20
68.938713000000007
 30
0.0
 11
107.0011669999999
 21
70.938713000000007
 31
0.0
  0
LINE
  5
8EA
  8
0
 62
     2
 10
105.0011669999999
 20
71.060035999999997
 30
0.0
 11
107.0011669999999
 21
73.060035999999997
 31
0.0
  0
LINE
  5
8EB
  8
0
 62
     2
 10
105.0011669999999
 20
73.181351000000006
 30
0.0
 11
107.0011669999999
 21
75.181351000000006
 31
0.0
  0
LINE
  5
8EC
  8
0
 62
     2
 10
105.0011669999999
 20
75.302672999999999
 30
0.0
 11
107.0011669999999
 21
77.302672999999999
 31
0.0
  0
LINE
  5
8ED
  8
0
 62
     2
 10
105.0011669999999
 20
77.423996000000002
 30
0.0
 11
105.32717099999989
 21
77.749992000000006
 31
0.0
  0
ENDBLK
  5
8EE
  8
0
  0
BLOCK
  8
0
  2
BLOCK37
 70
     0
 10
0.0
 20
0.0
 30
0.0
  3
BLOCK37
  1

  0
LINE
  5
8F0
  8
0
 62
     2
 10
105.963211
 20
84.749992000000006
 30
0.0
 11
107.0011669999999
 21
85.787956000000008
 31
0.0
  0
LINE
  5
8F1
  8
0
 62
     2
 10
105.0011669999999
 20
85.909271000000004
 30
0.0
 11
107.0011669999999
 21
87.90927099999999
 31
0.0
  0
LINE
  5
8F2
  8
0
 62
     2
 10
105.0011669999999
 20
88.030593999999994
 30
0.0
 11
107.0011669999999
 21
90.030593999999994
 31
0.0
  0
LINE
  5
8F3
  8
0
 62
     2
 10
105.0011669999999
 20
90.151916999999997
 30
0.0
 11
107.0011669999999
 21
92.151916999999997
 31
0.0
  0
LINE
  5
8F4
  8
0
 62
     2
 10
105.0011669999999
 20
92.273231999999979
 30
0.0
 11
107.0011669999999
 21
94.273231999999993
 31
0.0
  0
LINE
  5
8F5
  8
0
 62
     2
 10
105.0011669999999
 20
94.394553999999985
 30
0.0
 11
107.0011669999999
 21
96.394554000000014
 31
0.0
  0
LINE
  5
8F6
  8
0
 62
     2
 10
105.0011669999999
 20
96.515877000000003
 30
0.0
 11
107.0011669999999
 21
98.515877000000003
 31
0.0
  0
LINE
  5
8F7
  8
0
 62
     2
 10
105.0011669999999
 20
98.637198999999995
 30
0.0
 11
107.0011669999999
 21
100.637192
 31
0.0
  0
LINE
  5
8F8
  8
0
 62
     2
 10
105.0011669999999
 20
100.75851399999991
 30
0.0
 11
107.0011669999999
 21
102.75851400000001
 31
0.0
  0
LINE
  5
8F9
  8
0
 62
     2
 10
105.0011669999999
 20
102.87983699999999
 30
0.0
 11
107.0011669999999
 21
104.87983699999999
 31
0.0
  0
LINE
  5
8FA
  8
0
 62
     2
 10
105.0011669999999
 20
105.00116
 30
0.0
 11
107.0011669999999
 21
107.00116
 31
0.0
  0
LINE
  5
8FB
  8
0
 62
     2
 10
105.0011669999999
 20
107.12247499999999
 30
0.0
 11
107.0011669999999
 21
109.12247499999999
 31
0.0
  0
LINE
  5
8FC
  8
0
 62
     2
 10
105.0011669999999
 20
109.2437969999999
 30
0.0
 11
107.0011669999999
 21
111.2437969999999
 31
0.0
  0
LINE
  5
8FD
  8
0
 62
     2
 10
105.0011669999999
 20
111.36511999999991
 30
0.0
 11
107.0011669999999
 21
113.36511999999991
 31
0.0
  0
LINE
  5
8FE
  8
0
 62
     2
 10
105.0011669999999
 20
113.486435
 30
0.0
 11
107.0011669999999
 21
115.486435
 31
0.0
  0
LINE
  5
8FF
  8
0
 62
     2
 10
105.0011669999999
 20
115.607758
 30
0.0
 11
107.0011669999999
 21
117.607758
 31
0.0
  0
LINE
  5
900
  8
0
 62
     2
 10
105.0011669999999
 20
117.72908
 30
0.0
 11
107.0011669999999
 21
119.72908
 31
0.0
  0
LINE
  5
901
  8
0
 62
     2
 10
105.0011669999999
 20
119.85039499999991
 30
0.0
 11
107.0011669999999
 21
121.85039499999991
 31
0.0
  0
LINE
  5
902
  8
0
 62
     2
 10
105.0011669999999
 20
121.9717179999999
 30
0.0
 11
107.0011669999999
 21
123.9717179999999
 31
0.0
  0
LINE
  5
903
  8
0
 62
     2
 10
105.0011669999999
 20
124.0930399999999
 30
0.0
 11
107.0011669999999
 21
126.0930399999999
 31
0.0
  0
LINE
  5
904
  8
0
 62
     2
 10
105.0011669999999
 20
126.214355
 30
0.0
 11
107.0011669999999
 21
128.21435500000001
 31
0.0
  0
LINE
  5
905
  8
0
 62
     2
 10
105.0011669999999
 20
128.335678
 30
0.0
 11
107.0011669999999
 21
130.335678
 31
0.0
  0
LINE
  5
906
  8
0
 62
     2
 10
105.0011669999999
 20
130.45700099999991
 30
0.0
 11
107.0011669999999
 21
132.45700099999991
 31
0.0
  0
LINE
  5
907
  8
0
 62
     2
 10
105.0011669999999
 20
132.57832300000001
 30
0.0
 11
107.0011669999999
 21
134.57832300000001
 31
0.0
  0
LINE
  5
908
  8
0
 62
     2
 10
105.0011669999999
 20
134.69964599999989
 30
0.0
 11
107.0011669999999
 21
136.69964599999989
 31
0.0
  0
LINE
  5
909
  8
0
 62
     2
 10
105.0011669999999
 20
136.820953
 30
0.0
 11
107.0011669999999
 21
138.820953
 31
0.0
  0
LINE
  5
90A
  8
0
 62
     2
 10
105.0011669999999
 20
138.94227599999991
 30
0.0
 11
107.0011669999999
 21
140.94227599999991
 31
0.0
  0
LINE
  5
90B
  8
0
 62
     2
 10
105.0011669999999
 20
141.06359900000001
 30
0.0
 11
107.0011669999999
 21
143.06359900000001
 31
0.0
  0
LINE
  5
90C
  8
0
 62
     2
 10
105.0011669999999
 20
143.184921
 30
0.0
 11
107.0011669999999
 21
145.18492099999989
 31
0.0
  0
LINE
  5
90D
  8
0
 62
     2
 10
105.0011669999999
 20
145.30624399999991
 30
0.0
 11
107.0011669999999
 21
147.30624399999991
 31
0.0
  0
LINE
  5
90E
  8
0
 62
     2
 10
105.0011669999999
 20
147.4275669999999
 30
0.0
 11
107.0011669999999
 21
149.4275669999999
 31
0.0
  0
LINE
  5
90F
  8
0
 62
     2
 10
105.0011669999999
 20
149.54887400000001
 30
0.0
 11
107.0011669999999
 21
151.54887400000001
 31
0.0
  0
LINE
  5
910
  8
0
 62
     2
 10
105.0011669999999
 20
151.67019699999989
 30
0.0
 11
107.0011669999999
 21
153.670197
 31
0.0
  0
LINE
  5
911
  8
0
 62
     2
 10
105.0011669999999
 20
153.79151899999991
 30
0.0
 11
107.0011669999999
 21
155.79151899999991
 31
0.0
  0
LINE
  5
912
  8
0
 62
     2
 10
105.0011669999999
 20
155.9128419999999
 30
0.0
 11
107.0011669999999
 21
157.9128419999999
 31
0.0
  0
LINE
  5
913
  8
0
 62
     2
 10
105.0011669999999
 20
158.03416399999989
 30
0.0
 11
107.0011669999999
 21
160.03416399999989
 31
0.0
  0
LINE
  5
914
  8
0
 62
     2
 10
105.0011669999999
 20
160.15548699999999
 30
0.0
 11
107.0011669999999
 21
162.15548699999999
 31
0.0
  0
LINE
  5
915
  8
0
 62
     2
 10
105.0011669999999
 20
162.27679399999991
 30
0.0
 11
105.8391419999999
 21
163.114777
 31
0.0
  0
ENDBLK
  5
916
  8
0
  0
BLOCK
  8
0
  2
BLOCK38
 70
     0
 10
0.0
 20
0.0
 30
0.0
  3
BLOCK38
  1

  0
LINE
  5
918
  8
0
 62
     6
 10
24.000001999999999
 20
-47.334564
 30
0.0
 11
25.665423999999991
 21
-48.999988999999992
 31
0.0
  0
LINE
  5
919
  8
0
 62
     6
 10
24.803553000000001
 20
-46.016791999999988
 30
0.0
 11
27.786743000000001
 21
-48.999988999999992
 31
0.0
  0
LINE
  5
91A
  8
0
 62
     6
 10
26.924871
 20
-46.016791999999988
 30
0.0
 11
29.908062000000001
 21
-48.999988999999992
 31
0.0
  0
LINE
  5
91B
  8
0
 62
     6
 10
29.046189999999999
 20
-46.016791999999988
 30
0.0
 11
32.029381000000001
 21
-48.999988999999992
 31
0.0
  0
LINE
  5
91C
  8
0
 62
     6
 10
31.167508999999999
 20
-46.016791999999988
 30
0.0
 11
34.150700000000001
 21
-48.999988999999992
 31
0.0
  0
LINE
  5
91D
  8
0
 62
     6
 10
33.28882999999999
 20
-46.016791999999988
 30
0.0
 11
36.272018000000003
 21
-48.999988999999992
 31
0.0
  0
LINE
  5
91E
  8
0
 62
     6
 10
35.41014899999999
 20
-46.016791999999988
 30
0.0
 11
38.393340999999999
 21
-48.999988999999992
 31
0.0
  0
LINE
  5
91F
  8
0
 62
     6
 10
37.531466999999999
 20
-46.016791999999988
 30
0.0
 11
40.514659999999999
 21
-48.999988999999992
 31
0.0
  0
LINE
  5
920
  8
0
 62
     6
 10
39.652785999999992
 20
-46.016791999999988
 30
0.0
 11
42.635978999999992
 21
-48.999988999999992
 31
0.0
  0
LINE
  5
921
  8
0
 62
     6
 10
41.774104999999992
 20
-46.016791999999988
 30
0.0
 11
44.757297999999992
 21
-48.999988999999992
 31
0.0
  0
LINE
  5
922
  8
0
 62
     6
 10
43.895423999999991
 20
-46.016791999999988
 30
0.0
 11
46.878616000000001
 21
-48.999988999999992
 31
0.0
  0
LINE
  5
923
  8
0
 62
     6
 10
46.016742999999991
 20
-46.016791999999988
 30
0.0
 11
46.961486999999998
 21
-46.961535999999988
 31
0.0
  0
ENDBLK
  5
924
  8
0
  0
BLOCK
  8
0
  2
BLOCK39
 70
     0
 10
0.0
 20
0.0
 30
0.0
  3
BLOCK39
  1

  0
TEXT
  5
926
  8
0
 62
     1
 10
-331.0
 20
-208.0
 30
0.0
 40
3.0
  1
Ts3
 50
180.0
 41
1.225767462097451
 72
     5
 11
-338.69998199999992
 21
-208.0
 31
0.0
  0
ENDBLK
  5
927
  8
0
  0
BLOCK
  8
0
  2
BLOCK40
 70
     0
 10
0.0
 20
0.0
 30
0.0
  3
BLOCK40
  1

  0
TEXT
  5
929
  8
0
 62
     1
 10
-308.0
 20
-199.0
 30
0.0
 40
4.0
  1
1SDH000637R0.105
 50
180.0
 41
1.3857562765830549
 72
     5
 11
-367.26281699999993
 21
-199.0
 31
0.0
  0
ENDBLK
  5
92A
  8
0
  0
BLOCK
  8
0
  2
BLOCK41
 70
     0
 10
0.0
 20
0.0
 30
0.0
  3
BLOCK41
  1

  0
TEXT
  5
92C
  8
0
 62
     1
 10
-312.0
 20
-219.0
 30
0.0
 40
2.0
  1
INTERR.AUTOMATICO SERIE ISOMAX
 50
180.0
 41
1.076915325301204
 72
     5
 11
-356.69198599999999
 21
-219.0
 31
0.0
  0
ENDBLK
  5
92D
  8
0
  0
BLOCK
  8
0
  2
BLOCK42
 70
     0
 10
0.0
 20
0.0
 30
0.0
  3
BLOCK42
  1

  0
TEXT
  5
92F
  8
0
 62
     1
 10
-306.0
 20
-216.0
 30
0.0
 40
2.0
  1
TRIPOL.ESECUZIONE FISSA TERMINALI POST.
 50
180.0
 41
1.125523694390715
 72
     5
 11
-364.18957499999988
 21
-216.0
 31
0.0
  0
ENDBLK
  5
930
  8
0
  0
BLOCK
  8
0
  2
BLOCK43
 70
     0
 10
0.0
 20
0.0
 30
0.0
  3
BLOCK43
  1

  0
TEXT
  5
932
  8
0
 62
     1
 10
-306.0
 20
-229.0
 30
0.0
 40
2.0
  1
3POLE LOW VOLTAGE M.C.C.B SERIES ISOMAX
 50
180.0
 41
1.0999919659735351
 72
     5
 11
-364.18957499999988
 21
-229.0
 31
0.0
  0
ENDBLK
  5
933
  8
0
  0
BLOCK
  8
0
  2
BLOCK44
 70
     0
 10
0.0
 20
0.0
 30
0.0
  3
BLOCK44
  1

  0
TEXT
  5
935
  8
0
 62
     1
 10
-313.0
 20
-225.0
 30
0.0
 40
2.0
  1
FIXED VERSION REAR TERMINALS
 50
180.0
 41
1.069609471836392
 72
     5
 11
-354.69253500000002
 21
-225.0
 31
0.0
  0
ENDBLK
  5
936
  8
0
  0
BLOCK
  8
0
  2
BLOCK45
 70
     0
 10
0.0
 20
0.0
 30
0.0
  3
BLOCK45
  1

  0
TEXT
  5
938
  8
0
 62
     1
 10
-267.15213
 20
-209.0
 30
0.0
 40
2.0
  1
N0204 2007-09-17
 50
180.0
 41
1.1017693073406229
 72
     5
 11
-290.84786999999989
 21
-209.0
 31
0.0
  0
ENDBLK
  5
939
  8
0
  0
BLOCK
  8
0
  2
BLOCK46
 70
     0
 10
0.0
 20
0.0
 30
0.0
  3
BLOCK46
  1

  0
TEXT
  5
93B
  8
0
 62
     7
 10
123.5131379999999
 20
16.5
 30
0.0
 40
3.0
  1
139
 50
269.9999404717629
 41
1.409019097613331
 72
     5
 11
123.51313
 21
8.8000199999999982
 31
0.0
  0
ENDBLK
  5
93C
  8
0
  0
BLOCK
  8
0
  2
BLOCK47
 70
     0
 10
0.0
 20
0.0
 30
0.0
  3
BLOCK47
  1

  0
TEXT
  5
93E
  8
0
 62
     7
 10
-22.245148
 20
-24.686951000000001
 30
0.0
 40
3.0
  1
35
 50
180.0
 41
1.277659166285408
 72
     5
 11
-27.195136999999999
 21
-24.686951000000001
 31
0.0
  0
ENDBLK
  5
93F
  8
0
  0
BLOCK
  8
0
  2
BLOCK48
 70
     0
 10
0.0
 20
0.0
 30
0.0
  3
BLOCK48
  1

  0
TEXT
  5
941
  8
0
 62
     7
 10
-131.0
 20
-3.0
 30
0.0
 40
3.0
  1
X
 50
180.0
 41
0.9777764444444425
 72
     5
 11
-133.199997
 21
-3.0
 31
0.0
  0
ENDBLK
  5
942
  8
0
  0
BLOCK
  8
0
  2
BLOCK49
 70
     0
 10
0.0
 20
0.0
 30
0.0
  3
BLOCK49
  1

  0
TEXT
  5
944
  8
0
 62
     7
 10
132.0
 20
-4.0
 30
0.0
 40
3.0
  1
X
 50
180.0
 41
0.9777764444444425
 72
     5
 11
129.800003
 21
-4.0
 31
0.0
  0
ENDBLK
  5
945
  8
0
  0
BLOCK
  8
0
  2
BLOCK50
 70
     0
 10
0.0
 20
0.0
 30
0.0
  3
BLOCK50
  1

  0
TEXT
  5
947
  8
0
 62
     7
 10
0.0
 20
-150.0
 30
0.0
 40
3.0
  1
Y
 50
180.0
 41
0.9777777777777778
 72
     5
 11
-2.2000000000000002
 21
-150.0
 31
0.0
  0
ENDBLK
  5
948
  8
0
  0
BLOCK
  8
0
  2
BLOCK51
 70
     0
 10
0.0
 20
0.0
 30
0.0
  3
BLOCK51
  1

  0
TEXT
  5
94A
  8
0
 62
     7
 10
1.0
 20
137.0
 30
0.0
 40
3.0
  1
Y
 50
180.0
 41
0.9777777777777778
 72
     5
 11
-1.1999999999999991
 21
137.0
 31
0.0
  0
ENDBLK
  5
94B
  8
0
  0
BLOCK
  8
0
  2
BLOCK52
 70
     0
 10
0.0
 20
0.0
 30
0.0
  3
BLOCK52
  1

  0
TEXT
  5
94D
  8
0
 62
     7
 10
-7.7446899999999994
 20
-1.284179999999999
 30
0.0
 40
3.0
  1
=
 50
179.9999739564638
 41
1.33333333333347
 72
     5
 11
-9.9446899999999996
 21
-1.284179
 31
0.0
  0
ENDBLK
  5
94E
  8
0
  0
BLOCK
  8
0
  2
BLOCK53
 70
     0
 10
0.0
 20
0.0
 30
0.0
  3
BLOCK53
  1

  0
TEXT
  5
950
  8
0
 62
     7
 10
15.168761999999999
 20
-2.3417050000000001
 30
0.0
 40
3.0
  1
=
 50
180.0
 41
1.3333333333333319
 72
     5
 11
12.968762
 21
-2.3417050000000001
 31
0.0
  0
ENDBLK
  5
951
  8
0
  0
BLOCK
  8
0
  2
BLOCK54
 70
     0
 10
0.0
 20
0.0
 30
0.0
  3
BLOCK54
  1

  0
TEXT
  5
953
  8
0
 62
     5
 10
93.646805000000001
 20
-8.5355220000000003
 30
0.0
 40
3.0
  1
71,75
 50
269.99993489096721
 41
1.548516199592948
 72
     5
 11
93.646789999999996
 21
-21.735482999999991
 31
0.0
  0
ENDBLK
  5
954
  8
0
  0
BLOCK
  8
0
  2
BLOCK55
 70
     0
 10
0.0
 20
0.0
 30
0.0
  3
BLOCK55
  1

  0
TEXT
  5
956
  8
0
 62
     7
 10
-60.441497999999989
 20
80.342468000000011
 30
0.0
 40
3.0
  1
 5,5
 50
160.6475605429074
 41
1.706322676522007
 72
     5
 11
-70.301024999999996
 21
83.805358999999996
 31
0.0
  0
ENDBLK
  5
957
  8
0
  0
BLOCK
  8
0
  2
BLOCK56
 70
     0
 10
0.0
 20
0.0
 30
0.0
  3
BLOCK56
  1

  0
TEXT
  5
959
  8
0
 62
     7
 10
-58.931888999999998
 20
79.812256000000005
 30
0.0
 40
3.0
  1
%%c
 50
160.64749855494969
 41
0.9777778087051489
 72
     5
 11
-61.007584000000001
 21
80.541290000000004
 31
0.0
  0
ENDBLK
  5
95A
  8
0
  0
BLOCK
  8
0
  2
BLOCK57
 70
     0
 10
0.0
 20
0.0
 30
0.0
  3
BLOCK57
  1

  0
TEXT
  5
95C
  8
0
 62
     7
 10
-101.955414
 20
94.923096000000001
 30
0.0
 40
3.0
  1
 - M5
 50
160.6475700731456
 41
1.4708685562312871
 72
     5
 11
-114.409554
 21
99.297272000000007
 31
0.0
  0
ENDBLK
  5
95D
  8
0
  0
BLOCK
  8
0
  2
BLOCK58
 70
     0
 10
0.0
 20
0.0
 30
0.0
  3
BLOCK58
  1

  0
TEXT
  5
95F
  8
0
 62
     7
 10
128.73962399999991
 20
-103.73732800000001
 30
0.0
 40
3.0
  1
 24
 50
163.33437697040571
 41
1.4666629944877441
 72
     5
 11
121.363083
 21
-101.529083
 31
0.0
  0
ENDBLK
  5
960
  8
0
  0
BLOCK
  8
0
  2
BLOCK59
 70
     0
 10
0.0
 20
0.0
 30
0.0
  3
BLOCK59
  1

  0
TEXT
  5
962
  8
0
 62
     7
 10
130.27241499999991
 20
-104.1961979999999
 30
0.0
 40
3.0
  1
%%c
 50
163.3343818509089
 41
0.9777784859735756
 72
     5
 11
128.16482500000001
 21
-103.565269
 31
0.0
  0
ENDBLK
  5
963
  8
0
  0
BLOCK
  8
0
  2
BLOCK60
 70
     0
 10
0.0
 20
0.0
 30
0.0
  3
BLOCK60
  1

  0
TEXT
  5
965
  8
0
 62
     7
 10
-9.0734860000000008
 20
-139.36923200000001
 30
0.0
 40
3.0
  1
35
 50
180.0
 41
1.2776596825124811
 72
     5
 11
-14.023476999999991
 21
-139.36923200000001
 31
0.0
  0
ENDBLK
  5
966
  8
0
  0
BLOCK
  8
0
  2
BLOCK61
 70
     0
 10
0.0
 20
0.0
 30
0.0
  3
BLOCK61
  1

  0
TEXT
  5
968
  8
0
 62
     7
 10
26.618224999999988
 20
-139.36923200000001
 30
0.0
 40
3.0
  1
35
 50
180.0
 41
1.277659166285408
 72
     5
 11
21.668236
 21
-139.36923200000001
 31
0.0
  0
ENDBLK
  5
969
  8
0
  0
BLOCK
  8
0
  2
BLOCK62
 70
     0
 10
0.0
 20
0.0
 30
0.0
  3
BLOCK62
  1

  0
TEXT
  5
96B
  8
0
 62
     7
 10
-89.627716000000007
 20
-8.8065800000000003
 30
0.0
 40
3.0
  1
73,75
 50
270.00003472482013
 41
1.446687634268115
 72
     5
 11
-89.627707999999984
 21
-22.006540000000001
 31
0.0
  0
ENDBLK
  5
96C
  8
0
  0
BLOCK
  8
0
  2
BLOCK63
 70
     0
 10
0.0
 20
0.0
 30
0.0
  3
BLOCK63
  1

  0
TEXT
  5
96E
  8
0
 62
     7
 10
-118.948578
 20
-3.0289000000000001
 30
0.0
 40
3.0
  1
143
 50
270.00005952823722
 41
1.3570006447994001
 72
     5
 11
-118.9485699999999
 21
-10.72888
 31
0.0
  0
ENDBLK
  5
96F
  8
0
  0
BLOCK
  8
0
  2
BLOCK64
 70
     0
 10
0.0
 20
0.0
 30
0.0
  3
BLOCK64
  1

  0
TEXT
  5
971
  8
0
 62
     7
 10
-3.0
 20
-170.0
 30
0.0
 40
3.0
  1
X
 50
89.999973956428363
 41
0.9777764444445436
 72
     5
 11
-2.9999989999999999
 21
-167.80000299999989
 31
0.0
  0
ENDBLK
  5
972
  8
0
  0
BLOCK
  8
0
  2
BLOCK65
 70
     0
 10
0.0
 20
0.0
 30
0.0
  3
BLOCK65
  1

  0
TEXT
  5
974
  8
0
 62
     7
 10
-8.0
 20
106.0
 30
0.0
 40
3.0
  1
X
 50
90.0
 41
0.9777764444444425
 72
     5
 11
-8.0
 21
108.199997
 31
0.0
  0
ENDBLK
  5
975
  8
0
  0
BLOCK
  8
0
  2
BLOCK66
 70
     0
 10
0.0
 20
0.0
 30
0.0
  3
BLOCK66
  1

  0
TEXT
  5
977
  8
0
 62
     7
 10
-163.0
 20
-2.0
 30
0.0
 40
3.0
  1
Y
 50
90.0
 41
0.9777777777777778
 72
     5
 11
-163.0
 21
0.2
 31
0.0
  0
ENDBLK
  5
978
  8
0
  0
BLOCK
  8
0
  2
BLOCK67
 70
     0
 10
0.0
 20
0.0
 30
0.0
  3
BLOCK67
  1

  0
TEXT
  5
97A
  8
0
 62
     7
 10
130.0
 20
-1.0
 30
0.0
 40
3.0
  1
Y
 50
90.0
 41
0.9777777777777778
 72
     5
 11
130.0
 21
1.1999999999999991
 31
0.0
  0
ENDBLK
  5
97B
  8
0
  0
BLOCK
  8
0
  2
BLOCK68
 70
     0
 10
0.0
 20
0.0
 30
0.0
  3
BLOCK68
  1

  0
TEXT
  5
97D
  8
0
 62
     7
 10
18.75
 20
-126.5936889999999
 30
0.0
 40
3.0
  1
112
 50
179.9999404717629
 41
1.5941402843842269
 72
     5
 11
11.05002
 21
-126.593681
 31
0.0
  0
ENDBLK
  5
97E
  8
0
  0
BLOCK
  8
0
  2
BLOCK69
 70
     0
 10
0.0
 20
0.0
 30
0.0
  3
BLOCK69
  1

  0
TEXT
  5
980
  8
0
 62
     7
 10
18.75
 20
-164.0829469999999
 30
0.0
 40
3.0
  1
142
 50
180.0
 41
1.3437594995413831
 72
     5
 11
11.05002
 21
-164.0829469999999
 31
0.0
  0
ENDBLK
  5
981
  8
0
  0
BLOCK
  8
0
  2
BLOCK70
 70
     0
 10
0.0
 20
0.0
 30
0.0
  3
BLOCK70
  1

  0
TEXT
  5
983
  8
0
 62
     7
 10
-121.533958
 20
-11.0
 30
0.0
 40
3.0
  1
80
 50
90.0
 41
1.3191663623963901
 72
     5
 11
-121.533958
 21
-6.0500099999999994
 31
0.0
  0
ENDBLK
  5
984
  8
0
  0
BLOCK
  8
0
  2
BLOCK71
 70
     0
 10
0.0
 20
0.0
 30
0.0
  3
BLOCK71
  1

  0
TEXT
  5
986
  8
0
 62
     7
 10
-154.25183100000001
 20
-16.5
 30
0.0
 40
3.0
  1
112
 50
90.0
 41
1.594140284383367
 72
     5
 11
-154.25183100000001
 21
-8.8000199999999982
 31
0.0
  0
ENDBLK
  5
987
  8
0
  0
BLOCK
  8
0
  2
BLOCK72
 70
     0
 10
0.0
 20
0.0
 30
0.0
  3
BLOCK72
  1

  0
TEXT
  5
989
  8
0
 62
     7
 10
122.342232
 20
-111.27021000000001
 30
0.0
 40
3.0
  1
 7
 50
127.20899881553601
 41
1.736838138050411
 72
     5
 11
119.348854
 21
-107.3278659999999
 31
0.0
  0
ENDBLK
  5
98A
  8
0
  0
BLOCK
  8
0
  2
BLOCK73
 70
     0
 10
0.0
 20
0.0
 30
0.0
  3
BLOCK73
  1

  0
TEXT
  5
98C
  8
0
 62
     7
 10
123.30978399999999
 20
-112.544495
 30
0.0
 40
3.0
  1
%%c
 50
127.2089187033538
 41
0.9777779165820129
 72
     5
 11
121.9793929999999
 21
-110.79233600000001
 31
0.0
  0
ENDBLK
  5
98D
  8
0
  0
BLOCK
  8
0
  2
BLOCK74
 70
     0
 10
0.0
 20
0.0
 30
0.0
  3
BLOCK74
  1

  0
TEXT
  5
98F
  8
0
 62
     7
 10
-64.529999000000004
 20
-129.579666
 30
0.0
 40
3.0
  1
35
 50
180.0
 41
1.2776591662854091
 72
     5
 11
-69.479988000000006
 21
-129.579666
 31
0.0
  0
ENDBLK
  5
990
  8
0
  0
BLOCK
  8
0
  2
BLOCK75
 70
     0
 10
0.0
 20
0.0
 30
0.0
  3
BLOCK75
  1

  0
TEXT
  5
992
  8
0
 62
     7
 10
-29.529999
 20
-129.579666
 30
0.0
 40
3.0
  1
35
 50
180.0
 41
1.277659166285408
 72
     5
 11
-34.479987999999999
 21
-129.579666
 31
0.0
  0
ENDBLK
  5
993
  8
0
  0
BLOCK
  8
0
  2
BLOCK76
 70
     0
 10
0.0
 20
0.0
 30
0.0
  3
BLOCK76
  1

  0
TEXT
  5
995
  8
0
 62
     7
 10
-49.986435
 20
-140.472397
 30
0.0
 40
3.0
  1
Y
 50
180.0
 41
0.9777782222222223
 72
     5
 11
-52.186436
 21
-140.472397
 31
0.0
  0
ENDBLK
  5
996
  8
0
  0
BLOCK
  8
0
  2
BLOCK77
 70
     0
 10
0.0
 20
0.0
 30
0.0
  3
BLOCK77
  1

  0
TEXT
  5
998
  8
0
 62
     7
 10
-48.966675000000002
 20
65.738342000000003
 30
0.0
 40
3.0
  1
Y
 50
180.0
 41
0.9777782222222223
 72
     5
 11
-51.166676000000002
 21
65.738342000000003
 31
0.0
  0
ENDBLK
  5
999
  8
0
  0
BLOCK
  8
0
  2
BLOCK78
 70
     0
 10
0.0
 20
0.0
 30
0.0
  3
BLOCK78
  1

  0
TEXT
  5
99B
  8
0
 62
     7
 10
50.406265000000012
 20
-42.75
 30
0.0
 40
3.0
  1
100
 50
270.0000595282217
 41
1.4660036189199119
 72
     5
 11
50.406272999999999
 21
-50.449981999999999
 31
0.0
  0
ENDBLK
  5
99C
  8
0
  0
BLOCK
  8
0
  2
BLOCK79
 70
     0
 10
0.0
 20
0.0
 30
0.0
  3
BLOCK79
  1

  0
TEXT
  5
99E
  8
0
 62
     7
 10
34.276916999999997
 20
-23.0
 30
0.0
 40
3.0
  1
55
 50
270.0000347247921
 41
1.277659166285644
 72
     5
 11
34.276919999999997
 21
-27.949988999999999
 31
0.0
  0
ENDBLK
  5
99F
  8
0
  0
BLOCK
  8
0
  2
BLOCK80
 70
     0
 10
0.0
 20
0.0
 30
0.0
  3
BLOCK80
  1

  0
TEXT
  5
9A1
  8
0
 62
     7
 10
-121.64012099999989
 20
-8.25
 30
0.0
 40
3.0
  1
36,5
 50
270.00003838005819
 41
1.4876960629298499
 72
     5
 11
-121.6401139999999
 21
-18.69997
 31
0.0
  0
ENDBLK
  5
9A2
  8
0
  0
BLOCK
  8
0
  2
BLOCK81
 70
     0
 10
0.0
 20
0.0
 30
0.0
  3
BLOCK81
  1

  0
TEXT
  5
9A4
  8
0
 62
     7
 10
-137.23182700000001
 20
-30.75
 30
0.0
 40
3.0
  1
81,5
 50
270.0000822429817
 41
1.6266407931307201
 72
     5
 11
-137.23181199999999
 21
-41.19997
 31
0.0
  0
ENDBLK
  5
9A5
  8
0
  0
BLOCK
  8
0
  2
BLOCK82
 70
     0
 10
0.0
 20
0.0
 30
0.0
  3
BLOCK82
  1

  0
TEXT
  5
9A7
  8
0
 62
     7
 10
-64.529999000000004
 20
-115.41571
 30
0.0
 40
3.0
  1
12
 50
180.0
 41
1.4864041023094701
 72
     5
 11
-69.479988000000006
 21
-115.41571
 31
0.0
  0
ENDBLK
  5
9A8
  8
0
  0
BLOCK
  8
0
  2
BLOCK83
 70
     0
 10
0.0
 20
0.0
 30
0.0
  3
BLOCK83
  1

  0
TEXT
  5
9AA
  8
0
 62
     7
 10
-59.029998999999997
 20
-115.41571
 30
0.0
 40
3.0
  1
M
 50
180.0
 41
0.9777782222222223
 72
     5
 11
-61.229999999999997
 21
-115.41571
 31
0.0
  0
ENDBLK
  5
9AB
  8
0
  0
BLOCK
  8
0
  2
BLOCK84
 70
     0
 10
0.0
 20
0.0
 30
0.0
  3
BLOCK84
  1

  0
TEXT
  5
9AD
  8
0
 62
     7
 10
-64.529999000000004
 20
-129.579666
 30
0.0
 40
3.0
  1
35
 50
180.0
 41
1.2776591662854091
 72
     5
 11
-69.479988000000006
 21
-129.579666
 31
0.0
  0
ENDBLK
  5
9AE
  8
0
  0
ENDSEC
  0
SECTION
  2
ENTITIES
  0
LINE
  5
25
  8
0
 62
     7
 10
-123.1288149999999
 20
811.23155799999995
 30
0.0
 11
-152.87881100000001
 21
811.23155799999995
 31
0.0
  0
LINE
  5
26
  8
0
 62
     7
 10
-117.3418139999999
 20
811.23155799999995
 30
0.0
 11
-119.6288159999999
 21
811.23155799999995
 31
0.0
  0
LINE
  5
27
  8
0
 62
     7
 10
-153.87881100000001
 20
808.43155499999989
 30
0.0
 11
-153.87881100000001
 21
810.23155799999995
 31
0.0
  0
LINE
  5
28
  8
0
 62
     7
 10
-153.87881100000001
 20
808.43155499999989
 30
0.0
 11
-156.37881100000001
 21
808.43155499999989
 31
0.0
  0
LINE
  5
29
  8
0
 62
     7
 10
-156.3788219999999
 20
786.98155799999995
 30
0.0
 11
-156.3788219999999
 21
808.43155499999989
 31
0.0
  0
LINE
  5
2A
  8
0
 62
     7
 10
-156.37881100000001
 20
644.0315609999999
 30
0.0
 11
-156.37881100000001
 21
666.981584
 31
0.0
  0
LINE
  5
2B
  8
0
 62
     7
 10
-153.87881100000001
 20
644.0315609999999
 30
0.0
 11
-156.37881100000001
 21
644.0315609999999
 31
0.0
  0
LINE
  5
2C
  8
0
 62
     7
 10
-153.87881100000001
 20
642.23155800000006
 30
0.0
 11
-153.87881100000001
 21
644.0315609999999
 31
0.0
  0
LINE
  5
2D
  8
0
 62
     7
 10
-123.1288149999999
 20
641.23155799999995
 30
0.0
 11
-152.87881100000001
 21
641.23155799999995
 31
0.0
  0
LINE
  5
2E
  8
0
 62
     7
 10
-117.3418139999999
 20
641.23155799999995
 30
0.0
 11
-119.6288159999999
 21
641.23155799999995
 31
0.0
  0
LINE
  5
2F
  8
0
 62
     7
 10
-118.8788159999999
 20
804.73155800000006
 30
0.0
 11
-123.8788149999999
 21
804.73155800000006
 31
0.0
  0
LINE
  5
30
  8
0
 62
     7
 10
-130.36752499999989
 20
787.23155799999995
 30
0.0
 11
-147.12881100000001
 21
787.23155799999995
 31
0.0
  0
LINE
  5
31
  8
0
 62
     7
 10
-147.12881100000001
 20
787.23155799999995
 30
0.0
 11
-147.12881100000001
 21
791.23155799999995
 31
0.0
  0
LINE
  5
32
  8
0
 62
     7
 10
-150.87881100000001
 20
794.98155799999995
 30
0.0
 11
-153.87881100000001
 21
794.98155799999995
 31
0.0
  0
LINE
  5
33
  8
0
 62
     7
 10
-153.878815
 20
794.98155799999995
 30
0.0
 11
-153.878815
 21
808.43155499999989
 31
0.0
  0
LINE
  5
34
  8
0
 62
     7
 10
-118.8788159999999
 20
647.73155799999995
 30
0.0
 11
-123.8788149999999
 21
647.73155799999995
 31
0.0
  0
LINE
  5
35
  8
0
 62
     7
 10
-147.12881100000001
 20
661.23156200000005
 30
0.0
 11
-147.12881100000001
 21
665.23156200000005
 31
0.0
  0
LINE
  5
36
  8
0
 62
     7
 10
-133.52697399999991
 20
665.23156200000005
 30
0.0
 11
-147.12881100000001
 21
665.23156200000005
 31
0.0
  0
LINE
  5
37
  8
0
 62
     7
 10
-150.87880699999999
 20
657.48156200000005
 30
0.0
 11
-153.87881100000001
 21
657.48156200000005
 31
0.0
  0
LINE
  5
38
  8
0
 62
     7
 10
-153.87881100000001
 20
644.0315609999999
 30
0.0
 11
-153.87881100000001
 21
657.48155799999995
 31
0.0
  0
LINE
  5
39
  8
0
 62
     7
 10
-152.313873
 20
794.69611199999997
 30
0.0
 11
-150.87881100000001
 21
794.98155799999995
 31
0.0
  0
LINE
  5
3A
  8
0
 62
     7
 10
-153.53045299999991
 20
793.88323000000003
 30
0.0
 11
-152.3138659999999
 21
794.69612699999993
 31
0.0
  0
LINE
  5
3B
  8
0
 62
     7
 10
-154.34336099999999
 20
792.66660899999999
 30
0.0
 11
-153.53046399999991
 21
793.88320700000008
 31
0.0
  0
LINE
  5
3C
  8
0
 62
     7
 10
-154.62881100000001
 20
791.23156500000005
 30
0.0
 11
-154.34335699999991
 21
792.66662400000007
 31
0.0
  0
LINE
  5
3D
  8
0
 62
     7
 10
-154.34335699999991
 20
789.79650700000002
 30
0.0
 11
-154.62881100000001
 21
791.23156500000005
 31
0.0
  0
LINE
  5
3E
  8
0
 62
     7
 10
-153.53045700000001
 20
788.57989299999986
 30
0.0
 11
-154.34335300000001
 21
789.79649199999994
 31
0.0
  0
LINE
  5
3F
  8
0
 62
     7
 10
-152.31387699999991
 20
787.76701899999989
 30
0.0
 11
-153.53046399999991
 21
788.57991600000003
 31
0.0
  0
LINE
  5
40
  8
0
 62
     7
 10
-150.87881100000001
 20
787.48155799999995
 30
0.0
 11
-152.313873
 21
787.76700400000004
 31
0.0
  0
CIRCLE
  5
41
  8
0
 62
     7
 10
-138.87881100000001
 20
798.73154999999997
 30
0.0
 40
5.5000010000000001
  0
CIRCLE
  5
42
  8
0
 62
     7
 10
-138.878815
 20
807.23156500000005
 30
0.0
 40
1.4000049999999991
  0
ARC
  5
43
  8
0
 62
     7
 10
-121.3788149999999
 20
795.73156500000005
 30
0.0
 40
4.499992999999999
 50
99.801331000000005
 51
223.47853499999999
  0
CIRCLE
  5
44
  8
0
 62
     7
 10
-150.878803
 20
791.23156500000005
 30
0.0
 40
1.750006
  0
ARC
  5
45
  8
0
 62
     7
 10
-150.87878000000001
 20
791.23147400000005
 30
0.0
 40
3.749919999999999
 50
269.99955399999988
 51
90.000409000000005
  0
ARC
  5
46
  8
0
 62
     7
 10
-152.87880699999999
 20
810.23155799999995
 30
0.0
 40
1.0000039999999999
 50
90.000046999999995
 51
180.00048100000001
  0
CIRCLE
  5
47
  8
0
 62
     7
 10
-150.87881100000001
 20
661.23156200000005
 30
0.0
 40
1.7499990000000001
  0
CIRCLE
  5
48
  8
0
 62
     7
 10
-138.878792
 20
653.73156200000005
 30
0.0
 40
5.4999969999999996
  0
CIRCLE
  5
49
  8
0
 62
     7
 10
-138.87879599999991
 20
645.23155799999995
 30
0.0
 40
1.399999999999999
  0
ARC
  5
4A
  8
0
 62
     7
 10
-121.3787979999999
 20
656.73156200000005
 30
0.0
 40
4.4999979999999997
 50
136.5216639999999
 51
260.19846499999989
  0
ARC
  5
4B
  8
0
 62
     7
 10
-152.87881100000001
 20
642.23155800000006
 30
0.0
 40
1.0
 50
180.00000900000001
 51
269.99999100000002
  0
LINE
  5
4C
  8
0
  6
DASHDOT
 62
     7
 10
-138.878815
 20
802.83156399999984
 30
0.0
 11
-138.878815
 21
811.631575
 31
0.0
  0
LINE
  5
4D
  8
0
  6
DASHDOT
 62
     7
 10
-134.47881100000001
 20
807.23156500000005
 30
0.0
 11
-143.27882
 21
807.23156500000005
 31
0.0
  0
LINE
  5
4E
  8
0
  6
DASHDOT
 62
     7
 10
-138.87881100000001
 20
790.23154999999997
 30
0.0
 11
-138.87881100000001
 21
807.23154999999997
 31
0.0
  0
LINE
  5
4F
  8
0
  6
DASHDOT
 62
     7
 10
-130.37880899999999
 20
798.73154999999997
 30
0.0
 11
-147.37881100000001
 21
798.73154999999997
 31
0.0
  0
LINE
  5
50
  8
0
  6
DASHDOT
 62
     7
 10
-150.87878000000001
 20
784.48154999999997
 30
0.0
 11
-150.87878000000001
 21
797.98139000000003
 31
0.0
  0
LINE
  5
51
  8
0
  6
DASHDOT
 62
     7
 10
-144.12886
 20
791.23147400000005
 30
0.0
 11
-157.62870000000001
 21
791.23147400000005
 31
0.0
  0
LINE
  5
52
  8
0
  6
DASHDOT
 62
     7
 10
-138.878792
 20
645.23156500000005
 30
0.0
 11
-138.878792
 21
662.23156200000005
 31
0.0
  0
LINE
  5
53
  8
0
  6
DASHDOT
 62
     7
 10
-130.3787979999999
 20
653.73156200000005
 30
0.0
 11
-147.378792
 21
653.73156200000005
 31
0.0
  0
LINE
  5
54
  8
0
  6
DASHDOT
 62
     7
 10
-68.878737999999998
 20
645.23130599999979
 30
0.0
 11
-68.878737999999998
 21
662.23156900000004
 31
0.0
  0
LINE
  5
55
  8
0
  6
DASHDOT
 62
     7
 10
-68.878792000000004
 20
640.83157199999994
 30
0.0
 11
-68.878792000000004
 21
649.63155900000004
 31
0.0
  0
LINE
  5
56
  8
0
  6
DASHDOT
 62
     7
 10
-138.87879599999991
 20
640.83155599999998
 30
0.0
 11
-138.87879599999991
 21
649.63155900000004
 31
0.0
  0
LINE
  5
57
  8
0
  6
DASHDOT
 62
     7
 10
-134.4787959999999
 20
645.23155799999995
 30
0.0
 11
-143.27879699999991
 21
645.23155799999995
 31
0.0
  0
CIRCLE
  5
58
  8
0
 62
     7
 10
-150.87881100000001
 20
661.23155799999995
 30
0.0
 40
3.7500010000000001
  0
LINE
  5
59
  8
0
  6
DASHDOT
 62
     7
 10
-150.87881100000001
 20
654.48155399999996
 30
0.0
 11
-150.87881100000001
 21
667.98155799999995
 31
0.0
  0
LINE
  5
5A
  8
0
  6
DASHDOT
 62
     7
 10
-144.12881100000001
 20
661.23155799999995
 30
0.0
 11
-157.628815
 21
661.23155799999995
 31
0.0
  0
LINE
  5
5B
  8
0
 62
     3
 10
-156.37878000000001
 20
666.981584
 30
0.0
 11
-156.37878000000001
 21
671.98158100000001
 31
0.0
  0
LINE
  5
5C
  8
0
 62
     7
 10
-135.75408400000001
 20
665.981584
 30
0.0
 11
-155.37878000000001
 21
665.981584
 31
0.0
  0
LINE
  5
5D
  8
0
 62
     3
 10
-156.37878000000001
 20
775.98155399999985
 30
0.0
 11
-156.37878000000001
 21
786.98156500000005
 31
0.0
  0
LINE
  5
5E
  8
0
 62
     7
 10
-130.36015299999991
 20
786.98155799999995
 30
0.0
 11
-156.3787649999999
 21
786.98155799999995
 31
0.0
  0
LINE
  5
5F
  8
0
 62
     3
 10
-51.878796000000001
 20
776.48156900000004
 30
0.0
 11
-155.87878000000001
 21
776.48156900000004
 31
0.0
  0
LINE
  5
60
  8
0
 62
     3
 10
-51.878796000000001
 20
671.48158399999988
 30
0.0
 11
-65.378795999999994
 21
671.48158399999988
 31
0.0
  0
LINE
  5
61
  8
0
 62
     3
 10
-76.878795999999994
 20
671.48158399999988
 30
0.0
 11
-101.429502
 21
671.48158399999988
 31
0.0
  0
LINE
  5
62
  8
0
 62
     3
 10
-142.37878000000001
 20
671.48158399999988
 30
0.0
 11
-155.87878000000001
 21
671.48158399999988
 31
0.0
  0
LINE
  5
63
  8
0
 62
     7
 10
-155.37878000000001
 20
666.981584
 30
0.0
 11
-156.37878000000001
 21
666.981584
 31
0.0
  0
LINE
  5
64
  8
0
 62
     7
 10
-155.37878000000001
 20
665.981584
 30
0.0
 11
-155.37878000000001
 21
666.981584
 31
0.0
  0
LINE
  5
65
  8
0
 62
     7
 10
-139.50143799999989
 20
666.981584
 30
0.0
 11
-155.37878000000001
 21
666.981584
 31
0.0
  0
LINE
  5
66
  8
0
 62
     7
 10
-154.87878000000001
 20
776.48156900000004
 30
0.0
 11
-154.87878000000001
 21
786.98158100000001
 31
0.0
  0
LINE
  5
67
  8
0
 62
     3
 10
-130.87878000000001
 20
671.48158399999988
 30
0.0
 11
-142.37878000000001
 21
671.48158399999988
 31
0.0
  0
LINE
  5
68
  8
0
 62
     3
 10
-65.378795999999994
 20
671.48158399999988
 30
0.0
 11
-76.878795999999994
 21
671.48158399999988
 31
0.0
  0
LINE
  5
69
  8
0
  6
DASHDOT
 62
     7
 10
-103.87878000000001
 20
653.36038399999995
 30
0.0
 11
-103.87878000000001
 21
756.65565700000002
 31
0.0
  0
ARC
  5
6A
  8
0
 62
     3
 10
-155.87878000000001
 20
671.98158399999988
 30
0.0
 40
0.5
 50
180.00000299999991
 51
270.00000499999987
  0
ARC
  5
6B
  8
0
 62
     3
 10
-155.87878000000001
 20
775.98156900000004
 30
0.0
 40
0.5
 50
90.0
 51
180.00000299999991
  0
ARC
  5
6C
  8
0
 62
     3
 10
-51.878796000000001
 20
775.98156900000004
 30
0.0
 40
0.5
 50
0.000001
 51
90.0
  0
ARC
  5
6D
  8
0
 62
     3
 10
-51.878796000000001
 20
671.98158399999988
 30
0.0
 40
0.5
 50
270.00000499999987
 51
0.000001
  0
LINE
  5
6E
  8
0
  6
DASHDOT
 62
     7
 10
-103.87878000000001
 20
762.434889
 30
0.0
 11
-103.87878000000001
 21
791.34513700000002
 31
0.0
  0
LINE
  5
6F
  8
0
 62
     3
 10
-106.3282309999999
 20
671.48158399999988
 30
0.0
 11
-130.87878000000001
 21
671.48158399999988
 31
0.0
  0
LINE
  5
70
  8
0
 62
     7
 10
-131.37879599999991
 20
671.48156900000004
 30
0.0
 11
-141.37878000000001
 21
671.48156900000004
 31
0.0
  0
LINE
  5
71
  8
0
 62
     7
 10
-66.378810999999999
 20
671.48156900000004
 30
0.0
 11
-76.378810999999999
 21
671.48156900000004
 31
0.0
  0
LINE
  5
72
  8
0
 62
     7
 10
-51.378779999999999
 20
671.98156900000004
 30
0.0
 11
-51.378779999999999
 21
689.98155199999985
 31
0.0
  0
LINE
  5
73
  8
0
 62
     7
 10
-156.37878000000001
 20
671.98156900000004
 30
0.0
 11
-156.37878000000001
 21
689.98155199999985
 31
0.0
  0
LINE
  5
74
  8
0
 62
     7
 10
-51.878779999999999
 20
776.48156900000004
 30
0.0
 11
-155.87878000000001
 21
776.48156900000004
 31
0.0
  0
LINE
  5
75
  8
0
 62
     7
 10
-141.37878000000001
 20
671.48156900000004
 30
0.0
 11
-155.87878000000001
 21
671.48156900000004
 31
0.0
  0
LINE
  5
76
  8
0
 62
     7
 10
-76.378810999999999
 20
671.48156900000004
 30
0.0
 11
-131.37879599999991
 21
671.48156900000004
 31
0.0
  0
LINE
  5
77
  8
0
 62
     7
 10
-51.878779999999999
 20
671.48156900000004
 30
0.0
 11
-66.378810999999999
 21
671.48156900000004
 31
0.0
  0
LINE
  5
78
  8
0
 62
     7
 10
-93.128780000000006
 20
693.73155199999985
 30
0.0
 11
-93.128780000000006
 21
733.73153699999989
 31
0.0
  0
LINE
  5
79
  8
0
 62
     7
 10
-114.62878000000001
 20
693.73155199999985
 30
0.0
 11
-114.62878000000001
 21
733.73153699999989
 31
0.0
  0
LINE
  5
7A
  8
0
 62
     7
 10
-51.378779999999999
 20
764.48153899999988
 30
0.0
 11
-156.37878000000001
 21
764.48153899999988
 31
0.0
  0
LINE
  5
7B
  8
0
 62
     7
 10
-51.378779999999999
 20
774.481539
 30
0.0
 11
-156.37878000000001
 21
774.481539
 31
0.0
  0
LINE
  5
7C
  8
0
 62
     7
 10
-93.128780000000006
 20
733.46707100000003
 30
0.0
 11
-114.62878000000001
 21
733.46707100000003
 31
0.0
  0
LINE
  5
7D
  8
0
 62
     7
 10
-93.128780000000006
 20
733.73153699999989
 30
0.0
 11
-114.62878000000001
 21
733.73153699999989
 31
0.0
  0
LINE
  5
7E
  8
0
 62
     7
 10
-93.128780000000006
 20
693.73155199999985
 30
0.0
 11
-114.62878000000001
 21
693.73155199999985
 31
0.0
  0
LINE
  5
7F
  8
0
 62
     7
 10
-93.128780000000006
 20
693.99604799999997
 30
0.0
 11
-114.62878000000001
 21
693.99604799999997
 31
0.0
  0
LINE
  5
80
  8
0
  6
DASHDOT
 62
     7
 10
-103.87878000000001
 20
621.70353499999987
 30
0.0
 11
-103.87878000000001
 21
754.68397300000004
 31
0.0
  0
LINE
  5
81
  8
0
  6
DASHDOT
 62
     7
 10
-103.87878000000001
 20
753.91123800000003
 30
0.0
 11
-103.87878000000001
 21
832.18469000000005
 31
0.0
  0
LINE
  5
82
  8
0
 62
     7
 10
-51.378796000000001
 20
690.98155199999985
 30
0.0
 11
-51.378796000000001
 21
702.98154399999999
 31
0.0
  0
LINE
  5
83
  8
0
 62
     7
 10
-51.378796000000001
 20
671.97766300000001
 30
0.0
 11
-51.378796000000001
 21
775.98156900000004
 31
0.0
  0
LINE
  5
84
  8
0
 62
     7
 10
-51.378796000000001
 20
703.98154399999987
 30
0.0
 11
-51.378796000000001
 21
723.48155199999985
 31
0.0
  0
LINE
  5
85
  8
0
 62
     7
 10
-51.378796000000001
 20
671.97766300000001
 30
0.0
 11
-51.378796000000001
 21
736.48155199999985
 31
0.0
  0
LINE
  5
86
  8
0
 62
     7
 10
-156.37878000000001
 20
690.98155199999985
 30
0.0
 11
-156.37878000000001
 21
702.98155199999985
 31
0.0
  0
LINE
  5
87
  8
0
 62
     7
 10
-156.37878000000001
 20
703.98155199999985
 30
0.0
 11
-156.37878000000001
 21
723.48155199999985
 31
0.0
  0
LINE
  5
88
  8
0
 62
     7
 10
-156.37878000000001
 20
724.48155199999985
 30
0.0
 11
-156.37878000000001
 21
736.48155199999985
 31
0.0
  0
LINE
  5
89
  8
0
 62
     7
 10
-156.37878000000001
 20
671.98156900000004
 30
0.0
 11
-156.37878000000001
 21
775.98156900000004
 31
0.0
  0
ARC
  5
8A
  8
0
 62
     7
 10
-155.87878000000001
 20
671.98156900000004
 30
0.0
 40
0.5
 50
180.00000299999991
 51
270.00000499999987
  0
ARC
  5
8B
  8
0
 62
     7
 10
-51.878779999999999
 20
671.98156900000004
 30
0.0
 40
0.5
 50
270.00000499999987
 51
359.55237699999992
  0
ARC
  5
8C
  8
0
 62
     7
 10
-51.878779999999999
 20
775.98156900000004
 30
0.0
 40
0.5
 50
0.000001
 51
90.0
  0
ARC
  5
8D
  8
0
 62
     7
 10
-155.87878000000001
 20
775.98156900000004
 30
0.0
 40
0.5
 50
90.0
 51
180.00000299999991
  0
LINE
  5
8E
  8
0
 62
     7
 10
-126.37878000000001
 20
734.98155199999985
 30
0.0
 11
-127.87878000000001
 21
734.98155199999985
 31
0.0
  0
LINE
  5
8F
  8
0
 62
     7
 10
-126.37878000000001
 20
725.98155199999997
 30
0.0
 11
-127.87878000000001
 21
725.98155199999997
 31
0.0
  0
CIRCLE
  5
90
  8
0
 62
     7
 10
-127.12878000000001
 20
696.98155199999997
 30
0.0
 40
4.5
  0
CIRCLE
  5
91
  8
0
 62
     7
 10
-127.12878000000001
 20
696.98155199999997
 30
0.0
 40
3.0
  0
LINE
  5
92
  8
0
 62
     7
 10
-127.87878000000001
 20
725.98155199999997
 30
0.0
 11
-127.87878000000001
 21
734.98155199999985
 31
0.0
  0
LINE
  5
93
  8
0
 62
     7
 10
-126.37878000000001
 20
725.98155199999997
 30
0.0
 11
-126.37878000000001
 21
734.98155199999985
 31
0.0
  0
LINE
  5
94
  8
0
 62
     7
 10
-78.32879100000001
 20
700.83155199999999
 30
0.0
 11
-78.778790000000001
 21
700.83155199999999
 31
0.0
  0
LINE
  5
95
  8
0
 62
     7
 10
-79.278790000000001
 20
693.13155199999994
 30
0.0
 11
-80.078791000000024
 21
693.13155199999994
 31
0.0
  0
LINE
  5
96
  8
0
 62
     7
 10
-86.478790000000004
 20
695.73155199999985
 30
0.0
 11
-86.478790000000004
 21
696.23155199999985
 31
0.0
  0
LINE
  5
97
  8
0
 62
     7
 10
-81.278790000000001
 20
695.73155199999985
 30
0.0
 11
-81.278790000000001
 21
696.23155199999985
 31
0.0
  0
ARC
  5
98
  8
0
 62
     7
 10
-83.878790000000009
 20
696.23155199999985
 30
0.0
 40
2.6000000000000001
 50
0.000001
 51
180.00000299999991
  0
ARC
  5
99
  8
0
 62
     7
 10
-83.878790000000009
 20
695.73155199999985
 30
0.0
 40
2.6000000000000001
 50
180.00000299999991
 51
0.000001
  0
ARC
  5
9A
  8
0
 62
     7
 10
-83.878790000000009
 20
696.23155199999985
 30
0.0
 40
1.8
 50
0.000001
 51
180.00000299999991
  0
ARC
  5
9B
  8
0
 62
     7
 10
-83.878790000000009
 20
695.73155199999985
 30
0.0
 40
1.8
 50
180.00000299999991
 51
0.000001
  0
LINE
  5
9C
  8
0
 62
     7
 10
-85.678791000000004
 20
695.73155199999985
 30
0.0
 11
-85.678791000000004
 21
696.23155199999985
 31
0.0
  0
LINE
  5
9D
  8
0
 62
     7
 10
-82.07879100000001
 20
695.73155199999985
 30
0.0
 11
-82.07879100000001
 21
696.23155199999985
 31
0.0
  0
LINE
  5
9E
  8
0
 62
     7
 10
-81.028789999999987
 20
697.63155199999994
 30
0.0
 11
-81.028789999999987
 21
698.4315519999999
 31
0.0
  0
LINE
  5
9F
  8
0
 62
     7
 10
-80.078791000000024
 20
697.63155199999994
 30
0.0
 11
-81.028789999999987
 21
697.63155199999994
 31
0.0
  0
LINE
  5
A0
  8
0
 62
     7
 10
-78.32879100000001
 20
697.63155199999994
 30
0.0
 11
-78.32879100000001
 21
698.4315519999999
 31
0.0
  0
LINE
  5
A1
  8
0
 62
     7
 10
-80.078791000000024
 20
698.4315519999999
 30
0.0
 11
-81.028789999999987
 21
698.4315519999999
 31
0.0
  0
LINE
  5
A2
  8
0
 62
     7
 10
-80.078791000000024
 20
693.13155199999994
 30
0.0
 11
-80.078791000000024
 21
697.63155199999994
 31
0.0
  0
LINE
  5
A3
  8
0
 62
     7
 10
-79.278790000000001
 20
693.13155199999994
 30
0.0
 11
-79.278790000000001
 21
697.63155199999994
 31
0.0
  0
LINE
  5
A4
  8
0
 62
     7
 10
-78.32879100000001
 20
697.63155199999994
 30
0.0
 11
-79.278790000000001
 21
697.63155199999994
 31
0.0
  0
LINE
  5
A5
  8
0
 62
     7
 10
-78.32879100000001
 20
698.4315519999999
 30
0.0
 11
-79.278790000000001
 21
698.4315519999999
 31
0.0
  0
LINE
  5
A6
  8
0
 62
     7
 10
-80.078791000000024
 20
698.4315519999999
 30
0.0
 11
-80.078791000000024
 21
699.53155199999992
 31
0.0
  0
LINE
  5
A7
  8
0
 62
     7
 10
-79.278790000000001
 20
698.4315519999999
 30
0.0
 11
-79.278790000000001
 21
699.53155199999992
 31
0.0
  0
ARC
  5
A8
  8
0
 62
     7
 10
-78.778790000000001
 20
699.53155199999992
 30
0.0
 40
1.3
 50
90.000010000000003
 51
180.00000299999991
  0
ARC
  5
A9
  8
0
 62
     7
 10
-78.778790000000001
 20
699.53155199999992
 30
0.0
 40
0.5
 50
90.000010000000003
 51
180.00000299999991
  0
LINE
  5
AA
  8
0
 62
     7
 10
-78.32879100000001
 20
700.03155199999992
 30
0.0
 11
-78.32879100000001
 21
700.83155199999999
 31
0.0
  0
LINE
  5
AB
  8
0
 62
     7
 10
-78.32879100000001
 20
700.03155199999992
 30
0.0
 11
-78.778790000000001
 21
700.03155199999992
 31
0.0
  0
LINE
  5
AC
  8
0
 62
     7
 10
-75.128790000000009
 20
700.83155199999999
 30
0.0
 11
-75.578790999999995
 21
700.83155199999999
 31
0.0
  0
LINE
  5
AD
  8
0
 62
     7
 10
-76.07879100000001
 20
693.13155199999994
 30
0.0
 11
-76.878790000000009
 21
693.13155199999994
 31
0.0
  0
LINE
  5
AE
  8
0
 62
     7
 10
-77.82879100000001
 20
697.63155199999994
 30
0.0
 11
-77.82879100000001
 21
698.4315519999999
 31
0.0
  0
LINE
  5
AF
  8
0
 62
     7
 10
-76.878790000000009
 20
697.63155199999994
 30
0.0
 11
-77.82879100000001
 21
697.63155199999994
 31
0.0
  0
LINE
  5
B0
  8
0
 62
     7
 10
-75.128790000000009
 20
697.63155199999994
 30
0.0
 11
-75.128790000000009
 21
698.4315519999999
 31
0.0
  0
LINE
  5
B1
  8
0
 62
     7
 10
-76.878790000000009
 20
698.4315519999999
 30
0.0
 11
-77.82879100000001
 21
698.4315519999999
 31
0.0
  0
LINE
  5
B2
  8
0
 62
     7
 10
-76.878790000000009
 20
693.13155199999994
 30
0.0
 11
-76.878790000000009
 21
697.63155199999994
 31
0.0
  0
LINE
  5
B3
  8
0
 62
     7
 10
-76.07879100000001
 20
693.13155199999994
 30
0.0
 11
-76.07879100000001
 21
697.63155199999994
 31
0.0
  0
LINE
  5
B4
  8
0
 62
     7
 10
-75.128790000000009
 20
697.63155199999994
 30
0.0
 11
-76.07879100000001
 21
697.63155199999994
 31
0.0
  0
LINE
  5
B5
  8
0
 62
     7
 10
-75.128790000000009
 20
698.4315519999999
 30
0.0
 11
-76.07879100000001
 21
698.4315519999999
 31
0.0
  0
LINE
  5
B6
  8
0
 62
     7
 10
-76.878790000000009
 20
698.4315519999999
 30
0.0
 11
-76.878790000000009
 21
699.53155199999992
 31
0.0
  0
LINE
  5
B7
  8
0
 62
     7
 10
-76.07879100000001
 20
698.4315519999999
 30
0.0
 11
-76.07879100000001
 21
699.53155199999992
 31
0.0
  0
ARC
  5
B8
  8
0
 62
     7
 10
-75.578790999999995
 20
699.53155199999992
 30
0.0
 40
1.3
 50
90.000010000000003
 51
180.00000299999991
  0
ARC
  5
B9
  8
0
 62
     7
 10
-75.578790999999995
 20
699.53155199999992
 30
0.0
 40
0.5
 50
90.000010000000003
 51
180.00000299999991
  0
LINE
  5
BA
  8
0
 62
     7
 10
-75.128790000000009
 20
700.03155199999992
 30
0.0
 11
-75.128790000000009
 21
700.83155199999999
 31
0.0
  0
LINE
  5
BB
  8
0
 62
     7
 10
-75.128790000000009
 20
700.03155199999992
 30
0.0
 11
-75.578790999999995
 21
700.03155199999992
 31
0.0
  0
LINE
  5
BC
  8
0
 62
     7
 10
-79.678791000000004
 20
727.63155199999994
 30
0.0
 11
-80.478790000000004
 21
727.63155199999994
 31
0.0
  0
ARC
  5
BD
  8
0
 62
     7
 10
-83.878790000000009
 20
730.73155199999985
 30
0.0
 40
2.6000000000000001
 50
0.000001
 51
180.00000299999991
  0
ARC
  5
BE
  8
0
 62
     7
 10
-83.878790000000009
 20
730.73155199999985
 30
0.0
 40
1.8
 50
0.000001
 51
180.00000299999991
  0
ARC
  5
BF
  8
0
 62
     7
 10
-83.878790000000009
 20
730.23155199999985
 30
0.0
 40
2.6000000000000001
 50
180.00000299999991
 51
0.000001
  0
ARC
  5
C0
  8
0
 62
     7
 10
-83.878790000000009
 20
730.23155199999985
 30
0.0
 40
1.8
 50
180.00000299999991
 51
0.000001
  0
LINE
  5
C1
  8
0
 62
     7
 10
-82.07879100000001
 20
730.23155199999985
 30
0.0
 11
-82.07879100000001
 21
730.73155199999985
 31
0.0
  0
LINE
  5
C2
  8
0
 62
     7
 10
-81.278790000000001
 20
730.23155199999985
 30
0.0
 11
-81.278790000000001
 21
730.73155199999985
 31
0.0
  0
LINE
  5
C3
  8
0
 62
     7
 10
-85.678791000000004
 20
730.23155199999985
 30
0.0
 11
-85.678791000000004
 21
730.73155199999985
 31
0.0
  0
LINE
  5
C4
  8
0
 62
     7
 10
-86.478790000000004
 20
730.23155199999985
 30
0.0
 11
-86.478790000000004
 21
730.73155199999985
 31
0.0
  0
LINE
  5
C5
  8
0
 62
     7
 10
-80.478790000000004
 20
727.63155199999994
 30
0.0
 11
-80.478790000000004
 21
733.33155199999999
 31
0.0
  0
LINE
  5
C6
  8
0
 62
     7
 10
-79.678791000000004
 20
727.63155199999994
 30
0.0
 11
-79.678791000000004
 21
731.13155199999994
 31
0.0
  0
LINE
  5
C7
  8
0
 62
     7
 10
-76.878790000000009
 20
727.63155199999994
 30
0.0
 11
-76.878790000000009
 21
731.13155199999994
 31
0.0
  0
LINE
  5
C8
  8
0
 62
     7
 10
-76.07879100000001
 20
727.63155199999994
 30
0.0
 11
-76.07879100000001
 21
731.33155199999987
 31
0.0
  0
LINE
  5
C9
  8
0
 62
     7
 10
-79.678791000000004
 20
733.33155199999999
 30
0.0
 11
-80.478790000000004
 21
733.33155199999999
 31
0.0
  0
ARC
  5
CA
  8
0
 62
     7
 10
-78.278790000000001
 20
731.13155199999994
 30
0.0
 40
1.399999999999999
 50
0.000001
 51
180.00000299999991
  0
LINE
  5
CB
  8
0
 62
     7
 10
-79.678791000000004
 20
732.53155099999992
 30
0.0
 11
-79.678791000000004
 21
733.33155199999999
 31
0.0
  0
ARC
  5
CC
  8
0
 62
     7
 10
-78.078790999999995
 20
731.33155199999987
 30
0.0
 40
2.0
 50
0.000001
 51
143.13010199999999
  0
LINE
  5
CD
  8
0
 62
     7
 10
-76.07879100000001
 20
727.63155199999994
 30
0.0
 11
-76.878790000000009
 21
727.63155199999994
 31
0.0
  0
LINE
  5
CE
  8
0
 62
     7
 10
-123.1288149999999
 20
808.23155800000006
 30
0.0
 11
-123.1288149999999
 21
811.23155799999995
 31
0.0
  0
LINE
  5
CF
  8
0
 62
     7
 10
-119.6288159999999
 20
808.23155800000006
 30
0.0
 11
-119.6288159999999
 21
811.23155799999995
 31
0.0
  0
LINE
  5
D0
  8
0
 62
     7
 10
-123.8788149999999
 20
804.73155800000006
 30
0.0
 11
-123.8788149999999
 21
808.23155800000006
 31
0.0
  0
LINE
  5
D1
  8
0
 62
     7
 10
-118.8788159999999
 20
804.73155800000006
 30
0.0
 11
-118.8788159999999
 21
808.23155800000006
 31
0.0
  0
LINE
  5
D2
  8
0
 62
     7
 10
-118.8788159999999
 20
808.23155800000006
 30
0.0
 11
-119.6288159999999
 21
808.23155800000006
 31
0.0
  0
LINE
  5
D3
  8
0
 62
     7
 10
-123.1288149999999
 20
808.23155800000006
 30
0.0
 11
-123.8788149999999
 21
808.23155800000006
 31
0.0
  0
LINE
  5
D4
  8
0
 62
     7
 10
-119.6288159999999
 20
641.23155799999995
 30
0.0
 11
-119.6288159999999
 21
644.23155799999995
 31
0.0
  0
LINE
  5
D5
  8
0
 62
     7
 10
-123.1288149999999
 20
641.23155799999995
 30
0.0
 11
-123.1288149999999
 21
644.23155799999995
 31
0.0
  0
LINE
  5
D6
  8
0
 62
     7
 10
-123.1288149999999
 20
644.23155799999995
 30
0.0
 11
-123.8788149999999
 21
644.23155799999995
 31
0.0
  0
LINE
  5
D7
  8
0
 62
     7
 10
-118.8788159999999
 20
644.23155799999995
 30
0.0
 11
-119.6288159999999
 21
644.23155799999995
 31
0.0
  0
LINE
  5
D8
  8
0
 62
     7
 10
-118.8788159999999
 20
644.23155799999995
 30
0.0
 11
-118.8788159999999
 21
647.73155799999995
 31
0.0
  0
LINE
  5
D9
  8
0
 62
     7
 10
-123.8788149999999
 20
644.23155799999995
 30
0.0
 11
-123.8788149999999
 21
647.73155799999995
 31
0.0
  0
LINE
  5
DA
  8
0
 62
     7
 10
-93.128780000000006
 20
707.85687299999995
 30
0.0
 11
-114.62878000000001
 21
707.85687299999995
 31
0.0
  0
LINE
  5
DB
  8
0
 62
     7
 10
-93.128780000000006
 20
701.740407
 30
0.0
 11
-114.62878000000001
 21
701.740407
 31
0.0
  0
LINE
  5
DC
  8
0
 62
     7
 10
-93.128780000000006
 20
695.79258900000002
 30
0.0
 11
-114.62878000000001
 21
695.79258900000002
 31
0.0
  0
LINE
  5
DD
  8
0
 62
     7
 10
-93.128780000000006
 20
694.98984100000007
 30
0.0
 11
-114.62878000000001
 21
694.98984100000007
 31
0.0
  0
LINE
  5
DE
  8
0
  6
DASHDOT
 62
     7
 10
-37.700938999999991
 20
723.98156700000004
 30
0.0
 11
-193.348454
 21
723.98156700000004
 31
0.0
  0
LINE
  5
DF
  8
0
 62
     3
 10
-52.628799000000001
 20
813.73155799999995
 30
0.0
 11
-115.759502
 21
813.73155799999995
 31
0.0
  0
LINE
  5
E0
  8
0
 62
     3
 10
-51.378745999999992
 20
804.48156500000005
 30
0.0
 11
-51.378745999999992
 21
812.48155799999995
 31
0.0
  0
LINE
  5
E1
  8
0
 62
     3
 10
-51.744911000000002
 20
813.36544600000002
 30
0.0
 11
-52.628791999999997
 21
813.73156500000005
 31
0.0
  0
LINE
  5
E2
  8
0
 62
     3
 10
-51.378796000000001
 20
812.48157299999991
 30
0.0
 11
-51.744914999999999
 21
813.365454
 31
0.0
  0
LINE
  5
E3
  8
0
 62
     3
 10
-53.728797999999991
 20
804.48156500000005
 30
0.0
 11
-53.728797999999991
 21
813.42090399999995
 31
0.0
  0
LINE
  5
E4
  8
0
 62
     3
 10
-57.328795999999997
 20
804.48156500000005
 30
0.0
 11
-57.328795999999997
 21
813.42090399999995
 31
0.0
  0
LINE
  5
E5
  8
0
 62
     3
 10
-60.928794999999987
 20
804.48156500000005
 30
0.0
 11
-60.928794999999987
 21
813.42090399999995
 31
0.0
  0
LINE
  5
E6
  8
0
 62
     3
 10
-64.528793000000007
 20
804.48156500000005
 30
0.0
 11
-64.528793000000007
 21
813.42090399999995
 31
0.0
  0
LINE
  5
E7
  8
0
 62
     3
 10
-68.128799000000001
 20
804.48156500000005
 30
0.0
 11
-68.128799000000001
 21
813.42090399999995
 31
0.0
  0
LINE
  5
E8
  8
0
 62
     3
 10
-71.728797999999998
 20
804.48156500000005
 30
0.0
 11
-71.728797999999998
 21
813.42090399999995
 31
0.0
  0
LINE
  5
E9
  8
0
 62
     3
 10
-75.328793999999974
 20
804.48156500000005
 30
0.0
 11
-75.328793999999974
 21
813.42090399999995
 31
0.0
  0
LINE
  5
EA
  8
0
 62
     3
 10
-78.928792999999999
 20
804.48156500000005
 30
0.0
 11
-78.928792999999999
 21
813.42090399999995
 31
0.0
  0
LINE
  5
EB
  8
0
 62
     3
 10
-82.528790999999984
 20
804.48156500000005
 30
0.0
 11
-82.528790999999984
 21
813.42090399999995
 31
0.0
  0
LINE
  5
EC
  8
0
 62
     3
 10
-86.128797999999989
 20
804.48156500000005
 30
0.0
 11
-86.128797999999989
 21
813.42090399999995
 31
0.0
  0
LINE
  5
ED
  8
0
 62
     3
 10
-89.728797
 20
804.48156500000005
 30
0.0
 11
-89.728797
 21
813.42090399999995
 31
0.0
  0
LINE
  5
EE
  8
0
 62
     3
 10
-93.328795
 20
804.48156500000005
 30
0.0
 11
-93.328795
 21
813.42090399999995
 31
0.0
  0
LINE
  5
EF
  8
0
 62
     3
 10
-96.928793999999996
 20
804.48156500000005
 30
0.0
 11
-96.928793999999996
 21
813.42090399999995
 31
0.0
  0
LINE
  5
F0
  8
0
 62
     3
 10
-100.5287959999999
 20
804.48156500000005
 30
0.0
 11
-100.5287959999999
 21
813.42090399999995
 31
0.0
  0
LINE
  5
F1
  8
0
 62
     3
 10
-104.1287939999999
 20
804.48156500000005
 30
0.0
 11
-104.1287939999999
 21
813.42090399999995
 31
0.0
  0
LINE
  5
F2
  8
0
 62
     3
 10
-107.728793
 20
804.48156500000005
 30
0.0
 11
-107.728793
 21
813.42090399999995
 31
0.0
  0
LINE
  5
F3
  8
0
 62
     3
 10
-111.3287949999999
 20
804.48156500000005
 30
0.0
 11
-111.3287949999999
 21
813.42090399999995
 31
0.0
  0
LINE
  5
F4
  8
0
 62
     3
 10
-114.928794
 20
804.48156500000005
 30
0.0
 11
-114.928794
 21
813.42090399999995
 31
0.0
  0
CIRCLE
  5
F5
  8
0
 62
     7
 10
-55.345139000000003
 20
809.86317199999996
 30
0.0
 40
0.2
  0
LINE
  5
F6
  8
0
 62
     3
 10
-45.378779999999999
 20
644.73157300000003
 30
0.0
 11
-45.378779999999999
 21
803.23156500000005
 31
0.0
  0
LINE
  5
F7
  8
0
 62
     3
 10
-46.628779999999999
 20
643.48157300000003
 30
0.0
 11
-117.37726000000001
 21
643.48157300000003
 31
0.0
  0
LINE
  5
F8
  8
0
 62
     3
 10
-162.37878000000001
 20
670.80316700000003
 30
0.0
 11
-162.37878000000001
 21
777.13364999999999
 31
0.0
  0
LINE
  5
F9
  8
0
 62
     3
 10
-46.628779999999999
 20
804.48156500000005
 30
0.0
 11
-118.2915899999999
 21
804.48156500000005
 31
0.0
  0
LINE
  5
FA
  8
0
 62
     3
 10
-50.878779999999992
 20
670.98157300000003
 30
0.0
 11
-50.878779999999992
 21
776.98157300000003
 31
0.0
  0
LINE
  5
FB
  8
0
 62
     3
 10
-50.878779999999992
 20
670.98157300000003
 30
0.0
 11
-156.87878000000001
 21
670.98157300000003
 31
0.0
  0
LINE
  5
FC
  8
0
 62
     3
 10
-156.87878000000001
 20
670.98157300000003
 30
0.0
 11
-156.87878000000001
 21
776.98157300000003
 31
0.0
  0
LINE
  5
FD
  8
0
 62
     3
 10
-50.878779999999992
 20
776.98156900000004
 30
0.0
 11
-156.87878000000001
 21
776.98156900000004
 31
0.0
  0
LINE
  5
FE
  8
0
 62
     3
 10
-49.878779999999999
 20
662.48157300000003
 30
0.0
 11
-49.878779999999999
 21
663.48157300000003
 31
0.0
  0
LINE
  5
FF
  8
0
 62
     3
 10
-50.878779999999992
 20
664.48157300000003
 30
0.0
 11
-131.77969899999991
 21
664.48157300000003
 31
0.0
  0
LINE
  5
100
  8
0
 62
     3
 10
-50.878779999999992
 20
663.48157300000003
 30
0.0
 11
-130.27562
 21
663.48157300000003
 31
0.0
  0
LINE
  5
101
  8
0
 62
     3
 10
-157.87878000000001
 20
670.00952299999994
 30
0.0
 11
-157.87878000000001
 21
778.28625299999999
 31
0.0
  0
LINE
  5
102
  8
0
 62
     3
 10
-156.87878000000001
 20
776.98156900000004
 30
0.0
 11
-156.87878000000001
 21
778.40185399999984
 31
0.0
  0
LINE
  5
103
  8
0
 62
     3
 10
-156.87878000000001
 20
670.00809700000002
 30
0.0
 11
-156.87878000000001
 21
670.98157300000003
 31
0.0
  0
LINE
  5
104
  8
0
 62
     3
 10
-49.878779999999999
 20
643.48157300000003
 30
0.0
 11
-49.878779999999999
 21
662.48157300000003
 31
0.0
  0
LINE
  5
105
  8
0
 62
     3
 10
-49.878779999999999
 20
663.48157300000003
 30
0.0
 11
-49.878779999999999
 21
804.48156500000005
 31
0.0
  0
LINE
  5
106
  8
0
 62
     3
 10
-50.878779999999992
 20
664.48157300000003
 30
0.0
 11
-50.878779999999992
 21
670.98157300000003
 31
0.0
  0
LINE
  5
107
  8
0
 62
     3
 10
-50.878779999999992
 20
776.98156900000004
 30
0.0
 11
-50.878779999999992
 21
783.48156500000005
 31
0.0
  0
LINE
  5
108
  8
0
 62
     3
 10
-50.878779999999992
 20
643.48157300000003
 30
0.0
 11
-50.878779999999992
 21
663.48157300000003
 31
0.0
  0
LINE
  5
109
  8
0
 62
     3
 10
-49.878779999999999
 20
784.48156500000005
 30
0.0
 11
-130.6558
 21
784.48156500000005
 31
0.0
  0
LINE
  5
10A
  8
0
 62
     3
 10
-50.878779999999992
 20
783.48156500000005
 30
0.0
 11
-131.210497
 21
783.48156500000005
 31
0.0
  0
ARC
  5
10B
  8
0
 62
     3
 10
-46.628779999999999
 20
644.73157300000003
 30
0.0
 40
1.25
 50
270.00000499999987
 51
0.000001
  0
ARC
  5
10C
  8
0
 62
     3
 10
-46.628779999999999
 20
803.23156500000005
 30
0.0
 40
1.25
 50
0.000001
 51
90.0
  0
POLYLINE
  5
10D
  8
0
 62
     7
 66
     1
 10
0.0
 20
0.0
 30
0.0
  0
VERTEX
  5
A18
  8
0
 62
     7
 10
-115.76005600000001
 20
813.73151999999993
 30
0.0
  0
VERTEX
  5
A19
  8
0
 62
     7
 10
-115.901561
 20
813.62002399999994
 30
0.0
  0
VERTEX
  5
A1A
  8
0
 62
     7
 10
-116.0362719999999
 20
813.50627699999995
 30
0.0
  0
VERTEX
  5
A1B
  8
0
 62
     7
 10
-116.162032
 20
813.39233200000001
 30
0.0
  0
VERTEX
  5
A1C
  8
0
 62
     7
 10
-116.281285
 20
813.27624299999991
 30
0.0
  0
VERTEX
  5
A1D
  8
0
 62
     7
 10
-116.392483
 20
813.15973499999996
 30
0.0
  0
VERTEX
  5
A1E
  8
0
 62
     7
 10
-116.49742999999999
 20
813.04116599999998
 30
0.0
  0
VERTEX
  5
A1F
  8
0
 62
     7
 10
-116.595175
 20
812.92180399999995
 30
0.0
  0
VERTEX
  5
A20
  8
0
 62
     7
 10
-116.6868929999999
 20
812.80044400000008
 30
0.0
  0
VERTEX
  5
A21
  8
0
 62
     7
 10
-116.7721899999999
 20
812.67778599999997
 30
0.0
  0
VERTEX
  5
A22
  8
0
 62
     7
 10
-116.8516469999999
 20
812.55318299999988
 30
0.0
  0
VERTEX
  5
A23
  8
0
 62
     7
 10
-116.99341099999999
 20
812.29809399999988
 30
0.0
  0
VERTEX
  5
A24
  8
0
 62
     7
 10
-117.113617
 20
812.03349100000003
 30
0.0
  0
VERTEX
  5
A25
  8
0
 62
     7
 10
-117.21339399999989
 20
811.75716199999988
 30
0.0
  0
VERTEX
  5
A26
  8
0
 62
     7
 10
-117.29356899999991
 20
811.46619999999984
 30
0.0
  0
VERTEX
  5
A27
  8
0
 62
     7
 10
-117.354665
 20
811.15665200000001
 30
0.0
  0
VERTEX
  5
A28
  8
0
 62
     7
 10
-117.3969129999999
 20
810.82280500000013
 30
0.0
  0
VERTEX
  5
A29
  8
0
 62
     7
 10
-117.404478
 20
810.73524299999997
 30
0.0
  0
VERTEX
  5
A2A
  8
0
 62
     7
 10
-117.4230679999999
 20
810.35764099999994
 30
0.0
  0
VERTEX
  5
A2B
  8
0
 62
     7
 10
-117.422073
 20
809.92371900000001
 30
0.0
  0
VERTEX
  5
A2C
  8
0
 62
     7
 10
-117.399787
 20
809.38610600000004
 30
0.0
  0
VERTEX
  5
A2D
  8
0
 62
     7
 10
-117.3500139999999
 20
808.52229899999998
 30
0.0
  0
VERTEX
  5
A2E
  8
0
 62
     7
 10
-117.33497199999999
 20
808.14671099999998
 30
0.0
  0
VERTEX
  5
A2F
  8
0
 62
     7
 10
-117.330112
 20
807.77162699999985
 30
0.0
  0
VERTEX
  5
A30
  8
0
 62
     7
 10
-117.3342699999999
 20
807.53025600000001
 30
0.0
  0
VERTEX
  5
A31
  8
0
 62
     7
 10
-117.3453269999999
 20
807.28999899999985
 30
0.0
  0
VERTEX
  5
A32
  8
0
 62
     7
 10
-117.36120699999999
 20
807.08266300000003
 30
0.0
  0
VERTEX
  5
A33
  8
0
 62
     7
 10
-117.383472
 20
806.87663799999984
 30
0.0
  0
VERTEX
  5
A34
  8
0
 62
     7
 10
-117.4100399999999
 20
806.68809299999987
 30
0.0
  0
VERTEX
  5
A35
  8
0
 62
     7
 10
-117.442716
 20
806.50101299999994
 30
0.0
  0
VERTEX
  5
A36
  8
0
 62
     7
 10
-117.4797139999999
 20
806.32443000000001
 30
0.0
  0
VERTEX
  5
A37
  8
0
 62
     7
 10
-117.522622
 20
806.14943500000004
 30
0.0
  0
VERTEX
  5
A38
  8
0
 62
     7
 10
-117.543633
 20
806.07214899999997
 30
0.0
  0
VERTEX
  5
A39
  8
0
 62
     7
 10
-117.5936389999999
 20
805.90469199999995
 30
0.0
  0
VERTEX
  5
A3A
  8
0
 62
     7
 10
-117.6493259999999
 20
805.739057
 30
0.0
  0
VERTEX
  5
A3B
  8
0
 62
     7
 10
-117.77714899999999
 20
805.41454900000008
 30
0.0
  0
VERTEX
  5
A3C
  8
0
 62
     7
 10
-117.9281889999999
 20
805.09537299999988
 30
0.0
  0
VERTEX
  5
A3D
  8
0
 62
     7
 10
-118.104041
 20
804.77853200000004
 30
0.0
  0
VERTEX
  5
A3E
  8
0
 62
     7
 10
-118.30695399999991
 20
804.46088199999997
 30
0.0
  0
VERTEX
  5
A3F
  8
0
 62
     7
 10
-118.5401189999999
 20
804.13875399999984
 30
0.0
  0
VERTEX
  5
A40
  8
0
 62
     7
 10
-118.8082489999999
 20
803.80725700000005
 30
0.0
  0
VERTEX
  5
A41
  8
0
 62
     7
 10
-119.11888399999999
 20
803.45890599999996
 30
0.0
  0
VERTEX
  5
A42
  8
0
 62
     7
 10
-119.2139489999999
 20
803.35796200000004
 30
0.0
  0
VERTEX
  5
A43
  8
0
 62
     7
 10
-119.601885
 20
802.96539099999995
 30
0.0
  0
VERTEX
  5
A44
  8
0
 62
     7
 10
-120.11810699999999
 20
802.47052599999995
 30
0.0
  0
VERTEX
  5
A45
  8
0
 62
     7
 10
-120.636786
 20
801.97528599999998
 30
0.0
  0
VERTEX
  5
A46
  8
0
 62
     7
 10
-121.142336
 20
801.46320099999991
 30
0.0
  0
VERTEX
  5
A47
  8
0
 62
     7
 10
-121.321684
 20
801.26751499999989
 30
0.0
  0
VERTEX
  5
A48
  8
0
 62
     7
 10
-121.496258
 20
801.06658700000003
 30
0.0
  0
VERTEX
  5
A49
  8
0
 62
     7
 10
-121.6403219999999
 20
800.89099699999986
 30
0.0
  0
VERTEX
  5
A4A
  8
0
 62
     7
 10
-121.779634
 20
800.71072199999992
 30
0.0
  0
VERTEX
  5
A4B
  8
0
 62
     7
 10
-121.928185
 20
800.504324
 30
0.0
  0
VERTEX
  5
A4C
  8
0
 62
     7
 10
-122.0370179999999
 20
800.34147399999995
 30
0.0
  0
VERTEX
  5
A4D
  8
0
 62
     7
 10
-122.14056600000001
 20
800.17490999999995
 30
0.0
  0
VERTEX
  5
A4E
  8
0
 62
     7
 10
-122.23057900000001
 20
800.01843799999995
 30
0.0
  0
VERTEX
  5
A4F
  8
0
 62
     7
 10
-122.3148879999999
 20
799.85917500000005
 30
0.0
  0
VERTEX
  5
A50
  8
0
 62
     7
 10
-122.38824699999989
 20
799.70752500000003
 30
0.0
  0
VERTEX
  5
A51
  8
0
 62
     7
 10
-122.455732
 20
799.55372399999987
 30
0.0
  0
VERTEX
  5
A52
  8
0
 62
     7
 10
-122.514278
 20
799.40521799999988
 30
0.0
  0
VERTEX
  5
A53
  8
0
 62
     7
 10
-122.56690999999999
 20
799.25500299999999
 30
0.0
  0
VERTEX
  5
A54
  8
0
 62
     7
 10
-122.61209099999989
 20
799.10787800000003
 30
0.0
  0
VERTEX
  5
A55
  8
0
 62
     7
 10
-122.6513809999999
 20
798.95940199999995
 30
0.0
  0
VERTEX
  5
A56
  8
0
 62
     7
 10
-122.711348
 20
798.66307599999993
 30
0.0
  0
VERTEX
  5
A57
  8
0
 62
     7
 10
-122.748352
 20
798.36146299999984
 30
0.0
  0
VERTEX
  5
A58
  8
0
 62
     7
 10
-122.763321
 20
798.04836799999987
 30
0.0
  0
VERTEX
  5
A59
  8
0
 62
     7
 10
-122.7636949999999
 20
797.99895300000003
 30
0.0
  0
VERTEX
  5
A5A
  8
0
 62
     7
 10
-122.75367900000001
 20
797.65930700000001
 30
0.0
  0
VERTEX
  5
A5B
  8
0
 62
     7
 10
-122.720669
 20
797.25678099999993
 30
0.0
  0
VERTEX
  5
A5C
  8
0
 62
     7
 10
-122.65560499999999
 20
796.63265000000001
 30
0.0
  0
VERTEX
  5
A5D
  8
0
 62
     7
 10
-122.634623
 20
796.36769700000002
 30
0.0
  0
VERTEX
  5
A5E
  8
0
 62
     7
 10
-122.6237449999999
 20
796.10400199999992
 30
0.0
  0
VERTEX
  5
A5F
  8
0
 62
     7
 10
-122.624306
 20
795.91093999999998
 30
0.0
  0
VERTEX
  5
A60
  8
0
 62
     7
 10
-122.631237
 20
795.75199699999985
 30
0.0
  0
VERTEX
  5
A61
  8
0
 62
     7
 10
-122.644609
 20
795.59399199999984
 30
0.0
  0
VERTEX
  5
A62
  8
0
 62
     7
 10
-122.663061
 20
795.44889599999988
 30
0.0
  0
VERTEX
  5
A63
  8
0
 62
     7
 10
-122.68761599999991
 20
795.30486099999996
 30
0.0
  0
VERTEX
  5
A64
  8
0
 62
     7
 10
-122.717209
 20
795.16718900000001
 30
0.0
  0
VERTEX
  5
A65
  8
0
 62
     7
 10
-122.752712
 20
795.03074400000003
 30
0.0
  0
VERTEX
  5
A66
  8
0
 62
     7
 10
-122.84021199999999
 20
794.76550899999995
 30
0.0
  0
VERTEX
  5
A67
  8
0
 62
     7
 10
-122.950903
 20
794.50563599999987
 30
0.0
  0
VERTEX
  5
A68
  8
0
 62
     7
 10
-123.0858459999999
 20
794.24900599999989
 30
0.0
  0
VERTEX
  5
A69
  8
0
 62
     7
 10
-123.246235
 20
793.99442099999999
 30
0.0
  0
VERTEX
  5
A6A
  8
0
 62
     7
 10
-123.433224
 20
793.74143000000004
 30
0.0
  0
VERTEX
  5
A6B
  8
0
 62
     7
 10
-123.647751
 20
793.49029299999995
 30
0.0
  0
VERTEX
  5
A6C
  8
0
 62
     7
 10
-123.8902989999999
 20
793.2419799999999
 30
0.0
  0
VERTEX
  5
A6D
  8
0
 62
     7
 10
-124.16065999999999
 20
792.99815899999987
 30
0.0
  0
VERTEX
  5
A6E
  8
0
 62
     7
 10
-124.43362999999999
 20
792.77934100000004
 30
0.0
  0
VERTEX
  5
A6F
  8
0
 62
     7
 10
-124.75410100000001
 20
792.550703
 30
0.0
  0
VERTEX
  5
A70
  8
0
 62
     7
 10
-125.09949899999989
 20
792.33246399999985
 30
0.0
  0
VERTEX
  5
A71
  8
0
 62
     7
 10
-125.47472999999999
 20
792.12240399999985
 30
0.0
  0
VERTEX
  5
A72
  8
0
 62
     7
 10
-125.892645
 20
791.91431999999986
 30
0.0
  0
VERTEX
  5
A73
  8
0
 62
     7
 10
-126.384621
 20
791.69379200000003
 30
0.0
  0
VERTEX
  5
A74
  8
0
 62
     7
 10
-127.05756599999989
 20
791.41296199999988
 30
0.0
  0
VERTEX
  5
A75
  8
0
 62
     7
 10
-127.287346
 20
791.31758699999989
 30
0.0
  0
VERTEX
  5
A76
  8
0
 62
     7
 10
-127.7230149999999
 20
791.13071200000002
 30
0.0
  0
VERTEX
  5
A77
  8
0
 62
     7
 10
-128.1563219999999
 20
790.92907500000001
 30
0.0
  0
VERTEX
  5
A78
  8
0
 62
     7
 10
-128.36913499999989
 20
790.82090599999992
 30
0.0
  0
VERTEX
  5
A79
  8
0
 62
     7
 10
-128.577282
 20
790.70712800000001
 30
0.0
  0
VERTEX
  5
A7A
  8
0
 62
     7
 10
-128.74747699999989
 20
790.60677899999985
 30
0.0
  0
VERTEX
  5
A7B
  8
0
 62
     7
 10
-128.91246799999999
 20
790.50179100000003
 30
0.0
  0
VERTEX
  5
A7C
  8
0
 62
     7
 10
-129.0545939999999
 20
790.40395899999999
 30
0.0
  0
VERTEX
  5
A7D
  8
0
 62
     7
 10
-129.19130699999991
 20
790.302053
 30
0.0
  0
VERTEX
  5
A7E
  8
0
 62
     7
 10
-129.31183999999999
 20
790.20455000000004
 30
0.0
  0
VERTEX
  5
A7F
  8
0
 62
     7
 10
-129.426905
 20
790.10338400000001
 30
0.0
  0
VERTEX
  5
A80
  8
0
 62
     7
 10
-129.529673
 20
790.00492699999995
 30
0.0
  0
VERTEX
  5
A81
  8
0
 62
     7
 10
-129.62698399999999
 20
789.90311999999994
 30
0.0
  0
VERTEX
  5
A82
  8
0
 62
     7
 10
-129.7145899999999
 20
789.80273199999988
 30
0.0
  0
VERTEX
  5
A83
  8
0
 62
     7
 10
-129.796785
 20
789.69924700000001
 30
0.0
  0
VERTEX
  5
A84
  8
0
 62
     7
 10
-129.871138
 20
789.59598300000005
 30
0.0
  0
VERTEX
  5
A85
  8
0
 62
     7
 10
-129.94013399999989
 20
789.48983599999997
 30
0.0
  0
VERTEX
  5
A86
  8
0
 62
     7
 10
-130.00267400000001
 20
789.38266599999997
 30
0.0
  0
VERTEX
  5
A87
  8
0
 62
     7
 10
-130.05990199999991
 20
789.27277900000001
 30
0.0
  0
VERTEX
  5
A88
  8
0
 62
     7
 10
-130.140772
 20
789.09052099999985
 30
0.0
  0
VERTEX
  5
A89
  8
0
 62
     7
 10
-130.22307000000001
 20
788.85265199999992
 30
0.0
  0
VERTEX
  5
A8A
  8
0
 62
     7
 10
-130.28687099999999
 20
788.5966699999999
 30
0.0
  0
VERTEX
  5
A8B
  8
0
 62
     7
 10
-130.33291199999999
 20
788.31610699999987
 30
0.0
  0
VERTEX
  5
A8C
  8
0
 62
     7
 10
-130.361469
 20
788.00108899999998
 30
0.0
  0
VERTEX
  5
A8D
  8
0
 62
     7
 10
-130.3724959999999
 20
787.63349699999992
 30
0.0
  0
VERTEX
  5
A8E
  8
0
 62
     7
 10
-130.36582599999991
 20
787.16772300000002
 30
0.0
  0
VERTEX
  5
A8F
  8
0
 62
     7
 10
-130.34555599999999
 20
786.331594
 30
0.0
  0
VERTEX
  5
A90
  8
0
 62
     7
 10
-130.34822800000001
 20
786.08148800000004
 30
0.0
  0
VERTEX
  5
A91
  8
0
 62
     7
 10
-130.358969
 20
785.83421900000008
 30
0.0
  0
VERTEX
  5
A92
  8
0
 62
     7
 10
-130.37377000000001
 20
785.64793999999995
 30
0.0
  0
VERTEX
  5
A93
  8
0
 62
     7
 10
-130.39510000000001
 20
785.46394900000007
 30
0.0
  0
VERTEX
  5
A94
  8
0
 62
     7
 10
-130.4202019999999
 20
785.30151899999987
 30
0.0
  0
VERTEX
  5
A95
  8
0
 62
     7
 10
-130.45135500000001
 20
785.14117999999996
 30
0.0
  0
VERTEX
  5
A96
  8
0
 62
     7
 10
-130.4885219999999
 20
784.98407499999985
 30
0.0
  0
VERTEX
  5
A97
  8
0
 62
     7
 10
-130.52932200000001
 20
784.83808699999986
 30
0.0
  0
VERTEX
  5
A98
  8
0
 62
     7
 10
-130.57578699999999
 20
784.69394499999987
 30
0.0
  0
VERTEX
  5
A99
  8
0
 62
     7
 10
-130.68575499999989
 20
784.41022299999997
 30
0.0
  0
VERTEX
  5
A9A
  8
0
 62
     7
 10
-130.82173
 20
784.12389900000005
 30
0.0
  0
VERTEX
  5
A9B
  8
0
 62
     7
 10
-130.98855
 20
783.82626100000004
 30
0.0
  0
VERTEX
  5
A9C
  8
0
 62
     7
 10
-131.19345499999989
 20
783.50707
 30
0.0
  0
VERTEX
  5
A9D
  8
0
 62
     7
 10
-131.44713999999991
 20
783.15319599999998
 30
0.0
  0
VERTEX
  5
A9E
  8
0
 62
     7
 10
-131.76202399999991
 20
782.75211100000001
 30
0.0
  0
VERTEX
  5
A9F
  8
0
 62
     7
 10
-131.7891009999999
 20
782.71910700000001
 30
0.0
  0
VERTEX
  5
AA0
  8
0
 62
     7
 10
-131.9702659999999
 20
782.50386600000002
 30
0.0
  0
VERTEX
  5
AA1
  8
0
 62
     7
 10
-132.15583599999999
 20
782.29407300000003
 30
0.0
  0
VERTEX
  5
AA2
  8
0
 62
     7
 10
-132.3161199999999
 20
782.12253399999986
 30
0.0
  0
VERTEX
  5
AA3
  8
0
 62
     7
 10
-132.4799999999999
 20
781.95736499999987
 30
0.0
  0
VERTEX
  5
AA4
  8
0
 62
     7
 10
-132.62257199999991
 20
781.82272899999998
 30
0.0
  0
VERTEX
  5
AA5
  8
0
 62
     7
 10
-132.76843299999999
 20
781.69412799999986
 30
0.0
  0
VERTEX
  5
AA6
  8
0
 62
     7
 10
-132.902052
 20
781.58463099999994
 30
0.0
  0
VERTEX
  5
AA7
  8
0
 62
     7
 10
-133.03879900000001
 20
781.48081799999989
 30
0.0
  0
VERTEX
  5
AA8
  8
0
 62
     7
 10
-133.16914199999999
 20
781.38955499999986
 30
0.0
  0
VERTEX
  5
AA9
  8
0
 62
     7
 10
-133.3024639999999
 20
781.30377800000008
 30
0.0
  0
VERTEX
  5
AAA
  8
0
 62
     7
 10
-133.37064699999991
 20
781.26277699999991
 30
0.0
  0
VERTEX
  5
AAB
  8
0
 62
     7
 10
-133.6363979999999
 20
781.12027499999999
 30
0.0
  0
VERTEX
  5
AAC
  8
0
 62
     7
 10
-133.92066
 20
780.99432200000001
 30
0.0
  0
VERTEX
  5
AAD
  8
0
 62
     7
 10
-134.233711
 20
780.88077299999998
 30
0.0
  0
VERTEX
  5
AAE
  8
0
 62
     7
 10
-134.59066999999999
 20
780.77525900000001
 30
0.0
  0
VERTEX
  5
AAF
  8
0
 62
     7
 10
-135.02053499999991
 20
780.67077400000005
 30
0.0
  0
VERTEX
  5
AB0
  8
0
 62
     7
 10
-135.6072409999999
 20
780.54791799999987
 30
0.0
  0
VERTEX
  5
AB1
  8
0
 62
     7
 10
-136.000801
 20
780.467848
 30
0.0
  0
VERTEX
  5
AB2
  8
0
 62
     7
 10
-136.46705600000001
 20
780.36806300000001
 30
0.0
  0
VERTEX
  5
AB3
  8
0
 62
     7
 10
-136.9282649999999
 20
780.26322000000005
 30
0.0
  0
VERTEX
  5
AB4
  8
0
 62
     7
 10
-137.56463199999999
 20
780.11493499999995
 30
0.0
  0
VERTEX
  5
AB5
  8
0
 62
     7
 10
-138.1962429999999
 20
779.97845300000006
 30
0.0
  0
VERTEX
  5
AB6
  8
0
 62
     7
 10
-138.48530999999991
 20
779.92452800000001
 30
0.0
  0
VERTEX
  5
AB7
  8
0
 62
     7
 10
-138.77544800000001
 20
779.87782900000002
 30
0.0
  0
VERTEX
  5
AB8
  8
0
 62
     7
 10
-138.863541
 20
779.86527799999999
 30
0.0
  0
VERTEX
  5
AB9
  8
0
 62
     7
 10
-139.35245499999991
 20
779.80941600000006
 30
0.0
  0
VERTEX
  5
ABA
  8
0
 62
     7
 10
-139.88245399999991
 20
779.77151300000003
 30
0.0
  0
VERTEX
  5
ABB
  8
0
 62
     7
 10
-140.54478499999999
 20
779.74427600000001
 30
0.0
  0
VERTEX
  5
ABC
  8
0
 62
     7
 10
-141.2431179999999
 20
779.71837400000004
 30
0.0
  0
VERTEX
  5
ABD
  8
0
 62
     7
 10
-141.9399379999999
 20
779.67205599999988
 30
0.0
  0
VERTEX
  5
ABE
  8
0
 62
     7
 10
-142.21017800000001
 20
779.6444909999999
 30
0.0
  0
VERTEX
  5
ABF
  8
0
 62
     7
 10
-142.47931299999991
 20
779.61094500000002
 30
0.0
  0
VERTEX
  5
AC0
  8
0
 62
     7
 10
-143.0138089999999
 20
779.52689199999986
 30
0.0
  0
VERTEX
  5
AC1
  8
0
 62
     7
 10
-143.60020099999991
 20
779.41239699999994
 30
0.0
  0
VERTEX
  5
AC2
  8
0
 62
     7
 10
-144.3661919999999
 20
779.24378000000002
 30
0.0
  0
VERTEX
  5
AC3
  8
0
 62
     7
 10
-144.874989
 20
779.13234499999999
 30
0.0
  0
VERTEX
  5
AC4
  8
0
 62
     7
 10
-145.384895
 20
779.03066799999999
 30
0.0
  0
VERTEX
  5
AC5
  8
0
 62
     7
 10
-145.69135299999999
 20
778.97711700000002
 30
0.0
  0
VERTEX
  5
AC6
  8
0
 62
     7
 10
-145.99877900000001
 20
778.92998299999999
 30
0.0
  0
VERTEX
  5
AC7
  8
0
 62
     7
 10
-146.57724400000001
 20
778.85959400000002
 30
0.0
  0
VERTEX
  5
AC8
  8
0
 62
     7
 10
-147.17279099999999
 20
778.81049900000005
 30
0.0
  0
VERTEX
  5
AC9
  8
0
 62
     7
 10
-147.8303949999999
 20
778.77865399999985
 30
0.0
  0
VERTEX
  5
ACA
  8
0
 62
     7
 10
-148.63819099999989
 20
778.76015299999995
 30
0.0
  0
VERTEX
  5
ACB
  8
0
 62
     7
 10
-149.40261100000001
 20
778.75015099999985
 30
0.0
  0
VERTEX
  5
ACC
  8
0
 62
     7
 10
-150.26708199999999
 20
778.73396100000002
 30
0.0
  0
VERTEX
  5
ACD
  8
0
 62
     7
 10
-151.12893299999999
 20
778.70720499999993
 30
0.0
  0
VERTEX
  5
ACE
  8
0
 62
     7
 10
-152.51575099999991
 20
778.64768800000002
 30
0.0
  0
VERTEX
  5
ACF
  8
0
 62
     7
 10
-153.04187399999989
 20
778.62344199999995
 30
0.0
  0
VERTEX
  5
AD0
  8
0
 62
     7
 10
-154.96767800000001
 20
778.53438399999993
 30
0.0
  0
VERTEX
  5
AD1
  8
0
 62
     7
 10
-156.89459600000001
 20
778.40035799999998
 30
0.0
  0
VERTEX
  5
AD2
  8
0
 62
     7
 10
-157.30148299999999
 20
778.35803799999996
 30
0.0
  0
VERTEX
  5
AD3
  8
0
 62
     7
 10
-157.70762999999991
 20
778.30917199999988
 30
0.0
  0
VERTEX
  5
AD4
  8
0
 62
     7
 10
-158.07677100000001
 20
778.25851999999986
 30
0.0
  0
VERTEX
  5
AD5
  8
0
 62
     7
 10
-158.4449459999999
 20
778.20167300000003
 30
0.0
  0
VERTEX
  5
AD6
  8
0
 62
     7
 10
-158.794399
 20
778.14158399999997
 30
0.0
  0
VERTEX
  5
AD7
  8
0
 62
     7
 10
-159.1426699999999
 20
778.07549900000004
 30
0.0
  0
VERTEX
  5
AD8
  8
0
 62
     7
 10
-159.48025100000001
 20
778.00533099999996
 30
0.0
  0
VERTEX
  5
AD9
  8
0
 62
     7
 10
-159.816452
 20
777.92928899999993
 30
0.0
  0
VERTEX
  5
ADA
  8
0
 62
     7
 10
-160.1463169999999
 20
777.84856200000002
 30
0.0
  0
VERTEX
  5
ADB
  8
0
 62
     7
 10
-160.474628
 20
777.762068
 30
0.0
  0
VERTEX
  5
ADC
  8
0
 62
     7
 10
-160.79918699999999
 20
777.67041600000005
 30
0.0
  0
VERTEX
  5
ADD
  8
0
 62
     7
 10
-161.12205900000001
 20
777.57306900000003
 30
0.0
  0
VERTEX
  5
ADE
  8
0
 62
     7
 10
-161.761639
 20
777.36165000000005
 30
0.0
  0
VERTEX
  5
ADF
  8
0
 62
     7
 10
-162.37878000000001
 20
777.13364999999999
 30
0.0
  0
SEQEND
  5
AE0
  8
0
 62
     7
  0
LINE
  5
1D7
  8
0
 62
     3
 10
-52.628799000000001
 20
638.73155799999995
 30
0.0
 11
-115.759502
 21
638.73155799999995
 31
0.0
  0
LINE
  5
1D8
  8
0
 62
     3
 10
-51.378745999999992
 20
639.98155800000006
 30
0.0
 11
-51.378745999999992
 21
643.48157300000003
 31
0.0
  0
LINE
  5
1D9
  8
0
 62
     3
 10
-52.628791999999997
 20
638.73154999999986
 30
0.0
 11
-51.744911000000002
 21
639.09766999999999
 31
0.0
  0
LINE
  5
1DA
  8
0
 62
     3
 10
-51.744914999999999
 20
639.09766999999999
 30
0.0
 11
-51.378796000000001
 21
639.98154999999986
 31
0.0
  0
LINE
  5
1DB
  8
0
 62
     3
 10
-53.728797999999991
 20
639.04221100000007
 30
0.0
 11
-53.728797999999991
 21
643.48157300000003
 31
0.0
  0
LINE
  5
1DC
  8
0
 62
     3
 10
-57.328795999999997
 20
639.04221100000007
 30
0.0
 11
-57.328795999999997
 21
643.48157300000003
 31
0.0
  0
LINE
  5
1DD
  8
0
 62
     3
 10
-60.928794999999987
 20
639.04221100000007
 30
0.0
 11
-60.928794999999987
 21
643.48157300000003
 31
0.0
  0
LINE
  5
1DE
  8
0
 62
     3
 10
-64.528793000000007
 20
639.04221100000007
 30
0.0
 11
-64.528793000000007
 21
643.48157300000003
 31
0.0
  0
LINE
  5
1DF
  8
0
 62
     3
 10
-68.128799000000001
 20
639.04221100000007
 30
0.0
 11
-68.128799000000001
 21
643.48157300000003
 31
0.0
  0
LINE
  5
1E0
  8
0
 62
     3
 10
-71.728797999999998
 20
639.04221100000007
 30
0.0
 11
-71.728797999999998
 21
643.48157300000003
 31
0.0
  0
LINE
  5
1E1
  8
0
 62
     3
 10
-75.328793999999974
 20
639.04221100000007
 30
0.0
 11
-75.328793999999974
 21
643.48157300000003
 31
0.0
  0
LINE
  5
1E2
  8
0
 62
     3
 10
-78.928792999999999
 20
639.04221100000007
 30
0.0
 11
-78.928792999999999
 21
643.48157300000003
 31
0.0
  0
LINE
  5
1E3
  8
0
 62
     3
 10
-82.528790999999984
 20
639.04221100000007
 30
0.0
 11
-82.528790999999984
 21
643.48157300000003
 31
0.0
  0
LINE
  5
1E4
  8
0
 62
     3
 10
-86.128797999999989
 20
639.04221100000007
 30
0.0
 11
-86.128797999999989
 21
643.48157300000003
 31
0.0
  0
LINE
  5
1E5
  8
0
 62
     3
 10
-89.728797
 20
639.04221100000007
 30
0.0
 11
-89.728797
 21
643.48157300000003
 31
0.0
  0
LINE
  5
1E6
  8
0
 62
     3
 10
-93.328795
 20
639.04221100000007
 30
0.0
 11
-93.328795
 21
643.48157300000003
 31
0.0
  0
LINE
  5
1E7
  8
0
 62
     3
 10
-96.928793999999996
 20
639.04221100000007
 30
0.0
 11
-96.928793999999996
 21
643.48157300000003
 31
0.0
  0
LINE
  5
1E8
  8
0
 62
     3
 10
-100.5287959999999
 20
639.04221100000007
 30
0.0
 11
-100.5287959999999
 21
643.48157300000003
 31
0.0
  0
LINE
  5
1E9
  8
0
 62
     3
 10
-104.1287939999999
 20
639.04221100000007
 30
0.0
 11
-104.1287939999999
 21
643.48157300000003
 31
0.0
  0
LINE
  5
1EA
  8
0
 62
     3
 10
-107.728793
 20
639.04221100000007
 30
0.0
 11
-107.728793
 21
643.48157300000003
 31
0.0
  0
LINE
  5
1EB
  8
0
 62
     3
 10
-111.3287949999999
 20
639.04221100000007
 30
0.0
 11
-111.3287949999999
 21
643.48157300000003
 31
0.0
  0
LINE
  5
1EC
  8
0
 62
     3
 10
-114.928794
 20
639.04221100000007
 30
0.0
 11
-114.928794
 21
643.48157300000003
 31
0.0
  0
POLYLINE
  5
1ED
  8
0
 62
     7
 66
     1
 10
0.0
 20
0.0
 30
0.0
  0
VERTEX
  5
AE1
  8
0
 62
     7
 10
-157.87877700000001
 20
670.00911099999996
 30
0.0
  0
VERTEX
  5
AE2
  8
0
 62
     7
 10
-158.1558949999999
 20
670.024317
 30
0.0
  0
VERTEX
  5
AE3
  8
0
 62
     7
 10
-158.43305599999991
 20
670.04754100000002
 30
0.0
  0
VERTEX
  5
AE4
  8
0
 62
     7
 10
-158.710373
 20
670.07881299999985
 30
0.0
  0
VERTEX
  5
AE5
  8
0
 62
     7
 10
-158.98796100000001
 20
670.11817399999995
 30
0.0
  0
VERTEX
  5
AE6
  8
0
 62
     7
 10
-159.26593
 20
670.16567799999996
 30
0.0
  0
VERTEX
  5
AE7
  8
0
 62
     7
 10
-159.32062899999991
 20
670.17597799999987
 30
0.0
  0
SEQEND
  5
AE8
  8
0
 62
     7
  0
POLYLINE
  5
1F6
  8
0
 62
     7
 66
     1
 10
0.0
 20
0.0
 30
0.0
  0
VERTEX
  5
AE9
  8
0
 62
     7
 10
-115.75861499999991
 20
638.73160399999995
 30
0.0
  0
VERTEX
  5
AEA
  8
0
 62
     7
 10
-115.89725900000001
 20
638.84091000000001
 30
0.0
  0
VERTEX
  5
AEB
  8
0
 62
     7
 10
-116.0294029999999
 20
638.95236
 30
0.0
  0
VERTEX
  5
AEC
  8
0
 62
     7
 10
-116.15286399999999
 20
639.06388700000002
 30
0.0
  0
VERTEX
  5
AED
  8
0
 62
     7
 10
-116.2701009999999
 20
639.17747299999996
 30
0.0
  0
VERTEX
  5
AEE
  8
0
 62
     7
 10
-116.3795429999999
 20
639.29137200000002
 30
0.0
  0
VERTEX
  5
AEF
  8
0
 62
     7
 10
-116.48300399999999
 20
639.40723999999989
 30
0.0
  0
VERTEX
  5
AF0
  8
0
 62
     7
 10
-116.5795029999999
 20
639.52380199999993
 30
0.0
  0
VERTEX
  5
AF1
  8
0
 62
     7
 10
-116.670232
 20
639.64227100000005
 30
0.0
  0
VERTEX
  5
AF2
  8
0
 62
     7
 10
-116.754755
 20
639.76191500000004
 30
0.0
  0
VERTEX
  5
AF3
  8
0
 62
     7
 10
-116.833686
 20
639.883421
 30
0.0
  0
VERTEX
  5
AF4
  8
0
 62
     7
 10
-116.97501799999991
 20
640.13188000000002
 30
0.0
  0
VERTEX
  5
AF5
  8
0
 62
     7
 10
-117.09560500000001
 20
640.38920399999995
 30
0.0
  0
VERTEX
  5
AF6
  8
0
 62
     7
 10
-117.196549
 20
640.65738499999998
 30
0.0
  0
VERTEX
  5
AF7
  8
0
 62
     7
 10
-117.2786659999999
 20
640.93902400000002
 30
0.0
  0
VERTEX
  5
AF8
  8
0
 62
     7
 10
-117.3424969999999
 20
641.23760800000002
 30
0.0
  0
VERTEX
  5
AF9
  8
0
 62
     7
 10
-117.38830900000001
 20
641.55805799999985
 30
0.0
  0
VERTEX
  5
AFA
  8
0
 62
     7
 10
-117.40441
 20
641.727934
 30
0.0
  0
VERTEX
  5
AFB
  8
0
 62
     7
 10
-117.42314499999991
 20
642.09678499999995
 30
0.0
  0
VERTEX
  5
AFC
  8
0
 62
     7
 10
-117.42319500000001
 20
642.51896499999998
 30
0.0
  0
VERTEX
  5
AFD
  8
0
 62
     7
 10
-117.4030029999999
 20
643.03727500000002
 30
0.0
  0
VERTEX
  5
AFE
  8
0
 62
     7
 10
-117.357091
 20
643.83422699999994
 30
0.0
  0
VERTEX
  5
AFF
  8
0
 62
     7
 10
-117.33866499999991
 20
644.2502189999999
 30
0.0
  0
VERTEX
  5
B00
  8
0
 62
     7
 10
-117.33170299999991
 20
644.66596800000002
 30
0.0
  0
VERTEX
  5
B01
  8
0
 62
     7
 10
-117.335064
 20
644.90520300000003
 30
0.0
  0
VERTEX
  5
B02
  8
0
 62
     7
 10
-117.34503599999999
 20
645.14340800000002
 30
0.0
  0
VERTEX
  5
B03
  8
0
 62
     7
 10
-117.359677
 20
645.34843999999987
 30
0.0
  0
VERTEX
  5
B04
  8
0
 62
     7
 10
-117.380432
 20
645.55222900000001
 30
0.0
  0
VERTEX
  5
B05
  8
0
 62
     7
 10
-117.4053049999999
 20
645.73837800000001
 30
0.0
  0
VERTEX
  5
B06
  8
0
 62
     7
 10
-117.436025
 20
645.92313200000001
 30
0.0
  0
VERTEX
  5
B07
  8
0
 62
     7
 10
-117.470837
 20
646.09715800000004
 30
0.0
  0
VERTEX
  5
B08
  8
0
 62
     7
 10
-117.511304
 20
646.26964400000008
 30
0.0
  0
VERTEX
  5
B09
  8
0
 62
     7
 10
-117.5435259999999
 20
646.39107300000001
 30
0.0
  0
VERTEX
  5
B0A
  8
0
 62
     7
 10
-117.5920459999999
 20
646.55477699999994
 30
0.0
  0
VERTEX
  5
B0B
  8
0
 62
     7
 10
-117.6460059999999
 20
646.71674199999995
 30
0.0
  0
VERTEX
  5
B0C
  8
0
 62
     7
 10
-117.769403
 20
647.03342199999986
 30
0.0
  0
VERTEX
  5
B0D
  8
0
 62
     7
 10
-117.91491499999989
 20
647.34484699999996
 30
0.0
  0
VERTEX
  5
B0E
  8
0
 62
     7
 10
-118.0840679999999
 20
647.65399000000002
 30
0.0
  0
VERTEX
  5
B0F
  8
0
 62
     7
 10
-118.27883
 20
647.96358299999986
 30
0.0
  0
VERTEX
  5
B10
  8
0
 62
     7
 10
-118.501835
 20
648.27660199999991
 30
0.0
  0
VERTEX
  5
B11
  8
0
 62
     7
 10
-118.75689299999991
 20
648.59691399999986
 30
0.0
  0
VERTEX
  5
B12
  8
0
 62
     7
 10
-119.05015299999999
 20
648.93058599999995
 30
0.0
  0
VERTEX
  5
B13
  8
0
 62
     7
 10
-119.21375999999999
 20
649.10500899999988
 30
0.0
  0
VERTEX
  5
B14
  8
0
 62
     7
 10
-119.59079799999989
 20
649.48493799999994
 30
0.0
  0
VERTEX
  5
B15
  8
0
 62
     7
 10
-120.0899909999999
 20
649.96158400000002
 30
0.0
  0
VERTEX
  5
B16
  8
0
 62
     7
 10
-120.919977
 20
650.76229699999988
 30
0.0
  0
VERTEX
  5
B17
  8
0
 62
     7
 10
-121.690228
 20
651.63217300000008
 30
0.0
  0
VERTEX
  5
B18
  8
0
 62
     7
 10
-121.8115499999999
 20
651.79354999999998
 30
0.0
  0
VERTEX
  5
B19
  8
0
 62
     7
 10
-121.928364
 20
651.95890599999996
 30
0.0
  0
VERTEX
  5
B1A
  8
0
 62
     7
 10
-122.0330179999999
 20
652.11719699999992
 30
0.0
  0
VERTEX
  5
B1B
  8
0
 62
     7
 10
-122.13269199999991
 20
652.27898200000004
 30
0.0
  0
VERTEX
  5
B1C
  8
0
 62
     7
 10
-122.2206689999999
 20
652.43293899999992
 30
0.0
  0
VERTEX
  5
B1D
  8
0
 62
     7
 10
-122.30330099999991
 20
652.58964700000001
 30
0.0
  0
VERTEX
  5
B1E
  8
0
 62
     7
 10
-122.3759899999999
 20
652.73996499999987
 30
0.0
  0
VERTEX
  5
B1F
  8
0
 62
     7
 10
-122.44313
 20
652.892427
 30
0.0
  0
VERTEX
  5
B20
  8
0
 62
     7
 10
-122.5018289999999
 20
653.04005199999995
 30
0.0
  0
VERTEX
  5
B21
  8
0
 62
     7
 10
-122.5548899999999
 20
653.18933300000003
 30
0.0
  0
VERTEX
  5
B22
  8
0
 62
     7
 10
-122.600737
 20
653.33544299999994
 30
0.0
  0
VERTEX
  5
B23
  8
0
 62
     7
 10
-122.640934
 20
653.48281299999996
 30
0.0
  0
VERTEX
  5
B24
  8
0
 62
     7
 10
-122.6748769999999
 20
653.62890400000003
 30
0.0
  0
VERTEX
  5
B25
  8
0
 62
     7
 10
-122.7032169999999
 20
653.77593799999988
 30
0.0
  0
VERTEX
  5
B26
  8
0
 62
     7
 10
-122.74327700000001
 20
654.07277899999997
 30
0.0
  0
VERTEX
  5
B27
  8
0
 62
     7
 10
-122.76220499999999
 20
654.37936999999999
 30
0.0
  0
VERTEX
  5
B28
  8
0
 62
     7
 10
-122.7637689999999
 20
654.46400599999981
 30
0.0
  0
VERTEX
  5
B29
  8
0
 62
     7
 10
-122.7565919999999
 20
654.79925000000003
 30
0.0
  0
VERTEX
  5
B2A
  8
0
 62
     7
 10
-122.72773599999999
 20
655.18872999999985
 30
0.0
  0
VERTEX
  5
B2B
  8
0
 62
     7
 10
-122.67053799999999
 20
655.74507699999992
 30
0.0
  0
VERTEX
  5
B2C
  8
0
 62
     7
 10
-122.640491
 20
656.08606900000007
 30
0.0
  0
VERTEX
  5
B2D
  8
0
 62
     7
 10
-122.6246409999999
 20
656.42583300000001
 30
0.0
  0
VERTEX
  5
B2E
  8
0
 62
     7
 10
-122.623909
 20
656.55217199999993
 30
0.0
  0
VERTEX
  5
B2F
  8
0
 62
     7
 10
-122.628006
 20
656.71567300000004
 30
0.0
  0
VERTEX
  5
B30
  8
0
 62
     7
 10
-122.63836499999999
 20
656.878378
 30
0.0
  0
VERTEX
  5
B31
  8
0
 62
     7
 10
-122.6536659999999
 20
657.02563999999995
 30
0.0
  0
VERTEX
  5
B32
  8
0
 62
     7
 10
-122.674879
 20
657.1719149999999
 30
0.0
  0
VERTEX
  5
B33
  8
0
 62
     7
 10
-122.70076
 20
657.31000300000005
 30
0.0
  0
VERTEX
  5
B34
  8
0
 62
     7
 10
-122.732353
 20
657.44688199999996
 30
0.0
  0
VERTEX
  5
B35
  8
0
 62
     7
 10
-122.768705
 20
657.57888200000002
 30
0.0
  0
VERTEX
  5
B36
  8
0
 62
     7
 10
-122.8106139999999
 20
657.70942899999989
 30
0.0
  0
VERTEX
  5
B37
  8
0
 62
     7
 10
-122.85753799999991
 20
657.83695399999988
 30
0.0
  0
VERTEX
  5
B38
  8
0
 62
     7
 10
-122.909876
 20
657.96274800000003
 30
0.0
  0
VERTEX
  5
B39
  8
0
 62
     7
 10
-123.030537
 20
658.20855099999994
 30
0.0
  0
VERTEX
  5
B3A
  8
0
 62
     7
 10
-123.17308
 20
658.44767200000001
 30
0.0
  0
VERTEX
  5
B3B
  8
0
 62
     7
 10
-123.338005
 20
658.68036500000005
 30
0.0
  0
VERTEX
  5
B3C
  8
0
 62
     7
 10
-123.52578200000001
 20
658.90648799999985
 30
0.0
  0
VERTEX
  5
B3D
  8
0
 62
     7
 10
-123.736885
 20
659.12570400000004
 30
0.0
  0
VERTEX
  5
B3E
  8
0
 62
     7
 10
-123.97190500000001
 20
659.33766400000002
 30
0.0
  0
VERTEX
  5
B3F
  8
0
 62
     7
 10
-124.23187399999991
 20
659.54232200000001
 30
0.0
  0
VERTEX
  5
B40
  8
0
 62
     7
 10
-124.43323700000001
 20
659.683897
 30
0.0
  0
VERTEX
  5
B41
  8
0
 62
     7
 10
-124.742447
 20
659.87863700000003
 30
0.0
  0
VERTEX
  5
B42
  8
0
 62
     7
 10
-125.09116
 20
660.07303799999988
 30
0.0
  0
VERTEX
  5
B43
  8
0
 62
     7
 10
-125.5014419999999
 20
660.27824999999984
 30
0.0
  0
VERTEX
  5
B44
  8
0
 62
     7
 10
-126.046097
 20
660.53050800000005
 30
0.0
  0
VERTEX
  5
B45
  8
0
 62
     7
 10
-126.6773949999999
 20
660.82500999999991
 30
0.0
  0
VERTEX
  5
B46
  8
0
 62
     7
 10
-127.287834
 20
661.14546799999994
 30
0.0
  0
VERTEX
  5
B47
  8
0
 62
     7
 10
-127.4813289999999
 20
661.25918000000001
 30
0.0
  0
VERTEX
  5
B48
  8
0
 62
     7
 10
-127.67218
 20
661.37816799999985
 30
0.0
  0
VERTEX
  5
B49
  8
0
 62
     7
 10
-128.03778799999989
 20
661.62611600000002
 30
0.0
  0
VERTEX
  5
B4A
  8
0
 62
     7
 10
-128.41008899999991
 20
661.90523700000006
 30
0.0
  0
VERTEX
  5
B4B
  8
0
 62
     7
 10
-128.817612
 20
662.23718799999995
 30
0.0
  0
VERTEX
  5
B4C
  8
0
 62
     7
 10
-129.32903300000001
 20
662.67812200000003
 30
0.0
  0
VERTEX
  5
B4D
  8
0
 62
     7
 10
-129.73231499999989
 20
663.02909999999986
 30
0.0
  0
VERTEX
  5
B4E
  8
0
 62
     7
 10
-130.14028500000001
 20
663.37249199999985
 30
0.0
  0
VERTEX
  5
B4F
  8
0
 62
     7
 10
-130.37250900000001
 20
663.55843899999991
 30
0.0
  0
VERTEX
  5
B50
  8
0
 62
     7
 10
-130.60805699999989
 20
663.73813399999995
 30
0.0
  0
VERTEX
  5
B51
  8
0
 62
     7
 10
-130.80805000000001
 20
663.88297799999998
 30
0.0
  0
VERTEX
  5
B52
  8
0
 62
     7
 10
-131.01096200000001
 20
664.02235199999996
 30
0.0
  0
VERTEX
  5
B53
  8
0
 62
     7
 10
-131.2026689999999
 20
664.14693599999998
 30
0.0
  0
VERTEX
  5
B54
  8
0
 62
     7
 10
-131.39715799999999
 20
664.26637500000004
 30
0.0
  0
VERTEX
  5
B55
  8
0
 62
     7
 10
-131.7858159999999
 20
664.48507900000004
 30
0.0
  0
VERTEX
  5
B56
  8
0
 62
     7
 10
-131.9248429999999
 20
664.55729099999985
 30
0.0
  0
VERTEX
  5
B57
  8
0
 62
     7
 10
-132.34135399999991
 20
664.75705099999993
 30
0.0
  0
VERTEX
  5
B58
  8
0
 62
     7
 10
-132.80373399999999
 20
664.95492399999989
 30
0.0
  0
VERTEX
  5
B59
  8
0
 62
     7
 10
-133.3495879999999
 20
665.16600999999991
 30
0.0
  0
VERTEX
  5
B5A
  8
0
 62
     7
 10
-133.89482699999991
 20
665.36236399999996
 30
0.0
  0
VERTEX
  5
B5B
  8
0
 62
     7
 10
-134.88856699999999
 20
665.70221900000001
 30
0.0
  0
VERTEX
  5
B5C
  8
0
 62
     7
 10
-135.4339389999999
 20
665.8803999999999
 30
0.0
  0
VERTEX
  5
B5D
  8
0
 62
     7
 10
-135.98088799999991
 20
666.05072199999995
 30
0.0
  0
VERTEX
  5
B5E
  8
0
 62
     7
 10
-136.146343
 20
666.10027099999991
 30
0.0
  0
VERTEX
  5
B5F
  8
0
 62
     7
 10
-136.96331399999991
 20
666.33092699999997
 30
0.0
  0
VERTEX
  5
B60
  8
0
 62
     7
 10
-137.86743899999999
 20
666.56485599999996
 30
0.0
  0
VERTEX
  5
B61
  8
0
 62
     7
 10
-138.674519
 20
666.76706499999989
 30
0.0
  0
VERTEX
  5
B62
  8
0
 62
     7
 10
-139.48043100000001
 20
666.976088
 30
0.0
  0
VERTEX
  5
B63
  8
0
 62
     7
 10
-139.64972700000001
 20
667.02192500000001
 30
0.0
  0
VERTEX
  5
B64
  8
0
 62
     7
 10
-140.097782
 20
667.14737100000002
 30
0.0
  0
VERTEX
  5
B65
  8
0
 62
     7
 10
-140.544003
 20
667.27860099999998
 30
0.0
  0
VERTEX
  5
B66
  8
0
 62
     7
 10
-141.4127269999999
 20
667.55106499999988
 30
0.0
  0
VERTEX
  5
B67
  8
0
 62
     7
 10
-142.44466
 20
667.89532999999994
 30
0.0
  0
VERTEX
  5
B68
  8
0
 62
     7
 10
-142.90058500000001
 20
668.05060400000002
 30
0.0
  0
VERTEX
  5
B69
  8
0
 62
     7
 10
-144.50085799999991
 20
668.59179099999994
 30
0.0
  0
VERTEX
  5
B6A
  8
0
 62
     7
 10
-146.112976
 20
669.11822699999993
 30
0.0
  0
VERTEX
  5
B6B
  8
0
 62
     7
 10
-146.80917400000001
 20
669.33657300000004
 30
0.0
  0
VERTEX
  5
B6C
  8
0
 62
     7
 10
-147.509274
 20
669.54678499999989
 30
0.0
  0
VERTEX
  5
B6D
  8
0
 62
     7
 10
-147.96843000000001
 20
669.67746499999998
 30
0.0
  0
VERTEX
  5
B6E
  8
0
 62
     7
 10
-148.4291879999999
 20
669.80120999999986
 30
0.0
  0
VERTEX
  5
B6F
  8
0
 62
     7
 10
-148.8033409999999
 20
669.89522699999986
 30
0.0
  0
VERTEX
  5
B70
  8
0
 62
     7
 10
-149.178436
 20
669.982798
 30
0.0
  0
VERTEX
  5
B71
  8
0
 62
     7
 10
-149.50934599999991
 20
670.05388400000004
 30
0.0
  0
VERTEX
  5
B72
  8
0
 62
     7
 10
-149.84088499999999
 20
670.11877199999992
 30
0.0
  0
VERTEX
  5
B73
  8
0
 62
     7
 10
-150.14611099999999
 20
670.17251399999986
 30
0.0
  0
VERTEX
  5
B74
  8
0
 62
     7
 10
-150.4517899999999
 20
670.22023200000001
 30
0.0
  0
VERTEX
  5
B75
  8
0
 62
     7
 10
-150.74112700000001
 20
670.25952000000007
 30
0.0
  0
VERTEX
  5
B76
  8
0
 62
     7
 10
-151.0308
 20
670.29292099999986
 30
0.0
  0
VERTEX
  5
B77
  8
0
 62
     7
 10
-151.310925
 20
670.319433
 30
0.0
  0
VERTEX
  5
B78
  8
0
 62
     7
 10
-151.591297
 20
670.34017699999993
 30
0.0
  0
VERTEX
  5
B79
  8
0
 62
     7
 10
-152.144249
 20
670.36399600000004
 30
0.0
  0
VERTEX
  5
B7A
  8
0
 62
     7
 10
-152.7006189999999
 20
670.3654499999999
 30
0.0
  0
VERTEX
  5
B7B
  8
0
 62
     7
 10
-153.274067
 20
670.34474699999998
 30
0.0
  0
VERTEX
  5
B7C
  8
0
 62
     7
 10
-153.8864749999999
 20
670.30091700000003
 30
0.0
  0
VERTEX
  5
B7D
  8
0
 62
     7
 10
-154.586544
 20
670.23013900000001
 30
0.0
  0
VERTEX
  5
B7E
  8
0
 62
     7
 10
-154.97294600000001
 20
670.18550700000003
 30
0.0
  0
VERTEX
  5
B7F
  8
0
 62
     7
 10
-155.92874499999999
 20
670.07730700000002
 30
0.0
  0
VERTEX
  5
B80
  8
0
 62
     7
 10
-156.88594399999991
 20
670.00761199999999
 30
0.0
  0
VERTEX
  5
B81
  8
0
 62
     7
 10
-157.14563799999991
 20
670.00057800000002
 30
0.0
  0
VERTEX
  5
B82
  8
0
 62
     7
 10
-157.40538000000001
 20
669.99963600000001
 30
0.0
  0
VERTEX
  5
B83
  8
0
 62
     7
 10
-157.51572400000001
 20
670.00115000000005
 30
0.0
  0
VERTEX
  5
B84
  8
0
 62
     7
 10
-158.003929
 20
670.021658
 30
0.0
  0
VERTEX
  5
B85
  8
0
 62
     7
 10
-158.5029219999999
 20
670.06483600000001
 30
0.0
  0
VERTEX
  5
B86
  8
0
 62
     7
 10
-159.0398899999999
 20
670.13299400000005
 30
0.0
  0
VERTEX
  5
B87
  8
0
 62
     7
 10
-159.32052599999989
 20
670.17596600000002
 30
0.0
  0
VERTEX
  5
B88
  8
0
 62
     7
 10
-159.981674
 20
670.29232200000001
 30
0.0
  0
VERTEX
  5
B89
  8
0
 62
     7
 10
-160.79975099999999
 20
670.45655599999986
 30
0.0
  0
VERTEX
  5
B8A
  8
0
 62
     7
 10
-161.91894500000001
 20
670.70025099999987
 30
0.0
  0
VERTEX
  5
B8B
  8
0
 62
     7
 10
-162.37874600000001
 20
670.80324699999994
 30
0.0
  0
SEQEND
  5
B8C
  8
0
 62
     7
  0
CIRCLE
  5
29B
  8
0
 62
     7
 10
-47.874389999999998
 20
795.36375999999996
 30
0.0
 40
0.2
  0
LINE
  5
29C
  8
0
 62
     7
 10
-51.378796000000001
 20
839.7637390000001
 30
0.0
 11
-57.287643000000003
 21
840.80562399999997
 31
0.0
  0
LINE
  5
29D
  8
0
 62
     7
 10
-51.378796000000001
 20
839.7637390000001
 30
0.0
 11
-57.287643000000003
 21
838.72184599999991
 31
0.0
  0
LINE
  5
29E
  8
0
 62
     7
 10
-156.37878000000001
 20
839.76376899999991
 30
0.0
 11
-150.46993599999999
 21
838.72187599999995
 31
0.0
  0
LINE
  5
29F
  8
0
 62
     7
 10
-156.37878000000001
 20
839.76376899999991
 30
0.0
 11
-150.46993599999999
 21
840.80565399999978
 31
0.0
  0
LINE
  5
2A0
  8
0
 62
     7
 10
-51.378796000000001
 20
839.7637390000001
 30
0.0
 11
-156.37878000000001
 21
839.76376899999991
 31
0.0
  0
LINE
  5
2A1
  8
0
 62
     7
 10
-51.378796000000001
 20
843.76373899999999
 30
0.0
 11
-51.378815000000003
 21
775.98156900000004
 31
0.0
  0
LINE
  5
2A2
  8
0
 62
     7
 10
-156.37878000000001
 20
843.7637689999998
 30
0.0
 11
-156.37879599999991
 21
775.98159999999984
 31
0.0
  0
LINE
  5
2A3
  8
0
 62
     7
 10
-199.239315
 20
641.23157300000003
 30
0.0
 11
-198.19743
 21
647.14041699999996
 31
0.0
  0
LINE
  5
2A4
  8
0
 62
     7
 10
-199.239315
 20
641.23157300000003
 30
0.0
 11
-200.28120000000001
 21
647.14041699999996
 31
0.0
  0
LINE
  5
2A5
  8
0
 62
     7
 10
-199.239315
 20
811.23157300000003
 30
0.0
 11
-200.28120000000001
 21
805.32272099999989
 31
0.0
  0
LINE
  5
2A6
  8
0
 62
     7
 10
-199.239315
 20
811.23157300000003
 30
0.0
 11
-198.19743
 21
805.32272899999998
 31
0.0
  0
LINE
  5
2A7
  8
0
 62
     7
 10
-199.239315
 20
641.23157300000003
 30
0.0
 11
-199.239315
 21
811.23157300000003
 31
0.0
  0
LINE
  5
2A8
  8
0
 62
     7
 10
-203.23931499999989
 20
641.23157300000003
 30
0.0
 11
-152.87881100000001
 21
641.23157300000003
 31
0.0
  0
LINE
  5
2A9
  8
0
 62
     7
 10
-203.23931499999989
 20
811.23157300000003
 30
0.0
 11
-152.87881100000001
 21
811.23157300000003
 31
0.0
  0
LINE
  5
2AA
  8
0
 62
     7
 10
-68.878734999999992
 20
610.25624700000003
 30
0.0
 11
-74.787580000000005
 21
611.29813200000001
 31
0.0
  0
LINE
  5
2AB
  8
0
 62
     7
 10
-68.878734999999992
 20
610.25624700000003
 30
0.0
 11
-74.787580000000005
 21
609.21436100000005
 31
0.0
  0
LINE
  5
2AC
  8
0
 62
     7
 10
-103.8787649999999
 20
610.25626199999999
 30
0.0
 11
-97.969917000000009
 21
609.21436100000005
 31
0.0
  0
LINE
  5
2AD
  8
0
 62
     7
 10
-103.8787649999999
 20
610.25626199999999
 30
0.0
 11
-97.969917000000009
 21
611.29814699999997
 31
0.0
  0
LINE
  5
2AE
  8
0
 62
     7
 10
-103.8787649999999
 20
610.25626199999999
 30
0.0
 11
-109.78761299999989
 21
611.29814699999997
 31
0.0
  0
LINE
  5
2AF
  8
0
 62
     7
 10
-103.8787649999999
 20
610.25626199999999
 30
0.0
 11
-109.78761299999989
 21
609.21436100000005
 31
0.0
  0
LINE
  5
2B0
  8
0
 62
     7
 10
-138.8787649999999
 20
610.25626199999999
 30
0.0
 11
-132.969921
 21
609.2143759999999
 31
0.0
  0
LINE
  5
2B1
  8
0
 62
     7
 10
-138.8787649999999
 20
610.25626199999999
 30
0.0
 11
-132.969921
 21
611.29814699999997
 31
0.0
  0
LINE
  5
2B2
  8
0
 62
     7
 10
-68.878734999999992
 20
610.25624700000003
 30
0.0
 11
-138.8787649999999
 21
610.25626199999999
 31
0.0
  0
LINE
  5
2B3
  8
0
 62
     7
 10
-68.878734999999992
 20
606.25624700000003
 30
0.0
 11
-68.878722999999994
 21
645.23129800000004
 31
0.0
  0
LINE
  5
2B4
  8
0
 62
     7
 10
-103.8787649999999
 20
606.25626199999999
 30
0.0
 11
-103.8787609999999
 21
621.70354299999997
 31
0.0
  0
LINE
  5
2B5
  8
0
 62
     7
 10
-138.8787649999999
 20
606.25626199999999
 30
0.0
 11
-138.87875700000001
 21
645.23157300000003
 31
0.0
  0
LINE
  5
2B6
  8
0
 62
     5
 10
-179.71599999999989
 20
723.98156500000005
 30
0.0
 11
-178.674114
 21
729.89041299999985
 31
0.0
  0
LINE
  5
2B7
  8
0
 62
     5
 10
-179.71599999999989
 20
723.98156500000005
 30
0.0
 11
-180.75788499999999
 21
729.89041299999985
 31
0.0
  0
LINE
  5
2B8
  8
0
 62
     5
 10
-179.71599999999989
 20
811.23154999999986
 30
0.0
 11
-180.75788499999999
 21
805.32269899999994
 31
0.0
  0
LINE
  5
2B9
  8
0
 62
     5
 10
-179.71599999999989
 20
811.23154999999986
 30
0.0
 11
-178.67410699999999
 21
805.32270599999993
 31
0.0
  0
LINE
  5
2BA
  8
0
 62
     5
 10
-179.71599999999989
 20
723.98156500000005
 30
0.0
 11
-179.71599999999989
 21
811.23154999999986
 31
0.0
  0
LINE
  5
2BB
  8
0
 62
     5
 10
-183.71599999999989
 20
811.23154999999986
 30
0.0
 11
-152.87881100000001
 21
811.23154999999986
 31
0.0
  0
LINE
  5
2BC
  8
0
 62
     7
 10
-31.111370000000001
 20
723.98156500000005
 30
0.0
 11
-30.069485
 21
729.89041299999985
 31
0.0
  0
LINE
  5
2BD
  8
0
 62
     7
 10
-31.111370000000001
 20
723.98156500000005
 30
0.0
 11
-32.153255000000001
 21
729.89041299999985
 31
0.0
  0
LINE
  5
2BE
  8
0
 62
     7
 10
-31.111370000000001
 20
813.73154999999986
 30
0.0
 11
-32.153263000000003
 21
807.82269899999994
 31
0.0
  0
LINE
  5
2BF
  8
0
 62
     7
 10
-31.111370000000001
 20
813.73154999999986
 30
0.0
 11
-30.069485
 21
807.82269899999994
 31
0.0
  0
LINE
  5
2C0
  8
0
 62
     7
 10
-31.111370000000001
 20
723.98156500000005
 30
0.0
 11
-31.111370000000001
 21
813.73154999999986
 31
0.0
  0
LINE
  5
2C1
  8
0
 62
     7
 10
-27.111370000000001
 20
723.98156900000004
 30
0.0
 11
-37.700938999999991
 21
723.98156500000005
 31
0.0
  0
LINE
  5
2C2
  8
0
 62
     7
 10
-27.111370000000001
 20
813.73154999999986
 30
0.0
 11
-52.628795999999987
 21
813.73154999999986
 31
0.0
  0
LINE
  5
2C3
  8
0
 62
     7
 10
9.8662609999999997
 20
638.73155799999995
 30
0.0
 11
10.908154
 21
644.64040199999999
 31
0.0
  0
LINE
  5
2C4
  8
0
 62
     7
 10
9.8662609999999997
 20
638.73155799999995
 30
0.0
 11
8.8243749999999999
 21
644.64040199999999
 31
0.0
  0
LINE
  5
2C5
  8
0
 62
     7
 10
9.8662609999999997
 20
813.73155799999995
 30
0.0
 11
8.8243679999999998
 21
807.82271400000002
 31
0.0
  0
LINE
  5
2C6
  8
0
 62
     7
 10
9.8662609999999997
 20
813.73155799999995
 30
0.0
 11
10.908146
 21
807.82271400000002
 31
0.0
  0
LINE
  5
2C7
  8
0
 62
     7
 10
9.8662609999999997
 20
638.73155799999995
 30
0.0
 11
9.8662609999999997
 21
813.73155799999995
 31
0.0
  0
LINE
  5
2C8
  8
0
 62
     7
 10
13.866260999999991
 20
638.73155799999995
 30
0.0
 11
-52.628779999999999
 21
638.73155799999995
 31
0.0
  0
LINE
  5
2C9
  8
0
 62
     7
 10
13.866260999999991
 20
813.73155799999995
 30
0.0
 11
-52.628779999999999
 21
813.73155799999995
 31
0.0
  0
LINE
  5
2CA
  8
0
 62
     7
 10
-13.652248
 20
643.48157300000003
 30
0.0
 11
-12.610355
 21
649.39041699999996
 31
0.0
  0
LINE
  5
2CB
  8
0
 62
     7
 10
-13.652248
 20
643.48157300000003
 30
0.0
 11
-14.694134
 21
649.39041699999996
 31
0.0
  0
LINE
  5
2CC
  8
0
 62
     7
 10
-13.652248
 20
804.48157299999991
 30
0.0
 11
-14.694141
 21
798.57272899999987
 31
0.0
  0
LINE
  5
2CD
  8
0
 62
     7
 10
-13.652248
 20
804.48157299999991
 30
0.0
 11
-12.610363
 21
798.57272899999987
 31
0.0
  0
LINE
  5
2CE
  8
0
 62
     7
 10
-13.652248
 20
643.48157300000003
 30
0.0
 11
-13.652248
 21
804.48157299999991
 31
0.0
  0
LINE
  5
2CF
  8
0
 62
     7
 10
-9.6522480000000002
 20
643.48157300000003
 30
0.0
 11
-46.628784000000003
 21
643.48157300000003
 31
0.0
  0
LINE
  5
2D0
  8
0
 62
     7
 10
-9.6522480000000002
 20
804.48157299999991
 30
0.0
 11
-46.628784000000003
 21
804.48157299999991
 31
0.0
  0
LINE
  5
2D1
  8
0
 62
     7
 10
-45.378779999999999
 20
860.71127899999976
 30
0.0
 11
-51.287627999999998
 21
861.75316400000008
 31
0.0
  0
LINE
  5
2D2
  8
0
 62
     7
 10
-45.378779999999999
 20
860.71127899999976
 30
0.0
 11
-51.287627999999998
 21
859.66939300000001
 31
0.0
  0
LINE
  5
2D3
  8
0
 62
     7
 10
-162.37878000000001
 20
860.71127899999976
 30
0.0
 11
-156.46993599999999
 21
859.66939300000001
 31
0.0
  0
LINE
  5
2D4
  8
0
 62
     7
 10
-162.37878000000001
 20
860.71127899999976
 30
0.0
 11
-156.46993599999999
 21
861.75316400000008
 31
0.0
  0
LINE
  5
2D5
  8
0
 62
     7
 10
-45.378779999999999
 20
860.71127899999976
 30
0.0
 11
-162.37878000000001
 21
860.71126400000003
 31
0.0
  0
LINE
  5
2D6
  8
0
 62
     7
 10
-45.378779999999999
 20
864.71127899999988
 30
0.0
 11
-45.378776999999999
 21
803.23156500000005
 31
0.0
  0
LINE
  5
2D7
  8
0
 62
     7
 10
-162.37878000000001
 20
864.71127899999988
 30
0.0
 11
-162.378773
 21
777.13364999999999
 31
0.0
  0
LINE
  5
2D8
  8
0
 62
     3
 10
254.62920399999999
 20
644.03158600000006
 30
0.0
 11
276.91709900000001
 21
644.03158600000006
 31
0.0
  0
LINE
  5
2D9
  8
0
 62
     7
 10
204.917101
 20
641.23158299999989
 30
0.0
 11
204.917101
 21
646.73156700000004
 31
0.0
  0
LINE
  5
2DA
  8
0
 62
     7
 10
204.917101
 20
662.73156700000004
 30
0.0
 11
204.917101
 21
789.73156700000004
 31
0.0
  0
LINE
  5
2DB
  8
0
  6
DASHDOT
 62
     7
 10
202.917101
 20
662.73156700000004
 30
0.0
 11
202.917101
 21
789.73156700000004
 31
0.0
  0
LINE
  5
2DC
  8
0
 62
     7
 10
273.41707599999989
 20
748.48156399999993
 30
0.0
 11
273.41709899999989
 21
740.23154099999988
 31
0.0
  0
LINE
  5
2DD
  8
0
 62
     7
 10
275.91703799999999
 20
794.73155999999994
 30
0.0
 11
276.62416100000002
 21
795.024452
 31
0.0
  0
LINE
  5
2DE
  8
0
 62
     7
 10
276.62417599999992
 20
795.02442900000005
 30
0.0
 11
276.91706799999997
 21
795.73153699999989
 31
0.0
  0
LINE
  5
2DF
  8
0
 62
     7
 10
273.41708399999987
 20
787.73156700000004
 30
0.0
 11
273.41709899999989
 21
794.73156700000004
 31
0.0
  0
LINE
  5
2E0
  8
0
 62
     7
 10
273.41709899999989
 20
794.73156700000004
 30
0.0
 11
275.91706799999997
 21
794.73156700000004
 31
0.0
  0
LINE
  5
2E1
  8
0
 62
     7
 10
273.41708399999987
 20
748.48156700000004
 30
0.0
 11
273.41708399999987
 21
787.73156700000004
 31
0.0
  0
LINE
  5
2E2
  8
0
 62
     7
 10
268.91709900000001
 20
697.73156700000004
 30
0.0
 11
268.91709900000001
 21
738.23156700000004
 31
0.0
  0
LINE
  5
2E3
  8
0
 62
     7
 10
268.91712999999987
 20
738.23162300000001
 30
0.0
 11
269.18507399999999
 21
739.23162300000001
 31
0.0
  0
LINE
  5
2E4
  8
0
 62
     7
 10
269.18511199999989
 20
739.23166100000003
 30
0.0
 11
269.91715199999987
 21
739.96371699999997
 31
0.0
  0
LINE
  5
2E5
  8
0
 62
     7
 10
269.91704599999991
 20
739.96359600000005
 30
0.0
 11
270.91706099999999
 21
740.23154099999988
 31
0.0
  0
LINE
  5
2E6
  8
0
 62
     7
 10
268.91709900000001
 20
697.73156700000004
 30
0.0
 11
276.91709900000001
 21
697.73156700000004
 31
0.0
  0
LINE
  5
2E7
  8
0
 62
     7
 10
275.91698500000001
 20
683.73155399999985
 30
0.0
 11
276.91706099999988
 21
682.73155399999985
 31
0.0
  0
LINE
  5
2E8
  8
0
 62
     7
 10
275.9170069999999
 20
694.73157900000001
 30
0.0
 11
276.91709900000001
 21
695.7315789999999
 31
0.0
  0
LINE
  5
2E9
  8
0
 62
     7
 10
213.1491859999999
 20
694.73154299999987
 30
0.0
 11
275.91699199999999
 21
694.73157300000003
 31
0.0
  0
LINE
  5
2EA
  8
0
 62
     7
 10
213.14913899999999
 20
683.73156700000004
 30
0.0
 11
275.9170069999999
 21
683.73156700000004
 31
0.0
  0
LINE
  5
2EB
  8
0
 62
     7
 10
209.4170969999999
 20
695.73153899999988
 30
0.0
 11
213.14918099999991
 21
694.73152400000004
 31
0.0
  0
LINE
  5
2EC
  8
0
 62
     7
 10
205.9170959999999
 20
696.66936299999986
 30
0.0
 11
209.41712899999999
 21
695.73152699999991
 31
0.0
  0
LINE
  5
2ED
  8
0
 62
     7
 10
204.917102
 20
681.52580299999988
 30
0.0
 11
213.14914099999999
 21
683.73156700000004
 31
0.0
  0
LINE
  5
2EE
  8
0
 62
     7
 10
204.91711399999991
 20
699.02587100000005
 30
0.0
 11
205.91711100000001
 21
699.29381599999999
 31
0.0
  0
LINE
  5
2EF
  8
0
 62
     7
 10
204.917101
 20
675.23155199999985
 30
0.0
 11
208.91709999999989
 21
675.23155199999985
 31
0.0
  0
LINE
  5
2F0
  8
0
 62
     7
 10
208.91709999999989
 20
667.71477500000003
 30
0.0
 11
208.91709999999989
 21
675.23155199999985
 31
0.0
  0
LINE
  5
2F1
  8
0
 62
     7
 10
205.917101
 20
681.79373199999986
 30
0.0
 11
205.917101
 21
726.23155199999985
 31
0.0
  0
LINE
  5
2F2
  8
0
 62
     7
 10
209.417101
 20
695.73156700000004
 30
0.0
 11
209.417101
 21
720.73156700000004
 31
0.0
  0
LINE
  5
2F3
  8
0
 62
     7
 10
204.9171
 20
726.23155199999985
 30
0.0
 11
207.91709900000001
 21
726.23155199999985
 31
0.0
  0
LINE
  5
2F4
  8
0
 62
     7
 10
207.9171089999999
 20
726.23154299999999
 30
0.0
 11
208.66711100000001
 21
726.03058399999998
 31
0.0
  0
LINE
  5
2F5
  8
0
 62
     7
 10
207.9171089999999
 20
726.23154299999999
 30
0.0
 11
208.66711100000001
 21
726.03058399999998
 31
0.0
  0
LINE
  5
2F6
  8
0
 62
     7
 10
208.66710399999999
 20
726.03057899999999
 30
0.0
 11
209.21614199999999
 21
725.481537
 31
0.0
  0
LINE
  5
2F7
  8
0
 62
     7
 10
209.21612500000001
 20
725.48152400000004
 30
0.0
 11
209.41708600000001
 21
724.73152400000004
 31
0.0
  0
LINE
  5
2F8
  8
0
 62
     7
 10
209.4171189999999
 20
720.73155399999985
 30
0.0
 11
209.4171189999999
 21
724.73153899999988
 31
0.0
  0
LINE
  5
2F9
  8
0
 62
     7
 10
209.21614600000001
 20
719.98154599999987
 30
0.0
 11
209.31136900000001
 21
720.33692299999996
 31
0.0
  0
LINE
  5
2FA
  8
0
 62
     7
 10
209.31136799999999
 20
720.33691299999987
 30
0.0
 11
209.41710599999999
 21
720.73155099999985
 31
0.0
  0
LINE
  5
2FB
  8
0
 62
     7
 10
208.66710099999989
 20
719.43247399999996
 30
0.0
 11
209.216139
 21
719.98151600000006
 31
0.0
  0
LINE
  5
2FC
  8
0
 62
     7
 10
207.91708799999989
 20
719.23153099999979
 30
0.0
 11
208.66708799999989
 21
719.4324889999998
 31
0.0
  0
LINE
  5
2FD
  8
0
 62
     7
 10
205.917101
 20
719.23155199999997
 30
0.0
 11
207.9171
 21
719.23155199999997
 31
0.0
  0
LINE
  5
2FE
  8
0
 62
     7
 10
209.417078
 20
684.23155599999996
 30
0.0
 11
212.216114
 21
683.48155599999996
 31
0.0
  0
LINE
  5
2FF
  8
0
 62
     7
 10
209.41706799999989
 20
684.23156500000005
 30
0.0
 11
209.41706799999989
 21
694.23156500000005
 31
0.0
  0
LINE
  5
300
  8
0
 62
     7
 10
209.41706799999989
 20
694.23155199999997
 30
0.0
 11
212.21612799999991
 21
694.98155199999985
 31
0.0
  0
LINE
  5
301
  8
0
 62
     7
 10
209.21615
 20
719.45225300000004
 30
0.0
 11
209.41711000000001
 21
720.33692699999995
 31
0.0
  0
LINE
  5
302
  8
0
 62
     7
 10
209.31136100000001
 20
720.33692900000005
 30
0.0
 11
209.41709900000001
 21
720.33692900000005
 31
0.0
  0
LINE
  5
303
  8
0
 62
     7
 10
209.2831239999999
 20
706.23154199999999
 30
0.0
 11
209.41709599999999
 21
706.33099800000002
 31
0.0
  0
LINE
  5
304
  8
0
 62
     7
 10
209.2161439999999
 20
706.28123499999992
 30
0.0
 11
209.28313299999999
 21
706.23150700000008
 31
0.0
  0
LINE
  5
305
  8
0
 62
     7
 10
209.216139
 20
716.23156700000004
 30
0.0
 11
209.4171
 21
716.23156700000004
 31
0.0
  0
LINE
  5
306
  8
0
 62
     7
 10
209.21613400000001
 20
710.181781
 30
0.0
 11
209.2831229999999
 21
710.23150899999985
 31
0.0
  0
LINE
  5
307
  8
0
 62
     7
 10
209.28313199999999
 20
710.23153500000001
 30
0.0
 11
209.41710399999991
 21
710.13207799999986
 31
0.0
  0
LINE
  5
308
  8
0
 62
     7
 10
209.21613300000001
 20
718.56341100000009
 30
0.0
 11
209.32530700000001
 21
717.95363999999995
 31
0.0
  0
LINE
  5
309
  8
0
 62
     7
 10
209.325312
 20
717.95364699999993
 30
0.0
 11
209.41709900000001
 21
716.23157000000003
 31
0.0
  0
LINE
  5
30A
  8
0
 62
     7
 10
208.70077499999999
 20
706.38377300000002
 30
0.0
 11
209.21613500000001
 21
706.28126499999996
 31
0.0
  0
LINE
  5
30B
  8
0
 62
     7
 10
208.66709800000001
 20
706.40628599999991
 30
0.0
 11
208.70077699999999
 21
706.383779
 31
0.0
  0
LINE
  5
30C
  8
0
 62
     7
 10
208.66708399999999
 20
710.05679299999986
 30
0.0
 11
208.70076399999991
 21
710.07929999999999
 31
0.0
  0
LINE
  5
30D
  8
0
 62
     7
 10
208.70077099999989
 20
710.07929499999989
 30
0.0
 11
209.21612899999991
 21
710.18180299999995
 31
0.0
  0
LINE
  5
30E
  8
0
 62
     7
 10
208.66709999999989
 20
716.23156700000004
 30
0.0
 11
209.216139
 21
716.23156700000004
 31
0.0
  0
LINE
  5
30F
  8
0
 62
     7
 10
207.9170949999999
 20
706.54054900000006
 30
0.0
 11
208.6670949999999
 21
706.40627199999994
 31
0.0
  0
LINE
  5
310
  8
0
 62
     7
 10
207.91709399999999
 20
709.92251900000008
 30
0.0
 11
208.66709399999991
 21
710.05679599999985
 31
0.0
  0
LINE
  5
311
  8
0
 62
     7
 10
207.9171
 20
716.23156700000004
 30
0.0
 11
208.66709999999989
 21
716.23156700000004
 31
0.0
  0
LINE
  5
312
  8
0
 62
     7
 10
205.917101
 20
709.92253099999994
 30
0.0
 11
207.9171
 21
709.92253099999994
 31
0.0
  0
LINE
  5
313
  8
0
 62
     7
 10
205.917101
 20
716.23156700000004
 30
0.0
 11
207.9171
 21
716.23156700000004
 31
0.0
  0
LINE
  5
314
  8
0
 62
     7
 10
205.917101
 20
706.54057299999999
 30
0.0
 11
207.9171
 21
706.54057299999999
 31
0.0
  0
LINE
  5
315
  8
0
 62
     3
 10
204.917101
 20
811.23156700000004
 30
0.0
 11
301.91709900000001
 21
811.23156700000004
 31
0.0
  0
LINE
  5
316
  8
0
 62
     3
 10
270.23622099999989
 20
808.43157999999983
 30
0.0
 11
299.117096
 21
808.43157999999983
 31
0.0
  0
LINE
  5
317
  8
0
 62
     3
 10
276.91709900000001
 20
644.03158600000006
 30
0.0
 11
299.117096
 21
644.03158600000006
 31
0.0
  0
LINE
  5
318
  8
0
 62
     3
 10
276.91709900000001
 20
641.23158299999989
 30
0.0
 11
301.91709900000001
 21
641.23158299999989
 31
0.0
  0
LINE
  5
319
  8
0
 62
     3
 10
276.91709900000001
 20
641.23158299999989
 30
0.0
 11
276.91709900000001
 21
683.48156700000004
 31
0.0
  0
LINE
  5
31A
  8
0
 62
     3
 10
276.91709900000001
 20
694.98155199999985
 30
0.0
 11
276.91709900000001
 21
697.731628
 31
0.0
  0
LINE
  5
31B
  8
0
 62
     3
 10
276.91709900000001
 20
795.73161300000004
 30
0.0
 11
276.91709900000001
 21
811.23156700000004
 31
0.0
  0
LINE
  5
31C
  8
0
 62
     3
 10
306.41709900000001
 20
739.18043499999999
 30
0.0
 11
306.41709900000001
 21
748.73124699999994
 31
0.0
  0
LINE
  5
31D
  8
0
 62
     3
 10
306.41704599999991
 20
688.28199000000006
 30
0.0
 11
306.41709100000003
 21
681.73126999999999
 31
0.0
  0
LINE
  5
31E
  8
0
 62
     3
 10
301.91709900000001
 20
786.98156700000004
 30
0.0
 11
301.91709900000001
 21
811.23156700000004
 31
0.0
  0
LINE
  5
31F
  8
0
 62
     3
 10
299.117096
 20
794.981583
 30
0.0
 11
301.91709900000001
 21
794.981583
 31
0.0
  0
LINE
  5
320
  8
0
 62
     3
 10
301.91709900000001
 20
641.23158299999989
 30
0.0
 11
301.91709900000001
 21
665.981583
 31
0.0
  0
LINE
  5
321
  8
0
 62
     3
 10
299.117096
 20
657.481583
 30
0.0
 11
301.91709900000001
 21
657.481583
 31
0.0
  0
LINE
  5
322
  8
0
 62
     3
 10
299.117096
 20
644.03158600000006
 30
0.0
 11
299.117096
 21
665.98158599999999
 31
0.0
  0
LINE
  5
323
  8
0
 62
     3
 10
276.91709900000001
 20
694.98156700000004
 30
0.0
 11
299.117096
 21
694.98156700000004
 31
0.0
  0
LINE
  5
324
  8
0
 62
     3
 10
276.91709900000001
 20
683.48156700000004
 30
0.0
 11
299.117096
 21
683.48156700000004
 31
0.0
  0
LINE
  5
325
  8
0
 62
     1
 10
299.117096
 20
786.98156700000004
 30
0.0
 11
304.41709900000001
 21
786.98156700000004
 31
0.0
  0
LINE
  5
326
  8
0
 62
     1
 10
301.41709900000001
 20
665.981583
 30
0.0
 11
301.91709900000001
 21
665.981583
 31
0.0
  0
LINE
  5
327
  8
0
 62
     1
 10
299.117096
 20
665.98158599999999
 30
0.0
 11
304.41709900000001
 21
665.981583
 31
0.0
  0
LINE
  5
328
  8
0
 62
     2
 10
315.41841099999999
 20
671.98156700000004
 30
0.0
 11
315.41841099999999
 21
673.98156700000004
 31
0.0
  0
LINE
  5
329
  8
0
 62
     2
 10
306.41841099999988
 20
671.48156700000004
 30
0.0
 11
306.41841099999988
 21
776.48156700000004
 31
0.0
  0
LINE
  5
32A
  8
0
 62
     2
 10
304.41709900000001
 20
776.48156700000004
 30
0.0
 11
309.91826600000002
 21
776.48156700000004
 31
0.0
  0
LINE
  5
32B
  8
0
 62
     2
 10
304.41709900000001
 20
671.48156700000004
 30
0.0
 11
309.91826600000002
 21
671.48156700000004
 31
0.0
  0
LINE
  5
32C
  8
0
 62
     2
 10
315.41835800000001
 20
689.98155199999985
 30
0.0
 11
315.41841099999999
 21
671.98156700000004
 31
0.0
  0
LINE
  5
32D
  8
0
 62
     2
 10
315.41821299999992
 20
702.98155199999985
 30
0.0
 11
315.41834999999992
 21
690.98155199999985
 31
0.0
  0
LINE
  5
32E
  8
0
 62
     2
 10
315.41841099999999
 20
703.98156700000004
 30
0.0
 11
315.41841099999999
 21
723.48155199999985
 31
0.0
  0
LINE
  5
32F
  8
0
 62
     2
 10
315.41821299999992
 20
703.98154199999999
 30
0.0
 11
315.41826600000002
 21
723.48154199999999
 31
0.0
  0
LINE
  5
330
  8
0
 62
     2
 10
315.41805299999999
 20
736.48154799999998
 30
0.0
 11
315.41825899999998
 21
724.48154899999986
 31
0.0
  0
LINE
  5
331
  8
0
 62
     7
 10
270.91706099999999
 20
740.23154099999988
 30
0.0
 11
273.41709100000003
 21
740.23154099999988
 31
0.0
  0
LINE
  5
332
  8
0
 62
     7
 10
304.41709900000001
 20
776.48156700000004
 30
0.0
 11
304.41709900000001
 21
786.98156700000004
 31
0.0
  0
LINE
  5
333
  8
0
 62
     7
 10
304.41709900000001
 20
665.981583
 30
0.0
 11
304.41709900000001
 21
671.48156700000004
 31
0.0
  0
LINE
  5
334
  8
0
 62
     3
 10
299.117096
 20
786.98156700000004
 30
0.0
 11
299.117096
 21
808.43157999999983
 31
0.0
  0
LINE
  5
335
  8
0
 62
     3
 10
299.117096
 20
665.98158599999999
 30
0.0
 11
299.117096
 21
786.98156700000004
 31
0.0
  0
ARC
  5
336
  8
0
 62
     7
 10
336.09314000000001
 20
701.93768599999999
 30
0.0
 40
1.0
 50
348.62359199999992
 51
76.688818000000012
  0
ARC
  5
337
  8
0
 62
     7
 10
334.89639299999999
 20
695.98986600000001
 30
0.0
 40
1.000000999999999
 50
260.59401099999991
 51
348.62359199999992
  0
LINE
  5
338
  8
0
  6
DASHDOT
 62
     7
 10
300.777039
 20
705.91284800000005
 30
0.0
 11
350.89372300000002
 21
695.82903099999987
 31
0.0
  0
LINE
  5
339
  8
0
 62
     7
 10
315.41822100000002
 20
707.856898
 30
0.0
 11
336.32337999999987
 21
702.91081899999995
 31
0.0
  0
LINE
  5
33A
  8
0
 62
     7
 10
335.876755
 20
695.79261399999984
 30
0.0
 11
337.073486
 21
701.74043200000006
 31
0.0
  0
LINE
  5
33B
  8
0
 62
     7
 10
315.41826600000002
 20
698.20290999999997
 30
0.0
 11
334.73297100000002
 21
695.00331100000005
 31
0.0
  0
LINE
  5
33C
  8
0
  6
DASHDOT
 62
     7
 10
199.91710099999989
 20
662.73156700000004
 30
0.0
 11
199.91710099999989
 21
789.73156700000004
 31
0.0
  0
LINE
  5
33D
  8
0
 62
     7
 10
227.81607999999991
 20
787.73156700000004
 30
0.0
 11
239.816395
 21
787.73156700000004
 31
0.0
  0
LINE
  5
33E
  8
0
 62
     7
 10
227.247229
 20
785.23156700000004
 30
0.0
 11
240.400612
 21
785.23156700000004
 31
0.0
  0
LINE
  5
33F
  8
0
 62
     7
 10
213.91710099999989
 20
781.16601600000001
 30
0.0
 11
213.91710099999989
 21
785.23156700000004
 31
0.0
  0
LINE
  5
340
  8
0
 62
     7
 10
217.91710099999989
 20
781.16601600000001
 30
0.0
 11
217.91710099999989
 21
785.23156700000004
 31
0.0
  0
LINE
  5
341
  8
0
 62
     7
 10
227.91710099999989
 20
785.23156700000004
 30
0.0
 11
227.91710099999989
 21
787.73156700000004
 31
0.0
  0
LINE
  5
342
  8
0
 62
     7
 10
213.91710099999989
 20
785.23156700000004
 30
0.0
 11
220.36554799999999
 21
785.23156700000004
 31
0.0
  0
POLYLINE
  5
343
  8
0
 62
     3
 66
     1
 10
0.0
 20
0.0
 30
0.0
  0
VERTEX
  5
B8D
  8
0
 62
     3
 10
197.68826000000001
 20
781.16601600000001
 30
0.0
  0
VERTEX
  5
B8E
  8
0
 62
     3
 10
213.6882589999999
 20
781.16601600000001
 30
0.0
  0
VERTEX
  5
B8F
  8
0
 62
     3
 10
214.68825899999999
 20
783.16601600000001
 30
0.0
  0
VERTEX
  5
B90
  8
0
 62
     3
 10
215.6882589999999
 20
779.16601600000001
 30
0.0
  0
VERTEX
  5
B91
  8
0
 62
     3
 10
216.6882589999999
 20
781.16601600000001
 30
0.0
  0
VERTEX
  5
B92
  8
0
 62
     3
 10
232.6882589999999
 20
781.16601600000001
 30
0.0
  0
VERTEX
  5
B93
  8
0
 62
     3
 10
233.68825899999999
 20
783.16601600000001
 30
0.0
  0
VERTEX
  5
B94
  8
0
 62
     3
 10
234.6882589999999
 20
779.16601600000001
 30
0.0
  0
VERTEX
  5
B95
  8
0
 62
     3
 10
235.68825899999999
 20
781.16601600000001
 30
0.0
  0
VERTEX
  5
B96
  8
0
 62
     3
 10
240.400612
 20
781.16601600000001
 30
0.0
  0
SEQEND
  5
B97
  8
0
 62
     3
  0
LINE
  5
34F
  8
0
 62
     7
 10
222.91710099999989
 20
806.73156700000015
 30
0.0
 11
227.91710099999989
 21
806.73156700000015
 31
0.0
  0
LINE
  5
350
  8
0
 62
     7
 10
227.91710099999989
 20
787.73156700000004
 30
0.0
 11
227.91710099999989
 21
806.73156700000015
 31
0.0
  0
LINE
  5
351
  8
0
 62
     7
 10
222.3398839999999
 20
780.1660159999999
 30
0.0
 11
226.41637
 21
784.16013299999986
 31
0.0
  0
LINE
  5
352
  8
0
 62
     7
 10
219.4178299999999
 20
784.30300099999999
 30
0.0
 11
222.91710099999989
 21
787.73156700000004
 31
0.0
  0
ARC
  5
353
  8
0
 62
     7
 10
222.91710099999989
 20
780.73156700000004
 30
0.0
 40
4.999998999999999
 50
134.4152949999999
 51
180.00000499999999
  0
ARC
  5
354
  8
0
 62
     7
 10
222.91710099999989
 20
787.73156700000004
 30
0.0
 40
5.0
 50
314.415302
 51
360.0
  0
LINE
  5
355
  8
0
  6
DASHDOT
 62
     7
 10
217.5900729999999
 20
797.73156700000004
 30
0.0
 11
234.24972
 21
797.73156700000004
 31
0.0
  0
LINE
  5
356
  8
0
 62
     7
 10
204.917101
 20
664.73157900000001
 30
0.0
 11
222.91710099999989
 21
664.73157900000001
 31
0.0
  0
LINE
  5
357
  8
0
 62
     7
 10
218.91710099999989
 20
664.73157900000001
 30
0.0
 11
218.91710099999989
 21
667.71477500000003
 31
0.0
  0
LINE
  5
358
  8
0
 62
     7
 10
222.91710099999989
 20
664.73157900000001
 30
0.0
 11
222.91710099999989
 21
667.71477500000003
 31
0.0
  0
LINE
  5
359
  8
0
 62
     7
 10
228.917101
 20
664.73157900000001
 30
0.0
 11
228.917101
 21
667.71477500000003
 31
0.0
  0
LINE
  5
35A
  8
0
 62
     7
 10
228.917101
 20
664.73157900000001
 30
0.0
 11
252.12517199999999
 21
664.73157900000001
 31
0.0
  0
POLYLINE
  5
35B
  8
0
 62
     3
 66
     1
 10
0.0
 20
0.0
 30
0.0
  0
VERTEX
  5
B98
  8
0
 62
     3
 10
203.52927800000001
 20
667.71477500000003
 30
0.0
  0
VERTEX
  5
B99
  8
0
 62
     3
 10
219.52927899999989
 20
667.71477500000003
 30
0.0
  0
VERTEX
  5
B9A
  8
0
 62
     3
 10
220.529279
 20
669.71477500000003
 30
0.0
  0
VERTEX
  5
B9B
  8
0
 62
     3
 10
221.52927799999989
 20
665.71477500000003
 30
0.0
  0
VERTEX
  5
B9C
  8
0
 62
     3
 10
222.52927799999989
 20
667.71477500000003
 30
0.0
  0
VERTEX
  5
B9D
  8
0
 62
     3
 10
238.52927799999989
 20
667.71477500000003
 30
0.0
  0
VERTEX
  5
B9E
  8
0
 62
     3
 10
239.52927799999989
 20
669.71477500000003
 30
0.0
  0
VERTEX
  5
B9F
  8
0
 62
     3
 10
240.52927799999989
 20
665.71477500000003
 30
0.0
  0
VERTEX
  5
BA0
  8
0
 62
     3
 10
241.52927799999989
 20
667.71477500000003
 30
0.0
  0
VERTEX
  5
BA1
  8
0
 62
     3
 10
251.76430099999999
 20
667.71477500000003
 30
0.0
  0
SEQEND
  5
BA2
  8
0
 62
     3
  0
LINE
  5
367
  8
0
 62
     7
 10
227.91709900000001
 20
645.73158299999989
 30
0.0
 11
227.91709900000001
 21
666.7315789999999
 31
0.0
  0
LINE
  5
368
  8
0
 62
     7
 10
222.91710099999989
 20
645.73158299999989
 30
0.0
 11
225.91710099999989
 21
645.73158299999989
 31
0.0
  0
LINE
  5
369
  8
0
 62
     7
 10
225.91709900000001
 20
649.48159800000008
 30
0.0
 11
225.91709900000001
 21
667.71477500000003
 31
0.0
  0
LINE
  5
36A
  8
0
 62
     7
 10
225.91709900000001
 20
645.73158299999989
 30
0.0
 11
225.91709900000001
 21
650.48157900000001
 31
0.0
  0
LINE
  5
36B
  8
0
 62
     7
 10
222.91710099999989
 20
645.73158299999989
 30
0.0
 11
222.91710099999989
 21
667.71477500000003
 31
0.0
  0
LINE
  5
36C
  8
0
 62
     7
 10
225.91710099999989
 20
645.73158299999989
 30
0.0
 11
227.91710099999989
 21
645.73158299999989
 31
0.0
  0
LINE
  5
36D
  8
0
 62
     7
 10
225.91709900000001
 20
666.7315789999999
 30
0.0
 11
227.91709900000001
 21
666.7315789999999
 31
0.0
  0
LINE
  5
36E
  8
0
  6
DASHDOT
 62
     7
 10
217.5900729999999
 20
654.73156700000004
 30
0.0
 11
239.00924699999999
 21
654.73156700000004
 31
0.0
  0
LINE
  5
36F
  8
0
 62
     7
 10
222.91710099999989
 20
658.83156600000007
 30
0.0
 11
227.91709900000001
 21
658.83156600000007
 31
0.0
  0
LINE
  5
370
  8
0
 62
     7
 10
222.91710099999989
 20
650.63156900000001
 30
0.0
 11
227.91709900000001
 21
650.63156900000001
 31
0.0
  0
ARC
  5
371
  8
0
  6
DASHDOT
 62
     7
 10
261.91789999999992
 20
713.73156700000004
 30
0.0
 40
76.044273000000004
 50
337.492324
 51
0.00001
  0
LINE
  5
372
  8
0
  6
DASHDOT
 62
     7
 10
337.96217300000001
 20
713.73156700000004
 30
0.0
 11
337.96217300000001
 21
719.48176699999988
 31
0.0
  0
LINE
  5
373
  8
0
 62
     7
 10
222.91710099999989
 20
801.93156399999998
 30
0.0
 11
227.91710099999989
 21
801.93156399999998
 31
0.0
  0
LINE
  5
374
  8
0
 62
     7
 10
222.91710099999989
 20
793.53156999999999
 30
0.0
 11
227.91710099999989
 21
793.53156999999999
 31
0.0
  0
LINE
  5
375
  8
0
 62
     1
 10
309.91826600000002
 20
668.98156700000004
 30
0.0
 11
309.91826600000002
 21
670.98156700000004
 31
0.0
  0
LINE
  5
376
  8
0
 62
     1
 10
309.91826600000002
 20
668.98156700000004
 30
0.0
 11
311.91826600000002
 21
668.98156700000004
 31
0.0
  0
LINE
  5
377
  8
0
 62
     1
 10
309.91826600000002
 20
776.98156399999993
 30
0.0
 11
309.91826600000002
 21
778.98156700000004
 31
0.0
  0
LINE
  5
378
  8
0
 62
     1
 10
309.91826600000002
 20
778.98156700000004
 30
0.0
 11
311.91826600000002
 21
778.98156700000004
 31
0.0
  0
LINE
  5
379
  8
0
 62
     1
 10
309.91826600000002
 20
670.98156700000004
 30
0.0
 11
309.91826600000002
 21
776.98156700000004
 31
0.0
  0
LINE
  5
37A
  8
0
 62
     1
 10
305.41826600000002
 20
792.55891399999985
 30
0.0
 11
305.41826600000002
 21
797.40422100000001
 31
0.0
  0
LINE
  5
37B
  8
0
 62
     1
 10
305.41826600000002
 20
650.55891799999995
 30
0.0
 11
305.41826600000002
 21
655.40421700000002
 31
0.0
  0
LINE
  5
37C
  8
0
 62
     1
 10
311.91826600000002
 20
642.48156700000004
 30
0.0
 11
311.91826600000002
 21
805.48156699999993
 31
0.0
  0
LINE
  5
37D
  8
0
 62
     1
 10
311.91826600000002
 20
642.48156700000004
 30
0.0
 11
315.41826600000002
 21
642.48156700000004
 31
0.0
  0
LINE
  5
37E
  8
0
 62
     1
 10
315.41826600000002
 20
642.48156700000004
 30
0.0
 11
315.41826600000002
 21
805.48156699999993
 31
0.0
  0
LINE
  5
37F
  8
0
 62
     1
 10
311.91826600000002
 20
805.48156699999993
 30
0.0
 11
313.41826600000002
 21
805.48156699999993
 31
0.0
  0
LINE
  5
380
  8
0
 62
     1
 10
314.41826600000002
 20
805.48156699999993
 30
0.0
 11
315.41826600000002
 21
805.48156699999993
 31
0.0
  0
LINE
  5
381
  8
0
 62
     1
 10
306.41826600000002
 20
791.98156700000004
 30
0.0
 11
311.91826600000002
 21
791.98156700000004
 31
0.0
  0
LINE
  5
382
  8
0
 62
     1
 10
306.41826600000002
 20
797.98156700000004
 30
0.0
 11
311.91826600000002
 21
797.98156700000004
 31
0.0
  0
LINE
  5
383
  8
0
 62
     1
 10
305.41827399999988
 20
792.55890699999998
 30
0.0
 11
306.418274
 21
791.98155999999994
 31
0.0
  0
LINE
  5
384
  8
0
 62
     1
 10
306.41826600000002
 20
791.98156700000004
 30
0.0
 11
306.41826600000002
 21
792.20992999999999
 31
0.0
  0
LINE
  5
385
  8
0
 62
     1
 10
306.41826600000002
 20
791.98156700000004
 30
0.0
 11
306.41826600000002
 21
792.86024499999985
 31
0.0
  0
LINE
  5
386
  8
0
 62
     1
 10
306.41826600000002
 20
792.86024499999985
 30
0.0
 11
306.41826600000002
 21
793.833527
 31
0.0
  0
LINE
  5
387
  8
0
 62
     1
 10
306.41826600000002
 20
793.833527
 30
0.0
 11
306.41826600000002
 21
794.98156700000004
 31
0.0
  0
LINE
  5
388
  8
0
 62
     1
 10
306.41826600000002
 20
794.98156700000004
 30
0.0
 11
306.41826600000002
 21
796.12962300000004
 31
0.0
  0
LINE
  5
389
  8
0
 62
     1
 10
306.41826600000002
 20
796.12962300000004
 30
0.0
 11
306.41826600000002
 21
797.98156700000004
 31
0.0
  0
LINE
  5
38A
  8
0
 62
     1
 10
306.41826600000002
 20
797.10288200000002
 30
0.0
 11
306.41826600000002
 21
797.753197
 31
0.0
  0
LINE
  5
38B
  8
0
 62
     1
 10
305.41826600000002
 20
797.40421300000003
 30
0.0
 11
306.41826600000002
 21
797.98155999999994
 31
0.0
  0
LINE
  5
38C
  8
0
 62
     1
 10
306.41826600000002
 20
797.753197
 30
0.0
 11
306.41826600000002
 21
797.98155999999994
 31
0.0
  0
LINE
  5
38D
  8
0
 62
     1
 10
306.418274
 20
655.98156700000004
 30
0.0
 11
311.91826600000002
 21
655.98156700000004
 31
0.0
  0
LINE
  5
38E
  8
0
 62
     1
 10
306.41826600000002
 20
649.98156700000004
 30
0.0
 11
311.91826600000002
 21
649.98156700000004
 31
0.0
  0
LINE
  5
38F
  8
0
 62
     1
 10
306.41826600000002
 20
655.75320399999987
 30
0.0
 11
306.41826600000002
 21
655.98156700000004
 31
0.0
  0
LINE
  5
390
  8
0
 62
     1
 10
305.41826600000002
 20
655.40421700000002
 30
0.0
 11
306.41826600000002
 21
655.98156700000004
 31
0.0
  0
LINE
  5
391
  8
0
 62
     1
 10
306.41826600000002
 20
655.10288600000001
 30
0.0
 11
306.41826600000002
 21
655.75320399999987
 31
0.0
  0
LINE
  5
392
  8
0
 62
     1
 10
306.41826600000002
 20
654.12962000000005
 30
0.0
 11
306.41826600000002
 21
655.10288600000001
 31
0.0
  0
LINE
  5
393
  8
0
 62
     1
 10
306.41826600000002
 20
652.98156700000004
 30
0.0
 11
306.41826600000002
 21
654.12962000000005
 31
0.0
  0
LINE
  5
394
  8
0
 62
     1
 10
306.41826600000002
 20
651.83351900000002
 30
0.0
 11
306.41826600000002
 21
652.98156700000004
 31
0.0
  0
LINE
  5
395
  8
0
 62
     1
 10
306.41826600000002
 20
650.86024900000007
 30
0.0
 11
306.41826600000002
 21
651.83351900000002
 31
0.0
  0
LINE
  5
396
  8
0
 62
     1
 10
306.41826600000002
 20
650.20992999999999
 30
0.0
 11
306.41826600000002
 21
650.86024900000007
 31
0.0
  0
LINE
  5
397
  8
0
 62
     1
 10
306.41826600000002
 20
649.98156700000004
 30
0.0
 11
306.41826600000002
 21
650.20992999999999
 31
0.0
  0
LINE
  5
398
  8
0
 62
     1
 10
305.41826600000002
 20
650.55891799999995
 30
0.0
 11
306.41826600000002
 21
649.98156700000004
 31
0.0
  0
LINE
  5
399
  8
0
 62
     1
 10
313.41826600000002
 20
805.48156699999993
 30
0.0
 11
314.41826600000002
 21
805.48156699999993
 31
0.0
  0
LINE
  5
39A
  8
0
 62
     7
 10
311.91826600000002
 20
805.48156699999993
 30
0.0
 11
311.91826600000002
 21
876.29016099999978
 31
0.0
  0
LINE
  5
39B
  8
0
 62
     7
 10
309.91826600000002
 20
776.98156700000004
 30
0.0
 11
309.91826600000002
 21
791.98156700000004
 31
0.0
  0
LINE
  5
39C
  8
0
 62
     7
 10
311.91826600000002
 20
597.50869800000009
 30
0.0
 11
311.91826600000002
 21
642.48156700000004
 31
0.0
  0
LINE
  5
39D
  8
0
 62
     7
 10
309.91826600000002
 20
596.06944299999998
 30
0.0
 11
309.91826600000002
 21
649.98156700000004
 31
0.0
  0
POLYLINE
  5
39E
  8
0
 62
     3
 66
     1
 10
0.0
 20
0.0
 30
0.0
  0
VERTEX
  5
BA3
  8
0
 62
     3
 10
306.14810899999998
 20
593.35633899999993
 30
0.0
  0
VERTEX
  5
BA4
  8
0
 62
     3
 10
313.43699600000002
 20
598.60160800000006
 30
0.0
  0
VERTEX
  5
BA5
  8
0
 62
     3
 10
313.08046699999989
 20
600.80907400000001
 30
0.0
  0
VERTEX
  5
BA6
  8
0
 62
     3
 10
316.22856100000001
 20
598.14646100000004
 30
0.0
  0
VERTEX
  5
BA7
  8
0
 62
     3
 10
315.87203199999999
 20
600.35392000000002
 30
0.0
  0
SEQEND
  5
BA8
  8
0
 62
     3
  0
POLYLINE
  5
3A5
  8
0
 62
     3
 66
     1
 10
0.0
 20
0.0
 30
0.0
  0
VERTEX
  5
BA9
  8
0
 62
     3
 10
305.1484529999999
 20
879.53041099999996
 30
0.0
  0
VERTEX
  5
BAA
  8
0
 62
     3
 10
313.07514199999991
 20
875.73643499999991
 30
0.0
  0
VERTEX
  5
BAB
  8
0
 62
     3
 10
314.840599
 20
877.10871899999995
 30
0.0
  0
VERTEX
  5
BAC
  8
0
 62
     3
 10
314.015694
 20
873.06896999999992
 30
0.0
  0
VERTEX
  5
BAD
  8
0
 62
     3
 10
315.78115099999991
 20
874.44125399999984
 30
0.0
  0
SEQEND
  5
BAE
  8
0
 62
     3
  0
LINE
  5
3AC
  8
0
 62
     7
 10
309.91826600000002
 20
798.48155999999994
 30
0.0
 11
311.91826600000002
 21
798.48155999999994
 31
0.0
  0
LINE
  5
3AD
  8
0
 62
     7
 10
309.91826600000002
 20
791.48156700000004
 30
0.0
 11
311.91826600000002
 21
791.48156700000004
 31
0.0
  0
LINE
  5
3AE
  8
0
 62
     7
 10
309.91826600000002
 20
779.98156700000004
 30
0.0
 11
311.91826600000002
 21
779.98156700000004
 31
0.0
  0
LINE
  5
3AF
  8
0
 62
     7
 10
309.91826600000002
 20
667.98156700000004
 30
0.0
 11
311.91826600000002
 21
667.98156700000004
 31
0.0
  0
LINE
  5
3B0
  8
0
 62
     7
 10
309.91826600000002
 20
656.48156700000004
 30
0.0
 11
311.91826600000002
 21
656.48156700000004
 31
0.0
  0
LINE
  5
3B1
  8
0
 62
     7
 10
309.91826600000002
 20
649.48156700000004
 30
0.0
 11
311.91826600000002
 21
649.48156700000004
 31
0.0
  0
LINE
  5
3B2
  8
0
 62
     7
 10
309.91826600000002
 20
655.98156700000004
 30
0.0
 11
309.91826600000002
 21
668.98156700000004
 31
0.0
  0
LINE
  5
3B3
  8
0
 62
     7
 10
309.91826600000002
 20
797.98156700000004
 30
0.0
 11
309.91826600000002
 21
877.24742100000014
 31
0.0
  0
LINE
  5
3B4
  8
0
  6
DASHDOT
 62
     7
 10
182.23840100000001
 20
723.98156700000004
 30
0.0
 11
344.12374899999998
 21
723.98156700000004
 31
0.0
  0
LINE
  5
3B5
  8
0
  6
DASHDOT
 62
     7
 10
96.013153000000017
 20
723.98156700000004
 30
0.0
 11
120.89237199999999
 21
723.98156700000004
 31
0.0
  0
POLYLINE
  5
3B6
  8
0
 62
     3
 66
     1
 10
0.0
 20
0.0
 30
0.0
  0
VERTEX
  5
BAF
  8
0
 62
     3
 10
251.76430099999999
 20
667.71477500000003
 30
0.0
  0
VERTEX
  5
BB0
  8
0
 62
     3
 10
253.68577599999989
 20
651.83056999999985
 30
0.0
  0
VERTEX
  5
BB1
  8
0
 62
     3
 10
255.79139699999999
 20
651.077991
 30
0.0
  0
VERTEX
  5
BB2
  8
0
 62
     3
 10
251.940437
 20
649.60485800000004
 30
0.0
  0
VERTEX
  5
BB3
  8
0
 62
     3
 10
254.046055
 20
648.85227999999995
 30
0.0
  0
VERTEX
  5
BB4
  8
0
 62
     3
 10
255.32187699999989
 20
638.30548099999987
 30
0.0
  0
SEQEND
  5
BB5
  8
0
 62
     3
  0
LINE
  5
3BE
  8
0
 62
     7
 10
204.917101
 20
641.23158299999989
 30
0.0
 11
276.91709900000001
 21
641.23158299999989
 31
0.0
  0
POLYLINE
  5
3BF
  8
0
 62
     3
 66
     1
 10
0.0
 20
0.0
 30
0.0
  0
VERTEX
  5
BB6
  8
0
 62
     3
 10
269.07857499999989
 20
786.98996699999987
 30
0.0
  0
VERTEX
  5
BB7
  8
0
 62
     3
 10
269.94117
 20
802.96669799999995
 30
0.0
  0
VERTEX
  5
BB8
  8
0
 62
     3
 10
267.99799000000002
 20
804.07306700000004
 30
0.0
  0
VERTEX
  5
BB9
  8
0
 62
     3
 10
272.0460819999999
 20
804.85596500000008
 30
0.0
  0
VERTEX
  5
BBA
  8
0
 62
     3
 10
270.10290499999991
 20
805.96233399999994
 30
0.0
  0
VERTEX
  5
BBB
  8
0
 62
     3
 10
270.55216999999999
 20
814.28355399999998
 30
0.0
  0
SEQEND
  5
BBC
  8
0
 62
     3
  0
POLYLINE
  5
3C7
  8
0
 62
     3
 66
     1
 10
0.0
 20
0.0
 30
0.0
  0
VERTEX
  5
BBD
  8
0
 62
     3
 10
240.400612
 20
786.98996699999987
 30
0.0
  0
VERTEX
  5
BBE
  8
0
 62
     3
 10
256.40061200000002
 20
786.98996699999987
 30
0.0
  0
VERTEX
  5
BBF
  8
0
 62
     3
 10
257.40061200000002
 20
788.98996699999998
 30
0.0
  0
VERTEX
  5
BC0
  8
0
 62
     3
 10
258.40061200000002
 20
784.98996699999998
 30
0.0
  0
VERTEX
  5
BC1
  8
0
 62
     3
 10
259.40061200000002
 20
786.98996699999987
 30
0.0
  0
VERTEX
  5
BC2
  8
0
 62
     3
 10
269.07857499999989
 20
786.98996699999987
 30
0.0
  0
SEQEND
  5
BC3
  8
0
 62
     3
  0
POLYLINE
  5
3CF
  8
0
 62
     3
 66
     1
 10
0.0
 20
0.0
 30
0.0
  0
VERTEX
  5
BC4
  8
0
 62
     3
 10
240.400612
 20
781.16601600000001
 30
0.0
  0
VERTEX
  5
BC5
  8
0
 62
     3
 10
240.400612
 20
783.98997499999984
 30
0.0
  0
VERTEX
  5
BC6
  8
0
 62
     3
 10
238.400612
 20
784.98997499999984
 30
0.0
  0
VERTEX
  5
BC7
  8
0
 62
     3
 10
242.400612
 20
785.98997499999984
 30
0.0
  0
VERTEX
  5
BC8
  8
0
 62
     3
 10
240.400612
 20
786.98997499999996
 30
0.0
  0
SEQEND
  5
BC9
  8
0
 62
     3
  0
LINE
  5
3D6
  8
0
 62
     7
 10
222.91710099999989
 20
787.73156700000004
 30
0.0
 11
222.91710099999989
 21
806.73156700000015
 31
0.0
  0
LINE
  5
3D7
  8
0
  6
DASHDOT
 62
     7
 10
199.91710099999989
 20
805.73156700000015
 30
0.0
 11
199.91710099999989
 21
821.25987199999986
 31
0.0
  0
LINE
  5
3D8
  8
0
  6
DASHDOT
 62
     7
 10
202.917101
 20
805.73156700000015
 30
0.0
 11
202.917101
 21
821.25987199999986
 31
0.0
  0
LINE
  5
3D9
  8
0
 62
     7
 10
204.917101
 20
805.73156700000015
 30
0.0
 11
204.917101
 21
813.73156700000015
 31
0.0
  0
POLYLINE
  5
3DA
  8
0
 62
     3
 66
     1
 10
0.0
 20
0.0
 30
0.0
  0
VERTEX
  5
BCA
  8
0
 62
     3
 10
195.5373679999999
 20
821.01739499999985
 30
0.0
  0
VERTEX
  5
BCB
  8
0
 62
     3
 10
205.84019499999991
 20
820.88445300000001
 30
0.0
  0
VERTEX
  5
BCC
  8
0
 62
     3
 10
206.865916
 20
822.87138400000015
 30
0.0
  0
VERTEX
  5
BCD
  8
0
 62
     3
 10
207.814224
 20
818.85881799999993
 30
0.0
  0
VERTEX
  5
BCE
  8
0
 62
     3
 10
208.83994499999989
 20
820.84574899999996
 30
0.0
  0
SEQEND
  5
BCF
  8
0
 62
     3
  0
POLYLINE
  5
3E1
  8
0
 62
     3
 66
     1
 10
0.0
 20
0.0
 30
0.0
  0
VERTEX
  5
BD0
  8
0
 62
     3
 10
192.9626749999999
 20
630.06105000000002
 30
0.0
  0
VERTEX
  5
BD1
  8
0
 62
     3
 10
208.58946299999991
 20
630.78118099999995
 30
0.0
  0
VERTEX
  5
BD2
  8
0
 62
     3
 10
209.49633499999999
 20
632.82509600000003
 30
0.0
  0
VERTEX
  5
BD3
  8
0
 62
     3
 10
210.67940999999999
 20
628.87536599999999
 30
0.0
  0
VERTEX
  5
BD4
  8
0
 62
     3
 10
211.5862819999999
 20
630.91928099999996
 30
0.0
  0
SEQEND
  5
BD5
  8
0
 62
     3
  0
LINE
  5
3E8
  8
0
 62
     7
 10
204.917101
 20
813.73156700000015
 30
0.0
 11
303.16709900000001
 21
813.73156700000015
 31
0.0
  0
LINE
  5
3E9
  8
0
 62
     7
 10
304.41709900000001
 20
787.98156700000004
 30
0.0
 11
304.41709900000001
 21
812.48156700000004
 31
0.0
  0
ARC
  5
3EA
  8
0
 62
     7
 10
303.16709900000001
 20
812.48156700000004
 30
0.0
 40
1.25
 50
0.0
 51
90.000003000000007
  0
LINE
  5
3EB
  8
0
 62
     7
 10
303.41709900000001
 20
787.98156700000004
 30
0.0
 11
304.41709900000001
 21
787.98156700000004
 31
0.0
  0
LINE
  5
3EC
  8
0
 62
     7
 10
303.41709900000001
 20
786.98156700000004
 30
0.0
 11
303.41709900000001
 21
787.98156700000004
 31
0.0
  0
LINE
  5
3ED
  8
0
 62
     7
 10
255.27033199999991
 20
638.731583
 30
0.0
 11
303.16709900000001
 21
638.731583
 31
0.0
  0
LINE
  5
3EE
  8
0
 62
     7
 10
304.41709900000001
 20
639.981583
 30
0.0
 11
304.41709900000001
 21
664.981583
 31
0.0
  0
ARC
  5
3EF
  8
0
 62
     7
 10
303.16709900000001
 20
639.981583
 30
0.0
 40
1.25
 50
270.000001
 51
360.0
  0
LINE
  5
3F0
  8
0
 62
     7
 10
303.41709900000001
 20
664.981583
 30
0.0
 11
304.41709900000001
 21
664.981583
 31
0.0
  0
LINE
  5
3F1
  8
0
 62
     7
 10
303.41709900000001
 20
664.981583
 30
0.0
 11
303.41709900000001
 21
665.981583
 31
0.0
  0
CIRCLE
  5
3F2
  8
0
 62
     7
 10
140.16967
 20
801.79807300000004
 30
0.0
 40
0.3
  0
LINE
  5
3F3
  8
0
 62
     7
 10
228.7170999999999
 20
659.73156700000004
 30
0.0
 11
234.7170999999999
 21
659.73156700000004
 31
0.0
  0
LINE
  5
3F4
  8
0
 62
     7
 10
234.7170999999999
 20
649.73156700000004
 30
0.0
 11
234.7170999999999
 21
659.73156700000004
 31
0.0
  0
LINE
  5
3F5
  8
0
 62
   150
 10
228.7170999999999
 20
647.23156700000004
 30
0.0
 11
228.7170999999999
 21
662.23156700000004
 31
0.0
  0
LINE
  5
3F6
  8
0
 62
     7
 10
228.7170999999999
 20
649.73156700000004
 30
0.0
 11
234.7170999999999
 21
649.73156700000004
 31
0.0
  0
LINE
  5
3F7
  8
0
 62
     2
 10
222.91710099999989
 20
646.73156700000004
 30
0.0
 11
222.91710099999989
 21
662.73156700000004
 31
0.0
  0
LINE
  5
3F8
  8
0
 62
   150
 10
227.91710099999989
 20
647.23156700000004
 30
0.0
 11
227.91710099999989
 21
662.23156700000004
 31
0.0
  0
LINE
  5
3F9
  8
0
 62
   230
 10
226.91710099999989
 20
650.73156700000004
 30
0.0
 11
226.91710099999989
 21
658.73156700000004
 31
0.0
  0
LINE
  5
3FA
  8
0
 62
   150
 10
227.91710099999989
 20
647.23156700000004
 30
0.0
 11
228.7170999999999
 21
647.23156700000004
 31
0.0
  0
LINE
  5
3FB
  8
0
 62
   230
 10
222.91710099999989
 20
650.73156700000004
 30
0.0
 11
226.91710099999989
 21
650.73156700000004
 31
0.0
  0
LINE
  5
3FC
  8
0
 62
   230
 10
222.91710099999989
 20
658.73156700000004
 30
0.0
 11
226.91710099999989
 21
658.73156700000004
 31
0.0
  0
LINE
  5
3FD
  8
0
 62
     7
 10
226.91710099999989
 20
651.73156700000004
 30
0.0
 11
227.91710299999991
 21
651.73156700000004
 31
0.0
  0
LINE
  5
3FE
  8
0
 62
     7
 10
226.91710099999989
 20
657.73156700000004
 30
0.0
 11
227.91710099999989
 21
657.73156700000004
 31
0.0
  0
LINE
  5
3FF
  8
0
 62
   150
 10
227.91710099999989
 20
662.23156700000004
 30
0.0
 11
228.7170999999999
 21
662.23156700000004
 31
0.0
  0
LINE
  5
400
  8
0
 62
     2
 10
129.91709900000001
 20
662.73156700000004
 30
0.0
 11
155.41709900000001
 21
662.73156700000004
 31
0.0
  0
LINE
  5
401
  8
0
 62
     2
 10
129.91709900000001
 20
646.73156700000004
 30
0.0
 11
155.41709900000001
 21
646.73156700000004
 31
0.0
  0
LINE
  5
402
  8
0
 62
     7
 10
118.91709899999999
 20
643.73156700000004
 30
0.0
 11
118.91709899999999
 21
665.73156700000004
 31
0.0
  0
LINE
  5
403
  8
0
 62
     7
 10
116.41709899999989
 20
643.73156700000004
 30
0.0
 11
116.41709899999989
 21
665.73156700000004
 31
0.0
  0
LINE
  5
404
  8
0
 62
     7
 10
123.91709899999989
 20
643.73156700000004
 30
0.0
 11
123.91709899999989
 21
665.73156700000004
 31
0.0
  0
LINE
  5
405
  8
0
 62
     7
 10
121.41709899999989
 20
643.73156700000004
 30
0.0
 11
121.41709899999989
 21
665.73156700000004
 31
0.0
  0
LINE
  5
406
  8
0
 62
     3
 10
129.91709900000001
 20
643.76191700000004
 30
0.0
 11
129.91709900000001
 21
665.70121799999993
 31
0.0
  0
LINE
  5
407
  8
0
 62
     3
 10
110.41709899999989
 20
643.76191700000004
 30
0.0
 11
110.41709899999989
 21
665.70121799999993
 31
0.0
  0
LINE
  5
408
  8
0
 62
     7
 10
116.41709899999989
 20
665.73156700000004
 30
0.0
 11
118.91709899999999
 21
665.73156700000004
 31
0.0
  0
LINE
  5
409
  8
0
 62
     7
 10
116.41709899999989
 20
643.73156700000004
 30
0.0
 11
118.91709899999999
 21
643.73156700000004
 31
0.0
  0
LINE
  5
40A
  8
0
 62
     7
 10
121.41709899999989
 20
665.73156700000004
 30
0.0
 11
123.91709899999989
 21
665.73156700000004
 31
0.0
  0
LINE
  5
40B
  8
0
 62
     7
 10
121.41709899999989
 20
643.73156700000004
 30
0.0
 11
123.91709899999989
 21
643.73156700000004
 31
0.0
  0
LINE
  5
40C
  8
0
 62
     3
 10
123.91709899999989
 20
649.24673499999994
 30
0.0
 11
129.91709900000001
 21
649.24673499999994
 31
0.0
  0
LINE
  5
40D
  8
0
 62
     3
 10
123.91709899999989
 20
643.76191700000004
 30
0.0
 11
129.91709900000001
 21
643.76191700000004
 31
0.0
  0
LINE
  5
40E
  8
0
 62
     3
 10
123.91709899999989
 20
665.70121799999993
 30
0.0
 11
129.91709900000001
 21
665.70121799999993
 31
0.0
  0
LINE
  5
40F
  8
0
 62
     3
 10
123.91709899999989
 20
660.21640000000002
 30
0.0
 11
129.91709900000001
 21
660.21640000000002
 31
0.0
  0
LINE
  5
410
  8
0
 62
     3
 10
110.41709899999989
 20
649.24673499999994
 30
0.0
 11
116.41709899999989
 21
649.24673499999994
 31
0.0
  0
LINE
  5
411
  8
0
 62
     3
 10
110.41709899999989
 20
643.76191700000004
 30
0.0
 11
116.41709899999989
 21
643.76191700000004
 31
0.0
  0
LINE
  5
412
  8
0
 62
     3
 10
110.41709899999989
 20
665.70121799999993
 30
0.0
 11
116.41709899999989
 21
665.70121799999993
 31
0.0
  0
LINE
  5
413
  8
0
 62
     3
 10
110.41709899999989
 20
660.21640000000002
 30
0.0
 11
116.41709899999989
 21
660.21640000000002
 31
0.0
  0
LINE
  5
414
  8
0
 62
   230
 10
103.91709899999989
 20
648.73156700000004
 30
0.0
 11
110.41709899999989
 21
648.73156700000004
 31
0.0
  0
LINE
  5
415
  8
0
 62
   230
 10
118.91709899999999
 20
648.73156700000004
 30
0.0
 11
121.41709899999989
 21
648.73156700000004
 31
0.0
  0
LINE
  5
416
  8
0
 62
   230
 10
103.91709899999989
 20
660.73156700000004
 30
0.0
 11
110.41709899999989
 21
660.73156700000004
 31
0.0
  0
LINE
  5
417
  8
0
 62
   230
 10
118.91709899999999
 20
660.73156700000004
 30
0.0
 11
121.41709899999989
 21
660.73156700000004
 31
0.0
  0
LINE
  5
418
  8
0
 62
   230
 10
102.917107
 20
649.73155999999994
 30
0.0
 11
103.917107
 21
648.73155999999994
 31
0.0
  0
LINE
  5
419
  8
0
 62
   230
 10
103.91709899999989
 20
653.56101999999987
 30
0.0
 11
103.91709899999989
 21
654.73156700000004
 31
0.0
  0
LINE
  5
41A
  8
0
 62
   230
 10
102.91709899999989
 20
649.73156700000004
 30
0.0
 11
102.91709899999989
 21
659.73156700000004
 31
0.0
  0
LINE
  5
41B
  8
0
 62
   230
 10
102.91709899999989
 20
659.73156399999993
 30
0.0
 11
103.91709899999989
 21
660.73156399999993
 31
0.0
  0
LINE
  5
41C
  8
0
 62
   230
 10
103.91709899999989
 20
655.90211499999987
 30
0.0
 11
103.91709899999989
 21
657.02766399999985
 31
0.0
  0
LINE
  5
41D
  8
0
 62
   230
 10
103.91709899999989
 20
654.73156700000004
 30
0.0
 11
103.91709899999989
 21
655.90211499999987
 31
0.0
  0
LINE
  5
41E
  8
0
 62
   230
 10
103.91709899999989
 20
657.02766399999985
 30
0.0
 11
103.91709899999989
 21
658.06498699999997
 31
0.0
  0
LINE
  5
41F
  8
0
 62
   230
 10
103.91709899999989
 20
658.97421299999985
 30
0.0
 11
103.91709899999989
 21
659.72038299999986
 31
0.0
  0
LINE
  5
420
  8
0
 62
   230
 10
103.91709899999989
 20
659.72038299999986
 30
0.0
 11
103.91709899999989
 21
660.27484100000004
 31
0.0
  0
LINE
  5
421
  8
0
 62
   230
 10
103.91709899999989
 20
660.61627199999998
 30
0.0
 11
103.91709899999989
 21
660.73156700000004
 31
0.0
  0
LINE
  5
422
  8
0
 62
   230
 10
103.91709899999989
 20
651.39814799999988
 30
0.0
 11
103.91709899999989
 21
652.43547099999989
 31
0.0
  0
LINE
  5
423
  8
0
 62
   230
 10
103.91709899999989
 20
652.43547099999989
 30
0.0
 11
103.91709899999989
 21
653.56101999999987
 31
0.0
  0
LINE
  5
424
  8
0
 62
   230
 10
103.91709899999989
 20
658.06498699999997
 30
0.0
 11
103.91709899999989
 21
658.97421299999985
 31
0.0
  0
LINE
  5
425
  8
0
 62
   230
 10
103.91709899999989
 20
660.27484100000004
 30
0.0
 11
103.91709899999989
 21
660.61627199999998
 31
0.0
  0
LINE
  5
426
  8
0
 62
   230
 10
103.91709899999989
 20
648.73156700000004
 30
0.0
 11
103.91709899999989
 21
648.84686299999987
 31
0.0
  0
LINE
  5
427
  8
0
 62
   230
 10
103.91709899999989
 20
648.84686299999987
 30
0.0
 11
103.91709899999989
 21
649.18829299999993
 31
0.0
  0
LINE
  5
428
  8
0
 62
   230
 10
103.91709899999989
 20
649.18829299999993
 30
0.0
 11
103.91709899999989
 21
649.742752
 31
0.0
  0
LINE
  5
429
  8
0
 62
   230
 10
103.91709899999989
 20
649.742752
 30
0.0
 11
103.91709899999989
 21
650.48892199999989
 31
0.0
  0
LINE
  5
42A
  8
0
 62
   230
 10
103.91709899999989
 20
650.48892199999989
 30
0.0
 11
103.91709899999989
 21
651.39814799999988
 31
0.0
  0
LINE
  5
42B
  8
0
 62
     7
 10
102.91709899999989
 20
659.73156399999993
 30
0.0
 11
110.41709899999989
 21
659.73156399999993
 31
0.0
  0
LINE
  5
42C
  8
0
 62
     7
 10
102.91709899999989
 20
649.73156700000004
 30
0.0
 11
110.41709899999989
 21
649.73156700000004
 31
0.0
  0
LINE
  5
42D
  8
0
 62
     7
 10
118.91709899999999
 20
659.73156700000004
 30
0.0
 11
121.41709899999989
 21
659.73156700000004
 31
0.0
  0
LINE
  5
42E
  8
0
 62
     7
 10
118.91709899999999
 20
649.73156700000004
 30
0.0
 11
121.41709899999989
 21
649.73156700000004
 31
0.0
  0
LINE
  5
42F
  8
0
  6
DASHDOT
 62
     7
 10
199.91710099999989
 20
630.381531
 30
0.0
 11
199.91710099999989
 21
646.73156700000004
 31
0.0
  0
LINE
  5
430
  8
0
  6
DASHDOT
 62
     7
 10
202.917101
 20
630.51978299999996
 30
0.0
 11
202.917101
 21
646.73156700000004
 31
0.0
  0
LINE
  5
431
  8
0
 62
     7
 10
228.7170999999999
 20
802.73156700000004
 30
0.0
 11
234.7170999999999
 21
802.73156700000004
 31
0.0
  0
LINE
  5
432
  8
0
 62
     7
 10
234.7170999999999
 20
792.73156700000004
 30
0.0
 11
234.7170999999999
 21
802.73156700000004
 31
0.0
  0
LINE
  5
433
  8
0
 62
   150
 10
228.7170999999999
 20
790.23156700000015
 30
0.0
 11
228.7170999999999
 21
805.23156700000004
 31
0.0
  0
LINE
  5
434
  8
0
 62
     7
 10
228.7170999999999
 20
792.73156700000004
 30
0.0
 11
234.7170999999999
 21
792.73156700000004
 31
0.0
  0
LINE
  5
435
  8
0
 62
     2
 10
222.91710099999989
 20
789.73156700000004
 30
0.0
 11
222.91710099999989
 21
805.73156700000015
 31
0.0
  0
LINE
  5
436
  8
0
 62
   150
 10
227.91710099999989
 20
790.23156700000015
 30
0.0
 11
227.91710099999989
 21
805.23156700000004
 31
0.0
  0
LINE
  5
437
  8
0
 62
   230
 10
226.91710099999989
 20
793.73156700000004
 30
0.0
 11
226.91710099999989
 21
801.73156700000004
 31
0.0
  0
LINE
  5
438
  8
0
 62
     2
 10
174.91710099999989
 20
789.73156700000004
 30
0.0
 11
222.91710099999989
 21
789.73156700000004
 31
0.0
  0
LINE
  5
439
  8
0
 62
   150
 10
227.91710099999989
 20
790.23156700000015
 30
0.0
 11
228.7170999999999
 21
790.23156700000015
 31
0.0
  0
LINE
  5
43A
  8
0
 62
   230
 10
222.91710099999989
 20
793.73156700000004
 30
0.0
 11
226.91710099999989
 21
793.73156700000004
 31
0.0
  0
LINE
  5
43B
  8
0
 62
   230
 10
222.91710099999989
 20
801.73156700000004
 30
0.0
 11
226.91710099999989
 21
801.73156700000004
 31
0.0
  0
LINE
  5
43C
  8
0
 62
     7
 10
226.91710099999989
 20
794.73156700000004
 30
0.0
 11
227.91710299999991
 21
794.73156700000004
 31
0.0
  0
LINE
  5
43D
  8
0
 62
     7
 10
226.91710099999989
 20
800.73156700000004
 30
0.0
 11
227.91710099999989
 21
800.73156700000004
 31
0.0
  0
LINE
  5
43E
  8
0
 62
   150
 10
227.91710099999989
 20
805.23156700000004
 30
0.0
 11
228.7170999999999
 21
805.23156700000004
 31
0.0
  0
LINE
  5
43F
  8
0
 62
     2
 10
174.91710099999989
 20
805.73156700000015
 30
0.0
 11
222.91710099999989
 21
805.73156700000015
 31
0.0
  0
LINE
  5
440
  8
0
 62
     7
 10
168.91709900000001
 20
786.73156700000004
 30
0.0
 11
168.91709900000001
 21
808.73156700000004
 31
0.0
  0
LINE
  5
441
  8
0
 62
     7
 10
166.41709900000001
 20
786.73156700000004
 30
0.0
 11
166.41709900000001
 21
808.73156700000004
 31
0.0
  0
LINE
  5
442
  8
0
 62
     7
 10
163.91709900000001
 20
786.73156700000004
 30
0.0
 11
163.91709900000001
 21
808.73156700000004
 31
0.0
  0
LINE
  5
443
  8
0
 62
     7
 10
161.41709900000001
 20
786.73156700000004
 30
0.0
 11
161.41709900000001
 21
808.73156700000004
 31
0.0
  0
LINE
  5
444
  8
0
 62
     3
 10
155.41709900000001
 20
786.76191700000004
 30
0.0
 11
155.41709900000001
 21
808.70121799999981
 31
0.0
  0
LINE
  5
445
  8
0
 62
   230
 10
147.91709900000001
 20
792.73156700000004
 30
0.0
 11
147.91709900000001
 21
802.73156700000004
 31
0.0
  0
LINE
  5
446
  8
0
 62
     7
 10
166.41709900000001
 20
808.73156700000004
 30
0.0
 11
168.91709900000001
 21
808.73156700000004
 31
0.0
  0
LINE
  5
447
  8
0
 62
     7
 10
166.41709900000001
 20
786.73156700000004
 30
0.0
 11
168.91709900000001
 21
786.73156700000004
 31
0.0
  0
LINE
  5
448
  8
0
 62
     7
 10
161.41709900000001
 20
808.73156700000004
 30
0.0
 11
163.91709900000001
 21
808.73156700000004
 31
0.0
  0
LINE
  5
449
  8
0
 62
     7
 10
161.41709900000001
 20
786.73156700000004
 30
0.0
 11
163.91709900000001
 21
786.73156700000004
 31
0.0
  0
LINE
  5
44A
  8
0
 62
     3
 10
168.91709900000001
 20
792.24673499999994
 30
0.0
 11
174.91710099999989
 21
792.24673499999994
 31
0.0
  0
LINE
  5
44B
  8
0
 62
     3
 10
168.91709900000001
 20
786.76191700000004
 30
0.0
 11
174.91710099999989
 21
786.76191700000004
 31
0.0
  0
LINE
  5
44C
  8
0
 62
     3
 10
168.91709900000001
 20
808.70121799999981
 30
0.0
 11
174.91710099999989
 21
808.70121799999981
 31
0.0
  0
LINE
  5
44D
  8
0
 62
     3
 10
168.91709900000001
 20
803.21639999999991
 30
0.0
 11
174.91710099999989
 21
803.21639999999991
 31
0.0
  0
LINE
  5
44E
  8
0
 62
     3
 10
155.41709900000001
 20
792.24673499999994
 30
0.0
 11
161.41709900000001
 21
792.24673499999994
 31
0.0
  0
LINE
  5
44F
  8
0
 62
     3
 10
155.41709900000001
 20
786.76191700000004
 30
0.0
 11
161.41709900000001
 21
786.76191700000004
 31
0.0
  0
LINE
  5
450
  8
0
 62
     3
 10
155.41709900000001
 20
808.70121799999981
 30
0.0
 11
161.41709900000001
 21
808.70121799999981
 31
0.0
  0
LINE
  5
451
  8
0
 62
     3
 10
155.41709900000001
 20
803.21639999999991
 30
0.0
 11
161.41709900000001
 21
803.21639999999991
 31
0.0
  0
LINE
  5
452
  8
0
 62
   230
 10
147.917103
 20
792.73155999999994
 30
0.0
 11
148.917103
 21
791.73155999999994
 31
0.0
  0
LINE
  5
453
  8
0
 62
   230
 10
147.917103
 20
802.73156700000004
 30
0.0
 11
148.91709900000001
 21
803.73156699999993
 31
0.0
  0
LINE
  5
454
  8
0
 62
   230
 10
148.91709900000001
 20
791.73156700000004
 30
0.0
 11
155.41709900000001
 21
791.73156700000004
 31
0.0
  0
LINE
  5
455
  8
0
 62
   230
 10
163.91709900000001
 20
791.73156700000004
 30
0.0
 11
166.41709900000001
 21
791.73156700000004
 31
0.0
  0
LINE
  5
456
  8
0
 62
   230
 10
148.91709900000001
 20
791.73156700000004
 30
0.0
 11
148.91709900000001
 21
791.84686299999998
 31
0.0
  0
LINE
  5
457
  8
0
 62
   230
 10
148.91709900000001
 20
791.84686299999998
 30
0.0
 11
148.91709900000001
 21
792.18829299999993
 31
0.0
  0
LINE
  5
458
  8
0
 62
   230
 10
148.91709900000001
 20
792.18829299999993
 30
0.0
 11
148.91709900000001
 21
792.742752
 31
0.0
  0
LINE
  5
459
  8
0
 62
   230
 10
148.91709900000001
 20
792.742752
 30
0.0
 11
148.91709900000001
 21
793.488922
 31
0.0
  0
LINE
  5
45A
  8
0
 62
   230
 10
148.91709900000001
 20
793.488922
 30
0.0
 11
148.91709900000001
 21
794.39814799999988
 31
0.0
  0
LINE
  5
45B
  8
0
 62
   230
 10
148.91709900000001
 20
794.39814799999988
 30
0.0
 11
148.91709900000001
 21
795.43547100000001
 31
0.0
  0
LINE
  5
45C
  8
0
 62
   230
 10
148.91709900000001
 20
795.43547100000001
 30
0.0
 11
148.91709900000001
 21
796.56101999999998
 31
0.0
  0
LINE
  5
45D
  8
0
 62
   230
 10
148.91709900000001
 20
796.56101999999998
 30
0.0
 11
148.91709900000001
 21
797.73156700000004
 31
0.0
  0
LINE
  5
45E
  8
0
 62
   230
 10
148.91709900000001
 20
797.73156700000004
 30
0.0
 11
148.91709900000001
 21
798.90211499999998
 31
0.0
  0
LINE
  5
45F
  8
0
 62
   230
 10
148.91709900000001
 20
798.90211499999998
 30
0.0
 11
148.91709900000001
 21
800.02766399999985
 31
0.0
  0
LINE
  5
460
  8
0
 62
   230
 10
148.91709900000001
 20
800.02766399999985
 30
0.0
 11
148.91709900000001
 21
801.06498699999986
 31
0.0
  0
LINE
  5
461
  8
0
 62
   230
 10
148.91709900000001
 20
801.06498699999986
 30
0.0
 11
148.91709900000001
 21
801.97421299999985
 31
0.0
  0
LINE
  5
462
  8
0
 62
   230
 10
148.91709900000001
 20
801.97421299999985
 30
0.0
 11
148.91709900000001
 21
802.72038299999986
 31
0.0
  0
LINE
  5
463
  8
0
 62
   230
 10
148.91709900000001
 20
802.72038299999986
 30
0.0
 11
148.91709900000001
 21
803.27484099999992
 31
0.0
  0
LINE
  5
464
  8
0
 62
   230
 10
148.91709900000001
 20
803.27484099999992
 30
0.0
 11
148.91709900000001
 21
803.61627199999998
 31
0.0
  0
LINE
  5
465
  8
0
 62
   230
 10
148.91709900000001
 20
803.73156699999993
 30
0.0
 11
155.41709900000001
 21
803.73156699999993
 31
0.0
  0
LINE
  5
466
  8
0
 62
   230
 10
163.91709900000001
 20
803.73156699999993
 30
0.0
 11
166.41709900000001
 21
803.73156699999993
 31
0.0
  0
LINE
  5
467
  8
0
 62
   230
 10
148.91709900000001
 20
803.61627199999998
 30
0.0
 11
148.91709900000001
 21
803.73156699999993
 31
0.0
  0
LINE
  5
468
  8
0
 62
     2
 10
163.91709900000001
 20
805.73156700000015
 30
0.0
 11
166.41709900000001
 21
805.73156700000015
 31
0.0
  0
LINE
  5
469
  8
0
 62
     2
 10
129.91709900000001
 20
805.73156700000015
 30
0.0
 11
155.41710699999999
 21
805.73156700000015
 31
0.0
  0
LINE
  5
46A
  8
0
 62
     2
 10
163.91709900000001
 20
789.73156700000004
 30
0.0
 11
166.41709900000001
 21
789.73156700000004
 31
0.0
  0
LINE
  5
46B
  8
0
 62
     2
 10
129.91709900000001
 20
789.73156700000004
 30
0.0
 11
155.41709900000001
 21
789.73156700000004
 31
0.0
  0
LINE
  5
46C
  8
0
 62
     3
 10
174.91710099999989
 20
786.76191700000004
 30
0.0
 11
174.91710099999989
 21
808.70121799999981
 31
0.0
  0
LINE
  5
46D
  8
0
 62
     7
 10
118.91709899999999
 20
786.73156700000004
 30
0.0
 11
118.91709899999999
 21
808.73156700000004
 31
0.0
  0
LINE
  5
46E
  8
0
 62
     7
 10
116.41709899999989
 20
786.73156700000004
 30
0.0
 11
116.41709899999989
 21
808.73156700000004
 31
0.0
  0
LINE
  5
46F
  8
0
 62
     7
 10
123.91709899999989
 20
786.73156700000004
 30
0.0
 11
123.91709899999989
 21
808.73156700000004
 31
0.0
  0
LINE
  5
470
  8
0
 62
     7
 10
121.41709899999989
 20
786.73156700000004
 30
0.0
 11
121.41709899999989
 21
808.73156700000004
 31
0.0
  0
LINE
  5
471
  8
0
 62
     3
 10
129.91709900000001
 20
786.76191700000004
 30
0.0
 11
129.91709900000001
 21
808.70121799999981
 31
0.0
  0
LINE
  5
472
  8
0
 62
     3
 10
110.41709899999989
 20
786.76191700000004
 30
0.0
 11
110.41709899999989
 21
808.70121799999981
 31
0.0
  0
LINE
  5
473
  8
0
 62
     7
 10
116.41709899999989
 20
808.73156700000004
 30
0.0
 11
118.91709899999999
 21
808.73156700000004
 31
0.0
  0
LINE
  5
474
  8
0
 62
     7
 10
116.41709899999989
 20
786.73156700000004
 30
0.0
 11
118.91709899999999
 21
786.73156700000004
 31
0.0
  0
LINE
  5
475
  8
0
 62
     7
 10
121.41709899999989
 20
808.73156700000004
 30
0.0
 11
123.91709899999989
 21
808.73156700000004
 31
0.0
  0
LINE
  5
476
  8
0
 62
     7
 10
121.41709899999989
 20
786.73156700000004
 30
0.0
 11
123.91709899999989
 21
786.73156700000004
 31
0.0
  0
LINE
  5
477
  8
0
 62
     3
 10
123.91709899999989
 20
792.24673499999994
 30
0.0
 11
129.91709900000001
 21
792.24673499999994
 31
0.0
  0
LINE
  5
478
  8
0
 62
     3
 10
123.91709899999989
 20
786.76191700000004
 30
0.0
 11
129.91709900000001
 21
786.76191700000004
 31
0.0
  0
LINE
  5
479
  8
0
 62
     3
 10
123.91709899999989
 20
808.70121799999981
 30
0.0
 11
129.91709900000001
 21
808.70121799999981
 31
0.0
  0
LINE
  5
47A
  8
0
 62
     3
 10
123.91709899999989
 20
803.21639999999991
 30
0.0
 11
129.91709900000001
 21
803.21639999999991
 31
0.0
  0
LINE
  5
47B
  8
0
 62
     3
 10
110.41709899999989
 20
792.24673499999994
 30
0.0
 11
116.41709899999989
 21
792.24673499999994
 31
0.0
  0
LINE
  5
47C
  8
0
 62
     3
 10
110.41709899999989
 20
786.76191700000004
 30
0.0
 11
116.41709899999989
 21
786.76191700000004
 31
0.0
  0
LINE
  5
47D
  8
0
 62
     3
 10
110.41709899999989
 20
808.70121799999981
 30
0.0
 11
116.41709899999989
 21
808.70121799999981
 31
0.0
  0
LINE
  5
47E
  8
0
 62
     3
 10
110.41709899999989
 20
803.21639999999991
 30
0.0
 11
116.41709899999989
 21
803.21639999999991
 31
0.0
  0
LINE
  5
47F
  8
0
 62
   230
 10
103.91709899999989
 20
791.73156700000004
 30
0.0
 11
110.41709899999989
 21
791.73156700000004
 31
0.0
  0
LINE
  5
480
  8
0
 62
   230
 10
118.91709899999999
 20
791.73156700000004
 30
0.0
 11
121.41709899999989
 21
791.73156700000004
 31
0.0
  0
LINE
  5
481
  8
0
 62
   230
 10
103.91709899999989
 20
803.73156699999993
 30
0.0
 11
110.41709899999989
 21
803.73156699999993
 31
0.0
  0
LINE
  5
482
  8
0
 62
   230
 10
118.91709899999999
 20
803.73156699999993
 30
0.0
 11
121.41709899999989
 21
803.73156699999993
 31
0.0
  0
LINE
  5
483
  8
0
 62
   230
 10
102.917107
 20
792.73155999999994
 30
0.0
 11
103.917107
 21
791.73155999999994
 31
0.0
  0
LINE
  5
484
  8
0
 62
   230
 10
103.91709899999989
 20
796.56101999999998
 30
0.0
 11
103.91709899999989
 21
797.73156700000004
 31
0.0
  0
LINE
  5
485
  8
0
 62
   230
 10
102.91709899999989
 20
792.73156700000004
 30
0.0
 11
102.91709899999989
 21
802.73156700000004
 31
0.0
  0
LINE
  5
486
  8
0
 62
   230
 10
102.91709899999989
 20
802.73156700000004
 30
0.0
 11
103.91709899999989
 21
803.73156699999993
 31
0.0
  0
LINE
  5
487
  8
0
 62
   230
 10
103.91709899999989
 20
798.90211499999998
 30
0.0
 11
103.91709899999989
 21
800.02766399999985
 31
0.0
  0
LINE
  5
488
  8
0
 62
   230
 10
103.91709899999989
 20
797.73156700000004
 30
0.0
 11
103.91709899999989
 21
798.90211499999998
 31
0.0
  0
LINE
  5
489
  8
0
 62
   230
 10
103.91709899999989
 20
800.02766399999985
 30
0.0
 11
103.91709899999989
 21
801.06498699999986
 31
0.0
  0
LINE
  5
48A
  8
0
 62
   230
 10
103.91709899999989
 20
801.97421299999985
 30
0.0
 11
103.91709899999989
 21
802.72038299999986
 31
0.0
  0
LINE
  5
48B
  8
0
 62
   230
 10
103.91709899999989
 20
802.72038299999986
 30
0.0
 11
103.91709899999989
 21
803.27484099999992
 31
0.0
  0
LINE
  5
48C
  8
0
 62
   230
 10
103.91709899999989
 20
803.61627199999998
 30
0.0
 11
103.91709899999989
 21
803.73156699999993
 31
0.0
  0
LINE
  5
48D
  8
0
 62
   230
 10
103.91709899999989
 20
794.39814799999988
 30
0.0
 11
103.91709899999989
 21
795.43547100000001
 31
0.0
  0
LINE
  5
48E
  8
0
 62
   230
 10
103.91709899999989
 20
795.43547100000001
 30
0.0
 11
103.91709899999989
 21
796.56101999999998
 31
0.0
  0
LINE
  5
48F
  8
0
 62
   230
 10
103.91709899999989
 20
801.06498699999986
 30
0.0
 11
103.91709899999989
 21
801.97421299999985
 31
0.0
  0
LINE
  5
490
  8
0
 62
   230
 10
103.91709899999989
 20
803.27484099999992
 30
0.0
 11
103.91709899999989
 21
803.61627199999998
 31
0.0
  0
LINE
  5
491
  8
0
 62
   230
 10
103.91709899999989
 20
791.73156700000004
 30
0.0
 11
103.91709899999989
 21
791.84686299999998
 31
0.0
  0
LINE
  5
492
  8
0
 62
   230
 10
103.91709899999989
 20
791.84686299999998
 30
0.0
 11
103.91709899999989
 21
792.18829299999993
 31
0.0
  0
LINE
  5
493
  8
0
 62
   230
 10
103.91709899999989
 20
792.18829299999993
 30
0.0
 11
103.91709899999989
 21
792.742752
 31
0.0
  0
LINE
  5
494
  8
0
 62
   230
 10
103.91709899999989
 20
792.742752
 30
0.0
 11
103.91709899999989
 21
793.488922
 31
0.0
  0
LINE
  5
495
  8
0
 62
   230
 10
103.91709899999989
 20
793.488922
 30
0.0
 11
103.91709899999989
 21
794.39814799999988
 31
0.0
  0
LINE
  5
496
  8
0
 62
     7
 10
102.91709899999989
 20
802.73156700000004
 30
0.0
 11
110.41709899999989
 21
802.73156700000004
 31
0.0
  0
LINE
  5
497
  8
0
 62
     7
 10
102.91709899999989
 20
792.73156700000004
 30
0.0
 11
110.41709899999989
 21
792.73156700000004
 31
0.0
  0
LINE
  5
498
  8
0
 62
     7
 10
147.917103
 20
802.73156700000004
 30
0.0
 11
155.41709900000001
 21
802.73156700000004
 31
0.0
  0
LINE
  5
499
  8
0
 62
     7
 10
147.917103
 20
792.73155999999994
 30
0.0
 11
155.41709900000001
 21
792.73155999999994
 31
0.0
  0
LINE
  5
49A
  8
0
 62
     7
 10
163.91709900000001
 20
802.73156700000004
 30
0.0
 11
166.41709900000001
 21
802.73156700000004
 31
0.0
  0
LINE
  5
49B
  8
0
 62
     7
 10
163.91709900000001
 20
792.73156700000004
 30
0.0
 11
166.41709900000001
 21
792.73156700000004
 31
0.0
  0
LINE
  5
49C
  8
0
 62
     7
 10
118.91709899999999
 20
802.73156700000004
 30
0.0
 11
121.41709899999989
 21
802.73156700000004
 31
0.0
  0
LINE
  5
49D
  8
0
 62
     7
 10
118.91709899999999
 20
792.73156700000004
 30
0.0
 11
121.41709899999989
 21
792.73156700000004
 31
0.0
  0
LINE
  5
49E
  8
0
 62
     7
 10
168.91709900000001
 20
643.73156700000004
 30
0.0
 11
168.91709900000001
 21
665.73156700000004
 31
0.0
  0
LINE
  5
49F
  8
0
 62
     7
 10
166.41709900000001
 20
643.73156700000004
 30
0.0
 11
166.41709900000001
 21
665.73156700000004
 31
0.0
  0
LINE
  5
4A0
  8
0
 62
     7
 10
163.91709900000001
 20
643.73156700000004
 30
0.0
 11
163.91709900000001
 21
665.73156700000004
 31
0.0
  0
LINE
  5
4A1
  8
0
 62
     7
 10
161.41709900000001
 20
643.73156700000004
 30
0.0
 11
161.41709900000001
 21
665.73156700000004
 31
0.0
  0
LINE
  5
4A2
  8
0
 62
     3
 10
155.41709900000001
 20
643.76191700000004
 30
0.0
 11
155.41709900000001
 21
665.70121799999993
 31
0.0
  0
LINE
  5
4A3
  8
0
 62
   230
 10
147.91709900000001
 20
649.73156700000004
 30
0.0
 11
147.91709900000001
 21
659.73156700000004
 31
0.0
  0
LINE
  5
4A4
  8
0
 62
     7
 10
166.41709900000001
 20
665.73156700000004
 30
0.0
 11
168.91709900000001
 21
665.73156700000004
 31
0.0
  0
LINE
  5
4A5
  8
0
 62
     7
 10
166.41709900000001
 20
643.73156700000004
 30
0.0
 11
168.91709900000001
 21
643.73156700000004
 31
0.0
  0
LINE
  5
4A6
  8
0
 62
     7
 10
161.41709900000001
 20
665.73156700000004
 30
0.0
 11
163.91709900000001
 21
665.73156700000004
 31
0.0
  0
LINE
  5
4A7
  8
0
 62
     7
 10
161.41709900000001
 20
643.73156700000004
 30
0.0
 11
163.91709900000001
 21
643.73156700000004
 31
0.0
  0
LINE
  5
4A8
  8
0
 62
     3
 10
168.91709900000001
 20
649.24673499999994
 30
0.0
 11
174.91710099999989
 21
649.24673499999994
 31
0.0
  0
LINE
  5
4A9
  8
0
 62
     3
 10
168.91709900000001
 20
643.76191700000004
 30
0.0
 11
174.91710099999989
 21
643.76191700000004
 31
0.0
  0
LINE
  5
4AA
  8
0
 62
     3
 10
168.91709900000001
 20
665.70121799999993
 30
0.0
 11
174.91710099999989
 21
665.70121799999993
 31
0.0
  0
LINE
  5
4AB
  8
0
 62
     3
 10
168.91709900000001
 20
660.21640000000002
 30
0.0
 11
174.91710099999989
 21
660.21640000000002
 31
0.0
  0
LINE
  5
4AC
  8
0
 62
     3
 10
155.41709900000001
 20
649.24673499999994
 30
0.0
 11
161.41709900000001
 21
649.24673499999994
 31
0.0
  0
LINE
  5
4AD
  8
0
 62
     3
 10
155.41709900000001
 20
643.76191700000004
 30
0.0
 11
161.41709900000001
 21
643.76191700000004
 31
0.0
  0
LINE
  5
4AE
  8
0
 62
     3
 10
155.41709900000001
 20
665.70121799999993
 30
0.0
 11
161.41709900000001
 21
665.70121799999993
 31
0.0
  0
LINE
  5
4AF
  8
0
 62
     3
 10
155.41709900000001
 20
660.21640000000002
 30
0.0
 11
161.41709900000001
 21
660.21640000000002
 31
0.0
  0
LINE
  5
4B0
  8
0
 62
   230
 10
147.917103
 20
649.73155999999994
 30
0.0
 11
148.917103
 21
648.73155999999994
 31
0.0
  0
LINE
  5
4B1
  8
0
 62
   230
 10
147.917103
 20
659.73156399999993
 30
0.0
 11
148.91709900000001
 21
660.73156399999993
 31
0.0
  0
LINE
  5
4B2
  8
0
 62
   230
 10
148.91709900000001
 20
648.73156700000004
 30
0.0
 11
155.41709900000001
 21
648.73156700000004
 31
0.0
  0
LINE
  5
4B3
  8
0
 62
   230
 10
163.91709900000001
 20
648.73156700000004
 30
0.0
 11
166.41709900000001
 21
648.73156700000004
 31
0.0
  0
LINE
  5
4B4
  8
0
 62
   230
 10
148.91709900000001
 20
648.73156700000004
 30
0.0
 11
148.91709900000001
 21
648.84686299999987
 31
0.0
  0
LINE
  5
4B5
  8
0
 62
   230
 10
148.91709900000001
 20
648.84686299999987
 30
0.0
 11
148.91709900000001
 21
649.18829299999993
 31
0.0
  0
LINE
  5
4B6
  8
0
 62
   230
 10
148.91709900000001
 20
649.18829299999993
 30
0.0
 11
148.91709900000001
 21
649.742752
 31
0.0
  0
LINE
  5
4B7
  8
0
 62
   230
 10
148.91709900000001
 20
649.742752
 30
0.0
 11
148.91709900000001
 21
650.48892199999989
 31
0.0
  0
LINE
  5
4B8
  8
0
 62
   230
 10
148.91709900000001
 20
650.48892199999989
 30
0.0
 11
148.91709900000001
 21
651.39814799999988
 31
0.0
  0
LINE
  5
4B9
  8
0
 62
   230
 10
148.91709900000001
 20
651.39814799999988
 30
0.0
 11
148.91709900000001
 21
652.43547099999989
 31
0.0
  0
LINE
  5
4BA
  8
0
 62
   230
 10
148.91709900000001
 20
652.43547099999989
 30
0.0
 11
148.91709900000001
 21
653.56101999999987
 31
0.0
  0
LINE
  5
4BB
  8
0
 62
   230
 10
148.91709900000001
 20
653.56101999999987
 30
0.0
 11
148.91709900000001
 21
654.73156700000004
 31
0.0
  0
LINE
  5
4BC
  8
0
 62
   230
 10
148.91709900000001
 20
654.73156700000004
 30
0.0
 11
148.91709900000001
 21
655.90211499999987
 31
0.0
  0
LINE
  5
4BD
  8
0
 62
   230
 10
148.91709900000001
 20
655.90211499999987
 30
0.0
 11
148.91709900000001
 21
657.02766399999985
 31
0.0
  0
LINE
  5
4BE
  8
0
 62
   230
 10
148.91709900000001
 20
657.02766399999985
 30
0.0
 11
148.91709900000001
 21
658.06498699999997
 31
0.0
  0
LINE
  5
4BF
  8
0
 62
   230
 10
148.91709900000001
 20
658.06498699999997
 30
0.0
 11
148.91709900000001
 21
658.97421299999985
 31
0.0
  0
LINE
  5
4C0
  8
0
 62
   230
 10
148.91709900000001
 20
658.97421299999985
 30
0.0
 11
148.91709900000001
 21
659.72038299999986
 31
0.0
  0
LINE
  5
4C1
  8
0
 62
   230
 10
148.91709900000001
 20
659.72038299999986
 30
0.0
 11
148.91709900000001
 21
660.27484100000004
 31
0.0
  0
LINE
  5
4C2
  8
0
 62
   230
 10
148.91709900000001
 20
660.27484100000004
 30
0.0
 11
148.91709900000001
 21
660.61627199999998
 31
0.0
  0
LINE
  5
4C3
  8
0
 62
   230
 10
148.91709900000001
 20
660.73156700000004
 30
0.0
 11
155.41709900000001
 21
660.73156700000004
 31
0.0
  0
LINE
  5
4C4
  8
0
 62
   230
 10
163.91709900000001
 20
660.73156700000004
 30
0.0
 11
166.41709900000001
 21
660.73156700000004
 31
0.0
  0
LINE
  5
4C5
  8
0
 62
   230
 10
148.91709900000001
 20
660.61627199999998
 30
0.0
 11
148.91709900000001
 21
660.73156700000004
 31
0.0
  0
LINE
  5
4C6
  8
0
 62
     2
 10
163.91709900000001
 20
662.73156700000004
 30
0.0
 11
166.41709900000001
 21
662.73156700000004
 31
0.0
  0
LINE
  5
4C7
  8
0
 62
     2
 10
163.91709900000001
 20
646.73156700000004
 30
0.0
 11
166.41709900000001
 21
646.73156700000004
 31
0.0
  0
LINE
  5
4C8
  8
0
 62
     3
 10
174.91710099999989
 20
643.76191700000004
 30
0.0
 11
174.91710099999989
 21
665.70121799999993
 31
0.0
  0
LINE
  5
4C9
  8
0
 62
     7
 10
147.917103
 20
659.73156399999993
 30
0.0
 11
155.41709900000001
 21
659.73156399999993
 31
0.0
  0
LINE
  5
4CA
  8
0
 62
     7
 10
147.917103
 20
649.73155999999994
 30
0.0
 11
155.41709900000001
 21
649.73155999999994
 31
0.0
  0
LINE
  5
4CB
  8
0
 62
     7
 10
163.91709900000001
 20
659.73156700000004
 30
0.0
 11
166.41709900000001
 21
659.73156700000004
 31
0.0
  0
LINE
  5
4CC
  8
0
 62
     7
 10
163.91709900000001
 20
649.73156700000004
 30
0.0
 11
166.41709900000001
 21
649.73156700000004
 31
0.0
  0
LINE
  5
4CD
  8
0
 62
     2
 10
174.91710099999989
 20
662.73156700000004
 30
0.0
 11
222.91710099999989
 21
662.73156700000004
 31
0.0
  0
LINE
  5
4CE
  8
0
 62
     2
 10
174.91710099999989
 20
646.73156700000004
 30
0.0
 11
222.91710099999989
 21
646.73156700000004
 31
0.0
  0
LINE
  5
4CF
  8
0
 62
     7
 10
356.39292899999992
 20
671.481583
 30
0.0
 11
357.43482999999998
 21
677.39042699999993
 31
0.0
  0
LINE
  5
4D0
  8
0
 62
     7
 10
356.39292899999992
 20
671.481583
 30
0.0
 11
355.35102799999993
 21
677.39042699999993
 31
0.0
  0
LINE
  5
4D1
  8
0
 62
     7
 10
356.39296000000002
 20
776.48158299999989
 30
0.0
 11
355.35105899999991
 21
770.57273499999997
 31
0.0
  0
LINE
  5
4D2
  8
0
 62
     7
 10
356.39296000000002
 20
776.48158299999989
 30
0.0
 11
357.43486000000001
 21
770.57273499999997
 31
0.0
  0
LINE
  5
4D3
  8
0
 62
     7
 10
356.39292899999992
 20
671.481583
 30
0.0
 11
356.39296000000002
 21
776.48158299999989
 31
0.0
  0
LINE
  5
4D4
  8
0
 62
     7
 10
360.39292899999992
 20
671.481583
 30
0.0
 11
309.91828900000002
 21
671.48159799999996
 31
0.0
  0
LINE
  5
4D5
  8
0
 62
     7
 10
360.39296000000002
 20
776.48158299999989
 30
0.0
 11
309.91828900000002
 21
776.48159399999997
 31
0.0
  0
LINE
  5
4D6
  8
0
 62
     7
 10
69.303832999999983
 20
654.73159799999996
 30
0.0
 11
70.345718000000005
 21
660.64044200000001
 31
0.0
  0
LINE
  5
4D7
  8
0
 62
     7
 10
69.303832999999983
 20
654.73159799999996
 30
0.0
 11
68.261948000000004
 21
660.64044200000001
 31
0.0
  0
LINE
  5
4D8
  8
0
 62
     7
 10
69.303879000000009
 20
797.73159800000008
 30
0.0
 11
68.261977999999999
 21
791.82275400000003
 31
0.0
  0
LINE
  5
4D9
  8
0
 62
     7
 10
69.303879000000009
 20
797.73159800000008
 30
0.0
 11
70.345764000000003
 21
791.82275400000003
 31
0.0
  0
LINE
  5
4DA
  8
0
 62
     7
 10
69.303832999999983
 20
654.73159799999996
 30
0.0
 11
69.303879000000009
 21
797.73159800000008
 31
0.0
  0
LINE
  5
4DB
  8
0
 62
     7
 10
65.303832999999997
 20
654.73159799999996
 30
0.0
 11
217.59005699999989
 21
654.73155999999994
 31
0.0
  0
LINE
  5
4DC
  8
0
 62
     7
 10
65.303878999999995
 20
797.73159800000008
 30
0.0
 11
217.59010299999991
 21
797.73155999999994
 31
0.0
  0
LINE
  5
4DD
  8
0
 62
     5
 10
84.377395999999976
 20
723.98156399999993
 30
0.0
 11
85.419281000000012
 21
729.89041100000009
 31
0.0
  0
LINE
  5
4DE
  8
0
 62
     5
 10
84.377395999999976
 20
723.98156399999993
 30
0.0
 11
83.335503000000003
 21
729.89041100000009
 31
0.0
  0
LINE
  5
4DF
  8
0
 62
     5
 10
84.377418999999975
 20
797.73156700000004
 30
0.0
 11
83.335526000000002
 21
791.822723
 31
0.0
  0
LINE
  5
4E0
  8
0
 62
     5
 10
84.377418999999975
 20
797.73156700000004
 30
0.0
 11
85.419303999999997
 21
791.822723
 31
0.0
  0
LINE
  5
4E1
  8
0
 62
     5
 10
84.377395999999976
 20
723.98156399999993
 30
0.0
 11
84.377418999999975
 21
797.73155999999994
 31
0.0
  0
LINE
  5
4E2
  8
0
 62
     5
 10
80.377396000000005
 20
723.98156700000004
 30
0.0
 11
182.23840300000001
 21
723.981537
 31
0.0
  0
LINE
  5
4E3
  8
0
 62
     5
 10
80.377418999999975
 20
797.73156700000004
 30
0.0
 11
217.59010299999991
 21
797.73152900000002
 31
0.0
  0
LINE
  5
4E4
  8
0
 62
     7
 10
202.91709899999989
 20
839.72682199999997
 30
0.0
 11
208.82594299999991
 21
838.68493699999999
 31
0.0
  0
LINE
  5
4E5
  8
0
 62
     7
 10
202.91709899999989
 20
839.72682199999997
 30
0.0
 11
208.82594299999991
 21
840.76871500000004
 31
0.0
  0
LINE
  5
4E6
  8
0
 62
     7
 10
227.91709900000001
 20
839.72682199999997
 30
0.0
 11
222.00825499999991
 21
840.76870700000006
 31
0.0
  0
LINE
  5
4E7
  8
0
 62
     7
 10
227.91709900000001
 20
839.72682199999997
 30
0.0
 11
222.00825499999991
 21
838.68492900000001
 31
0.0
  0
LINE
  5
4E8
  8
0
 62
     7
 10
202.91709899999989
 20
839.72682199999997
 30
0.0
 11
227.91709900000001
 21
839.72682199999997
 31
0.0
  0
LINE
  5
4E9
  8
0
 62
     7
 10
202.91709899999989
 20
843.72682200000008
 30
0.0
 11
202.91709899999989
 21
821.25987199999986
 31
0.0
  0
LINE
  5
4EA
  8
0
 62
     7
 10
227.91709900000001
 20
843.72682200000008
 30
0.0
 11
227.91709900000001
 21
805.23156700000004
 31
0.0
  0
LINE
  5
4EB
  8
0
 62
     7
 10
202.91709899999989
 20
856.89144899999985
 30
0.0
 11
208.82594299999991
 21
855.84956400000021
 31
0.0
  0
LINE
  5
4EC
  8
0
 62
     7
 10
202.91709899999989
 20
856.89144899999985
 30
0.0
 11
208.82594299999991
 21
857.93335000000002
 31
0.0
  0
LINE
  5
4ED
  8
0
 62
     7
 10
304.41709900000001
 20
856.89144899999985
 30
0.0
 11
298.50825499999991
 21
857.93333399999995
 31
0.0
  0
LINE
  5
4EE
  8
0
 62
     7
 10
304.41709900000001
 20
856.89144899999985
 30
0.0
 11
298.50825499999991
 21
855.84954800000014
 31
0.0
  0
LINE
  5
4EF
  8
0
 62
     7
 10
202.91709899999989
 20
856.89144899999985
 30
0.0
 11
304.41709900000001
 21
856.89144899999985
 31
0.0
  0
LINE
  5
4F0
  8
0
 62
     7
 10
202.91709899999989
 20
860.89144899999997
 30
0.0
 11
202.91709899999989
 21
821.25987199999986
 31
0.0
  0
LINE
  5
4F1
  8
0
 62
     7
 10
304.41709900000001
 20
860.89144899999997
 30
0.0
 11
304.41709900000001
 21
786.98156700000004
 31
0.0
  0
LINE
  5
4F2
  8
0
 62
     7
 10
202.91709899999989
 20
612.84695399999998
 30
0.0
 11
208.82594299999991
 21
611.805069
 31
0.0
  0
LINE
  5
4F3
  8
0
 62
     7
 10
202.91709899999989
 20
612.84695399999998
 30
0.0
 11
208.82594299999991
 21
613.88883999999996
 31
0.0
  0
LINE
  5
4F4
  8
0
 62
     7
 10
222.91709900000001
 20
612.84695399999998
 30
0.0
 11
217.00825499999999
 21
613.88883999999996
 31
0.0
  0
LINE
  5
4F5
  8
0
 62
     7
 10
222.91709900000001
 20
612.84695399999998
 30
0.0
 11
217.00825499999999
 21
611.805069
 31
0.0
  0
LINE
  5
4F6
  8
0
 62
     7
 10
227.91709900000001
 20
612.84695399999998
 30
0.0
 11
233.825943
 21
611.805069
 31
0.0
  0
LINE
  5
4F7
  8
0
 62
     7
 10
227.91709900000001
 20
612.84695399999998
 30
0.0
 11
233.825943
 21
613.88883999999996
 31
0.0
  0
LINE
  5
4F8
  8
0
 62
     7
 10
185.91709900000001
 20
612.84695399999998
 30
0.0
 11
239.41709900000001
 21
612.84695399999998
 31
0.0
  0
LINE
  5
4F9
  8
0
 62
     7
 10
202.91709899999989
 20
608.84695399999998
 30
0.0
 11
202.91709899999989
 21
662.73156700000004
 31
0.0
  0
LINE
  5
4FA
  8
0
 62
     7
 10
222.91709900000001
 20
608.84695399999998
 30
0.0
 11
222.91709900000001
 21
645.73158299999989
 31
0.0
  0
LINE
  5
4FB
  8
0
 62
     7
 10
227.91709900000001
 20
608.84695399999998
 30
0.0
 11
227.91709900000001
 21
645.73158299999989
 31
0.0
  0
LINE
  5
4FC
  8
0
 62
     7
 10
199.91709900000001
 20
596.41841099999988
 30
0.0
 11
194.00825499999991
 21
597.46029699999985
 31
0.0
  0
LINE
  5
4FD
  8
0
 62
     7
 10
199.91709900000001
 20
596.41841099999988
 30
0.0
 11
194.00825499999991
 21
595.3765259999999
 31
0.0
  0
LINE
  5
4FE
  8
0
 62
     7
 10
202.91709899999989
 20
596.41841099999988
 30
0.0
 11
208.82594299999991
 21
595.3765259999999
 31
0.0
  0
LINE
  5
4FF
  8
0
 62
     7
 10
202.91709899999989
 20
596.41841099999988
 30
0.0
 11
208.82594299999991
 21
597.46029699999985
 31
0.0
  0
LINE
  5
500
  8
0
 62
     7
 10
306.41841099999988
 20
596.41841099999988
 30
0.0
 11
300.509567
 21
597.46029699999985
 31
0.0
  0
LINE
  5
501
  8
0
 62
     7
 10
306.41841099999988
 20
596.41841099999988
 30
0.0
 11
300.509567
 21
595.3765259999999
 31
0.0
  0
LINE
  5
502
  8
0
 62
     7
 10
182.91709900000001
 20
596.41841099999988
 30
0.0
 11
306.41841099999988
 21
596.41841099999988
 31
0.0
  0
LINE
  5
503
  8
0
 62
     7
 10
199.91709900000001
 20
592.41841099999988
 30
0.0
 11
199.91709900000001
 21
662.73156700000004
 31
0.0
  0
LINE
  5
504
  8
0
 62
     7
 10
202.91709899999989
 20
592.41841099999988
 30
0.0
 11
202.91709899999989
 21
662.73156700000004
 31
0.0
  0
LINE
  5
505
  8
0
 62
     7
 10
306.41841099999988
 20
592.41841099999988
 30
0.0
 11
306.41841099999988
 21
671.48156700000004
 31
0.0
  0
LINE
  5
506
  8
0
 62
     7
 10
202.91709899999989
 20
580.91507000000001
 30
0.0
 11
208.82594299999991
 21
579.87318400000004
 31
0.0
  0
LINE
  5
507
  8
0
 62
     7
 10
202.91709899999989
 20
580.91507000000001
 30
0.0
 11
208.82594299999991
 21
581.95695499999988
 31
0.0
  0
LINE
  5
508
  8
0
 62
     7
 10
309.91825899999992
 20
580.91507000000001
 30
0.0
 11
304.00941499999988
 21
581.95695499999988
 31
0.0
  0
LINE
  5
509
  8
0
 62
     7
 10
309.91825899999992
 20
580.91507000000001
 30
0.0
 11
304.00941499999988
 21
579.87318400000004
 31
0.0
  0
LINE
  5
50A
  8
0
 62
     7
 10
311.91825899999992
 20
580.91507000000001
 30
0.0
 11
317.82710299999991
 21
579.87318400000004
 31
0.0
  0
LINE
  5
50B
  8
0
 62
     7
 10
311.91825899999992
 20
580.91507000000001
 30
0.0
 11
317.82710299999991
 21
581.95695499999988
 31
0.0
  0
LINE
  5
50C
  8
0
 62
     7
 10
202.91709899999989
 20
580.91507000000001
 30
0.0
 11
323.41825899999992
 21
580.91507000000001
 31
0.0
  0
LINE
  5
50D
  8
0
 62
     7
 10
202.91709899999989
 20
576.9150699999999
 30
0.0
 11
202.91709899999989
 21
662.73156700000004
 31
0.0
  0
LINE
  5
50E
  8
0
 62
     7
 10
309.91825899999992
 20
576.9150699999999
 30
0.0
 11
309.91825899999992
 21
596.06944299999998
 31
0.0
  0
LINE
  5
50F
  8
0
 62
     7
 10
311.91825899999992
 20
576.9150699999999
 30
0.0
 11
311.91825899999992
 21
597.50869800000009
 31
0.0
  0
LINE
  5
510
  8
0
 62
     7
 10
202.91709899999989
 20
565.49137900000005
 30
0.0
 11
208.82594299999991
 21
564.44949299999985
 31
0.0
  0
LINE
  5
511
  8
0
 62
     7
 10
202.91709899999989
 20
565.49137900000005
 30
0.0
 11
208.82594299999991
 21
566.53326399999992
 31
0.0
  0
LINE
  5
512
  8
0
 62
     7
 10
337.96217300000001
 20
565.49137900000005
 30
0.0
 11
332.05332900000002
 21
566.53326399999992
 31
0.0
  0
LINE
  5
513
  8
0
 62
     7
 10
337.96217300000001
 20
565.49137900000005
 30
0.0
 11
332.05332900000002
 21
564.44949299999985
 31
0.0
  0
LINE
  5
514
  8
0
 62
     7
 10
202.91709899999989
 20
565.49137900000005
 30
0.0
 11
337.96217300000001
 21
565.49137900000005
 31
0.0
  0
LINE
  5
515
  8
0
 62
     7
 10
202.91709899999989
 20
561.49137900000005
 30
0.0
 11
202.91709899999989
 21
662.73156700000004
 31
0.0
  0
LINE
  5
516
  8
0
 62
     7
 10
337.96217300000001
 20
561.49137900000005
 30
0.0
 11
337.96217300000001
 21
713.73156700000004
 31
0.0
  0
LINE
  5
517
  8
0
  6
DASHDOT
 62
     7
 10
584.61798099999987
 20
842.80254399999978
 30
0.0
 11
584.61798099999987
 21
599.91991399999995
 31
0.0
  0
LINE
  5
518
  8
0
  6
DASHDOT
 62
     7
 10
614.57110599999999
 20
795.73156700000004
 30
0.0
 11
550.41342899999995
 21
795.73156700000004
 31
0.0
  0
LINE
  5
519
  8
0
  6
DASHDOT
 62
     7
 10
610.69344499999988
 20
656.73156700000004
 30
0.0
 11
550.41342899999995
 21
656.73156700000004
 31
0.0
  0
LINE
  5
51A
  8
0
  6
DASHDOT
 62
     7
 10
567.11798099999987
 20
807.55107099999987
 30
0.0
 11
567.11798099999987
 21
640.10658999999987
 31
0.0
  0
LINE
  5
51B
  8
0
  6
DASHDOT
 62
     7
 10
602.11798099999987
 20
808.96112799999992
 30
0.0
 11
602.11798099999987
 21
641.164131
 31
0.0
  0
POLYLINE
  5
51C
  8
0
 62
     3
 66
     1
 10
0.0
 20
0.0
 30
0.0
  0
VERTEX
  5
BD6
  8
0
 62
     3
 10
532.11798099999999
 20
837.16230800000005
 30
0.0
  0
VERTEX
  5
BD7
  8
0
 62
     3
 10
532.11798099999999
 20
821.16230800000005
 30
0.0
  0
VERTEX
  5
BD8
  8
0
 62
     3
 10
534.11798099999987
 20
820.16230800000005
 30
0.0
  0
VERTEX
  5
BD9
  8
0
 62
     3
 10
530.11798099999987
 20
819.16230800000005
 30
0.0
  0
VERTEX
  5
BDA
  8
0
 62
     3
 10
532.11798099999999
 20
818.16230800000005
 30
0.0
  0
VERTEX
  5
BDB
  8
0
 62
     3
 10
532.11798099999999
 20
802.16230800000005
 30
0.0
  0
VERTEX
  5
BDC
  8
0
 62
     3
 10
534.11798099999987
 20
801.16230800000005
 30
0.0
  0
VERTEX
  5
BDD
  8
0
 62
     3
 10
530.11798099999987
 20
800.16230799999994
 30
0.0
  0
VERTEX
  5
BDE
  8
0
 62
     3
 10
532.11798099999999
 20
799.16230800000005
 30
0.0
  0
VERTEX
  5
BDF
  8
0
 62
     3
 10
532.11798099999999
 20
783.16230800000005
 30
0.0
  0
VERTEX
  5
BE0
  8
0
 62
     3
 10
534.11798099999987
 20
782.16230800000005
 30
0.0
  0
VERTEX
  5
BE1
  8
0
 62
     3
 10
530.11798099999987
 20
781.16230800000005
 30
0.0
  0
VERTEX
  5
BE2
  8
0
 62
     3
 10
532.11798099999999
 20
780.16230800000005
 30
0.0
  0
VERTEX
  5
BE3
  8
0
 62
     3
 10
532.11798099999999
 20
764.16230800000005
 30
0.0
  0
VERTEX
  5
BE4
  8
0
 62
     3
 10
534.11798099999987
 20
763.16230800000005
 30
0.0
  0
VERTEX
  5
BE5
  8
0
 62
     3
 10
530.11798099999987
 20
762.16230800000005
 30
0.0
  0
VERTEX
  5
BE6
  8
0
 62
     3
 10
532.11798099999999
 20
761.16230800000005
 30
0.0
  0
VERTEX
  5
BE7
  8
0
 62
     3
 10
532.11798099999999
 20
745.16230800000005
 30
0.0
  0
VERTEX
  5
BE8
  8
0
 62
     3
 10
534.11798099999987
 20
744.16230800000005
 30
0.0
  0
VERTEX
  5
BE9
  8
0
 62
     3
 10
530.11798099999987
 20
743.16230800000005
 30
0.0
  0
VERTEX
  5
BEA
  8
0
 62
     3
 10
532.11798099999999
 20
742.16230800000005
 30
0.0
  0
VERTEX
  5
BEB
  8
0
 62
     3
 10
532.11798099999999
 20
726.16230800000005
 30
0.0
  0
VERTEX
  5
BEC
  8
0
 62
     3
 10
534.11798099999987
 20
725.16230800000005
 30
0.0
  0
VERTEX
  5
BED
  8
0
 62
     3
 10
530.11798099999987
 20
724.16230800000005
 30
0.0
  0
VERTEX
  5
BEE
  8
0
 62
     3
 10
532.11798099999999
 20
723.16230800000005
 30
0.0
  0
VERTEX
  5
BEF
  8
0
 62
     3
 10
532.11798099999999
 20
707.16230800000005
 30
0.0
  0
VERTEX
  5
BF0
  8
0
 62
     3
 10
534.11798099999987
 20
706.16230800000005
 30
0.0
  0
VERTEX
  5
BF1
  8
0
 62
     3
 10
530.11798099999987
 20
705.16230800000005
 30
0.0
  0
VERTEX
  5
BF2
  8
0
 62
     3
 10
532.11798099999999
 20
704.16230800000005
 30
0.0
  0
VERTEX
  5
BF3
  8
0
 62
     3
 10
532.11798099999999
 20
688.16230800000005
 30
0.0
  0
VERTEX
  5
BF4
  8
0
 62
     3
 10
534.11798099999987
 20
687.16230800000005
 30
0.0
  0
VERTEX
  5
BF5
  8
0
 62
     3
 10
530.11798099999987
 20
686.16230800000005
 30
0.0
  0
VERTEX
  5
BF6
  8
0
 62
     3
 10
532.11798099999999
 20
685.16230800000005
 30
0.0
  0
VERTEX
  5
BF7
  8
0
 62
     3
 10
532.11798099999999
 20
669.16230800000005
 30
0.0
  0
VERTEX
  5
BF8
  8
0
 62
     3
 10
534.11798099999987
 20
668.16230800000005
 30
0.0
  0
VERTEX
  5
BF9
  8
0
 62
     3
 10
530.11798099999987
 20
667.16230800000005
 30
0.0
  0
VERTEX
  5
BFA
  8
0
 62
     3
 10
532.11798099999999
 20
666.16230800000005
 30
0.0
  0
VERTEX
  5
BFB
  8
0
 62
     3
 10
532.11798099999999
 20
650.16230800000005
 30
0.0
  0
VERTEX
  5
BFC
  8
0
 62
     3
 10
534.11798099999987
 20
649.16230800000005
 30
0.0
  0
VERTEX
  5
BFD
  8
0
 62
     3
 10
530.11798099999987
 20
648.16230800000005
 30
0.0
  0
VERTEX
  5
BFE
  8
0
 62
     3
 10
532.11798099999999
 20
647.16230800000005
 30
0.0
  0
VERTEX
  5
BFF
  8
0
 62
     3
 10
532.11798099999999
 20
631.16230800000005
 30
0.0
  0
VERTEX
  5
C00
  8
0
 62
     3
 10
534.11798099999987
 20
630.16230800000005
 30
0.0
  0
VERTEX
  5
C01
  8
0
 62
     3
 10
530.11798099999987
 20
629.16230800000005
 30
0.0
  0
VERTEX
  5
C02
  8
0
 62
     3
 10
532.11798099999999
 20
628.16230800000005
 30
0.0
  0
VERTEX
  5
C03
  8
0
 62
     3
 10
532.11798099999999
 20
613.66798399999993
 30
0.0
  0
SEQEND
  5
C04
  8
0
 62
     3
  0
POLYLINE
  5
54C
  8
0
 62
     3
 66
     1
 10
0.0
 20
0.0
 30
0.0
  0
VERTEX
  5
C05
  8
0
 62
     3
 10
637.11798099999999
 20
837.16230800000005
 30
0.0
  0
VERTEX
  5
C06
  8
0
 62
     3
 10
637.11798099999999
 20
821.16230800000005
 30
0.0
  0
VERTEX
  5
C07
  8
0
 62
     3
 10
639.11798099999987
 20
820.16230800000005
 30
0.0
  0
VERTEX
  5
C08
  8
0
 62
     3
 10
635.11798099999987
 20
819.16230800000005
 30
0.0
  0
VERTEX
  5
C09
  8
0
 62
     3
 10
637.11798099999999
 20
818.16230800000005
 30
0.0
  0
VERTEX
  5
C0A
  8
0
 62
     3
 10
637.11798099999999
 20
802.16230800000005
 30
0.0
  0
VERTEX
  5
C0B
  8
0
 62
     3
 10
639.11798099999987
 20
801.16230800000005
 30
0.0
  0
VERTEX
  5
C0C
  8
0
 62
     3
 10
635.11798099999987
 20
800.16230799999994
 30
0.0
  0
VERTEX
  5
C0D
  8
0
 62
     3
 10
637.11798099999999
 20
799.16230800000005
 30
0.0
  0
VERTEX
  5
C0E
  8
0
 62
     3
 10
637.11798099999999
 20
783.16230800000005
 30
0.0
  0
VERTEX
  5
C0F
  8
0
 62
     3
 10
639.11798099999987
 20
782.16230800000005
 30
0.0
  0
VERTEX
  5
C10
  8
0
 62
     3
 10
635.11798099999987
 20
781.16230800000005
 30
0.0
  0
VERTEX
  5
C11
  8
0
 62
     3
 10
637.11798099999999
 20
780.16230800000005
 30
0.0
  0
VERTEX
  5
C12
  8
0
 62
     3
 10
637.11798099999999
 20
764.16230800000005
 30
0.0
  0
VERTEX
  5
C13
  8
0
 62
     3
 10
639.11798099999987
 20
763.16230800000005
 30
0.0
  0
VERTEX
  5
C14
  8
0
 62
     3
 10
635.11798099999987
 20
762.16230800000005
 30
0.0
  0
VERTEX
  5
C15
  8
0
 62
     3
 10
637.11798099999999
 20
761.16230800000005
 30
0.0
  0
VERTEX
  5
C16
  8
0
 62
     3
 10
637.11798099999999
 20
745.16230800000005
 30
0.0
  0
VERTEX
  5
C17
  8
0
 62
     3
 10
639.11798099999987
 20
744.16230800000005
 30
0.0
  0
VERTEX
  5
C18
  8
0
 62
     3
 10
635.11798099999987
 20
743.16230800000005
 30
0.0
  0
VERTEX
  5
C19
  8
0
 62
     3
 10
637.11798099999999
 20
742.16230800000005
 30
0.0
  0
VERTEX
  5
C1A
  8
0
 62
     3
 10
637.11798099999999
 20
726.16230800000005
 30
0.0
  0
VERTEX
  5
C1B
  8
0
 62
     3
 10
639.11798099999987
 20
725.16230800000005
 30
0.0
  0
VERTEX
  5
C1C
  8
0
 62
     3
 10
635.11798099999987
 20
724.16230800000005
 30
0.0
  0
VERTEX
  5
C1D
  8
0
 62
     3
 10
637.11798099999999
 20
723.16230800000005
 30
0.0
  0
VERTEX
  5
C1E
  8
0
 62
     3
 10
637.11798099999999
 20
707.16230800000005
 30
0.0
  0
VERTEX
  5
C1F
  8
0
 62
     3
 10
639.11798099999987
 20
706.16230800000005
 30
0.0
  0
VERTEX
  5
C20
  8
0
 62
     3
 10
635.11798099999987
 20
705.16230800000005
 30
0.0
  0
VERTEX
  5
C21
  8
0
 62
     3
 10
637.11798099999999
 20
704.16230800000005
 30
0.0
  0
VERTEX
  5
C22
  8
0
 62
     3
 10
637.11798099999999
 20
688.16230800000005
 30
0.0
  0
VERTEX
  5
C23
  8
0
 62
     3
 10
639.11798099999987
 20
687.16230800000005
 30
0.0
  0
VERTEX
  5
C24
  8
0
 62
     3
 10
635.11798099999987
 20
686.16230800000005
 30
0.0
  0
VERTEX
  5
C25
  8
0
 62
     3
 10
637.11798099999999
 20
685.16230800000005
 30
0.0
  0
VERTEX
  5
C26
  8
0
 62
     3
 10
637.11798099999999
 20
669.16230800000005
 30
0.0
  0
VERTEX
  5
C27
  8
0
 62
     3
 10
639.11798099999987
 20
668.16230800000005
 30
0.0
  0
VERTEX
  5
C28
  8
0
 62
     3
 10
635.11798099999987
 20
667.16230800000005
 30
0.0
  0
VERTEX
  5
C29
  8
0
 62
     3
 10
637.11798099999999
 20
666.16230800000005
 30
0.0
  0
VERTEX
  5
C2A
  8
0
 62
     3
 10
637.11798099999999
 20
650.16230800000005
 30
0.0
  0
VERTEX
  5
C2B
  8
0
 62
     3
 10
639.11798099999987
 20
649.16230800000005
 30
0.0
  0
VERTEX
  5
C2C
  8
0
 62
     3
 10
635.11798099999987
 20
648.16230800000005
 30
0.0
  0
VERTEX
  5
C2D
  8
0
 62
     3
 10
637.11798099999999
 20
647.16230800000005
 30
0.0
  0
VERTEX
  5
C2E
  8
0
 62
     3
 10
637.11798099999999
 20
631.16230800000005
 30
0.0
  0
VERTEX
  5
C2F
  8
0
 62
     3
 10
639.11798099999987
 20
630.16230800000005
 30
0.0
  0
VERTEX
  5
C30
  8
0
 62
     3
 10
635.11798099999987
 20
629.16230800000005
 30
0.0
  0
VERTEX
  5
C31
  8
0
 62
     3
 10
637.11798099999999
 20
628.16230800000005
 30
0.0
  0
VERTEX
  5
C32
  8
0
 62
     3
 10
637.11798099999999
 20
614.72553300000004
 30
0.0
  0
SEQEND
  5
C33
  8
0
 62
     3
  0
POLYLINE
  5
57C
  8
0
 62
     3
 66
     1
 10
0.0
 20
0.0
 30
0.0
  0
VERTEX
  5
C34
  8
0
 62
     3
 10
649.47006199999987
 20
825.73156700000004
 30
0.0
  0
VERTEX
  5
C35
  8
0
 62
     3
 10
633.47006199999987
 20
825.73156700000004
 30
0.0
  0
VERTEX
  5
C36
  8
0
 62
     3
 10
632.47006199999987
 20
823.73156700000004
 30
0.0
  0
VERTEX
  5
C37
  8
0
 62
     3
 10
631.47006199999987
 20
827.73156700000004
 30
0.0
  0
VERTEX
  5
C38
  8
0
 62
     3
 10
630.47006199999998
 20
825.73156700000004
 30
0.0
  0
VERTEX
  5
C39
  8
0
 62
     3
 10
614.47006199999998
 20
825.73156700000004
 30
0.0
  0
VERTEX
  5
C3A
  8
0
 62
     3
 10
613.47006199999998
 20
823.73156700000004
 30
0.0
  0
VERTEX
  5
C3B
  8
0
 62
     3
 10
612.47006199999987
 20
827.73156700000004
 30
0.0
  0
VERTEX
  5
C3C
  8
0
 62
     3
 10
611.47006199999987
 20
825.73156700000004
 30
0.0
  0
VERTEX
  5
C3D
  8
0
 62
     3
 10
595.47006199999987
 20
825.73156700000004
 30
0.0
  0
VERTEX
  5
C3E
  8
0
 62
     3
 10
594.47006199999987
 20
823.73156700000004
 30
0.0
  0
VERTEX
  5
C3F
  8
0
 62
     3
 10
593.47006199999998
 20
827.73156700000004
 30
0.0
  0
VERTEX
  5
C40
  8
0
 62
     3
 10
592.47006199999998
 20
825.73156700000004
 30
0.0
  0
VERTEX
  5
C41
  8
0
 62
     3
 10
576.47006199999998
 20
825.73156700000004
 30
0.0
  0
VERTEX
  5
C42
  8
0
 62
     3
 10
575.47006199999998
 20
823.73156700000004
 30
0.0
  0
VERTEX
  5
C43
  8
0
 62
     3
 10
574.47006199999987
 20
827.73156700000004
 30
0.0
  0
VERTEX
  5
C44
  8
0
 62
     3
 10
573.47006199999987
 20
825.73156700000004
 30
0.0
  0
VERTEX
  5
C45
  8
0
 62
     3
 10
557.47006199999987
 20
825.73156700000004
 30
0.0
  0
VERTEX
  5
C46
  8
0
 62
     3
 10
556.47006199999987
 20
823.73156700000004
 30
0.0
  0
VERTEX
  5
C47
  8
0
 62
     3
 10
555.47006199999998
 20
827.73156700000004
 30
0.0
  0
VERTEX
  5
C48
  8
0
 62
     3
 10
554.47006199999987
 20
825.73156700000004
 30
0.0
  0
VERTEX
  5
C49
  8
0
 62
     3
 10
538.47006199999998
 20
825.73156700000004
 30
0.0
  0
VERTEX
  5
C4A
  8
0
 62
     3
 10
537.47006199999987
 20
823.73156700000004
 30
0.0
  0
VERTEX
  5
C4B
  8
0
 62
     3
 10
536.47006199999987
 20
827.73156700000004
 30
0.0
  0
VERTEX
  5
C4C
  8
0
 62
     3
 10
535.47006199999998
 20
825.73156700000004
 30
0.0
  0
VERTEX
  5
C4D
  8
0
 62
     3
 10
529.26255000000003
 20
825.73156700000004
 30
0.0
  0
SEQEND
  5
C4E
  8
0
 62
     3
  0
POLYLINE
  5
598
  8
0
 62
     3
 66
     1
 10
0.0
 20
0.0
 30
0.0
  0
VERTEX
  5
C4F
  8
0
 62
     3
 10
645.23988299999985
 20
626.73156700000004
 30
0.0
  0
VERTEX
  5
C50
  8
0
 62
     3
 10
629.23988299999985
 20
626.73156700000004
 30
0.0
  0
VERTEX
  5
C51
  8
0
 62
     3
 10
628.23988299999985
 20
624.73156700000004
 30
0.0
  0
VERTEX
  5
C52
  8
0
 62
     3
 10
627.23988299999996
 20
628.73156700000004
 30
0.0
  0
VERTEX
  5
C53
  8
0
 62
     3
 10
626.23988299999985
 20
626.73156700000004
 30
0.0
  0
VERTEX
  5
C54
  8
0
 62
     3
 10
610.23988299999985
 20
626.73156700000004
 30
0.0
  0
VERTEX
  5
C55
  8
0
 62
     3
 10
609.23988299999985
 20
624.73156700000004
 30
0.0
  0
VERTEX
  5
C56
  8
0
 62
     3
 10
608.23988299999985
 20
628.73156700000004
 30
0.0
  0
VERTEX
  5
C57
  8
0
 62
     3
 10
607.23988299999996
 20
626.73156700000004
 30
0.0
  0
VERTEX
  5
C58
  8
0
 62
     3
 10
591.23988299999985
 20
626.73156700000004
 30
0.0
  0
VERTEX
  5
C59
  8
0
 62
     3
 10
590.23988299999996
 20
624.73156700000004
 30
0.0
  0
VERTEX
  5
C5A
  8
0
 62
     3
 10
589.23988299999985
 20
628.73156700000004
 30
0.0
  0
VERTEX
  5
C5B
  8
0
 62
     3
 10
588.23988299999985
 20
626.73156700000004
 30
0.0
  0
VERTEX
  5
C5C
  8
0
 62
     3
 10
572.23988299999985
 20
626.73156700000004
 30
0.0
  0
VERTEX
  5
C5D
  8
0
 62
     3
 10
571.23988299999985
 20
624.73156700000004
 30
0.0
  0
VERTEX
  5
C5E
  8
0
 62
     3
 10
570.23988299999985
 20
628.73156700000004
 30
0.0
  0
VERTEX
  5
C5F
  8
0
 62
     3
 10
569.23988299999996
 20
626.73156700000004
 30
0.0
  0
VERTEX
  5
C60
  8
0
 62
     3
 10
553.23988299999985
 20
626.73156700000004
 30
0.0
  0
VERTEX
  5
C61
  8
0
 62
     3
 10
552.23988299999985
 20
624.73156700000004
 30
0.0
  0
VERTEX
  5
C62
  8
0
 62
     3
 10
551.23988299999985
 20
628.73156700000004
 30
0.0
  0
VERTEX
  5
C63
  8
0
 62
     3
 10
550.23988299999985
 20
626.73156700000004
 30
0.0
  0
VERTEX
  5
C64
  8
0
 62
     3
 10
534.23988299999985
 20
626.73156700000004
 30
0.0
  0
VERTEX
  5
C65
  8
0
 62
     3
 10
533.23988299999985
 20
624.73156700000004
 30
0.0
  0
VERTEX
  5
C66
  8
0
 62
     3
 10
532.23988299999996
 20
628.73156700000004
 30
0.0
  0
VERTEX
  5
C67
  8
0
 62
     3
 10
531.23988299999985
 20
626.73156700000004
 30
0.0
  0
VERTEX
  5
C68
  8
0
 62
     3
 10
525.38488799999993
 20
626.73156700000004
 30
0.0
  0
SEQEND
  5
C69
  8
0
 62
     3
  0
CIRCLE
  5
5B4
  8
0
 62
     7
 10
567.11798099999987
 20
795.73156700000004
 30
0.0
 40
2.75
  0
CIRCLE
  5
5B5
  8
0
 62
     7
 10
602.11798099999987
 20
795.73156700000004
 30
0.0
 40
2.75
  0
CIRCLE
  5
5B6
  8
0
 62
     7
 10
567.11798099999987
 20
656.73156700000004
 30
0.0
 40
2.75
  0
CIRCLE
  5
5B7
  8
0
 62
     7
 10
602.11798099999987
 20
656.73156700000004
 30
0.0
 40
2.75
  0
LINE
  5
5B8
  8
0
  6
DASHDOT
 62
     7
 10
707.63740499999994
 20
723.98156700000004
 30
0.0
 11
473.84088100000002
 21
723.98156700000004
 31
0.0
  0
CIRCLE
  5
5B9
  8
0
 62
     7
 10
549.61798099999999
 20
797.73156700000004
 30
0.0
 40
12.0
  0
CIRCLE
  5
5BA
  8
0
 62
     7
 10
584.61798099999987
 20
797.73156700000004
 30
0.0
 40
12.0
  0
CIRCLE
  5
5BB
  8
0
 62
     7
 10
619.61798099999999
 20
797.73156700000004
 30
0.0
 40
12.0
  0
CIRCLE
  5
5BC
  8
0
 62
     7
 10
619.61798099999999
 20
654.73156700000004
 30
0.0
 40
12.0
  0
CIRCLE
  5
5BD
  8
0
 62
     7
 10
584.61798099999987
 20
654.73156700000004
 30
0.0
 40
12.0
  0
CIRCLE
  5
5BE
  8
0
 62
     7
 10
549.61798099999999
 20
654.73156700000004
 30
0.0
 40
12.0
  0
LINE
  5
5BF
  8
0
  6
DASHDOT
 62
     7
 10
619.61798099999999
 20
819.73156700000004
 30
0.0
 11
619.61798099999999
 21
775.73156700000004
 31
0.0
  0
LINE
  5
5C0
  8
0
  6
DASHDOT
 62
     7
 10
641.61798099999999
 20
797.73156700000004
 30
0.0
 11
597.61798099999987
 21
797.73156700000004
 31
0.0
  0
LINE
  5
5C1
  8
0
  6
DASHDOT
 62
     7
 10
584.61798099999987
 20
819.73156700000004
 30
0.0
 11
584.61798099999987
 21
775.73156700000004
 31
0.0
  0
LINE
  5
5C2
  8
0
  6
DASHDOT
 62
     7
 10
606.61798099999999
 20
797.73156700000004
 30
0.0
 11
562.61798099999999
 21
797.73156700000004
 31
0.0
  0
LINE
  5
5C3
  8
0
  6
DASHDOT
 62
     7
 10
549.61798099999999
 20
819.73156700000004
 30
0.0
 11
549.61798099999999
 21
775.73156700000004
 31
0.0
  0
LINE
  5
5C4
  8
0
  6
DASHDOT
 62
     7
 10
571.61798099999987
 20
797.73156700000004
 30
0.0
 11
527.61798099999999
 21
797.73156700000004
 31
0.0
  0
LINE
  5
5C5
  8
0
  6
DASHDOT
 62
     7
 10
549.61798099999999
 20
676.73156700000004
 30
0.0
 11
549.61798099999999
 21
632.73156700000004
 31
0.0
  0
LINE
  5
5C6
  8
0
  6
DASHDOT
 62
     7
 10
571.61798099999987
 20
654.73156700000004
 30
0.0
 11
527.61798099999999
 21
654.73156700000004
 31
0.0
  0
LINE
  5
5C7
  8
0
  6
DASHDOT
 62
     7
 10
584.61798099999987
 20
676.73156700000004
 30
0.0
 11
584.61798099999987
 21
632.73156700000004
 31
0.0
  0
LINE
  5
5C8
  8
0
  6
DASHDOT
 62
     7
 10
606.61798099999999
 20
654.73156700000004
 30
0.0
 11
562.61798099999999
 21
654.73156700000004
 31
0.0
  0
LINE
  5
5C9
  8
0
  6
DASHDOT
 62
     7
 10
619.61798099999999
 20
676.73156700000004
 30
0.0
 11
619.61798099999999
 21
632.73156700000004
 31
0.0
  0
LINE
  5
5CA
  8
0
  6
DASHDOT
 62
     7
 10
641.61798099999999
 20
654.73156700000004
 30
0.0
 11
597.61798099999987
 21
654.73156700000004
 31
0.0
  0
LINE
  5
5CC
  8
0
 62
     7
 10
465.104874
 20
795.73156700000004
 30
0.0
 11
463.02110299999998
 21
783.91384900000003
 31
0.0
  0
LINE
  5
5CD
  8
0
 62
     7
 10
465.104874
 20
795.73156700000004
 30
0.0
 11
467.18865999999991
 21
783.91384900000003
 31
0.0
  0
LINE
  5
5CE
  8
0
 62
     7
 10
465.104828
 20
656.73156700000004
 30
0.0
 11
467.18861399999992
 21
668.54925500000002
 31
0.0
  0
LINE
  5
5CF
  8
0
 62
     7
 10
465.104828
 20
656.73156700000004
 30
0.0
 11
463.02105699999998
 21
668.54925500000002
 31
0.0
  0
LINE
  5
5D0
  8
0
 62
     7
 10
465.104874
 20
795.73156700000004
 30
0.0
 11
465.104828
 21
656.73156700000004
 31
0.0
  0
LINE
  5
5D1
  8
0
 62
     7
 10
457.104874
 20
795.73156700000004
 30
0.0
 11
550.41342199999997
 21
795.73153699999989
 31
0.0
  0
LINE
  5
5D2
  8
0
 62
     7
 10
457.104828
 20
656.73156700000004
 30
0.0
 11
550.41337599999997
 21
656.73156700000004
 31
0.0
  0
LINE
  5
5D3
  8
0
 62
     7
 10
602.11798099999987
 20
746.91851799999995
 30
0.0
 11
613.93566899999996
 21
744.83474699999988
 31
0.0
  0
LINE
  5
5D4
  8
0
 62
     7
 10
602.11798099999987
 20
746.91851799999995
 30
0.0
 11
613.93566899999996
 21
749.00231900000006
 31
0.0
  0
LINE
  5
5D5
  8
0
 62
     7
 10
567.11798099999987
 20
746.91851799999995
 30
0.0
 11
555.30030799999986
 21
749.00231900000006
 31
0.0
  0
LINE
  5
5D6
  8
0
 62
     7
 10
567.11798099999987
 20
746.91851799999995
 30
0.0
 11
555.30030799999986
 21
744.83474699999988
 31
0.0
  0
LINE
  5
5D7
  8
0
 62
     7
 10
628.86312899999984
 20
746.91851799999995
 30
0.0
 11
567.11798099999987
 21
746.91851799999995
 31
0.0
  0
LINE
  5
5D8
  8
0
 62
     5
 10
494.97119099999998
 20
795.73156700000004
 30
0.0
 11
492.88742100000002
 21
783.91387899999995
 31
0.0
  0
LINE
  5
5D9
  8
0
 62
     5
 10
494.97119099999998
 20
795.73156700000004
 30
0.0
 11
497.05497699999989
 21
783.91387899999995
 31
0.0
  0
LINE
  5
5DA
  8
0
 62
     5
 10
494.971161
 20
723.98156700000004
 30
0.0
 11
497.05494699999991
 21
735.79925500000002
 31
0.0
  0
LINE
  5
5DB
  8
0
 62
     5
 10
494.971161
 20
723.98156700000004
 30
0.0
 11
492.88738999999998
 21
735.79925500000002
 31
0.0
  0
LINE
  5
5DC
  8
0
 62
     5
 10
494.97119099999998
 20
795.73156700000004
 30
0.0
 11
494.9711759999999
 21
723.98156700000004
 31
0.0
  0
LINE
  5
5DD
  8
0
 62
     5
 10
486.97119099999998
 20
795.73156700000004
 30
0.0
 11
550.41343700000004
 21
795.73156700000004
 31
0.0
  0
LINE
  5
5DE
  8
0
 62
     7
 10
604.71258499999999
 20
655.82031299999994
 30
0.0
 11
615.17205799999999
 21
649.93810999999994
 31
0.0
  0
LINE
  5
5DF
  8
0
 62
     7
 10
604.71258499999999
 20
655.82031299999994
 30
0.0
 11
616.55310099999986
 21
653.87017800000001
 31
0.0
  0
LINE
  5
5E0
  8
0
 62
     7
 10
599.52337599999987
 20
657.64282200000002
 30
0.0
 11
589.06390399999987
 21
663.52502400000003
 31
0.0
  0
LINE
  5
5E1
  8
0
 62
     7
 10
599.52337599999987
 20
657.64282200000002
 30
0.0
 11
587.682861
 21
659.59295699999996
 31
0.0
  0
LINE
  5
5E2
  8
0
 62
     7
 10
599.52337599999987
 20
657.64282200000002
 30
0.0
 11
739.73489400000005
 21
608.39739999999995
 31
0.0
  0
LINE
  5
5E3
  8
0
 62
     7
 10
538.12204000000008
 20
801.17300399999988
 30
0.0
 11
527.39834599999995
 21
806.55837999999983
 31
0.0
  0
LINE
  5
5E4
  8
0
 62
     7
 10
538.12204000000008
 20
801.17300399999988
 30
0.0
 11
526.20315599999992
 21
802.56588699999986
 31
0.0
  0
LINE
  5
5E5
  8
0
 62
     7
 10
561.113922
 20
794.29013099999986
 30
0.0
 11
571.83761600000003
 21
788.90475500000002
 31
0.0
  0
LINE
  5
5E6
  8
0
 62
     7
 10
561.113922
 20
794.29013099999986
 30
0.0
 11
573.03280599999994
 21
792.89724699999988
 31
0.0
  0
LINE
  5
5E7
  8
0
 62
     7
 10
561.113922
 20
794.29013099999986
 30
0.0
 11
452.09672499999988
 21
826.925568
 31
0.0
  0
LINE
  5
5E8
  8
0
 62
     7
 10
619.61798099999999
 20
861.60080000000005
 30
0.0
 11
631.43566900000008
 21
859.51702899999975
 31
0.0
  0
LINE
  5
5E9
  8
0
 62
     7
 10
619.61798099999999
 20
861.60080000000005
 30
0.0
 11
631.43566900000008
 21
863.68456999999978
 31
0.0
  0
POLYLINE
  5
5EA
  8
0
 62
     7
 66
     1
 10
0.0
 20
0.0
 30
0.0
 70
     1
  0
VERTEX
  5
C6A
  8
0
 62
     7
 10
582.61798099999999
 20
861.60080000000005
 30
0.0
  0
VERTEX
  5
C6B
  8
0
 62
     7
 10
583.20376599999997
 20
860.18658400000004
 30
0.0
  0
VERTEX
  5
C6C
  8
0
 62
     7
 10
584.61798099999987
 20
859.60080000000005
 30
0.0
  0
VERTEX
  5
C6D
  8
0
 62
     7
 10
586.032196
 20
860.18658400000004
 30
0.0
  0
VERTEX
  5
C6E
  8
0
 62
     7
 10
586.61798099999999
 20
861.60080000000005
 30
0.0
  0
VERTEX
  5
C6F
  8
0
 62
     7
 10
586.032196
 20
863.01501499999995
 30
0.0
  0
VERTEX
  5
C70
  8
0
 62
     7
 10
584.61798099999987
 20
863.60080000000005
 30
0.0
  0
VERTEX
  5
C71
  8
0
 62
     7
 10
583.20376599999997
 20
863.01501499999995
 30
0.0
  0
SEQEND
  5
C72
  8
0
 62
     7
  0
LINE
  5
5F4
  8
0
 62
     7
 10
549.61798099999999
 20
861.60080000000005
 30
0.0
 11
537.80029300000001
 21
863.68456999999978
 31
0.0
  0
LINE
  5
5F5
  8
0
 62
     7
 10
549.61798099999999
 20
861.60080000000005
 30
0.0
 11
537.80029300000001
 21
859.51702899999975
 31
0.0
  0
LINE
  5
5F6
  8
0
 62
     7
 10
619.61798099999999
 20
861.60080000000005
 30
0.0
 11
549.61798099999999
 21
861.60080000000005
 31
0.0
  0
LINE
  5
5F7
  8
0
 62
     7
 10
619.61798099999999
 20
869.60080000000005
 30
0.0
 11
619.61798099999999
 21
819.73156700000004
 31
0.0
  0
LINE
  5
5F8
  8
0
 62
     7
 10
584.61798099999987
 20
869.60080000000005
 30
0.0
 11
584.61798099999987
 21
819.73156700000004
 31
0.0
  0
LINE
  5
5F9
  8
0
 62
     7
 10
549.61798099999999
 20
869.60080000000005
 30
0.0
 11
549.61798099999999
 21
819.73156700000004
 31
0.0
  0
LINE
  5
5FA
  8
0
 62
     7
 10
678.24566700000003
 20
797.73156700000004
 30
0.0
 11
680.32946800000002
 21
809.5492549999999
 31
0.0
  0
LINE
  5
5FB
  8
0
 62
     7
 10
678.24566700000003
 20
797.73156700000004
 30
0.0
 11
676.16189599999996
 21
809.5492549999999
 31
0.0
  0
LINE
  5
5FC
  8
0
 62
     7
 10
678.24566700000003
 20
723.98156700000004
 30
0.0
 11
676.16189599999996
 21
712.16387899999995
 31
0.0
  0
LINE
  5
5FD
  8
0
 62
     7
 10
678.24566700000003
 20
723.98156700000004
 30
0.0
 11
680.32946800000002
 21
712.16387899999995
 31
0.0
  0
LINE
  5
5FE
  8
0
 62
     7
 10
678.24566700000003
 20
797.73156700000004
 30
0.0
 11
678.24569699999995
 21
723.98156700000004
 31
0.0
  0
LINE
  5
5FF
  8
0
 62
     7
 10
686.24566700000003
 20
797.73156700000004
 30
0.0
 11
641.61798099999999
 21
797.73156700000004
 31
0.0
  0
LINE
  5
600
  8
0
 62
     7
 10
670.24566700000003
 20
723.98156700000004
 30
0.0
 11
698.30734299999995
 21
723.98156700000004
 31
0.0
  0
LINE
  5
601
  8
0
 62
     7
 10
707.56655899999987
 20
797.73156700000004
 30
0.0
 11
705.48278800000003
 21
785.91387899999995
 31
0.0
  0
LINE
  5
602
  8
0
 62
     7
 10
707.56655899999987
 20
797.73156700000004
 30
0.0
 11
709.65035999999998
 21
785.91387899999995
 31
0.0
  0
LINE
  5
603
  8
0
 62
     7
 10
707.56658900000002
 20
654.73156700000004
 30
0.0
 11
709.65035999999998
 21
666.54925500000002
 31
0.0
  0
LINE
  5
604
  8
0
 62
     7
 10
707.56658900000002
 20
654.73156700000004
 30
0.0
 11
705.48278800000003
 21
666.54925500000002
 31
0.0
  0
LINE
  5
605
  8
0
 62
     7
 10
707.56655899999987
 20
797.73156700000004
 30
0.0
 11
707.56655899999987
 21
654.73156700000004
 31
0.0
  0
LINE
  5
606
  8
0
 62
     7
 10
715.56655899999987
 20
797.73156700000004
 30
0.0
 11
641.61798099999999
 21
797.73156700000004
 31
0.0
  0
LINE
  5
607
  8
0
 62
     7
 10
715.56658900000002
 20
654.73156700000004
 30
0.0
 11
641.61798099999999
 21
654.73156700000004
 31
0.0
  0
LINE
  5
608
  8
0
 62
     7
 10
914.27641300000005
 20
667.98156700000004
 30
0.0
 11
1026.276413
 21
667.98156700000004
 31
0.0
  0
LINE
  5
609
  8
0
 62
     7
 10
914.27641300000005
 20
779.98156700000004
 30
0.0
 11
1026.276413
 21
779.98156700000004
 31
0.0
  0
LINE
  5
60A
  8
0
 62
     7
 10
914.27641300000005
 20
779.98156700000004
 30
0.0
 11
914.27641300000005
 21
667.98156700000004
 31
0.0
  0
LINE
  5
60B
  8
0
 62
     7
 10
1026.276413
 20
779.98156700000004
 30
0.0
 11
1026.276413
 21
667.98156700000004
 31
0.0
  0
LINE
  5
60C
  8
0
  6
DASHDOT
 62
     7
 10
970.27641300000005
 20
840.35742200000016
 30
0.0
 11
970.27641300000005
 21
603.83440399999995
 31
0.0
  0
CIRCLE
  5
60D
  8
0
 62
     7
 10
930.27641299999993
 20
794.98156700000004
 30
0.0
 40
3.5
  0
CIRCLE
  5
60E
  8
0
 62
     7
 10
1010.276413
 20
794.98156700000004
 30
0.0
 40
3.5
  0
CIRCLE
  5
60F
  8
0
 62
     7
 10
1010.276413
 20
652.98156700000004
 30
0.0
 40
3.5
  0
CIRCLE
  5
610
  8
0
 62
     7
 10
930.27641299999993
 20
652.98156700000004
 30
0.0
 40
3.5
  0
POLYLINE
  5
611
  8
0
 62
     3
 66
     1
 10
0.0
 20
0.0
 30
0.0
  0
VERTEX
  5
C73
  8
0
 62
     3
 10
898.41842699999995
 20
804.38076799999999
 30
0.0
  0
VERTEX
  5
C74
  8
0
 62
     3
 10
914.41842699999995
 20
804.38076799999999
 30
0.0
  0
VERTEX
  5
C75
  8
0
 62
     3
 10
915.41842699999995
 20
806.38076799999999
 30
0.0
  0
VERTEX
  5
C76
  8
0
 62
     3
 10
916.41842699999995
 20
802.38076799999999
 30
0.0
  0
VERTEX
  5
C77
  8
0
 62
     3
 10
917.41842699999995
 20
804.38076799999999
 30
0.0
  0
VERTEX
  5
C78
  8
0
 62
     3
 10
933.41842699999995
 20
804.38076799999999
 30
0.0
  0
VERTEX
  5
C79
  8
0
 62
     3
 10
934.41842699999995
 20
806.38076799999999
 30
0.0
  0
VERTEX
  5
C7A
  8
0
 62
     3
 10
935.41842699999995
 20
802.38076799999999
 30
0.0
  0
VERTEX
  5
C7B
  8
0
 62
     3
 10
936.41842699999995
 20
804.38076799999999
 30
0.0
  0
VERTEX
  5
C7C
  8
0
 62
     3
 10
952.41842699999995
 20
804.38076799999999
 30
0.0
  0
VERTEX
  5
C7D
  8
0
 62
     3
 10
953.41842699999995
 20
806.38076799999999
 30
0.0
  0
VERTEX
  5
C7E
  8
0
 62
     3
 10
954.41842699999995
 20
802.38076799999999
 30
0.0
  0
VERTEX
  5
C7F
  8
0
 62
     3
 10
955.41842699999995
 20
804.38076799999999
 30
0.0
  0
VERTEX
  5
C80
  8
0
 62
     3
 10
971.41842699999995
 20
804.38076799999999
 30
0.0
  0
VERTEX
  5
C81
  8
0
 62
     3
 10
972.41842699999995
 20
806.38076799999999
 30
0.0
  0
VERTEX
  5
C82
  8
0
 62
     3
 10
973.41842699999995
 20
802.38076799999999
 30
0.0
  0
VERTEX
  5
C83
  8
0
 62
     3
 10
974.41842699999995
 20
804.38076799999999
 30
0.0
  0
VERTEX
  5
C84
  8
0
 62
     3
 10
990.41842699999995
 20
804.38076799999999
 30
0.0
  0
VERTEX
  5
C85
  8
0
 62
     3
 10
991.41842699999995
 20
806.38076799999999
 30
0.0
  0
VERTEX
  5
C86
  8
0
 62
     3
 10
992.41842699999995
 20
802.38076799999999
 30
0.0
  0
VERTEX
  5
C87
  8
0
 62
     3
 10
993.41842699999995
 20
804.38076799999999
 30
0.0
  0
VERTEX
  5
C88
  8
0
 62
     3
 10
1009.418426999999
 20
804.38076799999999
 30
0.0
  0
VERTEX
  5
C89
  8
0
 62
     3
 10
1010.418427
 20
806.38076799999999
 30
0.0
  0
VERTEX
  5
C8A
  8
0
 62
     3
 10
1011.418426999999
 20
802.38076799999999
 30
0.0
  0
VERTEX
  5
C8B
  8
0
 62
     3
 10
1012.418426999999
 20
804.38076799999999
 30
0.0
  0
VERTEX
  5
C8C
  8
0
 62
     3
 10
1028.4184270000001
 20
804.38076799999999
 30
0.0
  0
VERTEX
  5
C8D
  8
0
 62
     3
 10
1029.4184270000001
 20
806.38076799999999
 30
0.0
  0
VERTEX
  5
C8E
  8
0
 62
     3
 10
1030.4184270000001
 20
802.38076799999999
 30
0.0
  0
VERTEX
  5
C8F
  8
0
 62
     3
 10
1031.4184269999989
 20
804.38076799999999
 30
0.0
  0
VERTEX
  5
C90
  8
0
 62
     3
 10
1041.631905
 20
804.38076799999999
 30
0.0
  0
SEQEND
  5
C91
  8
0
 62
     3
  0
POLYLINE
  5
631
  8
0
 62
     3
 66
     1
 10
0.0
 20
0.0
 30
0.0
  0
VERTEX
  5
C92
  8
0
 62
     3
 10
898.41842699999995
 20
639.55964699999993
 30
0.0
  0
VERTEX
  5
C93
  8
0
 62
     3
 10
914.41842699999995
 20
639.55964699999993
 30
0.0
  0
VERTEX
  5
C94
  8
0
 62
     3
 10
915.41842699999995
 20
641.55964699999993
 30
0.0
  0
VERTEX
  5
C95
  8
0
 62
     3
 10
916.41842699999995
 20
637.55964699999993
 30
0.0
  0
VERTEX
  5
C96
  8
0
 62
     3
 10
917.41842699999995
 20
639.55964699999993
 30
0.0
  0
VERTEX
  5
C97
  8
0
 62
     3
 10
933.41842699999995
 20
639.55964699999993
 30
0.0
  0
VERTEX
  5
C98
  8
0
 62
     3
 10
934.41842699999995
 20
641.55964699999993
 30
0.0
  0
VERTEX
  5
C99
  8
0
 62
     3
 10
935.41842699999995
 20
637.55964699999993
 30
0.0
  0
VERTEX
  5
C9A
  8
0
 62
     3
 10
936.41842699999995
 20
639.55964699999993
 30
0.0
  0
VERTEX
  5
C9B
  8
0
 62
     3
 10
952.41842699999995
 20
639.55964699999993
 30
0.0
  0
VERTEX
  5
C9C
  8
0
 62
     3
 10
953.41842699999995
 20
641.55964699999993
 30
0.0
  0
VERTEX
  5
C9D
  8
0
 62
     3
 10
954.41842699999995
 20
637.55964699999993
 30
0.0
  0
VERTEX
  5
C9E
  8
0
 62
     3
 10
955.41842699999995
 20
639.55964699999993
 30
0.0
  0
VERTEX
  5
C9F
  8
0
 62
     3
 10
971.41842699999995
 20
639.55964699999993
 30
0.0
  0
VERTEX
  5
CA0
  8
0
 62
     3
 10
972.41842699999995
 20
641.55964699999993
 30
0.0
  0
VERTEX
  5
CA1
  8
0
 62
     3
 10
973.41842699999995
 20
637.55964699999993
 30
0.0
  0
VERTEX
  5
CA2
  8
0
 62
     3
 10
974.41842699999995
 20
639.55964699999993
 30
0.0
  0
VERTEX
  5
CA3
  8
0
 62
     3
 10
990.41842699999995
 20
639.55964699999993
 30
0.0
  0
VERTEX
  5
CA4
  8
0
 62
     3
 10
991.41842699999995
 20
641.55964699999993
 30
0.0
  0
VERTEX
  5
CA5
  8
0
 62
     3
 10
992.41842699999995
 20
637.55964699999993
 30
0.0
  0
VERTEX
  5
CA6
  8
0
 62
     3
 10
993.41842699999995
 20
639.55964699999993
 30
0.0
  0
VERTEX
  5
CA7
  8
0
 62
     3
 10
1009.418426999999
 20
639.55964699999993
 30
0.0
  0
VERTEX
  5
CA8
  8
0
 62
     3
 10
1010.418427
 20
641.55964699999993
 30
0.0
  0
VERTEX
  5
CA9
  8
0
 62
     3
 10
1011.418426999999
 20
637.55964699999993
 30
0.0
  0
VERTEX
  5
CAA
  8
0
 62
     3
 10
1012.418426999999
 20
639.55964699999993
 30
0.0
  0
VERTEX
  5
CAB
  8
0
 62
     3
 10
1028.4184270000001
 20
639.55964699999993
 30
0.0
  0
VERTEX
  5
CAC
  8
0
 62
     3
 10
1029.4184270000001
 20
641.55964699999993
 30
0.0
  0
VERTEX
  5
CAD
  8
0
 62
     3
 10
1030.4184270000001
 20
637.55964699999993
 30
0.0
  0
VERTEX
  5
CAE
  8
0
 62
     3
 10
1031.4184269999989
 20
639.55964699999993
 30
0.0
  0
VERTEX
  5
CAF
  8
0
 62
     3
 10
1041.631905
 20
639.55964699999993
 30
0.0
  0
SEQEND
  5
CB0
  8
0
 62
     3
  0
POLYLINE
  5
651
  8
0
 62
     3
 66
     1
 10
0.0
 20
0.0
 30
0.0
  0
VERTEX
  5
CB1
  8
0
 62
     3
 10
1041.631905
 20
804.38076799999999
 30
0.0
  0
VERTEX
  5
CB2
  8
0
 62
     3
 10
1041.631905
 20
788.38076799999999
 30
0.0
  0
VERTEX
  5
CB3
  8
0
 62
     3
 10
1043.631905
 20
787.38076799999988
 30
0.0
  0
VERTEX
  5
CB4
  8
0
 62
     3
 10
1039.631905
 20
786.38076799999988
 30
0.0
  0
VERTEX
  5
CB5
  8
0
 62
     3
 10
1041.631905
 20
785.38076799999999
 30
0.0
  0
VERTEX
  5
CB6
  8
0
 62
     3
 10
1041.631905
 20
769.38076799999988
 30
0.0
  0
VERTEX
  5
CB7
  8
0
 62
     3
 10
1043.631905
 20
768.38076799999999
 30
0.0
  0
VERTEX
  5
CB8
  8
0
 62
     3
 10
1039.631905
 20
767.38076799999999
 30
0.0
  0
VERTEX
  5
CB9
  8
0
 62
     3
 10
1041.631905
 20
766.38076799999988
 30
0.0
  0
VERTEX
  5
CBA
  8
0
 62
     3
 10
1041.631905
 20
750.38076799999999
 30
0.0
  0
VERTEX
  5
CBB
  8
0
 62
     3
 10
1043.631905
 20
749.38076799999988
 30
0.0
  0
VERTEX
  5
CBC
  8
0
 62
     3
 10
1039.631905
 20
748.38076799999988
 30
0.0
  0
VERTEX
  5
CBD
  8
0
 62
     3
 10
1041.631905
 20
747.38076799999999
 30
0.0
  0
VERTEX
  5
CBE
  8
0
 62
     3
 10
1041.631905
 20
731.38076799999999
 30
0.0
  0
VERTEX
  5
CBF
  8
0
 62
     3
 10
1043.631905
 20
730.38076799999999
 30
0.0
  0
VERTEX
  5
CC0
  8
0
 62
     3
 10
1039.631905
 20
729.38076799999999
 30
0.0
  0
VERTEX
  5
CC1
  8
0
 62
     3
 10
1041.631905
 20
728.38076799999988
 30
0.0
  0
VERTEX
  5
CC2
  8
0
 62
     3
 10
1041.631905
 20
712.38076799999988
 30
0.0
  0
VERTEX
  5
CC3
  8
0
 62
     3
 10
1043.631905
 20
711.38076799999988
 30
0.0
  0
VERTEX
  5
CC4
  8
0
 62
     3
 10
1039.631905
 20
710.38076799999999
 30
0.0
  0
VERTEX
  5
CC5
  8
0
 62
     3
 10
1041.631905
 20
709.38076799999999
 30
0.0
  0
VERTEX
  5
CC6
  8
0
 62
     3
 10
1041.631905
 20
693.38076799999999
 30
0.0
  0
VERTEX
  5
CC7
  8
0
 62
     3
 10
1043.631905
 20
692.38076799999999
 30
0.0
  0
VERTEX
  5
CC8
  8
0
 62
     3
 10
1039.631905
 20
691.38076799999988
 30
0.0
  0
VERTEX
  5
CC9
  8
0
 62
     3
 10
1041.631905
 20
690.38076799999988
 30
0.0
  0
VERTEX
  5
CCA
  8
0
 62
     3
 10
1041.631905
 20
674.38076799999988
 30
0.0
  0
VERTEX
  5
CCB
  8
0
 62
     3
 10
1043.631905
 20
673.38076799999988
 30
0.0
  0
VERTEX
  5
CCC
  8
0
 62
     3
 10
1039.631905
 20
672.38076799999999
 30
0.0
  0
VERTEX
  5
CCD
  8
0
 62
     3
 10
1041.631905
 20
671.38076799999999
 30
0.0
  0
VERTEX
  5
CCE
  8
0
 62
     3
 10
1041.631905
 20
655.38076799999999
 30
0.0
  0
VERTEX
  5
CCF
  8
0
 62
     3
 10
1043.631905
 20
654.38076799999999
 30
0.0
  0
VERTEX
  5
CD0
  8
0
 62
     3
 10
1039.631905
 20
653.38076799999988
 30
0.0
  0
VERTEX
  5
CD1
  8
0
 62
     3
 10
1041.631905
 20
652.38076799999988
 30
0.0
  0
VERTEX
  5
CD2
  8
0
 62
     3
 10
1041.631905
 20
639.55964699999993
 30
0.0
  0
SEQEND
  5
CD3
  8
0
 62
     3
  0
POLYLINE
  5
675
  8
0
 62
     3
 66
     1
 10
0.0
 20
0.0
 30
0.0
  0
VERTEX
  5
CD4
  8
0
 62
     3
 10
898.41842699999995
 20
804.38076799999999
 30
0.0
  0
VERTEX
  5
CD5
  8
0
 62
     3
 10
898.41842699999995
 20
788.38076799999999
 30
0.0
  0
VERTEX
  5
CD6
  8
0
 62
     3
 10
900.41842699999995
 20
787.38076799999988
 30
0.0
  0
VERTEX
  5
CD7
  8
0
 62
     3
 10
896.41842699999995
 20
786.38076799999988
 30
0.0
  0
VERTEX
  5
CD8
  8
0
 62
     3
 10
898.41842699999995
 20
785.38076799999999
 30
0.0
  0
VERTEX
  5
CD9
  8
0
 62
     3
 10
898.41842699999995
 20
769.38076799999988
 30
0.0
  0
VERTEX
  5
CDA
  8
0
 62
     3
 10
900.41842699999995
 20
768.38076799999999
 30
0.0
  0
VERTEX
  5
CDB
  8
0
 62
     3
 10
896.41842699999995
 20
767.38076799999999
 30
0.0
  0
VERTEX
  5
CDC
  8
0
 62
     3
 10
898.41842699999995
 20
766.38076799999988
 30
0.0
  0
VERTEX
  5
CDD
  8
0
 62
     3
 10
898.41842699999995
 20
750.38076799999999
 30
0.0
  0
VERTEX
  5
CDE
  8
0
 62
     3
 10
900.41842699999995
 20
749.38076799999988
 30
0.0
  0
VERTEX
  5
CDF
  8
0
 62
     3
 10
896.41842699999995
 20
748.38076799999988
 30
0.0
  0
VERTEX
  5
CE0
  8
0
 62
     3
 10
898.41842699999995
 20
747.38076799999999
 30
0.0
  0
VERTEX
  5
CE1
  8
0
 62
     3
 10
898.41842699999995
 20
731.38076799999999
 30
0.0
  0
VERTEX
  5
CE2
  8
0
 62
     3
 10
900.41842699999995
 20
730.38076799999999
 30
0.0
  0
VERTEX
  5
CE3
  8
0
 62
     3
 10
896.41842699999995
 20
729.38076799999999
 30
0.0
  0
VERTEX
  5
CE4
  8
0
 62
     3
 10
898.41842699999995
 20
728.38076799999988
 30
0.0
  0
VERTEX
  5
CE5
  8
0
 62
     3
 10
898.41842699999995
 20
712.38076799999988
 30
0.0
  0
VERTEX
  5
CE6
  8
0
 62
     3
 10
900.41842699999995
 20
711.38076799999988
 30
0.0
  0
VERTEX
  5
CE7
  8
0
 62
     3
 10
896.41842699999995
 20
710.38076799999999
 30
0.0
  0
VERTEX
  5
CE8
  8
0
 62
     3
 10
898.41842699999995
 20
709.38076799999999
 30
0.0
  0
VERTEX
  5
CE9
  8
0
 62
     3
 10
898.41842699999995
 20
693.38076799999999
 30
0.0
  0
VERTEX
  5
CEA
  8
0
 62
     3
 10
900.41842699999995
 20
692.38076799999999
 30
0.0
  0
VERTEX
  5
CEB
  8
0
 62
     3
 10
896.41842699999995
 20
691.38076799999988
 30
0.0
  0
VERTEX
  5
CEC
  8
0
 62
     3
 10
898.41842699999995
 20
690.38076799999988
 30
0.0
  0
VERTEX
  5
CED
  8
0
 62
     3
 10
898.41842699999995
 20
674.38076799999988
 30
0.0
  0
VERTEX
  5
CEE
  8
0
 62
     3
 10
900.41842699999995
 20
673.38076799999988
 30
0.0
  0
VERTEX
  5
CEF
  8
0
 62
     3
 10
896.41842699999995
 20
672.38076799999999
 30
0.0
  0
VERTEX
  5
CF0
  8
0
 62
     3
 10
898.41842699999995
 20
671.38076799999999
 30
0.0
  0
VERTEX
  5
CF1
  8
0
 62
     3
 10
898.41842699999995
 20
655.38076799999999
 30
0.0
  0
VERTEX
  5
CF2
  8
0
 62
     3
 10
900.41842699999995
 20
654.38076799999999
 30
0.0
  0
VERTEX
  5
CF3
  8
0
 62
     3
 10
896.41842699999995
 20
653.38076799999988
 30
0.0
  0
VERTEX
  5
CF4
  8
0
 62
     3
 10
898.41842699999995
 20
652.38076799999988
 30
0.0
  0
VERTEX
  5
CF5
  8
0
 62
     3
 10
898.41842699999995
 20
639.55964699999993
 30
0.0
  0
SEQEND
  5
CF6
  8
0
 62
     3
  0
LINE
  5
699
  8
0
  6
DASHDOT
 62
     7
 10
1010.276413
 20
801.48156700000004
 30
0.0
 11
1010.276413
 21
788.48156700000004
 31
0.0
  0
LINE
  5
69A
  8
0
  6
DASHDOT
 62
     7
 10
1003.776413
 20
794.98156700000004
 30
0.0
 11
1016.776413
 21
794.98156700000004
 31
0.0
  0
LINE
  5
69B
  8
0
  6
DASHDOT
 62
     7
 10
930.27641299999993
 20
801.48156700000004
 30
0.0
 11
930.27641299999993
 21
788.48156700000004
 31
0.0
  0
LINE
  5
69C
  8
0
  6
DASHDOT
 62
     7
 10
923.77641300000005
 20
794.98156700000004
 30
0.0
 11
936.77641300000005
 21
794.98156700000004
 31
0.0
  0
LINE
  5
69D
  8
0
  6
DASHDOT
 62
     7
 10
930.27641299999993
 20
659.48156700000004
 30
0.0
 11
930.27641299999993
 21
646.48156700000004
 31
0.0
  0
LINE
  5
69E
  8
0
  6
DASHDOT
 62
     7
 10
923.77641300000005
 20
652.98156700000004
 30
0.0
 11
936.77641300000005
 21
652.98156700000004
 31
0.0
  0
LINE
  5
69F
  8
0
  6
DASHDOT
 62
     7
 10
1010.276413
 20
659.48156700000004
 30
0.0
 11
1010.276413
 21
646.48156700000004
 31
0.0
  0
LINE
  5
6A0
  8
0
  6
DASHDOT
 62
     7
 10
1003.776413
 20
652.98156700000004
 30
0.0
 11
1016.776413
 21
652.98156700000004
 31
0.0
  0
CIRCLE
  5
6A1
  8
0
 62
     7
 10
904.95095800000001
 20
799.09456599999999
 30
0.0
 40
0.25
  0
LINE
  5
6A2
  8
0
  6
DASHDOT
 62
     7
 10
868.81298100000015
 20
723.98156700000004
 30
0.0
 11
1080.797585
 21
723.98156700000004
 31
0.0
  0
LINE
  5
6A3
  8
0
 62
     7
 10
847.68272400000001
 20
779.98156700000004
 30
0.0
 11
845.59892300000001
 21
768.16387199999986
 31
0.0
  0
LINE
  5
6A4
  8
0
 62
     7
 10
847.68272400000001
 20
779.98156700000004
 30
0.0
 11
849.76646399999993
 21
768.16387199999986
 31
0.0
  0
LINE
  5
6A5
  8
0
 62
     7
 10
847.68272400000001
 20
667.98156700000004
 30
0.0
 11
849.76646399999993
 21
679.799263
 31
0.0
  0
LINE
  5
6A6
  8
0
 62
     7
 10
847.68272400000001
 20
667.98156700000004
 30
0.0
 11
845.59892300000001
 21
679.799263
 31
0.0
  0
LINE
  5
6A7
  8
0
 62
     7
 10
847.68272400000001
 20
779.98156700000004
 30
0.0
 11
847.68272400000001
 21
667.98156700000004
 31
0.0
  0
LINE
  5
6A8
  8
0
 62
     7
 10
839.68272400000001
 20
779.98156700000004
 30
0.0
 11
914.27641300000005
 21
779.98156700000004
 31
0.0
  0
LINE
  5
6A9
  8
0
 62
     7
 10
839.68272400000001
 20
667.98156700000004
 30
0.0
 11
914.27641300000005
 21
667.98157100000003
 31
0.0
  0
LINE
  5
6AA
  8
0
 62
     7
 10
810.19346600000006
 20
794.98156700000004
 30
0.0
 11
808.10966499999995
 21
783.16387199999986
 31
0.0
  0
LINE
  5
6AB
  8
0
 62
     7
 10
810.19346600000006
 20
794.98156700000004
 30
0.0
 11
812.27720599999986
 21
783.16387199999986
 31
0.0
  0
LINE
  5
6AC
  8
0
 62
     7
 10
810.19346600000006
 20
652.98156700000004
 30
0.0
 11
812.27720599999986
 21
664.79925900000001
 31
0.0
  0
LINE
  5
6AD
  8
0
 62
     7
 10
810.19346600000006
 20
652.98156700000004
 30
0.0
 11
808.10966499999995
 21
664.79925900000001
 31
0.0
  0
LINE
  5
6AE
  8
0
 62
     7
 10
810.19346600000006
 20
794.98156700000004
 30
0.0
 11
810.19346600000006
 21
652.98156700000004
 31
0.0
  0
LINE
  5
6AF
  8
0
 62
     7
 10
802.19346600000006
 20
794.98156700000004
 30
0.0
 11
923.77641300000005
 21
794.98157499999991
 31
0.0
  0
LINE
  5
6B0
  8
0
 62
     7
 10
802.19346600000006
 20
652.98156700000004
 30
0.0
 11
923.77641300000005
 21
652.98157500000002
 31
0.0
  0
LINE
  5
6B1
  8
0
 62
     7
 10
930.27641299999993
 20
843.76554099999987
 30
0.0
 11
942.09410099999991
 21
841.68175500000007
 31
0.0
  0
LINE
  5
6B2
  8
0
 62
     7
 10
930.27641299999993
 20
843.76554099999987
 30
0.0
 11
942.09410099999991
 21
845.84931199999994
 31
0.0
  0
LINE
  5
6B3
  8
0
 62
     7
 10
1010.276474
 20
843.76551099999995
 30
0.0
 11
998.45872499999996
 21
845.84929700000009
 31
0.0
  0
LINE
  5
6B4
  8
0
 62
     7
 10
1010.276474
 20
843.76551099999995
 30
0.0
 11
998.45872499999996
 21
841.68173999999988
 31
0.0
  0
LINE
  5
6B5
  8
0
 62
     7
 10
930.27641299999993
 20
843.76554099999987
 30
0.0
 11
1010.276474
 21
843.76551099999995
 31
0.0
  0
LINE
  5
6B6
  8
0
 62
     7
 10
930.27641299999993
 20
851.76554099999987
 30
0.0
 11
930.27641299999993
 21
801.48158299999989
 31
0.0
  0
LINE
  5
6B7
  8
0
 62
     7
 10
1010.276474
 20
851.76551099999995
 30
0.0
 11
1010.276351999999
 21
801.48155999999994
 31
0.0
  0
LINE
  5
6B8
  8
0
 62
     7
 10
914.27641300000005
 20
876.48341400000015
 30
0.0
 11
926.09410099999991
 21
874.39962799999989
 31
0.0
  0
LINE
  5
6B9
  8
0
 62
     7
 10
914.27641300000005
 20
876.48341400000015
 30
0.0
 11
926.09410099999991
 21
878.56719999999984
 31
0.0
  0
LINE
  5
6BA
  8
0
 62
     7
 10
1026.276474
 20
876.48336799999981
 30
0.0
 11
1014.458724999999
 21
878.56716899999992
 31
0.0
  0
LINE
  5
6BB
  8
0
 62
     7
 10
1026.276474
 20
876.48336799999981
 30
0.0
 11
1014.458724999999
 21
874.39959699999997
 31
0.0
  0
LINE
  5
6BC
  8
0
 62
     7
 10
914.27641300000005
 20
876.48341400000015
 30
0.0
 11
1026.276474
 21
876.48336799999981
 31
0.0
  0
LINE
  5
6BD
  8
0
 62
     7
 10
914.27641300000005
 20
884.48341400000015
 30
0.0
 11
914.27641300000005
 21
779.981583
 31
0.0
  0
LINE
  5
6BE
  8
0
 62
     7
 10
1026.276474
 20
884.48336799999981
 30
0.0
 11
1026.276351999999
 21
779.98155199999997
 31
0.0
  0
LINE
  5
6BF
  8
0
 62
     7
 10
927.48887599999989
 20
650.86503600000003
 30
0.0
 11
916.81675700000005
 21
645.37818900000002
 31
0.0
  0
LINE
  5
6C0
  8
0
 62
     7
 10
927.48887599999989
 20
650.86503600000003
 30
0.0
 11
919.33695999999998
 21
642.05899799999997
 31
0.0
  0
LINE
  5
6C1
  8
0
 62
     7
 10
933.06394999999998
 20
655.09809900000005
 30
0.0
 11
943.73606900000004
 21
660.58495300000004
 31
0.0
  0
LINE
  5
6C2
  8
0
 62
     7
 10
933.06394999999998
 20
655.09809900000005
 30
0.0
 11
941.21586600000012
 21
663.90413699999999
 31
0.0
  0
LINE
  5
6C3
  8
0
 62
     7
 10
933.06394999999998
 20
655.09809900000005
 30
0.0
 11
859.23490900000002
 21
599.04060400000003
 31
0.0
  0
LINE
  5
6C4
  8
0
 62
     3
 10
-150.4087789999999
 20
415.1278079999999
 30
0.0
 11
-156.40877900000001
 21
415.1278079999999
 31
0.0
  0
LINE
  5
6C5
  8
0
 62
     3
 10
-51.408778999999988
 20
415.1278079999999
 30
0.0
 11
-57.408779000000003
 21
415.1278079999999
 31
0.0
  0
LINE
  5
6C6
  8
0
 62
     3
 10
-58.408779000000003
 20
415.1278079999999
 30
0.0
 11
-149.40877900000001
 21
415.1278079999999
 31
0.0
  0
LINE
  5
6C7
  8
0
 62
     3
 10
-156.40877800000001
 20
375.15515099999999
 30
0.0
 11
-156.40877900000001
 21
415.1278079999999
 31
0.0
  0
LINE
  5
6C8
  8
0
 62
     3
 10
-51.408778999999988
 20
415.1278079999999
 30
0.0
 11
-51.408778999999988
 21
375.15515099999999
 31
0.0
  0
LINE
  5
6C9
  8
0
 62
     3
 10
-57.408779000000003
 20
385.62780800000002
 30
0.0
 11
-150.4087789999999
 21
385.62780800000002
 31
0.0
  0
LINE
  5
6CA
  8
0
 62
     3
 10
-150.4087789999999
 20
386.782509
 30
0.0
 11
-150.4087789999999
 21
385.62780800000002
 31
0.0
  0
LINE
  5
6CB
  8
0
 62
     3
 10
-57.408779000000003
 20
386.782509
 30
0.0
 11
-57.408779000000003
 21
385.62780800000002
 31
0.0
  0
LINE
  5
6CC
  8
0
 62
     3
 10
-58.408779000000003
 20
404.62780900000001
 30
0.0
 11
-149.40877900000001
 21
404.62780900000001
 31
0.0
  0
LINE
  5
6CD
  8
0
 62
     3
 10
-150.4087789999999
 20
405.78250799999989
 30
0.0
 11
-150.4087789999999
 21
404.62780900000001
 31
0.0
  0
LINE
  5
6CE
  8
0
 62
     3
 10
-57.408779000000003
 20
405.78250799999989
 30
0.0
 11
-57.408779000000003
 21
404.62780900000001
 31
0.0
  0
LINE
  5
6CF
  8
0
 62
     3
 10
-150.4087789999999
 20
404.62780900000001
 30
0.0
 11
-150.4087789999999
 21
386.7825049999999
 31
0.0
  0
LINE
  5
6D0
  8
0
 62
     3
 10
-150.4087789999999
 20
415.1278079999999
 30
0.0
 11
-150.4087789999999
 21
405.78250799999989
 31
0.0
  0
LINE
  5
6D1
  8
0
 62
     3
 10
-149.40877900000001
 20
404.62780800000002
 30
0.0
 11
-149.40877900000001
 21
385.62780800000002
 31
0.0
  0
LINE
  5
6D2
  8
0
 62
     3
 10
-149.40877900000001
 20
415.1278079999999
 30
0.0
 11
-149.40877900000001
 21
404.62780900000001
 31
0.0
  0
LINE
  5
6D3
  8
0
 62
     3
 10
-149.40877900000001
 20
404.62780900000001
 30
0.0
 11
-150.4087789999999
 21
404.62780900000001
 31
0.0
  0
LINE
  5
6D4
  8
0
 62
     3
 10
-57.408779000000003
 20
404.62781000000001
 30
0.0
 11
-57.408779000000003
 21
386.78250700000001
 31
0.0
  0
LINE
  5
6D5
  8
0
 62
     3
 10
-57.408779000000003
 20
415.1278079999999
 30
0.0
 11
-57.40878699999999
 21
405.78250799999989
 31
0.0
  0
LINE
  5
6D6
  8
0
 62
     3
 10
-58.408779000000003
 20
404.62780900000001
 30
0.0
 11
-58.408779000000003
 21
385.62780800000002
 31
0.0
  0
LINE
  5
6D7
  8
0
 62
     3
 10
-58.408779000000003
 20
415.1278079999999
 30
0.0
 11
-58.408786999999997
 21
404.62780900000001
 31
0.0
  0
LINE
  5
6D8
  8
0
 62
     3
 10
-57.40878699999999
 20
404.62780900000001
 30
0.0
 11
-58.408786999999997
 21
404.62780900000001
 31
0.0
  0
LINE
  5
6D9
  8
0
 62
     7
 10
-127.878778
 20
451.12780800000002
 30
0.0
 11
-149.87877800000001
 21
451.12780800000002
 31
0.0
  0
LINE
  5
6DA
  8
0
 62
     7
 10
-127.878778
 20
453.62780800000002
 30
0.0
 11
-149.87877900000001
 21
453.62780800000002
 31
0.0
  0
LINE
  5
6DB
  8
0
 62
     7
 10
-57.878779999999999
 20
451.12780800000002
 30
0.0
 11
-79.878780000000006
 21
451.12780800000002
 31
0.0
  0
LINE
  5
6DC
  8
0
 62
     7
 10
-57.878779999999999
 20
453.62780800000002
 30
0.0
 11
-79.878780000000006
 21
453.62780800000002
 31
0.0
  0
LINE
  5
6DD
  8
0
 62
     7
 10
-92.878780000000006
 20
496.12780800000002
 30
0.0
 11
-114.87878000000001
 21
496.12780800000002
 31
0.0
  0
LINE
  5
6DE
  8
0
 62
     7
 10
-92.878780000000006
 20
498.6278079999999
 30
0.0
 11
-114.87878000000001
 21
498.6278079999999
 31
0.0
  0
LINE
  5
6DF
  8
0
 62
     7
 10
-92.878780000000006
 20
501.12780800000002
 30
0.0
 11
-114.87878000000001
 21
501.12780800000002
 31
0.0
  0
LINE
  5
6E0
  8
0
 62
     7
 10
-92.878780000000006
 20
503.62780800000002
 30
0.0
 11
-114.87878000000001
 21
503.62780800000002
 31
0.0
  0
LINE
  5
6E1
  8
0
 62
     7
 10
-127.878778
 20
456.12780800000002
 30
0.0
 11
-149.87877800000001
 21
456.12780800000002
 31
0.0
  0
LINE
  5
6E2
  8
0
 62
     7
 10
-127.878778
 20
458.62780800000002
 30
0.0
 11
-149.87877900000001
 21
458.62780800000002
 31
0.0
  0
LINE
  5
6E3
  8
0
 62
     7
 10
-57.878779999999999
 20
456.12780800000002
 30
0.0
 11
-79.878780000000006
 21
456.12780800000002
 31
0.0
  0
LINE
  5
6E4
  8
0
 62
     7
 10
-57.878779999999999
 20
458.62780800000002
 30
0.0
 11
-79.878780000000006
 21
458.62780800000002
 31
0.0
  0
LINE
  5
6E5
  8
0
 62
     3
 10
-78.378780000000006
 20
464.62780800000002
 30
0.0
 11
-78.378780000000006
 21
458.62780800000002
 31
0.0
  0
LINE
  5
6E6
  8
0
 62
     3
 10
-59.378780000000013
 20
464.62780800000002
 30
0.0
 11
-59.378780000000013
 21
458.62780800000002
 31
0.0
  0
LINE
  5
6E7
  8
0
 62
     3
 10
-59.378780000000013
 20
464.62780800000002
 30
0.0
 11
-78.378780000000006
 21
464.62780800000002
 31
0.0
  0
LINE
  5
6E8
  8
0
 62
     3
 10
-113.37878000000001
 20
509.62780800000002
 30
0.0
 11
-113.37878000000001
 21
503.62780800000002
 31
0.0
  0
LINE
  5
6E9
  8
0
 62
     3
 10
-94.378780000000006
 20
509.62780800000002
 30
0.0
 11
-94.378780000000006
 21
503.62780800000002
 31
0.0
  0
LINE
  5
6EA
  8
0
 62
     3
 10
-94.378780000000006
 20
509.62780800000002
 30
0.0
 11
-113.37878000000001
 21
509.62780800000002
 31
0.0
  0
LINE
  5
6EB
  8
0
 62
     3
 10
-113.37878000000001
 20
496.12780800000002
 30
0.0
 11
-113.37878000000001
 21
490.1278079999999
 31
0.0
  0
LINE
  5
6EC
  8
0
 62
     3
 10
-94.378780000000006
 20
496.12780800000002
 30
0.0
 11
-94.378780000000006
 21
490.1278079999999
 31
0.0
  0
LINE
  5
6ED
  8
0
 62
     3
 10
-94.378780000000006
 20
490.1278079999999
 30
0.0
 11
-113.37878000000001
 21
490.1278079999999
 31
0.0
  0
LINE
  5
6EE
  8
0
 62
     3
 10
-148.37877900000001
 20
451.12780800000002
 30
0.0
 11
-148.37877900000001
 21
445.12780800000002
 31
0.0
  0
LINE
  5
6EF
  8
0
 62
     3
 10
-129.37877800000001
 20
451.12780800000002
 30
0.0
 11
-129.37877800000001
 21
445.12780800000002
 31
0.0
  0
LINE
  5
6F0
  8
0
 62
     3
 10
-129.37877800000001
 20
445.12780800000002
 30
0.0
 11
-148.37877800000001
 21
445.12780800000002
 31
0.0
  0
LINE
  5
6F1
  8
0
 62
     3
 10
-148.37877900000001
 20
464.62780800000002
 30
0.0
 11
-148.37877900000001
 21
458.62780800000002
 31
0.0
  0
LINE
  5
6F2
  8
0
 62
     3
 10
-129.37877800000001
 20
464.62780800000002
 30
0.0
 11
-129.37877800000001
 21
458.62780800000002
 31
0.0
  0
LINE
  5
6F3
  8
0
 62
     3
 10
-129.37878000000001
 20
464.62780800000002
 30
0.0
 11
-148.37877900000001
 21
464.62780800000002
 31
0.0
  0
LINE
  5
6F4
  8
0
 62
     3
 10
-78.378780000000006
 20
451.12780800000002
 30
0.0
 11
-78.378780000000006
 21
445.12780800000002
 31
0.0
  0
LINE
  5
6F5
  8
0
 62
     3
 10
-59.378780000000013
 20
451.12780800000002
 30
0.0
 11
-59.378780000000013
 21
445.12780800000002
 31
0.0
  0
LINE
  5
6F6
  8
0
 62
     3
 10
-59.378780000000013
 20
445.12780800000002
 30
0.0
 11
-78.378780000000006
 21
445.12780800000002
 31
0.0
  0
LINE
  5
6F7
  8
0
 62
   230
 10
-98.878780000000006
 20
517.12780799999985
 30
0.0
 11
-108.87878000000001
 21
517.12780799999985
 31
0.0
  0
LINE
  5
6F8
  8
0
 62
   230
 10
-133.87877800000001
 20
472.12780800000002
 30
0.0
 11
-143.87877900000001
 21
472.12780800000002
 31
0.0
  0
LINE
  5
6F9
  8
0
 62
   230
 10
-63.878779999999999
 20
472.12780800000002
 30
0.0
 11
-73.878780000000006
 21
472.12780800000002
 31
0.0
  0
LINE
  5
6FA
  8
0
 62
     3
 10
-52.658779000000003
 20
415.1278079999999
 30
0.0
 11
-52.658779000000003
 21
375.15515099999999
 31
0.0
  0
LINE
  5
6FB
  8
0
 62
     3
 10
-155.15877900000001
 20
415.1278079999999
 30
0.0
 11
-155.15877900000001
 21
375.15515099999999
 31
0.0
  0
LINE
  5
6FC
  8
0
 62
     3
 10
-58.408779000000003
 20
386.782509
 30
0.0
 11
-149.40877900000001
 21
386.782509
 31
0.0
  0
LINE
  5
6FD
  8
0
 62
     3
 10
-58.408779000000003
 20
405.78250799999989
 30
0.0
 11
-149.40877900000001
 21
405.78250799999989
 31
0.0
  0
LINE
  5
6FE
  8
0
 62
     7
 10
-149.87877900000001
 20
453.62780800000002
 30
0.0
 11
-149.87877900000001
 21
451.12780800000002
 31
0.0
  0
LINE
  5
6FF
  8
0
 62
     7
 10
-127.878778
 20
453.62780800000002
 30
0.0
 11
-127.878778
 21
451.12780800000002
 31
0.0
  0
LINE
  5
700
  8
0
 62
     7
 10
-79.878780000000006
 20
453.62780800000002
 30
0.0
 11
-79.878780000000006
 21
451.12780800000002
 31
0.0
  0
LINE
  5
701
  8
0
 62
     7
 10
-57.878779999999999
 20
453.62780800000002
 30
0.0
 11
-57.878779999999999
 21
451.12780800000002
 31
0.0
  0
LINE
  5
702
  8
0
 62
     7
 10
-114.87878000000001
 20
498.6278079999999
 30
0.0
 11
-114.87878000000001
 21
496.12780800000002
 31
0.0
  0
LINE
  5
703
  8
0
 62
     7
 10
-92.878780000000006
 20
498.6278079999999
 30
0.0
 11
-92.878780000000006
 21
496.12780800000002
 31
0.0
  0
LINE
  5
704
  8
0
 62
     7
 10
-114.87878000000001
 20
503.62780800000002
 30
0.0
 11
-114.87878000000001
 21
501.12780800000002
 31
0.0
  0
LINE
  5
705
  8
0
 62
     7
 10
-92.878780000000006
 20
503.62780800000002
 30
0.0
 11
-92.878780000000006
 21
501.12780800000002
 31
0.0
  0
LINE
  5
706
  8
0
 62
     7
 10
-149.87877900000001
 20
458.62780800000002
 30
0.0
 11
-149.87877900000001
 21
456.12780800000002
 31
0.0
  0
LINE
  5
707
  8
0
 62
     7
 10
-127.878778
 20
458.62780800000002
 30
0.0
 11
-127.878778
 21
456.12780800000002
 31
0.0
  0
LINE
  5
708
  8
0
 62
     7
 10
-79.878780000000006
 20
458.62780800000002
 30
0.0
 11
-79.878780000000006
 21
456.12780800000002
 31
0.0
  0
LINE
  5
709
  8
0
 62
     7
 10
-57.878779999999999
 20
458.62780800000002
 30
0.0
 11
-57.878779999999999
 21
456.12780800000002
 31
0.0
  0
LINE
  5
70A
  8
0
 62
     3
 10
-68.878780000000006
 20
464.62780800000002
 30
0.0
 11
-68.878780000000006
 21
458.62780800000002
 31
0.0
  0
LINE
  5
70B
  8
0
 62
     3
 10
-103.87878000000001
 20
509.62780800000002
 30
0.0
 11
-103.87878000000001
 21
503.62780800000002
 31
0.0
  0
LINE
  5
70C
  8
0
 62
     3
 10
-103.87878000000001
 20
496.12780800000002
 30
0.0
 11
-103.87878000000001
 21
490.1278079999999
 31
0.0
  0
LINE
  5
70D
  8
0
 62
     3
 10
-138.87877800000001
 20
451.12780800000002
 30
0.0
 11
-138.87877800000001
 21
445.12780800000002
 31
0.0
  0
LINE
  5
70E
  8
0
 62
     3
 10
-138.87877800000001
 20
464.62780800000002
 30
0.0
 11
-138.87877800000001
 21
458.62780800000002
 31
0.0
  0
LINE
  5
70F
  8
0
 62
     3
 10
-68.878780000000006
 20
451.12780800000002
 30
0.0
 11
-68.878780000000006
 21
445.12780800000002
 31
0.0
  0
LINE
  5
710
  8
0
 62
     2
 10
-76.878780000000006
 20
445.12780800000002
 30
0.0
 11
-76.878780000000006
 21
415.1278079999999
 31
0.0
  0
LINE
  5
711
  8
0
 62
     2
 10
-60.878779999999999
 20
445.12780800000002
 30
0.0
 11
-60.878779999999999
 21
415.1278079999999
 31
0.0
  0
LINE
  5
712
  8
0
 62
     2
 10
-146.87877900000001
 20
445.12780800000002
 30
0.0
 11
-146.87877900000001
 21
415.1278089999999
 31
0.0
  0
LINE
  5
713
  8
0
 62
     2
 10
-130.87877800000001
 20
445.12780800000002
 30
0.0
 11
-130.87877800000001
 21
415.1278079999999
 31
0.0
  0
LINE
  5
714
  8
0
 62
     2
 10
-111.87877999999991
 20
490.1278079999999
 30
0.0
 11
-111.87877999999991
 21
415.1278079999999
 31
0.0
  0
LINE
  5
715
  8
0
 62
     2
 10
-95.878780000000006
 20
490.1278079999999
 30
0.0
 11
-95.878780000000006
 21
415.1278079999999
 31
0.0
  0
LINE
  5
716
  8
0
 62
   230
 10
-97.878780000000006
 20
516.12780799999985
 30
0.0
 11
-98.878780000000006
 21
517.12780799999985
 31
0.0
  0
LINE
  5
717
  8
0
 62
   230
 10
-108.878784
 20
517.12780799999985
 30
0.0
 11
-109.878784
 21
516.12780799999985
 31
0.0
  0
LINE
  5
718
  8
0
 62
   230
 10
-102.708237
 20
516.12780799999985
 30
0.0
 11
-103.87878000000001
 21
516.12780799999985
 31
0.0
  0
LINE
  5
719
  8
0
 62
   230
 10
-101.58268
 20
516.12780799999985
 30
0.0
 11
-102.708237
 21
516.12780799999985
 31
0.0
  0
LINE
  5
71A
  8
0
 62
   230
 10
-100.545357
 20
516.12780799999985
 30
0.0
 11
-101.58268
 21
516.12780799999985
 31
0.0
  0
LINE
  5
71B
  8
0
 62
   230
 10
-99.636139
 20
516.12780799999985
 30
0.0
 11
-100.545357
 21
516.12780799999985
 31
0.0
  0
LINE
  5
71C
  8
0
 62
   230
 10
-98.889960999999985
 20
516.12780799999985
 30
0.0
 11
-99.636139
 21
516.12780799999985
 31
0.0
  0
LINE
  5
71D
  8
0
 62
   230
 10
-98.335503000000003
 20
516.12780799999985
 30
0.0
 11
-98.889960999999985
 21
516.12780799999985
 31
0.0
  0
LINE
  5
71E
  8
0
 62
   230
 10
-97.994067999999984
 20
516.12780799999985
 30
0.0
 11
-98.335503000000003
 21
516.12780799999985
 31
0.0
  0
LINE
  5
71F
  8
0
 62
   230
 10
-97.878780000000006
 20
516.12780799999985
 30
0.0
 11
-97.994067999999984
 21
516.12780799999985
 31
0.0
  0
LINE
  5
720
  8
0
 62
   230
 10
-97.878780000000006
 20
516.12780799999985
 30
0.0
 11
-97.878780000000006
 21
509.62780800000002
 31
0.0
  0
LINE
  5
721
  8
0
 62
   230
 10
-97.878780000000006
 20
501.12780800000002
 30
0.0
 11
-97.878780000000006
 21
498.6278079999999
 31
0.0
  0
LINE
  5
722
  8
0
 62
   230
 10
-109.87877999999991
 20
516.12780799999985
 30
0.0
 11
-109.87877999999991
 21
509.62780800000002
 31
0.0
  0
LINE
  5
723
  8
0
 62
   230
 10
-109.87877999999991
 20
501.12780800000002
 30
0.0
 11
-109.87877999999991
 21
498.6278079999999
 31
0.0
  0
LINE
  5
724
  8
0
 62
   230
 10
-109.7634929999999
 20
516.12780799999985
 30
0.0
 11
-109.87877999999991
 21
516.12780799999985
 31
0.0
  0
LINE
  5
725
  8
0
 62
   230
 10
-109.42205799999989
 20
516.12780799999985
 30
0.0
 11
-109.7634929999999
 21
516.12780799999985
 31
0.0
  0
LINE
  5
726
  8
0
 62
   230
 10
-108.86759599999991
 20
516.12780799999985
 30
0.0
 11
-109.42205799999989
 21
516.12780799999985
 31
0.0
  0
LINE
  5
727
  8
0
 62
   230
 10
-108.12141799999991
 20
516.12780799999985
 30
0.0
 11
-108.86759599999991
 21
516.12780799999985
 31
0.0
  0
LINE
  5
728
  8
0
 62
   230
 10
-107.2122
 20
516.12780799999985
 30
0.0
 11
-108.12141799999991
 21
516.12780799999985
 31
0.0
  0
LINE
  5
729
  8
0
 62
   230
 10
-106.174881
 20
516.12780799999985
 30
0.0
 11
-107.2122
 21
516.12780799999985
 31
0.0
  0
LINE
  5
72A
  8
0
 62
   230
 10
-105.04931999999999
 20
516.12780799999985
 30
0.0
 11
-106.174881
 21
516.12780799999985
 31
0.0
  0
LINE
  5
72B
  8
0
 62
   230
 10
-103.87878000000001
 20
516.12780799999985
 30
0.0
 11
-105.04931999999999
 21
516.12780799999985
 31
0.0
  0
LINE
  5
72C
  8
0
 62
   230
 10
-132.87877800000001
 20
471.12780800000002
 30
0.0
 11
-133.87877800000001
 21
472.12780800000002
 31
0.0
  0
LINE
  5
72D
  8
0
 62
   230
 10
-143.87878000000001
 20
472.12780800000002
 30
0.0
 11
-144.87878000000001
 21
471.12780800000002
 31
0.0
  0
LINE
  5
72E
  8
0
 62
   230
 10
-137.708237
 20
471.12780800000002
 30
0.0
 11
-138.87877800000001
 21
471.12780800000002
 31
0.0
  0
LINE
  5
72F
  8
0
 62
   230
 10
-136.58267799999999
 20
471.12780800000002
 30
0.0
 11
-137.708237
 21
471.12780800000002
 31
0.0
  0
LINE
  5
730
  8
0
 62
   230
 10
-135.54535699999991
 20
471.12780800000002
 30
0.0
 11
-136.58267799999999
 21
471.12780800000002
 31
0.0
  0
LINE
  5
731
  8
0
 62
   230
 10
-134.6361389999999
 20
471.12780800000002
 30
0.0
 11
-135.54535699999991
 21
471.12780800000002
 31
0.0
  0
LINE
  5
732
  8
0
 62
   230
 10
-133.889961
 20
471.12780800000002
 30
0.0
 11
-134.6361389999999
 21
471.12780800000002
 31
0.0
  0
LINE
  5
733
  8
0
 62
   230
 10
-133.33550299999999
 20
471.12780800000002
 30
0.0
 11
-133.889961
 21
471.12780800000002
 31
0.0
  0
LINE
  5
734
  8
0
 62
   230
 10
-132.99406799999991
 20
471.12780800000002
 30
0.0
 11
-133.33550299999999
 21
471.12780800000002
 31
0.0
  0
LINE
  5
735
  8
0
 62
   230
 10
-132.87877800000001
 20
471.12780800000002
 30
0.0
 11
-132.99406799999991
 21
471.12780800000002
 31
0.0
  0
LINE
  5
736
  8
0
 62
   230
 10
-132.87877800000001
 20
471.12780800000002
 30
0.0
 11
-132.87877800000001
 21
464.62780800000002
 31
0.0
  0
LINE
  5
737
  8
0
 62
   230
 10
-132.87877800000001
 20
456.12780800000002
 30
0.0
 11
-132.87877800000001
 21
453.62780800000002
 31
0.0
  0
LINE
  5
738
  8
0
 62
   230
 10
-144.87877900000001
 20
471.12780800000002
 30
0.0
 11
-144.87877900000001
 21
464.62780800000002
 31
0.0
  0
LINE
  5
739
  8
0
 62
   230
 10
-144.87877900000001
 20
456.12780800000002
 30
0.0
 11
-144.87877900000001
 21
453.62780800000002
 31
0.0
  0
LINE
  5
73A
  8
0
 62
   230
 10
-144.7634909999999
 20
471.12780800000002
 30
0.0
 11
-144.87877900000001
 21
471.12780800000002
 31
0.0
  0
LINE
  5
73B
  8
0
 62
   230
 10
-144.42205599999991
 20
471.12780800000002
 30
0.0
 11
-144.7634909999999
 21
471.12780800000002
 31
0.0
  0
LINE
  5
73C
  8
0
 62
   230
 10
-143.86759699999999
 20
471.12780800000002
 30
0.0
 11
-144.42205599999991
 21
471.12780800000002
 31
0.0
  0
LINE
  5
73D
  8
0
 62
   230
 10
-143.12142
 20
471.12780800000002
 30
0.0
 11
-143.86759699999999
 21
471.12780800000002
 31
0.0
  0
LINE
  5
73E
  8
0
 62
   230
 10
-142.21219999999991
 20
471.12780800000002
 30
0.0
 11
-143.12142
 21
471.12780800000002
 31
0.0
  0
LINE
  5
73F
  8
0
 62
   230
 10
-141.17487999999989
 20
471.12780800000002
 30
0.0
 11
-142.21219999999991
 21
471.12780800000002
 31
0.0
  0
LINE
  5
740
  8
0
 62
   230
 10
-140.04931999999991
 20
471.12780800000002
 30
0.0
 11
-141.17487999999989
 21
471.12780800000002
 31
0.0
  0
LINE
  5
741
  8
0
 62
   230
 10
-138.87877800000001
 20
471.12780800000002
 30
0.0
 11
-140.04931999999991
 21
471.12780800000002
 31
0.0
  0
LINE
  5
742
  8
0
 62
   230
 10
-62.878779999999999
 20
471.12780800000002
 30
0.0
 11
-63.878779999999999
 21
472.12780800000002
 31
0.0
  0
LINE
  5
743
  8
0
 62
   230
 10
-73.878780000000006
 20
472.12780400000003
 30
0.0
 11
-74.878780000000006
 21
471.12780400000003
 31
0.0
  0
LINE
  5
744
  8
0
 62
   230
 10
-67.708241000000001
 20
471.12780800000002
 30
0.0
 11
-68.878780000000006
 21
471.12780800000002
 31
0.0
  0
LINE
  5
745
  8
0
 62
   230
 10
-66.582676000000006
 20
471.12780800000002
 30
0.0
 11
-67.708241000000001
 21
471.12780800000002
 31
0.0
  0
LINE
  5
746
  8
0
 62
   230
 10
-65.545360999999986
 20
471.12780800000002
 30
0.0
 11
-66.582676000000006
 21
471.12780800000002
 31
0.0
  0
LINE
  5
747
  8
0
 62
   230
 10
-64.636134999999996
 20
471.12780800000002
 30
0.0
 11
-65.545360999999986
 21
471.12780800000002
 31
0.0
  0
LINE
  5
748
  8
0
 62
   230
 10
-63.889965000000011
 20
471.12780800000002
 30
0.0
 11
-64.636134999999996
 21
471.12780800000002
 31
0.0
  0
LINE
  5
749
  8
0
 62
   230
 10
-63.335498999999999
 20
471.12780800000002
 30
0.0
 11
-63.889965000000011
 21
471.12780800000002
 31
0.0
  0
LINE
  5
74A
  8
0
 62
   230
 10
-62.994067999999999
 20
471.12780800000002
 30
0.0
 11
-63.335498999999999
 21
471.12780800000002
 31
0.0
  0
LINE
  5
74B
  8
0
 62
   230
 10
-62.878779999999999
 20
471.12780800000002
 30
0.0
 11
-62.994067999999999
 21
471.12780800000002
 31
0.0
  0
LINE
  5
74C
  8
0
 62
   230
 10
-62.878779999999999
 20
471.12780800000002
 30
0.0
 11
-62.878779999999999
 21
464.62780800000002
 31
0.0
  0
LINE
  5
74D
  8
0
 62
   230
 10
-62.878779999999999
 20
456.12780800000002
 30
0.0
 11
-62.878779999999999
 21
453.62780800000002
 31
0.0
  0
LINE
  5
74E
  8
0
 62
   230
 10
-74.878780000000006
 20
471.12780800000002
 30
0.0
 11
-74.878780000000006
 21
464.62780800000002
 31
0.0
  0
LINE
  5
74F
  8
0
 62
   230
 10
-74.878780000000006
 20
456.12780800000002
 30
0.0
 11
-74.878780000000006
 21
453.62780800000002
 31
0.0
  0
LINE
  5
750
  8
0
 62
   230
 10
-74.763493000000011
 20
471.12780800000002
 30
0.0
 11
-74.878780000000006
 21
471.12780800000002
 31
0.0
  0
LINE
  5
751
  8
0
 62
   230
 10
-74.422054000000003
 20
471.12780800000002
 30
0.0
 11
-74.763493000000011
 21
471.12780800000002
 31
0.0
  0
LINE
  5
752
  8
0
 62
   230
 10
-73.867595999999992
 20
471.12780800000002
 30
0.0
 11
-74.422054000000003
 21
471.12780800000002
 31
0.0
  0
LINE
  5
753
  8
0
 62
   230
 10
-73.121418000000006
 20
471.12780800000002
 30
0.0
 11
-73.867595999999992
 21
471.12780800000002
 31
0.0
  0
LINE
  5
754
  8
0
 62
   230
 10
-72.212199999999996
 20
471.12780800000002
 30
0.0
 11
-73.121418000000006
 21
471.12780800000002
 31
0.0
  0
LINE
  5
755
  8
0
 62
   230
 10
-71.174876999999995
 20
471.12780800000002
 30
0.0
 11
-72.212199999999996
 21
471.12780800000002
 31
0.0
  0
LINE
  5
756
  8
0
 62
   230
 10
-70.049319999999994
 20
471.12780800000002
 30
0.0
 11
-71.174876999999995
 21
471.12780800000002
 31
0.0
  0
LINE
  5
757
  8
0
 62
   230
 10
-68.878780000000006
 20
471.12780800000002
 30
0.0
 11
-70.049319999999994
 21
471.12780800000002
 31
0.0
  0
POLYLINE
  5
758
  8
0
 62
     3
 66
     1
 10
0.0
 20
0.0
 30
0.0
  0
VERTEX
  5
CF7
  8
0
 62
     3
 10
-45.454478999999999
 20
375.15515099999999
 30
0.0
  0
VERTEX
  5
CF8
  8
0
 62
     3
 10
-61.454478999999999
 20
375.15515099999999
 30
0.0
  0
VERTEX
  5
CF9
  8
0
 62
     3
 10
-62.454479000000013
 20
373.15515099999999
 30
0.0
  0
VERTEX
  5
CFA
  8
0
 62
     3
 10
-63.454478999999999
 20
377.15515099999999
 30
0.0
  0
VERTEX
  5
CFB
  8
0
 62
     3
 10
-64.454479000000006
 20
375.15515099999999
 30
0.0
  0
VERTEX
  5
CFC
  8
0
 62
     3
 10
-80.454479000000006
 20
375.15515099999999
 30
0.0
  0
VERTEX
  5
CFD
  8
0
 62
     3
 10
-81.454479000000006
 20
373.15515099999999
 30
0.0
  0
VERTEX
  5
CFE
  8
0
 62
     3
 10
-82.454479000000006
 20
377.15515099999999
 30
0.0
  0
VERTEX
  5
CFF
  8
0
 62
     3
 10
-83.454479000000006
 20
375.15515099999999
 30
0.0
  0
VERTEX
  5
D00
  8
0
 62
     3
 10
-99.454479000000006
 20
375.15515099999999
 30
0.0
  0
VERTEX
  5
D01
  8
0
 62
     3
 10
-100.45447900000001
 20
373.15515099999999
 30
0.0
  0
VERTEX
  5
D02
  8
0
 62
     3
 10
-101.45447899999991
 20
377.15515099999999
 30
0.0
  0
VERTEX
  5
D03
  8
0
 62
     3
 10
-102.45447899999991
 20
375.15515099999999
 30
0.0
  0
VERTEX
  5
D04
  8
0
 62
     3
 10
-118.45447900000001
 20
375.15515099999999
 30
0.0
  0
VERTEX
  5
D05
  8
0
 62
     3
 10
-119.45447900000001
 20
373.15515099999999
 30
0.0
  0
VERTEX
  5
D06
  8
0
 62
     3
 10
-120.45447900000001
 20
377.15515099999999
 30
0.0
  0
VERTEX
  5
D07
  8
0
 62
     3
 10
-121.45447900000001
 20
375.15515099999999
 30
0.0
  0
VERTEX
  5
D08
  8
0
 62
     3
 10
-137.45447899999991
 20
375.15515099999999
 30
0.0
  0
VERTEX
  5
D09
  8
0
 62
     3
 10
-138.45447899999991
 20
373.15515099999999
 30
0.0
  0
VERTEX
  5
D0A
  8
0
 62
     3
 10
-139.45447899999991
 20
377.15515099999999
 30
0.0
  0
VERTEX
  5
D0B
  8
0
 62
     3
 10
-140.45447899999991
 20
375.15515099999999
 30
0.0
  0
VERTEX
  5
D0C
  8
0
 62
     3
 10
-156.45447899999999
 20
375.15515099999999
 30
0.0
  0
VERTEX
  5
D0D
  8
0
 62
     3
 10
-157.45447899999999
 20
373.15515099999999
 30
0.0
  0
VERTEX
  5
D0E
  8
0
 62
     3
 10
-158.45447899999991
 20
377.15515099999999
 30
0.0
  0
VERTEX
  5
D0F
  8
0
 62
     3
 10
-159.45447899999999
 20
375.15515099999999
 30
0.0
  0
VERTEX
  5
D10
  8
0
 62
     3
 10
-163.45568999999989
 20
375.15515099999999
 30
0.0
  0
SEQEND
  5
D11
  8
0
 62
     3
  0
LINE
  5
774
  8
0
  6
DASHDOT
 62
     7
 10
-103.87878000000001
 20
523.64000700000008
 30
0.0
 11
-103.87878000000001
 21
366.52358599999991
 31
0.0
  0
LINE
  5
775
  8
0
  6
DASHDOT
 62
     7
 10
-68.878780000000006
 20
479.49881699999992
 30
0.0
 11
-68.878780000000006
 21
366.52358599999991
 31
0.0
  0
LINE
  5
776
  8
0
  6
DASHDOT
 62
     7
 10
-138.87877800000001
 20
479.60807799999998
 30
0.0
 11
-138.87877800000001
 21
366.52358599999991
 31
0.0
  0
LINE
  5
777
  8
0
 62
     3
 10
-143.87878000000001
 20
472.12780800000002
 30
0.0
 11
-143.87878000000001
 21
464.62780800000002
 31
0.0
  0
LINE
  5
778
  8
0
 62
     3
 10
-133.87877800000001
 20
472.12780800000002
 30
0.0
 11
-133.87877800000001
 21
464.62780800000002
 31
0.0
  0
LINE
  5
779
  8
0
 62
     3
 10
-108.878784
 20
517.12780799999985
 30
0.0
 11
-108.878784
 21
509.62780800000002
 31
0.0
  0
LINE
  5
77A
  8
0
 62
     3
 10
-98.878780000000006
 20
517.12780799999985
 30
0.0
 11
-98.878780000000006
 21
509.62780800000002
 31
0.0
  0
LINE
  5
77B
  8
0
 62
     3
 10
-73.878780000000006
 20
472.12780400000003
 30
0.0
 11
-73.878780000000006
 21
464.62780800000002
 31
0.0
  0
LINE
  5
77C
  8
0
 62
     3
 10
-63.878779999999999
 20
472.12780800000002
 30
0.0
 11
-63.878779999999999
 21
464.62780800000002
 31
0.0
  0
LINE
  5
77D
  8
0
 62
     3
 10
-63.878779999999999
 20
456.12780800000002
 30
0.0
 11
-63.878779999999999
 21
453.62780800000002
 31
0.0
  0
LINE
  5
77E
  8
0
 62
     3
 10
-73.878780000000006
 20
456.12780800000002
 30
0.0
 11
-73.878780000000006
 21
453.62780800000002
 31
0.0
  0
LINE
  5
77F
  8
0
 62
     3
 10
-108.87878000000001
 20
501.12780800000002
 30
0.0
 11
-108.87878000000001
 21
498.6278079999999
 31
0.0
  0
LINE
  5
780
  8
0
 62
     3
 10
-98.878780000000006
 20
501.12780800000002
 30
0.0
 11
-98.878780000000006
 21
498.6278079999999
 31
0.0
  0
LINE
  5
781
  8
0
 62
     3
 10
-133.87877800000001
 20
456.12780800000002
 30
0.0
 11
-133.87877800000001
 21
453.62780800000002
 31
0.0
  0
LINE
  5
782
  8
0
 62
     3
 10
-143.87877900000001
 20
456.12780800000002
 30
0.0
 11
-143.87877900000001
 21
453.62780800000002
 31
0.0
  0
LINE
  5
783
  8
0
 62
     7
 10
-45.673000000000002
 20
417.12780800000002
 30
0.0
 11
-60.878779999999999
 21
417.12780800000002
 31
0.0
  0
LINE
  5
784
  8
0
 62
     7
 10
-46.328564
 20
420.1278079999999
 30
0.0
 11
-60.878779999999999
 21
420.1278079999999
 31
0.0
  0
POLYLINE
  5
785
  8
0
 62
     3
 66
     1
 10
0.0
 20
0.0
 30
0.0
  0
VERTEX
  5
D12
  8
0
 62
     3
 10
-162.36308600000001
 20
412.74072699999988
 30
0.0
  0
VERTEX
  5
D13
  8
0
 62
     3
 10
-163.55697000000001
 20
420.69995599999987
 30
0.0
  0
VERTEX
  5
D14
  8
0
 62
     3
 10
-165.68318400000001
 20
421.39221099999997
 30
0.0
  0
VERTEX
  5
D15
  8
0
 62
     3
 10
-161.87577799999991
 20
422.9745099999999
 30
0.0
  0
VERTEX
  5
D16
  8
0
 62
     3
 10
-164.001992
 20
423.666765
 30
0.0
  0
SEQEND
  5
D17
  8
0
 62
     3
  0
POLYLINE
  5
78C
  8
0
 62
     3
 66
     1
 10
0.0
 20
0.0
 30
0.0
  0
VERTEX
  5
D18
  8
0
 62
     3
 10
-45.673000000000002
 20
412.84998799999988
 30
0.0
  0
VERTEX
  5
D19
  8
0
 62
     3
 10
-47.037227999999999
 20
421.0353639999999
 30
0.0
  0
VERTEX
  5
D1A
  8
0
 62
     3
 10
-49.174419
 20
421.69295899999992
 30
0.0
  0
VERTEX
  5
D1B
  8
0
 62
     3
 10
-45.393237999999997
 20
423.336949
 30
0.0
  0
VERTEX
  5
D1C
  8
0
 62
     3
 10
-47.530429999999988
 20
423.99454500000002
 30
0.0
  0
SEQEND
  5
D1D
  8
0
 62
     3
  0
LINE
  5
793
  8
0
 62
     7
 10
-76.878780000000006
 20
420.1278079999999
 30
0.0
 11
-95.878780000000006
 21
420.1278079999999
 31
0.0
  0
LINE
  5
794
  8
0
 62
     7
 10
-76.878780000000006
 20
417.12780800000002
 30
0.0
 11
-95.878780000000006
 21
417.12780800000002
 31
0.0
  0
LINE
  5
795
  8
0
 62
     7
 10
-111.87877999999991
 20
420.1278079999999
 30
0.0
 11
-130.87877800000001
 21
420.1278079999999
 31
0.0
  0
LINE
  5
796
  8
0
 62
     7
 10
-111.87877999999991
 20
417.12780800000002
 30
0.0
 11
-130.87877800000001
 21
417.12780800000002
 31
0.0
  0
LINE
  5
797
  8
0
 62
     7
 10
-146.87877900000001
 20
420.1278079999999
 30
0.0
 11
-162.69086699999991
 21
420.1278079999999
 31
0.0
  0
LINE
  5
798
  8
0
 62
     7
 10
-146.87877900000001
 20
417.12780800000002
 30
0.0
 11
-162.144565
 21
417.12780800000002
 31
0.0
  0
LINE
  5
799
  8
0
  6
DASHDOT
 62
     7
 10
-121.37878000000001
 20
431.53642999999988
 30
0.0
 11
-121.37878000000001
 21
411.10182099999997
 31
0.0
  0
LINE
  5
79A
  8
0
  6
DASHDOT
 62
     7
 10
-86.378780000000006
 20
431.68491299999999
 30
0.0
 11
-86.378780000000006
 21
411.10182099999997
 31
0.0
  0
LINE
  5
79B
  8
0
 62
     7
 10
-91.378780000000006
 20
417.12780800000002
 30
0.0
 11
-91.378780000000006
 21
415.1278079999999
 31
0.0
  0
LINE
  5
79C
  8
0
 62
     7
 10
-81.378780000000006
 20
417.12780800000002
 30
0.0
 11
-81.378780000000006
 21
415.1278079999999
 31
0.0
  0
LINE
  5
79D
  8
0
 62
     7
 10
-126.37878000000001
 20
417.12780800000002
 30
0.0
 11
-126.37878000000001
 21
415.1278079999999
 31
0.0
  0
LINE
  5
79E
  8
0
 62
     7
 10
-116.37878000000001
 20
417.12780800000002
 30
0.0
 11
-116.37878000000001
 21
415.1278079999999
 31
0.0
  0
LINE
  5
79F
  8
0
 62
     7
 10
-146.87878000000001
 20
456.12780800000002
 30
0.0
 11
-146.87878000000001
 21
453.62780800000002
 31
0.0
  0
LINE
  5
7A0
  8
0
 62
     7
 10
-130.87878000000001
 20
456.12780800000002
 30
0.0
 11
-130.87878000000001
 21
453.62780800000002
 31
0.0
  0
LINE
  5
7A1
  8
0
 62
     7
 10
-60.878779999999999
 20
456.12780800000002
 30
0.0
 11
-60.878779999999999
 21
453.62780800000002
 31
0.0
  0
LINE
  5
7A2
  8
0
 62
     7
 10
-76.878780000000006
 20
456.12780800000002
 30
0.0
 11
-76.878780000000006
 21
453.62780800000002
 31
0.0
  0
LINE
  5
7A3
  8
0
 62
     7
 10
-82.378780000000006
 20
424.1278079999999
 30
0.0
 11
-90.378780000000006
 21
424.1278079999999
 31
0.0
  0
LINE
  5
7A4
  8
0
 62
     7
 10
-83.878780000000006
 20
428.1278079999999
 30
0.0
 11
-88.878780000000006
 21
428.1278079999999
 31
0.0
  0
LINE
  5
7A5
  8
0
 62
     7
 10
-125.37878000000001
 20
424.1278079999999
 30
0.0
 11
-125.37878000000001
 21
420.1278079999999
 31
0.0
  0
LINE
  5
7A6
  8
0
 62
     7
 10
-117.37878000000001
 20
424.1278079999999
 30
0.0
 11
-117.37878000000001
 21
420.1278079999999
 31
0.0
  0
LINE
  5
7A7
  8
0
 62
     7
 10
-90.378780000000006
 20
424.1278079999999
 30
0.0
 11
-90.378780000000006
 21
420.1278079999999
 31
0.0
  0
LINE
  5
7A8
  8
0
 62
     7
 10
-82.378780000000006
 20
424.1278079999999
 30
0.0
 11
-82.378780000000006
 21
420.1278079999999
 31
0.0
  0
LINE
  5
7A9
  8
0
 62
     7
 10
-88.878780000000006
 20
428.1278079999999
 30
0.0
 11
-88.878780000000006
 21
420.1278079999999
 31
0.0
  0
LINE
  5
7AA
  8
0
 62
     7
 10
-83.878780000000006
 20
428.1278079999999
 30
0.0
 11
-83.878780000000006
 21
420.1278079999999
 31
0.0
  0
LINE
  5
7AB
  8
0
 62
     7
 10
-123.87878000000001
 20
428.1278079999999
 30
0.0
 11
-123.87878000000001
 21
420.1278079999999
 31
0.0
  0
LINE
  5
7AC
  8
0
 62
     7
 10
-118.87878000000001
 20
428.1278079999999
 30
0.0
 11
-118.87878000000001
 21
420.1278079999999
 31
0.0
  0
LINE
  5
7AD
  8
0
 62
     7
 10
-118.87878000000001
 20
428.1278079999999
 30
0.0
 11
-123.87878000000001
 21
428.1278079999999
 31
0.0
  0
LINE
  5
7AE
  8
0
 62
     7
 10
-117.37878000000001
 20
424.1278079999999
 30
0.0
 11
-125.37878000000001
 21
424.1278079999999
 31
0.0
  0
CIRCLE
  5
7AF
  8
0
 62
     7
 10
-122.299751
 20
422.90918299999993
 30
0.0
 40
0.2
  0
LINE
  5
7B0
  8
0
  6
DASHDOT
 62
     7
 10
-103.87878000000001
 20
479.60807799999998
 30
0.0
 11
-103.87878000000001
 21
366.52358599999991
 31
0.0
  0
LINE
  5
7B1
  8
0
 62
     7
 10
-68.878780000000006
 20
543.70747400000005
 30
0.0
 11
-74.787623999999994
 21
544.74935900000003
 31
0.0
  0
LINE
  5
7B2
  8
0
 62
     7
 10
-68.878780000000006
 20
543.70747400000005
 30
0.0
 11
-74.787623999999994
 21
542.66558799999984
 31
0.0
  0
LINE
  5
7B3
  8
0
 62
     7
 10
-103.87878000000001
 20
543.70747400000005
 30
0.0
 11
-97.969932999999997
 21
542.66558799999984
 31
0.0
  0
LINE
  5
7B4
  8
0
 62
     7
 10
-103.87878000000001
 20
543.70747400000005
 30
0.0
 11
-97.969932999999997
 21
544.74935900000003
 31
0.0
  0
LINE
  5
7B5
  8
0
 62
     7
 10
-103.87878000000001
 20
543.70747400000005
 30
0.0
 11
-109.7876279999999
 21
544.74935900000003
 31
0.0
  0
LINE
  5
7B6
  8
0
 62
     7
 10
-103.87878000000001
 20
543.70747400000005
 30
0.0
 11
-109.7876279999999
 21
542.66558799999984
 31
0.0
  0
LINE
  5
7B7
  8
0
 62
     7
 10
-138.87878000000001
 20
543.70747400000005
 30
0.0
 11
-132.96993599999999
 21
542.66558799999984
 31
0.0
  0
LINE
  5
7B8
  8
0
 62
     7
 10
-138.87878000000001
 20
543.70747400000005
 30
0.0
 11
-132.96993599999999
 21
544.74935900000003
 31
0.0
  0
LINE
  5
7B9
  8
0
 62
     7
 10
-68.878780000000006
 20
543.70747400000005
 30
0.0
 11
-138.87878000000001
 21
543.70747400000005
 31
0.0
  0
LINE
  5
7BA
  8
0
 62
     7
 10
-68.878780000000006
 20
547.70747400000005
 30
0.0
 11
-68.878780000000006
 21
479.49880999999988
 31
0.0
  0
LINE
  5
7BB
  8
0
 62
     7
 10
-103.87878000000001
 20
547.70747400000005
 30
0.0
 11
-103.87878000000001
 21
523.63999899999988
 31
0.0
  0
LINE
  5
7BC
  8
0
 62
     7
 10
-138.87878000000001
 20
547.70747400000005
 30
0.0
 11
-138.87878000000001
 21
479.608093
 31
0.0
  0
LINE
  5
7BD
  8
0
 62
     7
 10
-204.815044
 20
517.12780799999985
 30
0.0
 11
-205.85693000000001
 21
511.21896399999991
 31
0.0
  0
LINE
  5
7BE
  8
0
 62
     7
 10
-204.815044
 20
517.12780799999985
 30
0.0
 11
-203.77315899999999
 21
511.21896399999991
 31
0.0
  0
LINE
  5
7BF
  8
0
 62
     7
 10
-204.815044
 20
417.12780800000002
 30
0.0
 11
-203.77315899999999
 21
423.03665199999989
 31
0.0
  0
LINE
  5
7C0
  8
0
 62
     7
 10
-204.815044
 20
417.12780800000002
 30
0.0
 11
-205.85693000000001
 21
423.03665199999989
 31
0.0
  0
LINE
  5
7C1
  8
0
 62
     7
 10
-204.815044
 20
517.12780799999985
 30
0.0
 11
-204.815044
 21
417.12780800000002
 31
0.0
  0
LINE
  5
7C2
  8
0
 62
     7
 10
-208.815044
 20
517.12780799999985
 30
0.0
 11
-108.87878000000001
 21
517.12782300000003
 31
0.0
  0
LINE
  5
7C3
  8
0
 62
     7
 10
-208.815044
 20
417.12780800000002
 30
0.0
 11
-162.14455799999999
 21
417.12780800000002
 31
0.0
  0
LINE
  5
7C4
  8
0
 62
     7
 10
-188.68569600000001
 20
472.12780800000002
 30
0.0
 11
-189.72758099999999
 21
466.21896400000003
 31
0.0
  0
LINE
  5
7C5
  8
0
 62
     7
 10
-188.68569600000001
 20
472.12780800000002
 30
0.0
 11
-187.64381
 21
466.21896400000003
 31
0.0
  0
LINE
  5
7C6
  8
0
 62
     7
 10
-188.68569600000001
 20
417.12780800000002
 30
0.0
 11
-187.64381
 21
423.03665199999989
 31
0.0
  0
LINE
  5
7C7
  8
0
 62
     7
 10
-188.68569600000001
 20
417.12780800000002
 30
0.0
 11
-189.72758099999999
 21
423.03665199999989
 31
0.0
  0
LINE
  5
7C8
  8
0
 62
     7
 10
-188.68569600000001
 20
472.12780800000002
 30
0.0
 11
-188.68569600000001
 21
417.12780800000002
 31
0.0
  0
LINE
  5
7C9
  8
0
 62
     7
 10
-192.68569600000001
 20
472.12780800000002
 30
0.0
 11
-143.87878000000001
 21
472.12780800000002
 31
0.0
  0
LINE
  5
7CA
  8
0
 62
     7
 10
-192.68569600000001
 20
417.12780800000002
 30
0.0
 11
-162.14455799999999
 21
417.12780800000002
 31
0.0
  0
LINE
  5
7CB
  8
0
 62
     7
 10
-32.768658000000002
 20
453.62780800000002
 30
0.0
 11
-33.810550999999997
 21
447.71896399999991
 31
0.0
  0
LINE
  5
7CC
  8
0
 62
     7
 10
-32.768658000000002
 20
453.62780800000002
 30
0.0
 11
-31.72677199999999
 21
447.71896399999991
 31
0.0
  0
LINE
  5
7CD
  8
0
 62
     7
 10
-32.768658000000002
 20
417.12780800000002
 30
0.0
 11
-31.72677199999999
 21
423.03665199999989
 31
0.0
  0
LINE
  5
7CE
  8
0
 62
     7
 10
-32.768658000000002
 20
417.12780800000002
 30
0.0
 11
-33.810543000000003
 21
423.03665199999989
 31
0.0
  0
LINE
  5
7CF
  8
0
 62
     7
 10
-32.768658000000002
 20
453.62780800000002
 30
0.0
 11
-32.768658000000002
 21
417.12780800000002
 31
0.0
  0
LINE
  5
7D0
  8
0
 62
     7
 10
-28.768657999999999
 20
453.62780800000002
 30
0.0
 11
-57.878788
 21
453.62780800000002
 31
0.0
  0
LINE
  5
7D1
  8
0
 62
     7
 10
-28.768657999999999
 20
417.12780800000002
 30
0.0
 11
-45.673008000000003
 21
417.12780800000002
 31
0.0
  0
LINE
  5
7D2
  8
0
 62
     7
 10
-17.176952
 20
498.6278079999999
 30
0.0
 11
-18.218838000000002
 21
492.71896399999991
 31
0.0
  0
LINE
  5
7D3
  8
0
 62
     7
 10
-17.176952
 20
498.6278079999999
 30
0.0
 11
-16.135066999999999
 21
492.71896399999991
 31
0.0
  0
LINE
  5
7D4
  8
0
 62
     7
 10
-17.176952
 20
417.12780800000002
 30
0.0
 11
-16.135066999999999
 21
423.03665199999989
 31
0.0
  0
LINE
  5
7D5
  8
0
 62
     7
 10
-17.176952
 20
417.12780800000002
 30
0.0
 11
-18.218838000000002
 21
423.03665199999989
 31
0.0
  0
LINE
  5
7D6
  8
0
 62
     7
 10
-17.176952
 20
498.6278079999999
 30
0.0
 11
-17.176952
 21
417.12780800000002
 31
0.0
  0
LINE
  5
7D7
  8
0
 62
     7
 10
-13.176951999999989
 20
498.6278079999999
 30
0.0
 11
-92.878780000000006
 21
498.6278079999999
 31
0.0
  0
LINE
  5
7D8
  8
0
 62
     7
 10
-13.176951999999989
 20
417.12780800000002
 30
0.0
 11
-45.673000000000002
 21
417.12780800000002
 31
0.0
  0
LINE
  5
7D9
  8
0
 62
     7
 10
-97.878780000000006
 20
529.54351799999995
 30
0.0
 11
-91.969936000000004
 21
528.50161700000001
 31
0.0
  0
LINE
  5
7DA
  8
0
 62
     7
 10
-97.878780000000006
 20
529.54351799999995
 30
0.0
 11
-91.969936000000004
 21
530.58540300000004
 31
0.0
  0
LINE
  5
7DB
  8
0
 62
     7
 10
-109.87877999999991
 20
529.54351799999995
 30
0.0
 11
-115.78762399999999
 21
530.58540300000004
 31
0.0
  0
LINE
  5
7DC
  8
0
 62
     7
 10
-109.87877999999991
 20
529.54351799999995
 30
0.0
 11
-115.78762399999999
 21
528.50161700000001
 31
0.0
  0
LINE
  5
7DD
  8
0
 62
     7
 10
-80.878780000000006
 20
529.54351799999995
 30
0.0
 11
-109.87877999999991
 21
529.54351799999995
 31
0.0
  0
LINE
  5
7DE
  8
0
 62
     7
 10
-97.878780000000006
 20
533.54351799999995
 30
0.0
 11
-97.878780000000006
 21
516.12780799999985
 31
0.0
  0
LINE
  5
7DF
  8
0
 62
     7
 10
-109.87877999999991
 20
533.54351799999995
 30
0.0
 11
-109.87877999999991
 21
516.12780799999985
 31
0.0
  0
LINE
  5
7E0
  8
0
 62
     7
 10
-68.878780000000006
 20
543.70747400000005
 30
0.0
 11
-74.787623999999994
 21
544.74935900000003
 31
0.0
  0
LINE
  5
7E1
  8
0
 62
     7
 10
-68.878780000000006
 20
543.70747400000005
 30
0.0
 11
-74.787623999999994
 21
542.66558799999984
 31
0.0
  0
LINE
  5
7E2
  8
0
 62
     7
 10
-103.87878000000001
 20
543.70747400000005
 30
0.0
 11
-97.969932999999997
 21
542.66558799999984
 31
0.0
  0
LINE
  5
7E3
  8
0
 62
     7
 10
-103.87878000000001
 20
543.70747400000005
 30
0.0
 11
-97.969932999999997
 21
544.74935900000003
 31
0.0
  0
LINE
  5
7E4
  8
0
 62
     7
 10
-68.878780000000006
 20
543.70747400000005
 30
0.0
 11
-103.87878000000001
 21
543.70747400000005
 31
0.0
  0
LINE
  5
7E5
  8
0
 62
     7
 10
-68.878780000000006
 20
547.70747400000005
 30
0.0
 11
-68.878780000000006
 21
479.49880999999988
 31
0.0
  0
LINE
  5
7E6
  8
0
 62
     7
 10
-103.87878000000001
 20
547.70747400000005
 30
0.0
 11
-103.87878000000001
 21
523.64001499999995
 31
0.0
  0
INSERT
  5
9AF
  8
0
  2
BLOCK0
 10
-103.87878000000001
 20
713.73154299999999
 30
0.0
 50
90.0
  0
INSERT
  5
9B0
  8
0
  2
BLOCK1
 10
-103.87878000000001
 20
713.73154299999999
 30
0.0
 50
90.0
  0
INSERT
  5
9B1
  8
0
  2
BLOCK2
 10
-103.87878000000001
 20
713.73154299999999
 30
0.0
 50
90.0
  0
INSERT
  5
9B2
  8
0
  2
BLOCK3
 10
-103.87878000000001
 20
713.73154299999999
 30
0.0
 50
90.0
  0
INSERT
  5
9B3
  8
0
  2
BLOCK4
 10
-103.87878000000001
 20
713.73154299999999
 30
0.0
 50
90.0
  0
INSERT
  5
9B4
  8
0
  2
BLOCK5
 10
-103.87878000000001
 20
713.73154299999999
 30
0.0
 50
90.0
  0
INSERT
  5
9B5
  8
0
  2
BLOCK6
 10
-103.87878000000001
 20
713.73154299999999
 30
0.0
 50
90.0
  0
INSERT
  5
9B6
  8
0
  2
BLOCK7
 10
-103.87878000000001
 20
713.73154299999999
 30
0.0
 50
90.0
  0
INSERT
  5
9B7
  8
0
  2
BLOCK8
 10
-103.87878000000001
 20
713.73154299999999
 30
0.0
 50
90.0
  0
INSERT
  5
9B8
  8
0
  2
BLOCK9
 10
-103.87878000000001
 20
713.73154299999999
 30
0.0
 50
90.0
  0
INSERT
  5
9B9
  8
0
  2
BLOCK10
 10
-103.87878000000001
 20
713.73154299999999
 30
0.0
 50
90.0
  0
INSERT
  5
9BA
  8
0
  2
BLOCK11
 10
-103.87878000000001
 20
713.73154299999999
 30
0.0
 50
90.0
  0
INSERT
  5
9BB
  8
0
  2
BLOCK12
 10
204.91709899999989
 20
713.73156700000004
 30
0.0
  0
INSERT
  5
9BC
  8
0
  2
BLOCK13
 10
204.91709899999989
 20
713.73156700000004
 30
0.0
  0
INSERT
  5
9BD
  8
0
  2
BLOCK14
 10
204.91709899999989
 20
713.73156700000004
 30
0.0
  0
INSERT
  5
9BE
  8
0
  2
BLOCK15
 10
204.91709899999989
 20
713.73156700000004
 30
0.0
  0
INSERT
  5
9BF
  8
0
  2
BLOCK16
 10
204.91709899999989
 20
713.73156700000004
 30
0.0
  0
INSERT
  5
9C0
  8
0
  2
BLOCK17
 10
204.91709899999989
 20
713.73156700000004
 30
0.0
  0
INSERT
  5
9C1
  8
0
  2
BLOCK18
 10
204.91709899999989
 20
713.73156700000004
 30
0.0
  0
INSERT
  5
9C2
  8
0
  2
BLOCK19
 10
204.91709899999989
 20
713.73156700000004
 30
0.0
  0
INSERT
  5
9C3
  8
0
  2
BLOCK20
 10
204.91709899999989
 20
713.73156700000004
 30
0.0
  0
INSERT
  5
9C4
  8
0
  2
BLOCK21
 10
204.91709899999989
 20
713.73156700000004
 30
0.0
  0
INSERT
  5
9C5
  8
0
  2
BLOCK22
 10
204.91709899999989
 20
713.73156700000004
 30
0.0
  0
INSERT
  5
9C6
  8
0
  2
BLOCK23
 10
204.91709899999989
 20
713.73156700000004
 30
0.0
  0
INSERT
  5
9C7
  8
0
  2
BLOCK24
 10
204.91709899999989
 20
713.73156700000004
 30
0.0
  0
INSERT
  5
9C8
  8
0
  2
BLOCK25
 10
204.91709899999989
 20
713.73156700000004
 30
0.0
  0
INSERT
  5
9C9
  8
0
  2
BLOCK26
 10
204.91709899999989
 20
713.73156700000004
 30
0.0
  0
INSERT
  5
9CA
  8
0
  2
BLOCK27
 10
204.91709899999989
 20
713.73156700000004
 30
0.0
  0
INSERT
  5
9CB
  8
0
  2
BLOCK28
 10
204.91709899999989
 20
713.73156700000004
 30
0.0
  0
INSERT
  5
9CC
  8
0
  2
BLOCK29
 10
204.91709899999989
 20
713.73156700000004
 30
0.0
  0
INSERT
  5
9CD
  8
0
  2
BLOCK30
 10
204.91709899999989
 20
713.73156700000004
 30
0.0
  0
INSERT
  5
9CE
  8
0
  2
BLOCK31
 10
204.91709899999989
 20
713.73156700000004
 30
0.0
  0
INSERT
  5
9CF
  8
0
  2
BLOCK32
 10
204.91709899999989
 20
713.73156700000004
 30
0.0
  0
INSERT
  5
9D0
  8
0
  2
BLOCK33
 10
204.91709899999989
 20
713.73156700000004
 30
0.0
  0
INSERT
  5
9D1
  8
0
  2
BLOCK34
 10
204.91709899999989
 20
713.73156700000004
 30
0.0
  0
INSERT
  5
9D2
  8
0
  2
BLOCK35
 10
204.91709899999989
 20
713.73156700000004
 30
0.0
  0
INSERT
  5
9D3
  8
0
  2
BLOCK36
 10
204.91709899999989
 20
713.73156700000004
 30
0.0
  0
INSERT
  5
9D4
  8
0
  2
BLOCK37
 10
204.91709899999989
 20
713.73156700000004
 30
0.0
  0
INSERT
  5
9D5
  8
0
  2
BLOCK38
 10
204.91709899999989
 20
713.73156700000004
 30
0.0
  0
INSERT
  5
9D6
  8
0
  2
BLOCK39
 10
-98.217551999999998
 20
224.40988200000001
 30
0.0
 50
180.0
  0
INSERT
  5
9D7
  8
0
  2
BLOCK40
 10
-98.217551999999998
 20
224.40988200000001
 30
0.0
 50
180.0
  0
INSERT
  5
9D8
  8
0
  2
BLOCK41
 10
-98.217551999999998
 20
224.40988200000001
 30
0.0
 50
180.0
  0
INSERT
  5
9D9
  8
0
  2
BLOCK42
 10
-98.217551999999998
 20
224.40988200000001
 30
0.0
 50
180.0
  0
INSERT
  5
9DA
  8
0
  2
BLOCK43
 10
-98.217551999999998
 20
224.40988200000001
 30
0.0
 50
180.0
  0
INSERT
  5
9DB
  8
0
  2
BLOCK44
 10
-98.217551999999998
 20
224.40988200000001
 30
0.0
 50
180.0
  0
INSERT
  5
9DC
  8
0
  2
BLOCK45
 10
-98.217551999999998
 20
224.40988200000001
 30
0.0
 50
180.0
  0
INSERT
  5
9DD
  8
0
  2
BLOCK46
 10
584.61798099999987
 20
726.23156700000004
 30
0.0
 50
180.0
  0
INSERT
  5
9DE
  8
0
  2
BLOCK47
 10
556.3354662823682
 20
725.37492327414895
 30
0.0
 50
180.0
  0
INSERT
  5
9DF
  8
0
  2
BLOCK48
 10
584.61798099999987
 20
726.23156700000004
 30
0.0
 50
180.0
  0
INSERT
  5
9E0
  8
0
  2
BLOCK49
 10
584.61798099999987
 20
726.23156700000004
 30
0.0
 50
180.0
  0
INSERT
  5
9E1
  8
0
  2
BLOCK50
 10
584.61798099999987
 20
726.23156700000004
 30
0.0
 50
180.0
  0
INSERT
  5
9E2
  8
0
  2
BLOCK51
 10
584.61798099999987
 20
726.23156700000004
 30
0.0
 50
180.0
  0
INSERT
  5
9E5
  8
0
  2
BLOCK54
 10
584.61798099999987
 20
726.23156700000004
 30
0.0
 50
180.0
  0
INSERT
  5
9E6
  8
0
  2
BLOCK55
 10
584.61798099999987
 20
726.23156700000004
 30
0.0
 50
180.0
  0
INSERT
  5
9E7
  8
0
  2
BLOCK56
 10
584.61798099999987
 20
726.23156700000004
 30
0.0
 50
180.0
  0
INSERT
  5
9E8
  8
0
  2
BLOCK57
 10
584.61798099999987
 20
726.23156700000004
 30
0.0
 50
180.0
  0
INSERT
  5
9E9
  8
0
  2
BLOCK58
 10
584.61798099999987
 20
726.23156700000004
 30
0.0
 50
180.0
  0
INSERT
  5
9EA
  8
0
  2
BLOCK59
 10
584.61798099999987
 20
726.23156700000004
 30
0.0
 50
180.0
  0
INSERT
  5
9EB
  8
0
  2
BLOCK60
 10
584.61798099999987
 20
726.23156700000004
 30
0.0
 50
180.0
  0
INSERT
  5
9EC
  8
0
  2
BLOCK61
 10
584.61798099999987
 20
726.23156700000004
 30
0.0
 50
180.0
  0
INSERT
  5
9ED
  8
0
  2
BLOCK62
 10
584.61798099999987
 20
726.23156700000004
 30
0.0
 50
180.0
  0
INSERT
  5
9EE
  8
0
  2
BLOCK63
 10
584.61798099999987
 20
726.23156700000004
 30
0.0
 50
180.0
  0
INSERT
  5
9EF
  8
0
  2
BLOCK64
 10
970.27641300000005
 20
726.23156700000004
 30
0.0
 50
270.0
  0
INSERT
  5
9F0
  8
0
  2
BLOCK65
 10
970.27641300000005
 20
726.23156700000004
 30
0.0
 50
270.0
  0
INSERT
  5
9F1
  8
0
  2
BLOCK66
 10
970.27641300000005
 20
726.23156700000004
 30
0.0
 50
270.0
  0
INSERT
  5
9F2
  8
0
  2
BLOCK67
 10
970.27641300000005
 20
726.23156700000004
 30
0.0
 50
270.0
  0
INSERT
  5
9F3
  8
0
  2
BLOCK68
 10
970.27641300000005
 20
726.23156700000004
 30
0.0
 50
270.0
  0
INSERT
  5
9F4
  8
0
  2
BLOCK69
 10
970.27641300000005
 20
726.23156700000004
 30
0.0
 50
270.0
  0
INSERT
  5
9F5
  8
0
  2
BLOCK70
 10
970.27641300000005
 20
726.23156700000004
 30
0.0
 50
270.0
  0
INSERT
  5
9F6
  8
0
  2
BLOCK71
 10
970.27641300000005
 20
726.23156700000004
 30
0.0
 50
270.0
  0
INSERT
  5
9F7
  8
0
  2
BLOCK72
 10
970.27641300000005
 20
726.23156700000004
 30
0.0
 50
270.0
  0
INSERT
  5
9F8
  8
0
  2
BLOCK73
 10
970.27641300000005
 20
726.23156700000004
 30
0.0
 50
270.0
  0
INSERT
  5
9F9
  8
0
  2
BLOCK74
 10
-156.40877900000001
 20
416.12780800000002
 30
0.0
 50
180.0
  0
INSERT
  5
9FA
  8
0
  2
BLOCK75
 10
-156.40877900000001
 20
416.12780800000002
 30
0.0
 50
180.0
  0
INSERT
  5
9FB
  8
0
  2
BLOCK76
 10
-156.40877900000001
 20
416.12780800000002
 30
0.0
 50
180.0
  0
INSERT
  5
9FC
  8
0
  2
BLOCK77
 10
-156.40877900000001
 20
416.12780800000002
 30
0.0
 50
180.0
  0
INSERT
  5
9FD
  8
0
  2
BLOCK78
 10
-156.40877900000001
 20
416.12780800000002
 30
0.0
 50
180.0
  0
INSERT
  5
9FE
  8
0
  2
BLOCK79
 10
-156.40877900000001
 20
416.12780800000002
 30
0.0
 50
180.0
  0
INSERT
  5
9FF
  8
0
  2
BLOCK80
 10
-156.40877900000001
 20
416.12780800000002
 30
0.0
 50
180.0
  0
INSERT
  5
A00
  8
0
  2
BLOCK81
 10
-156.40877900000001
 20
416.12780800000002
 30
0.0
 50
180.0
  0
INSERT
  5
A01
  8
0
  2
BLOCK82
 10
-156.40877900000001
 20
416.12780800000002
 30
0.0
 50
180.0
  0
INSERT
  5
A02
  8
0
  2
BLOCK83
 10
-156.40877900000001
 20
416.12780800000002
 30
0.0
 50
180.0
  0
INSERT
  5
A03
  8
0
  2
BLOCK84
 10
-156.40877900000001
 20
416.12780800000002
 30
0.0
 50
180.0
  0
VIEWPORT
  5
7E7
 67
     1
  8
0
 62
     0
 10
0.0
 20
0.0
 30
0.0
 40
1000.0
 41
1000.0
 68
     1
 69
     1
1001
ACAD
1000
MVIEW
1002
{
1070
    16
1010
0.0
1020
0.0
1030
0.0
1010
0.0
1020
0.0
1030
1.0
1040
0.0
1040
1000.0
1040
0.0
1040
0.0
1040
50.0
1040
0.0
1040
0.0
1070
     0
1070
   100
1070
     1
1070
     1
1070
     0
1070
     0
1070
     0
1070
     0
1040
0.0
1040
0.0
1040
0.0
1040
1.0
1040
1.0
1040
1.0
1040
1.0
1070
     0
1002
{
1002
}
1002
}
  0
ENDSEC
  0
EOF
