  0
SECTION
  2
HEADER
  9
$ACADVER
  1
AC1009
  9
$INSBASE
 10
0.0
 20
0.0
 30
0.0
  9
$EXTMIN
 10
89.17087
 20
124.2776
 30
0.0
  9
$EXTMAX
 10
1986.709
 20
1265.567
 30
0.0
  9
$LIMMIN
 10
0.0
 20
0.0
  9
$LIMMAX
 10
12.0
 20
9.0
  9
$ORTHOMODE
 70
     0
  9
$REGENMODE
 70
     1
  9
$FILLMODE
 70
     1
  9
$QTEXTMODE
 70
     0
  9
$MIRRTEXT
 70
     1
  9
$DRAGMODE
 70
     2
  9
$LTSCALE
 40
20.0
  9
$OSMODE
 70
    63
  9
$ATTMODE
 70
     1
  9
$TEXTSIZE
 40
0.2
  9
$TRACEWID
 40
0.05
  9
$TEXTSTYLE
  7
STANDARD
  9
$CLAYER
  8
0
  9
$CELTYPE
  6
CONTINUOUS
  9
$CECOLOR
 62
   256
  9
$DIMSCALE
 40
1.0
  9
$DIMASZ
 40
10.0
  9
$DIMEXO
 40
0.0625
  9
$DIMDLI
 40
0.38
  9
$DIMRND
 40
0.0
  9
$DIMDLE
 40
0.0
  9
$DIMEXE
 40
0.18
  9
$DIMTP
 40
0.0
  9
$DIMTM
 40
0.0
  9
$DIMTXT
 40
10.0
  9
$DIMCEN
 40
0.09
  9
$DIMTSZ
 40
0.0
  9
$DIMTOL
 70
     0
  9
$DIMLIM
 70
     0
  9
$DIMTIH
 70
     1
  9
$DIMTOH
 70
     1
  9
$DIMSE1
 70
     0
  9
$DIMSE2
 70
     0
  9
$DIMTAD
 70
     0
  9
$DIMZIN
 70
     0
  9
$DIMBLK
  1

  9
$DIMASO
 70
     1
  9
$DIMSHO
 70
     1
  9
$DIMPOST
  1

  9
$DIMAPOST
  1

  9
$DIMALT
 70
     0
  9
$DIMALTD
 70
     2
  9
$DIMALTF
 40
25.4
  9
$DIMLFAC
 40
1.0
  9
$DIMTOFL
 70
     0
  9
$DIMTVP
 40
0.0
  9
$DIMTIX
 70
     0
  9
$DIMSOXD
 70
     0
  9
$DIMSAH
 70
     0
  9
$DIMBLK1
  1

  9
$DIMBLK2
  1

  9
$DIMSTYLE
  2
STANDARD
  9
$DIMCLRD
 70
     1
  9
$DIMCLRE
 70
     1
  9
$DIMCLRT
 70
     1
  9
$DIMTFAC
 40
1.0
  9
$DIMGAP
 40
10.0
  9
$LUNITS
 70
     2
  9
$LUPREC
 70
     4
  9
$SKETCHINC
 40
0.1
  9
$FILLETRAD
 40
0.0
  9
$AUNITS
 70
     0
  9
$AUPREC
 70
     0
  9
$MENU
  1
acad
  9
$ELEVATION
 40
0.0
  9
$PELEVATION
 40
0.0
  9
$THICKNESS
 40
0.0
  9
$LIMCHECK
 70
     0
  9
$BLIPMODE
 70
     0
  9
$CHAMFERA
 40
0.0
  9
$CHAMFERB
 40
0.0
  9
$SKPOLY
 70
     0
  9
$TDCREATE
 40
2452055.646584
  9
$TDUPDATE
 40
2452058.35635
  9
$TDINDWG
 40
0.008594
  9
$TDUSRTIMER
 40
0.008594
  9
$USRTIMER
 70
     1
  9
$ANGBASE
 50
0.0
  9
$ANGDIR
 70
     0
  9
$PDMODE
 70
     0
  9
$PDSIZE
 40
0.0
  9
$PLINEWID
 40
0.0
  9
$COORDS
 70
     1
  9
$SPLFRAME
 70
     0
  9
$SPLINETYPE
 70
     6
  9
$SPLINESEGS
 70
     8
  9
$ATTDIA
 70
     0
  9
$ATTREQ
 70
     1
  9
$HANDLING
 70
     1
  9
$HANDSEED
  5
61C
  9
$SURFTAB1
 70
     6
  9
$SURFTAB2
 70
     6
  9
$SURFTYPE
 70
     6
  9
$SURFU
 70
     6
  9
$SURFV
 70
     6
  9
$UCSNAME
  2

  9
$UCSORG
 10
0.0
 20
0.0
 30
0.0
  9
$UCSXDIR
 10
1.0
 20
0.0
 30
0.0
  9
$UCSYDIR
 10
0.0
 20
1.0
 30
0.0
  9
$PUCSNAME
  2

  9
$PUCSORG
 10
0.0
 20
0.0
 30
0.0
  9
$PUCSXDIR
 10
1.0
 20
0.0
 30
0.0
  9
$PUCSYDIR
 10
0.0
 20
1.0
 30
0.0
  9
$USERI1
 70
     0
  9
$USERI2
 70
     0
  9
$USERI3
 70
     0
  9
$USERI4
 70
     0
  9
$USERI5
 70
     0
  9
$USERR1
 40
0.0
  9
$USERR2
 40
0.0
  9
$USERR3
 40
0.0
  9
$USERR4
 40
0.0
  9
$USERR5
 40
0.0
  9
$WORLDVIEW
 70
     1
  9
$SHADEDGE
 70
     3
  9
$SHADEDIF
 70
    70
  9
$TILEMODE
 70
     1
  9
$MAXACTVP
 70
    48
  9
$PLIMCHECK
 70
     0
  9
$PEXTMIN
 10
1.000000E+020
 20
1.000000E+020
 30
1.000000E+020
  9
$PEXTMAX
 10
-1.000000E+020
 20
-1.000000E+020
 30
-1.000000E+020
  9
$PLIMMIN
 10
0.0
 20
0.0
  9
$PLIMMAX
 10
12.0
 20
9.0
  9
$UNITMODE
 70
     0
  9
$VISRETAIN
 70
     1
  9
$PLINEGEN
 70
     0
  9
$PSLTSCALE
 70
     1
  0
ENDSEC
  0
SECTION
  2
TABLES
  0
TABLE
  2
VPORT
 70
     2
  0
VPORT
  2
*ACTIVE
 70
     0
 10
0.0
 20
0.0
 11
1.0
 21
1.0
 12
993.3545
 22
632.7835
 13
0.0
 23
0.0
 14
1.0
 24
1.0
 15
0.0
 25
0.0
 16
0.0
 26
0.0
 36
1.0
 17
0.0
 27
0.0
 37
0.0
 40
1273.636503
 41
1.679787
 42
50.0
 43
0.0
 44
0.0
 50
0.0
 51
0.0
 71
     0
 72
   100
 73
     1
 74
     1
 75
     0
 76
     0
 77
     0
 78
     0
  0
ENDTAB
  0
TABLE
  2
LTYPE
 70
     3
  0
LTYPE
  2
CONTINUOUS
 70
     0
  3
Solid line
 72
    65
 73
     0
 40
0.0
  0
LTYPE
  2
CENTER
 70
     0
  3
____ _ ____ _ ____ _ ____ _ ____ _ ____
 72
    65
 73
     4
 40
2.0
 49
1.25
 49
-0.25
 49
0.25
 49
-0.25
  0
LTYPE
  2
DASHED
 70
     0
  3
_ _ _ _ _ _ _ _ _ _ _ _ _ _ _ _ _ _ _ _ _
 72
    65
 73
     2
 40
0.75
 49
0.5
 49
-0.25
  0
ENDTAB
  0
TABLE
  2
LAYER
 70
     5
  0
LAYER
  2
0
 70
     0
 62
     7
  6
CONTINUOUS
  0
LAYER
  2
5
 70
     0
 62
     7
  6
CONTINUOUS
  0
LAYER
  2
6
 70
     0
 62
     5
  6
CENTER
  0
LAYER
  2
7
 70
     0
 62
     3
  6
DASHED
  0
LAYER
  2
BYLAYER
 70
     0
 62
     7
  6
CONTINUOUS
  0
ENDTAB
  0
TABLE
  2
STYLE
 70
     1
  0
STYLE
  2
STANDARD
 70
     0
 40
0.0
 41
1.0
 50
0.0
 71
     0
 42
0.2
  3
txt
  4

  0
ENDTAB
  0
TABLE
  2
VIEW
 70
     0
  0
ENDTAB
  0
TABLE
  2
UCS
 70
     0
  0
ENDTAB
  0
TABLE
  2
APPID
 70
     1
  0
APPID
  2
ACAD
 70
     0
  0
ENDTAB
  0
TABLE
  2
DIMSTYLE
 70
     1
  0
DIMSTYLE
  2
STANDARD
 70
     0
  3

  4

  5

  6

  7

 40
1.0
 41
0.18
 42
0.0625
 43
0.38
 44
0.18
 45
0.0
 46
0.0
 47
0.0
 48
0.0
140
0.18
141
0.09
142
0.0
143
25.4
144
1.0
145
0.0
146
1.0
147
0.09
 71
     0
 72
     0
 73
     1
 74
     1
 75
     0
 76
     0
 77
     0
 78
     0
170
     0
171
     2
172
     0
173
     0
174
     0
175
     0
176
     0
177
     0
178
     0
  0
ENDTAB
  0
ENDSEC
  0
SECTION
  2
BLOCKS
  0
BLOCK
  8
0
  2
$MODEL_SPACE
 70
     0
 10
0.0
 20
0.0
 30
0.0
  3
$MODEL_SPACE
  1

  0
ENDBLK
  5
1A
  8
0
  0
BLOCK
 67
     1
  8
0
  2
$PAPER_SPACE
 70
     0
 10
0.0
 20
0.0
 30
0.0
  3
$PAPER_SPACE
  1

  0
ENDBLK
  5
17
 67
     1
  8
0
  0
BLOCK
  8
0
  2
A$C05293501
 70
     0
 10
0.0
 20
0.0
 30
0.0
  3
A$C05293501
  1

  0
LINE
  5
5F4
  8
5
  6
CONTINUOUS
 10
60.4918
 20
70.750001
 30
0.0
 11
60.4918
 21
0.000001
 31
0.0
  0
LINE
  5
5F5
  8
5
  6
CENTER
 10
60.4918
 20
70.750001
 30
0.0
 11
60.4918
 21
0.000001
 31
0.0
  0
LINE
  5
5F6
  8
5
  6
CONTINUOUS
 10
50.4918
 20
70.750001
 30
0.0
 11
50.4918
 21
0.000001
 31
0.0
  0
LINE
  5
5F7
  8
5
  6
CENTER
 10
50.4918
 20
70.750001
 30
0.0
 11
50.4918
 21
0.000001
 31
0.0
  0
LINE
  5
5F8
  8
5
  6
CONTINUOUS
 10
40.4918
 20
70.750001
 30
0.0
 11
40.4918
 21
0.000001
 31
0.0
  0
LINE
  5
5F9
  8
5
  6
CENTER
 10
40.4918
 20
70.750001
 30
0.0
 11
40.4918
 21
0.000001
 31
0.0
  0
LINE
  5
5FA
  8
5
  6
CONTINUOUS
 10
30.4918
 20
70.750001
 30
0.0
 11
30.4918
 21
0.000001
 31
0.0
  0
LINE
  5
5FB
  8
5
  6
CENTER
 10
30.4918
 20
70.750001
 30
0.0
 11
30.4918
 21
0.000001
 31
0.0
  0
LINE
  5
5FC
  8
5
  6
CONTINUOUS
 10
20.4918
 20
70.750001
 30
0.0
 11
20.4918
 21
13.187001
 31
0.0
  0
LINE
  5
5FD
  8
5
  6
CENTER
 10
20.4918
 20
70.750001
 30
0.0
 11
20.4918
 21
12.818001
 31
0.0
  0
LINE
  5
5FE
  8
5
  6
CONTINUOUS
 10
10.4918
 20
70.750001
 30
0.0
 11
10.4918
 21
35.248001
 31
0.0
  0
LINE
  5
5FF
  8
5
  6
CENTER
 10
10.4918
 20
70.750001
 30
0.0
 11
10.4918
 21
35.248001
 31
0.0
  0
LINE
  5
600
  8
5
  6
CONTINUOUS
 10
0.7536
 20
40.776001
 30
0.0
 11
70.6364
 21
40.776001
 31
0.0
  0
LINE
  5
601
  8
5
  6
CONTINUOUS
 10
0.0
 20
40.776001
 30
0.0
 11
70.6364
 21
40.776001
 31
0.0
  0
LINE
  5
602
  8
5
  6
CONTINUOUS
 10
10.8588
 20
30.776001
 30
0.0
 11
70.6364
 21
30.776001
 31
0.0
  0
LINE
  5
603
  8
5
  6
CONTINUOUS
 10
6.8688
 20
30.776001
 30
0.0
 11
70.6364
 21
30.776001
 31
0.0
  0
LINE
  5
604
  8
5
  6
CONTINUOUS
 10
10.4918
 20
20.776001
 30
0.0
 11
70.6364
 21
20.776001
 31
0.0
  0
LINE
  5
605
  8
5
  6
CONTINUOUS
 10
10.4918
 20
20.776001
 30
0.0
 11
70.6364
 21
20.776001
 31
0.0
  0
LINE
  5
606
  8
5
  6
CONTINUOUS
 10
23.4865
 20
10.776001
 30
0.0
 11
70.6364
 21
10.776001
 31
0.0
  0
LINE
  5
607
  8
5
  6
CONTINUOUS
 10
22.9952
 20
10.776001
 30
0.0
 11
70.6364
 21
10.776001
 31
0.0
  0
LINE
  5
608
  8
5
  6
CONTINUOUS
 10
1.2561
 20
60.776001
 30
0.0
 11
70.6364
 21
60.776001
 31
0.0
  0
LINE
  5
609
  8
5
  6
CONTINUOUS
 10
1.2561
 20
60.776001
 30
0.0
 11
70.6364
 21
60.776001
 31
0.0
  0
LINE
  5
60A
  8
5
  6
CONTINUOUS
 10
0.2512
 20
50.776001
 30
0.0
 11
70.6364
 21
50.776001
 31
0.0
  0
LINE
  5
60B
  8
5
  6
CONTINUOUS
 10
0.2512
 20
50.776001
 30
0.0
 11
70.6364
 21
50.776001
 31
0.0
  0
ENDBLK
  5
60D
  8
0
  0
BLOCK
  8
0
  2
A$C27E33DB7
 70
     0
 10
0.0
 20
0.0
 30
0.0
  3
A$C27E33DB7
  1

  0
INSERT
  5
60F
  8
0
  6
CONTINUOUS
  2
A$C05293501
 10
0.0
 20
-0.000001
 30
0.0
  0
ENDBLK
  5
611
  8
0
  0
ENDSEC
  0
SECTION
  2
ENTITIES
  0
LINE
  5
25
  8
5
  6
CONTINUOUS
 10
805.4284
 20
1187.367
 30
0.0
 11
850.9284
 21
1187.367
 31
0.0
  0
LINE
  5
26
  8
5
  6
CONTINUOUS
 10
651.9284
 20
957.0667
 30
0.0
 11
651.9284
 21
902.0667
 31
0.0
  0
LINE
  5
27
  8
5
  6
CONTINUOUS
 10
656.9284
 20
961.0667
 30
0.0
 11
664.9284
 21
961.0667
 31
0.0
  0
LINE
  5
28
  8
5
  6
CONTINUOUS
 10
664.9284
 20
961.0667
 30
0.0
 11
746.9284
 21
961.0667
 31
0.0
  0
LINE
  5
29
  8
5
  6
CONTINUOUS
 10
754.9284
 20
961.0667
 30
0.0
 11
746.9284
 21
961.0667
 31
0.0
  0
LINE
  5
2A
  8
5
  6
CONTINUOUS
 10
1078.928
 20
1187.367
 30
0.0
 11
1124.428
 21
1187.367
 31
0.0
  0
LINE
  5
2B
  8
5
  6
CONTINUOUS
 10
1247.928
 20
810.8667
 30
0.0
 11
843.9284
 21
810.8667
 31
0.0
  0
LINE
  5
2C
  8
5
  6
CONTINUOUS
 10
1078.428
 20
1190.367
 30
0.0
 11
1078.428
 21
1241.867
 31
0.0
  0
LINE
  5
2D
  8
5
  6
CONTINUOUS
 10
851.4284
 20
1241.867
 30
0.0
 11
851.4284
 21
1190.367
 31
0.0
  0
LINE
  5
2E
  8
5
  6
CONTINUOUS
 10
809.9284
 20
1165.367
 30
0.0
 11
809.9284
 21
1187.367
 31
0.0
  0
LINE
  5
2F
  8
5
  6
CONTINUOUS
 10
1119.928
 20
1165.367
 30
0.0
 11
1119.928
 21
1187.367
 31
0.0
  0
LINE
  5
30
  8
5
  6
CONTINUOUS
 10
1078.928
 20
1142.367
 30
0.0
 11
1078.928
 21
1190.367
 31
0.0
  0
LINE
  5
31
  8
5
  6
CONTINUOUS
 10
850.9284
 20
1190.367
 30
0.0
 11
850.9284
 21
1142.367
 31
0.0
  0
LINE
  5
33
  8
5
  6
CONTINUOUS
 10
851.4284
 20
1241.867
 30
0.0
 11
1078.428
 21
1241.867
 31
0.0
  0
LINE
  5
34
  8
5
  6
CONTINUOUS
 10
851.4284
 20
1210.367
 30
0.0
 11
805.4284
 21
1210.367
 31
0.0
  0
LINE
  5
35
  8
5
  6
CONTINUOUS
 10
1124.428
 20
1210.367
 30
0.0
 11
1078.428
 21
1210.367
 31
0.0
  0
LINE
  5
36
  8
5
  6
CONTINUOUS
 10
805.4284
 20
1210.367
 30
0.0
 11
854.9284
 21
1261.367
 31
0.0
  0
LINE
  5
37
  8
5
  6
CONTINUOUS
 10
1074.928
 20
1261.367
 30
0.0
 11
1124.428
 21
1210.367
 31
0.0
  0
LINE
  5
38
  8
5
  6
CONTINUOUS
 10
805.4284
 20
1210.367
 30
0.0
 11
805.4284
 21
1187.367
 31
0.0
  0
LINE
  5
39
  8
5
  6
CONTINUOUS
 10
1124.428
 20
1187.367
 30
0.0
 11
1124.428
 21
1210.367
 31
0.0
  0
LINE
  5
3A
  8
5
  6
CONTINUOUS
 10
761.9284
 20
729.5667
 30
0.0
 11
761.9284
 21
1129.567
 31
0.0
  0
LINE
  5
3B
  8
5
  6
CONTINUOUS
 10
756.9284
 20
1079.567
 30
0.0
 11
756.9284
 21
779.5667
 31
0.0
  0
ARC
  5
3C
  8
5
  6
CONTINUOUS
 10
780.9284
 20
834.4817
 30
0.0
 40
1.5
 50
0.0
 51
231.9596
  0
ARC
  5
3D
  8
5
  6
CONTINUOUS
 10
780.9284
 20
834.4817
 30
0.0
 40
1.5
 50
268.0404
 51
0.0
  0
LINE
  5
3E
  8
5
  6
CONTINUOUS
 10
776.9284
 20
834.4198
 30
0.0
 11
780.0041
 21
833.3003
 31
0.0
  0
LINE
  5
3F
  8
5
  6
CONTINUOUS
 10
780.0041
 20
833.3003
 30
0.0
 11
780.8771
 21
832.9826
 31
0.0
  0
LINE
  5
40
  8
5
  6
CONTINUOUS
 10
780.8771
 20
832.9826
 30
0.0
 11
806.9284
 21
823.5007
 31
0.0
  0
LINE
  5
41
  8
5
  6
CONTINUOUS
 10
806.9284
 20
1035.633
 30
0.0
 11
776.9284
 21
1024.714
 31
0.0
  0
LINE
  5
42
  8
5
  6
CONTINUOUS
 10
1085.068
 20
1118.567
 30
0.0
 11
1087.018
 21
1062.723
 31
0.0
  0
LINE
  5
43
  8
5
  6
CONTINUOUS
 10
842.8387
 20
1062.723
 30
0.0
 11
844.7888
 21
1118.567
 31
0.0
  0
LINE
  5
44
  8
5
  6
CONTINUOUS
 10
1252.598
 20
1088.117
 30
0.0
 11
1250.324
 21
1105.867
 31
0.0
  0
LINE
  5
45
  8
5
  6
CONTINUOUS
 10
1250.324
 20
1105.867
 30
0.0
 11
1247.928
 21
1124.567
 31
0.0
  0
LINE
  5
46
  8
5
  6
CONTINUOUS
 10
806.9284
 20
1063.154
 30
0.0
 11
806.9284
 21
1035.633
 31
0.0
  0
LINE
  5
47
  8
5
  6
CONTINUOUS
 10
1253.275
 20
1082.828
 30
0.0
 11
1252.598
 21
1088.117
 31
0.0
  0
LINE
  5
48
  8
5
  6
CONTINUOUS
 10
1138.428
 20
1124.567
 30
0.0
 11
1116.428
 21
1104.567
 31
0.0
  0
LINE
  5
49
  8
5
  6
CONTINUOUS
 10
1247.928
 20
1124.567
 30
0.0
 11
1138.428
 21
1124.567
 31
0.0
  0
LINE
  5
4A
  8
5
  6
CONTINUOUS
 10
1116.428
 20
1104.567
 30
0.0
 11
1116.428
 21
1053.351
 31
0.0
  0
LINE
  5
4B
  8
5
  6
CONTINUOUS
 10
843.9284
 20
1048.267
 30
0.0
 11
1247.928
 21
1048.267
 31
0.0
  0
LINE
  5
4C
  8
5
  6
CONTINUOUS
 10
1250.324
 20
1029.567
 30
0.0
 11
1252.598
 21
1011.817
 31
0.0
  0
LINE
  5
4D
  8
5
  6
CONTINUOUS
 10
1252.598
 20
1011.817
 30
0.0
 11
1253.275
 21
1006.528
 31
0.0
  0
LINE
  5
4E
  8
5
  6
CONTINUOUS
 10
1247.928
 20
1048.267
 30
0.0
 11
1249.166
 21
1038.603
 31
0.0
  0
LINE
  5
4F
  8
5
  6
CONTINUOUS
 10
1249.166
 20
1038.603
 30
0.0
 11
1250.324
 21
1029.567
 31
0.0
  0
LINE
  5
50
  8
5
  6
CONTINUOUS
 10
1252.598
 20
847.3167
 30
0.0
 11
1253.275
 21
852.605
 31
0.0
  0
LINE
  5
51
  8
5
  6
CONTINUOUS
 10
1249.166
 20
820.5308
 30
0.0
 11
1252.598
 21
847.3167
 31
0.0
  0
LINE
  5
52
  8
5
  6
CONTINUOUS
 10
1249.166
 20
820.5308
 30
0.0
 11
1247.928
 21
810.8667
 31
0.0
  0
LINE
  5
53
  8
5
  6
CONTINUOUS
 10
841.5329
 20
1029.567
 30
0.0
 11
839.2591
 21
1011.817
 31
0.0
  0
LINE
  5
54
  8
5
  6
CONTINUOUS
 10
839.2591
 20
1011.817
 30
0.0
 11
838.5816
 21
1006.528
 31
0.0
  0
LINE
  5
55
  8
5
  6
CONTINUOUS
 10
842.6904
 20
1038.603
 30
0.0
 11
841.5329
 21
1029.567
 31
0.0
  0
LINE
  5
56
  8
5
  6
CONTINUOUS
 10
842.6904
 20
1038.603
 30
0.0
 11
843.9284
 21
1048.267
 31
0.0
  0
LINE
  5
57
  8
5
  6
CONTINUOUS
 10
843.9284
 20
810.8667
 30
0.0
 11
842.6904
 21
820.5308
 31
0.0
  0
LINE
  5
58
  8
5
  6
CONTINUOUS
 10
842.6904
 20
820.5308
 30
0.0
 11
839.2591
 21
847.3167
 31
0.0
  0
LINE
  5
59
  8
5
  6
CONTINUOUS
 10
839.2591
 20
847.3167
 30
0.0
 11
838.5816
 21
852.605
 31
0.0
  0
LINE
  5
5A
  8
5
  6
CONTINUOUS
 10
1369.428
 20
831.0671
 30
0.0
 11
1369.428
 21
1028.066
 31
0.0
  0
LINE
  5
5B
  8
5
  6
CONTINUOUS
 10
1369.428
 20
831.0671
 30
0.0
 11
1369.428
 21
739.5666
 31
0.0
  0
LINE
  5
5C
  8
5
  6
CONTINUOUS
 10
1369.428
 20
1119.567
 30
0.0
 11
1369.428
 21
1028.066
 31
0.0
  0
LINE
  5
5D
  8
5
  6
CONTINUOUS
 10
1425.928
 20
1057.567
 30
0.0
 11
1425.928
 21
801.5667
 31
0.0
  0
LINE
  5
5E
  8
5
  6
CONTINUOUS
 10
1301.928
 20
736.5667
 30
0.0
 11
1255.928
 21
736.5667
 31
0.0
  0
LINE
  5
5F
  8
5
  6
CONTINUOUS
 10
1301.928
 20
1122.567
 30
0.0
 11
1255.928
 21
1122.567
 31
0.0
  0
LINE
  5
60
  8
5
  6
CONTINUOUS
 10
1301.928
 20
1119.567
 30
0.0
 11
1369.428
 21
1119.567
 31
0.0
  0
LINE
  5
61
  8
5
  6
CONTINUOUS
 10
1301.928
 20
739.5666
 30
0.0
 11
1369.428
 21
739.5666
 31
0.0
  0
LINE
  5
62
  8
5
  6
CONTINUOUS
 10
1301.928
 20
829.8245
 30
0.0
 11
1301.928
 21
736.5667
 31
0.0
  0
LINE
  5
63
  8
5
  6
CONTINUOUS
 10
1301.928
 20
1122.567
 30
0.0
 11
1301.928
 21
1029.309
 31
0.0
  0
LINE
  5
64
  8
5
  6
CONTINUOUS
 10
1301.928
 20
829.8245
 30
0.0
 11
1301.928
 21
1029.309
 31
0.0
  0
LINE
  5
65
  8
5
  6
CONTINUOUS
 10
1255.928
 20
1029.309
 30
0.0
 11
1255.928
 21
829.8245
 31
0.0
  0
LINE
  5
66
  8
5
  6
CONTINUOUS
 10
1255.928
 20
1029.309
 30
0.0
 11
1255.928
 21
1122.567
 31
0.0
  0
LINE
  5
67
  8
5
  6
CONTINUOUS
 10
1255.928
 20
736.5667
 30
0.0
 11
1255.928
 21
829.8245
 31
0.0
  0
LINE
  5
68
  8
5
  6
CONTINUOUS
 10
1006.69
 20
1265.567
 30
0.0
 11
1020.468
 21
1265.567
 31
0.0
  0
LINE
  5
69
  8
5
  6
CONTINUOUS
 10
1495.928
 20
1085.473
 30
0.0
 11
1495.928
 21
995.4725
 31
0.0
  0
LINE
  5
6A
  8
5
  6
CONTINUOUS
 10
1022.569
 20
1265.567
 30
0.0
 11
1027.37
 21
1265.567
 31
0.0
  0
LINE
  5
6B
  8
5
  6
CONTINUOUS
 10
1027.37
 20
1265.567
 30
0.0
 11
1042.198
 21
1265.567
 31
0.0
  0
LINE
  5
6C
  8
5
  6
CONTINUOUS
 10
806.9284
 20
823.5007
 30
0.0
 11
806.9284
 21
795.9789
 31
0.0
  0
LINE
  5
6D
  8
5
  6
CONTINUOUS
 10
976.9219
 20
1265.567
 30
0.0
 11
981.7248
 21
1265.567
 31
0.0
  0
LINE
  5
6E
  8
5
  6
CONTINUOUS
 10
1495.928
 20
1070.473
 30
0.0
 11
1513.249
 21
1080.473
 31
0.0
  0
LINE
  5
6F
  8
5
  6
CONTINUOUS
 10
1495.928
 20
1055.473
 30
0.0
 11
1513.249
 21
1065.473
 31
0.0
  0
LINE
  5
70
  8
5
  6
CONTINUOUS
 10
1495.928
 20
1040.473
 30
0.0
 11
1513.249
 21
1050.473
 31
0.0
  0
LINE
  5
71
  8
5
  6
CONTINUOUS
 10
1495.928
 20
1025.473
 30
0.0
 11
1513.249
 21
1035.473
 31
0.0
  0
LINE
  5
72
  8
5
  6
CONTINUOUS
 10
1495.928
 20
1010.473
 30
0.0
 11
1513.249
 21
1020.473
 31
0.0
  0
LINE
  5
73
  8
5
  6
CONTINUOUS
 10
981.7248
 20
1265.567
 30
0.0
 11
996.5528
 21
1265.567
 31
0.0
  0
LINE
  5
74
  8
5
  6
CONTINUOUS
 10
961.0444
 20
1265.567
 30
0.0
 11
974.8229
 21
1265.567
 31
0.0
  0
LINE
  5
75
  8
5
  6
CONTINUOUS
 10
926.0222
 20
1265.567
 30
0.0
 11
926.0222
 21
1265.567
 31
0.0
  0
LINE
  5
76
  8
5
  6
CONTINUOUS
 10
926.0222
 20
1265.567
 30
0.0
 11
937.4162
 21
1265.567
 31
0.0
  0
LINE
  5
77
  8
5
  6
CONTINUOUS
 10
937.4162
 20
1265.567
 30
0.0
 11
941.2563
 21
1265.567
 31
0.0
  0
LINE
  5
78
  8
5
  6
CONTINUOUS
 10
941.2563
 20
1265.567
 30
0.0
 11
950.7567
 21
1265.567
 31
0.0
  0
LINE
  5
79
  8
5
  6
CONTINUOUS
 10
899.9256
 20
1265.567
 30
0.0
 11
908.7885
 21
1265.567
 31
0.0
  0
LINE
  5
7A
  8
5
  6
CONTINUOUS
 10
908.7885
 20
1265.567
 30
0.0
 11
912.4787
 21
1265.567
 31
0.0
  0
LINE
  5
7B
  8
5
  6
CONTINUOUS
 10
912.4787
 20
1265.567
 30
0.0
 11
923.9228
 21
1265.567
 31
0.0
  0
LINE
  5
7C
  8
5
  6
CONTINUOUS
 10
1020.468
 20
1261.367
 30
0.0
 11
1020.468
 21
1265.567
 31
0.0
  0
LINE
  5
7D
  8
5
  6
CONTINUOUS
 10
1006.69
 20
1261.367
 30
0.0
 11
1006.69
 21
1265.567
 31
0.0
  0
LINE
  5
7E
  8
5
  6
CONTINUOUS
 10
1022.569
 20
1261.367
 30
0.0
 11
1022.569
 21
1265.567
 31
0.0
  0
LINE
  5
7F
  8
5
  6
CONTINUOUS
 10
976.9229
 20
1261.367
 30
0.0
 11
976.9219
 21
1265.567
 31
0.0
  0
LINE
  5
80
  8
5
  6
CONTINUOUS
 10
776.9284
 20
729.5667
 30
0.0
 11
776.9284
 21
1129.567
 31
0.0
  0
LINE
  5
81
  8
5
  6
CONTINUOUS
 10
974.8229
 20
1261.367
 30
0.0
 11
974.8229
 21
1265.567
 31
0.0
  0
LINE
  5
82
  8
5
  6
CONTINUOUS
 10
961.0444
 20
1261.367
 30
0.0
 11
961.0444
 21
1265.567
 31
0.0
  0
LINE
  5
83
  8
5
  6
CONTINUOUS
 10
926.0227
 20
1261.367
 30
0.0
 11
926.0222
 21
1265.567
 31
0.0
  0
LINE
  5
84
  8
5
  6
CONTINUOUS
 10
923.9228
 20
1265.567
 30
0.0
 11
923.9228
 21
1261.367
 31
0.0
  0
LINE
  5
85
  8
5
  6
CONTINUOUS
 10
1247.928
 20
734.5667
 30
0.0
 11
843.9284
 21
734.5667
 31
0.0
  0
LINE
  5
86
  8
5
  6
CONTINUOUS
 10
854.9284
 20
1261.367
 30
0.0
 11
1074.928
 21
1261.367
 31
0.0
  0
LINE
  5
87
  8
5
  6
CONTINUOUS
 10
816.9284
 20
1142.567
 30
0.0
 11
816.9284
 21
1165.367
 31
0.0
  0
LINE
  5
88
  8
5
  6
CONTINUOUS
 10
843.9284
 20
734.5667
 30
0.0
 11
842.6904
 21
744.2308
 31
0.0
  0
LINE
  5
89
  8
5
  6
CONTINUOUS
 10
1112.928
 20
1142.567
 30
0.0
 11
1112.928
 21
1165.367
 31
0.0
  0
LINE
  5
8A
  8
5
  6
CONTINUOUS
 10
1112.928
 20
1142.567
 30
0.0
 11
1088.928
 21
1118.567
 31
0.0
  0
LINE
  5
8B
  8
5
  6
CONTINUOUS
 10
816.9284
 20
1142.567
 30
0.0
 11
840.9284
 21
1118.567
 31
0.0
  0
LINE
  5
8C
  8
5
  6
CONTINUOUS
 10
842.6904
 20
744.2308
 30
0.0
 11
841.5329
 21
753.2667
 31
0.0
  0
LINE
  5
8D
  8
5
  6
CONTINUOUS
 10
850.9284
 20
1165.367
 30
0.0
 11
809.9284
 21
1165.367
 31
0.0
  0
LINE
  5
8E
  8
5
  6
CONTINUOUS
 10
841.5329
 20
753.2667
 30
0.0
 11
839.2591
 21
771.0167
 31
0.0
  0
LINE
  5
8F
  8
5
  6
CONTINUOUS
 10
1119.928
 20
1165.367
 30
0.0
 11
1078.928
 21
1165.367
 31
0.0
  0
LINE
  5
90
  8
5
  6
CONTINUOUS
 10
850.9284
 20
1142.367
 30
0.0
 11
1078.928
 21
1142.367
 31
0.0
  0
LINE
  5
91
  8
5
  6
CONTINUOUS
 10
1088.928
 20
1118.567
 30
0.0
 11
840.9284
 21
1118.567
 31
0.0
  0
LINE
  5
92
  8
5
  6
CONTINUOUS
 10
1074.928
 20
1241.867
 30
0.0
 11
1074.928
 21
1261.367
 31
0.0
  0
LINE
  5
93
  8
5
  6
CONTINUOUS
 10
854.9284
 20
1261.367
 30
0.0
 11
854.9285
 21
1241.867
 31
0.0
  0
LINE
  5
94
  8
5
  6
CONTINUOUS
 10
1042.199
 20
1261.367
 30
0.0
 11
1042.198
 21
1265.567
 31
0.0
  0
LINE
  5
95
  8
5
  6
CONTINUOUS
 10
1027.37
 20
1261.367
 30
0.0
 11
1027.37
 21
1265.567
 31
0.0
  0
LINE
  5
96
  8
5
  6
CONTINUOUS
 10
996.5529
 20
1261.367
 30
0.0
 11
996.5528
 21
1265.567
 31
0.0
  0
LINE
  5
97
  8
5
  6
CONTINUOUS
 10
981.7248
 20
1261.367
 30
0.0
 11
981.7248
 21
1265.567
 31
0.0
  0
LINE
  5
98
  8
5
  6
CONTINUOUS
 10
950.7567
 20
1261.367
 30
0.0
 11
950.7567
 21
1265.567
 31
0.0
  0
LINE
  5
99
  8
5
  6
CONTINUOUS
 10
941.2563
 20
1261.367
 30
0.0
 11
941.2563
 21
1265.567
 31
0.0
  0
LINE
  5
9A
  8
5
  6
CONTINUOUS
 10
937.4161
 20
1261.367
 30
0.0
 11
937.4162
 21
1265.567
 31
0.0
  0
LINE
  5
9B
  8
5
  6
CONTINUOUS
 10
912.4787
 20
1261.367
 30
0.0
 11
912.4787
 21
1265.567
 31
0.0
  0
LINE
  5
9C
  8
5
  6
CONTINUOUS
 10
908.7884
 20
1261.367
 30
0.0
 11
908.7885
 21
1265.567
 31
0.0
  0
LINE
  5
9D
  8
5
  6
CONTINUOUS
 10
899.9255
 20
1261.367
 30
0.0
 11
899.9256
 21
1265.567
 31
0.0
  0
LINE
  5
9E
  8
5
  6
CONTINUOUS
 10
1078.929
 20
1142.567
 30
0.0
 11
1112.928
 21
1142.567
 31
0.0
  0
LINE
  5
9F
  8
5
  6
CONTINUOUS
 10
816.9284
 20
1142.567
 30
0.0
 11
850.9285
 21
1142.567
 31
0.0
  0
LINE
  5
A0
  8
5
  6
CONTINUOUS
 10
839.2591
 20
771.0167
 30
0.0
 11
838.5816
 21
776.305
 31
0.0
  0
LINE
  5
A1
  8
5
  6
CONTINUOUS
 10
1249.166
 20
744.2308
 30
0.0
 11
1250.324
 21
753.2667
 31
0.0
  0
LINE
  5
A2
  8
5
  6
CONTINUOUS
 10
1249.166
 20
744.2308
 30
0.0
 11
1247.928
 21
734.5667
 31
0.0
  0
LINE
  5
A3
  8
5
  6
CONTINUOUS
 10
1250.324
 20
753.2667
 30
0.0
 11
1252.598
 21
771.0167
 31
0.0
  0
LINE
  5
A4
  8
5
  6
CONTINUOUS
 10
1252.598
 20
771.0167
 30
0.0
 11
1253.275
 21
776.305
 31
0.0
  0
LINE
  5
A5
  8
5
  6
CONTINUOUS
 10
1250.939
 20
1101.067
 30
0.0
 11
1250.939
 21
1101.067
 31
0.0
  0
LINE
  5
A6
  8
5
  6
CONTINUOUS
 10
924.9284
 20
810.8667
 30
0.0
 11
924.9284
 21
790.8432
 31
0.0
  0
LINE
  5
A7
  8
5
  6
CONTINUOUS
 10
924.9284
 20
790.8432
 30
0.0
 11
916.9285
 21
783.7759
 31
0.0
  0
LINE
  5
A8
  8
5
  6
CONTINUOUS
 10
916.9285
 20
783.7759
 30
0.0
 11
896.9285
 21
783.7759
 31
0.0
  0
LINE
  5
A9
  8
5
  6
CONTINUOUS
 10
896.9285
 20
783.7759
 30
0.0
 11
888.9284
 21
790.8433
 31
0.0
  0
LINE
  5
AA
  8
5
  6
CONTINUOUS
 10
888.9284
 20
790.8433
 30
0.0
 11
888.9284
 21
810.8667
 31
0.0
  0
LINE
  5
AB
  8
5
  6
CONTINUOUS
 10
860.3123
 20
771.3737
 30
0.0
 11
857.1863
 21
810.8666
 31
0.0
  0
LINE
  5
AC
  8
5
  6
CONTINUOUS
 10
860.3123
 20
771.3737
 30
0.0
 11
877.4284
 21
757.2737
 31
0.0
  0
LINE
  5
AD
  8
5
  6
CONTINUOUS
 10
877.4284
 20
757.2737
 30
0.0
 11
936.4285
 21
757.2737
 31
0.0
  0
LINE
  5
AE
  8
5
  6
CONTINUOUS
 10
936.4285
 20
757.2737
 30
0.0
 11
953.5446
 21
771.3737
 31
0.0
  0
LINE
  5
AF
  8
5
  6
CONTINUOUS
 10
953.5446
 20
771.3737
 30
0.0
 11
956.6707
 21
810.8666
 31
0.0
  0
LINE
  5
B0
  8
5
  6
CONTINUOUS
 10
119.6925
 20
783.7758
 30
0.0
 11
119.6925
 21
783.7758
 31
0.0
  0
LINE
  5
B1
  8
5
  6
CONTINUOUS
 10
856.2297
 20
785.7113
 30
0.0
 11
855.2373
 21
805.7824
 31
0.0
  0
LINE
  5
B2
  8
5
  6
CONTINUOUS
 10
856.2297
 20
785.7113
 30
0.0
 11
860.3123
 21
749.4964
 31
0.0
  0
LINE
  5
B5
  8
5
  6
CONTINUOUS
 10
860.3123
 20
749.4964
 30
0.0
 11
860.3123
 21
771.3737
 31
0.0
  0
LINE
  5
B9
  8
5
  6
CONTINUOUS
 10
953.5446
 20
771.3737
 30
0.0
 11
953.5446
 21
749.4964
 31
0.0
  0
LINE
  5
BA
  8
5
  6
CONTINUOUS
 10
957.6272
 20
785.7113
 30
0.0
 11
953.5446
 21
749.4964
 31
0.0
  0
LINE
  5
BB
  8
5
  6
CONTINUOUS
 10
958.6197
 20
805.7824
 30
0.0
 11
957.6272
 21
785.7113
 31
0.0
  0
LINE
  5
BC
  8
5
  6
CONTINUOUS
 10
843.9285
 20
805.7824
 30
0.0
 11
855.2373
 21
805.7824
 31
0.0
  0
LINE
  5
BD
  8
5
  6
CONTINUOUS
 10
843.9285
 20
805.7824
 30
0.0
 11
843.9285
 21
754.5666
 31
0.0
  0
LINE
  5
BE
  8
5
  6
CONTINUOUS
 10
843.9285
 20
754.5666
 30
0.0
 11
859.7407
 21
754.5667
 31
0.0
  0
LINE
  5
C0
  8
5
  6
CONTINUOUS
 10
954.1161
 20
754.5667
 30
0.0
 11
1247.928
 21
754.5666
 31
0.0
  0
LINE
  5
C1
  8
5
  6
CONTINUOUS
 10
1247.928
 20
754.5666
 30
0.0
 11
1247.928
 21
805.7824
 31
0.0
  0
LINE
  5
C2
  8
5
  6
CONTINUOUS
 10
958.6197
 20
805.7824
 30
0.0
 11
1247.928
 21
805.7824
 31
0.0
  0
LINE
  5
C3
  8
5
  6
CONTINUOUS
 10
888.9284
 20
805.7824
 30
0.0
 11
924.9284
 21
805.7824
 31
0.0
  0
LINE
  5
C4
  8
5
  6
CONTINUOUS
 10
833.4283
 20
1101.067
 30
0.0
 11
776.9285
 21
1099.094
 31
0.0
  0
LINE
  5
C5
  8
5
  6
CONTINUOUS
 10
833.4283
 20
929.5666
 30
0.0
 11
833.4283
 21
758.0668
 31
0.0
  0
LINE
  5
CE
  8
5
  6
CONTINUOUS
 10
833.4283
 20
1101.067
 30
0.0
 11
833.4283
 21
929.5666
 31
0.0
  0
LINE
  5
CF
  8
5
  6
CONTINUOUS
 10
776.9285
 20
760.0397
 30
0.0
 11
833.4283
 21
758.0668
 31
0.0
  0
LINE
  5
D0
  8
5
  6
CONTINUOUS
 10
478.6492
 20
783.7758
 30
0.0
 11
478.6492
 21
783.7758
 31
0.0
  0
LINE
  5
D1
  8
5
  6
CONTINUOUS
 10
1073.47
 20
1049.541
 30
0.0
 11
856.3868
 21
1049.541
 31
0.0
  0
LINE
  5
D2
  8
5
  6
CONTINUOUS
 10
1073.47
 20
1049.541
 30
0.0
 11
1071.06
 21
1118.567
 31
0.0
  0
LINE
  5
D3
  8
5
  6
CONTINUOUS
 10
858.7973
 20
1118.567
 30
0.0
 11
856.3868
 21
1049.541
 31
0.0
  0
LINE
  5
D5
  8
5
  6
CONTINUOUS
 10
842.6904
 20
820.5308
 30
0.0
 11
843.9285
 21
830.8666
 31
0.0
  0
LINE
  5
D6
  8
5
  6
CONTINUOUS
 10
1247.928
 20
830.8666
 30
0.0
 11
1249.166
 21
820.5308
 31
0.0
  0
LINE
  5
D7
  8
5
  6
CONTINUOUS
 10
843.9285
 20
830.8666
 30
0.0
 11
1247.928
 21
830.8666
 31
0.0
  0
LINE
  5
D8
  8
5
  6
CONTINUOUS
 10
843.9285
 20
1029.567
 30
0.0
 11
842.6904
 21
1038.603
 31
0.0
  0
LINE
  5
D9
  8
5
  6
CONTINUOUS
 10
1247.928
 20
1029.567
 30
0.0
 11
843.9285
 21
1029.567
 31
0.0
  0
LINE
  5
DA
  8
5
  6
CONTINUOUS
 10
1249.166
 20
1038.603
 30
0.0
 11
1247.928
 21
1029.567
 31
0.0
  0
LINE
  5
DC
  8
5
  6
CONTINUOUS
 10
1247.928
 20
1011.817
 30
0.0
 11
1252.598
 21
1011.817
 31
0.0
  0
LINE
  5
DD
  8
5
  6
CONTINUOUS
 10
1250.324
 20
1029.567
 30
0.0
 11
1247.928
 21
1029.567
 31
0.0
  0
LINE
  5
DE
  8
5
  6
CONTINUOUS
 10
1247.928
 20
1011.817
 30
0.0
 11
1247.928
 21
1029.567
 31
0.0
  0
LINE
  5
DF
  8
5
  6
CONTINUOUS
 10
1252.598
 20
847.3168
 30
0.0
 11
1247.928
 21
847.3168
 31
0.0
  0
LINE
  5
E0
  8
5
  6
CONTINUOUS
 10
1247.928
 20
830.8666
 30
0.0
 11
1247.928
 21
847.3168
 31
0.0
  0
LINE
  5
E1
  8
5
  6
CONTINUOUS
 10
1250.939
 20
929.5666
 30
0.0
 11
1247.928
 21
929.5666
 31
0.0
  0
LINE
  5
E2
  8
5
  6
CONTINUOUS
 10
1247.928
 20
912.3167
 30
0.0
 11
1247.928
 21
929.5666
 31
0.0
  0
LINE
  5
E3
  8
5
  6
CONTINUOUS
 10
1247.928
 20
912.3167
 30
0.0
 11
1251.05
 21
912.3167
 31
0.0
  0
LINE
  5
E4
  8
5
  6
CONTINUOUS
 10
1251.388
 20
964.0666
 30
0.0
 11
1247.928
 21
964.0666
 31
0.0
  0
LINE
  5
E5
  8
5
  6
CONTINUOUS
 10
1247.928
 20
946.8167
 30
0.0
 11
1247.928
 21
964.0666
 31
0.0
  0
LINE
  5
E6
  8
5
  6
CONTINUOUS
 10
1247.928
 20
946.8167
 30
0.0
 11
1251.05
 21
946.8167
 31
0.0
  0
LINE
  5
E7
  8
5
  6
CONTINUOUS
 10
1252.552
 20
994.0667
 30
0.0
 11
1247.928
 21
994.0667
 31
0.0
  0
LINE
  5
E8
  8
5
  6
CONTINUOUS
 10
1247.928
 20
979.0667
 30
0.0
 11
1247.928
 21
994.0667
 31
0.0
  0
LINE
  5
E9
  8
5
  6
CONTINUOUS
 10
1247.928
 20
979.0667
 30
0.0
 11
1251.874
 21
979.0667
 31
0.0
  0
LINE
  5
EA
  8
5
  6
CONTINUOUS
 10
1251.388
 20
895.0666
 30
0.0
 11
1247.928
 21
895.0666
 31
0.0
  0
LINE
  5
EB
  8
5
  6
CONTINUOUS
 10
1247.928
 20
880.0668
 30
0.0
 11
1247.928
 21
895.0666
 31
0.0
  0
LINE
  5
EC
  8
5
  6
CONTINUOUS
 10
1247.928
 20
880.0668
 30
0.0
 11
1251.874
 21
880.0668
 31
0.0
  0
LINE
  5
ED
  8
5
  6
CONTINUOUS
 10
1252.552
 20
865.0667
 30
0.0
 11
1247.928
 21
865.0667
 31
0.0
  0
LINE
  5
EE
  8
5
  6
CONTINUOUS
 10
1247.928
 20
847.3168
 30
0.0
 11
1247.928
 21
865.0667
 31
0.0
  0
LINE
  5
EF
  8
5
  6
CONTINUOUS
 10
1247.928
 20
895.0666
 30
0.0
 11
1247.928
 21
912.3167
 31
0.0
  0
LINE
  5
F0
  8
5
  6
CONTINUOUS
 10
1247.928
 20
929.5666
 30
0.0
 11
1247.928
 21
946.8167
 31
0.0
  0
LINE
  5
F1
  8
5
  6
CONTINUOUS
 10
1247.928
 20
964.0666
 30
0.0
 11
1247.928
 21
979.0667
 31
0.0
  0
LINE
  5
F2
  8
5
  6
CONTINUOUS
 10
1247.928
 20
994.0667
 30
0.0
 11
1247.928
 21
1011.817
 31
0.0
  0
LINE
  5
F3
  8
5
  6
CONTINUOUS
 10
1247.928
 20
865.0667
 30
0.0
 11
1247.928
 21
880.0668
 31
0.0
  0
LINE
  5
F5
  8
5
  6
CONTINUOUS
 10
839.2591
 20
1011.817
 30
0.0
 11
843.9285
 21
1011.817
 31
0.0
  0
LINE
  5
F6
  8
5
  6
CONTINUOUS
 10
843.9285
 20
1029.567
 30
0.0
 11
843.9285
 21
1011.817
 31
0.0
  0
LINE
  5
F7
  8
5
  6
CONTINUOUS
 10
843.9285
 20
1029.567
 30
0.0
 11
841.5329
 21
1029.567
 31
0.0
  0
LINE
  5
F8
  8
5
  6
CONTINUOUS
 10
843.9285
 20
847.3168
 30
0.0
 11
839.2592
 21
847.3168
 31
0.0
  0
LINE
  5
F9
  8
5
  6
CONTINUOUS
 10
843.9285
 20
847.3168
 30
0.0
 11
843.9285
 21
830.8666
 31
0.0
  0
LINE
  5
FA
  8
5
  6
CONTINUOUS
 10
840.8067
 20
912.3167
 30
0.0
 11
843.9285
 21
912.3167
 31
0.0
  0
LINE
  5
FB
  8
5
  6
CONTINUOUS
 10
843.9285
 20
929.5666
 30
0.0
 11
843.9285
 21
912.3167
 31
0.0
  0
LINE
  5
FC
  8
5
  6
CONTINUOUS
 10
843.9285
 20
929.5666
 30
0.0
 11
840.918
 21
929.5666
 31
0.0
  0
LINE
  5
FD
  8
5
  6
CONTINUOUS
 10
840.8067
 20
946.8167
 30
0.0
 11
843.9285
 21
946.8167
 31
0.0
  0
LINE
  5
FE
  8
5
  6
CONTINUOUS
 10
843.9285
 20
964.0666
 30
0.0
 11
843.9285
 21
946.8167
 31
0.0
  0
LINE
  5
FF
  8
5
  6
CONTINUOUS
 10
843.9285
 20
964.0666
 30
0.0
 11
840.4688
 21
964.0666
 31
0.0
  0
LINE
  5
100
  8
5
  6
CONTINUOUS
 10
839.983
 20
979.0667
 30
0.0
 11
843.9285
 21
979.0667
 31
0.0
  0
LINE
  5
101
  8
5
  6
CONTINUOUS
 10
843.9285
 20
994.0667
 30
0.0
 11
843.9285
 21
979.0667
 31
0.0
  0
LINE
  5
102
  8
5
  6
CONTINUOUS
 10
843.9285
 20
994.0667
 30
0.0
 11
839.3051
 21
994.0667
 31
0.0
  0
LINE
  5
103
  8
5
  6
CONTINUOUS
 10
839.983
 20
880.0668
 30
0.0
 11
843.9285
 21
880.0668
 31
0.0
  0
LINE
  5
104
  8
5
  6
CONTINUOUS
 10
843.9285
 20
895.0666
 30
0.0
 11
843.9285
 21
880.0668
 31
0.0
  0
LINE
  5
105
  8
5
  6
CONTINUOUS
 10
843.9285
 20
895.0666
 30
0.0
 11
840.4688
 21
895.0666
 31
0.0
  0
LINE
  5
106
  8
5
  6
CONTINUOUS
 10
843.9285
 20
865.0667
 30
0.0
 11
843.9285
 21
847.3168
 31
0.0
  0
LINE
  5
107
  8
5
  6
CONTINUOUS
 10
843.9285
 20
865.0667
 30
0.0
 11
839.3051
 21
865.0667
 31
0.0
  0
LINE
  5
108
  8
5
  6
CONTINUOUS
 10
843.9285
 20
912.3167
 30
0.0
 11
843.9285
 21
895.0666
 31
0.0
  0
LINE
  5
109
  8
5
  6
CONTINUOUS
 10
843.9285
 20
946.8167
 30
0.0
 11
843.9285
 21
929.5666
 31
0.0
  0
LINE
  5
10A
  8
5
  6
CONTINUOUS
 10
843.9285
 20
979.0667
 30
0.0
 11
843.9285
 21
964.0666
 31
0.0
  0
LINE
  5
10B
  8
5
  6
CONTINUOUS
 10
843.9285
 20
1011.817
 30
0.0
 11
843.9285
 21
994.0667
 31
0.0
  0
LINE
  5
10C
  8
5
  6
CONTINUOUS
 10
843.9285
 20
880.0668
 30
0.0
 11
843.9285
 21
865.0667
 31
0.0
  0
LINE
  5
10D
  8
5
  6
CONTINUOUS
 10
1247.928
 20
865.0667
 30
0.0
 11
843.9285
 21
865.0667
 31
0.0
  0
LINE
  5
10E
  8
5
  6
CONTINUOUS
 10
843.9285
 20
847.3168
 30
0.0
 11
1247.928
 21
847.3168
 31
0.0
  0
LINE
  5
10F
  8
5
  6
CONTINUOUS
 10
1247.928
 20
895.0666
 30
0.0
 11
843.9285
 21
895.0666
 31
0.0
  0
LINE
  5
110
  8
5
  6
CONTINUOUS
 10
843.9285
 20
880.0668
 30
0.0
 11
1247.928
 21
880.0668
 31
0.0
  0
LINE
  5
111
  8
5
  6
CONTINUOUS
 10
843.9285
 20
1011.817
 30
0.0
 11
1247.928
 21
1011.817
 31
0.0
  0
LINE
  5
112
  8
5
  6
CONTINUOUS
 10
1247.928
 20
994.0667
 30
0.0
 11
843.9285
 21
994.0667
 31
0.0
  0
LINE
  5
113
  8
5
  6
CONTINUOUS
 10
843.9285
 20
979.0667
 30
0.0
 11
1247.928
 21
979.0667
 31
0.0
  0
LINE
  5
114
  8
5
  6
CONTINUOUS
 10
1247.928
 20
964.0666
 30
0.0
 11
843.9285
 21
964.0666
 31
0.0
  0
LINE
  5
115
  8
5
  6
CONTINUOUS
 10
843.9285
 20
946.8167
 30
0.0
 11
1247.928
 21
946.8167
 31
0.0
  0
LINE
  5
117
  8
5
  6
CONTINUOUS
 10
843.9285
 20
912.3167
 30
0.0
 11
1247.928
 21
912.3167
 31
0.0
  0
LINE
  5
118
  8
5
  6
CONTINUOUS
 10
1252.598
 20
1080.056
 30
0.0
 11
1252.598
 21
1088.117
 31
0.0
  0
LINE
  5
119
  8
5
  6
CONTINUOUS
 10
1250.324
 20
1105.867
 30
0.0
 11
1250.324
 21
1068.895
 31
0.0
  0
LINE
  5
11A
  8
5
  6
CONTINUOUS
 10
1247.928
 20
1053.351
 30
0.0
 11
1247.928
 21
1124.567
 31
0.0
  0
LINE
  5
11D
  8
5
  6
CONTINUOUS
 10
1156.428
 20
1101.86
 30
0.0
 11
1139.312
 21
1087.76
 31
0.0
  0
LINE
  5
11E
  8
5
  6
CONTINUOUS
 10
1156.428
 20
1119.537
 30
0.0
 11
1156.428
 21
1101.86
 31
0.0
  0
LINE
  5
11F
  8
5
  6
CONTINUOUS
 10
1139.312
 20
1109.637
 30
0.0
 11
1156.428
 21
1119.537
 31
0.0
  0
LINE
  5
120
  8
5
  6
CONTINUOUS
 10
1139.312
 20
1087.76
 30
0.0
 11
1139.312
 21
1109.637
 31
0.0
  0
LINE
  5
121
  8
5
  6
CONTINUOUS
 10
1215.429
 20
1119.537
 30
0.0
 11
1232.545
 21
1109.637
 31
0.0
  0
LINE
  5
122
  8
5
  6
CONTINUOUS
 10
1215.429
 20
1101.86
 30
0.0
 11
1215.429
 21
1119.537
 31
0.0
  0
LINE
  5
123
  8
5
  6
CONTINUOUS
 10
1232.545
 20
1087.76
 30
0.0
 11
1215.429
 21
1101.86
 31
0.0
  0
LINE
  5
124
  8
5
  6
CONTINUOUS
 10
1232.545
 20
1109.637
 30
0.0
 11
1232.545
 21
1087.76
 31
0.0
  0
LINE
  5
127
  8
5
  6
CONTINUOUS
 10
1167.928
 20
1068.29
 30
0.0
 11
1175.928
 21
1075.358
 31
0.0
  0
LINE
  5
128
  8
5
  6
CONTINUOUS
 10
1195.928
 20
1075.358
 30
0.0
 11
1203.928
 21
1068.29
 31
0.0
  0
LINE
  5
129
  8
5
  6
CONTINUOUS
 10
1175.928
 20
1075.358
 30
0.0
 11
1195.928
 21
1075.358
 31
0.0
  0
LINE
  5
12A
  8
5
  6
CONTINUOUS
 10
1215.429
 20
1101.86
 30
0.0
 11
1156.428
 21
1101.86
 31
0.0
  0
LINE
  5
12B
  8
5
  6
CONTINUOUS
 10
1156.428
 20
1119.537
 30
0.0
 11
1215.429
 21
1119.537
 31
0.0
  0
LINE
  5
12C
  8
5
  6
CONTINUOUS
 10
1167.928
 20
1053.351
 30
0.0
 11
1203.928
 21
1053.351
 31
0.0
  0
LINE
  5
12D
  8
5
  6
CONTINUOUS
 10
1116.428
 20
1053.351
 30
0.0
 11
1134.237
 21
1053.351
 31
0.0
  0
LINE
  5
12E
  8
5
  6
CONTINUOUS
 10
1237.62
 20
1053.351
 30
0.0
 11
1247.928
 21
1053.351
 31
0.0
  0
LINE
  5
12F
  8
5
  6
CONTINUOUS
 10
1236.627
 20
1073.422
 30
0.0
 11
1237.62
 21
1053.351
 31
0.0
  0
LINE
  5
130
  8
5
  6
CONTINUOUS
 10
1134.237
 20
1053.351
 30
0.0
 11
1135.23
 21
1073.422
 31
0.0
  0
LINE
  5
131
  8
5
  6
CONTINUOUS
 10
1139.312
 20
1087.76
 30
0.0
 11
1136.186
 21
1048.267
 31
0.0
  0
LINE
  5
132
  8
5
  6
CONTINUOUS
 10
1135.23
 20
1073.422
 30
0.0
 11
1139.312
 21
1109.637
 31
0.0
  0
LINE
  5
133
  8
5
  6
CONTINUOUS
 10
1236.627
 20
1073.422
 30
0.0
 11
1232.545
 21
1109.637
 31
0.0
  0
LINE
  5
134
  8
5
  6
CONTINUOUS
 10
1232.545
 20
1087.76
 30
0.0
 11
1235.671
 21
1048.267
 31
0.0
  0
LINE
  5
135
  8
5
  6
CONTINUOUS
 10
1167.928
 20
1048.267
 30
0.0
 11
1167.928
 21
1068.29
 31
0.0
  0
LINE
  5
136
  8
5
  6
CONTINUOUS
 10
1203.928
 20
1068.29
 30
0.0
 11
1203.928
 21
1048.267
 31
0.0
  0
LINE
  5
137
  8
5
  6
CONTINUOUS
 10
1416.928
 20
801.5668
 30
0.0
 11
1369.428
 21
750.0667
 31
0.0
  0
LINE
  5
138
  8
5
  6
CONTINUOUS
 10
1416.928
 20
1057.567
 30
0.0
 11
1369.428
 21
1109.067
 31
0.0
  0
LINE
  5
139
  8
5
  6
CONTINUOUS
 10
1416.928
 20
1057.567
 30
0.0
 11
1416.928
 21
801.5668
 31
0.0
  0
LINE
  5
13A
  8
5
  6
CONTINUOUS
 10
1425.928
 20
801.5668
 30
0.0
 11
1416.928
 21
801.5668
 31
0.0
  0
LINE
  5
13B
  8
5
  6
CONTINUOUS
 10
1425.928
 20
1057.567
 30
0.0
 11
1416.928
 21
1057.567
 31
0.0
  0
LINE
  5
13C
  8
5
  6
CONTINUOUS
 10
1255.928
 20
829.8245
 30
0.0
 11
1301.928
 21
829.8245
 31
0.0
  0
LINE
  5
13D
  8
5
  6
CONTINUOUS
 10
1301.928
 20
1029.309
 30
0.0
 11
1255.928
 21
1029.309
 31
0.0
  0
LINE
  5
13E
  8
5
  6
CONTINUOUS
 10
1369.428
 20
1028.066
 30
0.0
 11
1301.928
 21
1028.066
 31
0.0
  0
LINE
  5
13F
  8
5
  6
CONTINUOUS
 10
1301.928
 20
831.067
 30
0.0
 11
1369.428
 21
831.0671
 31
0.0
  0
LINE
  5
140
  8
5
  6
CONTINUOUS
 10
839.2592
 20
771.0168
 30
0.0
 11
839.2592
 21
779.0768
 31
0.0
  0
LINE
  5
141
  8
5
  6
CONTINUOUS
 10
841.533
 20
790.2388
 30
0.0
 11
841.533
 21
753.2666
 31
0.0
  0
LINE
  5
142
  8
5
  6
CONTINUOUS
 10
842.6904
 20
744.2308
 30
0.0
 11
843.9028
 21
754.3528
 31
0.0
  0
LINE
  5
143
  8
5
  6
CONTINUOUS
 10
843.9028
 20
754.3528
 30
0.0
 11
843.9028
 21
805.5909
 31
0.0
  0
LINE
  5
144
  8
5
  6
CONTINUOUS
 10
843.9028
 20
754.3528
 30
0.0
 11
843.9285
 21
754.5666
 31
0.0
  0
LINE
  5
145
  8
5
  6
CONTINUOUS
 10
1252.598
 20
779.0768
 30
0.0
 11
1252.598
 21
771.0168
 31
0.0
  0
LINE
  5
146
  8
5
  6
CONTINUOUS
 10
1247.954
 20
805.5909
 30
0.0
 11
1247.954
 21
754.3528
 31
0.0
  0
LINE
  5
147
  8
5
  6
CONTINUOUS
 10
1247.954
 20
754.3528
 30
0.0
 11
1249.166
 21
744.2308
 31
0.0
  0
LINE
  5
148
  8
5
  6
CONTINUOUS
 10
1250.324
 20
753.2666
 30
0.0
 11
1250.324
 21
790.2388
 31
0.0
  0
LINE
  5
149
  8
5
  6
CONTINUOUS
 10
119.6925
 20
1075.357
 30
0.0
 11
119.6925
 21
1075.357
 31
0.0
  0
LINE
  5
14A
  8
5
  6
CONTINUOUS
 10
458.6709
 20
1187.367
 30
0.0
 11
136.6709
 21
1187.367
 31
0.0
  0
LINE
  5
14B
  8
5
  6
CONTINUOUS
 10
136.6709
 20
1187.367
 30
0.0
 11
136.6709
 21
1210.367
 31
0.0
  0
LINE
  5
14C
  8
5
  6
CONTINUOUS
 10
107.6709
 20
1190.367
 30
0.0
 11
107.6709
 21
1241.867
 31
0.0
  0
LINE
  5
14D
  8
5
  6
CONTINUOUS
 10
478.6492
 20
1075.357
 30
0.0
 11
478.6492
 21
1075.357
 31
0.0
  0
LINE
  5
14E
  8
5
  6
CONTINUOUS
 10
454.1709
 20
1187.367
 30
0.0
 11
454.1709
 21
1165.367
 31
0.0
  0
LINE
  5
14F
  8
5
  6
CONTINUOUS
 10
141.6709
 20
1165.367
 30
0.0
 11
141.6709
 21
1187.367
 31
0.0
  0
LINE
  5
150
  8
5
  6
CONTINUOUS
 10
106.6709
 20
1190.367
 30
0.0
 11
136.6709
 21
1190.367
 31
0.0
  0
LINE
  5
151
  8
5
  6
CONTINUOUS
 10
107.6709
 20
1241.867
 30
0.0
 11
170.7398
 21
1241.867
 31
0.0
  0
LINE
  5
152
  8
5
  6
CONTINUOUS
 10
167.242
 20
1241.867
 30
0.0
 11
186.1709
 21
1261.367
 31
0.0
  0
LINE
  5
153
  8
5
  6
CONTINUOUS
 10
186.1709
 20
1210.367
 30
0.0
 11
136.6709
 21
1210.367
 31
0.0
  0
LINE
  5
154
  8
5
  6
CONTINUOUS
 10
409.1743
 20
1261.363
 30
0.0
 11
458.6708
 21
1210.367
 31
0.0
  0
LINE
  5
155
  8
5
  6
CONTINUOUS
 10
458.6708
 20
1210.367
 30
0.0
 11
409.1708
 21
1210.367
 31
0.0
  0
LINE
  5
156
  8
5
  6
CONTINUOUS
 10
458.6708
 20
1210.367
 30
0.0
 11
458.6709
 21
1187.367
 31
0.0
  0
LINE
  5
157
  8
5
  6
CONTINUOUS
 10
271.1674
 20
1265.567
 30
0.0
 11
285.9967
 21
1265.567
 31
0.0
  0
LINE
  5
158
  8
5
  6
CONTINUOUS
 10
285.9967
 20
1265.567
 30
0.0
 11
297.2343
 21
1265.567
 31
0.0
  0
LINE
  5
159
  8
5
  6
CONTINUOUS
 10
125.1287
 20
810.8666
 30
0.0
 11
122.8709
 21
810.8666
 31
0.0
  0
LINE
  5
15A
  8
5
  6
CONTINUOUS
 10
474.1709
 20
810.8666
 30
0.0
 11
473.2131
 21
810.8666
 31
0.0
  0
LINE
  5
15B
  8
5
  6
CONTINUOUS
 10
1247.928
 20
754.5666
 30
0.0
 11
1247.954
 21
754.3528
 31
0.0
  0
LINE
  5
15C
  8
5
  6
CONTINUOUS
 10
953.5446
 20
749.4964
 30
0.0
 11
936.4285
 21
739.596
 31
0.0
  0
LINE
  5
15D
  8
5
  6
CONTINUOUS
 10
936.4285
 20
739.596
 30
0.0
 11
877.4284
 21
739.596
 31
0.0
  0
LINE
  5
15E
  8
5
  6
CONTINUOUS
 10
877.4284
 20
739.596
 30
0.0
 11
860.3123
 21
749.4964
 31
0.0
  0
LINE
  5
15F
  8
5
  6
CONTINUOUS
 10
936.4285
 20
739.596
 30
0.0
 11
936.4285
 21
757.2737
 31
0.0
  0
LINE
  5
160
  8
5
  6
CONTINUOUS
 10
877.4284
 20
757.2737
 30
0.0
 11
877.4284
 21
739.596
 31
0.0
  0
LINE
  5
161
  8
5
  6
CONTINUOUS
 10
299.3342
 20
1265.567
 30
0.0
 11
301.8889
 21
1265.567
 31
0.0
  0
LINE
  5
162
  8
5
  6
CONTINUOUS
 10
301.8889
 20
1265.567
 30
0.0
 11
313.7921
 21
1265.567
 31
0.0
  0
LINE
  5
163
  8
5
  6
CONTINUOUS
 10
313.7921
 20
1265.567
 30
0.0
 11
324.2313
 21
1265.567
 31
0.0
  0
LINE
  5
164
  8
5
  6
CONTINUOUS
 10
656.9287
 20
957.0667
 30
0.0
 11
651.9284
 21
957.0667
 31
0.0
  0
LINE
  5
165
  8
5
  6
CONTINUOUS
 10
299.3342
 20
1265.567
 30
0.0
 11
299.3342
 21
1265.567
 31
0.0
  0
LINE
  5
166
  8
5
  6
CONTINUOUS
 10
756.9284
 20
957.0667
 30
0.0
 11
754.9283
 21
957.0667
 31
0.0
  0
LINE
  5
167
  8
5
  6
CONTINUOUS
 10
651.9284
 20
902.0666
 30
0.0
 11
756.9284
 21
902.0667
 31
0.0
  0
LINE
  5
168
  8
5
  6
CONTINUOUS
 10
746.9284
 20
955.8773
 30
0.0
 11
664.9284
 21
955.8773
 31
0.0
  0
LINE
  5
169
  8
5
  6
CONTINUOUS
 10
656.9284
 20
961.0667
 30
0.0
 11
656.9284
 21
957.0672
 31
0.0
  0
LINE
  5
16A
  8
5
  6
CONTINUOUS
 10
664.9284
 20
961.0667
 30
0.0
 11
664.9284
 21
955.8773
 31
0.0
  0
LINE
  5
16B
  8
5
  6
CONTINUOUS
 10
746.9284
 20
961.0667
 30
0.0
 11
746.9284
 21
955.8773
 31
0.0
  0
LINE
  5
16C
  8
5
  6
CONTINUOUS
 10
754.9285
 20
957.0672
 30
0.0
 11
754.9285
 21
961.0667
 31
0.0
  0
LINE
  5
16D
  8
5
  6
CONTINUOUS
 10
761.9285
 20
1079.567
 30
0.0
 11
756.9285
 21
1079.567
 31
0.0
  0
LINE
  5
16E
  8
5
  6
CONTINUOUS
 10
756.9285
 20
779.5667
 30
0.0
 11
761.9285
 21
779.5667
 31
0.0
  0
LINE
  5
16F
  8
5
  6
CONTINUOUS
 10
776.9285
 20
1129.567
 30
0.0
 11
761.9285
 21
1129.567
 31
0.0
  0
LINE
  5
170
  8
5
  6
CONTINUOUS
 10
761.9285
 20
729.5667
 30
0.0
 11
776.9285
 21
729.5667
 31
0.0
  0
LINE
  5
171
  8
5
  6
CONTINUOUS
 10
1116.428
 20
1101.067
 30
0.0
 11
1085.682
 21
1101.067
 31
0.0
  0
LINE
  5
172
  8
5
  6
CONTINUOUS
 10
1255.928
 20
1101.067
 30
0.0
 11
1250.939
 21
1101.067
 31
0.0
  0
LINE
  5
173
  8
5
  6
CONTINUOUS
 10
1250.939
 20
758.0668
 30
0.0
 11
1255.928
 21
758.0668
 31
0.0
  0
LINE
  5
174
  8
5
  6
CONTINUOUS
 10
844.1775
 20
1101.067
 30
0.0
 11
833.4283
 21
1101.067
 31
0.0
  0
LINE
  5
175
  8
5
  6
CONTINUOUS
 10
833.4283
 20
758.0668
 30
0.0
 11
840.918
 21
758.0667
 31
0.0
  0
LINE
  5
176
  8
5
  6
CONTINUOUS
 10
103.7684
 20
757.2736
 30
0.0
 11
112.2405
 21
771.3737
 31
0.0
  0
LINE
  5
177
  8
5
  6
CONTINUOUS
 10
434.8175
 20
1086.662
 30
0.0
 11
464.2238
 21
1109.637
 31
0.0
  0
LINE
  5
178
  8
5
  6
CONTINUOUS
 10
464.2238
 20
1109.637
 30
0.0
 11
476.8957
 21
1119.537
 31
0.0
  0
LINE
  5
179
  8
5
  6
CONTINUOUS
 10
494.5734
 20
1101.86
 30
0.0
 11
486.1012
 21
1087.76
 31
0.0
  0
LINE
  5
17A
  8
5
  6
CONTINUOUS
 10
486.1012
 20
1087.76
 30
0.0
 11
466.4407
 21
1055.039
 31
0.0
  0
LINE
  5
17B
  8
5
  6
CONTINUOUS
 10
112.2405
 20
771.3737
 30
0.0
 11
131.901
 21
804.0943
 31
0.0
  0
LINE
  5
17C
  8
5
  6
CONTINUOUS
 10
419.3106
 20
1118.567
 30
0.0
 11
419.9039
 21
1101.576
 31
0.0
  0
LINE
  5
17D
  8
5
  6
CONTINUOUS
 10
180.4709
 20
754.5666
 30
0.0
 11
180.4709
 21
755.5244
 31
0.0
  0
LINE
  5
17E
  8
5
  6
CONTINUOUS
 10
476.8957
 20
1119.537
 30
0.0
 11
494.5734
 21
1101.86
 31
0.0
  0
LINE
  5
17F
  8
5
  6
CONTINUOUS
 10
417.8709
 20
755.5244
 30
0.0
 11
417.8709
 21
754.5666
 31
0.0
  0
LINE
  5
180
  8
5
  6
CONTINUOUS
 10
486.1012
 20
771.3737
 30
0.0
 11
466.4407
 21
804.0943
 31
0.0
  0
LINE
  5
181
  8
5
  6
CONTINUOUS
 10
486.1012
 20
771.3737
 30
0.0
 11
494.5734
 21
757.2736
 31
0.0
  0
LINE
  5
182
  8
5
  6
CONTINUOUS
 10
178.4379
 20
1101.576
 30
0.0
 11
179.0312
 21
1118.567
 31
0.0
  0
LINE
  5
183
  8
5
  6
CONTINUOUS
 10
399.1709
 20
1124.567
 30
0.0
 11
417.8709
 21
1124.567
 31
0.0
  0
LINE
  5
184
  8
5
  6
CONTINUOUS
 10
363.6709
 20
1124.567
 30
0.0
 11
381.4209
 21
1124.567
 31
0.0
  0
LINE
  5
185
  8
5
  6
CONTINUOUS
 10
333.6709
 20
1124.567
 30
0.0
 11
348.6709
 21
1124.567
 31
0.0
  0
LINE
  5
186
  8
5
  6
CONTINUOUS
 10
299.1709
 20
1124.567
 30
0.0
 11
316.4209
 21
1124.567
 31
0.0
  0
LINE
  5
187
  8
5
  6
CONTINUOUS
 10
264.6709
 20
1124.567
 30
0.0
 11
281.9209
 21
1124.567
 31
0.0
  0
LINE
  5
188
  8
5
  6
CONTINUOUS
 10
234.6709
 20
1124.567
 30
0.0
 11
249.6709
 21
1124.567
 31
0.0
  0
LINE
  5
189
  8
5
  6
CONTINUOUS
 10
199.1709
 20
1124.567
 30
0.0
 11
216.9209
 21
1124.567
 31
0.0
  0
LINE
  5
18A
  8
5
  6
CONTINUOUS
 10
381.4209
 20
1124.567
 30
0.0
 11
399.1709
 21
1124.567
 31
0.0
  0
LINE
  5
18B
  8
5
  6
CONTINUOUS
 10
348.6709
 20
1124.567
 30
0.0
 11
363.6709
 21
1124.567
 31
0.0
  0
LINE
  5
18C
  8
5
  6
CONTINUOUS
 10
316.4209
 20
1124.567
 30
0.0
 11
333.6709
 21
1124.567
 31
0.0
  0
LINE
  5
18D
  8
5
  6
CONTINUOUS
 10
281.9209
 20
1124.567
 30
0.0
 11
299.1709
 21
1124.567
 31
0.0
  0
LINE
  5
18E
  8
5
  6
CONTINUOUS
 10
249.6709
 20
1124.567
 30
0.0
 11
264.6709
 21
1124.567
 31
0.0
  0
LINE
  5
18F
  8
5
  6
CONTINUOUS
 10
216.9209
 20
1124.567
 30
0.0
 11
234.6709
 21
1124.567
 31
0.0
  0
LINE
  5
190
  8
5
  6
CONTINUOUS
 10
180.4709
 20
1124.567
 30
0.0
 11
199.1709
 21
1124.567
 31
0.0
  0
LINE
  5
191
  8
5
  6
CONTINUOUS
 10
484.5068
 20
820.5307
 30
0.0
 11
494.1709
 21
829.5666
 31
0.0
  0
LINE
  5
192
  8
5
  6
CONTINUOUS
 10
474.1709
 20
810.8666
 30
0.0
 11
484.5068
 21
820.5307
 31
0.0
  0
LINE
  5
193
  8
5
  6
CONTINUOUS
 10
113.835
 20
820.5307
 30
0.0
 11
122.8709
 21
810.8666
 31
0.0
  0
LINE
  5
194
  8
5
  6
CONTINUOUS
 10
104.1709
 20
830.8666
 30
0.0
 11
113.835
 21
820.5307
 31
0.0
  0
LINE
  5
195
  8
5
  6
CONTINUOUS
 10
484.5068
 20
1038.603
 30
0.0
 11
474.1709
 21
1048.267
 31
0.0
  0
LINE
  5
196
  8
5
  6
CONTINUOUS
 10
494.1709
 20
1029.567
 30
0.0
 11
484.5068
 21
1038.603
 31
0.0
  0
LINE
  5
197
  8
5
  6
CONTINUOUS
 10
113.835
 20
1038.603
 30
0.0
 11
104.1709
 21
1029.567
 31
0.0
  0
LINE
  5
198
  8
5
  6
CONTINUOUS
 10
124.1709
 20
1048.267
 30
0.0
 11
113.835
 21
1038.603
 31
0.0
  0
LINE
  5
199
  8
5
  6
CONTINUOUS
 10
494.1709
 20
929.5666
 30
0.0
 11
494.1709
 21
912.3166
 31
0.0
  0
LINE
  5
19A
  8
5
  6
CONTINUOUS
 10
494.1709
 20
964.0666
 30
0.0
 11
494.1709
 21
946.8166
 31
0.0
  0
LINE
  5
19B
  8
5
  6
CONTINUOUS
 10
494.1709
 20
994.0666
 30
0.0
 11
494.1709
 21
979.0666
 31
0.0
  0
LINE
  5
19C
  8
5
  6
CONTINUOUS
 10
494.1709
 20
1029.567
 30
0.0
 11
494.1709
 21
1011.817
 31
0.0
  0
LINE
  5
19D
  8
5
  6
CONTINUOUS
 10
494.1709
 20
895.0666
 30
0.0
 11
494.1709
 21
880.0666
 31
0.0
  0
LINE
  5
19E
  8
5
  6
CONTINUOUS
 10
494.1709
 20
865.0666
 30
0.0
 11
494.1709
 21
847.3166
 31
0.0
  0
LINE
  5
19F
  8
5
  6
CONTINUOUS
 10
494.1709
 20
912.3166
 30
0.0
 11
494.1709
 21
895.0666
 31
0.0
  0
LINE
  5
1A0
  8
5
  6
CONTINUOUS
 10
494.1709
 20
946.8166
 30
0.0
 11
494.1709
 21
929.5666
 31
0.0
  0
LINE
  5
1A1
  8
5
  6
CONTINUOUS
 10
494.1709
 20
979.0666
 30
0.0
 11
494.1709
 21
964.0666
 31
0.0
  0
LINE
  5
1A2
  8
5
  6
CONTINUOUS
 10
494.1709
 20
1011.817
 30
0.0
 11
494.1709
 21
994.0666
 31
0.0
  0
LINE
  5
1A3
  8
5
  6
CONTINUOUS
 10
494.1709
 20
880.0666
 30
0.0
 11
494.1709
 21
865.0666
 31
0.0
  0
LINE
  5
1A4
  8
5
  6
CONTINUOUS
 10
494.1709
 20
847.3166
 30
0.0
 11
494.1709
 21
829.5666
 31
0.0
  0
LINE
  5
1A5
  8
5
  6
CONTINUOUS
 10
104.1709
 20
847.3166
 30
0.0
 11
104.1709
 21
865.0666
 31
0.0
  0
LINE
  5
1A6
  8
5
  6
CONTINUOUS
 10
104.1709
 20
880.0666
 30
0.0
 11
104.1709
 21
895.0666
 31
0.0
  0
LINE
  5
1A7
  8
5
  6
CONTINUOUS
 10
104.1709
 20
1011.817
 30
0.0
 11
104.1709
 21
1029.567
 31
0.0
  0
LINE
  5
1A8
  8
5
  6
CONTINUOUS
 10
104.1709
 20
979.0666
 30
0.0
 11
104.1709
 21
994.0666
 31
0.0
  0
LINE
  5
1A9
  8
5
  6
CONTINUOUS
 10
104.1709
 20
946.8166
 30
0.0
 11
104.1709
 21
964.0666
 31
0.0
  0
LINE
  5
1AA
  8
5
  6
CONTINUOUS
 10
104.1709
 20
912.3166
 30
0.0
 11
104.1709
 21
929.5666
 31
0.0
  0
LINE
  5
1AB
  8
5
  6
CONTINUOUS
 10
104.1709
 20
865.0666
 30
0.0
 11
104.1709
 21
880.0666
 31
0.0
  0
LINE
  5
1AC
  8
5
  6
CONTINUOUS
 10
104.1709
 20
830.8666
 30
0.0
 11
104.1709
 21
847.3166
 31
0.0
  0
LINE
  5
1AD
  8
5
  6
CONTINUOUS
 10
104.1709
 20
895.0666
 30
0.0
 11
104.1709
 21
912.3166
 31
0.0
  0
LINE
  5
1AE
  8
5
  6
CONTINUOUS
 10
104.1709
 20
994.0666
 30
0.0
 11
104.1709
 21
1011.817
 31
0.0
  0
LINE
  5
1AF
  8
5
  6
CONTINUOUS
 10
104.1709
 20
964.0666
 30
0.0
 11
104.1709
 21
979.0666
 31
0.0
  0
LINE
  5
1B0
  8
5
  6
CONTINUOUS
 10
104.1709
 20
929.5666
 30
0.0
 11
104.1709
 21
946.8166
 31
0.0
  0
LINE
  5
1B1
  8
5
  6
CONTINUOUS
 10
417.8709
 20
1124.567
 30
0.0
 11
417.8709
 21
1103.609
 31
0.0
  0
LINE
  5
1B2
  8
5
  6
CONTINUOUS
 10
163.5242
 20
772.4711
 30
0.0
 11
134.1179
 21
749.4963
 31
0.0
  0
LINE
  5
1B3
  8
5
  6
CONTINUOUS
 10
124.1709
 20
1048.267
 30
0.0
 11
125.1287
 21
1048.267
 31
0.0
  0
LINE
  5
1B4
  8
5
  6
CONTINUOUS
 10
134.1179
 20
749.4963
 30
0.0
 11
121.446
 21
739.596
 31
0.0
  0
LINE
  5
1B5
  8
5
  6
CONTINUOUS
 10
121.446
 20
739.596
 30
0.0
 11
103.7684
 21
757.2736
 31
0.0
  0
LINE
  5
1B6
  8
5
  6
CONTINUOUS
 10
473.2131
 20
1048.267
 30
0.0
 11
474.1709
 21
1048.267
 31
0.0
  0
ARC
  5
1B7
  8
5
  6
CONTINUOUS
 10
299.1709
 20
929.5666
 30
0.0
 40
200.0
 50
347.5254
 51
12.4046
  0
ARC
  5
1B8
  8
5
  6
CONTINUOUS
 10
299.1709
 20
929.5666
 30
0.0
 40
200.0
 50
257.1614
 51
282.8386
  0
LINE
  5
1B9
  8
5
  6
CONTINUOUS
 10
103.7684
 20
1101.86
 30
0.0
 11
121.446
 21
1119.537
 31
0.0
  0
LINE
  5
1BA
  8
5
  6
CONTINUOUS
 10
180.4709
 20
1103.609
 30
0.0
 11
180.4709
 21
1124.567
 31
0.0
  0
LINE
  5
1BB
  8
5
  6
CONTINUOUS
 10
112.2405
 20
1087.76
 30
0.0
 11
131.901
 21
1055.039
 31
0.0
  0
LINE
  5
1BC
  8
5
  6
CONTINUOUS
 10
112.2405
 20
1087.76
 30
0.0
 11
103.7684
 21
1101.86
 31
0.0
  0
LINE
  5
1BD
  8
5
  6
CONTINUOUS
 10
121.446
 20
1119.537
 30
0.0
 11
134.1179
 21
1109.637
 31
0.0
  0
LINE
  5
1BE
  8
5
  6
CONTINUOUS
 10
163.5242
 20
1086.662
 30
0.0
 11
134.1179
 21
1109.637
 31
0.0
  0
CIRCLE
  5
1BF
  8
5
  6
CONTINUOUS
 10
299.1709
 20
929.5666
 30
0.0
 40
128.0
  0
LINE
  5
1C0
  8
5
  6
CONTINUOUS
 10
106.1709
 20
829.8244
 30
0.0
 11
199.4287
 21
736.5666
 31
0.0
  0
LINE
  5
1C1
  8
5
  6
CONTINUOUS
 10
199.4287
 20
736.5666
 30
0.0
 11
398.9131
 21
736.5666
 31
0.0
  0
LINE
  5
1C2
  8
5
  6
CONTINUOUS
 10
398.9131
 20
736.5666
 30
0.0
 11
492.1709
 21
829.8244
 31
0.0
  0
LINE
  5
1C3
  8
5
  6
CONTINUOUS
 10
492.1709
 20
829.8244
 30
0.0
 11
492.1709
 21
1029.309
 31
0.0
  0
LINE
  5
1C4
  8
5
  6
CONTINUOUS
 10
492.1709
 20
1029.309
 30
0.0
 11
398.9131
 21
1122.567
 31
0.0
  0
LINE
  5
1C5
  8
5
  6
CONTINUOUS
 10
398.9131
 20
1122.567
 30
0.0
 11
199.4287
 21
1122.567
 31
0.0
  0
LINE
  5
1C6
  8
5
  6
CONTINUOUS
 10
199.4287
 20
1122.567
 30
0.0
 11
106.1709
 21
1029.309
 31
0.0
  0
LINE
  5
1C7
  8
5
  6
CONTINUOUS
 10
106.1709
 20
829.8244
 30
0.0
 11
106.1709
 21
1029.309
 31
0.0
  0
LINE
  5
1C8
  8
5
  6
CONTINUOUS
 10
200.6713
 20
1119.567
 30
0.0
 11
109.1709
 21
1028.066
 31
0.0
  0
LINE
  5
1C9
  8
5
  6
CONTINUOUS
 10
397.6705
 20
1119.567
 30
0.0
 11
200.6713
 21
1119.567
 31
0.0
  0
LINE
  5
1CA
  8
5
  6
CONTINUOUS
 10
489.1709
 20
1028.066
 30
0.0
 11
397.6705
 21
1119.567
 31
0.0
  0
LINE
  5
1CB
  8
5
  6
CONTINUOUS
 10
489.1709
 20
831.067
 30
0.0
 11
489.1709
 21
1028.066
 31
0.0
  0
LINE
  5
1CC
  8
5
  6
CONTINUOUS
 10
397.6705
 20
739.5666
 30
0.0
 11
489.1709
 21
831.067
 31
0.0
  0
LINE
  5
1CD
  8
5
  6
CONTINUOUS
 10
200.6713
 20
739.5666
 30
0.0
 11
397.6705
 21
739.5666
 31
0.0
  0
LINE
  5
1CE
  8
5
  6
CONTINUOUS
 10
109.1709
 20
831.067
 30
0.0
 11
200.6713
 21
739.5666
 31
0.0
  0
LINE
  5
1CF
  8
5
  6
CONTINUOUS
 10
109.1709
 20
831.067
 30
0.0
 11
109.1709
 21
1028.066
 31
0.0
  0
ARC
  5
1D0
  8
5
  6
CONTINUOUS
 10
299.1709
 20
929.5666
 30
0.0
 40
200.0
 50
167.5954
 51
192.4805
  0
LINE
  5
1D1
  8
5
  6
CONTINUOUS
 10
89.17087
 20
835.9816
 30
0.0
 11
89.17087
 21
834.4816
 31
0.0
  0
LINE
  5
1D2
  8
5
  6
CONTINUOUS
 10
89.17087
 20
834.4816
 30
0.0
 11
89.17087
 21
832.9816
 31
0.0
  0
LINE
  5
1D3
  8
5
  6
CONTINUOUS
 10
399.1709
 20
734.5666
 30
0.0
 11
381.4209
 21
734.5666
 31
0.0
  0
LINE
  5
1D4
  8
5
  6
CONTINUOUS
 10
363.6709
 20
734.5666
 30
0.0
 11
348.6709
 21
734.5666
 31
0.0
  0
LINE
  5
1D5
  8
5
  6
CONTINUOUS
 10
333.6709
 20
734.5666
 30
0.0
 11
316.4209
 21
734.5666
 31
0.0
  0
LINE
  5
1D6
  8
5
  6
CONTINUOUS
 10
234.6709
 20
734.5666
 30
0.0
 11
216.9209
 21
734.5666
 31
0.0
  0
LINE
  5
1D7
  8
5
  6
CONTINUOUS
 10
264.6709
 20
734.5666
 30
0.0
 11
249.6709
 21
734.5666
 31
0.0
  0
LINE
  5
1D8
  8
5
  6
CONTINUOUS
 10
299.1709
 20
734.5666
 30
0.0
 11
281.9209
 21
734.5666
 31
0.0
  0
LINE
  5
1D9
  8
5
  6
CONTINUOUS
 10
271.1674
 20
1265.567
 30
0.0
 11
271.1674
 21
1265.567
 31
0.0
  0
LINE
  5
1DA
  8
5
  6
CONTINUOUS
 10
299.3342
 20
1265.567
 30
0.0
 11
299.3342
 21
1265.567
 31
0.0
  0
LINE
  5
1DB
  8
5
  6
CONTINUOUS
 10
271.1637
 20
1265.567
 30
0.0
 11
271.1637
 21
1265.567
 31
0.0
  0
LINE
  5
1DC
  8
5
  6
CONTINUOUS
 10
297.2343
 20
1261.367
 30
0.0
 11
297.2343
 21
1265.567
 31
0.0
  0
LINE
  5
1DD
  8
5
  6
CONTINUOUS
 10
271.1677
 20
1261.367
 30
0.0
 11
271.1674
 21
1265.567
 31
0.0
  0
LINE
  5
1DE
  8
5
  6
CONTINUOUS
 10
324.2313
 20
1261.367
 30
0.0
 11
324.2313
 21
1265.567
 31
0.0
  0
LINE
  5
1DF
  8
5
  6
CONTINUOUS
 10
299.3343
 20
1261.367
 30
0.0
 11
299.3342
 21
1265.567
 31
0.0
  0
LINE
  5
1E0
  8
5
  6
CONTINUOUS
 10
186.1709
 20
1261.367
 30
0.0
 11
409.1743
 21
1261.363
 31
0.0
  0
LINE
  5
1E1
  8
5
  6
CONTINUOUS
 10
447.1709
 20
1165.367
 30
0.0
 11
447.1709
 21
1142.567
 31
0.0
  0
LINE
  5
1E2
  8
5
  6
CONTINUOUS
 10
447.1709
 20
1142.567
 30
0.0
 11
423.1709
 21
1118.567
 31
0.0
  0
LINE
  5
1E3
  8
5
  6
CONTINUOUS
 10
381.4209
 20
734.5666
 30
0.0
 11
363.6709
 21
734.5666
 31
0.0
  0
LINE
  5
1E4
  8
5
  6
CONTINUOUS
 10
348.6709
 20
734.5666
 30
0.0
 11
333.6709
 21
734.5666
 31
0.0
  0
LINE
  5
1E5
  8
5
  6
CONTINUOUS
 10
316.4209
 20
734.5666
 30
0.0
 11
299.1709
 21
734.5666
 31
0.0
  0
LINE
  5
1E6
  8
5
  6
CONTINUOUS
 10
249.6709
 20
734.5666
 30
0.0
 11
234.6709
 21
734.5666
 31
0.0
  0
LINE
  5
1E7
  8
5
  6
CONTINUOUS
 10
106.6709
 20
1142.367
 30
0.0
 11
106.6709
 21
1190.367
 31
0.0
  0
LINE
  5
1E8
  8
5
  6
CONTINUOUS
 10
454.1709
 20
1165.367
 30
0.0
 11
141.6709
 21
1165.367
 31
0.0
  0
LINE
  5
1E9
  8
5
  6
CONTINUOUS
 10
151.1709
 20
1142.567
 30
0.0
 11
151.1709
 21
1165.367
 31
0.0
  0
LINE
  5
1EA
  8
5
  6
CONTINUOUS
 10
151.1709
 20
1142.567
 30
0.0
 11
175.1709
 21
1118.567
 31
0.0
  0
LINE
  5
1EB
  8
5
  6
CONTINUOUS
 10
151.3709
 20
1142.367
 30
0.0
 11
106.6709
 21
1142.367
 31
0.0
  0
LINE
  5
1EC
  8
5
  6
CONTINUOUS
 10
216.9209
 20
734.5666
 30
0.0
 11
199.1709
 21
734.5666
 31
0.0
  0
LINE
  5
1ED
  8
5
  6
CONTINUOUS
 10
281.9209
 20
734.5666
 30
0.0
 11
264.6709
 21
734.5666
 31
0.0
  0
LINE
  5
1EE
  8
5
  6
CONTINUOUS
 10
190.135
 20
744.2307
 30
0.0
 11
199.1709
 21
734.5666
 31
0.0
  0
LINE
  5
1EF
  8
5
  6
CONTINUOUS
 10
180.6709
 20
754.3527
 30
0.0
 11
190.135
 21
744.2307
 31
0.0
  0
LINE
  5
1F0
  8
5
  6
CONTINUOUS
 10
423.1709
 20
1118.567
 30
0.0
 11
417.8709
 21
1118.567
 31
0.0
  0
LINE
  5
1F1
  8
5
  6
CONTINUOUS
 10
180.4709
 20
754.5666
 30
0.0
 11
180.6709
 21
754.3527
 31
0.0
  0
LINE
  5
1F2
  8
5
  6
CONTINUOUS
 10
408.2068
 20
744.2307
 30
0.0
 11
417.8709
 21
754.5666
 31
0.0
  0
LINE
  5
1F3
  8
5
  6
CONTINUOUS
 10
399.1709
 20
734.5666
 30
0.0
 11
408.2068
 21
744.2307
 31
0.0
  0
LINE
  5
1F4
  8
5
  6
CONTINUOUS
 10
494.5734
 20
757.2736
 30
0.0
 11
476.8957
 21
739.596
 31
0.0
  0
LINE
  5
1F5
  8
5
  6
CONTINUOUS
 10
476.8957
 20
739.596
 30
0.0
 11
464.2238
 21
749.4963
 31
0.0
  0
LINE
  5
1F6
  8
5
  6
CONTINUOUS
 10
180.4709
 20
1118.567
 30
0.0
 11
175.1709
 21
1118.567
 31
0.0
  0
LINE
  5
1F7
  8
5
  6
CONTINUOUS
 10
434.8175
 20
772.4711
 30
0.0
 11
464.2238
 21
749.4963
 31
0.0
  0
LINE
  5
1F8
  8
5
  6
CONTINUOUS
 10
112.2405
 20
771.3737
 30
0.0
 11
134.1179
 21
749.4963
 31
0.0
  0
LINE
  5
1F9
  8
5
  6
CONTINUOUS
 10
170.7398
 20
1241.867
 30
0.0
 11
140.1709
 21
1210.367
 31
0.0
  0
LINE
  5
1FA
  8
5
  6
CONTINUOUS
 10
186.1709
 20
1261.367
 30
0.0
 11
186.1709
 21
1210.367
 31
0.0
  0
LINE
  5
1FB
  8
5
  6
CONTINUOUS
 10
180.6709
 20
755.3244
 30
0.0
 11
180.6709
 21
754.3527
 31
0.0
  0
LINE
  5
1FC
  8
5
  6
CONTINUOUS
 10
190.135
 20
744.2307
 30
0.0
 11
190.9498
 21
745.0455
 31
0.0
  0
LINE
  5
1FD
  8
5
  6
CONTINUOUS
 10
409.1708
 20
1210.367
 30
0.0
 11
186.1709
 21
1210.367
 31
0.0
  0
LINE
  5
1FE
  8
5
  6
CONTINUOUS
 10
409.1708
 20
1210.367
 30
0.0
 11
409.1743
 21
1261.363
 31
0.0
  0
LINE
  5
1FF
  8
5
  6
CONTINUOUS
 10
285.9967
 20
1261.367
 30
0.0
 11
285.9967
 21
1265.567
 31
0.0
  0
LINE
  5
200
  8
5
  6
CONTINUOUS
 10
408.2068
 20
744.2307
 30
0.0
 11
407.392
 21
745.0455
 31
0.0
  0
LINE
  5
201
  8
5
  6
CONTINUOUS
 10
464.2238
 20
749.4963
 30
0.0
 11
486.1012
 21
771.3737
 31
0.0
  0
LINE
  5
202
  8
5
  6
CONTINUOUS
 10
324.2313
 20
1265.567
 30
0.0
 11
324.2313
 21
1265.567
 31
0.0
  0
LINE
  5
203
  8
5
  6
CONTINUOUS
 10
104.1709
 20
835.9816
 30
0.0
 11
89.17087
 21
835.9816
 31
0.0
  0
LINE
  5
204
  8
5
  6
CONTINUOUS
 10
89.17087
 20
832.9816
 30
0.0
 11
104.1709
 21
832.9816
 31
0.0
  0
LINE
  5
205
  8
5
  6
CONTINUOUS
 10
399.1709
 20
734.5666
 30
0.0
 11
399.1709
 21
736.8244
 31
0.0
  0
LINE
  5
206
  8
5
  6
CONTINUOUS
 10
381.4209
 20
736.5666
 30
0.0
 11
381.4209
 21
734.5666
 31
0.0
  0
LINE
  5
207
  8
5
  6
CONTINUOUS
 10
199.1708
 20
734.5666
 30
0.0
 11
199.1709
 21
736.8244
 31
0.0
  0
LINE
  5
208
  8
5
  6
CONTINUOUS
 10
216.9209
 20
734.5666
 30
0.0
 11
216.9209
 21
736.5666
 31
0.0
  0
LINE
  5
209
  8
5
  6
CONTINUOUS
 10
281.9209
 20
736.5666
 30
0.0
 11
281.9209
 21
734.5666
 31
0.0
  0
LINE
  5
20A
  8
5
  6
CONTINUOUS
 10
299.1709
 20
734.5666
 30
0.0
 11
299.1709
 21
736.5666
 31
0.0
  0
LINE
  5
20B
  8
5
  6
CONTINUOUS
 10
313.7922
 20
1261.367
 30
0.0
 11
313.7921
 21
1265.567
 31
0.0
  0
LINE
  5
20C
  8
5
  6
CONTINUOUS
 10
301.8889
 20
1261.367
 30
0.0
 11
301.8889
 21
1265.567
 31
0.0
  0
LINE
  5
20D
  8
5
  6
CONTINUOUS
 10
249.6709
 20
736.5666
 30
0.0
 11
249.6708
 21
734.5666
 31
0.0
  0
LINE
  5
20E
  8
5
  6
CONTINUOUS
 10
264.6708
 20
734.5666
 30
0.0
 11
264.6709
 21
736.5666
 31
0.0
  0
LINE
  5
20F
  8
5
  6
CONTINUOUS
 10
234.6708
 20
734.5666
 30
0.0
 11
234.6709
 21
736.5666
 31
0.0
  0
LINE
  5
210
  8
5
  6
CONTINUOUS
 10
316.4209
 20
736.5666
 30
0.0
 11
316.4208
 21
734.5666
 31
0.0
  0
LINE
  5
211
  8
5
  6
CONTINUOUS
 10
333.6709
 20
734.5666
 30
0.0
 11
333.6709
 21
736.5666
 31
0.0
  0
LINE
  5
212
  8
5
  6
CONTINUOUS
 10
348.6709
 20
736.5666
 30
0.0
 11
348.6709
 21
734.5666
 31
0.0
  0
LINE
  5
213
  8
5
  6
CONTINUOUS
 10
363.6709
 20
734.5666
 30
0.0
 11
363.6709
 21
736.5666
 31
0.0
  0
LINE
  5
214
  8
5
  6
CONTINUOUS
 10
651.9284
 20
361.7777
 30
0.0
 11
651.9284
 21
306.7777
 31
0.0
  0
LINE
  5
215
  8
5
  6
CONTINUOUS
 10
746.9284
 20
342.2777
 30
0.0
 11
664.9284
 21
342.2777
 31
0.0
  0
LINE
  5
216
  8
5
  6
CONTINUOUS
 10
151.1709
 20
1142.567
 30
0.0
 11
447.1709
 21
1142.567
 31
0.0
  0
LINE
  5
217
  8
5
  6
CONTINUOUS
 10
841.5329
 20
157.9777
 30
0.0
 11
839.7651
 21
171.7776
 31
0.0
  0
LINE
  5
218
  8
5
  6
CONTINUOUS
 10
843.9284
 20
139.2777
 30
0.0
 11
842.6904
 21
148.9417
 31
0.0
  0
LINE
  5
219
  8
5
  6
CONTINUOUS
 10
842.6904
 20
148.9417
 30
0.0
 11
841.5329
 21
157.9777
 31
0.0
  0
LINE
  5
21A
  8
5
  6
CONTINUOUS
 10
1155.615
 20
139.2777
 30
0.0
 11
843.9284
 21
139.2777
 31
0.0
  0
LINE
  5
21B
  8
5
  6
CONTINUOUS
 10
1078.428
 20
142.7776
 30
0.0
 11
1078.428
 21
205.8466
 31
0.0
  0
LINE
  5
21C
  8
5
  6
CONTINUOUS
 10
851.4284
 20
205.8466
 30
0.0
 11
851.4284
 21
142.7776
 31
0.0
  0
LINE
  5
21D
  8
5
  6
CONTINUOUS
 10
851.4284
 20
171.7776
 30
0.0
 11
805.4284
 21
171.7776
 31
0.0
  0
LINE
  5
21E
  8
5
  6
CONTINUOUS
 10
1124.428
 20
171.7776
 30
0.0
 11
1078.428
 21
171.7776
 31
0.0
  0
LINE
  5
21F
  8
5
  6
CONTINUOUS
 10
851.4284
 20
142.7776
 30
0.0
 11
1078.428
 21
142.7776
 31
0.0
  0
LINE
  5
220
  8
5
  6
CONTINUOUS
 10
1078.928
 20
141.7776
 30
0.0
 11
1078.928
 21
171.7776
 31
0.0
  0
LINE
  5
221
  8
5
  6
CONTINUOUS
 10
850.9284
 20
171.7776
 30
0.0
 11
850.9284
 21
141.7776
 31
0.0
  0
LINE
  5
222
  8
5
  6
CONTINUOUS
 10
805.4284
 20
444.2776
 30
0.0
 11
805.4284
 21
493.7776
 31
0.0
  0
LINE
  5
223
  8
5
  6
CONTINUOUS
 10
805.4284
 20
171.7776
 30
0.0
 11
805.4284
 21
221.2776
 31
0.0
  0
LINE
  5
224
  8
5
  6
CONTINUOUS
 10
805.4284
 20
221.2776
 30
0.0
 11
805.4284
 21
444.2776
 31
0.0
  0
LINE
  5
225
  8
5
  6
CONTINUOUS
 10
805.4284
 20
493.7776
 30
0.0
 11
854.9284
 21
493.7776
 31
0.0
  0
LINE
  5
226
  8
5
  6
CONTINUOUS
 10
854.9284
 20
493.7776
 30
0.0
 11
1074.928
 21
493.7776
 31
0.0
  0
LINE
  5
227
  8
5
  6
CONTINUOUS
 10
1074.928
 20
493.7776
 30
0.0
 11
1124.428
 21
493.7776
 31
0.0
  0
LINE
  5
228
  8
5
  6
CONTINUOUS
 10
1124.428
 20
221.2776
 30
0.0
 11
1124.428
 21
171.7776
 31
0.0
  0
LINE
  5
229
  8
5
  6
CONTINUOUS
 10
1124.428
 20
493.7776
 30
0.0
 11
1124.428
 21
444.2776
 31
0.0
  0
LINE
  5
22A
  8
5
  6
CONTINUOUS
 10
1124.428
 20
444.2776
 30
0.0
 11
1124.428
 21
221.2776
 31
0.0
  0
LINE
  5
22B
  8
5
  6
CONTINUOUS
 10
1020.468
 20
306.2743
 30
0.0
 11
1020.468
 21
332.3406
 31
0.0
  0
LINE
  5
22C
  8
5
  6
CONTINUOUS
 10
1006.69
 20
306.2739
 30
0.0
 11
1020.468
 21
306.2743
 31
0.0
  0
LINE
  5
22D
  8
5
  6
CONTINUOUS
 10
1006.689
 20
332.34
 30
0.0
 11
1006.69
 21
306.2739
 31
0.0
  0
LINE
  5
22E
  8
5
  6
CONTINUOUS
 10
1006.689
 20
332.34
 30
0.0
 11
1020.468
 21
332.3406
 31
0.0
  0
LINE
  5
22F
  8
5
  6
CONTINUOUS
 10
1037.145
 20
332.341
 30
0.0
 11
1022.568
 21
332.3406
 31
0.0
  0
ARC
  5
230
  8
5
  6
CONTINUOUS
 10
1025.384
 20
320.2971
 30
0.0
 40
16.83332
 50
2.745839
 51
45.68302
  0
ARC
  5
231
  8
5
  6
CONTINUOUS
 10
1027.37
 20
321.103
 30
0.0
 40
14.82849
 50
270.0019
 51
0.0019
  0
LINE
  5
232
  8
5
  6
CONTINUOUS
 10
1022.568
 20
306.2743
 30
0.0
 11
1027.37
 21
306.2745
 31
0.0
  0
LINE
  5
233
  8
5
  6
CONTINUOUS
 10
1022.568
 20
332.3406
 30
0.0
 11
1022.568
 21
306.2743
 31
0.0
  0
LINE
  5
234
  8
5
  6
CONTINUOUS
 10
1022.567
 20
359.338
 30
0.0
 11
1022.568
 21
334.4407
 31
0.0
  0
LINE
  5
235
  8
5
  6
CONTINUOUS
 10
1027.369
 20
359.3381
 30
0.0
 11
1022.567
 21
359.338
 31
0.0
  0
ARC
  5
236
  8
5
  6
CONTINUOUS
 10
1027.369
 20
348.8986
 30
0.0
 40
10.43949
 50
0.001947
 51
90.00195
  0
ARC
  5
237
  8
5
  6
CONTINUOUS
 10
1024.338
 20
350.1468
 30
0.0
 40
13.5281
 50
283.5581
 51
354.7072
  0
ARC
  5
238
  8
5
  6
CONTINUOUS
 10
1025.384
 20
320.2971
 30
0.0
 40
16.83332
 50
57.16491
 51
82.74766
  0
LINE
  5
239
  8
5
  6
CONTINUOUS
 10
1022.568
 20
334.4407
 30
0.0
 11
1034.512
 21
334.441
 31
0.0
  0
LINE
  5
23A
  8
5
  6
CONTINUOUS
 10
1006.688
 20
359.3374
 30
0.0
 11
1006.689
 21
334.4401
 31
0.0
  0
LINE
  5
23B
  8
5
  6
CONTINUOUS
 10
1020.467
 20
359.3378
 30
0.0
 11
1006.688
 21
359.3374
 31
0.0
  0
LINE
  5
23C
  8
5
  6
CONTINUOUS
 10
1020.467
 20
334.4405
 30
0.0
 11
1020.467
 21
359.3378
 31
0.0
  0
LINE
  5
23D
  8
5
  6
CONTINUOUS
 10
1006.689
 20
334.4401
 30
0.0
 11
1020.467
 21
334.4405
 31
0.0
  0
LINE
  5
23E
  8
5
  6
CONTINUOUS
 10
976.9211
 20
359.3364
 30
0.0
 11
976.9219
 21
334.4391
 31
0.0
  0
LINE
  5
23F
  8
5
  6
CONTINUOUS
 10
981.7231
 20
359.3365
 30
0.0
 11
976.9211
 21
359.3364
 31
0.0
  0
ARC
  5
240
  8
5
  6
CONTINUOUS
 10
981.7234
 20
348.897
 30
0.0
 40
10.43949
 50
0.001947
 51
90.00195
  0
ARC
  5
241
  8
5
  6
CONTINUOUS
 10
978.6925
 20
350.1453
 30
0.0
 40
13.5281
 50
283.5581
 51
354.7072
  0
ARC
  5
242
  8
5
  6
CONTINUOUS
 10
979.7388
 20
320.2955
 30
0.0
 40
16.83332
 50
57.16493
 51
82.74766
  0
LINE
  5
243
  8
5
  6
CONTINUOUS
 10
976.9219
 20
334.4391
 30
0.0
 11
988.8663
 21
334.4395
 31
0.0
  0
ARC
  5
244
  8
5
  6
CONTINUOUS
 10
979.7388
 20
320.2955
 30
0.0
 40
16.83332
 50
2.745839
 51
45.68318
  0
ARC
  5
245
  8
5
  6
CONTINUOUS
 10
981.7244
 20
321.1014
 30
0.0
 40
14.82849
 50
270.0019
 51
0.0019
  0
LINE
  5
246
  8
5
  6
CONTINUOUS
 10
976.9229
 20
306.2727
 30
0.0
 11
981.7249
 21
306.2729
 31
0.0
  0
LINE
  5
247
  8
5
  6
CONTINUOUS
 10
976.9219
 20
332.3391
 30
0.0
 11
976.9229
 21
306.2727
 31
0.0
  0
LINE
  5
248
  8
5
  6
CONTINUOUS
 10
991.499
 20
332.3396
 30
0.0
 11
976.9219
 21
332.3391
 31
0.0
  0
LINE
  5
249
  8
5
  6
CONTINUOUS
 10
974.8228
 20
306.2727
 30
0.0
 11
974.8221
 21
332.3391
 31
0.0
  0
LINE
  5
24A
  8
5
  6
CONTINUOUS
 10
961.0444
 20
306.2723
 30
0.0
 11
974.8228
 21
306.2727
 31
0.0
  0
LINE
  5
24B
  8
5
  6
CONTINUOUS
 10
961.0435
 20
332.3385
 30
0.0
 11
961.0444
 21
306.2723
 31
0.0
  0
LINE
  5
24C
  8
5
  6
CONTINUOUS
 10
974.8221
 20
332.3391
 30
0.0
 11
961.0435
 21
332.3385
 31
0.0
  0
LINE
  5
24D
  8
5
  6
CONTINUOUS
 10
974.8219
 20
334.4389
 30
0.0
 11
974.8211
 21
359.3362
 31
0.0
  0
LINE
  5
24E
  8
5
  6
CONTINUOUS
 10
961.0434
 20
334.4386
 30
0.0
 11
974.8219
 21
334.4389
 31
0.0
  0
LINE
  5
24F
  8
5
  6
CONTINUOUS
 10
961.0426
 20
359.3358
 30
0.0
 11
961.0434
 21
334.4386
 31
0.0
  0
LINE
  5
250
  8
5
  6
CONTINUOUS
 10
974.8211
 20
359.3362
 30
0.0
 11
961.0426
 21
359.3358
 31
0.0
  0
LINE
  5
251
  8
5
  6
CONTINUOUS
 10
950.7567
 20
306.2719
 30
0.0
 11
941.4516
 21
332.3379
 31
0.0
  0
LINE
  5
252
  8
5
  6
CONTINUOUS
 10
941.2563
 20
306.2716
 30
0.0
 11
950.7567
 21
306.2719
 31
0.0
  0
LINE
  5
253
  8
5
  6
CONTINUOUS
 10
937.4162
 20
317.0288
 30
0.0
 11
941.2563
 21
306.2716
 31
0.0
  0
LINE
  5
254
  8
5
  6
CONTINUOUS
 10
926.0227
 20
317.0285
 30
0.0
 11
937.4162
 21
317.0288
 31
0.0
  0
LINE
  5
255
  8
5
  6
CONTINUOUS
 10
926.0223
 20
332.3373
 30
0.0
 11
926.0227
 21
317.0285
 31
0.0
  0
LINE
  5
256
  8
5
  6
CONTINUOUS
 10
941.4516
 20
332.3379
 30
0.0
 11
926.0223
 21
332.3373
 31
0.0
  0
LINE
  5
257
  8
5
  6
CONTINUOUS
 10
926.0213
 20
359.3347
 30
0.0
 11
926.0221
 21
334.4374
 31
0.0
  0
LINE
  5
258
  8
5
  6
CONTINUOUS
 10
931.8142
 20
359.3348
 30
0.0
 11
926.0213
 21
359.3347
 31
0.0
  0
LINE
  5
259
  8
5
  6
CONTINUOUS
 10
940.7019
 20
334.4378
 30
0.0
 11
931.8142
 21
359.3348
 31
0.0
  0
LINE
  5
25A
  8
5
  6
CONTINUOUS
 10
926.0221
 20
334.4374
 30
0.0
 11
940.7019
 21
334.4378
 31
0.0
  0
LINE
  5
25B
  8
5
  6
CONTINUOUS
 10
912.4787
 20
317.0279
 30
0.0
 11
923.9228
 21
317.0283
 31
0.0
  0
LINE
  5
25C
  8
5
  6
CONTINUOUS
 10
908.7885
 20
306.2705
 30
0.0
 11
912.4787
 21
317.0279
 31
0.0
  0
LINE
  5
25D
  8
5
  6
CONTINUOUS
 10
899.9256
 20
306.2702
 30
0.0
 11
908.7885
 21
306.2705
 31
0.0
  0
LINE
  5
25E
  8
5
  6
CONTINUOUS
 10
908.8673
 20
332.3367
 30
0.0
 11
899.9256
 21
306.2702
 31
0.0
  0
LINE
  5
25F
  8
5
  6
CONTINUOUS
 10
923.9222
 20
332.3373
 30
0.0
 11
908.8673
 21
332.3367
 31
0.0
  0
LINE
  5
260
  8
5
  6
CONTINUOUS
 10
923.9228
 20
317.0283
 30
0.0
 11
923.9222
 21
332.3373
 31
0.0
  0
LINE
  5
261
  8
5
  6
CONTINUOUS
 10
923.9213
 20
359.3345
 30
0.0
 11
918.1285
 21
359.3344
 31
0.0
  0
LINE
  5
262
  8
5
  6
CONTINUOUS
 10
923.9222
 20
334.4372
 30
0.0
 11
923.9213
 21
359.3345
 31
0.0
  0
LINE
  5
263
  8
5
  6
CONTINUOUS
 10
909.5877
 20
334.4368
 30
0.0
 11
923.9222
 21
334.4372
 31
0.0
  0
LINE
  5
264
  8
5
  6
CONTINUOUS
 10
918.1285
 20
359.3344
 30
0.0
 11
909.5877
 21
334.4368
 31
0.0
  0
LINE
  5
265
  8
5
  6
CONTINUOUS
 10
850.9284
 20
141.7776
 30
0.0
 11
1078.928
 21
141.7776
 31
0.0
  0
LINE
  5
269
  8
5
  6
CONTINUOUS
 10
833.4284
 20
171.7776
 30
0.0
 11
833.4284
 21
162.7776
 31
0.0
  0
LINE
  5
26A
  8
5
  6
CONTINUOUS
 10
842.6904
 20
148.9417
 30
0.0
 11
843.9285
 21
159.2777
 31
0.0
  0
LINE
  5
26B
  8
5
  6
CONTINUOUS
 10
843.9285
 20
159.2777
 30
0.0
 11
850.9284
 21
159.2777
 31
0.0
  0
LINE
  5
26C
  8
5
  6
CONTINUOUS
 10
486.1012
 20
1087.76
 30
0.0
 11
464.2238
 21
1109.637
 31
0.0
  0
LINE
  5
26D
  8
5
  6
CONTINUOUS
 10
843.9284
 20
171.7776
 30
0.0
 11
843.9285
 21
159.2777
 31
0.0
  0
LINE
  5
26E
  8
5
  6
CONTINUOUS
 10
841.5329
 20
157.9777
 30
0.0
 11
841.5329
 21
171.7776
 31
0.0
  0
LINE
  5
26F
  8
5
  6
CONTINUOUS
 10
199.1708
 20
1124.567
 30
0.0
 11
199.1709
 21
1122.309
 31
0.0
  0
LINE
  5
270
  8
5
  6
CONTINUOUS
 10
833.4284
 20
162.7776
 30
0.0
 11
840.9181
 21
162.7776
 31
0.0
  0
LINE
  5
271
  8
5
  6
CONTINUOUS
 10
1074.928
 20
202.3489
 30
0.0
 11
1078.428
 21
205.8466
 31
0.0
  0
LINE
  5
272
  8
5
  6
CONTINUOUS
 10
216.9209
 20
1122.567
 30
0.0
 11
216.9209
 21
1124.567
 31
0.0
  0
LINE
  5
273
  8
5
  6
CONTINUOUS
 10
399.1709
 20
1124.567
 30
0.0
 11
399.1709
 21
1122.309
 31
0.0
  0
LINE
  5
274
  8
5
  6
CONTINUOUS
 10
854.9285
 20
202.3489
 30
0.0
 11
1074.928
 21
202.3489
 31
0.0
  0
LINE
  5
275
  8
5
  6
CONTINUOUS
 10
851.4284
 20
205.8466
 30
0.0
 11
854.9285
 21
202.3489
 31
0.0
  0
LINE
  5
276
  8
5
  6
CONTINUOUS
 10
407.392
 20
1114.088
 30
0.0
 11
417.8709
 21
1124.567
 31
0.0
  0
LINE
  5
277
  8
5
  6
CONTINUOUS
 10
1074.928
 20
202.3489
 30
0.0
 11
1074.928
 21
221.2701
 31
0.0
  0
LINE
  5
278
  8
5
  6
CONTINUOUS
 10
190.9498
 20
1114.088
 30
0.0
 11
180.4709
 21
1124.567
 31
0.0
  0
LINE
  5
279
  8
5
  6
CONTINUOUS
 10
381.4209
 20
1124.567
 30
0.0
 11
381.4209
 21
1122.567
 31
0.0
  0
LINE
  5
27A
  8
5
  6
CONTINUOUS
 10
854.9285
 20
221.2701
 30
0.0
 11
1074.928
 21
221.2701
 31
0.0
  0
LINE
  5
27B
  8
5
  6
CONTINUOUS
 10
854.9285
 20
221.2701
 30
0.0
 11
854.9285
 21
202.3489
 31
0.0
  0
LINE
  5
27C
  8
5
  6
CONTINUOUS
 10
249.6709
 20
1122.567
 30
0.0
 11
249.6708
 21
1124.567
 31
0.0
  0
LINE
  5
27D
  8
5
  6
CONTINUOUS
 10
234.6708
 20
1124.567
 30
0.0
 11
234.6709
 21
1122.567
 31
0.0
  0
LINE
  5
27E
  8
5
  6
CONTINUOUS
 10
805.4284
 20
221.2776
 30
0.0
 11
854.9285
 21
221.2701
 31
0.0
  0
LINE
  5
27F
  8
5
  6
CONTINUOUS
 10
805.4284
 20
221.2776
 30
0.0
 11
851.4284
 21
175.2776
 31
0.0
  0
LINE
  5
280
  8
5
  6
CONTINUOUS
 10
281.9209
 20
1122.567
 30
0.0
 11
281.9209
 21
1124.567
 31
0.0
  0
LINE
  5
281
  8
5
  6
CONTINUOUS
 10
264.6709
 20
1124.567
 30
0.0
 11
264.6709
 21
1122.567
 31
0.0
  0
LINE
  5
282
  8
5
  6
CONTINUOUS
 10
1078.428
 20
175.2776
 30
0.0
 11
1124.428
 21
221.2776
 31
0.0
  0
LINE
  5
283
  8
5
  6
CONTINUOUS
 10
1074.928
 20
221.2701
 30
0.0
 11
1124.428
 21
221.2776
 31
0.0
  0
LINE
  5
284
  8
5
  6
CONTINUOUS
 10
316.4209
 20
1122.567
 30
0.0
 11
316.4209
 21
1124.567
 31
0.0
  0
LINE
  5
285
  8
5
  6
CONTINUOUS
 10
299.1709
 20
1124.567
 30
0.0
 11
299.1709
 21
1122.567
 31
0.0
  0
LINE
  5
286
  8
5
  6
CONTINUOUS
 10
854.9209
 20
444.2776
 30
0.0
 11
805.4284
 21
444.2776
 31
0.0
  0
LINE
  5
287
  8
5
  6
CONTINUOUS
 10
854.9209
 20
444.2776
 30
0.0
 11
854.9285
 21
221.2701
 31
0.0
  0
LINE
  5
288
  8
5
  6
CONTINUOUS
 10
348.6709
 20
1122.567
 30
0.0
 11
348.6709
 21
1124.567
 31
0.0
  0
LINE
  5
289
  8
5
  6
CONTINUOUS
 10
333.6709
 20
1124.567
 30
0.0
 11
333.6709
 21
1122.567
 31
0.0
  0
LINE
  5
28A
  8
5
  6
CONTINUOUS
 10
1074.928
 20
444.2851
 30
0.0
 11
1074.928
 21
493.7776
 31
0.0
  0
LINE
  5
28B
  8
5
  6
CONTINUOUS
 10
854.9284
 20
493.7776
 30
0.0
 11
854.9209
 21
444.2776
 31
0.0
  0
LINE
  5
28C
  8
5
  6
CONTINUOUS
 10
363.6709
 20
1124.567
 30
0.0
 11
363.6709
 21
1122.567
 31
0.0
  0
LINE
  5
28D
  8
5
  6
CONTINUOUS
 10
1074.928
 20
444.2851
 30
0.0
 11
854.9209
 21
444.2776
 31
0.0
  0
LINE
  5
28E
  8
5
  6
CONTINUOUS
 10
854.9284
 20
493.7776
 30
0.0
 11
805.4284
 21
444.2776
 31
0.0
  0
LINE
  5
28F
  8
5
  6
CONTINUOUS
 10
1124.428
 20
444.2776
 30
0.0
 11
1074.928
 21
444.2851
 31
0.0
  0
LINE
  5
290
  8
5
  6
CONTINUOUS
 10
1074.928
 20
221.2701
 30
0.0
 11
1074.928
 21
444.2851
 31
0.0
  0
LINE
  5
291
  8
5
  6
CONTINUOUS
 10
1124.428
 20
444.2776
 30
0.0
 11
1074.928
 21
493.7776
 31
0.0
  0
LINE
  5
292
  8
5
  6
CONTINUOUS
 10
1956.187
 20
783.7758
 30
0.0
 11
1956.187
 21
783.7758
 31
0.0
  0
LINE
  5
293
  8
5
  6
CONTINUOUS
 10
1597.23
 20
783.7758
 30
0.0
 11
1597.23
 21
783.7758
 31
0.0
  0
LINE
  5
294
  8
5
  6
CONTINUOUS
 10
1597.23
 20
1075.357
 30
0.0
 11
1597.23
 21
1075.357
 31
0.0
  0
LINE
  5
295
  8
5
  6
CONTINUOUS
 10
1956.187
 20
1075.357
 30
0.0
 11
1956.187
 21
1075.357
 31
0.0
  0
LINE
  5
296
  8
5
  6
CONTINUOUS
 10
1939.209
 20
1187.367
 30
0.0
 11
1617.209
 21
1187.367
 31
0.0
  0
LINE
  5
297
  8
5
  6
CONTINUOUS
 10
1939.209
 20
1210.367
 30
0.0
 11
1939.209
 21
1187.367
 31
0.0
  0
LINE
  5
298
  8
5
  6
CONTINUOUS
 10
1968.209
 20
1241.867
 30
0.0
 11
1968.209
 21
1190.367
 31
0.0
  0
LINE
  5
299
  8
5
  6
CONTINUOUS
 10
1621.709
 20
1165.367
 30
0.0
 11
1621.709
 21
1187.367
 31
0.0
  0
LINE
  5
29A
  8
5
  6
CONTINUOUS
 10
1934.209
 20
1165.367
 30
0.0
 11
1934.209
 21
1187.367
 31
0.0
  0
LINE
  5
29B
  8
5
  6
CONTINUOUS
 10
1939.209
 20
1190.367
 30
0.0
 11
1969.209
 21
1190.367
 31
0.0
  0
LINE
  5
29C
  8
5
  6
CONTINUOUS
 10
1905.14
 20
1241.867
 30
0.0
 11
1968.209
 21
1241.867
 31
0.0
  0
LINE
  5
29D
  8
5
  6
CONTINUOUS
 10
492.1709
 20
1011.817
 30
0.0
 11
494.1709
 21
1011.817
 31
0.0
  0
LINE
  5
29E
  8
5
  6
CONTINUOUS
 10
494.1709
 20
1029.567
 30
0.0
 11
491.9131
 21
1029.567
 31
0.0
  0
LINE
  5
29F
  8
5
  6
CONTINUOUS
 10
1889.716
 20
1261.367
 30
0.0
 11
1908.638
 21
1241.867
 31
0.0
  0
LINE
  5
2A0
  8
5
  6
CONTINUOUS
 10
484.5068
 20
1038.603
 30
0.0
 11
483.692
 21
1037.788
 31
0.0
  0
LINE
  5
2A1
  8
5
  6
CONTINUOUS
 10
1939.209
 20
1210.367
 30
0.0
 11
1889.709
 21
1210.367
 31
0.0
  0
LINE
  5
2A2
  8
5
  6
CONTINUOUS
 10
494.1708
 20
847.3166
 30
0.0
 11
492.1709
 21
847.3166
 31
0.0
  0
LINE
  5
2A3
  8
5
  6
CONTINUOUS
 10
1617.209
 20
1210.367
 30
0.0
 11
1666.709
 21
1261.367
 31
0.0
  0
LINE
  5
2A4
  8
5
  6
CONTINUOUS
 10
1666.709
 20
1210.367
 30
0.0
 11
1617.209
 21
1210.367
 31
0.0
  0
LINE
  5
2A5
  8
5
  6
CONTINUOUS
 10
483.692
 20
821.3455
 30
0.0
 11
484.5068
 21
820.5307
 31
0.0
  0
LINE
  5
2A6
  8
5
  6
CONTINUOUS
 10
1617.209
 20
1210.367
 30
0.0
 11
1617.209
 21
1187.367
 31
0.0
  0
LINE
  5
2A7
  8
5
  6
CONTINUOUS
 10
492.1709
 20
912.3166
 30
0.0
 11
494.1708
 21
912.3166
 31
0.0
  0
LINE
  5
2A8
  8
5
  6
CONTINUOUS
 10
494.1708
 20
929.5667
 30
0.0
 11
492.1709
 21
929.5666
 31
0.0
  0
LINE
  5
2A9
  8
5
  6
CONTINUOUS
 10
1751.648
 20
1265.567
 30
0.0
 11
1751.649
 21
1265.567
 31
0.0
  0
LINE
  5
2AA
  8
5
  6
CONTINUOUS
 10
492.1709
 20
946.8166
 30
0.0
 11
494.1708
 21
946.8166
 31
0.0
  0
LINE
  5
2AB
  8
5
  6
CONTINUOUS
 10
494.1709
 20
964.0666
 30
0.0
 11
492.1709
 21
964.0666
 31
0.0
  0
LINE
  5
2AC
  8
5
  6
CONTINUOUS
 10
1778.648
 20
1265.567
 30
0.0
 11
1778.649
 21
1265.567
 31
0.0
  0
LINE
  5
2AD
  8
5
  6
CONTINUOUS
 10
1751.649
 20
1265.567
 30
0.0
 11
1751.649
 21
1265.567
 31
0.0
  0
LINE
  5
2AE
  8
5
  6
CONTINUOUS
 10
492.1709
 20
979.0666
 30
0.0
 11
494.1709
 21
979.0666
 31
0.0
  0
LINE
  5
2AF
  8
5
  6
CONTINUOUS
 10
494.1709
 20
994.0666
 30
0.0
 11
492.1709
 21
994.0666
 31
0.0
  0
LINE
  5
2B0
  8
5
  6
CONTINUOUS
 10
492.1709
 20
880.0666
 30
0.0
 11
494.1708
 21
880.0666
 31
0.0
  0
LINE
  5
2B1
  8
5
  6
CONTINUOUS
 10
494.1708
 20
895.0666
 30
0.0
 11
492.1709
 21
895.0666
 31
0.0
  0
LINE
  5
2B2
  8
5
  6
CONTINUOUS
 10
1778.649
 20
1265.567
 30
0.0
 11
1804.716
 21
1265.567
 31
0.0
  0
LINE
  5
2B3
  8
5
  6
CONTINUOUS
 10
1751.649
 20
1265.567
 30
0.0
 11
1776.55
 21
1265.567
 31
0.0
  0
LINE
  5
2B4
  8
5
  6
CONTINUOUS
 10
494.1708
 20
865.0666
 30
0.0
 11
492.1709
 21
865.0666
 31
0.0
  0
LINE
  5
2B5
  8
5
  6
CONTINUOUS
 10
1804.716
 20
1261.367
 30
0.0
 11
1804.716
 21
1265.567
 31
0.0
  0
LINE
  5
2B6
  8
5
  6
CONTINUOUS
 10
1778.65
 20
1261.367
 30
0.0
 11
1778.649
 21
1265.567
 31
0.0
  0
LINE
  5
2B7
  8
5
  6
CONTINUOUS
 10
104.1709
 20
1011.817
 30
0.0
 11
106.1709
 21
1011.817
 31
0.0
  0
LINE
  5
2B8
  8
5
  6
CONTINUOUS
 10
1751.649
 20
1265.567
 30
0.0
 11
1751.652
 21
1261.367
 31
0.0
  0
LINE
  5
2B9
  8
5
  6
CONTINUOUS
 10
1776.55
 20
1261.367
 30
0.0
 11
1776.55
 21
1265.567
 31
0.0
  0
LINE
  5
2BA
  8
5
  6
CONTINUOUS
 10
1666.709
 20
1261.367
 30
0.0
 11
1889.716
 21
1261.367
 31
0.0
  0
LINE
  5
2BB
  8
5
  6
CONTINUOUS
 10
106.4287
 20
1029.567
 30
0.0
 11
104.1709
 21
1029.567
 31
0.0
  0
LINE
  5
2BC
  8
5
  6
CONTINUOUS
 10
113.835
 20
1038.603
 30
0.0
 11
114.6498
 21
1037.788
 31
0.0
  0
LINE
  5
2BD
  8
5
  6
CONTINUOUS
 10
1628.709
 20
1142.567
 30
0.0
 11
1628.709
 21
1165.367
 31
0.0
  0
LINE
  5
2BE
  8
5
  6
CONTINUOUS
 10
1652.709
 20
1118.567
 30
0.0
 11
1628.709
 21
1142.567
 31
0.0
  0
LINE
  5
2BF
  8
5
  6
CONTINUOUS
 10
106.1709
 20
847.3166
 30
0.0
 11
104.1709
 21
847.3166
 31
0.0
  0
LINE
  5
2C0
  8
5
  6
CONTINUOUS
 10
113.835
 20
820.5307
 30
0.0
 11
114.6498
 21
821.3455
 31
0.0
  0
LINE
  5
2C1
  8
5
  6
CONTINUOUS
 10
1969.209
 20
1190.367
 30
0.0
 11
1969.209
 21
1142.367
 31
0.0
  0
LINE
  5
2C2
  8
5
  6
CONTINUOUS
 10
1934.209
 20
1165.367
 30
0.0
 11
1621.709
 21
1165.367
 31
0.0
  0
LINE
  5
2C3
  8
5
  6
CONTINUOUS
 10
106.1709
 20
929.5666
 30
0.0
 11
104.1709
 21
929.5667
 31
0.0
  0
LINE
  5
2C4
  8
5
  6
CONTINUOUS
 10
104.1709
 20
912.3166
 30
0.0
 11
106.1709
 21
912.3166
 31
0.0
  0
LINE
  5
2C5
  8
5
  6
CONTINUOUS
 10
1924.709
 20
1142.567
 30
0.0
 11
1924.709
 21
1165.367
 31
0.0
  0
LINE
  5
2C6
  8
5
  6
CONTINUOUS
 10
1924.709
 20
1142.567
 30
0.0
 11
1900.709
 21
1118.567
 31
0.0
  0
LINE
  5
2C7
  8
5
  6
CONTINUOUS
 10
106.1709
 20
964.0666
 30
0.0
 11
104.1709
 21
964.0666
 31
0.0
  0
LINE
  5
2C8
  8
5
  6
CONTINUOUS
 10
104.1709
 20
946.8166
 30
0.0
 11
106.1709
 21
946.8166
 31
0.0
  0
LINE
  5
2C9
  8
5
  6
CONTINUOUS
 10
1924.509
 20
1142.367
 30
0.0
 11
1969.209
 21
1142.367
 31
0.0
  0
LINE
  5
2CA
  8
5
  6
CONTINUOUS
 10
1900.709
 20
1118.567
 30
0.0
 11
1841.738
 21
1118.567
 31
0.0
  0
LINE
  5
2CB
  8
5
  6
CONTINUOUS
 10
106.1709
 20
994.0666
 30
0.0
 11
104.1709
 21
994.0666
 31
0.0
  0
LINE
  5
2CC
  8
5
  6
CONTINUOUS
 10
104.1709
 20
979.0666
 30
0.0
 11
106.1709
 21
979.0666
 31
0.0
  0
LINE
  5
2CD
  8
5
  6
CONTINUOUS
 10
1711.679
 20
1118.567
 30
0.0
 11
1652.709
 21
1118.567
 31
0.0
  0
LINE
  5
2CE
  8
5
  6
CONTINUOUS
 10
1935.709
 20
1210.367
 30
0.0
 11
1905.14
 21
1241.867
 31
0.0
  0
LINE
  5
2CF
  8
5
  6
CONTINUOUS
 10
106.1709
 20
895.0666
 30
0.0
 11
104.1709
 21
895.0666
 31
0.0
  0
LINE
  5
2D0
  8
5
  6
CONTINUOUS
 10
104.1709
 20
880.0666
 30
0.0
 11
106.1709
 21
880.0666
 31
0.0
  0
LINE
  5
2D1
  8
5
  6
CONTINUOUS
 10
1889.709
 20
1210.367
 30
0.0
 11
1889.716
 21
1261.367
 31
0.0
  0
LINE
  5
2D2
  8
5
  6
CONTINUOUS
 10
1666.709
 20
1261.367
 30
0.0
 11
1666.709
 21
1210.367
 31
0.0
  0
LINE
  5
2D3
  8
5
  6
CONTINUOUS
 10
106.1709
 20
865.0666
 30
0.0
 11
104.1709
 21
865.0666
 31
0.0
  0
LINE
  5
2D4
  8
5
  6
CONTINUOUS
 10
1889.709
 20
1210.367
 30
0.0
 11
1666.709
 21
1210.367
 31
0.0
  0
LINE
  5
2D5
  8
5
  6
CONTINUOUS
 10
1628.709
 20
1142.567
 30
0.0
 11
1924.709
 21
1142.567
 31
0.0
  0
ARC
  5
2D6
  8
5
  6
CONTINUOUS
 10
664.9284
 20
334.2777
 30
0.0
 40
8.0
 50
90.0
 51
270.0
  0
LINE
  5
2D7
  8
5
  6
CONTINUOUS
 10
664.9284
 20
326.2777
 30
0.0
 11
746.9284
 21
326.2777
 31
0.0
  0
ARC
  5
2D8
  8
5
  6
CONTINUOUS
 10
746.9284
 20
334.2777
 30
0.0
 40
8.0
 50
270.0
 51
90.0
  0
LINE
  5
2D9
  8
5
  6
CONTINUOUS
 10
761.9284
 20
334.2777
 30
0.0
 11
761.9284
 21
534.2777
 31
0.0
  0
LINE
  5
2DA
  8
5
  6
CONTINUOUS
 10
761.9284
 20
134.2777
 30
0.0
 11
761.9284
 21
334.2777
 31
0.0
  0
LINE
  5
2DB
  8
5
  6
CONTINUOUS
 10
756.9284
 20
334.2777
 30
0.0
 11
756.9284
 21
184.2777
 31
0.0
  0
LINE
  5
2DC
  8
5
  6
CONTINUOUS
 10
756.9284
 20
484.2777
 30
0.0
 11
756.9284
 21
334.2777
 31
0.0
  0
LINE
  5
2DD
  8
5
  6
CONTINUOUS
 10
779.4284
 20
124.2777
 30
0.0
 11
782.4284
 21
124.2777
 31
0.0
  0
LINE
  5
2DE
  8
5
  6
CONTINUOUS
 10
776.9284
 20
239.1307
 30
0.0
 11
805.4284
 21
228.7576
 31
0.0
  0
LINE
  5
2DF
  8
5
  6
CONTINUOUS
 10
805.4284
 20
439.7977
 30
0.0
 11
776.9284
 21
429.4246
 31
0.0
  0
LINE
  5
2E0
  8
5
  6
CONTINUOUS
 10
776.9284
 20
334.2777
 30
0.0
 11
776.9284
 21
534.2777
 31
0.0
  0
LINE
  5
2E1
  8
5
  6
CONTINUOUS
 10
776.9284
 20
134.2777
 30
0.0
 11
776.9284
 21
334.2777
 31
0.0
  0
LINE
  5
2E2
  8
5
  6
CONTINUOUS
 10
833.4284
 20
505.7777
 30
0.0
 11
776.9284
 21
503.8047
 31
0.0
  0
LINE
  5
2E3
  8
5
  6
CONTINUOUS
 10
833.4284
 20
505.7777
 30
0.0
 11
833.4284
 21
493.7776
 31
0.0
  0
LINE
  5
2E4
  8
5
  6
CONTINUOUS
 10
776.9284
 20
164.7506
 30
0.0
 11
833.4284
 21
162.7776
 31
0.0
  0
LINE
  5
2E5
  8
5
  6
CONTINUOUS
 10
1216.242
 20
529.2777
 30
0.0
 11
1215.429
 21
529.6802
 31
0.0
  0
LINE
  5
2E6
  8
5
  6
CONTINUOUS
 10
1215.429
 20
529.6802
 30
0.0
 11
1156.428
 21
529.6802
 31
0.0
  0
LINE
  5
2E7
  8
5
  6
CONTINUOUS
 10
1156.428
 20
529.6802
 30
0.0
 11
1155.615
 21
529.2777
 31
0.0
  0
LINE
  5
2E8
  8
5
  6
CONTINUOUS
 10
651.9284
 20
306.7776
 30
0.0
 11
756.9284
 21
306.7777
 31
0.0
  0
LINE
  5
2E9
  8
5
  6
CONTINUOUS
 10
756.9284
 20
361.7777
 30
0.0
 11
651.9284
 21
361.7777
 31
0.0
  0
LINE
  5
2EA
  8
5
  6
CONTINUOUS
 10
756.9283
 20
184.2777
 30
0.0
 11
761.9285
 21
184.2777
 31
0.0
  0
LINE
  5
2EB
  8
5
  6
CONTINUOUS
 10
134.1179
 20
1109.637
 30
0.0
 11
112.2405
 21
1087.76
 31
0.0
  0
LINE
  5
2EC
  8
5
  6
CONTINUOUS
 10
761.9285
 20
484.2776
 30
0.0
 11
756.9283
 21
484.2776
 31
0.0
  0
CIRCLE
  5
2ED
  8
5
  6
CONTINUOUS
 10
299.1709
 20
929.5666
 30
0.0
 40
179.5
  0
LINE
  5
2EE
  8
5
  6
CONTINUOUS
 10
779.4284
 20
164.6634
 30
0.0
 11
779.4285
 21
124.2776
 31
0.0
  0
LINE
  5
2EF
  8
5
  6
CONTINUOUS
 10
782.4284
 20
124.2776
 30
0.0
 11
782.4284
 21
164.5586
 31
0.0
  0
LINE
  5
2F0
  8
5
  6
CONTINUOUS
 10
761.9284
 20
134.2777
 30
0.0
 11
776.9284
 21
134.2777
 31
0.0
  0
LINE
  5
2F1
  8
5
  6
CONTINUOUS
 10
776.9284
 20
534.2777
 30
0.0
 11
761.9284
 21
534.2777
 31
0.0
  0
LINE
  5
2F2
  8
5
  6
CONTINUOUS
 10
1255.928
 20
505.7777
 30
0.0
 11
1250.939
 21
505.7777
 31
0.0
  0
LINE
  5
2F3
  8
5
  6
CONTINUOUS
 10
1250.939
 20
162.7776
 30
0.0
 11
1255.928
 21
162.7776
 31
0.0
  0
LINE
  5
2F4
  8
5
  6
CONTINUOUS
 10
840.918
 20
505.7777
 30
0.0
 11
833.4284
 21
505.7777
 31
0.0
  0
LINE
  5
2F5
  8
5
  6
CONTINUOUS
 10
1963.639
 20
771.3737
 30
0.0
 11
1939.909
 21
810.8667
 31
0.0
  0
LINE
  5
2F6
  8
5
  6
CONTINUOUS
 10
1963.639
 20
771.3737
 30
0.0
 11
1972.111
 21
757.2736
 31
0.0
  0
LINE
  5
2F8
  8
5
  6
CONTINUOUS
 10
1895.409
 20
768.5999
 30
0.0
 11
1895.409
 21
754.5666
 31
0.0
  0
LINE
  5
2F9
  8
5
  6
CONTINUOUS
 10
1658.009
 20
754.5666
 30
0.0
 11
1658.009
 21
768.5999
 31
0.0
  0
LINE
  5
2FB
  8
5
  6
CONTINUOUS
 10
1581.306
 20
757.2736
 30
0.0
 11
1589.778
 21
771.3737
 31
0.0
  0
LINE
  5
2FC
  8
5
  6
CONTINUOUS
 10
1589.778
 20
771.3737
 30
0.0
 11
1613.508
 21
810.8667
 31
0.0
  0
LINE
  5
2FE
  8
5
  6
CONTINUOUS
 10
1615.742
 20
810.8667
 30
0.0
 11
1601.709
 21
810.8667
 31
0.0
  0
LINE
  5
2FF
  8
5
  6
CONTINUOUS
 10
1954.434
 20
739.596
 30
0.0
 11
1941.762
 21
749.4964
 31
0.0
  0
LINE
  5
300
  8
5
  6
CONTINUOUS
 10
1906.282
 20
777.216
 30
0.0
 11
1941.762
 21
749.4964
 31
0.0
  0
LINE
  5
301
  8
5
  6
CONTINUOUS
 10
1972.111
 20
757.2736
 30
0.0
 11
1954.434
 21
739.596
 31
0.0
  0
ARC
  5
302
  8
5
  6
CONTINUOUS
 10
1776.709
 20
929.5666
 30
0.0
 40
30.0
 50
105.466
 51
0.0
  0
ARC
  5
303
  8
5
  6
CONTINUOUS
 10
1776.709
 20
929.5666
 30
0.0
 40
30.0
 50
0.0
 51
74.53398
  0
LINE
  5
304
  8
5
  6
CONTINUOUS
 10
1768.709
 20
961.0667
 30
0.0
 11
1784.709
 21
961.0667
 31
0.0
  0
CIRCLE
  5
305
  8
5
  6
CONTINUOUS
 10
1776.709
 20
929.5666
 30
0.0
 40
27.5
  0
LINE
  5
306
  8
5
  6
CONTINUOUS
 10
1768.709
 20
961.0667
 30
0.0
 11
1768.709
 21
955.8773
 31
0.0
  0
LINE
  5
307
  8
5
  6
CONTINUOUS
 10
1784.709
 20
961.0667
 30
0.0
 11
1784.709
 21
955.8773
 31
0.0
  0
LINE
  5
308
  8
5
  6
CONTINUOUS
 10
1802.709
 20
836.0666
 30
0.0
 11
1750.709
 21
836.0666
 31
0.0
  0
LINE
  5
309
  8
5
  6
CONTINUOUS
 10
1687.112
 20
836.0666
 30
0.0
 11
1750.709
 21
836.0666
 31
0.0
  0
LINE
  5
30A
  8
5
  6
CONTINUOUS
 10
1802.709
 20
836.0666
 30
0.0
 11
1866.305
 21
836.0666
 31
0.0
  0
LINE
  5
30B
  8
5
  6
CONTINUOUS
 10
1802.709
 20
877.0433
 30
0.0
 11
1802.709
 21
836.0666
 31
0.0
  0
LINE
  5
30C
  8
5
  6
CONTINUOUS
 10
1750.709
 20
877.0433
 30
0.0
 11
1750.709
 21
836.0666
 31
0.0
  0
CIRCLE
  5
30D
  8
5
  6
CONTINUOUS
 10
1776.709
 20
929.5666
 30
0.0
 40
150.0
  0
LINE
  5
30E
  8
5
  6
CONTINUOUS
 10
1817.959
 20
835.9816
 30
0.0
 11
1817.959
 21
832.9817
 31
0.0
  0
LINE
  5
30F
  8
5
  6
CONTINUOUS
 10
1757.709
 20
813.6667
 30
0.0
 11
1795.709
 21
813.6667
 31
0.0
  0
LINE
  5
310
  8
5
  6
CONTINUOUS
 10
1795.709
 20
813.6667
 30
0.0
 11
1834.475
 21
813.6667
 31
0.0
  0
LINE
  5
311
  8
5
  6
CONTINUOUS
 10
1718.943
 20
813.6667
 30
0.0
 11
1757.709
 21
813.6667
 31
0.0
  0
LINE
  5
312
  8
5
  6
CONTINUOUS
 10
1757.709
 20
801.4701
 30
0.0
 11
1757.709
 21
813.6667
 31
0.0
  0
LINE
  5
313
  8
5
  6
CONTINUOUS
 10
1757.709
 20
794.5667
 30
0.0
 11
1757.709
 21
801.4701
 31
0.0
  0
LINE
  5
314
  8
5
  6
CONTINUOUS
 10
1795.709
 20
794.5666
 30
0.0
 11
1757.709
 21
794.5666
 31
0.0
  0
LINE
  5
315
  8
5
  6
CONTINUOUS
 10
1795.709
 20
813.6667
 30
0.0
 11
1795.709
 21
801.4701
 31
0.0
  0
LINE
  5
316
  8
5
  6
CONTINUOUS
 10
1795.709
 20
801.47
 30
0.0
 11
1795.709
 21
794.5666
 31
0.0
  0
CIRCLE
  5
317
  8
5
  6
CONTINUOUS
 10
1900.452
 20
805.823
 30
0.0
 40
9.25
  0
CIRCLE
  5
318
  8
5
  6
CONTINUOUS
 10
1652.965
 20
805.823
 30
0.0
 40
9.25
  0
CIRCLE
  5
319
  8
5
  6
CONTINUOUS
 10
1652.965
 20
1053.31
 30
0.0
 40
9.25
  0
CIRCLE
  5
31A
  8
5
  6
CONTINUOUS
 10
1900.452
 20
1053.31
 30
0.0
 40
9.25
  0
CIRCLE
  5
31B
  8
5
  6
CONTINUOUS
 10
1776.709
 20
929.5666
 30
0.0
 40
200.0
  0
LINE
  5
31C
  8
5
  6
CONTINUOUS
 10
1986.709
 20
833.3003
 30
0.0
 11
1986.709
 21
832.9825
 31
0.0
  0
LINE
  5
31D
  8
5
  6
CONTINUOUS
 10
1986.709
 20
833.3003
 30
0.0
 11
1986.709
 21
835.9816
 31
0.0
  0
LINE
  5
31E
  8
5
  6
CONTINUOUS
 10
1986.709
 20
832.9825
 30
0.0
 11
1986.709
 21
832.9825
 31
0.0
  0
LINE
  5
31F
  8
5
  6
CONTINUOUS
 10
1694.459
 20
734.5666
 30
0.0
 11
1676.709
 21
734.5666
 31
0.0
  0
LINE
  5
320
  8
5
  6
CONTINUOUS
 10
1727.209
 20
734.5666
 30
0.0
 11
1712.209
 21
734.5666
 31
0.0
  0
LINE
  5
321
  8
5
  6
CONTINUOUS
 10
1858.959
 20
734.5666
 30
0.0
 11
1841.209
 21
734.5666
 31
0.0
  0
LINE
  5
322
  8
5
  6
CONTINUOUS
 10
1826.209
 20
734.5666
 30
0.0
 11
1821.15
 21
734.5666
 31
0.0
  0
LINE
  5
323
  8
5
  6
CONTINUOUS
 10
1712.209
 20
734.5666
 30
0.0
 11
1694.459
 21
734.5666
 31
0.0
  0
LINE
  5
324
  8
5
  6
CONTINUOUS
 10
1732.268
 20
734.5666
 30
0.0
 11
1727.209
 21
734.5666
 31
0.0
  0
LINE
  5
325
  8
5
  6
CONTINUOUS
 10
1841.209
 20
734.5666
 30
0.0
 11
1826.209
 21
734.5666
 31
0.0
  0
LINE
  5
326
  8
5
  6
CONTINUOUS
 10
1876.709
 20
734.5666
 30
0.0
 11
1858.959
 21
734.5666
 31
0.0
  0
LINE
  5
327
  8
5
  6
CONTINUOUS
 10
1895.209
 20
754.3527
 30
0.0
 11
1895.409
 21
754.5666
 31
0.0
  0
LINE
  5
328
  8
5
  6
CONTINUOUS
 10
1885.745
 20
744.2307
 30
0.0
 11
1895.209
 21
754.3527
 31
0.0
  0
LINE
  5
329
  8
5
  6
CONTINUOUS
 10
1876.709
 20
734.5666
 30
0.0
 11
1885.745
 21
744.2307
 31
0.0
  0
LINE
  5
32A
  8
5
  6
CONTINUOUS
 10
1667.673
 20
744.2307
 30
0.0
 11
1676.709
 21
734.5666
 31
0.0
  0
LINE
  5
32B
  8
5
  6
CONTINUOUS
 10
1658.009
 20
754.5666
 30
0.0
 11
1667.673
 21
744.2307
 31
0.0
  0
LINE
  5
32C
  8
5
  6
CONTINUOUS
 10
1598.984
 20
739.596
 30
0.0
 11
1581.306
 21
757.2736
 31
0.0
  0
LINE
  5
32D
  8
5
  6
CONTINUOUS
 10
1647.135
 20
777.216
 30
0.0
 11
1611.656
 21
749.4964
 31
0.0
  0
LINE
  5
32E
  8
5
  6
CONTINUOUS
 10
1611.656
 20
749.4964
 30
0.0
 11
1598.984
 21
739.596
 31
0.0
  0
LINE
  5
32F
  8
5
  6
CONTINUOUS
 10
1971.709
 20
832.9816
 30
0.0
 11
1971.709
 21
830.8667
 31
0.0
  0
LINE
  5
330
  8
5
  6
CONTINUOUS
 10
1937.442
 20
1048.267
 30
0.0
 11
1951.709
 21
1048.267
 31
0.0
  0
LINE
  5
336
  8
5
  6
CONTINUOUS
 10
1895.409
 20
755.5245
 30
0.0
 11
1912.355
 21
772.4711
 31
0.0
  0
LINE
  5
337
  8
5
  6
CONTINUOUS
 10
1641.062
 20
772.4711
 30
0.0
 11
1658.009
 21
755.5244
 31
0.0
  0
LINE
  5
339
  8
5
  6
CONTINUOUS
 10
1941.762
 20
749.4964
 30
0.0
 11
1963.639
 21
771.3737
 31
0.0
  0
LINE
  5
33A
  8
5
  6
CONTINUOUS
 10
1676.709
 20
756.3616
 30
0.0
 11
1676.709
 21
753.2667
 31
0.0
  0
LINE
  5
33D
  8
5
  6
CONTINUOUS
 10
1876.709
 20
756.3616
 30
0.0
 11
1876.709
 21
753.2667
 31
0.0
  0
LINE
  5
342
  8
5
  6
CONTINUOUS
 10
1589.778
 20
771.3737
 30
0.0
 11
1611.656
 21
749.4964
 31
0.0
  0
CIRCLE
  5
343
  8
5
  6
CONTINUOUS
 10
1776.709
 20
929.5666
 30
0.0
 40
55.75
  0
ARC
  5
344
  8
5
  6
CONTINUOUS
 10
1776.709
 20
929.5666
 30
0.0
 40
58.60627
 50
243.6637
 51
296.3363
  0
ARC
  5
345
  8
5
  6
CONTINUOUS
 10
1776.709
 20
929.5666
 30
0.0
 40
121.2341
 50
309.4719
 51
309.5351
  0
ARC
  5
346
  8
5
  6
CONTINUOUS
 10
1776.709
 20
929.5666
 30
0.0
 40
121.2341
 50
287.0594
 51
307.1856
  0
ARC
  5
347
  8
5
  6
CONTINUOUS
 10
1776.709
 20
929.5666
 30
0.0
 40
121.2341
 50
230.4649
 51
252.9406
  0
ARC
  5
348
  8
5
  6
CONTINUOUS
 10
1776.709
 20
929.5666
 30
0.0
 40
71.99998
 50
291.1685
 51
248.8315
  0
ARC
  5
349
  8
5
  6
CONTINUOUS
 10
1776.709
 20
929.5666
 30
0.0
 40
72.14395
 50
55.56217
 51
124.4378
  0
ARC
  5
34A
  8
5
  6
CONTINUOUS
 10
1776.709
 20
929.5666
 30
0.0
 40
72.14394
 50
124.4378
 51
143.9068
  0
ARC
  5
34B
  8
5
  6
CONTINUOUS
 10
1776.709
 20
929.5666
 30
0.0
 40
72.14394
 50
143.9068
 51
159.3009
  0
ARC
  5
34C
  8
5
  6
CONTINUOUS
 10
1776.709
 20
929.5666
 30
0.0
 40
72.14393
 50
159.3009
 51
173.2337
  0
ARC
  5
34D
  8
5
  6
CONTINUOUS
 10
1776.709
 20
929.5666
 30
0.0
 40
72.14393
 50
173.2337
 51
186.7663
  0
ARC
  5
34E
  8
5
  6
CONTINUOUS
 10
1776.709
 20
929.5666
 30
0.0
 40
72.14392
 50
186.7663
 51
200.6991
  0
ARC
  5
34F
  8
5
  6
CONTINUOUS
 10
1776.709
 20
929.5666
 30
0.0
 40
72.14392
 50
200.6991
 51
216.0932
  0
ARC
  5
350
  8
5
  6
CONTINUOUS
 10
1776.709
 20
929.5666
 30
0.0
 40
72.14391
 50
216.0932
 51
235.5622
  0
ARC
  5
351
  8
5
  6
CONTINUOUS
 10
1776.709
 20
929.5666
 30
0.0
 40
72.14391
 50
235.5622
 51
248.8758
  0
ARC
  5
352
  8
5
  6
CONTINUOUS
 10
1776.709
 20
929.5666
 30
0.0
 40
72.14391
 50
291.1242
 51
304.4379
  0
ARC
  5
353
  8
5
  6
CONTINUOUS
 10
1776.709
 20
929.5666
 30
0.0
 40
72.14392
 50
304.4379
 51
323.9068
  0
ARC
  5
354
  8
5
  6
CONTINUOUS
 10
1776.709
 20
929.5666
 30
0.0
 40
72.14392
 50
323.9068
 51
339.3009
  0
ARC
  5
355
  8
5
  6
CONTINUOUS
 10
1776.709
 20
929.5666
 30
0.0
 40
72.14393
 50
339.3009
 51
353.2337
  0
ARC
  5
356
  8
5
  6
CONTINUOUS
 10
1776.709
 20
929.5666
 30
0.0
 40
72.14393
 50
353.2337
 51
6.7663
  0
ARC
  5
357
  8
5
  6
CONTINUOUS
 10
1776.709
 20
929.5666
 30
0.0
 40
72.14394
 50
6.766323
 51
20.69911
  0
ARC
  5
358
  8
5
  6
CONTINUOUS
 10
1776.709
 20
929.5666
 30
0.0
 40
72.14394
 50
20.69911
 51
36.09319
  0
ARC
  5
359
  8
5
  6
CONTINUOUS
 10
1776.709
 20
929.5666
 30
0.0
 40
72.14395
 50
36.09319
 51
55.56217
  0
LINE
  5
35A
  8
5
  6
CONTINUOUS
 10
1250.324
 20
510.5777
 30
0.0
 11
1252.598
 21
492.8277
 31
0.0
  0
LINE
  5
35B
  8
5
  6
CONTINUOUS
 10
1247.928
 20
529.2777
 30
0.0
 11
1249.166
 21
519.6136
 31
0.0
  0
LINE
  5
35C
  8
5
  6
CONTINUOUS
 10
1249.166
 20
519.6136
 30
0.0
 11
1250.324
 21
510.5777
 31
0.0
  0
LINE
  5
35D
  8
5
  6
CONTINUOUS
 10
1252.598
 20
492.8277
 30
0.0
 11
1253.275
 21
487.5394
 31
0.0
  0
LINE
  5
35E
  8
5
  6
CONTINUOUS
 10
1250.324
 20
157.9777
 30
0.0
 11
1252.598
 21
175.7277
 31
0.0
  0
LINE
  5
35F
  8
5
  6
CONTINUOUS
 10
1249.166
 20
148.9417
 30
0.0
 11
1250.324
 21
157.9777
 31
0.0
  0
LINE
  5
360
  8
5
  6
CONTINUOUS
 10
1249.166
 20
148.9417
 30
0.0
 11
1247.928
 21
139.2777
 31
0.0
  0
LINE
  5
361
  8
5
  6
CONTINUOUS
 10
1252.598
 20
175.7277
 30
0.0
 11
1253.275
 21
181.016
 31
0.0
  0
LINE
  5
362
  8
5
  6
CONTINUOUS
 10
841.5329
 20
510.5777
 30
0.0
 11
839.3808
 21
493.7776
 31
0.0
  0
LINE
  5
363
  8
5
  6
CONTINUOUS
 10
842.6904
 20
519.6136
 30
0.0
 11
841.5329
 21
510.5777
 31
0.0
  0
LINE
  5
364
  8
5
  6
CONTINUOUS
 10
842.6904
 20
519.6136
 30
0.0
 11
843.9284
 21
529.2777
 31
0.0
  0
LINE
  5
365
  8
5
  6
CONTINUOUS
 10
1735.91
 20
989.0666
 30
0.0
 11
1661.689
 21
989.0666
 31
0.0
  0
ARC
  5
366
  8
5
  6
CONTINUOUS
 10
1776.709
 20
929.5666
 30
0.0
 40
129.498
 50
152.6473
 51
160.841
  0
LINE
  5
367
  8
5
  6
CONTINUOUS
 10
1654.383
 20
972.0666
 30
0.0
 11
1718.412
 21
972.0666
 31
0.0
  0
LINE
  5
368
  8
5
  6
CONTINUOUS
 10
1835.005
 20
972.0666
 30
0.0
 11
1899.034
 21
972.0667
 31
0.0
  0
ARC
  5
369
  8
5
  6
CONTINUOUS
 10
1776.709
 20
929.5666
 30
0.0
 40
129.4981
 50
19.15898
 51
27.3527
  0
LINE
  5
36A
  8
5
  6
CONTINUOUS
 10
1891.728
 20
989.0666
 30
0.0
 11
1817.507
 21
989.0666
 31
0.0
  0
LINE
  5
36B
  8
5
  6
CONTINUOUS
 10
843.9284
 20
529.2777
 30
0.0
 11
876.6152
 21
529.2777
 31
0.0
  0
LINE
  5
36C
  8
5
  6
CONTINUOUS
 10
1709.222
 20
955.0666
 30
0.0
 11
1649.746
 21
955.0667
 31
0.0
  0
LINE
  5
36D
  8
5
  6
CONTINUOUS
 10
937.2417
 20
529.2777
 30
0.0
 11
1247.928
 21
529.2777
 31
0.0
  0
LINE
  5
36E
  8
5
  6
CONTINUOUS
 10
1247.928
 20
139.2777
 30
0.0
 11
1216.242
 21
139.2777
 31
0.0
  0
ARC
  5
36F
  8
5
  6
CONTINUOUS
 10
1776.709
 20
929.5666
 30
0.0
 40
129.4981
 50
168.6434
 51
176.2365
  0
LINE
  5
370
  8
5
  6
CONTINUOUS
 10
1647.49
 20
938.0666
 30
0.0
 11
1705.067
 21
938.0666
 31
0.0
  0
LINE
  5
371
  8
5
  6
CONTINUOUS
 10
1848.35
 20
938.0666
 30
0.0
 11
1905.927
 21
938.0666
 31
0.0
  0
ARC
  5
372
  8
5
  6
CONTINUOUS
 10
1776.709
 20
929.5666
 30
0.0
 40
129.498
 50
3.7635
 51
11.35658
  0
LINE
  5
373
  8
5
  6
CONTINUOUS
 10
1253.275
 20
411.2394
 30
0.0
 11
1252.598
 21
416.5277
 31
0.0
  0
LINE
  5
374
  8
5
  6
CONTINUOUS
 10
1250.324
 20
434.2777
 30
0.0
 11
1247.928
 21
452.9777
 31
0.0
  0
LINE
  5
375
  8
5
  6
CONTINUOUS
 10
1252.598
 20
416.5277
 30
0.0
 11
1250.324
 21
434.2777
 31
0.0
  0
LINE
  5
376
  8
5
  6
CONTINUOUS
 10
1252.598
 20
252.0277
 30
0.0
 11
1250.324
 21
234.2777
 31
0.0
  0
LINE
  5
377
  8
5
  6
CONTINUOUS
 10
1250.324
 20
234.2777
 30
0.0
 11
1247.928
 21
215.5777
 31
0.0
  0
LINE
  5
378
  8
5
  6
CONTINUOUS
 10
1253.275
 20
257.316
 30
0.0
 11
1252.598
 21
252.0277
 31
0.0
  0
LINE
  5
379
  8
5
  6
CONTINUOUS
 10
1124.428
 20
452.9776
 30
0.0
 11
1138.428
 21
452.9777
 31
0.0
  0
LINE
  5
37A
  8
5
  6
CONTINUOUS
 10
1138.428
 20
452.9777
 30
0.0
 11
1247.928
 21
452.9777
 31
0.0
  0
LINE
  5
37B
  8
5
  6
CONTINUOUS
 10
1903.671
 20
955.0666
 30
0.0
 11
1844.196
 21
955.0666
 31
0.0
  0
LINE
  5
37C
  8
5
  6
CONTINUOUS
 10
1705.067
 20
921.0667
 30
0.0
 11
1647.49
 21
921.0667
 31
0.0
  0
ARC
  5
37D
  8
5
  6
CONTINUOUS
 10
1776.709
 20
929.5666
 30
0.0
 40
129.498
 50
183.7635
 51
191.3566
  0
LINE
  5
37E
  8
5
  6
CONTINUOUS
 10
1649.746
 20
904.0667
 30
0.0
 11
1709.222
 21
904.0667
 31
0.0
  0
LINE
  5
37F
  8
5
  6
CONTINUOUS
 10
1844.196
 20
904.0667
 30
0.0
 11
1903.671
 21
904.0667
 31
0.0
  0
ARC
  5
380
  8
5
  6
CONTINUOUS
 10
1776.709
 20
929.5666
 30
0.0
 40
129.498
 50
348.6434
 51
356.2365
  0
LINE
  5
381
  8
5
  6
CONTINUOUS
 10
1905.927
 20
921.0667
 30
0.0
 11
1848.35
 21
921.0667
 31
0.0
  0
LINE
  5
382
  8
5
  6
CONTINUOUS
 10
1718.412
 20
887.0666
 30
0.0
 11
1654.383
 21
887.0666
 31
0.0
  0
ARC
  5
383
  8
5
  6
CONTINUOUS
 10
1776.709
 20
929.5666
 30
0.0
 40
129.498
 50
199.159
 51
207.3527
  0
LINE
  5
384
  8
5
  6
CONTINUOUS
 10
1661.689
 20
870.0667
 30
0.0
 11
1735.91
 21
870.0667
 31
0.0
  0
LINE
  5
385
  8
5
  6
CONTINUOUS
 10
1817.507
 20
870.0667
 30
0.0
 11
1891.728
 21
870.0667
 31
0.0
  0
ARC
  5
386
  8
5
  6
CONTINUOUS
 10
1776.709
 20
929.5666
 30
0.0
 40
129.498
 50
332.6473
 51
340.841
  0
LINE
  5
387
  8
5
  6
CONTINUOUS
 10
1899.034
 20
887.0666
 30
0.0
 11
1835.005
 21
887.0666
 31
0.0
  0
ARC
  5
388
  8
5
  6
CONTINUOUS
 10
1776.709
 20
929.5666
 30
0.0
 40
129.498
 50
27.3527
 51
36.20973
  0
LINE
  5
389
  8
5
  6
CONTINUOUS
 10
1247.928
 20
215.5777
 30
0.0
 11
1138.428
 21
215.5777
 31
0.0
  0
LINE
  5
38A
  8
5
  6
CONTINUOUS
 10
1138.428
 20
215.5777
 30
0.0
 11
1124.428
 21
215.5777
 31
0.0
  0
LINE
  5
38B
  8
5
  6
CONTINUOUS
 10
1369.428
 20
524.2777
 30
0.0
 11
1369.428
 21
432.7773
 31
0.0
  0
LINE
  5
38C
  8
5
  6
CONTINUOUS
 10
1369.428
 20
432.7773
 30
0.0
 11
1369.428
 21
235.7781
 31
0.0
  0
LINE
  5
38D
  8
5
  6
CONTINUOUS
 10
1369.428
 20
235.7781
 30
0.0
 11
1369.428
 21
144.2777
 31
0.0
  0
LINE
  5
38E
  8
5
  6
CONTINUOUS
 10
1425.928
 20
462.2777
 30
0.0
 11
1425.928
 21
206.2777
 31
0.0
  0
LINE
  5
38F
  8
5
  6
CONTINUOUS
 10
1301.928
 20
527.2777
 30
0.0
 11
1255.928
 21
527.2777
 31
0.0
  0
LINE
  5
390
  8
5
  6
CONTINUOUS
 10
1301.928
 20
141.2777
 30
0.0
 11
1255.928
 21
141.2777
 31
0.0
  0
LINE
  5
391
  8
5
  6
CONTINUOUS
 10
1301.928
 20
524.2777
 30
0.0
 11
1369.428
 21
524.2777
 31
0.0
  0
LINE
  5
392
  8
5
  6
CONTINUOUS
 10
1369.428
 20
144.2777
 30
0.0
 11
1301.928
 21
144.2777
 31
0.0
  0
LINE
  5
393
  8
5
  6
CONTINUOUS
 10
1301.928
 20
527.2777
 30
0.0
 11
1301.928
 21
434.0199
 31
0.0
  0
LINE
  5
394
  8
5
  6
CONTINUOUS
 10
1301.928
 20
434.0199
 30
0.0
 11
1301.928
 21
234.5355
 31
0.0
  0
LINE
  5
395
  8
5
  6
CONTINUOUS
 10
1301.928
 20
234.5355
 30
0.0
 11
1301.928
 21
141.2777
 31
0.0
  0
LINE
  5
396
  8
5
  6
CONTINUOUS
 10
1255.928
 20
141.2777
 30
0.0
 11
1255.928
 21
234.5355
 31
0.0
  0
LINE
  5
397
  8
5
  6
CONTINUOUS
 10
1255.928
 20
234.5355
 30
0.0
 11
1255.928
 21
434.0199
 31
0.0
  0
LINE
  5
398
  8
5
  6
CONTINUOUS
 10
1255.928
 20
434.0199
 30
0.0
 11
1255.928
 21
527.2777
 31
0.0
  0
LINE
  5
399
  8
5
  6
CONTINUOUS
 10
1881.195
 20
1006.067
 30
0.0
 11
1672.222
 21
1006.067
 31
0.0
  0
ARC
  5
39A
  8
5
  6
CONTINUOUS
 10
1776.709
 20
929.5666
 30
0.0
 40
129.4981
 50
143.7903
 51
152.6473
  0
ARC
  5
39B
  8
5
  6
CONTINUOUS
 10
1776.709
 20
929.5666
 30
0.0
 40
129.498
 50
160.841
 51
168.6434
  0
ARC
  5
39C
  8
5
  6
CONTINUOUS
 10
1776.709
 20
929.5666
 30
0.0
 40
129.498
 50
11.35658
 51
19.15898
  0
ARC
  5
39D
  8
5
  6
CONTINUOUS
 10
1776.709
 20
929.5666
 30
0.0
 40
129.498
 50
176.2365
 51
183.7635
  0
ARC
  5
39E
  8
5
  6
CONTINUOUS
 10
1776.709
 20
929.5666
 30
0.0
 40
129.498
 50
356.2365
 51
3.7635
  0
ARC
  5
39F
  8
5
  6
CONTINUOUS
 10
1776.709
 20
929.5666
 30
0.0
 40
129.498
 50
191.3566
 51
199.159
  0
ARC
  5
3A0
  8
5
  6
CONTINUOUS
 10
1776.709
 20
929.5666
 30
0.0
 40
129.498
 50
340.841
 51
348.6434
  0
ARC
  5
3A1
  8
5
  6
CONTINUOUS
 10
1776.709
 20
929.5666
 30
0.0
 40
129.498
 50
133.7786
 51
143.7903
  0
ARC
  5
3A2
  8
5
  6
CONTINUOUS
 10
1776.709
 20
929.5666
 30
0.0
 40
129.498
 50
36.20973
 51
46.22142
  0
LINE
  5
3A3
  8
5
  6
CONTINUOUS
 10
1866.305
 20
1023.067
 30
0.0
 11
1853.209
 21
1023.067
 31
0.0
  0
LINE
  5
3A4
  8
5
  6
CONTINUOUS
 10
1853.209
 20
1023.067
 30
0.0
 11
1836.209
 21
1023.067
 31
0.0
  0
LINE
  5
3A5
  8
5
  6
CONTINUOUS
 10
1836.209
 20
1023.067
 30
0.0
 11
1819.209
 21
1023.067
 31
0.0
  0
LINE
  5
3A6
  8
5
  6
CONTINUOUS
 10
1819.209
 20
1023.067
 30
0.0
 11
1802.209
 21
1023.067
 31
0.0
  0
LINE
  5
3A7
  8
5
  6
CONTINUOUS
 10
1802.209
 20
1023.067
 30
0.0
 11
1785.209
 21
1023.067
 31
0.0
  0
LINE
  5
3A8
  8
5
  6
CONTINUOUS
 10
1785.209
 20
1023.067
 30
0.0
 11
1768.209
 21
1023.067
 31
0.0
  0
LINE
  5
3A9
  8
5
  6
CONTINUOUS
 10
1768.209
 20
1023.067
 30
0.0
 11
1751.209
 21
1023.067
 31
0.0
  0
LINE
  5
3AA
  8
5
  6
CONTINUOUS
 10
1751.209
 20
1023.067
 30
0.0
 11
1734.209
 21
1023.067
 31
0.0
  0
LINE
  5
3AB
  8
5
  6
CONTINUOUS
 10
1734.209
 20
1023.067
 30
0.0
 11
1717.209
 21
1023.067
 31
0.0
  0
LINE
  5
3AC
  8
5
  6
CONTINUOUS
 10
1717.209
 20
1023.067
 30
0.0
 11
1700.209
 21
1023.067
 31
0.0
  0
LINE
  5
3AD
  8
5
  6
CONTINUOUS
 10
1700.209
 20
1023.067
 30
0.0
 11
1687.112
 21
1023.067
 31
0.0
  0
ARC
  5
3AE
  8
5
  6
CONTINUOUS
 10
1776.709
 20
929.5666
 30
0.0
 40
129.498
 50
53.79028
 51
62.64731
  0
LINE
  5
3AF
  8
5
  6
CONTINUOUS
 10
1836.209
 20
1044.586
 30
0.0
 11
1836.209
 21
1023.067
 31
0.0
  0
LINE
  5
3B0
  8
5
  6
CONTINUOUS
 10
1853.209
 20
1023.067
 30
0.0
 11
1853.209
 21
1034.053
 31
0.0
  0
ARC
  5
3B1
  8
5
  6
CONTINUOUS
 10
1776.709
 20
929.5666
 30
0.0
 40
129.498
 50
70.84103
 51
78.64343
  0
LINE
  5
3B2
  8
5
  6
CONTINUOUS
 10
1802.209
 20
1056.529
 30
0.0
 11
1802.209
 21
1023.067
 31
0.0
  0
LINE
  5
3B3
  8
5
  6
CONTINUOUS
 10
1819.209
 20
1023.067
 30
0.0
 11
1819.209
 21
1051.892
 31
0.0
  0
ARC
  5
3B4
  8
5
  6
CONTINUOUS
 10
1776.709
 20
929.5666
 30
0.0
 40
129.498
 50
86.23651
 51
93.76349
  0
LINE
  5
3B5
  8
5
  6
CONTINUOUS
 10
1768.209
 20
1058.785
 30
0.0
 11
1768.209
 21
1023.067
 31
0.0
  0
LINE
  5
3B6
  8
5
  6
CONTINUOUS
 10
1785.209
 20
1023.067
 30
0.0
 11
1785.209
 21
1058.785
 31
0.0
  0
ARC
  5
3B7
  8
5
  6
CONTINUOUS
 10
1776.709
 20
929.5666
 30
0.0
 40
129.498
 50
101.3566
 51
109.159
  0
LINE
  5
3B8
  8
5
  6
CONTINUOUS
 10
1734.209
 20
1051.892
 30
0.0
 11
1734.209
 21
1023.067
 31
0.0
  0
LINE
  5
3B9
  8
5
  6
CONTINUOUS
 10
1751.209
 20
1023.067
 30
0.0
 11
1751.209
 21
1056.529
 31
0.0
  0
ARC
  5
3BA
  8
5
  6
CONTINUOUS
 10
1776.709
 20
929.5666
 30
0.0
 40
129.498
 50
117.3527
 51
126.2097
  0
LINE
  5
3BB
  8
5
  6
CONTINUOUS
 10
1700.209
 20
1034.053
 30
0.0
 11
1700.209
 21
1023.067
 31
0.0
  0
LINE
  5
3BC
  8
5
  6
CONTINUOUS
 10
1717.209
 20
1023.067
 30
0.0
 11
1717.209
 21
1044.586
 31
0.0
  0
ARC
  5
3BD
  8
5
  6
CONTINUOUS
 10
1776.709
 20
929.5666
 30
0.0
 40
129.498
 50
46.22142
 51
53.79028
  0
ARC
  5
3BE
  8
5
  6
CONTINUOUS
 10
1776.709
 20
929.5666
 30
0.0
 40
129.498
 50
62.64731
 51
70.84103
  0
ARC
  5
3BF
  8
5
  6
CONTINUOUS
 10
1776.709
 20
929.5666
 30
0.0
 40
129.498
 50
78.64343
 51
86.23651
  0
ARC
  5
3C0
  8
5
  6
CONTINUOUS
 10
1776.709
 20
929.5666
 30
0.0
 40
129.498
 50
93.76349
 51
101.3566
  0
ARC
  5
3C1
  8
5
  6
CONTINUOUS
 10
1776.709
 20
929.5666
 30
0.0
 40
129.498
 50
109.159
 51
117.3527
  0
ARC
  5
3C2
  8
5
  6
CONTINUOUS
 10
1776.709
 20
929.5666
 30
0.0
 40
129.498
 50
126.2097
 51
133.7786
  0
LINE
  5
3C3
  8
5
  6
CONTINUOUS
 10
1750.709
 20
853.0667
 30
0.0
 11
1672.222
 21
853.0667
 31
0.0
  0
ARC
  5
3C4
  8
5
  6
CONTINUOUS
 10
1776.709
 20
929.5666
 30
0.0
 40
129.498
 50
216.2097
 51
226.2214
  0
ARC
  5
3C5
  8
5
  6
CONTINUOUS
 10
1776.709
 20
929.5666
 30
0.0
 40
129.498
 50
313.7786
 51
323.7903
  0
LINE
  5
3C6
  8
5
  6
CONTINUOUS
 10
1881.195
 20
853.0667
 30
0.0
 11
1802.709
 21
853.0667
 31
0.0
  0
ARC
  5
3C7
  8
5
  6
CONTINUOUS
 10
1776.709
 20
929.5666
 30
0.0
 40
129.498
 50
207.3527
 51
216.2097
  0
ARC
  5
3C8
  8
5
  6
CONTINUOUS
 10
1776.709
 20
929.5666
 30
0.0
 40
129.498
 50
323.7903
 51
332.6473
  0
CIRCLE
  5
3C9
  8
5
  6
CONTINUOUS
 10
1776.709
 20
929.5666
 30
0.0
 40
140.0
  0
LINE
  5
3CA
  8
5
  6
CONTINUOUS
 10
1817.959
 20
832.9817
 30
0.0
 11
1866.295
 21
832.9816
 31
0.0
  0
LINE
  5
3CB
  8
5
  6
CONTINUOUS
 10
1869.424
 20
835.9817
 30
0.0
 11
1817.959
 21
835.9816
 31
0.0
  0
LINE
  5
3CC
  8
5
  6
CONTINUOUS
 10
1952.016
 20
833.3003
 30
0.0
 11
1986.709
 21
833.3003
 31
0.0
  0
LINE
  5
3CD
  8
5
  6
CONTINUOUS
 10
1986.709
 20
835.9816
 30
0.0
 11
1953.462
 21
835.9816
 31
0.0
  0
LINE
  5
3CE
  8
5
  6
CONTINUOUS
 10
1986.709
 20
832.9825
 30
0.0
 11
1951.841
 21
832.9825
 31
0.0
  0
ARC
  5
3CF
  8
5
  6
CONTINUOUS
 10
1776.709
 20
929.5666
 30
0.0
 40
129.498
 50
243.5077
 51
261.5631
  0
ARC
  5
3D0
  8
5
  6
CONTINUOUS
 10
1776.709
 20
929.5666
 30
0.0
 40
129.498
 50
278.4369
 51
296.4923
  0
LINE
  5
3D1
  8
5
  6
CONTINUOUS
 10
1676.709
 20
753.2667
 30
0.0
 11
1676.709
 21
734.5666
 31
0.0
  0
LINE
  5
3D2
  8
5
  6
CONTINUOUS
 10
1694.459
 20
734.5666
 30
0.0
 11
1694.459
 21
747.2621
 31
0.0
  0
LINE
  5
3D3
  8
5
  6
CONTINUOUS
 10
1876.709
 20
753.2667
 30
0.0
 11
1876.709
 21
734.5666
 31
0.0
  0
LINE
  5
3D4
  8
5
  6
CONTINUOUS
 10
1858.959
 20
747.2621
 30
0.0
 11
1858.959
 21
734.5666
 31
0.0
  0
LINE
  5
3D5
  8
5
  6
CONTINUOUS
 10
1826.209
 20
734.5666
 30
0.0
 11
1826.209
 21
735.7891
 31
0.0
  0
LINE
  5
3D6
  8
5
  6
CONTINUOUS
 10
1841.209
 20
740.2528
 30
0.0
 11
1841.209
 21
734.5666
 31
0.0
  0
LINE
  5
3D7
  8
5
  6
CONTINUOUS
 10
1712.209
 20
740.2528
 30
0.0
 11
1712.209
 21
734.5666
 31
0.0
  0
LINE
  5
3D8
  8
5
  6
CONTINUOUS
 10
1727.209
 20
734.5666
 30
0.0
 11
1727.209
 21
735.7891
 31
0.0
  0
LINE
  5
3D9
  8
5
  6
CONTINUOUS
 10
954.0336
 20
493.7776
 30
0.0
 11
953.5445
 21
499.3306
 31
0.0
  0
LINE
  5
3DA
  8
5
  6
CONTINUOUS
 10
953.5445
 20
499.3306
 30
0.0
 11
936.4285
 21
512.0024
 31
0.0
  0
LINE
  5
3DB
  8
5
  6
CONTINUOUS
 10
936.4285
 20
512.0024
 30
0.0
 11
877.4284
 21
512.0024
 31
0.0
  0
LINE
  5
3DC
  8
5
  6
CONTINUOUS
 10
877.4284
 20
512.0024
 30
0.0
 11
860.3123
 21
499.3306
 31
0.0
  0
LINE
  5
3DD
  8
5
  6
CONTINUOUS
 10
859.8232
 20
493.7776
 30
0.0
 11
860.3123
 21
499.3306
 31
0.0
  0
LINE
  5
3DE
  8
5
  6
CONTINUOUS
 10
860.3123
 20
521.208
 30
0.0
 11
857.1863
 21
497.4782
 31
0.0
  0
LINE
  5
3DF
  8
5
  6
CONTINUOUS
 10
860.3123
 20
521.208
 30
0.0
 11
877.4284
 21
529.6802
 31
0.0
  0
LINE
  5
3E0
  8
5
  6
CONTINUOUS
 10
877.4284
 20
529.6802
 30
0.0
 11
936.4285
 21
529.6802
 31
0.0
  0
LINE
  5
3E1
  8
5
  6
CONTINUOUS
 10
936.4285
 20
529.6802
 30
0.0
 11
953.5445
 21
521.208
 31
0.0
  0
LINE
  5
3E2
  8
5
  6
CONTINUOUS
 10
953.5445
 20
521.208
 30
0.0
 11
956.6707
 21
497.4782
 31
0.0
  0
LINE
  5
3E3
  8
5
  6
CONTINUOUS
 10
860.3123
 20
499.3306
 30
0.0
 11
860.3123
 21
521.208
 31
0.0
  0
LINE
  5
3E4
  8
5
  6
CONTINUOUS
 10
857.0033
 20
493.7776
 30
0.0
 11
857.1863
 21
497.4782
 31
0.0
  0
LINE
  5
3E5
  8
5
  6
CONTINUOUS
 10
956.6707
 20
497.4782
 30
0.0
 11
956.8536
 21
493.7776
 31
0.0
  0
LINE
  5
3E6
  8
5
  6
CONTINUOUS
 10
953.5445
 20
521.208
 30
0.0
 11
953.5445
 21
499.3306
 31
0.0
  0
LINE
  5
3E7
  8
5
  6
CONTINUOUS
 10
936.4285
 20
512.0024
 30
0.0
 11
936.4285
 21
529.6802
 31
0.0
  0
LINE
  5
3E8
  8
5
  6
CONTINUOUS
 10
877.4284
 20
529.6802
 30
0.0
 11
877.4284
 21
512.0024
 31
0.0
  0
LINE
  5
3E9
  8
5
  6
CONTINUOUS
 10
1951.841
 20
832.9825
 30
0.0
 11
1986.709
 21
832.9825
 31
0.0
  0
LINE
  5
3EA
  8
5
  6
CONTINUOUS
 10
1247.928
 20
234.2777
 30
0.0
 11
1250.324
 21
234.2777
 31
0.0
  0
LINE
  5
3EB
  8
5
  6
CONTINUOUS
 10
1252.598
 20
252.0277
 30
0.0
 11
1247.928
 21
252.0276
 31
0.0
  0
LINE
  5
3EC
  8
5
  6
CONTINUOUS
 10
1247.928
 20
234.2777
 30
0.0
 11
1247.928
 21
252.0276
 31
0.0
  0
LINE
  5
3ED
  8
5
  6
CONTINUOUS
 10
1247.928
 20
434.2776
 30
0.0
 11
1250.324
 21
434.2777
 31
0.0
  0
LINE
  5
3EE
  8
5
  6
CONTINUOUS
 10
1247.928
 20
434.2776
 30
0.0
 11
1247.928
 21
452.9777
 31
0.0
  0
LINE
  5
3EF
  8
5
  6
CONTINUOUS
 10
1247.928
 20
215.5777
 30
0.0
 11
1247.928
 21
234.2777
 31
0.0
  0
LINE
  5
3F0
  8
5
  6
CONTINUOUS
 10
1247.928
 20
416.5277
 30
0.0
 11
1252.598
 21
416.5277
 31
0.0
  0
LINE
  5
3F1
  8
5
  6
CONTINUOUS
 10
1247.928
 20
416.5277
 30
0.0
 11
1247.928
 21
434.2776
 31
0.0
  0
LINE
  5
3F2
  8
5
  6
CONTINUOUS
 10
1251.874
 20
284.7777
 30
0.0
 11
1247.928
 21
284.7777
 31
0.0
  0
LINE
  5
3F3
  8
5
  6
CONTINUOUS
 10
1247.928
 20
269.7776
 30
0.0
 11
1247.928
 21
284.7777
 31
0.0
  0
LINE
  5
3F4
  8
5
  6
CONTINUOUS
 10
1247.928
 20
269.7776
 30
0.0
 11
1252.552
 21
269.7776
 31
0.0
  0
LINE
  5
3F5
  8
5
  6
CONTINUOUS
 10
1251.05
 20
317.0277
 30
0.0
 11
1247.928
 21
317.0277
 31
0.0
  0
LINE
  5
3F6
  8
5
  6
CONTINUOUS
 10
1247.928
 20
299.7778
 30
0.0
 11
1247.928
 21
317.0277
 31
0.0
  0
LINE
  5
3F7
  8
5
  6
CONTINUOUS
 10
1247.928
 20
299.7778
 30
0.0
 11
1251.388
 21
299.7778
 31
0.0
  0
LINE
  5
3F8
  8
5
  6
CONTINUOUS
 10
1251.05
 20
351.5276
 30
0.0
 11
1247.928
 21
351.5276
 31
0.0
  0
LINE
  5
3F9
  8
5
  6
CONTINUOUS
 10
1247.928
 20
334.2777
 30
0.0
 11
1247.928
 21
351.5276
 31
0.0
  0
LINE
  5
3FA
  8
5
  6
CONTINUOUS
 10
1247.928
 20
334.2777
 30
0.0
 11
1250.939
 21
334.2777
 31
0.0
  0
LINE
  5
3FB
  8
5
  6
CONTINUOUS
 10
1251.874
 20
383.7776
 30
0.0
 11
1247.928
 21
383.7776
 31
0.0
  0
LINE
  5
3FC
  8
5
  6
CONTINUOUS
 10
1247.928
 20
368.7777
 30
0.0
 11
1247.928
 21
383.7776
 31
0.0
  0
LINE
  5
3FD
  8
5
  6
CONTINUOUS
 10
1247.928
 20
368.7777
 30
0.0
 11
1251.388
 21
368.7777
 31
0.0
  0
LINE
  5
3FE
  8
5
  6
CONTINUOUS
 10
1247.928
 20
398.7777
 30
0.0
 11
1247.928
 21
416.5277
 31
0.0
  0
LINE
  5
3FF
  8
5
  6
CONTINUOUS
 10
1247.928
 20
398.7777
 30
0.0
 11
1252.552
 21
398.7777
 31
0.0
  0
LINE
  5
400
  8
5
  6
CONTINUOUS
 10
1247.928
 20
252.0276
 30
0.0
 11
1247.928
 21
269.7776
 31
0.0
  0
LINE
  5
401
  8
5
  6
CONTINUOUS
 10
1247.928
 20
284.7777
 30
0.0
 11
1247.928
 21
299.7778
 31
0.0
  0
LINE
  5
402
  8
5
  6
CONTINUOUS
 10
1247.928
 20
317.0277
 30
0.0
 11
1247.928
 21
334.2777
 31
0.0
  0
LINE
  5
403
  8
5
  6
CONTINUOUS
 10
1247.928
 20
351.5276
 30
0.0
 11
1247.928
 21
368.7777
 31
0.0
  0
LINE
  5
404
  8
5
  6
CONTINUOUS
 10
1247.928
 20
383.7776
 30
0.0
 11
1247.928
 21
398.7777
 31
0.0
  0
LINE
  5
405
  8
5
  6
CONTINUOUS
 10
1124.428
 20
234.2777
 30
0.0
 11
1138.428
 21
234.2777
 31
0.0
  0
LINE
  5
406
  8
5
  6
CONTINUOUS
 10
1138.428
 20
252.0276
 30
0.0
 11
1138.428
 21
234.2777
 31
0.0
  0
LINE
  5
407
  8
5
  6
CONTINUOUS
 10
1138.428
 20
252.0276
 30
0.0
 11
1124.428
 21
252.0277
 31
0.0
  0
LINE
  5
408
  8
5
  6
CONTINUOUS
 10
1124.428
 20
269.7777
 30
0.0
 11
1138.428
 21
269.7776
 31
0.0
  0
LINE
  5
409
  8
5
  6
CONTINUOUS
 10
1138.428
 20
284.7777
 30
0.0
 11
1138.428
 21
269.7776
 31
0.0
  0
LINE
  5
40A
  8
5
  6
CONTINUOUS
 10
1138.428
 20
284.7777
 30
0.0
 11
1124.428
 21
284.7777
 31
0.0
  0
LINE
  5
40B
  8
5
  6
CONTINUOUS
 10
1124.428
 20
299.7777
 30
0.0
 11
1138.428
 21
299.7778
 31
0.0
  0
LINE
  5
40C
  8
5
  6
CONTINUOUS
 10
1138.428
 20
317.0277
 30
0.0
 11
1138.428
 21
299.7778
 31
0.0
  0
LINE
  5
40D
  8
5
  6
CONTINUOUS
 10
1138.428
 20
317.0277
 30
0.0
 11
1124.428
 21
317.0277
 31
0.0
  0
LINE
  5
40E
  8
5
  6
CONTINUOUS
 10
1124.428
 20
334.2777
 30
0.0
 11
1138.428
 21
334.2777
 31
0.0
  0
LINE
  5
40F
  8
5
  6
CONTINUOUS
 10
1138.428
 20
351.5276
 30
0.0
 11
1138.428
 21
334.2777
 31
0.0
  0
LINE
  5
410
  8
5
  6
CONTINUOUS
 10
1138.428
 20
351.5276
 30
0.0
 11
1124.428
 21
351.5277
 31
0.0
  0
LINE
  5
411
  8
5
  6
CONTINUOUS
 10
1138.428
 20
383.7776
 30
0.0
 11
1124.428
 21
383.7777
 31
0.0
  0
LINE
  5
412
  8
5
  6
CONTINUOUS
 10
1124.428
 20
368.7777
 30
0.0
 11
1138.428
 21
368.7777
 31
0.0
  0
LINE
  5
413
  8
5
  6
CONTINUOUS
 10
1138.428
 20
383.7776
 30
0.0
 11
1138.428
 21
368.7777
 31
0.0
  0
LINE
  5
414
  8
5
  6
CONTINUOUS
 10
1138.428
 20
416.5277
 30
0.0
 11
1124.428
 21
416.5277
 31
0.0
  0
LINE
  5
415
  8
5
  6
CONTINUOUS
 10
1124.428
 20
398.7777
 30
0.0
 11
1138.428
 21
398.7777
 31
0.0
  0
LINE
  5
416
  8
5
  6
CONTINUOUS
 10
1138.428
 20
416.5277
 30
0.0
 11
1138.428
 21
398.7777
 31
0.0
  0
LINE
  5
417
  8
5
  6
CONTINUOUS
 10
1124.428
 20
434.2777
 30
0.0
 11
1138.428
 21
434.2776
 31
0.0
  0
LINE
  5
418
  8
5
  6
CONTINUOUS
 10
1138.428
 20
452.9777
 30
0.0
 11
1138.428
 21
434.2776
 31
0.0
  0
LINE
  5
419
  8
5
  6
CONTINUOUS
 10
1138.428
 20
234.2777
 30
0.0
 11
1138.428
 21
215.5777
 31
0.0
  0
LINE
  5
41A
  8
5
  6
CONTINUOUS
 10
1138.428
 20
269.7776
 30
0.0
 11
1138.428
 21
252.0276
 31
0.0
  0
LINE
  5
41B
  8
5
  6
CONTINUOUS
 10
1138.428
 20
299.7778
 30
0.0
 11
1138.428
 21
284.7777
 31
0.0
  0
LINE
  5
41C
  8
5
  6
CONTINUOUS
 10
1138.428
 20
334.2777
 30
0.0
 11
1138.428
 21
317.0277
 31
0.0
  0
LINE
  5
41D
  8
5
  6
CONTINUOUS
 10
1138.428
 20
368.7777
 30
0.0
 11
1138.428
 21
351.5276
 31
0.0
  0
LINE
  5
41E
  8
5
  6
CONTINUOUS
 10
1138.428
 20
398.7777
 30
0.0
 11
1138.428
 21
383.7776
 31
0.0
  0
LINE
  5
41F
  8
5
  6
CONTINUOUS
 10
1138.428
 20
434.2776
 30
0.0
 11
1138.428
 21
416.5277
 31
0.0
  0
LINE
  5
420
  8
5
  6
CONTINUOUS
 10
1138.428
 20
434.2776
 30
0.0
 11
1247.928
 21
434.2776
 31
0.0
  0
LINE
  5
421
  8
5
  6
CONTINUOUS
 10
1138.428
 20
398.7777
 30
0.0
 11
1247.928
 21
398.7777
 31
0.0
  0
LINE
  5
422
  8
5
  6
CONTINUOUS
 10
1247.928
 20
416.5277
 30
0.0
 11
1138.428
 21
416.5277
 31
0.0
  0
LINE
  5
423
  8
5
  6
CONTINUOUS
 10
1138.428
 20
368.7777
 30
0.0
 11
1247.928
 21
368.7777
 31
0.0
  0
LINE
  5
424
  8
5
  6
CONTINUOUS
 10
1247.928
 20
383.7776
 30
0.0
 11
1138.428
 21
383.7776
 31
0.0
  0
LINE
  5
425
  8
5
  6
CONTINUOUS
 10
1138.428
 20
334.2777
 30
0.0
 11
1247.928
 21
334.2777
 31
0.0
  0
LINE
  5
426
  8
5
  6
CONTINUOUS
 10
1247.928
 20
351.5276
 30
0.0
 11
1138.428
 21
351.5276
 31
0.0
  0
LINE
  5
427
  8
5
  6
CONTINUOUS
 10
1247.928
 20
317.0277
 30
0.0
 11
1138.428
 21
317.0277
 31
0.0
  0
LINE
  5
428
  8
5
  6
CONTINUOUS
 10
1138.428
 20
299.7778
 30
0.0
 11
1247.928
 21
299.7778
 31
0.0
  0
LINE
  5
429
  8
5
  6
CONTINUOUS
 10
1247.928
 20
284.7777
 30
0.0
 11
1138.428
 21
284.7777
 31
0.0
  0
LINE
  5
42A
  8
5
  6
CONTINUOUS
 10
1138.428
 20
269.7776
 30
0.0
 11
1247.928
 21
269.7776
 31
0.0
  0
LINE
  5
42B
  8
5
  6
CONTINUOUS
 10
1247.928
 20
252.0276
 30
0.0
 11
1138.428
 21
252.0276
 31
0.0
  0
LINE
  5
42C
  8
5
  6
CONTINUOUS
 10
1138.428
 20
234.2777
 30
0.0
 11
1247.928
 21
234.2777
 31
0.0
  0
LINE
  5
42D
  8
5
  6
CONTINUOUS
 10
1249.166
 20
519.6136
 30
0.0
 11
1247.928
 21
509.2776
 31
0.0
  0
LINE
  5
42E
  8
5
  6
CONTINUOUS
 10
843.9285
 20
509.2776
 30
0.0
 11
842.6904
 21
519.6136
 31
0.0
  0
LINE
  5
42F
  8
5
  6
CONTINUOUS
 10
1247.928
 20
509.2776
 30
0.0
 11
955.1162
 21
509.2777
 31
0.0
  0
LINE
  5
430
  8
5
  6
CONTINUOUS
 10
858.7407
 20
509.2777
 30
0.0
 11
843.9285
 21
509.2776
 31
0.0
  0
LINE
  5
431
  8
5
  6
CONTINUOUS
 10
1247.928
 20
159.2777
 30
0.0
 11
1249.166
 21
148.9417
 31
0.0
  0
LINE
  5
432
  8
5
  6
CONTINUOUS
 10
1078.928
 20
159.2777
 30
0.0
 11
1137.741
 21
159.2777
 31
0.0
  0
LINE
  5
433
  8
5
  6
CONTINUOUS
 10
1234.116
 20
159.2777
 30
0.0
 11
1247.928
 21
159.2777
 31
0.0
  0
LINE
  5
434
  8
5
  6
CONTINUOUS
 10
1136.186
 20
171.0771
 30
0.0
 11
1134.237
 21
210.4933
 31
0.0
  0
LINE
  5
435
  8
5
  6
CONTINUOUS
 10
1134.237
 20
210.4933
 30
0.0
 11
1124.428
 21
210.4933
 31
0.0
  0
LINE
  5
436
  8
5
  6
CONTINUOUS
 10
1247.928
 20
159.2777
 30
0.0
 11
1247.928
 21
210.4933
 31
0.0
  0
LINE
  5
437
  8
5
  6
CONTINUOUS
 10
1247.928
 20
210.4933
 30
0.0
 11
1237.62
 21
210.4933
 31
0.0
  0
LINE
  5
438
  8
5
  6
CONTINUOUS
 10
1237.62
 20
210.4933
 30
0.0
 11
1235.671
 21
171.0771
 31
0.0
  0
LINE
  5
439
  8
5
  6
CONTINUOUS
 10
1203.928
 20
210.4933
 30
0.0
 11
1167.928
 21
210.4933
 31
0.0
  0
LINE
  5
43A
  8
5
  6
CONTINUOUS
 10
1124.428
 20
458.062
 30
0.0
 11
1247.928
 21
458.062
 31
0.0
  0
LINE
  5
43B
  8
5
  6
CONTINUOUS
 10
1247.928
 20
458.062
 30
0.0
 11
1247.928
 21
509.2776
 31
0.0
  0
LINE
  5
43C
  8
5
  6
CONTINUOUS
 10
843.9285
 20
509.2776
 30
0.0
 11
843.9284
 21
493.7776
 31
0.0
  0
LINE
  5
43D
  8
5
  6
CONTINUOUS
 10
1250.324
 20
194.9498
 30
0.0
 11
1250.324
 21
157.9777
 31
0.0
  0
LINE
  5
43E
  8
5
  6
CONTINUOUS
 10
1252.598
 20
175.7276
 30
0.0
 11
1252.598
 21
183.7878
 31
0.0
  0
LINE
  5
43F
  8
5
  6
CONTINUOUS
 10
1252.598
 20
484.7675
 30
0.0
 11
1252.598
 21
492.8277
 31
0.0
  0
LINE
  5
440
  8
5
  6
CONTINUOUS
 10
1250.324
 20
510.5777
 30
0.0
 11
1250.324
 21
473.6055
 31
0.0
  0
LINE
  5
441
  8
5
  6
CONTINUOUS
 10
841.5329
 20
493.7776
 30
0.0
 11
841.5329
 21
510.5777
 31
0.0
  0
LINE
  5
442
  8
5
  6
CONTINUOUS
 10
1156.428
 20
138.8751
 30
0.0
 11
1139.312
 21
147.3474
 31
0.0
  0
LINE
  5
443
  8
5
  6
CONTINUOUS
 10
1156.428
 20
156.5529
 30
0.0
 11
1156.428
 21
138.8751
 31
0.0
  0
LINE
  5
444
  8
5
  6
CONTINUOUS
 10
1139.312
 20
169.2247
 30
0.0
 11
1156.428
 21
156.5529
 31
0.0
  0
LINE
  5
445
  8
5
  6
CONTINUOUS
 10
1139.312
 20
147.3474
 30
0.0
 11
1139.312
 21
169.2247
 31
0.0
  0
LINE
  5
446
  8
5
  6
CONTINUOUS
 10
1215.429
 20
156.5529
 30
0.0
 11
1232.545
 21
169.2247
 31
0.0
  0
LINE
  5
447
  8
5
  6
CONTINUOUS
 10
1215.429
 20
138.8751
 30
0.0
 11
1215.429
 21
156.5529
 31
0.0
  0
LINE
  5
448
  8
5
  6
CONTINUOUS
 10
1232.545
 20
147.3474
 30
0.0
 11
1215.429
 21
138.8751
 31
0.0
  0
LINE
  5
449
  8
5
  6
CONTINUOUS
 10
1232.545
 20
169.2247
 30
0.0
 11
1232.545
 21
147.3474
 31
0.0
  0
LINE
  5
44A
  8
5
  6
CONTINUOUS
 10
1175.928
 20
180.3708
 30
0.0
 11
1167.928
 21
186.7221
 31
0.0
  0
LINE
  5
44B
  8
5
  6
CONTINUOUS
 10
1203.928
 20
186.7221
 30
0.0
 11
1195.929
 21
180.3708
 31
0.0
  0
LINE
  5
44C
  8
5
  6
CONTINUOUS
 10
1195.929
 20
180.3708
 30
0.0
 11
1175.928
 21
180.3708
 31
0.0
  0
LINE
  5
44D
  8
5
  6
CONTINUOUS
 10
1215.429
 20
138.8751
 30
0.0
 11
1156.428
 21
138.8751
 31
0.0
  0
LINE
  5
44E
  8
5
  6
CONTINUOUS
 10
1156.428
 20
156.5529
 30
0.0
 11
1215.429
 21
156.5529
 31
0.0
  0
LINE
  5
44F
  8
5
  6
CONTINUOUS
 10
1139.312
 20
147.3474
 30
0.0
 11
1136.186
 21
171.0771
 31
0.0
  0
LINE
  5
450
  8
5
  6
CONTINUOUS
 10
1135.23
 20
215.5777
 30
0.0
 11
1139.312
 21
169.2247
 31
0.0
  0
LINE
  5
451
  8
5
  6
CONTINUOUS
 10
1236.627
 20
215.5777
 30
0.0
 11
1232.545
 21
169.2247
 31
0.0
  0
LINE
  5
452
  8
5
  6
CONTINUOUS
 10
1232.545
 20
147.3474
 30
0.0
 11
1235.671
 21
171.0771
 31
0.0
  0
LINE
  5
453
  8
5
  6
CONTINUOUS
 10
1203.928
 20
215.5777
 30
0.0
 11
1203.928
 21
186.7221
 31
0.0
  0
LINE
  5
454
  8
5
  6
CONTINUOUS
 10
1167.928
 20
186.7221
 30
0.0
 11
1167.928
 21
215.5777
 31
0.0
  0
LINE
  5
455
  8
5
  6
CONTINUOUS
 10
1416.929
 20
462.2777
 30
0.0
 11
1369.428
 21
513.7776
 31
0.0
  0
LINE
  5
456
  8
5
  6
CONTINUOUS
 10
1416.929
 20
462.2777
 30
0.0
 11
1416.928
 21
206.2777
 31
0.0
  0
LINE
  5
457
  8
5
  6
CONTINUOUS
 10
1369.428
 20
154.7777
 30
0.0
 11
1416.929
 21
206.2776
 31
0.0
  0
LINE
  5
458
  8
5
  6
CONTINUOUS
 10
1425.928
 20
462.2777
 30
0.0
 11
1416.929
 21
462.2777
 31
0.0
  0
LINE
  5
459
  8
5
  6
CONTINUOUS
 10
1416.929
 20
206.2776
 30
0.0
 11
1425.928
 21
206.2776
 31
0.0
  0
LINE
  5
45A
  8
5
  6
CONTINUOUS
 10
1301.928
 20
434.0199
 30
0.0
 11
1255.928
 21
434.0199
 31
0.0
  0
LINE
  5
45B
  8
5
  6
CONTINUOUS
 10
1301.928
 20
234.5355
 30
0.0
 11
1255.928
 21
234.5355
 31
0.0
  0
LINE
  5
45C
  8
5
  6
CONTINUOUS
 10
1301.928
 20
235.7781
 30
0.0
 11
1369.428
 21
235.7781
 31
0.0
  0
LINE
  5
45D
  8
5
  6
CONTINUOUS
 10
1301.928
 20
432.7772
 30
0.0
 11
1369.428
 21
432.7773
 31
0.0
  0
ARC
  5
45E
  8
6
  6
CENTER
 10
1776.709
 20
929.5666
 30
0.0
 40
175.0
 50
128.448266
 51
141.551582
  0
LINE
  5
45F
  8
6
  6
CENTER
 10
1667.107565
 20
1039.168267
 30
0.0
 11
1642.889
 21
1063.387
 31
0.0
  0
ARC
  5
460
  8
6
  6
CENTER
 10
1776.709
 20
929.5666
 30
0.0
 40
175.0
 50
38.448422
 51
51.551763
  0
LINE
  5
461
  8
6
  6
CENTER
 10
1886.30978
 20
1039.167949
 30
0.0
 11
1910.529
 21
1063.387
 31
0.0
  0
ARC
  5
462
  8
6
  6
CENTER
 10
1776.709
 20
929.5666
 30
0.0
 40
175.0
 50
308.448193
 51
321.551529
  0
LINE
  5
463
  8
6
  6
CENTER
 10
1886.310063
 20
819.965334
 30
0.0
 11
1910.529
 21
795.7467
 31
0.0
  0
ARC
  5
464
  8
6
  6
CENTER
 10
1776.709
 20
929.5666
 30
0.0
 40
175.0
 50
218.448342
 51
231.551658
  0
LINE
  5
465
  8
6
  6
CENTER
 10
1667.107382
 20
819.965116
 30
0.0
 11
1642.889
 21
795.7467
 31
0.0
  0
LINE
  5
466
  8
6
  6
CENTER
 10
1776.709
 20
724.5666
 30
0.0
 11
1776.709
 21
1134.567
 31
0.0
  0
LINE
  5
467
  8
6
  6
CENTER
 10
1571.709
 20
929.5666
 30
0.0
 11
1981.709
 21
929.5666
 31
0.0
  0
LINE
  5
468
  8
5
  6
CONTINUOUS
 10
1953.009
 20
810.8667
 30
0.0
 11
1937.675
 21
810.8667
 31
0.0
  0
LINE
  5
46A
  8
5
  6
CONTINUOUS
 10
1598.984
 20
1119.537
 30
0.0
 11
1611.656
 21
1109.637
 31
0.0
  0
LINE
  5
46B
  8
5
  6
CONTINUOUS
 10
1647.135
 20
1081.917
 30
0.0
 11
1611.656
 21
1109.637
 31
0.0
  0
LINE
  5
46C
  8
5
  6
CONTINUOUS
 10
1589.778
 20
1087.76
 30
0.0
 11
1613.508
 21
1048.267
 31
0.0
  0
LINE
  5
46D
  8
5
  6
CONTINUOUS
 10
1589.778
 20
1087.76
 30
0.0
 11
1581.306
 21
1101.86
 31
0.0
  0
LINE
  5
46E
  8
5
  6
CONTINUOUS
 10
1655.525
 20
1088.672
 30
0.0
 11
1656.569
 21
1118.567
 31
0.0
  0
LINE
  5
46F
  8
5
  6
CONTINUOUS
 10
1581.306
 20
1101.86
 30
0.0
 11
1598.984
 21
1119.537
 31
0.0
  0
LINE
  5
470
  8
5
  6
CONTINUOUS
 10
1896.848
 20
1118.567
 30
0.0
 11
1897.892
 21
1088.672
 31
0.0
  0
LINE
  5
471
  8
5
  6
CONTINUOUS
 10
1591.373
 20
820.5307
 30
0.0
 11
1601.709
 21
810.8667
 31
0.0
  0
LINE
  5
472
  8
5
  6
CONTINUOUS
 10
1581.709
 20
829.5667
 30
0.0
 11
1591.373
 21
820.5307
 31
0.0
  0
LINE
  5
473
  8
5
  6
CONTINUOUS
 10
1962.045
 20
820.5307
 30
0.0
 11
1971.709
 21
830.8667
 31
0.0
  0
LINE
  5
474
  8
5
  6
CONTINUOUS
 10
1953.009
 20
810.8667
 30
0.0
 11
1962.045
 21
820.5307
 31
0.0
  0
LINE
  5
475
  8
5
  6
CONTINUOUS
 10
1591.373
 20
1038.603
 30
0.0
 11
1581.709
 21
1029.567
 31
0.0
  0
LINE
  5
476
  8
5
  6
CONTINUOUS
 10
1601.709
 20
1048.267
 30
0.0
 11
1591.373
 21
1038.603
 31
0.0
  0
LINE
  5
477
  8
5
  6
CONTINUOUS
 10
1962.045
 20
1038.603
 30
0.0
 11
1951.709
 21
1048.267
 31
0.0
  0
LINE
  5
478
  8
5
  6
CONTINUOUS
 10
1971.709
 20
1029.567
 30
0.0
 11
1962.045
 21
1038.603
 31
0.0
  0
LINE
  5
479
  8
5
  6
CONTINUOUS
 10
1581.709
 20
979.0667
 30
0.0
 11
1581.709
 21
994.0667
 31
0.0
  0
LINE
  5
47A
  8
5
  6
CONTINUOUS
 10
1581.709
 20
1011.817
 30
0.0
 11
1581.709
 21
1029.567
 31
0.0
  0
LINE
  5
47B
  8
5
  6
CONTINUOUS
 10
1581.709
 20
880.0667
 30
0.0
 11
1581.709
 21
886.6095
 31
0.0
  0
LINE
  5
47C
  8
5
  6
CONTINUOUS
 10
1581.709
 20
847.3167
 30
0.0
 11
1581.709
 21
865.0667
 31
0.0
  0
LINE
  5
47D
  8
5
  6
CONTINUOUS
 10
1581.709
 20
974.0076
 30
0.0
 11
1581.709
 21
979.0667
 31
0.0
  0
LINE
  5
47E
  8
5
  6
CONTINUOUS
 10
1581.709
 20
994.0667
 30
0.0
 11
1581.709
 21
1011.817
 31
0.0
  0
LINE
  5
47F
  8
5
  6
CONTINUOUS
 10
1581.709
 20
865.0667
 30
0.0
 11
1581.709
 21
880.0667
 31
0.0
  0
LINE
  5
480
  8
5
  6
CONTINUOUS
 10
1581.709
 20
829.5667
 30
0.0
 11
1581.709
 21
847.3167
 31
0.0
  0
LINE
  5
481
  8
5
  6
CONTINUOUS
 10
1971.709
 20
865.0667
 30
0.0
 11
1971.709
 21
847.3167
 31
0.0
  0
LINE
  5
482
  8
5
  6
CONTINUOUS
 10
1971.709
 20
886.5311
 30
0.0
 11
1971.709
 21
880.0667
 31
0.0
  0
LINE
  5
483
  8
5
  6
CONTINUOUS
 10
1971.709
 20
1029.567
 30
0.0
 11
1971.709
 21
1011.817
 31
0.0
  0
LINE
  5
484
  8
5
  6
CONTINUOUS
 10
1971.709
 20
994.0667
 30
0.0
 11
1971.709
 21
979.0667
 31
0.0
  0
LINE
  5
485
  8
5
  6
CONTINUOUS
 10
1971.709
 20
880.0667
 30
0.0
 11
1971.709
 21
865.0667
 31
0.0
  0
LINE
  5
486
  8
5
  6
CONTINUOUS
 10
1971.709
 20
847.3167
 30
0.0
 11
1971.709
 21
835.9816
 31
0.0
  0
LINE
  5
487
  8
5
  6
CONTINUOUS
 10
1971.709
 20
1011.817
 30
0.0
 11
1971.709
 21
994.0667
 31
0.0
  0
LINE
  5
488
  8
5
  6
CONTINUOUS
 10
1971.709
 20
979.0667
 30
0.0
 11
1971.709
 21
974.0076
 31
0.0
  0
LINE
  5
48A
  8
5
  6
CONTINUOUS
 10
1601.709
 20
1048.267
 30
0.0
 11
1615.975
 21
1048.267
 31
0.0
  0
LINE
  5
48B
  8
5
  6
CONTINUOUS
 10
1954.434
 20
1119.537
 30
0.0
 11
1972.111
 21
1101.86
 31
0.0
  0
LINE
  5
48C
  8
5
  6
CONTINUOUS
 10
1972.111
 20
1101.86
 30
0.0
 11
1963.639
 21
1087.76
 31
0.0
  0
LINE
  5
48D
  8
5
  6
CONTINUOUS
 10
1963.639
 20
1087.76
 30
0.0
 11
1939.909
 21
1048.267
 31
0.0
  0
LINE
  5
48E
  8
5
  6
CONTINUOUS
 10
1906.282
 20
1081.917
 30
0.0
 11
1941.762
 21
1109.637
 31
0.0
  0
LINE
  5
48F
  8
5
  6
CONTINUOUS
 10
1941.762
 20
1109.637
 30
0.0
 11
1954.434
 21
1119.537
 31
0.0
  0
LINE
  5
490
  8
5
  6
CONTINUOUS
 10
1943.978
 20
804.0943
 30
0.0
 11
1950.751
 21
810.8667
 31
0.0
  0
LINE
  5
491
  8
5
  6
CONTINUOUS
 10
1602.666
 20
810.8667
 30
0.0
 11
1609.439
 21
804.0943
 31
0.0
  0
LINE
  5
492
  8
5
  6
CONTINUOUS
 10
1655.976
 20
1101.576
 30
0.0
 11
1641.062
 21
1086.662
 31
0.0
  0
LINE
  5
493
  8
5
  6
CONTINUOUS
 10
1609.439
 20
1055.039
 30
0.0
 11
1602.666
 21
1048.267
 31
0.0
  0
LINE
  5
494
  8
5
  6
CONTINUOUS
 10
1950.751
 20
1048.267
 30
0.0
 11
1943.978
 21
1055.039
 31
0.0
  0
LINE
  5
495
  8
5
  6
CONTINUOUS
 10
1912.355
 20
1086.662
 30
0.0
 11
1897.442
 21
1101.576
 31
0.0
  0
LINE
  5
497
  8
5
  6
CONTINUOUS
 10
1611.656
 20
1109.637
 30
0.0
 11
1589.778
 21
1087.76
 31
0.0
  0
LINE
  5
498
  8
5
  6
CONTINUOUS
 10
1883.535
 20
1098.647
 30
0.0
 11
1882.84
 21
1118.567
 31
0.0
  0
LINE
  5
499
  8
5
  6
CONTINUOUS
 10
1670.577
 20
1118.567
 30
0.0
 11
1669.882
 21
1098.647
 31
0.0
  0
LINE
  5
49A
  8
5
  6
CONTINUOUS
 10
1581.709
 20
1011.817
 30
0.0
 11
1594.404
 21
1011.817
 31
0.0
  0
LINE
  5
49C
  8
5
  6
CONTINUOUS
 10
1600.409
 20
1029.567
 30
0.0
 11
1581.709
 21
1029.567
 31
0.0
  0
LINE
  5
49E
  8
5
  6
CONTINUOUS
 10
1594.404
 20
847.3167
 30
0.0
 11
1581.709
 21
847.3167
 31
0.0
  0
LINE
  5
49F
  8
5
  6
CONTINUOUS
 10
1602.38
 20
831.5382
 30
0.0
 11
1591.373
 21
820.5307
 31
0.0
  0
LINE
  5
4A0
  8
5
  6
CONTINUOUS
 10
1587.395
 20
994.0667
 30
0.0
 11
1581.709
 21
994.0666
 31
0.0
  0
LINE
  5
4A1
  8
5
  6
CONTINUOUS
 10
1581.709
 20
979.0666
 30
0.0
 11
1582.931
 21
979.0667
 31
0.0
  0
LINE
  5
4A2
  8
5
  6
CONTINUOUS
 10
1581.709
 20
880.0667
 30
0.0
 11
1582.931
 21
880.0667
 31
0.0
  0
LINE
  5
4A3
  8
5
  6
CONTINUOUS
 10
1587.395
 20
865.0667
 30
0.0
 11
1581.709
 21
865.0667
 31
0.0
  0
LINE
  5
4A4
  8
5
  6
CONTINUOUS
 10
1959.013
 20
1011.817
 30
0.0
 11
1971.709
 21
1011.817
 31
0.0
  0
LINE
  5
4A5
  8
5
  6
CONTINUOUS
 10
1971.709
 20
1029.567
 30
0.0
 11
1953.009
 21
1029.567
 31
0.0
  0
LINE
  5
4A8
  8
5
  6
CONTINUOUS
 10
1971.709
 20
847.3167
 30
0.0
 11
1959.013
 21
847.3167
 31
0.0
  0
LINE
  5
4A9
  8
5
  6
CONTINUOUS
 10
1962.045
 20
820.5307
 30
0.0
 11
1951.037
 21
831.5382
 31
0.0
  0
LINE
  5
4AA
  8
5
  6
CONTINUOUS
 10
1970.486
 20
979.0667
 30
0.0
 11
1971.709
 21
979.0667
 31
0.0
  0
LINE
  5
4AB
  8
5
  6
CONTINUOUS
 10
1971.709
 20
994.0667
 30
0.0
 11
1966.023
 21
994.0667
 31
0.0
  0
LINE
  5
4AC
  8
5
  6
CONTINUOUS
 10
1970.486
 20
880.0667
 30
0.0
 11
1971.709
 21
880.0667
 31
0.0
  0
LINE
  5
4AD
  8
5
  6
CONTINUOUS
 10
1971.709
 20
865.0667
 30
0.0
 11
1966.023
 21
865.0667
 31
0.0
  0
LINE
  5
4AE
  8
5
  6
CONTINUOUS
 10
1953.009
 20
1029.567
 30
0.0
 11
1949.914
 21
1029.567
 31
0.0
  0
LINE
  5
4AF
  8
5
  6
CONTINUOUS
 10
1603.504
 20
1029.567
 30
0.0
 11
1600.409
 21
1029.567
 31
0.0
  0
LINE
  5
4B0
  8
5
  6
CONTINUOUS
 10
1963.639
 20
1087.76
 30
0.0
 11
1941.762
 21
1109.637
 31
0.0
  0
LINE
  5
4B1
  8
6
  6
CENTER
 10
299.1709
 20
745.0666
 30
0.0
 11
299.1709
 21
1114.067
 31
0.0
  0
LINE
  5
4B2
  8
6
  6
CENTER
 10
114.6709
 20
929.5666
 30
0.0
 11
483.6709
 21
929.5666
 31
0.0
  0
LINE
  5
4B3
  8
6
  6
CENTER
 10
1450.928
 20
929.5667
 30
0.0
 11
626.9284
 21
929.5666
 31
0.0
  0
LINE
  5
4B4
  8
6
  6
CENTER
 10
626.9284
 20
334.2777
 30
0.0
 11
854.924649
 21
334.2777
 31
0.0
  0
LINE
  5
4B5
  8
7
  6
DASHED
 10
761.9284
 20
467.2713
 30
0.0
 11
776.9284
 21
467.2713
 31
0.0
  0
LINE
  5
4B6
  8
7
  6
DASHED
 10
761.9284
 20
1044.06
 30
0.0
 11
776.9284
 21
1044.06
 31
0.0
  0
LINE
  5
4B7
  8
7
  6
DASHED
 10
761.9284
 20
1062.56
 30
0.0
 11
777.2761
 21
1062.56
 31
0.0
  0
LINE
  5
4B8
  8
7
  6
DASHED
 10
776.9284
 20
815.0731
 30
0.0
 11
761.9284
 21
815.0731
 31
0.0
  0
LINE
  5
4B9
  8
7
  6
DASHED
 10
776.9284
 20
796.573
 30
0.0
 11
761.9284
 21
796.573
 31
0.0
  0
LINE
  5
4BA
  8
7
  6
DASHED
 10
761.9284
 20
201.284
 30
0.0
 11
776.9284
 21
201.284
 31
0.0
  0
LINE
  5
4BB
  8
7
  6
DASHED
 10
761.9284
 20
448.7713
 30
0.0
 11
776.9284
 21
448.7713
 31
0.0
  0
LINE
  5
4BC
  8
7
  6
DASHED
 10
761.9284
 20
219.784
 30
0.0
 11
776.9284
 21
219.784
 31
0.0
  0
LINE
  5
4BD
  8
6
  6
CENTER
 10
749.4284
 20
1053.31
 30
0.0
 11
784.4284
 21
1053.31
 31
0.0
  0
LINE
  5
4BE
  8
6
  6
CENTER
 10
784.4284
 20
805.8231
 30
0.0
 11
749.4284
 21
805.8231
 31
0.0
  0
LINE
  5
4BF
  8
6
  6
CENTER
 10
749.4284
 20
458.0213
 30
0.0
 11
784.4284
 21
458.0213
 31
0.0
  0
LINE
  5
4C0
  8
6
  6
CENTER
 10
749.4284
 20
210.534
 30
0.0
 11
784.4284
 21
210.534
 31
0.0
  0
LINE
  5
4C9
  8
0
  6
CONTINUOUS
 10
656.9284
 20
957.0672
 30
0.0
 11
664.9284
 21
955.8773
 31
0.0
  0
LINE
  5
4CA
  8
0
  6
CONTINUOUS
 10
754.9283
 20
957.0667
 30
0.0
 11
746.9284
 21
955.8773
 31
0.0
  0
LINE
  5
4CB
  8
6
  6
CENTER
 10
1074.928
 20
334.2777
 30
0.0
 11
1450.928
 21
334.2777
 31
0.0
  0
ARC
  5
4CC
  8
5
  6
CONTINUOUS
 10
969.517677
 20
1211.799694
 30
0.0
 40
10.43949
 50
0.001947
 51
90.00195
  0
ARC
  5
4CD
  8
5
  6
CONTINUOUS
 10
966.486777
 20
1213.047994
 30
0.0
 40
13.5281
 50
283.5581
 51
354.7072
  0
ARC
  5
4CE
  8
5
  6
CONTINUOUS
 10
967.533077
 20
1183.198194
 30
0.0
 40
16.83332
 50
2.745839
 51
45.68318
  0
ARC
  5
4CF
  8
5
  6
CONTINUOUS
 10
969.518677
 20
1184.004094
 30
0.0
 40
14.82849
 50
270.0019
 51
0.0019
  0
LINE
  5
4D0
  8
5
  6
CONTINUOUS
 10
964.715377
 20
1222.239094
 30
0.0
 11
964.716177
 21
1197.341794
 31
0.0
  0
ARC
  5
4D1
  8
5
  6
CONTINUOUS
 10
967.533077
 20
1183.198194
 30
0.0
 40
16.83332
 50
57.16493
 51
82.74766
  0
LINE
  5
4D2
  8
5
  6
CONTINUOUS
 10
962.616177
 20
1197.341594
 30
0.0
 11
962.615377
 21
1222.238894
 31
0.0
  0
LINE
  5
4D3
  8
5
  6
CONTINUOUS
 10
948.836877
 20
1222.238494
 30
0.0
 11
948.837677
 21
1197.341294
 31
0.0
  0
LINE
  5
4D4
  8
5
  6
CONTINUOUS
 10
913.815577
 20
1222.237394
 30
0.0
 11
913.816377
 21
1197.340094
 31
0.0
  0
LINE
  5
4D5
  8
5
  6
CONTINUOUS
 10
928.496177
 20
1197.340494
 30
0.0
 11
919.608477
 21
1222.237494
 31
0.0
  0
LINE
  5
4D6
  8
5
  6
CONTINUOUS
 10
911.716477
 20
1197.339894
 30
0.0
 11
911.715577
 21
1222.237194
 31
0.0
  0
LINE
  5
4D7
  8
5
  6
CONTINUOUS
 10
905.922777
 20
1222.237094
 30
0.0
 11
897.381977
 21
1197.339494
 31
0.0
  0
LINE
  5
4D8
  8
5
  6
CONTINUOUS
 10
900.272977
 20
1179.930594
 30
0.0
 11
911.717077
 21
1179.930994
 31
0.0
  0
LINE
  5
4D9
  8
5
  6
CONTINUOUS
 10
911.716477
 20
1195.239994
 30
0.0
 11
896.661577
 21
1195.239394
 31
0.0
  0
LINE
  5
4DA
  8
5
  6
CONTINUOUS
 10
897.381977
 20
1197.339494
 30
0.0
 11
911.716477
 21
1197.339894
 31
0.0
  0
LINE
  5
4DB
  8
5
  6
CONTINUOUS
 10
896.582777
 20
1169.173194
 30
0.0
 11
900.272977
 21
1179.930594
 31
0.0
  0
LINE
  5
4DC
  8
5
  6
CONTINUOUS
 10
896.661577
 20
1195.239394
 30
0.0
 11
887.719877
 21
1169.172894
 31
0.0
  0
LINE
  5
4DD
  8
5
  6
CONTINUOUS
 10
887.719877
 20
1169.172894
 30
0.0
 11
896.582777
 21
1169.173194
 31
0.0
  0
LINE
  5
4DE
  8
5
  6
CONTINUOUS
 10
938.550977
 20
1169.174594
 30
0.0
 11
929.245877
 21
1195.240594
 31
0.0
  0
LINE
  5
4DF
  8
5
  6
CONTINUOUS
 10
925.210477
 20
1179.931494
 30
0.0
 11
929.050577
 21
1169.174294
 31
0.0
  0
LINE
  5
4E0
  8
5
  6
CONTINUOUS
 10
929.050577
 20
1169.174294
 30
0.0
 11
938.550977
 21
1169.174594
 31
0.0
  0
LINE
  5
4E1
  8
5
  6
CONTINUOUS
 10
913.816977
 20
1179.931194
 30
0.0
 11
925.210477
 21
1179.931494
 31
0.0
  0
LINE
  5
4E2
  8
5
  6
CONTINUOUS
 10
929.245877
 20
1195.240594
 30
0.0
 11
913.816577
 21
1195.239994
 31
0.0
  0
LINE
  5
4E3
  8
5
  6
CONTINUOUS
 10
913.816377
 20
1197.340094
 30
0.0
 11
928.496177
 21
1197.340494
 31
0.0
  0
LINE
  5
4E4
  8
5
  6
CONTINUOUS
 10
913.816577
 20
1195.239994
 30
0.0
 11
913.816977
 21
1179.931194
 31
0.0
  0
LINE
  5
4E5
  8
5
  6
CONTINUOUS
 10
911.717077
 20
1179.930994
 30
0.0
 11
911.716477
 21
1195.239994
 31
0.0
  0
LINE
  5
4E6
  8
5
  6
CONTINUOUS
 10
964.716177
 20
1195.241794
 30
0.0
 11
964.717177
 21
1169.175394
 31
0.0
  0
LINE
  5
4E7
  8
5
  6
CONTINUOUS
 10
962.617077
 20
1169.175394
 30
0.0
 11
962.616377
 21
1195.241794
 31
0.0
  0
LINE
  5
4E8
  8
5
  6
CONTINUOUS
 10
948.837777
 20
1195.241194
 30
0.0
 11
948.838677
 21
1169.174994
 31
0.0
  0
LINE
  5
4E9
  8
5
  6
CONTINUOUS
 10
948.838677
 20
1169.174994
 30
0.0
 11
962.617077
 21
1169.175394
 31
0.0
  0
LINE
  5
4EA
  8
5
  6
CONTINUOUS
 10
964.717177
 20
1169.175394
 30
0.0
 11
969.519177
 21
1169.175594
 31
0.0
  0
LINE
  5
4EB
  8
5
  6
CONTINUOUS
 10
962.616377
 20
1195.241794
 30
0.0
 11
948.837777
 21
1195.241194
 31
0.0
  0
LINE
  5
4EC
  8
5
  6
CONTINUOUS
 10
948.837677
 20
1197.341294
 30
0.0
 11
962.616177
 21
1197.341594
 31
0.0
  0
LINE
  5
4ED
  8
5
  6
CONTINUOUS
 10
964.716177
 20
1197.341794
 30
0.0
 11
976.660577
 21
1197.342194
 31
0.0
  0
LINE
  5
4EE
  8
5
  6
CONTINUOUS
 10
979.293277
 20
1195.242294
 30
0.0
 11
964.716177
 21
1195.241794
 31
0.0
  0
LINE
  5
4EF
  8
5
  6
CONTINUOUS
 10
919.608477
 20
1222.237494
 30
0.0
 11
913.815577
 21
1222.237394
 31
0.0
  0
LINE
  5
4F0
  8
5
  6
CONTINUOUS
 10
911.715577
 20
1222.237194
 30
0.0
 11
905.922777
 21
1222.237094
 31
0.0
  0
LINE
  5
4F1
  8
5
  6
CONTINUOUS
 10
962.615377
 20
1222.238894
 30
0.0
 11
948.836877
 21
1222.238494
 31
0.0
  0
LINE
  5
4F2
  8
5
  6
CONTINUOUS
 10
969.517377
 20
1222.239194
 30
0.0
 11
964.715377
 21
1222.239094
 31
0.0
  0
LINE
  5
4F3
  8
5
  6
CONTINUOUS
 10
1010.361277
 20
1222.240694
 30
0.0
 11
1010.362277
 21
1197.343394
 31
0.0
  0
ARC
  5
4F4
  8
5
  6
CONTINUOUS
 10
1012.132277
 20
1213.049494
 30
0.0
 40
13.5281
 50
283.5581
 51
354.7072
  0
ARC
  5
4F5
  8
5
  6
CONTINUOUS
 10
1013.178277
 20
1183.199794
 30
0.0
 40
16.83332
 50
57.16491
 51
82.74766
  0
LINE
  5
4F6
  8
5
  6
CONTINUOUS
 10
994.482277
 20
1222.240094
 30
0.0
 11
994.483277
 21
1197.342794
 31
0.0
  0
LINE
  5
4F7
  8
5
  6
CONTINUOUS
 10
1008.261277
 20
1197.343194
 30
0.0
 11
1008.261277
 21
1222.240494
 31
0.0
  0
LINE
  5
4F8
  8
5
  6
CONTINUOUS
 10
1024.939277
 20
1195.243694
 30
0.0
 11
1010.362277
 21
1195.243294
 31
0.0
  0
ARC
  5
4F9
  8
5
  6
CONTINUOUS
 10
1015.164277
 20
1184.005694
 30
0.0
 40
14.82849
 50
270.0019
 51
0.0019
  0
LINE
  5
4FA
  8
5
  6
CONTINUOUS
 10
1010.362277
 20
1197.343394
 30
0.0
 11
1022.306277
 21
1197.343694
 31
0.0
  0
LINE
  5
4FB
  8
5
  6
CONTINUOUS
 10
1008.262277
 20
1169.176994
 30
0.0
 11
1008.262277
 21
1195.243294
 31
0.0
  0
LINE
  5
4FC
  8
5
  6
CONTINUOUS
 10
994.483277
 20
1195.242694
 30
0.0
 11
994.484277
 21
1169.176594
 31
0.0
  0
LINE
  5
4FD
  8
5
  6
CONTINUOUS
 10
1010.362277
 20
1195.243294
 30
0.0
 11
1010.362277
 21
1169.176994
 31
0.0
  0
LINE
  5
4FE
  8
5
  6
CONTINUOUS
 10
994.484277
 20
1169.176594
 30
0.0
 11
1008.262277
 21
1169.176994
 31
0.0
  0
LINE
  5
4FF
  8
5
  6
CONTINUOUS
 10
1010.362277
 20
1169.176994
 30
0.0
 11
1015.164277
 21
1169.177194
 31
0.0
  0
LINE
  5
500
  8
5
  6
CONTINUOUS
 10
994.483277
 20
1195.242694
 30
0.0
 11
1008.262277
 21
1195.243294
 31
0.0
  0
LINE
  5
501
  8
5
  6
CONTINUOUS
 10
994.483277
 20
1197.342794
 30
0.0
 11
1008.261277
 21
1197.343194
 31
0.0
  0
ARC
  5
502
  8
5
  6
CONTINUOUS
 10
1013.178277
 20
1183.199794
 30
0.0
 40
16.83332
 50
2.745839
 51
45.68302
  0
ARC
  5
503
  8
5
  6
CONTINUOUS
 10
1015.163277
 20
1211.801294
 30
0.0
 40
10.43949
 50
0.001947
 51
90.00195
  0
LINE
  5
504
  8
5
  6
CONTINUOUS
 10
1008.261277
 20
1222.240494
 30
0.0
 11
994.482277
 21
1222.240094
 31
0.0
  0
LINE
  5
505
  8
5
  6
CONTINUOUS
 10
1015.163277
 20
1222.240794
 30
0.0
 11
1010.361277
 21
1222.240694
 31
0.0
  0
ARC
  5
57A
  8
5
  6
CONTINUOUS
 10
396.478203
 20
945.015576
 30
0.0
 40
11.783324
 50
57.16491
 51
82.74766
  0
ARC
  5
57B
  8
5
  6
CONTINUOUS
 10
364.526563
 20
945.014456
 30
0.0
 40
11.783324
 50
57.16493
 51
82.74766
  0
ARC
  5
57C
  8
5
  6
CONTINUOUS
 10
363.794153
 20
965.909316
 30
0.0
 40
9.46967
 50
283.5581
 51
354.7072
  0
LINE
  5
57D
  8
5
  6
CONTINUOUS
 10
362.554173
 20
972.343086
 30
0.0
 11
362.554733
 21
954.914976
 31
0.0
  0
LINE
  5
57E
  8
5
  6
CONTINUOUS
 10
361.084733
 20
954.914836
 30
0.0
 11
361.084173
 21
972.342946
 31
0.0
  0
LINE
  5
57F
  8
5
  6
CONTINUOUS
 10
351.439223
 20
972.342666
 30
0.0
 11
351.439783
 21
954.914626
 31
0.0
  0
LINE
  5
580
  8
5
  6
CONTINUOUS
 10
326.924313
 20
972.341896
 30
0.0
 11
326.924873
 21
954.913786
 31
0.0
  0
LINE
  5
581
  8
5
  6
CONTINUOUS
 10
337.200733
 20
954.914066
 30
0.0
 11
330.979343
 21
972.341966
 31
0.0
  0
LINE
  5
582
  8
5
  6
CONTINUOUS
 10
325.454943
 20
954.913646
 30
0.0
 11
325.454313
 21
972.341756
 31
0.0
  0
LINE
  5
583
  8
5
  6
CONTINUOUS
 10
321.399353
 20
972.341686
 30
0.0
 11
315.420793
 21
954.913366
 31
0.0
  0
LINE
  5
584
  8
5
  6
CONTINUOUS
 10
394.506303
 20
972.344206
 30
0.0
 11
394.507003
 21
954.916096
 31
0.0
  0
ARC
  5
585
  8
5
  6
CONTINUOUS
 10
395.746003
 20
965.910366
 30
0.0
 40
9.46967
 50
283.5581
 51
354.7072
  0
LINE
  5
586
  8
5
  6
CONTINUOUS
 10
383.391003
 20
972.343786
 30
0.0
 11
383.391703
 21
954.915676
 31
0.0
  0
LINE
  5
587
  8
5
  6
CONTINUOUS
 10
393.036303
 20
954.915956
 30
0.0
 11
393.036303
 21
972.344066
 31
0.0
  0
ARC
  5
588
  8
5
  6
CONTINUOUS
 10
365.916483
 20
945.578586
 30
0.0
 40
10.379943
 50
270.0019
 51
0.0019
  0
LINE
  5
589
  8
5
  6
CONTINUOUS
 10
372.758703
 20
953.445326
 30
0.0
 11
362.554733
 21
953.444976
 31
0.0
  0
LINE
  5
58A
  8
5
  6
CONTINUOUS
 10
326.925293
 20
942.727556
 30
0.0
 11
334.900743
 21
942.727766
 31
0.0
  0
LINE
  5
58B
  8
5
  6
CONTINUOUS
 10
337.725523
 20
953.444136
 30
0.0
 11
326.925013
 21
953.443716
 31
0.0
  0
LINE
  5
58C
  8
5
  6
CONTINUOUS
 10
326.924873
 20
954.913786
 30
0.0
 11
337.200733
 21
954.914066
 31
0.0
  0
LINE
  5
58D
  8
5
  6
CONTINUOUS
 10
314.916513
 20
953.443296
 30
0.0
 11
308.657323
 21
935.196746
 31
0.0
  0
LINE
  5
58E
  8
5
  6
CONTINUOUS
 10
308.657323
 20
935.196746
 30
0.0
 11
314.861353
 21
935.196956
 31
0.0
  0
LINE
  5
58F
  8
5
  6
CONTINUOUS
 10
326.925013
 20
953.443716
 30
0.0
 11
326.925293
 21
942.727556
 31
0.0
  0
LINE
  5
590
  8
5
  6
CONTINUOUS
 10
325.455363
 20
942.727416
 30
0.0
 11
325.454943
 21
953.443716
 31
0.0
  0
LINE
  5
591
  8
5
  6
CONTINUOUS
 10
317.444493
 20
942.727136
 30
0.0
 11
325.455363
 21
942.727416
 31
0.0
  0
LINE
  5
592
  8
5
  6
CONTINUOUS
 10
325.454943
 20
953.443716
 30
0.0
 11
314.916513
 21
953.443296
 31
0.0
  0
LINE
  5
593
  8
5
  6
CONTINUOUS
 10
315.420793
 20
954.913366
 30
0.0
 11
325.454943
 21
954.913646
 31
0.0
  0
LINE
  5
594
  8
5
  6
CONTINUOUS
 10
314.861353
 20
935.196956
 30
0.0
 11
317.444493
 21
942.727136
 31
0.0
  0
LINE
  5
595
  8
5
  6
CONTINUOUS
 10
361.084873
 20
953.444976
 30
0.0
 11
351.439853
 21
953.444556
 31
0.0
  0
LINE
  5
596
  8
5
  6
CONTINUOUS
 10
351.439783
 20
954.914626
 30
0.0
 11
361.084733
 21
954.914836
 31
0.0
  0
LINE
  5
597
  8
5
  6
CONTINUOUS
 10
351.440483
 20
935.198216
 30
0.0
 11
361.085363
 21
935.198496
 31
0.0
  0
LINE
  5
598
  8
5
  6
CONTINUOUS
 10
351.439853
 20
953.444556
 30
0.0
 11
351.440483
 21
935.198216
 31
0.0
  0
LINE
  5
599
  8
5
  6
CONTINUOUS
 10
334.900743
 20
942.727766
 30
0.0
 11
337.588813
 21
935.197726
 31
0.0
  0
LINE
  5
59A
  8
5
  6
CONTINUOUS
 10
344.239093
 20
935.197936
 30
0.0
 11
337.725523
 21
953.444136
 31
0.0
  0
LINE
  5
59B
  8
5
  6
CONTINUOUS
 10
337.588813
 20
935.197726
 30
0.0
 11
344.239093
 21
935.197936
 31
0.0
  0
LINE
  5
59C
  8
5
  6
CONTINUOUS
 10
362.555433
 20
935.198496
 30
0.0
 11
365.916833
 21
935.198636
 31
0.0
  0
LINE
  5
59D
  8
5
  6
CONTINUOUS
 10
362.554733
 20
953.444976
 30
0.0
 11
362.555433
 21
935.198496
 31
0.0
  0
LINE
  5
59E
  8
5
  6
CONTINUOUS
 10
361.085363
 20
935.198496
 30
0.0
 11
361.084873
 21
953.444976
 31
0.0
  0
LINE
  5
59F
  8
5
  6
CONTINUOUS
 10
362.554733
 20
954.914976
 30
0.0
 11
370.915813
 21
954.915256
 31
0.0
  0
LINE
  5
5A0
  8
5
  6
CONTINUOUS
 10
383.391703
 20
953.445606
 30
0.0
 11
393.037003
 21
953.446026
 31
0.0
  0
LINE
  5
5A1
  8
5
  6
CONTINUOUS
 10
383.391703
 20
954.915676
 30
0.0
 11
393.036303
 21
954.915956
 31
0.0
  0
LINE
  5
5A2
  8
5
  6
CONTINUOUS
 10
383.392403
 20
935.199336
 30
0.0
 11
393.037003
 21
935.199616
 31
0.0
  0
ARC
  5
5A3
  8
5
  6
CONTINUOUS
 10
364.526563
 20
945.014456
 30
0.0
 40
11.783324
 50
2.745839
 51
45.68318
  0
LINE
  5
5A4
  8
5
  6
CONTINUOUS
 10
383.391703
 20
953.445606
 30
0.0
 11
383.392403
 21
935.199336
 31
0.0
  0
LINE
  5
5A5
  8
5
  6
CONTINUOUS
 10
404.710903
 20
953.446306
 30
0.0
 11
394.507003
 21
953.446026
 31
0.0
  0
LINE
  5
5A6
  8
5
  6
CONTINUOUS
 10
394.507003
 20
954.916096
 30
0.0
 11
402.867803
 21
954.916306
 31
0.0
  0
ARC
  5
5A7
  8
5
  6
CONTINUOUS
 10
396.478203
 20
945.015576
 30
0.0
 40
11.783324
 50
2.745839
 51
45.68302
  0
LINE
  5
5A8
  8
5
  6
CONTINUOUS
 10
394.507003
 20
935.199616
 30
0.0
 11
397.868403
 21
935.199756
 31
0.0
  0
ARC
  5
5A9
  8
5
  6
CONTINUOUS
 10
397.868403
 20
945.579706
 30
0.0
 40
10.379943
 50
270.0019
 51
0.0019
  0
LINE
  5
5AA
  8
5
  6
CONTINUOUS
 10
394.507003
 20
953.446026
 30
0.0
 11
394.507003
 21
935.199616
 31
0.0
  0
LINE
  5
5AB
  8
5
  6
CONTINUOUS
 10
393.037003
 20
935.199616
 30
0.0
 11
393.037003
 21
953.446026
 31
0.0
  0
ARC
  5
5AC
  8
5
  6
CONTINUOUS
 10
365.915783
 20
965.035506
 30
0.0
 40
7.307643
 50
0.001947
 51
90.00195
  0
LINE
  5
5AD
  8
5
  6
CONTINUOUS
 10
330.979343
 20
972.341966
 30
0.0
 11
326.924313
 21
972.341896
 31
0.0
  0
LINE
  5
5AE
  8
5
  6
CONTINUOUS
 10
325.454313
 20
972.341756
 30
0.0
 11
321.399353
 21
972.341686
 31
0.0
  0
LINE
  5
5AF
  8
5
  6
CONTINUOUS
 10
361.084173
 20
972.342946
 30
0.0
 11
351.439223
 21
972.342666
 31
0.0
  0
LINE
  5
5B0
  8
5
  6
CONTINUOUS
 10
365.915573
 20
972.343156
 30
0.0
 11
362.554173
 21
972.343086
 31
0.0
  0
LINE
  5
5B1
  8
5
  6
CONTINUOUS
 10
393.036303
 20
972.344066
 30
0.0
 11
383.391003
 21
972.343786
 31
0.0
  0
ARC
  5
5B2
  8
5
  6
CONTINUOUS
 10
397.867703
 20
965.036626
 30
0.0
 40
7.307643
 50
0.001947
 51
90.00195
  0
LINE
  5
5B3
  8
5
  6
CONTINUOUS
 10
397.867703
 20
972.344276
 30
0.0
 11
394.506303
 21
972.344206
 31
0.0
  0
ARC
  5
5B4
  8
5
  6
CONTINUOUS
 10
1818.256848
 20
1225.188537
 30
0.0
 40
11.783324
 50
57.16491
 51
82.74766
  0
ARC
  5
5B5
  8
5
  6
CONTINUOUS
 10
1786.305208
 20
1225.187417
 30
0.0
 40
11.783324
 50
57.16493
 51
82.74766
  0
ARC
  5
5B6
  8
5
  6
CONTINUOUS
 10
1785.572798
 20
1246.082277
 30
0.0
 40
9.46967
 50
283.5581
 51
354.7072
  0
LINE
  5
5B7
  8
5
  6
CONTINUOUS
 10
1784.332818
 20
1252.516047
 30
0.0
 11
1784.333378
 21
1235.087937
 31
0.0
  0
LINE
  5
5B8
  8
5
  6
CONTINUOUS
 10
1782.863378
 20
1235.087797
 30
0.0
 11
1782.862818
 21
1252.515907
 31
0.0
  0
LINE
  5
5B9
  8
5
  6
CONTINUOUS
 10
1773.217868
 20
1252.515627
 30
0.0
 11
1773.218428
 21
1235.087587
 31
0.0
  0
LINE
  5
5BA
  8
5
  6
CONTINUOUS
 10
1748.702958
 20
1252.514857
 30
0.0
 11
1748.703518
 21
1235.086747
 31
0.0
  0
LINE
  5
5BB
  8
5
  6
CONTINUOUS
 10
1758.979378
 20
1235.087027
 30
0.0
 11
1752.757988
 21
1252.514927
 31
0.0
  0
LINE
  5
5BC
  8
5
  6
CONTINUOUS
 10
1747.233588
 20
1235.086607
 30
0.0
 11
1747.232958
 21
1252.514717
 31
0.0
  0
LINE
  5
5BD
  8
5
  6
CONTINUOUS
 10
1743.177998
 20
1252.514647
 30
0.0
 11
1737.199438
 21
1235.086327
 31
0.0
  0
LINE
  5
5BE
  8
5
  6
CONTINUOUS
 10
1816.284948
 20
1252.517167
 30
0.0
 11
1816.285648
 21
1235.089057
 31
0.0
  0
ARC
  5
5BF
  8
5
  6
CONTINUOUS
 10
1817.524648
 20
1246.083327
 30
0.0
 40
9.46967
 50
283.5581
 51
354.7072
  0
LINE
  5
5C0
  8
5
  6
CONTINUOUS
 10
1805.169648
 20
1252.516747
 30
0.0
 11
1805.170348
 21
1235.088637
 31
0.0
  0
LINE
  5
5C1
  8
5
  6
CONTINUOUS
 10
1814.814948
 20
1235.088917
 30
0.0
 11
1814.814948
 21
1252.517027
 31
0.0
  0
ARC
  5
5C2
  8
5
  6
CONTINUOUS
 10
1787.695128
 20
1225.751547
 30
0.0
 40
10.379943
 50
270.0019
 51
0.0019
  0
LINE
  5
5C3
  8
5
  6
CONTINUOUS
 10
1794.537348
 20
1233.618287
 30
0.0
 11
1784.333378
 21
1233.617937
 31
0.0
  0
LINE
  5
5C4
  8
5
  6
CONTINUOUS
 10
1748.703938
 20
1222.900517
 30
0.0
 11
1756.679388
 21
1222.900727
 31
0.0
  0
LINE
  5
5C5
  8
5
  6
CONTINUOUS
 10
1759.504168
 20
1233.617097
 30
0.0
 11
1748.703658
 21
1233.616677
 31
0.0
  0
LINE
  5
5C6
  8
5
  6
CONTINUOUS
 10
1748.703518
 20
1235.086747
 30
0.0
 11
1758.979378
 21
1235.087027
 31
0.0
  0
LINE
  5
5C7
  8
5
  6
CONTINUOUS
 10
1736.695158
 20
1233.616257
 30
0.0
 11
1730.435968
 21
1215.369707
 31
0.0
  0
LINE
  5
5C8
  8
5
  6
CONTINUOUS
 10
1730.435968
 20
1215.369707
 30
0.0
 11
1736.639998
 21
1215.369917
 31
0.0
  0
LINE
  5
5C9
  8
5
  6
CONTINUOUS
 10
1748.703658
 20
1233.616677
 30
0.0
 11
1748.703938
 21
1222.900517
 31
0.0
  0
LINE
  5
5CA
  8
5
  6
CONTINUOUS
 10
1747.234008
 20
1222.900377
 30
0.0
 11
1747.233588
 21
1233.616677
 31
0.0
  0
LINE
  5
5CB
  8
5
  6
CONTINUOUS
 10
1739.223138
 20
1222.900097
 30
0.0
 11
1747.234008
 21
1222.900377
 31
0.0
  0
LINE
  5
5CC
  8
5
  6
CONTINUOUS
 10
1747.233588
 20
1233.616677
 30
0.0
 11
1736.695158
 21
1233.616257
 31
0.0
  0
LINE
  5
5CD
  8
5
  6
CONTINUOUS
 10
1737.199438
 20
1235.086327
 30
0.0
 11
1747.233588
 21
1235.086607
 31
0.0
  0
LINE
  5
5CE
  8
5
  6
CONTINUOUS
 10
1736.639998
 20
1215.369917
 30
0.0
 11
1739.223138
 21
1222.900097
 31
0.0
  0
LINE
  5
5CF
  8
5
  6
CONTINUOUS
 10
1782.863518
 20
1233.617937
 30
0.0
 11
1773.218498
 21
1233.617517
 31
0.0
  0
LINE
  5
5D0
  8
5
  6
CONTINUOUS
 10
1773.218428
 20
1235.087587
 30
0.0
 11
1782.863378
 21
1235.087797
 31
0.0
  0
LINE
  5
5D1
  8
5
  6
CONTINUOUS
 10
1773.219128
 20
1215.371177
 30
0.0
 11
1782.864008
 21
1215.371457
 31
0.0
  0
LINE
  5
5D2
  8
5
  6
CONTINUOUS
 10
1773.218498
 20
1233.617517
 30
0.0
 11
1773.219128
 21
1215.371177
 31
0.0
  0
LINE
  5
5D3
  8
5
  6
CONTINUOUS
 10
1756.679388
 20
1222.900727
 30
0.0
 11
1759.367458
 21
1215.370687
 31
0.0
  0
LINE
  5
5D4
  8
5
  6
CONTINUOUS
 10
1766.017738
 20
1215.370897
 30
0.0
 11
1759.504168
 21
1233.617097
 31
0.0
  0
LINE
  5
5D5
  8
5
  6
CONTINUOUS
 10
1759.367458
 20
1215.370687
 30
0.0
 11
1766.017738
 21
1215.370897
 31
0.0
  0
LINE
  5
5D6
  8
5
  6
CONTINUOUS
 10
1784.334078
 20
1215.371457
 30
0.0
 11
1787.695478
 21
1215.371597
 31
0.0
  0
LINE
  5
5D7
  8
5
  6
CONTINUOUS
 10
1784.333378
 20
1233.617937
 30
0.0
 11
1784.334078
 21
1215.371457
 31
0.0
  0
LINE
  5
5D8
  8
5
  6
CONTINUOUS
 10
1782.864008
 20
1215.371457
 30
0.0
 11
1782.863518
 21
1233.617937
 31
0.0
  0
LINE
  5
5D9
  8
5
  6
CONTINUOUS
 10
1784.333378
 20
1235.087937
 30
0.0
 11
1792.694458
 21
1235.088217
 31
0.0
  0
LINE
  5
5DA
  8
5
  6
CONTINUOUS
 10
1805.170348
 20
1233.618567
 30
0.0
 11
1814.815648
 21
1233.618987
 31
0.0
  0
LINE
  5
5DB
  8
5
  6
CONTINUOUS
 10
1805.170348
 20
1235.088637
 30
0.0
 11
1814.814948
 21
1235.088917
 31
0.0
  0
LINE
  5
5DC
  8
5
  6
CONTINUOUS
 10
1805.171048
 20
1215.372297
 30
0.0
 11
1814.815648
 21
1215.372577
 31
0.0
  0
ARC
  5
5DD
  8
5
  6
CONTINUOUS
 10
1786.305208
 20
1225.187417
 30
0.0
 40
11.783324
 50
2.745839
 51
45.68318
  0
LINE
  5
5DE
  8
5
  6
CONTINUOUS
 10
1805.170348
 20
1233.618567
 30
0.0
 11
1805.171048
 21
1215.372297
 31
0.0
  0
LINE
  5
5DF
  8
5
  6
CONTINUOUS
 10
1826.489548
 20
1233.619267
 30
0.0
 11
1816.285648
 21
1233.618987
 31
0.0
  0
LINE
  5
5E0
  8
5
  6
CONTINUOUS
 10
1816.285648
 20
1235.089057
 30
0.0
 11
1824.646448
 21
1235.089267
 31
0.0
  0
ARC
  5
5E1
  8
5
  6
CONTINUOUS
 10
1818.256848
 20
1225.188537
 30
0.0
 40
11.783324
 50
2.745839
 51
45.68302
  0
LINE
  5
5E2
  8
5
  6
CONTINUOUS
 10
1816.285648
 20
1215.372577
 30
0.0
 11
1819.647048
 21
1215.372717
 31
0.0
  0
ARC
  5
5E3
  8
5
  6
CONTINUOUS
 10
1819.647048
 20
1225.752667
 30
0.0
 40
10.379943
 50
270.0019
 51
0.0019
  0
LINE
  5
5E4
  8
5
  6
CONTINUOUS
 10
1816.285648
 20
1233.618987
 30
0.0
 11
1816.285648
 21
1215.372577
 31
0.0
  0
LINE
  5
5E5
  8
5
  6
CONTINUOUS
 10
1814.815648
 20
1215.372577
 30
0.0
 11
1814.815648
 21
1233.618987
 31
0.0
  0
ARC
  5
5E6
  8
5
  6
CONTINUOUS
 10
1787.694428
 20
1245.208467
 30
0.0
 40
7.307643
 50
0.001947
 51
90.00195
  0
LINE
  5
5E7
  8
5
  6
CONTINUOUS
 10
1752.757988
 20
1252.514927
 30
0.0
 11
1748.702958
 21
1252.514857
 31
0.0
  0
LINE
  5
5E8
  8
5
  6
CONTINUOUS
 10
1747.232958
 20
1252.514717
 30
0.0
 11
1743.177998
 21
1252.514647
 31
0.0
  0
LINE
  5
5E9
  8
5
  6
CONTINUOUS
 10
1782.862818
 20
1252.515907
 30
0.0
 11
1773.217868
 21
1252.515627
 31
0.0
  0
LINE
  5
5EA
  8
5
  6
CONTINUOUS
 10
1787.694218
 20
1252.516117
 30
0.0
 11
1784.332818
 21
1252.516047
 31
0.0
  0
LINE
  5
5EB
  8
5
  6
CONTINUOUS
 10
1814.814948
 20
1252.517027
 30
0.0
 11
1805.169648
 21
1252.516747
 31
0.0
  0
ARC
  5
5EC
  8
5
  6
CONTINUOUS
 10
1819.646348
 20
1245.209587
 30
0.0
 40
7.307643
 50
0.001947
 51
90.00195
  0
LINE
  5
5ED
  8
5
  6
CONTINUOUS
 10
1819.646348
 20
1252.517237
 30
0.0
 11
1816.284948
 21
1252.517167
 31
0.0
  0
INSERT
  5
612
  8
0
  6
CONTINUOUS
  2
A$C27E33DB7
 10
211.332161
 20
842.147212
 30
0.0
  0
ENDSEC
  0
EOF
