  0
SECTION
  2
HEADER
  9
$ACADVER
  1
AC1009
  9
$DWGCODEPAGE
  3
iso8859-1
  9
$INSBASE
 10
0.0
 20
0.0
 30
0.0
  9
$EXTMIN
 10
1.0E20
 20
1.0E20
  9
$EXTMAX
 10
-1.0E20
 20
-1.0E20
  9
$LIMMIN
 10
0.0
 20
0.0
  9
$LIMMAX
 10
12.0
 20
9.0
  9
$ORTHOMODE
 70
     0
  9
$REGENMODE
 70
     1
  9
$FILLMODE
 70
     1
  9
$QTEXTMODE
 70
     0
  9
$MIRRTEXT
 70
     1
  9
$DRAGMODE
 70
     2
  9
$LTSCALE
 40
15.0
  9
$OSMODE
 70
     0
  9
$ATTMODE
 70
     1
  9
$TEXTSIZE
 40
0.2
  9
$TRACEWID
 40
0.05
  9
$TEXTSTYLE
  7
STANDARD
  9
$CLAYER
  8
0
  9
$CELTYPE
  6
DASHED
  9
$CECOLOR
 62
   256
  9
$DIMSCALE
 40
1.0
  9
$DIMASZ
 40
0.18
  9
$DIMEXO
 40
0.0625
  9
$DIMDLI
 40
0.38
  9
$DIMRND
 40
0.0
  9
$DIMDLE
 40
0.0
  9
$DIMEXE
 40
0.18
  9
$DIMTP
 40
0.0
  9
$DIMTM
 40
0.0
  9
$DIMTXT
 40
0.18
  9
$DIMCEN
 40
0.09
  9
$DIMTSZ
 40
0.0
  9
$DIMTOL
 70
     0
  9
$DIMLIM
 70
     0
  9
$DIMTIH
 70
     1
  9
$DIMTOH
 70
     1
  9
$DIMSE1
 70
     0
  9
$DIMSE2
 70
     0
  9
$DIMTAD
 70
     0
  9
$DIMZIN
 70
     0
  9
$DIMBLK
  1

  9
$DIMASO
 70
     1
  9
$DIMSHO
 70
     1
  9
$DIMPOST
  1

  9
$DIMAPOST
  1

  9
$DIMALT
 70
     0
  9
$DIMALTD
 70
     2
  9
$DIMALTF
 40
25.4
  9
$DIMLFAC
 40
1.0
  9
$DIMTOFL
 70
     0
  9
$DIMTVP
 40
0.0
  9
$DIMTIX
 70
     0
  9
$DIMSOXD
 70
     0
  9
$DIMSAH
 70
     0
  9
$DIMBLK1
  1

  9
$DIMBLK2
  1

  9
$DIMSTYLE
  2
STANDARD
  9
$DIMCLRD
 70
     0
  9
$DIMCLRE
 70
     0
  9
$DIMCLRT
 70
     0
  9
$DIMTFAC
 40
1.0
  9
$DIMGAP
 40
0.09
  9
$LUNITS
 70
     2
  9
$LUPREC
 70
     4
  9
$AXISMODE
 70
     0
  9
$AXISUNIT
 10
0.0
 20
0.0
  9
$SKETCHINC
 40
0.1
  9
$FILLETRAD
 40
0.0
  9
$AUNITS
 70
     0
  9
$AUPREC
 70
     0
  9
$MENU
  1
acad
  9
$ELEVATION
 40
0.0
  9
$PELEVATION
 40
0.0
  9
$THICKNESS
 40
0.0
  9
$LIMCHECK
 70
     0
  9
$BLIPMODE
 70
     1
  9
$CHAMFERA
 40
0.0
  9
$CHAMFERB
 40
0.0
  9
$SKPOLY
 70
     0
  9
$TDCREATE
 40
0.000000000
  9
$TDUPDATE
 40
0.000000000
  9
$TDINDWG
 40
0.0
  9
$TDUSRTIMER
 40
0.0
  9
$USRTIMER
 70
     1
  9
$ANGBASE
 50
0.0
  9
$ANGDIR
 70
     0
  9
$PDMODE
 70
     0
  9
$PDSIZE
 40
0.0
  9
$PLINEWID
 40
0.0
  9
$COORDS
 70
     1
  9
$SPLFRAME
 70
     0
  9
$SPLINETYPE
 70
     6
  9
$SPLINESEGS
 70
     8
  9
$ATTDIA
 70
     0
  9
$ATTREQ
 70
     1
  9
$HANDLING
 70
     1
  9
$HANDSEED
  5
   863
  9
$SURFTAB1
 70
     6
  9
$SURFTAB2
 70
     6
  9
$SURFTYPE
 70
     6
  9
$SURFU
 70
     6
  9
$SURFV
 70
     6
  9
$UCSNAME
  2

  9
$UCSORG
 10
0.0
 20
0.0
 30
0.0
  9
$UCSXDIR
 10
1.0
 20
0.0
 30
0.0
  9
$UCSYDIR
 10
0.0
 20
1.0
 30
0.0
  9
$PUCSNAME
  2

  9
$PUCSORG
 10
0.0
 20
0.0
 30
0.0
  9
$PUCSXDIR
 10
1.0
 20
0.0
 30
0.0
  9
$PUCSYDIR
 10
0.0
 20
1.0
 30
0.0
  9
$USERI1
 70
     0
  9
$USERI2
 70
     0
  9
$USERI3
 70
     0
  9
$USERI4
 70
     0
  9
$USERI5
 70
     0
  9
$USERR1
 40
0.0
  9
$USERR2
 40
0.0
  9
$USERR3
 40
0.0
  9
$USERR4
 40
0.0
  9
$USERR5
 40
0.0
  9
$WORLDVIEW
 70
     1
  9
$SHADEDGE
 70
     3
  9
$SHADEDIF
 70
    70
  9
$TILEMODE
 70
     1
  9
$MAXACTVP
 70
    16
  9
$PINSBASE
 10
0.0
 20
0.0
 30
0.0
  9
$PLIMCHECK
 70
     0
  9
$PEXTMIN
 10
1.0E20
 20
1.0E20
 30
1.0E20
  9
$PEXTMAX
 10
-1.0E20
 20
-1.0E20
 30
-1.0E20
  9
$PLIMMIN
 10
0.0
 20
0.0
  9
$PLIMMAX
 10
12.0
 20
9.0
  9
$UNITMODE
 70
     0
  9
$VISRETAIN
 70
     0
  0
ENDSEC
  0
SECTION
  2
TABLES
  0
TABLE
  2
VPORT
 70
     1
  0
VPORT
  2
*ACTIVE
 70
     0
 10
0.0
 20
0.0
 11
1.0
 21
1.0
 12
6.801242
 22
4.5
 13
0.0
 23
0.0
 14
1.0
 24
1.0
 15
0.0
 25
0.0
 16
0.0
 26
0.0
 36
1.0
 17
0.0
 27
0.0
 37
0.0
 40
9.0
 41
1.511387
 42
50.0
 43
0.0
 44
0.0
 50
0.0
 51
0.0
 71
     0
 72
   100
 73
     1
 74
     1
 75
     0
 76
     0
 77
     0
 78
     0
  0
ENDTAB
  0
TABLE
  2
LTYPE
 70
    41
  0
LTYPE
  2
BYBLOCK
 70
     0
  3

 72
    65
 73
     0
 40
0.0
  0
LTYPE
  2
BYLAYER
 70
     0
  3

 72
    65
 73
     0
 40
0.0
  0
LTYPE
  2
CONTINUOUS
 70
     0
  3
Solid line
 72
    65
 73
     0
 40
0.0
  0
LTYPE
  2
BORDER
 70
    64
  3
__ __ . __ __ . __ __ . __ __ . __ __ . __ __ .
 72
    65
 73
     6
 40
1.75
 49
0.5
 49
-0.25
 49
0.5
 49
-0.25
 49
0.0
 49
-0.25
  0
LTYPE
  2
BORDER2
 70
    64
  3
__.__.__.__.__.__.__.__.__.__.__.__.__.__.__.__
 72
    65
 73
     6
 40
0.875
 49
0.25
 49
-0.125
 49
0.25
 49
-0.125
 49
0.0
 49
-0.125
  0
LTYPE
  2
BORDERX2
 70
    64
  3
____  ____  .  ____  ____  .  ____  ____  .  __
 72
    65
 73
     6
 40
3.5
 49
1.0
 49
-0.5
 49
1.0
 49
-0.5
 49
0.0
 49
-0.5
  0
LTYPE
  2
CENTER
 70
    64
  3
____ _ ____ _ ____ _ ____ _ ____ _ ____ _ ____
 72
    65
 73
     4
 40
2.0
 49
1.25
 49
-0.25
 49
0.25
 49
-0.25
  0
LTYPE
  2
CENTER2
 70
    64
  3
___ _ ___ _ ___ _ ___ _ ___ _ ___ _ ___ _ ___ _
 72
    65
 73
     4
 40
1.125
 49
0.75
 49
-0.125
 49
0.125
 49
-0.125
  0
LTYPE
  2
CENTERX2
 70
    64
  3
________  __  ________  __  ________  __  _____
 72
    65
 73
     4
 40
4.0
 49
2.5
 49
-0.5
 49
0.5
 49
-0.5
  0
LTYPE
  2
DASHDOT
 70
    64
  3
__ . __ . __ . __ . __ . __ . __ . __ . __ . __
 72
    65
 73
     4
 40
1.0
 49
0.5
 49
-0.25
 49
0.0
 49
-0.25
  0
LTYPE
  2
DASHDOT2
 70
    64
  3
_._._._._._._._._._._._._._._._._._._._._._._._
 72
    65
 73
     4
 40
0.5
 49
0.25
 49
-0.125
 49
0.0
 49
-0.125
  0
LTYPE
  2
DASHDOTX2
 70
    64
  3
____  .  ____  .  ____  .  ____  .  ____  .  __
 72
    65
 73
     4
 40
2.0
 49
1.0
 49
-0.5
 49
0.0
 49
-0.5
  0
LTYPE
  2
DASHED
 70
    64
  3
__ __ __ __ __ __ __ __ __ __ __ __ __ __ __ __
 72
    65
 73
     2
 40
0.75
 49
0.5
 49
-0.25
  0
LTYPE
  2
DASHED2
 70
    64
  3
_ _ _ _ _ _ _ _ _ _ _ _ _ _ _ _ _ _ _ _ _ _ _ _
 72
    65
 73
     2
 40
0.375
 49
0.25
 49
-0.125
  0
LTYPE
  2
DASHEDX2
 70
    64
  3
____  ____  ____  ____  ____  ____  ____  ____
 72
    65
 73
     2
 40
1.5
 49
1.0
 49
-0.5
  0
LTYPE
  2
DIVIDE
 70
    64
  3
____ . . ____ . . ____ . . ____ . . ____ . . __
 72
    65
 73
     6
 40
1.25
 49
0.5
 49
-0.25
 49
0.0
 49
-0.25
 49
0.0
 49
-0.25
  0
LTYPE
  2
DIVIDE2
 70
    64
  3
__..__..__..__..__..__..__..__..__..__..__..__.
 72
    65
 73
     6
 40
0.625
 49
0.25
 49
-0.125
 49
0.0
 49
-0.125
 49
0.0
 49
-0.125
  0
LTYPE
  2
DIVIDEX2
 70
    64
  3
________  .  .  ________  .  .  ________  .  .
 72
    65
 73
     6
 40
2.5
 49
1.0
 49
-0.5
 49
0.0
 49
-0.5
 49
0.0
 49
-0.5
  0
LTYPE
  2
DOT
 70
    64
  3
. . . . . . . . . . . . . . . . . . . . . . . .
 72
    65
 73
     2
 40
0.25
 49
0.0
 49
-0.25
  0
LTYPE
  2
DOT2
 70
    64
  3
...............................................
 72
    65
 73
     2
 40
0.125
 49
0.0
 49
-0.125
  0
LTYPE
  2
DOTX2
 70
    64
  3
.  .  .  .  .  .  .  .  .  .  .  .  .  .  .  .
 72
    65
 73
     2
 40
0.5
 49
0.0
 49
-0.5
  0
LTYPE
  2
HIDDEN
 70
    64
  3
__ __ __ __ __ __ __ __ __ __ __ __ __ __ __ __
 72
    65
 73
     2
 40
0.375
 49
0.25
 49
-0.125
  0
LTYPE
  2
HIDDEN2
 70
    64
  3
_ _ _ _ _ _ _ _ _ _ _ _ _ _ _ _ _ _ _ _ _ _ _ _
 72
    65
 73
     2
 40
0.1875
 49
0.125
 49
-0.0625
  0
LTYPE
  2
HIDDENX2
 70
    64
  3
____ ____ ____ ____ ____ ____ ____ ____ ____ __
 72
    65
 73
     2
 40
0.75
 49
0.5
 49
-0.25
  0
LTYPE
  2
PHANTOM
 70
    64
  3
______  __  __  ______  __  __  ______  __  __
 72
    65
 73
     6
 40
2.5
 49
1.25
 49
-0.25
 49
0.25
 49
-0.25
 49
0.25
 49
-0.25
  0
LTYPE
  2
PHANTOM2
 70
    64
  3
___ _ _ ___ _ _ ___ _ _ ___ _ _ ___ _ _ ___ _ _
 72
    65
 73
     6
 40
1.25
 49
0.625
 49
-0.125
 49
0.125
 49
-0.125
 49
0.125
 49
-0.125
  0
LTYPE
  2
PHANTOMX2
 70
    64
  3
____________    ____    ____    ____________
 72
    65
 73
     6
 40
5.0
 49
2.5
 49
-0.5
 49
0.5
 49
-0.5
 49
0.5
 49
-0.5
  0
LTYPE
  2
ACAD_ISO02W100
 70
    64
  3
__ __ __ __ __ __ __ __ __ __ __ __ __ __ __ __
 72
    65
 73
     2
 40
15.0
 49
12.0
 49
-3.0
  0
LTYPE
  2
ACAD_ISO03W100
 70
    64
  3
__    __    __    __    __    __    __    __
 72
    65
 73
     2
 40
30.0
 49
12.0
 49
-18.0
  0
LTYPE
  2
ACAD_ISO04W100
 70
    64
  3
____ . ____ . ____ . ____ . ____ . ____ . ____
 72
    65
 73
     4
 40
30.5
 49
24.0
 49
-3.0
 49
0.5
 49
-3.0
  0
LTYPE
  2
ACAD_ISO05W100
 70
    64
  3
____ .. ____ .. ____ .. ____ .. ____ .. ____ ..
 72
    65
 73
     6
 40
34.0
 49
24.0
 49
-3.0
 49
0.5
 49
-3.0
 49
0.5
 49
-3.0
  0
LTYPE
  2
ACAD_ISO06W100
 70
    64
  3
____ ... ____ ... ____ ... ____ ... ____ ... __
 72
    65
 73
     8
 40
37.5
 49
24.0
 49
-3.0
 49
0.5
 49
-3.0
 49
0.5
 49
-3.0
 49
0.5
 49
-3.0
  0
LTYPE
  2
ACAD_ISO07W100
 70
    64
  3
. . . . . . . . . . . . . . . . . . . . . . . .
 72
    65
 73
     2
 40
3.5
 49
0.5
 49
-3.0
  0
LTYPE
  2
ACAD_ISO08W100
 70
    64
  3
____ __ ____ __ ____ __ ____ ____ __ __ ____ __
 72
    65
 73
     4
 40
36.0
 49
24.0
 49
-3.0
 49
6.0
 49
-3.0
  0
LTYPE
  2
ACAD_ISO09W100
 70
    64
  3
____ __ __ ____ __ __ ____ __ __ ____ __ __ ___
 72
    65
 73
     6
 40
45.0
 49
24.0
 49
-3.0
 49
6.0
 49
-3.0
 49
6.0
 49
-3.0
  0
LTYPE
  2
ACAD_ISO10W100
 70
    64
  3
__ . __ . __ . __ . __ . __ . __ . __ . __ . __
 72
    65
 73
     4
 40
18.5
 49
12.0
 49
-3.0
 49
0.5
 49
-3.0
  0
LTYPE
  2
ACAD_ISO11W100
 70
    64
  3
__ __ . __ __ . __ __ . __ __ . __ __ . __ __ .
 72
    65
 73
     6
 40
33.5
 49
12.0
 49
-3.0
 49
12.0
 49
-3.0
 49
0.5
 49
-3.0
  0
LTYPE
  2
ACAD_ISO12W100
 70
    64
  3
__ . . __ . . __ . . __ . . __ . . __ . . __ .
 72
    65
 73
     6
 40
22.0
 49
12.0
 49
-3.0
 49
0.5
 49
-3.0
 49
0.5
 49
-3.0
  0
LTYPE
  2
ACAD_ISO13W100
 70
    64
  3
__ __ . . __ __ . . __ __ . . __ __ . . __ __ .
 72
    65
 73
     8
 40
37.0
 49
12.0
 49
-3.0
 49
12.0
 49
-3.0
 49
0.5
 49
-3.0
 49
0.5
 49
-3.0
  0
LTYPE
  2
ACAD_ISO14W100
 70
    64
  3
__ . . . __ . . . __ . . . __ . . . __ . . . __
 72
    65
 73
     8
 40
25.5
 49
12.0
 49
-3.0
 49
0.5
 49
-3.0
 49
0.5
 49
-3.0
 49
0.5
 49
-3.0
  0
LTYPE
  2
ACAD_ISO15W100
 70
    64
  3
__ __ . . . __ __ . . . __ __ . . . __ __ . . .
 72
    65
 73
    10
 40
40.5
 49
12.0
 49
-3.0
 49
12.0
 49
-3.0
 49
0.5
 49
-3.0
 49
0.5
 49
-3.0
 49
0.5
 49
-3.0
  0
ENDTAB
  0
TABLE
  2
STYLE
 70
     4
  0
STYLE
  2
STANDARD
 70
    64
 40
0.0
 41
1.0
 50
0.0
 71
     0
 42
0.2
  3
txt
  4

  0
STYLE
  2
TOLERANCE
 70
    64
 40
0.0
 41
1.0
 50
0.0
 71
     0
 42
0.2
  3
../igesfont/iges1003.shx
  4

  0
STYLE
  2
ROMANS
 70
    64
 40
0.0
 41
1.0
 50
0.0
 71
     0
 42
0.2
  3
romans.shx
  4

  0
STYLE
  2
ROMANC
 70
    64
 40
0.0
 41
1.0
 50
0.0
 71
     0
 42
0.2
  3
romanc.shx
  4

  0
ENDTAB
  0
TABLE
  2
DIMSTYLE
 70
     2
  0
DIMSTYLE
  2
UNNAMED
 70
     0
  3

  4

  5

  6

  7

 40
1.0
 41
0.18
 42
0.0625
 43
0.38
 44
0.18
 45
0.0
 46
0.0
 47
0.0
 48
0.0
140
0.18
141
0.09
142
0.0
143
25.4
144
1.0
145
0.0
146
1.0
147
0.09
 71
     0
 72
     0
 73
     1
 74
     1
 75
     0
 76
     0
 77
     0
 78
     0
170
     0
171
     2
172
     0
173
     0
174
     0
175
     0
176
     0
177
     0
178
     0
  0
DIMSTYLE
  2
STANDARD
 70
     0
  3

  4

  5

  6

  7

 40
1.0
 41
0.18
 42
0.0625
 43
0.38
 44
0.18
 45
0.0
 46
0.0
 47
0.0
 48
0.0
140
0.18
141
0.09
142
0.0
143
25.4
144
1.0
145
0.0
146
1.0
147
0.09
 71
     0
 72
     0
 73
     1
 74
     1
 75
     0
 76
     0
 77
     0
 78
     0
170
     0
171
     2
172
     0
173
     0
174
     0
175
     0
176
     0
177
     0
178
     0
  0
ENDTAB
  0
TABLE
  2
LAYER
 70
     2
  0
LAYER
  2
0
 70
     0
 62
     7
  6
CONTINUOUS
  0
LAYER
  2
255
 70
     0
 62
     7
  6
CONTINUOUS
  0
ENDTAB
  0
ENDSEC
  0
SECTION
  2
BLOCKS
  0
BLOCK
  5
     B
  8
0
  6
CONTINUOUS
 62
     7
  2
*UDIM709
 70
    65
 10
0.0
 20
0.0
 30
0.0
  3
*UDIM709
  0
TEXT
  5
     C
  8
0
  6
CONTINUOUS
 62
     7
 10
136.76803037607
 20
-96.1256872512703
 30
0.0
 40
3.00000002980232
  1
7
 50
401.743212308633
 41
0.933333333333334
 72
     1
 11
136.590090338423
 21
-94.2741102445687
 31
0.0
 73
     2
  0
TEXT
  5
     D
  8
0
  6
CONTINUOUS
 62
     7
 10
134.417701170471
 20
-98.2229360891267
 30
0.0
 40
3.00000002980232
  1
Ø
 50
401.743212308633
 41
0.933333333333334
 72
     1
 11
134.239761132824
 21
-96.3713590824251
 31
0.0
 73
     2
  0
LINE
  5
     E
  8
0
  6
CONTINUOUS
 62
     7
 10
149.576285359414
 20
-86.0368461634136
 30
0.0
 11
135.083494455258
 21
-98.9690723420364
 31
0.0
  0
LINE
  5
     F
  8
0
  6
CONTINUOUS
 62
     7
 10
151.433846373816
 20
-83.6811154746942
 30
0.0
 11
149.576285359414
 21
-86.0368461634136
 31
0.0
  0
LINE
  5
    10
  8
0
  6
CONTINUOUS
 62
     7
 10
149.576285359414
 20
-86.0368461634136
 30
0.0
 11
152.127528974996
 21
-84.4585065250742
 31
0.0
  0
LINE
  5
    11
  8
0
  6
CONTINUOUS
 62
     7
 10
146.412985901575
 20
-89.5577150917121
 30
0.0
 11
148.270546915977
 21
-87.2019844029927
 31
0.0
  0
LINE
  5
    12
  8
0
  6
CONTINUOUS
 62
     7
 10
148.270546915977
 20
-87.2019844029927
 30
0.0
 11
145.719303300395
 21
-88.780324041332
 31
0.0
  0
ENDBLK
  5
    13
  8
0
  6
CONTINUOUS
 62
     7
  0
BLOCK
  5
    14
  8
0
  6
CONTINUOUS
 62
     7
  2
*UDIM710
 70
    65
 10
0.0
 20
0.0
 30
0.0
  3
*UDIM710
  0
TEXT
  5
    15
  8
0
  6
CONTINUOUS
 62
     7
 10
118.154380787753
 20
-73.0444153319786
 30
0.0
 40
3.00000002980232
  1
142
 50
449.999999844103
 41
0.933333333333333
 72
     1
 11
116.654380783439
 21
-69.1444152891636
 31
0.0
 73
     2
  0
LINE
  5
    16
  8
0
  6
CONTINUOUS
 62
     7
 10
146.298416137695
 20
-51.1194152832031
 30
0.0
 11
117.15438079834
 21
-51.1194152832031
 31
0.0
  0
LINE
  5
    17
  8
0
  6
CONTINUOUS
 62
     7
 10
146.298416137695
 20
-86.6194152832031
 30
0.0
 11
117.15438079834
 21
-86.6194152832031
 31
0.0
  0
LINE
  5
    18
  8
0
  6
CONTINUOUS
 62
     7
 10
119.15438079834
 20
-51.1194152832031
 30
0.0
 11
119.15438079834
 21
-86.6194152832031
 31
0.0
  0
LINE
  5
    19
  8
0
  6
CONTINUOUS
 62
     7
 10
119.675325228292
 20
-54.0738385604101
 30
0.0
 11
119.15438079834
 21
-51.1194152832031
 31
0.0
  0
LINE
  5
    1A
  8
0
  6
CONTINUOUS
 62
     7
 10
119.15438079834
 20
-51.1194152832031
 30
0.0
 11
118.633436368388
 21
-54.0738385604101
 31
0.0
  0
LINE
  5
    1B
  8
0
  6
CONTINUOUS
 62
     7
 10
118.633436368388
 20
-83.6649920059962
 30
0.0
 11
119.15438079834
 21
-86.6194152832031
 31
0.0
  0
LINE
  5
    1C
  8
0
  6
CONTINUOUS
 62
     7
 10
119.15438079834
 20
-86.6194152832031
 30
0.0
 11
119.675325228292
 21
-83.6649920059962
 31
0.0
  0
ENDBLK
  5
    1D
  8
0
  6
CONTINUOUS
 62
     7
  0
BLOCK
  5
    1E
  8
0
  6
CONTINUOUS
 62
     7
  2
*UDIM711
 70
    65
 10
0.0
 20
0.0
 30
0.0
  3
*UDIM711
  0
TEXT
  5
    1F
  8
0
  6
CONTINUOUS
 62
     7
 10
128.186075199984
 20
-73.0444153319786
 30
0.0
 40
3.00000002980232
  1
112
 50
449.999999844103
 41
0.933333333333333
 72
     1
 11
126.68607519567
 21
-69.1444152891636
 31
0.0
 73
     2
  0
LINE
  5
    20
  8
0
  6
CONTINUOUS
 62
     7
 10
143.923416137695
 20
-54.8694152832031
 30
0.0
 11
127.186075210571
 21
-54.8694152832031
 31
0.0
  0
LINE
  5
    21
  8
0
  6
CONTINUOUS
 62
     7
 10
143.923416137695
 20
-82.8694152832031
 30
0.0
 11
127.186075210571
 21
-82.8694152832031
 31
0.0
  0
LINE
  5
    22
  8
0
  6
CONTINUOUS
 62
     7
 10
129.186075210571
 20
-54.8694152832031
 30
0.0
 11
129.186075210571
 21
-82.8694152832031
 31
0.0
  0
LINE
  5
    23
  8
0
  6
CONTINUOUS
 62
     7
 10
129.707019640523
 20
-57.8238385604101
 30
0.0
 11
129.186075210571
 21
-54.8694152832031
 31
0.0
  0
LINE
  5
    24
  8
0
  6
CONTINUOUS
 62
     7
 10
129.186075210571
 20
-54.8694152832031
 30
0.0
 11
128.66513078062
 21
-57.8238385604101
 31
0.0
  0
LINE
  5
    25
  8
0
  6
CONTINUOUS
 62
     7
 10
128.66513078062
 20
-79.9149920059962
 30
0.0
 11
129.186075210571
 21
-82.8694152832031
 31
0.0
  0
LINE
  5
    26
  8
0
  6
CONTINUOUS
 62
     7
 10
129.186075210571
 20
-82.8694152832031
 30
0.0
 11
129.707019640523
 21
-79.9149920059962
 31
0.0
  0
ENDBLK
  5
    27
  8
0
  6
CONTINUOUS
 62
     7
  0
BLOCK
  5
    28
  8
0
  6
CONTINUOUS
 62
     7
  2
*UDIM712
 70
    65
 10
0.0
 20
0.0
 30
0.0
  3
*UDIM712
  0
TEXT
  5
    29
  8
0
  6
CONTINUOUS
 62
     7
 10
154.748416088918
 20
-30.1536483658729
 30
0.0
 40
3.00000002980232
  1
112
 50
359.999999844103
 41
0.933333333333333
 72
     1
 11
158.648416131735
 21
-28.6536483615637
 31
0.0
 73
     2
  0
LINE
  5
    2A
  8
0
  6
CONTINUOUS
 62
     7
 10
144.923416137695
 20
-53.8694152832031
 30
0.0
 11
144.923416137695
 21
-29.1536483764648
 31
0.0
  0
LINE
  5
    2B
  8
0
  6
CONTINUOUS
 62
     7
 10
172.923416137695
 20
-53.8694152832031
 30
0.0
 11
172.923416137695
 21
-29.1536483764648
 31
0.0
  0
LINE
  5
    2C
  8
0
  6
CONTINUOUS
 62
     7
 10
144.923416137695
 20
-31.1536483764648
 30
0.0
 11
172.923416137695
 21
-31.1536483764648
 31
0.0
  0
LINE
  5
    2D
  8
0
  6
CONTINUOUS
 62
     7
 10
147.877839414902
 20
-30.6327039465132
 30
0.0
 11
144.923416137695
 21
-31.1536483764648
 31
0.0
  0
LINE
  5
    2E
  8
0
  6
CONTINUOUS
 62
     7
 10
144.923416137695
 20
-31.1536483764648
 30
0.0
 11
147.877839414902
 21
-31.6745928064165
 31
0.0
  0
LINE
  5
    2F
  8
0
  6
CONTINUOUS
 62
     7
 10
169.968992860488
 20
-31.6745928064165
 30
0.0
 11
172.923416137695
 21
-31.1536483764648
 31
0.0
  0
LINE
  5
    30
  8
0
  6
CONTINUOUS
 62
     7
 10
172.923416137695
 20
-31.1536483764648
 30
0.0
 11
169.968992860488
 21
-30.6327039465132
 31
0.0
  0
ENDBLK
  5
    31
  8
0
  6
CONTINUOUS
 62
     7
  0
BLOCK
  5
    32
  8
0
  6
CONTINUOUS
 62
     7
  2
*UDIM713
 70
    65
 10
0.0
 20
0.0
 30
0.0
  3
*UDIM713
  0
TEXT
  5
    33
  8
0
  6
CONTINUOUS
 62
     7
 10
156.148416102826
 20
-38.2745418480687
 30
0.0
 40
3.00000002980232
  1
80
 50
359.999999844103
 41
0.933333333333333
 72
     1
 11
158.648416131735
 21
-36.7745418399572
 31
0.0
 73
     2
  0
LINE
  5
    34
  8
0
  6
CONTINUOUS
 62
     7
 10
148.923416137695
 20
-48.4944152832031
 30
0.0
 11
148.923416137695
 21
-37.2745418548584
 31
0.0
  0
LINE
  5
    35
  8
0
  6
CONTINUOUS
 62
     7
 10
168.923416137695
 20
-48.4944152832031
 30
0.0
 11
168.923416137695
 21
-37.2745418548584
 31
0.0
  0
LINE
  5
    36
  8
0
  6
CONTINUOUS
 62
     7
 10
148.923416137695
 20
-39.2745418548584
 30
0.0
 11
168.923416137695
 21
-39.2745418548584
 31
0.0
  0
LINE
  5
    37
  8
0
  6
CONTINUOUS
 62
     7
 10
151.877839414902
 20
-38.7535974249067
 30
0.0
 11
148.923416137695
 21
-39.2745418548584
 31
0.0
  0
LINE
  5
    38
  8
0
  6
CONTINUOUS
 62
     7
 10
148.923416137695
 20
-39.2745418548584
 30
0.0
 11
151.877839414902
 21
-39.7954862848101
 31
0.0
  0
LINE
  5
    39
  8
0
  6
CONTINUOUS
 62
     7
 10
165.968992860488
 20
-39.7954862848101
 30
0.0
 11
168.923416137695
 21
-39.2745418548584
 31
0.0
  0
LINE
  5
    3A
  8
0
  6
CONTINUOUS
 62
     7
 10
168.923416137695
 20
-39.2745418548584
 30
0.0
 11
165.968992860488
 21
-38.7535974249067
 31
0.0
  0
ENDBLK
  5
    3B
  8
0
  6
CONTINUOUS
 62
     7
  0
BLOCK
  5
    3C
  8
0
  6
CONTINUOUS
 62
     7
  2
*UDIM714
 70
    65
 10
0.0
 20
0.0
 30
0.0
  3
*UDIM714
  0
TEXT
  5
    3D
  8
0
  6
CONTINUOUS
 62
     7
 10
69.6476334690044
 20
-2.40705381752963
 30
0.0
 40
2.99999997871263
  1
12
 50
359.999999896069
 41
0.933333333333333
 72
     1
 11
72.1476334539783
 21
-0.90705383269561
 31
0.0
 73
     2
  0
TEXT
  5
    3E
  8
0
  6
CONTINUOUS
 62
     7
 10
66.8976334726942
 20
-2.40705382006212
 30
0.0
 40
2.99999997871263
  1
M
 50
359.999999896069
 41
0.933333333333333
 72
     1
 11
67.9976334676022
 21
-0.90705383269561
 31
0.0
 73
     2
  0
LINE
  5
    3F
  8
0
  6
CONTINUOUS
 62
     7
 10
84.3949010400176
 20
-9.3937209546566
 30
0.0
 11
84.3949010400176
 21
-1.40705382205192
 31
0.0
  0
LINE
  5
    40
  8
0
  6
CONTINUOUS
 62
     7
 10
80.1949007777572
 20
-9.3937209546566
 30
0.0
 11
80.1949007777572
 21
-1.40705382205192
 31
0.0
  0
LINE
  5
    41
  8
0
  6
CONTINUOUS
 62
     7
 10
84.3949010400176
 20
-3.40705382205192
 30
0.0
 11
66.8976334754075
 21
-3.40705382205192
 31
0.0
  0
LINE
  5
    42
  8
0
  6
CONTINUOUS
 62
     7
 10
87.3493243172246
 20
-2.88610939210026
 30
0.0
 11
84.3949010400176
 21
-3.40705382205192
 31
0.0
  0
LINE
  5
    43
  8
0
  6
CONTINUOUS
 62
     7
 10
84.3949010400176
 20
-3.40705382205192
 30
0.0
 11
87.3493243172246
 21
-3.92799825200359
 31
0.0
  0
LINE
  5
    44
  8
0
  6
CONTINUOUS
 62
     7
 10
77.2404775005502
 20
-3.92799825200359
 30
0.0
 11
80.1949007777572
 21
-3.40705382205192
 31
0.0
  0
LINE
  5
    45
  8
0
  6
CONTINUOUS
 62
     7
 10
80.1949007777572
 20
-3.40705382205192
 30
0.0
 11
77.2404775005502
 21
-2.88610939210026
 31
0.0
  0
ENDBLK
  5
    46
  8
0
  6
CONTINUOUS
 62
     7
  0
BLOCK
  5
    47
  8
0
  6
CONTINUOUS
 62
     7
  2
*UDIM715
 70
    65
 10
0.0
 20
0.0
 30
0.0
  3
*UDIM715
  0
TEXT
  5
    48
  8
0
  6
CONTINUOUS
 62
     7
 10
59.6043375686423
 20
-15.9687204571148
 30
0.0
 40
2.99999997871263
  1
100
 50
449.999999896069
 41
0.933333333333333
 72
     1
 11
58.1043375863359
 21
-12.0687204820769
 31
0.0
 73
     2
  0
LINE
  5
    49
  8
0
  6
CONTINUOUS
 62
     7
 10
91.7949002293945
 20
5.70627877116203
 30
0.0
 11
58.6043375756922
 21
5.70627877116203
 31
0.0
  0
LINE
  5
    4A
  8
0
  6
CONTINUOUS
 62
     7
 10
73.1518758633307
 20
-29.2937206327915
 30
0.0
 11
58.6043375756922
 21
-29.2937206327915
 31
0.0
  0
LINE
  5
    4B
  8
0
  6
CONTINUOUS
 62
     7
 10
60.6043375756922
 20
5.70627877116203
 30
0.0
 11
60.6043375756922
 21
-29.2937206327915
 31
0.0
  0
LINE
  5
    4C
  8
0
  6
CONTINUOUS
 62
     7
 10
61.1252820056438
 20
2.75185549395507
 30
0.0
 11
60.6043375756922
 21
5.70627877116203
 31
0.0
  0
LINE
  5
    4D
  8
0
  6
CONTINUOUS
 62
     7
 10
60.6043375756922
 20
5.70627877116203
 30
0.0
 11
60.0833931457405
 21
2.75185549395507
 31
0.0
  0
LINE
  5
    4E
  8
0
  6
CONTINUOUS
 62
     7
 10
60.0833931457405
 20
-26.3392973555846
 30
0.0
 11
60.6043375756922
 21
-29.2937206327915
 31
0.0
  0
LINE
  5
    4F
  8
0
  6
CONTINUOUS
 62
     7
 10
60.6043375756922
 20
-29.2937206327915
 30
0.0
 11
61.1252820056438
 21
-26.3392973555846
 31
0.0
  0
ENDBLK
  5
    50
  8
0
  6
CONTINUOUS
 62
     7
  0
BLOCK
  5
    51
  8
0
  6
CONTINUOUS
 62
     7
  2
*UDIM716
 70
    65
 10
0.0
 20
0.0
 30
0.0
  3
*UDIM716
  0
TEXT
  5
    52
  8
0
  6
CONTINUOUS
 62
     7
 10
69.554473681783
 20
-22.443720917064
 30
0.0
 40
2.99999997871263
  1
55
 50
449.999999896069
 41
0.933333333333333
 72
     1
 11
68.0544736969459
 21
-19.943720932092
 31
0.0
 73
     2
  0
LINE
  5
    53
  8
0
  6
CONTINUOUS
 62
     7
 10
79.5449007717967
 20
-10.0437209606171
 30
0.0
 11
68.5544736863022
 21
-10.0437209606171
 31
0.0
  0
LINE
  5
    54
  8
0
  6
CONTINUOUS
 62
     7
 10
73.1518758633307
 20
-29.2937206327915
 30
0.0
 11
68.5544736863022
 21
-29.2937206327915
 31
0.0
  0
LINE
  5
    55
  8
0
  6
CONTINUOUS
 62
     7
 10
70.5544736863022
 20
-10.0437209606171
 30
0.0
 11
70.5544736863022
 21
-29.2937206327915
 31
0.0
  0
LINE
  5
    56
  8
0
  6
CONTINUOUS
 62
     7
 10
71.0754181162539
 20
-12.998144237824
 30
0.0
 11
70.5544736863022
 21
-10.0437209606171
 31
0.0
  0
LINE
  5
    57
  8
0
  6
CONTINUOUS
 62
     7
 10
70.5544736863022
 20
-10.0437209606171
 30
0.0
 11
70.0335292563505
 21
-12.998144237824
 31
0.0
  0
LINE
  5
    58
  8
0
  6
CONTINUOUS
 62
     7
 10
70.0335292563505
 20
-26.3392973555846
 30
0.0
 11
70.5544736863022
 21
-29.2937206327915
 31
0.0
  0
LINE
  5
    59
  8
0
  6
CONTINUOUS
 62
     7
 10
70.5544736863022
 20
-29.2937206327915
 30
0.0
 11
71.0754181162539
 21
-26.3392973555846
 31
0.0
  0
ENDBLK
  5
    5A
  8
0
  6
CONTINUOUS
 62
     7
  0
BLOCK
  5
    5B
  8
0
  6
CONTINUOUS
 62
     7
  2
*UDIM717
 70
    65
 10
0.0
 20
0.0
 30
0.0
  3
*UDIM717
  0
TEXT
  5
    5C
  8
0
  6
CONTINUOUS
 62
     7
 10
131.47243784367
 20
-20.6062211222033
 30
0.0
 40
2.99999997871263
  1
81,5
 50
449.999999896069
 41
0.933333333333333
 72
     1
 11
129.972437863894
 21
-15.3062211570995
 31
0.0
 73
     2
  0
LINE
  5
    5D
  8
0
  6
CONTINUOUS
 62
     7
 10
99.394900134027
 20
-0.768721118569374
 30
0.0
 11
134.472437853251
 21
-0.768721118569374
 31
0.0
  0
LINE
  5
    5E
  8
0
  6
CONTINUOUS
 62
     7
 10
115.916921767041
 20
-29.2937206327915
 30
0.0
 11
134.472437853251
 21
-29.2937206327915
 31
0.0
  0
LINE
  5
    5F
  8
0
  6
CONTINUOUS
 62
     7
 10
132.472437853251
 20
-0.768721118569374
 30
0.0
 11
132.472437853251
 21
-29.2937206327915
 31
0.0
  0
LINE
  5
    60
  8
0
  6
CONTINUOUS
 62
     7
 10
132.993382283202
 20
-3.72314439577634
 30
0.0
 11
132.472437853251
 21
-0.768721118569374
 31
0.0
  0
LINE
  5
    61
  8
0
  6
CONTINUOUS
 62
     7
 10
132.472437853251
 20
-0.768721118569374
 30
0.0
 11
131.951493423299
 21
-3.72314439577634
 31
0.0
  0
LINE
  5
    62
  8
0
  6
CONTINUOUS
 62
     7
 10
131.951493423299
 20
-26.3392973555846
 30
0.0
 11
132.472437853251
 21
-29.2937206327915
 31
0.0
  0
LINE
  5
    63
  8
0
  6
CONTINUOUS
 62
     7
 10
132.472437853251
 20
-29.2937206327915
 30
0.0
 11
132.993382283202
 21
-26.3392973555846
 31
0.0
  0
ENDBLK
  5
    64
  8
0
  6
CONTINUOUS
 62
     7
  0
BLOCK
  5
    65
  8
0
  6
CONTINUOUS
 62
     7
  2
*UDIM718
 70
    65
 10
0.0
 20
0.0
 30
0.0
  3
*UDIM718
  0
TEXT
  5
    66
  8
0
  6
CONTINUOUS
 62
     7
 10
121.91165309438
 20
-43.0129852479121
 30
0.0
 40
2.99999997871263
  1
36,5
 50
449.999999896069
 41
0.933333333333333
 72
     1
 11
120.411653114604
 21
-37.7129852828083
 31
0.0
 73
     2
  0
LINE
  5
    67
  8
0
  6
CONTINUOUS
 62
     7
 10
111.644899925411
 20
-16.5187208503485
 30
0.0
 11
124.91165310396
 21
-16.5187208503485
 31
0.0
  0
LINE
  5
    68
  8
0
  6
CONTINUOUS
 62
     7
 10
115.916921767041
 20
-29.2937206327915
 30
0.0
 11
124.91165310396
 21
-29.2937206327915
 31
0.0
  0
LINE
  5
    69
  8
0
  6
CONTINUOUS
 62
     7
 10
122.91165310396
 20
-16.5187208503485
 30
0.0
 11
122.91165310396
 21
-43.0129852452006
 31
0.0
  0
LINE
  5
    6A
  8
0
  6
CONTINUOUS
 62
     7
 10
122.390708674009
 20
-13.5642975731415
 30
0.0
 11
122.91165310396
 21
-16.5187208503485
 31
0.0
  0
LINE
  5
    6B
  8
0
  6
CONTINUOUS
 62
     7
 10
122.91165310396
 20
-16.5187208503485
 30
0.0
 11
123.432597533912
 21
-13.5642975731415
 31
0.0
  0
LINE
  5
    6C
  8
0
  6
CONTINUOUS
 62
     7
 10
123.432597533912
 20
-32.2481439099985
 30
0.0
 11
122.91165310396
 21
-29.2937206327915
 31
0.0
  0
LINE
  5
    6D
  8
0
  6
CONTINUOUS
 62
     7
 10
122.91165310396
 20
-29.2937206327915
 30
0.0
 11
122.390708674009
 21
-32.2481439099985
 31
0.0
  0
ENDBLK
  5
    6E
  8
0
  6
CONTINUOUS
 62
     7
  0
BLOCK
  5
    6F
  8
0
  6
CONTINUOUS
 62
     7
  2
*UDIM719
 70
    65
 10
0.0
 20
0.0
 30
0.0
  3
*UDIM719
  0
TEXT
  5
    70
  8
0
  6
CONTINUOUS
 62
     7
 10
98.5030273678253
 20
15.1138382180757
 30
0.0
 40
2.99999997871263
  1
35
 50
359.999999896069
 41
0.933333333333333
 72
     1
 11
101.003027352799
 21
16.6138382029098
 31
0.0
 73
     2
  0
LINE
  5
    71
  8
0
  6
CONTINUOUS
 62
     7
 10
106.794899990976
 20
-6.46386760957232
 30
0.0
 11
106.794899990976
 21
16.1138382135534
 31
0.0
  0
LINE
  5
    72
  8
0
  6
CONTINUOUS
 62
     7
 10
94.5449001995921
 20
8.98554941209652
 30
0.0
 11
94.5449001995921
 21
16.1138382135534
 31
0.0
  0
LINE
  5
    73
  8
0
  6
CONTINUOUS
 62
     7
 10
106.794899990976
 20
14.1138382135534
 30
0.0
 11
94.5449001995921
 21
14.1138382135534
 31
0.0
  0
LINE
  5
    74
  8
0
  6
CONTINUOUS
 62
     7
 10
103.840476713769
 20
13.5928937836018
 30
0.0
 11
106.794899990976
 21
14.1138382135534
 31
0.0
  0
LINE
  5
    75
  8
0
  6
CONTINUOUS
 62
     7
 10
106.794899990976
 20
14.1138382135534
 30
0.0
 11
103.840476713769
 21
14.6347826435051
 31
0.0
  0
LINE
  5
    76
  8
0
  6
CONTINUOUS
 62
     7
 10
97.4993234767991
 20
14.6347826435051
 30
0.0
 11
94.5449001995921
 21
14.1138382135534
 31
0.0
  0
LINE
  5
    77
  8
0
  6
CONTINUOUS
 62
     7
 10
94.5449001995921
 20
14.1138382135534
 30
0.0
 11
97.4993234767991
 21
13.5928937836018
 31
0.0
  0
ENDBLK
  5
    78
  8
0
  6
CONTINUOUS
 62
     7
  0
BLOCK
  5
    79
  8
0
  6
CONTINUOUS
 62
     7
  2
*UDIM720
 70
    65
 10
0.0
 20
0.0
 30
0.0
  3
*UDIM720
  0
TEXT
  5
    7A
  8
0
  6
CONTINUOUS
 62
     7
 10
87.514617198316
 20
15.1138382180757
 30
0.0
 40
2.99999997871263
  1
35
 50
359.999999896069
 41
0.933333333333333
 72
     1
 11
90.0146171832899
 21
16.6138382029098
 31
0.0
 73
     2
  0
LINE
  5
    7B
  8
0
  6
CONTINUOUS
 62
     7
 10
82.2949010757804
 20
-6.42562647833056
 30
0.0
 11
82.2949010757804
 21
16.1138382135534
 31
0.0
  0
LINE
  5
    7C
  8
0
  6
CONTINUOUS
 62
     7
 10
94.5449001995921
 20
14.1138382135534
 30
0.0
 11
82.2949010757804
 21
14.1138382135534
 31
0.0
  0
LINE
  5
    7D
  8
0
  6
CONTINUOUS
 62
     7
 10
91.5904769223852
 20
13.5928937836018
 30
0.0
 11
94.5449001995921
 21
14.1138382135534
 31
0.0
  0
LINE
  5
    7E
  8
0
  6
CONTINUOUS
 62
     7
 10
94.5449001995921
 20
14.1138382135534
 30
0.0
 11
91.5904769223852
 21
14.6347826435051
 31
0.0
  0
LINE
  5
    7F
  8
0
  6
CONTINUOUS
 62
     7
 10
85.2493243529874
 20
14.6347826435051
 30
0.0
 11
82.2949010757804
 21
14.1138382135534
 31
0.0
  0
LINE
  5
    80
  8
0
  6
CONTINUOUS
 62
     7
 10
82.2949010757804
 20
14.1138382135534
 30
0.0
 11
85.2493243529874
 21
13.5928937836018
 31
0.0
  0
ENDBLK
  5
    81
  8
0
  6
CONTINUOUS
 62
     7
  0
BLOCK
  5
    82
  8
0
  6
CONTINUOUS
 62
     7
  2
*HATCH219
 70
    65
 10
0.0
 20
0.0
 30
0.0
  3
*HATCH219
  0
LINE
  5
    83
  8
0
  6
CONTINUOUS
 62
   210
 10
-10.7629547119141
 20
80.7665863037109
 30
0.0
 11
-7.99633836746216
 21
77.9999618530274
 31
0.0
  0
LINE
  5
    84
  8
0
  6
CONTINUOUS
 62
   210
 10
-8.75369358062744
 20
82.9999618530274
 30
0.0
 11
-4.76300573348999
 21
79.0092697143555
 31
0.0
  0
ENDBLK
  5
    85
  8
0
  6
CONTINUOUS
 62
     7
  0
BLOCK
  5
    86
  8
0
  6
CONTINUOUS
 62
     7
  2
*HATCH220
 70
    65
 10
0.0
 20
0.0
 30
0.0
  3
*HATCH220
  0
LINE
  5
    87
  8
0
  6
CONTINUOUS
 62
   210
 10
3.23699402809143
 20
81.6158676147461
 30
0.0
 11
6.8528938293457
 21
77.9999618530274
 31
0.0
  0
LINE
  5
    88
  8
0
  6
CONTINUOUS
 62
   210
 10
6.09554004669189
 20
82.9999618530274
 30
0.0
 11
11.095531463623
 21
77.9999618530274
 31
0.0
  0
LINE
  5
    89
  8
0
  6
CONTINUOUS
 62
   210
 10
10.3381776809692
 20
82.9999618530274
 30
0.0
 11
15.3381690979004
 21
77.9999618530274
 31
0.0
  0
LINE
  5
    8A
  8
0
  6
CONTINUOUS
 62
   210
 10
14.5808153152466
 20
82.9999618530274
 30
0.0
 11
19.5808067321777
 21
77.9999618530274
 31
0.0
  0
LINE
  5
    8B
  8
0
  6
CONTINUOUS
 62
   210
 10
18.8234539031982
 20
82.9999618530274
 30
0.0
 11
19.7282676696777
 21
82.0951461791992
 31
0.0
  0
ENDBLK
  5
    8C
  8
0
  6
CONTINUOUS
 62
     7
  0
BLOCK
  5
    8D
  8
0
  6
CONTINUOUS
 62
     7
  2
*HATCH221
 70
    65
 10
0.0
 20
0.0
 30
0.0
  3
*HATCH221
  0
LINE
  5
    8E
  8
0
  6
CONTINUOUS
 62
     3
 10
17.0864696502686
 20
102.999938964844
 30
0.0
 11
15.2370948791504
 21
101.150566101074
 31
0.0
  0
LINE
  5
    8F
  8
0
  6
CONTINUOUS
 62
     3
 10
18.1471290588379
 20
102.999938964844
 30
0.0
 11
14.2369937896729
 21
99.0898056030274
 31
0.0
  0
LINE
  5
    90
  8
0
  6
CONTINUOUS
 62
     3
 10
18.2369937896729
 20
100.968482971191
 30
0.0
 11
14.2369937896729
 21
96.9684829711914
 31
0.0
  0
LINE
  5
    91
  8
0
  6
CONTINUOUS
 62
     3
 10
18.2369937896729
 20
98.8471603393555
 30
0.0
 11
14.2369937896729
 21
94.8471603393555
 31
0.0
  0
LINE
  5
    92
  8
0
  6
CONTINUOUS
 62
     3
 10
18.2369937896729
 20
96.7258377075195
 30
0.0
 11
14.2369937896729
 21
92.7258377075195
 31
0.0
  0
LINE
  5
    93
  8
0
  6
CONTINUOUS
 62
     3
 10
18.2369937896729
 20
94.6045150756836
 30
0.0
 11
14.2369937896729
 21
90.6045150756836
 31
0.0
  0
LINE
  5
    94
  8
0
  6
CONTINUOUS
 62
     3
 10
18.2369937896729
 20
92.4831924438477
 30
0.0
 11
14.2369937896729
 21
88.4831924438477
 31
0.0
  0
LINE
  5
    95
  8
0
  6
CONTINUOUS
 62
     3
 10
18.2369937896729
 20
90.3618698120117
 30
0.0
 11
14.2369937896729
 21
86.3618698120117
 31
0.0
  0
LINE
  5
    96
  8
0
  6
CONTINUOUS
 62
     3
 10
18.2369937896729
 20
88.2405471801758
 30
0.0
 11
14.2369937896729
 21
84.2405471801758
 31
0.0
  0
LINE
  5
    97
  8
0
  6
CONTINUOUS
 62
     3
 10
18.2369937896729
 20
86.1192398071289
 30
0.0
 11
15.117714881897
 21
82.9999618530274
 31
0.0
  0
LINE
  5
    98
  8
0
  6
CONTINUOUS
 62
     3
 10
18.2369937896729
 20
83.997917175293
 30
0.0
 11
17.23903465271
 21
82.9999618530274
 31
0.0
  0
ENDBLK
  5
    99
  8
0
  6
CONTINUOUS
 62
     7
  0
BLOCK
  5
    9A
  8
0
  6
CONTINUOUS
 62
     7
  2
*HATCH222
 70
    65
 10
0.0
 20
0.0
 30
0.0
  3
*HATCH222
  0
LINE
  5
    9B
  8
0
  6
CONTINUOUS
 62
     3
 10
12.2390375137329
 20
77.9999618530274
 30
0.0
 11
10.2369937896729
 21
75.997917175293
 31
0.0
  0
LINE
  5
    9C
  8
0
  6
CONTINUOUS
 62
     3
 10
14.2369937896729
 20
77.8766021728516
 30
0.0
 11
10.2369937896729
 21
73.8766021728516
 31
0.0
  0
LINE
  5
    9D
  8
0
  6
CONTINUOUS
 62
     3
 10
14.2369937896729
 20
75.7552795410156
 30
0.0
 11
10.2369937896729
 21
71.7552795410156
 31
0.0
  0
LINE
  5
    9E
  8
0
  6
CONTINUOUS
 62
     3
 10
14.2369937896729
 20
73.6339569091797
 30
0.0
 11
10.2369937896729
 21
69.6339569091797
 31
0.0
  0
LINE
  5
    9F
  8
0
  6
CONTINUOUS
 62
     3
 10
14.2369937896729
 20
71.5126342773438
 30
0.0
 11
10.2369937896729
 21
67.5126342773438
 31
0.0
  0
LINE
  5
    A0
  8
0
  6
CONTINUOUS
 62
     3
 10
14.2369937896729
 20
69.3913116455078
 30
0.0
 11
10.2369937896729
 21
65.3913116455078
 31
0.0
  0
LINE
  5
    A1
  8
0
  6
CONTINUOUS
 62
     3
 10
14.2369937896729
 20
67.2699890136719
 30
0.0
 11
10.2369937896729
 21
63.2699890136719
 31
0.0
  0
LINE
  5
    A2
  8
0
  6
CONTINUOUS
 62
     3
 10
14.2369937896729
 20
65.148681640625
 30
0.0
 11
10.8553380966187
 21
61.7670249938965
 31
0.0
  0
LINE
  5
    A3
  8
0
  6
CONTINUOUS
 62
     3
 10
14.2369937896729
 20
63.0273590087891
 30
0.0
 11
13.7800302505493
 21
62.5703964233398
 31
0.0
  0
ENDBLK
  5
    A4
  8
0
  6
CONTINUOUS
 62
     7
  0
BLOCK
  5
    A5
  8
0
  6
CONTINUOUS
 62
     7
  2
*HATCH223
 70
    65
 10
0.0
 20
0.0
 30
0.0
  3
*HATCH223
  0
LINE
  5
    A6
  8
0
  6
CONTINUOUS
 62
     3
 10
167.826889038086
 20
-4.00005149841309
 30
0.0
 11
165.980621337891
 21
-5.84633255004883
 31
0.0
  0
LINE
  5
    A7
  8
0
  6
CONTINUOUS
 62
     3
 10
169.948211669922
 20
-4.00005149841309
 30
0.0
 11
167.948211669922
 21
-6.00005149841309
 31
0.0
  0
LINE
  5
    A8
  8
0
  6
CONTINUOUS
 62
     3
 10
172.069519042969
 20
-4.00005149841309
 30
0.0
 11
170.069519042969
 21
-6.00005149841309
 31
0.0
  0
LINE
  5
    A9
  8
0
  6
CONTINUOUS
 62
     3
 10
174.190826416016
 20
-4.00005149841309
 30
0.0
 11
172.190826416016
 21
-6.00005149841309
 31
0.0
  0
LINE
  5
    AA
  8
0
  6
CONTINUOUS
 62
     3
 10
176.312133789062
 20
-4.00005149841309
 30
0.0
 11
174.312133789063
 21
-6.00005149841309
 31
0.0
  0
LINE
  5
    AB
  8
0
  6
CONTINUOUS
 62
     3
 10
177.480621337891
 20
-4.95293474197388
 30
0.0
 11
176.433502197266
 21
-6.00005149841309
 31
0.0
  0
ENDBLK
  5
    AC
  8
0
  6
CONTINUOUS
 62
     7
  0
BLOCK
  5
    AD
  8
0
  6
CONTINUOUS
 62
     7
  2
*HATCH224
 70
    65
 10
0.0
 20
0.0
 30
0.0
  3
*HATCH224
  0
LINE
  5
    AE
  8
0
  6
CONTINUOUS
 62
     3
 10
43.7296600341797
 20
-4.00005149841309
 30
0.0
 11
42.4806251525879
 21
-5.24908351898193
 31
0.0
  0
LINE
  5
    AF
  8
0
  6
CONTINUOUS
 62
     3
 10
45.8509788513184
 20
-4.00005149841309
 30
0.0
 11
43.8509788513184
 21
-6.00005149841309
 31
0.0
  0
LINE
  5
    B0
  8
0
  6
CONTINUOUS
 62
     3
 10
47.9723014831543
 20
-4.00005149841309
 30
0.0
 11
45.9723014831543
 21
-6.00005149841309
 31
0.0
  0
LINE
  5
    B1
  8
0
  6
CONTINUOUS
 62
     3
 10
50.0936241149902
 20
-4.00005149841309
 30
0.0
 11
48.0936241149902
 21
-6.00005149841309
 31
0.0
  0
LINE
  5
    B2
  8
0
  6
CONTINUOUS
 62
     3
 10
52.2149467468262
 20
-4.00005149841309
 30
0.0
 11
50.2149467468262
 21
-6.00005149841309
 31
0.0
  0
LINE
  5
    B3
  8
0
  6
CONTINUOUS
 62
     3
 10
53.9806251525879
 20
-4.35568618774414
 30
0.0
 11
52.3362579345703
 21
-6.00005149841309
 31
0.0
  0
ENDBLK
  5
    B4
  8
0
  6
CONTINUOUS
 62
     7
  0
BLOCK
  5
    B5
  8
0
  6
CONTINUOUS
 62
     7
  2
*HATCH225
 70
    65
 10
0.0
 20
0.0
 30
0.0
  3
*HATCH225
  0
LINE
  5
    B6
  8
0
  6
CONTINUOUS
 62
     3
 10
-24.1525974273682
 20
-4.00005149841309
 30
0.0
 11
-25.3908443450928
 21
-5.23830080032349
 31
0.0
  0
LINE
  5
    B7
  8
0
  6
CONTINUOUS
 62
     3
 10
-22.0312747955322
 20
-4.00005149841309
 30
0.0
 11
-24.0312747955322
 21
-6.00005149841309
 31
0.0
  0
LINE
  5
    B8
  8
0
  6
CONTINUOUS
 62
     3
 10
-19.9099559783936
 20
-4.00005149841309
 30
0.0
 11
-21.9099559783936
 21
-6.00005149841309
 31
0.0
  0
LINE
  5
    B9
  8
0
  6
CONTINUOUS
 62
     3
 10
-17.7886371612549
 20
-4.00005149841309
 30
0.0
 11
-19.7886371612549
 21
-6.00005149841309
 31
0.0
  0
LINE
  5
    BA
  8
0
  6
CONTINUOUS
 62
     3
 10
-15.6673173904419
 20
-4.00005149841309
 30
0.0
 11
-17.6673183441162
 21
-6.00005149841309
 31
0.0
  0
LINE
  5
    BB
  8
0
  6
CONTINUOUS
 62
     3
 10
-13.5459966659546
 20
-4.00005149841309
 30
0.0
 11
-15.5459985733032
 21
-6.00005149841309
 31
0.0
  0
LINE
  5
    BC
  8
0
  6
CONTINUOUS
 62
     3
 10
-11.4246759414673
 20
-4.00005149841309
 30
0.0
 11
-13.4246778488159
 21
-6.00005149841309
 31
0.0
  0
LINE
  5
    BD
  8
0
  6
CONTINUOUS
 62
     3
 10
-9.30335521697998
 20
-4.00005149841309
 30
0.0
 11
-11.3033571243286
 21
-6.00005149841309
 31
0.0
  0
LINE
  5
    BE
  8
0
  6
CONTINUOUS
 62
     3
 10
-7.18203449249268
 20
-4.00005149841309
 30
0.0
 11
-9.18203639984131
 21
-6.00005149841309
 31
0.0
  0
LINE
  5
    BF
  8
0
  6
CONTINUOUS
 62
     3
 10
-5.06071376800537
 20
-4.00005149841309
 30
0.0
 11
-7.060715675354
 21
-6.00005149841309
 31
0.0
  0
LINE
  5
    C0
  8
0
  6
CONTINUOUS
 62
     3
 10
-2.93939328193665
 20
-4.00005149841309
 30
0.0
 11
-4.9393949508667
 21
-6.00005149841309
 31
0.0
  0
LINE
  5
    C1
  8
0
  6
CONTINUOUS
 62
     3
 10
-0.818073034286499
 20
-4.00005149841309
 30
0.0
 11
-2.81807422637939
 21
-6.00005149841309
 31
0.0
  0
LINE
  5
    C2
  8
0
  6
CONTINUOUS
 62
     3
 10
1.30324721336365
 20
-4.00005149841309
 30
0.0
 11
-0.696753740310669
 21
-6.00005149841309
 31
0.0
  0
LINE
  5
    C3
  8
0
  6
CONTINUOUS
 62
     3
 10
3.42456746101379
 20
-4.00005149841309
 30
0.0
 11
1.42456674575806
 21
-6.00005149841309
 31
0.0
  0
LINE
  5
    C4
  8
0
  6
CONTINUOUS
 62
     3
 10
5.54588794708252
 20
-4.00005149841309
 30
0.0
 11
3.54588747024536
 21
-6.00005149841309
 31
0.0
  0
LINE
  5
    C5
  8
0
  6
CONTINUOUS
 62
     3
 10
7.66720867156982
 20
-4.00005149841309
 30
0.0
 11
5.66720819473267
 21
-6.00005149841309
 31
0.0
  0
LINE
  5
    C6
  8
0
  6
CONTINUOUS
 62
     3
 10
9.78852939605713
 20
-4.00005149841309
 30
0.0
 11
7.78852891921997
 21
-6.00005149841309
 31
0.0
  0
LINE
  5
    C7
  8
0
  6
CONTINUOUS
 62
     3
 10
11.9098501205444
 20
-4.00005149841309
 30
0.0
 11
9.90984916687012
 21
-6.00005149841309
 31
0.0
  0
LINE
  5
    C8
  8
0
  6
CONTINUOUS
 62
     3
 10
14.0311708450317
 20
-4.00005149841309
 30
0.0
 11
12.0311698913574
 21
-6.00005149841309
 31
0.0
  0
LINE
  5
    C9
  8
0
  6
CONTINUOUS
 62
     3
 10
16.1524906158447
 20
-4.00005149841309
 30
0.0
 11
14.1524906158447
 21
-6.00005149841309
 31
0.0
  0
LINE
  5
    CA
  8
0
  6
CONTINUOUS
 62
     3
 10
18.2738094329834
 20
-4.00005149841309
 30
0.0
 11
16.273811340332
 21
-6.00005149841309
 31
0.0
  0
LINE
  5
    CB
  8
0
  6
CONTINUOUS
 62
     3
 10
20.3951282501221
 20
-4.00005149841309
 30
0.0
 11
18.3951301574707
 21
-6.00005149841309
 31
0.0
  0
LINE
  5
    CC
  8
0
  6
CONTINUOUS
 62
     3
 10
22.5164470672607
 20
-4.00005149841309
 30
0.0
 11
20.5164489746094
 21
-6.00005149841309
 31
0.0
  0
LINE
  5
    CD
  8
0
  6
CONTINUOUS
 62
     3
 10
24.6377658843994
 20
-4.00005149841309
 30
0.0
 11
22.637767791748
 21
-6.00005149841309
 31
0.0
  0
LINE
  5
    CE
  8
0
  6
CONTINUOUS
 62
     3
 10
26.7590847015381
 20
-4.00005149841309
 30
0.0
 11
24.7590866088867
 21
-6.00005149841309
 31
0.0
  0
LINE
  5
    CF
  8
0
  6
CONTINUOUS
 62
     3
 10
28.8804035186768
 20
-4.00005149841309
 30
0.0
 11
26.8804054260254
 21
-6.00005149841309
 31
0.0
  0
LINE
  5
    D0
  8
0
  6
CONTINUOUS
 62
     3
 10
31.0017223358154
 20
-4.00005149841309
 30
0.0
 11
29.0017242431641
 21
-6.00005149841309
 31
0.0
  0
LINE
  5
    D1
  8
0
  6
CONTINUOUS
 62
     3
 10
33.1230430603027
 20
-4.00005149841309
 30
0.0
 11
31.1230430603027
 21
-6.00005149841309
 31
0.0
  0
LINE
  5
    D2
  8
0
  6
CONTINUOUS
 62
     3
 10
35.2443656921387
 20
-4.00005149841309
 30
0.0
 11
33.2443656921387
 21
-6.00005149841309
 31
0.0
  0
LINE
  5
    D3
  8
0
  6
CONTINUOUS
 62
     3
 10
35.4806251525879
 20
-5.88512229919434
 30
0.0
 11
35.3656959533691
 21
-6.00005149841309
 31
0.0
  0
ENDBLK
  5
    D4
  8
0
  6
CONTINUOUS
 62
     7
  0
BLOCK
  5
    D5
  8
0
  6
CONTINUOUS
 62
     7
  2
*HATCH226
 70
    65
 10
0.0
 20
0.0
 30
0.0
  3
*HATCH226
  0
LINE
  5
    D6
  8
0
  6
CONTINUOUS
 62
     3
 10
185.858123779297
 20
-4.00005149841309
 30
0.0
 11
184.480621337891
 21
-5.37755584716797
 31
0.0
  0
LINE
  5
    D7
  8
0
  6
CONTINUOUS
 62
     3
 10
187.979446411133
 20
-4.00005149841309
 30
0.0
 11
185.979446411133
 21
-6.00005149841309
 31
0.0
  0
LINE
  5
    D8
  8
0
  6
CONTINUOUS
 62
     3
 10
190.10075378418
 20
-4.00005149841309
 30
0.0
 11
188.10075378418
 21
-6.00005149841309
 31
0.0
  0
LINE
  5
    D9
  8
0
  6
CONTINUOUS
 62
     3
 10
192.222061157227
 20
-4.00005149841309
 30
0.0
 11
190.222061157227
 21
-6.00005149841309
 31
0.0
  0
LINE
  5
    DA
  8
0
  6
CONTINUOUS
 62
     3
 10
194.343368530273
 20
-4.00005149841309
 30
0.0
 11
192.343368530273
 21
-6.00005149841309
 31
0.0
  0
LINE
  5
    DB
  8
0
  6
CONTINUOUS
 62
     3
 10
196.46467590332
 20
-4.00005149841309
 30
0.0
 11
194.46467590332
 21
-6.00005149841309
 31
0.0
  0
LINE
  5
    DC
  8
0
  6
CONTINUOUS
 62
     3
 10
198.585983276367
 20
-4.00005149841309
 30
0.0
 11
196.585983276367
 21
-6.00005149841309
 31
0.0
  0
LINE
  5
    DD
  8
0
  6
CONTINUOUS
 62
     3
 10
200.707290649414
 20
-4.00005149841309
 30
0.0
 11
198.707290649414
 21
-6.00005149841309
 31
0.0
  0
LINE
  5
    DE
  8
0
  6
CONTINUOUS
 62
     3
 10
202.828598022461
 20
-4.00005149841309
 30
0.0
 11
200.828598022461
 21
-6.00005149841309
 31
0.0
  0
LINE
  5
    DF
  8
0
  6
CONTINUOUS
 62
     3
 10
204.949905395508
 20
-4.00005149841309
 30
0.0
 11
202.949905395508
 21
-6.00005149841309
 31
0.0
  0
LINE
  5
    E0
  8
0
  6
CONTINUOUS
 62
     3
 10
207.071212768555
 20
-4.00005149841309
 30
0.0
 11
205.071212768555
 21
-6.00005149841309
 31
0.0
  0
LINE
  5
    E1
  8
0
  6
CONTINUOUS
 62
     3
 10
209.192520141602
 20
-4.00005149841309
 30
0.0
 11
207.192520141602
 21
-6.00005149841309
 31
0.0
  0
LINE
  5
    E2
  8
0
  6
CONTINUOUS
 62
     3
 10
211.313827514648
 20
-4.00005149841309
 30
0.0
 11
209.313827514648
 21
-6.00005149841309
 31
0.0
  0
LINE
  5
    E3
  8
0
  6
CONTINUOUS
 62
     3
 10
213.435134887695
 20
-4.00005149841309
 30
0.0
 11
211.435134887695
 21
-6.00005149841309
 31
0.0
  0
LINE
  5
    E4
  8
0
  6
CONTINUOUS
 62
     3
 10
215.556442260742
 20
-4.00005149841309
 30
0.0
 11
213.556442260742
 21
-6.00005149841309
 31
0.0
  0
LINE
  5
    E5
  8
0
  6
CONTINUOUS
 62
     3
 10
217.677749633789
 20
-4.00005149841309
 30
0.0
 11
215.677749633789
 21
-6.00005149841309
 31
0.0
  0
LINE
  5
    E6
  8
0
  6
CONTINUOUS
 62
     3
 10
219.799057006836
 20
-4.00005149841309
 30
0.0
 11
217.799057006836
 21
-6.00005149841309
 31
0.0
  0
LINE
  5
    E7
  8
0
  6
CONTINUOUS
 62
     3
 10
221.920364379883
 20
-4.00005149841309
 30
0.0
 11
219.920364379883
 21
-6.00005149841309
 31
0.0
  0
LINE
  5
    E8
  8
0
  6
CONTINUOUS
 62
     3
 10
224.04167175293
 20
-4.00005149841309
 30
0.0
 11
222.04167175293
 21
-6.00005149841309
 31
0.0
  0
LINE
  5
    E9
  8
0
  6
CONTINUOUS
 62
     3
 10
226.162979125977
 20
-4.00005149841309
 30
0.0
 11
224.162979125977
 21
-6.00005149841309
 31
0.0
  0
LINE
  5
    EA
  8
0
  6
CONTINUOUS
 62
     3
 10
228.284286499023
 20
-4.00005149841309
 30
0.0
 11
226.284286499023
 21
-6.00005149841309
 31
0.0
  0
LINE
  5
    EB
  8
0
  6
CONTINUOUS
 62
     3
 10
230.40559387207
 20
-4.00005149841309
 30
0.0
 11
228.40559387207
 21
-6.00005149841309
 31
0.0
  0
LINE
  5
    EC
  8
0
  6
CONTINUOUS
 62
     3
 10
232.526901245117
 20
-4.00005149841309
 30
0.0
 11
230.526901245117
 21
-6.00005149841309
 31
0.0
  0
LINE
  5
    ED
  8
0
  6
CONTINUOUS
 62
     3
 10
234.648208618164
 20
-4.00005149841309
 30
0.0
 11
232.648208618164
 21
-6.00005149841309
 31
0.0
  0
LINE
  5
    EE
  8
0
  6
CONTINUOUS
 62
     3
 10
236.769515991211
 20
-4.00005149841309
 30
0.0
 11
234.769515991211
 21
-6.00005149841309
 31
0.0
  0
LINE
  5
    EF
  8
0
  6
CONTINUOUS
 62
     3
 10
238.890823364258
 20
-4.00005149841309
 30
0.0
 11
236.890823364258
 21
-6.00005149841309
 31
0.0
  0
LINE
  5
    F0
  8
0
  6
CONTINUOUS
 62
     3
 10
241.012130737305
 20
-4.00005149841309
 30
0.0
 11
239.012130737305
 21
-6.00005149841309
 31
0.0
  0
LINE
  5
    F1
  8
0
  6
CONTINUOUS
 62
     3
 10
243.133438110352
 20
-4.00005149841309
 30
0.0
 11
241.133438110352
 21
-6.00005149841309
 31
0.0
  0
LINE
  5
    F2
  8
0
  6
CONTINUOUS
 62
     3
 10
245.254745483398
 20
-4.00005149841309
 30
0.0
 11
243.254745483398
 21
-6.00005149841309
 31
0.0
  0
LINE
  5
    F3
  8
0
  6
CONTINUOUS
 62
     3
 10
247.376052856445
 20
-4.00005149841309
 30
0.0
 11
245.376052856445
 21
-6.00005149841309
 31
0.0
  0
LINE
  5
    F4
  8
0
  6
CONTINUOUS
 62
     3
 10
249.497360229492
 20
-4.00005149841309
 30
0.0
 11
247.497360229492
 21
-6.00005149841309
 31
0.0
  0
LINE
  5
    F5
  8
0
  6
CONTINUOUS
 62
     3
 10
251.618667602539
 20
-4.00005149841309
 30
0.0
 11
249.618667602539
 21
-6.00005149841309
 31
0.0
  0
LINE
  5
    F6
  8
0
  6
CONTINUOUS
 62
     3
 10
253.739974975586
 20
-4.00005149841309
 30
0.0
 11
251.739974975586
 21
-6.00005149841309
 31
0.0
  0
LINE
  5
    F7
  8
0
  6
CONTINUOUS
 62
     3
 10
255.861282348633
 20
-4.00005149841309
 30
0.0
 11
253.861282348633
 21
-6.00005149841309
 31
0.0
  0
LINE
  5
    F8
  8
0
  6
CONTINUOUS
 62
     3
 10
257.982604980469
 20
-4.00005149841309
 30
0.0
 11
255.98258972168
 21
-6.00005149841309
 31
0.0
  0
LINE
  5
    F9
  8
0
  6
CONTINUOUS
 62
     3
 10
260.103942871094
 20
-4.00005149841309
 30
0.0
 11
258.103912353516
 21
-6.00005149841309
 31
0.0
  0
LINE
  5
    FA
  8
0
  6
CONTINUOUS
 62
     3
 10
262.225280761719
 20
-4.00005149841309
 30
0.0
 11
260.225250244141
 21
-6.00005149841309
 31
0.0
  0
LINE
  5
    FB
  8
0
  6
CONTINUOUS
 62
     3
 10
264.346618652344
 20
-4.00005149841309
 30
0.0
 11
262.346588134766
 21
-6.00005149841309
 31
0.0
  0
LINE
  5
    FC
  8
0
  6
CONTINUOUS
 62
     3
 10
266.467956542969
 20
-4.00005149841309
 30
0.0
 11
264.467926025391
 21
-6.00005149841309
 31
0.0
  0
LINE
  5
    FD
  8
0
  6
CONTINUOUS
 62
     3
 10
268.589294433594
 20
-4.00005149841309
 30
0.0
 11
266.589263916016
 21
-6.00005149841309
 31
0.0
  0
LINE
  5
    FE
  8
0
  6
CONTINUOUS
 62
     3
 10
270.710632324219
 20
-4.00005149841309
 30
0.0
 11
268.710601806641
 21
-6.00005149841309
 31
0.0
  0
LINE
  5
    FF
  8
0
  6
CONTINUOUS
 62
     3
 10
272.831970214844
 20
-4.00005149841309
 30
0.0
 11
270.831939697266
 21
-6.00005149841309
 31
0.0
  0
LINE
  5
   100
  8
0
  6
CONTINUOUS
 62
     3
 10
274.953308105469
 20
-4.00005149841309
 30
0.0
 11
272.953277587891
 21
-6.00005149841309
 31
0.0
  0
LINE
  5
   101
  8
0
  6
CONTINUOUS
 62
     3
 10
277.074645996094
 20
-4.00005149841309
 30
0.0
 11
275.074615478516
 21
-6.00005149841309
 31
0.0
  0
LINE
  5
   102
  8
0
  6
CONTINUOUS
 62
     3
 10
279.195983886719
 20
-4.00005149841309
 30
0.0
 11
277.195953369141
 21
-6.00005149841309
 31
0.0
  0
LINE
  5
   103
  8
0
  6
CONTINUOUS
 62
     3
 10
281.317321777344
 20
-4.00005149841309
 30
0.0
 11
279.317291259766
 21
-6.00005149841309
 31
0.0
  0
LINE
  5
   104
  8
0
  6
CONTINUOUS
 62
     3
 10
283.438659667969
 20
-4.00005149841309
 30
0.0
 11
281.438629150391
 21
-6.00005149841309
 31
0.0
  0
LINE
  5
   105
  8
0
  6
CONTINUOUS
 62
     3
 10
285.559997558594
 20
-4.00005149841309
 30
0.0
 11
283.559967041016
 21
-6.00005149841309
 31
0.0
  0
LINE
  5
   106
  8
0
  6
CONTINUOUS
 62
     3
 10
287.681335449219
 20
-4.00005149841309
 30
0.0
 11
285.681304931641
 21
-6.00005149841309
 31
0.0
  0
LINE
  5
   107
  8
0
  6
CONTINUOUS
 62
     3
 10
289.802673339844
 20
-4.00005149841309
 30
0.0
 11
287.802642822266
 21
-6.00005149841309
 31
0.0
  0
LINE
  5
   108
  8
0
  6
CONTINUOUS
 62
     3
 10
291.924011230469
 20
-4.00005149841309
 30
0.0
 11
289.923980712891
 21
-6.00005149841309
 31
0.0
  0
LINE
  5
   109
  8
0
  6
CONTINUOUS
 62
     3
 10
294.045349121094
 20
-4.00005149841309
 30
0.0
 11
292.045318603516
 21
-6.00005149841309
 31
0.0
  0
LINE
  5
   10A
  8
0
  6
CONTINUOUS
 62
     3
 10
296.166687011719
 20
-4.00005149841309
 30
0.0
 11
294.166656494141
 21
-6.00005149841309
 31
0.0
  0
LINE
  5
   10B
  8
0
  6
CONTINUOUS
 62
     3
 10
298.288024902344
 20
-4.00005149841309
 30
0.0
 11
296.287994384766
 21
-6.00005149841309
 31
0.0
  0
LINE
  5
   10C
  8
0
  6
CONTINUOUS
 62
     3
 10
300.409362792969
 20
-4.00005149841309
 30
0.0
 11
298.409332275391
 21
-6.00005149841309
 31
0.0
  0
LINE
  5
   10D
  8
0
  6
CONTINUOUS
 62
     3
 10
302.530700683594
 20
-4.00005149841309
 30
0.0
 11
300.530670166016
 21
-6.00005149841309
 31
0.0
  0
LINE
  5
   10E
  8
0
  6
CONTINUOUS
 62
     3
 10
304.652038574219
 20
-4.00005149841309
 30
0.0
 11
302.652008056641
 21
-6.00005149841309
 31
0.0
  0
LINE
  5
   10F
  8
0
  6
CONTINUOUS
 62
     3
 10
306.773376464844
 20
-4.00005149841309
 30
0.0
 11
304.773345947266
 21
-6.00005149841309
 31
0.0
  0
LINE
  5
   110
  8
0
  6
CONTINUOUS
 62
     3
 10
308.894714355469
 20
-4.00005149841309
 30
0.0
 11
306.894683837891
 21
-6.00005149841309
 31
0.0
  0
LINE
  5
   111
  8
0
  6
CONTINUOUS
 62
     3
 10
311.016052246094
 20
-4.00005149841309
 30
0.0
 11
309.016021728516
 21
-6.00005149841309
 31
0.0
  0
LINE
  5
   112
  8
0
  6
CONTINUOUS
 62
     3
 10
313.137390136719
 20
-4.00005149841309
 30
0.0
 11
311.137359619141
 21
-6.00005149841309
 31
0.0
  0
LINE
  5
   113
  8
0
  6
CONTINUOUS
 62
     3
 10
315.258728027344
 20
-4.00005149841309
 30
0.0
 11
313.258697509766
 21
-6.00005149841309
 31
0.0
  0
LINE
  5
   114
  8
0
  6
CONTINUOUS
 62
     3
 10
317.380065917969
 20
-4.00005149841309
 30
0.0
 11
315.380035400391
 21
-6.00005149841309
 31
0.0
  0
LINE
  5
   115
  8
0
  6
CONTINUOUS
 62
     3
 10
319.501403808594
 20
-4.00005149841309
 30
0.0
 11
317.501373291016
 21
-6.00005149841309
 31
0.0
  0
LINE
  5
   116
  8
0
  6
CONTINUOUS
 62
     3
 10
321.622741699219
 20
-4.00005149841309
 30
0.0
 11
319.622711181641
 21
-6.00005149841309
 31
0.0
  0
LINE
  5
   117
  8
0
  6
CONTINUOUS
 62
     3
 10
323.744079589844
 20
-4.00005149841309
 30
0.0
 11
321.744049072266
 21
-6.00005149841309
 31
0.0
  0
LINE
  5
   118
  8
0
  6
CONTINUOUS
 62
     3
 10
325.865417480469
 20
-4.00005149841309
 30
0.0
 11
323.865386962891
 21
-6.00005149841309
 31
0.0
  0
LINE
  5
   119
  8
0
  6
CONTINUOUS
 62
     3
 10
327.986755371094
 20
-4.00005149841309
 30
0.0
 11
325.986724853516
 21
-6.00005149841309
 31
0.0
  0
LINE
  5
   11A
  8
0
  6
CONTINUOUS
 62
     3
 10
330.108093261719
 20
-4.00005149841309
 30
0.0
 11
328.108062744141
 21
-6.00005149841309
 31
0.0
  0
LINE
  5
   11B
  8
0
  6
CONTINUOUS
 62
     3
 10
332.229431152344
 20
-4.00005149841309
 30
0.0
 11
330.229400634766
 21
-6.00005149841309
 31
0.0
  0
LINE
  5
   11C
  8
0
  6
CONTINUOUS
 62
     3
 10
333.858581542969
 20
-4.49203109741211
 30
0.0
 11
332.350555419922
 21
-6.00005149841309
 31
0.0
  0
LINE
  5
   11D
  8
0
  6
CONTINUOUS
 62
     3
 10
334.601745605469
 20
-5.87021350860596
 30
0.0
 11
334.471893310547
 21
-6.00005149841309
 31
0.0
  0
ENDBLK
  5
   11E
  8
0
  6
CONTINUOUS
 62
     7
  0
BLOCK
  5
   11F
  8
0
  6
CONTINUOUS
 62
     7
  2
*HATCH227
 70
    65
 10
0.0
 20
0.0
 30
0.0
  3
*HATCH227
  0
LINE
  5
   120
  8
0
  6
CONTINUOUS
 62
   210
 10
-10.7629547119141
 20
80.7665863037109
 30
0.0
 11
-7.99633836746216
 21
77.9999618530274
 31
0.0
  0
LINE
  5
   121
  8
0
  6
CONTINUOUS
 62
   210
 10
-8.75369358062744
 20
82.9999618530274
 30
0.0
 11
-4.76300573348999
 21
79.0092697143555
 31
0.0
  0
ENDBLK
  5
   122
  8
0
  6
CONTINUOUS
 62
     7
  0
BLOCK
  5
   123
  8
0
  6
CONTINUOUS
 62
     7
  2
*HATCH228
 70
    65
 10
0.0
 20
0.0
 30
0.0
  3
*HATCH228
  0
LINE
  5
   124
  8
0
  6
CONTINUOUS
 62
   210
 10
3.23699402809143
 20
81.6158676147461
 30
0.0
 11
6.8528938293457
 21
77.9999618530274
 31
0.0
  0
LINE
  5
   125
  8
0
  6
CONTINUOUS
 62
   210
 10
6.09554004669189
 20
82.9999618530274
 30
0.0
 11
11.095531463623
 21
77.9999618530274
 31
0.0
  0
LINE
  5
   126
  8
0
  6
CONTINUOUS
 62
   210
 10
10.3381776809692
 20
82.9999618530274
 30
0.0
 11
15.3381690979004
 21
77.9999618530274
 31
0.0
  0
LINE
  5
   127
  8
0
  6
CONTINUOUS
 62
   210
 10
14.5808153152466
 20
82.9999618530274
 30
0.0
 11
19.5808067321777
 21
77.9999618530274
 31
0.0
  0
LINE
  5
   128
  8
0
  6
CONTINUOUS
 62
   210
 10
18.8234539031982
 20
82.9999618530274
 30
0.0
 11
19.7282676696777
 21
82.0951461791992
 31
0.0
  0
ENDBLK
  5
   129
  8
0
  6
CONTINUOUS
 62
     7
  0
BLOCK
  5
   12A
  8
0
  6
CONTINUOUS
 62
     7
  2
*HATCH229
 70
    65
 10
0.0
 20
0.0
 30
0.0
  3
*HATCH229
  0
LINE
  5
   12B
  8
0
  6
CONTINUOUS
 62
     3
 10
17.0864696502686
 20
102.999938964844
 30
0.0
 11
15.2370948791504
 21
101.150566101074
 31
0.0
  0
LINE
  5
   12C
  8
0
  6
CONTINUOUS
 62
     3
 10
18.1471290588379
 20
102.999938964844
 30
0.0
 11
14.2369937896729
 21
99.0898056030274
 31
0.0
  0
LINE
  5
   12D
  8
0
  6
CONTINUOUS
 62
     3
 10
18.2369937896729
 20
100.968482971191
 30
0.0
 11
14.2369937896729
 21
96.9684829711914
 31
0.0
  0
LINE
  5
   12E
  8
0
  6
CONTINUOUS
 62
     3
 10
18.2369937896729
 20
98.8471603393555
 30
0.0
 11
14.2369937896729
 21
94.8471603393555
 31
0.0
  0
LINE
  5
   12F
  8
0
  6
CONTINUOUS
 62
     3
 10
18.2369937896729
 20
96.7258377075195
 30
0.0
 11
14.2369937896729
 21
92.7258377075195
 31
0.0
  0
LINE
  5
   130
  8
0
  6
CONTINUOUS
 62
     3
 10
18.2369937896729
 20
94.6045150756836
 30
0.0
 11
14.2369937896729
 21
90.6045150756836
 31
0.0
  0
LINE
  5
   131
  8
0
  6
CONTINUOUS
 62
     3
 10
18.2369937896729
 20
92.4831924438477
 30
0.0
 11
14.2369937896729
 21
88.4831924438477
 31
0.0
  0
LINE
  5
   132
  8
0
  6
CONTINUOUS
 62
     3
 10
18.2369937896729
 20
90.3618698120117
 30
0.0
 11
14.2369937896729
 21
86.3618698120117
 31
0.0
  0
LINE
  5
   133
  8
0
  6
CONTINUOUS
 62
     3
 10
18.2369937896729
 20
88.2405471801758
 30
0.0
 11
14.2369937896729
 21
84.2405471801758
 31
0.0
  0
LINE
  5
   134
  8
0
  6
CONTINUOUS
 62
     3
 10
18.2369937896729
 20
86.1192398071289
 30
0.0
 11
15.117714881897
 21
82.9999618530274
 31
0.0
  0
LINE
  5
   135
  8
0
  6
CONTINUOUS
 62
     3
 10
18.2369937896729
 20
83.997917175293
 30
0.0
 11
17.23903465271
 21
82.9999618530274
 31
0.0
  0
ENDBLK
  5
   136
  8
0
  6
CONTINUOUS
 62
     7
  0
BLOCK
  5
   137
  8
0
  6
CONTINUOUS
 62
     7
  2
*HATCH230
 70
    65
 10
0.0
 20
0.0
 30
0.0
  3
*HATCH230
  0
LINE
  5
   138
  8
0
  6
CONTINUOUS
 62
     3
 10
12.2390375137329
 20
77.9999618530274
 30
0.0
 11
10.2369937896729
 21
75.997917175293
 31
0.0
  0
LINE
  5
   139
  8
0
  6
CONTINUOUS
 62
     3
 10
14.2369937896729
 20
77.8766021728516
 30
0.0
 11
10.2369937896729
 21
73.8766021728516
 31
0.0
  0
LINE
  5
   13A
  8
0
  6
CONTINUOUS
 62
     3
 10
14.2369937896729
 20
75.7552795410156
 30
0.0
 11
10.2369937896729
 21
71.7552795410156
 31
0.0
  0
LINE
  5
   13B
  8
0
  6
CONTINUOUS
 62
     3
 10
14.2369937896729
 20
73.6339569091797
 30
0.0
 11
10.2369937896729
 21
69.6339569091797
 31
0.0
  0
LINE
  5
   13C
  8
0
  6
CONTINUOUS
 62
     3
 10
14.2369937896729
 20
71.5126342773438
 30
0.0
 11
10.2369937896729
 21
67.5126342773438
 31
0.0
  0
LINE
  5
   13D
  8
0
  6
CONTINUOUS
 62
     3
 10
14.2369937896729
 20
69.3913116455078
 30
0.0
 11
10.2369937896729
 21
65.3913116455078
 31
0.0
  0
LINE
  5
   13E
  8
0
  6
CONTINUOUS
 62
     3
 10
14.2369937896729
 20
67.2699890136719
 30
0.0
 11
10.2369937896729
 21
63.2699890136719
 31
0.0
  0
LINE
  5
   13F
  8
0
  6
CONTINUOUS
 62
     3
 10
14.2369937896729
 20
65.148681640625
 30
0.0
 11
10.8553380966187
 21
61.7670249938965
 31
0.0
  0
LINE
  5
   140
  8
0
  6
CONTINUOUS
 62
     3
 10
14.2369937896729
 20
63.0273590087891
 30
0.0
 11
13.7800302505493
 21
62.5703964233398
 31
0.0
  0
ENDBLK
  5
   141
  8
0
  6
CONTINUOUS
 62
     7
  0
BLOCK
  5
   142
  8
0
  6
CONTINUOUS
 62
     7
  2
*HATCH231
 70
    65
 10
0.0
 20
0.0
 30
0.0
  3
*HATCH231
  0
LINE
  5
   143
  8
0
  6
CONTINUOUS
 62
   210
 10
294.995452880859
 20
67.7501907348633
 30
0.0
 11
295.737060546875
 21
67.0085906982422
 31
0.0
  0
LINE
  5
   144
  8
0
  6
CONTINUOUS
 62
   210
 10
294.995452880859
 20
71.9928359985352
 30
0.0
 11
295.737060546875
 21
71.2512359619141
 31
0.0
  0
LINE
  5
   145
  8
0
  6
CONTINUOUS
 62
   210
 10
294.995452880859
 20
76.235481262207
 30
0.0
 11
295.737060546875
 21
75.4938812255859
 31
0.0
  0
ENDBLK
  5
   146
  8
0
  6
CONTINUOUS
 62
     7
  0
BLOCK
  5
   147
  8
0
  6
CONTINUOUS
 62
     7
  2
*HATCH232
 70
    65
 10
0.0
 20
0.0
 30
0.0
  3
*HATCH232
  0
LINE
  5
   148
  8
0
  6
CONTINUOUS
 62
     3
 10
320.237060546875
 20
37.5587959289551
 30
0.0
 11
322.382019042969
 21
35.4138374328613
 31
0.0
  0
LINE
  5
   149
  8
0
  6
CONTINUOUS
 62
     3
 10
320.237060546875
 20
39.680118560791
 30
0.0
 11
322.737060546875
 21
37.1801147460938
 31
0.0
  0
LINE
  5
   14A
  8
0
  6
CONTINUOUS
 62
     3
 10
320.237060546875
 20
41.801441192627
 30
0.0
 11
322.737060546875
 21
39.3014373779297
 31
0.0
  0
LINE
  5
   14B
  8
0
  6
CONTINUOUS
 62
     3
 10
320.237060546875
 20
43.9227638244629
 30
0.0
 11
322.737060546875
 21
41.4227600097656
 31
0.0
  0
LINE
  5
   14C
  8
0
  6
CONTINUOUS
 62
     3
 10
320.237060546875
 20
46.0440864562988
 30
0.0
 11
322.737060546875
 21
43.5440826416016
 31
0.0
  0
LINE
  5
   14D
  8
0
  6
CONTINUOUS
 62
     3
 10
320.237060546875
 20
48.1654090881348
 30
0.0
 11
322.737060546875
 21
45.6654052734375
 31
0.0
  0
LINE
  5
   14E
  8
0
  6
CONTINUOUS
 62
     3
 10
320.237060546875
 20
50.2867317199707
 30
0.0
 11
322.737060546875
 21
47.7867279052734
 31
0.0
  0
LINE
  5
   14F
  8
0
  6
CONTINUOUS
 62
     3
 10
320.237060546875
 20
52.4080543518066
 30
0.0
 11
322.737060546875
 21
49.9080505371094
 31
0.0
  0
LINE
  5
   150
  8
0
  6
CONTINUOUS
 62
     3
 10
320.237060546875
 20
54.5293769836426
 30
0.0
 11
322.737060546875
 21
52.0293731689453
 31
0.0
  0
LINE
  5
   151
  8
0
  6
CONTINUOUS
 62
     3
 10
320.237060546875
 20
56.6506996154785
 30
0.0
 11
322.737060546875
 21
54.1506958007813
 31
0.0
  0
LINE
  5
   152
  8
0
  6
CONTINUOUS
 62
     3
 10
320.237060546875
 20
58.7720222473145
 30
0.0
 11
322.737060546875
 21
56.2720184326172
 31
0.0
  0
LINE
  5
   153
  8
0
  6
CONTINUOUS
 62
     3
 10
320.237060546875
 20
60.8933448791504
 30
0.0
 11
322.737060546875
 21
58.3933410644531
 31
0.0
  0
LINE
  5
   154
  8
0
  6
CONTINUOUS
 62
     3
 10
320.237060546875
 20
63.0146675109863
 30
0.0
 11
322.737060546875
 21
60.5146636962891
 31
0.0
  0
LINE
  5
   155
  8
0
  6
CONTINUOUS
 62
     3
 10
320.237060546875
 20
65.135986328125
 30
0.0
 11
322.737060546875
 21
62.635986328125
 31
0.0
  0
LINE
  5
   156
  8
0
  6
CONTINUOUS
 62
     3
 10
320.237060546875
 20
67.2573089599609
 30
0.0
 11
322.737060546875
 21
64.7573089599609
 31
0.0
  0
LINE
  5
   157
  8
0
  6
CONTINUOUS
 62
     3
 10
320.237060546875
 20
69.3786315917969
 30
0.0
 11
322.737060546875
 21
66.8786315917969
 31
0.0
  0
LINE
  5
   158
  8
0
  6
CONTINUOUS
 62
     3
 10
320.237060546875
 20
71.4999542236328
 30
0.0
 11
322.737060546875
 21
68.9999542236328
 31
0.0
  0
LINE
  5
   159
  8
0
  6
CONTINUOUS
 62
     3
 10
320.237060546875
 20
73.6212768554688
 30
0.0
 11
322.737060546875
 21
71.1212768554688
 31
0.0
  0
LINE
  5
   15A
  8
0
  6
CONTINUOUS
 62
     3
 10
320.237060546875
 20
75.7425994873047
 30
0.0
 11
322.737060546875
 21
73.2425994873047
 31
0.0
  0
LINE
  5
   15B
  8
0
  6
CONTINUOUS
 62
     3
 10
320.237060546875
 20
77.8639221191406
 30
0.0
 11
322.737060546875
 21
75.3639221191406
 31
0.0
  0
LINE
  5
   15C
  8
0
  6
CONTINUOUS
 62
     3
 10
320.237060546875
 20
79.9852447509766
 30
0.0
 11
322.737060546875
 21
77.4852447509766
 31
0.0
  0
LINE
  5
   15D
  8
0
  6
CONTINUOUS
 62
     3
 10
320.237060546875
 20
82.1065673828125
 30
0.0
 11
322.737060546875
 21
79.6065673828125
 31
0.0
  0
LINE
  5
   15E
  8
0
  6
CONTINUOUS
 62
     3
 10
320.237060546875
 20
84.2278900146484
 30
0.0
 11
322.737060546875
 21
81.7278900146484
 31
0.0
  0
LINE
  5
   15F
  8
0
  6
CONTINUOUS
 62
     3
 10
320.237060546875
 20
86.3492126464844
 30
0.0
 11
322.737060546875
 21
83.8492126464844
 31
0.0
  0
LINE
  5
   160
  8
0
  6
CONTINUOUS
 62
     3
 10
320.237060546875
 20
88.4705352783203
 30
0.0
 11
322.737060546875
 21
85.9705352783203
 31
0.0
  0
LINE
  5
   161
  8
0
  6
CONTINUOUS
 62
     3
 10
320.237060546875
 20
90.5918579101563
 30
0.0
 11
322.737060546875
 21
88.0918579101563
 31
0.0
  0
LINE
  5
   162
  8
0
  6
CONTINUOUS
 62
     3
 10
320.237060546875
 20
92.7131805419922
 30
0.0
 11
322.737060546875
 21
90.2131805419922
 31
0.0
  0
LINE
  5
   163
  8
0
  6
CONTINUOUS
 62
     3
 10
320.237060546875
 20
94.8345031738281
 30
0.0
 11
322.737060546875
 21
92.3345031738281
 31
0.0
  0
LINE
  5
   164
  8
0
  6
CONTINUOUS
 62
     3
 10
320.237060546875
 20
96.9558258056641
 30
0.0
 11
322.737060546875
 21
94.4558258056641
 31
0.0
  0
LINE
  5
   165
  8
0
  6
CONTINUOUS
 62
     3
 10
320.237060546875
 20
99.0771484375
 30
0.0
 11
322.737060546875
 21
96.5771484375
 31
0.0
  0
LINE
  5
   166
  8
0
  6
CONTINUOUS
 62
     3
 10
320.435577392578
 20
100.999938964844
 30
0.0
 11
322.737060546875
 21
98.6984405517578
 31
0.0
  0
LINE
  5
   167
  8
0
  6
CONTINUOUS
 62
     3
 10
322.556915283203
 20
100.999938964844
 30
0.0
 11
322.737060546875
 21
100.819763183594
 31
0.0
  0
ENDBLK
  5
   168
  8
0
  6
CONTINUOUS
 62
     7
  0
BLOCK
  5
   169
  8
0
  6
CONTINUOUS
 62
     7
  2
*HATCH233
 70
    65
 10
0.0
 20
0.0
 30
0.0
  3
*HATCH233
  0
LINE
  5
   16A
  8
0
  6
CONTINUOUS
 62
   210
 10
314.223846435547
 20
82.9999389648438
 30
0.0
 11
310.937042236328
 21
79.7131118774414
 31
0.0
  0
LINE
  5
   16B
  8
0
  6
CONTINUOUS
 62
   210
 10
315.737060546875
 20
80.2704696655274
 30
0.0
 11
313.466491699219
 21
77.9999389648438
 31
0.0
  0
ENDBLK
  5
   16C
  8
0
  6
CONTINUOUS
 62
     7
  0
BLOCK
  5
   16D
  8
0
  6
CONTINUOUS
 62
     7
  2
*HATCH234
 70
    65
 10
0.0
 20
0.0
 30
0.0
  3
*HATCH234
  0
LINE
  5
   16E
  8
0
  6
CONTINUOUS
 62
   210
 10
297.253295898438
 20
82.9999389648438
 30
0.0
 11
294.995452880859
 21
80.742073059082
 31
0.0
  0
LINE
  5
   16F
  8
0
  6
CONTINUOUS
 62
   210
 10
301.495941162109
 20
82.9999389648438
 30
0.0
 11
296.495941162109
 21
77.9999389648438
 31
0.0
  0
LINE
  5
   170
  8
0
  6
CONTINUOUS
 62
   210
 10
302.537048339844
 20
79.7983932495117
 30
0.0
 11
300.738586425781
 21
77.9999389648438
 31
0.0
  0
ENDBLK
  5
   171
  8
0
  6
CONTINUOUS
 62
     7
  0
BLOCK
  5
   172
  8
0
  6
CONTINUOUS
 62
     7
  2
*HATCH235
 70
    65
 10
0.0
 20
0.0
 30
0.0
  3
*HATCH235
  0
LINE
  5
   173
  8
0
  6
CONTINUOUS
 62
     3
 10
-21.2629413604736
 20
54.4970092773438
 30
0.0
 11
-20.0450592041016
 21
53.279125213623
 31
0.0
  0
LINE
  5
   174
  8
0
  6
CONTINUOUS
 62
     3
 10
-21.2629413604736
 20
56.6183280944824
 30
0.0
 11
-18.7629413604736
 21
54.1183242797852
 31
0.0
  0
LINE
  5
   175
  8
0
  6
CONTINUOUS
 62
     3
 10
-21.2629413604736
 20
58.7396507263184
 30
0.0
 11
-18.7629413604736
 21
56.2396469116211
 31
0.0
  0
LINE
  5
   176
  8
0
  6
CONTINUOUS
 62
     3
 10
-21.2629413604736
 20
60.8609733581543
 30
0.0
 11
-18.7629413604736
 21
58.360969543457
 31
0.0
  0
LINE
  5
   177
  8
0
  6
CONTINUOUS
 62
     3
 10
-21.2629413604736
 20
62.9822959899902
 30
0.0
 11
-18.7629413604736
 21
60.482292175293
 31
0.0
  0
LINE
  5
   178
  8
0
  6
CONTINUOUS
 62
     3
 10
-21.2629413604736
 20
65.1036148071289
 30
0.0
 11
-18.7629413604736
 21
62.6036148071289
 31
0.0
  0
LINE
  5
   179
  8
0
  6
CONTINUOUS
 62
     3
 10
-21.2629413604736
 20
67.2249374389648
 30
0.0
 11
-18.7629413604736
 21
64.7249374389648
 31
0.0
  0
LINE
  5
   17A
  8
0
  6
CONTINUOUS
 62
     3
 10
-21.2629413604736
 20
69.3462600708008
 30
0.0
 11
-18.7629413604736
 21
66.8462600708008
 31
0.0
  0
LINE
  5
   17B
  8
0
  6
CONTINUOUS
 62
     3
 10
-21.2629413604736
 20
71.4675827026367
 30
0.0
 11
-18.7629413604736
 21
68.9675827026367
 31
0.0
  0
LINE
  5
   17C
  8
0
  6
CONTINUOUS
 62
     3
 10
-21.2629413604736
 20
73.5889053344727
 30
0.0
 11
-18.7629413604736
 21
71.0889053344727
 31
0.0
  0
LINE
  5
   17D
  8
0
  6
CONTINUOUS
 62
     3
 10
-21.2629413604736
 20
75.7102279663086
 30
0.0
 11
-18.7629413604736
 21
73.2102279663086
 31
0.0
  0
LINE
  5
   17E
  8
0
  6
CONTINUOUS
 62
     3
 10
-21.2629413604736
 20
77.8315505981445
 30
0.0
 11
-18.7629413604736
 21
75.3315505981445
 31
0.0
  0
LINE
  5
   17F
  8
0
  6
CONTINUOUS
 62
     3
 10
-21.2629413604736
 20
79.9528732299805
 30
0.0
 11
-18.7629413604736
 21
77.4528732299805
 31
0.0
  0
LINE
  5
   180
  8
0
  6
CONTINUOUS
 62
     3
 10
-21.2629413604736
 20
82.0741958618164
 30
0.0
 11
-18.7629413604736
 21
79.5741958618164
 31
0.0
  0
LINE
  5
   181
  8
0
  6
CONTINUOUS
 62
     3
 10
-21.2629413604736
 20
84.1955184936523
 30
0.0
 11
-18.7629413604736
 21
81.6955184936523
 31
0.0
  0
LINE
  5
   182
  8
0
  6
CONTINUOUS
 62
     3
 10
-21.2629413604736
 20
86.3168411254883
 30
0.0
 11
-18.7629413604736
 21
83.8168411254883
 31
0.0
  0
LINE
  5
   183
  8
0
  6
CONTINUOUS
 62
     3
 10
-21.2629413604736
 20
88.4381637573242
 30
0.0
 11
-18.7629413604736
 21
85.9381637573242
 31
0.0
  0
LINE
  5
   184
  8
0
  6
CONTINUOUS
 62
     3
 10
-21.2629413604736
 20
90.5594863891602
 30
0.0
 11
-18.7629413604736
 21
88.0594863891602
 31
0.0
  0
LINE
  5
   185
  8
0
  6
CONTINUOUS
 62
     3
 10
-21.2629413604736
 20
92.6808090209961
 30
0.0
 11
-18.7629413604736
 21
90.1808090209961
 31
0.0
  0
LINE
  5
   186
  8
0
  6
CONTINUOUS
 62
     3
 10
-21.2629413604736
 20
94.802131652832
 30
0.0
 11
-18.7629413604736
 21
92.302131652832
 31
0.0
  0
LINE
  5
   187
  8
0
  6
CONTINUOUS
 62
     3
 10
-21.2629413604736
 20
96.923454284668
 30
0.0
 11
-18.7629413604736
 21
94.423454284668
 31
0.0
  0
LINE
  5
   188
  8
0
  6
CONTINUOUS
 62
     3
 10
-21.2629413604736
 20
99.0447769165039
 30
0.0
 11
-18.7629413604736
 21
96.5447769165039
 31
0.0
  0
LINE
  5
   189
  8
0
  6
CONTINUOUS
 62
     3
 10
-21.0967979431152
 20
100.999938964844
 30
0.0
 11
-18.7629413604736
 21
98.6660842895508
 31
0.0
  0
LINE
  5
   18A
  8
0
  6
CONTINUOUS
 62
     3
 10
-18.9754791259766
 20
100.999938964844
 30
0.0
 11
-18.7629413604736
 21
100.787406921387
 31
0.0
  0
ENDBLK
  5
   18B
  8
0
  6
CONTINUOUS
 62
     7
  0
BLOCK
  5
   18C
  8
0
  6
CONTINUOUS
 62
     7
  2
TERM_POST_
 70
    64
 10
0.0
 20
0.0
 30
0.0
  3
TERM_POST_
  0
LINE
  5
   18D
  8
0
  6
DASHDOT
 62
     7
 10
-105.961541792949
 20
84.0
 30
0.0
 11
34.4853490695609
 21
84.0
 31
0.0
  0
LINE
  5
   18E
  8
0
  6
CONTINUOUS
 62
     7
 10
23.8000011444092
 20
89.0
 30
0.0
 11
29.8000011444092
 21
89.0
 31
0.0
  0
LINE
  5
   18F
  8
0
  6
CONTINUOUS
 62
     7
 10
29.8000011444092
 20
79.0
 30
0.0
 11
29.8000011444092
 21
89.0
 31
0.0
  0
LINE
  5
   190
  8
0
  6
CONTINUOUS
 62
     5
 10
23.8000011444092
 20
76.5
 30
0.0
 11
23.8000011444092
 21
91.5
 31
0.0
  0
LINE
  5
   191
  8
0
  6
CONTINUOUS
 62
     7
 10
23.8000011444092
 20
79.0
 30
0.0
 11
29.8000011444092
 21
79.0
 31
0.0
  0
LINE
  5
   192
  8
0
  6
CONTINUOUS
 62
     2
 10
18.0000019073486
 20
76.0
 30
0.0
 11
18.0000019073486
 21
92.0
 31
0.0
  0
LINE
  5
   193
  8
0
  6
CONTINUOUS
 62
     5
 10
23.0000019073486
 20
76.5
 30
0.0
 11
23.0000019073486
 21
91.5
 31
0.0
  0
LINE
  5
   194
  8
0
  6
CONTINUOUS
 62
    98
 10
22.0000019073486
 20
80.0
 30
0.0
 11
22.0000019073486
 21
88.0
 31
0.0
  0
LINE
  5
   195
  8
0
  6
CONTINUOUS
 62
     2
 10
-29.9999980926514
 20
76.0
 30
0.0
 11
18.0000019073486
 21
76.0
 31
0.0
  0
LINE
  5
   196
  8
0
  6
CONTINUOUS
 62
     5
 10
23.0000019073486
 20
76.5
 30
0.0
 11
23.8000011444092
 21
76.5
 31
0.0
  0
LINE
  5
   197
  8
0
  6
CONTINUOUS
 62
    98
 10
18.0000019073486
 20
80.0
 30
0.0
 11
22.0000019073486
 21
80.0
 31
0.0
  0
LINE
  5
   198
  8
0
  6
CONTINUOUS
 62
    98
 10
18.0000019073486
 20
88.0
 30
0.0
 11
22.0000019073486
 21
88.0
 31
0.0
  0
LINE
  5
   199
  8
0
  6
CONTINUOUS
 62
     7
 10
22.0000019073486
 20
81.0
 30
0.0
 11
23.0000038146973
 21
81.0
 31
0.0
  0
LINE
  5
   19A
  8
0
  6
CONTINUOUS
 62
     7
 10
22.0000019073486
 20
87.0
 30
0.0
 11
23.0000019073486
 21
87.0
 31
0.0
  0
LINE
  5
   19B
  8
0
  6
CONTINUOUS
 62
     5
 10
23.0000019073486
 20
91.5
 30
0.0
 11
23.8000011444092
 21
91.5
 31
0.0
  0
LINE
  5
   19C
  8
0
  6
CONTINUOUS
 62
     2
 10
-29.9999980926514
 20
92.0
 30
0.0
 11
18.0000019073486
 21
92.0
 31
0.0
  0
LINE
  5
   19D
  8
0
  6
CONTINUOUS
 62
     7
 10
-35.9999980926514
 20
73.0
 30
0.0
 11
-35.9999980926514
 21
95.0
 31
0.0
  0
LINE
  5
   19E
  8
0
  6
CONTINUOUS
 62
     7
 10
-38.4999980926514
 20
73.0
 30
0.0
 11
-38.4999980926514
 21
95.0
 31
0.0
  0
LINE
  5
   19F
  8
0
  6
CONTINUOUS
 62
     7
 10
-40.9999980926514
 20
73.0
 30
0.0
 11
-40.9999980926514
 21
95.0
 31
0.0
  0
LINE
  5
   1A0
  8
0
  6
CONTINUOUS
 62
     7
 10
-43.4999980926514
 20
73.0
 30
0.0
 11
-43.4999980926514
 21
95.0
 31
0.0
  0
LINE
  5
   1A1
  8
0
  6
CONTINUOUS
 62
     3
 10
-49.4999980926514
 20
73.0303497314453
 30
0.0
 11
-49.4999980926514
 21
94.9696502685547
 31
0.0
  0
LINE
  5
   1A2
  8
0
  6
CONTINUOUS
 62
    98
 10
-56.9999980926514
 20
79.0
 30
0.0
 11
-56.9999980926514
 21
89.0
 31
0.0
  0
LINE
  5
   1A3
  8
0
  6
CONTINUOUS
 62
     7
 10
-38.4999980926514
 20
95.0
 30
0.0
 11
-35.9999980926514
 21
95.0
 31
0.0
  0
LINE
  5
   1A4
  8
0
  6
CONTINUOUS
 62
     7
 10
-38.4999980926514
 20
73.0
 30
0.0
 11
-35.9999980926514
 21
73.0
 31
0.0
  0
LINE
  5
   1A5
  8
0
  6
CONTINUOUS
 62
     7
 10
-43.4999980926514
 20
95.0
 30
0.0
 11
-40.9999980926514
 21
95.0
 31
0.0
  0
LINE
  5
   1A6
  8
0
  6
CONTINUOUS
 62
     7
 10
-43.4999980926514
 20
73.0
 30
0.0
 11
-40.9999980926514
 21
73.0
 31
0.0
  0
LINE
  5
   1A7
  8
0
  6
CONTINUOUS
 62
     3
 10
-35.9999980926514
 20
78.5151672363281
 30
0.0
 11
-29.9999980926514
 21
78.5151672363281
 31
0.0
  0
LINE
  5
   1A8
  8
0
  6
CONTINUOUS
 62
     3
 10
-35.9999980926514
 20
73.0303497314453
 30
0.0
 11
-29.9999980926514
 21
73.0303497314453
 31
0.0
  0
LINE
  5
   1A9
  8
0
  6
CONTINUOUS
 62
     3
 10
-35.9999980926514
 20
94.9696502685547
 30
0.0
 11
-29.9999980926514
 21
94.9696502685547
 31
0.0
  0
LINE
  5
   1AA
  8
0
  6
CONTINUOUS
 62
     3
 10
-35.9999980926514
 20
89.4848327636719
 30
0.0
 11
-29.9999980926514
 21
89.4848327636719
 31
0.0
  0
LINE
  5
   1AB
  8
0
  6
CONTINUOUS
 62
     3
 10
-49.4999980926514
 20
78.5151672363281
 30
0.0
 11
-43.4999980926514
 21
78.5151672363281
 31
0.0
  0
LINE
  5
   1AC
  8
0
  6
CONTINUOUS
 62
     3
 10
-49.4999980926514
 20
73.0303497314453
 30
0.0
 11
-43.4999980926514
 21
73.0303497314453
 31
0.0
  0
LINE
  5
   1AD
  8
0
  6
CONTINUOUS
 62
     3
 10
-49.4999980926514
 20
94.9696502685547
 30
0.0
 11
-43.4999980926514
 21
94.9696502685547
 31
0.0
  0
LINE
  5
   1AE
  8
0
  6
CONTINUOUS
 62
     3
 10
-49.4999980926514
 20
89.4848327636719
 30
0.0
 11
-43.4999980926514
 21
89.4848327636719
 31
0.0
  0
LINE
  5
   1AF
  8
0
  6
CONTINUOUS
 62
    98
 10
-56.999995384318
 20
78.9999956401395
 30
0.0
 11
-55.9999954185466
 21
77.999995674368
 31
0.0
  0
LINE
  5
   1B0
  8
0
  6
CONTINUOUS
 62
    98
 10
-56.9999980627014
 20
88.9999963247104
 30
0.0
 11
-55.9999980969299
 21
89.9999962904819
 31
0.0
  0
LINE
  5
   1B1
  8
0
  6
CONTINUOUS
 62
    98
 10
-55.9999980926514
 20
78.0
 30
0.0
 11
-49.4999980926514
 21
78.0
 31
0.0
  0
LINE
  5
   1B2
  8
0
  6
CONTINUOUS
 62
    98
 10
-40.9999980926514
 20
78.0
 30
0.0
 11
-38.4999980926514
 21
78.0
 31
0.0
  0
LINE
  5
   1B3
  8
0
  6
CONTINUOUS
 62
    98
 10
-55.9999980926514
 20
78.0
 30
0.0
 11
-55.9999980926514
 21
78.1152954101562
 31
0.0
  0
LINE
  5
   1B4
  8
0
  6
CONTINUOUS
 62
    98
 10
-55.9999980926514
 20
78.1152954101562
 30
0.0
 11
-55.9999980926514
 21
78.4567260742187
 31
0.0
  0
LINE
  5
   1B5
  8
0
  6
CONTINUOUS
 62
    98
 10
-55.9999980926514
 20
78.4567260742187
 30
0.0
 11
-55.9999980926514
 21
79.0111846923828
 31
0.0
  0
LINE
  5
   1B6
  8
0
  6
CONTINUOUS
 62
    98
 10
-55.9999980926514
 20
79.0111846923828
 30
0.0
 11
-55.9999980926514
 21
79.7573547363281
 31
0.0
  0
LINE
  5
   1B7
  8
0
  6
CONTINUOUS
 62
    98
 10
-55.9999980926514
 20
79.7573547363281
 30
0.0
 11
-55.9999980926514
 21
80.6665802001953
 31
0.0
  0
LINE
  5
   1B8
  8
0
  6
CONTINUOUS
 62
    98
 10
-55.9999980926514
 20
80.6665802001953
 30
0.0
 11
-55.9999980926514
 21
81.7039031982422
 31
0.0
  0
LINE
  5
   1B9
  8
0
  6
CONTINUOUS
 62
    98
 10
-55.9999980926514
 20
81.7039031982422
 30
0.0
 11
-55.9999980926514
 21
82.8294525146484
 31
0.0
  0
LINE
  5
   1BA
  8
0
  6
CONTINUOUS
 62
    98
 10
-55.9999980926514
 20
82.8294525146484
 30
0.0
 11
-55.9999980926514
 21
84.0
 31
0.0
  0
LINE
  5
   1BB
  8
0
  6
CONTINUOUS
 62
    98
 10
-55.9999980926514
 20
84.0
 30
0.0
 11
-55.9999980926514
 21
85.1705474853516
 31
0.0
  0
LINE
  5
   1BC
  8
0
  6
CONTINUOUS
 62
    98
 10
-55.9999980926514
 20
85.1705474853516
 30
0.0
 11
-55.9999980926514
 21
86.2960968017578
 31
0.0
  0
LINE
  5
   1BD
  8
0
  6
CONTINUOUS
 62
    98
 10
-55.9999980926514
 20
86.2960968017578
 30
0.0
 11
-55.9999980926514
 21
87.3334197998047
 31
0.0
  0
LINE
  5
   1BE
  8
0
  6
CONTINUOUS
 62
    98
 10
-55.9999980926514
 20
87.3334197998047
 30
0.0
 11
-55.9999980926514
 21
88.2426452636719
 31
0.0
  0
LINE
  5
   1BF
  8
0
  6
CONTINUOUS
 62
    98
 10
-55.9999980926514
 20
88.2426452636719
 30
0.0
 11
-55.9999980926514
 21
88.9888153076172
 31
0.0
  0
LINE
  5
   1C0
  8
0
  6
CONTINUOUS
 62
    98
 10
-55.9999980926514
 20
88.9888153076172
 30
0.0
 11
-55.9999980926514
 21
89.5432739257812
 31
0.0
  0
LINE
  5
   1C1
  8
0
  6
CONTINUOUS
 62
    98
 10
-55.9999980926514
 20
89.5432739257812
 30
0.0
 11
-55.9999980926514
 21
89.8847045898437
 31
0.0
  0
LINE
  5
   1C2
  8
0
  6
CONTINUOUS
 62
    98
 10
-55.9999980926514
 20
90.0
 30
0.0
 11
-49.4999980926514
 21
90.0
 31
0.0
  0
LINE
  5
   1C3
  8
0
  6
CONTINUOUS
 62
    98
 10
-40.9999980926514
 20
90.0
 30
0.0
 11
-38.4999980926514
 21
90.0
 31
0.0
  0
LINE
  5
   1C4
  8
0
  6
CONTINUOUS
 62
    98
 10
-55.9999980926514
 20
89.8847045898437
 30
0.0
 11
-55.9999980926514
 21
90.0
 31
0.0
  0
LINE
  5
   1C5
  8
0
  6
CONTINUOUS
 62
     2
 10
-40.9999980926514
 20
92.0
 30
0.0
 11
-38.4999980926514
 21
92.0
 31
0.0
  0
LINE
  5
   1C6
  8
0
  6
CONTINUOUS
 62
     2
 10
-74.9999980926514
 20
92.0
 30
0.0
 11
-49.4999942779541
 21
92.0
 31
0.0
  0
LINE
  5
   1C7
  8
0
  6
CONTINUOUS
 62
     2
 10
-40.9999980926514
 20
76.0
 30
0.0
 11
-38.4999980926514
 21
76.0
 31
0.0
  0
LINE
  5
   1C8
  8
0
  6
CONTINUOUS
 62
     2
 10
-74.9999980926514
 20
76.0
 30
0.0
 11
-49.5000019073486
 21
76.0
 31
0.0
  0
LINE
  5
   1C9
  8
0
  6
CONTINUOUS
 62
     3
 10
-29.9999980926514
 20
73.0303497314453
 30
0.0
 11
-29.9999980926514
 21
94.9696502685547
 31
0.0
  0
LINE
  5
   1CA
  8
0
  6
CONTINUOUS
 62
     7
 10
-85.9999980926514
 20
73.0
 30
0.0
 11
-85.9999980926514
 21
95.0
 31
0.0
  0
LINE
  5
   1CB
  8
0
  6
CONTINUOUS
 62
     7
 10
-88.4999980926514
 20
73.0
 30
0.0
 11
-88.4999980926514
 21
95.0
 31
0.0
  0
LINE
  5
   1CC
  8
0
  6
CONTINUOUS
 62
     7
 10
-80.9999980926514
 20
73.0
 30
0.0
 11
-80.9999980926514
 21
95.0
 31
0.0
  0
LINE
  5
   1CD
  8
0
  6
CONTINUOUS
 62
     7
 10
-83.4999980926514
 20
73.0
 30
0.0
 11
-83.4999980926514
 21
95.0
 31
0.0
  0
LINE
  5
   1CE
  8
0
  6
CONTINUOUS
 62
     3
 10
-74.9999980926514
 20
73.0303497314453
 30
0.0
 11
-74.9999980926514
 21
94.9696502685547
 31
0.0
  0
LINE
  5
   1CF
  8
0
  6
CONTINUOUS
 62
     3
 10
-94.4999980926514
 20
73.0303497314453
 30
0.0
 11
-94.4999980926514
 21
94.9696502685547
 31
0.0
  0
LINE
  5
   1D0
  8
0
  6
CONTINUOUS
 62
     7
 10
-88.4999980926514
 20
95.0
 30
0.0
 11
-85.9999980926514
 21
95.0
 31
0.0
  0
LINE
  5
   1D1
  8
0
  6
CONTINUOUS
 62
     7
 10
-88.4999980926514
 20
73.0
 30
0.0
 11
-85.9999980926514
 21
73.0
 31
0.0
  0
LINE
  5
   1D2
  8
0
  6
CONTINUOUS
 62
     7
 10
-83.4999980926514
 20
95.0
 30
0.0
 11
-80.9999980926514
 21
95.0
 31
0.0
  0
LINE
  5
   1D3
  8
0
  6
CONTINUOUS
 62
     7
 10
-83.4999980926514
 20
73.0
 30
0.0
 11
-80.9999980926514
 21
73.0
 31
0.0
  0
LINE
  5
   1D4
  8
0
  6
CONTINUOUS
 62
     3
 10
-80.9999980926514
 20
78.5151672363281
 30
0.0
 11
-74.9999980926514
 21
78.5151672363281
 31
0.0
  0
LINE
  5
   1D5
  8
0
  6
CONTINUOUS
 62
     3
 10
-80.9999980926514
 20
73.0303497314453
 30
0.0
 11
-74.9999980926514
 21
73.0303497314453
 31
0.0
  0
LINE
  5
   1D6
  8
0
  6
CONTINUOUS
 62
     3
 10
-80.9999980926514
 20
94.9696502685547
 30
0.0
 11
-74.9999980926514
 21
94.9696502685547
 31
0.0
  0
LINE
  5
   1D7
  8
0
  6
CONTINUOUS
 62
     3
 10
-80.9999980926514
 20
89.4848327636719
 30
0.0
 11
-74.9999980926514
 21
89.4848327636719
 31
0.0
  0
LINE
  5
   1D8
  8
0
  6
CONTINUOUS
 62
     3
 10
-94.4999980926514
 20
78.5151672363281
 30
0.0
 11
-88.4999980926514
 21
78.5151672363281
 31
0.0
  0
LINE
  5
   1D9
  8
0
  6
CONTINUOUS
 62
     3
 10
-94.4999980926514
 20
73.0303497314453
 30
0.0
 11
-88.4999980926514
 21
73.0303497314453
 31
0.0
  0
LINE
  5
   1DA
  8
0
  6
CONTINUOUS
 62
     3
 10
-94.4999980926514
 20
94.9696502685547
 30
0.0
 11
-88.4999980926514
 21
94.9696502685547
 31
0.0
  0
LINE
  5
   1DB
  8
0
  6
CONTINUOUS
 62
     3
 10
-94.4999980926514
 20
89.4848327636719
 30
0.0
 11
-88.4999980926514
 21
89.4848327636719
 31
0.0
  0
LINE
  5
   1DC
  8
0
  6
CONTINUOUS
 62
    98
 10
-100.999998092651
 20
78.0
 30
0.0
 11
-94.4999980926514
 21
78.0
 31
0.0
  0
LINE
  5
   1DD
  8
0
  6
CONTINUOUS
 62
    98
 10
-85.9999980926514
 20
78.0
 30
0.0
 11
-83.4999980926514
 21
78.0
 31
0.0
  0
LINE
  5
   1DE
  8
0
  6
CONTINUOUS
 62
    98
 10
-100.999998092651
 20
90.0
 30
0.0
 11
-94.4999980926514
 21
90.0
 31
0.0
  0
LINE
  5
   1DF
  8
0
  6
CONTINUOUS
 62
    98
 10
-85.9999980926514
 20
90.0
 30
0.0
 11
-83.4999980926514
 21
90.0
 31
0.0
  0
LINE
  5
   1E0
  8
0
  6
CONTINUOUS
 62
    98
 10
-101.999994229105
 20
78.9999952550684
 30
0.0
 11
-100.999994263333
 21
77.9999952892969
 31
0.0
  0
LINE
  5
   1E1
  8
0
  6
CONTINUOUS
 62
    98
 10
-100.999998092651
 20
82.8294525146484
 30
0.0
 11
-100.999998092651
 21
84.0
 31
0.0
  0
LINE
  5
   1E2
  8
0
  6
CONTINUOUS
 62
    98
 10
-101.999998092651
 20
79.0
 30
0.0
 11
-101.999998092651
 21
89.0
 31
0.0
  0
LINE
  5
   1E3
  8
0
  6
CONTINUOUS
 62
    98
 10
-101.999996907488
 20
88.9999967097815
 30
0.0
 11
-100.999996941717
 21
89.999996675553
 31
0.0
  0
LINE
  5
   1E4
  8
0
  6
CONTINUOUS
 62
    98
 10
-100.999998092651
 20
85.1705474853516
 30
0.0
 11
-100.999998092651
 21
86.2960968017578
 31
0.0
  0
LINE
  5
   1E5
  8
0
  6
CONTINUOUS
 62
    98
 10
-100.999998092651
 20
84.0
 30
0.0
 11
-100.999998092651
 21
85.1705474853516
 31
0.0
  0
LINE
  5
   1E6
  8
0
  6
CONTINUOUS
 62
    98
 10
-100.999998092651
 20
86.2960968017578
 30
0.0
 11
-100.999998092651
 21
87.3334197998047
 31
0.0
  0
LINE
  5
   1E7
  8
0
  6
CONTINUOUS
 62
    98
 10
-100.999998092651
 20
88.2426452636719
 30
0.0
 11
-100.999998092651
 21
88.9888153076172
 31
0.0
  0
LINE
  5
   1E8
  8
0
  6
CONTINUOUS
 62
    98
 10
-100.999998092651
 20
88.9888153076172
 30
0.0
 11
-100.999998092651
 21
89.5432739257812
 31
0.0
  0
LINE
  5
   1E9
  8
0
  6
CONTINUOUS
 62
    98
 10
-100.999998092651
 20
89.8847045898437
 30
0.0
 11
-100.999998092651
 21
90.0
 31
0.0
  0
LINE
  5
   1EA
  8
0
  6
CONTINUOUS
 62
    98
 10
-100.999998092651
 20
80.6665802001953
 30
0.0
 11
-100.999998092651
 21
81.7039031982422
 31
0.0
  0
LINE
  5
   1EB
  8
0
  6
CONTINUOUS
 62
    98
 10
-100.999998092651
 20
81.7039031982422
 30
0.0
 11
-100.999998092651
 21
82.8294525146484
 31
0.0
  0
LINE
  5
   1EC
  8
0
  6
CONTINUOUS
 62
    98
 10
-100.999998092651
 20
87.3334197998047
 30
0.0
 11
-100.999998092651
 21
88.2426452636719
 31
0.0
  0
LINE
  5
   1ED
  8
0
  6
CONTINUOUS
 62
    98
 10
-100.999998092651
 20
89.5432739257812
 30
0.0
 11
-100.999998092651
 21
89.8847045898437
 31
0.0
  0
LINE
  5
   1EE
  8
0
  6
CONTINUOUS
 62
    98
 10
-100.999998092651
 20
78.0
 30
0.0
 11
-100.999998092651
 21
78.1152954101562
 31
0.0
  0
LINE
  5
   1EF
  8
0
  6
CONTINUOUS
 62
    98
 10
-100.999998092651
 20
78.1152954101562
 30
0.0
 11
-100.999998092651
 21
78.4567260742187
 31
0.0
  0
LINE
  5
   1F0
  8
0
  6
CONTINUOUS
 62
    98
 10
-100.999998092651
 20
78.4567260742187
 30
0.0
 11
-100.999998092651
 21
79.0111846923828
 31
0.0
  0
LINE
  5
   1F1
  8
0
  6
CONTINUOUS
 62
    98
 10
-100.999998092651
 20
79.0111846923828
 30
0.0
 11
-100.999998092651
 21
79.7573547363281
 31
0.0
  0
LINE
  5
   1F2
  8
0
  6
CONTINUOUS
 62
    98
 10
-100.999998092651
 20
79.7573547363281
 30
0.0
 11
-100.999998092651
 21
80.6665802001953
 31
0.0
  0
LINE
  5
   1F3
  8
0
  6
CONTINUOUS
 62
     7
 10
-101.999996907488
 20
88.9999967097815
 30
0.0
 11
-94.4999980926514
 21
88.9999967097815
 31
0.0
  0
LINE
  5
   1F4
  8
0
  6
CONTINUOUS
 62
     7
 10
-101.999998092651
 20
79.0
 30
0.0
 11
-94.4999980926514
 21
79.0
 31
0.0
  0
LINE
  5
   1F5
  8
0
  6
CONTINUOUS
 62
     7
 10
-56.9999980627014
 20
88.9999963247104
 30
0.0
 11
-49.4999980926514
 21
88.9999963247104
 31
0.0
  0
LINE
  5
   1F6
  8
0
  6
CONTINUOUS
 62
     7
 10
-56.999995384318
 20
78.9999956401395
 30
0.0
 11
-49.4999980926514
 21
78.9999956401395
 31
0.0
  0
LINE
  5
   1F7
  8
0
  6
CONTINUOUS
 62
     7
 10
-40.9999980926514
 20
89.0
 30
0.0
 11
-38.4999980926514
 21
89.0
 31
0.0
  0
LINE
  5
   1F8
  8
0
  6
CONTINUOUS
 62
     7
 10
-40.9999980926514
 20
79.0
 30
0.0
 11
-38.4999980926514
 21
79.0
 31
0.0
  0
LINE
  5
   1F9
  8
0
  6
CONTINUOUS
 62
     7
 10
-85.9999980926514
 20
89.0
 30
0.0
 11
-83.4999980926514
 21
89.0
 31
0.0
  0
LINE
  5
   1FA
  8
0
  6
CONTINUOUS
 62
     7
 10
-85.9999980926514
 20
79.0
 30
0.0
 11
-83.4999980926514
 21
79.0
 31
0.0
  0
POINT
  5
   1FB
  8
0
  6
CONTINUOUS
 62
     7
 10
18.0000019073486
 20
84.0
 30
0.0
  0
ENDBLK
  5
   1FC
  8
0
  6
CONTINUOUS
 62
     7
  0
BLOCK
  5
   1FD
  8
0
  6
CONTINUOUS
 62
     7
  2
*UDIM721
 70
    65
 10
0.0
 20
0.0
 30
0.0
  3
*UDIM721
  0
TEXT
  5
   1FE
  8
0
  6
CONTINUOUS
 62
     7
 10
165.159928066563
 20
96.8658020146217
 30
0.0
 40
2.99999997871263
  1
307,5
 50
89.9999999480344
 41
0.933333333333333
 72
     1
 11
163.659928083275
 21
103.565801968438
 31
0.0
 73
     2
  0
LINE
  5
   1FF
  8
0
  6
CONTINUOUS
 62
     7
 10
178.889874889636
 20
50.028313809156
 30
0.0
 11
164.159928072631
 21
50.028313809156
 31
0.0
  0
LINE
  5
   200
  8
0
  6
CONTINUOUS
 62
     7
 10
178.889883057605
 20
157.653294403928
 30
0.0
 11
164.159928072631
 21
157.653294403928
 31
0.0
  0
LINE
  5
   201
  8
0
  6
CONTINUOUS
 62
     7
 10
166.159928072631
 20
50.028313809156
 30
0.0
 11
166.159928072631
 21
157.653294403928
 31
0.0
  0
LINE
  5
   202
  8
0
  6
CONTINUOUS
 62
     7
 10
165.638983642679
 20
52.982737086363
 30
0.0
 11
166.159928072631
 21
50.028313809156
 31
0.0
  0
LINE
  5
   203
  8
0
  6
CONTINUOUS
 62
     7
 10
166.159928072631
 20
50.028313809156
 30
0.0
 11
166.680872502583
 21
52.982737086363
 31
0.0
  0
LINE
  5
   204
  8
0
  6
CONTINUOUS
 62
     7
 10
166.680872502583
 20
154.698871126721
 30
0.0
 11
166.159928072631
 21
157.653294403928
 31
0.0
  0
LINE
  5
   205
  8
0
  6
CONTINUOUS
 62
     7
 10
166.159928072631
 20
157.653294403928
 30
0.0
 11
165.638983642679
 21
154.698871126721
 31
0.0
  0
ENDBLK
  5
   206
  8
0
  6
CONTINUOUS
 62
     7
  0
BLOCK
  5
   207
  8
0
  6
CONTINUOUS
 62
     7
  2
*UDIM722
 70
    65
 10
0.0
 20
0.0
 30
0.0
  3
*UDIM722
  0
TEXT
  5
   208
  8
0
  6
CONTINUOUS
 62
     7
 10
175.635772460867
 20
61.0345612209203
 30
0.0
 40
2.99999997871263
  1
110,75
 50
89.9999999480344
 41
0.933333333333333
 72
     1
 11
174.135772478847
 21
69.1345611648029
 31
0.0
 73
     2
  0
LINE
  5
   209
  8
0
  6
CONTINUOUS
 62
     7
 10
178.889874889636
 20
50.028313809156
 30
0.0
 11
174.635772468203
 21
50.028313809156
 31
0.0
  0
LINE
  5
   20A
  8
0
  6
CONTINUOUS
 62
     7
 10
176.635772468203
 20
50.028313809156
 30
0.0
 11
176.635772468203
 21
88.7908072057417
 31
0.0
  0
LINE
  5
   20B
  8
0
  6
CONTINUOUS
 62
     7
 10
176.114828038251
 20
52.982737086363
 30
0.0
 11
176.635772468203
 21
50.028313809156
 31
0.0
  0
LINE
  5
   20C
  8
0
  6
CONTINUOUS
 62
     7
 10
176.635772468203
 20
50.028313809156
 30
0.0
 11
177.156716898155
 21
52.982737086363
 31
0.0
  0
LINE
  5
   20D
  8
0
  6
CONTINUOUS
 62
     7
 10
177.156716898155
 20
85.8363839285347
 30
0.0
 11
176.635772468203
 21
88.7908072057417
 31
0.0
  0
LINE
  5
   20E
  8
0
  6
CONTINUOUS
 62
     7
 10
176.635772468203
 20
88.7908072057417
 30
0.0
 11
176.114828038251
 21
85.8363839285347
 31
0.0
  0
ENDBLK
  5
   20F
  8
0
  6
CONTINUOUS
 62
     7
  0
BLOCK
  5
   210
  8
0
  6
CONTINUOUS
 62
     7
  2
*UDIM723
 70
    65
 10
0.0
 20
0.0
 30
0.0
  3
*UDIM723
  0
TEXT
  5
   211
  8
0
  6
CONTINUOUS
 62
     7
 10
274.886912894795
 20
84.6158144190995
 30
0.0
 40
2.99999997871263
  1
105
 50
89.9999999480344
 41
0.933333333333333
 72
     1
 11
273.386912908971
 21
88.5158143927845
 31
0.0
 73
     2
  0
LINE
  5
   212
  8
0
  6
CONTINUOUS
 62
     7
 10
254.726418757438
 20
70.4158181998182
 30
0.0
 11
277.886912898327
 21
70.4158181998182
 31
0.0
  0
LINE
  5
   213
  8
0
  6
CONTINUOUS
 62
     7
 10
254.726418757438
 20
107.165806892817
 30
0.0
 11
277.886912898327
 21
107.165806892817
 31
0.0
  0
LINE
  5
   214
  8
0
  6
CONTINUOUS
 62
     7
 10
275.886912898327
 20
70.4158181998182
 30
0.0
 11
275.886912898327
 21
107.165806892817
 31
0.0
  0
LINE
  5
   215
  8
0
  6
CONTINUOUS
 62
     7
 10
275.365968468376
 20
73.3702414770252
 30
0.0
 11
275.886912898327
 21
70.4158181998182
 31
0.0
  0
LINE
  5
   216
  8
0
  6
CONTINUOUS
 62
     7
 10
275.886912898327
 20
70.4158181998182
 30
0.0
 11
276.407857328279
 21
73.3702414770252
 31
0.0
  0
LINE
  5
   217
  8
0
  6
CONTINUOUS
 62
     7
 10
276.407857328279
 20
104.21138361561
 30
0.0
 11
275.886912898327
 21
107.165806892817
 31
0.0
  0
LINE
  5
   218
  8
0
  6
CONTINUOUS
 62
     7
 10
275.886912898327
 20
107.165806892817
 30
0.0
 11
275.365968468376
 21
104.21138361561
 31
0.0
  0
ENDBLK
  5
   219
  8
0
  6
CONTINUOUS
 62
     7
  0
BLOCK
  5
   21A
  8
0
  6
CONTINUOUS
 62
     7
  2
*UDIM724
 70
    65
 10
0.0
 20
0.0
 30
0.0
  3
*UDIM724
  0
TEXT
  5
   21B
  8
0
  6
CONTINUOUS
 62
     7
 10
235.73413459213
 20
7.42426794729261
 30
0.0
 40
2.99999997871263
  1
135
 50
359.999999948034
 41
0.933333333333333
 72
     1
 11
239.634134565809
 21
8.92426793313133
 31
0.0
 73
     2
  0
LINE
  5
   21C
  8
0
  6
CONTINUOUS
 62
     7
 10
263.541845501075
 20
84.2033179479886
 30
0.0
 11
263.541845501075
 21
4.42426794377503
 31
0.0
  0
LINE
  5
   21D
  8
0
  6
CONTINUOUS
 62
     7
 10
216.276422733068
 20
40.2626962142879
 30
0.0
 11
216.276422733068
 21
4.42426794377503
 31
0.0
  0
LINE
  5
   21E
  8
0
  6
CONTINUOUS
 62
     7
 10
263.541845501075
 20
6.42426794377502
 30
0.0
 11
216.276422733068
 21
6.42426794377502
 31
0.0
  0
LINE
  5
   21F
  8
0
  6
CONTINUOUS
 62
     7
 10
260.587422223868
 20
5.90332351382335
 30
0.0
 11
263.541845501075
 21
6.42426794377502
 31
0.0
  0
LINE
  5
   220
  8
0
  6
CONTINUOUS
 62
     7
 10
263.541845501075
 20
6.42426794377502
 30
0.0
 11
260.587422223868
 21
6.94521237372669
 31
0.0
  0
LINE
  5
   221
  8
0
  6
CONTINUOUS
 62
     7
 10
219.230846010275
 20
6.94521237372668
 30
0.0
 11
216.276422733068
 21
6.42426794377502
 31
0.0
  0
LINE
  5
   222
  8
0
  6
CONTINUOUS
 62
     7
 10
216.276422733068
 20
6.42426794377502
 30
0.0
 11
219.230846010275
 21
5.90332351382335
 31
0.0
  0
ENDBLK
  5
   223
  8
0
  6
CONTINUOUS
 62
     7
  0
BLOCK
  5
   224
  8
0
  6
CONTINUOUS
 62
     7
  2
*UDIM725
 70
    65
 10
0.0
 20
0.0
 30
0.0
  3
*UDIM725
  0
TEXT
  5
   225
  8
0
  6
CONTINUOUS
 62
     7
 10
257.426418729831
 20
16.1042528433346
 30
0.0
 40
2.99999997871263
  1
2
 50
359.999999948034
 41
0.933333333333333
 72
     1
 11
258.526418723379
 21
17.6042528316988
 31
0.0
 73
     2
  0
LINE
  5
   226
  8
0
  6
CONTINUOUS
 62
     7
 10
254.426418745517
 20
40.5721794819369
 30
0.0
 11
254.426418745517
 21
13.1042528423425
 31
0.0
  0
LINE
  5
   227
  8
0
  6
CONTINUOUS
 62
     7
 10
253.726418757438
 20
40.1425243168401
 30
0.0
 11
253.726418757438
 21
13.1042528423425
 31
0.0
  0
LINE
  5
   228
  8
0
  6
CONTINUOUS
 62
     7
 10
259.626418715573
 20
15.1042528423425
 30
0.0
 11
253.726418757438
 21
15.1042528423425
 31
0.0
  0
LINE
  5
   229
  8
0
  6
CONTINUOUS
 62
     7
 10
257.380842022724
 20
15.6251972722941
 30
0.0
 11
254.426418745517
 21
15.1042528423425
 31
0.0
  0
LINE
  5
   22A
  8
0
  6
CONTINUOUS
 62
     7
 10
254.426418745517
 20
15.1042528423425
 30
0.0
 11
257.380842022724
 21
14.5833084123908
 31
0.0
  0
LINE
  5
   22B
  8
0
  6
CONTINUOUS
 62
     7
 10
250.771995480231
 20
14.5833084123908
 30
0.0
 11
253.726418757438
 21
15.1042528423425
 31
0.0
  0
LINE
  5
   22C
  8
0
  6
CONTINUOUS
 62
     7
 10
253.726418757438
 20
15.1042528423425
 30
0.0
 11
250.771995480231
 21
15.6251972722941
 31
0.0
  0
ENDBLK
  5
   22D
  8
0
  6
CONTINUOUS
 62
     7
  0
BLOCK
  5
   22E
  8
0
  6
CONTINUOUS
 62
     7
  2
*UDIM726
 70
    65
 10
0.0
 20
0.0
 30
0.0
  3
*UDIM726
  0
TEXT
  5
   22F
  8
0
  6
CONTINUOUS
 62
     7
 10
230.82641888381
 20
16.1042528458601
 30
0.0
 40
2.99999997871263
  1
107
 50
359.999999948034
 41
0.933333333333333
 72
     1
 11
234.726418857489
 21
17.6042528316988
 31
0.0
 73
     2
  0
LINE
  5
   230
  8
0
  6
CONTINUOUS
 62
     7
 10
216.276422733068
 20
40.2626962142879
 30
0.0
 11
216.276422733068
 21
13.1042528423425
 31
0.0
  0
LINE
  5
   231
  8
0
  6
CONTINUOUS
 62
     7
 10
253.726418757438
 20
15.1042528423425
 30
0.0
 11
216.276422733068
 21
15.1042528423425
 31
0.0
  0
LINE
  5
   232
  8
0
  6
CONTINUOUS
 62
     7
 10
250.771995480231
 20
14.5833084123908
 30
0.0
 11
253.726418757438
 21
15.1042528423425
 31
0.0
  0
LINE
  5
   233
  8
0
  6
CONTINUOUS
 62
     7
 10
253.726418757438
 20
15.1042528423425
 30
0.0
 11
250.771995480231
 21
15.6251972722941
 31
0.0
  0
LINE
  5
   234
  8
0
  6
CONTINUOUS
 62
     7
 10
219.230846010275
 20
15.6251972722941
 30
0.0
 11
216.276422733068
 21
15.1042528423425
 31
0.0
  0
LINE
  5
   235
  8
0
  6
CONTINUOUS
 62
     7
 10
216.276422733068
 20
15.1042528423425
 30
0.0
 11
219.230846010275
 21
14.5833084123908
 31
0.0
  0
ENDBLK
  5
   236
  8
0
  6
CONTINUOUS
 62
     7
  0
BLOCK
  5
   237
  8
0
  6
CONTINUOUS
 62
     7
  2
*UDIM727
 70
    65
 10
0.0
 20
0.0
 30
0.0
  3
*UDIM727
  0
TEXT
  5
   238
  8
0
  6
CONTINUOUS
 62
     7
 10
227.063918774038
 20
24.7243778999499
 30
0.0
 40
2.99999997871263
  1
101,5
 50
359.999999948034
 41
0.933333333333333
 72
     1
 11
233.763918727849
 21
26.2243778832632
 31
0.0
 73
     2
  0
LINE
  5
   239
  8
0
  6
CONTINUOUS
 62
     7
 10
251.801416787505
 20
63.7283182966758
 30
0.0
 11
251.801416787505
 21
21.7243778939069
 31
0.0
  0
LINE
  5
   23A
  8
0
  6
CONTINUOUS
 62
     7
 10
216.276422733068
 20
40.2626962142879
 30
0.0
 11
216.276422733068
 21
21.7243778939069
 31
0.0
  0
LINE
  5
   23B
  8
0
  6
CONTINUOUS
 62
     7
 10
251.801416787505
 20
23.7243778939069
 30
0.0
 11
216.276422733068
 21
23.7243778939069
 31
0.0
  0
LINE
  5
   23C
  8
0
  6
CONTINUOUS
 62
     7
 10
248.846993510298
 20
23.2034334639552
 30
0.0
 11
251.801416787505
 21
23.7243778939069
 31
0.0
  0
LINE
  5
   23D
  8
0
  6
CONTINUOUS
 62
     7
 10
251.801416787505
 20
23.7243778939069
 30
0.0
 11
248.846993510298
 21
24.2453223238585
 31
0.0
  0
LINE
  5
   23E
  8
0
  6
CONTINUOUS
 62
     7
 10
219.230846010275
 20
24.2453223238585
 30
0.0
 11
216.276422733068
 21
23.7243778939069
 31
0.0
  0
LINE
  5
   23F
  8
0
  6
CONTINUOUS
 62
     7
 10
216.276422733068
 20
23.7243778939069
 30
0.0
 11
219.230846010275
 21
23.2034334639552
 31
0.0
  0
ENDBLK
  5
   240
  8
0
  6
CONTINUOUS
 62
     7
  0
BLOCK
  5
   241
  8
0
  6
CONTINUOUS
 62
     7
  2
*UDIM728
 70
    65
 10
0.0
 20
0.0
 30
0.0
  3
*UDIM728
  0
TEXT
  5
   242
  8
0
  6
CONTINUOUS
 62
     7
 10
209.476424886991
 20
24.724377894899
 30
0.0
 40
2.99999997871263
  1
3
 50
359.999999948034
 41
0.933333333333333
 72
     1
 11
210.576424880538
 21
26.2243778832632
 31
0.0
 73
     2
  0
TEXT
  5
   243
  8
0
  6
CONTINUOUS
 62
     7
 10
206.726424890681
 20
24.724377894899
 30
0.0
 40
2.99999997871263
  1
_
 50
359.999999948034
 41
0.933333333333333
 72
     1
 11
207.826424884228
 21
26.2243778832632
 31
0.0
 73
     2
  0
LINE
  5
   244
  8
0
  6
CONTINUOUS
 62
     7
 10
215.22642275095
 20
40.2951036211434
 30
0.0
 11
215.22642275095
 21
21.7243778939069
 31
0.0
  0
LINE
  5
   245
  8
0
  6
CONTINUOUS
 62
     7
 10
216.276422733068
 20
23.7243778939069
 30
0.0
 11
206.726424892033
 21
23.7243778939069
 31
0.0
  0
LINE
  5
   246
  8
0
  6
CONTINUOUS
 62
     7
 10
219.230846010275
 20
24.2453223238585
 30
0.0
 11
216.276422733068
 21
23.7243778939069
 31
0.0
  0
LINE
  5
   247
  8
0
  6
CONTINUOUS
 62
     7
 10
216.276422733068
 20
23.7243778939069
 30
0.0
 11
219.230846010275
 21
23.2034334639552
 31
0.0
  0
LINE
  5
   248
  8
0
  6
CONTINUOUS
 62
     7
 10
212.271999473743
 20
23.2034334639552
 30
0.0
 11
215.22642275095
 21
23.7243778939069
 31
0.0
  0
LINE
  5
   249
  8
0
  6
CONTINUOUS
 62
     7
 10
215.22642275095
 20
23.7243778939069
 30
0.0
 11
212.271999473743
 21
24.2453223238585
 31
0.0
  0
ENDBLK
  5
   24A
  8
0
  6
CONTINUOUS
 62
     7
  0
BLOCK
  5
   24B
  8
0
  6
CONTINUOUS
 62
     7
  2
*UDIM729
 70
    65
 10
0.0
 20
0.0
 30
0.0
  3
*UDIM729
  0
TEXT
  5
   24C
  8
0
  6
CONTINUOUS
 62
     7
 10
228.026413732811
 20
34.6016011229922
 30
0.0
 40
2.99999997871263
  1
5
 50
359.999999948034
 41
0.933333333333333
 72
     1
 11
229.126413726359
 21
36.1016011113563
 31
0.0
 73
     2
  0
LINE
  5
   24D
  8
0
  6
CONTINUOUS
 62
     7
 10
225.02641441607
 20
45.5282959625897
 30
0.0
 11
225.02641441607
 21
31.601601122
 31
0.0
  0
LINE
  5
   24E
  8
0
  6
CONTINUOUS
 62
     7
 10
223.276414445872
 20
45.5282959625897
 30
0.0
 11
223.276414445872
 21
31.601601122
 31
0.0
  0
LINE
  5
   24F
  8
0
  6
CONTINUOUS
 62
     7
 10
230.226413718553
 20
33.601601122
 30
0.0
 11
223.276414445872
 21
33.601601122
 31
0.0
  0
LINE
  5
   250
  8
0
  6
CONTINUOUS
 62
     7
 10
227.980837693277
 20
34.1225455519517
 30
0.0
 11
225.02641441607
 21
33.601601122
 31
0.0
  0
LINE
  5
   251
  8
0
  6
CONTINUOUS
 62
     7
 10
225.02641441607
 20
33.601601122
 30
0.0
 11
227.980837693277
 21
33.0806566920484
 31
0.0
  0
LINE
  5
   252
  8
0
  6
CONTINUOUS
 62
     7
 10
220.321991168665
 20
33.0806566920484
 30
0.0
 11
223.276414445872
 21
33.601601122
 31
0.0
  0
LINE
  5
   253
  8
0
  6
CONTINUOUS
 62
     7
 10
223.276414445872
 20
33.601601122
 30
0.0
 11
220.321991168665
 21
34.1225455519517
 31
0.0
  0
ENDBLK
  5
   254
  8
0
  6
CONTINUOUS
 62
     7
  0
BLOCK
  5
   255
  8
0
  6
CONTINUOUS
 62
     7
  2
*UDIM730
 70
    65
 10
0.0
 20
0.0
 30
0.0
  3
*UDIM730
  0
TEXT
  5
   256
  8
0
  6
CONTINUOUS
 62
     7
 10
207.751423059601
 20
34.6016011242549
 30
0.0
 40
2.99999997871263
  1
20
 50
359.999999948034
 41
0.933333333333333
 72
     1
 11
210.251423043214
 21
36.1016011113563
 31
0.0
 73
     2
  0
LINE
  5
   257
  8
0
  6
CONTINUOUS
 62
     7
 10
216.276422733068
 20
40.2626962142879
 30
0.0
 11
216.276422733068
 21
31.601601122
 31
0.0
  0
LINE
  5
   258
  8
0
  6
CONTINUOUS
 62
     7
 10
223.276414445872
 20
33.601601122
 30
0.0
 11
207.751423060954
 21
33.601601122
 31
0.0
  0
LINE
  5
   259
  8
0
  6
CONTINUOUS
 62
     7
 10
220.321991168665
 20
33.0806566920484
 30
0.0
 11
223.276414445872
 21
33.601601122
 31
0.0
  0
LINE
  5
   25A
  8
0
  6
CONTINUOUS
 62
     7
 10
223.276414445872
 20
33.601601122
 30
0.0
 11
220.321991168665
 21
34.1225455519517
 31
0.0
  0
LINE
  5
   25B
  8
0
  6
CONTINUOUS
 62
     7
 10
219.230846010275
 20
34.1225455519517
 30
0.0
 11
216.276422733068
 21
33.601601122
 31
0.0
  0
LINE
  5
   25C
  8
0
  6
CONTINUOUS
 62
     7
 10
216.276422733068
 20
33.601601122
 30
0.0
 11
219.230846010275
 21
33.0806566920484
 31
0.0
  0
ENDBLK
  5
   25D
  8
0
  6
CONTINUOUS
 62
     7
  0
BLOCK
  5
   25E
  8
0
  6
CONTINUOUS
 62
     7
  2
*UDIM731
 70
    65
 10
0.0
 20
0.0
 30
0.0
  3
*UDIM731
  0
TEXT
  5
   25F
  8
0
  6
CONTINUOUS
 62
     7
 10
227.063921444317
 20
181.083836449322
 30
0.0
 40
2.99999997871263
  1
101,5
 50
359.999999948034
 41
0.933333333333333
 72
     1
 11
233.763921398128
 21
182.583836432636
 31
0.0
 73
     2
  0
LINE
  5
   260
  8
0
  6
CONTINUOUS
 62
     7
 10
251.801422128063
 20
163.81579866233
 30
0.0
 11
251.801422128063
 21
182.083836443279
 31
0.0
  0
LINE
  5
   261
  8
0
  6
CONTINUOUS
 62
     7
 10
216.276422733068
 20
169.367567493699
 30
0.0
 11
216.276422733068
 21
182.083836443279
 31
0.0
  0
LINE
  5
   262
  8
0
  6
CONTINUOUS
 62
     7
 10
251.801422128063
 20
180.083836443279
 30
0.0
 11
216.276422733068
 21
180.083836443279
 31
0.0
  0
LINE
  5
   263
  8
0
  6
CONTINUOUS
 62
     7
 10
248.846998850856
 20
179.562892013328
 30
0.0
 11
251.801422128063
 21
180.083836443279
 31
0.0
  0
LINE
  5
   264
  8
0
  6
CONTINUOUS
 62
     7
 10
251.801422128063
 20
180.083836443279
 30
0.0
 11
248.846998850856
 21
180.604780873231
 31
0.0
  0
LINE
  5
   265
  8
0
  6
CONTINUOUS
 62
     7
 10
219.230846010275
 20
180.604780873231
 30
0.0
 11
216.276422733068
 21
180.083836443279
 31
0.0
  0
LINE
  5
   266
  8
0
  6
CONTINUOUS
 62
     7
 10
216.276422733068
 20
180.083836443279
 30
0.0
 11
219.230846010275
 21
179.562892013328
 31
0.0
  0
ENDBLK
  5
   267
  8
0
  6
CONTINUOUS
 62
     7
  0
BLOCK
  5
   268
  8
0
  6
CONTINUOUS
 62
     7
  2
*UDIM732
 70
    65
 10
0.0
 20
0.0
 30
0.0
  3
*UDIM732
  0
TEXT
  5
   269
  8
0
  6
CONTINUOUS
 62
     7
 10
226.251421678691
 20
172.643290934979
 30
0.0
 40
2.99999997871263
  1
20
 50
359.999999948034
 41
0.933333333333333
 72
     1
 11
228.751421662304
 21
174.14329092208
 31
0.0
 73
     2
  0
LINE
  5
   26A
  8
0
  6
CONTINUOUS
 62
     7
 10
223.276422613841
 20
161.453294356245
 30
0.0
 11
223.276422613841
 21
173.643290932724
 31
0.0
  0
LINE
  5
   26B
  8
0
  6
CONTINUOUS
 62
     7
 10
216.276422733068
 20
169.367567493699
 30
0.0
 11
216.276422733068
 21
173.643290932724
 31
0.0
  0
LINE
  5
   26C
  8
0
  6
CONTINUOUS
 62
     7
 10
231.251421644565
 20
171.643290932724
 30
0.0
 11
216.276422733068
 21
171.643290932724
 31
0.0
  0
LINE
  5
   26D
  8
0
  6
CONTINUOUS
 62
     7
 10
226.230845891048
 20
172.164235362676
 30
0.0
 11
223.276422613841
 21
171.643290932724
 31
0.0
  0
LINE
  5
   26E
  8
0
  6
CONTINUOUS
 62
     7
 10
223.276422613841
 20
171.643290932724
 30
0.0
 11
226.230845891048
 21
171.122346502772
 31
0.0
  0
LINE
  5
   26F
  8
0
  6
CONTINUOUS
 62
     7
 10
213.321999455861
 20
171.122346502772
 30
0.0
 11
216.276422733068
 21
171.643290932724
 31
0.0
  0
LINE
  5
   270
  8
0
  6
CONTINUOUS
 62
     7
 10
216.276422733068
 20
171.643290932724
 30
0.0
 11
213.321999455861
 21
172.164235362676
 31
0.0
  0
ENDBLK
  5
   271
  8
0
  6
CONTINUOUS
 62
     7
  0
BLOCK
  5
   272
  8
0
  6
CONTINUOUS
 62
     0
  2
ON-OFF
 70
    64
 10
0.0
 20
0.0
 30
0.0
  3
ON-OFF
  0
LINE
  5
   273
  8
0
  6
CONTINUOUS
 62
     0
 10
5.09999999999999
 20
-29.65
 30
0.0
 11
5.54999999999999
 21
-29.65
 31
0.0
  0
LINE
  5
   274
  8
0
  6
CONTINUOUS
 62
     0
 10
3.79999999999999
 20
-37.35
 30
0.0
 11
4.59999999999999
 21
-37.35
 31
0.0
  0
LINE
  5
   275
  8
0
  6
CONTINUOUS
 62
     0
 10
-2.6
 20
-34.75
 30
0.0
 11
-2.6
 21
-34.25
 31
0.0
  0
LINE
  5
   276
  8
0
  6
CONTINUOUS
 62
     0
 10
2.6
 20
-34.75
 30
0.0
 11
2.6
 21
-34.25
 31
0.0
  0
ARC
  5
   277
  8
0
  6
CONTINUOUS
 62
     0
 10
-3.5527136788005E-15
 20
-34.25
 30
0.0
 40
2.6
 50
0.0
 51
180.0
  0
ARC
  5
   278
  8
0
  6
CONTINUOUS
 62
     0
 10
-3.5527136788005E-15
 20
-34.75
 30
0.0
 40
2.6
 50
180.0
 51
360.0
  0
ARC
  5
   279
  8
0
  6
CONTINUOUS
 62
     0
 10
-3.5527136788005E-15
 20
-34.25
 30
0.0
 40
1.8
 50
0.0
 51
180.0
  0
ARC
  5
   27A
  8
0
  6
CONTINUOUS
 62
     0
 10
-3.5527136788005E-15
 20
-34.75
 30
0.0
 40
1.8
 50
180.0
 51
360.0
  0
LINE
  5
   27B
  8
0
  6
CONTINUOUS
 62
     0
 10
-1.8
 20
-34.75
 30
0.0
 11
-1.8
 21
-34.25
 31
0.0
  0
LINE
  5
   27C
  8
0
  6
CONTINUOUS
 62
     0
 10
1.8
 20
-34.75
 30
0.0
 11
1.8
 21
-34.25
 31
0.0
  0
LINE
  5
   27D
  8
0
  6
CONTINUOUS
 62
     0
 10
2.84999999999999
 20
-32.85
 30
0.0
 11
2.84999999999999
 21
-32.05
 31
0.0
  0
LINE
  5
   27E
  8
0
  6
CONTINUOUS
 62
     0
 10
2.84999999999999
 20
-32.85
 30
0.0
 11
3.79999999999999
 21
-32.85
 31
0.0
  0
LINE
  5
   27F
  8
0
  6
CONTINUOUS
 62
     0
 10
5.54999999999999
 20
-32.85
 30
0.0
 11
5.54999999999999
 21
-32.05
 31
0.0
  0
LINE
  5
   280
  8
0
  6
CONTINUOUS
 62
     0
 10
2.84999999999999
 20
-32.05
 30
0.0
 11
3.79999999999999
 21
-32.05
 31
0.0
  0
LINE
  5
   281
  8
0
  6
CONTINUOUS
 62
     0
 10
3.79999999999999
 20
-37.35
 30
0.0
 11
3.79999999999999
 21
-32.85
 31
0.0
  0
LINE
  5
   282
  8
0
  6
CONTINUOUS
 62
     0
 10
4.59999999999999
 20
-37.35
 30
0.0
 11
4.59999999999999
 21
-32.85
 31
0.0
  0
LINE
  5
   283
  8
0
  6
CONTINUOUS
 62
     0
 10
4.59999999999999
 20
-32.85
 30
0.0
 11
5.54999999999999
 21
-32.85
 31
0.0
  0
LINE
  5
   284
  8
0
  6
CONTINUOUS
 62
     0
 10
4.59999999999999
 20
-32.05
 30
0.0
 11
5.54999999999999
 21
-32.05
 31
0.0
  0
LINE
  5
   285
  8
0
  6
CONTINUOUS
 62
     0
 10
3.79999999999999
 20
-32.05
 30
0.0
 11
3.79999999999999
 21
-30.95
 31
0.0
  0
LINE
  5
   286
  8
0
  6
CONTINUOUS
 62
     0
 10
4.59999999999999
 20
-32.05
 30
0.0
 11
4.59999999999999
 21
-30.95
 31
0.0
  0
ARC
  5
   287
  8
0
  6
CONTINUOUS
 62
     0
 10
5.09999999999999
 20
-30.95
 30
0.0
 40
1.3
 50
89.9999999999999
 51
180.0
  0
ARC
  5
   288
  8
0
  6
CONTINUOUS
 62
     0
 10
5.09999999999999
 20
-30.95
 30
0.0
 40
0.5
 50
89.9999999999999
 51
180.0
  0
LINE
  5
   289
  8
0
  6
CONTINUOUS
 62
     0
 10
5.54999999999999
 20
-30.45
 30
0.0
 11
5.54999999999999
 21
-29.65
 31
0.0
  0
LINE
  5
   28A
  8
0
  6
CONTINUOUS
 62
     0
 10
5.09999999999999
 20
-30.45
 30
0.0
 11
5.54999999999999
 21
-30.45
 31
0.0
  0
LINE
  5
   28B
  8
0
  6
CONTINUOUS
 62
     0
 10
8.29999999999998
 20
-29.65
 30
0.0
 11
8.74999999999999
 21
-29.65
 31
0.0
  0
LINE
  5
   28C
  8
0
  6
CONTINUOUS
 62
     0
 10
6.99999999999999
 20
-37.35
 30
0.0
 11
7.79999999999999
 21
-37.35
 31
0.0
  0
LINE
  5
   28D
  8
0
  6
CONTINUOUS
 62
     0
 10
6.04999999999999
 20
-32.85
 30
0.0
 11
6.04999999999999
 21
-32.05
 31
0.0
  0
LINE
  5
   28E
  8
0
  6
CONTINUOUS
 62
     0
 10
6.04999999999999
 20
-32.85
 30
0.0
 11
6.99999999999999
 21
-32.85
 31
0.0
  0
LINE
  5
   28F
  8
0
  6
CONTINUOUS
 62
     0
 10
8.74999999999999
 20
-32.85
 30
0.0
 11
8.74999999999999
 21
-32.05
 31
0.0
  0
LINE
  5
   290
  8
0
  6
CONTINUOUS
 62
     0
 10
6.04999999999999
 20
-32.05
 30
0.0
 11
6.99999999999999
 21
-32.05
 31
0.0
  0
LINE
  5
   291
  8
0
  6
CONTINUOUS
 62
     0
 10
6.99999999999999
 20
-37.35
 30
0.0
 11
6.99999999999999
 21
-32.85
 31
0.0
  0
LINE
  5
   292
  8
0
  6
CONTINUOUS
 62
     0
 10
7.79999999999999
 20
-37.35
 30
0.0
 11
7.79999999999999
 21
-32.85
 31
0.0
  0
LINE
  5
   293
  8
0
  6
CONTINUOUS
 62
     0
 10
7.79999999999999
 20
-32.85
 30
0.0
 11
8.74999999999999
 21
-32.85
 31
0.0
  0
LINE
  5
   294
  8
0
  6
CONTINUOUS
 62
     0
 10
7.79999999999999
 20
-32.05
 30
0.0
 11
8.74999999999999
 21
-32.05
 31
0.0
  0
LINE
  5
   295
  8
0
  6
CONTINUOUS
 62
     0
 10
6.99999999999999
 20
-32.05
 30
0.0
 11
6.99999999999999
 21
-30.95
 31
0.0
  0
LINE
  5
   296
  8
0
  6
CONTINUOUS
 62
     0
 10
7.79999999999999
 20
-32.05
 30
0.0
 11
7.79999999999999
 21
-30.95
 31
0.0
  0
ARC
  5
   297
  8
0
  6
CONTINUOUS
 62
     0
 10
8.29999999999998
 20
-30.95
 30
0.0
 40
1.3
 50
89.9999999999999
 51
180.0
  0
ARC
  5
   298
  8
0
  6
CONTINUOUS
 62
     0
 10
8.29999999999998
 20
-30.95
 30
0.0
 40
0.5
 50
89.9999999999999
 51
180.0
  0
LINE
  5
   299
  8
0
  6
CONTINUOUS
 62
     0
 10
8.74999999999999
 20
-30.45
 30
0.0
 11
8.74999999999999
 21
-29.65
 31
0.0
  0
LINE
  5
   29A
  8
0
  6
CONTINUOUS
 62
     0
 10
8.29999999999998
 20
-30.45
 30
0.0
 11
8.74999999999999
 21
-30.45
 31
0.0
  0
LINE
  5
   29B
  8
0
  6
CONTINUOUS
 62
     0
 10
3.4
 20
-2.85000000000002
 30
0.0
 11
4.19999999999999
 21
-2.85000000000002
 31
0.0
  0
ARC
  5
   29C
  8
0
  6
CONTINUOUS
 62
     0
 10
-3.5527136788005E-15
 20
0.249999999999979
 30
0.0
 40
2.6
 50
0.0
 51
180.0
  0
ARC
  5
   29D
  8
0
  6
CONTINUOUS
 62
     0
 10
-3.5527136788005E-15
 20
0.249999999999979
 30
0.0
 40
1.8
 50
0.0
 51
180.0
  0
ARC
  5
   29E
  8
0
  6
CONTINUOUS
 62
     0
 10
-3.5527136788005E-15
 20
-0.250000000000018
 30
0.0
 40
2.6
 50
180.0
 51
360.0
  0
ARC
  5
   29F
  8
0
  6
CONTINUOUS
 62
     0
 10
-3.5527136788005E-15
 20
-0.250000000000018
 30
0.0
 40
1.8
 50
180.0
 51
360.0
  0
LINE
  5
   2A0
  8
0
  6
CONTINUOUS
 62
     0
 10
1.8
 20
-0.250000000000018
 30
0.0
 11
1.8
 21
0.249999999999979
 31
0.0
  0
LINE
  5
   2A1
  8
0
  6
CONTINUOUS
 62
     0
 10
2.6
 20
-0.250000000000018
 30
0.0
 11
2.6
 21
0.249999999999979
 31
0.0
  0
LINE
  5
   2A2
  8
0
  6
CONTINUOUS
 62
     0
 10
-1.8
 20
-0.250000000000032
 30
0.0
 11
-1.8
 21
0.249999999999964
 31
0.0
  0
LINE
  5
   2A3
  8
0
  6
CONTINUOUS
 62
     0
 10
-2.6
 20
-0.250000000000018
 30
0.0
 11
-2.6
 21
0.249999999999979
 31
0.0
  0
LINE
  5
   2A4
  8
0
  6
CONTINUOUS
 62
     0
 10
3.4
 20
-2.85000000000002
 30
0.0
 11
3.4
 21
2.84999999999998
 31
0.0
  0
LINE
  5
   2A5
  8
0
  6
CONTINUOUS
 62
     0
 10
4.19999999999999
 20
-2.85000000000002
 30
0.0
 11
4.19999999999999
 21
0.649999999999981
 31
0.0
  0
LINE
  5
   2A6
  8
0
  6
CONTINUOUS
 62
     0
 10
6.99999999999999
 20
-2.85000000000002
 30
0.0
 11
6.99999999999999
 21
0.649999999999981
 31
0.0
  0
LINE
  5
   2A7
  8
0
  6
CONTINUOUS
 62
     0
 10
7.79999999999999
 20
-2.85000000000002
 30
0.0
 11
7.79999999999999
 21
0.84999999999998
 31
0.0
  0
LINE
  5
   2A8
  8
0
  6
CONTINUOUS
 62
     0
 10
3.4
 20
2.84999999999998
 30
0.0
 11
4.19999999999999
 21
2.84999999999998
 31
0.0
  0
ARC
  5
   2A9
  8
0
  6
CONTINUOUS
 62
     0
 10
5.59999999999999
 20
0.649999999999981
 30
0.0
 40
1.4
 50
0.0
 51
180.0
  0
LINE
  5
   2AA
  8
0
  6
CONTINUOUS
 62
     0
 10
4.19999999999999
 20
2.05
 30
0.0
 11
4.19999999999999
 21
2.84999999999998
 31
0.0
  0
ARC
  5
   2AB
  8
0
  6
CONTINUOUS
 62
     0
 10
5.79999999999999
 20
0.84999999999998
 30
0.0
 40
2.0
 50
0.0
 51
143.130102354155
  0
LINE
  5
   2AC
  8
0
  6
CONTINUOUS
 62
     0
 10
6.99999999999999
 20
-2.85000000000002
 30
0.0
 11
7.79999999999999
 21
-2.85000000000002
 31
0.0
  0
ENDBLK
  5
   2AD
  8
0
  6
CONTINUOUS
 62
     0
  0
BLOCK
  5
   2AE
  8
0
  6
CONTINUOUS
 62
     7
  2
MOSTRINA
 70
    64
 10
0.0
 20
0.0
 30
0.0
  3
MOSTRINA
  0
LINE
  5
   2AF
  8
0
  6
CONTINUOUS
 62
     3
 10
173.338256835938
 20
30.7306251525879
 30
0.0
 11
173.338256835938
 21
189.230621337891
 31
0.0
  0
LINE
  5
   2B0
  8
0
  6
CONTINUOUS
 62
     3
 10
57.5882568359375
 20
29.4806251525879
 30
0.0
 11
172.088256835938
 21
29.4806251525879
 31
0.0
  0
LINE
  5
   2B1
  8
0
  6
CONTINUOUS
 62
     3
 10
56.3382568359375
 20
30.7306251525879
 30
0.0
 11
56.3382568359375
 21
189.230621337891
 31
0.0
  0
LINE
  5
   2B2
  8
0
  6
CONTINUOUS
 62
     3
 10
57.5882568359375
 20
190.480621337891
 30
0.0
 11
172.088256835938
 21
190.480621337891
 31
0.0
  0
LINE
  5
   2B3
  8
0
  6
CONTINUOUS
 62
     3
 10
167.838256835938
 20
56.9806251525879
 30
0.0
 11
167.838256835938
 21
162.980625152588
 31
0.0
  0
LINE
  5
   2B4
  8
0
  6
CONTINUOUS
 62
     3
 10
61.8382568359375
 20
56.9806251525879
 30
0.0
 11
167.838256835938
 21
56.9806251525879
 31
0.0
  0
LINE
  5
   2B5
  8
0
  6
CONTINUOUS
 62
     3
 10
61.8382568359375
 20
56.9806251525879
 30
0.0
 11
61.8382568359375
 21
162.980625152588
 31
0.0
  0
LINE
  5
   2B6
  8
0
  6
CONTINUOUS
 62
     3
 10
61.8382568359375
 20
162.980621337891
 30
0.0
 11
167.838256835938
 21
162.980621337891
 31
0.0
  0
LINE
  5
   2B7
  8
0
  6
CONTINUOUS
 62
     3
 10
168.838256835938
 20
48.4806251525879
 30
0.0
 11
168.838256835938
 21
49.4806251525879
 31
0.0
  0
LINE
  5
   2B8
  8
0
  6
CONTINUOUS
 62
     3
 10
61.8382568359375
 20
50.4806251525879
 30
0.0
 11
167.838256835938
 21
50.4806251525879
 31
0.0
  0
LINE
  5
   2B9
  8
0
  6
CONTINUOUS
 62
     3
 10
60.8382568359375
 20
48.4806251525879
 30
0.0
 11
60.8382568359375
 21
49.4806251525879
 31
0.0
  0
LINE
  5
   2BA
  8
0
  6
CONTINUOUS
 62
     3
 10
61.8382568359375
 20
49.4806251525879
 30
0.0
 11
167.838256835938
 21
49.4806251525879
 31
0.0
  0
LINE
  5
   2BB
  8
0
  6
CONTINUOUS
 62
     3
 10
60.8382568359375
 20
29.4806251525879
 30
0.0
 11
60.8382568359375
 21
48.4806251525879
 31
0.0
  0
LINE
  5
   2BC
  8
0
  6
CONTINUOUS
 62
     3
 10
60.8382568359375
 20
49.4806213378906
 30
0.0
 11
60.8382568359375
 21
190.480621337891
 31
0.0
  0
LINE
  5
   2BD
  8
0
  6
CONTINUOUS
 62
     3
 10
61.8382568359375
 20
29.4806251525879
 30
0.0
 11
61.8382568359375
 21
49.4806251525879
 31
0.0
  0
LINE
  5
   2BE
  8
0
  6
CONTINUOUS
 62
     3
 10
61.8382568359375
 20
162.980621337891
 30
0.0
 11
61.8382568359375
 21
169.480621337891
 31
0.0
  0
LINE
  5
   2BF
  8
0
  6
CONTINUOUS
 62
     3
 10
61.8382568359375
 20
50.4806251525879
 30
0.0
 11
61.8382568359375
 21
56.9806251525879
 31
0.0
  0
LINE
  5
   2C0
  8
0
  6
CONTINUOUS
 62
     3
 10
168.838256835938
 20
29.4806251525879
 30
0.0
 11
168.838256835938
 21
48.4806251525879
 31
0.0
  0
LINE
  5
   2C1
  8
0
  6
CONTINUOUS
 62
     3
 10
168.838256835938
 20
49.4806251525879
 30
0.0
 11
168.838256835938
 21
190.480621337891
 31
0.0
  0
LINE
  5
   2C2
  8
0
  6
CONTINUOUS
 62
     3
 10
167.838256835938
 20
50.4806251525879
 30
0.0
 11
167.838256835938
 21
56.9806251525879
 31
0.0
  0
LINE
  5
   2C3
  8
0
  6
CONTINUOUS
 62
     3
 10
167.838256835938
 20
162.980621337891
 30
0.0
 11
167.838256835938
 21
169.480621337891
 31
0.0
  0
LINE
  5
   2C4
  8
0
  6
CONTINUOUS
 62
     3
 10
167.838256835938
 20
29.4806251525879
 30
0.0
 11
167.838256835938
 21
49.4806251525879
 31
0.0
  0
LINE
  5
   2C5
  8
0
  6
CONTINUOUS
 62
     3
 10
60.8382568359375
 20
170.480621337891
 30
0.0
 11
168.838256835938
 21
170.480621337891
 31
0.0
  0
LINE
  5
   2C6
  8
0
  6
CONTINUOUS
 62
     3
 10
61.8382568359375
 20
169.480621337891
 30
0.0
 11
167.838256835938
 21
169.480621337891
 31
0.0
  0
ARC
  5
   2C7
  8
0
  6
CONTINUOUS
 62
     3
 10
57.5882568359375
 20
30.7306251525879
 30
0.0
 40
1.25
 50
180.0
 51
270.0
  0
ARC
  5
   2C8
  8
0
  6
CONTINUOUS
 62
     3
 10
172.088256835938
 20
30.7306251525879
 30
0.0
 40
1.25
 50
270.0
 51
360.0
  0
ARC
  5
   2C9
  8
0
  6
CONTINUOUS
 62
     3
 10
172.088256835938
 20
189.230621337891
 30
0.0
 40
1.25
 50
0.0
 51
90.0
  0
ARC
  5
   2CA
  8
0
  6
CONTINUOUS
 62
     3
 10
57.5882568359375
 20
189.230621337891
 30
0.0
 40
1.25
 50
90.0
 51
180.0
  0
LINE
  5
   2CB
  8
0
  6
DOT
 62
     3
 10
60.3382577409677
 20
179.7306252571
 30
0.0
 11
60.8382568359375
 21
179.7306252571
 31
0.0
  0
LINE
  5
   2CC
  8
0
  6
DOT
 62
     3
 10
60.3382577409676
 20
181.2306252571
 30
0.0
 11
60.8382568359375
 21
181.2306252571
 31
0.0
  0
LINE
  5
   2CD
  8
0
  6
CONTINUOUS
 62
     3
 10
168.338257745313
 20
179.730625257273
 30
0.0
 11
168.838256835938
 21
179.730625257273
 31
0.0
  0
LINE
  5
   2CE
  8
0
  6
CONTINUOUS
 62
     3
 10
168.338257745314
 20
181.230625257273
 30
0.0
 11
168.838256835938
 21
181.230625257273
 31
0.0
  0
ARC
  5
   2CF
  8
0
  6
DOT
 62
     3
 10
60.3382577401871
 20
180.480625257147
 30
0.0
 40
0.749999999345164
 50
90.0
 51
270.0
  0
ARC
  5
   2D0
  8
0
  6
CONTINUOUS
 62
     3
 10
61.338257740822
 20
180.480625256974
 30
0.0
 40
0.750000000009701
 50
270.0
 51
450.0
  0
LINE
  5
   2D1
  8
0
  6
CONTINUOUS
 62
     3
 10
60.8382568359375
 20
181.2306252571
 30
0.0
 11
61.3382577409688
 21
181.2306252571
 31
0.0
  0
LINE
  5
   2D2
  8
0
  6
CONTINUOUS
 62
     3
 10
60.8382568359375
 20
179.7306252571
 30
0.0
 11
61.3382577409689
 21
179.7306252571
 31
0.0
  0
ARC
  5
   2D3
  8
0
  6
CONTINUOUS
 62
     3
 10
168.338257745503
 20
180.480625256952
 30
0.0
 40
0.750000000048506
 50
90.0000000038822
 51
269.999999996024
  0
ARC
  5
   2D4
  8
0
  6
DOT
 62
     3
 10
169.338257745421
 20
180.480625256965
 30
0.0
 40
0.750000000029104
 50
270.000000002449
 51
449.999999997486
  0
LINE
  5
   2D5
  8
0
  6
DOT
 62
     3
 10
168.838256835938
 20
181.230625257273
 30
0.0
 11
169.338257745315
 21
181.230625257273
 31
0.0
  0
LINE
  5
   2D6
  8
0
  6
DOT
 62
     3
 10
168.838256835938
 20
179.730625257273
 30
0.0
 11
169.338257745315
 21
179.730625257273
 31
0.0
  0
POINT
  5
   2D7
  8
0
  6
CONTINUOUS
 62
     3
 10
114.838256835938
 20
109.980621337891
 30
0.0
  0
ENDBLK
  5
   2D8
  8
0
  6
CONTINUOUS
 62
     7
  0
BLOCK
  5
   2D9
  8
0
  6
CONTINUOUS
 62
     7
  2
*UDIM733
 70
    65
 10
0.0
 20
0.0
 30
0.0
  3
*UDIM733
  0
TEXT
  5
   2DA
  8
0
  6
CONTINUOUS
 62
     7
 10
139.078010621515
 20
98.8782836494661
 30
0.0
 40
2.99999997871263
  1
344
 50
89.9999999480344
 41
0.933333333333333
 72
     1
 11
137.57801063569
 21
102.778283623151
 31
0.0
 73
     2
  0
LINE
  5
   2DB
  8
0
  6
CONTINUOUS
 62
     7
 10
113.482353793179
 20
42.8532868699012
 30
0.0
 11
142.078010625047
 21
42.8532868699012
 31
0.0
  0
LINE
  5
   2DC
  8
0
  6
CONTINUOUS
 62
     7
 10
113.482353793179
 20
163.253284819501
 30
0.0
 11
142.078010625047
 21
163.253284819501
 31
0.0
  0
LINE
  5
   2DD
  8
0
  6
CONTINUOUS
 62
     7
 10
140.078010625047
 20
42.8532868699012
 30
0.0
 11
140.078010625047
 21
163.253284819501
 31
0.0
  0
LINE
  5
   2DE
  8
0
  6
CONTINUOUS
 62
     7
 10
139.557066195095
 20
45.8077101471082
 30
0.0
 11
140.078010625047
 21
42.8532868699012
 31
0.0
  0
LINE
  5
   2DF
  8
0
  6
CONTINUOUS
 62
     7
 10
140.078010625047
 20
42.8532868699012
 30
0.0
 11
140.598955054998
 21
45.8077101471082
 31
0.0
  0
LINE
  5
   2E0
  8
0
  6
CONTINUOUS
 62
     7
 10
140.598955054998
 20
160.298861542295
 30
0.0
 11
140.078010625047
 21
163.253284819501
 31
0.0
  0
LINE
  5
   2E1
  8
0
  6
CONTINUOUS
 62
     7
 10
140.078010625047
 20
163.253284819501
 30
0.0
 11
139.557066195095
 21
160.298861542295
 31
0.0
  0
ENDBLK
  5
   2E2
  8
0
  6
CONTINUOUS
 62
     7
  0
BLOCK
  5
   2E3
  8
0
  6
CONTINUOUS
 62
     7
  2
*UDIM734
 70
    65
 10
0.0
 20
0.0
 30
0.0
  3
*UDIM734
  0
TEXT
  5
   2E4
  8
0
  6
CONTINUOUS
 62
     7
 10
127.764101661215
 20
57.4470481237088
 30
0.0
 40
2.99999997871263
  1
131,25
 50
89.9999999480344
 41
0.933333333333333
 72
     1
 11
126.264101679195
 21
65.5470480675915
 31
0.0
 73
     2
  0
LINE
  5
   2E5
  8
0
  6
CONTINUOUS
 62
     7
 10
113.482353793179
 20
42.8532868699012
 30
0.0
 11
130.764101668552
 21
42.8532868699012
 31
0.0
  0
LINE
  5
   2E6
  8
0
  6
CONTINUOUS
 62
     7
 10
128.764101668552
 20
42.8532868699012
 30
0.0
 11
128.764101668552
 21
88.7908074498946
 31
0.0
  0
LINE
  5
   2E7
  8
0
  6
CONTINUOUS
 62
     7
 10
128.2431572386
 20
45.8077101471082
 30
0.0
 11
128.764101668552
 21
42.8532868699012
 31
0.0
  0
LINE
  5
   2E8
  8
0
  6
CONTINUOUS
 62
     7
 10
128.764101668552
 20
42.8532868699012
 30
0.0
 11
129.285046098503
 21
45.8077101471082
 31
0.0
  0
LINE
  5
   2E9
  8
0
  6
CONTINUOUS
 62
     7
 10
129.285046098503
 20
85.8363841726876
 30
0.0
 11
128.764101668552
 21
88.7908074498946
 31
0.0
  0
LINE
  5
   2EA
  8
0
  6
CONTINUOUS
 62
     7
 10
128.764101668552
 20
88.7908074498946
 30
0.0
 11
128.2431572386
 21
85.8363841726876
 31
0.0
  0
ENDBLK
  5
   2EB
  8
0
  6
CONTINUOUS
 62
     7
  0
BLOCK
  5
   2EC
  8
0
  6
CONTINUOUS
 62
     7
  2
*UDIM735
 70
    65
 10
0.0
 20
0.0
 30
0.0
  3
*UDIM735
  0
TEXT
  5
   2ED
  8
0
  6
CONTINUOUS
 62
     7
 10
43.8975000048801
 20
98.8782943306185
 30
0.0
 40
2.99999997871263
  1
339
 50
89.9999999480344
 41
0.933333333333333
 72
     1
 11
42.3975000190561
 21
102.778294304303
 31
0.0
 73
     2
  0
LINE
  5
   2EE
  8
0
  6
CONTINUOUS
 62
     7
 10
76.3948974198541
 20
43.7283082173048
 30
0.0
 11
42.8975000084124
 21
43.7283082173048
 31
0.0
  0
LINE
  5
   2EF
  8
0
  6
CONTINUOUS
 62
     7
 10
76.3948504048186
 20
162.378284834403
 30
0.0
 11
42.8975000084124
 21
162.378284834403
 31
0.0
  0
LINE
  5
   2F0
  8
0
  6
CONTINUOUS
 62
     7
 10
44.8975000084124
 20
43.7283082173048
 30
0.0
 11
44.8975000084124
 21
162.378284834403
 31
0.0
  0
LINE
  5
   2F1
  8
0
  6
CONTINUOUS
 62
     7
 10
44.3765555784607
 20
46.6827314945117
 30
0.0
 11
44.8975000084124
 21
43.7283082173048
 31
0.0
  0
LINE
  5
   2F2
  8
0
  6
CONTINUOUS
 62
     7
 10
44.8975000084124
 20
43.7283082173048
 30
0.0
 11
45.4184444383641
 21
46.6827314945117
 31
0.0
  0
LINE
  5
   2F3
  8
0
  6
CONTINUOUS
 62
     7
 10
45.4184444383641
 20
159.423861557196
 30
0.0
 11
44.8975000084124
 21
162.378284834403
 31
0.0
  0
LINE
  5
   2F4
  8
0
  6
CONTINUOUS
 62
     7
 10
44.8975000084124
 20
162.378284834403
 30
0.0
 11
44.3765555784607
 21
159.423861557196
 31
0.0
  0
ENDBLK
  5
   2F5
  8
0
  6
CONTINUOUS
 62
     7
  0
BLOCK
  5
   2F6
  8
0
  6
CONTINUOUS
 62
     7
  2
*UDIM736
 70
    65
 10
0.0
 20
0.0
 30
0.0
  3
*UDIM736
  0
TEXT
  5
   2F7
  8
0
  6
CONTINUOUS
 62
     7
 10
56.2290627431018
 20
84.6157945735059
 30
0.0
 40
2.99999997871263
  1
161
 50
89.9999999480344
 41
0.933333333333333
 72
     1
 11
54.7290627572778
 21
88.5157945471909
 31
0.0
 73
     2
  0
LINE
  5
   2F8
  8
0
  6
CONTINUOUS
 62
     7
 10
73.5073659064226
 20
60.6157959134145
 30
0.0
 11
55.2290627466341
 21
60.6157959134145
 31
0.0
  0
LINE
  5
   2F9
  8
0
  6
CONTINUOUS
 62
     7
 10
73.5073659064226
 20
116.965793618636
 30
0.0
 11
55.2290627466341
 21
116.965793618636
 31
0.0
  0
LINE
  5
   2FA
  8
0
  6
CONTINUOUS
 62
     7
 10
57.2290627466341
 20
60.6157959134145
 30
0.0
 11
57.2290627466341
 21
116.965793618636
 31
0.0
  0
LINE
  5
   2FB
  8
0
  6
CONTINUOUS
 62
     7
 10
56.7081183166824
 20
63.5702191906214
 30
0.0
 11
57.2290627466341
 21
60.6157959134145
 31
0.0
  0
LINE
  5
   2FC
  8
0
  6
CONTINUOUS
 62
     7
 10
57.2290627466341
 20
60.6157959134145
 30
0.0
 11
57.7500071765857
 21
63.5702191906214
 31
0.0
  0
LINE
  5
   2FD
  8
0
  6
CONTINUOUS
 62
     7
 10
57.7500071765857
 20
114.011370341429
 30
0.0
 11
57.2290627466341
 21
116.965793618636
 31
0.0
  0
LINE
  5
   2FE
  8
0
  6
CONTINUOUS
 62
     7
 10
57.2290627466341
 20
116.965793618636
 30
0.0
 11
56.7081183166824
 21
114.011370341429
 31
0.0
  0
ENDBLK
  5
   2FF
  8
0
  6
CONTINUOUS
 62
     7
  0
BLOCK
  5
   300
  8
0
  6
CONTINUOUS
 62
     7
  2
*UDIM737
 70
    65
 10
0.0
 20
0.0
 30
0.0
  3
*UDIM737
  0
TEXT
  5
   301
  8
0
  6
CONTINUOUS
 62
     7
 10
67.1838002636925
 20
60.6433308166645
 30
0.0
 40
2.99999997871263
  1
128,75
 50
89.9999999480344
 41
0.933333333333333
 72
     1
 11
65.6838002816724
 21
68.7433307605472
 31
0.0
 73
     2
  0
LINE
  5
   302
  8
0
  6
CONTINUOUS
 62
     7
 10
76.3948974198541
 20
43.7283082173048
 30
0.0
 11
66.1838002710288
 21
43.7283082173048
 31
0.0
  0
LINE
  5
   303
  8
0
  6
CONTINUOUS
 62
     7
 10
68.1838002710288
 20
43.7283082173048
 30
0.0
 11
68.1838002710288
 21
88.7908074498946
 31
0.0
  0
LINE
  5
   304
  8
0
  6
CONTINUOUS
 62
     7
 10
67.6628558410771
 20
46.6827314945117
 30
0.0
 11
68.1838002710288
 21
43.7283082173048
 31
0.0
  0
LINE
  5
   305
  8
0
  6
CONTINUOUS
 62
     7
 10
68.1838002710288
 20
43.7283082173048
 30
0.0
 11
68.7047447009804
 21
46.6827314945117
 31
0.0
  0
LINE
  5
   306
  8
0
  6
CONTINUOUS
 62
     7
 10
68.7047447009804
 20
85.8363841726876
 30
0.0
 11
68.1838002710288
 21
88.7908074498946
 31
0.0
  0
LINE
  5
   307
  8
0
  6
CONTINUOUS
 62
     7
 10
68.1838002710288
 20
88.7908074498946
 30
0.0
 11
67.6628558410771
 21
85.8363841726876
 31
0.0
  0
ENDBLK
  5
   308
  8
0
  6
CONTINUOUS
 62
     7
  0
BLOCK
  5
   309
  8
0
  6
CONTINUOUS
 62
     7
  2
*UDIM738
 70
    65
 10
0.0
 20
0.0
 30
0.0
  3
*UDIM738
  0
TEXT
  5
   30A
  8
0
  6
CONTINUOUS
 62
     7
 10
90.3698682724383
 20
180.833765497686
 30
0.0
 40
2.99999997871263
  1
117
 50
359.999999948034
 41
0.933333333333333
 72
     1
 11
94.2698682461177
 21
182.333765483525
 31
0.0
 73
     2
  0
LINE
  5
   30B
  8
0
  6
CONTINUOUS
 62
     7
 10
115.019865216499
 20
117.528293626086
 30
0.0
 11
115.019865216499
 21
181.833765494169
 31
0.0
  0
LINE
  5
   30C
  8
0
  6
CONTINUOUS
 62
     7
 10
74.0698659138731
 20
117.528293626086
 30
0.0
 11
74.0698659138731
 21
181.833765494169
 31
0.0
  0
LINE
  5
   30D
  8
0
  6
CONTINUOUS
 62
     7
 10
115.019865216499
 20
179.833765494169
 30
0.0
 11
74.0698659138731
 21
179.833765494169
 31
0.0
  0
LINE
  5
   30E
  8
0
  6
CONTINUOUS
 62
     7
 10
112.065441939292
 20
179.312821064217
 30
0.0
 11
115.019865216499
 21
179.833765494169
 31
0.0
  0
LINE
  5
   30F
  8
0
  6
CONTINUOUS
 62
     7
 10
115.019865216499
 20
179.833765494169
 30
0.0
 11
112.065441939292
 21
180.35470992412
 31
0.0
  0
LINE
  5
   310
  8
0
  6
CONTINUOUS
 62
     7
 10
77.0242891910801
 20
180.35470992412
 30
0.0
 11
74.0698659138731
 21
179.833765494169
 31
0.0
  0
LINE
  5
   311
  8
0
  6
CONTINUOUS
 62
     7
 10
74.0698659138731
 20
179.833765494169
 30
0.0
 11
77.0242891910801
 21
179.312821064217
 31
0.0
  0
ENDBLK
  5
   312
  8
0
  6
CONTINUOUS
 62
     7
  0
BLOCK
  5
   313
  8
0
  6
CONTINUOUS
 62
     7
  2
*UDIM739
 70
    65
 10
0.0
 20
0.0
 30
0.0
  3
*UDIM739
  0
TEXT
  5
   314
  8
0
  6
CONTINUOUS
 62
     7
 10
90.3698602502482
 20
170.118465692374
 30
0.0
 40
2.99999997871263
  1
105
 50
359.999999948034
 41
0.933333333333333
 72
     1
 11
94.2698602239275
 21
171.618465678213
 31
0.0
 73
     2
  0
LINE
  5
   315
  8
0
  6
CONTINUOUS
 62
     7
 10
112.919872642915
 20
163.815745433676
 30
0.0
 11
112.919872642915
 21
171.118465688856
 31
0.0
  0
LINE
  5
   316
  8
0
  6
CONTINUOUS
 62
     7
 10
76.1698464902322
 20
162.398283782977
 30
0.0
 11
76.1698464902322
 21
171.118465688856
 31
0.0
  0
LINE
  5
   317
  8
0
  6
CONTINUOUS
 62
     7
 10
112.919872642915
 20
169.118465688856
 30
0.0
 11
76.1698464902322
 21
169.118465688856
 31
0.0
  0
LINE
  5
   318
  8
0
  6
CONTINUOUS
 62
     7
 10
109.965449365708
 20
168.597521258905
 30
0.0
 11
112.919872642915
 21
169.118465688856
 31
0.0
  0
LINE
  5
   319
  8
0
  6
CONTINUOUS
 62
     7
 10
112.919872642915
 20
169.118465688856
 30
0.0
 11
109.965449365708
 21
169.639410118808
 31
0.0
  0
LINE
  5
   31A
  8
0
  6
CONTINUOUS
 62
     7
 10
79.1242697674391
 20
169.639410118808
 30
0.0
 11
76.1698464902322
 21
169.118465688856
 31
0.0
  0
LINE
  5
   31B
  8
0
  6
CONTINUOUS
 62
     7
 10
76.1698464902322
 20
169.118465688856
 30
0.0
 11
79.1242697674391
 21
168.597521258905
 31
0.0
  0
ENDBLK
  5
   31C
  8
0
  6
CONTINUOUS
 62
     7
  0
BLOCK
  5
   31D
  8
0
  6
CONTINUOUS
 62
     7
  2
*UDIM740
 70
    65
 10
0.0
 20
0.0
 30
0.0
  3
*UDIM740
  0
TEXT
  5
   31E
  8
0
  6
CONTINUOUS
 62
     7
 10
98.2168014843763
 20
33.4536257943785
 30
0.0
 40
2.99999997871263
  1
35
 50
359.999999948034
 41
0.933333333333333
 72
     1
 11
100.71680146799
 21
34.9536257814799
 31
0.0
 73
     2
  0
LINE
  5
   31F
  8
0
  6
CONTINUOUS
 62
     7
 10
106.794897090873
 20
46.403310109425
 30
0.0
 11
106.794897090873
 21
30.4536257921236
 31
0.0
  0
LINE
  5
   320
  8
0
  6
CONTINUOUS
 62
     7
 10
94.5448970303308
 20
38.743296729628
 30
0.0
 11
94.5448970303308
 21
30.4536257921236
 31
0.0
  0
LINE
  5
   321
  8
0
  6
CONTINUOUS
 62
     7
 10
106.794897090873
 20
32.4536257921236
 30
0.0
 11
94.5448970303308
 21
32.4536257921236
 31
0.0
  0
LINE
  5
   322
  8
0
  6
CONTINUOUS
 62
     7
 10
103.840473813666
 20
31.9326813621719
 30
0.0
 11
106.794897090873
 21
32.4536257921236
 31
0.0
  0
LINE
  5
   323
  8
0
  6
CONTINUOUS
 62
     7
 10
106.794897090873
 20
32.4536257921236
 30
0.0
 11
103.840473813666
 21
32.9745702220753
 31
0.0
  0
LINE
  5
   324
  8
0
  6
CONTINUOUS
 62
     7
 10
97.4993203075377
 20
32.9745702220753
 30
0.0
 11
94.5448970303308
 21
32.4536257921236
 31
0.0
  0
LINE
  5
   325
  8
0
  6
CONTINUOUS
 62
     7
 10
94.5448970303308
 20
32.4536257921236
 30
0.0
 11
97.4993203075377
 21
31.9326813621719
 31
0.0
  0
ENDBLK
  5
   326
  8
0
  6
CONTINUOUS
 62
     7
  0
BLOCK
  5
   327
  8
0
  6
CONTINUOUS
 62
     7
  2
*UDIM741
 70
    65
 10
0.0
 20
0.0
 30
0.0
  3
*UDIM741
  0
TEXT
  5
   328
  8
0
  6
CONTINUOUS
 62
     7
 10
86.124685152592
 20
33.4536257943785
 30
0.0
 40
2.99999997871263
  1
35
 50
359.999999948034
 41
0.933333333333333
 72
     1
 11
88.6246851362054
 21
34.9536257814799
 31
0.0
 73
     2
  0
LINE
  5
   329
  8
0
  6
CONTINUOUS
 62
     7
 10
82.2948972860347
 20
46.4033081723813
 30
0.0
 11
82.2948972860347
 21
30.4536257921236
 31
0.0
  0
LINE
  5
   32A
  8
0
  6
CONTINUOUS
 62
     7
 10
94.5448970303308
 20
32.4536257921236
 30
0.0
 11
82.2948972860347
 21
32.4536257921236
 31
0.0
  0
LINE
  5
   32B
  8
0
  6
CONTINUOUS
 62
     7
 10
91.5904737531238
 20
31.9326813621719
 30
0.0
 11
94.5448970303308
 21
32.4536257921236
 31
0.0
  0
LINE
  5
   32C
  8
0
  6
CONTINUOUS
 62
     7
 10
94.5448970303308
 20
32.4536257921236
 30
0.0
 11
91.5904737531238
 21
32.9745702220753
 31
0.0
  0
LINE
  5
   32D
  8
0
  6
CONTINUOUS
 62
     7
 10
85.2493205632417
 20
32.9745702220753
 30
0.0
 11
82.2948972860347
 21
32.4536257921236
 31
0.0
  0
LINE
  5
   32E
  8
0
  6
CONTINUOUS
 62
     7
 10
82.2948972860347
 20
32.4536257921236
 30
0.0
 11
85.2493205632417
 21
31.9326813621719
 31
0.0
  0
ENDBLK
  5
   32F
  8
0
  6
CONTINUOUS
 62
     7
  0
BLOCK
  5
   330
  8
0
  6
CONTINUOUS
 62
     7
  2
*UDIM742
 70
    65
 10
0.0
 20
0.0
 30
0.0
  3
*UDIM742
  0
TEXT
  5
   331
  8
0
  6
CONTINUOUS
 62
     7
 10
207.003698016117
 20
-11.2501778166648
 30
0.0
 40
3.00000002980232
  1
24
 50
334.219790057696
 41
0.933333333333333
 72
     1
 11
209.907250815782
 21
-10.9867744977055
 31
0.0
 73
     2
  0
TEXT
  5
   332
  8
0
  6
CONTINUOUS
 62
     7
 10
204.167220504776
 20
-9.88017949905957
 30
0.0
 40
3.00000002980232
  1
Ø
 50
334.219790057696
 41
0.933333333333334
 72
     1
 11
205.810116625777
 21
-9.00788803151928
 31
0.0
 73
     2
  0
LINE
  5
   333
  8
0
  6
CONTINUOUS
 62
     7
 10
224.863104531785
 20
-20.9866755837418
 30
0.0
 11
203.732300406175
 21
-10.7806485500619
 31
0.0
  0
LINE
  5
   334
  8
0
  6
CONTINUOUS
 62
     7
 10
221.976168612219
 20
-20.1708318509612
 30
0.0
 11
224.863104531785
 21
-20.9866755837418
 31
0.0
  0
LINE
  5
   335
  8
0
  6
CONTINUOUS
 62
     7
 10
224.863104531785
 20
-20.9866755837418
 30
0.0
 11
222.429307019544
 21
-19.2326431811311
 31
0.0
  0
LINE
  5
   336
  8
0
  6
CONTINUOUS
 62
     7
 10
222.347226163172
 20
-19.1929987154451
 30
0.0
 11
219.460290243606
 21
-18.3771549826645
 31
0.0
  0
LINE
  5
   337
  8
0
  6
CONTINUOUS
 62
     7
 10
219.460290243606
 20
-18.3771549826645
 30
0.0
 11
221.894087755847
 21
-20.1311873852752
 31
0.0
  0
ENDBLK
  5
   338
  8
0
  6
CONTINUOUS
 62
     7
  0
BLOCK
  5
   339
  8
0
  6
CONTINUOUS
 62
     7
  2
*UDIM743
 70
    65
 10
0.0
 20
0.0
 30
0.0
  3
*UDIM743
  0
TEXT
  5
   33A
  8
0
  6
CONTINUOUS
 62
     7
 10
232.724067757297
 20
-3.96428679967693
 30
0.0
 40
3.00000002980232
  1
35
 50
359.999999896069
 41
0.933333333333333
 72
     1
 11
235.224067784846
 21
-2.46428678929806
 31
0.0
 73
     2
  0
LINE
  5
   33B
  8
0
  6
CONTINUOUS
 62
     7
 10
239.661697387695
 20
-14.9319152832031
 30
0.0
 11
239.661697387695
 21
-2.96428680419922
 31
0.0
  0
LINE
  5
   33C
  8
0
  6
CONTINUOUS
 62
     7
 10
230.911697387695
 20
-12.5131213299551
 30
0.0
 11
230.911697387695
 21
-2.96428680419922
 31
0.0
  0
LINE
  5
   33D
  8
0
  6
CONTINUOUS
 62
     7
 10
239.661697387695
 20
-4.96428680419922
 30
0.0
 11
230.911697387695
 21
-4.96428680419922
 31
0.0
  0
LINE
  5
   33E
  8
0
  6
CONTINUOUS
 62
     7
 10
242.616120664902
 20
-4.44334237424755
 30
0.0
 11
239.661697387695
 21
-4.96428680419922
 31
0.0
  0
LINE
  5
   33F
  8
0
  6
CONTINUOUS
 62
     7
 10
239.661697387695
 20
-4.96428680419922
 30
0.0
 11
242.616120664902
 21
-5.48523123415089
 31
0.0
  0
LINE
  5
   340
  8
0
  6
CONTINUOUS
 62
     7
 10
227.957274110488
 20
-5.48523123415089
 30
0.0
 11
230.911697387695
 21
-4.96428680419922
 31
0.0
  0
LINE
  5
   341
  8
0
  6
CONTINUOUS
 62
     7
 10
230.911697387695
 20
-4.96428680419922
 30
0.0
 11
227.957274110488
 21
-4.44334237424755
 31
0.0
  0
ENDBLK
  5
   342
  8
0
  6
CONTINUOUS
 62
     7
  0
BLOCK
  5
   343
  8
0
  6
CONTINUOUS
 62
     7
  2
*UDIM744
 70
    65
 10
0.0
 20
0.0
 30
0.0
  3
*UDIM744
  0
TEXT
  5
   344
  8
0
  6
CONTINUOUS
 62
     7
 10
222.769879909623
 20
-3.96428679967693
 30
0.0
 40
3.00000002980232
  1
35
 50
359.999999896069
 41
0.933333333333333
 72
     1
 11
225.269879937172
 21
-2.46428678929806
 31
0.0
 73
     2
  0
LINE
  5
   345
  8
0
  6
CONTINUOUS
 62
     7
 10
222.161697387695
 20
-14.9319152832031
 30
0.0
 11
222.161697387695
 21
-2.96428680419922
 31
0.0
  0
LINE
  5
   346
  8
0
  6
CONTINUOUS
 62
     7
 10
230.911697387695
 20
-4.96428680419922
 30
0.0
 11
222.161697387695
 21
-4.96428680419922
 31
0.0
  0
LINE
  5
   347
  8
0
  6
CONTINUOUS
 62
     7
 10
227.957274110488
 20
-5.48523123415088
 30
0.0
 11
230.911697387695
 21
-4.96428680419922
 31
0.0
  0
LINE
  5
   348
  8
0
  6
CONTINUOUS
 62
     7
 10
230.911697387695
 20
-4.96428680419922
 30
0.0
 11
227.957274110488
 21
-4.44334237424755
 31
0.0
  0
LINE
  5
   349
  8
0
  6
CONTINUOUS
 62
     7
 10
225.116120664902
 20
-4.44334237424755
 30
0.0
 11
222.161697387695
 21
-4.96428680419922
 31
0.0
  0
LINE
  5
   34A
  8
0
  6
CONTINUOUS
 62
     7
 10
222.161697387695
 20
-4.96428680419922
 30
0.0
 11
225.116120664902
 21
-5.48523123415088
 31
0.0
  0
ENDBLK
  5
   34B
  8
0
  6
CONTINUOUS
 62
     7
  0
BLOCK
  5
   34C
  8
0
  6
CONTINUOUS
 62
     7
  2
*UDIM745
 70
    65
 10
0.0
 20
0.0
 30
0.0
  3
*UDIM745
  0
TEXT
  5
   34D
  8
0
  6
CONTINUOUS
 62
     7
 10
262.185848223973
 20
-65.0944153584336
 30
0.0
 40
3.00000002980232
  1
307,5
 50
449.999999896069
 41
0.933333333333333
 72
     1
 11
260.685848221183
 21
-58.3944152891636
 31
0.0
 73
     2
  0
LINE
  5
   34E
  8
0
  6
CONTINUOUS
 62
     7
 10
244.411697387695
 20
-19.6819152832031
 30
0.0
 11
265.185848236084
 21
-19.6819152832031
 31
0.0
  0
LINE
  5
   34F
  8
0
  6
CONTINUOUS
 62
     7
 10
244.411697387695
 20
-96.5569152832031
 30
0.0
 11
265.185848236084
 21
-96.5569152832031
 31
0.0
  0
LINE
  5
   350
  8
0
  6
CONTINUOUS
 62
     7
 10
263.185848236084
 20
-19.6819152832031
 30
0.0
 11
263.185848236084
 21
-96.5569152832031
 31
0.0
  0
LINE
  5
   351
  8
0
  6
CONTINUOUS
 62
     7
 10
263.706792666036
 20
-22.6363385604101
 30
0.0
 11
263.185848236084
 21
-19.6819152832031
 31
0.0
  0
LINE
  5
   352
  8
0
  6
CONTINUOUS
 62
     7
 10
263.185848236084
 20
-19.6819152832031
 30
0.0
 11
262.664903806132
 21
-22.6363385604101
 31
0.0
  0
LINE
  5
   353
  8
0
  6
CONTINUOUS
 62
     7
 10
262.664903806132
 20
-93.6024920059962
 30
0.0
 11
263.185848236084
 21
-96.5569152832031
 31
0.0
  0
LINE
  5
   354
  8
0
  6
CONTINUOUS
 62
     7
 10
263.185848236084
 20
-96.5569152832031
 30
0.0
 11
263.706792666036
 21
-93.6024920059962
 31
0.0
  0
ENDBLK
  5
   355
  8
0
  6
CONTINUOUS
 62
     7
  0
BLOCK
  5
   356
  8
0
  6
CONTINUOUS
 62
     7
  2
*UDIM746
 70
    65
 10
0.0
 20
0.0
 30
0.0
  3
*UDIM746
  0
TEXT
  5
   357
  8
0
  6
CONTINUOUS
 62
     7
 10
253.565727219245
 20
-91.0881653723414
 30
0.0
 40
3.00000002980232
  1
110,75
 50
449.999999896069
 41
0.933333333333333
 72
     1
 11
252.065727218986
 21
-82.9881652891636
 31
0.0
 73
     2
  0
LINE
  5
   358
  8
0
  6
CONTINUOUS
 62
     7
 10
244.411697387695
 20
-96.5569152832031
 30
0.0
 11
256.565727233887
 21
-96.5569152832031
 31
0.0
  0
LINE
  5
   359
  8
0
  6
CONTINUOUS
 62
     7
 10
254.565727233887
 20
-68.8694152832031
 30
0.0
 11
254.565727233887
 21
-96.5569152832031
 31
0.0
  0
LINE
  5
   35A
  8
0
  6
CONTINUOUS
 62
     7
 10
255.086671663838
 20
-71.8238385604101
 30
0.0
 11
254.565727233887
 21
-68.8694152832031
 31
0.0
  0
LINE
  5
   35B
  8
0
  6
CONTINUOUS
 62
     7
 10
254.565727233887
 20
-68.8694152832031
 30
0.0
 11
254.044782803935
 21
-71.8238385604101
 31
0.0
  0
LINE
  5
   35C
  8
0
  6
CONTINUOUS
 62
     7
 10
254.044782803935
 20
-93.6024920059962
 30
0.0
 11
254.565727233887
 21
-96.5569152832031
 31
0.0
  0
LINE
  5
   35D
  8
0
  6
CONTINUOUS
 62
     7
 10
254.565727233887
 20
-96.5569152832031
 30
0.0
 11
255.086671663838
 21
-93.6024920059962
 31
0.0
  0
ENDBLK
  5
   35E
  8
0
  6
CONTINUOUS
 62
     7
  0
BLOCK
  5
   35F
  8
0
  6
CONTINUOUS
 62
     7
  2
*UDIM747
 70
    65
 10
0.0
 20
0.0
 30
0.0
  3
*UDIM747
  0
TEXT
  5
   360
  8
0
  6
CONTINUOUS
 62
     7
 10
210.230037674567
 20
-90.8381653723414
 30
0.0
 40
3.00000002980232
  1
108,75
 50
449.999999896069
 41
0.933333333333333
 72
     1
 11
208.730037674308
 21
-82.7381652891636
 31
0.0
 73
     2
  0
LINE
  5
   361
  8
0
  6
CONTINUOUS
 62
     7
 10
218.406743939549
 20
-96.0569152832031
 30
0.0
 11
209.230037689209
 21
-96.0569152832031
 31
0.0
  0
LINE
  5
   362
  8
0
  6
CONTINUOUS
 62
     7
 10
211.230037689209
 20
-68.8694152832031
 30
0.0
 11
211.230037689209
 21
-96.0569152832031
 31
0.0
  0
LINE
  5
   363
  8
0
  6
CONTINUOUS
 62
     7
 10
211.750982119161
 20
-71.8238385604101
 30
0.0
 11
211.230037689209
 21
-68.8694152832031
 31
0.0
  0
LINE
  5
   364
  8
0
  6
CONTINUOUS
 62
     7
 10
211.230037689209
 20
-68.8694152832031
 30
0.0
 11
210.709093259257
 21
-71.8238385604101
 31
0.0
  0
LINE
  5
   365
  8
0
  6
CONTINUOUS
 62
     7
 10
210.709093259257
 20
-93.1024920059962
 30
0.0
 11
211.230037689209
 21
-96.0569152832031
 31
0.0
  0
LINE
  5
   366
  8
0
  6
CONTINUOUS
 62
     7
 10
211.230037689209
 20
-96.0569152832031
 30
0.0
 11
211.750982119161
 21
-93.1024920059962
 31
0.0
  0
ENDBLK
  5
   367
  8
0
  6
CONTINUOUS
 62
     7
  0
BLOCK
  5
   368
  8
0
  6
CONTINUOUS
 62
     7
  2
*UDIM748
 70
    65
 10
0.0
 20
0.0
 30
0.0
  3
*UDIM748
  0
TEXT
  5
   369
  8
0
  6
CONTINUOUS
 62
     7
 10
247.972688647378
 20
-47.7291679337101
 30
0.0
 40
3.00000002980232
  1
35
 50
359.999999896069
 41
0.933333333333333
 72
     1
 11
250.472688674927
 21
-46.2291679233313
 31
0.0
 73
     2
  0
LINE
  5
   36A
  8
0
  6
CONTINUOUS
 62
     7
 10
252.972688699762
 20
-48.7291679382324
 30
0.0
 11
226.536697387695
 21
-48.7291679382324
 31
0.0
  0
LINE
  5
   36B
  8
0
  6
CONTINUOUS
 62
     7
 10
238.241120664902
 20
-48.2082235082808
 30
0.0
 11
235.286697387695
 21
-48.7291679382324
 31
0.0
  0
LINE
  5
   36C
  8
0
  6
CONTINUOUS
 62
     7
 10
235.286697387695
 20
-48.7291679382324
 30
0.0
 11
238.241120664902
 21
-49.2501123681841
 31
0.0
  0
LINE
  5
   36D
  8
0
  6
CONTINUOUS
 62
     7
 10
223.582274110488
 20
-49.2501123681841
 30
0.0
 11
226.536697387695
 21
-48.7291679382324
 31
0.0
  0
LINE
  5
   36E
  8
0
  6
CONTINUOUS
 62
     7
 10
226.536697387695
 20
-48.7291679382324
 30
0.0
 11
223.582274110488
 21
-48.2082235082808
 31
0.0
  0
ENDBLK
  5
   36F
  8
0
  6
CONTINUOUS
 62
     7
  0
BLOCK
  5
   370
  8
0
  6
CONTINUOUS
 62
     7
  2
*UDIM749
 70
    65
 10
0.0
 20
0.0
 30
0.0
  3
*UDIM749
  0
TEXT
  5
   371
  8
0
  6
CONTINUOUS
 62
     7
 10
246.238559050083
 20
-14.46571464994
 30
0.0
 40
3.00000002980232
  1
5,5
 50
382.918840375406
 41
0.933333333333333
 72
     1
 11
249.246542686648
 21
-11.5653638454594
 31
0.0
 73
     2
  0
TEXT
  5
   372
  8
0
  6
CONTINUOUS
 62
     7
 10
243.33722823051
 20
-15.6924092076779
 30
0.0
 40
3.00000002980232
  1
Ø
 50
382.918840375406
 41
0.933333333333334
 72
     1
 11
243.766251117356
 21
-13.882453564214
 31
0.0
 73
     2
  0
TEXT
  5
   373
  8
0
  6
CONTINUOUS
 62
     7
 10
253.929388426807
 20
-11.2140004879624
 30
0.0
 40
3.00000002980232
  1
 - M5
 50
382.918840375406
 41
0.933333333333333
 72
     1
 11
259.516332813093
 21
-7.2232545224651
 31
0.0
 73
     2
  0
LINE
  5
   374
  8
0
  6
CONTINUOUS
 62
     7
 10
266.660984567838
 20
-6.91673817735378
 30
0.0
 11
234.653470424673
 21
-20.4496462364026
 31
0.0
  0
LINE
  5
   375
  8
0
  6
CONTINUOUS
 62
     7
 10
238.438248031466
 20
-18.2838328835407
 30
0.0
 11
235.919924350718
 21
-19.9141843300036
 31
0.0
  0
LINE
  5
   376
  8
0
  6
CONTINUOUS
 62
     7
 10
235.919924350718
 20
-19.9141843300036
 30
0.0
 11
238.843987518869
 21
-19.2434723287242
 31
0.0
  0
LINE
  5
   377
  8
0
  6
CONTINUOUS
 62
     7
 10
232.135146743925
 20
-22.0799976828656
 30
0.0
 11
234.653470424673
 21
-20.4496462364026
 31
0.0
  0
LINE
  5
   378
  8
0
  6
CONTINUOUS
 62
     7
 10
234.653470424673
 20
-20.4496462364026
 30
0.0
 11
231.729407256521
 21
-21.120358237682
 31
0.0
  0
ENDBLK
  5
   379
  8
0
  6
CONTINUOUS
 62
     7
  0
BLOCK
  5
   37A
  8
0
  6
CONTINUOUS
 62
     7
  2
*UDIM750
 70
    65
 10
0.0
 20
0.0
 30
0.0
  3
*UDIM750
  0
TEXT
  5
   37B
  8
0
  6
CONTINUOUS
 62
     7
 10
200.603702533055
 20
-65.0944148796524
 30
0.0
 40
3.00000002980232
  1
303,5
 50
449.999999896069
 41
0.933333333333333
 72
     1
 11
199.103702530265
 21
-58.3944148103823
 31
0.0
 73
     2
  0
LINE
  5
   37C
  8
0
  6
CONTINUOUS
 62
     7
 10
217.560028985259
 20
-20.1819149692867
 30
0.0
 11
199.603702545166
 21
-20.1819093325
 31
0.0
  0
LINE
  5
   37D
  8
0
  6
CONTINUOUS
 62
     7
 10
218.406743939549
 20
-96.0569149692867
 30
0.0
 11
199.603702545166
 21
-96.0569090667022
 31
0.0
  0
LINE
  5
   37E
  8
0
  6
CONTINUOUS
 62
     7
 10
201.603702545166
 20
-20.1819099603329
 30
0.0
 11
201.603702545166
 21
-96.0569096945352
 31
0.0
  0
LINE
  5
   37F
  8
0
  6
CONTINUOUS
 62
     7
 10
202.124646975118
 20
-23.1363332375399
 30
0.0
 11
201.603702545166
 21
-20.1819099603329
 31
0.0
  0
LINE
  5
   380
  8
0
  6
CONTINUOUS
 62
     7
 10
201.603702545166
 20
-20.1819099603329
 30
0.0
 11
201.082758115214
 21
-23.1363332375399
 31
0.0
  0
LINE
  5
   381
  8
0
  6
CONTINUOUS
 62
     7
 10
201.082758115214
 20
-93.1024864173282
 30
0.0
 11
201.603702545166
 21
-96.0569096945352
 31
0.0
  0
LINE
  5
   382
  8
0
  6
CONTINUOUS
 62
     7
 10
201.603702545166
 20
-96.0569096945352
 30
0.0
 11
202.124646975118
 21
-93.1024864173282
 31
0.0
  0
ENDBLK
  5
   383
  8
0
  6
CONTINUOUS
 62
     7
  0
ENDSEC
  0
SECTION
  2
ENTITIES
  0
LINE
  5
   384
  8
0
  6
CONTINUOUS
 62
     7
 10
144.923416137695
 20
-82.8694152832031
 30
0.0
 11
172.923416137695
 21
-82.8694152832031
 31
0.0
  0
LINE
  5
   385
  8
0
  6
CONTINUOUS
 62
     7
 10
144.923416137695
 20
-54.8694152832031
 30
0.0
 11
172.923416137695
 21
-54.8694152832031
 31
0.0
  0
LINE
  5
   386
  8
0
  6
CONTINUOUS
 62
     7
 10
144.923416137695
 20
-54.8694152832031
 30
0.0
 11
144.923416137695
 21
-82.8694152832031
 31
0.0
  0
LINE
  5
   387
  8
0
  6
CONTINUOUS
 62
     7
 10
172.923416137695
 20
-54.8694152832031
 30
0.0
 11
172.923416137695
 21
-82.8694152832031
 31
0.0
  0
LINE
  5
   388
  8
0
  6
DASHDOT
 62
     7
 10
158.923416137695
 20
-39.7754520372276
 30
0.0
 11
158.923416137695
 21
-98.9062055610103
 31
0.0
  0
CIRCLE
  5
   389
  8
0
  6
CONTINUOUS
 62
     7
 10
148.923416137695
 20
-51.1194152832031
 30
0.0
 40
0.875
  0
CIRCLE
  5
   38A
  8
0
  6
CONTINUOUS
 62
     7
 10
168.923416137695
 20
-51.1194152832031
 30
0.0
 40
0.875
  0
CIRCLE
  5
   38B
  8
0
  6
CONTINUOUS
 62
     7
 10
168.923416137695
 20
-86.6194152832031
 30
0.0
 40
0.875
  0
CIRCLE
  5
   38C
  8
0
  6
CONTINUOUS
 62
     7
 10
148.923416137695
 20
-86.6194152832031
 30
0.0
 40
0.875
  0
LINE
  5
   38D
  8
0
  6
CONTINUOUS
 62
     3
 10
140.958920468281
 20
-48.7696149859119
 30
0.0
 11
176.762289738266
 21
-48.7696149859119
 31
0.0
  0
LINE
  5
   38E
  8
0
  6
CONTINUOUS
 62
     3
 10
140.958920468281
 20
-89.9748961106671
 30
0.0
 11
176.762289738266
 21
-89.9748961106671
 31
0.0
  0
LINE
  5
   38F
  8
0
  6
CONTINUOUS
 62
     3
 10
176.762289738266
 20
-48.7696149859119
 30
0.0
 11
176.762289738266
 21
-89.9748961106671
 31
0.0
  0
LINE
  5
   390
  8
0
  6
CONTINUOUS
 62
     3
 10
140.958920468281
 20
-48.7696149859119
 30
0.0
 11
140.958920468281
 21
-89.9748961106671
 31
0.0
  0
LINE
  5
   391
  8
0
  6
DASHDOT
 62
     7
 10
168.923416137695
 20
-49.4944152832031
 30
0.0
 11
168.923416137695
 21
-52.7444152832031
 31
0.0
  0
LINE
  5
   392
  8
0
  6
DASHDOT
 62
     7
 10
167.298416137695
 20
-51.1194152832031
 30
0.0
 11
170.548416137695
 21
-51.1194152832031
 31
0.0
  0
LINE
  5
   393
  8
0
  6
DASHDOT
 62
     7
 10
148.923416137695
 20
-49.4944152832031
 30
0.0
 11
148.923416137695
 21
-52.7444152832031
 31
0.0
  0
LINE
  5
   394
  8
0
  6
DASHDOT
 62
     7
 10
147.298416137695
 20
-51.1194152832031
 30
0.0
 11
150.548416137695
 21
-51.1194152832031
 31
0.0
  0
LINE
  5
   395
  8
0
  6
DASHDOT
 62
     7
 10
148.923416137695
 20
-84.9944152832031
 30
0.0
 11
148.923416137695
 21
-88.2444152832031
 31
0.0
  0
LINE
  5
   396
  8
0
  6
DASHDOT
 62
     7
 10
147.298416137695
 20
-86.6194152832031
 30
0.0
 11
150.548416137695
 21
-86.6194152832031
 31
0.0
  0
LINE
  5
   397
  8
0
  6
DASHDOT
 62
     7
 10
168.923416137695
 20
-84.9944152832031
 30
0.0
 11
168.923416137695
 21
-88.2444152832031
 31
0.0
  0
LINE
  5
   398
  8
0
  6
DASHDOT
 62
     7
 10
167.298416137695
 20
-86.6194152832031
 30
0.0
 11
170.548416137695
 21
-86.6194152832031
 31
0.0
  0
LINE
  5
   399
  8
0
  6
DASHDOT
 62
     7
 10
133.557558584339
 20
-68.8694152832031
 30
0.0
 11
186.553709437066
 21
-68.8694152832031
 31
0.0
  0
INSERT
  5
   39A
  8
0
  6
CONTINUOUS
 62
     7
  2
*UDIM709
 10
0.0
 20
0.0
 30
0.0
  0
INSERT
  5
   39B
  8
0
  6
CONTINUOUS
 62
     7
  2
*UDIM710
 10
0.0
 20
0.0
 30
0.0
  0
INSERT
  5
   39C
  8
0
  6
CONTINUOUS
 62
     7
  2
*UDIM711
 10
0.0
 20
0.0
 30
0.0
  0
INSERT
  5
   39D
  8
0
  6
CONTINUOUS
 62
     7
  2
*UDIM712
 10
0.0
 20
0.0
 30
0.0
  0
INSERT
  5
   39E
  8
0
  6
CONTINUOUS
 62
     7
  2
*UDIM713
 10
0.0
 20
0.0
 30
0.0
  0
TEXT
  5
   39F
  8
0
  6
CONTINUOUS
 62
     7
 10
151.673412112293
 20
-42.3315375413157
 30
0.0
 40
3.00000002980232
  1
=   =
 50
359.999999844103
 41
0.916666604744064
 72
     2
 11
164.873411347367
 21
-42.3315375771654
 31
0.0
  0
TEXT
  5
   3A0
  8
0
  6
CONTINUOUS
 62
     7
 10
150.457062668996
 20
-33.8112567596718
 30
0.0
 40
3.00000002980232
  1
=    =
 50
359.999999844103
 41
0.916666604744064
 72
     2
 11
166.407061745621
 21
-33.8112568029902
 31
0.0
  0
TEXT
  5
   3A1
  8
0
  6
CONTINUOUS
 62
     7
 10
132.364718500002
 20
-79.1333147834688
 30
0.0
 40
3.00000002980232
  1
=     =
 50
449.999999844103
 41
0.916666604744064
 72
     2
 11
132.364718550765
 21
-60.4333158652931
 31
0.0
  0
TEXT
  5
   3A2
  8
0
  6
CONTINUOUS
 62
     7
 10
122.651598745288
 20
-81.2252019406308
 30
0.0
 40
3.00000002980232
  1
=       =
 50
449.999999844103
 41
0.916666604744064
 72
     2
 11
122.651598810982
 21
-57.0252033393531
 31
0.0
  0
TEXT
  5
   3A3
  8
0
  6
CONTINUOUS
 62
     7
 10
157.731648196675
 20
-102.314319679732
 30
0.0
 40
3.00000002980232
  1
Y
 50
359.999999844103
 41
0.916666604744064
 72
     2
 11
159.931648065544
 21
-102.314319685707
 31
0.0
  0
TEXT
  5
   3A4
  8
0
  6
CONTINUOUS
 62
     7
 10
157.902053822972
 20
-24.4389458394
 30
0.0
 40
3.00000002980232
  1
Y
 50
359.999999844103
 41
0.916666604744064
 72
     2
 11
160.102053691841
 21
-24.4389458453749
 31
0.0
  0
TEXT
  5
   3A5
  8
0
  6
CONTINUOUS
 62
     7
 10
109.506855120159
 20
-70.2780597901294
 30
0.0
 40
3.00000002980232
  1
X
 50
359.999999844103
 41
0.916666604744064
 72
     2
 11
111.706854989029
 21
-70.2780597961043
 31
0.0
  0
LINE
  5
   3A6
  8
0
  6
CONTINUOUS
 62
     3
 10
112.909400314093
 20
-29.9937206208706
 30
0.0
 11
76.1594009399423
 21
-29.9937206208706
 31
0.0
  0
LINE
  5
   3A7
  8
0
  6
CONTINUOUS
 62
     3
 10
76.1594014831407
 20
-43.9841495460002
 30
0.0
 11
76.1594009399423
 21
-29.9937206208706
 31
0.0
  0
LINE
  5
   3A8
  8
0
  6
CONTINUOUS
 62
     3
 10
112.909400314093
 20
-29.9937206208706
 30
0.0
 11
112.909400314093
 21
-43.9841495460002
 31
0.0
  0
LINE
  5
   3A9
  8
0
  6
CONTINUOUS
 62
     7
 10
86.1449010102153
 20
-17.3937208354473
 30
0.0
 11
78.4449011413455
 21
-17.3937208354473
 31
0.0
  0
LINE
  5
   3AA
  8
0
  6
CONTINUOUS
 62
     7
 10
86.1449008433223
 20
-16.5187208503485
 30
0.0
 11
78.4449009744525
 21
-16.5187208503485
 31
0.0
  0
LINE
  5
   3AB
  8
0
  6
CONTINUOUS
 62
     7
 10
110.644899925411
 20
-17.3937208354473
 30
0.0
 11
102.944900056541
 21
-17.3937208354473
 31
0.0
  0
LINE
  5
   3AC
  8
0
  6
CONTINUOUS
 62
     7
 10
110.644899925411
 20
-16.5187208503485
 30
0.0
 11
102.944900056541
 21
-16.5187208503485
 31
0.0
  0
LINE
  5
   3AD
  8
0
  6
CONTINUOUS
 62
     7
 10
98.394900134027
 20
-1.64372110366821
 30
0.0
 11
90.6949002651572
 21
-1.64372110366821
 31
0.0
  0
LINE
  5
   3AE
  8
0
  6
CONTINUOUS
 62
     7
 10
98.394900134027
 20
-0.768721118569374
 30
0.0
 11
90.6949002651572
 21
-0.768721118569374
 31
0.0
  0
LINE
  5
   3AF
  8
0
  6
CONTINUOUS
 62
     7
 10
98.394900134027
 20
0.106278866529465
 30
0.0
 11
90.6949002651572
 21
0.106278866529465
 31
0.0
  0
LINE
  5
   3B0
  8
0
  6
CONTINUOUS
 62
     7
 10
98.394900134027
 20
0.981278851628304
 30
0.0
 11
90.6949002651572
 21
0.981278851628304
 31
0.0
  0
LINE
  5
   3B1
  8
0
  6
CONTINUOUS
 62
     7
 10
86.1449010102153
 20
-15.6437208652496
 30
0.0
 11
78.4449011413455
 21
-15.6437208652496
 31
0.0
  0
LINE
  5
   3B2
  8
0
  6
CONTINUOUS
 62
     7
 10
86.1449008433223
 20
-14.7687208801508
 30
0.0
 11
78.4449009744525
 21
-14.7687208801508
 31
0.0
  0
LINE
  5
   3B3
  8
0
  6
CONTINUOUS
 62
     7
 10
110.644899925411
 20
-15.6437208652496
 30
0.0
 11
102.944900056541
 21
-15.6437208652496
 31
0.0
  0
LINE
  5
   3B4
  8
0
  6
CONTINUOUS
 62
     7
 10
110.644899925411
 20
-14.7687208801508
 30
0.0
 11
102.944900056541
 21
-14.7687208801508
 31
0.0
  0
LINE
  5
   3B5
  8
0
  6
CONTINUOUS
 62
     3
 10
103.4699000476
 20
-12.6687209159136
 30
0.0
 11
103.4699000476
 21
-14.7687208801508
 31
0.0
  0
LINE
  5
   3B6
  8
0
  6
CONTINUOUS
 62
     3
 10
110.119899934351
 20
-12.6687209159136
 30
0.0
 11
110.119899934351
 21
-14.7687208801508
 31
0.0
  0
LINE
  5
   3B7
  8
0
  6
CONTINUOUS
 62
     3
 10
110.119899934351
 20
-12.6687209159136
 30
0.0
 11
103.4699000476
 21
-12.6687209159136
 31
0.0
  0
LINE
  5
   3B8
  8
0
  6
CONTINUOUS
 62
     3
 10
91.2199002562165
 20
3.08127881586552
 30
0.0
 11
91.2199002562165
 21
0.981278851628304
 31
0.0
  0
LINE
  5
   3B9
  8
0
  6
CONTINUOUS
 62
     3
 10
97.8699001429677
 20
3.08127881586552
 30
0.0
 11
97.8699001429677
 21
0.981278851628304
 31
0.0
  0
LINE
  5
   3BA
  8
0
  6
CONTINUOUS
 62
     3
 10
97.8699001429677
 20
3.08127881586552
 30
0.0
 11
91.2199002562165
 21
3.08127881586552
 31
0.0
  0
LINE
  5
   3BB
  8
0
  6
CONTINUOUS
 62
     3
 10
91.2199002562165
 20
-1.64372110366821
 30
0.0
 11
91.2199002562165
 21
-3.74372106790543
 31
0.0
  0
LINE
  5
   3BC
  8
0
  6
CONTINUOUS
 62
     3
 10
97.8699001429677
 20
-1.64372110366821
 30
0.0
 11
97.8699001429677
 21
-3.74372106790543
 31
0.0
  0
LINE
  5
   3BD
  8
0
  6
CONTINUOUS
 62
     3
 10
97.8699001429677
 20
-3.74372106790543
 30
0.0
 11
91.2199002562165
 21
-3.74372106790543
 31
0.0
  0
LINE
  5
   3BE
  8
0
  6
CONTINUOUS
 62
     3
 10
78.9699007986188
 20
-17.3937208354473
 30
0.0
 11
78.9699007986188
 21
-19.4937207996845
 31
0.0
  0
LINE
  5
   3BF
  8
0
  6
CONTINUOUS
 62
     3
 10
85.619901019156
 20
-17.3937208354473
 30
0.0
 11
85.619901019156
 21
-19.4937207996845
 31
0.0
  0
LINE
  5
   3C0
  8
0
  6
CONTINUOUS
 62
     3
 10
85.619901019156
 20
-19.4937207996845
 30
0.0
 11
78.9699011324048
 21
-19.4937207996845
 31
0.0
  0
LINE
  5
   3C1
  8
0
  6
CONTINUOUS
 62
     3
 10
78.9699007986188
 20
-12.6687209159136
 30
0.0
 11
78.9699007986188
 21
-14.7687208801508
 31
0.0
  0
LINE
  5
   3C2
  8
0
  6
CONTINUOUS
 62
     3
 10
85.619901019156
 20
-12.6687209159136
 30
0.0
 11
85.619901019156
 21
-14.7687208801508
 31
0.0
  0
LINE
  5
   3C3
  8
0
  6
CONTINUOUS
 62
     3
 10
85.61990068537
 20
-12.6687209159136
 30
0.0
 11
78.9699007986188
 21
-12.6687209159136
 31
0.0
  0
LINE
  5
   3C4
  8
0
  6
CONTINUOUS
 62
     3
 10
103.4699000476
 20
-17.3937208354473
 30
0.0
 11
103.4699000476
 21
-19.4937207996845
 31
0.0
  0
LINE
  5
   3C5
  8
0
  6
CONTINUOUS
 62
     3
 10
110.119899934351
 20
-17.3937208354473
 30
0.0
 11
110.119899934351
 21
-19.4937207996845
 31
0.0
  0
LINE
  5
   3C6
  8
0
  6
CONTINUOUS
 62
     3
 10
110.119899934351
 20
-19.4937207996845
 30
0.0
 11
103.4699000476
 21
-19.4937207996845
 31
0.0
  0
LINE
  5
   3C7
  8
0
  6
CONTINUOUS
 62
    98
 10
96.2949001697898
 20
5.70627877116203
 30
0.0
 11
92.7949002293945
 21
5.70627877116203
 31
0.0
  0
LINE
  5
   3C8
  8
0
  6
CONTINUOUS
 62
    98
 10
84.0449010459781
 20
-10.0437209606171
 30
0.0
 11
80.5449007717967
 21
-10.0437209606171
 31
0.0
  0
LINE
  5
   3C9
  8
0
  6
CONTINUOUS
 62
    98
 10
108.544899961174
 20
-10.0437209606171
 30
0.0
 11
105.044900020778
 21
-10.0437209606171
 31
0.0
  0
LINE
  5
   3CA
  8
0
  6
CONTINUOUS
 62
     7
 10
78.4449009744525
 20
-16.5187208503485
 30
0.0
 11
78.4449009744525
 21
-17.3937208354473
 31
0.0
  0
LINE
  5
   3CB
  8
0
  6
CONTINUOUS
 62
     7
 10
86.1449010102153
 20
-16.5187208503485
 30
0.0
 11
86.1449010102153
 21
-17.3937208354473
 31
0.0
  0
LINE
  5
   3CC
  8
0
  6
CONTINUOUS
 62
     7
 10
102.944900056541
 20
-16.5187208503485
 30
0.0
 11
102.944900056541
 21
-17.3937208354473
 31
0.0
  0
LINE
  5
   3CD
  8
0
  6
CONTINUOUS
 62
     7
 10
110.644899925411
 20
-16.5187208503485
 30
0.0
 11
110.644899925411
 21
-17.3937208354473
 31
0.0
  0
LINE
  5
   3CE
  8
0
  6
CONTINUOUS
 62
     7
 10
90.6949002651572
 20
-0.768721118569374
 30
0.0
 11
90.6949002651572
 21
-1.64372110366821
 31
0.0
  0
LINE
  5
   3CF
  8
0
  6
CONTINUOUS
 62
     7
 10
98.394900134027
 20
-0.768721118569374
 30
0.0
 11
98.394900134027
 21
-1.64372110366821
 31
0.0
  0
LINE
  5
   3D0
  8
0
  6
CONTINUOUS
 62
     7
 10
90.6949002651572
 20
0.981278851628304
 30
0.0
 11
90.6949002651572
 21
0.106278866529465
 31
0.0
  0
LINE
  5
   3D1
  8
0
  6
CONTINUOUS
 62
     7
 10
98.394900134027
 20
0.981278851628304
 30
0.0
 11
98.394900134027
 21
0.106278866529465
 31
0.0
  0
LINE
  5
   3D2
  8
0
  6
CONTINUOUS
 62
     7
 10
78.4449009744525
 20
-14.7687208801508
 30
0.0
 11
78.4449009744525
 21
-15.6437208652496
 31
0.0
  0
LINE
  5
   3D3
  8
0
  6
CONTINUOUS
 62
     7
 10
86.1449010102153
 20
-14.7687208801508
 30
0.0
 11
86.1449010102153
 21
-15.6437208652496
 31
0.0
  0
LINE
  5
   3D4
  8
0
  6
CONTINUOUS
 62
     7
 10
102.944900056541
 20
-14.7687208801508
 30
0.0
 11
102.944900056541
 21
-15.6437208652496
 31
0.0
  0
LINE
  5
   3D5
  8
0
  6
CONTINUOUS
 62
     7
 10
110.644899925411
 20
-14.7687208801508
 30
0.0
 11
110.644899925411
 21
-15.6437208652496
 31
0.0
  0
LINE
  5
   3D6
  8
0
  6
CONTINUOUS
 62
     3
 10
106.794899990976
 20
-12.6687209159136
 30
0.0
 11
106.794899990976
 21
-14.7687208801508
 31
0.0
  0
LINE
  5
   3D7
  8
0
  6
CONTINUOUS
 62
     3
 10
94.5449001995921
 20
3.08127881586552
 30
0.0
 11
94.5449001995921
 21
0.981278851628304
 31
0.0
  0
LINE
  5
   3D8
  8
0
  6
CONTINUOUS
 62
     3
 10
94.5449001995921
 20
-1.64372110366821
 30
0.0
 11
94.5449001995921
 21
-3.74372106790543
 31
0.0
  0
LINE
  5
   3D9
  8
0
  6
CONTINUOUS
 62
     3
 10
82.2949010757804
 20
-17.3937208354473
 30
0.0
 11
82.2949010757804
 21
-19.4937207996845
 31
0.0
  0
LINE
  5
   3DA
  8
0
  6
CONTINUOUS
 62
     3
 10
82.2949010757804
 20
-12.6687209159136
 30
0.0
 11
82.2949010757804
 21
-14.7687208801508
 31
0.0
  0
LINE
  5
   3DB
  8
0
  6
CONTINUOUS
 62
     3
 10
106.794899990976
 20
-17.3937208354473
 30
0.0
 11
106.794899990976
 21
-19.4937207996845
 31
0.0
  0
LINE
  5
   3DC
  8
0
  6
CONTINUOUS
 62
     2
 10
103.99490003866
 20
-19.4937207996845
 30
0.0
 11
103.99490003866
 21
-29.9937206208706
 31
0.0
  0
LINE
  5
   3DD
  8
0
  6
CONTINUOUS
 62
     2
 10
109.594899943292
 20
-19.4937207996845
 30
0.0
 11
109.594899943292
 21
-29.9937206208706
 31
0.0
  0
LINE
  5
   3DE
  8
0
  6
CONTINUOUS
 62
     2
 10
79.4949007896781
 20
-19.4937209665775
 30
0.0
 11
79.4949007896781
 21
-29.9937201201916
 31
0.0
  0
LINE
  5
   3DF
  8
0
  6
CONTINUOUS
 62
     2
 10
85.0949010280967
 20
-19.4937207996845
 30
0.0
 11
85.0949010280967
 21
-29.9937206208706
 31
0.0
  0
LINE
  5
   3E0
  8
0
  6
CONTINUOUS
 62
     2
 10
91.7449002472758
 20
-3.74372123479843
 30
0.0
 11
91.7449002472758
 21
-29.9937206208706
 31
0.0
  0
LINE
  5
   3E1
  8
0
  6
CONTINUOUS
 62
     2
 10
97.3449001519084
 20
-3.74372077584267
 30
0.0
 11
97.3449001519084
 21
-29.9937203288078
 31
0.0
  0
LINE
  5
   3E2
  8
0
  6
CONTINUOUS
 62
    98
 10
96.6448999374375
 20
5.35627805392048
 30
0.0
 11
96.294899955378
 21
5.70627803598003
 31
0.0
  0
LINE
  5
   3E3
  8
0
  6
CONTINUOUS
 62
    98
 10
92.7948994998431
 20
5.70627772132562
 30
0.0
 11
92.4448995177835
 21
5.35627773926607
 31
0.0
  0
LINE
  5
   3E4
  8
0
  6
CONTINUOUS
 62
    98
 10
94.9545904773441
 20
5.3562787771225
 30
0.0
 11
94.5449001995921
 21
5.3562787771225
 31
0.0
  0
LINE
  5
   3E5
  8
0
  6
CONTINUOUS
 62
    98
 10
95.3485354016656
 20
5.3562787771225
 30
0.0
 11
94.9545904773441
 21
5.3562787771225
 31
0.0
  0
LINE
  5
   3E6
  8
0
  6
CONTINUOUS
 62
    98
 10
95.7115984447991
 20
5.3562787771225
 30
0.0
 11
95.3485354016656
 21
5.3562787771225
 31
0.0
  0
LINE
  5
   3E7
  8
0
  6
CONTINUOUS
 62
    98
 10
96.0298246814451
 20
5.3562787771225
 30
0.0
 11
95.7115984447991
 21
5.3562787771225
 31
0.0
  0
LINE
  5
   3E8
  8
0
  6
CONTINUOUS
 62
    98
 10
96.2909868626665
 20
5.3562787771225
 30
0.0
 11
96.0298246814451
 21
5.3562787771225
 31
0.0
  0
LINE
  5
   3E9
  8
0
  6
CONTINUOUS
 62
    98
 10
96.4850473757191
 20
5.3562787771225
 30
0.0
 11
96.2909868626665
 21
5.3562787771225
 31
0.0
  0
LINE
  5
   3EA
  8
0
  6
CONTINUOUS
 62
    98
 10
96.6045494412499
 20
5.3562787771225
 30
0.0
 11
96.4850473757191
 21
5.3562787771225
 31
0.0
  0
LINE
  5
   3EB
  8
0
  6
CONTINUOUS
 62
    98
 10
96.6449001638293
 20
5.3562787771225
 30
0.0
 11
96.6045494412499
 21
5.3562787771225
 31
0.0
  0
LINE
  5
   3EC
  8
0
  6
CONTINUOUS
 62
    98
 10
96.6449001638293
 20
5.3562787771225
 30
0.0
 11
96.6449001638293
 21
3.08127881586552
 31
0.0
  0
LINE
  5
   3ED
  8
0
  6
CONTINUOUS
 62
    98
 10
96.6449001638293
 20
0.106278866529465
 30
0.0
 11
96.6449001638293
 21
-0.768721118569374
 31
0.0
  0
LINE
  5
   3EE
  8
0
  6
CONTINUOUS
 62
    98
 10
92.4449002353549
 20
5.3562787771225
 30
0.0
 11
92.4449002353549
 21
3.08127881586552
 31
0.0
  0
LINE
  5
   3EF
  8
0
  6
CONTINUOUS
 62
    98
 10
92.4449002353549
 20
0.106278866529465
 30
0.0
 11
92.4449002353549
 21
-0.768721118569374
 31
0.0
  0
LINE
  5
   3F0
  8
0
  6
CONTINUOUS
 62
    98
 10
92.4852509579343
 20
5.3562787771225
 30
0.0
 11
92.4449002353549
 21
5.3562787771225
 31
0.0
  0
LINE
  5
   3F1
  8
0
  6
CONTINUOUS
 62
    98
 10
92.6047530234652
 20
5.3562787771225
 30
0.0
 11
92.4852509579343
 21
5.3562787771225
 31
0.0
  0
LINE
  5
   3F2
  8
0
  6
CONTINUOUS
 62
    98
 10
92.7988148716618
 20
5.3562787771225
 30
0.0
 11
92.6047530234652
 21
5.3562787771225
 31
0.0
  0
LINE
  5
   3F3
  8
0
  6
CONTINUOUS
 62
    98
 10
93.0599770528831
 20
5.3562787771225
 30
0.0
 11
92.7988148716618
 21
5.3562787771225
 31
0.0
  0
LINE
  5
   3F4
  8
0
  6
CONTINUOUS
 62
    98
 10
93.3782032895292
 20
5.3562787771225
 30
0.0
 11
93.0599770528831
 21
5.3562787771225
 31
0.0
  0
LINE
  5
   3F5
  8
0
  6
CONTINUOUS
 62
    98
 10
93.7412649975187
 20
5.3562787771225
 30
0.0
 11
93.3782032895292
 21
5.3562787771225
 31
0.0
  0
LINE
  5
   3F6
  8
0
  6
CONTINUOUS
 62
    98
 10
94.1352112569841
 20
5.3562787771225
 30
0.0
 11
93.7412649975187
 21
5.3562787771225
 31
0.0
  0
LINE
  5
   3F7
  8
0
  6
CONTINUOUS
 62
    98
 10
94.5449001995921
 20
5.3562787771225
 30
0.0
 11
94.1352112569841
 21
5.3562787771225
 31
0.0
  0
LINE
  5
   3F8
  8
0
  6
CONTINUOUS
 62
    98
 10
84.3949009933256
 20
-10.3937213783589
 30
0.0
 11
84.044901011266
 21
-10.0437213962993
 31
0.0
  0
LINE
  5
   3F9
  8
0
  6
CONTINUOUS
 62
    98
 10
80.5449004914949
 20
-10.0437215013039
 30
0.0
 11
80.1949005094354
 21
-10.3937214833635
 31
0.0
  0
LINE
  5
   3FA
  8
0
  6
CONTINUOUS
 62
    98
 10
82.7045906859604
 20
-10.3937209546566
 30
0.0
 11
82.2949010757804
 21
-10.3937209546566
 31
0.0
  0
LINE
  5
   3FB
  8
0
  6
CONTINUOUS
 62
    98
 10
83.0985362778538
 20
-10.3937209546566
 30
0.0
 11
82.7045906859604
 21
-10.3937209546566
 31
0.0
  0
LINE
  5
   3FC
  8
0
  6
CONTINUOUS
 62
    98
 10
83.4615986534153
 20
-10.3937209546566
 30
0.0
 11
83.0985362778538
 21
-10.3937209546566
 31
0.0
  0
LINE
  5
   3FD
  8
0
  6
CONTINUOUS
 62
    98
 10
83.7798248900614
 20
-10.3937209546566
 30
0.0
 11
83.4615986534153
 21
-10.3937209546566
 31
0.0
  0
LINE
  5
   3FE
  8
0
  6
CONTINUOUS
 62
    98
 10
84.0409870712828
 20
-10.3937209546566
 30
0.0
 11
83.7798248900614
 21
-10.3937209546566
 31
0.0
  0
LINE
  5
   3FF
  8
0
  6
CONTINUOUS
 62
    98
 10
84.2350475843354
 20
-10.3937209546566
 30
0.0
 11
84.0409870712828
 21
-10.3937209546566
 31
0.0
  0
LINE
  5
   400
  8
0
  6
CONTINUOUS
 62
    98
 10
84.3545496498662
 20
-10.3937209546566
 30
0.0
 11
84.2350475843354
 21
-10.3937209546566
 31
0.0
  0
LINE
  5
   401
  8
0
  6
CONTINUOUS
 62
    98
 10
84.3949010400176
 20
-10.3937209546566
 30
0.0
 11
84.3545496498662
 21
-10.3937209546566
 31
0.0
  0
LINE
  5
   402
  8
0
  6
CONTINUOUS
 62
    98
 10
84.3949010400176
 20
-10.3937209546566
 30
0.0
 11
84.3949010400176
 21
-12.6687209159136
 31
0.0
  0
LINE
  5
   403
  8
0
  6
CONTINUOUS
 62
    98
 10
84.3949010400176
 20
-15.6437208652496
 30
0.0
 11
84.3949010400176
 21
-16.5187208503485
 31
0.0
  0
LINE
  5
   404
  8
0
  6
CONTINUOUS
 62
    98
 10
80.1949007777572
 20
-10.3937209546566
 30
0.0
 11
80.1949007777572
 21
-12.6687209159136
 31
0.0
  0
LINE
  5
   405
  8
0
  6
CONTINUOUS
 62
    98
 10
80.1949007777572
 20
-15.6437208652496
 30
0.0
 11
80.1949007777572
 21
-16.5187208503485
 31
0.0
  0
LINE
  5
   406
  8
0
  6
CONTINUOUS
 62
    98
 10
80.2352518341226
 20
-10.3937209546566
 30
0.0
 11
80.1949007777572
 21
-10.3937209546566
 31
0.0
  0
LINE
  5
   407
  8
0
  6
CONTINUOUS
 62
    98
 10
80.3547538996534
 20
-10.3937209546566
 30
0.0
 11
80.2352518341226
 21
-10.3937209546566
 31
0.0
  0
LINE
  5
   408
  8
0
  6
CONTINUOUS
 62
    98
 10
80.548814746492
 20
-10.3937209546566
 30
0.0
 11
80.3547538996534
 21
-10.3937209546566
 31
0.0
  0
LINE
  5
   409
  8
0
  6
CONTINUOUS
 62
    98
 10
80.8099765939274
 20
-10.3937209546566
 30
0.0
 11
80.548814746492
 21
-10.3937209546566
 31
0.0
  0
LINE
  5
   40A
  8
0
  6
CONTINUOUS
 62
    98
 10
81.1282034981455
 20
-10.3937209546566
 30
0.0
 11
80.8099765939274
 21
-10.3937209546566
 31
0.0
  0
LINE
  5
   40B
  8
0
  6
CONTINUOUS
 62
    98
 10
81.4912655399209
 20
-10.3937209546566
 30
0.0
 11
81.1282034981455
 21
-10.3937209546566
 31
0.0
  0
LINE
  5
   40C
  8
0
  6
CONTINUOUS
 62
    98
 10
81.8852114656004
 20
-10.3937209546566
 30
0.0
 11
81.4912655399209
 21
-10.3937209546566
 31
0.0
  0
LINE
  5
   40D
  8
0
  6
CONTINUOUS
 62
    98
 10
82.2949010757804
 20
-10.3937209546566
 30
0.0
 11
81.8852114656004
 21
-10.3937209546566
 31
0.0
  0
LINE
  5
   40E
  8
0
  6
CONTINUOUS
 62
    98
 10
108.894899279572
 20
-10.3937211687091
 30
0.0
 11
108.544899297512
 21
-10.0437211866495
 31
0.0
  0
LINE
  5
   40F
  8
0
  6
CONTINUOUS
 62
    98
 10
105.044899111527
 20
-10.0437217109537
 30
0.0
 11
104.694899129467
 21
-10.3937216930133
 31
0.0
  0
LINE
  5
   410
  8
0
  6
CONTINUOUS
 62
    98
 10
107.204588933584
 20
-10.3937209546566
 30
0.0
 11
106.794899990976
 21
-10.3937209546566
 31
0.0
  0
LINE
  5
   411
  8
0
  6
CONTINUOUS
 62
    98
 10
107.598536528193
 20
-10.3937209546566
 30
0.0
 11
107.204588933584
 21
-10.3937209546566
 31
0.0
  0
LINE
  5
   412
  8
0
  6
CONTINUOUS
 62
    98
 10
107.961596901039
 20
-10.3937209546566
 30
0.0
 11
107.598536528193
 21
-10.3937209546566
 31
0.0
  0
LINE
  5
   413
  8
0
  6
CONTINUOUS
 62
    98
 10
108.279825807973
 20
-10.3937209546566
 30
0.0
 11
107.961596901039
 21
-10.3937209546566
 31
0.0
  0
LINE
  5
   414
  8
0
  6
CONTINUOUS
 62
    98
 10
108.540985318906
 20
-10.3937209546566
 30
0.0
 11
108.279825807973
 21
-10.3937209546566
 31
0.0
  0
LINE
  5
   415
  8
0
  6
CONTINUOUS
 62
    98
 10
108.735048502247
 20
-10.3937209546566
 30
0.0
 11
108.540985318906
 21
-10.3937209546566
 31
0.0
  0
LINE
  5
   416
  8
0
  6
CONTINUOUS
 62
    98
 10
108.854549232634
 20
-10.3937209546566
 30
0.0
 11
108.735048502247
 21
-10.3937209546566
 31
0.0
  0
LINE
  5
   417
  8
0
  6
CONTINUOUS
 62
    98
 10
108.894899955213
 20
-10.3937209546566
 30
0.0
 11
108.854549232634
 21
-10.3937209546566
 31
0.0
  0
LINE
  5
   418
  8
0
  6
CONTINUOUS
 62
    98
 10
108.894899955213
 20
-10.3937209546566
 30
0.0
 11
108.894899955213
 21
-12.6687209159136
 31
0.0
  0
LINE
  5
   419
  8
0
  6
CONTINUOUS
 62
    98
 10
108.894899955213
 20
-15.6437208652496
 30
0.0
 11
108.894899955213
 21
-16.5187208503485
 31
0.0
  0
LINE
  5
   41A
  8
0
  6
CONTINUOUS
 62
    98
 10
104.694900026739
 20
-10.3937209546566
 30
0.0
 11
104.694900026739
 21
-12.6687209159136
 31
0.0
  0
LINE
  5
   41B
  8
0
  6
CONTINUOUS
 62
    98
 10
104.694900026739
 20
-15.6437208652496
 30
0.0
 11
104.694900026739
 21
-16.5187208503485
 31
0.0
  0
LINE
  5
   41C
  8
0
  6
CONTINUOUS
 62
    98
 10
104.735250749318
 20
-10.3937209546566
 30
0.0
 11
104.694900026739
 21
-10.3937209546566
 31
0.0
  0
LINE
  5
   41D
  8
0
  6
CONTINUOUS
 62
    98
 10
104.854754149993
 20
-10.3937209546566
 30
0.0
 11
104.735250749318
 21
-10.3937209546566
 31
0.0
  0
LINE
  5
   41E
  8
0
  6
CONTINUOUS
 62
    98
 10
105.048814663046
 20
-10.3937209546566
 30
0.0
 11
104.854754149993
 21
-10.3937209546566
 31
0.0
  0
LINE
  5
   41F
  8
0
  6
CONTINUOUS
 62
    98
 10
105.309976844267
 20
-10.3937209546566
 30
0.0
 11
105.048814663046
 21
-10.3937209546566
 31
0.0
  0
LINE
  5
   420
  8
0
  6
CONTINUOUS
 62
    98
 10
105.628203080913
 20
-10.3937209546566
 30
0.0
 11
105.309976844267
 21
-10.3937209546566
 31
0.0
  0
LINE
  5
   421
  8
0
  6
CONTINUOUS
 62
    98
 10
105.991266124046
 20
-10.3937209546566
 30
0.0
 11
105.628203080913
 21
-10.3937209546566
 31
0.0
  0
LINE
  5
   422
  8
0
  6
CONTINUOUS
 62
    98
 10
106.385211048368
 20
-10.3937209546566
 30
0.0
 11
105.991266124046
 21
-10.3937209546566
 31
0.0
  0
LINE
  5
   423
  8
0
  6
CONTINUOUS
 62
    98
 10
106.794899990976
 20
-10.3937209546566
 30
0.0
 11
106.385211048368
 21
-10.3937209546566
 31
0.0
  0
LINE
  5
   424
  8
0
  6
CONTINUOUS
 62
     3
 10
114.993404029525
 20
-43.9841495460002
 30
0.0
 11
73.6929822884297
 21
-43.9841495460002
 31
0.0
  0
LINE
  5
   425
  8
0
  6
DASHDOT
 62
     7
 10
94.5449001995921
 20
7.98554941209652
 30
0.0
 11
94.5449001995921
 21
-47.0051973135465
 31
0.0
  0
LINE
  5
   426
  8
0
  6
DASHDOT
 62
     7
 10
106.794899990976
 20
-7.46386760957232
 30
0.0
 11
106.794899990976
 21
-47.0051973135465
 31
0.0
  0
LINE
  5
   427
  8
0
  6
DASHDOT
 62
     7
 10
82.2949010757804
 20
-7.42562647833056
 30
0.0
 11
82.2949010757804
 21
-47.0051973135465
 31
0.0
  0
LINE
  5
   428
  8
0
  6
CONTINUOUS
 62
     3
 10
80.5449004914949
 20
-10.0437215013039
 30
0.0
 11
80.5449004914949
 21
-12.6687209159136
 31
0.0
  0
LINE
  5
   429
  8
0
  6
CONTINUOUS
 62
     3
 10
84.044901011266
 20
-10.0437213962993
 30
0.0
 11
84.044901011266
 21
-12.6687209159136
 31
0.0
  0
LINE
  5
   42A
  8
0
  6
CONTINUOUS
 62
     3
 10
92.7948994998431
 20
5.70627772132562
 30
0.0
 11
92.7948994998431
 21
3.08127881586552
 31
0.0
  0
LINE
  5
   42B
  8
0
  6
CONTINUOUS
 62
     3
 10
96.294899955378
 20
5.70627803598003
 30
0.0
 11
96.294899955378
 21
3.08127881586552
 31
0.0
  0
LINE
  5
   42C
  8
0
  6
CONTINUOUS
 62
     3
 10
105.044899111527
 20
-10.0437217109537
 30
0.0
 11
105.044899111527
 21
-12.6687209159136
 31
0.0
  0
LINE
  5
   42D
  8
0
  6
CONTINUOUS
 62
     3
 10
108.544899297512
 20
-10.0437211866495
 30
0.0
 11
108.544899297512
 21
-12.6687209159136
 31
0.0
  0
LINE
  5
   42E
  8
0
  6
CONTINUOUS
 62
     3
 10
108.544899961174
 20
-15.6437208652496
 30
0.0
 11
108.544899961174
 21
-16.5187208503485
 31
0.0
  0
LINE
  5
   42F
  8
0
  6
CONTINUOUS
 62
     3
 10
105.044900020778
 20
-15.6437208652496
 30
0.0
 11
105.044900020778
 21
-16.5187208503485
 31
0.0
  0
LINE
  5
   430
  8
0
  6
CONTINUOUS
 62
     3
 10
92.7949002293945
 20
0.106278866529465
 30
0.0
 11
92.7949002293945
 21
-0.768721118569374
 31
0.0
  0
LINE
  5
   431
  8
0
  6
CONTINUOUS
 62
     3
 10
96.2949001697898
 20
0.106278866529465
 30
0.0
 11
96.2949001697898
 21
-0.768721118569374
 31
0.0
  0
LINE
  5
   432
  8
0
  6
CONTINUOUS
 62
     3
 10
84.0449010459781
 20
-15.6437208652496
 30
0.0
 11
84.0449010459781
 21
-16.5187208503485
 31
0.0
  0
LINE
  5
   433
  8
0
  6
CONTINUOUS
 62
     3
 10
80.5449007717967
 20
-15.6437208652496
 30
0.0
 11
80.5449007717967
 21
-16.5187208503485
 31
0.0
  0
LINE
  5
   434
  8
0
  6
CONTINUOUS
 62
     7
 10
114.916921767041
 20
-29.2937206327915
 30
0.0
 11
109.594899943292
 21
-29.2937206327915
 31
0.0
  0
LINE
  5
   435
  8
0
  6
CONTINUOUS
 62
     7
 10
114.687474979591
 20
-28.2437206506729
 30
0.0
 11
109.594899943292
 21
-28.2437206506729
 31
0.0
  0
LINE
  5
   436
  8
0
  6
CONTINUOUS
 62
     3
 10
74.0753936008472
 20
-30.8291987982843
 30
0.0
 11
73.5017766322209
 21
-27.0050856741089
 31
0.0
  0
LINE
  5
   437
  8
0
  6
CONTINUOUS
 62
     3
 10
114.916921767041
 20
-30.7909576670426
 30
0.0
 11
114.266822535931
 21
-26.8903622803836
 31
0.0
  0
LINE
  5
   438
  8
0
  6
CONTINUOUS
 62
     7
 10
103.99490003866
 20
-28.2437206506729
 30
0.0
 11
97.3449001519084
 21
-28.2437206506729
 31
0.0
  0
LINE
  5
   439
  8
0
  6
CONTINUOUS
 62
     7
 10
103.99490003866
 20
-29.2937206327915
 30
0.0
 11
97.3449001519084
 21
-29.2937206327915
 31
0.0
  0
LINE
  5
   43A
  8
0
  6
CONTINUOUS
 62
     7
 10
91.7449002472758
 20
-28.2437206506729
 30
0.0
 11
85.0949010280967
 21
-28.2437206506729
 31
0.0
  0
LINE
  5
   43B
  8
0
  6
CONTINUOUS
 62
     7
 10
91.7449002472758
 20
-29.2937206327915
 30
0.0
 11
85.0949010280967
 21
-29.2937206327915
 31
0.0
  0
LINE
  5
   43C
  8
0
  6
CONTINUOUS
 62
     7
 10
79.4949007896781
 20
-28.2437206506729
 30
0.0
 11
73.960670207122
 21
-28.2437206506729
 31
0.0
  0
LINE
  5
   43D
  8
0
  6
CONTINUOUS
 62
     7
 10
79.4949007896781
 20
-29.2937206327915
 30
0.0
 11
74.1518758633307
 21
-29.2937206327915
 31
0.0
  0
LINE
  5
   43E
  8
0
  6
DASHDOT
 62
     7
 10
88.4199003039003
 20
-24.2507028761858
 30
0.0
 11
88.4199003039003
 21
-31.4028157669107
 31
0.0
  0
LINE
  5
   43F
  8
0
  6
DASHDOT
 62
     7
 10
100.669900095284
 20
-24.1987340545477
 30
0.0
 11
100.669900095284
 21
-31.4028157669107
 31
0.0
  0
LINE
  5
   440
  8
0
  6
CONTINUOUS
 62
     7
 10
98.9199001250863
 20
-29.2937206327915
 30
0.0
 11
98.9199001250863
 21
-29.9937206208706
 31
0.0
  0
LINE
  5
   441
  8
0
  6
CONTINUOUS
 62
     7
 10
102.419900065482
 20
-29.2937206327915
 30
0.0
 11
102.419900065482
 21
-29.9937206208706
 31
0.0
  0
LINE
  5
   442
  8
0
  6
CONTINUOUS
 62
     7
 10
86.6699003337026
 20
-29.2937206327915
 30
0.0
 11
86.6699003337026
 21
-29.9937206208706
 31
0.0
  0
LINE
  5
   443
  8
0
  6
CONTINUOUS
 62
     7
 10
90.1699002740979
 20
-29.2937206327915
 30
0.0
 11
90.1699002740979
 21
-29.9937206208706
 31
0.0
  0
LINE
  5
   444
  8
0
  6
CONTINUOUS
 62
     7
 10
79.4949004558921
 20
-15.6437208652496
 30
0.0
 11
79.4949004558921
 21
-16.5187208503485
 31
0.0
  0
LINE
  5
   445
  8
0
  6
CONTINUOUS
 62
     7
 10
85.0949003605247
 20
-15.6437208652496
 30
0.0
 11
85.0949003605247
 21
-16.5187208503485
 31
0.0
  0
LINE
  5
   446
  8
0
  6
CONTINUOUS
 62
     7
 10
109.594899943292
 20
-15.6437208652496
 30
0.0
 11
109.594899943292
 21
-16.5187208503485
 31
0.0
  0
LINE
  5
   447
  8
0
  6
CONTINUOUS
 62
     7
 10
103.99490003866
 20
-15.6437208652496
 30
0.0
 11
103.99490003866
 21
-16.5187208503485
 31
0.0
  0
LINE
  5
   448
  8
0
  6
CONTINUOUS
 62
     7
 10
102.069900071442
 20
-26.8437206745148
 30
0.0
 11
99.2699001191259
 21
-26.8437206745148
 31
0.0
  0
LINE
  5
   449
  8
0
  6
CONTINUOUS
 62
     7
 10
101.544900080383
 20
-25.4437206983566
 30
0.0
 11
99.7949001101852
 21
-25.4437206983566
 31
0.0
  0
LINE
  5
   44A
  8
0
  6
CONTINUOUS
 62
     7
 10
87.0199003277421
 20
-26.8437206745148
 30
0.0
 11
87.0199003277421
 21
-28.2437206506729
 31
0.0
  0
LINE
  5
   44B
  8
0
  6
CONTINUOUS
 62
     7
 10
89.8199002800584
 20
-26.8437206745148
 30
0.0
 11
89.8199002800584
 21
-28.2437206506729
 31
0.0
  0
LINE
  5
   44C
  8
0
  6
CONTINUOUS
 62
     7
 10
99.2699001191259
 20
-26.8437206745148
 30
0.0
 11
99.2699001191259
 21
-28.2437206506729
 31
0.0
  0
LINE
  5
   44D
  8
0
  6
CONTINUOUS
 62
     7
 10
102.069900071442
 20
-26.8437206745148
 30
0.0
 11
102.069900071442
 21
-28.2437206506729
 31
0.0
  0
LINE
  5
   44E
  8
0
  6
CONTINUOUS
 62
     7
 10
99.7949001101852
 20
-25.4437206983566
 30
0.0
 11
99.7949001101852
 21
-28.2437206506729
 31
0.0
  0
LINE
  5
   44F
  8
0
  6
CONTINUOUS
 62
     7
 10
101.544900080383
 20
-25.4437206983566
 30
0.0
 11
101.544900080383
 21
-28.2437206506729
 31
0.0
  0
LINE
  5
   450
  8
0
  6
CONTINUOUS
 62
     7
 10
87.5449003188014
 20
-25.4437206983566
 30
0.0
 11
87.5449003188014
 21
-28.2437206506729
 31
0.0
  0
LINE
  5
   451
  8
0
  6
CONTINUOUS
 62
     7
 10
89.2949002889991
 20
-25.4437206983566
 30
0.0
 11
89.2949002889991
 21
-28.2437206506729
 31
0.0
  0
LINE
  5
   452
  8
0
  6
CONTINUOUS
 62
     7
 10
89.2949002889991
 20
-25.4437206983566
 30
0.0
 11
87.5449003188014
 21
-25.4437206983566
 31
0.0
  0
LINE
  5
   453
  8
0
  6
CONTINUOUS
 62
     7
 10
89.8199002800584
 20
-26.8437206745148
 30
0.0
 11
87.0199003277421
 21
-26.8437206745148
 31
0.0
  0
LINE
  5
   454
  8
0
  6
DASHDOT
 62
     7
 10
94.5449001995921
 20
-7.42562647833056
 30
0.0
 11
94.5449001995921
 21
-47.0051973135465
 31
0.0
  0
INSERT
  5
   455
  8
0
  6
CONTINUOUS
 62
     7
  2
*UDIM714
 10
0.0
 20
0.0
 30
0.0
  0
INSERT
  5
   456
  8
0
  6
CONTINUOUS
 62
     7
  2
*UDIM715
 10
0.0
 20
0.0
 30
0.0
  0
INSERT
  5
   457
  8
0
  6
CONTINUOUS
 62
     7
  2
*UDIM716
 10
0.0
 20
0.0
 30
0.0
  0
INSERT
  5
   458
  8
0
  6
CONTINUOUS
 62
     7
  2
*UDIM717
 10
0.0
 20
0.0
 30
0.0
  0
INSERT
  5
   459
  8
0
  6
CONTINUOUS
 62
     7
  2
*UDIM718
 10
0.0
 20
0.0
 30
0.0
  0
INSERT
  5
   45A
  8
0
  6
CONTINUOUS
 62
     7
  2
*UDIM719
 10
0.0
 20
0.0
 30
0.0
  0
INSERT
  5
   45B
  8
0
  6
CONTINUOUS
 62
     7
  2
*UDIM720
 10
0.0
 20
0.0
 30
0.0
  0
TEXT
  5
   45C
  8
0
  6
CONTINUOUS
 62
     7
 10
93.2223246828189
 20
-51.5812494485826
 30
0.0
 40
2.99999997871263
  1
Y
 50
359.999999896069
 41
0.91666663951344
 72
     1
 11
94.3223246533884
 21
-50.0812494612161
 31
0.0
 73
     2
  0
LINE
  5
   45D
  8
0
  6
CONTINUOUS
 62
     7
 10
216.976412039995
 20
98.5033004180368
 30
0.0
 11
216.976412039995
 21
98.6782897339044
 31
0.0
  0
LINE
  5
   45E
  8
0
  6
CONTINUOUS
 62
     7
 10
216.976412039995
 20
103.928289644497
 30
0.0
 11
216.976412039995
 21
110.928278844136
 31
0.0
  0
LINE
  5
   45F
  8
0
  6
CONTINUOUS
 62
     7
 10
217.851422706246
 20
98.6782897339044
 30
0.0
 11
217.851422706246
 21
103.928289644497
 31
0.0
  0
LINE
  5
   460
  8
0
  6
CONTINUOUS
 62
     7
 10
217.851422706246
 20
98.6782897339044
 30
0.0
 11
216.976412039995
 21
98.6782897339044
 31
0.0
  0
LINE
  5
   461
  8
0
  6
CONTINUOUS
 62
     7
 10
217.851422706246
 20
103.928289644497
 30
0.0
 11
216.976412039995
 21
103.928289644497
 31
0.0
  0
LINE
  5
   462
  8
0
  6
CONTINUOUS
 62
     7
 10
217.851422706246
 20
110.928278844136
 30
0.0
 11
217.851422706246
 21
116.178278754729
 31
0.0
  0
LINE
  5
   463
  8
0
  6
CONTINUOUS
 62
     7
 10
217.851422706246
 20
110.928278844136
 30
0.0
 11
216.976412039995
 21
110.928278844136
 31
0.0
  0
LINE
  5
   464
  8
0
  6
CONTINUOUS
 62
     7
 10
217.851422706246
 20
116.178278754729
 30
0.0
 11
216.976412039995
 21
116.178278754729
 31
0.0
  0
LINE
  5
   465
  8
0
  6
CONTINUOUS
 62
     7
 10
240.951406291127
 20
98.5032897368847
 30
0.0
 11
240.951406291127
 21
117.753278727907
 31
0.0
  0
LINE
  5
   466
  8
0
  6
CONTINUOUS
 62
     2
 10
216.976390677528
 20
117.578278730887
 30
0.0
 11
216.976390677528
 21
124.793397016218
 31
0.0
  0
LINE
  5
   467
  8
0
  6
CONTINUOUS
 62
     7
 10
242.176411610842
 20
123.878278623599
 30
0.0
 11
240.951411631703
 21
123.878278623599
 31
0.0
  0
LINE
  5
   468
  8
0
  6
CONTINUOUS
 62
     7
 10
240.951374247422
 20
117.753275676182
 30
0.0
 11
240.951374247422
 21
123.878275571874
 31
0.0
  0
LINE
  5
   469
  8
0
  6
CONTINUOUS
 62
     7
 10
218.376412016153
 20
118.453278715986
 30
0.0
 11
216.976412039995
 21
118.453278715986
 31
0.0
  0
LINE
  5
   46A
  8
0
  6
CONTINUOUS
 62
     7
 10
218.376412906121
 20
118.453274272221
 30
0.0
 11
218.376426257569
 21
123.703278626579
 31
0.0
  0
LINE
  5
   46B
  8
0
  6
CONTINUOUS
 62
     7
 10
240.951406291127
 20
95.1782951340851
 30
0.0
 11
240.951406291127
 21
98.5033004180368
 31
0.0
  0
LINE
  5
   46C
  8
0
  6
CONTINUOUS
 62
     7
 10
216.976415609758
 20
73.8283044007105
 30
0.0
 11
216.97642629091
 21
73.9312866875748
 31
0.0
  0
LINE
  5
   46D
  8
0
  6
CONTINUOUS
 62
     7
 10
216.976422721049
 20
79.3253207694705
 30
0.0
 11
216.976422721049
 21
98.5032974326176
 31
0.0
  0
LINE
  5
   46E
  8
0
  6
CONTINUOUS
 62
     7
 10
241.826411616802
 20
78.5533007577833
 30
0.0
 11
218.026400272846
 21
78.5533007577833
 31
0.0
  0
LINE
  5
   46F
  8
0
  6
CONTINUOUS
 62
     7
 10
241.826411616802
 20
74.7033008233484
 30
0.0
 11
218.026400272846
 21
74.7033008233484
 31
0.0
  0
LINE
  5
   470
  8
0
  6
CONTINUOUS
 62
     7
 10
219.857632639615
 20
78.5533043170112
 30
0.0
 11
216.976424010779
 21
79.3253243030117
 31
0.0
  0
LINE
  5
   471
  8
0
  6
CONTINUOUS
 62
     7
 10
216.976425625672
 20
73.9312836954703
 30
0.0
 11
219.85763432085
 21
74.7033011974003
 31
0.0
  0
LINE
  5
   472
  8
0
  6
CONTINUOUS
 62
     7
 10
242.176406270266
 20
79.6033007399019
 30
0.0
 11
239.376406317949
 21
79.6033007399019
 31
0.0
  0
LINE
  5
   473
  8
0
  6
CONTINUOUS
 62
     7
 10
239.376406317949
 20
79.6033007399019
 30
0.0
 11
239.376406317949
 21
94.4782951460061
 31
0.0
  0
LINE
  5
   474
  8
0
  6
CONTINUOUS
 62
     7
 10
217.326422715187
 20
76.8033007875856
 30
0.0
 11
217.326422715187
 21
79.2315378983326
 31
0.0
  0
LINE
  5
   475
  8
0
  6
CONTINUOUS
 62
     7
 10
217.326417785437
 20
74.0250671622651
 30
0.0
 11
217.326423126008
 21
74.3533043100263
 31
0.0
  0
LINE
  5
   476
  8
0
  6
CONTINUOUS
 62
     2
 10
216.976422721147
 20
79.6033007399019
 30
0.0
 11
216.276422733068
 21
79.6033007399019
 31
0.0
  0
LINE
  5
   477
  8
0
  6
CONTINUOUS
 62
     2
 10
216.976422721147
 20
81.5283007071193
 30
0.0
 11
216.276422733068
 21
81.5283007071193
 31
0.0
  0
LINE
  5
   478
  8
0
  6
CONTINUOUS
 62
     7
 10
242.176398706767
 20
74.3533144884763
 30
0.0
 11
241.826404064712
 21
74.7033091305312
 31
0.0
  0
LINE
  5
   479
  8
0
  6
CONTINUOUS
 62
     7
 10
241.826407194018
 20
78.5533012484681
 30
0.0
 11
242.176407176078
 21
78.9033012305276
 31
0.0
  0
LINE
  5
   47A
  8
0
  6
CONTINUOUS
 62
     7
 10
240.951406291127
 20
94.4782951460061
 30
0.0
 11
240.951406291127
 21
95.1782951340851
 31
0.0
  0
LINE
  5
   47B
  8
0
  6
CONTINUOUS
 62
     2
 10
217.676422709226
 20
67.5283116266905
 30
0.0
 11
216.276422733068
 21
67.5283116266905
 31
0.0
  0
LINE
  5
   47C
  8
0
  6
CONTINUOUS
 62
     7
 10
216.976412039995
 20
72.4283008620914
 30
0.0
 11
216.976412039995
 21
73.8283008382496
 31
0.0
  0
LINE
  5
   47D
  8
0
  6
CONTINUOUS
 62
     7
 10
242.176406270266
 20
69.2783115968878
 30
0.0
 11
238.676411670446
 21
69.2783115968878
 31
0.0
  0
LINE
  5
   47E
  8
0
  6
CONTINUOUS
 62
     7
 10
238.676411670446
 20
67.5283116266901
 30
0.0
 11
238.676411670446
 21
69.2783115968878
 31
0.0
  0
LINE
  5
   47F
  8
0
  6
CONTINUOUS
 62
     7
 10
216.976412039995
 20
68.4033182340907
 30
0.0
 11
216.976412039995
 21
72.4283008620914
 31
0.0
  0
LINE
  5
   480
  8
0
  6
CONTINUOUS
 62
     2
 10
216.976412039995
 20
117.578278730887
 30
0.0
 11
216.801422724127
 21
117.578278730887
 31
0.0
  0
LINE
  5
   481
  8
0
  6
CONTINUOUS
 62
     7
 10
216.976417380571
 20
92.9033005134042
 30
0.0
 11
216.801422724127
 21
92.9033005134042
 31
0.0
  0
LINE
  5
   482
  8
0
  6
CONTINUOUS
 62
     7
 10
216.976422721147
 20
81.7033020392831
 30
0.0
 11
216.801422724127
 21
81.7033020392831
 31
0.0
  0
LINE
  5
   483
  8
0
  6
CONTINUOUS
 62
     7
 10
217.326422715187
 20
79.0783010826286
 30
0.0
 11
216.801422724127
 21
79.0783010826286
 31
0.0
  0
LINE
  5
   484
  8
0
  6
CONTINUOUS
 62
     7
 10
216.976412039995
 20
73.4783061847861
 30
0.0
 11
216.801422724127
 21
73.4783061847861
 31
0.0
  0
LINE
  5
   485
  8
0
  6
CONTINUOUS
 62
     2
 10
216.801422724127
 20
68.7183149492438
 30
0.0
 11
216.801422724127
 21
79.6032953993258
 31
0.0
  0
LINE
  5
   486
  8
0
  6
CONTINUOUS
 62
     2
 10
216.801422724127
 20
81.5282953665433
 30
0.0
 11
216.801422724127
 21
117.578273390311
 31
0.0
  0
LINE
  5
   487
  8
0
  6
CONTINUOUS
 62
     7
 10
217.326422715187
 20
110.928294865864
 30
0.0
 11
217.326422715187
 21
116.178278754729
 31
0.0
  0
LINE
  5
   488
  8
0
  6
CONTINUOUS
 62
     7
 10
217.326422715187
 20
98.6783110962087
 30
0.0
 11
217.326422715187
 21
103.928305666226
 31
0.0
  0
LINE
  5
   489
  8
0
  6
CONTINUOUS
 62
     7
 10
217.326422715187
 20
74.3533275321893
 30
0.0
 11
217.326422715187
 21
76.803327490466
 31
0.0
  0
LINE
  5
   48A
  8
0
  6
CONTINUOUS
 62
     2
 10
216.941419988582
 20
68.5783176847892
 30
0.0
 11
216.80142212881
 21
68.7183155445609
 31
0.0
  0
LINE
  5
   48B
  8
0
  6
CONTINUOUS
 62
     2
 10
216.976422721147
 20
123.17827863552
 30
0.0
 11
216.276422733068
 21
123.17827863552
 31
0.0
  0
LINE
  5
   48C
  8
0
  6
CONTINUOUS
 62
     2
 10
216.976422721147
 20
127.028278569955
 30
0.0
 11
216.276422733068
 21
127.028278569955
 31
0.0
  0
LINE
  5
   48D
  8
0
  6
CONTINUOUS
 62
     2
 10
216.976422721147
 20
126.087354513713
 30
0.0
 11
216.276422733068
 21
126.087354513713
 31
0.0
  0
LINE
  5
   48E
  8
0
  6
CONTINUOUS
 62
     2
 10
216.976422721147
 20
124.793397016218
 30
0.0
 11
216.276422733068
 21
124.793397016218
 31
0.0
  0
LINE
  5
   48F
  8
0
  6
CONTINUOUS
 62
     7
 10
241.12640094757
 20
99.5532775758016
 30
0.0
 11
241.12640094757
 21
118.628293272685
 31
0.0
  0
LINE
  5
   490
  8
0
  6
CONTINUOUS
 62
     7
 10
250.75141146481
 20
124.053290583497
 30
0.0
 11
250.75141146481
 21
124.228290580516
 31
0.0
  0
LINE
  5
   491
  8
0
  6
CONTINUOUS
 62
     7
 10
242.176411610842
 20
123.703285248881
 30
0.0
 11
242.176411610842
 21
124.053290583497
 31
0.0
  0
LINE
  5
   492
  8
0
  6
CONTINUOUS
 62
     7
 10
250.051411476731
 20
124.053290583497
 30
0.0
 11
249.946410410404
 21
124.053290583497
 31
0.0
  0
LINE
  5
   493
  8
0
  6
CONTINUOUS
 62
     7
 10
242.176411610842
 20
123.703295930033
 30
0.0
 11
241.126411628723
 21
123.703295930033
 31
0.0
  0
LINE
  5
   494
  8
0
  6
CONTINUOUS
 62
     7
 10
241.126411628723
 20
118.62829601646
 30
0.0
 11
241.126411628723
 21
123.703295930033
 31
0.0
  0
LINE
  5
   495
  8
0
  6
CONTINUOUS
 62
     7
 10
242.176395589113
 20
69.628302191501
 30
0.0
 11
242.176395589113
 21
72.1751161129728
 31
0.0
  0
LINE
  5
   496
  8
0
  6
CONTINUOUS
 62
     7
 10
241.126406288147
 20
95.3532910722547
 30
0.0
 11
241.126406288147
 21
99.553280319577
 31
0.0
  0
LINE
  5
   497
  8
0
  6
CONTINUOUS
 62
     7
 10
241.126406288147
 20
94.4782804060037
 30
0.0
 11
240.776406294107
 21
94.4782804060037
 31
0.0
  0
LINE
  5
   498
  8
0
  6
CONTINUOUS
 62
     7
 10
249.946399464639
 20
68.578312890542
 30
0.0
 11
242.1763953245
 21
68.578312890542
 31
0.0
  0
LINE
  5
   499
  8
0
  6
CONTINUOUS
 62
     7
 10
242.176395589113
 20
68.5783022093824
 30
0.0
 11
242.176395589113
 21
69.628302191501
 31
0.0
  0
LINE
  5
   49A
  8
0
  6
CONTINUOUS
 62
     7
 10
242.176400929689
 20
72.1751161129728
 30
0.0
 11
242.176400929689
 21
74.6158053301636
 31
0.0
  0
LINE
  5
   49B
  8
0
  6
CONTINUOUS
 62
     7
 10
250.051395455003
 20
67.5282968866877
 30
0.0
 11
250.051395455003
 21
68.5782968688063
 31
0.0
  0
LINE
  5
   49C
  8
0
  6
CONTINUOUS
 62
     7
 10
250.051395455003
 20
68.5782968688063
 30
0.0
 11
249.946399750114
 21
68.5782968688063
 31
0.0
  0
LINE
  5
   49D
  8
0
  6
CONTINUOUS
 62
     7
 10
240.776406294107
 20
94.4782804060037
 30
0.0
 11
239.376406317949
 21
94.4782804060037
 31
0.0
  0
LINE
  5
   49E
  8
0
  6
CONTINUOUS
 62
     7
 10
241.126406288147
 20
94.4782804060037
 30
0.0
 11
241.126406288147
 21
95.3532910722547
 31
0.0
  0
LINE
  5
   49F
  8
0
  6
CONTINUOUS
 62
     7
 10
249.946398273828
 20
74.6158127877226
 30
0.0
 11
242.176399474265
 21
74.6158127877226
 31
0.0
  0
LINE
  5
   4A0
  8
0
  6
CONTINUOUS
 62
     7
 10
249.946395699767
 20
78.6408127191763
 30
0.0
 11
242.176396900204
 21
78.6408127191763
 31
0.0
  0
LINE
  5
   4A1
  8
0
  6
CONTINUOUS
 62
     7
 10
242.63105982851
 20
69.8908081778612
 30
0.0
 11
242.701395204476
 21
70.153308169767
 31
0.0
  0
LINE
  5
   4A2
  8
0
  6
CONTINUOUS
 62
     7
 10
242.438898854301
 20
69.6986410082232
 30
0.0
 11
242.631058109579
 21
69.890805608854
 31
0.0
  0
LINE
  5
   4A3
  8
0
  6
CONTINUOUS
 62
     7
 10
242.176389539225
 20
69.6283103939889
 30
0.0
 11
242.438894864745
 21
69.6986457753081
 31
0.0
  0
LINE
  5
   4A4
  8
0
  6
CONTINUOUS
 62
     7
 10
242.438897789264
 20
73.7579674947462
 30
0.0
 11
242.176397795659
 21
73.8283082161174
 31
0.0
  0
LINE
  5
   4A5
  8
0
  6
CONTINUOUS
 62
     7
 10
242.63105659923
 20
73.5658052979223
 30
0.0
 11
242.438897341279
 21
73.7579645558739
 31
0.0
  0
LINE
  5
   4A6
  8
0
  6
CONTINUOUS
 62
     7
 10
242.701391571531
 20
73.303305789009
 30
0.0
 11
242.631050850159
 21
73.5658057826139
 31
0.0
  0
LINE
  5
   4A7
  8
0
  6
CONTINUOUS
 62
     7
 10
242.701392613198
 20
70.1533042603826
 30
0.0
 11
242.701397953774
 21
73.3033042067384
 31
0.0
  0
LINE
  5
   4A8
  8
0
  6
CONTINUOUS
 62
     7
 10
249.946399729251
 20
68.5782968688063
 30
0.0
 11
249.946399729251
 21
124.053286204022
 31
0.0
  0
LINE
  5
   4A9
  8
0
  6
CONTINUOUS
 62
     7
 10
249.94641575098
 20
131.648294726615
 30
0.0
 11
216.976390677528
 21
131.648294726615
 31
0.0
  0
LINE
  5
   4AA
  8
0
  6
CONTINUOUS
 62
     7
 10
249.946378366943
 20
124.053288171659
 30
0.0
 11
249.946378366943
 21
131.648292314777
 31
0.0
  0
LINE
  5
   4AB
  8
0
  6
CONTINUOUS
 62
     7
 10
242.176411610842
 20
124.053295924073
 30
0.0
 11
242.176411610842
 21
132.628294496315
 31
0.0
  0
LINE
  5
   4AC
  8
0
  6
CONTINUOUS
 62
     7
 10
255.65141672194
 20
70.4158181998182
 30
0.0
 11
255.65141672194
 21
76.8908061266716
 31
0.0
  0
LINE
  5
   4AD
  8
0
  6
CONTINUOUS
 62
     7
 10
255.65141672194
 20
106.378306906228
 30
0.0
 11
255.65141672194
 21
106.465806904738
 31
0.0
  0
LINE
  5
   4AE
  8
0
  6
CONTINUOUS
 62
     7
 10
253.726418757438
 20
107.165806892817
 30
0.0
 11
252.501416775584
 21
107.165806892817
 31
0.0
  0
LINE
  5
   4AF
  8
0
  6
CONTINUOUS
 62
     7
 10
253.726418757438
 20
70.4158181998182
 30
0.0
 11
252.501416775584
 21
70.4158181998182
 31
0.0
  0
LINE
  5
   4B0
  8
0
  6
CONTINUOUS
 62
     7
 10
250.051416817307
 20
64.7283182966758
 30
0.0
 11
250.051416817307
 21
68.5782968688063
 31
0.0
  0
LINE
  5
   4B1
  8
0
  6
CONTINUOUS
 62
     7
 10
251.801416787505
 20
64.7283182966758
 30
0.0
 11
251.801416787505
 21
70.4158181998182
 31
0.0
  0
LINE
  5
   4B2
  8
0
  6
CONTINUOUS
 62
     7
 10
251.801416787505
 20
107.165806892817
 30
0.0
 11
251.801416787505
 21
124.053306605225
 31
0.0
  0
LINE
  5
   4B3
  8
0
  6
CONTINUOUS
 62
     7
 10
251.801416787505
 20
124.053306605225
 30
0.0
 11
250.051416817307
 21
124.053306605225
 31
0.0
  0
LINE
  5
   4B4
  8
0
  6
CONTINUOUS
 62
     7
 10
251.801416787505
 20
64.7283182966758
 30
0.0
 11
250.051416817307
 21
64.7283182966758
 31
0.0
  0
LINE
  5
   4B5
  8
0
  6
CONTINUOUS
 62
     7
 10
252.501416775584
 20
70.4158181998182
 30
0.0
 11
252.501416775584
 21
107.165806892817
 31
0.0
  0
LINE
  5
   4B6
  8
0
  6
CONTINUOUS
 62
     7
 10
252.501416775584
 20
70.4158181998182
 30
0.0
 11
251.801416787505
 21
70.4158181998182
 31
0.0
  0
LINE
  5
   4B7
  8
0
  6
CONTINUOUS
 62
     7
 10
252.501416775584
 20
107.165806892817
 30
0.0
 11
251.801416787505
 21
107.165806892817
 31
0.0
  0
LINE
  5
   4B8
  8
0
  6
CONTINUOUS
 62
     7
 10
249.946391623171
 20
78.8332913197109
 30
0.0
 11
250.05139268463
 21
78.8424771094456
 31
0.0
  0
LINE
  5
   4B9
  8
0
  6
CONTINUOUS
 62
     7
 10
250.051410734854
 20
74.4141124940803
 30
0.0
 11
249.94640967046
 21
74.4233036244082
 31
0.0
  0
LINE
  5
   4BA
  8
0
  6
CONTINUOUS
 62
     7
 10
242.176400929689
 20
78.6408052616192
 30
0.0
 11
242.176400929689
 21
79.6032913404756
 31
0.0
  0
LINE
  5
   4BB
  8
0
  6
CONTINUOUS
 62
     2
 10
217.676422709226
 20
68.4033182340907
 30
0.0
 11
216.276422733068
 21
68.4033182340907
 31
0.0
  0
LINE
  5
   4BC
  8
0
  6
CONTINUOUS
 62
     7
 10
249.946421091556
 20
68.4033182340907
 30
0.0
 11
243.926416921615
 21
68.4033182340907
 31
0.0
  0
LINE
  5
   4BD
  8
0
  6
CONTINUOUS
 62
     2
 10
217.676422709226
 20
67.5283182489919
 30
0.0
 11
217.676422709226
 21
68.4033182340907
 31
0.0
  0
LINE
  5
   4BE
  8
0
  6
CONTINUOUS
 62
   218
 10
249.946418220598
 20
53.528313146521
 30
0.0
 11
250.051416817034
 21
53.5283143789422
 31
0.0
  0
LINE
  5
   4BF
  8
0
  6
CONTINUOUS
 62
   218
 10
249.946421091556
 20
53.5283184874105
 30
0.0
 11
249.946421091556
 21
68.4033182340907
 31
0.0
  0
LINE
  5
   4C0
  8
0
  6
CONTINUOUS
 62
     7
 10
250.051416817307
 20
64.3783183026361
 30
0.0
 11
249.946421091556
 21
64.3783183026361
 31
0.0
  0
LINE
  5
   4C1
  8
0
  6
CONTINUOUS
 62
   218
 10
216.276422733039
 20
55.628313111418
 30
0.0
 11
216.976422387316
 21
55.628318451994
 31
0.0
  0
LINE
  5
   4C2
  8
0
  6
CONTINUOUS
 62
     7
 10
242.176412946739
 20
68.4033182359954
 30
0.0
 11
242.176418287315
 21
69.1033182240905
 31
0.0
  0
LINE
  5
   4C3
  8
0
  6
CONTINUOUS
 62
     7
 10
242.176422291994
 20
69.1033182221698
 30
0.0
 11
238.676422351598
 21
69.1033182221698
 31
0.0
  0
LINE
  5
   4C4
  8
0
  6
CONTINUOUS
 62
     7
 10
243.926416921615
 20
68.4033182340907
 30
0.0
 11
242.176416951418
 21
68.4033182340907
 31
0.0
  0
LINE
  5
   4C5
  8
0
  6
CONTINUOUS
 62
     7
 10
251.801416787505
 20
64.553318299656
 30
0.0
 11
250.051416817307
 21
64.553318299656
 31
0.0
  0
LINE
  5
   4C6
  8
0
  6
CONTINUOUS
 62
     7
 10
251.801416787505
 20
52.3033185082723
 30
0.0
 11
250.051416817307
 21
52.3033185082723
 31
0.0
  0
LINE
  5
   4C7
  8
0
  6
CONTINUOUS
 62
     7
 10
251.801416787505
 20
52.3033185082723
 30
0.0
 11
251.801416787505
 21
64.553318299656
 31
0.0
  0
LINE
  5
   4C8
  8
0
  6
CONTINUOUS
 62
     7
 10
251.101416799426
 20
52.3033185082723
 30
0.0
 11
251.101416799426
 21
64.553318299656
 31
0.0
  0
LINE
  5
   4C9
  8
0
  6
CONTINUOUS
 62
     7
 10
250.051416817307
 20
52.3033185082723
 30
0.0
 11
250.051416817307
 21
64.553318299656
 31
0.0
  0
ARC
  5
   4CA
  8
0
  6
CONTINUOUS
 62
     7
 10
262.887685068386
 20
81.0754595055136
 30
0.0
 40
0.349999922554071
 50
348.623573369035
 51
436.688788706936
  0
ARC
  5
   4CB
  8
0
  6
CONTINUOUS
 62
     7
 10
262.468824535577
 20
78.9937232521662
 30
0.0
 40
0.35000025487589
 50
260.593992196011
 51
348.623573369035
  0
LINE
  5
   4CC
  8
0
  6
DASHDOT
 62
     7
 10
268.06788960821
 20
78.937428095396
 30
0.0
 11
250.527049642811
 21
82.4667721528204
 31
0.0
  0
LINE
  5
   4CD
  8
0
  6
CONTINUOUS
 62
     7
 10
262.968269047657
 20
81.4160560285024
 30
0.0
 11
255.65141672194
 21
83.1471984106015
 31
0.0
  0
LINE
  5
   4CE
  8
0
  6
CONTINUOUS
 62
     7
 10
262.81194804115
 20
78.9246843174434
 30
0.0
 11
263.230808458954
 21
81.0064205939307
 31
0.0
  0
LINE
  5
   4CF
  8
0
  6
CONTINUOUS
 62
     7
 10
262.411624219535
 20
78.6484288520365
 30
0.0
 11
255.65141672194
 21
79.7683022273961
 31
0.0
  0
LINE
  5
   4D0
  8
0
  6
CONTINUOUS
 62
     7
 10
218.026400272846
 20
74.7033008233484
 30
0.0
 11
218.026400272846
 21
78.5533007577833
 31
0.0
  0
LINE
  5
   4D1
  8
0
  6
CONTINUOUS
 62
     2
 10
216.976390677528
 20
126.087354513713
 30
0.0
 11
216.976390677528
 21
132.628294119338
 31
0.0
  0
LINE
  5
   4D2
  8
0
  6
DASHDOT
 62
     7
 10
216.276422733068
 20
41.2626962142879
 30
0.0
 11
216.276422733068
 21
47.2283138568397
 31
0.0
  0
LINE
  5
   4D3
  8
0
  6
DASHDOT
 62
     7
 10
215.22642275095
 20
41.2951036211434
 30
0.0
 11
215.22642275095
 21
47.2283138568397
 31
0.0
  0
LINE
  5
   4D4
  8
0
  6
CONTINUOUS
 62
     7
 10
217.37182515231
 20
168.367567493699
 30
0.0
 11
213.823598102317
 21
168.367567493699
 31
0.0
  0
ARC
  5
   4D5
  8
0
  6
CONTINUOUS
 62
     7
 10
236.926417040825
 20
85.2033179479886
 30
0.0
 40
26.61542846025
 50
333.082565820193
 51
379.93594827737
  0
LINE
  5
   4D6
  8
0
  6
CONTINUOUS
 62
     7
 10
263.541845501075
 20
85.2033179479886
 30
0.0
 11
263.541845501075
 21
100.375565350409
 31
0.0
  0
LINE
  5
   4D7
  8
0
  6
CONTINUOUS
 62
     7
 10
225.02641441607
 20
46.5282959625897
 30
0.0
 11
223.276414445872
 21
46.5282959625897
 31
0.0
  0
LINE
  5
   4D8
  8
0
  6
CONTINUOUS
 62
     7
 10
223.276414445872
 20
46.5282959625897
 30
0.0
 11
223.276414445872
 21
57.2002234454173
 31
0.0
  0
LINE
  5
   4D9
  8
0
  6
CONTINUOUS
 62
     7
 10
225.026413748498
 20
51.4282779729722
 30
0.0
 11
223.276414445872
 21
51.4282779729722
 31
0.0
  0
LINE
  5
   4DA
  8
0
  6
CONTINUOUS
 62
     7
 10
225.026413748498
 20
48.628278020656
 30
0.0
 11
223.276414445872
 21
48.628278020656
 31
0.0
  0
LINE
  5
   4DB
  8
0
  6
CONTINUOUS
 62
     7
 10
225.026413748498
 20
46.5282959625897
 30
0.0
 11
225.026413748498
 21
48.628278020656
 31
0.0
  0
LINE
  5
   4DC
  8
0
  6
CONTINUOUS
 62
     7
 10
230.578553472419
 20
57.2002234454173
 30
0.0
 11
213.088423695233
 21
57.2002234454173
 31
0.0
  0
LINE
  5
   4DD
  8
0
  6
CONTINUOUS
 62
     7
 10
234.150699658726
 20
41.5612634241862
 30
0.0
 11
229.712169334849
 21
57.7198346032675
 31
0.0
  0
INSERT
  5
   4DE
  8
0
  6
CONTINUOUS
 62
     7
  2
*HATCH219
 10
252.326400756836
 20
50.2953300476074
 30
0.0
 41
0.349999994039536
 42
0.349999994039536
 50
89.9999999480344
 43
0.349999994039536
  0
INSERT
  5
   4DF
  8
0
  6
CONTINUOUS
 62
     7
  2
*HATCH220
 10
252.326400756836
 20
50.2953300476074
 30
0.0
 41
0.349999994039536
 42
0.349999994039536
 50
89.9999999480344
 43
0.349999994039536
  0
LINE
  5
   4E0
  8
0
  6
CONTINUOUS
 62
     7
 10
223.276414445872
 20
55.2782779074071
 30
0.0
 11
216.976422387361
 21
55.2782779074071
 31
0.0
  0
LINE
  5
   4E1
  8
0
  6
CONTINUOUS
 62
     7
 10
223.276414445872
 20
56.6782778835653
 30
0.0
 11
216.276422733068
 21
56.6782778835653
 31
0.0
  0
LINE
  5
   4E2
  8
0
  6
CONTINUOUS
 62
     7
 10
230.767390467378
 20
53.878277931249
 30
0.0
 11
225.026413748498
 21
53.878277931249
 31
0.0
  0
INSERT
  5
   4E3
  8
0
  6
CONTINUOUS
 62
     7
  2
*HATCH221
 10
252.326400756836
 20
50.2953300476074
 30
0.0
 41
0.349999994039536
 42
0.349999994039536
 50
89.9999999480344
 43
0.349999994039536
  0
LINE
  5
   4E4
  8
0
  6
CONTINUOUS
 62
     7
 10
230.382830330301
 20
55.2782779074071
 30
0.0
 11
225.026413748498
 21
55.2782779074071
 31
0.0
  0
INSERT
  5
   4E5
  8
0
  6
CONTINUOUS
 62
     7
  2
*HATCH222
 10
252.326400756836
 20
50.2953300476074
 30
0.0
 41
0.349999994039536
 42
0.349999994039536
 50
89.9999999480344
 43
0.349999994039536
  0
LINE
  5
   4E6
  8
0
  6
CONTINUOUS
 62
     7
 10
238.676411670446
 20
67.5283116266905
 30
0.0
 11
217.676422709226
 21
67.5283116266905
 31
0.0
  0
LINE
  5
   4E7
  8
0
  6
CONTINUOUS
 62
     7
 10
255.65141672194
 20
93.5158058435495
 30
0.0
 11
255.65141672194
 21
107.165806892817
 31
0.0
  0
LINE
  5
   4E8
  8
0
  6
CONTINUOUS
 62
     7
 10
255.65141672194
 20
88.9658059210356
 30
0.0
 11
255.65141672194
 21
93.16580584951
 31
0.0
  0
LINE
  5
   4E9
  8
0
  6
CONTINUOUS
 62
     7
 10
255.65141672194
 20
81.7908167243765
 30
0.0
 11
255.65141672194
 21
88.615805926996
 31
0.0
  0
LINE
  5
   4EA
  8
0
  6
CONTINUOUS
 62
     7
 10
255.65141672194
 20
77.2408061207111
 30
0.0
 11
255.65141672194
 21
81.440816730337
 31
0.0
  0
LINE
  5
   4EB
  8
0
  6
CONTINUOUS
 62
     1
 10
253.726418757438
 20
69.5385485233031
 30
0.0
 11
253.726418757438
 21
70.2385485113822
 31
0.0
  0
LINE
  5
   4EC
  8
0
  6
CONTINUOUS
 62
     1
 10
254.426418745517
 20
69.5385485233031
 30
0.0
 11
253.726418757438
 21
69.5385485233031
 31
0.0
  0
LINE
  5
   4ED
  8
0
  6
CONTINUOUS
 62
     1
 10
253.726418757438
 20
107.338546544429
 30
0.0
 11
253.726418757438
 21
108.038546532508
 31
0.0
  0
LINE
  5
   4EE
  8
0
  6
CONTINUOUS
 62
     1
 10
254.426418745517
 20
108.038546532508
 30
0.0
 11
253.726418757438
 21
108.038546532508
 31
0.0
  0
LINE
  5
   4EF
  8
0
  6
CONTINUOUS
 62
     1
 10
253.726418757438
 20
70.2385485113822
 30
0.0
 11
253.726418757438
 21
107.338547879573
 31
0.0
  0
LINE
  5
   4F0
  8
0
  6
CONTINUOUS
 62
     1
 10
252.15141878426
 20
112.790617832196
 30
0.0
 11
252.15141878426
 21
114.486475042085
 31
0.0
  0
LINE
  5
   4F1
  8
0
  6
CONTINUOUS
 62
     1
 10
254.426418745517
 20
60.6157997281117
 30
0.0
 11
254.426418745517
 21
116.965797433333
 31
0.0
  0
LINE
  5
   4F2
  8
0
  6
CONTINUOUS
 62
     1
 10
255.651418724656
 20
60.6157997281117
 30
0.0
 11
255.651418724656
 21
116.965797433333
 31
0.0
  0
LINE
  5
   4F3
  8
0
  6
CONTINUOUS
 62
     1
 10
254.426418745517
 20
112.588546455022
 30
0.0
 11
252.50141765948
 21
112.588546455022
 31
0.0
  0
LINE
  5
   4F4
  8
0
  6
CONTINUOUS
 62
     1
 10
254.426418745517
 20
114.688546419259
 30
0.0
 11
252.501419925085
 21
114.688546419259
 31
0.0
  0
LINE
  5
   4F5
  8
0
  6
CONTINUOUS
 62
     1
 10
252.501418773505
 20
112.588546455022
 30
0.0
 11
252.501418773505
 21
112.668473516649
 31
0.0
  0
LINE
  5
   4F6
  8
0
  6
CONTINUOUS
 62
     1
 10
252.501419052008
 20
112.58854565105
 30
0.0
 11
252.151419046444
 21
112.790617030758
 31
0.0
  0
LINE
  5
   4F7
  8
0
  6
CONTINUOUS
 62
     1
 10
252.501418773505
 20
112.668473516649
 30
0.0
 11
252.501418773505
 21
112.896083528642
 31
0.0
  0
LINE
  5
   4F8
  8
0
  6
CONTINUOUS
 62
     1
 10
252.501418773505
 20
112.896083528642
 30
0.0
 11
252.501418773505
 21
113.236732173964
 31
0.0
  0
LINE
  5
   4F9
  8
0
  6
CONTINUOUS
 62
     1
 10
252.501418773505
 20
113.236732173964
 30
0.0
 11
252.501418773505
 21
113.638546437141
 31
0.0
  0
LINE
  5
   4FA
  8
0
  6
CONTINUOUS
 62
     1
 10
252.501418773505
 20
113.638546437141
 30
0.0
 11
252.501418773505
 21
114.040366040893
 31
0.0
  0
LINE
  5
   4FB
  8
0
  6
CONTINUOUS
 62
     1
 10
252.501418773505
 20
114.040366040893
 30
0.0
 11
252.501418773505
 21
114.381009345639
 31
0.0
  0
LINE
  5
   4FC
  8
0
  6
CONTINUOUS
 62
     1
 10
252.501418773505
 20
114.381009345639
 30
0.0
 11
252.501418773505
 21
114.608619357632
 31
0.0
  0
LINE
  5
   4FD
  8
0
  6
CONTINUOUS
 62
     1
 10
252.501418773505
 20
114.608619357632
 30
0.0
 11
252.501418773505
 21
114.688546419259
 31
0.0
  0
LINE
  5
   4FE
  8
0
  6
CONTINUOUS
 62
     1
 10
252.151418480048
 20
114.486474208477
 30
0.0
 11
252.501418485612
 21
114.688545588184
 31
0.0
  0
LINE
  5
   4FF
  8
0
  6
CONTINUOUS
 62
     1
 10
254.426418745517
 20
64.9885486007892
 30
0.0
 11
252.501419475294
 21
64.9885486007892
 31
0.0
  0
LINE
  5
   500
  8
0
  6
CONTINUOUS
 62
     1
 10
254.426418745517
 20
62.888548636552
 30
0.0
 11
252.501418785165
 21
62.888548636552
 31
0.0
  0
LINE
  5
   501
  8
0
  6
CONTINUOUS
 62
     1
 10
252.501418785165
 20
64.908621539162
 30
0.0
 11
252.501418785165
 21
64.9885486007892
 31
0.0
  0
LINE
  5
   502
  8
0
  6
CONTINUOUS
 62
     1
 10
252.501418785157
 20
64.681010192025
 30
0.0
 11
252.501418785157
 21
64.908621539162
 31
0.0
  0
LINE
  5
   503
  8
0
  6
CONTINUOUS
 62
     1
 10
252.501418785166
 20
64.3403668872793
 30
0.0
 11
252.501418785166
 21
64.681010192025
 31
0.0
  0
LINE
  5
   504
  8
0
  6
CONTINUOUS
 62
     1
 10
252.501418785142
 20
63.9385486186706
 30
0.0
 11
252.501418785142
 21
64.3403668872793
 31
0.0
  0
LINE
  5
   505
  8
0
  6
CONTINUOUS
 62
     1
 10
252.501418785185
 20
63.5367316852058
 30
0.0
 11
252.501418785185
 21
63.9385486186706
 31
0.0
  0
LINE
  5
   506
  8
0
  6
CONTINUOUS
 62
     1
 10
252.501418785166
 20
63.1960870453161
 30
0.0
 11
252.501418785166
 21
63.5367316852058
 31
0.0
  0
LINE
  5
   507
  8
0
  6
CONTINUOUS
 62
     1
 10
252.501418785158
 20
62.888548636552
 30
0.0
 11
252.501418785158
 21
63.1960870453161
 31
0.0
  0
LINE
  5
   508
  8
0
  6
CONTINUOUS
 62
     1
 10
252.501418785165
 20
62.8885486365519
 30
0.0
 11
252.501418785165
 21
62.9684756981791
 31
0.0
  0
LINE
  5
   509
  8
0
  6
CONTINUOUS
 62
     7
 10
252.151418601508
 20
64.7864753983831
 30
0.0
 11
252.501418607073
 21
64.9885480995214
 31
0.0
  0
LINE
  5
   50A
  8
0
  6
CONTINUOUS
 62
     7
 10
252.501418930179
 20
62.8885482069273
 30
0.0
 11
252.151418924614
 21
63.0906209080656
 31
0.0
  0
LINE
  5
   50B
  8
0
  6
CONTINUOUS
 62
     7
 10
253.726418757438
 20
41.1425243168401
 30
0.0
 11
253.726418757438
 21
62.888548636552
 31
0.0
  0
LINE
  5
   50C
  8
0
  6
CONTINUOUS
 62
     7
 10
254.426418745517
 20
41.5721794819369
 30
0.0
 11
254.426418745517
 21
60.6157997281117
 31
0.0
  0
LINE
  5
   50D
  8
0
  6
CONTINUOUS
 62
     7
 10
254.426418745517
 20
114.863546416279
 30
0.0
 11
254.426418745517
 21
167.430431480312
 31
0.0
  0
LINE
  5
   50E
  8
0
  6
CONTINUOUS
 62
     7
 10
254.426418745517
 20
69.1885485292636
 30
0.0
 11
253.726418757438
 21
69.1885485292636
 31
0.0
  0
LINE
  5
   50F
  8
0
  6
CONTINUOUS
 62
     7
 10
254.426418745517
 20
108.388546526548
 30
0.0
 11
253.726418757438
 21
108.388546526548
 31
0.0
  0
LINE
  5
   510
  8
0
  6
CONTINUOUS
 62
     7
 10
254.426418745517
 20
114.863546416279
 30
0.0
 11
253.726418757438
 21
114.863546416279
 31
0.0
  0
LINE
  5
   511
  8
0
  6
CONTINUOUS
 62
     7
 10
254.426418745517
 20
112.413546458002
 30
0.0
 11
253.726418757438
 21
112.413546458002
 31
0.0
  0
LINE
  5
   512
  8
0
  6
CONTINUOUS
 62
     7
 10
254.426418745517
 20
65.1635485978089
 30
0.0
 11
253.726418757438
 21
65.1635485978089
 31
0.0
  0
LINE
  5
   513
  8
0
  6
CONTINUOUS
 62
     7
 10
254.426418745517
 20
62.7135486395322
 30
0.0
 11
253.726418757438
 21
62.7135486395322
 31
0.0
  0
LINE
  5
   514
  8
0
  6
CONTINUOUS
 62
     7
 10
253.726418757438
 20
64.9885486007892
 30
0.0
 11
253.726418757438
 21
112.588546455022
 31
0.0
  0
LINE
  5
   515
  8
0
  6
CONTINUOUS
 62
     7
 10
253.726418757438
 20
114.688546419259
 30
0.0
 11
253.726418757438
 21
167.052980506348
 31
0.0
  0
LINE
  5
   516
  8
0
  6
CONTINUOUS
 62
     7
 10
252.888592437139
 20
166.601211412069
 30
0.0
 11
255.446498853338
 21
167.980474675705
 31
0.0
  0
LINE
  5
   517
  8
0
  6
CONTINUOUS
 62
     7
 10
252.562584756644
 20
40.4281710335937
 30
0.0
 11
256.198824269866
 21
42.6600697692959
 31
0.0
  0
INSERT
  5
   518
  8
0
  6
CONTINUOUS
 62
     7
  2
*HATCH223
 10
252.326400756836
 20
50.2953300476074
 30
0.0
 41
0.349999994039536
 42
0.349999994039536
 50
89.9999999480344
 43
0.349999994039536
  0
INSERT
  5
   519
  8
0
  6
CONTINUOUS
 62
     7
  2
*HATCH224
 10
252.326400756836
 20
50.2953300476074
 30
0.0
 41
0.349999994039536
 42
0.349999994039536
 50
89.9999999480344
 43
0.349999994039536
  0
INSERT
  5
   51A
  8
0
  6
CONTINUOUS
 62
     7
  2
*HATCH225
 10
252.326400756836
 20
50.2953300476074
 30
0.0
 41
0.349999994039536
 42
0.349999994039536
 50
89.9999999480344
 43
0.349999994039536
  0
LINE
  5
   51B
  8
0
  6
CONTINUOUS
 62
     7
 10
252.151418924614
 20
63.0906209080656
 30
0.0
 11
252.151418601508
 21
64.7864753983831
 31
0.0
  0
LINE
  5
   51C
  8
0
  6
DASHDOT
 62
     7
 10
268.346621032739
 20
88.7908072057417
 30
0.0
 11
148.085357672904
 21
88.7908072057417
 31
0.0
  0
LINE
  5
   51D
  8
0
  6
CONTINUOUS
 62
     7
 10
225.026413748498
 20
51.4282779729722
 30
0.0
 11
225.026413748498
 21
57.2002234454173
 31
0.0
  0
LINE
  5
   51E
  8
0
  6
CONTINUOUS
 62
     1
 10
255.651418724656
 20
116.965797433333
 30
0.0
 11
254.426418745517
 21
116.965797433333
 31
0.0
  0
LINE
  5
   51F
  8
0
  6
CONTINUOUS
 62
     1
 10
255.651418724656
 20
60.6157997281117
 30
0.0
 11
254.426418745517
 21
60.6157997281117
 31
0.0
  0
LINE
  5
   520
  8
0
  6
CONTINUOUS
 62
     7
 10
218.376412016153
 20
123.703278626579
 30
0.0
 11
216.976412039995
 21
123.703278626579
 31
0.0
  0
LINE
  5
   521
  8
0
  6
CONTINUOUS
 62
   130
 10
242.176422291976
 20
156.498294015954
 30
0.0
 11
242.176422291976
 21
161.503298684682
 31
0.0
  0
LINE
  5
   522
  8
0
  6
CONTINUOUS
 62
   130
 10
242.176422291976
 20
131.753294511217
 30
0.0
 11
242.176422291976
 21
133.048385205099
 31
0.0
  0
LINE
  5
   523
  8
0
  6
CONTINUOUS
 62
   130
 10
216.976422721129
 20
131.753294511217
 30
0.0
 11
216.976422721129
 21
154.853294451612
 31
0.0
  0
LINE
  5
   524
  8
0
  6
CONTINUOUS
 62
   130
 10
240.986421778184
 20
154.048294057677
 30
0.0
 11
240.951422312837
 21
154.048294057677
 31
0.0
  0
LINE
  5
   525
  8
0
  6
CONTINUOUS
 62
   130
 10
242.176422291976
 20
156.498294015954
 30
0.0
 11
240.951422312837
 21
156.498294015954
 31
0.0
  0
LINE
  5
   526
  8
0
  6
CONTINUOUS
 62
   130
 10
242.176422291976
 20
133.048326458762
 30
0.0
 11
240.951422312837
 21
133.048326458762
 31
0.0
  0
LINE
  5
   527
  8
0
  6
CONTINUOUS
 62
   130
 10
240.986421778184
 20
135.498326417038
 30
0.0
 11
240.951422312837
 21
135.498326417038
 31
0.0
  0
LINE
  5
   528
  8
0
  6
CONTINUOUS
 62
   130
 10
240.951422312837
 20
133.048326458762
 30
0.0
 11
240.951422312837
 21
156.498294015954
 31
0.0
  0
LINE
  5
   529
  8
0
  6
CONTINUOUS
 62
   210
 10
249.946421091538
 20
161.293292866181
 30
0.0
 11
242.332717349461
 21
161.293292866181
 31
0.0
  0
LINE
  5
   52A
  8
0
  6
CONTINUOUS
 62
   210
 10
242.176422291976
 20
133.048326458762
 30
0.0
 11
242.176422291976
 21
133.135794413815
 31
0.0
  0
LINE
  5
   52B
  8
0
  6
CONTINUOUS
 62
   210
 10
242.176422291976
 20
156.410794017444
 30
0.0
 11
242.176422291976
 21
156.498294015954
 31
0.0
  0
LINE
  5
   52C
  8
0
  6
CONTINUOUS
 62
   210
 10
250.051422157865
 20
135.585794372092
 30
0.0
 11
249.946421091538
 21
135.585794372092
 31
0.0
  0
LINE
  5
   52D
  8
0
  6
CONTINUOUS
 62
   210
 10
250.051422157865
 20
132.960794416795
 30
0.0
 11
249.946421091538
 21
132.960794416795
 31
0.0
  0
LINE
  5
   52E
  8
0
  6
CONTINUOUS
 62
   210
 10
250.051422157865
 20
132.523294424246
 30
0.0
 11
249.946421091538
 21
132.523294424246
 31
0.0
  0
LINE
  5
   52F
  8
0
  6
CONTINUOUS
 62
   210
 10
249.946421091538
 20
132.628294496315
 30
0.0
 11
249.946421091538
 21
161.293292866181
 31
0.0
  0
LINE
  5
   530
  8
0
  6
CONTINUOUS
 62
   210
 10
242.176422291976
 20
133.135794413815
 30
0.0
 11
241.161421775203
 21
133.135794413815
 31
0.0
  0
LINE
  5
   531
  8
0
  6
CONTINUOUS
 62
   210
 10
241.161422398887
 20
133.135795932998
 30
0.0
 11
241.037678578423
 21
133.187054782488
 31
0.0
  0
LINE
  5
   532
  8
0
  6
CONTINUOUS
 62
   210
 10
241.037677599985
 20
133.187048019853
 30
0.0
 11
240.986421420973
 21
133.310789164505
 31
0.0
  0
LINE
  5
   533
  8
0
  6
CONTINUOUS
 62
   210
 10
240.986421778184
 20
133.310794410835
 30
0.0
 11
240.986421778184
 21
135.235794378052
 31
0.0
  0
LINE
  5
   534
  8
0
  6
CONTINUOUS
 62
   210
 10
240.986421778184
 20
154.310794053207
 30
0.0
 11
240.986421778184
 21
156.235794020424
 31
0.0
  0
LINE
  5
   535
  8
0
  6
CONTINUOUS
 62
   210
 10
240.986418831684
 20
156.235785710558
 30
0.0
 11
241.037675010697
 21
156.35952685521
 31
0.0
  0
LINE
  5
   536
  8
0
  6
CONTINUOUS
 62
   210
 10
241.03767985858
 20
156.359537799761
 30
0.0
 11
241.161423679044
 21
156.410796649251
 31
0.0
  0
LINE
  5
   537
  8
0
  6
CONTINUOUS
 62
   210
 10
242.176422291976
 20
156.410794017444
 30
0.0
 11
241.161421775203
 21
156.410794017444
 31
0.0
  0
LINE
  5
   538
  8
0
  6
CONTINUOUS
 62
   210
 10
240.986421778184
 20
135.235794378052
 30
0.0
 11
240.986421778184
 21
154.310794053207
 31
0.0
  0
LINE
  5
   539
  8
0
  6
CONTINUOUS
 62
     7
 10
250.051422157865
 20
124.228294565509
 30
0.0
 11
250.051422157865
 21
153.80329406185
 31
0.0
  0
LINE
  5
   53A
  8
0
  6
CONTINUOUS
 62
     2
 10
251.801422128063
 20
124.578294559548
 30
0.0
 11
251.801422128063
 21
149.078294142316
 31
0.0
  0
LINE
  5
   53B
  8
0
  6
CONTINUOUS
 62
     2
 10
251.801422128063
 20
149.428294136355
 30
0.0
 11
251.801422128063
 21
153.80329406185
 31
0.0
  0
LINE
  5
   53C
  8
0
  6
CONTINUOUS
 62
     7
 10
251.451422134023
 20
153.80329406185
 30
0.0
 11
250.051422157865
 21
153.80329406185
 31
0.0
  0
LINE
  5
   53D
  8
0
  6
CONTINUOUS
 62
     2
 10
251.451422134023
 20
124.228294565509
 30
0.0
 11
250.75141146481
 21
124.228294565509
 31
0.0
  0
LINE
  5
   53E
  8
0
  6
CONTINUOUS
 62
     2
 10
251.801422128063
 20
149.428294136355
 30
0.0
 11
251.451422134023
 21
149.428294136355
 31
0.0
  0
LINE
  5
   53F
  8
0
  6
CONTINUOUS
 62
     2
 10
251.801422128063
 20
149.078294142316
 30
0.0
 11
251.451422134023
 21
149.078294142316
 31
0.0
  0
LINE
  5
   540
  8
0
  6
CONTINUOUS
 62
     2
 10
251.451422134023
 20
149.078294142316
 30
0.0
 11
251.451422134023
 21
149.428294136355
 31
0.0
  0
LINE
  5
   541
  8
0
  6
CONTINUOUS
 62
     2
 10
251.451422134023
 20
124.228294565509
 30
0.0
 11
251.451422134023
 21
124.578294559548
 31
0.0
  0
LINE
  5
   542
  8
0
  6
CONTINUOUS
 62
     7
 10
251.451422134023
 20
124.578294559548
 30
0.0
 11
250.226422154885
 21
124.578294559548
 31
0.0
  0
LINE
  5
   543
  8
0
  6
CONTINUOUS
 62
     7
 10
250.226422154885
 20
124.578294559548
 30
0.0
 11
250.226422154885
 21
153.80329406185
 31
0.0
  0
LINE
  5
   544
  8
0
  6
CONTINUOUS
 62
   210
 10
250.051418710849
 20
136.589607806598
 30
0.0
 11
249.946420313732
 21
136.635793109376
 31
0.0
  0
LINE
  5
   545
  8
0
  6
CONTINUOUS
 62
     7
 10
249.946422532022
 20
152.910795737139
 30
0.0
 11
250.051423600941
 21
152.956981038114
 31
0.0
  0
LINE
  5
   546
  8
0
  6
CONTINUOUS
 62
     2
 10
251.801422128063
 20
124.578294559548
 30
0.0
 11
251.451422134023
 21
124.578294559548
 31
0.0
  0
LINE
  5
   547
  8
0
  6
CONTINUOUS
 62
     2
 10
251.801422128063
 20
153.80329406185
 30
0.0
 11
251.451422134023
 21
153.80329406185
 31
0.0
  0
LINE
  5
   548
  8
0
  6
CONTINUOUS
 62
   130
 10
250.051422157865
 20
131.753294511217
 30
0.0
 11
216.976422721129
 21
131.753294511217
 31
0.0
  0
INSERT
  5
   549
  8
0
  6
CONTINUOUS
 62
     7
  2
*HATCH226
 10
252.326400756836
 20
50.2953300476074
 30
0.0
 41
0.349999994039536
 42
0.349999994039536
 50
89.9999999480344
 43
0.349999994039536
  0
LINE
  5
   54A
  8
0
  6
CONTINUOUS
 62
     7
 10
250.75141146481
 20
124.228294565509
 30
0.0
 11
250.051422157865
 21
124.228294565509
 31
0.0
  0
LINE
  5
   54B
  8
0
  6
CONTINUOUS
 62
   218
 10
216.276422732911
 20
55.628313111418
 30
0.0
 11
216.97642238727
 21
55.628318451994
 31
0.0
  0
LINE
  5
   54C
  8
0
  6
CONTINUOUS
 62
   218
 10
216.976422387361
 20
42.8533007052792
 30
0.0
 11
216.976422387361
 21
47.2283138568397
 31
0.0
  0
LINE
  5
   54D
  8
0
  6
CONTINUOUS
 62
     7
 10
225.02641441607
 20
46.5282959625897
 30
0.0
 11
223.276414445872
 21
46.5282959625897
 31
0.0
  0
LINE
  5
   54E
  8
0
  6
CONTINUOUS
 62
     7
 10
223.276414445872
 20
46.5282959625897
 30
0.0
 11
223.276414445872
 21
57.2002234454173
 31
0.0
  0
LINE
  5
   54F
  8
0
  6
CONTINUOUS
 62
     7
 10
225.026413748498
 20
51.4282779729722
 30
0.0
 11
223.276414445872
 21
51.4282779729722
 31
0.0
  0
LINE
  5
   550
  8
0
  6
CONTINUOUS
 62
     7
 10
225.026413748498
 20
48.628278020656
 30
0.0
 11
223.276414445872
 21
48.628278020656
 31
0.0
  0
LINE
  5
   551
  8
0
  6
CONTINUOUS
 62
     7
 10
225.026413748498
 20
51.4283137853142
 30
0.0
 11
225.026413748498
 21
57.2002234454173
 31
0.0
  0
LINE
  5
   552
  8
0
  6
CONTINUOUS
 62
     7
 10
230.578553472419
 20
57.2002234454173
 30
0.0
 11
213.088423695233
 21
57.2002234454173
 31
0.0
  0
INSERT
  5
   553
  8
0
  6
CONTINUOUS
 62
     7
  2
*HATCH227
 10
252.326400756836
 20
50.2953300476074
 30
0.0
 41
0.349999994039536
 42
0.349999994039536
 50
89.9999999480344
 43
0.349999994039536
  0
INSERT
  5
   554
  8
0
  6
CONTINUOUS
 62
     7
  2
*HATCH228
 10
252.326400756836
 20
50.2953300476074
 30
0.0
 41
0.349999994039536
 42
0.349999994039536
 50
89.9999999480344
 43
0.349999994039536
  0
LINE
  5
   555
  8
0
  6
CONTINUOUS
 62
     7
 10
223.276414445872
 20
55.2782779074071
 30
0.0
 11
216.976422387361
 21
55.2782779074071
 31
0.0
  0
LINE
  5
   556
  8
0
  6
CONTINUOUS
 62
     7
 10
223.276414445872
 20
56.6782778835653
 30
0.0
 11
216.276422733068
 21
56.6782778835653
 31
0.0
  0
LINE
  5
   557
  8
0
  6
CONTINUOUS
 62
     7
 10
230.767390467378
 20
53.878277931249
 30
0.0
 11
225.026413748498
 21
53.878277931249
 31
0.0
  0
INSERT
  5
   558
  8
0
  6
CONTINUOUS
 62
     7
  2
*HATCH229
 10
252.326400756836
 20
50.2953300476074
 30
0.0
 41
0.349999994039536
 42
0.349999994039536
 50
89.9999999480344
 43
0.349999994039536
  0
LINE
  5
   559
  8
0
  6
CONTINUOUS
 62
     7
 10
230.382830330301
 20
55.2782779074071
 30
0.0
 11
225.026413748498
 21
55.2782779074071
 31
0.0
  0
INSERT
  5
   55A
  8
0
  6
CONTINUOUS
 62
     7
  2
*HATCH230
 10
252.326400756836
 20
50.2953300476074
 30
0.0
 41
0.349999994039536
 42
0.349999994039536
 50
89.9999999480344
 43
0.349999994039536
  0
LINE
  5
   55B
  8
0
  6
CONTINUOUS
 62
     7
 10
225.02641441607
 20
46.5282959625897
 30
0.0
 11
225.02641441607
 21
48.6283138329979
 31
0.0
  0
LINE
  5
   55C
  8
0
  6
CONTINUOUS
 62
     7
 10
229.395651867408
 20
153.803294469493
 30
0.0
 11
225.026422584039
 21
153.803294469493
 31
0.0
  0
LINE
  5
   55D
  8
0
  6
CONTINUOUS
 62
     7
 10
225.026422584039
 20
160.803294350284
 30
0.0
 11
223.276422613841
 21
160.803294350284
 31
0.0
  0
LINE
  5
   55E
  8
0
  6
CONTINUOUS
 62
     7
 10
223.276422613841
 20
153.543734907994
 30
0.0
 11
223.276422613841
 21
156.183294428962
 31
0.0
  0
LINE
  5
   55F
  8
0
  6
CONTINUOUS
 62
     7
 10
225.026422584039
 20
159.123294378894
 30
0.0
 11
223.276422613841
 21
159.123294378894
 31
0.0
  0
LINE
  5
   560
  8
0
  6
CONTINUOUS
 62
     7
 10
225.026422584039
 20
156.183294428962
 30
0.0
 11
223.276422613841
 21
156.183294428962
 31
0.0
  0
LINE
  5
   561
  8
0
  6
CONTINUOUS
 62
     3
 10
239.475776444036
 20
154.687189393727
 30
0.0
 11
239.948696479792
 21
163.446490925566
 31
0.0
  0
LINE
  5
   562
  8
0
  6
CONTINUOUS
 62
     3
 10
229.395651867408
 20
153.543734907994
 30
0.0
 11
216.741600795746
 21
153.543734907994
 31
0.0
  0
LINE
  5
   563
  8
0
  6
CONTINUOUS
 62
     3
 10
229.395651867408
 20
153.543734907994
 30
0.0
 11
229.395651867408
 21
154.687189393727
 31
0.0
  0
LINE
  5
   564
  8
0
  6
CONTINUOUS
 62
     2
 10
225.026422584039
 20
153.543734907994
 30
0.0
 11
225.026422584039
 21
156.183294428962
 31
0.0
  0
LINE
  5
   565
  8
0
  6
CONTINUOUS
 62
     7
 10
223.276422613841
 20
159.123294378894
 30
0.0
 11
223.276422613841
 21
160.803294350284
 31
0.0
  0
LINE
  5
   566
  8
0
  6
CONTINUOUS
 62
     3
 10
239.475776444036
 20
154.687189393727
 30
0.0
 11
229.395651867408
 21
154.687189393727
 31
0.0
  0
INSERT
  5
   567
  8
0
  6
CONTINUOUS
 62
     7
  2
*HATCH231
 10
252.326400756836
 20
50.2953300476074
 30
0.0
 41
0.349999994039536
 42
0.349999994039536
 50
89.9999999480344
 43
0.349999994039536
  0
LINE
  5
   568
  8
0
  6
CONTINUOUS
 62
   130
 10
242.176422291976
 20
161.293297546285
 30
0.0
 11
239.832444255089
 21
161.293297546285
 31
0.0
  0
LINE
  5
   569
  8
0
  6
CONTINUOUS
 62
   130
 10
240.986421778184
 20
154.048298737782
 30
0.0
 11
240.951422312837
 21
154.048298737782
 31
0.0
  0
LINE
  5
   56A
  8
0
  6
CONTINUOUS
 62
   210
 10
242.176422291976
 20
156.410798697549
 30
0.0
 11
242.176422291976
 21
156.498298696059
 31
0.0
  0
LINE
  5
   56B
  8
0
  6
CONTINUOUS
 62
   210
 10
240.986418831684
 20
156.235790390663
 30
0.0
 11
241.037675010697
 21
156.359531535315
 31
0.0
  0
LINE
  5
   56C
  8
0
  6
CONTINUOUS
 62
   210
 10
241.03767985858
 20
156.359542479866
 30
0.0
 11
241.161423679044
 21
156.410801329356
 31
0.0
  0
LINE
  5
   56D
  8
0
  6
CONTINUOUS
 62
     7
 10
251.801422128063
 20
154.153298735994
 30
0.0
 11
251.801422128063
 21
162.81579866233
 31
0.0
  0
ARC
  5
   56E
  8
0
  6
CONTINUOUS
 62
     7
 10
251.363922135514
 20
162.81579866233
 30
0.0
 40
0.437499992549419
 50
359.999999948034
 51
449.999999948034
  0
LINE
  5
   56F
  8
0
  6
CONTINUOUS
 62
     7
 10
250.051422157865
 20
153.803298741954
 30
0.0
 11
250.051422157865
 21
161.503298684682
 31
0.0
  0
LINE
  5
   570
  8
0
  6
CONTINUOUS
 62
     7
 10
250.051422157865
 20
161.503298684682
 30
0.0
 11
239.843782344721
 21
161.503298684682
 31
0.0
  0
LINE
  5
   571
  8
0
  6
CONTINUOUS
 62
     7
 10
250.226422154885
 20
161.678298681701
 30
0.0
 11
239.853230701368
 21
161.678298681701
 31
0.0
  0
LINE
  5
   572
  8
0
  6
CONTINUOUS
 62
     7
 10
250.226422154885
 20
154.153298735994
 30
0.0
 11
250.226422154885
 21
161.678298681701
 31
0.0
  0
LINE
  5
   573
  8
0
  6
CONTINUOUS
 62
     7
 10
251.451422134023
 20
154.153298735994
 30
0.0
 11
250.226422154885
 21
154.153298735994
 31
0.0
  0
LINE
  5
   574
  8
0
  6
CONTINUOUS
 62
     7
 10
251.451422134023
 20
153.805483757157
 30
0.0
 11
251.451422134023
 21
154.153298735994
 31
0.0
  0
LINE
  5
   575
  8
0
  6
CONTINUOUS
 62
     7
 10
251.363922135514
 20
163.253298654879
 30
0.0
 11
216.976422721129
 21
163.253298654879
 31
0.0
  0
LINE
  5
   576
  8
0
  6
CONTINUOUS
 62
     7
 10
239.891024127954
 20
162.378298669781
 30
0.0
 11
216.976422721129
 21
162.378298669781
 31
0.0
  0
LINE
  5
   577
  8
0
  6
CONTINUOUS
 62
     7
 10
251.801422128063
 20
154.153298735994
 30
0.0
 11
251.451422134023
 21
154.153298735994
 31
0.0
  0
LINE
  5
   578
  8
0
  6
CONTINUOUS
 62
     7
 10
220.231938789562
 20
41.1406123853838
 30
0.0
 11
210.534285766014
 21
41.4399226638883
 31
0.0
  0
LINE
  5
   579
  8
0
  6
CONTINUOUS
 62
     7
 10
225.026422584039
 20
159.123294378894
 30
0.0
 11
225.026422584039
 21
160.803294350284
 31
0.0
  0
INSERT
  5
   57A
  8
0
  6
CONTINUOUS
 62
     7
  2
*HATCH232
 10
252.326400756836
 20
50.2953300476074
 30
0.0
 41
0.349999994039536
 42
0.349999994039536
 50
89.9999999480344
 43
0.349999994039536
  0
INSERT
  5
   57B
  8
0
  6
CONTINUOUS
 62
     7
  2
*HATCH233
 10
252.326400756836
 20
50.2953300476074
 30
0.0
 41
0.349999994039536
 42
0.349999994039536
 50
89.9999999480344
 43
0.349999994039536
  0
INSERT
  5
   57C
  8
0
  6
CONTINUOUS
 62
     7
  2
*HATCH234
 10
252.326400756836
 20
50.2953300476074
 30
0.0
 41
0.349999994039536
 42
0.349999994039536
 50
89.9999999480344
 43
0.349999994039536
  0
LINE
  5
   57D
  8
0
  6
CONTINUOUS
 62
     7
 10
233.555445257061
 20
43.728300690378
 30
0.0
 11
216.976422721129
 21
43.728300690378
 31
0.0
  0
LINE
  5
   57E
  8
0
  6
CONTINUOUS
 62
     7
 10
251.363922135514
 20
42.8533007052792
 30
0.0
 11
216.976422721129
 21
42.8533007052792
 31
0.0
  0
LINE
  5
   57F
  8
0
  6
CONTINUOUS
 62
   210
 10
249.946421091538
 20
44.8133064939781
 30
0.0
 11
233.257409551584
 21
44.8133064939781
 31
0.0
  0
LINE
  5
   580
  8
0
  6
CONTINUOUS
 62
     7
 10
250.051422157865
 20
44.6033006754769
 30
0.0
 11
233.315095171388
 21
44.6033006754769
 31
0.0
  0
LINE
  5
   581
  8
0
  6
CONTINUOUS
 62
     7
 10
250.226422154885
 20
44.4283006784571
 30
0.0
 11
233.363165188522
 21
44.4283006784571
 31
0.0
  0
ARC
  5
   582
  8
0
  6
CONTINUOUS
 62
     7
 10
251.363922135514
 20
43.2908006978286
 30
0.0
 40
0.437499992549419
 50
269.999999948034
 51
359.999999948034
  0
LINE
  5
   583
  8
0
  6
CONTINUOUS
 62
     7
 10
251.801422128063
 20
43.2908006978286
 30
0.0
 11
251.801422128063
 21
51.9533006241648
 31
0.0
  0
LINE
  5
   584
  8
0
  6
CONTINUOUS
 62
     7
 10
250.226422154885
 20
44.4283006784571
 30
0.0
 11
250.226422154885
 21
51.9533006241648
 31
0.0
  0
LINE
  5
   585
  8
0
  6
CONTINUOUS
 62
     7
 10
250.051422157865
 20
44.6033006754769
 30
0.0
 11
250.051422157865
 21
52.3033006182044
 31
0.0
  0
LINE
  5
   586
  8
0
  6
CONTINUOUS
 62
   210
 10
249.946421091538
 20
44.8133064939781
 30
0.0
 11
249.946421091538
 21
73.4783048638431
 31
0.0
  0
LINE
  5
   587
  8
0
  6
CONTINUOUS
 62
     7
 10
251.801422128063
 20
51.9533006241648
 30
0.0
 11
251.451422134023
 21
51.9533006241648
 31
0.0
  0
LINE
  5
   588
  8
0
  6
CONTINUOUS
 62
     7
 10
251.451422134023
 20
51.9533006241648
 30
0.0
 11
251.451422134023
 21
52.3011156030016
 31
0.0
  0
LINE
  5
   589
  8
0
  6
CONTINUOUS
 62
     7
 10
251.451422134023
 20
52.3033052983089
 30
0.0
 11
250.051422157865
 21
52.3033052983089
 31
0.0
  0
LINE
  5
   58A
  8
0
  6
CONTINUOUS
 62
     7
 10
251.451422134023
 20
51.9533006241648
 30
0.0
 11
250.226422154885
 21
51.9533006241648
 31
0.0
  0
INSERT
  5
   58B
  8
0
  6
CONTINUOUS
 62
     7
  2
*HATCH235
 10
252.326400756836
 20
50.2953300476074
 30
0.0
 41
0.349999994039536
 42
0.349999994039536
 50
89.9999999480344
 43
0.349999994039536
  0
INSERT
  5
   58C
  8
255
  6
CONTINUOUS
 62
     7
  2
TERM_POST_
 10
216.976422053557
 20
128.253294904607
 30
0.0
 41
0.349999994039536
 42
0.349999994039536
 50
3.50835464724173E-15
 43
0.349999994039536
  0
INSERT
  5
   58D
  8
255
  6
CONTINUOUS
 62
     7
  2
TERM_POST_
 10
216.976413885588
 20
20.6283143098351
 30
0.0
 41
0.349999994039536
 42
0.349999994039536
 50
3.50835464724173E-15
 43
0.349999994039536
  0
LINE
  5
   58E
  8
0
  6
DASHDOT
 62
     7
 10
216.276422733068
 20
54.2283137376305
 30
0.0
 11
215.22642275095
 21
54.2283137376305
 31
0.0
  0
LINE
  5
   58F
  8
0
  6
DASHDOT
 62
     7
 10
216.276422733068
 20
45.8283138806816
 30
0.0
 11
215.22642275095
 21
45.8283138806816
 31
0.0
  0
LINE
  5
   590
  8
0
  6
DASHDOT
 62
     7
 10
216.276422733068
 20
52.8283137614723
 30
0.0
 11
216.276422733068
 21
154.853294451612
 31
0.0
  0
LINE
  5
   591
  8
0
  6
CONTINUOUS
 62
   218
 10
216.976422387361
 20
52.8283137614723
 30
0.0
 11
216.976422387361
 21
55.6283131110718
 31
0.0
  0
LINE
  5
   592
  8
0
  6
DASHDOT
 62
     7
 10
215.22642275095
 20
52.8283137614723
 30
0.0
 11
215.22642275095
 21
154.853294451612
 31
0.0
  0
LINE
  5
   593
  8
0
  6
DASHDOT
 62
     7
 10
216.276422733068
 20
161.853294332403
 30
0.0
 11
215.22642275095
 21
161.853294332403
 31
0.0
  0
LINE
  5
   594
  8
0
  6
DASHDOT
 62
     7
 10
216.276422733068
 20
153.453294475454
 30
0.0
 11
215.22642275095
 21
153.453294475454
 31
0.0
  0
LINE
  5
   595
  8
0
  6
CONTINUOUS
 62
   130
 10
216.976422721129
 20
160.453294356245
 30
0.0
 11
216.976422721129
 21
163.253293974775
 31
0.0
  0
LINE
  5
   596
  8
0
  6
DASHDOT
 62
     7
 10
216.276422733068
 20
160.453294356245
 30
0.0
 11
216.276422733068
 21
168.367567493699
 31
0.0
  0
LINE
  5
   597
  8
0
  6
DASHDOT
 62
     7
 10
215.22642275095
 20
160.453294356245
 30
0.0
 11
215.22642275095
 21
168.367567493699
 31
0.0
  0
INSERT
  5
   598
  8
0
  6
CONTINUOUS
 62
     7
  2
*UDIM721
 10
0.0
 20
0.0
 30
0.0
  0
INSERT
  5
   599
  8
0
  6
CONTINUOUS
 62
     7
  2
*UDIM722
 10
0.0
 20
0.0
 30
0.0
  0
INSERT
  5
   59A
  8
0
  6
CONTINUOUS
 62
     7
  2
*UDIM723
 10
0.0
 20
0.0
 30
0.0
  0
INSERT
  5
   59B
  8
0
  6
CONTINUOUS
 62
     7
  2
*UDIM724
 10
0.0
 20
0.0
 30
0.0
  0
INSERT
  5
   59C
  8
0
  6
CONTINUOUS
 62
     7
  2
*UDIM725
 10
0.0
 20
0.0
 30
0.0
  0
INSERT
  5
   59D
  8
0
  6
CONTINUOUS
 62
     7
  2
*UDIM726
 10
0.0
 20
0.0
 30
0.0
  0
INSERT
  5
   59E
  8
0
  6
CONTINUOUS
 62
     7
  2
*UDIM727
 10
0.0
 20
0.0
 30
0.0
  0
INSERT
  5
   59F
  8
0
  6
CONTINUOUS
 62
     7
  2
*UDIM728
 10
0.0
 20
0.0
 30
0.0
  0
INSERT
  5
   5A0
  8
0
  6
CONTINUOUS
 62
     7
  2
*UDIM729
 10
0.0
 20
0.0
 30
0.0
  0
INSERT
  5
   5A1
  8
0
  6
CONTINUOUS
 62
     7
  2
*UDIM730
 10
0.0
 20
0.0
 30
0.0
  0
INSERT
  5
   5A2
  8
0
  6
CONTINUOUS
 62
     7
  2
*UDIM731
 10
0.0
 20
0.0
 30
0.0
  0
INSERT
  5
   5A3
  8
0
  6
CONTINUOUS
 62
     7
  2
*UDIM732
 10
0.0
 20
0.0
 30
0.0
  0
TEXT
  5
   5A4
  8
0
  6
CONTINUOUS
 62
     7
 10
280.174106131335
 20
81.1888284827921
 30
0.0
 40
2.99999997871263
  1
=    =
 50
89.9999999480344
 41
0.916666703091727
 72
     1
 11
278.674106149202
 21
89.1638287494268
 31
0.0
 73
     2
  0
TEXT
  5
   5A5
  8
0
  6
CONTINUOUS
 62
     7
 10
282.29487600096
 20
87.3810998389537
 30
0.0
 40
2.99999997871263
  1
X
 50
359.999999948034
 41
0.91666663951344
 72
     1
 11
283.394875970169
 21
88.8810998273179
 31
0.0
 73
     2
  0
LINE
  5
   5A6
  8
0
  6
CONTINUOUS
 62
     7
 10
84.9198971942435
 20
70.415807762819
 30
0.0
 11
81.4198972538482
 21
70.415807762819
 31
0.0
  0
LINE
  5
   5A7
  8
0
  6
CONTINUOUS
 62
     7
 10
76.1698973432552
 20
106.465796467739
 30
0.0
 11
76.1698973432552
 21
107.165796455818
 31
0.0
  0
LINE
  5
   5A8
  8
0
  6
CONTINUOUS
 62
     7
 10
81.4198972538482
 20
70.415807762819
 30
0.0
 11
76.1698973432552
 21
70.415807762819
 31
0.0
  0
LINE
  5
   5A9
  8
0
  6
CONTINUOUS
 62
     7
 10
94.5448863491786
 20
70.415807762819
 30
0.0
 11
84.9198971942435
 21
70.415807762819
 31
0.0
  0
LINE
  5
   5AA
  8
0
  6
CONTINUOUS
 62
    52
 10
107.669875444509
 20
70.415807762819
 30
0.0
 11
104.169875504114
 21
70.415807762819
 31
0.0
  0
LINE
  5
   5AB
  8
0
  6
CONTINUOUS
 62
    52
 10
112.919875355102
 20
70.415807762819
 30
0.0
 11
107.669875444509
 21
70.415807762819
 31
0.0
  0
LINE
  5
   5AC
  8
0
  6
CONTINUOUS
 62
    52
 10
104.169875504114
 20
70.415807762819
 30
0.0
 11
94.5448863491786
 21
70.415807762819
 31
0.0
  0
LINE
  5
   5AD
  8
0
  6
DASHDOT
 62
     3
 10
90.4323928392643
 20
70.5033137354564
 30
0.0
 11
86.4074017526575
 21
70.5033137354564
 31
0.0
  0
LINE
  5
   5AE
  8
0
  6
DASHDOT
 62
     3
 10
102.682534791374
 20
70.5031589493507
 30
0.0
 11
98.6572845558282
 21
70.5031589493507
 31
0.0
  0
LINE
  5
   5AF
  8
0
  6
CONTINUOUS
 62
     7
 10
84.9198918536675
 20
70.415807762819
 30
0.0
 11
81.4198972538482
 21
70.415807762819
 31
0.0
  0
LINE
  5
   5B0
  8
0
  6
CONTINUOUS
 62
     7
 10
107.669886125661
 20
70.415807762819
 30
0.0
 11
104.169886185266
 21
70.415807762819
 31
0.0
  0
LINE
  5
   5B1
  8
0
  6
CONTINUOUS
 62
     7
 10
112.919896717406
 20
70.5908077598388
 30
0.0
 11
112.919896717406
 21
76.8908023119743
 31
0.0
  0
LINE
  5
   5B2
  8
0
  6
CONTINUOUS
 62
     7
 10
76.1698973432551
 20
70.415807762819
 30
0.0
 11
76.1698973432551
 21
76.8908023119743
 31
0.0
  0
LINE
  5
   5B3
  8
0
  6
CONTINUOUS
 62
     7
 10
112.91989137683
 20
107.16580713697
 30
0.0
 11
76.1698973432649
 21
107.16580713697
 31
0.0
  0
LINE
  5
   5B4
  8
0
  6
CONTINUOUS
 62
     7
 10
81.4198972538482
 20
70.415807762819
 30
0.0
 11
76.1698973432551
 21
70.415807762819
 31
0.0
  0
LINE
  5
   5B5
  8
0
  6
CONTINUOUS
 62
     7
 10
104.169886185266
 20
70.415807762819
 30
0.0
 11
84.9198918536675
 21
70.415807762819
 31
0.0
  0
LINE
  5
   5B6
  8
0
  6
CONTINUOUS
 62
     7
 10
112.744896720387
 20
70.415807762819
 30
0.0
 11
107.669886125661
 21
70.415807762819
 31
0.0
  0
LINE
  5
   5B7
  8
0
  6
CONTINUOUS
 62
     7
 10
98.3073969662558
 20
78.2033022896226
 30
0.0
 11
98.3073969662558
 21
92.2032967106279
 31
0.0
  0
LINE
  5
   5B8
  8
0
  6
CONTINUOUS
 62
     7
 10
90.7823970944058
 20
78.2033022896226
 30
0.0
 11
90.7823970944058
 21
92.2032967106279
 31
0.0
  0
LINE
  5
   5B9
  8
0
  6
CONTINUOUS
 62
     7
 10
112.919896717406
 20
102.965796527344
 30
0.0
 11
76.1698973432551
 21
102.965796527344
 31
0.0
  0
LINE
  5
   5BA
  8
0
  6
CONTINUOUS
 62
     7
 10
112.919896717406
 20
106.465796467739
 30
0.0
 11
76.1698973432551
 21
106.465796467739
 31
0.0
  0
LINE
  5
   5BB
  8
0
  6
CONTINUOUS
 62
     7
 10
98.3073969662558
 20
92.1107338459933
 30
0.0
 11
90.7823970944058
 21
92.1107338459933
 31
0.0
  0
LINE
  5
   5BC
  8
0
  6
CONTINUOUS
 62
     7
 10
98.3073969662558
 20
92.2032967106279
 30
0.0
 11
90.7823970944058
 21
92.2032967106279
 31
0.0
  0
LINE
  5
   5BD
  8
0
  6
CONTINUOUS
 62
     7
 10
98.3073969662558
 20
78.2033022896226
 30
0.0
 11
90.7823970944058
 21
78.2033022896226
 31
0.0
  0
LINE
  5
   5BE
  8
0
  6
CONTINUOUS
 62
     7
 10
98.3073969662558
 20
78.2958758354093
 30
0.0
 11
90.7823970944058
 21
78.2958758354093
 31
0.0
  0
LINE
  5
   5BF
  8
0
  6
DASHDOT
 62
     7
 10
94.5448970303308
 20
39.743296729628
 30
0.0
 11
94.5448970303308
 21
165.161359056334
 31
0.0
  0
LINE
  5
   5C0
  8
0
  6
CONTINUOUS
 62
     7
 10
112.91989137683
 20
77.2408023060138
 30
0.0
 11
112.91989137683
 21
81.4407994508549
 31
0.0
  0
LINE
  5
   5C1
  8
0
  6
CONTINUOUS
 62
     7
 10
112.91989137683
 20
93.5158020288523
 30
0.0
 11
112.91989137683
 21
107.16580713697
 31
0.0
  0
LINE
  5
   5C2
  8
0
  6
CONTINUOUS
 62
     7
 10
112.91989137683
 20
81.7907994448944
 30
0.0
 11
112.91989137683
 21
88.6158021122988
 31
0.0
  0
LINE
  5
   5C3
  8
0
  6
CONTINUOUS
 62
     7
 10
112.91989137683
 20
88.9658021063383
 30
0.0
 11
112.91989137683
 21
93.1658020348127
 31
0.0
  0
LINE
  5
   5C4
  8
0
  6
CONTINUOUS
 62
     7
 10
76.1698973432534
 20
77.2408023060138
 30
0.0
 11
76.1698973432534
 21
81.440802234489
 31
0.0
  0
LINE
  5
   5C5
  8
0
  6
CONTINUOUS
 62
     7
 10
76.1698973432471
 20
81.7908022285286
 30
0.0
 11
76.1698973432471
 21
88.6158021122988
 31
0.0
  0
LINE
  5
   5C6
  8
0
  6
CONTINUOUS
 62
     7
 10
76.169897343257
 20
88.9658021063383
 30
0.0
 11
76.169897343257
 21
93.1658020348127
 31
0.0
  0
LINE
  5
   5C7
  8
0
  6
CONTINUOUS
 62
     7
 10
76.1698973432649
 20
93.5158020288523
 30
0.0
 11
76.1698973432649
 21
107.16580713697
 31
0.0
  0
LINE
  5
   5C8
  8
0
  6
CONTINUOUS
 62
     7
 10
90.7823943036024
 20
81.4408022344876
 30
0.0
 11
76.5198973164331
 21
81.4408022344876
 31
0.0
  0
LINE
  5
   5C9
  8
0
  6
CONTINUOUS
 62
     7
 10
112.91989137683
 20
81.4408129156397
 30
0.0
 11
112.569891382791
 21
81.4408129156397
 31
0.0
  0
LINE
  5
   5CA
  8
0
  6
CONTINUOUS
 62
     7
 10
90.7823874579216
 20
81.7908022285271
 30
0.0
 11
76.5198973164331
 21
81.7908022285271
 31
0.0
  0
LINE
  5
   5CB
  8
0
  6
CONTINUOUS
 62
     7
 10
112.91989137683
 20
81.7908129096792
 30
0.0
 11
112.569891382791
 21
81.7908129096792
 31
0.0
  0
LINE
  5
   5CC
  8
0
  6
CONTINUOUS
 62
     7
 10
76.5198973164331
 20
81.4408022344883
 30
0.0
 11
76.5198973164331
 21
81.7908022285278
 31
0.0
  0
LINE
  5
   5CD
  8
0
  6
CONTINUOUS
 62
     7
 10
112.569891382791
 20
81.4408022344883
 30
0.0
 11
112.569891382791
 21
81.7908022285278
 31
0.0
  0
LINE
  5
   5CE
  8
0
  6
CONTINUOUS
 62
     7
 10
112.919896717406
 20
76.8908023119743
 30
0.0
 11
112.569891382791
 21
76.8908023119743
 31
0.0
  0
LINE
  5
   5CF
  8
0
  6
CONTINUOUS
 62
     7
 10
112.91989137683
 20
77.2408023060138
 30
0.0
 11
112.569891382791
 21
77.2408023060138
 31
0.0
  0
LINE
  5
   5D0
  8
0
  6
CONTINUOUS
 62
     7
 10
76.5198973164331
 20
76.8908023119743
 30
0.0
 11
76.5198973164331
 21
77.2408023060138
 31
0.0
  0
LINE
  5
   5D1
  8
0
  6
CONTINUOUS
 62
     7
 10
112.569891382791
 20
76.8908023119743
 30
0.0
 11
112.569891382791
 21
77.2408023060138
 31
0.0
  0
LINE
  5
   5D2
  8
0
  6
CONTINUOUS
 62
     7
 10
112.91989137683
 20
93.1658020348127
 30
0.0
 11
112.569891382791
 21
93.1658020348127
 31
0.0
  0
LINE
  5
   5D3
  8
0
  6
CONTINUOUS
 62
     7
 10
112.91989137683
 20
93.5158020288523
 30
0.0
 11
112.569891382791
 21
93.5158020288523
 31
0.0
  0
LINE
  5
   5D4
  8
0
  6
CONTINUOUS
 62
     7
 10
76.5198973164331
 20
93.1658020348127
 30
0.0
 11
76.5198973164331
 21
93.5158020288523
 31
0.0
  0
LINE
  5
   5D5
  8
0
  6
CONTINUOUS
 62
     7
 10
112.569891382791
 20
93.1658020348127
 30
0.0
 11
112.569891382791
 21
93.5158020288523
 31
0.0
  0
LINE
  5
   5D6
  8
0
  6
CONTINUOUS
 62
     7
 10
90.7823943198096
 20
88.6158021122988
 30
0.0
 11
76.5198973164331
 21
88.6158021122988
 31
0.0
  0
LINE
  5
   5D7
  8
0
  6
CONTINUOUS
 62
     7
 10
112.91989137683
 20
88.6158021122988
 30
0.0
 11
112.569891382791
 21
88.6158021122988
 31
0.0
  0
LINE
  5
   5D8
  8
0
  6
CONTINUOUS
 62
     7
 10
90.7823970944058
 20
88.9658021063383
 30
0.0
 11
76.5198973164331
 21
88.9658021063383
 31
0.0
  0
LINE
  5
   5D9
  8
0
  6
CONTINUOUS
 62
     7
 10
112.91989137683
 20
88.9658021063383
 30
0.0
 11
112.569891382791
 21
88.9658021063383
 31
0.0
  0
LINE
  5
   5DA
  8
0
  6
CONTINUOUS
 62
     7
 10
76.5198973164331
 20
88.6158021122988
 30
0.0
 11
76.5198973164331
 21
88.9658021063383
 31
0.0
  0
LINE
  5
   5DB
  8
0
  6
CONTINUOUS
 62
     7
 10
112.569891382791
 20
88.6158021122988
 30
0.0
 11
112.569891382791
 21
88.9658021063383
 31
0.0
  0
ARC
  5
   5DC
  8
0
  6
CONTINUOUS
 62
     7
 10
112.744896720387
 20
70.5908077598388
 30
0.0
 40
0.174999997019768
 50
269.999999948034
 51
359.999999948034
  0
INSERT
  5
   5DD
  8
255
  6
CONTINUOUS
 62
     7
  2
ON-OFF
 10
101.544893493153
 20
91.0658020705755
 30
0.0
 41
0.349999994039536
 42
0.349999994039536
 50
359.999999792137
 43
0.349999994039536
  0
LINE
  5
   5DE
  8
0
  6
CONTINUOUS
 62
     7
 10
86.6698971644412
 20
92.6408020437534
 30
0.0
 11
86.1448971733819
 21
92.6408020437534
 31
0.0
  0
LINE
  5
   5DF
  8
0
  6
CONTINUOUS
 62
     7
 10
86.6698971644412
 20
89.4908020973976
 30
0.0
 11
86.1448971733819
 21
89.4908020973976
 31
0.0
  0
CIRCLE
  5
   5E0
  8
0
  6
CONTINUOUS
 62
     7
 10
86.4073971689116
 20
79.3408022702511
 30
0.0
 40
1.57499997317791
  0
CIRCLE
  5
   5E1
  8
0
  6
CONTINUOUS
 62
     7
 10
86.4073971689116
 20
79.3408022702511
 30
0.0
 40
1.04999998211861
  0
LINE
  5
   5E2
  8
0
  6
CONTINUOUS
 62
     7
 10
86.1448971733819
 20
89.4908020973976
 30
0.0
 11
86.1448971733819
 21
92.6408020437534
 31
0.0
  0
LINE
  5
   5E3
  8
0
  6
CONTINUOUS
 62
     7
 10
86.6698971644412
 20
89.4908020973976
 30
0.0
 11
86.6698971644412
 21
92.6408020437534
 31
0.0
  0
LINE
  5
   5E4
  8
0
  6
CONTINUOUS
 62
     7
 10
89.819897110797
 20
77.2408023060138
 30
0.0
 11
89.819897110797
 21
81.4408072356961
 31
0.0
  0
LINE
  5
   5E5
  8
0
  6
CONTINUOUS
 62
     7
 10
99.2698969498645
 20
77.2408023060138
 30
0.0
 11
99.2698969498645
 21
81.44080445206
 31
0.0
  0
LINE
  5
   5E6
  8
0
  6
CONTINUOUS
 62
     7
 10
99.2698969498645
 20
88.9658021063383
 30
0.0
 11
99.2698969498645
 21
93.1658020348127
 31
0.0
  0
LINE
  5
   5E7
  8
0
  6
CONTINUOUS
 62
     7
 10
89.819897110797
 20
88.9658021063383
 30
0.0
 11
89.819897110797
 21
93.1658020348127
 31
0.0
  0
LINE
  5
   5E8
  8
0
  6
CONTINUOUS
 62
     7
 10
98.3073969662558
 20
81.416052459314
 30
0.0
 11
90.7823970944058
 21
81.416052459314
 31
0.0
  0
LINE
  5
   5E9
  8
0
  6
CONTINUOUS
 62
     7
 10
98.3073969662558
 20
78.643719182593
 30
0.0
 11
90.7823970944058
 21
78.643719182593
 31
0.0
  0
LINE
  5
   5EA
  8
0
  6
CONTINUOUS
 62
     7
 10
98.3073969662558
 20
81.4160522138051
 30
0.0
 11
90.7823970944058
 21
81.4160522138051
 31
0.0
  0
LINE
  5
   5EB
  8
0
  6
CONTINUOUS
 62
     7
 10
98.3073969662558
 20
83.1471945959042
 30
0.0
 11
90.7823970944058
 21
83.1471945959042
 31
0.0
  0
LINE
  5
   5EC
  8
0
  6
CONTINUOUS
 62
     7
 10
76.5198973164331
 20
93.5158020288523
 30
0.0
 11
76.1698973432649
 21
93.5158020288523
 31
0.0
  0
LINE
  5
   5ED
  8
0
  6
CONTINUOUS
 62
     7
 10
76.5198973164331
 20
93.1658020348127
 30
0.0
 11
76.169897343257
 21
93.1658020348127
 31
0.0
  0
LINE
  5
   5EE
  8
0
  6
CONTINUOUS
 62
     7
 10
76.5198973164331
 20
88.9658021063383
 30
0.0
 11
76.169897343257
 21
88.9658021063383
 31
0.0
  0
LINE
  5
   5EF
  8
0
  6
CONTINUOUS
 62
     7
 10
76.5198973164331
 20
88.6158021122988
 30
0.0
 11
76.1698973432471
 21
88.6158021122988
 31
0.0
  0
LINE
  5
   5F0
  8
0
  6
CONTINUOUS
 62
     7
 10
76.5198973164331
 20
81.7908022285271
 30
0.0
 11
76.1698973432471
 21
81.7908022285271
 31
0.0
  0
LINE
  5
   5F1
  8
0
  6
CONTINUOUS
 62
     7
 10
76.5198973164331
 20
81.4408022344876
 30
0.0
 11
76.1698973432534
 21
81.4408022344876
 31
0.0
  0
LINE
  5
   5F2
  8
0
  6
CONTINUOUS
 62
     7
 10
76.5198973164331
 20
77.2408023060138
 30
0.0
 11
76.1698973432534
 21
77.2408023060138
 31
0.0
  0
LINE
  5
   5F3
  8
0
  6
CONTINUOUS
 62
     7
 10
76.5198973164331
 20
76.8908023119743
 30
0.0
 11
76.1698973432552
 21
76.8908023119743
 31
0.0
  0
LINE
  5
   5F4
  8
0
  6
CONTINUOUS
 62
     7
 10
112.569891382791
 20
77.2408023060138
 30
0.0
 11
76.5198973164331
 21
77.2408023060138
 31
0.0
  0
LINE
  5
   5F5
  8
0
  6
CONTINUOUS
 62
     7
 10
112.569891382791
 20
76.8908023119743
 30
0.0
 11
76.5198973164331
 21
76.8908023119743
 31
0.0
  0
LINE
  5
   5F6
  8
0
  6
CONTINUOUS
 62
     7
 10
112.569891382791
 20
81.7908129096792
 30
0.0
 11
98.3073959215903
 21
81.7908129096792
 31
0.0
  0
LINE
  5
   5F7
  8
0
  6
CONTINUOUS
 62
     7
 10
112.569891382791
 20
81.4408129156397
 30
0.0
 11
98.3073957933542
 21
81.4408129156397
 31
0.0
  0
LINE
  5
   5F8
  8
0
  6
CONTINUOUS
 62
     7
 10
112.569891382791
 20
88.9658021063383
 30
0.0
 11
98.3073969662558
 21
88.9658021063383
 31
0.0
  0
LINE
  5
   5F9
  8
0
  6
CONTINUOUS
 62
     7
 10
112.569891382791
 20
88.6158021122988
 30
0.0
 11
98.3073969662558
 21
88.6158021122988
 31
0.0
  0
LINE
  5
   5FA
  8
0
  6
CONTINUOUS
 62
     7
 10
112.569891382791
 20
93.5158020288523
 30
0.0
 11
76.5198973164331
 21
93.5158020288523
 31
0.0
  0
LINE
  5
   5FB
  8
0
  6
CONTINUOUS
 62
     7
 10
112.569891382791
 20
93.1658020348127
 30
0.0
 11
76.5198973164331
 21
93.1658020348127
 31
0.0
  0
LINE
  5
   5FC
  8
0
  6
DASHDOT
 62
     7
 10
146.475722279337
 20
88.7908074498946
 30
0.0
 11
64.0427801019267
 21
88.7908074498946
 31
0.0
  0
LINE
  5
   5FD
  8
0
  6
DASHDOT
 62
     7
 10
51.0233428049539
 20
88.7908074498946
 30
0.0
 11
46.3163154745099
 21
88.7908074498946
 31
0.0
  0
INSERT
  5
   5FE
  8
255
  6
CONTINUOUS
 62
     7
  2
MOSTRINA
 10
54.3514763570972
 20
50.2975772857269
 30
0.0
 41
0.349999994039536
 42
0.349999994039536
 50
3.50835464724173E-15
 43
0.349999994039536
  0
LINE
  5
   5FF
  8
0
  6
CONTINUOUS
 62
     7
 10
112.919849799831
 20
116.965793618636
 30
0.0
 11
112.919849799831
 21
124.228289256004
 31
0.0
  0
LINE
  5
   600
  8
0
  6
CONTINUOUS
 62
     7
 10
76.1698464902321
 20
116.965793618636
 30
0.0
 11
76.1698464902321
 21
124.228289256004
 31
0.0
  0
LINE
  5
   601
  8
0
  6
CONTINUOUS
 62
     7
 10
76.5198464842717
 20
124.228289256004
 30
0.0
 11
76.1698464902321
 21
124.228289256004
 31
0.0
  0
LINE
  5
   602
  8
0
  6
CONTINUOUS
 62
     7
 10
112.919849799831
 20
124.228289256004
 30
0.0
 11
112.569849805792
 21
124.228289256004
 31
0.0
  0
LINE
  5
   603
  8
0
  6
CONTINUOUS
 62
     3
 10
76.1698973432551
 20
44.7083081839258
 30
0.0
 11
76.1698973432551
 21
60.615809264856
 31
0.0
  0
LINE
  5
   604
  8
0
  6
CONTINUOUS
 62
     3
 10
77.044897328354
 20
44.7083081839258
 30
0.0
 11
76.1698973432552
 21
44.7083081839258
 31
0.0
  0
LINE
  5
   605
  8
0
  6
CONTINUOUS
 62
     3
 10
77.044897328354
 20
44.0783082113439
 30
0.0
 11
77.044897328354
 21
44.7083081839258
 31
0.0
  0
LINE
  5
   606
  8
0
  6
CONTINUOUS
 62
     3
 10
87.8073971450697
 20
43.7283082173048
 30
0.0
 11
77.3948974198542
 21
43.7283082173048
 31
0.0
  0
LINE
  5
   607
  8
0
  6
CONTINUOUS
 62
     7
 10
77.044897328354
 20
44.7083081839258
 30
0.0
 11
77.044897328354
 21
51.7783080802137
 31
0.0
  0
LINE
  5
   608
  8
0
  6
DOT
 62
     7
 10
98.8323969573151
 20
50.7283080980951
 30
0.0
 11
98.8323969573151
 21
52.1283080742533
 31
0.0
  0
LINE
  5
   609
  8
0
  6
DOT
 62
     7
 10
102.50739689473
 20
50.7283080980951
 30
0.0
 11
102.50739689473
 21
52.1283080742533
 31
0.0
  0
LINE
  5
   60A
  8
0
  6
DOT
 62
     7
 10
89.2948971197377
 20
48.4533081368381
 30
0.0
 11
89.2948971197377
 21
49.112529560878
 31
0.0
  0
LINE
  5
   60B
  8
0
  6
CONTINUOUS
 62
     7
 10
87.54489714954
 20
48.4533081368381
 30
0.0
 11
87.54489714954
 21
49.1125300714465
 31
0.0
  0
LINE
  5
   60C
  8
0
  6
DOT
 62
     7
 10
89.2948971197377
 20
48.4533081368381
 30
0.0
 11
87.9370132766615
 21
48.4533081368381
 31
0.0
  0
LINE
  5
   60D
  8
0
  6
DOT
 62
     7
 10
99.7948969409238
 20
48.4533081368381
 30
0.0
 11
99.7948969409238
 21
49.1454855161027
 31
0.0
  0
LINE
  5
   60E
  8
0
  6
CONTINUOUS
 62
     7
 10
76.7823973328243
 20
51.7783080802137
 30
0.0
 11
76.7823973328243
 21
52.303308071273
 31
0.0
  0
CIRCLE
  5
   60F
  8
0
  6
CONTINUOUS
 62
     7
 10
82.2948972860347
 20
50.0283066831723
 30
0.0
 40
1.92499852271199
  0
CIRCLE
  5
   610
  8
0
  6
DOT
 62
     7
 10
88.419897742992
 20
50.7283099724323
 30
0.0
 40
0.96249829047196
  0
ARC
  5
   611
  8
0
  6
DOT
 62
     7
 10
88.4198976060495
 20
50.7283142312785
 30
0.0
 40
1.83749401361082
 50
298.436973936778
 51
418.997218532549
  0
CIRCLE
  5
   612
  8
0
  6
DOT
 62
     7
 10
94.5448971884538
 20
50.0283092815315
 30
0.0
 40
1.92499882604943
  0
ARC
  5
   613
  8
0
  6
DOT
 62
     7
 10
100.669897876552
 20
50.7283134283823
 30
0.0
 40
1.83749475538989
 50
298.436944421718
 51
418.99722864746
  0
CIRCLE
  5
   614
  8
0
  6
DOT
 62
     7
 10
106.794897090873
 20
50.0283090954606
 30
0.0
 40
1.92499899795655
  0
CIRCLE
  5
   615
  8
0
  6
DOT
 62
     7
 10
106.794896662268
 20
45.128309054369
 30
0.0
 40
0.48999910342635
  0
CIRCLE
  5
   616
  8
0
  6
DOT
 62
     7
 10
94.5448957008458
 20
45.1283085926433
 30
0.0
 40
0.489999750772785
  0
CIRCLE
  5
   617
  8
0
  6
CONTINUOUS
 62
     7
 10
82.2948968001392
 20
45.1283074846309
 30
0.0
 40
0.490000710339291
  0
ARC
  5
   618
  8
0
  6
CONTINUOUS
 62
     3
 10
77.3948974198542
 20
44.078308355343
 30
0.0
 40
0.350000144503819
 50
180.000023420064
 51
269.999992853049
  0
LINE
  5
   619
  8
0
  6
DASHDOT
 62
     3
 10
82.2948972860347
 20
47.4033081723813
 30
0.0
 11
82.2948972860347
 21
52.6533051939634
 31
0.0
  0
LINE
  5
   61A
  8
0
  6
DASHDOT
 62
     3
 10
84.9198957968258
 20
50.0283066831723
 30
0.0
 11
79.6698987752437
 21
50.0283066831723
 31
0.0
  0
LINE
  5
   61B
  8
0
  6
DASHDOT
 62
     3
 10
88.4198976060495
 20
42.6122498730076
 30
0.0
 11
88.4198976060495
 21
58.5132259651937
 31
0.0
  0
LINE
  5
   61C
  8
0
  6
DASHDOT
 62
     3
 10
90.9573916077394
 20
50.7283142312785
 30
0.0
 11
85.8824036043597
 21
50.7283142312785
 31
0.0
  0
LINE
  5
   61D
  8
0
  6
DASHDOT
 62
     3
 10
97.1698960025823
 20
50.0283092815315
 30
0.0
 11
91.9198983743253
 21
50.0283092815315
 31
0.0
  0
LINE
  5
   61E
  8
0
  6
DASHDOT
 62
     3
 10
100.669897876552
 20
43.5762769577191
 30
0.0
 11
100.669897876552
 21
57.7888629090655
 31
0.0
  0
LINE
  5
   61F
  8
0
  6
DASHDOT
 62
     3
 10
103.207392620021
 20
50.7283134283823
 30
0.0
 11
98.1324031330829
 21
50.7283134283823
 31
0.0
  0
LINE
  5
   620
  8
0
  6
DASHDOT
 62
     3
 10
106.794897090873
 20
47.403310109425
 30
0.0
 11
106.794897090873
 21
52.6533080814962
 31
0.0
  0
LINE
  5
   621
  8
0
  6
DASHDOT
 62
     3
 10
109.419896076909
 20
50.0283090954606
 30
0.0
 11
104.169898104837
 21
50.0283090954606
 31
0.0
  0
LINE
  5
   622
  8
0
  6
DASHDOT
 62
     3
 10
106.794896662268
 20
43.9383099628635
 30
0.0
 11
106.794896662268
 21
46.3183081458744
 31
0.0
  0
LINE
  5
   623
  8
0
  6
DASHDOT
 62
     3
 10
107.984895753774
 20
45.128309054369
 30
0.0
 11
105.604897570763
 21
45.128309054369
 31
0.0
  0
LINE
  5
   624
  8
0
  6
DASHDOT
 62
     3
 10
95.7348954396976
 20
45.1283085926433
 30
0.0
 11
93.3548959619939
 21
45.1283085926433
 31
0.0
  0
LINE
  5
   625
  8
0
  6
DASHDOT
 62
     3
 10
82.2948968001392
 20
43.9383067862125
 30
0.0
 11
82.2948968001392
 21
46.3183081830493
 31
0.0
  0
LINE
  5
   626
  8
0
  6
DASHDOT
 62
     3
 10
83.4848974985575
 20
45.1283074846309
 30
0.0
 11
81.1048961017208
 21
45.1283074846309
 31
0.0
  0
LINE
  5
   627
  8
0
  6
CONTINUOUS
 62
     3
 10
77.044897328354
 20
44.0783082113439
 30
0.0
 11
77.044897328354
 21
44.7083081839258
 31
0.0
  0
LINE
  5
   628
  8
0
  6
CONTINUOUS
 62
     3
 10
112.919896717406
 20
43.2908843760481
 30
0.0
 11
112.919896717406
 21
60.615809264856
 31
0.0
  0
LINE
  5
   629
  8
0
  6
CONTINUOUS
 62
     7
 10
78.4448973045121
 20
51.7783080802137
 30
0.0
 11
76.7823973328243
 21
51.7783080802137
 31
0.0
  0
LINE
  5
   62A
  8
0
  6
DOT
 62
     7
 10
86.5823971659313
 20
50.7283080980951
 30
0.0
 11
86.5823971659313
 21
51.9532884707314
 31
0.0
  0
LINE
  5
   62B
  8
0
  6
DOT
 62
     7
 10
90.2573971033465
 20
50.7283080980951
 30
0.0
 11
90.2573971033465
 21
52.1283080742533
 31
0.0
  0
LINE
  5
   62C
  8
0
  6
DOT
 62
     7
 10
101.544896911121
 20
48.4533081368381
 30
0.0
 11
101.544896911121
 21
49.112527654962
 31
0.0
  0
LINE
  5
   62D
  8
0
  6
DOT
 62
     7
 10
101.544896911121
 20
48.4533081368381
 30
0.0
 11
99.7948969409238
 21
48.4533081368381
 31
0.0
  0
LINE
  5
   62E
  8
0
  6
CONTINUOUS
 62
     7
 10
81.0698972598087
 20
52.1283080742533
 30
0.0
 11
81.0698972598087
 21
52.303308071273
 31
0.0
  0
LINE
  5
   62F
  8
0
  6
CONTINUOUS
 62
     7
 10
78.4448973045121
 20
51.7783080802137
 30
0.0
 11
78.4448973045121
 21
52.303308071273
 31
0.0
  0
CIRCLE
  5
   630
  8
0
  6
DOT
 62
     7
 10
100.669898147172
 20
50.7283092101032
 30
0.0
 40
0.962498950668041
  0
ARC
  5
   631
  8
0
  6
CONTINUOUS
 62
     3
 10
77.3948974198542
 20
44.078308355343
 30
0.0
 40
0.350000144503819
 50
180.000023420064
 51
269.999992853049
  0
LINE
  5
   632
  8
0
  6
DASHDOT
 62
     3
 10
90.9573916077394
 20
50.7283142312785
 30
0.0
 11
85.8824036043597
 21
50.7283142312785
 31
0.0
  0
LINE
  5
   633
  8
0
  6
DASHDOT
 62
     3
 10
97.1698960025823
 20
50.0283092815315
 30
0.0
 11
91.9198983743253
 21
50.0283092815315
 31
0.0
  0
LINE
  5
   634
  8
0
  6
DASHDOT
 62
     3
 10
100.669897876552
 20
43.5762769577191
 30
0.0
 11
100.669897876552
 21
58.3533889560994
 31
0.0
  0
LINE
  5
   635
  8
0
  6
DASHDOT
 62
     3
 10
103.207392620021
 20
50.7283134283823
 30
0.0
 11
98.1324031330829
 21
50.7283134283823
 31
0.0
  0
LINE
  5
   636
  8
0
  6
CONTINUOUS
 62
     7
 10
86.5823971659313
 20
52.1283080742533
 30
0.0
 11
78.4448973045121
 21
52.1283080742533
 31
0.0
  0
LINE
  5
   637
  8
0
  6
CONTINUOUS
 62
     7
 10
112.919875355102
 20
52.303308071273
 30
0.0
 11
76.1698973432551
 21
52.303308071273
 31
0.0
  0
ARC
  5
   638
  8
0
  6
DOT
 62
     7
 10
88.4198976060495
 20
50.7283142312785
 30
0.0
 40
1.83749401361082
 50
121.002781363519
 51
184.357949911518
  0
ARC
  5
   639
  8
0
  6
DOT
 62
     7
 10
100.669897876552
 20
50.7283134283823
 30
0.0
 40
1.83749475538989
 50
121.002771248608
 51
241.562988062779
  0
LINE
  5
   63A
  8
0
  6
CONTINUOUS
 62
     2
 10
76.1698464902321
 20
124.578289250043
 30
0.0
 11
76.1698464902321
 21
153.803284980434
 31
0.0
  0
LINE
  5
   63B
  8
0
  6
CONTINUOUS
 62
     2
 10
112.919849799831
 20
124.578289250043
 30
0.0
 11
112.919849799831
 21
153.803284980434
 31
0.0
  0
ARC
  5
   63C
  8
0
  6
CONTINUOUS
 62
     7
 10
100.669849161681
 20
124.403286832552
 30
0.0
 40
1.3125023390205
 50
180.000125709671
 51
187.662301267597
  0
ARC
  5
   63D
  8
0
  6
CONTINUOUS
 62
     7
 10
88.4198467133566
 20
124.403293236713
 30
0.0
 40
1.31250826904194
 50
352.337451371484
 51
359.999970304232
  0
LINE
  5
   63E
  8
0
  6
CONTINUOUS
 62
     2
 10
112.919849799831
 20
124.578289250043
 30
0.0
 11
76.1698464902321
 21
124.578289250043
 31
0.0
  0
LINE
  5
   63F
  8
0
  6
CONTINUOUS
 62
     2
 10
112.569849805792
 20
124.228289256004
 30
0.0
 11
76.5198464842717
 21
124.228289256004
 31
0.0
  0
LINE
  5
   640
  8
0
  6
CONTINUOUS
 62
     2
 10
112.919849799831
 20
153.803284980434
 30
0.0
 11
76.1698464902321
 21
153.803284980434
 31
0.0
  0
LINE
  5
   641
  8
0
  6
CONTINUOUS
 62
     2
 10
112.919849799831
 20
149.42828505494
 30
0.0
 11
76.1698464902321
 21
149.42828505494
 31
0.0
  0
LINE
  5
   642
  8
0
  6
CONTINUOUS
 62
     2
 10
112.919849799831
 20
149.0782850609
 30
0.0
 11
76.1698464902321
 21
149.0782850609
 31
0.0
  0
LINE
  5
   643
  8
0
  6
CONTINUOUS
 62
     7
 10
76.5198464842717
 20
124.228289256004
 30
0.0
 11
76.5198464842717
 21
124.578289250043
 31
0.0
  0
LINE
  5
   644
  8
0
  6
CONTINUOUS
 62
     7
 10
112.569849805792
 20
124.228289256004
 30
0.0
 11
112.569849805792
 21
124.578289250043
 31
0.0
  0
LINE
  5
   645
  8
0
  6
CONTINUOUS
 62
     7
 10
87.8073482062556
 20
162.378284834403
 30
0.0
 11
77.3948504048186
 21
162.378284834403
 31
0.0
  0
LINE
  5
   646
  8
0
  6
CONTINUOUS
 62
     7
 10
89.8327987917977
 20
162.378284834403
 30
0.0
 11
89.032348185394
 21
162.378284834403
 31
0.0
  0
LINE
  5
   647
  8
0
  6
CONTINUOUS
 62
     7
 10
77.0448504107791
 20
161.398283782977
 30
0.0
 11
77.0448504107791
 21
162.028284840363
 31
0.0
  0
LINE
  5
   648
  8
0
  6
CONTINUOUS
 62
     7
 10
77.0448504107791
 20
161.398283782977
 30
0.0
 11
76.1698504256802
 21
161.398283782977
 31
0.0
  0
LINE
  5
   649
  8
0
  6
CONTINUOUS
 62
     7
 10
76.1698464902322
 20
153.803283224632
 30
0.0
 11
76.1698464902322
 21
161.398283782977
 31
0.0
  0
LINE
  5
   64A
  8
0
  6
CONTINUOUS
 62
     7
 10
89.2948481809237
 20
160.103284873146
 30
0.0
 11
87.544848210726
 21
160.103284873146
 31
0.0
  0
LINE
  5
   64B
  8
0
  6
CONTINUOUS
 62
     7
 10
77.044848336094
 20
153.803283224632
 30
0.0
 11
77.044848336094
 21
161.398283782977
 31
0.0
  0
CIRCLE
  5
   64C
  8
0
  6
CONTINUOUS
 62
     7
 10
82.2948501074592
 20
158.00328172336
 30
0.0
 40
1.9250004510233
  0
ARC
  5
   64D
  8
0
  6
CONTINUOUS
 62
     7
 10
77.3948512976463
 20
162.028285236679
 30
0.0
 40
0.350001390934821
 50
90.0000472185487
 51
180.000478784316
  0
LINE
  5
   64E
  8
0
  6
DASHDOT
 62
     7
 10
82.2948484364264
 20
159.438286560162
 30
0.0
 11
82.2948484364264
 21
162.518289678043
 31
0.0
  0
LINE
  5
   64F
  8
0
  6
DASHDOT
 62
     7
 10
82.2948501074593
 20
155.028281290218
 30
0.0
 11
82.2948501074593
 21
160.978282156501
 31
0.0
  0
LINE
  5
   650
  8
0
  6
DASHDOT
 62
     7
 10
85.2698505406011
 20
158.00328172336
 30
0.0
 11
79.3198496743173
 21
158.00328172336
 31
0.0
  0
LINE
  5
   651
  8
0
  6
CONTINUOUS
 62
     7
 10
87.8073482062556
 20
161.328284852284
 30
0.0
 11
87.8073482062556
 21
162.378284834403
 31
0.0
  0
LINE
  5
   652
  8
0
  6
CONTINUOUS
 62
     7
 10
89.032348185394
 20
161.328284852284
 30
0.0
 11
89.032348185394
 21
162.378284834403
 31
0.0
  0
LINE
  5
   653
  8
0
  6
CONTINUOUS
 62
     7
 10
87.544848210726
 20
160.103284873146
 30
0.0
 11
87.544848210726
 21
161.328284852284
 31
0.0
  0
LINE
  5
   654
  8
0
  6
CONTINUOUS
 62
     7
 10
89.2948481809237
 20
160.103284873146
 30
0.0
 11
89.2948481809237
 21
161.328284852284
 31
0.0
  0
LINE
  5
   655
  8
0
  6
CONTINUOUS
 62
     7
 10
89.2948481809237
 20
161.328284852284
 30
0.0
 11
89.032348185394
 21
161.328284852284
 31
0.0
  0
LINE
  5
   656
  8
0
  6
CONTINUOUS
 62
     7
 10
87.8073482062556
 20
161.328284852284
 30
0.0
 11
87.544848210726
 21
161.328284852284
 31
0.0
  0
LINE
  5
   657
  8
0
  6
CONTINUOUS
 62
     3
 10
112.482353793179
 20
163.253284819501
 30
0.0
 11
90.3866076414806
 21
163.253284819501
 31
0.0
  0
LINE
  5
   658
  8
0
  6
CONTINUOUS
 62
     3
 10
112.919872642915
 20
153.803283224632
 30
0.0
 11
112.919872642915
 21
162.815745433676
 31
0.0
  0
LINE
  5
   659
  8
0
  6
CONTINUOUS
 62
     3
 10
112.791713924446
 20
163.125145351794
 30
0.0
 11
112.482355712391
 21
163.253287136577
 31
0.0
  0
LINE
  5
   65A
  8
0
  6
CONTINUOUS
 62
     3
 10
112.919854649438
 20
162.815788873292
 30
0.0
 11
112.791712864655
 21
163.125147085347
 31
0.0
  0
LINE
  5
   65B
  8
0
  6
CONTINUOUS
 62
     3
 10
112.097354333793
 20
154.153283218671
 30
0.0
 11
112.097354333793
 21
163.14455603107
 31
0.0
  0
LINE
  5
   65C
  8
0
  6
CONTINUOUS
 62
     3
 10
110.837354889308
 20
154.153283218671
 30
0.0
 11
110.837354889308
 21
163.14455603107
 31
0.0
  0
LINE
  5
   65D
  8
0
  6
CONTINUOUS
 62
     3
 10
109.577355444824
 20
154.153283218671
 30
0.0
 11
109.577355444824
 21
163.14455603107
 31
0.0
  0
LINE
  5
   65E
  8
0
  6
CONTINUOUS
 62
     3
 10
108.317356000339
 20
154.153283218671
 30
0.0
 11
108.317356000339
 21
163.14455603107
 31
0.0
  0
LINE
  5
   65F
  8
0
  6
CONTINUOUS
 62
     3
 10
107.057353885566
 20
154.153283218671
 30
0.0
 11
107.057353885566
 21
163.14455603107
 31
0.0
  0
LINE
  5
   660
  8
0
  6
CONTINUOUS
 62
     3
 10
105.797354441081
 20
154.153283218671
 30
0.0
 11
105.797354441081
 21
163.14455603107
 31
0.0
  0
LINE
  5
   661
  8
0
  6
CONTINUOUS
 62
     3
 10
104.537354996597
 20
154.153283218671
 30
0.0
 11
104.537354996597
 21
163.14455603107
 31
0.0
  0
LINE
  5
   662
  8
0
  6
CONTINUOUS
 62
     3
 10
103.277355552112
 20
154.153283218671
 30
0.0
 11
103.277355552112
 21
163.14455603107
 31
0.0
  0
LINE
  5
   663
  8
0
  6
CONTINUOUS
 62
     3
 10
102.017356107627
 20
154.153283218671
 30
0.0
 11
102.017356107627
 21
163.14455603107
 31
0.0
  0
LINE
  5
   664
  8
0
  6
CONTINUOUS
 62
     3
 10
100.757353992854
 20
154.153283218671
 30
0.0
 11
100.757353992854
 21
163.14455603107
 31
0.0
  0
LINE
  5
   665
  8
0
  6
CONTINUOUS
 62
     3
 10
99.4973545483697
 20
154.153283218671
 30
0.0
 11
99.4973545483697
 21
163.14455603107
 31
0.0
  0
LINE
  5
   666
  8
0
  6
CONTINUOUS
 62
     3
 10
98.237355103885
 20
154.153283218671
 30
0.0
 11
98.237355103885
 21
163.14455603107
 31
0.0
  0
LINE
  5
   667
  8
0
  6
CONTINUOUS
 62
     3
 10
96.9773556594003
 20
154.153283218671
 30
0.0
 11
96.9773556594003
 21
163.14455603107
 31
0.0
  0
LINE
  5
   668
  8
0
  6
CONTINUOUS
 62
     3
 10
95.7173548797715
 20
154.153283218671
 30
0.0
 11
95.7173548797715
 21
163.14455603107
 31
0.0
  0
LINE
  5
   669
  8
0
  6
CONTINUOUS
 62
     3
 10
94.4573554352868
 20
154.153283218671
 30
0.0
 11
94.4573554352868
 21
163.14455603107
 31
0.0
  0
LINE
  5
   66A
  8
0
  6
CONTINUOUS
 62
     3
 10
93.1973559908021
 20
154.153283218671
 30
0.0
 11
93.1973559908021
 21
163.14455603107
 31
0.0
  0
LINE
  5
   66B
  8
0
  6
CONTINUOUS
 62
     3
 10
91.9373552111733
 20
154.153283218671
 30
0.0
 11
91.9373552111733
 21
163.14455603107
 31
0.0
  0
LINE
  5
   66C
  8
0
  6
CONTINUOUS
 62
     3
 10
90.6773557666886
 20
154.153283218671
 30
0.0
 11
90.6773557666886
 21
163.14455603107
 31
0.0
  0
POLYLINE
  5
   66D
  8
0
  6
CONTINUOUS
 62
     3
 66
     1
 10
0.0
 20
0.0
 30
0.0
  0
VERTEX
  5
   66E
  8
0
  6
CONTINUOUS
 10
90.3866076414807
 20
163.253284568329
 30
0.0
 40
0.0
 41
0.0
  0
VERTEX
  5
   66F
  8
0
  6
CONTINUOUS
 10
90.3315295822162
 20
163.209641562444
 30
0.0
 40
0.0
 41
0.0
  0
VERTEX
  5
   670
  8
0
  6
CONTINUOUS
 10
90.2793972116549
 20
163.165029018435
 30
0.0
 40
0.0
 41
0.0
  0
VERTEX
  5
   671
  8
0
  6
CONTINUOUS
 10
90.2302011241446
 20
163.119449258476
 30
0.0
 40
0.0
 41
0.0
  0
VERTEX
  5
   672
  8
0
  6
CONTINUOUS
 10
90.183928677895
 20
163.072905403714
 30
0.0
 40
0.0
 41
0.0
  0
VERTEX
  5
   673
  8
0
  6
CONTINUOUS
 10
90.1405635147449
 20
163.02540149284
 30
0.0
 40
0.0
 41
0.0
  0
VERTEX
  5
   674
  8
0
  6
CONTINUOUS
 10
90.1199649180293
 20
163.001291058519
 30
0.0
 40
0.0
 41
0.0
  0
VERTEX
  5
   675
  8
0
  6
CONTINUOUS
 10
90.1000850799293
 20
162.976942600648
 30
0.0
 40
0.0
 41
0.0
  0
VERTEX
  5
   676
  8
0
  6
CONTINUOUS
 10
90.0809206965919
 20
162.952356934918
 30
0.0
 40
0.0
 41
0.0
  0
VERTEX
  5
   677
  8
0
  6
CONTINUOUS
 10
90.0624681418472
 20
162.9275349566
 30
0.0
 40
0.0
 41
0.0
  0
VERTEX
  5
   678
  8
0
  6
CONTINUOUS
 10
90.0447234522011
 20
162.902477644247
 30
0.0
 40
0.0
 41
0.0
  0
VERTEX
  5
   679
  8
0
  6
CONTINUOUS
 10
90.0276823118283
 20
162.877186063399
 30
0.0
 40
0.0
 41
0.0
  0
VERTEX
  5
   67A
  8
0
  6
CONTINUOUS
 10
90.0113400375649
 20
162.851661370287
 30
0.0
 40
0.0
 41
0.0
  0
VERTEX
  5
   67B
  8
0
  6
CONTINUOUS
 10
89.9956915639011
 20
162.825904815544
 30
0.0
 40
0.0
 41
0.0
  0
VERTEX
  5
   67C
  8
0
  6
CONTINUOUS
 10
89.9807314279737
 20
162.799917747902
 30
0.0
 40
0.0
 41
0.0
  0
VERTEX
  5
   67D
  8
0
  6
CONTINUOUS
 10
89.9664537545594
 20
162.773701617903
 30
0.0
 40
0.0
 41
0.0
  0
VERTEX
  5
   67E
  8
0
  6
CONTINUOUS
 10
89.952852241067
 20
162.747257981603
 30
0.0
 40
0.0
 41
0.0
  0
VERTEX
  5
   67F
  8
0
  6
CONTINUOUS
 10
89.9399201425304
 20
162.720588504276
 30
0.0
 40
0.0
 41
0.0
  0
VERTEX
  5
   680
  8
0
  6
CONTINUOUS
 10
89.9160349085412
 20
162.666579255959
 30
0.0
 40
0.0
 41
0.0
  0
VERTEX
  5
   681
  8
0
  6
CONTINUOUS
 10
89.8947346750868
 20
162.611689520311
 30
0.0
 40
0.0
 41
0.0
  0
VERTEX
  5
   682
  8
0
  6
CONTINUOUS
 10
89.8759480261972
 20
162.555936929317
 30
0.0
 40
0.0
 41
0.0
  0
VERTEX
  5
   683
  8
0
  6
CONTINUOUS
 10
89.8595950272047
 20
162.499341218157
 30
0.0
 40
0.0
 41
0.0
  0
VERTEX
  5
   684
  8
0
  6
CONTINUOUS
 10
89.8455867445111
 20
162.441924343767
 30
0.0
 40
0.0
 41
0.0
  0
VERTEX
  5
   685
  8
0
  6
CONTINUOUS
 10
89.8338247653551
 20
162.383710603408
 30
0.0
 40
0.0
 41
0.0
  0
VERTEX
  5
   686
  8
0
  6
CONTINUOUS
 10
89.8242007175798
 20
162.32472675323
 30
0.0
 40
0.0
 41
0.0
  0
VERTEX
  5
   687
  8
0
  6
CONTINUOUS
 10
89.8165957893998
 20
162.265002126837
 30
0.0
 40
0.0
 41
0.0
  0
VERTEX
  5
   688
  8
0
  6
CONTINUOUS
 10
89.8108802491687
 20
162.20456875385
 30
0.0
 40
0.0
 41
0.0
  0
VERTEX
  5
   689
  8
0
  6
CONTINUOUS
 10
89.806114400284
 20
162.1266788207
 30
0.0
 40
0.0
 41
0.0
  0
VERTEX
  5
   68A
  8
0
  6
CONTINUOUS
 10
89.8038623127514
 20
162.047775880486
 30
0.0
 40
0.0
 41
0.0
  0
VERTEX
  5
   68B
  8
0
  6
CONTINUOUS
 10
89.8037797806255
 20
161.967945469015
 30
0.0
 40
0.0
 41
0.0
  0
VERTEX
  5
   68C
  8
0
  6
CONTINUOUS
 10
89.8055003442296
 20
161.887279503286
 30
0.0
 40
0.0
 41
0.0
  0
VERTEX
  5
   68D
  8
0
  6
CONTINUOUS
 10
89.8086397534217
 20
161.805875623014
 30
0.0
 40
0.0
 41
0.0
  0
VERTEX
  5
   68E
  8
0
  6
CONTINUOUS
 10
89.8128004308605
 20
161.723836532151
 30
0.0
 40
0.0
 41
0.0
  0
VERTEX
  5
   68F
  8
0
  6
CONTINUOUS
 10
89.8225554247135
 20
161.558284904831
 30
0.0
 40
0.0
 41
0.0
  0
VERTEX
  5
   690
  8
0
  6
CONTINUOUS
 10
89.8314877671865
 20
161.391522515754
 30
0.0
 40
0.0
 41
0.0
  0
VERTEX
  5
   691
  8
0
  6
CONTINUOUS
 10
89.8346371023949
 20
161.307979086485
 30
0.0
 40
0.0
 41
0.0
  0
VERTEX
  5
   692
  8
0
  6
CONTINUOUS
 10
89.8363923135213
 20
161.22448614485
 30
0.0
 40
0.0
 41
0.0
  0
VERTEX
  5
   693
  8
0
  6
CONTINUOUS
 10
89.8363875042812
 20
161.141163407211
 30
0.0
 40
0.0
 41
0.0
  0
VERTEX
  5
   694
  8
0
  6
CONTINUOUS
 10
89.8342791573198
 20
161.058130386375
 30
0.0
 40
0.0
 41
0.0
  0
VERTEX
  5
   695
  8
0
  6
CONTINUOUS
 10
89.8297505974783
 20
160.975505733124
 30
0.0
 40
0.0
 41
0.0
  0
VERTEX
  5
   696
  8
0
  6
CONTINUOUS
 10
89.8264882147851
 20
160.934383224954
 30
0.0
 40
0.0
 41
0.0
  0
VERTEX
  5
   697
  8
0
  6
CONTINUOUS
 10
89.8225164550597
 20
160.893406577735
 30
0.0
 40
0.0
 41
0.0
  0
VERTEX
  5
   698
  8
0
  6
CONTINUOUS
 10
89.8178052708229
 20
160.852590087144
 30
0.0
 40
0.0
 41
0.0
  0
VERTEX
  5
   699
  8
0
  6
CONTINUOUS
 10
89.8123271290953
 20
160.811947871513
 30
0.0
 40
0.0
 41
0.0
  0
VERTEX
  5
   69A
  8
0
  6
CONTINUOUS
 10
89.8060571508741
 20
160.771493851262
 30
0.0
 40
0.0
 41
0.0
  0
VERTEX
  5
   69B
  8
0
  6
CONTINUOUS
 10
89.7989732506104
 20
160.731241728311
 30
0.0
 40
0.0
 41
0.0
  0
VERTEX
  5
   69C
  8
0
  6
CONTINUOUS
 10
89.791056275686
 20
160.691204965509
 30
0.0
 40
0.0
 41
0.0
  0
VERTEX
  5
   69D
  8
0
  6
CONTINUOUS
 10
89.7822901458908
 20
160.651396766057
 30
0.0
 40
0.0
 41
0.0
  0
VERTEX
  5
   69E
  8
0
  6
CONTINUOUS
 10
89.7726619928994
 20
160.611830052925
 30
0.0
 40
0.0
 41
0.0
  0
VERTEX
  5
   69F
  8
0
  6
CONTINUOUS
 10
89.7621622997487
 20
160.572517448281
 30
0.0
 40
0.0
 41
0.0
  0
VERTEX
  5
   6A0
  8
0
  6
CONTINUOUS
 10
89.7462886380344
 20
160.518890284111
 30
0.0
 40
0.0
 41
0.0
  0
VERTEX
  5
   6A1
  8
0
  6
CONTINUOUS
 10
89.728750957826
 20
160.465797822597
 30
0.0
 40
0.0
 41
0.0
  0
VERTEX
  5
   6A2
  8
0
  6
CONTINUOUS
 10
89.7095565903696
 20
160.413269463004
 30
0.0
 40
0.0
 41
0.0
  0
VERTEX
  5
   6A3
  8
0
  6
CONTINUOUS
 10
89.6887240863124
 20
160.361332854358
 30
0.0
 40
0.0
 41
0.0
  0
VERTEX
  5
   6A4
  8
0
  6
CONTINUOUS
 10
89.6662823324299
 20
160.310013631933
 30
0.0
 40
0.0
 41
0.0
  0
VERTEX
  5
   6A5
  8
0
  6
CONTINUOUS
 10
89.642269668353
 20
160.259335153741
 30
0.0
 40
0.0
 41
0.0
  0
VERTEX
  5
   6A6
  8
0
  6
CONTINUOUS
 10
89.6167330032949
 20
160.209318237016
 30
0.0
 40
0.0
 41
0.0
  0
VERTEX
  5
   6A7
  8
0
  6
CONTINUOUS
 10
89.5897269327782
 20
160.159980894708
 30
0.0
 40
0.0
 41
0.0
  0
VERTEX
  5
   6A8
  8
0
  6
CONTINUOUS
 10
89.5613128553616
 20
160.111338071966
 30
0.0
 40
0.0
 41
0.0
  0
VERTEX
  5
   6A9
  8
0
  6
CONTINUOUS
 10
89.5315580893673
 20
160.063401382632
 30
0.0
 40
0.0
 41
0.0
  0
VERTEX
  5
   6AA
  8
0
  6
CONTINUOUS
 10
89.5005349896078
 20
160.016178845724
 30
0.0
 40
0.0
 41
0.0
  0
VERTEX
  5
   6AB
  8
0
  6
CONTINUOUS
 10
89.4683200641125
 20
159.969674621927
 30
0.0
 40
0.0
 41
0.0
  0
VERTEX
  5
   6AC
  8
0
  6
CONTINUOUS
 10
89.4349930908556
 20
159.923888750082
 30
0.0
 40
0.0
 41
0.0
  0
VERTEX
  5
   6AD
  8
0
  6
CONTINUOUS
 10
89.4006362344822
 20
159.878816883672
 30
0.0
 40
0.0
 41
0.0
  0
VERTEX
  5
   6AE
  8
0
  6
CONTINUOUS
 10
89.3653331630358
 20
159.834450027314
 30
0.0
 40
0.0
 41
0.0
  0
VERTEX
  5
   6AF
  8
0
  6
CONTINUOUS
 10
89.3291681646851
 20
159.790774273243
 30
0.0
 40
0.0
 41
0.0
  0
VERTEX
  5
   6B0
  8
0
  6
CONTINUOUS
 10
89.2922252644511
 20
159.747770537803
 30
0.0
 40
0.0
 41
0.0
  0
VERTEX
  5
   6B1
  8
0
  6
CONTINUOUS
 10
89.254587340934
 20
159.705414297934
 30
0.0
 40
0.0
 41
0.0
  0
VERTEX
  5
   6B2
  8
0
  6
CONTINUOUS
 10
89.2163352430401
 20
159.663675327664
 30
0.0
 40
0.0
 41
0.0
  0
VERTEX
  5
   6B3
  8
0
  6
CONTINUOUS
 10
89.1775469067091
 20
159.622517434592
 30
0.0
 40
0.0
 41
0.0
  0
VERTEX
  5
   6B4
  8
0
  6
CONTINUOUS
 10
89.1294040147632
 20
159.572823509301
 30
0.0
 40
0.0
 41
0.0
  0
VERTEX
  5
   6B5
  8
0
  6
CONTINUOUS
 10
89.0806947823354
 20
159.523846955506
 30
0.0
 40
0.0
 41
0.0
  0
VERTEX
  5
   6B6
  8
0
  6
CONTINUOUS
 10
88.9820433784018
 20
159.427621384367
 30
0.0
 40
0.0
 41
0.0
  0
VERTEX
  5
   6B7
  8
0
  6
CONTINUOUS
 10
88.7827246164339
 20
159.23860688987
 30
0.0
 40
0.0
 41
0.0
  0
VERTEX
  5
   6B8
  8
0
  6
CONTINUOUS
 10
88.683604888814
 20
159.143646914449
 30
0.0
 40
0.0
 41
0.0
  0
VERTEX
  5
   6B9
  8
0
  6
CONTINUOUS
 10
88.6345153853965
 20
159.095567882934
 30
0.0
 40
0.0
 41
0.0
  0
VERTEX
  5
   6BA
  8
0
  6
CONTINUOUS
 10
88.5858739283282
 20
159.046910779096
 30
0.0
 40
0.0
 41
0.0
  0
VERTEX
  5
   6BB
  8
0
  6
CONTINUOUS
 10
88.5377877670226
 20
158.997548816592
 30
0.0
 40
0.0
 41
0.0
  0
VERTEX
  5
   6BC
  8
0
  6
CONTINUOUS
 10
88.4903710065057
 20
158.947363275306
 30
0.0
 40
0.0
 41
0.0
  0
VERTEX
  5
   6BD
  8
0
  6
CONTINUOUS
 10
88.4437460571961
 20
158.896245392539
 30
0.0
 40
0.0
 41
0.0
  0
VERTEX
  5
   6BE
  8
0
  6
CONTINUOUS
 10
88.3980450846832
 20
158.844098254204
 30
0.0
 40
0.0
 41
0.0
  0
VERTEX
  5
   6BF
  8
0
  6
CONTINUOUS
 10
88.3534114595073
 20
158.790838686013
 30
0.0
 40
0.0
 41
0.0
  0
VERTEX
  5
   6C0
  8
0
  6
CONTINUOUS
 10
88.3100012069379
 20
158.736399144674
 30
0.0
 40
0.0
 41
0.0
  0
VERTEX
  5
   6C1
  8
0
  6
CONTINUOUS
 10
88.2679844567533
 20
158.680729609075
 30
0.0
 40
0.0
 41
0.0
  0
VERTEX
  5
   6C2
  8
0
  6
CONTINUOUS
 10
88.2275468930198
 20
158.623799471483
 30
0.0
 40
0.0
 41
0.0
  0
VERTEX
  5
   6C3
  8
0
  6
CONTINUOUS
 10
88.2010542043115
 20
158.584361467365
 30
0.0
 40
0.0
 41
0.0
  0
VERTEX
  5
   6C4
  8
0
  6
CONTINUOUS
 10
88.1754532380754
 20
158.54433874175
 30
0.0
 40
0.0
 41
0.0
  0
VERTEX
  5
   6C5
  8
0
  6
CONTINUOUS
 10
88.1508148538509
 20
158.503738826379
 30
0.0
 40
0.0
 41
0.0
  0
VERTEX
  5
   6C6
  8
0
  6
CONTINUOUS
 10
88.1272113341512
 20
158.462573443961
 30
0.0
 40
0.0
 41
0.0
  0
VERTEX
  5
   6C7
  8
0
  6
CONTINUOUS
 10
88.1047151231519
 20
158.420858123927
 30
0.0
 40
0.0
 41
0.0
  0
VERTEX
  5
   6C8
  8
0
  6
CONTINUOUS
 10
88.0833975653792
 20
158.378611818186
 30
0.0
 40
0.0
 41
0.0
  0
VERTEX
  5
   6C9
  8
0
  6
CONTINUOUS
 10
88.0633276443982
 20
158.335856516876
 30
0.0
 40
0.0
 41
0.0
  0
VERTEX
  5
   6CA
  8
0
  6
CONTINUOUS
 10
88.0445707215013
 20
158.292616864121
 30
0.0
 40
0.0
 41
0.0
  0
VERTEX
  5
   6CB
  8
0
  6
CONTINUOUS
 10
88.0271872743969
 20
158.248919773781
 30
0.0
 40
0.0
 41
0.0
  0
VERTEX
  5
   6CC
  8
0
  6
CONTINUOUS
 10
88.0112316358974
 20
158.204794045213
 30
0.0
 40
0.0
 41
0.0
  0
VERTEX
  5
   6CD
  8
0
  6
CONTINUOUS
 10
87.9967507326076
 20
158.160269979018
 30
0.0
 40
0.0
 41
0.0
  0
VERTEX
  5
   6CE
  8
0
  6
CONTINUOUS
 10
87.9837828236135
 20
158.115378992797
 30
0.0
 40
0.0
 41
0.0
  0
VERTEX
  5
   6CF
  8
0
  6
CONTINUOUS
 10
87.9723562391701
 20
158.070153236908
 30
0.0
 40
0.0
 41
0.0
  0
VERTEX
  5
   6D0
  8
0
  6
CONTINUOUS
 10
87.9624881193902
 20
158.024625210218
 30
0.0
 40
0.0
 41
0.0
  0
VERTEX
  5
   6D1
  8
0
  6
CONTINUOUS
 10
87.9541831529327
 20
157.978827375856
 30
0.0
 40
0.0
 41
0.0
  0
VERTEX
  5
   6D2
  8
0
  6
CONTINUOUS
 10
87.9474323156908
 20
157.932791776968
 30
0.0
 40
0.0
 41
0.0
  0
VERTEX
  5
   6D3
  8
0
  6
CONTINUOUS
 10
87.9422116094806
 20
157.886549652473
 30
0.0
 40
0.0
 41
0.0
  0
VERTEX
  5
   6D4
  8
0
  6
CONTINUOUS
 10
87.9384808007295
 20
157.840131052813
 30
0.0
 40
0.0
 41
0.0
  0
VERTEX
  5
   6D5
  8
0
  6
CONTINUOUS
 10
87.9361821591643
 20
157.793564455711
 30
0.0
 40
0.0
 41
0.0
  0
VERTEX
  5
   6D6
  8
0
  6
CONTINUOUS
 10
87.9352391964999
 20
157.746876381923
 30
0.0
 40
0.0
 41
0.0
  0
VERTEX
  5
   6D7
  8
0
  6
CONTINUOUS
 10
87.935383843846
 20
157.710364016033
 30
0.0
 40
0.0
 41
0.0
  0
VERTEX
  5
   6D8
  8
0
  6
CONTINUOUS
 10
87.9362415541634
 20
157.673802840468
 30
0.0
 40
0.0
 41
0.0
  0
VERTEX
  5
   6D9
  8
0
  6
CONTINUOUS
 10
87.9398428941488
 20
157.600571346241
 30
0.0
 40
0.0
 41
0.0
  0
VERTEX
  5
   6DA
  8
0
  6
CONTINUOUS
 10
87.9454772608696
 20
157.52724924532
 30
0.0
 40
0.0
 41
0.0
  0
VERTEX
  5
   6DB
  8
0
  6
CONTINUOUS
 10
87.9525005074375
 20
157.453894814428
 30
0.0
 40
0.0
 41
0.0
  0
VERTEX
  5
   6DC
  8
0
  6
CONTINUOUS
 10
87.9678907391949
 20
157.307298081983
 30
0.0
 40
0.0
 41
0.0
  0
VERTEX
  5
   6DD
  8
0
  6
CONTINUOUS
 10
87.9747954388153
 20
157.234159025785
 30
0.0
 40
0.0
 41
0.0
  0
VERTEX
  5
   6DE
  8
0
  6
CONTINUOUS
 10
87.9802126615259
 20
157.161201250035
 30
0.0
 40
0.0
 41
0.0
  0
VERTEX
  5
   6DF
  8
0
  6
CONTINUOUS
 10
87.9834689117913
 20
157.088491082479
 30
0.0
 40
0.0
 41
0.0
  0
VERTEX
  5
   6E0
  8
0
  6
CONTINUOUS
 10
87.9840937161473
 20
157.052252842336
 30
0.0
 40
0.0
 41
0.0
  0
VERTEX
  5
   6E1
  8
0
  6
CONTINUOUS
 10
87.9839571459198
 20
157.016107140624
 30
0.0
 40
0.0
 41
0.0
  0
VERTEX
  5
   6E2
  8
0
  6
CONTINUOUS
 10
87.9831349590145
 20
156.983740423048
 30
0.0
 40
0.0
 41
0.0
  0
VERTEX
  5
   6E3
  8
0
  6
CONTINUOUS
 10
87.9816093999307
 20
156.951467966348
 30
0.0
 40
0.0
 41
0.0
  0
VERTEX
  5
   6E4
  8
0
  6
CONTINUOUS
 10
87.9793451698618
 20
156.919300224716
 30
0.0
 40
0.0
 41
0.0
  0
VERTEX
  5
   6E5
  8
0
  6
CONTINUOUS
 10
87.9763113221653
 20
156.887248321101
 30
0.0
 40
0.0
 41
0.0
  0
VERTEX
  5
   6E6
  8
0
  6
CONTINUOUS
 10
87.9724811091625
 20
156.855323987308
 30
0.0
 40
0.0
 41
0.0
  0
VERTEX
  5
   6E7
  8
0
  6
CONTINUOUS
 10
87.9678318289363
 20
156.823539504101
 30
0.0
 40
0.0
 41
0.0
  0
VERTEX
  5
   6E8
  8
0
  6
CONTINUOUS
 10
87.9623446721306
 20
156.791907641305
 30
0.0
 40
0.0
 41
0.0
  0
VERTEX
  5
   6E9
  8
0
  6
CONTINUOUS
 10
87.9560045687486
 20
156.760441597905
 30
0.0
 40
0.0
 41
0.0
  0
VERTEX
  5
   6EA
  8
0
  6
CONTINUOUS
 10
87.9488000349517
 20
156.729154942151
 30
0.0
 40
0.0
 41
0.0
  0
VERTEX
  5
   6EB
  8
0
  6
CONTINUOUS
 10
87.940723019858
 20
156.698061551658
 30
0.0
 40
0.0
 41
0.0
  0
VERTEX
  5
   6EC
  8
0
  6
CONTINUOUS
 10
87.9317687523412
 20
156.667175553506
 30
0.0
 40
0.0
 41
0.0
  0
VERTEX
  5
   6ED
  8
0
  6
CONTINUOUS
 10
87.9219355878292
 20
156.636511264344
 30
0.0
 40
0.0
 41
0.0
  0
VERTEX
  5
   6EE
  8
0
  6
CONTINUOUS
 10
87.9112248551029
 20
156.606083130492
 30
0.0
 40
0.0
 41
0.0
  0
VERTEX
  5
   6EF
  8
0
  6
CONTINUOUS
 10
87.8996407030948
 20
156.575905668041
 30
0.0
 40
0.0
 41
0.0
  0
VERTEX
  5
   6F0
  8
0
  6
CONTINUOUS
 10
87.8871899476877
 20
156.545993402953
 30
0.0
 40
0.0
 41
0.0
  0
VERTEX
  5
   6F1
  8
0
  6
CONTINUOUS
 10
87.8738819185135
 20
156.516360811168
 30
0.0
 40
0.0
 41
0.0
  0
VERTEX
  5
   6F2
  8
0
  6
CONTINUOUS
 10
87.8597283057518
 20
156.487022258699
 30
0.0
 40
0.0
 41
0.0
  0
VERTEX
  5
   6F3
  8
0
  6
CONTINUOUS
 10
87.8447430069288
 20
156.457991941739
 30
0.0
 40
0.0
 41
0.0
  0
VERTEX
  5
   6F4
  8
0
  6
CONTINUOUS
 10
87.8289419737157
 20
156.42928382676
 30
0.0
 40
0.0
 41
0.0
  0
VERTEX
  5
   6F5
  8
0
  6
CONTINUOUS
 10
87.8123430587275
 20
156.400911590614
 30
0.0
 40
0.0
 41
0.0
  0
VERTEX
  5
   6F6
  8
0
  6
CONTINUOUS
 10
87.794965862322
 20
156.372888560637
 30
0.0
 40
0.0
 41
0.0
  0
VERTEX
  5
   6F7
  8
0
  6
CONTINUOUS
 10
87.7768315793981
 20
156.345227654749
 30
0.0
 40
0.0
 41
0.0
  0
VERTEX
  5
   6F8
  8
0
  6
CONTINUOUS
 10
87.7579628461947
 20
156.317941321555
 30
0.0
 40
0.0
 41
0.0
  0
VERTEX
  5
   6F9
  8
0
  6
CONTINUOUS
 10
87.7383835870895
 20
156.291041480447
 30
0.0
 40
0.0
 41
0.0
  0
VERTEX
  5
   6FA
  8
0
  6
CONTINUOUS
 10
87.7181188613972
 20
156.264539461709
 30
0.0
 40
0.0
 41
0.0
  0
VERTEX
  5
   6FB
  8
0
  6
CONTINUOUS
 10
87.6971947101691
 20
156.238445946613
 30
0.0
 40
0.0
 41
0.0
  0
VERTEX
  5
   6FC
  8
0
  6
CONTINUOUS
 10
87.6756380029909
 20
156.212770907523
 30
0.0
 40
0.0
 41
0.0
  0
VERTEX
  5
   6FD
  8
0
  6
CONTINUOUS
 10
87.653476284782
 20
156.187523547999
 30
0.0
 40
0.0
 41
0.0
  0
VERTEX
  5
   6FE
  8
0
  6
CONTINUOUS
 10
87.6307376225938
 20
156.162712242895
 30
0.0
 40
0.0
 41
0.0
  0
VERTEX
  5
   6FF
  8
0
  6
CONTINUOUS
 10
87.6074504524088
 20
156.138344478462
 30
0.0
 40
0.0
 41
0.0
  0
VERTEX
  5
   700
  8
0
  6
CONTINUOUS
 10
87.5593452574247
 20
156.090964714211
 30
0.0
 40
0.0
 41
0.0
  0
VERTEX
  5
   701
  8
0
  6
CONTINUOUS
 10
87.5093897446577
 20
156.045424097058
 30
0.0
 40
0.0
 41
0.0
  0
VERTEX
  5
   702
  8
0
  6
CONTINUOUS
 10
87.457809056947
 20
156.001744417674
 30
0.0
 40
0.0
 41
0.0
  0
VERTEX
  5
   703
  8
0
  6
CONTINUOUS
 10
87.404819532702
 20
155.959927498835
 30
0.0
 40
0.0
 41
0.0
  0
VERTEX
  5
   704
  8
0
  6
CONTINUOUS
 10
87.3506238034602
 20
155.919953278674
 30
0.0
 40
0.0
 41
0.0
  0
VERTEX
  5
   705
  8
0
  6
CONTINUOUS
 10
87.3035246194961
 20
155.887241512978
 30
0.0
 40
0.0
 41
0.0
  0
VERTEX
  5
   706
  8
0
  6
CONTINUOUS
 10
87.2557823506549
 20
155.855800528708
 30
0.0
 40
0.0
 41
0.0
  0
VERTEX
  5
   707
  8
0
  6
CONTINUOUS
 10
87.207487435368
 20
155.825576223852
 30
0.0
 40
0.0
 41
0.0
  0
VERTEX
  5
   708
  8
0
  6
CONTINUOUS
 10
87.1587196272187
 20
155.796503134786
 30
0.0
 40
0.0
 41
0.0
  0
VERTEX
  5
   709
  8
0
  6
CONTINUOUS
 10
87.1095489056827
 20
155.768505595433
 30
0.0
 40
0.0
 41
0.0
  0
VERTEX
  5
   70A
  8
0
  6
CONTINUOUS
 10
87.0600363868687
 20
155.741498896432
 30
0.0
 40
0.0
 41
0.0
  0
VERTEX
  5
   70B
  8
0
  6
CONTINUOUS
 10
87.0102352342588
 20
155.7153904443
 30
0.0
 40
0.0
 41
0.0
  0
VERTEX
  5
   70C
  8
0
  6
CONTINUOUS
 10
86.9601915694486
 20
155.690080920601
 30
0.0
 40
0.0
 41
0.0
  0
VERTEX
  5
   70D
  8
0
  6
CONTINUOUS
 10
86.8595314446216
 20
155.641434714956
 30
0.0
 40
0.0
 41
0.0
  0
VERTEX
  5
   70E
  8
0
  6
CONTINUOUS
 10
86.7583187555641
 20
155.594675281141
 30
0.0
 40
0.0
 41
0.0
  0
VERTEX
  5
   70F
  8
0
  6
CONTINUOUS
 10
86.5550438871899
 20
155.503146765128
 30
0.0
 40
0.0
 41
0.0
  0
VERTEX
  5
   710
  8
0
  6
CONTINUOUS
 10
86.4533518550327
 20
155.456588995594
 30
0.0
 40
0.0
 41
0.0
  0
VERTEX
  5
   711
  8
0
  6
CONTINUOUS
 10
86.3519058403508
 20
155.408414809765
 30
0.0
 40
0.0
 41
0.0
  0
VERTEX
  5
   712
  8
0
  6
CONTINUOUS
 10
86.294337757326
 20
155.379986049043
 30
0.0
 40
0.0
 41
0.0
  0
VERTEX
  5
   713
  8
0
  6
CONTINUOUS
 10
86.2370032502005
 20
155.350703353142
 30
0.0
 40
0.0
 41
0.0
  0
VERTEX
  5
   714
  8
0
  6
CONTINUOUS
 10
86.1799749461163
 20
155.320476062114
 30
0.0
 40
0.0
 41
0.0
  0
VERTEX
  5
   715
  8
0
  6
CONTINUOUS
 10
86.1233334102073
 20
155.289227706418
 30
0.0
 40
0.0
 41
0.0
  0
VERTEX
  5
   716
  8
0
  6
CONTINUOUS
 10
86.0671663077365
 20
155.256895099769
 30
0.0
 40
0.0
 41
0.0
  0
VERTEX
  5
   717
  8
0
  6
CONTINUOUS
 10
86.0115675662319
 20
155.223427431988
 30
0.0
 40
0.0
 41
0.0
  0
VERTEX
  5
   718
  8
0
  6
CONTINUOUS
 10
85.9566365376229
 20
155.188785361847
 30
0.0
 40
0.0
 41
0.0
  0
VERTEX
  5
   719
  8
0
  6
CONTINUOUS
 10
85.9024771603765
 20
155.15294010992
 30
0.0
 40
0.0
 41
0.0
  0
VERTEX
  5
   71A
  8
0
  6
CONTINUOUS
 10
85.8491971216341
 20
155.115872551434
 30
0.0
 40
0.0
 41
0.0
  0
VERTEX
  5
   71B
  8
0
  6
CONTINUOUS
 10
85.7969070193471
 20
155.077572309111
 30
0.0
 40
0.0
 41
0.0
  0
VERTEX
  5
   71C
  8
0
  6
CONTINUOUS
 10
85.7457195244139
 20
155.038036846024
 30
0.0
 40
0.0
 41
0.0
  0
VERTEX
  5
   71D
  8
0
  6
CONTINUOUS
 10
85.6957485428158
 20
154.997270558441
 30
0.0
 40
0.0
 41
0.0
  0
VERTEX
  5
   71E
  8
0
  6
CONTINUOUS
 10
85.6471083777537
 20
154.955283868676
 30
0.0
 40
0.0
 41
0.0
  0
VERTEX
  5
   71F
  8
0
  6
CONTINUOUS
 10
85.5999128917839
 20
154.912092317935
 30
0.0
 40
0.0
 41
0.0
  0
VERTEX
  5
   720
  8
0
  6
CONTINUOUS
 10
85.554274668955
 20
154.867715659168
 30
0.0
 40
0.0
 41
0.0
  0
VERTEX
  5
   721
  8
0
  6
CONTINUOUS
 10
85.5103041769438
 20
154.822176949914
 30
0.0
 40
0.0
 41
0.0
  0
VERTEX
  5
   722
  8
0
  6
CONTINUOUS
 10
85.468108929192
 20
154.775501645153
 30
0.0
 40
0.0
 41
0.0
  0
VERTEX
  5
   723
  8
0
  6
CONTINUOUS
 10
85.4277926470421
 20
154.727716690154
 30
0.0
 40
0.0
 41
0.0
  0
VERTEX
  5
   724
  8
0
  6
CONTINUOUS
 10
85.389454421874
 20
154.678849613321
 30
0.0
 40
0.0
 41
0.0
  0
VERTEX
  5
   725
  8
0
  6
CONTINUOUS
 10
85.3531878772415
 20
154.628927619045
 30
0.0
 40
0.0
 41
0.0
  0
VERTEX
  5
   726
  8
0
  6
CONTINUOUS
 10
85.3233800928594
 20
154.584643395615
 30
0.0
 40
0.0
 41
0.0
  0
VERTEX
  5
   727
  8
0
  6
CONTINUOUS
 10
85.2952609324381
 20
154.539595863184
 30
0.0
 40
0.0
 41
0.0
  0
VERTEX
  5
   728
  8
0
  6
CONTINUOUS
 10
85.2688797768666
 20
154.493799803189
 30
0.0
 40
0.0
 41
0.0
  0
VERTEX
  5
   729
  8
0
  6
CONTINUOUS
 10
85.2442822127256
 20
154.4472688613
 30
0.0
 40
0.0
 41
0.0
  0
VERTEX
  5
   72A
  8
0
  6
CONTINUOUS
 10
85.2215101840058
 20
154.400015592832
 30
0.0
 40
0.0
 41
0.0
  0
VERTEX
  5
   72B
  8
0
  6
CONTINUOUS
 10
85.2006021438258
 20
154.352051508156
 30
0.0
 40
0.0
 41
0.0
  0
VERTEX
  5
   72C
  8
0
  6
CONTINUOUS
 10
85.1815932061502
 20
154.303387118118
 30
0.0
 40
0.0
 41
0.0
  0
VERTEX
  5
   72D
  8
0
  6
CONTINUOUS
 10
85.1645152975079
 20
154.254031979454
 30
0.0
 40
0.0
 41
0.0
  0
VERTEX
  5
   72E
  8
0
  6
CONTINUOUS
 10
85.14939730871
 20
154.203994740201
 30
0.0
 40
0.0
 41
0.0
  0
VERTEX
  5
   72F
  8
0
  6
CONTINUOUS
 10
85.1362652465678
 20
154.153283185112
 30
0.0
 40
0.0
 41
0.0
  0
SEQEND
  5
   730
  8
0
  6
CONTINUOUS
 62
     3
  0
LINE
  5
   731
  8
0
  6
CONTINUOUS
 62
     7
 10
112.919872642915
 20
154.153283218671
 30
0.0
 11
85.1362652465678
 21
154.153283218671
 31
0.0
  0
LINE
  5
   732
  8
0
  6
CONTINUOUS
 62
     7
 10
112.569872648875
 20
153.803283224632
 30
0.0
 11
112.569872648875
 21
154.153283218671
 31
0.0
  0
LINE
  5
   733
  8
0
  6
CONTINUOUS
 62
     3
 10
89.4173563222039
 20
154.153283218671
 30
0.0
 11
89.4173563222039
 21
159.900500547069
 31
0.0
  0
LINE
  5
   734
  8
0
  6
CONTINUOUS
 62
     3
 10
88.1573568777192
 20
154.153283218671
 30
0.0
 11
88.1573568777192
 21
158.514738485372
 31
0.0
  0
LINE
  5
   735
  8
0
  6
CONTINUOUS
 62
     3
 10
86.8973574332345
 20
154.153283218671
 30
0.0
 11
86.8973574332345
 21
155.65937151846
 31
0.0
  0
LINE
  5
   736
  8
0
  6
CONTINUOUS
 62
     3
 10
85.6373579887497
 20
154.153283218671
 30
0.0
 11
85.6373579887497
 21
154.946569339828
 31
0.0
  0
POLYLINE
  5
   737
  8
0
  6
CONTINUOUS
 62
     3
 66
     1
 10
0.0
 20
0.0
 30
0.0
  0
VERTEX
  5
   738
  8
0
  6
CONTINUOUS
 10
90.3866076414807
 20
42.8532871210737
 30
0.0
 40
0.0
 41
0.0
  0
VERTEX
  5
   739
  8
0
  6
CONTINUOUS
 10
90.3315295822162
 20
42.8969301269584
 30
0.0
 40
0.0
 41
0.0
  0
VERTEX
  5
   73A
  8
0
  6
CONTINUOUS
 10
90.2793972116549
 20
42.9415426709676
 30
0.0
 40
0.0
 41
0.0
  0
VERTEX
  5
   73B
  8
0
  6
CONTINUOUS
 10
90.2302011241446
 20
42.9871224309273
 30
0.0
 40
0.0
 41
0.0
  0
VERTEX
  5
   73C
  8
0
  6
CONTINUOUS
 10
90.183928677895
 20
43.0336662856884
 30
0.0
 40
0.0
 41
0.0
  0
VERTEX
  5
   73D
  8
0
  6
CONTINUOUS
 10
90.1405635147449
 20
43.0811701965623
 30
0.0
 40
0.0
 41
0.0
  0
VERTEX
  5
   73E
  8
0
  6
CONTINUOUS
 10
90.1199649180293
 20
43.1052806308833
 30
0.0
 40
0.0
 41
0.0
  0
VERTEX
  5
   73F
  8
0
  6
CONTINUOUS
 10
90.1000850799293
 20
43.1296290887551
 30
0.0
 40
0.0
 41
0.0
  0
VERTEX
  5
   740
  8
0
  6
CONTINUOUS
 10
90.0809206965919
 20
43.1542147544848
 30
0.0
 40
0.0
 41
0.0
  0
VERTEX
  5
   741
  8
0
  6
CONTINUOUS
 10
90.0624681418472
 20
43.1790367328024
 30
0.0
 40
0.0
 41
0.0
  0
VERTEX
  5
   742
  8
0
  6
CONTINUOUS
 10
90.0447234522011
 20
43.2040940451555
 30
0.0
 40
0.0
 41
0.0
  0
VERTEX
  5
   743
  8
0
  6
CONTINUOUS
 10
90.0276823118283
 20
43.2293856260041
 30
0.0
 40
0.0
 41
0.0
  0
VERTEX
  5
   744
  8
0
  6
CONTINUOUS
 10
90.0113400375649
 20
43.2549103191155
 30
0.0
 40
0.0
 41
0.0
  0
VERTEX
  5
   745
  8
0
  6
CONTINUOUS
 10
89.9956915639011
 20
43.280666873859
 30
0.0
 40
0.0
 41
0.0
  0
VERTEX
  5
   746
  8
0
  6
CONTINUOUS
 10
89.9807314279737
 20
43.306653941501
 30
0.0
 40
0.0
 41
0.0
  0
VERTEX
  5
   747
  8
0
  6
CONTINUOUS
 10
89.9664537545594
 20
43.3328700714995
 30
0.0
 40
0.0
 41
0.0
  0
VERTEX
  5
   748
  8
0
  6
CONTINUOUS
 10
89.952852241067
 20
43.3593137077992
 30
0.0
 40
0.0
 41
0.0
  0
VERTEX
  5
   749
  8
0
  6
CONTINUOUS
 10
89.9399201425304
 20
43.3859831851263
 30
0.0
 40
0.0
 41
0.0
  0
VERTEX
  5
   74A
  8
0
  6
CONTINUOUS
 10
89.9160349085412
 20
43.4399924334432
 30
0.0
 40
0.0
 41
0.0
  0
VERTEX
  5
   74B
  8
0
  6
CONTINUOUS
 10
89.8947346750868
 20
43.4948821690917
 30
0.0
 40
0.0
 41
0.0
  0
VERTEX
  5
   74C
  8
0
  6
CONTINUOUS
 10
89.8759480261972
 20
43.5506347600856
 30
0.0
 40
0.0
 41
0.0
  0
VERTEX
  5
   74D
  8
0
  6
CONTINUOUS
 10
89.8595950272047
 20
43.607230471246
 30
0.0
 40
0.0
 41
0.0
  0
VERTEX
  5
   74E
  8
0
  6
CONTINUOUS
 10
89.8455867445111
 20
43.6646473456358
 30
0.0
 40
0.0
 41
0.0
  0
VERTEX
  5
   74F
  8
0
  6
CONTINUOUS
 10
89.8338247653551
 20
43.7228610859943
 30
0.0
 40
0.0
 41
0.0
  0
VERTEX
  5
   750
  8
0
  6
CONTINUOUS
 10
89.8242007175798
 20
43.7818449361721
 30
0.0
 40
0.0
 41
0.0
  0
VERTEX
  5
   751
  8
0
  6
CONTINUOUS
 10
89.8165957893998
 20
43.8415695625658
 30
0.0
 40
0.0
 41
0.0
  0
VERTEX
  5
   752
  8
0
  6
CONTINUOUS
 10
89.8108802491687
 20
43.9020029355524
 30
0.0
 40
0.0
 41
0.0
  0
VERTEX
  5
   753
  8
0
  6
CONTINUOUS
 10
89.806114400284
 20
43.9798928687023
 30
0.0
 40
0.0
 41
0.0
  0
VERTEX
  5
   754
  8
0
  6
CONTINUOUS
 10
89.8038623127514
 20
44.0587958089171
 30
0.0
 40
0.0
 41
0.0
  0
VERTEX
  5
   755
  8
0
  6
CONTINUOUS
 10
89.8037797806255
 20
44.1386262203879
 30
0.0
 40
0.0
 41
0.0
  0
VERTEX
  5
   756
  8
0
  6
CONTINUOUS
 10
89.8055003442296
 20
44.2192921861163
 30
0.0
 40
0.0
 41
0.0
  0
VERTEX
  5
   757
  8
0
  6
CONTINUOUS
 10
89.8086397534217
 20
44.300696066389
 30
0.0
 40
0.0
 41
0.0
  0
VERTEX
  5
   758
  8
0
  6
CONTINUOUS
 10
89.8128004308605
 20
44.3827351572517
 30
0.0
 40
0.0
 41
0.0
  0
VERTEX
  5
   759
  8
0
  6
CONTINUOUS
 10
89.8225554247135
 20
44.5482867845721
 30
0.0
 40
0.0
 41
0.0
  0
VERTEX
  5
   75A
  8
0
  6
CONTINUOUS
 10
89.8314877671865
 20
44.7150491736491
 30
0.0
 40
0.0
 41
0.0
  0
VERTEX
  5
   75B
  8
0
  6
CONTINUOUS
 10
89.8346371023949
 20
44.7985926029182
 30
0.0
 40
0.0
 41
0.0
  0
VERTEX
  5
   75C
  8
0
  6
CONTINUOUS
 10
89.8363923135213
 20
44.8820855445528
 30
0.0
 40
0.0
 41
0.0
  0
VERTEX
  5
   75D
  8
0
  6
CONTINUOUS
 10
89.8363875042812
 20
44.9654082821919
 30
0.0
 40
0.0
 41
0.0
  0
VERTEX
  5
   75E
  8
0
  6
CONTINUOUS
 10
89.8342791573198
 20
45.0484413030275
 30
0.0
 40
0.0
 41
0.0
  0
VERTEX
  5
   75F
  8
0
  6
CONTINUOUS
 10
89.8297505974783
 20
45.1310659562789
 30
0.0
 40
0.0
 41
0.0
  0
VERTEX
  5
   760
  8
0
  6
CONTINUOUS
 10
89.8264882147851
 20
45.1721884644486
 30
0.0
 40
0.0
 41
0.0
  0
VERTEX
  5
   761
  8
0
  6
CONTINUOUS
 10
89.8225164550597
 20
45.2131651116672
 30
0.0
 40
0.0
 41
0.0
  0
VERTEX
  5
   762
  8
0
  6
CONTINUOUS
 10
89.8178052708229
 20
45.253981602259
 30
0.0
 40
0.0
 41
0.0
  0
VERTEX
  5
   763
  8
0
  6
CONTINUOUS
 10
89.8123271290953
 20
45.2946238178891
 30
0.0
 40
0.0
 41
0.0
  0
VERTEX
  5
   764
  8
0
  6
CONTINUOUS
 10
89.8060571508741
 20
45.3350778381405
 30
0.0
 40
0.0
 41
0.0
  0
VERTEX
  5
   765
  8
0
  6
CONTINUOUS
 10
89.7989732506104
 20
45.3753299610916
 30
0.0
 40
0.0
 41
0.0
  0
VERTEX
  5
   766
  8
0
  6
CONTINUOUS
 10
89.791056275686
 20
45.415366723893
 30
0.0
 40
0.0
 41
0.0
  0
VERTEX
  5
   767
  8
0
  6
CONTINUOUS
 10
89.7822901458908
 20
45.4551749233458
 30
0.0
 40
0.0
 41
0.0
  0
VERTEX
  5
   768
  8
0
  6
CONTINUOUS
 10
89.7726619928994
 20
45.4947416364777
 30
0.0
 40
0.0
 41
0.0
  0
VERTEX
  5
   769
  8
0
  6
CONTINUOUS
 10
89.7621622997487
 20
45.5340542411214
 30
0.0
 40
0.0
 41
0.0
  0
VERTEX
  5
   76A
  8
0
  6
CONTINUOUS
 10
89.7462886380344
 20
45.5876814052913
 30
0.0
 40
0.0
 41
0.0
  0
VERTEX
  5
   76B
  8
0
  6
CONTINUOUS
 10
89.728750957826
 20
45.6407738668059
 30
0.0
 40
0.0
 41
0.0
  0
VERTEX
  5
   76C
  8
0
  6
CONTINUOUS
 10
89.7095565903696
 20
45.6933022263991
 30
0.0
 40
0.0
 41
0.0
  0
VERTEX
  5
   76D
  8
0
  6
CONTINUOUS
 10
89.6887240863124
 20
45.745238835045
 30
0.0
 40
0.0
 41
0.0
  0
VERTEX
  5
   76E
  8
0
  6
CONTINUOUS
 10
89.6662823324299
 20
45.7965580574696
 30
0.0
 40
0.0
 41
0.0
  0
VERTEX
  5
   76F
  8
0
  6
CONTINUOUS
 10
89.642269668353
 20
45.847236535662
 30
0.0
 40
0.0
 41
0.0
  0
VERTEX
  5
   770
  8
0
  6
CONTINUOUS
 10
89.6167330032949
 20
45.8972534523868
 30
0.0
 40
0.0
 41
0.0
  0
VERTEX
  5
   771
  8
0
  6
CONTINUOUS
 10
89.5897269327782
 20
45.9465907946951
 30
0.0
 40
0.0
 41
0.0
  0
VERTEX
  5
   772
  8
0
  6
CONTINUOUS
 10
89.5613128553616
 20
45.9952336174366
 30
0.0
 40
0.0
 41
0.0
  0
VERTEX
  5
   773
  8
0
  6
CONTINUOUS
 10
89.5315580893673
 20
46.0431703067707
 30
0.0
 40
0.0
 41
0.0
  0
VERTEX
  5
   774
  8
0
  6
CONTINUOUS
 10
89.5005349896078
 20
46.0903928436789
 30
0.0
 40
0.0
 41
0.0
  0
VERTEX
  5
   775
  8
0
  6
CONTINUOUS
 10
89.4683200641125
 20
46.1368970674758
 30
0.0
 40
0.0
 41
0.0
  0
VERTEX
  5
   776
  8
0
  6
CONTINUOUS
 10
89.4349930908556
 20
46.1826829393208
 30
0.0
 40
0.0
 41
0.0
  0
VERTEX
  5
   777
  8
0
  6
CONTINUOUS
 10
89.4006362344822
 20
46.2277548057302
 30
0.0
 40
0.0
 41
0.0
  0
VERTEX
  5
   778
  8
0
  6
CONTINUOUS
 10
89.3653331630358
 20
46.2721216620884
 30
0.0
 40
0.0
 41
0.0
  0
VERTEX
  5
   779
  8
0
  6
CONTINUOUS
 10
89.3291681646851
 20
46.3157974161597
 30
0.0
 40
0.0
 41
0.0
  0
VERTEX
  5
   77A
  8
0
  6
CONTINUOUS
 10
89.2922252644511
 20
46.3588011516
 30
0.0
 40
0.0
 41
0.0
  0
VERTEX
  5
   77B
  8
0
  6
CONTINUOUS
 10
89.254587340934
 20
46.4011573914683
 30
0.0
 40
0.0
 41
0.0
  0
VERTEX
  5
   77C
  8
0
  6
CONTINUOUS
 10
89.2163352430401
 20
46.4428963617384
 30
0.0
 40
0.0
 41
0.0
  0
VERTEX
  5
   77D
  8
0
  6
CONTINUOUS
 10
89.1775469067091
 20
46.4840542548108
 30
0.0
 40
0.0
 41
0.0
  0
VERTEX
  5
   77E
  8
0
  6
CONTINUOUS
 10
89.1294040147632
 20
46.5337481801022
 30
0.0
 40
0.0
 41
0.0
  0
VERTEX
  5
   77F
  8
0
  6
CONTINUOUS
 10
89.0806947823354
 20
46.5827247338966
 30
0.0
 40
0.0
 41
0.0
  0
VERTEX
  5
   780
  8
0
  6
CONTINUOUS
 10
88.9820433784018
 20
46.6789503050354
 30
0.0
 40
0.0
 41
0.0
  0
VERTEX
  5
   781
  8
0
  6
CONTINUOUS
 10
88.7827246164339
 20
46.8679647995323
 30
0.0
 40
0.0
 41
0.0
  0
VERTEX
  5
   782
  8
0
  6
CONTINUOUS
 10
88.683604888814
 20
46.9629247749535
 30
0.0
 40
0.0
 41
0.0
  0
VERTEX
  5
   783
  8
0
  6
CONTINUOUS
 10
88.6345153853965
 20
47.0110038064684
 30
0.0
 40
0.0
 41
0.0
  0
VERTEX
  5
   784
  8
0
  6
CONTINUOUS
 10
88.5858739283282
 20
47.0596609103062
 30
0.0
 40
0.0
 41
0.0
  0
VERTEX
  5
   785
  8
0
  6
CONTINUOUS
 10
88.5377877670226
 20
47.1090228728104
 30
0.0
 40
0.0
 41
0.0
  0
VERTEX
  5
   786
  8
0
  6
CONTINUOUS
 10
88.4903710065057
 20
47.159208414097
 30
0.0
 40
0.0
 41
0.0
  0
VERTEX
  5
   787
  8
0
  6
CONTINUOUS
 10
88.4437460571961
 20
47.2103262968639
 30
0.0
 40
0.0
 41
0.0
  0
VERTEX
  5
   788
  8
0
  6
CONTINUOUS
 10
88.3980450846832
 20
47.2624734351991
 30
0.0
 40
0.0
 41
0.0
  0
VERTEX
  5
   789
  8
0
  6
CONTINUOUS
 10
88.3534114595073
 20
47.3157330033893
 30
0.0
 40
0.0
 41
0.0
  0
VERTEX
  5
   78A
  8
0
  6
CONTINUOUS
 10
88.3100012069379
 20
47.3701725447286
 30
0.0
 40
0.0
 41
0.0
  0
VERTEX
  5
   78B
  8
0
  6
CONTINUOUS
 10
88.2679844567533
 20
47.4258420803273
 30
0.0
 40
0.0
 41
0.0
  0
VERTEX
  5
   78C
  8
0
  6
CONTINUOUS
 10
88.2275468930198
 20
47.4827722179202
 30
0.0
 40
0.0
 41
0.0
  0
VERTEX
  5
   78D
  8
0
  6
CONTINUOUS
 10
88.2010542043115
 20
47.5222102220377
 30
0.0
 40
0.0
 41
0.0
  0
VERTEX
  5
   78E
  8
0
  6
CONTINUOUS
 10
88.1754532380754
 20
47.5622329476525
 30
0.0
 40
0.0
 41
0.0
  0
VERTEX
  5
   78F
  8
0
  6
CONTINUOUS
 10
88.1508148538509
 20
47.6028328630236
 30
0.0
 40
0.0
 41
0.0
  0
VERTEX
  5
   790
  8
0
  6
CONTINUOUS
 10
88.1272113341512
 20
47.6439982454419
 30
0.0
 40
0.0
 41
0.0
  0
VERTEX
  5
   791
  8
0
  6
CONTINUOUS
 10
88.1047151231519
 20
47.6857135654756
 30
0.0
 40
0.0
 41
0.0
  0
VERTEX
  5
   792
  8
0
  6
CONTINUOUS
 10
88.0833975653792
 20
47.7279598712168
 30
0.0
 40
0.0
 41
0.0
  0
VERTEX
  5
   793
  8
0
  6
CONTINUOUS
 10
88.0633276443982
 20
47.7707151725267
 30
0.0
 40
0.0
 41
0.0
  0
VERTEX
  5
   794
  8
0
  6
CONTINUOUS
 10
88.0445707215013
 20
47.8139548252822
 30
0.0
 40
0.0
 41
0.0
  0
VERTEX
  5
   795
  8
0
  6
CONTINUOUS
 10
88.0271872743969
 20
47.8576519156212
 30
0.0
 40
0.0
 41
0.0
  0
VERTEX
  5
   796
  8
0
  6
CONTINUOUS
 10
88.0112316358974
 20
47.9017776441893
 30
0.0
 40
0.0
 41
0.0
  0
VERTEX
  5
   797
  8
0
  6
CONTINUOUS
 10
87.9967507326076
 20
47.9463017103849
 30
0.0
 40
0.0
 41
0.0
  0
VERTEX
  5
   798
  8
0
  6
CONTINUOUS
 10
87.9837828236135
 20
47.9911926966056
 30
0.0
 40
0.0
 41
0.0
  0
VERTEX
  5
   799
  8
0
  6
CONTINUOUS
 10
87.9723562391701
 20
48.0364184524942
 30
0.0
 40
0.0
 41
0.0
  0
VERTEX
  5
   79A
  8
0
  6
CONTINUOUS
 10
87.9624881193902
 20
48.0819464791843
 30
0.0
 40
0.0
 41
0.0
  0
VERTEX
  5
   79B
  8
0
  6
CONTINUOUS
 10
87.9541831529327
 20
48.1277443135466
 30
0.0
 40
0.0
 41
0.0
  0
VERTEX
  5
   79C
  8
0
  6
CONTINUOUS
 10
87.9474323156908
 20
48.1737799124343
 30
0.0
 40
0.0
 41
0.0
  0
VERTEX
  5
   79D
  8
0
  6
CONTINUOUS
 10
87.9422116094806
 20
48.2200220369297
 30
0.0
 40
0.0
 41
0.0
  0
VERTEX
  5
   79E
  8
0
  6
CONTINUOUS
 10
87.9384808007295
 20
48.2664406365897
 30
0.0
 40
0.0
 41
0.0
  0
VERTEX
  5
   79F
  8
0
  6
CONTINUOUS
 10
87.9361821591643
 20
48.3130072336916
 30
0.0
 40
0.0
 41
0.0
  0
VERTEX
  5
   7A0
  8
0
  6
CONTINUOUS
 10
87.9352391964999
 20
48.3596953074797
 30
0.0
 40
0.0
 41
0.0
  0
VERTEX
  5
   7A1
  8
0
  6
CONTINUOUS
 10
87.935383843846
 20
48.3962076733694
 30
0.0
 40
0.0
 41
0.0
  0
VERTEX
  5
   7A2
  8
0
  6
CONTINUOUS
 10
87.9362415541634
 20
48.4327688489345
 30
0.0
 40
0.0
 41
0.0
  0
VERTEX
  5
   7A3
  8
0
  6
CONTINUOUS
 10
87.9398428941488
 20
48.5060003431616
 30
0.0
 40
0.0
 41
0.0
  0
VERTEX
  5
   7A4
  8
0
  6
CONTINUOUS
 10
87.9454772608696
 20
48.5793224440832
 30
0.0
 40
0.0
 41
0.0
  0
VERTEX
  5
   7A5
  8
0
  6
CONTINUOUS
 10
87.9525005074375
 20
48.6526768749749
 30
0.0
 40
0.0
 41
0.0
  0
VERTEX
  5
   7A6
  8
0
  6
CONTINUOUS
 10
87.9678907391949
 20
48.7992736074201
 30
0.0
 40
0.0
 41
0.0
  0
VERTEX
  5
   7A7
  8
0
  6
CONTINUOUS
 10
87.9747954388153
 20
48.8724126636175
 30
0.0
 40
0.0
 41
0.0
  0
VERTEX
  5
   7A8
  8
0
  6
CONTINUOUS
 10
87.9802126615259
 20
48.9453704393676
 30
0.0
 40
0.0
 41
0.0
  0
VERTEX
  5
   7A9
  8
0
  6
CONTINUOUS
 10
87.9834689117913
 20
49.0180806069241
 30
0.0
 40
0.0
 41
0.0
  0
VERTEX
  5
   7AA
  8
0
  6
CONTINUOUS
 10
87.9840937161473
 20
49.0543188470671
 30
0.0
 40
0.0
 41
0.0
  0
VERTEX
  5
   7AB
  8
0
  6
CONTINUOUS
 10
87.9839571459198
 20
49.0904645487792
 30
0.0
 40
0.0
 41
0.0
  0
VERTEX
  5
   7AC
  8
0
  6
CONTINUOUS
 10
87.9831349590145
 20
49.122831266355
 30
0.0
 40
0.0
 41
0.0
  0
VERTEX
  5
   7AD
  8
0
  6
CONTINUOUS
 10
87.9816093999307
 20
49.1551037230552
 30
0.0
 40
0.0
 41
0.0
  0
VERTEX
  5
   7AE
  8
0
  6
CONTINUOUS
 10
87.9793451698618
 20
49.187271464687
 30
0.0
 40
0.0
 41
0.0
  0
VERTEX
  5
   7AF
  8
0
  6
CONTINUOUS
 10
87.9763113221653
 20
49.2193233683021
 30
0.0
 40
0.0
 41
0.0
  0
VERTEX
  5
   7B0
  8
0
  6
CONTINUOUS
 10
87.9724811091625
 20
49.2512477020949
 30
0.0
 40
0.0
 41
0.0
  0
VERTEX
  5
   7B1
  8
0
  6
CONTINUOUS
 10
87.9678318289363
 20
49.2830321853015
 30
0.0
 40
0.0
 41
0.0
  0
VERTEX
  5
   7B2
  8
0
  6
CONTINUOUS
 10
87.9623446721306
 20
49.3146640480976
 30
0.0
 40
0.0
 41
0.0
  0
VERTEX
  5
   7B3
  8
0
  6
CONTINUOUS
 10
87.9560045687486
 20
49.3461300914974
 30
0.0
 40
0.0
 41
0.0
  0
VERTEX
  5
   7B4
  8
0
  6
CONTINUOUS
 10
87.9488000349517
 20
49.3774167472514
 30
0.0
 40
0.0
 41
0.0
  0
VERTEX
  5
   7B5
  8
0
  6
CONTINUOUS
 10
87.940723019858
 20
49.408510137745
 30
0.0
 40
0.0
 41
0.0
  0
VERTEX
  5
   7B6
  8
0
  6
CONTINUOUS
 10
87.9317687523412
 20
49.4393961358972
 30
0.0
 40
0.0
 41
0.0
  0
VERTEX
  5
   7B7
  8
0
  6
CONTINUOUS
 10
87.9219355878292
 20
49.4700604250587
 30
0.0
 40
0.0
 41
0.0
  0
VERTEX
  5
   7B8
  8
0
  6
CONTINUOUS
 10
87.9112248551029
 20
49.5004885589105
 30
0.0
 40
0.0
 41
0.0
  0
VERTEX
  5
   7B9
  8
0
  6
CONTINUOUS
 10
87.8996407030948
 20
49.5306660213619
 30
0.0
 40
0.0
 41
0.0
  0
VERTEX
  5
   7BA
  8
0
  6
CONTINUOUS
 10
87.8871899476877
 20
49.5605782864494
 30
0.0
 40
0.0
 41
0.0
  0
VERTEX
  5
   7BB
  8
0
  6
CONTINUOUS
 10
87.8738819185135
 20
49.5902108782347
 30
0.0
 40
0.0
 41
0.0
  0
VERTEX
  5
   7BC
  8
0
  6
CONTINUOUS
 10
87.8597283057518
 20
49.6195494307035
 30
0.0
 40
0.0
 41
0.0
  0
VERTEX
  5
   7BD
  8
0
  6
CONTINUOUS
 10
87.8447430069288
 20
49.6485797476633
 30
0.0
 40
0.0
 41
0.0
  0
VERTEX
  5
   7BE
  8
0
  6
CONTINUOUS
 10
87.8289419737157
 20
49.6772878626425
 30
0.0
 40
0.0
 41
0.0
  0
VERTEX
  5
   7BF
  8
0
  6
CONTINUOUS
 10
87.8123430587275
 20
49.7056600987883
 30
0.0
 40
0.0
 41
0.0
  0
VERTEX
  5
   7C0
  8
0
  6
CONTINUOUS
 10
87.794965862322
 20
49.7336831287653
 30
0.0
 40
0.0
 41
0.0
  0
VERTEX
  5
   7C1
  8
0
  6
CONTINUOUS
 10
87.7768315793981
 20
49.7613440346537
 30
0.0
 40
0.0
 41
0.0
  0
VERTEX
  5
   7C2
  8
0
  6
CONTINUOUS
 10
87.7579628461947
 20
49.7886303678481
 30
0.0
 40
0.0
 41
0.0
  0
VERTEX
  5
   7C3
  8
0
  6
CONTINUOUS
 10
87.7383835870895
 20
49.8155302089555
 30
0.0
 40
0.0
 41
0.0
  0
VERTEX
  5
   7C4
  8
0
  6
CONTINUOUS
 10
87.7181188613972
 20
49.8420322276937
 30
0.0
 40
0.0
 41
0.0
  0
VERTEX
  5
   7C5
  8
0
  6
CONTINUOUS
 10
87.6971947101691
 20
49.8681257427902
 30
0.0
 40
0.0
 41
0.0
  0
VERTEX
  5
   7C6
  8
0
  6
CONTINUOUS
 10
87.6756380029909
 20
49.8938007818799
 30
0.0
 40
0.0
 41
0.0
  0
VERTEX
  5
   7C7
  8
0
  6
CONTINUOUS
 10
87.653476284782
 20
49.919048141404
 30
0.0
 40
0.0
 41
0.0
  0
VERTEX
  5
   7C8
  8
0
  6
CONTINUOUS
 10
87.6307376225938
 20
49.9438594465081
 30
0.0
 40
0.0
 41
0.0
  0
VERTEX
  5
   7C9
  8
0
  6
CONTINUOUS
 10
87.6074504524088
 20
49.968227210941
 30
0.0
 40
0.0
 41
0.0
  0
VERTEX
  5
   7CA
  8
0
  6
CONTINUOUS
 10
87.5593452574247
 20
50.0156069751923
 30
0.0
 40
0.0
 41
0.0
  0
VERTEX
  5
   7CB
  8
0
  6
CONTINUOUS
 10
87.5093897446577
 20
50.0611475923444
 30
0.0
 40
0.0
 41
0.0
  0
VERTEX
  5
   7CC
  8
0
  6
CONTINUOUS
 10
87.457809056947
 20
50.1048272717283
 30
0.0
 40
0.0
 41
0.0
  0
VERTEX
  5
   7CD
  8
0
  6
CONTINUOUS
 10
87.404819532702
 20
50.1466441905679
 30
0.0
 40
0.0
 41
0.0
  0
VERTEX
  5
   7CE
  8
0
  6
CONTINUOUS
 10
87.3506238034602
 20
50.1866184107286
 30
0.0
 40
0.0
 41
0.0
  0
VERTEX
  5
   7CF
  8
0
  6
CONTINUOUS
 10
87.3035246194961
 20
50.2193301764245
 30
0.0
 40
0.0
 41
0.0
  0
VERTEX
  5
   7D0
  8
0
  6
CONTINUOUS
 10
87.2557823506549
 20
50.2507711606949
 30
0.0
 40
0.0
 41
0.0
  0
VERTEX
  5
   7D1
  8
0
  6
CONTINUOUS
 10
87.207487435368
 20
50.2809954655505
 30
0.0
 40
0.0
 41
0.0
  0
VERTEX
  5
   7D2
  8
0
  6
CONTINUOUS
 10
87.1587196272187
 20
50.3100685546168
 30
0.0
 40
0.0
 41
0.0
  0
VERTEX
  5
   7D3
  8
0
  6
CONTINUOUS
 10
87.1095489056827
 20
50.3380660939699
 30
0.0
 40
0.0
 41
0.0
  0
VERTEX
  5
   7D4
  8
0
  6
CONTINUOUS
 10
87.0600363868687
 20
50.3650727929711
 30
0.0
 40
0.0
 41
0.0
  0
VERTEX
  5
   7D5
  8
0
  6
CONTINUOUS
 10
87.0102352342588
 20
50.3911812451025
 30
0.0
 40
0.0
 41
0.0
  0
VERTEX
  5
   7D6
  8
0
  6
CONTINUOUS
 10
86.9601915694486
 20
50.4164907688021
 30
0.0
 40
0.0
 41
0.0
  0
VERTEX
  5
   7D7
  8
0
  6
CONTINUOUS
 10
86.8595314446216
 20
50.4651369744471
 30
0.0
 40
0.0
 41
0.0
  0
VERTEX
  5
   7D8
  8
0
  6
CONTINUOUS
 10
86.7583187555641
 20
50.5118964082622
 30
0.0
 40
0.0
 41
0.0
  0
VERTEX
  5
   7D9
  8
0
  6
CONTINUOUS
 10
86.5550438871899
 20
50.6034249242749
 30
0.0
 40
0.0
 41
0.0
  0
VERTEX
  5
   7DA
  8
0
  6
CONTINUOUS
 10
86.4533518550327
 20
50.6499826938092
 30
0.0
 40
0.0
 41
0.0
  0
VERTEX
  5
   7DB
  8
0
  6
CONTINUOUS
 10
86.3519058403508
 20
50.6981568796382
 30
0.0
 40
0.0
 41
0.0
  0
VERTEX
  5
   7DC
  8
0
  6
CONTINUOUS
 10
86.294337757326
 20
50.7265856403598
 30
0.0
 40
0.0
 41
0.0
  0
VERTEX
  5
   7DD
  8
0
  6
CONTINUOUS
 10
86.2370032502005
 20
50.7558683362608
 30
0.0
 40
0.0
 41
0.0
  0
VERTEX
  5
   7DE
  8
0
  6
CONTINUOUS
 10
86.1799749461163
 20
50.7860956272889
 30
0.0
 40
0.0
 41
0.0
  0
VERTEX
  5
   7DF
  8
0
  6
CONTINUOUS
 10
86.1233334102073
 20
50.8173439829848
 30
0.0
 40
0.0
 41
0.0
  0
VERTEX
  5
   7E0
  8
0
  6
CONTINUOUS
 10
86.0671663077365
 20
50.8496765896334
 30
0.0
 40
0.0
 41
0.0
  0
VERTEX
  5
   7E1
  8
0
  6
CONTINUOUS
 10
86.0115675662319
 20
50.8831442574147
 30
0.0
 40
0.0
 41
0.0
  0
VERTEX
  5
   7E2
  8
0
  6
CONTINUOUS
 10
85.9566365376229
 20
50.917786327556
 30
0.0
 40
0.0
 41
0.0
  0
VERTEX
  5
   7E3
  8
0
  6
CONTINUOUS
 10
85.9024771603765
 20
50.9536315794825
 30
0.0
 40
0.0
 41
0.0
  0
VERTEX
  5
   7E4
  8
0
  6
CONTINUOUS
 10
85.8491971216341
 20
50.9906991379692
 30
0.0
 40
0.0
 41
0.0
  0
VERTEX
  5
   7E5
  8
0
  6
CONTINUOUS
 10
85.7969070193471
 20
51.0289993802919
 30
0.0
 40
0.0
 41
0.0
  0
VERTEX
  5
   7E6
  8
0
  6
CONTINUOUS
 10
85.7457195244139
 20
51.0685348433788
 30
0.0
 40
0.0
 41
0.0
  0
VERTEX
  5
   7E7
  8
0
  6
CONTINUOUS
 10
85.6957485428158
 20
51.1093011309615
 30
0.0
 40
0.0
 41
0.0
  0
VERTEX
  5
   7E8
  8
0
  6
CONTINUOUS
 10
85.6471083777537
 20
51.1512878207267
 30
0.0
 40
0.0
 41
0.0
  0
VERTEX
  5
   7E9
  8
0
  6
CONTINUOUS
 10
85.5999128917839
 20
51.1944793714677
 30
0.0
 40
0.0
 41
0.0
  0
VERTEX
  5
   7EA
  8
0
  6
CONTINUOUS
 10
85.554274668955
 20
51.2388560302352
 30
0.0
 40
0.0
 41
0.0
  0
VERTEX
  5
   7EB
  8
0
  6
CONTINUOUS
 10
85.5103041769438
 20
51.284394739489
 30
0.0
 40
0.0
 41
0.0
  0
VERTEX
  5
   7EC
  8
0
  6
CONTINUOUS
 10
85.468108929192
 20
51.3310700442494
 30
0.0
 40
0.0
 41
0.0
  0
VERTEX
  5
   7ED
  8
0
  6
CONTINUOUS
 10
85.4277926470421
 20
51.3788549992485
 30
0.0
 40
0.0
 41
0.0
  0
VERTEX
  5
   7EE
  8
0
  6
CONTINUOUS
 10
85.389454421874
 20
51.4277220760814
 30
0.0
 40
0.0
 41
0.0
  0
VERTEX
  5
   7EF
  8
0
  6
CONTINUOUS
 10
85.3531878772415
 20
51.4776440703578
 30
0.0
 40
0.0
 41
0.0
  0
VERTEX
  5
   7F0
  8
0
  6
CONTINUOUS
 10
85.3233800928594
 20
51.5219282937874
 30
0.0
 40
0.0
 41
0.0
  0
VERTEX
  5
   7F1
  8
0
  6
CONTINUOUS
 10
85.2952609324381
 20
51.5669758262192
 30
0.0
 40
0.0
 41
0.0
  0
VERTEX
  5
   7F2
  8
0
  6
CONTINUOUS
 10
85.2688797768666
 20
51.6127718862139
 30
0.0
 40
0.0
 41
0.0
  0
VERTEX
  5
   7F3
  8
0
  6
CONTINUOUS
 10
85.2442822127256
 20
51.6593028281024
 30
0.0
 40
0.0
 41
0.0
  0
VERTEX
  5
   7F4
  8
0
  6
CONTINUOUS
 10
85.2215101840058
 20
51.706556096571
 30
0.0
 40
0.0
 41
0.0
  0
VERTEX
  5
   7F5
  8
0
  6
CONTINUOUS
 10
85.2006021438258
 20
51.7545201812472
 30
0.0
 40
0.0
 41
0.0
  0
VERTEX
  5
   7F6
  8
0
  6
CONTINUOUS
 10
85.1815932061502
 20
51.8031845712845
 30
0.0
 40
0.0
 41
0.0
  0
VERTEX
  5
   7F7
  8
0
  6
CONTINUOUS
 10
85.1645152975079
 20
51.8525397099486
 30
0.0
 40
0.0
 41
0.0
  0
VERTEX
  5
   7F8
  8
0
  6
CONTINUOUS
 10
85.14939730871
 20
51.9025769492022
 30
0.0
 40
0.0
 41
0.0
  0
VERTEX
  5
   7F9
  8
0
  6
CONTINUOUS
 10
85.1362652465678
 20
51.9532885042907
 30
0.0
 40
0.0
 41
0.0
  0
SEQEND
  5
   7FA
  8
0
  6
CONTINUOUS
 62
     3
  0
LINE
  5
   7FB
  8
0
  6
CONTINUOUS
 62
     7
 10
89.8327987917977
 20
43.7282868550001
 30
0.0
 11
89.032348185394
 21
43.7282868550001
 31
0.0
  0
LINE
  5
   7FC
  8
0
  6
CONTINUOUS
 62
     7
 10
89.032348185394
 20
43.7282868550001
 30
0.0
 11
89.032348185394
 21
44.7782868371187
 31
0.0
  0
LINE
  5
   7FD
  8
0
  6
CONTINUOUS
 62
     7
 10
89.2948481809237
 20
44.7782868371187
 30
0.0
 11
89.032348185394
 21
44.7782868371187
 31
0.0
  0
LINE
  5
   7FE
  8
0
  6
CONTINUOUS
 62
     7
 10
89.2948481809237
 20
44.7782868371187
 30
0.0
 11
89.2948481809237
 21
46.0032868162571
 31
0.0
  0
LINE
  5
   7FF
  8
0
  6
CONTINUOUS
 62
     7
 10
89.2948481809237
 20
46.0032868162571
 30
0.0
 11
87.544848210726
 21
46.0032868162571
 31
0.0
  0
LINE
  5
   800
  8
0
  6
CONTINUOUS
 62
     7
 10
87.544848210726
 20
44.7782868371187
 30
0.0
 11
87.544848210726
 21
46.0032868162571
 31
0.0
  0
LINE
  5
   801
  8
0
  6
CONTINUOUS
 62
     7
 10
87.8073482062556
 20
44.7782868371187
 30
0.0
 11
87.544848210726
 21
44.7782868371187
 31
0.0
  0
LINE
  5
   802
  8
0
  6
CONTINUOUS
 62
     7
 10
87.8073482062556
 20
43.7282868550001
 30
0.0
 11
87.8073482062556
 21
44.7782868371187
 31
0.0
  0
LINE
  5
   803
  8
0
  6
CONTINUOUS
 62
     7
 10
112.919872642915
 20
51.9532884707314
 30
0.0
 11
85.1362652465678
 21
51.9532884707314
 31
0.0
  0
LINE
  5
   804
  8
0
  6
CONTINUOUS
 62
     3
 10
85.6373579887497
 20
51.1600023495746
 30
0.0
 11
85.6373579887497
 21
51.9532884707314
 31
0.0
  0
LINE
  5
   805
  8
0
  6
CONTINUOUS
 62
     3
 10
86.8973574332345
 20
50.4472001709431
 30
0.0
 11
86.8973574332345
 21
51.9532884707314
 31
0.0
  0
LINE
  5
   806
  8
0
  6
CONTINUOUS
 62
     3
 10
88.1573568777192
 20
47.5918332040307
 30
0.0
 11
88.1573568777192
 21
51.9532884707314
 31
0.0
  0
LINE
  5
   807
  8
0
  6
CONTINUOUS
 62
     3
 10
89.4173563222039
 20
46.2060711423336
 30
0.0
 11
89.4173563222039
 21
51.9532884707314
 31
0.0
  0
LINE
  5
   808
  8
0
  6
CONTINUOUS
 62
     3
 10
90.6773557666886
 20
42.9620156583328
 30
0.0
 11
90.6773557666886
 21
51.9532884707314
 31
0.0
  0
LINE
  5
   809
  8
0
  6
CONTINUOUS
 62
     3
 10
91.9373552111733
 20
42.9620156583328
 30
0.0
 11
91.9373552111733
 21
51.9532884707314
 31
0.0
  0
LINE
  5
   80A
  8
0
  6
CONTINUOUS
 62
     3
 10
93.1973559908021
 20
42.9620156583328
 30
0.0
 11
93.1973559908021
 21
51.9532884707314
 31
0.0
  0
LINE
  5
   80B
  8
0
  6
CONTINUOUS
 62
     3
 10
94.4573554352868
 20
42.9620156583328
 30
0.0
 11
94.4573554352868
 21
51.9532884707314
 31
0.0
  0
LINE
  5
   80C
  8
0
  6
CONTINUOUS
 62
     3
 10
95.7173548797715
 20
42.9620156583328
 30
0.0
 11
95.7173548797715
 21
51.9532884707314
 31
0.0
  0
LINE
  5
   80D
  8
0
  6
CONTINUOUS
 62
     3
 10
96.9773556594003
 20
42.9620156583328
 30
0.0
 11
96.9773556594003
 21
51.9532884707314
 31
0.0
  0
LINE
  5
   80E
  8
0
  6
CONTINUOUS
 62
     3
 10
98.237355103885
 20
42.9620156583328
 30
0.0
 11
98.237355103885
 21
51.9532884707314
 31
0.0
  0
LINE
  5
   80F
  8
0
  6
CONTINUOUS
 62
     3
 10
99.4973545483697
 20
42.9620156583328
 30
0.0
 11
99.4973545483697
 21
51.9532884707314
 31
0.0
  0
LINE
  5
   810
  8
0
  6
CONTINUOUS
 62
     3
 10
100.757353992854
 20
42.9620156583328
 30
0.0
 11
100.757353992854
 21
51.9532884707314
 31
0.0
  0
LINE
  5
   811
  8
0
  6
CONTINUOUS
 62
     3
 10
102.017356107627
 20
42.9620156583328
 30
0.0
 11
102.017356107627
 21
51.9532884707314
 31
0.0
  0
LINE
  5
   812
  8
0
  6
CONTINUOUS
 62
     3
 10
103.277355552112
 20
42.9620156583328
 30
0.0
 11
103.277355552112
 21
51.9532884707314
 31
0.0
  0
LINE
  5
   813
  8
0
  6
CONTINUOUS
 62
     3
 10
104.537354996597
 20
42.9620156583328
 30
0.0
 11
104.537354996597
 21
51.9532884707314
 31
0.0
  0
LINE
  5
   814
  8
0
  6
CONTINUOUS
 62
     3
 10
105.797354441081
 20
42.9620156583328
 30
0.0
 11
105.797354441081
 21
51.9532884707314
 31
0.0
  0
LINE
  5
   815
  8
0
  6
CONTINUOUS
 62
     3
 10
107.057353885566
 20
42.9620156583328
 30
0.0
 11
107.057353885566
 21
51.9532884707314
 31
0.0
  0
LINE
  5
   816
  8
0
  6
CONTINUOUS
 62
     3
 10
108.317356000339
 20
42.9620156583328
 30
0.0
 11
108.317356000339
 21
51.9532884707314
 31
0.0
  0
LINE
  5
   817
  8
0
  6
CONTINUOUS
 62
     3
 10
109.577355444824
 20
42.9620156583328
 30
0.0
 11
109.577355444824
 21
51.9532884707314
 31
0.0
  0
LINE
  5
   818
  8
0
  6
CONTINUOUS
 62
     3
 10
110.837354889308
 20
42.9620156583328
 30
0.0
 11
110.837354889308
 21
51.9532884707314
 31
0.0
  0
LINE
  5
   819
  8
0
  6
CONTINUOUS
 62
     3
 10
112.097354333793
 20
42.9620156583328
 30
0.0
 11
112.097354333793
 21
51.9532884707314
 31
0.0
  0
LINE
  5
   81A
  8
0
  6
CONTINUOUS
 62
     3
 10
112.482353793179
 20
42.8532868699012
 30
0.0
 11
90.3866076414806
 21
42.8532868699012
 31
0.0
  0
LINE
  5
   81B
  8
0
  6
CONTINUOUS
 62
     3
 10
112.482355712391
 20
42.8532845528256
 30
0.0
 11
112.791713924446
 21
42.9814263376086
 31
0.0
  0
LINE
  5
   81C
  8
0
  6
CONTINUOUS
 62
     3
 10
112.791712864655
 20
42.9814246040559
 30
0.0
 11
112.919854649438
 21
43.2907828161112
 31
0.0
  0
LINE
  5
   81D
  8
0
  6
CONTINUOUS
 62
     7
 10
86.5823971659313
 20
51.9532884707314
 30
0.0
 11
86.5823971659313
 21
52.1283080742533
 31
0.0
  0
ARC
  5
   81E
  8
0
  6
CONTINUOUS
 62
     7
 10
88.4198976060495
 20
50.7283142312785
 30
0.0
 40
1.83749401361082
 50
184.357949911518
 51
241.56299252681
  0
LINE
  5
   81F
  8
0
  6
CONTINUOUS
 62
     7
 10
87.9370132766615
 20
48.4533081368381
 30
0.0
 11
87.54489714954
 21
48.4533081368381
 31
0.0
  0
INSERT
  5
   820
  8
0
  6
CONTINUOUS
 62
     7
  2
*UDIM733
 10
0.0
 20
0.0
 30
0.0
  0
INSERT
  5
   821
  8
0
  6
CONTINUOUS
 62
     7
  2
*UDIM734
 10
0.0
 20
0.0
 30
0.0
  0
INSERT
  5
   822
  8
0
  6
CONTINUOUS
 62
     7
  2
*UDIM735
 10
0.0
 20
0.0
 30
0.0
  0
INSERT
  5
   823
  8
0
  6
CONTINUOUS
 62
     7
  2
*UDIM736
 10
0.0
 20
0.0
 30
0.0
  0
INSERT
  5
   824
  8
0
  6
CONTINUOUS
 62
     7
  2
*UDIM737
 10
0.0
 20
0.0
 30
0.0
  0
INSERT
  5
   825
  8
0
  6
CONTINUOUS
 62
     7
  2
*UDIM738
 10
0.0
 20
0.0
 30
0.0
  0
INSERT
  5
   826
  8
0
  6
CONTINUOUS
 62
     7
  2
*UDIM739
 10
0.0
 20
0.0
 30
0.0
  0
INSERT
  5
   827
  8
0
  6
CONTINUOUS
 62
     7
  2
*UDIM740
 10
0.0
 20
0.0
 30
0.0
  0
INSERT
  5
   828
  8
0
  6
CONTINUOUS
 62
     7
  2
*UDIM741
 10
0.0
 20
0.0
 30
0.0
  0
TEXT
  5
   829
  8
0
  6
CONTINUOUS
 62
     7
 10
61.1757415162937
 20
80.6006723648786
 30
0.0
 40
2.99999997871263
  1
=    =
 50
89.9999999480344
 41
0.916666703091727
 72
     1
 11
59.6757415341605
 21
88.5756726315133
 31
0.0
 73
     2
  0
TEXT
  5
   82A
  8
0
  6
CONTINUOUS
 62
     7
 10
94.3515138829714
 20
22.6689267826044
 30
0.0
 40
2.99999997871263
  1
Y
 50
359.999999948034
 41
0.91666663951344
 72
     2
 11
96.5515138186836
 21
22.6689267806201
 31
0.0
  0
TEXT
  5
   82B
  8
0
  6
CONTINUOUS
 62
     7
 10
163.791381529283
 20
87.7579318885818
 30
0.0
 40
2.99999997871263
  1
X
 50
359.999999948034
 41
0.91666663951344
 72
     1
 11
164.891381498492
 21
89.257931876946
 31
0.0
 73
     2
  0
TEXT
  5
   82C
  8
0
  6
CONTINUOUS
 62
     7
 10
33.4338367521883
 20
87.0625835422692
 30
0.0
 40
2.99999997871263
  1
X
 50
359.999999948034
 41
0.91666663951344
 72
     1
 11
34.5338367213973
 21
88.5625835306334
 31
0.0
 73
     2
  0
TEXT
  5
   82D
  8
0
  6
CONTINUOUS
 62
     7
 10
93.5028207145711
 20
188.614545619002
 30
0.0
 40
2.99999997871263
  1
Y
 50
359.999999948034
 41
0.91666663951344
 72
     1
 11
94.6028206837801
 21
190.114545607366
 31
0.0
 73
     2
  0
LINE
  5
   82E
  8
0
  6
DASHDOT
 62
     7
 10
230.911697387695
 20
-13.5131213299551
 30
0.0
 11
230.911697387695
 21
-103.088673499317
 31
0.0
  0
LINE
  5
   82F
  8
0
  6
DASHDOT
 62
     7
 10
237.838585941253
 20
-20.1819152832031
 30
0.0
 11
218.560028985259
 21
-20.1819152832031
 31
0.0
  0
LINE
  5
   830
  8
0
  6
DASHDOT
 62
     7
 10
237.376793685041
 20
-96.0569152832031
 30
0.0
 11
219.406743939549
 21
-96.0569152832031
 31
0.0
  0
LINE
  5
   831
  8
0
  6
CONTINUOUS
 62
     7
 10
244.661697387695
 20
-15.1819152832031
 30
0.0
 11
244.661697387695
 21
-101.056915283203
 31
0.0
  0
LINE
  5
   832
  8
0
  6
CONTINUOUS
 62
     7
 10
217.161697387695
 20
-15.1819152832031
 30
0.0
 11
217.161697387695
 21
-101.056915283203
 31
0.0
  0
LINE
  5
   833
  8
0
  6
CONTINUOUS
 62
     7
 10
244.661697387695
 20
-101.056915283203
 30
0.0
 11
217.161697387695
 21
-101.056915283203
 31
0.0
  0
LINE
  5
   834
  8
0
  6
CONTINUOUS
 62
     7
 10
244.661697387695
 20
-15.1819152832031
 30
0.0
 11
217.161697387695
 21
-15.1819152832031
 31
0.0
  0
CIRCLE
  5
   835
  8
0
  6
CONTINUOUS
 62
     7
 10
226.536697387695
 20
-20.1819152832031
 30
0.0
 40
0.6875
  0
CIRCLE
  5
   836
  8
0
  6
CONTINUOUS
 62
     7
 10
235.286697387695
 20
-20.1819152832031
 30
0.0
 40
0.6875
  0
CIRCLE
  5
   837
  8
0
  6
CONTINUOUS
 62
     7
 10
226.536697387695
 20
-96.0569152832031
 30
0.0
 40
0.6875
  0
CIRCLE
  5
   838
  8
0
  6
CONTINUOUS
 62
     7
 10
235.286697387695
 20
-96.0569152832031
 30
0.0
 40
0.6875
  0
LINE
  5
   839
  8
0
  6
DASHDOT
 62
     7
 10
226.536697387695
 20
-13.4223583239261
 30
0.0
 11
226.536697387695
 21
-99.1584391320179
 31
0.0
  0
LINE
  5
   83A
  8
0
  6
DASHDOT
 62
     7
 10
235.286697387695
 20
-13.2408323118683
 30
0.0
 11
235.286697387695
 21
-98.8859779403571
 31
0.0
  0
LINE
  5
   83B
  8
0
  6
DASHDOT
 62
     7
 10
268.060323597769
 20
-68.8694152832031
 30
0.0
 11
205.364138122431
 21
-68.8694152832031
 31
0.0
  0
POINT
  5
   83C
  8
0
  6
CONTINUOUS
 62
     7
 10
230.911697387695
 20
-96.5569152832031
 30
0.0
  0
POINT
  5
   83D
  8
0
  6
CONTINUOUS
 62
     7
 10
230.911697387695
 20
-19.6819152832031
 30
0.0
  0
CIRCLE
  5
   83E
  8
0
  6
CONTINUOUS
 62
     7
 10
230.911697387695
 20
-19.6819152832031
 30
0.0
 40
3.0
  0
CIRCLE
  5
   83F
  8
0
  6
CONTINUOUS
 62
     7
 10
230.911697387695
 20
-96.5569152832031
 30
0.0
 40
3.0
  0
CIRCLE
  5
   840
  8
0
  6
CONTINUOUS
 62
     7
 10
239.661697387695
 20
-96.5569152832031
 30
0.0
 40
3.0
  0
CIRCLE
  5
   841
  8
0
  6
CONTINUOUS
 62
     7
 10
239.661697387695
 20
-19.6819152832031
 30
0.0
 40
3.0
  0
CIRCLE
  5
   842
  8
0
  6
CONTINUOUS
 62
     7
 10
222.161697387695
 20
-19.6819152832031
 30
0.0
 40
3.0
  0
CIRCLE
  5
   843
  8
0
  6
CONTINUOUS
 62
     7
 10
222.161697387695
 20
-96.5569152832031
 30
0.0
 40
3.0
  0
LINE
  5
   844
  8
0
  6
DASHDOT
 62
     7
 10
239.661697387695
 20
-15.9319152832031
 30
0.0
 11
239.661697387695
 21
-23.4319152832031
 31
0.0
  0
LINE
  5
   845
  8
0
  6
DASHDOT
 62
     7
 10
243.411697387695
 20
-19.6819152832031
 30
0.0
 11
235.911697387695
 21
-19.6819152832031
 31
0.0
  0
LINE
  5
   846
  8
0
  6
DASHDOT
 62
     7
 10
222.161697387695
 20
-15.9319152832031
 30
0.0
 11
222.161697387695
 21
-23.4319152832031
 31
0.0
  0
LINE
  5
   847
  8
0
  6
DASHDOT
 62
     7
 10
235.478314409505
 20
-19.6819152832031
 30
0.0
 11
218.411697387695
 21
-19.6819152832031
 31
0.0
  0
LINE
  5
   848
  8
0
  6
DASHDOT
 62
     7
 10
222.161697387695
 20
-24.6161124644356
 30
0.0
 11
222.161697387695
 21
-100.306915283203
 31
0.0
  0
LINE
  5
   849
  8
0
  6
DASHDOT
 62
     7
 10
234.606040147772
 20
-96.5569152832031
 30
0.0
 11
218.411697387695
 21
-96.5569152832031
 31
0.0
  0
LINE
  5
   84A
  8
0
  6
DASHDOT
 62
     7
 10
239.661697387695
 20
-24.6161124644356
 30
0.0
 11
239.661697387695
 21
-100.306915283203
 31
0.0
  0
LINE
  5
   84B
  8
0
  6
DASHDOT
 62
     7
 10
243.411697387695
 20
-96.5569152832031
 30
0.0
 11
235.911697387695
 21
-96.5569152832031
 31
0.0
  0
INSERT
  5
   84C
  8
0
  6
CONTINUOUS
 62
     7
  2
*UDIM742
 10
0.0
 20
0.0
 30
0.0
  0
INSERT
  5
   84D
  8
0
  6
CONTINUOUS
 62
     7
  2
*UDIM743
 10
0.0
 20
0.0
 30
0.0
  0
INSERT
  5
   84E
  8
0
  6
CONTINUOUS
 62
     7
  2
*UDIM744
 10
0.0
 20
0.0
 30
0.0
  0
INSERT
  5
   84F
  8
0
  6
CONTINUOUS
 62
     7
  2
*UDIM745
 10
0.0
 20
0.0
 30
0.0
  0
INSERT
  5
   850
  8
0
  6
CONTINUOUS
 62
     7
  2
*UDIM746
 10
0.0
 20
0.0
 30
0.0
  0
TEXT
  5
   851
  8
0
  6
CONTINUOUS
 62
     1
 10
138.296893362876
 20
-193.480718893192
 30
0.0
 40
2.00000008940697
  1
M4352 96-12-17
 50
359.999999896069
 41
0.749999861419206
 72
     2
 11
158.99689045566
 21
-193.480718930637
 31
0.0
  0
TEXT
  5
   852
  8
0
  6
CONTINUOUS
 62
     1
 10
130.442901609519
 20
-178.463394231654
 30
0.0
 40
2.00000008940697
  1
96-11-19 BARCELLA
 50
359.999999896069
 41
0.749999861419206
 72
     2
 11
155.642898071984
 21
-178.463394277238
 31
0.0
  0
TEXT
  5
   853
  8
0
  6
CONTINUOUS
 62
     1
 10
231.973709102828
 20
-204.68986525788
 30
0.0
 40
4.00000017881393
  1
605032/101
 50
359.999999896069
 41
0.937499973922969
 72
     2
 11
268.723709702599
 21
-204.689865324357
 31
0.0
  0
TEXT
  5
   854
  8
0
  6
CONTINUOUS
 62
     1
 10
250.059402463107
 20
-195.708282493541
 30
0.0
 40
3.00000002980232
  1
S4X
 50
359.999999896069
 41
0.916666604744064
 72
     2
 11
257.759402015079
 21
-195.70828250747
 31
0.0
  0
TEXT
  5
   855
  8
0
  6
CONTINUOUS
 62
     1
 10
223.962477530593
 20
-177.398010250357
 30
0.0
 40
2.00000008940697
  1
3POLE LOW VOLTAGE M.C.C.B SERIES ISOMAX
 50
359.999999896069
 41
0.687499997764826
 72
     1
 11
250.637478634715
 21
-176.398010253906
 31
0.0
 73
     2
  0
TEXT
  5
   856
  8
0
  6
CONTINUOUS
 62
     1
 10
221.899977445097
 20
-180.398010246626
 30
0.0
 40
2.00000008940697
  1
SUPERLIMITING FIXED VERSION REAR TERMINALS
 50
359.999999896069
 41
0.687499997764826
 72
     1
 11
250.637478634715
 21
-179.398010253906
 31
0.0
 73
     2
  0
TEXT
  5
   857
  8
0
  6
CONTINUOUS
 62
     1
 10
215.602369909228
 20
-185.468276965284
 30
0.0
 40
2.00000008940697
  1
INTERR.AUTOMATICO SERIE ISOMAX SUPERLIMITATORE
 50
359.999999896069
 41
0.687499997764826
 72
     1
 11
247.08987121284
 21
-184.468276977539
 31
0.0
 73
     2
  0
TEXT
  5
   858
  8
0
  6
CONTINUOUS
 62
     1
 10
216.977369966225
 20
-188.468276967772
 30
0.0
 40
2.00000008940697
  1
TRIPOL.ESECUZIONE FISSA TERMINALI POSTERIORI
 50
359.999999896069
 41
0.687499997764826
 72
     1
 11
247.08987121284
 21
-187.468276977539
 31
0.0
 73
     2
  0
INSERT
  5
   859
  8
0
  6
CONTINUOUS
 62
     7
  2
*UDIM747
 10
0.0
 20
0.0
 30
0.0
  0
TEXT
  5
   85A
  8
0
  6
CONTINUOUS
 62
     7
 10
232.397372481494
 20
-52.9550628940235
 30
0.0
 40
3.00000002980232
  1
=
 50
359.999999896069
 41
0.916666604744064
 72
     2
 11
234.597372350364
 21
-52.9550628980031
 31
0.0
  0
TEXT
  5
   85B
  8
0
  6
CONTINUOUS
 62
     7
 10
227.677696225314
 20
-52.8642998019824
 30
0.0
 40
3.00000002980232
  1
=
 50
359.999999896069
 41
0.916666604744064
 72
     2
 11
229.877696094184
 21
-52.8642998059621
 31
0.0
  0
TEXT
  5
   85C
  8
0
  6
CONTINUOUS
 62
     7
 10
230.521253749991
 20
2.1480418093982
 30
0.0
 40
3.00000002980232
  1
Y
 50
359.999999896069
 41
0.916666604744064
 72
     2
 11
232.721253618861
 21
2.14804180541858
 31
0.0
  0
INSERT
  5
   85D
  8
0
  6
CONTINUOUS
 62
     7
  2
*UDIM748
 10
0.0
 20
0.0
 30
0.0
  0
INSERT
  5
   85E
  8
0
  6
CONTINUOUS
 62
     7
  2
*UDIM749
 10
0.0
 20
0.0
 30
0.0
  0
INSERT
  5
   85F
  8
0
  6
CONTINUOUS
 62
     7
  2
*UDIM750
 10
0.0
 20
0.0
 30
0.0
  0
TEXT
  5
   860
  8
0
  6
CONTINUOUS
 62
     7
 10
189.685588833957
 20
-69.6374302188526
 30
0.0
 40
3.00000002980232
  1
X
 50
359.999999896069
 41
0.916666604744064
 72
     2
 11
191.885588702826
 21
-69.6374302228322
 31
0.0
  0
TEXT
  5
   861
  8
0
  6
CONTINUOUS
 62
     7
 10
270.406257626681
 20
-70.9174371043811
 30
0.0
 40
3.00000002980232
  1
X
 50
359.999999896069
 41
0.916666604744064
 72
     2
 11
272.606257495551
 21
-70.9174371083607
 31
0.0
  0
TEXT
  5
   862
  8
0
  6
CONTINUOUS
 62
     7
 10
229.914693829684
 20
-108.672237424053
 30
0.0
 40
3.00000002980232
  1
Y
 50
359.999999896069
 41
0.916666604744064
 72
     2
 11
232.114693698554
 21
-108.672237428032
 31
0.0
  0
ENDSEC
  0
EOF
