  0
SECTION
  2
HEADER
  9
$ACADVER
  1
AC1009
  9
$INSBASE
 10
0.0
 20
0.0
 30
0.0
  9
$EXTMIN
 10
0.237099
 20
0.237999
 30
0.0
  9
$EXTMAX
 10
392.237099
 20
262.737999
 30
0.0
  9
$LIMMIN
 10
0.0
 20
0.0
  9
$LIMMAX
 10
12.0
 20
9.0
  9
$ORTHOMODE
 70
     1
  9
$REGENMODE
 70
     1
  9
$FILLMODE
 70
     1
  9
$QTEXTMODE
 70
     0
  9
$MIRRTEXT
 70
     1
  9
$DRAGMODE
 70
     2
  9
$LTSCALE
 40
5.0
  9
$OSMODE
 70
     0
  9
$ATTMODE
 70
     1
  9
$TEXTSIZE
 40
2.5
  9
$TRACEWID
 40
0.05
  9
$TEXTSTYLE
  7
ROMANS
  9
$CLAYER
  8
0
  9
$CELTYPE
  6
CONTINUOUS
  9
$CECOLOR
 62
   256
  9
$DIMSCALE
 40
1.0
  9
$DIMASZ
 40
0.18
  9
$DIMEXO
 40
0.0625
  9
$DIMDLI
 40
0.38
  9
$DIMRND
 40
0.0
  9
$DIMDLE
 40
0.0
  9
$DIMEXE
 40
0.18
  9
$DIMTP
 40
0.0
  9
$DIMTM
 40
0.0
  9
$DIMTXT
 40
0.18
  9
$DIMCEN
 40
0.09
  9
$DIMTSZ
 40
0.0
  9
$DIMTOL
 70
     0
  9
$DIMLIM
 70
     0
  9
$DIMTIH
 70
     1
  9
$DIMTOH
 70
     1
  9
$DIMSE1
 70
     0
  9
$DIMSE2
 70
     0
  9
$DIMTAD
 70
     0
  9
$DIMZIN
 70
     0
  9
$DIMBLK
  1

  9
$DIMASO
 70
     1
  9
$DIMSHO
 70
     1
  9
$DIMPOST
  1

  9
$DIMAPOST
  1

  9
$DIMALT
 70
     0
  9
$DIMALTD
 70
     2
  9
$DIMALTF
 40
25.4
  9
$DIMLFAC
 40
1.0
  9
$DIMTOFL
 70
     0
  9
$DIMTVP
 40
0.0
  9
$DIMTIX
 70
     0
  9
$DIMSOXD
 70
     0
  9
$DIMSAH
 70
     0
  9
$DIMBLK1
  1

  9
$DIMBLK2
  1

  9
$DIMSTYLE
  2
*UNNAMED
  9
$DIMCLRD
 70
     0
  9
$DIMCLRE
 70
     0
  9
$DIMCLRT
 70
     0
  9
$DIMTFAC
 40
1.0
  9
$DIMGAP
 40
0.09
  9
$LUNITS
 70
     2
  9
$LUPREC
 70
     4
  9
$SKETCHINC
 40
0.1
  9
$FILLETRAD
 40
0.0
  9
$AUNITS
 70
     0
  9
$AUPREC
 70
     0
  9
$MENU
  1
acad
  9
$ELEVATION
 40
0.0
  9
$PELEVATION
 40
0.0
  9
$THICKNESS
 40
0.0
  9
$LIMCHECK
 70
     0
  9
$BLIPMODE
 70
     1
  9
$CHAMFERA
 40
0.0
  9
$CHAMFERB
 40
0.0
  9
$SKPOLY
 70
     0
  9
$TDCREATE
 40
2448890.631774073
  9
$TDUPDATE
 40
2449513.391959491
  9
$TDINDWG
 40
0.0274335648
  9
$TDUSRTIMER
 40
0.0274335648
  9
$USRTIMER
 70
     1
  9
$ANGBASE
 50
0.0
  9
$ANGDIR
 70
     0
  9
$PDMODE
 70
     0
  9
$PDSIZE
 40
0.0
  9
$PLINEWID
 40
0.0
  9
$COORDS
 70
     2
  9
$SPLFRAME
 70
     0
  9
$SPLINETYPE
 70
     6
  9
$SPLINESEGS
 70
     8
  9
$ATTDIA
 70
     0
  9
$ATTREQ
 70
     1
  9
$HANDLING
 70
     0
  9
$HANDSEED
  5
0
  9
$SURFTAB1
 70
   250
  9
$SURFTAB2
 70
   250
  9
$SURFTYPE
 70
     6
  9
$SURFU
 70
     6
  9
$SURFV
 70
     6
  9
$UCSNAME
  2

  9
$UCSORG
 10
0.0
 20
0.0
 30
0.0
  9
$UCSXDIR
 10
1.0
 20
0.0
 30
0.0
  9
$UCSYDIR
 10
0.0
 20
1.0
 30
0.0
  9
$PUCSNAME
  2

  9
$PUCSORG
 10
0.0
 20
0.0
 30
0.0
  9
$PUCSXDIR
 10
1.0
 20
0.0
 30
0.0
  9
$PUCSYDIR
 10
0.0
 20
1.0
 30
0.0
  9
$USERI1
 70
     0
  9
$USERI2
 70
     0
  9
$USERI3
 70
     0
  9
$USERI4
 70
     0
  9
$USERI5
 70
     0
  9
$USERR1
 40
0.0
  9
$USERR2
 40
0.0
  9
$USERR3
 40
0.0
  9
$USERR4
 40
0.0
  9
$USERR5
 40
0.0
  9
$WORLDVIEW
 70
     1
  9
$SHADEDGE
 70
     3
  9
$SHADEDIF
 70
    70
  9
$TILEMODE
 70
     1
  9
$MAXACTVP
 70
    16
  9
$PINSBASE
 10
0.0
 20
0.0
 30
0.0
  9
$PLIMCHECK
 70
     0
  9
$PEXTMIN
 10
1.000000E+20
 20
1.000000E+20
 30
1.000000E+20
  9
$PEXTMAX
 10
-1.000000E+20
 20
-1.000000E+20
 30
-1.000000E+20
  9
$PLIMMIN
 10
0.0
 20
0.0
  9
$PLIMMAX
 10
12.0
 20
9.0
  9
$UNITMODE
 70
     0
  9
$VISRETAIN
 70
     0
  9
$PLINEGEN
 70
     0
  9
$PSLTSCALE
 70
     0
  9
$TREEDEPTH
 70
  3020
  9
$DWGCODEPAGE
  3
undefined
  0
ENDSEC
  0
SECTION
  2
TABLES
  0
TABLE
  2
VPORT
 70
     2
  0
VPORT
  2
*ACTIVE
 70
     0
 10
0.0
 20
0.0
 11
1.0
 21
1.0
 12
222.522843
 22
142.040485
 13
0.0
 23
0.0
 14
2.5
 24
2.5
 15
0.0
 25
0.0
 16
0.0
 26
0.0
 36
1.0
 17
0.0
 27
0.0
 37
0.0
 40
284.080971
 41
1.566616
 42
50.0
 43
0.0
 44
0.0
 50
0.0
 51
0.0
 71
     0
 72
   100
 73
     1
 74
     1
 75
     1
 76
     0
 77
     0
 78
     0
  0
ENDTAB
  0
TABLE
  2
LTYPE
 70
     4
  0
LTYPE
  2
CONTINUOUS
 70
    64
  3
Solid line
 72
    65
 73
     0
 40
0.0
  0
LTYPE
  2
DASHED
 70
    64
  3
__ __ __ __ __ __ __ __ __ __ __ __ __ __ __ __
 72
    65
 73
     2
 40
0.75
 49
0.5
 49
-0.25
  0
LTYPE
  2
CENTER
 70
    64
  3
____ _ ____ _ ____ _ ____ _ ____ _ ____ _ ____ 
 72
    65
 73
     4
 40
2.0
 49
1.25
 49
-0.25
 49
0.25
 49
-0.25
  0
LTYPE
  2
HIDDEN
 70
    64
  3
__ __ __ __ __ __ __ __ __ __ __ __ __ __ __ __
 72
    65
 73
     2
 40
0.375
 49
0.25
 49
-0.125
  0
ENDTAB
  0
TABLE
  2
LAYER
 70
    13
  0
LAYER
  2
0
 70
    64
 62
     7
  6
CONTINUOUS
  0
LAYER
  2
RAAMI
 70
    64
 62
    -4
  6
CONTINUOUS
  0
LAYER
  2
PAKSU
 70
    64
 62
    -3
  6
CONTINUOUS
  0
LAYER
  2
OHUT
 70
    64
 62
    -6
  6
CONTINUOUS
  0
LAYER
  2
SWEDEN
 70
    64
 62
    -7
  6
CONTINUOUS
  0
LAYER
  2
SWEDEN2
 70
    64
 62
    -5
  6
CONTINUOUS
  0
LAYER
  2
BASE
 70
    64
 62
    -7
  6
CONTINUOUS
  0
LAYER
  2
21
 70
    64
 62
    -2
  6
CONTINUOUS
  0
LAYER
  2
HEL035
 70
    64
 62
    -7
  6
CONTINUOUS
  0
LAYER
  2
MUO
 70
    64
 62
    -7
  6
CONTINUOUS
  0
LAYER
  2
1
 70
    64
 62
    -2
  6
CONTINUOUS
  0
LAYER
  2
BASE1
 70
    64
 62
    -1
  6
CONTINUOUS
  0
LAYER
  2
TEKS
 70
    64
 62
    -5
  6
CONTINUOUS
  0
ENDTAB
  0
TABLE
  2
STYLE
 70
     5
  0
STYLE
  2
STANDARD
 70
    64
 40
0.0
 41
1.0
 50
0.0
 71
     0
 42
2.0
  3
txt
  4

  0
STYLE
  2
ROMANS
 70
    64
 40
0.0
 41
1.0
 50
0.0
 71
     0
 42
2.5
  3
romans
  4

  0
STYLE
  2
GREEKS
 70
    64
 40
0.0
 41
1.0
 50
0.0
 71
     0
 42
3.0
  3
TXT
  4

  0
STYLE
  2
GREEKC
 70
    64
 40
0.0
 41
1.0
 50
0.0
 71
     0
 42
1.5
  3
GREEKC
  4

  0
STYLE
  2
MONOTXT
 70
     0
 40
0.0
 41
1.0
 50
0.0
 71
     0
 42
2.0
  3
monotxt
  4

  0
ENDTAB
  0
TABLE
  2
VIEW
 70
     0
  0
ENDTAB
  0
TABLE
  2
UCS
 70
     0
  0
ENDTAB
  0
TABLE
  2
APPID
 70
     1
  0
APPID
  2
ACAD
 70
    64
  0
ENDTAB
  0
TABLE
  2
DIMSTYLE
 70
     0
  0
ENDTAB
  0
ENDSEC
  0
SECTION
  2
BLOCKS
  0
BLOCK
  8
0
  2
1
 70
    64
 10
0.0
 20
0.0
 30
0.0
  3
1
  0
ENDBLK
  8
0
  0
BLOCK
  8
0
  2
BLC26
 70
     0
 10
0.0
 20
0.0
 30
0.0
  3
BLC26
  0
ARC
  8
0
  6
CONTINUOUS
 10
-0.180576
 20
1.17922
 30
0.0
 40
1.196859
 50
90.0
 51
265.706237
  0
LINE
  8
0
  6
CONTINUOUS
 10
-0.186638
 20
-0.01092
 30
0.0
 11
0.458942
 21
-0.01092
 31
0.0
  0
LINE
  8
0
  6
CONTINUOUS
 10
-0.186638
 20
2.375671
 30
0.0
 11
0.45288
 21
2.375671
 31
0.0
  0
LINE
  8
0
  6
CONTINUOUS
 10
-0.185509
 20
-2.404629
 30
0.0
 11
0.460071
 21
-2.404629
 31
0.0
  0
ARC
  8
0
  6
CONTINUOUS
 10
-0.180576
 20
-1.207779
 30
0.0
 40
1.196859
 50
90.0
 51
270.0
  0
LINE
  8
0
  6
CONTINUOUS
 10
0.451525
 20
-2.404586
 30
0.0
 11
1.401805
 21
-2.404586
 31
0.0
  0
LINE
  8
0
  6
CONTINUOUS
 10
0.446785
 20
2.375674
 30
0.0
 11
1.418544
 21
2.375674
 31
0.0
  0
LINE
  8
0
  6
CONTINUOUS
 10
0.456627
 20
-0.010911
 30
0.0
 11
1.422749
 21
-0.010911
 31
0.0
  0
ENDBLK
  8
0
  0
BLOCK
  8
0
  2
BLC29
 70
    64
 10
0.0
 20
0.0
 30
0.0
  3
BLC29
  0
LINE
  8
0
  6
CONTINUOUS
 10
0.004865
 20
1.206889
 30
0.0
 11
2.350631
 21
-0.128465
 31
0.0
  0
LINE
  8
0
  6
CONTINUOUS
 10
2.350631
 20
-0.128465
 30
0.0
 11
0.004865
 21
-1.318384
 31
0.0
  0
ENDBLK
  8
0
  0
BLOCK
  8
0
  2
WKU130
 70
    64
 10
190.0
 20
250.0
 30
0.0
  3
WKU130
  0
ARC
  8
21
 10
191.083333
 20
249.916667
 30
0.0
 40
1.086534
 50
32.471192
 51
175.601295
  0
ARC
  8
21
 10
192.916667
 20
251.083333
 30
0.0
 40
1.086534
 50
212.471192
 51
355.601295
  0
ENDBLK
  8
0
  0
BLOCK
  8
0
  2
BLC38
 70
    64
 10
0.0
 20
0.0
 30
0.0
  3
BLC38
  0
LINE
  8
BASE
  6
CONTINUOUS
 10
5.0
 20
0.429605
 30
0.0
 11
5.0
 21
-2.5
 31
0.0
  0
LINE
  8
BASE
  6
CONTINUOUS
 10
0.0
 20
0.429605
 30
0.0
 11
0.0
 21
-2.5
 31
0.0
  0
LINE
  8
BASE
  6
CONTINUOUS
 10
5.0
 20
15.0
 30
0.0
 11
5.0
 21
9.752154
 31
0.0
  0
LINE
  8
BASE
  6
CONTINUOUS
 10
0.0
 20
15.0
 30
0.0
 11
0.0
 21
9.752154
 31
0.0
  0
INSERT
  8
HEL035
  2
WKU130
 10
2.806261
 20
1.002888
 30
0.0
 41
0.8
 42
0.8
 43
0.8
  0
LINE
  8
HEL035
 10
2.466311
 20
2.72844
 30
0.0
 11
6.466311
 21
2.72844
 31
0.0
  0
LINE
  8
HEL035
 10
-1.290099
 20
7.674464
 30
0.0
 11
2.709901
 21
7.674464
 31
0.0
  0
LINE
  8
MUO
 10
-2.204897
 20
1.386207
 30
0.0
 11
6.158613
 21
9.752154
 31
0.0
  0
LINE
  8
MUO
 10
-1.220605
 20
0.429605
 30
0.0
 11
7.119756
 21
8.767352
 31
0.0
  0
LINE
  8
MUO
 10
-2.204897
 20
0.429605
 30
0.0
 11
-2.204897
 21
9.752154
 31
0.0
  0
LINE
  8
MUO
 10
7.119756
 20
0.429605
 30
0.0
 11
-2.204897
 21
0.429605
 31
0.0
  0
LINE
  8
MUO
 10
7.119756
 20
9.752154
 30
0.0
 11
7.119756
 21
0.429605
 31
0.0
  0
LINE
  8
MUO
 10
-2.204897
 20
9.752154
 30
0.0
 11
7.119756
 21
9.752154
 31
0.0
  0
TEXT
  8
SWEDEN2
  6
CONTINUOUS
 10
-0.633266
 20
15.55315
 30
0.0
 40
2.0
  1
+
  0
TEXT
  8
SWEDEN2
  6
CONTINUOUS
 10
4.297086
 20
15.577719
 30
0.0
 40
2.0
  1
-
  0
ENDBLK
  8
0
  0
BLOCK
  8
0
  2
BLC15
 70
     0
 10
0.0
 20
0.0
 30
0.0
  3
BLC15
  0
LINE
  8
0
  6
CONTINUOUS
 10
0.142084
 20
3.490022
 30
0.0
 11
0.142084
 21
0.844365
 31
0.0
  0
LINE
  8
0
  6
CONTINUOUS
 10
-0.461611
 20
-0.937188
 30
0.0
 11
0.745779
 21
-0.937188
 31
0.0
  0
LINE
  8
0
  6
CONTINUOUS
 10
-0.894108
 20
-0.049675
 30
0.0
 11
1.169267
 21
-0.049675
 31
0.0
  0
LINE
  8
0
  6
CONTINUOUS
 10
-1.389679
 20
0.844365
 30
0.0
 11
1.673848
 21
0.844365
 31
0.0
  0
ENDBLK
  8
0
  0
BLOCK
  8
0
  2
BLC43
 70
    64
 10
0.0
 20
0.0
 30
0.0
  3
BLC43
  0
TEXT
  8
SWEDEN2
  6
CONTINUOUS
 10
-0.646672
 20
-0.986365
 30
0.0
 40
2.0
  1
+
  0
ENDBLK
  8
0
  0
BLOCK
  8
0
  2
BLC42
 70
    64
 10
0.0
 20
0.0
 30
0.0
  3
BLC42
  0
TEXT
  8
SWEDEN2
  6
CONTINUOUS
 10
-0.655237
 20
-0.99442
 30
0.0
 40
2.0
  1
-
  0
ENDBLK
  8
0
  0
BLOCK
  8
0
  2
BLC44
 70
    64
 10
0.0
 20
0.0
 30
0.0
  3
BLC44
  0
LINE
  8
HEL035
 10
-2.520993
 20
1.697877
 30
0.0
 11
1.479007
 21
1.697877
 31
0.0
  0
INSERT
  8
HEL035
  2
WKU130
 10
-2.181043
 20
-0.027675
 30
0.0
 41
0.8
 42
0.8
 43
0.8
  0
ENDBLK
  8
0
  0
BLOCK
  8
0
  2
ABBA3V
 70
    64
 10
0.0
 20
0.0
 30
0.0
  3
ABBA3V
  0
TEXT
  8
RAAMI
  6
DASHED
 10
292.217194
 20
11.813359
 30
0.0
 40
3.0
  1
A3
  7
GREEKS
  0
TEXT
  8
RAAMI
  6
DASHED
 10
351.818577
 20
15.69253
 30
0.0
 40
1.4
  1
LEHTI SHEET
  7
GREEKS
  0
LINE
  8
PAKSU
 10
0.237099
 20
262.737999
 30
0.0
 11
392.237099
 21
262.737999
 31
0.0
  0
LINE
  8
RAAMI
 10
18.237099
 20
0.237999
 30
0.0
 11
0.237099
 21
0.237999
 31
0.0
  0
LINE
  8
PAKSU
 10
209.237099
 20
0.237999
 30
0.0
 11
392.237099
 21
0.237999
 31
0.0
  0
LINE
  8
PAKSU
 10
209.237099
 20
0.237999
 30
0.0
 11
209.237099
 21
35.237999
 31
0.0
  0
LINE
  8
PAKSU
 10
392.237099
 20
0.237999
 30
0.0
 11
392.237099
 21
35.237999
 31
0.0
  0
LINE
  8
OHUT
 10
209.237099
 20
18.237999
 30
0.0
 11
392.237099
 21
18.237999
 31
0.0
  0
LINE
  8
OHUT
 10
209.237099
 20
9.737999
 30
0.0
 11
392.237099
 21
9.737999
 31
0.0
  0
LINE
  8
OHUT
 10
209.237099
 20
26.737999
 30
0.0
 11
307.237099
 21
26.737999
 31
0.0
  0
LINE
  8
PAKSU
 10
209.237099
 20
35.237999
 30
0.0
 11
392.237099
 21
35.237999
 31
0.0
  0
TEXT
  8
RAAMI
 10
210.237099
 20
23.971333
 30
0.0
 40
1.4
  1
TARKASTI  CHECKED
  7
ROMANS
  0
TEXT
  8
RAAMI
 10
209.979934
 20
15.704666
 30
0.0
 40
1.4
  1
HYVÄKSYI  APPROVED
  7
ROMANS
  0
LINE
  8
OHUT
 10
307.237099
 20
0.237999
 30
0.0
 11
307.237099
 21
35.237999
 31
0.0
  0
TEXT
  8
RAAMI
 10
259.237099
 20
32.737999
 30
0.0
 40
1.4
  1
LIITTYY  CONCERNING
  7
ROMANS
  0
TEXT
  8
RAAMI
 10
259.237099
 20
23.737999
 30
0.0
 40
1.4
  1
TOLERANSSIT  TOLERANCES
  7
ROMANS
  0
TEXT
  8
RAAMI
 10
259.237099
 20
15.737999
 30
0.0
 40
1.4
  1
SUHDE  SCALE
  7
ROMANS
  0
TEXT
  8
RAAMI
 10
309.237099
 20
32.737999
 30
0.0
 40
1.4
  1
NIMITYS  NAME
  7
ROMANS
  0
TEXT
  8
RAAMI
 10
309.237099
 20
15.737999
 30
0.0
 40
1.4
  1
KOODI  CODE
  7
ROMANS
  0
TEXT
  8
RAAMI
 10
309.237099
 20
7.237999
 30
0.0
 40
1.4
  1
PIIRUSTUS NO  DRAWING NR
  7
ROMANS
  0
LINE
  8
OHUT
 10
349.737099
 20
9.737999
 30
0.0
 11
349.737099
 21
18.237999
 31
0.0
  0
TEXT
  8
RAAMI
 10
371.237099
 20
7.237999
 30
0.0
 40
1.4
  1
PAINOS  REVISION
  7
ROMANS
  0
LINE
  8
OHUT
 10
369.737099
 20
9.737999
 30
0.0
 11
369.737099
 21
0.237999
 31
0.0
  0
LINE
  8
RAAMI
 10
210.187099
 20
1.737999
 30
0.0
 11
211.937099
 21
1.737999
 31
0.0
  0
LINE
  8
RAAMI
 10
215.437099
 20
1.737999
 30
0.0
 11
217.187099
 21
1.737999
 31
0.0
  0
LINE
  8
RAAMI
 10
212.637099
 20
8.737999
 30
0.0
 11
211.459571
 21
5.373634
 31
0.0
  0
LINE
  8
RAAMI
 10
212.425886
 20
3.137999
 30
0.0
 11
213.547099
 21
3.137999
 31
0.0
  0
LINE
  8
RAAMI
 10
212.425889
 20
3.134542
 30
0.0
 11
211.937099
 21
1.737999
 31
0.0
  0
LINE
  8
RAAMI
 10
214.737099
 20
8.737999
 30
0.0
 11
215.913452
 21
5.376991
 31
0.0
  0
LINE
  8
RAAMI
 10
214.948197
 20
3.134863
 30
0.0
 11
215.437099
 21
1.737999
 31
0.0
  0
LINE
  8
RAAMI
 10
214.737099
 20
8.737999
 30
0.0
 11
213.827099
 21
8.737999
 31
0.0
  0
LINE
  8
RAAMI
 10
213.547099
 20
8.737999
 30
0.0
 11
213.547099
 21
5.377999
 31
0.0
  0
LINE
  8
RAAMI
 10
213.827099
 20
8.737999
 30
0.0
 11
213.827099
 21
5.377999
 31
0.0
  0
LINE
  8
RAAMI
 10
213.827099
 20
3.137999
 30
0.0
 11
214.946992
 21
3.137999
 31
0.0
  0
LINE
  8
RAAMI
 10
213.547099
 20
8.737999
 30
0.0
 11
212.637099
 21
8.737999
 31
0.0
  0
LINE
  8
RAAMI
 10
211.45904
 20
5.377999
 30
0.0
 11
213.547099
 21
5.377999
 31
0.0
  0
LINE
  8
RAAMI
 10
211.360082
 20
5.097999
 30
0.0
 11
213.547099
 21
5.097999
 31
0.0
  0
LINE
  8
RAAMI
 10
216.011591
 20
5.096594
 30
0.0
 11
217.187099
 21
1.737999
 31
0.0
  0
LINE
  8
RAAMI
 10
213.827099
 20
5.377999
 30
0.0
 11
215.912213
 21
5.377999
 31
0.0
  0
LINE
  8
RAAMI
 10
213.827099
 20
5.097999
 30
0.0
 11
216.010356
 21
5.097999
 31
0.0
  0
LINE
  8
RAAMI
 10
213.827099
 20
5.097999
 30
0.0
 11
213.827099
 21
3.137999
 31
0.0
  0
LINE
  8
RAAMI
 10
213.547099
 20
5.097999
 30
0.0
 11
213.547099
 21
3.137999
 31
0.0
  0
LINE
  8
RAAMI
 10
211.356988
 20
5.080538
 30
0.0
 11
210.187099
 21
1.737999
 31
0.0
  0
INSERT
  8
RAAMI
  2
*X10
 10
210.187099
 20
1.737999
 30
0.0
 41
0.7
 42
0.7
 43
0.7
  0
INSERT
  8
RAAMI
  2
*X11
 10
210.187099
 20
1.737999
 30
0.0
 41
0.7
 42
0.7
 43
0.7
  0
INSERT
  8
RAAMI
  2
*X12
 10
210.187099
 20
1.737999
 30
0.0
 41
0.7
 42
0.7
 43
0.7
  0
INSERT
  8
RAAMI
  2
*X13
 10
210.187099
 20
1.737999
 30
0.0
 41
0.7
 42
0.7
 43
0.7
  0
LINE
  8
RAAMI
 10
217.677099
 20
1.737999
 30
0.0
 11
217.677099
 21
5.097999
 31
0.0
  0
LINE
  8
RAAMI
 10
217.677099
 20
8.737999
 30
0.0
 11
219.637099
 21
8.737999
 31
0.0
  0
LINE
  8
RAAMI
 10
219.637099
 20
8.737999
 30
0.0
 11
219.637099
 21
5.377999
 31
0.0
  0
LINE
  8
RAAMI
 10
219.637099
 20
5.377999
 30
0.0
 11
217.677099
 21
5.377999
 31
0.0
  0
LINE
  8
RAAMI
 10
217.677099
 20
5.097999
 30
0.0
 11
219.637099
 21
5.097999
 31
0.0
  0
LINE
  8
RAAMI
 10
219.637099
 20
5.097999
 30
0.0
 11
219.637099
 21
1.737999
 31
0.0
  0
LINE
  8
RAAMI
 10
219.637099
 20
1.737999
 30
0.0
 11
217.677099
 21
1.737999
 31
0.0
  0
LINE
  8
RAAMI
 10
217.677099
 20
5.377999
 30
0.0
 11
217.677099
 21
8.737999
 31
0.0
  0
ARC
  8
RAAMI
 10
220.477099
 20
7.162999
 30
0.0
 40
1.575
 50
298.455859
 51
90.052437
  0
LINE
  8
RAAMI
 10
219.917099
 20
8.737999
 30
0.0
 11
220.475658
 21
8.737999
 31
0.0
  0
LINE
  8
RAAMI
 10
219.917099
 20
8.737999
 30
0.0
 11
219.917099
 21
5.377999
 31
0.0
  0
LINE
  8
RAAMI
 10
219.917099
 20
5.377999
 30
0.0
 11
221.901542
 21
5.377999
 31
0.0
  0
LINE
  8
RAAMI
 10
222.157099
 20
5.097999
 30
0.0
 11
219.917099
 21
5.097999
 31
0.0
  0
LINE
  8
RAAMI
 10
219.917099
 20
5.097999
 30
0.0
 11
219.917099
 21
1.737999
 31
0.0
  0
ARC
  8
RAAMI
 10
220.477099
 20
3.837999
 30
0.0
 40
2.1
 50
269.937724
 51
37.056553
  0
LINE
  8
RAAMI
 10
219.917099
 20
1.737999
 30
0.0
 11
220.474817
 21
1.738
 31
0.0
  0
ARC
  8
RAAMI
 10
220.477099
 20
3.837999
 30
0.0
 40
2.1
 50
47.28622
 51
68.787999
  0
INSERT
  8
RAAMI
  2
*X14
 10
210.187099
 20
1.737999
 30
0.0
 41
0.7
 42
0.7
 43
0.7
  0
INSERT
  8
RAAMI
  2
*X15
 10
210.187099
 20
1.737999
 30
0.0
 41
0.7
 42
0.7
 43
0.7
  0
INSERT
  8
RAAMI
  2
*X16
 10
210.187099
 20
1.737999
 30
0.0
 41
0.7
 42
0.7
 43
0.7
  0
INSERT
  8
RAAMI
  2
*X17
 10
210.187099
 20
1.737999
 30
0.0
 41
0.7
 42
0.7
 43
0.7
  0
INSERT
  8
RAAMI
  2
*X17
 10
215.647099
 20
1.737999
 30
0.0
 41
0.7
 42
0.7
 43
0.7
  0
INSERT
  8
RAAMI
  2
*X16
 10
215.647099
 20
1.737999
 30
0.0
 41
0.7
 42
0.7
 43
0.7
  0
INSERT
  8
RAAMI
  2
*X15
 10
215.647099
 20
1.737999
 30
0.0
 41
0.7
 42
0.7
 43
0.7
  0
INSERT
  8
RAAMI
  2
*X14
 10
215.647099
 20
1.737999
 30
0.0
 41
0.7
 42
0.7
 43
0.7
  0
ARC
  8
RAAMI
 10
225.937099
 20
3.837999
 30
0.0
 40
2.1
 50
47.28622
 51
68.787999
  0
LINE
  8
RAAMI
 10
225.377099
 20
1.737999
 30
0.0
 11
225.934817
 21
1.738
 31
0.0
  0
ARC
  8
RAAMI
 10
225.937099
 20
3.837999
 30
0.0
 40
2.1
 50
269.937724
 51
37.056553
  0
LINE
  8
RAAMI
 10
225.377099
 20
5.097999
 30
0.0
 11
225.377099
 21
1.737999
 31
0.0
  0
LINE
  8
RAAMI
 10
227.617099
 20
5.097999
 30
0.0
 11
225.377099
 21
5.097999
 31
0.0
  0
LINE
  8
RAAMI
 10
225.377099
 20
5.377999
 30
0.0
 11
227.361542
 21
5.377999
 31
0.0
  0
LINE
  8
RAAMI
 10
225.377099
 20
8.737999
 30
0.0
 11
225.377099
 21
5.377999
 31
0.0
  0
LINE
  8
RAAMI
 10
225.377099
 20
8.737999
 30
0.0
 11
225.935658
 21
8.737999
 31
0.0
  0
ARC
  8
RAAMI
 10
225.937099
 20
7.162999
 30
0.0
 40
1.575
 50
298.455859
 51
90.052437
  0
LINE
  8
RAAMI
 10
223.137099
 20
5.377999
 30
0.0
 11
223.137099
 21
8.737999
 31
0.0
  0
LINE
  8
RAAMI
 10
225.097099
 20
1.737999
 30
0.0
 11
223.137099
 21
1.737999
 31
0.0
  0
LINE
  8
RAAMI
 10
225.097099
 20
5.097999
 30
0.0
 11
225.097099
 21
1.737999
 31
0.0
  0
LINE
  8
RAAMI
 10
223.137099
 20
5.097999
 30
0.0
 11
225.097099
 21
5.097999
 31
0.0
  0
LINE
  8
RAAMI
 10
225.097099
 20
5.377999
 30
0.0
 11
223.137099
 21
5.377999
 31
0.0
  0
LINE
  8
RAAMI
 10
225.097099
 20
8.737999
 30
0.0
 11
225.097099
 21
5.377999
 31
0.0
  0
LINE
  8
RAAMI
 10
223.137099
 20
8.737999
 30
0.0
 11
225.097099
 21
8.737999
 31
0.0
  0
LINE
  8
RAAMI
 10
223.137099
 20
1.737999
 30
0.0
 11
223.137099
 21
5.097999
 31
0.0
  0
TEXT
  8
RAAMI
 10
229.737099
 20
1.737999
 30
0.0
 40
3.0
  1
ABB 
 41
0.8
  7
ROMANS
  0
TEXT
  8
RAAMI
 10
237.737099
 20
1.737999
 30
0.0
 40
3.0
  1
Strömberg
 41
0.8
  7
ROMANS
  0
LINE
  8
OHUT
 10
282.237099
 20
9.737999
 30
0.0
 11
282.237099
 21
18.237999
 31
0.0
  0
TEXT
  8
RAAMI
 10
27.737099
 20
4.737999
 30
0.0
 40
1.4
  1
MUUTOS
  7
ROMANS
  0
TEXT
  8
RAAMI
 10
27.737099
 20
2.471333
 30
0.0
 40
1.4
  1
REVISION
  7
ROMANS
  0
LINE
  8
OHUT
 10
46.737099
 20
9.237999
 30
0.0
 11
209.237099
 21
9.237999
 31
0.0
  0
LINE
  8
OHUT
 10
46.737099
 20
0.237999
 30
0.0
 11
46.737099
 21
9.237999
 31
0.0
  0
LINE
  8
OHUT
 10
40.737099
 20
4.737999
 30
0.0
 11
209.237099
 21
4.737999
 31
0.0
  0
LINE
  8
OHUT
 10
257.237099
 20
9.737999
 30
0.0
 11
257.237099
 21
35.237999
 31
0.0
  0
LINE
  8
OHUT
 10
271.237099
 20
9.737999
 30
0.0
 11
271.237099
 21
0.237999
 31
0.0
  0
TEXT
  8
RAAMI
 10
210.237099
 20
32.237999
 30
0.0
 40
1.4
  1
TEKI  PREPARED
  7
ROMANS
  0
TEXT
  8
RAAMI
 10
273.237099
 20
7.237999
 30
0.0
 40
1.4
  1
VAST.OSASTO RESP.DEPT.
  7
ROMANS
  0
TEXT
  8
RAAMI
 10
257.407006
 20
1.741783
 30
0.0
 40
3.0
  1
Power
 41
0.8
  7
ROMANS
  0
TEXT
  8
RAAMI
 10
42.237099
 20
1.195292
 30
0.0
 40
2.5
  1
B
  7
ROMANS
  0
TEXT
  8
RAAMI
 10
42.237099
 20
5.587508
 30
0.0
 40
2.5
  1
C
  7
ROMANS
  0
LINE
  8
PAKSU
 10
0.237099
 20
0.237999
 30
0.0
 11
392.237099
 21
0.237999
 31
0.0
  0
LINE
  8
PAKSU
 10
392.237099
 20
262.737999
 30
0.0
 11
392.237099
 21
0.237999
 31
0.0
  0
LINE
  8
PAKSU
 10
0.237099
 20
0.237999
 30
0.0
 11
0.237099
 21
262.737999
 31
0.0
  0
ENDBLK
  8
0
  0
BLOCK
  8
0
  2
*X10
 70
    65
 10
0.0
 20
0.0
 30
0.0
  3
*X
  0
LINE
  8
0
 62
     0
 10
2.284499
 20
6.52714
 30
0.0
 11
4.8
 21
9.042641
 31
0.0
  0
LINE
  8
0
 62
     0
 10
2.379686
 20
6.799104
 30
0.0
 11
4.8
 21
9.219417
 31
0.0
  0
LINE
  8
0
 62
     0
 10
2.474874
 20
7.071068
 30
0.0
 11
4.8
 21
9.396194
 31
0.0
  0
LINE
  8
0
 62
     0
 10
2.570061
 20
7.343032
 30
0.0
 11
4.8
 21
9.572971
 31
0.0
  0
LINE
  8
0
 62
     0
 10
2.665249
 20
7.614996
 30
0.0
 11
4.8
 21
9.749747
 31
0.0
  0
LINE
  8
0
 62
     0
 10
2.760436
 20
7.88696
 30
0.0
 11
4.8
 21
9.926524
 31
0.0
  0
LINE
  8
0
 62
     0
 10
2.855624
 20
8.158924
 30
0.0
 11
4.696699
 21
10.0
 31
0.0
  0
LINE
  8
0
 62
     0
 10
2.950811
 20
8.430889
 30
0.0
 11
4.519922
 21
10.0
 31
0.0
  0
LINE
  8
0
 62
     0
 10
3.045998
 20
8.702853
 30
0.0
 11
4.343146
 21
10.0
 31
0.0
  0
LINE
  8
0
 62
     0
 10
3.141186
 20
8.974817
 30
0.0
 11
4.166369
 21
10.0
 31
0.0
  0
LINE
  8
0
 62
     0
 10
3.236373
 20
9.246781
 30
0.0
 11
3.989592
 21
10.0
 31
0.0
  0
LINE
  8
0
 62
     0
 10
3.331561
 20
9.518745
 30
0.0
 11
3.812816
 21
10.0
 31
0.0
  0
LINE
  8
0
 62
     0
 10
3.426748
 20
9.790709
 30
0.0
 11
3.636039
 21
10.0
 31
0.0
  0
LINE
  8
0
 62
     0
 10
2.189311
 20
6.255175
 30
0.0
 11
4.8
 21
8.865864
 31
0.0
  0
LINE
  8
0
 62
     0
 10
2.094124
 20
5.983211
 30
0.0
 11
4.8
 21
8.689087
 31
0.0
  0
LINE
  8
0
 62
     0
 10
1.998936
 20
5.711247
 30
0.0
 11
4.8
 21
8.512311
 31
0.0
  0
LINE
  8
0
 62
     0
 10
1.903749
 20
5.439283
 30
0.0
 11
4.8
 21
8.335534
 31
0.0
  0
LINE
  8
0
 62
     0
 10
1.841243
 20
5.2
 30
0.0
 11
4.8
 21
8.158757
 31
0.0
  0
LINE
  8
0
 62
     0
 10
2.018019
 20
5.2
 30
0.0
 11
4.8
 21
7.981981
 31
0.0
  0
LINE
  8
0
 62
     0
 10
2.194796
 20
5.2
 30
0.0
 11
4.8
 21
7.805204
 31
0.0
  0
LINE
  8
0
 62
     0
 10
2.371573
 20
5.2
 30
0.0
 11
4.8
 21
7.628427
 31
0.0
  0
LINE
  8
0
 62
     0
 10
2.54835
 20
5.2
 30
0.0
 11
4.8
 21
7.45165
 31
0.0
  0
LINE
  8
0
 62
     0
 10
2.725126
 20
5.2
 30
0.0
 11
4.8
 21
7.274874
 31
0.0
  0
LINE
  8
0
 62
     0
 10
2.901903
 20
5.2
 30
0.0
 11
4.8
 21
7.098097
 31
0.0
  0
LINE
  8
0
 62
     0
 10
3.07868
 20
5.2
 30
0.0
 11
4.8
 21
6.92132
 31
0.0
  0
LINE
  8
0
 62
     0
 10
3.255456
 20
5.2
 30
0.0
 11
4.8
 21
6.744544
 31
0.0
  0
LINE
  8
0
 62
     0
 10
3.432233
 20
5.2
 30
0.0
 11
4.8
 21
6.567767
 31
0.0
  0
LINE
  8
0
 62
     0
 10
3.60901
 20
5.2
 30
0.0
 11
4.8
 21
6.39099
 31
0.0
  0
LINE
  8
0
 62
     0
 10
3.785786
 20
5.2
 30
0.0
 11
4.8
 21
6.214214
 31
0.0
  0
LINE
  8
0
 62
     0
 10
3.962563
 20
5.2
 30
0.0
 11
4.8
 21
6.037437
 31
0.0
  0
LINE
  8
0
 62
     0
 10
4.13934
 20
5.2
 30
0.0
 11
4.8
 21
5.86066
 31
0.0
  0
LINE
  8
0
 62
     0
 10
4.316117
 20
5.2
 30
0.0
 11
4.8
 21
5.683883
 31
0.0
  0
LINE
  8
0
 62
     0
 10
4.492893
 20
5.2
 30
0.0
 11
4.8
 21
5.507107
 31
0.0
  0
LINE
  8
0
 62
     0
 10
4.66967
 20
5.2
 30
0.0
 11
4.8
 21
5.33033
 31
0.0
  0
ENDBLK
  8
0
  0
BLOCK
  8
0
  2
*X11
 70
    65
 10
0.0
 20
0.0
 30
0.0
  3
*X
  0
LINE
  8
0
 62
     0
 10
5.2
 20
6.083883
 30
0.0
 11
7.178252
 21
8.062136
 31
0.0
  0
LINE
  8
0
 62
     0
 10
5.2
 20
6.26066
 30
0.0
 11
7.132421
 21
8.193082
 31
0.0
  0
LINE
  8
0
 62
     0
 10
5.2
 20
6.437437
 30
0.0
 11
7.08659
 21
8.324027
 31
0.0
  0
LINE
  8
0
 62
     0
 10
5.2
 20
6.614214
 30
0.0
 11
7.040759
 21
8.454973
 31
0.0
  0
LINE
  8
0
 62
     0
 10
5.2
 20
6.79099
 30
0.0
 11
6.994928
 21
8.585919
 31
0.0
  0
LINE
  8
0
 62
     0
 10
5.2
 20
6.967767
 30
0.0
 11
6.949097
 21
8.716864
 31
0.0
  0
LINE
  8
0
 62
     0
 10
5.2
 20
7.144544
 30
0.0
 11
6.903266
 21
8.84781
 31
0.0
  0
LINE
  8
0
 62
     0
 10
5.2
 20
7.32132
 30
0.0
 11
6.857435
 21
8.978756
 31
0.0
  0
LINE
  8
0
 62
     0
 10
5.2
 20
7.498097
 30
0.0
 11
6.811604
 21
9.109702
 31
0.0
  0
LINE
  8
0
 62
     0
 10
5.2
 20
7.674874
 30
0.0
 11
6.765773
 21
9.240647
 31
0.0
  0
LINE
  8
0
 62
     0
 10
5.2
 20
7.85165
 30
0.0
 11
6.719942
 21
9.371593
 31
0.0
  0
LINE
  8
0
 62
     0
 10
5.2
 20
8.028427
 30
0.0
 11
6.674111
 21
9.502539
 31
0.0
  0
LINE
  8
0
 62
     0
 10
5.2
 20
8.205204
 30
0.0
 11
6.62828
 21
9.633484
 31
0.0
  0
LINE
  8
0
 62
     0
 10
5.2
 20
8.381981
 30
0.0
 11
6.582449
 21
9.76443
 31
0.0
  0
LINE
  8
0
 62
     0
 10
5.2
 20
8.558757
 30
0.0
 11
6.536619
 21
9.895376
 31
0.0
  0
LINE
  8
0
 62
     0
 10
5.2
 20
8.735534
 30
0.0
 11
6.464466
 21
10.0
 31
0.0
  0
LINE
  8
0
 62
     0
 10
5.2
 20
8.912311
 30
0.0
 11
6.287689
 21
10.0
 31
0.0
  0
LINE
  8
0
 62
     0
 10
5.2
 20
9.089087
 30
0.0
 11
6.110913
 21
10.0
 31
0.0
  0
LINE
  8
0
 62
     0
 10
5.2
 20
9.265864
 30
0.0
 11
5.934136
 21
10.0
 31
0.0
  0
LINE
  8
0
 62
     0
 10
5.2
 20
9.442641
 30
0.0
 11
5.757359
 21
10.0
 31
0.0
  0
LINE
  8
0
 62
     0
 10
5.2
 20
9.619417
 30
0.0
 11
5.580583
 21
10.0
 31
0.0
  0
LINE
  8
0
 62
     0
 10
5.2
 20
9.796194
 30
0.0
 11
5.403806
 21
10.0
 31
0.0
  0
LINE
  8
0
 62
     0
 10
5.2
 20
9.972971
 30
0.0
 11
5.227029
 21
10.0
 31
0.0
  0
LINE
  8
0
 62
     0
 10
5.2
 20
5.907107
 30
0.0
 11
7.224083
 21
7.93119
 31
0.0
  0
LINE
  8
0
 62
     0
 10
5.2
 20
5.73033
 30
0.0
 11
7.269914
 21
7.800245
 31
0.0
  0
LINE
  8
0
 62
     0
 10
5.2
 20
5.553553
 30
0.0
 11
7.315745
 21
7.669299
 31
0.0
  0
LINE
  8
0
 62
     0
 10
5.2
 20
5.376777
 30
0.0
 11
7.361576
 21
7.538353
 31
0.0
  0
LINE
  8
0
 62
     0
 10
5.2
 20
5.2
 30
0.0
 11
7.407407
 21
7.407407
 31
0.0
  0
LINE
  8
0
 62
     0
 10
5.376777
 20
5.2
 30
0.0
 11
7.453238
 21
7.276462
 31
0.0
  0
LINE
  8
0
 62
     0
 10
5.553553
 20
5.2
 30
0.0
 11
7.499069
 21
7.145516
 31
0.0
  0
LINE
  8
0
 62
     0
 10
5.73033
 20
5.2
 30
0.0
 11
7.5449
 21
7.01457
 31
0.0
  0
LINE
  8
0
 62
     0
 10
5.907107
 20
5.2
 30
0.0
 11
7.590731
 21
6.883625
 31
0.0
  0
LINE
  8
0
 62
     0
 10
6.083883
 20
5.2
 30
0.0
 11
7.636562
 21
6.752679
 31
0.0
  0
LINE
  8
0
 62
     0
 10
6.26066
 20
5.2
 30
0.0
 11
7.682393
 21
6.621733
 31
0.0
  0
LINE
  8
0
 62
     0
 10
6.437437
 20
5.2
 30
0.0
 11
7.728224
 21
6.490788
 31
0.0
  0
LINE
  8
0
 62
     0
 10
6.614214
 20
5.2
 30
0.0
 11
7.774055
 21
6.359842
 31
0.0
  0
LINE
  8
0
 62
     0
 10
6.79099
 20
5.2
 30
0.0
 11
7.819886
 21
6.228896
 31
0.0
  0
LINE
  8
0
 62
     0
 10
6.967767
 20
5.2
 30
0.0
 11
7.865717
 21
6.09795
 31
0.0
  0
LINE
  8
0
 62
     0
 10
7.144544
 20
5.2
 30
0.0
 11
7.911548
 21
5.967005
 31
0.0
  0
LINE
  8
0
 62
     0
 10
7.32132
 20
5.2
 30
0.0
 11
7.957379
 21
5.836059
 31
0.0
  0
LINE
  8
0
 62
     0
 10
7.498097
 20
5.2
 30
0.0
 11
8.00321
 21
5.705113
 31
0.0
  0
LINE
  8
0
 62
     0
 10
7.674874
 20
5.2
 30
0.0
 11
8.049041
 21
5.574168
 31
0.0
  0
LINE
  8
0
 62
     0
 10
7.85165
 20
5.2
 30
0.0
 11
8.094872
 21
5.443222
 31
0.0
  0
LINE
  8
0
 62
     0
 10
8.028427
 20
5.2
 30
0.0
 11
8.140703
 21
5.312276
 31
0.0
  0
ENDBLK
  8
0
  0
BLOCK
  8
0
  2
*X12
 70
    65
 10
0.0
 20
0.0
 30
0.0
  3
*X
  0
LINE
  8
0
 62
     0
 10
0.0
 20
0.0
 30
0.0
 11
4.8
 21
4.8
 31
0.0
  0
LINE
  8
0
 62
     0
 10
0.095187
 20
0.271964
 30
0.0
 11
4.623223
 21
4.8
 31
0.0
  0
LINE
  8
0
 62
     0
 10
0.190375
 20
0.543928
 30
0.0
 11
4.446447
 21
4.8
 31
0.0
  0
LINE
  8
0
 62
     0
 10
0.285562
 20
0.815892
 30
0.0
 11
4.26967
 21
4.8
 31
0.0
  0
LINE
  8
0
 62
     0
 10
0.38075
 20
1.087857
 30
0.0
 11
4.092893
 21
4.8
 31
0.0
  0
LINE
  8
0
 62
     0
 10
0.475937
 20
1.359821
 30
0.0
 11
3.916117
 21
4.8
 31
0.0
  0
LINE
  8
0
 62
     0
 10
0.571125
 20
1.631785
 30
0.0
 11
3.73934
 21
4.8
 31
0.0
  0
LINE
  8
0
 62
     0
 10
0.666312
 20
1.903749
 30
0.0
 11
3.562563
 21
4.8
 31
0.0
  0
LINE
  8
0
 62
     0
 10
0.7615
 20
2.175713
 30
0.0
 11
3.385786
 21
4.8
 31
0.0
  0
LINE
  8
0
 62
     0
 10
0.856687
 20
2.447677
 30
0.0
 11
3.20901
 21
4.8
 31
0.0
  0
LINE
  8
0
 62
     0
 10
0.951875
 20
2.719641
 30
0.0
 11
3.032233
 21
4.8
 31
0.0
  0
LINE
  8
0
 62
     0
 10
1.047062
 20
2.991606
 30
0.0
 11
2.855456
 21
4.8
 31
0.0
  0
LINE
  8
0
 62
     0
 10
1.142249
 20
3.26357
 30
0.0
 11
2.67868
 21
4.8
 31
0.0
  0
LINE
  8
0
 62
     0
 10
1.237437
 20
3.535534
 30
0.0
 11
2.501903
 21
4.8
 31
0.0
  0
LINE
  8
0
 62
     0
 10
1.332624
 20
3.807498
 30
0.0
 11
2.325126
 21
4.8
 31
0.0
  0
LINE
  8
0
 62
     0
 10
1.427812
 20
4.079462
 30
0.0
 11
2.14835
 21
4.8
 31
0.0
  0
LINE
  8
0
 62
     0
 10
1.522999
 20
4.351426
 30
0.0
 11
1.971573
 21
4.8
 31
0.0
  0
LINE
  8
0
 62
     0
 10
1.618187
 20
4.62339
 30
0.0
 11
1.794796
 21
4.8
 31
0.0
  0
LINE
  8
0
 62
     0
 10
0.176777
 20
0.0
 30
0.0
 11
4.8
 21
4.623223
 31
0.0
  0
LINE
  8
0
 62
     0
 10
0.353553
 20
0.0
 30
0.0
 11
4.8
 21
4.446447
 31
0.0
  0
LINE
  8
0
 62
     0
 10
0.53033
 20
0.0
 30
0.0
 11
4.8
 21
4.26967
 31
0.0
  0
LINE
  8
0
 62
     0
 10
0.707107
 20
0.0
 30
0.0
 11
4.8
 21
4.092893
 31
0.0
  0
LINE
  8
0
 62
     0
 10
0.883883
 20
0.0
 30
0.0
 11
4.8
 21
3.916117
 31
0.0
  0
LINE
  8
0
 62
     0
 10
1.06066
 20
0.0
 30
0.0
 11
4.8
 21
3.73934
 31
0.0
  0
LINE
  8
0
 62
     0
 10
1.237437
 20
0.0
 30
0.0
 11
3.179842
 21
1.942405
 31
0.0
  0
LINE
  8
0
 62
     0
 10
3.237437
 20
2.0
 30
0.0
 11
4.8
 21
3.562563
 31
0.0
  0
LINE
  8
0
 62
     0
 10
1.414214
 20
0.0
 30
0.0
 11
3.084654
 21
1.670441
 31
0.0
  0
LINE
  8
0
 62
     0
 10
3.414214
 20
2.0
 30
0.0
 11
4.8
 21
3.385786
 31
0.0
  0
LINE
  8
0
 62
     0
 10
1.59099
 20
0.0
 30
0.0
 11
2.989467
 21
1.398477
 31
0.0
  0
LINE
  8
0
 62
     0
 10
3.59099
 20
2.0
 30
0.0
 11
4.8
 21
3.20901
 31
0.0
  0
LINE
  8
0
 62
     0
 10
1.767767
 20
0.0
 30
0.0
 11
2.894279
 21
1.126512
 31
0.0
  0
LINE
  8
0
 62
     0
 10
3.767767
 20
2.0
 30
0.0
 11
4.8
 21
3.032233
 31
0.0
  0
LINE
  8
0
 62
     0
 10
1.944544
 20
0.0
 30
0.0
 11
2.799092
 21
0.854548
 31
0.0
  0
LINE
  8
0
 62
     0
 10
3.944544
 20
2.0
 30
0.0
 11
4.8
 21
2.855456
 31
0.0
  0
LINE
  8
0
 62
     0
 10
2.12132
 20
0.0
 30
0.0
 11
2.703904
 21
0.582584
 31
0.0
  0
LINE
  8
0
 62
     0
 10
4.12132
 20
2.0
 30
0.0
 11
4.8
 21
2.67868
 31
0.0
  0
LINE
  8
0
 62
     0
 10
2.298097
 20
0.0
 30
0.0
 11
2.608717
 21
0.31062
 31
0.0
  0
LINE
  8
0
 62
     0
 10
4.298097
 20
2.0
 30
0.0
 11
4.8
 21
2.501903
 31
0.0
  0
LINE
  8
0
 62
     0
 10
2.474874
 20
0.0
 30
0.0
 11
2.51353
 21
0.038656
 31
0.0
  0
LINE
  8
0
 62
     0
 10
4.474874
 20
2.0
 30
0.0
 11
4.8
 21
2.325126
 31
0.0
  0
LINE
  8
0
 62
     0
 10
4.65165
 20
2.0
 30
0.0
 11
4.8
 21
2.14835
 31
0.0
  0
ENDBLK
  8
0
  0
BLOCK
  8
0
  2
*X13
 70
    65
 10
0.0
 20
0.0
 30
0.0
  3
*X
  0
LINE
  8
0
 62
     0
 10
6.884654
 20
1.75813
 30
0.0
 11
8.736506
 21
3.609982
 31
0.0
  0
LINE
  8
0
 62
     0
 10
6.838823
 20
1.889076
 30
0.0
 11
8.690675
 21
3.740928
 31
0.0
  0
LINE
  8
0
 62
     0
 10
6.772971
 20
2.0
 30
0.0
 11
8.644844
 21
3.871874
 31
0.0
  0
LINE
  8
0
 62
     0
 10
6.596194
 20
2.0
 30
0.0
 11
8.599013
 21
4.002819
 31
0.0
  0
LINE
  8
0
 62
     0
 10
6.419417
 20
2.0
 30
0.0
 11
8.553182
 21
4.133765
 31
0.0
  0
LINE
  8
0
 62
     0
 10
6.242641
 20
2.0
 30
0.0
 11
8.507351
 21
4.264711
 31
0.0
  0
LINE
  8
0
 62
     0
 10
6.065864
 20
2.0
 30
0.0
 11
8.46152
 21
4.395656
 31
0.0
  0
LINE
  8
0
 62
     0
 10
5.889087
 20
2.0
 30
0.0
 11
8.415689
 21
4.526602
 31
0.0
  0
LINE
  8
0
 62
     0
 10
5.712311
 20
2.0
 30
0.0
 11
8.369858
 21
4.657548
 31
0.0
  0
LINE
  8
0
 62
     0
 10
5.535534
 20
2.0
 30
0.0
 11
8.324027
 21
4.788493
 31
0.0
  0
LINE
  8
0
 62
     0
 10
5.358757
 20
2.0
 30
0.0
 11
8.158757
 21
4.8
 31
0.0
  0
LINE
  8
0
 62
     0
 10
5.2
 20
2.018019
 30
0.0
 11
7.981981
 21
4.8
 31
0.0
  0
LINE
  8
0
 62
     0
 10
5.2
 20
2.194796
 30
0.0
 11
7.805204
 21
4.8
 31
0.0
  0
LINE
  8
0
 62
     0
 10
5.2
 20
2.371573
 30
0.0
 11
7.628427
 21
4.8
 31
0.0
  0
LINE
  8
0
 62
     0
 10
5.2
 20
2.54835
 30
0.0
 11
7.45165
 21
4.8
 31
0.0
  0
LINE
  8
0
 62
     0
 10
5.2
 20
2.725126
 30
0.0
 11
7.274874
 21
4.8
 31
0.0
  0
LINE
  8
0
 62
     0
 10
5.2
 20
2.901903
 30
0.0
 11
7.098097
 21
4.8
 31
0.0
  0
LINE
  8
0
 62
     0
 10
5.2
 20
3.07868
 30
0.0
 11
6.92132
 21
4.8
 31
0.0
  0
LINE
  8
0
 62
     0
 10
5.2
 20
3.255456
 30
0.0
 11
6.744544
 21
4.8
 31
0.0
  0
LINE
  8
0
 62
     0
 10
5.2
 20
3.432233
 30
0.0
 11
6.567767
 21
4.8
 31
0.0
  0
LINE
  8
0
 62
     0
 10
5.2
 20
3.60901
 30
0.0
 11
6.39099
 21
4.8
 31
0.0
  0
LINE
  8
0
 62
     0
 10
5.2
 20
3.785786
 30
0.0
 11
6.214214
 21
4.8
 31
0.0
  0
LINE
  8
0
 62
     0
 10
5.2
 20
3.962563
 30
0.0
 11
6.037437
 21
4.8
 31
0.0
  0
LINE
  8
0
 62
     0
 10
5.2
 20
4.13934
 30
0.0
 11
5.86066
 21
4.8
 31
0.0
  0
LINE
  8
0
 62
     0
 10
5.2
 20
4.316117
 30
0.0
 11
5.683883
 21
4.8
 31
0.0
  0
LINE
  8
0
 62
     0
 10
5.2
 20
4.492893
 30
0.0
 11
5.507107
 21
4.8
 31
0.0
  0
LINE
  8
0
 62
     0
 10
5.2
 20
4.66967
 30
0.0
 11
5.33033
 21
4.8
 31
0.0
  0
LINE
  8
0
 62
     0
 10
6.930485
 20
1.627185
 30
0.0
 11
8.782337
 21
3.479036
 31
0.0
  0
LINE
  8
0
 62
     0
 10
6.976316
 20
1.496239
 30
0.0
 11
8.828168
 21
3.348091
 31
0.0
  0
LINE
  8
0
 62
     0
 10
7.022147
 20
1.365293
 30
0.0
 11
8.873999
 21
3.217145
 31
0.0
  0
LINE
  8
0
 62
     0
 10
7.067978
 20
1.234347
 30
0.0
 11
8.91983
 21
3.086199
 31
0.0
  0
LINE
  8
0
 62
     0
 10
7.113809
 20
1.103402
 30
0.0
 11
8.965661
 21
2.955254
 31
0.0
  0
LINE
  8
0
 62
     0
 10
7.15964
 20
0.972456
 30
0.0
 11
9.011492
 21
2.824308
 31
0.0
  0
LINE
  8
0
 62
     0
 10
7.205471
 20
0.84151
 30
0.0
 11
9.057323
 21
2.693362
 31
0.0
  0
LINE
  8
0
 62
     0
 10
7.251302
 20
0.710565
 30
0.0
 11
9.103154
 21
2.562416
 31
0.0
  0
LINE
  8
0
 62
     0
 10
7.297133
 20
0.579619
 30
0.0
 11
9.148985
 21
2.431471
 31
0.0
  0
LINE
  8
0
 62
     0
 10
7.342964
 20
0.448673
 30
0.0
 11
9.194816
 21
2.300525
 31
0.0
  0
LINE
  8
0
 62
     0
 10
7.388795
 20
0.317728
 30
0.0
 11
9.240647
 21
2.169579
 31
0.0
  0
LINE
  8
0
 62
     0
 10
7.434626
 20
0.186782
 30
0.0
 11
9.286478
 21
2.038634
 31
0.0
  0
LINE
  8
0
 62
     0
 10
7.480457
 20
0.055836
 30
0.0
 11
9.332309
 21
1.907688
 31
0.0
  0
LINE
  8
0
 62
     0
 10
7.601398
 20
0.0
 30
0.0
 11
9.37814
 21
1.776742
 31
0.0
  0
LINE
  8
0
 62
     0
 10
7.778175
 20
0.0
 30
0.0
 11
9.423971
 21
1.645797
 31
0.0
  0
LINE
  8
0
 62
     0
 10
7.954951
 20
0.0
 30
0.0
 11
9.469802
 21
1.514851
 31
0.0
  0
LINE
  8
0
 62
     0
 10
8.131728
 20
0.0
 30
0.0
 11
9.515633
 21
1.383905
 31
0.0
  0
LINE
  8
0
 62
     0
 10
8.308505
 20
0.0
 30
0.0
 11
9.561464
 21
1.252959
 31
0.0
  0
LINE
  8
0
 62
     0
 10
8.485281
 20
0.0
 30
0.0
 11
9.607295
 21
1.122014
 31
0.0
  0
LINE
  8
0
 62
     0
 10
8.662058
 20
0.0
 30
0.0
 11
9.653126
 21
0.991068
 31
0.0
  0
LINE
  8
0
 62
     0
 10
8.838835
 20
0.0
 30
0.0
 11
9.698957
 21
0.860122
 31
0.0
  0
LINE
  8
0
 62
     0
 10
9.015611
 20
0.0
 30
0.0
 11
9.744788
 21
0.729177
 31
0.0
  0
LINE
  8
0
 62
     0
 10
9.192388
 20
0.0
 30
0.0
 11
9.790619
 21
0.598231
 31
0.0
  0
LINE
  8
0
 62
     0
 10
9.369165
 20
0.0
 30
0.0
 11
9.83645
 21
0.467285
 31
0.0
  0
LINE
  8
0
 62
     0
 10
9.545942
 20
0.0
 30
0.0
 11
9.882281
 21
0.33634
 31
0.0
  0
LINE
  8
0
 62
     0
 10
9.722718
 20
0.0
 30
0.0
 11
9.928112
 21
0.205394
 31
0.0
  0
LINE
  8
0
 62
     0
 10
9.899495
 20
0.0
 30
0.0
 11
9.973943
 21
0.074448
 31
0.0
  0
ENDBLK
  8
0
  0
BLOCK
  8
0
  2
*X14
 70
    65
 10
0.0
 20
0.0
 30
0.0
  3
*X
  0
LINE
  8
0
 62
     0
 10
10.7
 20
6.280583
 30
0.0
 11
13.5
 21
9.080583
 31
0.0
  0
LINE
  8
0
 62
     0
 10
10.7
 20
6.457359
 30
0.0
 11
13.5
 21
9.257359
 31
0.0
  0
LINE
  8
0
 62
     0
 10
10.7
 20
6.634136
 30
0.0
 11
13.5
 21
9.434136
 31
0.0
  0
LINE
  8
0
 62
     0
 10
10.7
 20
6.810913
 30
0.0
 11
13.5
 21
9.610913
 31
0.0
  0
LINE
  8
0
 62
     0
 10
10.7
 20
6.987689
 30
0.0
 11
13.5
 21
9.787689
 31
0.0
  0
LINE
  8
0
 62
     0
 10
10.7
 20
7.164466
 30
0.0
 11
13.5
 21
9.964466
 31
0.0
  0
LINE
  8
0
 62
     0
 10
10.7
 20
7.341243
 30
0.0
 11
13.358757
 21
10.0
 31
0.0
  0
LINE
  8
0
 62
     0
 10
10.7
 20
7.518019
 30
0.0
 11
13.181981
 21
10.0
 31
0.0
  0
LINE
  8
0
 62
     0
 10
10.7
 20
7.694796
 30
0.0
 11
13.005204
 21
10.0
 31
0.0
  0
LINE
  8
0
 62
     0
 10
10.7
 20
7.871573
 30
0.0
 11
12.828427
 21
10.0
 31
0.0
  0
LINE
  8
0
 62
     0
 10
10.7
 20
8.04835
 30
0.0
 11
12.65165
 21
10.0
 31
0.0
  0
LINE
  8
0
 62
     0
 10
10.7
 20
8.225126
 30
0.0
 11
12.474874
 21
10.0
 31
0.0
  0
LINE
  8
0
 62
     0
 10
10.7
 20
8.401903
 30
0.0
 11
12.298097
 21
10.0
 31
0.0
  0
LINE
  8
0
 62
     0
 10
10.7
 20
8.57868
 30
0.0
 11
12.12132
 21
10.0
 31
0.0
  0
LINE
  8
0
 62
     0
 10
10.7
 20
8.755456
 30
0.0
 11
11.944544
 21
10.0
 31
0.0
  0
LINE
  8
0
 62
     0
 10
10.7
 20
8.932233
 30
0.0
 11
11.767767
 21
10.0
 31
0.0
  0
LINE
  8
0
 62
     0
 10
10.7
 20
9.10901
 30
0.0
 11
11.59099
 21
10.0
 31
0.0
  0
LINE
  8
0
 62
     0
 10
10.7
 20
9.285786
 30
0.0
 11
11.414214
 21
10.0
 31
0.0
  0
LINE
  8
0
 62
     0
 10
10.7
 20
9.462563
 30
0.0
 11
11.237437
 21
10.0
 31
0.0
  0
LINE
  8
0
 62
     0
 10
10.7
 20
9.63934
 30
0.0
 11
11.06066
 21
10.0
 31
0.0
  0
LINE
  8
0
 62
     0
 10
10.7
 20
9.816117
 30
0.0
 11
10.883883
 21
10.0
 31
0.0
  0
LINE
  8
0
 62
     0
 10
10.7
 20
9.992893
 30
0.0
 11
10.707107
 21
10.0
 31
0.0
  0
LINE
  8
0
 62
     0
 10
10.7
 20
6.103806
 30
0.0
 11
13.5
 21
8.903806
 31
0.0
  0
LINE
  8
0
 62
     0
 10
10.7
 20
5.927029
 30
0.0
 11
13.5
 21
8.727029
 31
0.0
  0
LINE
  8
0
 62
     0
 10
10.7
 20
5.750253
 30
0.0
 11
13.5
 21
8.550253
 31
0.0
  0
LINE
  8
0
 62
     0
 10
10.7
 20
5.573476
 30
0.0
 11
13.5
 21
8.373476
 31
0.0
  0
LINE
  8
0
 62
     0
 10
10.7
 20
5.396699
 30
0.0
 11
13.5
 21
8.196699
 31
0.0
  0
LINE
  8
0
 62
     0
 10
10.7
 20
5.219922
 30
0.0
 11
13.5
 21
8.019922
 31
0.0
  0
LINE
  8
0
 62
     0
 10
10.856854
 20
5.2
 30
0.0
 11
13.5
 21
7.843146
 31
0.0
  0
LINE
  8
0
 62
     0
 10
11.033631
 20
5.2
 30
0.0
 11
13.5
 21
7.666369
 31
0.0
  0
LINE
  8
0
 62
     0
 10
11.210408
 20
5.2
 30
0.0
 11
13.5
 21
7.489592
 31
0.0
  0
LINE
  8
0
 62
     0
 10
11.387184
 20
5.2
 30
0.0
 11
13.5
 21
7.312816
 31
0.0
  0
LINE
  8
0
 62
     0
 10
11.563961
 20
5.2
 30
0.0
 11
13.5
 21
7.136039
 31
0.0
  0
LINE
  8
0
 62
     0
 10
11.740738
 20
5.2
 30
0.0
 11
13.5
 21
6.959262
 31
0.0
  0
LINE
  8
0
 62
     0
 10
11.917514
 20
5.2
 30
0.0
 11
13.5
 21
6.782486
 31
0.0
  0
LINE
  8
0
 62
     0
 10
12.094291
 20
5.2
 30
0.0
 11
13.5
 21
6.605709
 31
0.0
  0
LINE
  8
0
 62
     0
 10
12.271068
 20
5.2
 30
0.0
 11
13.5
 21
6.428932
 31
0.0
  0
LINE
  8
0
 62
     0
 10
12.447845
 20
5.2
 30
0.0
 11
13.5
 21
6.252155
 31
0.0
  0
LINE
  8
0
 62
     0
 10
12.624621
 20
5.2
 30
0.0
 11
13.5
 21
6.075379
 31
0.0
  0
LINE
  8
0
 62
     0
 10
12.801398
 20
5.2
 30
0.0
 11
13.5
 21
5.898602
 31
0.0
  0
LINE
  8
0
 62
     0
 10
12.978175
 20
5.2
 30
0.0
 11
13.5
 21
5.721825
 31
0.0
  0
LINE
  8
0
 62
     0
 10
13.154951
 20
5.2
 30
0.0
 11
13.5
 21
5.545049
 31
0.0
  0
LINE
  8
0
 62
     0
 10
13.331728
 20
5.2
 30
0.0
 11
13.5
 21
5.368272
 31
0.0
  0
ENDBLK
  8
0
  0
BLOCK
  8
0
  2
*X15
 70
    65
 10
0.0
 20
0.0
 30
0.0
  3
*X
  0
LINE
  8
0
 62
     0
 10
10.7
 20
1.154058
 30
0.0
 11
13.5
 21
3.954058
 31
0.0
  0
LINE
  8
0
 62
     0
 10
10.7
 20
1.330835
 30
0.0
 11
13.5
 21
4.130835
 31
0.0
  0
LINE
  8
0
 62
     0
 10
10.7
 20
1.507612
 30
0.0
 11
13.5
 21
4.307612
 31
0.0
  0
LINE
  8
0
 62
     0
 10
10.7
 20
1.684389
 30
0.0
 11
13.5
 21
4.484389
 31
0.0
  0
LINE
  8
0
 62
     0
 10
10.7
 20
1.861165
 30
0.0
 11
13.5
 21
4.661165
 31
0.0
  0
LINE
  8
0
 62
     0
 10
10.7
 20
2.037942
 30
0.0
 11
13.462058
 21
4.8
 31
0.0
  0
LINE
  8
0
 62
     0
 10
10.7
 20
2.214719
 30
0.0
 11
13.285281
 21
4.8
 31
0.0
  0
LINE
  8
0
 62
     0
 10
10.7
 20
2.391495
 30
0.0
 11
13.108505
 21
4.8
 31
0.0
  0
LINE
  8
0
 62
     0
 10
10.7
 20
2.568272
 30
0.0
 11
12.931728
 21
4.8
 31
0.0
  0
LINE
  8
0
 62
     0
 10
10.7
 20
2.745049
 30
0.0
 11
12.754951
 21
4.8
 31
0.0
  0
LINE
  8
0
 62
     0
 10
10.7
 20
2.921825
 30
0.0
 11
12.578175
 21
4.8
 31
0.0
  0
LINE
  8
0
 62
     0
 10
10.7
 20
3.098602
 30
0.0
 11
12.401398
 21
4.8
 31
0.0
  0
LINE
  8
0
 62
     0
 10
10.7
 20
3.275379
 30
0.0
 11
12.224621
 21
4.8
 31
0.0
  0
LINE
  8
0
 62
     0
 10
10.7
 20
3.452155
 30
0.0
 11
12.047845
 21
4.8
 31
0.0
  0
LINE
  8
0
 62
     0
 10
10.7
 20
3.628932
 30
0.0
 11
11.871068
 21
4.8
 31
0.0
  0
LINE
  8
0
 62
     0
 10
10.7
 20
3.805709
 30
0.0
 11
11.694291
 21
4.8
 31
0.0
  0
LINE
  8
0
 62
     0
 10
10.7
 20
3.982486
 30
0.0
 11
11.517514
 21
4.8
 31
0.0
  0
LINE
  8
0
 62
     0
 10
10.7
 20
4.159262
 30
0.0
 11
11.340738
 21
4.8
 31
0.0
  0
LINE
  8
0
 62
     0
 10
10.7
 20
4.336039
 30
0.0
 11
11.163961
 21
4.8
 31
0.0
  0
LINE
  8
0
 62
     0
 10
10.7
 20
4.512816
 30
0.0
 11
10.987184
 21
4.8
 31
0.0
  0
LINE
  8
0
 62
     0
 10
10.7
 20
4.689592
 30
0.0
 11
10.810408
 21
4.8
 31
0.0
  0
LINE
  8
0
 62
     0
 10
10.7
 20
0.977282
 30
0.0
 11
13.5
 21
3.777282
 31
0.0
  0
LINE
  8
0
 62
     0
 10
10.7
 20
0.800505
 30
0.0
 11
13.5
 21
3.600505
 31
0.0
  0
LINE
  8
0
 62
     0
 10
10.7
 20
0.623728
 30
0.0
 11
13.5
 21
3.423728
 31
0.0
  0
LINE
  8
0
 62
     0
 10
10.7
 20
0.446952
 30
0.0
 11
13.5
 21
3.246952
 31
0.0
  0
LINE
  8
0
 62
     0
 10
10.7
 20
0.270175
 30
0.0
 11
13.5
 21
3.070175
 31
0.0
  0
LINE
  8
0
 62
     0
 10
10.7
 20
0.093398
 30
0.0
 11
13.5
 21
2.893398
 31
0.0
  0
LINE
  8
0
 62
     0
 10
10.783378
 20
0.0
 30
0.0
 11
13.5
 21
2.716622
 31
0.0
  0
LINE
  8
0
 62
     0
 10
10.960155
 20
0.0
 30
0.0
 11
13.5
 21
2.539845
 31
0.0
  0
LINE
  8
0
 62
     0
 10
11.136932
 20
0.0
 30
0.0
 11
13.5
 21
2.363068
 31
0.0
  0
LINE
  8
0
 62
     0
 10
11.313708
 20
0.0
 30
0.0
 11
13.5
 21
2.186292
 31
0.0
  0
LINE
  8
0
 62
     0
 10
11.490485
 20
0.0
 30
0.0
 11
13.5
 21
2.009515
 31
0.0
  0
LINE
  8
0
 62
     0
 10
11.667262
 20
0.0
 30
0.0
 11
13.5
 21
1.832738
 31
0.0
  0
LINE
  8
0
 62
     0
 10
11.844039
 20
0.0
 30
0.0
 11
13.5
 21
1.655961
 31
0.0
  0
LINE
  8
0
 62
     0
 10
12.020815
 20
0.0
 30
0.0
 11
13.5
 21
1.479185
 31
0.0
  0
LINE
  8
0
 62
     0
 10
12.197592
 20
0.0
 30
0.0
 11
13.5
 21
1.302408
 31
0.0
  0
LINE
  8
0
 62
     0
 10
12.374369
 20
0.0
 30
0.0
 11
13.5
 21
1.125631
 31
0.0
  0
LINE
  8
0
 62
     0
 10
12.551145
 20
0.0
 30
0.0
 11
13.5
 21
0.948855
 31
0.0
  0
LINE
  8
0
 62
     0
 10
12.727922
 20
0.0
 30
0.0
 11
13.5
 21
0.772078
 31
0.0
  0
LINE
  8
0
 62
     0
 10
12.904699
 20
0.0
 30
0.0
 11
13.5
 21
0.595301
 31
0.0
  0
LINE
  8
0
 62
     0
 10
13.081475
 20
0.0
 30
0.0
 11
13.5
 21
0.418525
 31
0.0
  0
LINE
  8
0
 62
     0
 10
13.258252
 20
0.0
 30
0.0
 11
13.5
 21
0.241748
 31
0.0
  0
LINE
  8
0
 62
     0
 10
13.435029
 20
0.0
 30
0.0
 11
13.5
 21
0.064971
 31
0.0
  0
ENDBLK
  8
0
  0
BLOCK
  8
0
  2
*X16
 70
    65
 10
0.0
 20
0.0
 30
0.0
  3
*X
  0
LINE
  8
0
 62
     0
 10
13.9
 20
6.298602
 30
0.0
 11
16.582995
 21
8.981597
 31
0.0
  0
LINE
  8
0
 62
     0
 10
13.9
 20
6.475379
 30
0.0
 11
16.510503
 21
9.085882
 31
0.0
  0
LINE
  8
0
 62
     0
 10
13.9
 20
6.652155
 30
0.0
 11
16.432927
 21
9.185083
 31
0.0
  0
LINE
  8
0
 62
     0
 10
13.9
 20
6.828932
 30
0.0
 11
16.350372
 21
9.279304
 31
0.0
  0
LINE
  8
0
 62
     0
 10
13.9
 20
7.005709
 30
0.0
 11
16.262892
 21
9.368601
 31
0.0
  0
LINE
  8
0
 62
     0
 10
13.9
 20
7.182486
 30
0.0
 11
16.170495
 21
9.452981
 31
0.0
  0
LINE
  8
0
 62
     0
 10
13.9
 20
7.359262
 30
0.0
 11
16.073145
 21
9.532407
 31
0.0
  0
LINE
  8
0
 62
     0
 10
13.9
 20
7.536039
 30
0.0
 11
15.970755
 21
9.606794
 31
0.0
  0
LINE
  8
0
 62
     0
 10
13.9
 20
7.712816
 30
0.0
 11
15.863189
 21
9.676004
 31
0.0
  0
LINE
  8
0
 62
     0
 10
13.9
 20
7.889592
 30
0.0
 11
15.75025
 21
9.739843
 31
0.0
  0
LINE
  8
0
 62
     0
 10
13.9
 20
8.066369
 30
0.0
 11
15.631675
 21
9.798044
 31
0.0
  0
LINE
  8
0
 62
     0
 10
13.9
 20
8.243146
 30
0.0
 11
15.50711
 21
9.850256
 31
0.0
  0
LINE
  8
0
 62
     0
 10
13.9
 20
8.419922
 30
0.0
 11
15.376096
 21
9.896018
 31
0.0
  0
LINE
  8
0
 62
     0
 10
13.9
 20
8.596699
 30
0.0
 11
15.238027
 21
9.934726
 31
0.0
  0
LINE
  8
0
 62
     0
 10
13.9
 20
8.773476
 30
0.0
 11
15.092096
 21
9.965572
 31
0.0
  0
LINE
  8
0
 62
     0
 10
13.9
 20
8.950253
 30
0.0
 11
14.937209
 21
9.987461
 31
0.0
  0
LINE
  8
0
 62
     0
 10
13.9
 20
9.127029
 30
0.0
 11
14.771824
 21
9.998853
 31
0.0
  0
LINE
  8
0
 62
     0
 10
13.9
 20
9.303806
 30
0.0
 11
14.596193
 21
9.999999
 31
0.0
  0
LINE
  8
0
 62
     0
 10
13.9
 20
9.480583
 30
0.0
 11
14.419417
 21
9.999999
 31
0.0
  0
LINE
  8
0
 62
     0
 10
13.9
 20
9.657359
 30
0.0
 11
14.24264
 21
10.0
 31
0.0
  0
LINE
  8
0
 62
     0
 10
13.9
 20
9.834136
 30
0.0
 11
14.065864
 21
10.0
 31
0.0
  0
LINE
  8
0
 62
     0
 10
13.9
 20
6.121825
 30
0.0
 11
16.650245
 21
8.872071
 31
0.0
  0
LINE
  8
0
 62
     0
 10
13.9
 20
5.945049
 30
0.0
 11
16.712035
 21
8.757083
 31
0.0
  0
LINE
  8
0
 62
     0
 10
13.9
 20
5.768272
 30
0.0
 11
16.768067
 21
8.636339
 31
0.0
  0
LINE
  8
0
 62
     0
 10
13.9
 20
5.591495
 30
0.0
 11
16.817955
 21
8.509451
 31
0.0
  0
LINE
  8
0
 62
     0
 10
13.9
 20
5.414719
 30
0.0
 11
16.861189
 21
8.375908
 31
0.0
  0
LINE
  8
0
 62
     0
 10
13.9
 20
5.237942
 30
0.0
 11
16.897097
 21
8.235039
 31
0.0
  0
LINE
  8
0
 62
     0
 10
14.038835
 20
5.2
 30
0.0
 11
16.924779
 21
8.085944
 31
0.0
  0
LINE
  8
0
 62
     0
 10
14.215611
 20
5.2
 30
0.0
 11
16.942997
 21
7.927385
 31
0.0
  0
LINE
  8
0
 62
     0
 10
14.392388
 20
5.2
 30
0.0
 11
16.949987
 21
7.757599
 31
0.0
  0
LINE
  8
0
 62
     0
 10
14.569165
 20
5.2
 30
0.0
 11
16.943101
 21
7.573936
 31
0.0
  0
LINE
  8
0
 62
     0
 10
14.745942
 20
5.2
 30
0.0
 11
16.918037
 21
7.372095
 31
0.0
  0
LINE
  8
0
 62
     0
 10
14.922718
 20
5.2
 30
0.0
 11
16.866909
 21
7.144191
 31
0.0
  0
LINE
  8
0
 62
     0
 10
15.099495
 20
5.2
 30
0.0
 11
16.771715
 21
6.87222
 31
0.0
  0
LINE
  8
0
 62
     0
 10
15.276272
 20
5.2
 30
0.0
 11
15.847951
 21
5.77168
 31
0.0
  0
LINE
  8
0
 62
     0
 10
15.96673
 20
5.890458
 30
0.0
 11
16.559542
 21
6.48327
 31
0.0
  0
LINE
  8
0
 62
     0
 10
15.453048
 20
5.2
 30
0.0
 11
15.970661
 21
5.717613
 31
0.0
  0
LINE
  8
0
 62
     0
 10
15.629825
 20
5.2
 30
0.0
 11
16.088934
 21
5.659109
 31
0.0
  0
LINE
  8
0
 62
     0
 10
15.806602
 20
5.2
 30
0.0
 11
16.202964
 21
5.596363
 31
0.0
  0
LINE
  8
0
 62
     0
 10
15.983378
 20
5.2
 30
0.0
 11
16.312909
 21
5.529531
 31
0.0
  0
LINE
  8
0
 62
     0
 10
16.160155
 20
5.2
 30
0.0
 11
16.418895
 21
5.45874
 31
0.0
  0
LINE
  8
0
 62
     0
 10
16.336932
 20
5.2
 30
0.0
 11
16.521021
 21
5.384089
 31
0.0
  0
LINE
  8
0
 62
     0
 10
16.513708
 20
5.2
 30
0.0
 11
16.619363
 21
5.305655
 31
0.0
  0
LINE
  8
0
 62
     0
 10
16.690485
 20
5.2
 30
0.0
 11
16.713975
 21
5.22349
 31
0.0
  0
ENDBLK
  8
0
  0
BLOCK
  8
0
  2
*X17
 70
    65
 10
0.0
 20
0.0
 30
0.0
  3
*X
  0
LINE
  8
0
 62
     0
 10
13.9
 20
0.818525
 30
0.0
 11
17.39645
 21
4.314974
 31
0.0
  0
LINE
  8
0
 62
     0
 10
13.9
 20
0.995301
 30
0.0
 11
17.336354
 21
4.431655
 31
0.0
  0
LINE
  8
0
 62
     0
 10
13.9
 20
1.172078
 30
0.0
 11
17.272078
 21
4.544156
 31
0.0
  0
LINE
  8
0
 62
     0
 10
13.9
 20
1.348855
 30
0.0
 11
17.203766
 21
4.652621
 31
0.0
  0
LINE
  8
0
 62
     0
 10
13.9
 20
1.525631
 30
0.0
 11
17.131535
 21
4.757167
 31
0.0
  0
LINE
  8
0
 62
     0
 10
13.9
 20
1.702408
 30
0.0
 11
16.997592
 21
4.8
 31
0.0
  0
LINE
  8
0
 62
     0
 10
13.9
 20
1.879185
 30
0.0
 11
16.820815
 21
4.8
 31
0.0
  0
LINE
  8
0
 62
     0
 10
13.9
 20
2.055961
 30
0.0
 11
16.644039
 21
4.8
 31
0.0
  0
LINE
  8
0
 62
     0
 10
13.9
 20
2.232738
 30
0.0
 11
16.467262
 21
4.8
 31
0.0
  0
LINE
  8
0
 62
     0
 10
13.9
 20
2.409515
 30
0.0
 11
16.290485
 21
4.8
 31
0.0
  0
LINE
  8
0
 62
     0
 10
13.9
 20
2.586292
 30
0.0
 11
16.113708
 21
4.8
 31
0.0
  0
LINE
  8
0
 62
     0
 10
13.9
 20
2.763068
 30
0.0
 11
15.936932
 21
4.8
 31
0.0
  0
LINE
  8
0
 62
     0
 10
13.9
 20
2.939845
 30
0.0
 11
15.760155
 21
4.8
 31
0.0
  0
LINE
  8
0
 62
     0
 10
13.9
 20
3.116622
 30
0.0
 11
15.583378
 21
4.8
 31
0.0
  0
LINE
  8
0
 62
     0
 10
13.9
 20
3.293398
 30
0.0
 11
15.406602
 21
4.8
 31
0.0
  0
LINE
  8
0
 62
     0
 10
13.9
 20
3.470175
 30
0.0
 11
15.229825
 21
4.8
 31
0.0
  0
LINE
  8
0
 62
     0
 10
13.9
 20
3.646952
 30
0.0
 11
15.053048
 21
4.8
 31
0.0
  0
LINE
  8
0
 62
     0
 10
13.9
 20
3.823728
 30
0.0
 11
14.876272
 21
4.8
 31
0.0
  0
LINE
  8
0
 62
     0
 10
13.9
 20
4.000505
 30
0.0
 11
14.699495
 21
4.8
 31
0.0
  0
LINE
  8
0
 62
     0
 10
13.9
 20
4.177282
 30
0.0
 11
14.522718
 21
4.8
 31
0.0
  0
LINE
  8
0
 62
     0
 10
13.9
 20
4.354058
 30
0.0
 11
14.345942
 21
4.8
 31
0.0
  0
LINE
  8
0
 62
     0
 10
13.9
 20
4.530835
 30
0.0
 11
14.169165
 21
4.8
 31
0.0
  0
LINE
  8
0
 62
     0
 10
13.9
 20
4.707612
 30
0.0
 11
13.992388
 21
4.8
 31
0.0
  0
LINE
  8
0
 62
     0
 10
13.9
 20
0.641748
 30
0.0
 11
17.452185
 21
4.193933
 31
0.0
  0
LINE
  8
0
 62
     0
 10
13.9
 20
0.464971
 30
0.0
 11
17.503339
 21
4.068311
 31
0.0
  0
LINE
  8
0
 62
     0
 10
13.9
 20
0.288194
 30
0.0
 11
17.549642
 21
3.937837
 31
0.0
  0
LINE
  8
0
 62
     0
 10
13.9
 20
0.111418
 30
0.0
 11
17.590762
 21
3.80218
 31
0.0
  0
LINE
  8
0
 62
     0
 10
13.965359
 20
0.0
 30
0.0
 11
17.62629
 21
3.660931
 31
0.0
  0
LINE
  8
0
 62
     0
 10
14.142136
 20
0.000001
 30
0.0
 11
17.655713
 21
3.513577
 31
0.0
  0
LINE
  8
0
 62
     0
 10
14.318913
 20
0.000001
 30
0.0
 11
17.678385
 21
3.359473
 31
0.0
  0
LINE
  8
0
 62
     0
 10
14.49569
 20
0.000001
 30
0.0
 11
17.693473
 21
3.197784
 31
0.0
  0
LINE
  8
0
 62
     0
 10
14.672467
 20
0.000002
 30
0.0
 11
17.699875
 21
3.027409
 31
0.0
  0
LINE
  8
0
 62
     0
 10
14.853154
 20
0.003912
 30
0.0
 11
17.696088
 21
2.846846
 31
0.0
  0
LINE
  8
0
 62
     0
 10
15.046044
 20
0.020025
 30
0.0
 11
17.679975
 21
2.653956
 31
0.0
  0
LINE
  8
0
 62
     0
 10
15.254483
 20
0.051687
 30
0.0
 11
17.648313
 21
2.445517
 31
0.0
  0
LINE
  8
0
 62
     0
 10
15.483762
 20
0.10419
 30
0.0
 11
17.59581
 21
2.216238
 31
0.0
  0
LINE
  8
0
 62
     0
 10
15.743786
 20
0.187437
 30
0.0
 11
17.512563
 21
1.956214
 31
0.0
  0
LINE
  8
0
 62
     0
 10
16.058176
 20
0.32505
 30
0.0
 11
17.37495
 21
1.641824
 31
0.0
  0
LINE
  8
0
 62
     0
 10
16.54193
 20
0.632028
 30
0.0
 11
17.067972
 21
1.15807
 31
0.0
  0
ENDBLK
  8
0
  0
BLOCK
  8
0
  2
B39
 70
    64
 10
0.0
 20
0.0
 30
0.0
  3
B39
  0
LINE
  8
0
 10
-10.0
 20
2.5
 30
0.0
 11
-11.519867
 21
2.5
 31
0.0
  0
ARC
  8
0
 10
-9.934151
 20
3.75
 30
0.0
 40
1.251733
 50
266.984476
 51
93.015524
  0
LINE
  8
0
 10
-10.0
 20
5.0
 30
0.0
 11
-11.519867
 21
5.0
 31
0.0
  0
LINE
  8
0
 10
-10.0
 20
7.5
 30
0.0
 11
-11.519867
 21
7.5
 31
0.0
  0
ARC
  8
0
 10
-9.934151
 20
6.25
 30
0.0
 40
1.251733
 50
266.984476
 51
93.015524
  0
LINE
  8
0
 10
-5.0
 20
0.0
 30
0.0
 11
-2.5
 21
0.0
 31
0.0
  0
ARC
  8
0
 10
-5.065849
 20
1.25
 30
0.0
 40
1.251733
 50
86.984476
 51
273.015524
  0
ARC
  8
0
 10
-5.065849
 20
3.75
 30
0.0
 40
1.251733
 50
86.984476
 51
273.015524
  0
LINE
  8
0
 10
-5.0
 20
2.5
 30
0.0
 11
-2.5
 21
2.5
 31
0.0
  0
LINE
  8
0
 10
-5.0
 20
5.0
 30
0.0
 11
-2.5
 21
5.0
 31
0.0
  0
LINE
  8
0
 10
-2.5
 20
5.0
 30
0.0
 11
0.0
 21
5.0
 31
0.0
  0
LINE
  8
0
 10
-2.5
 20
0.0
 30
0.0
 11
0.0
 21
0.0
 31
0.0
  0
LINE
  8
0
 10
-2.5
 20
5.0
 30
0.0
 11
0.0
 21
5.0
 31
0.0
  0
LINE
  8
0
 10
-2.5
 20
10.0
 30
0.0
 11
0.0
 21
10.0
 31
0.0
  0
LINE
  8
0
 10
-5.0
 20
10.0
 30
0.0
 11
-2.5
 21
10.0
 31
0.0
  0
LINE
  8
0
 10
-5.0
 20
7.5
 30
0.0
 11
-2.5
 21
7.5
 31
0.0
  0
ARC
  8
0
 10
-5.065849
 20
8.75
 30
0.0
 40
1.251733
 50
86.984476
 51
273.015524
  0
ARC
  8
0
 10
-5.065849
 20
6.25
 30
0.0
 40
1.251733
 50
86.984476
 51
273.015524
  0
LINE
  8
0
 10
-5.0
 20
5.0
 30
0.0
 11
-2.5
 21
5.0
 31
0.0
  0
ENDBLK
  8
0
  0
ENDSEC
  0
SECTION
  2
ENTITIES
  0
INSERT
  8
0
  2
1
 10
65.405438
 20
98.713066
 30
0.0
  0
INSERT
  8
0
  2
1
 10
72.541652
 20
49.71056
 30
0.0
  0
INSERT
  8
0
  2
1
 10
85.390443
 20
73.497234
 30
0.0
  0
LINE
  8
0
  6
CENTER
 62
     7
 10
265.0
 20
240.0
 30
0.0
 11
265.0
 21
77.5
 31
0.0
  0
LINE
  8
0
  6
CONTINUOUS
 62
     7
 10
237.5
 20
92.5
 30
0.0
 11
247.5
 21
92.5
 31
0.0
  0
LINE
  8
0
  6
CONTINUOUS
 62
     7
 10
237.5
 20
92.5
 30
0.0
 11
240.0
 21
95.0
 31
0.0
  0
LINE
  8
0
  6
CONTINUOUS
 62
     7
 10
242.5
 20
92.5
 30
0.0
 11
245.0
 21
95.0
 31
0.0
  0
LINE
  8
0
  6
CONTINUOUS
 62
     7
 10
247.5
 20
92.5
 30
0.0
 11
250.0
 21
95.0
 31
0.0
  0
LINE
  8
0
  6
CONTINUOUS
 62
     7
 10
242.5
 20
92.5
 30
0.0
 11
242.5
 21
77.5
 31
0.0
  0
LINE
  8
0
  6
CONTINUOUS
 62
     7
 10
230.0
 20
95.0
 30
0.0
 11
230.0
 21
77.5
 31
0.0
  0
LINE
  8
0
  6
CONTINUOUS
 62
     7
 10
225.0
 20
95.0
 30
0.0
 11
225.0
 21
77.5
 31
0.0
  0
LINE
  8
0
  6
DASHED
 62
     7
 10
230.0
 20
77.5
 30
0.0
 11
230.0
 21
70.0
 31
0.0
  0
LINE
  8
0
  6
DASHED
 62
     7
 10
242.5
 20
77.5
 30
0.0
 11
242.5
 21
70.0
 31
0.0
  0
LINE
  8
0
  6
DASHED
 62
     7
 10
225.0
 20
77.5
 30
0.0
 11
225.0
 21
70.0
 31
0.0
  0
LINE
  8
0
  6
DASHED
 62
     7
 10
180.0
 20
77.5
 30
0.0
 11
180.0
 21
70.0
 31
0.0
  0
LINE
  8
0
  6
CONTINUOUS
 62
     7
 10
197.5
 20
142.732891
 30
0.0
 11
227.950615
 21
142.732891
 31
0.0
  0
TEXT
  8
0
  6
CONTINUOUS
 62
     7
 10
209.408766
 20
138.795815
 30
0.0
 40
2.5
  1
IRF
 11
209.408766
 21
137.962481
 31
0.0
 73
     1
  0
LINE
  8
0
  6
CONTINUOUS
 62
     7
 10
227.950615
 20
137.5
 30
0.0
 11
197.5
 21
137.5
 31
0.0
  0
LINE
  8
0
  6
CONTINUOUS
 62
     7
 10
227.950615
 20
149.709828
 30
0.0
 11
227.950615
 21
137.5
 31
0.0
  0
LINE
  8
0
  6
CONTINUOUS
 62
     7
 10
227.950615
 20
232.5
 30
0.0
 11
227.950615
 21
149.68832
 31
0.0
  0
LINE
  8
0
  6
CONTINUOUS
 62
     7
 10
197.5
 20
147.5
 30
0.0
 11
227.950615
 21
147.5
 31
0.0
  0
LINE
  8
0
  6
CONTINUOUS
 62
     7
 10
197.5
 20
227.5
 30
0.0
 11
197.5
 21
147.5
 31
0.0
  0
LINE
  8
0
  6
CONTINUOUS
 62
     7
 10
197.5
 20
227.5
 30
0.0
 11
197.5
 21
232.5
 31
0.0
  0
LINE
  8
0
  6
CONTINUOUS
 62
     7
 10
197.5
 20
147.5
 30
0.0
 11
197.5
 21
137.5
 31
0.0
  0
LINE
  8
0
  6
CENTER
 62
     7
 10
62.5
 20
240.0
 30
0.0
 11
62.5
 21
77.5
 31
0.0
  0
LINE
  8
0
  6
CENTER
 62
     7
 10
62.5
 20
77.5
 30
0.0
 11
265.0
 21
77.5
 31
0.0
  0
LINE
  8
0
  6
CENTER
 62
     7
 10
265.0
 20
240.0
 30
0.0
 11
62.5
 21
240.0
 31
0.0
  0
LINE
  8
0
  6
DASHED
 62
     7
 10
190.0
 20
77.5
 30
0.0
 11
190.0
 21
70.0
 31
0.0
  0
LINE
  8
0
  6
DASHED
 62
     7
 10
195.0
 20
77.5
 30
0.0
 11
195.0
 21
70.0
 31
0.0
  0
ARC
  8
0
  6
CONTINUOUS
 62
     7
 10
267.5
 20
145.0
 30
0.0
 40
2.5
 50
90.0
 51
270.0
  0
TEXT
  8
0
  6
DASHED
 62
     7
 10
41.869019
 20
230.0
 30
0.0
 40
2.0
  1
1)
  7
ROMANS
  0
LINE
  8
0
  6
CONTINUOUS
 62
     7
 10
115.0
 20
127.5
 30
0.0
 11
135.0
 21
127.5
 31
0.0
  0
LINE
  8
0
  6
CONTINUOUS
 62
     7
 10
115.0
 20
132.5
 30
0.0
 11
115.0
 21
127.5
 31
0.0
  0
LINE
  8
0
  6
CONTINUOUS
 62
     7
 10
135.0
 20
132.5
 30
0.0
 11
115.0
 21
132.5
 31
0.0
  0
LINE
  8
0
  6
CONTINUOUS
 62
     7
 10
125.0
 20
125.0
 30
0.0
 11
125.0
 21
120.0
 31
0.0
  0
LINE
  8
0
  6
CONTINUOUS
 62
     7
 10
125.0
 20
127.5
 30
0.0
 11
125.0
 21
125.0
 31
0.0
  0
LINE
  8
0
  6
CONTINUOUS
 62
     7
 10
124.583001
 20
130.289195
 30
0.0
 11
122.237236
 21
129.099276
 31
0.0
  0
LINE
  8
0
  6
CONTINUOUS
 62
     7
 10
122.229194
 20
128.299262
 30
0.0
 11
124.612655
 21
129.487454
 31
0.0
  0
LINE
  8
0
  6
CONTINUOUS
 62
     7
 10
122.237236
 20
131.624549
 30
0.0
 11
124.583001
 21
130.289195
 31
0.0
  0
TEXT
  8
0
  6
CONTINUOUS
 62
     7
 10
126.671098
 20
128.964455
 30
0.0
 40
2.5
  1
1
 11
126.671098
 21
128.131122
 31
0.0
 73
     1
  0
LINE
  8
0
  6
CONTINUOUS
 62
     7
 10
135.0
 20
132.5
 30
0.0
 11
135.0
 21
127.5
 31
0.0
  0
LINE
  8
0
  6
CONTINUOUS
 62
     7
 10
117.5
 20
132.5
 30
0.0
 11
117.5
 21
135.0
 31
0.0
  0
LINE
  8
0
  6
CONTINUOUS
 62
     7
 10
122.5
 20
132.5
 30
0.0
 11
122.5
 21
135.0
 31
0.0
  0
LINE
  8
0
  6
CONTINUOUS
 62
     7
 10
127.5
 20
132.5
 30
0.0
 11
127.5
 21
135.0
 31
0.0
  0
LINE
  8
0
  6
CONTINUOUS
 62
     7
 10
150.0
 20
132.5
 30
0.0
 11
150.0
 21
127.5
 31
0.0
  0
TEXT
  8
0
  6
CONTINUOUS
 62
     7
 10
146.812839
 20
128.964455
 30
0.0
 40
2.5
  1
1
 11
146.812839
 21
128.131122
 31
0.0
 73
     1
  0
LINE
  8
0
  6
CONTINUOUS
 62
     7
 10
142.378977
 20
131.624549
 30
0.0
 11
144.724743
 21
130.289195
 31
0.0
  0
LINE
  8
0
  6
CONTINUOUS
 62
     7
 10
142.370935
 20
128.299262
 30
0.0
 11
144.754396
 21
129.487454
 31
0.0
  0
LINE
  8
0
  6
CONTINUOUS
 62
     7
 10
144.724743
 20
130.289195
 30
0.0
 11
142.378977
 21
129.099276
 31
0.0
  0
LINE
  8
0
  6
CONTINUOUS
 62
     7
 10
145.0
 20
127.5
 30
0.0
 11
145.0
 21
125.0
 31
0.0
  0
LINE
  8
0
  6
CONTINUOUS
 62
     7
 10
145.0
 20
125.0
 30
0.0
 11
145.0
 21
120.0
 31
0.0
  0
LINE
  8
0
  6
CONTINUOUS
 62
     7
 10
150.0
 20
132.5
 30
0.0
 11
140.0
 21
132.5
 31
0.0
  0
LINE
  8
0
  6
CONTINUOUS
 62
     7
 10
140.0
 20
132.5
 30
0.0
 11
140.0
 21
127.5
 31
0.0
  0
LINE
  8
0
  6
CONTINUOUS
 62
     7
 10
140.0
 20
127.5
 30
0.0
 11
150.0
 21
127.5
 31
0.0
  0
LINE
  8
0
  6
CONTINUOUS
 62
     7
 10
127.5
 20
140.0
 30
0.0
 11
127.5
 21
180.624197
 31
0.0
  0
LINE
  8
0
  6
CONTINUOUS
 62
     7
 10
100.221556
 20
230.0
 30
0.0
 11
175.0
 21
230.0
 31
0.0
  0
LINE
  8
0
  6
CONTINUOUS
 62
     7
 10
122.5
 20
140.0
 30
0.0
 11
122.5
 21
219.861335
 31
0.0
  0
LINE
  8
0
  6
CONTINUOUS
 62
     7
 10
122.5
 20
135.0
 30
0.0
 11
120.785914
 21
140.086297
 31
0.0
  0
LINE
  8
0
  6
CONTINUOUS
 62
     7
 10
127.5
 20
135.0
 30
0.0
 11
125.785914
 21
140.086297
 31
0.0
  0
LINE
  8
0
  6
CONTINUOUS
 62
     7
 10
117.5
 20
135.0
 30
0.0
 11
115.785914
 21
140.086297
 31
0.0
  0
LINE
  8
0
  6
CONTINUOUS
 62
     7
 10
117.5
 20
140.0
 30
0.0
 11
117.5
 21
223.145275
 31
0.0
  0
LINE
  8
0
  6
DASHED
 62
     7
 10
270.0
 20
145.0
 30
0.0
 11
280.0
 21
145.0
 31
0.0
  0
LINE
  8
0
  6
CONTINUOUS
 62
     7
 10
261.063198
 20
144.25712
 30
0.0
 11
262.279906
 21
145.667057
 31
0.0
  0
TEXT
  8
0
  6
CONTINUOUS
 62
     7
 10
262.036564
 20
146.570297
 30
0.0
 40
2.0
  1
9
  7
ROMANS
  0
LINE
  8
0
  6
DASHED
 62
     7
 10
62.5
 20
117.5
 30
0.0
 11
52.5
 21
117.5
 31
0.0
  0
LINE
  8
0
  6
DASHED
 62
     7
 10
62.5
 20
90.0
 30
0.0
 11
52.5
 21
90.0
 31
0.0
  0
TEXT
  8
0
  6
CONTINUOUS
 62
     7
 10
47.5
 20
116.532746
 30
0.0
 40
2.0
  1
3)
  7
ROMANS
  0
TEXT
  8
0
  6
CONTINUOUS
 62
     7
 10
47.5
 20
108.900841
 30
0.0
 40
2.0
  1
4)
  7
ROMANS
  0
TEXT
  8
0
  6
CONTINUOUS
 62
     7
 10
47.5
 20
101.515243
 30
0.0
 40
2.0
  1
5)
  7
ROMANS
  0
TEXT
  8
0
  6
CONTINUOUS
 62
     7
 10
47.5
 20
88.991877
 30
0.0
 40
2.0
  1
6)
  7
ROMANS
  0
LINE
  8
0
  6
CONTINUOUS
 62
     7
 10
92.798812
 20
227.5
 30
0.0
 11
62.5
 21
227.5
 31
0.0
  0
LINE
  8
0
 62
     7
 10
92.798812
 20
234.089925
 30
0.0
 11
92.798812
 21
225.9
 31
0.0
  0
LINE
  8
0
 62
     7
 10
97.004853
 20
234.09384
 30
0.0
 11
95.09105
 21
231.815018
 31
0.0
  0
LINE
  8
0
 62
     7
 10
98.496971
 20
234.09384
 30
0.0
 11
96.642636
 21
231.815018
 31
0.0
  0
LINE
  8
0
 62
     7
 10
100.221556
 20
234.089925
 30
0.0
 11
92.798812
 21
234.089925
 31
0.0
  0
LINE
  8
0
 62
     7
 10
92.798812
 20
225.9
 30
0.0
 11
100.221556
 21
225.9
 31
0.0
  0
LINE
  8
0
 62
     7
 10
100.221556
 20
225.9
 30
0.0
 11
100.221556
 21
234.089925
 31
0.0
  0
INSERT
  8
0
  6
CONTINUOUS
 62
     7
  2
BLC29
 10
240.764568
 20
144.871533
 30
0.0
 41
-1.0
 50
180.0
  0
LINE
  8
0
  6
CONTINUOUS
 62
     7
 10
265.0
 20
145.0
 30
0.0
 11
227.950615
 21
145.0
 31
0.0
  0
LINE
  8
0
  6
CONTINUOUS
 62
     7
 10
180.0
 20
77.5
 30
0.0
 11
180.0
 21
95.0
 31
0.0
  0
TEXT
  8
0
  6
DASHED
 62
     7
 10
201.426232
 20
143.582908
 30
0.0
 40
2.5
  1
SERIAL I/O
  0
TEXT
  8
0
  6
DASHED
 62
     7
 10
372.5
 20
12.5
 30
0.0
 40
2.0
  1
1
  7
ROMANS
  0
LINE
  8
0
  6
CONTINUOUS
 62
     7
 10
155.0
 20
127.5
 30
0.0
 11
165.0
 21
127.5
 31
0.0
  0
LINE
  8
0
  6
CONTINUOUS
 62
     7
 10
155.0
 20
132.5
 30
0.0
 11
155.0
 21
127.5
 31
0.0
  0
LINE
  8
0
  6
CONTINUOUS
 62
     7
 10
165.0
 20
132.5
 30
0.0
 11
165.0
 21
127.5
 31
0.0
  0
LINE
  8
0
  6
CONTINUOUS
 62
     7
 10
165.0
 20
132.5
 30
0.0
 11
155.0
 21
132.5
 31
0.0
  0
LINE
  8
0
  6
CONTINUOUS
 62
     7
 10
160.0
 20
125.0
 30
0.0
 11
160.0
 21
120.0
 31
0.0
  0
LINE
  8
0
  6
CONTINUOUS
 62
     7
 10
162.5
 20
132.5
 30
0.0
 11
162.5
 21
135.0
 31
0.0
  0
LINE
  8
0
  6
CONTINUOUS
 62
     7
 10
160.0
 20
127.5
 30
0.0
 11
160.0
 21
125.0
 31
0.0
  0
LINE
  8
0
  6
CONTINUOUS
 62
     7
 10
159.751902
 20
130.289195
 30
0.0
 11
157.406137
 21
129.099276
 31
0.0
  0
LINE
  8
0
  6
CONTINUOUS
 62
     7
 10
157.398095
 20
128.299262
 30
0.0
 11
159.781556
 21
129.487454
 31
0.0
  0
LINE
  8
0
  6
CONTINUOUS
 62
     7
 10
157.406137
 20
131.624549
 30
0.0
 11
159.751902
 21
130.289195
 31
0.0
  0
TEXT
  8
0
  6
CONTINUOUS
 62
     7
 10
161.839999
 20
128.964455
 30
0.0
 40
2.5
  1
1
 11
161.839999
 21
128.131122
 31
0.0
 73
     1
  0
LINE
  8
0
  6
CONTINUOUS
 62
     7
 10
162.5
 20
135.0
 30
0.0
 11
160.785914
 21
140.086297
 31
0.0
  0
LINE
  8
0
  6
CONTINUOUS
 62
     7
 10
162.5
 20
140.0
 30
0.0
 11
162.5
 21
152.5
 31
0.0
  0
LINE
  8
0
  6
CONTINUOUS
 62
     7
 10
142.5
 20
135.0
 30
0.0
 11
140.785914
 21
140.086297
 31
0.0
  0
LINE
  8
0
  6
CONTINUOUS
 62
     7
 10
142.5
 20
140.0
 30
0.0
 11
142.5
 21
207.5
 31
0.0
  0
LINE
  8
0
  6
CONTINUOUS
 62
     7
 10
142.5
 20
132.5
 30
0.0
 11
142.5
 21
135.0
 31
0.0
  0
LINE
  8
0
  6
CONTINUOUS
 62
     7
 10
147.5
 20
135.0
 30
0.0
 11
145.785914
 21
140.086297
 31
0.0
  0
LINE
  8
0
  6
CONTINUOUS
 62
     7
 10
147.5
 20
140.0
 30
0.0
 11
147.5
 21
195.0
 31
0.0
  0
LINE
  8
0
  6
CONTINUOUS
 62
     7
 10
147.5
 20
132.5
 30
0.0
 11
147.5
 21
135.0
 31
0.0
  0
CIRCLE
  8
0
  6
CONTINUOUS
 62
     7
 10
196.512659
 20
140.784079
 30
0.0
 40
1.0
  0
LINE
  8
0
  6
CONTINUOUS
 62
     7
 10
195.513509
 20
140.825312
 30
0.0
 11
175.0
 21
140.825312
 31
0.0
  0
TEXT
  8
0
 62
     7
 10
240.965704
 20
61.854458
 30
0.0
 40
1.92
  1
PE
  0
LINE
  8
0
 62
     7
 10
241.024091
 20
66.550711
 30
0.0
 11
244.073201
 21
66.550711
 31
0.0
  0
LINE
  8
0
 62
     7
 10
242.49999
 20
67.185023
 30
0.0
 11
242.49999
 21
70.000268
 31
0.0
  0
LINE
  8
0
 62
     7
 10
241.607964
 20
65.88116
 30
0.0
 11
243.527173
 21
65.88116
 31
0.0
  0
LINE
  8
0
 62
     7
 10
244.402981
 20
67.185023
 30
0.0
 11
243.80289
 21
67.185023
 31
0.0
  0
LINE
  8
0
 62
     7
 10
240.688906
 20
67.185023
 30
0.0
 11
244.381356
 21
67.185023
 31
0.0
  0
CIRCLE
  8
0
 62
     7
 10
242.505397
 20
66.695585
 30
0.0
 40
2.282738
  0
TEXT
  8
0
  6
DASHED
 62
     7
 10
282.5
 20
143.895869
 30
0.0
 40
2.0
  1
2)
  7
ROMANS
  0
LINE
  8
0
  6
CONTINUOUS
 62
     7
 10
62.5
 20
232.5
 30
0.0
 11
92.798812
 21
232.5
 31
0.0
  0
LINE
  8
0
  6
CONTINUOUS
 62
     7
 10
150.0
 20
90.0
 30
0.0
 11
62.5
 21
90.0
 31
0.0
  0
LINE
  8
0
  6
CONTINUOUS
 62
     7
 10
150.0
 20
95.0
 30
0.0
 11
62.5
 21
95.0
 31
0.0
  0
LINE
  8
0
  6
CONTINUOUS
 62
     7
 10
172.5
 20
90.0
 30
0.0
 11
150.0
 21
90.0
 31
0.0
  0
LINE
  8
0
  6
CONTINUOUS
 62
     7
 10
150.0
 20
95.0
 30
0.0
 11
170.0
 21
95.0
 31
0.0
  0
LINE
  8
0
  6
CONTINUOUS
 62
     7
 10
176.853436
 20
94.638137
 30
0.0
 11
171.756076
 21
91.785297
 31
0.0
  0
LINE
  8
0
  6
CONTINUOUS
 62
     7
 10
172.5
 20
90.0
 30
0.0
 11
172.5
 21
92.5
 31
0.0
  0
LINE
  8
0
  6
DASHED
 62
     7
 10
62.5
 20
110.0
 30
0.0
 11
52.5
 21
110.0
 31
0.0
  0
LINE
  8
0
  6
DASHED
 62
     7
 10
62.5
 20
102.5
 30
0.0
 11
52.5
 21
102.5
 31
0.0
  0
LINE
  8
0
  6
CONTINUOUS
 62
     7
 10
180.0
 20
95.0
 30
0.0
 11
178.240939
 21
95.0
 31
0.0
  0
LINE
  8
0
  6
CONTINUOUS
 62
     7
 10
185.0
 20
77.5
 30
0.0
 11
185.0
 21
102.5
 31
0.0
  0
TEXT
  8
0
  6
CONTINUOUS
 62
     7
 10
380.0
 20
2.5
 30
0.0
 40
2.5
  1
B
  7
ROMANS
  0
LINE
  8
0
  6
DASHED
 62
     7
 10
271.0
 20
227.5
 30
0.0
 11
285.0
 21
227.5
 31
0.0
  0
LINE
  8
0
  6
DASHED
 62
     7
 10
185.0
 20
77.5
 30
0.0
 11
185.0
 21
70.0
 31
0.0
  0
LINE
  8
0
  6
CONTINUOUS
 62
     7
 10
260.0
 20
227.5
 30
0.0
 11
265.0
 21
227.5
 31
0.0
  0
LINE
  8
0
  6
CONTINUOUS
 62
     7
 10
260.0
 20
222.5
 30
0.0
 11
265.0
 21
222.5
 31
0.0
  0
LINE
  8
0
  6
CONTINUOUS
 62
     7
 10
260.0
 20
217.5
 30
0.0
 11
265.0
 21
217.5
 31
0.0
  0
LINE
  8
0
  6
CONTINUOUS
 62
     7
 10
260.0
 20
205.0
 30
0.0
 11
265.0
 21
205.0
 31
0.0
  0
LINE
  8
0
  6
CONTINUOUS
 62
     7
 10
260.0
 20
200.0
 30
0.0
 11
265.0
 21
200.0
 31
0.0
  0
LINE
  8
0
  6
CONTINUOUS
 62
     7
 10
260.0
 20
195.0
 30
0.0
 11
265.0
 21
195.0
 31
0.0
  0
LINE
  8
0
  6
CONTINUOUS
 62
     7
 10
271.0
 20
199.5
 30
0.0
 11
270.0
 21
198.5
 31
0.0
  0
LINE
  8
0
  6
CONTINUOUS
 62
     7
 10
271.0
 20
206.5
 30
0.0
 11
271.0
 21
199.5
 31
0.0
  0
LINE
  8
0
  6
CONTINUOUS
 62
     7
 10
271.0
 20
206.5
 30
0.0
 11
270.0
 21
207.5
 31
0.0
  0
LINE
  8
0
  6
CONTINUOUS
 62
     7
 10
265.0
 20
205.0
 30
0.0
 11
269.266471
 21
205.0
 31
0.0
  0
LINE
  8
0
  6
CONTINUOUS
 62
     7
 10
265.0
 20
200.0
 30
0.0
 11
269.266471
 21
200.0
 31
0.0
  0
LINE
  8
0
  6
CONTINUOUS
 62
     7
 10
265.0
 20
222.5
 30
0.0
 11
269.266471
 21
222.5
 31
0.0
  0
LINE
  8
0
  6
CONTINUOUS
 62
     7
 10
265.0
 20
227.5
 30
0.0
 11
269.266471
 21
227.5
 31
0.0
  0
LINE
  8
0
  6
CONTINUOUS
 62
     7
 10
271.0
 20
229.0
 30
0.0
 11
270.0
 21
230.0
 31
0.0
  0
LINE
  8
0
  6
CONTINUOUS
 62
     7
 10
271.0
 20
229.0
 30
0.0
 11
271.0
 21
222.0
 31
0.0
  0
LINE
  8
0
  6
CONTINUOUS
 62
     7
 10
271.0
 20
222.0
 30
0.0
 11
270.0
 21
221.0
 31
0.0
  0
TEXT
  8
0
  6
CONTINUOUS
 62
     7
 10
271.893346
 20
228.640889
 30
0.0
 40
2.0
  1
7)
  7
ROMANS
  0
TEXT
  8
0
  6
CONTINUOUS
 62
     7
 10
271.893346
 20
206.140889
 30
0.0
 40
2.0
  1
7)
  7
ROMANS
  0
LINE
  8
0
  6
CONTINUOUS
 62
     7
 10
327.342563
 20
53.11456
 30
0.0
 11
327.342563
 21
78.11456
 31
0.0
  0
LINE
  8
0
  6
CONTINUOUS
 62
     7
 10
364.842563
 20
53.11456
 30
0.0
 11
327.342563
 21
53.11456
 31
0.0
  0
LINE
  8
0
  6
CONTINUOUS
 62
     7
 10
364.842563
 20
78.11456
 30
0.0
 11
364.842563
 21
53.11456
 31
0.0
  0
LINE
  8
0
  6
CONTINUOUS
 62
     7
 10
319.842563
 20
78.11456
 30
0.0
 11
364.842563
 21
78.11456
 31
0.0
  0
LINE
  8
0
  6
CONTINUOUS
 62
     7
 10
319.842563
 20
53.11456
 30
0.0
 11
319.842563
 21
78.11456
 31
0.0
  0
LINE
  8
0
  6
CONTINUOUS
 62
     7
 10
327.342563
 20
53.11456
 30
0.0
 11
319.842563
 21
53.11456
 31
0.0
  0
TEXT
  8
0
  6
CONTINUOUS
 62
     7
 10
350.087794
 20
69.10604
 30
0.0
 40
2.0
  1
Un=110V
  7
ROMANS
  0
TEXT
  8
0
  6
CONTINUOUS
 62
     7
 10
329.972137
 20
69.10604
 30
0.0
 40
2.0
  1
Un=100V
  7
ROMANS
  0
LINE
  8
0
  6
CONTINUOUS
 62
     7
 10
345.9579
 20
53.11456
 30
0.0
 11
345.9579
 21
73.11456
 31
0.0
  0
LINE
  8
0
  6
CONTINUOUS
 62
     7
 10
327.342563
 20
68.11456
 30
0.0
 11
364.842563
 21
68.11456
 31
0.0
  0
LINE
  8
0
  6
CONTINUOUS
 62
     7
 10
327.342563
 20
73.11456
 30
0.0
 11
364.842563
 21
73.11456
 31
0.0
  0
TEXT
  8
0
  6
DASHED
 62
     7
 10
328.998308
 20
74.528062
 30
0.0
 40
2.0
  1
TERMINALS / UTTAG
  7
ROMANS
  0
TEXT
  8
0
  6
CONTINUOUS
 62
     7
 10
314.528824
 20
75.726189
 30
0.0
 40
2.0
  1
7)
  7
ROMANS
  0
LINE
  8
0
  6
CONTINUOUS
 62
     7
 10
202.972992
 20
149.238272
 30
0.0
 11
201.417971
 21
150.206405
 31
0.0
  0
LINE
  8
0
  6
CONTINUOUS
 62
     7
 10
201.417971
 20
150.206405
 30
0.0
 11
203.04041
 21
150.950668
 31
0.0
  0
TEXT
  8
0
  6
CONTINUOUS
 62
     7
 10
198.708847
 20
149.063256
 30
0.0
 40
2.0
  1
U
  0
LINE
  8
0
  6
CONTINUOUS
 62
     7
 10
201.431132
 20
154.330415
 30
0.0
 11
202.986153
 21
153.362282
 31
0.0
  0
LINE
  8
0
  6
CONTINUOUS
 62
     7
 10
202.986153
 20
153.362282
 30
0.0
 11
201.363715
 21
152.618019
 31
0.0
  0
TEXT
  8
0
  6
CONTINUOUS
 62
     7
 10
198.708847
 20
152.479233
 30
0.0
 40
2.0
  1
U
  0
LINE
  8
0
  6
CONTINUOUS
 62
     7
 10
216.467927
 20
152.246652
 30
0.0
 11
216.467927
 21
150.458521
 31
0.0
  0
LINE
  8
0
  6
CONTINUOUS
 62
     7
 10
213.490396
 20
153.599536
 30
0.0
 11
214.391073
 21
152.475787
 31
0.0
  0
LINE
  8
0
  6
CONTINUOUS
 62
     7
 10
211.068408
 20
150.233771
 30
0.0
 11
213.944519
 21
153.062329
 31
0.0
  0
LINE
  8
0
  6
CONTINUOUS
 62
     7
 10
208.684263
 20
151.401374
 30
0.0
 11
216.472468
 21
151.401374
 31
0.0
  0
LINE
  8
0
  6
CONTINUOUS
 62
     7
 10
208.653232
 20
152.246652
 30
0.0
 11
208.653232
 21
150.458521
 31
0.0
  0
LINE
  8
0
  6
CONTINUOUS
 62
     7
 10
217.5
 20
147.5
 30
0.0
 11
217.5
 21
175.0
 31
0.0
  0
LINE
  8
0
  6
CONTINUOUS
 62
     7
 10
217.5
 20
157.5
 30
0.0
 11
197.5
 21
157.5
 31
0.0
  0
TEXT
  8
0
  6
HIDDEN
 62
     7
 10
198.625127
 20
158.153617
 30
0.0
 40
2.008047
  1
D
  7
GREEKC
  0
TEXT
  8
0
  6
CONTINUOUS
 62
     7
 10
200.995281
 20
158.149408
 30
0.0
 40
2.0
  1
f
  0
LINE
  8
0
  6
CONTINUOUS
 62
     7
 10
204.648912
 20
158.151024
 30
0.0
 11
203.093891
 21
159.119157
 31
0.0
  0
LINE
  8
0
  6
CONTINUOUS
 62
     7
 10
203.093891
 20
159.119157
 30
0.0
 11
204.71633
 21
159.86342
 31
0.0
  0
TEXT
  8
0
  6
CONTINUOUS
 62
     7
 10
200.740114
 20
163.039536
 30
0.0
 40
1.885723
  1
f
  7
GREEKC
  0
TEXT
  8
0
  6
HIDDEN
 62
     7
 10
198.625127
 20
162.401914
 30
0.0
 40
2.008047
  1
D
  7
GREEKC
  0
LINE
  8
0
  6
CONTINUOUS
 62
     7
 10
204.648912
 20
162.39065
 30
0.0
 11
203.093891
 21
163.358783
 31
0.0
  0
LINE
  8
0
  6
CONTINUOUS
 62
     7
 10
203.093891
 20
163.358783
 30
0.0
 11
204.71633
 21
164.103046
 31
0.0
  0
TEXT
  8
0
  6
HIDDEN
 62
     7
 10
198.625127
 20
166.75425
 30
0.0
 40
2.008047
  1
D
  7
GREEKC
  0
TEXT
  8
0
  6
CONTINUOUS
 62
     7
 10
201.007252
 20
166.715361
 30
0.0
 40
2.0
  1
U
  0
LINE
  8
0
  6
CONTINUOUS
 62
     7
 10
204.648912
 20
166.638946
 30
0.0
 11
203.093891
 21
167.607079
 31
0.0
  0
LINE
  8
0
  6
CONTINUOUS
 62
     7
 10
203.093891
 20
167.607079
 30
0.0
 11
204.71633
 21
168.351342
 31
0.0
  0
TEXT
  8
0
  6
CONTINUOUS
 62
     7
 10
198.852497
 20
170.868287
 30
0.0
 40
2.0
  1
U
  0
LINE
  8
0
  6
CONTINUOUS
 62
     7
 10
203.249512
 20
171.751336
 30
0.0
 11
201.627073
 21
171.007073
 31
0.0
  0
LINE
  8
0
  6
CONTINUOUS
 62
     7
 10
201.694491
 20
172.719469
 30
0.0
 11
203.249512
 21
171.751336
 31
0.0
  0
LINE
  8
0
  6
CONTINUOUS
 62
     7
 10
197.5
 20
175.0
 30
0.0
 11
217.5
 21
175.0
 31
0.0
  0
LINE
  8
0
  6
CONTINUOUS
 62
     7
 10
208.653232
 20
165.87588
 30
0.0
 11
208.653232
 21
164.087749
 31
0.0
  0
LINE
  8
0
  6
CONTINUOUS
 62
     7
 10
208.684263
 20
165.030602
 30
0.0
 11
216.472468
 21
165.030602
 31
0.0
  0
LINE
  8
0
  6
CONTINUOUS
 62
     7
 10
216.467927
 20
165.87588
 30
0.0
 11
216.467927
 21
164.087749
 31
0.0
  0
CIRCLE
  8
0
  6
CONTINUOUS
 62
     7
 10
196.512659
 20
187.366886
 30
0.0
 40
1.0
  0
TEXT
  8
0
  6
CONTINUOUS
 62
     7
 10
198.481401
 20
186.370233
 30
0.0
 40
2.0
  1
EN
  7
ROMANS
  0
TEXT
  8
0
  6
CONTINUOUS
 62
     7
 10
198.457459
 20
183.092976
 30
0.0
 40
2.0
  1
CS
  7
ROMANS
  0
TEXT
  8
0
  6
CONTINUOUS
 62
     7
 10
198.457459
 20
179.759643
 30
0.0
 40
2.0
  1
NC23
  7
ROMANS
  0
TEXT
  8
0
  6
CONTINUOUS
 62
     7
 10
198.457459
 20
176.42631
 30
0.0
 40
2.0
  1
CSF23
  7
ROMANS
  0
LINE
  8
0
  6
CONTINUOUS
 62
     7
 10
197.5
 20
190.0
 30
0.0
 11
227.950615
 21
190.0
 31
0.0
  0
TEXT
  8
0
  6
CONTINUOUS
 62
     7
 10
198.457459
 20
225.592976
 30
0.0
 40
2.0
  1
CS
  7
ROMANS
  0
TEXT
  8
0
  6
CONTINUOUS
 62
     7
 10
198.487818
 20
228.983343
 30
0.0
 40
2.0
  1
EN
  7
ROMANS
  0
LINE
  8
0
  6
CONTINUOUS
 62
     7
 10
216.467927
 20
208.37588
 30
0.0
 11
216.467927
 21
206.587749
 31
0.0
  0
LINE
  8
0
  6
CONTINUOUS
 62
     7
 10
208.684263
 20
207.530602
 30
0.0
 11
216.472468
 21
207.530602
 31
0.0
  0
LINE
  8
0
  6
CONTINUOUS
 62
     7
 10
208.653232
 20
208.37588
 30
0.0
 11
208.653232
 21
206.587749
 31
0.0
  0
LINE
  8
0
  6
CONTINUOUS
 62
     7
 10
201.694491
 20
215.219469
 30
0.0
 11
203.249512
 21
214.251336
 31
0.0
  0
LINE
  8
0
  6
CONTINUOUS
 62
     7
 10
203.249512
 20
214.251336
 30
0.0
 11
201.627073
 21
213.507073
 31
0.0
  0
TEXT
  8
0
  6
CONTINUOUS
 62
     7
 10
198.852497
 20
213.368287
 30
0.0
 40
2.0
  1
U
  0
LINE
  8
0
  6
CONTINUOUS
 62
     7
 10
203.093891
 20
210.107079
 30
0.0
 11
204.71633
 21
210.851342
 31
0.0
  0
LINE
  8
0
  6
CONTINUOUS
 62
     7
 10
204.648912
 20
209.138946
 30
0.0
 11
203.093891
 21
210.107079
 31
0.0
  0
TEXT
  8
0
  6
CONTINUOUS
 62
     7
 10
201.007252
 20
209.215361
 30
0.0
 40
2.0
  1
U
  0
TEXT
  8
0
  6
HIDDEN
 62
     7
 10
198.625127
 20
209.25425
 30
0.0
 40
2.008047
  1
D
  7
GREEKC
  0
LINE
  8
0
  6
CONTINUOUS
 62
     7
 10
203.093891
 20
205.858783
 30
0.0
 11
204.71633
 21
206.603046
 31
0.0
  0
LINE
  8
0
  6
CONTINUOUS
 62
     7
 10
204.648912
 20
204.89065
 30
0.0
 11
203.093891
 21
205.858783
 31
0.0
  0
TEXT
  8
0
  6
HIDDEN
 62
     7
 10
198.625127
 20
204.901914
 30
0.0
 40
2.008047
  1
D
  7
GREEKC
  0
TEXT
  8
0
  6
CONTINUOUS
 62
     7
 10
200.740114
 20
205.539536
 30
0.0
 40
1.885723
  1
f
  7
GREEKC
  0
LINE
  8
0
  6
CONTINUOUS
 62
     7
 10
203.093891
 20
201.619157
 30
0.0
 11
204.71633
 21
202.36342
 31
0.0
  0
LINE
  8
0
  6
CONTINUOUS
 62
     7
 10
204.648912
 20
200.651024
 30
0.0
 11
203.093891
 21
201.619157
 31
0.0
  0
TEXT
  8
0
  6
CONTINUOUS
 62
     7
 10
200.995281
 20
200.649408
 30
0.0
 40
2.0
  1
f
  0
TEXT
  8
0
  6
HIDDEN
 62
     7
 10
198.625127
 20
200.653617
 30
0.0
 40
2.008047
  1
D
  7
GREEKC
  0
LINE
  8
0
  6
CONTINUOUS
 62
     7
 10
217.5
 20
190.0
 30
0.0
 11
217.5
 21
217.5
 31
0.0
  0
LINE
  8
0
  6
CONTINUOUS
 62
     7
 10
208.653232
 20
194.746652
 30
0.0
 11
208.653232
 21
192.958521
 31
0.0
  0
LINE
  8
0
  6
CONTINUOUS
 62
     7
 10
208.684263
 20
193.901374
 30
0.0
 11
216.472468
 21
193.901374
 31
0.0
  0
LINE
  8
0
  6
CONTINUOUS
 62
     7
 10
211.068408
 20
192.733771
 30
0.0
 11
213.944519
 21
195.562329
 31
0.0
  0
LINE
  8
0
  6
CONTINUOUS
 62
     7
 10
213.490396
 20
196.099536
 30
0.0
 11
214.391073
 21
194.975787
 31
0.0
  0
LINE
  8
0
  6
CONTINUOUS
 62
     7
 10
216.467927
 20
194.746652
 30
0.0
 11
216.467927
 21
192.958521
 31
0.0
  0
TEXT
  8
0
  6
CONTINUOUS
 62
     7
 10
198.708847
 20
194.979233
 30
0.0
 40
2.0
  1
U
  0
LINE
  8
0
  6
CONTINUOUS
 62
     7
 10
202.986153
 20
195.862282
 30
0.0
 11
201.363715
 21
195.118019
 31
0.0
  0
LINE
  8
0
  6
CONTINUOUS
 62
     7
 10
201.431132
 20
196.830415
 30
0.0
 11
202.986153
 21
195.862282
 31
0.0
  0
TEXT
  8
0
  6
CONTINUOUS
 62
     7
 10
198.708847
 20
191.563256
 30
0.0
 40
2.0
  1
U
  0
LINE
  8
0
  6
CONTINUOUS
 62
     7
 10
201.417971
 20
192.706405
 30
0.0
 11
203.04041
 21
193.450668
 31
0.0
  0
LINE
  8
0
  6
CONTINUOUS
 62
     7
 10
202.972992
 20
191.738272
 30
0.0
 11
201.417971
 21
192.706405
 31
0.0
  0
LINE
  8
0
  6
CONTINUOUS
 62
     7
 10
217.5
 20
200.0
 30
0.0
 11
197.5
 21
200.0
 31
0.0
  0
LINE
  8
0
  6
CONTINUOUS
 62
     7
 10
197.5
 20
217.5
 30
0.0
 11
217.5
 21
217.5
 31
0.0
  0
CIRCLE
  8
0
  6
CONTINUOUS
 62
     7
 10
196.5
 20
229.979354
 30
0.0
 40
1.0
  0
LINE
  8
0
  6
CONTINUOUS
 62
     7
 10
197.5
 20
232.5
 30
0.0
 11
227.950615
 21
232.5
 31
0.0
  0
TEXT
  8
0
  6
CONTINUOUS
 62
     7
 10
213.672418
 20
225.558599
 30
0.0
 40
2.0
  1
SC13/
  7
ROMANS
  0
TEXT
  8
0
  6
CONTINUOUS
 62
     7
 10
213.672418
 20
222.225266
 30
0.0
 40
2.0
  1
VC13
  7
ROMANS
  0
TEXT
  8
0
  6
CONTINUOUS
 62
     7
 10
213.672418
 20
183.085623
 30
0.0
 40
2.0
  1
SC23/
  7
ROMANS
  0
TEXT
  8
0
  6
CONTINUOUS
 62
     7
 10
213.672418
 20
179.75229
 30
0.0
 40
2.0
  1
VC23
  7
ROMANS
  0
LINE
  8
0
  6
CONTINUOUS
 62
     7
 10
132.5
 20
132.5
 30
0.0
 11
132.5
 21
135.0
 31
0.0
  0
LINE
  8
0
  6
CONTINUOUS
 62
     7
 10
132.5
 20
135.0
 30
0.0
 11
130.785914
 21
140.086297
 31
0.0
  0
LINE
  8
0
  6
CONTINUOUS
 62
     7
 10
132.5
 20
140.0
 30
0.0
 11
132.5
 21
177.305597
 31
0.0
  0
LINE
  8
0
  6
CONTINUOUS
 62
     7
 10
161.853436
 20
102.138137
 30
0.0
 11
156.756076
 21
99.285297
 31
0.0
  0
LINE
  8
0
  6
CONTINUOUS
 62
     7
 10
185.0
 20
102.5
 30
0.0
 11
163.240939
 21
102.5
 31
0.0
  0
LINE
  8
0
  6
CONTINUOUS
 62
     7
 10
62.5
 20
102.5
 30
0.0
 11
155.0
 21
102.5
 31
0.0
  0
LINE
  8
0
  6
CONTINUOUS
 62
     7
 10
62.5
 20
110.0
 30
0.0
 11
140.0
 21
110.0
 31
0.0
  0
LINE
  8
0
  6
CONTINUOUS
 62
     7
 10
190.0
 20
110.0
 30
0.0
 11
148.240939
 21
110.0
 31
0.0
  0
LINE
  8
0
  6
CONTINUOUS
 62
     7
 10
146.853436
 20
109.638137
 30
0.0
 11
141.756076
 21
106.785297
 31
0.0
  0
LINE
  8
0
  6
CONTINUOUS
 62
     7
 10
126.853436
 20
117.138137
 30
0.0
 11
121.756076
 21
114.285297
 31
0.0
  0
LINE
  8
0
  6
CONTINUOUS
 62
     7
 10
195.0
 20
117.5
 30
0.0
 11
128.240939
 21
117.5
 31
0.0
  0
LINE
  8
0
  6
CONTINUOUS
 62
     7
 10
62.5
 20
117.5
 30
0.0
 11
120.0
 21
117.5
 31
0.0
  0
LINE
  8
0
 62
     7
 10
100.221556
 20
213.4
 30
0.0
 11
100.221556
 21
221.589925
 31
0.0
  0
LINE
  8
0
 62
     7
 10
92.798812
 20
213.4
 30
0.0
 11
100.221556
 21
213.4
 31
0.0
  0
LINE
  8
0
 62
     7
 10
100.221556
 20
221.589925
 30
0.0
 11
92.798812
 21
221.589925
 31
0.0
  0
LINE
  8
0
 62
     7
 10
98.496971
 20
221.59384
 30
0.0
 11
96.642636
 21
219.315018
 31
0.0
  0
LINE
  8
0
 62
     7
 10
97.004853
 20
221.59384
 30
0.0
 11
95.09105
 21
219.315018
 31
0.0
  0
LINE
  8
0
 62
     7
 10
92.798812
 20
221.589925
 30
0.0
 11
92.798812
 21
213.4
 31
0.0
  0
LINE
  8
0
  6
CONTINUOUS
 62
     7
 10
100.221556
 20
217.5
 30
0.0
 11
112.5
 21
217.5
 31
0.0
  0
LINE
  8
0
  6
CONTINUOUS
 62
     7
 10
100.221556
 20
190.0
 30
0.0
 11
162.5
 21
190.0
 31
0.0
  0
LINE
  8
0
 62
     7
 10
92.798812
 20
194.089925
 30
0.0
 11
92.798812
 21
185.9
 31
0.0
  0
LINE
  8
0
 62
     7
 10
97.004853
 20
194.09384
 30
0.0
 11
95.09105
 21
191.815018
 31
0.0
  0
LINE
  8
0
 62
     7
 10
98.496971
 20
194.09384
 30
0.0
 11
96.642636
 21
191.815018
 31
0.0
  0
LINE
  8
0
 62
     7
 10
100.221556
 20
194.089925
 30
0.0
 11
92.798812
 21
194.089925
 31
0.0
  0
LINE
  8
0
 62
     7
 10
92.798812
 20
185.9
 30
0.0
 11
100.221556
 21
185.9
 31
0.0
  0
LINE
  8
0
 62
     7
 10
100.221556
 20
185.9
 30
0.0
 11
100.221556
 21
194.089925
 31
0.0
  0
LINE
  8
0
 62
     7
 10
100.221556
 20
198.4
 30
0.0
 11
100.221556
 21
206.589925
 31
0.0
  0
LINE
  8
0
 62
     7
 10
92.798812
 20
198.4
 30
0.0
 11
100.221556
 21
198.4
 31
0.0
  0
LINE
  8
0
 62
     7
 10
100.221556
 20
206.589925
 30
0.0
 11
92.798812
 21
206.589925
 31
0.0
  0
LINE
  8
0
 62
     7
 10
98.496971
 20
206.59384
 30
0.0
 11
96.642636
 21
204.315018
 31
0.0
  0
LINE
  8
0
 62
     7
 10
97.004853
 20
206.59384
 30
0.0
 11
95.09105
 21
204.315018
 31
0.0
  0
LINE
  8
0
 62
     7
 10
92.798812
 20
206.589925
 30
0.0
 11
92.798812
 21
198.4
 31
0.0
  0
LINE
  8
0
  6
CONTINUOUS
 62
     7
 10
100.221556
 20
202.5
 30
0.0
 11
167.5
 21
202.5
 31
0.0
  0
LINE
  8
0
  6
CONTINUOUS
 62
     7
 10
197.5
 20
152.5
 30
0.0
 11
162.5
 21
152.5
 31
0.0
  0
LINE
  8
0
  6
CONTINUOUS
 62
     7
 10
197.5
 20
165.0
 30
0.0
 11
157.5
 21
165.0
 31
0.0
  0
LINE
  8
0
  6
CONTINUOUS
 62
     7
 10
197.5
 20
195.0
 30
0.0
 11
147.5
 21
195.0
 31
0.0
  0
LINE
  8
0
  6
CONTINUOUS
 62
     7
 10
197.5
 20
207.5
 30
0.0
 11
142.5
 21
207.5
 31
0.0
  0
LINE
  8
0
  6
CONTINUOUS
 62
     7
 10
157.5
 20
132.5
 30
0.0
 11
157.5
 21
135.0
 31
0.0
  0
LINE
  8
0
  6
CONTINUOUS
 62
     7
 10
157.5
 20
135.0
 30
0.0
 11
155.785914
 21
140.086297
 31
0.0
  0
LINE
  8
0
  6
CONTINUOUS
 62
     7
 10
157.5
 20
140.0
 30
0.0
 11
157.5
 21
165.0
 31
0.0
  0
LINE
  8
0
  6
CONTINUOUS
 62
     7
 10
195.500213
 20
230.0
 30
0.0
 11
192.5
 21
230.0
 31
0.0
  0
LINE
  8
0
  6
CONTINUOUS
 62
     7
 10
192.5
 20
230.0
 30
0.0
 11
187.413703
 21
228.285914
 31
0.0
  0
LINE
  8
0
  6
CONTINUOUS
 62
     7
 10
187.5
 20
230.0
 30
0.0
 11
175.0
 21
230.0
 31
0.0
  0
LINE
  8
0
  6
CONTINUOUS
 62
     7
 10
187.5
 20
226.463875
 30
0.0
 11
112.5
 21
226.463875
 31
0.0
  0
LINE
  8
0
  6
CONTINUOUS
 62
     7
 10
192.5
 20
226.463875
 30
0.0
 11
187.413703
 21
224.749789
 31
0.0
  0
LINE
  8
0
  6
CONTINUOUS
 62
     7
 10
197.5
 20
226.463875
 30
0.0
 11
192.5
 21
226.463875
 31
0.0
  0
LINE
  8
0
  6
CONTINUOUS
 62
     7
 10
192.512445
 20
187.366886
 30
0.0
 11
187.426148
 21
185.6528
 31
0.0
  0
LINE
  8
0
  6
CONTINUOUS
 62
     7
 10
195.512659
 20
187.366886
 30
0.0
 11
192.512445
 21
187.366886
 31
0.0
  0
LINE
  8
0
  6
CONTINUOUS
 62
     7
 10
187.512445
 20
187.366886
 30
0.0
 11
167.5
 21
187.366886
 31
0.0
  0
LINE
  8
0
  6
CONTINUOUS
 62
     7
 10
187.512445
 20
183.977456
 30
0.0
 11
162.5
 21
183.977456
 31
0.0
  0
LINE
  8
0
  6
CONTINUOUS
 62
     7
 10
192.512445
 20
183.977456
 30
0.0
 11
187.426148
 21
182.263369
 31
0.0
  0
LINE
  8
0
  6
CONTINUOUS
 62
     7
 10
197.5
 20
183.977456
 30
0.0
 11
192.512445
 21
183.977456
 31
0.0
  0
LINE
  8
0
  6
CONTINUOUS
 62
     7
 10
197.5
 20
223.145275
 30
0.0
 11
117.5
 21
223.145275
 31
0.0
  0
LINE
  8
0
  6
CONTINUOUS
 62
     7
 10
197.5
 20
219.861335
 30
0.0
 11
122.5
 21
219.861335
 31
0.0
  0
LINE
  8
0
  6
CONTINUOUS
 62
     7
 10
197.5
 20
180.624197
 30
0.0
 11
127.5
 21
180.624197
 31
0.0
  0
LINE
  8
0
  6
CONTINUOUS
 62
     7
 10
197.5
 20
177.305597
 30
0.0
 11
132.5
 21
177.305597
 31
0.0
  0
LINE
  8
0
  6
CONTINUOUS
 62
     7
 10
112.5
 20
217.5
 30
0.0
 11
112.5
 21
226.463875
 31
0.0
  0
LINE
  8
0
  6
CONTINUOUS
 62
     7
 10
167.5
 20
187.366886
 30
0.0
 11
167.5
 21
202.5
 31
0.0
  0
LINE
  8
0
  6
CONTINUOUS
 62
     7
 10
162.5
 20
190.0
 30
0.0
 11
162.5
 21
183.977456
 31
0.0
  0
TEXT
  8
0
  6
CONTINUOUS
 62
     7
 10
178.630647
 20
230.943552
 30
0.0
 40
1.5
  1
SGB/1
  7
ROMANS
  0
TEXT
  8
0
  6
CONTINUOUS
 62
     7
 10
178.630647
 20
227.317134
 30
0.0
 40
1.5
  1
SGB/3
  7
ROMANS
  0
TEXT
  8
0
  6
CONTINUOUS
 62
     7
 10
178.630647
 20
188.000605
 30
0.0
 40
1.5
  1
SGB/2
  7
ROMANS
  0
TEXT
  8
0
  6
CONTINUOUS
 62
     7
 10
178.630647
 20
184.729442
 30
0.0
 40
1.5
  1
SGB/4
  7
ROMANS
  0
TEXT
  8
0
  6
CONTINUOUS
 62
     7
 10
120.619455
 20
141.57467
 30
0.0
 40
2.0
  1
SGR/1
 50
90.0
  7
ROMANS
  0
TEXT
  8
0
  6
CONTINUOUS
 62
     7
 10
125.595925
 20
141.57467
 30
0.0
 40
2.0
  1
SGR/3
 50
90.0
  7
ROMANS
  0
TEXT
  8
0
  6
CONTINUOUS
 62
     7
 10
130.668103
 20
141.57467
 30
0.0
 40
2.0
  1
SGR/5
 50
90.0
  7
ROMANS
  0
TEXT
  8
0
  6
CONTINUOUS
 62
     7
 10
135.560827
 20
141.57467
 30
0.0
 40
2.0
  1
SGR/7
 50
90.0
  7
ROMANS
  0
TEXT
  8
0
  6
CONTINUOUS
 62
     7
 10
145.789326
 20
141.57467
 30
0.0
 40
2.0
  1
SGF/3
 50
90.0
  7
ROMANS
  0
TEXT
  8
0
  6
CONTINUOUS
 62
     7
 10
150.68205
 20
141.57467
 30
0.0
 40
2.0
  1
SGF/4
 50
90.0
  7
ROMANS
  0
TEXT
  8
0
  6
CONTINUOUS
 62
     7
 10
160.707168
 20
141.57467
 30
0.0
 40
2.0
  1
SGF/7
 50
90.0
  7
ROMANS
  0
TEXT
  8
0
  6
CONTINUOUS
 62
     7
 10
165.970764
 20
141.57467
 30
0.0
 40
2.0
  1
SGF/8
 50
90.0
  7
ROMANS
  0
LINE
  8
0
  6
DASHED
 62
     7
 10
160.0
 20
120.0
 30
0.0
 11
160.0
 21
100.0
 31
0.0
  0
LINE
  8
0
  6
DASHED
 62
     7
 10
145.0
 20
120.0
 30
0.0
 11
145.0
 21
107.5
 31
0.0
  0
LINE
  8
0
  6
DASHED
 62
     7
 10
125.0
 20
120.0
 30
0.0
 11
125.0
 21
115.0
 31
0.0
  0
LINE
  8
0
  6
DASHED
 62
     7
 10
175.0
 20
120.0
 30
0.0
 11
175.0
 21
92.5
 31
0.0
  0
LINE
  8
0
  6
CONTINUOUS
 62
     7
 10
175.0
 20
120.0
 30
0.0
 11
175.0
 21
140.825312
 31
0.0
  0
LINE
  8
0
  6
CONTINUOUS
 62
     7
 10
190.0
 20
77.5
 30
0.0
 11
190.0
 21
110.0
 31
0.0
  0
LINE
  8
0
  6
CONTINUOUS
 62
     7
 10
195.0
 20
77.5
 30
0.0
 11
195.0
 21
117.5
 31
0.0
  0
TEXT
  8
0
  6
CONTINUOUS
 62
     7
 10
65.0
 20
229.150341
 30
0.0
 40
2.0
  1
10
  7
ROMANS
  0
TEXT
  8
0
  6
CONTINUOUS
 62
     7
 10
65.0
 20
224.299759
 30
0.0
 40
2.0
  1
11
  7
ROMANS
  0
TEXT
  8
0
  6
CONTINUOUS
 62
     7
 10
65.0
 20
216.752809
 30
0.0
 40
2.0
  1
45
  7
ROMANS
  0
TEXT
  8
0
  6
CONTINUOUS
 62
     7
 10
65.0
 20
212.075627
 30
0.0
 40
2.0
  1
46
  7
ROMANS
  0
TEXT
  8
0
  6
CONTINUOUS
 62
     7
 10
65.0
 20
201.65024
 30
0.0
 40
2.0
  1
22
  7
ROMANS
  0
TEXT
  8
0
  6
CONTINUOUS
 62
     7
 10
65.0
 20
196.973058
 30
0.0
 40
2.0
  1
23
  7
ROMANS
  0
TEXT
  8
0
  6
CONTINUOUS
 62
     7
 10
65.0
 20
189.417438
 30
0.0
 40
2.0
  1
47
  7
ROMANS
  0
TEXT
  8
0
  6
CONTINUOUS
 62
     7
 10
65.0
 20
184.566856
 30
0.0
 40
2.0
  1
48
  7
ROMANS
  0
TEXT
  8
0
  6
CONTINUOUS
 62
     7
 10
65.0
 20
114.249162
 30
0.0
 40
2.0
  1
68
  7
ROMANS
  0
TEXT
  8
0
  6
CONTINUOUS
 62
     7
 10
65.0
 20
106.338072
 30
0.0
 40
2.0
  1
85
  7
ROMANS
  0
TEXT
  8
0
  6
CONTINUOUS
 62
     7
 10
65.0
 20
99.398022
 30
0.0
 40
2.0
  1
87
  7
ROMANS
  0
TEXT
  8
0
  6
CONTINUOUS
 62
     7
 10
65.0
 20
91.729693
 30
0.0
 40
2.0
  1
70
  7
ROMANS
  0
TEXT
  8
0
  6
CONTINUOUS
 62
     7
 10
65.0
 20
86.220191
 30
0.0
 40
2.0
  1
71
  7
ROMANS
  0
TEXT
  8
0
  6
CONTINUOUS
 62
     7
 10
182.970989
 20
79.252021
 30
0.0
 40
2.0
  1
72
 50
90.0
  7
ROMANS
  0
TEXT
  8
0
  6
CONTINUOUS
 62
     7
 10
188.052067
 20
79.252021
 30
0.0
 40
2.0
  1
88
 50
90.0
  7
ROMANS
  0
TEXT
  8
0
  6
CONTINUOUS
 62
     7
 10
192.953583
 20
79.252021
 30
0.0
 40
2.0
  1
86
 50
90.0
  7
ROMANS
  0
TEXT
  8
0
  6
CONTINUOUS
 62
     7
 10
197.87904
 20
79.252021
 30
0.0
 40
2.0
  1
69
 50
90.0
  7
ROMANS
  0
TEXT
  8
0
  6
CONTINUOUS
 62
     7
 10
227.715851
 20
79.252021
 30
0.0
 40
2.0
  1
61
 50
90.0
  7
ROMANS
  0
TEXT
  8
0
  6
CONTINUOUS
 62
     7
 10
233.168026
 20
79.252021
 30
0.0
 40
2.0
  1
62
 50
90.0
  7
ROMANS
  0
TEXT
  8
0
  6
CONTINUOUS
 62
     7
 10
245.59921
 20
79.252021
 30
0.0
 40
2.0
  1
63
 50
90.0
  7
ROMANS
  0
LINE
  8
0
  6
CONTINUOUS
 62
     7
 10
260.0
 20
172.5
 30
0.0
 11
265.0
 21
172.5
 31
0.0
  0
LINE
  8
0
  6
CONTINUOUS
 62
     7
 10
260.0
 20
177.5
 30
0.0
 11
265.0
 21
177.5
 31
0.0
  0
LINE
  8
0
  6
CONTINUOUS
 62
     7
 10
260.0
 20
182.5
 30
0.0
 11
265.0
 21
182.5
 31
0.0
  0
TEXT
  8
0
  6
CONTINUOUS
 62
     7
 10
260.135132
 20
224.656463
 30
0.0
 40
2.0
  1
15
  7
ROMANS
  0
TEXT
  8
0
  6
CONTINUOUS
 62
     7
 10
260.135132
 20
219.875241
 30
0.0
 40
2.0
  1
14
  7
ROMANS
  0
TEXT
  8
0
  6
CONTINUOUS
 62
     7
 10
260.135132
 20
214.868599
 30
0.0
 40
2.0
  1
13
  7
ROMANS
  0
TEXT
  8
0
  6
CONTINUOUS
 62
     7
 10
260.135132
 20
202.093644
 30
0.0
 40
2.0
  1
21
  7
ROMANS
  0
TEXT
  8
0
  6
CONTINUOUS
 62
     7
 10
260.135132
 20
197.069662
 30
0.0
 40
2.0
  1
20
  7
ROMANS
  0
TEXT
  8
0
  6
CONTINUOUS
 62
     7
 10
260.135132
 20
192.29711
 30
0.0
 40
2.0
  1
19
  7
ROMANS
  0
TEXT
  8
0
  6
CONTINUOUS
 62
     7
 10
260.135132
 20
179.348755
 30
0.0
 40
2.0
  1
18
  7
ROMANS
  0
TEXT
  8
0
  6
CONTINUOUS
 62
     7
 10
260.135132
 20
174.619553
 30
0.0
 40
2.0
  1
17
  7
ROMANS
  0
TEXT
  8
0
  6
CONTINUOUS
 62
     7
 10
260.135132
 20
169.916361
 30
0.0
 40
2.0
  1
16
  7
ROMANS
  0
LINE
  8
0
  6
CONTINUOUS
 62
     7
 10
245.806017
 20
177.5
 30
0.0
 11
227.950615
 21
177.5
 31
0.0
  0
LINE
  8
0
  6
CONTINUOUS
 62
     7
 10
227.950615
 20
182.5
 30
0.0
 11
237.5
 21
182.5
 31
0.0
  0
LINE
  8
0
  6
CONTINUOUS
 62
     7
 10
237.5
 20
182.5
 30
0.0
 11
237.5
 21
217.5
 31
0.0
  0
LINE
  8
0
  6
CONTINUOUS
 62
     7
 10
237.5
 20
217.5
 30
0.0
 11
227.950615
 21
217.5
 31
0.0
  0
LINE
  8
0
  6
CONTINUOUS
 62
     7
 10
245.806017
 20
222.5
 30
0.0
 11
227.950615
 21
222.5
 31
0.0
  0
LINE
  8
0
  6
CONTINUOUS
 62
     7
 10
245.806017
 20
200.0
 30
0.0
 11
237.5
 21
200.0
 31
0.0
  0
TEXT
  8
0
  6
DASHED
 62
     7
 10
41.869019
 20
217.5
 30
0.0
 40
2.0
  1
1)
  7
ROMANS
  0
TEXT
  8
0
  6
DASHED
 62
     7
 10
41.869019
 20
202.5
 30
0.0
 40
2.0
  1
1)
  7
ROMANS
  0
TEXT
  8
0
  6
DASHED
 62
     7
 10
41.869019
 20
190.0
 30
0.0
 40
2.0
  1
1)
  7
ROMANS
  0
TEXT
  8
0
  6
CONTINUOUS
 62
     7
 10
271.893346
 20
183.640889
 30
0.0
 40
2.0
  1
7)
  7
ROMANS
  0
LINE
  8
0
  6
CONTINUOUS
 62
     7
 10
265.0
 20
177.5
 30
0.0
 11
269.266471
 21
177.5
 31
0.0
  0
LINE
  8
0
  6
CONTINUOUS
 62
     7
 10
265.0
 20
182.5
 30
0.0
 11
269.266471
 21
182.5
 31
0.0
  0
LINE
  8
0
  6
CONTINUOUS
 62
     7
 10
271.0
 20
184.0
 30
0.0
 11
270.0
 21
185.0
 31
0.0
  0
LINE
  8
0
  6
CONTINUOUS
 62
     7
 10
271.0
 20
184.0
 30
0.0
 11
271.0
 21
177.0
 31
0.0
  0
LINE
  8
0
  6
CONTINUOUS
 62
     7
 10
271.0
 20
177.0
 30
0.0
 11
270.0
 21
176.0
 31
0.0
  0
LINE
  8
0
  6
DASHED
 62
     7
 10
285.0
 20
217.5
 30
0.0
 11
265.0
 21
217.5
 31
0.0
  0
LINE
  8
0
  6
DASHED
 62
     7
 10
285.0
 20
205.0
 30
0.0
 11
271.0
 21
205.0
 31
0.0
  0
LINE
  8
0
  6
DASHED
 62
     7
 10
285.0
 20
195.0
 30
0.0
 11
265.0
 21
195.0
 31
0.0
  0
LINE
  8
0
  6
DASHED
 62
     7
 10
285.0
 20
182.5
 30
0.0
 11
271.0
 21
182.5
 31
0.0
  0
LINE
  8
0
  6
DASHED
 62
     7
 10
285.0
 20
172.5
 30
0.0
 11
265.0
 21
172.5
 31
0.0
  0
LINE
  8
0
  6
CONTINUOUS
 62
     7
 10
92.798812
 20
215.0
 30
0.0
 11
62.5
 21
215.0
 31
0.0
  0
LINE
  8
0
  6
CONTINUOUS
 62
     7
 10
62.5
 20
220.0
 30
0.0
 11
92.798812
 21
220.0
 31
0.0
  0
LINE
  8
0
  6
CONTINUOUS
 62
     7
 10
92.798812
 20
200.0
 30
0.0
 11
62.5
 21
200.0
 31
0.0
  0
LINE
  8
0
  6
CONTINUOUS
 62
     7
 10
62.5
 20
205.0
 30
0.0
 11
92.798812
 21
205.0
 31
0.0
  0
LINE
  8
0
  6
CONTINUOUS
 62
     7
 10
92.798812
 20
187.5
 30
0.0
 11
62.5
 21
187.5
 31
0.0
  0
LINE
  8
0
  6
CONTINUOUS
 62
     7
 10
62.5
 20
192.5
 30
0.0
 11
92.798812
 21
192.5
 31
0.0
  0
LINE
  8
0
  6
DASHED
 62
     7
 10
62.5
 20
232.5
 30
0.0
 11
57.5
 21
232.5
 31
0.0
  0
LINE
  8
0
  6
DASHED
 62
     7
 10
62.5
 20
227.5
 30
0.0
 11
57.5
 21
227.5
 31
0.0
  0
LINE
  8
0
  6
DASHED
 62
     7
 10
62.5
 20
220.0
 30
0.0
 11
57.5
 21
220.0
 31
0.0
  0
LINE
  8
0
  6
DASHED
 62
     7
 10
62.5
 20
215.0
 30
0.0
 11
57.5
 21
215.0
 31
0.0
  0
LINE
  8
0
  6
DASHED
 62
     7
 10
62.5
 20
187.5
 30
0.0
 11
57.5
 21
187.5
 31
0.0
  0
LINE
  8
0
  6
DASHED
 62
     7
 10
62.5
 20
192.5
 30
0.0
 11
57.5
 21
192.5
 31
0.0
  0
LINE
  8
0
  6
DASHED
 62
     7
 10
62.5
 20
200.0
 30
0.0
 11
57.5
 21
200.0
 31
0.0
  0
LINE
  8
0
  6
DASHED
 62
     7
 10
62.5
 20
205.0
 30
0.0
 11
57.5
 21
205.0
 31
0.0
  0
TEXT
  8
0
  6
CONTINUOUS
 62
     7
 10
275.0
 20
221.803358
 30
0.0
 40
2.0
  1
U1
  7
ROMANS
  0
TEXT
  8
0
  6
CONTINUOUS
 62
     7
 10
275.0
 20
177.088151
 30
0.0
 40
2.0
  1
U2
  7
ROMANS
  0
TEXT
  8
0
  6
CONTINUOUS
 62
     7
 10
275.0
 20
199.053856
 30
0.0
 40
2.0
  1
U3
  7
ROMANS
  0
LINE
  8
0
  6
CONTINUOUS
 62
     7
 10
346.376492
 20
247.5
 30
0.0
 11
361.376492
 21
247.5
 31
0.0
  0
LINE
  8
0
  6
CONTINUOUS
 62
     7
 10
361.376492
 20
247.5
 30
0.0
 11
361.376492
 21
227.5
 31
0.0
  0
LINE
  8
0
  6
CONTINUOUS
 62
     7
 10
361.376492
 20
227.5
 30
0.0
 11
346.376492
 21
227.5
 31
0.0
  0
LINE
  8
0
  6
CONTINUOUS
 62
     7
 10
346.376492
 20
227.5
 30
0.0
 11
346.376492
 21
247.5
 31
0.0
  0
LINE
  8
0
  6
DASHED
 62
     7
 10
346.376492
 20
237.5
 30
0.0
 11
361.376492
 21
237.5
 31
0.0
  0
TEXT
  8
0
  6
CONTINUOUS
 62
     7
 10
349.661594
 20
243.049009
 30
0.0
 40
2.0
  1
SC13/
  7
ROMANS
  0
TEXT
  8
0
  6
CONTINUOUS
 62
     7
 10
349.661594
 20
239.715676
 30
0.0
 40
2.0
  1
VC13
  7
ROMANS
  0
TEXT
  8
0
  6
CONTINUOUS
 62
     7
 10
349.661594
 20
233.254951
 30
0.0
 40
2.0
  1
SC23/
  7
ROMANS
  0
TEXT
  8
0
  6
CONTINUOUS
 62
     7
 10
349.661594
 20
229.921617
 30
0.0
 40
2.0
  1
VC23
  7
ROMANS
  0
TEXT
  8
0
  6
CONTINUOUS
 62
     7
 10
334.714191
 20
221.139636
 30
0.0
 40
2.0
  1
SYNCHROCHECK RELAY
  7
ROMANS
  0
TEXT
  8
0
  6
CONTINUOUS
 62
     7
 10
334.714191
 20
217.806303
 30
0.0
 40
2.0
  1
WITH VOLTAGE ENERGIZING UNIT
  7
ROMANS
  0
TEXT
  8
0
  6
CONTINUOUS
 62
     7
 10
334.714191
 20
212.904372
 30
0.0
 40
2.0
  1
PARALLELLNINGSDON
  7
ROMANS
  0
TEXT
  8
0
  6
CONTINUOUS
 62
     7
 10
334.714191
 20
209.571038
 30
0.0
 40
2.0
  1
MED SPÄNNINGSENHET
  7
ROMANS
  0
TEXT
  8
0
  6
CONTINUOUS
 62
     7
 10
315.0
 20
140.0
 30
0.0
 40
2.0
  1
1) EXTERNAL BLOCKING / CONTROLLING
  7
ROMANS
  0
TEXT
  8
0
  6
CONTINUOUS
 62
     7
 10
316.385179
 20
136.666667
 30
0.0
 40
2.0
  1
  EXTERN BLOCKERING / KONTROLLERING
  7
ROMANS
  0
TEXT
  8
0
  6
CONTINUOUS
 62
     7
 10
315.0
 20
130.833333
 30
0.0
 40
2.0
  1
2) BUS CONNECTION MODULE
  7
ROMANS
  0
TEXT
  8
0
  6
CONTINUOUS
 62
     7
 10
316.333438
 20
127.5
 30
0.0
 40
2.0
  1
  BUSSANSLUTNINGSMODUL
  7
ROMANS
  0
TEXT
  8
0
  6
CONTINUOUS
 62
     7
 10
315.0
 20
121.211225
 30
0.0
 40
2.0
  1
3) ALARM ETC.
  7
ROMANS
  0
TEXT
  8
0
  6
CONTINUOUS
 62
     7
 10
316.33364
 20
117.877892
 30
0.0
 40
2.0
  1
  SIGNAL MM.
  7
ROMANS
  0
TEXT
  8
0
  6
CONTINUOUS
 62
     7
 10
315.00041
 20
109.602197
 30
0.0
 40
2.0
  1
4) CLOSING
  7
ROMANS
  0
TEXT
  8
0
  6
CONTINUOUS
 62
     7
 10
316.336259
 20
106.268864
 30
0.0
 40
2.0
  1
  TILLSLAG
  7
ROMANS
  0
TEXT
  8
0
  6
CONTINUOUS
 62
     7
 10
314.50069
 20
98.720914
 30
0.0
 40
2.0
  1
5) CLOSING
  7
ROMANS
  0
TEXT
  8
0
  6
CONTINUOUS
 62
     7
 10
315.81247
 20
95.387581
 30
0.0
 40
2.0
  1
  TILLSLAG
  7
ROMANS
  0
TEXT
  8
0
  6
CONTINUOUS
 62
     7
 10
314.50069
 20
89.003572
 30
0.0
 40
2.0
  1
6) INTERNAL RELAY FAULT
  7
ROMANS
  0
TEXT
  8
0
  6
CONTINUOUS
 62
     7
 10
315.836539
 20
85.670238
 30
0.0
 40
2.0
  1
  INTERNT RELÄFEL
  7
ROMANS
  0
TEXT
  8
0
  6
CONTINUOUS
 62
     7
 10
321.885245
 20
63.11456
 30
0.0
 40
2.0
  1
U1
  7
ROMANS
  0
TEXT
  8
0
  6
CONTINUOUS
 62
     7
 10
321.885245
 20
59.040348
 30
0.0
 40
2.0
  1
U2
  7
ROMANS
  0
TEXT
  8
0
  6
CONTINUOUS
 62
     7
 10
321.885245
 20
54.878974
 30
0.0
 40
2.0
  1
U3
  7
ROMANS
  0
TEXT
  8
0
  6
CONTINUOUS
 62
     7
 10
332.523083
 20
63.11456
 30
0.0
 40
2.0
  1
13-14
  7
ROMANS
  0
TEXT
  8
0
  6
CONTINUOUS
 62
     7
 10
332.523083
 20
59.040348
 30
0.0
 40
2.0
  1
16-17
  7
ROMANS
  0
TEXT
  8
0
  6
CONTINUOUS
 62
     7
 10
332.523083
 20
54.878974
 30
0.0
 40
2.0
  1
19-20
  7
ROMANS
  0
TEXT
  8
0
  6
CONTINUOUS
 62
     7
 10
350.949754
 20
63.11456
 30
0.0
 40
2.0
  1
13-15
  7
ROMANS
  0
TEXT
  8
0
  6
CONTINUOUS
 62
     7
 10
350.949754
 20
59.040348
 30
0.0
 40
2.0
  1
16-18
  7
ROMANS
  0
TEXT
  8
0
  6
CONTINUOUS
 62
     7
 10
350.949754
 20
54.878974
 30
0.0
 40
2.0
  1
19-21
  7
ROMANS
  0
TEXT
  8
0
  6
CONTINUOUS
 62
     7
 10
212.466267
 20
28.115169
 30
0.0
 40
2.0
  1
1992-09-24  JR / RITU
  7
ROMANS
  0
TEXT
  8
0
  6
CONTINUOUS
 62
     7
 10
322.5
 20
24.166667
 30
0.0
 40
2.0
  1
SPAU 140 C
  7
ROMANS
  0
TEXT
  8
0
  6
CONTINUOUS
 62
     7
 10
51.177479
 20
1.260504
 30
0.0
 40
2.0
  1
REDRAWN WITH AUTOCAD 1992-09-24  JR / RITU Power
  7
ROMANS
  0
TEXT
  8
0
  6
CONTINUOUS
 62
     7
 10
116.465758
 20
118.3583
 30
0.0
 40
2.0
  1
A
  7
ROMANS
  0
TEXT
  8
0
  6
CONTINUOUS
 62
     7
 10
152.785338
 20
103.251117
 30
0.0
 40
2.0
  1
B
  7
ROMANS
  0
TEXT
  8
0
  6
CONTINUOUS
 62
     7
 10
137.03169
 20
110.685914
 30
0.0
 40
2.0
  1
C
  7
ROMANS
  0
TEXT
  8
0
  6
CONTINUOUS
 62
     7
 10
167.545405
 20
95.916861
 30
0.0
 40
2.0
  1
D
  7
ROMANS
  0
TEXT
  8
0
  6
CONTINUOUS
 62
     7
 10
198.430216
 20
222.254875
 30
0.0
 40
2.0
  1
NC13
  7
ROMANS
  0
TEXT
  8
0
  6
CONTINUOUS
 62
     7
 10
198.430216
 20
218.921542
 30
0.0
 40
2.0
  1
CSF13
  7
ROMANS
  0
CIRCLE
  8
0
  6
CONTINUOUS
 62
     7
 10
127.5
 20
117.5
 30
0.0
 40
0.740939
  0
CIRCLE
  8
0
  6
CONTINUOUS
 62
     7
 10
147.5
 20
110.0
 30
0.0
 40
0.740939
  0
CIRCLE
  8
0
  6
CONTINUOUS
 62
     7
 10
162.5
 20
102.5
 30
0.0
 40
0.740939
  0
CIRCLE
  8
0
  6
CONTINUOUS
 62
     7
 10
177.5
 20
95.0
 30
0.0
 40
0.740939
  0
LINE
  8
0
  6
CONTINUOUS
 62
     7
 10
287.5
 20
217.5
 30
0.0
 11
286.5
 21
216.5
 31
0.0
  0
LINE
  8
0
  6
CONTINUOUS
 62
     7
 10
287.5
 20
227.5
 30
0.0
 11
287.5
 21
217.5
 31
0.0
  0
LINE
  8
0
  6
CONTINUOUS
 62
     7
 10
287.5
 20
227.5
 30
0.0
 11
286.5
 21
228.5
 31
0.0
  0
LINE
  8
0
  6
DASHED
 62
     7
 10
287.5
 20
222.5
 30
0.0
 11
300.0
 21
222.5
 31
0.0
  0
CIRCLE
  8
0
  6
CONTINUOUS
 62
     7
 10
302.5
 20
222.5
 30
0.0
 40
2.5
  0
LINE
  8
0
  6
DASHED
 62
     7
 10
312.5
 20
230.0
 30
0.0
 11
312.5
 21
215.0
 31
0.0
  0
ARC
  8
0
  6
CONTINUOUS
 62
     7
 10
304.066273
 20
222.5
 30
0.0
 40
2.5
 50
270.0
 51
90.0
  0
LINE
  8
0
  6
DASHED
 62
     7
 10
312.5
 20
222.5
 30
0.0
 11
306.566273
 21
222.5
 31
0.0
  0
LINE
  8
0
  6
DASHED
 62
     7
 10
312.5
 20
200.0
 30
0.0
 11
306.566273
 21
200.0
 31
0.0
  0
ARC
  8
0
  6
CONTINUOUS
 62
     7
 10
304.066273
 20
200.0
 30
0.0
 40
2.5
 50
270.0
 51
90.0
  0
LINE
  8
0
  6
DASHED
 62
     7
 10
312.5
 20
207.5
 30
0.0
 11
312.5
 21
192.5
 31
0.0
  0
CIRCLE
  8
0
  6
CONTINUOUS
 62
     7
 10
302.5
 20
200.0
 30
0.0
 40
2.5
  0
LINE
  8
0
  6
DASHED
 62
     7
 10
287.5
 20
200.0
 30
0.0
 11
300.0
 21
200.0
 31
0.0
  0
LINE
  8
0
  6
CONTINUOUS
 62
     7
 10
287.5
 20
205.0
 30
0.0
 11
286.5
 21
206.0
 31
0.0
  0
LINE
  8
0
  6
CONTINUOUS
 62
     7
 10
287.5
 20
205.0
 30
0.0
 11
287.5
 21
195.0
 31
0.0
  0
LINE
  8
0
  6
CONTINUOUS
 62
     7
 10
287.5
 20
195.0
 30
0.0
 11
286.5
 21
194.0
 31
0.0
  0
LINE
  8
0
  6
CONTINUOUS
 62
     7
 10
287.5
 20
172.5
 30
0.0
 11
286.5
 21
171.5
 31
0.0
  0
LINE
  8
0
  6
CONTINUOUS
 62
     7
 10
287.5
 20
182.5
 30
0.0
 11
287.5
 21
172.5
 31
0.0
  0
LINE
  8
0
  6
CONTINUOUS
 62
     7
 10
287.5
 20
182.5
 30
0.0
 11
286.5
 21
183.5
 31
0.0
  0
LINE
  8
0
  6
DASHED
 62
     7
 10
287.5
 20
177.5
 30
0.0
 11
300.0
 21
177.5
 31
0.0
  0
CIRCLE
  8
0
  6
CONTINUOUS
 62
     7
 10
302.5
 20
177.5
 30
0.0
 40
2.5
  0
LINE
  8
0
  6
DASHED
 62
     7
 10
312.5
 20
185.0
 30
0.0
 11
312.5
 21
170.0
 31
0.0
  0
ARC
  8
0
  6
CONTINUOUS
 62
     7
 10
304.066273
 20
177.5
 30
0.0
 40
2.5
 50
270.0
 51
90.0
  0
LINE
  8
0
  6
DASHED
 62
     7
 10
312.5
 20
177.5
 30
0.0
 11
306.566273
 21
177.5
 31
0.0
  0
TEXT
  8
0
  6
CONTINUOUS
 62
     7
 10
362.329422
 20
177.026264
 30
0.0
 40
1.8
  1
162 mm
  7
ROMANS
  0
TEXT
  8
0
  6
CONTINUOUS
 62
     7
 10
347.409547
 20
188.063425
 30
0.0
 40
1.8
  1
142 mm
  7
ROMANS
  0
ARC
  8
0
  6
CONTINUOUS
 62
     7
 10
359.314725
 20
169.284081
 30
0.0
 40
2.0
 50
270.0
 51
0.0
  0
ARC
  8
0
  6
CONTINUOUS
 62
     7
 10
345.968953
 20
169.284081
 30
0.0
 40
2.0
 50
180.0
 51
270.0
  0
ARC
  8
0
  6
CONTINUOUS
 62
     7
 10
345.968953
 20
184.782894
 30
0.0
 40
2.0
 50
90.0
 51
180.0
  0
ARC
  8
0
  6
CONTINUOUS
 62
     7
 10
359.314725
 20
184.782894
 30
0.0
 40
2.0
 50
0.0
 51
90.0
  0
LINE
  8
0
  6
CONTINUOUS
 62
     7
 10
343.968953
 20
184.782894
 30
0.0
 11
343.968953
 21
169.284081
 31
0.0
  0
LINE
  8
0
  6
CONTINUOUS
 62
     7
 10
359.314725
 20
186.782894
 30
0.0
 11
345.968953
 21
186.782894
 31
0.0
  0
LINE
  8
0
  6
CONTINUOUS
 62
     7
 10
361.314725
 20
169.284081
 30
0.0
 11
361.314725
 21
184.782894
 31
0.0
  0
LINE
  8
0
  6
CONTINUOUS
 62
     7
 10
345.968953
 20
167.284081
 30
0.0
 11
359.314725
 21
167.284081
 31
0.0
  0
TEXT
  8
0
  6
CONTINUOUS
 62
     7
 10
343.664405
 20
162.583214
 30
0.0
 40
2.0
  1
SPAU 140 C
  7
ROMANS
  0
TEXT
  8
0
  6
CONTINUOUS
 62
     7
 10
322.5
 20
27.5
 30
0.0
 40
2.0
  1
CIRCUIT DIAGRAM / KRETSSCHEMA
  7
ROMANS
  0
TEXT
  8
0
  6
CONTINUOUS
 62
     7
 10
322.5
 20
2.5
 30
0.0
 40
2.5
  1
RS 10100-AA
  7
ROMANS
  0
TEXT
  8
0
  6
CONTINUOUS
 62
     7
 10
252.5
 20
140.0
 30
0.0
 40
2.0
  1
RX/TX
  7
ROMANS
  0
TEXT
  8
0
  6
DASHED
 62
     7
 10
292.217194
 20
11.813359
 30
0.0
 40
3.0
  1
A3
  7
GREEKS
  0
TEXT
  8
0
  6
DASHED
 62
     7
 10
351.818577
 20
15.69253
 30
0.0
 40
1.4
  1
LEHTI SHEET
  7
GREEKS
  0
LINE
  8
0
 62
     7
 10
0.237099
 20
262.737999
 30
0.0
 11
392.237099
 21
262.737999
 31
0.0
  0
LINE
  8
0
 62
     7
 10
18.237099
 20
0.237999
 30
0.0
 11
0.237099
 21
0.237999
 31
0.0
  0
LINE
  8
0
 62
     7
 10
209.237099
 20
0.237999
 30
0.0
 11
392.237099
 21
0.237999
 31
0.0
  0
LINE
  8
0
 62
     7
 10
209.237099
 20
0.237999
 30
0.0
 11
209.237099
 21
35.237999
 31
0.0
  0
LINE
  8
0
 62
     7
 10
392.237099
 20
0.237999
 30
0.0
 11
392.237099
 21
35.237999
 31
0.0
  0
LINE
  8
0
 62
     7
 10
209.237099
 20
18.237999
 30
0.0
 11
392.237099
 21
18.237999
 31
0.0
  0
LINE
  8
0
 62
     7
 10
209.237099
 20
9.737999
 30
0.0
 11
392.237099
 21
9.737999
 31
0.0
  0
LINE
  8
0
 62
     7
 10
209.237099
 20
26.737999
 30
0.0
 11
307.237099
 21
26.737999
 31
0.0
  0
LINE
  8
0
 62
     7
 10
209.237099
 20
35.237999
 30
0.0
 11
392.237099
 21
35.237999
 31
0.0
  0
TEXT
  8
0
 62
     7
 10
210.237099
 20
23.971333
 30
0.0
 40
1.4
  1
TARKASTI  CHECKED
  7
ROMANS
  0
TEXT
  8
0
 62
     7
 10
209.979934
 20
15.704666
 30
0.0
 40
1.4
  1
HYVÄKSYI  APPROVED
  7
ROMANS
  0
LINE
  8
0
 62
     7
 10
307.237099
 20
0.237999
 30
0.0
 11
307.237099
 21
35.237999
 31
0.0
  0
TEXT
  8
0
 62
     7
 10
259.237099
 20
32.737999
 30
0.0
 40
1.4
  1
LIITTYY  CONCERNING
  7
ROMANS
  0
TEXT
  8
0
 62
     7
 10
259.237099
 20
23.737999
 30
0.0
 40
1.4
  1
TOLERANSSIT  TOLERANCES
  7
ROMANS
  0
TEXT
  8
0
 62
     7
 10
259.237099
 20
15.737999
 30
0.0
 40
1.4
  1
SUHDE  SCALE
  7
ROMANS
  0
TEXT
  8
0
 62
     7
 10
309.237099
 20
32.737999
 30
0.0
 40
1.4
  1
NIMITYS  NAME
  7
ROMANS
  0
TEXT
  8
0
 62
     7
 10
309.237099
 20
15.737999
 30
0.0
 40
1.4
  1
KOODI  CODE
  7
ROMANS
  0
TEXT
  8
0
 62
     7
 10
309.237099
 20
7.237999
 30
0.0
 40
1.4
  1
PIIRUSTUS NO  DRAWING NR
  7
ROMANS
  0
LINE
  8
0
 62
     7
 10
349.737099
 20
9.737999
 30
0.0
 11
349.737099
 21
18.237999
 31
0.0
  0
TEXT
  8
0
 62
     7
 10
371.237099
 20
7.237999
 30
0.0
 40
1.4
  1
PAINOS  REVISION
  7
ROMANS
  0
LINE
  8
0
 62
     7
 10
369.737099
 20
9.737999
 30
0.0
 11
369.737099
 21
0.237999
 31
0.0
  0
LINE
  8
0
 62
     7
 10
210.187099
 20
1.737999
 30
0.0
 11
211.937099
 21
1.737999
 31
0.0
  0
LINE
  8
0
 62
     7
 10
215.437099
 20
1.737999
 30
0.0
 11
217.187099
 21
1.737999
 31
0.0
  0
LINE
  8
0
 62
     7
 10
212.637099
 20
8.737999
 30
0.0
 11
211.459571
 21
5.373634
 31
0.0
  0
LINE
  8
0
 62
     7
 10
212.425886
 20
3.137999
 30
0.0
 11
213.547099
 21
3.137999
 31
0.0
  0
LINE
  8
0
 62
     7
 10
212.425889
 20
3.134542
 30
0.0
 11
211.937099
 21
1.737999
 31
0.0
  0
LINE
  8
0
 62
     7
 10
214.737099
 20
8.737999
 30
0.0
 11
215.913452
 21
5.376991
 31
0.0
  0
LINE
  8
0
 62
     7
 10
214.948197
 20
3.134863
 30
0.0
 11
215.437099
 21
1.737999
 31
0.0
  0
LINE
  8
0
 62
     7
 10
214.737099
 20
8.737999
 30
0.0
 11
213.827099
 21
8.737999
 31
0.0
  0
LINE
  8
0
 62
     7
 10
213.547099
 20
8.737999
 30
0.0
 11
213.547099
 21
5.377999
 31
0.0
  0
LINE
  8
0
 62
     7
 10
213.827099
 20
8.737999
 30
0.0
 11
213.827099
 21
5.377999
 31
0.0
  0
LINE
  8
0
 62
     7
 10
213.827099
 20
3.137999
 30
0.0
 11
214.946992
 21
3.137999
 31
0.0
  0
LINE
  8
0
 62
     7
 10
213.547099
 20
8.737999
 30
0.0
 11
212.637099
 21
8.737999
 31
0.0
  0
LINE
  8
0
 62
     7
 10
211.45904
 20
5.377999
 30
0.0
 11
213.547099
 21
5.377999
 31
0.0
  0
LINE
  8
0
 62
     7
 10
211.360082
 20
5.097999
 30
0.0
 11
213.547099
 21
5.097999
 31
0.0
  0
LINE
  8
0
 62
     7
 10
216.011591
 20
5.096594
 30
0.0
 11
217.187099
 21
1.737999
 31
0.0
  0
LINE
  8
0
 62
     7
 10
213.827099
 20
5.377999
 30
0.0
 11
215.912213
 21
5.377999
 31
0.0
  0
LINE
  8
0
 62
     7
 10
213.827099
 20
5.097999
 30
0.0
 11
216.010356
 21
5.097999
 31
0.0
  0
LINE
  8
0
 62
     7
 10
213.827099
 20
5.097999
 30
0.0
 11
213.827099
 21
3.137999
 31
0.0
  0
LINE
  8
0
 62
     7
 10
213.547099
 20
5.097999
 30
0.0
 11
213.547099
 21
3.137999
 31
0.0
  0
LINE
  8
0
 62
     7
 10
211.356988
 20
5.080538
 30
0.0
 11
210.187099
 21
1.737999
 31
0.0
  0
INSERT
  8
0
 62
     7
  2
*X10
 10
210.187099
 20
1.737999
 30
0.0
 41
0.7
 42
0.7
 43
0.7
  0
INSERT
  8
0
 62
     7
  2
*X11
 10
210.187099
 20
1.737999
 30
0.0
 41
0.7
 42
0.7
 43
0.7
  0
INSERT
  8
0
 62
     7
  2
*X12
 10
210.187099
 20
1.737999
 30
0.0
 41
0.7
 42
0.7
 43
0.7
  0
INSERT
  8
0
 62
     7
  2
*X13
 10
210.187099
 20
1.737999
 30
0.0
 41
0.7
 42
0.7
 43
0.7
  0
LINE
  8
0
 62
     7
 10
217.677099
 20
1.737999
 30
0.0
 11
217.677099
 21
5.097999
 31
0.0
  0
LINE
  8
0
 62
     7
 10
217.677099
 20
8.737999
 30
0.0
 11
219.637099
 21
8.737999
 31
0.0
  0
LINE
  8
0
 62
     7
 10
219.637099
 20
8.737999
 30
0.0
 11
219.637099
 21
5.377999
 31
0.0
  0
LINE
  8
0
 62
     7
 10
219.637099
 20
5.377999
 30
0.0
 11
217.677099
 21
5.377999
 31
0.0
  0
LINE
  8
0
 62
     7
 10
217.677099
 20
5.097999
 30
0.0
 11
219.637099
 21
5.097999
 31
0.0
  0
LINE
  8
0
 62
     7
 10
219.637099
 20
5.097999
 30
0.0
 11
219.637099
 21
1.737999
 31
0.0
  0
LINE
  8
0
 62
     7
 10
219.637099
 20
1.737999
 30
0.0
 11
217.677099
 21
1.737999
 31
0.0
  0
LINE
  8
0
 62
     7
 10
217.677099
 20
5.377999
 30
0.0
 11
217.677099
 21
8.737999
 31
0.0
  0
ARC
  8
0
 62
     7
 10
220.477099
 20
7.162999
 30
0.0
 40
1.575
 50
298.455859
 51
90.052437
  0
LINE
  8
0
 62
     7
 10
219.917099
 20
8.737999
 30
0.0
 11
220.475658
 21
8.737999
 31
0.0
  0
LINE
  8
0
 62
     7
 10
219.917099
 20
8.737999
 30
0.0
 11
219.917099
 21
5.377999
 31
0.0
  0
LINE
  8
0
 62
     7
 10
219.917099
 20
5.377999
 30
0.0
 11
221.901542
 21
5.377999
 31
0.0
  0
LINE
  8
0
 62
     7
 10
222.157099
 20
5.097999
 30
0.0
 11
219.917099
 21
5.097999
 31
0.0
  0
LINE
  8
0
 62
     7
 10
219.917099
 20
5.097999
 30
0.0
 11
219.917099
 21
1.737999
 31
0.0
  0
ARC
  8
0
 62
     7
 10
220.477099
 20
3.837999
 30
0.0
 40
2.1
 50
269.937724
 51
37.056553
  0
LINE
  8
0
 62
     7
 10
219.917099
 20
1.737999
 30
0.0
 11
220.474817
 21
1.738
 31
0.0
  0
ARC
  8
0
 62
     7
 10
220.477099
 20
3.837999
 30
0.0
 40
2.1
 50
47.28622
 51
68.787999
  0
INSERT
  8
0
 62
     7
  2
*X14
 10
210.187099
 20
1.737999
 30
0.0
 41
0.7
 42
0.7
 43
0.7
  0
INSERT
  8
0
 62
     7
  2
*X15
 10
210.187099
 20
1.737999
 30
0.0
 41
0.7
 42
0.7
 43
0.7
  0
INSERT
  8
0
 62
     7
  2
*X16
 10
210.187099
 20
1.737999
 30
0.0
 41
0.7
 42
0.7
 43
0.7
  0
INSERT
  8
0
 62
     7
  2
*X17
 10
210.187099
 20
1.737999
 30
0.0
 41
0.7
 42
0.7
 43
0.7
  0
INSERT
  8
0
 62
     7
  2
*X17
 10
215.647099
 20
1.737999
 30
0.0
 41
0.7
 42
0.7
 43
0.7
  0
INSERT
  8
0
 62
     7
  2
*X16
 10
215.647099
 20
1.737999
 30
0.0
 41
0.7
 42
0.7
 43
0.7
  0
INSERT
  8
0
 62
     7
  2
*X15
 10
215.647099
 20
1.737999
 30
0.0
 41
0.7
 42
0.7
 43
0.7
  0
INSERT
  8
0
 62
     7
  2
*X14
 10
215.647099
 20
1.737999
 30
0.0
 41
0.7
 42
0.7
 43
0.7
  0
ARC
  8
0
 62
     7
 10
225.937099
 20
3.837999
 30
0.0
 40
2.1
 50
47.28622
 51
68.787999
  0
LINE
  8
0
 62
     7
 10
225.377099
 20
1.737999
 30
0.0
 11
225.934817
 21
1.738
 31
0.0
  0
ARC
  8
0
 62
     7
 10
225.937099
 20
3.837999
 30
0.0
 40
2.1
 50
269.937724
 51
37.056553
  0
LINE
  8
0
 62
     7
 10
225.377099
 20
5.097999
 30
0.0
 11
225.377099
 21
1.737999
 31
0.0
  0
LINE
  8
0
 62
     7
 10
227.617099
 20
5.097999
 30
0.0
 11
225.377099
 21
5.097999
 31
0.0
  0
LINE
  8
0
 62
     7
 10
225.377099
 20
5.377999
 30
0.0
 11
227.361542
 21
5.377999
 31
0.0
  0
LINE
  8
0
 62
     7
 10
225.377099
 20
8.737999
 30
0.0
 11
225.377099
 21
5.377999
 31
0.0
  0
LINE
  8
0
 62
     7
 10
225.377099
 20
8.737999
 30
0.0
 11
225.935658
 21
8.737999
 31
0.0
  0
ARC
  8
0
 62
     7
 10
225.937099
 20
7.162999
 30
0.0
 40
1.575
 50
298.455859
 51
90.052437
  0
LINE
  8
0
 62
     7
 10
223.137099
 20
5.377999
 30
0.0
 11
223.137099
 21
8.737999
 31
0.0
  0
LINE
  8
0
 62
     7
 10
225.097099
 20
1.737999
 30
0.0
 11
223.137099
 21
1.737999
 31
0.0
  0
LINE
  8
0
 62
     7
 10
225.097099
 20
5.097999
 30
0.0
 11
225.097099
 21
1.737999
 31
0.0
  0
LINE
  8
0
 62
     7
 10
223.137099
 20
5.097999
 30
0.0
 11
225.097099
 21
5.097999
 31
0.0
  0
LINE
  8
0
 62
     7
 10
225.097099
 20
5.377999
 30
0.0
 11
223.137099
 21
5.377999
 31
0.0
  0
LINE
  8
0
 62
     7
 10
225.097099
 20
8.737999
 30
0.0
 11
225.097099
 21
5.377999
 31
0.0
  0
LINE
  8
0
 62
     7
 10
223.137099
 20
8.737999
 30
0.0
 11
225.097099
 21
8.737999
 31
0.0
  0
LINE
  8
0
 62
     7
 10
223.137099
 20
1.737999
 30
0.0
 11
223.137099
 21
5.097999
 31
0.0
  0
TEXT
  8
0
 62
     7
 10
229.737099
 20
1.737999
 30
0.0
 40
3.0
  1
ABB 
 41
0.8
  7
ROMANS
  0
TEXT
  8
0
 62
     7
 10
237.737099
 20
1.737999
 30
0.0
 40
3.0
  1
Strömberg
 41
0.8
  7
ROMANS
  0
LINE
  8
0
 62
     7
 10
282.237099
 20
9.737999
 30
0.0
 11
282.237099
 21
18.237999
 31
0.0
  0
TEXT
  8
0
 62
     7
 10
27.737099
 20
4.737999
 30
0.0
 40
1.4
  1
MUUTOS
  7
ROMANS
  0
TEXT
  8
0
 62
     7
 10
27.737099
 20
2.471333
 30
0.0
 40
1.4
  1
REVISION
  7
ROMANS
  0
LINE
  8
0
 62
     7
 10
46.737099
 20
9.237999
 30
0.0
 11
209.237099
 21
9.237999
 31
0.0
  0
LINE
  8
0
 62
     7
 10
46.737099
 20
0.237999
 30
0.0
 11
46.737099
 21
9.237999
 31
0.0
  0
LINE
  8
0
 62
     7
 10
40.737099
 20
4.737999
 30
0.0
 11
209.237099
 21
4.737999
 31
0.0
  0
LINE
  8
0
 62
     7
 10
257.237099
 20
9.737999
 30
0.0
 11
257.237099
 21
35.237999
 31
0.0
  0
LINE
  8
0
 62
     7
 10
271.237099
 20
9.737999
 30
0.0
 11
271.237099
 21
0.237999
 31
0.0
  0
TEXT
  8
0
 62
     7
 10
210.237099
 20
32.237999
 30
0.0
 40
1.4
  1
TEKI  PREPARED
  7
ROMANS
  0
TEXT
  8
0
 62
     7
 10
273.237099
 20
7.237999
 30
0.0
 40
1.4
  1
VAST.OSASTO RESP.DEPT.
  7
ROMANS
  0
TEXT
  8
0
 62
     7
 10
257.407006
 20
1.741783
 30
0.0
 40
3.0
  1
Power
 41
0.8
  7
ROMANS
  0
TEXT
  8
0
 62
     7
 10
42.237099
 20
1.195292
 30
0.0
 40
2.5
  1
B
  7
ROMANS
  0
TEXT
  8
0
 62
     7
 10
42.237099
 20
5.587508
 30
0.0
 40
2.5
  1
C
  7
ROMANS
  0
LINE
  8
0
 62
     7
 10
0.237099
 20
0.237999
 30
0.0
 11
392.237099
 21
0.237999
 31
0.0
  0
LINE
  8
0
 62
     7
 10
392.237099
 20
262.737999
 30
0.0
 11
392.237099
 21
0.237999
 31
0.0
  0
LINE
  8
0
 62
     7
 10
0.237099
 20
0.237999
 30
0.0
 11
0.237099
 21
262.737999
 31
0.0
  0
TEXT
  8
0
  6
CONTINUOUS
 62
     7
 10
51.364976
 20
191.513635
 30
0.0
 40
2.0
  1
+
  0
LINE
  8
0
 62
     7
 10
46.002721
 20
190.635937
 30
0.0
 11
50.002721
 21
190.635937
 31
0.0
  0
INSERT
  8
0
 62
     7
  2
WKU130
 10
46.34267
 20
188.910384
 30
0.0
 41
0.8
 42
0.8
 43
0.8
  0
TEXT
  8
0
  6
CONTINUOUS
 62
     7
 10
51.356411
 20
186.50558
 30
0.0
 40
2.0
  1
-
  0
LINE
  8
0
 62
     7
 10
46.002721
 20
203.135937
 30
0.0
 11
50.002721
 21
203.135937
 31
0.0
  0
INSERT
  8
0
 62
     7
  2
WKU130
 10
46.34267
 20
201.410384
 30
0.0
 41
0.8
 42
0.8
 43
0.8
  0
TEXT
  8
0
  6
CONTINUOUS
 62
     7
 10
51.356411
 20
199.00558
 30
0.0
 40
2.0
  1
-
  0
TEXT
  8
0
  6
CONTINUOUS
 62
     7
 10
51.364976
 20
204.013635
 30
0.0
 40
2.0
  1
+
  0
LINE
  8
0
 62
     7
 10
46.002721
 20
218.135937
 30
0.0
 11
50.002721
 21
218.135937
 31
0.0
  0
INSERT
  8
0
 62
     7
  2
WKU130
 10
46.34267
 20
216.410384
 30
0.0
 41
0.8
 42
0.8
 43
0.8
  0
TEXT
  8
0
  6
CONTINUOUS
 62
     7
 10
51.356411
 20
214.00558
 30
0.0
 40
2.0
  1
-
  0
TEXT
  8
0
  6
CONTINUOUS
 62
     7
 10
51.364976
 20
219.013635
 30
0.0
 40
2.0
  1
+
  0
LINE
  8
0
 62
     7
 10
46.002721
 20
230.635937
 30
0.0
 11
50.002721
 21
230.635937
 31
0.0
  0
INSERT
  8
0
 62
     7
  2
WKU130
 10
46.34267
 20
228.910384
 30
0.0
 41
0.8
 42
0.8
 43
0.8
  0
TEXT
  8
0
  6
CONTINUOUS
 62
     7
 10
51.356411
 20
226.50558
 30
0.0
 40
2.0
  1
-
  0
TEXT
  8
0
  6
CONTINUOUS
 62
     7
 10
51.364976
 20
231.513635
 30
0.0
 40
2.0
  1
+
  0
LINE
  8
0
  6
CONTINUOUS
 62
     7
 10
189.078355
 20
151.164646
 30
0.0
 11
186.732589
 21
152.5
 31
0.0
  0
LINE
  8
0
  6
CONTINUOUS
 62
     7
 10
186.732589
 20
152.5
 30
0.0
 11
189.078355
 21
153.689919
 31
0.0
  0
LINE
  8
0
  6
CONTINUOUS
 62
     7
 10
188.904193
 20
139.489958
 30
0.0
 11
186.558427
 21
140.825312
 31
0.0
  0
LINE
  8
0
  6
CONTINUOUS
 62
     7
 10
186.558427
 20
140.825312
 30
0.0
 11
188.904193
 21
142.015231
 31
0.0
  0
LINE
  8
0
  6
CONTINUOUS
 62
     7
 10
189.078355
 20
163.664646
 30
0.0
 11
186.732589
 21
165.0
 31
0.0
  0
LINE
  8
0
  6
CONTINUOUS
 62
     7
 10
186.732589
 20
165.0
 30
0.0
 11
189.078355
 21
166.189919
 31
0.0
  0
LINE
  8
0
  6
CONTINUOUS
 62
     7
 10
189.078355
 20
193.664646
 30
0.0
 11
186.732589
 21
195.0
 31
0.0
  0
LINE
  8
0
  6
CONTINUOUS
 62
     7
 10
186.732589
 20
195.0
 30
0.0
 11
189.078355
 21
196.189919
 31
0.0
  0
LINE
  8
0
  6
CONTINUOUS
 62
     7
 10
189.078355
 20
206.164646
 30
0.0
 11
186.732589
 21
207.5
 31
0.0
  0
LINE
  8
0
  6
CONTINUOUS
 62
     7
 10
186.732589
 20
207.5
 30
0.0
 11
189.078355
 21
208.689919
 31
0.0
  0
LINE
  8
0
 62
     7
 10
225.565579
 20
63.283527
 30
0.0
 11
229.565579
 21
63.283527
 31
0.0
  0
INSERT
  8
0
 62
     7
  2
WKU130
 10
225.905529
 20
61.557974
 30
0.0
 41
0.8
 42
0.8
 43
0.8
  0
TEXT
  8
0
  6
CONTINUOUS
 62
     7
 10
224.353328
 20
64.013635
 30
0.0
 40
2.0
  1
+
  0
TEXT
  8
0
  6
CONTINUOUS
 62
     7
 10
229.344763
 20
64.00558
 30
0.0
 40
2.0
  1
-
  0
LINE
  8
0
  6
CONTINUOUS
 62
     7
 10
230.0
 20
97.929605
 30
0.0
 11
230.0
 21
95.0
 31
0.0
  0
LINE
  8
0
  6
CONTINUOUS
 62
     7
 10
225.0
 20
97.929605
 30
0.0
 11
225.0
 21
95.0
 31
0.0
  0
LINE
  8
0
  6
CONTINUOUS
 62
     7
 10
230.0
 20
112.5
 30
0.0
 11
230.0
 21
107.252154
 31
0.0
  0
LINE
  8
0
  6
CONTINUOUS
 62
     7
 10
225.0
 20
112.5
 30
0.0
 11
225.0
 21
107.252154
 31
0.0
  0
INSERT
  8
0
 62
     7
  2
WKU130
 10
227.806261
 20
98.502888
 30
0.0
 41
0.8
 42
0.8
 43
0.8
  0
LINE
  8
0
 62
     7
 10
227.466311
 20
100.22844
 30
0.0
 11
231.466311
 21
100.22844
 31
0.0
  0
LINE
  8
0
 62
     7
 10
223.709901
 20
105.174464
 30
0.0
 11
227.709901
 21
105.174464
 31
0.0
  0
LINE
  8
0
 62
     7
 10
222.795103
 20
98.886207
 30
0.0
 11
231.158613
 21
107.252154
 31
0.0
  0
LINE
  8
0
 62
     7
 10
223.779395
 20
97.929605
 30
0.0
 11
232.119756
 21
106.267352
 31
0.0
  0
LINE
  8
0
 62
     7
 10
222.795103
 20
97.929605
 30
0.0
 11
222.795103
 21
107.252154
 31
0.0
  0
LINE
  8
0
 62
     7
 10
232.119756
 20
97.929605
 30
0.0
 11
222.795103
 21
97.929605
 31
0.0
  0
LINE
  8
0
 62
     7
 10
232.119756
 20
107.252154
 30
0.0
 11
232.119756
 21
97.929605
 31
0.0
  0
LINE
  8
0
 62
     7
 10
222.795103
 20
107.252154
 30
0.0
 11
232.119756
 21
107.252154
 31
0.0
  0
TEXT
  8
0
  6
CONTINUOUS
 62
     7
 10
224.366734
 20
113.05315
 30
0.0
 40
2.0
  1
+
  0
TEXT
  8
0
  6
CONTINUOUS
 62
     7
 10
229.297086
 20
113.077719
 30
0.0
 40
2.0
  1
-
  0
LINE
  8
0
 62
     7
 10
250.0
 20
175.0
 30
0.0
 11
248.480133
 21
175.0
 31
0.0
  0
ARC
  8
0
 62
     7
 10
250.065849
 20
176.25
 30
0.0
 40
1.251733
 50
266.984476
 51
93.015524
  0
LINE
  8
0
 62
     7
 10
250.0
 20
177.5
 30
0.0
 11
248.480133
 21
177.5
 31
0.0
  0
LINE
  8
0
 62
     7
 10
250.0
 20
180.0
 30
0.0
 11
248.480133
 21
180.0
 31
0.0
  0
ARC
  8
0
 62
     7
 10
250.065849
 20
178.75
 30
0.0
 40
1.251733
 50
266.984476
 51
93.015524
  0
LINE
  8
0
 62
     7
 10
255.0
 20
172.5
 30
0.0
 11
257.5
 21
172.5
 31
0.0
  0
ARC
  8
0
 62
     7
 10
254.934151
 20
173.75
 30
0.0
 40
1.251733
 50
86.984476
 51
273.015524
  0
ARC
  8
0
 62
     7
 10
254.934151
 20
176.25
 30
0.0
 40
1.251733
 50
86.984476
 51
273.015524
  0
LINE
  8
0
 62
     7
 10
255.0
 20
175.0
 30
0.0
 11
257.5
 21
175.0
 31
0.0
  0
LINE
  8
0
 62
     7
 10
255.0
 20
177.5
 30
0.0
 11
257.5
 21
177.5
 31
0.0
  0
LINE
  8
0
 62
     7
 10
257.5
 20
177.5
 30
0.0
 11
260.0
 21
177.5
 31
0.0
  0
LINE
  8
0
 62
     7
 10
257.5
 20
172.5
 30
0.0
 11
260.0
 21
172.5
 31
0.0
  0
LINE
  8
0
 62
     7
 10
257.5
 20
177.5
 30
0.0
 11
260.0
 21
177.5
 31
0.0
  0
LINE
  8
0
 62
     7
 10
257.5
 20
182.5
 30
0.0
 11
260.0
 21
182.5
 31
0.0
  0
LINE
  8
0
 62
     7
 10
255.0
 20
182.5
 30
0.0
 11
257.5
 21
182.5
 31
0.0
  0
LINE
  8
0
 62
     7
 10
255.0
 20
180.0
 30
0.0
 11
257.5
 21
180.0
 31
0.0
  0
ARC
  8
0
 62
     7
 10
254.934151
 20
181.25
 30
0.0
 40
1.251733
 50
86.984476
 51
273.015524
  0
ARC
  8
0
 62
     7
 10
254.934151
 20
178.75
 30
0.0
 40
1.251733
 50
86.984476
 51
273.015524
  0
LINE
  8
0
 62
     7
 10
255.0
 20
177.5
 30
0.0
 11
257.5
 21
177.5
 31
0.0
  0
LINE
  8
0
 62
     7
 10
250.0
 20
197.5
 30
0.0
 11
248.480133
 21
197.5
 31
0.0
  0
ARC
  8
0
 62
     7
 10
250.065849
 20
198.75
 30
0.0
 40
1.251733
 50
266.984476
 51
93.015524
  0
LINE
  8
0
 62
     7
 10
250.0
 20
200.0
 30
0.0
 11
248.480133
 21
200.0
 31
0.0
  0
LINE
  8
0
 62
     7
 10
250.0
 20
202.5
 30
0.0
 11
248.480133
 21
202.5
 31
0.0
  0
ARC
  8
0
 62
     7
 10
250.065849
 20
201.25
 30
0.0
 40
1.251733
 50
266.984476
 51
93.015524
  0
LINE
  8
0
 62
     7
 10
255.0
 20
195.0
 30
0.0
 11
257.5
 21
195.0
 31
0.0
  0
ARC
  8
0
 62
     7
 10
254.934151
 20
196.25
 30
0.0
 40
1.251733
 50
86.984476
 51
273.015524
  0
ARC
  8
0
 62
     7
 10
254.934151
 20
198.75
 30
0.0
 40
1.251733
 50
86.984476
 51
273.015524
  0
LINE
  8
0
 62
     7
 10
255.0
 20
197.5
 30
0.0
 11
257.5
 21
197.5
 31
0.0
  0
LINE
  8
0
 62
     7
 10
255.0
 20
200.0
 30
0.0
 11
257.5
 21
200.0
 31
0.0
  0
LINE
  8
0
 62
     7
 10
257.5
 20
200.0
 30
0.0
 11
260.0
 21
200.0
 31
0.0
  0
LINE
  8
0
 62
     7
 10
257.5
 20
195.0
 30
0.0
 11
260.0
 21
195.0
 31
0.0
  0
LINE
  8
0
 62
     7
 10
257.5
 20
200.0
 30
0.0
 11
260.0
 21
200.0
 31
0.0
  0
LINE
  8
0
 62
     7
 10
257.5
 20
205.0
 30
0.0
 11
260.0
 21
205.0
 31
0.0
  0
LINE
  8
0
 62
     7
 10
255.0
 20
205.0
 30
0.0
 11
257.5
 21
205.0
 31
0.0
  0
LINE
  8
0
 62
     7
 10
255.0
 20
202.5
 30
0.0
 11
257.5
 21
202.5
 31
0.0
  0
ARC
  8
0
 62
     7
 10
254.934151
 20
203.75
 30
0.0
 40
1.251733
 50
86.984476
 51
273.015524
  0
ARC
  8
0
 62
     7
 10
254.934151
 20
201.25
 30
0.0
 40
1.251733
 50
86.984476
 51
273.015524
  0
LINE
  8
0
 62
     7
 10
255.0
 20
200.0
 30
0.0
 11
257.5
 21
200.0
 31
0.0
  0
LINE
  8
0
  6
CONTINUOUS
 62
     7
 10
237.70081
 20
143.664644
 30
0.0
 11
235.355045
 21
144.999998
 31
0.0
  0
LINE
  8
0
  6
CONTINUOUS
 62
     7
 10
235.355045
 20
144.999998
 30
0.0
 11
237.70081
 21
146.189917
 31
0.0
  0
LINE
  8
0
  6
CONTINUOUS
 62
     7
 10
244.296752
 20
176.164644
 30
0.0
 11
241.950987
 21
177.499998
 31
0.0
  0
LINE
  8
0
  6
CONTINUOUS
 62
     7
 10
241.950987
 20
177.499998
 30
0.0
 11
244.296752
 21
178.689917
 31
0.0
  0
LINE
  8
0
  6
CONTINUOUS
 62
     7
 10
244.296752
 20
198.664644
 30
0.0
 11
241.950987
 21
199.999998
 31
0.0
  0
LINE
  8
0
  6
CONTINUOUS
 62
     7
 10
241.950987
 20
199.999998
 30
0.0
 11
244.296752
 21
201.189917
 31
0.0
  0
ARC
  8
0
  6
CONTINUOUS
 62
     7
 10
237.5
 20
200.0
 30
0.0
 40
0.5
 50
180.0
 51
0.0
  0
ARC
  8
0
  6
CONTINUOUS
 62
     7
 10
237.5
 20
200.0
 30
0.0
 40
0.5
 50
0.0
 51
180.0
  0
3DFACE
  8
0
  6
CONTINUOUS
 62
     7
 10
266.634024
 20
145.56
 30
0.0
 11
266.649704
 21
145.56
 31
0.0
 12
266.649704
 22
144.44
 32
0.0
 13
266.634024
 23
144.44
 33
0.0
  0
3DFACE
  8
0
  6
CONTINUOUS
 62
     7
 10
266.649704
 20
145.56
 30
0.0
 11
266.665384
 21
145.56
 31
0.0
 12
266.665384
 22
144.44
 32
0.0
 13
266.649704
 23
144.44
 33
0.0
  0
3DFACE
  8
0
  6
CONTINUOUS
 62
     7
 10
266.665384
 20
145.56
 30
0.0
 11
266.681064
 21
145.56
 31
0.0
 12
266.681064
 22
144.44
 32
0.0
 13
266.665384
 23
144.44
 33
0.0
  0
3DFACE
  8
0
  6
CONTINUOUS
 62
     7
 10
266.681064
 20
145.56
 30
0.0
 11
266.696744
 21
145.56
 31
0.0
 12
266.696744
 22
144.44
 32
0.0
 13
266.681064
 23
144.44
 33
0.0
  0
3DFACE
  8
0
  6
CONTINUOUS
 62
     7
 10
266.696744
 20
145.56
 30
0.0
 11
266.712424
 21
145.56
 31
0.0
 12
266.712424
 22
144.44
 32
0.0
 13
266.696744
 23
144.44
 33
0.0
  0
3DFACE
  8
0
  6
CONTINUOUS
 62
     7
 10
266.712424
 20
145.56
 30
0.0
 11
266.728104
 21
145.56
 31
0.0
 12
266.728104
 22
144.44
 32
0.0
 13
266.712424
 23
144.44
 33
0.0
  0
3DFACE
  8
0
  6
CONTINUOUS
 62
     7
 10
266.728104
 20
145.56
 30
0.0
 11
266.743784
 21
145.56
 31
0.0
 12
266.743784
 22
144.44
 32
0.0
 13
266.728104
 23
144.44
 33
0.0
  0
3DFACE
  8
0
  6
CONTINUOUS
 62
     7
 10
266.743784
 20
145.56
 30
0.0
 11
266.759464
 21
145.56
 31
0.0
 12
266.759464
 22
144.44
 32
0.0
 13
266.743784
 23
144.44
 33
0.0
  0
3DFACE
  8
0
  6
CONTINUOUS
 62
     7
 10
266.759464
 20
145.56
 30
0.0
 11
266.775144
 21
145.56
 31
0.0
 12
266.775144
 22
144.44
 32
0.0
 13
266.759464
 23
144.44
 33
0.0
  0
3DFACE
  8
0
  6
CONTINUOUS
 62
     7
 10
266.775144
 20
145.56
 30
0.0
 11
266.790824
 21
145.56
 31
0.0
 12
266.790824
 22
144.44
 32
0.0
 13
266.775144
 23
144.44
 33
0.0
  0
3DFACE
  8
0
  6
CONTINUOUS
 62
     7
 10
266.790824
 20
145.56
 30
0.0
 11
266.806504
 21
145.56
 31
0.0
 12
266.806504
 22
144.44
 32
0.0
 13
266.790824
 23
144.44
 33
0.0
  0
3DFACE
  8
0
  6
CONTINUOUS
 62
     7
 10
266.806504
 20
145.56
 30
0.0
 11
266.822184
 21
145.56
 31
0.0
 12
266.822184
 22
144.44
 32
0.0
 13
266.806504
 23
144.44
 33
0.0
  0
3DFACE
  8
0
  6
CONTINUOUS
 62
     7
 10
266.822184
 20
145.56
 30
0.0
 11
266.837864
 21
145.56
 31
0.0
 12
266.837864
 22
144.44
 32
0.0
 13
266.822184
 23
144.44
 33
0.0
  0
3DFACE
  8
0
  6
CONTINUOUS
 62
     7
 10
266.837864
 20
145.56
 30
0.0
 11
266.853544
 21
145.56
 31
0.0
 12
266.853544
 22
144.44
 32
0.0
 13
266.837864
 23
144.44
 33
0.0
  0
3DFACE
  8
0
  6
CONTINUOUS
 62
     7
 10
266.853544
 20
145.56
 30
0.0
 11
266.869224
 21
145.56
 31
0.0
 12
266.869224
 22
144.44
 32
0.0
 13
266.853544
 23
144.44
 33
0.0
  0
3DFACE
  8
0
  6
CONTINUOUS
 62
     7
 10
266.869224
 20
145.56
 30
0.0
 11
266.884904
 21
145.56
 31
0.0
 12
266.884904
 22
144.44
 32
0.0
 13
266.869224
 23
144.44
 33
0.0
  0
3DFACE
  8
0
  6
CONTINUOUS
 62
     7
 10
266.884904
 20
145.56
 30
0.0
 11
266.900584
 21
145.56
 31
0.0
 12
266.900584
 22
144.44
 32
0.0
 13
266.884904
 23
144.44
 33
0.0
  0
3DFACE
  8
0
  6
CONTINUOUS
 62
     7
 10
266.900584
 20
145.56
 30
0.0
 11
266.916264
 21
145.56
 31
0.0
 12
266.916264
 22
144.44
 32
0.0
 13
266.900584
 23
144.44
 33
0.0
  0
3DFACE
  8
0
  6
CONTINUOUS
 62
     7
 10
266.916264
 20
145.56
 30
0.0
 11
266.931944
 21
145.56
 31
0.0
 12
266.931944
 22
144.44
 32
0.0
 13
266.916264
 23
144.44
 33
0.0
  0
3DFACE
  8
0
  6
CONTINUOUS
 62
     7
 10
266.931944
 20
145.56
 30
0.0
 11
266.947624
 21
145.56
 31
0.0
 12
266.947624
 22
144.44
 32
0.0
 13
266.931944
 23
144.44
 33
0.0
  0
3DFACE
  8
0
  6
CONTINUOUS
 62
     7
 10
266.947624
 20
145.56
 30
0.0
 11
266.963304
 21
145.56
 31
0.0
 12
266.963304
 22
144.44
 32
0.0
 13
266.947624
 23
144.44
 33
0.0
  0
3DFACE
  8
0
  6
CONTINUOUS
 62
     7
 10
266.963304
 20
145.56
 30
0.0
 11
266.978984
 21
145.56
 31
0.0
 12
266.978984
 22
144.44
 32
0.0
 13
266.963304
 23
144.44
 33
0.0
  0
3DFACE
  8
0
  6
CONTINUOUS
 62
     7
 10
266.978984
 20
145.56
 30
0.0
 11
266.994664
 21
145.56
 31
0.0
 12
266.994664
 22
144.44
 32
0.0
 13
266.978984
 23
144.44
 33
0.0
  0
3DFACE
  8
0
  6
CONTINUOUS
 62
     7
 10
266.994664
 20
145.56
 30
0.0
 11
267.010344
 21
145.56
 31
0.0
 12
267.010344
 22
144.44
 32
0.0
 13
266.994664
 23
144.44
 33
0.0
  0
3DFACE
  8
0
  6
CONTINUOUS
 62
     7
 10
267.010344
 20
145.56
 30
0.0
 11
267.026024
 21
145.56
 31
0.0
 12
267.026024
 22
144.44
 32
0.0
 13
267.010344
 23
144.44
 33
0.0
  0
3DFACE
  8
0
  6
CONTINUOUS
 62
     7
 10
267.026024
 20
145.56
 30
0.0
 11
267.041704
 21
145.56
 31
0.0
 12
267.041704
 22
144.44
 32
0.0
 13
267.026024
 23
144.44
 33
0.0
  0
3DFACE
  8
0
  6
CONTINUOUS
 62
     7
 10
267.041704
 20
145.56
 30
0.0
 11
267.057384
 21
145.56
 31
0.0
 12
267.057384
 22
144.44
 32
0.0
 13
267.041704
 23
144.44
 33
0.0
  0
3DFACE
  8
0
  6
CONTINUOUS
 62
     7
 10
267.057384
 20
145.56
 30
0.0
 11
267.073064
 21
145.56
 31
0.0
 12
267.073064
 22
144.44
 32
0.0
 13
267.057384
 23
144.44
 33
0.0
  0
3DFACE
  8
0
  6
CONTINUOUS
 62
     7
 10
267.073064
 20
145.56
 30
0.0
 11
267.088744
 21
145.56
 31
0.0
 12
267.088744
 22
144.44
 32
0.0
 13
267.073064
 23
144.44
 33
0.0
  0
3DFACE
  8
0
  6
CONTINUOUS
 62
     7
 10
267.088744
 20
145.56
 30
0.0
 11
267.104424
 21
145.56
 31
0.0
 12
267.104424
 22
144.44
 32
0.0
 13
267.088744
 23
144.44
 33
0.0
  0
3DFACE
  8
0
  6
CONTINUOUS
 62
     7
 10
267.104424
 20
145.56
 30
0.0
 11
267.120104
 21
145.56
 31
0.0
 12
267.120104
 22
144.44
 32
0.0
 13
267.104424
 23
144.44
 33
0.0
  0
3DFACE
  8
0
  6
CONTINUOUS
 62
     7
 10
267.120104
 20
145.56
 30
0.0
 11
267.135784
 21
145.56
 31
0.0
 12
267.135784
 22
144.44
 32
0.0
 13
267.120104
 23
144.44
 33
0.0
  0
3DFACE
  8
0
  6
CONTINUOUS
 62
     7
 10
267.135784
 20
145.56
 30
0.0
 11
267.151464
 21
145.56
 31
0.0
 12
267.151464
 22
144.44
 32
0.0
 13
267.135784
 23
144.44
 33
0.0
  0
3DFACE
  8
0
  6
CONTINUOUS
 62
     7
 10
267.151464
 20
145.56
 30
0.0
 11
267.167144
 21
145.56
 31
0.0
 12
267.167144
 22
144.44
 32
0.0
 13
267.151464
 23
144.44
 33
0.0
  0
3DFACE
  8
0
  6
CONTINUOUS
 62
     7
 10
267.167144
 20
145.56
 30
0.0
 11
267.182824
 21
145.56
 31
0.0
 12
267.182824
 22
144.44
 32
0.0
 13
267.167144
 23
144.44
 33
0.0
  0
3DFACE
  8
0
  6
CONTINUOUS
 62
     7
 10
267.182824
 20
145.56
 30
0.0
 11
267.198504
 21
145.56
 31
0.0
 12
267.198504
 22
144.44
 32
0.0
 13
267.182824
 23
144.44
 33
0.0
  0
3DFACE
  8
0
  6
CONTINUOUS
 62
     7
 10
267.198504
 20
145.56
 30
0.0
 11
267.214184
 21
145.56
 31
0.0
 12
267.214184
 22
144.44
 32
0.0
 13
267.198504
 23
144.44
 33
0.0
  0
3DFACE
  8
0
  6
CONTINUOUS
 62
     7
 10
267.214184
 20
145.56
 30
0.0
 11
267.229864
 21
145.56
 31
0.0
 12
267.229864
 22
144.44
 32
0.0
 13
267.214184
 23
144.44
 33
0.0
  0
3DFACE
  8
0
  6
CONTINUOUS
 62
     7
 10
267.229864
 20
145.56
 30
0.0
 11
267.245544
 21
145.56
 31
0.0
 12
267.245544
 22
144.44
 32
0.0
 13
267.229864
 23
144.44
 33
0.0
  0
3DFACE
  8
0
  6
CONTINUOUS
 62
     7
 10
267.245544
 20
145.56
 30
0.0
 11
267.261224
 21
145.56
 31
0.0
 12
267.261224
 22
144.44
 32
0.0
 13
267.245544
 23
144.44
 33
0.0
  0
3DFACE
  8
0
  6
CONTINUOUS
 62
     7
 10
267.261224
 20
145.56
 30
0.0
 11
267.276904
 21
145.56
 31
0.0
 12
267.276904
 22
144.44
 32
0.0
 13
267.261224
 23
144.44
 33
0.0
  0
3DFACE
  8
0
  6
CONTINUOUS
 62
     7
 10
267.276904
 20
145.56
 30
0.0
 11
267.292584
 21
145.56
 31
0.0
 12
267.292584
 22
144.44
 32
0.0
 13
267.276904
 23
144.44
 33
0.0
  0
3DFACE
  8
0
  6
CONTINUOUS
 62
     7
 10
267.292584
 20
145.56
 30
0.0
 11
267.308264
 21
145.56
 31
0.0
 12
267.308264
 22
144.44
 32
0.0
 13
267.292584
 23
144.44
 33
0.0
  0
3DFACE
  8
0
  6
CONTINUOUS
 62
     7
 10
267.308264
 20
145.56
 30
0.0
 11
267.323944
 21
145.56
 31
0.0
 12
267.323944
 22
144.44
 32
0.0
 13
267.308264
 23
144.44
 33
0.0
  0
3DFACE
  8
0
  6
CONTINUOUS
 62
     7
 10
267.323944
 20
145.56
 30
0.0
 11
267.339624
 21
145.56
 31
0.0
 12
267.339624
 22
144.44
 32
0.0
 13
267.323944
 23
144.44
 33
0.0
  0
3DFACE
  8
0
  6
CONTINUOUS
 62
     7
 10
267.339624
 20
145.56
 30
0.0
 11
267.355304
 21
145.56
 31
0.0
 12
267.355304
 22
144.44
 32
0.0
 13
267.339624
 23
144.44
 33
0.0
  0
3DFACE
  8
0
  6
CONTINUOUS
 62
     7
 10
267.355304
 20
145.56
 30
0.0
 11
267.370984
 21
145.56
 31
0.0
 12
267.370984
 22
144.44
 32
0.0
 13
267.355304
 23
144.44
 33
0.0
  0
3DFACE
  8
0
  6
CONTINUOUS
 62
     7
 10
267.370984
 20
145.56
 30
0.0
 11
267.386664
 21
145.56
 31
0.0
 12
267.386664
 22
144.44
 32
0.0
 13
267.370984
 23
144.44
 33
0.0
  0
3DFACE
  8
0
  6
CONTINUOUS
 62
     7
 10
267.386664
 20
145.56
 30
0.0
 11
267.402344
 21
145.56
 31
0.0
 12
267.402344
 22
144.44
 32
0.0
 13
267.386664
 23
144.44
 33
0.0
  0
3DFACE
  8
0
  6
CONTINUOUS
 62
     7
 10
267.402344
 20
145.56
 30
0.0
 11
267.418024
 21
145.56
 31
0.0
 12
267.418024
 22
144.44
 32
0.0
 13
267.402344
 23
144.44
 33
0.0
  0
3DFACE
  8
0
  6
CONTINUOUS
 62
     7
 10
267.418024
 20
145.56
 30
0.0
 11
267.433704
 21
145.56
 31
0.0
 12
267.433704
 22
144.44
 32
0.0
 13
267.418024
 23
144.44
 33
0.0
  0
3DFACE
  8
0
  6
CONTINUOUS
 62
     7
 10
267.433704
 20
145.56
 30
0.0
 11
267.449384
 21
145.56
 31
0.0
 12
267.449384
 22
144.44
 32
0.0
 13
267.433704
 23
144.44
 33
0.0
  0
3DFACE
  8
0
  6
CONTINUOUS
 62
     7
 10
267.449384
 20
145.56
 30
0.0
 11
267.465064
 21
145.56
 31
0.0
 12
267.465064
 22
144.44
 32
0.0
 13
267.449384
 23
144.44
 33
0.0
  0
3DFACE
  8
0
  6
CONTINUOUS
 62
     7
 10
267.465064
 20
145.56
 30
0.0
 11
267.480744
 21
145.56
 31
0.0
 12
267.480744
 22
144.44
 32
0.0
 13
267.465064
 23
144.44
 33
0.0
  0
3DFACE
  8
0
  6
CONTINUOUS
 62
     7
 10
267.480744
 20
145.56
 30
0.0
 11
267.496424
 21
145.56
 31
0.0
 12
267.496424
 22
144.44
 32
0.0
 13
267.480744
 23
144.44
 33
0.0
  0
3DFACE
  8
0
  6
CONTINUOUS
 62
     7
 10
267.496424
 20
145.56
 30
0.0
 11
267.512104
 21
145.56
 31
0.0
 12
267.512104
 22
144.44
 32
0.0
 13
267.496424
 23
144.44
 33
0.0
  0
3DFACE
  8
0
  6
CONTINUOUS
 62
     7
 10
267.512104
 20
145.56
 30
0.0
 11
267.527784
 21
145.56
 31
0.0
 12
267.527784
 22
144.44
 32
0.0
 13
267.512104
 23
144.44
 33
0.0
  0
3DFACE
  8
0
  6
CONTINUOUS
 62
     7
 10
267.527784
 20
145.56
 30
0.0
 11
267.543464
 21
145.56
 31
0.0
 12
267.543464
 22
144.44
 32
0.0
 13
267.527784
 23
144.44
 33
0.0
  0
3DFACE
  8
0
  6
CONTINUOUS
 62
     7
 10
267.543464
 20
145.56
 30
0.0
 11
267.559144
 21
145.56
 31
0.0
 12
267.559144
 22
144.44
 32
0.0
 13
267.543464
 23
144.44
 33
0.0
  0
3DFACE
  8
0
  6
CONTINUOUS
 62
     7
 10
267.559144
 20
145.56
 30
0.0
 11
267.574824
 21
145.56
 31
0.0
 12
267.574824
 22
144.44
 32
0.0
 13
267.559144
 23
144.44
 33
0.0
  0
3DFACE
  8
0
  6
CONTINUOUS
 62
     7
 10
267.574824
 20
145.56
 30
0.0
 11
267.590504
 21
145.56
 31
0.0
 12
267.590504
 22
144.44
 32
0.0
 13
267.574824
 23
144.44
 33
0.0
  0
3DFACE
  8
0
  6
CONTINUOUS
 62
     7
 10
267.590504
 20
145.56
 30
0.0
 11
267.606184
 21
145.56
 31
0.0
 12
267.606184
 22
144.44
 32
0.0
 13
267.590504
 23
144.44
 33
0.0
  0
3DFACE
  8
0
  6
CONTINUOUS
 62
     7
 10
267.606184
 20
145.56
 30
0.0
 11
267.621864
 21
145.56
 31
0.0
 12
267.621864
 22
144.44
 32
0.0
 13
267.606184
 23
144.44
 33
0.0
  0
3DFACE
  8
0
  6
CONTINUOUS
 62
     7
 10
267.621864
 20
145.56
 30
0.0
 11
267.637544
 21
145.56
 31
0.0
 12
267.637544
 22
144.44
 32
0.0
 13
267.621864
 23
144.44
 33
0.0
  0
3DFACE
  8
0
  6
CONTINUOUS
 62
     7
 10
267.637544
 20
145.56
 30
0.0
 11
267.653224
 21
145.56
 31
0.0
 12
267.653224
 22
144.44
 32
0.0
 13
267.637544
 23
144.44
 33
0.0
  0
3DFACE
  8
0
  6
CONTINUOUS
 62
     7
 10
267.653224
 20
145.56
 30
0.0
 11
267.668904
 21
145.56
 31
0.0
 12
267.668904
 22
144.44
 32
0.0
 13
267.653224
 23
144.44
 33
0.0
  0
3DFACE
  8
0
  6
CONTINUOUS
 62
     7
 10
267.668904
 20
145.56
 30
0.0
 11
267.684584
 21
145.56
 31
0.0
 12
267.684584
 22
144.44
 32
0.0
 13
267.668904
 23
144.44
 33
0.0
  0
3DFACE
  8
0
  6
CONTINUOUS
 62
     7
 10
267.684584
 20
145.56
 30
0.0
 11
267.700264
 21
145.56
 31
0.0
 12
267.700264
 22
144.44
 32
0.0
 13
267.684584
 23
144.44
 33
0.0
  0
3DFACE
  8
0
  6
CONTINUOUS
 62
     7
 10
267.700264
 20
145.56
 30
0.0
 11
267.715944
 21
145.56
 31
0.0
 12
267.715944
 22
144.44
 32
0.0
 13
267.700264
 23
144.44
 33
0.0
  0
3DFACE
  8
0
  6
CONTINUOUS
 62
     7
 10
267.715944
 20
145.56
 30
0.0
 11
267.731624
 21
145.56
 31
0.0
 12
267.731624
 22
144.44
 32
0.0
 13
267.715944
 23
144.44
 33
0.0
  0
3DFACE
  8
0
  6
CONTINUOUS
 62
     7
 10
267.731624
 20
145.56
 30
0.0
 11
267.747304
 21
145.56
 31
0.0
 12
267.747304
 22
144.44
 32
0.0
 13
267.731624
 23
144.44
 33
0.0
  0
3DFACE
  8
0
  6
CONTINUOUS
 62
     7
 10
267.747304
 20
145.56
 30
0.0
 11
267.762984
 21
145.56
 31
0.0
 12
267.762984
 22
144.44
 32
0.0
 13
267.747304
 23
144.44
 33
0.0
  0
3DFACE
  8
0
  6
CONTINUOUS
 62
     7
 10
267.762984
 20
145.56
 30
0.0
 11
267.778664
 21
145.56
 31
0.0
 12
267.778664
 22
144.44
 32
0.0
 13
267.762984
 23
144.44
 33
0.0
  0
3DFACE
  8
0
  6
CONTINUOUS
 62
     7
 10
267.778664
 20
145.56
 30
0.0
 11
267.794344
 21
145.56
 31
0.0
 12
267.794344
 22
144.44
 32
0.0
 13
267.778664
 23
144.44
 33
0.0
  0
3DFACE
  8
0
  6
CONTINUOUS
 62
     7
 10
267.794344
 20
145.56
 30
0.0
 11
267.810024
 21
145.56
 31
0.0
 12
267.810024
 22
144.44
 32
0.0
 13
267.794344
 23
144.44
 33
0.0
  0
3DFACE
  8
0
  6
CONTINUOUS
 62
     7
 10
267.810024
 20
145.56
 30
0.0
 11
267.825704
 21
145.56
 31
0.0
 12
267.825704
 22
144.44
 32
0.0
 13
267.810024
 23
144.44
 33
0.0
  0
3DFACE
  8
0
  6
CONTINUOUS
 62
     7
 10
267.825704
 20
145.56
 30
0.0
 11
267.841384
 21
145.56
 31
0.0
 12
267.841384
 22
144.44
 32
0.0
 13
267.825704
 23
144.44
 33
0.0
  0
3DFACE
  8
0
  6
CONTINUOUS
 62
     7
 10
267.841384
 20
145.56
 30
0.0
 11
267.857064
 21
145.56
 31
0.0
 12
267.857064
 22
144.44
 32
0.0
 13
267.841384
 23
144.44
 33
0.0
  0
3DFACE
  8
0
  6
CONTINUOUS
 62
     7
 10
267.857064
 20
145.56
 30
0.0
 11
267.872744
 21
145.56
 31
0.0
 12
267.872744
 22
144.44
 32
0.0
 13
267.857064
 23
144.44
 33
0.0
  0
3DFACE
  8
0
  6
CONTINUOUS
 62
     7
 10
267.872744
 20
145.56
 30
0.0
 11
267.888424
 21
145.56
 31
0.0
 12
267.888424
 22
144.44
 32
0.0
 13
267.872744
 23
144.44
 33
0.0
  0
3DFACE
  8
0
  6
CONTINUOUS
 62
     7
 10
267.888424
 20
145.56
 30
0.0
 11
267.904104
 21
145.56
 31
0.0
 12
267.904104
 22
144.44
 32
0.0
 13
267.888424
 23
144.44
 33
0.0
  0
3DFACE
  8
0
  6
CONTINUOUS
 62
     7
 10
267.904104
 20
145.56
 30
0.0
 11
267.919784
 21
145.56
 31
0.0
 12
267.919784
 22
144.44
 32
0.0
 13
267.904104
 23
144.44
 33
0.0
  0
3DFACE
  8
0
  6
CONTINUOUS
 62
     7
 10
267.919784
 20
145.56
 30
0.0
 11
267.935464
 21
145.56
 31
0.0
 12
267.935464
 22
144.44
 32
0.0
 13
267.919784
 23
144.44
 33
0.0
  0
3DFACE
  8
0
  6
CONTINUOUS
 62
     7
 10
267.935464
 20
145.56
 30
0.0
 11
267.951144
 21
145.56
 31
0.0
 12
267.951144
 22
144.44
 32
0.0
 13
267.935464
 23
144.44
 33
0.0
  0
3DFACE
  8
0
  6
CONTINUOUS
 62
     7
 10
267.951144
 20
145.56
 30
0.0
 11
267.966824
 21
145.56
 31
0.0
 12
267.966824
 22
144.44
 32
0.0
 13
267.951144
 23
144.44
 33
0.0
  0
3DFACE
  8
0
  6
CONTINUOUS
 62
     7
 10
267.966824
 20
145.56
 30
0.0
 11
267.982504
 21
145.56
 31
0.0
 12
267.982504
 22
144.44
 32
0.0
 13
267.966824
 23
144.44
 33
0.0
  0
3DFACE
  8
0
  6
CONTINUOUS
 62
     7
 10
267.982504
 20
145.56
 30
0.0
 11
267.998184
 21
145.56
 31
0.0
 12
267.998184
 22
144.44
 32
0.0
 13
267.982504
 23
144.44
 33
0.0
  0
3DFACE
  8
0
  6
CONTINUOUS
 62
     7
 10
267.998184
 20
145.56
 30
0.0
 11
268.013864
 21
145.56
 31
0.0
 12
268.013864
 22
144.44
 32
0.0
 13
267.998184
 23
144.44
 33
0.0
  0
3DFACE
  8
0
  6
CONTINUOUS
 62
     7
 10
268.013864
 20
145.56
 30
0.0
 11
268.029544
 21
145.56
 31
0.0
 12
268.029544
 22
144.44
 32
0.0
 13
268.013864
 23
144.44
 33
0.0
  0
3DFACE
  8
0
  6
CONTINUOUS
 62
     7
 10
268.029544
 20
145.56
 30
0.0
 11
268.045224
 21
145.56
 31
0.0
 12
268.045224
 22
144.44
 32
0.0
 13
268.029544
 23
144.44
 33
0.0
  0
3DFACE
  8
0
  6
CONTINUOUS
 62
     7
 10
268.045224
 20
145.56
 30
0.0
 11
268.060904
 21
145.56
 31
0.0
 12
268.060904
 22
144.44
 32
0.0
 13
268.045224
 23
144.44
 33
0.0
  0
3DFACE
  8
0
  6
CONTINUOUS
 62
     7
 10
268.060904
 20
145.56
 30
0.0
 11
268.076584
 21
145.56
 31
0.0
 12
268.076584
 22
144.44
 32
0.0
 13
268.060904
 23
144.44
 33
0.0
  0
3DFACE
  8
0
  6
CONTINUOUS
 62
     7
 10
268.076584
 20
145.56
 30
0.0
 11
268.092264
 21
145.56
 31
0.0
 12
268.092264
 22
144.44
 32
0.0
 13
268.076584
 23
144.44
 33
0.0
  0
3DFACE
  8
0
  6
CONTINUOUS
 62
     7
 10
268.092264
 20
145.56
 30
0.0
 11
268.107944
 21
145.56
 31
0.0
 12
268.107944
 22
144.44
 32
0.0
 13
268.092264
 23
144.44
 33
0.0
  0
3DFACE
  8
0
  6
CONTINUOUS
 62
     7
 10
268.107944
 20
145.56
 30
0.0
 11
268.123624
 21
145.56
 31
0.0
 12
268.123624
 22
144.44
 32
0.0
 13
268.107944
 23
144.44
 33
0.0
  0
3DFACE
  8
0
  6
CONTINUOUS
 62
     7
 10
268.123624
 20
145.56
 30
0.0
 11
268.139304
 21
145.56
 31
0.0
 12
268.139304
 22
144.44
 32
0.0
 13
268.123624
 23
144.44
 33
0.0
  0
3DFACE
  8
0
  6
CONTINUOUS
 62
     7
 10
268.139304
 20
145.56
 30
0.0
 11
268.154984
 21
145.56
 31
0.0
 12
268.154984
 22
144.44
 32
0.0
 13
268.139304
 23
144.44
 33
0.0
  0
3DFACE
  8
0
  6
CONTINUOUS
 62
     7
 10
268.154984
 20
145.56
 30
0.0
 11
268.170664
 21
145.56
 31
0.0
 12
268.170664
 22
144.44
 32
0.0
 13
268.154984
 23
144.44
 33
0.0
  0
3DFACE
  8
0
  6
CONTINUOUS
 62
     7
 10
268.170664
 20
145.56
 30
0.0
 11
268.186344
 21
145.56
 31
0.0
 12
268.186344
 22
144.44
 32
0.0
 13
268.170664
 23
144.44
 33
0.0
  0
3DFACE
  8
0
  6
CONTINUOUS
 62
     7
 10
268.186344
 20
145.56
 30
0.0
 11
268.202024
 21
145.56
 31
0.0
 12
268.202024
 22
144.44
 32
0.0
 13
268.186344
 23
144.44
 33
0.0
  0
3DFACE
  8
0
  6
CONTINUOUS
 62
     7
 10
268.202024
 20
145.56
 30
0.0
 11
268.217704
 21
145.56
 31
0.0
 12
268.217704
 22
144.44
 32
0.0
 13
268.202024
 23
144.44
 33
0.0
  0
3DFACE
  8
0
  6
CONTINUOUS
 62
     7
 10
268.217704
 20
145.56
 30
0.0
 11
268.233384
 21
145.56
 31
0.0
 12
268.233384
 22
144.44
 32
0.0
 13
268.217704
 23
144.44
 33
0.0
  0
3DFACE
  8
0
  6
CONTINUOUS
 62
     7
 10
268.233384
 20
145.56
 30
0.0
 11
268.249064
 21
145.56
 31
0.0
 12
268.249064
 22
144.44
 32
0.0
 13
268.233384
 23
144.44
 33
0.0
  0
3DFACE
  8
0
  6
CONTINUOUS
 62
     7
 10
268.249064
 20
145.56
 30
0.0
 11
268.264744
 21
145.56
 31
0.0
 12
268.264744
 22
144.44
 32
0.0
 13
268.249064
 23
144.44
 33
0.0
  0
3DFACE
  8
0
  6
CONTINUOUS
 62
     7
 10
268.264744
 20
145.56
 30
0.0
 11
268.280424
 21
145.56
 31
0.0
 12
268.280424
 22
144.44
 32
0.0
 13
268.264744
 23
144.44
 33
0.0
  0
3DFACE
  8
0
  6
CONTINUOUS
 62
     7
 10
268.280424
 20
145.56
 30
0.0
 11
268.296104
 21
145.56
 31
0.0
 12
268.296104
 22
144.44
 32
0.0
 13
268.280424
 23
144.44
 33
0.0
  0
3DFACE
  8
0
  6
CONTINUOUS
 62
     7
 10
268.296104
 20
145.56
 30
0.0
 11
268.311784
 21
145.56
 31
0.0
 12
268.311784
 22
144.44
 32
0.0
 13
268.296104
 23
144.44
 33
0.0
  0
3DFACE
  8
0
  6
CONTINUOUS
 62
     7
 10
268.311784
 20
145.56
 30
0.0
 11
268.327464
 21
145.56
 31
0.0
 12
268.327464
 22
144.44
 32
0.0
 13
268.311784
 23
144.44
 33
0.0
  0
3DFACE
  8
0
  6
CONTINUOUS
 62
     7
 10
268.327464
 20
145.56
 30
0.0
 11
268.343144
 21
145.56
 31
0.0
 12
268.343144
 22
144.44
 32
0.0
 13
268.327464
 23
144.44
 33
0.0
  0
3DFACE
  8
0
  6
CONTINUOUS
 62
     7
 10
268.343144
 20
145.56
 30
0.0
 11
268.358824
 21
145.56
 31
0.0
 12
268.358824
 22
144.44
 32
0.0
 13
268.343144
 23
144.44
 33
0.0
  0
3DFACE
  8
0
  6
CONTINUOUS
 62
     7
 10
268.358824
 20
145.56
 30
0.0
 11
268.374504
 21
145.56
 31
0.0
 12
268.374504
 22
144.44
 32
0.0
 13
268.358824
 23
144.44
 33
0.0
  0
3DFACE
  8
0
  6
CONTINUOUS
 62
     7
 10
268.374504
 20
145.56
 30
0.0
 11
268.390184
 21
145.56
 31
0.0
 12
268.390184
 22
144.44
 32
0.0
 13
268.374504
 23
144.44
 33
0.0
  0
3DFACE
  8
0
  6
CONTINUOUS
 62
     7
 10
268.390184
 20
145.56
 30
0.0
 11
268.405864
 21
145.56
 31
0.0
 12
268.405864
 22
144.44
 32
0.0
 13
268.390184
 23
144.44
 33
0.0
  0
3DFACE
  8
0
  6
CONTINUOUS
 62
     7
 10
268.405864
 20
145.56
 30
0.0
 11
268.421544
 21
145.56
 31
0.0
 12
268.421544
 22
144.44
 32
0.0
 13
268.405864
 23
144.44
 33
0.0
  0
3DFACE
  8
0
  6
CONTINUOUS
 62
     7
 10
268.421544
 20
145.56
 30
0.0
 11
268.437224
 21
145.56
 31
0.0
 12
268.437224
 22
144.44
 32
0.0
 13
268.421544
 23
144.44
 33
0.0
  0
3DFACE
  8
0
  6
CONTINUOUS
 62
     7
 10
268.437224
 20
145.56
 30
0.0
 11
268.452904
 21
145.56
 31
0.0
 12
268.452904
 22
144.44
 32
0.0
 13
268.437224
 23
144.44
 33
0.0
  0
3DFACE
  8
0
  6
CONTINUOUS
 62
     7
 10
268.452904
 20
145.56
 30
0.0
 11
268.468584
 21
145.56
 31
0.0
 12
268.468584
 22
144.44
 32
0.0
 13
268.452904
 23
144.44
 33
0.0
  0
3DFACE
  8
0
  6
CONTINUOUS
 62
     7
 10
268.468584
 20
145.56
 30
0.0
 11
268.484264
 21
145.56
 31
0.0
 12
268.484264
 22
144.44
 32
0.0
 13
268.468584
 23
144.44
 33
0.0
  0
3DFACE
  8
0
  6
CONTINUOUS
 62
     7
 10
268.484264
 20
145.56
 30
0.0
 11
268.499944
 21
145.56
 31
0.0
 12
268.499944
 22
144.44
 32
0.0
 13
268.484264
 23
144.44
 33
0.0
  0
3DFACE
  8
0
  6
CONTINUOUS
 62
     7
 10
268.499944
 20
145.56
 30
0.0
 11
268.515624
 21
145.56
 31
0.0
 12
268.515624
 22
144.44
 32
0.0
 13
268.499944
 23
144.44
 33
0.0
  0
3DFACE
  8
0
  6
CONTINUOUS
 62
     7
 10
268.515624
 20
145.56
 30
0.0
 11
268.531304
 21
145.56
 31
0.0
 12
268.531304
 22
144.44
 32
0.0
 13
268.515624
 23
144.44
 33
0.0
  0
3DFACE
  8
0
  6
CONTINUOUS
 62
     7
 10
268.531304
 20
145.56
 30
0.0
 11
268.546984
 21
145.56
 31
0.0
 12
268.546984
 22
144.44
 32
0.0
 13
268.531304
 23
144.44
 33
0.0
  0
3DFACE
  8
0
  6
CONTINUOUS
 62
     7
 10
268.546984
 20
145.56
 30
0.0
 11
268.562664
 21
145.56
 31
0.0
 12
268.562664
 22
144.44
 32
0.0
 13
268.546984
 23
144.44
 33
0.0
  0
3DFACE
  8
0
  6
CONTINUOUS
 62
     7
 10
268.562664
 20
145.56
 30
0.0
 11
268.578344
 21
145.56
 31
0.0
 12
268.578344
 22
144.44
 32
0.0
 13
268.562664
 23
144.44
 33
0.0
  0
3DFACE
  8
0
  6
CONTINUOUS
 62
     7
 10
268.578344
 20
145.56
 30
0.0
 11
268.594024
 21
145.56
 31
0.0
 12
268.594024
 22
144.44
 32
0.0
 13
268.578344
 23
144.44
 33
0.0
  0
3DFACE
  8
0
  6
CONTINUOUS
 62
     7
 10
268.594024
 20
145.56
 30
0.0
 11
268.609704
 21
145.56
 31
0.0
 12
268.609704
 22
144.44
 32
0.0
 13
268.594024
 23
144.44
 33
0.0
  0
3DFACE
  8
0
  6
CONTINUOUS
 62
     7
 10
268.609704
 20
145.56
 30
0.0
 11
268.625384
 21
145.56
 31
0.0
 12
268.625384
 22
144.44
 32
0.0
 13
268.609704
 23
144.44
 33
0.0
  0
3DFACE
  8
0
  6
CONTINUOUS
 62
     7
 10
268.625384
 20
145.56
 30
0.0
 11
268.641064
 21
145.56
 31
0.0
 12
268.641064
 22
144.44
 32
0.0
 13
268.625384
 23
144.44
 33
0.0
  0
3DFACE
  8
0
  6
CONTINUOUS
 62
     7
 10
268.641064
 20
145.56
 30
0.0
 11
268.656744
 21
145.56
 31
0.0
 12
268.656744
 22
144.44
 32
0.0
 13
268.641064
 23
144.44
 33
0.0
  0
3DFACE
  8
0
  6
CONTINUOUS
 62
     7
 10
268.656744
 20
145.56
 30
0.0
 11
268.672424
 21
145.56
 31
0.0
 12
268.672424
 22
144.44
 32
0.0
 13
268.656744
 23
144.44
 33
0.0
  0
3DFACE
  8
0
  6
CONTINUOUS
 62
     7
 10
268.672424
 20
145.56
 30
0.0
 11
268.688104
 21
145.56
 31
0.0
 12
268.688104
 22
144.44
 32
0.0
 13
268.672424
 23
144.44
 33
0.0
  0
3DFACE
  8
0
  6
CONTINUOUS
 62
     7
 10
268.688104
 20
145.56
 30
0.0
 11
268.703784
 21
145.56
 31
0.0
 12
268.703784
 22
144.44
 32
0.0
 13
268.688104
 23
144.44
 33
0.0
  0
3DFACE
  8
0
  6
CONTINUOUS
 62
     7
 10
268.703784
 20
145.56
 30
0.0
 11
268.719464
 21
145.56
 31
0.0
 12
268.719464
 22
144.44
 32
0.0
 13
268.703784
 23
144.44
 33
0.0
  0
3DFACE
  8
0
  6
CONTINUOUS
 62
     7
 10
268.719464
 20
145.56
 30
0.0
 11
268.735144
 21
145.56
 31
0.0
 12
268.735144
 22
144.44
 32
0.0
 13
268.719464
 23
144.44
 33
0.0
  0
3DFACE
  8
0
  6
CONTINUOUS
 62
     7
 10
268.735144
 20
145.56
 30
0.0
 11
268.750824
 21
145.56
 31
0.0
 12
268.750824
 22
144.44
 32
0.0
 13
268.735144
 23
144.44
 33
0.0
  0
3DFACE
  8
0
  6
CONTINUOUS
 62
     7
 10
268.750824
 20
145.56
 30
0.0
 11
268.766504
 21
145.56
 31
0.0
 12
268.766504
 22
144.44
 32
0.0
 13
268.750824
 23
144.44
 33
0.0
  0
3DFACE
  8
0
  6
CONTINUOUS
 62
     7
 10
268.766504
 20
145.56
 30
0.0
 11
268.782184
 21
145.56
 31
0.0
 12
268.782184
 22
144.44
 32
0.0
 13
268.766504
 23
144.44
 33
0.0
  0
3DFACE
  8
0
  6
CONTINUOUS
 62
     7
 10
268.782184
 20
145.56
 30
0.0
 11
268.797864
 21
145.56
 31
0.0
 12
268.797864
 22
144.44
 32
0.0
 13
268.782184
 23
144.44
 33
0.0
  0
3DFACE
  8
0
  6
CONTINUOUS
 62
     7
 10
268.797864
 20
145.56
 30
0.0
 11
268.813544
 21
145.56
 31
0.0
 12
268.813544
 22
144.44
 32
0.0
 13
268.797864
 23
144.44
 33
0.0
  0
3DFACE
  8
0
  6
CONTINUOUS
 62
     7
 10
268.813544
 20
145.56
 30
0.0
 11
268.829224
 21
145.56
 31
0.0
 12
268.829224
 22
144.44
 32
0.0
 13
268.813544
 23
144.44
 33
0.0
  0
3DFACE
  8
0
  6
CONTINUOUS
 62
     7
 10
268.829224
 20
145.56
 30
0.0
 11
268.844904
 21
145.56
 31
0.0
 12
268.844904
 22
144.44
 32
0.0
 13
268.829224
 23
144.44
 33
0.0
  0
3DFACE
  8
0
  6
CONTINUOUS
 62
     7
 10
268.844904
 20
145.56
 30
0.0
 11
268.860584
 21
145.56
 31
0.0
 12
268.860584
 22
144.44
 32
0.0
 13
268.844904
 23
144.44
 33
0.0
  0
3DFACE
  8
0
  6
CONTINUOUS
 62
     7
 10
268.860584
 20
145.56
 30
0.0
 11
268.876264
 21
145.56
 31
0.0
 12
268.876264
 22
144.44
 32
0.0
 13
268.860584
 23
144.44
 33
0.0
  0
3DFACE
  8
0
  6
CONTINUOUS
 62
     7
 10
268.876264
 20
145.56
 30
0.0
 11
268.891944
 21
145.56
 31
0.0
 12
268.891944
 22
144.44
 32
0.0
 13
268.876264
 23
144.44
 33
0.0
  0
3DFACE
  8
0
  6
CONTINUOUS
 62
     7
 10
268.891944
 20
145.56
 30
0.0
 11
268.907624
 21
145.56
 31
0.0
 12
268.907624
 22
144.44
 32
0.0
 13
268.891944
 23
144.44
 33
0.0
  0
3DFACE
  8
0
  6
CONTINUOUS
 62
     7
 10
268.907624
 20
145.56
 30
0.0
 11
268.923304
 21
145.56
 31
0.0
 12
268.923304
 22
144.44
 32
0.0
 13
268.907624
 23
144.44
 33
0.0
  0
3DFACE
  8
0
  6
CONTINUOUS
 62
     7
 10
268.923304
 20
145.56
 30
0.0
 11
268.938984
 21
145.56
 31
0.0
 12
268.938984
 22
144.44
 32
0.0
 13
268.923304
 23
144.44
 33
0.0
  0
3DFACE
  8
0
  6
CONTINUOUS
 62
     7
 10
268.938984
 20
145.56
 30
0.0
 11
268.954664
 21
145.56
 31
0.0
 12
268.954664
 22
144.44
 32
0.0
 13
268.938984
 23
144.44
 33
0.0
  0
3DFACE
  8
0
  6
CONTINUOUS
 62
     7
 10
268.954664
 20
145.56
 30
0.0
 11
268.970344
 21
145.56
 31
0.0
 12
268.970344
 22
144.44
 32
0.0
 13
268.954664
 23
144.44
 33
0.0
  0
3DFACE
  8
0
  6
CONTINUOUS
 62
     7
 10
268.970344
 20
145.56
 30
0.0
 11
268.986024
 21
145.56
 31
0.0
 12
268.986024
 22
144.44
 32
0.0
 13
268.970344
 23
144.44
 33
0.0
  0
3DFACE
  8
0
  6
CONTINUOUS
 62
     7
 10
268.986024
 20
145.56
 30
0.0
 11
269.001704
 21
145.56
 31
0.0
 12
269.001704
 22
144.44
 32
0.0
 13
268.986024
 23
144.44
 33
0.0
  0
3DFACE
  8
0
  6
CONTINUOUS
 62
     7
 10
269.001704
 20
145.56
 30
0.0
 11
269.017384
 21
145.56
 31
0.0
 12
269.017384
 22
144.44
 32
0.0
 13
269.001704
 23
144.44
 33
0.0
  0
3DFACE
  8
0
  6
CONTINUOUS
 62
     7
 10
269.017384
 20
145.56
 30
0.0
 11
269.033064
 21
145.56
 31
0.0
 12
269.033064
 22
144.44
 32
0.0
 13
269.017384
 23
144.44
 33
0.0
  0
3DFACE
  8
0
  6
CONTINUOUS
 62
     7
 10
269.033064
 20
145.56
 30
0.0
 11
269.048744
 21
145.56
 31
0.0
 12
269.048744
 22
144.44
 32
0.0
 13
269.033064
 23
144.44
 33
0.0
  0
3DFACE
  8
0
  6
CONTINUOUS
 62
     7
 10
269.048744
 20
145.56
 30
0.0
 11
269.064424
 21
145.56
 31
0.0
 12
269.064424
 22
144.44
 32
0.0
 13
269.048744
 23
144.44
 33
0.0
  0
3DFACE
  8
0
  6
CONTINUOUS
 62
     7
 10
269.064424
 20
145.56
 30
0.0
 11
269.080104
 21
145.56
 31
0.0
 12
269.080104
 22
144.44
 32
0.0
 13
269.064424
 23
144.44
 33
0.0
  0
3DFACE
  8
0
  6
CONTINUOUS
 62
     7
 10
269.080104
 20
145.56
 30
0.0
 11
269.095784
 21
145.56
 31
0.0
 12
269.095784
 22
144.44
 32
0.0
 13
269.080104
 23
144.44
 33
0.0
  0
3DFACE
  8
0
  6
CONTINUOUS
 62
     7
 10
269.095784
 20
145.56
 30
0.0
 11
269.111464
 21
145.56
 31
0.0
 12
269.111464
 22
144.44
 32
0.0
 13
269.095784
 23
144.44
 33
0.0
  0
3DFACE
  8
0
  6
CONTINUOUS
 62
     7
 10
269.111464
 20
145.56
 30
0.0
 11
269.127144
 21
145.56
 31
0.0
 12
269.127144
 22
144.44
 32
0.0
 13
269.111464
 23
144.44
 33
0.0
  0
3DFACE
  8
0
  6
CONTINUOUS
 62
     7
 10
269.127144
 20
145.56
 30
0.0
 11
269.142824
 21
145.56
 31
0.0
 12
269.142824
 22
144.44
 32
0.0
 13
269.127144
 23
144.44
 33
0.0
  0
3DFACE
  8
0
  6
CONTINUOUS
 62
     7
 10
269.142824
 20
145.56
 30
0.0
 11
269.158504
 21
145.56
 31
0.0
 12
269.158504
 22
144.44
 32
0.0
 13
269.142824
 23
144.44
 33
0.0
  0
3DFACE
  8
0
  6
CONTINUOUS
 62
     7
 10
269.158504
 20
145.56
 30
0.0
 11
269.174184
 21
145.56
 31
0.0
 12
269.174184
 22
144.44
 32
0.0
 13
269.158504
 23
144.44
 33
0.0
  0
3DFACE
  8
0
  6
CONTINUOUS
 62
     7
 10
269.174184
 20
145.56
 30
0.0
 11
269.189864
 21
145.56
 31
0.0
 12
269.189864
 22
144.44
 32
0.0
 13
269.174184
 23
144.44
 33
0.0
  0
3DFACE
  8
0
  6
CONTINUOUS
 62
     7
 10
269.189864
 20
145.56
 30
0.0
 11
269.205544
 21
145.56
 31
0.0
 12
269.205544
 22
144.44
 32
0.0
 13
269.189864
 23
144.44
 33
0.0
  0
3DFACE
  8
0
  6
CONTINUOUS
 62
     7
 10
269.205544
 20
145.56
 30
0.0
 11
269.221224
 21
145.56
 31
0.0
 12
269.221224
 22
144.44
 32
0.0
 13
269.205544
 23
144.44
 33
0.0
  0
3DFACE
  8
0
  6
CONTINUOUS
 62
     7
 10
269.221224
 20
145.56
 30
0.0
 11
269.236904
 21
145.56
 31
0.0
 12
269.236904
 22
144.44
 32
0.0
 13
269.221224
 23
144.44
 33
0.0
  0
3DFACE
  8
0
  6
CONTINUOUS
 62
     7
 10
269.236904
 20
145.56
 30
0.0
 11
269.252584
 21
145.56
 31
0.0
 12
269.252584
 22
144.44
 32
0.0
 13
269.236904
 23
144.44
 33
0.0
  0
3DFACE
  8
0
  6
CONTINUOUS
 62
     7
 10
269.252584
 20
145.56
 30
0.0
 11
269.268264
 21
145.56
 31
0.0
 12
269.268264
 22
144.44
 32
0.0
 13
269.252584
 23
144.44
 33
0.0
  0
3DFACE
  8
0
  6
CONTINUOUS
 62
     7
 10
269.268264
 20
145.56
 30
0.0
 11
269.283944
 21
145.56
 31
0.0
 12
269.283944
 22
144.44
 32
0.0
 13
269.268264
 23
144.44
 33
0.0
  0
3DFACE
  8
0
  6
CONTINUOUS
 62
     7
 10
269.283944
 20
145.56
 30
0.0
 11
269.299624
 21
145.56
 31
0.0
 12
269.299624
 22
144.44
 32
0.0
 13
269.283944
 23
144.44
 33
0.0
  0
3DFACE
  8
0
  6
CONTINUOUS
 62
     7
 10
269.299624
 20
145.56
 30
0.0
 11
269.315304
 21
145.56
 31
0.0
 12
269.315304
 22
144.44
 32
0.0
 13
269.299624
 23
144.44
 33
0.0
  0
3DFACE
  8
0
  6
CONTINUOUS
 62
     7
 10
269.315304
 20
145.56
 30
0.0
 11
269.330984
 21
145.56
 31
0.0
 12
269.330984
 22
144.44
 32
0.0
 13
269.315304
 23
144.44
 33
0.0
  0
3DFACE
  8
0
  6
CONTINUOUS
 62
     7
 10
269.330984
 20
145.56
 30
0.0
 11
269.346664
 21
145.56
 31
0.0
 12
269.346664
 22
144.44
 32
0.0
 13
269.330984
 23
144.44
 33
0.0
  0
3DFACE
  8
0
  6
CONTINUOUS
 62
     7
 10
269.346664
 20
145.56
 30
0.0
 11
269.362344
 21
145.56
 31
0.0
 12
269.362344
 22
144.44
 32
0.0
 13
269.346664
 23
144.44
 33
0.0
  0
3DFACE
  8
0
  6
CONTINUOUS
 62
     7
 10
269.362344
 20
145.56
 30
0.0
 11
269.378024
 21
145.56
 31
0.0
 12
269.378024
 22
144.44
 32
0.0
 13
269.362344
 23
144.44
 33
0.0
  0
3DFACE
  8
0
  6
CONTINUOUS
 62
     7
 10
269.378024
 20
145.56
 30
0.0
 11
269.393704
 21
145.56
 31
0.0
 12
269.393704
 22
144.44
 32
0.0
 13
269.378024
 23
144.44
 33
0.0
  0
3DFACE
  8
0
  6
CONTINUOUS
 62
     7
 10
269.393704
 20
145.56
 30
0.0
 11
269.409384
 21
145.56
 31
0.0
 12
269.409384
 22
144.44
 32
0.0
 13
269.393704
 23
144.44
 33
0.0
  0
3DFACE
  8
0
  6
CONTINUOUS
 62
     7
 10
269.409384
 20
145.56
 30
0.0
 11
269.425064
 21
145.56
 31
0.0
 12
269.425064
 22
144.44
 32
0.0
 13
269.409384
 23
144.44
 33
0.0
  0
3DFACE
  8
0
  6
CONTINUOUS
 62
     7
 10
269.425064
 20
145.56
 30
0.0
 11
269.440744
 21
145.56
 31
0.0
 12
269.440744
 22
144.44
 32
0.0
 13
269.425064
 23
144.44
 33
0.0
  0
3DFACE
  8
0
  6
CONTINUOUS
 62
     7
 10
269.440744
 20
145.56
 30
0.0
 11
269.456424
 21
145.56
 31
0.0
 12
269.456424
 22
144.44
 32
0.0
 13
269.440744
 23
144.44
 33
0.0
  0
3DFACE
  8
0
  6
CONTINUOUS
 62
     7
 10
269.456424
 20
145.56
 30
0.0
 11
269.472104
 21
145.56
 31
0.0
 12
269.472104
 22
144.44
 32
0.0
 13
269.456424
 23
144.44
 33
0.0
  0
3DFACE
  8
0
  6
CONTINUOUS
 62
     7
 10
269.472104
 20
145.56
 30
0.0
 11
269.487784
 21
145.56
 31
0.0
 12
269.487784
 22
144.44
 32
0.0
 13
269.472104
 23
144.44
 33
0.0
  0
3DFACE
  8
0
  6
CONTINUOUS
 62
     7
 10
269.487784
 20
145.56
 30
0.0
 11
269.503464
 21
145.56
 31
0.0
 12
269.503464
 22
144.44
 32
0.0
 13
269.487784
 23
144.44
 33
0.0
  0
3DFACE
  8
0
  6
CONTINUOUS
 62
     7
 10
269.503464
 20
145.56
 30
0.0
 11
269.519144
 21
145.56
 31
0.0
 12
269.519144
 22
144.44
 32
0.0
 13
269.503464
 23
144.44
 33
0.0
  0
3DFACE
  8
0
  6
CONTINUOUS
 62
     7
 10
269.519144
 20
145.56
 30
0.0
 11
269.534824
 21
145.56
 31
0.0
 12
269.534824
 22
144.44
 32
0.0
 13
269.519144
 23
144.44
 33
0.0
  0
3DFACE
  8
0
  6
CONTINUOUS
 62
     7
 10
269.534824
 20
145.56
 30
0.0
 11
269.550504
 21
145.56
 31
0.0
 12
269.550504
 22
144.44
 32
0.0
 13
269.534824
 23
144.44
 33
0.0
  0
3DFACE
  8
0
  6
CONTINUOUS
 62
     7
 10
269.550504
 20
145.56
 30
0.0
 11
269.566184
 21
145.56
 31
0.0
 12
269.566184
 22
144.44
 32
0.0
 13
269.550504
 23
144.44
 33
0.0
  0
3DFACE
  8
0
  6
CONTINUOUS
 62
     7
 10
269.566184
 20
145.56
 30
0.0
 11
269.581864
 21
145.56
 31
0.0
 12
269.581864
 22
144.44
 32
0.0
 13
269.566184
 23
144.44
 33
0.0
  0
3DFACE
  8
0
  6
CONTINUOUS
 62
     7
 10
269.581864
 20
145.56
 30
0.0
 11
269.597544
 21
145.56
 31
0.0
 12
269.597544
 22
144.44
 32
0.0
 13
269.581864
 23
144.44
 33
0.0
  0
3DFACE
  8
0
  6
CONTINUOUS
 62
     7
 10
269.597544
 20
145.56
 30
0.0
 11
269.613224
 21
145.56
 31
0.0
 12
269.613224
 22
144.44
 32
0.0
 13
269.597544
 23
144.44
 33
0.0
  0
3DFACE
  8
0
  6
CONTINUOUS
 62
     7
 10
269.613224
 20
145.56
 30
0.0
 11
269.628904
 21
145.56
 31
0.0
 12
269.628904
 22
144.44
 32
0.0
 13
269.613224
 23
144.44
 33
0.0
  0
3DFACE
  8
0
  6
CONTINUOUS
 62
     7
 10
269.628904
 20
145.56
 30
0.0
 11
269.644584
 21
145.56
 31
0.0
 12
269.644584
 22
144.44
 32
0.0
 13
269.628904
 23
144.44
 33
0.0
  0
3DFACE
  8
0
  6
CONTINUOUS
 62
     7
 10
269.644584
 20
145.56
 30
0.0
 11
269.660264
 21
145.56
 31
0.0
 12
269.660264
 22
144.44
 32
0.0
 13
269.644584
 23
144.44
 33
0.0
  0
3DFACE
  8
0
  6
CONTINUOUS
 62
     7
 10
269.660264
 20
145.56
 30
0.0
 11
269.675944
 21
145.56
 31
0.0
 12
269.675944
 22
144.44
 32
0.0
 13
269.660264
 23
144.44
 33
0.0
  0
3DFACE
  8
0
  6
CONTINUOUS
 62
     7
 10
269.675944
 20
145.56
 30
0.0
 11
269.691624
 21
145.56
 31
0.0
 12
269.691624
 22
144.44
 32
0.0
 13
269.675944
 23
144.44
 33
0.0
  0
3DFACE
  8
0
  6
CONTINUOUS
 62
     7
 10
269.691624
 20
145.56
 30
0.0
 11
269.707304
 21
145.56
 31
0.0
 12
269.707304
 22
144.44
 32
0.0
 13
269.691624
 23
144.44
 33
0.0
  0
3DFACE
  8
0
  6
CONTINUOUS
 62
     7
 10
269.707304
 20
145.56
 30
0.0
 11
269.722984
 21
145.56
 31
0.0
 12
269.722984
 22
144.44
 32
0.0
 13
269.707304
 23
144.44
 33
0.0
  0
3DFACE
  8
0
  6
CONTINUOUS
 62
     7
 10
269.722984
 20
145.56
 30
0.0
 11
269.738664
 21
145.56
 31
0.0
 12
269.738664
 22
144.44
 32
0.0
 13
269.722984
 23
144.44
 33
0.0
  0
3DFACE
  8
0
  6
CONTINUOUS
 62
     7
 10
269.738664
 20
145.56
 30
0.0
 11
269.754344
 21
145.56
 31
0.0
 12
269.754344
 22
144.44
 32
0.0
 13
269.738664
 23
144.44
 33
0.0
  0
3DFACE
  8
0
  6
CONTINUOUS
 62
     7
 10
269.754344
 20
145.56
 30
0.0
 11
269.770024
 21
145.56
 31
0.0
 12
269.770024
 22
144.44
 32
0.0
 13
269.754344
 23
144.44
 33
0.0
  0
3DFACE
  8
0
  6
CONTINUOUS
 62
     7
 10
269.770024
 20
145.56
 30
0.0
 11
269.785704
 21
145.56
 31
0.0
 12
269.785704
 22
144.44
 32
0.0
 13
269.770024
 23
144.44
 33
0.0
  0
3DFACE
  8
0
  6
CONTINUOUS
 62
     7
 10
269.785704
 20
145.56
 30
0.0
 11
269.801384
 21
145.56
 31
0.0
 12
269.801384
 22
144.44
 32
0.0
 13
269.785704
 23
144.44
 33
0.0
  0
3DFACE
  8
0
  6
CONTINUOUS
 62
     7
 10
269.801384
 20
145.56
 30
0.0
 11
269.817064
 21
145.56
 31
0.0
 12
269.817064
 22
144.44
 32
0.0
 13
269.801384
 23
144.44
 33
0.0
  0
3DFACE
  8
0
  6
CONTINUOUS
 62
     7
 10
269.817064
 20
145.56
 30
0.0
 11
269.832744
 21
145.56
 31
0.0
 12
269.832744
 22
144.44
 32
0.0
 13
269.817064
 23
144.44
 33
0.0
  0
3DFACE
  8
0
  6
CONTINUOUS
 62
     7
 10
269.832744
 20
145.56
 30
0.0
 11
269.848424
 21
145.56
 31
0.0
 12
269.848424
 22
144.44
 32
0.0
 13
269.832744
 23
144.44
 33
0.0
  0
3DFACE
  8
0
  6
CONTINUOUS
 62
     7
 10
269.848424
 20
145.56
 30
0.0
 11
269.864104
 21
145.56
 31
0.0
 12
269.864104
 22
144.44
 32
0.0
 13
269.848424
 23
144.44
 33
0.0
  0
3DFACE
  8
0
  6
CONTINUOUS
 62
     7
 10
269.864104
 20
145.56
 30
0.0
 11
269.879784
 21
145.56
 31
0.0
 12
269.879784
 22
144.44
 32
0.0
 13
269.864104
 23
144.44
 33
0.0
  0
3DFACE
  8
0
  6
CONTINUOUS
 62
     7
 10
269.879784
 20
145.56
 30
0.0
 11
269.895464
 21
145.56
 31
0.0
 12
269.895464
 22
144.44
 32
0.0
 13
269.879784
 23
144.44
 33
0.0
  0
3DFACE
  8
0
  6
CONTINUOUS
 62
     7
 10
269.895464
 20
145.56
 30
0.0
 11
269.911144
 21
145.56
 31
0.0
 12
269.911144
 22
144.44
 32
0.0
 13
269.895464
 23
144.44
 33
0.0
  0
3DFACE
  8
0
  6
CONTINUOUS
 62
     7
 10
269.911144
 20
145.56
 30
0.0
 11
269.926824
 21
145.56
 31
0.0
 12
269.926824
 22
144.44
 32
0.0
 13
269.911144
 23
144.44
 33
0.0
  0
3DFACE
  8
0
  6
CONTINUOUS
 62
     7
 10
269.926824
 20
145.56
 30
0.0
 11
269.942504
 21
145.56
 31
0.0
 12
269.942504
 22
144.44
 32
0.0
 13
269.926824
 23
144.44
 33
0.0
  0
3DFACE
  8
0
  6
CONTINUOUS
 62
     7
 10
269.942504
 20
145.56
 30
0.0
 11
269.958184
 21
145.56
 31
0.0
 12
269.958184
 22
144.44
 32
0.0
 13
269.942504
 23
144.44
 33
0.0
  0
3DFACE
  8
0
  6
CONTINUOUS
 62
     7
 10
269.958184
 20
145.56
 30
0.0
 11
269.973864
 21
145.56
 31
0.0
 12
269.973864
 22
144.44
 32
0.0
 13
269.958184
 23
144.44
 33
0.0
  0
3DFACE
  8
0
  6
CONTINUOUS
 62
     7
 10
269.973864
 20
145.56
 30
0.0
 11
269.989544
 21
145.56
 31
0.0
 12
269.989544
 22
144.44
 32
0.0
 13
269.973864
 23
144.44
 33
0.0
  0
3DFACE
  8
0
  6
CONTINUOUS
 62
     7
 10
269.989544
 20
145.56
 30
0.0
 11
270.005224
 21
145.56
 31
0.0
 12
270.005224
 22
144.44
 32
0.0
 13
269.989544
 23
144.44
 33
0.0
  0
3DFACE
  8
0
  6
CONTINUOUS
 62
     7
 10
270.005224
 20
145.56
 30
0.0
 11
270.020904
 21
145.56
 31
0.0
 12
270.020904
 22
144.44
 32
0.0
 13
270.005224
 23
144.44
 33
0.0
  0
3DFACE
  8
0
  6
CONTINUOUS
 62
     7
 10
270.020904
 20
145.56
 30
0.0
 11
270.036584
 21
145.56
 31
0.0
 12
270.036584
 22
144.44
 32
0.0
 13
270.020904
 23
144.44
 33
0.0
  0
3DFACE
  8
0
  6
CONTINUOUS
 62
     7
 10
270.036584
 20
145.56
 30
0.0
 11
270.052264
 21
145.56
 31
0.0
 12
270.052264
 22
144.44
 32
0.0
 13
270.036584
 23
144.44
 33
0.0
  0
3DFACE
  8
0
  6
CONTINUOUS
 62
     7
 10
270.052264
 20
145.56
 30
0.0
 11
270.067944
 21
145.56
 31
0.0
 12
270.067944
 22
144.44
 32
0.0
 13
270.052264
 23
144.44
 33
0.0
  0
3DFACE
  8
0
  6
CONTINUOUS
 62
     7
 10
270.067944
 20
145.56
 30
0.0
 11
270.083624
 21
145.56
 31
0.0
 12
270.083624
 22
144.44
 32
0.0
 13
270.067944
 23
144.44
 33
0.0
  0
3DFACE
  8
0
  6
CONTINUOUS
 62
     7
 10
270.083624
 20
145.56
 30
0.0
 11
270.099304
 21
145.56
 31
0.0
 12
270.099304
 22
144.44
 32
0.0
 13
270.083624
 23
144.44
 33
0.0
  0
3DFACE
  8
0
  6
CONTINUOUS
 62
     7
 10
270.099304
 20
145.56
 30
0.0
 11
270.114984
 21
145.56
 31
0.0
 12
270.114984
 22
144.44
 32
0.0
 13
270.099304
 23
144.44
 33
0.0
  0
3DFACE
  8
0
  6
CONTINUOUS
 62
     7
 10
270.114984
 20
145.56
 30
0.0
 11
270.130664
 21
145.56
 31
0.0
 12
270.130664
 22
144.44
 32
0.0
 13
270.114984
 23
144.44
 33
0.0
  0
3DFACE
  8
0
  6
CONTINUOUS
 62
     7
 10
270.130664
 20
145.56
 30
0.0
 11
270.146344
 21
145.56
 31
0.0
 12
270.146344
 22
144.44
 32
0.0
 13
270.130664
 23
144.44
 33
0.0
  0
3DFACE
  8
0
  6
CONTINUOUS
 62
     7
 10
270.146344
 20
145.56
 30
0.0
 11
270.162024
 21
145.56
 31
0.0
 12
270.162024
 22
144.44
 32
0.0
 13
270.146344
 23
144.44
 33
0.0
  0
3DFACE
  8
0
  6
CONTINUOUS
 62
     7
 10
270.162024
 20
145.56
 30
0.0
 11
270.177704
 21
145.56
 31
0.0
 12
270.177704
 22
144.44
 32
0.0
 13
270.162024
 23
144.44
 33
0.0
  0
3DFACE
  8
0
  6
CONTINUOUS
 62
     7
 10
270.177704
 20
145.56
 30
0.0
 11
270.193384
 21
145.56
 31
0.0
 12
270.193384
 22
144.44
 32
0.0
 13
270.177704
 23
144.44
 33
0.0
  0
3DFACE
  8
0
  6
CONTINUOUS
 62
     7
 10
270.193384
 20
145.56
 30
0.0
 11
270.209064
 21
145.56
 31
0.0
 12
270.209064
 22
144.44
 32
0.0
 13
270.193384
 23
144.44
 33
0.0
  0
3DFACE
  8
0
  6
CONTINUOUS
 62
     7
 10
270.209064
 20
145.56
 30
0.0
 11
270.224744
 21
145.56
 31
0.0
 12
270.224744
 22
144.44
 32
0.0
 13
270.209064
 23
144.44
 33
0.0
  0
3DFACE
  8
0
  6
CONTINUOUS
 62
     7
 10
270.224744
 20
145.56
 30
0.0
 11
270.240424
 21
145.56
 31
0.0
 12
270.240424
 22
144.44
 32
0.0
 13
270.224744
 23
144.44
 33
0.0
  0
3DFACE
  8
0
  6
CONTINUOUS
 62
     7
 10
270.240424
 20
145.56
 30
0.0
 11
270.256104
 21
145.56
 31
0.0
 12
270.256104
 22
144.44
 32
0.0
 13
270.240424
 23
144.44
 33
0.0
  0
3DFACE
  8
0
  6
CONTINUOUS
 62
     7
 10
270.256104
 20
145.56
 30
0.0
 11
270.271784
 21
145.56
 31
0.0
 12
270.271784
 22
144.44
 32
0.0
 13
270.256104
 23
144.44
 33
0.0
  0
3DFACE
  8
0
  6
CONTINUOUS
 62
     7
 10
270.271784
 20
145.56
 30
0.0
 11
270.287464
 21
145.56
 31
0.0
 12
270.287464
 22
144.44
 32
0.0
 13
270.271784
 23
144.44
 33
0.0
  0
3DFACE
  8
0
  6
CONTINUOUS
 62
     7
 10
270.287464
 20
145.56
 30
0.0
 11
270.303144
 21
145.56
 31
0.0
 12
270.303144
 22
144.44
 32
0.0
 13
270.287464
 23
144.44
 33
0.0
  0
3DFACE
  8
0
  6
CONTINUOUS
 62
     7
 10
270.303144
 20
145.56
 30
0.0
 11
270.318824
 21
145.56
 31
0.0
 12
270.318824
 22
144.44
 32
0.0
 13
270.303144
 23
144.44
 33
0.0
  0
3DFACE
  8
0
  6
CONTINUOUS
 62
     7
 10
270.318824
 20
145.56
 30
0.0
 11
270.334504
 21
145.56
 31
0.0
 12
270.334504
 22
144.44
 32
0.0
 13
270.318824
 23
144.44
 33
0.0
  0
3DFACE
  8
0
  6
CONTINUOUS
 62
     7
 10
270.334504
 20
145.56
 30
0.0
 11
270.350184
 21
145.56
 31
0.0
 12
270.350184
 22
144.44
 32
0.0
 13
270.334504
 23
144.44
 33
0.0
  0
3DFACE
  8
0
  6
CONTINUOUS
 62
     7
 10
270.350184
 20
145.56
 30
0.0
 11
270.365864
 21
145.56
 31
0.0
 12
270.365864
 22
144.44
 32
0.0
 13
270.350184
 23
144.44
 33
0.0
  0
3DFACE
  8
0
  6
CONTINUOUS
 62
     7
 10
270.365864
 20
145.56
 30
0.0
 11
270.381544
 21
145.56
 31
0.0
 12
270.381544
 22
144.44
 32
0.0
 13
270.365864
 23
144.44
 33
0.0
  0
3DFACE
  8
0
  6
CONTINUOUS
 62
     7
 10
270.381544
 20
145.56
 30
0.0
 11
270.397224
 21
145.56
 31
0.0
 12
270.397224
 22
144.44
 32
0.0
 13
270.381544
 23
144.44
 33
0.0
  0
3DFACE
  8
0
  6
CONTINUOUS
 62
     7
 10
270.397224
 20
145.56
 30
0.0
 11
270.412904
 21
145.56
 31
0.0
 12
270.412904
 22
144.44
 32
0.0
 13
270.397224
 23
144.44
 33
0.0
  0
3DFACE
  8
0
  6
CONTINUOUS
 62
     7
 10
270.412904
 20
145.56
 30
0.0
 11
270.428584
 21
145.56
 31
0.0
 12
270.428584
 22
144.44
 32
0.0
 13
270.412904
 23
144.44
 33
0.0
  0
3DFACE
  8
0
  6
CONTINUOUS
 62
     7
 10
270.428584
 20
145.56
 30
0.0
 11
270.444264
 21
145.56
 31
0.0
 12
270.444264
 22
144.44
 32
0.0
 13
270.428584
 23
144.44
 33
0.0
  0
3DFACE
  8
0
  6
CONTINUOUS
 62
     7
 10
270.444264
 20
145.56
 30
0.0
 11
270.459944
 21
145.56
 31
0.0
 12
270.459944
 22
144.44
 32
0.0
 13
270.444264
 23
144.44
 33
0.0
  0
3DFACE
  8
0
  6
CONTINUOUS
 62
     7
 10
270.459944
 20
145.56
 30
0.0
 11
270.475624
 21
145.56
 31
0.0
 12
270.475624
 22
144.44
 32
0.0
 13
270.459944
 23
144.44
 33
0.0
  0
3DFACE
  8
0
  6
CONTINUOUS
 62
     7
 10
270.475624
 20
145.56
 30
0.0
 11
270.491304
 21
145.56
 31
0.0
 12
270.491304
 22
144.44
 32
0.0
 13
270.475624
 23
144.44
 33
0.0
  0
3DFACE
  8
0
  6
CONTINUOUS
 62
     7
 10
270.491304
 20
145.56
 30
0.0
 11
270.506984
 21
145.56
 31
0.0
 12
270.506984
 22
144.44
 32
0.0
 13
270.491304
 23
144.44
 33
0.0
  0
3DFACE
  8
0
  6
CONTINUOUS
 62
     7
 10
270.506984
 20
145.56
 30
0.0
 11
270.522664
 21
145.56
 31
0.0
 12
270.522664
 22
144.44
 32
0.0
 13
270.506984
 23
144.44
 33
0.0
  0
3DFACE
  8
0
  6
CONTINUOUS
 62
     7
 10
270.522664
 20
145.56
 30
0.0
 11
270.538344
 21
145.56
 31
0.0
 12
270.538344
 22
144.44
 32
0.0
 13
270.522664
 23
144.44
 33
0.0
  0
3DFACE
  8
0
  6
CONTINUOUS
 62
     7
 10
270.538344
 20
145.56
 30
0.0
 11
270.554024
 21
145.56
 31
0.0
 12
270.554024
 22
144.44
 32
0.0
 13
270.538344
 23
144.44
 33
0.0
  0
ARC
  8
0
  6
CONTINUOUS
 62
     7
 10
312.5
 20
177.5
 30
0.0
 40
0.5
 50
180.0
 51
0.0
  0
ARC
  8
0
  6
CONTINUOUS
 62
     7
 10
312.5
 20
177.5
 30
0.0
 40
0.5
 50
0.0
 51
180.0
  0
ARC
  8
0
  6
CONTINUOUS
 62
     7
 10
312.5
 20
200.0
 30
0.0
 40
0.5
 50
180.0
 51
0.0
  0
ARC
  8
0
  6
CONTINUOUS
 62
     7
 10
312.5
 20
200.0
 30
0.0
 40
0.5
 50
0.0
 51
180.0
  0
LINE
  8
0
 62
     7
 10
250.0
 20
220.0
 30
0.0
 11
248.480133
 21
220.0
 31
0.0
  0
ARC
  8
0
 62
     7
 10
250.065849
 20
221.25
 30
0.0
 40
1.251733
 50
266.984476
 51
93.015524
  0
LINE
  8
0
 62
     7
 10
250.0
 20
222.5
 30
0.0
 11
248.480133
 21
222.5
 31
0.0
  0
LINE
  8
0
 62
     7
 10
250.0
 20
225.0
 30
0.0
 11
248.480133
 21
225.0
 31
0.0
  0
ARC
  8
0
 62
     7
 10
250.065849
 20
223.75
 30
0.0
 40
1.251733
 50
266.984476
 51
93.015524
  0
LINE
  8
0
 62
     7
 10
255.0
 20
217.5
 30
0.0
 11
257.5
 21
217.5
 31
0.0
  0
ARC
  8
0
 62
     7
 10
254.934151
 20
218.75
 30
0.0
 40
1.251733
 50
86.984476
 51
273.015524
  0
ARC
  8
0
 62
     7
 10
254.934151
 20
221.25
 30
0.0
 40
1.251733
 50
86.984476
 51
273.015524
  0
LINE
  8
0
 62
     7
 10
255.0
 20
220.0
 30
0.0
 11
257.5
 21
220.0
 31
0.0
  0
LINE
  8
0
 62
     7
 10
255.0
 20
222.5
 30
0.0
 11
257.5
 21
222.5
 31
0.0
  0
LINE
  8
0
 62
     7
 10
257.5
 20
222.5
 30
0.0
 11
260.0
 21
222.5
 31
0.0
  0
LINE
  8
0
 62
     7
 10
257.5
 20
217.5
 30
0.0
 11
260.0
 21
217.5
 31
0.0
  0
LINE
  8
0
 62
     7
 10
257.5
 20
222.5
 30
0.0
 11
260.0
 21
222.5
 31
0.0
  0
LINE
  8
0
 62
     7
 10
257.5
 20
227.5
 30
0.0
 11
260.0
 21
227.5
 31
0.0
  0
LINE
  8
0
 62
     7
 10
255.0
 20
227.5
 30
0.0
 11
257.5
 21
227.5
 31
0.0
  0
LINE
  8
0
 62
     7
 10
255.0
 20
225.0
 30
0.0
 11
257.5
 21
225.0
 31
0.0
  0
ARC
  8
0
 62
     7
 10
254.934151
 20
226.25
 30
0.0
 40
1.251733
 50
86.984476
 51
273.015524
  0
ARC
  8
0
 62
     7
 10
254.934151
 20
223.75
 30
0.0
 40
1.251733
 50
86.984476
 51
273.015524
  0
LINE
  8
0
 62
     7
 10
255.0
 20
222.5
 30
0.0
 11
257.5
 21
222.5
 31
0.0
  0
LINE
  8
0
  6
CONTINUOUS
 62
     7
 10
244.296752
 20
221.164644
 30
0.0
 11
241.950987
 21
222.499998
 31
0.0
  0
LINE
  8
0
  6
CONTINUOUS
 62
     7
 10
241.950987
 20
222.499998
 30
0.0
 11
244.296752
 21
223.689917
 31
0.0
  0
ARC
  8
0
  6
CONTINUOUS
 62
     7
 10
312.5
 20
222.5
 30
0.0
 40
0.5
 50
180.0
 51
0.0
  0
ARC
  8
0
  6
CONTINUOUS
 62
     7
 10
312.5
 20
222.5
 30
0.0
 40
0.5
 50
0.0
 51
180.0
  0
ENDSEC
  0
EOF
