  0
SECTION
  2
HEADER
  9
$ACADVER
  1
AC1009
  9
$INSBASE
 10
0.0
 20
0.0
 30
0.0
  9
$EXTMIN
 10
0.578269
 20
0.580464
 30
0.0
  9
$EXTMAX
 10
392.578269
 20
263.080464
 30
0.0
  9
$LIMMIN
 10
0.0
 20
0.0
  9
$LIMMAX
 10
12.0
 20
9.0
  9
$ORTHOMODE
 70
     1
  9
$REGENMODE
 70
     1
  9
$FILLMODE
 70
     1
  9
$QTEXTMODE
 70
     0
  9
$MIRRTEXT
 70
     1
  9
$DRAGMODE
 70
     2
  9
$LTSCALE
 40
5.0
  9
$OSMODE
 70
     0
  9
$ATTMODE
 70
     1
  9
$TEXTSIZE
 40
2.0
  9
$TRACEWID
 40
0.05
  9
$TEXTSTYLE
  7
ROMANS
  9
$CLAYER
  8
0
  9
$CELTYPE
  6
CONTINUOUS
  9
$CECOLOR
 62
   256
  9
$DIMSCALE
 40
1.0
  9
$DIMASZ
 40
0.18
  9
$DIMEXO
 40
0.0625
  9
$DIMDLI
 40
0.38
  9
$DIMRND
 40
0.0
  9
$DIMDLE
 40
0.0
  9
$DIMEXE
 40
0.18
  9
$DIMTP
 40
0.0
  9
$DIMTM
 40
0.0
  9
$DIMTXT
 40
0.18
  9
$DIMCEN
 40
0.09
  9
$DIMTSZ
 40
0.0
  9
$DIMTOL
 70
     0
  9
$DIMLIM
 70
     0
  9
$DIMTIH
 70
     1
  9
$DIMTOH
 70
     1
  9
$DIMSE1
 70
     0
  9
$DIMSE2
 70
     0
  9
$DIMTAD
 70
     0
  9
$DIMZIN
 70
     0
  9
$DIMBLK
  1

  9
$DIMASO
 70
     1
  9
$DIMSHO
 70
     1
  9
$DIMPOST
  1

  9
$DIMAPOST
  1

  9
$DIMALT
 70
     0
  9
$DIMALTD
 70
     2
  9
$DIMALTF
 40
25.4
  9
$DIMLFAC
 40
1.0
  9
$DIMTOFL
 70
     0
  9
$DIMTVP
 40
0.0
  9
$DIMTIX
 70
     0
  9
$DIMSOXD
 70
     0
  9
$DIMSAH
 70
     0
  9
$DIMBLK1
  1

  9
$DIMBLK2
  1

  9
$DIMSTYLE
  2
*UNNAMED
  9
$DIMCLRD
 70
     0
  9
$DIMCLRE
 70
     0
  9
$DIMCLRT
 70
     0
  9
$DIMTFAC
 40
1.0
  9
$DIMGAP
 40
0.09
  9
$LUNITS
 70
     2
  9
$LUPREC
 70
     4
  9
$SKETCHINC
 40
0.1
  9
$FILLETRAD
 40
0.0
  9
$AUNITS
 70
     0
  9
$AUPREC
 70
     0
  9
$MENU
  1
acad
  9
$ELEVATION
 40
0.0
  9
$PELEVATION
 40
0.0
  9
$THICKNESS
 40
0.0
  9
$LIMCHECK
 70
     0
  9
$BLIPMODE
 70
     1
  9
$CHAMFERA
 40
0.0
  9
$CHAMFERB
 40
0.0
  9
$SKPOLY
 70
     0
  9
$TDCREATE
 40
2449167.395058565
  9
$TDUPDATE
 40
2449167.435945023
  9
$TDINDWG
 40
0.0072878472
  9
$TDUSRTIMER
 40
0.0072878472
  9
$USRTIMER
 70
     1
  9
$ANGBASE
 50
0.0
  9
$ANGDIR
 70
     0
  9
$PDMODE
 70
     0
  9
$PDSIZE
 40
0.0
  9
$PLINEWID
 40
0.0
  9
$COORDS
 70
     2
  9
$SPLFRAME
 70
     0
  9
$SPLINETYPE
 70
     6
  9
$SPLINESEGS
 70
     8
  9
$ATTDIA
 70
     0
  9
$ATTREQ
 70
     1
  9
$HANDLING
 70
     0
  9
$HANDSEED
  5
0
  9
$SURFTAB1
 70
   250
  9
$SURFTAB2
 70
   250
  9
$SURFTYPE
 70
     6
  9
$SURFU
 70
     6
  9
$SURFV
 70
     6
  9
$UCSNAME
  2

  9
$UCSORG
 10
0.0
 20
0.0
 30
0.0
  9
$UCSXDIR
 10
1.0
 20
0.0
 30
0.0
  9
$UCSYDIR
 10
0.0
 20
1.0
 30
0.0
  9
$PUCSNAME
  2

  9
$PUCSORG
 10
0.0
 20
0.0
 30
0.0
  9
$PUCSXDIR
 10
1.0
 20
0.0
 30
0.0
  9
$PUCSYDIR
 10
0.0
 20
1.0
 30
0.0
  9
$USERI1
 70
     0
  9
$USERI2
 70
     0
  9
$USERI3
 70
     0
  9
$USERI4
 70
     0
  9
$USERI5
 70
     0
  9
$USERR1
 40
0.0
  9
$USERR2
 40
0.0
  9
$USERR3
 40
0.0
  9
$USERR4
 40
0.0
  9
$USERR5
 40
0.0
  9
$WORLDVIEW
 70
     1
  9
$SHADEDGE
 70
     3
  9
$SHADEDIF
 70
    70
  9
$TILEMODE
 70
     1
  9
$MAXACTVP
 70
    16
  9
$PINSBASE
 10
0.0
 20
0.0
 30
0.0
  9
$PLIMCHECK
 70
     0
  9
$PEXTMIN
 10
1.000000E+20
 20
1.000000E+20
 30
1.000000E+20
  9
$PEXTMAX
 10
-1.000000E+20
 20
-1.000000E+20
 30
-1.000000E+20
  9
$PLIMMIN
 10
0.0
 20
0.0
  9
$PLIMMAX
 10
12.0
 20
9.0
  9
$UNITMODE
 70
     0
  9
$VISRETAIN
 70
     0
  9
$PLINEGEN
 70
     0
  9
$PSLTSCALE
 70
     0
  9
$TREEDEPTH
 70
  3020
  9
$DWGCODEPAGE
  3
undefined
  0
ENDSEC
  0
SECTION
  2
TABLES
  0
TABLE
  2
VPORT
 70
     2
  0
VPORT
  2
*ACTIVE
 70
     0
 10
0.0
 20
0.0
 11
1.0
 21
1.0
 12
222.716394
 22
142.164033
 13
0.0
 23
0.0
 14
2.5
 24
2.5
 15
0.0
 25
0.0
 16
0.0
 26
0.0
 36
1.0
 17
0.0
 27
0.0
 37
0.0
 40
284.328065
 41
1.566616
 42
50.0
 43
0.0
 44
0.0
 50
0.0
 51
0.0
 71
     0
 72
   100
 73
     1
 74
     1
 75
     1
 76
     1
 77
     0
 78
     0
  0
ENDTAB
  0
TABLE
  2
LTYPE
 70
     4
  0
LTYPE
  2
CONTINUOUS
 70
    64
  3
Solid line
 72
    65
 73
     0
 40
0.0
  0
LTYPE
  2
DASHED
 70
    64
  3
__ __ __ __ __ __ __ __ __ __ __ __ __ __ __ __
 72
    65
 73
     2
 40
0.75
 49
0.5
 49
-0.25
  0
LTYPE
  2
CENTER
 70
    64
  3
____ _ ____ _ ____ _ ____ _ ____ _ ____ _ ____ 
 72
    65
 73
     4
 40
2.0
 49
1.25
 49
-0.25
 49
0.25
 49
-0.25
  0
LTYPE
  2
HIDDEN
 70
     0
  3
__ __ __ __ __ __ __ __ __ __ __ __ __ __ __ __
 72
    65
 73
     2
 40
0.375
 49
0.25
 49
-0.125
  0
ENDTAB
  0
TABLE
  2
LAYER
 70
    12
  0
LAYER
  2
0
 70
    64
 62
     7
  6
CONTINUOUS
  0
LAYER
  2
RAAMI
 70
    64
 62
    -4
  6
CONTINUOUS
  0
LAYER
  2
PAKSU
 70
    64
 62
    -3
  6
CONTINUOUS
  0
LAYER
  2
OHUT
 70
    64
 62
    -6
  6
CONTINUOUS
  0
LAYER
  2
SWEDEN
 70
    64
 62
    -7
  6
CONTINUOUS
  0
LAYER
  2
SWEDEN2
 70
    64
 62
    -5
  6
CONTINUOUS
  0
LAYER
  2
BASE
 70
    64
 62
    -7
  6
CONTINUOUS
  0
LAYER
  2
21
 70
    64
 62
    -2
  6
CONTINUOUS
  0
LAYER
  2
HEL035
 70
    64
 62
    -7
  6
CONTINUOUS
  0
LAYER
  2
MUO
 70
    64
 62
    -7
  6
CONTINUOUS
  0
LAYER
  2
1
 70
    64
 62
    -2
  6
CONTINUOUS
  0
LAYER
  2
BASE1
 70
    64
 62
    -1
  6
CONTINUOUS
  0
ENDTAB
  0
TABLE
  2
STYLE
 70
     3
  0
STYLE
  2
STANDARD
 70
    64
 40
0.0
 41
1.0
 50
0.0
 71
     0
 42
2.0
  3
txt
  4

  0
STYLE
  2
ROMANS
 70
    64
 40
0.0
 41
1.0
 50
0.0
 71
     0
 42
2.0
  3
romans
  4

  0
STYLE
  2
GREEKS
 70
    64
 40
0.0
 41
1.0
 50
0.0
 71
     0
 42
2.0
  3
TXT
  4

  0
ENDTAB
  0
TABLE
  2
VIEW
 70
     0
  0
ENDTAB
  0
TABLE
  2
UCS
 70
     0
  0
ENDTAB
  0
TABLE
  2
APPID
 70
     1
  0
APPID
  2
ACAD
 70
    64
  0
ENDTAB
  0
TABLE
  2
DIMSTYLE
 70
     0
  0
ENDTAB
  0
ENDSEC
  0
SECTION
  2
BLOCKS
  0
BLOCK
  8
0
  2
1
 70
    64
 10
0.0
 20
0.0
 30
0.0
  3
1
  0
ENDBLK
  8
0
  0
BLOCK
  8
0
  2
BLC27
 70
    64
 10
0.0
 20
0.0
 30
0.0
  3
BLC27
  0
INSERT
  8
SWEDEN2
  6
CENTER
  2
BLC26
 10
0.08063
 20
0.037985
 30
0.0
 41
1.006225
 42
1.006225
 43
1.006225
  0
ENDBLK
  8
0
  0
BLOCK
  8
0
  2
BLC26
 70
    64
 10
0.0
 20
0.0
 30
0.0
  3
BLC26
  0
ARC
  8
0
  6
CONTINUOUS
 10
-0.180576
 20
1.17922
 30
0.0
 40
1.196859
 50
90.0
 51
265.706237
  0
LINE
  8
0
  6
CONTINUOUS
 10
-0.186638
 20
-0.01092
 30
0.0
 11
0.458942
 21
-0.01092
 31
0.0
  0
LINE
  8
0
  6
CONTINUOUS
 10
-0.186638
 20
2.375671
 30
0.0
 11
0.45288
 21
2.375671
 31
0.0
  0
LINE
  8
0
  6
CONTINUOUS
 10
-0.185509
 20
-2.404629
 30
0.0
 11
0.460071
 21
-2.404629
 31
0.0
  0
ARC
  8
0
  6
CONTINUOUS
 10
-0.180576
 20
-1.207779
 30
0.0
 40
1.196859
 50
90.0
 51
270.0
  0
LINE
  8
0
  6
CONTINUOUS
 10
0.451525
 20
-2.404586
 30
0.0
 11
1.401805
 21
-2.404586
 31
0.0
  0
LINE
  8
0
  6
CONTINUOUS
 10
0.446785
 20
2.375674
 30
0.0
 11
1.418544
 21
2.375674
 31
0.0
  0
LINE
  8
0
  6
CONTINUOUS
 10
0.456627
 20
-0.010911
 30
0.0
 11
1.422749
 21
-0.010911
 31
0.0
  0
ENDBLK
  8
0
  0
BLOCK
  8
0
  2
BLC22
 70
     0
 10
0.0
 20
0.0
 30
0.0
  3
BLC22
  0
LINE
  8
HEL035
 10
0.0
 20
-0.00155
 30
0.0
 11
0.0
 21
9.99845
 31
0.0
  0
LINE
  8
21
 10
2.5
 20
10.0
 30
0.0
 11
5.0
 21
10.0
 31
0.0
  0
LINE
  8
HEL035
 10
0.0
 20
9.99845
 30
0.0
 11
2.5
 21
9.99845
 31
0.0
  0
LINE
  8
HEL035
 10
-2.5
 20
5.0
 30
0.0
 11
2.5
 21
5.0
 31
0.0
  0
LINE
  8
21
 10
2.5
 20
5.0
 30
0.0
 11
5.0
 21
5.0
 31
0.0
  0
LINE
  8
21
 10
5.0
 20
5.0
 30
0.0
 11
5.0
 21
7.9
 31
0.0
  0
LINE
  8
HEL035
 10
3.88095
 20
6.944425
 30
0.0
 11
4.560313
 21
6.008681
 31
0.0
  0
LINE
  8
21
 10
10.0
 20
10.0
 30
0.0
 11
4.2
 21
6.5
 31
0.0
  0
LINE
  8
HEL035
 10
2.5
 20
-0.00155
 30
0.0
 11
0.0
 21
-0.00155
 31
0.0
  0
LINE
  8
21
 10
2.5
 20
0.0
 30
0.0
 11
5.0
 21
0.0
 31
0.0
  0
ENDBLK
  8
0
  0
BLOCK
  8
0
  2
BLC29
 70
    64
 10
0.0
 20
0.0
 30
0.0
  3
BLC29
  0
LINE
  8
0
  6
CONTINUOUS
 10
0.004865
 20
1.206889
 30
0.0
 11
2.350631
 21
-0.128465
 31
0.0
  0
LINE
  8
0
  6
CONTINUOUS
 10
2.350631
 20
-0.128465
 30
0.0
 11
0.004865
 21
-1.318384
 31
0.0
  0
ENDBLK
  8
0
  0
BLOCK
  8
0
  2
WKU130
 70
    64
 10
190.0
 20
250.0
 30
0.0
  3
WKU130
  0
ARC
  8
21
 10
191.083333
 20
249.916667
 30
0.0
 40
1.086534
 50
32.471192
 51
175.601295
  0
ARC
  8
21
 10
192.916667
 20
251.083333
 30
0.0
 40
1.086534
 50
212.471192
 51
355.601295
  0
ENDBLK
  8
0
  0
BLOCK
  8
0
  2
BLC38
 70
    64
 10
0.0
 20
0.0
 30
0.0
  3
BLC38
  0
LINE
  8
BASE
  6
CONTINUOUS
 10
5.0
 20
0.429605
 30
0.0
 11
5.0
 21
-2.5
 31
0.0
  0
LINE
  8
BASE
  6
CONTINUOUS
 10
0.0
 20
0.429605
 30
0.0
 11
0.0
 21
-2.5
 31
0.0
  0
LINE
  8
BASE
  6
CONTINUOUS
 10
5.0
 20
15.0
 30
0.0
 11
5.0
 21
9.752154
 31
0.0
  0
LINE
  8
BASE
  6
CONTINUOUS
 10
0.0
 20
15.0
 30
0.0
 11
0.0
 21
9.752154
 31
0.0
  0
INSERT
  8
HEL035
  2
WKU130
 10
2.806261
 20
1.002888
 30
0.0
 41
0.8
 42
0.8
 43
0.8
  0
LINE
  8
HEL035
 10
2.466311
 20
2.72844
 30
0.0
 11
6.466311
 21
2.72844
 31
0.0
  0
LINE
  8
HEL035
 10
-1.290099
 20
7.674464
 30
0.0
 11
2.709901
 21
7.674464
 31
0.0
  0
LINE
  8
MUO
 10
-2.204897
 20
1.386207
 30
0.0
 11
6.158613
 21
9.752154
 31
0.0
  0
LINE
  8
MUO
 10
-1.220605
 20
0.429605
 30
0.0
 11
7.119756
 21
8.767352
 31
0.0
  0
LINE
  8
MUO
 10
-2.204897
 20
0.429605
 30
0.0
 11
-2.204897
 21
9.752154
 31
0.0
  0
LINE
  8
MUO
 10
7.119756
 20
0.429605
 30
0.0
 11
-2.204897
 21
0.429605
 31
0.0
  0
LINE
  8
MUO
 10
7.119756
 20
9.752154
 30
0.0
 11
7.119756
 21
0.429605
 31
0.0
  0
LINE
  8
MUO
 10
-2.204897
 20
9.752154
 30
0.0
 11
7.119756
 21
9.752154
 31
0.0
  0
TEXT
  8
SWEDEN2
  6
CONTINUOUS
 10
-0.633266
 20
15.55315
 30
0.0
 40
2.0
  1
+
  0
TEXT
  8
SWEDEN2
  6
CONTINUOUS
 10
4.297086
 20
15.577719
 30
0.0
 40
2.0
  1
-
  0
ENDBLK
  8
0
  0
BLOCK
  8
0
  2
BLC15
 70
    64
 10
0.0
 20
0.0
 30
0.0
  3
BLC15
  0
LINE
  8
0
  6
CONTINUOUS
 10
0.142084
 20
3.490022
 30
0.0
 11
0.142084
 21
0.844365
 31
0.0
  0
LINE
  8
0
  6
CONTINUOUS
 10
-0.461611
 20
-0.937188
 30
0.0
 11
0.745779
 21
-0.937188
 31
0.0
  0
LINE
  8
0
  6
CONTINUOUS
 10
-0.894108
 20
-0.049675
 30
0.0
 11
1.169267
 21
-0.049675
 31
0.0
  0
LINE
  8
0
  6
CONTINUOUS
 10
-1.389679
 20
0.844365
 30
0.0
 11
1.673848
 21
0.844365
 31
0.0
  0
ENDBLK
  8
0
  0
BLOCK
  8
0
  2
BLC55
 70
     0
 10
0.0
 20
0.0
 30
0.0
  3
BLC55
  0
INSERT
  8
SWEDEN
  6
CENTER
  2
BLC5
 10
0.087066
 20
-0.756831
 30
0.0
 41
0.6
 42
0.6
 43
0.6
  0
ENDBLK
  8
0
  0
BLOCK
  8
0
  2
BLC5
 70
    64
 10
0.0
 20
0.0
 30
0.0
  3
BLC5
  0
TEXT
  8
0
 10
-3.043704
 20
-6.645912
 30
0.0
 40
3.2
  1
PE
  0
LINE
  8
0
 10
-2.946392
 20
1.181176
 30
0.0
 11
2.135458
 21
1.181176
 31
0.0
  0
LINE
  8
0
 10
-0.48656
 20
2.238362
 30
0.0
 11
-0.48656
 21
6.930438
 31
0.0
  0
LINE
  8
0
 10
-1.973271
 20
0.065258
 30
0.0
 11
1.225411
 21
0.065258
 31
0.0
  0
LINE
  8
0
 10
2.685091
 20
2.238362
 30
0.0
 11
1.68494
 21
2.238362
 31
0.0
  0
LINE
  8
0
 10
-3.505035
 20
2.238362
 30
0.0
 11
2.649049
 21
2.238362
 31
0.0
  0
CIRCLE
  8
0
 10
-0.47755
 20
1.422632
 30
0.0
 40
3.804563
  0
ENDBLK
  8
0
  0
BLOCK
  8
0
  2
BLC43
 70
     0
 10
0.0
 20
0.0
 30
0.0
  3
BLC43
  0
TEXT
  8
SWEDEN2
  6
CONTINUOUS
 10
-0.646672
 20
-0.986365
 30
0.0
 40
2.0
  1
+
  0
ENDBLK
  8
0
  0
BLOCK
  8
0
  2
BLC42
 70
     0
 10
0.0
 20
0.0
 30
0.0
  3
BLC42
  0
TEXT
  8
SWEDEN2
  6
CONTINUOUS
 10
-0.655237
 20
-0.99442
 30
0.0
 40
2.0
  1
-
  0
ENDBLK
  8
0
  0
BLOCK
  8
0
  2
BLC44
 70
     0
 10
0.0
 20
0.0
 30
0.0
  3
BLC44
  0
LINE
  8
HEL035
 10
-2.520993
 20
1.697877
 30
0.0
 11
1.479007
 21
1.697877
 31
0.0
  0
INSERT
  8
HEL035
  2
WKU130
 10
-2.181043
 20
-0.027675
 30
0.0
 41
0.8
 42
0.8
 43
0.8
  0
ENDBLK
  8
0
  0
BLOCK
  8
0
  2
BLC46
 70
     0
 10
0.0
 20
0.0
 30
0.0
  3
BLC46
  0
LINE
  8
BASE
  6
CONTINUOUS
 10
0.0
 20
0.0
 30
0.0
 11
5.0
 21
0.0
 31
0.0
  0
LINE
  8
BASE
  6
CONTINUOUS
 10
5.0
 20
-5.0
 30
0.0
 11
0.0
 21
-5.0
 31
0.0
  0
LINE
  8
BASE
  6
CONTINUOUS
 10
5.0
 20
-5.0
 30
0.0
 11
5.0
 21
-2.5
 31
0.0
  0
LINE
  8
BASE
  6
CONTINUOUS
 10
10.0
 20
0.0
 30
0.0
 11
15.0
 21
0.0
 31
0.0
  0
LINE
  8
BASE
  6
CONTINUOUS
 10
10.0
 20
0.0
 30
0.0
 11
4.256076
 21
-3.214703
 31
0.0
  0
ENDBLK
  8
0
  0
BLOCK
  8
0
  2
B155
 70
     0
 10
0.0
 20
0.0
 30
0.0
  3
B155
  0
LINE
  8
0
  6
CONTINUOUS
 10
0.0
 20
0.0
 30
0.0
 11
0.0
 21
-1.35427
 31
0.0
  0
LINE
  8
0
  6
CONTINUOUS
 10
-1.210228
 20
-1.35427
 30
0.0
 11
-0.015887
 21
-1.35427
 31
0.0
  0
LINE
  8
0
  6
CONTINUOUS
 10
-0.015887
 20
-1.35427
 30
0.0
 11
1.178454
 21
-1.35427
 31
0.0
  0
LINE
  8
0
  6
CONTINUOUS
 10
-0.831823
 20
-1.833881
 30
0.0
 11
0.752749
 21
-1.833881
 31
0.0
  0
LINE
  8
0
  6
CONTINUOUS
 10
-0.500718
 20
-2.322055
 30
0.0
 11
0.386169
 21
-2.322055
 31
0.0
  0
ENDBLK
  8
0
  0
BLOCK
  8
0
  2
B97
 70
     0
 10
0.0
 20
0.0
 30
0.0
  3
B97
  0
INSERT
  8
0
  6
DASHED
  2
BLC15
 10
-0.142087
 20
-2.191142
 30
0.0
  0
ENDBLK
  8
0
  0
BLOCK
  8
0
  2
ABBA3V
 70
    64
 10
0.0
 20
0.0
 30
0.0
  3
ABBA3V
  0
TEXT
  8
RAAMI
  6
DASHED
 10
292.217194
 20
11.813359
 30
0.0
 40
3.0
  1
A3
  7
GREEKS
  0
TEXT
  8
RAAMI
  6
DASHED
 10
351.818577
 20
15.69253
 30
0.0
 40
1.4
  1
LEHTI SHEET
  7
GREEKS
  0
LINE
  8
PAKSU
 10
0.237099
 20
262.737999
 30
0.0
 11
392.237099
 21
262.737999
 31
0.0
  0
LINE
  8
RAAMI
 10
18.237099
 20
0.237999
 30
0.0
 11
0.237099
 21
0.237999
 31
0.0
  0
LINE
  8
PAKSU
 10
209.237099
 20
0.237999
 30
0.0
 11
392.237099
 21
0.237999
 31
0.0
  0
LINE
  8
PAKSU
 10
209.237099
 20
0.237999
 30
0.0
 11
209.237099
 21
35.237999
 31
0.0
  0
LINE
  8
PAKSU
 10
392.237099
 20
0.237999
 30
0.0
 11
392.237099
 21
35.237999
 31
0.0
  0
LINE
  8
OHUT
 10
209.237099
 20
18.237999
 30
0.0
 11
392.237099
 21
18.237999
 31
0.0
  0
LINE
  8
OHUT
 10
209.237099
 20
9.737999
 30
0.0
 11
392.237099
 21
9.737999
 31
0.0
  0
LINE
  8
OHUT
 10
209.237099
 20
26.737999
 30
0.0
 11
307.237099
 21
26.737999
 31
0.0
  0
LINE
  8
PAKSU
 10
209.237099
 20
35.237999
 30
0.0
 11
392.237099
 21
35.237999
 31
0.0
  0
TEXT
  8
RAAMI
 10
210.237099
 20
23.971333
 30
0.0
 40
1.4
  1
TARKASTI  CHECKED
  7
ROMANS
  0
TEXT
  8
RAAMI
 10
209.979934
 20
15.704666
 30
0.0
 40
1.4
  1
HYVÄKSYI  APPROVED
  7
ROMANS
  0
LINE
  8
OHUT
 10
307.237099
 20
0.237999
 30
0.0
 11
307.237099
 21
35.237999
 31
0.0
  0
TEXT
  8
RAAMI
 10
259.237099
 20
32.737999
 30
0.0
 40
1.4
  1
LIITTYY  CONCERNING
  7
ROMANS
  0
TEXT
  8
RAAMI
 10
259.237099
 20
23.737999
 30
0.0
 40
1.4
  1
TOLERANSSIT  TOLERANCES
  7
ROMANS
  0
TEXT
  8
RAAMI
 10
259.237099
 20
15.737999
 30
0.0
 40
1.4
  1
SUHDE  SCALE
  7
ROMANS
  0
TEXT
  8
RAAMI
 10
309.237099
 20
32.737999
 30
0.0
 40
1.4
  1
NIMITYS  NAME
  7
ROMANS
  0
TEXT
  8
RAAMI
 10
309.237099
 20
15.737999
 30
0.0
 40
1.4
  1
KOODI  CODE
  7
ROMANS
  0
TEXT
  8
RAAMI
 10
309.237099
 20
7.237999
 30
0.0
 40
1.4
  1
PIIRUSTUS NO  DRAWING NR
  7
ROMANS
  0
LINE
  8
OHUT
 10
349.737099
 20
9.737999
 30
0.0
 11
349.737099
 21
18.237999
 31
0.0
  0
TEXT
  8
RAAMI
 10
371.237099
 20
7.237999
 30
0.0
 40
1.4
  1
PAINOS  REVISION
  7
ROMANS
  0
LINE
  8
OHUT
 10
369.737099
 20
9.737999
 30
0.0
 11
369.737099
 21
0.237999
 31
0.0
  0
LINE
  8
RAAMI
 10
210.187099
 20
1.737999
 30
0.0
 11
211.937099
 21
1.737999
 31
0.0
  0
LINE
  8
RAAMI
 10
215.437099
 20
1.737999
 30
0.0
 11
217.187099
 21
1.737999
 31
0.0
  0
LINE
  8
RAAMI
 10
212.637099
 20
8.737999
 30
0.0
 11
211.459571
 21
5.373634
 31
0.0
  0
LINE
  8
RAAMI
 10
212.425886
 20
3.137999
 30
0.0
 11
213.547099
 21
3.137999
 31
0.0
  0
LINE
  8
RAAMI
 10
212.425889
 20
3.134542
 30
0.0
 11
211.937099
 21
1.737999
 31
0.0
  0
LINE
  8
RAAMI
 10
214.737099
 20
8.737999
 30
0.0
 11
215.913452
 21
5.376991
 31
0.0
  0
LINE
  8
RAAMI
 10
214.948197
 20
3.134863
 30
0.0
 11
215.437099
 21
1.737999
 31
0.0
  0
LINE
  8
RAAMI
 10
214.737099
 20
8.737999
 30
0.0
 11
213.827099
 21
8.737999
 31
0.0
  0
LINE
  8
RAAMI
 10
213.547099
 20
8.737999
 30
0.0
 11
213.547099
 21
5.377999
 31
0.0
  0
LINE
  8
RAAMI
 10
213.827099
 20
8.737999
 30
0.0
 11
213.827099
 21
5.377999
 31
0.0
  0
LINE
  8
RAAMI
 10
213.827099
 20
3.137999
 30
0.0
 11
214.946992
 21
3.137999
 31
0.0
  0
LINE
  8
RAAMI
 10
213.547099
 20
8.737999
 30
0.0
 11
212.637099
 21
8.737999
 31
0.0
  0
LINE
  8
RAAMI
 10
211.45904
 20
5.377999
 30
0.0
 11
213.547099
 21
5.377999
 31
0.0
  0
LINE
  8
RAAMI
 10
211.360082
 20
5.097999
 30
0.0
 11
213.547099
 21
5.097999
 31
0.0
  0
LINE
  8
RAAMI
 10
216.011591
 20
5.096594
 30
0.0
 11
217.187099
 21
1.737999
 31
0.0
  0
LINE
  8
RAAMI
 10
213.827099
 20
5.377999
 30
0.0
 11
215.912213
 21
5.377999
 31
0.0
  0
LINE
  8
RAAMI
 10
213.827099
 20
5.097999
 30
0.0
 11
216.010356
 21
5.097999
 31
0.0
  0
LINE
  8
RAAMI
 10
213.827099
 20
5.097999
 30
0.0
 11
213.827099
 21
3.137999
 31
0.0
  0
LINE
  8
RAAMI
 10
213.547099
 20
5.097999
 30
0.0
 11
213.547099
 21
3.137999
 31
0.0
  0
LINE
  8
RAAMI
 10
211.356988
 20
5.080538
 30
0.0
 11
210.187099
 21
1.737999
 31
0.0
  0
INSERT
  8
RAAMI
  2
*X17
 10
210.187099
 20
1.737999
 30
0.0
 41
0.7
 42
0.7
 43
0.7
  0
INSERT
  8
RAAMI
  2
*X18
 10
210.187099
 20
1.737999
 30
0.0
 41
0.7
 42
0.7
 43
0.7
  0
INSERT
  8
RAAMI
  2
*X19
 10
210.187099
 20
1.737999
 30
0.0
 41
0.7
 42
0.7
 43
0.7
  0
INSERT
  8
RAAMI
  2
*X20
 10
210.187099
 20
1.737999
 30
0.0
 41
0.7
 42
0.7
 43
0.7
  0
LINE
  8
RAAMI
 10
217.677099
 20
1.737999
 30
0.0
 11
217.677099
 21
5.097999
 31
0.0
  0
LINE
  8
RAAMI
 10
217.677099
 20
8.737999
 30
0.0
 11
219.637099
 21
8.737999
 31
0.0
  0
LINE
  8
RAAMI
 10
219.637099
 20
8.737999
 30
0.0
 11
219.637099
 21
5.377999
 31
0.0
  0
LINE
  8
RAAMI
 10
219.637099
 20
5.377999
 30
0.0
 11
217.677099
 21
5.377999
 31
0.0
  0
LINE
  8
RAAMI
 10
217.677099
 20
5.097999
 30
0.0
 11
219.637099
 21
5.097999
 31
0.0
  0
LINE
  8
RAAMI
 10
219.637099
 20
5.097999
 30
0.0
 11
219.637099
 21
1.737999
 31
0.0
  0
LINE
  8
RAAMI
 10
219.637099
 20
1.737999
 30
0.0
 11
217.677099
 21
1.737999
 31
0.0
  0
LINE
  8
RAAMI
 10
217.677099
 20
5.377999
 30
0.0
 11
217.677099
 21
8.737999
 31
0.0
  0
ARC
  8
RAAMI
 10
220.477099
 20
7.162999
 30
0.0
 40
1.575
 50
298.455859
 51
90.052437
  0
LINE
  8
RAAMI
 10
219.917099
 20
8.737999
 30
0.0
 11
220.475658
 21
8.737999
 31
0.0
  0
LINE
  8
RAAMI
 10
219.917099
 20
8.737999
 30
0.0
 11
219.917099
 21
5.377999
 31
0.0
  0
LINE
  8
RAAMI
 10
219.917099
 20
5.377999
 30
0.0
 11
221.901542
 21
5.377999
 31
0.0
  0
LINE
  8
RAAMI
 10
222.157099
 20
5.097999
 30
0.0
 11
219.917099
 21
5.097999
 31
0.0
  0
LINE
  8
RAAMI
 10
219.917099
 20
5.097999
 30
0.0
 11
219.917099
 21
1.737999
 31
0.0
  0
ARC
  8
RAAMI
 10
220.477099
 20
3.837999
 30
0.0
 40
2.1
 50
269.937724
 51
37.056553
  0
LINE
  8
RAAMI
 10
219.917099
 20
1.737999
 30
0.0
 11
220.474817
 21
1.738
 31
0.0
  0
ARC
  8
RAAMI
 10
220.477099
 20
3.837999
 30
0.0
 40
2.1
 50
47.28622
 51
68.787999
  0
INSERT
  8
RAAMI
  2
*X21
 10
210.187099
 20
1.737999
 30
0.0
 41
0.7
 42
0.7
 43
0.7
  0
INSERT
  8
RAAMI
  2
*X22
 10
210.187099
 20
1.737999
 30
0.0
 41
0.7
 42
0.7
 43
0.7
  0
INSERT
  8
RAAMI
  2
*X23
 10
210.187099
 20
1.737999
 30
0.0
 41
0.7
 42
0.7
 43
0.7
  0
INSERT
  8
RAAMI
  2
*X24
 10
210.187099
 20
1.737999
 30
0.0
 41
0.7
 42
0.7
 43
0.7
  0
INSERT
  8
RAAMI
  2
*X24
 10
215.647099
 20
1.737999
 30
0.0
 41
0.7
 42
0.7
 43
0.7
  0
INSERT
  8
RAAMI
  2
*X23
 10
215.647099
 20
1.737999
 30
0.0
 41
0.7
 42
0.7
 43
0.7
  0
INSERT
  8
RAAMI
  2
*X22
 10
215.647099
 20
1.737999
 30
0.0
 41
0.7
 42
0.7
 43
0.7
  0
INSERT
  8
RAAMI
  2
*X21
 10
215.647099
 20
1.737999
 30
0.0
 41
0.7
 42
0.7
 43
0.7
  0
ARC
  8
RAAMI
 10
225.937099
 20
3.837999
 30
0.0
 40
2.1
 50
47.28622
 51
68.787999
  0
LINE
  8
RAAMI
 10
225.377099
 20
1.737999
 30
0.0
 11
225.934817
 21
1.738
 31
0.0
  0
ARC
  8
RAAMI
 10
225.937099
 20
3.837999
 30
0.0
 40
2.1
 50
269.937724
 51
37.056553
  0
LINE
  8
RAAMI
 10
225.377099
 20
5.097999
 30
0.0
 11
225.377099
 21
1.737999
 31
0.0
  0
LINE
  8
RAAMI
 10
227.617099
 20
5.097999
 30
0.0
 11
225.377099
 21
5.097999
 31
0.0
  0
LINE
  8
RAAMI
 10
225.377099
 20
5.377999
 30
0.0
 11
227.361542
 21
5.377999
 31
0.0
  0
LINE
  8
RAAMI
 10
225.377099
 20
8.737999
 30
0.0
 11
225.377099
 21
5.377999
 31
0.0
  0
LINE
  8
RAAMI
 10
225.377099
 20
8.737999
 30
0.0
 11
225.935658
 21
8.737999
 31
0.0
  0
ARC
  8
RAAMI
 10
225.937099
 20
7.162999
 30
0.0
 40
1.575
 50
298.455859
 51
90.052437
  0
LINE
  8
RAAMI
 10
223.137099
 20
5.377999
 30
0.0
 11
223.137099
 21
8.737999
 31
0.0
  0
LINE
  8
RAAMI
 10
225.097099
 20
1.737999
 30
0.0
 11
223.137099
 21
1.737999
 31
0.0
  0
LINE
  8
RAAMI
 10
225.097099
 20
5.097999
 30
0.0
 11
225.097099
 21
1.737999
 31
0.0
  0
LINE
  8
RAAMI
 10
223.137099
 20
5.097999
 30
0.0
 11
225.097099
 21
5.097999
 31
0.0
  0
LINE
  8
RAAMI
 10
225.097099
 20
5.377999
 30
0.0
 11
223.137099
 21
5.377999
 31
0.0
  0
LINE
  8
RAAMI
 10
225.097099
 20
8.737999
 30
0.0
 11
225.097099
 21
5.377999
 31
0.0
  0
LINE
  8
RAAMI
 10
223.137099
 20
8.737999
 30
0.0
 11
225.097099
 21
8.737999
 31
0.0
  0
LINE
  8
RAAMI
 10
223.137099
 20
1.737999
 30
0.0
 11
223.137099
 21
5.097999
 31
0.0
  0
TEXT
  8
RAAMI
 10
229.737099
 20
1.737999
 30
0.0
 40
3.0
  1
ABB 
 41
0.8
  7
ROMANS
  0
TEXT
  8
RAAMI
 10
237.737099
 20
1.737999
 30
0.0
 40
3.0
  1
Strömberg
 41
0.8
  7
ROMANS
  0
LINE
  8
OHUT
 10
282.237099
 20
9.737999
 30
0.0
 11
282.237099
 21
18.237999
 31
0.0
  0
TEXT
  8
RAAMI
 10
27.737099
 20
4.737999
 30
0.0
 40
1.4
  1
MUUTOS
  7
ROMANS
  0
TEXT
  8
RAAMI
 10
27.737099
 20
2.471333
 30
0.0
 40
1.4
  1
REVISION
  7
ROMANS
  0
LINE
  8
OHUT
 10
46.737099
 20
9.237999
 30
0.0
 11
209.237099
 21
9.237999
 31
0.0
  0
LINE
  8
OHUT
 10
46.737099
 20
0.237999
 30
0.0
 11
46.737099
 21
9.237999
 31
0.0
  0
LINE
  8
OHUT
 10
40.737099
 20
4.737999
 30
0.0
 11
209.237099
 21
4.737999
 31
0.0
  0
LINE
  8
OHUT
 10
257.237099
 20
9.737999
 30
0.0
 11
257.237099
 21
35.237999
 31
0.0
  0
LINE
  8
OHUT
 10
271.237099
 20
9.737999
 30
0.0
 11
271.237099
 21
0.237999
 31
0.0
  0
TEXT
  8
RAAMI
 10
210.237099
 20
32.237999
 30
0.0
 40
1.4
  1
TEKI  PREPARED
  7
ROMANS
  0
TEXT
  8
RAAMI
 10
273.237099
 20
7.237999
 30
0.0
 40
1.4
  1
VAST.OSASTO RESP.DEPT.
  7
ROMANS
  0
TEXT
  8
RAAMI
 10
257.407006
 20
1.741783
 30
0.0
 40
3.0
  1
Power
 41
0.8
  7
ROMANS
  0
TEXT
  8
RAAMI
 10
42.237099
 20
1.195292
 30
0.0
 40
2.5
  1
B
  7
ROMANS
  0
TEXT
  8
RAAMI
 10
42.237099
 20
5.587508
 30
0.0
 40
2.5
  1
C
  7
ROMANS
  0
LINE
  8
PAKSU
 10
0.237099
 20
0.237999
 30
0.0
 11
392.237099
 21
0.237999
 31
0.0
  0
LINE
  8
PAKSU
 10
392.237099
 20
262.737999
 30
0.0
 11
392.237099
 21
0.237999
 31
0.0
  0
LINE
  8
PAKSU
 10
0.237099
 20
0.237999
 30
0.0
 11
0.237099
 21
262.737999
 31
0.0
  0
ENDBLK
  8
0
  0
BLOCK
  8
0
  2
*X17
 70
    65
 10
0.0
 20
0.0
 30
0.0
  3
*X
  0
LINE
  8
0
 62
     0
 10
2.284499
 20
6.52714
 30
0.0
 11
4.8
 21
9.042641
 31
0.0
  0
LINE
  8
0
 62
     0
 10
2.379686
 20
6.799104
 30
0.0
 11
4.8
 21
9.219417
 31
0.0
  0
LINE
  8
0
 62
     0
 10
2.474874
 20
7.071068
 30
0.0
 11
4.8
 21
9.396194
 31
0.0
  0
LINE
  8
0
 62
     0
 10
2.570061
 20
7.343032
 30
0.0
 11
4.8
 21
9.572971
 31
0.0
  0
LINE
  8
0
 62
     0
 10
2.665249
 20
7.614996
 30
0.0
 11
4.8
 21
9.749747
 31
0.0
  0
LINE
  8
0
 62
     0
 10
2.760436
 20
7.88696
 30
0.0
 11
4.8
 21
9.926524
 31
0.0
  0
LINE
  8
0
 62
     0
 10
2.855624
 20
8.158924
 30
0.0
 11
4.696699
 21
10.0
 31
0.0
  0
LINE
  8
0
 62
     0
 10
2.950811
 20
8.430889
 30
0.0
 11
4.519922
 21
10.0
 31
0.0
  0
LINE
  8
0
 62
     0
 10
3.045998
 20
8.702853
 30
0.0
 11
4.343146
 21
10.0
 31
0.0
  0
LINE
  8
0
 62
     0
 10
3.141186
 20
8.974817
 30
0.0
 11
4.166369
 21
10.0
 31
0.0
  0
LINE
  8
0
 62
     0
 10
3.236373
 20
9.246781
 30
0.0
 11
3.989592
 21
10.0
 31
0.0
  0
LINE
  8
0
 62
     0
 10
3.331561
 20
9.518745
 30
0.0
 11
3.812816
 21
10.0
 31
0.0
  0
LINE
  8
0
 62
     0
 10
3.426748
 20
9.790709
 30
0.0
 11
3.636039
 21
10.0
 31
0.0
  0
LINE
  8
0
 62
     0
 10
2.189311
 20
6.255175
 30
0.0
 11
4.8
 21
8.865864
 31
0.0
  0
LINE
  8
0
 62
     0
 10
2.094124
 20
5.983211
 30
0.0
 11
4.8
 21
8.689087
 31
0.0
  0
LINE
  8
0
 62
     0
 10
1.998936
 20
5.711247
 30
0.0
 11
4.8
 21
8.512311
 31
0.0
  0
LINE
  8
0
 62
     0
 10
1.903749
 20
5.439283
 30
0.0
 11
4.8
 21
8.335534
 31
0.0
  0
LINE
  8
0
 62
     0
 10
1.841243
 20
5.2
 30
0.0
 11
4.8
 21
8.158757
 31
0.0
  0
LINE
  8
0
 62
     0
 10
2.018019
 20
5.2
 30
0.0
 11
4.8
 21
7.981981
 31
0.0
  0
LINE
  8
0
 62
     0
 10
2.194796
 20
5.2
 30
0.0
 11
4.8
 21
7.805204
 31
0.0
  0
LINE
  8
0
 62
     0
 10
2.371573
 20
5.2
 30
0.0
 11
4.8
 21
7.628427
 31
0.0
  0
LINE
  8
0
 62
     0
 10
2.54835
 20
5.2
 30
0.0
 11
4.8
 21
7.45165
 31
0.0
  0
LINE
  8
0
 62
     0
 10
2.725126
 20
5.2
 30
0.0
 11
4.8
 21
7.274874
 31
0.0
  0
LINE
  8
0
 62
     0
 10
2.901903
 20
5.2
 30
0.0
 11
4.8
 21
7.098097
 31
0.0
  0
LINE
  8
0
 62
     0
 10
3.07868
 20
5.2
 30
0.0
 11
4.8
 21
6.92132
 31
0.0
  0
LINE
  8
0
 62
     0
 10
3.255456
 20
5.2
 30
0.0
 11
4.8
 21
6.744544
 31
0.0
  0
LINE
  8
0
 62
     0
 10
3.432233
 20
5.2
 30
0.0
 11
4.8
 21
6.567767
 31
0.0
  0
LINE
  8
0
 62
     0
 10
3.60901
 20
5.2
 30
0.0
 11
4.8
 21
6.39099
 31
0.0
  0
LINE
  8
0
 62
     0
 10
3.785786
 20
5.2
 30
0.0
 11
4.8
 21
6.214214
 31
0.0
  0
LINE
  8
0
 62
     0
 10
3.962563
 20
5.2
 30
0.0
 11
4.8
 21
6.037437
 31
0.0
  0
LINE
  8
0
 62
     0
 10
4.13934
 20
5.2
 30
0.0
 11
4.8
 21
5.86066
 31
0.0
  0
LINE
  8
0
 62
     0
 10
4.316117
 20
5.2
 30
0.0
 11
4.8
 21
5.683883
 31
0.0
  0
LINE
  8
0
 62
     0
 10
4.492893
 20
5.2
 30
0.0
 11
4.8
 21
5.507107
 31
0.0
  0
LINE
  8
0
 62
     0
 10
4.66967
 20
5.2
 30
0.0
 11
4.8
 21
5.33033
 31
0.0
  0
ENDBLK
  8
0
  0
BLOCK
  8
0
  2
*X18
 70
    65
 10
0.0
 20
0.0
 30
0.0
  3
*X
  0
LINE
  8
0
 62
     0
 10
5.2
 20
6.083883
 30
0.0
 11
7.178252
 21
8.062136
 31
0.0
  0
LINE
  8
0
 62
     0
 10
5.2
 20
6.26066
 30
0.0
 11
7.132421
 21
8.193082
 31
0.0
  0
LINE
  8
0
 62
     0
 10
5.2
 20
6.437437
 30
0.0
 11
7.08659
 21
8.324027
 31
0.0
  0
LINE
  8
0
 62
     0
 10
5.2
 20
6.614214
 30
0.0
 11
7.040759
 21
8.454973
 31
0.0
  0
LINE
  8
0
 62
     0
 10
5.2
 20
6.79099
 30
0.0
 11
6.994928
 21
8.585919
 31
0.0
  0
LINE
  8
0
 62
     0
 10
5.2
 20
6.967767
 30
0.0
 11
6.949097
 21
8.716864
 31
0.0
  0
LINE
  8
0
 62
     0
 10
5.2
 20
7.144544
 30
0.0
 11
6.903266
 21
8.84781
 31
0.0
  0
LINE
  8
0
 62
     0
 10
5.2
 20
7.32132
 30
0.0
 11
6.857435
 21
8.978756
 31
0.0
  0
LINE
  8
0
 62
     0
 10
5.2
 20
7.498097
 30
0.0
 11
6.811604
 21
9.109702
 31
0.0
  0
LINE
  8
0
 62
     0
 10
5.2
 20
7.674874
 30
0.0
 11
6.765773
 21
9.240647
 31
0.0
  0
LINE
  8
0
 62
     0
 10
5.2
 20
7.85165
 30
0.0
 11
6.719942
 21
9.371593
 31
0.0
  0
LINE
  8
0
 62
     0
 10
5.2
 20
8.028427
 30
0.0
 11
6.674111
 21
9.502539
 31
0.0
  0
LINE
  8
0
 62
     0
 10
5.2
 20
8.205204
 30
0.0
 11
6.62828
 21
9.633484
 31
0.0
  0
LINE
  8
0
 62
     0
 10
5.2
 20
8.381981
 30
0.0
 11
6.582449
 21
9.76443
 31
0.0
  0
LINE
  8
0
 62
     0
 10
5.2
 20
8.558757
 30
0.0
 11
6.536619
 21
9.895376
 31
0.0
  0
LINE
  8
0
 62
     0
 10
5.2
 20
8.735534
 30
0.0
 11
6.464466
 21
10.0
 31
0.0
  0
LINE
  8
0
 62
     0
 10
5.2
 20
8.912311
 30
0.0
 11
6.287689
 21
10.0
 31
0.0
  0
LINE
  8
0
 62
     0
 10
5.2
 20
9.089087
 30
0.0
 11
6.110913
 21
10.0
 31
0.0
  0
LINE
  8
0
 62
     0
 10
5.2
 20
9.265864
 30
0.0
 11
5.934136
 21
10.0
 31
0.0
  0
LINE
  8
0
 62
     0
 10
5.2
 20
9.442641
 30
0.0
 11
5.757359
 21
10.0
 31
0.0
  0
LINE
  8
0
 62
     0
 10
5.2
 20
9.619417
 30
0.0
 11
5.580583
 21
10.0
 31
0.0
  0
LINE
  8
0
 62
     0
 10
5.2
 20
9.796194
 30
0.0
 11
5.403806
 21
10.0
 31
0.0
  0
LINE
  8
0
 62
     0
 10
5.2
 20
9.972971
 30
0.0
 11
5.227029
 21
10.0
 31
0.0
  0
LINE
  8
0
 62
     0
 10
5.2
 20
5.907107
 30
0.0
 11
7.224083
 21
7.93119
 31
0.0
  0
LINE
  8
0
 62
     0
 10
5.2
 20
5.73033
 30
0.0
 11
7.269914
 21
7.800245
 31
0.0
  0
LINE
  8
0
 62
     0
 10
5.2
 20
5.553553
 30
0.0
 11
7.315745
 21
7.669299
 31
0.0
  0
LINE
  8
0
 62
     0
 10
5.2
 20
5.376777
 30
0.0
 11
7.361576
 21
7.538353
 31
0.0
  0
LINE
  8
0
 62
     0
 10
5.2
 20
5.2
 30
0.0
 11
7.407407
 21
7.407407
 31
0.0
  0
LINE
  8
0
 62
     0
 10
5.376777
 20
5.2
 30
0.0
 11
7.453238
 21
7.276462
 31
0.0
  0
LINE
  8
0
 62
     0
 10
5.553553
 20
5.2
 30
0.0
 11
7.499069
 21
7.145516
 31
0.0
  0
LINE
  8
0
 62
     0
 10
5.73033
 20
5.2
 30
0.0
 11
7.5449
 21
7.01457
 31
0.0
  0
LINE
  8
0
 62
     0
 10
5.907107
 20
5.2
 30
0.0
 11
7.590731
 21
6.883625
 31
0.0
  0
LINE
  8
0
 62
     0
 10
6.083883
 20
5.2
 30
0.0
 11
7.636562
 21
6.752679
 31
0.0
  0
LINE
  8
0
 62
     0
 10
6.26066
 20
5.2
 30
0.0
 11
7.682393
 21
6.621733
 31
0.0
  0
LINE
  8
0
 62
     0
 10
6.437437
 20
5.2
 30
0.0
 11
7.728224
 21
6.490788
 31
0.0
  0
LINE
  8
0
 62
     0
 10
6.614214
 20
5.2
 30
0.0
 11
7.774055
 21
6.359842
 31
0.0
  0
LINE
  8
0
 62
     0
 10
6.79099
 20
5.2
 30
0.0
 11
7.819886
 21
6.228896
 31
0.0
  0
LINE
  8
0
 62
     0
 10
6.967767
 20
5.2
 30
0.0
 11
7.865717
 21
6.09795
 31
0.0
  0
LINE
  8
0
 62
     0
 10
7.144544
 20
5.2
 30
0.0
 11
7.911548
 21
5.967005
 31
0.0
  0
LINE
  8
0
 62
     0
 10
7.32132
 20
5.2
 30
0.0
 11
7.957379
 21
5.836059
 31
0.0
  0
LINE
  8
0
 62
     0
 10
7.498097
 20
5.2
 30
0.0
 11
8.00321
 21
5.705113
 31
0.0
  0
LINE
  8
0
 62
     0
 10
7.674874
 20
5.2
 30
0.0
 11
8.049041
 21
5.574168
 31
0.0
  0
LINE
  8
0
 62
     0
 10
7.85165
 20
5.2
 30
0.0
 11
8.094872
 21
5.443222
 31
0.0
  0
LINE
  8
0
 62
     0
 10
8.028427
 20
5.2
 30
0.0
 11
8.140703
 21
5.312276
 31
0.0
  0
ENDBLK
  8
0
  0
BLOCK
  8
0
  2
*X19
 70
    65
 10
0.0
 20
0.0
 30
0.0
  3
*X
  0
LINE
  8
0
 62
     0
 10
0.0
 20
0.0
 30
0.0
 11
4.8
 21
4.8
 31
0.0
  0
LINE
  8
0
 62
     0
 10
0.095187
 20
0.271964
 30
0.0
 11
4.623223
 21
4.8
 31
0.0
  0
LINE
  8
0
 62
     0
 10
0.190375
 20
0.543928
 30
0.0
 11
4.446447
 21
4.8
 31
0.0
  0
LINE
  8
0
 62
     0
 10
0.285562
 20
0.815892
 30
0.0
 11
4.26967
 21
4.8
 31
0.0
  0
LINE
  8
0
 62
     0
 10
0.38075
 20
1.087857
 30
0.0
 11
4.092893
 21
4.8
 31
0.0
  0
LINE
  8
0
 62
     0
 10
0.475937
 20
1.359821
 30
0.0
 11
3.916117
 21
4.8
 31
0.0
  0
LINE
  8
0
 62
     0
 10
0.571125
 20
1.631785
 30
0.0
 11
3.73934
 21
4.8
 31
0.0
  0
LINE
  8
0
 62
     0
 10
0.666312
 20
1.903749
 30
0.0
 11
3.562563
 21
4.8
 31
0.0
  0
LINE
  8
0
 62
     0
 10
0.7615
 20
2.175713
 30
0.0
 11
3.385786
 21
4.8
 31
0.0
  0
LINE
  8
0
 62
     0
 10
0.856687
 20
2.447677
 30
0.0
 11
3.20901
 21
4.8
 31
0.0
  0
LINE
  8
0
 62
     0
 10
0.951875
 20
2.719641
 30
0.0
 11
3.032233
 21
4.8
 31
0.0
  0
LINE
  8
0
 62
     0
 10
1.047062
 20
2.991606
 30
0.0
 11
2.855456
 21
4.8
 31
0.0
  0
LINE
  8
0
 62
     0
 10
1.142249
 20
3.26357
 30
0.0
 11
2.67868
 21
4.8
 31
0.0
  0
LINE
  8
0
 62
     0
 10
1.237437
 20
3.535534
 30
0.0
 11
2.501903
 21
4.8
 31
0.0
  0
LINE
  8
0
 62
     0
 10
1.332624
 20
3.807498
 30
0.0
 11
2.325126
 21
4.8
 31
0.0
  0
LINE
  8
0
 62
     0
 10
1.427812
 20
4.079462
 30
0.0
 11
2.14835
 21
4.8
 31
0.0
  0
LINE
  8
0
 62
     0
 10
1.522999
 20
4.351426
 30
0.0
 11
1.971573
 21
4.8
 31
0.0
  0
LINE
  8
0
 62
     0
 10
1.618187
 20
4.62339
 30
0.0
 11
1.794796
 21
4.8
 31
0.0
  0
LINE
  8
0
 62
     0
 10
0.176777
 20
0.0
 30
0.0
 11
4.8
 21
4.623223
 31
0.0
  0
LINE
  8
0
 62
     0
 10
0.353553
 20
0.0
 30
0.0
 11
4.8
 21
4.446447
 31
0.0
  0
LINE
  8
0
 62
     0
 10
0.53033
 20
0.0
 30
0.0
 11
4.8
 21
4.26967
 31
0.0
  0
LINE
  8
0
 62
     0
 10
0.707107
 20
0.0
 30
0.0
 11
4.8
 21
4.092893
 31
0.0
  0
LINE
  8
0
 62
     0
 10
0.883883
 20
0.0
 30
0.0
 11
4.8
 21
3.916117
 31
0.0
  0
LINE
  8
0
 62
     0
 10
1.06066
 20
0.0
 30
0.0
 11
4.8
 21
3.73934
 31
0.0
  0
LINE
  8
0
 62
     0
 10
1.237437
 20
0.0
 30
0.0
 11
3.179842
 21
1.942405
 31
0.0
  0
LINE
  8
0
 62
     0
 10
3.237437
 20
2.0
 30
0.0
 11
4.8
 21
3.562563
 31
0.0
  0
LINE
  8
0
 62
     0
 10
1.414214
 20
0.0
 30
0.0
 11
3.084654
 21
1.670441
 31
0.0
  0
LINE
  8
0
 62
     0
 10
3.414214
 20
2.0
 30
0.0
 11
4.8
 21
3.385786
 31
0.0
  0
LINE
  8
0
 62
     0
 10
1.59099
 20
0.0
 30
0.0
 11
2.989467
 21
1.398477
 31
0.0
  0
LINE
  8
0
 62
     0
 10
3.59099
 20
2.0
 30
0.0
 11
4.8
 21
3.20901
 31
0.0
  0
LINE
  8
0
 62
     0
 10
1.767767
 20
0.0
 30
0.0
 11
2.894279
 21
1.126512
 31
0.0
  0
LINE
  8
0
 62
     0
 10
3.767767
 20
2.0
 30
0.0
 11
4.8
 21
3.032233
 31
0.0
  0
LINE
  8
0
 62
     0
 10
1.944544
 20
0.0
 30
0.0
 11
2.799092
 21
0.854548
 31
0.0
  0
LINE
  8
0
 62
     0
 10
3.944544
 20
2.0
 30
0.0
 11
4.8
 21
2.855456
 31
0.0
  0
LINE
  8
0
 62
     0
 10
2.12132
 20
0.0
 30
0.0
 11
2.703904
 21
0.582584
 31
0.0
  0
LINE
  8
0
 62
     0
 10
4.12132
 20
2.0
 30
0.0
 11
4.8
 21
2.67868
 31
0.0
  0
LINE
  8
0
 62
     0
 10
2.298097
 20
0.0
 30
0.0
 11
2.608717
 21
0.31062
 31
0.0
  0
LINE
  8
0
 62
     0
 10
4.298097
 20
2.0
 30
0.0
 11
4.8
 21
2.501903
 31
0.0
  0
LINE
  8
0
 62
     0
 10
2.474874
 20
0.0
 30
0.0
 11
2.51353
 21
0.038656
 31
0.0
  0
LINE
  8
0
 62
     0
 10
4.474874
 20
2.0
 30
0.0
 11
4.8
 21
2.325126
 31
0.0
  0
LINE
  8
0
 62
     0
 10
4.65165
 20
2.0
 30
0.0
 11
4.8
 21
2.14835
 31
0.0
  0
ENDBLK
  8
0
  0
BLOCK
  8
0
  2
*X20
 70
    65
 10
0.0
 20
0.0
 30
0.0
  3
*X
  0
LINE
  8
0
 62
     0
 10
6.884654
 20
1.75813
 30
0.0
 11
8.736506
 21
3.609982
 31
0.0
  0
LINE
  8
0
 62
     0
 10
6.838823
 20
1.889076
 30
0.0
 11
8.690675
 21
3.740928
 31
0.0
  0
LINE
  8
0
 62
     0
 10
6.772971
 20
2.0
 30
0.0
 11
8.644844
 21
3.871874
 31
0.0
  0
LINE
  8
0
 62
     0
 10
6.596194
 20
2.0
 30
0.0
 11
8.599013
 21
4.002819
 31
0.0
  0
LINE
  8
0
 62
     0
 10
6.419417
 20
2.0
 30
0.0
 11
8.553182
 21
4.133765
 31
0.0
  0
LINE
  8
0
 62
     0
 10
6.242641
 20
2.0
 30
0.0
 11
8.507351
 21
4.264711
 31
0.0
  0
LINE
  8
0
 62
     0
 10
6.065864
 20
2.0
 30
0.0
 11
8.46152
 21
4.395656
 31
0.0
  0
LINE
  8
0
 62
     0
 10
5.889087
 20
2.0
 30
0.0
 11
8.415689
 21
4.526602
 31
0.0
  0
LINE
  8
0
 62
     0
 10
5.712311
 20
2.0
 30
0.0
 11
8.369858
 21
4.657548
 31
0.0
  0
LINE
  8
0
 62
     0
 10
5.535534
 20
2.0
 30
0.0
 11
8.324027
 21
4.788493
 31
0.0
  0
LINE
  8
0
 62
     0
 10
5.358757
 20
2.0
 30
0.0
 11
8.158757
 21
4.8
 31
0.0
  0
LINE
  8
0
 62
     0
 10
5.2
 20
2.018019
 30
0.0
 11
7.981981
 21
4.8
 31
0.0
  0
LINE
  8
0
 62
     0
 10
5.2
 20
2.194796
 30
0.0
 11
7.805204
 21
4.8
 31
0.0
  0
LINE
  8
0
 62
     0
 10
5.2
 20
2.371573
 30
0.0
 11
7.628427
 21
4.8
 31
0.0
  0
LINE
  8
0
 62
     0
 10
5.2
 20
2.54835
 30
0.0
 11
7.45165
 21
4.8
 31
0.0
  0
LINE
  8
0
 62
     0
 10
5.2
 20
2.725126
 30
0.0
 11
7.274874
 21
4.8
 31
0.0
  0
LINE
  8
0
 62
     0
 10
5.2
 20
2.901903
 30
0.0
 11
7.098097
 21
4.8
 31
0.0
  0
LINE
  8
0
 62
     0
 10
5.2
 20
3.07868
 30
0.0
 11
6.92132
 21
4.8
 31
0.0
  0
LINE
  8
0
 62
     0
 10
5.2
 20
3.255456
 30
0.0
 11
6.744544
 21
4.8
 31
0.0
  0
LINE
  8
0
 62
     0
 10
5.2
 20
3.432233
 30
0.0
 11
6.567767
 21
4.8
 31
0.0
  0
LINE
  8
0
 62
     0
 10
5.2
 20
3.60901
 30
0.0
 11
6.39099
 21
4.8
 31
0.0
  0
LINE
  8
0
 62
     0
 10
5.2
 20
3.785786
 30
0.0
 11
6.214214
 21
4.8
 31
0.0
  0
LINE
  8
0
 62
     0
 10
5.2
 20
3.962563
 30
0.0
 11
6.037437
 21
4.8
 31
0.0
  0
LINE
  8
0
 62
     0
 10
5.2
 20
4.13934
 30
0.0
 11
5.86066
 21
4.8
 31
0.0
  0
LINE
  8
0
 62
     0
 10
5.2
 20
4.316117
 30
0.0
 11
5.683883
 21
4.8
 31
0.0
  0
LINE
  8
0
 62
     0
 10
5.2
 20
4.492893
 30
0.0
 11
5.507107
 21
4.8
 31
0.0
  0
LINE
  8
0
 62
     0
 10
5.2
 20
4.66967
 30
0.0
 11
5.33033
 21
4.8
 31
0.0
  0
LINE
  8
0
 62
     0
 10
6.930485
 20
1.627185
 30
0.0
 11
8.782337
 21
3.479036
 31
0.0
  0
LINE
  8
0
 62
     0
 10
6.976316
 20
1.496239
 30
0.0
 11
8.828168
 21
3.348091
 31
0.0
  0
LINE
  8
0
 62
     0
 10
7.022147
 20
1.365293
 30
0.0
 11
8.873999
 21
3.217145
 31
0.0
  0
LINE
  8
0
 62
     0
 10
7.067978
 20
1.234347
 30
0.0
 11
8.91983
 21
3.086199
 31
0.0
  0
LINE
  8
0
 62
     0
 10
7.113809
 20
1.103402
 30
0.0
 11
8.965661
 21
2.955254
 31
0.0
  0
LINE
  8
0
 62
     0
 10
7.15964
 20
0.972456
 30
0.0
 11
9.011492
 21
2.824308
 31
0.0
  0
LINE
  8
0
 62
     0
 10
7.205471
 20
0.84151
 30
0.0
 11
9.057323
 21
2.693362
 31
0.0
  0
LINE
  8
0
 62
     0
 10
7.251302
 20
0.710565
 30
0.0
 11
9.103154
 21
2.562416
 31
0.0
  0
LINE
  8
0
 62
     0
 10
7.297133
 20
0.579619
 30
0.0
 11
9.148985
 21
2.431471
 31
0.0
  0
LINE
  8
0
 62
     0
 10
7.342964
 20
0.448673
 30
0.0
 11
9.194816
 21
2.300525
 31
0.0
  0
LINE
  8
0
 62
     0
 10
7.388795
 20
0.317728
 30
0.0
 11
9.240647
 21
2.169579
 31
0.0
  0
LINE
  8
0
 62
     0
 10
7.434626
 20
0.186782
 30
0.0
 11
9.286478
 21
2.038634
 31
0.0
  0
LINE
  8
0
 62
     0
 10
7.480457
 20
0.055836
 30
0.0
 11
9.332309
 21
1.907688
 31
0.0
  0
LINE
  8
0
 62
     0
 10
7.601398
 20
0.0
 30
0.0
 11
9.37814
 21
1.776742
 31
0.0
  0
LINE
  8
0
 62
     0
 10
7.778175
 20
0.0
 30
0.0
 11
9.423971
 21
1.645797
 31
0.0
  0
LINE
  8
0
 62
     0
 10
7.954951
 20
0.0
 30
0.0
 11
9.469802
 21
1.514851
 31
0.0
  0
LINE
  8
0
 62
     0
 10
8.131728
 20
0.0
 30
0.0
 11
9.515633
 21
1.383905
 31
0.0
  0
LINE
  8
0
 62
     0
 10
8.308505
 20
0.0
 30
0.0
 11
9.561464
 21
1.252959
 31
0.0
  0
LINE
  8
0
 62
     0
 10
8.485281
 20
0.0
 30
0.0
 11
9.607295
 21
1.122014
 31
0.0
  0
LINE
  8
0
 62
     0
 10
8.662058
 20
0.0
 30
0.0
 11
9.653126
 21
0.991068
 31
0.0
  0
LINE
  8
0
 62
     0
 10
8.838835
 20
0.0
 30
0.0
 11
9.698957
 21
0.860122
 31
0.0
  0
LINE
  8
0
 62
     0
 10
9.015611
 20
0.0
 30
0.0
 11
9.744788
 21
0.729177
 31
0.0
  0
LINE
  8
0
 62
     0
 10
9.192388
 20
0.0
 30
0.0
 11
9.790619
 21
0.598231
 31
0.0
  0
LINE
  8
0
 62
     0
 10
9.369165
 20
0.0
 30
0.0
 11
9.83645
 21
0.467285
 31
0.0
  0
LINE
  8
0
 62
     0
 10
9.545942
 20
0.0
 30
0.0
 11
9.882281
 21
0.33634
 31
0.0
  0
LINE
  8
0
 62
     0
 10
9.722718
 20
0.0
 30
0.0
 11
9.928112
 21
0.205394
 31
0.0
  0
LINE
  8
0
 62
     0
 10
9.899495
 20
0.0
 30
0.0
 11
9.973943
 21
0.074448
 31
0.0
  0
ENDBLK
  8
0
  0
BLOCK
  8
0
  2
*X21
 70
    65
 10
0.0
 20
0.0
 30
0.0
  3
*X
  0
LINE
  8
0
 62
     0
 10
10.7
 20
6.280583
 30
0.0
 11
13.5
 21
9.080583
 31
0.0
  0
LINE
  8
0
 62
     0
 10
10.7
 20
6.457359
 30
0.0
 11
13.5
 21
9.257359
 31
0.0
  0
LINE
  8
0
 62
     0
 10
10.7
 20
6.634136
 30
0.0
 11
13.5
 21
9.434136
 31
0.0
  0
LINE
  8
0
 62
     0
 10
10.7
 20
6.810913
 30
0.0
 11
13.5
 21
9.610913
 31
0.0
  0
LINE
  8
0
 62
     0
 10
10.7
 20
6.987689
 30
0.0
 11
13.5
 21
9.787689
 31
0.0
  0
LINE
  8
0
 62
     0
 10
10.7
 20
7.164466
 30
0.0
 11
13.5
 21
9.964466
 31
0.0
  0
LINE
  8
0
 62
     0
 10
10.7
 20
7.341243
 30
0.0
 11
13.358757
 21
10.0
 31
0.0
  0
LINE
  8
0
 62
     0
 10
10.7
 20
7.518019
 30
0.0
 11
13.181981
 21
10.0
 31
0.0
  0
LINE
  8
0
 62
     0
 10
10.7
 20
7.694796
 30
0.0
 11
13.005204
 21
10.0
 31
0.0
  0
LINE
  8
0
 62
     0
 10
10.7
 20
7.871573
 30
0.0
 11
12.828427
 21
10.0
 31
0.0
  0
LINE
  8
0
 62
     0
 10
10.7
 20
8.04835
 30
0.0
 11
12.65165
 21
10.0
 31
0.0
  0
LINE
  8
0
 62
     0
 10
10.7
 20
8.225126
 30
0.0
 11
12.474874
 21
10.0
 31
0.0
  0
LINE
  8
0
 62
     0
 10
10.7
 20
8.401903
 30
0.0
 11
12.298097
 21
10.0
 31
0.0
  0
LINE
  8
0
 62
     0
 10
10.7
 20
8.57868
 30
0.0
 11
12.12132
 21
10.0
 31
0.0
  0
LINE
  8
0
 62
     0
 10
10.7
 20
8.755456
 30
0.0
 11
11.944544
 21
10.0
 31
0.0
  0
LINE
  8
0
 62
     0
 10
10.7
 20
8.932233
 30
0.0
 11
11.767767
 21
10.0
 31
0.0
  0
LINE
  8
0
 62
     0
 10
10.7
 20
9.10901
 30
0.0
 11
11.59099
 21
10.0
 31
0.0
  0
LINE
  8
0
 62
     0
 10
10.7
 20
9.285786
 30
0.0
 11
11.414214
 21
10.0
 31
0.0
  0
LINE
  8
0
 62
     0
 10
10.7
 20
9.462563
 30
0.0
 11
11.237437
 21
10.0
 31
0.0
  0
LINE
  8
0
 62
     0
 10
10.7
 20
9.63934
 30
0.0
 11
11.06066
 21
10.0
 31
0.0
  0
LINE
  8
0
 62
     0
 10
10.7
 20
9.816117
 30
0.0
 11
10.883883
 21
10.0
 31
0.0
  0
LINE
  8
0
 62
     0
 10
10.7
 20
9.992893
 30
0.0
 11
10.707107
 21
10.0
 31
0.0
  0
LINE
  8
0
 62
     0
 10
10.7
 20
6.103806
 30
0.0
 11
13.5
 21
8.903806
 31
0.0
  0
LINE
  8
0
 62
     0
 10
10.7
 20
5.927029
 30
0.0
 11
13.5
 21
8.727029
 31
0.0
  0
LINE
  8
0
 62
     0
 10
10.7
 20
5.750253
 30
0.0
 11
13.5
 21
8.550253
 31
0.0
  0
LINE
  8
0
 62
     0
 10
10.7
 20
5.573476
 30
0.0
 11
13.5
 21
8.373476
 31
0.0
  0
LINE
  8
0
 62
     0
 10
10.7
 20
5.396699
 30
0.0
 11
13.5
 21
8.196699
 31
0.0
  0
LINE
  8
0
 62
     0
 10
10.7
 20
5.219922
 30
0.0
 11
13.5
 21
8.019922
 31
0.0
  0
LINE
  8
0
 62
     0
 10
10.856854
 20
5.2
 30
0.0
 11
13.5
 21
7.843146
 31
0.0
  0
LINE
  8
0
 62
     0
 10
11.033631
 20
5.2
 30
0.0
 11
13.5
 21
7.666369
 31
0.0
  0
LINE
  8
0
 62
     0
 10
11.210408
 20
5.2
 30
0.0
 11
13.5
 21
7.489592
 31
0.0
  0
LINE
  8
0
 62
     0
 10
11.387184
 20
5.2
 30
0.0
 11
13.5
 21
7.312816
 31
0.0
  0
LINE
  8
0
 62
     0
 10
11.563961
 20
5.2
 30
0.0
 11
13.5
 21
7.136039
 31
0.0
  0
LINE
  8
0
 62
     0
 10
11.740738
 20
5.2
 30
0.0
 11
13.5
 21
6.959262
 31
0.0
  0
LINE
  8
0
 62
     0
 10
11.917514
 20
5.2
 30
0.0
 11
13.5
 21
6.782486
 31
0.0
  0
LINE
  8
0
 62
     0
 10
12.094291
 20
5.2
 30
0.0
 11
13.5
 21
6.605709
 31
0.0
  0
LINE
  8
0
 62
     0
 10
12.271068
 20
5.2
 30
0.0
 11
13.5
 21
6.428932
 31
0.0
  0
LINE
  8
0
 62
     0
 10
12.447845
 20
5.2
 30
0.0
 11
13.5
 21
6.252155
 31
0.0
  0
LINE
  8
0
 62
     0
 10
12.624621
 20
5.2
 30
0.0
 11
13.5
 21
6.075379
 31
0.0
  0
LINE
  8
0
 62
     0
 10
12.801398
 20
5.2
 30
0.0
 11
13.5
 21
5.898602
 31
0.0
  0
LINE
  8
0
 62
     0
 10
12.978175
 20
5.2
 30
0.0
 11
13.5
 21
5.721825
 31
0.0
  0
LINE
  8
0
 62
     0
 10
13.154951
 20
5.2
 30
0.0
 11
13.5
 21
5.545049
 31
0.0
  0
LINE
  8
0
 62
     0
 10
13.331728
 20
5.2
 30
0.0
 11
13.5
 21
5.368272
 31
0.0
  0
ENDBLK
  8
0
  0
BLOCK
  8
0
  2
*X22
 70
    65
 10
0.0
 20
0.0
 30
0.0
  3
*X
  0
LINE
  8
0
 62
     0
 10
10.7
 20
1.154058
 30
0.0
 11
13.5
 21
3.954058
 31
0.0
  0
LINE
  8
0
 62
     0
 10
10.7
 20
1.330835
 30
0.0
 11
13.5
 21
4.130835
 31
0.0
  0
LINE
  8
0
 62
     0
 10
10.7
 20
1.507612
 30
0.0
 11
13.5
 21
4.307612
 31
0.0
  0
LINE
  8
0
 62
     0
 10
10.7
 20
1.684389
 30
0.0
 11
13.5
 21
4.484389
 31
0.0
  0
LINE
  8
0
 62
     0
 10
10.7
 20
1.861165
 30
0.0
 11
13.5
 21
4.661165
 31
0.0
  0
LINE
  8
0
 62
     0
 10
10.7
 20
2.037942
 30
0.0
 11
13.462058
 21
4.8
 31
0.0
  0
LINE
  8
0
 62
     0
 10
10.7
 20
2.214719
 30
0.0
 11
13.285281
 21
4.8
 31
0.0
  0
LINE
  8
0
 62
     0
 10
10.7
 20
2.391495
 30
0.0
 11
13.108505
 21
4.8
 31
0.0
  0
LINE
  8
0
 62
     0
 10
10.7
 20
2.568272
 30
0.0
 11
12.931728
 21
4.8
 31
0.0
  0
LINE
  8
0
 62
     0
 10
10.7
 20
2.745049
 30
0.0
 11
12.754951
 21
4.8
 31
0.0
  0
LINE
  8
0
 62
     0
 10
10.7
 20
2.921825
 30
0.0
 11
12.578175
 21
4.8
 31
0.0
  0
LINE
  8
0
 62
     0
 10
10.7
 20
3.098602
 30
0.0
 11
12.401398
 21
4.8
 31
0.0
  0
LINE
  8
0
 62
     0
 10
10.7
 20
3.275379
 30
0.0
 11
12.224621
 21
4.8
 31
0.0
  0
LINE
  8
0
 62
     0
 10
10.7
 20
3.452155
 30
0.0
 11
12.047845
 21
4.8
 31
0.0
  0
LINE
  8
0
 62
     0
 10
10.7
 20
3.628932
 30
0.0
 11
11.871068
 21
4.8
 31
0.0
  0
LINE
  8
0
 62
     0
 10
10.7
 20
3.805709
 30
0.0
 11
11.694291
 21
4.8
 31
0.0
  0
LINE
  8
0
 62
     0
 10
10.7
 20
3.982486
 30
0.0
 11
11.517514
 21
4.8
 31
0.0
  0
LINE
  8
0
 62
     0
 10
10.7
 20
4.159262
 30
0.0
 11
11.340738
 21
4.8
 31
0.0
  0
LINE
  8
0
 62
     0
 10
10.7
 20
4.336039
 30
0.0
 11
11.163961
 21
4.8
 31
0.0
  0
LINE
  8
0
 62
     0
 10
10.7
 20
4.512816
 30
0.0
 11
10.987184
 21
4.8
 31
0.0
  0
LINE
  8
0
 62
     0
 10
10.7
 20
4.689592
 30
0.0
 11
10.810408
 21
4.8
 31
0.0
  0
LINE
  8
0
 62
     0
 10
10.7
 20
0.977282
 30
0.0
 11
13.5
 21
3.777282
 31
0.0
  0
LINE
  8
0
 62
     0
 10
10.7
 20
0.800505
 30
0.0
 11
13.5
 21
3.600505
 31
0.0
  0
LINE
  8
0
 62
     0
 10
10.7
 20
0.623728
 30
0.0
 11
13.5
 21
3.423728
 31
0.0
  0
LINE
  8
0
 62
     0
 10
10.7
 20
0.446952
 30
0.0
 11
13.5
 21
3.246952
 31
0.0
  0
LINE
  8
0
 62
     0
 10
10.7
 20
0.270175
 30
0.0
 11
13.5
 21
3.070175
 31
0.0
  0
LINE
  8
0
 62
     0
 10
10.7
 20
0.093398
 30
0.0
 11
13.5
 21
2.893398
 31
0.0
  0
LINE
  8
0
 62
     0
 10
10.783378
 20
0.0
 30
0.0
 11
13.5
 21
2.716622
 31
0.0
  0
LINE
  8
0
 62
     0
 10
10.960155
 20
0.0
 30
0.0
 11
13.5
 21
2.539845
 31
0.0
  0
LINE
  8
0
 62
     0
 10
11.136932
 20
0.0
 30
0.0
 11
13.5
 21
2.363068
 31
0.0
  0
LINE
  8
0
 62
     0
 10
11.313708
 20
0.0
 30
0.0
 11
13.5
 21
2.186292
 31
0.0
  0
LINE
  8
0
 62
     0
 10
11.490485
 20
0.0
 30
0.0
 11
13.5
 21
2.009515
 31
0.0
  0
LINE
  8
0
 62
     0
 10
11.667262
 20
0.0
 30
0.0
 11
13.5
 21
1.832738
 31
0.0
  0
LINE
  8
0
 62
     0
 10
11.844039
 20
0.0
 30
0.0
 11
13.5
 21
1.655961
 31
0.0
  0
LINE
  8
0
 62
     0
 10
12.020815
 20
0.0
 30
0.0
 11
13.5
 21
1.479185
 31
0.0
  0
LINE
  8
0
 62
     0
 10
12.197592
 20
0.0
 30
0.0
 11
13.5
 21
1.302408
 31
0.0
  0
LINE
  8
0
 62
     0
 10
12.374369
 20
0.0
 30
0.0
 11
13.5
 21
1.125631
 31
0.0
  0
LINE
  8
0
 62
     0
 10
12.551145
 20
0.0
 30
0.0
 11
13.5
 21
0.948855
 31
0.0
  0
LINE
  8
0
 62
     0
 10
12.727922
 20
0.0
 30
0.0
 11
13.5
 21
0.772078
 31
0.0
  0
LINE
  8
0
 62
     0
 10
12.904699
 20
0.0
 30
0.0
 11
13.5
 21
0.595301
 31
0.0
  0
LINE
  8
0
 62
     0
 10
13.081475
 20
0.0
 30
0.0
 11
13.5
 21
0.418525
 31
0.0
  0
LINE
  8
0
 62
     0
 10
13.258252
 20
0.0
 30
0.0
 11
13.5
 21
0.241748
 31
0.0
  0
LINE
  8
0
 62
     0
 10
13.435029
 20
0.0
 30
0.0
 11
13.5
 21
0.064971
 31
0.0
  0
ENDBLK
  8
0
  0
BLOCK
  8
0
  2
*X23
 70
    65
 10
0.0
 20
0.0
 30
0.0
  3
*X
  0
LINE
  8
0
 62
     0
 10
13.9
 20
6.298602
 30
0.0
 11
16.582995
 21
8.981597
 31
0.0
  0
LINE
  8
0
 62
     0
 10
13.9
 20
6.475379
 30
0.0
 11
16.510503
 21
9.085882
 31
0.0
  0
LINE
  8
0
 62
     0
 10
13.9
 20
6.652155
 30
0.0
 11
16.432927
 21
9.185083
 31
0.0
  0
LINE
  8
0
 62
     0
 10
13.9
 20
6.828932
 30
0.0
 11
16.350372
 21
9.279304
 31
0.0
  0
LINE
  8
0
 62
     0
 10
13.9
 20
7.005709
 30
0.0
 11
16.262892
 21
9.368601
 31
0.0
  0
LINE
  8
0
 62
     0
 10
13.9
 20
7.182486
 30
0.0
 11
16.170495
 21
9.452981
 31
0.0
  0
LINE
  8
0
 62
     0
 10
13.9
 20
7.359262
 30
0.0
 11
16.073145
 21
9.532407
 31
0.0
  0
LINE
  8
0
 62
     0
 10
13.9
 20
7.536039
 30
0.0
 11
15.970755
 21
9.606794
 31
0.0
  0
LINE
  8
0
 62
     0
 10
13.9
 20
7.712816
 30
0.0
 11
15.863189
 21
9.676004
 31
0.0
  0
LINE
  8
0
 62
     0
 10
13.9
 20
7.889592
 30
0.0
 11
15.75025
 21
9.739843
 31
0.0
  0
LINE
  8
0
 62
     0
 10
13.9
 20
8.066369
 30
0.0
 11
15.631675
 21
9.798044
 31
0.0
  0
LINE
  8
0
 62
     0
 10
13.9
 20
8.243146
 30
0.0
 11
15.50711
 21
9.850256
 31
0.0
  0
LINE
  8
0
 62
     0
 10
13.9
 20
8.419922
 30
0.0
 11
15.376096
 21
9.896018
 31
0.0
  0
LINE
  8
0
 62
     0
 10
13.9
 20
8.596699
 30
0.0
 11
15.238027
 21
9.934726
 31
0.0
  0
LINE
  8
0
 62
     0
 10
13.9
 20
8.773476
 30
0.0
 11
15.092096
 21
9.965572
 31
0.0
  0
LINE
  8
0
 62
     0
 10
13.9
 20
8.950253
 30
0.0
 11
14.937209
 21
9.987461
 31
0.0
  0
LINE
  8
0
 62
     0
 10
13.9
 20
9.127029
 30
0.0
 11
14.771824
 21
9.998853
 31
0.0
  0
LINE
  8
0
 62
     0
 10
13.9
 20
9.303806
 30
0.0
 11
14.596193
 21
9.999999
 31
0.0
  0
LINE
  8
0
 62
     0
 10
13.9
 20
9.480583
 30
0.0
 11
14.419417
 21
9.999999
 31
0.0
  0
LINE
  8
0
 62
     0
 10
13.9
 20
9.657359
 30
0.0
 11
14.24264
 21
10.0
 31
0.0
  0
LINE
  8
0
 62
     0
 10
13.9
 20
9.834136
 30
0.0
 11
14.065864
 21
10.0
 31
0.0
  0
LINE
  8
0
 62
     0
 10
13.9
 20
6.121825
 30
0.0
 11
16.650245
 21
8.872071
 31
0.0
  0
LINE
  8
0
 62
     0
 10
13.9
 20
5.945049
 30
0.0
 11
16.712035
 21
8.757083
 31
0.0
  0
LINE
  8
0
 62
     0
 10
13.9
 20
5.768272
 30
0.0
 11
16.768067
 21
8.636339
 31
0.0
  0
LINE
  8
0
 62
     0
 10
13.9
 20
5.591495
 30
0.0
 11
16.817955
 21
8.509451
 31
0.0
  0
LINE
  8
0
 62
     0
 10
13.9
 20
5.414719
 30
0.0
 11
16.861189
 21
8.375908
 31
0.0
  0
LINE
  8
0
 62
     0
 10
13.9
 20
5.237942
 30
0.0
 11
16.897097
 21
8.235039
 31
0.0
  0
LINE
  8
0
 62
     0
 10
14.038835
 20
5.2
 30
0.0
 11
16.924779
 21
8.085944
 31
0.0
  0
LINE
  8
0
 62
     0
 10
14.215611
 20
5.2
 30
0.0
 11
16.942997
 21
7.927385
 31
0.0
  0
LINE
  8
0
 62
     0
 10
14.392388
 20
5.2
 30
0.0
 11
16.949987
 21
7.757599
 31
0.0
  0
LINE
  8
0
 62
     0
 10
14.569165
 20
5.2
 30
0.0
 11
16.943101
 21
7.573936
 31
0.0
  0
LINE
  8
0
 62
     0
 10
14.745942
 20
5.2
 30
0.0
 11
16.918037
 21
7.372095
 31
0.0
  0
LINE
  8
0
 62
     0
 10
14.922718
 20
5.2
 30
0.0
 11
16.866909
 21
7.144191
 31
0.0
  0
LINE
  8
0
 62
     0
 10
15.099495
 20
5.2
 30
0.0
 11
16.771715
 21
6.87222
 31
0.0
  0
LINE
  8
0
 62
     0
 10
15.276272
 20
5.2
 30
0.0
 11
15.847951
 21
5.77168
 31
0.0
  0
LINE
  8
0
 62
     0
 10
15.96673
 20
5.890458
 30
0.0
 11
16.559542
 21
6.48327
 31
0.0
  0
LINE
  8
0
 62
     0
 10
15.453048
 20
5.2
 30
0.0
 11
15.970661
 21
5.717613
 31
0.0
  0
LINE
  8
0
 62
     0
 10
15.629825
 20
5.2
 30
0.0
 11
16.088934
 21
5.659109
 31
0.0
  0
LINE
  8
0
 62
     0
 10
15.806602
 20
5.2
 30
0.0
 11
16.202964
 21
5.596363
 31
0.0
  0
LINE
  8
0
 62
     0
 10
15.983378
 20
5.2
 30
0.0
 11
16.312909
 21
5.529531
 31
0.0
  0
LINE
  8
0
 62
     0
 10
16.160155
 20
5.2
 30
0.0
 11
16.418895
 21
5.45874
 31
0.0
  0
LINE
  8
0
 62
     0
 10
16.336932
 20
5.2
 30
0.0
 11
16.521021
 21
5.384089
 31
0.0
  0
LINE
  8
0
 62
     0
 10
16.513708
 20
5.2
 30
0.0
 11
16.619363
 21
5.305655
 31
0.0
  0
LINE
  8
0
 62
     0
 10
16.690485
 20
5.2
 30
0.0
 11
16.713975
 21
5.22349
 31
0.0
  0
ENDBLK
  8
0
  0
BLOCK
  8
0
  2
*X24
 70
    65
 10
0.0
 20
0.0
 30
0.0
  3
*X
  0
LINE
  8
0
 62
     0
 10
13.9
 20
0.818525
 30
0.0
 11
17.39645
 21
4.314974
 31
0.0
  0
LINE
  8
0
 62
     0
 10
13.9
 20
0.995301
 30
0.0
 11
17.336354
 21
4.431655
 31
0.0
  0
LINE
  8
0
 62
     0
 10
13.9
 20
1.172078
 30
0.0
 11
17.272078
 21
4.544156
 31
0.0
  0
LINE
  8
0
 62
     0
 10
13.9
 20
1.348855
 30
0.0
 11
17.203766
 21
4.652621
 31
0.0
  0
LINE
  8
0
 62
     0
 10
13.9
 20
1.525631
 30
0.0
 11
17.131535
 21
4.757167
 31
0.0
  0
LINE
  8
0
 62
     0
 10
13.9
 20
1.702408
 30
0.0
 11
16.997592
 21
4.8
 31
0.0
  0
LINE
  8
0
 62
     0
 10
13.9
 20
1.879185
 30
0.0
 11
16.820815
 21
4.8
 31
0.0
  0
LINE
  8
0
 62
     0
 10
13.9
 20
2.055961
 30
0.0
 11
16.644039
 21
4.8
 31
0.0
  0
LINE
  8
0
 62
     0
 10
13.9
 20
2.232738
 30
0.0
 11
16.467262
 21
4.8
 31
0.0
  0
LINE
  8
0
 62
     0
 10
13.9
 20
2.409515
 30
0.0
 11
16.290485
 21
4.8
 31
0.0
  0
LINE
  8
0
 62
     0
 10
13.9
 20
2.586292
 30
0.0
 11
16.113708
 21
4.8
 31
0.0
  0
LINE
  8
0
 62
     0
 10
13.9
 20
2.763068
 30
0.0
 11
15.936932
 21
4.8
 31
0.0
  0
LINE
  8
0
 62
     0
 10
13.9
 20
2.939845
 30
0.0
 11
15.760155
 21
4.8
 31
0.0
  0
LINE
  8
0
 62
     0
 10
13.9
 20
3.116622
 30
0.0
 11
15.583378
 21
4.8
 31
0.0
  0
LINE
  8
0
 62
     0
 10
13.9
 20
3.293398
 30
0.0
 11
15.406602
 21
4.8
 31
0.0
  0
LINE
  8
0
 62
     0
 10
13.9
 20
3.470175
 30
0.0
 11
15.229825
 21
4.8
 31
0.0
  0
LINE
  8
0
 62
     0
 10
13.9
 20
3.646952
 30
0.0
 11
15.053048
 21
4.8
 31
0.0
  0
LINE
  8
0
 62
     0
 10
13.9
 20
3.823728
 30
0.0
 11
14.876272
 21
4.8
 31
0.0
  0
LINE
  8
0
 62
     0
 10
13.9
 20
4.000505
 30
0.0
 11
14.699495
 21
4.8
 31
0.0
  0
LINE
  8
0
 62
     0
 10
13.9
 20
4.177282
 30
0.0
 11
14.522718
 21
4.8
 31
0.0
  0
LINE
  8
0
 62
     0
 10
13.9
 20
4.354058
 30
0.0
 11
14.345942
 21
4.8
 31
0.0
  0
LINE
  8
0
 62
     0
 10
13.9
 20
4.530835
 30
0.0
 11
14.169165
 21
4.8
 31
0.0
  0
LINE
  8
0
 62
     0
 10
13.9
 20
4.707612
 30
0.0
 11
13.992388
 21
4.8
 31
0.0
  0
LINE
  8
0
 62
     0
 10
13.9
 20
0.641748
 30
0.0
 11
17.452185
 21
4.193933
 31
0.0
  0
LINE
  8
0
 62
     0
 10
13.9
 20
0.464971
 30
0.0
 11
17.503339
 21
4.068311
 31
0.0
  0
LINE
  8
0
 62
     0
 10
13.9
 20
0.288194
 30
0.0
 11
17.549642
 21
3.937837
 31
0.0
  0
LINE
  8
0
 62
     0
 10
13.9
 20
0.111418
 30
0.0
 11
17.590762
 21
3.80218
 31
0.0
  0
LINE
  8
0
 62
     0
 10
13.965359
 20
0.0
 30
0.0
 11
17.62629
 21
3.660931
 31
0.0
  0
LINE
  8
0
 62
     0
 10
14.142136
 20
0.000001
 30
0.0
 11
17.655713
 21
3.513577
 31
0.0
  0
LINE
  8
0
 62
     0
 10
14.318913
 20
0.000001
 30
0.0
 11
17.678385
 21
3.359473
 31
0.0
  0
LINE
  8
0
 62
     0
 10
14.49569
 20
0.000001
 30
0.0
 11
17.693473
 21
3.197784
 31
0.0
  0
LINE
  8
0
 62
     0
 10
14.672467
 20
0.000002
 30
0.0
 11
17.699875
 21
3.027409
 31
0.0
  0
LINE
  8
0
 62
     0
 10
14.853154
 20
0.003912
 30
0.0
 11
17.696088
 21
2.846846
 31
0.0
  0
LINE
  8
0
 62
     0
 10
15.046044
 20
0.020025
 30
0.0
 11
17.679975
 21
2.653956
 31
0.0
  0
LINE
  8
0
 62
     0
 10
15.254483
 20
0.051687
 30
0.0
 11
17.648313
 21
2.445517
 31
0.0
  0
LINE
  8
0
 62
     0
 10
15.483762
 20
0.10419
 30
0.0
 11
17.59581
 21
2.216238
 31
0.0
  0
LINE
  8
0
 62
     0
 10
15.743786
 20
0.187437
 30
0.0
 11
17.512563
 21
1.956214
 31
0.0
  0
LINE
  8
0
 62
     0
 10
16.058176
 20
0.32505
 30
0.0
 11
17.37495
 21
1.641824
 31
0.0
  0
LINE
  8
0
 62
     0
 10
16.54193
 20
0.632028
 30
0.0
 11
17.067972
 21
1.15807
 31
0.0
  0
ENDBLK
  8
0
  0
BLOCK
  8
0
  2
B18
 70
     0
 10
0.0
 20
0.0
 30
0.0
  3
B18
  0
TEXT
  8
BASE1
  6
CONTINUOUS
 10
-3.19093
 20
-2.044005
 30
0.0
 40
1.5
  1
25
  0
TEXT
  8
BASE1
  6
CONTINUOUS
 10
-3.19093
 20
2.864796
 30
0.0
 40
1.5
  1
26
  0
TEXT
  8
BASE1
  6
CONTINUOUS
 10
-3.19093
 20
7.66962
 30
0.0
 40
1.5
  1
27
  0
LINE
  8
BASE1
  6
CONTINUOUS
 10
0.0
 20
0.0
 30
0.0
 11
-3.996794
 21
0.0
 31
0.0
  0
LINE
  8
BASE1
  6
CONTINUOUS
 10
-3.85431
 20
9.573777
 30
0.0
 11
-0.000008
 21
9.573777
 31
0.0
  0
LINE
  8
BASE1
  6
CONTINUOUS
 10
-3.85431
 20
4.763594
 30
0.0
 11
0.0
 21
4.763594
 31
0.0
  0
INSERT
  8
BASE1
  6
CENTER
  2
BLC28
 10
-5.0
 20
4.77152
 30
0.0
  0
INSERT
  8
BASE1
  6
CONTINUOUS
  2
BLC29
 10
-29.0
 20
34.97465
 30
0.0
 50
180.0
  0
INSERT
  8
BASE1
  6
CONTINUOUS
  2
BLC29
 10
-29.0
 20
4.334294
 30
0.0
 50
180.0
  0
LINE
  8
BASE1
  6
CONTINUOUS
 10
-23.0
 20
24.5
 30
0.0
 11
-14.0
 21
24.5
 31
0.0
  0
LINE
  8
BASE1
  6
CONTINUOUS
 10
-23.0
 20
44.5
 30
0.0
 11
-14.0
 21
44.5
 31
0.0
  0
LINE
  8
BASE1
  6
CONTINUOUS
 10
-25.0
 20
23.5
 30
0.0
 11
-24.0
 21
22.5
 31
0.0
  0
LINE
  8
BASE1
  6
CONTINUOUS
 10
-25.0
 20
45.5
 30
0.0
 11
-24.0
 21
46.5
 31
0.0
  0
LINE
  8
BASE1
  6
CONTINUOUS
 10
-25.0
 20
45.5
 30
0.0
 11
-25.0
 21
23.5
 31
0.0
  0
INSERT
  8
BASE1
  6
CONTINUOUS
  2
BLC27
 10
-11.278856
 20
4.522625
 30
0.0
 50
180.0
  0
INSERT
  8
BASE1
  6
CONTINUOUS
  2
BLC27
 10
-11.278856
 20
44.522625
 30
0.0
 50
180.0
  0
INSERT
  8
BASE1
  6
CONTINUOUS
  2
BLC27
 10
-11.278856
 20
24.522625
 30
0.0
 50
180.0
  0
TEXT
  8
BASE1
  6
CONTINUOUS
 10
-1.727862
 20
18.157036
 30
0.0
 40
1.5
  1
7
  0
TEXT
  8
BASE1
  6
CONTINUOUS
 10
-1.727862
 20
23.006337
 30
0.0
 40
1.5
  1
8
  0
TEXT
  8
BASE1
  6
CONTINUOUS
 10
-1.727862
 20
27.777328
 30
0.0
 40
1.5
  1
9
  0
TEXT
  8
BASE1
  6
CONTINUOUS
 10
-1.68281
 20
38.247597
 30
0.0
 40
1.5
  1
1
 11
-1.68281
 21
37.747597
 31
0.0
 73
     1
  0
TEXT
  8
BASE1
  6
CONTINUOUS
 10
-1.68281
 20
42.972907
 30
0.0
 40
1.5
  1
2
 11
-1.68281
 21
42.472907
 31
0.0
 73
     1
  0
TEXT
  8
BASE1
  6
CONTINUOUS
 10
-1.68281
 20
47.822208
 30
0.0
 40
1.5
  1
3
 11
-1.68281
 21
47.322208
 31
0.0
 73
     1
  0
LINE
  8
BASE1
  6
CONTINUOUS
 10
-3.791237
 20
49.573949
 30
0.0
 11
0.0
 21
49.573949
 31
0.0
  0
LINE
  8
BASE1
  6
CONTINUOUS
 10
-3.85431
 20
29.573777
 30
0.0
 11
0.0
 21
29.573777
 31
0.0
  0
LINE
  8
BASE1
  6
CONTINUOUS
 10
-3.85431
 20
24.763594
 30
0.0
 11
0.0
 21
24.763594
 31
0.0
  0
LINE
  8
BASE1
  6
CONTINUOUS
 10
-3.85431
 20
44.764081
 30
0.0
 11
0.0
 21
44.764081
 31
0.0
  0
LINE
  8
BASE1
  6
CONTINUOUS
 10
0.0
 20
40.0
 30
0.0
 11
-4.298809
 21
40.0
 31
0.0
  0
LINE
  8
BASE1
  6
CONTINUOUS
 10
0.0
 20
20.0
 30
0.0
 11
-3.996794
 21
20.0
 31
0.0
  0
INSERT
  8
BASE1
  6
CENTER
  2
BLC28
 10
-5.0
 20
24.77152
 30
0.0
  0
INSERT
  8
BASE1
  6
CENTER
  2
BLC28
 10
-5.0
 20
44.771667
 30
0.0
  0
LINE
  8
BASE1
  6
CONTINUOUS
 10
-13.986263
 20
4.46704
 30
0.0
 11
-33.242524
 21
4.46704
 31
0.0
  0
LINE
  8
BASE1
  6
CENTER
 10
-33.242524
 20
35.105843
 30
0.0
 11
-25.0
 21
35.105843
 31
0.0
  0
ENDBLK
  8
0
  0
BLOCK
  8
0
  2
BLC28
 70
    64
 10
0.0
 20
0.0
 30
0.0
  3
BLC28
  0
LINE
  8
0
  6
CONTINUOUS
 10
0.484576
 20
2.400948
 30
0.0
 11
1.456712
 21
2.400948
 31
0.0
  0
LINE
  8
0
  6
CONTINUOUS
 10
0.474673
 20
4.802388
 30
0.0
 11
1.452481
 21
4.802388
 31
0.0
  0
LINE
  8
0
  6
CONTINUOUS
 10
0.479442
 20
-0.007627
 30
0.0
 11
1.435637
 21
-0.007627
 31
0.0
  0
ARC
  8
0
  6
CONTINUOUS
 10
-0.156593
 20
1.19663
 30
0.0
 40
1.204309
 50
90.0
 51
270.0
  0
LINE
  8
0
  6
CONTINUOUS
 10
-0.161557
 20
-0.007671
 30
0.0
 11
0.488041
 21
-0.007671
 31
0.0
  0
LINE
  8
0
  6
CONTINUOUS
 10
-0.162693
 20
4.802386
 30
0.0
 11
0.480806
 21
4.802386
 31
0.0
  0
LINE
  8
0
  6
CONTINUOUS
 10
-0.162693
 20
2.400939
 30
0.0
 11
0.486905
 21
2.400939
 31
0.0
  0
ARC
  8
0
  6
CONTINUOUS
 10
-0.156593
 20
3.598487
 30
0.0
 40
1.204309
 50
90.0
 51
265.706237
  0
LINE
  8
0
  6
CONTINUOUS
 10
0.484576
 20
-2.362961
 30
0.0
 11
1.456712
 21
-2.362961
 31
0.0
  0
LINE
  8
0
  6
CONTINUOUS
 10
0.479442
 20
-4.771537
 30
0.0
 11
1.435637
 21
-4.771537
 31
0.0
  0
ARC
  8
0
  6
CONTINUOUS
 10
-0.156593
 20
-3.567279
 30
0.0
 40
1.204309
 50
90.0
 51
270.0
  0
LINE
  8
0
  6
CONTINUOUS
 10
-0.161557
 20
-4.77158
 30
0.0
 11
0.488041
 21
-4.77158
 31
0.0
  0
LINE
  8
0
  6
CONTINUOUS
 10
-0.162693
 20
-2.36297
 30
0.0
 11
0.486905
 21
-2.36297
 31
0.0
  0
ARC
  8
0
  6
CONTINUOUS
 10
-0.156593
 20
-1.165422
 30
0.0
 40
1.204309
 50
101.28465
 51
265.706237
  0
ENDBLK
  8
0
  0
BLOCK
  8
0
  2
B63
 70
     0
 10
0.0
 20
0.0
 30
0.0
  3
B63
  0
LINE
  8
BASE
  6
CONTINUOUS
 10
10.740939
 20
0.0
 30
0.0
 11
15.0
 21
0.0
 31
0.0
  0
LINE
  8
BASE
  6
CONTINUOUS
 10
0.0
 20
0.0
 30
0.0
 11
5.0
 21
0.0
 31
0.0
  0
LINE
  8
BASE
  6
CONTINUOUS
 10
9.353436
 20
-0.361863
 30
0.0
 11
4.256076
 21
-3.214703
 31
0.0
  0
LINE
  8
BASE
  6
CONTINUOUS
 10
5.0
 20
-5.0
 30
0.0
 11
0.0
 21
-5.0
 31
0.0
  0
LINE
  8
BASE
  6
CONTINUOUS
 10
5.0
 20
-5.0
 30
0.0
 11
5.0
 21
-2.5
 31
0.0
  0
CIRCLE
  8
BASE
  6
CONTINUOUS
 10
10.0
 20
0.0
 30
0.0
 40
0.740939
  0
ENDBLK
  8
0
  0
BLOCK
  8
0
  2
B101
 70
     0
 10
0.0
 20
0.0
 30
0.0
  3
B101
  0
LINE
  8
BASE
  6
CONTINUOUS
 10
0.0
 20
15.0
 30
0.0
 11
0.0
 21
0.0
 31
0.0
  0
LINE
  8
BASE
  6
CONTINUOUS
 10
-5.0
 20
15.0
 30
0.0
 11
5.0
 21
15.0
 31
0.0
  0
LINE
  8
BASE
  6
CONTINUOUS
 10
5.0
 20
15.0
 30
0.0
 11
7.5
 21
17.5
 31
0.0
  0
LINE
  8
BASE
  6
CONTINUOUS
 10
0.0
 20
15.0
 30
0.0
 11
2.5
 21
17.5
 31
0.0
  0
LINE
  8
BASE
  6
CONTINUOUS
 10
-5.0
 20
15.0
 30
0.0
 11
-2.5
 21
17.5
 31
0.0
  0
ENDBLK
  8
0
  0
BLOCK
  8
0
  2
B100
 70
     0
 10
0.0
 20
0.0
 30
0.0
  3
B100
  0
LINE
  8
BASE
  6
CONTINUOUS
 10
0.0
 20
17.5
 30
0.0
 11
0.0
 21
0.0
 31
0.0
  0
LINE
  8
BASE
  6
CONTINUOUS
 10
5.0
 20
17.5
 30
0.0
 11
5.0
 21
0.0
 31
0.0
  0
INSERT
  8
BASE
  6
CONTINUOUS
  2
BLC38
 10
0.0
 20
20.0
 30
0.0
  0
ENDBLK
  8
0
  0
BLOCK
  8
0
  2
B506
 70
    64
 10
0.0
 20
0.0
 30
0.0
  3
B506
  0
INSERT
  8
BASE
  6
CONTINUOUS
  2
BLC29
 10
1.994594
 20
-0.128476
 30
0.0
 50
180.0
  0
ENDBLK
  8
0
  0
BLOCK
  8
0
  2
B1006
 70
     0
 10
0.0
 20
0.0
 30
0.0
  3
B1006
  0
LINE
  8
BASE
  6
CONTINUOUS
 10
-1.25
 20
0.0
 30
0.0
 11
2.5
 21
0.0
 31
0.0
  0
ARC
  8
BASE
  6
CONTINUOUS
 10
-3.75
 20
0.086539
 30
0.0
 40
2.5
 50
270.0
 51
90.0
  0
POLYLINE
  8
BASE
  6
CONTINUOUS
 66
     1
 10
0.0
 20
0.0
 30
0.0
 70
    16
 71
     2
 72
   251
  0
VERTEX
  8
BASE
  6
CONTINUOUS
 10
-3.069436
 20
0.576539
 30
0.0
 70
    64
  0
VERTEX
  8
BASE
  6
CONTINUOUS
 10
-3.083156
 20
0.576539
 30
0.0
 70
    64
  0
VERTEX
  8
BASE
  6
CONTINUOUS
 10
-3.096876
 20
0.576539
 30
0.0
 70
    64
  0
VERTEX
  8
BASE
  6
CONTINUOUS
 10
-3.110596
 20
0.576539
 30
0.0
 70
    64
  0
VERTEX
  8
BASE
  6
CONTINUOUS
 10
-3.124316
 20
0.576539
 30
0.0
 70
    64
  0
VERTEX
  8
BASE
  6
CONTINUOUS
 10
-3.138036
 20
0.576539
 30
0.0
 70
    64
  0
VERTEX
  8
BASE
  6
CONTINUOUS
 10
-3.151756
 20
0.576539
 30
0.0
 70
    64
  0
VERTEX
  8
BASE
  6
CONTINUOUS
 10
-3.165476
 20
0.576539
 30
0.0
 70
    64
  0
VERTEX
  8
BASE
  6
CONTINUOUS
 10
-3.179196
 20
0.576539
 30
0.0
 70
    64
  0
VERTEX
  8
BASE
  6
CONTINUOUS
 10
-3.192916
 20
0.576539
 30
0.0
 70
    64
  0
VERTEX
  8
BASE
  6
CONTINUOUS
 10
-3.206636
 20
0.576539
 30
0.0
 70
    64
  0
VERTEX
  8
BASE
  6
CONTINUOUS
 10
-3.220356
 20
0.576539
 30
0.0
 70
    64
  0
VERTEX
  8
BASE
  6
CONTINUOUS
 10
-3.234076
 20
0.576539
 30
0.0
 70
    64
  0
VERTEX
  8
BASE
  6
CONTINUOUS
 10
-3.247796
 20
0.576539
 30
0.0
 70
    64
  0
VERTEX
  8
BASE
  6
CONTINUOUS
 10
-3.261516
 20
0.576539
 30
0.0
 70
    64
  0
VERTEX
  8
BASE
  6
CONTINUOUS
 10
-3.275236
 20
0.576539
 30
0.0
 70
    64
  0
VERTEX
  8
BASE
  6
CONTINUOUS
 10
-3.288956
 20
0.576539
 30
0.0
 70
    64
  0
VERTEX
  8
BASE
  6
CONTINUOUS
 10
-3.302676
 20
0.576539
 30
0.0
 70
    64
  0
VERTEX
  8
BASE
  6
CONTINUOUS
 10
-3.316396
 20
0.576539
 30
0.0
 70
    64
  0
VERTEX
  8
BASE
  6
CONTINUOUS
 10
-3.330116
 20
0.576539
 30
0.0
 70
    64
  0
VERTEX
  8
BASE
  6
CONTINUOUS
 10
-3.343836
 20
0.576539
 30
0.0
 70
    64
  0
VERTEX
  8
BASE
  6
CONTINUOUS
 10
-3.357556
 20
0.576539
 30
0.0
 70
    64
  0
VERTEX
  8
BASE
  6
CONTINUOUS
 10
-3.371276
 20
0.576539
 30
0.0
 70
    64
  0
VERTEX
  8
BASE
  6
CONTINUOUS
 10
-3.384996
 20
0.576539
 30
0.0
 70
    64
  0
VERTEX
  8
BASE
  6
CONTINUOUS
 10
-3.398716
 20
0.576539
 30
0.0
 70
    64
  0
VERTEX
  8
BASE
  6
CONTINUOUS
 10
-3.412436
 20
0.576539
 30
0.0
 70
    64
  0
VERTEX
  8
BASE
  6
CONTINUOUS
 10
-3.426156
 20
0.576539
 30
0.0
 70
    64
  0
VERTEX
  8
BASE
  6
CONTINUOUS
 10
-3.439876
 20
0.576539
 30
0.0
 70
    64
  0
VERTEX
  8
BASE
  6
CONTINUOUS
 10
-3.453596
 20
0.576539
 30
0.0
 70
    64
  0
VERTEX
  8
BASE
  6
CONTINUOUS
 10
-3.467316
 20
0.576539
 30
0.0
 70
    64
  0
VERTEX
  8
BASE
  6
CONTINUOUS
 10
-3.481036
 20
0.576539
 30
0.0
 70
    64
  0
VERTEX
  8
BASE
  6
CONTINUOUS
 10
-3.494756
 20
0.576539
 30
0.0
 70
    64
  0
VERTEX
  8
BASE
  6
CONTINUOUS
 10
-3.508476
 20
0.576539
 30
0.0
 70
    64
  0
VERTEX
  8
BASE
  6
CONTINUOUS
 10
-3.522196
 20
0.576539
 30
0.0
 70
    64
  0
VERTEX
  8
BASE
  6
CONTINUOUS
 10
-3.535916
 20
0.576539
 30
0.0
 70
    64
  0
VERTEX
  8
BASE
  6
CONTINUOUS
 10
-3.549636
 20
0.576539
 30
0.0
 70
    64
  0
VERTEX
  8
BASE
  6
CONTINUOUS
 10
-3.563356
 20
0.576539
 30
0.0
 70
    64
  0
VERTEX
  8
BASE
  6
CONTINUOUS
 10
-3.577076
 20
0.576539
 30
0.0
 70
    64
  0
VERTEX
  8
BASE
  6
CONTINUOUS
 10
-3.590796
 20
0.576539
 30
0.0
 70
    64
  0
VERTEX
  8
BASE
  6
CONTINUOUS
 10
-3.604516
 20
0.576539
 30
0.0
 70
    64
  0
VERTEX
  8
BASE
  6
CONTINUOUS
 10
-3.618236
 20
0.576539
 30
0.0
 70
    64
  0
VERTEX
  8
BASE
  6
CONTINUOUS
 10
-3.631956
 20
0.576539
 30
0.0
 70
    64
  0
VERTEX
  8
BASE
  6
CONTINUOUS
 10
-3.645676
 20
0.576539
 30
0.0
 70
    64
  0
VERTEX
  8
BASE
  6
CONTINUOUS
 10
-3.659396
 20
0.576539
 30
0.0
 70
    64
  0
VERTEX
  8
BASE
  6
CONTINUOUS
 10
-3.673116
 20
0.576539
 30
0.0
 70
    64
  0
VERTEX
  8
BASE
  6
CONTINUOUS
 10
-3.686836
 20
0.576539
 30
0.0
 70
    64
  0
VERTEX
  8
BASE
  6
CONTINUOUS
 10
-3.700556
 20
0.576539
 30
0.0
 70
    64
  0
VERTEX
  8
BASE
  6
CONTINUOUS
 10
-3.714276
 20
0.576539
 30
0.0
 70
    64
  0
VERTEX
  8
BASE
  6
CONTINUOUS
 10
-3.727996
 20
0.576539
 30
0.0
 70
    64
  0
VERTEX
  8
BASE
  6
CONTINUOUS
 10
-3.741716
 20
0.576539
 30
0.0
 70
    64
  0
VERTEX
  8
BASE
  6
CONTINUOUS
 10
-3.755436
 20
0.576539
 30
0.0
 70
    64
  0
VERTEX
  8
BASE
  6
CONTINUOUS
 10
-3.769156
 20
0.576539
 30
0.0
 70
    64
  0
VERTEX
  8
BASE
  6
CONTINUOUS
 10
-3.782876
 20
0.576539
 30
0.0
 70
    64
  0
VERTEX
  8
BASE
  6
CONTINUOUS
 10
-3.796596
 20
0.576539
 30
0.0
 70
    64
  0
VERTEX
  8
BASE
  6
CONTINUOUS
 10
-3.810316
 20
0.576539
 30
0.0
 70
    64
  0
VERTEX
  8
BASE
  6
CONTINUOUS
 10
-3.824036
 20
0.576539
 30
0.0
 70
    64
  0
VERTEX
  8
BASE
  6
CONTINUOUS
 10
-3.837756
 20
0.576539
 30
0.0
 70
    64
  0
VERTEX
  8
BASE
  6
CONTINUOUS
 10
-3.851476
 20
0.576539
 30
0.0
 70
    64
  0
VERTEX
  8
BASE
  6
CONTINUOUS
 10
-3.865196
 20
0.576539
 30
0.0
 70
    64
  0
VERTEX
  8
BASE
  6
CONTINUOUS
 10
-3.878916
 20
0.576539
 30
0.0
 70
    64
  0
VERTEX
  8
BASE
  6
CONTINUOUS
 10
-3.892636
 20
0.576539
 30
0.0
 70
    64
  0
VERTEX
  8
BASE
  6
CONTINUOUS
 10
-3.906356
 20
0.576539
 30
0.0
 70
    64
  0
VERTEX
  8
BASE
  6
CONTINUOUS
 10
-3.920076
 20
0.576539
 30
0.0
 70
    64
  0
VERTEX
  8
BASE
  6
CONTINUOUS
 10
-3.933796
 20
0.576539
 30
0.0
 70
    64
  0
VERTEX
  8
BASE
  6
CONTINUOUS
 10
-3.947516
 20
0.576539
 30
0.0
 70
    64
  0
VERTEX
  8
BASE
  6
CONTINUOUS
 10
-3.961236
 20
0.576539
 30
0.0
 70
    64
  0
VERTEX
  8
BASE
  6
CONTINUOUS
 10
-3.974956
 20
0.576539
 30
0.0
 70
    64
  0
VERTEX
  8
BASE
  6
CONTINUOUS
 10
-3.988676
 20
0.576539
 30
0.0
 70
    64
  0
VERTEX
  8
BASE
  6
CONTINUOUS
 10
-4.002396
 20
0.576539
 30
0.0
 70
    64
  0
VERTEX
  8
BASE
  6
CONTINUOUS
 10
-4.016116
 20
0.576539
 30
0.0
 70
    64
  0
VERTEX
  8
BASE
  6
CONTINUOUS
 10
-4.029836
 20
0.576539
 30
0.0
 70
    64
  0
VERTEX
  8
BASE
  6
CONTINUOUS
 10
-4.043556
 20
0.576539
 30
0.0
 70
    64
  0
VERTEX
  8
BASE
  6
CONTINUOUS
 10
-4.057276
 20
0.576539
 30
0.0
 70
    64
  0
VERTEX
  8
BASE
  6
CONTINUOUS
 10
-4.070996
 20
0.576539
 30
0.0
 70
    64
  0
VERTEX
  8
BASE
  6
CONTINUOUS
 10
-4.084716
 20
0.576539
 30
0.0
 70
    64
  0
VERTEX
  8
BASE
  6
CONTINUOUS
 10
-4.098436
 20
0.576539
 30
0.0
 70
    64
  0
VERTEX
  8
BASE
  6
CONTINUOUS
 10
-4.112156
 20
0.576539
 30
0.0
 70
    64
  0
VERTEX
  8
BASE
  6
CONTINUOUS
 10
-4.125876
 20
0.576539
 30
0.0
 70
    64
  0
VERTEX
  8
BASE
  6
CONTINUOUS
 10
-4.139596
 20
0.576539
 30
0.0
 70
    64
  0
VERTEX
  8
BASE
  6
CONTINUOUS
 10
-4.153316
 20
0.576539
 30
0.0
 70
    64
  0
VERTEX
  8
BASE
  6
CONTINUOUS
 10
-4.167036
 20
0.576539
 30
0.0
 70
    64
  0
VERTEX
  8
BASE
  6
CONTINUOUS
 10
-4.180756
 20
0.576539
 30
0.0
 70
    64
  0
VERTEX
  8
BASE
  6
CONTINUOUS
 10
-4.194476
 20
0.576539
 30
0.0
 70
    64
  0
VERTEX
  8
BASE
  6
CONTINUOUS
 10
-4.208196
 20
0.576539
 30
0.0
 70
    64
  0
VERTEX
  8
BASE
  6
CONTINUOUS
 10
-4.221916
 20
0.576539
 30
0.0
 70
    64
  0
VERTEX
  8
BASE
  6
CONTINUOUS
 10
-4.235636
 20
0.576539
 30
0.0
 70
    64
  0
VERTEX
  8
BASE
  6
CONTINUOUS
 10
-4.249356
 20
0.576539
 30
0.0
 70
    64
  0
VERTEX
  8
BASE
  6
CONTINUOUS
 10
-4.263076
 20
0.576539
 30
0.0
 70
    64
  0
VERTEX
  8
BASE
  6
CONTINUOUS
 10
-4.276796
 20
0.576539
 30
0.0
 70
    64
  0
VERTEX
  8
BASE
  6
CONTINUOUS
 10
-4.290516
 20
0.576539
 30
0.0
 70
    64
  0
VERTEX
  8
BASE
  6
CONTINUOUS
 10
-4.304236
 20
0.576539
 30
0.0
 70
    64
  0
VERTEX
  8
BASE
  6
CONTINUOUS
 10
-4.317956
 20
0.576539
 30
0.0
 70
    64
  0
VERTEX
  8
BASE
  6
CONTINUOUS
 10
-4.331676
 20
0.576539
 30
0.0
 70
    64
  0
VERTEX
  8
BASE
  6
CONTINUOUS
 10
-4.345396
 20
0.576539
 30
0.0
 70
    64
  0
VERTEX
  8
BASE
  6
CONTINUOUS
 10
-4.359116
 20
0.576539
 30
0.0
 70
    64
  0
VERTEX
  8
BASE
  6
CONTINUOUS
 10
-4.372836
 20
0.576539
 30
0.0
 70
    64
  0
VERTEX
  8
BASE
  6
CONTINUOUS
 10
-4.386556
 20
0.576539
 30
0.0
 70
    64
  0
VERTEX
  8
BASE
  6
CONTINUOUS
 10
-4.400276
 20
0.576539
 30
0.0
 70
    64
  0
VERTEX
  8
BASE
  6
CONTINUOUS
 10
-4.413996
 20
0.576539
 30
0.0
 70
    64
  0
VERTEX
  8
BASE
  6
CONTINUOUS
 10
-4.427716
 20
0.576539
 30
0.0
 70
    64
  0
VERTEX
  8
BASE
  6
CONTINUOUS
 10
-4.441436
 20
0.576539
 30
0.0
 70
    64
  0
VERTEX
  8
BASE
  6
CONTINUOUS
 10
-4.455156
 20
0.576539
 30
0.0
 70
    64
  0
VERTEX
  8
BASE
  6
CONTINUOUS
 10
-4.468876
 20
0.576539
 30
0.0
 70
    64
  0
VERTEX
  8
BASE
  6
CONTINUOUS
 10
-4.482596
 20
0.576539
 30
0.0
 70
    64
  0
VERTEX
  8
BASE
  6
CONTINUOUS
 10
-4.496316
 20
0.576539
 30
0.0
 70
    64
  0
VERTEX
  8
BASE
  6
CONTINUOUS
 10
-4.510036
 20
0.576539
 30
0.0
 70
    64
  0
VERTEX
  8
BASE
  6
CONTINUOUS
 10
-4.523756
 20
0.576539
 30
0.0
 70
    64
  0
VERTEX
  8
BASE
  6
CONTINUOUS
 10
-4.537476
 20
0.576539
 30
0.0
 70
    64
  0
VERTEX
  8
BASE
  6
CONTINUOUS
 10
-4.551196
 20
0.576539
 30
0.0
 70
    64
  0
VERTEX
  8
BASE
  6
CONTINUOUS
 10
-4.564916
 20
0.576539
 30
0.0
 70
    64
  0
VERTEX
  8
BASE
  6
CONTINUOUS
 10
-4.578636
 20
0.576539
 30
0.0
 70
    64
  0
VERTEX
  8
BASE
  6
CONTINUOUS
 10
-4.592356
 20
0.576539
 30
0.0
 70
    64
  0
VERTEX
  8
BASE
  6
CONTINUOUS
 10
-4.606076
 20
0.576539
 30
0.0
 70
    64
  0
VERTEX
  8
BASE
  6
CONTINUOUS
 10
-4.619796
 20
0.576539
 30
0.0
 70
    64
  0
VERTEX
  8
BASE
  6
CONTINUOUS
 10
-4.633516
 20
0.576539
 30
0.0
 70
    64
  0
VERTEX
  8
BASE
  6
CONTINUOUS
 10
-4.647236
 20
0.576539
 30
0.0
 70
    64
  0
VERTEX
  8
BASE
  6
CONTINUOUS
 10
-4.660956
 20
0.576539
 30
0.0
 70
    64
  0
VERTEX
  8
BASE
  6
CONTINUOUS
 10
-4.674676
 20
0.576539
 30
0.0
 70
    64
  0
VERTEX
  8
BASE
  6
CONTINUOUS
 10
-4.688396
 20
0.576539
 30
0.0
 70
    64
  0
VERTEX
  8
BASE
  6
CONTINUOUS
 10
-4.702116
 20
0.576539
 30
0.0
 70
    64
  0
VERTEX
  8
BASE
  6
CONTINUOUS
 10
-4.715836
 20
0.576539
 30
0.0
 70
    64
  0
VERTEX
  8
BASE
  6
CONTINUOUS
 10
-4.729556
 20
0.576539
 30
0.0
 70
    64
  0
VERTEX
  8
BASE
  6
CONTINUOUS
 10
-4.743276
 20
0.576539
 30
0.0
 70
    64
  0
VERTEX
  8
BASE
  6
CONTINUOUS
 10
-4.756996
 20
0.576539
 30
0.0
 70
    64
  0
VERTEX
  8
BASE
  6
CONTINUOUS
 10
-4.770716
 20
0.576539
 30
0.0
 70
    64
  0
VERTEX
  8
BASE
  6
CONTINUOUS
 10
-4.784436
 20
0.576539
 30
0.0
 70
    64
  0
VERTEX
  8
BASE
  6
CONTINUOUS
 10
-4.798156
 20
0.576539
 30
0.0
 70
    64
  0
VERTEX
  8
BASE
  6
CONTINUOUS
 10
-4.811876
 20
0.576539
 30
0.0
 70
    64
  0
VERTEX
  8
BASE
  6
CONTINUOUS
 10
-4.825596
 20
0.576539
 30
0.0
 70
    64
  0
VERTEX
  8
BASE
  6
CONTINUOUS
 10
-4.839316
 20
0.576539
 30
0.0
 70
    64
  0
VERTEX
  8
BASE
  6
CONTINUOUS
 10
-4.853036
 20
0.576539
 30
0.0
 70
    64
  0
VERTEX
  8
BASE
  6
CONTINUOUS
 10
-4.866756
 20
0.576539
 30
0.0
 70
    64
  0
VERTEX
  8
BASE
  6
CONTINUOUS
 10
-4.880476
 20
0.576539
 30
0.0
 70
    64
  0
VERTEX
  8
BASE
  6
CONTINUOUS
 10
-4.894196
 20
0.576539
 30
0.0
 70
    64
  0
VERTEX
  8
BASE
  6
CONTINUOUS
 10
-4.907916
 20
0.576539
 30
0.0
 70
    64
  0
VERTEX
  8
BASE
  6
CONTINUOUS
 10
-4.921636
 20
0.576539
 30
0.0
 70
    64
  0
VERTEX
  8
BASE
  6
CONTINUOUS
 10
-4.935356
 20
0.576539
 30
0.0
 70
    64
  0
VERTEX
  8
BASE
  6
CONTINUOUS
 10
-4.949076
 20
0.576539
 30
0.0
 70
    64
  0
VERTEX
  8
BASE
  6
CONTINUOUS
 10
-4.962796
 20
0.576539
 30
0.0
 70
    64
  0
VERTEX
  8
BASE
  6
CONTINUOUS
 10
-4.976516
 20
0.576539
 30
0.0
 70
    64
  0
VERTEX
  8
BASE
  6
CONTINUOUS
 10
-4.990236
 20
0.576539
 30
0.0
 70
    64
  0
VERTEX
  8
BASE
  6
CONTINUOUS
 10
-5.003956
 20
0.576539
 30
0.0
 70
    64
  0
VERTEX
  8
BASE
  6
CONTINUOUS
 10
-5.017676
 20
0.576539
 30
0.0
 70
    64
  0
VERTEX
  8
BASE
  6
CONTINUOUS
 10
-5.031396
 20
0.576539
 30
0.0
 70
    64
  0
VERTEX
  8
BASE
  6
CONTINUOUS
 10
-5.045116
 20
0.576539
 30
0.0
 70
    64
  0
VERTEX
  8
BASE
  6
CONTINUOUS
 10
-5.058836
 20
0.576539
 30
0.0
 70
    64
  0
VERTEX
  8
BASE
  6
CONTINUOUS
 10
-5.072556
 20
0.576539
 30
0.0
 70
    64
  0
VERTEX
  8
BASE
  6
CONTINUOUS
 10
-5.086276
 20
0.576539
 30
0.0
 70
    64
  0
VERTEX
  8
BASE
  6
CONTINUOUS
 10
-5.099996
 20
0.576539
 30
0.0
 70
    64
  0
VERTEX
  8
BASE
  6
CONTINUOUS
 10
-5.113716
 20
0.576539
 30
0.0
 70
    64
  0
VERTEX
  8
BASE
  6
CONTINUOUS
 10
-5.127436
 20
0.576539
 30
0.0
 70
    64
  0
VERTEX
  8
BASE
  6
CONTINUOUS
 10
-5.141156
 20
0.576539
 30
0.0
 70
    64
  0
VERTEX
  8
BASE
  6
CONTINUOUS
 10
-5.154876
 20
0.576539
 30
0.0
 70
    64
  0
VERTEX
  8
BASE
  6
CONTINUOUS
 10
-5.168596
 20
0.576539
 30
0.0
 70
    64
  0
VERTEX
  8
BASE
  6
CONTINUOUS
 10
-5.182316
 20
0.576539
 30
0.0
 70
    64
  0
VERTEX
  8
BASE
  6
CONTINUOUS
 10
-5.196036
 20
0.576539
 30
0.0
 70
    64
  0
VERTEX
  8
BASE
  6
CONTINUOUS
 10
-5.209756
 20
0.576539
 30
0.0
 70
    64
  0
VERTEX
  8
BASE
  6
CONTINUOUS
 10
-5.223476
 20
0.576539
 30
0.0
 70
    64
  0
VERTEX
  8
BASE
  6
CONTINUOUS
 10
-5.237196
 20
0.576539
 30
0.0
 70
    64
  0
VERTEX
  8
BASE
  6
CONTINUOUS
 10
-5.250916
 20
0.576539
 30
0.0
 70
    64
  0
VERTEX
  8
BASE
  6
CONTINUOUS
 10
-5.264636
 20
0.576539
 30
0.0
 70
    64
  0
VERTEX
  8
BASE
  6
CONTINUOUS
 10
-5.278356
 20
0.576539
 30
0.0
 70
    64
  0
VERTEX
  8
BASE
  6
CONTINUOUS
 10
-5.292076
 20
0.576539
 30
0.0
 70
    64
  0
VERTEX
  8
BASE
  6
CONTINUOUS
 10
-5.305796
 20
0.576539
 30
0.0
 70
    64
  0
VERTEX
  8
BASE
  6
CONTINUOUS
 10
-5.319516
 20
0.576539
 30
0.0
 70
    64
  0
VERTEX
  8
BASE
  6
CONTINUOUS
 10
-5.333236
 20
0.576539
 30
0.0
 70
    64
  0
VERTEX
  8
BASE
  6
CONTINUOUS
 10
-5.346956
 20
0.576539
 30
0.0
 70
    64
  0
VERTEX
  8
BASE
  6
CONTINUOUS
 10
-5.360676
 20
0.576539
 30
0.0
 70
    64
  0
VERTEX
  8
BASE
  6
CONTINUOUS
 10
-5.374396
 20
0.576539
 30
0.0
 70
    64
  0
VERTEX
  8
BASE
  6
CONTINUOUS
 10
-5.388116
 20
0.576539
 30
0.0
 70
    64
  0
VERTEX
  8
BASE
  6
CONTINUOUS
 10
-5.401836
 20
0.576539
 30
0.0
 70
    64
  0
VERTEX
  8
BASE
  6
CONTINUOUS
 10
-5.415556
 20
0.576539
 30
0.0
 70
    64
  0
VERTEX
  8
BASE
  6
CONTINUOUS
 10
-5.429276
 20
0.576539
 30
0.0
 70
    64
  0
VERTEX
  8
BASE
  6
CONTINUOUS
 10
-5.442996
 20
0.576539
 30
0.0
 70
    64
  0
VERTEX
  8
BASE
  6
CONTINUOUS
 10
-5.456716
 20
0.576539
 30
0.0
 70
    64
  0
VERTEX
  8
BASE
  6
CONTINUOUS
 10
-5.470436
 20
0.576539
 30
0.0
 70
    64
  0
VERTEX
  8
BASE
  6
CONTINUOUS
 10
-5.484156
 20
0.576539
 30
0.0
 70
    64
  0
VERTEX
  8
BASE
  6
CONTINUOUS
 10
-5.497876
 20
0.576539
 30
0.0
 70
    64
  0
VERTEX
  8
BASE
  6
CONTINUOUS
 10
-5.511596
 20
0.576539
 30
0.0
 70
    64
  0
VERTEX
  8
BASE
  6
CONTINUOUS
 10
-5.525316
 20
0.576539
 30
0.0
 70
    64
  0
VERTEX
  8
BASE
  6
CONTINUOUS
 10
-5.539036
 20
0.576539
 30
0.0
 70
    64
  0
VERTEX
  8
BASE
  6
CONTINUOUS
 10
-5.552756
 20
0.576539
 30
0.0
 70
    64
  0
VERTEX
  8
BASE
  6
CONTINUOUS
 10
-5.566476
 20
0.576539
 30
0.0
 70
    64
  0
VERTEX
  8
BASE
  6
CONTINUOUS
 10
-5.580196
 20
0.576539
 30
0.0
 70
    64
  0
VERTEX
  8
BASE
  6
CONTINUOUS
 10
-5.593916
 20
0.576539
 30
0.0
 70
    64
  0
VERTEX
  8
BASE
  6
CONTINUOUS
 10
-5.607636
 20
0.576539
 30
0.0
 70
    64
  0
VERTEX
  8
BASE
  6
CONTINUOUS
 10
-5.621356
 20
0.576539
 30
0.0
 70
    64
  0
VERTEX
  8
BASE
  6
CONTINUOUS
 10
-5.635076
 20
0.576539
 30
0.0
 70
    64
  0
VERTEX
  8
BASE
  6
CONTINUOUS
 10
-5.648796
 20
0.576539
 30
0.0
 70
    64
  0
VERTEX
  8
BASE
  6
CONTINUOUS
 10
-5.662516
 20
0.576539
 30
0.0
 70
    64
  0
VERTEX
  8
BASE
  6
CONTINUOUS
 10
-5.676236
 20
0.576539
 30
0.0
 70
    64
  0
VERTEX
  8
BASE
  6
CONTINUOUS
 10
-5.689956
 20
0.576539
 30
0.0
 70
    64
  0
VERTEX
  8
BASE
  6
CONTINUOUS
 10
-5.703676
 20
0.576539
 30
0.0
 70
    64
  0
VERTEX
  8
BASE
  6
CONTINUOUS
 10
-5.717396
 20
0.576539
 30
0.0
 70
    64
  0
VERTEX
  8
BASE
  6
CONTINUOUS
 10
-5.731116
 20
0.576539
 30
0.0
 70
    64
  0
VERTEX
  8
BASE
  6
CONTINUOUS
 10
-5.744836
 20
0.576539
 30
0.0
 70
    64
  0
VERTEX
  8
BASE
  6
CONTINUOUS
 10
-5.758556
 20
0.576539
 30
0.0
 70
    64
  0
VERTEX
  8
BASE
  6
CONTINUOUS
 10
-5.772276
 20
0.576539
 30
0.0
 70
    64
  0
VERTEX
  8
BASE
  6
CONTINUOUS
 10
-5.785996
 20
0.576539
 30
0.0
 70
    64
  0
VERTEX
  8
BASE
  6
CONTINUOUS
 10
-5.799716
 20
0.576539
 30
0.0
 70
    64
  0
VERTEX
  8
BASE
  6
CONTINUOUS
 10
-5.813436
 20
0.576539
 30
0.0
 70
    64
  0
VERTEX
  8
BASE
  6
CONTINUOUS
 10
-5.827156
 20
0.576539
 30
0.0
 70
    64
  0
VERTEX
  8
BASE
  6
CONTINUOUS
 10
-5.840876
 20
0.576539
 30
0.0
 70
    64
  0
VERTEX
  8
BASE
  6
CONTINUOUS
 10
-5.854596
 20
0.576539
 30
0.0
 70
    64
  0
VERTEX
  8
BASE
  6
CONTINUOUS
 10
-5.868316
 20
0.576539
 30
0.0
 70
    64
  0
VERTEX
  8
BASE
  6
CONTINUOUS
 10
-5.882036
 20
0.576539
 30
0.0
 70
    64
  0
VERTEX
  8
BASE
  6
CONTINUOUS
 10
-5.895756
 20
0.576539
 30
0.0
 70
    64
  0
VERTEX
  8
BASE
  6
CONTINUOUS
 10
-5.909476
 20
0.576539
 30
0.0
 70
    64
  0
VERTEX
  8
BASE
  6
CONTINUOUS
 10
-5.923196
 20
0.576539
 30
0.0
 70
    64
  0
VERTEX
  8
BASE
  6
CONTINUOUS
 10
-5.936916
 20
0.576539
 30
0.0
 70
    64
  0
VERTEX
  8
BASE
  6
CONTINUOUS
 10
-5.950636
 20
0.576539
 30
0.0
 70
    64
  0
VERTEX
  8
BASE
  6
CONTINUOUS
 10
-5.964356
 20
0.576539
 30
0.0
 70
    64
  0
VERTEX
  8
BASE
  6
CONTINUOUS
 10
-5.978076
 20
0.576539
 30
0.0
 70
    64
  0
VERTEX
  8
BASE
  6
CONTINUOUS
 10
-5.991796
 20
0.576539
 30
0.0
 70
    64
  0
VERTEX
  8
BASE
  6
CONTINUOUS
 10
-6.005516
 20
0.576539
 30
0.0
 70
    64
  0
VERTEX
  8
BASE
  6
CONTINUOUS
 10
-6.019236
 20
0.576539
 30
0.0
 70
    64
  0
VERTEX
  8
BASE
  6
CONTINUOUS
 10
-6.032956
 20
0.576539
 30
0.0
 70
    64
  0
VERTEX
  8
BASE
  6
CONTINUOUS
 10
-6.046676
 20
0.576539
 30
0.0
 70
    64
  0
VERTEX
  8
BASE
  6
CONTINUOUS
 10
-6.060396
 20
0.576539
 30
0.0
 70
    64
  0
VERTEX
  8
BASE
  6
CONTINUOUS
 10
-6.074116
 20
0.576539
 30
0.0
 70
    64
  0
VERTEX
  8
BASE
  6
CONTINUOUS
 10
-6.087836
 20
0.576539
 30
0.0
 70
    64
  0
VERTEX
  8
BASE
  6
CONTINUOUS
 10
-6.101556
 20
0.576539
 30
0.0
 70
    64
  0
VERTEX
  8
BASE
  6
CONTINUOUS
 10
-6.115276
 20
0.576539
 30
0.0
 70
    64
  0
VERTEX
  8
BASE
  6
CONTINUOUS
 10
-6.128996
 20
0.576539
 30
0.0
 70
    64
  0
VERTEX
  8
BASE
  6
CONTINUOUS
 10
-6.142716
 20
0.576539
 30
0.0
 70
    64
  0
VERTEX
  8
BASE
  6
CONTINUOUS
 10
-6.156436
 20
0.576539
 30
0.0
 70
    64
  0
VERTEX
  8
BASE
  6
CONTINUOUS
 10
-6.170156
 20
0.576539
 30
0.0
 70
    64
  0
VERTEX
  8
BASE
  6
CONTINUOUS
 10
-6.183876
 20
0.576539
 30
0.0
 70
    64
  0
VERTEX
  8
BASE
  6
CONTINUOUS
 10
-6.197596
 20
0.576539
 30
0.0
 70
    64
  0
VERTEX
  8
BASE
  6
CONTINUOUS
 10
-6.211316
 20
0.576539
 30
0.0
 70
    64
  0
VERTEX
  8
BASE
  6
CONTINUOUS
 10
-6.225036
 20
0.576539
 30
0.0
 70
    64
  0
VERTEX
  8
BASE
  6
CONTINUOUS
 10
-6.238756
 20
0.576539
 30
0.0
 70
    64
  0
VERTEX
  8
BASE
  6
CONTINUOUS
 10
-6.252476
 20
0.576539
 30
0.0
 70
    64
  0
VERTEX
  8
BASE
  6
CONTINUOUS
 10
-6.266196
 20
0.576539
 30
0.0
 70
    64
  0
VERTEX
  8
BASE
  6
CONTINUOUS
 10
-6.279916
 20
0.576539
 30
0.0
 70
    64
  0
VERTEX
  8
BASE
  6
CONTINUOUS
 10
-6.293636
 20
0.576539
 30
0.0
 70
    64
  0
VERTEX
  8
BASE
  6
CONTINUOUS
 10
-6.307356
 20
0.576539
 30
0.0
 70
    64
  0
VERTEX
  8
BASE
  6
CONTINUOUS
 10
-6.321076
 20
0.576539
 30
0.0
 70
    64
  0
VERTEX
  8
BASE
  6
CONTINUOUS
 10
-6.334796
 20
0.576539
 30
0.0
 70
    64
  0
VERTEX
  8
BASE
  6
CONTINUOUS
 10
-6.348516
 20
0.576539
 30
0.0
 70
    64
  0
VERTEX
  8
BASE
  6
CONTINUOUS
 10
-6.362236
 20
0.576539
 30
0.0
 70
    64
  0
VERTEX
  8
BASE
  6
CONTINUOUS
 10
-6.375956
 20
0.576539
 30
0.0
 70
    64
  0
VERTEX
  8
BASE
  6
CONTINUOUS
 10
-6.389676
 20
0.576539
 30
0.0
 70
    64
  0
VERTEX
  8
BASE
  6
CONTINUOUS
 10
-6.403396
 20
0.576539
 30
0.0
 70
    64
  0
VERTEX
  8
BASE
  6
CONTINUOUS
 10
-6.417116
 20
0.576539
 30
0.0
 70
    64
  0
VERTEX
  8
BASE
  6
CONTINUOUS
 10
-6.430836
 20
0.576539
 30
0.0
 70
    64
  0
VERTEX
  8
BASE
  6
CONTINUOUS
 10
-6.444556
 20
0.576539
 30
0.0
 70
    64
  0
VERTEX
  8
BASE
  6
CONTINUOUS
 10
-6.458276
 20
0.576539
 30
0.0
 70
    64
  0
VERTEX
  8
BASE
  6
CONTINUOUS
 10
-6.471996
 20
0.576539
 30
0.0
 70
    64
  0
VERTEX
  8
BASE
  6
CONTINUOUS
 10
-6.485716
 20
0.576539
 30
0.0
 70
    64
  0
VERTEX
  8
BASE
  6
CONTINUOUS
 10
-6.499436
 20
0.576539
 30
0.0
 70
    64
  0
VERTEX
  8
BASE
  6
CONTINUOUS
 10
-3.069436
 20
-0.403461
 30
0.0
 70
    64
  0
VERTEX
  8
BASE
  6
CONTINUOUS
 10
-3.083156
 20
-0.403461
 30
0.0
 70
    64
  0
VERTEX
  8
BASE
  6
CONTINUOUS
 10
-3.096876
 20
-0.403461
 30
0.0
 70
    64
  0
VERTEX
  8
BASE
  6
CONTINUOUS
 10
-3.110596
 20
-0.403461
 30
0.0
 70
    64
  0
VERTEX
  8
BASE
  6
CONTINUOUS
 10
-3.124316
 20
-0.403461
 30
0.0
 70
    64
  0
VERTEX
  8
BASE
  6
CONTINUOUS
 10
-3.138036
 20
-0.403461
 30
0.0
 70
    64
  0
VERTEX
  8
BASE
  6
CONTINUOUS
 10
-3.151756
 20
-0.403461
 30
0.0
 70
    64
  0
VERTEX
  8
BASE
  6
CONTINUOUS
 10
-3.165476
 20
-0.403461
 30
0.0
 70
    64
  0
VERTEX
  8
BASE
  6
CONTINUOUS
 10
-3.179196
 20
-0.403461
 30
0.0
 70
    64
  0
VERTEX
  8
BASE
  6
CONTINUOUS
 10
-3.192916
 20
-0.403461
 30
0.0
 70
    64
  0
VERTEX
  8
BASE
  6
CONTINUOUS
 10
-3.206636
 20
-0.403461
 30
0.0
 70
    64
  0
VERTEX
  8
BASE
  6
CONTINUOUS
 10
-3.220356
 20
-0.403461
 30
0.0
 70
    64
  0
VERTEX
  8
BASE
  6
CONTINUOUS
 10
-3.234076
 20
-0.403461
 30
0.0
 70
    64
  0
VERTEX
  8
BASE
  6
CONTINUOUS
 10
-3.247796
 20
-0.403461
 30
0.0
 70
    64
  0
VERTEX
  8
BASE
  6
CONTINUOUS
 10
-3.261516
 20
-0.403461
 30
0.0
 70
    64
  0
VERTEX
  8
BASE
  6
CONTINUOUS
 10
-3.275236
 20
-0.403461
 30
0.0
 70
    64
  0
VERTEX
  8
BASE
  6
CONTINUOUS
 10
-3.288956
 20
-0.403461
 30
0.0
 70
    64
  0
VERTEX
  8
BASE
  6
CONTINUOUS
 10
-3.302676
 20
-0.403461
 30
0.0
 70
    64
  0
VERTEX
  8
BASE
  6
CONTINUOUS
 10
-3.316396
 20
-0.403461
 30
0.0
 70
    64
  0
VERTEX
  8
BASE
  6
CONTINUOUS
 10
-3.330116
 20
-0.403461
 30
0.0
 70
    64
  0
VERTEX
  8
BASE
  6
CONTINUOUS
 10
-3.343836
 20
-0.403461
 30
0.0
 70
    64
  0
VERTEX
  8
BASE
  6
CONTINUOUS
 10
-3.357556
 20
-0.403461
 30
0.0
 70
    64
  0
VERTEX
  8
BASE
  6
CONTINUOUS
 10
-3.371276
 20
-0.403461
 30
0.0
 70
    64
  0
VERTEX
  8
BASE
  6
CONTINUOUS
 10
-3.384996
 20
-0.403461
 30
0.0
 70
    64
  0
VERTEX
  8
BASE
  6
CONTINUOUS
 10
-3.398716
 20
-0.403461
 30
0.0
 70
    64
  0
VERTEX
  8
BASE
  6
CONTINUOUS
 10
-3.412436
 20
-0.403461
 30
0.0
 70
    64
  0
VERTEX
  8
BASE
  6
CONTINUOUS
 10
-3.426156
 20
-0.403461
 30
0.0
 70
    64
  0
VERTEX
  8
BASE
  6
CONTINUOUS
 10
-3.439876
 20
-0.403461
 30
0.0
 70
    64
  0
VERTEX
  8
BASE
  6
CONTINUOUS
 10
-3.453596
 20
-0.403461
 30
0.0
 70
    64
  0
VERTEX
  8
BASE
  6
CONTINUOUS
 10
-3.467316
 20
-0.403461
 30
0.0
 70
    64
  0
VERTEX
  8
BASE
  6
CONTINUOUS
 10
-3.481036
 20
-0.403461
 30
0.0
 70
    64
  0
VERTEX
  8
BASE
  6
CONTINUOUS
 10
-3.494756
 20
-0.403461
 30
0.0
 70
    64
  0
VERTEX
  8
BASE
  6
CONTINUOUS
 10
-3.508476
 20
-0.403461
 30
0.0
 70
    64
  0
VERTEX
  8
BASE
  6
CONTINUOUS
 10
-3.522196
 20
-0.403461
 30
0.0
 70
    64
  0
VERTEX
  8
BASE
  6
CONTINUOUS
 10
-3.535916
 20
-0.403461
 30
0.0
 70
    64
  0
VERTEX
  8
BASE
  6
CONTINUOUS
 10
-3.549636
 20
-0.403461
 30
0.0
 70
    64
  0
VERTEX
  8
BASE
  6
CONTINUOUS
 10
-3.563356
 20
-0.403461
 30
0.0
 70
    64
  0
VERTEX
  8
BASE
  6
CONTINUOUS
 10
-3.577076
 20
-0.403461
 30
0.0
 70
    64
  0
VERTEX
  8
BASE
  6
CONTINUOUS
 10
-3.590796
 20
-0.403461
 30
0.0
 70
    64
  0
VERTEX
  8
BASE
  6
CONTINUOUS
 10
-3.604516
 20
-0.403461
 30
0.0
 70
    64
  0
VERTEX
  8
BASE
  6
CONTINUOUS
 10
-3.618236
 20
-0.403461
 30
0.0
 70
    64
  0
VERTEX
  8
BASE
  6
CONTINUOUS
 10
-3.631956
 20
-0.403461
 30
0.0
 70
    64
  0
VERTEX
  8
BASE
  6
CONTINUOUS
 10
-3.645676
 20
-0.403461
 30
0.0
 70
    64
  0
VERTEX
  8
BASE
  6
CONTINUOUS
 10
-3.659396
 20
-0.403461
 30
0.0
 70
    64
  0
VERTEX
  8
BASE
  6
CONTINUOUS
 10
-3.673116
 20
-0.403461
 30
0.0
 70
    64
  0
VERTEX
  8
BASE
  6
CONTINUOUS
 10
-3.686836
 20
-0.403461
 30
0.0
 70
    64
  0
VERTEX
  8
BASE
  6
CONTINUOUS
 10
-3.700556
 20
-0.403461
 30
0.0
 70
    64
  0
VERTEX
  8
BASE
  6
CONTINUOUS
 10
-3.714276
 20
-0.403461
 30
0.0
 70
    64
  0
VERTEX
  8
BASE
  6
CONTINUOUS
 10
-3.727996
 20
-0.403461
 30
0.0
 70
    64
  0
VERTEX
  8
BASE
  6
CONTINUOUS
 10
-3.741716
 20
-0.403461
 30
0.0
 70
    64
  0
VERTEX
  8
BASE
  6
CONTINUOUS
 10
-3.755436
 20
-0.403461
 30
0.0
 70
    64
  0
VERTEX
  8
BASE
  6
CONTINUOUS
 10
-3.769156
 20
-0.403461
 30
0.0
 70
    64
  0
VERTEX
  8
BASE
  6
CONTINUOUS
 10
-3.782876
 20
-0.403461
 30
0.0
 70
    64
  0
VERTEX
  8
BASE
  6
CONTINUOUS
 10
-3.796596
 20
-0.403461
 30
0.0
 70
    64
  0
VERTEX
  8
BASE
  6
CONTINUOUS
 10
-3.810316
 20
-0.403461
 30
0.0
 70
    64
  0
VERTEX
  8
BASE
  6
CONTINUOUS
 10
-3.824036
 20
-0.403461
 30
0.0
 70
    64
  0
VERTEX
  8
BASE
  6
CONTINUOUS
 10
-3.837756
 20
-0.403461
 30
0.0
 70
    64
  0
VERTEX
  8
BASE
  6
CONTINUOUS
 10
-3.851476
 20
-0.403461
 30
0.0
 70
    64
  0
VERTEX
  8
BASE
  6
CONTINUOUS
 10
-3.865196
 20
-0.403461
 30
0.0
 70
    64
  0
VERTEX
  8
BASE
  6
CONTINUOUS
 10
-3.878916
 20
-0.403461
 30
0.0
 70
    64
  0
VERTEX
  8
BASE
  6
CONTINUOUS
 10
-3.892636
 20
-0.403461
 30
0.0
 70
    64
  0
VERTEX
  8
BASE
  6
CONTINUOUS
 10
-3.906356
 20
-0.403461
 30
0.0
 70
    64
  0
VERTEX
  8
BASE
  6
CONTINUOUS
 10
-3.920076
 20
-0.403461
 30
0.0
 70
    64
  0
VERTEX
  8
BASE
  6
CONTINUOUS
 10
-3.933796
 20
-0.403461
 30
0.0
 70
    64
  0
VERTEX
  8
BASE
  6
CONTINUOUS
 10
-3.947516
 20
-0.403461
 30
0.0
 70
    64
  0
VERTEX
  8
BASE
  6
CONTINUOUS
 10
-3.961236
 20
-0.403461
 30
0.0
 70
    64
  0
VERTEX
  8
BASE
  6
CONTINUOUS
 10
-3.974956
 20
-0.403461
 30
0.0
 70
    64
  0
VERTEX
  8
BASE
  6
CONTINUOUS
 10
-3.988676
 20
-0.403461
 30
0.0
 70
    64
  0
VERTEX
  8
BASE
  6
CONTINUOUS
 10
-4.002396
 20
-0.403461
 30
0.0
 70
    64
  0
VERTEX
  8
BASE
  6
CONTINUOUS
 10
-4.016116
 20
-0.403461
 30
0.0
 70
    64
  0
VERTEX
  8
BASE
  6
CONTINUOUS
 10
-4.029836
 20
-0.403461
 30
0.0
 70
    64
  0
VERTEX
  8
BASE
  6
CONTINUOUS
 10
-4.043556
 20
-0.403461
 30
0.0
 70
    64
  0
VERTEX
  8
BASE
  6
CONTINUOUS
 10
-4.057276
 20
-0.403461
 30
0.0
 70
    64
  0
VERTEX
  8
BASE
  6
CONTINUOUS
 10
-4.070996
 20
-0.403461
 30
0.0
 70
    64
  0
VERTEX
  8
BASE
  6
CONTINUOUS
 10
-4.084716
 20
-0.403461
 30
0.0
 70
    64
  0
VERTEX
  8
BASE
  6
CONTINUOUS
 10
-4.098436
 20
-0.403461
 30
0.0
 70
    64
  0
VERTEX
  8
BASE
  6
CONTINUOUS
 10
-4.112156
 20
-0.403461
 30
0.0
 70
    64
  0
VERTEX
  8
BASE
  6
CONTINUOUS
 10
-4.125876
 20
-0.403461
 30
0.0
 70
    64
  0
VERTEX
  8
BASE
  6
CONTINUOUS
 10
-4.139596
 20
-0.403461
 30
0.0
 70
    64
  0
VERTEX
  8
BASE
  6
CONTINUOUS
 10
-4.153316
 20
-0.403461
 30
0.0
 70
    64
  0
VERTEX
  8
BASE
  6
CONTINUOUS
 10
-4.167036
 20
-0.403461
 30
0.0
 70
    64
  0
VERTEX
  8
BASE
  6
CONTINUOUS
 10
-4.180756
 20
-0.403461
 30
0.0
 70
    64
  0
VERTEX
  8
BASE
  6
CONTINUOUS
 10
-4.194476
 20
-0.403461
 30
0.0
 70
    64
  0
VERTEX
  8
BASE
  6
CONTINUOUS
 10
-4.208196
 20
-0.403461
 30
0.0
 70
    64
  0
VERTEX
  8
BASE
  6
CONTINUOUS
 10
-4.221916
 20
-0.403461
 30
0.0
 70
    64
  0
VERTEX
  8
BASE
  6
CONTINUOUS
 10
-4.235636
 20
-0.403461
 30
0.0
 70
    64
  0
VERTEX
  8
BASE
  6
CONTINUOUS
 10
-4.249356
 20
-0.403461
 30
0.0
 70
    64
  0
VERTEX
  8
BASE
  6
CONTINUOUS
 10
-4.263076
 20
-0.403461
 30
0.0
 70
    64
  0
VERTEX
  8
BASE
  6
CONTINUOUS
 10
-4.276796
 20
-0.403461
 30
0.0
 70
    64
  0
VERTEX
  8
BASE
  6
CONTINUOUS
 10
-4.290516
 20
-0.403461
 30
0.0
 70
    64
  0
VERTEX
  8
BASE
  6
CONTINUOUS
 10
-4.304236
 20
-0.403461
 30
0.0
 70
    64
  0
VERTEX
  8
BASE
  6
CONTINUOUS
 10
-4.317956
 20
-0.403461
 30
0.0
 70
    64
  0
VERTEX
  8
BASE
  6
CONTINUOUS
 10
-4.331676
 20
-0.403461
 30
0.0
 70
    64
  0
VERTEX
  8
BASE
  6
CONTINUOUS
 10
-4.345396
 20
-0.403461
 30
0.0
 70
    64
  0
VERTEX
  8
BASE
  6
CONTINUOUS
 10
-4.359116
 20
-0.403461
 30
0.0
 70
    64
  0
VERTEX
  8
BASE
  6
CONTINUOUS
 10
-4.372836
 20
-0.403461
 30
0.0
 70
    64
  0
VERTEX
  8
BASE
  6
CONTINUOUS
 10
-4.386556
 20
-0.403461
 30
0.0
 70
    64
  0
VERTEX
  8
BASE
  6
CONTINUOUS
 10
-4.400276
 20
-0.403461
 30
0.0
 70
    64
  0
VERTEX
  8
BASE
  6
CONTINUOUS
 10
-4.413996
 20
-0.403461
 30
0.0
 70
    64
  0
VERTEX
  8
BASE
  6
CONTINUOUS
 10
-4.427716
 20
-0.403461
 30
0.0
 70
    64
  0
VERTEX
  8
BASE
  6
CONTINUOUS
 10
-4.441436
 20
-0.403461
 30
0.0
 70
    64
  0
VERTEX
  8
BASE
  6
CONTINUOUS
 10
-4.455156
 20
-0.403461
 30
0.0
 70
    64
  0
VERTEX
  8
BASE
  6
CONTINUOUS
 10
-4.468876
 20
-0.403461
 30
0.0
 70
    64
  0
VERTEX
  8
BASE
  6
CONTINUOUS
 10
-4.482596
 20
-0.403461
 30
0.0
 70
    64
  0
VERTEX
  8
BASE
  6
CONTINUOUS
 10
-4.496316
 20
-0.403461
 30
0.0
 70
    64
  0
VERTEX
  8
BASE
  6
CONTINUOUS
 10
-4.510036
 20
-0.403461
 30
0.0
 70
    64
  0
VERTEX
  8
BASE
  6
CONTINUOUS
 10
-4.523756
 20
-0.403461
 30
0.0
 70
    64
  0
VERTEX
  8
BASE
  6
CONTINUOUS
 10
-4.537476
 20
-0.403461
 30
0.0
 70
    64
  0
VERTEX
  8
BASE
  6
CONTINUOUS
 10
-4.551196
 20
-0.403461
 30
0.0
 70
    64
  0
VERTEX
  8
BASE
  6
CONTINUOUS
 10
-4.564916
 20
-0.403461
 30
0.0
 70
    64
  0
VERTEX
  8
BASE
  6
CONTINUOUS
 10
-4.578636
 20
-0.403461
 30
0.0
 70
    64
  0
VERTEX
  8
BASE
  6
CONTINUOUS
 10
-4.592356
 20
-0.403461
 30
0.0
 70
    64
  0
VERTEX
  8
BASE
  6
CONTINUOUS
 10
-4.606076
 20
-0.403461
 30
0.0
 70
    64
  0
VERTEX
  8
BASE
  6
CONTINUOUS
 10
-4.619796
 20
-0.403461
 30
0.0
 70
    64
  0
VERTEX
  8
BASE
  6
CONTINUOUS
 10
-4.633516
 20
-0.403461
 30
0.0
 70
    64
  0
VERTEX
  8
BASE
  6
CONTINUOUS
 10
-4.647236
 20
-0.403461
 30
0.0
 70
    64
  0
VERTEX
  8
BASE
  6
CONTINUOUS
 10
-4.660956
 20
-0.403461
 30
0.0
 70
    64
  0
VERTEX
  8
BASE
  6
CONTINUOUS
 10
-4.674676
 20
-0.403461
 30
0.0
 70
    64
  0
VERTEX
  8
BASE
  6
CONTINUOUS
 10
-4.688396
 20
-0.403461
 30
0.0
 70
    64
  0
VERTEX
  8
BASE
  6
CONTINUOUS
 10
-4.702116
 20
-0.403461
 30
0.0
 70
    64
  0
VERTEX
  8
BASE
  6
CONTINUOUS
 10
-4.715836
 20
-0.403461
 30
0.0
 70
    64
  0
VERTEX
  8
BASE
  6
CONTINUOUS
 10
-4.729556
 20
-0.403461
 30
0.0
 70
    64
  0
VERTEX
  8
BASE
  6
CONTINUOUS
 10
-4.743276
 20
-0.403461
 30
0.0
 70
    64
  0
VERTEX
  8
BASE
  6
CONTINUOUS
 10
-4.756996
 20
-0.403461
 30
0.0
 70
    64
  0
VERTEX
  8
BASE
  6
CONTINUOUS
 10
-4.770716
 20
-0.403461
 30
0.0
 70
    64
  0
VERTEX
  8
BASE
  6
CONTINUOUS
 10
-4.784436
 20
-0.403461
 30
0.0
 70
    64
  0
VERTEX
  8
BASE
  6
CONTINUOUS
 10
-4.798156
 20
-0.403461
 30
0.0
 70
    64
  0
VERTEX
  8
BASE
  6
CONTINUOUS
 10
-4.811876
 20
-0.403461
 30
0.0
 70
    64
  0
VERTEX
  8
BASE
  6
CONTINUOUS
 10
-4.825596
 20
-0.403461
 30
0.0
 70
    64
  0
VERTEX
  8
BASE
  6
CONTINUOUS
 10
-4.839316
 20
-0.403461
 30
0.0
 70
    64
  0
VERTEX
  8
BASE
  6
CONTINUOUS
 10
-4.853036
 20
-0.403461
 30
0.0
 70
    64
  0
VERTEX
  8
BASE
  6
CONTINUOUS
 10
-4.866756
 20
-0.403461
 30
0.0
 70
    64
  0
VERTEX
  8
BASE
  6
CONTINUOUS
 10
-4.880476
 20
-0.403461
 30
0.0
 70
    64
  0
VERTEX
  8
BASE
  6
CONTINUOUS
 10
-4.894196
 20
-0.403461
 30
0.0
 70
    64
  0
VERTEX
  8
BASE
  6
CONTINUOUS
 10
-4.907916
 20
-0.403461
 30
0.0
 70
    64
  0
VERTEX
  8
BASE
  6
CONTINUOUS
 10
-4.921636
 20
-0.403461
 30
0.0
 70
    64
  0
VERTEX
  8
BASE
  6
CONTINUOUS
 10
-4.935356
 20
-0.403461
 30
0.0
 70
    64
  0
VERTEX
  8
BASE
  6
CONTINUOUS
 10
-4.949076
 20
-0.403461
 30
0.0
 70
    64
  0
VERTEX
  8
BASE
  6
CONTINUOUS
 10
-4.962796
 20
-0.403461
 30
0.0
 70
    64
  0
VERTEX
  8
BASE
  6
CONTINUOUS
 10
-4.976516
 20
-0.403461
 30
0.0
 70
    64
  0
VERTEX
  8
BASE
  6
CONTINUOUS
 10
-4.990236
 20
-0.403461
 30
0.0
 70
    64
  0
VERTEX
  8
BASE
  6
CONTINUOUS
 10
-5.003956
 20
-0.403461
 30
0.0
 70
    64
  0
VERTEX
  8
BASE
  6
CONTINUOUS
 10
-5.017676
 20
-0.403461
 30
0.0
 70
    64
  0
VERTEX
  8
BASE
  6
CONTINUOUS
 10
-5.031396
 20
-0.403461
 30
0.0
 70
    64
  0
VERTEX
  8
BASE
  6
CONTINUOUS
 10
-5.045116
 20
-0.403461
 30
0.0
 70
    64
  0
VERTEX
  8
BASE
  6
CONTINUOUS
 10
-5.058836
 20
-0.403461
 30
0.0
 70
    64
  0
VERTEX
  8
BASE
  6
CONTINUOUS
 10
-5.072556
 20
-0.403461
 30
0.0
 70
    64
  0
VERTEX
  8
BASE
  6
CONTINUOUS
 10
-5.086276
 20
-0.403461
 30
0.0
 70
    64
  0
VERTEX
  8
BASE
  6
CONTINUOUS
 10
-5.099996
 20
-0.403461
 30
0.0
 70
    64
  0
VERTEX
  8
BASE
  6
CONTINUOUS
 10
-5.113716
 20
-0.403461
 30
0.0
 70
    64
  0
VERTEX
  8
BASE
  6
CONTINUOUS
 10
-5.127436
 20
-0.403461
 30
0.0
 70
    64
  0
VERTEX
  8
BASE
  6
CONTINUOUS
 10
-5.141156
 20
-0.403461
 30
0.0
 70
    64
  0
VERTEX
  8
BASE
  6
CONTINUOUS
 10
-5.154876
 20
-0.403461
 30
0.0
 70
    64
  0
VERTEX
  8
BASE
  6
CONTINUOUS
 10
-5.168596
 20
-0.403461
 30
0.0
 70
    64
  0
VERTEX
  8
BASE
  6
CONTINUOUS
 10
-5.182316
 20
-0.403461
 30
0.0
 70
    64
  0
VERTEX
  8
BASE
  6
CONTINUOUS
 10
-5.196036
 20
-0.403461
 30
0.0
 70
    64
  0
VERTEX
  8
BASE
  6
CONTINUOUS
 10
-5.209756
 20
-0.403461
 30
0.0
 70
    64
  0
VERTEX
  8
BASE
  6
CONTINUOUS
 10
-5.223476
 20
-0.403461
 30
0.0
 70
    64
  0
VERTEX
  8
BASE
  6
CONTINUOUS
 10
-5.237196
 20
-0.403461
 30
0.0
 70
    64
  0
VERTEX
  8
BASE
  6
CONTINUOUS
 10
-5.250916
 20
-0.403461
 30
0.0
 70
    64
  0
VERTEX
  8
BASE
  6
CONTINUOUS
 10
-5.264636
 20
-0.403461
 30
0.0
 70
    64
  0
VERTEX
  8
BASE
  6
CONTINUOUS
 10
-5.278356
 20
-0.403461
 30
0.0
 70
    64
  0
VERTEX
  8
BASE
  6
CONTINUOUS
 10
-5.292076
 20
-0.403461
 30
0.0
 70
    64
  0
VERTEX
  8
BASE
  6
CONTINUOUS
 10
-5.305796
 20
-0.403461
 30
0.0
 70
    64
  0
VERTEX
  8
BASE
  6
CONTINUOUS
 10
-5.319516
 20
-0.403461
 30
0.0
 70
    64
  0
VERTEX
  8
BASE
  6
CONTINUOUS
 10
-5.333236
 20
-0.403461
 30
0.0
 70
    64
  0
VERTEX
  8
BASE
  6
CONTINUOUS
 10
-5.346956
 20
-0.403461
 30
0.0
 70
    64
  0
VERTEX
  8
BASE
  6
CONTINUOUS
 10
-5.360676
 20
-0.403461
 30
0.0
 70
    64
  0
VERTEX
  8
BASE
  6
CONTINUOUS
 10
-5.374396
 20
-0.403461
 30
0.0
 70
    64
  0
VERTEX
  8
BASE
  6
CONTINUOUS
 10
-5.388116
 20
-0.403461
 30
0.0
 70
    64
  0
VERTEX
  8
BASE
  6
CONTINUOUS
 10
-5.401836
 20
-0.403461
 30
0.0
 70
    64
  0
VERTEX
  8
BASE
  6
CONTINUOUS
 10
-5.415556
 20
-0.403461
 30
0.0
 70
    64
  0
VERTEX
  8
BASE
  6
CONTINUOUS
 10
-5.429276
 20
-0.403461
 30
0.0
 70
    64
  0
VERTEX
  8
BASE
  6
CONTINUOUS
 10
-5.442996
 20
-0.403461
 30
0.0
 70
    64
  0
VERTEX
  8
BASE
  6
CONTINUOUS
 10
-5.456716
 20
-0.403461
 30
0.0
 70
    64
  0
VERTEX
  8
BASE
  6
CONTINUOUS
 10
-5.470436
 20
-0.403461
 30
0.0
 70
    64
  0
VERTEX
  8
BASE
  6
CONTINUOUS
 10
-5.484156
 20
-0.403461
 30
0.0
 70
    64
  0
VERTEX
  8
BASE
  6
CONTINUOUS
 10
-5.497876
 20
-0.403461
 30
0.0
 70
    64
  0
VERTEX
  8
BASE
  6
CONTINUOUS
 10
-5.511596
 20
-0.403461
 30
0.0
 70
    64
  0
VERTEX
  8
BASE
  6
CONTINUOUS
 10
-5.525316
 20
-0.403461
 30
0.0
 70
    64
  0
VERTEX
  8
BASE
  6
CONTINUOUS
 10
-5.539036
 20
-0.403461
 30
0.0
 70
    64
  0
VERTEX
  8
BASE
  6
CONTINUOUS
 10
-5.552756
 20
-0.403461
 30
0.0
 70
    64
  0
VERTEX
  8
BASE
  6
CONTINUOUS
 10
-5.566476
 20
-0.403461
 30
0.0
 70
    64
  0
VERTEX
  8
BASE
  6
CONTINUOUS
 10
-5.580196
 20
-0.403461
 30
0.0
 70
    64
  0
VERTEX
  8
BASE
  6
CONTINUOUS
 10
-5.593916
 20
-0.403461
 30
0.0
 70
    64
  0
VERTEX
  8
BASE
  6
CONTINUOUS
 10
-5.607636
 20
-0.403461
 30
0.0
 70
    64
  0
VERTEX
  8
BASE
  6
CONTINUOUS
 10
-5.621356
 20
-0.403461
 30
0.0
 70
    64
  0
VERTEX
  8
BASE
  6
CONTINUOUS
 10
-5.635076
 20
-0.403461
 30
0.0
 70
    64
  0
VERTEX
  8
BASE
  6
CONTINUOUS
 10
-5.648796
 20
-0.403461
 30
0.0
 70
    64
  0
VERTEX
  8
BASE
  6
CONTINUOUS
 10
-5.662516
 20
-0.403461
 30
0.0
 70
    64
  0
VERTEX
  8
BASE
  6
CONTINUOUS
 10
-5.676236
 20
-0.403461
 30
0.0
 70
    64
  0
VERTEX
  8
BASE
  6
CONTINUOUS
 10
-5.689956
 20
-0.403461
 30
0.0
 70
    64
  0
VERTEX
  8
BASE
  6
CONTINUOUS
 10
-5.703676
 20
-0.403461
 30
0.0
 70
    64
  0
VERTEX
  8
BASE
  6
CONTINUOUS
 10
-5.717396
 20
-0.403461
 30
0.0
 70
    64
  0
VERTEX
  8
BASE
  6
CONTINUOUS
 10
-5.731116
 20
-0.403461
 30
0.0
 70
    64
  0
VERTEX
  8
BASE
  6
CONTINUOUS
 10
-5.744836
 20
-0.403461
 30
0.0
 70
    64
  0
VERTEX
  8
BASE
  6
CONTINUOUS
 10
-5.758556
 20
-0.403461
 30
0.0
 70
    64
  0
VERTEX
  8
BASE
  6
CONTINUOUS
 10
-5.772276
 20
-0.403461
 30
0.0
 70
    64
  0
VERTEX
  8
BASE
  6
CONTINUOUS
 10
-5.785996
 20
-0.403461
 30
0.0
 70
    64
  0
VERTEX
  8
BASE
  6
CONTINUOUS
 10
-5.799716
 20
-0.403461
 30
0.0
 70
    64
  0
VERTEX
  8
BASE
  6
CONTINUOUS
 10
-5.813436
 20
-0.403461
 30
0.0
 70
    64
  0
VERTEX
  8
BASE
  6
CONTINUOUS
 10
-5.827156
 20
-0.403461
 30
0.0
 70
    64
  0
VERTEX
  8
BASE
  6
CONTINUOUS
 10
-5.840876
 20
-0.403461
 30
0.0
 70
    64
  0
VERTEX
  8
BASE
  6
CONTINUOUS
 10
-5.854596
 20
-0.403461
 30
0.0
 70
    64
  0
VERTEX
  8
BASE
  6
CONTINUOUS
 10
-5.868316
 20
-0.403461
 30
0.0
 70
    64
  0
VERTEX
  8
BASE
  6
CONTINUOUS
 10
-5.882036
 20
-0.403461
 30
0.0
 70
    64
  0
VERTEX
  8
BASE
  6
CONTINUOUS
 10
-5.895756
 20
-0.403461
 30
0.0
 70
    64
  0
VERTEX
  8
BASE
  6
CONTINUOUS
 10
-5.909476
 20
-0.403461
 30
0.0
 70
    64
  0
VERTEX
  8
BASE
  6
CONTINUOUS
 10
-5.923196
 20
-0.403461
 30
0.0
 70
    64
  0
VERTEX
  8
BASE
  6
CONTINUOUS
 10
-5.936916
 20
-0.403461
 30
0.0
 70
    64
  0
VERTEX
  8
BASE
  6
CONTINUOUS
 10
-5.950636
 20
-0.403461
 30
0.0
 70
    64
  0
VERTEX
  8
BASE
  6
CONTINUOUS
 10
-5.964356
 20
-0.403461
 30
0.0
 70
    64
  0
VERTEX
  8
BASE
  6
CONTINUOUS
 10
-5.978076
 20
-0.403461
 30
0.0
 70
    64
  0
VERTEX
  8
BASE
  6
CONTINUOUS
 10
-5.991796
 20
-0.403461
 30
0.0
 70
    64
  0
VERTEX
  8
BASE
  6
CONTINUOUS
 10
-6.005516
 20
-0.403461
 30
0.0
 70
    64
  0
VERTEX
  8
BASE
  6
CONTINUOUS
 10
-6.019236
 20
-0.403461
 30
0.0
 70
    64
  0
VERTEX
  8
BASE
  6
CONTINUOUS
 10
-6.032956
 20
-0.403461
 30
0.0
 70
    64
  0
VERTEX
  8
BASE
  6
CONTINUOUS
 10
-6.046676
 20
-0.403461
 30
0.0
 70
    64
  0
VERTEX
  8
BASE
  6
CONTINUOUS
 10
-6.060396
 20
-0.403461
 30
0.0
 70
    64
  0
VERTEX
  8
BASE
  6
CONTINUOUS
 10
-6.074116
 20
-0.403461
 30
0.0
 70
    64
  0
VERTEX
  8
BASE
  6
CONTINUOUS
 10
-6.087836
 20
-0.403461
 30
0.0
 70
    64
  0
VERTEX
  8
BASE
  6
CONTINUOUS
 10
-6.101556
 20
-0.403461
 30
0.0
 70
    64
  0
VERTEX
  8
BASE
  6
CONTINUOUS
 10
-6.115276
 20
-0.403461
 30
0.0
 70
    64
  0
VERTEX
  8
BASE
  6
CONTINUOUS
 10
-6.128996
 20
-0.403461
 30
0.0
 70
    64
  0
VERTEX
  8
BASE
  6
CONTINUOUS
 10
-6.142716
 20
-0.403461
 30
0.0
 70
    64
  0
VERTEX
  8
BASE
  6
CONTINUOUS
 10
-6.156436
 20
-0.403461
 30
0.0
 70
    64
  0
VERTEX
  8
BASE
  6
CONTINUOUS
 10
-6.170156
 20
-0.403461
 30
0.0
 70
    64
  0
VERTEX
  8
BASE
  6
CONTINUOUS
 10
-6.183876
 20
-0.403461
 30
0.0
 70
    64
  0
VERTEX
  8
BASE
  6
CONTINUOUS
 10
-6.197596
 20
-0.403461
 30
0.0
 70
    64
  0
VERTEX
  8
BASE
  6
CONTINUOUS
 10
-6.211316
 20
-0.403461
 30
0.0
 70
    64
  0
VERTEX
  8
BASE
  6
CONTINUOUS
 10
-6.225036
 20
-0.403461
 30
0.0
 70
    64
  0
VERTEX
  8
BASE
  6
CONTINUOUS
 10
-6.238756
 20
-0.403461
 30
0.0
 70
    64
  0
VERTEX
  8
BASE
  6
CONTINUOUS
 10
-6.252476
 20
-0.403461
 30
0.0
 70
    64
  0
VERTEX
  8
BASE
  6
CONTINUOUS
 10
-6.266196
 20
-0.403461
 30
0.0
 70
    64
  0
VERTEX
  8
BASE
  6
CONTINUOUS
 10
-6.279916
 20
-0.403461
 30
0.0
 70
    64
  0
VERTEX
  8
BASE
  6
CONTINUOUS
 10
-6.293636
 20
-0.403461
 30
0.0
 70
    64
  0
VERTEX
  8
BASE
  6
CONTINUOUS
 10
-6.307356
 20
-0.403461
 30
0.0
 70
    64
  0
VERTEX
  8
BASE
  6
CONTINUOUS
 10
-6.321076
 20
-0.403461
 30
0.0
 70
    64
  0
VERTEX
  8
BASE
  6
CONTINUOUS
 10
-6.334796
 20
-0.403461
 30
0.0
 70
    64
  0
VERTEX
  8
BASE
  6
CONTINUOUS
 10
-6.348516
 20
-0.403461
 30
0.0
 70
    64
  0
VERTEX
  8
BASE
  6
CONTINUOUS
 10
-6.362236
 20
-0.403461
 30
0.0
 70
    64
  0
VERTEX
  8
BASE
  6
CONTINUOUS
 10
-6.375956
 20
-0.403461
 30
0.0
 70
    64
  0
VERTEX
  8
BASE
  6
CONTINUOUS
 10
-6.389676
 20
-0.403461
 30
0.0
 70
    64
  0
VERTEX
  8
BASE
  6
CONTINUOUS
 10
-6.403396
 20
-0.403461
 30
0.0
 70
    64
  0
VERTEX
  8
BASE
  6
CONTINUOUS
 10
-6.417116
 20
-0.403461
 30
0.0
 70
    64
  0
VERTEX
  8
BASE
  6
CONTINUOUS
 10
-6.430836
 20
-0.403461
 30
0.0
 70
    64
  0
VERTEX
  8
BASE
  6
CONTINUOUS
 10
-6.444556
 20
-0.403461
 30
0.0
 70
    64
  0
VERTEX
  8
BASE
  6
CONTINUOUS
 10
-6.458276
 20
-0.403461
 30
0.0
 70
    64
  0
VERTEX
  8
BASE
  6
CONTINUOUS
 10
-6.471996
 20
-0.403461
 30
0.0
 70
    64
  0
VERTEX
  8
BASE
  6
CONTINUOUS
 10
-6.485716
 20
-0.403461
 30
0.0
 70
    64
  0
VERTEX
  8
BASE
  6
CONTINUOUS
 10
-6.499436
 20
-0.403461
 30
0.0
 70
    64
  0
SEQEND
  8
BASE
  6
CONTINUOUS
  0
LINE
  8
BASE
  6
CONTINUOUS
 10
-6.499436
 20
-0.403461
 30
0.0
 11
-3.069436
 21
-0.403461
 31
0.0
  0
LINE
  8
BASE
  6
CONTINUOUS
 10
-6.499436
 20
0.576539
 30
0.0
 11
-6.499436
 21
-0.403461
 31
0.0
  0
LINE
  8
BASE
  6
CONTINUOUS
 10
-3.069436
 20
0.576539
 30
0.0
 11
-6.499436
 21
0.576539
 31
0.0
  0
LINE
  8
BASE
  6
CONTINUOUS
 10
-3.069436
 20
-0.403461
 30
0.0
 11
-3.069436
 21
0.576539
 31
0.0
  0
ARC
  8
BASE
  6
CONTINUOUS
 10
-3.75
 20
7.586539
 30
0.0
 40
2.5
 50
270.0
 51
90.0
  0
LINE
  8
BASE
  6
CONTINUOUS
 10
-6.25
 20
0.086539
 30
0.0
 11
-10.0
 21
0.086539
 31
0.0
  0
ENDBLK
  8
0
  0
ENDSEC
  0
SECTION
  2
ENTITIES
  0
INSERT
  8
0
  2
1
 10
65.405438
 20
98.713066
 30
0.0
  0
INSERT
  8
0
  2
1
 10
72.541652
 20
49.71056
 30
0.0
  0
INSERT
  8
0
  2
1
 10
85.390443
 20
73.497234
 30
0.0
  0
LINE
  8
0
  6
CENTER
 62
   249
 10
275.0
 20
242.5
 30
0.0
 11
275.0
 21
40.0
 31
0.0
  0
LINE
  8
0
  6
CENTER
 62
   249
 10
25.0
 20
40.0
 30
0.0
 11
275.0
 21
40.0
 31
0.0
  0
LINE
  8
0
  6
CENTER
 62
   249
 10
25.0
 20
242.5
 30
0.0
 11
25.0
 21
40.0
 31
0.0
  0
TEXT
  8
0
  6
DASHED
 62
   249
 10
380.0
 20
2.5
 30
0.0
 40
2.5
  1
B
  7
ROMANS
  0
TEXT
  8
0
  6
DASHED
 62
   249
 10
370.0
 20
12.5
 30
0.0
 40
2.0
  1
2/4
  7
ROMANS
  0
LINE
  8
0
  6
CONTINUOUS
 62
   249
 10
157.5
 20
217.5
 30
0.0
 11
157.5
 21
77.5
 31
0.0
  0
LINE
  8
0
  6
CONTINUOUS
 62
   249
 10
177.5
 20
217.5
 30
0.0
 11
177.5
 21
77.5
 31
0.0
  0
LINE
  8
0
  6
CONTINUOUS
 62
   249
 10
157.5
 20
217.5
 30
0.0
 11
177.5
 21
217.5
 31
0.0
  0
CIRCLE
  8
0
  6
CONTINUOUS
 62
   249
 10
196.875
 20
213.125
 30
0.0
 40
1.875
  0
LINE
  8
0
  6
CONTINUOUS
 62
   249
 10
195.549175
 20
214.450825
 30
0.0
 11
198.200825
 21
211.799175
 31
0.0
  0
LINE
  8
0
  6
CONTINUOUS
 62
   249
 10
195.549175
 20
211.799175
 30
0.0
 11
198.200825
 21
214.450825
 31
0.0
  0
CIRCLE
  8
0
  6
CONTINUOUS
 62
   249
 10
175.0
 20
211.25
 30
0.0
 40
0.9375
  0
CIRCLE
  8
0
  6
CONTINUOUS
 62
   249
 10
175.0
 20
215.0
 30
0.0
 40
0.9375
  0
LINE
  8
0
  6
CONTINUOUS
 62
   249
 10
182.5
 20
217.5
 30
0.0
 11
182.5
 21
208.75
 31
0.0
  0
LINE
  8
0
  6
CONTINUOUS
 62
   249
 10
182.5
 20
208.75
 30
0.0
 11
200.0
 21
208.75
 31
0.0
  0
LINE
  8
0
  6
CONTINUOUS
 62
   249
 10
200.0
 20
208.75
 30
0.0
 11
200.0
 21
217.5
 31
0.0
  0
LINE
  8
0
  6
CONTINUOUS
 62
   249
 10
200.0
 20
217.5
 30
0.0
 11
182.5
 21
217.5
 31
0.0
  0
LINE
  8
0
  6
CONTINUOUS
 62
   249
 10
182.5
 20
215.0
 30
0.0
 11
175.9375
 21
215.0
 31
0.0
  0
LINE
  8
0
  6
CONTINUOUS
 62
   249
 10
182.5
 20
211.25
 30
0.0
 11
175.9375
 21
211.25
 31
0.0
  0
TEXT
  8
0
  6
CONTINUOUS
 62
   249
 10
183.75
 20
214.375
 30
0.0
 40
1.5
  1
A
  7
GREEKS
  0
TEXT
  8
0
  6
CONTINUOUS
 62
   249
 10
183.75
 20
210.625
 30
0.0
 40
1.5
  1
B
  7
GREEKS
  0
TEXT
  8
0
  6
CONTINUOUS
 62
   249
 10
183.75
 20
201.875
 30
0.0
 40
1.5
  1
B
  7
GREEKS
  0
TEXT
  8
0
  6
CONTINUOUS
 62
   249
 10
183.75
 20
205.625
 30
0.0
 40
1.5
  1
A
  7
GREEKS
  0
LINE
  8
0
  6
CONTINUOUS
 62
   249
 10
182.5
 20
202.5
 30
0.0
 11
175.9375
 21
202.5
 31
0.0
  0
LINE
  8
0
  6
CONTINUOUS
 62
   249
 10
182.5
 20
206.25
 30
0.0
 11
175.9375
 21
206.25
 31
0.0
  0
LINE
  8
0
  6
CONTINUOUS
 62
   249
 10
200.0
 20
208.75
 30
0.0
 11
182.5
 21
208.75
 31
0.0
  0
LINE
  8
0
  6
CONTINUOUS
 62
   249
 10
200.0
 20
200.0
 30
0.0
 11
200.0
 21
208.75
 31
0.0
  0
LINE
  8
0
  6
CONTINUOUS
 62
   249
 10
182.5
 20
200.0
 30
0.0
 11
200.0
 21
200.0
 31
0.0
  0
LINE
  8
0
  6
CONTINUOUS
 62
   249
 10
182.5
 20
208.75
 30
0.0
 11
182.5
 21
200.0
 31
0.0
  0
LINE
  8
0
  6
CONTINUOUS
 62
   249
 10
195.549175
 20
203.049175
 30
0.0
 11
198.200825
 21
205.700825
 31
0.0
  0
LINE
  8
0
  6
CONTINUOUS
 62
   249
 10
195.549175
 20
205.700825
 30
0.0
 11
198.200825
 21
203.049175
 31
0.0
  0
CIRCLE
  8
0
  6
CONTINUOUS
 62
   249
 10
196.875
 20
204.375
 30
0.0
 40
1.875
  0
CIRCLE
  8
0
  6
CONTINUOUS
 62
   249
 10
175.0
 20
202.5
 30
0.0
 40
0.9375
  0
CIRCLE
  8
0
  6
CONTINUOUS
 62
   249
 10
175.0
 20
206.25
 30
0.0
 40
0.9375
  0
TEXT
  8
0
  6
CONTINUOUS
 62
   249
 10
183.75
 20
193.125
 30
0.0
 40
1.5
  1
B
  7
GREEKS
  0
TEXT
  8
0
  6
CONTINUOUS
 62
   249
 10
183.75
 20
196.875
 30
0.0
 40
1.5
  1
A
  7
GREEKS
  0
LINE
  8
0
  6
CONTINUOUS
 62
   249
 10
182.5
 20
193.75
 30
0.0
 11
175.9375
 21
193.75
 31
0.0
  0
LINE
  8
0
  6
CONTINUOUS
 62
   249
 10
182.5
 20
197.5
 30
0.0
 11
175.9375
 21
197.5
 31
0.0
  0
LINE
  8
0
  6
CONTINUOUS
 62
   249
 10
200.0
 20
200.0
 30
0.0
 11
182.5
 21
200.0
 31
0.0
  0
LINE
  8
0
  6
CONTINUOUS
 62
   249
 10
200.0
 20
191.25
 30
0.0
 11
200.0
 21
200.0
 31
0.0
  0
LINE
  8
0
  6
CONTINUOUS
 62
   249
 10
182.5
 20
191.25
 30
0.0
 11
200.0
 21
191.25
 31
0.0
  0
LINE
  8
0
  6
CONTINUOUS
 62
   249
 10
182.5
 20
200.0
 30
0.0
 11
182.5
 21
191.25
 31
0.0
  0
LINE
  8
0
  6
CONTINUOUS
 62
   249
 10
195.549175
 20
194.299175
 30
0.0
 11
198.200825
 21
196.950825
 31
0.0
  0
LINE
  8
0
  6
CONTINUOUS
 62
   249
 10
195.549175
 20
196.950825
 30
0.0
 11
198.200825
 21
194.299175
 31
0.0
  0
CIRCLE
  8
0
  6
CONTINUOUS
 62
   249
 10
196.875
 20
195.625
 30
0.0
 40
1.875
  0
CIRCLE
  8
0
  6
CONTINUOUS
 62
   249
 10
175.0
 20
193.75
 30
0.0
 40
0.9375
  0
CIRCLE
  8
0
  6
CONTINUOUS
 62
   249
 10
175.0
 20
197.5
 30
0.0
 40
0.9375
  0
TEXT
  8
0
  6
CONTINUOUS
 62
   249
 10
183.75
 20
184.375
 30
0.0
 40
1.5
  1
B
  7
GREEKS
  0
TEXT
  8
0
  6
CONTINUOUS
 62
   249
 10
183.75
 20
188.125
 30
0.0
 40
1.5
  1
A
  7
GREEKS
  0
LINE
  8
0
  6
CONTINUOUS
 62
   249
 10
182.5
 20
185.0
 30
0.0
 11
175.9375
 21
185.0
 31
0.0
  0
LINE
  8
0
  6
CONTINUOUS
 62
   249
 10
182.5
 20
188.75
 30
0.0
 11
175.9375
 21
188.75
 31
0.0
  0
LINE
  8
0
  6
CONTINUOUS
 62
   249
 10
200.0
 20
191.25
 30
0.0
 11
182.5
 21
191.25
 31
0.0
  0
LINE
  8
0
  6
CONTINUOUS
 62
   249
 10
200.0
 20
182.5
 30
0.0
 11
200.0
 21
191.25
 31
0.0
  0
LINE
  8
0
  6
CONTINUOUS
 62
   249
 10
182.5
 20
182.5
 30
0.0
 11
200.0
 21
182.5
 31
0.0
  0
LINE
  8
0
  6
CONTINUOUS
 62
   249
 10
182.5
 20
191.25
 30
0.0
 11
182.5
 21
182.5
 31
0.0
  0
LINE
  8
0
  6
CONTINUOUS
 62
   249
 10
195.549175
 20
185.549175
 30
0.0
 11
198.200825
 21
188.200825
 31
0.0
  0
LINE
  8
0
  6
CONTINUOUS
 62
   249
 10
195.549175
 20
188.200825
 30
0.0
 11
198.200825
 21
185.549175
 31
0.0
  0
CIRCLE
  8
0
  6
CONTINUOUS
 62
   249
 10
196.875
 20
186.875
 30
0.0
 40
1.875
  0
CIRCLE
  8
0
  6
CONTINUOUS
 62
   249
 10
175.0
 20
185.0
 30
0.0
 40
0.9375
  0
CIRCLE
  8
0
  6
CONTINUOUS
 62
   249
 10
175.0
 20
188.75
 30
0.0
 40
0.9375
  0
TEXT
  8
0
  6
CONTINUOUS
 62
   249
 10
183.75
 20
175.625
 30
0.0
 40
1.5
  1
B
  7
GREEKS
  0
TEXT
  8
0
  6
CONTINUOUS
 62
   249
 10
183.75
 20
179.375
 30
0.0
 40
1.5
  1
A
  7
GREEKS
  0
LINE
  8
0
  6
CONTINUOUS
 62
   249
 10
182.5
 20
176.25
 30
0.0
 11
175.9375
 21
176.25
 31
0.0
  0
LINE
  8
0
  6
CONTINUOUS
 62
   249
 10
182.5
 20
180.0
 30
0.0
 11
175.9375
 21
180.0
 31
0.0
  0
LINE
  8
0
  6
CONTINUOUS
 62
   249
 10
200.0
 20
182.5
 30
0.0
 11
182.5
 21
182.5
 31
0.0
  0
LINE
  8
0
  6
CONTINUOUS
 62
   249
 10
200.0
 20
173.75
 30
0.0
 11
200.0
 21
182.5
 31
0.0
  0
LINE
  8
0
  6
CONTINUOUS
 62
   249
 10
182.5
 20
173.75
 30
0.0
 11
200.0
 21
173.75
 31
0.0
  0
LINE
  8
0
  6
CONTINUOUS
 62
   249
 10
182.5
 20
182.5
 30
0.0
 11
182.5
 21
173.75
 31
0.0
  0
LINE
  8
0
  6
CONTINUOUS
 62
   249
 10
195.549175
 20
176.799175
 30
0.0
 11
198.200825
 21
179.450825
 31
0.0
  0
LINE
  8
0
  6
CONTINUOUS
 62
   249
 10
195.549175
 20
179.450825
 30
0.0
 11
198.200825
 21
176.799175
 31
0.0
  0
CIRCLE
  8
0
  6
CONTINUOUS
 62
   249
 10
196.875
 20
178.125
 30
0.0
 40
1.875
  0
CIRCLE
  8
0
  6
CONTINUOUS
 62
   249
 10
175.0
 20
176.25
 30
0.0
 40
0.9375
  0
CIRCLE
  8
0
  6
CONTINUOUS
 62
   249
 10
175.0
 20
180.0
 30
0.0
 40
0.9375
  0
TEXT
  8
0
  6
CONTINUOUS
 62
   249
 10
183.75
 20
166.875
 30
0.0
 40
1.5
  1
B
  7
GREEKS
  0
TEXT
  8
0
  6
CONTINUOUS
 62
   249
 10
183.75
 20
170.625
 30
0.0
 40
1.5
  1
A
  7
GREEKS
  0
LINE
  8
0
  6
CONTINUOUS
 62
   249
 10
182.5
 20
167.5
 30
0.0
 11
175.9375
 21
167.5
 31
0.0
  0
LINE
  8
0
  6
CONTINUOUS
 62
   249
 10
182.5
 20
171.25
 30
0.0
 11
175.9375
 21
171.25
 31
0.0
  0
LINE
  8
0
  6
CONTINUOUS
 62
   249
 10
200.0
 20
173.75
 30
0.0
 11
182.5
 21
173.75
 31
0.0
  0
LINE
  8
0
  6
CONTINUOUS
 62
   249
 10
200.0
 20
165.0
 30
0.0
 11
200.0
 21
173.75
 31
0.0
  0
LINE
  8
0
  6
CONTINUOUS
 62
   249
 10
182.5
 20
165.0
 30
0.0
 11
200.0
 21
165.0
 31
0.0
  0
LINE
  8
0
  6
CONTINUOUS
 62
   249
 10
182.5
 20
173.75
 30
0.0
 11
182.5
 21
165.0
 31
0.0
  0
LINE
  8
0
  6
CONTINUOUS
 62
   249
 10
195.549175
 20
168.049175
 30
0.0
 11
198.200825
 21
170.700825
 31
0.0
  0
LINE
  8
0
  6
CONTINUOUS
 62
   249
 10
195.549175
 20
170.700825
 30
0.0
 11
198.200825
 21
168.049175
 31
0.0
  0
CIRCLE
  8
0
  6
CONTINUOUS
 62
   249
 10
196.875
 20
169.375
 30
0.0
 40
1.875
  0
CIRCLE
  8
0
  6
CONTINUOUS
 62
   249
 10
175.0
 20
167.5
 30
0.0
 40
0.9375
  0
CIRCLE
  8
0
  6
CONTINUOUS
 62
   249
 10
175.0
 20
171.25
 30
0.0
 40
0.9375
  0
TEXT
  8
0
  6
CONTINUOUS
 62
   249
 10
183.75
 20
158.125
 30
0.0
 40
1.5
  1
B
  7
GREEKS
  0
TEXT
  8
0
  6
CONTINUOUS
 62
   249
 10
183.75
 20
161.875
 30
0.0
 40
1.5
  1
A
  7
GREEKS
  0
LINE
  8
0
  6
CONTINUOUS
 62
   249
 10
182.5
 20
158.75
 30
0.0
 11
175.9375
 21
158.75
 31
0.0
  0
LINE
  8
0
  6
CONTINUOUS
 62
   249
 10
182.5
 20
162.5
 30
0.0
 11
175.9375
 21
162.5
 31
0.0
  0
LINE
  8
0
  6
CONTINUOUS
 62
   249
 10
200.0
 20
165.0
 30
0.0
 11
182.5
 21
165.0
 31
0.0
  0
LINE
  8
0
  6
CONTINUOUS
 62
   249
 10
200.0
 20
156.25
 30
0.0
 11
200.0
 21
165.0
 31
0.0
  0
LINE
  8
0
  6
CONTINUOUS
 62
   249
 10
182.5
 20
156.25
 30
0.0
 11
200.0
 21
156.25
 31
0.0
  0
LINE
  8
0
  6
CONTINUOUS
 62
   249
 10
182.5
 20
165.0
 30
0.0
 11
182.5
 21
156.25
 31
0.0
  0
LINE
  8
0
  6
CONTINUOUS
 62
   249
 10
195.549175
 20
159.299175
 30
0.0
 11
198.200825
 21
161.950825
 31
0.0
  0
LINE
  8
0
  6
CONTINUOUS
 62
   249
 10
195.549175
 20
161.950825
 30
0.0
 11
198.200825
 21
159.299175
 31
0.0
  0
CIRCLE
  8
0
  6
CONTINUOUS
 62
   249
 10
196.875
 20
160.625
 30
0.0
 40
1.875
  0
CIRCLE
  8
0
  6
CONTINUOUS
 62
   249
 10
175.0
 20
158.75
 30
0.0
 40
0.9375
  0
CIRCLE
  8
0
  6
CONTINUOUS
 62
   249
 10
175.0
 20
162.5
 30
0.0
 40
0.9375
  0
TEXT
  8
0
  6
CONTINUOUS
 62
   249
 10
183.75
 20
149.375
 30
0.0
 40
1.5
  1
B
  7
GREEKS
  0
TEXT
  8
0
  6
CONTINUOUS
 62
   249
 10
183.75
 20
153.125
 30
0.0
 40
1.5
  1
A
  7
GREEKS
  0
LINE
  8
0
  6
CONTINUOUS
 62
   249
 10
182.5
 20
150.0
 30
0.0
 11
175.9375
 21
150.0
 31
0.0
  0
LINE
  8
0
  6
CONTINUOUS
 62
   249
 10
182.5
 20
153.75
 30
0.0
 11
175.9375
 21
153.75
 31
0.0
  0
LINE
  8
0
  6
CONTINUOUS
 62
   249
 10
200.0
 20
156.25
 30
0.0
 11
182.5
 21
156.25
 31
0.0
  0
LINE
  8
0
  6
CONTINUOUS
 62
   249
 10
200.0
 20
147.5
 30
0.0
 11
200.0
 21
156.25
 31
0.0
  0
LINE
  8
0
  6
CONTINUOUS
 62
   249
 10
182.5
 20
147.5
 30
0.0
 11
200.0
 21
147.5
 31
0.0
  0
LINE
  8
0
  6
CONTINUOUS
 62
   249
 10
182.5
 20
156.25
 30
0.0
 11
182.5
 21
147.5
 31
0.0
  0
LINE
  8
0
  6
CONTINUOUS
 62
   249
 10
195.549175
 20
150.549175
 30
0.0
 11
198.200825
 21
153.200825
 31
0.0
  0
LINE
  8
0
  6
CONTINUOUS
 62
   249
 10
195.549175
 20
153.200825
 30
0.0
 11
198.200825
 21
150.549175
 31
0.0
  0
CIRCLE
  8
0
  6
CONTINUOUS
 62
   249
 10
196.875
 20
151.875
 30
0.0
 40
1.875
  0
CIRCLE
  8
0
  6
CONTINUOUS
 62
   249
 10
175.0
 20
150.0
 30
0.0
 40
0.9375
  0
CIRCLE
  8
0
  6
CONTINUOUS
 62
   249
 10
175.0
 20
153.75
 30
0.0
 40
0.9375
  0
TEXT
  8
0
  6
CONTINUOUS
 62
   249
 10
183.75
 20
140.625
 30
0.0
 40
1.5
  1
B
  7
GREEKS
  0
TEXT
  8
0
  6
CONTINUOUS
 62
   249
 10
183.75
 20
144.375
 30
0.0
 40
1.5
  1
A
  7
GREEKS
  0
LINE
  8
0
  6
CONTINUOUS
 62
   249
 10
182.5
 20
141.25
 30
0.0
 11
175.9375
 21
141.25
 31
0.0
  0
LINE
  8
0
  6
CONTINUOUS
 62
   249
 10
182.5
 20
145.0
 30
0.0
 11
175.9375
 21
145.0
 31
0.0
  0
LINE
  8
0
  6
CONTINUOUS
 62
   249
 10
200.0
 20
147.5
 30
0.0
 11
182.5
 21
147.5
 31
0.0
  0
LINE
  8
0
  6
CONTINUOUS
 62
   249
 10
200.0
 20
138.75
 30
0.0
 11
200.0
 21
147.5
 31
0.0
  0
LINE
  8
0
  6
CONTINUOUS
 62
   249
 10
182.5
 20
138.75
 30
0.0
 11
200.0
 21
138.75
 31
0.0
  0
LINE
  8
0
  6
CONTINUOUS
 62
   249
 10
182.5
 20
147.5
 30
0.0
 11
182.5
 21
138.75
 31
0.0
  0
LINE
  8
0
  6
CONTINUOUS
 62
   249
 10
195.549175
 20
141.799175
 30
0.0
 11
198.200825
 21
144.450825
 31
0.0
  0
LINE
  8
0
  6
CONTINUOUS
 62
   249
 10
195.549175
 20
144.450825
 30
0.0
 11
198.200825
 21
141.799175
 31
0.0
  0
CIRCLE
  8
0
  6
CONTINUOUS
 62
   249
 10
196.875
 20
143.125
 30
0.0
 40
1.875
  0
CIRCLE
  8
0
  6
CONTINUOUS
 62
   249
 10
175.0
 20
141.25
 30
0.0
 40
0.9375
  0
CIRCLE
  8
0
  6
CONTINUOUS
 62
   249
 10
175.0
 20
145.0
 30
0.0
 40
0.9375
  0
TEXT
  8
0
  6
CONTINUOUS
 62
   249
 10
183.75
 20
131.875
 30
0.0
 40
1.5
  1
B
  7
GREEKS
  0
TEXT
  8
0
  6
CONTINUOUS
 62
   249
 10
183.75
 20
135.625
 30
0.0
 40
1.5
  1
A
  7
GREEKS
  0
LINE
  8
0
  6
CONTINUOUS
 62
   249
 10
182.5
 20
132.5
 30
0.0
 11
175.9375
 21
132.5
 31
0.0
  0
LINE
  8
0
  6
CONTINUOUS
 62
   249
 10
182.5
 20
136.25
 30
0.0
 11
175.9375
 21
136.25
 31
0.0
  0
LINE
  8
0
  6
CONTINUOUS
 62
   249
 10
200.0
 20
138.75
 30
0.0
 11
182.5
 21
138.75
 31
0.0
  0
LINE
  8
0
  6
CONTINUOUS
 62
   249
 10
200.0
 20
130.0
 30
0.0
 11
200.0
 21
138.75
 31
0.0
  0
LINE
  8
0
  6
CONTINUOUS
 62
   249
 10
182.5
 20
130.0
 30
0.0
 11
200.0
 21
130.0
 31
0.0
  0
LINE
  8
0
  6
CONTINUOUS
 62
   249
 10
182.5
 20
138.75
 30
0.0
 11
182.5
 21
130.0
 31
0.0
  0
LINE
  8
0
  6
CONTINUOUS
 62
   249
 10
195.549175
 20
133.049175
 30
0.0
 11
198.200825
 21
135.700825
 31
0.0
  0
LINE
  8
0
  6
CONTINUOUS
 62
   249
 10
195.549175
 20
135.700825
 30
0.0
 11
198.200825
 21
133.049175
 31
0.0
  0
CIRCLE
  8
0
  6
CONTINUOUS
 62
   249
 10
196.875
 20
134.375
 30
0.0
 40
1.875
  0
CIRCLE
  8
0
  6
CONTINUOUS
 62
   249
 10
175.0
 20
132.5
 30
0.0
 40
0.9375
  0
CIRCLE
  8
0
  6
CONTINUOUS
 62
   249
 10
175.0
 20
136.25
 30
0.0
 40
0.9375
  0
TEXT
  8
0
  6
CONTINUOUS
 62
   249
 10
183.75
 20
123.125
 30
0.0
 40
1.5
  1
B
  7
GREEKS
  0
TEXT
  8
0
  6
CONTINUOUS
 62
   249
 10
183.75
 20
126.875
 30
0.0
 40
1.5
  1
A
  7
GREEKS
  0
LINE
  8
0
  6
CONTINUOUS
 62
   249
 10
182.5
 20
123.75
 30
0.0
 11
175.9375
 21
123.75
 31
0.0
  0
LINE
  8
0
  6
CONTINUOUS
 62
   249
 10
182.5
 20
127.5
 30
0.0
 11
175.9375
 21
127.5
 31
0.0
  0
LINE
  8
0
  6
CONTINUOUS
 62
   249
 10
200.0
 20
130.0
 30
0.0
 11
182.5
 21
130.0
 31
0.0
  0
LINE
  8
0
  6
CONTINUOUS
 62
   249
 10
200.0
 20
121.25
 30
0.0
 11
200.0
 21
130.0
 31
0.0
  0
LINE
  8
0
  6
CONTINUOUS
 62
   249
 10
182.5
 20
121.25
 30
0.0
 11
200.0
 21
121.25
 31
0.0
  0
LINE
  8
0
  6
CONTINUOUS
 62
   249
 10
182.5
 20
130.0
 30
0.0
 11
182.5
 21
121.25
 31
0.0
  0
LINE
  8
0
  6
CONTINUOUS
 62
   249
 10
195.549175
 20
124.299175
 30
0.0
 11
198.200825
 21
126.950825
 31
0.0
  0
LINE
  8
0
  6
CONTINUOUS
 62
   249
 10
195.549175
 20
126.950825
 30
0.0
 11
198.200825
 21
124.299175
 31
0.0
  0
CIRCLE
  8
0
  6
CONTINUOUS
 62
   249
 10
196.875
 20
125.625
 30
0.0
 40
1.875
  0
CIRCLE
  8
0
  6
CONTINUOUS
 62
   249
 10
175.0
 20
123.75
 30
0.0
 40
0.9375
  0
CIRCLE
  8
0
  6
CONTINUOUS
 62
   249
 10
175.0
 20
127.5
 30
0.0
 40
0.9375
  0
TEXT
  8
0
  6
CONTINUOUS
 62
   249
 10
183.75
 20
114.375
 30
0.0
 40
1.5
  1
B
  7
GREEKS
  0
TEXT
  8
0
  6
CONTINUOUS
 62
   249
 10
183.75
 20
118.125
 30
0.0
 40
1.5
  1
A
  7
GREEKS
  0
LINE
  8
0
  6
CONTINUOUS
 62
   249
 10
182.5
 20
115.0
 30
0.0
 11
175.9375
 21
115.0
 31
0.0
  0
LINE
  8
0
  6
CONTINUOUS
 62
   249
 10
182.5
 20
118.75
 30
0.0
 11
175.9375
 21
118.75
 31
0.0
  0
LINE
  8
0
  6
CONTINUOUS
 62
   249
 10
200.0
 20
121.25
 30
0.0
 11
182.5
 21
121.25
 31
0.0
  0
LINE
  8
0
  6
CONTINUOUS
 62
   249
 10
200.0
 20
112.5
 30
0.0
 11
200.0
 21
121.25
 31
0.0
  0
LINE
  8
0
  6
CONTINUOUS
 62
   249
 10
182.5
 20
112.5
 30
0.0
 11
200.0
 21
112.5
 31
0.0
  0
LINE
  8
0
  6
CONTINUOUS
 62
   249
 10
182.5
 20
121.25
 30
0.0
 11
182.5
 21
112.5
 31
0.0
  0
LINE
  8
0
  6
CONTINUOUS
 62
   249
 10
195.549175
 20
115.549175
 30
0.0
 11
198.200825
 21
118.200825
 31
0.0
  0
LINE
  8
0
  6
CONTINUOUS
 62
   249
 10
195.549175
 20
118.200825
 30
0.0
 11
198.200825
 21
115.549175
 31
0.0
  0
CIRCLE
  8
0
  6
CONTINUOUS
 62
   249
 10
196.875
 20
116.875
 30
0.0
 40
1.875
  0
CIRCLE
  8
0
  6
CONTINUOUS
 62
   249
 10
175.0
 20
115.0
 30
0.0
 40
0.9375
  0
CIRCLE
  8
0
  6
CONTINUOUS
 62
   249
 10
175.0
 20
118.75
 30
0.0
 40
0.9375
  0
TEXT
  8
0
  6
CONTINUOUS
 62
   249
 10
183.75
 20
105.625
 30
0.0
 40
1.5
  1
B
  7
GREEKS
  0
TEXT
  8
0
  6
CONTINUOUS
 62
   249
 10
183.75
 20
109.375
 30
0.0
 40
1.5
  1
A
  7
GREEKS
  0
LINE
  8
0
  6
CONTINUOUS
 62
   249
 10
182.5
 20
106.25
 30
0.0
 11
175.9375
 21
106.25
 31
0.0
  0
LINE
  8
0
  6
CONTINUOUS
 62
   249
 10
182.5
 20
110.0
 30
0.0
 11
175.9375
 21
110.0
 31
0.0
  0
LINE
  8
0
  6
CONTINUOUS
 62
   249
 10
200.0
 20
112.5
 30
0.0
 11
182.5
 21
112.5
 31
0.0
  0
LINE
  8
0
  6
CONTINUOUS
 62
   249
 10
200.0
 20
103.75
 30
0.0
 11
200.0
 21
112.5
 31
0.0
  0
LINE
  8
0
  6
CONTINUOUS
 62
   249
 10
182.5
 20
103.75
 30
0.0
 11
200.0
 21
103.75
 31
0.0
  0
LINE
  8
0
  6
CONTINUOUS
 62
   249
 10
182.5
 20
112.5
 30
0.0
 11
182.5
 21
103.75
 31
0.0
  0
LINE
  8
0
  6
CONTINUOUS
 62
   249
 10
195.549175
 20
106.799175
 30
0.0
 11
198.200825
 21
109.450825
 31
0.0
  0
LINE
  8
0
  6
CONTINUOUS
 62
   249
 10
195.549175
 20
109.450825
 30
0.0
 11
198.200825
 21
106.799175
 31
0.0
  0
CIRCLE
  8
0
  6
CONTINUOUS
 62
   249
 10
196.875
 20
108.125
 30
0.0
 40
1.875
  0
CIRCLE
  8
0
  6
CONTINUOUS
 62
   249
 10
175.0
 20
106.25
 30
0.0
 40
0.9375
  0
CIRCLE
  8
0
  6
CONTINUOUS
 62
   249
 10
175.0
 20
110.0
 30
0.0
 40
0.9375
  0
TEXT
  8
0
  6
CONTINUOUS
 62
   249
 10
183.75
 20
96.875
 30
0.0
 40
1.5
  1
B
  7
GREEKS
  0
TEXT
  8
0
  6
CONTINUOUS
 62
   249
 10
183.75
 20
100.625
 30
0.0
 40
1.5
  1
A
  7
GREEKS
  0
LINE
  8
0
  6
CONTINUOUS
 62
   249
 10
182.5
 20
97.5
 30
0.0
 11
175.9375
 21
97.5
 31
0.0
  0
LINE
  8
0
  6
CONTINUOUS
 62
   249
 10
182.5
 20
101.25
 30
0.0
 11
175.9375
 21
101.25
 31
0.0
  0
LINE
  8
0
  6
CONTINUOUS
 62
   249
 10
200.0
 20
103.75
 30
0.0
 11
182.5
 21
103.75
 31
0.0
  0
LINE
  8
0
  6
CONTINUOUS
 62
   249
 10
200.0
 20
95.0
 30
0.0
 11
200.0
 21
103.75
 31
0.0
  0
LINE
  8
0
  6
CONTINUOUS
 62
   249
 10
182.5
 20
95.0
 30
0.0
 11
200.0
 21
95.0
 31
0.0
  0
LINE
  8
0
  6
CONTINUOUS
 62
   249
 10
182.5
 20
103.75
 30
0.0
 11
182.5
 21
95.0
 31
0.0
  0
LINE
  8
0
  6
CONTINUOUS
 62
   249
 10
195.549175
 20
98.049175
 30
0.0
 11
198.200825
 21
100.700825
 31
0.0
  0
LINE
  8
0
  6
CONTINUOUS
 62
   249
 10
195.549175
 20
100.700825
 30
0.0
 11
198.200825
 21
98.049175
 31
0.0
  0
CIRCLE
  8
0
  6
CONTINUOUS
 62
   249
 10
196.875
 20
99.375
 30
0.0
 40
1.875
  0
CIRCLE
  8
0
  6
CONTINUOUS
 62
   249
 10
175.0
 20
97.5
 30
0.0
 40
0.9375
  0
CIRCLE
  8
0
  6
CONTINUOUS
 62
   249
 10
175.0
 20
101.25
 30
0.0
 40
0.9375
  0
TEXT
  8
0
  6
CONTINUOUS
 62
   249
 10
183.75
 20
88.125
 30
0.0
 40
1.5
  1
B
  7
GREEKS
  0
TEXT
  8
0
  6
CONTINUOUS
 62
   249
 10
183.75
 20
91.875
 30
0.0
 40
1.5
  1
A
  7
GREEKS
  0
LINE
  8
0
  6
CONTINUOUS
 62
   249
 10
182.5
 20
88.75
 30
0.0
 11
175.9375
 21
88.75
 31
0.0
  0
LINE
  8
0
  6
CONTINUOUS
 62
   249
 10
182.5
 20
92.5
 30
0.0
 11
175.9375
 21
92.5
 31
0.0
  0
LINE
  8
0
  6
CONTINUOUS
 62
   249
 10
200.0
 20
95.0
 30
0.0
 11
182.5
 21
95.0
 31
0.0
  0
LINE
  8
0
  6
CONTINUOUS
 62
   249
 10
200.0
 20
86.25
 30
0.0
 11
200.0
 21
95.0
 31
0.0
  0
LINE
  8
0
  6
CONTINUOUS
 62
   249
 10
182.5
 20
86.25
 30
0.0
 11
200.0
 21
86.25
 31
0.0
  0
LINE
  8
0
  6
CONTINUOUS
 62
   249
 10
182.5
 20
95.0
 30
0.0
 11
182.5
 21
86.25
 31
0.0
  0
LINE
  8
0
  6
CONTINUOUS
 62
   249
 10
195.549175
 20
89.299175
 30
0.0
 11
198.200825
 21
91.950825
 31
0.0
  0
LINE
  8
0
  6
CONTINUOUS
 62
   249
 10
195.549175
 20
91.950825
 30
0.0
 11
198.200825
 21
89.299175
 31
0.0
  0
CIRCLE
  8
0
  6
CONTINUOUS
 62
   249
 10
196.875
 20
90.625
 30
0.0
 40
1.875
  0
CIRCLE
  8
0
  6
CONTINUOUS
 62
   249
 10
175.0
 20
88.75
 30
0.0
 40
0.9375
  0
CIRCLE
  8
0
  6
CONTINUOUS
 62
   249
 10
175.0
 20
92.5
 30
0.0
 40
0.9375
  0
TEXT
  8
0
  6
CONTINUOUS
 62
   249
 10
183.75
 20
79.375
 30
0.0
 40
1.5
  1
B
  7
GREEKS
  0
TEXT
  8
0
  6
CONTINUOUS
 62
   249
 10
183.75
 20
83.125
 30
0.0
 40
1.5
  1
A
  7
GREEKS
  0
LINE
  8
0
  6
CONTINUOUS
 62
   249
 10
182.5
 20
80.0
 30
0.0
 11
175.9375
 21
80.0
 31
0.0
  0
LINE
  8
0
  6
CONTINUOUS
 62
   249
 10
182.5
 20
83.75
 30
0.0
 11
175.9375
 21
83.75
 31
0.0
  0
LINE
  8
0
  6
CONTINUOUS
 62
   249
 10
200.0
 20
86.25
 30
0.0
 11
182.5
 21
86.25
 31
0.0
  0
LINE
  8
0
  6
CONTINUOUS
 62
   249
 10
200.0
 20
77.5
 30
0.0
 11
200.0
 21
86.25
 31
0.0
  0
LINE
  8
0
  6
CONTINUOUS
 62
   249
 10
182.5
 20
77.5
 30
0.0
 11
200.0
 21
77.5
 31
0.0
  0
LINE
  8
0
  6
CONTINUOUS
 62
   249
 10
182.5
 20
86.25
 30
0.0
 11
182.5
 21
77.5
 31
0.0
  0
LINE
  8
0
  6
CONTINUOUS
 62
   249
 10
195.549175
 20
80.549175
 30
0.0
 11
198.200825
 21
83.200825
 31
0.0
  0
LINE
  8
0
  6
CONTINUOUS
 62
   249
 10
195.549175
 20
83.200825
 30
0.0
 11
198.200825
 21
80.549175
 31
0.0
  0
CIRCLE
  8
0
  6
CONTINUOUS
 62
   249
 10
196.875
 20
81.875
 30
0.0
 40
1.875
  0
CIRCLE
  8
0
  6
CONTINUOUS
 62
   249
 10
175.0
 20
80.0
 30
0.0
 40
0.9375
  0
CIRCLE
  8
0
  6
CONTINUOUS
 62
   249
 10
175.0
 20
83.75
 30
0.0
 40
0.9375
  0
LINE
  8
0
  6
CONTINUOUS
 62
   249
 10
177.5
 20
77.5
 30
0.0
 11
157.5
 21
77.5
 31
0.0
  0
LINE
  8
0
  6
CONTINUOUS
 62
   249
 10
157.5
 20
77.5
 30
0.0
 11
157.5
 21
77.5
 31
0.0
  0
LINE
  8
0
  6
CONTINUOUS
 62
   249
 10
275.0
 20
212.5
 30
0.0
 11
237.5
 21
212.5
 31
0.0
  0
LINE
  8
0
  6
CONTINUOUS
 62
   249
 10
237.5
 20
210.0
 30
0.0
 11
237.5
 21
215.0
 31
0.0
  0
LINE
  8
0
  6
CONTINUOUS
 62
   249
 10
237.5
 20
215.0
 30
0.0
 11
226.25
 21
215.0
 31
0.0
  0
LINE
  8
0
  6
CONTINUOUS
 62
   249
 10
226.25
 20
215.0
 30
0.0
 11
226.25
 21
210.0
 31
0.0
  0
LINE
  8
0
  6
CONTINUOUS
 62
   249
 10
232.5
 20
215.0
 30
0.0
 11
230.0
 21
211.25
 31
0.0
  0
LINE
  8
0
  6
CONTINUOUS
 62
   249
 10
234.375
 20
215.0
 30
0.0
 11
231.875
 21
211.25
 31
0.0
  0
LINE
  8
0
  6
CONTINUOUS
 62
   249
 10
237.5
 20
210.0
 30
0.0
 11
226.25
 21
210.0
 31
0.0
  0
TEXT
  8
0
  6
CONTINUOUS
 62
   249
 10
267.5
 20
208.75
 30
0.0
 40
2.0
  1
61
  7
ROMANS
  0
TEXT
  8
0
  6
CONTINUOUS
 62
   249
 10
267.5
 20
203.915959
 30
0.0
 40
2.0
  1
62
  7
ROMANS
  0
TEXT
  8
0
  6
CONTINUOUS
 62
   249
 10
267.5
 20
199.075348
 30
0.0
 40
2.0
  1
63
  7
ROMANS
  0
TEXT
  8
0
  6
CONTINUOUS
 62
   249
 10
267.5
 20
194.058219
 30
0.0
 40
2.0
  1
64
  7
ROMANS
  0
TEXT
  8
0
  6
CONTINUOUS
 62
   249
 10
267.5
 20
188.987037
 30
0.0
 40
2.0
  1
65
  7
ROMANS
  0
TEXT
  8
0
  6
CONTINUOUS
 62
   249
 10
267.5
 20
183.91261
 30
0.0
 40
2.0
  1
66
  7
ROMANS
  0
TEXT
  8
0
  6
CONTINUOUS
 62
   249
 10
267.5
 20
179.092136
 30
0.0
 40
2.0
  1
67
  7
ROMANS
  0
TEXT
  8
0
  6
CONTINUOUS
 62
   249
 10
267.5
 20
174.044549
 30
0.0
 40
2.0
  1
68
  7
ROMANS
  0
TEXT
  8
0
  6
CONTINUOUS
 62
   249
 10
267.5
 20
168.963339
 30
0.0
 40
2.0
  1
69
  7
ROMANS
  0
TEXT
  8
0
  6
CONTINUOUS
 62
   249
 10
267.5
 20
164.029308
 30
0.0
 40
2.0
  1
70
  7
ROMANS
  0
TEXT
  8
0
  6
CONTINUOUS
 62
   249
 10
267.5
 20
158.827758
 30
0.0
 40
2.0
  1
71
  7
ROMANS
  0
TEXT
  8
0
  6
CONTINUOUS
 62
   249
 10
267.5
 20
154.385115
 30
0.0
 40
2.0
  1
72
  7
ROMANS
  0
TEXT
  8
0
  6
CONTINUOUS
 62
   249
 10
267.5
 20
149.193593
 30
0.0
 40
2.0
  1
49
  7
ROMANS
  0
TEXT
  8
0
  6
CONTINUOUS
 62
   249
 10
267.5
 20
143.878487
 30
0.0
 40
2.0
  1
50
  7
ROMANS
  0
TEXT
  8
0
  6
CONTINUOUS
 62
   249
 10
267.5
 20
139.047984
 30
0.0
 40
2.0
  1
51
  7
ROMANS
  0
TEXT
  8
0
  6
CONTINUOUS
 62
   249
 10
267.5
 20
133.732878
 30
0.0
 40
2.0
  1
52
  7
ROMANS
  0
TEXT
  8
0
  6
CONTINUOUS
 62
   249
 10
267.5
 20
128.92597
 30
0.0
 40
2.0
  1
53
  7
ROMANS
  0
TEXT
  8
0
  6
CONTINUOUS
 62
   249
 10
267.5
 20
124.095467
 30
0.0
 40
2.0
  1
54
  7
ROMANS
  0
TEXT
  8
0
  6
CONTINUOUS
 62
   249
 10
267.5
 20
119.034314
 30
0.0
 40
2.0
  1
55
  7
ROMANS
  0
TEXT
  8
0
  6
CONTINUOUS
 62
   249
 10
267.5
 20
113.84633
 30
0.0
 40
2.0
  1
56
  7
ROMANS
  0
TEXT
  8
0
  6
CONTINUOUS
 62
   249
 10
267.5
 20
109.139412
 30
0.0
 40
2.0
  1
57
  7
ROMANS
  0
TEXT
  8
0
  6
CONTINUOUS
 62
   249
 10
267.5
 20
103.824306
 30
0.0
 40
2.0
  1
58
  7
ROMANS
  0
TEXT
  8
0
  6
CONTINUOUS
 62
   249
 10
267.5
 20
98.890275
 30
0.0
 40
2.0
  1
59
  7
ROMANS
  0
TEXT
  8
0
  6
CONTINUOUS
 62
   249
 10
267.5
 20
93.685481
 30
0.0
 40
2.0
  1
60
  7
ROMANS
  0
LINE
  8
0
  6
CONTINUOUS
 62
   249
 10
237.5
 20
205.0
 30
0.0
 11
226.25
 21
205.0
 31
0.0
  0
LINE
  8
0
  6
CONTINUOUS
 62
   249
 10
234.375
 20
210.0
 30
0.0
 11
231.875
 21
206.25
 31
0.0
  0
LINE
  8
0
  6
CONTINUOUS
 62
   249
 10
232.5
 20
210.0
 30
0.0
 11
230.0
 21
206.25
 31
0.0
  0
LINE
  8
0
  6
CONTINUOUS
 62
   249
 10
226.25
 20
210.0
 30
0.0
 11
226.25
 21
205.0
 31
0.0
  0
LINE
  8
0
  6
CONTINUOUS
 62
   249
 10
237.5
 20
210.0
 30
0.0
 11
226.25
 21
210.0
 31
0.0
  0
LINE
  8
0
  6
CONTINUOUS
 62
   249
 10
237.5
 20
205.0
 30
0.0
 11
237.5
 21
210.0
 31
0.0
  0
LINE
  8
0
  6
CONTINUOUS
 62
   249
 10
275.0
 20
207.5
 30
0.0
 11
237.5
 21
207.5
 31
0.0
  0
LINE
  8
0
  6
CONTINUOUS
 62
   249
 10
237.5
 20
200.0
 30
0.0
 11
226.25
 21
200.0
 31
0.0
  0
LINE
  8
0
  6
CONTINUOUS
 62
   249
 10
234.375
 20
205.0
 30
0.0
 11
231.875
 21
201.25
 31
0.0
  0
LINE
  8
0
  6
CONTINUOUS
 62
   249
 10
232.5
 20
205.0
 30
0.0
 11
230.0
 21
201.25
 31
0.0
  0
LINE
  8
0
  6
CONTINUOUS
 62
   249
 10
226.25
 20
205.0
 30
0.0
 11
226.25
 21
200.0
 31
0.0
  0
LINE
  8
0
  6
CONTINUOUS
 62
   249
 10
237.5
 20
205.0
 30
0.0
 11
226.25
 21
205.0
 31
0.0
  0
LINE
  8
0
  6
CONTINUOUS
 62
   249
 10
237.5
 20
200.0
 30
0.0
 11
237.5
 21
205.0
 31
0.0
  0
LINE
  8
0
  6
CONTINUOUS
 62
   249
 10
275.0
 20
202.5
 30
0.0
 11
237.5
 21
202.5
 31
0.0
  0
LINE
  8
0
  6
CONTINUOUS
 62
   249
 10
237.5
 20
195.0
 30
0.0
 11
226.25
 21
195.0
 31
0.0
  0
LINE
  8
0
  6
CONTINUOUS
 62
   249
 10
234.375
 20
200.0
 30
0.0
 11
231.875
 21
196.25
 31
0.0
  0
LINE
  8
0
  6
CONTINUOUS
 62
   249
 10
232.5
 20
200.0
 30
0.0
 11
230.0
 21
196.25
 31
0.0
  0
LINE
  8
0
  6
CONTINUOUS
 62
   249
 10
226.25
 20
200.0
 30
0.0
 11
226.25
 21
195.0
 31
0.0
  0
LINE
  8
0
  6
CONTINUOUS
 62
   249
 10
237.5
 20
200.0
 30
0.0
 11
226.25
 21
200.0
 31
0.0
  0
LINE
  8
0
  6
CONTINUOUS
 62
   249
 10
237.5
 20
195.0
 30
0.0
 11
237.5
 21
200.0
 31
0.0
  0
LINE
  8
0
  6
CONTINUOUS
 62
   249
 10
275.0
 20
197.5
 30
0.0
 11
237.5
 21
197.5
 31
0.0
  0
LINE
  8
0
  6
CONTINUOUS
 62
   249
 10
237.5
 20
190.0
 30
0.0
 11
226.25
 21
190.0
 31
0.0
  0
LINE
  8
0
  6
CONTINUOUS
 62
   249
 10
234.375
 20
195.0
 30
0.0
 11
231.875
 21
191.25
 31
0.0
  0
LINE
  8
0
  6
CONTINUOUS
 62
   249
 10
232.5
 20
195.0
 30
0.0
 11
230.0
 21
191.25
 31
0.0
  0
LINE
  8
0
  6
CONTINUOUS
 62
   249
 10
226.25
 20
195.0
 30
0.0
 11
226.25
 21
190.0
 31
0.0
  0
LINE
  8
0
  6
CONTINUOUS
 62
   249
 10
237.5
 20
195.0
 30
0.0
 11
226.25
 21
195.0
 31
0.0
  0
LINE
  8
0
  6
CONTINUOUS
 62
   249
 10
237.5
 20
190.0
 30
0.0
 11
237.5
 21
195.0
 31
0.0
  0
LINE
  8
0
  6
CONTINUOUS
 62
   249
 10
275.0
 20
192.5
 30
0.0
 11
237.5
 21
192.5
 31
0.0
  0
LINE
  8
0
  6
CONTINUOUS
 62
   249
 10
237.5
 20
185.0
 30
0.0
 11
226.25
 21
185.0
 31
0.0
  0
LINE
  8
0
  6
CONTINUOUS
 62
   249
 10
234.375
 20
190.0
 30
0.0
 11
231.875
 21
186.25
 31
0.0
  0
LINE
  8
0
  6
CONTINUOUS
 62
   249
 10
232.5
 20
190.0
 30
0.0
 11
230.0
 21
186.25
 31
0.0
  0
LINE
  8
0
  6
CONTINUOUS
 62
   249
 10
226.25
 20
190.0
 30
0.0
 11
226.25
 21
185.0
 31
0.0
  0
LINE
  8
0
  6
CONTINUOUS
 62
   249
 10
237.5
 20
190.0
 30
0.0
 11
226.25
 21
190.0
 31
0.0
  0
LINE
  8
0
  6
CONTINUOUS
 62
   249
 10
237.5
 20
185.0
 30
0.0
 11
237.5
 21
190.0
 31
0.0
  0
LINE
  8
0
  6
CONTINUOUS
 62
   249
 10
275.0
 20
187.5
 30
0.0
 11
237.5
 21
187.5
 31
0.0
  0
LINE
  8
0
  6
CONTINUOUS
 62
   249
 10
237.5
 20
180.0
 30
0.0
 11
226.25
 21
180.0
 31
0.0
  0
LINE
  8
0
  6
CONTINUOUS
 62
   249
 10
234.375
 20
185.0
 30
0.0
 11
231.875
 21
181.25
 31
0.0
  0
LINE
  8
0
  6
CONTINUOUS
 62
   249
 10
232.5
 20
185.0
 30
0.0
 11
230.0
 21
181.25
 31
0.0
  0
LINE
  8
0
  6
CONTINUOUS
 62
   249
 10
226.25
 20
185.0
 30
0.0
 11
226.25
 21
180.0
 31
0.0
  0
LINE
  8
0
  6
CONTINUOUS
 62
   249
 10
237.5
 20
185.0
 30
0.0
 11
226.25
 21
185.0
 31
0.0
  0
LINE
  8
0
  6
CONTINUOUS
 62
   249
 10
237.5
 20
180.0
 30
0.0
 11
237.5
 21
185.0
 31
0.0
  0
LINE
  8
0
  6
CONTINUOUS
 62
   249
 10
275.0
 20
182.5
 30
0.0
 11
237.5
 21
182.5
 31
0.0
  0
LINE
  8
0
  6
CONTINUOUS
 62
   249
 10
237.5
 20
175.0
 30
0.0
 11
226.25
 21
175.0
 31
0.0
  0
LINE
  8
0
  6
CONTINUOUS
 62
   249
 10
234.375
 20
180.0
 30
0.0
 11
231.875
 21
176.25
 31
0.0
  0
LINE
  8
0
  6
CONTINUOUS
 62
   249
 10
232.5
 20
180.0
 30
0.0
 11
230.0
 21
176.25
 31
0.0
  0
LINE
  8
0
  6
CONTINUOUS
 62
   249
 10
226.25
 20
180.0
 30
0.0
 11
226.25
 21
175.0
 31
0.0
  0
LINE
  8
0
  6
CONTINUOUS
 62
   249
 10
237.5
 20
180.0
 30
0.0
 11
226.25
 21
180.0
 31
0.0
  0
LINE
  8
0
  6
CONTINUOUS
 62
   249
 10
237.5
 20
175.0
 30
0.0
 11
237.5
 21
180.0
 31
0.0
  0
LINE
  8
0
  6
CONTINUOUS
 62
   249
 10
275.0
 20
177.5
 30
0.0
 11
237.5
 21
177.5
 31
0.0
  0
LINE
  8
0
  6
CONTINUOUS
 62
   249
 10
226.25
 20
175.0
 30
0.0
 11
226.25
 21
170.0
 31
0.0
  0
LINE
  8
0
  6
CONTINUOUS
 62
   249
 10
237.5
 20
175.0
 30
0.0
 11
226.25
 21
175.0
 31
0.0
  0
LINE
  8
0
  6
CONTINUOUS
 62
   249
 10
237.5
 20
170.0
 30
0.0
 11
237.5
 21
175.0
 31
0.0
  0
LINE
  8
0
  6
CONTINUOUS
 62
   249
 10
275.0
 20
172.5
 30
0.0
 11
237.5
 21
172.5
 31
0.0
  0
LINE
  8
0
  6
CONTINUOUS
 62
   249
 10
226.25
 20
170.0
 30
0.0
 11
226.25
 21
165.0
 31
0.0
  0
LINE
  8
0
  6
CONTINUOUS
 62
   249
 10
237.5
 20
165.0
 30
0.0
 11
237.5
 21
170.0
 31
0.0
  0
LINE
  8
0
  6
CONTINUOUS
 62
   249
 10
275.0
 20
167.5
 30
0.0
 11
237.5
 21
167.5
 31
0.0
  0
LINE
  8
0
  6
CONTINUOUS
 62
   249
 10
226.25
 20
165.0
 30
0.0
 11
226.25
 21
160.0
 31
0.0
  0
LINE
  8
0
  6
CONTINUOUS
 62
   249
 10
237.5
 20
160.0
 30
0.0
 11
237.5
 21
165.0
 31
0.0
  0
LINE
  8
0
  6
CONTINUOUS
 62
   249
 10
275.0
 20
162.5
 30
0.0
 11
237.5
 21
162.5
 31
0.0
  0
LINE
  8
0
  6
CONTINUOUS
 62
   249
 10
226.25
 20
160.0
 30
0.0
 11
226.25
 21
155.0
 31
0.0
  0
LINE
  8
0
  6
CONTINUOUS
 62
   249
 10
237.5
 20
155.0
 30
0.0
 11
237.5
 21
160.0
 31
0.0
  0
LINE
  8
0
  6
CONTINUOUS
 62
   249
 10
275.0
 20
157.5
 30
0.0
 11
237.5
 21
157.5
 31
0.0
  0
LINE
  8
0
  6
CONTINUOUS
 62
   249
 10
226.25
 20
155.0
 30
0.0
 11
226.25
 21
150.0
 31
0.0
  0
LINE
  8
0
  6
CONTINUOUS
 62
   249
 10
237.5
 20
150.0
 30
0.0
 11
237.5
 21
155.0
 31
0.0
  0
LINE
  8
0
  6
CONTINUOUS
 62
   249
 10
275.0
 20
152.5
 30
0.0
 11
237.5
 21
152.5
 31
0.0
  0
LINE
  8
0
  6
CONTINUOUS
 62
   249
 10
237.5
 20
145.0
 30
0.0
 11
226.25
 21
145.0
 31
0.0
  0
LINE
  8
0
  6
CONTINUOUS
 62
   249
 10
226.25
 20
150.0
 30
0.0
 11
226.25
 21
145.0
 31
0.0
  0
LINE
  8
0
  6
CONTINUOUS
 62
   249
 10
237.5
 20
145.0
 30
0.0
 11
237.5
 21
150.0
 31
0.0
  0
LINE
  8
0
  6
CONTINUOUS
 62
   249
 10
275.0
 20
147.5
 30
0.0
 11
237.5
 21
147.5
 31
0.0
  0
LINE
  8
0
  6
CONTINUOUS
 62
   249
 10
237.5
 20
140.0
 30
0.0
 11
226.25
 21
140.0
 31
0.0
  0
LINE
  8
0
  6
CONTINUOUS
 62
   249
 10
234.375
 20
145.0
 30
0.0
 11
231.875
 21
141.25
 31
0.0
  0
LINE
  8
0
  6
CONTINUOUS
 62
   249
 10
232.5
 20
145.0
 30
0.0
 11
230.0
 21
141.25
 31
0.0
  0
LINE
  8
0
  6
CONTINUOUS
 62
   249
 10
226.25
 20
145.0
 30
0.0
 11
226.25
 21
140.0
 31
0.0
  0
LINE
  8
0
  6
CONTINUOUS
 62
   249
 10
237.5
 20
145.0
 30
0.0
 11
226.25
 21
145.0
 31
0.0
  0
LINE
  8
0
  6
CONTINUOUS
 62
   249
 10
237.5
 20
140.0
 30
0.0
 11
237.5
 21
145.0
 31
0.0
  0
LINE
  8
0
  6
CONTINUOUS
 62
   249
 10
275.0
 20
142.5
 30
0.0
 11
237.5
 21
142.5
 31
0.0
  0
LINE
  8
0
  6
CONTINUOUS
 62
   249
 10
237.5
 20
135.0
 30
0.0
 11
226.25
 21
135.0
 31
0.0
  0
LINE
  8
0
  6
CONTINUOUS
 62
   249
 10
234.375
 20
140.0
 30
0.0
 11
231.875
 21
136.25
 31
0.0
  0
LINE
  8
0
  6
CONTINUOUS
 62
   249
 10
232.5
 20
140.0
 30
0.0
 11
230.0
 21
136.25
 31
0.0
  0
LINE
  8
0
  6
CONTINUOUS
 62
   249
 10
226.25
 20
140.0
 30
0.0
 11
226.25
 21
135.0
 31
0.0
  0
LINE
  8
0
  6
CONTINUOUS
 62
   249
 10
237.5
 20
140.0
 30
0.0
 11
226.25
 21
140.0
 31
0.0
  0
LINE
  8
0
  6
CONTINUOUS
 62
   249
 10
237.5
 20
135.0
 30
0.0
 11
237.5
 21
140.0
 31
0.0
  0
LINE
  8
0
  6
CONTINUOUS
 62
   249
 10
275.0
 20
137.5
 30
0.0
 11
237.5
 21
137.5
 31
0.0
  0
LINE
  8
0
  6
CONTINUOUS
 62
   249
 10
237.5
 20
130.0
 30
0.0
 11
226.25
 21
130.0
 31
0.0
  0
LINE
  8
0
  6
CONTINUOUS
 62
   249
 10
234.375
 20
135.0
 30
0.0
 11
231.875
 21
131.25
 31
0.0
  0
LINE
  8
0
  6
CONTINUOUS
 62
   249
 10
232.5
 20
135.0
 30
0.0
 11
230.0
 21
131.25
 31
0.0
  0
LINE
  8
0
  6
CONTINUOUS
 62
   249
 10
226.25
 20
135.0
 30
0.0
 11
226.25
 21
130.0
 31
0.0
  0
LINE
  8
0
  6
CONTINUOUS
 62
   249
 10
237.5
 20
135.0
 30
0.0
 11
226.25
 21
135.0
 31
0.0
  0
LINE
  8
0
  6
CONTINUOUS
 62
   249
 10
237.5
 20
130.0
 30
0.0
 11
237.5
 21
135.0
 31
0.0
  0
LINE
  8
0
  6
CONTINUOUS
 62
   249
 10
275.0
 20
132.5
 30
0.0
 11
237.5
 21
132.5
 31
0.0
  0
LINE
  8
0
  6
CONTINUOUS
 62
   249
 10
237.5
 20
125.0
 30
0.0
 11
226.25
 21
125.0
 31
0.0
  0
LINE
  8
0
  6
CONTINUOUS
 62
   249
 10
234.375
 20
130.0
 30
0.0
 11
231.875
 21
126.25
 31
0.0
  0
LINE
  8
0
  6
CONTINUOUS
 62
   249
 10
232.5
 20
130.0
 30
0.0
 11
230.0
 21
126.25
 31
0.0
  0
LINE
  8
0
  6
CONTINUOUS
 62
   249
 10
226.25
 20
130.0
 30
0.0
 11
226.25
 21
125.0
 31
0.0
  0
LINE
  8
0
  6
CONTINUOUS
 62
   249
 10
237.5
 20
130.0
 30
0.0
 11
226.25
 21
130.0
 31
0.0
  0
LINE
  8
0
  6
CONTINUOUS
 62
   249
 10
237.5
 20
125.0
 30
0.0
 11
237.5
 21
130.0
 31
0.0
  0
LINE
  8
0
  6
CONTINUOUS
 62
   249
 10
275.0
 20
127.5
 30
0.0
 11
237.5
 21
127.5
 31
0.0
  0
LINE
  8
0
  6
CONTINUOUS
 62
   249
 10
237.5
 20
120.0
 30
0.0
 11
226.25
 21
120.0
 31
0.0
  0
LINE
  8
0
  6
CONTINUOUS
 62
   249
 10
234.375
 20
125.0
 30
0.0
 11
231.875
 21
121.25
 31
0.0
  0
LINE
  8
0
  6
CONTINUOUS
 62
   249
 10
232.5
 20
125.0
 30
0.0
 11
230.0
 21
121.25
 31
0.0
  0
LINE
  8
0
  6
CONTINUOUS
 62
   249
 10
226.25
 20
125.0
 30
0.0
 11
226.25
 21
120.0
 31
0.0
  0
LINE
  8
0
  6
CONTINUOUS
 62
   249
 10
237.5
 20
125.0
 30
0.0
 11
226.25
 21
125.0
 31
0.0
  0
LINE
  8
0
  6
CONTINUOUS
 62
   249
 10
237.5
 20
120.0
 30
0.0
 11
237.5
 21
125.0
 31
0.0
  0
LINE
  8
0
  6
CONTINUOUS
 62
   249
 10
275.0
 20
122.5
 30
0.0
 11
237.5
 21
122.5
 31
0.0
  0
LINE
  8
0
  6
CONTINUOUS
 62
   249
 10
237.5
 20
115.0
 30
0.0
 11
226.25
 21
115.0
 31
0.0
  0
LINE
  8
0
  6
CONTINUOUS
 62
   249
 10
234.375
 20
120.0
 30
0.0
 11
231.875
 21
116.25
 31
0.0
  0
LINE
  8
0
  6
CONTINUOUS
 62
   249
 10
232.5
 20
120.0
 30
0.0
 11
230.0
 21
116.25
 31
0.0
  0
LINE
  8
0
  6
CONTINUOUS
 62
   249
 10
226.25
 20
120.0
 30
0.0
 11
226.25
 21
115.0
 31
0.0
  0
LINE
  8
0
  6
CONTINUOUS
 62
   249
 10
237.5
 20
120.0
 30
0.0
 11
226.25
 21
120.0
 31
0.0
  0
LINE
  8
0
  6
CONTINUOUS
 62
   249
 10
237.5
 20
115.0
 30
0.0
 11
237.5
 21
120.0
 31
0.0
  0
LINE
  8
0
  6
CONTINUOUS
 62
   249
 10
275.0
 20
117.5
 30
0.0
 11
237.5
 21
117.5
 31
0.0
  0
LINE
  8
0
  6
CONTINUOUS
 62
   249
 10
226.25
 20
115.0
 30
0.0
 11
226.25
 21
110.0
 31
0.0
  0
LINE
  8
0
  6
CONTINUOUS
 62
   249
 10
237.5
 20
115.0
 30
0.0
 11
226.25
 21
115.0
 31
0.0
  0
LINE
  8
0
  6
CONTINUOUS
 62
   249
 10
237.5
 20
110.0
 30
0.0
 11
237.5
 21
115.0
 31
0.0
  0
LINE
  8
0
  6
CONTINUOUS
 62
   249
 10
275.0
 20
112.5
 30
0.0
 11
237.5
 21
112.5
 31
0.0
  0
LINE
  8
0
  6
CONTINUOUS
 62
   249
 10
226.25
 20
110.0
 30
0.0
 11
226.25
 21
105.0
 31
0.0
  0
LINE
  8
0
  6
CONTINUOUS
 62
   249
 10
237.5
 20
105.0
 30
0.0
 11
237.5
 21
110.0
 31
0.0
  0
LINE
  8
0
  6
CONTINUOUS
 62
   249
 10
275.0
 20
107.5
 30
0.0
 11
237.5
 21
107.5
 31
0.0
  0
LINE
  8
0
  6
CONTINUOUS
 62
   249
 10
226.25
 20
105.0
 30
0.0
 11
226.25
 21
100.0
 31
0.0
  0
LINE
  8
0
  6
CONTINUOUS
 62
   249
 10
237.5
 20
100.0
 30
0.0
 11
237.5
 21
105.0
 31
0.0
  0
LINE
  8
0
  6
CONTINUOUS
 62
   249
 10
275.0
 20
102.5
 30
0.0
 11
237.5
 21
102.5
 31
0.0
  0
LINE
  8
0
  6
CONTINUOUS
 62
   249
 10
226.25
 20
100.0
 30
0.0
 11
226.25
 21
95.0
 31
0.0
  0
LINE
  8
0
  6
CONTINUOUS
 62
   249
 10
237.5
 20
95.0
 30
0.0
 11
237.5
 21
100.0
 31
0.0
  0
LINE
  8
0
  6
CONTINUOUS
 62
   249
 10
275.0
 20
97.5
 30
0.0
 11
237.5
 21
97.5
 31
0.0
  0
LINE
  8
0
  6
CONTINUOUS
 62
   249
 10
237.5
 20
90.0
 30
0.0
 11
226.25
 21
90.0
 31
0.0
  0
LINE
  8
0
  6
CONTINUOUS
 62
   249
 10
226.25
 20
95.0
 30
0.0
 11
226.25
 21
90.0
 31
0.0
  0
LINE
  8
0
  6
CONTINUOUS
 62
   249
 10
237.5
 20
90.0
 30
0.0
 11
237.5
 21
95.0
 31
0.0
  0
LINE
  8
0
  6
CONTINUOUS
 62
   249
 10
237.5
 20
150.0
 30
0.0
 11
226.25
 21
150.0
 31
0.0
  0
LINE
  8
0
  6
CONTINUOUS
 62
   249
 10
232.5
 20
150.0
 30
0.0
 11
230.0
 21
146.25
 31
0.0
  0
LINE
  8
0
  6
CONTINUOUS
 62
   249
 10
234.375
 20
150.0
 30
0.0
 11
231.875
 21
146.25
 31
0.0
  0
LINE
  8
0
  6
CONTINUOUS
 62
   249
 10
237.5
 20
155.0
 30
0.0
 11
226.25
 21
155.0
 31
0.0
  0
LINE
  8
0
  6
CONTINUOUS
 62
   249
 10
232.5
 20
155.0
 30
0.0
 11
230.0
 21
151.25
 31
0.0
  0
LINE
  8
0
  6
CONTINUOUS
 62
   249
 10
234.375
 20
155.0
 30
0.0
 11
231.875
 21
151.25
 31
0.0
  0
TEXT
  8
0
  6
CONTINUOUS
 62
   249
 10
227.5
 20
164.038411
 30
0.0
 40
2.0
  1
+48V
  7
GREEKS
  0
TEXT
  8
0
  6
CONTINUOUS
 62
   249
 10
227.5
 20
101.868217
 30
0.0
 40
2.0
  1
+48V
  7
GREEKS
  0
TEXT
  8
0
  6
CONTINUOUS
 62
   249
 10
243.186262
 20
209.086108
 30
0.0
 40
2.0
  1
CH 1
  7
ROMANS
  0
TEXT
  8
0
  6
CONTINUOUS
 62
   249
 10
243.186262
 20
204.373765
 30
0.0
 40
2.0
  1
CH 2
  7
ROMANS
  0
TEXT
  8
0
  6
CONTINUOUS
 62
   249
 10
243.186262
 20
199.296857
 30
0.0
 40
2.0
  1
CH 3
  7
ROMANS
  0
TEXT
  8
0
  6
CONTINUOUS
 62
   249
 10
243.186262
 20
194.227874
 30
0.0
 40
2.0
  1
CH 4
  7
ROMANS
  0
TEXT
  8
0
  6
CONTINUOUS
 62
   249
 10
243.186262
 20
189.158891
 30
0.0
 40
2.0
  1
CH 5
  7
ROMANS
  0
TEXT
  8
0
  6
CONTINUOUS
 62
   249
 10
243.186262
 20
183.749118
 30
0.0
 40
2.0
  1
CH 6
  7
ROMANS
  0
TEXT
  8
0
  6
CONTINUOUS
 62
   249
 10
243.186262
 20
179.02885
 30
0.0
 40
2.0
  1
CH 7
  7
ROMANS
  0
TEXT
  8
0
  6
CONTINUOUS
 62
   249
 10
243.186262
 20
173.951942
 30
0.0
 40
2.0
  1
CH 8
  7
ROMANS
  0
TEXT
  8
0
  6
CONTINUOUS
 62
   249
 10
243.186262
 20
149.117159
 30
0.0
 40
2.0
  1
CH 9
  7
ROMANS
  0
TEXT
  8
0
  6
CONTINUOUS
 62
   249
 10
243.186262
 20
144.396891
 30
0.0
 40
2.0
  1
CH 10
  7
ROMANS
  0
TEXT
  8
0
  6
CONTINUOUS
 62
   249
 10
243.186262
 20
139.327908
 30
0.0
 40
2.0
  1
CH 11
  7
ROMANS
  0
TEXT
  8
0
  6
CONTINUOUS
 62
   249
 10
243.186262
 20
133.91021
 30
0.0
 40
2.0
  1
CH 12
  7
ROMANS
  0
TEXT
  8
0
  6
CONTINUOUS
 62
   249
 10
243.186262
 20
129.189942
 30
0.0
 40
2.0
  1
CH 13
  7
ROMANS
  0
TEXT
  8
0
  6
CONTINUOUS
 62
   249
 10
243.186262
 20
124.128884
 30
0.0
 40
2.0
  1
CH 14
  7
ROMANS
  0
TEXT
  8
0
  6
CONTINUOUS
 62
   249
 10
243.186262
 20
119.051976
 30
0.0
 40
2.0
  1
CH 15
  7
ROMANS
  0
TEXT
  8
0
  6
CONTINUOUS
 62
   249
 10
243.186262
 20
113.990918
 30
0.0
 40
2.0
  1
CH 16
  7
ROMANS
  0
LINE
  8
0
  6
CONTINUOUS
 62
   249
 10
135.0
 20
208.75
 30
0.0
 11
135.0
 21
200.047209
 31
0.0
  0
LINE
  8
0
  6
CONTINUOUS
 62
   249
 10
135.0
 20
217.5
 30
0.0
 11
135.0
 21
208.75
 31
0.0
  0
LINE
  8
0
  6
CONTINUOUS
 62
   249
 10
152.5
 20
217.5
 30
0.0
 11
135.0
 21
217.5
 31
0.0
  0
LINE
  8
0
  6
CONTINUOUS
 62
   249
 10
152.5
 20
208.75
 30
0.0
 11
152.5
 21
217.5
 31
0.0
  0
LINE
  8
0
  6
CONTINUOUS
 62
   249
 10
152.5
 20
200.064564
 30
0.0
 11
152.5
 21
208.75
 31
0.0
  0
CIRCLE
  8
0
  6
CONTINUOUS
 62
   249
 10
160.0
 20
212.5
 30
0.0
 40
0.9375
  0
CIRCLE
  8
0
  6
CONTINUOUS
 62
   249
 10
160.0
 20
204.857002
 30
0.0
 40
0.9375
  0
LINE
  8
0
  6
CONTINUOUS
 62
   249
 10
152.5
 20
212.5
 30
0.0
 11
159.0625
 21
212.5
 31
0.0
  0
LINE
  8
0
  6
CONTINUOUS
 62
   249
 10
152.5
 20
204.857002
 30
0.0
 11
159.0625
 21
204.857002
 31
0.0
  0
LINE
  8
0
  6
CONTINUOUS
 62
   249
 10
222.5
 20
213.0
 30
0.0
 11
222.5
 21
176.0
 31
0.0
  0
LINE
  8
0
  6
CONTINUOUS
 62
   249
 10
222.5
 20
213.0
 30
0.0
 11
223.5
 21
214.0
 31
0.0
  0
LINE
  8
0
  6
CONTINUOUS
 62
   249
 10
222.5
 20
176.0
 30
0.0
 11
223.5
 21
175.0
 31
0.0
  0
LINE
  8
0
  6
CONTINUOUS
 62
   249
 10
135.0
 20
212.5
 30
0.0
 11
107.5
 21
212.5
 31
0.0
  0
LINE
  8
0
  6
CONTINUOUS
 62
   249
 10
222.5
 20
116.0
 30
0.0
 11
223.5
 21
115.0
 31
0.0
  0
LINE
  8
0
  6
CONTINUOUS
 62
   249
 10
222.5
 20
153.0
 30
0.0
 11
223.5
 21
154.0
 31
0.0
  0
LINE
  8
0
  6
CONTINUOUS
 62
   249
 10
222.5
 20
153.0
 30
0.0
 11
222.5
 21
116.0
 31
0.0
  0
LINE
  8
0
  6
CONTINUOUS
 62
   249
 10
222.5
 20
195.0
 30
0.0
 11
202.5
 21
195.0
 31
0.0
  0
LINE
  8
0
  6
CONTINUOUS
 62
   249
 10
222.5
 20
135.0
 30
0.0
 11
202.5
 21
135.0
 31
0.0
  0
LINE
  8
0
  6
CONTINUOUS
 62
   249
 10
202.5
 20
78.5
 30
0.0
 11
201.5
 21
77.5
 31
0.0
  0
LINE
  8
0
  6
CONTINUOUS
 62
   249
 10
202.5
 20
215.5
 30
0.0
 11
201.5
 21
216.5
 31
0.0
  0
LINE
  8
0
  6
CONTINUOUS
 62
   249
 10
202.5
 20
215.5
 30
0.0
 11
202.5
 21
78.5
 31
0.0
  0
LINE
  8
0
  6
CONTINUOUS
 62
   249
 10
226.25
 20
165.0
 30
0.0
 11
217.528048
 21
165.0
 31
0.0
  0
LINE
  8
0
  6
CONTINUOUS
 62
   249
 10
217.528048
 20
242.5
 30
0.0
 11
217.528048
 21
40.0
 31
0.0
  0
LINE
  8
0
  6
CONTINUOUS
 62
   249
 10
226.25
 20
100.0
 30
0.0
 11
217.528048
 21
100.0
 31
0.0
  0
LINE
  8
0
  6
CONTINUOUS
 62
   249
 10
136.213442
 20
75.026599
 30
0.0
 11
135.191839
 21
76.004518
 31
0.0
  0
LINE
  8
0
  6
CONTINUOUS
 62
   249
 10
198.101867
 20
75.026599
 30
0.0
 11
199.246243
 21
76.222095
 31
0.0
  0
TEXT
  8
0
  6
CONTINUOUS
 62
   249
 10
28.609349
 20
237.976394
 30
0.0
 40
2.0
  1
RS 10020-AA
  7
ROMANS
  0
LINE
  8
0
  6
DASHED
 62
   249
 10
275.0
 20
212.5
 30
0.0
 11
297.5
 21
212.5
 31
0.0
  0
LINE
  8
0
  6
DASHED
 62
   249
 10
275.0
 20
207.5
 30
0.0
 11
297.5
 21
207.5
 31
0.0
  0
LINE
  8
0
  6
DASHED
 62
   249
 10
275.0
 20
202.5
 30
0.0
 11
297.5
 21
202.5
 31
0.0
  0
LINE
  8
0
  6
DASHED
 62
   249
 10
275.0
 20
197.5
 30
0.0
 11
297.5
 21
197.5
 31
0.0
  0
LINE
  8
0
  6
DASHED
 62
   249
 10
275.0
 20
192.5
 30
0.0
 11
297.5
 21
192.5
 31
0.0
  0
LINE
  8
0
  6
DASHED
 62
   249
 10
275.0
 20
187.5
 30
0.0
 11
297.5
 21
187.5
 31
0.0
  0
LINE
  8
0
  6
DASHED
 62
   249
 10
275.0
 20
182.5
 30
0.0
 11
297.5
 21
182.5
 31
0.0
  0
LINE
  8
0
  6
DASHED
 62
   249
 10
275.0
 20
172.5
 30
0.0
 11
311.25
 21
172.5
 31
0.0
  0
LINE
  8
0
  6
DASHED
 62
   249
 10
275.0
 20
167.5
 30
0.0
 11
311.25
 21
167.5
 31
0.0
  0
LINE
  8
0
  6
DASHED
 62
   249
 10
275.0
 20
162.5
 30
0.0
 11
297.5
 21
162.5
 31
0.0
  0
LINE
  8
0
  6
DASHED
 62
   249
 10
275.0
 20
152.5
 30
0.0
 11
297.5
 21
152.5
 31
0.0
  0
LINE
  8
0
  6
DASHED
 62
   249
 10
275.0
 20
147.5
 30
0.0
 11
297.5
 21
147.5
 31
0.0
  0
LINE
  8
0
  6
DASHED
 62
   249
 10
275.0
 20
142.5
 30
0.0
 11
297.5
 21
142.5
 31
0.0
  0
LINE
  8
0
  6
DASHED
 62
   249
 10
275.0
 20
137.5
 30
0.0
 11
297.5
 21
137.5
 31
0.0
  0
LINE
  8
0
  6
DASHED
 62
   249
 10
275.0
 20
132.5
 30
0.0
 11
297.5
 21
132.5
 31
0.0
  0
LINE
  8
0
  6
DASHED
 62
   249
 10
275.0
 20
127.5
 30
0.0
 11
297.5
 21
127.5
 31
0.0
  0
LINE
  8
0
  6
DASHED
 62
   249
 10
275.0
 20
102.5
 30
0.0
 11
311.25
 21
102.5
 31
0.0
  0
LINE
  8
0
  6
DASHED
 62
   249
 10
275.0
 20
97.5
 30
0.0
 11
297.5
 21
97.5
 31
0.0
  0
LINE
  8
0
  6
CONTINUOUS
 62
   249
 10
306.25
 20
212.5
 30
0.0
 11
311.25
 21
212.5
 31
0.0
  0
LINE
  8
0
  6
CONTINUOUS
 62
   249
 10
296.25
 20
212.5
 30
0.0
 11
301.25
 21
212.5
 31
0.0
  0
LINE
  8
0
  6
CONTINUOUS
 62
   249
 10
306.25
 20
212.5
 30
0.0
 11
300.506076
 21
209.285297
 31
0.0
  0
LINE
  8
0
  6
CONTINUOUS
 62
   249
 10
296.25
 20
207.5
 30
0.0
 11
301.25
 21
207.5
 31
0.0
  0
LINE
  8
0
  6
CONTINUOUS
 62
   249
 10
306.25
 20
207.5
 30
0.0
 11
300.506076
 21
204.285297
 31
0.0
  0
LINE
  8
0
  6
CONTINUOUS
 62
   249
 10
306.25
 20
207.5
 30
0.0
 11
311.25
 21
207.5
 31
0.0
  0
LINE
  8
0
  6
CONTINUOUS
 62
   249
 10
296.25
 20
202.5
 30
0.0
 11
301.25
 21
202.5
 31
0.0
  0
LINE
  8
0
  6
CONTINUOUS
 62
   249
 10
306.25
 20
202.5
 30
0.0
 11
300.506076
 21
199.285297
 31
0.0
  0
LINE
  8
0
  6
CONTINUOUS
 62
   249
 10
306.25
 20
202.5
 30
0.0
 11
311.25
 21
202.5
 31
0.0
  0
LINE
  8
0
  6
CONTINUOUS
 62
   249
 10
296.25
 20
197.5
 30
0.0
 11
301.25
 21
197.5
 31
0.0
  0
LINE
  8
0
  6
CONTINUOUS
 62
   249
 10
306.25
 20
197.5
 30
0.0
 11
300.506076
 21
194.285297
 31
0.0
  0
LINE
  8
0
  6
CONTINUOUS
 62
   249
 10
306.25
 20
197.5
 30
0.0
 11
311.25
 21
197.5
 31
0.0
  0
LINE
  8
0
  6
CONTINUOUS
 62
   249
 10
296.25
 20
192.5
 30
0.0
 11
301.25
 21
192.5
 31
0.0
  0
LINE
  8
0
  6
CONTINUOUS
 62
   249
 10
306.25
 20
192.5
 30
0.0
 11
300.506076
 21
189.285297
 31
0.0
  0
LINE
  8
0
  6
CONTINUOUS
 62
   249
 10
306.25
 20
192.5
 30
0.0
 11
311.25
 21
192.5
 31
0.0
  0
LINE
  8
0
  6
CONTINUOUS
 62
   249
 10
296.25
 20
187.5
 30
0.0
 11
301.25
 21
187.5
 31
0.0
  0
LINE
  8
0
  6
CONTINUOUS
 62
   249
 10
306.25
 20
187.5
 30
0.0
 11
300.506076
 21
184.285297
 31
0.0
  0
LINE
  8
0
  6
CONTINUOUS
 62
   249
 10
306.25
 20
187.5
 30
0.0
 11
311.25
 21
187.5
 31
0.0
  0
LINE
  8
0
  6
CONTINUOUS
 62
   249
 10
296.25
 20
182.5
 30
0.0
 11
301.25
 21
182.5
 31
0.0
  0
LINE
  8
0
  6
CONTINUOUS
 62
   249
 10
306.25
 20
182.5
 30
0.0
 11
300.506076
 21
179.285297
 31
0.0
  0
LINE
  8
0
  6
CONTINUOUS
 62
   249
 10
306.25
 20
182.5
 30
0.0
 11
311.25
 21
182.5
 31
0.0
  0
LINE
  8
0
  6
DASHED
 62
   249
 10
297.5
 20
162.5
 30
0.0
 11
311.25
 21
162.5
 31
0.0
  0
LINE
  8
0
  6
DASHED
 62
   249
 10
311.25
 20
157.5
 30
0.0
 11
311.25
 21
212.5
 31
0.0
  0
LINE
  8
0
  6
CONTINUOUS
 62
   249
 10
306.25
 20
152.5
 30
0.0
 11
300.506076
 21
149.285297
 31
0.0
  0
LINE
  8
0
  6
CONTINUOUS
 62
   249
 10
306.25
 20
152.5
 30
0.0
 11
311.25
 21
152.5
 31
0.0
  0
LINE
  8
0
  6
CONTINUOUS
 62
   249
 10
306.25
 20
147.5
 30
0.0
 11
311.25
 21
147.5
 31
0.0
  0
LINE
  8
0
  6
CONTINUOUS
 62
   249
 10
306.25
 20
147.5
 30
0.0
 11
300.506076
 21
144.285297
 31
0.0
  0
LINE
  8
0
  6
CONTINUOUS
 62
   249
 10
296.25
 20
152.5
 30
0.0
 11
301.25
 21
152.5
 31
0.0
  0
LINE
  8
0
  6
CONTINUOUS
 62
   249
 10
306.25
 20
142.5
 30
0.0
 11
311.25
 21
142.5
 31
0.0
  0
LINE
  8
0
  6
CONTINUOUS
 62
   249
 10
306.25
 20
142.5
 30
0.0
 11
300.506076
 21
139.285297
 31
0.0
  0
LINE
  8
0
  6
CONTINUOUS
 62
   249
 10
296.25
 20
147.5
 30
0.0
 11
301.25
 21
147.5
 31
0.0
  0
LINE
  8
0
  6
CONTINUOUS
 62
   249
 10
306.25
 20
137.5
 30
0.0
 11
311.25
 21
137.5
 31
0.0
  0
LINE
  8
0
  6
CONTINUOUS
 62
   249
 10
306.25
 20
137.5
 30
0.0
 11
300.506076
 21
134.285297
 31
0.0
  0
LINE
  8
0
  6
CONTINUOUS
 62
   249
 10
296.25
 20
142.5
 30
0.0
 11
301.25
 21
142.5
 31
0.0
  0
LINE
  8
0
  6
CONTINUOUS
 62
   249
 10
306.25
 20
132.5
 30
0.0
 11
311.25
 21
132.5
 31
0.0
  0
LINE
  8
0
  6
CONTINUOUS
 62
   249
 10
306.25
 20
132.5
 30
0.0
 11
300.506076
 21
129.285297
 31
0.0
  0
LINE
  8
0
  6
CONTINUOUS
 62
   249
 10
296.25
 20
137.5
 30
0.0
 11
301.25
 21
137.5
 31
0.0
  0
LINE
  8
0
  6
CONTINUOUS
 62
   249
 10
306.25
 20
127.5
 30
0.0
 11
311.25
 21
127.5
 31
0.0
  0
LINE
  8
0
  6
CONTINUOUS
 62
   249
 10
306.25
 20
127.5
 30
0.0
 11
300.506076
 21
124.285297
 31
0.0
  0
LINE
  8
0
  6
CONTINUOUS
 62
   249
 10
296.25
 20
132.5
 30
0.0
 11
301.25
 21
132.5
 31
0.0
  0
LINE
  8
0
  6
CONTINUOUS
 62
   249
 10
306.25
 20
122.5
 30
0.0
 11
311.25
 21
122.5
 31
0.0
  0
LINE
  8
0
  6
CONTINUOUS
 62
   249
 10
306.25
 20
122.5
 30
0.0
 11
300.506076
 21
119.285297
 31
0.0
  0
LINE
  8
0
  6
CONTINUOUS
 62
   249
 10
296.25
 20
127.5
 30
0.0
 11
301.25
 21
127.5
 31
0.0
  0
LINE
  8
0
  6
DASHED
 62
   249
 10
311.25
 20
152.5
 30
0.0
 11
311.25
 21
97.5
 31
0.0
  0
LINE
  8
0
  6
DASHED
 62
   249
 10
311.25
 20
97.5
 30
0.0
 11
297.5
 21
97.5
 31
0.0
  0
TEXT
  8
0
  6
DASHED
 62
   249
 10
283.75
 20
223.75
 30
0.0
 40
2.0
  1
FIELD CONTACTS CH1...CH16
  7
ROMANS
  0
TEXT
  8
0
  6
DASHED
 62
   249
 10
283.75
 20
220.416667
 30
0.0
 40
2.0
  1
SIGNALKONTAKTER CH1...CH16
  7
ROMANS
  0
TEXT
  8
0
  6
CONTINUOUS
 62
   249
 10
213.99146
 20
28.371196
 30
0.0
 40
2.0
  1
1993-06-28  KM / RITU 
  7
ROMANS
  0
TEXT
  8
0
  6
CONTINUOUS
 62
   249
 10
317.5
 20
27.5
 30
0.0
 40
2.0
  1
CIRCUIT DIAGRAM / KRETSSCHEMA
  7
ROMANS
  0
TEXT
  8
0
  6
CONTINUOUS
 62
   249
 10
317.5
 20
24.166667
 30
0.0
 40
2.0
  1
ANNUNCIATOR UNIT / LARMENHET
  7
ROMANS
  0
TEXT
  8
0
  6
CONTINUOUS
 62
   249
 10
317.5
 20
20.833333
 30
0.0
 40
2.0
  1
SACO 148 D4
  7
ROMANS
  0
TEXT
  8
0
  6
CONTINUOUS
 62
   249
 10
317.5
 20
2.5
 30
0.0
 40
2.5
  1
RS 10020-AA
  7
ROMANS
  0
TEXT
  8
0
  6
CONTINUOUS
 62
   249
 10
142.5
 20
212.5
 30
0.0
 40
2.0
  1
1
  7
ROMANS
  0
TEXT
  8
0
  6
CONTINUOUS
 62
   249
 10
142.5
 20
202.916667
 30
0.0
 40
2.0
  1
2
  7
ROMANS
  0
TEXT
  8
0
  6
CONTINUOUS
 62
   249
 10
129.021484
 20
225.561779
 30
0.0
 40
2.0
  1
GROUP ALARMS
  7
ROMANS
  0
TEXT
  8
0
  6
CONTINUOUS
 62
   249
 10
129.021484
 20
222.228446
 30
0.0
 40
2.0
  1
GRUPPLARM
  7
ROMANS
  0
TEXT
  8
0
  6
CONTINUOUS
 62
   249
 10
157.5
 20
225.561779
 30
0.0
 40
2.0
  1
GROUPING
  7
ROMANS
  0
TEXT
  8
0
  6
CONTINUOUS
 62
   249
 10
157.5
 20
222.228446
 30
0.0
 40
2.0
  1
GRUPPERING
  7
ROMANS
  0
TEXT
  8
0
  6
CONTINUOUS
 62
   249
 10
184.237284
 20
225.561779
 30
0.0
 40
2.0
  1
ALARM CHANNELS
  7
ROMANS
  0
TEXT
  8
0
  6
CONTINUOUS
 62
   249
 10
184.237284
 20
222.228446
 30
0.0
 40
2.0
  1
LARMKANALER
  7
ROMANS
  0
TEXT
  8
0
  6
CONTINUOUS
 62
   249
 10
190.0
 20
212.1356
 30
0.0
 40
2.0
  1
1
  7
ROMANS
  0
TEXT
  8
0
  6
CONTINUOUS
 62
   249
 10
190.0
 20
203.447211
 30
0.0
 40
2.0
  1
2
  7
ROMANS
  0
TEXT
  8
0
  6
CONTINUOUS
 62
   249
 10
190.0
 20
194.770205
 30
0.0
 40
2.0
  1
3
  7
ROMANS
  0
TEXT
  8
0
  6
CONTINUOUS
 62
   249
 10
190.0
 20
186.063128
 30
0.0
 40
2.0
  1
4
  7
GREEKS
  0
TEXT
  8
0
  6
CONTINUOUS
 62
   249
 10
190.0
 20
177.386123
 30
0.0
 40
2.0
  1
5
  7
ROMANS
  0
TEXT
  8
0
  6
CONTINUOUS
 62
   249
 10
190.0
 20
168.333333
 30
0.0
 40
2.0
  1
6
  7
GREEKS
  0
TEXT
  8
0
  6
CONTINUOUS
 62
   249
 10
190.0
 20
159.833856
 30
0.0
 40
2.0
  1
7
  7
ROMANS
  0
TEXT
  8
0
  6
CONTINUOUS
 62
   249
 10
190.0
 20
150.958595
 30
0.0
 40
2.0
  1
8
  7
ROMANS
  0
TEXT
  8
0
  6
CONTINUOUS
 62
   249
 10
190.0
 20
142.083333
 30
0.0
 40
2.0
  1
9
  7
ROMANS
  0
TEXT
  8
0
  6
CONTINUOUS
 62
   249
 10
188.538285
 20
133.572472
 30
0.0
 40
2.0
  1
10
  7
ROMANS
  0
TEXT
  8
0
  6
CONTINUOUS
 62
   249
 10
188.68206
 20
124.886123
 30
0.0
 40
2.0
  1
11
  7
ROMANS
  0
TEXT
  8
0
  6
CONTINUOUS
 62
   249
 10
188.526304
 20
115.833333
 30
0.0
 40
2.0
  1
12
  7
ROMANS
  0
TEXT
  8
0
  6
CONTINUOUS
 62
   249
 10
188.526304
 20
107.1356
 30
0.0
 40
2.0
  1
13
  7
ROMANS
  0
TEXT
  8
0
  6
CONTINUOUS
 62
   249
 10
188.526304
 20
97.916667
 30
0.0
 40
2.0
  1
14
  7
ROMANS
  0
TEXT
  8
0
  6
CONTINUOUS
 62
   249
 10
188.526304
 20
89.583333
 30
0.0
 40
2.0
  1
15
  7
ROMANS
  0
TEXT
  8
0
  6
CONTINUOUS
 62
   249
 10
188.526304
 20
80.894944
 30
0.0
 40
2.0
  1
16
  7
ROMANS
  0
LINE
  8
0
  6
CONTINUOUS
 62
   249
 10
135.0
 20
204.459653
 30
0.0
 11
107.5
 21
204.459653
 31
0.0
  0
LINE
  8
0
  6
CONTINUOUS
 62
   249
 10
152.5
 20
208.697875
 30
0.0
 11
135.0
 21
208.697875
 31
0.0
  0
LINE
  8
0
  6
CONTINUOUS
 62
   249
 10
152.5
 20
200.047209
 30
0.0
 11
135.0
 21
200.047209
 31
0.0
  0
LINE
  8
0
  6
CONTINUOUS
 62
   249
 10
152.5
 20
182.564564
 30
0.0
 11
135.0
 21
182.564564
 31
0.0
  0
LINE
  8
0
  6
CONTINUOUS
 62
   249
 10
152.5
 20
191.197875
 30
0.0
 11
135.0
 21
191.197875
 31
0.0
  0
TEXT
  8
0
  6
CONTINUOUS
 62
   249
 10
142.5
 20
185.416667
 30
0.0
 40
2.0
  1
4
  7
ROMANS
  0
TEXT
  8
0
  6
CONTINUOUS
 62
   249
 10
142.5
 20
195.0
 30
0.0
 40
2.0
  1
3
  7
ROMANS
  0
LINE
  8
0
  6
CONTINUOUS
 62
   249
 10
152.5
 20
187.357002
 30
0.0
 11
159.0625
 21
187.357002
 31
0.0
  0
LINE
  8
0
  6
CONTINUOUS
 62
   249
 10
152.5
 20
195.0
 30
0.0
 11
159.0625
 21
195.0
 31
0.0
  0
CIRCLE
  8
0
  6
CONTINUOUS
 62
   249
 10
160.0
 20
187.357002
 30
0.0
 40
0.9375
  0
CIRCLE
  8
0
  6
CONTINUOUS
 62
   249
 10
160.0
 20
195.0
 30
0.0
 40
0.9375
  0
LINE
  8
0
  6
CONTINUOUS
 62
   249
 10
152.5
 20
182.564564
 30
0.0
 11
152.5
 21
191.25
 31
0.0
  0
LINE
  8
0
  6
CONTINUOUS
 62
   249
 10
152.5
 20
191.25
 30
0.0
 11
152.5
 21
200.0
 31
0.0
  0
LINE
  8
0
  6
CONTINUOUS
 62
   249
 10
135.0
 20
200.0
 30
0.0
 11
135.0
 21
191.25
 31
0.0
  0
LINE
  8
0
  6
CONTINUOUS
 62
   249
 10
135.0
 20
191.25
 30
0.0
 11
135.0
 21
182.564564
 31
0.0
  0
LINE
  8
0
  6
CONTINUOUS
 62
   249
 10
135.0
 20
186.959653
 30
0.0
 11
107.5
 21
186.959653
 31
0.0
  0
LINE
  8
0
  6
CONTINUOUS
 62
   249
 10
135.0
 20
195.0
 30
0.0
 11
107.5
 21
195.0
 31
0.0
  0
LINE
  8
0
  6
CONTINUOUS
 62
   249
 10
152.5
 20
165.064564
 30
0.0
 11
135.0
 21
165.064564
 31
0.0
  0
LINE
  8
0
  6
CONTINUOUS
 62
   249
 10
152.5
 20
173.697875
 30
0.0
 11
135.0
 21
173.697875
 31
0.0
  0
TEXT
  8
0
  6
CONTINUOUS
 62
   249
 10
142.5
 20
167.916667
 30
0.0
 40
2.0
  1
6
  7
ROMANS
  0
TEXT
  8
0
  6
CONTINUOUS
 62
   249
 10
142.5
 20
177.5
 30
0.0
 40
2.0
  1
5
  7
ROMANS
  0
LINE
  8
0
  6
CONTINUOUS
 62
   249
 10
152.5
 20
169.857002
 30
0.0
 11
159.0625
 21
169.857002
 31
0.0
  0
LINE
  8
0
  6
CONTINUOUS
 62
   249
 10
152.5
 20
177.5
 30
0.0
 11
159.0625
 21
177.5
 31
0.0
  0
CIRCLE
  8
0
  6
CONTINUOUS
 62
   249
 10
160.0
 20
169.857002
 30
0.0
 40
0.9375
  0
CIRCLE
  8
0
  6
CONTINUOUS
 62
   249
 10
160.0
 20
177.5
 30
0.0
 40
0.9375
  0
LINE
  8
0
  6
CONTINUOUS
 62
   249
 10
152.5
 20
165.064564
 30
0.0
 11
152.5
 21
173.75
 31
0.0
  0
LINE
  8
0
  6
CONTINUOUS
 62
   249
 10
152.5
 20
173.75
 30
0.0
 11
152.5
 21
182.5
 31
0.0
  0
LINE
  8
0
  6
CONTINUOUS
 62
   249
 10
152.5
 20
182.5
 30
0.0
 11
135.0
 21
182.5
 31
0.0
  0
LINE
  8
0
  6
CONTINUOUS
 62
   249
 10
135.0
 20
182.5
 30
0.0
 11
135.0
 21
173.75
 31
0.0
  0
LINE
  8
0
  6
CONTINUOUS
 62
   249
 10
135.0
 20
173.75
 30
0.0
 11
135.0
 21
165.064564
 31
0.0
  0
LINE
  8
0
  6
CONTINUOUS
 62
   249
 10
135.0
 20
169.459653
 30
0.0
 11
107.5
 21
169.459653
 31
0.0
  0
LINE
  8
0
  6
CONTINUOUS
 62
   249
 10
135.0
 20
177.5
 30
0.0
 11
107.5
 21
177.5
 31
0.0
  0
LINE
  8
0
  6
CONTINUOUS
 62
   249
 10
152.5
 20
147.564564
 30
0.0
 11
135.0
 21
147.564564
 31
0.0
  0
LINE
  8
0
  6
CONTINUOUS
 62
   249
 10
152.5
 20
156.197875
 30
0.0
 11
135.0
 21
156.197875
 31
0.0
  0
TEXT
  8
0
  6
CONTINUOUS
 62
   249
 10
142.5
 20
150.416667
 30
0.0
 40
2.0
  1
8
  7
ROMANS
  0
TEXT
  8
0
  6
CONTINUOUS
 62
   249
 10
142.5
 20
160.0
 30
0.0
 40
2.0
  1
7
  7
ROMANS
  0
LINE
  8
0
  6
CONTINUOUS
 62
   249
 10
152.5
 20
152.357002
 30
0.0
 11
159.0625
 21
152.357002
 31
0.0
  0
LINE
  8
0
  6
CONTINUOUS
 62
   249
 10
152.5
 20
160.0
 30
0.0
 11
159.0625
 21
160.0
 31
0.0
  0
CIRCLE
  8
0
  6
CONTINUOUS
 62
   249
 10
160.0
 20
152.357002
 30
0.0
 40
0.9375
  0
CIRCLE
  8
0
  6
CONTINUOUS
 62
   249
 10
160.0
 20
160.0
 30
0.0
 40
0.9375
  0
LINE
  8
0
  6
CONTINUOUS
 62
   249
 10
152.5
 20
147.564564
 30
0.0
 11
152.5
 21
156.25
 31
0.0
  0
LINE
  8
0
  6
CONTINUOUS
 62
   249
 10
152.5
 20
156.25
 30
0.0
 11
152.5
 21
165.0
 31
0.0
  0
LINE
  8
0
  6
CONTINUOUS
 62
   249
 10
152.5
 20
165.0
 30
0.0
 11
135.0
 21
165.0
 31
0.0
  0
LINE
  8
0
  6
CONTINUOUS
 62
   249
 10
135.0
 20
165.0
 30
0.0
 11
135.0
 21
156.25
 31
0.0
  0
LINE
  8
0
  6
CONTINUOUS
 62
   249
 10
135.0
 20
156.25
 30
0.0
 11
135.0
 21
147.564564
 31
0.0
  0
LINE
  8
0
  6
CONTINUOUS
 62
   249
 10
135.0
 20
151.959653
 30
0.0
 11
107.5
 21
151.959653
 31
0.0
  0
LINE
  8
0
  6
CONTINUOUS
 62
   249
 10
135.0
 20
160.0
 30
0.0
 11
107.5
 21
160.0
 31
0.0
  0
LINE
  8
0
  6
CONTINUOUS
 62
   249
 10
152.5
 20
130.064564
 30
0.0
 11
135.0
 21
130.064564
 31
0.0
  0
LINE
  8
0
  6
CONTINUOUS
 62
   249
 10
152.5
 20
138.697875
 30
0.0
 11
135.0
 21
138.697875
 31
0.0
  0
TEXT
  8
0
  6
CONTINUOUS
 62
   249
 10
141.577442
 20
132.916667
 30
0.0
 40
2.0
  1
10
  7
ROMANS
  0
TEXT
  8
0
  6
CONTINUOUS
 62
   249
 10
142.5
 20
142.5
 30
0.0
 40
2.0
  1
9
  7
ROMANS
  0
LINE
  8
0
  6
CONTINUOUS
 62
   249
 10
152.5
 20
134.857002
 30
0.0
 11
159.0625
 21
134.857002
 31
0.0
  0
LINE
  8
0
  6
CONTINUOUS
 62
   249
 10
152.5
 20
142.5
 30
0.0
 11
159.0625
 21
142.5
 31
0.0
  0
CIRCLE
  8
0
  6
CONTINUOUS
 62
   249
 10
160.0
 20
134.857002
 30
0.0
 40
0.9375
  0
CIRCLE
  8
0
  6
CONTINUOUS
 62
   249
 10
160.0
 20
142.5
 30
0.0
 40
0.9375
  0
LINE
  8
0
  6
CONTINUOUS
 62
   249
 10
152.5
 20
130.064564
 30
0.0
 11
152.5
 21
138.75
 31
0.0
  0
LINE
  8
0
  6
CONTINUOUS
 62
   249
 10
152.5
 20
138.75
 30
0.0
 11
152.5
 21
147.5
 31
0.0
  0
LINE
  8
0
  6
CONTINUOUS
 62
   249
 10
152.5
 20
147.5
 30
0.0
 11
135.0
 21
147.5
 31
0.0
  0
LINE
  8
0
  6
CONTINUOUS
 62
   249
 10
135.0
 20
147.5
 30
0.0
 11
135.0
 21
138.75
 31
0.0
  0
LINE
  8
0
  6
CONTINUOUS
 62
   249
 10
135.0
 20
138.75
 30
0.0
 11
135.0
 21
130.064564
 31
0.0
  0
LINE
  8
0
  6
CONTINUOUS
 62
   249
 10
135.0
 20
134.459653
 30
0.0
 11
107.5
 21
134.459653
 31
0.0
  0
LINE
  8
0
  6
CONTINUOUS
 62
   249
 10
135.0
 20
142.5
 30
0.0
 11
107.5
 21
142.5
 31
0.0
  0
LINE
  8
0
  6
CONTINUOUS
 62
   249
 10
152.5
 20
121.197875
 30
0.0
 11
135.0
 21
121.197875
 31
0.0
  0
TEXT
  8
0
  6
CONTINUOUS
 62
   249
 10
141.577442
 20
115.416667
 30
0.0
 40
2.0
  1
12
  7
ROMANS
  0
TEXT
  8
0
  6
CONTINUOUS
 62
   249
 10
141.577442
 20
125.0
 30
0.0
 40
2.0
  1
11
  7
ROMANS
  0
LINE
  8
0
  6
CONTINUOUS
 62
   249
 10
152.5
 20
117.357002
 30
0.0
 11
159.0625
 21
117.357002
 31
0.0
  0
LINE
  8
0
  6
CONTINUOUS
 62
   249
 10
152.5
 20
125.0
 30
0.0
 11
159.0625
 21
125.0
 31
0.0
  0
CIRCLE
  8
0
  6
CONTINUOUS
 62
   249
 10
160.0
 20
117.357002
 30
0.0
 40
0.9375
  0
CIRCLE
  8
0
  6
CONTINUOUS
 62
   249
 10
160.0
 20
125.0
 30
0.0
 40
0.9375
  0
LINE
  8
0
  6
CONTINUOUS
 62
   249
 10
152.5
 20
112.5
 30
0.0
 11
152.5
 21
121.25
 31
0.0
  0
LINE
  8
0
  6
CONTINUOUS
 62
   249
 10
152.5
 20
121.25
 30
0.0
 11
152.5
 21
130.064564
 31
0.0
  0
LINE
  8
0
  6
CONTINUOUS
 62
   249
 10
135.0
 20
130.064564
 30
0.0
 11
135.0
 21
121.25
 31
0.0
  0
LINE
  8
0
  6
CONTINUOUS
 62
   249
 10
135.0
 20
121.25
 30
0.0
 11
135.0
 21
112.5
 31
0.0
  0
LINE
  8
0
  6
CONTINUOUS
 62
   249
 10
135.0
 20
116.959653
 30
0.0
 11
107.5
 21
116.959653
 31
0.0
  0
LINE
  8
0
  6
CONTINUOUS
 62
   249
 10
135.0
 20
125.0
 30
0.0
 11
107.5
 21
125.0
 31
0.0
  0
LINE
  8
0
  6
CONTINUOUS
 62
   249
 10
152.5
 20
95.064564
 30
0.0
 11
135.0
 21
95.064564
 31
0.0
  0
LINE
  8
0
  6
CONTINUOUS
 62
   249
 10
152.5
 20
103.697875
 30
0.0
 11
135.0
 21
103.697875
 31
0.0
  0
TEXT
  8
0
  6
CONTINUOUS
 62
   249
 10
141.577442
 20
97.916667
 30
0.0
 40
2.0
  1
14
  7
ROMANS
  0
TEXT
  8
0
  6
CONTINUOUS
 62
   249
 10
141.577442
 20
107.5
 30
0.0
 40
2.0
  1
13
  7
ROMANS
  0
LINE
  8
0
  6
CONTINUOUS
 62
   249
 10
152.5
 20
99.857002
 30
0.0
 11
159.0625
 21
99.857002
 31
0.0
  0
LINE
  8
0
  6
CONTINUOUS
 62
   249
 10
152.5
 20
107.5
 30
0.0
 11
159.0625
 21
107.5
 31
0.0
  0
CIRCLE
  8
0
  6
CONTINUOUS
 62
   249
 10
160.0
 20
99.857002
 30
0.0
 40
0.9375
  0
CIRCLE
  8
0
  6
CONTINUOUS
 62
   249
 10
160.0
 20
107.5
 30
0.0
 40
0.9375
  0
LINE
  8
0
  6
CONTINUOUS
 62
   249
 10
152.5
 20
95.064564
 30
0.0
 11
152.5
 21
103.75
 31
0.0
  0
LINE
  8
0
  6
CONTINUOUS
 62
   249
 10
152.5
 20
103.75
 30
0.0
 11
152.5
 21
112.5
 31
0.0
  0
LINE
  8
0
  6
CONTINUOUS
 62
   249
 10
152.5
 20
112.5
 30
0.0
 11
135.0
 21
112.5
 31
0.0
  0
LINE
  8
0
  6
CONTINUOUS
 62
   249
 10
135.0
 20
112.5
 30
0.0
 11
135.0
 21
103.75
 31
0.0
  0
LINE
  8
0
  6
CONTINUOUS
 62
   249
 10
135.0
 20
103.75
 30
0.0
 11
135.0
 21
95.064564
 31
0.0
  0
LINE
  8
0
  6
CONTINUOUS
 62
   249
 10
135.0
 20
99.459653
 30
0.0
 11
107.5
 21
99.459653
 31
0.0
  0
LINE
  8
0
  6
CONTINUOUS
 62
   249
 10
135.0
 20
107.5
 30
0.0
 11
107.5
 21
107.5
 31
0.0
  0
LINE
  8
0
  6
CONTINUOUS
 62
   249
 10
152.5
 20
77.564564
 30
0.0
 11
135.0
 21
77.564564
 31
0.0
  0
LINE
  8
0
  6
CONTINUOUS
 62
   249
 10
152.5
 20
86.197875
 30
0.0
 11
135.0
 21
86.197875
 31
0.0
  0
TEXT
  8
0
  6
CONTINUOUS
 62
   249
 10
141.64933
 20
80.416667
 30
0.0
 40
2.0
  1
16
  7
ROMANS
  0
TEXT
  8
0
  6
CONTINUOUS
 62
   249
 10
141.64933
 20
90.0
 30
0.0
 40
2.0
  1
15
  7
ROMANS
  0
LINE
  8
0
  6
CONTINUOUS
 62
   249
 10
152.5
 20
82.357002
 30
0.0
 11
159.0625
 21
82.357002
 31
0.0
  0
LINE
  8
0
  6
CONTINUOUS
 62
   249
 10
152.5
 20
90.0
 30
0.0
 11
159.0625
 21
90.0
 31
0.0
  0
CIRCLE
  8
0
  6
CONTINUOUS
 62
   249
 10
160.0
 20
82.357002
 30
0.0
 40
0.9375
  0
CIRCLE
  8
0
  6
CONTINUOUS
 62
   249
 10
160.0
 20
90.0
 30
0.0
 40
0.9375
  0
LINE
  8
0
  6
CONTINUOUS
 62
   249
 10
152.5
 20
77.564564
 30
0.0
 11
152.5
 21
86.25
 31
0.0
  0
LINE
  8
0
  6
CONTINUOUS
 62
   249
 10
152.5
 20
86.25
 30
0.0
 11
152.5
 21
95.064564
 31
0.0
  0
LINE
  8
0
  6
CONTINUOUS
 62
   249
 10
135.0
 20
95.064564
 30
0.0
 11
135.0
 21
86.25
 31
0.0
  0
LINE
  8
0
  6
CONTINUOUS
 62
   249
 10
135.0
 20
86.25
 30
0.0
 11
135.0
 21
77.564564
 31
0.0
  0
LINE
  8
0
  6
CONTINUOUS
 62
   249
 10
135.0
 20
81.959653
 30
0.0
 11
107.5
 21
81.959653
 31
0.0
  0
LINE
  8
0
  6
CONTINUOUS
 62
   249
 10
135.0
 20
90.0
 30
0.0
 11
107.5
 21
90.0
 31
0.0
  0
LINE
  8
0
  6
CONTINUOUS
 62
   249
 10
104.402375
 20
81.24902
 30
0.0
 11
105.402375
 21
80.24902
 31
0.0
  0
LINE
  8
0
  6
CONTINUOUS
 62
   249
 10
104.402375
 20
81.24902
 30
0.0
 11
104.402375
 21
213.162793
 31
0.0
  0
LINE
  8
0
  6
CONTINUOUS
 62
   249
 10
104.402375
 20
213.162793
 30
0.0
 11
105.689926
 21
214.450344
 31
0.0
  0
LINE
  8
0
  6
CENTER
 62
   249
 10
25.0
 20
242.5
 30
0.0
 11
275.0
 21
242.5
 31
0.0
  0
LINE
  8
0
  6
CONTINUOUS
 62
   249
 10
117.5
 20
212.5
 30
0.0
 11
117.5
 21
217.5
 31
0.0
  0
LINE
  8
0
  6
CONTINUOUS
 62
   249
 10
117.5
 20
217.5
 30
0.0
 11
92.5
 21
217.5
 31
0.0
  0
LINE
  8
0
  6
CONTINUOUS
 62
   249
 10
117.5
 20
209.488026
 30
0.0
 11
92.5
 21
209.488026
 31
0.0
  0
LINE
  8
0
  6
CONTINUOUS
 62
   249
 10
117.5
 20
204.459653
 30
0.0
 11
117.5
 21
209.488026
 31
0.0
  0
LINE
  8
0
  6
CONTINUOUS
 62
   249
 10
39.18093
 20
147.5
 30
0.0
 11
39.18093
 21
40.0
 31
0.0
  0
LINE
  8
0
  6
CONTINUOUS
 62
   249
 10
202.5
 20
151.779478
 30
0.0
 11
205.99036
 21
151.779478
 31
0.0
  0
LINE
  8
0
  6
CONTINUOUS
 62
   249
 10
205.99036
 20
151.779478
 30
0.0
 11
205.99036
 21
63.360963
 31
0.0
  0
LINE
  8
0
  6
CONTINUOUS
 62
   249
 10
211.003215
 20
195.0
 30
0.0
 11
211.003215
 21
107.432205
 31
0.0
  0
LINE
  8
0
  6
CONTINUOUS
 62
   249
 10
214.089424
 20
135.0
 30
0.0
 11
214.089424
 21
107.5
 31
0.0
  0
LINE
  8
0
  6
CONTINUOUS
 62
   249
 10
214.280462
 20
106.093496
 30
0.0
 11
215.280462
 21
107.093496
 31
0.0
  0
LINE
  8
0
  6
CONTINUOUS
 62
   249
 10
211.018712
 20
106.093496
 30
0.0
 11
210.018712
 21
107.093496
 31
0.0
  0
LINE
  8
0
  6
CONTINUOUS
 62
   249
 10
211.018712
 20
106.093496
 30
0.0
 11
214.280462
 21
106.093496
 31
0.0
  0
LINE
  8
0
  6
CONTINUOUS
 62
   249
 10
212.5
 20
106.093496
 30
0.0
 11
212.5
 21
71.188098
 31
0.0
  0
LINE
  8
0
  6
CONTINUOUS
 62
   249
 10
136.213442
 20
75.026599
 30
0.0
 11
198.101867
 21
75.026599
 31
0.0
  0
LINE
  8
0
  6
CONTINUOUS
 62
   249
 10
167.247619
 20
75.026599
 30
0.0
 11
167.247619
 21
40.0
 31
0.0
  0
TEXT
  8
0
  6
CONTINUOUS
 62
   249
 10
170.949831
 20
41.482949
 30
0.0
 40
2.0
  1
SYSTEM BUS
 50
90.0
  7
ROMANS
  0
LINE
  8
0
  6
CONTINUOUS
 62
   249
 10
325.0
 20
212.5
 30
0.0
 11
347.5
 21
212.5
 31
0.0
  0
LINE
  8
0
  6
CONTINUOUS
 62
   249
 10
347.5
 20
212.5
 30
0.0
 11
347.5
 21
207.5
 31
0.0
  0
LINE
  8
0
  6
CONTINUOUS
 62
   249
 10
347.5
 20
207.5
 30
0.0
 11
325.0
 21
207.5
 31
0.0
  0
LINE
  8
0
  6
CONTINUOUS
 62
   249
 10
325.0
 20
207.5
 30
0.0
 11
325.0
 21
212.5
 31
0.0
  0
TEXT
  8
0
  6
CONTINUOUS
 62
   249
 10
327.035308
 20
209.238286
 30
0.0
 40
2.0
  1
CH
  7
GREEKS
  0
TEXT
  8
0
  6
CONTINUOUS
 62
   249
 10
327.035308
 20
204.238286
 30
0.0
 40
2.0
  1
CH
  7
GREEKS
  0
LINE
  8
0
  6
CONTINUOUS
 62
   249
 10
325.0
 20
202.5
 30
0.0
 11
325.0
 21
207.5
 31
0.0
  0
LINE
  8
0
  6
CONTINUOUS
 62
   249
 10
347.5
 20
202.5
 30
0.0
 11
325.0
 21
202.5
 31
0.0
  0
LINE
  8
0
  6
CONTINUOUS
 62
   249
 10
347.5
 20
207.5
 30
0.0
 11
347.5
 21
202.5
 31
0.0
  0
LINE
  8
0
  6
CONTINUOUS
 62
   249
 10
325.0
 20
207.5
 30
0.0
 11
347.5
 21
207.5
 31
0.0
  0
TEXT
  8
0
  6
CONTINUOUS
 62
   249
 10
327.035308
 20
199.238286
 30
0.0
 40
2.0
  1
CH
  7
GREEKS
  0
LINE
  8
0
  6
CONTINUOUS
 62
   249
 10
325.0
 20
197.5
 30
0.0
 11
325.0
 21
202.5
 31
0.0
  0
LINE
  8
0
  6
CONTINUOUS
 62
   249
 10
347.5
 20
197.5
 30
0.0
 11
325.0
 21
197.5
 31
0.0
  0
LINE
  8
0
  6
CONTINUOUS
 62
   249
 10
347.5
 20
202.5
 30
0.0
 11
347.5
 21
197.5
 31
0.0
  0
LINE
  8
0
  6
CONTINUOUS
 62
   249
 10
325.0
 20
202.5
 30
0.0
 11
347.5
 21
202.5
 31
0.0
  0
TEXT
  8
0
  6
CONTINUOUS
 62
   249
 10
327.035308
 20
194.238286
 30
0.0
 40
2.0
  1
CH
  7
GREEKS
  0
LINE
  8
0
  6
CONTINUOUS
 62
   249
 10
325.0
 20
192.5
 30
0.0
 11
325.0
 21
197.5
 31
0.0
  0
LINE
  8
0
  6
CONTINUOUS
 62
   249
 10
347.5
 20
192.5
 30
0.0
 11
325.0
 21
192.5
 31
0.0
  0
LINE
  8
0
  6
CONTINUOUS
 62
   249
 10
347.5
 20
197.5
 30
0.0
 11
347.5
 21
192.5
 31
0.0
  0
LINE
  8
0
  6
CONTINUOUS
 62
   249
 10
325.0
 20
197.5
 30
0.0
 11
347.5
 21
197.5
 31
0.0
  0
TEXT
  8
0
  6
CONTINUOUS
 62
   249
 10
327.035308
 20
189.238286
 30
0.0
 40
2.0
  1
CH
  7
GREEKS
  0
LINE
  8
0
  6
CONTINUOUS
 62
   249
 10
325.0
 20
187.5
 30
0.0
 11
325.0
 21
192.5
 31
0.0
  0
LINE
  8
0
  6
CONTINUOUS
 62
   249
 10
347.5
 20
187.5
 30
0.0
 11
325.0
 21
187.5
 31
0.0
  0
LINE
  8
0
  6
CONTINUOUS
 62
   249
 10
347.5
 20
192.5
 30
0.0
 11
347.5
 21
187.5
 31
0.0
  0
LINE
  8
0
  6
CONTINUOUS
 62
   249
 10
325.0
 20
192.5
 30
0.0
 11
347.5
 21
192.5
 31
0.0
  0
TEXT
  8
0
  6
CONTINUOUS
 62
   249
 10
327.035308
 20
184.238286
 30
0.0
 40
2.0
  1
CH
  7
GREEKS
  0
LINE
  8
0
  6
CONTINUOUS
 62
   249
 10
325.0
 20
182.5
 30
0.0
 11
325.0
 21
187.5
 31
0.0
  0
LINE
  8
0
  6
CONTINUOUS
 62
   249
 10
347.5
 20
182.5
 30
0.0
 11
325.0
 21
182.5
 31
0.0
  0
LINE
  8
0
  6
CONTINUOUS
 62
   249
 10
347.5
 20
187.5
 30
0.0
 11
347.5
 21
182.5
 31
0.0
  0
LINE
  8
0
  6
CONTINUOUS
 62
   249
 10
325.0
 20
187.5
 30
0.0
 11
347.5
 21
187.5
 31
0.0
  0
TEXT
  8
0
  6
CONTINUOUS
 62
   249
 10
327.035308
 20
179.238286
 30
0.0
 40
2.0
  1
CH
  7
GREEKS
  0
LINE
  8
0
  6
CONTINUOUS
 62
   249
 10
325.0
 20
177.5
 30
0.0
 11
325.0
 21
182.5
 31
0.0
  0
LINE
  8
0
  6
CONTINUOUS
 62
   249
 10
347.5
 20
177.5
 30
0.0
 11
325.0
 21
177.5
 31
0.0
  0
LINE
  8
0
  6
CONTINUOUS
 62
   249
 10
347.5
 20
182.5
 30
0.0
 11
347.5
 21
177.5
 31
0.0
  0
LINE
  8
0
  6
CONTINUOUS
 62
   249
 10
325.0
 20
182.5
 30
0.0
 11
347.5
 21
182.5
 31
0.0
  0
TEXT
  8
0
  6
CONTINUOUS
 62
   249
 10
327.035308
 20
174.238286
 30
0.0
 40
2.0
  1
CH
  7
GREEKS
  0
LINE
  8
0
  6
CONTINUOUS
 62
   249
 10
325.0
 20
172.5
 30
0.0
 11
325.0
 21
177.5
 31
0.0
  0
LINE
  8
0
  6
CONTINUOUS
 62
   249
 10
347.5
 20
172.5
 30
0.0
 11
325.0
 21
172.5
 31
0.0
  0
LINE
  8
0
  6
CONTINUOUS
 62
   249
 10
347.5
 20
177.5
 30
0.0
 11
347.5
 21
172.5
 31
0.0
  0
LINE
  8
0
  6
CONTINUOUS
 62
   249
 10
325.0
 20
177.5
 30
0.0
 11
347.5
 21
177.5
 31
0.0
  0
TEXT
  8
0
  6
CONTINUOUS
 62
   249
 10
327.035308
 20
154.238286
 30
0.0
 40
2.0
  1
CH
  7
GREEKS
  0
LINE
  8
0
  6
CONTINUOUS
 62
   249
 10
325.0
 20
152.5
 30
0.0
 11
325.0
 21
157.5
 31
0.0
  0
LINE
  8
0
  6
CONTINUOUS
 62
   249
 10
347.5
 20
152.5
 30
0.0
 11
325.0
 21
152.5
 31
0.0
  0
LINE
  8
0
  6
CONTINUOUS
 62
   249
 10
347.5
 20
157.5
 30
0.0
 11
347.5
 21
152.5
 31
0.0
  0
LINE
  8
0
  6
CONTINUOUS
 62
   249
 10
325.0
 20
157.5
 30
0.0
 11
347.5
 21
157.5
 31
0.0
  0
TEXT
  8
0
  6
CONTINUOUS
 62
   249
 10
327.035308
 20
149.238286
 30
0.0
 40
2.0
  1
CH
  7
GREEKS
  0
LINE
  8
0
  6
CONTINUOUS
 62
   249
 10
325.0
 20
147.5
 30
0.0
 11
325.0
 21
152.5
 31
0.0
  0
LINE
  8
0
  6
CONTINUOUS
 62
   249
 10
347.5
 20
147.5
 30
0.0
 11
325.0
 21
147.5
 31
0.0
  0
LINE
  8
0
  6
CONTINUOUS
 62
   249
 10
347.5
 20
152.5
 30
0.0
 11
347.5
 21
147.5
 31
0.0
  0
LINE
  8
0
  6
CONTINUOUS
 62
   249
 10
325.0
 20
152.5
 30
0.0
 11
347.5
 21
152.5
 31
0.0
  0
TEXT
  8
0
  6
CONTINUOUS
 62
   249
 10
327.035308
 20
144.238286
 30
0.0
 40
2.0
  1
CH
  7
GREEKS
  0
LINE
  8
0
  6
CONTINUOUS
 62
   249
 10
325.0
 20
142.5
 30
0.0
 11
325.0
 21
147.5
 31
0.0
  0
LINE
  8
0
  6
CONTINUOUS
 62
   249
 10
347.5
 20
142.5
 30
0.0
 11
325.0
 21
142.5
 31
0.0
  0
LINE
  8
0
  6
CONTINUOUS
 62
   249
 10
347.5
 20
147.5
 30
0.0
 11
347.5
 21
142.5
 31
0.0
  0
LINE
  8
0
  6
CONTINUOUS
 62
   249
 10
325.0
 20
147.5
 30
0.0
 11
347.5
 21
147.5
 31
0.0
  0
TEXT
  8
0
  6
CONTINUOUS
 62
   249
 10
327.035308
 20
139.238286
 30
0.0
 40
2.0
  1
CH
  7
GREEKS
  0
LINE
  8
0
  6
CONTINUOUS
 62
   249
 10
325.0
 20
137.5
 30
0.0
 11
325.0
 21
142.5
 31
0.0
  0
LINE
  8
0
  6
CONTINUOUS
 62
   249
 10
347.5
 20
137.5
 30
0.0
 11
325.0
 21
137.5
 31
0.0
  0
LINE
  8
0
  6
CONTINUOUS
 62
   249
 10
347.5
 20
142.5
 30
0.0
 11
347.5
 21
137.5
 31
0.0
  0
LINE
  8
0
  6
CONTINUOUS
 62
   249
 10
325.0
 20
142.5
 30
0.0
 11
347.5
 21
142.5
 31
0.0
  0
TEXT
  8
0
  6
CONTINUOUS
 62
   249
 10
327.035308
 20
134.238286
 30
0.0
 40
2.0
  1
CH
  7
GREEKS
  0
LINE
  8
0
  6
CONTINUOUS
 62
   249
 10
325.0
 20
132.5
 30
0.0
 11
325.0
 21
137.5
 31
0.0
  0
LINE
  8
0
  6
CONTINUOUS
 62
   249
 10
347.5
 20
132.5
 30
0.0
 11
325.0
 21
132.5
 31
0.0
  0
LINE
  8
0
  6
CONTINUOUS
 62
   249
 10
347.5
 20
137.5
 30
0.0
 11
347.5
 21
132.5
 31
0.0
  0
LINE
  8
0
  6
CONTINUOUS
 62
   249
 10
325.0
 20
137.5
 30
0.0
 11
347.5
 21
137.5
 31
0.0
  0
TEXT
  8
0
  6
CONTINUOUS
 62
   249
 10
327.035308
 20
129.238286
 30
0.0
 40
2.0
  1
CH
  7
GREEKS
  0
LINE
  8
0
  6
CONTINUOUS
 62
   249
 10
325.0
 20
127.5
 30
0.0
 11
325.0
 21
132.5
 31
0.0
  0
LINE
  8
0
  6
CONTINUOUS
 62
   249
 10
347.5
 20
127.5
 30
0.0
 11
325.0
 21
127.5
 31
0.0
  0
LINE
  8
0
  6
CONTINUOUS
 62
   249
 10
347.5
 20
132.5
 30
0.0
 11
347.5
 21
127.5
 31
0.0
  0
LINE
  8
0
  6
CONTINUOUS
 62
   249
 10
325.0
 20
132.5
 30
0.0
 11
347.5
 21
132.5
 31
0.0
  0
TEXT
  8
0
  6
CONTINUOUS
 62
   249
 10
327.035308
 20
124.238286
 30
0.0
 40
2.0
  1
CH
  7
GREEKS
  0
LINE
  8
0
  6
CONTINUOUS
 62
   249
 10
325.0
 20
122.5
 30
0.0
 11
325.0
 21
127.5
 31
0.0
  0
LINE
  8
0
  6
CONTINUOUS
 62
   249
 10
347.5
 20
122.5
 30
0.0
 11
325.0
 21
122.5
 31
0.0
  0
LINE
  8
0
  6
CONTINUOUS
 62
   249
 10
347.5
 20
127.5
 30
0.0
 11
347.5
 21
122.5
 31
0.0
  0
LINE
  8
0
  6
CONTINUOUS
 62
   249
 10
325.0
 20
127.5
 30
0.0
 11
347.5
 21
127.5
 31
0.0
  0
TEXT
  8
0
  6
CONTINUOUS
 62
   249
 10
327.035308
 20
119.238286
 30
0.0
 40
2.0
  1
CH
  7
GREEKS
  0
LINE
  8
0
  6
CONTINUOUS
 62
   249
 10
325.0
 20
117.5
 30
0.0
 11
325.0
 21
122.5
 31
0.0
  0
LINE
  8
0
  6
CONTINUOUS
 62
   249
 10
347.5
 20
117.5
 30
0.0
 11
325.0
 21
117.5
 31
0.0
  0
LINE
  8
0
  6
CONTINUOUS
 62
   249
 10
347.5
 20
122.5
 30
0.0
 11
347.5
 21
117.5
 31
0.0
  0
LINE
  8
0
  6
CONTINUOUS
 62
   249
 10
325.0
 20
122.5
 30
0.0
 11
347.5
 21
122.5
 31
0.0
  0
LINE
  8
0
  6
CONTINUOUS
 62
   249
 10
53.75
 20
147.5
 30
0.0
 11
39.18093
 21
147.5
 31
0.0
  0
ARC
  8
0
  6
CONTINUOUS
 62
   249
 10
56.25
 20
147.413461
 30
0.0
 40
2.5
 50
90.0
 51
270.0
  0
LINE
  8
0
  6
CONTINUOUS
 62
   249
 10
58.999436
 20
147.903461
 30
0.0
 11
55.569436
 21
147.903461
 31
0.0
  0
LINE
  8
0
  6
CONTINUOUS
 62
   249
 10
58.999436
 20
146.923461
 30
0.0
 11
58.999436
 21
147.903461
 31
0.0
  0
LINE
  8
0
  6
CONTINUOUS
 62
   249
 10
55.569436
 20
146.923461
 30
0.0
 11
58.999436
 21
146.923461
 31
0.0
  0
LINE
  8
0
  6
CONTINUOUS
 62
   249
 10
55.569436
 20
147.903461
 30
0.0
 11
55.569436
 21
146.923461
 31
0.0
  0
LINE
  8
0
  6
CONTINUOUS
 62
   249
 10
58.75
 20
147.413461
 30
0.0
 11
104.402375
 21
147.413461
 31
0.0
  0
TEXT
  8
0
  6
CONTINUOUS
 62
   249
 10
82.22146
 20
146.446395
 30
0.0
 40
2.0
  1
/
  7
GREEKS
  0
TEXT
  8
0
  6
CONTINUOUS
 62
   249
 10
84.893283
 20
148.22529
 30
0.0
 40
2.0
  1
16
  7
ROMANS
  0
TEXT
  8
0
  6
CONTINUOUS
 62
   249
 10
62.48831
 20
144.216269
 30
0.0
 40
2.0
  1
X21 C)
  7
ROMANS
  0
LINE
  8
0
  6
CONTINUOUS
 62
   249
 10
67.215229
 20
71.678098
 30
0.0
 11
67.215229
 21
70.698098
 31
0.0
  0
LINE
  8
0
  6
CONTINUOUS
 62
   249
 10
67.215229
 20
70.698098
 30
0.0
 11
70.645229
 21
70.698098
 31
0.0
  0
LINE
  8
0
  6
CONTINUOUS
 62
   249
 10
70.645229
 20
70.698098
 30
0.0
 11
70.645229
 21
71.678098
 31
0.0
  0
LINE
  8
0
  6
CONTINUOUS
 62
   249
 10
70.645229
 20
71.678098
 30
0.0
 11
67.215229
 21
71.678098
 31
0.0
  0
TEXT
  8
0
  6
CONTINUOUS
 62
   249
 10
74.134104
 20
67.990906
 30
0.0
 40
2.0
  1
X17 A)
  7
ROMANS
  0
LINE
  8
0
  6
CONTINUOUS
 62
   249
 10
70.395794
 20
71.188098
 30
0.0
 11
212.5
 21
71.188098
 31
0.0
  0
LINE
  8
0
  6
CONTINUOUS
 62
   249
 10
70.395794
 20
63.360963
 30
0.0
 11
205.99036
 21
63.360963
 31
0.0
  0
TEXT
  8
0
  6
CONTINUOUS
 62
   249
 10
74.134104
 20
60.163771
 30
0.0
 40
2.0
  1
X2  B)
  7
ROMANS
  0
LINE
  8
0
  6
CONTINUOUS
 62
   249
 10
70.645229
 20
63.850963
 30
0.0
 11
67.215229
 21
63.850963
 31
0.0
  0
LINE
  8
0
  6
CONTINUOUS
 62
   249
 10
70.645229
 20
62.870963
 30
0.0
 11
70.645229
 21
63.850963
 31
0.0
  0
LINE
  8
0
  6
CONTINUOUS
 62
   249
 10
67.215229
 20
62.870963
 30
0.0
 11
70.645229
 21
62.870963
 31
0.0
  0
LINE
  8
0
  6
CONTINUOUS
 62
   249
 10
67.215229
 20
63.850963
 30
0.0
 11
67.215229
 21
62.870963
 31
0.0
  0
TEXT
  8
0
  6
CONTINUOUS
 62
   249
 10
88.499645
 20
70.370459
 30
0.0
 40
2.0
  1
/
  7
GREEKS
  0
TEXT
  8
0
  6
CONTINUOUS
 62
   249
 10
91.171468
 20
72.149353
 30
0.0
 40
2.0
  1
16
  7
ROMANS
  0
TEXT
  8
0
  6
CONTINUOUS
 62
   249
 10
88.499645
 20
62.282997
 30
0.0
 40
2.0
  1
/
  7
GREEKS
  0
TEXT
  8
0
  6
CONTINUOUS
 62
   249
 10
91.171468
 20
64.061892
 30
0.0
 40
2.0
  1
16
  7
ROMANS
  0
LINE
  8
0
  6
CONTINUOUS
 62
   249
 10
197.669889
 20
219.745722
 30
0.0
 11
135.781464
 21
219.745722
 31
0.0
  0
LINE
  8
0
  6
CONTINUOUS
 62
   249
 10
135.781464
 20
219.745722
 30
0.0
 11
134.637088
 21
218.550226
 31
0.0
  0
LINE
  8
0
  6
CONTINUOUS
 62
   249
 10
197.669889
 20
219.745722
 30
0.0
 11
198.691492
 21
218.767803
 31
0.0
  0
LINE
  8
0
  6
CONTINUOUS
 62
   249
 10
177.244308
 20
220.0
 30
0.0
 11
177.244308
 21
242.5
 31
0.0
  0
TEXT
  8
0
  6
CONTINUOUS
 62
   249
 10
181.026079
 20
220.778148
 30
0.0
 40
2.0
  1
SYSTEM BUS
 50
90.0
  7
ROMANS
  0
TEXT
  8
0
  6
CONTINUOUS
 62
   249
 10
156.79288
 20
243.695514
 30
0.0
 40
2.0
  1
1/12...17
  7
ROMANS
  0
TEXT
  8
0
  6
CONTINUOUS
 62
   249
 10
90.0
 20
57.5
 30
0.0
 40
2.0
  1
A) FIELD CONTACT FOLLOWER OUTPUTS
  7
ROMANS
  0
TEXT
  8
0
  6
CONTINUOUS
 62
   249
 10
89.029517
 20
54.261905
 30
0.0
 40
2.0
  1
   KONTAKTDUBBLERINGSUTGÅNGAR
  7
ROMANS
  0
TEXT
  8
0
  6
CONTINUOUS
 62
   249
 10
90.0
 20
51.180005
 30
0.0
 40
2.0
  1
B) LAMP FOLLOWER OUTPUTS
  7
ROMANS
  0
TEXT
  8
0
  6
CONTINUOUS
 62
   249
 10
89.029517
 20
47.785714
 30
0.0
 40
2.0
  1
   PARALLELLAMPUTGÅNGAR
  7
ROMANS
  0
TEXT
  8
0
  6
CONTINUOUS
 62
   249
 10
90.0
 20
44.757029
 30
0.0
 40
2.0
  1
C) PARALLELLING OF THE GROUP ALARMS
  7
ROMANS
  0
TEXT
  8
0
  6
CONTINUOUS
 62
   249
 10
89.197255
 20
41.518934
 30
0.0
 40
2.0
  1
   PARALLELLKOPPLING AV GRUPPLARM
  7
ROMANS
  0
TEXT
  8
0
  6
CONTINUOUS
 62
   249
 10
28.609349
 20
234.748352
 30
0.0
 40
2.0
  1
(SACO 16D2, CH1..CH16)
  7
ROMANS
  0
LINE
  8
0
  6
CONTINUOUS
 62
   249
 10
89.940983
 20
217.232557
 30
0.0
 11
91.228534
 21
218.520107
 31
0.0
  0
LINE
  8
0
  6
CONTINUOUS
 62
   249
 10
89.940983
 20
208.819072
 30
0.0
 11
91.072777
 21
207.687278
 31
0.0
  0
LINE
  8
0
  6
CONTINUOUS
 62
   249
 10
89.940983
 20
217.232557
 30
0.0
 11
89.940983
 21
208.819072
 31
0.0
  0
LINE
  8
0
  6
CONTINUOUS
 62
   249
 10
89.940983
 20
212.708042
 30
0.0
 11
80.0
 21
212.708042
 31
0.0
  0
LINE
  8
0
  6
CONTINUOUS
 62
   249
 10
80.0
 20
212.708042
 30
0.0
 11
80.0
 21
242.5
 31
0.0
  0
TEXT
  8
0
  6
CONTINUOUS
 62
   249
 10
156.79288
 20
35.587178
 30
0.0
 40
2.0
  1
3/12...17
  7
ROMANS
  0
TEXT
  8
0
  6
CONTINUOUS
 62
   249
 10
52.555838
 20
2.086947
 30
0.0
 40
2.0
  1
REDRAWN WITH AUTOCAD 1993-06-28  KM / RITU Power
  7
ROMANS
  0
LINE
  8
0
  6
DASHED
 62
   249
 10
275.0
 20
107.5
 30
0.0
 11
297.5
 21
107.5
 31
0.0
  0
LINE
  8
0
  6
DASHED
 62
   249
 10
275.0
 20
157.5
 30
0.0
 11
297.5
 21
157.5
 31
0.0
  0
LINE
  8
0
  6
DASHED
 62
   249
 10
297.5
 20
157.5
 30
0.0
 11
311.25
 21
157.5
 31
0.0
  0
LINE
  8
0
  6
DASHED
 62
   249
 10
275.0
 20
117.5
 30
0.0
 11
297.5
 21
117.5
 31
0.0
  0
LINE
  8
0
  6
CONTINUOUS
 62
   249
 10
296.25
 20
117.5
 30
0.0
 11
301.25
 21
117.5
 31
0.0
  0
LINE
  8
0
  6
CONTINUOUS
 62
   249
 10
306.25
 20
117.5
 30
0.0
 11
300.506076
 21
114.285297
 31
0.0
  0
LINE
  8
0
  6
CONTINUOUS
 62
   249
 10
306.25
 20
117.5
 30
0.0
 11
311.25
 21
117.5
 31
0.0
  0
LINE
  8
0
  6
CONTINUOUS
 62
   249
 10
296.25
 20
122.5
 30
0.0
 11
301.25
 21
122.5
 31
0.0
  0
LINE
  8
0
  6
DASHED
 62
   249
 10
275.0
 20
122.5
 30
0.0
 11
297.5
 21
122.5
 31
0.0
  0
LINE
  8
0
  6
DASHED
 62
   249
 10
275.0
 20
107.5
 30
0.0
 11
297.5
 21
107.5
 31
0.0
  0
LINE
  8
0
  6
DASHED
 62
   249
 10
297.5
 20
107.5
 30
0.0
 11
311.25
 21
107.5
 31
0.0
  0
LINE
  8
0
  6
DASHED
 62
   249
 10
275.0
 20
112.5
 30
0.0
 11
297.5
 21
112.5
 31
0.0
  0
LINE
  8
0
  6
DASHED
 62
   249
 10
297.5
 20
112.5
 30
0.0
 11
311.25
 21
112.5
 31
0.0
  0
LINE
  8
0
  6
CONTINUOUS
 62
   249
 10
296.25
 20
177.5
 30
0.0
 11
301.25
 21
177.5
 31
0.0
  0
LINE
  8
0
  6
DASHED
 62
   249
 10
275.0
 20
177.5
 30
0.0
 11
297.5
 21
177.5
 31
0.0
  0
LINE
  8
0
  6
CONTINUOUS
 62
   249
 10
306.25
 20
177.5
 30
0.0
 11
300.506076
 21
174.285297
 31
0.0
  0
LINE
  8
0
  6
CONTINUOUS
 62
   249
 10
306.25
 20
177.5
 30
0.0
 11
311.25
 21
177.5
 31
0.0
  0
TEXT
  8
0
  6
DASHED
 62
   249
 10
292.558364
 20
12.155824
 30
0.0
 40
3.0
  1
A3
  7
GREEKS
  0
TEXT
  8
0
  6
DASHED
 62
   249
 10
352.159746
 20
16.034995
 30
0.0
 40
1.4
  1
LEHTI SHEET
  7
GREEKS
  0
LINE
  8
0
 62
   249
 10
0.578269
 20
263.080464
 30
0.0
 11
392.578269
 21
263.080464
 31
0.0
  0
LINE
  8
0
 62
   249
 10
18.578269
 20
0.580464
 30
0.0
 11
0.578269
 21
0.580464
 31
0.0
  0
LINE
  8
0
 62
   249
 10
209.578269
 20
0.580464
 30
0.0
 11
392.578269
 21
0.580464
 31
0.0
  0
LINE
  8
0
 62
   249
 10
209.578269
 20
0.580464
 30
0.0
 11
209.578269
 21
35.580464
 31
0.0
  0
LINE
  8
0
 62
   249
 10
392.578269
 20
0.580464
 30
0.0
 11
392.578269
 21
35.580464
 31
0.0
  0
LINE
  8
0
 62
   249
 10
209.578269
 20
18.580464
 30
0.0
 11
392.578269
 21
18.580464
 31
0.0
  0
LINE
  8
0
 62
   249
 10
209.578269
 20
10.080464
 30
0.0
 11
392.578269
 21
10.080464
 31
0.0
  0
LINE
  8
0
 62
   249
 10
209.578269
 20
27.080464
 30
0.0
 11
307.578269
 21
27.080464
 31
0.0
  0
LINE
  8
0
 62
   249
 10
209.578269
 20
35.580464
 30
0.0
 11
392.578269
 21
35.580464
 31
0.0
  0
TEXT
  8
0
 62
   249
 10
210.578269
 20
24.313797
 30
0.0
 40
1.4
  1
TARKASTI  CHECKED
  7
ROMANS
  0
TEXT
  8
0
 62
   249
 10
210.321103
 20
16.047131
 30
0.0
 40
1.4
  1
HYVÄKSYI  APPROVED
  7
ROMANS
  0
LINE
  8
0
 62
   249
 10
307.578269
 20
0.580464
 30
0.0
 11
307.578269
 21
35.580464
 31
0.0
  0
TEXT
  8
0
 62
   249
 10
259.578269
 20
33.080464
 30
0.0
 40
1.4
  1
LIITTYY  CONCERNING
  7
ROMANS
  0
TEXT
  8
0
 62
   249
 10
259.578269
 20
24.080464
 30
0.0
 40
1.4
  1
TOLERANSSIT  TOLERANCES
  7
ROMANS
  0
TEXT
  8
0
 62
   249
 10
259.578269
 20
16.080464
 30
0.0
 40
1.4
  1
SUHDE  SCALE
  7
ROMANS
  0
TEXT
  8
0
 62
   249
 10
309.578269
 20
33.080464
 30
0.0
 40
1.4
  1
NIMITYS  NAME
  7
ROMANS
  0
TEXT
  8
0
 62
   249
 10
309.578269
 20
16.080464
 30
0.0
 40
1.4
  1
KOODI  CODE
  7
ROMANS
  0
TEXT
  8
0
 62
   249
 10
309.578269
 20
7.580464
 30
0.0
 40
1.4
  1
PIIRUSTUS NO  DRAWING NR
  7
ROMANS
  0
LINE
  8
0
 62
   249
 10
350.078269
 20
10.080464
 30
0.0
 11
350.078269
 21
18.580464
 31
0.0
  0
TEXT
  8
0
 62
   249
 10
371.578269
 20
7.580464
 30
0.0
 40
1.4
  1
PAINOS  REVISION
  7
ROMANS
  0
LINE
  8
0
 62
   249
 10
370.078269
 20
10.080464
 30
0.0
 11
370.078269
 21
0.580464
 31
0.0
  0
LINE
  8
0
 62
   249
 10
210.528269
 20
2.080464
 30
0.0
 11
212.278269
 21
2.080464
 31
0.0
  0
LINE
  8
0
 62
   249
 10
215.778269
 20
2.080464
 30
0.0
 11
217.528269
 21
2.080464
 31
0.0
  0
LINE
  8
0
 62
   249
 10
212.978269
 20
9.080464
 30
0.0
 11
211.800741
 21
5.716099
 31
0.0
  0
LINE
  8
0
 62
   249
 10
212.767055
 20
3.480464
 30
0.0
 11
213.888269
 21
3.480464
 31
0.0
  0
LINE
  8
0
 62
   249
 10
212.767058
 20
3.477007
 30
0.0
 11
212.278269
 21
2.080464
 31
0.0
  0
LINE
  8
0
 62
   249
 10
215.078269
 20
9.080464
 30
0.0
 11
216.254621
 21
5.719456
 31
0.0
  0
LINE
  8
0
 62
   249
 10
215.289366
 20
3.477328
 30
0.0
 11
215.778269
 21
2.080464
 31
0.0
  0
LINE
  8
0
 62
   249
 10
215.078269
 20
9.080464
 30
0.0
 11
214.168269
 21
9.080464
 31
0.0
  0
LINE
  8
0
 62
   249
 10
213.888269
 20
9.080464
 30
0.0
 11
213.888269
 21
5.720464
 31
0.0
  0
LINE
  8
0
 62
   249
 10
214.168269
 20
9.080464
 30
0.0
 11
214.168269
 21
5.720464
 31
0.0
  0
LINE
  8
0
 62
   249
 10
214.168269
 20
3.480464
 30
0.0
 11
215.288162
 21
3.480464
 31
0.0
  0
LINE
  8
0
 62
   249
 10
213.888269
 20
9.080464
 30
0.0
 11
212.978269
 21
9.080464
 31
0.0
  0
LINE
  8
0
 62
   249
 10
211.800209
 20
5.720464
 30
0.0
 11
213.888269
 21
5.720464
 31
0.0
  0
LINE
  8
0
 62
   249
 10
211.701251
 20
5.440464
 30
0.0
 11
213.888269
 21
5.440464
 31
0.0
  0
LINE
  8
0
 62
   249
 10
216.35276
 20
5.439058
 30
0.0
 11
217.528269
 21
2.080464
 31
0.0
  0
LINE
  8
0
 62
   249
 10
214.168269
 20
5.720464
 30
0.0
 11
216.253382
 21
5.720464
 31
0.0
  0
LINE
  8
0
 62
   249
 10
214.168269
 20
5.440464
 30
0.0
 11
216.351525
 21
5.440464
 31
0.0
  0
LINE
  8
0
 62
   249
 10
214.168269
 20
5.440464
 30
0.0
 11
214.168269
 21
3.480464
 31
0.0
  0
LINE
  8
0
 62
   249
 10
213.888269
 20
5.440464
 30
0.0
 11
213.888269
 21
3.480464
 31
0.0
  0
LINE
  8
0
 62
   249
 10
211.698157
 20
5.423003
 30
0.0
 11
210.528269
 21
2.080464
 31
0.0
  0
INSERT
  8
0
 62
   249
  2
*X17
 10
210.528269
 20
2.080464
 30
0.0
 41
0.7
 42
0.7
 43
0.7
  0
INSERT
  8
0
 62
   249
  2
*X18
 10
210.528269
 20
2.080464
 30
0.0
 41
0.7
 42
0.7
 43
0.7
  0
INSERT
  8
0
 62
   249
  2
*X19
 10
210.528269
 20
2.080464
 30
0.0
 41
0.7
 42
0.7
 43
0.7
  0
INSERT
  8
0
 62
   249
  2
*X20
 10
210.528269
 20
2.080464
 30
0.0
 41
0.7
 42
0.7
 43
0.7
  0
LINE
  8
0
 62
   249
 10
218.018269
 20
2.080464
 30
0.0
 11
218.018269
 21
5.440464
 31
0.0
  0
LINE
  8
0
 62
   249
 10
218.018269
 20
9.080464
 30
0.0
 11
219.978269
 21
9.080464
 31
0.0
  0
LINE
  8
0
 62
   249
 10
219.978269
 20
9.080464
 30
0.0
 11
219.978269
 21
5.720464
 31
0.0
  0
LINE
  8
0
 62
   249
 10
219.978269
 20
5.720464
 30
0.0
 11
218.018269
 21
5.720464
 31
0.0
  0
LINE
  8
0
 62
   249
 10
218.018269
 20
5.440464
 30
0.0
 11
219.978269
 21
5.440464
 31
0.0
  0
LINE
  8
0
 62
   249
 10
219.978269
 20
5.440464
 30
0.0
 11
219.978269
 21
2.080464
 31
0.0
  0
LINE
  8
0
 62
   249
 10
219.978269
 20
2.080464
 30
0.0
 11
218.018269
 21
2.080464
 31
0.0
  0
LINE
  8
0
 62
   249
 10
218.018269
 20
5.720464
 30
0.0
 11
218.018269
 21
9.080464
 31
0.0
  0
ARC
  8
0
 62
   249
 10
220.818269
 20
7.505464
 30
0.0
 40
1.575
 50
298.455859
 51
90.052437
  0
LINE
  8
0
 62
   249
 10
220.258269
 20
9.080464
 30
0.0
 11
220.816827
 21
9.080463
 31
0.0
  0
LINE
  8
0
 62
   249
 10
220.258269
 20
9.080464
 30
0.0
 11
220.258269
 21
5.720464
 31
0.0
  0
LINE
  8
0
 62
   249
 10
220.258269
 20
5.720464
 30
0.0
 11
222.242711
 21
5.720464
 31
0.0
  0
LINE
  8
0
 62
   249
 10
222.498269
 20
5.440464
 30
0.0
 11
220.258269
 21
5.440464
 31
0.0
  0
LINE
  8
0
 62
   249
 10
220.258269
 20
5.440464
 30
0.0
 11
220.258269
 21
2.080464
 31
0.0
  0
ARC
  8
0
 62
   249
 10
220.818269
 20
4.180464
 30
0.0
 40
2.1
 50
269.937724
 51
37.056553
  0
LINE
  8
0
 62
   249
 10
220.258269
 20
2.080464
 30
0.0
 11
220.815986
 21
2.080465
 31
0.0
  0
ARC
  8
0
 62
   249
 10
220.818269
 20
4.180464
 30
0.0
 40
2.1
 50
47.28622
 51
68.787999
  0
INSERT
  8
0
 62
   249
  2
*X21
 10
210.528269
 20
2.080464
 30
0.0
 41
0.7
 42
0.7
 43
0.7
  0
INSERT
  8
0
 62
   249
  2
*X22
 10
210.528269
 20
2.080464
 30
0.0
 41
0.7
 42
0.7
 43
0.7
  0
INSERT
  8
0
 62
   249
  2
*X23
 10
210.528269
 20
2.080464
 30
0.0
 41
0.7
 42
0.7
 43
0.7
  0
INSERT
  8
0
 62
   249
  2
*X24
 10
210.528269
 20
2.080464
 30
0.0
 41
0.7
 42
0.7
 43
0.7
  0
INSERT
  8
0
 62
   249
  2
*X24
 10
215.988269
 20
2.080464
 30
0.0
 41
0.7
 42
0.7
 43
0.7
  0
INSERT
  8
0
 62
   249
  2
*X23
 10
215.988269
 20
2.080464
 30
0.0
 41
0.7
 42
0.7
 43
0.7
  0
INSERT
  8
0
 62
   249
  2
*X22
 10
215.988269
 20
2.080464
 30
0.0
 41
0.7
 42
0.7
 43
0.7
  0
INSERT
  8
0
 62
   249
  2
*X21
 10
215.988269
 20
2.080464
 30
0.0
 41
0.7
 42
0.7
 43
0.7
  0
ARC
  8
0
 62
   249
 10
226.278269
 20
4.180464
 30
0.0
 40
2.1
 50
47.28622
 51
68.787999
  0
LINE
  8
0
 62
   249
 10
225.718269
 20
2.080464
 30
0.0
 11
226.275986
 21
2.080465
 31
0.0
  0
ARC
  8
0
 62
   249
 10
226.278269
 20
4.180464
 30
0.0
 40
2.1
 50
269.937724
 51
37.056553
  0
LINE
  8
0
 62
   249
 10
225.718269
 20
5.440464
 30
0.0
 11
225.718269
 21
2.080464
 31
0.0
  0
LINE
  8
0
 62
   249
 10
227.958269
 20
5.440464
 30
0.0
 11
225.718269
 21
5.440464
 31
0.0
  0
LINE
  8
0
 62
   249
 10
225.718269
 20
5.720464
 30
0.0
 11
227.702711
 21
5.720464
 31
0.0
  0
LINE
  8
0
 62
   249
 10
225.718269
 20
9.080464
 30
0.0
 11
225.718269
 21
5.720464
 31
0.0
  0
LINE
  8
0
 62
   249
 10
225.718269
 20
9.080464
 30
0.0
 11
226.276827
 21
9.080463
 31
0.0
  0
ARC
  8
0
 62
   249
 10
226.278269
 20
7.505464
 30
0.0
 40
1.575
 50
298.455859
 51
90.052437
  0
LINE
  8
0
 62
   249
 10
223.478269
 20
5.720464
 30
0.0
 11
223.478269
 21
9.080464
 31
0.0
  0
LINE
  8
0
 62
   249
 10
225.438269
 20
2.080464
 30
0.0
 11
223.478269
 21
2.080464
 31
0.0
  0
LINE
  8
0
 62
   249
 10
225.438269
 20
5.440464
 30
0.0
 11
225.438269
 21
2.080464
 31
0.0
  0
LINE
  8
0
 62
   249
 10
223.478269
 20
5.440464
 30
0.0
 11
225.438269
 21
5.440464
 31
0.0
  0
LINE
  8
0
 62
   249
 10
225.438269
 20
5.720464
 30
0.0
 11
223.478269
 21
5.720464
 31
0.0
  0
LINE
  8
0
 62
   249
 10
225.438269
 20
9.080464
 30
0.0
 11
225.438269
 21
5.720464
 31
0.0
  0
LINE
  8
0
 62
   249
 10
223.478269
 20
9.080464
 30
0.0
 11
225.438269
 21
9.080464
 31
0.0
  0
LINE
  8
0
 62
   249
 10
223.478269
 20
2.080464
 30
0.0
 11
223.478269
 21
5.440464
 31
0.0
  0
TEXT
  8
0
 62
   249
 10
230.078269
 20
2.080464
 30
0.0
 40
3.0
  1
ABB 
 41
0.8
  7
ROMANS
  0
TEXT
  8
0
 62
   249
 10
238.078269
 20
2.080464
 30
0.0
 40
3.0
  1
Strömberg
 41
0.8
  7
ROMANS
  0
LINE
  8
0
 62
   249
 10
282.578269
 20
10.080464
 30
0.0
 11
282.578269
 21
18.580464
 31
0.0
  0
TEXT
  8
0
 62
   249
 10
28.078269
 20
5.080464
 30
0.0
 40
1.4
  1
MUUTOS
  7
ROMANS
  0
TEXT
  8
0
 62
   249
 10
28.078269
 20
2.813797
 30
0.0
 40
1.4
  1
REVISION
  7
ROMANS
  0
LINE
  8
0
 62
   249
 10
47.078269
 20
9.580464
 30
0.0
 11
209.578269
 21
9.580464
 31
0.0
  0
LINE
  8
0
 62
   249
 10
47.078269
 20
0.580464
 30
0.0
 11
47.078269
 21
9.580464
 31
0.0
  0
LINE
  8
0
 62
   249
 10
41.078269
 20
5.080464
 30
0.0
 11
209.578269
 21
5.080464
 31
0.0
  0
LINE
  8
0
 62
   249
 10
257.578269
 20
10.080464
 30
0.0
 11
257.578269
 21
35.580464
 31
0.0
  0
LINE
  8
0
 62
   249
 10
271.578269
 20
10.080464
 30
0.0
 11
271.578269
 21
0.580464
 31
0.0
  0
TEXT
  8
0
 62
   249
 10
210.578269
 20
32.580464
 30
0.0
 40
1.4
  1
TEKI  PREPARED
  7
ROMANS
  0
TEXT
  8
0
 62
   249
 10
273.578269
 20
7.580464
 30
0.0
 40
1.4
  1
VAST.OSASTO RESP.DEPT.
  7
ROMANS
  0
TEXT
  8
0
 62
   249
 10
257.748175
 20
2.084248
 30
0.0
 40
3.0
  1
Power
 41
0.8
  7
ROMANS
  0
TEXT
  8
0
 62
   249
 10
42.578269
 20
1.537757
 30
0.0
 40
2.5
  1
B
  7
ROMANS
  0
TEXT
  8
0
 62
   249
 10
42.578269
 20
5.929973
 30
0.0
 40
2.5
  1
C
  7
ROMANS
  0
LINE
  8
0
 62
   249
 10
0.578269
 20
0.580464
 30
0.0
 11
392.578269
 21
0.580464
 31
0.0
  0
LINE
  8
0
 62
   249
 10
392.578269
 20
263.080464
 30
0.0
 11
392.578269
 21
0.580464
 31
0.0
  0
LINE
  8
0
 62
   249
 10
0.578269
 20
0.580464
 30
0.0
 11
0.578269
 21
263.080464
 31
0.0
  0
3DFACE
  8
0
  6
CONTINUOUS
 62
   249
 10
67.215229
 20
62.870963
 30
0.0
 11
67.228949
 21
62.870963
 31
0.0
 12
67.228949
 22
63.850963
 32
0.0
 13
67.215229
 23
63.850963
 33
0.0
  0
3DFACE
  8
0
  6
CONTINUOUS
 62
   249
 10
67.228949
 20
62.870963
 30
0.0
 11
67.242669
 21
62.870963
 31
0.0
 12
67.242669
 22
63.850963
 32
0.0
 13
67.228949
 23
63.850963
 33
0.0
  0
3DFACE
  8
0
  6
CONTINUOUS
 62
   249
 10
67.242669
 20
62.870963
 30
0.0
 11
67.256389
 21
62.870963
 31
0.0
 12
67.256389
 22
63.850963
 32
0.0
 13
67.242669
 23
63.850963
 33
0.0
  0
3DFACE
  8
0
  6
CONTINUOUS
 62
   249
 10
67.256389
 20
62.870963
 30
0.0
 11
67.270109
 21
62.870963
 31
0.0
 12
67.270109
 22
63.850963
 32
0.0
 13
67.256389
 23
63.850963
 33
0.0
  0
3DFACE
  8
0
  6
CONTINUOUS
 62
   249
 10
67.270109
 20
62.870963
 30
0.0
 11
67.283829
 21
62.870963
 31
0.0
 12
67.283829
 22
63.850963
 32
0.0
 13
67.270109
 23
63.850963
 33
0.0
  0
3DFACE
  8
0
  6
CONTINUOUS
 62
   249
 10
67.283829
 20
62.870963
 30
0.0
 11
67.297549
 21
62.870963
 31
0.0
 12
67.297549
 22
63.850963
 32
0.0
 13
67.283829
 23
63.850963
 33
0.0
  0
3DFACE
  8
0
  6
CONTINUOUS
 62
   249
 10
67.297549
 20
62.870963
 30
0.0
 11
67.311269
 21
62.870963
 31
0.0
 12
67.311269
 22
63.850963
 32
0.0
 13
67.297549
 23
63.850963
 33
0.0
  0
3DFACE
  8
0
  6
CONTINUOUS
 62
   249
 10
67.311269
 20
62.870963
 30
0.0
 11
67.324989
 21
62.870963
 31
0.0
 12
67.324989
 22
63.850963
 32
0.0
 13
67.311269
 23
63.850963
 33
0.0
  0
3DFACE
  8
0
  6
CONTINUOUS
 62
   249
 10
67.324989
 20
62.870963
 30
0.0
 11
67.338709
 21
62.870963
 31
0.0
 12
67.338709
 22
63.850963
 32
0.0
 13
67.324989
 23
63.850963
 33
0.0
  0
3DFACE
  8
0
  6
CONTINUOUS
 62
   249
 10
67.338709
 20
62.870963
 30
0.0
 11
67.352429
 21
62.870963
 31
0.0
 12
67.352429
 22
63.850963
 32
0.0
 13
67.338709
 23
63.850963
 33
0.0
  0
3DFACE
  8
0
  6
CONTINUOUS
 62
   249
 10
67.352429
 20
62.870963
 30
0.0
 11
67.366149
 21
62.870963
 31
0.0
 12
67.366149
 22
63.850963
 32
0.0
 13
67.352429
 23
63.850963
 33
0.0
  0
3DFACE
  8
0
  6
CONTINUOUS
 62
   249
 10
67.366149
 20
62.870963
 30
0.0
 11
67.379869
 21
62.870963
 31
0.0
 12
67.379869
 22
63.850963
 32
0.0
 13
67.366149
 23
63.850963
 33
0.0
  0
3DFACE
  8
0
  6
CONTINUOUS
 62
   249
 10
67.379869
 20
62.870963
 30
0.0
 11
67.393589
 21
62.870963
 31
0.0
 12
67.393589
 22
63.850963
 32
0.0
 13
67.379869
 23
63.850963
 33
0.0
  0
3DFACE
  8
0
  6
CONTINUOUS
 62
   249
 10
67.393589
 20
62.870963
 30
0.0
 11
67.407309
 21
62.870963
 31
0.0
 12
67.407309
 22
63.850963
 32
0.0
 13
67.393589
 23
63.850963
 33
0.0
  0
3DFACE
  8
0
  6
CONTINUOUS
 62
   249
 10
67.407309
 20
62.870963
 30
0.0
 11
67.421029
 21
62.870963
 31
0.0
 12
67.421029
 22
63.850963
 32
0.0
 13
67.407309
 23
63.850963
 33
0.0
  0
3DFACE
  8
0
  6
CONTINUOUS
 62
   249
 10
67.421029
 20
62.870963
 30
0.0
 11
67.434749
 21
62.870963
 31
0.0
 12
67.434749
 22
63.850963
 32
0.0
 13
67.421029
 23
63.850963
 33
0.0
  0
3DFACE
  8
0
  6
CONTINUOUS
 62
   249
 10
67.434749
 20
62.870963
 30
0.0
 11
67.448469
 21
62.870963
 31
0.0
 12
67.448469
 22
63.850963
 32
0.0
 13
67.434749
 23
63.850963
 33
0.0
  0
3DFACE
  8
0
  6
CONTINUOUS
 62
   249
 10
67.448469
 20
62.870963
 30
0.0
 11
67.462189
 21
62.870963
 31
0.0
 12
67.462189
 22
63.850963
 32
0.0
 13
67.448469
 23
63.850963
 33
0.0
  0
3DFACE
  8
0
  6
CONTINUOUS
 62
   249
 10
67.462189
 20
62.870963
 30
0.0
 11
67.475909
 21
62.870963
 31
0.0
 12
67.475909
 22
63.850963
 32
0.0
 13
67.462189
 23
63.850963
 33
0.0
  0
3DFACE
  8
0
  6
CONTINUOUS
 62
   249
 10
67.475909
 20
62.870963
 30
0.0
 11
67.489629
 21
62.870963
 31
0.0
 12
67.489629
 22
63.850963
 32
0.0
 13
67.475909
 23
63.850963
 33
0.0
  0
3DFACE
  8
0
  6
CONTINUOUS
 62
   249
 10
67.489629
 20
62.870963
 30
0.0
 11
67.503349
 21
62.870963
 31
0.0
 12
67.503349
 22
63.850963
 32
0.0
 13
67.489629
 23
63.850963
 33
0.0
  0
3DFACE
  8
0
  6
CONTINUOUS
 62
   249
 10
67.503349
 20
62.870963
 30
0.0
 11
67.517069
 21
62.870963
 31
0.0
 12
67.517069
 22
63.850963
 32
0.0
 13
67.503349
 23
63.850963
 33
0.0
  0
3DFACE
  8
0
  6
CONTINUOUS
 62
   249
 10
67.517069
 20
62.870963
 30
0.0
 11
67.530789
 21
62.870963
 31
0.0
 12
67.530789
 22
63.850963
 32
0.0
 13
67.517069
 23
63.850963
 33
0.0
  0
3DFACE
  8
0
  6
CONTINUOUS
 62
   249
 10
67.530789
 20
62.870963
 30
0.0
 11
67.544509
 21
62.870963
 31
0.0
 12
67.544509
 22
63.850963
 32
0.0
 13
67.530789
 23
63.850963
 33
0.0
  0
3DFACE
  8
0
  6
CONTINUOUS
 62
   249
 10
67.544509
 20
62.870963
 30
0.0
 11
67.558229
 21
62.870963
 31
0.0
 12
67.558229
 22
63.850963
 32
0.0
 13
67.544509
 23
63.850963
 33
0.0
  0
3DFACE
  8
0
  6
CONTINUOUS
 62
   249
 10
67.558229
 20
62.870963
 30
0.0
 11
67.571949
 21
62.870963
 31
0.0
 12
67.571949
 22
63.850963
 32
0.0
 13
67.558229
 23
63.850963
 33
0.0
  0
3DFACE
  8
0
  6
CONTINUOUS
 62
   249
 10
67.571949
 20
62.870963
 30
0.0
 11
67.585669
 21
62.870963
 31
0.0
 12
67.585669
 22
63.850963
 32
0.0
 13
67.571949
 23
63.850963
 33
0.0
  0
3DFACE
  8
0
  6
CONTINUOUS
 62
   249
 10
67.585669
 20
62.870963
 30
0.0
 11
67.599389
 21
62.870963
 31
0.0
 12
67.599389
 22
63.850963
 32
0.0
 13
67.585669
 23
63.850963
 33
0.0
  0
3DFACE
  8
0
  6
CONTINUOUS
 62
   249
 10
67.599389
 20
62.870963
 30
0.0
 11
67.613109
 21
62.870963
 31
0.0
 12
67.613109
 22
63.850963
 32
0.0
 13
67.599389
 23
63.850963
 33
0.0
  0
3DFACE
  8
0
  6
CONTINUOUS
 62
   249
 10
67.613109
 20
62.870963
 30
0.0
 11
67.626829
 21
62.870963
 31
0.0
 12
67.626829
 22
63.850963
 32
0.0
 13
67.613109
 23
63.850963
 33
0.0
  0
3DFACE
  8
0
  6
CONTINUOUS
 62
   249
 10
67.626829
 20
62.870963
 30
0.0
 11
67.640549
 21
62.870963
 31
0.0
 12
67.640549
 22
63.850963
 32
0.0
 13
67.626829
 23
63.850963
 33
0.0
  0
3DFACE
  8
0
  6
CONTINUOUS
 62
   249
 10
67.640549
 20
62.870963
 30
0.0
 11
67.654269
 21
62.870963
 31
0.0
 12
67.654269
 22
63.850963
 32
0.0
 13
67.640549
 23
63.850963
 33
0.0
  0
3DFACE
  8
0
  6
CONTINUOUS
 62
   249
 10
67.654269
 20
62.870963
 30
0.0
 11
67.667989
 21
62.870963
 31
0.0
 12
67.667989
 22
63.850963
 32
0.0
 13
67.654269
 23
63.850963
 33
0.0
  0
3DFACE
  8
0
  6
CONTINUOUS
 62
   249
 10
67.667989
 20
62.870963
 30
0.0
 11
67.681709
 21
62.870963
 31
0.0
 12
67.681709
 22
63.850963
 32
0.0
 13
67.667989
 23
63.850963
 33
0.0
  0
3DFACE
  8
0
  6
CONTINUOUS
 62
   249
 10
67.681709
 20
62.870963
 30
0.0
 11
67.695429
 21
62.870963
 31
0.0
 12
67.695429
 22
63.850963
 32
0.0
 13
67.681709
 23
63.850963
 33
0.0
  0
3DFACE
  8
0
  6
CONTINUOUS
 62
   249
 10
67.695429
 20
62.870963
 30
0.0
 11
67.709149
 21
62.870963
 31
0.0
 12
67.709149
 22
63.850963
 32
0.0
 13
67.695429
 23
63.850963
 33
0.0
  0
3DFACE
  8
0
  6
CONTINUOUS
 62
   249
 10
67.709149
 20
62.870963
 30
0.0
 11
67.722869
 21
62.870963
 31
0.0
 12
67.722869
 22
63.850963
 32
0.0
 13
67.709149
 23
63.850963
 33
0.0
  0
3DFACE
  8
0
  6
CONTINUOUS
 62
   249
 10
67.722869
 20
62.870963
 30
0.0
 11
67.736589
 21
62.870963
 31
0.0
 12
67.736589
 22
63.850963
 32
0.0
 13
67.722869
 23
63.850963
 33
0.0
  0
3DFACE
  8
0
  6
CONTINUOUS
 62
   249
 10
67.736589
 20
62.870963
 30
0.0
 11
67.750309
 21
62.870963
 31
0.0
 12
67.750309
 22
63.850963
 32
0.0
 13
67.736589
 23
63.850963
 33
0.0
  0
3DFACE
  8
0
  6
CONTINUOUS
 62
   249
 10
67.750309
 20
62.870963
 30
0.0
 11
67.764029
 21
62.870963
 31
0.0
 12
67.764029
 22
63.850963
 32
0.0
 13
67.750309
 23
63.850963
 33
0.0
  0
3DFACE
  8
0
  6
CONTINUOUS
 62
   249
 10
67.764029
 20
62.870963
 30
0.0
 11
67.777749
 21
62.870963
 31
0.0
 12
67.777749
 22
63.850963
 32
0.0
 13
67.764029
 23
63.850963
 33
0.0
  0
3DFACE
  8
0
  6
CONTINUOUS
 62
   249
 10
67.777749
 20
62.870963
 30
0.0
 11
67.791469
 21
62.870963
 31
0.0
 12
67.791469
 22
63.850963
 32
0.0
 13
67.777749
 23
63.850963
 33
0.0
  0
3DFACE
  8
0
  6
CONTINUOUS
 62
   249
 10
67.791469
 20
62.870963
 30
0.0
 11
67.805189
 21
62.870963
 31
0.0
 12
67.805189
 22
63.850963
 32
0.0
 13
67.791469
 23
63.850963
 33
0.0
  0
3DFACE
  8
0
  6
CONTINUOUS
 62
   249
 10
67.805189
 20
62.870963
 30
0.0
 11
67.818909
 21
62.870963
 31
0.0
 12
67.818909
 22
63.850963
 32
0.0
 13
67.805189
 23
63.850963
 33
0.0
  0
3DFACE
  8
0
  6
CONTINUOUS
 62
   249
 10
67.818909
 20
62.870963
 30
0.0
 11
67.832629
 21
62.870963
 31
0.0
 12
67.832629
 22
63.850963
 32
0.0
 13
67.818909
 23
63.850963
 33
0.0
  0
3DFACE
  8
0
  6
CONTINUOUS
 62
   249
 10
67.832629
 20
62.870963
 30
0.0
 11
67.846349
 21
62.870963
 31
0.0
 12
67.846349
 22
63.850963
 32
0.0
 13
67.832629
 23
63.850963
 33
0.0
  0
3DFACE
  8
0
  6
CONTINUOUS
 62
   249
 10
67.846349
 20
62.870963
 30
0.0
 11
67.860069
 21
62.870963
 31
0.0
 12
67.860069
 22
63.850963
 32
0.0
 13
67.846349
 23
63.850963
 33
0.0
  0
3DFACE
  8
0
  6
CONTINUOUS
 62
   249
 10
67.860069
 20
62.870963
 30
0.0
 11
67.873789
 21
62.870963
 31
0.0
 12
67.873789
 22
63.850963
 32
0.0
 13
67.860069
 23
63.850963
 33
0.0
  0
3DFACE
  8
0
  6
CONTINUOUS
 62
   249
 10
67.873789
 20
62.870963
 30
0.0
 11
67.887509
 21
62.870963
 31
0.0
 12
67.887509
 22
63.850963
 32
0.0
 13
67.873789
 23
63.850963
 33
0.0
  0
3DFACE
  8
0
  6
CONTINUOUS
 62
   249
 10
67.887509
 20
62.870963
 30
0.0
 11
67.901229
 21
62.870963
 31
0.0
 12
67.901229
 22
63.850963
 32
0.0
 13
67.887509
 23
63.850963
 33
0.0
  0
3DFACE
  8
0
  6
CONTINUOUS
 62
   249
 10
67.901229
 20
62.870963
 30
0.0
 11
67.914949
 21
62.870963
 31
0.0
 12
67.914949
 22
63.850963
 32
0.0
 13
67.901229
 23
63.850963
 33
0.0
  0
3DFACE
  8
0
  6
CONTINUOUS
 62
   249
 10
67.914949
 20
62.870963
 30
0.0
 11
67.928669
 21
62.870963
 31
0.0
 12
67.928669
 22
63.850963
 32
0.0
 13
67.914949
 23
63.850963
 33
0.0
  0
3DFACE
  8
0
  6
CONTINUOUS
 62
   249
 10
67.928669
 20
62.870963
 30
0.0
 11
67.942389
 21
62.870963
 31
0.0
 12
67.942389
 22
63.850963
 32
0.0
 13
67.928669
 23
63.850963
 33
0.0
  0
3DFACE
  8
0
  6
CONTINUOUS
 62
   249
 10
67.942389
 20
62.870963
 30
0.0
 11
67.956109
 21
62.870963
 31
0.0
 12
67.956109
 22
63.850963
 32
0.0
 13
67.942389
 23
63.850963
 33
0.0
  0
3DFACE
  8
0
  6
CONTINUOUS
 62
   249
 10
67.956109
 20
62.870963
 30
0.0
 11
67.969829
 21
62.870963
 31
0.0
 12
67.969829
 22
63.850963
 32
0.0
 13
67.956109
 23
63.850963
 33
0.0
  0
3DFACE
  8
0
  6
CONTINUOUS
 62
   249
 10
67.969829
 20
62.870963
 30
0.0
 11
67.983549
 21
62.870963
 31
0.0
 12
67.983549
 22
63.850963
 32
0.0
 13
67.969829
 23
63.850963
 33
0.0
  0
3DFACE
  8
0
  6
CONTINUOUS
 62
   249
 10
67.983549
 20
62.870963
 30
0.0
 11
67.997269
 21
62.870963
 31
0.0
 12
67.997269
 22
63.850963
 32
0.0
 13
67.983549
 23
63.850963
 33
0.0
  0
3DFACE
  8
0
  6
CONTINUOUS
 62
   249
 10
67.997269
 20
62.870963
 30
0.0
 11
68.010989
 21
62.870963
 31
0.0
 12
68.010989
 22
63.850963
 32
0.0
 13
67.997269
 23
63.850963
 33
0.0
  0
3DFACE
  8
0
  6
CONTINUOUS
 62
   249
 10
68.010989
 20
62.870963
 30
0.0
 11
68.024709
 21
62.870963
 31
0.0
 12
68.024709
 22
63.850963
 32
0.0
 13
68.010989
 23
63.850963
 33
0.0
  0
3DFACE
  8
0
  6
CONTINUOUS
 62
   249
 10
68.024709
 20
62.870963
 30
0.0
 11
68.038429
 21
62.870963
 31
0.0
 12
68.038429
 22
63.850963
 32
0.0
 13
68.024709
 23
63.850963
 33
0.0
  0
3DFACE
  8
0
  6
CONTINUOUS
 62
   249
 10
68.038429
 20
62.870963
 30
0.0
 11
68.052149
 21
62.870963
 31
0.0
 12
68.052149
 22
63.850963
 32
0.0
 13
68.038429
 23
63.850963
 33
0.0
  0
3DFACE
  8
0
  6
CONTINUOUS
 62
   249
 10
68.052149
 20
62.870963
 30
0.0
 11
68.065869
 21
62.870963
 31
0.0
 12
68.065869
 22
63.850963
 32
0.0
 13
68.052149
 23
63.850963
 33
0.0
  0
3DFACE
  8
0
  6
CONTINUOUS
 62
   249
 10
68.065869
 20
62.870963
 30
0.0
 11
68.079589
 21
62.870963
 31
0.0
 12
68.079589
 22
63.850963
 32
0.0
 13
68.065869
 23
63.850963
 33
0.0
  0
3DFACE
  8
0
  6
CONTINUOUS
 62
   249
 10
68.079589
 20
62.870963
 30
0.0
 11
68.093309
 21
62.870963
 31
0.0
 12
68.093309
 22
63.850963
 32
0.0
 13
68.079589
 23
63.850963
 33
0.0
  0
3DFACE
  8
0
  6
CONTINUOUS
 62
   249
 10
68.093309
 20
62.870963
 30
0.0
 11
68.107029
 21
62.870963
 31
0.0
 12
68.107029
 22
63.850963
 32
0.0
 13
68.093309
 23
63.850963
 33
0.0
  0
3DFACE
  8
0
  6
CONTINUOUS
 62
   249
 10
68.107029
 20
62.870963
 30
0.0
 11
68.120749
 21
62.870963
 31
0.0
 12
68.120749
 22
63.850963
 32
0.0
 13
68.107029
 23
63.850963
 33
0.0
  0
3DFACE
  8
0
  6
CONTINUOUS
 62
   249
 10
68.120749
 20
62.870963
 30
0.0
 11
68.134469
 21
62.870963
 31
0.0
 12
68.134469
 22
63.850963
 32
0.0
 13
68.120749
 23
63.850963
 33
0.0
  0
3DFACE
  8
0
  6
CONTINUOUS
 62
   249
 10
68.134469
 20
62.870963
 30
0.0
 11
68.148189
 21
62.870963
 31
0.0
 12
68.148189
 22
63.850963
 32
0.0
 13
68.134469
 23
63.850963
 33
0.0
  0
3DFACE
  8
0
  6
CONTINUOUS
 62
   249
 10
68.148189
 20
62.870963
 30
0.0
 11
68.161909
 21
62.870963
 31
0.0
 12
68.161909
 22
63.850963
 32
0.0
 13
68.148189
 23
63.850963
 33
0.0
  0
3DFACE
  8
0
  6
CONTINUOUS
 62
   249
 10
68.161909
 20
62.870963
 30
0.0
 11
68.175629
 21
62.870963
 31
0.0
 12
68.175629
 22
63.850963
 32
0.0
 13
68.161909
 23
63.850963
 33
0.0
  0
3DFACE
  8
0
  6
CONTINUOUS
 62
   249
 10
68.175629
 20
62.870963
 30
0.0
 11
68.189349
 21
62.870963
 31
0.0
 12
68.189349
 22
63.850963
 32
0.0
 13
68.175629
 23
63.850963
 33
0.0
  0
3DFACE
  8
0
  6
CONTINUOUS
 62
   249
 10
68.189349
 20
62.870963
 30
0.0
 11
68.203069
 21
62.870963
 31
0.0
 12
68.203069
 22
63.850963
 32
0.0
 13
68.189349
 23
63.850963
 33
0.0
  0
3DFACE
  8
0
  6
CONTINUOUS
 62
   249
 10
68.203069
 20
62.870963
 30
0.0
 11
68.216789
 21
62.870963
 31
0.0
 12
68.216789
 22
63.850963
 32
0.0
 13
68.203069
 23
63.850963
 33
0.0
  0
3DFACE
  8
0
  6
CONTINUOUS
 62
   249
 10
68.216789
 20
62.870963
 30
0.0
 11
68.230509
 21
62.870963
 31
0.0
 12
68.230509
 22
63.850963
 32
0.0
 13
68.216789
 23
63.850963
 33
0.0
  0
3DFACE
  8
0
  6
CONTINUOUS
 62
   249
 10
68.230509
 20
62.870963
 30
0.0
 11
68.244229
 21
62.870963
 31
0.0
 12
68.244229
 22
63.850963
 32
0.0
 13
68.230509
 23
63.850963
 33
0.0
  0
3DFACE
  8
0
  6
CONTINUOUS
 62
   249
 10
68.244229
 20
62.870963
 30
0.0
 11
68.257949
 21
62.870963
 31
0.0
 12
68.257949
 22
63.850963
 32
0.0
 13
68.244229
 23
63.850963
 33
0.0
  0
3DFACE
  8
0
  6
CONTINUOUS
 62
   249
 10
68.257949
 20
62.870963
 30
0.0
 11
68.271669
 21
62.870963
 31
0.0
 12
68.271669
 22
63.850963
 32
0.0
 13
68.257949
 23
63.850963
 33
0.0
  0
3DFACE
  8
0
  6
CONTINUOUS
 62
   249
 10
68.271669
 20
62.870963
 30
0.0
 11
68.285389
 21
62.870963
 31
0.0
 12
68.285389
 22
63.850963
 32
0.0
 13
68.271669
 23
63.850963
 33
0.0
  0
3DFACE
  8
0
  6
CONTINUOUS
 62
   249
 10
68.285389
 20
62.870963
 30
0.0
 11
68.299109
 21
62.870963
 31
0.0
 12
68.299109
 22
63.850963
 32
0.0
 13
68.285389
 23
63.850963
 33
0.0
  0
3DFACE
  8
0
  6
CONTINUOUS
 62
   249
 10
68.299109
 20
62.870963
 30
0.0
 11
68.312829
 21
62.870963
 31
0.0
 12
68.312829
 22
63.850963
 32
0.0
 13
68.299109
 23
63.850963
 33
0.0
  0
3DFACE
  8
0
  6
CONTINUOUS
 62
   249
 10
68.312829
 20
62.870963
 30
0.0
 11
68.326549
 21
62.870963
 31
0.0
 12
68.326549
 22
63.850963
 32
0.0
 13
68.312829
 23
63.850963
 33
0.0
  0
3DFACE
  8
0
  6
CONTINUOUS
 62
   249
 10
68.326549
 20
62.870963
 30
0.0
 11
68.340269
 21
62.870963
 31
0.0
 12
68.340269
 22
63.850963
 32
0.0
 13
68.326549
 23
63.850963
 33
0.0
  0
3DFACE
  8
0
  6
CONTINUOUS
 62
   249
 10
68.340269
 20
62.870963
 30
0.0
 11
68.353989
 21
62.870963
 31
0.0
 12
68.353989
 22
63.850963
 32
0.0
 13
68.340269
 23
63.850963
 33
0.0
  0
3DFACE
  8
0
  6
CONTINUOUS
 62
   249
 10
68.353989
 20
62.870963
 30
0.0
 11
68.367709
 21
62.870963
 31
0.0
 12
68.367709
 22
63.850963
 32
0.0
 13
68.353989
 23
63.850963
 33
0.0
  0
3DFACE
  8
0
  6
CONTINUOUS
 62
   249
 10
68.367709
 20
62.870963
 30
0.0
 11
68.381429
 21
62.870963
 31
0.0
 12
68.381429
 22
63.850963
 32
0.0
 13
68.367709
 23
63.850963
 33
0.0
  0
3DFACE
  8
0
  6
CONTINUOUS
 62
   249
 10
68.381429
 20
62.870963
 30
0.0
 11
68.395149
 21
62.870963
 31
0.0
 12
68.395149
 22
63.850963
 32
0.0
 13
68.381429
 23
63.850963
 33
0.0
  0
3DFACE
  8
0
  6
CONTINUOUS
 62
   249
 10
68.395149
 20
62.870963
 30
0.0
 11
68.408869
 21
62.870963
 31
0.0
 12
68.408869
 22
63.850963
 32
0.0
 13
68.395149
 23
63.850963
 33
0.0
  0
3DFACE
  8
0
  6
CONTINUOUS
 62
   249
 10
68.408869
 20
62.870963
 30
0.0
 11
68.422589
 21
62.870963
 31
0.0
 12
68.422589
 22
63.850963
 32
0.0
 13
68.408869
 23
63.850963
 33
0.0
  0
3DFACE
  8
0
  6
CONTINUOUS
 62
   249
 10
68.422589
 20
62.870963
 30
0.0
 11
68.436309
 21
62.870963
 31
0.0
 12
68.436309
 22
63.850963
 32
0.0
 13
68.422589
 23
63.850963
 33
0.0
  0
3DFACE
  8
0
  6
CONTINUOUS
 62
   249
 10
68.436309
 20
62.870963
 30
0.0
 11
68.450029
 21
62.870963
 31
0.0
 12
68.450029
 22
63.850963
 32
0.0
 13
68.436309
 23
63.850963
 33
0.0
  0
3DFACE
  8
0
  6
CONTINUOUS
 62
   249
 10
68.450029
 20
62.870963
 30
0.0
 11
68.463749
 21
62.870963
 31
0.0
 12
68.463749
 22
63.850963
 32
0.0
 13
68.450029
 23
63.850963
 33
0.0
  0
3DFACE
  8
0
  6
CONTINUOUS
 62
   249
 10
68.463749
 20
62.870963
 30
0.0
 11
68.477469
 21
62.870963
 31
0.0
 12
68.477469
 22
63.850963
 32
0.0
 13
68.463749
 23
63.850963
 33
0.0
  0
3DFACE
  8
0
  6
CONTINUOUS
 62
   249
 10
68.477469
 20
62.870963
 30
0.0
 11
68.491189
 21
62.870963
 31
0.0
 12
68.491189
 22
63.850963
 32
0.0
 13
68.477469
 23
63.850963
 33
0.0
  0
3DFACE
  8
0
  6
CONTINUOUS
 62
   249
 10
68.491189
 20
62.870963
 30
0.0
 11
68.504909
 21
62.870963
 31
0.0
 12
68.504909
 22
63.850963
 32
0.0
 13
68.491189
 23
63.850963
 33
0.0
  0
3DFACE
  8
0
  6
CONTINUOUS
 62
   249
 10
68.504909
 20
62.870963
 30
0.0
 11
68.518629
 21
62.870963
 31
0.0
 12
68.518629
 22
63.850963
 32
0.0
 13
68.504909
 23
63.850963
 33
0.0
  0
3DFACE
  8
0
  6
CONTINUOUS
 62
   249
 10
68.518629
 20
62.870963
 30
0.0
 11
68.532349
 21
62.870963
 31
0.0
 12
68.532349
 22
63.850963
 32
0.0
 13
68.518629
 23
63.850963
 33
0.0
  0
3DFACE
  8
0
  6
CONTINUOUS
 62
   249
 10
68.532349
 20
62.870963
 30
0.0
 11
68.546069
 21
62.870963
 31
0.0
 12
68.546069
 22
63.850963
 32
0.0
 13
68.532349
 23
63.850963
 33
0.0
  0
3DFACE
  8
0
  6
CONTINUOUS
 62
   249
 10
68.546069
 20
62.870963
 30
0.0
 11
68.559789
 21
62.870963
 31
0.0
 12
68.559789
 22
63.850963
 32
0.0
 13
68.546069
 23
63.850963
 33
0.0
  0
3DFACE
  8
0
  6
CONTINUOUS
 62
   249
 10
68.559789
 20
62.870963
 30
0.0
 11
68.573509
 21
62.870963
 31
0.0
 12
68.573509
 22
63.850963
 32
0.0
 13
68.559789
 23
63.850963
 33
0.0
  0
3DFACE
  8
0
  6
CONTINUOUS
 62
   249
 10
68.573509
 20
62.870963
 30
0.0
 11
68.587229
 21
62.870963
 31
0.0
 12
68.587229
 22
63.850963
 32
0.0
 13
68.573509
 23
63.850963
 33
0.0
  0
3DFACE
  8
0
  6
CONTINUOUS
 62
   249
 10
68.587229
 20
62.870963
 30
0.0
 11
68.600949
 21
62.870963
 31
0.0
 12
68.600949
 22
63.850963
 32
0.0
 13
68.587229
 23
63.850963
 33
0.0
  0
3DFACE
  8
0
  6
CONTINUOUS
 62
   249
 10
68.600949
 20
62.870963
 30
0.0
 11
68.614669
 21
62.870963
 31
0.0
 12
68.614669
 22
63.850963
 32
0.0
 13
68.600949
 23
63.850963
 33
0.0
  0
3DFACE
  8
0
  6
CONTINUOUS
 62
   249
 10
68.614669
 20
62.870963
 30
0.0
 11
68.628389
 21
62.870963
 31
0.0
 12
68.628389
 22
63.850963
 32
0.0
 13
68.614669
 23
63.850963
 33
0.0
  0
3DFACE
  8
0
  6
CONTINUOUS
 62
   249
 10
68.628389
 20
62.870963
 30
0.0
 11
68.642109
 21
62.870963
 31
0.0
 12
68.642109
 22
63.850963
 32
0.0
 13
68.628389
 23
63.850963
 33
0.0
  0
3DFACE
  8
0
  6
CONTINUOUS
 62
   249
 10
68.642109
 20
62.870963
 30
0.0
 11
68.655829
 21
62.870963
 31
0.0
 12
68.655829
 22
63.850963
 32
0.0
 13
68.642109
 23
63.850963
 33
0.0
  0
3DFACE
  8
0
  6
CONTINUOUS
 62
   249
 10
68.655829
 20
62.870963
 30
0.0
 11
68.669549
 21
62.870963
 31
0.0
 12
68.669549
 22
63.850963
 32
0.0
 13
68.655829
 23
63.850963
 33
0.0
  0
3DFACE
  8
0
  6
CONTINUOUS
 62
   249
 10
68.669549
 20
62.870963
 30
0.0
 11
68.683269
 21
62.870963
 31
0.0
 12
68.683269
 22
63.850963
 32
0.0
 13
68.669549
 23
63.850963
 33
0.0
  0
3DFACE
  8
0
  6
CONTINUOUS
 62
   249
 10
68.683269
 20
62.870963
 30
0.0
 11
68.696989
 21
62.870963
 31
0.0
 12
68.696989
 22
63.850963
 32
0.0
 13
68.683269
 23
63.850963
 33
0.0
  0
3DFACE
  8
0
  6
CONTINUOUS
 62
   249
 10
68.696989
 20
62.870963
 30
0.0
 11
68.710709
 21
62.870963
 31
0.0
 12
68.710709
 22
63.850963
 32
0.0
 13
68.696989
 23
63.850963
 33
0.0
  0
3DFACE
  8
0
  6
CONTINUOUS
 62
   249
 10
68.710709
 20
62.870963
 30
0.0
 11
68.724429
 21
62.870963
 31
0.0
 12
68.724429
 22
63.850963
 32
0.0
 13
68.710709
 23
63.850963
 33
0.0
  0
3DFACE
  8
0
  6
CONTINUOUS
 62
   249
 10
68.724429
 20
62.870963
 30
0.0
 11
68.738149
 21
62.870963
 31
0.0
 12
68.738149
 22
63.850963
 32
0.0
 13
68.724429
 23
63.850963
 33
0.0
  0
3DFACE
  8
0
  6
CONTINUOUS
 62
   249
 10
68.738149
 20
62.870963
 30
0.0
 11
68.751869
 21
62.870963
 31
0.0
 12
68.751869
 22
63.850963
 32
0.0
 13
68.738149
 23
63.850963
 33
0.0
  0
3DFACE
  8
0
  6
CONTINUOUS
 62
   249
 10
68.751869
 20
62.870963
 30
0.0
 11
68.765589
 21
62.870963
 31
0.0
 12
68.765589
 22
63.850963
 32
0.0
 13
68.751869
 23
63.850963
 33
0.0
  0
3DFACE
  8
0
  6
CONTINUOUS
 62
   249
 10
68.765589
 20
62.870963
 30
0.0
 11
68.779309
 21
62.870963
 31
0.0
 12
68.779309
 22
63.850963
 32
0.0
 13
68.765589
 23
63.850963
 33
0.0
  0
3DFACE
  8
0
  6
CONTINUOUS
 62
   249
 10
68.779309
 20
62.870963
 30
0.0
 11
68.793029
 21
62.870963
 31
0.0
 12
68.793029
 22
63.850963
 32
0.0
 13
68.779309
 23
63.850963
 33
0.0
  0
3DFACE
  8
0
  6
CONTINUOUS
 62
   249
 10
68.793029
 20
62.870963
 30
0.0
 11
68.806749
 21
62.870963
 31
0.0
 12
68.806749
 22
63.850963
 32
0.0
 13
68.793029
 23
63.850963
 33
0.0
  0
3DFACE
  8
0
  6
CONTINUOUS
 62
   249
 10
68.806749
 20
62.870963
 30
0.0
 11
68.820469
 21
62.870963
 31
0.0
 12
68.820469
 22
63.850963
 32
0.0
 13
68.806749
 23
63.850963
 33
0.0
  0
3DFACE
  8
0
  6
CONTINUOUS
 62
   249
 10
68.820469
 20
62.870963
 30
0.0
 11
68.834189
 21
62.870963
 31
0.0
 12
68.834189
 22
63.850963
 32
0.0
 13
68.820469
 23
63.850963
 33
0.0
  0
3DFACE
  8
0
  6
CONTINUOUS
 62
   249
 10
68.834189
 20
62.870963
 30
0.0
 11
68.847909
 21
62.870963
 31
0.0
 12
68.847909
 22
63.850963
 32
0.0
 13
68.834189
 23
63.850963
 33
0.0
  0
3DFACE
  8
0
  6
CONTINUOUS
 62
   249
 10
68.847909
 20
62.870963
 30
0.0
 11
68.861629
 21
62.870963
 31
0.0
 12
68.861629
 22
63.850963
 32
0.0
 13
68.847909
 23
63.850963
 33
0.0
  0
3DFACE
  8
0
  6
CONTINUOUS
 62
   249
 10
68.861629
 20
62.870963
 30
0.0
 11
68.875349
 21
62.870963
 31
0.0
 12
68.875349
 22
63.850963
 32
0.0
 13
68.861629
 23
63.850963
 33
0.0
  0
3DFACE
  8
0
  6
CONTINUOUS
 62
   249
 10
68.875349
 20
62.870963
 30
0.0
 11
68.889069
 21
62.870963
 31
0.0
 12
68.889069
 22
63.850963
 32
0.0
 13
68.875349
 23
63.850963
 33
0.0
  0
3DFACE
  8
0
  6
CONTINUOUS
 62
   249
 10
68.889069
 20
62.870963
 30
0.0
 11
68.902789
 21
62.870963
 31
0.0
 12
68.902789
 22
63.850963
 32
0.0
 13
68.889069
 23
63.850963
 33
0.0
  0
3DFACE
  8
0
  6
CONTINUOUS
 62
   249
 10
68.902789
 20
62.870963
 30
0.0
 11
68.916509
 21
62.870963
 31
0.0
 12
68.916509
 22
63.850963
 32
0.0
 13
68.902789
 23
63.850963
 33
0.0
  0
3DFACE
  8
0
  6
CONTINUOUS
 62
   249
 10
68.916509
 20
62.870963
 30
0.0
 11
68.930229
 21
62.870963
 31
0.0
 12
68.930229
 22
63.850963
 32
0.0
 13
68.916509
 23
63.850963
 33
0.0
  0
3DFACE
  8
0
  6
CONTINUOUS
 62
   249
 10
68.930229
 20
62.870963
 30
0.0
 11
68.943949
 21
62.870963
 31
0.0
 12
68.943949
 22
63.850963
 32
0.0
 13
68.930229
 23
63.850963
 33
0.0
  0
3DFACE
  8
0
  6
CONTINUOUS
 62
   249
 10
68.943949
 20
62.870963
 30
0.0
 11
68.957669
 21
62.870963
 31
0.0
 12
68.957669
 22
63.850963
 32
0.0
 13
68.943949
 23
63.850963
 33
0.0
  0
3DFACE
  8
0
  6
CONTINUOUS
 62
   249
 10
68.957669
 20
62.870963
 30
0.0
 11
68.971389
 21
62.870963
 31
0.0
 12
68.971389
 22
63.850963
 32
0.0
 13
68.957669
 23
63.850963
 33
0.0
  0
3DFACE
  8
0
  6
CONTINUOUS
 62
   249
 10
68.971389
 20
62.870963
 30
0.0
 11
68.985109
 21
62.870963
 31
0.0
 12
68.985109
 22
63.850963
 32
0.0
 13
68.971389
 23
63.850963
 33
0.0
  0
3DFACE
  8
0
  6
CONTINUOUS
 62
   249
 10
68.985109
 20
62.870963
 30
0.0
 11
68.998829
 21
62.870963
 31
0.0
 12
68.998829
 22
63.850963
 32
0.0
 13
68.985109
 23
63.850963
 33
0.0
  0
3DFACE
  8
0
  6
CONTINUOUS
 62
   249
 10
68.998829
 20
62.870963
 30
0.0
 11
69.012549
 21
62.870963
 31
0.0
 12
69.012549
 22
63.850963
 32
0.0
 13
68.998829
 23
63.850963
 33
0.0
  0
3DFACE
  8
0
  6
CONTINUOUS
 62
   249
 10
69.012549
 20
62.870963
 30
0.0
 11
69.026269
 21
62.870963
 31
0.0
 12
69.026269
 22
63.850963
 32
0.0
 13
69.012549
 23
63.850963
 33
0.0
  0
3DFACE
  8
0
  6
CONTINUOUS
 62
   249
 10
69.026269
 20
62.870963
 30
0.0
 11
69.039989
 21
62.870963
 31
0.0
 12
69.039989
 22
63.850963
 32
0.0
 13
69.026269
 23
63.850963
 33
0.0
  0
3DFACE
  8
0
  6
CONTINUOUS
 62
   249
 10
69.039989
 20
62.870963
 30
0.0
 11
69.053709
 21
62.870963
 31
0.0
 12
69.053709
 22
63.850963
 32
0.0
 13
69.039989
 23
63.850963
 33
0.0
  0
3DFACE
  8
0
  6
CONTINUOUS
 62
   249
 10
69.053709
 20
62.870963
 30
0.0
 11
69.067429
 21
62.870963
 31
0.0
 12
69.067429
 22
63.850963
 32
0.0
 13
69.053709
 23
63.850963
 33
0.0
  0
3DFACE
  8
0
  6
CONTINUOUS
 62
   249
 10
69.067429
 20
62.870963
 30
0.0
 11
69.081149
 21
62.870963
 31
0.0
 12
69.081149
 22
63.850963
 32
0.0
 13
69.067429
 23
63.850963
 33
0.0
  0
3DFACE
  8
0
  6
CONTINUOUS
 62
   249
 10
69.081149
 20
62.870963
 30
0.0
 11
69.094869
 21
62.870963
 31
0.0
 12
69.094869
 22
63.850963
 32
0.0
 13
69.081149
 23
63.850963
 33
0.0
  0
3DFACE
  8
0
  6
CONTINUOUS
 62
   249
 10
69.094869
 20
62.870963
 30
0.0
 11
69.108589
 21
62.870963
 31
0.0
 12
69.108589
 22
63.850963
 32
0.0
 13
69.094869
 23
63.850963
 33
0.0
  0
3DFACE
  8
0
  6
CONTINUOUS
 62
   249
 10
69.108589
 20
62.870963
 30
0.0
 11
69.122309
 21
62.870963
 31
0.0
 12
69.122309
 22
63.850963
 32
0.0
 13
69.108589
 23
63.850963
 33
0.0
  0
3DFACE
  8
0
  6
CONTINUOUS
 62
   249
 10
69.122309
 20
62.870963
 30
0.0
 11
69.136029
 21
62.870963
 31
0.0
 12
69.136029
 22
63.850963
 32
0.0
 13
69.122309
 23
63.850963
 33
0.0
  0
3DFACE
  8
0
  6
CONTINUOUS
 62
   249
 10
69.136029
 20
62.870963
 30
0.0
 11
69.149749
 21
62.870963
 31
0.0
 12
69.149749
 22
63.850963
 32
0.0
 13
69.136029
 23
63.850963
 33
0.0
  0
3DFACE
  8
0
  6
CONTINUOUS
 62
   249
 10
69.149749
 20
62.870963
 30
0.0
 11
69.163469
 21
62.870963
 31
0.0
 12
69.163469
 22
63.850963
 32
0.0
 13
69.149749
 23
63.850963
 33
0.0
  0
3DFACE
  8
0
  6
CONTINUOUS
 62
   249
 10
69.163469
 20
62.870963
 30
0.0
 11
69.177189
 21
62.870963
 31
0.0
 12
69.177189
 22
63.850963
 32
0.0
 13
69.163469
 23
63.850963
 33
0.0
  0
3DFACE
  8
0
  6
CONTINUOUS
 62
   249
 10
69.177189
 20
62.870963
 30
0.0
 11
69.190909
 21
62.870963
 31
0.0
 12
69.190909
 22
63.850963
 32
0.0
 13
69.177189
 23
63.850963
 33
0.0
  0
3DFACE
  8
0
  6
CONTINUOUS
 62
   249
 10
69.190909
 20
62.870963
 30
0.0
 11
69.204629
 21
62.870963
 31
0.0
 12
69.204629
 22
63.850963
 32
0.0
 13
69.190909
 23
63.850963
 33
0.0
  0
3DFACE
  8
0
  6
CONTINUOUS
 62
   249
 10
69.204629
 20
62.870963
 30
0.0
 11
69.218349
 21
62.870963
 31
0.0
 12
69.218349
 22
63.850963
 32
0.0
 13
69.204629
 23
63.850963
 33
0.0
  0
3DFACE
  8
0
  6
CONTINUOUS
 62
   249
 10
69.218349
 20
62.870963
 30
0.0
 11
69.232069
 21
62.870963
 31
0.0
 12
69.232069
 22
63.850963
 32
0.0
 13
69.218349
 23
63.850963
 33
0.0
  0
3DFACE
  8
0
  6
CONTINUOUS
 62
   249
 10
69.232069
 20
62.870963
 30
0.0
 11
69.245789
 21
62.870963
 31
0.0
 12
69.245789
 22
63.850963
 32
0.0
 13
69.232069
 23
63.850963
 33
0.0
  0
3DFACE
  8
0
  6
CONTINUOUS
 62
   249
 10
69.245789
 20
62.870963
 30
0.0
 11
69.259509
 21
62.870963
 31
0.0
 12
69.259509
 22
63.850963
 32
0.0
 13
69.245789
 23
63.850963
 33
0.0
  0
3DFACE
  8
0
  6
CONTINUOUS
 62
   249
 10
69.259509
 20
62.870963
 30
0.0
 11
69.273229
 21
62.870963
 31
0.0
 12
69.273229
 22
63.850963
 32
0.0
 13
69.259509
 23
63.850963
 33
0.0
  0
3DFACE
  8
0
  6
CONTINUOUS
 62
   249
 10
69.273229
 20
62.870963
 30
0.0
 11
69.286949
 21
62.870963
 31
0.0
 12
69.286949
 22
63.850963
 32
0.0
 13
69.273229
 23
63.850963
 33
0.0
  0
3DFACE
  8
0
  6
CONTINUOUS
 62
   249
 10
69.286949
 20
62.870963
 30
0.0
 11
69.300669
 21
62.870963
 31
0.0
 12
69.300669
 22
63.850963
 32
0.0
 13
69.286949
 23
63.850963
 33
0.0
  0
3DFACE
  8
0
  6
CONTINUOUS
 62
   249
 10
69.300669
 20
62.870963
 30
0.0
 11
69.314389
 21
62.870963
 31
0.0
 12
69.314389
 22
63.850963
 32
0.0
 13
69.300669
 23
63.850963
 33
0.0
  0
3DFACE
  8
0
  6
CONTINUOUS
 62
   249
 10
69.314389
 20
62.870963
 30
0.0
 11
69.328109
 21
62.870963
 31
0.0
 12
69.328109
 22
63.850963
 32
0.0
 13
69.314389
 23
63.850963
 33
0.0
  0
3DFACE
  8
0
  6
CONTINUOUS
 62
   249
 10
69.328109
 20
62.870963
 30
0.0
 11
69.341829
 21
62.870963
 31
0.0
 12
69.341829
 22
63.850963
 32
0.0
 13
69.328109
 23
63.850963
 33
0.0
  0
3DFACE
  8
0
  6
CONTINUOUS
 62
   249
 10
69.341829
 20
62.870963
 30
0.0
 11
69.355549
 21
62.870963
 31
0.0
 12
69.355549
 22
63.850963
 32
0.0
 13
69.341829
 23
63.850963
 33
0.0
  0
3DFACE
  8
0
  6
CONTINUOUS
 62
   249
 10
69.355549
 20
62.870963
 30
0.0
 11
69.369269
 21
62.870963
 31
0.0
 12
69.369269
 22
63.850963
 32
0.0
 13
69.355549
 23
63.850963
 33
0.0
  0
3DFACE
  8
0
  6
CONTINUOUS
 62
   249
 10
69.369269
 20
62.870963
 30
0.0
 11
69.382989
 21
62.870963
 31
0.0
 12
69.382989
 22
63.850963
 32
0.0
 13
69.369269
 23
63.850963
 33
0.0
  0
3DFACE
  8
0
  6
CONTINUOUS
 62
   249
 10
69.382989
 20
62.870963
 30
0.0
 11
69.396709
 21
62.870963
 31
0.0
 12
69.396709
 22
63.850963
 32
0.0
 13
69.382989
 23
63.850963
 33
0.0
  0
3DFACE
  8
0
  6
CONTINUOUS
 62
   249
 10
69.396709
 20
62.870963
 30
0.0
 11
69.410429
 21
62.870963
 31
0.0
 12
69.410429
 22
63.850963
 32
0.0
 13
69.396709
 23
63.850963
 33
0.0
  0
3DFACE
  8
0
  6
CONTINUOUS
 62
   249
 10
69.410429
 20
62.870963
 30
0.0
 11
69.424149
 21
62.870963
 31
0.0
 12
69.424149
 22
63.850963
 32
0.0
 13
69.410429
 23
63.850963
 33
0.0
  0
3DFACE
  8
0
  6
CONTINUOUS
 62
   249
 10
69.424149
 20
62.870963
 30
0.0
 11
69.437869
 21
62.870963
 31
0.0
 12
69.437869
 22
63.850963
 32
0.0
 13
69.424149
 23
63.850963
 33
0.0
  0
3DFACE
  8
0
  6
CONTINUOUS
 62
   249
 10
69.437869
 20
62.870963
 30
0.0
 11
69.451589
 21
62.870963
 31
0.0
 12
69.451589
 22
63.850963
 32
0.0
 13
69.437869
 23
63.850963
 33
0.0
  0
3DFACE
  8
0
  6
CONTINUOUS
 62
   249
 10
69.451589
 20
62.870963
 30
0.0
 11
69.465309
 21
62.870963
 31
0.0
 12
69.465309
 22
63.850963
 32
0.0
 13
69.451589
 23
63.850963
 33
0.0
  0
3DFACE
  8
0
  6
CONTINUOUS
 62
   249
 10
69.465309
 20
62.870963
 30
0.0
 11
69.479029
 21
62.870963
 31
0.0
 12
69.479029
 22
63.850963
 32
0.0
 13
69.465309
 23
63.850963
 33
0.0
  0
3DFACE
  8
0
  6
CONTINUOUS
 62
   249
 10
69.479029
 20
62.870963
 30
0.0
 11
69.492749
 21
62.870963
 31
0.0
 12
69.492749
 22
63.850963
 32
0.0
 13
69.479029
 23
63.850963
 33
0.0
  0
3DFACE
  8
0
  6
CONTINUOUS
 62
   249
 10
69.492749
 20
62.870963
 30
0.0
 11
69.506469
 21
62.870963
 31
0.0
 12
69.506469
 22
63.850963
 32
0.0
 13
69.492749
 23
63.850963
 33
0.0
  0
3DFACE
  8
0
  6
CONTINUOUS
 62
   249
 10
69.506469
 20
62.870963
 30
0.0
 11
69.520189
 21
62.870963
 31
0.0
 12
69.520189
 22
63.850963
 32
0.0
 13
69.506469
 23
63.850963
 33
0.0
  0
3DFACE
  8
0
  6
CONTINUOUS
 62
   249
 10
69.520189
 20
62.870963
 30
0.0
 11
69.533909
 21
62.870963
 31
0.0
 12
69.533909
 22
63.850963
 32
0.0
 13
69.520189
 23
63.850963
 33
0.0
  0
3DFACE
  8
0
  6
CONTINUOUS
 62
   249
 10
69.533909
 20
62.870963
 30
0.0
 11
69.547629
 21
62.870963
 31
0.0
 12
69.547629
 22
63.850963
 32
0.0
 13
69.533909
 23
63.850963
 33
0.0
  0
3DFACE
  8
0
  6
CONTINUOUS
 62
   249
 10
69.547629
 20
62.870963
 30
0.0
 11
69.561349
 21
62.870963
 31
0.0
 12
69.561349
 22
63.850963
 32
0.0
 13
69.547629
 23
63.850963
 33
0.0
  0
3DFACE
  8
0
  6
CONTINUOUS
 62
   249
 10
69.561349
 20
62.870963
 30
0.0
 11
69.575069
 21
62.870963
 31
0.0
 12
69.575069
 22
63.850963
 32
0.0
 13
69.561349
 23
63.850963
 33
0.0
  0
3DFACE
  8
0
  6
CONTINUOUS
 62
   249
 10
69.575069
 20
62.870963
 30
0.0
 11
69.588789
 21
62.870963
 31
0.0
 12
69.588789
 22
63.850963
 32
0.0
 13
69.575069
 23
63.850963
 33
0.0
  0
3DFACE
  8
0
  6
CONTINUOUS
 62
   249
 10
69.588789
 20
62.870963
 30
0.0
 11
69.602509
 21
62.870963
 31
0.0
 12
69.602509
 22
63.850963
 32
0.0
 13
69.588789
 23
63.850963
 33
0.0
  0
3DFACE
  8
0
  6
CONTINUOUS
 62
   249
 10
69.602509
 20
62.870963
 30
0.0
 11
69.616229
 21
62.870963
 31
0.0
 12
69.616229
 22
63.850963
 32
0.0
 13
69.602509
 23
63.850963
 33
0.0
  0
3DFACE
  8
0
  6
CONTINUOUS
 62
   249
 10
69.616229
 20
62.870963
 30
0.0
 11
69.629949
 21
62.870963
 31
0.0
 12
69.629949
 22
63.850963
 32
0.0
 13
69.616229
 23
63.850963
 33
0.0
  0
3DFACE
  8
0
  6
CONTINUOUS
 62
   249
 10
69.629949
 20
62.870963
 30
0.0
 11
69.643669
 21
62.870963
 31
0.0
 12
69.643669
 22
63.850963
 32
0.0
 13
69.629949
 23
63.850963
 33
0.0
  0
3DFACE
  8
0
  6
CONTINUOUS
 62
   249
 10
69.643669
 20
62.870963
 30
0.0
 11
69.657389
 21
62.870963
 31
0.0
 12
69.657389
 22
63.850963
 32
0.0
 13
69.643669
 23
63.850963
 33
0.0
  0
3DFACE
  8
0
  6
CONTINUOUS
 62
   249
 10
69.657389
 20
62.870963
 30
0.0
 11
69.671109
 21
62.870963
 31
0.0
 12
69.671109
 22
63.850963
 32
0.0
 13
69.657389
 23
63.850963
 33
0.0
  0
3DFACE
  8
0
  6
CONTINUOUS
 62
   249
 10
69.671109
 20
62.870963
 30
0.0
 11
69.684829
 21
62.870963
 31
0.0
 12
69.684829
 22
63.850963
 32
0.0
 13
69.671109
 23
63.850963
 33
0.0
  0
3DFACE
  8
0
  6
CONTINUOUS
 62
   249
 10
69.684829
 20
62.870963
 30
0.0
 11
69.698549
 21
62.870963
 31
0.0
 12
69.698549
 22
63.850963
 32
0.0
 13
69.684829
 23
63.850963
 33
0.0
  0
3DFACE
  8
0
  6
CONTINUOUS
 62
   249
 10
69.698549
 20
62.870963
 30
0.0
 11
69.712269
 21
62.870963
 31
0.0
 12
69.712269
 22
63.850963
 32
0.0
 13
69.698549
 23
63.850963
 33
0.0
  0
3DFACE
  8
0
  6
CONTINUOUS
 62
   249
 10
69.712269
 20
62.870963
 30
0.0
 11
69.725989
 21
62.870963
 31
0.0
 12
69.725989
 22
63.850963
 32
0.0
 13
69.712269
 23
63.850963
 33
0.0
  0
3DFACE
  8
0
  6
CONTINUOUS
 62
   249
 10
69.725989
 20
62.870963
 30
0.0
 11
69.739709
 21
62.870963
 31
0.0
 12
69.739709
 22
63.850963
 32
0.0
 13
69.725989
 23
63.850963
 33
0.0
  0
3DFACE
  8
0
  6
CONTINUOUS
 62
   249
 10
69.739709
 20
62.870963
 30
0.0
 11
69.753429
 21
62.870963
 31
0.0
 12
69.753429
 22
63.850963
 32
0.0
 13
69.739709
 23
63.850963
 33
0.0
  0
3DFACE
  8
0
  6
CONTINUOUS
 62
   249
 10
69.753429
 20
62.870963
 30
0.0
 11
69.767149
 21
62.870963
 31
0.0
 12
69.767149
 22
63.850963
 32
0.0
 13
69.753429
 23
63.850963
 33
0.0
  0
3DFACE
  8
0
  6
CONTINUOUS
 62
   249
 10
69.767149
 20
62.870963
 30
0.0
 11
69.780869
 21
62.870963
 31
0.0
 12
69.780869
 22
63.850963
 32
0.0
 13
69.767149
 23
63.850963
 33
0.0
  0
3DFACE
  8
0
  6
CONTINUOUS
 62
   249
 10
69.780869
 20
62.870963
 30
0.0
 11
69.794589
 21
62.870963
 31
0.0
 12
69.794589
 22
63.850963
 32
0.0
 13
69.780869
 23
63.850963
 33
0.0
  0
3DFACE
  8
0
  6
CONTINUOUS
 62
   249
 10
69.794589
 20
62.870963
 30
0.0
 11
69.808309
 21
62.870963
 31
0.0
 12
69.808309
 22
63.850963
 32
0.0
 13
69.794589
 23
63.850963
 33
0.0
  0
3DFACE
  8
0
  6
CONTINUOUS
 62
   249
 10
69.808309
 20
62.870963
 30
0.0
 11
69.822029
 21
62.870963
 31
0.0
 12
69.822029
 22
63.850963
 32
0.0
 13
69.808309
 23
63.850963
 33
0.0
  0
3DFACE
  8
0
  6
CONTINUOUS
 62
   249
 10
69.822029
 20
62.870963
 30
0.0
 11
69.835749
 21
62.870963
 31
0.0
 12
69.835749
 22
63.850963
 32
0.0
 13
69.822029
 23
63.850963
 33
0.0
  0
3DFACE
  8
0
  6
CONTINUOUS
 62
   249
 10
69.835749
 20
62.870963
 30
0.0
 11
69.849469
 21
62.870963
 31
0.0
 12
69.849469
 22
63.850963
 32
0.0
 13
69.835749
 23
63.850963
 33
0.0
  0
3DFACE
  8
0
  6
CONTINUOUS
 62
   249
 10
69.849469
 20
62.870963
 30
0.0
 11
69.863189
 21
62.870963
 31
0.0
 12
69.863189
 22
63.850963
 32
0.0
 13
69.849469
 23
63.850963
 33
0.0
  0
3DFACE
  8
0
  6
CONTINUOUS
 62
   249
 10
69.863189
 20
62.870963
 30
0.0
 11
69.876909
 21
62.870963
 31
0.0
 12
69.876909
 22
63.850963
 32
0.0
 13
69.863189
 23
63.850963
 33
0.0
  0
3DFACE
  8
0
  6
CONTINUOUS
 62
   249
 10
69.876909
 20
62.870963
 30
0.0
 11
69.890629
 21
62.870963
 31
0.0
 12
69.890629
 22
63.850963
 32
0.0
 13
69.876909
 23
63.850963
 33
0.0
  0
3DFACE
  8
0
  6
CONTINUOUS
 62
   249
 10
69.890629
 20
62.870963
 30
0.0
 11
69.904349
 21
62.870963
 31
0.0
 12
69.904349
 22
63.850963
 32
0.0
 13
69.890629
 23
63.850963
 33
0.0
  0
3DFACE
  8
0
  6
CONTINUOUS
 62
   249
 10
69.904349
 20
62.870963
 30
0.0
 11
69.918069
 21
62.870963
 31
0.0
 12
69.918069
 22
63.850963
 32
0.0
 13
69.904349
 23
63.850963
 33
0.0
  0
3DFACE
  8
0
  6
CONTINUOUS
 62
   249
 10
69.918069
 20
62.870963
 30
0.0
 11
69.931789
 21
62.870963
 31
0.0
 12
69.931789
 22
63.850963
 32
0.0
 13
69.918069
 23
63.850963
 33
0.0
  0
3DFACE
  8
0
  6
CONTINUOUS
 62
   249
 10
69.931789
 20
62.870963
 30
0.0
 11
69.945509
 21
62.870963
 31
0.0
 12
69.945509
 22
63.850963
 32
0.0
 13
69.931789
 23
63.850963
 33
0.0
  0
3DFACE
  8
0
  6
CONTINUOUS
 62
   249
 10
69.945509
 20
62.870963
 30
0.0
 11
69.959229
 21
62.870963
 31
0.0
 12
69.959229
 22
63.850963
 32
0.0
 13
69.945509
 23
63.850963
 33
0.0
  0
3DFACE
  8
0
  6
CONTINUOUS
 62
   249
 10
69.959229
 20
62.870963
 30
0.0
 11
69.972949
 21
62.870963
 31
0.0
 12
69.972949
 22
63.850963
 32
0.0
 13
69.959229
 23
63.850963
 33
0.0
  0
3DFACE
  8
0
  6
CONTINUOUS
 62
   249
 10
69.972949
 20
62.870963
 30
0.0
 11
69.986669
 21
62.870963
 31
0.0
 12
69.986669
 22
63.850963
 32
0.0
 13
69.972949
 23
63.850963
 33
0.0
  0
3DFACE
  8
0
  6
CONTINUOUS
 62
   249
 10
69.986669
 20
62.870963
 30
0.0
 11
70.000389
 21
62.870963
 31
0.0
 12
70.000389
 22
63.850963
 32
0.0
 13
69.986669
 23
63.850963
 33
0.0
  0
3DFACE
  8
0
  6
CONTINUOUS
 62
   249
 10
70.000389
 20
62.870963
 30
0.0
 11
70.014109
 21
62.870963
 31
0.0
 12
70.014109
 22
63.850963
 32
0.0
 13
70.000389
 23
63.850963
 33
0.0
  0
3DFACE
  8
0
  6
CONTINUOUS
 62
   249
 10
70.014109
 20
62.870963
 30
0.0
 11
70.027829
 21
62.870963
 31
0.0
 12
70.027829
 22
63.850963
 32
0.0
 13
70.014109
 23
63.850963
 33
0.0
  0
3DFACE
  8
0
  6
CONTINUOUS
 62
   249
 10
70.027829
 20
62.870963
 30
0.0
 11
70.041549
 21
62.870963
 31
0.0
 12
70.041549
 22
63.850963
 32
0.0
 13
70.027829
 23
63.850963
 33
0.0
  0
3DFACE
  8
0
  6
CONTINUOUS
 62
   249
 10
70.041549
 20
62.870963
 30
0.0
 11
70.055269
 21
62.870963
 31
0.0
 12
70.055269
 22
63.850963
 32
0.0
 13
70.041549
 23
63.850963
 33
0.0
  0
3DFACE
  8
0
  6
CONTINUOUS
 62
   249
 10
70.055269
 20
62.870963
 30
0.0
 11
70.068989
 21
62.870963
 31
0.0
 12
70.068989
 22
63.850963
 32
0.0
 13
70.055269
 23
63.850963
 33
0.0
  0
3DFACE
  8
0
  6
CONTINUOUS
 62
   249
 10
70.068989
 20
62.870963
 30
0.0
 11
70.082709
 21
62.870963
 31
0.0
 12
70.082709
 22
63.850963
 32
0.0
 13
70.068989
 23
63.850963
 33
0.0
  0
3DFACE
  8
0
  6
CONTINUOUS
 62
   249
 10
70.082709
 20
62.870963
 30
0.0
 11
70.096429
 21
62.870963
 31
0.0
 12
70.096429
 22
63.850963
 32
0.0
 13
70.082709
 23
63.850963
 33
0.0
  0
3DFACE
  8
0
  6
CONTINUOUS
 62
   249
 10
70.096429
 20
62.870963
 30
0.0
 11
70.110149
 21
62.870963
 31
0.0
 12
70.110149
 22
63.850963
 32
0.0
 13
70.096429
 23
63.850963
 33
0.0
  0
3DFACE
  8
0
  6
CONTINUOUS
 62
   249
 10
70.110149
 20
62.870963
 30
0.0
 11
70.123869
 21
62.870963
 31
0.0
 12
70.123869
 22
63.850963
 32
0.0
 13
70.110149
 23
63.850963
 33
0.0
  0
3DFACE
  8
0
  6
CONTINUOUS
 62
   249
 10
70.123869
 20
62.870963
 30
0.0
 11
70.137589
 21
62.870963
 31
0.0
 12
70.137589
 22
63.850963
 32
0.0
 13
70.123869
 23
63.850963
 33
0.0
  0
3DFACE
  8
0
  6
CONTINUOUS
 62
   249
 10
70.137589
 20
62.870963
 30
0.0
 11
70.151309
 21
62.870963
 31
0.0
 12
70.151309
 22
63.850963
 32
0.0
 13
70.137589
 23
63.850963
 33
0.0
  0
3DFACE
  8
0
  6
CONTINUOUS
 62
   249
 10
70.151309
 20
62.870963
 30
0.0
 11
70.165029
 21
62.870963
 31
0.0
 12
70.165029
 22
63.850963
 32
0.0
 13
70.151309
 23
63.850963
 33
0.0
  0
3DFACE
  8
0
  6
CONTINUOUS
 62
   249
 10
70.165029
 20
62.870963
 30
0.0
 11
70.178749
 21
62.870963
 31
0.0
 12
70.178749
 22
63.850963
 32
0.0
 13
70.165029
 23
63.850963
 33
0.0
  0
3DFACE
  8
0
  6
CONTINUOUS
 62
   249
 10
70.178749
 20
62.870963
 30
0.0
 11
70.192469
 21
62.870963
 31
0.0
 12
70.192469
 22
63.850963
 32
0.0
 13
70.178749
 23
63.850963
 33
0.0
  0
3DFACE
  8
0
  6
CONTINUOUS
 62
   249
 10
70.192469
 20
62.870963
 30
0.0
 11
70.206189
 21
62.870963
 31
0.0
 12
70.206189
 22
63.850963
 32
0.0
 13
70.192469
 23
63.850963
 33
0.0
  0
3DFACE
  8
0
  6
CONTINUOUS
 62
   249
 10
70.206189
 20
62.870963
 30
0.0
 11
70.219909
 21
62.870963
 31
0.0
 12
70.219909
 22
63.850963
 32
0.0
 13
70.206189
 23
63.850963
 33
0.0
  0
3DFACE
  8
0
  6
CONTINUOUS
 62
   249
 10
70.219909
 20
62.870963
 30
0.0
 11
70.233629
 21
62.870963
 31
0.0
 12
70.233629
 22
63.850963
 32
0.0
 13
70.219909
 23
63.850963
 33
0.0
  0
3DFACE
  8
0
  6
CONTINUOUS
 62
   249
 10
70.233629
 20
62.870963
 30
0.0
 11
70.247349
 21
62.870963
 31
0.0
 12
70.247349
 22
63.850963
 32
0.0
 13
70.233629
 23
63.850963
 33
0.0
  0
3DFACE
  8
0
  6
CONTINUOUS
 62
   249
 10
70.247349
 20
62.870963
 30
0.0
 11
70.261069
 21
62.870963
 31
0.0
 12
70.261069
 22
63.850963
 32
0.0
 13
70.247349
 23
63.850963
 33
0.0
  0
3DFACE
  8
0
  6
CONTINUOUS
 62
   249
 10
70.261069
 20
62.870963
 30
0.0
 11
70.274789
 21
62.870963
 31
0.0
 12
70.274789
 22
63.850963
 32
0.0
 13
70.261069
 23
63.850963
 33
0.0
  0
3DFACE
  8
0
  6
CONTINUOUS
 62
   249
 10
70.274789
 20
62.870963
 30
0.0
 11
70.288509
 21
62.870963
 31
0.0
 12
70.288509
 22
63.850963
 32
0.0
 13
70.274789
 23
63.850963
 33
0.0
  0
3DFACE
  8
0
  6
CONTINUOUS
 62
   249
 10
70.288509
 20
62.870963
 30
0.0
 11
70.302229
 21
62.870963
 31
0.0
 12
70.302229
 22
63.850963
 32
0.0
 13
70.288509
 23
63.850963
 33
0.0
  0
3DFACE
  8
0
  6
CONTINUOUS
 62
   249
 10
70.302229
 20
62.870963
 30
0.0
 11
70.315949
 21
62.870963
 31
0.0
 12
70.315949
 22
63.850963
 32
0.0
 13
70.302229
 23
63.850963
 33
0.0
  0
3DFACE
  8
0
  6
CONTINUOUS
 62
   249
 10
70.315949
 20
62.870963
 30
0.0
 11
70.329669
 21
62.870963
 31
0.0
 12
70.329669
 22
63.850963
 32
0.0
 13
70.315949
 23
63.850963
 33
0.0
  0
3DFACE
  8
0
  6
CONTINUOUS
 62
   249
 10
70.329669
 20
62.870963
 30
0.0
 11
70.343389
 21
62.870963
 31
0.0
 12
70.343389
 22
63.850963
 32
0.0
 13
70.329669
 23
63.850963
 33
0.0
  0
3DFACE
  8
0
  6
CONTINUOUS
 62
   249
 10
70.343389
 20
62.870963
 30
0.0
 11
70.357109
 21
62.870963
 31
0.0
 12
70.357109
 22
63.850963
 32
0.0
 13
70.343389
 23
63.850963
 33
0.0
  0
3DFACE
  8
0
  6
CONTINUOUS
 62
   249
 10
70.357109
 20
62.870963
 30
0.0
 11
70.370829
 21
62.870963
 31
0.0
 12
70.370829
 22
63.850963
 32
0.0
 13
70.357109
 23
63.850963
 33
0.0
  0
3DFACE
  8
0
  6
CONTINUOUS
 62
   249
 10
70.370829
 20
62.870963
 30
0.0
 11
70.384549
 21
62.870963
 31
0.0
 12
70.384549
 22
63.850963
 32
0.0
 13
70.370829
 23
63.850963
 33
0.0
  0
3DFACE
  8
0
  6
CONTINUOUS
 62
   249
 10
70.384549
 20
62.870963
 30
0.0
 11
70.398269
 21
62.870963
 31
0.0
 12
70.398269
 22
63.850963
 32
0.0
 13
70.384549
 23
63.850963
 33
0.0
  0
3DFACE
  8
0
  6
CONTINUOUS
 62
   249
 10
70.398269
 20
62.870963
 30
0.0
 11
70.411989
 21
62.870963
 31
0.0
 12
70.411989
 22
63.850963
 32
0.0
 13
70.398269
 23
63.850963
 33
0.0
  0
3DFACE
  8
0
  6
CONTINUOUS
 62
   249
 10
70.411989
 20
62.870963
 30
0.0
 11
70.425709
 21
62.870963
 31
0.0
 12
70.425709
 22
63.850963
 32
0.0
 13
70.411989
 23
63.850963
 33
0.0
  0
3DFACE
  8
0
  6
CONTINUOUS
 62
   249
 10
70.425709
 20
62.870963
 30
0.0
 11
70.439429
 21
62.870963
 31
0.0
 12
70.439429
 22
63.850963
 32
0.0
 13
70.425709
 23
63.850963
 33
0.0
  0
3DFACE
  8
0
  6
CONTINUOUS
 62
   249
 10
70.439429
 20
62.870963
 30
0.0
 11
70.453149
 21
62.870963
 31
0.0
 12
70.453149
 22
63.850963
 32
0.0
 13
70.439429
 23
63.850963
 33
0.0
  0
3DFACE
  8
0
  6
CONTINUOUS
 62
   249
 10
70.453149
 20
62.870963
 30
0.0
 11
70.466869
 21
62.870963
 31
0.0
 12
70.466869
 22
63.850963
 32
0.0
 13
70.453149
 23
63.850963
 33
0.0
  0
3DFACE
  8
0
  6
CONTINUOUS
 62
   249
 10
70.466869
 20
62.870963
 30
0.0
 11
70.480589
 21
62.870963
 31
0.0
 12
70.480589
 22
63.850963
 32
0.0
 13
70.466869
 23
63.850963
 33
0.0
  0
3DFACE
  8
0
  6
CONTINUOUS
 62
   249
 10
70.480589
 20
62.870963
 30
0.0
 11
70.494309
 21
62.870963
 31
0.0
 12
70.494309
 22
63.850963
 32
0.0
 13
70.480589
 23
63.850963
 33
0.0
  0
3DFACE
  8
0
  6
CONTINUOUS
 62
   249
 10
70.494309
 20
62.870963
 30
0.0
 11
70.508029
 21
62.870963
 31
0.0
 12
70.508029
 22
63.850963
 32
0.0
 13
70.494309
 23
63.850963
 33
0.0
  0
3DFACE
  8
0
  6
CONTINUOUS
 62
   249
 10
70.508029
 20
62.870963
 30
0.0
 11
70.521749
 21
62.870963
 31
0.0
 12
70.521749
 22
63.850963
 32
0.0
 13
70.508029
 23
63.850963
 33
0.0
  0
3DFACE
  8
0
  6
CONTINUOUS
 62
   249
 10
70.521749
 20
62.870963
 30
0.0
 11
70.535469
 21
62.870963
 31
0.0
 12
70.535469
 22
63.850963
 32
0.0
 13
70.521749
 23
63.850963
 33
0.0
  0
3DFACE
  8
0
  6
CONTINUOUS
 62
   249
 10
70.535469
 20
62.870963
 30
0.0
 11
70.549189
 21
62.870963
 31
0.0
 12
70.549189
 22
63.850963
 32
0.0
 13
70.535469
 23
63.850963
 33
0.0
  0
3DFACE
  8
0
  6
CONTINUOUS
 62
   249
 10
70.549189
 20
62.870963
 30
0.0
 11
70.562909
 21
62.870963
 31
0.0
 12
70.562909
 22
63.850963
 32
0.0
 13
70.549189
 23
63.850963
 33
0.0
  0
3DFACE
  8
0
  6
CONTINUOUS
 62
   249
 10
70.562909
 20
62.870963
 30
0.0
 11
70.576629
 21
62.870963
 31
0.0
 12
70.576629
 22
63.850963
 32
0.0
 13
70.562909
 23
63.850963
 33
0.0
  0
3DFACE
  8
0
  6
CONTINUOUS
 62
   249
 10
70.576629
 20
62.870963
 30
0.0
 11
70.590349
 21
62.870963
 31
0.0
 12
70.590349
 22
63.850963
 32
0.0
 13
70.576629
 23
63.850963
 33
0.0
  0
3DFACE
  8
0
  6
CONTINUOUS
 62
   249
 10
70.590349
 20
62.870963
 30
0.0
 11
70.604069
 21
62.870963
 31
0.0
 12
70.604069
 22
63.850963
 32
0.0
 13
70.590349
 23
63.850963
 33
0.0
  0
3DFACE
  8
0
  6
CONTINUOUS
 62
   249
 10
70.604069
 20
62.870963
 30
0.0
 11
70.617789
 21
62.870963
 31
0.0
 12
70.617789
 22
63.850963
 32
0.0
 13
70.604069
 23
63.850963
 33
0.0
  0
3DFACE
  8
0
  6
CONTINUOUS
 62
   249
 10
70.617789
 20
62.870963
 30
0.0
 11
70.631509
 21
62.870963
 31
0.0
 12
70.631509
 22
63.850963
 32
0.0
 13
70.617789
 23
63.850963
 33
0.0
  0
3DFACE
  8
0
  6
CONTINUOUS
 62
   249
 10
70.631509
 20
62.870963
 30
0.0
 11
70.645229
 21
62.870963
 31
0.0
 12
70.645229
 22
63.850963
 32
0.0
 13
70.631509
 23
63.850963
 33
0.0
  0
3DFACE
  8
0
  6
CONTINUOUS
 62
   249
 10
67.215229
 20
70.698098
 30
0.0
 11
67.228949
 21
70.698098
 31
0.0
 12
67.228949
 22
71.678098
 32
0.0
 13
67.215229
 23
71.678098
 33
0.0
  0
3DFACE
  8
0
  6
CONTINUOUS
 62
   249
 10
67.228949
 20
70.698098
 30
0.0
 11
67.242669
 21
70.698098
 31
0.0
 12
67.242669
 22
71.678098
 32
0.0
 13
67.228949
 23
71.678098
 33
0.0
  0
3DFACE
  8
0
  6
CONTINUOUS
 62
   249
 10
67.242669
 20
70.698098
 30
0.0
 11
67.256389
 21
70.698098
 31
0.0
 12
67.256389
 22
71.678098
 32
0.0
 13
67.242669
 23
71.678098
 33
0.0
  0
3DFACE
  8
0
  6
CONTINUOUS
 62
   249
 10
67.256389
 20
70.698098
 30
0.0
 11
67.270109
 21
70.698098
 31
0.0
 12
67.270109
 22
71.678098
 32
0.0
 13
67.256389
 23
71.678098
 33
0.0
  0
3DFACE
  8
0
  6
CONTINUOUS
 62
   249
 10
67.270109
 20
70.698098
 30
0.0
 11
67.283829
 21
70.698098
 31
0.0
 12
67.283829
 22
71.678098
 32
0.0
 13
67.270109
 23
71.678098
 33
0.0
  0
3DFACE
  8
0
  6
CONTINUOUS
 62
   249
 10
67.283829
 20
70.698098
 30
0.0
 11
67.297549
 21
70.698098
 31
0.0
 12
67.297549
 22
71.678098
 32
0.0
 13
67.283829
 23
71.678098
 33
0.0
  0
3DFACE
  8
0
  6
CONTINUOUS
 62
   249
 10
67.297549
 20
70.698098
 30
0.0
 11
67.311269
 21
70.698098
 31
0.0
 12
67.311269
 22
71.678098
 32
0.0
 13
67.297549
 23
71.678098
 33
0.0
  0
3DFACE
  8
0
  6
CONTINUOUS
 62
   249
 10
67.311269
 20
70.698098
 30
0.0
 11
67.324989
 21
70.698098
 31
0.0
 12
67.324989
 22
71.678098
 32
0.0
 13
67.311269
 23
71.678098
 33
0.0
  0
3DFACE
  8
0
  6
CONTINUOUS
 62
   249
 10
67.324989
 20
70.698098
 30
0.0
 11
67.338709
 21
70.698098
 31
0.0
 12
67.338709
 22
71.678098
 32
0.0
 13
67.324989
 23
71.678098
 33
0.0
  0
3DFACE
  8
0
  6
CONTINUOUS
 62
   249
 10
67.338709
 20
70.698098
 30
0.0
 11
67.352429
 21
70.698098
 31
0.0
 12
67.352429
 22
71.678098
 32
0.0
 13
67.338709
 23
71.678098
 33
0.0
  0
3DFACE
  8
0
  6
CONTINUOUS
 62
   249
 10
67.352429
 20
70.698098
 30
0.0
 11
67.366149
 21
70.698098
 31
0.0
 12
67.366149
 22
71.678098
 32
0.0
 13
67.352429
 23
71.678098
 33
0.0
  0
3DFACE
  8
0
  6
CONTINUOUS
 62
   249
 10
67.366149
 20
70.698098
 30
0.0
 11
67.379869
 21
70.698098
 31
0.0
 12
67.379869
 22
71.678098
 32
0.0
 13
67.366149
 23
71.678098
 33
0.0
  0
3DFACE
  8
0
  6
CONTINUOUS
 62
   249
 10
67.379869
 20
70.698098
 30
0.0
 11
67.393589
 21
70.698098
 31
0.0
 12
67.393589
 22
71.678098
 32
0.0
 13
67.379869
 23
71.678098
 33
0.0
  0
3DFACE
  8
0
  6
CONTINUOUS
 62
   249
 10
67.393589
 20
70.698098
 30
0.0
 11
67.407309
 21
70.698098
 31
0.0
 12
67.407309
 22
71.678098
 32
0.0
 13
67.393589
 23
71.678098
 33
0.0
  0
3DFACE
  8
0
  6
CONTINUOUS
 62
   249
 10
67.407309
 20
70.698098
 30
0.0
 11
67.421029
 21
70.698098
 31
0.0
 12
67.421029
 22
71.678098
 32
0.0
 13
67.407309
 23
71.678098
 33
0.0
  0
3DFACE
  8
0
  6
CONTINUOUS
 62
   249
 10
67.421029
 20
70.698098
 30
0.0
 11
67.434749
 21
70.698098
 31
0.0
 12
67.434749
 22
71.678098
 32
0.0
 13
67.421029
 23
71.678098
 33
0.0
  0
3DFACE
  8
0
  6
CONTINUOUS
 62
   249
 10
67.434749
 20
70.698098
 30
0.0
 11
67.448469
 21
70.698098
 31
0.0
 12
67.448469
 22
71.678098
 32
0.0
 13
67.434749
 23
71.678098
 33
0.0
  0
3DFACE
  8
0
  6
CONTINUOUS
 62
   249
 10
67.448469
 20
70.698098
 30
0.0
 11
67.462189
 21
70.698098
 31
0.0
 12
67.462189
 22
71.678098
 32
0.0
 13
67.448469
 23
71.678098
 33
0.0
  0
3DFACE
  8
0
  6
CONTINUOUS
 62
   249
 10
67.462189
 20
70.698098
 30
0.0
 11
67.475909
 21
70.698098
 31
0.0
 12
67.475909
 22
71.678098
 32
0.0
 13
67.462189
 23
71.678098
 33
0.0
  0
3DFACE
  8
0
  6
CONTINUOUS
 62
   249
 10
67.475909
 20
70.698098
 30
0.0
 11
67.489629
 21
70.698098
 31
0.0
 12
67.489629
 22
71.678098
 32
0.0
 13
67.475909
 23
71.678098
 33
0.0
  0
3DFACE
  8
0
  6
CONTINUOUS
 62
   249
 10
67.489629
 20
70.698098
 30
0.0
 11
67.503349
 21
70.698098
 31
0.0
 12
67.503349
 22
71.678098
 32
0.0
 13
67.489629
 23
71.678098
 33
0.0
  0
3DFACE
  8
0
  6
CONTINUOUS
 62
   249
 10
67.503349
 20
70.698098
 30
0.0
 11
67.517069
 21
70.698098
 31
0.0
 12
67.517069
 22
71.678098
 32
0.0
 13
67.503349
 23
71.678098
 33
0.0
  0
3DFACE
  8
0
  6
CONTINUOUS
 62
   249
 10
67.517069
 20
70.698098
 30
0.0
 11
67.530789
 21
70.698098
 31
0.0
 12
67.530789
 22
71.678098
 32
0.0
 13
67.517069
 23
71.678098
 33
0.0
  0
3DFACE
  8
0
  6
CONTINUOUS
 62
   249
 10
67.530789
 20
70.698098
 30
0.0
 11
67.544509
 21
70.698098
 31
0.0
 12
67.544509
 22
71.678098
 32
0.0
 13
67.530789
 23
71.678098
 33
0.0
  0
3DFACE
  8
0
  6
CONTINUOUS
 62
   249
 10
67.544509
 20
70.698098
 30
0.0
 11
67.558229
 21
70.698098
 31
0.0
 12
67.558229
 22
71.678098
 32
0.0
 13
67.544509
 23
71.678098
 33
0.0
  0
3DFACE
  8
0
  6
CONTINUOUS
 62
   249
 10
67.558229
 20
70.698098
 30
0.0
 11
67.571949
 21
70.698098
 31
0.0
 12
67.571949
 22
71.678098
 32
0.0
 13
67.558229
 23
71.678098
 33
0.0
  0
3DFACE
  8
0
  6
CONTINUOUS
 62
   249
 10
67.571949
 20
70.698098
 30
0.0
 11
67.585669
 21
70.698098
 31
0.0
 12
67.585669
 22
71.678098
 32
0.0
 13
67.571949
 23
71.678098
 33
0.0
  0
3DFACE
  8
0
  6
CONTINUOUS
 62
   249
 10
67.585669
 20
70.698098
 30
0.0
 11
67.599389
 21
70.698098
 31
0.0
 12
67.599389
 22
71.678098
 32
0.0
 13
67.585669
 23
71.678098
 33
0.0
  0
3DFACE
  8
0
  6
CONTINUOUS
 62
   249
 10
67.599389
 20
70.698098
 30
0.0
 11
67.613109
 21
70.698098
 31
0.0
 12
67.613109
 22
71.678098
 32
0.0
 13
67.599389
 23
71.678098
 33
0.0
  0
3DFACE
  8
0
  6
CONTINUOUS
 62
   249
 10
67.613109
 20
70.698098
 30
0.0
 11
67.626829
 21
70.698098
 31
0.0
 12
67.626829
 22
71.678098
 32
0.0
 13
67.613109
 23
71.678098
 33
0.0
  0
3DFACE
  8
0
  6
CONTINUOUS
 62
   249
 10
67.626829
 20
70.698098
 30
0.0
 11
67.640549
 21
70.698098
 31
0.0
 12
67.640549
 22
71.678098
 32
0.0
 13
67.626829
 23
71.678098
 33
0.0
  0
3DFACE
  8
0
  6
CONTINUOUS
 62
   249
 10
67.640549
 20
70.698098
 30
0.0
 11
67.654269
 21
70.698098
 31
0.0
 12
67.654269
 22
71.678098
 32
0.0
 13
67.640549
 23
71.678098
 33
0.0
  0
3DFACE
  8
0
  6
CONTINUOUS
 62
   249
 10
67.654269
 20
70.698098
 30
0.0
 11
67.667989
 21
70.698098
 31
0.0
 12
67.667989
 22
71.678098
 32
0.0
 13
67.654269
 23
71.678098
 33
0.0
  0
3DFACE
  8
0
  6
CONTINUOUS
 62
   249
 10
67.667989
 20
70.698098
 30
0.0
 11
67.681709
 21
70.698098
 31
0.0
 12
67.681709
 22
71.678098
 32
0.0
 13
67.667989
 23
71.678098
 33
0.0
  0
3DFACE
  8
0
  6
CONTINUOUS
 62
   249
 10
67.681709
 20
70.698098
 30
0.0
 11
67.695429
 21
70.698098
 31
0.0
 12
67.695429
 22
71.678098
 32
0.0
 13
67.681709
 23
71.678098
 33
0.0
  0
3DFACE
  8
0
  6
CONTINUOUS
 62
   249
 10
67.695429
 20
70.698098
 30
0.0
 11
67.709149
 21
70.698098
 31
0.0
 12
67.709149
 22
71.678098
 32
0.0
 13
67.695429
 23
71.678098
 33
0.0
  0
3DFACE
  8
0
  6
CONTINUOUS
 62
   249
 10
67.709149
 20
70.698098
 30
0.0
 11
67.722869
 21
70.698098
 31
0.0
 12
67.722869
 22
71.678098
 32
0.0
 13
67.709149
 23
71.678098
 33
0.0
  0
3DFACE
  8
0
  6
CONTINUOUS
 62
   249
 10
67.722869
 20
70.698098
 30
0.0
 11
67.736589
 21
70.698098
 31
0.0
 12
67.736589
 22
71.678098
 32
0.0
 13
67.722869
 23
71.678098
 33
0.0
  0
3DFACE
  8
0
  6
CONTINUOUS
 62
   249
 10
67.736589
 20
70.698098
 30
0.0
 11
67.750309
 21
70.698098
 31
0.0
 12
67.750309
 22
71.678098
 32
0.0
 13
67.736589
 23
71.678098
 33
0.0
  0
3DFACE
  8
0
  6
CONTINUOUS
 62
   249
 10
67.750309
 20
70.698098
 30
0.0
 11
67.764029
 21
70.698098
 31
0.0
 12
67.764029
 22
71.678098
 32
0.0
 13
67.750309
 23
71.678098
 33
0.0
  0
3DFACE
  8
0
  6
CONTINUOUS
 62
   249
 10
67.764029
 20
70.698098
 30
0.0
 11
67.777749
 21
70.698098
 31
0.0
 12
67.777749
 22
71.678098
 32
0.0
 13
67.764029
 23
71.678098
 33
0.0
  0
3DFACE
  8
0
  6
CONTINUOUS
 62
   249
 10
67.777749
 20
70.698098
 30
0.0
 11
67.791469
 21
70.698098
 31
0.0
 12
67.791469
 22
71.678098
 32
0.0
 13
67.777749
 23
71.678098
 33
0.0
  0
3DFACE
  8
0
  6
CONTINUOUS
 62
   249
 10
67.791469
 20
70.698098
 30
0.0
 11
67.805189
 21
70.698098
 31
0.0
 12
67.805189
 22
71.678098
 32
0.0
 13
67.791469
 23
71.678098
 33
0.0
  0
3DFACE
  8
0
  6
CONTINUOUS
 62
   249
 10
67.805189
 20
70.698098
 30
0.0
 11
67.818909
 21
70.698098
 31
0.0
 12
67.818909
 22
71.678098
 32
0.0
 13
67.805189
 23
71.678098
 33
0.0
  0
3DFACE
  8
0
  6
CONTINUOUS
 62
   249
 10
67.818909
 20
70.698098
 30
0.0
 11
67.832629
 21
70.698098
 31
0.0
 12
67.832629
 22
71.678098
 32
0.0
 13
67.818909
 23
71.678098
 33
0.0
  0
3DFACE
  8
0
  6
CONTINUOUS
 62
   249
 10
67.832629
 20
70.698098
 30
0.0
 11
67.846349
 21
70.698098
 31
0.0
 12
67.846349
 22
71.678098
 32
0.0
 13
67.832629
 23
71.678098
 33
0.0
  0
3DFACE
  8
0
  6
CONTINUOUS
 62
   249
 10
67.846349
 20
70.698098
 30
0.0
 11
67.860069
 21
70.698098
 31
0.0
 12
67.860069
 22
71.678098
 32
0.0
 13
67.846349
 23
71.678098
 33
0.0
  0
3DFACE
  8
0
  6
CONTINUOUS
 62
   249
 10
67.860069
 20
70.698098
 30
0.0
 11
67.873789
 21
70.698098
 31
0.0
 12
67.873789
 22
71.678098
 32
0.0
 13
67.860069
 23
71.678098
 33
0.0
  0
3DFACE
  8
0
  6
CONTINUOUS
 62
   249
 10
67.873789
 20
70.698098
 30
0.0
 11
67.887509
 21
70.698098
 31
0.0
 12
67.887509
 22
71.678098
 32
0.0
 13
67.873789
 23
71.678098
 33
0.0
  0
3DFACE
  8
0
  6
CONTINUOUS
 62
   249
 10
67.887509
 20
70.698098
 30
0.0
 11
67.901229
 21
70.698098
 31
0.0
 12
67.901229
 22
71.678098
 32
0.0
 13
67.887509
 23
71.678098
 33
0.0
  0
3DFACE
  8
0
  6
CONTINUOUS
 62
   249
 10
67.901229
 20
70.698098
 30
0.0
 11
67.914949
 21
70.698098
 31
0.0
 12
67.914949
 22
71.678098
 32
0.0
 13
67.901229
 23
71.678098
 33
0.0
  0
3DFACE
  8
0
  6
CONTINUOUS
 62
   249
 10
67.914949
 20
70.698098
 30
0.0
 11
67.928669
 21
70.698098
 31
0.0
 12
67.928669
 22
71.678098
 32
0.0
 13
67.914949
 23
71.678098
 33
0.0
  0
3DFACE
  8
0
  6
CONTINUOUS
 62
   249
 10
67.928669
 20
70.698098
 30
0.0
 11
67.942389
 21
70.698098
 31
0.0
 12
67.942389
 22
71.678098
 32
0.0
 13
67.928669
 23
71.678098
 33
0.0
  0
3DFACE
  8
0
  6
CONTINUOUS
 62
   249
 10
67.942389
 20
70.698098
 30
0.0
 11
67.956109
 21
70.698098
 31
0.0
 12
67.956109
 22
71.678098
 32
0.0
 13
67.942389
 23
71.678098
 33
0.0
  0
3DFACE
  8
0
  6
CONTINUOUS
 62
   249
 10
67.956109
 20
70.698098
 30
0.0
 11
67.969829
 21
70.698098
 31
0.0
 12
67.969829
 22
71.678098
 32
0.0
 13
67.956109
 23
71.678098
 33
0.0
  0
3DFACE
  8
0
  6
CONTINUOUS
 62
   249
 10
67.969829
 20
70.698098
 30
0.0
 11
67.983549
 21
70.698098
 31
0.0
 12
67.983549
 22
71.678098
 32
0.0
 13
67.969829
 23
71.678098
 33
0.0
  0
3DFACE
  8
0
  6
CONTINUOUS
 62
   249
 10
67.983549
 20
70.698098
 30
0.0
 11
67.997269
 21
70.698098
 31
0.0
 12
67.997269
 22
71.678098
 32
0.0
 13
67.983549
 23
71.678098
 33
0.0
  0
3DFACE
  8
0
  6
CONTINUOUS
 62
   249
 10
67.997269
 20
70.698098
 30
0.0
 11
68.010989
 21
70.698098
 31
0.0
 12
68.010989
 22
71.678098
 32
0.0
 13
67.997269
 23
71.678098
 33
0.0
  0
3DFACE
  8
0
  6
CONTINUOUS
 62
   249
 10
68.010989
 20
70.698098
 30
0.0
 11
68.024709
 21
70.698098
 31
0.0
 12
68.024709
 22
71.678098
 32
0.0
 13
68.010989
 23
71.678098
 33
0.0
  0
3DFACE
  8
0
  6
CONTINUOUS
 62
   249
 10
68.024709
 20
70.698098
 30
0.0
 11
68.038429
 21
70.698098
 31
0.0
 12
68.038429
 22
71.678098
 32
0.0
 13
68.024709
 23
71.678098
 33
0.0
  0
3DFACE
  8
0
  6
CONTINUOUS
 62
   249
 10
68.038429
 20
70.698098
 30
0.0
 11
68.052149
 21
70.698098
 31
0.0
 12
68.052149
 22
71.678098
 32
0.0
 13
68.038429
 23
71.678098
 33
0.0
  0
3DFACE
  8
0
  6
CONTINUOUS
 62
   249
 10
68.052149
 20
70.698098
 30
0.0
 11
68.065869
 21
70.698098
 31
0.0
 12
68.065869
 22
71.678098
 32
0.0
 13
68.052149
 23
71.678098
 33
0.0
  0
3DFACE
  8
0
  6
CONTINUOUS
 62
   249
 10
68.065869
 20
70.698098
 30
0.0
 11
68.079589
 21
70.698098
 31
0.0
 12
68.079589
 22
71.678098
 32
0.0
 13
68.065869
 23
71.678098
 33
0.0
  0
3DFACE
  8
0
  6
CONTINUOUS
 62
   249
 10
68.079589
 20
70.698098
 30
0.0
 11
68.093309
 21
70.698098
 31
0.0
 12
68.093309
 22
71.678098
 32
0.0
 13
68.079589
 23
71.678098
 33
0.0
  0
3DFACE
  8
0
  6
CONTINUOUS
 62
   249
 10
68.093309
 20
70.698098
 30
0.0
 11
68.107029
 21
70.698098
 31
0.0
 12
68.107029
 22
71.678098
 32
0.0
 13
68.093309
 23
71.678098
 33
0.0
  0
3DFACE
  8
0
  6
CONTINUOUS
 62
   249
 10
68.107029
 20
70.698098
 30
0.0
 11
68.120749
 21
70.698098
 31
0.0
 12
68.120749
 22
71.678098
 32
0.0
 13
68.107029
 23
71.678098
 33
0.0
  0
3DFACE
  8
0
  6
CONTINUOUS
 62
   249
 10
68.120749
 20
70.698098
 30
0.0
 11
68.134469
 21
70.698098
 31
0.0
 12
68.134469
 22
71.678098
 32
0.0
 13
68.120749
 23
71.678098
 33
0.0
  0
3DFACE
  8
0
  6
CONTINUOUS
 62
   249
 10
68.134469
 20
70.698098
 30
0.0
 11
68.148189
 21
70.698098
 31
0.0
 12
68.148189
 22
71.678098
 32
0.0
 13
68.134469
 23
71.678098
 33
0.0
  0
3DFACE
  8
0
  6
CONTINUOUS
 62
   249
 10
68.148189
 20
70.698098
 30
0.0
 11
68.161909
 21
70.698098
 31
0.0
 12
68.161909
 22
71.678098
 32
0.0
 13
68.148189
 23
71.678098
 33
0.0
  0
3DFACE
  8
0
  6
CONTINUOUS
 62
   249
 10
68.161909
 20
70.698098
 30
0.0
 11
68.175629
 21
70.698098
 31
0.0
 12
68.175629
 22
71.678098
 32
0.0
 13
68.161909
 23
71.678098
 33
0.0
  0
3DFACE
  8
0
  6
CONTINUOUS
 62
   249
 10
68.175629
 20
70.698098
 30
0.0
 11
68.189349
 21
70.698098
 31
0.0
 12
68.189349
 22
71.678098
 32
0.0
 13
68.175629
 23
71.678098
 33
0.0
  0
3DFACE
  8
0
  6
CONTINUOUS
 62
   249
 10
68.189349
 20
70.698098
 30
0.0
 11
68.203069
 21
70.698098
 31
0.0
 12
68.203069
 22
71.678098
 32
0.0
 13
68.189349
 23
71.678098
 33
0.0
  0
3DFACE
  8
0
  6
CONTINUOUS
 62
   249
 10
68.203069
 20
70.698098
 30
0.0
 11
68.216789
 21
70.698098
 31
0.0
 12
68.216789
 22
71.678098
 32
0.0
 13
68.203069
 23
71.678098
 33
0.0
  0
3DFACE
  8
0
  6
CONTINUOUS
 62
   249
 10
68.216789
 20
70.698098
 30
0.0
 11
68.230509
 21
70.698098
 31
0.0
 12
68.230509
 22
71.678098
 32
0.0
 13
68.216789
 23
71.678098
 33
0.0
  0
3DFACE
  8
0
  6
CONTINUOUS
 62
   249
 10
68.230509
 20
70.698098
 30
0.0
 11
68.244229
 21
70.698098
 31
0.0
 12
68.244229
 22
71.678098
 32
0.0
 13
68.230509
 23
71.678098
 33
0.0
  0
3DFACE
  8
0
  6
CONTINUOUS
 62
   249
 10
68.244229
 20
70.698098
 30
0.0
 11
68.257949
 21
70.698098
 31
0.0
 12
68.257949
 22
71.678098
 32
0.0
 13
68.244229
 23
71.678098
 33
0.0
  0
3DFACE
  8
0
  6
CONTINUOUS
 62
   249
 10
68.257949
 20
70.698098
 30
0.0
 11
68.271669
 21
70.698098
 31
0.0
 12
68.271669
 22
71.678098
 32
0.0
 13
68.257949
 23
71.678098
 33
0.0
  0
3DFACE
  8
0
  6
CONTINUOUS
 62
   249
 10
68.271669
 20
70.698098
 30
0.0
 11
68.285389
 21
70.698098
 31
0.0
 12
68.285389
 22
71.678098
 32
0.0
 13
68.271669
 23
71.678098
 33
0.0
  0
3DFACE
  8
0
  6
CONTINUOUS
 62
   249
 10
68.285389
 20
70.698098
 30
0.0
 11
68.299109
 21
70.698098
 31
0.0
 12
68.299109
 22
71.678098
 32
0.0
 13
68.285389
 23
71.678098
 33
0.0
  0
3DFACE
  8
0
  6
CONTINUOUS
 62
   249
 10
68.299109
 20
70.698098
 30
0.0
 11
68.312829
 21
70.698098
 31
0.0
 12
68.312829
 22
71.678098
 32
0.0
 13
68.299109
 23
71.678098
 33
0.0
  0
3DFACE
  8
0
  6
CONTINUOUS
 62
   249
 10
68.312829
 20
70.698098
 30
0.0
 11
68.326549
 21
70.698098
 31
0.0
 12
68.326549
 22
71.678098
 32
0.0
 13
68.312829
 23
71.678098
 33
0.0
  0
3DFACE
  8
0
  6
CONTINUOUS
 62
   249
 10
68.326549
 20
70.698098
 30
0.0
 11
68.340269
 21
70.698098
 31
0.0
 12
68.340269
 22
71.678098
 32
0.0
 13
68.326549
 23
71.678098
 33
0.0
  0
3DFACE
  8
0
  6
CONTINUOUS
 62
   249
 10
68.340269
 20
70.698098
 30
0.0
 11
68.353989
 21
70.698098
 31
0.0
 12
68.353989
 22
71.678098
 32
0.0
 13
68.340269
 23
71.678098
 33
0.0
  0
3DFACE
  8
0
  6
CONTINUOUS
 62
   249
 10
68.353989
 20
70.698098
 30
0.0
 11
68.367709
 21
70.698098
 31
0.0
 12
68.367709
 22
71.678098
 32
0.0
 13
68.353989
 23
71.678098
 33
0.0
  0
3DFACE
  8
0
  6
CONTINUOUS
 62
   249
 10
68.367709
 20
70.698098
 30
0.0
 11
68.381429
 21
70.698098
 31
0.0
 12
68.381429
 22
71.678098
 32
0.0
 13
68.367709
 23
71.678098
 33
0.0
  0
3DFACE
  8
0
  6
CONTINUOUS
 62
   249
 10
68.381429
 20
70.698098
 30
0.0
 11
68.395149
 21
70.698098
 31
0.0
 12
68.395149
 22
71.678098
 32
0.0
 13
68.381429
 23
71.678098
 33
0.0
  0
3DFACE
  8
0
  6
CONTINUOUS
 62
   249
 10
68.395149
 20
70.698098
 30
0.0
 11
68.408869
 21
70.698098
 31
0.0
 12
68.408869
 22
71.678098
 32
0.0
 13
68.395149
 23
71.678098
 33
0.0
  0
3DFACE
  8
0
  6
CONTINUOUS
 62
   249
 10
68.408869
 20
70.698098
 30
0.0
 11
68.422589
 21
70.698098
 31
0.0
 12
68.422589
 22
71.678098
 32
0.0
 13
68.408869
 23
71.678098
 33
0.0
  0
3DFACE
  8
0
  6
CONTINUOUS
 62
   249
 10
68.422589
 20
70.698098
 30
0.0
 11
68.436309
 21
70.698098
 31
0.0
 12
68.436309
 22
71.678098
 32
0.0
 13
68.422589
 23
71.678098
 33
0.0
  0
3DFACE
  8
0
  6
CONTINUOUS
 62
   249
 10
68.436309
 20
70.698098
 30
0.0
 11
68.450029
 21
70.698098
 31
0.0
 12
68.450029
 22
71.678098
 32
0.0
 13
68.436309
 23
71.678098
 33
0.0
  0
3DFACE
  8
0
  6
CONTINUOUS
 62
   249
 10
68.450029
 20
70.698098
 30
0.0
 11
68.463749
 21
70.698098
 31
0.0
 12
68.463749
 22
71.678098
 32
0.0
 13
68.450029
 23
71.678098
 33
0.0
  0
3DFACE
  8
0
  6
CONTINUOUS
 62
   249
 10
68.463749
 20
70.698098
 30
0.0
 11
68.477469
 21
70.698098
 31
0.0
 12
68.477469
 22
71.678098
 32
0.0
 13
68.463749
 23
71.678098
 33
0.0
  0
3DFACE
  8
0
  6
CONTINUOUS
 62
   249
 10
68.477469
 20
70.698098
 30
0.0
 11
68.491189
 21
70.698098
 31
0.0
 12
68.491189
 22
71.678098
 32
0.0
 13
68.477469
 23
71.678098
 33
0.0
  0
3DFACE
  8
0
  6
CONTINUOUS
 62
   249
 10
68.491189
 20
70.698098
 30
0.0
 11
68.504909
 21
70.698098
 31
0.0
 12
68.504909
 22
71.678098
 32
0.0
 13
68.491189
 23
71.678098
 33
0.0
  0
3DFACE
  8
0
  6
CONTINUOUS
 62
   249
 10
68.504909
 20
70.698098
 30
0.0
 11
68.518629
 21
70.698098
 31
0.0
 12
68.518629
 22
71.678098
 32
0.0
 13
68.504909
 23
71.678098
 33
0.0
  0
3DFACE
  8
0
  6
CONTINUOUS
 62
   249
 10
68.518629
 20
70.698098
 30
0.0
 11
68.532349
 21
70.698098
 31
0.0
 12
68.532349
 22
71.678098
 32
0.0
 13
68.518629
 23
71.678098
 33
0.0
  0
3DFACE
  8
0
  6
CONTINUOUS
 62
   249
 10
68.532349
 20
70.698098
 30
0.0
 11
68.546069
 21
70.698098
 31
0.0
 12
68.546069
 22
71.678098
 32
0.0
 13
68.532349
 23
71.678098
 33
0.0
  0
3DFACE
  8
0
  6
CONTINUOUS
 62
   249
 10
68.546069
 20
70.698098
 30
0.0
 11
68.559789
 21
70.698098
 31
0.0
 12
68.559789
 22
71.678098
 32
0.0
 13
68.546069
 23
71.678098
 33
0.0
  0
3DFACE
  8
0
  6
CONTINUOUS
 62
   249
 10
68.559789
 20
70.698098
 30
0.0
 11
68.573509
 21
70.698098
 31
0.0
 12
68.573509
 22
71.678098
 32
0.0
 13
68.559789
 23
71.678098
 33
0.0
  0
3DFACE
  8
0
  6
CONTINUOUS
 62
   249
 10
68.573509
 20
70.698098
 30
0.0
 11
68.587229
 21
70.698098
 31
0.0
 12
68.587229
 22
71.678098
 32
0.0
 13
68.573509
 23
71.678098
 33
0.0
  0
3DFACE
  8
0
  6
CONTINUOUS
 62
   249
 10
68.587229
 20
70.698098
 30
0.0
 11
68.600949
 21
70.698098
 31
0.0
 12
68.600949
 22
71.678098
 32
0.0
 13
68.587229
 23
71.678098
 33
0.0
  0
3DFACE
  8
0
  6
CONTINUOUS
 62
   249
 10
68.600949
 20
70.698098
 30
0.0
 11
68.614669
 21
70.698098
 31
0.0
 12
68.614669
 22
71.678098
 32
0.0
 13
68.600949
 23
71.678098
 33
0.0
  0
3DFACE
  8
0
  6
CONTINUOUS
 62
   249
 10
68.614669
 20
70.698098
 30
0.0
 11
68.628389
 21
70.698098
 31
0.0
 12
68.628389
 22
71.678098
 32
0.0
 13
68.614669
 23
71.678098
 33
0.0
  0
3DFACE
  8
0
  6
CONTINUOUS
 62
   249
 10
68.628389
 20
70.698098
 30
0.0
 11
68.642109
 21
70.698098
 31
0.0
 12
68.642109
 22
71.678098
 32
0.0
 13
68.628389
 23
71.678098
 33
0.0
  0
3DFACE
  8
0
  6
CONTINUOUS
 62
   249
 10
68.642109
 20
70.698098
 30
0.0
 11
68.655829
 21
70.698098
 31
0.0
 12
68.655829
 22
71.678098
 32
0.0
 13
68.642109
 23
71.678098
 33
0.0
  0
3DFACE
  8
0
  6
CONTINUOUS
 62
   249
 10
68.655829
 20
70.698098
 30
0.0
 11
68.669549
 21
70.698098
 31
0.0
 12
68.669549
 22
71.678098
 32
0.0
 13
68.655829
 23
71.678098
 33
0.0
  0
3DFACE
  8
0
  6
CONTINUOUS
 62
   249
 10
68.669549
 20
70.698098
 30
0.0
 11
68.683269
 21
70.698098
 31
0.0
 12
68.683269
 22
71.678098
 32
0.0
 13
68.669549
 23
71.678098
 33
0.0
  0
3DFACE
  8
0
  6
CONTINUOUS
 62
   249
 10
68.683269
 20
70.698098
 30
0.0
 11
68.696989
 21
70.698098
 31
0.0
 12
68.696989
 22
71.678098
 32
0.0
 13
68.683269
 23
71.678098
 33
0.0
  0
3DFACE
  8
0
  6
CONTINUOUS
 62
   249
 10
68.696989
 20
70.698098
 30
0.0
 11
68.710709
 21
70.698098
 31
0.0
 12
68.710709
 22
71.678098
 32
0.0
 13
68.696989
 23
71.678098
 33
0.0
  0
3DFACE
  8
0
  6
CONTINUOUS
 62
   249
 10
68.710709
 20
70.698098
 30
0.0
 11
68.724429
 21
70.698098
 31
0.0
 12
68.724429
 22
71.678098
 32
0.0
 13
68.710709
 23
71.678098
 33
0.0
  0
3DFACE
  8
0
  6
CONTINUOUS
 62
   249
 10
68.724429
 20
70.698098
 30
0.0
 11
68.738149
 21
70.698098
 31
0.0
 12
68.738149
 22
71.678098
 32
0.0
 13
68.724429
 23
71.678098
 33
0.0
  0
3DFACE
  8
0
  6
CONTINUOUS
 62
   249
 10
68.738149
 20
70.698098
 30
0.0
 11
68.751869
 21
70.698098
 31
0.0
 12
68.751869
 22
71.678098
 32
0.0
 13
68.738149
 23
71.678098
 33
0.0
  0
3DFACE
  8
0
  6
CONTINUOUS
 62
   249
 10
68.751869
 20
70.698098
 30
0.0
 11
68.765589
 21
70.698098
 31
0.0
 12
68.765589
 22
71.678098
 32
0.0
 13
68.751869
 23
71.678098
 33
0.0
  0
3DFACE
  8
0
  6
CONTINUOUS
 62
   249
 10
68.765589
 20
70.698098
 30
0.0
 11
68.779309
 21
70.698098
 31
0.0
 12
68.779309
 22
71.678098
 32
0.0
 13
68.765589
 23
71.678098
 33
0.0
  0
3DFACE
  8
0
  6
CONTINUOUS
 62
   249
 10
68.779309
 20
70.698098
 30
0.0
 11
68.793029
 21
70.698098
 31
0.0
 12
68.793029
 22
71.678098
 32
0.0
 13
68.779309
 23
71.678098
 33
0.0
  0
3DFACE
  8
0
  6
CONTINUOUS
 62
   249
 10
68.793029
 20
70.698098
 30
0.0
 11
68.806749
 21
70.698098
 31
0.0
 12
68.806749
 22
71.678098
 32
0.0
 13
68.793029
 23
71.678098
 33
0.0
  0
3DFACE
  8
0
  6
CONTINUOUS
 62
   249
 10
68.806749
 20
70.698098
 30
0.0
 11
68.820469
 21
70.698098
 31
0.0
 12
68.820469
 22
71.678098
 32
0.0
 13
68.806749
 23
71.678098
 33
0.0
  0
3DFACE
  8
0
  6
CONTINUOUS
 62
   249
 10
68.820469
 20
70.698098
 30
0.0
 11
68.834189
 21
70.698098
 31
0.0
 12
68.834189
 22
71.678098
 32
0.0
 13
68.820469
 23
71.678098
 33
0.0
  0
3DFACE
  8
0
  6
CONTINUOUS
 62
   249
 10
68.834189
 20
70.698098
 30
0.0
 11
68.847909
 21
70.698098
 31
0.0
 12
68.847909
 22
71.678098
 32
0.0
 13
68.834189
 23
71.678098
 33
0.0
  0
3DFACE
  8
0
  6
CONTINUOUS
 62
   249
 10
68.847909
 20
70.698098
 30
0.0
 11
68.861629
 21
70.698098
 31
0.0
 12
68.861629
 22
71.678098
 32
0.0
 13
68.847909
 23
71.678098
 33
0.0
  0
3DFACE
  8
0
  6
CONTINUOUS
 62
   249
 10
68.861629
 20
70.698098
 30
0.0
 11
68.875349
 21
70.698098
 31
0.0
 12
68.875349
 22
71.678098
 32
0.0
 13
68.861629
 23
71.678098
 33
0.0
  0
3DFACE
  8
0
  6
CONTINUOUS
 62
   249
 10
68.875349
 20
70.698098
 30
0.0
 11
68.889069
 21
70.698098
 31
0.0
 12
68.889069
 22
71.678098
 32
0.0
 13
68.875349
 23
71.678098
 33
0.0
  0
3DFACE
  8
0
  6
CONTINUOUS
 62
   249
 10
68.889069
 20
70.698098
 30
0.0
 11
68.902789
 21
70.698098
 31
0.0
 12
68.902789
 22
71.678098
 32
0.0
 13
68.889069
 23
71.678098
 33
0.0
  0
3DFACE
  8
0
  6
CONTINUOUS
 62
   249
 10
68.902789
 20
70.698098
 30
0.0
 11
68.916509
 21
70.698098
 31
0.0
 12
68.916509
 22
71.678098
 32
0.0
 13
68.902789
 23
71.678098
 33
0.0
  0
3DFACE
  8
0
  6
CONTINUOUS
 62
   249
 10
68.916509
 20
70.698098
 30
0.0
 11
68.930229
 21
70.698098
 31
0.0
 12
68.930229
 22
71.678098
 32
0.0
 13
68.916509
 23
71.678098
 33
0.0
  0
3DFACE
  8
0
  6
CONTINUOUS
 62
   249
 10
68.930229
 20
70.698098
 30
0.0
 11
68.943949
 21
70.698098
 31
0.0
 12
68.943949
 22
71.678098
 32
0.0
 13
68.930229
 23
71.678098
 33
0.0
  0
3DFACE
  8
0
  6
CONTINUOUS
 62
   249
 10
68.943949
 20
70.698098
 30
0.0
 11
68.957669
 21
70.698098
 31
0.0
 12
68.957669
 22
71.678098
 32
0.0
 13
68.943949
 23
71.678098
 33
0.0
  0
3DFACE
  8
0
  6
CONTINUOUS
 62
   249
 10
68.957669
 20
70.698098
 30
0.0
 11
68.971389
 21
70.698098
 31
0.0
 12
68.971389
 22
71.678098
 32
0.0
 13
68.957669
 23
71.678098
 33
0.0
  0
3DFACE
  8
0
  6
CONTINUOUS
 62
   249
 10
68.971389
 20
70.698098
 30
0.0
 11
68.985109
 21
70.698098
 31
0.0
 12
68.985109
 22
71.678098
 32
0.0
 13
68.971389
 23
71.678098
 33
0.0
  0
3DFACE
  8
0
  6
CONTINUOUS
 62
   249
 10
68.985109
 20
70.698098
 30
0.0
 11
68.998829
 21
70.698098
 31
0.0
 12
68.998829
 22
71.678098
 32
0.0
 13
68.985109
 23
71.678098
 33
0.0
  0
3DFACE
  8
0
  6
CONTINUOUS
 62
   249
 10
68.998829
 20
70.698098
 30
0.0
 11
69.012549
 21
70.698098
 31
0.0
 12
69.012549
 22
71.678098
 32
0.0
 13
68.998829
 23
71.678098
 33
0.0
  0
3DFACE
  8
0
  6
CONTINUOUS
 62
   249
 10
69.012549
 20
70.698098
 30
0.0
 11
69.026269
 21
70.698098
 31
0.0
 12
69.026269
 22
71.678098
 32
0.0
 13
69.012549
 23
71.678098
 33
0.0
  0
3DFACE
  8
0
  6
CONTINUOUS
 62
   249
 10
69.026269
 20
70.698098
 30
0.0
 11
69.039989
 21
70.698098
 31
0.0
 12
69.039989
 22
71.678098
 32
0.0
 13
69.026269
 23
71.678098
 33
0.0
  0
3DFACE
  8
0
  6
CONTINUOUS
 62
   249
 10
69.039989
 20
70.698098
 30
0.0
 11
69.053709
 21
70.698098
 31
0.0
 12
69.053709
 22
71.678098
 32
0.0
 13
69.039989
 23
71.678098
 33
0.0
  0
3DFACE
  8
0
  6
CONTINUOUS
 62
   249
 10
69.053709
 20
70.698098
 30
0.0
 11
69.067429
 21
70.698098
 31
0.0
 12
69.067429
 22
71.678098
 32
0.0
 13
69.053709
 23
71.678098
 33
0.0
  0
3DFACE
  8
0
  6
CONTINUOUS
 62
   249
 10
69.067429
 20
70.698098
 30
0.0
 11
69.081149
 21
70.698098
 31
0.0
 12
69.081149
 22
71.678098
 32
0.0
 13
69.067429
 23
71.678098
 33
0.0
  0
3DFACE
  8
0
  6
CONTINUOUS
 62
   249
 10
69.081149
 20
70.698098
 30
0.0
 11
69.094869
 21
70.698098
 31
0.0
 12
69.094869
 22
71.678098
 32
0.0
 13
69.081149
 23
71.678098
 33
0.0
  0
3DFACE
  8
0
  6
CONTINUOUS
 62
   249
 10
69.094869
 20
70.698098
 30
0.0
 11
69.108589
 21
70.698098
 31
0.0
 12
69.108589
 22
71.678098
 32
0.0
 13
69.094869
 23
71.678098
 33
0.0
  0
3DFACE
  8
0
  6
CONTINUOUS
 62
   249
 10
69.108589
 20
70.698098
 30
0.0
 11
69.122309
 21
70.698098
 31
0.0
 12
69.122309
 22
71.678098
 32
0.0
 13
69.108589
 23
71.678098
 33
0.0
  0
3DFACE
  8
0
  6
CONTINUOUS
 62
   249
 10
69.122309
 20
70.698098
 30
0.0
 11
69.136029
 21
70.698098
 31
0.0
 12
69.136029
 22
71.678098
 32
0.0
 13
69.122309
 23
71.678098
 33
0.0
  0
3DFACE
  8
0
  6
CONTINUOUS
 62
   249
 10
69.136029
 20
70.698098
 30
0.0
 11
69.149749
 21
70.698098
 31
0.0
 12
69.149749
 22
71.678098
 32
0.0
 13
69.136029
 23
71.678098
 33
0.0
  0
3DFACE
  8
0
  6
CONTINUOUS
 62
   249
 10
69.149749
 20
70.698098
 30
0.0
 11
69.163469
 21
70.698098
 31
0.0
 12
69.163469
 22
71.678098
 32
0.0
 13
69.149749
 23
71.678098
 33
0.0
  0
3DFACE
  8
0
  6
CONTINUOUS
 62
   249
 10
69.163469
 20
70.698098
 30
0.0
 11
69.177189
 21
70.698098
 31
0.0
 12
69.177189
 22
71.678098
 32
0.0
 13
69.163469
 23
71.678098
 33
0.0
  0
3DFACE
  8
0
  6
CONTINUOUS
 62
   249
 10
69.177189
 20
70.698098
 30
0.0
 11
69.190909
 21
70.698098
 31
0.0
 12
69.190909
 22
71.678098
 32
0.0
 13
69.177189
 23
71.678098
 33
0.0
  0
3DFACE
  8
0
  6
CONTINUOUS
 62
   249
 10
69.190909
 20
70.698098
 30
0.0
 11
69.204629
 21
70.698098
 31
0.0
 12
69.204629
 22
71.678098
 32
0.0
 13
69.190909
 23
71.678098
 33
0.0
  0
3DFACE
  8
0
  6
CONTINUOUS
 62
   249
 10
69.204629
 20
70.698098
 30
0.0
 11
69.218349
 21
70.698098
 31
0.0
 12
69.218349
 22
71.678098
 32
0.0
 13
69.204629
 23
71.678098
 33
0.0
  0
3DFACE
  8
0
  6
CONTINUOUS
 62
   249
 10
69.218349
 20
70.698098
 30
0.0
 11
69.232069
 21
70.698098
 31
0.0
 12
69.232069
 22
71.678098
 32
0.0
 13
69.218349
 23
71.678098
 33
0.0
  0
3DFACE
  8
0
  6
CONTINUOUS
 62
   249
 10
69.232069
 20
70.698098
 30
0.0
 11
69.245789
 21
70.698098
 31
0.0
 12
69.245789
 22
71.678098
 32
0.0
 13
69.232069
 23
71.678098
 33
0.0
  0
3DFACE
  8
0
  6
CONTINUOUS
 62
   249
 10
69.245789
 20
70.698098
 30
0.0
 11
69.259509
 21
70.698098
 31
0.0
 12
69.259509
 22
71.678098
 32
0.0
 13
69.245789
 23
71.678098
 33
0.0
  0
3DFACE
  8
0
  6
CONTINUOUS
 62
   249
 10
69.259509
 20
70.698098
 30
0.0
 11
69.273229
 21
70.698098
 31
0.0
 12
69.273229
 22
71.678098
 32
0.0
 13
69.259509
 23
71.678098
 33
0.0
  0
3DFACE
  8
0
  6
CONTINUOUS
 62
   249
 10
69.273229
 20
70.698098
 30
0.0
 11
69.286949
 21
70.698098
 31
0.0
 12
69.286949
 22
71.678098
 32
0.0
 13
69.273229
 23
71.678098
 33
0.0
  0
3DFACE
  8
0
  6
CONTINUOUS
 62
   249
 10
69.286949
 20
70.698098
 30
0.0
 11
69.300669
 21
70.698098
 31
0.0
 12
69.300669
 22
71.678098
 32
0.0
 13
69.286949
 23
71.678098
 33
0.0
  0
3DFACE
  8
0
  6
CONTINUOUS
 62
   249
 10
69.300669
 20
70.698098
 30
0.0
 11
69.314389
 21
70.698098
 31
0.0
 12
69.314389
 22
71.678098
 32
0.0
 13
69.300669
 23
71.678098
 33
0.0
  0
3DFACE
  8
0
  6
CONTINUOUS
 62
   249
 10
69.314389
 20
70.698098
 30
0.0
 11
69.328109
 21
70.698098
 31
0.0
 12
69.328109
 22
71.678098
 32
0.0
 13
69.314389
 23
71.678098
 33
0.0
  0
3DFACE
  8
0
  6
CONTINUOUS
 62
   249
 10
69.328109
 20
70.698098
 30
0.0
 11
69.341829
 21
70.698098
 31
0.0
 12
69.341829
 22
71.678098
 32
0.0
 13
69.328109
 23
71.678098
 33
0.0
  0
3DFACE
  8
0
  6
CONTINUOUS
 62
   249
 10
69.341829
 20
70.698098
 30
0.0
 11
69.355549
 21
70.698098
 31
0.0
 12
69.355549
 22
71.678098
 32
0.0
 13
69.341829
 23
71.678098
 33
0.0
  0
3DFACE
  8
0
  6
CONTINUOUS
 62
   249
 10
69.355549
 20
70.698098
 30
0.0
 11
69.369269
 21
70.698098
 31
0.0
 12
69.369269
 22
71.678098
 32
0.0
 13
69.355549
 23
71.678098
 33
0.0
  0
3DFACE
  8
0
  6
CONTINUOUS
 62
   249
 10
69.369269
 20
70.698098
 30
0.0
 11
69.382989
 21
70.698098
 31
0.0
 12
69.382989
 22
71.678098
 32
0.0
 13
69.369269
 23
71.678098
 33
0.0
  0
3DFACE
  8
0
  6
CONTINUOUS
 62
   249
 10
69.382989
 20
70.698098
 30
0.0
 11
69.396709
 21
70.698098
 31
0.0
 12
69.396709
 22
71.678098
 32
0.0
 13
69.382989
 23
71.678098
 33
0.0
  0
3DFACE
  8
0
  6
CONTINUOUS
 62
   249
 10
69.396709
 20
70.698098
 30
0.0
 11
69.410429
 21
70.698098
 31
0.0
 12
69.410429
 22
71.678098
 32
0.0
 13
69.396709
 23
71.678098
 33
0.0
  0
3DFACE
  8
0
  6
CONTINUOUS
 62
   249
 10
69.410429
 20
70.698098
 30
0.0
 11
69.424149
 21
70.698098
 31
0.0
 12
69.424149
 22
71.678098
 32
0.0
 13
69.410429
 23
71.678098
 33
0.0
  0
3DFACE
  8
0
  6
CONTINUOUS
 62
   249
 10
69.424149
 20
70.698098
 30
0.0
 11
69.437869
 21
70.698098
 31
0.0
 12
69.437869
 22
71.678098
 32
0.0
 13
69.424149
 23
71.678098
 33
0.0
  0
3DFACE
  8
0
  6
CONTINUOUS
 62
   249
 10
69.437869
 20
70.698098
 30
0.0
 11
69.451589
 21
70.698098
 31
0.0
 12
69.451589
 22
71.678098
 32
0.0
 13
69.437869
 23
71.678098
 33
0.0
  0
3DFACE
  8
0
  6
CONTINUOUS
 62
   249
 10
69.451589
 20
70.698098
 30
0.0
 11
69.465309
 21
70.698098
 31
0.0
 12
69.465309
 22
71.678098
 32
0.0
 13
69.451589
 23
71.678098
 33
0.0
  0
3DFACE
  8
0
  6
CONTINUOUS
 62
   249
 10
69.465309
 20
70.698098
 30
0.0
 11
69.479029
 21
70.698098
 31
0.0
 12
69.479029
 22
71.678098
 32
0.0
 13
69.465309
 23
71.678098
 33
0.0
  0
3DFACE
  8
0
  6
CONTINUOUS
 62
   249
 10
69.479029
 20
70.698098
 30
0.0
 11
69.492749
 21
70.698098
 31
0.0
 12
69.492749
 22
71.678098
 32
0.0
 13
69.479029
 23
71.678098
 33
0.0
  0
3DFACE
  8
0
  6
CONTINUOUS
 62
   249
 10
69.492749
 20
70.698098
 30
0.0
 11
69.506469
 21
70.698098
 31
0.0
 12
69.506469
 22
71.678098
 32
0.0
 13
69.492749
 23
71.678098
 33
0.0
  0
3DFACE
  8
0
  6
CONTINUOUS
 62
   249
 10
69.506469
 20
70.698098
 30
0.0
 11
69.520189
 21
70.698098
 31
0.0
 12
69.520189
 22
71.678098
 32
0.0
 13
69.506469
 23
71.678098
 33
0.0
  0
3DFACE
  8
0
  6
CONTINUOUS
 62
   249
 10
69.520189
 20
70.698098
 30
0.0
 11
69.533909
 21
70.698098
 31
0.0
 12
69.533909
 22
71.678098
 32
0.0
 13
69.520189
 23
71.678098
 33
0.0
  0
3DFACE
  8
0
  6
CONTINUOUS
 62
   249
 10
69.533909
 20
70.698098
 30
0.0
 11
69.547629
 21
70.698098
 31
0.0
 12
69.547629
 22
71.678098
 32
0.0
 13
69.533909
 23
71.678098
 33
0.0
  0
3DFACE
  8
0
  6
CONTINUOUS
 62
   249
 10
69.547629
 20
70.698098
 30
0.0
 11
69.561349
 21
70.698098
 31
0.0
 12
69.561349
 22
71.678098
 32
0.0
 13
69.547629
 23
71.678098
 33
0.0
  0
3DFACE
  8
0
  6
CONTINUOUS
 62
   249
 10
69.561349
 20
70.698098
 30
0.0
 11
69.575069
 21
70.698098
 31
0.0
 12
69.575069
 22
71.678098
 32
0.0
 13
69.561349
 23
71.678098
 33
0.0
  0
3DFACE
  8
0
  6
CONTINUOUS
 62
   249
 10
69.575069
 20
70.698098
 30
0.0
 11
69.588789
 21
70.698098
 31
0.0
 12
69.588789
 22
71.678098
 32
0.0
 13
69.575069
 23
71.678098
 33
0.0
  0
3DFACE
  8
0
  6
CONTINUOUS
 62
   249
 10
69.588789
 20
70.698098
 30
0.0
 11
69.602509
 21
70.698098
 31
0.0
 12
69.602509
 22
71.678098
 32
0.0
 13
69.588789
 23
71.678098
 33
0.0
  0
3DFACE
  8
0
  6
CONTINUOUS
 62
   249
 10
69.602509
 20
70.698098
 30
0.0
 11
69.616229
 21
70.698098
 31
0.0
 12
69.616229
 22
71.678098
 32
0.0
 13
69.602509
 23
71.678098
 33
0.0
  0
3DFACE
  8
0
  6
CONTINUOUS
 62
   249
 10
69.616229
 20
70.698098
 30
0.0
 11
69.629949
 21
70.698098
 31
0.0
 12
69.629949
 22
71.678098
 32
0.0
 13
69.616229
 23
71.678098
 33
0.0
  0
3DFACE
  8
0
  6
CONTINUOUS
 62
   249
 10
69.629949
 20
70.698098
 30
0.0
 11
69.643669
 21
70.698098
 31
0.0
 12
69.643669
 22
71.678098
 32
0.0
 13
69.629949
 23
71.678098
 33
0.0
  0
3DFACE
  8
0
  6
CONTINUOUS
 62
   249
 10
69.643669
 20
70.698098
 30
0.0
 11
69.657389
 21
70.698098
 31
0.0
 12
69.657389
 22
71.678098
 32
0.0
 13
69.643669
 23
71.678098
 33
0.0
  0
3DFACE
  8
0
  6
CONTINUOUS
 62
   249
 10
69.657389
 20
70.698098
 30
0.0
 11
69.671109
 21
70.698098
 31
0.0
 12
69.671109
 22
71.678098
 32
0.0
 13
69.657389
 23
71.678098
 33
0.0
  0
3DFACE
  8
0
  6
CONTINUOUS
 62
   249
 10
69.671109
 20
70.698098
 30
0.0
 11
69.684829
 21
70.698098
 31
0.0
 12
69.684829
 22
71.678098
 32
0.0
 13
69.671109
 23
71.678098
 33
0.0
  0
3DFACE
  8
0
  6
CONTINUOUS
 62
   249
 10
69.684829
 20
70.698098
 30
0.0
 11
69.698549
 21
70.698098
 31
0.0
 12
69.698549
 22
71.678098
 32
0.0
 13
69.684829
 23
71.678098
 33
0.0
  0
3DFACE
  8
0
  6
CONTINUOUS
 62
   249
 10
69.698549
 20
70.698098
 30
0.0
 11
69.712269
 21
70.698098
 31
0.0
 12
69.712269
 22
71.678098
 32
0.0
 13
69.698549
 23
71.678098
 33
0.0
  0
3DFACE
  8
0
  6
CONTINUOUS
 62
   249
 10
69.712269
 20
70.698098
 30
0.0
 11
69.725989
 21
70.698098
 31
0.0
 12
69.725989
 22
71.678098
 32
0.0
 13
69.712269
 23
71.678098
 33
0.0
  0
3DFACE
  8
0
  6
CONTINUOUS
 62
   249
 10
69.725989
 20
70.698098
 30
0.0
 11
69.739709
 21
70.698098
 31
0.0
 12
69.739709
 22
71.678098
 32
0.0
 13
69.725989
 23
71.678098
 33
0.0
  0
3DFACE
  8
0
  6
CONTINUOUS
 62
   249
 10
69.739709
 20
70.698098
 30
0.0
 11
69.753429
 21
70.698098
 31
0.0
 12
69.753429
 22
71.678098
 32
0.0
 13
69.739709
 23
71.678098
 33
0.0
  0
3DFACE
  8
0
  6
CONTINUOUS
 62
   249
 10
69.753429
 20
70.698098
 30
0.0
 11
69.767149
 21
70.698098
 31
0.0
 12
69.767149
 22
71.678098
 32
0.0
 13
69.753429
 23
71.678098
 33
0.0
  0
3DFACE
  8
0
  6
CONTINUOUS
 62
   249
 10
69.767149
 20
70.698098
 30
0.0
 11
69.780869
 21
70.698098
 31
0.0
 12
69.780869
 22
71.678098
 32
0.0
 13
69.767149
 23
71.678098
 33
0.0
  0
3DFACE
  8
0
  6
CONTINUOUS
 62
   249
 10
69.780869
 20
70.698098
 30
0.0
 11
69.794589
 21
70.698098
 31
0.0
 12
69.794589
 22
71.678098
 32
0.0
 13
69.780869
 23
71.678098
 33
0.0
  0
3DFACE
  8
0
  6
CONTINUOUS
 62
   249
 10
69.794589
 20
70.698098
 30
0.0
 11
69.808309
 21
70.698098
 31
0.0
 12
69.808309
 22
71.678098
 32
0.0
 13
69.794589
 23
71.678098
 33
0.0
  0
3DFACE
  8
0
  6
CONTINUOUS
 62
   249
 10
69.808309
 20
70.698098
 30
0.0
 11
69.822029
 21
70.698098
 31
0.0
 12
69.822029
 22
71.678098
 32
0.0
 13
69.808309
 23
71.678098
 33
0.0
  0
3DFACE
  8
0
  6
CONTINUOUS
 62
   249
 10
69.822029
 20
70.698098
 30
0.0
 11
69.835749
 21
70.698098
 31
0.0
 12
69.835749
 22
71.678098
 32
0.0
 13
69.822029
 23
71.678098
 33
0.0
  0
3DFACE
  8
0
  6
CONTINUOUS
 62
   249
 10
69.835749
 20
70.698098
 30
0.0
 11
69.849469
 21
70.698098
 31
0.0
 12
69.849469
 22
71.678098
 32
0.0
 13
69.835749
 23
71.678098
 33
0.0
  0
3DFACE
  8
0
  6
CONTINUOUS
 62
   249
 10
69.849469
 20
70.698098
 30
0.0
 11
69.863189
 21
70.698098
 31
0.0
 12
69.863189
 22
71.678098
 32
0.0
 13
69.849469
 23
71.678098
 33
0.0
  0
3DFACE
  8
0
  6
CONTINUOUS
 62
   249
 10
69.863189
 20
70.698098
 30
0.0
 11
69.876909
 21
70.698098
 31
0.0
 12
69.876909
 22
71.678098
 32
0.0
 13
69.863189
 23
71.678098
 33
0.0
  0
3DFACE
  8
0
  6
CONTINUOUS
 62
   249
 10
69.876909
 20
70.698098
 30
0.0
 11
69.890629
 21
70.698098
 31
0.0
 12
69.890629
 22
71.678098
 32
0.0
 13
69.876909
 23
71.678098
 33
0.0
  0
3DFACE
  8
0
  6
CONTINUOUS
 62
   249
 10
69.890629
 20
70.698098
 30
0.0
 11
69.904349
 21
70.698098
 31
0.0
 12
69.904349
 22
71.678098
 32
0.0
 13
69.890629
 23
71.678098
 33
0.0
  0
3DFACE
  8
0
  6
CONTINUOUS
 62
   249
 10
69.904349
 20
70.698098
 30
0.0
 11
69.918069
 21
70.698098
 31
0.0
 12
69.918069
 22
71.678098
 32
0.0
 13
69.904349
 23
71.678098
 33
0.0
  0
3DFACE
  8
0
  6
CONTINUOUS
 62
   249
 10
69.918069
 20
70.698098
 30
0.0
 11
69.931789
 21
70.698098
 31
0.0
 12
69.931789
 22
71.678098
 32
0.0
 13
69.918069
 23
71.678098
 33
0.0
  0
3DFACE
  8
0
  6
CONTINUOUS
 62
   249
 10
69.931789
 20
70.698098
 30
0.0
 11
69.945509
 21
70.698098
 31
0.0
 12
69.945509
 22
71.678098
 32
0.0
 13
69.931789
 23
71.678098
 33
0.0
  0
3DFACE
  8
0
  6
CONTINUOUS
 62
   249
 10
69.945509
 20
70.698098
 30
0.0
 11
69.959229
 21
70.698098
 31
0.0
 12
69.959229
 22
71.678098
 32
0.0
 13
69.945509
 23
71.678098
 33
0.0
  0
3DFACE
  8
0
  6
CONTINUOUS
 62
   249
 10
69.959229
 20
70.698098
 30
0.0
 11
69.972949
 21
70.698098
 31
0.0
 12
69.972949
 22
71.678098
 32
0.0
 13
69.959229
 23
71.678098
 33
0.0
  0
3DFACE
  8
0
  6
CONTINUOUS
 62
   249
 10
69.972949
 20
70.698098
 30
0.0
 11
69.986669
 21
70.698098
 31
0.0
 12
69.986669
 22
71.678098
 32
0.0
 13
69.972949
 23
71.678098
 33
0.0
  0
3DFACE
  8
0
  6
CONTINUOUS
 62
   249
 10
69.986669
 20
70.698098
 30
0.0
 11
70.000389
 21
70.698098
 31
0.0
 12
70.000389
 22
71.678098
 32
0.0
 13
69.986669
 23
71.678098
 33
0.0
  0
3DFACE
  8
0
  6
CONTINUOUS
 62
   249
 10
70.000389
 20
70.698098
 30
0.0
 11
70.014109
 21
70.698098
 31
0.0
 12
70.014109
 22
71.678098
 32
0.0
 13
70.000389
 23
71.678098
 33
0.0
  0
3DFACE
  8
0
  6
CONTINUOUS
 62
   249
 10
70.014109
 20
70.698098
 30
0.0
 11
70.027829
 21
70.698098
 31
0.0
 12
70.027829
 22
71.678098
 32
0.0
 13
70.014109
 23
71.678098
 33
0.0
  0
3DFACE
  8
0
  6
CONTINUOUS
 62
   249
 10
70.027829
 20
70.698098
 30
0.0
 11
70.041549
 21
70.698098
 31
0.0
 12
70.041549
 22
71.678098
 32
0.0
 13
70.027829
 23
71.678098
 33
0.0
  0
3DFACE
  8
0
  6
CONTINUOUS
 62
   249
 10
70.041549
 20
70.698098
 30
0.0
 11
70.055269
 21
70.698098
 31
0.0
 12
70.055269
 22
71.678098
 32
0.0
 13
70.041549
 23
71.678098
 33
0.0
  0
3DFACE
  8
0
  6
CONTINUOUS
 62
   249
 10
70.055269
 20
70.698098
 30
0.0
 11
70.068989
 21
70.698098
 31
0.0
 12
70.068989
 22
71.678098
 32
0.0
 13
70.055269
 23
71.678098
 33
0.0
  0
3DFACE
  8
0
  6
CONTINUOUS
 62
   249
 10
70.068989
 20
70.698098
 30
0.0
 11
70.082709
 21
70.698098
 31
0.0
 12
70.082709
 22
71.678098
 32
0.0
 13
70.068989
 23
71.678098
 33
0.0
  0
3DFACE
  8
0
  6
CONTINUOUS
 62
   249
 10
70.082709
 20
70.698098
 30
0.0
 11
70.096429
 21
70.698098
 31
0.0
 12
70.096429
 22
71.678098
 32
0.0
 13
70.082709
 23
71.678098
 33
0.0
  0
3DFACE
  8
0
  6
CONTINUOUS
 62
   249
 10
70.096429
 20
70.698098
 30
0.0
 11
70.110149
 21
70.698098
 31
0.0
 12
70.110149
 22
71.678098
 32
0.0
 13
70.096429
 23
71.678098
 33
0.0
  0
3DFACE
  8
0
  6
CONTINUOUS
 62
   249
 10
70.110149
 20
70.698098
 30
0.0
 11
70.123869
 21
70.698098
 31
0.0
 12
70.123869
 22
71.678098
 32
0.0
 13
70.110149
 23
71.678098
 33
0.0
  0
3DFACE
  8
0
  6
CONTINUOUS
 62
   249
 10
70.123869
 20
70.698098
 30
0.0
 11
70.137589
 21
70.698098
 31
0.0
 12
70.137589
 22
71.678098
 32
0.0
 13
70.123869
 23
71.678098
 33
0.0
  0
3DFACE
  8
0
  6
CONTINUOUS
 62
   249
 10
70.137589
 20
70.698098
 30
0.0
 11
70.151309
 21
70.698098
 31
0.0
 12
70.151309
 22
71.678098
 32
0.0
 13
70.137589
 23
71.678098
 33
0.0
  0
3DFACE
  8
0
  6
CONTINUOUS
 62
   249
 10
70.151309
 20
70.698098
 30
0.0
 11
70.165029
 21
70.698098
 31
0.0
 12
70.165029
 22
71.678098
 32
0.0
 13
70.151309
 23
71.678098
 33
0.0
  0
3DFACE
  8
0
  6
CONTINUOUS
 62
   249
 10
70.165029
 20
70.698098
 30
0.0
 11
70.178749
 21
70.698098
 31
0.0
 12
70.178749
 22
71.678098
 32
0.0
 13
70.165029
 23
71.678098
 33
0.0
  0
3DFACE
  8
0
  6
CONTINUOUS
 62
   249
 10
70.178749
 20
70.698098
 30
0.0
 11
70.192469
 21
70.698098
 31
0.0
 12
70.192469
 22
71.678098
 32
0.0
 13
70.178749
 23
71.678098
 33
0.0
  0
3DFACE
  8
0
  6
CONTINUOUS
 62
   249
 10
70.192469
 20
70.698098
 30
0.0
 11
70.206189
 21
70.698098
 31
0.0
 12
70.206189
 22
71.678098
 32
0.0
 13
70.192469
 23
71.678098
 33
0.0
  0
3DFACE
  8
0
  6
CONTINUOUS
 62
   249
 10
70.206189
 20
70.698098
 30
0.0
 11
70.219909
 21
70.698098
 31
0.0
 12
70.219909
 22
71.678098
 32
0.0
 13
70.206189
 23
71.678098
 33
0.0
  0
3DFACE
  8
0
  6
CONTINUOUS
 62
   249
 10
70.219909
 20
70.698098
 30
0.0
 11
70.233629
 21
70.698098
 31
0.0
 12
70.233629
 22
71.678098
 32
0.0
 13
70.219909
 23
71.678098
 33
0.0
  0
3DFACE
  8
0
  6
CONTINUOUS
 62
   249
 10
70.233629
 20
70.698098
 30
0.0
 11
70.247349
 21
70.698098
 31
0.0
 12
70.247349
 22
71.678098
 32
0.0
 13
70.233629
 23
71.678098
 33
0.0
  0
3DFACE
  8
0
  6
CONTINUOUS
 62
   249
 10
70.247349
 20
70.698098
 30
0.0
 11
70.261069
 21
70.698098
 31
0.0
 12
70.261069
 22
71.678098
 32
0.0
 13
70.247349
 23
71.678098
 33
0.0
  0
3DFACE
  8
0
  6
CONTINUOUS
 62
   249
 10
70.261069
 20
70.698098
 30
0.0
 11
70.274789
 21
70.698098
 31
0.0
 12
70.274789
 22
71.678098
 32
0.0
 13
70.261069
 23
71.678098
 33
0.0
  0
3DFACE
  8
0
  6
CONTINUOUS
 62
   249
 10
70.274789
 20
70.698098
 30
0.0
 11
70.288509
 21
70.698098
 31
0.0
 12
70.288509
 22
71.678098
 32
0.0
 13
70.274789
 23
71.678098
 33
0.0
  0
3DFACE
  8
0
  6
CONTINUOUS
 62
   249
 10
70.288509
 20
70.698098
 30
0.0
 11
70.302229
 21
70.698098
 31
0.0
 12
70.302229
 22
71.678098
 32
0.0
 13
70.288509
 23
71.678098
 33
0.0
  0
3DFACE
  8
0
  6
CONTINUOUS
 62
   249
 10
70.302229
 20
70.698098
 30
0.0
 11
70.315949
 21
70.698098
 31
0.0
 12
70.315949
 22
71.678098
 32
0.0
 13
70.302229
 23
71.678098
 33
0.0
  0
3DFACE
  8
0
  6
CONTINUOUS
 62
   249
 10
70.315949
 20
70.698098
 30
0.0
 11
70.329669
 21
70.698098
 31
0.0
 12
70.329669
 22
71.678098
 32
0.0
 13
70.315949
 23
71.678098
 33
0.0
  0
3DFACE
  8
0
  6
CONTINUOUS
 62
   249
 10
70.329669
 20
70.698098
 30
0.0
 11
70.343389
 21
70.698098
 31
0.0
 12
70.343389
 22
71.678098
 32
0.0
 13
70.329669
 23
71.678098
 33
0.0
  0
3DFACE
  8
0
  6
CONTINUOUS
 62
   249
 10
70.343389
 20
70.698098
 30
0.0
 11
70.357109
 21
70.698098
 31
0.0
 12
70.357109
 22
71.678098
 32
0.0
 13
70.343389
 23
71.678098
 33
0.0
  0
3DFACE
  8
0
  6
CONTINUOUS
 62
   249
 10
70.357109
 20
70.698098
 30
0.0
 11
70.370829
 21
70.698098
 31
0.0
 12
70.370829
 22
71.678098
 32
0.0
 13
70.357109
 23
71.678098
 33
0.0
  0
3DFACE
  8
0
  6
CONTINUOUS
 62
   249
 10
70.370829
 20
70.698098
 30
0.0
 11
70.384549
 21
70.698098
 31
0.0
 12
70.384549
 22
71.678098
 32
0.0
 13
70.370829
 23
71.678098
 33
0.0
  0
3DFACE
  8
0
  6
CONTINUOUS
 62
   249
 10
70.384549
 20
70.698098
 30
0.0
 11
70.398269
 21
70.698098
 31
0.0
 12
70.398269
 22
71.678098
 32
0.0
 13
70.384549
 23
71.678098
 33
0.0
  0
3DFACE
  8
0
  6
CONTINUOUS
 62
   249
 10
70.398269
 20
70.698098
 30
0.0
 11
70.411989
 21
70.698098
 31
0.0
 12
70.411989
 22
71.678098
 32
0.0
 13
70.398269
 23
71.678098
 33
0.0
  0
3DFACE
  8
0
  6
CONTINUOUS
 62
   249
 10
70.411989
 20
70.698098
 30
0.0
 11
70.425709
 21
70.698098
 31
0.0
 12
70.425709
 22
71.678098
 32
0.0
 13
70.411989
 23
71.678098
 33
0.0
  0
3DFACE
  8
0
  6
CONTINUOUS
 62
   249
 10
70.425709
 20
70.698098
 30
0.0
 11
70.439429
 21
70.698098
 31
0.0
 12
70.439429
 22
71.678098
 32
0.0
 13
70.425709
 23
71.678098
 33
0.0
  0
3DFACE
  8
0
  6
CONTINUOUS
 62
   249
 10
70.439429
 20
70.698098
 30
0.0
 11
70.453149
 21
70.698098
 31
0.0
 12
70.453149
 22
71.678098
 32
0.0
 13
70.439429
 23
71.678098
 33
0.0
  0
3DFACE
  8
0
  6
CONTINUOUS
 62
   249
 10
70.453149
 20
70.698098
 30
0.0
 11
70.466869
 21
70.698098
 31
0.0
 12
70.466869
 22
71.678098
 32
0.0
 13
70.453149
 23
71.678098
 33
0.0
  0
3DFACE
  8
0
  6
CONTINUOUS
 62
   249
 10
70.466869
 20
70.698098
 30
0.0
 11
70.480589
 21
70.698098
 31
0.0
 12
70.480589
 22
71.678098
 32
0.0
 13
70.466869
 23
71.678098
 33
0.0
  0
3DFACE
  8
0
  6
CONTINUOUS
 62
   249
 10
70.480589
 20
70.698098
 30
0.0
 11
70.494309
 21
70.698098
 31
0.0
 12
70.494309
 22
71.678098
 32
0.0
 13
70.480589
 23
71.678098
 33
0.0
  0
3DFACE
  8
0
  6
CONTINUOUS
 62
   249
 10
70.494309
 20
70.698098
 30
0.0
 11
70.508029
 21
70.698098
 31
0.0
 12
70.508029
 22
71.678098
 32
0.0
 13
70.494309
 23
71.678098
 33
0.0
  0
3DFACE
  8
0
  6
CONTINUOUS
 62
   249
 10
70.508029
 20
70.698098
 30
0.0
 11
70.521749
 21
70.698098
 31
0.0
 12
70.521749
 22
71.678098
 32
0.0
 13
70.508029
 23
71.678098
 33
0.0
  0
3DFACE
  8
0
  6
CONTINUOUS
 62
   249
 10
70.521749
 20
70.698098
 30
0.0
 11
70.535469
 21
70.698098
 31
0.0
 12
70.535469
 22
71.678098
 32
0.0
 13
70.521749
 23
71.678098
 33
0.0
  0
3DFACE
  8
0
  6
CONTINUOUS
 62
   249
 10
70.535469
 20
70.698098
 30
0.0
 11
70.549189
 21
70.698098
 31
0.0
 12
70.549189
 22
71.678098
 32
0.0
 13
70.535469
 23
71.678098
 33
0.0
  0
3DFACE
  8
0
  6
CONTINUOUS
 62
   249
 10
70.549189
 20
70.698098
 30
0.0
 11
70.562909
 21
70.698098
 31
0.0
 12
70.562909
 22
71.678098
 32
0.0
 13
70.549189
 23
71.678098
 33
0.0
  0
3DFACE
  8
0
  6
CONTINUOUS
 62
   249
 10
70.562909
 20
70.698098
 30
0.0
 11
70.576629
 21
70.698098
 31
0.0
 12
70.576629
 22
71.678098
 32
0.0
 13
70.562909
 23
71.678098
 33
0.0
  0
3DFACE
  8
0
  6
CONTINUOUS
 62
   249
 10
70.576629
 20
70.698098
 30
0.0
 11
70.590349
 21
70.698098
 31
0.0
 12
70.590349
 22
71.678098
 32
0.0
 13
70.576629
 23
71.678098
 33
0.0
  0
3DFACE
  8
0
  6
CONTINUOUS
 62
   249
 10
70.590349
 20
70.698098
 30
0.0
 11
70.604069
 21
70.698098
 31
0.0
 12
70.604069
 22
71.678098
 32
0.0
 13
70.590349
 23
71.678098
 33
0.0
  0
3DFACE
  8
0
  6
CONTINUOUS
 62
   249
 10
70.604069
 20
70.698098
 30
0.0
 11
70.617789
 21
70.698098
 31
0.0
 12
70.617789
 22
71.678098
 32
0.0
 13
70.604069
 23
71.678098
 33
0.0
  0
3DFACE
  8
0
  6
CONTINUOUS
 62
   249
 10
70.617789
 20
70.698098
 30
0.0
 11
70.631509
 21
70.698098
 31
0.0
 12
70.631509
 22
71.678098
 32
0.0
 13
70.617789
 23
71.678098
 33
0.0
  0
3DFACE
  8
0
  6
CONTINUOUS
 62
   249
 10
70.631509
 20
70.698098
 30
0.0
 11
70.645229
 21
70.698098
 31
0.0
 12
70.645229
 22
71.678098
 32
0.0
 13
70.631509
 23
71.678098
 33
0.0
  0
INSERT
  8
0
  6
CONTINUOUS
 62
   249
  2
BLC29
 10
192.107384
 20
71.059622
 30
0.0
 50
180.0
  0
INSERT
  8
0
  6
CONTINUOUS
 62
   249
  2
BLC29
 10
191.855777
 20
63.232487
 30
0.0
 50
180.0
  0
3DFACE
  8
0
  6
CONTINUOUS
 62
   249
 10
55.569436
 20
146.923461
 30
0.0
 11
55.583156
 21
146.923461
 31
0.0
 12
55.583156
 22
147.903461
 32
0.0
 13
55.569436
 23
147.903461
 33
0.0
  0
3DFACE
  8
0
  6
CONTINUOUS
 62
   249
 10
55.583156
 20
146.923461
 30
0.0
 11
55.596876
 21
146.923461
 31
0.0
 12
55.596876
 22
147.903461
 32
0.0
 13
55.583156
 23
147.903461
 33
0.0
  0
3DFACE
  8
0
  6
CONTINUOUS
 62
   249
 10
55.596876
 20
146.923461
 30
0.0
 11
55.610596
 21
146.923461
 31
0.0
 12
55.610596
 22
147.903461
 32
0.0
 13
55.596876
 23
147.903461
 33
0.0
  0
3DFACE
  8
0
  6
CONTINUOUS
 62
   249
 10
55.610596
 20
146.923461
 30
0.0
 11
55.624316
 21
146.923461
 31
0.0
 12
55.624316
 22
147.903461
 32
0.0
 13
55.610596
 23
147.903461
 33
0.0
  0
3DFACE
  8
0
  6
CONTINUOUS
 62
   249
 10
55.624316
 20
146.923461
 30
0.0
 11
55.638036
 21
146.923461
 31
0.0
 12
55.638036
 22
147.903461
 32
0.0
 13
55.624316
 23
147.903461
 33
0.0
  0
3DFACE
  8
0
  6
CONTINUOUS
 62
   249
 10
55.638036
 20
146.923461
 30
0.0
 11
55.651756
 21
146.923461
 31
0.0
 12
55.651756
 22
147.903461
 32
0.0
 13
55.638036
 23
147.903461
 33
0.0
  0
3DFACE
  8
0
  6
CONTINUOUS
 62
   249
 10
55.651756
 20
146.923461
 30
0.0
 11
55.665476
 21
146.923461
 31
0.0
 12
55.665476
 22
147.903461
 32
0.0
 13
55.651756
 23
147.903461
 33
0.0
  0
3DFACE
  8
0
  6
CONTINUOUS
 62
   249
 10
55.665476
 20
146.923461
 30
0.0
 11
55.679196
 21
146.923461
 31
0.0
 12
55.679196
 22
147.903461
 32
0.0
 13
55.665476
 23
147.903461
 33
0.0
  0
3DFACE
  8
0
  6
CONTINUOUS
 62
   249
 10
55.679196
 20
146.923461
 30
0.0
 11
55.692916
 21
146.923461
 31
0.0
 12
55.692916
 22
147.903461
 32
0.0
 13
55.679196
 23
147.903461
 33
0.0
  0
3DFACE
  8
0
  6
CONTINUOUS
 62
   249
 10
55.692916
 20
146.923461
 30
0.0
 11
55.706636
 21
146.923461
 31
0.0
 12
55.706636
 22
147.903461
 32
0.0
 13
55.692916
 23
147.903461
 33
0.0
  0
3DFACE
  8
0
  6
CONTINUOUS
 62
   249
 10
55.706636
 20
146.923461
 30
0.0
 11
55.720356
 21
146.923461
 31
0.0
 12
55.720356
 22
147.903461
 32
0.0
 13
55.706636
 23
147.903461
 33
0.0
  0
3DFACE
  8
0
  6
CONTINUOUS
 62
   249
 10
55.720356
 20
146.923461
 30
0.0
 11
55.734076
 21
146.923461
 31
0.0
 12
55.734076
 22
147.903461
 32
0.0
 13
55.720356
 23
147.903461
 33
0.0
  0
3DFACE
  8
0
  6
CONTINUOUS
 62
   249
 10
55.734076
 20
146.923461
 30
0.0
 11
55.747796
 21
146.923461
 31
0.0
 12
55.747796
 22
147.903461
 32
0.0
 13
55.734076
 23
147.903461
 33
0.0
  0
3DFACE
  8
0
  6
CONTINUOUS
 62
   249
 10
55.747796
 20
146.923461
 30
0.0
 11
55.761516
 21
146.923461
 31
0.0
 12
55.761516
 22
147.903461
 32
0.0
 13
55.747796
 23
147.903461
 33
0.0
  0
3DFACE
  8
0
  6
CONTINUOUS
 62
   249
 10
55.761516
 20
146.923461
 30
0.0
 11
55.775236
 21
146.923461
 31
0.0
 12
55.775236
 22
147.903461
 32
0.0
 13
55.761516
 23
147.903461
 33
0.0
  0
3DFACE
  8
0
  6
CONTINUOUS
 62
   249
 10
55.775236
 20
146.923461
 30
0.0
 11
55.788956
 21
146.923461
 31
0.0
 12
55.788956
 22
147.903461
 32
0.0
 13
55.775236
 23
147.903461
 33
0.0
  0
3DFACE
  8
0
  6
CONTINUOUS
 62
   249
 10
55.788956
 20
146.923461
 30
0.0
 11
55.802676
 21
146.923461
 31
0.0
 12
55.802676
 22
147.903461
 32
0.0
 13
55.788956
 23
147.903461
 33
0.0
  0
3DFACE
  8
0
  6
CONTINUOUS
 62
   249
 10
55.802676
 20
146.923461
 30
0.0
 11
55.816396
 21
146.923461
 31
0.0
 12
55.816396
 22
147.903461
 32
0.0
 13
55.802676
 23
147.903461
 33
0.0
  0
3DFACE
  8
0
  6
CONTINUOUS
 62
   249
 10
55.816396
 20
146.923461
 30
0.0
 11
55.830116
 21
146.923461
 31
0.0
 12
55.830116
 22
147.903461
 32
0.0
 13
55.816396
 23
147.903461
 33
0.0
  0
3DFACE
  8
0
  6
CONTINUOUS
 62
   249
 10
55.830116
 20
146.923461
 30
0.0
 11
55.843836
 21
146.923461
 31
0.0
 12
55.843836
 22
147.903461
 32
0.0
 13
55.830116
 23
147.903461
 33
0.0
  0
3DFACE
  8
0
  6
CONTINUOUS
 62
   249
 10
55.843836
 20
146.923461
 30
0.0
 11
55.857556
 21
146.923461
 31
0.0
 12
55.857556
 22
147.903461
 32
0.0
 13
55.843836
 23
147.903461
 33
0.0
  0
3DFACE
  8
0
  6
CONTINUOUS
 62
   249
 10
55.857556
 20
146.923461
 30
0.0
 11
55.871276
 21
146.923461
 31
0.0
 12
55.871276
 22
147.903461
 32
0.0
 13
55.857556
 23
147.903461
 33
0.0
  0
3DFACE
  8
0
  6
CONTINUOUS
 62
   249
 10
55.871276
 20
146.923461
 30
0.0
 11
55.884996
 21
146.923461
 31
0.0
 12
55.884996
 22
147.903461
 32
0.0
 13
55.871276
 23
147.903461
 33
0.0
  0
3DFACE
  8
0
  6
CONTINUOUS
 62
   249
 10
55.884996
 20
146.923461
 30
0.0
 11
55.898716
 21
146.923461
 31
0.0
 12
55.898716
 22
147.903461
 32
0.0
 13
55.884996
 23
147.903461
 33
0.0
  0
3DFACE
  8
0
  6
CONTINUOUS
 62
   249
 10
55.898716
 20
146.923461
 30
0.0
 11
55.912436
 21
146.923461
 31
0.0
 12
55.912436
 22
147.903461
 32
0.0
 13
55.898716
 23
147.903461
 33
0.0
  0
3DFACE
  8
0
  6
CONTINUOUS
 62
   249
 10
55.912436
 20
146.923461
 30
0.0
 11
55.926156
 21
146.923461
 31
0.0
 12
55.926156
 22
147.903461
 32
0.0
 13
55.912436
 23
147.903461
 33
0.0
  0
3DFACE
  8
0
  6
CONTINUOUS
 62
   249
 10
55.926156
 20
146.923461
 30
0.0
 11
55.939876
 21
146.923461
 31
0.0
 12
55.939876
 22
147.903461
 32
0.0
 13
55.926156
 23
147.903461
 33
0.0
  0
3DFACE
  8
0
  6
CONTINUOUS
 62
   249
 10
55.939876
 20
146.923461
 30
0.0
 11
55.953596
 21
146.923461
 31
0.0
 12
55.953596
 22
147.903461
 32
0.0
 13
55.939876
 23
147.903461
 33
0.0
  0
3DFACE
  8
0
  6
CONTINUOUS
 62
   249
 10
55.953596
 20
146.923461
 30
0.0
 11
55.967316
 21
146.923461
 31
0.0
 12
55.967316
 22
147.903461
 32
0.0
 13
55.953596
 23
147.903461
 33
0.0
  0
3DFACE
  8
0
  6
CONTINUOUS
 62
   249
 10
55.967316
 20
146.923461
 30
0.0
 11
55.981036
 21
146.923461
 31
0.0
 12
55.981036
 22
147.903461
 32
0.0
 13
55.967316
 23
147.903461
 33
0.0
  0
3DFACE
  8
0
  6
CONTINUOUS
 62
   249
 10
55.981036
 20
146.923461
 30
0.0
 11
55.994756
 21
146.923461
 31
0.0
 12
55.994756
 22
147.903461
 32
0.0
 13
55.981036
 23
147.903461
 33
0.0
  0
3DFACE
  8
0
  6
CONTINUOUS
 62
   249
 10
55.994756
 20
146.923461
 30
0.0
 11
56.008476
 21
146.923461
 31
0.0
 12
56.008476
 22
147.903461
 32
0.0
 13
55.994756
 23
147.903461
 33
0.0
  0
3DFACE
  8
0
  6
CONTINUOUS
 62
   249
 10
56.008476
 20
146.923461
 30
0.0
 11
56.022196
 21
146.923461
 31
0.0
 12
56.022196
 22
147.903461
 32
0.0
 13
56.008476
 23
147.903461
 33
0.0
  0
3DFACE
  8
0
  6
CONTINUOUS
 62
   249
 10
56.022196
 20
146.923461
 30
0.0
 11
56.035916
 21
146.923461
 31
0.0
 12
56.035916
 22
147.903461
 32
0.0
 13
56.022196
 23
147.903461
 33
0.0
  0
3DFACE
  8
0
  6
CONTINUOUS
 62
   249
 10
56.035916
 20
146.923461
 30
0.0
 11
56.049636
 21
146.923461
 31
0.0
 12
56.049636
 22
147.903461
 32
0.0
 13
56.035916
 23
147.903461
 33
0.0
  0
3DFACE
  8
0
  6
CONTINUOUS
 62
   249
 10
56.049636
 20
146.923461
 30
0.0
 11
56.063356
 21
146.923461
 31
0.0
 12
56.063356
 22
147.903461
 32
0.0
 13
56.049636
 23
147.903461
 33
0.0
  0
3DFACE
  8
0
  6
CONTINUOUS
 62
   249
 10
56.063356
 20
146.923461
 30
0.0
 11
56.077076
 21
146.923461
 31
0.0
 12
56.077076
 22
147.903461
 32
0.0
 13
56.063356
 23
147.903461
 33
0.0
  0
3DFACE
  8
0
  6
CONTINUOUS
 62
   249
 10
56.077076
 20
146.923461
 30
0.0
 11
56.090796
 21
146.923461
 31
0.0
 12
56.090796
 22
147.903461
 32
0.0
 13
56.077076
 23
147.903461
 33
0.0
  0
3DFACE
  8
0
  6
CONTINUOUS
 62
   249
 10
56.090796
 20
146.923461
 30
0.0
 11
56.104516
 21
146.923461
 31
0.0
 12
56.104516
 22
147.903461
 32
0.0
 13
56.090796
 23
147.903461
 33
0.0
  0
3DFACE
  8
0
  6
CONTINUOUS
 62
   249
 10
56.104516
 20
146.923461
 30
0.0
 11
56.118236
 21
146.923461
 31
0.0
 12
56.118236
 22
147.903461
 32
0.0
 13
56.104516
 23
147.903461
 33
0.0
  0
3DFACE
  8
0
  6
CONTINUOUS
 62
   249
 10
56.118236
 20
146.923461
 30
0.0
 11
56.131956
 21
146.923461
 31
0.0
 12
56.131956
 22
147.903461
 32
0.0
 13
56.118236
 23
147.903461
 33
0.0
  0
3DFACE
  8
0
  6
CONTINUOUS
 62
   249
 10
56.131956
 20
146.923461
 30
0.0
 11
56.145676
 21
146.923461
 31
0.0
 12
56.145676
 22
147.903461
 32
0.0
 13
56.131956
 23
147.903461
 33
0.0
  0
3DFACE
  8
0
  6
CONTINUOUS
 62
   249
 10
56.145676
 20
146.923461
 30
0.0
 11
56.159396
 21
146.923461
 31
0.0
 12
56.159396
 22
147.903461
 32
0.0
 13
56.145676
 23
147.903461
 33
0.0
  0
3DFACE
  8
0
  6
CONTINUOUS
 62
   249
 10
56.159396
 20
146.923461
 30
0.0
 11
56.173116
 21
146.923461
 31
0.0
 12
56.173116
 22
147.903461
 32
0.0
 13
56.159396
 23
147.903461
 33
0.0
  0
3DFACE
  8
0
  6
CONTINUOUS
 62
   249
 10
56.173116
 20
146.923461
 30
0.0
 11
56.186836
 21
146.923461
 31
0.0
 12
56.186836
 22
147.903461
 32
0.0
 13
56.173116
 23
147.903461
 33
0.0
  0
3DFACE
  8
0
  6
CONTINUOUS
 62
   249
 10
56.186836
 20
146.923461
 30
0.0
 11
56.200556
 21
146.923461
 31
0.0
 12
56.200556
 22
147.903461
 32
0.0
 13
56.186836
 23
147.903461
 33
0.0
  0
3DFACE
  8
0
  6
CONTINUOUS
 62
   249
 10
56.200556
 20
146.923461
 30
0.0
 11
56.214276
 21
146.923461
 31
0.0
 12
56.214276
 22
147.903461
 32
0.0
 13
56.200556
 23
147.903461
 33
0.0
  0
3DFACE
  8
0
  6
CONTINUOUS
 62
   249
 10
56.214276
 20
146.923461
 30
0.0
 11
56.227996
 21
146.923461
 31
0.0
 12
56.227996
 22
147.903461
 32
0.0
 13
56.214276
 23
147.903461
 33
0.0
  0
3DFACE
  8
0
  6
CONTINUOUS
 62
   249
 10
56.227996
 20
146.923461
 30
0.0
 11
56.241716
 21
146.923461
 31
0.0
 12
56.241716
 22
147.903461
 32
0.0
 13
56.227996
 23
147.903461
 33
0.0
  0
3DFACE
  8
0
  6
CONTINUOUS
 62
   249
 10
56.241716
 20
146.923461
 30
0.0
 11
56.255436
 21
146.923461
 31
0.0
 12
56.255436
 22
147.903461
 32
0.0
 13
56.241716
 23
147.903461
 33
0.0
  0
3DFACE
  8
0
  6
CONTINUOUS
 62
   249
 10
56.255436
 20
146.923461
 30
0.0
 11
56.269156
 21
146.923461
 31
0.0
 12
56.269156
 22
147.903461
 32
0.0
 13
56.255436
 23
147.903461
 33
0.0
  0
3DFACE
  8
0
  6
CONTINUOUS
 62
   249
 10
56.269156
 20
146.923461
 30
0.0
 11
56.282876
 21
146.923461
 31
0.0
 12
56.282876
 22
147.903461
 32
0.0
 13
56.269156
 23
147.903461
 33
0.0
  0
3DFACE
  8
0
  6
CONTINUOUS
 62
   249
 10
56.282876
 20
146.923461
 30
0.0
 11
56.296596
 21
146.923461
 31
0.0
 12
56.296596
 22
147.903461
 32
0.0
 13
56.282876
 23
147.903461
 33
0.0
  0
3DFACE
  8
0
  6
CONTINUOUS
 62
   249
 10
56.296596
 20
146.923461
 30
0.0
 11
56.310316
 21
146.923461
 31
0.0
 12
56.310316
 22
147.903461
 32
0.0
 13
56.296596
 23
147.903461
 33
0.0
  0
3DFACE
  8
0
  6
CONTINUOUS
 62
   249
 10
56.310316
 20
146.923461
 30
0.0
 11
56.324036
 21
146.923461
 31
0.0
 12
56.324036
 22
147.903461
 32
0.0
 13
56.310316
 23
147.903461
 33
0.0
  0
3DFACE
  8
0
  6
CONTINUOUS
 62
   249
 10
56.324036
 20
146.923461
 30
0.0
 11
56.337756
 21
146.923461
 31
0.0
 12
56.337756
 22
147.903461
 32
0.0
 13
56.324036
 23
147.903461
 33
0.0
  0
3DFACE
  8
0
  6
CONTINUOUS
 62
   249
 10
56.337756
 20
146.923461
 30
0.0
 11
56.351476
 21
146.923461
 31
0.0
 12
56.351476
 22
147.903461
 32
0.0
 13
56.337756
 23
147.903461
 33
0.0
  0
3DFACE
  8
0
  6
CONTINUOUS
 62
   249
 10
56.351476
 20
146.923461
 30
0.0
 11
56.365196
 21
146.923461
 31
0.0
 12
56.365196
 22
147.903461
 32
0.0
 13
56.351476
 23
147.903461
 33
0.0
  0
3DFACE
  8
0
  6
CONTINUOUS
 62
   249
 10
56.365196
 20
146.923461
 30
0.0
 11
56.378916
 21
146.923461
 31
0.0
 12
56.378916
 22
147.903461
 32
0.0
 13
56.365196
 23
147.903461
 33
0.0
  0
3DFACE
  8
0
  6
CONTINUOUS
 62
   249
 10
56.378916
 20
146.923461
 30
0.0
 11
56.392636
 21
146.923461
 31
0.0
 12
56.392636
 22
147.903461
 32
0.0
 13
56.378916
 23
147.903461
 33
0.0
  0
3DFACE
  8
0
  6
CONTINUOUS
 62
   249
 10
56.392636
 20
146.923461
 30
0.0
 11
56.406356
 21
146.923461
 31
0.0
 12
56.406356
 22
147.903461
 32
0.0
 13
56.392636
 23
147.903461
 33
0.0
  0
3DFACE
  8
0
  6
CONTINUOUS
 62
   249
 10
56.406356
 20
146.923461
 30
0.0
 11
56.420076
 21
146.923461
 31
0.0
 12
56.420076
 22
147.903461
 32
0.0
 13
56.406356
 23
147.903461
 33
0.0
  0
3DFACE
  8
0
  6
CONTINUOUS
 62
   249
 10
56.420076
 20
146.923461
 30
0.0
 11
56.433796
 21
146.923461
 31
0.0
 12
56.433796
 22
147.903461
 32
0.0
 13
56.420076
 23
147.903461
 33
0.0
  0
3DFACE
  8
0
  6
CONTINUOUS
 62
   249
 10
56.433796
 20
146.923461
 30
0.0
 11
56.447516
 21
146.923461
 31
0.0
 12
56.447516
 22
147.903461
 32
0.0
 13
56.433796
 23
147.903461
 33
0.0
  0
3DFACE
  8
0
  6
CONTINUOUS
 62
   249
 10
56.447516
 20
146.923461
 30
0.0
 11
56.461236
 21
146.923461
 31
0.0
 12
56.461236
 22
147.903461
 32
0.0
 13
56.447516
 23
147.903461
 33
0.0
  0
3DFACE
  8
0
  6
CONTINUOUS
 62
   249
 10
56.461236
 20
146.923461
 30
0.0
 11
56.474956
 21
146.923461
 31
0.0
 12
56.474956
 22
147.903461
 32
0.0
 13
56.461236
 23
147.903461
 33
0.0
  0
3DFACE
  8
0
  6
CONTINUOUS
 62
   249
 10
56.474956
 20
146.923461
 30
0.0
 11
56.488676
 21
146.923461
 31
0.0
 12
56.488676
 22
147.903461
 32
0.0
 13
56.474956
 23
147.903461
 33
0.0
  0
3DFACE
  8
0
  6
CONTINUOUS
 62
   249
 10
56.488676
 20
146.923461
 30
0.0
 11
56.502396
 21
146.923461
 31
0.0
 12
56.502396
 22
147.903461
 32
0.0
 13
56.488676
 23
147.903461
 33
0.0
  0
3DFACE
  8
0
  6
CONTINUOUS
 62
   249
 10
56.502396
 20
146.923461
 30
0.0
 11
56.516116
 21
146.923461
 31
0.0
 12
56.516116
 22
147.903461
 32
0.0
 13
56.502396
 23
147.903461
 33
0.0
  0
3DFACE
  8
0
  6
CONTINUOUS
 62
   249
 10
56.516116
 20
146.923461
 30
0.0
 11
56.529836
 21
146.923461
 31
0.0
 12
56.529836
 22
147.903461
 32
0.0
 13
56.516116
 23
147.903461
 33
0.0
  0
3DFACE
  8
0
  6
CONTINUOUS
 62
   249
 10
56.529836
 20
146.923461
 30
0.0
 11
56.543556
 21
146.923461
 31
0.0
 12
56.543556
 22
147.903461
 32
0.0
 13
56.529836
 23
147.903461
 33
0.0
  0
3DFACE
  8
0
  6
CONTINUOUS
 62
   249
 10
56.543556
 20
146.923461
 30
0.0
 11
56.557276
 21
146.923461
 31
0.0
 12
56.557276
 22
147.903461
 32
0.0
 13
56.543556
 23
147.903461
 33
0.0
  0
3DFACE
  8
0
  6
CONTINUOUS
 62
   249
 10
56.557276
 20
146.923461
 30
0.0
 11
56.570996
 21
146.923461
 31
0.0
 12
56.570996
 22
147.903461
 32
0.0
 13
56.557276
 23
147.903461
 33
0.0
  0
3DFACE
  8
0
  6
CONTINUOUS
 62
   249
 10
56.570996
 20
146.923461
 30
0.0
 11
56.584716
 21
146.923461
 31
0.0
 12
56.584716
 22
147.903461
 32
0.0
 13
56.570996
 23
147.903461
 33
0.0
  0
3DFACE
  8
0
  6
CONTINUOUS
 62
   249
 10
56.584716
 20
146.923461
 30
0.0
 11
56.598436
 21
146.923461
 31
0.0
 12
56.598436
 22
147.903461
 32
0.0
 13
56.584716
 23
147.903461
 33
0.0
  0
3DFACE
  8
0
  6
CONTINUOUS
 62
   249
 10
56.598436
 20
146.923461
 30
0.0
 11
56.612156
 21
146.923461
 31
0.0
 12
56.612156
 22
147.903461
 32
0.0
 13
56.598436
 23
147.903461
 33
0.0
  0
3DFACE
  8
0
  6
CONTINUOUS
 62
   249
 10
56.612156
 20
146.923461
 30
0.0
 11
56.625876
 21
146.923461
 31
0.0
 12
56.625876
 22
147.903461
 32
0.0
 13
56.612156
 23
147.903461
 33
0.0
  0
3DFACE
  8
0
  6
CONTINUOUS
 62
   249
 10
56.625876
 20
146.923461
 30
0.0
 11
56.639596
 21
146.923461
 31
0.0
 12
56.639596
 22
147.903461
 32
0.0
 13
56.625876
 23
147.903461
 33
0.0
  0
3DFACE
  8
0
  6
CONTINUOUS
 62
   249
 10
56.639596
 20
146.923461
 30
0.0
 11
56.653316
 21
146.923461
 31
0.0
 12
56.653316
 22
147.903461
 32
0.0
 13
56.639596
 23
147.903461
 33
0.0
  0
3DFACE
  8
0
  6
CONTINUOUS
 62
   249
 10
56.653316
 20
146.923461
 30
0.0
 11
56.667036
 21
146.923461
 31
0.0
 12
56.667036
 22
147.903461
 32
0.0
 13
56.653316
 23
147.903461
 33
0.0
  0
3DFACE
  8
0
  6
CONTINUOUS
 62
   249
 10
56.667036
 20
146.923461
 30
0.0
 11
56.680756
 21
146.923461
 31
0.0
 12
56.680756
 22
147.903461
 32
0.0
 13
56.667036
 23
147.903461
 33
0.0
  0
3DFACE
  8
0
  6
CONTINUOUS
 62
   249
 10
56.680756
 20
146.923461
 30
0.0
 11
56.694476
 21
146.923461
 31
0.0
 12
56.694476
 22
147.903461
 32
0.0
 13
56.680756
 23
147.903461
 33
0.0
  0
3DFACE
  8
0
  6
CONTINUOUS
 62
   249
 10
56.694476
 20
146.923461
 30
0.0
 11
56.708196
 21
146.923461
 31
0.0
 12
56.708196
 22
147.903461
 32
0.0
 13
56.694476
 23
147.903461
 33
0.0
  0
3DFACE
  8
0
  6
CONTINUOUS
 62
   249
 10
56.708196
 20
146.923461
 30
0.0
 11
56.721916
 21
146.923461
 31
0.0
 12
56.721916
 22
147.903461
 32
0.0
 13
56.708196
 23
147.903461
 33
0.0
  0
3DFACE
  8
0
  6
CONTINUOUS
 62
   249
 10
56.721916
 20
146.923461
 30
0.0
 11
56.735636
 21
146.923461
 31
0.0
 12
56.735636
 22
147.903461
 32
0.0
 13
56.721916
 23
147.903461
 33
0.0
  0
3DFACE
  8
0
  6
CONTINUOUS
 62
   249
 10
56.735636
 20
146.923461
 30
0.0
 11
56.749356
 21
146.923461
 31
0.0
 12
56.749356
 22
147.903461
 32
0.0
 13
56.735636
 23
147.903461
 33
0.0
  0
3DFACE
  8
0
  6
CONTINUOUS
 62
   249
 10
56.749356
 20
146.923461
 30
0.0
 11
56.763076
 21
146.923461
 31
0.0
 12
56.763076
 22
147.903461
 32
0.0
 13
56.749356
 23
147.903461
 33
0.0
  0
3DFACE
  8
0
  6
CONTINUOUS
 62
   249
 10
56.763076
 20
146.923461
 30
0.0
 11
56.776796
 21
146.923461
 31
0.0
 12
56.776796
 22
147.903461
 32
0.0
 13
56.763076
 23
147.903461
 33
0.0
  0
3DFACE
  8
0
  6
CONTINUOUS
 62
   249
 10
56.776796
 20
146.923461
 30
0.0
 11
56.790516
 21
146.923461
 31
0.0
 12
56.790516
 22
147.903461
 32
0.0
 13
56.776796
 23
147.903461
 33
0.0
  0
3DFACE
  8
0
  6
CONTINUOUS
 62
   249
 10
56.790516
 20
146.923461
 30
0.0
 11
56.804236
 21
146.923461
 31
0.0
 12
56.804236
 22
147.903461
 32
0.0
 13
56.790516
 23
147.903461
 33
0.0
  0
3DFACE
  8
0
  6
CONTINUOUS
 62
   249
 10
56.804236
 20
146.923461
 30
0.0
 11
56.817956
 21
146.923461
 31
0.0
 12
56.817956
 22
147.903461
 32
0.0
 13
56.804236
 23
147.903461
 33
0.0
  0
3DFACE
  8
0
  6
CONTINUOUS
 62
   249
 10
56.817956
 20
146.923461
 30
0.0
 11
56.831676
 21
146.923461
 31
0.0
 12
56.831676
 22
147.903461
 32
0.0
 13
56.817956
 23
147.903461
 33
0.0
  0
3DFACE
  8
0
  6
CONTINUOUS
 62
   249
 10
56.831676
 20
146.923461
 30
0.0
 11
56.845396
 21
146.923461
 31
0.0
 12
56.845396
 22
147.903461
 32
0.0
 13
56.831676
 23
147.903461
 33
0.0
  0
3DFACE
  8
0
  6
CONTINUOUS
 62
   249
 10
56.845396
 20
146.923461
 30
0.0
 11
56.859116
 21
146.923461
 31
0.0
 12
56.859116
 22
147.903461
 32
0.0
 13
56.845396
 23
147.903461
 33
0.0
  0
3DFACE
  8
0
  6
CONTINUOUS
 62
   249
 10
56.859116
 20
146.923461
 30
0.0
 11
56.872836
 21
146.923461
 31
0.0
 12
56.872836
 22
147.903461
 32
0.0
 13
56.859116
 23
147.903461
 33
0.0
  0
3DFACE
  8
0
  6
CONTINUOUS
 62
   249
 10
56.872836
 20
146.923461
 30
0.0
 11
56.886556
 21
146.923461
 31
0.0
 12
56.886556
 22
147.903461
 32
0.0
 13
56.872836
 23
147.903461
 33
0.0
  0
3DFACE
  8
0
  6
CONTINUOUS
 62
   249
 10
56.886556
 20
146.923461
 30
0.0
 11
56.900276
 21
146.923461
 31
0.0
 12
56.900276
 22
147.903461
 32
0.0
 13
56.886556
 23
147.903461
 33
0.0
  0
3DFACE
  8
0
  6
CONTINUOUS
 62
   249
 10
56.900276
 20
146.923461
 30
0.0
 11
56.913996
 21
146.923461
 31
0.0
 12
56.913996
 22
147.903461
 32
0.0
 13
56.900276
 23
147.903461
 33
0.0
  0
3DFACE
  8
0
  6
CONTINUOUS
 62
   249
 10
56.913996
 20
146.923461
 30
0.0
 11
56.927716
 21
146.923461
 31
0.0
 12
56.927716
 22
147.903461
 32
0.0
 13
56.913996
 23
147.903461
 33
0.0
  0
3DFACE
  8
0
  6
CONTINUOUS
 62
   249
 10
56.927716
 20
146.923461
 30
0.0
 11
56.941436
 21
146.923461
 31
0.0
 12
56.941436
 22
147.903461
 32
0.0
 13
56.927716
 23
147.903461
 33
0.0
  0
3DFACE
  8
0
  6
CONTINUOUS
 62
   249
 10
56.941436
 20
146.923461
 30
0.0
 11
56.955156
 21
146.923461
 31
0.0
 12
56.955156
 22
147.903461
 32
0.0
 13
56.941436
 23
147.903461
 33
0.0
  0
3DFACE
  8
0
  6
CONTINUOUS
 62
   249
 10
56.955156
 20
146.923461
 30
0.0
 11
56.968876
 21
146.923461
 31
0.0
 12
56.968876
 22
147.903461
 32
0.0
 13
56.955156
 23
147.903461
 33
0.0
  0
3DFACE
  8
0
  6
CONTINUOUS
 62
   249
 10
56.968876
 20
146.923461
 30
0.0
 11
56.982596
 21
146.923461
 31
0.0
 12
56.982596
 22
147.903461
 32
0.0
 13
56.968876
 23
147.903461
 33
0.0
  0
3DFACE
  8
0
  6
CONTINUOUS
 62
   249
 10
56.982596
 20
146.923461
 30
0.0
 11
56.996316
 21
146.923461
 31
0.0
 12
56.996316
 22
147.903461
 32
0.0
 13
56.982596
 23
147.903461
 33
0.0
  0
3DFACE
  8
0
  6
CONTINUOUS
 62
   249
 10
56.996316
 20
146.923461
 30
0.0
 11
57.010036
 21
146.923461
 31
0.0
 12
57.010036
 22
147.903461
 32
0.0
 13
56.996316
 23
147.903461
 33
0.0
  0
3DFACE
  8
0
  6
CONTINUOUS
 62
   249
 10
57.010036
 20
146.923461
 30
0.0
 11
57.023756
 21
146.923461
 31
0.0
 12
57.023756
 22
147.903461
 32
0.0
 13
57.010036
 23
147.903461
 33
0.0
  0
3DFACE
  8
0
  6
CONTINUOUS
 62
   249
 10
57.023756
 20
146.923461
 30
0.0
 11
57.037476
 21
146.923461
 31
0.0
 12
57.037476
 22
147.903461
 32
0.0
 13
57.023756
 23
147.903461
 33
0.0
  0
3DFACE
  8
0
  6
CONTINUOUS
 62
   249
 10
57.037476
 20
146.923461
 30
0.0
 11
57.051196
 21
146.923461
 31
0.0
 12
57.051196
 22
147.903461
 32
0.0
 13
57.037476
 23
147.903461
 33
0.0
  0
3DFACE
  8
0
  6
CONTINUOUS
 62
   249
 10
57.051196
 20
146.923461
 30
0.0
 11
57.064916
 21
146.923461
 31
0.0
 12
57.064916
 22
147.903461
 32
0.0
 13
57.051196
 23
147.903461
 33
0.0
  0
3DFACE
  8
0
  6
CONTINUOUS
 62
   249
 10
57.064916
 20
146.923461
 30
0.0
 11
57.078636
 21
146.923461
 31
0.0
 12
57.078636
 22
147.903461
 32
0.0
 13
57.064916
 23
147.903461
 33
0.0
  0
3DFACE
  8
0
  6
CONTINUOUS
 62
   249
 10
57.078636
 20
146.923461
 30
0.0
 11
57.092356
 21
146.923461
 31
0.0
 12
57.092356
 22
147.903461
 32
0.0
 13
57.078636
 23
147.903461
 33
0.0
  0
3DFACE
  8
0
  6
CONTINUOUS
 62
   249
 10
57.092356
 20
146.923461
 30
0.0
 11
57.106076
 21
146.923461
 31
0.0
 12
57.106076
 22
147.903461
 32
0.0
 13
57.092356
 23
147.903461
 33
0.0
  0
3DFACE
  8
0
  6
CONTINUOUS
 62
   249
 10
57.106076
 20
146.923461
 30
0.0
 11
57.119796
 21
146.923461
 31
0.0
 12
57.119796
 22
147.903461
 32
0.0
 13
57.106076
 23
147.903461
 33
0.0
  0
3DFACE
  8
0
  6
CONTINUOUS
 62
   249
 10
57.119796
 20
146.923461
 30
0.0
 11
57.133516
 21
146.923461
 31
0.0
 12
57.133516
 22
147.903461
 32
0.0
 13
57.119796
 23
147.903461
 33
0.0
  0
3DFACE
  8
0
  6
CONTINUOUS
 62
   249
 10
57.133516
 20
146.923461
 30
0.0
 11
57.147236
 21
146.923461
 31
0.0
 12
57.147236
 22
147.903461
 32
0.0
 13
57.133516
 23
147.903461
 33
0.0
  0
3DFACE
  8
0
  6
CONTINUOUS
 62
   249
 10
57.147236
 20
146.923461
 30
0.0
 11
57.160956
 21
146.923461
 31
0.0
 12
57.160956
 22
147.903461
 32
0.0
 13
57.147236
 23
147.903461
 33
0.0
  0
3DFACE
  8
0
  6
CONTINUOUS
 62
   249
 10
57.160956
 20
146.923461
 30
0.0
 11
57.174676
 21
146.923461
 31
0.0
 12
57.174676
 22
147.903461
 32
0.0
 13
57.160956
 23
147.903461
 33
0.0
  0
3DFACE
  8
0
  6
CONTINUOUS
 62
   249
 10
57.174676
 20
146.923461
 30
0.0
 11
57.188396
 21
146.923461
 31
0.0
 12
57.188396
 22
147.903461
 32
0.0
 13
57.174676
 23
147.903461
 33
0.0
  0
3DFACE
  8
0
  6
CONTINUOUS
 62
   249
 10
57.188396
 20
146.923461
 30
0.0
 11
57.202116
 21
146.923461
 31
0.0
 12
57.202116
 22
147.903461
 32
0.0
 13
57.188396
 23
147.903461
 33
0.0
  0
3DFACE
  8
0
  6
CONTINUOUS
 62
   249
 10
57.202116
 20
146.923461
 30
0.0
 11
57.215836
 21
146.923461
 31
0.0
 12
57.215836
 22
147.903461
 32
0.0
 13
57.202116
 23
147.903461
 33
0.0
  0
3DFACE
  8
0
  6
CONTINUOUS
 62
   249
 10
57.215836
 20
146.923461
 30
0.0
 11
57.229556
 21
146.923461
 31
0.0
 12
57.229556
 22
147.903461
 32
0.0
 13
57.215836
 23
147.903461
 33
0.0
  0
3DFACE
  8
0
  6
CONTINUOUS
 62
   249
 10
57.229556
 20
146.923461
 30
0.0
 11
57.243276
 21
146.923461
 31
0.0
 12
57.243276
 22
147.903461
 32
0.0
 13
57.229556
 23
147.903461
 33
0.0
  0
3DFACE
  8
0
  6
CONTINUOUS
 62
   249
 10
57.243276
 20
146.923461
 30
0.0
 11
57.256996
 21
146.923461
 31
0.0
 12
57.256996
 22
147.903461
 32
0.0
 13
57.243276
 23
147.903461
 33
0.0
  0
3DFACE
  8
0
  6
CONTINUOUS
 62
   249
 10
57.256996
 20
146.923461
 30
0.0
 11
57.270716
 21
146.923461
 31
0.0
 12
57.270716
 22
147.903461
 32
0.0
 13
57.256996
 23
147.903461
 33
0.0
  0
3DFACE
  8
0
  6
CONTINUOUS
 62
   249
 10
57.270716
 20
146.923461
 30
0.0
 11
57.284436
 21
146.923461
 31
0.0
 12
57.284436
 22
147.903461
 32
0.0
 13
57.270716
 23
147.903461
 33
0.0
  0
3DFACE
  8
0
  6
CONTINUOUS
 62
   249
 10
57.284436
 20
146.923461
 30
0.0
 11
57.298156
 21
146.923461
 31
0.0
 12
57.298156
 22
147.903461
 32
0.0
 13
57.284436
 23
147.903461
 33
0.0
  0
3DFACE
  8
0
  6
CONTINUOUS
 62
   249
 10
57.298156
 20
146.923461
 30
0.0
 11
57.311876
 21
146.923461
 31
0.0
 12
57.311876
 22
147.903461
 32
0.0
 13
57.298156
 23
147.903461
 33
0.0
  0
3DFACE
  8
0
  6
CONTINUOUS
 62
   249
 10
57.311876
 20
146.923461
 30
0.0
 11
57.325596
 21
146.923461
 31
0.0
 12
57.325596
 22
147.903461
 32
0.0
 13
57.311876
 23
147.903461
 33
0.0
  0
3DFACE
  8
0
  6
CONTINUOUS
 62
   249
 10
57.325596
 20
146.923461
 30
0.0
 11
57.339316
 21
146.923461
 31
0.0
 12
57.339316
 22
147.903461
 32
0.0
 13
57.325596
 23
147.903461
 33
0.0
  0
3DFACE
  8
0
  6
CONTINUOUS
 62
   249
 10
57.339316
 20
146.923461
 30
0.0
 11
57.353036
 21
146.923461
 31
0.0
 12
57.353036
 22
147.903461
 32
0.0
 13
57.339316
 23
147.903461
 33
0.0
  0
3DFACE
  8
0
  6
CONTINUOUS
 62
   249
 10
57.353036
 20
146.923461
 30
0.0
 11
57.366756
 21
146.923461
 31
0.0
 12
57.366756
 22
147.903461
 32
0.0
 13
57.353036
 23
147.903461
 33
0.0
  0
3DFACE
  8
0
  6
CONTINUOUS
 62
   249
 10
57.366756
 20
146.923461
 30
0.0
 11
57.380476
 21
146.923461
 31
0.0
 12
57.380476
 22
147.903461
 32
0.0
 13
57.366756
 23
147.903461
 33
0.0
  0
3DFACE
  8
0
  6
CONTINUOUS
 62
   249
 10
57.380476
 20
146.923461
 30
0.0
 11
57.394196
 21
146.923461
 31
0.0
 12
57.394196
 22
147.903461
 32
0.0
 13
57.380476
 23
147.903461
 33
0.0
  0
3DFACE
  8
0
  6
CONTINUOUS
 62
   249
 10
57.394196
 20
146.923461
 30
0.0
 11
57.407916
 21
146.923461
 31
0.0
 12
57.407916
 22
147.903461
 32
0.0
 13
57.394196
 23
147.903461
 33
0.0
  0
3DFACE
  8
0
  6
CONTINUOUS
 62
   249
 10
57.407916
 20
146.923461
 30
0.0
 11
57.421636
 21
146.923461
 31
0.0
 12
57.421636
 22
147.903461
 32
0.0
 13
57.407916
 23
147.903461
 33
0.0
  0
3DFACE
  8
0
  6
CONTINUOUS
 62
   249
 10
57.421636
 20
146.923461
 30
0.0
 11
57.435356
 21
146.923461
 31
0.0
 12
57.435356
 22
147.903461
 32
0.0
 13
57.421636
 23
147.903461
 33
0.0
  0
3DFACE
  8
0
  6
CONTINUOUS
 62
   249
 10
57.435356
 20
146.923461
 30
0.0
 11
57.449076
 21
146.923461
 31
0.0
 12
57.449076
 22
147.903461
 32
0.0
 13
57.435356
 23
147.903461
 33
0.0
  0
3DFACE
  8
0
  6
CONTINUOUS
 62
   249
 10
57.449076
 20
146.923461
 30
0.0
 11
57.462796
 21
146.923461
 31
0.0
 12
57.462796
 22
147.903461
 32
0.0
 13
57.449076
 23
147.903461
 33
0.0
  0
3DFACE
  8
0
  6
CONTINUOUS
 62
   249
 10
57.462796
 20
146.923461
 30
0.0
 11
57.476516
 21
146.923461
 31
0.0
 12
57.476516
 22
147.903461
 32
0.0
 13
57.462796
 23
147.903461
 33
0.0
  0
3DFACE
  8
0
  6
CONTINUOUS
 62
   249
 10
57.476516
 20
146.923461
 30
0.0
 11
57.490236
 21
146.923461
 31
0.0
 12
57.490236
 22
147.903461
 32
0.0
 13
57.476516
 23
147.903461
 33
0.0
  0
3DFACE
  8
0
  6
CONTINUOUS
 62
   249
 10
57.490236
 20
146.923461
 30
0.0
 11
57.503956
 21
146.923461
 31
0.0
 12
57.503956
 22
147.903461
 32
0.0
 13
57.490236
 23
147.903461
 33
0.0
  0
3DFACE
  8
0
  6
CONTINUOUS
 62
   249
 10
57.503956
 20
146.923461
 30
0.0
 11
57.517676
 21
146.923461
 31
0.0
 12
57.517676
 22
147.903461
 32
0.0
 13
57.503956
 23
147.903461
 33
0.0
  0
3DFACE
  8
0
  6
CONTINUOUS
 62
   249
 10
57.517676
 20
146.923461
 30
0.0
 11
57.531396
 21
146.923461
 31
0.0
 12
57.531396
 22
147.903461
 32
0.0
 13
57.517676
 23
147.903461
 33
0.0
  0
3DFACE
  8
0
  6
CONTINUOUS
 62
   249
 10
57.531396
 20
146.923461
 30
0.0
 11
57.545116
 21
146.923461
 31
0.0
 12
57.545116
 22
147.903461
 32
0.0
 13
57.531396
 23
147.903461
 33
0.0
  0
3DFACE
  8
0
  6
CONTINUOUS
 62
   249
 10
57.545116
 20
146.923461
 30
0.0
 11
57.558836
 21
146.923461
 31
0.0
 12
57.558836
 22
147.903461
 32
0.0
 13
57.545116
 23
147.903461
 33
0.0
  0
3DFACE
  8
0
  6
CONTINUOUS
 62
   249
 10
57.558836
 20
146.923461
 30
0.0
 11
57.572556
 21
146.923461
 31
0.0
 12
57.572556
 22
147.903461
 32
0.0
 13
57.558836
 23
147.903461
 33
0.0
  0
3DFACE
  8
0
  6
CONTINUOUS
 62
   249
 10
57.572556
 20
146.923461
 30
0.0
 11
57.586276
 21
146.923461
 31
0.0
 12
57.586276
 22
147.903461
 32
0.0
 13
57.572556
 23
147.903461
 33
0.0
  0
3DFACE
  8
0
  6
CONTINUOUS
 62
   249
 10
57.586276
 20
146.923461
 30
0.0
 11
57.599996
 21
146.923461
 31
0.0
 12
57.599996
 22
147.903461
 32
0.0
 13
57.586276
 23
147.903461
 33
0.0
  0
3DFACE
  8
0
  6
CONTINUOUS
 62
   249
 10
57.599996
 20
146.923461
 30
0.0
 11
57.613716
 21
146.923461
 31
0.0
 12
57.613716
 22
147.903461
 32
0.0
 13
57.599996
 23
147.903461
 33
0.0
  0
3DFACE
  8
0
  6
CONTINUOUS
 62
   249
 10
57.613716
 20
146.923461
 30
0.0
 11
57.627436
 21
146.923461
 31
0.0
 12
57.627436
 22
147.903461
 32
0.0
 13
57.613716
 23
147.903461
 33
0.0
  0
3DFACE
  8
0
  6
CONTINUOUS
 62
   249
 10
57.627436
 20
146.923461
 30
0.0
 11
57.641156
 21
146.923461
 31
0.0
 12
57.641156
 22
147.903461
 32
0.0
 13
57.627436
 23
147.903461
 33
0.0
  0
3DFACE
  8
0
  6
CONTINUOUS
 62
   249
 10
57.641156
 20
146.923461
 30
0.0
 11
57.654876
 21
146.923461
 31
0.0
 12
57.654876
 22
147.903461
 32
0.0
 13
57.641156
 23
147.903461
 33
0.0
  0
3DFACE
  8
0
  6
CONTINUOUS
 62
   249
 10
57.654876
 20
146.923461
 30
0.0
 11
57.668596
 21
146.923461
 31
0.0
 12
57.668596
 22
147.903461
 32
0.0
 13
57.654876
 23
147.903461
 33
0.0
  0
3DFACE
  8
0
  6
CONTINUOUS
 62
   249
 10
57.668596
 20
146.923461
 30
0.0
 11
57.682316
 21
146.923461
 31
0.0
 12
57.682316
 22
147.903461
 32
0.0
 13
57.668596
 23
147.903461
 33
0.0
  0
3DFACE
  8
0
  6
CONTINUOUS
 62
   249
 10
57.682316
 20
146.923461
 30
0.0
 11
57.696036
 21
146.923461
 31
0.0
 12
57.696036
 22
147.903461
 32
0.0
 13
57.682316
 23
147.903461
 33
0.0
  0
3DFACE
  8
0
  6
CONTINUOUS
 62
   249
 10
57.696036
 20
146.923461
 30
0.0
 11
57.709756
 21
146.923461
 31
0.0
 12
57.709756
 22
147.903461
 32
0.0
 13
57.696036
 23
147.903461
 33
0.0
  0
3DFACE
  8
0
  6
CONTINUOUS
 62
   249
 10
57.709756
 20
146.923461
 30
0.0
 11
57.723476
 21
146.923461
 31
0.0
 12
57.723476
 22
147.903461
 32
0.0
 13
57.709756
 23
147.903461
 33
0.0
  0
3DFACE
  8
0
  6
CONTINUOUS
 62
   249
 10
57.723476
 20
146.923461
 30
0.0
 11
57.737196
 21
146.923461
 31
0.0
 12
57.737196
 22
147.903461
 32
0.0
 13
57.723476
 23
147.903461
 33
0.0
  0
3DFACE
  8
0
  6
CONTINUOUS
 62
   249
 10
57.737196
 20
146.923461
 30
0.0
 11
57.750916
 21
146.923461
 31
0.0
 12
57.750916
 22
147.903461
 32
0.0
 13
57.737196
 23
147.903461
 33
0.0
  0
3DFACE
  8
0
  6
CONTINUOUS
 62
   249
 10
57.750916
 20
146.923461
 30
0.0
 11
57.764636
 21
146.923461
 31
0.0
 12
57.764636
 22
147.903461
 32
0.0
 13
57.750916
 23
147.903461
 33
0.0
  0
3DFACE
  8
0
  6
CONTINUOUS
 62
   249
 10
57.764636
 20
146.923461
 30
0.0
 11
57.778356
 21
146.923461
 31
0.0
 12
57.778356
 22
147.903461
 32
0.0
 13
57.764636
 23
147.903461
 33
0.0
  0
3DFACE
  8
0
  6
CONTINUOUS
 62
   249
 10
57.778356
 20
146.923461
 30
0.0
 11
57.792076
 21
146.923461
 31
0.0
 12
57.792076
 22
147.903461
 32
0.0
 13
57.778356
 23
147.903461
 33
0.0
  0
3DFACE
  8
0
  6
CONTINUOUS
 62
   249
 10
57.792076
 20
146.923461
 30
0.0
 11
57.805796
 21
146.923461
 31
0.0
 12
57.805796
 22
147.903461
 32
0.0
 13
57.792076
 23
147.903461
 33
0.0
  0
3DFACE
  8
0
  6
CONTINUOUS
 62
   249
 10
57.805796
 20
146.923461
 30
0.0
 11
57.819516
 21
146.923461
 31
0.0
 12
57.819516
 22
147.903461
 32
0.0
 13
57.805796
 23
147.903461
 33
0.0
  0
3DFACE
  8
0
  6
CONTINUOUS
 62
   249
 10
57.819516
 20
146.923461
 30
0.0
 11
57.833236
 21
146.923461
 31
0.0
 12
57.833236
 22
147.903461
 32
0.0
 13
57.819516
 23
147.903461
 33
0.0
  0
3DFACE
  8
0
  6
CONTINUOUS
 62
   249
 10
57.833236
 20
146.923461
 30
0.0
 11
57.846956
 21
146.923461
 31
0.0
 12
57.846956
 22
147.903461
 32
0.0
 13
57.833236
 23
147.903461
 33
0.0
  0
3DFACE
  8
0
  6
CONTINUOUS
 62
   249
 10
57.846956
 20
146.923461
 30
0.0
 11
57.860676
 21
146.923461
 31
0.0
 12
57.860676
 22
147.903461
 32
0.0
 13
57.846956
 23
147.903461
 33
0.0
  0
3DFACE
  8
0
  6
CONTINUOUS
 62
   249
 10
57.860676
 20
146.923461
 30
0.0
 11
57.874396
 21
146.923461
 31
0.0
 12
57.874396
 22
147.903461
 32
0.0
 13
57.860676
 23
147.903461
 33
0.0
  0
3DFACE
  8
0
  6
CONTINUOUS
 62
   249
 10
57.874396
 20
146.923461
 30
0.0
 11
57.888116
 21
146.923461
 31
0.0
 12
57.888116
 22
147.903461
 32
0.0
 13
57.874396
 23
147.903461
 33
0.0
  0
3DFACE
  8
0
  6
CONTINUOUS
 62
   249
 10
57.888116
 20
146.923461
 30
0.0
 11
57.901836
 21
146.923461
 31
0.0
 12
57.901836
 22
147.903461
 32
0.0
 13
57.888116
 23
147.903461
 33
0.0
  0
3DFACE
  8
0
  6
CONTINUOUS
 62
   249
 10
57.901836
 20
146.923461
 30
0.0
 11
57.915556
 21
146.923461
 31
0.0
 12
57.915556
 22
147.903461
 32
0.0
 13
57.901836
 23
147.903461
 33
0.0
  0
3DFACE
  8
0
  6
CONTINUOUS
 62
   249
 10
57.915556
 20
146.923461
 30
0.0
 11
57.929276
 21
146.923461
 31
0.0
 12
57.929276
 22
147.903461
 32
0.0
 13
57.915556
 23
147.903461
 33
0.0
  0
3DFACE
  8
0
  6
CONTINUOUS
 62
   249
 10
57.929276
 20
146.923461
 30
0.0
 11
57.942996
 21
146.923461
 31
0.0
 12
57.942996
 22
147.903461
 32
0.0
 13
57.929276
 23
147.903461
 33
0.0
  0
3DFACE
  8
0
  6
CONTINUOUS
 62
   249
 10
57.942996
 20
146.923461
 30
0.0
 11
57.956716
 21
146.923461
 31
0.0
 12
57.956716
 22
147.903461
 32
0.0
 13
57.942996
 23
147.903461
 33
0.0
  0
3DFACE
  8
0
  6
CONTINUOUS
 62
   249
 10
57.956716
 20
146.923461
 30
0.0
 11
57.970436
 21
146.923461
 31
0.0
 12
57.970436
 22
147.903461
 32
0.0
 13
57.956716
 23
147.903461
 33
0.0
  0
3DFACE
  8
0
  6
CONTINUOUS
 62
   249
 10
57.970436
 20
146.923461
 30
0.0
 11
57.984156
 21
146.923461
 31
0.0
 12
57.984156
 22
147.903461
 32
0.0
 13
57.970436
 23
147.903461
 33
0.0
  0
3DFACE
  8
0
  6
CONTINUOUS
 62
   249
 10
57.984156
 20
146.923461
 30
0.0
 11
57.997876
 21
146.923461
 31
0.0
 12
57.997876
 22
147.903461
 32
0.0
 13
57.984156
 23
147.903461
 33
0.0
  0
3DFACE
  8
0
  6
CONTINUOUS
 62
   249
 10
57.997876
 20
146.923461
 30
0.0
 11
58.011596
 21
146.923461
 31
0.0
 12
58.011596
 22
147.903461
 32
0.0
 13
57.997876
 23
147.903461
 33
0.0
  0
3DFACE
  8
0
  6
CONTINUOUS
 62
   249
 10
58.011596
 20
146.923461
 30
0.0
 11
58.025316
 21
146.923461
 31
0.0
 12
58.025316
 22
147.903461
 32
0.0
 13
58.011596
 23
147.903461
 33
0.0
  0
3DFACE
  8
0
  6
CONTINUOUS
 62
   249
 10
58.025316
 20
146.923461
 30
0.0
 11
58.039036
 21
146.923461
 31
0.0
 12
58.039036
 22
147.903461
 32
0.0
 13
58.025316
 23
147.903461
 33
0.0
  0
3DFACE
  8
0
  6
CONTINUOUS
 62
   249
 10
58.039036
 20
146.923461
 30
0.0
 11
58.052756
 21
146.923461
 31
0.0
 12
58.052756
 22
147.903461
 32
0.0
 13
58.039036
 23
147.903461
 33
0.0
  0
3DFACE
  8
0
  6
CONTINUOUS
 62
   249
 10
58.052756
 20
146.923461
 30
0.0
 11
58.066476
 21
146.923461
 31
0.0
 12
58.066476
 22
147.903461
 32
0.0
 13
58.052756
 23
147.903461
 33
0.0
  0
3DFACE
  8
0
  6
CONTINUOUS
 62
   249
 10
58.066476
 20
146.923461
 30
0.0
 11
58.080196
 21
146.923461
 31
0.0
 12
58.080196
 22
147.903461
 32
0.0
 13
58.066476
 23
147.903461
 33
0.0
  0
3DFACE
  8
0
  6
CONTINUOUS
 62
   249
 10
58.080196
 20
146.923461
 30
0.0
 11
58.093916
 21
146.923461
 31
0.0
 12
58.093916
 22
147.903461
 32
0.0
 13
58.080196
 23
147.903461
 33
0.0
  0
3DFACE
  8
0
  6
CONTINUOUS
 62
   249
 10
58.093916
 20
146.923461
 30
0.0
 11
58.107636
 21
146.923461
 31
0.0
 12
58.107636
 22
147.903461
 32
0.0
 13
58.093916
 23
147.903461
 33
0.0
  0
3DFACE
  8
0
  6
CONTINUOUS
 62
   249
 10
58.107636
 20
146.923461
 30
0.0
 11
58.121356
 21
146.923461
 31
0.0
 12
58.121356
 22
147.903461
 32
0.0
 13
58.107636
 23
147.903461
 33
0.0
  0
3DFACE
  8
0
  6
CONTINUOUS
 62
   249
 10
58.121356
 20
146.923461
 30
0.0
 11
58.135076
 21
146.923461
 31
0.0
 12
58.135076
 22
147.903461
 32
0.0
 13
58.121356
 23
147.903461
 33
0.0
  0
3DFACE
  8
0
  6
CONTINUOUS
 62
   249
 10
58.135076
 20
146.923461
 30
0.0
 11
58.148796
 21
146.923461
 31
0.0
 12
58.148796
 22
147.903461
 32
0.0
 13
58.135076
 23
147.903461
 33
0.0
  0
3DFACE
  8
0
  6
CONTINUOUS
 62
   249
 10
58.148796
 20
146.923461
 30
0.0
 11
58.162516
 21
146.923461
 31
0.0
 12
58.162516
 22
147.903461
 32
0.0
 13
58.148796
 23
147.903461
 33
0.0
  0
3DFACE
  8
0
  6
CONTINUOUS
 62
   249
 10
58.162516
 20
146.923461
 30
0.0
 11
58.176236
 21
146.923461
 31
0.0
 12
58.176236
 22
147.903461
 32
0.0
 13
58.162516
 23
147.903461
 33
0.0
  0
3DFACE
  8
0
  6
CONTINUOUS
 62
   249
 10
58.176236
 20
146.923461
 30
0.0
 11
58.189956
 21
146.923461
 31
0.0
 12
58.189956
 22
147.903461
 32
0.0
 13
58.176236
 23
147.903461
 33
0.0
  0
3DFACE
  8
0
  6
CONTINUOUS
 62
   249
 10
58.189956
 20
146.923461
 30
0.0
 11
58.203676
 21
146.923461
 31
0.0
 12
58.203676
 22
147.903461
 32
0.0
 13
58.189956
 23
147.903461
 33
0.0
  0
3DFACE
  8
0
  6
CONTINUOUS
 62
   249
 10
58.203676
 20
146.923461
 30
0.0
 11
58.217396
 21
146.923461
 31
0.0
 12
58.217396
 22
147.903461
 32
0.0
 13
58.203676
 23
147.903461
 33
0.0
  0
3DFACE
  8
0
  6
CONTINUOUS
 62
   249
 10
58.217396
 20
146.923461
 30
0.0
 11
58.231116
 21
146.923461
 31
0.0
 12
58.231116
 22
147.903461
 32
0.0
 13
58.217396
 23
147.903461
 33
0.0
  0
3DFACE
  8
0
  6
CONTINUOUS
 62
   249
 10
58.231116
 20
146.923461
 30
0.0
 11
58.244836
 21
146.923461
 31
0.0
 12
58.244836
 22
147.903461
 32
0.0
 13
58.231116
 23
147.903461
 33
0.0
  0
3DFACE
  8
0
  6
CONTINUOUS
 62
   249
 10
58.244836
 20
146.923461
 30
0.0
 11
58.258556
 21
146.923461
 31
0.0
 12
58.258556
 22
147.903461
 32
0.0
 13
58.244836
 23
147.903461
 33
0.0
  0
3DFACE
  8
0
  6
CONTINUOUS
 62
   249
 10
58.258556
 20
146.923461
 30
0.0
 11
58.272276
 21
146.923461
 31
0.0
 12
58.272276
 22
147.903461
 32
0.0
 13
58.258556
 23
147.903461
 33
0.0
  0
3DFACE
  8
0
  6
CONTINUOUS
 62
   249
 10
58.272276
 20
146.923461
 30
0.0
 11
58.285996
 21
146.923461
 31
0.0
 12
58.285996
 22
147.903461
 32
0.0
 13
58.272276
 23
147.903461
 33
0.0
  0
3DFACE
  8
0
  6
CONTINUOUS
 62
   249
 10
58.285996
 20
146.923461
 30
0.0
 11
58.299716
 21
146.923461
 31
0.0
 12
58.299716
 22
147.903461
 32
0.0
 13
58.285996
 23
147.903461
 33
0.0
  0
3DFACE
  8
0
  6
CONTINUOUS
 62
   249
 10
58.299716
 20
146.923461
 30
0.0
 11
58.313436
 21
146.923461
 31
0.0
 12
58.313436
 22
147.903461
 32
0.0
 13
58.299716
 23
147.903461
 33
0.0
  0
3DFACE
  8
0
  6
CONTINUOUS
 62
   249
 10
58.313436
 20
146.923461
 30
0.0
 11
58.327156
 21
146.923461
 31
0.0
 12
58.327156
 22
147.903461
 32
0.0
 13
58.313436
 23
147.903461
 33
0.0
  0
3DFACE
  8
0
  6
CONTINUOUS
 62
   249
 10
58.327156
 20
146.923461
 30
0.0
 11
58.340876
 21
146.923461
 31
0.0
 12
58.340876
 22
147.903461
 32
0.0
 13
58.327156
 23
147.903461
 33
0.0
  0
3DFACE
  8
0
  6
CONTINUOUS
 62
   249
 10
58.340876
 20
146.923461
 30
0.0
 11
58.354596
 21
146.923461
 31
0.0
 12
58.354596
 22
147.903461
 32
0.0
 13
58.340876
 23
147.903461
 33
0.0
  0
3DFACE
  8
0
  6
CONTINUOUS
 62
   249
 10
58.354596
 20
146.923461
 30
0.0
 11
58.368316
 21
146.923461
 31
0.0
 12
58.368316
 22
147.903461
 32
0.0
 13
58.354596
 23
147.903461
 33
0.0
  0
3DFACE
  8
0
  6
CONTINUOUS
 62
   249
 10
58.368316
 20
146.923461
 30
0.0
 11
58.382036
 21
146.923461
 31
0.0
 12
58.382036
 22
147.903461
 32
0.0
 13
58.368316
 23
147.903461
 33
0.0
  0
3DFACE
  8
0
  6
CONTINUOUS
 62
   249
 10
58.382036
 20
146.923461
 30
0.0
 11
58.395756
 21
146.923461
 31
0.0
 12
58.395756
 22
147.903461
 32
0.0
 13
58.382036
 23
147.903461
 33
0.0
  0
3DFACE
  8
0
  6
CONTINUOUS
 62
   249
 10
58.395756
 20
146.923461
 30
0.0
 11
58.409476
 21
146.923461
 31
0.0
 12
58.409476
 22
147.903461
 32
0.0
 13
58.395756
 23
147.903461
 33
0.0
  0
3DFACE
  8
0
  6
CONTINUOUS
 62
   249
 10
58.409476
 20
146.923461
 30
0.0
 11
58.423196
 21
146.923461
 31
0.0
 12
58.423196
 22
147.903461
 32
0.0
 13
58.409476
 23
147.903461
 33
0.0
  0
3DFACE
  8
0
  6
CONTINUOUS
 62
   249
 10
58.423196
 20
146.923461
 30
0.0
 11
58.436916
 21
146.923461
 31
0.0
 12
58.436916
 22
147.903461
 32
0.0
 13
58.423196
 23
147.903461
 33
0.0
  0
3DFACE
  8
0
  6
CONTINUOUS
 62
   249
 10
58.436916
 20
146.923461
 30
0.0
 11
58.450636
 21
146.923461
 31
0.0
 12
58.450636
 22
147.903461
 32
0.0
 13
58.436916
 23
147.903461
 33
0.0
  0
3DFACE
  8
0
  6
CONTINUOUS
 62
   249
 10
58.450636
 20
146.923461
 30
0.0
 11
58.464356
 21
146.923461
 31
0.0
 12
58.464356
 22
147.903461
 32
0.0
 13
58.450636
 23
147.903461
 33
0.0
  0
3DFACE
  8
0
  6
CONTINUOUS
 62
   249
 10
58.464356
 20
146.923461
 30
0.0
 11
58.478076
 21
146.923461
 31
0.0
 12
58.478076
 22
147.903461
 32
0.0
 13
58.464356
 23
147.903461
 33
0.0
  0
3DFACE
  8
0
  6
CONTINUOUS
 62
   249
 10
58.478076
 20
146.923461
 30
0.0
 11
58.491796
 21
146.923461
 31
0.0
 12
58.491796
 22
147.903461
 32
0.0
 13
58.478076
 23
147.903461
 33
0.0
  0
3DFACE
  8
0
  6
CONTINUOUS
 62
   249
 10
58.491796
 20
146.923461
 30
0.0
 11
58.505516
 21
146.923461
 31
0.0
 12
58.505516
 22
147.903461
 32
0.0
 13
58.491796
 23
147.903461
 33
0.0
  0
3DFACE
  8
0
  6
CONTINUOUS
 62
   249
 10
58.505516
 20
146.923461
 30
0.0
 11
58.519236
 21
146.923461
 31
0.0
 12
58.519236
 22
147.903461
 32
0.0
 13
58.505516
 23
147.903461
 33
0.0
  0
3DFACE
  8
0
  6
CONTINUOUS
 62
   249
 10
58.519236
 20
146.923461
 30
0.0
 11
58.532956
 21
146.923461
 31
0.0
 12
58.532956
 22
147.903461
 32
0.0
 13
58.519236
 23
147.903461
 33
0.0
  0
3DFACE
  8
0
  6
CONTINUOUS
 62
   249
 10
58.532956
 20
146.923461
 30
0.0
 11
58.546676
 21
146.923461
 31
0.0
 12
58.546676
 22
147.903461
 32
0.0
 13
58.532956
 23
147.903461
 33
0.0
  0
3DFACE
  8
0
  6
CONTINUOUS
 62
   249
 10
58.546676
 20
146.923461
 30
0.0
 11
58.560396
 21
146.923461
 31
0.0
 12
58.560396
 22
147.903461
 32
0.0
 13
58.546676
 23
147.903461
 33
0.0
  0
3DFACE
  8
0
  6
CONTINUOUS
 62
   249
 10
58.560396
 20
146.923461
 30
0.0
 11
58.574116
 21
146.923461
 31
0.0
 12
58.574116
 22
147.903461
 32
0.0
 13
58.560396
 23
147.903461
 33
0.0
  0
3DFACE
  8
0
  6
CONTINUOUS
 62
   249
 10
58.574116
 20
146.923461
 30
0.0
 11
58.587836
 21
146.923461
 31
0.0
 12
58.587836
 22
147.903461
 32
0.0
 13
58.574116
 23
147.903461
 33
0.0
  0
3DFACE
  8
0
  6
CONTINUOUS
 62
   249
 10
58.587836
 20
146.923461
 30
0.0
 11
58.601556
 21
146.923461
 31
0.0
 12
58.601556
 22
147.903461
 32
0.0
 13
58.587836
 23
147.903461
 33
0.0
  0
3DFACE
  8
0
  6
CONTINUOUS
 62
   249
 10
58.601556
 20
146.923461
 30
0.0
 11
58.615276
 21
146.923461
 31
0.0
 12
58.615276
 22
147.903461
 32
0.0
 13
58.601556
 23
147.903461
 33
0.0
  0
3DFACE
  8
0
  6
CONTINUOUS
 62
   249
 10
58.615276
 20
146.923461
 30
0.0
 11
58.628996
 21
146.923461
 31
0.0
 12
58.628996
 22
147.903461
 32
0.0
 13
58.615276
 23
147.903461
 33
0.0
  0
3DFACE
  8
0
  6
CONTINUOUS
 62
   249
 10
58.628996
 20
146.923461
 30
0.0
 11
58.642716
 21
146.923461
 31
0.0
 12
58.642716
 22
147.903461
 32
0.0
 13
58.628996
 23
147.903461
 33
0.0
  0
3DFACE
  8
0
  6
CONTINUOUS
 62
   249
 10
58.642716
 20
146.923461
 30
0.0
 11
58.656436
 21
146.923461
 31
0.0
 12
58.656436
 22
147.903461
 32
0.0
 13
58.642716
 23
147.903461
 33
0.0
  0
3DFACE
  8
0
  6
CONTINUOUS
 62
   249
 10
58.656436
 20
146.923461
 30
0.0
 11
58.670156
 21
146.923461
 31
0.0
 12
58.670156
 22
147.903461
 32
0.0
 13
58.656436
 23
147.903461
 33
0.0
  0
3DFACE
  8
0
  6
CONTINUOUS
 62
   249
 10
58.670156
 20
146.923461
 30
0.0
 11
58.683876
 21
146.923461
 31
0.0
 12
58.683876
 22
147.903461
 32
0.0
 13
58.670156
 23
147.903461
 33
0.0
  0
3DFACE
  8
0
  6
CONTINUOUS
 62
   249
 10
58.683876
 20
146.923461
 30
0.0
 11
58.697596
 21
146.923461
 31
0.0
 12
58.697596
 22
147.903461
 32
0.0
 13
58.683876
 23
147.903461
 33
0.0
  0
3DFACE
  8
0
  6
CONTINUOUS
 62
   249
 10
58.697596
 20
146.923461
 30
0.0
 11
58.711316
 21
146.923461
 31
0.0
 12
58.711316
 22
147.903461
 32
0.0
 13
58.697596
 23
147.903461
 33
0.0
  0
3DFACE
  8
0
  6
CONTINUOUS
 62
   249
 10
58.711316
 20
146.923461
 30
0.0
 11
58.725036
 21
146.923461
 31
0.0
 12
58.725036
 22
147.903461
 32
0.0
 13
58.711316
 23
147.903461
 33
0.0
  0
3DFACE
  8
0
  6
CONTINUOUS
 62
   249
 10
58.725036
 20
146.923461
 30
0.0
 11
58.738756
 21
146.923461
 31
0.0
 12
58.738756
 22
147.903461
 32
0.0
 13
58.725036
 23
147.903461
 33
0.0
  0
3DFACE
  8
0
  6
CONTINUOUS
 62
   249
 10
58.738756
 20
146.923461
 30
0.0
 11
58.752476
 21
146.923461
 31
0.0
 12
58.752476
 22
147.903461
 32
0.0
 13
58.738756
 23
147.903461
 33
0.0
  0
3DFACE
  8
0
  6
CONTINUOUS
 62
   249
 10
58.752476
 20
146.923461
 30
0.0
 11
58.766196
 21
146.923461
 31
0.0
 12
58.766196
 22
147.903461
 32
0.0
 13
58.752476
 23
147.903461
 33
0.0
  0
3DFACE
  8
0
  6
CONTINUOUS
 62
   249
 10
58.766196
 20
146.923461
 30
0.0
 11
58.779916
 21
146.923461
 31
0.0
 12
58.779916
 22
147.903461
 32
0.0
 13
58.766196
 23
147.903461
 33
0.0
  0
3DFACE
  8
0
  6
CONTINUOUS
 62
   249
 10
58.779916
 20
146.923461
 30
0.0
 11
58.793636
 21
146.923461
 31
0.0
 12
58.793636
 22
147.903461
 32
0.0
 13
58.779916
 23
147.903461
 33
0.0
  0
3DFACE
  8
0
  6
CONTINUOUS
 62
   249
 10
58.793636
 20
146.923461
 30
0.0
 11
58.807356
 21
146.923461
 31
0.0
 12
58.807356
 22
147.903461
 32
0.0
 13
58.793636
 23
147.903461
 33
0.0
  0
3DFACE
  8
0
  6
CONTINUOUS
 62
   249
 10
58.807356
 20
146.923461
 30
0.0
 11
58.821076
 21
146.923461
 31
0.0
 12
58.821076
 22
147.903461
 32
0.0
 13
58.807356
 23
147.903461
 33
0.0
  0
3DFACE
  8
0
  6
CONTINUOUS
 62
   249
 10
58.821076
 20
146.923461
 30
0.0
 11
58.834796
 21
146.923461
 31
0.0
 12
58.834796
 22
147.903461
 32
0.0
 13
58.821076
 23
147.903461
 33
0.0
  0
3DFACE
  8
0
  6
CONTINUOUS
 62
   249
 10
58.834796
 20
146.923461
 30
0.0
 11
58.848516
 21
146.923461
 31
0.0
 12
58.848516
 22
147.903461
 32
0.0
 13
58.834796
 23
147.903461
 33
0.0
  0
3DFACE
  8
0
  6
CONTINUOUS
 62
   249
 10
58.848516
 20
146.923461
 30
0.0
 11
58.862236
 21
146.923461
 31
0.0
 12
58.862236
 22
147.903461
 32
0.0
 13
58.848516
 23
147.903461
 33
0.0
  0
3DFACE
  8
0
  6
CONTINUOUS
 62
   249
 10
58.862236
 20
146.923461
 30
0.0
 11
58.875956
 21
146.923461
 31
0.0
 12
58.875956
 22
147.903461
 32
0.0
 13
58.862236
 23
147.903461
 33
0.0
  0
3DFACE
  8
0
  6
CONTINUOUS
 62
   249
 10
58.875956
 20
146.923461
 30
0.0
 11
58.889676
 21
146.923461
 31
0.0
 12
58.889676
 22
147.903461
 32
0.0
 13
58.875956
 23
147.903461
 33
0.0
  0
3DFACE
  8
0
  6
CONTINUOUS
 62
   249
 10
58.889676
 20
146.923461
 30
0.0
 11
58.903396
 21
146.923461
 31
0.0
 12
58.903396
 22
147.903461
 32
0.0
 13
58.889676
 23
147.903461
 33
0.0
  0
3DFACE
  8
0
  6
CONTINUOUS
 62
   249
 10
58.903396
 20
146.923461
 30
0.0
 11
58.917116
 21
146.923461
 31
0.0
 12
58.917116
 22
147.903461
 32
0.0
 13
58.903396
 23
147.903461
 33
0.0
  0
3DFACE
  8
0
  6
CONTINUOUS
 62
   249
 10
58.917116
 20
146.923461
 30
0.0
 11
58.930836
 21
146.923461
 31
0.0
 12
58.930836
 22
147.903461
 32
0.0
 13
58.917116
 23
147.903461
 33
0.0
  0
3DFACE
  8
0
  6
CONTINUOUS
 62
   249
 10
58.930836
 20
146.923461
 30
0.0
 11
58.944556
 21
146.923461
 31
0.0
 12
58.944556
 22
147.903461
 32
0.0
 13
58.930836
 23
147.903461
 33
0.0
  0
3DFACE
  8
0
  6
CONTINUOUS
 62
   249
 10
58.944556
 20
146.923461
 30
0.0
 11
58.958276
 21
146.923461
 31
0.0
 12
58.958276
 22
147.903461
 32
0.0
 13
58.944556
 23
147.903461
 33
0.0
  0
3DFACE
  8
0
  6
CONTINUOUS
 62
   249
 10
58.958276
 20
146.923461
 30
0.0
 11
58.971996
 21
146.923461
 31
0.0
 12
58.971996
 22
147.903461
 32
0.0
 13
58.958276
 23
147.903461
 33
0.0
  0
3DFACE
  8
0
  6
CONTINUOUS
 62
   249
 10
58.971996
 20
146.923461
 30
0.0
 11
58.985716
 21
146.923461
 31
0.0
 12
58.985716
 22
147.903461
 32
0.0
 13
58.971996
 23
147.903461
 33
0.0
  0
3DFACE
  8
0
  6
CONTINUOUS
 62
   249
 10
58.985716
 20
146.923461
 30
0.0
 11
58.999436
 21
146.923461
 31
0.0
 12
58.999436
 22
147.903461
 32
0.0
 13
58.985716
 23
147.903461
 33
0.0
  0
INSERT
  8
0
  6
CONTINUOUS
 62
   249
  2
BLC29
 10
86.744102
 20
212.579566
 30
0.0
 50
180.0
  0
INSERT
  8
0
  6
CONTINUOUS
 62
   249
  2
BLC29
 10
96.676574
 20
147.284985
 30
0.0
 50
180.0
  0
ARC
  8
0
  6
CONTINUOUS
 62
   249
 10
117.5
 20
204.459653
 30
0.0
 40
0.5
 50
180.0
 51
0.0
  0
ARC
  8
0
  6
CONTINUOUS
 62
   249
 10
117.5
 20
204.459653
 30
0.0
 40
0.5
 50
0.0
 51
180.0
  0
ARC
  8
0
  6
CONTINUOUS
 62
   249
 10
117.5
 20
212.5
 30
0.0
 40
0.5
 50
180.0
 51
0.0
  0
ARC
  8
0
  6
CONTINUOUS
 62
   249
 10
117.5
 20
212.5
 30
0.0
 40
0.5
 50
0.0
 51
180.0
  0
ARC
  8
0
  6
CONTINUOUS
 62
   249
 10
217.5
 20
100.0
 30
0.0
 40
0.5
 50
180.0
 51
0.0
  0
ARC
  8
0
  6
CONTINUOUS
 62
   249
 10
217.5
 20
100.0
 30
0.0
 40
0.5
 50
0.0
 51
180.0
  0
ARC
  8
0
  6
DASHED
 62
   249
 10
311.25
 20
102.5
 30
0.0
 40
0.5
 50
180.0
 51
0.0
  0
ARC
  8
0
  6
DASHED
 62
   249
 10
311.25
 20
102.5
 30
0.0
 40
0.5
 50
0.0
 51
180.0
  0
ARC
  8
0
  6
DASHED
 62
   249
 10
311.25
 20
107.5
 30
0.0
 40
0.5
 50
180.0
 51
0.0
  0
ARC
  8
0
  6
DASHED
 62
   249
 10
311.25
 20
107.5
 30
0.0
 40
0.5
 50
0.0
 51
180.0
  0
ARC
  8
0
  6
DASHED
 62
   249
 10
311.25
 20
112.5
 30
0.0
 40
0.5
 50
180.0
 51
0.0
  0
ARC
  8
0
  6
DASHED
 62
   249
 10
311.25
 20
112.5
 30
0.0
 40
0.5
 50
0.0
 51
180.0
  0
ARC
  8
0
  6
DASHED
 62
   249
 10
311.25
 20
117.5
 30
0.0
 40
0.5
 50
180.0
 51
0.0
  0
ARC
  8
0
  6
DASHED
 62
   249
 10
311.25
 20
117.5
 30
0.0
 40
0.5
 50
0.0
 51
180.0
  0
ARC
  8
0
  6
DASHED
 62
   249
 10
311.25
 20
122.5
 30
0.0
 40
0.5
 50
180.0
 51
0.0
  0
ARC
  8
0
  6
DASHED
 62
   249
 10
311.25
 20
122.5
 30
0.0
 40
0.5
 50
0.0
 51
180.0
  0
ARC
  8
0
  6
DASHED
 62
   249
 10
311.25
 20
127.5
 30
0.0
 40
0.5
 50
180.0
 51
0.0
  0
ARC
  8
0
  6
DASHED
 62
   249
 10
311.25
 20
127.5
 30
0.0
 40
0.5
 50
0.0
 51
180.0
  0
LINE
  8
0
  6
CONTINUOUS
 62
   249
 10
221.048993
 20
133.664646
 30
0.0
 11
218.703228
 21
135.0
 31
0.0
  0
LINE
  8
0
  6
CONTINUOUS
 62
   249
 10
218.703228
 20
135.0
 30
0.0
 11
221.048993
 21
136.189919
 31
0.0
  0
ARC
  8
0
  6
CONTINUOUS
 62
   249
 10
214.089424
 20
135.0
 30
0.0
 40
0.5
 50
180.0
 51
0.0
  0
ARC
  8
0
  6
CONTINUOUS
 62
   249
 10
214.089424
 20
135.0
 30
0.0
 40
0.5
 50
0.0
 51
180.0
  0
ARC
  8
0
  6
CONTINUOUS
 62
   249
 10
217.5
 20
165.0
 30
0.0
 40
0.5
 50
180.0
 51
0.0
  0
ARC
  8
0
  6
CONTINUOUS
 62
   249
 10
217.5
 20
165.0
 30
0.0
 40
0.5
 50
0.0
 51
180.0
  0
ARC
  8
0
  6
CONTINUOUS
 62
   249
 10
211.003215
 20
195.0
 30
0.0
 40
0.5
 50
180.0
 51
0.0
  0
ARC
  8
0
  6
CONTINUOUS
 62
   249
 10
211.003215
 20
195.0
 30
0.0
 40
0.5
 50
0.0
 51
180.0
  0
LINE
  8
0
  6
CONTINUOUS
 62
   249
 10
221.048993
 20
193.664646
 30
0.0
 11
218.703228
 21
195.0
 31
0.0
  0
LINE
  8
0
  6
CONTINUOUS
 62
   249
 10
218.703228
 20
195.0
 30
0.0
 11
221.048993
 21
196.189919
 31
0.0
  0
ARC
  8
0
  6
DASHED
 62
   249
 10
311.25
 20
172.5
 30
0.0
 40
0.5
 50
180.0
 51
0.0
  0
ARC
  8
0
  6
DASHED
 62
   249
 10
311.25
 20
172.5
 30
0.0
 40
0.5
 50
0.0
 51
180.0
  0
ARC
  8
0
  6
DASHED
 62
   249
 10
311.25
 20
142.5
 30
0.0
 40
0.5
 50
180.0
 51
0.0
  0
ARC
  8
0
  6
DASHED
 62
   249
 10
311.25
 20
142.5
 30
0.0
 40
0.5
 50
0.0
 51
180.0
  0
ARC
  8
0
  6
DASHED
 62
   249
 10
311.25
 20
132.5
 30
0.0
 40
0.5
 50
180.0
 51
0.0
  0
ARC
  8
0
  6
DASHED
 62
   249
 10
311.25
 20
132.5
 30
0.0
 40
0.5
 50
0.0
 51
180.0
  0
ARC
  8
0
  6
DASHED
 62
   249
 10
311.25
 20
137.5
 30
0.0
 40
0.5
 50
180.0
 51
0.0
  0
ARC
  8
0
  6
DASHED
 62
   249
 10
311.25
 20
137.5
 30
0.0
 40
0.5
 50
0.0
 51
180.0
  0
ARC
  8
0
  6
DASHED
 62
   249
 10
311.25
 20
147.5
 30
0.0
 40
0.5
 50
180.0
 51
0.0
  0
ARC
  8
0
  6
DASHED
 62
   249
 10
311.25
 20
147.5
 30
0.0
 40
0.5
 50
0.0
 51
180.0
  0
ARC
  8
0
  6
CONTINUOUS
 62
   249
 10
311.25
 20
162.5
 30
0.0
 40
0.5
 50
180.0
 51
0.0
  0
ARC
  8
0
  6
CONTINUOUS
 62
   249
 10
311.25
 20
162.5
 30
0.0
 40
0.5
 50
0.0
 51
180.0
  0
ARC
  8
0
  6
DASHED
 62
   249
 10
311.25
 20
167.5
 30
0.0
 40
0.5
 50
180.0
 51
0.0
  0
ARC
  8
0
  6
DASHED
 62
   249
 10
311.25
 20
167.5
 30
0.0
 40
0.5
 50
0.0
 51
180.0
  0
ARC
  8
0
  6
DASHED
 62
   249
 10
311.25
 20
192.5
 30
0.0
 40
0.5
 50
180.0
 51
0.0
  0
ARC
  8
0
  6
DASHED
 62
   249
 10
311.25
 20
192.5
 30
0.0
 40
0.5
 50
0.0
 51
180.0
  0
ARC
  8
0
  6
DASHED
 62
   249
 10
311.25
 20
182.5
 30
0.0
 40
0.5
 50
180.0
 51
0.0
  0
ARC
  8
0
  6
DASHED
 62
   249
 10
311.25
 20
182.5
 30
0.0
 40
0.5
 50
0.0
 51
180.0
  0
ARC
  8
0
  6
DASHED
 62
   249
 10
311.25
 20
177.5
 30
0.0
 40
0.5
 50
180.0
 51
0.0
  0
ARC
  8
0
  6
DASHED
 62
   249
 10
311.25
 20
177.5
 30
0.0
 40
0.5
 50
0.0
 51
180.0
  0
ARC
  8
0
  6
DASHED
 62
   249
 10
311.25
 20
187.5
 30
0.0
 40
0.5
 50
180.0
 51
0.0
  0
ARC
  8
0
  6
DASHED
 62
   249
 10
311.25
 20
187.5
 30
0.0
 40
0.5
 50
0.0
 51
180.0
  0
ARC
  8
0
  6
DASHED
 62
   249
 10
311.25
 20
197.5
 30
0.0
 40
0.5
 50
180.0
 51
0.0
  0
ARC
  8
0
  6
DASHED
 62
   249
 10
311.25
 20
197.5
 30
0.0
 40
0.5
 50
0.0
 51
180.0
  0
ARC
  8
0
  6
DASHED
 62
   249
 10
311.25
 20
202.5
 30
0.0
 40
0.5
 50
180.0
 51
0.0
  0
ARC
  8
0
  6
DASHED
 62
   249
 10
311.25
 20
202.5
 30
0.0
 40
0.5
 50
0.0
 51
180.0
  0
ARC
  8
0
  6
DASHED
 62
   249
 10
311.25
 20
207.5
 30
0.0
 40
0.5
 50
180.0
 51
0.0
  0
ARC
  8
0
  6
DASHED
 62
   249
 10
311.25
 20
207.5
 30
0.0
 40
0.5
 50
0.0
 51
180.0
  0
ENDSEC
  0
EOF
